  0
SECTION
  2
HEADER
  9
$ACADVER
  1
AC1024
  9
$DWGCODEPAGE
  3
ANSI_1252
  9
$EXTMAX
 10
558.8
 20
431.8
 30
0.0
  9
$EXTMIN
 10
0.0
 20
0.0
 30
0.0
  9
$LIMMIN
 10
0.0
 20
0.0
  9
$LIMMAX
 10
558.8
 20
431.8
  9
$VIEWCTR
 10
279.4
 20
215.9
  9
$VIEWSIZE
 40
431.8
  9
$CLAYER
  8
0
  9
$LTSCALE
 40
30.734
  9
$CELTYPE
  6
BYLAYER
  9
$DIMSCALE
 40
1.0
  9
$DIMASZ
 40
3.0
  9
$DIMEXO
 40
0.5
  9
$DIMDLI
 40
21.2344
  9
$DIMEXE
 40
1.5
  9
$DIMCEN
 40
5.0292
  9
$DIMLFAC
 40
1.0
  9
$DIMBLK
  1
_FILLED
  9
$DIMALT
 70
0
  9
$DIMALTF
 40
0.0393700787
  9
$DIMTXT
 40
3.0
  9
$DIMTOL
 70
1
  9
$DIMLIM
 70
0
  9
$DIMTFAC
 40
1.0
  9
$DIMTP
 40
0.01
  9
$DIMTM
 40
0.01
  9
$DIMGAP
 40
0.625
  9
$DIMDSEP
 70
44
  9
$AUNITS
 70
0
  9
$PDMODE
 70
3
  9
$PDSIZE
 40
3.0
  9
$HANDSEED
  5
4AB
  9
$TILEMODE
 70
1
  9
$MEASUREMENT
 70
1
  9
$INSUNITS
 70
4
  0
ENDSEC
  0
SECTION
  2
CLASSES
  0
CLASS
  1
ACDBDICTIONARYWDFLT
  2
AcDbDictionaryWithDefault
  3
AutoCAD 2000
 90
0
 91
1
280
0
281
0
  0
CLASS
  1
ACDBPLACEHOLDER
  2
AcDbPlaceHolder
  3
AutoCAD 2000
 90
0
 91
1
280
0
281
0
  0
CLASS
  1
LAYOUT
  2
AcDbLayout
  3
AutoCAD 2000
 90
0
 91
0
280
0
281
0
  0
ENDSEC
  0
SECTION
  2
TABLES
  0
TABLE
  2
VPORT
  5
8
100
AcDbSymbolTable
 70
2
  0
VPORT
  5
1F4
100
AcDbSymbolTableRecord
100
AcDbViewportTableRecord
  2
*ACTIVE
 70
0
 10
0.0
 20
0.0
 11
1.0
 21
1.0
 12
279.4
 22
215.9
 13
0.0
 23
0.0
 14
1.0
 24
1.0
 15
0.0
 25
0.0
 16
0.0
 26
0.0
 36
1.0
 17
0.0
 27
0.0
 37
0.0
 40
431.8
 41
1.2941176471
 42
50.0
 43
0.0
 44
0.0
 50
0.0
 51
0.0
 71
0
 72
100
 73
1
 74
1
 75
0
 76
0
 77
0
 78
0
  0
ENDTAB
  0
TABLE
  2
LTYPE
  5
5
100
AcDbSymbolTable
 70
6
  0
LTYPE
  5
14
100
AcDbSymbolTableRecord
100
AcDbLinetypeTableRecord
  2
BYBLOCK
 70
0
  3

 72
65
 73
0
 40
0.0
  0
LTYPE
  5
15
100
AcDbSymbolTableRecord
100
AcDbLinetypeTableRecord
  2
BYLAYER
 70
0
  3

 72
65
 73
0
 40
0.0
  0
LTYPE
  5
16
100
AcDbSymbolTableRecord
100
AcDbLinetypeTableRecord
  2
CONTINUOUS
 70
64
  3
Solid line
 72
65
 73
0
 40
0.0
  0
LTYPE
  5
1F5
100
AcDbSymbolTableRecord
100
AcDbLinetypeTableRecord
  2
CENTER
 70
64
  3
____ _ ____ _ ____ _ ____ _ ____ _ ____ _ ____
 72
65
 73
4
 40
0.6
 49
0.375
 74
0
 49
-0.075
 74
0
 49
0.075
 74
0
 49
-0.075
 74
0
  0
LTYPE
  5
1F6
100
AcDbSymbolTableRecord
100
AcDbLinetypeTableRecord
  2
HIDDEN
 70
64
  3
- - - - - - - - - - - - - - - - - - - -
 72
65
 73
2
 40
0.2
 49
0.1
 74
0
 49
-0.1
 74
0
  0
LTYPE
  5
1F7
100
AcDbSymbolTableRecord
100
AcDbLinetypeTableRecord
  2
PHANTOM
 70
64
  3
_____ _ _ _____ _ _ _____ _ _ _____
 72
65
 73
6
 40
0.8
 49
0.45
 74
0
 49
-0.05
 74
0
 49
0.1
 74
0
 49
-0.05
 74
0
 49
0.1
 74
0
 49
-0.05
 74
0
  0
LTYPE
  5
1F8
100
AcDbSymbolTableRecord
100
AcDbLinetypeTableRecord
  2
DOT
 70
64
  3
. . . . . . . . . . . . . . . . . . . .
 72
65
 73
2
 40
0.2
 49
0.1
 74
0
 49
-0.1
 74
0
  0
LTYPE
  5
1F9
100
AcDbSymbolTableRecord
100
AcDbLinetypeTableRecord
  2
DASHED
 70
64
  3
- - - - - - - - - - - - - - - - - - - -
 72
65
 73
2
 40
0.2
 49
0.1
 74
0
 49
-0.1
 74
0
  0
ENDTAB
  0
TABLE
  2
LAYER
  5
2
100
AcDbSymbolTable
 70
36
  0
LAYER
  5
10
100
AcDbSymbolTableRecord
100
AcDbLayerTableRecord
  2
0
 70
0
 62
7
  6
CONTINUOUS
370
-3
390
F
  0
LAYER
  5
1FA
100
AcDbSymbolTableRecord
100
AcDbLayerTableRecord
  2
DEFAULT_1
 70
0
 62
7
  6
CENTER
370
-3
390
F
  0
LAYER
  5
1FB
100
AcDbSymbolTableRecord
100
AcDbLayerTableRecord
  2
DEFAULT_2
 70
0
 62
7
  6
HIDDEN
370
-3
390
F
  0
LAYER
  5
1FC
100
AcDbSymbolTableRecord
100
AcDbLayerTableRecord
  2
DEFAULT_3
 70
0
 62
7
  6
PHANTOM
370
-3
390
F
  0
LAYER
  5
1FD
100
AcDbSymbolTableRecord
100
AcDbLayerTableRecord
  2
06___PRT_ALL_SURFS
 70
0
 62
7
  6
CONTINUOUS
370
-3
390
F
  0
LAYER
  5
1FE
100
AcDbSymbolTableRecord
100
AcDbLayerTableRecord
  2
0805_LED_REF_60000
 70
0
 62
7
  6
CONTINUOUS
370
-3
390
F
  0
LAYER
  5
1FF
100
AcDbSymbolTableRecord
100
AcDbLayerTableRecord
  2
0805_LED_REF_60000_1
 70
0
 62
7
  6
CONTINUOUS
370
-3
390
F
  0
LAYER
  5
200
100
AcDbSymbolTableRecord
100
AcDbLayerTableRecord
  2
0805_LED_REF_60000_2
 70
0
 62
7
  6
CONTINUOUS
370
-3
390
F
  0
LAYER
  5
201
100
AcDbSymbolTableRecord
100
AcDbLayerTableRecord
  2
1206_R_REF_65000
 70
0
 62
7
  6
CONTINUOUS
370
-3
390
F
  0
LAYER
  5
202
100
AcDbSymbolTableRecord
100
AcDbLayerTableRecord
  2
1206_R_REF_65000_1
 70
0
 62
7
  6
CONTINUOUS
370
-3
390
F
  0
LAYER
  5
203
100
AcDbSymbolTableRecord
100
AcDbLayerTableRecord
  2
ASSI
 70
0
 62
7
  6
CONTINUOUS
370
-3
390
F
  0
LAYER
  5
204
100
AcDbSymbolTableRecord
100
AcDbLayerTableRecord
  2
COLOR
 70
0
 62
7
  6
CONTINUOUS
370
-3
390
F
  0
LAYER
  5
205
100
AcDbSymbolTableRecord
100
AcDbLayerTableRecord
  2
COLOR24
 70
0
 62
7
  6
CONTINUOUS
370
-3
390
F
  0
LAYER
  5
206
100
AcDbSymbolTableRecord
100
AcDbLayerTableRecord
  2
COLOR26
 70
0
 62
7
  6
CONTINUOUS
370
-3
390
F
  0
LAYER
  5
207
100
AcDbSymbolTableRecord
100
AcDbLayerTableRecord
  2
COORDINATE
 70
0
 62
7
  6
CONTINUOUS
370
-3
390
F
  0
LAYER
  5
208
100
AcDbSymbolTableRecord
100
AcDbLayerTableRecord
  2
COPY_PUBLISH
 70
0
 62
7
  6
CONTINUOUS
370
-3
390
F
  0
LAYER
  5
209
100
AcDbSymbolTableRecord
100
AcDbLayerTableRecord
  2
COSMETICI
 70
0
 62
7
  6
CONTINUOUS
370
-3
390
F
  0
LAYER
  5
20A
100
AcDbSymbolTableRecord
100
AcDbLayerTableRecord
  2
CR_CN2MP2_5_H6_EH-A_TET__810000
 70
0
 62
7
  6
CONTINUOUS
370
-3
390
F
  0
LAYER
  5
20B
100
AcDbSymbolTableRecord
100
AcDbLayerTableRecord
  2
CR_CN2MP2_5_H6_EH-A_TET__8100_1
 70
0
 62
7
  6
CONTINUOUS
370
-3
390
F
  0
LAYER
  5
20C
100
AcDbSymbolTableRecord
100
AcDbLayerTableRecord
  2
CR_FIDUCIAL75__10000
 70
0
 62
7
  6
CONTINUOUS
370
-3
390
F
  0
LAYER
  5
20D
100
AcDbSymbolTableRecord
100
AcDbLayerTableRecord
  2
CR_FIDUCIAL75__10000_1
 70
0
 62
7
  6
CONTINUOUS
370
-3
390
F
  0
LAYER
  5
20E
100
AcDbSymbolTableRecord
100
AcDbLayerTableRecord
  2
CR_SWITCH_LF201__650000
 70
0
 62
7
  6
CONTINUOUS
370
-3
390
F
  0
LAYER
  5
20F
100
AcDbSymbolTableRecord
100
AcDbLayerTableRecord
  2
CS3484R01
 70
0
 62
7
  6
CONTINUOUS
370
-3
390
F
  0
LAYER
  5
210
100
AcDbSymbolTableRecord
100
AcDbLayerTableRecord
  2
CS3484R02
 70
0
 62
7
  6
CONTINUOUS
370
-3
390
F
  0
LAYER
  5
211
100
AcDbSymbolTableRecord
100
AcDbLayerTableRecord
  2
CURVE
 70
0
 62
7
  6
CONTINUOUS
370
-3
390
F
  0
LAYER
  5
212
100
AcDbSymbolTableRecord
100
AcDbLayerTableRecord
  2
DRAFT
 70
0
 62
7
  6
CONTINUOUS
370
-3
390
F
  0
LAYER
  5
213
100
AcDbSymbolTableRecord
100
AcDbLayerTableRecord
  2
GEOMETRIA_SOLIDA
 70
0
 62
7
  6
CONTINUOUS
370
-3
390
F
  0
LAYER
  5
214
100
AcDbSymbolTableRecord
100
AcDbLayerTableRecord
  2
GEOMETRIA_SOLIDA_1
 70
0
 62
7
  6
CONTINUOUS
370
-3
390
F
  0
LAYER
  5
215
100
AcDbSymbolTableRecord
100
AcDbLayerTableRecord
  2
GEOMETRIA_SOLIDA_2
 70
0
 62
7
  6
CONTINUOUS
370
-3
390
F
  0
LAYER
  5
216
100
AcDbSymbolTableRecord
100
AcDbLayerTableRecord
  2
IMPORT_IGES
 70
0
 62
7
  6
CONTINUOUS
370
-3
390
F
  0
LAYER
  5
217
100
AcDbSymbolTableRecord
100
AcDbLayerTableRecord
  2
INTF_1
 70
0
 62
7
  6
CONTINUOUS
370
-3
390
F
  0
LAYER
  5
218
100
AcDbSymbolTableRecord
100
AcDbLayerTableRecord
  2
INTF_10000
 70
0
 62
7
  6
CONTINUOUS
370
-3
390
F
  0
LAYER
  5
219
100
AcDbSymbolTableRecord
100
AcDbLayerTableRecord
  2
INTF_11
 70
0
 62
7
  6
CONTINUOUS
370
-3
390
F
  0
LAYER
  5
21A
100
AcDbSymbolTableRecord
100
AcDbLayerTableRecord
  2
INTF_GREEN
 70
0
 62
7
  6
CONTINUOUS
370
-3
390
F
  0
LAYER
  5
21B
100
AcDbSymbolTableRecord
100
AcDbLayerTableRecord
  2
INTF_YELLOW
 70
0
 62
7
  6
CONTINUOUS
370
-3
390
F
  0
LAYER
  5
21C
100
AcDbSymbolTableRecord
100
AcDbLayerTableRecord
  2
LAYER_102
 70
0
 62
7
  6
CONTINUOUS
370
-3
390
F
  0
LAYER
  5
21D
100
AcDbSymbolTableRecord
100
AcDbLayerTableRecord
  2
NONE
 70
0
 62
7
  6
CONTINUOUS
370
-3
390
F
  0
LAYER
  5
21E
100
AcDbSymbolTableRecord
100
AcDbLayerTableRecord
  2
NOTE
 70
0
 62
7
  6
CONTINUOUS
370
-3
390
F
  0
LAYER
  5
21F
100
AcDbSymbolTableRecord
100
AcDbLayerTableRecord
  2
PIANI
 70
0
 62
7
  6
CONTINUOUS
370
-3
390
F
  0
LAYER
  5
220
100
AcDbSymbolTableRecord
100
AcDbLayerTableRecord
  2
PUNTI
 70
0
 62
7
  6
CONTINUOUS
370
-3
390
F
  0
LAYER
  5
221
100
AcDbSymbolTableRecord
100
AcDbLayerTableRecord
  2
RACCORDO
 70
0
 62
7
  6
CONTINUOUS
370
-3
390
F
  0
LAYER
  5
222
100
AcDbSymbolTableRecord
100
AcDbLayerTableRecord
  2
SIMBOLI
 70
0
 62
7
  6
CONTINUOUS
370
-3
390
F
  0
LAYER
  5
223
100
AcDbSymbolTableRecord
100
AcDbLayerTableRecord
  2
SMUSSO
 70
0
 62
7
  6
CONTINUOUS
370
-3
390
F
  0
LAYER
  5
224
100
AcDbSymbolTableRecord
100
AcDbLayerTableRecord
  2
SNAPLINE
 70
0
 62
7
  6
CONTINUOUS
370
-3
390
F
  0
LAYER
  5
225
100
AcDbSymbolTableRecord
100
AcDbLayerTableRecord
  2
SUPERFICI
 70
0
 62
7
  6
CONTINUOUS
370
-3
390
F
  0
LAYER
  5
226
100
AcDbSymbolTableRecord
100
AcDbLayerTableRecord
  2
TRASH
 70
0
 62
7
  6
CONTINUOUS
370
-3
390
F
  0
LAYER
  5
227
100
AcDbSymbolTableRecord
100
AcDbLayerTableRecord
  2
XSEC_DATUMS
 70
0
 62
7
  6
CONTINUOUS
370
-3
390
F
  0
LAYER
  5
228
100
AcDbSymbolTableRecord
100
AcDbLayerTableRecord
  2
_1054
 70
0
 62
7
  6
CONTINUOUS
370
-3
390
F
  0
LAYER
  5
229
100
AcDbSymbolTableRecord
100
AcDbLayerTableRecord
  2
_1066
 70
0
 62
7
  6
CONTINUOUS
370
-3
390
F
  0
LAYER
  5
22A
100
AcDbSymbolTableRecord
100
AcDbLayerTableRecord
  2
_1101
 70
0
 62
7
  6
CONTINUOUS
370
-3
390
F
  0
LAYER
  5
22B
100
AcDbSymbolTableRecord
100
AcDbLayerTableRecord
  2
_1154
 70
0
 62
7
  6
CONTINUOUS
370
-3
390
F
  0
LAYER
  5
22C
100
AcDbSymbolTableRecord
100
AcDbLayerTableRecord
  2
_1186
 70
0
 62
7
  6
CONTINUOUS
370
-3
390
F
  0
LAYER
  5
22D
100
AcDbSymbolTableRecord
100
AcDbLayerTableRecord
  2
_1217
 70
0
 62
7
  6
CONTINUOUS
370
-3
390
F
  0
LAYER
  5
22E
100
AcDbSymbolTableRecord
100
AcDbLayerTableRecord
  2
_1244
 70
0
 62
7
  6
CONTINUOUS
370
-3
390
F
  0
LAYER
  5
22F
100
AcDbSymbolTableRecord
100
AcDbLayerTableRecord
  2
_1267
 70
0
 62
7
  6
CONTINUOUS
370
-3
390
F
  0
LAYER
  5
230
100
AcDbSymbolTableRecord
100
AcDbLayerTableRecord
  2
_1317
 70
0
 62
7
  6
CONTINUOUS
370
-3
390
F
  0
LAYER
  5
231
100
AcDbSymbolTableRecord
100
AcDbLayerTableRecord
  2
_1344
 70
0
 62
7
  6
CONTINUOUS
370
-3
390
F
  0
LAYER
  5
232
100
AcDbSymbolTableRecord
100
AcDbLayerTableRecord
  2
_1359
 70
0
 62
7
  6
CONTINUOUS
370
-3
390
F
  0
LAYER
  5
233
100
AcDbSymbolTableRecord
100
AcDbLayerTableRecord
  2
_1381
 70
0
 62
7
  6
CONTINUOUS
370
-3
390
F
  0
LAYER
  5
234
100
AcDbSymbolTableRecord
100
AcDbLayerTableRecord
  2
_1393
 70
0
 62
7
  6
CONTINUOUS
370
-3
390
F
  0
LAYER
  5
235
100
AcDbSymbolTableRecord
100
AcDbLayerTableRecord
  2
_1422
 70
0
 62
7
  6
CONTINUOUS
370
-3
390
F
  0
LAYER
  5
236
100
AcDbSymbolTableRecord
100
AcDbLayerTableRecord
  2
_1445
 70
0
 62
7
  6
CONTINUOUS
370
-3
390
F
  0
LAYER
  5
237
100
AcDbSymbolTableRecord
100
AcDbLayerTableRecord
  2
_1474
 70
0
 62
7
  6
CONTINUOUS
370
-3
390
F
  0
LAYER
  5
238
100
AcDbSymbolTableRecord
100
AcDbLayerTableRecord
  2
_1505
 70
0
 62
7
  6
CONTINUOUS
370
-3
390
F
  0
LAYER
  5
239
100
AcDbSymbolTableRecord
100
AcDbLayerTableRecord
  2
_1558
 70
0
 62
7
  6
CONTINUOUS
370
-3
390
F
  0
LAYER
  5
23A
100
AcDbSymbolTableRecord
100
AcDbLayerTableRecord
  2
_1610
 70
0
 62
7
  6
CONTINUOUS
370
-3
390
F
  0
LAYER
  5
23B
100
AcDbSymbolTableRecord
100
AcDbLayerTableRecord
  2
_1640
 70
0
 62
7
  6
CONTINUOUS
370
-3
390
F
  0
LAYER
  5
23C
100
AcDbSymbolTableRecord
100
AcDbLayerTableRecord
  2
_1670
 70
0
 62
7
  6
CONTINUOUS
370
-3
390
F
  0
LAYER
  5
23D
100
AcDbSymbolTableRecord
100
AcDbLayerTableRecord
  2
_1691
 70
0
 62
7
  6
CONTINUOUS
370
-3
390
F
  0
LAYER
  5
23E
100
AcDbSymbolTableRecord
100
AcDbLayerTableRecord
  2
_1733
 70
0
 62
7
  6
CONTINUOUS
370
-3
390
F
  0
LAYER
  5
23F
100
AcDbSymbolTableRecord
100
AcDbLayerTableRecord
  2
_1754
 70
0
 62
7
  6
CONTINUOUS
370
-3
390
F
  0
LAYER
  5
240
100
AcDbSymbolTableRecord
100
AcDbLayerTableRecord
  2
_177
 70
0
 62
7
  6
CONTINUOUS
370
-3
390
F
  0
LAYER
  5
241
100
AcDbSymbolTableRecord
100
AcDbLayerTableRecord
  2
_1790
 70
0
 62
7
  6
CONTINUOUS
370
-3
390
F
  0
LAYER
  5
242
100
AcDbSymbolTableRecord
100
AcDbLayerTableRecord
  2
_1798
 70
0
 62
7
  6
CONTINUOUS
370
-3
390
F
  0
LAYER
  5
243
100
AcDbSymbolTableRecord
100
AcDbLayerTableRecord
  2
_1860
 70
0
 62
7
  6
CONTINUOUS
370
-3
390
F
  0
LAYER
  5
244
100
AcDbSymbolTableRecord
100
AcDbLayerTableRecord
  2
_1905
 70
0
 62
7
  6
CONTINUOUS
370
-3
390
F
  0
LAYER
  5
245
100
AcDbSymbolTableRecord
100
AcDbLayerTableRecord
  2
_1928
 70
0
 62
7
  6
CONTINUOUS
370
-3
390
F
  0
LAYER
  5
246
100
AcDbSymbolTableRecord
100
AcDbLayerTableRecord
  2
_1949
 70
0
 62
7
  6
CONTINUOUS
370
-3
390
F
  0
LAYER
  5
247
100
AcDbSymbolTableRecord
100
AcDbLayerTableRecord
  2
_1975
 70
0
 62
7
  6
CONTINUOUS
370
-3
390
F
  0
LAYER
  5
248
100
AcDbSymbolTableRecord
100
AcDbLayerTableRecord
  2
_200
 70
0
 62
7
  6
CONTINUOUS
370
-3
390
F
  0
LAYER
  5
249
100
AcDbSymbolTableRecord
100
AcDbLayerTableRecord
  2
_2064
 70
0
 62
7
  6
CONTINUOUS
370
-3
390
F
  0
LAYER
  5
24A
100
AcDbSymbolTableRecord
100
AcDbLayerTableRecord
  2
_2096
 70
0
 62
7
  6
CONTINUOUS
370
-3
390
F
  0
LAYER
  5
24B
100
AcDbSymbolTableRecord
100
AcDbLayerTableRecord
  2
_2150
 70
0
 62
7
  6
CONTINUOUS
370
-3
390
F
  0
LAYER
  5
24C
100
AcDbSymbolTableRecord
100
AcDbLayerTableRecord
  2
_222
 70
0
 62
7
  6
CONTINUOUS
370
-3
390
F
  0
LAYER
  5
24D
100
AcDbSymbolTableRecord
100
AcDbLayerTableRecord
  2
_312
 70
0
 62
7
  6
CONTINUOUS
370
-3
390
F
  0
LAYER
  5
24E
100
AcDbSymbolTableRecord
100
AcDbLayerTableRecord
  2
_372
 70
0
 62
7
  6
CONTINUOUS
370
-3
390
F
  0
LAYER
  5
24F
100
AcDbSymbolTableRecord
100
AcDbLayerTableRecord
  2
_454
 70
0
 62
7
  6
CONTINUOUS
370
-3
390
F
  0
LAYER
  5
250
100
AcDbSymbolTableRecord
100
AcDbLayerTableRecord
  2
_521
 70
0
 62
7
  6
CONTINUOUS
370
-3
390
F
  0
LAYER
  5
251
100
AcDbSymbolTableRecord
100
AcDbLayerTableRecord
  2
_570
 70
0
 62
7
  6
CONTINUOUS
370
-3
390
F
  0
LAYER
  5
252
100
AcDbSymbolTableRecord
100
AcDbLayerTableRecord
  2
_592
 70
0
 62
7
  6
CONTINUOUS
370
-3
390
F
  0
LAYER
  5
253
100
AcDbSymbolTableRecord
100
AcDbLayerTableRecord
  2
_666
 70
0
 62
7
  6
CONTINUOUS
370
-3
390
F
  0
LAYER
  5
254
100
AcDbSymbolTableRecord
100
AcDbLayerTableRecord
  2
_691
 70
0
 62
7
  6
CONTINUOUS
370
-3
390
F
  0
LAYER
  5
255
100
AcDbSymbolTableRecord
100
AcDbLayerTableRecord
  2
_854
 70
0
 62
7
  6
CONTINUOUS
370
-3
390
F
  0
LAYER
  5
256
100
AcDbSymbolTableRecord
100
AcDbLayerTableRecord
  2
_866
 70
0
 62
7
  6
CONTINUOUS
370
-3
390
F
  0
LAYER
  5
257
100
AcDbSymbolTableRecord
100
AcDbLayerTableRecord
  2
_946
 70
0
 62
7
  6
CONTINUOUS
370
-3
390
F
  0
LAYER
  5
258
100
AcDbSymbolTableRecord
100
AcDbLayerTableRecord
  2
___SHELL
 70
0
 62
7
  6
CONTINUOUS
370
-3
390
F
  0
ENDTAB
  0
TABLE
  2
STYLE
  5
3
100
AcDbSymbolTable
 70
1
  0
STYLE
  5
11
100
AcDbSymbolTableRecord
100
AcDbTextStyleTableRecord
  2
STANDARD
 70
0
 40
0.0
 41
0.8
 50
0.0
 71
0
 42
0.2
  3
txt
  4

  0
STYLE
  5
259
100
AcDbSymbolTableRecord
100
AcDbTextStyleTableRecord
  2
TEXTSTYLE_1
 70
0
 40
0.0
 41
0.8
 50
0.0
 71
0
 42
0.2
  3
gdt
  4

  0
ENDTAB
  0
TABLE
  2
VIEW
  5
6
100
AcDbSymbolTable
 70
0
  0
ENDTAB
  0
TABLE
  2
UCS
  5
7
100
AcDbSymbolTable
 70
0
  0
ENDTAB
  0
TABLE
  2
APPID
  5
9
100
AcDbSymbolTable
 70
1
  0
APPID
  5
25A
100
AcDbSymbolTableRecord
100
AcDbRegAppTableRecord
  2
ACAD
 70
0
  0
ENDTAB
  0
TABLE
  2
BLOCK_RECORD
  5
1
100
AcDbSymbolTable
 70
0
  0
BLOCK_RECORD
  5
25B
100
AcDbSymbolTableRecord
100
AcDbBlockTableRecord
  2
*Model_Space
  0
BLOCK_RECORD
  5
25C
100
AcDbSymbolTableRecord
100
AcDbBlockTableRecord
  2
*Paper_Space
  0
BLOCK_RECORD
  5
25D
100
AcDbSymbolTableRecord
100
AcDbBlockTableRecord
  2
_FILLED
  0
ENDTAB
  0
TABLE
  2
DIMSTYLE
  5
A
100
AcDbSymbolTable
 70
1
100
AcDbDimStyleTable
 71
0
  0
DIMSTYLE
105
25E
100
AcDbSymbolTableRecord
100
AcDbDimStyleTableRecord
  2
STANDARD
 70
0
  3

  4

 40
1.0
 41
3.0
 42
0.5
 43
0.38
 44
1.5
 45
0.0
 46
0.0
 47
0.01
 48
0.01
140
3.0
141
0.09
142
0.0
143
25.4
144
1.0
145
0.0
146
1.0
147
0.625
 71
1.0
 72
0.0
 73
0
 74
0
 75
0
 76
0
 77
1
 78
8
 79
2
170
0
171
1
172
0
173
0
174
0
175
0
176
0
177
0
178
0
270
2
179
2
271
2
272
2
273
2
274
2
275
0
280
0
281
0
282
0
283
1
284
8
285
0
286
0
287
3
288
0
340
11
278
44
341
25D
342
25D
343
25D
344
25D
  0
ENDTAB
  0
ENDSEC
  0
SECTION
  2
BLOCKS
  0
BLOCK
  5
20
100
AcDbEntity
  8
0
100
AcDbBlockBegin
  2
*Model_Space
 70
0
 10
0.0
 20
0.0
 30
0.0
  3
*Model_Space
  1

  0
ENDBLK
  5
21
100
AcDbEntity
  8
0
100
AcDbBlockEnd
  0
BLOCK
  5
1C
100
AcDbEntity
  8
0
100
AcDbBlockBegin
  2
*Paper_Space
 70
0
 10
0.0
 20
0.0
 30
0.0
  3
*Paper_Space
  1

  0
ENDBLK
  5
1D
100
AcDbEntity
  8
0
100
AcDbBlockEnd
  0
BLOCK
  5
25F
100
AcDbEntity
  8
0
100
AcDbBlockBegin
  2
_FILLED
 70
64
 10
0.0
 20
0.0
  3
_FILLED
  1

  0
SOLID
  5
260
100
AcDbEntity
  8
0
  6
BYBLOCK
 62
0
100
AcDbTrace
 10
0.0
 20
0.0
 11
-1.0
 21
0.1333333333
 12
-1.0
 22
-0.1333333333
 13
-1.0
 23
-0.1333333333
  0
ENDBLK
  5
261
100
AcDbEntity
  8
0
  6
BYBLOCK
 62
0
100
AcDbBlockEnd
  0
ENDSEC
  0
SECTION
  2
ENTITIES
  0
LINE
  5
262
100
AcDbEntity
  8
RACCORDO
100
AcDbLine
 62
250
  6
CONTINUOUS
 10
-49.04956842
 20
-85.0113831626
 11
-49.0141866189
 21
-85.023840948
  0
LINE
  5
263
100
AcDbEntity
  8
RACCORDO
100
AcDbLine
 62
250
  6
CONTINUOUS
 10
-49.0839487052
 20
-84.9962912529
 11
-49.04956842
 21
-85.0113831626
  0
LWPOLYLINE
  5
264
100
AcDbEntity
  8
RACCORDO
100
AcDbPolyline
 62
7
  6
CONTINUOUS
 90
3
 70
0
 10
-48.8956831576
 20
81.6709241822
 10
-48.9260943096
 20
81.6574343687
 10
-48.9347312376
 20
81.6529123343
  0
LWPOLYLINE
  5
265
100
AcDbEntity
  8
RACCORDO
100
AcDbPolyline
 62
250
  6
CONTINUOUS
 90
7
 70
0
 10
48.9771456597
 20
-85.0338036165
 10
49.0131787962
 20
-85.0241527271
 10
49.0483783423
 20
-85.0118512857
 10
49.082569628
 20
-84.9969601687
 10
49.1155750533
 20
-84.9795532624
 10
49.1471974846
 20
-84.9597311252
 10
49.1492936075
 20
-84.9587862583
  0
LINE
  5
266
100
AcDbEntity
  8
RACCORDO
100
AcDbLine
 62
250
  6
CONTINUOUS
 10
48.9404705262
 20
-85.0407482622
 11
48.9771456597
 21
-85.0338036165
  0
LWPOLYLINE
  5
267
100
AcDbEntity
  8
RACCORDO
100
AcDbPolyline
 62
7
  6
CONTINUOUS
 90
18
 70
0
 10
49.1620871004
 20
-85.713097349
 10
49.2051687531
 20
-85.7074038765
 10
49.2475921367
 20
-85.6979629131
 10
49.2890343835
 20
-85.6848463104
 10
49.329180093
 20
-85.6681538935
 10
49.367723732
 20
-85.6480127019
 10
49.4043719601
 20
-85.6245760221
 10
49.4388458622
 20
-85.5980222215
 10
49.4708830712
 20
-85.5685533905
 10
49.5002397643
 20
-85.5363938048
 10
49.5266925196
 20
-85.5017882181
 10
49.5500400156
 20
-85.4649999999
 10
49.5701045638
 20
-85.4263091308
 10
49.5867334609
 20
-85.3860100716
 10
49.5998001508
 20
-85.3444095225
 10
49.6092051881
 20
-85.3018240888
 10
49.6148769947
 20
-85.2585778713
 10
49.6167724049
 20
-85.215
  0
LINE
  5
268
100
AcDbEntity
  8
RACCORDO
100
AcDbLine
 62
250
  6
CONTINUOUS
 10
48.9033627519
 20
-85.0449420715
 11
48.9404705262
 21
-85.0407482622
  0
LWPOLYLINE
  5
269
100
AcDbEntity
  8
RACCORDO
100
AcDbPolyline
 62
250
  6
CONTINUOUS
 90
3
 70
0
 10
-40.5202263703
 20
-86.2102177313
 10
-40.5026669391
 20
-86.2108949228
 10
-40.5002302942
 20
-86.2113473372
  0
LINE
  5
26A
100
AcDbEntity
  8
RACCORDO
100
AcDbLine
 62
250
  6
CONTINUOUS
 10
-40.5699979229
 20
-86.2067547571
 11
-40.545199172
 21
-86.2080882587
  0
LINE
  5
26B
100
AcDbEntity
  8
RACCORDO
100
AcDbLine
 62
250
  6
CONTINUOUS
 10
-48.9410247406
 20
-85.0406642792
 11
-48.9036519354
 21
-85.0449201938
  0
LWPOLYLINE
  5
26C
100
AcDbEntity
  8
RACCORDO
100
AcDbPolyline
 62
7
  6
CONTINUOUS
 90
18
 70
0
 10
-49.1621930112
 20
-85.713097034
 10
-49.2053479809
 20
-85.707402826
 10
-49.2478120732
 20
-85.6979610227
 10
-49.2892512492
 20
-85.6848439315
 10
-49.3293614396
 20
-85.6681516
 10
-49.3678708014
 20
-85.6480107066
 10
-49.4044970152
 20
-85.6245742669
 10
-49.4389501345
 20
-85.5980207933
 10
-49.4709682659
 20
-85.5685523253
 10
-49.5003076216
 20
-85.5363930945
 10
-49.5267447202
 20
-85.5017878324
 10
-49.5500785623
 20
-85.4649998898
 10
-49.5701314866
 20
-85.4263092141
 10
-49.5867507167
 20
-85.386010258
 10
-49.5998098761
 20
-85.3444097522
 10
-49.6092095728
 20
-85.3018243108
 10
-49.6148781443
 20
-85.258578017
 10
-49.616772407
 20
-85.215
  0
LINE
  5
26D
100
AcDbEntity
  8
RACCORDO
100
AcDbLine
 62
250
  6
CONTINUOUS
 10
-40.5940950648
 20
-86.202416096
 11
-40.5756752139
 21
-86.2052619831
  0
LWPOLYLINE
  5
26E
100
AcDbEntity
  8
RACCORDO
100
AcDbPolyline
 62
250
  6
CONTINUOUS
 90
3
 70
0
 10
-40.6236399804
 20
-86.2004097001
 10
-40.6356571594
 20
-86.1980574627
 10
-40.6399179501
 20
-86.1971036107
  0
LINE
  5
26F
100
AcDbEntity
  8
RACCORDO
100
AcDbLine
 62
250
  6
CONTINUOUS
 10
-48.9779367669
 20
-85.0336223614
 11
-48.9410247406
 21
-85.0406642792
  0
LWPOLYLINE
  5
270
100
AcDbEntity
  8
RACCORDO
100
AcDbPolyline
 62
7
  6
CONTINUOUS
 90
4
 70
0
 10
-40.9372598341
 20
-86.1271166821
 10
-40.9259766227
 20
-86.1294325983
 10
-40.9087181514
 20
-86.131693701
 10
-40.8913519117
 20
-86.1324491068
  0
LINE
  5
271
100
AcDbEntity
  8
RACCORDO
100
AcDbLine
 62
7
  6
CONTINUOUS
 10
-40.937259782
 20
-86.1271166181
 11
-40.6399179501
 21
-86.1971036107
  0
LINE
  5
272
100
AcDbEntity
  8
RACCORDO
100
AcDbLine
 62
250
  6
CONTINUOUS
 10
-40.8913519117
 20
-86.1324491068
 11
-40.5940950648
 21
-86.202416096
  0
LINE
  5
273
100
AcDbEntity
  8
RACCORDO
100
AcDbLine
 62
250
  6
CONTINUOUS
 10
-38.3636985245
 20
-86.115
 11
-38.1187490605
 21
-86.172655111
  0
LINE
  5
274
100
AcDbEntity
  8
0
100
AcDbLine
 62
250
  6
CONTINUOUS
 10
-38.1636258157
 20
-85.915057052
 11
-37.9355808788
 21
-85.9687332509
  0
LWPOLYLINE
  5
275
100
AcDbEntity
  8
RACCORDO
100
AcDbPolyline
 62
7
  6
CONTINUOUS
 90
13
 70
0
 10
-40.6432971324
 20
-86.196277107
 10
-40.6395540721
 20
-86.1971808149
 10
-40.6236399804
 20
-86.2004097001
 10
-40.6087752686
 20
-86.2026951792
 10
-40.595597118
 20
-86.204303462
 10
-40.5833660709
 20
-86.2055623861
 10
-40.5699979229
 20
-86.2067547571
 10
-40.5548503592
 20
-86.2079403938
 10
-40.5383902125
 20
-86.2090843885
 10
-40.5202263703
 20
-86.2102177313
 10
-40.5002302942
 20
-86.2113473372
 10
-40.4783894671
 20
-86.2124727033
 10
-40.4284624012
 20
-86.2147386482
  0
LINE
  5
276
100
AcDbEntity
  8
RACCORDO
100
AcDbLine
 62
250
  6
CONTINUOUS
 10
-49.0141866189
 20
-85.023840948
 11
-48.9779367669
 21
-85.0336223614
  0
LWPOLYLINE
  5
277
100
AcDbEntity
  8
RACCORDO
100
AcDbPolyline
 62
250
  6
CONTINUOUS
 90
7
 70
0
 10
-49.2357778033
 20
-84.8837131345
 10
-49.2330452492
 20
-84.8858324195
 10
-49.20672261
 20
-84.9122367621
 10
-49.1784878344
 20
-84.936621206
 10
-49.1484940257
 20
-84.9588463827
 10
-49.1169050247
 20
-84.978784437
 10
-49.0839487052
 20
-84.9962912529
  0
LWPOLYLINE
  5
278
100
AcDbEntity
  8
RACCORDO
100
AcDbPolyline
 62
250
  6
CONTINUOUS
 90
19
 70
0
 10
-37.727236398
 20
-86.815
 10
-37.7207774182
 20
-86.8142389512
 10
-37.7143675901
 20
-86.8119615948
 10
-37.708055696
 20
-86.8081852596
 10
-37.7018897752
 20
-86.8029386851
 10
-37.6959167514
 20
-86.7962617961
 10
-37.6901820754
 20
-86.7882053932
 10
-37.6847293878
 20
-86.7788307725
 10
-37.6796001942
 20
-86.7682092801
 10
-37.67483354
 20
-86.756421764
 10
-37.6704657054
 20
-86.7435579416
 10
-37.6665299301
 20
-86.7297157065
 10
-37.6630561672
 20
-86.7150004013
 10
-37.6600708545
 20
-86.6995240123
 10
-37.6575967145
 20
-86.683404328
 10
-37.6556525792
 20
-86.6667640393
 10
-37.654253245
 20
-86.6497297936
 10
-37.6534093617
 20
-86.6324312292
 10
-37.6531273518
 20
-86.615
  0
LWPOLYLINE
  5
279
100
AcDbEntity
  8
RACCORDO
100
AcDbPolyline
 62
250
  6
CONTINUOUS
 90
3
 70
0
 10
-23.4550334479
 20
-86.2081117041
 10
-23.4243198936
 20
-86.2052717942
 10
-23.4059049352
 20
-86.202416096
  0
LWPOLYLINE
  5
27A
100
AcDbEntity
  8
DRAFT
100
AcDbPolyline
 62
7
  6
CONTINUOUS
 90
15
 70
0
 10
0.4967323412
 20
-85.1776504888
 10
0.5632819696
 20
-85.1723424036
 10
0.6300214529
 20
-85.1663271824
 10
0.696950791
 20
-85.159604825
 10
0.764173403
 20
-85.1521664642
 10
0.8315858697
 20
-85.1440209672
 10
0.8988779343
 20
-85.1351949358
 10
0.9660503466
 20
-85.1256760038
 10
1.0331023567
 20
-85.1154765373
 10
1.0997214581
 20
-85.104660237
 10
1.165777715
 20
-85.093244565
 10
1.2314010632
 20
-85.0812120593
 10
1.2966688037
 20
-85.0685740339
 10
1.3613173281
 20
-85.0554033012
 10
1.4035303011
 20
-85.0463581903
  0
LINE
  5
27B
100
AcDbEntity
  8
RACCORDO
100
AcDbLine
 62
250
  6
CONTINUOUS
 10
-23.4980455981
 20
-86.2109358256
 11
-23.4684969578
 21
-86.2095280437
  0
LWPOLYLINE
  5
27C
100
AcDbEntity
  8
RACCORDO
100
AcDbPolyline
 62
7
  6
CONTINUOUS
 90
10
 70
0
 10
-23.509845199
 20
-86.2118789001
 10
-23.4881490033
 20
-86.2107040985
 10
-23.4684969578
 20
-86.2095280437
 10
-23.4507488878
 20
-86.2083441931
 10
-23.4345079879
 20
-86.2071233461
 10
-23.4202265991
 20
-86.205898968
 10
-23.4072596886
 20
-86.2046145381
 10
-23.3935321978
 20
-86.2030006279
 10
-23.3782964563
 20
-86.2007413096
 10
-23.36216786
 20
-86.1975765716
  0
LWPOLYLINE
  5
27D
100
AcDbEntity
  8
RACCORDO
100
AcDbPolyline
 62
250
  6
CONTINUOUS
 90
3
 70
0
 10
-23.4059049352
 20
-86.202416096
 10
-23.3850093113
 20
-86.2013268267
 10
-23.3657660049
 20
-86.1982825962
  0
LWPOLYLINE
  5
27E
100
AcDbEntity
  8
RACCORDO
100
AcDbPolyline
 62
250
  6
CONTINUOUS
 90
14
 70
0
 10
-47.327638216
 20
-84.6045023745
 10
-47.4346483059
 20
-84.6100738186
 10
-47.5348930912
 20
-84.6157990817
 10
-47.628397314
 20
-84.6216763928
 10
-47.7146367201
 20
-84.6276725157
 10
-47.7935627836
 20
-84.6337886708
 10
-47.8652240304
 20
-84.6400236377
 10
-47.9292417841
 20
-84.6463405191
 10
-47.9855574651
 20
-84.6527403523
 10
-48.0342296529
 20
-84.6592221001
 10
-48.0750554094
 20
-84.6657457538
 10
-48.1079670883
 20
-84.6722979772
 10
-48.1330323359
 20
-84.6788921066
 10
-48.1502511521
 20
-84.6855281419
  0
LWPOLYLINE
  5
27F
100
AcDbEntity
  8
RACCORDO
100
AcDbPolyline
 62
250
  6
CONTINUOUS
 90
19
 70
0
 10
48.1502511521
 20
-84.6855281419
 10
48.1849747143
 20
-84.6839269822
 10
48.2194348502
 20
-84.6793050234
 10
48.2533701105
 20
-84.6716973269
 10
48.2865230276
 20
-84.6611616069
 10
48.3186420681
 20
-84.6477777926
 10
48.3494835409
 20
-84.6316474229
 10
48.3788134491
 20
-84.6128928746
 10
48.4064092624
 20
-84.5916564348
 10
48.4320616048
 20
-84.5680992236
 10
48.4555758483
 20
-84.542399967
 10
48.4767735853
 20
-84.5147536441
 10
48.4954939814
 20
-84.4853700109
 10
48.5115950014
 20
-84.4544720008
 10
48.5249544824
 20
-84.4222940383
 10
48.5354710607
 20
-84.3890802645
 10
48.5430649442
 20
-84.3550826764
 10
48.5476785164
 20
-84.3205592145
 10
48.5492767722
 20
-84.2857718111
  0
LINE
  5
280
100
AcDbEntity
  8
RACCORDO
100
AcDbLine
 62
7
  6
CONTINUOUS
 10
-23.5596359974
 20
-86.2142303035
 11
-23.509845199
 21
-86.2118789001
  0
LWPOLYLINE
  5
281
100
AcDbEntity
  8
RACCORDO
100
AcDbPolyline
 62
250
  6
CONTINUOUS
 90
19
 70
0
 10
-37.4094373
 20
-86.815
 10
-37.3922931718
 20
-86.8142389396
 10
-37.3752795208
 20
-86.8119615506
 10
-37.3585258311
 20
-86.8081851653
 10
-37.3421596084
 20
-86.8029385242
 10
-37.3263054095
 20
-86.7962615574
 10
-37.3110838946
 20
-86.7882050807
 10
-37.2966109084
 20
-86.7788304088
 10
-37.2829965992
 20
-86.7682088886
 10
-37.2703445801
 20
-86.7564213562
 10
-37.2587511406
 20
-86.7435575219
 10
-37.2483045137
 20
-86.7297152873
 10
-37.2390842047
 20
-86.715
 10
-37.2311603855
 20
-86.6995236523
 10
-37.2245933614
 20
-86.6834040287
 10
-37.2194331112
 20
-86.666763809
 10
-37.2157189076
 20
-86.6497296355
 10
-37.2134790179
 20
-86.6324311485
 10
-37.2127304891
 20
-86.615
  0
LINE
  5
282
100
AcDbEntity
  8
RACCORDO
100
AcDbLine
 62
7
  6
CONTINUOUS
 10
49.1186750559
 20
-85.715
 11
49.1620871004
 21
-85.713097349
  0
LINE
  5
283
100
AcDbEntity
  8
RACCORDO
100
AcDbLine
 62
250
  6
CONTINUOUS
 10
-47.5314447747
 20
-84.1993208683
 11
-47.7712914936
 21
-84.2103096594
  0
LWPOLYLINE
  5
284
100
AcDbEntity
  8
RACCORDO
100
AcDbPolyline
 62
250
  6
CONTINUOUS
 90
19
 70
0
 10
-29.2681280621
 20
-86.815
 10
-29.2506995684
 20
-86.8142389396
 10
-29.233403716
 20
-86.8119615506
 10
-29.2163721369
 20
-86.8081851653
 10
-29.1997344517
 20
-86.8029385242
 10
-29.1836172831
 20
-86.7962615574
 10
-29.1681432926
 20
-86.7882050808
 10
-29.1534302465
 20
-86.7788304089
 10
-29.1395901201
 20
-86.7682088886
 10
-29.126728245
 20
-86.7564213562
 10
-29.1149425079
 20
-86.7435575219
 10
-29.1043226054
 20
-86.7297152873
 10
-29.0949493613
 20
-86.715
 10
-29.0868941117
 20
-86.6995236523
 10
-29.0802181619
 20
-86.6834040287
 10
-29.0749723198
 20
-86.666763809
 10
-29.0711965097
 20
-86.6497296355
 10
-29.0689194675
 20
-86.6324311485
 10
-29.068158523
 20
-86.615
  0
LWPOLYLINE
  5
285
100
AcDbEntity
  8
RACCORDO
100
AcDbPolyline
 62
250
  6
CONTINUOUS
 90
19
 70
0
 10
-29.3742338491
 20
-86.815
 10
-29.3568053554
 20
-86.8142389396
 10
-29.3395095031
 20
-86.8119615506
 10
-29.322477924
 20
-86.8081851653
 10
-29.3058402387
 20
-86.8029385242
 10
-29.2897230702
 20
-86.7962615574
 10
-29.2742490796
 20
-86.7882050808
 10
-29.2595360336
 20
-86.7788304089
 10
-29.2456959071
 20
-86.7682088886
 10
-29.2328340321
 20
-86.7564213562
 10
-29.221048295
 20
-86.7435575219
 10
-29.2104283925
 20
-86.7297152873
 10
-29.2010551484
 20
-86.715
 10
-29.1929998988
 20
-86.6995236523
 10
-29.1863239489
 20
-86.6834040287
 10
-29.1810781069
 20
-86.666763809
 10
-29.1773022967
 20
-86.6497296355
 10
-29.1750252546
 20
-86.6324311485
 10
-29.1742643101
 20
-86.615
  0
LWPOLYLINE
  5
286
100
AcDbEntity
  8
RACCORDO
100
AcDbPolyline
 62
250
  6
CONTINUOUS
 90
19
 70
0
 10
-37.4991623234
 20
-86.815
 10
-37.4817338297
 20
-86.8142389396
 10
-37.4644379773
 20
-86.8119615506
 10
-37.4474063982
 20
-86.8081851653
 10
-37.430768713
 20
-86.8029385242
 10
-37.4146515444
 20
-86.7962615574
 10
-37.3991775538
 20
-86.7882050808
 10
-37.3844645078
 20
-86.7788304089
 10
-37.3706243814
 20
-86.7682088886
 10
-37.3577625063
 20
-86.7564213562
 10
-37.3459767692
 20
-86.7435575219
 10
-37.3353568667
 20
-86.7297152873
 10
-37.3259836226
 20
-86.715
 10
-37.317928373
 20
-86.6995236523
 10
-37.3112524232
 20
-86.6834040287
 10
-37.3060065811
 20
-86.666763809
 10
-37.302230771
 20
-86.6497296355
 10
-37.2999537288
 20
-86.6324311485
 10
-37.2991927843
 20
-86.615
  0
LWPOLYLINE
  5
287
100
AcDbEntity
  8
RACCORDO
100
AcDbPolyline
 62
250
  6
CONTINUOUS
 90
19
 70
0
 10
-37.5384456588
 20
-86.815
 10
-37.5210171651
 20
-86.8142389396
 10
-37.5037213128
 20
-86.8119615506
 10
-37.4866897337
 20
-86.8081851653
 10
-37.4700520484
 20
-86.8029385242
 10
-37.4539348799
 20
-86.7962615574
 10
-37.4384608893
 20
-86.7882050808
 10
-37.4237478433
 20
-86.7788304089
 10
-37.4099077168
 20
-86.7682088887
 10
-37.3970458418
 20
-86.7564213563
 10
-37.3852601047
 20
-86.743557522
 10
-37.3746402021
 20
-86.7297152873
 10
-37.365266958
 20
-86.715
 10
-37.3572117084
 20
-86.6995236524
 10
-37.3505357586
 20
-86.6834040287
 10
-37.3452899166
 20
-86.666763809
 10
-37.3415141064
 20
-86.6497296355
 10
-37.3392370643
 20
-86.6324311486
 10
-37.3384761198
 20
-86.615
  0
LINE
  5
288
100
AcDbEntity
  8
RACCORDO
100
AcDbLine
 62
250
  6
CONTINUOUS
 10
-47.0939948302
 20
-84.5938435531
 11
-47.327638216
 21
-84.6045023745
  0
LINE
  5
289
100
AcDbEntity
  8
RACCORDO
100
AcDbLine
 62
250
  6
CONTINUOUS
 10
-23.6212287169
 20
-86.2165465941
 11
-23.6189044617
 21
-86.2166098666
  0
LWPOLYLINE
  5
28A
100
AcDbEntity
  8
RACCORDO
100
AcDbPolyline
 62
250
  6
CONTINUOUS
 90
3
 70
0
 10
-23.5596359974
 20
-86.2142303035
 10
-23.5534878595
 20
-86.213749104
 10
-23.5336067243
 20
-86.2130517499
  0
LINE
  5
28B
100
AcDbEntity
  8
RACCORDO
100
AcDbLine
 62
7
  6
CONTINUOUS
 10
-23.6189044617
 20
-86.2166098666
 11
-23.5596359974
 21
-86.2142303035
  0
LINE
  5
28C
100
AcDbEntity
  8
RACCORDO
100
AcDbLine
 62
250
  6
CONTINUOUS
 10
48.8660277452
 20
-85.0463581903
 11
48.9033627519
 21
-85.0449420715
  0
LWPOLYLINE
  5
28D
100
AcDbEntity
  8
RACCORDO
100
AcDbPolyline
 62
250
  6
CONTINUOUS
 90
18
 70
0
 10
-5.9771681886
 20
-85.715
 10
-5.9027224655
 20
-85.7122037971
 10
-5.8286930732
 20
-85.7038308262
 10
-5.7554940139
 20
-85.6899279121
 10
-5.6835346466
 20
-85.6705728058
 10
-5.6132173971
 20
-85.6458737486
 10
-5.5449355081
 20
-85.6159688679
 10
-5.4790708395
 20
-85.5810254038
 10
-5.4159917334
 20
-85.5412387743
 10
-5.3560509536
 20
-85.4968314824
 10
-5.2995837134
 20
-85.4480518718
 10
-5.2469058004
 20
-85.3951727377
 10
-5.1983118109
 20
-85.3384898018
 10
-5.1540735022
 20
-85.278320058
 10
-5.1144382729
 20
-85.215
 10
-5.0796277792
 20
-85.1488837391
 10
-5.0498366956
 20
-85.0803410243
 10
-5.0379908369
 20
-85.0463581903
  0
LINE
  5
28E
100
AcDbEntity
  8
RACCORDO
100
AcDbLine
 62
250
  6
CONTINUOUS
 10
-46.8357285615
 20
-84.5839066704
 11
-47.0939948302
 21
-84.5938435531
  0
LINE
  5
28F
100
AcDbEntity
  8
RACCORDO
100
AcDbLine
 62
250
  6
CONTINUOUS
 10
-47.2639725367
 20
-84.1890249526
 11
-47.5314447747
 21
-84.1993208683
  0
LINE
  5
290
100
AcDbEntity
  8
RACCORDO
100
AcDbLine
 62
7
  6
CONTINUOUS
 10
-23.6883337108
 20
-86.2190203923
 11
-23.6189044617
 21
-86.2166098666
  0
LINE
  5
291
100
AcDbEntity
  8
RACCORDO
100
AcDbLine
 62
250
  6
CONTINUOUS
 10
-46.5549087424
 20
-84.5747651806
 11
-46.8357285615
 21
-84.5839066704
  0
LINE
  5
292
100
AcDbEntity
  8
RACCORDO
100
AcDbLine
 62
250
  6
CONTINUOUS
 10
-46.9707422838
 20
-84.1794746394
 11
-47.2639725367
 21
-84.1890249526
  0
LINE
  5
293
100
AcDbEntity
  8
RACCORDO
100
AcDbLine
 62
7
  6
CONTINUOUS
 10
-23.8129896849
 20
-86.2226940934
 11
-23.6883337108
 21
-86.2190203923
  0
LINE
  5
294
100
AcDbEntity
  8
RACCORDO
100
AcDbLine
 62
250
  6
CONTINUOUS
 10
-46.2529745707
 20
-84.566465791
 11
-46.5549087424
 21
-84.5747651806
  0
LINE
  5
295
100
AcDbEntity
  8
RACCORDO
100
AcDbLine
 62
250
  6
CONTINUOUS
 10
-46.6537603235
 20
-84.1707453561
 11
-46.9707422838
 21
-84.1794746394
  0
LINE
  5
296
100
AcDbEntity
  8
RACCORDO
100
AcDbLine
 62
250
  6
CONTINUOUS
 10
-23.8129896849
 20
-86.2226940934
 11
-23.7924765151
 21
-86.2220486912
  0
LINE
  5
297
100
AcDbEntity
  8
RACCORDO
100
AcDbLine
 62
7
  6
CONTINUOUS
 10
-24.0207483872
 20
-86.2276861015
 11
-23.8129896849
 21
-86.2226940934
  0
LINE
  5
298
100
AcDbEntity
  8
RACCORDO
100
AcDbLine
 62
250
  6
CONTINUOUS
 10
-24.0207483872
 20
-86.2276861015
 11
-24.0108381007
 21
-86.2274154784
  0
LINE
  5
299
100
AcDbEntity
  8
RACCORDO
100
AcDbLine
 62
250
  6
CONTINUOUS
 10
-46.1385105942
 20
-84.1593202127
 11
-46.6537603235
 21
-84.1707453561
  0
LINE
  5
29A
100
AcDbEntity
  8
RACCORDO
100
AcDbLine
 62
250
  6
CONTINUOUS
 10
-45.7655605661
 20
-84.5557386607
 11
-46.2529745707
 21
-84.566465791
  0
LWPOLYLINE
  5
29B
100
AcDbEntity
  8
RACCORDO
100
AcDbPolyline
 62
7
  6
CONTINUOUS
 90
24
 70
0
 10
48.866027746
 20
-85.0463886513
 10
48.8832196636
 20
-85.046092367
 10
48.9186908306
 20
-85.0436130543
 10
48.953872653
 20
-85.0386414681
 10
48.9885866706
 20
-85.031201801
 10
49.022648814
 20
-85.0213329859
 10
49.0558973419
 20
-85.0090958341
 10
49.0881916403
 20
-84.994543734
 10
49.1193756537
 20
-84.9777432741
 10
49.1492936075
 20
-84.9587862583
 10
49.1778031894
 20
-84.9377587069
 10
49.2047633674
 20
-84.9147500845
 10
49.2300319699
 20
-84.8898856346
 10
49.2534667576
 20
-84.8633059877
 10
49.2749386048
 20
-84.835151301
 10
49.2943546006
 20
-84.805560192
 10
49.3116286246
 20
-84.7746724003
 10
49.3266650907
 20
-84.7426432155
 10
49.3393920964
 20
-84.7096300012
 10
49.3497559816
 20
-84.6757729568
 10
49.3576931061
 20
-84.6412348388
 10
49.3631596542
 20
-84.6061980788
 10
49.3661327056
 20
-84.5708409329
 10
49.3667156301
 20
-84.5467993466
  0
LINE
  5
29C
100
AcDbEntity
  8
RACCORDO
100
AcDbLine
 62
7
  6
CONTINUOUS
 10
-24.354038216
 20
-86.234028553
 11
-24.0207483872
 21
-86.2276861015
  0
LINE
  5
29D
100
AcDbEntity
  8
RACCORDO
100
AcDbLine
 62
250
  6
CONTINUOUS
 10
-45.5826183697
 20
-84.1500502386
 11
-46.1385105942
 21
-84.1593202127
  0
LINE
  5
29E
100
AcDbEntity
  8
RACCORDO
100
AcDbLine
 62
250
  6
CONTINUOUS
 10
-45.2433999201
 20
-84.5472209536
 11
-45.7655605661
 21
-84.5557386607
  0
LINE
  5
29F
100
AcDbEntity
  8
RACCORDO
100
AcDbLine
 62
7
  6
CONTINUOUS
 10
-24.9730430719
 20
-86.2429261886
 11
-24.354038216
 21
-86.234028553
  0
LINE
  5
2A0
100
AcDbEntity
  8
RACCORDO
100
AcDbLine
 62
250
  6
CONTINUOUS
 10
-24.9730430719
 20
-86.2429261886
 11
-24.933195999
 21
-86.2424061931
  0
LINE
  5
2A1
100
AcDbEntity
  8
RACCORDO
100
AcDbLine
 62
250
  6
CONTINUOUS
 10
-44.9952966468
 20
-84.1430884864
 11
-45.5826183697
 21
-84.1500502386
  0
LINE
  5
2A2
100
AcDbEntity
  8
RACCORDO
100
AcDbLine
 62
250
  6
CONTINUOUS
 10
-44.6954129836
 20
-84.541055259
 11
-45.2433999201
 21
-84.5472209536
  0
LINE
  5
2A3
100
AcDbEntity
  8
RACCORDO
100
AcDbLine
 62
7
  6
CONTINUOUS
 10
-26.072763602
 20
-86.2540258129
 11
-24.9730430719
 21
-86.2429261886
  0
LWPOLYLINE
  5
2A4
100
AcDbEntity
  8
RACCORDO
100
AcDbPolyline
 62
7
  6
CONTINUOUS
 90
23
 70
0
 10
48.7955259609
 20
-85.0078918809
 10
48.7998962805
 20
-85.007868828
 10
48.8296634173
 20
-85.0064377576
 10
48.8592275177
 20
-85.0027982794
 10
48.888436746
 20
-84.996974469
 10
48.9171338431
 20
-84.9889922826
 10
48.9451621124
 20
-84.9788974115
 10
48.9723704551
 20
-84.9667460573
 10
48.9986032115
 20
-84.9525971777
 10
49.0237140265
 20
-84.9365290952
 10
49.047567787
 20
-84.9186309609
 10
49.0700276524
 20
-84.8989938871
 10
49.0909658981
 20
-84.8777277548
 10
49.1102653706
 20
-84.8549555204
 10
49.1278104979
 20
-84.8308015084
 10
49.1435038122
 20
-84.8053991135
 10
49.1572618732
 20
-84.7788902378
 10
49.1690002066
 20
-84.7514208024
 10
49.1786526886
 20
-84.7231447134
 10
49.1861708593
 20
-84.6942198719
 10
49.1915055723
 20
-84.6648090191
 10
49.1946249946
 20
-84.6350746986
 10
49.1955264957
 20
-84.6082592207
  0
LINE
  5
2A5
100
AcDbEntity
  8
RACCORDO
100
AcDbLine
 62
250
  6
CONTINUOUS
 10
-44.131341196
 20
-84.5373354509
 11
-44.6954129836
 21
-84.541055259
  0
LINE
  5
2A6
100
AcDbEntity
  8
RACCORDO
100
AcDbLine
 62
250
  6
CONTINUOUS
 10
-44.181294963
 20
-84.1375807176
 11
-44.9952966468
 21
-84.1430884864
  0
LINE
  5
2A7
100
AcDbEntity
  8
RACCORDO
100
AcDbLine
 62
7
  6
CONTINUOUS
 10
-26.272763602
 20
-86.815
 11
-37.727236398
 21
-86.815
  0
LINE
  5
2A8
100
AcDbEntity
  8
RACCORDO
100
AcDbLine
 62
250
  6
CONTINUOUS
 10
-26.072763602
 20
-86.615
 11
-37.927236398
 21
-86.615
  0
LINE
  5
2A9
100
AcDbEntity
  8
RACCORDO
100
AcDbLine
 62
7
  6
CONTINUOUS
 10
-37.9355808788
 20
-86.1686761989
 11
-37.8383999674
 21
-86.1686761989
  0
LINE
  5
2AA
100
AcDbEntity
  8
RACCORDO
100
AcDbLine
 62
7
  6
CONTINUOUS
 10
-23.2345993776
 20
-86.115
 11
-25.8363741843
 21
-86.115
  0
LINE
  5
2AB
100
AcDbEntity
  8
RACCORDO
100
AcDbLine
 62
7
  6
CONTINUOUS
 10
-38.3636985245
 20
-86.115
 11
-40.7654006224
 21
-86.115
  0
LINE
  5
2AC
100
AcDbEntity
  8
RACCORDO
100
AcDbLine
 62
7
  6
CONTINUOUS
 10
-22.9084147109
 20
-85.715
 11
49.1432209602
 21
-85.715
  0
LINE
  5
2AD
100
AcDbEntity
  8
RACCORDO
100
AcDbLine
 62
7
  6
CONTINUOUS
 10
-41.0915852891
 20
-85.715
 11
-49.1432214241
 21
-85.715
  0
LINE
  5
2AE
100
AcDbEntity
  8
RACCORDO
100
AcDbLine
 62
250
  6
CONTINUOUS
 10
49.6431811459
 20
-85.215
 11
48.825
 21
-85.215
  0
LINE
  5
2AF
100
AcDbEntity
  8
RACCORDO
100
AcDbLine
 62
250
  6
CONTINUOUS
 10
-48.825
 20
-85.215
 11
-49.6431811459
 21
-85.215
  0
LINE
  5
2B0
100
AcDbEntity
  8
RACCORDO
100
AcDbLine
 62
7
  6
CONTINUOUS
 10
-48.8660277452
 20
-85.0463581903
 11
-41.0788534491
 21
-85.0463581903
  0
LINE
  5
2B1
100
AcDbEntity
  8
RACCORDO
100
AcDbLine
 62
7
  6
CONTINUOUS
 10
-22.9211465509
 20
-85.0463581903
 11
48.8660277452
 21
-85.0463581903
  0
LINE
  5
2B2
100
AcDbEntity
  8
SMUSSO
100
AcDbLine
 62
7
  6
CONTINUOUS
 10
-48.7088535284
 20
-85.015
 11
-40.9656870921
 21
-85.015
  0
LINE
  5
2B3
100
AcDbEntity
  8
SMUSSO
100
AcDbLine
 62
7
  6
CONTINUOUS
 10
-23.0343129079
 20
-85.015
 11
48.7088535284
 21
-85.015
  0
LINE
  5
2B4
100
AcDbEntity
  8
RACCORDO
100
AcDbLine
 62
7
  6
CONTINUOUS
 10
48.7955259605
 20
-85.0078939372
 11
-48.7955259605
 21
-85.0078939372
  0
LINE
  5
2B5
100
AcDbEntity
  8
RACCORDO
100
AcDbLine
 62
250
  6
CONTINUOUS
 10
-49.195526258
 20
-84.6082592183
 11
-49.195039068
 21
-84.6082592183
  0
LINE
  5
2B6
100
AcDbEntity
  8
RACCORDO
100
AcDbLine
 62
250
  6
CONTINUOUS
 10
49.195526258
 20
-84.6082592207
 11
49.195039068
 21
-84.6082592183
  0
LINE
  5
2B7
100
AcDbEntity
  8
RACCORDO
100
AcDbLine
 62
250
  6
CONTINUOUS
 10
49.3659545698
 20
-84.5467993456
 11
49.3667156301
 21
-84.546799346
  0
LINE
  5
2B8
100
AcDbEntity
  8
RACCORDO
100
AcDbLine
 62
250
  6
CONTINUOUS
 10
-49.3659545698
 20
-84.5467993456
 11
-49.3667156301
 21
-84.5467993487
  0
LINE
  5
2B9
100
AcDbEntity
  8
ASSI
100
AcDbLine
 62
7
  6
CONTINUOUS
 10
-49.64052771
 20
-83.615
 11
-49.3667156301
 21
-83.615
  0
LINE
  5
2BA
100
AcDbEntity
  8
ASSI
100
AcDbLine
 62
7
  6
CONTINUOUS
 10
49.3667156301
 20
-83.615
 11
49.64052771
 21
-83.615
  0
LINE
  5
2BB
100
AcDbEntity
  8
DRAFT
100
AcDbLine
 62
7
  6
CONTINUOUS
 10
41.2
 20
-83.4449291517
 11
39.2
 21
-83.4449291517
  0
LINE
  5
2BC
100
AcDbEntity
  8
DRAFT
100
AcDbLine
 62
7
  6
CONTINUOUS
 10
27.8
 20
-83.4449291517
 11
25.8
 21
-83.4449291517
  0
LINE
  5
2BD
100
AcDbEntity
  8
DRAFT
100
AcDbLine
 62
7
  6
CONTINUOUS
 10
14.4
 20
-83.4449291517
 11
12.4
 21
-83.4449291517
  0
LINE
  5
2BE
100
AcDbEntity
  8
DRAFT
100
AcDbLine
 62
7
  6
CONTINUOUS
 10
1.0
 20
-83.4449291517
 11
-1.0
 21
-83.4449291517
  0
LINE
  5
2BF
100
AcDbEntity
  8
DRAFT
100
AcDbLine
 62
7
  6
CONTINUOUS
 10
-12.4
 20
-83.4449291517
 11
-14.4
 21
-83.4449291517
  0
LINE
  5
2C0
100
AcDbEntity
  8
DRAFT
100
AcDbLine
 62
7
  6
CONTINUOUS
 10
-25.8
 20
-83.4449291517
 11
-27.8
 21
-83.4449291517
  0
LINE
  5
2C1
100
AcDbEntity
  8
DRAFT
100
AcDbLine
 62
7
  6
CONTINUOUS
 10
-39.2
 20
-83.4449291517
 11
-41.2
 21
-83.4449291517
  0
LINE
  5
2C2
100
AcDbEntity
  8
RACCORDO
100
AcDbLine
 62
250
  6
CONTINUOUS
 10
43.7520639556
 20
-84.5362346501
 11
-44.131341196
 21
-84.5373354509
  0
LINE
  5
2C3
100
AcDbEntity
  8
RACCORDO
100
AcDbLine
 62
250
  6
CONTINUOUS
 10
43.768227721
 20
-84.1364789299
 11
-44.181294963
 21
-84.1375807176
  0
LINE
  5
2C4
100
AcDbEntity
  8
RACCORDO
100
AcDbLine
 62
250
  6
CONTINUOUS
 10
44.3203914446
 20
-84.5383009224
 11
43.7520639556
 21
-84.5362346501
  0
LINE
  5
2C5
100
AcDbEntity
  8
RACCORDO
100
AcDbLine
 62
250
  6
CONTINUOUS
 10
44.5914109081
 20
-84.1397881562
 11
43.768227721
 21
-84.1364789299
  0
LINE
  5
2C6
100
AcDbEntity
  8
RACCORDO
100
AcDbLine
 62
250
  6
CONTINUOUS
 10
44.8802232956
 20
-84.5428422022
 11
44.3203914446
 21
-84.5383009224
  0
LINE
  5
2C7
100
AcDbEntity
  8
RACCORDO
100
AcDbLine
 62
250
  6
CONTINUOUS
 10
45.1939684354
 20
-84.1451472292
 11
44.5914109081
 21
-84.1397881562
  0
LINE
  5
2C8
100
AcDbEntity
  8
RACCORDO
100
AcDbLine
 62
7
  6
CONTINUOUS
 10
-39.0757009025
 20
-86.2423175781
 11
-37.9279815408
 21
-86.2540225587
  0
LINE
  5
2C9
100
AcDbEntity
  8
RACCORDO
100
AcDbLine
 62
250
  6
CONTINUOUS
 10
45.4206534399
 20
-84.5498041357
 11
44.8802232956
 21
-84.5428422022
  0
LINE
  5
2CA
100
AcDbEntity
  8
RACCORDO
100
AcDbLine
 62
250
  6
CONTINUOUS
 10
45.7719124463
 20
-84.1528945051
 11
45.1939684354
 21
-84.1451472292
  0
LINE
  5
2CB
100
AcDbEntity
  8
RACCORDO
100
AcDbLine
 62
7
  6
CONTINUOUS
 10
-39.6608333451
 20
-86.2337758573
 11
-39.0757009025
 21
-86.2423175781
  0
LINE
  5
2CC
100
AcDbEntity
  8
RACCORDO
100
AcDbLine
 62
250
  6
CONTINUOUS
 10
45.932173354
 20
-84.5590751505
 11
45.4206534399
 21
-84.5498041357
  0
LINE
  5
2CD
100
AcDbEntity
  8
RACCORDO
100
AcDbLine
 62
250
  6
CONTINUOUS
 10
46.3151789346
 20
-84.1629016537
 11
45.7719124463
 21
-84.1528945051
  0
LINE
  5
2CE
100
AcDbEntity
  8
RACCORDO
100
AcDbLine
 62
7
  6
CONTINUOUS
 10
-39.979296625
 20
-86.2276851272
 11
-39.6608333451
 21
-86.2337758573
  0
LINE
  5
2CF
100
AcDbEntity
  8
RACCORDO
100
AcDbLine
 62
7
  6
CONTINUOUS
 10
-40.179853004
 20
-86.2228860775
 11
-39.979296625
 21
-86.2276851272
  0
LINE
  5
2D0
100
AcDbEntity
  8
RACCORDO
100
AcDbLine
 62
250
  6
CONTINUOUS
 10
46.4062930982
 20
-84.5705021467
 11
45.932173354
 21
-84.5590751505
  0
LINE
  5
2D1
100
AcDbEntity
  8
RACCORDO
100
AcDbLine
 62
250
  6
CONTINUOUS
 10
46.8150856969
 20
-84.1750076175
 11
46.3151789346
 21
-84.1629016537
  0
LINE
  5
2D2
100
AcDbEntity
  8
RACCORDO
100
AcDbLine
 62
7
  6
CONTINUOUS
 10
-40.3013833254
 20
-86.2193512345
 11
-40.179853004
 21
-86.2228860775
  0
LINE
  5
2D3
100
AcDbEntity
  8
RACCORDO
100
AcDbLine
 62
250
  6
CONTINUOUS
 10
46.6980626255
 20
-84.579233025
 11
46.4062930982
 21
-84.5705021467
  0
LINE
  5
2D4
100
AcDbEntity
  8
RACCORDO
100
AcDbLine
 62
250
  6
CONTINUOUS
 10
47.1204584644
 20
-84.1841474157
 11
46.8150856969
 21
-84.1750076175
  0
LINE
  5
2D5
100
AcDbEntity
  8
RACCORDO
100
AcDbLine
 62
7
  6
CONTINUOUS
 10
-40.3696811019
 20
-86.2170300633
 11
-40.3013833254
 21
-86.2193512345
  0
LINE
  5
2D6
100
AcDbEntity
  8
RACCORDO
100
AcDbLine
 62
250
  6
CONTINUOUS
 10
46.9679327363
 20
-84.5887851263
 11
46.6980626255
 21
-84.579233025
  0
LINE
  5
2D7
100
AcDbEntity
  8
RACCORDO
100
AcDbLine
 62
250
  6
CONTINUOUS
 10
47.4010475075
 20
-84.1940824276
 11
47.1204584644
 21
-84.1841474157
  0
LWPOLYLINE
  5
2D8
100
AcDbEntity
  8
RACCORDO
100
AcDbPolyline
 62
250
  6
CONTINUOUS
 90
18
 70
0
 10
5.9771681886
 20
-85.715
 10
5.9027224655
 20
-85.7122037971
 10
5.8286930732
 20
-85.7038308262
 10
5.7554940139
 20
-85.6899279121
 10
5.6835346466
 20
-85.6705728058
 10
5.6132173971
 20
-85.6458737486
 10
5.544935508
 20
-85.6159688679
 10
5.4790708395
 20
-85.5810254037
 10
5.4159917334
 20
-85.5412387743
 10
5.3560509536
 20
-85.4968314824
 10
5.2995837134
 20
-85.4480518718
 10
5.2469058004
 20
-85.3951727377
 10
5.1983118109
 20
-85.3384898018
 10
5.1540735022
 20
-85.278320058
 10
5.1144382729
 20
-85.215
 10
5.0796277792
 20
-85.1488837391
 10
5.0498366956
 20
-85.0803410243
 10
5.0379908369
 20
-85.0463581903
  0
LINE
  5
2D9
100
AcDbEntity
  8
RACCORDO
100
AcDbLine
 62
250
  6
CONTINUOUS
 10
-48.9036519354
 20
-85.0449201938
 11
-48.8660277452
 21
-85.0463581903
  0
LWPOLYLINE
  5
2DA
100
AcDbEntity
  8
RACCORDO
100
AcDbPolyline
 62
250
  6
CONTINUOUS
 90
22
 70
0
 10
-48.7955259605
 20
-85.0077721026
 10
-48.8253853719
 20
-85.0066199912
 10
-48.8550727981
 20
-85.0032420628
 10
-48.8844230201
 20
-84.9976577841
 10
-48.9132730551
 20
-84.9898990679
 10
-48.9414620962
 20
-84.9800096247
 10
-48.9688324078
 20
-84.9680447191
 10
-48.9952315985
 20
-84.9540716592
 10
-49.0205131597
 20
-84.9381688623
 10
-49.0445362544
 20
-84.9204248591
 10
-49.0671672211
 20
-84.9009389516
 10
-49.0882804605
 20
-84.8798201026
 10
-49.1077586716
 20
-84.8571855943
 10
-49.1254933984
 20
-84.8331617873
 10
-49.1413862021
 20
-84.8078826913
 10
-49.1553490113
 20
-84.7814883608
 10
-49.1673039266
 20
-84.7541257586
 10
-49.1771843476
 20
-84.7259474577
 10
-49.1849354774
 20
-84.6971097992
 10
-49.1905139367
 20
-84.6677731807
 10
-49.1938881859
 20
-84.6381012249
 10
-49.195039068
 20
-84.6082592183
  0
LINE
  5
2DB
100
AcDbEntity
  8
RACCORDO
100
AcDbLine
 62
7
  6
CONTINUOUS
 10
-40.4284624012
 20
-86.2147386482
 11
-40.3696811019
 21
-86.2170300633
  0
LWPOLYLINE
  5
2DC
100
AcDbEntity
  8
RACCORDO
100
AcDbPolyline
 62
250
  6
CONTINUOUS
 90
19
 70
0
 10
-34.7318719379
 20
-86.815
 10
-34.7493004316
 20
-86.8142389396
 10
-34.766596284
 20
-86.8119615506
 10
-34.7836278631
 20
-86.8081851653
 10
-34.8002655483
 20
-86.8029385242
 10
-34.8163827169
 20
-86.7962615574
 10
-34.8318567074
 20
-86.7882050808
 10
-34.8465697535
 20
-86.7788304089
 10
-34.8604098799
 20
-86.7682088886
 10
-34.873271755
 20
-86.7564213562
 10
-34.8850574921
 20
-86.7435575219
 10
-34.8956773946
 20
-86.7297152873
 10
-34.9050506387
 20
-86.715
 10
-34.9131058883
 20
-86.6995236523
 10
-34.9197818381
 20
-86.6834040287
 10
-34.9250276802
 20
-86.666763809
 10
-34.9288034903
 20
-86.6497296355
 10
-34.9310805325
 20
-86.6324311485
 10
-34.931841477
 20
-86.615
  0
LWPOLYLINE
  5
2DD
100
AcDbEntity
  8
RACCORDO
100
AcDbPolyline
 62
250
  6
CONTINUOUS
 90
19
 70
0
 10
-34.6257661509
 20
-86.815
 10
-34.6431946446
 20
-86.8142389396
 10
-34.6604904969
 20
-86.8119615506
 10
-34.677522076
 20
-86.8081851653
 10
-34.6941597613
 20
-86.8029385242
 10
-34.7102769298
 20
-86.7962615574
 10
-34.7257509204
 20
-86.7882050808
 10
-34.7404639664
 20
-86.7788304089
 10
-34.7543040929
 20
-86.7682088886
 10
-34.7671659679
 20
-86.7564213562
 10
-34.778951705
 20
-86.7435575219
 10
-34.7895716075
 20
-86.7297152873
 10
-34.7989448516
 20
-86.715
 10
-34.8070001012
 20
-86.6995236523
 10
-34.8136760511
 20
-86.6834040287
 10
-34.8189218931
 20
-86.666763809
 10
-34.8226977033
 20
-86.6497296355
 10
-34.8249747454
 20
-86.6324311485
 10
-34.8257356899
 20
-86.615
  0
LWPOLYLINE
  5
2DE
100
AcDbEntity
  8
RACCORDO
100
AcDbPolyline
 62
250
  6
CONTINUOUS
 90
19
 70
0
 10
-26.5008376766
 20
-86.815
 10
-26.5182661703
 20
-86.8142389396
 10
-26.5355620227
 20
-86.8119615506
 10
-26.5525936018
 20
-86.8081851653
 10
-26.5692312871
 20
-86.8029385242
 10
-26.5853484556
 20
-86.7962615574
 10
-26.6008224462
 20
-86.7882050807
 10
-26.6155354922
 20
-86.7788304088
 10
-26.6293756187
 20
-86.7682088886
 10
-26.6422374937
 20
-86.7564213562
 10
-26.6540232308
 20
-86.7435575219
 10
-26.6646431333
 20
-86.7297152873
 10
-26.6740163774
 20
-86.715
 10
-26.682071627
 20
-86.6995236523
 10
-26.6887475769
 20
-86.6834040287
 10
-26.6939934189
 20
-86.666763809
 10
-26.697769229
 20
-86.6497296355
 10
-26.7000462712
 20
-86.6324311485
 10
-26.7008072157
 20
-86.615
  0
LWPOLYLINE
  5
2DF
100
AcDbEntity
  8
RACCORDO
100
AcDbPolyline
 62
250
  6
CONTINUOUS
 90
19
 70
0
 10
-26.4615543412
 20
-86.815
 10
-26.4789828349
 20
-86.8142389396
 10
-26.4962786872
 20
-86.8119615506
 10
-26.5133102663
 20
-86.8081851653
 10
-26.5299479516
 20
-86.8029385242
 10
-26.5460651202
 20
-86.7962615574
 10
-26.5615391107
 20
-86.7882050808
 10
-26.5762521568
 20
-86.7788304089
 10
-26.5900922832
 20
-86.7682088886
 10
-26.6029541583
 20
-86.7564213562
 10
-26.6147398954
 20
-86.7435575219
 10
-26.6253597979
 20
-86.7297152873
 10
-26.634733042
 20
-86.715
 10
-26.6427882916
 20
-86.6995236523
 10
-26.6494642414
 20
-86.6834040287
 10
-26.6547100834
 20
-86.666763809
 10
-26.6584858936
 20
-86.6497296355
 10
-26.6607629358
 20
-86.6324311485
 10
-26.6615238802
 20
-86.615
  0
LINE
  5
2E0
100
AcDbEntity
  8
RACCORDO
100
AcDbLine
 62
7
  6
CONTINUOUS
 10
-49.1186750559
 20
-85.715
 11
-49.1621930112
 21
-85.713097034
  0
LWPOLYLINE
  5
2E1
100
AcDbEntity
  8
RACCORDO
100
AcDbPolyline
 62
250
  6
CONTINUOUS
 90
19
 70
0
 10
-26.5905627
 20
-86.815
 10
-26.6077068282
 20
-86.8142389396
 10
-26.6247204792
 20
-86.8119615506
 10
-26.6414741689
 20
-86.8081851653
 10
-26.6578403916
 20
-86.8029385242
 10
-26.6736945905
 20
-86.7962615574
 10
-26.6889161054
 20
-86.7882050808
 10
-26.7033890916
 20
-86.7788304089
 10
-26.7170034008
 20
-86.7682088886
 10
-26.7296554199
 20
-86.7564213562
 10
-26.7412488594
 20
-86.7435575219
 10
-26.7516954862
 20
-86.7297152873
 10
-26.7609157953
 20
-86.715
 10
-26.7688396145
 20
-86.6995236523
 10
-26.7754066386
 20
-86.6834040287
 10
-26.7805668888
 20
-86.666763809
 10
-26.7842810924
 20
-86.6497296355
 10
-26.7865209821
 20
-86.6324311485
 10
-26.7872695109
 20
-86.615
  0
LWPOLYLINE
  5
2E2
100
AcDbEntity
  8
RACCORDO
100
AcDbPolyline
 62
250
  6
CONTINUOUS
 90
19
 70
0
 10
-48.1502511521
 20
-84.6855281419
 10
-48.1849748668
 20
-84.6839269684
 10
-48.2194351311
 20
-84.6793049732
 10
-48.2533704933
 20
-84.6716972234
 10
-48.2865234842
 20
-84.6611614396
 10
-48.3186425706
 20
-84.647777557
 10
-48.3494840635
 20
-84.63164712
 10
-48.3788139669
 20
-84.6128925109
 10
-48.4064097536
 20
-84.5916560217
 10
-48.432062053
 20
-84.5680987747
 10
-48.4555762399
 20
-84.5423994998
 10
-48.4767739111
 20
-84.5147531787
 10
-48.4954942389
 20
-84.4853695653
 10
-48.5115951913
 20
-84.4544715943
 10
-48.5249546095
 20
-84.4222936903
 10
-48.5354711351
 20
-84.3890799883
 10
-48.5430649787
 20
-84.3550824824
 10
-48.5476785255
 20
-84.3205591132
 10
-48.5492767722
 20
-84.2857718111
  0
LINE
  5
2E3
100
AcDbEntity
  8
RACCORDO
100
AcDbLine
 62
250
  6
CONTINUOUS
 10
-40.4783894671
 20
-86.2124727033
 11
-40.4480449933
 21
-86.2136834633
  0
LINE
  5
2E4
100
AcDbEntity
  8
RACCORDO
100
AcDbLine
 62
250
  6
CONTINUOUS
 10
-40.5940950648
 20
-86.202416096
 11
-40.6149906208
 21
-86.2013268338
  0
LINE
  5
2E5
100
AcDbEntity
  8
RACCORDO
100
AcDbLine
 62
250
  6
CONTINUOUS
 10
-23.1086480883
 20
-86.1324491068
 11
-23.2345993776
 21
-86.115
  0
LINE
  5
2E6
100
AcDbEntity
  8
RACCORDO
100
AcDbLine
 62
250
  6
CONTINUOUS
 10
-22.9084147192
 20
-85.9325438624
 11
-23.0343129079
 21
-85.915102112
  0
LWPOLYLINE
  5
2E7
100
AcDbEntity
  8
DRAFT
100
AcDbPolyline
 62
7
  6
CONTINUOUS
 90
15
 70
0
 10
-1.4038212017
 20
-85.0463581903
 10
-1.3420281557
 20
-85.0594020707
 10
-1.2777354972
 20
-85.0723101514
 10
-1.2132374458
 20
-85.0846136292
 10
-1.1487185591
 20
-85.0962580629
 10
-1.0840354478
 20
-85.1072715407
 10
-1.0191150303
 20
-85.1176681049
 10
-0.9540303882
 20
-85.1274337133
 10
-0.8888573765
 20
-85.1365543279
 10
-0.8235984252
 20
-85.1450272909
 10
-0.7582511043
 20
-85.15285526
 10
-0.6928839789
 20
-85.1600321709
 10
-0.6275199041
 20
-85.1665560018
 10
-0.5621360249
 20
-85.1724287745
 10
-0.4967323412
 20
-85.1776504888
  0
LINE
  5
2E8
100
AcDbEntity
  8
RACCORDO
100
AcDbLine
 62
7
  6
CONTINUOUS
 10
-23.0343129079
 20
-85.015
 11
-22.9211465509
 21
-85.0463581903
  0
LINE
  5
2E9
100
AcDbEntity
  8
DRAFT
100
AcDbLine
 62
7
  6
CONTINUOUS
 10
-41.1799282041
 20
-79.4350717959
 11
-41.2
 21
-79.415
  0
LINE
  5
2EA
100
AcDbEntity
  8
RACCORDO
100
AcDbLine
 62
7
  6
CONTINUOUS
 10
-23.3600820499
 20
-86.1971036107
 11
-23.3568290219
 21
-86.196309086
  0
LINE
  5
2EB
100
AcDbEntity
  8
RACCORDO
100
AcDbLine
 62
7
  6
CONTINUOUS
 10
-23.36216786
 20
-86.1975765716
 11
-23.062740218
 21
-86.1271166181
  0
LINE
  5
2EC
100
AcDbEntity
  8
RACCORDO
100
AcDbLine
 62
250
  6
CONTINUOUS
 10
-23.4059049352
 20
-86.202416096
 11
-23.1086480883
 21
-86.1324491068
  0
LINE
  5
2ED
100
AcDbEntity
  8
RACCORDO
100
AcDbLine
 62
7
  6
CONTINUOUS
 10
-25.8363741843
 20
-86.115
 11
-26.0729009261
 21
-86.1706726083
  0
LINE
  5
2EE
100
AcDbEntity
  8
RACCORDO
100
AcDbLine
 62
250
  6
CONTINUOUS
 10
-23.3643427184
 20
-86.1980574367
 11
-23.3600820499
 21
-86.1971036107
  0
LWPOLYLINE
  5
2EF
100
AcDbEntity
  8
RACCORDO
100
AcDbPolyline
 62
7
  6
CONTINUOUS
 90
4
 70
0
 10
-23.0627402498
 20
-86.1271166256
 10
-23.0740111663
 20
-86.1294302657
 10
-23.091275427
 20
-86.1316929289
 10
-23.1086480883
 20
-86.1324491068
  0
LINE
  5
2F0
100
AcDbEntity
  8
RACCORDO
100
AcDbLine
 62
250
  6
CONTINUOUS
 10
-40.7654006224
 20
-86.115
 11
-40.8913519117
 21
-86.1324491068
  0
LINE
  5
2F1
100
AcDbEntity
  8
RACCORDO
100
AcDbLine
 62
250
  6
CONTINUOUS
 10
-40.9656870921
 20
-85.915102112
 11
-41.0915852891
 21
-85.9325438635
  0
LWPOLYLINE
  5
2F2
100
AcDbEntity
  8
RACCORDO
100
AcDbPolyline
 62
250
  6
CONTINUOUS
 90
13
 70
0
 10
-47.7712914936
 20
-84.2103096594
 10
-47.8803358624
 20
-84.2160338743
 10
-47.9818517467
 20
-84.2219101225
 10
-48.0756199261
 20
-84.2279051915
 10
-48.1614883074
 20
-84.2340203052
 10
-48.2393068709
 20
-84.2402542396
 10
-48.3089053862
 20
-84.2465701103
 10
-48.3701830801
 20
-84.2529682302
 10
-48.4230575981
 20
-84.2594482864
 10
-48.4674376746
 20
-84.2659724549
 10
-48.5032772934
 20
-84.2725281279
 10
-48.5305603073
 20
-84.2791279133
 10
-48.5492767722
 20
-84.2857718111
  0
LWPOLYLINE
  5
2F3
100
AcDbEntity
  8
RACCORDO
100
AcDbPolyline
 62
250
  6
CONTINUOUS
 90
11
 70
0
 10
-27.6384906851
 20
-80.015
 10
-27.6280394308
 20
-80.0144521895
 10
-27.6177026826
 20
-80.0128147601
 10
-27.6075936922
 20
-80.0101056516
 10
-27.5978232156
 20
-80.0063545458
 10
-27.5884983004
 20
-80.0016025404
 10
-27.5797211121
 20
-79.9959016994
 10
-27.5715878157
 20
-79.9893144825
 10
-27.564187521
 20
-79.9819130606
 10
-27.5576013074
 20
-79.9737785252
 10
-27.5519013347
 20
-79.965
  0
LINE
  5
2F4
100
AcDbEntity
  8
ASSI
100
AcDbLine
 62
7
  6
CONTINUOUS
 10
41.1798069812
 20
-81.503344261
 11
39.2201930188
 21
-81.503344261
  0
LINE
  5
2F5
100
AcDbEntity
  8
ASSI
100
AcDbLine
 62
7
  6
CONTINUOUS
 10
27.7798069812
 20
-81.503344261
 11
25.8201930188
 21
-81.503344261
  0
LINE
  5
2F6
100
AcDbEntity
  8
ASSI
100
AcDbLine
 62
7
  6
CONTINUOUS
 10
14.3798069812
 20
-81.503344261
 11
12.4201930188
 21
-81.503344261
  0
LINE
  5
2F7
100
AcDbEntity
  8
ASSI
100
AcDbLine
 62
7
  6
CONTINUOUS
 10
0.9798069812
 20
-81.503344261
 11
-0.9798069812
 21
-81.503344261
  0
LINE
  5
2F8
100
AcDbEntity
  8
ASSI
100
AcDbLine
 62
7
  6
CONTINUOUS
 10
-12.4201930188
 20
-81.503344261
 11
-14.3798069812
 21
-81.503344261
  0
LINE
  5
2F9
100
AcDbEntity
  8
ASSI
100
AcDbLine
 62
7
  6
CONTINUOUS
 10
-25.8201930188
 20
-81.503344261
 11
-27.7798069812
 21
-81.503344261
  0
LINE
  5
2FA
100
AcDbEntity
  8
ASSI
100
AcDbLine
 62
7
  6
CONTINUOUS
 10
-39.2201930188
 20
-81.503344261
 11
-41.1798069812
 21
-81.503344261
  0
LINE
  5
2FB
100
AcDbEntity
  8
DRAFT
100
AcDbLine
 62
7
  6
CONTINUOUS
 10
-14.3799282041
 20
-80.515
 11
-12.4200717959
 21
-80.515
  0
LINE
  5
2FC
100
AcDbEntity
  8
DRAFT
100
AcDbLine
 62
7
  6
CONTINUOUS
 10
12.4200717959
 20
-80.515
 11
14.3799282041
 21
-80.515
  0
LINE
  5
2FD
100
AcDbEntity
  8
DRAFT
100
AcDbLine
 62
7
  6
CONTINUOUS
 10
-14.3799282041
 20
-80.4800898701
 11
-12.4200717959
 21
-80.4800898701
  0
LINE
  5
2FE
100
AcDbEntity
  8
DRAFT
100
AcDbLine
 62
7
  6
CONTINUOUS
 10
12.4200717959
 20
-80.4800898701
 11
14.3799282041
 21
-80.4800898701
  0
LINE
  5
2FF
100
AcDbEntity
  8
RACCORDO
100
AcDbLine
 62
7
  6
CONTINUOUS
 10
41.1799282041
 20
-80.015
 11
39.2200717959
 21
-80.015
  0
LINE
  5
300
100
AcDbEntity
  8
RACCORDO
100
AcDbLine
 62
7
  6
CONTINUOUS
 10
27.7799282041
 20
-80.015
 11
25.8200717959
 21
-80.015
  0
LINE
  5
301
100
AcDbEntity
  8
RACCORDO
100
AcDbLine
 62
7
  6
CONTINUOUS
 10
0.9799282041
 20
-80.015
 11
-0.9799282041
 21
-80.015
  0
LINE
  5
302
100
AcDbEntity
  8
RACCORDO
100
AcDbLine
 62
7
  6
CONTINUOUS
 10
-27.6000152328
 20
-80.015
 11
-27.7799282041
 21
-80.015
  0
LINE
  5
303
100
AcDbEntity
  8
RACCORDO
100
AcDbLine
 62
7
  6
CONTINUOUS
 10
-25.8200717959
 20
-80.015
 11
-27.4001368981
 21
-80.015
  0
LINE
  5
304
100
AcDbEntity
  8
RACCORDO
100
AcDbLine
 62
7
  6
CONTINUOUS
 10
-39.2200717959
 20
-80.015
 11
-41.1799282041
 21
-80.015
  0
LINE
  5
305
100
AcDbEntity
  8
RACCORDO
100
AcDbLine
 62
250
  6
CONTINUOUS
 10
-27.7799282041
 20
-79.915
 11
-27.5000457472
 21
-79.915
  0
LINE
  5
306
100
AcDbEntity
  8
DRAFT
100
AcDbLine
 62
7
  6
CONTINUOUS
 10
-41.1799282041
 20
-79.4350717959
 11
-39.2200717959
 21
-79.4350717959
  0
LINE
  5
307
100
AcDbEntity
  8
DRAFT
100
AcDbLine
 62
7
  6
CONTINUOUS
 10
-27.7799282041
 20
-79.4350717959
 11
-25.8200717959
 21
-79.4350717959
  0
LINE
  5
308
100
AcDbEntity
  8
DRAFT
100
AcDbLine
 62
7
  6
CONTINUOUS
 10
-14.3799282041
 20
-79.4350717959
 11
-12.4200717959
 21
-79.4350717959
  0
LINE
  5
309
100
AcDbEntity
  8
DRAFT
100
AcDbLine
 62
7
  6
CONTINUOUS
 10
-0.9799282041
 20
-79.4350717959
 11
0.9799282041
 21
-79.4350717959
  0
LINE
  5
30A
100
AcDbEntity
  8
DRAFT
100
AcDbLine
 62
7
  6
CONTINUOUS
 10
12.4200717959
 20
-79.4350717959
 11
14.3799282041
 21
-79.4350717959
  0
LINE
  5
30B
100
AcDbEntity
  8
DRAFT
100
AcDbLine
 62
7
  6
CONTINUOUS
 10
25.8200717959
 20
-79.4350717959
 11
27.7799282041
 21
-79.4350717959
  0
LINE
  5
30C
100
AcDbEntity
  8
DRAFT
100
AcDbLine
 62
7
  6
CONTINUOUS
 10
39.2200717959
 20
-79.4350717959
 11
41.1799282041
 21
-79.4350717959
  0
LINE
  5
30D
100
AcDbEntity
  8
DRAFT
100
AcDbLine
 62
7
  6
CONTINUOUS
 10
-41.2
 20
-79.415
 11
-39.2
 21
-79.415
  0
LINE
  5
30E
100
AcDbEntity
  8
DRAFT
100
AcDbLine
 62
7
  6
CONTINUOUS
 10
-27.8
 20
-79.415
 11
-25.8
 21
-79.415
  0
LINE
  5
30F
100
AcDbEntity
  8
DRAFT
100
AcDbLine
 62
7
  6
CONTINUOUS
 10
-14.4
 20
-79.415
 11
-12.4
 21
-79.415
  0
LINE
  5
310
100
AcDbEntity
  8
DRAFT
100
AcDbLine
 62
7
  6
CONTINUOUS
 10
-1.0
 20
-79.415
 11
1.0
 21
-79.415
  0
LINE
  5
311
100
AcDbEntity
  8
DRAFT
100
AcDbLine
 62
7
  6
CONTINUOUS
 10
12.4
 20
-79.415
 11
14.4
 21
-79.415
  0
LINE
  5
312
100
AcDbEntity
  8
DRAFT
100
AcDbLine
 62
7
  6
CONTINUOUS
 10
25.8
 20
-79.415
 11
27.8
 21
-79.415
  0
LINE
  5
313
100
AcDbEntity
  8
DRAFT
100
AcDbLine
 62
7
  6
CONTINUOUS
 10
39.2
 20
-79.415
 11
41.2
 21
-79.415
  0
LWPOLYLINE
  5
314
100
AcDbEntity
  8
RACCORDO
100
AcDbPolyline
 62
7
  6
CONTINUOUS
 90
16
 70
0
 10
-27.4000607954
 20
-80.015
 10
-27.4107336932
 20
-80.0144029346
 10
-27.4210639187
 20
-80.0127635509
 10
-27.4310514719
 20
-80.0100818488
 10
-27.4407989187
 20
-80.006302796
 10
-27.4502036932
 20
-80.001481425
 10
-27.4589580977
 20
-79.9957828331
 10
-27.4670372493
 20
-79.9891785246
 10
-27.474466031
 20
-79.9816969953
 10
-27.4810113934
 20
-79.9735888301
 10
-27.4866421986
 20
-79.9648390241
 10
-27.4913895846
 20
-79.9554625823
 10
-27.4951139158
 20
-79.9457551041
 10
-27.497768647
 20
-79.9358151228
 10
-27.4994003234
 20
-79.9255441052
 10
-27.5000089449
 20
-79.9149420514
  0
LINE
  5
315
100
AcDbEntity
  8
DRAFT
100
AcDbLine
 62
7
  6
CONTINUOUS
 10
-27.7799282041
 20
-79.4350717959
 11
-27.8
 21
-79.415
  0
LWPOLYLINE
  5
316
100
AcDbEntity
  8
RACCORDO
100
AcDbPolyline
 62
7
  6
CONTINUOUS
 90
5
 70
0
 10
-49.1889945607
 20
81.3487409627
 10
-49.1927467175
 20
81.3364679196
 10
-49.2003496613
 20
81.3042510708
 10
-49.2057320102
 20
81.2719812344
 10
-49.2089487909
 20
81.239446671
  0
LINE
  5
317
100
AcDbEntity
  8
RACCORDO
100
AcDbLine
 62
7
  6
CONTINUOUS
 10
-41.0788534491
 20
-85.0463581903
 11
-40.9656870921
 21
-85.015
  0
LWPOLYLINE
  5
318
100
AcDbEntity
  8
0
100
AcDbPolyline
 62
7
  6
CONTINUOUS
 90
10
 70
0
 10
-1.6541548953
 20
-74.5974393208
 10
-1.6512924851
 20
-74.5966774042
 10
-1.5804617149
 20
-74.5792215659
 10
-1.5029097723
 20
-74.56139126
 10
-1.4187952699
 20
-74.5432243116
 10
-1.328158733
 20
-74.524720807
 10
-1.2311988012
 20
-74.5059039515
 10
-1.1281486142
 20
-74.4867918404
 10
-1.0191802187
 20
-74.4673815812
 10
-0.9043984037
 20
-74.4476516545
  0
LINE
  5
319
100
AcDbEntity
  8
RACCORDO
100
AcDbLine
 62
250
  6
CONTINUOUS
 10
-48.7088535284
 20
-85.015
 11
-48.8660277452
 21
-85.0463581903
  0
LINE
  5
31A
100
AcDbEntity
  8
RACCORDO
100
AcDbLine
 62
250
  6
CONTINUOUS
 10
-49.2100000033
 20
-84.5156844906
 11
-49.3659545698
 21
-84.5467993456
  0
LINE
  5
31B
100
AcDbEntity
  8
DRAFT
100
AcDbLine
 62
7
  6
CONTINUOUS
 10
-49.6167724049
 20
-83.7450402337
 11
-49.3667156301
 21
-83.6951508301
  0
LWPOLYLINE
  5
31C
100
AcDbEntity
  8
0
100
AcDbPolyline
 62
7
  6
CONTINUOUS
 90
11
 70
0
 10
-0.7894676724
 20
-74.0279153593
 10
-0.9277868881
 20
-74.0507724653
 10
-1.0587943856
 20
-74.0731602381
 10
-1.1826163627
 20
-74.095161706
 10
-1.2989548319
 20
-74.1167764823
 10
-1.4076718381
 20
-74.1380192772
 10
-1.5091869179
 20
-74.1590099693
 10
-1.6033319503
 20
-74.1797500991
 10
-1.6901438624
 20
-74.2002755898
 10
-1.7703611472
 20
-74.2208034022
 10
-1.7832596535
 20
-74.224411687
  0
LWPOLYLINE
  5
31D
100
AcDbEntity
  8
0
100
AcDbPolyline
 62
7
  6
CONTINUOUS
 90
10
 70
0
 10
0.7781899167
 20
-74.1848710269
 10
0.9216581433
 20
-74.1612082288
 10
1.0610820246
 20
-74.1373936885
 10
1.1948691684
 20
-74.1135610835
 10
1.3226363758
 20
-74.0896431013
 10
1.4434239058
 20
-74.0656821975
 10
1.5553174806
 20
-74.0419530501
 10
1.6579610946
 20
-74.018466575
 10
1.7514600449
 20
-73.9951445899
 10
1.8221650893
 20
-73.9756988002
  0
LINE
  5
31E
100
AcDbEntity
  8
0
100
AcDbLine
 62
7
  6
CONTINUOUS
 10
-0.9043984037
 20
-74.4476516545
 11
-0.6586275869
 21
-74.4072492882
  0
LINE
  5
31F
100
AcDbEntity
  8
0
100
AcDbLine
 62
7
  6
CONTINUOUS
 10
0.7870854973
 20
-73.7828550586
 11
0.4807784683
 21
-73.8318274155
  0
LINE
  5
320
100
AcDbEntity
  8
0
100
AcDbLine
 62
7
  6
CONTINUOUS
 10
-0.4917855103
 20
-73.9806439148
 11
-0.7894676724
 21
-74.0279153593
  0
LINE
  5
321
100
AcDbEntity
  8
0
100
AcDbLine
 62
7
  6
CONTINUOUS
 10
0.4824702291
 20
-74.2317565908
 11
0.7781899167
 21
-74.1848710269
  0
LINE
  5
322
100
AcDbEntity
  8
0
100
AcDbLine
 62
7
  6
CONTINUOUS
 10
-0.6586275869
 20
-74.4072492882
 11
-0.3930709962
 21
-74.3654938323
  0
LINE
  5
323
100
AcDbEntity
  8
0
100
AcDbLine
 62
7
  6
CONTINUOUS
 10
0.4807784683
 20
-73.8318274155
 11
-0.4917855103
 21
-73.9806439148
  0
LINE
  5
324
100
AcDbEntity
  8
0
100
AcDbLine
 62
7
  6
CONTINUOUS
 10
-0.3930709962
 20
-74.3654938323
 11
0.4824702291
 21
-74.2317565908
  0
LINE
  5
325
100
AcDbEntity
  8
0
100
AcDbLine
 62
7
  6
CONTINUOUS
 10
-1.7602036747
 20
-73.315
 11
1.7602036747
 21
-73.315
  0
LINE
  5
326
100
AcDbEntity
  8
RACCORDO
100
AcDbLine
 62
250
  6
CONTINUOUS
 10
48.8660277452
 20
-85.0463581903
 11
48.7088535284
 21
-85.015
  0
LINE
  5
327
100
AcDbEntity
  8
RACCORDO
100
AcDbLine
 62
250
  6
CONTINUOUS
 10
49.3659545698
 20
-84.5467993456
 11
49.2100000033
 21
-84.5156844906
  0
LINE
  5
328
100
AcDbEntity
  8
DRAFT
100
AcDbLine
 62
7
  6
CONTINUOUS
 10
49.3667156301
 20
-83.6951508301
 11
49.6167724049
 21
-83.7450402337
  0
LWPOLYLINE
  5
329
100
AcDbEntity
  8
0
100
AcDbPolyline
 62
7
  6
CONTINUOUS
 90
4
 70
0
 10
1.54
 20
-73.5698127733
 10
1.5457731451
 20
-73.5711003869
 10
1.6219155428
 20
-73.5892814414
 10
1.6847546568
 20
-73.6054711284
  0
LWPOLYLINE
  5
32A
100
AcDbEntity
  8
0
100
AcDbPolyline
 62
7
  6
CONTINUOUS
 90
3
 70
0
 10
-1.54
 20
-74.6410366793
 10
-1.5862698778
 20
-74.6303457136
 10
-1.6448556764
 20
-74.6158209631
  0
LINE
  5
32B
100
AcDbEntity
  8
ASSI
100
AcDbLine
 62
7
  6
CONTINUOUS
 10
-0.4261806034
 20
-67.7360651636
 11
0.6892918249
 21
-67.7360651636
  0
LWPOLYLINE
  5
32C
100
AcDbEntity
  8
RACCORDO
100
AcDbPolyline
 62
250
  6
CONTINUOUS
 90
15
 70
0
 10
48.5492767722
 20
-84.2857718111
 10
48.5305603073
 20
-84.2791279133
 10
48.5032772934
 20
-84.2725281279
 10
48.4674376746
 20
-84.2659724549
 10
48.4230575981
 20
-84.2594482863
 10
48.3701830801
 20
-84.2529682302
 10
48.3089053862
 20
-84.2465701103
 10
48.2393068709
 20
-84.2402542396
 10
48.1614883074
 20
-84.2340203052
 10
48.0756199261
 20
-84.2279051915
 10
47.9818517467
 20
-84.2219101225
 10
47.8803358624
 20
-84.2160338743
 10
47.7712914936
 20
-84.2103096594
 10
47.6549309542
 20
-84.2047392472
 10
47.4010475075
 20
-84.1940824276
  0
LWPOLYLINE
  5
32D
100
AcDbEntity
  8
RACCORDO
100
AcDbPolyline
 62
250
  6
CONTINUOUS
 90
16
 70
0
 10
48.1502511521
 20
-84.6855281419
 10
48.1330323365
 20
-84.6788921066
 10
48.1079670892
 20
-84.6722979772
 10
48.0750554103
 20
-84.6657457538
 10
48.0342296534
 20
-84.6592221
 10
47.9855574649
 20
-84.6527403523
 10
47.9292417835
 20
-84.6463405191
 10
47.86522403
 20
-84.6400236377
 10
47.7935627836
 20
-84.6337886708
 10
47.7146367203
 20
-84.6276725157
 10
47.6283973142
 20
-84.6216763928
 10
47.5348930912
 20
-84.6157990817
 10
47.4346483059
 20
-84.6100738186
 10
47.3276382159
 20
-84.6045023745
 10
47.2138875636
 20
-84.5990829784
 10
46.9679327363
 20
-84.5887851263
  0
LINE
  5
32E
100
AcDbEntity
  8
DRAFT
100
AcDbLine
 62
7
  6
CONTINUOUS
 10
-14.3799282041
 20
-79.4350717959
 11
-14.4
 21
-79.415
  0
LINE
  5
32F
100
AcDbEntity
  8
DRAFT
100
AcDbLine
 62
7
  6
CONTINUOUS
 10
13.05
 20
-55.815
 11
-13.05
 21
-55.815
  0
LINE
  5
330
100
AcDbEntity
  8
DRAFT
100
AcDbLine
 62
7
  6
CONTINUOUS
 10
13.0322886568
 20
-54.5972886568
 11
-13.0322886568
 21
-54.5972886568
  0
LINE
  5
331
100
AcDbEntity
  8
RACCORDO
100
AcDbLine
 62
250
  6
CONTINUOUS
 10
48.7955259605
 20
-85.0077721026
 11
48.1502511521
 21
-84.6855281419
  0
LINE
  5
332
100
AcDbEntity
  8
DRAFT
100
AcDbLine
 62
7
  6
CONTINUOUS
 10
-0.9799282041
 20
-79.4350717959
 11
-1.0
 21
-79.415
  0
LWPOLYLINE
  5
333
100
AcDbEntity
  8
RACCORDO
100
AcDbPolyline
 62
250
  6
CONTINUOUS
 90
9
 70
0
 10
-49.3659545698
 20
-84.5467993456
 10
-49.3645422658
 20
-84.5840381125
 10
-49.36035946
 20
-84.6210598957
 10
-49.3534311543
 20
-84.6576593438
 10
-49.3438000292
 20
-84.6936249723
 10
-49.3315198425
 20
-84.7287667497
 10
-49.3166487678
 20
-84.7629149798
 10
-49.2992566403
 20
-84.795892796
 10
-49.2986320182
 20
-84.7983746922
  0
LWPOLYLINE
  5
334
100
AcDbEntity
  8
RACCORDO
100
AcDbPolyline
 62
7
  6
CONTINUOUS
 90
24
 70
0
 10
-49.3667156301
 20
-84.5467993493
 10
-49.3664495527
 20
-84.5630341851
 10
-49.3640412978
 20
-84.5983203525
 10
-49.3591479262
 20
-84.6333408495
 10
-49.351789732
 20
-84.667919067
 10
-49.3420018473
 20
-84.7018674929
 10
-49.3298435491
 20
-84.7350222925
 10
-49.3153654714
 20
-84.7672444119
 10
-49.2986320182
 20
-84.7983746922
 10
-49.2797337254
 20
-84.8282564917
 10
-49.2587533602
 20
-84.8567502304
 10
-49.2357778033
 20
-84.8837131345
 10
-49.210931134
 20
-84.9090002084
 10
-49.1843529508
 20
-84.9324685367
 10
-49.1561809845
 20
-84.9539880511
 10
-49.1265522503
 20
-84.9734627254
 10
-49.0956089886
 20
-84.990803207
 10
-49.0635058054
 20
-85.0059129379
 10
-49.0303973404
 20
-85.0187177038
 10
-48.9964251967
 20
-85.0291609956
 10
-48.9617501985
 20
-85.0371779232
 10
-48.9265514976
 20
-85.0427211356
 10
-48.8910089771
 20
-85.045763616
 10
-48.8660277464
 20
-85.0463886513
  0
LWPOLYLINE
  5
335
100
AcDbEntity
  8
RACCORDO
100
AcDbPolyline
 62
7
  6
CONTINUOUS
 90
23
 70
0
 10
-49.1955264958
 20
-84.6082592183
 10
-49.1954979137
 20
-84.6130214869
 10
-49.1940176958
 20
-84.6429449248
 10
-49.1903044807
 20
-84.6726560486
 10
-49.184375528
 20
-84.7019956534
 10
-49.1762707043
 20
-84.7308005393
 10
-49.166040842
 20
-84.758907633
 10
-49.1537375469
 20
-84.7861589081
 10
-49.1394353148
 20
-84.812403928
 10
-49.1232205468
 20
-84.8374973265
 10
-49.1051797368
 20
-84.86129784
 10
-49.0854178521
 20
-84.8836771563
 10
-49.0640521802
 20
-84.9045124947
 10
-49.0412020856
 20
-84.9236828954
 10
-49.0170013488
 20
-84.941085412
 10
-48.9915876765
 20
-84.956631348
 10
-48.9650961608
 20
-84.9702346005
 10
-48.9376770074
 20
-84.9818249676
 10
-48.9094864157
 20
-84.9913458132
 10
-48.880674041
 20
-84.9987434225
 10
-48.8513963397
 20
-85.003979958
 10
-48.8218101246
 20
-85.0070316543
 10
-48.7955259606
 20
-85.0078918809
  0
LINE
  5
336
100
AcDbEntity
  8
ASSI
100
AcDbLine
 62
7
  6
CONTINUOUS
 10
-50.3675206953
 20
80.9860227546
 11
-50.3675206953
 21
78.9312753145
  0
LINE
  5
337
100
AcDbEntity
  8
RACCORDO
100
AcDbLine
 62
7
  6
CONTINUOUS
 10
-50.3561012756
 20
80.9878579005
 11
-50.3561014955
 21
78.9335104325
  0
LINE
  5
338
100
AcDbEntity
  8
ASSI
100
AcDbLine
 62
7
  6
CONTINUOUS
 10
-49.6431811459
 20
-85.215
 11
-49.6431811459
 21
-83.754855623
  0
LINE
  5
339
100
AcDbEntity
  8
ASSI
100
AcDbLine
 62
7
  6
CONTINUOUS
 10
-49.6405941807
 20
-83.615
 11
-49.6405941807
 21
79.0726324601
  0
LINE
  5
33A
100
AcDbEntity
  8
0
100
AcDbLine
 62
7
  6
CONTINUOUS
 10
-49.6186215945
 20
-83.615
 11
-49.6186215945
 21
79.0768759187
  0
LINE
  5
33B
100
AcDbEntity
  8
RACCORDO
100
AcDbLine
 62
7
  6
CONTINUOUS
 10
-49.6167724049
 20
-83.7450402337
 11
-49.6167724049
 21
-85.215
  0
LINE
  5
33C
100
AcDbEntity
  8
RACCORDO
100
AcDbLine
 62
7
  6
CONTINUOUS
 10
-49.3667156301
 20
79.1254025243
 11
-49.3667156301
 21
-84.5467993487
  0
LINE
  5
33D
100
AcDbEntity
  8
RACCORDO
100
AcDbLine
 62
7
  6
CONTINUOUS
 10
-49.2100000033
 20
81.2066473804
 11
-49.2100000033
 21
-84.5156844906
  0
LINE
  5
33E
100
AcDbEntity
  8
RACCORDO
100
AcDbLine
 62
7
  6
CONTINUOUS
 10
-49.195526258
 20
-84.6082592183
 11
-49.195526258
 21
81.2782871298
  0
LINE
  5
33F
100
AcDbEntity
  8
RACCORDO
100
AcDbLine
 62
7
  6
CONTINUOUS
 10
-48.825
 20
-85.0463886513
 11
-48.825
 21
-85.215
  0
LINE
  5
340
100
AcDbEntity
  8
RACCORDO
100
AcDbLine
 62
250
  6
CONTINUOUS
 10
-48.7955259605
 20
-85.0078939372
 11
-48.7955259609
 21
-85.0077721026
  0
LINE
  5
341
100
AcDbEntity
  8
RACCORDO
100
AcDbLine
 62
250
  6
CONTINUOUS
 10
-48.5492767722
 20
80.7427119061
 11
-48.5492767722
 21
-84.2857718111
  0
LINE
  5
342
100
AcDbEntity
  8
RACCORDO
100
AcDbLine
 62
7
  6
CONTINUOUS
 10
-49.2089487909
 20
81.239446671
 11
-49.2100000033
 21
81.2066473804
  0
LWPOLYLINE
  5
343
100
AcDbEntity
  8
RACCORDO
100
AcDbPolyline
 62
250
  6
CONTINUOUS
 90
19
 70
0
 10
-50.3561012378
 20
80.9880413397
 10
-50.3546846277
 20
81.0262848722
 10
-50.3503516364
 20
81.0643177854
 10
-50.3431245371
 20
81.10191663
 10
-50.3330427224
 20
81.1388631846
 10
-50.3201617954
 20
81.1749363113
 10
-50.3045558318
 20
81.2099141355
 10
-50.2863160424
 20
81.2435882394
 10
-50.2655494216
 20
81.2757627455
 10
-50.2423794162
 20
81.3062468235
 10
-50.2169423831
 20
81.334860678
 10
-50.1893872149
 20
81.3614356596
 10
-50.1598765332
 20
81.385814328
 10
-50.1285838799
 20
81.4078529527
 10
-50.0956933231
 20
81.4274215153
 10
-50.0613993025
 20
81.4444040794
 10
-50.0259040583
 20
81.4587004757
 10
-49.9894162898
 20
81.4702266387
 10
-49.9521508451
 20
81.4789146277
  0
LWPOLYLINE
  5
344
100
AcDbEntity
  8
RACCORDO
100
AcDbPolyline
 62
250
  6
CONTINUOUS
 90
19
 70
0
 10
-49.195039068
 20
81.2782871282
 10
-49.1938021575
 20
81.3089309463
 10
-49.1902211513
 20
81.339385875
 10
-49.1843182202
 20
81.3694732803
 10
-49.1761295848
 20
81.3990160659
 10
-49.1657040396
 20
81.4278418338
 10
-49.1531020119
 20
81.4557836675
 10
-49.1383973983
 20
81.4826781293
 10
-49.1216771965
 20
81.5083670054
 10
-49.1030391192
 20
81.5327000834
 10
-49.0825926996
 20
81.5555342254
 10
-49.060457963
 20
81.5767356758
 10
-49.0367637522
 20
81.596181031
 10
-49.0116482812
 20
81.6137559482
 10
-48.9852592528
 20
81.6293565472
 10
-48.9577519556
 20
81.6428911947
 10
-48.9292878147
 20
81.6542800599
 10
-48.9000334364
 20
81.6634555705
 10
-48.8701602876
 20
81.6703632581
  0
LWPOLYLINE
  5
345
100
AcDbEntity
  8
RACCORDO
100
AcDbPolyline
 62
250
  6
CONTINUOUS
 90
19
 70
0
 10
-48.5492767722
 20
80.7427119061
 10
-48.5479781649
 20
80.7733337166
 10
-48.5443373762
 20
80.8037751978
 10
-48.5383758464
 20
80.8338570823
 10
-48.5301286824
 20
80.8634022205
 10
-48.5196444513
 20
80.8922366234
 10
-48.5069848936
 20
80.9201904876
 10
-48.4922245605
 20
80.9470991952
 10
-48.4754503743
 20
80.972804283
 10
-48.4567611169
 20
80.9971543759
 10
-48.4362668478
 20
81.0200060781
 10
-48.414088256
 20
81.041224818
 10
-48.3903559493
 20
81.0606856402
 10
-48.3652096854
 20
81.0782739414
 10
-48.3387975485
 20
81.0938861455
 10
-48.3112750776
 20
81.1074303138
 10
-48.2828043501
 20
81.1188266856
 10
-48.2535530278
 20
81.1280081486
 10
-48.2236933693
 20
81.134920634
  0
LINE
  5
346
100
AcDbEntity
  8
RACCORDO
100
AcDbLine
 62
7
  6
CONTINUOUS
 10
12.8084747893
 20
-52.4910217028
 11
-12.8084747893
 21
-52.4910217028
  0
LINE
  5
347
100
AcDbEntity
  8
RACCORDO
100
AcDbLine
 62
250
  6
CONTINUOUS
 10
13.0076017143
 20
-49.4553124237
 11
-13.0076017143
 21
-49.4553124237
  0
LINE
  5
348
100
AcDbEntity
  8
RACCORDO
100
AcDbLine
 62
250
  6
CONTINUOUS
 10
13.0076017143
 20
-49.064878019
 11
-13.0076017143
 21
-49.064878019
  0
LINE
  5
349
100
AcDbEntity
  8
RACCORDO
100
AcDbLine
 62
250
  6
CONTINUOUS
 10
13.0076017143
 20
-48.365121981
 11
-13.0076017143
 21
-48.365121981
  0
LINE
  5
34A
100
AcDbEntity
  8
RACCORDO
100
AcDbLine
 62
250
  6
CONTINUOUS
 10
13.0076017143
 20
-47.9746875763
 11
-13.0076017143
 21
-47.9746875763
  0
LINE
  5
34B
100
AcDbEntity
  8
RACCORDO
100
AcDbLine
 62
250
  6
CONTINUOUS
 10
49.195039068
 20
-84.6082592183
 11
48.5492767722
 21
-84.2857718111
  0
LINE
  5
34C
100
AcDbEntity
  8
DRAFT
100
AcDbLine
 62
7
  6
CONTINUOUS
 10
12.4200717959
 20
-79.4350717959
 11
12.4
 21
-79.415
  0
LWPOLYLINE
  5
34D
100
AcDbEntity
  8
RACCORDO
100
AcDbPolyline
 62
7
  6
CONTINUOUS
 90
17
 70
0
 10
-41.0915852891
 20
-85.9325438635
 10
-41.0908223123
 20
-85.9498752991
 10
-41.0885532034
 20
-85.9671060045
 10
-41.0847871219
 20
-85.9841048198
 10
-41.0795413902
 20
-86.0007498749
 10
-41.072849924
 20
-86.0169029235
 10
-41.0647705913
 20
-86.0324134511
 10
-41.0553684157
 20
-86.0471564138
 10
-41.0447112912
 20
-86.0610255185
 10
-41.0328843815
 20
-86.0739105411
 10
-41.0199788887
 20
-86.0857128088
 10
-41.00609293
 20
-86.096343389
 10
-40.9913357301
 20
-86.105720478
 10
-40.9758150831
 20
-86.1137759306
 10
-40.9596542845
 20
-86.120446181
 10
-40.9429964979
 20
-86.1256766885
 10
-40.9372598341
 20
-86.1271166821
  0
LINE
  5
34E
100
AcDbEntity
  8
RACCORDO
100
AcDbLine
 62
250
  6
CONTINUOUS
 10
-43.5614565209
 20
-84.5360979711
 11
-43.5614565209
 21
81.2612684788
  0
LINE
  5
34F
100
AcDbEntity
  8
DRAFT
100
AcDbLine
 62
7
  6
CONTINUOUS
 10
-41.2
 20
-83.4449291517
 11
-41.2
 21
-79.415
  0
LINE
  5
350
100
AcDbEntity
  8
RACCORDO
100
AcDbLine
 62
7
  6
CONTINUOUS
 10
-41.1799282041
 20
-81.3372461452
 11
-41.1799282041
 21
-79.4350717959
  0
LINE
  5
351
100
AcDbEntity
  8
RACCORDO
100
AcDbLine
 62
7
  6
CONTINUOUS
 10
-41.0916284048
 20
-85.4812248803
 11
-41.0916717928
 21
-85.0463581903
  0
LINE
  5
352
100
AcDbEntity
  8
RACCORDO
100
AcDbLine
 62
7
  6
CONTINUOUS
 10
-41.0915852891
 20
-85.9323694682
 11
-41.0915852891
 21
-85.4812188694
  0
LINE
  5
353
100
AcDbEntity
  8
RACCORDO
100
AcDbLine
 62
7
  6
CONTINUOUS
 10
-40.9656870921
 20
-85.915102112
 11
-40.9656870921
 21
-85.015
  0
LWPOLYLINE
  5
354
100
AcDbEntity
  8
RACCORDO
100
AcDbPolyline
 62
250
  6
CONTINUOUS
 90
20
 70
0
 10
48.2236933693
 20
81.134920634
 10
48.2067222381
 20
81.1247300535
 10
48.1820088756
 20
81.1160605241
 10
48.1495539543
 20
81.1089100866
 10
48.1093076458
 20
81.1032583308
 10
48.0613207555
 20
81.0991198912
 10
48.0057446759
 20
81.0965445286
 10
47.9425140681
 20
81.0955415417
 10
47.8716943807
 20
81.0960923711
 10
47.7936328954
 20
81.098204431
 10
47.7082769391
 20
81.1018843199
 10
47.6156783979
 20
81.1071132899
 10
47.5163411098
 20
81.1138606596
 10
47.4102507057
 20
81.122126757
 10
47.2974199308
 20
81.1318970687
 10
47.1783930672
 20
81.1431190606
 10
47.0531461523
 20
81.1557910478
 10
46.9217008069
 20
81.1698992014
 10
46.7846695355
 20
81.1853736344
 10
46.6420151242
 20
81.2022139817
  0
LWPOLYLINE
  5
355
100
AcDbEntity
  8
RACCORDO
100
AcDbPolyline
 62
250
  6
CONTINUOUS
 90
20
 70
0
 10
48.5492767722
 20
80.7427119061
 10
48.5308237608
 20
80.7325155109
 10
48.5039730541
 20
80.7238356872
 10
48.4687126146
 20
80.716672435
 10
48.4250336628
 20
80.7110125687
 10
48.3729611698
 20
80.7068692739
 10
48.3125737009
 20
80.7042821077
 10
48.2439336717
 20
80.7032653144
 10
48.1671234357
 20
80.7038046497
 10
48.0823113484
 20
80.7058969387
 10
47.9896351118
 20
80.7095556809
 10
47.8892310105
 20
80.7147673768
 10
47.7813190285
 20
80.7214883523
 10
47.6661139558
 20
80.7297264413
 10
47.5437840024
 20
80.7394738101
 10
47.4145063209
 20
80.750663283
 10
47.2785016223
 20
80.7633009169
 10
47.135993584
 20
80.777380655
 10
46.9871705957
 20
80.7928171518
 10
46.832267432
 20
80.8096175565
  0
LINE
  5
356
100
AcDbEntity
  8
RACCORDO
100
AcDbLine
 62
7
  6
CONTINUOUS
 10
-12.8076321752
 20
-46.6573982857
 11
12.8076321752
 21
-46.6573982857
  0
LINE
  5
357
100
AcDbEntity
  8
RACCORDO
100
AcDbLine
 62
250
  6
CONTINUOUS
 10
-12.9490791277
 20
-46.5159513332
 11
12.9490791277
 21
-46.5159513332
  0
LINE
  5
358
100
AcDbEntity
  8
DRAFT
100
AcDbLine
 62
7
  6
CONTINUOUS
 10
-13.0299282041
 20
-46.4350717959
 11
13.0299282041
 21
-46.4350717959
  0
LINE
  5
359
100
AcDbEntity
  8
DRAFT
100
AcDbLine
 62
7
  6
CONTINUOUS
 10
-13.05
 20
-46.415
 11
13.05
 21
-46.415
  0
LWPOLYLINE
  5
35A
100
AcDbEntity
  8
RACCORDO
100
AcDbPolyline
 62
250
  6
CONTINUOUS
 90
7
 70
0
 10
12.9490791236
 20
-46.5159513374
 10
12.9641814263
 20
-46.5165174838
 10
12.9790528856
 20
-46.5182001674
 10
12.993613991
 20
-46.5209575375
 10
13.0077352946
 20
-46.5247256393
 10
13.0214071441
 20
-46.5294622971
 10
13.0299282041
 20
-46.5331251626
  0
LINE
  5
35B
100
AcDbEntity
  8
RACCORDO
100
AcDbLine
 62
250
  6
CONTINUOUS
 10
-13.0076017143
 20
-46.8573678248
 11
-13.0299282041
 21
-46.835041335
  0
LINE
  5
35C
100
AcDbEntity
  8
RACCORDO
100
AcDbLine
 62
250
  6
CONTINUOUS
 10
-12.8076321752
 20
-46.6573982857
 11
-12.9490791277
 21
-46.5159513332
  0
LINE
  5
35D
100
AcDbEntity
  8
DRAFT
100
AcDbLine
 62
7
  6
CONTINUOUS
 10
-13.0299282041
 20
-46.4350717959
 11
-13.05
 21
-46.415
  0
LINE
  5
35E
100
AcDbEntity
  8
ASSI
100
AcDbLine
 62
7
  6
CONTINUOUS
 10
-39.2201930188
 20
-81.503344261
 11
-39.2
 21
-83.4449291517
  0
LINE
  5
35F
100
AcDbEntity
  8
RACCORDO
100
AcDbLine
 62
7
  6
CONTINUOUS
 10
-39.2200717959
 20
-79.4350717959
 11
-39.2200717959
 21
-81.3372461452
  0
LINE
  5
360
100
AcDbEntity
  8
DRAFT
100
AcDbLine
 62
7
  6
CONTINUOUS
 10
-39.2
 20
-79.415
 11
-39.2
 21
-83.4449291517
  0
LINE
  5
361
100
AcDbEntity
  8
RACCORDO
100
AcDbLine
 62
7
  6
CONTINUOUS
 10
-38.1636258157
 20
-85.915057052
 11
-38.1636258157
 21
-85.0078939372
  0
LINE
  5
362
100
AcDbEntity
  8
RACCORDO
100
AcDbLine
 62
7
  6
CONTINUOUS
 10
-37.9355808788
 20
-86.1686761989
 11
-37.9355806996
 21
-85.0078939372
  0
LINE
  5
363
100
AcDbEntity
  8
RACCORDO
100
AcDbLine
 62
7
  6
CONTINUOUS
 10
-37.927236398
 20
-86.615
 11
-37.927236398
 21
-86.1706079406
  0
LINE
  5
364
100
AcDbEntity
  8
RACCORDO
100
AcDbLine
 62
250
  6
CONTINUOUS
 10
-37.8383999674
 20
-85.0078939372
 11
-37.8383999674
 21
-86.1686761989
  0
LINE
  5
365
100
AcDbEntity
  8
RACCORDO
100
AcDbLine
 62
250
  6
CONTINUOUS
 10
-37.6531273518
 20
-86.615
 11
-37.6531273518
 21
-86.1689868125
  0
LINE
  5
366
100
AcDbEntity
  8
RACCORDO
100
AcDbLine
 62
250
  6
CONTINUOUS
 10
-37.3384761198
 20
-85.0078939372
 11
-37.3384761198
 21
-86.615
  0
LINE
  5
367
100
AcDbEntity
  8
RACCORDO
100
AcDbLine
 62
250
  6
CONTINUOUS
 10
-37.2991927843
 20
-86.615
 11
-37.2991927843
 21
-85.0078939372
  0
LINE
  5
368
100
AcDbEntity
  8
RACCORDO
100
AcDbLine
 62
250
  6
CONTINUOUS
 10
-37.2127304891
 20
-86.615
 11
-37.2127304891
 21
-85.0078939372
  0
LINE
  5
369
100
AcDbEntity
  8
RACCORDO
100
AcDbLine
 62
250
  6
CONTINUOUS
 10
-34.931841477
 20
-85.0078939372
 11
-34.931841477
 21
-86.615
  0
LINE
  5
36A
100
AcDbEntity
  8
RACCORDO
100
AcDbLine
 62
250
  6
CONTINUOUS
 10
-34.8257356899
 20
-85.0078939372
 11
-34.8257356899
 21
-86.615
  0
LINE
  5
36B
100
AcDbEntity
  8
RACCORDO
100
AcDbLine
 62
250
  6
CONTINUOUS
 10
-34.3258118423
 20
-85.0078939372
 11
-34.3258118423
 21
-86.815
  0
LINE
  5
36C
100
AcDbEntity
  8
ASSI
100
AcDbLine
 62
7
  6
CONTINUOUS
 10
-41.2
 20
-83.4449291517
 11
-41.1798069812
 21
-81.503344261
  0
LWPOLYLINE
  5
36D
100
AcDbEntity
  8
0
100
AcDbPolyline
 62
7
  6
CONTINUOUS
 90
34
 70
0
 10
-37.9355808788
 20
-85.9687332509
 10
-37.9358407242
 20
-85.9793733721
 10
-37.936617917
 20
-85.9899265532
 10
-37.9378995745
 20
-86.0003641925
 10
-37.9396765334
 20
-86.0106934939
 10
-37.9419317618
 20
-86.0208530308
 10
-37.944622907
 20
-86.0307170273
 10
-37.9476982565
 20
-86.0402147905
 10
-37.951138849
 20
-86.0493854155
 10
-37.9549442605
 20
-86.0582722223
 10
-37.9590943105
 20
-86.0668668167
 10
-37.9635616119
 20
-86.0751506394
 10
-37.9683486144
 20
-86.0831477504
 10
-37.9734490157
 20
-86.0908639721
 10
-37.9788319605
 20
-86.0982681424
 10
-37.9844651183
 20
-86.1053298396
 10
-37.9903107548
 20
-86.1120258399
 10
-37.9963602831
 20
-86.1183691194
 10
-38.0026266759
 20
-86.1243835391
 10
-38.0090908233
 20
-86.1300604868
 10
-38.0157357667
 20
-86.1353953824
 10
-38.0225856337
 20
-86.1404097663
 10
-38.0296315499
 20
-86.1450969048
 10
-38.0368530923
 20
-86.1494434689
 10
-38.0442622086
 20
-86.1534530306
 10
-38.0518373967
 20
-86.1571103863
 10
-38.0595705918
 20
-86.1604083521
 10
-38.0674973715
 20
-86.1633526804
 10
-38.0756059975
 20
-86.1659266494
 10
-38.0838783878
 20
-86.1681122406
 10
-38.0923427045
 20
-86.1699002869
 10
-38.1009966679
 20
-86.1712697979
 10
-38.1098059317
 20
-86.172195296
 10
-38.1187490605
 20
-86.172655111
  0
LINE
  5
36E
100
AcDbEntity
  8
0
100
AcDbLine
 62
7
  6
CONTINUOUS
 10
-9.344810896
 20
44.7765563084
 11
-9.341320149
 21
44.7800470557
  0
LINE
  5
36F
100
AcDbEntity
  8
DRAFT
100
AcDbLine
 62
7
  6
CONTINUOUS
 10
25.8200717959
 20
-79.4350717959
 11
25.8
 21
-79.415
  0
LWPOLYLINE
  5
370
100
AcDbEntity
  8
RACCORDO
100
AcDbPolyline
 62
250
  6
CONTINUOUS
 90
19
 70
0
 10
-26.3468726482
 20
-86.615
 10
-26.3465906453
 20
-86.632431014
 10
-26.345746782
 20
-86.6497293802
 10
-26.3443474794
 20
-86.6667634491
 10
-26.3424033871
 20
-86.683403575
 10
-26.3399292989
 20
-86.6995231247
 10
-26.3369440386
 20
-86.7149994393
 10
-26.3334703194
 20
-86.7297147449
 10
-26.3295345781
 20
-86.7435570296
 10
-26.3251667721
 20
-86.7564209219
 10
-26.3204001453
 20
-86.7682085112
 10
-26.3152709719
 20
-86.7788300927
 10
-26.3098182857
 20
-86.7882048305
 10
-26.3040835823
 20
-86.7962613762
 10
-26.2981105079
 20
-86.802938407
 10
-26.291944526
 20
-86.8081850992
 10
-26.2856325654
 20
-86.8119615208
 10
-26.2792226628
 20
-86.8142389321
 10
-26.272763602
 20
-86.815
  0
LINE
  5
371
100
AcDbEntity
  8
ASSI
100
AcDbLine
 62
7
  6
CONTINUOUS
 10
-25.8201930188
 20
-81.503344261
 11
-25.8
 21
-83.4449291517
  0
LINE
  5
372
100
AcDbEntity
  8
RACCORDO
100
AcDbLine
 62
250
  6
CONTINUOUS
 10
-29.6741881577
 20
-86.815
 11
-29.6741881577
 21
-85.0078939372
  0
LINE
  5
373
100
AcDbEntity
  8
RACCORDO
100
AcDbLine
 62
250
  6
CONTINUOUS
 10
-29.1742643101
 20
-86.615
 11
-29.1742643101
 21
-85.0078939372
  0
LINE
  5
374
100
AcDbEntity
  8
RACCORDO
100
AcDbLine
 62
250
  6
CONTINUOUS
 10
-29.068158523
 20
-85.0078939372
 11
-29.068158523
 21
-86.615
  0
LINE
  5
375
100
AcDbEntity
  8
DRAFT
100
AcDbLine
 62
7
  6
CONTINUOUS
 10
-27.8
 20
-83.4449291517
 11
-27.8
 21
-79.415
  0
LINE
  5
376
100
AcDbEntity
  8
RACCORDO
100
AcDbLine
 62
7
  6
CONTINUOUS
 10
-27.7799282041
 20
-81.3372461452
 11
-27.7799282041
 21
-79.4350717959
  0
LINE
  5
377
100
AcDbEntity
  8
RACCORDO
100
AcDbLine
 62
250
  6
CONTINUOUS
 10
-27.5385059156
 20
-79.915
 11
-27.5385059156
 21
-79.4350717959
  0
LINE
  5
378
100
AcDbEntity
  8
RACCORDO
100
AcDbLine
 62
250
  6
CONTINUOUS
 10
-26.7872695109
 20
-85.0078939372
 11
-26.7872695109
 21
-86.615
  0
LINE
  5
379
100
AcDbEntity
  8
RACCORDO
100
AcDbLine
 62
250
  6
CONTINUOUS
 10
-26.7008072157
 20
-86.615
 11
-26.7008072157
 21
-85.0078939372
  0
LINE
  5
37A
100
AcDbEntity
  8
RACCORDO
100
AcDbLine
 62
250
  6
CONTINUOUS
 10
-26.6615238802
 20
-86.615
 11
-26.6615238802
 21
-85.0078939372
  0
LINE
  5
37B
100
AcDbEntity
  8
ASSI
100
AcDbLine
 62
7
  6
CONTINUOUS
 10
-27.8
 20
-83.4449291517
 11
-27.7798069812
 21
-81.503344261
  0
LWPOLYLINE
  5
37C
100
AcDbEntity
  8
RACCORDO
100
AcDbPolyline
 62
250
  6
CONTINUOUS
 90
3
 70
0
 10
49.195039068
 20
81.2782871282
 10
49.1273541928
 20
81.2221979416
 10
48.5492767722
 20
80.7427119061
  0
LWPOLYLINE
  5
37D
100
AcDbEntity
  8
RACCORDO
100
AcDbPolyline
 62
250
  6
CONTINUOUS
 90
3
 70
0
 10
48.8701602876
 20
81.6703632581
 10
48.802403077
 20
81.6142870878
 10
48.2236933693
 20
81.134920634
  0
LINE
  5
37E
100
AcDbEntity
  8
0
100
AcDbLine
 62
7
  6
CONTINUOUS
 10
17.726606597
 20
46.290932023
 11
17.7198234056
 21
46.2874412759
  0
LINE
  5
37F
100
AcDbEntity
  8
0
100
AcDbLine
 62
7
  6
CONTINUOUS
 10
11.5821036858
 20
40.344234013
 11
11.58888686
 21
40.3477247601
  0
LINE
  5
380
100
AcDbEntity
  8
DRAFT
100
AcDbLine
 62
7
  6
CONTINUOUS
 10
13.0299282041
 20
-54.5949282041
 11
13.0322886568
 21
-54.5972886568
  0
LINE
  5
381
100
AcDbEntity
  8
DRAFT
100
AcDbLine
 62
7
  6
CONTINUOUS
 10
39.2200717959
 20
-79.4350717959
 11
39.2
 21
-79.415
  0
LINE
  5
382
100
AcDbEntity
  8
RACCORDO
100
AcDbLine
 62
250
  6
CONTINUOUS
 10
-48.8702508171
 20
81.6708419631
 11
-48.8701602876
 21
81.6703632581
  0
LINE
  5
383
100
AcDbEntity
  8
RACCORDO
100
AcDbLine
 62
250
  6
CONTINUOUS
 10
-43.5614565209
 20
81.2612684788
 11
-43.628816622
 21
81.6545674266
  0
LINE
  5
384
100
AcDbEntity
  8
RACCORDO
100
AcDbLine
 62
250
  6
CONTINUOUS
 10
-26.3468726482
 20
-85.0078939372
 11
-26.3468726482
 21
-86.615
  0
LINE
  5
385
100
AcDbEntity
  8
RACCORDO
100
AcDbLine
 62
7
  6
CONTINUOUS
 10
-26.0729009261
 20
-85.0078939372
 11
-26.072763602
 21
-86.615
  0
LINE
  5
386
100
AcDbEntity
  8
RACCORDO
100
AcDbLine
 62
7
  6
CONTINUOUS
 10
-25.8363741843
 20
-86.115
 11
-25.8363741843
 21
-85.0078939372
  0
LINE
  5
387
100
AcDbEntity
  8
RACCORDO
100
AcDbLine
 62
7
  6
CONTINUOUS
 10
-25.8200717959
 20
-79.4350717959
 11
-25.8200717959
 21
-81.3372461452
  0
LINE
  5
388
100
AcDbEntity
  8
DRAFT
100
AcDbLine
 62
7
  6
CONTINUOUS
 10
-25.8
 20
-79.415
 11
-25.8
 21
-83.4449291517
  0
LINE
  5
389
100
AcDbEntity
  8
RACCORDO
100
AcDbLine
 62
7
  6
CONTINUOUS
 10
-23.0343129079
 20
-85.915102112
 11
-23.0343129079
 21
-85.015
  0
LINE
  5
38A
100
AcDbEntity
  8
RACCORDO
100
AcDbLine
 62
7
  6
CONTINUOUS
 10
-22.9083282072
 20
-85.0463581903
 11
-22.9084147109
 21
-85.9323694682
  0
LWPOLYLINE
  5
38B
100
AcDbEntity
  8
RACCORDO
100
AcDbPolyline
 62
7
  6
CONTINUOUS
 90
16
 70
0
 10
-27.5000089449
 20
-79.9149420514
 10
-27.5005600609
 20
-79.9254891793
 10
-27.5021686384
 20
-79.9357468832
 10
-27.5048346775
 20
-79.9457151631
 10
-27.5086326643
 20
-79.9555307537
 10
-27.5134881127
 20
-79.9650569202
 10
-27.5191775644
 20
-79.9738834591
 10
-27.5256709358
 20
-79.9819180996
 10
-27.5329983105
 20
-79.9892531123
 10
-27.5410264812
 20
-79.9957551054
 10
-27.5498455108
 20
-80.0014539431
 10
-27.5593653363
 20
-80.0063197611
 10
-27.5691825609
 20
-80.0101295743
 10
-27.5791627191
 20
-80.0128090543
 10
-27.5894402764
 20
-80.0144325295
 10
-27.6000152328
 20
-80.015
  0
LINE
  5
38C
100
AcDbEntity
  8
0
100
AcDbLine
 62
7
  6
CONTINUOUS
 10
-3.1026249967
 20
44.7765564696
 11
-3.1008075183
 21
44.7800472167
  0
LINE
  5
38D
100
AcDbEntity
  8
0
100
AcDbLine
 62
7
  6
CONTINUOUS
 10
-2.3141573349
 20
46.2909315397
 11
-2.3159748094
 21
46.2874407926
  0
LINE
  5
38E
100
AcDbEntity
  8
0
100
AcDbLine
 62
7
  6
CONTINUOUS
 10
2.314157175
 20
46.2909316745
 11
0.0
 21
42.985
  0
LINE
  5
38F
100
AcDbEntity
  8
0
100
AcDbLine
 62
7
  6
CONTINUOUS
 10
-0.000003732
 20
40.3442336992
 11
3.1026211039
 21
44.7765566297
  0
LINE
  5
390
100
AcDbEntity
  8
0
100
AcDbLine
 62
7
  6
CONTINUOUS
 10
5.3372472794
 20
41.830908787
 11
5.3337565324
 21
41.8274180398
  0
LINE
  5
391
100
AcDbEntity
  8
0
100
AcDbLine
 62
7
  6
CONTINUOUS
 10
9.1047211585
 20
42.6804387843
 11
9.1082119055
 21
42.6839295315
  0
LINE
  5
392
100
AcDbEntity
  8
ASSI
100
AcDbLine
 62
7
  6
CONTINUOUS
 10
-12.4201930188
 20
-81.503344261
 11
-12.4
 21
-83.4449291517
  0
LINE
  5
393
100
AcDbEntity
  8
0
100
AcDbLine
 62
7
  6
CONTINUOUS
 10
-17.4153278086
 20
46.290931233
 11
-17.4153278086
 21
40.344233344
  0
LINE
  5
394
100
AcDbEntity
  8
0
100
AcDbLine
 62
7
  6
CONTINUOUS
 10
-15.0514228296
 20
41.858609375
 11
-15.0514228296
 21
42.560393336
  0
LINE
  5
395
100
AcDbEntity
  8
0
100
AcDbLine
 62
7
  6
CONTINUOUS
 10
-15.0514228866
 20
44.074774086
 11
-15.0514228866
 21
44.776556214
  0
LINE
  5
396
100
AcDbEntity
  8
DRAFT
100
AcDbLine
 62
7
  6
CONTINUOUS
 10
-14.4
 20
-83.4449291517
 11
-14.4
 21
-79.415
  0
LINE
  5
397
100
AcDbEntity
  8
RACCORDO
100
AcDbLine
 62
7
  6
CONTINUOUS
 10
-14.3799282041
 20
-81.3372461452
 11
-14.3799282041
 21
-79.4350717959
  0
LINE
  5
398
100
AcDbEntity
  8
DRAFT
100
AcDbLine
 62
7
  6
CONTINUOUS
 10
-13.05
 20
-55.815
 11
-13.05
 21
-46.415
  0
LINE
  5
399
100
AcDbEntity
  8
DRAFT
100
AcDbLine
 62
7
  6
CONTINUOUS
 10
-13.0299282041
 20
-54.5949282041
 11
-13.0299282041
 21
-46.4350717959
  0
LINE
  5
39A
100
AcDbEntity
  8
RACCORDO
100
AcDbLine
 62
7
  6
CONTINUOUS
 10
-13.0076017143
 20
-52.2849017384
 11
-13.0076017143
 21
-46.8573678248
  0
LINE
  5
39B
100
AcDbEntity
  8
RACCORDO
100
AcDbLine
 62
250
  6
CONTINUOUS
 10
-12.9490791277
 20
-46.4350717959
 11
-12.9490791277
 21
-46.5159513332
  0
LINE
  5
39C
100
AcDbEntity
  8
ASSI
100
AcDbLine
 62
7
  6
CONTINUOUS
 10
-14.4
 20
-83.4449291517
 11
-14.3798069812
 21
-81.503344261
  0
LWPOLYLINE
  5
39D
100
AcDbEntity
  8
RACCORDO
100
AcDbPolyline
 62
7
  6
CONTINUOUS
 90
17
 70
0
 10
-22.9084147109
 20
-85.9323694682
 10
-22.909165688
 20
-85.949738172
 10
-22.9114276894
 20
-85.9669976113
 10
-22.9151892027
 20
-85.9840163159
 10
-22.9204285331
 20
-86.0006672133
 10
-22.9271105412
 20
-86.0168182729
 10
-22.9351839278
 20
-86.0323347034
 10
-22.9445919518
 20
-86.0470998267
 10
-22.9552633974
 20
-86.0609954932
 10
-22.9671025038
 20
-86.0738974495
 10
-22.9800086199
 20
-86.0857023053
 10
-22.9938879744
 20
-86.0963301333
 10
-23.0086400688
 20
-86.105706542
 10
-23.0241611598
 20
-86.1137648378
 10
-23.0403246101
 20
-86.1204385927
 10
-23.0569864073
 20
-86.1256721278
 10
-23.0627402498
 20
-86.1271166256
  0
LINE
  5
39E
100
AcDbEntity
  8
0
100
AcDbLine
 62
7
  6
CONTINUOUS
 10
15.8297454319
 20
46.290932023
 11
14.6543570071
 21
44.6453866185
  0
LINE
  5
39F
100
AcDbEntity
  8
0
100
AcDbLine
 62
7
  6
CONTINUOUS
 10
13.7059226412
 20
43.3175867929
 11
11.5821036858
 21
40.344234013
  0
LINE
  5
3A0
100
AcDbEntity
  8
0
100
AcDbLine
 62
7
  6
CONTINUOUS
 10
13.7102124319
 20
43.3175867956
 11
11.58888686
 21
40.3477247601
  0
LINE
  5
3A1
100
AcDbEntity
  8
DRAFT
100
AcDbLine
 62
7
  6
CONTINUOUS
 10
0.4852457535
 20
-85.0463581903
 11
0.4967323412
 21
-85.1776504888
  0
LINE
  5
3A2
100
AcDbEntity
  8
RACCORDO
100
AcDbLine
 62
7
  6
CONTINUOUS
 10
-12.4200717959
 20
-79.4350717959
 11
-12.4200717959
 21
-81.3372461452
  0
LINE
  5
3A3
100
AcDbEntity
  8
DRAFT
100
AcDbLine
 62
7
  6
CONTINUOUS
 10
-12.4
 20
-79.415
 11
-12.4
 21
-83.4449291517
  0
LINE
  5
3A4
100
AcDbEntity
  8
0
100
AcDbLine
 62
7
  6
CONTINUOUS
 10
-12.3181579076
 20
42.560393336
 11
-12.3181579076
 21
44.074774086
  0
LINE
  5
3A5
100
AcDbEntity
  8
0
100
AcDbLine
 62
7
  6
CONTINUOUS
 10
-10.1943408156
 20
44.776556214
 11
-10.1943408156
 21
46.290931233
  0
LINE
  5
3A6
100
AcDbEntity
  8
0
100
AcDbLine
 62
7
  6
CONTINUOUS
 10
-9.3448108006
 20
40.344233344
 11
-9.3448108006
 21
41.858609375
  0
LINE
  5
3A7
100
AcDbEntity
  8
0
100
AcDbLine
 62
7
  6
CONTINUOUS
 10
-9.3448109351
 20
46.2909313583
 11
-9.344810896
 21
44.7765563084
  0
LINE
  5
3A8
100
AcDbEntity
  8
0
100
AcDbLine
 62
7
  6
CONTINUOUS
 10
-9.3413201879
 20
46.2874406112
 11
-9.341320149
 21
44.7800470557
  0
LINE
  5
3A9
100
AcDbEntity
  8
0
100
AcDbLine
 62
7
  6
CONTINUOUS
 10
-8.4952847286
 20
43.98243139
 11
-8.4952847286
 21
40.344233553
  0
LINE
  5
3AA
100
AcDbEntity
  8
0
100
AcDbLine
 62
7
  6
CONTINUOUS
 10
-6.9809049476
 20
41.858609572
 11
-6.9809049476
 21
43.98243139
  0
LINE
  5
3AB
100
AcDbEntity
  8
DRAFT
100
AcDbLine
 62
7
  6
CONTINUOUS
 10
-13.05
 20
-55.815
 11
-13.0322886568
 21
-54.5972886568
  0
LINE
  5
3AC
100
AcDbEntity
  8
RACCORDO
100
AcDbLine
 62
250
  6
CONTINUOUS
 10
-13.0076017143
 20
-52.2849017384
 11
-13.0299282041
 21
-52.6276311949
  0
LINE
  5
3AD
100
AcDbEntity
  8
RACCORDO
100
AcDbLine
 62
250
  6
CONTINUOUS
 10
-12.8084747893
 20
-52.4910217028
 11
-12.9455299685
 21
-54.5949282041
  0
LINE
  5
3AE
100
AcDbEntity
  8
RACCORDO
100
AcDbLine
 62
250
  6
CONTINUOUS
 10
-27.5000457472
 20
-79.915
 11
-27.4042941649
 21
-79.4350717959
  0
LINE
  5
3AF
100
AcDbEntity
  8
RACCORDO
100
AcDbLine
 62
250
  6
CONTINUOUS
 10
-27.4001368981
 20
-80.015
 11
-27.2844340853
 21
-79.4350717959
  0
LINE
  5
3B0
100
AcDbEntity
  8
0
100
AcDbLine
 62
7
  6
CONTINUOUS
 10
13.4789723326
 20
46.290931913
 11
13.4771759274
 21
46.2874411659
  0
LINE
  5
3B1
100
AcDbEntity
  8
0
100
AcDbLine
 62
7
  6
CONTINUOUS
 10
15.5984940481
 20
43.3175868453
 11
17.7198234056
 21
46.2874412759
  0
LINE
  5
3B2
100
AcDbEntity
  8
0
100
AcDbLine
 62
7
  6
CONTINUOUS
 10
13.4789686509
 20
40.344234013
 11
14.6543608757
 21
41.9897765675
  0
LINE
  5
3B3
100
AcDbEntity
  8
0
100
AcDbLine
 62
7
  6
CONTINUOUS
 10
15.6027838413
 20
43.3175868428
 11
17.726606597
 21
46.290932023
  0
LINE
  5
3B4
100
AcDbEntity
  8
ASSI
100
AcDbLine
 62
7
  6
CONTINUOUS
 10
0.9798069812
 20
-81.503344261
 11
1.0
 21
-83.4449291517
  0
LINE
  5
3B5
100
AcDbEntity
  8
0
100
AcDbLine
 62
7
  6
CONTINUOUS
 10
-2.1238228006
 20
40.344233553
 11
-2.1238228006
 21
41.858609572
  0
LINE
  5
3B6
100
AcDbEntity
  8
RACCORDO
100
AcDbLine
 62
7
  6
CONTINUOUS
 10
-1.54
 20
-73.315
 11
-1.54
 21
-74.1657980844
  0
LINE
  5
3B7
100
AcDbEntity
  8
RACCORDO
100
AcDbLine
 62
7
  6
CONTINUOUS
 10
-1.54
 20
-74.5699188363
 11
-1.54
 21
-74.8022016422
  0
LINE
  5
3B8
100
AcDbEntity
  8
0
100
AcDbLine
 62
7
  6
CONTINUOUS
 10
-1.18
 20
-73.315
 11
-1.18
 21
-74.0946968142
  0
LINE
  5
3B9
100
AcDbEntity
  8
0
100
AcDbLine
 62
7
  6
CONTINUOUS
 10
-1.18
 20
-74.4964084115
 11
-1.18
 21
-75.2129831309
  0
LINE
  5
3BA
100
AcDbEntity
  8
DRAFT
100
AcDbLine
 62
7
  6
CONTINUOUS
 10
-1.0
 20
-83.4449291517
 11
-1.0
 21
-79.415
  0
LINE
  5
3BB
100
AcDbEntity
  8
RACCORDO
100
AcDbLine
 62
7
  6
CONTINUOUS
 10
-0.9799282041
 20
-81.3372461452
 11
-0.9799282041
 21
-79.4350717959
  0
LINE
  5
3BC
100
AcDbEntity
  8
0
100
AcDbLine
 62
7
  6
CONTINUOUS
 10
-0.000003732
 20
40.3442336992
 11
-0.0000037304
 21
40.3503208457
  0
LINE
  5
3BD
100
AcDbEntity
  8
RACCORDO
100
AcDbLine
 62
7
  6
CONTINUOUS
 10
-0.0
 20
85.4556876926
 11
-0.0
 21
86.8000353613
  0
LINE
  5
3BE
100
AcDbEntity
  8
0
100
AcDbLine
 62
7
  6
CONTINUOUS
 10
0.0
 20
42.985
 11
0.0000000002
 21
42.9789128664
  0
LINE
  5
3BF
100
AcDbEntity
  8
ASSI
100
AcDbLine
 62
7
  6
CONTINUOUS
 10
-1.0
 20
-83.4449291517
 11
-0.9798069812
 21
-81.503344261
  0
LINE
  5
3C0
100
AcDbEntity
  8
0
100
AcDbLine
 62
7
  6
CONTINUOUS
 10
15.8297417502
 20
40.344234123
 11
15.8315381569
 21
40.3477248701
  0
LINE
  5
3C1
100
AcDbEntity
  8
RACCORDO
100
AcDbLine
 62
7
  6
CONTINUOUS
 10
0.9799282041
 20
-81.3372461452
 11
0.9799282041
 21
-79.4350717959
  0
LINE
  5
3C2
100
AcDbEntity
  8
DRAFT
100
AcDbLine
 62
7
  6
CONTINUOUS
 10
1.0
 20
-79.415
 11
1.0
 21
-83.4449291517
  0
LINE
  5
3C3
100
AcDbEntity
  8
0
100
AcDbLine
 62
7
  6
CONTINUOUS
 10
1.18
 20
-73.315
 11
1.18
 21
-73.7146026516
  0
LINE
  5
3C4
100
AcDbEntity
  8
0
100
AcDbLine
 62
7
  6
CONTINUOUS
 10
1.18
 20
-74.1162098509
 11
1.18
 21
-75.2129831309
  0
LINE
  5
3C5
100
AcDbEntity
  8
RACCORDO
100
AcDbLine
 62
7
  6
CONTINUOUS
 10
1.54
 20
-73.315
 11
1.54
 21
-73.6410092017
  0
LINE
  5
3C6
100
AcDbEntity
  8
RACCORDO
100
AcDbLine
 62
7
  6
CONTINUOUS
 10
1.54
 20
-74.0452014114
 11
1.54
 21
-74.8022016422
  0
LINE
  5
3C7
100
AcDbEntity
  8
0
100
AcDbLine
 62
7
  6
CONTINUOUS
 10
3.8228722214
 20
43.982431776
 11
3.8228722214
 21
40.344233876
  0
LINE
  5
3C8
100
AcDbEntity
  8
0
100
AcDbLine
 62
7
  6
CONTINUOUS
 10
5.3372472794
 20
41.830908787
 11
5.3372472575
 21
42.680438687
  0
LINE
  5
3C9
100
AcDbEntity
  8
DRAFT
100
AcDbLine
 62
7
  6
CONTINUOUS
 10
-0.4967323412
 20
-85.1776504888
 11
-0.4852457535
 21
-85.0463581903
  0
LINE
  5
3CA
100
AcDbEntity
  8
RACCORDO
100
AcDbLine
 62
250
  6
CONTINUOUS
 10
12.8084747893
 20
-52.4910217028
 11
12.9455299685
 21
-54.5949282041
  0
LINE
  5
3CB
100
AcDbEntity
  8
RACCORDO
100
AcDbLine
 62
250
  6
CONTINUOUS
 10
13.0076017143
 20
-52.2849017384
 11
13.0299282041
 21
-52.6276311949
  0
LINE
  5
3CC
100
AcDbEntity
  8
DRAFT
100
AcDbLine
 62
7
  6
CONTINUOUS
 10
13.0322886568
 20
-54.5972886568
 11
13.05
 21
-55.815
  0
LINE
  5
3CD
100
AcDbEntity
  8
ASSI
100
AcDbLine
 62
7
  6
CONTINUOUS
 10
14.3798069812
 20
-81.503344261
 11
14.4
 21
-83.4449291517
  0
LINE
  5
3CE
100
AcDbEntity
  8
0
100
AcDbLine
 62
7
  6
CONTINUOUS
 10
9.1047211585
 20
42.6804387843
 11
9.1047211804
 21
41.8309088843
  0
LINE
  5
3CF
100
AcDbEntity
  8
0
100
AcDbLine
 62
7
  6
CONTINUOUS
 10
10.6190962214
 20
40.344233876
 11
10.6190962214
 21
43.982431776
  0
LINE
  5
3D0
100
AcDbEntity
  8
DRAFT
100
AcDbLine
 62
7
  6
CONTINUOUS
 10
12.4
 20
-83.4449291517
 11
12.4
 21
-79.415
  0
LINE
  5
3D1
100
AcDbEntity
  8
RACCORDO
100
AcDbLine
 62
7
  6
CONTINUOUS
 10
12.4200717959
 20
-81.3372461452
 11
12.4200717959
 21
-79.4350717959
  0
LINE
  5
3D2
100
AcDbEntity
  8
RACCORDO
100
AcDbLine
 62
250
  6
CONTINUOUS
 10
12.9490791275
 20
-46.4350717959
 11
12.9490791277
 21
-46.5159513332
  0
LINE
  5
3D3
100
AcDbEntity
  8
RACCORDO
100
AcDbLine
 62
7
  6
CONTINUOUS
 10
13.0076017143
 20
-46.8573678248
 11
13.0076017143
 21
-52.2849017384
  0
LINE
  5
3D4
100
AcDbEntity
  8
DRAFT
100
AcDbLine
 62
7
  6
CONTINUOUS
 10
13.0299282041
 20
-46.4350717959
 11
13.0299282041
 21
-54.5949282041
  0
LINE
  5
3D5
100
AcDbEntity
  8
DRAFT
100
AcDbLine
 62
7
  6
CONTINUOUS
 10
13.05
 20
-46.415
 11
13.05
 21
-55.815
  0
LINE
  5
3D6
100
AcDbEntity
  8
RACCORDO
100
AcDbLine
 62
7
  6
CONTINUOUS
 10
14.3799282041
 20
-79.4350717959
 11
14.3799282041
 21
-81.3372461452
  0
LINE
  5
3D7
100
AcDbEntity
  8
DRAFT
100
AcDbLine
 62
7
  6
CONTINUOUS
 10
14.4
 20
-79.415
 11
14.4
 21
-83.4449291517
  0
LINE
  5
3D8
100
AcDbEntity
  8
0
100
AcDbLine
 62
7
  6
CONTINUOUS
 10
14.6543608757
 20
41.9897765675
 11
14.6543608893
 21
41.9957822791
  0
LINE
  5
3D9
100
AcDbEntity
  8
0
100
AcDbLine
 62
7
  6
CONTINUOUS
 10
14.6543570071
 20
44.6453866185
 11
14.6543570027
 21
44.6393809
  0
LINE
  5
3DA
100
AcDbEntity
  8
ASSI
100
AcDbLine
 62
7
  6
CONTINUOUS
 10
12.4
 20
-83.4449291517
 11
12.4201930188
 21
-81.503344261
  0
LWPOLYLINE
  5
3DB
100
AcDbEntity
  8
RACCORDO
100
AcDbPolyline
 62
250
  6
CONTINUOUS
 90
6
 70
0
 10
-27.5519013347
 20
-79.965
 10
-27.5471500531
 20
-79.9556736643
 10
-27.5433995185
 20
-79.9459016994
 10
-27.5406908227
 20
-79.9357911691
 10
-27.5390536426
 20
-79.9254528463
 10
-27.5385059156
 20
-79.915
  0
LINE
  5
3DC
100
AcDbEntity
  8
DRAFT
100
AcDbLine
 62
7
  6
CONTINUOUS
 10
3.0
 20
15.885
 11
-3.0
 21
15.885
  0
LINE
  5
3DD
100
AcDbEntity
  8
DRAFT
100
AcDbLine
 62
7
  6
CONTINUOUS
 10
3.0
 20
15.892854181
 11
-3.0
 21
15.892854181
  0
LINE
  5
3DE
100
AcDbEntity
  8
DRAFT
100
AcDbLine
 62
7
  6
CONTINUOUS
 10
-3.0
 20
18.877145819
 11
3.0
 21
18.877145819
  0
LINE
  5
3DF
100
AcDbEntity
  8
DRAFT
100
AcDbLine
 62
7
  6
CONTINUOUS
 10
-3.0
 20
18.885
 11
3.0
 21
18.885
  0
LINE
  5
3E0
100
AcDbEntity
  8
ASSI
100
AcDbLine
 62
7
  6
CONTINUOUS
 10
27.7798069812
 20
-81.503344261
 11
27.8
 21
-83.4449291517
  0
LINE
  5
3E1
100
AcDbEntity
  8
DRAFT
100
AcDbLine
 62
7
  6
CONTINUOUS
 10
25.8
 20
-83.4449291517
 11
25.8
 21
-79.415
  0
LINE
  5
3E2
100
AcDbEntity
  8
RACCORDO
100
AcDbLine
 62
7
  6
CONTINUOUS
 10
25.8200717959
 20
-81.3372461452
 11
25.8200717959
 21
-79.4350717959
  0
LINE
  5
3E3
100
AcDbEntity
  8
RACCORDO
100
AcDbLine
 62
7
  6
CONTINUOUS
 10
27.7799282041
 20
-79.4350717959
 11
27.7799282041
 21
-81.3372461452
  0
LINE
  5
3E4
100
AcDbEntity
  8
DRAFT
100
AcDbLine
 62
7
  6
CONTINUOUS
 10
27.8
 20
-79.415
 11
27.8
 21
-83.4449291517
  0
LINE
  5
3E5
100
AcDbEntity
  8
ASSI
100
AcDbLine
 62
7
  6
CONTINUOUS
 10
25.8
 20
-83.4449291517
 11
25.8201930188
 21
-81.503344261
  0
LINE
  5
3E6
100
AcDbEntity
  8
DRAFT
100
AcDbLine
 62
7
  6
CONTINUOUS
 10
-39.2200717959
 20
-79.4350717959
 11
-39.2
 21
-79.415
  0
LINE
  5
3E7
100
AcDbEntity
  8
0
100
AcDbLine
 62
7
  6
CONTINUOUS
 10
-9.3448109351
 20
46.2909313583
 11
-9.3413201879
 21
46.2874406112
  0
LINE
  5
3E8
100
AcDbEntity
  8
0
100
AcDbLine
 62
7
  6
CONTINUOUS
 10
-3.1026249967
 20
44.7765564696
 11
-0.000003732
 21
40.3442336992
  0
LINE
  5
3E9
100
AcDbEntity
  8
0
100
AcDbLine
 62
7
  6
CONTINUOUS
 10
0.0
 20
42.985
 11
-2.3141573349
 21
46.2909315397
  0
LINE
  5
3EA
100
AcDbEntity
  8
0
100
AcDbLine
 62
7
  6
CONTINUOUS
 10
2.314157175
 20
46.2909316745
 11
2.3159746497
 21
46.2874409274
  0
LINE
  5
3EB
100
AcDbEntity
  8
RACCORDO
100
AcDbLine
 62
250
  6
CONTINUOUS
 10
43.5614565209
 20
81.2612684788
 11
43.628816622
 21
81.6545674266
  0
LINE
  5
3EC
100
AcDbEntity
  8
RACCORDO
100
AcDbLine
 62
250
  6
CONTINUOUS
 10
48.8702508206
 20
81.6708419625
 11
48.8701602876
 21
81.6703632581
  0
LINE
  5
3ED
100
AcDbEntity
  8
DRAFT
100
AcDbLine
 62
7
  6
CONTINUOUS
 10
-13.0299282041
 20
-54.5949282041
 11
-13.0322886568
 21
-54.5972886568
  0
LINE
  5
3EE
100
AcDbEntity
  8
RACCORDO
100
AcDbLine
 62
250
  6
CONTINUOUS
 10
-48.2236933693
 20
81.134920634
 11
-48.8701602876
 21
81.6703632581
  0
LINE
  5
3EF
100
AcDbEntity
  8
RACCORDO
100
AcDbLine
 62
250
  6
CONTINUOUS
 10
-48.5492767722
 20
80.7427119061
 11
-49.195039068
 21
81.2782871282
  0
LINE
  5
3F0
100
AcDbEntity
  8
0
100
AcDbLine
 62
7
  6
CONTINUOUS
 10
5.3372472575
 20
42.680438687
 11
5.3337565103
 21
42.6839294341
  0
LINE
  5
3F1
100
AcDbEntity
  8
0
100
AcDbLine
 62
7
  6
CONTINUOUS
 10
13.4789686509
 20
40.344234013
 11
13.4771722541
 21
40.3477247601
  0
LINE
  5
3F2
100
AcDbEntity
  8
0
100
AcDbLine
 62
7
  6
CONTINUOUS
 10
15.8297454319
 20
46.290932023
 11
15.8315418338
 21
46.2874412759
  0
LINE
  5
3F3
100
AcDbEntity
  8
ASSI
100
AcDbLine
 62
7
  6
CONTINUOUS
 10
41.1798069812
 20
-81.503344261
 11
41.2
 21
-83.4449291517
  0
LINE
  5
3F4
100
AcDbEntity
  8
DRAFT
100
AcDbLine
 62
7
  6
CONTINUOUS
 10
39.2
 20
-83.4449291517
 11
39.2
 21
-79.415
  0
LINE
  5
3F5
100
AcDbEntity
  8
RACCORDO
100
AcDbLine
 62
7
  6
CONTINUOUS
 10
39.2200717959
 20
-81.3372461452
 11
39.2200717959
 21
-79.4350717959
  0
LINE
  5
3F6
100
AcDbEntity
  8
RACCORDO
100
AcDbLine
 62
7
  6
CONTINUOUS
 10
41.1799282041
 20
-79.4350717959
 11
41.1799282041
 21
-81.3372461452
  0
LINE
  5
3F7
100
AcDbEntity
  8
DRAFT
100
AcDbLine
 62
7
  6
CONTINUOUS
 10
41.2
 20
-79.415
 11
41.2
 21
-83.4449291517
  0
LINE
  5
3F8
100
AcDbEntity
  8
ASSI
100
AcDbLine
 62
7
  6
CONTINUOUS
 10
39.2
 20
-83.4449291517
 11
39.2201930188
 21
-81.503344261
  0
LINE
  5
3F9
100
AcDbEntity
  8
DRAFT
100
AcDbLine
 62
7
  6
CONTINUOUS
 10
-25.8200717959
 20
-79.4350717959
 11
-25.8
 21
-79.415
  0
LINE
  5
3FA
100
AcDbEntity
  8
DRAFT
100
AcDbLine
 62
7
  6
CONTINUOUS
 10
13.0299282041
 20
-46.4350717959
 11
13.05
 21
-46.415
  0
LINE
  5
3FB
100
AcDbEntity
  8
RACCORDO
100
AcDbLine
 62
250
  6
CONTINUOUS
 10
12.8076321752
 20
-46.6573982857
 11
12.9490791277
 21
-46.5159513332
  0
LWPOLYLINE
  5
3FC
100
AcDbEntity
  8
RACCORDO
100
AcDbPolyline
 62
250
  6
CONTINUOUS
 90
7
 70
0
 10
-13.0299282041
 20
-46.5331258649
 10
-13.0258058106
 20
-46.5312272264
 10
-13.0112535159
 20
-46.5258392893
 10
-12.9962048171
 20
-46.5215665225
 10
-12.9807858869
 20
-46.5184700076
 10
-12.9650455734
 20
-46.5165845028
 10
-12.9490791223
 20
-46.5159513386
  0
LINE
  5
3FD
100
AcDbEntity
  8
0
100
AcDbLine
 62
7
  6
CONTINUOUS
 10
-17.4153278086
 20
40.344233344
 11
-9.3448108006
 21
40.344233344
  0
LINE
  5
3FE
100
AcDbEntity
  8
0
100
AcDbLine
 62
7
  6
CONTINUOUS
 10
-8.4952847286
 20
40.344233553
 11
-2.1238228006
 21
40.344233553
  0
LINE
  5
3FF
100
AcDbEntity
  8
0
100
AcDbLine
 62
7
  6
CONTINUOUS
 10
3.8228722214
 20
40.344233876
 11
10.6190962214
 21
40.344233876
  0
LINE
  5
400
100
AcDbEntity
  8
0
100
AcDbLine
 62
7
  6
CONTINUOUS
 10
11.5821036858
 20
40.344234013
 11
13.4789686509
 21
40.344234013
  0
LINE
  5
401
100
AcDbEntity
  8
0
100
AcDbLine
 62
7
  6
CONTINUOUS
 10
15.8297417502
 20
40.344234123
 11
17.7266067856
 21
40.344234123
  0
LINE
  5
402
100
AcDbEntity
  8
0
100
AcDbLine
 62
7
  6
CONTINUOUS
 10
9.1047211804
 20
41.8309088843
 11
5.3372472794
 21
41.830908787
  0
LINE
  5
403
100
AcDbEntity
  8
0
100
AcDbLine
 62
7
  6
CONTINUOUS
 10
-2.1238228006
 20
41.858609572
 11
-6.9809049476
 21
41.858609572
  0
LINE
  5
404
100
AcDbEntity
  8
0
100
AcDbLine
 62
7
  6
CONTINUOUS
 10
-9.3448108006
 20
41.858609375
 11
-15.0514228296
 21
41.858609375
  0
LINE
  5
405
100
AcDbEntity
  8
0
100
AcDbLine
 62
7
  6
CONTINUOUS
 10
9.1047211804
 20
41.8309088843
 11
9.1082119276
 21
41.8274181373
  0
LINE
  5
406
100
AcDbEntity
  8
0
100
AcDbLine
 62
7
  6
CONTINUOUS
 10
11.7008003534
 20
44.7765568516
 11
10.6190999035
 21
46.2909318888
  0
LINE
  5
407
100
AcDbEntity
  8
0
100
AcDbLine
 62
7
  6
CONTINUOUS
 10
14.6543608757
 20
41.9897765675
 11
15.8297417502
 21
40.344234123
  0
LINE
  5
408
100
AcDbEntity
  8
0
100
AcDbLine
 62
7
  6
CONTINUOUS
 10
11.5821034967
 20
46.290931913
 11
13.7059226412
 21
43.3175867929
  0
LINE
  5
409
100
AcDbEntity
  8
0
100
AcDbLine
 62
7
  6
CONTINUOUS
 10
11.5888866815
 20
46.2874411659
 11
13.7102124319
 21
43.3175867956
  0
LINE
  5
40A
100
AcDbEntity
  8
0
100
AcDbLine
 62
7
  6
CONTINUOUS
 10
17.7198236039
 20
40.3477248701
 11
15.5984940481
 21
43.3175868453
  0
LINE
  5
40B
100
AcDbEntity
  8
0
100
AcDbLine
 62
7
  6
CONTINUOUS
 10
14.6543570071
 20
44.6453866185
 11
13.4789723326
 21
46.290931913
  0
LINE
  5
40C
100
AcDbEntity
  8
0
100
AcDbLine
 62
7
  6
CONTINUOUS
 10
17.7266067856
 20
40.344234123
 11
15.6027838413
 21
43.3175868428
  0
LINE
  5
40D
100
AcDbEntity
  8
RACCORDO
100
AcDbLine
 62
250
  6
CONTINUOUS
 10
43.5614565209
 20
-84.5360979711
 11
43.5614565209
 21
81.2612684788
  0
LINE
  5
40E
100
AcDbEntity
  8
RACCORDO
100
AcDbLine
 62
250
  6
CONTINUOUS
 10
48.5492767722
 20
-84.2857718111
 11
48.5492767722
 21
80.7427119061
  0
LINE
  5
40F
100
AcDbEntity
  8
RACCORDO
100
AcDbLine
 62
250
  6
CONTINUOUS
 10
48.7955259605
 20
-85.0078939372
 11
48.7955259605
 21
-85.0077721026
  0
LINE
  5
410
100
AcDbEntity
  8
RACCORDO
100
AcDbLine
 62
7
  6
CONTINUOUS
 10
48.825
 20
-85.0463886513
 11
48.825
 21
-85.215
  0
LINE
  5
411
100
AcDbEntity
  8
RACCORDO
100
AcDbLine
 62
250
  6
CONTINUOUS
 10
13.0076017143
 20
-46.8573678248
 11
13.0299282041
 21
-46.835041335
  0
LINE
  5
412
100
AcDbEntity
  8
DRAFT
100
AcDbLine
 62
7
  6
CONTINUOUS
 10
-12.4200717959
 20
-79.4350717959
 11
-12.4
 21
-79.415
  0
LINE
  5
413
100
AcDbEntity
  8
0
100
AcDbLine
 62
7
  6
CONTINUOUS
 10
-15.0514228296
 20
42.560393336
 11
-12.3181579076
 21
42.560393336
  0
LINE
  5
414
100
AcDbEntity
  8
0
100
AcDbLine
 62
7
  6
CONTINUOUS
 10
5.3372472575
 20
42.680438687
 11
9.1047211585
 21
42.6804387843
  0
LINE
  5
415
100
AcDbEntity
  8
0
100
AcDbLine
 62
7
  6
CONTINUOUS
 10
13.7059226412
 20
43.3175867929
 11
13.7102124319
 21
43.3175867956
  0
LINE
  5
416
100
AcDbEntity
  8
0
100
AcDbLine
 62
7
  6
CONTINUOUS
 10
15.6027838413
 20
43.3175868428
 11
15.5984940481
 21
43.3175868453
  0
LINE
  5
417
100
AcDbEntity
  8
0
100
AcDbLine
 62
7
  6
CONTINUOUS
 10
10.6190962214
 20
43.982431776
 11
3.8228722214
 21
43.982431776
  0
LINE
  5
418
100
AcDbEntity
  8
0
100
AcDbLine
 62
7
  6
CONTINUOUS
 10
-6.9809049476
 20
43.98243139
 11
-8.4952847286
 21
43.98243139
  0
LINE
  5
419
100
AcDbEntity
  8
0
100
AcDbLine
 62
7
  6
CONTINUOUS
 10
-12.3181579076
 20
44.074774086
 11
-15.0514228866
 21
44.074774086
  0
LINE
  5
41A
100
AcDbEntity
  8
0
100
AcDbLine
 62
7
  6
CONTINUOUS
 10
-15.0514228866
 20
44.776556214
 11
-10.1943408156
 21
44.776556214
  0
LINE
  5
41B
100
AcDbEntity
  8
0
100
AcDbLine
 62
7
  6
CONTINUOUS
 10
-9.344810896
 20
44.7765563084
 11
-3.1026249967
 21
44.7765564696
  0
LINE
  5
41C
100
AcDbEntity
  8
0
100
AcDbLine
 62
7
  6
CONTINUOUS
 10
3.1026211039
 20
44.7765566297
 11
11.7008003534
 21
44.7765568516
  0
LINE
  5
41D
100
AcDbEntity
  8
0
100
AcDbLine
 62
7
  6
CONTINUOUS
 10
-9.341320149
 20
44.7800470557
 11
-3.1008075183
 21
44.7800472167
  0
LINE
  5
41E
100
AcDbEntity
  8
0
100
AcDbLine
 62
7
  6
CONTINUOUS
 10
13.4771759274
 20
46.2874411659
 11
11.5888866815
 21
46.2874411659
  0
LINE
  5
41F
100
AcDbEntity
  8
0
100
AcDbLine
 62
7
  6
CONTINUOUS
 10
-2.3159748094
 20
46.2874407926
 11
-9.3413201879
 21
46.2874406112
  0
LINE
  5
420
100
AcDbEntity
  8
0
100
AcDbLine
 62
7
  6
CONTINUOUS
 10
17.726606597
 20
46.290932023
 11
15.8297454319
 21
46.290932023
  0
LINE
  5
421
100
AcDbEntity
  8
0
100
AcDbLine
 62
7
  6
CONTINUOUS
 10
13.4789723326
 20
46.290931913
 11
11.5821034967
 21
46.290931913
  0
LINE
  5
422
100
AcDbEntity
  8
0
100
AcDbLine
 62
7
  6
CONTINUOUS
 10
10.6190999035
 20
46.2909318888
 11
2.314157175
 21
46.2909316745
  0
LINE
  5
423
100
AcDbEntity
  8
0
100
AcDbLine
 62
7
  6
CONTINUOUS
 10
-2.3141573349
 20
46.2909315397
 11
-9.3448109351
 21
46.2909313583
  0
LINE
  5
424
100
AcDbEntity
  8
0
100
AcDbLine
 62
7
  6
CONTINUOUS
 10
-10.1943408156
 20
46.290931233
 11
-17.4153278086
 21
46.290931233
  0
LINE
  5
425
100
AcDbEntity
  8
0
100
AcDbLine
 62
7
  6
CONTINUOUS
 10
17.7266067856
 20
40.344234123
 11
17.7198236039
 21
40.3477248701
  0
LINE
  5
426
100
AcDbEntity
  8
0
100
AcDbLine
 62
7
  6
CONTINUOUS
 10
11.5821034967
 20
46.290931913
 11
11.5888866815
 21
46.2874411659
  0
LWPOLYLINE
  5
427
100
AcDbEntity
  8
RACCORDO
100
AcDbPolyline
 62
250
  6
CONTINUOUS
 90
19
 70
0
 10
48.5492749874
 20
80.7427119061
 10
48.5479764157
 20
80.7733336412
 10
48.5443356745
 20
80.8037750504
 10
48.5383742038
 20
80.8338568676
 10
48.5301271099
 20
80.8634019445
 10
48.5196429592
 20
80.8922362933
 10
48.5069834915
 20
80.9201901119
 10
48.4922232572
 20
80.9470987834
 10
48.4754491774
 20
80.9728038456
 10
48.456760033
 20
80.9971539242
 10
48.4362658821
 20
81.0200056244
 10
48.4140874126
 20
81.0412243752
 10
48.3903552309
 20
81.0606852216
 10
48.3652090932
 20
81.0782735609
 10
48.3387970823
 20
81.0938858175
 10
48.3112747355
 20
81.1074300523
 10
48.2828041289
 20
81.118826505
 10
48.2535529226
 20
81.1280080632
 10
48.2236933737
 20
81.1349206576
  0
LWPOLYLINE
  5
428
100
AcDbEntity
  8
RACCORDO
100
AcDbPolyline
 62
250
  6
CONTINUOUS
 90
19
 70
0
 10
50.3561014955
 20
80.9878578582
 10
50.3546669229
 20
81.026199633
 10
50.3503053329
 20
81.0643087603
 10
50.343043958
 20
81.1019611226
 10
50.3329265042
 20
81.1389326691
 10
50.3200149685
 20
81.1750094165
 10
50.3043868878
 20
81.2099878648
 10
50.2861336517
 20
81.2436649436
 10
50.2653612502
 20
81.2758393348
 10
50.2421903518
 20
81.3063209145
 10
50.2167563216
 20
81.3349303371
 10
50.1892089619
 20
81.3614990689
 10
50.1597109227
 20
81.3858699572
 10
50.128435498
 20
81.4078996748
 10
50.0955665623
 20
81.4274586194
 10
50.0612985776
 20
81.4444312265
 10
50.0258335109
 20
81.4587177787
 10
49.9893794908
 20
81.4702347243
 10
49.9521508422
 20
81.4789146127
  0
LWPOLYLINE
  5
429
100
AcDbEntity
  8
RACCORDO
100
AcDbPolyline
 62
7
  6
CONTINUOUS
 90
4
 70
0
 10
49.2100000033
 20
81.2066473804
 10
49.2089487909
 20
81.239446671
 10
49.2057320102
 20
81.2719812344
 10
49.2003496613
 20
81.3042510708
  0
LWPOLYLINE
  5
42A
100
AcDbEntity
  8
RACCORDO
100
AcDbPolyline
 62
7
  6
CONTINUOUS
 90
20
 70
0
 10
49.1955236789
 20
81.2782871287
 10
49.195477114
 20
81.2844689078
 10
49.1938588056
 20
81.3147791465
 10
49.1899460801
 20
81.3448666107
 10
49.1837643836
 20
81.3745732387
 10
49.1753412975
 20
81.4037309138
 10
49.1647264031
 20
81.4321725696
 10
49.1519795806
 20
81.4597410655
 10
49.1371638789
 20
81.4862715234
 10
49.1203650457
 20
81.5116066804
 10
49.1016814811
 20
81.5356030427
 10
49.0812141342
 20
81.5581150856
 10
49.059081724
 20
81.579009629
 10
49.0354159505
 20
81.5981668761
 10
49.0103515796
 20
81.6154667562
 10
48.9840335617
 20
81.6308086724
 10
48.9566153948
 20
81.6441097291
 10
48.9282560563
 20
81.6552849065
 10
48.8991176779
 20
81.6642672543
 10
48.8702508802
 20
81.6708422782
  0
LINE
  5
42B
100
AcDbEntity
  8
RACCORDO
100
AcDbLine
 62
7
  6
CONTINUOUS
 10
49.195526258
 20
81.2782871282
 11
49.195526258
 21
-84.6082592207
  0
LINE
  5
42C
100
AcDbEntity
  8
RACCORDO
100
AcDbLine
 62
7
  6
CONTINUOUS
 10
49.2100000033
 20
81.2066473804
 11
49.2100000033
 21
-84.5156844906
  0
LINE
  5
42D
100
AcDbEntity
  8
RACCORDO
100
AcDbLine
 62
7
  6
CONTINUOUS
 10
49.3667156301
 20
-84.546799346
 11
49.3667156301
 21
79.1254025243
  0
LINE
  5
42E
100
AcDbEntity
  8
RACCORDO
100
AcDbLine
 62
7
  6
CONTINUOUS
 10
49.6167724049
 20
-83.7450402337
 11
49.6167724049
 21
-85.215
  0
LINE
  5
42F
100
AcDbEntity
  8
0
100
AcDbLine
 62
7
  6
CONTINUOUS
 10
49.6186215945
 20
-83.615
 11
49.6186215945
 21
79.0768759187
  0
LINE
  5
430
100
AcDbEntity
  8
ASSI
100
AcDbLine
 62
7
  6
CONTINUOUS
 10
49.6405941807
 20
-83.615
 11
49.6405941807
 21
79.0726324601
  0
LINE
  5
431
100
AcDbEntity
  8
ASSI
100
AcDbLine
 62
7
  6
CONTINUOUS
 10
49.6431811459
 20
-85.215
 11
49.6431811459
 21
-83.754855623
  0
LINE
  5
432
100
AcDbEntity
  8
RACCORDO
100
AcDbLine
 62
7
  6
CONTINUOUS
 10
50.3561004365
 20
80.9878580619
 11
50.3561014955
 21
78.9335104325
  0
LINE
  5
433
100
AcDbEntity
  8
ASSI
100
AcDbLine
 62
7
  6
CONTINUOUS
 10
50.3675206953
 20
80.9860226852
 11
50.3675206953
 21
78.9312753145
  0
LWPOLYLINE
  5
434
100
AcDbEntity
  8
RACCORDO
100
AcDbPolyline
 62
250
  6
CONTINUOUS
 90
22
 70
0
 10
49.195039068
 20
-84.6082592183
 10
49.1938881804
 20
-84.6381012968
 10
49.1905139207
 20
-84.6677732864
 10
49.1849354542
 20
-84.6971099007
 10
49.1771843373
 20
-84.7259474911
 10
49.1673039529
 20
-84.7541256918
 10
49.1553490672
 20
-84.7814882449
 10
49.1413862425
 20
-84.8078826213
 10
49.1254933888
 20
-84.8331618013
 10
49.1077586171
 20
-84.8571856627
 10
49.0882803931
 20
-84.8798201753
 10
49.0671671598
 20
-84.9009390085
 10
49.0445362088
 20
-84.9204248955
 10
49.0205131503
 20
-84.9381688687
 10
48.9952316378
 20
-84.9540716365
 10
48.9688324603
 20
-84.9680446937
 10
48.9414620741
 20
-84.9800096334
 10
48.9132729121
 20
-84.9898991121
 10
48.8844228055
 20
-84.9976578333
 10
48.8550725984
 20
-85.0032420931
 10
48.8253852436
 20
-85.006620001
 10
48.7955259605
 20
-85.0077721026
  0
LINE
  5
435
100
AcDbEntity
  8
RACCORDO
100
AcDbLine
 62
250
  6
CONTINUOUS
 10
-48.5492767722
 20
-84.2857718111
 11
-49.195039068
 21
-84.6082592183
  0
LINE
  5
436
100
AcDbEntity
  8
RACCORDO
100
AcDbLine
 62
250
  6
CONTINUOUS
 10
-48.1502511521
 20
-84.6855281419
 11
-48.7955259605
 21
-85.0077721026
  0
LINE
  5
437
100
AcDbEntity
  8
DRAFT
100
AcDbLine
 62
7
  6
CONTINUOUS
 10
0.9799282041
 20
-79.4350717959
 11
1.0
 21
-79.415
  0
LINE
  5
438
100
AcDbEntity
  8
DRAFT
100
AcDbLine
 62
7
  6
CONTINUOUS
 10
14.3799282041
 20
-79.4350717959
 11
14.4
 21
-79.415
  0
LWPOLYLINE
  5
439
100
AcDbEntity
  8
RACCORDO
100
AcDbPolyline
 62
7
  6
CONTINUOUS
 90
3
 70
0
 10
49.2003496613
 20
81.3042510708
 10
49.1927467175
 20
81.3364679196
 10
49.1894495504
 20
81.3472527233
  0
LINE
  5
43A
100
AcDbEntity
  8
DRAFT
100
AcDbLine
 62
7
  6
CONTINUOUS
 10
27.7799282041
 20
-79.4350717959
 11
27.8
 21
-79.415
  0
LINE
  5
43B
100
AcDbEntity
  8
0
100
AcDbLine
 62
7
  6
CONTINUOUS
 10
1.8124706047
 20
-73.5678936195
 11
1.8073703337
 21
-73.5696575484
  0
LWPOLYLINE
  5
43C
100
AcDbEntity
  8
0
100
AcDbPolyline
 62
7
  6
CONTINUOUS
 90
11
 70
0
 10
1.8073703337
 20
-73.5696575484
 10
1.7480113447
 20
-73.5879273354
 10
1.678962572
 20
-73.607077522
 10
1.6004533104
 20
-73.6269308441
 10
1.5119835699
 20
-73.6475336637
 10
1.4140573637
 20
-73.6687206643
 10
1.306932829
 20
-73.6904296254
 10
1.1905721484
 20
-73.7126816486
 10
1.0650807237
 20
-73.7354839593
 10
0.9303175322
 20
-73.7589018522
 10
0.7870854973
 20
-73.7828550586
  0
LINE
  5
43D
100
AcDbEntity
  8
RACCORDO
100
AcDbLine
 62
250
  6
CONTINUOUS
 10
-49.195526258
 20
81.2782871298
 11
-49.195039068
 21
81.2782871287
  0
LINE
  5
43E
100
AcDbEntity
  8
RACCORDO
100
AcDbLine
 62
250
  6
CONTINUOUS
 10
49.195526258
 20
81.2782871282
 11
49.195039068
 21
81.2782871282
  0
LINE
  5
43F
100
AcDbEntity
  8
DRAFT
100
AcDbLine
 62
7
  6
CONTINUOUS
 10
41.1799282041
 20
-79.4350717959
 11
41.2
 21
-79.415
  0
LWPOLYLINE
  5
440
100
AcDbEntity
  8
RACCORDO
100
AcDbPolyline
 62
7
  6
CONTINUOUS
 90
4
 70
0
 10
-48.800879374
 20
81.6986821584
 10
-48.8331739996
 20
81.6914990213
 10
-48.8647752608
 20
81.6822463626
 10
-48.8956831576
 20
81.6709241822
  0
LWPOLYLINE
  5
441
100
AcDbEntity
  8
RACCORDO
100
AcDbPolyline
 62
7
  6
CONTINUOUS
 90
20
 70
0
 10
-48.8702508769
 20
81.6708422791
 10
-48.8770322705
 20
81.6694987318
 10
-48.9066968564
 20
81.6621635355
 10
-48.9356941289
 20
81.6525945851
 10
-48.963862931
 20
81.640842461
 10
-48.9910420712
 20
81.6269827023
 10
-49.0170727282
 20
81.6111022163
 10
-49.0418019632
 20
81.5932874328
 10
-49.0650901885
 20
81.5736472256
 10
-49.0868039426
 20
81.5523035921
 10
-49.106813187
 20
81.5293793425
 10
-49.1250061172
 20
81.5050147502
 10
-49.1412843166
 20
81.4793563778
 10
-49.1555526888
 20
81.4525482335
 10
-49.1677343219
 20
81.4247523696
 10
-49.1777687562
 20
81.3961342278
 10
-49.1855989547
 20
81.366849319
 10
-49.1911840421
 20
81.3370647235
 10
-49.1944988708
 20
81.3069481907
 10
-49.1955236791
 20
81.2782871299
  0
LINE
  5
442
100
AcDbEntity
  8
RACCORDO
100
AcDbLine
 62
250
  6
CONTINUOUS
 10
-50.3561012756
 20
80.9878579005
 11
-49.4185726522
 21
81.1671739915
  0
LINE
  5
443
100
AcDbEntity
  8
RACCORDO
100
AcDbLine
 62
250
  6
CONTINUOUS
 10
-49.4185726522
 20
81.1671739915
 11
-49.2100000033
 21
81.2066473804
  0
LINE
  5
444
100
AcDbEntity
  8
RACCORDO
100
AcDbLine
 62
250
  6
CONTINUOUS
 10
-50.3675206953
 20
80.985991734
 11
-50.3561013398
 21
80.9880413403
  0
LINE
  5
445
100
AcDbEntity
  8
RACCORDO
100
AcDbLine
 62
250
  6
CONTINUOUS
 10
-43.628816622
 20
81.6545674266
 11
-44.0147146619
 21
81.5893600946
  0
LINE
  5
446
100
AcDbEntity
  8
RACCORDO
100
AcDbLine
 62
250
  6
CONTINUOUS
 10
-44.0147146619
 20
81.5893600946
 11
-44.3976490306
 21
81.526436241
  0
LINE
  5
447
100
AcDbEntity
  8
RACCORDO
100
AcDbLine
 62
250
  6
CONTINUOUS
 10
-44.3976490306
 20
81.526436241
 11
-44.7764610519
 21
81.4659991175
  0
LINE
  5
448
100
AcDbEntity
  8
RACCORDO
100
AcDbLine
 62
250
  6
CONTINUOUS
 10
-43.5614565209
 20
81.2612684788
 11
-43.980193347
 21
81.1960964429
  0
LINE
  5
449
100
AcDbEntity
  8
RACCORDO
100
AcDbLine
 62
250
  6
CONTINUOUS
 10
-44.7764610519
 20
81.4659991175
 11
-45.1472098423
 21
81.4087274952
  0
LINE
  5
44A
100
AcDbEntity
  8
RACCORDO
100
AcDbLine
 62
250
  6
CONTINUOUS
 10
-43.980193347
 20
81.1960964429
 11
-44.602985141
 21
81.1026896425
  0
LINE
  5
44B
100
AcDbEntity
  8
RACCORDO
100
AcDbLine
 62
250
  6
CONTINUOUS
 10
-45.1472098423
 20
81.4087274952
 11
-45.5066755208
 21
81.3551440086
  0
LINE
  5
44C
100
AcDbEntity
  8
RACCORDO
100
AcDbLine
 62
250
  6
CONTINUOUS
 10
-44.602985141
 20
81.1026896425
 11
-45.0099809403
 21
81.0439344997
  0
LINE
  5
44D
100
AcDbEntity
  8
RACCORDO
100
AcDbLine
 62
250
  6
CONTINUOUS
 10
-45.5066755208
 20
81.3551440086
 11
-45.8528119859
 21
81.3055965725
  0
LINE
  5
44E
100
AcDbEntity
  8
RACCORDO
100
AcDbLine
 62
250
  6
CONTINUOUS
 10
-45.0099809403
 20
81.0439344997
 11
-45.4067260625
 21
80.9885095224
  0
LINE
  5
44F
100
AcDbEntity
  8
RACCORDO
100
AcDbLine
 62
250
  6
CONTINUOUS
 10
-45.8528119859
 20
81.3055965725
 11
-46.182641859
 21
81.260562714
  0
LINE
  5
450
100
AcDbEntity
  8
RACCORDO
100
AcDbLine
 62
250
  6
CONTINUOUS
 10
-45.4067260625
 20
80.9885095224
 11
-45.7900516458
 21
80.9369639305
  0
LINE
  5
451
100
AcDbEntity
  8
RACCORDO
100
AcDbLine
 62
250
  6
CONTINUOUS
 10
-45.7900516458
 20
80.9369639305
 11
-46.157085459
 21
80.8897600527
  0
LWPOLYLINE
  5
452
100
AcDbEntity
  8
RACCORDO
100
AcDbPolyline
 62
250
  6
CONTINUOUS
 90
22
 70
0
 10
-46.182641859
 20
81.260562714
 10
-46.4937718605
 20
81.2204045872
 10
-46.6420151242
 20
81.2022139817
 10
-46.7846695355
 20
81.1853736344
 10
-46.9217008069
 20
81.1698992014
 10
-47.0531461523
 20
81.1557910478
 10
-47.1783930672
 20
81.1431190606
 10
-47.2974199308
 20
81.1318970687
 10
-47.4102507057
 20
81.122126757
 10
-47.5163411099
 20
81.1138606596
 10
-47.6156783979
 20
81.1071132899
 10
-47.7082769389
 20
81.1018843199
 10
-47.7936328952
 20
81.0982044311
 10
-47.8716943808
 20
81.0960923711
 10
-47.9425140685
 20
81.0955415416
 10
-48.0057446764
 20
81.0965445285
 10
-48.0613207557
 20
81.0991198912
 10
-48.1093076454
 20
81.1032583309
 10
-48.1495539535
 20
81.1089100868
 10
-48.1820088748
 20
81.1160605243
 10
-48.2067222376
 20
81.1247300536
 10
-48.2236933693
 20
81.134920634
  0
LINE
  5
453
100
AcDbEntity
  8
RACCORDO
100
AcDbLine
 62
250
  6
CONTINUOUS
 10
-46.157085459
 20
80.8897600527
 11
-46.5052644437
 21
80.847181849
  0
LWPOLYLINE
  5
454
100
AcDbEntity
  8
RACCORDO
100
AcDbPolyline
 62
250
  6
CONTINUOUS
 90
21
 70
0
 10
-46.5052644437
 20
80.847181849
 10
-46.832267432
 20
80.8096175565
 10
-46.9871705957
 20
80.7928171518
 10
-47.135993584
 20
80.777380655
 10
-47.2785016223
 20
80.7633009169
 10
-47.4145063209
 20
80.750663283
 10
-47.5437840024
 20
80.7394738101
 10
-47.6661139558
 20
80.7297264413
 10
-47.7813190285
 20
80.7214883523
 10
-47.8892310105
 20
80.7147673768
 10
-47.9896351118
 20
80.709555681
 10
-48.0823113484
 20
80.7058969387
 10
-48.1671234357
 20
80.7038046497
 10
-48.2439336717
 20
80.7032653143
 10
-48.3125737009
 20
80.7042821076
 10
-48.3729611698
 20
80.7068692738
 10
-48.4250336628
 20
80.7110125688
 10
-48.4687126146
 20
80.7166724353
 10
-48.5039730541
 20
80.7238356875
 10
-48.5308237608
 20
80.7325155111
 10
-48.5492767722
 20
80.7427119061
  0
LINE
  5
455
100
AcDbEntity
  8
RACCORDO
100
AcDbLine
 62
250
  6
CONTINUOUS
 10
46.832267432
 20
80.8096175565
 11
46.5052644437
 21
80.847181849
  0
LINE
  5
456
100
AcDbEntity
  8
RACCORDO
100
AcDbLine
 62
250
  6
CONTINUOUS
 10
46.5052644437
 20
80.847181849
 11
46.157085459
 21
80.8897600527
  0
LINE
  5
457
100
AcDbEntity
  8
RACCORDO
100
AcDbLine
 62
250
  6
CONTINUOUS
 10
46.6420151242
 20
81.2022139817
 11
46.340659442
 21
81.2398540656
  0
LINE
  5
458
100
AcDbEntity
  8
RACCORDO
100
AcDbLine
 62
250
  6
CONTINUOUS
 10
46.157085459
 20
80.8897600527
 11
45.7900516458
 21
80.9369639305
  0
LINE
  5
459
100
AcDbEntity
  8
RACCORDO
100
AcDbLine
 62
250
  6
CONTINUOUS
 10
46.340659442
 20
81.2398540656
 11
46.019751782
 21
81.282514706
  0
LINE
  5
45A
100
AcDbEntity
  8
RACCORDO
100
AcDbLine
 62
250
  6
CONTINUOUS
 10
45.7900516458
 20
80.9369639305
 11
45.4067260625
 21
80.9885095224
  0
LINE
  5
45B
100
AcDbEntity
  8
RACCORDO
100
AcDbLine
 62
250
  6
CONTINUOUS
 10
45.4067260625
 20
80.9885095224
 11
45.0099809403
 21
81.0439344997
  0
LINE
  5
45C
100
AcDbEntity
  8
RACCORDO
100
AcDbLine
 62
250
  6
CONTINUOUS
 10
46.019751782
 20
81.282514706
 11
45.681770387
 21
81.3298123748
  0
LINE
  5
45D
100
AcDbEntity
  8
RACCORDO
100
AcDbLine
 62
250
  6
CONTINUOUS
 10
45.0099809403
 20
81.0439344997
 11
44.602985141
 21
81.1026896425
  0
LINE
  5
45E
100
AcDbEntity
  8
RACCORDO
100
AcDbLine
 62
250
  6
CONTINUOUS
 10
45.681770387
 20
81.3298123748
 11
45.3285012983
 21
81.381447623
  0
LINE
  5
45F
100
AcDbEntity
  8
RACCORDO
100
AcDbLine
 62
250
  6
CONTINUOUS
 10
44.602985141
 20
81.1026896425
 11
43.980193347
 21
81.196096443
  0
LINE
  5
460
100
AcDbEntity
  8
RACCORDO
100
AcDbLine
 62
250
  6
CONTINUOUS
 10
45.3285012983
 20
81.381447623
 11
44.9628355324
 21
81.4369680097
  0
LINE
  5
461
100
AcDbEntity
  8
RACCORDO
100
AcDbLine
 62
250
  6
CONTINUOUS
 10
43.980193347
 20
81.196096443
 11
43.5614565209
 21
81.2612684788
  0
LINE
  5
462
100
AcDbEntity
  8
RACCORDO
100
AcDbLine
 62
250
  6
CONTINUOUS
 10
44.9628355324
 20
81.4369680097
 11
44.5880567167
 21
81.4958262142
  0
LINE
  5
463
100
AcDbEntity
  8
RACCORDO
100
AcDbLine
 62
250
  6
CONTINUOUS
 10
44.5880567167
 20
81.4958262142
 11
44.2064055241
 21
81.5576357198
  0
LWPOLYLINE
  5
464
100
AcDbEntity
  8
RACCORDO
100
AcDbPolyline
 62
250
  6
CONTINUOUS
 90
3
 70
0
 10
44.2064055241
 20
81.5576357198
 10
43.8221854644
 20
81.6216712047
 10
43.628816622
 20
81.6545674266
  0
LINE
  5
465
100
AcDbEntity
  8
RACCORDO
100
AcDbLine
 62
250
  6
CONTINUOUS
 10
50.3561007459
 20
80.9880413417
 11
50.3675206953
 21
80.9860183201
  0
LINE
  5
466
100
AcDbEntity
  8
RACCORDO
100
AcDbLine
 62
250
  6
CONTINUOUS
 10
49.2100000033
 20
81.2066473804
 11
50.1476439953
 21
81.0279950366
  0
LINE
  5
467
100
AcDbEntity
  8
RACCORDO
100
AcDbLine
 62
250
  6
CONTINUOUS
 10
50.1476439953
 20
81.0279950366
 11
50.3561004365
 21
80.9878580619
  0
LINE
  5
468
100
AcDbEntity
  8
RACCORDO
100
AcDbLine
 62
7
  6
CONTINUOUS
 10
48.8331739996
 20
81.6914990213
 11
48.800879374
 21
81.6986821584
  0
LWPOLYLINE
  5
469
100
AcDbEntity
  8
RACCORDO
100
AcDbPolyline
 62
250
  6
CONTINUOUS
 90
12
 70
0
 10
49.2055344433
 20
-84.9133393158
 10
49.2319304067
 20
-84.8870334988
 10
49.2563040113
 20
-84.8588208017
 10
49.2785179784
 20
-84.8288535868
 10
49.2984444013
 20
-84.7972976047
 10
49.3159784053
 20
-84.764304346
 10
49.3310180949
 20
-84.7300420009
 10
49.3434645459
 20
-84.6947092441
 10
49.3532354398
 20
-84.6585134657
 10
49.3602683962
 20
-84.6216605314
 10
49.3645184237
 20
-84.5843526229
 10
49.3659545698
 20
-84.5467993456
  0
LWPOLYLINE
  5
46A
100
AcDbEntity
  8
RACCORDO
100
AcDbPolyline
 62
250
  6
CONTINUOUS
 90
18
 70
0
 10
48.900033437
 20
81.6634555703
 10
48.9292878156
 20
81.6542800596
 10
48.9577519566
 20
81.6428911943
 10
48.9852592536
 20
81.6293565468
 10
49.0116482816
 20
81.6137559479
 10
49.0367637523
 20
81.5961810309
 10
49.060457963
 20
81.5767356758
 10
49.0825926995
 20
81.5555342256
 10
49.103039119
 20
81.5327000837
 10
49.1216771963
 20
81.5083670058
 10
49.138397398
 20
81.4826781298
 10
49.1531020115
 20
81.4557836682
 10
49.1657040391
 20
81.427841835
 10
49.1761295843
 20
81.3990160676
 10
49.1843182198
 20
81.3694732822
 10
49.190221151
 20
81.3393858766
 10
49.1938021574
 20
81.3089309473
 10
49.195039068
 20
81.2782871282
  0
LWPOLYLINE
  5
46B
100
AcDbEntity
  8
RACCORDO
100
AcDbPolyline
 62
7
  6
CONTINUOUS
 90
5
 70
0
 10
48.9361134424
 20
81.6521886536
 10
48.9260943096
 20
81.6574343687
 10
48.8956831576
 20
81.6709241822
 10
48.8647752608
 20
81.6822463626
 10
48.8331739996
 20
81.6914990213
  0
ARC
  5
46C
100
AcDbEntity
  8
RACCORDO
100
AcDbCircle
 62
7
  6
CONTINUOUS
 10
-6.65
 20
-211.910990667
 40
298.8
100
AcDbArc
 50
79.0784094273
 51
88.7247376348
  0
ARC
  5
46D
100
AcDbEntity
  8
RACCORDO
100
AcDbCircle
 62
7
  6
CONTINUOUS
 10
-6.65
 20
-211.910990667
 40
298.785526258
100
AcDbArc
 50
79.291070837
 51
88.7246758485
  0
ARC
  5
46E
100
AcDbEntity
  8
RACCORDO
100
AcDbCircle
 62
250
  6
CONTINUOUS
 10
-6.65
 20
-211.910990667
 40
297.8400515372
100
AcDbArc
 50
80.2812774525
 51
88.7206267393
  0
ARC
  5
46F
100
AcDbEntity
  8
RACCORDO
100
AcDbCircle
 62
250
  6
CONTINUOUS
 10
-6.65
 20
-211.910990667
 40
297.4410259171
100
AcDbArc
 50
80.2812774525
 51
88.7189101377
  0
ARC
  5
470
100
AcDbEntity
  8
ASSI
100
AcDbCircle
 62
7
  6
CONTINUOUS
 10
-6.65
 20
-212.340491827
 40
296.8
100
AcDbArc
 50
78.9241966784
 51
78.9264422566
  0
ARC
  5
471
100
AcDbEntity
  8
RACCORDO
100
AcDbCircle
 62
7
  6
CONTINUOUS
 10
-6.65
 20
-212.340491827
 40
296.8
100
AcDbArc
 50
78.9264422566
 51
79.1209975904
  0
CIRCLE
  5
472
100
AcDbEntity
  8
DRAFT
100
AcDbCircle
 62
7
  6
CONTINUOUS
 10
-0.0
 20
-73.815
 40
1.85
  0
CIRCLE
  5
473
100
AcDbEntity
  8
DRAFT
100
AcDbCircle
 62
7
  6
CONTINUOUS
 10
-0.0
 20
-73.815
 40
1.8299282041
  0
CIRCLE
  5
474
100
AcDbEntity
  8
DRAFT
100
AcDbCircle
 62
7
  6
CONTINUOUS
 10
0.0
 20
-66.315
 40
1.6
  0
CIRCLE
  5
475
100
AcDbEntity
  8
DRAFT
100
AcDbCircle
 62
7
  6
CONTINUOUS
 10
0.0
 20
-66.315
 40
1.5799282041
  0
ARC
  5
476
100
AcDbEntity
  8
RACCORDO
100
AcDbCircle
 62
7
  6
CONTINUOUS
 10
-49.1431811459
 20
-85.215
 40
0.5
100
AcDbArc
 50
180.0
 51
270.0
  0
ARC
  5
477
100
AcDbEntity
  8
RACCORDO
100
AcDbCircle
 62
7
  6
CONTINUOUS
 10
-26.272763602
 20
-86.615
 40
0.2
100
AcDbArc
 50
269.9999999999
 51
360.0
  0
ARC
  5
478
100
AcDbEntity
  8
RACCORDO
100
AcDbCircle
 62
7
  6
CONTINUOUS
 10
-37.727236398
 20
-86.615
 40
0.2
100
AcDbArc
 50
180.0
 51
270.0
  0
CIRCLE
  5
479
100
AcDbEntity
  8
ASSI
100
AcDbCircle
 62
7
  6
CONTINUOUS
 10
0.0
 20
1.185
 40
4.5
  0
ARC
  5
47A
100
AcDbEntity
  8
DRAFT
100
AcDbCircle
 62
7
  6
CONTINUOUS
 10
-3.0
 20
17.385
 40
1.5
100
AcDbArc
 50
90.0
 51
270.0
  0
ARC
  5
47B
100
AcDbEntity
  8
DRAFT
100
AcDbCircle
 62
7
  6
CONTINUOUS
 10
-3.0
 20
17.385
 40
1.492145819
100
AcDbArc
 50
90.0
 51
270.0
  0
ARC
  5
47C
100
AcDbEntity
  8
RACCORDO
100
AcDbCircle
 62
7
  6
CONTINUOUS
 10
-49.8675170872
 20
80.9860225843
 40
0.5000000003
100
AcDbArc
 50
100.9217387723
 51
179.9999804914
  0
ARC
  5
47D
100
AcDbEntity
  8
RACCORDO
100
AcDbCircle
 62
7
  6
CONTINUOUS
 10
6.65
 20
-211.910990667
 40
298.8
100
AcDbArc
 50
91.2752623652
 51
100.9216133911
  0
ARC
  5
47E
100
AcDbEntity
  8
RACCORDO
100
AcDbCircle
 62
7
  6
CONTINUOUS
 10
6.65
 20
-211.910990667
 40
298.785526258
100
AcDbArc
 50
91.2753241515
 51
100.7089291624
  0
ARC
  5
47F
100
AcDbEntity
  8
RACCORDO
100
AcDbCircle
 62
250
  6
CONTINUOUS
 10
6.65
 20
-211.910990667
 40
297.8400515372
100
AcDbArc
 50
91.2793732607
 51
99.7187225475
  0
ARC
  5
480
100
AcDbEntity
  8
RACCORDO
100
AcDbCircle
 62
250
  6
CONTINUOUS
 10
6.65
 20
-211.910990667
 40
297.4410259171
100
AcDbArc
 50
91.2810898623
 51
99.7187225475
  0
ARC
  5
481
100
AcDbEntity
  8
RACCORDO
100
AcDbCircle
 62
7
  6
CONTINUOUS
 10
6.65
 20
-212.340491827
 40
296.8
100
AcDbArc
 50
100.8790024096
 51
101.0735577434
  0
ARC
  5
482
100
AcDbEntity
  8
ASSI
100
AcDbCircle
 62
7
  6
CONTINUOUS
 10
6.65
 20
-212.340491827
 40
296.8
100
AcDbArc
 50
101.0735577434
 51
101.0758033327
  0
ARC
  5
483
100
AcDbEntity
  8
RACCORDO
100
AcDbCircle
 62
7
  6
CONTINUOUS
 10
49.1431811459
 20
-85.215
 40
0.5
100
AcDbArc
 50
270.0
 51
360.0
  0
ARC
  5
484
100
AcDbEntity
  8
DRAFT
100
AcDbCircle
 62
7
  6
CONTINUOUS
 10
3.0
 20
17.385
 40
1.5
100
AcDbArc
 50
270.0
 51
90.0
  0
ARC
  5
485
100
AcDbEntity
  8
DRAFT
100
AcDbCircle
 62
7
  6
CONTINUOUS
 10
3.0
 20
17.385
 40
1.492145819
100
AcDbArc
 50
270.0
 51
90.0
  0
ARC
  5
486
100
AcDbEntity
  8
RACCORDO
100
AcDbCircle
 62
7
  6
CONTINUOUS
 10
49.8675173124
 20
80.9860225261
 40
0.5000000003
100
AcDbArc
 50
0.0000181997
 51
79.0784150073
  0
ELLIPSE
  5
487
100
AcDbEntity
  8
DRAFT
100
AcDbEllipse
 62
7
  6
CONTINUOUS
 10
-43.6431811459
 20
-83.754855623
 30
0.0
 11
6.0
 21
-0.0
 31
0.0
 40
0.0174550649
 41
3.0477343621
 42
3.1415926594
  0
ELLIPSE
  5
488
100
AcDbEntity
  8
DRAFT
100
AcDbEllipse
 62
7
  6
CONTINUOUS
 10
43.6431811459
 20
-83.754855623
 30
0.0
 11
6.0
 21
-0.0
 31
0.0
 40
0.0174550649
 41
-0.0000000058
 42
0.0938582915
  0
ELLIPSE
  5
489
100
AcDbEntity
  8
RACCORDO
100
AcDbEllipse
 62
7
  6
CONTINUOUS
 10
-6.6965817344
 20
-84.715
 30
0.0
 11
-1.0038198375
 21
0.0
 31
0.0
 40
0.9961946981
 41
1.5707963268
 42
2.8035864266
  0
ELLIPSE
  5
48A
100
AcDbEntity
  8
RACCORDO
100
AcDbEllipse
 62
7
  6
CONTINUOUS
 10
-48.3230900812
 20
-85.215
 30
0.0
 11
-0.5019099188
 21
0.0
 31
0.0
 40
0.9961946981
 41
-0.0
 42
1.5707963268
  0
ELLIPSE
  5
48B
100
AcDbEntity
  8
RACCORDO
100
AcDbEllipse
 62
7
  6
CONTINUOUS
 10
48.3230900812
 20
-85.215
 30
0.0
 11
-0.5019099188
 21
0.0
 31
0.0
 40
0.9961946981
 41
1.5707963268
 42
3.1415926536
  0
ELLIPSE
  5
48C
100
AcDbEntity
  8
RACCORDO
100
AcDbEllipse
 62
7
  6
CONTINUOUS
 10
6.6965817344
 20
-84.715
 30
0.0
 11
-1.0038198375
 21
0.0
 31
0.0
 40
0.9961946981
 41
0.338006227
 42
1.5707963268
  0
ELLIPSE
  5
48D
100
AcDbEntity
  8
ASSI
100
AcDbEllipse
 62
7
  6
CONTINUOUS
 10
-0.3946430171
 20
-62.9464835288
 30
0.0
 11
0.0
 21
6.0
 31
0.0
 40
0.0087268678
 41
-3.7879821947
 42
-3.7594283804
  0
ELLIPSE
  5
48E
100
AcDbEntity
  8
ASSI
100
AcDbEllipse
 62
7
  6
CONTINUOUS
 10
-39.2287986637
 20
-81.3372461452
 30
0.0
 11
0.0
 21
1.0
 31
0.0
 40
0.0087268678
 41
-1.7376678183
 42
-1.5707963268
  0
ELLIPSE
  5
48F
100
AcDbEntity
  8
ASSI
100
AcDbEllipse
 62
7
  6
CONTINUOUS
 10
-27.7712013363
 20
-81.3372461452
 30
0.0
 11
0.0
 21
1.0
 31
0.0
 40
0.0087268678
 41
-4.7123889804
 42
-4.5455174889
  0
ELLIPSE
  5
490
100
AcDbEntity
  8
ASSI
100
AcDbEllipse
 62
7
  6
CONTINUOUS
 10
-25.8287986637
 20
-81.3372461452
 30
0.0
 11
0.0
 21
1.0
 31
0.0
 40
0.0087268678
 41
-1.7376678183
 42
-1.5707963268
  0
ELLIPSE
  5
491
100
AcDbEntity
  8
ASSI
100
AcDbEllipse
 62
7
  6
CONTINUOUS
 10
-14.3712013363
 20
-81.3372461452
 30
0.0
 11
0.0
 21
1.0
 31
0.0
 40
0.0087268678
 41
-4.7123889804
 42
-4.5455174889
  0
ELLIPSE
  5
492
100
AcDbEntity
  8
ASSI
100
AcDbEllipse
 62
7
  6
CONTINUOUS
 10
-12.4287986637
 20
-81.3372461452
 30
0.0
 11
0.0
 21
1.0
 31
0.0
 40
0.0087268678
 41
-1.7376678183
 42
-1.5707963268
  0
ELLIPSE
  5
493
100
AcDbEntity
  8
ASSI
100
AcDbEllipse
 62
7
  6
CONTINUOUS
 10
-0.9712013363
 20
-81.3372461452
 30
0.0
 11
0.0
 21
1.0
 31
0.0
 40
0.0087268678
 41
-4.7123889804
 42
-4.5455174889
  0
ELLIPSE
  5
494
100
AcDbEntity
  8
ASSI
100
AcDbEllipse
 62
7
  6
CONTINUOUS
 10
0.9712013363
 20
-81.3372461452
 30
0.0
 11
0.0
 21
1.0
 31
0.0
 40
0.0087268678
 41
-1.7376678183
 42
-1.5707963268
  0
ELLIPSE
  5
495
100
AcDbEntity
  8
ASSI
100
AcDbEllipse
 62
7
  6
CONTINUOUS
 10
12.4287986637
 20
-81.3372461452
 30
0.0
 11
-0.0
 21
1.0
 31
0.0
 40
0.0087268678
 41
-4.7123889804
 42
-4.5455174889
  0
ELLIPSE
  5
496
100
AcDbEntity
  8
ASSI
100
AcDbEllipse
 62
7
  6
CONTINUOUS
 10
14.3712013363
 20
-81.3372461452
 30
0.0
 11
0.0
 21
1.0
 31
0.0
 40
0.0087268678
 41
-1.7376678183
 42
-1.5707963268
  0
ELLIPSE
  5
497
100
AcDbEntity
  8
ASSI
100
AcDbEllipse
 62
7
  6
CONTINUOUS
 10
25.8287986637
 20
-81.3372461452
 30
0.0
 11
0.0
 21
1.0
 31
0.0
 40
0.0087268678
 41
-4.7123889804
 42
-4.5455174889
  0
ELLIPSE
  5
498
100
AcDbEntity
  8
ASSI
100
AcDbEllipse
 62
7
  6
CONTINUOUS
 10
27.7712013363
 20
-81.3372461452
 30
0.0
 11
0.0
 21
1.0
 31
0.0
 40
0.0087268678
 41
-1.7376678183
 42
-1.5707963268
  0
ELLIPSE
  5
499
100
AcDbEntity
  8
ASSI
100
AcDbEllipse
 62
7
  6
CONTINUOUS
 10
39.2287986637
 20
-81.3372461452
 30
0.0
 11
0.0
 21
1.0
 31
0.0
 40
0.0087268678
 41
-4.7123889804
 42
-4.5455174889
  0
ELLIPSE
  5
49A
100
AcDbEntity
  8
ASSI
100
AcDbEllipse
 62
7
  6
CONTINUOUS
 10
41.1712013363
 20
-81.3372461452
 30
0.0
 11
0.0
 21
1.0
 31
0.0
 40
0.0087268678
 41
-1.7376678183
 42
-1.5707963268
  0
ELLIPSE
  5
49B
100
AcDbEntity
  8
ASSI
100
AcDbEllipse
 62
7
  6
CONTINUOUS
 10
-41.1712013363
 20
-81.3372461452
 30
0.0
 11
0.0
 21
1.0
 31
0.0
 40
0.0087268678
 41
-4.7123889804
 42
-4.5455174889
  0
ELLIPSE
  5
49C
100
AcDbEntity
  8
RACCORDO
100
AcDbEllipse
 62
7
  6
CONTINUOUS
 10
-12.8075712487
 20
-52.2839664667
 30
0.0
 11
0.0134616226
 21
0.2066466614
 31
0.0
 40
0.9657885639
 41
1.6381450907
 42
3.204424387
  0
ELLIPSE
  5
49D
100
AcDbEntity
  8
RACCORDO
100
AcDbEllipse
 62
7
  6
CONTINUOUS
 10
-12.8075712487
 20
-46.8574287513
 30
0.0
 11
0.1414644378
 21
-0.1414644378
 31
0.0
 40
0.9996954599
 41
2.3563467834
 42
3.9268385237
  0
ELLIPSE
  5
49E
100
AcDbEntity
  8
RACCORDO
100
AcDbEllipse
 62
7
  6
CONTINUOUS
 10
12.8075712487
 20
-52.2839664667
 30
0.0
 11
-0.0134616226
 21
0.2066466614
 31
0.0
 40
0.9657885639
 41
3.0787609202
 42
4.6450402165
  0
ELLIPSE
  5
49F
100
AcDbEntity
  8
RACCORDO
100
AcDbEllipse
 62
7
  6
CONTINUOUS
 10
12.8075712487
 20
-46.8574287513
 30
0.0
 11
-0.1414644378
 21
-0.1414644378
 31
0.0
 40
0.9996954599
 41
2.3563467834
 42
3.9268385237
  0
ELLIPSE
  5
4A0
100
AcDbEntity
  8
RACCORDO
100
AcDbEllipse
 62
7
  6
CONTINUOUS
 10
-32.0
 20
-86.1917964366
 30
0.0
 11
6.5
 21
0.0
 31
0.0
 40
0.0087268678
 41
2.7217823855
 42
2.7973935442
  0
ELLIPSE
  5
4A1
100
AcDbEntity
  8
RACCORDO
100
AcDbEllipse
 62
7
  6
CONTINUOUS
 10
-37.8383999674
 20
-86.1730396328
 30
0.0
 11
0.5
 21
0.0
 31
0.0
 40
0.0087268678
 41
1.1912003564
 42
1.5707963268
  0
ELLIPSE
  5
4A2
100
AcDbEntity
  8
RACCORDO
100
AcDbEllipse
 62
7
  6
CONTINUOUS
 10
48.7080900845
 20
-84.514923836
 30
0.0
 11
-0.492283684
 21
0.0982166525
 31
0.0
 40
0.9960441251
 41
1.7684848362
 42
1.9343922034
  0
ELLIPSE
  5
4A3
100
AcDbEntity
  8
RACCORDO
100
AcDbEllipse
 62
7
  6
CONTINUOUS
 10
48.7080900845
 20
-84.514923836
 30
0.0
 11
-0.492283684
 21
0.0982166525
 31
0.0
 40
0.9960441251
 41
9.3722085316
 42
9.6209453921
  0
ELLIPSE
  5
4A4
100
AcDbEntity
  8
RACCORDO
100
AcDbEllipse
 62
7
  6
CONTINUOUS
 10
-48.7080900845
 20
-84.514923836
 30
0.0
 11
-0.492283684
 21
-0.0982166525
 31
0.0
 40
0.9960441251
 41
6.0870178758
 42
6.3359198052
  0
ELLIPSE
  5
4A5
100
AcDbEntity
  8
RACCORDO
100
AcDbEllipse
 62
7
  6
CONTINUOUS
 10
-48.7080900845
 20
-84.514923836
 30
0.0
 11
-0.492283684
 21
-0.0982166525
 31
0.0
 40
0.9960441251
 41
1.2974795739
 42
1.3731078174
  0
ELLIPSE
  5
4A6
100
AcDbEntity
  8
RACCORDO
100
AcDbEllipse
 62
7
  6
CONTINUOUS
 10
-40.7652906814
 20
-85.9149923843
 30
0.0
 11
-0.1985080898
 21
-0.0275010195
 31
0.0
 40
0.9979840155
 41
-0.1373882392
 42
1.43285947
  0
ELLIPSE
  5
4A7
100
AcDbEntity
  8
RACCORDO
100
AcDbEllipse
 62
7
  6
CONTINUOUS
 10
-38.3637632341
 20
-85.9149923843
 30
0.0
 11
0.1948210703
 21
-0.0458561136
 31
0.0
 40
0.9992753811
 41
-1.3394667998
 42
0.231006201
  0
ELLIPSE
  5
4A8
100
AcDbEntity
  8
RACCORDO
100
AcDbEllipse
 62
7
  6
CONTINUOUS
 10
-23.2347093186
 20
-85.9149923843
 30
0.0
 11
-0.1985080898
 21
0.0275010195
 31
0.0
 40
0.9979840155
 41
1.7087331836
 42
3.2789808928
  0
ENDSEC
  0
SECTION
  2
OBJECTS
  0
DICTIONARY
  5
C
100
AcDbDictionary
280
0
281
1
  3
ACAD_GROUP
350
D
  3
ACAD_MLINESTYLE
350
17
  3
ACAD_LAYOUT
350
1A
  3
ACAD_PLOTSETTINGS
350
19
  3
ACAD_PLOTSTYLENAME
350
E
  0
DICTIONARY
  5
D
102
{ACAD_REACTORS
330
C
102
}
100
AcDbDictionary
280
0
281
1
  0
ACDBDICTIONARYWDFLT
  5
E
102
{ACAD_REACTORS
330
C
102
}
100
AcDbDictionary
281
1
  3
Normal
350
F
100
AcDbDictionaryWithDefault
340
F
  0
DICTIONARY
  5
17
102
{ACAD_REACTORS
330
C
102
}
100
AcDbDictionary
280
0
281
1
  3
Standard
350
18
  0
DICTIONARY
  5
19
102
{ACAD_REACTORS
330
C
102
}
100
AcDbDictionary
281
1
  0
DICTIONARY
  5
1A
102
{ACAD_REACTORS
330
C
102
}
100
AcDbDictionary
281
1
  3
Model
350
4A9
  3
Layout1
350
4AA
  0
ACDBPLACEHOLDER
  5
F
102
{ACAD_REACTORS
330
E
102
}
  0
MLINESTYLE
  5
18
102
{ACAD_REACTORS
330
17
102
}
100
AcDbMlineStyle
  2
STANDARD
 70
0
  3

 62
256
 51
90.0
 52
90.0
 71
2
 49
0.5
 62
256
  6
BYLAYER
 49
-0.5
 62
256
  6
BYLAYER
  0
LAYOUT
  5
4A9
102
{ACAD_REACTORS
330
1A
102
}
100
AcDbPlotSettings
  1

  2
none_device
  4
ANSI_C_(22.00_x_17.00_Inches)
  6

 40
0.0
 41
0.0
 42
0.0
 43
0.0
 44
558.8
 45
431.8
 46
0.0
 47
0.0
 48
0.0
 49
0.0
140
0.0
141
0.0
142
1.0
143
1.0
 70
1024
 72
1
 73
0
 74
0
  7

 75
0
147
1.0
148
0.0
149
0.0
100
AcDbLayout
  1
Model
 70
0
 71
0
 10
0.0
 20
0.0
 11
558.8
 21
431.8
 12
0.0
 22
0.0
 32
0.0
 14
0.0
 24
0.0
 34
0.0
 15
0.0
 25
0.0
 35
0.0
146
0.0
 13
0.0
 23
0.0
 33
0.0
 16
1.0
 26
0.0
 36
0.0
 17
0.0
 27
1.0
 37
0.0
 76
0
330
25B
345
0
346
0
  0
LAYOUT
  5
4AA
102
{ACAD_REACTORS
330
1A
102
}
100
AcDbPlotSettings
  1

  2
none_device
  4
ANSI_C_(22.00_x_17.00_Inches)
  6

 40
0.0
 41
0.0
 42
0.0
 43
0.0
 44
558.8
 45
431.8
 46
0.0
 47
0.0
 48
0.0
 49
0.0
140
0.0
141
0.0
142
1.0
143
1.0
 70
0
 72
1
 73
0
 74
0
  7

 75
0
147
1.0
148
0.0
149
0.0
100
AcDbLayout
  1
Layout1
 70
0
 71
1
 10
0.0
 20
0.0
 11
558.8
 21
431.8
 12
0.0
 22
0.0
 32
0.0
 14
0.0
 24
0.0
 34
0.0
 15
0.0
 25
0.0
 35
0.0
146
0.0
 13
0.0
 23
0.0
 33
0.0
 16
1.0
 26
0.0
 36
0.0
 17
0.0
 27
1.0
 37
0.0
 76
0
330
25C
345
0
346
0
  0
ENDSEC
  0
EOF
