  0
SECTION
  2
HEADER
  9
$ACADVER
  1
AC1024
  9
$DWGCODEPAGE
  3
ANSI_1252
  9
$EXTMAX
 10
297.0
 20
210.0
 30
0.0
  9
$EXTMIN
 10
0.0
 20
0.0
 30
0.0
  9
$LIMMIN
 10
0.0
 20
0.0
  9
$LIMMAX
 10
297.0
 20
210.0
  9
$VIEWCTR
 10
148.5
 20
105.0
  9
$VIEWSIZE
 40
210.0
  9
$CLAYER
  8
0
  9
$LTSCALE
 40
16.335
  9
$CELTYPE
  6
BYLAYER
  9
$DIMSCALE
 40
1.0
  9
$DIMASZ
 40
3.0
  9
$DIMEXO
 40
0.5
  9
$DIMDLI
 40
11.286
  9
$DIMEXE
 40
1.5
  9
$DIMCEN
 40
2.673
  9
$DIMLFAC
 40
1.0
  9
$DIMBLK
  1
_FILLED
  9
$DIMALT
 70
0
  9
$DIMALTF
 40
0.0393700787
  9
$DIMTXT
 40
3.0
  9
$DIMTOL
 70
1
  9
$DIMLIM
 70
0
  9
$DIMTFAC
 40
1.0
  9
$DIMTP
 40
0.01
  9
$DIMTM
 40
0.01
  9
$DIMGAP
 40
0.625
  9
$DIMDSEP
 70
44
  9
$AUNITS
 70
0
  9
$PDMODE
 70
3
  9
$PDSIZE
 40
3.0
  9
$HANDSEED
  5
7CF
  9
$TILEMODE
 70
1
  9
$MEASUREMENT
 70
1
  9
$INSUNITS
 70
4
  0
ENDSEC
  0
SECTION
  2
CLASSES
  0
CLASS
  1
ACDBDICTIONARYWDFLT
  2
AcDbDictionaryWithDefault
  3
AutoCAD 2000
 90
0
 91
1
280
0
281
0
  0
CLASS
  1
ACDBPLACEHOLDER
  2
AcDbPlaceHolder
  3
AutoCAD 2000
 90
0
 91
1
280
0
281
0
  0
CLASS
  1
LAYOUT
  2
AcDbLayout
  3
AutoCAD 2000
 90
0
 91
0
280
0
281
0
  0
ENDSEC
  0
SECTION
  2
TABLES
  0
TABLE
  2
VPORT
  5
8
100
AcDbSymbolTable
 70
2
  0
VPORT
  5
1F4
100
AcDbSymbolTableRecord
100
AcDbViewportTableRecord
  2
*ACTIVE
 70
0
 10
0.0
 20
0.0
 11
1.0
 21
1.0
 12
148.5
 22
105.0
 13
0.0
 23
0.0
 14
1.0
 24
1.0
 15
0.0
 25
0.0
 16
0.0
 26
0.0
 36
1.0
 17
0.0
 27
0.0
 37
0.0
 40
210.0
 41
1.4142857143
 42
50.0
 43
0.0
 44
0.0
 50
0.0
 51
0.0
 71
0
 72
100
 73
1
 74
1
 75
0
 76
0
 77
0
 78
0
  0
ENDTAB
  0
TABLE
  2
LTYPE
  5
5
100
AcDbSymbolTable
 70
6
  0
LTYPE
  5
14
100
AcDbSymbolTableRecord
100
AcDbLinetypeTableRecord
  2
BYBLOCK
 70
0
  3

 72
65
 73
0
 40
0.0
  0
LTYPE
  5
15
100
AcDbSymbolTableRecord
100
AcDbLinetypeTableRecord
  2
BYLAYER
 70
0
  3

 72
65
 73
0
 40
0.0
  0
LTYPE
  5
16
100
AcDbSymbolTableRecord
100
AcDbLinetypeTableRecord
  2
CONTINUOUS
 70
64
  3
Solid line
 72
65
 73
0
 40
0.0
  0
LTYPE
  5
1F5
100
AcDbSymbolTableRecord
100
AcDbLinetypeTableRecord
  2
CENTER
 70
64
  3
____ _ ____ _ ____ _ ____ _ ____ _ ____ _ ____
 72
65
 73
4
 40
0.6
 49
0.375
 74
0
 49
-0.075
 74
0
 49
0.075
 74
0
 49
-0.075
 74
0
  0
LTYPE
  5
1F6
100
AcDbSymbolTableRecord
100
AcDbLinetypeTableRecord
  2
HIDDEN
 70
64
  3
- - - - - - - - - - - - - - - - - - - -
 72
65
 73
2
 40
0.2
 49
0.1
 74
0
 49
-0.1
 74
0
  0
LTYPE
  5
1F7
100
AcDbSymbolTableRecord
100
AcDbLinetypeTableRecord
  2
PHANTOM
 70
64
  3
_____ _ _ _____ _ _ _____ _ _ _____
 72
65
 73
6
 40
0.8
 49
0.45
 74
0
 49
-0.05
 74
0
 49
0.1
 74
0
 49
-0.05
 74
0
 49
0.1
 74
0
 49
-0.05
 74
0
  0
LTYPE
  5
1F8
100
AcDbSymbolTableRecord
100
AcDbLinetypeTableRecord
  2
DOT
 70
64
  3
. . . . . . . . . . . . . . . . . . . .
 72
65
 73
2
 40
0.2
 49
0.1
 74
0
 49
-0.1
 74
0
  0
LTYPE
  5
1F9
100
AcDbSymbolTableRecord
100
AcDbLinetypeTableRecord
  2
DASHED
 70
64
  3
- - - - - - - - - - - - - - - - - - - -
 72
65
 73
2
 40
0.2
 49
0.1
 74
0
 49
-0.1
 74
0
  0
ENDTAB
  0
TABLE
  2
LAYER
  5
2
100
AcDbSymbolTable
 70
36
  0
LAYER
  5
10
100
AcDbSymbolTableRecord
100
AcDbLayerTableRecord
  2
0
 70
0
 62
7
  6
CONTINUOUS
370
-3
390
F
  0
LAYER
  5
1FA
100
AcDbSymbolTableRecord
100
AcDbLayerTableRecord
  2
DEFAULT_1
 70
0
 62
7
  6
CENTER
370
-3
390
F
  0
LAYER
  5
1FB
100
AcDbSymbolTableRecord
100
AcDbLayerTableRecord
  2
DEFAULT_2
 70
0
 62
7
  6
HIDDEN
370
-3
390
F
  0
LAYER
  5
1FC
100
AcDbSymbolTableRecord
100
AcDbLayerTableRecord
  2
DEFAULT_3
 70
0
 62
7
  6
PHANTOM
370
-3
390
F
  0
LAYER
  5
1FD
100
AcDbSymbolTableRecord
100
AcDbLayerTableRecord
  2
218_INCISO
 70
0
 62
7
  6
CONTINUOUS
370
-3
390
F
  0
LAYER
  5
1FE
100
AcDbSymbolTableRecord
100
AcDbLayerTableRecord
  2
218_STAMPATO
 70
0
 62
7
  6
CONTINUOUS
370
-3
390
F
  0
LAYER
  5
1FF
100
AcDbSymbolTableRecord
100
AcDbLayerTableRecord
  2
260
 70
0
 62
7
  6
CONTINUOUS
370
-3
390
F
  0
LAYER
  5
200
100
AcDbSymbolTableRecord
100
AcDbLayerTableRecord
  2
268
 70
0
 62
7
  6
CONTINUOUS
370
-3
390
F
  0
LAYER
  5
201
100
AcDbSymbolTableRecord
100
AcDbLayerTableRecord
  2
284
 70
0
 62
7
  6
CONTINUOUS
370
-3
390
F
  0
LAYER
  5
202
100
AcDbSymbolTableRecord
100
AcDbLayerTableRecord
  2
320
 70
0
 62
7
  6
CONTINUOUS
370
-3
390
F
  0
LAYER
  5
203
100
AcDbSymbolTableRecord
100
AcDbLayerTableRecord
  2
340
 70
0
 62
7
  6
CONTINUOUS
370
-3
390
F
  0
LAYER
  5
204
100
AcDbSymbolTableRecord
100
AcDbLayerTableRecord
  2
712
 70
0
 62
7
  6
CONTINUOUS
370
-3
390
F
  0
LAYER
  5
205
100
AcDbSymbolTableRecord
100
AcDbLayerTableRecord
  2
715
 70
0
 62
7
  6
CONTINUOUS
370
-3
390
F
  0
LAYER
  5
206
100
AcDbSymbolTableRecord
100
AcDbLayerTableRecord
  2
ASSI
 70
0
 62
7
  6
CONTINUOUS
370
-3
390
F
  0
LAYER
  5
207
100
AcDbSymbolTableRecord
100
AcDbLayerTableRecord
  2
COLORE_TOP
 70
0
 62
7
  6
CONTINUOUS
370
-3
390
F
  0
LAYER
  5
208
100
AcDbSymbolTableRecord
100
AcDbLayerTableRecord
  2
COORDINATE
 70
0
 62
7
  6
CONTINUOUS
370
-3
390
F
  0
LAYER
  5
209
100
AcDbSymbolTableRecord
100
AcDbLayerTableRecord
  2
COORD_ORIGINE
 70
0
 62
7
  6
CONTINUOUS
370
-3
390
F
  0
LAYER
  5
20A
100
AcDbSymbolTableRecord
100
AcDbLayerTableRecord
  2
COPY-PUBBLISH
 70
0
 62
7
  6
CONTINUOUS
370
-3
390
F
  0
LAYER
  5
20B
100
AcDbSymbolTableRecord
100
AcDbLayerTableRecord
  2
COSMETICHE
 70
0
 62
7
  6
CONTINUOUS
370
-3
390
F
  0
LAYER
  5
20C
100
AcDbSymbolTableRecord
100
AcDbLayerTableRecord
  2
CURVA_CENTRALE
 70
0
 62
7
  6
CONTINUOUS
370
-3
390
F
  0
LAYER
  5
20D
100
AcDbSymbolTableRecord
100
AcDbLayerTableRecord
  2
CURVE
 70
0
 62
7
  6
CONTINUOUS
370
-3
390
F
  0
LAYER
  5
20E
100
AcDbSymbolTableRecord
100
AcDbLayerTableRecord
  2
DRAFT
 70
0
 62
7
  6
CONTINUOUS
370
-3
390
F
  0
LAYER
  5
20F
100
AcDbSymbolTableRecord
100
AcDbLayerTableRecord
  2
IGES
 70
0
 62
7
  6
CONTINUOUS
370
-3
390
F
  0
LAYER
  5
210
100
AcDbSymbolTableRecord
100
AcDbLayerTableRecord
  2
IMPORT
 70
0
 62
7
  6
CONTINUOUS
370
-3
390
F
  0
LAYER
  5
211
100
AcDbSymbolTableRecord
100
AcDbLayerTableRecord
  2
IMPORTED
 70
0
 62
7
  6
CONTINUOUS
370
-3
390
F
  0
LAYER
  5
212
100
AcDbSymbolTableRecord
100
AcDbLayerTableRecord
  2
INTF_1
 70
0
 62
7
  6
CONTINUOUS
370
-3
390
F
  0
LAYER
  5
213
100
AcDbSymbolTableRecord
100
AcDbLayerTableRecord
  2
INTF_11
 70
0
 62
7
  6
CONTINUOUS
370
-3
390
F
  0
LAYER
  5
214
100
AcDbSymbolTableRecord
100
AcDbLayerTableRecord
  2
INTF_2
 70
0
 62
7
  6
CONTINUOUS
370
-3
390
F
  0
LAYER
  5
215
100
AcDbSymbolTableRecord
100
AcDbLayerTableRecord
  2
INTF_5
 70
0
 62
7
  6
CONTINUOUS
370
-3
390
F
  0
LAYER
  5
216
100
AcDbSymbolTableRecord
100
AcDbLayerTableRecord
  2
INTF_6
 70
0
 62
7
  6
CONTINUOUS
370
-3
390
F
  0
LAYER
  5
217
100
AcDbSymbolTableRecord
100
AcDbLayerTableRecord
  2
INTF_CYAN
 70
0
 62
7
  6
CONTINUOUS
370
-3
390
F
  0
LAYER
  5
218
100
AcDbSymbolTableRecord
100
AcDbLayerTableRecord
  2
NOTE
 70
0
 62
7
  6
CONTINUOUS
370
-3
390
F
  0
LAYER
  5
219
100
AcDbSymbolTableRecord
100
AcDbLayerTableRecord
  2
PIANI
 70
0
 62
7
  6
CONTINUOUS
370
-3
390
F
  0
LAYER
  5
21A
100
AcDbSymbolTableRecord
100
AcDbLayerTableRecord
  2
PIANI_DI_RIFERIMENTO
 70
0
 62
7
  6
CONTINUOUS
370
-3
390
F
  0
LAYER
  5
21B
100
AcDbSymbolTableRecord
100
AcDbLayerTableRecord
  2
PIANI_ORIGINE
 70
0
 62
7
  6
CONTINUOUS
370
-3
390
F
  0
LAYER
  5
21C
100
AcDbSymbolTableRecord
100
AcDbLayerTableRecord
  2
PIANI_RIFERIMENTO
 70
0
 62
7
  6
CONTINUOUS
370
-3
390
F
  0
LAYER
  5
21D
100
AcDbSymbolTableRecord
100
AcDbLayerTableRecord
  2
PIANI_SFORMO
 70
0
 62
7
  6
CONTINUOUS
370
-3
390
F
  0
LAYER
  5
21E
100
AcDbSymbolTableRecord
100
AcDbLayerTableRecord
  2
PUNTI
 70
0
 62
7
  6
CONTINUOUS
370
-3
390
F
  0
LAYER
  5
21F
100
AcDbSymbolTableRecord
100
AcDbLayerTableRecord
  2
RACCORDO
 70
0
 62
7
  6
CONTINUOUS
370
-3
390
F
  0
LAYER
  5
220
100
AcDbSymbolTableRecord
100
AcDbLayerTableRecord
  2
RGB__255__255__255__
 70
0
 62
7
  6
CONTINUOUS
370
-3
390
F
  0
LAYER
  5
221
100
AcDbSymbolTableRecord
100
AcDbLayerTableRecord
  2
RGB____0____0____0__
 70
0
 62
7
  6
CONTINUOUS
370
-3
390
F
  0
LAYER
  5
222
100
AcDbSymbolTableRecord
100
AcDbLayerTableRecord
  2
RINTRACCIABILITA
 70
0
 62
7
  6
CONTINUOUS
370
-3
390
F
  0
LAYER
  5
223
100
AcDbSymbolTableRecord
100
AcDbLayerTableRecord
  2
SMUSSO
 70
0
 62
7
  6
CONTINUOUS
370
-3
390
F
  0
LAYER
  5
224
100
AcDbSymbolTableRecord
100
AcDbLayerTableRecord
  2
SNAPLINE
 70
0
 62
7
  6
CONTINUOUS
370
-3
390
F
  0
LAYER
  5
225
100
AcDbSymbolTableRecord
100
AcDbLayerTableRecord
  2
SUPERFICI
 70
0
 62
7
  6
CONTINUOUS
370
-3
390
F
  0
LAYER
  5
226
100
AcDbSymbolTableRecord
100
AcDbLayerTableRecord
  2
TRASH
 70
0
 62
7
  6
CONTINUOUS
370
-3
390
F
  0
LAYER
  5
227
100
AcDbSymbolTableRecord
100
AcDbLayerTableRecord
  2
WHITE
 70
0
 62
7
  6
CONTINUOUS
370
-3
390
F
  0
LAYER
  5
228
100
AcDbSymbolTableRecord
100
AcDbLayerTableRecord
  2
XSEC_DATUMS
 70
0
 62
7
  6
CONTINUOUS
370
-3
390
F
  0
ENDTAB
  0
TABLE
  2
STYLE
  5
3
100
AcDbSymbolTable
 70
1
  0
STYLE
  5
11
100
AcDbSymbolTableRecord
100
AcDbTextStyleTableRecord
  2
STANDARD
 70
0
 40
0.0
 41
0.8
 50
0.0
 71
0
 42
0.2
  3
txt
  4

  0
STYLE
  5
229
100
AcDbSymbolTableRecord
100
AcDbTextStyleTableRecord
  2
TEXTSTYLE_1
 70
0
 40
0.0
 41
0.8
 50
0.0
 71
0
 42
0.2
  3
gdt
  4

  0
ENDTAB
  0
TABLE
  2
VIEW
  5
6
100
AcDbSymbolTable
 70
0
  0
ENDTAB
  0
TABLE
  2
UCS
  5
7
100
AcDbSymbolTable
 70
0
  0
ENDTAB
  0
TABLE
  2
APPID
  5
9
100
AcDbSymbolTable
 70
1
  0
APPID
  5
22A
100
AcDbSymbolTableRecord
100
AcDbRegAppTableRecord
  2
ACAD
 70
0
  0
ENDTAB
  0
TABLE
  2
BLOCK_RECORD
  5
1
100
AcDbSymbolTable
 70
0
  0
BLOCK_RECORD
  5
22B
100
AcDbSymbolTableRecord
100
AcDbBlockTableRecord
  2
*Model_Space
  0
BLOCK_RECORD
  5
22C
100
AcDbSymbolTableRecord
100
AcDbBlockTableRecord
  2
*Paper_Space
  0
BLOCK_RECORD
  5
22D
100
AcDbSymbolTableRecord
100
AcDbBlockTableRecord
  2
_FILLED
  0
ENDTAB
  0
TABLE
  2
DIMSTYLE
  5
A
100
AcDbSymbolTable
 70
1
100
AcDbDimStyleTable
 71
0
  0
DIMSTYLE
105
22E
100
AcDbSymbolTableRecord
100
AcDbDimStyleTableRecord
  2
STANDARD
 70
0
  3

  4

 40
1.0
 41
3.0
 42
0.5
 43
0.38
 44
1.5
 45
0.0
 46
0.0
 47
0.01
 48
0.01
140
3.0
141
0.09
142
0.0
143
25.4
144
1.0
145
0.0
146
1.0
147
0.625
 71
1.0
 72
0.0
 73
0
 74
0
 75
0
 76
0
 77
1
 78
8
 79
2
170
0
171
1
172
0
173
0
174
0
175
0
176
0
177
0
178
0
270
2
179
2
271
2
272
2
273
2
274
2
275
0
280
0
281
0
282
0
283
1
284
8
285
0
286
0
287
3
288
0
340
11
278
44
341
22D
342
22D
343
22D
344
22D
  0
ENDTAB
  0
ENDSEC
  0
SECTION
  2
BLOCKS
  0
BLOCK
  5
20
100
AcDbEntity
  8
0
100
AcDbBlockBegin
  2
*Model_Space
 70
0
 10
0.0
 20
0.0
 30
0.0
  3
*Model_Space
  1

  0
ENDBLK
  5
21
100
AcDbEntity
  8
0
100
AcDbBlockEnd
  0
BLOCK
  5
1C
100
AcDbEntity
  8
0
100
AcDbBlockBegin
  2
*Paper_Space
 70
0
 10
0.0
 20
0.0
 30
0.0
  3
*Paper_Space
  1

  0
ENDBLK
  5
1D
100
AcDbEntity
  8
0
100
AcDbBlockEnd
  0
BLOCK
  5
22F
100
AcDbEntity
  8
0
100
AcDbBlockBegin
  2
_FILLED
 70
64
 10
0.0
 20
0.0
  3
_FILLED
  1

  0
SOLID
  5
230
100
AcDbEntity
  8
0
  6
BYBLOCK
 62
0
100
AcDbTrace
 10
0.0
 20
0.0
 11
-1.0
 21
0.3166666667
 12
-1.0
 22
-0.3166666667
 13
-1.0
 23
-0.3166666667
  0
ENDBLK
  5
231
100
AcDbEntity
  8
0
  6
BYBLOCK
 62
0
100
AcDbBlockEnd
  0
ENDSEC
  0
SECTION
  2
ENTITIES
  0
LINE
  5
232
100
AcDbEntity
  8
268
100
AcDbLine
 62
7
  6
CONTINUOUS
 10
-10.6
 20
-24.4
 11
-8.3
 21
-24.4
  0
LINE
  5
233
100
AcDbEntity
  8
268
100
AcDbLine
 62
7
  6
CONTINUOUS
 10
8.3
 20
-24.4
 11
10.6
 21
-24.4
  0
LINE
  5
234
100
AcDbEntity
  8
268
100
AcDbLine
 62
250
  6
CONTINUOUS
 10
-10.595628166
 20
-24.395628166
 11
-8.304371834
 21
-24.395628166
  0
LINE
  5
235
100
AcDbEntity
  8
268
100
AcDbLine
 62
250
  6
CONTINUOUS
 10
8.304371834
 20
-24.395628166
 11
10.595628166
 21
-24.395628166
  0
LINE
  5
236
100
AcDbEntity
  8
268
100
AcDbLine
 62
250
  6
CONTINUOUS
 10
-10.5941821702
 20
-24.1456323968
 11
-8.3058178298
 21
-24.1456323968
  0
LINE
  5
237
100
AcDbEntity
  8
268
100
AcDbLine
 62
250
  6
CONTINUOUS
 10
8.3058178298
 20
-24.1456323968
 11
10.5941821702
 21
-24.1456323968
  0
LINE
  5
238
100
AcDbEntity
  8
268
100
AcDbLine
 62
250
  6
CONTINUOUS
 10
10.5941821702
 20
-23.8443375673
 11
8.3058178298
 21
-23.8443375673
  0
LINE
  5
239
100
AcDbEntity
  8
268
100
AcDbLine
 62
250
  6
CONTINUOUS
 10
-8.3058178298
 20
-23.8443375673
 11
-10.5941821702
 21
-23.8443375673
  0
LINE
  5
23A
100
AcDbEntity
  8
268
100
AcDbLine
 62
7
  6
CONTINUOUS
 10
-4.4
 20
-23.8
 11
4.4
 21
-23.8
  0
LINE
  5
23B
100
AcDbEntity
  8
268
100
AcDbLine
 62
7
  6
CONTINUOUS
 10
-3.5
 20
-23.7941821702
 11
3.5
 21
-23.7941821702
  0
LINE
  5
23C
100
AcDbEntity
  8
268
100
AcDbLine
 62
7
  6
CONTINUOUS
 10
-4.0551976334
 20
-23.7534573615
 11
-3.8
 21
-23.7534573615
  0
LINE
  5
23D
100
AcDbEntity
  8
268
100
AcDbLine
 62
7
  6
CONTINUOUS
 10
3.8
 20
-23.7534573615
 11
4.0551976334
 21
-23.7534573615
  0
LINE
  5
23E
100
AcDbEntity
  8
268
100
AcDbLine
 62
250
  6
CONTINUOUS
 10
10.5949093989
 20
-23.6278312164
 11
8.3050906011
 21
-23.6278312164
  0
LINE
  5
23F
100
AcDbEntity
  8
268
100
AcDbLine
 62
250
  6
CONTINUOUS
 10
-8.3050906011
 20
-23.6278312164
 11
-10.5949093989
 21
-23.6278312164
  0
LINE
  5
240
100
AcDbEntity
  8
268
100
AcDbLine
 62
7
  6
CONTINUOUS
 10
-8.3
 20
24.4
 11
-8.304371834
 21
24.395628166
  0
LINE
  5
241
100
AcDbEntity
  8
268
100
AcDbLine
 62
250
  6
CONTINUOUS
 10
10.5992727713
 20
-23.1948185145
 11
8.3007272287
 21
-23.1948185145
  0
LINE
  5
242
100
AcDbEntity
  8
268
100
AcDbLine
 62
250
  6
CONTINUOUS
 10
-8.3007272287
 20
-23.1948185145
 11
-10.5992727713
 21
-23.1948185145
  0
LINE
  5
243
100
AcDbEntity
  8
268
100
AcDbLine
 62
250
  6
CONTINUOUS
 10
10.6
 20
-22.9783121635
 11
8.3
 21
-22.9783121635
  0
LINE
  5
244
100
AcDbEntity
  8
268
100
AcDbLine
 62
250
  6
CONTINUOUS
 10
-8.3
 20
-22.9783121635
 11
-10.6
 21
-22.9783121635
  0
LINE
  5
245
100
AcDbEntity
  8
268
100
AcDbLine
 62
7
  6
CONTINUOUS
 10
-10.8
 20
-22.4
 11
-4.4
 21
-22.4
  0
LINE
  5
246
100
AcDbEntity
  8
268
100
AcDbLine
 62
7
  6
CONTINUOUS
 10
4.4
 20
-22.4
 11
10.8
 21
-22.4
  0
LINE
  5
247
100
AcDbEntity
  8
268
100
AcDbLine
 62
7
  6
CONTINUOUS
 10
10.8
 20
-22.3912731322
 11
7.134451376
 21
-22.3912731322
  0
LINE
  5
248
100
AcDbEntity
  8
268
100
AcDbLine
 62
7
  6
CONTINUOUS
 10
-7.134451376
 20
-22.3912731322
 11
-10.8
 21
-22.3912731322
  0
LINE
  5
249
100
AcDbEntity
  8
268
100
AcDbLine
 62
7
  6
CONTINUOUS
 10
-3.5
 20
-22.3380392387
 11
-3.0
 21
-22.3380392387
  0
LINE
  5
24A
100
AcDbEntity
  8
268
100
AcDbLine
 62
7
  6
CONTINUOUS
 10
3.0
 20
-22.3380392387
 11
3.5
 21
-22.3380392387
  0
LINE
  5
24B
100
AcDbEntity
  8
268
100
AcDbLine
 62
7
  6
CONTINUOUS
 10
-4.0551976334
 20
-22.3301850577
 11
-3.8
 21
-22.3301850577
  0
LINE
  5
24C
100
AcDbEntity
  8
268
100
AcDbLine
 62
7
  6
CONTINUOUS
 10
3.8
 20
-22.3301850577
 11
4.0551976334
 21
-22.3301850577
  0
LINE
  5
24D
100
AcDbEntity
  8
268
100
AcDbLine
 62
250
  6
CONTINUOUS
 10
-7.2130693414
 20
-22.3126551668
 11
-3.0
 21
-22.3126551668
  0
LINE
  5
24E
100
AcDbEntity
  8
268
100
AcDbLine
 62
250
  6
CONTINUOUS
 10
3.0
 20
-22.3126551668
 11
7.2130693414
 21
-22.3126551668
  0
LINE
  5
24F
100
AcDbEntity
  8
268
100
AcDbLine
 62
7
  6
CONTINUOUS
 10
3.0
 20
-21.7
 11
-3.0
 21
-21.7
  0
LINE
  5
250
100
AcDbEntity
  8
268
100
AcDbLine
 62
7
  6
CONTINUOUS
 10
-8.3
 20
-24.4
 11
-8.304371834
 21
-24.395628166
  0
LINE
  5
251
100
AcDbEntity
  8
218_STAMPATO
100
AcDbLine
 62
7
  6
CONTINUOUS
 10
-8.8
 20
20.85
 11
-10.5643027805
 21
19.0856972195
  0
LINE
  5
252
100
AcDbEntity
  8
268
100
AcDbLine
 62
7
  6
CONTINUOUS
 10
-8.1620863359
 20
21.4879136641
 11
-7.346606257
 21
22.303393743
  0
LINE
  5
253
100
AcDbEntity
  8
268
100
AcDbLine
 62
250
  6
CONTINUOUS
 10
-7.134451376
 20
22.3912731322
 11
-7.2130693414
 21
22.3126551668
  0
LINE
  5
254
100
AcDbEntity
  8
268
100
AcDbLine
 62
250
  6
CONTINUOUS
 10
-8.25
 20
21.2756902398
 11
-8.0805944803
 21
21.4450957595
  0
LINE
  5
255
100
AcDbEntity
  8
218_STAMPATO
100
AcDbLine
 62
7
  6
CONTINUOUS
 10
-10.0850175454
 20
19.3181305591
 11
-8.5531481045
 21
20.85
  0
LINE
  5
256
100
AcDbEntity
  8
218_STAMPATO
100
AcDbLine
 62
250
  6
CONTINUOUS
 10
-10.3667559139
 20
19.0038706282
 11
-10.0754922003
 21
19.2951343418
  0
LINE
  5
257
100
AcDbEntity
  8
218_STAMPATO
100
AcDbLine
 62
250
  6
CONTINUOUS
 10
-9.6597568285
 20
18.2968715428
 11
-9.3684931149
 21
18.5881352564
  0
LINE
  5
258
100
AcDbEntity
  8
268
100
AcDbLine
 62
250
  6
CONTINUOUS
 10
-7.7806401718
 20
-21.3126932437
 11
-3.0
 21
-21.3126932437
  0
LINE
  5
259
100
AcDbEntity
  8
268
100
AcDbLine
 62
250
  6
CONTINUOUS
 10
3.0
 20
-21.3126932437
 11
7.7806401718
 21
-21.3126932437
  0
LINE
  5
25A
100
AcDbEntity
  8
268
100
AcDbLine
 62
250
  6
CONTINUOUS
 10
-8.25
 20
-21.2
 11
-8.0805944803
 21
-21.2
  0
LINE
  5
25B
100
AcDbEntity
  8
268
100
AcDbLine
 62
250
  6
CONTINUOUS
 10
8.25
 20
-21.2
 11
8.0805944803
 21
-21.2
  0
LINE
  5
25C
100
AcDbEntity
  8
268
100
AcDbLine
 62
7
  6
CONTINUOUS
 10
-3.0
 20
-21.0
 11
3.0
 21
-21.0
  0
LINE
  5
25D
100
AcDbEntity
  8
268
100
AcDbLine
 62
7
  6
CONTINUOUS
 10
-7.9499543016
 20
-20.9
 11
-7.7806401718
 21
-20.9
  0
LINE
  5
25E
100
AcDbEntity
  8
268
100
AcDbLine
 62
7
  6
CONTINUOUS
 10
7.9499543016
 20
-20.9
 11
7.7806401718
 21
-20.9
  0
LINE
  5
25F
100
AcDbEntity
  8
268
100
AcDbLine
 62
7
  6
CONTINUOUS
 10
7.7754036523
 20
-20.9
 11
6.9153379589
 21
-20.9
  0
LINE
  5
260
100
AcDbEntity
  8
268
100
AcDbLine
 62
7
  6
CONTINUOUS
 10
-6.9153379589
 20
-20.9
 11
-7.7754036523
 21
-20.9
  0
LINE
  5
261
100
AcDbEntity
  8
218_STAMPATO
100
AcDbLine
 62
7
  6
CONTINUOUS
 10
7.4
 20
-20.85
 11
8.8
 21
-20.85
  0
LINE
  5
262
100
AcDbEntity
  8
218_STAMPATO
100
AcDbLine
 62
7
  6
CONTINUOUS
 10
-7.4
 20
-20.85
 11
-8.8
 21
-20.85
  0
LINE
  5
263
100
AcDbEntity
  8
268
100
AcDbLine
 62
7
  6
CONTINUOUS
 10
8.9
 20
-20.75
 11
9.75
 21
-20.75
  0
LINE
  5
264
100
AcDbEntity
  8
268
100
AcDbLine
 62
7
  6
CONTINUOUS
 10
-8.9
 20
-20.75
 11
-9.75
 21
-20.75
  0
LINE
  5
265
100
AcDbEntity
  8
268
100
AcDbLine
 62
7
  6
CONTINUOUS
 10
6.35
 20
-20.0872686779
 11
-6.35
 21
-20.0872686779
  0
LINE
  5
266
100
AcDbEntity
  8
268
100
AcDbLine
 62
7
  6
CONTINUOUS
 10
-3.5
 20
-20.0532338935
 11
-2.4413111231
 21
-20.0532338935
  0
LINE
  5
267
100
AcDbEntity
  8
268
100
AcDbLine
 62
7
  6
CONTINUOUS
 10
2.4413111231
 20
-20.0532338935
 11
3.5
 21
-20.0532338935
  0
LINE
  5
268
100
AcDbEntity
  8
268
100
AcDbLine
 62
7
  6
CONTINUOUS
 10
-6.05
 20
-20.0
 11
-3.5
 21
-20.0
  0
LINE
  5
269
100
AcDbEntity
  8
268
100
AcDbLine
 62
7
  6
CONTINUOUS
 10
3.5
 20
-20.0
 11
6.05
 21
-20.0
  0
LINE
  5
26A
100
AcDbEntity
  8
268
100
AcDbLine
 62
250
  6
CONTINUOUS
 10
6.05
 20
-20.0
 11
7.3
 21
-20.0
  0
LINE
  5
26B
100
AcDbEntity
  8
268
100
AcDbLine
 62
250
  6
CONTINUOUS
 10
-6.05
 20
-20.0
 11
-7.3
 21
-20.0
  0
LINE
  5
26C
100
AcDbEntity
  8
218_STAMPATO
100
AcDbLine
 62
7
  6
CONTINUOUS
 10
-5.75
 20
-19.9
 11
-3.4
 21
-19.9
  0
LINE
  5
26D
100
AcDbEntity
  8
218_STAMPATO
100
AcDbLine
 62
7
  6
CONTINUOUS
 10
3.4
 20
-19.9
 11
5.75
 21
-19.9
  0
LINE
  5
26E
100
AcDbEntity
  8
218_STAMPATO
100
AcDbLine
 62
7
  6
CONTINUOUS
 10
-2.4015242349
 20
-19.8844866796
 11
2.4015242349
 21
-19.8844866796
  0
LINE
  5
26F
100
AcDbEntity
  8
218_STAMPATO
100
AcDbLine
 62
7
  6
CONTINUOUS
 10
-5.6609791689
 20
-19.8109791689
 11
5.6609791689
 21
-19.8109791689
  0
LINE
  5
270
100
AcDbEntity
  8
218_STAMPATO
100
AcDbLine
 62
7
  6
CONTINUOUS
 10
-7.4
 20
-19.7
 11
-6.9572269243
 21
-19.7
  0
LINE
  5
271
100
AcDbEntity
  8
218_STAMPATO
100
AcDbLine
 62
7
  6
CONTINUOUS
 10
-6.35
 20
-19.7
 11
-5.75
 21
-19.7
  0
LINE
  5
272
100
AcDbEntity
  8
218_STAMPATO
100
AcDbLine
 62
7
  6
CONTINUOUS
 10
5.75
 20
-19.7
 11
6.35
 21
-19.7
  0
LINE
  5
273
100
AcDbEntity
  8
268
100
AcDbLine
 62
7
  6
CONTINUOUS
 10
6.35
 20
-19.7
 11
6.9572269243
 21
-19.7
  0
LINE
  5
274
100
AcDbEntity
  8
268
100
AcDbLine
 62
7
  6
CONTINUOUS
 10
-6.35
 20
-19.7
 11
-6.9572269243
 21
-19.7
  0
LINE
  5
275
100
AcDbEntity
  8
218_STAMPATO
100
AcDbLine
 62
7
  6
CONTINUOUS
 10
6.9572269243
 20
-19.7
 11
7.4
 21
-19.7
  0
LINE
  5
276
100
AcDbEntity
  8
218_STAMPATO
100
AcDbLine
 62
7
  6
CONTINUOUS
 10
-10.5643027805
 20
-19.0856972195
 11
-8.8
 21
-20.85
  0
LINE
  5
277
100
AcDbEntity
  8
268
100
AcDbLine
 62
7
  6
CONTINUOUS
 10
-7.346606257
 20
-22.303393743
 11
-8.1620863359
 21
-21.4879136641
  0
LINE
  5
278
100
AcDbEntity
  8
268
100
AcDbLine
 62
250
  6
CONTINUOUS
 10
-7.134451376
 20
-22.3912731322
 11
-7.2130693414
 21
-22.3126551668
  0
LINE
  5
279
100
AcDbEntity
  8
268
100
AcDbLine
 62
250
  6
CONTINUOUS
 10
-8.25
 20
-21.2756902398
 11
-8.0805944803
 21
-21.4450957595
  0
LINE
  5
27A
100
AcDbEntity
  8
218_STAMPATO
100
AcDbLine
 62
7
  6
CONTINUOUS
 10
-8.5531481045
 20
-20.85
 11
-10.0850175454
 21
-19.3181305591
  0
LINE
  5
27B
100
AcDbEntity
  8
218_STAMPATO
100
AcDbLine
 62
250
  6
CONTINUOUS
 10
-10.0053599914
 20
-19.125820212
 11
-10.1974417841
 21
-18.9337384193
  0
LINE
  5
27C
100
AcDbEntity
  8
218_STAMPATO
100
AcDbLine
 62
7
  6
CONTINUOUS
 10
-7.4
 20
19.7
 11
-7.4890208311
 21
19.6109791689
  0
LINE
  5
27D
100
AcDbEntity
  8
218_STAMPATO
100
AcDbLine
 62
7
  6
CONTINUOUS
 10
9.37801846
 20
-19.6109791689
 11
7.4890208311
 21
-19.6109791689
  0
LINE
  5
27E
100
AcDbEntity
  8
218_STAMPATO
100
AcDbLine
 62
7
  6
CONTINUOUS
 10
-5.6609791689
 20
-19.6109791689
 11
5.6609791689
 21
-19.6109791689
  0
LINE
  5
27F
100
AcDbEntity
  8
218_STAMPATO
100
AcDbLine
 62
7
  6
CONTINUOUS
 10
-7.4890208311
 20
-19.6109791689
 11
-9.37801846
 21
-19.6109791689
  0
LINE
  5
280
100
AcDbEntity
  8
218_STAMPATO
100
AcDbLine
 62
250
  6
CONTINUOUS
 10
1.9545633653
 20
-19.4186688218
 11
-1.9545633653
 21
-19.4186688218
  0
LINE
  5
281
100
AcDbEntity
  8
218_STAMPATO
100
AcDbLine
 62
250
  6
CONTINUOUS
 10
8.5454366347
 20
-19.4186688218
 11
9.298360906
 21
-19.4186688218
  0
LINE
  5
282
100
AcDbEntity
  8
218_STAMPATO
100
AcDbLine
 62
250
  6
CONTINUOUS
 10
-8.5454366347
 20
-19.4186688218
 11
-9.298360906
 21
-19.4186688218
  0
LINE
  5
283
100
AcDbEntity
  8
218_STAMPATO
100
AcDbLine
 62
7
  6
CONTINUOUS
 10
-8.052390511
 20
-18.55
 11
-2.447609489
 21
-18.55
  0
LINE
  5
284
100
AcDbEntity
  8
218_STAMPATO
100
AcDbLine
 62
7
  6
CONTINUOUS
 10
2.447609489
 20
-18.55
 11
8.052390511
 21
-18.55
  0
LINE
  5
285
100
AcDbEntity
  8
218_STAMPATO
100
AcDbLine
 62
250
  6
CONTINUOUS
 10
2.4475340777
 20
-18.4188211266
 11
-2.4475340777
 21
-18.4188211266
  0
LINE
  5
286
100
AcDbEntity
  8
218_STAMPATO
100
AcDbLine
 62
250
  6
CONTINUOUS
 10
8.0524659223
 20
-18.4188211266
 11
9.298360906
 21
-18.4188211266
  0
LINE
  5
287
100
AcDbEntity
  8
218_STAMPATO
100
AcDbLine
 62
250
  6
CONTINUOUS
 10
-8.0524659223
 20
-18.4188211266
 11
-9.298360906
 21
-18.4188211266
  0
LINE
  5
288
100
AcDbEntity
  8
218_STAMPATO
100
AcDbLine
 62
7
  6
CONTINUOUS
 10
8.0524659223
 20
-18.0412732553
 11
2.4475340777
 21
-18.0412732553
  0
LINE
  5
289
100
AcDbEntity
  8
218_STAMPATO
100
AcDbLine
 62
7
  6
CONTINUOUS
 10
-2.4475340777
 20
-18.0412732553
 11
-8.0524659223
 21
-18.0412732553
  0
LINE
  5
28A
100
AcDbEntity
  8
218_STAMPATO
100
AcDbLine
 62
7
  6
CONTINUOUS
 10
-8.0524659223
 20
-18.0412732553
 11
-7.9998952884
 21
-18.0763198503
  0
LINE
  5
28B
100
AcDbEntity
  8
218_STAMPATO
100
AcDbLine
 62
250
  6
CONTINUOUS
 10
-9.298360906
 20
-18.4188211266
 11
-9.4904426987
 21
-18.2267393339
  0
LINE
  5
28C
100
AcDbEntity
  8
218_STAMPATO
100
AcDbLine
 62
7
  6
CONTINUOUS
 10
-7.4
 20
-19.7
 11
-7.4890208311
 21
-19.6109791689
  0
LINE
  5
28D
100
AcDbEntity
  8
218_STAMPATO
100
AcDbLine
 62
7
  6
CONTINUOUS
 10
-6.8999676142
 20
16.3831265382
 11
-6.9822600513
 21
16.2993831668
  0
LINE
  5
28E
100
AcDbEntity
  8
218_STAMPATO
100
AcDbLine
 62
7
  6
CONTINUOUS
 10
-3.4
 20
19.9
 11
-3.3991663033
 21
19.9008336967
  0
LINE
  5
28F
100
AcDbEntity
  8
218_STAMPATO
100
AcDbLine
 62
7
  6
CONTINUOUS
 10
-5.9624996185
 20
-17.8
 11
-4.5374996185
 21
-17.8
  0
LINE
  5
290
100
AcDbEntity
  8
218_STAMPATO
100
AcDbLine
 62
7
  6
CONTINUOUS
 10
5.2500000477
 20
-17.8
 11
5.4875000477
 21
-17.8
  0
LINE
  5
291
100
AcDbEntity
  8
218_STAMPATO
100
AcDbLine
 62
7
  6
CONTINUOUS
 10
-4.5374996185
 20
-17.5978723362
 11
-5.6458329424
 21
-17.5978723362
  0
LINE
  5
292
100
AcDbEntity
  8
218_STAMPATO
100
AcDbLine
 62
250
  6
CONTINUOUS
 10
-10.7831390036
 20
-17.5197402485
 11
-9.7832913085
 21
-17.5197402485
  0
LINE
  5
293
100
AcDbEntity
  8
218_STAMPATO
100
AcDbLine
 62
7
  6
CONTINUOUS
 10
-5.922916284
 20
-16.3446807981
 11
-5.7249996185
 21
-16.3446807981
  0
LINE
  5
294
100
AcDbEntity
  8
218_STAMPATO
100
AcDbLine
 62
7
  6
CONTINUOUS
 10
-5.3291662663
 20
-16.1021276355
 11
-5.1708329707
 21
-16.1021276355
  0
LINE
  5
295
100
AcDbEntity
  8
218_STAMPATO
100
AcDbLine
 62
7
  6
CONTINUOUS
 10
-4.8937496185
 20
-15.9404255271
 11
-5.1312496185
 21
-15.9
  0
LINE
  5
296
100
AcDbEntity
  8
218_STAMPATO
100
AcDbLine
 62
7
  6
CONTINUOUS
 10
-5.1708329707
 20
-16.1021276355
 11
-4.9729163229
 21
-16.1425531626
  0
LINE
  5
297
100
AcDbEntity
  8
218_STAMPATO
100
AcDbLine
 62
7
  6
CONTINUOUS
 10
-4.7354163229
 20
-16.0212765813
 11
-4.8937496185
 21
-15.9404255271
  0
LINE
  5
298
100
AcDbEntity
  8
218_STAMPATO
100
AcDbLine
 62
7
  6
CONTINUOUS
 10
-4.9729163229
 20
-16.1425531626
 11
-4.8541663229
 21
-16.2234042168
  0
LINE
  5
299
100
AcDbEntity
  8
218_STAMPATO
100
AcDbLine
 62
7
  6
CONTINUOUS
 10
-3.4
 20
-19.9
 11
-3.3991663033
 21
-19.9008336967
  0
LINE
  5
29A
100
AcDbEntity
  8
715
100
AcDbLine
 62
7
  6
CONTINUOUS
 10
8.4078130218
 20
-13.5988103359
 11
8.1177219673
 21
-13.6721540002
  0
LINE
  5
29B
100
AcDbEntity
  8
715
100
AcDbLine
 62
7
  6
CONTINUOUS
 10
8.0961651585
 20
-13.6776042039
 11
7.4909314736
 21
-13.8306253176
  0
LINE
  5
29C
100
AcDbEntity
  8
218_STAMPATO
100
AcDbLine
 62
7
  6
CONTINUOUS
 10
-5.5270829424
 20
-16.1425531626
 11
-5.3291662663
 21
-16.1021276355
  0
LINE
  5
29D
100
AcDbEntity
  8
218_STAMPATO
100
AcDbLine
 62
7
  6
CONTINUOUS
 10
-5.2895829707
 20
-15.9
 11
-5.5666662946
 21
-15.9404255271
  0
LINE
  5
29E
100
AcDbEntity
  8
218_STAMPATO
100
AcDbLine
 62
7
  6
CONTINUOUS
 10
5.4875000477
 20
-15.9
 11
5.2500000477
 21
-15.9
  0
LINE
  5
29F
100
AcDbEntity
  8
218_STAMPATO
100
AcDbLine
 62
7
  6
CONTINUOUS
 10
-5.1312496185
 20
-15.9
 11
-5.2895829707
 21
-15.9
  0
LINE
  5
2A0
100
AcDbEntity
  8
715
100
AcDbLine
 62
7
  6
CONTINUOUS
 10
-8.4078130218
 20
-13.5988103359
 11
-8.1177219673
 21
-13.6721540002
  0
LINE
  5
2A1
100
AcDbEntity
  8
715
100
AcDbLine
 62
7
  6
CONTINUOUS
 10
-8.0961651585
 20
-13.6776042039
 11
-7.4909314736
 21
-13.8306253176
  0
LINE
  5
2A2
100
AcDbEntity
  8
218_STAMPATO
100
AcDbLine
 62
7
  6
CONTINUOUS
 10
-4.5770829141
 20
-16.1829786897
 11
-4.7354163229
 21
-16.0212765813
  0
LINE
  5
2A3
100
AcDbEntity
  8
268
100
AcDbLine
 62
7
  6
CONTINUOUS
 10
4.4
 20
23.8
 11
4.3551925565
 21
23.7551925565
  0
LINE
  5
2A4
100
AcDbEntity
  8
218_STAMPATO
100
AcDbLine
 62
7
  6
CONTINUOUS
 10
-4.497344
 20
14.022113
 11
-3.542892
 21
14.928378
  0
LINE
  5
2A5
100
AcDbEntity
  8
218_STAMPATO
100
AcDbLine
 62
7
  6
CONTINUOUS
 10
-5.397045
 20
13.167827
 11
-4.581348
 21
13.942341
  0
LINE
  5
2A6
100
AcDbEntity
  8
218_STAMPATO
100
AcDbLine
 62
7
  6
CONTINUOUS
 10
-3.3770221184
 20
15.0858758386
 11
-1.9191575609
 21
16.4701405
  0
LINE
  5
2A7
100
AcDbEntity
  8
218_STAMPATO
100
AcDbLine
 62
7
  6
CONTINUOUS
 10
-6.8865535485
 20
11.7534999339
 11
-5.5344925161
 21
13.0373002763
  0
LINE
  5
2A8
100
AcDbEntity
  8
218_STAMPATO
100
AcDbLine
 62
7
  6
CONTINUOUS
 10
-6.0162375541
 20
12.7403334311
 11
-6.9673834379
 21
11.8386702872
  0
LINE
  5
2A9
100
AcDbEntity
  8
218_STAMPATO
100
AcDbLine
 62
7
  6
CONTINUOUS
 10
-3.724637
 20
14.91274
 11
-4.579244
 21
14.102586
  0
LINE
  5
2AA
100
AcDbEntity
  8
218_STAMPATO
100
AcDbLine
 62
7
  6
CONTINUOUS
 10
-2.0817812422
 20
16.4701405
 11
-3.5584702029
 21
15.0702617819
  0
LINE
  5
2AB
100
AcDbEntity
  8
218_STAMPATO
100
AcDbLine
 62
7
  6
CONTINUOUS
 10
-4.6633556078
 20
14.0228497802
 11
-5.5502372222
 21
13.1820975708
  0
LINE
  5
2AC
100
AcDbEntity
  8
218_STAMPATO
100
AcDbLine
 62
250
  6
CONTINUOUS
 10
10.5643027805
 20
19.0856972195
 11
10.3667559139
 21
19.0038706282
  0
LINE
  5
2AD
100
AcDbEntity
  8
715
100
AcDbLine
 62
7
  6
CONTINUOUS
 10
-3.0090685264
 20
-13.8306253176
 11
-2.4038348415
 21
-13.6776042039
  0
LINE
  5
2AE
100
AcDbEntity
  8
715
100
AcDbLine
 62
7
  6
CONTINUOUS
 10
-2.0921869782
 20
-13.5988103359
 11
-2.3822780327
 21
-13.6721540002
  0
LINE
  5
2AF
100
AcDbEntity
  8
715
100
AcDbLine
 62
7
  6
CONTINUOUS
 10
-8.7297669836
 20
-13.55
 11
-7.0
 21
-13.55
  0
LINE
  5
2B0
100
AcDbEntity
  8
715
100
AcDbLine
 62
7
  6
CONTINUOUS
 10
8.7297669836
 20
-13.55
 11
7.0
 21
-13.55
  0
LINE
  5
2B1
100
AcDbEntity
  8
715
100
AcDbLine
 62
7
  6
CONTINUOUS
 10
-3.5
 20
-13.55
 11
-1.7702330164
 21
-13.55
  0
LINE
  5
2B2
100
AcDbEntity
  8
715
100
AcDbLine
 62
7
  6
CONTINUOUS
 10
3.5
 20
-13.55
 11
1.7702330164
 21
-13.55
  0
LINE
  5
2B3
100
AcDbEntity
  8
715
100
AcDbLine
 62
250
  6
CONTINUOUS
 10
8.8635356062
 20
-13.45
 11
7.0
 21
-13.45
  0
LINE
  5
2B4
100
AcDbEntity
  8
715
100
AcDbLine
 62
250
  6
CONTINUOUS
 10
3.5
 20
-13.45
 11
1.6364643938
 21
-13.45
  0
LINE
  5
2B5
100
AcDbEntity
  8
715
100
AcDbLine
 62
250
  6
CONTINUOUS
 10
-1.6364643938
 20
-13.45
 11
-3.5
 21
-13.45
  0
LINE
  5
2B6
100
AcDbEntity
  8
715
100
AcDbLine
 62
250
  6
CONTINUOUS
 10
-7.0
 20
-13.45
 11
-8.8635356062
 21
-13.45
  0
LINE
  5
2B7
100
AcDbEntity
  8
715
100
AcDbLine
 62
7
  6
CONTINUOUS
 10
3.0090685264
 20
-13.8306253176
 11
2.4038348415
 21
-13.6776042039
  0
LINE
  5
2B8
100
AcDbEntity
  8
715
100
AcDbLine
 62
7
  6
CONTINUOUS
 10
2.0921869782
 20
-13.5988103359
 11
2.3822780327
 21
-13.6721540002
  0
LINE
  5
2B9
100
AcDbEntity
  8
218_STAMPATO
100
AcDbLine
 62
250
  6
CONTINUOUS
 10
10.1974417841
 20
-18.9337384193
 11
10.5643027805
 21
-19.0856972195
  0
LINE
  5
2BA
100
AcDbEntity
  8
218_STAMPATO
100
AcDbLine
 62
7
  6
CONTINUOUS
 10
2.4475340777
 20
-18.0412732553
 11
2.5001047116
 21
-18.0763198503
  0
LINE
  5
2BB
100
AcDbEntity
  8
218_STAMPATO
100
AcDbLine
 62
250
  6
CONTINUOUS
 10
-5.8279935413
 20
-13.9245670413
 11
-5.6112459854
 21
-14.1303262059
  0
LINE
  5
2BC
100
AcDbEntity
  8
268
100
AcDbLine
 62
7
  6
CONTINUOUS
 10
4.4
 20
-23.8
 11
4.3551925565
 21
-23.7551925565
  0
LINE
  5
2BD
100
AcDbEntity
  8
218_STAMPATO
100
AcDbLine
 62
250
  6
CONTINUOUS
 10
-5.3893615328
 20
-14.5119145382
 11
-5.5984038205
 21
-14.2983315857
  0
LINE
  5
2BE
100
AcDbEntity
  8
218_STAMPATO
100
AcDbLine
 62
250
  6
CONTINUOUS
 10
-9.7832913085
 20
-9.4063645212
 11
-9.6032366926
 21
-9.6448947797
  0
LINE
  5
2BF
100
AcDbEntity
  8
218_STAMPATO
100
AcDbLine
 62
7
  6
CONTINUOUS
 10
-4.8541663229
 20
-16.2234042168
 11
-4.7749996185
 21
-16.3446807981
  0
LINE
  5
2C0
100
AcDbEntity
  8
268
100
AcDbLine
 62
7
  6
CONTINUOUS
 10
-10.5949093989
 20
-23.6278312164
 11
-10.5992727713
 21
-23.1948185145
  0
LINE
  5
2C1
100
AcDbEntity
  8
218_STAMPATO
100
AcDbLine
 62
7
  6
CONTINUOUS
 10
-11.15
 20
17.6716990487
 11
-11.15
 21
-17.6716990487
  0
LINE
  5
2C2
100
AcDbEntity
  8
268
100
AcDbLine
 62
7
  6
CONTINUOUS
 10
-11.15
 20
22.0412598048
 11
-11.15
 21
-22.0412598048
  0
LINE
  5
2C3
100
AcDbEntity
  8
218_STAMPATO
100
AcDbLine
 62
250
  6
CONTINUOUS
 10
-10.9524531334
 20
8.1526054383
 11
-10.9524531334
 21
17.5898724574
  0
LINE
  5
2C4
100
AcDbEntity
  8
268
100
AcDbLine
 62
250
  6
CONTINUOUS
 10
-10.8
 20
-22.4
 11
-10.8
 21
-22.3912731322
  0
LINE
  5
2C5
100
AcDbEntity
  8
268
100
AcDbLine
 62
250
  6
CONTINUOUS
 10
-10.8
 20
22.3912731322
 11
-10.8
 21
22.4
  0
LINE
  5
2C6
100
AcDbEntity
  8
218_STAMPATO
100
AcDbLine
 62
250
  6
CONTINUOUS
 10
-10.7831390036
 20
-17.5197402485
 11
-10.7831390036
 21
-13.1233353961
  0
LINE
  5
2C7
100
AcDbEntity
  8
218_STAMPATO
100
AcDbLine
 62
250
  6
CONTINUOUS
 10
-10.7831390036
 20
-11.0766646044
 11
-10.7831390036
 21
0.6766646108
  0
LINE
  5
2C8
100
AcDbEntity
  8
218_STAMPATO
100
AcDbLine
 62
250
  6
CONTINUOUS
 10
-10.7831390036
 20
2.723335389
 11
-10.7831390036
 21
7.9832913085
  0
LINE
  5
2C9
100
AcDbEntity
  8
268
100
AcDbLine
 62
7
  6
CONTINUOUS
 10
-10.5992727713
 20
23.1948185145
 11
-10.5949093989
 21
23.6278312164
  0
LINE
  5
2CA
100
AcDbEntity
  8
218_STAMPATO
100
AcDbLine
 62
7
  6
CONTINUOUS
 10
-8.0524659223
 20
7.9412732553
 11
-7.9998952884
 21
7.9763198503
  0
LINE
  5
2CB
100
AcDbEntity
  8
218_STAMPATO
100
AcDbLine
 62
250
  6
CONTINUOUS
 10
11.15
 20
17.6716990487
 11
10.9524531334
 21
17.5898724574
  0
LINE
  5
2CC
100
AcDbEntity
  8
715
100
AcDbLine
 62
250
  6
CONTINUOUS
 10
-9.0191702636
 20
-10.8951940409
 11
-7.218869553
 21
-10.8951940409
  0
LINE
  5
2CD
100
AcDbEntity
  8
715
100
AcDbLine
 62
250
  6
CONTINUOUS
 10
9.0191702636
 20
-10.8951940409
 11
7.218869553
 21
-10.8951940409
  0
LINE
  5
2CE
100
AcDbEntity
  8
715
100
AcDbLine
 62
250
  6
CONTINUOUS
 10
1.4808297364
 20
-10.8951940409
 11
3.281130447
 21
-10.8951940409
  0
LINE
  5
2CF
100
AcDbEntity
  8
715
100
AcDbLine
 62
250
  6
CONTINUOUS
 10
-1.4808297364
 20
-10.8951940409
 11
-3.281130447
 21
-10.8951940409
  0
LINE
  5
2D0
100
AcDbEntity
  8
715
100
AcDbLine
 62
7
  6
CONTINUOUS
 10
-8.9745706544
 20
-10.85
 11
-6.7007033066
 21
-10.85
  0
LINE
  5
2D1
100
AcDbEntity
  8
715
100
AcDbLine
 62
7
  6
CONTINUOUS
 10
8.9745706544
 20
-10.85
 11
6.7007033066
 21
-10.85
  0
LINE
  5
2D2
100
AcDbEntity
  8
715
100
AcDbLine
 62
7
  6
CONTINUOUS
 10
-3.7992966934
 20
-10.85
 11
-1.5254293456
 21
-10.85
  0
LINE
  5
2D3
100
AcDbEntity
  8
715
100
AcDbLine
 62
7
  6
CONTINUOUS
 10
1.5254293456
 20
-10.85
 11
3.7992966934
 21
-10.85
  0
LINE
  5
2D4
100
AcDbEntity
  8
218_STAMPATO
100
AcDbLine
 62
250
  6
CONTINUOUS
 10
10.7831390036
 20
-17.5197402485
 11
11.15
 21
-17.6716990487
  0
LINE
  5
2D5
100
AcDbEntity
  8
218_STAMPATO
100
AcDbLine
 62
250
  6
CONTINUOUS
 10
-0.6357929203
 20
-13.6978993455
 11
-0.3973706415
 21
-13.8780968266
  0
LINE
  5
2D6
100
AcDbEntity
  8
218_STAMPATO
100
AcDbLine
 62
250
  6
CONTINUOUS
 10
-0.1532977031
 20
-14.2557093961
 11
-0.3832442292
 21
-14.0648142404
  0
LINE
  5
2D7
100
AcDbEntity
  8
218_STAMPATO
100
AcDbLine
 62
250
  6
CONTINUOUS
 10
-4.6720064587
 20
-10.2754329588
 11
-4.8887540147
 21
-10.0696737942
  0
LINE
  5
2D8
100
AcDbEntity
  8
218_STAMPATO
100
AcDbLine
 62
250
  6
CONTINUOUS
 10
-1.9477448322
 20
-19.5067518054
 11
-2.5001047116
 21
-18.55
  0
LINE
  5
2D9
100
AcDbEntity
  8
218_STAMPATO
100
AcDbLine
 62
250
  6
CONTINUOUS
 10
-9.944032811
 20
9.1265830162
 11
-9.9526054383
 21
9.6264307462
  0
LINE
  5
2DA
100
AcDbEntity
  8
268
100
AcDbLine
 62
7
  6
CONTINUOUS
 10
-10.6
 20
-22.4
 11
-10.6
 21
-24.4
  0
LINE
  5
2DB
100
AcDbEntity
  8
268
100
AcDbLine
 62
7
  6
CONTINUOUS
 10
-10.6
 20
22.4
 11
-10.6
 21
24.4
  0
LINE
  5
2DC
100
AcDbEntity
  8
268
100
AcDbLine
 62
7
  6
CONTINUOUS
 10
-10.5941821702
 20
24.1456323968
 11
-10.5941821702
 21
23.8443375673
  0
LINE
  5
2DD
100
AcDbEntity
  8
268
100
AcDbLine
 62
7
  6
CONTINUOUS
 10
-10.5941821702
 20
-23.8443375673
 11
-10.5941821702
 21
-24.1456323968
  0
LINE
  5
2DE
100
AcDbEntity
  8
218_STAMPATO
100
AcDbLine
 62
250
  6
CONTINUOUS
 10
-9.9526054383
 20
9.6264307462
 11
-9.9526054383
 21
17.5898724574
  0
LINE
  5
2DF
100
AcDbEntity
  8
218_STAMPATO
100
AcDbLine
 62
250
  6
CONTINUOUS
 10
-9.9268797902
 20
9.1267274854
 11
-9.9268797902
 21
9.6266513329
  0
LINE
  5
2E0
100
AcDbEntity
  8
218_STAMPATO
100
AcDbLine
 62
7
  6
CONTINUOUS
 10
-9.7832913085
 20
-4.55
 11
-9.7832913085
 21
-4.8
  0
LINE
  5
2E1
100
AcDbEntity
  8
218_STAMPATO
100
AcDbLine
 62
7
  6
CONTINUOUS
 10
-9.7832913085
 20
-6.8
 11
-9.7832913085
 21
-7.05
  0
LINE
  5
2E2
100
AcDbEntity
  8
218_STAMPATO
100
AcDbLine
 62
250
  6
CONTINUOUS
 10
-9.7832913085
 20
-17.5197402485
 11
-9.7832913085
 21
-14.7936354788
  0
LINE
  5
2E3
100
AcDbEntity
  8
218_STAMPATO
100
AcDbLine
 62
250
  6
CONTINUOUS
 10
-9.7832913085
 20
-9.4063645212
 11
-9.7832913085
 21
-7.05
  0
LINE
  5
2E4
100
AcDbEntity
  8
218_STAMPATO
100
AcDbLine
 62
250
  6
CONTINUOUS
 10
-9.7832913085
 20
-6.8
 11
-9.7832913085
 21
-4.8
  0
LINE
  5
2E5
100
AcDbEntity
  8
218_STAMPATO
100
AcDbLine
 62
250
  6
CONTINUOUS
 10
-9.7832913085
 20
-4.55
 11
-9.7832913085
 21
-0.9936354788
  0
LINE
  5
2E6
100
AcDbEntity
  8
218_STAMPATO
100
AcDbLine
 62
250
  6
CONTINUOUS
 10
-9.7832913085
 20
4.3936354788
 11
-9.7832913085
 21
8.9831390036
  0
LINE
  5
2E7
100
AcDbEntity
  8
268
100
AcDbLine
 62
7
  6
CONTINUOUS
 10
-9.75
 20
-20.75
 11
-9.75
 21
-19.9
  0
LINE
  5
2E8
100
AcDbEntity
  8
268
100
AcDbLine
 62
7
  6
CONTINUOUS
 10
-9.75
 20
19.9
 11
-9.75
 21
20.75
  0
LINE
  5
2E9
100
AcDbEntity
  8
218_STAMPATO
100
AcDbLine
 62
250
  6
CONTINUOUS
 10
-9.3684931149
 20
19.5879829516
 11
-9.3684931149
 21
18.5881352564
  0
LINE
  5
2EA
100
AcDbEntity
  8
268
100
AcDbLine
 62
250
  6
CONTINUOUS
 10
-9.3201214414
 20
-11.3273914397
 11
-9.3201214414
 21
-12.8726085603
  0
LINE
  5
2EB
100
AcDbEntity
  8
218_STAMPATO
100
AcDbLine
 62
250
  6
CONTINUOUS
 10
-9.298360906
 20
-19.4186688218
 11
-9.298360906
 21
-18.4188211266
  0
LINE
  5
2EC
100
AcDbEntity
  8
715
100
AcDbLine
 62
7
  6
CONTINUOUS
 10
-9.25
 20
-13.0011969502
 11
-9.25
 21
-11.1988030498
  0
LINE
  5
2ED
100
AcDbEntity
  8
715
100
AcDbLine
 62
7
  6
CONTINUOUS
 10
-9.15
 20
-13.1499702486
 11
-9.15
 21
-11.0500297514
  0
LINE
  5
2EE
100
AcDbEntity
  8
712
100
AcDbLine
 62
250
  6
CONTINUOUS
 10
-9.0168313726
 20
1.3
 11
-9.0168313726
 21
2.8334775302
  0
LINE
  5
2EF
100
AcDbEntity
  8
218_STAMPATO
100
AcDbLine
 62
7
  6
CONTINUOUS
 10
-9.0
 20
16.067264
 11
-9.0
 21
11.932736
  0
LINE
  5
2F0
100
AcDbEntity
  8
715
100
AcDbLine
 62
250
  6
CONTINUOUS
 10
-8.95
 20
-13.2240943721
 11
-8.95
 21
-11.3551654739
  0
LINE
  5
2F1
100
AcDbEntity
  8
218_STAMPATO
100
AcDbLine
 62
7
  6
CONTINUOUS
 10
-6.7145835757
 20
6.3085106552
 11
-6.7937503934
 21
6.1872340739
  0
LINE
  5
2F2
100
AcDbEntity
  8
218_STAMPATO
100
AcDbLine
 62
7
  6
CONTINUOUS
 10
5.75
 20
19.9
 11
5.6609791689
 21
19.8109791689
  0
LINE
  5
2F3
100
AcDbEntity
  8
218_STAMPATO
100
AcDbLine
 62
7
  6
CONTINUOUS
 10
5.75
 20
19.7
 11
5.6609791689
 21
19.6109791689
  0
LINE
  5
2F4
100
AcDbEntity
  8
268
100
AcDbLine
 62
7
  6
CONTINUOUS
 10
10.6
 20
24.4
 11
10.595628166
 21
24.395628166
  0
LINE
  5
2F5
100
AcDbEntity
  8
218_STAMPATO
100
AcDbLine
 62
7
  6
CONTINUOUS
 10
-6.5166669846
 20
6.1872340739
 11
-5.408333689
 21
7.1978723362
  0
LINE
  5
2F6
100
AcDbEntity
  8
218_STAMPATO
100
AcDbLine
 62
7
  6
CONTINUOUS
 10
-5.7250003934
 20
7.1978723362
 11
-6.7145835757
 21
6.3085106552
  0
LINE
  5
2F7
100
AcDbEntity
  8
218_STAMPATO
100
AcDbLine
 62
7
  6
CONTINUOUS
 10
-6.78125
 20
-6.4223404296
 11
-6.6249999702
 21
-6.5180851074
  0
LINE
  5
2F8
100
AcDbEntity
  8
218_STAMPATO
100
AcDbLine
 62
7
  6
CONTINUOUS
 10
-6.59375
 20
-6.3585106388
 11
-6.6875
 21
-6.2946808591
  0
LINE
  5
2F9
100
AcDbEntity
  8
218_STAMPATO
100
AcDbLine
 62
7
  6
CONTINUOUS
 10
5.6609791689
 20
-19.8109791689
 11
5.75
 21
-19.9
  0
LINE
  5
2FA
100
AcDbEntity
  8
218_STAMPATO
100
AcDbLine
 62
7
  6
CONTINUOUS
 10
5.75
 20
-19.7
 11
5.6609791689
 21
-19.6109791689
  0
LINE
  5
2FB
100
AcDbEntity
  8
268
100
AcDbLine
 62
7
  6
CONTINUOUS
 10
10.6
 20
-24.4
 11
10.595628166
 21
-24.395628166
  0
LINE
  5
2FC
100
AcDbEntity
  8
218_STAMPATO
100
AcDbLine
 62
7
  6
CONTINUOUS
 10
-6.875
 20
-6.326595749
 11
-6.78125
 21
-6.4223404296
  0
LINE
  5
2FD
100
AcDbEntity
  8
218_STAMPATO
100
AcDbLine
 62
250
  6
CONTINUOUS
 10
-5.1106384672
 20
-9.6880854619
 11
-4.9015961795
 21
-9.9016684144
  0
LINE
  5
2FE
100
AcDbEntity
  8
218_STAMPATO
100
AcDbLine
 62
7
  6
CONTINUOUS
 10
-6.6875
 20
-6.2946808591
 11
-6.8124999702
 21
-6.1031914979
  0
LINE
  5
2FF
100
AcDbEntity
  8
218_STAMPATO
100
AcDbLine
 62
7
  6
CONTINUOUS
 10
-6.9374999851
 20
-6.1989361674
 11
-6.875
 21
-6.326595749
  0
LINE
  5
300
100
AcDbEntity
  8
218_STAMPATO
100
AcDbLine
 62
7
  6
CONTINUOUS
 10
-8.3517110274
 20
8.9831390036
 11
-8.3585272761
 21
9.071192477
  0
LINE
  5
301
100
AcDbEntity
  8
268
100
AcDbLine
 62
7
  6
CONTINUOUS
 10
-8.3007272287
 20
23.1948185145
 11
-8.3050906011
 21
23.6278312164
  0
LINE
  5
302
100
AcDbEntity
  8
268
100
AcDbLine
 62
7
  6
CONTINUOUS
 10
-8.6
 20
1.3
 11
-8.6
 21
0.9182000986
  0
LINE
  5
303
100
AcDbEntity
  8
320
100
AcDbLine
 62
250
  6
CONTINUOUS
 10
-8.6
 20
0.2673242919
 11
-8.6
 21
0.9182000986
  0
LINE
  5
304
100
AcDbEntity
  8
712
100
AcDbLine
 62
7
  6
CONTINUOUS
 10
-8.46
 20
0.2260936293
 11
-8.46
 21
1.3
  0
LINE
  5
305
100
AcDbEntity
  8
712
100
AcDbLine
 62
7
  6
CONTINUOUS
 10
-8.45
 20
3.18
 11
-8.45
 21
3.2491191219
  0
LINE
  5
306
100
AcDbEntity
  8
712
100
AcDbLine
 62
250
  6
CONTINUOUS
 10
-8.45
 20
1.3
 11
-8.45
 21
3.18
  0
LINE
  5
307
100
AcDbEntity
  8
268
100
AcDbLine
 62
7
  6
CONTINUOUS
 10
-8.3058178298
 20
-24.1456323968
 11
-8.3058178298
 21
-23.8443375673
  0
LINE
  5
308
100
AcDbEntity
  8
268
100
AcDbLine
 62
7
  6
CONTINUOUS
 10
-8.3058178298
 20
23.8443375673
 11
-8.3058178298
 21
24.1456323968
  0
LINE
  5
309
100
AcDbEntity
  8
268
100
AcDbLine
 62
7
  6
CONTINUOUS
 10
-8.3
 20
-22.4
 11
-8.3
 21
-24.4
  0
LINE
  5
30A
100
AcDbEntity
  8
268
100
AcDbLine
 62
7
  6
CONTINUOUS
 10
-8.3
 20
22.4
 11
-8.3
 21
24.4
  0
LINE
  5
30B
100
AcDbEntity
  8
268
100
AcDbLine
 62
7
  6
CONTINUOUS
 10
-8.25
 20
-21.2756902398
 11
-8.25
 21
-21.2
  0
LINE
  5
30C
100
AcDbEntity
  8
268
100
AcDbLine
 62
7
  6
CONTINUOUS
 10
-8.25
 20
21.2
 11
-8.25
 21
21.2756902398
  0
LINE
  5
30D
100
AcDbEntity
  8
268
100
AcDbLine
 62
250
  6
CONTINUOUS
 10
-8.0805944803
 20
21.4450957595
 11
-8.0805944803
 21
21.2
  0
LINE
  5
30E
100
AcDbEntity
  8
268
100
AcDbLine
 62
250
  6
CONTINUOUS
 10
-8.0805944803
 20
-21.2
 11
-8.0805944803
 21
-21.4450957595
  0
LINE
  5
30F
100
AcDbEntity
  8
218_STAMPATO
100
AcDbLine
 62
7
  6
CONTINUOUS
 10
-8.0524659223
 20
7.9832913085
 11
-8.0524659223
 21
7.9412732553
  0
LINE
  5
310
100
AcDbEntity
  8
218_STAMPATO
100
AcDbLine
 62
7
  6
CONTINUOUS
 10
-8.0524659223
 20
-18.4188211266
 11
-8.0524659223
 21
-18.0412732553
  0
LINE
  5
311
100
AcDbEntity
  8
218_STAMPATO
100
AcDbLine
 62
250
  6
CONTINUOUS
 10
-7.9998952884
 20
-18.0763198503
 11
-7.9998952884
 21
-18.55
  0
LINE
  5
312
100
AcDbEntity
  8
218_STAMPATO
100
AcDbLine
 62
250
  6
CONTINUOUS
 10
-7.9998952884
 20
7.9763198503
 11
-7.9998952884
 21
8.45
  0
LINE
  5
313
100
AcDbEntity
  8
218_STAMPATO
100
AcDbLine
 62
7
  6
CONTINUOUS
 10
-7.993211
 20
11.932736
 11
-7.993211
 21
16.067264
  0
LINE
  5
314
100
AcDbEntity
  8
268
100
AcDbLine
 62
250
  6
CONTINUOUS
 10
-7.7806401718
 20
21.3126932437
 11
-7.7806401718
 21
20.9000456915
  0
LINE
  5
315
100
AcDbEntity
  8
268
100
AcDbLine
 62
250
  6
CONTINUOUS
 10
-7.7806401718
 20
-20.9000456915
 11
-7.7806401718
 21
-21.3126932437
  0
LINE
  5
316
100
AcDbEntity
  8
268
100
AcDbLine
 62
7
  6
CONTINUOUS
 10
-7.7
 20
7.9834452745
 11
-7.7
 21
7.9632817034
  0
LINE
  5
317
100
AcDbEntity
  8
218_STAMPATO
100
AcDbLine
 62
7
  6
CONTINUOUS
 10
-7.625
 20
-5.2734042287
 11
-7.625
 21
-5.5287234366
  0
LINE
  5
318
100
AcDbEntity
  8
218_STAMPATO
100
AcDbLine
 62
7
  6
CONTINUOUS
 10
-7.4890208311
 20
-20.85
 11
-7.4890208311
 21
-19.6109791689
  0
LINE
  5
319
100
AcDbEntity
  8
218_STAMPATO
100
AcDbLine
 62
7
  6
CONTINUOUS
 10
-7.4890208311
 20
19.6109791689
 11
-7.4890208311
 21
20.85
  0
LINE
  5
31A
100
AcDbEntity
  8
712
100
AcDbLine
 62
7
  6
CONTINUOUS
 10
-7.45
 20
0.2886751346
 11
-7.45
 21
0.0268016748
  0
LINE
  5
31B
100
AcDbEntity
  8
218_STAMPATO
100
AcDbLine
 62
7
  6
CONTINUOUS
 10
-7.4375
 20
-5.3053191185
 11
-7.4375
 21
-6.55
  0
LINE
  5
31C
100
AcDbEntity
  8
218_STAMPATO
100
AcDbLine
 62
7
  6
CONTINUOUS
 10
-7.4
 20
-20.85
 11
-7.4
 21
-19.7
  0
LINE
  5
31D
100
AcDbEntity
  8
284
100
AcDbLine
 62
7
  6
CONTINUOUS
 10
-7.4
 20
7.9606009311
 11
-7.4
 21
7.9861546077
  0
LINE
  5
31E
100
AcDbEntity
  8
218_STAMPATO
100
AcDbLine
 62
7
  6
CONTINUOUS
 10
-7.4
 20
19.7
 11
-7.4
 21
20.85
  0
LINE
  5
31F
100
AcDbEntity
  8
284
100
AcDbLine
 62
7
  6
CONTINUOUS
 10
-7.356365661
 20
7.9602924883
 11
-7.356365661
 21
7.9864646059
  0
LINE
  5
320
100
AcDbEntity
  8
268
100
AcDbLine
 62
7
  6
CONTINUOUS
 10
-7.3
 20
-20.9
 11
-7.3
 21
-20.0
  0
LINE
  5
321
100
AcDbEntity
  8
268
100
AcDbLine
 62
7
  6
CONTINUOUS
 10
-7.3
 20
20.0
 11
-7.3
 21
20.9
  0
LINE
  5
322
100
AcDbEntity
  8
218_STAMPATO
100
AcDbLine
 62
7
  6
CONTINUOUS
 10
-7.25
 20
-6.55
 11
-7.25
 21
-5.05
  0
LINE
  5
323
100
AcDbEntity
  8
268
100
AcDbLine
 62
250
  6
CONTINUOUS
 10
-7.2153265358
 20
-20.9
 11
-7.2153265358
 21
-20.0
  0
LINE
  5
324
100
AcDbEntity
  8
268
100
AcDbLine
 62
250
  6
CONTINUOUS
 10
-7.2153265358
 20
20.0
 11
-7.2153265358
 21
20.9
  0
LINE
  5
325
100
AcDbEntity
  8
268
100
AcDbLine
 62
7
  6
CONTINUOUS
 10
-7.2
 20
7.9874601861
 11
-7.2
 21
7.9593038909
  0
LINE
  5
326
100
AcDbEntity
  8
268
100
AcDbLine
 62
7
  6
CONTINUOUS
 10
-8.3050906011
 20
-23.6278312164
 11
-8.3007272287
 21
-23.1948185145
  0
LINE
  5
327
100
AcDbEntity
  8
218_STAMPATO
100
AcDbLine
 62
7
  6
CONTINUOUS
 10
-8.5454366347
 20
-19.4186688218
 11
-8.5522551678
 21
-19.5067518054
  0
LINE
  5
328
100
AcDbEntity
  8
218_STAMPATO
100
AcDbLine
 62
7
  6
CONTINUOUS
 10
-6.7937503934
 20
6.1872340739
 11
-6.8333335757
 21
6.0255319655
  0
LINE
  5
329
100
AcDbEntity
  8
218_STAMPATO
100
AcDbLine
 62
7
  6
CONTINUOUS
 10
-6.5958335757
 20
6.0255319655
 11
-6.5166669846
 21
6.1872340739
  0
LINE
  5
32A
100
AcDbEntity
  8
218_STAMPATO
100
AcDbLine
 62
7
  6
CONTINUOUS
 10
-5.6458335757
 20
5.9446807981
 11
-5.7250003934
 21
5.8234042168
  0
LINE
  5
32B
100
AcDbEntity
  8
268
100
AcDbLine
 62
7
  6
CONTINUOUS
 10
4.4
 20
22.4
 11
4.3551925565
 21
22.3327878868
  0
LINE
  5
32C
100
AcDbEntity
  8
218_STAMPATO
100
AcDbLine
 62
250
  6
CONTINUOUS
 10
-9.7832913085
 20
-0.9936354788
 11
-9.6032366926
 21
-0.7551052203
  0
LINE
  5
32D
100
AcDbEntity
  8
218_STAMPATO
100
AcDbLine
 62
7
  6
CONTINUOUS
 10
-5.6458335757
 20
5.6212765813
 11
-5.4875002801
 21
5.7829786897
  0
LINE
  5
32E
100
AcDbEntity
  8
218_STAMPATO
100
AcDbLine
 62
7
  6
CONTINUOUS
 10
-5.7250003934
 20
5.8234042168
 11
-5.8437503934
 21
5.7425531626
  0
LINE
  5
32F
100
AcDbEntity
  8
218_STAMPATO
100
AcDbLine
 62
7
  6
CONTINUOUS
 10
-5.8041669846
 20
5.5404255271
 11
-5.6458335757
 21
5.6212765813
  0
LINE
  5
330
100
AcDbEntity
  8
218_STAMPATO
100
AcDbLine
 62
7
  6
CONTINUOUS
 10
-9.7832913085
 20
-7.05
 11
-0.5331390036
 21
-7.05
  0
LINE
  5
331
100
AcDbEntity
  8
218_STAMPATO
100
AcDbLine
 62
7
  6
CONTINUOUS
 10
-6.6249999702
 20
-6.5180851074
 11
-6.4374999702
 21
-6.55
  0
LINE
  5
332
100
AcDbEntity
  8
218_STAMPATO
100
AcDbLine
 62
7
  6
CONTINUOUS
 10
-6.4374999702
 20
-6.3904255286
 11
-6.59375
 21
-6.3585106388
  0
LINE
  5
333
100
AcDbEntity
  8
218_STAMPATO
100
AcDbLine
 62
7
  6
CONTINUOUS
 10
-4.95
 20
-5.8351063967
 11
-4.9000000119
 21
-5.8606383085
  0
LINE
  5
334
100
AcDbEntity
  8
218_STAMPATO
100
AcDbLine
 62
7
  6
CONTINUOUS
 10
-4.5500000238
 20
-5.8351063967
 11
-4.5
 21
-5.8606383085
  0
LINE
  5
335
100
AcDbEntity
  8
218_STAMPATO
100
AcDbLine
 62
7
  6
CONTINUOUS
 10
-6.0937499404
 20
-5.1776595592
 11
-6.2499999702
 21
-5.0819148898
  0
LINE
  5
336
100
AcDbEntity
  8
218_STAMPATO
100
AcDbLine
 62
7
  6
CONTINUOUS
 10
-6.2812500298
 20
-5.2414893389
 11
-6.1875000298
 21
-5.3053191185
  0
LINE
  5
337
100
AcDbEntity
  8
218_STAMPATO
100
AcDbLine
 62
250
  6
CONTINUOUS
 10
0.6357929203
 20
-10.5021006545
 11
0.3973706415
 21
-10.3219031734
  0
LINE
  5
338
100
AcDbEntity
  8
218_STAMPATO
100
AcDbLine
 62
250
  6
CONTINUOUS
 10
0.1532977031
 20
-9.9442906039
 11
0.3832442292
 21
-10.1351857596
  0
LINE
  5
339
100
AcDbEntity
  8
218_STAMPATO
100
AcDbLine
 62
7
  6
CONTINUOUS
 10
-5.9999999404
 20
-5.2734042287
 11
-6.0937499404
 21
-5.1776595592
  0
LINE
  5
33A
100
AcDbEntity
  8
218_STAMPATO
100
AcDbLine
 62
7
  6
CONTINUOUS
 10
-4.9000000119
 20
-5.8606383085
 11
-4.875
 21
-5.8861702204
  0
LINE
  5
33B
100
AcDbEntity
  8
218_STAMPATO
100
AcDbLine
 62
7
  6
CONTINUOUS
 10
-4.7500000119
 20
-5.8351063967
 11
-4.8250000119
 21
-5.7585106611
  0
LINE
  5
33C
100
AcDbEntity
  8
218_STAMPATO
100
AcDbLine
 62
7
  6
CONTINUOUS
 10
-4.5
 20
-5.8606383085
 11
-4.4750000238
 21
-5.8861702204
  0
LINE
  5
33D
100
AcDbEntity
  8
218_STAMPATO
100
AcDbLine
 62
7
  6
CONTINUOUS
 10
-4.3749999762
 20
-5.8095744848
 11
-4.425
 21
-5.7585106611
  0
LINE
  5
33E
100
AcDbEntity
  8
268
100
AcDbLine
 62
7
  6
CONTINUOUS
 10
4.4
 20
-22.4
 11
4.3551925565
 21
-22.3327878868
  0
LINE
  5
33F
100
AcDbEntity
  8
218_STAMPATO
100
AcDbLine
 62
7
  6
CONTINUOUS
 10
-6.1875000298
 20
-5.3053191185
 11
-6.0625000596
 21
-5.4968085468
  0
LINE
  5
340
100
AcDbEntity
  8
218_STAMPATO
100
AcDbLine
 62
7
  6
CONTINUOUS
 10
-5.9375
 20
-5.4010637879
 11
-5.9999999404
 21
-5.2734042287
  0
LINE
  5
341
100
AcDbEntity
  8
218_STAMPATO
100
AcDbLine
 62
7
  6
CONTINUOUS
 10
-6.96875
 20
-6.1031914979
 11
-6.9374999851
 21
-6.1989361674
  0
LINE
  5
342
100
AcDbEntity
  8
218_STAMPATO
100
AcDbLine
 62
7
  6
CONTINUOUS
 10
-5.9062499404
 20
-5.4968085468
 11
-5.9375
 21
-5.4010637879
  0
LINE
  5
343
100
AcDbEntity
  8
218_STAMPATO
100
AcDbLine
 62
7
  6
CONTINUOUS
 10
-4.5374996185
 20
-16.3446807981
 11
-4.5770829141
 21
-16.1829786897
  0
LINE
  5
344
100
AcDbEntity
  8
218_STAMPATO
100
AcDbLine
 62
7
  6
CONTINUOUS
 10
-7.0000000149
 20
-5.9436170042
 11
-6.96875
 21
-6.1031914979
  0
LINE
  5
345
100
AcDbEntity
  8
218_STAMPATO
100
AcDbLine
 62
7
  6
CONTINUOUS
 10
-6.8124999702
 20
-6.1031914979
 11
-6.8437500298
 21
-5.9117021143
  0
LINE
  5
346
100
AcDbEntity
  8
712
100
AcDbLine
 62
7
  6
CONTINUOUS
 10
-7.0
 20
3.2255292117
 11
-7.0
 21
0.1744707883
  0
LINE
  5
347
100
AcDbEntity
  8
218_STAMPATO
100
AcDbLine
 62
7
  6
CONTINUOUS
 10
-7.0000000149
 20
-5.6563829958
 11
-7.0000000149
 21
-5.9436170042
  0
LINE
  5
348
100
AcDbEntity
  8
715
100
AcDbLine
 62
7
  6
CONTINUOUS
 10
-7.0
 20
-10.5189914437
 11
-7.0
 21
-10.85
  0
LINE
  5
349
100
AcDbEntity
  8
715
100
AcDbLine
 62
7
  6
CONTINUOUS
 10
-7.0
 20
-12.7213630791
 11
-7.0
 21
-13.6810085563
  0
LINE
  5
34A
100
AcDbEntity
  8
268
100
AcDbLine
 62
250
  6
CONTINUOUS
 10
-6.9153379589
 20
-20.9
 11
-6.9153379589
 21
-19.7
  0
LINE
  5
34B
100
AcDbEntity
  8
268
100
AcDbLine
 62
250
  6
CONTINUOUS
 10
-6.9153379589
 20
19.7
 11
-6.9153379589
 21
20.9
  0
LINE
  5
34C
100
AcDbEntity
  8
218_STAMPATO
100
AcDbLine
 62
7
  6
CONTINUOUS
 10
-6.8437500298
 20
-5.9117021143
 11
-6.8437500298
 21
-5.6882978857
  0
LINE
  5
34D
100
AcDbEntity
  8
218_STAMPATO
100
AcDbLine
 62
7
  6
CONTINUOUS
 10
-6.8333335757
 20
7.4
 11
-6.8333335757
 21
7.1978723362
  0
LINE
  5
34E
100
AcDbEntity
  8
218_STAMPATO
100
AcDbLine
 62
7
  6
CONTINUOUS
 10
-6.8333335757
 20
6.0255319655
 11
-6.8333335757
 21
5.9446807981
  0
LINE
  5
34F
100
AcDbEntity
  8
712
100
AcDbLine
 62
7
  6
CONTINUOUS
 10
-6.75
 20
3.0746273872
 11
-6.75
 21
0.3253726128
  0
LINE
  5
350
100
AcDbEntity
  8
715
100
AcDbLine
 62
7
  6
CONTINUOUS
 10
-6.75
 20
-13.5359919672
 11
-6.75
 21
-12.6773792079
  0
LINE
  5
351
100
AcDbEntity
  8
715
100
AcDbLine
 62
7
  6
CONTINUOUS
 10
-6.75
 20
-10.85
 11
-6.75
 21
-10.6640080328
  0
LINE
  5
352
100
AcDbEntity
  8
218_STAMPATO
100
AcDbLine
 62
7
  6
CONTINUOUS
 10
-6.5958335757
 20
5.9446807981
 11
-6.5958335757
 21
6.0255319655
  0
LINE
  5
353
100
AcDbEntity
  8
218_STAMPATO
100
AcDbLine
 62
7
  6
CONTINUOUS
 10
-6.4915248819
 20
14.7787052741
 11
-6.4915248819
 21
14.5142628749
  0
LINE
  5
354
100
AcDbEntity
  8
268
100
AcDbLine
 62
250
  6
CONTINUOUS
 10
-6.35
 20
-20.0872686779
 11
-6.35
 21
-19.7
  0
LINE
  5
355
100
AcDbEntity
  8
268
100
AcDbLine
 62
250
  6
CONTINUOUS
 10
-6.35
 20
19.7
 11
-6.35
 21
20.0872686779
  0
LINE
  5
356
100
AcDbEntity
  8
218_STAMPATO
100
AcDbLine
 62
7
  6
CONTINUOUS
 10
-6.2768149081
 20
14.5142628749
 11
-6.2768149081
 21
13.5091515245
  0
LINE
  5
357
100
AcDbEntity
  8
218_STAMPATO
100
AcDbLine
 62
7
  6
CONTINUOUS
 10
-6.1341225209
 20
13.5537697512
 11
-6.1341225209
 21
14.7054864389
  0
LINE
  5
358
100
AcDbEntity
  8
268
100
AcDbLine
 62
7
  6
CONTINUOUS
 10
-6.05
 20
-20.0846506176
 11
-6.05
 21
-20.0
  0
LINE
  5
359
100
AcDbEntity
  8
268
100
AcDbLine
 62
7
  6
CONTINUOUS
 10
-6.05
 20
20.0
 11
-6.05
 21
20.0846506176
  0
LINE
  5
35A
100
AcDbEntity
  8
218_STAMPATO
100
AcDbLine
 62
7
  6
CONTINUOUS
 10
-6.03125
 20
-5.6882978857
 11
-6.03125
 21
-5.9117021143
  0
LINE
  5
35B
100
AcDbEntity
  8
218_STAMPATO
100
AcDbLine
 62
7
  6
CONTINUOUS
 10
-5.9624996185
 20
-17.5978723362
 11
-5.9624996185
 21
-17.8
  0
LINE
  5
35C
100
AcDbEntity
  8
218_STAMPATO
100
AcDbLine
 62
7
  6
CONTINUOUS
 10
-5.8750000596
 20
-5.9436170042
 11
-5.8750000596
 21
-5.6563829958
  0
LINE
  5
35D
100
AcDbEntity
  8
218_STAMPATO
100
AcDbLine
 62
7
  6
CONTINUOUS
 10
-5.75
 20
19.9
 11
-5.75
 21
19.7
  0
LINE
  5
35E
100
AcDbEntity
  8
218_STAMPATO
100
AcDbLine
 62
7
  6
CONTINUOUS
 10
-5.75
 20
-19.7
 11
-5.75
 21
-19.9
  0
LINE
  5
35F
100
AcDbEntity
  8
218_STAMPATO
100
AcDbLine
 62
7
  6
CONTINUOUS
 10
-5.6609791689
 20
19.8109791689
 11
-5.6609791689
 21
19.6109791689
  0
LINE
  5
360
100
AcDbEntity
  8
218_STAMPATO
100
AcDbLine
 62
7
  6
CONTINUOUS
 10
-5.6609791689
 20
-19.6109791689
 11
-5.6609791689
 21
-19.8109791689
  0
LINE
  5
361
100
AcDbEntity
  8
218_STAMPATO
100
AcDbLine
 62
7
  6
CONTINUOUS
 10
-5.408333689
 20
7.1978723362
 11
-5.408333689
 21
7.4
  0
LINE
  5
362
100
AcDbEntity
  8
218_STAMPATO
100
AcDbLine
 62
7
  6
CONTINUOUS
 10
-5.25
 20
-5.7329787493
 11
-5.25
 21
-6.55
  0
LINE
  5
363
100
AcDbEntity
  8
268
100
AcDbLine
 62
7
  6
CONTINUOUS
 10
-5.2
 20
7.9921757943
 11
-5.2
 21
7.9546088894
  0
LINE
  5
364
100
AcDbEntity
  8
218_STAMPATO
100
AcDbLine
 62
7
  6
CONTINUOUS
 10
-6.8437500298
 20
-5.6882978857
 11
-6.8124999702
 21
-5.4968085468
  0
LINE
  5
365
100
AcDbEntity
  8
218_STAMPATO
100
AcDbLine
 62
7
  6
CONTINUOUS
 10
-6.96875
 20
-5.4968085468
 11
-7.0000000149
 21
-5.6563829958
  0
LINE
  5
366
100
AcDbEntity
  8
218_STAMPATO
100
AcDbLine
 62
7
  6
CONTINUOUS
 10
-5.4875002801
 20
5.7829786897
 11
-5.4479169846
 21
5.9446807981
  0
LINE
  5
367
100
AcDbEntity
  8
218_STAMPATO
100
AcDbLine
 62
250
  6
CONTINUOUS
 10
-2.5001047116
 20
8.45
 11
-2.1414727239
 21
9.071192477
  0
LINE
  5
368
100
AcDbEntity
  8
218_STAMPATO
100
AcDbLine
 62
250
  6
CONTINUOUS
 10
-5.3893615327
 20
4.1119145382
 11
-5.5984038205
 21
3.8983315856
  0
LINE
  5
369
100
AcDbEntity
  8
218_STAMPATO
100
AcDbLine
 62
7
  6
CONTINUOUS
 10
0.75
 20
10.15
 11
0.3644005403
 21
9.7644005403
  0
LINE
  5
36A
100
AcDbEntity
  8
218_STAMPATO
100
AcDbLine
 62
250
  6
CONTINUOUS
 10
10.0754922003
 20
19.2951343418
 11
9.3684931149
 21
18.5881352564
  0
LINE
  5
36B
100
AcDbEntity
  8
218_STAMPATO
100
AcDbLine
 62
250
  6
CONTINUOUS
 10
10.3667559139
 20
19.0038706282
 11
9.6597568285
 21
18.2968715428
  0
LINE
  5
36C
100
AcDbEntity
  8
218_STAMPATO
100
AcDbLine
 62
250
  6
CONTINUOUS
 10
-5.6112459853
 20
3.7303262068
 11
-5.827993541
 21
3.5245670415
  0
LINE
  5
36D
100
AcDbEntity
  8
218_STAMPATO
100
AcDbLine
 62
7
  6
CONTINUOUS
 10
2.4475340777
 20
7.9412732553
 11
2.5001047116
 21
7.9763198503
  0
LINE
  5
36E
100
AcDbEntity
  8
218_STAMPATO
100
AcDbLine
 62
7
  6
CONTINUOUS
 10
-6.4374999702
 20
-6.55
 11
-6.2499999702
 21
-6.5180851074
  0
LINE
  5
36F
100
AcDbEntity
  8
218_STAMPATO
100
AcDbLine
 62
7
  6
CONTINUOUS
 10
-0.7831390036
 20
-6.8
 11
-9.7832913085
 21
-6.8
  0
LINE
  5
370
100
AcDbEntity
  8
218_STAMPATO
100
AcDbLine
 62
7
  6
CONTINUOUS
 10
-7.4375
 20
-6.55
 11
-7.25
 21
-6.55
  0
LINE
  5
371
100
AcDbEntity
  8
218_STAMPATO
100
AcDbLine
 62
7
  6
CONTINUOUS
 10
-5.25
 20
-6.55
 11
-5.125000003
 21
-6.55
  0
LINE
  5
372
100
AcDbEntity
  8
218_STAMPATO
100
AcDbLine
 62
7
  6
CONTINUOUS
 10
-4.8499999881
 20
-6.55
 11
-4.725
 21
-6.55
  0
LINE
  5
373
100
AcDbEntity
  8
218_STAMPATO
100
AcDbLine
 62
7
  6
CONTINUOUS
 10
-4.4499999762
 20
-6.55
 11
-4.3250000238
 21
-6.55
  0
LINE
  5
374
100
AcDbEntity
  8
218_STAMPATO
100
AcDbLine
 62
7
  6
CONTINUOUS
 10
-4.125
 20
-6.55
 11
-4.0000000477
 21
-6.55
  0
LINE
  5
375
100
AcDbEntity
  8
218_STAMPATO
100
AcDbLine
 62
7
  6
CONTINUOUS
 10
-3.7249999523
 20
-6.55
 11
-3.6
 21
-6.55
  0
LINE
  5
376
100
AcDbEntity
  8
218_STAMPATO
100
AcDbLine
 62
7
  6
CONTINUOUS
 10
-3.3250000477
 20
-6.55
 11
-3.1999999523
 21
-6.55
  0
LINE
  5
377
100
AcDbEntity
  8
218_STAMPATO
100
AcDbLine
 62
7
  6
CONTINUOUS
 10
-5.000000006
 20
-5.8351063967
 11
-4.95
 21
-5.8351063967
  0
LINE
  5
378
100
AcDbEntity
  8
218_STAMPATO
100
AcDbLine
 62
7
  6
CONTINUOUS
 10
-4.6250000238
 20
-5.8351063967
 11
-4.5500000238
 21
-5.8351063967
  0
LINE
  5
379
100
AcDbEntity
  8
218_STAMPATO
100
AcDbLine
 62
7
  6
CONTINUOUS
 10
-3.8749999523
 20
-5.8351063967
 11
-3.825
 21
-5.8351063967
  0
LINE
  5
37A
100
AcDbEntity
  8
218_STAMPATO
100
AcDbLine
 62
7
  6
CONTINUOUS
 10
-3.4999999523
 20
-5.8351063967
 11
-3.4249999523
 21
-5.8351063967
  0
LINE
  5
37B
100
AcDbEntity
  8
218_STAMPATO
100
AcDbLine
 62
7
  6
CONTINUOUS
 10
-3.375
 20
-5.7329787493
 11
-3.4750000477
 21
-5.7329787493
  0
LINE
  5
37C
100
AcDbEntity
  8
218_STAMPATO
100
AcDbLine
 62
7
  6
CONTINUOUS
 10
-3.7750000477
 20
-5.7329787493
 11
-3.8749999523
 21
-5.7329787493
  0
LINE
  5
37D
100
AcDbEntity
  8
218_STAMPATO
100
AcDbLine
 62
7
  6
CONTINUOUS
 10
-4.0000000477
 20
-5.7329787493
 11
-4.125
 21
-5.7329787493
  0
LINE
  5
37E
100
AcDbEntity
  8
218_STAMPATO
100
AcDbLine
 62
7
  6
CONTINUOUS
 10
-4.5
 20
-5.7329787493
 11
-4.5999999762
 21
-5.7329787493
  0
LINE
  5
37F
100
AcDbEntity
  8
218_STAMPATO
100
AcDbLine
 62
7
  6
CONTINUOUS
 10
-4.9000000119
 20
-5.7329787493
 11
-5.000000006
 21
-5.7329787493
  0
LINE
  5
380
100
AcDbEntity
  8
218_STAMPATO
100
AcDbLine
 62
7
  6
CONTINUOUS
 10
-5.125000003
 20
-5.7329787493
 11
-5.25
 21
-5.7329787493
  0
LINE
  5
381
100
AcDbEntity
  8
218_STAMPATO
100
AcDbLine
 62
7
  6
CONTINUOUS
 10
-6.2499999702
 20
-5.0819148898
 11
-6.4374999702
 21
-5.05
  0
LINE
  5
382
100
AcDbEntity
  8
218_STAMPATO
100
AcDbLine
 62
7
  6
CONTINUOUS
 10
-6.4374999702
 20
-5.2095744491
 11
-6.2812500298
 21
-5.2414893389
  0
LINE
  5
383
100
AcDbEntity
  8
218_STAMPATO
100
AcDbLine
 62
7
  6
CONTINUOUS
 10
-4.8250000119
 20
-5.7585106611
 11
-4.9000000119
 21
-5.7329787493
  0
LINE
  5
384
100
AcDbEntity
  8
218_STAMPATO
100
AcDbLine
 62
7
  6
CONTINUOUS
 10
-4.425
 20
-5.7585106611
 11
-4.5
 21
-5.7329787493
  0
LINE
  5
385
100
AcDbEntity
  8
218_STAMPATO
100
AcDbLine
 62
7
  6
CONTINUOUS
 10
-3.7000000477
 20
-5.7585106611
 11
-3.7750000477
 21
-5.7329787493
  0
LINE
  5
386
100
AcDbEntity
  8
218_STAMPATO
100
AcDbLine
 62
7
  6
CONTINUOUS
 10
-3.3
 20
-5.7585106611
 11
-3.375
 21
-5.7329787493
  0
LINE
  5
387
100
AcDbEntity
  8
218_STAMPATO
100
AcDbLine
 62
7
  6
CONTINUOUS
 10
-3.825
 20
-5.8351063967
 11
-3.7750000477
 21
-5.8606383085
  0
LINE
  5
388
100
AcDbEntity
  8
218_STAMPATO
100
AcDbLine
 62
7
  6
CONTINUOUS
 10
-3.4249999523
 20
-5.8351063967
 11
-3.375
 21
-5.8606383085
  0
LINE
  5
389
100
AcDbEntity
  8
218_STAMPATO
100
AcDbLine
 62
250
  6
CONTINUOUS
 10
4.6720064587
 20
-13.9245670412
 11
4.8887540147
 21
-14.1303262058
  0
LINE
  5
38A
100
AcDbEntity
  8
218_STAMPATO
100
AcDbLine
 62
250
  6
CONTINUOUS
 10
9.298360906
 20
-18.4188211266
 11
10.0053599914
 21
-19.125820212
  0
LINE
  5
38B
100
AcDbEntity
  8
218_STAMPATO
100
AcDbLine
 62
250
  6
CONTINUOUS
 10
9.4904426987
 20
-18.2267393339
 11
10.1974417841
 21
-18.9337384193
  0
LINE
  5
38C
100
AcDbEntity
  8
218_STAMPATO
100
AcDbLine
 62
7
  6
CONTINUOUS
 10
-3.7750000477
 20
-5.8606383085
 11
-3.75
 21
-5.8861702204
  0
LINE
  5
38D
100
AcDbEntity
  8
218_STAMPATO
100
AcDbLine
 62
7
  6
CONTINUOUS
 10
-3.6250000477
 20
-5.8351063967
 11
-3.7000000477
 21
-5.7585106611
  0
LINE
  5
38E
100
AcDbEntity
  8
218_STAMPATO
100
AcDbLine
 62
7
  6
CONTINUOUS
 10
-3.375
 20
-5.8606383085
 11
-3.3499999523
 21
-5.8861702204
  0
LINE
  5
38F
100
AcDbEntity
  8
218_STAMPATO
100
AcDbLine
 62
7
  6
CONTINUOUS
 10
-3.2500000477
 20
-5.8095744848
 11
-3.3
 21
-5.7585106611
  0
LINE
  5
390
100
AcDbEntity
  8
218_STAMPATO
100
AcDbLine
 62
250
  6
CONTINUOUS
 10
5.1106384672
 20
-14.5119145381
 11
4.9015961795
 21
-14.2983315856
  0
LINE
  5
391
100
AcDbEntity
  8
218_STAMPATO
100
AcDbLine
 62
7
  6
CONTINUOUS
 10
-4.875
 20
-5.8861702204
 11
-4.8499999881
 21
-5.9372340441
  0
LINE
  5
392
100
AcDbEntity
  8
218_STAMPATO
100
AcDbLine
 62
7
  6
CONTINUOUS
 10
-4.4750000238
 20
-5.8861702204
 11
-4.4499999762
 21
-5.9372340441
  0
LINE
  5
393
100
AcDbEntity
  8
218_STAMPATO
100
AcDbLine
 62
7
  6
CONTINUOUS
 10
-3.75
 20
-5.8861702204
 11
-3.7249999523
 21
-5.9372340441
  0
LINE
  5
394
100
AcDbEntity
  8
218_STAMPATO
100
AcDbLine
 62
7
  6
CONTINUOUS
 10
-3.3499999523
 20
-5.8861702204
 11
-3.3250000477
 21
-5.9372340441
  0
LINE
  5
395
100
AcDbEntity
  8
218_STAMPATO
100
AcDbLine
 62
7
  6
CONTINUOUS
 10
-4.3250000238
 20
-5.9372340441
 11
-4.3749999762
 21
-5.8095744848
  0
LINE
  5
396
100
AcDbEntity
  8
218_STAMPATO
100
AcDbLine
 62
7
  6
CONTINUOUS
 10
-6.8333335757
 20
5.9446807981
 11
-6.7937503934
 21
5.7829786897
  0
LINE
  5
397
100
AcDbEntity
  8
218_STAMPATO
100
AcDbLine
 62
7
  6
CONTINUOUS
 10
-5.8750000596
 20
-5.6563829958
 11
-5.9062499404
 21
-5.4968085468
  0
LINE
  5
398
100
AcDbEntity
  8
218_STAMPATO
100
AcDbLine
 62
7
  6
CONTINUOUS
 10
-6.0625000596
 20
-5.4968085468
 11
-6.03125
 21
-5.6882978857
  0
LINE
  5
399
100
AcDbEntity
  8
218_STAMPATO
100
AcDbLine
 62
7
  6
CONTINUOUS
 10
-1.9545633653
 20
-19.4186688218
 11
-1.9477448322
 21
-19.5067518054
  0
LINE
  5
39A
100
AcDbEntity
  8
218_STAMPATO
100
AcDbLine
 62
7
  6
CONTINUOUS
 10
-5.125000003
 20
-6.55
 11
-5.125000003
 21
-5.9117021322
  0
LINE
  5
39B
100
AcDbEntity
  8
218_STAMPATO
100
AcDbLine
 62
7
  6
CONTINUOUS
 10
-5.125000003
 20
-5.8095744848
 11
-5.125000003
 21
-5.7329787493
  0
LINE
  5
39C
100
AcDbEntity
  8
218_STAMPATO
100
AcDbLine
 62
7
  6
CONTINUOUS
 10
-5.0916669846
 20
7.4
 11
-5.0916669846
 21
7.1574468091
  0
LINE
  5
39D
100
AcDbEntity
  8
218_STAMPATO
100
AcDbLine
 62
7
  6
CONTINUOUS
 10
-4.8499999881
 20
-5.9372340441
 11
-4.8499999881
 21
-6.55
  0
LINE
  5
39E
100
AcDbEntity
  8
218_STAMPATO
100
AcDbLine
 62
7
  6
CONTINUOUS
 10
-4.7749996185
 20
-16.3446807981
 11
-4.7749996185
 21
-16.4255319655
  0
LINE
  5
39F
100
AcDbEntity
  8
218_STAMPATO
100
AcDbLine
 62
7
  6
CONTINUOUS
 10
-4.725
 20
-6.55
 11
-4.725
 21
-5.9372340441
  0
LINE
  5
3A0
100
AcDbEntity
  8
268
100
AcDbLine
 62
7
  6
CONTINUOUS
 10
-4.7
 20
7.9549280331
 11
-4.7
 21
7.991855917
  0
LINE
  5
3A1
100
AcDbEntity
  8
218_STAMPATO
100
AcDbLine
 62
7
  6
CONTINUOUS
 10
-4.5374996185
 20
-17.8
 11
-4.5374996185
 21
-17.5978723362
  0
LINE
  5
3A2
100
AcDbEntity
  8
218_STAMPATO
100
AcDbLine
 62
7
  6
CONTINUOUS
 10
-4.5374996185
 20
-16.4255319655
 11
-4.5374996185
 21
-16.3446807981
  0
LINE
  5
3A3
100
AcDbEntity
  8
218_STAMPATO
100
AcDbLine
 62
7
  6
CONTINUOUS
 10
-4.4499999762
 20
-5.9372340441
 11
-4.4499999762
 21
-6.55
  0
LINE
  5
3A4
100
AcDbEntity
  8
268
100
AcDbLine
 62
7
  6
CONTINUOUS
 10
-4.4
 20
23.8
 11
-4.4
 21
22.4
  0
LINE
  5
3A5
100
AcDbEntity
  8
268
100
AcDbLine
 62
7
  6
CONTINUOUS
 10
-4.4
 20
-22.4
 11
-4.4
 21
-23.8
  0
LINE
  5
3A6
100
AcDbEntity
  8
268
100
AcDbLine
 62
250
  6
CONTINUOUS
 10
-4.3551925565
 20
23.7551925565
 11
-4.3551925565
 21
22.3327878868
  0
LINE
  5
3A7
100
AcDbEntity
  8
268
100
AcDbLine
 62
250
  6
CONTINUOUS
 10
-4.3551925565
 20
-22.3327878868
 11
-4.3551925565
 21
-23.7551925565
  0
LINE
  5
3A8
100
AcDbEntity
  8
218_STAMPATO
100
AcDbLine
 62
7
  6
CONTINUOUS
 10
-4.3250000238
 20
-6.55
 11
-4.3250000238
 21
-5.9372340441
  0
LINE
  5
3A9
100
AcDbEntity
  8
218_STAMPATO
100
AcDbLine
 62
7
  6
CONTINUOUS
 10
-4.125
 20
-5.7329787493
 11
-4.125
 21
-6.55
  0
LINE
  5
3AA
100
AcDbEntity
  8
268
100
AcDbLine
 62
250
  6
CONTINUOUS
 10
-4.0551976334
 20
23.7534573615
 11
-4.0551976334
 21
22.3301850577
  0
LINE
  5
3AB
100
AcDbEntity
  8
268
100
AcDbLine
 62
250
  6
CONTINUOUS
 10
-4.0551976334
 20
-22.3301850577
 11
-4.0551976334
 21
-23.7534573615
  0
LINE
  5
3AC
100
AcDbEntity
  8
218_STAMPATO
100
AcDbLine
 62
7
  6
CONTINUOUS
 10
-4.0000000477
 20
-6.55
 11
-4.0000000477
 21
-5.9117021322
  0
LINE
  5
3AD
100
AcDbEntity
  8
218_STAMPATO
100
AcDbLine
 62
7
  6
CONTINUOUS
 10
-4.0000000477
 20
-5.8095744848
 11
-4.0000000477
 21
-5.7329787493
  0
LINE
  5
3AE
100
AcDbEntity
  8
218_STAMPATO
100
AcDbLine
 62
7
  6
CONTINUOUS
 10
-3.951858
 20
14.241818
 11
-3.951858
 21
13.486057
  0
LINE
  5
3AF
100
AcDbEntity
  8
218_STAMPATO
100
AcDbLine
 62
7
  6
CONTINUOUS
 10
-3.9041669846
 20
7.1574468091
 11
-3.9041669846
 21
5.5
  0
LINE
  5
3B0
100
AcDbEntity
  8
268
100
AcDbLine
 62
250
  6
CONTINUOUS
 10
-3.8
 20
-23.7534573615
 11
-3.8
 21
-22.3301850577
  0
LINE
  5
3B1
100
AcDbEntity
  8
268
100
AcDbLine
 62
250
  6
CONTINUOUS
 10
-3.8
 20
22.3301850577
 11
-3.8
 21
23.7534573615
  0
LINE
  5
3B2
100
AcDbEntity
  8
712
100
AcDbLine
 62
7
  6
CONTINUOUS
 10
-3.75
 20
3.0746273872
 11
-3.75
 21
0.3253726128
  0
LINE
  5
3B3
100
AcDbEntity
  8
715
100
AcDbLine
 62
7
  6
CONTINUOUS
 10
-3.75
 20
-13.5359919672
 11
-3.75
 21
-12.6773775301
  0
LINE
  5
3B4
100
AcDbEntity
  8
715
100
AcDbLine
 62
7
  6
CONTINUOUS
 10
-3.75
 20
-10.85
 11
-3.75
 21
-10.6640080328
  0
LINE
  5
3B5
100
AcDbEntity
  8
218_STAMPATO
100
AcDbLine
 62
7
  6
CONTINUOUS
 10
-3.7249999523
 20
-5.9372340441
 11
-3.7249999523
 21
-6.55
  0
LINE
  5
3B6
100
AcDbEntity
  8
218_STAMPATO
100
AcDbLine
 62
7
  6
CONTINUOUS
 10
-3.672348
 20
13.022946
 11
-3.672348
 21
13.007094
  0
LINE
  5
3B7
100
AcDbEntity
  8
218_STAMPATO
100
AcDbLine
 62
7
  6
CONTINUOUS
 10
-3.6723478618
 20
12.8637484973
 11
-3.6723478618
 21
12.5387283195
  0
LINE
  5
3B8
100
AcDbEntity
  8
218_STAMPATO
100
AcDbLine
 62
7
  6
CONTINUOUS
 10
-3.6666669846
 20
5.5
 11
-3.6666669846
 21
7.4
  0
LINE
  5
3B9
100
AcDbEntity
  8
218_STAMPATO
100
AcDbLine
 62
7
  6
CONTINUOUS
 10
-3.66645
 20
13.367743
 11
-3.66645
 21
14.241818
  0
LINE
  5
3BA
100
AcDbEntity
  8
218_STAMPATO
100
AcDbLine
 62
7
  6
CONTINUOUS
 10
-3.6
 20
-6.55
 11
-3.6
 21
-5.9372340441
  0
LINE
  5
3BB
100
AcDbEntity
  8
218_STAMPATO
100
AcDbLine
 62
7
  6
CONTINUOUS
 10
-3.544033
 20
12.663617
 11
-3.544033
 21
12.851808
  0
LINE
  5
3BC
100
AcDbEntity
  8
712
100
AcDbLine
 62
7
  6
CONTINUOUS
 10
-3.5
 20
3.2255292117
 11
-3.5
 21
0.1744707883
  0
LINE
  5
3BD
100
AcDbEntity
  8
715
100
AcDbLine
 62
7
  6
CONTINUOUS
 10
-3.5
 20
-10.5189914437
 11
-3.5
 21
-10.85
  0
LINE
  5
3BE
100
AcDbEntity
  8
715
100
AcDbLine
 62
7
  6
CONTINUOUS
 10
-3.5
 20
-12.7213615156
 11
-3.5
 21
-13.6810085563
  0
LINE
  5
3BF
100
AcDbEntity
  8
268
100
AcDbLine
 62
7
  6
CONTINUOUS
 10
-3.5
 20
-20.0
 11
-3.5
 21
-20.0532338935
  0
LINE
  5
3C0
100
AcDbEntity
  8
268
100
AcDbLine
 62
7
  6
CONTINUOUS
 10
-3.5
 20
-22.332803118
 11
-3.5
 21
-23.7941821702
  0
LINE
  5
3C1
100
AcDbEntity
  8
268
100
AcDbLine
 62
7
  6
CONTINUOUS
 10
-3.5
 20
20.0
 11
-3.5
 21
20.0532338935
  0
LINE
  5
3C2
100
AcDbEntity
  8
268
100
AcDbLine
 62
7
  6
CONTINUOUS
 10
-3.5
 20
22.332803118
 11
-3.5
 21
23.7941821702
  0
LINE
  5
3C3
100
AcDbEntity
  8
218_STAMPATO
100
AcDbLine
 62
7
  6
CONTINUOUS
 10
-6.03125
 20
-5.9117021143
 11
-6.0625000596
 21
-6.1031914979
  0
LINE
  5
3C4
100
AcDbEntity
  8
218_STAMPATO
100
AcDbLine
 62
7
  6
CONTINUOUS
 10
-5.9062499404
 20
-6.1031914979
 11
-5.8750000596
 21
-5.9436170042
  0
LINE
  5
3C5
100
AcDbEntity
  8
218_STAMPATO
100
AcDbLine
 62
7
  6
CONTINUOUS
 10
-6.9374999851
 20
-5.4010637879
 11
-6.96875
 21
-5.4968085468
  0
LINE
  5
3C6
100
AcDbEntity
  8
218_STAMPATO
100
AcDbLine
 62
7
  6
CONTINUOUS
 10
-5.9375
 20
-6.1989361674
 11
-5.9062499404
 21
-6.1031914979
  0
LINE
  5
3C7
100
AcDbEntity
  8
218_STAMPATO
100
AcDbLine
 62
7
  6
CONTINUOUS
 10
-6.875
 20
-5.2734042287
 11
-6.9374999851
 21
-5.4010637879
  0
LINE
  5
3C8
100
AcDbEntity
  8
218_STAMPATO
100
AcDbLine
 62
7
  6
CONTINUOUS
 10
-6.2812500298
 20
-6.3585106388
 11
-6.4374999702
 21
-6.3904255286
  0
LINE
  5
3C9
100
AcDbEntity
  8
218_STAMPATO
100
AcDbLine
 62
7
  6
CONTINUOUS
 10
-6.59375
 20
-5.2414893389
 11
-6.4374999702
 21
-5.2095744491
  0
LINE
  5
3CA
100
AcDbEntity
  8
218_STAMPATO
100
AcDbLine
 62
7
  6
CONTINUOUS
 10
-6.4374999702
 20
-5.05
 11
-6.6249999702
 21
-5.0819148898
  0
LINE
  5
3CB
100
AcDbEntity
  8
218_STAMPATO
100
AcDbLine
 62
7
  6
CONTINUOUS
 10
-7.25
 20
-5.05
 11
-7.4375
 21
-5.05
  0
LINE
  5
3CC
100
AcDbEntity
  8
218_STAMPATO
100
AcDbLine
 62
7
  6
CONTINUOUS
 10
-9.7832913085
 20
-4.8
 11
-0.7831390036
 21
-4.8
  0
LINE
  5
3CD
100
AcDbEntity
  8
218_STAMPATO
100
AcDbLine
 62
7
  6
CONTINUOUS
 10
-0.5331390036
 20
-4.55
 11
-9.7832913085
 21
-4.55
  0
LINE
  5
3CE
100
AcDbEntity
  8
218_STAMPATO
100
AcDbLine
 62
250
  6
CONTINUOUS
 10
-5.6112459853
 20
-0.3303262068
 11
-5.8279935413
 21
-0.1245670413
  0
LINE
  5
3CF
100
AcDbEntity
  8
218_STAMPATO
100
AcDbLine
 62
250
  6
CONTINUOUS
 10
5.8279935413
 20
-10.2754329587
 11
5.6112459854
 21
-10.0696737941
  0
LINE
  5
3D0
100
AcDbEntity
  8
218_STAMPATO
100
AcDbLine
 62
7
  6
CONTINUOUS
 10
-3.55
 20
-3.3
 11
-5.25
 21
-1.6
  0
LINE
  5
3D1
100
AcDbEntity
  8
218_STAMPATO
100
AcDbLine
 62
250
  6
CONTINUOUS
 10
-5.3893615328
 20
-0.7119145382
 11
-5.5984038205
 21
-0.4983315857
  0
LINE
  5
3D2
100
AcDbEntity
  8
218_STAMPATO
100
AcDbLine
 62
250
  6
CONTINUOUS
 10
-9.7832913085
 20
4.3936354788
 11
-9.6032366926
 21
4.1551052203
  0
LINE
  5
3D3
100
AcDbEntity
  8
218_STAMPATO
100
AcDbLine
 62
7
  6
CONTINUOUS
 10
-3.1999999523
 20
-5.9372340441
 11
-3.2500000477
 21
-5.8095744848
  0
LINE
  5
3D4
100
AcDbEntity
  8
218_STAMPATO
100
AcDbLine
 62
250
  6
CONTINUOUS
 10
-2.4010050333
 20
-20.0531791558
 11
-2.4015242349
 21
-19.8844866796
  0
LINE
  5
3D5
100
AcDbEntity
  8
218_STAMPATO
100
AcDbLine
 62
7
  6
CONTINUOUS
 10
-3.3250000477
 20
-5.9372340441
 11
-3.3250000477
 21
-6.55
  0
LINE
  5
3D6
100
AcDbEntity
  8
218_STAMPATO
100
AcDbLine
 62
7
  6
CONTINUOUS
 10
-3.303101
 20
12.687437
 11
-3.303101
 21
12.663617
  0
LINE
  5
3D7
100
AcDbEntity
  8
218_STAMPATO
100
AcDbLine
 62
7
  6
CONTINUOUS
 10
-3.1999999523
 20
-6.55
 11
-3.1999999523
 21
-5.9372340441
  0
LINE
  5
3D8
100
AcDbEntity
  8
218_STAMPATO
100
AcDbLine
 62
7
  6
CONTINUOUS
 10
-3.174787
 20
12.960728
 11
-3.174787
 21
13.022946
  0
LINE
  5
3D9
100
AcDbEntity
  8
218_STAMPATO
100
AcDbLine
 62
7
  6
CONTINUOUS
 10
-3.1747746472
 20
12.7224119606
 11
-3.1747746472
 21
12.8173817459
  0
LINE
  5
3DA
100
AcDbEntity
  8
218_STAMPATO
100
AcDbLine
 62
7
  6
CONTINUOUS
 10
-3.1747630339
 20
12.5387283195
 11
-3.1747630339
 21
12.5614540594
  0
LINE
  5
3DB
100
AcDbEntity
  8
712
100
AcDbLine
 62
7
  6
CONTINUOUS
 10
-3.05
 20
0.2886751346
 11
-3.05
 21
0.0268016748
  0
LINE
  5
3DC
100
AcDbEntity
  8
268
100
AcDbLine
 62
7
  6
CONTINUOUS
 10
-3.0
 20
-21.0
 11
-3.0
 21
-22.3380392387
  0
LINE
  5
3DD
100
AcDbEntity
  8
268
100
AcDbLine
 62
7
  6
CONTINUOUS
 10
-3.0
 20
21.0
 11
-3.0
 21
22.3380392387
  0
LINE
  5
3DE
100
AcDbEntity
  8
218_STAMPATO
100
AcDbLine
 62
7
  6
CONTINUOUS
 10
-2.958935
 20
14.978611
 11
-2.958935
 21
12.940618
  0
LINE
  5
3DF
100
AcDbEntity
  8
218_STAMPATO
100
AcDbLine
 62
7
  6
CONTINUOUS
 10
-2.9530248475
 20
15.2942594773
 11
-2.9530248475
 21
15.1223488001
  0
LINE
  5
3E0
100
AcDbEntity
  8
218_STAMPATO
100
AcDbLine
 62
7
  6
CONTINUOUS
 10
-2.8103208469
 20
12.9462194886
 11
-2.8103208469
 21
14.6044879089
  0
LINE
  5
3E1
100
AcDbEntity
  8
218_STAMPATO
100
AcDbLine
 62
7
  6
CONTINUOUS
 10
-2.8103208469
 20
15.1430051984
 11
-2.8103208469
 21
15.2942594773
  0
LINE
  5
3E2
100
AcDbEntity
  8
218_STAMPATO
100
AcDbLine
 62
7
  6
CONTINUOUS
 10
-2.8103085078
 20
14.8483450412
 11
-2.8103085078
 21
14.9904306346
  0
LINE
  5
3E3
100
AcDbEntity
  8
218_STAMPATO
100
AcDbLine
 62
7
  6
CONTINUOUS
 10
-2.6854664597
 20
14.2180095207
 11
-2.6854664597
 21
13.516393857
  0
LINE
  5
3E4
100
AcDbEntity
  8
218_STAMPATO
100
AcDbLine
 62
7
  6
CONTINUOUS
 10
-2.542762
 20
13.659121
 11
-2.542762
 21
14.07533
  0
LINE
  5
3E5
100
AcDbEntity
  8
218_STAMPATO
100
AcDbLine
 62
250
  6
CONTINUOUS
 10
-2.5001047116
 20
-18.0763198503
 11
-2.5001047116
 21
-18.55
  0
LINE
  5
3E6
100
AcDbEntity
  8
218_STAMPATO
100
AcDbLine
 62
250
  6
CONTINUOUS
 10
-2.5001047116
 20
7.9763198503
 11
-2.5001047116
 21
8.45
  0
LINE
  5
3E7
100
AcDbEntity
  8
268
100
AcDbLine
 62
7
  6
CONTINUOUS
 10
-2.5
 20
-18.0763198503
 11
-2.5
 21
-18.0694133782
  0
LINE
  5
3E8
100
AcDbEntity
  8
218_STAMPATO
100
AcDbLine
 62
7
  6
CONTINUOUS
 10
-2.477332
 20
14.07533
 11
-2.477332
 21
13.659121
  0
LINE
  5
3E9
100
AcDbEntity
  8
218_STAMPATO
100
AcDbLine
 62
7
  6
CONTINUOUS
 10
-2.4475340777
 20
7.9832913085
 11
-2.4475340777
 21
7.9412732553
  0
LINE
  5
3EA
100
AcDbEntity
  8
218_STAMPATO
100
AcDbLine
 62
7
  6
CONTINUOUS
 10
-2.4475340777
 20
-18.4188211266
 11
-2.4475340777
 21
-18.0412732553
  0
LINE
  5
3EB
100
AcDbEntity
  8
218_STAMPATO
100
AcDbLine
 62
7
  6
CONTINUOUS
 10
-2.4296933749
 20
14.6044879089
 11
-2.4296933749
 21
14.848333428
  0
LINE
  5
3EC
100
AcDbEntity
  8
218_STAMPATO
100
AcDbLine
 62
7
  6
CONTINUOUS
 10
-2.334640845
 20
13.516393857
 11
-2.334640845
 21
14.2180095207
  0
LINE
  5
3ED
100
AcDbEntity
  8
712
100
AcDbLine
 62
7
  6
CONTINUOUS
 10
-2.05
 20
3.18
 11
-2.05
 21
3.2491191219
  0
LINE
  5
3EE
100
AcDbEntity
  8
712
100
AcDbLine
 62
250
  6
CONTINUOUS
 10
-2.05
 20
1.3
 11
-2.05
 21
3.18
  0
LINE
  5
3EF
100
AcDbEntity
  8
712
100
AcDbLine
 62
7
  6
CONTINUOUS
 10
-2.04
 20
1.3
 11
-2.04
 21
0.2260928396
  0
LINE
  5
3F0
100
AcDbEntity
  8
268
100
AcDbLine
 62
7
  6
CONTINUOUS
 10
-1.9948957647
 20
0.9745183349
 11
-1.9948957647
 21
1.3
  0
LINE
  5
3F1
100
AcDbEntity
  8
320
100
AcDbLine
 62
250
  6
CONTINUOUS
 10
-1.9
 20
0.267322452
 11
-1.9
 21
0.9182000986
  0
LINE
  5
3F2
100
AcDbEntity
  8
218_STAMPATO
100
AcDbLine
 62
250
  6
CONTINUOUS
 10
-2.4015242349
 20
19.8844866796
 11
-2.4010050333
 21
20.0531791558
  0
LINE
  5
3F3
100
AcDbEntity
  8
218_STAMPATO
100
AcDbLine
 62
7
  6
CONTINUOUS
 10
-2.1482889726
 20
8.9831390036
 11
-2.1414727239
 21
9.071192477
  0
LINE
  5
3F4
100
AcDbEntity
  8
218_STAMPATO
100
AcDbLine
 62
7
  6
CONTINUOUS
 10
-5.8833329495
 20
-16.1829786897
 11
-5.922916284
 21
-16.3446807981
  0
LINE
  5
3F5
100
AcDbEntity
  8
218_STAMPATO
100
AcDbLine
 62
250
  6
CONTINUOUS
 10
-10.0053599914
 20
-19.125820212
 11
-10.0850175454
 21
-19.3181305591
  0
LINE
  5
3F6
100
AcDbEntity
  8
218_STAMPATO
100
AcDbLine
 62
7
  6
CONTINUOUS
 10
-5.9999999404
 20
-6.326595749
 11
-5.9375
 21
-6.1989361674
  0
LINE
  5
3F7
100
AcDbEntity
  8
218_STAMPATO
100
AcDbLine
 62
7
  6
CONTINUOUS
 10
-4.725
 20
-5.9372340441
 11
-4.6999999881
 21
-5.8861702204
  0
LINE
  5
3F8
100
AcDbEntity
  8
218_STAMPATO
100
AcDbLine
 62
7
  6
CONTINUOUS
 10
-6.8124999702
 20
-5.4968085468
 11
-6.6875
 21
-5.3053191185
  0
LINE
  5
3F9
100
AcDbEntity
  8
218_STAMPATO
100
AcDbLine
 62
7
  6
CONTINUOUS
 10
-6.0625000596
 20
-6.1031914979
 11
-6.1875000298
 21
-6.2946808591
  0
LINE
  5
3FA
100
AcDbEntity
  8
218_STAMPATO
100
AcDbLine
 62
7
  6
CONTINUOUS
 10
-7.4375
 20
-5.05
 11
-7.625
 21
-5.2734042287
  0
LINE
  5
3FB
100
AcDbEntity
  8
218_STAMPATO
100
AcDbLine
 62
7
  6
CONTINUOUS
 10
-7.625
 20
-5.5287234366
 11
-7.4375
 21
-5.3053191185
  0
LINE
  5
3FC
100
AcDbEntity
  8
218_STAMPATO
100
AcDbLine
 62
250
  6
CONTINUOUS
 10
-5.1106384673
 20
-0.7119145383
 11
-4.9015961795
 21
-0.4983315857
  0
LINE
  5
3FD
100
AcDbEntity
  8
218_STAMPATO
100
AcDbLine
 62
7
  6
CONTINUOUS
 10
-5.25
 20
-1.6
 11
-6.95
 21
-3.3
  0
LINE
  5
3FE
100
AcDbEntity
  8
218_STAMPATO
100
AcDbLine
 62
250
  6
CONTINUOUS
 10
-4.8887540147
 20
-0.3303262068
 11
-4.6720064589
 21
-0.1245670416
  0
LINE
  5
3FF
100
AcDbEntity
  8
218_STAMPATO
100
AcDbLine
 62
250
  6
CONTINUOUS
 10
-0.1532977029
 20
3.855709397
 11
-0.3832442295
 21
3.6648142408
  0
LINE
  5
400
100
AcDbEntity
  8
218_STAMPATO
100
AcDbLine
 62
250
  6
CONTINUOUS
 10
-0.3973706423
 20
3.4780968309
 11
-0.6357929197
 21
3.2978993479
  0
LINE
  5
401
100
AcDbEntity
  8
218_STAMPATO
100
AcDbLine
 62
7
  6
CONTINUOUS
 10
-6.95
 20
-3.3
 11
-3.55
 21
-3.3
  0
LINE
  5
402
100
AcDbEntity
  8
218_STAMPATO
100
AcDbLine
 62
7
  6
CONTINUOUS
 10
3.55
 20
-3.3
 11
6.95
 21
-3.3
  0
LINE
  5
403
100
AcDbEntity
  8
218_STAMPATO
100
AcDbLine
 62
250
  6
CONTINUOUS
 10
-10.9524531334
 20
8.1526054383
 11
-10.7831390036
 21
7.9832913085
  0
LINE
  5
404
100
AcDbEntity
  8
218_STAMPATO
100
AcDbLine
 62
250
  6
CONTINUOUS
 10
5.3893615328
 20
-9.6880854618
 11
5.5984038205
 21
-9.9016684143
  0
LINE
  5
405
100
AcDbEntity
  8
218_STAMPATO
100
AcDbLine
 62
7
  6
CONTINUOUS
 10
-6.5166669846
 20
5.8234042168
 11
-6.5958335757
 21
5.9446807981
  0
LINE
  5
406
100
AcDbEntity
  8
218_STAMPATO
100
AcDbLine
 62
250
  6
CONTINUOUS
 10
-7.9998952884
 20
8.45
 11
-8.3585272761
 21
9.071192477
  0
LINE
  5
407
100
AcDbEntity
  8
218_STAMPATO
100
AcDbLine
 62
250
  6
CONTINUOUS
 10
8.5522551678
 20
-19.5067518054
 11
7.9998952884
 21
-18.55
  0
LINE
  5
408
100
AcDbEntity
  8
218_STAMPATO
100
AcDbLine
 62
250
  6
CONTINUOUS
 10
-10.0850175454
 20
19.3181305591
 11
-10.0754922003
 21
19.2951343418
  0
LINE
  5
409
100
AcDbEntity
  8
715
100
AcDbLine
 62
250
  6
CONTINUOUS
 10
-1.55
 20
-13.2240943721
 11
-1.55
 21
-11.3551654739
  0
LINE
  5
40A
100
AcDbEntity
  8
712
100
AcDbLine
 62
250
  6
CONTINUOUS
 10
-1.4831686274
 20
1.3
 11
-1.4831686274
 21
2.8334775302
  0
LINE
  5
40B
100
AcDbEntity
  8
715
100
AcDbLine
 62
7
  6
CONTINUOUS
 10
-1.35
 20
-13.1499702486
 11
-1.35
 21
-11.0500297514
  0
LINE
  5
40C
100
AcDbEntity
  8
715
100
AcDbLine
 62
7
  6
CONTINUOUS
 10
-1.25
 20
-13.0011969502
 11
-1.25
 21
-11.1988030498
  0
LINE
  5
40D
100
AcDbEntity
  8
268
100
AcDbLine
 62
250
  6
CONTINUOUS
 10
-1.1798785586
 20
-12.8726085603
 11
-1.1798785586
 21
-11.3273914397
  0
LINE
  5
40E
100
AcDbEntity
  8
218_STAMPATO
100
AcDbLine
 62
7
  6
CONTINUOUS
 10
-0.7831390036
 20
-4.8
 11
-0.7831390036
 21
-6.8
  0
LINE
  5
40F
100
AcDbEntity
  8
218_STAMPATO
100
AcDbLine
 62
250
  6
CONTINUOUS
 10
-0.6355613827
 20
9.7557498279
 11
-0.6355613827
 21
18.2442501721
  0
LINE
  5
410
100
AcDbEntity
  8
218_STAMPATO
100
AcDbLine
 62
7
  6
CONTINUOUS
 10
-0.5331390036
 20
-7.05
 11
-0.5331390036
 21
-4.55
  0
LINE
  5
411
100
AcDbEntity
  8
218_STAMPATO
100
AcDbLine
 62
7
  6
CONTINUOUS
 10
-4.5770829141
 20
-16.5872340739
 11
-4.5374996185
 21
-16.4255319655
  0
LINE
  5
412
100
AcDbEntity
  8
218_STAMPATO
100
AcDbLine
 62
250
  6
CONTINUOUS
 10
-9.298360906
 20
-19.4186688218
 11
-9.37801846
 21
-19.6109791689
  0
LINE
  5
413
100
AcDbEntity
  8
218_STAMPATO
100
AcDbLine
 62
7
  6
CONTINUOUS
 10
-3.6
 20
-5.9372340441
 11
-3.5749999523
 21
-5.8861702204
  0
LINE
  5
414
100
AcDbEntity
  8
218_STAMPATO
100
AcDbLine
 62
7
  6
CONTINUOUS
 10
4.6166666448
 20
6.1063830197
 11
4.3791667581
 21
5.8234042168
  0
LINE
  5
415
100
AcDbEntity
  8
218_STAMPATO
100
AcDbLine
 62
7
  6
CONTINUOUS
 10
4.3791667581
 20
5.5
 11
4.6166666448
 21
5.7829786897
  0
LINE
  5
416
100
AcDbEntity
  8
218_STAMPATO
100
AcDbLine
 62
7
  6
CONTINUOUS
 10
-6.78125
 20
-5.1776595592
 11
-6.875
 21
-5.2734042287
  0
LINE
  5
417
100
AcDbEntity
  8
218_STAMPATO
100
AcDbLine
 62
7
  6
CONTINUOUS
 10
-6.0937499404
 20
-6.4223404296
 11
-5.9999999404
 21
-6.326595749
  0
LINE
  5
418
100
AcDbEntity
  8
284
100
AcDbLine
 62
7
  6
CONTINUOUS
 10
9.3156865167
 20
1.1665458587
 11
9.3657505898
 21
1.1717789793
  0
LINE
  5
419
100
AcDbEntity
  8
712
100
AcDbLine
 62
250
  6
CONTINUOUS
 10
-8.2750389005
 20
0.1732050808
 11
-7.45
 21
0.1732050808
  0
LINE
  5
41A
100
AcDbEntity
  8
712
100
AcDbLine
 62
250
  6
CONTINUOUS
 10
8.2750362287
 20
0.1732050808
 11
7.45
 21
0.1732050808
  0
LINE
  5
41B
100
AcDbEntity
  8
712
100
AcDbLine
 62
250
  6
CONTINUOUS
 10
2.2249610995
 20
0.1732050808
 11
3.05
 21
0.1732050808
  0
LINE
  5
41C
100
AcDbEntity
  8
712
100
AcDbLine
 62
250
  6
CONTINUOUS
 10
-2.2249637713
 20
0.1732050808
 11
-3.05
 21
0.1732050808
  0
LINE
  5
41D
100
AcDbEntity
  8
284
100
AcDbLine
 62
7
  6
CONTINUOUS
 10
-9.3156865167
 20
1.1665458587
 11
-9.3657505898
 21
1.1717789793
  0
LINE
  5
41E
100
AcDbEntity
  8
218_STAMPATO
100
AcDbLine
 62
250
  6
CONTINUOUS
 10
-0.3973706412
 20
-0.0780968296
 11
-0.6357929203
 21
0.1021006545
  0
LINE
  5
41F
100
AcDbEntity
  8
218_STAMPATO
100
AcDbLine
 62
250
  6
CONTINUOUS
 10
-0.1532977031
 20
-0.4557093961
 11
-0.3832442292
 21
-0.2648142404
  0
LINE
  5
420
100
AcDbEntity
  8
218_STAMPATO
100
AcDbLine
 62
250
  6
CONTINUOUS
 10
-4.8887540148
 20
3.7303262068
 11
-4.6720064587
 21
3.5245670412
  0
LINE
  5
421
100
AcDbEntity
  8
218_STAMPATO
100
AcDbLine
 62
250
  6
CONTINUOUS
 10
-9.9268797902
 20
9.1267274854
 11
-9.7832913085
 21
8.9831390036
  0
LINE
  5
422
100
AcDbEntity
  8
218_STAMPATO
100
AcDbLine
 62
7
  6
CONTINUOUS
 10
-6.7937503934
 20
5.7829786897
 11
-6.6354169846
 21
5.6212765813
  0
LINE
  5
423
100
AcDbEntity
  8
218_STAMPATO
100
AcDbLine
 62
250
  6
CONTINUOUS
 10
-5.1106384672
 20
4.1119145381
 11
-4.9015961795
 21
3.8983315856
  0
LINE
  5
424
100
AcDbEntity
  8
218_STAMPATO
100
AcDbLine
 62
250
  6
CONTINUOUS
 10
9.7832913085
 20
-14.7936354788
 11
9.6032366926
 21
-14.5551052203
  0
LINE
  5
425
100
AcDbEntity
  8
218_STAMPATO
100
AcDbLine
 62
250
  6
CONTINUOUS
 10
-9.37801846
 20
19.6109791689
 11
-9.3684931149
 21
19.5879829516
  0
LINE
  5
426
100
AcDbEntity
  8
218_STAMPATO
100
AcDbLine
 62
250
  6
CONTINUOUS
 10
0.3644005403
 20
9.7644005403
 11
0.3644005403
 21
18.2355994597
  0
LINE
  5
427
100
AcDbEntity
  8
218_STAMPATO
100
AcDbLine
 62
7
  6
CONTINUOUS
 10
0.3950207329
 20
9.7950207329
 11
0.3950207329
 21
18.2049792671
  0
LINE
  5
428
100
AcDbEntity
  8
218_STAMPATO
100
AcDbLine
 62
7
  6
CONTINUOUS
 10
0.6976386936
 20
10.0976386936
 11
0.6976386936
 21
17.9023613064
  0
LINE
  5
429
100
AcDbEntity
  8
218_STAMPATO
100
AcDbLine
 62
7
  6
CONTINUOUS
 10
0.75
 20
10.15
 11
0.75
 21
17.85
  0
LINE
  5
42A
100
AcDbEntity
  8
268
100
AcDbLine
 62
250
  6
CONTINUOUS
 10
1.1798785586
 20
-11.3273914397
 11
1.1798785586
 21
-12.8726085603
  0
LINE
  5
42B
100
AcDbEntity
  8
715
100
AcDbLine
 62
7
  6
CONTINUOUS
 10
1.25
 20
-13.0011969502
 11
1.25
 21
-11.1988030498
  0
LINE
  5
42C
100
AcDbEntity
  8
715
100
AcDbLine
 62
7
  6
CONTINUOUS
 10
1.35
 20
-13.1499702486
 11
1.35
 21
-11.0500297514
  0
LINE
  5
42D
100
AcDbEntity
  8
712
100
AcDbLine
 62
250
  6
CONTINUOUS
 10
1.4831686274
 20
1.3
 11
1.4831686274
 21
2.8334775302
  0
LINE
  5
42E
100
AcDbEntity
  8
715
100
AcDbLine
 62
250
  6
CONTINUOUS
 10
1.55
 20
-13.2240943721
 11
1.55
 21
-11.3551654739
  0
LINE
  5
42F
100
AcDbEntity
  8
320
100
AcDbLine
 62
250
  6
CONTINUOUS
 10
1.9
 20
0.2673242919
 11
1.9
 21
0.9182000986
  0
LINE
  5
430
100
AcDbEntity
  8
268
100
AcDbLine
 62
7
  6
CONTINUOUS
 10
1.9948957647
 20
1.3
 11
1.9948957647
 21
0.9745183349
  0
LINE
  5
431
100
AcDbEntity
  8
712
100
AcDbLine
 62
7
  6
CONTINUOUS
 10
2.04
 20
0.2260936293
 11
2.04
 21
1.3
  0
LINE
  5
432
100
AcDbEntity
  8
712
100
AcDbLine
 62
7
  6
CONTINUOUS
 10
2.05
 20
3.18
 11
2.05
 21
3.2491191219
  0
LINE
  5
433
100
AcDbEntity
  8
712
100
AcDbLine
 62
250
  6
CONTINUOUS
 10
2.05
 20
1.3
 11
2.05
 21
3.18
  0
LINE
  5
434
100
AcDbEntity
  8
218_STAMPATO
100
AcDbLine
 62
250
  6
CONTINUOUS
 10
9.3684931149
 20
19.5879829516
 11
9.37801846
 21
19.6109791689
  0
LINE
  5
435
100
AcDbEntity
  8
218_STAMPATO
100
AcDbLine
 62
250
  6
CONTINUOUS
 10
10.0754922003
 20
19.2951343418
 11
10.0850175454
 21
19.3181305591
  0
LINE
  5
436
100
AcDbEntity
  8
218_STAMPATO
100
AcDbLine
 62
250
  6
CONTINUOUS
 10
-9.7832913085
 20
-14.7936354788
 11
-9.6032366926
 21
-14.5551052203
  0
LINE
  5
437
100
AcDbEntity
  8
218_STAMPATO
100
AcDbLine
 62
250
  6
CONTINUOUS
 10
5.1106384673
 20
4.1119145383
 11
4.9015961795
 21
3.8983315857
  0
LINE
  5
438
100
AcDbEntity
  8
218_STAMPATO
100
AcDbLine
 62
7
  6
CONTINUOUS
 10
-5.075000006
 20
-5.7585106611
 11
-5.125000003
 21
-5.8095744848
  0
LINE
  5
439
100
AcDbEntity
  8
218_STAMPATO
100
AcDbLine
 62
7
  6
CONTINUOUS
 10
-5.125000003
 20
-5.9117021322
 11
-5.075000006
 21
-5.8606383085
  0
LINE
  5
43A
100
AcDbEntity
  8
218_STAMPATO
100
AcDbLine
 62
7
  6
CONTINUOUS
 10
-4.6750000119
 20
-5.7585106611
 11
-4.7500000119
 21
-5.8351063967
  0
LINE
  5
43B
100
AcDbEntity
  8
218_STAMPATO
100
AcDbLine
 62
7
  6
CONTINUOUS
 10
-4.6999999881
 20
-5.8861702204
 11
-4.6750000119
 21
-5.8606383085
  0
LINE
  5
43C
100
AcDbEntity
  8
218_STAMPATO
100
AcDbLine
 62
7
  6
CONTINUOUS
 10
-3.9499999523
 20
-5.7585106611
 11
-4.0000000477
 21
-5.8095744848
  0
LINE
  5
43D
100
AcDbEntity
  8
218_STAMPATO
100
AcDbLine
 62
7
  6
CONTINUOUS
 10
-4.0000000477
 20
-5.9117021322
 11
-3.9499999523
 21
-5.8606383085
  0
LINE
  5
43E
100
AcDbEntity
  8
218_STAMPATO
100
AcDbLine
 62
7
  6
CONTINUOUS
 10
-3.5500000477
 20
-5.7585106611
 11
-3.6250000477
 21
-5.8351063967
  0
LINE
  5
43F
100
AcDbEntity
  8
218_STAMPATO
100
AcDbLine
 62
7
  6
CONTINUOUS
 10
-3.5749999523
 20
-5.8861702204
 11
-3.5500000477
 21
-5.8606383085
  0
LINE
  5
440
100
AcDbEntity
  8
218_STAMPATO
100
AcDbLine
 62
250
  6
CONTINUOUS
 10
9.7832913085
 20
8.9831390036
 11
9.9268797902
 21
9.1267274854
  0
LINE
  5
441
100
AcDbEntity
  8
218_STAMPATO
100
AcDbLine
 62
250
  6
CONTINUOUS
 10
10.7831390036
 20
7.9832913085
 11
10.9524531334
 21
8.1526054383
  0
LINE
  5
442
100
AcDbEntity
  8
218_STAMPATO
100
AcDbLine
 62
250
  6
CONTINUOUS
 10
4.8887540147
 20
3.7303262068
 11
4.6720064589
 21
3.5245670416
  0
LINE
  5
443
100
AcDbEntity
  8
218_STAMPATO
100
AcDbLine
 62
250
  6
CONTINUOUS
 10
0.1532977029
 20
-0.455709397
 11
0.3832442295
 21
-0.2648142408
  0
LINE
  5
444
100
AcDbEntity
  8
218_STAMPATO
100
AcDbLine
 62
250
  6
CONTINUOUS
 10
0.3973706423
 20
-0.0780968309
 11
0.6357929197
 21
0.1021006521
  0
LINE
  5
445
100
AcDbEntity
  8
218_STAMPATO
100
AcDbLine
 62
7
  6
CONTINUOUS
 10
-6.6875
 20
-5.3053191185
 11
-6.59375
 21
-5.2414893389
  0
LINE
  5
446
100
AcDbEntity
  8
218_STAMPATO
100
AcDbLine
 62
7
  6
CONTINUOUS
 10
-6.1875000298
 20
-6.2946808591
 11
-6.2812500298
 21
-6.3585106388
  0
LINE
  5
447
100
AcDbEntity
  8
218_STAMPATO
100
AcDbLine
 62
7
  6
CONTINUOUS
 10
-6.6249999702
 20
-5.0819148898
 11
-6.78125
 21
-5.1776595592
  0
LINE
  5
448
100
AcDbEntity
  8
712
100
AcDbLine
 62
7
  6
CONTINUOUS
 10
-8.46
 20
0.2886751346
 11
-7.45
 21
0.2886751346
  0
LINE
  5
449
100
AcDbEntity
  8
712
100
AcDbLine
 62
7
  6
CONTINUOUS
 10
-3.05
 20
0.2886751346
 11
-2.04
 21
0.2886751346
  0
LINE
  5
44A
100
AcDbEntity
  8
712
100
AcDbLine
 62
7
  6
CONTINUOUS
 10
2.04
 20
0.2886751346
 11
3.05
 21
0.2886751346
  0
LINE
  5
44B
100
AcDbEntity
  8
712
100
AcDbLine
 62
7
  6
CONTINUOUS
 10
7.45
 20
0.2886751346
 11
8.46
 21
0.2886751346
  0
LINE
  5
44C
100
AcDbEntity
  8
320
100
AcDbLine
 62
250
  6
CONTINUOUS
 10
-9.0389306327
 20
0.5916500204
 11
-8.46
 21
0.5916500204
  0
LINE
  5
44D
100
AcDbEntity
  8
320
100
AcDbLine
 62
250
  6
CONTINUOUS
 10
-2.04
 20
0.5916500204
 11
-1.4610693673
 21
0.5916500204
  0
LINE
  5
44E
100
AcDbEntity
  8
320
100
AcDbLine
 62
250
  6
CONTINUOUS
 10
1.4610693673
 20
0.5916500204
 11
2.04
 21
0.5916500204
  0
LINE
  5
44F
100
AcDbEntity
  8
320
100
AcDbLine
 62
250
  6
CONTINUOUS
 10
8.46
 20
0.5916500204
 11
9.0389306327
 21
0.5916500204
  0
LINE
  5
450
100
AcDbEntity
  8
320
100
AcDbLine
 62
7
  6
CONTINUOUS
 10
9.3002647725
 20
1.0025883704
 11
8.9236067977
 21
1.0025883704
  0
LINE
  5
451
100
AcDbEntity
  8
320
100
AcDbLine
 62
7
  6
CONTINUOUS
 10
1.5763932023
 20
1.0025883704
 11
1.1997352275
 21
1.0025883704
  0
LINE
  5
452
100
AcDbEntity
  8
320
100
AcDbLine
 62
7
  6
CONTINUOUS
 10
-1.1997352275
 20
1.0025883704
 11
-1.5763932023
 21
1.0025883704
  0
LINE
  5
453
100
AcDbEntity
  8
320
100
AcDbLine
 62
7
  6
CONTINUOUS
 10
-8.9236067977
 20
1.0025883704
 11
-9.3002647725
 21
1.0025883704
  0
LINE
  5
454
100
AcDbEntity
  8
284
100
AcDbLine
 62
7
  6
CONTINUOUS
 10
-9.3156865167
 20
1.1665458587
 11
-8.6
 21
1.1665458587
  0
LINE
  5
455
100
AcDbEntity
  8
284
100
AcDbLine
 62
7
  6
CONTINUOUS
 10
9.3156865167
 20
1.1665458587
 11
8.6
 21
1.1665458587
  0
LINE
  5
456
100
AcDbEntity
  8
284
100
AcDbLine
 62
7
  6
CONTINUOUS
 10
-9.3733773906
 20
1.1957456458
 11
-8.6
 21
1.1957456458
  0
LINE
  5
457
100
AcDbEntity
  8
284
100
AcDbLine
 62
7
  6
CONTINUOUS
 10
9.3733773906
 20
1.1957456458
 11
8.6
 21
1.1957456458
  0
LINE
  5
458
100
AcDbEntity
  8
712
100
AcDbLine
 62
7
  6
CONTINUOUS
 10
9.4022611604
 20
1.3
 11
8.45
 21
1.3
  0
LINE
  5
459
100
AcDbEntity
  8
712
100
AcDbLine
 62
7
  6
CONTINUOUS
 10
2.05
 20
1.3
 11
1.0977388396
 21
1.3
  0
LINE
  5
45A
100
AcDbEntity
  8
712
100
AcDbLine
 62
7
  6
CONTINUOUS
 10
-1.0977388396
 20
1.3
 11
-2.05
 21
1.3
  0
LINE
  5
45B
100
AcDbEntity
  8
712
100
AcDbLine
 62
7
  6
CONTINUOUS
 10
-8.45
 20
1.3
 11
-9.4022611604
 21
1.3
  0
LINE
  5
45C
100
AcDbEntity
  8
218_STAMPATO
100
AcDbLine
 62
7
  6
CONTINUOUS
 10
-6.6354169846
 20
5.6212765813
 11
-6.4770835757
 21
5.5404255271
  0
LINE
  5
45D
100
AcDbEntity
  8
218_STAMPATO
100
AcDbLine
 62
7
  6
CONTINUOUS
 10
-6.3979169846
 20
5.7425531626
 11
-6.5166669846
 21
5.8234042168
  0
LINE
  5
45E
100
AcDbEntity
  8
218_STAMPATO
100
AcDbLine
 62
250
  6
CONTINUOUS
 10
9.37801846
 20
-19.6109791689
 11
9.298360906
 21
-19.4186688218
  0
LINE
  5
45F
100
AcDbEntity
  8
218_STAMPATO
100
AcDbLine
 62
250
  6
CONTINUOUS
 10
10.0850175454
 20
-19.3181305591
 11
10.0053599914
 21
-19.125820212
  0
LINE
  5
460
100
AcDbEntity
  8
218_STAMPATO
100
AcDbLine
 62
7
  6
CONTINUOUS
 10
2.1482889726
 20
8.9831390036
 11
2.1414727239
 21
9.071192477
  0
LINE
  5
461
100
AcDbEntity
  8
218_STAMPATO
100
AcDbLine
 62
250
  6
CONTINUOUS
 10
2.4010050333
 20
20.0531791558
 11
2.4015242349
 21
19.8844866796
  0
LINE
  5
462
100
AcDbEntity
  8
218_STAMPATO
100
AcDbLine
 62
7
  6
CONTINUOUS
 10
2.4475340777
 20
7.9832913085
 11
2.4475340777
 21
7.9412732553
  0
LINE
  5
463
100
AcDbEntity
  8
218_STAMPATO
100
AcDbLine
 62
7
  6
CONTINUOUS
 10
2.4475340777
 20
-18.4188211266
 11
2.4475340777
 21
-18.0412732553
  0
LINE
  5
464
100
AcDbEntity
  8
268
100
AcDbLine
 62
7
  6
CONTINUOUS
 10
2.5
 20
-18.0694133782
 11
2.5
 21
-18.0763198503
  0
LINE
  5
465
100
AcDbEntity
  8
218_STAMPATO
100
AcDbLine
 62
250
  6
CONTINUOUS
 10
2.5001047116
 20
-18.0763198503
 11
2.5001047116
 21
-18.55
  0
LINE
  5
466
100
AcDbEntity
  8
218_STAMPATO
100
AcDbLine
 62
250
  6
CONTINUOUS
 10
2.5001047116
 20
7.9763198503
 11
2.5001047116
 21
8.45
  0
LINE
  5
467
100
AcDbEntity
  8
268
100
AcDbLine
 62
7
  6
CONTINUOUS
 10
3.0
 20
-21.0
 11
3.0
 21
-22.3380392387
  0
LINE
  5
468
100
AcDbEntity
  8
268
100
AcDbLine
 62
7
  6
CONTINUOUS
 10
3.0
 20
21.0
 11
3.0
 21
22.3380392387
  0
LINE
  5
469
100
AcDbEntity
  8
712
100
AcDbLine
 62
7
  6
CONTINUOUS
 10
3.05
 20
0.2886751346
 11
3.05
 21
0.0268016748
  0
LINE
  5
46A
100
AcDbEntity
  8
712
100
AcDbLine
 62
7
  6
CONTINUOUS
 10
3.5
 20
3.2255292117
 11
3.5
 21
0.1744707883
  0
LINE
  5
46B
100
AcDbEntity
  8
715
100
AcDbLine
 62
7
  6
CONTINUOUS
 10
3.5
 20
-10.5189914437
 11
3.5
 21
-10.85
  0
LINE
  5
46C
100
AcDbEntity
  8
715
100
AcDbLine
 62
7
  6
CONTINUOUS
 10
3.5
 20
-12.7213630791
 11
3.5
 21
-13.6810085563
  0
LINE
  5
46D
100
AcDbEntity
  8
268
100
AcDbLine
 62
7
  6
CONTINUOUS
 10
3.5
 20
-20.0
 11
3.5
 21
-20.0532338935
  0
LINE
  5
46E
100
AcDbEntity
  8
268
100
AcDbLine
 62
7
  6
CONTINUOUS
 10
3.5
 20
-22.332803118
 11
3.5
 21
-23.7941821702
  0
LINE
  5
46F
100
AcDbEntity
  8
268
100
AcDbLine
 62
7
  6
CONTINUOUS
 10
3.5
 20
20.0
 11
3.5
 21
20.0532338935
  0
LINE
  5
470
100
AcDbEntity
  8
268
100
AcDbLine
 62
7
  6
CONTINUOUS
 10
3.5
 20
22.332803118
 11
3.5
 21
23.7941821702
  0
LINE
  5
471
100
AcDbEntity
  8
712
100
AcDbLine
 62
7
  6
CONTINUOUS
 10
3.75
 20
3.0746273872
 11
3.75
 21
0.3253726128
  0
LINE
  5
472
100
AcDbEntity
  8
715
100
AcDbLine
 62
7
  6
CONTINUOUS
 10
3.75
 20
-13.5359919672
 11
3.75
 21
-12.6773792079
  0
LINE
  5
473
100
AcDbEntity
  8
715
100
AcDbLine
 62
7
  6
CONTINUOUS
 10
3.75
 20
-10.85
 11
3.75
 21
-10.6640080328
  0
LINE
  5
474
100
AcDbEntity
  8
268
100
AcDbLine
 62
250
  6
CONTINUOUS
 10
3.8
 20
23.7534573615
 11
3.8
 21
22.3301850577
  0
LINE
  5
475
100
AcDbEntity
  8
268
100
AcDbLine
 62
250
  6
CONTINUOUS
 10
3.8
 20
-22.3301850577
 11
3.8
 21
-23.7534573615
  0
LINE
  5
476
100
AcDbEntity
  8
218_STAMPATO
100
AcDbLine
 62
250
  6
CONTINUOUS
 10
2.4015242349
 20
-19.8844866796
 11
2.4010050333
 21
-20.0531791558
  0
LINE
  5
477
100
AcDbEntity
  8
218_STAMPATO
100
AcDbLine
 62
7
  6
CONTINUOUS
 10
1.9545633653
 20
-19.4186688218
 11
1.9477448322
 21
-19.5067518054
  0
LINE
  5
478
100
AcDbEntity
  8
218_STAMPATO
100
AcDbLine
 62
7
  6
CONTINUOUS
 10
-4.7749996185
 20
-16.4255319655
 11
-4.8541663229
 21
-16.5872340739
  0
LINE
  5
479
100
AcDbEntity
  8
218_STAMPATO
100
AcDbLine
 62
250
  6
CONTINUOUS
 10
-8.5522551678
 20
-19.5067518054
 11
-7.9998952884
 21
-18.55
  0
LINE
  5
47A
100
AcDbEntity
  8
218_STAMPATO
100
AcDbLine
 62
250
  6
CONTINUOUS
 10
7.9998952884
 20
8.45
 11
8.3585272761
 21
9.071192477
  0
LINE
  5
47B
100
AcDbEntity
  8
218_STAMPATO
100
AcDbLine
 62
250
  6
CONTINUOUS
 10
-5.3893615327
 20
-9.6880854618
 11
-5.5984038205
 21
-9.9016684144
  0
LINE
  5
47C
100
AcDbEntity
  8
218_STAMPATO
100
AcDbLine
 62
250
  6
CONTINUOUS
 10
-5.827993541
 20
-10.2754329585
 11
-5.6112459853
 21
-10.0696737932
  0
LINE
  5
47D
100
AcDbEntity
  8
218_STAMPATO
100
AcDbLine
 62
7
  6
CONTINUOUS
 10
-6.2499999702
 20
-6.5180851074
 11
-6.0937499404
 21
-6.4223404296
  0
LINE
  5
47E
100
AcDbEntity
  8
218_STAMPATO
100
AcDbLine
 62
7
  6
CONTINUOUS
 10
-4.6750000119
 20
-5.8606383085
 11
-4.6250000238
 21
-5.8351063967
  0
LINE
  5
47F
100
AcDbEntity
  8
218_STAMPATO
100
AcDbLine
 62
7
  6
CONTINUOUS
 10
-3.5500000477
 20
-5.8606383085
 11
-3.4999999523
 21
-5.8351063967
  0
LINE
  5
480
100
AcDbEntity
  8
218_STAMPATO
100
AcDbLine
 62
7
  6
CONTINUOUS
 10
-5.000000006
 20
-5.7329787493
 11
-5.075000006
 21
-5.7585106611
  0
LINE
  5
481
100
AcDbEntity
  8
712
100
AcDbLine
 62
7
  6
CONTINUOUS
 10
8.5861857007
 20
3.18
 11
8.45
 21
3.18
  0
LINE
  5
482
100
AcDbEntity
  8
712
100
AcDbLine
 62
250
  6
CONTINUOUS
 10
8.45
 20
3.18
 11
7.0
 21
3.18
  0
LINE
  5
483
100
AcDbEntity
  8
712
100
AcDbLine
 62
7
  6
CONTINUOUS
 10
2.05
 20
3.18
 11
1.9138142993
 21
3.18
  0
LINE
  5
484
100
AcDbEntity
  8
712
100
AcDbLine
 62
250
  6
CONTINUOUS
 10
3.5
 20
3.18
 11
2.05
 21
3.18
  0
LINE
  5
485
100
AcDbEntity
  8
712
100
AcDbLine
 62
7
  6
CONTINUOUS
 10
-1.9138142993
 20
3.18
 11
-2.05
 21
3.18
  0
LINE
  5
486
100
AcDbEntity
  8
712
100
AcDbLine
 62
250
  6
CONTINUOUS
 10
-2.05
 20
3.18
 11
-3.5
 21
3.18
  0
LINE
  5
487
100
AcDbEntity
  8
712
100
AcDbLine
 62
7
  6
CONTINUOUS
 10
-8.45
 20
3.18
 11
-8.5861857007
 21
3.18
  0
LINE
  5
488
100
AcDbEntity
  8
712
100
AcDbLine
 62
250
  6
CONTINUOUS
 10
-7.0
 20
3.18
 11
-8.45
 21
3.18
  0
LINE
  5
489
100
AcDbEntity
  8
712
100
AcDbLine
 62
7
  6
CONTINUOUS
 10
8.0092255115
 20
3.38
 11
7.4907744885
 21
3.38
  0
LINE
  5
48A
100
AcDbEntity
  8
712
100
AcDbLine
 62
7
  6
CONTINUOUS
 10
3.0092255115
 20
3.38
 11
2.4907744885
 21
3.38
  0
LINE
  5
48B
100
AcDbEntity
  8
712
100
AcDbLine
 62
7
  6
CONTINUOUS
 10
-2.4907744885
 20
3.38
 11
-3.0092255115
 21
3.38
  0
LINE
  5
48C
100
AcDbEntity
  8
712
100
AcDbLine
 62
7
  6
CONTINUOUS
 10
-7.4907744885
 20
3.38
 11
-8.0092255115
 21
3.38
  0
LINE
  5
48D
100
AcDbEntity
  8
218_STAMPATO
100
AcDbLine
 62
250
  6
CONTINUOUS
 10
0.3973706412
 20
3.4780968296
 11
0.6357929203
 21
3.2978993455
  0
LINE
  5
48E
100
AcDbEntity
  8
218_STAMPATO
100
AcDbLine
 62
250
  6
CONTINUOUS
 10
0.1532977031
 20
3.8557093961
 11
0.3832442292
 21
3.6648142404
  0
LINE
  5
48F
100
AcDbEntity
  8
218_STAMPATO
100
AcDbLine
 62
250
  6
CONTINUOUS
 10
4.8887540148
 20
-0.3303262068
 11
4.6720064587
 21
-0.1245670412
  0
LINE
  5
490
100
AcDbEntity
  8
218_STAMPATO
100
AcDbLine
 62
7
  6
CONTINUOUS
 10
6.95
 20
-3.3
 11
5.25
 21
-1.6
  0
LINE
  5
491
100
AcDbEntity
  8
218_STAMPATO
100
AcDbLine
 62
250
  6
CONTINUOUS
 10
5.1106384672
 20
-0.7119145381
 11
4.9015961795
 21
-0.4983315856
  0
LINE
  5
492
100
AcDbEntity
  8
218_STAMPATO
100
AcDbLine
 62
7
  6
CONTINUOUS
 10
-6.9673834379
 20
11.8386702872
 11
-6.8865535485
 21
11.7534999339
  0
LINE
  5
493
100
AcDbEntity
  8
268
100
AcDbLine
 62
7
  6
CONTINUOUS
 10
4.0
 20
7.9904300991
 11
4.0
 21
7.9563488023
  0
LINE
  5
494
100
AcDbEntity
  8
268
100
AcDbLine
 62
250
  6
CONTINUOUS
 10
4.0551976334
 20
-23.7534573615
 11
4.0551976334
 21
-22.3301850577
  0
LINE
  5
495
100
AcDbEntity
  8
268
100
AcDbLine
 62
250
  6
CONTINUOUS
 10
4.0551976334
 20
22.3301850577
 11
4.0551976334
 21
23.7534573615
  0
LINE
  5
496
100
AcDbEntity
  8
218_STAMPATO
100
AcDbLine
 62
7
  6
CONTINUOUS
 10
4.1416667581
 20
7.4
 11
4.1416667581
 21
5.5
  0
LINE
  5
497
100
AcDbEntity
  8
268
100
AcDbLine
 62
250
  6
CONTINUOUS
 10
4.3551925565
 20
-23.7551925565
 11
4.3551925565
 21
-22.3327878868
  0
LINE
  5
498
100
AcDbEntity
  8
268
100
AcDbLine
 62
250
  6
CONTINUOUS
 10
4.3551925565
 20
22.3327878868
 11
4.3551925565
 21
23.7551925565
  0
LINE
  5
499
100
AcDbEntity
  8
218_STAMPATO
100
AcDbLine
 62
7
  6
CONTINUOUS
 10
4.3791667581
 20
5.8234042168
 11
4.3791667581
 21
7.4
  0
LINE
  5
49A
100
AcDbEntity
  8
268
100
AcDbLine
 62
7
  6
CONTINUOUS
 10
4.4
 20
-23.8
 11
4.4
 21
-22.4
  0
LINE
  5
49B
100
AcDbEntity
  8
268
100
AcDbLine
 62
7
  6
CONTINUOUS
 10
4.4
 20
22.4
 11
4.4
 21
23.8
  0
LINE
  5
49C
100
AcDbEntity
  8
218_STAMPATO
100
AcDbLine
 62
7
  6
CONTINUOUS
 10
4.6166666448
 20
5.7829786897
 11
4.6166666448
 21
6.1063830197
  0
LINE
  5
49D
100
AcDbEntity
  8
268
100
AcDbLine
 62
7
  6
CONTINUOUS
 10
4.7
 20
7.991855917
 11
4.7
 21
7.9549280331
  0
LINE
  5
49E
100
AcDbEntity
  8
218_STAMPATO
100
AcDbLine
 62
7
  6
CONTINUOUS
 10
4.9333333492
 20
7.4
 11
4.9333333492
 21
7.1574468091
  0
LINE
  5
49F
100
AcDbEntity
  8
284
100
AcDbLine
 62
7
  6
CONTINUOUS
 10
5.0
 20
16.1150540841
 11
5.0
 21
11.2792961852
  0
LINE
  5
4A0
100
AcDbEntity
  8
218_STAMPATO
100
AcDbLine
 62
7
  6
CONTINUOUS
 10
5.0125000477
 20
-16.1829786897
 11
5.0125000477
 21
-16.5063830197
  0
LINE
  5
4A1
100
AcDbEntity
  8
268
100
AcDbLine
 62
7
  6
CONTINUOUS
 10
5.2
 20
7.9921757943
 11
5.2
 21
7.9546088894
  0
LINE
  5
4A2
100
AcDbEntity
  8
218_STAMPATO
100
AcDbLine
 62
7
  6
CONTINUOUS
 10
5.2500000477
 20
-16.2234042168
 11
5.2500000477
 21
-17.8
  0
LINE
  5
4A3
100
AcDbEntity
  8
218_STAMPATO
100
AcDbLine
 62
7
  6
CONTINUOUS
 10
5.4875000477
 20
-17.8
 11
5.4875000477
 21
-15.9
  0
LINE
  5
4A4
100
AcDbEntity
  8
218_STAMPATO
100
AcDbLine
 62
7
  6
CONTINUOUS
 10
5.6609791689
 20
19.8109791689
 11
5.6609791689
 21
19.6109791689
  0
LINE
  5
4A5
100
AcDbEntity
  8
218_STAMPATO
100
AcDbLine
 62
7
  6
CONTINUOUS
 10
5.6609791689
 20
-19.6109791689
 11
5.6609791689
 21
-19.8109791689
  0
LINE
  5
4A6
100
AcDbEntity
  8
218_STAMPATO
100
AcDbLine
 62
7
  6
CONTINUOUS
 10
-5.7249996185
 20
-16.3446807981
 11
-5.6458329424
 21
-16.2234042168
  0
LINE
  5
4A7
100
AcDbEntity
  8
218_STAMPATO
100
AcDbLine
 62
7
  6
CONTINUOUS
 10
-4.6562496185
 20
-16.7085106552
 11
-4.5770829141
 21
-16.5872340739
  0
LINE
  5
4A8
100
AcDbEntity
  8
218_STAMPATO
100
AcDbLine
 62
250
  6
CONTINUOUS
 10
9.7832913085
 20
4.3936354788
 11
9.6032366926
 21
4.1551052203
  0
LINE
  5
4A9
100
AcDbEntity
  8
218_STAMPATO
100
AcDbLine
 62
250
  6
CONTINUOUS
 10
5.3893615327
 20
-0.7119145382
 11
5.5984038205
 21
-0.4983315856
  0
LINE
  5
4AA
100
AcDbEntity
  8
218_STAMPATO
100
AcDbLine
 62
7
  6
CONTINUOUS
 10
5.25
 20
-1.6
 11
3.55
 21
-3.3
  0
LINE
  5
4AB
100
AcDbEntity
  8
218_STAMPATO
100
AcDbLine
 62
250
  6
CONTINUOUS
 10
5.6112459853
 20
-0.3303262068
 11
5.827993541
 21
-0.1245670415
  0
LINE
  5
4AC
100
AcDbEntity
  8
218_STAMPATO
100
AcDbLine
 62
7
  6
CONTINUOUS
 10
-5.075000006
 20
-5.8606383085
 11
-5.000000006
 21
-5.8351063967
  0
LINE
  5
4AD
100
AcDbEntity
  8
218_STAMPATO
100
AcDbLine
 62
7
  6
CONTINUOUS
 10
-4.5999999762
 20
-5.7329787493
 11
-4.6750000119
 21
-5.7585106611
  0
LINE
  5
4AE
100
AcDbEntity
  8
218_STAMPATO
100
AcDbLine
 62
7
  6
CONTINUOUS
 10
-3.8749999523
 20
-5.7329787493
 11
-3.9499999523
 21
-5.7585106611
  0
LINE
  5
4AF
100
AcDbEntity
  8
218_STAMPATO
100
AcDbLine
 62
7
  6
CONTINUOUS
 10
-3.9499999523
 20
-5.8606383085
 11
-3.8749999523
 21
-5.8351063967
  0
LINE
  5
4B0
100
AcDbEntity
  8
218_STAMPATO
100
AcDbLine
 62
7
  6
CONTINUOUS
 10
-3.4750000477
 20
-5.7329787493
 11
-3.5500000477
 21
-5.7585106611
  0
LINE
  5
4B1
100
AcDbEntity
  8
218_STAMPATO
100
AcDbLine
 62
7
  6
CONTINUOUS
 10
-6.2395835757
 20
5.5
 11
-6.0812503934
 21
5.5
  0
LINE
  5
4B2
100
AcDbEntity
  8
218_STAMPATO
100
AcDbLine
 62
7
  6
CONTINUOUS
 10
-3.9041669846
 20
5.5
 11
-3.6666669846
 21
5.5
  0
LINE
  5
4B3
100
AcDbEntity
  8
218_STAMPATO
100
AcDbLine
 62
7
  6
CONTINUOUS
 10
4.1416667581
 20
5.5
 11
4.3791667581
 21
5.5
  0
LINE
  5
4B4
100
AcDbEntity
  8
218_STAMPATO
100
AcDbLine
 62
7
  6
CONTINUOUS
 10
6.1208333492
 20
5.5
 11
6.3583333492
 21
5.5
  0
LINE
  5
4B5
100
AcDbEntity
  8
218_STAMPATO
100
AcDbLine
 62
7
  6
CONTINUOUS
 10
-6.4770835757
 20
5.5404255271
 11
-6.2395835757
 21
5.5
  0
LINE
  5
4B6
100
AcDbEntity
  8
218_STAMPATO
100
AcDbLine
 62
7
  6
CONTINUOUS
 10
-6.2000003934
 20
5.7021276355
 11
-6.3979169846
 21
5.7425531626
  0
LINE
  5
4B7
100
AcDbEntity
  8
218_STAMPATO
100
AcDbLine
 62
7
  6
CONTINUOUS
 10
-2.4475340777
 20
7.9412732553
 11
-2.5001047116
 21
7.9763198503
  0
LINE
  5
4B8
100
AcDbEntity
  8
218_STAMPATO
100
AcDbLine
 62
7
  6
CONTINUOUS
 10
8.5454366347
 20
-19.4186688218
 11
8.5522551678
 21
-19.5067518054
  0
LINE
  5
4B9
100
AcDbEntity
  8
284
100
AcDbLine
 62
250
  6
CONTINUOUS
 10
6.8576969409
 20
16.1150540841
 11
6.8576956713
 21
16.1241505344
  0
LINE
  5
4BA
100
AcDbEntity
  8
218_STAMPATO
100
AcDbLine
 62
7
  6
CONTINUOUS
 10
5.75
 20
19.9
 11
5.75
 21
19.7
  0
LINE
  5
4BB
100
AcDbEntity
  8
218_STAMPATO
100
AcDbLine
 62
7
  6
CONTINUOUS
 10
5.75
 20
-19.7
 11
5.75
 21
-19.9
  0
LINE
  5
4BC
100
AcDbEntity
  8
268
100
AcDbLine
 62
7
  6
CONTINUOUS
 10
6.05
 20
20.0846506176
 11
6.05
 21
20.0
  0
LINE
  5
4BD
100
AcDbEntity
  8
268
100
AcDbLine
 62
7
  6
CONTINUOUS
 10
6.05
 20
-20.0
 11
6.05
 21
-20.0846506176
  0
LINE
  5
4BE
100
AcDbEntity
  8
218_STAMPATO
100
AcDbLine
 62
7
  6
CONTINUOUS
 10
6.1208333492
 20
7.1574468091
 11
6.1208333492
 21
5.5
  0
LINE
  5
4BF
100
AcDbEntity
  8
268
100
AcDbLine
 62
250
  6
CONTINUOUS
 10
6.35
 20
20.0872686779
 11
6.35
 21
19.7
  0
LINE
  5
4C0
100
AcDbEntity
  8
268
100
AcDbLine
 62
250
  6
CONTINUOUS
 10
6.35
 20
-20.0872686779
 11
6.35
 21
-19.7
  0
LINE
  5
4C1
100
AcDbEntity
  8
218_STAMPATO
100
AcDbLine
 62
7
  6
CONTINUOUS
 10
6.3583333492
 20
5.5
 11
6.3583333492
 21
7.4
  0
LINE
  5
4C2
100
AcDbEntity
  8
712
100
AcDbLine
 62
7
  6
CONTINUOUS
 10
6.75
 20
3.0746273872
 11
6.75
 21
0.3253726128
  0
LINE
  5
4C3
100
AcDbEntity
  8
715
100
AcDbLine
 62
7
  6
CONTINUOUS
 10
6.75
 20
-13.5359919672
 11
6.75
 21
-12.6773775301
  0
LINE
  5
4C4
100
AcDbEntity
  8
715
100
AcDbLine
 62
7
  6
CONTINUOUS
 10
6.75
 20
-10.85
 11
6.75
 21
-10.6640080328
  0
LINE
  5
4C5
100
AcDbEntity
  8
284
100
AcDbLine
 62
7
  6
CONTINUOUS
 10
6.8840047508
 20
11.9041933213
 11
6.8840047508
 21
16.0958066787
  0
LINE
  5
4C6
100
AcDbEntity
  8
268
100
AcDbLine
 62
250
  6
CONTINUOUS
 10
6.9153379589
 20
20.9
 11
6.9153379589
 21
19.7
  0
LINE
  5
4C7
100
AcDbEntity
  8
268
100
AcDbLine
 62
250
  6
CONTINUOUS
 10
6.9153379589
 20
-20.9
 11
6.9153379589
 21
-19.7
  0
LINE
  5
4C8
100
AcDbEntity
  8
712
100
AcDbLine
 62
7
  6
CONTINUOUS
 10
7.0
 20
3.2255292117
 11
7.0
 21
0.1744707883
  0
LINE
  5
4C9
100
AcDbEntity
  8
715
100
AcDbLine
 62
7
  6
CONTINUOUS
 10
7.0
 20
-10.5189914437
 11
7.0
 21
-10.85
  0
LINE
  5
4CA
100
AcDbEntity
  8
715
100
AcDbLine
 62
7
  6
CONTINUOUS
 10
7.0
 20
-12.7213615156
 11
7.0
 21
-13.6810085563
  0
LINE
  5
4CB
100
AcDbEntity
  8
268
100
AcDbLine
 62
7
  6
CONTINUOUS
 10
7.0
 20
12.0379715737
 11
7.0
 21
15.9620284263
  0
LINE
  5
4CC
100
AcDbEntity
  8
268
100
AcDbLine
 62
7
  6
CONTINUOUS
 10
7.2
 20
7.9874601861
 11
7.2
 21
7.9593038909
  0
LINE
  5
4CD
100
AcDbEntity
  8
268
100
AcDbLine
 62
250
  6
CONTINUOUS
 10
7.2153265358
 20
20.9
 11
7.2153265358
 21
20.0
  0
LINE
  5
4CE
100
AcDbEntity
  8
268
100
AcDbLine
 62
250
  6
CONTINUOUS
 10
7.2153265358
 20
-20.0
 11
7.2153265358
 21
-20.9
  0
LINE
  5
4CF
100
AcDbEntity
  8
268
100
AcDbLine
 62
7
  6
CONTINUOUS
 10
7.3
 20
20.9
 11
7.3
 21
20.0
  0
LINE
  5
4D0
100
AcDbEntity
  8
268
100
AcDbLine
 62
7
  6
CONTINUOUS
 10
7.3
 20
-20.0
 11
7.3
 21
-20.9
  0
LINE
  5
4D1
100
AcDbEntity
  8
284
100
AcDbLine
 62
7
  6
CONTINUOUS
 10
7.356365661
 20
7.9864646059
 11
7.356365661
 21
7.9602924883
  0
LINE
  5
4D2
100
AcDbEntity
  8
218_STAMPATO
100
AcDbLine
 62
7
  6
CONTINUOUS
 10
7.4
 20
20.85
 11
7.4
 21
19.7
  0
LINE
  5
4D3
100
AcDbEntity
  8
284
100
AcDbLine
 62
7
  6
CONTINUOUS
 10
7.4
 20
7.9861546077
 11
7.4
 21
7.9606009311
  0
LINE
  5
4D4
100
AcDbEntity
  8
218_STAMPATO
100
AcDbLine
 62
7
  6
CONTINUOUS
 10
7.4
 20
-19.7
 11
7.4
 21
-20.85
  0
LINE
  5
4D5
100
AcDbEntity
  8
712
100
AcDbLine
 62
7
  6
CONTINUOUS
 10
7.45
 20
0.2886751346
 11
7.45
 21
0.0268016748
  0
LINE
  5
4D6
100
AcDbEntity
  8
218_STAMPATO
100
AcDbLine
 62
7
  6
CONTINUOUS
 10
7.4890208311
 20
20.85
 11
7.4890208311
 21
19.6109791689
  0
LINE
  5
4D7
100
AcDbEntity
  8
218_STAMPATO
100
AcDbLine
 62
7
  6
CONTINUOUS
 10
7.4890208311
 20
-19.6109791689
 11
7.4890208311
 21
-20.85
  0
LINE
  5
4D8
100
AcDbEntity
  8
218_STAMPATO
100
AcDbLine
 62
250
  6
CONTINUOUS
 10
-5.1106384673
 20
-14.5119145383
 11
-4.9015961795
 21
-14.2983315857
  0
LINE
  5
4D9
100
AcDbEntity
  8
218_STAMPATO
100
AcDbLine
 62
7
  6
CONTINUOUS
 10
-5.7249996185
 20
-16.0212765813
 11
-5.8833329495
 21
-16.1829786897
  0
LINE
  5
4DA
100
AcDbEntity
  8
218_STAMPATO
100
AcDbLine
 62
250
  6
CONTINUOUS
 10
-10.1974417841
 20
-18.9337384193
 11
-9.4904426987
 21
-18.2267393339
  0
LINE
  5
4DB
100
AcDbEntity
  8
218_STAMPATO
100
AcDbLine
 62
250
  6
CONTINUOUS
 10
-10.0053599914
 20
-19.125820212
 11
-9.298360906
 21
-18.4188211266
  0
LINE
  5
4DC
100
AcDbEntity
  8
218_STAMPATO
100
AcDbLine
 62
250
  6
CONTINUOUS
 10
-4.6720064589
 20
-13.9245670416
 11
-4.8887540147
 21
-14.1303262068
  0
LINE
  5
4DD
100
AcDbEntity
  8
218_STAMPATO
100
AcDbLine
 62
7
  6
CONTINUOUS
 10
-5.8437503934
 20
5.7425531626
 11
-6.0416669846
 21
5.7021276355
  0
LINE
  5
4DE
100
AcDbEntity
  8
218_STAMPATO
100
AcDbLine
 62
7
  6
CONTINUOUS
 10
-6.0812503934
 20
5.5
 11
-5.8041669846
 21
5.5404255271
  0
LINE
  5
4DF
100
AcDbEntity
  8
218_STAMPATO
100
AcDbLine
 62
7
  6
CONTINUOUS
 10
-6.0416669846
 20
5.7021276355
 11
-6.2000003934
 21
5.7021276355
  0
LINE
  5
4E0
100
AcDbEntity
  8
218_STAMPATO
100
AcDbLine
 62
7
  6
CONTINUOUS
 10
-5.4479169846
 20
5.9446807981
 11
-5.6458335757
 21
5.9446807981
  0
LINE
  5
4E1
100
AcDbEntity
  8
218_STAMPATO
100
AcDbLine
 62
7
  6
CONTINUOUS
 10
-5.0916669846
 20
7.1574468091
 11
-3.9041669846
 21
7.1574468091
  0
LINE
  5
4E2
100
AcDbEntity
  8
218_STAMPATO
100
AcDbLine
 62
7
  6
CONTINUOUS
 10
4.9333333492
 20
7.1574468091
 11
6.1208333492
 21
7.1574468091
  0
LINE
  5
4E3
100
AcDbEntity
  8
218_STAMPATO
100
AcDbLine
 62
7
  6
CONTINUOUS
 10
-6.8333335757
 20
7.1978723362
 11
-5.7250003934
 21
7.1978723362
  0
LINE
  5
4E4
100
AcDbEntity
  8
218_STAMPATO
100
AcDbLine
 62
7
  6
CONTINUOUS
 10
6.3583333492
 20
7.4
 11
4.9333333492
 21
7.4
  0
LINE
  5
4E5
100
AcDbEntity
  8
218_STAMPATO
100
AcDbLine
 62
7
  6
CONTINUOUS
 10
4.3791667581
 20
7.4
 11
4.1416667581
 21
7.4
  0
LINE
  5
4E6
100
AcDbEntity
  8
218_STAMPATO
100
AcDbLine
 62
7
  6
CONTINUOUS
 10
-3.6666669846
 20
7.4
 11
-5.0916669846
 21
7.4
  0
LINE
  5
4E7
100
AcDbEntity
  8
218_STAMPATO
100
AcDbLine
 62
7
  6
CONTINUOUS
 10
-5.408333689
 20
7.4
 11
-6.8333335757
 21
7.4
  0
LINE
  5
4E8
100
AcDbEntity
  8
218_STAMPATO
100
AcDbLine
 62
250
  6
CONTINUOUS
 10
5.6112459853
 20
3.7303262068
 11
5.8279935413
 21
3.5245670413
  0
LINE
  5
4E9
100
AcDbEntity
  8
218_STAMPATO
100
AcDbLine
 62
7
  6
CONTINUOUS
 10
-3.462811
 20
12.844233
 11
-3.303101
 21
12.687437
  0
LINE
  5
4EA
100
AcDbEntity
  8
218_STAMPATO
100
AcDbLine
 62
7
  6
CONTINUOUS
 10
-3.1747630339
 20
12.5614540594
 11
-2.0627064277
 21
11.4697090822
  0
LINE
  5
4EB
100
AcDbEntity
  8
218_STAMPATO
100
AcDbLine
 62
7
  6
CONTINUOUS
 10
-6.9822600513
 20
16.2993831668
 11
-5.5553035161
 21
14.8984933674
  0
LINE
  5
4EC
100
AcDbEntity
  8
218_STAMPATO
100
AcDbLine
 62
7
  6
CONTINUOUS
 10
-5.4211614072
 20
14.7668132741
 11
-4.6633556078
 21
14.0228497802
  0
LINE
  5
4ED
100
AcDbEntity
  8
218_STAMPATO
100
AcDbLine
 62
7
  6
CONTINUOUS
 10
-4.581348
 20
13.942341
 11
-3.64483
 21
13.022946
  0
LINE
  5
4EE
100
AcDbEntity
  8
218_STAMPATO
100
AcDbLine
 62
7
  6
CONTINUOUS
 10
-3.480589
 20
13.022946
 11
-3.831451
 21
13.367743
  0
LINE
  5
4EF
100
AcDbEntity
  8
218_STAMPATO
100
AcDbLine
 62
7
  6
CONTINUOUS
 10
-3.951858
 20
13.486057
 11
-4.497344
 21
14.022113
  0
LINE
  5
4F0
100
AcDbEntity
  8
218_STAMPATO
100
AcDbLine
 62
7
  6
CONTINUOUS
 10
-1.9000000018
 20
11.4697090822
 11
-3.1747746472
 21
12.7224119606
  0
LINE
  5
4F1
100
AcDbEntity
  8
218_STAMPATO
100
AcDbLine
 62
7
  6
CONTINUOUS
 10
-5.4025503981
 20
14.911634521
 11
-6.8999676142
 21
16.3831265382
  0
LINE
  5
4F2
100
AcDbEntity
  8
218_STAMPATO
100
AcDbLine
 62
7
  6
CONTINUOUS
 10
-4.579244
 20
14.102586
 11
-5.268528
 21
14.779931
  0
LINE
  5
4F3
100
AcDbEntity
  8
218_STAMPATO
100
AcDbLine
 62
250
  6
CONTINUOUS
 10
-10.3667559139
 20
19.0038706282
 11
-9.6597568285
 21
18.2968715428
  0
LINE
  5
4F4
100
AcDbEntity
  8
218_STAMPATO
100
AcDbLine
 62
250
  6
CONTINUOUS
 10
-10.0754922003
 20
19.2951343418
 11
-9.3684931149
 21
18.5881352564
  0
LINE
  5
4F5
100
AcDbEntity
  8
218_STAMPATO
100
AcDbLine
 62
250
  6
CONTINUOUS
 10
5.3893615328
 20
4.1119145382
 11
5.5984038205
 21
3.8983315857
  0
LINE
  5
4F6
100
AcDbEntity
  8
218_STAMPATO
100
AcDbLine
 62
250
  6
CONTINUOUS
 10
9.7832913085
 20
-0.9936354788
 11
9.6032366926
 21
-0.7551052203
  0
LINE
  5
4F7
100
AcDbEntity
  8
218_STAMPATO
100
AcDbLine
 62
250
  6
CONTINUOUS
 10
2.5001047116
 20
8.45
 11
2.1414727239
 21
9.071192477
  0
LINE
  5
4F8
100
AcDbEntity
  8
268
100
AcDbLine
 62
7
  6
CONTINUOUS
 10
8.3050906011
 20
-23.6278312164
 11
8.3007272287
 21
-23.1948185145
  0
LINE
  5
4F9
100
AcDbEntity
  8
268
100
AcDbLine
 62
250
  6
CONTINUOUS
 10
7.5535533906
 20
14.9410130774
 11
7.5535533906
 21
13.0589869226
  0
LINE
  5
4FA
100
AcDbEntity
  8
268
100
AcDbLine
 62
7
  6
CONTINUOUS
 10
7.7
 20
7.9632817034
 11
7.7
 21
7.9834452745
  0
LINE
  5
4FB
100
AcDbEntity
  8
268
100
AcDbLine
 62
250
  6
CONTINUOUS
 10
7.7806401718
 20
-21.3126932437
 11
7.7806401718
 21
-20.9000456915
  0
LINE
  5
4FC
100
AcDbEntity
  8
268
100
AcDbLine
 62
250
  6
CONTINUOUS
 10
7.7806401718
 20
20.9000456915
 11
7.7806401718
 21
21.3126932437
  0
LINE
  5
4FD
100
AcDbEntity
  8
218_STAMPATO
100
AcDbLine
 62
250
  6
CONTINUOUS
 10
7.9998952884
 20
-18.0763198503
 11
7.9998952884
 21
-18.55
  0
LINE
  5
4FE
100
AcDbEntity
  8
218_STAMPATO
100
AcDbLine
 62
250
  6
CONTINUOUS
 10
7.9998952884
 20
7.9763198503
 11
7.9998952884
 21
8.45
  0
LINE
  5
4FF
100
AcDbEntity
  8
218_STAMPATO
100
AcDbLine
 62
7
  6
CONTINUOUS
 10
8.0524659223
 20
7.9832913085
 11
8.0524659223
 21
7.9412732553
  0
LINE
  5
500
100
AcDbEntity
  8
218_STAMPATO
100
AcDbLine
 62
7
  6
CONTINUOUS
 10
8.0524659223
 20
-18.4188211266
 11
8.0524659223
 21
-18.0412732553
  0
LINE
  5
501
100
AcDbEntity
  8
268
100
AcDbLine
 62
250
  6
CONTINUOUS
 10
8.0805944803
 20
-21.4450957595
 11
8.0805944803
 21
-21.2
  0
LINE
  5
502
100
AcDbEntity
  8
268
100
AcDbLine
 62
250
  6
CONTINUOUS
 10
8.0805944803
 20
21.2
 11
8.0805944803
 21
21.4450957595
  0
LINE
  5
503
100
AcDbEntity
  8
268
100
AcDbLine
 62
7
  6
CONTINUOUS
 10
8.25
 20
21.2756902398
 11
8.25
 21
21.2
  0
LINE
  5
504
100
AcDbEntity
  8
268
100
AcDbLine
 62
7
  6
CONTINUOUS
 10
8.25
 20
-21.2
 11
8.25
 21
-21.2756902398
  0
LINE
  5
505
100
AcDbEntity
  8
268
100
AcDbLine
 62
7
  6
CONTINUOUS
 10
8.3
 20
-22.4
 11
8.3
 21
-24.4
  0
LINE
  5
506
100
AcDbEntity
  8
268
100
AcDbLine
 62
7
  6
CONTINUOUS
 10
8.3
 20
22.4
 11
8.3
 21
24.4
  0
LINE
  5
507
100
AcDbEntity
  8
268
100
AcDbLine
 62
7
  6
CONTINUOUS
 10
8.3058178298
 20
24.1456323968
 11
8.3058178298
 21
23.8443375673
  0
LINE
  5
508
100
AcDbEntity
  8
268
100
AcDbLine
 62
7
  6
CONTINUOUS
 10
8.3058178298
 20
-23.8443375673
 11
8.3058178298
 21
-24.1456323968
  0
LINE
  5
509
100
AcDbEntity
  8
712
100
AcDbLine
 62
7
  6
CONTINUOUS
 10
8.45
 20
3.18
 11
8.45
 21
3.2491191219
  0
LINE
  5
50A
100
AcDbEntity
  8
712
100
AcDbLine
 62
250
  6
CONTINUOUS
 10
8.45
 20
1.3
 11
8.45
 21
3.18
  0
LINE
  5
50B
100
AcDbEntity
  8
712
100
AcDbLine
 62
7
  6
CONTINUOUS
 10
8.46
 20
1.3
 11
8.46
 21
0.2260928396
  0
LINE
  5
50C
100
AcDbEntity
  8
320
100
AcDbLine
 62
250
  6
CONTINUOUS
 10
8.6
 20
0.267322452
 11
8.6
 21
0.9182000986
  0
LINE
  5
50D
100
AcDbEntity
  8
268
100
AcDbLine
 62
7
  6
CONTINUOUS
 10
8.6
 20
0.9182000986
 11
8.6
 21
1.3
  0
LINE
  5
50E
100
AcDbEntity
  8
218_STAMPATO
100
AcDbLine
 62
250
  6
CONTINUOUS
 10
8.95
 20
13.5549792671
 11
8.95
 21
13.5
  0
LINE
  5
50F
100
AcDbEntity
  8
715
100
AcDbLine
 62
250
  6
CONTINUOUS
 10
8.95
 20
-13.2240943721
 11
8.95
 21
-11.3551654739
  0
LINE
  5
510
100
AcDbEntity
  8
218_STAMPATO
100
AcDbLine
 62
250
  6
CONTINUOUS
 10
8.95
 20
14.4450207329
 11
8.95
 21
14.5
  0
LINE
  5
511
100
AcDbEntity
  8
712
100
AcDbLine
 62
250
  6
CONTINUOUS
 10
9.0168313726
 20
1.3
 11
9.0168313726
 21
2.8334775302
  0
LINE
  5
512
100
AcDbEntity
  8
715
100
AcDbLine
 62
7
  6
CONTINUOUS
 10
9.15
 20
-13.1499702486
 11
9.15
 21
-11.0500297514
  0
LINE
  5
513
100
AcDbEntity
  8
218_STAMPATO
100
AcDbLine
 62
250
  6
CONTINUOUS
 10
9.2
 20
13.5889510339
 11
9.2
 21
13.5549792671
  0
LINE
  5
514
100
AcDbEntity
  8
218_STAMPATO
100
AcDbLine
 62
250
  6
CONTINUOUS
 10
9.2
 20
14.4110489661
 11
9.2
 21
14.4450207329
  0
LINE
  5
515
100
AcDbEntity
  8
715
100
AcDbLine
 62
7
  6
CONTINUOUS
 10
9.25
 20
-13.0011969502
 11
9.25
 21
-11.1988030498
  0
LINE
  5
516
100
AcDbEntity
  8
218_STAMPATO
100
AcDbLine
 62
250
  6
CONTINUOUS
 10
9.2846696568
 20
13.5890140515
 11
9.2846696568
 21
14.4109859485
  0
LINE
  5
517
100
AcDbEntity
  8
218_STAMPATO
100
AcDbLine
 62
250
  6
CONTINUOUS
 10
9.298360906
 20
-18.4188211266
 11
9.298360906
 21
-19.4186688218
  0
LINE
  5
518
100
AcDbEntity
  8
268
100
AcDbLine
 62
7
  6
CONTINUOUS
 10
8.3007272287
 20
23.1948185145
 11
8.3050906011
 21
23.6278312164
  0
LINE
  5
519
100
AcDbEntity
  8
218_STAMPATO
100
AcDbLine
 62
7
  6
CONTINUOUS
 10
8.3517110274
 20
8.9831390036
 11
8.3585272761
 21
9.071192477
  0
LINE
  5
51A
100
AcDbEntity
  8
268
100
AcDbLine
 62
7
  6
CONTINUOUS
 10
-4.4
 20
-22.4
 11
-4.3551925565
 21
-22.3327878868
  0
LINE
  5
51B
100
AcDbEntity
  8
218_STAMPATO
100
AcDbLine
 62
7
  6
CONTINUOUS
 10
-4.8541663229
 20
-16.5872340739
 11
-5.9624996185
 21
-17.5978723362
  0
LINE
  5
51C
100
AcDbEntity
  8
218_STAMPATO
100
AcDbLine
 62
250
  6
CONTINUOUS
 10
-0.1532977029
 20
-9.944290603
 11
-0.3832442295
 21
-10.1351857592
  0
LINE
  5
51D
100
AcDbEntity
  8
218_STAMPATO
100
AcDbLine
 62
250
  6
CONTINUOUS
 10
-0.6357929197
 20
-10.5021006521
 11
-0.3973706423
 21
-10.3219031691
  0
LINE
  5
51E
100
AcDbEntity
  8
218_STAMPATO
100
AcDbLine
 62
7
  6
CONTINUOUS
 10
8.0524659223
 20
7.9412732553
 11
2.4475340777
 21
7.9412732553
  0
LINE
  5
51F
100
AcDbEntity
  8
218_STAMPATO
100
AcDbLine
 62
7
  6
CONTINUOUS
 10
-2.4475340777
 20
7.9412732553
 11
-8.0524659223
 21
7.9412732553
  0
LINE
  5
520
100
AcDbEntity
  8
218_STAMPATO
100
AcDbLine
 62
250
  6
CONTINUOUS
 10
10.7831390036
 20
7.9832913085
 11
8.0524659223
 21
7.9832913085
  0
LINE
  5
521
100
AcDbEntity
  8
218_STAMPATO
100
AcDbLine
 62
250
  6
CONTINUOUS
 10
2.4475340777
 20
7.9832913085
 11
-2.4475340777
 21
7.9832913085
  0
LINE
  5
522
100
AcDbEntity
  8
218_STAMPATO
100
AcDbLine
 62
250
  6
CONTINUOUS
 10
-8.0524659223
 20
7.9832913085
 11
-10.7831390036
 21
7.9832913085
  0
LINE
  5
523
100
AcDbEntity
  8
218_STAMPATO
100
AcDbLine
 62
7
  6
CONTINUOUS
 10
-8.0514571933
 20
8.45
 11
-2.4485428067
 21
8.45
  0
LINE
  5
524
100
AcDbEntity
  8
218_STAMPATO
100
AcDbLine
 62
7
  6
CONTINUOUS
 10
2.4485428067
 20
8.45
 11
8.0514571933
 21
8.45
  0
LINE
  5
525
100
AcDbEntity
  8
218_STAMPATO
100
AcDbLine
 62
250
  6
CONTINUOUS
 10
9.7832913085
 20
8.9831390036
 11
8.3517110274
 21
8.9831390036
  0
LINE
  5
526
100
AcDbEntity
  8
218_STAMPATO
100
AcDbLine
 62
250
  6
CONTINUOUS
 10
2.1482889726
 20
8.9831390036
 11
-2.1482889726
 21
8.9831390036
  0
LINE
  5
527
100
AcDbEntity
  8
218_STAMPATO
100
AcDbLine
 62
250
  6
CONTINUOUS
 10
-8.3517110274
 20
8.9831390036
 11
-9.7832913085
 21
8.9831390036
  0
LINE
  5
528
100
AcDbEntity
  8
218_STAMPATO
100
AcDbLine
 62
250
  6
CONTINUOUS
 10
-9.9268797902
 20
9.1267274854
 11
9.9268797902
 21
9.1267274854
  0
LINE
  5
529
100
AcDbEntity
  8
268
100
AcDbLine
 62
7
  6
CONTINUOUS
 10
-4.4
 20
22.4
 11
-4.3551925565
 21
22.3327878868
  0
LINE
  5
52A
100
AcDbEntity
  8
268
100
AcDbLine
 62
7
  6
CONTINUOUS
 10
10.5992727713
 20
23.1948185145
 11
10.5949093989
 21
23.6278312164
  0
LINE
  5
52B
100
AcDbEntity
  8
268
100
AcDbLine
 62
250
  6
CONTINUOUS
 10
9.3201214414
 20
-12.8726085603
 11
9.3201214414
 21
-11.3273914397
  0
LINE
  5
52C
100
AcDbEntity
  8
218_STAMPATO
100
AcDbLine
 62
250
  6
CONTINUOUS
 10
9.3684931149
 20
19.5879829516
 11
9.3684931149
 21
18.5881352564
  0
LINE
  5
52D
100
AcDbEntity
  8
268
100
AcDbLine
 62
7
  6
CONTINUOUS
 10
9.75
 20
20.75
 11
9.75
 21
19.9
  0
LINE
  5
52E
100
AcDbEntity
  8
268
100
AcDbLine
 62
7
  6
CONTINUOUS
 10
9.75
 20
-19.9
 11
9.75
 21
-20.75
  0
LINE
  5
52F
100
AcDbEntity
  8
218_STAMPATO
100
AcDbLine
 62
250
  6
CONTINUOUS
 10
9.7832913085
 20
-0.9936354788
 11
9.7832913085
 21
-9.4063645212
  0
LINE
  5
530
100
AcDbEntity
  8
218_STAMPATO
100
AcDbLine
 62
250
  6
CONTINUOUS
 10
9.7832913085
 20
-14.7936354788
 11
9.7832913085
 21
-17.5197402485
  0
LINE
  5
531
100
AcDbEntity
  8
218_STAMPATO
100
AcDbLine
 62
250
  6
CONTINUOUS
 10
9.7832913085
 20
4.3936354788
 11
9.7832913085
 21
8.9831390036
  0
LINE
  5
532
100
AcDbEntity
  8
218_STAMPATO
100
AcDbLine
 62
7
  6
CONTINUOUS
 10
9.91
 20
18.2441382748
 11
9.91
 21
9.7557498279
  0
LINE
  5
533
100
AcDbEntity
  8
218_STAMPATO
100
AcDbLine
 62
250
  6
CONTINUOUS
 10
9.9268797902
 20
9.1267274854
 11
9.9268797902
 21
9.6266513329
  0
LINE
  5
534
100
AcDbEntity
  8
218_STAMPATO
100
AcDbLine
 62
250
  6
CONTINUOUS
 10
9.9526054383
 20
17.5898724574
 11
9.9526054383
 21
9.6264307462
  0
LINE
  5
535
100
AcDbEntity
  8
268
100
AcDbLine
 62
7
  6
CONTINUOUS
 10
10.5941821702
 20
-24.1456323968
 11
10.5941821702
 21
-23.8443375673
  0
LINE
  5
536
100
AcDbEntity
  8
268
100
AcDbLine
 62
7
  6
CONTINUOUS
 10
10.5941821702
 20
23.8443375673
 11
10.5941821702
 21
24.1456323968
  0
LINE
  5
537
100
AcDbEntity
  8
268
100
AcDbLine
 62
7
  6
CONTINUOUS
 10
10.6
 20
-22.4
 11
10.6
 21
-24.4
  0
LINE
  5
538
100
AcDbEntity
  8
268
100
AcDbLine
 62
7
  6
CONTINUOUS
 10
10.6
 20
22.4
 11
10.6
 21
24.4
  0
LINE
  5
539
100
AcDbEntity
  8
218_STAMPATO
100
AcDbLine
 62
250
  6
CONTINUOUS
 10
10.7831390036
 20
7.9832913085
 11
10.7831390036
 21
2.7233353961
  0
LINE
  5
53A
100
AcDbEntity
  8
218_STAMPATO
100
AcDbLine
 62
250
  6
CONTINUOUS
 10
10.7831390036
 20
0.6766646044
 11
10.7831390036
 21
-11.0766645935
  0
LINE
  5
53B
100
AcDbEntity
  8
218_STAMPATO
100
AcDbLine
 62
250
  6
CONTINUOUS
 10
10.7831390036
 20
-13.1233354067
 11
10.7831390036
 21
-17.5197402485
  0
LINE
  5
53C
100
AcDbEntity
  8
268
100
AcDbLine
 62
250
  6
CONTINUOUS
 10
10.8
 20
22.4
 11
10.8
 21
22.3912731322
  0
LINE
  5
53D
100
AcDbEntity
  8
268
100
AcDbLine
 62
250
  6
CONTINUOUS
 10
10.8
 20
-22.3912731322
 11
10.8
 21
-22.4
  0
LINE
  5
53E
100
AcDbEntity
  8
218_STAMPATO
100
AcDbLine
 62
250
  6
CONTINUOUS
 10
10.9524531334
 20
17.5898724574
 11
10.9524531334
 21
8.1526054383
  0
LINE
  5
53F
100
AcDbEntity
  8
268
100
AcDbLine
 62
7
  6
CONTINUOUS
 10
10.5949093989
 20
-23.6278312164
 11
10.5992727713
 21
-23.1948185145
  0
LINE
  5
540
100
AcDbEntity
  8
218_STAMPATO
100
AcDbLine
 62
250
  6
CONTINUOUS
 10
9.944032809
 20
9.126582904
 11
9.9526054383
 21
9.6264307462
  0
LINE
  5
541
100
AcDbEntity
  8
218_STAMPATO
100
AcDbLine
 62
250
  6
CONTINUOUS
 10
5.1106384673
 20
-9.6880854617
 11
4.9015961795
 21
-9.9016684143
  0
LINE
  5
542
100
AcDbEntity
  8
268
100
AcDbLine
 62
7
  6
CONTINUOUS
 10
-10.6
 20
-24.4
 11
-10.595628166
 21
-24.395628166
  0
LINE
  5
543
100
AcDbEntity
  8
218_STAMPATO
100
AcDbLine
 62
7
  6
CONTINUOUS
 10
-5.75
 20
-19.7
 11
-5.6609791689
 21
-19.6109791689
  0
LINE
  5
544
100
AcDbEntity
  8
218_STAMPATO
100
AcDbLine
 62
7
  6
CONTINUOUS
 10
-5.6609791689
 20
-19.8109791689
 11
-5.75
 21
-19.9
  0
LINE
  5
545
100
AcDbEntity
  8
218_STAMPATO
100
AcDbLine
 62
250
  6
CONTINUOUS
 10
4.6720064589
 20
-10.2754329584
 11
4.8887540147
 21
-10.0696737932
  0
LINE
  5
546
100
AcDbEntity
  8
218_STAMPATO
100
AcDbLine
 62
7
  6
CONTINUOUS
 10
-5.6458329424
 20
-17.5978723362
 11
-4.6562496185
 21
-16.7085106552
  0
LINE
  5
547
100
AcDbEntity
  8
218_STAMPATO
100
AcDbLine
 62
250
  6
CONTINUOUS
 10
0.1532977029
 20
-14.255709397
 11
0.3832442295
 21
-14.0648142408
  0
LINE
  5
548
100
AcDbEntity
  8
218_STAMPATO
100
AcDbLine
 62
7
  6
CONTINUOUS
 10
-5.6458329424
 20
-16.2234042168
 11
-5.5270829424
 21
-16.1425531626
  0
LINE
  5
549
100
AcDbEntity
  8
218_STAMPATO
100
AcDbLine
 62
250
  6
CONTINUOUS
 10
-9.9268797902
 20
9.6266513329
 11
9.9268797902
 21
9.6266513329
  0
LINE
  5
54A
100
AcDbEntity
  8
218_STAMPATO
100
AcDbLine
 62
7
  6
CONTINUOUS
 10
9.91
 20
9.7557498279
 11
-0.6355613827
 21
9.7557498279
  0
LINE
  5
54B
100
AcDbEntity
  8
218_STAMPATO
100
AcDbLine
 62
7
  6
CONTINUOUS
 10
9.91
 20
9.7950207329
 11
0.3950207329
 21
9.7950207329
  0
LINE
  5
54C
100
AcDbEntity
  8
218_STAMPATO
100
AcDbLine
 62
7
  6
CONTINUOUS
 10
9.91
 20
10.0976386936
 11
0.6976386936
 21
10.0976386936
  0
LINE
  5
54D
100
AcDbEntity
  8
218_STAMPATO
100
AcDbLine
 62
7
  6
CONTINUOUS
 10
9.91
 20
10.15
 11
0.75
 21
10.15
  0
LINE
  5
54E
100
AcDbEntity
  8
218_STAMPATO
100
AcDbLine
 62
7
  6
CONTINUOUS
 10
8.0524659223
 20
7.9412732553
 11
7.9998952884
 21
7.9763198503
  0
LINE
  5
54F
100
AcDbEntity
  8
268
100
AcDbLine
 62
7
  6
CONTINUOUS
 10
-10.6
 20
24.4
 11
-10.595628166
 21
24.395628166
  0
LINE
  5
550
100
AcDbEntity
  8
218_STAMPATO
100
AcDbLine
 62
7
  6
CONTINUOUS
 10
-5.75
 20
19.7
 11
-5.6609791689
 21
19.6109791689
  0
LINE
  5
551
100
AcDbEntity
  8
218_STAMPATO
100
AcDbLine
 62
7
  6
CONTINUOUS
 10
-5.75
 20
19.9
 11
-5.6609791689
 21
19.8109791689
  0
LINE
  5
552
100
AcDbEntity
  8
268
100
AcDbLine
 62
7
  6
CONTINUOUS
 10
11.15
 20
22.0412598048
 11
11.15
 21
-22.0412598048
  0
LINE
  5
553
100
AcDbEntity
  8
218_STAMPATO
100
AcDbLine
 62
7
  6
CONTINUOUS
 10
11.15
 20
-17.6716990487
 11
11.15
 21
17.6716990487
  0
LINE
  5
554
100
AcDbEntity
  8
218_STAMPATO
100
AcDbLine
 62
250
  6
CONTINUOUS
 10
1.9477448322
 20
-19.5067518054
 11
2.5001047116
 21
-18.55
  0
LINE
  5
555
100
AcDbEntity
  8
218_STAMPATO
100
AcDbLine
 62
250
  6
CONTINUOUS
 10
0.6357929197
 20
-13.6978993479
 11
0.3973706423
 21
-13.8780968309
  0
LINE
  5
556
100
AcDbEntity
  8
218_STAMPATO
100
AcDbLine
 62
7
  6
CONTINUOUS
 10
-5.5666662946
 20
-15.9404255271
 11
-5.7249996185
 21
-16.0212765813
  0
LINE
  5
557
100
AcDbEntity
  8
218_STAMPATO
100
AcDbLine
 62
250
  6
CONTINUOUS
 10
-11.15
 20
-17.6716990487
 11
-10.7831390036
 21
-17.5197402485
  0
LINE
  5
558
100
AcDbEntity
  8
218_STAMPATO
100
AcDbLine
 62
7
  6
CONTINUOUS
 10
-2.0627064277
 20
11.4697090822
 11
-1.9000000018
 21
11.4697090822
  0
LINE
  5
559
100
AcDbEntity
  8
268
100
AcDbLine
 62
7
  6
CONTINUOUS
 10
6.6782967926
 20
11.7
 11
6.2
 21
11.7
  0
LINE
  5
55A
100
AcDbEntity
  8
218_STAMPATO
100
AcDbLine
 62
7
  6
CONTINUOUS
 10
-9.0
 20
11.932736
 11
-7.993211
 21
11.932736
  0
LINE
  5
55B
100
AcDbEntity
  8
218_STAMPATO
100
AcDbLine
 62
7
  6
CONTINUOUS
 10
-3.6723478618
 20
12.5387283195
 11
-3.1747630339
 21
12.5387283195
  0
LINE
  5
55C
100
AcDbEntity
  8
218_STAMPATO
100
AcDbLine
 62
7
  6
CONTINUOUS
 10
-3.303101
 20
12.663617
 11
-3.544033
 21
12.663617
  0
LINE
  5
55D
100
AcDbEntity
  8
218_STAMPATO
100
AcDbLine
 62
7
  6
CONTINUOUS
 10
-2.958935
 20
12.940618
 11
-3.174787
 21
12.960728
  0
LINE
  5
55E
100
AcDbEntity
  8
218_STAMPATO
100
AcDbLine
 62
7
  6
CONTINUOUS
 10
-3.544033
 20
12.851808
 11
-3.462811
 21
12.844233
  0
LINE
  5
55F
100
AcDbEntity
  8
218_STAMPATO
100
AcDbLine
 62
7
  6
CONTINUOUS
 10
-3.1747746472
 20
12.8173817459
 11
-2.9547726463
 21
12.7968676103
  0
LINE
  5
560
100
AcDbEntity
  8
218_STAMPATO
100
AcDbLine
 62
7
  6
CONTINUOUS
 10
-5.5344925161
 20
13.0373002763
 11
-3.6723478618
 21
12.8637484973
  0
LINE
  5
561
100
AcDbEntity
  8
218_STAMPATO
100
AcDbLine
 62
7
  6
CONTINUOUS
 10
-5.5502372222
 20
13.1820975708
 11
-5.6765425437
 21
13.1938705347
  0
LINE
  5
562
100
AcDbEntity
  8
218_STAMPATO
100
AcDbLine
 62
7
  6
CONTINUOUS
 10
-3.672348
 20
13.007094
 11
-5.397045
 21
13.167827
  0
LINE
  5
563
100
AcDbEntity
  8
218_STAMPATO
100
AcDbLine
 62
250
  6
CONTINUOUS
 10
-10.9524531334
 20
17.5898724574
 11
-11.15
 21
17.6716990487
  0
LINE
  5
564
100
AcDbEntity
  8
218_STAMPATO
100
AcDbLine
 62
250
  6
CONTINUOUS
 10
9.7832913085
 20
-9.4063645212
 11
9.6032366926
 21
-9.6448947797
  0
LINE
  5
565
100
AcDbEntity
  8
218_STAMPATO
100
AcDbLine
 62
7
  6
CONTINUOUS
 10
5.2500000477
 20
-15.9
 11
5.0125000477
 21
-16.1829786897
  0
LINE
  5
566
100
AcDbEntity
  8
218_STAMPATO
100
AcDbLine
 62
7
  6
CONTINUOUS
 10
5.0125000477
 20
-16.5063830197
 11
5.2500000477
 21
-16.2234042168
  0
LINE
  5
567
100
AcDbEntity
  8
218_STAMPATO
100
AcDbLine
 62
250
  6
CONTINUOUS
 10
5.3893615327
 20
-14.5119145382
 11
5.5984038205
 21
-14.2983315856
  0
LINE
  5
568
100
AcDbEntity
  8
268
100
AcDbLine
 62
7
  6
CONTINUOUS
 10
-4.4
 20
-23.8
 11
-4.3551925565
 21
-23.7551925565
  0
LINE
  5
569
100
AcDbEntity
  8
218_STAMPATO
100
AcDbLine
 62
250
  6
CONTINUOUS
 10
5.827993541
 20
-13.9245670415
 11
5.6112459853
 21
-14.1303262068
  0
LINE
  5
56A
100
AcDbEntity
  8
218_STAMPATO
100
AcDbLine
 62
7
  6
CONTINUOUS
 10
-2.4475340777
 20
-18.0412732553
 11
-2.5001047116
 21
-18.0763198503
  0
LINE
  5
56B
100
AcDbEntity
  8
218_STAMPATO
100
AcDbLine
 62
250
  6
CONTINUOUS
 10
-10.5643027805
 20
-19.0856972195
 11
-10.1974417841
 21
-18.9337384193
  0
LINE
  5
56C
100
AcDbEntity
  8
218_STAMPATO
100
AcDbLine
 62
7
  6
CONTINUOUS
 10
-3.174787
 20
13.022946
 11
-3.480589
 21
13.022946
  0
LINE
  5
56D
100
AcDbEntity
  8
218_STAMPATO
100
AcDbLine
 62
7
  6
CONTINUOUS
 10
-3.64483
 20
13.022946
 11
-3.672348
 21
13.022946
  0
LINE
  5
56E
100
AcDbEntity
  8
218_STAMPATO
100
AcDbLine
 62
7
  6
CONTINUOUS
 10
-3.831451
 20
13.367743
 11
-3.66645
 21
13.367743
  0
LINE
  5
56F
100
AcDbEntity
  8
218_STAMPATO
100
AcDbLine
 62
7
  6
CONTINUOUS
 10
9.91
 20
13.5
 11
8.95
 21
13.5
  0
LINE
  5
570
100
AcDbEntity
  8
218_STAMPATO
100
AcDbLine
 62
7
  6
CONTINUOUS
 10
-2.6854664597
 20
13.516393857
 11
-2.552275914
 21
13.5164054703
  0
LINE
  5
571
100
AcDbEntity
  8
218_STAMPATO
100
AcDbLine
 62
7
  6
CONTINUOUS
 10
9.2
 20
13.5549792671
 11
8.95
 21
13.5549792671
  0
LINE
  5
572
100
AcDbEntity
  8
218_STAMPATO
100
AcDbLine
 62
7
  6
CONTINUOUS
 10
9.91
 20
13.5890140515
 11
9.2846696568
 21
13.5890140515
  0
LINE
  5
573
100
AcDbEntity
  8
218_STAMPATO
100
AcDbLine
 62
7
  6
CONTINUOUS
 10
-2.477332
 20
13.659121
 11
-2.542762
 21
13.659121
  0
LINE
  5
574
100
AcDbEntity
  8
218_STAMPATO
100
AcDbLine
 62
7
  6
CONTINUOUS
 10
-2.542762
 20
14.07533
 11
-2.477332
 21
14.07533
  0
LINE
  5
575
100
AcDbEntity
  8
218_STAMPATO
100
AcDbLine
 62
7
  6
CONTINUOUS
 10
-2.334640845
 20
14.2180095207
 11
-2.3911510718
 21
14.2180095207
  0
LINE
  5
576
100
AcDbEntity
  8
218_STAMPATO
100
AcDbLine
 62
7
  6
CONTINUOUS
 10
-2.5372686513
 20
14.2180095207
 11
-2.6854664597
 21
14.2180095207
  0
LINE
  5
577
100
AcDbEntity
  8
218_STAMPATO
100
AcDbLine
 62
7
  6
CONTINUOUS
 10
-3.66645
 20
14.241818
 11
-3.951858
 21
14.241818
  0
LINE
  5
578
100
AcDbEntity
  8
218_STAMPATO
100
AcDbLine
 62
7
  6
CONTINUOUS
 10
9.91
 20
14.4109859485
 11
9.2846696568
 21
14.4109859485
  0
LINE
  5
579
100
AcDbEntity
  8
218_STAMPATO
100
AcDbLine
 62
7
  6
CONTINUOUS
 10
8.95
 20
14.4450207329
 11
9.2
 21
14.4450207329
  0
LINE
  5
57A
100
AcDbEntity
  8
218_STAMPATO
100
AcDbLine
 62
7
  6
CONTINUOUS
 10
9.91
 20
14.5
 11
8.95
 21
14.5
  0
LINE
  5
57B
100
AcDbEntity
  8
218_STAMPATO
100
AcDbLine
 62
7
  6
CONTINUOUS
 10
-6.4915248819
 20
14.5142628749
 11
-6.2768149081
 21
14.5142628749
  0
LINE
  5
57C
100
AcDbEntity
  8
218_STAMPATO
100
AcDbLine
 62
7
  6
CONTINUOUS
 10
-2.8103208469
 20
14.6044879089
 11
-2.5932678937
 21
14.6044879089
  0
LINE
  5
57D
100
AcDbEntity
  8
218_STAMPATO
100
AcDbLine
 62
7
  6
CONTINUOUS
 10
-2.4442847371
 20
14.6044879089
 11
-2.4296933749
 21
14.6044879089
  0
LINE
  5
57E
100
AcDbEntity
  8
218_STAMPATO
100
AcDbLine
 62
7
  6
CONTINUOUS
 10
-2.4069676351
 20
13.5164054703
 11
-2.334640845
 21
13.516393857
  0
LINE
  5
57F
100
AcDbEntity
  8
218_STAMPATO
100
AcDbLine
 62
250
  6
CONTINUOUS
 10
-10.3667559139
 20
19.0038706282
 11
-10.5643027805
 21
19.0856972195
  0
LINE
  5
580
100
AcDbEntity
  8
218_STAMPATO
100
AcDbLine
 62
7
  6
CONTINUOUS
 10
0.75
 20
17.85
 11
0.3644005403
 21
18.2355994597
  0
LINE
  5
581
100
AcDbEntity
  8
268
100
AcDbLine
 62
7
  6
CONTINUOUS
 10
-4.4
 20
23.8
 11
-4.3551925565
 21
23.7551925565
  0
LINE
  5
582
100
AcDbEntity
  8
218_STAMPATO
100
AcDbLine
 62
7
  6
CONTINUOUS
 10
3.4
 20
-19.9
 11
3.3991663033
 21
-19.9008336967
  0
LINE
  5
583
100
AcDbEntity
  8
218_STAMPATO
100
AcDbLine
 62
7
  6
CONTINUOUS
 10
-6.1341225209
 20
14.7054864389
 11
-5.4211614072
 21
14.7668132741
  0
LINE
  5
584
100
AcDbEntity
  8
218_STAMPATO
100
AcDbLine
 62
7
  6
CONTINUOUS
 10
-5.268528
 20
14.779931
 11
-3.724637
 21
14.91274
  0
LINE
  5
585
100
AcDbEntity
  8
218_STAMPATO
100
AcDbLine
 62
7
  6
CONTINUOUS
 10
-3.542892
 20
14.928378
 11
-2.958935
 21
14.978611
  0
LINE
  5
586
100
AcDbEntity
  8
218_STAMPATO
100
AcDbLine
 62
7
  6
CONTINUOUS
 10
-3.5584702029
 20
15.0702617819
 11
-5.4025503981
 21
14.911634521
  0
LINE
  5
587
100
AcDbEntity
  8
218_STAMPATO
100
AcDbLine
 62
7
  6
CONTINUOUS
 10
-2.9530248475
 20
15.1223488001
 11
-3.3770221184
 21
15.0858758386
  0
LINE
  5
588
100
AcDbEntity
  8
218_STAMPATO
100
AcDbLine
 62
7
  6
CONTINUOUS
 10
-5.5553035161
 20
14.8984933674
 11
-6.2115874621
 21
14.8420303195
  0
LINE
  5
589
100
AcDbEntity
  8
218_STAMPATO
100
AcDbLine
 62
7
  6
CONTINUOUS
 10
-6.2762676322
 20
14.7787052741
 11
-6.4915248819
 21
14.7787052741
  0
LINE
  5
58A
100
AcDbEntity
  8
218_STAMPATO
100
AcDbLine
 62
7
  6
CONTINUOUS
 10
-2.4296933749
 20
14.848333428
 11
-2.5240084615
 21
14.848333428
  0
LINE
  5
58B
100
AcDbEntity
  8
218_STAMPATO
100
AcDbLine
 62
7
  6
CONTINUOUS
 10
-2.6804596838
 20
14.8483450412
 11
-2.8103085078
 21
14.8483450412
  0
LINE
  5
58C
100
AcDbEntity
  8
218_STAMPATO
100
AcDbLine
 62
7
  6
CONTINUOUS
 10
-2.8103208469
 20
15.2942594773
 11
-2.9530248475
 21
15.2942594773
  0
LINE
  5
58D
100
AcDbEntity
  8
218_STAMPATO
100
AcDbLine
 62
7
  6
CONTINUOUS
 10
-7.993211
 20
16.067264
 11
-9.0
 21
16.067264
  0
LINE
  5
58E
100
AcDbEntity
  8
218_STAMPATO
100
AcDbLine
 62
7
  6
CONTINUOUS
 10
-1.9191575609
 20
16.4701405
 11
-2.0817812422
 21
16.4701405
  0
LINE
  5
58F
100
AcDbEntity
  8
284
100
AcDbLine
 62
250
  6
CONTINUOUS
 10
2.8051530375
 20
16.5274989602
 11
6.3948469625
 21
16.5274989602
  0
LINE
  5
590
100
AcDbEntity
  8
284
100
AcDbLine
 62
7
  6
CONTINUOUS
 10
2.3336634405
 20
16.1150540841
 11
6.8663439106
 21
16.1150463454
  0
LINE
  5
591
100
AcDbEntity
  8
218_STAMPATO
100
AcDbLine
 62
7
  6
CONTINUOUS
 10
3.4
 20
19.9
 11
3.3991663033
 21
19.9008336967
  0
LINE
  5
592
100
AcDbEntity
  8
218_STAMPATO
100
AcDbLine
 62
250
  6
CONTINUOUS
 10
-10.9524531334
 20
17.5898724574
 11
-9.9526054383
 21
17.5898724574
  0
LINE
  5
593
100
AcDbEntity
  8
218_STAMPATO
100
AcDbLine
 62
250
  6
CONTINUOUS
 10
10.9524531334
 20
17.5898724574
 11
9.9526054383
 21
17.5898724574
  0
LINE
  5
594
100
AcDbEntity
  8
218_STAMPATO
100
AcDbLine
 62
7
  6
CONTINUOUS
 10
0.75
 20
17.85
 11
9.91
 21
17.85
  0
LINE
  5
595
100
AcDbEntity
  8
218_STAMPATO
100
AcDbLine
 62
7
  6
CONTINUOUS
 10
0.6976386936
 20
17.9023613064
 11
9.91
 21
17.9023613064
  0
LINE
  5
596
100
AcDbEntity
  8
218_STAMPATO
100
AcDbLine
 62
7
  6
CONTINUOUS
 10
0.3950207329
 20
18.2049792671
 11
9.91
 21
18.2049792671
  0
LINE
  5
597
100
AcDbEntity
  8
218_STAMPATO
100
AcDbLine
 62
7
  6
CONTINUOUS
 10
-0.6355613827
 20
18.2442501721
 11
9.7087243212
 21
18.2442501721
  0
LINE
  5
598
100
AcDbEntity
  8
218_STAMPATO
100
AcDbLine
 62
7
  6
CONTINUOUS
 10
7.4
 20
-19.7
 11
7.4890208311
 21
-19.6109791689
  0
LINE
  5
599
100
AcDbEntity
  8
218_STAMPATO
100
AcDbLine
 62
250
  6
CONTINUOUS
 10
9.298360906
 20
-18.4188211266
 11
9.4904426987
 21
-18.2267393339
  0
LINE
  5
59A
100
AcDbEntity
  8
218_STAMPATO
100
AcDbLine
 62
7
  6
CONTINUOUS
 10
7.9998952884
 20
-18.0763198503
 11
8.0524659223
 21
-18.0412732553
  0
LINE
  5
59B
100
AcDbEntity
  8
218_STAMPATO
100
AcDbLine
 62
250
  6
CONTINUOUS
 10
-9.3684931149
 20
18.5881352564
 11
9.3684931149
 21
18.5881352564
  0
LINE
  5
59C
100
AcDbEntity
  8
218_STAMPATO
100
AcDbLine
 62
250
  6
CONTINUOUS
 10
-9.3684931149
 20
19.5879829516
 11
9.3684931149
 21
19.5879829516
  0
LINE
  5
59D
100
AcDbEntity
  8
218_STAMPATO
100
AcDbLine
 62
7
  6
CONTINUOUS
 10
9.37801846
 20
19.6109791689
 11
7.4890208311
 21
19.6109791689
  0
LINE
  5
59E
100
AcDbEntity
  8
218_STAMPATO
100
AcDbLine
 62
7
  6
CONTINUOUS
 10
-5.6609791689
 20
19.6109791689
 11
5.6609791689
 21
19.6109791689
  0
LINE
  5
59F
100
AcDbEntity
  8
218_STAMPATO
100
AcDbLine
 62
7
  6
CONTINUOUS
 10
-7.4890208311
 20
19.6109791689
 11
-9.37801846
 21
19.6109791689
  0
LINE
  5
5A0
100
AcDbEntity
  8
218_STAMPATO
100
AcDbLine
 62
7
  6
CONTINUOUS
 10
7.4
 20
19.7
 11
6.9572269243
 21
19.7
  0
LINE
  5
5A1
100
AcDbEntity
  8
218_STAMPATO
100
AcDbLine
 62
7
  6
CONTINUOUS
 10
6.35
 20
19.7
 11
5.75
 21
19.7
  0
LINE
  5
5A2
100
AcDbEntity
  8
218_STAMPATO
100
AcDbLine
 62
7
  6
CONTINUOUS
 10
-5.75
 20
19.7
 11
-6.35
 21
19.7
  0
LINE
  5
5A3
100
AcDbEntity
  8
268
100
AcDbLine
 62
7
  6
CONTINUOUS
 10
6.35
 20
19.7
 11
6.9572269243
 21
19.7
  0
LINE
  5
5A4
100
AcDbEntity
  8
268
100
AcDbLine
 62
7
  6
CONTINUOUS
 10
-6.35
 20
19.7
 11
-6.9572269243
 21
19.7
  0
LINE
  5
5A5
100
AcDbEntity
  8
218_STAMPATO
100
AcDbLine
 62
7
  6
CONTINUOUS
 10
-6.9572269243
 20
19.7
 11
-7.4
 21
19.7
  0
LINE
  5
5A6
100
AcDbEntity
  8
218_STAMPATO
100
AcDbLine
 62
7
  6
CONTINUOUS
 10
-5.6609791689
 20
19.8109791689
 11
5.6609791689
 21
19.8109791689
  0
LINE
  5
5A7
100
AcDbEntity
  8
218_STAMPATO
100
AcDbLine
 62
7
  6
CONTINUOUS
 10
-2.4015242349
 20
19.8844866796
 11
2.4015242349
 21
19.8844866796
  0
LINE
  5
5A8
100
AcDbEntity
  8
218_STAMPATO
100
AcDbLine
 62
7
  6
CONTINUOUS
 10
-5.75
 20
19.9
 11
-3.4
 21
19.9
  0
LINE
  5
5A9
100
AcDbEntity
  8
218_STAMPATO
100
AcDbLine
 62
7
  6
CONTINUOUS
 10
3.4
 20
19.9
 11
5.75
 21
19.9
  0
LINE
  5
5AA
100
AcDbEntity
  8
268
100
AcDbLine
 62
7
  6
CONTINUOUS
 10
6.05
 20
20.0
 11
3.5
 21
20.0
  0
LINE
  5
5AB
100
AcDbEntity
  8
268
100
AcDbLine
 62
7
  6
CONTINUOUS
 10
-3.5
 20
20.0
 11
-6.05
 21
20.0
  0
LINE
  5
5AC
100
AcDbEntity
  8
268
100
AcDbLine
 62
250
  6
CONTINUOUS
 10
6.05
 20
20.0
 11
7.3
 21
20.0
  0
LINE
  5
5AD
100
AcDbEntity
  8
268
100
AcDbLine
 62
250
  6
CONTINUOUS
 10
-6.05
 20
20.0
 11
-7.3
 21
20.0
  0
LINE
  5
5AE
100
AcDbEntity
  8
268
100
AcDbLine
 62
7
  6
CONTINUOUS
 10
-3.5
 20
20.0532338935
 11
-2.4413111231
 21
20.0532338935
  0
LINE
  5
5AF
100
AcDbEntity
  8
268
100
AcDbLine
 62
7
  6
CONTINUOUS
 10
2.4413111231
 20
20.0532338935
 11
3.5
 21
20.0532338935
  0
LINE
  5
5B0
100
AcDbEntity
  8
268
100
AcDbLine
 62
7
  6
CONTINUOUS
 10
-6.35
 20
20.0872686779
 11
6.35
 21
20.0872686779
  0
LINE
  5
5B1
100
AcDbEntity
  8
218_STAMPATO
100
AcDbLine
 62
7
  6
CONTINUOUS
 10
7.4
 20
19.7
 11
7.4890208311
 21
19.6109791689
  0
LINE
  5
5B2
100
AcDbEntity
  8
218_STAMPATO
100
AcDbLine
 62
250
  6
CONTINUOUS
 10
9.3684931149
 20
18.5881352564
 11
9.6597568285
 21
18.2968715428
  0
LINE
  5
5B3
100
AcDbEntity
  8
218_STAMPATO
100
AcDbLine
 62
250
  6
CONTINUOUS
 10
10.0053599914
 20
-19.125820212
 11
10.1974417841
 21
-18.9337384193
  0
LINE
  5
5B4
100
AcDbEntity
  8
218_STAMPATO
100
AcDbLine
 62
7
  6
CONTINUOUS
 10
10.0850175454
 20
-19.3181305591
 11
8.5531481045
 21
-20.85
  0
LINE
  5
5B5
100
AcDbEntity
  8
268
100
AcDbLine
 62
250
  6
CONTINUOUS
 10
8.25
 20
-21.2756902398
 11
8.0805944803
 21
-21.4450957595
  0
LINE
  5
5B6
100
AcDbEntity
  8
268
100
AcDbLine
 62
250
  6
CONTINUOUS
 10
7.134451376
 20
-22.3912731322
 11
7.2130693414
 21
-22.3126551668
  0
LINE
  5
5B7
100
AcDbEntity
  8
268
100
AcDbLine
 62
7
  6
CONTINUOUS
 10
7.346606257
 20
-22.303393743
 11
8.1620863359
 21
-21.4879136641
  0
LINE
  5
5B8
100
AcDbEntity
  8
218_STAMPATO
100
AcDbLine
 62
7
  6
CONTINUOUS
 10
8.8
 20
-20.85
 11
10.5643027805
 21
-19.0856972195
  0
LINE
  5
5B9
100
AcDbEntity
  8
268
100
AcDbLine
 62
7
  6
CONTINUOUS
 10
8.9
 20
20.75
 11
9.75
 21
20.75
  0
LINE
  5
5BA
100
AcDbEntity
  8
268
100
AcDbLine
 62
7
  6
CONTINUOUS
 10
-8.9
 20
20.75
 11
-9.75
 21
20.75
  0
LINE
  5
5BB
100
AcDbEntity
  8
218_STAMPATO
100
AcDbLine
 62
7
  6
CONTINUOUS
 10
7.4
 20
20.85
 11
8.8
 21
20.85
  0
LINE
  5
5BC
100
AcDbEntity
  8
218_STAMPATO
100
AcDbLine
 62
7
  6
CONTINUOUS
 10
-7.4
 20
20.85
 11
-8.8
 21
20.85
  0
LINE
  5
5BD
100
AcDbEntity
  8
268
100
AcDbLine
 62
7
  6
CONTINUOUS
 10
7.9499543016
 20
20.9
 11
7.7806401718
 21
20.9
  0
LINE
  5
5BE
100
AcDbEntity
  8
268
100
AcDbLine
 62
7
  6
CONTINUOUS
 10
-7.7754036523
 20
20.9
 11
-6.9153379589
 21
20.9
  0
LINE
  5
5BF
100
AcDbEntity
  8
268
100
AcDbLine
 62
7
  6
CONTINUOUS
 10
-7.9499543016
 20
20.9
 11
-7.7806401718
 21
20.9
  0
LINE
  5
5C0
100
AcDbEntity
  8
268
100
AcDbLine
 62
7
  6
CONTINUOUS
 10
6.9153379589
 20
20.9
 11
7.7754036523
 21
20.9
  0
LINE
  5
5C1
100
AcDbEntity
  8
268
100
AcDbLine
 62
7
  6
CONTINUOUS
 10
-3.0
 20
21.0
 11
3.0
 21
21.0
  0
LINE
  5
5C2
100
AcDbEntity
  8
268
100
AcDbLine
 62
250
  6
CONTINUOUS
 10
-8.25
 20
21.2
 11
-8.0805944803
 21
21.2
  0
LINE
  5
5C3
100
AcDbEntity
  8
268
100
AcDbLine
 62
250
  6
CONTINUOUS
 10
8.25
 20
21.2
 11
8.0805944803
 21
21.2
  0
LINE
  5
5C4
100
AcDbEntity
  8
268
100
AcDbLine
 62
250
  6
CONTINUOUS
 10
7.7806401718
 20
21.3126932437
 11
3.0
 21
21.3126932437
  0
LINE
  5
5C5
100
AcDbEntity
  8
268
100
AcDbLine
 62
250
  6
CONTINUOUS
 10
-3.0
 20
21.3126932437
 11
-7.7806401718
 21
21.3126932437
  0
LINE
  5
5C6
100
AcDbEntity
  8
268
100
AcDbLine
 62
7
  6
CONTINUOUS
 10
-3.0
 20
21.7
 11
3.0
 21
21.7
  0
LINE
  5
5C7
100
AcDbEntity
  8
218_STAMPATO
100
AcDbLine
 62
250
  6
CONTINUOUS
 10
10.0754922003
 20
19.2951343418
 11
10.3667559139
 21
19.0038706282
  0
LINE
  5
5C8
100
AcDbEntity
  8
218_STAMPATO
100
AcDbLine
 62
7
  6
CONTINUOUS
 10
8.5531481045
 20
20.85
 11
10.0850175454
 21
19.3181305591
  0
LINE
  5
5C9
100
AcDbEntity
  8
268
100
AcDbLine
 62
250
  6
CONTINUOUS
 10
8.25
 20
21.2756902398
 11
8.0805944803
 21
21.4450957595
  0
LINE
  5
5CA
100
AcDbEntity
  8
268
100
AcDbLine
 62
250
  6
CONTINUOUS
 10
7.134451376
 20
22.3912731322
 11
7.2130693414
 21
22.3126551668
  0
LINE
  5
5CB
100
AcDbEntity
  8
218_STAMPATO
100
AcDbLine
 62
7
  6
CONTINUOUS
 10
10.5643027805
 20
19.0856972195
 11
8.8
 21
20.85
  0
LINE
  5
5CC
100
AcDbEntity
  8
268
100
AcDbLine
 62
7
  6
CONTINUOUS
 10
8.1620863359
 20
21.4879136641
 11
7.346606257
 21
22.303393743
  0
LINE
  5
5CD
100
AcDbEntity
  8
268
100
AcDbLine
 62
7
  6
CONTINUOUS
 10
8.3
 20
-24.4
 11
8.304371834
 21
-24.395628166
  0
LINE
  5
5CE
100
AcDbEntity
  8
268
100
AcDbLine
 62
250
  6
CONTINUOUS
 10
7.2130693414
 20
22.3126551668
 11
3.0
 21
22.3126551668
  0
LINE
  5
5CF
100
AcDbEntity
  8
268
100
AcDbLine
 62
250
  6
CONTINUOUS
 10
-3.0
 20
22.3126551668
 11
-7.2130693414
 21
22.3126551668
  0
LINE
  5
5D0
100
AcDbEntity
  8
268
100
AcDbLine
 62
7
  6
CONTINUOUS
 10
-4.0551976334
 20
22.3301850577
 11
-3.8
 21
22.3301850577
  0
LINE
  5
5D1
100
AcDbEntity
  8
268
100
AcDbLine
 62
7
  6
CONTINUOUS
 10
3.8
 20
22.3301850577
 11
4.0551976334
 21
22.3301850577
  0
LINE
  5
5D2
100
AcDbEntity
  8
268
100
AcDbLine
 62
7
  6
CONTINUOUS
 10
-3.5
 20
22.3380392387
 11
-3.0
 21
22.3380392387
  0
LINE
  5
5D3
100
AcDbEntity
  8
268
100
AcDbLine
 62
7
  6
CONTINUOUS
 10
3.0
 20
22.3380392387
 11
3.5
 21
22.3380392387
  0
LINE
  5
5D4
100
AcDbEntity
  8
268
100
AcDbLine
 62
7
  6
CONTINUOUS
 10
-10.8
 20
22.3912731322
 11
-7.134451376
 21
22.3912731322
  0
LINE
  5
5D5
100
AcDbEntity
  8
268
100
AcDbLine
 62
7
  6
CONTINUOUS
 10
7.134451376
 20
22.3912731322
 11
10.8
 21
22.3912731322
  0
LINE
  5
5D6
100
AcDbEntity
  8
268
100
AcDbLine
 62
7
  6
CONTINUOUS
 10
-10.8
 20
22.4
 11
-4.4
 21
22.4
  0
LINE
  5
5D7
100
AcDbEntity
  8
268
100
AcDbLine
 62
7
  6
CONTINUOUS
 10
4.4
 20
22.4
 11
10.8
 21
22.4
  0
LINE
  5
5D8
100
AcDbEntity
  8
268
100
AcDbLine
 62
250
  6
CONTINUOUS
 10
10.6
 20
22.9783121635
 11
8.3
 21
22.9783121635
  0
LINE
  5
5D9
100
AcDbEntity
  8
268
100
AcDbLine
 62
250
  6
CONTINUOUS
 10
-8.3
 20
22.9783121635
 11
-10.6
 21
22.9783121635
  0
LINE
  5
5DA
100
AcDbEntity
  8
268
100
AcDbLine
 62
250
  6
CONTINUOUS
 10
10.5992727713
 20
23.1948185145
 11
8.3007272287
 21
23.1948185145
  0
LINE
  5
5DB
100
AcDbEntity
  8
268
100
AcDbLine
 62
250
  6
CONTINUOUS
 10
-8.3007272287
 20
23.1948185145
 11
-10.5992727713
 21
23.1948185145
  0
LINE
  5
5DC
100
AcDbEntity
  8
268
100
AcDbLine
 62
250
  6
CONTINUOUS
 10
-10.5949093989
 20
23.6278312164
 11
-8.3050906011
 21
23.6278312164
  0
LINE
  5
5DD
100
AcDbEntity
  8
268
100
AcDbLine
 62
250
  6
CONTINUOUS
 10
8.3050906011
 20
23.6278312164
 11
10.5949093989
 21
23.6278312164
  0
LINE
  5
5DE
100
AcDbEntity
  8
268
100
AcDbLine
 62
7
  6
CONTINUOUS
 10
4.0551976334
 20
23.7534573615
 11
3.8
 21
23.7534573615
  0
LINE
  5
5DF
100
AcDbEntity
  8
268
100
AcDbLine
 62
7
  6
CONTINUOUS
 10
-3.8
 20
23.7534573615
 11
-4.0551976334
 21
23.7534573615
  0
LINE
  5
5E0
100
AcDbEntity
  8
268
100
AcDbLine
 62
7
  6
CONTINUOUS
 10
-3.5
 20
23.7941821702
 11
3.5
 21
23.7941821702
  0
LINE
  5
5E1
100
AcDbEntity
  8
268
100
AcDbLine
 62
7
  6
CONTINUOUS
 10
4.4
 20
23.8
 11
-4.4
 21
23.8
  0
LINE
  5
5E2
100
AcDbEntity
  8
268
100
AcDbLine
 62
7
  6
CONTINUOUS
 10
8.3
 20
24.4
 11
8.304371834
 21
24.395628166
  0
LINE
  5
5E3
100
AcDbEntity
  8
268
100
AcDbLine
 62
250
  6
CONTINUOUS
 10
-10.5941821702
 20
23.8443375673
 11
-8.3058178298
 21
23.8443375673
  0
LINE
  5
5E4
100
AcDbEntity
  8
268
100
AcDbLine
 62
250
  6
CONTINUOUS
 10
8.3058178298
 20
23.8443375673
 11
10.5941821702
 21
23.8443375673
  0
LINE
  5
5E5
100
AcDbEntity
  8
268
100
AcDbLine
 62
250
  6
CONTINUOUS
 10
10.5941821702
 20
24.1456323968
 11
8.3058178298
 21
24.1456323968
  0
LINE
  5
5E6
100
AcDbEntity
  8
268
100
AcDbLine
 62
250
  6
CONTINUOUS
 10
-8.3058178298
 20
24.1456323968
 11
-10.5941821702
 21
24.1456323968
  0
LINE
  5
5E7
100
AcDbEntity
  8
268
100
AcDbLine
 62
250
  6
CONTINUOUS
 10
10.595628166
 20
24.395628166
 11
8.304371834
 21
24.395628166
  0
LINE
  5
5E8
100
AcDbEntity
  8
268
100
AcDbLine
 62
250
  6
CONTINUOUS
 10
-8.304371834
 20
24.395628166
 11
-10.595628166
 21
24.395628166
  0
LINE
  5
5E9
100
AcDbEntity
  8
268
100
AcDbLine
 62
7
  6
CONTINUOUS
 10
10.6
 20
24.4
 11
8.3
 21
24.4
  0
LINE
  5
5EA
100
AcDbEntity
  8
268
100
AcDbLine
 62
7
  6
CONTINUOUS
 10
-8.3
 20
24.4
 11
-10.6
 21
24.4
  0
ARC
  5
5EB
100
AcDbEntity
  8
218_STAMPATO
100
AcDbCircle
 62
250
  6
CONTINUOUS
 10
-56.1704857377
 20
-18.0795179556
 40
50.713241267
100
AcDbArc
 50
4.2759494214
 51
4.4663155736
  0
ARC
  5
5EC
100
AcDbEntity
  8
218_STAMPATO
100
AcDbCircle
 62
250
  6
CONTINUOUS
 10
-45.6704691198
 20
-18.0795166863
 40
50.7132246007
100
AcDbArc
 50
4.2759493913
 51
4.466315606
  0
ARC
  5
5ED
100
AcDbEntity
  8
218_STAMPATO
100
AcDbCircle
 62
250
  6
CONTINUOUS
 10
-56.1704794549
 20
-4.2795174842
 40
50.7132349665
100
AcDbArc
 50
4.2759494196
 51
4.4663155953
  0
ARC
  5
5EE
100
AcDbEntity
  8
218_STAMPATO
100
AcDbCircle
 62
250
  6
CONTINUOUS
 10
-45.6704697527
 20
-6.1204832333
 40
50.7132252378
100
AcDbArc
 50
355.5336843593
 51
355.7240505715
  0
ARC
  5
5EF
100
AcDbEntity
  8
218_STAMPATO
100
AcDbCircle
 62
250
  6
CONTINUOUS
 10
-45.6704628391
 20
-4.2795162151
 40
50.7132183023
100
AcDbArc
 50
4.2759493894
 51
4.4663156278
  0
ARC
  5
5F0
100
AcDbEntity
  8
218_STAMPATO
100
AcDbCircle
 62
250
  6
CONTINUOUS
 10
-56.1704529873
 20
-6.1204845139
 40
50.7132084237
100
AcDbArc
 50
355.5336843266
 51
355.724050602
  0
ARC
  5
5F1
100
AcDbEntity
  8
715
100
AcDbCircle
 62
7
  6
CONTINUOUS
 10
-9.1742591835
 20
-17.7801348777
 40
4.2631591535
100
AcDbArc
 50
79.7583304842
 51
80.3302784328
  0
ARC
  5
5F2
100
AcDbEntity
  8
715
100
AcDbCircle
 62
7
  6
CONTINUOUS
 10
-9.0497044016
 20
-17.0878880441
 40
3.5597963319
100
AcDbArc
 50
79.1091435091
 51
79.7500958947
  0
ARC
  5
5F3
100
AcDbEntity
  8
218_STAMPATO
100
AcDbCircle
 62
250
  6
CONTINUOUS
 10
-8.783139037
 20
-17.5196140889
 40
1.9999999706
100
AcDbArc
 50
180.0036142072
 51
224.9963857928
  0
ARC
  5
5F4
100
AcDbEntity
  8
218_STAMPATO
100
AcDbCircle
 62
250
  6
CONTINUOUS
 10
-9.2982286789
 20
-18.4185019022
 40
1.0001669283
100
AcDbArc
 50
225.0075747888
 51
269.9924252112
  0
ARC
  5
5F5
100
AcDbEntity
  8
218_STAMPATO
100
AcDbCircle
 62
250
  6
CONTINUOUS
 10
-8.7834561586
 20
-17.519745445
 40
0.9998351499
100
AcDbArc
 50
179.9997022169
 51
225.0002977831
  0
ARC
  5
5F6
100
AcDbEntity
  8
268
100
AcDbCircle
 62
7
  6
CONTINUOUS
 10
-10.799992379
 20
-22.0499939073
 40
0.350006664
100
AcDbArc
 50
179.99881568
 51
269.9987524488
  0
ARC
  5
5F7
100
AcDbEntity
  8
268
100
AcDbCircle
 62
7
  6
CONTINUOUS
 10
-7.7672062743
 20
-21.4395270565
 40
0.3134405926
100
AcDbArc
 50
181.0180013055
 51
224.9572914863
  0
ARC
  5
5F8
100
AcDbEntity
  8
268
100
AcDbCircle
 62
7
  6
CONTINUOUS
 10
-7.2077750891
 20
-22.0001240131
 40
0.3126125459
100
AcDbArc
 50
225.0080026099
 51
245.3798661871
  0
ARC
  5
5F9
100
AcDbEntity
  8
268
100
AcDbCircle
 62
7
  6
CONTINUOUS
 10
-7.2080600571
 20
-22.0009771915
 40
0.3117182273
100
AcDbArc
 50
245.3621522379
 51
269.0792222522
  0
ARC
  5
5FA
100
AcDbEntity
  8
268
100
AcDbCircle
 62
7
  6
CONTINUOUS
 10
-6.35
 20
-20.0
 40
0.3
100
AcDbArc
 50
0.0
 51
90.0
  0
ARC
  5
5FB
100
AcDbEntity
  8
268
100
AcDbCircle
 62
250
  6
CONTINUOUS
 10
-6.9153313889
 20
-19.9999937752
 40
0.2999942886
100
AcDbArc
 50
90.0012548145
 51
180.0011888612
  0
ARC
  5
5FC
100
AcDbEntity
  8
268
100
AcDbCircle
 62
7
  6
CONTINUOUS
 10
-7.7753872574
 20
-21.1996866455
 40
0.2996869941
100
AcDbArc
 50
91.004331998
 51
93.7842073811
  0
ARC
  5
5FD
100
AcDbEntity
  8
218_STAMPATO
100
AcDbCircle
 62
250
  6
CONTINUOUS
 10
-7.75
 20
-12.1
 40
3.3748992889
100
AcDbArc
 50
232.9526621986
 51
314.3844406921
  0
ARC
  5
5FE
100
AcDbEntity
  8
218_STAMPATO
100
AcDbCircle
 62
250
  6
CONTINUOUS
 10
-7.75
 20
-12.1
 40
3.3748992889
100
AcDbArc
 50
45.6155593064
 51
127.0473378014
  0
ARC
  5
5FF
100
AcDbEntity
  8
218_STAMPATO
100
AcDbCircle
 62
250
  6
CONTINUOUS
 10
-7.75
 20
-12.1
 40
3.0760409423
100
AcDbArc
 50
232.9526621986
 51
314.3844406962
  0
ARC
  5
600
100
AcDbEntity
  8
218_STAMPATO
100
AcDbCircle
 62
250
  6
CONTINUOUS
 10
-7.75
 20
-12.1
 40
3.0760409423
100
AcDbArc
 50
45.615559302
 51
127.0473378014
  0
ARC
  5
601
100
AcDbEntity
  8
218_STAMPATO
100
AcDbCircle
 62
250
  6
CONTINUOUS
 10
-7.75
 20
-12.1
 40
2.9489817301
100
AcDbArc
 50
43.5102096137
 51
316.4897903873
  0
ARC
  5
602
100
AcDbEntity
  8
218_STAMPATO
100
AcDbCircle
 62
250
  6
CONTINUOUS
 10
-7.75
 20
-12.1
 40
2.6501233095
100
AcDbArc
 50
43.510209624
 51
316.4897903757
  0
CIRCLE
  5
603
100
AcDbEntity
  8
218_STAMPATO
100
AcDbCircle
 62
250
  6
CONTINUOUS
 10
-7.75
 20
-12.1
 40
2.4451635399
  0
CIRCLE
  5
604
100
AcDbEntity
  8
218_STAMPATO
100
AcDbCircle
 62
250
  6
CONTINUOUS
 10
-7.75
 20
-12.1
 40
2.147399697
  0
CIRCLE
  5
605
100
AcDbEntity
  8
218_STAMPATO
100
AcDbCircle
 62
7
  6
CONTINUOUS
 10
-7.75
 20
-12.1
 40
1.75
  0
ARC
  5
606
100
AcDbEntity
  8
715
100
AcDbCircle
 62
7
  6
CONTINUOUS
 10
-8.8
 20
-15.15
 40
1.6
100
AcDbArc
 50
75.8112600263
 51
87.3914636005
  0
ARC
  5
607
100
AcDbEntity
  8
715
100
AcDbCircle
 62
7
  6
CONTINUOUS
 10
-8.4525274242
 20
-14.5877640045
 40
0.9868014689
100
AcDbArc
 50
70.2460262502
 51
70.4098211089
  0
ARC
  5
608
100
AcDbEntity
  8
715
100
AcDbCircle
 62
7
  6
CONTINUOUS
 10
-1.3468715463
 20
-17.6596990916
 40
4.1408852227
100
AcDbArc
 50
99.6613583331
 51
100.2501029244
  0
ARC
  5
609
100
AcDbEntity
  8
715
100
AcDbCircle
 62
7
  6
CONTINUOUS
 10
-1.4699791703
 20
-16.9824249862
 40
3.4525137879
100
AcDbArc
 50
100.2397288182
 51
100.9005198044
  0
ARC
  5
60A
100
AcDbEntity
  8
218_STAMPATO
100
AcDbCircle
 62
250
  6
CONTINUOUS
 10
-2.75
 20
-12.1
 40
3.374899273
100
AcDbArc
 50
225.6155593077
 51
320.3014941269
  0
ARC
  5
60B
100
AcDbEntity
  8
218_STAMPATO
100
AcDbCircle
 62
250
  6
CONTINUOUS
 10
-2.75
 20
-12.1
 40
3.3748992715
100
AcDbArc
 50
39.6985058816
 51
134.3844406933
  0
ARC
  5
60C
100
AcDbEntity
  8
218_STAMPATO
100
AcDbCircle
 62
250
  6
CONTINUOUS
 10
-2.75
 20
-12.1
 40
3.0760409422
100
AcDbArc
 50
225.6155593033
 51
320.3014941393
  0
ARC
  5
60D
100
AcDbEntity
  8
218_STAMPATO
100
AcDbCircle
 62
250
  6
CONTINUOUS
 10
-2.75
 20
-12.1
 40
3.0760409422
100
AcDbArc
 50
39.6985058687
 51
134.3844406975
  0
ARC
  5
60E
100
AcDbEntity
  8
218_STAMPATO
100
AcDbCircle
 62
250
  6
CONTINUOUS
 10
-2.75
 20
-12.1
 40
2.9489817301
100
AcDbArc
 50
223.5102096149
 51
322.9183286597
  0
ARC
  5
60F
100
AcDbEntity
  8
218_STAMPATO
100
AcDbCircle
 62
250
  6
CONTINUOUS
 10
-2.75
 20
-12.1
 40
2.9489817301
100
AcDbArc
 50
37.0816713772
 51
136.4897903885
  0
ARC
  5
610
100
AcDbEntity
  8
218_STAMPATO
100
AcDbCircle
 62
250
  6
CONTINUOUS
 10
-2.75
 20
-12.1
 40
2.65012331
100
AcDbArc
 50
37.0816714185
 51
136.489790377
  0
ARC
  5
611
100
AcDbEntity
  8
218_STAMPATO
100
AcDbCircle
 62
250
  6
CONTINUOUS
 10
-2.75
 20
-12.1
 40
2.6501233095
100
AcDbArc
 50
223.5102096252
 51
322.9183286164
  0
CIRCLE
  5
612
100
AcDbEntity
  8
218_STAMPATO
100
AcDbCircle
 62
250
  6
CONTINUOUS
 10
-2.75
 20
-12.1
 40
2.4451635399
  0
CIRCLE
  5
613
100
AcDbEntity
  8
218_STAMPATO
100
AcDbCircle
 62
250
  6
CONTINUOUS
 10
-2.75
 20
-12.1
 40
2.147399697
  0
ARC
  5
614
100
AcDbEntity
  8
218_STAMPATO
100
AcDbCircle
 62
7
  6
CONTINUOUS
 10
-2.75
 20
-12.1
 40
1.75
100
AcDbArc
 50
196.2256494302
 51
90.0
  0
ARC
  5
615
100
AcDbEntity
  8
715
100
AcDbCircle
 62
7
  6
CONTINUOUS
 10
-1.7
 20
-15.15
 40
1.6
100
AcDbArc
 50
92.608555159
 51
104.1887399737
  0
ARC
  5
616
100
AcDbEntity
  8
218_STAMPATO
100
AcDbCircle
 62
250
  6
CONTINUOUS
 10
-5.2500000646
 20
-14.6576863778
 40
0.5005260251
100
AcDbArc
 50
45.886447241
 51
134.1135421561
  0
ARC
  5
617
100
AcDbEntity
  8
218_STAMPATO
100
AcDbCircle
 62
250
  6
CONTINUOUS
 10
-5.2500000646
 20
-0.8576863778
 40
0.5005260251
100
AcDbArc
 50
45.886447241
 51
134.1135421561
  0
ARC
  5
618
100
AcDbEntity
  8
218_STAMPATO
100
AcDbCircle
 62
250
  6
CONTINUOUS
 10
-5.2499999354
 20
-9.5423136525
 40
0.500526025
100
AcDbArc
 50
225.8864448277
 51
314.1135445691
  0
ARC
  5
619
100
AcDbEntity
  8
218_STAMPATO
100
AcDbCircle
 62
250
  6
CONTINUOUS
 10
-45.6704699727
 20
7.6795167832
 40
50.7132254584
100
AcDbArc
 50
355.5336843601
 51
355.7240505715
  0
ARC
  5
61A
100
AcDbEntity
  8
218_STAMPATO
100
AcDbCircle
 62
250
  6
CONTINUOUS
 10
-56.170453206
 20
7.6795155025
 40
50.7132086429
100
AcDbArc
 50
355.5336843274
 51
355.7240506019
  0
ARC
  5
61B
100
AcDbEntity
  8
218_STAMPATO
100
AcDbCircle
 62
250
  6
CONTINUOUS
 10
-7.75
 20
1.7
 40
3.3748992889
100
AcDbArc
 50
45.6155593064
 51
127.0473378014
  0
ARC
  5
61C
100
AcDbEntity
  8
218_STAMPATO
100
AcDbCircle
 62
250
  6
CONTINUOUS
 10
-7.75
 20
1.7
 40
3.3748992889
100
AcDbArc
 50
232.9526621986
 51
314.3844406921
  0
ARC
  5
61D
100
AcDbEntity
  8
218_STAMPATO
100
AcDbCircle
 62
250
  6
CONTINUOUS
 10
-2.75
 20
1.7
 40
3.374899273
100
AcDbArc
 50
225.6155593077
 51
320.3014941269
  0
ARC
  5
61E
100
AcDbEntity
  8
218_STAMPATO
100
AcDbCircle
 62
250
  6
CONTINUOUS
 10
-2.75
 20
1.7
 40
3.3748992715
100
AcDbArc
 50
39.6985058816
 51
134.3844406933
  0
ARC
  5
61F
100
AcDbEntity
  8
218_STAMPATO
100
AcDbCircle
 62
250
  6
CONTINUOUS
 10
-7.75
 20
1.7
 40
3.0760409423
100
AcDbArc
 50
45.615559302
 51
127.0473378014
  0
ARC
  5
620
100
AcDbEntity
  8
218_STAMPATO
100
AcDbCircle
 62
250
  6
CONTINUOUS
 10
-2.75
 20
1.7
 40
3.0760409422
100
AcDbArc
 50
39.6985058687
 51
134.3844406975
  0
ARC
  5
621
100
AcDbEntity
  8
218_STAMPATO
100
AcDbCircle
 62
250
  6
CONTINUOUS
 10
-2.75
 20
1.7
 40
3.0760409422
100
AcDbArc
 50
225.6155593033
 51
320.3014941393
  0
ARC
  5
622
100
AcDbEntity
  8
218_STAMPATO
100
AcDbCircle
 62
250
  6
CONTINUOUS
 10
-7.75
 20
1.7
 40
3.0760409423
100
AcDbArc
 50
232.9526621986
 51
314.3844406962
  0
ARC
  5
623
100
AcDbEntity
  8
218_STAMPATO
100
AcDbCircle
 62
250
  6
CONTINUOUS
 10
-2.75
 20
1.7
 40
2.9489817301
100
AcDbArc
 50
223.5102096149
 51
322.9183286581
  0
ARC
  5
624
100
AcDbEntity
  8
218_STAMPATO
100
AcDbCircle
 62
250
  6
CONTINUOUS
 10
-2.75
 20
1.7
 40
2.9489817301
100
AcDbArc
 50
37.0816713772
 51
136.4897903877
  0
ARC
  5
625
100
AcDbEntity
  8
218_STAMPATO
100
AcDbCircle
 62
250
  6
CONTINUOUS
 10
-7.75
 20
1.7
 40
2.9489817301
100
AcDbArc
 50
43.5102096137
 51
316.4897903865
  0
ARC
  5
626
100
AcDbEntity
  8
218_STAMPATO
100
AcDbCircle
 62
250
  6
CONTINUOUS
 10
-2.75
 20
1.7
 40
2.6501233109
100
AcDbArc
 50
223.5102096252
 51
322.9183286164
  0
ARC
  5
627
100
AcDbEntity
  8
218_STAMPATO
100
AcDbCircle
 62
250
  6
CONTINUOUS
 10
-2.75
 20
1.7
 40
2.6501233108
100
AcDbArc
 50
37.0816714185
 51
136.489790377
  0
ARC
  5
628
100
AcDbEntity
  8
218_STAMPATO
100
AcDbCircle
 62
250
  6
CONTINUOUS
 10
-7.75
 20
1.7
 40
2.6501233106
100
AcDbArc
 50
43.510209624
 51
316.4897903757
  0
CIRCLE
  5
629
100
AcDbEntity
  8
218_STAMPATO
100
AcDbCircle
 62
250
  6
CONTINUOUS
 10
-7.75
 20
1.7
 40
2.3951635398
  0
CIRCLE
  5
62A
100
AcDbEntity
  8
218_STAMPATO
100
AcDbCircle
 62
250
  6
CONTINUOUS
 10
-2.75
 20
1.7
 40
2.3951635398
  0
CIRCLE
  5
62B
100
AcDbEntity
  8
218_STAMPATO
100
AcDbCircle
 62
250
  6
CONTINUOUS
 10
-7.75
 20
1.7
 40
2.097399697
  0
CIRCLE
  5
62C
100
AcDbEntity
  8
218_STAMPATO
100
AcDbCircle
 62
250
  6
CONTINUOUS
 10
-2.75
 20
1.7
 40
2.097399697
  0
CIRCLE
  5
62D
100
AcDbEntity
  8
218_STAMPATO
100
AcDbCircle
 62
7
  6
CONTINUOUS
 10
-7.75
 20
1.7
 40
1.7
  0
CIRCLE
  5
62E
100
AcDbEntity
  8
218_STAMPATO
100
AcDbCircle
 62
7
  6
CONTINUOUS
 10
-2.75
 20
1.7
 40
1.7
  0
ARC
  5
62F
100
AcDbEntity
  8
218_STAMPATO
100
AcDbCircle
 62
250
  6
CONTINUOUS
 10
-9.9268795961
 20
8.1264081815
 40
1.5002431514
100
AcDbArc
 50
90.0000074121
 51
90.9825436788
  0
ARC
  5
630
100
AcDbEntity
  8
218_STAMPATO
100
AcDbCircle
 62
250
  6
CONTINUOUS
 10
-9.9270319507
 20
8.1264205638
 40
1.0003069331
100
AcDbArc
 50
89.9912845194
 51
90.9738255401
  0
ARC
  5
631
100
AcDbEntity
  8
218_STAMPATO
100
AcDbCircle
 62
250
  6
CONTINUOUS
 10
-9.7829256454
 20
7.9829256454
 40
1.0002157485
100
AcDbArc
 50
90.0209464775
 51
179.9790535225
  0
ARC
  5
632
100
AcDbEntity
  8
218_STAMPATO
100
AcDbCircle
 62
250
  6
CONTINUOUS
 10
-5.2499999354
 20
4.2576863475
 40
0.500526025
100
AcDbArc
 50
225.8864448277
 51
314.1135445691
  0
ARC
  5
633
100
AcDbEntity
  8
320
100
AcDbCircle
 62
7
  6
CONTINUOUS
 10
-1.8236031645
 20
1.1047558
 40
0.2792517166
100
AcDbArc
 50
135.5477974193
 51
137.9674868299
  0
ARC
  5
634
100
AcDbEntity
  8
320
100
AcDbCircle
 62
7
  6
CONTINUOUS
 10
-8.6763968355
 20
1.1047558
 40
0.2792517166
100
AcDbArc
 50
42.0325131701
 51
44.4522025807
  0
ARC
  5
635
100
AcDbEntity
  8
320
100
AcDbCircle
 62
7
  6
CONTINUOUS
 10
-1.8242239529
 20
1.1053189356
 40
0.278413568
100
AcDbArc
 50
137.9680274892
 51
139.3585937973
  0
ARC
  5
636
100
AcDbEntity
  8
320
100
AcDbCircle
 62
7
  6
CONTINUOUS
 10
-8.6757760471
 20
1.1053189356
 40
0.278413568
100
AcDbArc
 50
40.6414062026
 51
42.0319725108
  0
ARC
  5
637
100
AcDbEntity
  8
320
100
AcDbCircle
 62
7
  6
CONTINUOUS
 10
-8.6751940084
 20
1.1058182312
 40
0.277646714
100
AcDbArc
 50
39.1392253356
 51
40.6414534955
  0
ARC
  5
638
100
AcDbEntity
  8
320
100
AcDbCircle
 62
7
  6
CONTINUOUS
 10
-1.8248412633
 20
1.1058479802
 40
0.2776005737
100
AcDbArc
 50
139.3584640046
 51
141.0262993537
  0
ARC
  5
639
100
AcDbEntity
  8
218_STAMPATO
100
AcDbCircle
 62
250
  6
CONTINUOUS
 10
-8.9524531668
 20
17.5897462977
 40
1.9999999706
100
AcDbArc
 50
135.0036142072
 51
179.9963857928
  0
ARC
  5
63A
100
AcDbEntity
  8
218_STAMPATO
100
AcDbCircle
 62
250
  6
CONTINUOUS
 10
-9.3683608878
 20
18.587816032
 40
1.0001669283
100
AcDbArc
 50
90.0075747888
 51
134.9924252112
  0
ARC
  5
63B
100
AcDbEntity
  8
218_STAMPATO
100
AcDbCircle
 62
250
  6
CONTINUOUS
 10
-8.9527702884
 20
17.5898776538
 40
0.9998351499
100
AcDbArc
 50
134.9997022169
 51
180.0002977831
  0
ARC
  5
63C
100
AcDbEntity
  8
218_STAMPATO
100
AcDbCircle
 62
7
  6
CONTINUOUS
 10
-6.0847842325
 20
13.1392354966
 40
0.4174600759
100
AcDbArc
 50
89.9982052959
 51
96.7874716599
  0
ARC
  5
63D
100
AcDbEntity
  8
268
100
AcDbCircle
 62
7
  6
CONTINUOUS
 10
-10.7999923364
 20
22.0499939344
 40
0.350006664
100
AcDbArc
 50
90.001254533
 51
180.0011887604
  0
ARC
  5
63E
100
AcDbEntity
  8
268
100
AcDbCircle
 62
7
  6
CONTINUOUS
 10
-7.7672062755
 20
21.4395270537
 40
0.3134405926
100
AcDbArc
 50
135.0427080006
 51
178.9819981816
  0
ARC
  5
63F
100
AcDbEntity
  8
268
100
AcDbCircle
 62
7
  6
CONTINUOUS
 10
-7.2079119822
 20
22.0003489367
 40
0.3123543042
100
AcDbArc
 50
90.9460844322
 51
135.0034088472
  0
ARC
  5
640
100
AcDbEntity
  8
268
100
AcDbCircle
 62
7
  6
CONTINUOUS
 10
-6.35
 20
20.0
 40
0.3
100
AcDbArc
 50
270.0
 51
360.0
  0
ARC
  5
641
100
AcDbEntity
  8
268
100
AcDbCircle
 62
250
  6
CONTINUOUS
 10
-6.9153314271
 20
19.9999937997
 40
0.2999942886
100
AcDbArc
 50
179.9988158112
 51
269.9987524864
  0
ARC
  5
642
100
AcDbEntity
  8
268
100
AcDbCircle
 62
7
  6
CONTINUOUS
 10
-7.7753872574
 20
21.1996866455
 40
0.2996869941
100
AcDbArc
 50
266.2157926189
 51
268.995668002
  0
CIRCLE
  5
643
100
AcDbEntity
  8
218_STAMPATO
100
AcDbCircle
 62
7
  6
CONTINUOUS
 10
-6.084771
 20
13.145672
 40
0.213759
  0
CIRCLE
  5
644
100
AcDbEntity
  8
218_STAMPATO
100
AcDbCircle
 62
7
  6
CONTINUOUS
 10
-6.084765
 20
13.145672
 40
0.138824
  0
ARC
  5
645
100
AcDbEntity
  8
715
100
AcDbCircle
 62
7
  6
CONTINUOUS
 10
1.3257408165
 20
-17.7801348777
 40
4.2631591535
100
AcDbArc
 50
79.7583304842
 51
80.3302784328
  0
ARC
  5
646
100
AcDbEntity
  8
715
100
AcDbCircle
 62
7
  6
CONTINUOUS
 10
1.4502955984
 20
-17.0878880441
 40
3.5597963319
100
AcDbArc
 50
79.1091435091
 51
79.7500958947
  0
ARC
  5
647
100
AcDbEntity
  8
218_STAMPATO
100
AcDbCircle
 62
250
  6
CONTINUOUS
 10
2.75
 20
-12.1
 40
3.374899273
100
AcDbArc
 50
45.6155593077
 51
140.3014941269
  0
ARC
  5
648
100
AcDbEntity
  8
218_STAMPATO
100
AcDbCircle
 62
250
  6
CONTINUOUS
 10
2.75
 20
-12.1
 40
3.3748992715
100
AcDbArc
 50
219.6985058816
 51
314.3844406933
  0
ARC
  5
649
100
AcDbEntity
  8
218_STAMPATO
100
AcDbCircle
 62
250
  6
CONTINUOUS
 10
2.75
 20
-12.1
 40
3.0760409422
100
AcDbArc
 50
219.6985058687
 51
314.3844406975
  0
ARC
  5
64A
100
AcDbEntity
  8
218_STAMPATO
100
AcDbCircle
 62
250
  6
CONTINUOUS
 10
2.75
 20
-12.1
 40
3.0760409422
100
AcDbArc
 50
45.6155593033
 51
140.3014941393
  0
ARC
  5
64B
100
AcDbEntity
  8
218_STAMPATO
100
AcDbCircle
 62
250
  6
CONTINUOUS
 10
2.75
 20
-12.1
 40
2.9489817301
100
AcDbArc
 50
217.0816713772
 51
316.4897903885
  0
ARC
  5
64C
100
AcDbEntity
  8
218_STAMPATO
100
AcDbCircle
 62
250
  6
CONTINUOUS
 10
2.75
 20
-12.1
 40
2.9489817301
100
AcDbArc
 50
43.5102096149
 51
142.9183286597
  0
ARC
  5
64D
100
AcDbEntity
  8
218_STAMPATO
100
AcDbCircle
 62
250
  6
CONTINUOUS
 10
2.75
 20
-12.1
 40
2.65012331
100
AcDbArc
 50
217.0816714185
 51
316.489790377
  0
ARC
  5
64E
100
AcDbEntity
  8
218_STAMPATO
100
AcDbCircle
 62
250
  6
CONTINUOUS
 10
2.75
 20
-12.1
 40
2.6501233095
100
AcDbArc
 50
43.5102096252
 51
142.9183286164
  0
CIRCLE
  5
64F
100
AcDbEntity
  8
218_STAMPATO
100
AcDbCircle
 62
250
  6
CONTINUOUS
 10
2.75
 20
-12.1
 40
2.4451635399
  0
CIRCLE
  5
650
100
AcDbEntity
  8
218_STAMPATO
100
AcDbCircle
 62
250
  6
CONTINUOUS
 10
2.75
 20
-12.1
 40
2.147399697
  0
CIRCLE
  5
651
100
AcDbEntity
  8
218_STAMPATO
100
AcDbCircle
 62
7
  6
CONTINUOUS
 10
2.75
 20
-12.1
 40
1.75
  0
ARC
  5
652
100
AcDbEntity
  8
715
100
AcDbCircle
 62
7
  6
CONTINUOUS
 10
1.7
 20
-15.15
 40
1.6
100
AcDbArc
 50
75.8112600263
 51
87.3914636005
  0
ARC
  5
653
100
AcDbEntity
  8
715
100
AcDbCircle
 62
7
  6
CONTINUOUS
 10
2.0474725759
 20
-14.5877640043
 40
0.9868014687
100
AcDbArc
 50
70.2460262501
 51
70.4098211089
  0
ARC
  5
654
100
AcDbEntity
  8
218_STAMPATO
100
AcDbCircle
 62
250
  6
CONTINUOUS
 10
-0.0000000331
 20
-14.3868422419
 40
0.5005874747
100
AcDbArc
 50
40.0392707557
 51
139.9607242569
  0
ARC
  5
655
100
AcDbEntity
  8
218_STAMPATO
100
AcDbCircle
 62
250
  6
CONTINUOUS
 10
5.2499999354
 20
-14.6576863777
 40
0.500526025
100
AcDbArc
 50
45.8864472352
 51
134.1135421616
  0
ARC
  5
656
100
AcDbEntity
  8
715
100
AcDbCircle
 62
7
  6
CONTINUOUS
 10
9.1531284538
 20
-17.6596990916
 40
4.1408852228
100
AcDbArc
 50
99.6613583331
 51
100.2501029244
  0
ARC
  5
657
100
AcDbEntity
  8
218_STAMPATO
100
AcDbCircle
 62
250
  6
CONTINUOUS
 10
8.783139037
 20
-17.5196140889
 40
1.9999999706
100
AcDbArc
 50
315.0036142072
 51
359.9963857928
  0
ARC
  5
658
100
AcDbEntity
  8
218_STAMPATO
100
AcDbCircle
 62
250
  6
CONTINUOUS
 10
9.2982286789
 20
-18.4185019022
 40
1.0001669283
100
AcDbArc
 50
270.0075747888
 51
314.9924252112
  0
ARC
  5
659
100
AcDbEntity
  8
218_STAMPATO
100
AcDbCircle
 62
250
  6
CONTINUOUS
 10
8.7834561572
 20
-17.5197454443
 40
0.9998351513
100
AcDbArc
 50
314.9997022516
 51
0.0002977484
  0
ARC
  5
65A
100
AcDbEntity
  8
268
100
AcDbCircle
 62
7
  6
CONTINUOUS
 10
10.7999924065
 20
-22.0499939348
 40
0.350006664
100
AcDbArc
 50
270.0012430565
 51
0.0011888146
  0
ARC
  5
65B
100
AcDbEntity
  8
268
100
AcDbCircle
 62
7
  6
CONTINUOUS
 10
7.7672062781
 20
-21.4395270586
 40
0.3134405926
100
AcDbArc
 50
315.0427082899
 51
358.9819990691
  0
ARC
  5
65C
100
AcDbEntity
  8
268
100
AcDbCircle
 62
7
  6
CONTINUOUS
 10
7.2079119905
 20
-22.0003489344
 40
0.3123543042
100
AcDbArc
 50
270.9460828933
 51
315.0034074575
  0
ARC
  5
65D
100
AcDbEntity
  8
268
100
AcDbCircle
 62
7
  6
CONTINUOUS
 10
6.35
 20
-20.0
 40
0.3
100
AcDbArc
 50
90.0
 51
180.0
  0
ARC
  5
65E
100
AcDbEntity
  8
268
100
AcDbCircle
 62
250
  6
CONTINUOUS
 10
6.9153314505
 20
-19.999993776
 40
0.2999942886
100
AcDbArc
 50
359.9988112921
 51
89.998756955
  0
ARC
  5
65F
100
AcDbEntity
  8
268
100
AcDbCircle
 62
7
  6
CONTINUOUS
 10
7.7753872574
 20
-21.1996866455
 40
0.2996869941
100
AcDbArc
 50
86.2157926189
 51
88.995668002
  0
ARC
  5
660
100
AcDbEntity
  8
715
100
AcDbCircle
 62
7
  6
CONTINUOUS
 10
9.0300208297
 20
-16.9824249862
 40
3.452513788
100
AcDbArc
 50
100.2397288182
 51
100.9005198044
  0
ARC
  5
661
100
AcDbEntity
  8
218_STAMPATO
100
AcDbCircle
 62
250
  6
CONTINUOUS
 10
7.75
 20
-12.1
 40
3.374899289
100
AcDbArc
 50
225.6155593064
 51
307.0473378014
  0
ARC
  5
662
100
AcDbEntity
  8
218_STAMPATO
100
AcDbCircle
 62
250
  6
CONTINUOUS
 10
7.75
 20
-12.1
 40
3.3748992891
100
AcDbArc
 50
52.9526621986
 51
134.3844406921
  0
ARC
  5
663
100
AcDbEntity
  8
218_STAMPATO
100
AcDbCircle
 62
250
  6
CONTINUOUS
 10
7.75
 20
-12.1
 40
3.0760409423
100
AcDbArc
 50
225.615559302
 51
307.0473378014
  0
ARC
  5
664
100
AcDbEntity
  8
218_STAMPATO
100
AcDbCircle
 62
250
  6
CONTINUOUS
 10
7.75
 20
-12.1
 40
3.0760409423
100
AcDbArc
 50
52.9526621986
 51
134.3844406962
  0
ARC
  5
665
100
AcDbEntity
  8
218_STAMPATO
100
AcDbCircle
 62
250
  6
CONTINUOUS
 10
7.75
 20
-12.1
 40
2.9489817301
100
AcDbArc
 50
223.5102096137
 51
136.4897903873
  0
ARC
  5
666
100
AcDbEntity
  8
218_STAMPATO
100
AcDbCircle
 62
250
  6
CONTINUOUS
 10
7.75
 20
-12.1
 40
2.6501233095
100
AcDbArc
 50
223.510209624
 51
136.4897903757
  0
CIRCLE
  5
667
100
AcDbEntity
  8
218_STAMPATO
100
AcDbCircle
 62
250
  6
CONTINUOUS
 10
7.75
 20
-12.1
 40
2.4451635399
  0
CIRCLE
  5
668
100
AcDbEntity
  8
218_STAMPATO
100
AcDbCircle
 62
250
  6
CONTINUOUS
 10
7.75
 20
-12.1
 40
2.147399697
  0
CIRCLE
  5
669
100
AcDbEntity
  8
218_STAMPATO
100
AcDbCircle
 62
7
  6
CONTINUOUS
 10
7.75
 20
-12.1
 40
1.75
  0
ARC
  5
66A
100
AcDbEntity
  8
715
100
AcDbCircle
 62
7
  6
CONTINUOUS
 10
8.8
 20
-15.15
 40
1.6
100
AcDbArc
 50
92.608555159
 51
104.1887399737
  0
ARC
  5
66B
100
AcDbEntity
  8
218_STAMPATO
100
AcDbCircle
 62
250
  6
CONTINUOUS
 10
-0.0000000331
 20
-0.5868422419
 40
0.5005874747
100
AcDbArc
 50
40.0392707557
 51
139.9607242569
  0
ARC
  5
66C
100
AcDbEntity
  8
218_STAMPATO
100
AcDbCircle
 62
250
  6
CONTINUOUS
 10
0.0000000331
 20
-9.8131578096
 40
0.5005874747
100
AcDbArc
 50
220.0392662395
 51
319.960728773
  0
ARC
  5
66D
100
AcDbEntity
  8
218_STAMPATO
100
AcDbCircle
 62
250
  6
CONTINUOUS
 10
5.2499999354
 20
-0.8576863777
 40
0.500526025
100
AcDbArc
 50
45.8864472352
 51
134.1135421616
  0
ARC
  5
66E
100
AcDbEntity
  8
218_STAMPATO
100
AcDbCircle
 62
250
  6
CONTINUOUS
 10
5.2500000646
 20
-9.5423136524
 40
0.5005260251
100
AcDbArc
 50
225.8864448335
 51
314.1135445636
  0
ARC
  5
66F
100
AcDbEntity
  8
218_STAMPATO
100
AcDbCircle
 62
250
  6
CONTINUOUS
 10
45.6704697531
 20
-18.0795167667
 40
50.7132252382
100
AcDbArc
 50
175.5336843593
 51
175.7240505715
  0
ARC
  5
670
100
AcDbEntity
  8
218_STAMPATO
100
AcDbCircle
 62
250
  6
CONTINUOUS
 10
56.1704529902
 20
-18.0795154863
 40
50.7132084266
100
AcDbArc
 50
175.5336843266
 51
175.724050602
  0
ARC
  5
671
100
AcDbEntity
  8
218_STAMPATO
100
AcDbCircle
 62
250
  6
CONTINUOUS
 10
56.1704857363
 20
-6.1204820445
 40
50.7132412656
100
AcDbArc
 50
184.2759494214
 51
184.4663155736
  0
ARC
  5
672
100
AcDbEntity
  8
218_STAMPATO
100
AcDbCircle
 62
250
  6
CONTINUOUS
 10
45.670469973
 20
-4.2795167832
 40
50.7132254588
100
AcDbArc
 50
175.5336843601
 51
175.7240505715
  0
ARC
  5
673
100
AcDbEntity
  8
218_STAMPATO
100
AcDbCircle
 62
250
  6
CONTINUOUS
 10
45.6704691203
 20
-6.1204833137
 40
50.7132246012
100
AcDbArc
 50
184.2759493913
 51
184.466315606
  0
ARC
  5
674
100
AcDbEntity
  8
218_STAMPATO
100
AcDbCircle
 62
250
  6
CONTINUOUS
 10
56.1704532088
 20
-4.2795155027
 40
50.7132086457
100
AcDbArc
 50
175.5336843274
 51
175.7240506019
  0
ARC
  5
675
100
AcDbEntity
  8
218_STAMPATO
100
AcDbCircle
 62
250
  6
CONTINUOUS
 10
2.75
 20
1.7
 40
3.374899273
100
AcDbArc
 50
45.6155593077
 51
140.3014941269
  0
ARC
  5
676
100
AcDbEntity
  8
218_STAMPATO
100
AcDbCircle
 62
250
  6
CONTINUOUS
 10
2.75
 20
1.7
 40
3.3748992715
100
AcDbArc
 50
219.6985058816
 51
314.3844406933
  0
ARC
  5
677
100
AcDbEntity
  8
218_STAMPATO
100
AcDbCircle
 62
250
  6
CONTINUOUS
 10
2.75
 20
1.7
 40
3.0760409422
100
AcDbArc
 50
45.6155593033
 51
140.3014941393
  0
ARC
  5
678
100
AcDbEntity
  8
218_STAMPATO
100
AcDbCircle
 62
250
  6
CONTINUOUS
 10
2.75
 20
1.7
 40
3.0760409422
100
AcDbArc
 50
219.6985058687
 51
314.3844406975
  0
ARC
  5
679
100
AcDbEntity
  8
218_STAMPATO
100
AcDbCircle
 62
250
  6
CONTINUOUS
 10
2.75
 20
1.7
 40
2.9489817301
100
AcDbArc
 50
217.0816713772
 51
316.4897903877
  0
ARC
  5
67A
100
AcDbEntity
  8
218_STAMPATO
100
AcDbCircle
 62
250
  6
CONTINUOUS
 10
2.75
 20
1.7
 40
2.9489817301
100
AcDbArc
 50
43.5102096149
 51
142.9183286581
  0
ARC
  5
67B
100
AcDbEntity
  8
218_STAMPATO
100
AcDbCircle
 62
250
  6
CONTINUOUS
 10
2.75
 20
1.7
 40
2.6501233108
100
AcDbArc
 50
217.0816714185
 51
316.489790377
  0
ARC
  5
67C
100
AcDbEntity
  8
218_STAMPATO
100
AcDbCircle
 62
250
  6
CONTINUOUS
 10
2.75
 20
1.7
 40
2.6501233109
100
AcDbArc
 50
43.5102096252
 51
142.9183286164
  0
CIRCLE
  5
67D
100
AcDbEntity
  8
218_STAMPATO
100
AcDbCircle
 62
250
  6
CONTINUOUS
 10
2.75
 20
1.7
 40
2.3951635398
  0
CIRCLE
  5
67E
100
AcDbEntity
  8
218_STAMPATO
100
AcDbCircle
 62
250
  6
CONTINUOUS
 10
2.75
 20
1.7
 40
2.097399697
  0
CIRCLE
  5
67F
100
AcDbEntity
  8
218_STAMPATO
100
AcDbCircle
 62
7
  6
CONTINUOUS
 10
2.75
 20
1.7
 40
1.7
  0
ARC
  5
680
100
AcDbEntity
  8
218_STAMPATO
100
AcDbCircle
 62
250
  6
CONTINUOUS
 10
0.0000000331
 20
3.9868421904
 40
0.5005874747
100
AcDbArc
 50
220.0392662395
 51
319.960728773
  0
ARC
  5
681
100
AcDbEntity
  8
320
100
AcDbCircle
 62
7
  6
CONTINUOUS
 10
1.8236031645
 20
1.1047558
 40
0.2792517166
100
AcDbArc
 50
42.0325131701
 51
44.4522025807
  0
ARC
  5
682
100
AcDbEntity
  8
320
100
AcDbCircle
 62
7
  6
CONTINUOUS
 10
1.8242239529
 20
1.1053189357
 40
0.278413568
100
AcDbArc
 50
40.6414062026
 51
42.0319725108
  0
ARC
  5
683
100
AcDbEntity
  8
320
100
AcDbCircle
 62
7
  6
CONTINUOUS
 10
1.8248059916
 20
1.1058182312
 40
0.277646714
100
AcDbArc
 50
39.1392253356
 51
40.6414534955
  0
ARC
  5
684
100
AcDbEntity
  8
218_STAMPATO
100
AcDbCircle
 62
250
  6
CONTINUOUS
 10
7.75
 20
1.7
 40
3.3748992891
100
AcDbArc
 50
52.9526621986
 51
134.3844406921
  0
ARC
  5
685
100
AcDbEntity
  8
218_STAMPATO
100
AcDbCircle
 62
250
  6
CONTINUOUS
 10
7.75
 20
1.7
 40
3.374899289
100
AcDbArc
 50
225.6155593064
 51
307.0473378014
  0
ARC
  5
686
100
AcDbEntity
  8
218_STAMPATO
100
AcDbCircle
 62
250
  6
CONTINUOUS
 10
7.75
 20
1.7
 40
3.0760409423
100
AcDbArc
 50
52.9526621986
 51
134.3844406962
  0
ARC
  5
687
100
AcDbEntity
  8
218_STAMPATO
100
AcDbCircle
 62
250
  6
CONTINUOUS
 10
7.75
 20
1.7
 40
3.0760409423
100
AcDbArc
 50
225.615559302
 51
307.0473378014
  0
ARC
  5
688
100
AcDbEntity
  8
218_STAMPATO
100
AcDbCircle
 62
250
  6
CONTINUOUS
 10
7.75
 20
1.7
 40
2.9489817301
100
AcDbArc
 50
223.5102096137
 51
136.4897903865
  0
ARC
  5
689
100
AcDbEntity
  8
218_STAMPATO
100
AcDbCircle
 62
250
  6
CONTINUOUS
 10
7.75
 20
1.7
 40
2.6501233106
100
AcDbArc
 50
223.510209624
 51
136.4897903757
  0
CIRCLE
  5
68A
100
AcDbEntity
  8
218_STAMPATO
100
AcDbCircle
 62
250
  6
CONTINUOUS
 10
7.75
 20
1.7
 40
2.3951635398
  0
CIRCLE
  5
68B
100
AcDbEntity
  8
218_STAMPATO
100
AcDbCircle
 62
250
  6
CONTINUOUS
 10
7.75
 20
1.7
 40
2.097399697
  0
CIRCLE
  5
68C
100
AcDbEntity
  8
218_STAMPATO
100
AcDbCircle
 62
7
  6
CONTINUOUS
 10
7.75
 20
1.7
 40
1.7
  0
ARC
  5
68D
100
AcDbEntity
  8
218_STAMPATO
100
AcDbCircle
 62
250
  6
CONTINUOUS
 10
5.2500000646
 20
4.2576863476
 40
0.5005260251
100
AcDbArc
 50
225.8864448335
 51
314.1135445636
  0
ARC
  5
68E
100
AcDbEntity
  8
320
100
AcDbCircle
 62
7
  6
CONTINUOUS
 10
8.6763968355
 20
1.1047558
 40
0.2792517166
100
AcDbArc
 50
135.5477974192
 51
137.96748683
  0
ARC
  5
68F
100
AcDbEntity
  8
320
100
AcDbCircle
 62
7
  6
CONTINUOUS
 10
8.6757760471
 20
1.1053189356
 40
0.278413568
100
AcDbArc
 50
137.9680274892
 51
139.3585937974
  0
ARC
  5
690
100
AcDbEntity
  8
320
100
AcDbCircle
 62
7
  6
CONTINUOUS
 10
8.6751587367
 20
1.1058479802
 40
0.2776005736
100
AcDbArc
 50
139.3584640045
 51
141.0262993537
  0
ARC
  5
691
100
AcDbEntity
  8
268
100
AcDbCircle
 62
7
  6
CONTINUOUS
 10
6.2
 20
9.5
 40
2.2
100
AcDbArc
 50
126.6530786358
 51
140.4192907667
  0
ARC
  5
692
100
AcDbEntity
  8
268
100
AcDbCircle
 62
7
  6
CONTINUOUS
 10
6.2
 20
9.5
 40
2.2
100
AcDbArc
 50
90.0
 51
92.493173025
  0
ARC
  5
693
100
AcDbEntity
  8
218_STAMPATO
100
AcDbCircle
 62
250
  6
CONTINUOUS
 10
9.9268796157
 20
8.1264104627
 40
1.5002408702
100
AcDbArc
 50
89.0174555741
 51
89.9999933349
  0
ARC
  5
694
100
AcDbEntity
  8
218_STAMPATO
100
AcDbCircle
 62
250
  6
CONTINUOUS
 10
9.927031958
 20
8.1264214271
 40
1.0003060698
100
AcDbArc
 50
89.0261740359
 51
90.0087159046
  0
ARC
  5
695
100
AcDbEntity
  8
218_STAMPATO
100
AcDbCircle
 62
250
  6
CONTINUOUS
 10
9.7829256454
 20
7.9829256454
 40
1.0002157485
100
AcDbArc
 50
0.0209464775
 51
89.9790535225
  0
ARC
  5
696
100
AcDbEntity
  8
284
100
AcDbCircle
 62
7
  6
CONTINUOUS
 10
0.0506653133
 20
12.9814386698
 40
4.9493412452
100
AcDbArc
 50
336.2779478972
 51
359.9954846086
  0
ARC
  5
697
100
AcDbEntity
  8
284
100
AcDbCircle
 62
7
  6
CONTINUOUS
 10
0.0558609634
 20
13.2527674411
 40
4.9441377463
100
AcDbArc
 50
356.8545175978
 51
358.4960517782
  0
CIRCLE
  5
698
100
AcDbEntity
  8
218_STAMPATO
100
AcDbCircle
 62
7
  6
CONTINUOUS
 10
4.6
 20
14.0
 40
3.1
  0
ARC
  5
699
100
AcDbEntity
  8
268
100
AcDbCircle
 62
7
  6
CONTINUOUS
 10
4.6
 20
14.0
 40
2.75
100
AcDbArc
 50
275.9835833773
 51
303.1626682835
  0
ARC
  5
69A
100
AcDbEntity
  8
218_STAMPATO
100
AcDbCircle
 62
250
  6
CONTINUOUS
 10
8.9524531668
 20
17.5897462977
 40
1.9999999706
100
AcDbArc
 50
0.0036142072
 51
44.9963857928
  0
ARC
  5
69B
100
AcDbEntity
  8
218_STAMPATO
100
AcDbCircle
 62
250
  6
CONTINUOUS
 10
8.9524588157
 20
17.5895919378
 40
1.0002574261
100
AcDbArc
 50
40.8809715328
 51
44.9992544124
  0
ARC
  5
69C
100
AcDbEntity
  8
218_STAMPATO
100
AcDbCircle
 62
250
  6
CONTINUOUS
 10
9.3683608878
 20
18.587816032
 40
1.0001669283
100
AcDbArc
 50
45.0075747888
 51
89.9924252112
  0
ARC
  5
69D
100
AcDbEntity
  8
218_STAMPATO
100
AcDbCircle
 62
250
  6
CONTINUOUS
 10
8.9527453555
 20
17.5898735768
 40
0.9998600827
100
AcDbArc
 50
359.9999358525
 51
16.786296216
  0
ARC
  5
69E
100
AcDbEntity
  8
218_STAMPATO
100
AcDbCircle
 62
7
  6
CONTINUOUS
 10
8.95
 20
14.0
 40
0.5
100
AcDbArc
 50
90.0
 51
270.0
  0
ARC
  5
69F
100
AcDbEntity
  8
218_STAMPATO
100
AcDbCircle
 62
7
  6
CONTINUOUS
 10
8.95
 20
14.0
 40
0.4450207329
100
AcDbArc
 50
90.0
 51
270.0
  0
ARC
  5
6A0
100
AcDbEntity
  8
218_STAMPATO
100
AcDbCircle
 62
7
  6
CONTINUOUS
 10
9.2
 20
14.0
 40
0.4450207329
100
AcDbArc
 50
90.0
 51
270.0
  0
ARC
  5
6A1
100
AcDbEntity
  8
268
100
AcDbCircle
 62
7
  6
CONTINUOUS
 10
10.7999924063
 20
22.0499939349
 40
0.350006664
100
AcDbArc
 50
359.9988111601
 51
89.9987569182
  0
ARC
  5
6A2
100
AcDbEntity
  8
268
100
AcDbCircle
 62
7
  6
CONTINUOUS
 10
7.7672062793
 20
21.4395270559
 40
0.3134405926
100
AcDbArc
 50
1.018001445
 51
44.9572922243
  0
ARC
  5
6A3
100
AcDbEntity
  8
268
100
AcDbCircle
 62
7
  6
CONTINUOUS
 10
7.2079119901
 20
22.0003489334
 40
0.3123543042
100
AcDbArc
 50
44.9965926137
 51
89.0539170354
  0
ARC
  5
6A4
100
AcDbEntity
  8
268
100
AcDbCircle
 62
7
  6
CONTINUOUS
 10
6.35
 20
20.0
 40
0.3
100
AcDbArc
 50
180.0
 51
270.0
  0
ARC
  5
6A5
100
AcDbEntity
  8
268
100
AcDbCircle
 62
250
  6
CONTINUOUS
 10
6.9153314496
 20
19.9999937752
 40
0.2999942886
100
AcDbArc
 50
270.0012432073
 51
0.0011888741
  0
ARC
  5
6A6
100
AcDbEntity
  8
268
100
AcDbCircle
 62
7
  6
CONTINUOUS
 10
7.7753872574
 20
21.1996866455
 40
0.2996869941
100
AcDbArc
 50
271.004331998
 51
273.7842073811
  0
ARC
  5
6A7
100
AcDbEntity
  8
218_STAMPATO
100
AcDbCircle
 62
250
  6
CONTINUOUS
 10
56.1704794547
 20
7.6795174842
 40
50.7132349663
100
AcDbArc
 50
184.2759494196
 51
184.4663155953
  0
ARC
  5
6A8
100
AcDbEntity
  8
218_STAMPATO
100
AcDbCircle
 62
250
  6
CONTINUOUS
 10
45.6704628401
 20
7.6795162152
 40
50.7132183033
100
AcDbArc
 50
184.2759493894
 51
184.4663156278
  0
SPLINE
  5
6A9
100
AcDbEntity
  8
712
100
AcDbSpline
 62
7
  6
CONTINUOUS
 70
0
 71
3
 72
8
 73
4
 74
0
 42
0.0000001
 43
0.0000001
 44
0.0000000001
 40
0.0
 40
0.0
 40
0.0
 40
0.0
 40
1.0
 40
1.0
 40
1.0
 40
1.0
 10
2.8745667012
 20
0.0044069052
 30
0.0
 10
2.5073275101
 20
0.0916630321
 30
0.0
 10
2.1432757909
 20
0.1927461987
 30
0.0
 10
1.7820834523
 20
0.3023744326
 30
0.0
  0
SPLINE
  5
6AA
100
AcDbEntity
  8
712
100
AcDbSpline
 62
7
  6
CONTINUOUS
 70
0
 71
3
 72
8
 73
4
 74
0
 42
0.0000001
 43
0.0000001
 44
0.0000000001
 40
0.0
 40
0.0
 40
0.0
 40
0.0
 40
1.0
 40
1.0
 40
1.0
 40
1.0
 10
8.7179128675
 20
0.3023733194
 30
0.0
 10
8.356722203
 20
0.1927456673
 30
0.0
 10
7.9926721885
 20
0.0916629999
 30
0.0
 10
7.6254347293
 20
0.0044072449
 30
0.0
  0
SPLINE
  5
6AB
100
AcDbEntity
  8
712
100
AcDbSpline
 62
7
  6
CONTINUOUS
 70
0
 71
3
 72
8
 73
4
 74
0
 42
0.0000001
 43
0.0000001
 44
0.0000000001
 40
0.0
 40
0.0
 40
0.0
 40
0.0
 40
1.0
 40
1.0
 40
1.0
 40
1.0
 10
-7.6254332988
 20
0.0044069052
 30
0.0
 10
-7.9926724899
 20
0.0916630321
 30
0.0
 10
-8.3567242091
 20
0.1927461987
 30
0.0
 10
-8.7179165477
 20
0.3023744326
 30
0.0
  0
SPLINE
  5
6AC
100
AcDbEntity
  8
712
100
AcDbSpline
 62
7
  6
CONTINUOUS
 70
0
 71
3
 72
8
 73
4
 74
0
 42
0.0000001
 43
0.0000001
 44
0.0000000001
 40
0.0
 40
0.0
 40
0.0
 40
0.0
 40
1.0
 40
1.0
 40
1.0
 40
1.0
 10
-1.7820871325
 20
0.3023733194
 30
0.0
 10
-2.143277797
 20
0.1927456673
 30
0.0
 10
-2.5073278115
 20
0.0916629999
 30
0.0
 10
-2.8745652707
 20
0.0044072449
 30
0.0
  0
SPLINE
  5
6AD
100
AcDbEntity
  8
715
100
AcDbSpline
 62
7
  6
CONTINUOUS
 70
0
 71
3
 72
12
 73
8
 74
0
 42
0.0000001
 43
0.0000001
 44
0.0000000001
 40
0.0
 40
0.0
 40
0.0
 40
0.0
 40
0.1250131492
 40
0.250026674
 40
0.4999917305
 40
0.7499864974
 40
1.0
 40
1.0
 40
1.0
 40
1.0
 10
5.2500000002
 20
-12.55
 30
0.0
 10
5.4073188372
 20
-12.55
 30
0.0
 10
5.7220273747
 20
-12.5587435343
 30
0.0
 10
6.3493744505
 20
-12.6101653358
 30
0.0
 10
7.1273388085
 20
-12.7333730089
 30
0.0
 10
8.0460651617
 20
-12.9518602479
 30
0.0
 10
8.649859222
 20
-13.1297426551
 30
0.0
 10
8.95
 20
-13.2240943721
 30
0.0
  0
SPLINE
  5
6AE
100
AcDbEntity
  8
715
100
AcDbSpline
 62
7
  6
CONTINUOUS
 70
0
 71
3
 72
12
 73
8
 74
0
 42
0.0000001
 43
0.0000001
 44
0.0000000001
 40
0.0
 40
0.0
 40
0.0
 40
0.0
 40
0.2500135019
 40
0.500008276
 40
0.7499733433
 40
0.8749868592
 40
1.0
 40
1.0
 40
1.0
 40
1.0
 10
1.55
 20
-13.2240943721
 30
0.0
 10
1.8501407774
 20
-13.1297426553
 30
0.0
 10
2.4539348435
 20
-12.9518602373
 30
0.0
 10
3.3726612213
 20
-12.7333730074
 30
0.0
 10
4.1506255895
 20
-12.6101653239
 30
0.0
 10
4.777972658
 20
-12.5587435298
 30
0.0
 10
5.0926811738
 20
-12.55
 30
0.0
 10
5.2500000002
 20
-12.55
 30
0.0
  0
SPLINE
  5
6AF
100
AcDbEntity
  8
715
100
AcDbSpline
 62
7
  6
CONTINUOUS
 70
0
 71
3
 72
9
 73
5
 74
0
 42
0.0000001
 43
0.0000001
 44
0.0000000001
 40
0.0
 40
0.0
 40
0.0
 40
0.0
 40
0.5266724294
 40
1.0
 40
1.0
 40
1.0
 40
1.0
 10
8.95
 20
-13.2240943721
 30
0.0
 10
8.9705535692
 20
-13.2305555553
 30
0.0
 10
9.0101372712
 20
-13.2410941206
 30
0.0
 10
9.0506571271
 20
-13.2476071613
 30
0.0
 10
9.0699616321
 20
-13.2491107145
 30
0.0
  0
SPLINE
  5
6B0
100
AcDbEntity
  8
715
100
AcDbSpline
 62
7
  6
CONTINUOUS
 70
0
 71
3
 72
9
 73
5
 74
0
 42
0.0000001
 43
0.0000001
 44
0.0000000001
 40
0.0
 40
0.0
 40
0.0
 40
0.0
 40
0.4733275364
 40
1.0
 40
1.0
 40
1.0
 40
1.0
 10
1.4300382587
 20
-13.2491107215
 30
0.0
 10
1.44934278
 20
-13.2476071737
 30
0.0
 10
1.4898626737
 20
-13.2410941358
 30
0.0
 10
1.5294464112
 20
-13.2305555614
 30
0.0
 10
1.55
 20
-13.2240943721
 30
0.0
  0
SPLINE
  5
6B1
100
AcDbEntity
  8
715
100
AcDbSpline
 62
7
  6
CONTINUOUS
 70
0
 71
3
 72
9
 73
5
 74
0
 42
0.0000001
 43
0.0000001
 44
0.0000000001
 40
0.0
 40
0.0
 40
0.0
 40
0.0
 40
0.4999410635
 40
1.0
 40
1.0
 40
1.0
 40
1.0
 10
7.218869553
 20
-10.8951940409
 30
0.0
 10
7.1338646201
 20
-10.8776967616
 30
0.0
 10
6.9611662276
 20
-10.8554281374
 30
0.0
 10
6.7875108265
 20
-10.85
 30
0.0
 10
6.7007033066
 20
-10.85
 30
0.0
  0
SPLINE
  5
6B2
100
AcDbEntity
  8
715
100
AcDbSpline
 62
7
  6
CONTINUOUS
 70
0
 71
3
 72
18
 73
14
 74
0
 42
0.0000001
 43
0.0000001
 44
0.0000000001
 40
0.0
 40
0.0
 40
0.0
 40
0.0
 40
0.026977168
 40
0.0541571621
 40
0.118847567
 40
0.2084718873
 40
0.3265268326
 40
0.3956927693
 40
0.4708048622
 40
0.5510954298
 40
0.6357469576
 40
0.8146253276
 40
1.0
 40
1.0
 40
1.0
 40
1.0
 10
9.15
 20
-11.3551654739
 30
0.0
 10
9.15
 20
-11.3570916057
 30
0.0
 10
9.1494072044
 20
-11.3609979221
 30
0.0
 10
9.1452140138
 20
-11.3685731711
 30
0.0
 10
9.133756216
 20
-11.3758420126
 30
0.0
 10
9.1147296564
 20
-11.380260464
 30
0.0
 10
9.0949039829
 20
-11.3813428921
 30
0.0
 10
9.076182601
 20
-11.3807371684
 30
0.0
 10
9.0601962347
 20
-11.3794051043
 30
0.0
 10
9.0431902623
 20
-11.3772354794
 30
0.0
 10
9.0189725743
 20
-11.3731883219
 30
0.0
 10
8.987657541
 20
-11.3662492928
 30
0.0
 10
8.9626263129
 20
-11.359134659
 30
0.0
 10
8.95
 20
-11.3551654739
 30
0.0
  0
SPLINE
  5
6B3
100
AcDbEntity
  8
715
100
AcDbSpline
 62
7
  6
CONTINUOUS
 70
0
 71
3
 72
9
 73
5
 74
0
 42
0.0000001
 43
0.0000001
 44
0.0000000001
 40
0.0
 40
0.0
 40
0.0
 40
0.0
 40
0.4999844038
 40
1.0
 40
1.0
 40
1.0
 40
1.0
 10
7.218869553
 20
-10.8951940409
 30
0.0
 10
7.5113557489
 20
-10.9553989312
 30
0.0
 10
8.0922034031
 20
-11.0962548928
 30
0.0
 10
8.6651082899
 20
-11.2656074265
 30
0.0
 10
8.95
 20
-11.3551654739
 30
0.0
  0
SPLINE
  5
6B4
100
AcDbEntity
  8
715
100
AcDbSpline
 62
7
  6
CONTINUOUS
 70
0
 71
3
 72
18
 73
14
 74
0
 42
0.0000001
 43
0.0000001
 44
0.0000000001
 40
0.0
 40
0.0
 40
0.0
 40
0.0
 40
0.0269771686
 40
0.054157165
 40
0.1188475991
 40
0.2084719069
 40
0.3265268204
 40
0.3956927868
 40
0.4708049164
 40
0.5510954978
 40
0.6357470109
 40
0.8146253365
 40
1.0
 40
1.0
 40
1.0
 40
1.0
 10
1.35
 20
-11.3551654739
 30
0.0
 10
1.35
 20
-11.3570916057
 30
0.0
 10
1.3505927953
 20
-11.3609979223
 30
0.0
 10
1.354785987
 20
-11.3685731737
 30
0.0
 10
1.3662437897
 20
-11.3758420107
 30
0.0
 10
1.3852703455
 20
-11.3802604679
 30
0.0
 10
1.4050960191
 20
-11.3813428924
 30
0.0
 10
1.4238174033
 20
-11.3807371664
 30
0.0
 10
1.4398037752
 20
-11.379405102
 30
0.0
 10
1.4568097504
 20
-11.3772354785
 30
0.0
 10
1.4810274351
 20
-11.3731883207
 30
0.0
 10
1.5123424632
 20
-11.3662492912
 30
0.0
 10
1.5373736878
 20
-11.3591346588
 30
0.0
 10
1.55
 20
-11.3551654739
 30
0.0
  0
SPLINE
  5
6B5
100
AcDbEntity
  8
715
100
AcDbSpline
 62
7
  6
CONTINUOUS
 70
0
 71
3
 72
9
 73
5
 74
0
 42
0.0000001
 43
0.0000001
 44
0.0000000001
 40
0.0
 40
0.0
 40
0.0
 40
0.0
 40
0.5000157728
 40
1.0
 40
1.0
 40
1.0
 40
1.0
 10
1.55
 20
-11.3551654739
 30
0.0
 10
1.834891811
 20
-11.2656073948
 30
0.0
 10
2.4077966854
 20
-11.096254814
 30
0.0
 10
2.9886443542
 20
-10.95539891
 30
0.0
 10
3.281130447
 20
-10.8951940409
 30
0.0
  0
SPLINE
  5
6B6
100
AcDbEntity
  8
715
100
AcDbSpline
 62
7
  6
CONTINUOUS
 70
0
 71
3
 72
9
 73
5
 74
0
 42
0.0000001
 43
0.0000001
 44
0.0000000001
 40
0.0
 40
0.0
 40
0.0
 40
0.0
 40
0.5000589326
 40
1.0
 40
1.0
 40
1.0
 40
1.0
 10
3.7992966934
 20
-10.85
 30
0.0
 10
3.7124891742
 20
-10.85
 30
0.0
 10
3.538833773
 20
-10.8554281366
 30
0.0
 10
3.3661353805
 20
-10.8776967615
 30
0.0
 10
3.281130447
 20
-10.8951940409
 30
0.0
  0
SPLINE
  5
6B7
100
AcDbEntity
  8
715
100
AcDbSpline
 62
7
  6
CONTINUOUS
 70
0
 71
3
 72
12
 73
8
 74
0
 42
0.0000001
 43
0.0000001
 44
0.0000000001
 40
0.0
 40
0.0
 40
0.0
 40
0.0
 40
0.1250131492
 40
0.250026674
 40
0.4999917305
 40
0.7499864974
 40
1.0
 40
1.0
 40
1.0
 40
1.0
 10
-5.2499999998
 20
-12.55
 30
0.0
 10
-5.0926811628
 20
-12.55
 30
0.0
 10
-4.7779726253
 20
-12.5587435343
 30
0.0
 10
-4.1506255495
 20
-12.6101653358
 30
0.0
 10
-3.3726611915
 20
-12.7333730089
 30
0.0
 10
-2.4539348383
 20
-12.9518602479
 30
0.0
 10
-1.850140778
 20
-13.1297426551
 30
0.0
 10
-1.55
 20
-13.2240943721
 30
0.0
  0
SPLINE
  5
6B8
100
AcDbEntity
  8
715
100
AcDbSpline
 62
7
  6
CONTINUOUS
 70
0
 71
3
 72
12
 73
8
 74
0
 42
0.0000001
 43
0.0000001
 44
0.0000000001
 40
0.0
 40
0.0
 40
0.0
 40
0.0
 40
0.2500135019
 40
0.500008276
 40
0.7499733433
 40
0.8749868592
 40
1.0
 40
1.0
 40
1.0
 40
1.0
 10
-8.95
 20
-13.2240943721
 30
0.0
 10
-8.6498592226
 20
-13.1297426553
 30
0.0
 10
-8.0460651565
 20
-12.9518602373
 30
0.0
 10
-7.1273387787
 20
-12.7333730074
 30
0.0
 10
-6.3493744105
 20
-12.6101653239
 30
0.0
 10
-5.722027342
 20
-12.5587435298
 30
0.0
 10
-5.4073188262
 20
-12.55
 30
0.0
 10
-5.2499999998
 20
-12.55
 30
0.0
  0
SPLINE
  5
6B9
100
AcDbEntity
  8
715
100
AcDbSpline
 62
7
  6
CONTINUOUS
 70
0
 71
3
 72
9
 73
5
 74
0
 42
0.0000001
 43
0.0000001
 44
0.0000000001
 40
0.0
 40
0.0
 40
0.0
 40
0.0
 40
0.5266724294
 40
1.0
 40
1.0
 40
1.0
 40
1.0
 10
-1.55
 20
-13.2240943721
 30
0.0
 10
-1.5294464308
 20
-13.2305555553
 30
0.0
 10
-1.4898627288
 20
-13.2410941206
 30
0.0
 10
-1.4493428729
 20
-13.2476071613
 30
0.0
 10
-1.4300383679
 20
-13.2491107145
 30
0.0
  0
SPLINE
  5
6BA
100
AcDbEntity
  8
715
100
AcDbSpline
 62
7
  6
CONTINUOUS
 70
0
 71
3
 72
9
 73
5
 74
0
 42
0.0000001
 43
0.0000001
 44
0.0000000001
 40
0.0
 40
0.0
 40
0.0
 40
0.0
 40
0.4733275364
 40
1.0
 40
1.0
 40
1.0
 40
1.0
 10
-9.0699617413
 20
-13.2491107215
 30
0.0
 10
-9.05065722
 20
-13.2476071737
 30
0.0
 10
-9.0101373263
 20
-13.2410941358
 30
0.0
 10
-8.9705535888
 20
-13.2305555614
 30
0.0
 10
-8.95
 20
-13.2240943721
 30
0.0
  0
SPLINE
  5
6BB
100
AcDbEntity
  8
715
100
AcDbSpline
 62
7
  6
CONTINUOUS
 70
0
 71
3
 72
9
 73
5
 74
0
 42
0.0000001
 43
0.0000001
 44
0.0000000001
 40
0.0
 40
0.0
 40
0.0
 40
0.0
 40
0.4999410635
 40
1.0
 40
1.0
 40
1.0
 40
1.0
 10
-3.281130447
 20
-10.8951940409
 30
0.0
 10
-3.3661353799
 20
-10.8776967616
 30
0.0
 10
-3.5388337724
 20
-10.8554281374
 30
0.0
 10
-3.7124891735
 20
-10.85
 30
0.0
 10
-3.7992966934
 20
-10.85
 30
0.0
  0
SPLINE
  5
6BC
100
AcDbEntity
  8
715
100
AcDbSpline
 62
7
  6
CONTINUOUS
 70
0
 71
3
 72
18
 73
14
 74
0
 42
0.0000001
 43
0.0000001
 44
0.0000000001
 40
0.0
 40
0.0
 40
0.0
 40
0.0
 40
0.026977168
 40
0.0541571621
 40
0.118847567
 40
0.2084718873
 40
0.3265268326
 40
0.3956927693
 40
0.4708048622
 40
0.5510954298
 40
0.6357469576
 40
0.8146253276
 40
1.0
 40
1.0
 40
1.0
 40
1.0
 10
-1.35
 20
-11.3551654739
 30
0.0
 10
-1.35
 20
-11.3570916057
 30
0.0
 10
-1.3505927956
 20
-11.3609979221
 30
0.0
 10
-1.3547859862
 20
-11.3685731711
 30
0.0
 10
-1.366243784
 20
-11.3758420126
 30
0.0
 10
-1.3852703436
 20
-11.380260464
 30
0.0
 10
-1.4050960171
 20
-11.3813428921
 30
0.0
 10
-1.423817399
 20
-11.3807371684
 30
0.0
 10
-1.4398037653
 20
-11.3794051043
 30
0.0
 10
-1.4568097377
 20
-11.3772354794
 30
0.0
 10
-1.4810274257
 20
-11.3731883219
 30
0.0
 10
-1.512342459
 20
-11.3662492928
 30
0.0
 10
-1.5373736871
 20
-11.359134659
 30
0.0
 10
-1.55
 20
-11.3551654739
 30
0.0
  0
SPLINE
  5
6BD
100
AcDbEntity
  8
715
100
AcDbSpline
 62
7
  6
CONTINUOUS
 70
0
 71
3
 72
9
 73
5
 74
0
 42
0.0000001
 43
0.0000001
 44
0.0000000001
 40
0.0
 40
0.0
 40
0.0
 40
0.0
 40
0.4999844038
 40
1.0
 40
1.0
 40
1.0
 40
1.0
 10
-3.281130447
 20
-10.8951940409
 30
0.0
 10
-2.9886442511
 20
-10.9553989312
 30
0.0
 10
-2.4077965969
 20
-11.0962548928
 30
0.0
 10
-1.8348917101
 20
-11.2656074265
 30
0.0
 10
-1.55
 20
-11.3551654739
 30
0.0
  0
SPLINE
  5
6BE
100
AcDbEntity
  8
715
100
AcDbSpline
 62
7
  6
CONTINUOUS
 70
0
 71
3
 72
18
 73
14
 74
0
 42
0.0000001
 43
0.0000001
 44
0.0000000001
 40
0.0
 40
0.0
 40
0.0
 40
0.0
 40
0.0269771686
 40
0.054157165
 40
0.1188475991
 40
0.2084719069
 40
0.3265268204
 40
0.3956927868
 40
0.4708049164
 40
0.5510954978
 40
0.6357470109
 40
0.8146253365
 40
1.0
 40
1.0
 40
1.0
 40
1.0
 10
-9.15
 20
-11.3551654739
 30
0.0
 10
-9.15
 20
-11.3570916057
 30
0.0
 10
-9.1494072047
 20
-11.3609979223
 30
0.0
 10
-9.145214013
 20
-11.3685731737
 30
0.0
 10
-9.1337562103
 20
-11.3758420107
 30
0.0
 10
-9.1147296545
 20
-11.3802604679
 30
0.0
 10
-9.0949039809
 20
-11.3813428924
 30
0.0
 10
-9.0761825967
 20
-11.3807371664
 30
0.0
 10
-9.0601962248
 20
-11.379405102
 30
0.0
 10
-9.0431902496
 20
-11.3772354785
 30
0.0
 10
-9.0189725649
 20
-11.3731883207
 30
0.0
 10
-8.9876575368
 20
-11.3662492912
 30
0.0
 10
-8.9626263122
 20
-11.3591346588
 30
0.0
 10
-8.95
 20
-11.3551654739
 30
0.0
  0
SPLINE
  5
6BF
100
AcDbEntity
  8
715
100
AcDbSpline
 62
7
  6
CONTINUOUS
 70
0
 71
3
 72
9
 73
5
 74
0
 42
0.0000001
 43
0.0000001
 44
0.0000000001
 40
0.0
 40
0.0
 40
0.0
 40
0.0
 40
0.5000157728
 40
1.0
 40
1.0
 40
1.0
 40
1.0
 10
-8.95
 20
-11.3551654739
 30
0.0
 10
-8.665108189
 20
-11.2656073948
 30
0.0
 10
-8.0922033146
 20
-11.096254814
 30
0.0
 10
-7.5113556458
 20
-10.95539891
 30
0.0
 10
-7.218869553
 20
-10.8951940409
 30
0.0
  0
SPLINE
  5
6C0
100
AcDbEntity
  8
715
100
AcDbSpline
 62
7
  6
CONTINUOUS
 70
0
 71
3
 72
9
 73
5
 74
0
 42
0.0000001
 43
0.0000001
 44
0.0000000001
 40
0.0
 40
0.0
 40
0.0
 40
0.0
 40
0.5000589326
 40
1.0
 40
1.0
 40
1.0
 40
1.0
 10
-6.7007033066
 20
-10.85
 30
0.0
 10
-6.7875108258
 20
-10.85
 30
0.0
 10
-6.961166227
 20
-10.8554281366
 30
0.0
 10
-7.1338646195
 20
-10.8776967615
 30
0.0
 10
-7.218869553
 20
-10.8951940409
 30
0.0
  0
SPLINE
  5
6C1
100
AcDbEntity
  8
715
100
AcDbSpline
 62
7
  6
CONTINUOUS
 70
0
 71
3
 72
9
 73
5
 74
0
 42
0.0000001
 43
0.0000001
 44
0.0000000001
 40
0.0
 40
0.0
 40
0.0
 40
0.0
 40
0.2700169334
 40
1.0
 40
1.0
 40
1.0
 40
1.0
 10
8.1248800115
 20
-13.6747207483
 30
0.0
 10
8.1222789534
 20
-13.6746802977
 30
0.0
 10
8.112650156
 20
-13.6747643454
 30
0.0
 10
8.1029833511
 20
-13.6758803617
 30
0.0
 10
8.0961651585
 20
-13.6776042039
 30
0.0
  0
SPLINE
  5
6C2
100
AcDbEntity
  8
715
100
AcDbSpline
 62
7
  6
CONTINUOUS
 70
0
 71
3
 72
10
 73
6
 74
0
 42
0.0000001
 43
0.0000001
 44
0.0000000001
 40
0.0
 40
0.0
 40
0.0
 40
0.0
 40
0.5097393124
 40
0.7344769023
 40
1.0
 40
1.0
 40
1.0
 40
1.0
 10
2.3751199885
 20
-13.6747207483
 30
0.0
 10
2.3665898468
 20
-13.6748534057
 30
0.0
 10
2.3525315111
 20
-13.677426566
 30
0.0
 10
2.343807406
 20
-13.6926606116
 30
0.0
 10
2.3430342101
 20
-13.700973647
 30
0.0
 10
2.343036291
 20
-13.7054175328
 30
0.0
  0
SPLINE
  5
6C3
100
AcDbEntity
  8
715
100
AcDbSpline
 62
7
  6
CONTINUOUS
 70
0
 71
3
 72
9
 73
5
 74
0
 42
0.0000001
 43
0.0000001
 44
0.0000000001
 40
0.0
 40
0.0
 40
0.0
 40
0.0
 40
0.2313303876
 40
1.0
 40
1.0
 40
1.0
 40
1.0
 10
2.4038348415
 20
-13.6776042039
 30
0.0
 10
2.4016736782
 20
-13.6770577975
 30
0.0
 10
2.3922286256
 20
-13.6750991643
 30
0.0
 10
2.3825262182
 20
-13.6746055696
 30
0.0
 10
2.3751199885
 20
-13.6747207483
 30
0.0
  0
SPLINE
  5
6C4
100
AcDbEntity
  8
715
100
AcDbSpline
 62
7
  6
CONTINUOUS
 70
0
 71
3
 72
10
 73
6
 74
0
 42
0.0000001
 43
0.0000001
 44
0.0000000001
 40
0.0
 40
0.0
 40
0.0
 40
0.0
 40
0.2655223802
 40
0.4902603766
 40
1.0
 40
1.0
 40
1.0
 40
1.0
 10
8.1569636525
 20
-13.7054169896
 30
0.0
 10
8.156965667
 20
-13.7009731646
 30
0.0
 10
8.1561923495
 20
-13.6926602518
 30
0.0
 10
8.147468283
 20
-13.6774264069
 30
0.0
 10
8.1334100647
 20
-13.6748534043
 30
0.0
 10
8.1248800115
 20
-13.6747207483
 30
0.0
  0
SPLINE
  5
6C5
100
AcDbEntity
  8
715
100
AcDbSpline
 62
250
  6
CONTINUOUS
 70
0
 71
3
 72
14
 73
10
 74
0
 42
0.0000001
 43
0.0000001
 44
0.0000000001
 40
0.0
 40
0.0
 40
0.0
 40
0.0
 40
0.0375866871
 40
0.1129034491
 40
0.2198177243
 40
0.3521290666
 40
0.503223817
 40
0.666180906
 40
1.0
 40
1.0
 40
1.0
 40
1.0
 10
1.9469704914
 20
-13.55
 30
0.0
 10
1.9482083599
 20
-13.55
 30
0.0
 10
1.9518766908
 20
-13.5507985488
 30
0.0
 10
1.9589529918
 20
-13.5522031386
 30
0.0
 10
1.9690249734
 20
-13.554686912
 30
0.0
 10
1.9814542729
 20
-13.5579485373
 30
0.0
 10
1.9955904827
 20
-13.561992787
 30
0.0
 10
2.0159864473
 20
-13.5682602562
 30
0.0
 10
2.031439273
 20
-13.5736632018
 30
0.0
 10
2.0417264652
 20
-13.5775412725
 30
0.0
  0
SPLINE
  5
6C6
100
AcDbEntity
  8
715
100
AcDbSpline
 62
7
  6
CONTINUOUS
 70
0
 71
3
 72
9
 73
5
 74
0
 42
0.0000001
 43
0.0000001
 44
0.0000000001
 40
0.0
 40
0.0
 40
0.0
 40
0.0
 40
0.4884707205
 40
1.0
 40
1.0
 40
1.0
 40
1.0
 10
8.4581862177
 20
-13.5775445482
 30
0.0
 10
8.5016773044
 20
-13.5701197056
 30
0.0
 10
8.5913487353
 20
-13.5585494187
 30
0.0
 10
8.6815538482
 20
-13.5528588023
 30
0.0
 10
8.727730949
 20
-13.5513105217
 30
0.0
  0
SPLINE
  5
6C7
100
AcDbEntity
  8
715
100
AcDbSpline
 62
7
  6
CONTINUOUS
 70
0
 71
3
 72
9
 73
5
 74
0
 42
0.0000001
 43
0.0000001
 44
0.0000000001
 40
0.0
 40
0.0
 40
0.0
 40
0.0
 40
0.5115296687
 40
1.0
 40
1.0
 40
1.0
 40
1.0
 10
1.7722686213
 20
-13.5513105066
 30
0.0
 10
1.818446398
 20
-13.5528587963
 30
0.0
 10
1.9086528133
 20
-13.5585492097
 30
0.0
 10
1.9983253278
 20
-13.5701206424
 30
0.0
 10
2.0418170637
 20
-13.5775451075
 30
0.0
  0
SPLINE
  5
6C8
100
AcDbEntity
  8
715
100
AcDbSpline
 62
7
  6
CONTINUOUS
 70
0
 71
3
 72
9
 73
5
 74
0
 42
0.0000001
 43
0.0000001
 44
0.0000000001
 40
0.0
 40
0.0
 40
0.0
 40
0.0
 40
0.5723532223
 40
1.0
 40
1.0
 40
1.0
 40
1.0
 10
2.1228790155
 20
-13.5922076423
 30
0.0
 10
2.1723360373
 20
-13.6017370382
 30
0.0
 10
2.2583873241
 20
-13.6204345103
 30
0.0
 10
2.3428831151
 20
-13.6454655608
 30
0.0
 10
2.3783373253
 20
-13.6580835989
 30
0.0
  0
SPLINE
  5
6C9
100
AcDbEntity
  8
715
100
AcDbSpline
 62
7
  6
CONTINUOUS
 70
0
 71
3
 72
9
 73
5
 74
0
 42
0.0000001
 43
0.0000001
 44
0.0000000001
 40
0.0
 40
0.0
 40
0.0
 40
0.0
 40
0.2764913294
 40
1.0
 40
1.0
 40
1.0
 40
1.0
 10
2.3809937024
 20
-13.6590332593
 30
0.0
 10
2.3840154282
 20
-13.6601184242
 30
0.0
 10
2.3949247017
 20
-13.6640971804
 30
0.0
 10
2.4057579063
 20
-13.6682862983
 30
0.0
 10
2.4135365735
 20
-13.671460875
 30
0.0
  0
SPLINE
  5
6CA
100
AcDbEntity
  8
715
100
AcDbSpline
 62
7
  6
CONTINUOUS
 70
0
 71
3
 72
9
 73
5
 74
0
 42
0.0000001
 43
0.0000001
 44
0.0000000001
 40
0.0
 40
0.0
 40
0.0
 40
0.0
 40
0.3257950888
 40
1.0
 40
1.0
 40
1.0
 40
1.0
 10
2.4135365735
 20
-13.671460875
 30
0.0
 10
2.4169338017
 20
-13.6728473286
 30
0.0
 10
2.4273168036
 20
-13.677204151
 30
0.0
 10
2.4376243922
 20
-13.6817830806
 30
0.0
 10
2.4443514194
 20
-13.685304987
 30
0.0
  0
SPLINE
  5
6CB
100
AcDbEntity
  8
715
100
AcDbSpline
 62
250
  6
CONTINUOUS
 70
0
 71
3
 72
14
 73
10
 74
0
 42
0.0000001
 43
0.0000001
 44
0.0000000001
 40
0.0
 40
0.0
 40
0.0
 40
0.0
 40
0.0376002493
 40
0.112942304
 40
0.2198151321
 40
0.3519609994
 40
0.5028978858
 40
0.6659232531
 40
1.0
 40
1.0
 40
1.0
 40
1.0
 10
8.5530295086
 20
-13.55
 30
0.0
 10
8.5517910278
 20
-13.55
 30
0.0
 10
8.5481240999
 20
-13.5508218548
 30
0.0
 10
8.5410487284
 20
-13.5522291569
 30
0.0
 10
8.5309769312
 20
-13.5546956405
 30
0.0
 10
8.518550824
 20
-13.5579282465
 30
0.0
 10
8.5044160335
 20
-13.5619552772
 30
0.0
 10
8.4840237412
 20
-13.5682633921
 30
0.0
 10
8.4685544256
 20
-13.5736551828
 30
0.0
 10
8.458252182
 20
-13.5775215213
 30
0.0
  0
SPLINE
  5
6CC
100
AcDbEntity
  8
715
100
AcDbSpline
 62
7
  6
CONTINUOUS
 70
0
 71
3
 72
9
 73
5
 74
0
 42
0.0000001
 43
0.0000001
 44
0.0000000001
 40
0.0
 40
0.0
 40
0.0
 40
0.0
 40
0.1728592783
 40
1.0
 40
1.0
 40
1.0
 40
1.0
 10
8.0556486149
 20
-13.6853049683
 30
0.0
 10
8.0573734008
 20
-13.6844019648
 30
0.0
 10
8.0674711021
 20
-13.6794086649
 30
0.0
 10
8.0778385052
 20
-13.6749808169
 30
0.0
 10
8.0864637375
 20
-13.6714607505
 30
0.0
  0
SPLINE
  5
6CD
100
AcDbEntity
  8
715
100
AcDbSpline
 62
7
  6
CONTINUOUS
 70
0
 71
3
 72
9
 73
5
 74
0
 42
0.0000001
 43
0.0000001
 44
0.0000000001
 40
0.0
 40
0.0
 40
0.0
 40
0.0
 40
0.2216191899
 40
1.0
 40
1.0
 40
1.0
 40
1.0
 10
8.0864637375
 20
-13.6714607505
 30
0.0
 10
8.0890391168
 20
-13.6704097057
 30
0.0
 10
8.1006894421
 20
-13.6657397363
 30
0.0
 10
8.1124554979
 20
-13.6613604339
 30
0.0
 10
8.1216595969
 20
-13.6580846887
 30
0.0
  0
SPLINE
  5
6CE
100
AcDbEntity
  8
715
100
AcDbSpline
 62
7
  6
CONTINUOUS
 70
0
 71
3
 72
9
 73
5
 74
0
 42
0.0000001
 43
0.0000001
 44
0.0000000001
 40
0.0
 40
0.0
 40
0.0
 40
0.0
 40
0.4276433447
 40
1.0
 40
1.0
 40
1.0
 40
1.0
 10
8.1216595969
 20
-13.6580846887
 30
0.0
 10
8.1571158916
 20
-13.6454657686
 30
0.0
 10
8.2416174838
 20
-13.6204331263
 30
0.0
 10
8.3276747033
 20
-13.6017347053
 30
0.0
 10
8.3771354484
 20
-13.5922049145
 30
0.0
  0
SPLINE
  5
6CF
100
AcDbEntity
  8
715
100
AcDbSpline
 62
7
  6
CONTINUOUS
 70
0
 71
3
 72
15
 73
11
 74
0
 42
0.0000001
 43
0.0000001
 44
0.0000000001
 40
0.0
 40
0.0
 40
0.0
 40
0.0
 40
0.2896898113
 40
0.4315261237
 40
0.5692039729
 40
0.7002187313
 40
0.8205934073
 40
0.9237350096
 40
0.965892186
 40
1.0
 40
1.0
 40
1.0
 40
1.0
 10
7.856971445
 20
-14.2538126975
 30
0.0
 10
7.8893347673
 20
-14.2025347226
 30
0.0
 10
7.9375587226
 20
-14.1261591407
 30
0.0
 10
8.0001761654
 20
-14.0247938134
 30
0.0
 10
8.0444802028
 20
-13.9511661837
 30
0.0
 10
8.0851358005
 20
-13.8805778906
 30
0.0
 10
8.1199264684
 20
-13.8150493479
 30
0.0
 10
8.1430694799
 20
-13.7643064511
 30
0.0
 10
8.154364585
 20
-13.7284718282
 30
0.0
 10
8.1569604161
 20
-13.7125563044
 30
0.0
 10
8.1569636525
 20
-13.7054169896
 30
0.0
  0
SPLINE
  5
6D0
100
AcDbEntity
  8
715
100
AcDbSpline
 62
7
  6
CONTINUOUS
 70
0
 71
3
 72
9
 73
5
 74
0
 42
0.0000001
 43
0.0000001
 44
0.0000000001
 40
0.0
 40
0.0
 40
0.0
 40
0.0
 40
0.2700169334
 40
1.0
 40
1.0
 40
1.0
 40
1.0
 10
-2.3751199885
 20
-13.6747207483
 30
0.0
 10
-2.3777210466
 20
-13.6746802977
 30
0.0
 10
-2.387349844
 20
-13.6747643454
 30
0.0
 10
-2.3970166489
 20
-13.6758803617
 30
0.0
 10
-2.4038348415
 20
-13.6776042039
 30
0.0
  0
SPLINE
  5
6D1
100
AcDbEntity
  8
715
100
AcDbSpline
 62
7
  6
CONTINUOUS
 70
0
 71
3
 72
10
 73
6
 74
0
 42
0.0000001
 43
0.0000001
 44
0.0000000001
 40
0.0
 40
0.0
 40
0.0
 40
0.0
 40
0.5097393124
 40
0.7344769023
 40
1.0
 40
1.0
 40
1.0
 40
1.0
 10
-8.1248800115
 20
-13.6747207483
 30
0.0
 10
-8.1334101532
 20
-13.6748534057
 30
0.0
 10
-8.1474684889
 20
-13.677426566
 30
0.0
 10
-8.156192594
 20
-13.6926606116
 30
0.0
 10
-8.1569657899
 20
-13.700973647
 30
0.0
 10
-8.156963709
 20
-13.7054175328
 30
0.0
  0
SPLINE
  5
6D2
100
AcDbEntity
  8
715
100
AcDbSpline
 62
7
  6
CONTINUOUS
 70
0
 71
3
 72
9
 73
5
 74
0
 42
0.0000001
 43
0.0000001
 44
0.0000000001
 40
0.0
 40
0.0
 40
0.0
 40
0.0
 40
0.2313303876
 40
1.0
 40
1.0
 40
1.0
 40
1.0
 10
-8.0961651585
 20
-13.6776042039
 30
0.0
 10
-8.0983263218
 20
-13.6770577975
 30
0.0
 10
-8.1077713744
 20
-13.6750991643
 30
0.0
 10
-8.1174737818
 20
-13.6746055696
 30
0.0
 10
-8.1248800115
 20
-13.6747207483
 30
0.0
  0
SPLINE
  5
6D3
100
AcDbEntity
  8
715
100
AcDbSpline
 62
7
  6
CONTINUOUS
 70
0
 71
3
 72
10
 73
6
 74
0
 42
0.0000001
 43
0.0000001
 44
0.0000000001
 40
0.0
 40
0.0
 40
0.0
 40
0.0
 40
0.2655223802
 40
0.4902603766
 40
1.0
 40
1.0
 40
1.0
 40
1.0
 10
-2.3430363475
 20
-13.7054169896
 30
0.0
 10
-2.343034333
 20
-13.7009731646
 30
0.0
 10
-2.3438076505
 20
-13.6926602518
 30
0.0
 10
-2.352531717
 20
-13.6774264069
 30
0.0
 10
-2.3665899353
 20
-13.6748534043
 30
0.0
 10
-2.3751199885
 20
-13.6747207483
 30
0.0
  0
SPLINE
  5
6D4
100
AcDbEntity
  8
715
100
AcDbSpline
 62
250
  6
CONTINUOUS
 70
0
 71
3
 72
14
 73
10
 74
0
 42
0.0000001
 43
0.0000001
 44
0.0000000001
 40
0.0
 40
0.0
 40
0.0
 40
0.0
 40
0.0375866871
 40
0.1129034491
 40
0.2198177243
 40
0.3521290666
 40
0.503223817
 40
0.666180906
 40
1.0
 40
1.0
 40
1.0
 40
1.0
 10
-8.5530295086
 20
-13.55
 30
0.0
 10
-8.5517916401
 20
-13.55
 30
0.0
 10
-8.5481233092
 20
-13.5507985488
 30
0.0
 10
-8.5410470082
 20
-13.5522031386
 30
0.0
 10
-8.5309750266
 20
-13.554686912
 30
0.0
 10
-8.5185457271
 20
-13.5579485373
 30
0.0
 10
-8.5044095173
 20
-13.561992787
 30
0.0
 10
-8.4840135527
 20
-13.5682602562
 30
0.0
 10
-8.468560727
 20
-13.5736632018
 30
0.0
 10
-8.4582735348
 20
-13.5775412725
 30
0.0
  0
SPLINE
  5
6D5
100
AcDbEntity
  8
715
100
AcDbSpline
 62
7
  6
CONTINUOUS
 70
0
 71
3
 72
9
 73
5
 74
0
 42
0.0000001
 43
0.0000001
 44
0.0000000001
 40
0.0
 40
0.0
 40
0.0
 40
0.0
 40
0.4884707205
 40
1.0
 40
1.0
 40
1.0
 40
1.0
 10
-2.0418137823
 20
-13.5775445482
 30
0.0
 10
-1.9983226956
 20
-13.5701197056
 30
0.0
 10
-1.9086512647
 20
-13.5585494187
 30
0.0
 10
-1.8184461518
 20
-13.5528588023
 30
0.0
 10
-1.772269051
 20
-13.5513105217
 30
0.0
  0
SPLINE
  5
6D6
100
AcDbEntity
  8
715
100
AcDbSpline
 62
7
  6
CONTINUOUS
 70
0
 71
3
 72
9
 73
5
 74
0
 42
0.0000001
 43
0.0000001
 44
0.0000000001
 40
0.0
 40
0.0
 40
0.0
 40
0.0
 40
0.5115296687
 40
1.0
 40
1.0
 40
1.0
 40
1.0
 10
-8.7277313787
 20
-13.5513105066
 30
0.0
 10
-8.681553602
 20
-13.5528587963
 30
0.0
 10
-8.5913471867
 20
-13.5585492097
 30
0.0
 10
-8.5016746722
 20
-13.5701206424
 30
0.0
 10
-8.4581829363
 20
-13.5775451075
 30
0.0
  0
SPLINE
  5
6D7
100
AcDbEntity
  8
715
100
AcDbSpline
 62
7
  6
CONTINUOUS
 70
0
 71
3
 72
9
 73
5
 74
0
 42
0.0000001
 43
0.0000001
 44
0.0000000001
 40
0.0
 40
0.0
 40
0.0
 40
0.0
 40
0.5723532223
 40
1.0
 40
1.0
 40
1.0
 40
1.0
 10
-8.3771209845
 20
-13.5922076423
 30
0.0
 10
-8.3276639627
 20
-13.6017370382
 30
0.0
 10
-8.2416126759
 20
-13.6204345103
 30
0.0
 10
-8.1571168849
 20
-13.6454655608
 30
0.0
 10
-8.1216626747
 20
-13.6580835989
 30
0.0
  0
SPLINE
  5
6D8
100
AcDbEntity
  8
715
100
AcDbSpline
 62
7
  6
CONTINUOUS
 70
0
 71
3
 72
9
 73
5
 74
0
 42
0.0000001
 43
0.0000001
 44
0.0000000001
 40
0.0
 40
0.0
 40
0.0
 40
0.0
 40
0.2764913294
 40
1.0
 40
1.0
 40
1.0
 40
1.0
 10
-8.1190062976
 20
-13.6590332593
 30
0.0
 10
-8.1159845718
 20
-13.6601184242
 30
0.0
 10
-8.1050752983
 20
-13.6640971804
 30
0.0
 10
-8.0942420937
 20
-13.6682862983
 30
0.0
 10
-8.0864634265
 20
-13.671460875
 30
0.0
  0
SPLINE
  5
6D9
100
AcDbEntity
  8
715
100
AcDbSpline
 62
7
  6
CONTINUOUS
 70
0
 71
3
 72
9
 73
5
 74
0
 42
0.0000001
 43
0.0000001
 44
0.0000000001
 40
0.0
 40
0.0
 40
0.0
 40
0.0
 40
0.3257950888
 40
1.0
 40
1.0
 40
1.0
 40
1.0
 10
-8.0864634265
 20
-13.671460875
 30
0.0
 10
-8.0830661983
 20
-13.6728473286
 30
0.0
 10
-8.0726831964
 20
-13.677204151
 30
0.0
 10
-8.0623756078
 20
-13.6817830806
 30
0.0
 10
-8.0556485806
 20
-13.685304987
 30
0.0
  0
SPLINE
  5
6DA
100
AcDbEntity
  8
715
100
AcDbSpline
 62
250
  6
CONTINUOUS
 70
0
 71
3
 72
14
 73
10
 74
0
 42
0.0000001
 43
0.0000001
 44
0.0000000001
 40
0.0
 40
0.0
 40
0.0
 40
0.0
 40
0.0376002493
 40
0.112942304
 40
0.2198151321
 40
0.3519609994
 40
0.5028978858
 40
0.6659232531
 40
1.0
 40
1.0
 40
1.0
 40
1.0
 10
-1.9469704914
 20
-13.55
 30
0.0
 10
-1.9482089722
 20
-13.55
 30
0.0
 10
-1.9518759001
 20
-13.5508218548
 30
0.0
 10
-1.9589512716
 20
-13.5522291569
 30
0.0
 10
-1.9690230688
 20
-13.5546956405
 30
0.0
 10
-1.981449176
 20
-13.5579282465
 30
0.0
 10
-1.9955839665
 20
-13.5619552772
 30
0.0
 10
-2.0159762588
 20
-13.5682633921
 30
0.0
 10
-2.0314455744
 20
-13.5736551828
 30
0.0
 10
-2.041747818
 20
-13.5775215213
 30
0.0
  0
SPLINE
  5
6DB
100
AcDbEntity
  8
715
100
AcDbSpline
 62
7
  6
CONTINUOUS
 70
0
 71
3
 72
9
 73
5
 74
0
 42
0.0000001
 43
0.0000001
 44
0.0000000001
 40
0.0
 40
0.0
 40
0.0
 40
0.0
 40
0.1728592783
 40
1.0
 40
1.0
 40
1.0
 40
1.0
 10
-2.4443513851
 20
-13.6853049683
 30
0.0
 10
-2.4426265992
 20
-13.6844019648
 30
0.0
 10
-2.4325288979
 20
-13.6794086649
 30
0.0
 10
-2.4221614948
 20
-13.6749808169
 30
0.0
 10
-2.4135362625
 20
-13.6714607505
 30
0.0
  0
SPLINE
  5
6DC
100
AcDbEntity
  8
715
100
AcDbSpline
 62
7
  6
CONTINUOUS
 70
0
 71
3
 72
9
 73
5
 74
0
 42
0.0000001
 43
0.0000001
 44
0.0000000001
 40
0.0
 40
0.0
 40
0.0
 40
0.0
 40
0.2216191899
 40
1.0
 40
1.0
 40
1.0
 40
1.0
 10
-2.4135362625
 20
-13.6714607505
 30
0.0
 10
-2.4109608832
 20
-13.6704097057
 30
0.0
 10
-2.3993105579
 20
-13.6657397363
 30
0.0
 10
-2.3875445021
 20
-13.6613604339
 30
0.0
 10
-2.3783404031
 20
-13.6580846887
 30
0.0
  0
SPLINE
  5
6DD
100
AcDbEntity
  8
715
100
AcDbSpline
 62
7
  6
CONTINUOUS
 70
0
 71
3
 72
9
 73
5
 74
0
 42
0.0000001
 43
0.0000001
 44
0.0000000001
 40
0.0
 40
0.0
 40
0.0
 40
0.0
 40
0.4276433447
 40
1.0
 40
1.0
 40
1.0
 40
1.0
 10
-2.3783404031
 20
-13.6580846887
 30
0.0
 10
-2.3428841084
 20
-13.6454657686
 30
0.0
 10
-2.2583825162
 20
-13.6204331263
 30
0.0
 10
-2.1723252967
 20
-13.6017347053
 30
0.0
 10
-2.1228645516
 20
-13.5922049145
 30
0.0
  0
SPLINE
  5
6DE
100
AcDbEntity
  8
715
100
AcDbSpline
 62
7
  6
CONTINUOUS
 70
0
 71
3
 72
15
 73
11
 74
0
 42
0.0000001
 43
0.0000001
 44
0.0000000001
 40
0.0
 40
0.0
 40
0.0
 40
0.0
 40
0.2896898113
 40
0.4315261237
 40
0.5692039729
 40
0.7002187313
 40
0.8205934073
 40
0.9237350096
 40
0.965892186
 40
1.0
 40
1.0
 40
1.0
 40
1.0
 10
-2.643028555
 20
-14.2538126975
 30
0.0
 10
-2.6106652327
 20
-14.2025347226
 30
0.0
 10
-2.5624412774
 20
-14.1261591407
 30
0.0
 10
-2.4998238346
 20
-14.0247938134
 30
0.0
 10
-2.4555197972
 20
-13.9511661837
 30
0.0
 10
-2.4148641995
 20
-13.8805778906
 30
0.0
 10
-2.3800735316
 20
-13.8150493479
 30
0.0
 10
-2.3569305201
 20
-13.7643064511
 30
0.0
 10
-2.345635415
 20
-13.7284718282
 30
0.0
 10
-2.3430395839
 20
-13.7125563044
 30
0.0
 10
-2.3430363475
 20
-13.7054169896
 30
0.0
  0
SPLINE
  5
6DF
100
AcDbEntity
  8
0
100
AcDbSpline
 62
7
  6
CONTINUOUS
 70
0
 71
3
 72
15
 73
11
 74
0
 42
0.0000001
 43
0.0000001
 44
0.0000000001
 40
0.0
 40
0.0
 40
0.0
 40
0.0
 40
0.1250811196
 40
0.2499791622
 40
0.37477225
 40
0.4995386024
 40
0.6243794752
 40
0.749362089
 40
0.8745631568
 40
1.0
 40
1.0
 40
1.0
 40
1.0
 10
3.0928324257
 20
11.291161096
 30
0.0
 10
3.2165451671
 20
11.4756128674
 30
0.0
 10
3.4309157931
 20
11.8676113345
 30
0.0
 10
3.6395113035
 20
12.5032508289
 30
0.0
 10
3.7295917138
 20
13.1658069768
 30
0.0
 10
3.6971947925
 20
13.8335359504
 30
0.0
 10
3.5441431449
 20
14.4846157473
 30
0.0
 10
3.2748706265
 20
15.0977532999
 30
0.0
 10
2.8986460983
 20
15.6527066289
 30
0.0
 10
2.5845160205
 20
15.9720255583
 30
0.0
 10
2.4145797636
 20
16.1160044941
 30
0.0
  0
SPLINE
  5
6E0
100
AcDbEntity
  8
0
100
AcDbSpline
 62
7
  6
CONTINUOUS
 70
0
 71
3
 72
15
 73
11
 74
0
 42
0.0000001
 43
0.0000001
 44
0.0000000001
 40
0.0
 40
0.0
 40
0.0
 40
0.0
 40
0.1251539932
 40
0.2502099459
 40
0.3751988842
 40
0.5001391491
 40
0.6250587807
 40
0.7499909005
 40
0.8749639718
 40
1.0
 40
1.0
 40
1.0
 40
1.0
 10
3.572989556
 20
16.1161760646
 30
0.0
 10
3.7198440836
 20
15.9392349505
 30
0.0
 10
3.987526765
 20
15.5630212844
 30
0.0
 10
4.3000906143
 20
14.9458404488
 30
0.0
 10
4.5169347367
 20
14.2891585876
 30
0.0
 10
4.6336766929
 20
13.6078152092
 30
0.0
 10
4.6472960714
 20
12.9167657295
 30
0.0
 10
4.5576596149
 20
12.2313371124
 30
0.0
 10
4.3669537502
 20
11.5668379811
 30
0.0
 10
4.1749716033
 20
11.1473029207
 30
0.0
 10
4.0639981448
 20
10.9461570182
 30
0.0
  0
SPLINE
  5
6E1
100
AcDbEntity
  8
0
100
AcDbSpline
 62
250
  6
CONTINUOUS
 70
0
 71
3
 72
15
 73
11
 74
0
 42
0.0000001
 43
0.0000001
 44
0.0000000001
 40
0.0
 40
0.0
 40
0.0
 40
0.0
 40
0.1252991436
 40
0.2503997122
 40
0.3753459797
 40
0.5001954565
 40
0.6250172819
 40
0.7498826864
 40
0.8748586751
 40
1.0
 40
1.0
 40
1.0
 40
1.0
 10
3.2189868162
 20
16.1152094327
 30
0.0
 10
3.3665566297
 20
15.9443385293
 30
0.0
 10
3.6343828065
 20
15.5783530421
 30
0.0
 10
3.9418223895
 20
14.9727663816
 30
0.0
 10
4.1471887551
 20
14.3260608522
 30
0.0
 10
4.2450796502
 20
13.6551733402
 30
0.0
 10
4.232964285
 20
12.9774311755
 30
0.0
 10
4.1111201282
 20
12.3103535052
 30
0.0
 10
3.8828590725
 20
11.6713899381
 30
0.0
 10
3.663475159
 20
11.2750409341
 30
0.0
 10
3.5387287859
 20
11.0872012886
 30
0.0
  0
SPLINE
  5
6E2
100
AcDbEntity
  8
0
100
AcDbSpline
 62
250
  6
CONTINUOUS
 70
0
 71
3
 72
15
 73
11
 74
0
 42
0.0000001
 43
0.0000001
 44
0.0000000001
 40
0.0
 40
0.0
 40
0.0
 40
0.0
 40
0.1251300411
 40
0.2500820164
 40
0.3749213846
 40
0.4997188596
 40
0.6245596622
 40
0.7495141753
 40
0.8746478668
 40
1.0
 40
1.0
 40
1.0
 40
1.0
 10
3.284929863
 20
11.1928279247
 30
0.0
 10
3.4106889038
 20
11.3770180594
 30
0.0
 10
3.6310486367
 20
11.7674411478
 30
0.0
 10
3.8562590137
 20
12.3999255905
 30
0.0
 10
3.970129528
 20
13.0611775589
 30
0.0
 10
3.9690940902
 20
13.7319301953
 30
0.0
 10
3.8532440826
 20
14.3927988804
 30
0.0
 10
3.6259814982
 20
15.0247675953
 30
0.0
 10
3.2938308061
 20
15.6092843832
 30
0.0
 10
3.0088401794
 20
15.9562671478
 30
0.0
 10
2.8528830102
 20
16.1162528688
 30
0.0
  0
SPLINE
  5
6E3
100
AcDbEntity
  8
0
100
AcDbSpline
 62
250
  6
CONTINUOUS
 70
0
 71
3
 72
15
 73
11
 74
0
 42
0.0000001
 43
0.0000001
 44
0.0000000001
 40
0.0
 40
0.0
 40
0.0
 40
0.0
 40
0.1251036838
 40
0.2500261055
 40
0.3748350049
 40
0.4996130807
 40
0.6244495198
 40
0.7494204187
 40
0.874593389
 40
1.0
 40
1.0
 40
1.0
 40
1.0
 10
3.1209327282
 20
11.2756677508
 30
0.0
 10
3.2459736328
 20
11.4585643397
 30
0.0
 10
3.4637354359
 20
11.8473169299
 30
0.0
 10
3.680607702
 20
12.478312933
 30
0.0
 10
3.781410249
 20
13.1375117098
 30
0.0
 10
3.7626156869
 20
13.8039150794
 30
0.0
 10
3.6249949942
 20
14.4565058017
 30
0.0
 10
3.3727806273
 20
15.0747267492
 30
0.0
 10
3.0140952924
 20
15.6388153559
 30
0.0
 10
2.7114083498
 20
15.9671244232
 30
0.0
 10
2.5469539062
 20
16.1163863751
 30
0.0
  0
SPLINE
  5
6E4
100
AcDbEntity
  8
0
100
AcDbSpline
 62
250
  6
CONTINUOUS
 70
0
 71
3
 72
15
 73
11
 74
0
 42
0.0000001
 43
0.0000001
 44
0.0000000001
 40
0.0
 40
0.0
 40
0.0
 40
0.0
 40
0.1252761049
 40
0.2503660335
 40
0.3753128859
 40
0.5001708842
 40
0.6250052416
 40
0.7498819484
 40
0.8748627194
 40
1.0
 40
1.0
 40
1.0
 40
1.0
 10
3.4529297086
 20
16.1163505921
 30
0.0
 10
3.5964289755
 20
15.9397637775
 30
0.0
 10
3.8561820092
 20
15.5638556729
 30
0.0
 10
4.1529419346
 20
14.9472131796
 30
0.0
 10
4.3498810881
 20
14.292441603
 30
0.0
 10
4.4421744855
 20
13.6154548826
 30
0.0
 10
4.427615802
 20
12.9324847583
 30
0.0
 10
4.3065084486
 20
12.2599186185
 30
0.0
 10
4.0819121364
 20
11.614093801
 30
0.0
 10
3.8666158684
 20
11.2115766565
 30
0.0
 10
3.7441594998
 20
11.0200963819
 30
0.0
  0
SPLINE
  5
6E5
100
AcDbEntity
  8
284
100
AcDbSpline
 62
7
  6
CONTINUOUS
 70
0
 71
3
 72
11
 73
7
 74
0
 42
0.0000001
 43
0.0000001
 44
0.0000000001
 40
0.0
 40
0.0
 40
0.0
 40
0.0
 40
0.2501292212
 40
0.5001543622
 40
0.7501013895
 40
1.0
 40
1.0
 40
1.0
 40
1.0
 10
4.408053123
 20
10.9058643353
 30
0.0
 10
4.493917178
 20
11.0653702781
 30
0.0
 10
4.6482614
 20
11.3940082421
 30
0.0
 10
4.8243025504
 20
11.9090439111
 30
0.0
 10
4.9428603721
 20
12.4400951222
 30
0.0
 10
4.9826190825
 20
12.800766603
 30
0.0
 10
4.9925500053
 20
12.9814754244
 30
0.0
  0
SPLINE
  5
6E6
100
AcDbEntity
  8
284
100
AcDbSpline
 62
7
  6
CONTINUOUS
 70
0
 71
3
 72
11
 73
7
 74
0
 42
0.0000001
 43
0.0000001
 44
0.0000000001
 40
0.0
 40
0.0
 40
0.0
 40
0.0
 40
0.25024227
 40
0.500285871
 40
0.7501823157
 40
1.0
 40
1.0
 40
1.0
 40
1.0
 10
3.8817418261
 20
16.115305053
 30
0.0
 10
4.0605410259
 20
15.896283413
 30
0.0
 10
4.3812635315
 20
15.4269000611
 30
0.0
 10
4.7349227232
 20
14.6522138196
 30
0.0
 10
4.9514290191
 20
13.8290907967
 30
0.0
 10
4.9999999857
 20
13.2633056318
 30
0.0
 10
5.0
 20
12.9810493727
 30
0.0
  0
SPLINE
  5
6E7
100
AcDbEntity
  8
284
100
AcDbSpline
 62
250
  6
CONTINUOUS
 70
0
 71
3
 72
13
 73
9
 74
0
 42
0.0000001
 43
0.0000001
 44
0.0000000001
 40
0.0
 40
0.0
 40
0.0
 40
0.0
 40
0.0693075525
 40
0.1481716958
 40
0.2423356072
 40
0.3548382837
 40
0.6387281114
 40
1.0
 40
1.0
 40
1.0
 40
1.0
 10
6.8974156938
 20
16.0463324191
 30
0.0
 10
6.8974798118
 20
16.0445283746
 30
0.0
 10
6.8984302119
 20
16.0406785953
 30
0.0
 10
6.9019458265
 20
16.0353403137
 30
0.0
 10
6.9074025168
 20
16.0302194241
 30
0.0
 10
6.9180490268
 20
16.023086477
 30
0.0
 10
6.9362485302
 20
16.0151478723
 30
0.0
 10
6.9523785221
 20
16.0103754565
 30
0.0
 10
6.9614998767
 20
16.0080639604
 30
0.0
  0
LINE
  5
6E8
100
AcDbEntity
  8
284
100
AcDbLine
 62
250
  6
CONTINUOUS
 10
6.8974156938
 20
16.0463324191
 11
6.8921958252
 21
11.9131785019
  0
LINE
  5
6E9
100
AcDbEntity
  8
284
100
AcDbLine
 62
250
  6
CONTINUOUS
 10
6.8974703078
 20
16.0810388582
 11
6.8974156938
 21
16.0463324191
  0
SPLINE
  5
6EA
100
AcDbEntity
  8
268
100
AcDbSpline
 62
7
  6
CONTINUOUS
 70
0
 71
3
 72
9
 73
5
 74
0
 42
0.0000001
 43
0.0000001
 44
0.0000000001
 40
0.0
 40
0.0
 40
0.0
 40
0.0
 40
0.5071625321
 40
1.0
 40
1.0
 40
1.0
 40
1.0
 10
-7.7806401718
 20
21.3126932437
 30
0.0
 10
-7.8141299027
 20
21.3738368473
 30
0.0
 10
-7.8801632818
 20
21.4943869253
 30
0.0
 10
-7.9431578438
 20
21.6166331694
 30
0.0
 10
-7.9721285684
 20
21.6778714316
 30
0.0
  0
SPLINE
  5
6EB
100
AcDbEntity
  8
268
100
AcDbSpline
 62
7
  6
CONTINUOUS
 70
0
 71
3
 72
13
 73
9
 74
0
 42
0.0000001
 43
0.0000001
 44
0.0000000001
 40
0.0
 40
0.0
 40
0.0
 40
0.0
 40
0.1503961829
 40
0.2932715444
 40
0.426780211
 40
0.5517680595
 40
0.782436921
 40
1.0
 40
1.0
 40
1.0
 40
1.0
 10
-7.7951662606
 20
20.9006530596
 30
0.0
 10
-7.8178105163
 20
20.9021492029
 30
0.0
 10
-7.8617982533
 20
20.9101019843
 30
0.0
 10
-7.921585954
 20
20.9352310221
 30
0.0
 10
-7.9718377534
 20
20.969763794
 30
0.0
 10
-8.0239345382
 20
21.022553271
 30
0.0
 10
-8.0675825383
 20
21.0992840486
 30
0.0
 10
-8.0800216296
 20
21.1671764018
 30
0.0
 10
-8.0805944803
 20
21.2
 30
0.0
  0
SPLINE
  5
6EC
100
AcDbEntity
  8
268
100
AcDbSpline
 62
7
  6
CONTINUOUS
 70
0
 71
3
 72
9
 73
5
 74
0
 42
0.0000001
 43
0.0000001
 44
0.0000000001
 40
0.0
 40
0.0
 40
0.0
 40
0.0
 40
0.4928374652
 40
1.0
 40
1.0
 40
1.0
 40
1.0
 10
7.9721285684
 20
21.6778714316
 30
0.0
 10
7.9431578439
 20
21.6166331698
 30
0.0
 10
7.8801632819
 20
21.4943869256
 30
0.0
 10
7.8141299029
 20
21.3738368476
 30
0.0
 10
7.7806401718
 20
21.3126932437
 30
0.0
  0
SPLINE
  5
6ED
100
AcDbEntity
  8
268
100
AcDbSpline
 62
7
  6
CONTINUOUS
 70
0
 71
3
 72
13
 73
9
 74
0
 42
0.0000001
 43
0.0000001
 44
0.0000000001
 40
0.0
 40
0.0
 40
0.0
 40
0.0
 40
0.1503961829
 40
0.2932715444
 40
0.426780211
 40
0.5517680595
 40
0.782436921
 40
1.0
 40
1.0
 40
1.0
 40
1.0
 10
7.7951662606
 20
20.9006530596
 30
0.0
 10
7.8178105163
 20
20.9021492029
 30
0.0
 10
7.8617982533
 20
20.9101019843
 30
0.0
 10
7.921585954
 20
20.9352310221
 30
0.0
 10
7.9718377534
 20
20.969763794
 30
0.0
 10
8.0239345382
 20
21.022553271
 30
0.0
 10
8.0675825383
 20
21.0992840486
 30
0.0
 10
8.0800216296
 20
21.1671764018
 30
0.0
 10
8.0805944803
 20
21.2
 30
0.0
  0
SPLINE
  5
6EE
100
AcDbEntity
  8
268
100
AcDbSpline
 62
7
  6
CONTINUOUS
 70
0
 71
3
 72
13
 73
9
 74
0
 42
0.0000001
 43
0.0000001
 44
0.0000000001
 40
0.0
 40
0.0
 40
0.0
 40
0.0
 40
0.1503961829
 40
0.2932715444
 40
0.426780211
 40
0.5517680595
 40
0.782436921
 40
1.0
 40
1.0
 40
1.0
 40
1.0
 10
-7.7951662606
 20
-20.9006530596
 30
0.0
 10
-7.8178105163
 20
-20.9021492029
 30
0.0
 10
-7.8617982533
 20
-20.9101019843
 30
0.0
 10
-7.921585954
 20
-20.9352310221
 30
0.0
 10
-7.9718377534
 20
-20.969763794
 30
0.0
 10
-8.0239345382
 20
-21.022553271
 30
0.0
 10
-8.0675825383
 20
-21.0992840486
 30
0.0
 10
-8.0800216296
 20
-21.1671764018
 30
0.0
 10
-8.0805944803
 20
-21.2
 30
0.0
  0
SPLINE
  5
6EF
100
AcDbEntity
  8
268
100
AcDbSpline
 62
7
  6
CONTINUOUS
 70
0
 71
3
 72
9
 73
5
 74
0
 42
0.0000001
 43
0.0000001
 44
0.0000000001
 40
0.0
 40
0.0
 40
0.0
 40
0.0
 40
0.4928374652
 40
1.0
 40
1.0
 40
1.0
 40
1.0
 10
-7.9721285684
 20
-21.6778714316
 30
0.0
 10
-7.9431578439
 20
-21.6166331698
 30
0.0
 10
-7.8801632819
 20
-21.4943869256
 30
0.0
 10
-7.8141299029
 20
-21.3738368476
 30
0.0
 10
-7.7806401718
 20
-21.3126932437
 30
0.0
  0
SPLINE
  5
6F0
100
AcDbEntity
  8
268
100
AcDbSpline
 62
7
  6
CONTINUOUS
 70
0
 71
3
 72
9
 73
5
 74
0
 42
0.0000001
 43
0.0000001
 44
0.0000000001
 40
0.0
 40
0.0
 40
0.0
 40
0.0
 40
0.5071625321
 40
1.0
 40
1.0
 40
1.0
 40
1.0
 10
7.7806401718
 20
-21.3126932437
 30
0.0
 10
7.8141299027
 20
-21.3738368473
 30
0.0
 10
7.8801632818
 20
-21.4943869253
 30
0.0
 10
7.9431578438
 20
-21.6166331694
 30
0.0
 10
7.9721285684
 20
-21.6778714316
 30
0.0
  0
SPLINE
  5
6F1
100
AcDbEntity
  8
268
100
AcDbSpline
 62
7
  6
CONTINUOUS
 70
0
 71
3
 72
13
 73
9
 74
0
 42
0.0000001
 43
0.0000001
 44
0.0000000001
 40
0.0
 40
0.0
 40
0.0
 40
0.0
 40
0.1503961829
 40
0.2932715444
 40
0.426780211
 40
0.5517680595
 40
0.782436921
 40
1.0
 40
1.0
 40
1.0
 40
1.0
 10
7.7951662606
 20
-20.9006530596
 30
0.0
 10
7.8178105163
 20
-20.9021492029
 30
0.0
 10
7.8617982533
 20
-20.9101019843
 30
0.0
 10
7.921585954
 20
-20.9352310221
 30
0.0
 10
7.9718377534
 20
-20.969763794
 30
0.0
 10
8.0239345382
 20
-21.022553271
 30
0.0
 10
8.0675825383
 20
-21.0992840486
 30
0.0
 10
8.0800216296
 20
-21.1671764018
 30
0.0
 10
8.0805944803
 20
-21.2
 30
0.0
  0
SPLINE
  5
6F2
100
AcDbEntity
  8
218_STAMPATO
100
AcDbSpline
 62
7
  6
CONTINUOUS
 70
0
 71
3
 72
9
 73
5
 74
0
 42
0.0000001
 43
0.0000001
 44
0.0000000001
 40
0.0
 40
0.0
 40
0.0
 40
0.0
 40
0.4703080229
 40
1.0
 40
1.0
 40
1.0
 40
1.0
 10
-2.8103085078
 20
14.9904306346
 30
0.0
 10
-2.7833642829
 20
14.9761473107
 30
0.0
 10
-2.7326333523
 20
14.9332318114
 30
0.0
 10
-2.6968567361
 20
14.8785249109
 30
0.0
 10
-2.6804596838
 20
14.8483450412
 30
0.0
  0
SPLINE
  5
6F3
100
AcDbEntity
  8
218_STAMPATO
100
AcDbSpline
 62
7
  6
CONTINUOUS
 70
0
 71
3
 72
9
 73
5
 74
0
 42
0.0000001
 43
0.0000001
 44
0.0000000001
 40
0.0
 40
0.0
 40
0.0
 40
0.0
 40
0.5035005998
 40
1.0
 40
1.0
 40
1.0
 40
1.0
 10
-2.5932678937
 20
14.6044879089
 30
0.0
 10
-2.5780862921
 20
14.5406786485
 30
0.0
 10
-2.5553595666
 20
14.4121677689
 30
0.0
 10
-2.5420882452
 20
14.2825080802
 30
0.0
 10
-2.5372686513
 20
14.2180095207
 30
0.0
  0
SPLINE
  5
6F4
100
AcDbEntity
  8
218_STAMPATO
100
AcDbSpline
 62
7
  6
CONTINUOUS
 70
0
 71
3
 72
11
 73
7
 74
0
 42
0.0000001
 43
0.0000001
 44
0.0000000001
 40
0.0
 40
0.0
 40
0.0
 40
0.0
 40
0.2942959004
 40
0.4354665066
 40
0.569217715
 40
1.0
 40
1.0
 40
1.0
 40
1.0
 10
-2.552275914
 20
13.5164054703
 30
0.0
 10
-2.5603591863
 20
13.4538927192
 30
0.0
 10
-2.5756199351
 20
13.3618642654
 30
0.0
 10
-2.6063514658
 20
13.2433213338
 30
0.0
 10
-2.654270863
 20
13.1021631883
 30
0.0
 10
-2.7253685104
 20
12.9822217612
 30
0.0
 10
-2.8103208469
 20
12.9462194886
 30
0.0
  0
SPLINE
  5
6F5
100
AcDbEntity
  8
218_STAMPATO
100
AcDbSpline
 62
7
  6
CONTINUOUS
 70
0
 71
3
 72
11
 73
7
 74
0
 42
0.0000001
 43
0.0000001
 44
0.0000000001
 40
0.0
 40
0.0
 40
0.0
 40
0.0
 40
0.2517360201
 40
0.497538324
 40
0.7443033558
 40
1.0
 40
1.0
 40
1.0
 40
1.0
 10
-5.6765425437
 20
13.1938705347
 30
0.0
 10
-5.6823247438
 20
13.2433886938
 30
0.0
 10
-5.7121858587
 20
13.3400775327
 30
0.0
 10
-5.8048928045
 20
13.4585261224
 30
0.0
 10
-5.9335730067
 20
13.5380750747
 30
0.0
 10
-6.0341321737
 20
13.5566955723
 30
0.0
 10
-6.0847711562
 20
13.5566955723
 30
0.0
  0
SPLINE
  5
6F6
100
AcDbEntity
  8
218_STAMPATO
100
AcDbSpline
 62
7
  6
CONTINUOUS
 70
0
 71
3
 72
26
 73
22
 74
0
 42
0.0000001
 43
0.0000001
 44
0.0000000001
 40
0.0
 40
0.0
 40
0.0
 40
0.0
 40
0.0618900618
 40
0.093515364
 40
0.1257447791
 40
0.1897734827
 40
0.2519011974
 40
0.3730780398
 40
0.4337257677
 40
0.4948167679
 40
0.5569412389
 40
0.5886880259
 40
0.6210457102
 40
0.6534065699
 40
0.6851556896
 40
0.7472826438
 40
0.808373942
 40
0.8690207107
 40
0.9296675049
 40
0.9907588926
 40
1.0
 40
1.0
 40
1.0
 40
1.0
 10
-2.9547726463
 20
12.7968676103
 30
0.0
 10
-2.9595950664
 20
12.785423835
 30
0.0
 10
-2.9651843068
 20
12.767343399
 30
0.0
 10
-2.968971401
 20
12.7423667142
 30
0.0
 10
-2.9702603443
 20
12.716702065
 30
0.0
 10
-2.967069784
 20
12.6848348846
 30
0.0
 10
-2.9523170463
 20
12.6371857147
 30
0.0
 10
-2.9241078636
 20
12.5954219687
 30
0.0
 10
-2.8863125217
 20
12.5642849917
 30
0.0
 10
-2.8536898115
 20
12.5465498359
 30
0.0
 10
-2.8237810389
 20
12.5372733974
 30
0.0
 10
-2.7987066149
 20
12.5334527542
 30
0.0
 10
-2.7793410642
 20
12.5324799297
 30
0.0
 10
-2.759974995
 20
12.5334528281
 30
0.0
 10
-2.7348991369
 20
12.5372728587
 30
0.0
 10
-2.704987798
 20
12.5465529881
 30
0.0
 10
-2.6723704148
 20
12.5642725464
 30
0.0
 10
-2.6439721784
 20
12.5877084926
 30
0.0
 10
-2.6205361461
 20
12.6161066697
 30
0.0
 10
-2.6079132895
 20
12.6393422163
 30
0.0
 10
-2.602599967
 20
12.6524460651
 30
0.0
 10
-2.601927376
 20
12.6541777776
 30
0.0
  0
SPLINE
  5
6F7
100
AcDbEntity
  8
218_STAMPATO
100
AcDbSpline
 62
7
  6
CONTINUOUS
 70
0
 71
3
 72
12
 73
8
 74
0
 42
0.0000001
 43
0.0000001
 44
0.0000000001
 40
0.0
 40
0.0
 40
0.0
 40
0.0
 40
0.2212837398
 40
0.3405325902
 40
0.4654601238
 40
0.728604412
 40
1.0
 40
1.0
 40
1.0
 40
1.0
 10
-2.6619081928
 20
12.8727981468
 30
0.0
 10
-2.6223211812
 20
12.9066129338
 30
0.0
 10
-2.5715541326
 20
12.9708003088
 30
0.0
 10
-2.5204951014
 20
13.0676844551
 30
0.0
 10
-2.4755571324
 20
13.1784938221
 30
0.0
 10
-2.4349181092
 20
13.3287325721
 30
0.0
 10
-2.4148221062
 20
13.4530370412
 30
0.0
 10
-2.4069676351
 20
13.5164054703
 30
0.0
  0
SPLINE
  5
6F8
100
AcDbEntity
  8
218_STAMPATO
100
AcDbSpline
 62
7
  6
CONTINUOUS
 70
0
 71
3
 72
9
 73
5
 74
0
 42
0.0000001
 43
0.0000001
 44
0.0000000001
 40
0.0
 40
0.0
 40
0.0
 40
0.0
 40
0.4954061325
 40
1.0
 40
1.0
 40
1.0
 40
1.0
 10
-2.3911510718
 20
14.2180095207
 30
0.0
 10
-2.3952974821
 20
14.2823484906
 30
0.0
 10
-2.4074641637
 20
14.412006198
 30
0.0
 10
-2.4295771482
 20
14.5404879767
 30
0.0
 10
-2.4442847371
 20
14.6044879089
 30
0.0
  0
SPLINE
  5
6F9
100
AcDbEntity
  8
218_STAMPATO
100
AcDbSpline
 62
7
  6
CONTINUOUS
 70
0
 71
3
 72
17
 73
13
 74
0
 42
0.0000001
 43
0.0000001
 44
0.0000000001
 40
0.0
 40
0.0
 40
0.0
 40
0.0
 40
0.2469057298
 40
0.481476977
 40
0.5949929115
 40
0.7067865876
 40
0.8178410607
 40
0.8735002446
 40
0.929470023
 40
0.949069568
 40
0.9673750084
 40
1.0
 40
1.0
 40
1.0
 40
1.0
 10
-2.5240084615
 20
14.848333428
 30
0.0
 10
-2.5384122517
 20
14.8799892255
 30
0.0
 10
-2.5699432586
 20
14.9402563367
 30
0.0
 10
-2.6194080826
 20
15.0084337454
 30
0.0
 10
-2.6644585267
 20
15.0551162213
 30
0.0
 10
-2.7007422264
 20
15.0857230753
 30
0.0
 10
-2.7334443408
 20
15.1075665061
 30
0.0
 10
-2.7609904343
 20
15.1226015961
 30
0.0
 10
-2.7777327872
 20
15.1304672915
 30
0.0
 10
-2.7899276393
 20
15.1355819323
 30
0.0
 10
-2.7991811932
 20
15.13919915
 30
0.0
 10
-2.805950257
 20
15.1415851426
 30
0.0
 10
-2.8103208469
 20
15.1430051984
 30
0.0
  0
SPLINE
  5
6FA
100
AcDbEntity
  8
218_STAMPATO
100
AcDbSpline
 62
7
  6
CONTINUOUS
 70
0
 71
3
 72
9
 73
5
 74
0
 42
0.0000001
 43
0.0000001
 44
0.0000000001
 40
0.0
 40
0.0
 40
0.0
 40
0.0
 40
0.4968049043
 40
1.0
 40
1.0
 40
1.0
 40
1.0
 10
-6.2115874621
 20
14.8420303195
 30
0.0
 10
-6.2272751105
 20
14.8406834728
 30
0.0
 10
-6.2573910885
 20
14.824086528
 30
0.0
 10
-6.2740481281
 20
14.7944979564
 30
0.0
 10
-6.2762676322
 20
14.7787052741
 30
0.0
  0
SPLINE
  5
6FB
100
AcDbEntity
  8
218_STAMPATO
100
AcDbSpline
 62
7
  6
CONTINUOUS
 70
0
 71
3
 72
26
 73
22
 74
0
 42
0.0000001
 43
0.0000001
 44
0.0000000001
 40
0.0
 40
0.0
 40
0.0
 40
0.0
 40
0.0945676023
 40
0.1889820517
 40
0.2366529405
 40
0.2848476636
 40
0.3338609139
 40
0.35880563
 40
0.3841064185
 40
0.4204165599
 40
0.4560407119
 40
0.5257514563
 40
0.5943012594
 40
0.6623529208
 40
0.7304047941
 40
0.7989553403
 40
0.8686676705
 40
0.9042930796
 40
0.940604876
 40
0.9705475952
 40
1.0
 40
1.0
 40
1.0
 40
1.0
 10
-6.2768149081
 20
13.5091515245
 30
0.0
 10
-6.3090988911
 20
13.4920602899
 30
0.0
 10
-6.3693088359
 20
13.4490359674
 30
0.0
 10
-6.4277868228
 20
13.3773206998
 30
0.0
 10
-6.4620733901
 20
13.3120900427
 30
0.0
 10
-6.4812232411
 20
13.2593163564
 30
0.0
 10
-6.491076401
 20
13.2130040041
 30
0.0
 10
-6.4951040135
 20
13.1748482365
 30
0.0
 10
-6.4962733639
 20
13.1414086555
 30
0.0
 10
-6.4943860707
 20
13.103826448
 30
0.0
 10
-6.4861339657
 20
13.0496625131
 30
0.0
 10
-6.4660875274
 20
12.9850506781
 30
0.0
 10
-6.4278108748
 20
12.9145936975
 30
0.0
 10
-6.3771862933
 20
12.8532493133
 30
0.0
 10
-6.3158426563
 20
12.8026233592
 30
0.0
 10
-6.245385316
 20
12.7643451979
 30
0.0
 10
-6.1807723533
 20
12.7442978052
 30
0.0
 10
-6.1266065281
 20
12.7360454019
 30
0.0
 10
-6.0872296075
 20
12.7340675935
 30
0.0
 10
-6.0502540467
 20
12.7355989772
 30
0.0
 10
-6.0274577961
 20
12.7384532193
 30
0.0
 10
-6.0162375541
 20
12.7403334311
 30
0.0
  0
SPLINE
  5
6FC
100
AcDbEntity
  8
218_STAMPATO
100
AcDbSpline
 62
7
  6
CONTINUOUS
 70
0
 71
3
 72
15
 73
11
 74
0
 42
0.0000001
 43
0.0000001
 44
0.0000000001
 40
0.0
 40
0.0
 40
0.0
 40
0.0
 40
0.1312902148
 40
0.2101081563
 40
0.2904448681
 40
0.3831950943
 40
0.4739939598
 40
0.6514255613
 40
0.8260966502
 40
1.0
 40
1.0
 40
1.0
 40
1.0
 10
-2.601927376
 20
12.6541777776
 30
0.0
 10
-2.5980781969
 20
12.6640882146
 30
0.0
 10
-2.5932566346
 20
12.6804710625
 30
0.0
 10
-2.589716322
 20
12.7037116927
 30
0.0
 10
-2.5886925987
 20
12.7240811685
 30
0.0
 10
-2.5899318766
 20
12.7454256915
 30
0.0
 10
-2.5950128065
 20
12.7742113073
 30
0.0
 10
-2.6073165625
 20
12.8081949374
 30
0.0
 10
-2.6305545945
 20
12.8441885686
 30
0.0
 10
-2.6508543395
 20
12.8641158712
 30
0.0
 10
-2.6619081928
 20
12.8727981468
 30
0.0
  0
SPLINE
  5
6FD
100
AcDbEntity
  8
218_STAMPATO
100
AcDbSpline
 62
250
  6
CONTINUOUS
 70
0
 71
3
 72
17
 73
13
 74
0
 42
0.0000001
 43
0.0000001
 44
0.0000000001
 40
0.0
 40
0.0
 40
0.0
 40
0.0
 40
0.0705699339
 40
0.1400286942
 40
0.2078029508
 40
0.2738383563
 40
0.4013644715
 40
0.5247880206
 40
0.645546376
 40
0.7645929299
 40
0.8825798744
 40
1.0
 40
1.0
 40
1.0
 40
1.0
 10
9.9526054383
 20
9.6264307462
 30
0.0
 10
9.9984275104
 20
9.6252510749
 30
0.0
 10
10.0893601668
 20
9.6135867847
 30
0.0
 10
10.2181360394
 20
9.570846422
 30
0.0
 10
10.3350670818
 20
9.5083206199
 30
0.0
 10
10.4718415002
 20
9.4069934884
 30
0.0
 10
10.6131576635
 20
9.2547791923
 30
0.0
 10
10.7421622449
 20
9.0495111024
 30
0.0
 10
10.8369191363
 20
8.8326362149
 30
0.0
 10
10.9023979786
 20
8.6090829346
 30
0.0
 10
10.9417051215
 20
8.3817891407
 30
0.0
 10
10.9515491775
 20
8.228867967
 30
0.0
 10
10.9524531334
 20
8.1526054873
 30
0.0
  0
SPLINE
  5
6FE
100
AcDbEntity
  8
218_STAMPATO
100
AcDbSpline
 62
250
  6
CONTINUOUS
 70
0
 71
3
 72
17
 73
13
 74
0
 42
0.0000001
 43
0.0000001
 44
0.0000000001
 40
0.0
 40
0.0
 40
0.0
 40
0.0
 40
0.0886893984
 40
0.1740290627
 40
0.2542828216
 40
0.3291430523
 40
0.4645289849
 40
0.5855694491
 40
0.6967517768
 40
0.8013382305
 40
0.901762852
 40
1.0
 40
1.0
 40
1.0
 40
1.0
 10
9.944032811
 20
9.1265830162
 30
0.0
 10
9.9896923534
 20
9.1258065984
 30
0.0
 10
10.0792999382
 20
9.1182927129
 30
0.0
 10
10.2075819667
 20
9.090490827
 30
0.0
 10
10.3247490034
 20
9.0495397539
 30
0.0
 10
10.4596011347
 20
8.9842352204
 30
0.0
 10
10.6007605086
 20
8.8862129073
 30
0.0
 10
10.733436482
 20
8.7497845422
 30
0.0
 10
10.8311000773
 20
8.6054522683
 30
0.0
 10
10.8989336418
 20
8.4566433217
 30
0.0
 10
10.9401657135
 20
8.3053856518
 30
0.0
 10
10.9511006654
 20
8.2031696295
 30
0.0
 10
10.9524531326
 20
8.1526054374
 30
0.0
  0
SPLINE
  5
6FF
100
AcDbEntity
  8
218_STAMPATO
100
AcDbSpline
 62
250
  6
CONTINUOUS
 70
0
 71
3
 72
17
 73
13
 74
0
 42
0.0000001
 43
0.0000001
 44
0.0000000001
 40
0.0
 40
0.0
 40
0.0
 40
0.0
 40
0.1174201267
 40
0.2354070702
 40
0.354453624
 40
0.4752119794
 40
0.5986355285
 40
0.7261616437
 40
0.7921970492
 40
0.8599713058
 40
0.9294300661
 40
1.0
 40
1.0
 40
1.0
 40
1.0
 10
-10.9524531334
 20
8.1526054867
 30
0.0
 10
-10.9515491908
 20
8.2288679673
 30
0.0
 10
-10.9417051129
 20
8.3817891406
 30
0.0
 10
-10.9023979811
 20
8.6090829352
 30
0.0
 10
-10.8369191356
 20
8.8326362145
 30
0.0
 10
-10.7421622452
 20
9.0495111022
 30
0.0
 10
-10.6131576636
 20
9.2547791922
 30
0.0
 10
-10.4718415003
 20
9.4069934883
 30
0.0
 10
-10.3350670819
 20
9.5083206198
 30
0.0
 10
-10.2181360395
 20
9.5708464221
 30
0.0
 10
-10.0893601668
 20
9.6135867842
 30
0.0
 10
-9.9984275104
 20
9.6252510759
 30
0.0
 10
-9.9526054383
 20
9.6264307462
 30
0.0
  0
SPLINE
  5
700
100
AcDbEntity
  8
218_STAMPATO
100
AcDbSpline
 62
250
  6
CONTINUOUS
 70
0
 71
3
 72
17
 73
13
 74
0
 42
0.0000001
 43
0.0000001
 44
0.0000000001
 40
0.0
 40
0.0
 40
0.0
 40
0.0
 40
0.0982371462
 40
0.198661769
 40
0.303248223
 40
0.4144305507
 40
0.5354710149
 40
0.6708569476
 40
0.7457171783
 40
0.8259709372
 40
0.9113106015
 40
1.0
 40
1.0
 40
1.0
 40
1.0
 10
-10.9524531326
 20
8.1526054374
 30
0.0
 10
-10.9511006818
 20
8.203169629
 30
0.0
 10
-10.9401657022
 20
8.3053856498
 30
0.0
 10
-10.8989336455
 20
8.456643321
 30
0.0
 10
-10.8311000766
 20
8.605452268
 30
0.0
 10
-10.7334364823
 20
8.7497845421
 30
0.0
 10
-10.6007605086
 20
8.8862129072
 30
0.0
 10
-10.4596011348
 20
8.9842352204
 30
0.0
 10
-10.3247490035
 20
9.0495397539
 30
0.0
 10
-10.2075819668
 20
9.090490827
 30
0.0
 10
-10.0792999382
 20
9.1182927128
 30
0.0
 10
-9.9896923534
 20
9.1258065985
 30
0.0
 10
-9.944032811
 20
9.1265830162
 30
0.0
  0
SPLINE
  5
701
100
AcDbEntity
  8
218_STAMPATO
100
AcDbSpline
 62
250
  6
CONTINUOUS
 70
0
 71
3
 72
15
 73
11
 74
0
 42
0.0000001
 43
0.0000001
 44
0.0000000001
 40
0.0
 40
0.0
 40
0.0
 40
0.0
 40
0.1250019868
 40
0.250002724
 40
0.3750017563
 40
0.500000034
 40
0.624998314
 40
0.7499973463
 40
0.8749980976
 40
1.0
 40
1.0
 40
1.0
 40
1.0
 10
5.8279935413
 20
-10.2754329587
 30
0.0
 10
5.7909406751
 20
-10.314464416
 30
0.0
 10
5.7087228354
 20
-10.3852625016
 30
0.0
 10
5.5667731782
 20
-10.4643816763
 30
0.0
 10
5.4117251526
 20
-10.513292547
 30
0.0
 10
5.2499999368
 20
-10.5298286127
 30
0.0
 10
5.0882747
 20
-10.5132925834
 30
0.0
 10
4.9332267164
 20
-10.4643816632
 30
0.0
 10
4.7912769077
 20
-10.3852626701
 30
0.0
 10
4.7090595587
 20
-10.3144641439
 30
0.0
 10
4.6720064589
 20
-10.2754329584
 30
0.0
  0
SPLINE
  5
702
100
AcDbEntity
  8
218_STAMPATO
100
AcDbSpline
 62
250
  6
CONTINUOUS
 70
0
 71
3
 72
15
 73
11
 74
0
 42
0.0000001
 43
0.0000001
 44
0.0000000001
 40
0.0
 40
0.0
 40
0.0
 40
0.0
 40
0.1249234028
 40
0.2499083347
 40
0.3749409635
 40
0.5000000364
 40
0.6250591107
 40
0.7500917367
 40
0.8750766777
 40
1.0
 40
1.0
 40
1.0
 40
1.0
 10
5.6112458582
 20
-10.0696736734
 30
0.0
 10
5.5881762539
 20
-10.0942074584
 30
0.0
 10
5.5369477753
 20
-10.1387856334
 30
0.0
 10
5.4483182236
 20
-10.1887538226
 30
0.0
 10
5.3513091199
 20
-10.2197238138
 30
0.0
 10
5.2499999542
 20
-10.23020951
 30
0.0
 10
5.1486907807
 20
-10.2197238335
 30
0.0
 10
5.0516816927
 20
-10.1887538217
 30
0.0
 10
4.9630521016
 20
-10.138785687
 30
0.0
 10
4.9118238007
 20
-10.0942073768
 30
0.0
 10
4.8887540873
 20
-10.0696737243
 30
0.0
  0
SPLINE
  5
703
100
AcDbEntity
  8
218_STAMPATO
100
AcDbSpline
 62
250
  6
CONTINUOUS
 70
0
 71
3
 72
15
 73
11
 74
0
 42
0.0000001
 43
0.0000001
 44
0.0000000001
 40
0.0
 40
0.0
 40
0.0
 40
0.0
 40
0.1249234028
 40
0.2499083347
 40
0.3749409635
 40
0.5000000364
 40
0.6250591107
 40
0.7500917367
 40
0.8750766777
 40
1.0
 40
1.0
 40
1.0
 40
1.0
 10
4.8887541418
 20
-14.1303263266
 30
0.0
 10
4.9118237461
 20
-14.1057925415
 30
0.0
 10
4.9630522247
 20
-14.0612143666
 30
0.0
 10
5.0516817764
 20
-14.0112461773
 30
0.0
 10
5.1486908801
 20
-13.9802761861
 30
0.0
 10
5.2500000458
 20
-13.9697904899
 30
0.0
 10
5.3513092193
 20
-13.9802761665
 30
0.0
 10
5.4483183073
 20
-14.0112461782
 30
0.0
 10
5.5369478984
 20
-14.0612143129
 30
0.0
 10
5.5881761993
 20
-14.1057926231
 30
0.0
 10
5.6112459127
 20
-14.1303262757
 30
0.0
  0
SPLINE
  5
704
100
AcDbEntity
  8
218_STAMPATO
100
AcDbSpline
 62
250
  6
CONTINUOUS
 70
0
 71
3
 72
15
 73
11
 74
0
 42
0.0000001
 43
0.0000001
 44
0.0000000001
 40
0.0
 40
0.0
 40
0.0
 40
0.0
 40
0.1250019868
 40
0.250002724
 40
0.3750017563
 40
0.500000034
 40
0.624998314
 40
0.7499973463
 40
0.8749980976
 40
1.0
 40
1.0
 40
1.0
 40
1.0
 10
4.6720064587
 20
-13.9245670412
 30
0.0
 10
4.7090593249
 20
-13.885535584
 30
0.0
 10
4.7912771646
 20
-13.8147374984
 30
0.0
 10
4.9332268218
 20
-13.7356183236
 30
0.0
 10
5.0882748474
 20
-13.6867074529
 30
0.0
 10
5.2500000632
 20
-13.6701713872
 30
0.0
 10
5.4117253
 20
-13.6867074166
 30
0.0
 10
5.5667732836
 20
-13.7356183367
 30
0.0
 10
5.7087230923
 20
-13.8147373298
 30
0.0
 10
5.7909404413
 20
-13.8855358561
 30
0.0
 10
5.827993541
 20
-13.9245670415
 30
0.0
  0
SPLINE
  5
705
100
AcDbEntity
  8
218_STAMPATO
100
AcDbSpline
 62
250
  6
CONTINUOUS
 70
0
 71
3
 72
15
 73
11
 74
0
 42
0.0000001
 43
0.0000001
 44
0.0000000001
 40
0.0
 40
0.0
 40
0.0
 40
0.0
 40
0.125004536
 40
0.2500057648
 40
0.3750037549
 40
0.5000000383
 40
0.6249963254
 40
0.7499943114
 40
0.8749955628
 40
1.0
 40
1.0
 40
1.0
 40
1.0
 10
-0.6357929203
 20
-13.6978993455
 30
0.0
 10
-0.5988573943
 20
-13.6490294638
 30
0.0
 10
-0.5134895837
 20
-13.5593979661
 30
0.0
 10
-0.3584437102
 20
-13.4578708312
 30
0.0
 10
-0.1841703143
 20
-13.394506164
 30
0.0
 10
0.0000000837
 20
-13.3729851102
 30
0.0
 10
0.1841705099
 20
-13.3945061259
 30
0.0
 10
0.3584438409
 20
-13.4578708571
 30
0.0
 10
0.5134899445
 20
-13.5593977857
 30
0.0
 10
0.598857006
 20
-13.64902982
 30
0.0
 10
0.6357929197
 20
-13.6978993479
 30
0.0
  0
SPLINE
  5
706
100
AcDbEntity
  8
218_STAMPATO
100
AcDbSpline
 62
250
  6
CONTINUOUS
 70
0
 71
3
 72
15
 73
11
 74
0
 42
0.0000001
 43
0.0000001
 44
0.0000000001
 40
0.0
 40
0.0
 40
0.0
 40
0.0
 40
0.124883428
 40
0.2498576763
 40
0.3749072964
 40
0.5000000404
 40
0.6250927876
 40
0.7501424
 40
0.8751166646
 40
1.0
 40
1.0
 40
1.0
 40
1.0
 10
-0.3973704324
 20
-13.8780969847
 30
0.0
 10
-0.3744211614
 20
-13.8473555244
 30
0.0
 10
-0.3213400845
 20
-13.7908360568
 30
0.0
 10
-0.2246240403
 20
-13.7265092139
 30
0.0
 10
-0.1155323783
 20
-13.6861890044
 30
0.0
 10
0.000000061
 20
-13.6724604959
 30
0.0
 10
0.1155325108
 20
-13.6861889835
 30
0.0
 10
0.2246241466
 20
-13.7265092235
 30
0.0
 10
0.3213402552
 20
-13.7908360071
 30
0.0
 10
0.3744210459
 20
-13.8473556502
 30
0.0
 10
0.3973705036
 20
-13.8780969357
 30
0.0
  0
SPLINE
  5
707
100
AcDbEntity
  8
218_STAMPATO
100
AcDbSpline
 62
250
  6
CONTINUOUS
 70
0
 71
3
 72
15
 73
11
 74
0
 42
0.0000001
 43
0.0000001
 44
0.0000000001
 40
0.0
 40
0.0
 40
0.0
 40
0.0
 40
0.1250019868
 40
0.250002724
 40
0.3750017563
 40
0.500000034
 40
0.624998314
 40
0.7499973463
 40
0.8749980976
 40
1.0
 40
1.0
 40
1.0
 40
1.0
 10
-5.8279935413
 20
-13.9245670413
 30
0.0
 10
-5.7909406751
 20
-13.8855355841
 30
0.0
 10
-5.7087228354
 20
-13.8147374984
 30
0.0
 10
-5.5667731782
 20
-13.7356183237
 30
0.0
 10
-5.4117251526
 20
-13.686707453
 30
0.0
 10
-5.2499999368
 20
-13.6701713873
 30
0.0
 10
-5.0882747
 20
-13.6867074166
 30
0.0
 10
-4.9332267164
 20
-13.7356183368
 30
0.0
 10
-4.7912769077
 20
-13.8147373299
 30
0.0
 10
-4.7090595587
 20
-13.8855358561
 30
0.0
 10
-4.6720064589
 20
-13.9245670416
 30
0.0
  0
SPLINE
  5
708
100
AcDbEntity
  8
218_STAMPATO
100
AcDbSpline
 62
250
  6
CONTINUOUS
 70
0
 71
3
 72
15
 73
11
 74
0
 42
0.0000001
 43
0.0000001
 44
0.0000000001
 40
0.0
 40
0.0
 40
0.0
 40
0.0
 40
0.1249234028
 40
0.2499083347
 40
0.3749409635
 40
0.5000000364
 40
0.6250591107
 40
0.7500917367
 40
0.8750766777
 40
1.0
 40
1.0
 40
1.0
 40
1.0
 10
-5.6112458582
 20
-14.1303263266
 30
0.0
 10
-5.5881762539
 20
-14.1057925416
 30
0.0
 10
-5.5369477753
 20
-14.0612143666
 30
0.0
 10
-5.4483182236
 20
-14.0112461774
 30
0.0
 10
-5.3513091199
 20
-13.9802761862
 30
0.0
 10
-5.2499999542
 20
-13.96979049
 30
0.0
 10
-5.1486907807
 20
-13.9802761665
 30
0.0
 10
-5.0516816927
 20
-14.0112461783
 30
0.0
 10
-4.9630521016
 20
-14.061214313
 30
0.0
 10
-4.9118238007
 20
-14.1057926232
 30
0.0
 10
-4.8887540873
 20
-14.1303262757
 30
0.0
  0
SPLINE
  5
709
100
AcDbEntity
  8
218_STAMPATO
100
AcDbSpline
 62
250
  6
CONTINUOUS
 70
0
 71
3
 72
15
 73
11
 74
0
 42
0.0000001
 43
0.0000001
 44
0.0000000001
 40
0.0
 40
0.0
 40
0.0
 40
0.0
 40
0.1249234028
 40
0.2499083347
 40
0.3749409635
 40
0.5000000364
 40
0.6250591107
 40
0.7500917367
 40
0.8750766777
 40
1.0
 40
1.0
 40
1.0
 40
1.0
 10
-4.8887541418
 20
-10.0696736734
 30
0.0
 10
-4.9118237461
 20
-10.0942074585
 30
0.0
 10
-4.9630522247
 20
-10.1387856334
 30
0.0
 10
-5.0516817764
 20
-10.1887538227
 30
0.0
 10
-5.1486908801
 20
-10.2197238139
 30
0.0
 10
-5.2500000458
 20
-10.2302095101
 30
0.0
 10
-5.3513092193
 20
-10.2197238335
 30
0.0
 10
-5.4483183073
 20
-10.1887538218
 30
0.0
 10
-5.5369478984
 20
-10.1387856871
 30
0.0
 10
-5.5881761993
 20
-10.0942073769
 30
0.0
 10
-5.6112459127
 20
-10.0696737243
 30
0.0
  0
SPLINE
  5
70A
100
AcDbEntity
  8
218_STAMPATO
100
AcDbSpline
 62
250
  6
CONTINUOUS
 70
0
 71
3
 72
15
 73
11
 74
0
 42
0.0000001
 43
0.0000001
 44
0.0000000001
 40
0.0
 40
0.0
 40
0.0
 40
0.0
 40
0.1250019868
 40
0.250002724
 40
0.3750017563
 40
0.500000034
 40
0.624998314
 40
0.7499973463
 40
0.8749980976
 40
1.0
 40
1.0
 40
1.0
 40
1.0
 10
-4.6720064587
 20
-10.2754329588
 30
0.0
 10
-4.7090593249
 20
-10.314464416
 30
0.0
 10
-4.7912771646
 20
-10.3852625016
 30
0.0
 10
-4.9332268218
 20
-10.4643816764
 30
0.0
 10
-5.0882748474
 20
-10.5132925471
 30
0.0
 10
-5.2500000632
 20
-10.5298286128
 30
0.0
 10
-5.4117253
 20
-10.5132925834
 30
0.0
 10
-5.5667732836
 20
-10.4643816633
 30
0.0
 10
-5.7087230923
 20
-10.3852626702
 30
0.0
 10
-5.7909404413
 20
-10.3144641439
 30
0.0
 10
-5.827993541
 20
-10.2754329585
 30
0.0
  0
SPLINE
  5
70B
100
AcDbEntity
  8
218_STAMPATO
100
AcDbSpline
 62
250
  6
CONTINUOUS
 70
0
 71
3
 72
15
 73
11
 74
0
 42
0.0000001
 43
0.0000001
 44
0.0000000001
 40
0.0
 40
0.0
 40
0.0
 40
0.0
 40
0.124883428
 40
0.2498576763
 40
0.3749072964
 40
0.5000000404
 40
0.6250927876
 40
0.7501424
 40
0.8751166646
 40
1.0
 40
1.0
 40
1.0
 40
1.0
 10
0.3973704324
 20
-10.3219030153
 30
0.0
 10
0.3744211614
 20
-10.3526444756
 30
0.0
 10
0.3213400845
 20
-10.4091639432
 30
0.0
 10
0.2246240403
 20
-10.4734907861
 30
0.0
 10
0.1155323783
 20
-10.5138109956
 30
0.0
 10
-0.000000061
 20
-10.5275395041
 30
0.0
 10
-0.1155325108
 20
-10.5138110165
 30
0.0
 10
-0.2246241466
 20
-10.4734907765
 30
0.0
 10
-0.3213402552
 20
-10.4091639929
 30
0.0
 10
-0.3744210459
 20
-10.3526443498
 30
0.0
 10
-0.3973705036
 20
-10.3219030643
 30
0.0
  0
SPLINE
  5
70C
100
AcDbEntity
  8
218_STAMPATO
100
AcDbSpline
 62
250
  6
CONTINUOUS
 70
0
 71
3
 72
15
 73
11
 74
0
 42
0.0000001
 43
0.0000001
 44
0.0000000001
 40
0.0
 40
0.0
 40
0.0
 40
0.0
 40
0.125004536
 40
0.2500057648
 40
0.3750037549
 40
0.5000000383
 40
0.6249963254
 40
0.7499943114
 40
0.8749955628
 40
1.0
 40
1.0
 40
1.0
 40
1.0
 10
0.6357929203
 20
-10.5021006545
 30
0.0
 10
0.5988573943
 20
-10.5509705362
 30
0.0
 10
0.5134895837
 20
-10.6406020339
 30
0.0
 10
0.3584437102
 20
-10.7421291688
 30
0.0
 10
0.1841703143
 20
-10.805493836
 30
0.0
 10
-0.0000000837
 20
-10.8270148898
 30
0.0
 10
-0.1841705099
 20
-10.8054938741
 30
0.0
 10
-0.3584438409
 20
-10.7421291429
 30
0.0
 10
-0.5134899445
 20
-10.6406022143
 30
0.0
 10
-0.598857006
 20
-10.55097018
 30
0.0
 10
-0.6357929197
 20
-10.5021006521
 30
0.0
  0
SPLINE
  5
70D
100
AcDbEntity
  8
218_STAMPATO
100
AcDbSpline
 62
250
  6
CONTINUOUS
 70
0
 71
3
 72
15
 73
11
 74
0
 42
0.0000001
 43
0.0000001
 44
0.0000000001
 40
0.0
 40
0.0
 40
0.0
 40
0.0
 40
0.1249233315
 40
0.2499082733
 40
0.3749409019
 40
0.499999978
 40
0.6250590533
 40
0.750091683
 40
0.8750766195
 40
1.0
 40
1.0
 40
1.0
 40
1.0
 10
-4.8887540898
 20
-0.3303262773
 30
0.0
 10
-4.9118238013
 20
-0.3057926189
 30
0.0
 10
-4.9630521122
 20
-0.2612143135
 30
0.0
 10
-5.0516817059
 20
-0.2112461765
 30
0.0
 10
-5.1486907961
 20
-0.1802761623
 30
0.0
 10
-5.2499999716
 20
-0.1697904816
 30
0.0
 10
-5.3513091422
 20
-0.1802761755
 30
0.0
 10
-5.4483182413
 20
-0.2112461771
 30
0.0
 10
-5.5369478133
 20
-0.2612143465
 30
0.0
 10
-5.5881762211
 20
-0.3057925809
 30
0.0
 10
-5.6112458714
 20
-0.330326315
 30
0.0
  0
SPLINE
  5
70E
100
AcDbEntity
  8
218_STAMPATO
100
AcDbSpline
 62
250
  6
CONTINUOUS
 70
0
 71
3
 72
15
 73
11
 74
0
 42
0.0000001
 43
0.0000001
 44
0.0000000001
 40
0.0
 40
0.0
 40
0.0
 40
0.0
 40
0.1250019115
 40
0.2500026628
 40
0.3750016977
 40
0.4999999801
 40
0.624998261
 40
0.7499972951
 40
0.8749980382
 40
1.0
 40
1.0
 40
1.0
 40
1.0
 10
-4.6720064589
 20
-0.1245670416
 30
0.0
 10
-4.7090595567
 20
-0.085535848
 30
0.0
 10
-4.7912769242
 20
-0.014737333
 30
0.0
 10
-4.9332267342
 20
0.0643816667
 30
0.0
 10
-5.0882747217
 20
0.1132925917
 30
0.0
 10
-5.2499999614
 20
0.1298286266
 30
0.0
 10
-5.4117251889
 20
0.1132925682
 30
0.0
 10
-5.5667731985
 20
0.0643816717
 30
0.0
 10
-5.7087229272
 20
-0.0147374313
 30
0.0
 10
-5.7909405564
 20
-0.0855357106
 30
0.0
 10
-5.8279935413
 20
-0.1245670413
 30
0.0
  0
SPLINE
  5
70F
100
AcDbEntity
  8
218_STAMPATO
100
AcDbSpline
 62
250
  6
CONTINUOUS
 70
0
 71
3
 72
15
 73
11
 74
0
 42
0.0000001
 43
0.0000001
 44
0.0000000001
 40
0.0
 40
0.0
 40
0.0
 40
0.0
 40
0.1250044459
 40
0.2500056971
 40
0.3750036862
 40
0.4999999755
 40
0.6249962622
 40
0.7499942531
 40
0.8749954897
 40
1.0
 40
1.0
 40
1.0
 40
1.0
 10
0.6357929197
 20
0.1021006521
 30
0.0
 10
0.5988570084
 20
0.1509701881
 30
0.0
 10
0.5134899275
 20
0.2406022144
 30
0.0
 10
0.3584438211
 20
0.3421291484
 30
0.0
 10
0.1841704862
 20
0.405493887
 30
0.0
 10
0.0000000561
 20
0.4270149075
 30
0.0
 10
-0.184170356
 20
0.4054938594
 30
0.0
 10
-0.3584437289
 20
0.3421291612
 30
0.0
 10
-0.5134896995
 20
0.2406021005
 30
0.0
 10
-0.5988572255
 20
0.1509703939
 30
0.0
 10
-0.6357929203
 20
0.1021006545
 30
0.0
  0
SPLINE
  5
710
100
AcDbEntity
  8
218_STAMPATO
100
AcDbSpline
 62
250
  6
CONTINUOUS
 70
0
 71
3
 72
15
 73
11
 74
0
 42
0.0000001
 43
0.0000001
 44
0.0000000001
 40
0.0
 40
0.0
 40
0.0
 40
0.0
 40
0.1248833444
 40
0.2498576094
 40
0.3749072247
 40
0.4999999733
 40
0.6250927198
 40
0.7501423395
 40
0.875116594
 40
1.0
 40
1.0
 40
1.0
 40
1.0
 10
0.3973704996
 20
-0.0780969359
 30
0.0
 10
0.3744210453
 20
-0.0473556439
 30
0.0
 10
0.3213402425
 20
0.009163995
 30
0.0
 10
0.2246241305
 20
0.0734907796
 30
0.0
 10
0.1155324926
 20
0.1138110233
 30
0.0
 10
0.0000000405
 20
0.1275395147
 30
0.0
 10
-0.1155324042
 20
0.1138110069
 30
0.0
 10
-0.2246240585
 20
0.0734907837
 30
0.0
 10
-0.3213401308
 20
0.0091639606
 30
0.0
 10
-0.3744211099
 20
-0.0473555733
 30
0.0
 10
-0.3973704448
 20
-0.078096978
 30
0.0
  0
SPLINE
  5
711
100
AcDbEntity
  8
218_STAMPATO
100
AcDbSpline
 62
250
  6
CONTINUOUS
 70
0
 71
3
 72
15
 73
11
 74
0
 42
0.0000001
 43
0.0000001
 44
0.0000000001
 40
0.0
 40
0.0
 40
0.0
 40
0.0
 40
0.1249233315
 40
0.2499082733
 40
0.3749409019
 40
0.499999978
 40
0.6250590533
 40
0.750091683
 40
0.8750766195
 40
1.0
 40
1.0
 40
1.0
 40
1.0
 10
5.6112459102
 20
-0.3303262772
 30
0.0
 10
5.5881761987
 20
-0.3057926189
 30
0.0
 10
5.5369478877
 20
-0.2612143134
 30
0.0
 10
5.4483182941
 20
-0.2112461765
 30
0.0
 10
5.3513092039
 20
-0.1802761623
 30
0.0
 10
5.2500000284
 20
-0.1697904815
 30
0.0
 10
5.1486908578
 20
-0.1802761754
 30
0.0
 10
5.0516817587
 20
-0.211246177
 30
0.0
 10
4.9630521867
 20
-0.2612143465
 30
0.0
 10
4.911823779
 20
-0.3057925808
 30
0.0
 10
4.8887541287
 20
-0.3303263149
 30
0.0
  0
SPLINE
  5
712
100
AcDbEntity
  8
218_STAMPATO
100
AcDbSpline
 62
250
  6
CONTINUOUS
 70
0
 71
3
 72
15
 73
11
 74
0
 42
0.0000001
 43
0.0000001
 44
0.0000000001
 40
0.0
 40
0.0
 40
0.0
 40
0.0
 40
0.1250019115
 40
0.2500026628
 40
0.3750016977
 40
0.4999999801
 40
0.624998261
 40
0.7499972951
 40
0.8749980382
 40
1.0
 40
1.0
 40
1.0
 40
1.0
 10
5.827993541
 20
-0.1245670415
 30
0.0
 10
5.7909404433
 20
-0.0855358479
 30
0.0
 10
5.7087230759
 20
-0.0147373329
 30
0.0
 10
5.5667732658
 20
0.0643816668
 30
0.0
 10
5.4117252783
 20
0.1132925918
 30
0.0
 10
5.2500000386
 20
0.1298286267
 30
0.0
 10
5.0882748111
 20
0.1132925683
 30
0.0
 10
4.9332268015
 20
0.0643816718
 30
0.0
 10
4.7912770728
 20
-0.0147374312
 30
0.0
 10
4.7090594436
 20
-0.0855357106
 30
0.0
 10
4.6720064587
 20
-0.1245670412
 30
0.0
  0
SPLINE
  5
713
100
AcDbEntity
  8
218_STAMPATO
100
AcDbSpline
 62
250
  6
CONTINUOUS
 70
0
 71
3
 72
15
 73
11
 74
0
 42
0.0000001
 43
0.0000001
 44
0.0000000001
 40
0.0
 40
0.0
 40
0.0
 40
0.0
 40
0.1249233315
 40
0.2499082733
 40
0.3749409019
 40
0.499999978
 40
0.6250590533
 40
0.750091683
 40
0.8750766195
 40
1.0
 40
1.0
 40
1.0
 40
1.0
 10
4.8887540898
 20
3.7303262773
 30
0.0
 10
4.9118238013
 20
3.7057926189
 30
0.0
 10
4.9630521122
 20
3.6612143135
 30
0.0
 10
5.0516817059
 20
3.6112461765
 30
0.0
 10
5.1486907961
 20
3.5802761623
 30
0.0
 10
5.2499999716
 20
3.5697904816
 30
0.0
 10
5.3513091422
 20
3.5802761755
 30
0.0
 10
5.4483182413
 20
3.6112461771
 30
0.0
 10
5.5369478133
 20
3.6612143465
 30
0.0
 10
5.5881762211
 20
3.7057925809
 30
0.0
 10
5.6112458714
 20
3.730326315
 30
0.0
  0
SPLINE
  5
714
100
AcDbEntity
  8
218_STAMPATO
100
AcDbSpline
 62
250
  6
CONTINUOUS
 70
0
 71
3
 72
15
 73
11
 74
0
 42
0.0000001
 43
0.0000001
 44
0.0000000001
 40
0.0
 40
0.0
 40
0.0
 40
0.0
 40
0.1250019115
 40
0.2500026628
 40
0.3750016977
 40
0.4999999801
 40
0.624998261
 40
0.7499972951
 40
0.8749980382
 40
1.0
 40
1.0
 40
1.0
 40
1.0
 10
4.6720064589
 20
3.5245670416
 30
0.0
 10
4.7090595567
 20
3.485535848
 30
0.0
 10
4.7912769242
 20
3.414737333
 30
0.0
 10
4.9332267342
 20
3.3356183333
 30
0.0
 10
5.0882747217
 20
3.2867074083
 30
0.0
 10
5.2499999614
 20
3.2701713734
 30
0.0
 10
5.4117251889
 20
3.2867074318
 30
0.0
 10
5.5667731985
 20
3.3356183283
 30
0.0
 10
5.7087229272
 20
3.4147374313
 30
0.0
 10
5.7909405564
 20
3.4855357106
 30
0.0
 10
5.8279935413
 20
3.5245670413
 30
0.0
  0
SPLINE
  5
715
100
AcDbEntity
  8
218_STAMPATO
100
AcDbSpline
 62
250
  6
CONTINUOUS
 70
0
 71
3
 72
15
 73
11
 74
0
 42
0.0000001
 43
0.0000001
 44
0.0000000001
 40
0.0
 40
0.0
 40
0.0
 40
0.0
 40
0.1248833444
 40
0.2498576094
 40
0.3749072247
 40
0.4999999733
 40
0.6250927198
 40
0.7501423395
 40
0.875116594
 40
1.0
 40
1.0
 40
1.0
 40
1.0
 10
-0.3973704996
 20
3.4780969359
 30
0.0
 10
-0.3744210453
 20
3.4473556439
 30
0.0
 10
-0.3213402425
 20
3.390836005
 30
0.0
 10
-0.2246241305
 20
3.3265092204
 30
0.0
 10
-0.1155324926
 20
3.2861889767
 30
0.0
 10
-0.0000000405
 20
3.2724604853
 30
0.0
 10
0.1155324042
 20
3.2861889931
 30
0.0
 10
0.2246240585
 20
3.3265092163
 30
0.0
 10
0.3213401308
 20
3.3908360394
 30
0.0
 10
0.3744211099
 20
3.4473555733
 30
0.0
 10
0.3973704448
 20
3.478096978
 30
0.0
  0
SPLINE
  5
716
100
AcDbEntity
  8
218_STAMPATO
100
AcDbSpline
 62
250
  6
CONTINUOUS
 70
0
 71
3
 72
15
 73
11
 74
0
 42
0.0000001
 43
0.0000001
 44
0.0000000001
 40
0.0
 40
0.0
 40
0.0
 40
0.0
 40
0.1250044459
 40
0.2500056971
 40
0.3750036862
 40
0.4999999755
 40
0.6249962622
 40
0.7499942531
 40
0.8749954897
 40
1.0
 40
1.0
 40
1.0
 40
1.0
 10
-0.6357929197
 20
3.2978993479
 30
0.0
 10
-0.5988570084
 20
3.2490298119
 30
0.0
 10
-0.5134899275
 20
3.1593977856
 30
0.0
 10
-0.3584438211
 20
3.0578708516
 30
0.0
 10
-0.1841704862
 20
2.994506113
 30
0.0
 10
-0.0000000561
 20
2.9729850925
 30
0.0
 10
0.184170356
 20
2.9945061406
 30
0.0
 10
0.3584437289
 20
3.0578708388
 30
0.0
 10
0.5134896995
 20
3.1593978995
 30
0.0
 10
0.5988572255
 20
3.2490296061
 30
0.0
 10
0.6357929203
 20
3.2978993455
 30
0.0
  0
SPLINE
  5
717
100
AcDbEntity
  8
218_STAMPATO
100
AcDbSpline
 62
250
  6
CONTINUOUS
 70
0
 71
3
 72
15
 73
11
 74
0
 42
0.0000001
 43
0.0000001
 44
0.0000000001
 40
0.0
 40
0.0
 40
0.0
 40
0.0
 40
0.1250019115
 40
0.2500026628
 40
0.3750016977
 40
0.4999999801
 40
0.624998261
 40
0.7499972951
 40
0.8749980382
 40
1.0
 40
1.0
 40
1.0
 40
1.0
 10
-5.827993541
 20
3.5245670415
 30
0.0
 10
-5.7909404433
 20
3.4855358479
 30
0.0
 10
-5.7087230759
 20
3.4147373329
 30
0.0
 10
-5.5667732658
 20
3.3356183332
 30
0.0
 10
-5.4117252783
 20
3.2867074082
 30
0.0
 10
-5.2500000386
 20
3.2701713733
 30
0.0
 10
-5.0882748111
 20
3.2867074317
 30
0.0
 10
-4.9332268015
 20
3.3356183282
 30
0.0
 10
-4.7912770728
 20
3.4147374312
 30
0.0
 10
-4.7090594436
 20
3.4855357106
 30
0.0
 10
-4.6720064587
 20
3.5245670412
 30
0.0
  0
SPLINE
  5
718
100
AcDbEntity
  8
218_STAMPATO
100
AcDbSpline
 62
250
  6
CONTINUOUS
 70
0
 71
3
 72
15
 73
11
 74
0
 42
0.0000001
 43
0.0000001
 44
0.0000000001
 40
0.0
 40
0.0
 40
0.0
 40
0.0
 40
0.1249233315
 40
0.2499082733
 40
0.3749409019
 40
0.499999978
 40
0.6250590533
 40
0.750091683
 40
0.8750766195
 40
1.0
 40
1.0
 40
1.0
 40
1.0
 10
-5.6112459102
 20
3.7303262772
 30
0.0
 10
-5.5881761987
 20
3.7057926189
 30
0.0
 10
-5.5369478877
 20
3.6612143134
 30
0.0
 10
-5.4483182941
 20
3.6112461765
 30
0.0
 10
-5.3513092039
 20
3.5802761623
 30
0.0
 10
-5.2500000284
 20
3.5697904815
 30
0.0
 10
-5.1486908578
 20
3.5802761754
 30
0.0
 10
-5.0516817587
 20
3.611246177
 30
0.0
 10
-4.9630521867
 20
3.6612143465
 30
0.0
 10
-4.911823779
 20
3.7057925808
 30
0.0
 10
-4.8887541287
 20
3.7303263149
 30
0.0
  0
SPLINE
  5
719
100
AcDbEntity
  8
218_STAMPATO
100
AcDbSpline
 62
7
  6
CONTINUOUS
 70
0
 71
3
 72
10
 73
6
 74
0
 42
0.0000001
 43
0.0000001
 44
0.0000000001
 40
0.0
 40
0.0
 40
0.0
 40
0.0
 40
0.1587622762
 40
0.3804550719
 40
1.0
 40
1.0
 40
1.0
 40
1.0
 10
-10.7801856955
 20
2.6349999674
 30
0.0
 10
-10.780524784
 20
2.6396653785
 30
0.0
 10
-10.7811186656
 20
2.6508607362
 30
0.0
 10
-10.7822251696
 20
2.6803036425
 30
0.0
 10
-10.7827775511
 20
2.7050849075
 30
0.0
 10
-10.7831390036
 20
2.723335389
 30
0.0
  0
SPLINE
  5
71A
100
AcDbEntity
  8
218_STAMPATO
100
AcDbSpline
 62
250
  6
CONTINUOUS
 70
0
 71
3
 72
24
 73
20
 74
0
 42
0.0000001
 43
0.0000001
 44
0.0000000001
 40
0.0
 40
0.0
 40
0.0
 40
0.0
 40
0.1491950673
 40
0.2952237194
 40
0.436393089
 40
0.5048879781
 40
0.5718663693
 40
0.6372210877
 40
0.7007916959
 40
0.7623164654
 40
0.8213443801
 40
0.8770629346
 40
0.9032461238
 40
0.927932334
 40
0.9506842161
 40
0.9708798861
 40
0.9876661398
 40
0.9944567206
 40
1.0
 40
1.0
 40
1.0
 40
1.0
 10
-9.6032366926
 20
4.1551052203
 30
0.0
 10
-9.6803702484
 20
4.0968806031
 30
0.0
 10
-9.828497435
 20
3.9755437824
 30
0.0
 10
-10.0322414133
 20
3.7791895325
 30
0.0
 10
-10.1850983005
 20
3.606447825
 30
0.0
 10
-10.2958729188
 20
3.465547348
 30
0.0
 10
-10.3724123776
 20
3.3603209261
 30
0.0
 10
-10.4433038187
 20
3.2550395252
 30
0.0
 10
-10.5086212481
 20
3.1503567081
 30
0.0
 10
-10.5684115167
 20
3.0471361347
 30
0.0
 10
-10.6226572914
 20
2.9466466062
 30
0.0
 10
-10.6639370799
 20
2.8652161718
 30
0.0
 10
-10.6943025496
 20
2.8032086267
 30
0.0
 10
-10.7150391149
 20
2.760264633
 30
0.0
 10
-10.7340634954
 20
2.7207995745
 30
0.0
 10
-10.7511479094
 20
2.686084823
 30
0.0
 10
-10.7642220084
 20
2.6609118894
 30
0.0
 10
-10.7737056158
 20
2.644603892
 30
0.0
 10
-10.7780712069
 20
2.6379020411
 30
0.0
 10
-10.7801856955
 20
2.6349999674
 30
0.0
  0
SPLINE
  5
71B
100
AcDbEntity
  8
218_STAMPATO
100
AcDbSpline
 62
250
  6
CONTINUOUS
 70
0
 71
3
 72
40
 73
36
 74
0
 42
0.0000001
 43
0.0000001
 44
0.0000000001
 40
0.0
 40
0.0
 40
0.0
 40
0.0
 40
0.1472947501
 40
0.2924678027
 40
0.3639402793
 40
0.434568321
 40
0.50429869
 40
0.5730678345
 40
0.640779227
 40
0.7072707727
 40
0.7399769912
 40
0.7722531161
 40
0.8040196757
 40
0.8351628178
 40
0.8655124656
 40
0.8948040852
 40
0.9226067513
 40
0.9357362164
 40
0.9481783871
 40
0.9597443499
 40
0.970180748
 40
0.9748744526
 40
0.979153961
 40
0.9829657022
 40
0.9862543441
 40
0.9889680508
 40
0.9910674861
 40
0.9925471384
 40
0.9935073797
 40
0.993918153
 40
0.9943803076
 40
0.9949511119
 40
0.9956593875
 40
0.9975263505
 40
1.0
 40
1.0
 40
1.0
 40
1.0
 10
-9.7832913085
 20
4.3936354788
 30
0.0
 10
-9.8528962837
 20
4.325331175
 30
0.0
 10
-9.9850815169
 20
4.1834314347
 30
0.0
 10
-10.1338869116
 20
3.9935595181
 30
0.0
 10
-10.242085514
 20
3.837087625
 30
0.0
 10
-10.3174234112
 20
3.7187509965
 30
0.0
 10
-10.3874859103
 20
3.5992930144
 30
0.0
 10
-10.4524213872
 20
3.4791656651
 30
0.0
 10
-10.5123781615
 20
3.3588729347
 30
0.0
 10
-10.5585612843
 20
3.2584588922
 30
0.0
 10
-10.5931949086
 20
3.1785967774
 30
0.0
 10
-10.6178681558
 20
3.1194816162
 30
0.0
 10
-10.6413886977
 20
3.0610129439
 30
0.0
 10
-10.6637539153
 20
3.0034593058
 30
0.0
 10
-10.6849446116
 20
2.9472111282
 30
0.0
 10
-10.7049120189
 20
2.8928680506
 30
0.0
 10
-10.7207327876
 20
2.849148778
 30
0.0
 10
-10.7327882254
 20
2.815930643
 30
0.0
 10
-10.741251158
 20
2.79284475
 30
0.0
 10
-10.7492511906
 20
2.7714887965
 30
0.0
 10
-10.7556644882
 20
2.7550171102
 30
0.0
 10
-10.760550427
 20
2.7431310435
 30
0.0
 10
-10.7639026301
 20
2.7353577069
 30
0.0
 10
-10.7670486393
 20
2.7285109363
 30
0.0
 10
-10.7699694084
 20
2.7227030493
 30
0.0
 10
-10.7726169968
 20
2.7180387162
 30
0.0
 10
-10.7750149427
 20
2.7146053736
 30
0.0
 10
-10.7770460139
 20
2.7124112361
 30
0.0
 10
-10.7789114136
 20
2.7115417388
 30
0.0
 10
-10.780119005
 20
2.7119206993
 30
0.0
 10
-10.7808328516
 20
2.7125868769
 30
0.0
 10
-10.7814313192
 20
2.7135818927
 30
0.0
 10
-10.7821769391
 20
2.7155341191
 30
0.0
 10
-10.7828039298
 20
2.7188360589
 30
0.0
 10
-10.7830479824
 20
2.7216999272
 30
0.0
 10
-10.7831390036
 20
2.72333515
 30
0.0
  0
SPLINE
  5
71C
100
AcDbEntity
  8
218_STAMPATO
100
AcDbSpline
 62
250
  6
CONTINUOUS
 70
0
 71
3
 72
15
 73
11
 74
0
 42
0.0000001
 43
0.0000001
 44
0.0000000001
 40
0.0
 40
0.0
 40
0.0
 40
0.0
 40
0.1250016157
 40
0.2500019229
 40
0.3750012421
 40
0.5000000215
 40
0.6249988005
 40
0.7499981189
 40
0.8749984236
 40
1.0
 40
1.0
 40
1.0
 40
1.0
 10
-5.1106384672
 20
4.1119145381
 30
0.0
 10
-5.1198189718
 20
4.1029291984
 30
0.0
 10
-5.1399653723
 20
4.086684227
 30
0.0
 10
-5.1742572111
 20
4.068601223
 30
0.0
 10
-5.211403056
 20
4.0574532132
 30
0.0
 10
-5.2500000032
 20
4.0536893038
 30
0.0
 10
-5.2885969567
 20
4.0574532134
 30
0.0
 10
-5.32574278
 20
4.0686012448
 30
0.0
 10
-5.3600346859
 20
4.0866841847
 30
0.0
 10
-5.3801808825
 20
4.102929353
 30
0.0
 10
-5.3893615327
 20
4.1119145382
 30
0.0
  0
SPLINE
  5
71D
100
AcDbEntity
  8
218_STAMPATO
100
AcDbSpline
 62
250
  6
CONTINUOUS
 70
0
 71
3
 72
15
 73
11
 74
0
 42
0.0000001
 43
0.0000001
 44
0.0000000001
 40
0.0
 40
0.0
 40
0.0
 40
0.0
 40
0.125003075
 40
0.2500039731
 40
0.3750025776
 40
0.5000000154
 40
0.6249974542
 40
0.7499960614
 40
0.8749969529
 40
1.0
 40
1.0
 40
1.0
 40
1.0
 10
0.1532977031
 20
3.8557093961
 30
0.0
 10
0.1439995711
 20
3.8445092096
 30
0.0
 10
0.1228922239
 20
3.8240637475
 30
0.0
 10
0.0853921628
 20
3.8010385307
 30
0.0
 10
0.0437560382
 20
3.7867268657
 30
0.0
 10
-0.0000000094
 20
3.7818758462
 30
0.0
 10
-0.0437560648
 20
3.7867268534
 30
0.0
 10
-0.0853921725
 20
3.8010385264
 30
0.0
 10
-0.1228922974
 20
3.8240636971
 30
0.0
 10
-0.1439994413
 20
3.8445093221
 30
0.0
 10
-0.1532977029
 20
3.855709397
 30
0.0
  0
SPLINE
  5
71E
100
AcDbEntity
  8
218_STAMPATO
100
AcDbSpline
 62
250
  6
CONTINUOUS
 70
0
 71
3
 72
15
 73
11
 74
0
 42
0.0000001
 43
0.0000001
 44
0.0000000001
 40
0.0
 40
0.0
 40
0.0
 40
0.0
 40
0.1250016157
 40
0.2500019229
 40
0.3750012421
 40
0.5000000215
 40
0.6249988005
 40
0.7499981189
 40
0.8749984236
 40
1.0
 40
1.0
 40
1.0
 40
1.0
 10
5.3893615328
 20
4.1119145382
 30
0.0
 10
5.3801810282
 20
4.1029291984
 30
0.0
 10
5.3600346277
 20
4.0866842271
 30
0.0
 10
5.3257427889
 20
4.0686012231
 30
0.0
 10
5.288596944
 20
4.0574532133
 30
0.0
 10
5.2499999968
 20
4.0536893039
 30
0.0
 10
5.2114030433
 20
4.0574532135
 30
0.0
 10
5.17425722
 20
4.0686012449
 30
0.0
 10
5.1399653141
 20
4.0866841848
 30
0.0
 10
5.1198191175
 20
4.1029293531
 30
0.0
 10
5.1106384673
 20
4.1119145383
 30
0.0
  0
SPLINE
  5
71F
100
AcDbEntity
  8
218_STAMPATO
100
AcDbSpline
 62
250
  6
CONTINUOUS
 70
0
 71
3
 72
24
 73
20
 74
0
 42
0.0000001
 43
0.0000001
 44
0.0000000001
 40
0.0
 40
0.0
 40
0.0
 40
0.0
 40
0.0055431139
 40
0.0123337124
 40
0.0291199955
 40
0.0493157471
 40
0.0720676514
 40
0.0967537709
 40
0.1229368011
 40
0.1786551865
 40
0.237682904
 40
0.2992073623
 40
0.362777865
 40
0.4281322338
 40
0.4951102947
 40
0.5636054063
 40
0.7047751807
 40
0.8508043299
 40
1.0
 40
1.0
 40
1.0
 40
1.0
 10
10.7801857086
 20
2.6350001476
 30
0.0
 10
10.7780712959
 20
2.6379021435
 30
0.0
 10
10.7737055909
 20
2.6446038013
 30
0.0
 10
10.7642221133
 20
2.6609117932
 30
0.0
 10
10.7511478682
 20
2.6860847324
 30
0.0
 10
10.7340634593
 20
2.7207995847
 30
0.0
 10
10.7150391028
 20
2.7602646588
 30
0.0
 10
10.6943026347
 20
2.8032085322
 30
0.0
 10
10.6639372752
 20
2.8652158234
 30
0.0
 10
10.6226576499
 20
2.9466459505
 30
0.0
 10
10.5684121573
 20
3.0471351238
 30
0.0
 10
10.5086220216
 20
3.1503553039
 30
0.0
 10
10.4433049524
 20
3.2550377477
 30
0.0
 10
10.3724138616
 20
3.3603187604
 30
0.0
 10
10.2958746499
 20
3.465544982
 30
0.0
 10
10.1851000872
 20
3.6064457306
 30
0.0
 10
10.0322428165
 20
3.7791880527
 30
0.0
 10
9.8284982591
 20
3.9755430771
 30
0.0
 10
9.6803705492
 20
4.0968803657
 30
0.0
 10
9.6032366926
 20
4.1551052203
 30
0.0
  0
SPLINE
  5
720
100
AcDbEntity
  8
218_STAMPATO
100
AcDbSpline
 62
7
  6
CONTINUOUS
 70
0
 71
3
 72
10
 73
6
 74
0
 42
0.0000001
 43
0.0000001
 44
0.0000000001
 40
0.0
 40
0.0
 40
0.0
 40
0.0
 40
0.6195441368
 40
0.8412366734
 40
1.0
 40
1.0
 40
1.0
 40
1.0
 10
10.7831390036
 20
2.7233353961
 30
0.0
 10
10.7827775494
 20
2.7050849739
 30
0.0
 10
10.7822251786
 20
2.680303788
 30
0.0
 10
10.7811186682
 20
2.6508609401
 30
0.0
 10
10.7805247988
 20
2.6396655804
 30
0.0
 10
10.7801857086
 20
2.6350001476
 30
0.0
  0
SPLINE
  5
721
100
AcDbEntity
  8
218_STAMPATO
100
AcDbSpline
 62
250
  6
CONTINUOUS
 70
0
 71
3
 72
40
 73
36
 74
0
 42
0.0000001
 43
0.0000001
 44
0.0000000001
 40
0.0
 40
0.0
 40
0.0
 40
0.0
 40
0.0024736517
 40
0.0043406249
 40
0.0050488973
 40
0.0056197154
 40
0.0060818596
 40
0.0064926353
 40
0.0074528923
 40
0.0089325634
 40
0.0110320981
 40
0.0137458238
 40
0.0170345568
 40
0.0208463219
 40
0.025125959
 40
0.0298196341
 40
0.0402561705
 40
0.0518224255
 40
0.0642647087
 40
0.0773939104
 40
0.1051965318
 40
0.1344880024
 40
0.1648375374
 40
0.1959806174
 40
0.2277471142
 40
0.2600231
 40
0.2927292265
 40
0.3592206194
 40
0.4269317788
 40
0.4957005468
 40
0.5654309659
 40
0.6360590686
 40
0.7075316616
 40
0.8527049535
 40
1.0
 40
1.0
 40
1.0
 40
1.0
 10
10.7831390036
 20
2.72333515
 30
0.0
 10
10.7830479819
 20
2.7216999258
 30
0.0
 10
10.7828039138
 20
2.7188360563
 30
0.0
 10
10.7821769506
 20
2.715534092
 30
0.0
 10
10.781431272
 20
2.7135818823
 30
0.0
 10
10.7808328551
 20
2.7125868303
 30
0.0
 10
10.7801189479
 20
2.7119206994
 30
0.0
 10
10.7789113338
 20
2.711541826
 30
0.0
 10
10.7770459328
 20
2.7124113128
 30
0.0
 10
10.7750147699
 20
2.714605511
 30
0.0
 10
10.7726168945
 20
2.718039008
 30
0.0
 10
10.7699691658
 20
2.7227034173
 30
0.0
 10
10.7670484325
 20
2.7285114246
 30
0.0
 10
10.7639023298
 20
2.7353583277
 30
0.0
 10
10.7605501513
 20
2.7431317642
 30
0.0
 10
10.7556641017
 20
2.7550179541
 30
0.0
 10
10.7492507285
 20
2.7714898967
 30
0.0
 10
10.7412506377
 20
2.7928462112
 30
0.0
 10
10.7327877414
 20
2.8159322162
 30
0.0
 10
10.7207321459
 20
2.8491501549
 30
0.0
 10
10.7049116365
 20
2.8928691982
 30
0.0
 10
10.6849442525
 20
2.9472120665
 30
0.0
 10
10.6637536248
 20
3.0034600387
 30
0.0
 10
10.6413884548
 20
3.0610135243
 30
0.0
 10
10.6178680005
 20
3.1194820416
 30
0.0
 10
10.5931947907
 20
3.1785970052
 30
0.0
 10
10.5585613211
 20
3.2584589071
 30
0.0
 10
10.5123782719
 20
3.3588726322
 30
0.0
 10
10.4524217484
 20
3.479164917
 30
0.0
 10
10.3874865275
 20
3.5992919793
 30
0.0
 10
10.3174241211
 20
3.7187498073
 30
0.0
 10
10.2420862041
 20
3.8370865962
 30
0.0
 10
10.1338874822
 20
3.9935587355
 30
0.0
 10
9.9850818794
 20
4.1834310297
 30
0.0
 10
9.852896409
 20
4.3253310269
 30
0.0
 10
9.7832913085
 20
4.3936354788
 30
0.0
  0
SPLINE
  5
722
100
AcDbEntity
  8
218_STAMPATO
100
AcDbSpline
 62
7
  6
CONTINUOUS
 70
0
 71
3
 72
10
 73
6
 74
0
 42
0.0000001
 43
0.0000001
 44
0.0000000001
 40
0.0
 40
0.0
 40
0.0
 40
0.0
 40
0.1587632733
 40
0.3804558182
 40
1.0
 40
1.0
 40
1.0
 40
1.0
 10
10.7801857079
 20
0.7649998628
 30
0.0
 10
10.7805247979
 20
0.760334431
 30
0.0
 10
10.781118668
 20
0.7491390714
 30
0.0
 10
10.7822251781
 20
0.7196962202
 30
0.0
 10
10.7827775495
 20
0.69491503
 30
0.0
 10
10.7831390036
 20
0.6766646044
 30
0.0
  0
SPLINE
  5
723
100
AcDbEntity
  8
218_STAMPATO
100
AcDbSpline
 62
250
  6
CONTINUOUS
 70
0
 71
3
 72
24
 73
20
 74
0
 42
0.0000001
 43
0.0000001
 44
0.0000000001
 40
0.0
 40
0.0
 40
0.0
 40
0.0
 40
0.1491956469
 40
0.2952247756
 40
0.4363945329
 40
0.5048896368
 40
0.571867703
 40
0.6372220823
 40
0.7007925985
 40
0.7623170706
 40
0.8213447973
 40
0.8770631942
 40
0.9032462269
 40
0.9279323451
 40
0.950684246
 40
0.9708799953
 40
0.987666278
 40
0.9944568764
 40
1.0
 40
1.0
 40
1.0
 40
1.0
 10
9.6032366926
 20
-0.7551052203
 30
0.0
 10
9.6803705381
 20
-0.6968803753
 30
0.0
 10
9.8284982267
 20
-0.5755431043
 30
0.0
 10
10.0322427612
 20
-0.3791881111
 30
0.0
 10
10.1851000168
 20
-0.2064458136
 30
0.0
 10
10.2958745786
 20
-0.0655450795
 30
0.0
 10
10.3724137965
 20
0.0396811448
 30
0.0
 10
10.4433049021
 20
0.1449621711
 30
0.0
 10
10.5086219861
 20
0.2496446353
 30
0.0
 10
10.5684121336
 20
0.3528648365
 30
0.0
 10
10.6226576383
 20
0.4533540291
 30
0.0
 10
10.6639372704
 20
0.53478417
 30
0.0
 10
10.694302635
 20
0.5967914682
 30
0.0
 10
10.7150391036
 20
0.63973534
 30
0.0
 10
10.7340634584
 20
0.6792004103
 30
0.0
 10
10.7511478668
 20
0.7139152583
 30
0.0
 10
10.7642221063
 20
0.7390881989
 30
0.0
 10
10.7737055918
 20
0.7553961929
 30
0.0
 10
10.7780712907
 20
0.7620978622
 30
0.0
 10
10.7801857079
 20
0.7649998628
 30
0.0
  0
SPLINE
  5
724
100
AcDbEntity
  8
218_STAMPATO
100
AcDbSpline
 62
250
  6
CONTINUOUS
 70
0
 71
3
 72
40
 73
36
 74
0
 42
0.0000001
 43
0.0000001
 44
0.0000000001
 40
0.0
 40
0.0
 40
0.0
 40
0.0
 40
0.1472950365
 40
0.2924683196
 40
0.3639409089
 40
0.4345690084
 40
0.5042994262
 40
0.5730682031
 40
0.6407793726
 40
0.7072707783
 40
0.7399769099
 40
0.7722529007
 40
0.8040194002
 40
0.8351624845
 40
0.8655120275
 40
0.8948034999
 40
0.9226061176
 40
0.9357353258
 40
0.9481776064
 40
0.9597438506
 40
0.9701803816
 40
0.9748740582
 40
0.9791536897
 40
0.9829654538
 40
0.9862541829
 40
0.9889679078
 40
0.9910674386
 40
0.9925471089
 40
0.9935073653
 40
0.993918141
 40
0.9943802855
 40
0.9949511031
 40
0.9956593756
 40
0.9975263485
 40
1.0
 40
1.0
 40
1.0
 40
1.0
 10
9.7832913085
 20
-0.9936354788
 30
0.0
 10
9.8528964105
 20
-0.9253310378
 30
0.0
 10
9.9850818645
 20
-0.7834310412
 30
0.0
 10
10.1338874627
 20
-0.5935587628
 30
0.0
 10
10.24208618
 20
-0.4370866326
 30
0.0
 10
10.3174240959
 20
-0.3187498491
 30
0.0
 10
10.3874865048
 20
-0.199292019
 30
0.0
 10
10.4524217335
 20
-0.0791649475
 30
0.0
 10
10.5123782673
 20
0.0411273559
 30
0.0
 10
10.5585613235
 20
0.1415410983
 30
0.0
 10
10.5931947992
 20
0.2214030142
 30
0.0
 10
10.6178680112
 20
0.2805179862
 30
0.0
 10
10.6413884693
 20
0.3389865106
 30
0.0
 10
10.663753643
 20
0.3965400056
 30
0.0
 10
10.6849442724
 20
0.4527879872
 30
0.0
 10
10.7049116574
 20
0.5071308594
 30
0.0
 10
10.7207321726
 20
0.5508499039
 30
0.0
 10
10.7327877614
 20
0.5840678451
 30
0.0
 10
10.7412506572
 20
0.6071538455
 30
0.0
 10
10.7492507465
 20
0.6285101473
 30
0.0
 10
10.7556641176
 20
0.6449820802
 30
0.0
 10
10.7605501625
 20
0.6568682654
 30
0.0
 10
10.7639023422
 20
0.6646416977
 30
0.0
 10
10.7670484408
 20
0.6714885952
 30
0.0
 10
10.7699691756
 20
0.6772965974
 30
0.0
 10
10.7726168985
 20
0.6819610034
 30
0.0
 10
10.7750147765
 20
0.6853944945
 30
0.0
 10
10.7770459361
 20
0.6875886898
 30
0.0
 10
10.7789113369
 20
0.6884581777
 30
0.0
 10
10.7801189501
 20
0.6880793003
 30
0.0
 10
10.7808328549
 20
0.6874131677
 30
0.0
 10
10.7814312739
 20
0.6864181172
 30
0.0
 10
10.78217695
 20
0.6844659068
 30
0.0
 10
10.7828039145
 20
0.6811639436
 30
0.0
 10
10.7830479819
 20
0.6783000741
 30
0.0
 10
10.7831390036
 20
0.67666485
 30
0.0
  0
SPLINE
  5
725
100
AcDbEntity
  8
218_STAMPATO
100
AcDbSpline
 62
250
  6
CONTINUOUS
 70
0
 71
3
 72
15
 73
11
 74
0
 42
0.0000001
 43
0.0000001
 44
0.0000000001
 40
0.0
 40
0.0
 40
0.0
 40
0.0
 40
0.1250016157
 40
0.2500019229
 40
0.3750012421
 40
0.5000000215
 40
0.6249988005
 40
0.7499981189
 40
0.8749984236
 40
1.0
 40
1.0
 40
1.0
 40
1.0
 10
5.1106384672
 20
-0.7119145381
 30
0.0
 10
5.1198189718
 20
-0.7029291984
 30
0.0
 10
5.1399653723
 20
-0.686684227
 30
0.0
 10
5.1742572111
 20
-0.668601223
 30
0.0
 10
5.211403056
 20
-0.6574532132
 30
0.0
 10
5.2500000032
 20
-0.6536893038
 30
0.0
 10
5.2885969567
 20
-0.6574532134
 30
0.0
 10
5.32574278
 20
-0.6686012448
 30
0.0
 10
5.3600346859
 20
-0.6866841847
 30
0.0
 10
5.3801808825
 20
-0.702929353
 30
0.0
 10
5.3893615327
 20
-0.7119145382
 30
0.0
  0
SPLINE
  5
726
100
AcDbEntity
  8
218_STAMPATO
100
AcDbSpline
 62
250
  6
CONTINUOUS
 70
0
 71
3
 72
15
 73
11
 74
0
 42
0.0000001
 43
0.0000001
 44
0.0000000001
 40
0.0
 40
0.0
 40
0.0
 40
0.0
 40
0.125003075
 40
0.2500039731
 40
0.3750025776
 40
0.5000000154
 40
0.6249974542
 40
0.7499960614
 40
0.8749969529
 40
1.0
 40
1.0
 40
1.0
 40
1.0
 10
-0.1532977031
 20
-0.4557093961
 30
0.0
 10
-0.1439995711
 20
-0.4445092096
 30
0.0
 10
-0.1228922239
 20
-0.4240637475
 30
0.0
 10
-0.0853921628
 20
-0.4010385307
 30
0.0
 10
-0.0437560382
 20
-0.3867268657
 30
0.0
 10
0.0000000094
 20
-0.3818758462
 30
0.0
 10
0.0437560648
 20
-0.3867268534
 30
0.0
 10
0.0853921725
 20
-0.4010385264
 30
0.0
 10
0.1228922974
 20
-0.4240636971
 30
0.0
 10
0.1439994413
 20
-0.4445093221
 30
0.0
 10
0.1532977029
 20
-0.455709397
 30
0.0
  0
SPLINE
  5
727
100
AcDbEntity
  8
218_STAMPATO
100
AcDbSpline
 62
250
  6
CONTINUOUS
 70
0
 71
3
 72
15
 73
11
 74
0
 42
0.0000001
 43
0.0000001
 44
0.0000000001
 40
0.0
 40
0.0
 40
0.0
 40
0.0
 40
0.1250016157
 40
0.2500019229
 40
0.3750012421
 40
0.5000000215
 40
0.6249988005
 40
0.7499981189
 40
0.8749984236
 40
1.0
 40
1.0
 40
1.0
 40
1.0
 10
-5.3893615328
 20
-0.7119145382
 30
0.0
 10
-5.3801810282
 20
-0.7029291984
 30
0.0
 10
-5.3600346277
 20
-0.6866842271
 30
0.0
 10
-5.3257427889
 20
-0.6686012231
 30
0.0
 10
-5.288596944
 20
-0.6574532133
 30
0.0
 10
-5.2499999968
 20
-0.6536893039
 30
0.0
 10
-5.2114030433
 20
-0.6574532135
 30
0.0
 10
-5.17425722
 20
-0.6686012449
 30
0.0
 10
-5.1399653141
 20
-0.6866841848
 30
0.0
 10
-5.1198191175
 20
-0.7029293531
 30
0.0
 10
-5.1106384673
 20
-0.7119145383
 30
0.0
  0
SPLINE
  5
728
100
AcDbEntity
  8
218_STAMPATO
100
AcDbSpline
 62
250
  6
CONTINUOUS
 70
0
 71
3
 72
24
 73
20
 74
0
 42
0.0000001
 43
0.0000001
 44
0.0000000001
 40
0.0
 40
0.0
 40
0.0
 40
0.0
 40
0.0055432788
 40
0.0123338598
 40
0.029120114
 40
0.0493157846
 40
0.0720676662
 40
0.0967538743
 40
0.1229370617
 40
0.1786556157
 40
0.2376835288
 40
0.299208297
 40
0.3627789064
 40
0.4281336221
 40
0.4951120124
 40
0.5636069026
 40
0.7047762747
 40
0.8508049301
 40
1.0
 40
1.0
 40
1.0
 40
1.0
 10
-10.7801856956
 20
0.7650000319
 30
0.0
 10
-10.7780712073
 20
0.7620979585
 30
0.0
 10
-10.7737056157
 20
0.7553961082
 30
0.0
 10
-10.7642220086
 20
0.7390881106
 30
0.0
 10
-10.7511479085
 20
0.7139151766
 30
0.0
 10
-10.7340634947
 20
0.6792004246
 30
0.0
 10
-10.7150391153
 20
0.6397353669
 30
0.0
 10
-10.6943025513
 20
0.5967913758
 30
0.0
 10
-10.6639370825
 20
0.5347838334
 30
0.0
 10
-10.6226572955
 20
0.4533534011
 30
0.0
 10
-10.5684115225
 20
0.3528638742
 30
0.0
 10
-10.5086212535
 20
0.2496433023
 30
0.0
 10
-10.4433038263
 20
0.1449604861
 30
0.0
 10
-10.3724123859
 20
0.0396790867
 30
0.0
 10
-10.295872929
 20
-0.0655473345
 30
0.0
 10
-10.1850983103
 20
-0.2064478134
 30
0.0
 10
-10.0322414207
 20
-0.3791895246
 30
0.0
 10
-9.8284974392
 20
-0.575543779
 30
0.0
 10
-9.6803702493
 20
-0.6968806015
 30
0.0
 10
-9.6032366926
 20
-0.7551052203
 30
0.0
  0
SPLINE
  5
729
100
AcDbEntity
  8
218_STAMPATO
100
AcDbSpline
 62
7
  6
CONTINUOUS
 70
0
 71
3
 72
10
 73
6
 74
0
 42
0.0000001
 43
0.0000001
 44
0.0000000001
 40
0.0
 40
0.0
 40
0.0
 40
0.0
 40
0.6195449248
 40
0.841237719
 40
1.0
 40
1.0
 40
1.0
 40
1.0
 10
-10.7831390036
 20
0.6766646108
 30
0.0
 10
-10.782777551
 20
0.6949150921
 30
0.0
 10
-10.7822251696
 20
0.7196963569
 30
0.0
 10
-10.7811186656
 20
0.749139263
 30
0.0
 10
-10.7805247841
 20
0.7603346207
 30
0.0
 10
-10.7801856956
 20
0.7650000319
 30
0.0
  0
SPLINE
  5
72A
100
AcDbEntity
  8
218_STAMPATO
100
AcDbSpline
 62
250
  6
CONTINUOUS
 70
0
 71
3
 72
40
 73
36
 74
0
 42
0.0000001
 43
0.0000001
 44
0.0000000001
 40
0.0
 40
0.0
 40
0.0
 40
0.0
 40
0.0024736496
 40
0.0043406125
 40
0.0050488881
 40
0.0056196926
 40
0.0060818471
 40
0.0064926204
 40
0.0074528618
 40
0.0089325142
 40
0.0110319503
 40
0.0137456571
 40
0.0170342995
 40
0.0208460409
 40
0.0251255501
 40
0.0298192545
 40
0.0402556536
 40
0.0518216187
 40
0.0642637904
 40
0.0773932528
 40
0.1051959168
 40
0.1344875347
 40
0.1648371825
 40
0.1959803243
 40
0.2277468831
 40
0.2600230068
 40
0.2927292255
 40
0.3592207717
 40
0.4269321625
 40
0.4957013055
 40
0.5654316748
 40
0.636059717
 40
0.7075321944
 40
0.8527052486
 40
1.0
 40
1.0
 40
1.0
 40
1.0
 10
-10.7831390036
 20
0.67666485
 30
0.0
 10
-10.7830479824
 20
0.6783000728
 30
0.0
 10
-10.7828039297
 20
0.6811639411
 30
0.0
 10
-10.7821769392
 20
0.6844658811
 30
0.0
 10
-10.7814313189
 20
0.6864181073
 30
0.0
 10
-10.7808328517
 20
0.6874131234
 30
0.0
 10
-10.7801190046
 20
0.6880793007
 30
0.0
 10
-10.778911413
 20
0.6884582606
 30
0.0
 10
-10.7770460133
 20
0.6875887632
 30
0.0
 10
-10.7750149414
 20
0.6853946255
 30
0.0
 10
-10.7726169961
 20
0.6819612818
 30
0.0
 10
-10.7699694067
 20
0.6772969482
 30
0.0
 10
-10.7670486379
 20
0.6714890605
 30
0.0
 10
-10.7639026282
 20
0.664642289
 30
0.0
 10
-10.7605504251
 20
0.6568689518
 30
0.0
 10
-10.7556644856
 20
0.6449828841
 30
0.0
 10
-10.7492511873
 20
0.6285111959
 30
0.0
 10
-10.7412511541
 20
0.6071552396
 30
0.0
 10
-10.7327882223
 20
0.5840693459
 30
0.0
 10
-10.7207327837
 20
0.5508512139
 30
0.0
 10
-10.7049120176
 20
0.507131945
 30
0.0
 10
-10.6849446107
 20
0.45278887
 30
0.0
 10
-10.6637539151
 20
0.3965406935
 30
0.0
 10
-10.6413886978
 20
0.3389870561
 30
0.0
 10
-10.6178681565
 20
0.2805183851
 30
0.0
 10
-10.5931949093
 20
0.2214032253
 30
0.0
 10
-10.5585612863
 20
0.1415411102
 30
0.0
 10
-10.5123781627
 20
0.0411270689
 30
0.0
 10
-10.4524213898
 20
-0.0791656602
 30
0.0
 10
-10.3874859141
 20
-0.1992930079
 30
0.0
 10
-10.3174234153
 20
-0.3187509896
 30
0.0
 10
-10.242085518
 20
-0.4370876193
 30
0.0
 10
-10.1338869144
 20
-0.5935595137
 30
0.0
 10
-9.9850815213
 20
-0.7834314354
 30
0.0
 10
-9.8528962781
 20
-0.9253311682
 30
0.0
 10
-9.7832913085
 20
-0.9936354788
 30
0.0
  0
SPLINE
  5
72B
100
AcDbEntity
  8
218_STAMPATO
100
AcDbSpline
 62
7
  6
CONTINUOUS
 70
0
 71
3
 72
10
 73
6
 74
0
 42
0.0000001
 43
0.0000001
 44
0.0000000001
 40
0.0
 40
0.0
 40
0.0
 40
0.0
 40
0.1587640691
 40
0.3804565208
 40
1.0
 40
1.0
 40
1.0
 40
1.0
 10
10.7801857197
 20
-13.0350003004
 30
0.0
 10
10.780524811
 20
-13.0396657475
 30
0.0
 10
10.7811186714
 20
-13.050861109
 30
0.0
 10
10.7822251852
 20
-13.0803039091
 30
0.0
 10
10.7827775461
 20
-13.1050850333
 30
0.0
 10
10.7831390036
 20
-13.1233354067
 30
0.0
  0
SPLINE
  5
72C
100
AcDbEntity
  8
218_STAMPATO
100
AcDbSpline
 62
250
  6
CONTINUOUS
 70
0
 71
3
 72
24
 73
20
 74
0
 42
0.0000001
 43
0.0000001
 44
0.0000000001
 40
0.0
 40
0.0
 40
0.0
 40
0.0
 40
0.149195902
 40
0.2952253479
 40
0.4363954864
 40
0.504890567
 40
0.5718686252
 40
0.6372231103
 40
0.7007935947
 40
0.7623179819
 40
0.8213457676
 40
0.8770639404
 40
0.903246902
 40
0.9279328917
 40
0.9506846053
 40
0.9708801896
 40
0.9876664186
 40
0.9944570259
 40
1.0
 40
1.0
 40
1.0
 40
1.0
 10
9.6032366926
 20
-14.5551052203
 30
0.0
 10
9.6803706641
 20
-14.4968802791
 30
0.0
 10
9.8284986186
 20
-14.375542767
 30
0.0
 10
10.0322435388
 20
-14.1791873093
 30
0.0
 10
10.1851009926
 20
-14.006444623
 30
0.0
 10
10.2958756278
 20
-13.8655436742
 30
0.0
 10
10.3724148101
 20
-13.7603173752
 30
0.0
 10
10.4433058593
 20
-13.6550362698
 30
0.0
 10
10.508622881
 20
-13.5503537868
 30
0.0
 10
10.568413035
 20
-13.447133641
 30
0.0
 10
10.6226583441
 20
-13.3466445367
 30
0.0
 10
10.6639379847
 20
-13.2652145789
 30
0.0
 10
10.6943031594
 20
-13.2032074986
 30
0.0
 10
10.7150395205
 20
-13.1602638566
 30
0.0
 10
10.734063762
 20
-13.1207990822
 30
0.0
 10
10.7511480065
 20
-13.0860844461
 30
0.0
 10
10.7642222188
 20
-13.0609116544
 30
0.0
 10
10.7737055764
 20
-13.0446037247
 30
0.0
 10
10.7780713711
 20
-13.0379022308
 30
0.0
 10
10.7801857197
 20
-13.0350003004
 30
0.0
  0
SPLINE
  5
72D
100
AcDbEntity
  8
218_STAMPATO
100
AcDbSpline
 62
250
  6
CONTINUOUS
 70
0
 71
3
 72
40
 73
36
 74
0
 42
0.0000001
 43
0.0000001
 44
0.0000000001
 40
0.0
 40
0.0
 40
0.0
 40
0.0
 40
0.1472951771
 40
0.2924686502
 40
0.3639413278
 40
0.4345695808
 40
0.5042999244
 40
0.5730687157
 40
0.6407799412
 40
0.7072712606
 40
0.7399774433
 40
0.7722534114
 40
0.8040198766
 40
0.8351629717
 40
0.8655124697
 40
0.8948038054
 40
0.9226062533
 40
0.9357354052
 40
0.9481774572
 40
0.9597435912
 40
0.9701801602
 40
0.974873818
 40
0.9791535354
 40
0.9829653231
 40
0.9862541013
 40
0.9889678346
 40
0.9910674093
 40
0.992547091
 40
0.9935073503
 40
0.9939181259
 40
0.9943802632
 40
0.9949510913
 40
0.9956593579
 40
0.9975263448
 40
1.0
 40
1.0
 40
1.0
 40
1.0
 10
9.7832913085
 20
-14.7936354788
 30
0.0
 10
9.8528964754
 20
-14.7253309724
 30
0.0
 10
9.9850820658
 20
-14.5834308061
 30
0.0
 10
10.1338878166
 20
-14.3935582962
 30
0.0
 10
10.2420866497
 20
-14.2370859013
 30
0.0
 10
10.3174246153
 20
-14.1187490195
 30
0.0
 10
10.3874870043
 20
-13.9992911075
 30
0.0
 10
10.4524222046
 20
-13.8791640248
 30
0.0
 10
10.5123786796
 20
-13.7588717066
 30
0.0
 10
10.5585617901
 20
-13.6584579743
 30
0.0
 10
10.5931951493
 20
-13.5785960507
 30
0.0
 10
10.6178683911
 20
-13.5194810967
 30
0.0
 10
10.641388865
 20
-13.4610126121
 30
0.0
 10
10.6637539837
 20
-13.403459145
 30
0.0
 10
10.6849445376
 20
-13.3472112566
 30
0.0
 10
10.7049118517
 20
-13.292868607
 30
0.0
 10
10.7207323254
 20
-13.2491498036
 30
0.0
 10
10.7327877554
 20
-13.2159321252
 30
0.0
 10
10.7412506161
 20
-13.1928463908
 30
0.0
 10
10.7492506097
 20
-13.1714902667
 30
0.0
 10
10.7556639039
 20
-13.1550183679
 30
0.0
 10
10.7605500112
 20
-13.1431321336
 30
0.0
 10
10.7639021804
 20
-13.1353586312
 30
0.0
 10
10.7670483408
 20
-13.128511647
 30
0.0
 10
10.7699690595
 20
-13.1227035769
 30
0.0
 10
10.7726168485
 20
-13.1180391284
 30
0.0
 10
10.7750146952
 20
-13.1146055774
 30
0.0
 10
10.7770458856
 20
-13.1124113242
 30
0.0
 10
10.7789112857
 20
-13.1115418831
 30
0.0
 10
10.7801189131
 20
-13.1119206796
 30
0.0
 10
10.780832854
 20
-13.1125867892
 30
0.0
 10
10.7814312326
 20
-13.1135818636
 30
0.0
 10
10.7821769625
 20
-13.115534061
 30
0.0
 10
10.7828038948
 20
-13.1188360488
 30
0.0
 10
10.783047981
 20
-13.1216999236
 30
0.0
 10
10.7831390036
 20
-13.12333515
 30
0.0
  0
SPLINE
  5
72E
100
AcDbEntity
  8
218_STAMPATO
100
AcDbSpline
 62
250
  6
CONTINUOUS
 70
0
 71
3
 72
15
 73
11
 74
0
 42
0.0000001
 43
0.0000001
 44
0.0000000001
 40
0.0
 40
0.0
 40
0.0
 40
0.0
 40
0.1250016157
 40
0.2500019229
 40
0.3750012421
 40
0.5000000215
 40
0.6249988005
 40
0.7499981189
 40
0.8749984236
 40
1.0
 40
1.0
 40
1.0
 40
1.0
 10
5.1106384672
 20
-14.5119145381
 30
0.0
 10
5.1198189718
 20
-14.5029291984
 30
0.0
 10
5.1399653723
 20
-14.486684227
 30
0.0
 10
5.1742572111
 20
-14.468601223
 30
0.0
 10
5.211403056
 20
-14.4574532132
 30
0.0
 10
5.2500000032
 20
-14.4536893038
 30
0.0
 10
5.2885969567
 20
-14.4574532134
 30
0.0
 10
5.32574278
 20
-14.4686012448
 30
0.0
 10
5.3600346859
 20
-14.4866841847
 30
0.0
 10
5.3801808825
 20
-14.502929353
 30
0.0
 10
5.3893615327
 20
-14.5119145382
 30
0.0
  0
SPLINE
  5
72F
100
AcDbEntity
  8
218_STAMPATO
100
AcDbSpline
 62
250
  6
CONTINUOUS
 70
0
 71
3
 72
15
 73
11
 74
0
 42
0.0000001
 43
0.0000001
 44
0.0000000001
 40
0.0
 40
0.0
 40
0.0
 40
0.0
 40
0.125003075
 40
0.2500039731
 40
0.3750025776
 40
0.5000000154
 40
0.6249974542
 40
0.7499960614
 40
0.8749969529
 40
1.0
 40
1.0
 40
1.0
 40
1.0
 10
-0.1532977031
 20
-14.2557093961
 30
0.0
 10
-0.1439995711
 20
-14.2445092096
 30
0.0
 10
-0.1228922239
 20
-14.2240637475
 30
0.0
 10
-0.0853921628
 20
-14.2010385307
 30
0.0
 10
-0.0437560382
 20
-14.1867268657
 30
0.0
 10
0.0000000094
 20
-14.1818758462
 30
0.0
 10
0.0437560648
 20
-14.1867268534
 30
0.0
 10
0.0853921725
 20
-14.2010385264
 30
0.0
 10
0.1228922974
 20
-14.2240636971
 30
0.0
 10
0.1439994413
 20
-14.2445093221
 30
0.0
 10
0.1532977029
 20
-14.255709397
 30
0.0
  0
SPLINE
  5
730
100
AcDbEntity
  8
218_STAMPATO
100
AcDbSpline
 62
250
  6
CONTINUOUS
 70
0
 71
3
 72
15
 73
11
 74
0
 42
0.0000001
 43
0.0000001
 44
0.0000000001
 40
0.0
 40
0.0
 40
0.0
 40
0.0
 40
0.1250016157
 40
0.2500019229
 40
0.3750012421
 40
0.5000000215
 40
0.6249988005
 40
0.7499981189
 40
0.8749984236
 40
1.0
 40
1.0
 40
1.0
 40
1.0
 10
-5.3893615328
 20
-14.5119145382
 30
0.0
 10
-5.3801810282
 20
-14.5029291984
 30
0.0
 10
-5.3600346277
 20
-14.4866842271
 30
0.0
 10
-5.3257427889
 20
-14.4686012231
 30
0.0
 10
-5.288596944
 20
-14.4574532133
 30
0.0
 10
-5.2499999968
 20
-14.4536893039
 30
0.0
 10
-5.2114030433
 20
-14.4574532135
 30
0.0
 10
-5.17425722
 20
-14.4686012449
 30
0.0
 10
-5.1399653141
 20
-14.4866841848
 30
0.0
 10
-5.1198191175
 20
-14.5029293531
 30
0.0
 10
-5.1106384673
 20
-14.5119145383
 30
0.0
  0
SPLINE
  5
731
100
AcDbEntity
  8
218_STAMPATO
100
AcDbSpline
 62
250
  6
CONTINUOUS
 70
0
 71
3
 72
24
 73
20
 74
0
 42
0.0000001
 43
0.0000001
 44
0.0000000001
 40
0.0
 40
0.0
 40
0.0
 40
0.0
 40
0.0055431139
 40
0.0123337124
 40
0.0291199955
 40
0.0493157471
 40
0.0720676514
 40
0.0967537709
 40
0.1229368011
 40
0.1786551865
 40
0.237682904
 40
0.2992073622
 40
0.3627778649
 40
0.4281322336
 40
0.4951102946
 40
0.5636054062
 40
0.7047751807
 40
0.8508043298
 40
1.0
 40
1.0
 40
1.0
 40
1.0
 10
-10.7801857086
 20
-13.0350001476
 30
0.0
 10
-10.7780712959
 20
-13.0379021436
 30
0.0
 10
-10.7737055909
 20
-13.0446038012
 30
0.0
 10
-10.7642221133
 20
-13.0609117932
 30
0.0
 10
-10.7511478682
 20
-13.0860847324
 30
0.0
 10
-10.7340634593
 20
-13.1207995847
 30
0.0
 10
-10.7150391028
 20
-13.1602646588
 30
0.0
 10
-10.6943026347
 20
-13.2032085322
 30
0.0
 10
-10.6639372752
 20
-13.2652158234
 30
0.0
 10
-10.6226576499
 20
-13.3466459505
 30
0.0
 10
-10.5684121574
 20
-13.4471351237
 30
0.0
 10
-10.5086220217
 20
-13.5503553038
 30
0.0
 10
-10.4433049525
 20
-13.6550377476
 30
0.0
 10
-10.3724138617
 20
-13.7603187602
 30
0.0
 10
-10.29587465
 20
-13.8655449818
 30
0.0
 10
-10.1851000873
 20
-14.0064457305
 30
0.0
 10
-10.0322428166
 20
-14.1791880526
 30
0.0
 10
-9.8284982591
 20
-14.3755430771
 30
0.0
 10
-9.6803705492
 20
-14.4968803657
 30
0.0
 10
-9.6032366926
 20
-14.5551052203
 30
0.0
  0
SPLINE
  5
732
100
AcDbEntity
  8
218_STAMPATO
100
AcDbSpline
 62
7
  6
CONTINUOUS
 70
0
 71
3
 72
10
 73
6
 74
0
 42
0.0000001
 43
0.0000001
 44
0.0000000001
 40
0.0
 40
0.0
 40
0.0
 40
0.0
 40
0.6195441367
 40
0.8412366734
 40
1.0
 40
1.0
 40
1.0
 40
1.0
 10
-10.7831390036
 20
-13.1233353961
 30
0.0
 10
-10.7827775494
 20
-13.1050849739
 30
0.0
 10
-10.7822251786
 20
-13.080303788
 30
0.0
 10
-10.7811186682
 20
-13.0508609401
 30
0.0
 10
-10.7805247988
 20
-13.0396655804
 30
0.0
 10
-10.7801857086
 20
-13.0350001476
 30
0.0
  0
SPLINE
  5
733
100
AcDbEntity
  8
218_STAMPATO
100
AcDbSpline
 62
250
  6
CONTINUOUS
 70
0
 71
3
 72
40
 73
36
 74
0
 42
0.0000001
 43
0.0000001
 44
0.0000000001
 40
0.0
 40
0.0
 40
0.0
 40
0.0
 40
0.0024736517
 40
0.0043406249
 40
0.0050488973
 40
0.0056197154
 40
0.0060818596
 40
0.0064926353
 40
0.0074528923
 40
0.0089325634
 40
0.0110320981
 40
0.0137458238
 40
0.0170345568
 40
0.020846322
 40
0.025125959
 40
0.0298196341
 40
0.0402561705
 40
0.0518224255
 40
0.0642647087
 40
0.0773939104
 40
0.1051965319
 40
0.1344880024
 40
0.1648375375
 40
0.1959806175
 40
0.2277471142
 40
0.2600231
 40
0.2927292265
 40
0.3592206194
 40
0.4269317788
 40
0.4957005467
 40
0.5654309659
 40
0.6360590686
 40
0.7075316616
 40
0.8527049535
 40
1.0
 40
1.0
 40
1.0
 40
1.0
 10
-10.7831390036
 20
-13.12333515
 30
0.0
 10
-10.7830479819
 20
-13.1216999258
 30
0.0
 10
-10.7828039138
 20
-13.1188360563
 30
0.0
 10
-10.7821769506
 20
-13.115534092
 30
0.0
 10
-10.781431272
 20
-13.1135818823
 30
0.0
 10
-10.7808328551
 20
-13.1125868303
 30
0.0
 10
-10.7801189479
 20
-13.1119206994
 30
0.0
 10
-10.7789113338
 20
-13.1115418261
 30
0.0
 10
-10.7770459328
 20
-13.1124113128
 30
0.0
 10
-10.7750147698
 20
-13.114605511
 30
0.0
 10
-10.7726168945
 20
-13.118039008
 30
0.0
 10
-10.7699691658
 20
-13.1227034173
 30
0.0
 10
-10.7670484325
 20
-13.1285114246
 30
0.0
 10
-10.7639023297
 20
-13.1353583277
 30
0.0
 10
-10.7605501513
 20
-13.1431317642
 30
0.0
 10
-10.7556641017
 20
-13.1550179542
 30
0.0
 10
-10.7492507285
 20
-13.1714898967
 30
0.0
 10
-10.7412506377
 20
-13.1928462113
 30
0.0
 10
-10.7327877413
 20
-13.2159322163
 30
0.0
 10
-10.7207321458
 20
-13.249150155
 30
0.0
 10
-10.7049116364
 20
-13.2928691983
 30
0.0
 10
-10.6849442524
 20
-13.3472120666
 30
0.0
 10
-10.6637536248
 20
-13.4034600388
 30
0.0
 10
-10.6413884547
 20
-13.4610135244
 30
0.0
 10
-10.6178680005
 20
-13.5194820416
 30
0.0
 10
-10.5931947907
 20
-13.5785970052
 30
0.0
 10
-10.5585613212
 20
-13.6584589071
 30
0.0
 10
-10.5123782719
 20
-13.7588726321
 30
0.0
 10
-10.4524217484
 20
-13.8791649169
 30
0.0
 10
-10.3874865275
 20
-13.9992919792
 30
0.0
 10
-10.3174241212
 20
-14.1187498073
 30
0.0
 10
-10.2420862041
 20
-14.2370865962
 30
0.0
 10
-10.1338874822
 20
-14.3935587354
 30
0.0
 10
-9.9850818795
 20
-14.5834310297
 30
0.0
 10
-9.852896409
 20
-14.7253310269
 30
0.0
 10
-9.7832913085
 20
-14.7936354788
 30
0.0
  0
SPLINE
  5
734
100
AcDbEntity
  8
218_STAMPATO
100
AcDbSpline
 62
7
  6
CONTINUOUS
 70
0
 71
3
 72
10
 73
6
 74
0
 42
0.0000001
 43
0.0000001
 44
0.0000000001
 40
0.0
 40
0.0
 40
0.0
 40
0.0
 40
0.1587632733
 40
0.3804558182
 40
1.0
 40
1.0
 40
1.0
 40
1.0
 10
-10.7801857079
 20
-11.1649998628
 30
0.0
 10
-10.7805247979
 20
-11.160334431
 30
0.0
 10
-10.781118668
 20
-11.1491390714
 30
0.0
 10
-10.7822251781
 20
-11.1196962202
 30
0.0
 10
-10.7827775495
 20
-11.09491503
 30
0.0
 10
-10.7831390036
 20
-11.0766646044
 30
0.0
  0
SPLINE
  5
735
100
AcDbEntity
  8
218_STAMPATO
100
AcDbSpline
 62
250
  6
CONTINUOUS
 70
0
 71
3
 72
24
 73
20
 74
0
 42
0.0000001
 43
0.0000001
 44
0.0000000001
 40
0.0
 40
0.0
 40
0.0
 40
0.0
 40
0.1491956469
 40
0.2952247756
 40
0.4363945329
 40
0.5048896368
 40
0.571867703
 40
0.6372220823
 40
0.7007925985
 40
0.7623170706
 40
0.8213447973
 40
0.8770631942
 40
0.9032462269
 40
0.9279323451
 40
0.950684246
 40
0.9708799953
 40
0.987666278
 40
0.9944568764
 40
1.0
 40
1.0
 40
1.0
 40
1.0
 10
-9.6032366926
 20
-9.6448947797
 30
0.0
 10
-9.6803705381
 20
-9.7031196247
 30
0.0
 10
-9.8284982267
 20
-9.8244568957
 30
0.0
 10
-10.0322427612
 20
-10.0208118889
 30
0.0
 10
-10.1851000168
 20
-10.1935541864
 30
0.0
 10
-10.2958745786
 20
-10.3344549205
 30
0.0
 10
-10.3724137966
 20
-10.4396811448
 30
0.0
 10
-10.4433049021
 20
-10.5449621711
 30
0.0
 10
-10.5086219861
 20
-10.6496446353
 30
0.0
 10
-10.5684121336
 20
-10.7528648365
 30
0.0
 10
-10.6226576383
 20
-10.8533540291
 30
0.0
 10
-10.6639372704
 20
-10.9347841701
 30
0.0
 10
-10.694302635
 20
-10.9967914682
 30
0.0
 10
-10.7150391036
 20
-11.03973534
 30
0.0
 10
-10.7340634584
 20
-11.0792004103
 30
0.0
 10
-10.7511478668
 20
-11.1139152583
 30
0.0
 10
-10.7642221063
 20
-11.1390881989
 30
0.0
 10
-10.7737055918
 20
-11.1553961929
 30
0.0
 10
-10.7780712907
 20
-11.1620978622
 30
0.0
 10
-10.7801857079
 20
-11.1649998628
 30
0.0
  0
SPLINE
  5
736
100
AcDbEntity
  8
218_STAMPATO
100
AcDbSpline
 62
250
  6
CONTINUOUS
 70
0
 71
3
 72
40
 73
36
 74
0
 42
0.0000001
 43
0.0000001
 44
0.0000000001
 40
0.0
 40
0.0
 40
0.0
 40
0.0
 40
0.1472950365
 40
0.2924683196
 40
0.3639409089
 40
0.4345690085
 40
0.5042994263
 40
0.5730682031
 40
0.6407793726
 40
0.7072707783
 40
0.7399769099
 40
0.7722529007
 40
0.8040194002
 40
0.8351624845
 40
0.8655120275
 40
0.8948034999
 40
0.9226061176
 40
0.9357353258
 40
0.9481776064
 40
0.9597438506
 40
0.9701803816
 40
0.9748740581
 40
0.9791536897
 40
0.9829654538
 40
0.9862541829
 40
0.9889679078
 40
0.9910674386
 40
0.9925471089
 40
0.9935073653
 40
0.993918141
 40
0.9943802855
 40
0.9949511031
 40
0.9956593756
 40
0.9975263485
 40
1.0
 40
1.0
 40
1.0
 40
1.0
 10
-9.7832913085
 20
-9.4063645212
 30
0.0
 10
-9.8528964105
 20
-9.4746689622
 30
0.0
 10
-9.9850818645
 20
-9.6165689588
 30
0.0
 10
-10.1338874627
 20
-9.8064412372
 30
0.0
 10
-10.24208618
 20
-9.9629133675
 30
0.0
 10
-10.3174240959
 20
-10.0812501509
 30
0.0
 10
-10.3874865048
 20
-10.200707981
 30
0.0
 10
-10.4524217334
 20
-10.3208350525
 30
0.0
 10
-10.5123782673
 20
-10.4411273559
 30
0.0
 10
-10.5585613235
 20
-10.5415410983
 30
0.0
 10
-10.5931947992
 20
-10.6214030142
 30
0.0
 10
-10.6178680112
 20
-10.6805179862
 30
0.0
 10
-10.6413884693
 20
-10.7389865106
 30
0.0
 10
-10.663753643
 20
-10.7965400056
 30
0.0
 10
-10.6849442724
 20
-10.8527879872
 30
0.0
 10
-10.7049116574
 20
-10.9071308594
 30
0.0
 10
-10.7207321726
 20
-10.9508499039
 30
0.0
 10
-10.7327877614
 20
-10.9840678451
 30
0.0
 10
-10.7412506572
 20
-11.0071538455
 30
0.0
 10
-10.7492507465
 20
-11.0285101473
 30
0.0
 10
-10.7556641176
 20
-11.0449820802
 30
0.0
 10
-10.7605501625
 20
-11.0568682654
 30
0.0
 10
-10.7639023422
 20
-11.0646416977
 30
0.0
 10
-10.7670484408
 20
-11.0714885952
 30
0.0
 10
-10.7699691756
 20
-11.0772965974
 30
0.0
 10
-10.7726168985
 20
-11.0819610034
 30
0.0
 10
-10.7750147765
 20
-11.0853944945
 30
0.0
 10
-10.7770459361
 20
-11.0875886898
 30
0.0
 10
-10.7789113369
 20
-11.0884581777
 30
0.0
 10
-10.7801189501
 20
-11.0880793003
 30
0.0
 10
-10.7808328549
 20
-11.0874131677
 30
0.0
 10
-10.7814312739
 20
-11.0864181172
 30
0.0
 10
-10.78217695
 20
-11.0844659068
 30
0.0
 10
-10.7828039145
 20
-11.0811639436
 30
0.0
 10
-10.7830479819
 20
-11.0783000741
 30
0.0
 10
-10.7831390036
 20
-11.07666485
 30
0.0
  0
SPLINE
  5
737
100
AcDbEntity
  8
218_STAMPATO
100
AcDbSpline
 62
250
  6
CONTINUOUS
 70
0
 71
3
 72
15
 73
11
 74
0
 42
0.0000001
 43
0.0000001
 44
0.0000000001
 40
0.0
 40
0.0
 40
0.0
 40
0.0
 40
0.1250016157
 40
0.2500019229
 40
0.3750012421
 40
0.5000000215
 40
0.6249988005
 40
0.7499981189
 40
0.8749984236
 40
1.0
 40
1.0
 40
1.0
 40
1.0
 10
-5.1106384672
 20
-9.6880854619
 30
0.0
 10
-5.1198189718
 20
-9.6970708016
 30
0.0
 10
-5.1399653723
 20
-9.713315773
 30
0.0
 10
-5.1742572111
 20
-9.731398777
 30
0.0
 10
-5.211403056
 20
-9.7425467868
 30
0.0
 10
-5.2500000032
 20
-9.7463106962
 30
0.0
 10
-5.2885969567
 20
-9.7425467866
 30
0.0
 10
-5.32574278
 20
-9.7313987552
 30
0.0
 10
-5.3600346859
 20
-9.7133158153
 30
0.0
 10
-5.3801808825
 20
-9.697070647
 30
0.0
 10
-5.3893615327
 20
-9.6880854618
 30
0.0
  0
SPLINE
  5
738
100
AcDbEntity
  8
218_STAMPATO
100
AcDbSpline
 62
250
  6
CONTINUOUS
 70
0
 71
3
 72
15
 73
11
 74
0
 42
0.0000001
 43
0.0000001
 44
0.0000000001
 40
0.0
 40
0.0
 40
0.0
 40
0.0
 40
0.125003075
 40
0.2500039731
 40
0.3750025776
 40
0.5000000154
 40
0.6249974542
 40
0.7499960614
 40
0.8749969529
 40
1.0
 40
1.0
 40
1.0
 40
1.0
 10
0.1532977031
 20
-9.9442906039
 30
0.0
 10
0.1439995711
 20
-9.9554907904
 30
0.0
 10
0.1228922239
 20
-9.9759362525
 30
0.0
 10
0.0853921628
 20
-9.9989614693
 30
0.0
 10
0.0437560382
 20
-10.0132731343
 30
0.0
 10
-0.0000000094
 20
-10.0181241538
 30
0.0
 10
-0.0437560648
 20
-10.0132731466
 30
0.0
 10
-0.0853921725
 20
-9.9989614736
 30
0.0
 10
-0.1228922974
 20
-9.9759363029
 30
0.0
 10
-0.1439994413
 20
-9.9554906779
 30
0.0
 10
-0.1532977029
 20
-9.944290603
 30
0.0
  0
SPLINE
  5
739
100
AcDbEntity
  8
218_STAMPATO
100
AcDbSpline
 62
250
  6
CONTINUOUS
 70
0
 71
3
 72
15
 73
11
 74
0
 42
0.0000001
 43
0.0000001
 44
0.0000000001
 40
0.0
 40
0.0
 40
0.0
 40
0.0
 40
0.1250016157
 40
0.2500019229
 40
0.3750012421
 40
0.5000000215
 40
0.6249988005
 40
0.7499981189
 40
0.8749984236
 40
1.0
 40
1.0
 40
1.0
 40
1.0
 10
5.3893615328
 20
-9.6880854618
 30
0.0
 10
5.3801810282
 20
-9.6970708016
 30
0.0
 10
5.3600346277
 20
-9.7133157729
 30
0.0
 10
5.3257427889
 20
-9.7313987769
 30
0.0
 10
5.288596944
 20
-9.7425467867
 30
0.0
 10
5.2499999968
 20
-9.7463106961
 30
0.0
 10
5.2114030433
 20
-9.7425467865
 30
0.0
 10
5.17425722
 20
-9.7313987551
 30
0.0
 10
5.1399653141
 20
-9.7133158152
 30
0.0
 10
5.1198191175
 20
-9.6970706469
 30
0.0
 10
5.1106384673
 20
-9.6880854617
 30
0.0
  0
SPLINE
  5
73A
100
AcDbEntity
  8
218_STAMPATO
100
AcDbSpline
 62
250
  6
CONTINUOUS
 70
0
 71
3
 72
24
 73
20
 74
0
 42
0.0000001
 43
0.0000001
 44
0.0000000001
 40
0.0
 40
0.0
 40
0.0
 40
0.0
 40
0.0055430027
 40
0.0123336215
 40
0.029119865
 40
0.0493154633
 40
0.0720671922
 40
0.096753195
 40
0.1229361633
 40
0.1786543521
 40
0.2376821563
 40
0.2992065595
 40
0.3627770495
 40
0.4281314865
 40
0.4951095611
 40
0.5636047566
 40
0.7047747474
 40
0.8508041459
 40
1.0
 40
1.0
 40
1.0
 40
1.0
 10
10.7801857177
 20
-11.1649997283
 30
0.0
 10
10.778071356
 20
-11.1620977844
 30
0.0
 10
10.7737055722
 20
-11.1553962516
 30
0.0
 10
10.7642221893
 20
-11.1390882969
 30
0.0
 10
10.7511479704
 20
-11.1139154778
 30
0.0
 10
10.734063709
 20
-11.0792008184
 30
0.0
 10
10.7150394567
 20
-11.0397360179
 30
0.0
 10
10.6943030861
 20
-10.9967923546
 30
0.0
 10
10.6639378962
 20
-10.934785255
 30
0.0
 10
10.6226582408
 20
-10.8533552736
 30
0.0
 10
10.5684129114
 20
-10.7528661415
 30
0.0
 10
10.5086227436
 20
-10.6496459719
 30
0.0
 10
10.4433057207
 20
-10.5449635081
 30
0.0
 10
10.3724146781
 20
-10.4396824164
 30
0.0
 10
10.2958754357
 20
-10.3344560928
 30
0.0
 10
10.185100822
 20
-10.1935551378
 30
0.0
 10
10.0322433632
 20
-10.0208125207
 30
0.0
 10
9.8284985523
 20
-9.8244571734
 30
0.0
 10
9.6803706401
 20
-9.7031197031
 30
0.0
 10
9.6032366926
 20
-9.6448947797
 30
0.0
  0
SPLINE
  5
73B
100
AcDbEntity
  8
218_STAMPATO
100
AcDbSpline
 62
7
  6
CONTINUOUS
 70
0
 71
3
 72
10
 73
6
 74
0
 42
0.0000001
 43
0.0000001
 44
0.0000000001
 40
0.0
 40
0.0
 40
0.0
 40
0.0
 40
0.6195436036
 40
0.8412360693
 40
1.0
 40
1.0
 40
1.0
 40
1.0
 10
10.7831390036
 20
-11.0766645935
 30
0.0
 10
10.782777546
 20
-11.0949149764
 30
0.0
 10
10.7822251841
 20
-11.1196961127
 30
0.0
 10
10.7811186708
 20
-11.1491389224
 30
0.0
 10
10.7805248087
 20
-11.1603342838
 30
0.0
 10
10.7801857177
 20
-11.1649997283
 30
0.0
  0
SPLINE
  5
73C
100
AcDbEntity
  8
218_STAMPATO
100
AcDbSpline
 62
250
  6
CONTINUOUS
 70
0
 71
3
 72
40
 73
36
 74
0
 42
0.0000001
 43
0.0000001
 44
0.0000000001
 40
0.0
 40
0.0
 40
0.0
 40
0.0
 40
0.0024736551
 40
0.0043406412
 40
0.005048908
 40
0.0056197347
 40
0.0060818729
 40
0.0064926482
 40
0.0074529063
 40
0.0089325858
 40
0.0110321529
 40
0.0137458859
 40
0.0170346589
 40
0.0208464473
 40
0.0251261605
 40
0.0298198241
 40
0.0402563988
 40
0.0518225463
 40
0.0642646132
 40
0.0773937681
 40
0.1051962316
 40
0.1344875784
 40
0.1648370798
 40
0.1959801757
 40
0.2277466499
 40
0.2600226311
 40
0.2927288098
 40
0.3592201431
 40
0.4269313495
 40
0.4957001154
 40
0.5654305742
 40
0.6360587406
 40
0.707531403
 40
0.8527048491
 40
1.0
 40
1.0
 40
1.0
 40
1.0
 10
10.7831390036
 20
-11.07666485
 30
0.0
 10
10.7830479811
 20
-11.0783000764
 30
0.0
 10
10.7828038962
 20
-11.0811639511
 30
0.0
 10
10.7821769615
 20
-11.0844659368
 30
0.0
 10
10.7814312371
 20
-11.0864181357
 30
0.0
 10
10.780832854
 20
-11.0874132067
 30
0.0
 10
10.7801189186
 20
-11.08807932
 30
0.0
 10
10.7789112938
 20
-11.0884581267
 30
0.0
 10
10.7770458944
 20
-11.0875886814
 30
0.0
 10
10.7750147105
 20
-11.085394436
 30
0.0
 10
10.7726168577
 20
-11.081960896
 30
0.0
 10
10.7699690792
 20
-11.0772964517
 30
0.0
 10
10.7670483547
 20
-11.0714883881
 30
0.0
 10
10.7639021999
 20
-11.0646414075
 30
0.0
 10
10.7605500254
 20
-11.0568679058
 30
0.0
 10
10.7556639195
 20
-11.0449816656
 30
0.0
 10
10.7492506145
 20
-11.0285097532
 30
0.0
 10
10.7412506138
 20
-11.0071536075
 30
0.0
 10
10.7327877487
 20
-10.9840678525
 30
0.0
 10
10.7207323063
 20
-10.950850155
 30
0.0
 10
10.7049118299
 20
-10.9071313314
 30
0.0
 10
10.6849445092
 20
-10.8527886628
 30
0.0
 10
10.6637539497
 20
-10.7965407656
 30
0.0
 10
10.641388823
 20
-10.738987292
 30
0.0
 10
10.6178683424
 20
-10.6805187936
 30
0.0
 10
10.5931951036
 20
-10.6214038251
 30
0.0
 10
10.5585617238
 20
-10.5415418935
 30
0.0
 10
10.5123786221
 20
-10.4411281635
 30
0.0
 10
10.4524221477
 20
-10.3208358672
 30
0.0
 10
10.3874869297
 20
-10.2007087402
 30
0.0
 10
10.3174245143
 20
-10.0812508409
 30
0.0
 10
10.2420865574
 20
-9.9629139426
 30
0.0
 10
10.1338877529
 20
-9.8064416305
 30
0.0
 10
9.9850820364
 20
-9.6165691506
 30
0.0
 10
9.8528964568
 20
-9.4746690221
 30
0.0
 10
9.7832913085
 20
-9.4063645212
 30
0.0
  0
LINE
  5
73D
100
AcDbEntity
  8
218_STAMPATO
100
AcDbLine
 62
250
  6
CONTINUOUS
 10
0.3832442292
 20
3.6648142405
 11
0.3973706415
 21
3.47809683
  0
LINE
  5
73E
100
AcDbEntity
  8
218_STAMPATO
100
AcDbLine
 62
250
  6
CONTINUOUS
 10
-0.3832442295
 20
3.6648142408
 11
-0.3973706426
 21
3.4780968314
  0
LINE
  5
73F
100
AcDbEntity
  8
218_STAMPATO
100
AcDbLine
 62
250
  6
CONTINUOUS
 10
0.3832442292
 20
-10.1351857595
 11
0.3973706415
 21
-10.3219031701
  0
LINE
  5
740
100
AcDbEntity
  8
218_STAMPATO
100
AcDbLine
 62
250
  6
CONTINUOUS
 10
-0.3832442295
 20
-10.1351857592
 11
-0.3973706427
 21
-10.3219031686
  0
LINE
  5
741
100
AcDbEntity
  8
218_STAMPATO
100
AcDbLine
 62
250
  6
CONTINUOUS
 10
-0.3832442292
 20
-0.2648142405
 11
-0.3973706415
 21
-0.07809683
  0
LINE
  5
742
100
AcDbEntity
  8
218_STAMPATO
100
AcDbLine
 62
250
  6
CONTINUOUS
 10
0.3832442295
 20
-0.2648142408
 11
0.3973706426
 21
-0.0780968314
  0
LINE
  5
743
100
AcDbEntity
  8
218_STAMPATO
100
AcDbLine
 62
250
  6
CONTINUOUS
 10
-0.3832442292
 20
-14.0648142405
 11
-0.3973706415
 21
-13.8780968299
  0
LINE
  5
744
100
AcDbEntity
  8
218_STAMPATO
100
AcDbLine
 62
250
  6
CONTINUOUS
 10
0.3832442295
 20
-14.0648142408
 11
0.3973706427
 21
-13.8780968314
  0
SPLINE
  5
745
100
AcDbEntity
  8
218_STAMPATO
100
AcDbSpline
 62
7
  6
CONTINUOUS
 70
0
 71
3
 72
17
 73
13
 74
0
 42
0.0000001
 43
0.0000001
 44
0.0000000001
 40
0.0
 40
0.0
 40
0.0
 40
0.0
 40
0.026943627
 40
0.0538413693
 40
0.1077980055
 40
0.2169563338
 40
0.3292209959
 40
0.4463552382
 40
0.5703675579
 40
0.70335191
 40
0.8467983161
 40
1.0
 40
1.0
 40
1.0
 40
1.0
 10
8.784689689
 20
13.9999915526
 30
0.0
 10
8.784720616
 20
13.9941781874
 30
0.0
 10
8.7851107528
 20
13.9825627634
 30
0.0
 10
8.7867803035
 20
13.9593588367
 30
0.0
 10
8.7923351505
 20
13.9186943144
 30
0.0
 10
8.8078417261
 20
13.8610159216
 30
0.0
 10
8.8388249232
 20
13.7944579947
 30
0.0
 10
8.8830478304
 20
13.7318136017
 30
0.0
 10
8.9414887035
 20
13.6753992986
 30
0.0
 10
9.0149107184
 20
13.6286645574
 30
0.0
 10
9.1026554865
 20
13.5965449728
 30
0.0
 10
9.1669447273
 20
13.588901469
 30
0.0
 10
9.2
 20
13.5889510339
 30
0.0
  0
SPLINE
  5
746
100
AcDbEntity
  8
218_STAMPATO
100
AcDbSpline
 62
7
  6
CONTINUOUS
 70
0
 71
3
 72
20
 73
16
 74
0
 42
0.0000001
 43
0.0000001
 44
0.0000000001
 40
0.0
 40
0.0
 40
0.0
 40
0.0
 40
0.1531511387
 40
0.2263101796
 40
0.2967759768
 40
0.4297156459
 40
0.5536852182
 40
0.67077939
 40
0.7830059363
 40
0.8379036711
 40
0.8922264628
 40
0.9461649626
 40
0.9730536874
 40
0.9864870889
 40
1.0
 40
1.0
 40
1.0
 40
1.0
 10
9.2
 20
14.4110489661
 30
0.0
 10
9.1669439795
 20
14.4110985322
 30
0.0
 10
9.117824147
 20
14.4052479339
 30
0.0
 10
9.0564593909
 20
14.3865419256
 30
0.0
 10
9.0015561268
 20
14.3628312831
 30
0.0
 10
8.9414763953
 20
14.3245942337
 30
0.0
 10
8.883045169
 20
14.2681800067
 30
0.0
 10
8.8388223352
 20
14.2055443169
 30
0.0
 10
8.8127984248
 20
14.1496158737
 30
0.0
 10
8.7984265106
 20
14.1039804759
 30
0.0
 10
8.7907305041
 20
14.069570875
 30
0.0
 10
8.7867883915
 20
14.0406311731
 30
0.0
 10
8.7853062355
 20
14.0203341846
 30
0.0
 10
8.7848411358
 20
14.0087234376
 30
0.0
 10
8.7846990382
 20
14.0029081569
 30
0.0
 10
8.784689689
 20
13.9999915526
 30
0.0
  0
LINE
  5
747
100
AcDbEntity
  8
218_STAMPATO
100
AcDbLine
 62
250
  6
CONTINUOUS
 10
10.7831390036
 20
-17.5197402485
 11
9.7832913085
 21
-17.5195531341
  0
SPLINE
  5
748
100
AcDbEntity
  8
218_STAMPATO
100
AcDbSpline
 62
7
  6
CONTINUOUS
 70
0
 71
3
 72
13
 73
9
 74
0
 42
0.0000001
 43
0.0000001
 44
0.0000000001
 40
0.0
 40
0.0
 40
0.0
 40
0.0
 40
0.1675831485
 40
0.2864390701
 40
0.4999999588
 40
0.7135609443
 40
0.8324168536
 40
1.0
 40
1.0
 40
1.0
 40
1.0
 10
10.7801857086
 20
2.6350001476
 30
0.0
 10
10.7726065659
 20
2.5307211397
 30
0.0
 10
10.7615373715
 20
2.3523372306
 30
0.0
 10
10.7485261659
 20
2.0406503779
 30
0.0
 10
10.742816253
 20
1.700000022
 30
0.0
 10
10.7485261619
 20
1.3593496735
 30
0.0
 10
10.7615373737
 20
1.0476627696
 30
0.0
 10
10.7726065653
 20
0.8692788693
 30
0.0
 10
10.7801857079
 20
0.7649998628
 30
0.0
  0
SPLINE
  5
749
100
AcDbEntity
  8
218_STAMPATO
100
AcDbSpline
 62
7
  6
CONTINUOUS
 70
0
 71
3
 72
13
 73
9
 74
0
 42
0.0000001
 43
0.0000001
 44
0.0000000001
 40
0.0
 40
0.0
 40
0.0
 40
0.0
 40
0.1675831531
 40
0.2864390797
 40
0.4999999673
 40
0.71356094
 40
0.8324168511
 40
1.0
 40
1.0
 40
1.0
 40
1.0
 10
-10.7801856956
 20
0.7650000319
 30
0.0
 10
-10.7726065553
 20
0.8692790232
 30
0.0
 10
-10.7615373646
 20
1.047662905
 30
0.0
 10
-10.7485261641
 20
1.3593497048
 30
0.0
 10
-10.742816254
 20
1.6999999914
 30
0.0
 10
-10.7485261608
 20
2.0406502686
 30
0.0
 10
-10.7615373676
 20
2.352337109
 30
0.0
 10
-10.7726065554
 20
2.5307209787
 30
0.0
 10
-10.7801856955
 20
2.6349999674
 30
0.0
  0
SPLINE
  5
74A
100
AcDbEntity
  8
218_STAMPATO
100
AcDbSpline
 62
7
  6
CONTINUOUS
 70
0
 71
3
 72
13
 73
9
 74
0
 42
0.0000001
 43
0.0000001
 44
0.0000000001
 40
0.0
 40
0.0
 40
0.0
 40
0.0
 40
0.1675831498
 40
0.2864390749
 40
0.499999993
 40
0.7135609606
 40
0.8324168608
 40
1.0
 40
1.0
 40
1.0
 40
1.0
 10
10.7801857177
 20
-11.1649997283
 30
0.0
 10
10.7726065728
 20
-11.269278753
 30
0.0
 10
10.7615373752
 20
-11.4476626924
 30
0.0
 10
10.7485261655
 20
-11.7593496144
 30
0.0
 10
10.7428162522
 20
-12.1000000322
 30
0.0
 10
10.7485261648
 20
-12.4406504345
 30
0.0
 10
10.7615373806
 20
-12.7523373649
 30
0.0
 10
10.7726065752
 20
-12.9307212824
 30
0.0
 10
10.7801857197
 20
-13.0350003004
 30
0.0
  0
SPLINE
  5
74B
100
AcDbEntity
  8
218_STAMPATO
100
AcDbSpline
 62
7
  6
CONTINUOUS
 70
0
 71
3
 72
13
 73
9
 74
0
 42
0.0000001
 43
0.0000001
 44
0.0000000001
 40
0.0
 40
0.0
 40
0.0
 40
0.0
 40
0.1675831485
 40
0.2864390701
 40
0.4999999587
 40
0.7135609443
 40
0.8324168536
 40
1.0
 40
1.0
 40
1.0
 40
1.0
 10
-10.7801857086
 20
-13.0350001476
 30
0.0
 10
-10.7726065659
 20
-12.9307211398
 30
0.0
 10
-10.7615373715
 20
-12.7523372306
 30
0.0
 10
-10.7485261659
 20
-12.4406503779
 30
0.0
 10
-10.742816253
 20
-12.100000022
 30
0.0
 10
-10.7485261619
 20
-11.7593496735
 30
0.0
 10
-10.7615373737
 20
-11.4476627696
 30
0.0
 10
-10.7726065653
 20
-11.2692788693
 30
0.0
 10
-10.7801857079
 20
-11.1649998628
 30
0.0
  0
LINE
  5
74C
100
AcDbEntity
  8
218_STAMPATO
100
AcDbLine
 62
7
  6
CONTINUOUS
 10
9.7087243212
 20
18.2442501721
 11
9.91
 21
18.2441382748
  0
SPLINE
  5
74D
100
AcDbEntity
  8
320
100
AcDbSpline
 62
7
  6
CONTINUOUS
 70
0
 71
3
 72
11
 73
7
 74
0
 42
0.0000001
 43
0.0000001
 44
0.0000000001
 40
0.0
 40
0.0
 40
0.0
 40
0.0
 40
0.2494867331
 40
0.4988528391
 40
0.7488682179
 40
1.0
 40
1.0
 40
1.0
 40
1.0
 10
1.8999881723
 20
0.9182329182
 30
0.0
 10
1.8722960134
 20
0.9082470535
 30
0.0
 10
1.8135575031
 20
0.8964338119
 30
0.0
 10
1.7243855375
 20
0.9059862278
 30
0.0
 10
1.641863298
 20
0.9414700645
 30
0.0
 10
1.5959724828
 20
0.9803467312
 30
0.0
 10
1.5763932023
 20
1.0025883704
 30
0.0
  0
SPLINE
  5
74E
100
AcDbEntity
  8
320
100
AcDbSpline
 62
7
  6
CONTINUOUS
 70
0
 71
3
 72
11
 73
7
 74
0
 42
0.0000001
 43
0.0000001
 44
0.0000000001
 40
0.0
 40
0.0
 40
0.0
 40
0.0
 40
0.2511317821
 40
0.5011471609
 40
0.7505132669
 40
1.0
 40
1.0
 40
1.0
 40
1.0
 10
8.9236067977
 20
1.0025883704
 30
0.0
 10
8.9040275172
 20
0.9803467312
 30
0.0
 10
8.858136702
 20
0.9414700645
 30
0.0
 10
8.7756144625
 20
0.9059862278
 30
0.0
 10
8.6864424969
 20
0.8964338119
 30
0.0
 10
8.6277039866
 20
0.9082470535
 30
0.0
 10
8.6000118277
 20
0.9182329182
 30
0.0
  0
SPLINE
  5
74F
100
AcDbEntity
  8
320
100
AcDbSpline
 62
7
  6
CONTINUOUS
 70
0
 71
3
 72
9
 73
5
 74
0
 42
0.0000001
 43
0.0000001
 44
0.0000000001
 40
0.0
 40
0.0
 40
0.0
 40
0.0
 40
0.4989649625
 40
1.0
 40
1.0
 40
1.0
 40
1.0
 10
1.8999881723
 20
0.9182329182
 30
0.0
 10
1.9276780725
 20
0.9282179683
 30
0.0
 10
1.9804541535
 20
0.9567196391
 30
0.0
 10
2.0225931266
 20
0.9993440512
 30
0.0
 10
2.0401558749
 20
1.0231176874
 30
0.0
  0
SPLINE
  5
750
100
AcDbEntity
  8
320
100
AcDbSpline
 62
7
  6
CONTINUOUS
 70
0
 71
3
 72
9
 73
5
 74
0
 42
0.0000001
 43
0.0000001
 44
0.0000000001
 40
0.0
 40
0.0
 40
0.0
 40
0.0
 40
0.5010350375
 40
1.0
 40
1.0
 40
1.0
 40
1.0
 10
8.4598441251
 20
1.0231176874
 30
0.0
 10
8.4774068734
 20
0.9993440512
 30
0.0
 10
8.5195458465
 20
0.9567196391
 30
0.0
 10
8.5723219275
 20
0.9282179683
 30
0.0
 10
8.6000118277
 20
0.9182329182
 30
0.0
  0
SPLINE
  5
751
100
AcDbEntity
  8
320
100
AcDbSpline
 62
7
  6
CONTINUOUS
 70
0
 71
3
 72
11
 73
7
 74
0
 42
0.0000001
 43
0.0000001
 44
0.0000000001
 40
0.0
 40
0.0
 40
0.0
 40
0.0
 40
0.2494867331
 40
0.4988528391
 40
0.7488682179
 40
1.0
 40
1.0
 40
1.0
 40
1.0
 10
-8.6000118277
 20
0.9182329182
 30
0.0
 10
-8.6277039866
 20
0.9082470535
 30
0.0
 10
-8.6864424969
 20
0.8964338119
 30
0.0
 10
-8.7756144625
 20
0.9059862278
 30
0.0
 10
-8.858136702
 20
0.9414700645
 30
0.0
 10
-8.9040275172
 20
0.9803467312
 30
0.0
 10
-8.9236067977
 20
1.0025883704
 30
0.0
  0
SPLINE
  5
752
100
AcDbEntity
  8
320
100
AcDbSpline
 62
7
  6
CONTINUOUS
 70
0
 71
3
 72
11
 73
7
 74
0
 42
0.0000001
 43
0.0000001
 44
0.0000000001
 40
0.0
 40
0.0
 40
0.0
 40
0.0
 40
0.2511317821
 40
0.5011471609
 40
0.7505132669
 40
1.0
 40
1.0
 40
1.0
 40
1.0
 10
-1.5763932023
 20
1.0025883704
 30
0.0
 10
-1.5959724828
 20
0.9803467312
 30
0.0
 10
-1.641863298
 20
0.9414700645
 30
0.0
 10
-1.7243855375
 20
0.9059862278
 30
0.0
 10
-1.8135575031
 20
0.8964338119
 30
0.0
 10
-1.8722960134
 20
0.9082470535
 30
0.0
 10
-1.8999881723
 20
0.9182329182
 30
0.0
  0
SPLINE
  5
753
100
AcDbEntity
  8
320
100
AcDbSpline
 62
7
  6
CONTINUOUS
 70
0
 71
3
 72
9
 73
5
 74
0
 42
0.0000001
 43
0.0000001
 44
0.0000000001
 40
0.0
 40
0.0
 40
0.0
 40
0.0
 40
0.4989649625
 40
1.0
 40
1.0
 40
1.0
 40
1.0
 10
-8.6000118277
 20
0.9182329182
 30
0.0
 10
-8.5723219275
 20
0.9282179683
 30
0.0
 10
-8.5195458465
 20
0.9567196391
 30
0.0
 10
-8.4774068734
 20
0.9993440512
 30
0.0
 10
-8.4598441251
 20
1.0231176874
 30
0.0
  0
SPLINE
  5
754
100
AcDbEntity
  8
320
100
AcDbSpline
 62
7
  6
CONTINUOUS
 70
0
 71
3
 72
9
 73
5
 74
0
 42
0.0000001
 43
0.0000001
 44
0.0000000001
 40
0.0
 40
0.0
 40
0.0
 40
0.0
 40
0.5010350375
 40
1.0
 40
1.0
 40
1.0
 40
1.0
 10
-2.0401558749
 20
1.0231176874
 30
0.0
 10
-2.0225931266
 20
0.9993440512
 30
0.0
 10
-1.9804541535
 20
0.9567196391
 30
0.0
 10
-1.9276780725
 20
0.9282179683
 30
0.0
 10
-1.8999881723
 20
0.9182329182
 30
0.0
  0
ELLIPSE
  5
755
100
AcDbEntity
  8
284
100
AcDbEllipse
 62
7
  6
CONTINUOUS
 10
-11.3
 20
0.031358539
 30
0.0
 11
1.7835475811
 21
-1.7835475811
 31
0.0
 40
0.9004040443
 41
1.2544752374
 42
1.3304447025
  0
ELLIPSE
  5
756
100
AcDbEntity
  8
284
100
AcDbEllipse
 62
7
  6
CONTINUOUS
 10
11.3
 20
0.031358539
 30
0.0
 11
1.7835475811
 21
1.7835475811
 31
0.0
 40
0.9004040443
 41
1.8111479511
 42
1.8871174161
  0
ELLIPSE
  5
757
100
AcDbEntity
  8
268
100
AcDbEllipse
 62
7
  6
CONTINUOUS
 10
-0.0
 20
-20.1823915368
 30
0.0
 11
15.0
 21
-0.0
 31
0.0
 40
0.0087268678
 41
1.4073150204
 42
1.7342776332
  0
ELLIPSE
  5
758
100
AcDbEntity
  8
268
100
AcDbEllipse
 62
7
  6
CONTINUOUS
 10
0.0
 20
20.1823915368
 30
0.0
 11
15.0
 21
-0.0
 31
0.0
 40
0.0087268678
 41
-1.7342776332
 42
-1.4073150204
  0
ELLIPSE
  5
759
100
AcDbEntity
  8
268
100
AcDbEllipse
 62
7
  6
CONTINUOUS
 10
10.8
 20
-22.0412598048
 30
0.0
 11
-0.0
 21
-0.3500133274
 31
0.0
 40
0.9999619231
 41
-0.0
 42
1.5707963268
  0
ELLIPSE
  5
75A
100
AcDbEntity
  8
268
100
AcDbEllipse
 62
7
  6
CONTINUOUS
 10
-7.7754036523
 20
-21.2
 30
0.0
 11
0.3000456984
 21
-0.0
 31
0.0
 40
0.9998476952
 41
1.5707963268
 42
1.5882496193
  0
ELLIPSE
  5
75B
100
AcDbEntity
  8
268
100
AcDbEllipse
 62
7
  6
CONTINUOUS
 10
10.8
 20
22.0412598048
 30
0.0
 11
-0.0
 21
-0.3500133274
 31
0.0
 40
0.9999619231
 41
1.5707963268
 42
3.1415926536
  0
ELLIPSE
  5
75C
100
AcDbEntity
  8
268
100
AcDbEllipse
 62
7
  6
CONTINUOUS
 10
-10.8
 20
22.0412598048
 30
0.0
 11
0.0
 21
0.3500133274
 31
0.0
 40
0.9999619231
 41
-0.0
 42
1.5707963268
  0
ELLIPSE
  5
75D
100
AcDbEntity
  8
268
100
AcDbEllipse
 62
7
  6
CONTINUOUS
 10
-10.8
 20
-22.0412598048
 30
0.0
 11
0.0
 21
0.3500133274
 31
0.0
 40
0.9999619231
 41
1.5707963268
 42
3.1415926536
  0
ELLIPSE
  5
75E
100
AcDbEntity
  8
268
100
AcDbEllipse
 62
7
  6
CONTINUOUS
 10
10.5956366276
 20
24.1456323968
 30
0.0
 11
0.0
 21
0.25
 31
0.0
 40
0.0058178298
 41
0.0058177642
 42
1.5707963268
  0
ELLIPSE
  5
75F
100
AcDbEntity
  8
268
100
AcDbEllipse
 62
7
  6
CONTINUOUS
 10
8.3043633724
 20
24.1456323968
 30
0.0
 11
0.0
 21
0.25
 31
0.0
 40
0.0058178298
 41
-1.5707963268
 42
-0.0058177642
  0
ELLIPSE
  5
760
100
AcDbEntity
  8
268
100
AcDbEllipse
 62
7
  6
CONTINUOUS
 10
8.3043633724
 20
23.8443375673
 30
0.0
 11
-0.0
 21
0.25
 31
0.0
 40
0.0058178298
 41
-2.617993878
 42
-1.5707963268
  0
ELLIPSE
  5
761
100
AcDbEntity
  8
268
100
AcDbEllipse
 62
7
  6
CONTINUOUS
 10
10.5956366276
 20
23.8443375673
 30
0.0
 11
0.0
 21
0.25
 31
0.0
 40
0.0058178298
 41
-4.7123889804
 42
-3.6651914292
  0
ELLIPSE
  5
762
100
AcDbEntity
  8
268
100
AcDbEllipse
 62
7
  6
CONTINUOUS
 10
-8.3043633724
 20
24.1456323968
 30
0.0
 11
0.0
 21
0.25
 31
0.0
 40
0.0058178298
 41
0.0058177642
 42
1.5707963268
  0
ELLIPSE
  5
763
100
AcDbEntity
  8
268
100
AcDbEllipse
 62
7
  6
CONTINUOUS
 10
-10.5956366276
 20
24.1456323968
 30
0.0
 11
0.0
 21
0.25
 31
0.0
 40
0.0058178298
 41
-1.5707963268
 42
-0.0058177642
  0
ELLIPSE
  5
764
100
AcDbEntity
  8
268
100
AcDbEllipse
 62
7
  6
CONTINUOUS
 10
-10.5956366276
 20
23.8443375673
 30
0.0
 11
-0.0
 21
0.25
 31
0.0
 40
0.0058178298
 41
-2.617993878
 42
-1.5707963268
  0
ELLIPSE
  5
765
100
AcDbEntity
  8
268
100
AcDbEllipse
 62
7
  6
CONTINUOUS
 10
-8.3043633724
 20
23.8443375673
 30
0.0
 11
0.0
 21
0.25
 31
0.0
 40
0.0058178298
 41
-4.7123889804
 42
-3.6651914292
  0
ELLIPSE
  5
766
100
AcDbEntity
  8
268
100
AcDbEllipse
 62
7
  6
CONTINUOUS
 10
-10.5956366276
 20
-24.1456323968
 30
0.0
 11
0.0
 21
0.25
 31
0.0
 40
0.0058178298
 41
-3.1357748894
 42
-1.5707963268
  0
ELLIPSE
  5
767
100
AcDbEntity
  8
268
100
AcDbEllipse
 62
7
  6
CONTINUOUS
 10
-8.3043633724
 20
-24.1456323968
 30
0.0
 11
-0.0
 21
0.25
 31
0.0
 40
0.0058178298
 41
1.5707963268
 42
3.1357748894
  0
ELLIPSE
  5
768
100
AcDbEntity
  8
268
100
AcDbEllipse
 62
7
  6
CONTINUOUS
 10
-8.3043633724
 20
-23.8443375673
 30
0.0
 11
-0.0
 21
0.25
 31
0.0
 40
0.0058178298
 41
0.5235987756
 42
1.5707963268
  0
ELLIPSE
  5
769
100
AcDbEntity
  8
268
100
AcDbEllipse
 62
7
  6
CONTINUOUS
 10
-10.5956366276
 20
-23.8443375673
 30
0.0
 11
-0.0
 21
0.25
 31
0.0
 40
0.0058178298
 41
-1.5707963268
 42
-0.5235987756
  0
ELLIPSE
  5
76A
100
AcDbEntity
  8
268
100
AcDbEllipse
 62
7
  6
CONTINUOUS
 10
8.3043633724
 20
-24.1456323968
 30
0.0
 11
0.0
 21
0.25
 31
0.0
 40
0.0058178298
 41
-3.1357748894
 42
-1.5707963268
  0
ELLIPSE
  5
76B
100
AcDbEntity
  8
268
100
AcDbEllipse
 62
7
  6
CONTINUOUS
 10
10.5956366276
 20
-24.1456323968
 30
0.0
 11
-0.0
 21
0.25
 31
0.0
 40
0.0058178298
 41
1.5707963268
 42
3.1357748894
  0
ELLIPSE
  5
76C
100
AcDbEntity
  8
268
100
AcDbEllipse
 62
7
  6
CONTINUOUS
 10
10.5956366276
 20
-23.8443375673
 30
0.0
 11
-0.0
 21
0.25
 31
0.0
 40
0.0058178298
 41
0.5235987756
 42
1.5707963268
  0
ELLIPSE
  5
76D
100
AcDbEntity
  8
268
100
AcDbEllipse
 62
7
  6
CONTINUOUS
 10
8.3043633724
 20
-23.8443375673
 30
0.0
 11
0.0
 21
0.25
 31
0.0
 40
0.0058178298
 41
-1.5707963268
 42
-0.5235987756
  0
ELLIPSE
  5
76E
100
AcDbEntity
  8
268
100
AcDbEllipse
 62
7
  6
CONTINUOUS
 10
8.3014544575
 20
22.9783121635
 30
0.0
 11
0.0
 21
0.25
 31
0.0
 40
0.0058178298
 41
0.5235987756
 42
1.5707884454
  0
ELLIPSE
  5
76F
100
AcDbEntity
  8
268
100
AcDbEllipse
 62
7
  6
CONTINUOUS
 10
10.5985455425
 20
22.9783121635
 30
0.0
 11
0.0
 21
0.25
 31
0.0
 40
0.0058178298
 41
-1.5707884454
 42
-0.5235987756
  0
ELLIPSE
  5
770
100
AcDbEntity
  8
268
100
AcDbEllipse
 62
7
  6
CONTINUOUS
 10
-10.5985455425
 20
22.9783121635
 30
0.0
 11
0.0
 21
0.25
 31
0.0
 40
0.0058178298
 41
0.5235987756
 42
1.5707884454
  0
ELLIPSE
  5
771
100
AcDbEntity
  8
268
100
AcDbEllipse
 62
7
  6
CONTINUOUS
 10
-8.3014544575
 20
22.9783121635
 30
0.0
 11
0.0
 21
0.25
 31
0.0
 40
0.0058178298
 41
-1.5707884454
 42
-0.5235987756
  0
ELLIPSE
  5
772
100
AcDbEntity
  8
268
100
AcDbEllipse
 62
7
  6
CONTINUOUS
 10
-10.5985455425
 20
-22.9783121635
 30
0.0
 11
0.0
 21
0.25
 31
0.0
 40
0.0058178298
 41
-4.712381099
 42
-3.6651914292
  0
ELLIPSE
  5
773
100
AcDbEntity
  8
268
100
AcDbEllipse
 62
7
  6
CONTINUOUS
 10
-8.3014544575
 20
-22.9783121635
 30
0.0
 11
0.0
 21
0.25
 31
0.0
 40
0.0058178298
 41
-2.617993878
 42
-1.5708042081
  0
ELLIPSE
  5
774
100
AcDbEntity
  8
268
100
AcDbEllipse
 62
7
  6
CONTINUOUS
 10
8.3014544575
 20
-22.9783121635
 30
0.0
 11
0.0
 21
0.25
 31
0.0
 40
0.0058178298
 41
-4.712381099
 42
-3.6651914292
  0
ELLIPSE
  5
775
100
AcDbEntity
  8
268
100
AcDbEllipse
 62
7
  6
CONTINUOUS
 10
10.5985455425
 20
-22.9783121635
 30
0.0
 11
0.0
 21
0.25
 31
0.0
 40
0.0058178298
 41
-2.617993878
 42
-1.5708042081
  0
ELLIPSE
  5
776
100
AcDbEntity
  8
268
100
AcDbEllipse
 62
7
  6
CONTINUOUS
 10
-7.1344742226
 20
22.0912617087
 30
0.0
 11
0.2121481893
 21
0.2121481893
 31
0.0
 40
0.9999238505
 41
0.7853600872
 42
1.5707963268
  0
ELLIPSE
  5
777
100
AcDbEntity
  8
268
100
AcDbEllipse
 62
7
  6
CONTINUOUS
 10
-7.9499543016
 20
21.2
 30
0.0
 11
0.3000456984
 21
0.0
 31
0.0
 40
0.9998476952
 41
-3.1415926536
 42
-1.5707963268
  0
ELLIPSE
  5
778
100
AcDbEntity
  8
268
100
AcDbEllipse
 62
7
  6
CONTINUOUS
 10
-7.7754036523
 20
21.2
 30
0.0
 11
-0.3000456984
 21
0.0
 31
0.0
 40
0.9998476952
 41
1.5533430343
 42
1.5707963268
  0
ELLIPSE
  5
779
100
AcDbEntity
  8
268
100
AcDbEllipse
 62
7
  6
CONTINUOUS
 10
-7.9499543016
 20
21.2757816297
 30
0.0
 11
0.2121966568
 21
0.2121966568
 31
0.0
 40
0.9996954599
 41
1.5707963268
 42
2.3563467834
  0
ELLIPSE
  5
77A
100
AcDbEntity
  8
268
100
AcDbEllipse
 62
7
  6
CONTINUOUS
 10
7.1344742226
 20
22.0912617087
 30
0.0
 11
0.2121481893
 21
-0.2121481893
 31
0.0
 40
0.9999238505
 41
1.5707963268
 42
2.3562325664
  0
ELLIPSE
  5
77B
100
AcDbEntity
  8
268
100
AcDbEllipse
 62
7
  6
CONTINUOUS
 10
7.9499543016
 20
21.2
 30
0.0
 11
0.3000456984
 21
-0.0
 31
0.0
 40
0.9998476952
 41
-1.5707963268
 42
0.0
  0
ELLIPSE
  5
77C
100
AcDbEntity
  8
268
100
AcDbEllipse
 62
7
  6
CONTINUOUS
 10
7.7754036523
 20
21.2
 30
0.0
 11
0.3000456984
 21
-0.0
 31
0.0
 40
0.9998476952
 41
-1.5707963268
 42
-1.5533430343
  0
ELLIPSE
  5
77D
100
AcDbEntity
  8
268
100
AcDbEllipse
 62
7
  6
CONTINUOUS
 10
7.9499543016
 20
21.2757816297
 30
0.0
 11
-0.2121966568
 21
0.2121966568
 31
0.0
 40
0.9996954599
 41
-2.3563467834
 42
-1.5707963268
  0
ELLIPSE
  5
77E
100
AcDbEntity
  8
268
100
AcDbEllipse
 62
7
  6
CONTINUOUS
 10
-7.1344742226
 20
-22.0912617087
 30
0.0
 11
0.2121481893
 21
-0.2121481893
 31
0.0
 40
0.9999238505
 41
-1.5707963268
 42
-0.7853600872
  0
ELLIPSE
  5
77F
100
AcDbEntity
  8
268
100
AcDbEllipse
 62
7
  6
CONTINUOUS
 10
-7.9499543016
 20
-21.2
 30
0.0
 11
0.3000456984
 21
-0.0
 31
0.0
 40
0.9998476952
 41
1.5707963268
 42
3.1415926536
  0
ELLIPSE
  5
780
100
AcDbEntity
  8
268
100
AcDbEllipse
 62
7
  6
CONTINUOUS
 10
4.0551976334
 20
-22.332803118
 30
0.0
 11
0.3
 21
-0.0
 31
0.0
 40
0.0087268678
 41
0.0058177642
 42
1.5707963268
  0
ELLIPSE
  5
781
100
AcDbEntity
  8
268
100
AcDbEllipse
 62
7
  6
CONTINUOUS
 10
4.0551976334
 20
-23.7552027105
 30
0.0
 11
0.3
 21
-0.0
 31
0.0
 40
0.0058178298
 41
0.0058177642
 42
1.5707963268
  0
ELLIPSE
  5
782
100
AcDbEntity
  8
268
100
AcDbEllipse
 62
7
  6
CONTINUOUS
 10
-3.8
 20
-22.332803118
 30
0.0
 11
0.3
 21
-0.0
 31
0.0
 40
0.0087268678
 41
0.0
 42
1.5707963268
  0
ELLIPSE
  5
783
100
AcDbEntity
  8
268
100
AcDbEllipse
 62
7
  6
CONTINUOUS
 10
-3.8
 20
-23.7552027105
 30
0.0
 11
0.3
 21
-0.0
 31
0.0
 40
0.0058178298
 41
0.0
 42
1.5707963268
  0
ELLIPSE
  5
784
100
AcDbEntity
  8
268
100
AcDbEllipse
 62
7
  6
CONTINUOUS
 10
-4.0551976334
 20
-23.7552027105
 30
0.0
 11
0.3
 21
-0.0
 31
0.0
 40
0.0058178298
 41
1.5707963268
 42
3.1357748894
  0
ELLIPSE
  5
785
100
AcDbEntity
  8
268
100
AcDbEllipse
 62
7
  6
CONTINUOUS
 10
-4.0551976334
 20
-22.332803118
 30
0.0
 11
0.3
 21
0.0
 31
0.0
 40
0.0087268678
 41
1.5707963268
 42
3.1357748894
  0
ELLIPSE
  5
786
100
AcDbEntity
  8
268
100
AcDbEllipse
 62
7
  6
CONTINUOUS
 10
3.8
 20
-23.7552027105
 30
0.0
 11
0.3
 21
-0.0
 31
0.0
 40
0.0058178298
 41
1.5707963268
 42
3.1415926536
  0
ELLIPSE
  5
787
100
AcDbEntity
  8
268
100
AcDbEllipse
 62
7
  6
CONTINUOUS
 10
3.8
 20
-22.332803118
 30
0.0
 11
0.3
 21
0.0
 31
0.0
 40
0.0087268678
 41
1.5707963268
 42
3.1415926536
  0
ELLIPSE
  5
788
100
AcDbEntity
  8
268
100
AcDbEllipse
 62
7
  6
CONTINUOUS
 10
4.0551976334
 20
23.7552027105
 30
0.0
 11
0.3
 21
0.0
 31
0.0
 40
0.0058178298
 41
-1.5707963268
 42
-0.0058177642
  0
ELLIPSE
  5
789
100
AcDbEntity
  8
268
100
AcDbEllipse
 62
7
  6
CONTINUOUS
 10
4.0551976334
 20
22.332803118
 30
0.0
 11
0.3
 21
0.0
 31
0.0
 40
0.0087268678
 41
-1.5707963268
 42
-0.0058177642
  0
ELLIPSE
  5
78A
100
AcDbEntity
  8
268
100
AcDbEllipse
 62
7
  6
CONTINUOUS
 10
3.8
 20
22.332803118
 30
0.0
 11
0.3
 21
-0.0
 31
0.0
 40
0.0087268678
 41
3.1415926536
 42
4.7123889804
  0
ELLIPSE
  5
78B
100
AcDbEntity
  8
268
100
AcDbEllipse
 62
7
  6
CONTINUOUS
 10
3.8
 20
23.7552027105
 30
0.0
 11
0.3
 21
-0.0
 31
0.0
 40
0.0058178298
 41
3.1415926536
 42
4.7123889804
  0
ELLIPSE
  5
78C
100
AcDbEntity
  8
268
100
AcDbEllipse
 62
7
  6
CONTINUOUS
 10
-3.8
 20
23.7552027105
 30
0.0
 11
0.3
 21
-0.0
 31
0.0
 40
0.0058178298
 41
-1.5707963268
 42
-0.0
  0
ELLIPSE
  5
78D
100
AcDbEntity
  8
268
100
AcDbEllipse
 62
7
  6
CONTINUOUS
 10
-3.8
 20
22.332803118
 30
0.0
 11
0.3
 21
0.0
 31
0.0
 40
0.0087268678
 41
-1.5707963268
 42
-0.0
  0
ELLIPSE
  5
78E
100
AcDbEntity
  8
268
100
AcDbEllipse
 62
7
  6
CONTINUOUS
 10
-4.0551976334
 20
22.332803118
 30
0.0
 11
0.3
 21
0.0
 31
0.0
 40
0.0087268678
 41
-3.1357748894
 42
-1.5707963268
  0
ELLIPSE
  5
78F
100
AcDbEntity
  8
268
100
AcDbEllipse
 62
7
  6
CONTINUOUS
 10
-4.0551976334
 20
23.7552027105
 30
0.0
 11
0.3
 21
0.0
 31
0.0
 40
0.0058178298
 41
-3.1357748894
 42
-1.5707963268
  0
ELLIPSE
  5
790
100
AcDbEntity
  8
268
100
AcDbEllipse
 62
7
  6
CONTINUOUS
 10
-7.9499543016
 20
-21.2757816297
 30
0.0
 11
0.2121966568
 21
-0.2121966568
 31
0.0
 40
0.9996954599
 41
-2.3563467834
 42
-1.5707963268
  0
ELLIPSE
  5
791
100
AcDbEntity
  8
268
100
AcDbEllipse
 62
7
  6
CONTINUOUS
 10
7.1344742226
 20
-22.0912617087
 30
0.0
 11
0.2121481893
 21
0.2121481893
 31
0.0
 40
0.9999238505
 41
-2.3562325664
 42
-1.5707963268
  0
ELLIPSE
  5
792
100
AcDbEntity
  8
268
100
AcDbEllipse
 62
7
  6
CONTINUOUS
 10
6.9999885765
 20
-20.0
 30
0.0
 11
0.3000114235
 21
-0.0
 31
0.0
 40
0.9999619231
 41
0.0
 42
1.5707963268
  0
ELLIPSE
  5
793
100
AcDbEntity
  8
268
100
AcDbEllipse
 62
7
  6
CONTINUOUS
 10
6.35
 20
-20.0846506176
 30
0.0
 11
0.3
 21
-0.0
 31
0.0
 40
0.0087268678
 41
-3.1415926536
 42
-1.5707963268
  0
ELLIPSE
  5
794
100
AcDbEntity
  8
268
100
AcDbEllipse
 62
7
  6
CONTINUOUS
 10
7.9499543016
 20
-21.2757816297
 30
0.0
 11
0.2121966568
 21
0.2121966568
 31
0.0
 40
0.9996954599
 41
-1.5707963268
 42
-0.7852458701
  0
ELLIPSE
  5
795
100
AcDbEntity
  8
268
100
AcDbEllipse
 62
7
  6
CONTINUOUS
 10
-6.35
 20
-20.0846506176
 30
0.0
 11
0.3
 21
-0.0
 31
0.0
 40
0.0087268678
 41
-1.5707963268
 42
0.0
  0
ELLIPSE
  5
796
100
AcDbEntity
  8
268
100
AcDbEllipse
 62
7
  6
CONTINUOUS
 10
7.9499543016
 20
-21.2
 30
0.0
 11
0.3000456984
 21
0.0
 31
0.0
 40
0.9998476952
 41
0.0
 42
1.5707963268
  0
ELLIPSE
  5
797
100
AcDbEntity
  8
268
100
AcDbEllipse
 62
7
  6
CONTINUOUS
 10
-6.9999885765
 20
-20.0
 30
0.0
 11
0.3000114235
 21
-0.0
 31
0.0
 40
0.9999619231
 41
1.5707963268
 42
3.1415926536
  0
ELLIPSE
  5
798
100
AcDbEntity
  8
268
100
AcDbEllipse
 62
7
  6
CONTINUOUS
 10
6.35
 20
20.0846506176
 30
0.0
 11
0.3
 21
0.0
 31
0.0
 40
0.0087268678
 41
1.5707963268
 42
3.1415926536
  0
ELLIPSE
  5
799
100
AcDbEntity
  8
268
100
AcDbEllipse
 62
7
  6
CONTINUOUS
 10
7.7754036523
 20
-21.2
 30
0.0
 11
0.3000456984
 21
-0.0
 31
0.0
 40
0.9998476952
 41
1.5533430343
 42
1.5707963268
  0
ELLIPSE
  5
79A
100
AcDbEntity
  8
268
100
AcDbEllipse
 62
7
  6
CONTINUOUS
 10
6.9999885765
 20
20.0
 30
0.0
 11
0.3000114235
 21
0.0
 31
0.0
 40
0.9999619231
 41
-1.5707963268
 42
0.0
  0
ELLIPSE
  5
79B
100
AcDbEntity
  8
268
100
AcDbEllipse
 62
7
  6
CONTINUOUS
 10
-6.9999885765
 20
20.0
 30
0.0
 11
0.3000114235
 21
0.0
 31
0.0
 40
0.9999619231
 41
3.1415926536
 42
4.7123889804
  0
ELLIPSE
  5
79C
100
AcDbEntity
  8
268
100
AcDbEllipse
 62
7
  6
CONTINUOUS
 10
-6.35
 20
20.0846506176
 30
0.0
 11
0.3
 21
0.0
 31
0.0
 40
0.0087268678
 41
-0.0
 42
1.5707963268
  0
ELLIPSE
  5
79D
100
AcDbEntity
  8
218_STAMPATO
100
AcDbEllipse
 62
7
  6
CONTINUOUS
 10
2.899923836
 20
141.875642436
 30
0.0
 11
-0.4997620717
 21
162.4815824859
 31
0.0
 40
0.000109066
 41
-3.0590873329
 42
-3.0483969569
  0
ELLIPSE
  5
79E
100
AcDbEntity
  8
218_STAMPATO
100
AcDbEllipse
 62
7
  6
CONTINUOUS
 10
2.899923836
 20
-141.875642436
 30
0.0
 11
0.4997620717
 21
162.4815824859
 31
0.0
 40
0.000109066
 41
-0.0931956966
 42
-0.0825053207
  0
ELLIPSE
  5
79F
100
AcDbEntity
  8
218_STAMPATO
100
AcDbEllipse
 62
7
  6
CONTINUOUS
 10
-2.899923836
 20
141.875642436
 30
0.0
 11
0.4997620717
 21
162.4815824859
 31
0.0
 40
0.000109066
 41
-3.2347883502
 42
-3.2240979743
  0
ELLIPSE
  5
7A0
100
AcDbEntity
  8
218_STAMPATO
100
AcDbEllipse
 62
7
  6
CONTINUOUS
 10
-2.899923836
 20
-141.875642436
 30
0.0
 11
-0.4997620717
 21
162.4815824859
 31
0.0
 40
0.000109066
 41
0.0825053207
 42
0.0931956966
  0
ELLIPSE
  5
7A1
100
AcDbEntity
  8
218_STAMPATO
100
AcDbEllipse
 62
7
  6
CONTINUOUS
 10
-9.1496953439
 20
17.6714466826
 30
0.0
 11
1.8480888181
 21
-0.7655034529
 31
0.0
 40
0.9998215708
 41
2.7489566578
 42
3.5342286494
  0
ELLIPSE
  5
7A2
100
AcDbEntity
  8
218_STAMPATO
100
AcDbEllipse
 62
7
  6
CONTINUOUS
 10
-9.1496953439
 20
-17.6714466826
 30
0.0
 11
1.8480888181
 21
0.7655034529
 31
0.0
 40
0.9998215708
 41
2.7489566578
 42
3.5342286494
  0
ELLIPSE
  5
7A3
100
AcDbEntity
  8
218_STAMPATO
100
AcDbEllipse
 62
7
  6
CONTINUOUS
 10
9.1496953439
 20
-17.6714466826
 30
0.0
 11
1.8480888181
 21
-0.7655034529
 31
0.0
 40
0.9998215708
 41
-0.3926359958
 42
0.3926359958
  0
ELLIPSE
  5
7A4
100
AcDbEntity
  8
218_STAMPATO
100
AcDbEllipse
 62
7
  6
CONTINUOUS
 10
9.1496953439
 20
17.6714466826
 30
0.0
 11
1.8480888181
 21
0.7655034529
 31
0.0
 40
0.9998215708
 41
-0.3926359958
 42
0.3926359958
  0
ELLIPSE
  5
7A5
100
AcDbEntity
  8
218_STAMPATO
100
AcDbEllipse
 62
7
  6
CONTINUOUS
 10
-5.25
 20
-18.0761802341
 30
0.0
 11
2.75
 21
-0.0
 31
0.0
 40
0.0058178298
 41
-3.1328660073
 42
-0.0087266463
  0
ELLIPSE
  5
7A6
100
AcDbEntity
  8
218_STAMPATO
100
AcDbEllipse
 62
7
  6
CONTINUOUS
 10
5.25
 20
-18.0761802341
 30
0.0
 11
2.75
 21
-0.0
 31
0.0
 40
0.0058178298
 41
-3.1328660073
 42
-0.0087266463
  0
ELLIPSE
  5
7A7
100
AcDbEntity
  8
218_STAMPATO
100
AcDbEllipse
 62
7
  6
CONTINUOUS
 10
5.25
 20
7.9761802341
 30
0.0
 11
2.75
 21
-0.0
 31
0.0
 40
0.0058178298
 41
0.0087266463
 42
3.1328660073
  0
ELLIPSE
  5
7A8
100
AcDbEntity
  8
218_STAMPATO
100
AcDbEllipse
 62
7
  6
CONTINUOUS
 10
-5.25
 20
7.9761802341
 30
0.0
 11
2.75
 21
-0.0
 31
0.0
 40
0.0058178298
 41
0.0087266463
 42
3.1328660073
  0
ELLIPSE
  5
7A9
100
AcDbEntity
  8
218_STAMPATO
100
AcDbEllipse
 62
7
  6
CONTINUOUS
 10
5.25
 20
-18.0706532958
 30
0.0
 11
2.75839524
 21
-0.0
 31
0.0
 40
0.0058178298
 41
0.0
 42
3.1415926536
  0
ELLIPSE
  5
7AA
100
AcDbEntity
  8
218_STAMPATO
100
AcDbEllipse
 62
7
  6
CONTINUOUS
 10
-5.25
 20
-18.0706532958
 30
0.0
 11
2.75839524
 21
-0.0
 31
0.0
 40
0.0058178298
 41
0.0
 42
3.1415926536
  0
ELLIPSE
  5
7AB
100
AcDbEntity
  8
218_STAMPATO
100
AcDbEllipse
 62
7
  6
CONTINUOUS
 10
-5.25
 20
7.9706532958
 30
0.0
 11
2.75839524
 21
-0.0
 31
0.0
 40
0.0058178298
 41
-3.1415926536
 42
0.0
  0
ELLIPSE
  5
7AC
100
AcDbEntity
  8
218_STAMPATO
100
AcDbEllipse
 62
7
  6
CONTINUOUS
 10
5.25
 20
7.9706532958
 30
0.0
 11
2.75839524
 21
-0.0
 31
0.0
 40
0.0058178298
 41
-3.1415926536
 42
-0.0
  0
ELLIPSE
  5
7AD
100
AcDbEntity
  8
218_STAMPATO
100
AcDbEllipse
 62
7
  6
CONTINUOUS
 10
-5.25
 20
-19.506829698
 30
0.0
 11
3.3022581827
 21
-0.0
 31
0.0
 40
0.0174559514
 41
3.1402413834
 42
6.2845365774
  0
ELLIPSE
  5
7AE
100
AcDbEntity
  8
218_STAMPATO
100
AcDbEllipse
 62
7
  6
CONTINUOUS
 10
5.25
 20
-19.506829698
 30
0.0
 11
3.3022581827
 21
-0.0
 31
0.0
 40
0.0174559514
 41
3.1402413834
 42
6.2845365774
  0
ELLIPSE
  5
7AF
100
AcDbEntity
  8
218_STAMPATO
100
AcDbEllipse
 62
7
  6
CONTINUOUS
 10
2.4020043045
 20
-19.9021566325
 30
0.0
 11
1.0000047088
 21
-0.0000084854
 31
0.0
 40
0.0176698676
 41
0.0754195703
 42
1.5712765441
  0
ELLIPSE
  5
7B0
100
AcDbEntity
  8
218_STAMPATO
100
AcDbEllipse
 62
7
  6
CONTINUOUS
 10
-0.6355613827
 20
9.7644766957
 30
0.0
 11
1.0
 21
-0.0
 31
0.0
 40
0.0087268678
 41
-1.5707963268
 42
-0.0087266463
  0
ELLIPSE
  5
7B1
100
AcDbEntity
  8
218_STAMPATO
100
AcDbEllipse
 62
7
  6
CONTINUOUS
 10
-0.6355613827
 20
18.2355233043
 30
0.0
 11
1.0
 21
-0.0
 31
0.0
 40
0.0087268678
 41
0.0087266463
 42
1.5707963268
  0
ELLIPSE
  5
7B2
100
AcDbEntity
  8
218_STAMPATO
100
AcDbEllipse
 62
7
  6
CONTINUOUS
 10
-2.4020043045
 20
-19.9021566325
 30
0.0
 11
1.0000047088
 21
0.0000084854
 31
0.0
 40
0.0176698676
 41
1.5703161095
 42
3.0661730833
  0
ELLIPSE
  5
7B3
100
AcDbEntity
  8
218_STAMPATO
100
AcDbEllipse
 62
7
  6
CONTINUOUS
 10
5.25
 20
9.0712658001
 30
0.0
 11
3.1085301141
 21
0.0
 31
0.0
 40
0.0174559514
 41
-0.0013512702
 42
3.1429439238
  0
ELLIPSE
  5
7B4
100
AcDbEntity
  8
218_STAMPATO
100
AcDbEllipse
 62
7
  6
CONTINUOUS
 10
-5.25
 20
9.0712658001
 30
0.0
 11
3.1085301141
 21
-0.0
 31
0.0
 40
0.0174559514
 41
-0.0013512702
 42
3.1429439238
  0
ELLIPSE
  5
7B5
100
AcDbEntity
  8
218_STAMPATO
100
AcDbEllipse
 62
7
  6
CONTINUOUS
 10
9.2846696568
 20
13.5846506176
 30
0.0
 11
0.5
 21
0.0
 31
0.0
 40
0.0087268678
 41
1.5707963268
 42
1.7409555892
  0
ELLIPSE
  5
7B6
100
AcDbEntity
  8
218_STAMPATO
100
AcDbEllipse
 62
7
  6
CONTINUOUS
 10
9.2846696568
 20
14.4153493824
 30
0.0
 11
0.5
 21
0.0
 31
0.0
 40
0.0087268678
 41
-1.7409555892
 42
-1.5707963268
  0
ELLIPSE
  5
7B7
100
AcDbEntity
  8
218_STAMPATO
100
AcDbEllipse
 62
7
  6
CONTINUOUS
 10
2.4562609455
 20
7.9832913085
 30
0.0
 11
0.0
 21
1.0
 31
0.0
 40
0.0087268678
 41
1.0852306877
 42
1.5707963268
  0
ELLIPSE
  5
7B8
100
AcDbEntity
  8
218_STAMPATO
100
AcDbEllipse
 62
7
  6
CONTINUOUS
 10
2.7257255946
 20
7.9832913085
 30
0.0
 11
-0.5774011102
 21
0.9999928594
 31
0.0
 40
0.0065449328
 41
0.0136742321
 42
1.0814516273
  0
ELLIPSE
  5
7B9
100
AcDbEntity
  8
218_STAMPATO
100
AcDbEllipse
 62
7
  6
CONTINUOUS
 10
-2.7257255946
 20
7.9832913085
 30
0.0
 11
0.5774011102
 21
0.9999928594
 31
0.0
 40
0.0065449328
 41
-1.0814516273
 42
-0.0136742321
  0
ELLIPSE
  5
7BA
100
AcDbEntity
  8
218_STAMPATO
100
AcDbEllipse
 62
7
  6
CONTINUOUS
 10
-2.4562609455
 20
7.9832913085
 30
0.0
 11
0.0
 21
1.0
 31
0.0
 40
0.0087268678
 41
-1.5707963268
 42
-1.0852306877
  0
ELLIPSE
  5
7BB
100
AcDbEntity
  8
218_STAMPATO
100
AcDbEllipse
 62
7
  6
CONTINUOUS
 10
-8.0437390545
 20
7.9832913085
 30
0.0
 11
-0.0
 21
1.0
 31
0.0
 40
0.0087268678
 41
1.0852306877
 42
1.5707963268
  0
ELLIPSE
  5
7BC
100
AcDbEntity
  8
218_STAMPATO
100
AcDbEllipse
 62
7
  6
CONTINUOUS
 10
-7.7742744054
 20
7.9832913085
 30
0.0
 11
-0.5774011102
 21
0.9999928594
 31
0.0
 40
0.0065449328
 41
0.0136742321
 42
1.0814516273
  0
ELLIPSE
  5
7BD
100
AcDbEntity
  8
218_STAMPATO
100
AcDbEllipse
 62
7
  6
CONTINUOUS
 10
-7.9680000127
 20
-18.4188211266
 30
0.0
 11
0.5774011102
 21
0.9999928594
 31
0.0
 40
0.0065449328
 41
-4.5770518843
 42
-3.1552668857
  0
ELLIPSE
  5
7BE
100
AcDbEntity
  8
218_STAMPATO
100
AcDbEllipse
 62
7
  6
CONTINUOUS
 10
-8.0437390545
 20
-18.4188211266
 30
0.0
 11
0.0
 21
1.0
 31
0.0
 40
0.0087268678
 41
1.5707963268
 42
1.7023543624
  0
ELLIPSE
  5
7BF
100
AcDbEntity
  8
218_STAMPATO
100
AcDbEllipse
 62
7
  6
CONTINUOUS
 10
2.5319999873
 20
-18.4188211266
 30
0.0
 11
0.5774011102
 21
0.9999928594
 31
0.0
 40
0.0065449328
 41
-4.5770518843
 42
-3.1552668857
  0
ELLIPSE
  5
7C0
100
AcDbEntity
  8
218_STAMPATO
100
AcDbEllipse
 62
7
  6
CONTINUOUS
 10
2.4562609455
 20
-18.4188211266
 30
0.0
 11
0.0
 21
1.0
 31
0.0
 40
0.0087268678
 41
1.5707963268
 42
1.7023543624
  0
ELLIPSE
  5
7C1
100
AcDbEntity
  8
218_STAMPATO
100
AcDbEllipse
 62
7
  6
CONTINUOUS
 10
-2.4562609455
 20
-18.4188211266
 30
0.0
 11
0.0
 21
1.0
 31
0.0
 40
0.0087268678
 41
-1.7023543624
 42
-1.5707963268
  0
ELLIPSE
  5
7C2
100
AcDbEntity
  8
218_STAMPATO
100
AcDbEllipse
 62
7
  6
CONTINUOUS
 10
2.4020043045
 20
19.9021566325
 30
0.0
 11
1.0000047088
 21
0.0000084854
 31
0.0
 40
0.0176698676
 41
-1.5712765441
 42
-0.0754195703
  0
ELLIPSE
  5
7C3
100
AcDbEntity
  8
218_STAMPATO
100
AcDbEllipse
 62
7
  6
CONTINUOUS
 10
-2.5319999873
 20
-18.4188211266
 30
0.0
 11
-0.5774011102
 21
0.9999928594
 31
0.0
 40
0.0065449328
 41
-3.1279184215
 42
-1.7061334228
  0
ELLIPSE
  5
7C4
100
AcDbEntity
  8
218_STAMPATO
100
AcDbEllipse
 62
7
  6
CONTINUOUS
 10
8.0437390545
 20
-18.4188211266
 30
0.0
 11
0.0
 21
1.0
 31
0.0
 40
0.0087268678
 41
-1.7023543624
 42
-1.5707963268
  0
ELLIPSE
  5
7C5
100
AcDbEntity
  8
218_STAMPATO
100
AcDbEllipse
 62
7
  6
CONTINUOUS
 10
7.9680000127
 20
-18.4188211266
 30
0.0
 11
-0.5774011102
 21
0.9999928594
 31
0.0
 40
0.0065449328
 41
-3.1279184215
 42
-1.7061334228
  0
ELLIPSE
  5
7C6
100
AcDbEntity
  8
218_STAMPATO
100
AcDbEllipse
 62
7
  6
CONTINUOUS
 10
7.7742744054
 20
7.9832913085
 30
0.0
 11
0.5774011102
 21
0.9999928594
 31
0.0
 40
0.0065449328
 41
-1.0814516273
 42
-0.0136742321
  0
ELLIPSE
  5
7C7
100
AcDbEntity
  8
218_STAMPATO
100
AcDbEllipse
 62
7
  6
CONTINUOUS
 10
8.0437390545
 20
7.9832913085
 30
0.0
 11
-0.0
 21
1.0
 31
0.0
 40
0.0087268678
 41
-1.5707963268
 42
-1.0852306877
  0
ELLIPSE
  5
7C8
100
AcDbEntity
  8
218_STAMPATO
100
AcDbEllipse
 62
7
  6
CONTINUOUS
 10
-2.4020043045
 20
19.9021566325
 30
0.0
 11
1.0000047088
 21
-0.0000084854
 31
0.0
 40
0.0176698676
 41
-3.0661730833
 42
-1.5703161095
  0
ELLIPSE
  5
7C9
100
AcDbEntity
  8
218_STAMPATO
100
AcDbEllipse
 62
7
  6
CONTINUOUS
 10
-9.3778922769
 20
18.6108268408
 30
0.0
 11
-0.3827517265
 21
0.924044409
 31
0.0
 40
0.9998215708
 41
-0.3926359958
 42
0.3926359958
  0
ELLIPSE
  5
7CA
100
AcDbEntity
  8
218_STAMPATO
100
AcDbEllipse
 62
7
  6
CONTINUOUS
 10
9.3778922769
 20
18.6108268408
 30
0.0
 11
0.3827517265
 21
0.924044409
 31
0.0
 40
0.9998215708
 41
-0.3926359958
 42
0.3926359958
  0
ELLIPSE
  5
7CB
100
AcDbEntity
  8
218_STAMPATO
100
AcDbEllipse
 62
7
  6
CONTINUOUS
 10
9.3778922769
 20
-18.6108268408
 30
0.0
 11
-0.3827517265
 21
0.924044409
 31
0.0
 40
0.9998215708
 41
-3.5342286494
 42
-2.7489566578
  0
ELLIPSE
  5
7CC
100
AcDbEntity
  8
218_STAMPATO
100
AcDbEllipse
 62
7
  6
CONTINUOUS
 10
-9.3778922769
 20
-18.6108268408
 30
0.0
 11
0.3827517265
 21
0.924044409
 31
0.0
 40
0.9998215708
 41
-3.5342286494
 42
-2.7489566578
  0
ENDSEC
  0
SECTION
  2
OBJECTS
  0
DICTIONARY
  5
C
100
AcDbDictionary
280
0
281
1
  3
ACAD_GROUP
350
D
  3
ACAD_MLINESTYLE
350
17
  3
ACAD_LAYOUT
350
1A
  3
ACAD_PLOTSETTINGS
350
19
  3
ACAD_PLOTSTYLENAME
350
E
  0
DICTIONARY
  5
D
102
{ACAD_REACTORS
330
C
102
}
100
AcDbDictionary
280
0
281
1
  0
ACDBDICTIONARYWDFLT
  5
E
102
{ACAD_REACTORS
330
C
102
}
100
AcDbDictionary
281
1
  3
Normal
350
F
100
AcDbDictionaryWithDefault
340
F
  0
DICTIONARY
  5
17
102
{ACAD_REACTORS
330
C
102
}
100
AcDbDictionary
280
0
281
1
  3
Standard
350
18
  0
DICTIONARY
  5
19
102
{ACAD_REACTORS
330
C
102
}
100
AcDbDictionary
281
1
  0
DICTIONARY
  5
1A
102
{ACAD_REACTORS
330
C
102
}
100
AcDbDictionary
281
1
  3
Model
350
7CD
  3
Layout1
350
7CE
  0
ACDBPLACEHOLDER
  5
F
102
{ACAD_REACTORS
330
E
102
}
  0
MLINESTYLE
  5
18
102
{ACAD_REACTORS
330
17
102
}
100
AcDbMlineStyle
  2
STANDARD
 70
0
  3

 62
256
 51
90.0
 52
90.0
 71
2
 49
0.5
 62
256
  6
BYLAYER
 49
-0.5
 62
256
  6
BYLAYER
  0
LAYOUT
  5
7CD
102
{ACAD_REACTORS
330
1A
102
}
100
AcDbPlotSettings
  1

  2
none_device
  4
ISO_A4_(297.00_x_210.00_MM)
  6

 40
0.0
 41
0.0
 42
0.0
 43
0.0
 44
297.0
 45
210.0
 46
0.0
 47
0.0
 48
0.0
 49
0.0
140
0.0
141
0.0
142
1.0
143
1.0
 70
1024
 72
1
 73
0
 74
0
  7

 75
0
147
1.0
148
0.0
149
0.0
100
AcDbLayout
  1
Model
 70
0
 71
0
 10
0.0
 20
0.0
 11
297.0
 21
210.0
 12
0.0
 22
0.0
 32
0.0
 14
0.0
 24
0.0
 34
0.0
 15
0.0
 25
0.0
 35
0.0
146
0.0
 13
0.0
 23
0.0
 33
0.0
 16
1.0
 26
0.0
 36
0.0
 17
0.0
 27
1.0
 37
0.0
 76
0
330
22B
345
0
346
0
  0
LAYOUT
  5
7CE
102
{ACAD_REACTORS
330
1A
102
}
100
AcDbPlotSettings
  1

  2
none_device
  4
ISO_A4_(297.00_x_210.00_MM)
  6

 40
0.0
 41
0.0
 42
0.0
 43
0.0
 44
297.0
 45
210.0
 46
0.0
 47
0.0
 48
0.0
 49
0.0
140
0.0
141
0.0
142
1.0
143
1.0
 70
0
 72
1
 73
0
 74
0
  7

 75
0
147
1.0
148
0.0
149
0.0
100
AcDbLayout
  1
Layout1
 70
0
 71
1
 10
0.0
 20
0.0
 11
297.0
 21
210.0
 12
0.0
 22
0.0
 32
0.0
 14
0.0
 24
0.0
 34
0.0
 15
0.0
 25
0.0
 35
0.0
146
0.0
 13
0.0
 23
0.0
 33
0.0
 16
1.0
 26
0.0
 36
0.0
 17
0.0
 27
1.0
 37
0.0
 76
0
330
22C
345
0
346
0
  0
ENDSEC
  0
EOF
