0
SECTION
2
HEADER
9
$ACADVER
1
AC1015
9
$DWGCODEPAGE
3
ANSI_1252
9
$EXTMAX
10
431.8000000000
20
558.8000000000
30
0.0000000000
9
$EXTMIN
10
0.0000000000
20
0.0000000000
30
0.0000000000
9
$LIMMIN
10
0.0000000000
20
0.0000000000
9
$LIMMAX
10
431.8000000000
20
558.8000000000
9
$VIEWCTR
10
215.9000000000
20
279.4000000000
9
$VIEWSIZE
40
558.8000000000
9
$CLAYER
8
0
9
$LTSCALE
40
36.4254814815
9
$CELTYPE
6
BYLAYER
9
$DIMSCALE
40
1
9
$DIMASZ
40
3.0000000000
9
$DIMEXO
40
4.1392592593
9
$DIMDLI
40
25.1666962963
9
$DIMEXE
40
11.9210666667
9
$DIMCEN
40
5.9605333333
9
$DIMLFAC
40
1.0000000000
9
$DIMBLK
1
_FILLED
9
$DIMTXT
40
3.0000000000
9
$DIMTOL
70
1
9
$DIMLIM
70
0
9
$DIMTFAC
40
1.0000000000
9
$DIMTP
40
0.0100000000
9
$DIMTM
40
0.0100000000
9
$PDMODE
70
3
9
$PDSIZE
40
3.0000000000
9
$HANDSEED
5
451
9
$MEASUREMENT
70
1
9
$INSUNITS
70
4
0
ENDSEC
0
SECTION
2
CLASSES
0
CLASS
1
ACDBDICTIONARYWDFLT
2
AcDbDictionaryWithDefault
3
AutoCAD 2000
90
0
280
0
281
0
0
CLASS
1
ACDBPLACEHOLDER
2
AcDbPlaceHolder
3
AutoCAD 2000
90
0
280
0
281
0
0
CLASS
1
LAYOUT
2
AcDbLayout
3
AutoCAD 2000
90
0
280
0
281
0
0
ENDSEC
0
SECTION
2
TABLES
0
TABLE
2
VPORT
5
8
100
AcDbSymbolTable
70
2
0
VPORT
5
1F4
100
AcDbSymbolTableRecord
100
AcDbViewportTableRecord
2
*ACTIVE
70
0
10
0.0
20
0.0
11
1.0
21
1.0
12
215.9000000000
22
279.4000000000
13
0.0
23
0.0
14
1.0
24
1.0
15
0.0
25
0.0
16
0.0
26
0.0
36
1.0
17
0.0
27
0.0
37
0.0
40
558.8000000000
41
0.7727272727
42
50.0
43
0.0
44
0.0
50
0.0
51
0.0
71
0
72
100
73
1
74
1
75
0
76
0
77
0
78
0
0
ENDTAB
0
TABLE
2
LTYPE
5
5
100
AcDbSymbolTable
70
6
0
LTYPE
5
14
100
AcDbSymbolTableRecord
100
AcDbLinetypeTableRecord
2
BYBLOCK
70
0
3

72
65
73
0
40
0.0
0
LTYPE
5
15
100
AcDbSymbolTableRecord
100
AcDbLinetypeTableRecord
2
BYLAYER
70
0
3

72
65
73
0
40
0.0
0
LTYPE
5
16
100
AcDbSymbolTableRecord
100
AcDbLinetypeTableRecord
2
CONTINUOUS
70
64
3
Solid line
72
65
73
0
40
0
0
LTYPE
5
1F5
100
AcDbSymbolTableRecord
100
AcDbLinetypeTableRecord
2
CENTER
70
64
3
____ _ ____ _ ____ _ ____ _ ____ _ ____ _ ____
72
65
73
4
40
0.6
49
0.375
74
0
49
-0.075
74
0
49
0.075
74
0
49
-0.075
74
0
0
LTYPE
5
1F6
100
AcDbSymbolTableRecord
100
AcDbLinetypeTableRecord
2
HIDDEN
70
64
3
- - - - - - - - - - - - - - - - - - - -
72
65
73
2
40
0.2
49
0.1
74
0
49
-0.1
74
0
0
LTYPE
5
1F7
100
AcDbSymbolTableRecord
100
AcDbLinetypeTableRecord
2
PHANTOM
70
64
3
_____ _ _ _____ _ _ _____ _ _ _____
72
65
73
6
40
0.8
49
0.45
74
0
49
-0.05
74
0
49
0.1
74
0
49
-0.05
74
0
49
0.1
74
0
49
-0.05
74
0
0
LTYPE
5
1F8
100
AcDbSymbolTableRecord
100
AcDbLinetypeTableRecord
2
DOT
70
64
3
. . . . . . . . . . . . . . . . . . . .
72
65
73
2
40
0.2
49
0.1
74
0
49
-0.1
74
0
0
LTYPE
5
1F9
100
AcDbSymbolTableRecord
100
AcDbLinetypeTableRecord
2
DASHED
70
64
3
- - - - - - - - - - - - - - - - - - - -
72
65
73
2
40
0.2
49
0.1
74
0
49
-0.1
74
0
0
ENDTAB
0
TABLE
2
LAYER
5
2
100
AcDbSymbolTable
70
36
0
LAYER
5
10
100
AcDbSymbolTableRecord
100
AcDbLayerTableRecord
2
0
70
0
62
7
6
CONTINUOUS
370
-3
390
F
0
LAYER
5
1FA
100
AcDbSymbolTableRecord
100
AcDbLayerTableRecord
2
DEFAULT_1
70
0
62
7
6
CENTER
370
-3
390
F
0
LAYER
5
1FB
100
AcDbSymbolTableRecord
100
AcDbLayerTableRecord
2
DEFAULT_2
70
0
62
9
6
HIDDEN
370
-3
390
F
0
LAYER
5
1FC
100
AcDbSymbolTableRecord
100
AcDbLayerTableRecord
2
DEFAULT_3
70
0
62
7
6
PHANTOM
370
-3
390
F
0
LAYER
5
1FD
100
AcDbSymbolTableRecord
100
AcDbLayerTableRecord
2
_2D_DELETED_OBJS
70
0
62
7
6
CONTINUOUS
370
-3
390
F
0
LAYER
5
1FE
100
AcDbSymbolTableRecord
100
AcDbLayerTableRecord
2
_BLACK_HOLE
70
0
62
7
6
CONTINUOUS
370
-3
390
F
0
LAYER
5
1FF
100
AcDbSymbolTableRecord
100
AcDbLayerTableRecord
2
ASSI
70
0
62
7
6
CONTINUOUS
370
-3
390
F
0
LAYER
5
200
100
AcDbSymbolTableRecord
100
AcDbLayerTableRecord
2
COORDINATE
70
0
62
7
6
CONTINUOUS
370
-3
390
F
0
LAYER
5
201
100
AcDbSymbolTableRecord
100
AcDbLayerTableRecord
2
COORD_ORIGINE
70
0
62
7
6
CONTINUOUS
370
-3
390
F
0
LAYER
5
202
100
AcDbSymbolTableRecord
100
AcDbLayerTableRecord
2
COPY_PUBLISH
70
0
62
7
6
CONTINUOUS
370
-3
390
F
0
LAYER
5
203
100
AcDbSymbolTableRecord
100
AcDbLayerTableRecord
2
COSMETIC
70
0
62
7
6
CONTINUOUS
370
-3
390
F
0
LAYER
5
204
100
AcDbSymbolTableRecord
100
AcDbLayerTableRecord
2
CURVE
70
0
62
7
6
CONTINUOUS
370
-3
390
F
0
LAYER
5
205
100
AcDbSymbolTableRecord
100
AcDbLayerTableRecord
2
DRAFT
70
0
62
7
6
CONTINUOUS
370
-3
390
F
0
LAYER
5
206
100
AcDbSymbolTableRecord
100
AcDbLayerTableRecord
2
IMPORT
70
0
62
7
6
CONTINUOUS
370
-3
390
F
0
LAYER
5
207
100
AcDbSymbolTableRecord
100
AcDbLayerTableRecord
2
IMPORT_IGES
70
0
62
7
6
CONTINUOUS
370
-3
390
F
0
LAYER
5
208
100
AcDbSymbolTableRecord
100
AcDbLayerTableRecord
2
NOTE
70
0
62
7
6
CONTINUOUS
370
-3
390
F
0
LAYER
5
209
100
AcDbSymbolTableRecord
100
AcDbLayerTableRecord
2
PIANI
70
0
62
7
6
CONTINUOUS
370
-3
390
F
0
LAYER
5
20A
100
AcDbSymbolTableRecord
100
AcDbLayerTableRecord
2
PIANI_ORIGINE
70
0
62
7
6
CONTINUOUS
370
-3
390
F
0
LAYER
5
20B
100
AcDbSymbolTableRecord
100
AcDbLayerTableRecord
2
PUNTI
70
0
62
7
6
CONTINUOUS
370
-3
390
F
0
LAYER
5
20C
100
AcDbSymbolTableRecord
100
AcDbLayerTableRecord
2
RACCORDO
70
0
62
7
6
CONTINUOUS
370
-3
390
F
0
LAYER
5
20D
100
AcDbSymbolTableRecord
100
AcDbLayerTableRecord
2
SMUSSO
70
0
62
7
6
CONTINUOUS
370
-3
390
F
0
LAYER
5
20E
100
AcDbSymbolTableRecord
100
AcDbLayerTableRecord
2
SUPERFICI
70
0
62
7
6
CONTINUOUS
370
-3
390
F
0
LAYER
5
20F
100
AcDbSymbolTableRecord
100
AcDbLayerTableRecord
2
TRASH
70
0
62
7
6
CONTINUOUS
370
-3
390
F
0
LAYER
5
210
100
AcDbSymbolTableRecord
100
AcDbLayerTableRecord
2
XSEC_DATUMS
70
0
62
7
6
CONTINUOUS
370
-3
390
F
0
ENDTAB
0
TABLE
2
STYLE
5
3
100
AcDbSymbolTable
70
1
0
STYLE
5
11
100
AcDbSymbolTableRecord
100
AcDbTextStyleTableRecord
2
STANDARD
70
0
40
0.0
41
0.8000000000
50
0.0
71
0
42
0.2
3
txt
4

0
ENDTAB
0
TABLE
2
VIEW
5
6
100
AcDbSymbolTable
70
0
0
ENDTAB
0
TABLE
2
UCS
5
7
100
AcDbSymbolTable
70
0
0
ENDTAB
0
TABLE
2
APPID
5
9
100
AcDbSymbolTable
70
1
0
APPID
5
211
100
AcDbSymbolTableRecord
100
AcDbRegAppTableRecord
2
ACAD
70
0
0
ENDTAB
0
TABLE
2
BLOCK_RECORD
5
1
100
AcDbSymbolTable
70
0
0
BLOCK_RECORD
5
1F
100
AcDbSymbolTableRecord
100
AcDbBlockTableRecord
2
*MODEL_SPACE
0
BLOCK_RECORD
5
1B
100
AcDbSymbolTableRecord
100
AcDbBlockTableRecord
2
*PAPER_SPACE
0
ENDTAB
0
TABLE
2
DIMSTYLE
5
A
100
AcDbSymbolTable
70
1
100
AcDbDimStyleTable
71
0
0
DIMSTYLE
105
212
100
AcDbSymbolTableRecord
100
AcDbDimStyleTableRecord
2
STANDARD
70
0
3

4

40
1.0
41
3.0000000000
42
0.0625
43
0.38
44
0.18
45
0.0
46
0.0
47
0.0100000000
48
0.0100000000
140
3.0000000000
141
0.09
142
0.0
143
25.4
144
1.0000000000
145
0.0
146
1.0000000000
147
0.09
71
1
72
0
73
0
74
0
75
0
76
0
77
1
78
8
170
0
171
2
172
0
173
0
174
0
175
0
176
0
177
0
178
0
270
2
271
2
272
2
273
2
274
2
275
0
280
0
281
0
282
0
283
1
284
8
285
0
286
0
287
3
288
0
340
11
0
ENDTAB
0
ENDSEC
0
SECTION
2
BLOCKS
0
BLOCK
5
20
100
AcDbEntity
8
0
100
AcDbBlockBegin
2
*MODEL_SPACE
70
0
10
0.0
20
0.0
30
0.0
3
*MODEL_SPACE
1

0
ENDBLK
5
21
100
AcDbEntity
8
0
100
AcDbBlockEnd
0
BLOCK
5
1C
100
AcDbEntity
8
0
100
AcDbBlockBegin
2
*PAPER_SPACE
70
0
10
0.0
20
0.0
30
0.0
3
*PAPER_SPACE
1

0
ENDBLK
5
1D
100
AcDbEntity
8
0
100
AcDbBlockEnd
0
ENDSEC
0
SECTION
2
ENTITIES
0
LINE
5
213
100
AcDbEntity
8
0
100
AcDbLine
62
0
6
CONTINUOUS
10
10.1716330785
20
-21.7605619043
11
-10.0286106092
21
-21.7605619043
0
LINE
5
214
100
AcDbEntity
8
0
100
AcDbLine
62
0
6
CONTINUOUS
10
-9.6285192263
20
-20.4605619043
11
9.7715416956
21
-20.4605619043
0
LINE
5
215
100
AcDbEntity
8
0
100
AcDbLine
62
9
6
CONTINUOUS
10
-9.4831055932
20
-20.3635947020
11
-8.8982020924
21
-20.3635947239
0
LINE
5
216
100
AcDbEntity
8
0
100
AcDbLine
62
9
6
CONTINUOUS
10
-6.3284887617
20
-20.3635948201
11
-4.0832509162
21
-20.3635949041
0
LINE
5
217
100
AcDbEntity
8
0
100
AcDbLine
62
9
6
CONTINUOUS
10
4.2262733855
20
-20.3635949041
11
6.4715112346
21
-20.3635949041
0
LINE
5
218
100
AcDbEntity
8
0
100
AcDbLine
62
9
6
CONTINUOUS
10
9.0412257332
20
-20.3635949041
11
9.6745746954
21
-20.3635949041
0
LINE
5
219
100
AcDbEntity
8
0
100
AcDbLine
62
9
6
CONTINUOUS
10
-2.0284887654
20
-20.3612655592
11
2.1715112346
21
-20.3612655592
0
LINE
5
21A
100
AcDbEntity
8
0
100
AcDbLine
62
9
6
CONTINUOUS
10
-2.0284887654
20
-20.2202870300
11
2.1712318267
21
-20.2202870300
0
LINE
5
21B
100
AcDbEntity
8
0
100
AcDbLine
62
9
6
CONTINUOUS
10
-9.7298067219
20
-20.0636405956
11
-6.9284887655
21
-20.0636404370
0
LINE
5
21C
100
AcDbEntity
8
0
100
AcDbLine
62
9
6
CONTINUOUS
10
-6.3284887432
20
-20.0636404704
11
-4.0832509162
21
-20.0636405956
0
LINE
5
21D
100
AcDbEntity
8
0
100
AcDbLine
62
9
6
CONTINUOUS
10
4.2262733855
20
-20.0636405956
11
6.4715112346
21
-20.0636405956
0
LINE
5
21E
100
AcDbEntity
8
0
100
AcDbLine
62
9
6
CONTINUOUS
10
7.0715112346
20
-20.0636405956
11
9.8728291912
21
-20.0636405956
0
LINE
5
21F
100
AcDbEntity
8
0
100
AcDbLine
62
0
6
CONTINUOUS
10
-6.3284887654
20
-20.0605619043
11
-6.9284887654
21
-20.0605619043
0
LINE
5
220
100
AcDbEntity
8
0
100
AcDbLine
62
0
6
CONTINUOUS
10
6.4715112346
20
-20.0605619043
11
7.0715112346
21
-20.0605619043
0
LINE
5
221
100
AcDbEntity
8
0
100
AcDbLine
62
0
6
CONTINUOUS
10
-6.9284887654
20
-20.0605619043
11
-9.4831055965
21
-20.4535798784
0
LINE
5
222
100
AcDbEntity
8
0
100
AcDbLine
62
0
6
CONTINUOUS
10
9.6728596522
20
-19.8054196776
11
5.3215112346
21
-19.8054216398
0
LINE
5
223
100
AcDbEntity
8
0
100
AcDbLine
62
0
6
CONTINUOUS
10
-5.1784887654
20
-19.8054216398
11
-9.5298371829
21
-19.8054196776
0
LINE
5
224
100
AcDbEntity
8
0
100
AcDbLine
62
0
6
CONTINUOUS
10
-2.0284887654
20
-19.4006957159
11
2.1715112346
21
-19.4006957159
0
LINE
5
225
100
AcDbEntity
8
0
100
AcDbLine
62
0
6
CONTINUOUS
10
2.1715112346
20
-18.6000888654
11
-2.0284887654
21
-18.6000888654
0
LINE
5
226
100
AcDbEntity
8
0
100
AcDbLine
62
0
6
CONTINUOUS
10
7.0715112346
20
-20.0605619043
11
9.6261280658
21
-20.4535798784
0
LINE
5
227
100
AcDbEntity
8
0
100
AcDbLine
62
0
6
CONTINUOUS
10
-9.7263766355
20
15.1894380957
11
-9.7253107011
21
15.1905040301
0
LINE
5
228
100
AcDbEntity
8
0
100
AcDbLine
62
9
6
CONTINUOUS
10
4.7215112346
20
-17.4605619043
11
4.7110381957
21
-17.4605619043
0
LINE
5
229
100
AcDbEntity
8
0
100
AcDbLine
62
9
6
CONTINUOUS
10
-5.1784887654
20
-17.4605619043
11
-5.1889618043
21
-17.4605619043
0
LINE
5
22A
100
AcDbEntity
8
0
100
AcDbLine
62
9
6
CONTINUOUS
10
-4.5784887654
20
-17.4605619043
11
-4.5680157264
21
-17.4605619043
0
LINE
5
22B
100
AcDbEntity
8
0
100
AcDbLine
62
9
6
CONTINUOUS
10
5.3215112346
20
-17.4605619043
11
5.3319842736
21
-17.4605619043
0
LINE
5
22C
100
AcDbEntity
8
0
100
AcDbLine
62
0
6
CONTINUOUS
10
7.6487592496
20
-16.2033822274
11
5.6531694660
21
-16.2033822274
0
LINE
5
22D
100
AcDbEntity
8
0
100
AcDbLine
62
0
6
CONTINUOUS
10
-5.5101469967
20
-16.2033822274
11
-7.5057367803
21
-16.2033822274
0
LINE
5
22E
100
AcDbEntity
8
0
100
AcDbLine
62
0
6
CONTINUOUS
10
-5.4431032733
20
-15.7067994342
11
-5.0108122428
21
-15.7067994342
0
LINE
5
22F
100
AcDbEntity
8
0
100
AcDbLine
62
0
6
CONTINUOUS
10
5.1538347120
20
-15.7067994342
11
5.5861257426
21
-15.7067994342
0
LINE
5
230
100
AcDbEntity
8
0
100
AcDbLine
62
0
6
CONTINUOUS
10
-5.5163275504
20
-15.6105619043
11
-5.1131693092
21
-15.6105619043
0
LINE
5
231
100
AcDbEntity
8
0
100
AcDbLine
62
0
6
CONTINUOUS
10
5.2561917784
20
-15.6105619043
11
5.6593500197
21
-15.6105619043
0
LINE
5
232
100
AcDbEntity
8
0
100
AcDbLine
62
0
6
CONTINUOUS
10
7.2864403634
20
-15.5105619043
11
5.9188436191
21
-15.5105619043
0
LINE
5
233
100
AcDbEntity
8
0
100
AcDbLine
62
0
6
CONTINUOUS
10
-5.7758211499
20
-15.5105619043
11
-7.1434178941
21
-15.5105619043
0
LINE
5
234
100
AcDbEntity
8
0
100
AcDbLine
62
0
6
CONTINUOUS
10
6.6070061097
20
-15.1105619043
11
6.1467470767
21
-15.1105619043
0
LINE
5
235
100
AcDbEntity
8
0
100
AcDbLine
62
0
6
CONTINUOUS
10
-6.0037246074
20
-15.1105619043
11
-6.4639836404
21
-15.1105619043
0
LINE
5
236
100
AcDbEntity
8
0
100
AcDbLine
62
0
6
CONTINUOUS
10
-6.4399055551
20
-15.0756411348
11
-6.2428645931
21
-15.0756411348
0
LINE
5
237
100
AcDbEntity
8
0
100
AcDbLine
62
0
6
CONTINUOUS
10
6.3858870624
20
-15.0756411348
11
6.5829280244
21
-15.0756411348
0
LINE
5
238
100
AcDbEntity
8
0
100
AcDbLine
62
0
6
CONTINUOUS
10
-9.7263766355
20
-10.4105619043
11
-9.7215666088
21
-10.4153719311
0
LINE
5
239
100
AcDbEntity
8
0
100
AcDbLine
62
0
6
CONTINUOUS
10
-10.8284887654
20
-20.9606837482
11
-10.8284887654
21
20.7395599396
0
LINE
5
23A
100
AcDbEntity
8
0
100
AcDbLine
62
0
6
CONTINUOUS
10
6.5829280244
20
-11.1454826738
11
6.3858870624
21
-11.1454826738
0
LINE
5
23B
100
AcDbEntity
8
0
100
AcDbLine
62
0
6
CONTINUOUS
10
-6.2428645931
20
-11.1454826738
11
-6.4399055551
21
-11.1454826738
0
LINE
5
23C
100
AcDbEntity
8
0
100
AcDbLine
62
9
6
CONTINUOUS
10
-6.7439387362
20
-11.3030687308
11
-6.7204029796
21
-11.3394151870
0
LINE
5
23D
100
AcDbEntity
8
0
100
AcDbLine
62
0
6
CONTINUOUS
10
-5.8116067730
20
-14.8165859782
11
-5.8126072044
21
-14.8143657779
0
LINE
5
23E
100
AcDbEntity
8
0
100
AcDbLine
62
9
6
CONTINUOUS
10
-9.5212345604
20
-9.8019611783
11
-9.5248004651
21
14.5844057078
0
LINE
5
23F
100
AcDbEntity
8
0
100
AcDbLine
62
0
6
CONTINUOUS
10
-10.5284887654
20
-6.0906934890
11
-10.5284887654
21
5.8695696803
0
LINE
5
240
100
AcDbEntity
8
0
100
AcDbLine
62
0
6
CONTINUOUS
10
-9.8284887654
20
-20.2605923653
11
-9.8284887654
21
-7.6105619043
0
LINE
5
241
100
AcDbEntity
8
0
100
AcDbLine
62
0
6
CONTINUOUS
10
-9.8284887654
20
7.3894380957
11
-9.8284887654
21
20.0394685566
0
LINE
5
242
100
AcDbEntity
8
0
100
AcDbLine
62
0
6
CONTINUOUS
10
-9.8160531555
20
-7.6105619043
11
-9.8160531555
21
7.3894380957
0
LINE
5
243
100
AcDbEntity
8
0
100
AcDbLine
62
9
6
CONTINUOUS
10
-9.7298067219
20
19.8425167869
11
-9.7298067219
21
19.5776960176
0
LINE
5
244
100
AcDbEntity
8
0
100
AcDbLine
62
9
6
CONTINUOUS
10
-9.7298067219
20
-19.7988198262
11
-9.7298067219
21
-20.0636405956
0
LINE
5
245
100
AcDbEntity
8
0
100
AcDbLine
62
0
6
CONTINUOUS
10
-9.7263766355
20
-10.4105619043
11
-9.7263766355
21
-9.8105619043
0
LINE
5
246
100
AcDbEntity
8
0
100
AcDbLine
62
0
6
CONTINUOUS
10
-9.7263766355
20
14.5894380957
11
-9.7263766355
21
15.1894380957
0
LINE
5
247
100
AcDbEntity
8
0
100
AcDbLine
62
9
6
CONTINUOUS
10
-9.5298371829
20
19.8425286376
11
-9.5253350571
21
15.1939356963
0
LINE
5
248
100
AcDbEntity
8
0
100
AcDbLine
62
9
6
CONTINUOUS
10
-9.5298371829
20
-20.0636402920
11
-9.5215949767
21
-10.4188020562
0
LINE
5
249
100
AcDbEntity
8
0
100
AcDbLine
62
0
6
CONTINUOUS
10
-5.5163275504
20
-10.6105619043
11
-5.1131693092
21
-10.6105619043
0
LINE
5
24A
100
AcDbEntity
8
0
100
AcDbLine
62
0
6
CONTINUOUS
10
5.2561917784
20
-10.6105619043
11
5.6593500197
21
-10.6105619043
0
LINE
5
24B
100
AcDbEntity
8
0
100
AcDbLine
62
0
6
CONTINUOUS
10
6.1719219290
20
-10.6018130380
11
5.6552136403
21
-10.6018130380
0
LINE
5
24C
100
AcDbEntity
8
0
100
AcDbLine
62
0
6
CONTINUOUS
10
-5.5121911710
20
-10.6018130380
11
-6.0288994597
21
-10.6018130380
0
LINE
5
24D
100
AcDbEntity
8
0
100
AcDbLine
62
0
6
CONTINUOUS
10
-6.0114443948
20
-10.5143243744
11
-5.0108122428
21
-10.5143243744
0
LINE
5
24E
100
AcDbEntity
8
0
100
AcDbLine
62
0
6
CONTINUOUS
10
5.1538347120
20
-10.5143243744
11
6.1544668640
21
-10.5143243744
0
LINE
5
24F
100
AcDbEntity
8
0
100
AcDbLine
62
0
6
CONTINUOUS
10
9.6646174476
20
-10.4188020311
11
8.7715112346
21
-10.4188020311
0
LINE
5
250
100
AcDbEntity
8
0
100
AcDbLine
62
0
6
CONTINUOUS
10
-8.6284887654
20
-10.4188020311
11
-9.5215949783
21
-10.4188020311
0
LINE
5
251
100
AcDbEntity
8
0
100
AcDbLine
62
0
6
CONTINUOUS
10
9.8693991048
20
-10.4105619043
11
8.7715112346
21
-10.4105619043
0
LINE
5
252
100
AcDbEntity
8
0
100
AcDbLine
62
0
6
CONTINUOUS
10
-8.6284887654
20
-10.4105619043
11
-9.7263766355
21
-10.4105619043
0
LINE
5
253
100
AcDbEntity
8
0
100
AcDbLine
62
0
6
CONTINUOUS
10
-9.7263766355
20
-9.8105619043
11
-8.6284887654
21
-9.8105619043
0
LINE
5
254
100
AcDbEntity
8
0
100
AcDbLine
62
0
6
CONTINUOUS
10
8.7715112346
20
-9.8105619043
11
9.8693991048
21
-9.8105619043
0
LINE
5
255
100
AcDbEntity
8
0
100
AcDbLine
62
0
6
CONTINUOUS
10
9.6642570407
20
-9.8019611198
11
8.7715112346
21
-9.8019611198
0
LINE
5
256
100
AcDbEntity
8
0
100
AcDbLine
62
0
6
CONTINUOUS
10
-8.6284887654
20
-9.8019611198
11
-9.5212345714
21
-9.8019611198
0
LINE
5
257
100
AcDbEntity
8
0
100
AcDbLine
62
9
6
CONTINUOUS
10
-8.6284887654
20
14.5894380957
11
-8.6284887654
21
14.5844056050
0
LINE
5
258
100
AcDbEntity
8
0
100
AcDbLine
62
9
6
CONTINUOUS
10
-8.6284887654
20
-9.8105619043
11
-8.6284887654
21
-9.8019611198
0
LINE
5
259
100
AcDbEntity
8
0
100
AcDbLine
62
9
6
CONTINUOUS
10
-8.6284887654
20
-10.4105619043
11
-8.6284887654
21
-10.4188020311
0
LINE
5
25A
100
AcDbEntity
8
0
100
AcDbLine
62
9
6
CONTINUOUS
10
-8.6284887654
20
15.1894380957
11
-8.6284887654
21
15.1939356362
0
LINE
5
25B
100
AcDbEntity
8
0
100
AcDbLine
62
9
6
CONTINUOUS
10
9.6745746954
20
20.1424710955
11
9.6953438677
21
20.1632402678
0
LINE
5
25C
100
AcDbEntity
8
0
100
AcDbLine
62
9
6
CONTINUOUS
10
9.8745442344
20
19.9425015564
11
9.8953134068
21
19.9632707288
0
LINE
5
25D
100
AcDbEntity
8
0
100
AcDbLine
62
0
6
CONTINUOUS
10
2.1715112346
20
-7.6280169693
11
-2.0284887654
21
-7.6280169693
0
LINE
5
25E
100
AcDbEntity
8
0
100
AcDbLine
62
9
6
CONTINUOUS
10
-9.8160531555
20
-7.6105619043
11
-9.8284887654
21
-7.6105619043
0
LINE
5
25F
100
AcDbEntity
8
0
100
AcDbLine
62
9
6
CONTINUOUS
10
9.9590756248
20
-7.6105619043
11
9.9715112346
21
-7.6105619043
0
LINE
5
260
100
AcDbEntity
8
0
100
AcDbLine
62
9
6
CONTINUOUS
10
9.7715416956
20
-20.4605619043
11
9.6745746954
21
-20.3635949041
0
LINE
5
261
100
AcDbEntity
8
0
100
AcDbLine
62
9
6
CONTINUOUS
10
9.9715112346
20
-20.2605923653
11
9.8745442344
21
-20.1636253651
0
LINE
5
262
100
AcDbEntity
8
0
100
AcDbLine
62
9
6
CONTINUOUS
10
-5.4922004858
20
-7.7678909290
11
-5.1020413265
21
-8.3696996775
0
LINE
5
263
100
AcDbEntity
8
0
100
AcDbLine
62
0
6
CONTINUOUS
10
-6.9284887654
20
-20.4605619043
11
-6.9284887654
21
-20.0605619043
0
LINE
5
264
100
AcDbEntity
8
0
100
AcDbLine
62
0
6
CONTINUOUS
10
-6.9284887654
20
20.2394380957
11
-6.9284887654
21
19.8394380957
0
LINE
5
265
100
AcDbEntity
8
0
100
AcDbLine
62
0
6
CONTINUOUS
10
-6.3284887654
20
-20.4605619043
11
-6.3284887654
21
-20.0605619043
0
LINE
5
266
100
AcDbEntity
8
0
100
AcDbLine
62
0
6
CONTINUOUS
10
-6.3284887654
20
20.2394380957
11
-6.3284887654
21
19.8394380957
0
LINE
5
267
100
AcDbEntity
8
0
100
AcDbLine
62
0
6
CONTINUOUS
10
-6.3110337004
20
-9.7942058463
11
-6.3110337004
21
-10.2136364895
0
LINE
5
268
100
AcDbEntity
8
0
100
AcDbLine
62
0
6
CONTINUOUS
10
-5.3166846472
20
18.6894380957
11
-5.3166846472
21
19.4502241170
0
LINE
5
269
100
AcDbEntity
8
0
100
AcDbLine
62
0
6
CONTINUOUS
10
-5.3062124059
20
19.6188731187
11
-5.3062124059
21
20.1818820781
0
LINE
5
26A
100
AcDbEntity
8
0
100
AcDbLine
62
0
6
CONTINUOUS
10
-5.1889618043
20
-18.5490537484
11
-5.1889618043
21
-17.4605619043
0
LINE
5
26B
100
AcDbEntity
8
0
100
AcDbLine
62
0
6
CONTINUOUS
10
-5.1784887654
20
-19.8054216398
11
-5.1784887654
21
-17.4605619043
0
LINE
5
26C
100
AcDbEntity
8
0
100
AcDbLine
62
9
6
CONTINUOUS
10
-5.3166846472
20
19.4502241170
11
-5.3062124059
21
19.6188731187
0
LINE
5
26D
100
AcDbEntity
8
0
100
AcDbLine
62
9
6
CONTINUOUS
10
-5.0144423736
20
19.1894380957
11
-5.0062238290
21
19.3217926980
0
LINE
5
26E
100
AcDbEntity
8
0
100
AcDbLine
62
0
6
CONTINUOUS
10
-3.6516827654
20
8.8394880957
11
-4.2043767654
21
7.1180250957
0
LINE
5
26F
100
AcDbEntity
8
0
100
AcDbLine
62
0
6
CONTINUOUS
10
-3.1516577654
20
8.8394880957
11
-3.9543637654
21
6.3393750957
0
LINE
5
270
100
AcDbEntity
8
0
100
AcDbLine
62
0
6
CONTINUOUS
10
3.0715112346
20
-6.9605619043
11
-2.9284887654
21
-6.9605619043
0
LINE
5
271
100
AcDbEntity
8
0
100
AcDbLine
62
0
6
CONTINUOUS
10
-3.1245058668
20
-6.2978803153
11
3.2675283361
21
-6.2978803153
0
LINE
5
272
100
AcDbEntity
8
0
100
AcDbLine
62
9
6
CONTINUOUS
10
-4.8507537017
20
19.3217926980
11
-4.8425351572
21
19.1894380957
0
LINE
5
273
100
AcDbEntity
8
0
100
AcDbLine
62
9
6
CONTINUOUS
10
-5.0166960703
20
18.3894380957
11
-5.0166960703
21
19.1894380957
0
LINE
5
274
100
AcDbEntity
8
0
100
AcDbLine
62
9
6
CONTINUOUS
10
-5.0062238290
20
19.3217926980
11
-5.0062238290
21
20.1870729009
0
LINE
5
275
100
AcDbEntity
8
0
100
AcDbLine
62
9
6
CONTINUOUS
10
-4.8507537017
20
19.3217926980
11
-4.8507537017
21
20.1870729009
0
LINE
5
276
100
AcDbEntity
8
0
100
AcDbLine
62
9
6
CONTINUOUS
10
-4.8402814604
20
18.3894380957
11
-4.8402814604
21
19.1894380957
0
LINE
5
277
100
AcDbEntity
8
0
100
AcDbLine
62
0
6
CONTINUOUS
10
-4.6290717654
20
3.4144380957
11
-4.6290717654
21
1.3644380957
0
LINE
5
278
100
AcDbEntity
8
0
100
AcDbLine
62
0
6
CONTINUOUS
10
-4.5784887654
20
-17.4605619043
11
-4.5784887654
21
-19.8976710668
0
LINE
5
279
100
AcDbEntity
8
0
100
AcDbLine
62
0
6
CONTINUOUS
10
-4.5680157264
20
-18.8652631287
11
-4.5680157264
21
-17.4605619043
0
LINE
5
27A
100
AcDbEntity
8
0
100
AcDbLine
62
0
6
CONTINUOUS
10
-4.5507651248
20
20.1818820781
11
-4.5507651248
21
19.6188731187
0
LINE
5
27B
100
AcDbEntity
8
0
100
AcDbLine
62
0
6
CONTINUOUS
10
-4.5402928835
20
19.4502241170
11
-4.5402928835
21
18.6894380957
0
LINE
5
27C
100
AcDbEntity
8
0
100
AcDbLine
62
0
6
CONTINUOUS
10
-4.4180157264
20
-17.8608619417
11
-4.4180157264
21
-16.6728929462
0
LINE
5
27D
100
AcDbEntity
8
0
100
AcDbLine
62
0
6
CONTINUOUS
10
-4.1889537654
20
3.0737620957
11
-4.1889537654
21
2.4945490957
0
LINE
5
27E
100
AcDbEntity
8
0
100
AcDbLine
62
0
6
CONTINUOUS
10
-4.1889537654
20
2.1538730957
11
-4.1889537654
21
1.3644380957
0
LINE
5
27F
100
AcDbEntity
8
0
100
AcDbLine
62
9
6
CONTINUOUS
10
-4.0832509162
20
-20.3635949041
11
-4.0832509162
21
-20.0636405956
0
LINE
5
280
100
AcDbEntity
8
0
100
AcDbLine
62
9
6
CONTINUOUS
10
-6.3284887654
20
-10.3011251530
11
-6.3110337004
21
-10.2136364895
0
LINE
5
281
100
AcDbEntity
8
0
100
AcDbLine
62
9
6
CONTINUOUS
10
-6.0288994597
20
-10.6018130380
11
-6.0114443948
21
-10.5143243744
0
LINE
5
282
100
AcDbEntity
8
0
100
AcDbLine
62
0
6
CONTINUOUS
10
9.8693991048
20
14.5894380957
11
9.8678038932
21
14.5878428841
0
LINE
5
283
100
AcDbEntity
8
0
100
AcDbLine
62
0
6
CONTINUOUS
10
5.2450637958
20
-8.3696996775
11
3.0715112346
21
-6.9605619043
0
LINE
5
284
100
AcDbEntity
8
0
100
AcDbLine
62
0
6
CONTINUOUS
10
-3.1245058668
20
-6.2978803153
11
-2.9284887654
21
-6.9605619043
0
LINE
5
285
100
AcDbEntity
8
0
100
AcDbLine
62
9
6
CONTINUOUS
10
-4.5507651248
20
19.6188731187
11
-4.5402928835
21
19.4502241170
0
LINE
5
286
100
AcDbEntity
8
0
100
AcDbLine
62
0
6
CONTINUOUS
10
-2.8827947654
20
3.4144380957
11
-2.8827947654
21
1.3644380957
0
LINE
5
287
100
AcDbEntity
8
0
100
AcDbLine
62
0
6
CONTINUOUS
10
-2.8183137654
20
8.8394880957
11
-2.8183197654
21
6.3393690957
0
LINE
5
288
100
AcDbEntity
8
0
100
AcDbLine
62
0
6
CONTINUOUS
10
-2.4426767654
20
3.4144380957
11
-2.4426767654
21
1.7051140957
0
LINE
5
289
100
AcDbEntity
8
0
100
AcDbLine
62
0
6
CONTINUOUS
10
-2.4284887654
20
20.2394380957
11
-2.4284887654
21
21.4394380957
0
LINE
5
28A
100
AcDbEntity
8
0
100
AcDbLine
62
0
6
CONTINUOUS
10
-2.3182947654
20
8.8394880957
11
-2.3183017654
21
6.3393750957
0
LINE
5
28B
100
AcDbEntity
8
0
100
AcDbLine
62
9
6
CONTINUOUS
10
-2.0284887654
20
-20.3612655592
11
-2.0284887654
21
-19.4006957159
0
LINE
5
28C
100
AcDbEntity
8
0
100
AcDbLine
62
0
6
CONTINUOUS
10
-1.8182947654
20
8.8394880957
11
-1.8182947654
21
6.3393750957
0
LINE
5
28D
100
AcDbEntity
8
0
100
AcDbLine
62
0
6
CONTINUOUS
10
-1.6841777654
20
1.7051140957
11
-1.6841777654
21
1.3644380957
0
LINE
5
28E
100
AcDbEntity
8
0
100
AcDbLine
62
0
6
CONTINUOUS
10
-0.1286637654
20
8.8394880957
11
-0.5955327654
21
7.2113250957
0
LINE
5
28F
100
AcDbEntity
8
0
100
AcDbLine
62
0
6
CONTINUOUS
10
0.1272052346
20
7.9880320957
11
-0.3455327654
21
6.3393820957
0
LINE
5
290
100
AcDbEntity
8
0
100
AcDbLine
62
0
6
CONTINUOUS
10
-0.7220127654
20
3.4144380957
11
-1.4630767654
21
1.3644380957
0
LINE
5
291
100
AcDbEntity
8
0
100
AcDbLine
62
9
6
CONTINUOUS
10
6.8869612055
20
-14.9180550779
11
6.8634254489
21
-14.8817086216
0
LINE
5
292
100
AcDbEntity
8
0
100
AcDbLine
62
0
6
CONTINUOUS
10
-5.2571017654
20
8.8394880957
11
-4.4544017654
21
6.3393690957
0
LINE
5
293
100
AcDbEntity
8
0
100
AcDbLine
62
0
6
CONTINUOUS
10
-4.7570767654
20
8.8394880957
11
-4.2043767654
21
7.1180250957
0
LINE
5
294
100
AcDbEntity
8
0
100
AcDbLine
62
0
6
CONTINUOUS
10
-1.3182767654
20
7.9880320957
11
-1.3182767654
21
6.3393750957
0
LINE
5
295
100
AcDbEntity
8
0
100
AcDbLine
62
0
6
CONTINUOUS
10
0.0715112346
20
21.4394380957
11
0.0715112346
21
20.2394380957
0
LINE
5
296
100
AcDbEntity
8
0
100
AcDbLine
62
0
6
CONTINUOUS
10
0.1272052346
20
7.9880320957
11
0.1272112346
21
6.3393750957
0
LINE
5
297
100
AcDbEntity
8
0
100
AcDbLine
62
0
6
CONTINUOUS
10
1.7632672346
20
8.8394940957
11
0.9605742346
21
6.3393750957
0
LINE
5
298
100
AcDbEntity
8
0
100
AcDbLine
62
0
6
CONTINUOUS
10
1.6184492346
20
6.8310440957
11
1.4605922346
21
6.3393820957
0
LINE
5
299
100
AcDbEntity
8
0
100
AcDbLine
62
0
6
CONTINUOUS
10
2.0132862346
20
8.0608380957
11
1.7709672346
21
7.3060630957
0
LINE
5
29A
100
AcDbEntity
8
0
100
AcDbLine
62
0
6
CONTINUOUS
10
-0.4720387654
20
3.0227050957
11
-0.7760147654
21
2.1396010957
0
LINE
5
29B
100
AcDbEntity
8
0
100
AcDbLine
62
0
6
CONTINUOUS
10
-0.8895737654
20
1.7989240957
11
-1.0428627654
21
1.3644380957
0
LINE
5
29C
100
AcDbEntity
8
0
100
AcDbLine
62
0
6
CONTINUOUS
10
-5.8116067730
20
-11.4045378305
11
-5.8126072044
21
-11.4067580308
0
LINE
5
29D
100
AcDbEntity
8
0
100
AcDbLine
62
0
6
CONTINUOUS
10
-5.5121911710
20
-10.6018130380
11
-5.5163275504
21
-10.6105619043
0
LINE
5
29E
100
AcDbEntity
8
0
100
AcDbLine
62
0
6
CONTINUOUS
10
-9.7263766355
20
-9.8105619043
11
-9.7212097249
21
-9.8053949937
0
LINE
5
29F
100
AcDbEntity
8
0
100
AcDbLine
62
0
6
CONTINUOUS
10
9.8693991048
20
-9.8105619043
11
9.8642321942
21
-9.8053949937
0
LINE
5
2A0
100
AcDbEntity
8
0
100
AcDbLine
62
0
6
CONTINUOUS
10
0.6272302346
20
8.8394880957
11
0.6272302346
21
6.3393750957
0
LINE
5
2A1
100
AcDbEntity
8
0
100
AcDbLine
62
0
6
CONTINUOUS
10
0.7373582346
20
3.4144380957
11
0.7373582346
21
1.3644380957
0
LINE
5
2A2
100
AcDbEntity
8
0
100
AcDbLine
62
0
6
CONTINUOUS
10
1.1490862346
20
3.0801490957
11
1.1490862346
21
1.3644380957
0
LINE
5
2A3
100
AcDbEntity
8
0
100
AcDbLine
62
0
6
CONTINUOUS
10
3.5370642346
20
3.4144380957
11
2.7959222346
21
1.3644380957
0
LINE
5
2A4
100
AcDbEntity
8
0
100
AcDbLine
62
0
6
CONTINUOUS
10
4.7720942346
20
1.3644380957
11
4.3292762346
21
1.3644380957
0
LINE
5
2A5
100
AcDbEntity
8
0
100
AcDbLine
62
0
6
CONTINUOUS
10
3.2161362346
20
1.3644380957
11
2.7959222346
21
1.3644380957
0
LINE
5
2A6
100
AcDbEntity
8
0
100
AcDbLine
62
0
6
CONTINUOUS
10
2.5886312346
20
1.3644380957
11
1.9639792346
21
1.3644380957
0
LINE
5
2A7
100
AcDbEntity
8
0
100
AcDbLine
62
0
6
CONTINUOUS
10
1.1490862346
20
1.3644380957
11
0.7373582346
21
1.3644380957
0
LINE
5
2A8
100
AcDbEntity
8
0
100
AcDbLine
62
0
6
CONTINUOUS
10
0.5130952346
20
1.3644380957
11
0.0701222346
21
1.3644380957
0
LINE
5
2A9
100
AcDbEntity
8
0
100
AcDbLine
62
0
6
CONTINUOUS
10
-1.0428627654
20
1.3644380957
11
-1.4630767654
21
1.3644380957
0
LINE
5
2AA
100
AcDbEntity
8
0
100
AcDbLine
62
0
6
CONTINUOUS
10
-1.6841777654
20
1.3644380957
11
-2.8827947654
21
1.3644380957
0
LINE
5
2AB
100
AcDbEntity
8
0
100
AcDbLine
62
0
6
CONTINUOUS
10
-4.1889537654
20
1.3644380957
11
-4.6290717654
21
1.3644380957
0
LINE
5
2AC
100
AcDbEntity
8
0
100
AcDbLine
62
0
6
CONTINUOUS
10
-1.6841777654
20
1.7051140957
11
-2.4426767654
21
1.7051140957
0
LINE
5
2AD
100
AcDbEntity
8
0
100
AcDbLine
62
0
6
CONTINUOUS
10
4.1815412346
20
1.7989240957
11
3.3695022346
21
1.7989240957
0
LINE
5
2AE
100
AcDbEntity
8
0
100
AcDbLine
62
0
6
CONTINUOUS
10
-0.0775347654
20
1.7989240957
11
-0.8895737654
21
1.7989240957
0
LINE
5
2AF
100
AcDbEntity
8
0
100
AcDbLine
62
0
6
CONTINUOUS
10
5.6593500197
20
-10.6105619043
11
5.6552136403
21
-10.6018130380
0
LINE
5
2B0
100
AcDbEntity
8
0
100
AcDbLine
62
0
6
CONTINUOUS
10
5.9546292422
20
-11.4045378305
11
5.9556296736
21
-11.4067580308
0
LINE
5
2B1
100
AcDbEntity
8
0
100
AcDbLine
62
0
6
CONTINUOUS
10
-0.1995797654
20
3.4144380957
11
0.5130952346
21
1.3644380957
0
LINE
5
2B2
100
AcDbEntity
8
0
100
AcDbLine
62
0
6
CONTINUOUS
10
-0.0775347654
20
1.7989240957
11
0.0701222346
21
1.3644380957
0
LINE
5
2B3
100
AcDbEntity
8
0
100
AcDbLine
62
0
6
CONTINUOUS
10
-0.4720387654
20
3.0227050957
11
-0.1882397654
21
2.1396010957
0
LINE
5
2B4
100
AcDbEntity
8
0
100
AcDbLine
62
0
6
CONTINUOUS
10
-1.3182767654
20
7.9880320957
11
-0.8455387654
21
6.3393750957
0
LINE
5
2B5
100
AcDbEntity
8
0
100
AcDbLine
62
0
6
CONTINUOUS
10
-1.0624017654
20
8.8394880957
11
-0.5955327654
21
7.2113250957
0
LINE
5
2B6
100
AcDbEntity
8
0
100
AcDbLine
62
0
6
CONTINUOUS
10
2.1769022346
20
3.4144380957
11
2.1769022346
21
1.7899100957
0
LINE
5
2B7
100
AcDbEntity
8
0
100
AcDbLine
62
0
6
CONTINUOUS
10
2.5886312346
20
3.4144380957
11
2.5886312346
21
1.3644380957
0
LINE
5
2B8
100
AcDbEntity
8
0
100
AcDbLine
62
0
6
CONTINUOUS
10
3.3993612346
20
8.8394940957
11
3.3993612346
21
6.3393820957
0
LINE
5
2B9
100
AcDbEntity
8
0
100
AcDbLine
62
0
6
CONTINUOUS
10
3.8924862346
20
8.3769760957
11
3.8924922346
21
7.7685880957
0
LINE
5
2BA
100
AcDbEntity
8
0
100
AcDbLine
62
0
6
CONTINUOUS
10
3.8994422346
20
7.3060690957
11
3.8993862346
21
6.3393820957
0
LINE
5
2BB
100
AcDbEntity
8
0
100
AcDbLine
62
9
6
CONTINUOUS
10
2.1715112346
20
-20.3612655592
11
2.1715112346
21
-19.4006957159
0
LINE
5
2BC
100
AcDbEntity
8
0
100
AcDbLine
62
9
6
CONTINUOUS
10
4.6833153528
20
19.4502241170
11
4.6937875941
21
19.6188731187
0
LINE
5
2BD
100
AcDbEntity
8
0
100
AcDbLine
62
9
6
CONTINUOUS
10
4.9855576264
20
19.1894380957
11
4.9937761710
21
19.3217926980
0
LINE
5
2BE
100
AcDbEntity
8
0
100
AcDbLine
62
0
6
CONTINUOUS
10
3.7869982346
20
3.0225890957
11
3.4830612346
21
2.1396010957
0
LINE
5
2BF
100
AcDbEntity
8
0
100
AcDbLine
62
0
6
CONTINUOUS
10
3.3695022346
20
1.7989240957
11
3.2161362346
21
1.3644380957
0
LINE
5
2C0
100
AcDbEntity
8
0
100
AcDbLine
62
9
6
CONTINUOUS
10
-6.7439387362
20
-14.9180550779
11
-6.7204029796
21
-14.8817086216
0
LINE
5
2C1
100
AcDbEntity
8
0
100
AcDbLine
62
0
6
CONTINUOUS
10
4.0707602346
20
2.1396010957
11
3.4830612346
21
2.1396010957
0
LINE
5
2C2
100
AcDbEntity
8
0
100
AcDbLine
62
0
6
CONTINUOUS
10
-0.1882397654
20
2.1396010957
11
-0.7760147654
21
2.1396010957
0
LINE
5
2C3
100
AcDbEntity
8
0
100
AcDbLine
62
0
6
CONTINUOUS
10
-4.0017421628
20
2.1538730957
11
-4.1889537654
21
2.1538730957
0
LINE
5
2C4
100
AcDbEntity
8
0
100
AcDbLine
62
0
6
CONTINUOUS
10
-3.9322007357
20
2.4945490957
11
-4.1889537654
21
2.4945490957
0
LINE
5
2C5
100
AcDbEntity
8
0
100
AcDbLine
62
0
6
CONTINUOUS
10
-3.9322007473
20
3.0737620957
11
-4.1889537654
21
3.0737620957
0
LINE
5
2C6
100
AcDbEntity
8
0
100
AcDbLine
62
0
6
CONTINUOUS
10
4.0594962346
20
3.4144380957
11
3.5370642346
21
3.4144380957
0
LINE
5
2C7
100
AcDbEntity
8
0
100
AcDbLine
62
0
6
CONTINUOUS
10
2.5886312346
20
3.4144380957
11
2.1769022346
21
3.4144380957
0
LINE
5
2C8
100
AcDbEntity
8
0
100
AcDbLine
62
0
6
CONTINUOUS
10
1.3903992346
20
3.4144380957
11
0.7373582346
21
3.4144380957
0
LINE
5
2C9
100
AcDbEntity
8
0
100
AcDbLine
62
0
6
CONTINUOUS
10
-0.1995797654
20
3.4144380957
11
-0.7220127654
21
3.4144380957
0
LINE
5
2CA
100
AcDbEntity
8
0
100
AcDbLine
62
0
6
CONTINUOUS
10
-2.4426767654
20
3.4144380957
11
-2.8827947654
21
3.4144380957
0
LINE
5
2CB
100
AcDbEntity
8
0
100
AcDbLine
62
0
6
CONTINUOUS
10
-4.0017422024
20
3.4144380957
11
-4.6290717654
21
3.4144380957
0
LINE
5
2CC
100
AcDbEntity
8
0
100
AcDbLine
62
0
6
CONTINUOUS
10
-9.7263766355
20
14.5894380957
11
-9.7247814240
21
14.5878428841
0
LINE
5
2CD
100
AcDbEntity
8
0
100
AcDbLine
62
0
6
CONTINUOUS
10
1.3903992346
20
3.4144380957
11
2.1769022346
21
1.7899100957
0
LINE
5
2CE
100
AcDbEntity
8
0
100
AcDbLine
62
0
6
CONTINUOUS
10
1.1490862346
20
3.0801490957
11
1.9639792346
21
1.3644380957
0
LINE
5
2CF
100
AcDbEntity
8
0
100
AcDbLine
62
9
6
CONTINUOUS
10
4.2262733855
20
-20.3635949041
11
4.2262733855
21
-20.0636405956
0
LINE
5
2D0
100
AcDbEntity
8
0
100
AcDbLine
62
0
6
CONTINUOUS
10
4.5610381957
20
-16.6728929462
11
4.5610381957
21
-17.8608619417
0
LINE
5
2D1
100
AcDbEntity
8
0
100
AcDbLine
62
0
6
CONTINUOUS
10
4.6833153528
20
18.6894380957
11
4.6833153528
21
19.4502241170
0
LINE
5
2D2
100
AcDbEntity
8
0
100
AcDbLine
62
0
6
CONTINUOUS
10
4.6937875941
20
19.6188731187
11
4.6937875941
21
20.1818820781
0
LINE
5
2D3
100
AcDbEntity
8
0
100
AcDbLine
62
0
6
CONTINUOUS
10
4.7110381957
20
-18.8652631287
11
4.7110381957
21
-17.4605619043
0
LINE
5
2D4
100
AcDbEntity
8
0
100
AcDbLine
62
0
6
CONTINUOUS
10
4.7215112346
20
-19.8976710668
11
4.7215112346
21
-17.4605619043
0
LINE
5
2D5
100
AcDbEntity
8
0
100
AcDbLine
62
9
6
CONTINUOUS
10
4.9833039297
20
18.3894380957
11
4.9833039297
21
19.1894380957
0
LINE
5
2D6
100
AcDbEntity
8
0
100
AcDbLine
62
9
6
CONTINUOUS
10
4.9937761710
20
19.3217926980
11
4.9937761710
21
20.1870729009
0
LINE
5
2D7
100
AcDbEntity
8
0
100
AcDbLine
62
9
6
CONTINUOUS
10
5.1492462983
20
19.3217926980
11
5.1492462983
21
20.1870729009
0
LINE
5
2D8
100
AcDbEntity
8
0
100
AcDbLine
62
9
6
CONTINUOUS
10
5.1597185396
20
18.3894380957
11
5.1597185396
21
19.1894380957
0
LINE
5
2D9
100
AcDbEntity
8
0
100
AcDbLine
62
0
6
CONTINUOUS
10
5.3215112346
20
-17.4605619043
11
5.3215112346
21
-19.8054216398
0
LINE
5
2DA
100
AcDbEntity
8
0
100
AcDbLine
62
0
6
CONTINUOUS
10
5.3319842736
20
-18.5490537484
11
5.3319842736
21
-17.4605619043
0
LINE
5
2DB
100
AcDbEntity
8
0
100
AcDbLine
62
0
6
CONTINUOUS
10
5.4492348752
20
20.1818820781
11
5.4492348752
21
19.6188731187
0
LINE
5
2DC
100
AcDbEntity
8
0
100
AcDbLine
62
0
6
CONTINUOUS
10
5.4597071165
20
19.4502241170
11
5.4597071165
21
18.6894380957
0
LINE
5
2DD
100
AcDbEntity
8
0
100
AcDbLine
62
0
6
CONTINUOUS
10
3.2675283361
20
-6.2978803153
11
3.0715112346
21
-6.9605619043
0
LINE
5
2DE
100
AcDbEntity
8
0
100
AcDbLine
62
0
6
CONTINUOUS
10
-2.9284887654
20
-6.9605619043
11
-5.1020413265
21
-8.3696996775
0
LINE
5
2DF
100
AcDbEntity
8
0
100
AcDbLine
62
0
6
CONTINUOUS
10
4.0594962346
20
3.4144380957
11
4.7720942346
21
1.3644380957
0
LINE
5
2E0
100
AcDbEntity
8
0
100
AcDbLine
62
0
6
CONTINUOUS
10
4.1815412346
20
1.7989240957
11
4.3292762346
21
1.3644380957
0
LINE
5
2E1
100
AcDbEntity
8
0
100
AcDbLine
62
0
6
CONTINUOUS
10
3.7869982346
20
3.0225890957
11
4.0707602346
21
2.1396010957
0
LINE
5
2E2
100
AcDbEntity
8
0
100
AcDbLine
62
0
6
CONTINUOUS
10
2.4081422346
20
6.8310440957
11
2.5659922346
21
6.3393820957
0
LINE
5
2E3
100
AcDbEntity
8
0
100
AcDbLine
62
0
6
CONTINUOUS
10
2.0132862346
20
8.0608380957
11
2.2556172346
21
7.3060630957
0
LINE
5
2E4
100
AcDbEntity
8
0
100
AcDbLine
62
0
6
CONTINUOUS
10
2.2633112346
20
8.8394940957
11
3.0660172346
21
6.3393750957
0
LINE
5
2E5
100
AcDbEntity
8
0
100
AcDbLine
62
9
6
CONTINUOUS
10
6.1544668640
20
-10.5143243744
11
6.1719219290
21
-10.6018130380
0
LINE
5
2E6
100
AcDbEntity
8
0
100
AcDbLine
62
9
6
CONTINUOUS
10
6.4540561697
20
-10.2136364895
11
6.4715112346
21
-10.3011251530
0
LINE
5
2E7
100
AcDbEntity
8
0
100
AcDbLine
62
9
6
CONTINUOUS
10
5.1492462983
20
19.3217926980
11
5.1574648428
21
19.1894380957
0
LINE
5
2E8
100
AcDbEntity
8
0
100
AcDbLine
62
9
6
CONTINUOUS
10
5.4492348752
20
19.6188731187
11
5.4597071165
21
19.4502241170
0
LINE
5
2E9
100
AcDbEntity
8
0
100
AcDbLine
62
0
6
CONTINUOUS
10
6.4540561697
20
-10.2136364895
11
6.4540561697
21
-9.7942058463
0
LINE
5
2EA
100
AcDbEntity
8
0
100
AcDbLine
62
0
6
CONTINUOUS
10
6.4715112346
20
-20.4605619043
11
6.4715112346
21
-20.0605619043
0
LINE
5
2EB
100
AcDbEntity
8
0
100
AcDbLine
62
0
6
CONTINUOUS
10
6.4715112346
20
20.2394380957
11
6.4715112346
21
19.8394380957
0
LINE
5
2EC
100
AcDbEntity
8
0
100
AcDbLine
62
0
6
CONTINUOUS
10
7.0715112346
20
-20.4605619043
11
7.0715112346
21
-20.0605619043
0
LINE
5
2ED
100
AcDbEntity
8
0
100
AcDbLine
62
0
6
CONTINUOUS
10
7.0715112346
20
20.2394380957
11
7.0715112346
21
19.8394380957
0
LINE
5
2EE
100
AcDbEntity
8
0
100
AcDbLine
62
9
6
CONTINUOUS
10
-9.7315217651
20
-20.1636253651
11
-9.7522909375
21
-20.1843945374
0
LINE
5
2EF
100
AcDbEntity
8
0
100
AcDbLine
62
9
6
CONTINUOUS
10
-9.5315520222
20
-20.3635947002
11
-9.5523213985
21
-20.3843640764
0
LINE
5
2F0
100
AcDbEntity
8
0
100
AcDbLine
62
0
6
CONTINUOUS
10
5.4001242346
20
6.3393880957
11
4.8369302346
21
6.3393820957
0
LINE
5
2F1
100
AcDbEntity
8
0
100
AcDbLine
62
0
6
CONTINUOUS
10
1.4605922346
20
6.3393820957
11
0.9605742346
21
6.3393750957
0
LINE
5
2F2
100
AcDbEntity
8
0
100
AcDbLine
62
0
6
CONTINUOUS
10
0.6272302346
20
6.3393750957
11
0.1272112346
21
6.3393750957
0
LINE
5
2F3
100
AcDbEntity
8
0
100
AcDbLine
62
0
6
CONTINUOUS
10
-1.3182767654
20
6.3393750957
11
-1.8182947654
21
6.3393750957
0
LINE
5
2F4
100
AcDbEntity
8
0
100
AcDbLine
62
0
6
CONTINUOUS
10
3.8993862346
20
6.3393820957
11
3.3993612346
21
6.3393820957
0
LINE
5
2F5
100
AcDbEntity
8
0
100
AcDbLine
62
0
6
CONTINUOUS
10
-0.3455327654
20
6.3393820957
11
-0.8455387654
21
6.3393750957
0
LINE
5
2F6
100
AcDbEntity
8
0
100
AcDbLine
62
0
6
CONTINUOUS
10
-2.3183017654
20
6.3393750957
11
-2.8183197654
21
6.3393690957
0
LINE
5
2F7
100
AcDbEntity
8
0
100
AcDbLine
62
0
6
CONTINUOUS
10
3.0660172346
20
6.3393750957
11
2.5659922346
21
6.3393820957
0
LINE
5
2F8
100
AcDbEntity
8
0
100
AcDbLine
62
0
6
CONTINUOUS
10
-3.9543637654
20
6.3393750957
11
-4.4544017654
21
6.3393690957
0
LINE
5
2F9
100
AcDbEntity
8
0
100
AcDbLine
62
0
6
CONTINUOUS
10
2.4081422346
20
6.8310440957
11
1.6184492346
21
6.8310440957
0
LINE
5
2FA
100
AcDbEntity
8
0
100
AcDbLine
62
0
6
CONTINUOUS
10
2.2556172346
20
7.3060630957
11
1.7709672346
21
7.3060630957
0
LINE
5
2FB
100
AcDbEntity
8
0
100
AcDbLine
62
0
6
CONTINUOUS
10
4.3358492346
20
7.3060630957
11
3.8994422346
21
7.3060690957
0
LINE
5
2FC
100
AcDbEntity
8
0
100
AcDbLine
62
9
6
CONTINUOUS
10
9.9715112346
20
7.3894380957
11
9.9590756248
21
7.3894380957
0
LINE
5
2FD
100
AcDbEntity
8
0
100
AcDbLine
62
9
6
CONTINUOUS
10
-9.8284887654
20
7.3894380957
11
-9.8160531555
21
7.3894380957
0
LINE
5
2FE
100
AcDbEntity
8
0
100
AcDbLine
62
9
6
CONTINUOUS
10
-9.8284887654
20
20.0394685566
11
-9.7315217651
21
19.9425015564
0
LINE
5
2FF
100
AcDbEntity
8
0
100
AcDbLine
62
9
6
CONTINUOUS
10
-9.6285192263
20
20.2394380957
11
-9.5315522329
21
20.1424711022
0
LINE
5
300
100
AcDbEntity
8
0
100
AcDbLine
62
0
6
CONTINUOUS
10
4.3358492346
20
7.3060630957
11
4.8369302346
21
6.3393820957
0
LINE
5
301
100
AcDbEntity
8
0
100
AcDbLine
62
9
6
CONTINUOUS
10
8.7715112346
20
14.5894380957
11
8.7715112346
21
14.5844056050
0
LINE
5
302
100
AcDbEntity
8
0
100
AcDbLine
62
9
6
CONTINUOUS
10
8.7715112346
20
-9.8105619043
11
8.7715112346
21
-9.8019611198
0
LINE
5
303
100
AcDbEntity
8
0
100
AcDbLine
62
9
6
CONTINUOUS
10
8.7715112346
20
-10.4105619043
11
8.7715112346
21
-10.4188020311
0
LINE
5
304
100
AcDbEntity
8
0
100
AcDbLine
62
9
6
CONTINUOUS
10
8.7715112346
20
15.1894380957
11
8.7715112346
21
15.1939356362
0
LINE
5
305
100
AcDbEntity
8
0
100
AcDbLine
62
9
6
CONTINUOUS
10
5.6352229550
20
-7.7678909290
11
5.2450637958
21
-8.3696996775
0
LINE
5
306
100
AcDbEntity
8
0
100
AcDbLine
62
0
6
CONTINUOUS
10
4.5008342346
20
7.7685880957
11
3.8924922346
21
7.7685880957
0
LINE
5
307
100
AcDbEntity
8
0
100
AcDbLine
62
0
6
CONTINUOUS
10
4.5008342346
20
8.3769760957
11
3.8924862346
21
8.3769760957
0
LINE
5
308
100
AcDbEntity
8
0
100
AcDbLine
62
0
6
CONTINUOUS
10
0.6272302346
20
8.8394880957
11
-0.1286637654
21
8.8394880957
0
LINE
5
309
100
AcDbEntity
8
0
100
AcDbLine
62
0
6
CONTINUOUS
10
-1.0624017654
20
8.8394880957
11
-1.8182947654
21
8.8394880957
0
LINE
5
30A
100
AcDbEntity
8
0
100
AcDbLine
62
0
6
CONTINUOUS
10
-2.3182947654
20
8.8394880957
11
-2.8183137654
21
8.8394880957
0
LINE
5
30B
100
AcDbEntity
8
0
100
AcDbLine
62
0
6
CONTINUOUS
10
-3.1516577654
20
8.8394880957
11
-3.6516827654
21
8.8394880957
0
LINE
5
30C
100
AcDbEntity
8
0
100
AcDbLine
62
0
6
CONTINUOUS
10
-4.7570767654
20
8.8394880957
11
-5.2571017654
21
8.8394880957
0
LINE
5
30D
100
AcDbEntity
8
0
100
AcDbLine
62
0
6
CONTINUOUS
10
4.5702362346
20
8.8394940957
11
3.3993612346
21
8.8394940957
0
LINE
5
30E
100
AcDbEntity
8
0
100
AcDbLine
62
0
6
CONTINUOUS
10
2.2633112346
20
8.8394940957
11
1.7632672346
21
8.8394940957
0
LINE
5
30F
100
AcDbEntity
8
0
100
AcDbLine
62
0
6
CONTINUOUS
10
4.8678790253
20
7.3661964287
11
5.4001242346
21
6.3393880957
0
LINE
5
310
100
AcDbEntity
8
0
100
AcDbLine
62
9
6
CONTINUOUS
10
9.6728596522
20
-20.0636405956
11
9.6646174460
21
-10.4188020562
0
LINE
5
311
100
AcDbEntity
8
0
100
AcDbLine
62
0
6
CONTINUOUS
10
9.8693991048
20
-10.4105619043
11
9.8693991048
21
-9.8105619043
0
LINE
5
312
100
AcDbEntity
8
0
100
AcDbLine
62
0
6
CONTINUOUS
10
9.8693991048
20
14.5894380957
11
9.8693991048
21
15.1894380957
0
LINE
5
313
100
AcDbEntity
8
0
100
AcDbLine
62
9
6
CONTINUOUS
10
9.8728291912
20
-20.0636405956
11
9.8728291912
21
-19.7988198262
0
LINE
5
314
100
AcDbEntity
8
0
100
AcDbLine
62
9
6
CONTINUOUS
10
9.8728291912
20
19.5776960176
11
9.8728291912
21
19.8425167869
0
LINE
5
315
100
AcDbEntity
8
0
100
AcDbLine
62
0
6
CONTINUOUS
10
9.9590756248
20
-7.6105619043
11
9.9590756248
21
7.3894380957
0
LINE
5
316
100
AcDbEntity
8
0
100
AcDbLine
62
0
6
CONTINUOUS
10
9.9715112346
20
-20.2605923653
11
9.9715112346
21
-7.6105619043
0
LINE
5
317
100
AcDbEntity
8
0
100
AcDbLine
62
0
6
CONTINUOUS
10
9.9715112346
20
7.3894380957
11
9.9715112346
21
20.0394685566
0
LINE
5
318
100
AcDbEntity
8
0
100
AcDbLine
62
0
6
CONTINUOUS
10
10.6715112346
20
-6.0906934890
11
10.6715112346
21
5.8695696803
0
LINE
5
319
100
AcDbEntity
8
0
100
AcDbLine
62
0
6
CONTINUOUS
10
10.9715112346
20
-20.9606837482
11
10.9715112346
21
20.7395599396
0
LINE
5
31A
100
AcDbEntity
8
0
100
AcDbLine
62
9
6
CONTINUOUS
10
9.6678229343
20
14.5844057078
11
9.6642570297
21
-9.8019611783
0
LINE
5
31B
100
AcDbEntity
8
0
100
AcDbLine
62
9
6
CONTINUOUS
10
9.6728596522
20
19.8425214881
11
9.6683575264
21
15.1939356963
0
LINE
5
31C
100
AcDbEntity
8
0
100
AcDbLine
62
9
6
CONTINUOUS
10
6.3865700257
20
-9.6015932411
11
6.3846034199
21
-9.6022641399
0
LINE
5
31D
100
AcDbEntity
8
0
100
AcDbLine
62
0
6
CONTINUOUS
10
5.9546292422
20
-14.8165859782
11
5.9556296736
21
-14.8143657779
0
LINE
5
31E
100
AcDbEntity
8
0
100
AcDbLine
62
9
6
CONTINUOUS
10
6.8869612055
20
-11.3030687308
11
6.8634254489
21
-11.3394151870
0
LINE
5
31F
100
AcDbEntity
8
0
100
AcDbLine
62
0
6
CONTINUOUS
10
9.8693991048
20
-10.4105619043
11
9.8645890780
21
-10.4153719311
0
LINE
5
320
100
AcDbEntity
8
0
100
AcDbLine
62
0
6
CONTINUOUS
10
9.6678229602
20
14.5844056051
11
8.7715112346
21
14.5844056050
0
LINE
5
321
100
AcDbEntity
8
0
100
AcDbLine
62
0
6
CONTINUOUS
10
-8.6284887654
20
14.5844056050
11
-9.5248004909
21
14.5844056051
0
LINE
5
322
100
AcDbEntity
8
0
100
AcDbLine
62
0
6
CONTINUOUS
10
9.8693991048
20
14.5894380957
11
8.7715112346
21
14.5894380957
0
LINE
5
323
100
AcDbEntity
8
0
100
AcDbLine
62
0
6
CONTINUOUS
10
-8.6284887654
20
14.5894380957
11
-9.7263766355
21
14.5894380957
0
LINE
5
324
100
AcDbEntity
8
0
100
AcDbLine
62
0
6
CONTINUOUS
10
-9.7263766355
20
15.1894380957
11
-8.6284887654
21
15.1894380957
0
LINE
5
325
100
AcDbEntity
8
0
100
AcDbLine
62
0
6
CONTINUOUS
10
8.7715112346
20
15.1894380957
11
9.8693991048
21
15.1894380957
0
LINE
5
326
100
AcDbEntity
8
0
100
AcDbLine
62
0
6
CONTINUOUS
10
9.6683575340
20
15.1939356361
11
8.7715112346
21
15.1939356362
0
LINE
5
327
100
AcDbEntity
8
0
100
AcDbLine
62
0
6
CONTINUOUS
10
-8.6284887654
20
15.1939356362
11
-9.5253350647
21
15.1939356361
0
LINE
5
328
100
AcDbEntity
8
0
100
AcDbLine
62
0
6
CONTINUOUS
10
9.8693991048
20
15.1894380957
11
9.8683331704
21
15.1905040301
0
LINE
5
329
100
AcDbEntity
8
0
100
AcDbLine
62
0
6
CONTINUOUS
10
7.0715112346
20
19.8394380957
11
9.6261280658
21
20.2324560697
0
LINE
5
32A
100
AcDbEntity
8
0
100
AcDbLine
62
0
6
CONTINUOUS
10
5.1597185396
20
18.3894380957
11
4.9833039297
21
18.3894380957
0
LINE
5
32B
100
AcDbEntity
8
0
100
AcDbLine
62
0
6
CONTINUOUS
10
-4.8402814604
20
18.3894380957
11
-5.0166960703
21
18.3894380957
0
LINE
5
32C
100
AcDbEntity
8
0
100
AcDbLine
62
9
6
CONTINUOUS
10
5.4597071165
20
18.6894380957
11
4.6833153528
21
18.6894380957
0
LINE
5
32D
100
AcDbEntity
8
0
100
AcDbLine
62
9
6
CONTINUOUS
10
-4.5402928835
20
18.6894380957
11
-5.3166846472
21
18.6894380957
0
LINE
5
32E
100
AcDbEntity
8
0
100
AcDbLine
62
0
6
CONTINUOUS
10
5.1597185396
20
19.1894380957
11
4.9833039297
21
19.1894380957
0
LINE
5
32F
100
AcDbEntity
8
0
100
AcDbLine
62
0
6
CONTINUOUS
10
-4.8402814604
20
19.1894380957
11
-5.0166960703
21
19.1894380957
0
LINE
5
330
100
AcDbEntity
8
0
100
AcDbLine
62
9
6
CONTINUOUS
10
5.1492462983
20
19.3217926980
11
4.9937761710
21
19.3217926980
0
LINE
5
331
100
AcDbEntity
8
0
100
AcDbLine
62
9
6
CONTINUOUS
10
-4.8507537017
20
19.3217926980
11
-5.0062238290
21
19.3217926980
0
LINE
5
332
100
AcDbEntity
8
0
100
AcDbLine
62
0
6
CONTINUOUS
10
4.6715112346
20
19.5842978312
11
-4.5284887654
21
19.5842978312
0
LINE
5
333
100
AcDbEntity
8
0
100
AcDbLine
62
0
6
CONTINUOUS
10
9.6728596522
20
19.5842955757
11
5.4715112346
21
19.5842978312
0
LINE
5
334
100
AcDbEntity
8
0
100
AcDbLine
62
0
6
CONTINUOUS
10
-5.3284887654
20
19.5842978312
11
-9.5298371829
21
19.5842955757
0
LINE
5
335
100
AcDbEntity
8
0
100
AcDbLine
62
9
6
CONTINUOUS
10
5.4492348752
20
19.6188731187
11
4.6937875941
21
19.6188731187
0
LINE
5
336
100
AcDbEntity
8
0
100
AcDbLine
62
9
6
CONTINUOUS
10
-4.5507651248
20
19.6188731187
11
-5.3062124059
21
19.6188731187
0
LINE
5
337
100
AcDbEntity
8
0
100
AcDbLine
62
0
6
CONTINUOUS
10
-6.3284887654
20
19.8394380957
11
-6.9284887654
21
19.8394380957
0
LINE
5
338
100
AcDbEntity
8
0
100
AcDbLine
62
0
6
CONTINUOUS
10
6.4715112346
20
19.8394380957
11
7.0715112346
21
19.8394380957
0
LINE
5
339
100
AcDbEntity
8
0
100
AcDbLine
62
9
6
CONTINUOUS
10
-6.3284898849
20
19.8425196076
11
-5.3284887654
21
19.8425167869
0
LINE
5
33A
100
AcDbEntity
8
0
100
AcDbLine
62
9
6
CONTINUOUS
10
5.4715112346
20
19.8425167869
11
6.4715116788
21
19.8425179059
0
LINE
5
33B
100
AcDbEntity
8
0
100
AcDbLine
62
9
6
CONTINUOUS
10
9.8728291912
20
19.8425167869
11
7.0715112312
21
19.8425185773
0
LINE
5
33C
100
AcDbEntity
8
0
100
AcDbLine
62
9
6
CONTINUOUS
10
-9.7298067219
20
19.8425167869
11
-6.9284887567
21
19.8425213000
0
LINE
5
33D
100
AcDbEntity
8
0
100
AcDbLine
62
9
6
CONTINUOUS
10
-4.5284887654
20
19.8425167869
11
4.6715112346
21
19.8425167869
0
LINE
5
33E
100
AcDbEntity
8
0
100
AcDbLine
62
9
6
CONTINUOUS
10
-9.4831055967
20
20.1424711021
11
-8.8982033012
21
20.1424711012
0
LINE
5
33F
100
AcDbEntity
8
0
100
AcDbLine
62
9
6
CONTINUOUS
10
-6.3284887655
20
20.1424710971
11
-5.3259163965
21
20.1424710955
0
LINE
5
340
100
AcDbEntity
8
0
100
AcDbLine
62
9
6
CONTINUOUS
10
-4.5310611342
20
20.1424710955
11
4.6740836035
21
20.1424710955
0
LINE
5
341
100
AcDbEntity
8
0
100
AcDbLine
62
9
6
CONTINUOUS
10
5.4689388658
20
20.1424710955
11
6.4715112346
21
20.1424710955
0
LINE
5
342
100
AcDbEntity
8
0
100
AcDbLine
62
9
6
CONTINUOUS
10
9.0412257332
20
20.1424710955
11
9.6745746954
21
20.1424710955
0
LINE
5
343
100
AcDbEntity
8
0
100
AcDbLine
62
0
6
CONTINUOUS
10
-6.9284887654
20
19.8394380957
11
-9.4831055965
21
20.2324560697
0
LINE
5
344
100
AcDbEntity
8
0
100
AcDbLine
62
0
6
CONTINUOUS
10
5.1492462983
20
20.1870729009
11
4.9937761710
21
20.1870729009
0
LINE
5
345
100
AcDbEntity
8
0
100
AcDbLine
62
0
6
CONTINUOUS
10
-4.8507537017
20
20.1870729009
11
-5.0062238290
21
20.1870729009
0
LINE
5
346
100
AcDbEntity
8
0
100
AcDbLine
62
0
6
CONTINUOUS
10
-2.4284887654
20
20.2342015762
11
0.0715112346
21
20.2342015762
0
LINE
5
347
100
AcDbEntity
8
0
100
AcDbLine
62
0
6
CONTINUOUS
10
-2.4284887654
20
20.2394380957
11
-9.6285192263
21
20.2394380957
0
LINE
5
348
100
AcDbEntity
8
0
100
AcDbLine
62
0
6
CONTINUOUS
10
0.0715112346
20
20.2394380957
11
9.7715416956
21
20.2394380957
0
LINE
5
349
100
AcDbEntity
8
0
100
AcDbLine
62
0
6
CONTINUOUS
10
-2.4284887654
20
21.4394380957
11
0.0715112346
21
21.4394380957
0
LINE
5
34A
100
AcDbEntity
8
0
100
AcDbLine
62
0
6
CONTINUOUS
10
10.1716330785
20
21.5394380957
11
-10.0286106092
21
21.5394380957
0
ARC
5
34B
100
AcDbEntity
8
0
100
AcDbCircle
62
0
6
CONTINUOUS
10
-2.0284887654
20
-13.1105619043
40
4.2912724675
100
AcDbArc
50
206.9633147825
51
215.6320551568
0
ARC
5
34C
100
AcDbEntity
8
0
100
AcDbCircle
62
0
6
CONTINUOUS
10
-2.0284887654
20
-13.1105619043
40
4.2912724675
100
AcDbArc
50
144.3679448432
51
153.0370354764
0
ARC
5
34D
100
AcDbEntity
8
0
100
AcDbCircle
62
0
6
CONTINUOUS
10
2.1715112346
20
-13.1105619043
40
4.2912724675
100
AcDbArc
50
26.9633147825
51
35.6320551568
0
ARC
5
34E
100
AcDbEntity
8
0
100
AcDbCircle
62
0
6
CONTINUOUS
10
2.1715112346
20
-13.1105619043
40
4.2912724675
100
AcDbArc
50
324.3679448432
51
333.0370354764
0
ARC
5
34F
100
AcDbEntity
8
0
100
AcDbCircle
62
0
6
CONTINUOUS
10
2.1715112346
20
-13.1105619043
40
3.7895269610
100
AcDbArc
50
320.0792135662
51
39.9207864311
0
ARC
5
350
100
AcDbEntity
8
0
100
AcDbCircle
62
0
6
CONTINUOUS
10
-2.0284887654
20
-13.1105619043
40
3.7895269610
100
AcDbArc
50
140.0792135662
51
219.9207864311
0
ARC
5
351
100
AcDbEntity
8
0
100
AcDbCircle
62
0
6
CONTINUOUS
10
-2.0284887654
20
-13.1105619043
40
5.4895269610
100
AcDbArc
50
246.2561582095
51
270.0000000000
0
ARC
5
352
100
AcDbEntity
8
0
100
AcDbCircle
62
0
6
CONTINUOUS
10
2.1715112346
20
-13.1105619043
40
5.4825449351
100
AcDbArc
50
39.7845978882
51
90.0000000000
0
ARC
5
353
100
AcDbEntity
8
0
100
AcDbCircle
62
0
6
CONTINUOUS
10
2.1715112346
20
-13.1105619043
40
4.2895269610
100
AcDbArc
50
303.8527694157
51
322.7531437389
0
ARC
5
354
100
AcDbEntity
8
0
100
AcDbCircle
62
0
6
CONTINUOUS
10
2.1715112346
20
-13.1105619043
40
5.4895269610
100
AcDbArc
50
270.0000000000
51
293.7438417905
0
ARC
5
355
100
AcDbEntity
8
0
100
AcDbCircle
62
0
6
CONTINUOUS
10
-2.0284887654
20
-13.1105619043
40
4.2895269610
100
AcDbArc
50
217.2468562611
51
236.1472305843
0
ARC
5
356
100
AcDbEntity
8
0
100
AcDbCircle
62
0
6
CONTINUOUS
10
-2.0284887654
20
-13.1105619043
40
5.4825449351
100
AcDbArc
50
90.0000000000
51
140.2154021117
0
ARC
5
357
100
AcDbEntity
8
0
100
AcDbCircle
62
0
6
CONTINUOUS
10
-2.0284887654
20
-13.1105619043
40
4.4534946172
100
AcDbArc
50
145.6949857633
51
153.2142589725
0
ARC
5
358
100
AcDbEntity
8
0
100
AcDbCircle
62
0
6
CONTINUOUS
10
-2.0284887654
20
-13.1105619043
40
4.4500000000
100
AcDbArc
50
206.7076453021
51
212.6377578227
0
ARC
5
359
100
AcDbEntity
8
0
100
AcDbCircle
62
0
6
CONTINUOUS
10
2.1715112346
20
-13.1105619043
40
4.4500000000
100
AcDbArc
50
327.3622421773
51
333.2923546979
0
ARC
5
35A
100
AcDbEntity
8
0
100
AcDbCircle
62
0
6
CONTINUOUS
10
2.1715112346
20
-13.1105619043
40
4.4534954036
100
AcDbArc
50
26.7857585947
51
34.3053046838
0
ARC
5
35B
100
AcDbEntity
8
0
100
AcDbCircle
62
0
6
CONTINUOUS
10
2.1715112346
20
-13.1105619043
40
4.1500000000
100
AcDbArc
50
335.7602867576
51
24.2397132424
0
ARC
5
35C
100
AcDbEntity
8
0
100
AcDbCircle
62
0
6
CONTINUOUS
10
-2.0284887654
20
-13.1105619043
40
4.1500000000
100
AcDbArc
50
155.7602867576
51
204.2397132424
0
ARC
5
35D
100
AcDbEntity
8
0
100
AcDbCircle
62
0
6
CONTINUOUS
10
4.5008342346
20
8.0727810957
40
0.3041950000
100
AcDbArc
50
270.0016550819
51
90.0000000000
0
ARC
5
35E
100
AcDbEntity
8
0
100
AcDbCircle
62
0
6
CONTINUOUS
10
4.5702362346
20
8.0727810957
40
0.7667158029
100
AcDbArc
50
292.8428457417
51
89.9989363352
0
ARC
5
35F
100
AcDbEntity
8
0
100
AcDbCircle
62
0
6
CONTINUOUS
10
-2.0284887654
20
-13.1105619043
40
4.4534875415
100
AcDbArc
50
218.0753500692
51
237.3746915521
0
ARC
5
360
100
AcDbEntity
8
0
100
AcDbCircle
62
0
6
CONTINUOUS
10
2.1715112346
20
-13.1105619043
40
4.6501369129
100
AcDbArc
50
335.0013008965
51
24.9986991035
0
ARC
5
361
100
AcDbEntity
8
0
100
AcDbCircle
62
0
6
CONTINUOUS
10
2.1715112346
20
-13.1105619043
40
5.0150792305
100
AcDbArc
50
339.3190223499
51
20.6809776501
0
ARC
5
362
100
AcDbEntity
8
0
100
AcDbCircle
62
0
6
CONTINUOUS
10
-2.0284887654
20
-13.1105619043
40
5.0150792305
100
AcDbArc
50
159.3190223499
51
200.6809776501
0
ARC
5
363
100
AcDbEntity
8
0
100
AcDbCircle
62
0
6
CONTINUOUS
10
-2.0284887654
20
-13.1105619043
40
4.6501369129
100
AcDbArc
50
155.0013008965
51
204.9986991035
0
ARC
5
364
100
AcDbEntity
8
0
100
AcDbCircle
62
0
6
CONTINUOUS
10
-2.0284887654
20
-13.1105619043
40
5.6500000000
100
AcDbArc
50
122.9557802664
51
205.1366605176
0
ARC
5
365
100
AcDbEntity
8
0
100
AcDbCircle
62
0
6
CONTINUOUS
10
2.1715112346
20
-13.1105619043
40
5.6500000000
100
AcDbArc
50
334.8633394824
51
57.0442197336
0
ARC
5
366
100
AcDbEntity
8
0
100
AcDbCircle
62
0
6
CONTINUOUS
10
2.1715112346
20
-13.1105619043
40
5.0500000000
100
AcDbArc
50
339.0275234118
51
20.9724765882
0
ARC
5
367
100
AcDbEntity
8
0
100
AcDbCircle
62
0
6
CONTINUOUS
10
2.1715112346
20
-13.1105619043
40
4.6502945067
100
AcDbArc
50
25.4743842609
51
32.6773198706
0
ARC
5
368
100
AcDbEntity
8
0
100
AcDbCircle
62
0
6
CONTINUOUS
10
-2.0284887654
20
-13.1105619043
40
4.6502474510
100
AcDbArc
50
147.3228640362
51
154.5256157391
0
ARC
5
369
100
AcDbEntity
8
0
100
AcDbCircle
62
0
6
CONTINUOUS
10
-2.0284887654
20
-13.1105619043
40
5.0500000000
100
AcDbArc
50
159.0275234118
51
200.9724765882
0
ARC
5
36A
100
AcDbEntity
8
0
100
AcDbCircle
62
0
6
CONTINUOUS
10
-4.8784887654
20
-17.4605619043
40
0.3000000000
100
AcDbArc
50
0.0000000000
51
180.0000000000
0
ARC
5
36B
100
AcDbEntity
8
0
100
AcDbCircle
62
0
6
CONTINUOUS
10
5.0215112346
20
-17.4605619043
40
0.3000000000
100
AcDbArc
50
0.0000000000
51
180.0000000000
0
ARC
5
36C
100
AcDbEntity
8
0
100
AcDbCircle
62
0
6
CONTINUOUS
10
-11.8284887654
20
7.3894380957
40
2.0000000000
100
AcDbArc
50
310.5416018735
51
360.0000000000
0
ARC
5
36D
100
AcDbEntity
8
0
100
AcDbCircle
62
0
6
CONTINUOUS
10
-11.8284887654
20
-7.6105619043
40
2.0000000000
100
AcDbArc
50
0.0000000000
51
49.4583981265
0
ARC
5
36E
100
AcDbEntity
8
0
100
AcDbCircle
62
0
6
CONTINUOUS
10
11.9715112346
20
-7.6105619043
40
2.0000000000
100
AcDbArc
50
130.5416018735
51
180.0000000000
0
ARC
5
36F
100
AcDbEntity
8
0
100
AcDbCircle
62
0
6
CONTINUOUS
10
11.9715112346
20
7.3894380957
40
2.0000000000
100
AcDbArc
50
180.0000000000
51
229.4583981265
0
ARC
5
370
100
AcDbEntity
8
0
100
AcDbCircle
62
0
6
CONTINUOUS
10
-2.0284887654
20
-13.1105619043
40
4.6572218960
100
AcDbArc
50
221.6152678840
51
238.9576063770
0
ARC
5
371
100
AcDbEntity
8
0
100
AcDbCircle
62
0
6
CONTINUOUS
10
2.1715112346
20
-13.1105619043
40
4.6571751254
100
AcDbArc
50
301.0302351262
51
318.3847321160
0
ARC
5
372
100
AcDbEntity
8
0
100
AcDbCircle
62
0
6
CONTINUOUS
10
5.0215112346
20
-17.4605619043
40
0.3104730390
100
AcDbArc
50
0.0000000000
51
180.0000000000
0
ARC
5
373
100
AcDbEntity
8
0
100
AcDbCircle
62
0
6
CONTINUOUS
10
-4.8784887654
20
-17.4605619043
40
0.3104730390
100
AcDbArc
50
0.0000000000
51
180.0000000000
0
ARC
5
374
100
AcDbEntity
8
0
100
AcDbCircle
62
0
6
CONTINUOUS
10
8.7715112346
20
-10.1105619043
40
0.3000000000
100
AcDbArc
50
90.0000000000
51
270.0000000000
0
ARC
5
375
100
AcDbEntity
8
0
100
AcDbCircle
62
0
6
CONTINUOUS
10
-8.6284887654
20
-10.1105619043
40
0.3000000000
100
AcDbArc
50
270.0000000000
51
90.0000000000
0
ARC
5
376
100
AcDbEntity
8
0
100
AcDbCircle
62
0
6
CONTINUOUS
10
8.7715112346
20
14.8894380957
40
0.3000000000
100
AcDbArc
50
90.0000000000
51
270.0000000000
0
ARC
5
377
100
AcDbEntity
8
0
100
AcDbCircle
62
0
6
CONTINUOUS
10
-8.6284887654
20
14.8894380957
40
0.3000000000
100
AcDbArc
50
270.0000000000
51
90.0000000000
0
ARC
5
378
100
AcDbEntity
8
0
100
AcDbCircle
62
0
6
CONTINUOUS
10
-2.0284887654
20
-13.1105619043
40
6.2901338116
100
AcDbArc
50
246.1883212575
51
270.0000000000
0
ARC
5
379
100
AcDbEntity
8
0
100
AcDbCircle
62
0
6
CONTINUOUS
10
-2.0284887654
20
-13.1105619043
40
7.2503380976
100
AcDbArc
50
249.4081858812
51
258.6339132327
0
ARC
5
37A
100
AcDbEntity
8
0
100
AcDbCircle
62
0
6
CONTINUOUS
10
-2.0284887654
20
-13.1105619043
40
6.2901338116
100
AcDbArc
50
209.4519765641
51
239.8378259567
0
ARC
5
37B
100
AcDbEntity
8
0
100
AcDbCircle
62
0
6
CONTINUOUS
10
2.1715112346
20
-13.1105619043
40
7.2503369007
100
AcDbArc
50
281.3660867693
51
290.5918141188
0
ARC
5
37C
100
AcDbEntity
8
0
100
AcDbCircle
62
0
6
CONTINUOUS
10
2.1715112346
20
-13.1105619043
40
6.2901338116
100
AcDbArc
50
270.0000000000
51
293.8116787425
0
ARC
5
37D
100
AcDbEntity
8
0
100
AcDbCircle
62
0
6
CONTINUOUS
10
2.1715112346
20
-13.1105619043
40
6.2901338116
100
AcDbArc
50
300.1621740433
51
330.5480234359
0
ARC
5
37E
100
AcDbEntity
8
0
100
AcDbCircle
62
0
6
CONTINUOUS
10
2.1715112346
20
-13.1105619043
40
4.4534883220
100
AcDbArc
50
302.6253907263
51
321.9246279868
0
SPLINE
5
37F
100
AcDbEntity
8
0
100
AcDbSpline
62
0
6
CONTINUOUS
70
0
71
3
72
12
73
8
74
6
42
0.0000001000
43
0.0000001000
44
0.0000000001
12
-0.4695527409
22
0.0000000000
32
0.0000000000
13
0.0000000000
23
0.4695527409
33
0.0000000000
40
0.0000000000
40
0.0000000000
40
0.0000000000
40
0.0000000000
40
0.1993649636
40
0.3988522271
40
0.5987371844
40
0.7991447419
40
1.0000000000
40
1.0000000000
40
1.0000000000
40
1.0000000000
10
-6.0288994597
20
-10.6018130380
30
0.0000000000
10
-6.0601035814
20
-10.6018130380
30
0.0000000000
10
-6.1229726139
20
-10.5918730272
30
0.0000000000
10
-6.2077550093
20
-10.5485678109
30
0.0000000000
10
-6.2751898592
20
-10.4809983557
30
0.0000000000
10
-6.3185286971
20
-10.3958100720
30
0.0000000000
10
-6.3284887654
20
-10.3325625320
30
0.0000000000
10
-6.3284887654
20
-10.3011251530
30
0.0000000000
11
-6.0288994597
21
-10.6018130380
31
0.0000000000
11
-6.1213566283
21
-10.5871519714
31
0.0000000000
11
-6.2047921366
21
-10.5445779681
31
0.0000000000
11
-6.2711047658
21
-10.4781574641
31
0.0000000000
11
-6.3137649051
21
-10.3942808674
31
0.0000000000
11
-6.3284887654
21
-10.3011251530
31
0.0000000000
0
SPLINE
5
380
100
AcDbEntity
8
0
100
AcDbSpline
62
0
6
CONTINUOUS
70
0
71
3
72
12
73
8
74
6
42
0.0000001000
43
0.0000001000
44
0.0000000001
12
0.0000000000
22
-0.4695527409
32
0.0000000000
13
-0.4695527409
23
-0.0000000000
33
0.0000000000
40
0.0000000000
40
0.0000000000
40
0.0000000000
40
0.0000000000
40
0.2008552581
40
0.4012628156
40
0.6011477729
40
0.8006350364
40
1.0000000000
40
1.0000000000
40
1.0000000000
40
1.0000000000
10
6.4715112346
20
-10.3011251530
30
0.0000000000
10
6.4715112346
20
-10.3325625320
30
0.0000000000
10
6.4615511664
20
-10.3958100720
30
0.0000000000
10
6.4182123285
20
-10.4809983557
30
0.0000000000
10
6.3507774786
20
-10.5485678109
30
0.0000000000
10
6.2659950832
20
-10.5918730272
30
0.0000000000
10
6.2031260507
20
-10.6018130380
30
0.0000000000
10
6.1719219290
20
-10.6018130380
30
0.0000000000
11
6.4715112346
21
-10.3011251530
31
0.0000000000
11
6.4567873743
21
-10.3942808674
31
0.0000000000
11
6.4141272351
21
-10.4781574641
31
0.0000000000
11
6.3478146059
21
-10.5445779681
31
0.0000000000
11
6.2643790976
21
-10.5871519714
31
0.0000000000
11
6.1719219290
21
-10.6018130380
31
0.0000000000
0
SPLINE
5
381
100
AcDbEntity
8
0
100
AcDbSpline
62
0
6
CONTINUOUS
70
0
71
3
72
9
73
5
74
3
42
0.0000001000
43
0.0000001000
44
0.0000000001
12
0.0206767351
22
-0.0438711744
32
0.0000000000
13
0.0212091994
23
-0.0436162490
33
0.0000000000
40
0.0000000000
40
0.0000000000
40
0.0000000000
40
0.0000000000
40
0.5000024224
40
1.0000000000
40
1.0000000000
40
1.0000000000
40
1.0000000000
10
-5.5163275504
20
-15.6105619043
30
0.0000000000
10
-5.5128814112
20
-15.6178738022
30
0.0000000000
10
-5.5059446621
20
-15.6324765933
30
0.0000000000
10
-5.4989191677
20
-15.6470368965
30
0.0000000000
10
-5.4953843182
20
-15.6543062361
30
0.0000000000
11
-5.5163275504
21
-15.6105619043
31
0.0000000000
11
-5.5059224420
21
-15.6324660419
31
0.0000000000
11
-5.4953843182
21
-15.6543062361
31
0.0000000000
0
SPLINE
5
382
100
AcDbEntity
8
0
100
AcDbSpline
62
0
6
CONTINUOUS
70
0
71
3
72
9
73
5
74
3
42
0.0000001000
43
0.0000001000
44
0.0000000001
12
0.0212091994
22
0.0436162490
32
0.0000000000
13
0.0206767351
23
0.0438711744
33
0.0000000000
40
0.0000000000
40
0.0000000000
40
0.0000000000
40
0.0000000000
40
0.4999975776
40
1.0000000000
40
1.0000000000
40
1.0000000000
40
1.0000000000
10
5.6384067875
20
-15.6543062361
30
0.0000000000
10
5.6419416370
20
-15.6470368965
30
0.0000000000
10
5.6489671314
20
-15.6324765933
30
0.0000000000
10
5.6559038805
20
-15.6178738022
30
0.0000000000
10
5.6593500197
20
-15.6105619043
30
0.0000000000
11
5.6384067875
21
-15.6543062361
31
0.0000000000
11
5.6489449112
21
-15.6324660419
31
0.0000000000
11
5.6593500197
21
-15.6105619043
31
0.0000000000
0
SPLINE
5
383
100
AcDbEntity
8
0
100
AcDbSpline
62
9
6
CONTINUOUS
70
0
71
3
72
8
73
4
74
2
42
0.0000001000
43
0.0000001000
44
0.0000000001
12
-0.0019406335
22
-0.0007020559
32
0.0000000000
13
-0.0019405859
23
-0.0007021873
33
0.0000000000
40
0.0000000000
40
0.0000000000
40
0.0000000000
40
0.0000000000
40
1.0000000000
40
1.0000000000
40
1.0000000000
40
1.0000000000
10
6.4559967794
20
-9.7935037247
30
0.0000000000
10
6.4553499016
20
-9.7937377433
30
0.0000000000
10
6.4547030317
20
-9.7939717839
30
0.0000000000
10
6.4540561697
20
-9.7942058463
30
0.0000000000
11
6.4559967794
21
-9.7935037247
31
0.0000000000
11
6.4540561697
21
-9.7942058463
31
0.0000000000
0
SPLINE
5
384
100
AcDbEntity
8
0
100
AcDbSpline
62
9
6
CONTINUOUS
70
0
71
3
72
10
73
6
74
4
42
0.0000001000
43
0.0000001000
44
0.0000000001
12
0.1015178349
22
-0.0918997268
32
0.0000000000
13
0.0986181861
23
-0.0950046523
33
0.0000000000
40
0.0000000000
40
0.0000000000
40
0.0000000000
40
0.0000000000
40
0.3369604192
40
0.6702419771
40
1.0000000000
40
1.0000000000
40
1.0000000000
40
1.0000000000
10
5.0778221997
20
-10.6787166866
30
0.0000000000
10
5.0892246971
20
-10.6890388768
30
0.0000000000
10
5.1117979589
20
-10.7096894037
30
0.0000000000
10
5.1451547773
20
-10.7408483795
30
0.0000000000
10
5.1670581823
20
-10.7617344292
30
0.0000000000
10
5.1778982283
20
-10.7721772780
30
0.0000000000
11
5.0778221997
21
-10.6787166866
31
0.0000000000
11
5.1118672351
21
-10.7098617757
31
0.0000000000
11
5.1452183710
21
-10.7410153763
31
0.0000000000
11
5.1778982283
21
-10.7721772780
31
0.0000000000
0
SPLINE
5
385
100
AcDbEntity
8
0
100
AcDbSpline
62
9
6
CONTINUOUS
70
0
71
3
72
10
73
6
74
4
42
0.0000001000
43
0.0000001000
44
0.0000000001
12
-0.1015178353
22
-0.0918997263
32
0.0000000000
13
-0.0986181855
23
-0.0950046529
33
0.0000000000
40
0.0000000000
40
0.0000000000
40
0.0000000000
40
0.0000000000
40
0.3369604207
40
0.6702419776
40
1.0000000000
40
1.0000000000
40
1.0000000000
40
1.0000000000
10
-4.9347997304
20
-10.6787166866
30
0.0000000000
10
-4.9462022279
20
-10.6890388768
30
0.0000000000
10
-4.9687754897
20
-10.7096894037
30
0.0000000000
10
-5.0021323080
20
-10.7408483796
30
0.0000000000
10
-5.0240357131
20
-10.7617344292
30
0.0000000000
10
-5.0348757590
20
-10.7721772780
30
0.0000000000
11
-4.9347997304
21
-10.6787166866
31
0.0000000000
11
-4.9688447659
21
-10.7098617759
31
0.0000000000
11
-5.0021959017
21
-10.7410153763
31
0.0000000000
11
-5.0348757590
21
-10.7721772780
31
0.0000000000
0
SPLINE
5
386
100
AcDbEntity
8
0
100
AcDbSpline
62
0
6
CONTINUOUS
70
0
71
3
72
11
73
7
74
5
42
0.0000001000
43
0.0000001000
44
0.0000000001
12
-0.0000000000
22
-0.3456579856
32
0.0000000000
13
0.3163996829
23
-0.1391786033
33
0.0000000000
40
0.0000000000
40
0.0000000000
40
0.0000000000
40
0.0000000000
40
0.2504468072
40
0.4999227656
40
0.7498487018
40
1.0000000000
40
1.0000000000
40
1.0000000000
40
1.0000000000
10
-4.4180157264
20
-17.8608619417
30
0.0000000000
10
-4.4180157264
20
-17.8897182547
30
0.0000000000
10
-4.4095905356
20
-17.9476640002
30
0.0000000000
10
-4.3727504185
20
-18.0270984238
30
0.0000000000
10
-4.3148869422
20
-18.0927783711
30
0.0000000000
10
-4.2652201101
20
-18.1238213102
30
0.0000000000
10
-4.2388375129
20
-18.1354265463
30
0.0000000000
11
-4.4180157264
21
-17.8608619417
31
0.0000000000
11
-4.4055244785
21
-17.9465249437
31
0.0000000000
11
-4.3692746316
21
-18.0247690521
31
0.0000000000
11
-4.3121412756
21
-18.0895673616
31
0.0000000000
11
-4.2388375129
21
-18.1354265463
31
0.0000000000
0
SPLINE
5
387
100
AcDbEntity
8
0
100
AcDbSpline
62
0
6
CONTINUOUS
70
0
71
3
72
10
73
6
74
4
42
0.0000001000
43
0.0000001000
44
0.0000000001
12
0.0526724926
22
0.0521012756
32
0.0000000000
13
0.0518876604
23
0.0528829376
33
0.0000000000
40
0.0000000000
40
0.0000000000
40
0.0000000000
40
0.0000000000
40
0.3339708515
40
0.6672979872
40
1.0000000000
40
1.0000000000
40
1.0000000000
40
1.0000000000
10
5.5861257426
20
-15.7067994342
30
0.0000000000
10
5.5919894350
20
-15.7009993317
30
0.0000000000
10
5.6036765930
20
-15.6893810205
30
0.0000000000
10
5.6211036379
20
-15.6718828993
30
0.0000000000
10
5.6326524112
20
-15.6601709893
30
0.0000000000
10
5.6384067875
20
-15.6543062361
30
0.0000000000
11
5.5861257426
21
-15.7067994342
31
0.0000000000
11
5.6036733076
21
-15.6893552473
31
0.0000000000
11
5.6210999680
21
-15.6718575209
31
0.0000000000
11
5.6384067875
21
-15.6543062361
31
0.0000000000
0
SPLINE
5
388
100
AcDbEntity
8
0
100
AcDbSpline
62
0
6
CONTINUOUS
70
0
71
3
72
10
73
6
74
4
42
0.0000001000
43
0.0000001000
44
0.0000000001
12
0.0000000000
22
0.2078153976
32
0.0000000000
13
-0.1329817272
23
0.1596968995
33
0.0000000000
40
0.0000000000
40
0.0000000000
40
0.0000000000
40
0.0000000000
40
0.3337314459
40
0.6668040975
40
1.0000000000
40
1.0000000000
40
1.0000000000
40
1.0000000000
10
6.4540561697
20
-9.7942058463
30
0.0000000000
10
6.4540561697
20
-9.7710876686
30
0.0000000000
10
6.4486638426
20
-9.7247133432
30
0.0000000000
10
6.4248902304
20
-9.6590505245
30
0.0000000000
10
6.3993730754
20
-9.6200009241
30
0.0000000000
10
6.3846034199
20
-9.6022641399
30
0.0000000000
11
6.4540561697
21
-9.7942058463
31
0.0000000000
11
6.4460383416
21
-9.7253163282
31
0.0000000000
11
6.4224746693
21
-9.6602330506
31
0.0000000000
11
6.3846034199
21
-9.6022641399
31
0.0000000000
0
SPLINE
5
389
100
AcDbEntity
8
0
100
AcDbSpline
62
0
6
CONTINUOUS
70
0
71
3
72
11
73
7
74
5
42
0.0000001000
43
0.0000001000
44
0.0000000001
12
0.3163996829
22
0.1391786033
32
0.0000000000
13
-0.0000000000
23
0.3456579856
33
0.0000000000
40
0.0000000000
40
0.0000000000
40
0.0000000000
40
0.0000000000
40
0.2501512982
40
0.5000772344
40
0.7495531928
40
1.0000000000
40
1.0000000000
40
1.0000000000
40
1.0000000000
10
4.3818599822
20
-18.1354265463
30
0.0000000000
10
4.4082425794
20
-18.1238213102
30
0.0000000000
10
4.4579094114
20
-18.0927783711
30
0.0000000000
10
4.5157728878
20
-18.0270984238
30
0.0000000000
10
4.5526130049
20
-17.9476640002
30
0.0000000000
10
4.5610381957
20
-17.8897182547
30
0.0000000000
10
4.5610381957
20
-17.8608619417
30
0.0000000000
11
4.3818599822
21
-18.1354265463
31
0.0000000000
11
4.4551637448
21
-18.0895673616
31
0.0000000000
11
4.5122971009
21
-18.0247690521
31
0.0000000000
11
4.5485469478
21
-17.9465249437
31
0.0000000000
11
4.5610381957
21
-17.8608619417
31
0.0000000000
0
SPLINE
5
38A
100
AcDbEntity
8
0
100
AcDbSpline
62
0
6
CONTINUOUS
70
0
71
3
72
12
73
8
74
6
42
0.0000001000
43
0.0000001000
44
0.0000000001
12
0.2214620598
22
0.0000000043
32
0.0000000000
13
-0.1359675803
23
0.1748092132
33
0.0000000000
40
0.0000000000
40
0.0000000000
40
0.0000000000
40
0.0000000000
40
0.1996430843
40
0.3988290180
40
0.5983794923
40
0.7987103633
40
1.0000000000
40
1.0000000000
40
1.0000000000
40
1.0000000000
10
-5.1131693092
20
-15.6105619043
30
0.0000000000
10
-5.0984315196
20
-15.6105619040
30
0.0000000000
10
-5.0685689181
20
-15.6038598289
30
0.0000000000
10
-5.0328258835
20
-15.5755052503
30
0.0000000000
10
-5.0128466893
20
-15.5343506462
30
0.0000000000
10
-5.0126003680
20
-15.4885330536
30
0.0000000000
10
-5.0257528039
20
-15.4606756255
30
0.0000000000
10
-5.0348757588
20
-15.4489465311
30
0.0000000000
11
-5.1131693092
21
-15.6105619043
31
0.0000000000
11
-5.0700479834
21
-15.6007959821
31
0.0000000000
11
-5.0354727731
21
-15.5734019208
31
0.0000000000
11
-5.0161529744
21
-15.5336557993
31
0.0000000000
11
-5.0159141329
21
-15.4892907549
31
0.0000000000
11
-5.0348757588
21
-15.4489465311
31
0.0000000000
0
SPLINE
5
38B
100
AcDbEntity
8
0
100
AcDbSpline
62
0
6
CONTINUOUS
70
0
71
3
72
10
73
6
74
4
42
0.0000001000
43
0.0000001000
44
0.0000000001
12
0.0518876604
22
-0.0528829376
32
0.0000000000
13
0.0526724926
23
-0.0521012756
33
0.0000000000
40
0.0000000000
40
0.0000000000
40
0.0000000000
40
0.0000000000
40
0.3327020128
40
0.6660291475
40
1.0000000000
40
1.0000000000
40
1.0000000000
40
1.0000000000
10
-5.4953843182
20
-15.6543062361
30
0.0000000000
10
-5.4896299419
20
-15.6601709894
30
0.0000000000
10
-5.4780811687
20
-15.6718828993
30
0.0000000000
10
-5.4606541237
20
-15.6893810205
30
0.0000000000
10
-5.4489669657
20
-15.7009993317
30
0.0000000000
10
-5.4431032733
20
-15.7067994342
30
0.0000000000
11
-5.4953843182
21
-15.6543062361
31
0.0000000000
11
-5.4780774987
21
-15.6718575209
31
0.0000000000
11
-5.4606508383
21
-15.6893552472
31
0.0000000000
11
-5.4431032733
21
-15.7067994342
31
0.0000000000
0
SPLINE
5
38C
100
AcDbEntity
8
0
100
AcDbSpline
62
0
6
CONTINUOUS
70
0
71
3
72
12
73
8
74
6
42
0.0000001000
43
0.0000001000
44
0.0000000001
12
0.4695527409
22
0.0000000000
32
0.0000000000
13
0.0000000000
23
0.4695527409
33
0.0000000000
40
0.0000000000
40
0.0000000000
40
0.0000000000
40
0.0000000000
40
0.1993649636
40
0.3988522271
40
0.5987371844
40
0.7991447419
40
1.0000000000
40
1.0000000000
40
1.0000000000
40
1.0000000000
10
6.1544668640
20
-10.5143243744
30
0.0000000000
10
6.1856709857
20
-10.5143243744
30
0.0000000000
10
6.2485400183
20
-10.5043843637
30
0.0000000000
10
6.3333224137
20
-10.4610791474
30
0.0000000000
10
6.4007572635
20
-10.3935096922
30
0.0000000000
10
6.4440961015
20
-10.3083214084
30
0.0000000000
10
6.4540561697
20
-10.2450738685
30
0.0000000000
10
6.4540561697
20
-10.2136364895
30
0.0000000000
11
6.1544668640
21
-10.5143243744
31
0.0000000000
11
6.2469240326
21
-10.4996633078
31
0.0000000000
11
6.3303595410
21
-10.4570893045
31
0.0000000000
11
6.3966721702
21
-10.3906688006
31
0.0000000000
11
6.4393323094
21
-10.3067922038
31
0.0000000000
11
6.4540561697
21
-10.2136364895
31
0.0000000000
0
SPLINE
5
38D
100
AcDbEntity
8
0
100
AcDbSpline
62
0
6
CONTINUOUS
70
0
71
3
72
12
73
8
74
6
42
0.0000001000
43
0.0000001000
44
0.0000000001
12
0.1359671642
22
0.1748086791
32
0.0000000000
13
-0.2214613827
23
0.0000000051
33
0.0000000000
40
0.0000000000
40
0.0000000000
40
0.0000000000
40
0.0000000000
40
0.2003556274
40
0.3997456707
40
0.5984189392
40
0.8016719181
40
1.0000000000
40
1.0000000000
40
1.0000000000
40
1.0000000000
10
-5.0348757588
20
-10.7721772774
30
0.0000000000
10
-5.0257951633
20
-10.7605026432
30
0.0000000000
10
-5.0126798791
20
-10.7327988358
30
0.0000000000
10
-5.0127822843
20
-10.6872041817
30
0.0000000000
10
-5.0326023375
20
-10.6458052141
30
0.0000000000
10
-5.0684706094
20
-10.6172552612
30
0.0000000000
10
-5.0985286387
20
-10.6105619047
30
0.0000000000
10
-5.1131693092
20
-10.6105619043
30
0.0000000000
11
-5.0348757588
21
-10.7721772774
31
0.0000000000
11
-5.0159600638
21
-10.7320401977
31
0.0000000000
11
-5.0160572915
21
-10.6878831101
31
0.0000000000
11
-5.0350826845
21
-10.6482107189
31
0.0000000000
11
-5.0703176694
21
-10.6201993334
31
0.0000000000
11
-5.1131693092
21
-10.6105619043
31
0.0000000000
0
SPLINE
5
38E
100
AcDbEntity
8
0
100
AcDbSpline
62
9
6
CONTINUOUS
70
0
71
3
72
10
73
6
74
4
42
0.0000001000
43
0.0000001000
44
0.0000000001
12
-0.1038467568
22
-0.0946356128
32
0.0000000000
13
-0.1008508732
23
-0.0978220296
33
0.0000000000
40
0.0000000000
40
0.0000000000
40
0.0000000000
40
0.0000000000
40
0.3369805066
40
0.6702618829
40
1.0000000000
40
1.0000000000
40
1.0000000000
40
1.0000000000
10
-5.0108122427
20
-10.5143243744
30
0.0000000000
10
-5.0224770203
20
-10.5249544934
30
0.0000000000
10
-5.0455677037
20
-10.5462200386
30
0.0000000000
10
-5.0796847799
20
-10.5783048418
30
0.0000000000
10
-5.1020845168
20
-10.5998100204
30
0.0000000000
10
-5.1131693092
20
-10.6105619043
30
0.0000000000
11
-5.0108122427
21
-10.5143243744
31
0.0000000000
11
-5.0456386948
21
-10.5463979838
31
0.0000000000
11
-5.0797499372
21
-10.5784772312
31
0.0000000000
11
-5.1131693092
21
-10.6105619043
31
0.0000000000
0
SPLINE
5
38F
100
AcDbEntity
8
0
100
AcDbSpline
62
9
6
CONTINUOUS
70
0
71
3
72
10
73
6
74
4
42
0.0000001000
43
0.0000001000
44
0.0000000001
12
0.1038467556
22
-0.0946356141
32
0.0000000000
13
0.1008508744
23
-0.0978220285
33
0.0000000000
40
0.0000000000
40
0.0000000000
40
0.0000000000
40
0.0000000000
40
0.3369805061
40
0.6702618819
40
1.0000000000
40
1.0000000000
40
1.0000000000
40
1.0000000000
10
5.1538347120
20
-10.5143243744
30
0.0000000000
10
5.1654994894
20
-10.5249544935
30
0.0000000000
10
5.1885901729
20
-10.5462200385
30
0.0000000000
10
5.2227072491
20
-10.5783048418
30
0.0000000000
10
5.2451069859
20
-10.5998100205
30
0.0000000000
10
5.2561917784
20
-10.6105619043
30
0.0000000000
11
5.1538347120
21
-10.5143243744
31
0.0000000000
11
5.1886611640
21
-10.5463979837
31
0.0000000000
11
5.2227724064
21
-10.5784772311
31
0.0000000000
11
5.2561917784
21
-10.6105619043
31
0.0000000000
0
SPLINE
5
390
100
AcDbEntity
8
0
100
AcDbSpline
62
9
6
CONTINUOUS
70
0
71
3
72
10
73
6
74
4
42
0.0000001000
43
0.0000001000
44
0.0000000001
12
0.1038467568
22
0.0946356128
32
0.0000000000
13
0.1008508732
23
0.0978220296
33
0.0000000000
40
0.0000000000
40
0.0000000000
40
0.0000000000
40
0.0000000000
40
0.3369805066
40
0.6702618829
40
1.0000000000
40
1.0000000000
40
1.0000000000
40
1.0000000000
10
5.1538347120
20
-15.7067994342
30
0.0000000000
10
5.1654994896
20
-15.6961693153
30
0.0000000000
10
5.1885901729
20
-15.6749037700
30
0.0000000000
10
5.2227072492
20
-15.6428189668
30
0.0000000000
10
5.2451069861
20
-15.6213137883
30
0.0000000000
10
5.2561917784
20
-15.6105619043
30
0.0000000000
11
5.1538347120
21
-15.7067994342
31
0.0000000000
11
5.1886611641
21
-15.6747258249
31
0.0000000000
11
5.2227724065
21
-15.6426465775
31
0.0000000000
11
5.2561917784
21
-15.6105619043
31
0.0000000000
0
SPLINE
5
391
100
AcDbEntity
8
0
100
AcDbSpline
62
9
6
CONTINUOUS
70
0
71
3
72
10
73
6
74
4
42
0.0000001000
43
0.0000001000
44
0.0000000001
12
-0.1038467556
22
0.0946356141
32
0.0000000000
13
-0.1008508744
23
0.0978220285
33
0.0000000000
40
0.0000000000
40
0.0000000000
40
0.0000000000
40
0.0000000000
40
0.3369805061
40
0.6702618819
40
1.0000000000
40
1.0000000000
40
1.0000000000
40
1.0000000000
10
-5.0108122427
20
-15.7067994342
30
0.0000000000
10
-5.0224770202
20
-15.6961693152
30
0.0000000000
10
-5.0455677036
20
-15.6749037701
30
0.0000000000
10
-5.0796847799
20
-15.6428189669
30
0.0000000000
10
-5.1020845166
20
-15.6213137882
30
0.0000000000
10
-5.1131693092
20
-15.6105619043
30
0.0000000000
11
-5.0108122427
21
-15.7067994342
31
0.0000000000
11
-5.0456386947
21
-15.6747258249
31
0.0000000000
11
-5.0797499371
21
-15.6426465775
31
0.0000000000
11
-5.1131693092
21
-15.6105619043
31
0.0000000000
0
SPLINE
5
392
100
AcDbEntity
8
0
100
AcDbSpline
62
0
6
CONTINUOUS
70
0
71
3
72
12
73
8
74
6
42
0.0000001000
43
0.0000001000
44
0.0000000001
12
0.1443708331
22
-0.1725383444
32
0.0000000000
13
-0.2249720377
23
-0.0000000062
33
0.0000000000
40
0.0000000000
40
0.0000000000
40
0.0000000000
40
0.0000000000
40
0.2013081136
40
0.4014154804
40
0.6006504725
40
0.7999541930
40
1.0000000000
40
1.0000000000
40
1.0000000000
40
1.0000000000
10
-4.9347997300
20
-15.5424071228
30
0.0000000000
10
-4.9251120567
20
-15.5539849124
30
0.0000000000
10
-4.9108315897
20
-15.5818543623
30
0.0000000000
10
-4.9098881554
20
-15.6283940254
30
0.0000000000
10
-4.9293946915
20
-15.6705907478
30
0.0000000000
10
-4.9654193182
20
-15.6998595958
30
0.0000000000
10
-4.9958106718
20
-15.7067994338
30
0.0000000000
10
-5.0108122428
20
-15.7067994342
30
0.0000000000
11
-4.9347997300
21
-15.5424071228
31
0.0000000000
11
-4.9142218109
21
-15.5827508371
31
0.0000000000
11
-4.9133115949
21
-15.6277601965
31
0.0000000000
11
-4.9321412816
21
-15.6684355166
31
0.0000000000
11
-4.9669580788
21
-15.6966882285
31
0.0000000000
11
-5.0108122428
21
-15.7067994342
31
0.0000000000
0
SPLINE
5
393
100
AcDbEntity
8
0
100
AcDbSpline
62
0
6
CONTINUOUS
70
0
71
3
72
12
73
8
74
6
42
0.0000001000
43
0.0000001000
44
0.0000000001
12
0.2249711768
22
-0.0000000072
32
0.0000000000
13
-0.1443702801
23
-0.1725376846
33
0.0000000000
40
0.0000000000
40
0.0000000000
40
0.0000000000
40
0.0000000000
40
0.1979326552
40
0.4014972617
40
0.6002837164
40
0.7995798612
40
1.0000000000
40
1.0000000000
40
1.0000000000
40
1.0000000000
10
-5.0108122428
20
-10.5143243744
30
0.0000000000
10
-4.9959691953
20
-10.5143243749
30
0.0000000000
10
-4.9654299388
20
-10.5212136858
30
0.0000000000
10
-4.9292369952
20
-10.5506190525
30
0.0000000000
10
-4.9098360410
20
-10.5931050843
30
0.0000000000
10
-4.9109118651
20
-10.6394626293
30
0.0000000000
10
-4.9251548261
20
-10.6671900101
30
0.0000000000
10
-4.9347997299
20
-10.6787166856
30
0.0000000000
11
-5.0108122428
21
-10.5143243744
31
0.0000000000
11
-4.9673971661
21
-10.5242226387
31
0.0000000000
11
-4.9318374608
21
-10.5530808517
31
0.0000000000
11
-4.9132318796
21
-10.5937480388
31
0.0000000000
11
-4.9142719713
21
-10.6385718615
31
0.0000000000
11
-4.9347997299
21
-10.6787166856
31
0.0000000000
0
SPLINE
5
394
100
AcDbEntity
8
0
100
AcDbSpline
62
0
6
CONTINUOUS
70
0
71
3
72
12
73
8
74
6
42
0.0000001000
43
0.0000001000
44
0.0000000001
12
-0.1443708331
22
0.1725383444
32
0.0000000000
13
0.2249720377
23
0.0000000062
33
0.0000000000
40
0.0000000000
40
0.0000000000
40
0.0000000000
40
0.0000000000
40
0.2013081136
40
0.4014154804
40
0.6006504725
40
0.7999541930
40
1.0000000000
40
1.0000000000
40
1.0000000000
40
1.0000000000
10
5.0778221993
20
-10.6787166858
30
0.0000000000
10
5.0681345259
20
-10.6671388963
30
0.0000000000
10
5.0538540590
20
-10.6392694463
30
0.0000000000
10
5.0529106246
20
-10.5927297833
30
0.0000000000
10
5.0724171608
20
-10.5505330608
30
0.0000000000
10
5.1084417874
20
-10.5212642128
30
0.0000000000
10
5.1388331411
20
-10.5143243749
30
0.0000000000
10
5.1538347120
20
-10.5143243744
30
0.0000000000
11
5.0778221993
21
-10.6787166858
31
0.0000000000
11
5.0572442802
21
-10.6383729716
31
0.0000000000
11
5.0563340642
21
-10.5933636121
31
0.0000000000
11
5.0751637509
21
-10.5526882920
31
0.0000000000
11
5.1099805481
21
-10.5244355802
31
0.0000000000
11
5.1538347120
21
-10.5143243744
31
0.0000000000
0
SPLINE
5
395
100
AcDbEntity
8
0
100
AcDbSpline
62
0
6
CONTINUOUS
70
0
71
3
72
12
73
8
74
6
42
0.0000001000
43
0.0000001000
44
0.0000000001
12
-0.2249711768
22
0.0000000072
32
0.0000000000
13
0.1443702801
23
0.1725376846
33
0.0000000000
40
0.0000000000
40
0.0000000000
40
0.0000000000
40
0.0000000000
40
0.1979326552
40
0.4014972617
40
0.6002837164
40
0.7995798612
40
1.0000000000
40
1.0000000000
40
1.0000000000
40
1.0000000000
10
5.1538347120
20
-15.7067994342
30
0.0000000000
10
5.1389916646
20
-15.7067994337
30
0.0000000000
10
5.1084524080
20
-15.6999101228
30
0.0000000000
10
5.0722594645
20
-15.6705047562
30
0.0000000000
10
5.0528585103
20
-15.6280187243
30
0.0000000000
10
5.0539343343
20
-15.5816611794
30
0.0000000000
10
5.0681772953
20
-15.5539337986
30
0.0000000000
10
5.0778221992
20
-15.5424071230
30
0.0000000000
11
5.1538347120
21
-15.7067994342
31
0.0000000000
11
5.1104196353
21
-15.6969011700
31
0.0000000000
11
5.0748599300
21
-15.6680429569
31
0.0000000000
11
5.0562543488
21
-15.6273757699
31
0.0000000000
11
5.0572944406
21
-15.5825519472
31
0.0000000000
11
5.0778221992
21
-15.5424071230
31
0.0000000000
0
SPLINE
5
396
100
AcDbEntity
8
0
100
AcDbSpline
62
0
6
CONTINUOUS
70
0
71
3
72
12
73
8
74
6
42
0.0000001000
43
0.0000001000
44
0.0000000001
12
-0.2214620598
22
-0.0000000043
32
0.0000000000
13
0.1359675803
23
-0.1748092132
33
0.0000000000
40
0.0000000000
40
0.0000000000
40
0.0000000000
40
0.0000000000
40
0.1996430843
40
0.3988290180
40
0.5983794923
40
0.7987103633
40
1.0000000000
40
1.0000000000
40
1.0000000000
40
1.0000000000
10
5.2561917784
20
-10.6105619043
30
0.0000000000
10
5.2414539889
20
-10.6105619046
30
0.0000000000
10
5.2115913874
20
-10.6172639797
30
0.0000000000
10
5.1758483528
20
-10.6456185583
30
0.0000000000
10
5.1558691585
20
-10.6867731625
30
0.0000000000
10
5.1556228373
20
-10.7325907550
30
0.0000000000
10
5.1687752732
20
-10.7604481832
30
0.0000000000
10
5.1778982281
20
-10.7721772775
30
0.0000000000
11
5.2561917784
21
-10.6105619043
31
0.0000000000
11
5.2130704527
21
-10.6203278265
31
0.0000000000
11
5.1784952424
21
-10.6477218879
31
0.0000000000
11
5.1591754437
21
-10.6874680093
31
0.0000000000
11
5.1589366022
21
-10.7318330537
31
0.0000000000
11
5.1778982281
21
-10.7721772775
31
0.0000000000
0
SPLINE
5
397
100
AcDbEntity
8
0
100
AcDbSpline
62
0
6
CONTINUOUS
70
0
71
3
72
12
73
8
74
6
42
0.0000001000
43
0.0000001000
44
0.0000000001
12
-0.1359671642
22
-0.1748086791
32
0.0000000000
13
0.2214613827
23
-0.0000000051
33
0.0000000000
40
0.0000000000
40
0.0000000000
40
0.0000000000
40
0.0000000000
40
0.2003556274
40
0.3997456707
40
0.5984189392
40
0.8016719181
40
1.0000000000
40
1.0000000000
40
1.0000000000
40
1.0000000000
10
5.1778982281
20
-15.4489465312
30
0.0000000000
10
5.1688176326
20
-15.4606211654
30
0.0000000000
10
5.1557023484
20
-15.4883249728
30
0.0000000000
10
5.1558047535
20
-15.5339196269
30
0.0000000000
10
5.1756248068
20
-15.5753185945
30
0.0000000000
10
5.2114930787
20
-15.6038685475
30
0.0000000000
10
5.2415511080
20
-15.6105619040
30
0.0000000000
10
5.2561917784
20
-15.6105619043
30
0.0000000000
11
5.1778982281
21
-15.4489465312
31
0.0000000000
11
5.1589825331
21
-15.4890836109
31
0.0000000000
11
5.1590797608
21
-15.5332406986
31
0.0000000000
11
5.1781051538
21
-15.5729130897
31
0.0000000000
11
5.2133401387
21
-15.6009244752
31
0.0000000000
11
5.2561917784
21
-15.6105619043
31
0.0000000000
0
SPLINE
5
398
100
AcDbEntity
8
0
100
AcDbSpline
62
0
6
CONTINUOUS
70
0
71
3
72
12
73
8
74
6
42
0.0000001000
43
0.0000001000
44
0.0000000001
12
0.0000000000
22
-0.4695527409
32
0.0000000000
13
0.4695527409
23
-0.0000000000
33
0.0000000000
40
0.0000000000
40
0.0000000000
40
0.0000000000
40
0.0000000000
40
0.2008552581
40
0.4012628156
40
0.6011477729
40
0.8006350364
40
1.0000000000
40
1.0000000000
40
1.0000000000
40
1.0000000000
10
-6.3110337004
20
-10.2136364895
30
0.0000000000
10
-6.3110337004
20
-10.2450738685
30
0.0000000000
10
-6.3010736322
20
-10.3083214084
30
0.0000000000
10
-6.2577347943
20
-10.3935096922
30
0.0000000000
10
-6.1902999444
20
-10.4610791474
30
0.0000000000
10
-6.1055175490
20
-10.5043843637
30
0.0000000000
10
-6.0426485165
20
-10.5143243744
30
0.0000000000
10
-6.0114443948
20
-10.5143243744
30
0.0000000000
11
-6.3110337004
21
-10.2136364895
31
0.0000000000
11
-6.2963098401
21
-10.3067922038
31
0.0000000000
11
-6.2536497009
21
-10.3906688006
31
0.0000000000
11
-6.1873370717
21
-10.4570893045
31
0.0000000000
11
-6.1039015634
21
-10.4996633078
31
0.0000000000
11
-6.0114443948
21
-10.5143243744
31
0.0000000000
0
SPLINE
5
399
100
AcDbEntity
8
0
100
AcDbSpline
62
0
6
CONTINUOUS
70
0
71
3
72
10
73
6
74
4
42
0.0000001000
43
0.0000001000
44
0.0000000001
12
-0.1329817272
22
-0.1596968995
32
0.0000000000
13
0.0000000000
23
-0.2078153976
33
0.0000000000
40
0.0000000000
40
0.0000000000
40
0.0000000000
40
0.0000000000
40
0.3331959025
40
0.6662685541
40
1.0000000000
40
1.0000000000
40
1.0000000000
40
1.0000000000
10
-6.2415809506
20
-9.6022641399
30
0.0000000000
10
-6.2563506061
20
-9.6200009241
30
0.0000000000
10
-6.2818677611
20
-9.6590505245
30
0.0000000000
10
-6.3056413734
20
-9.7247133432
30
0.0000000000
10
-6.3110337004
20
-9.7710876686
30
0.0000000000
10
-6.3110337004
20
-9.7942058463
30
0.0000000000
11
-6.2415809506
21
-9.6022641399
31
0.0000000000
11
-6.2794522001
21
-9.6602330506
31
0.0000000000
11
-6.3030158723
21
-9.7253163282
31
0.0000000000
11
-6.3110337004
21
-9.7942058463
31
0.0000000000
0
SPLINE
5
39A
100
AcDbEntity
8
0
100
AcDbSpline
62
0
6
CONTINUOUS
70
0
71
3
72
9
73
5
74
3
42
0.0000001000
43
0.0000001000
44
0.0000000001
12
-0.2588284623
22
0.0000000000
32
0.0000000000
13
-0.1682104368
23
0.2004866365
33
0.0000000000
40
0.0000000000
40
0.0000000000
40
0.0000000000
40
0.0000000000
40
0.5999568547
40
1.0000000000
40
1.0000000000
40
1.0000000000
40
1.0000000000
10
4.9833039297
20
18.3894380957
30
0.0000000000
10
4.9315419596
20
18.3894380957
30
0.0000000000
10
4.8436089858
20
18.4128767250
30
0.0000000000
10
4.7759002049
20
18.4698425265
30
0.0000000000
10
4.7534697274
20
18.4965769614
30
0.0000000000
11
4.9833039297
21
18.3894380957
31
0.0000000000
11
4.8333096412
21
18.4296304745
31
0.0000000000
11
4.7534697274
21
18.4965769614
31
0.0000000000
0
SPLINE
5
39B
100
AcDbEntity
8
0
100
AcDbSpline
62
0
6
CONTINUOUS
70
0
71
3
72
9
73
5
74
3
42
0.0000001000
43
0.0000001000
44
0.0000000001
12
-0.1007234916
22
0.1200503039
32
0.0000000000
13
-0.0275529456
23
0.1541972305
33
0.0000000000
40
0.0000000000
40
0.0000000000
40
0.0000000000
40
0.0000000000
40
0.3338767931
40
1.0000000000
40
1.0000000000
40
1.0000000000
40
1.0000000000
10
4.7534697274
20
18.4965769614
30
0.0000000000
10
4.7422599820
20
18.5099376315
30
0.0000000000
10
4.7121683537
20
18.5529059316
30
0.0000000000
10
4.6940976037
20
18.6031246198
30
0.0000000000
10
4.6879797182
20
18.6373627377
30
0.0000000000
11
4.7534697274
21
18.4965769614
31
0.0000000000
11
4.7235062012
21
18.5394380957
31
0.0000000000
11
4.6879797182
21
18.6373627377
31
0.0000000000
0
SPLINE
5
39C
100
AcDbEntity
8
0
100
AcDbSpline
62
0
6
CONTINUOUS
70
0
71
3
72
8
73
4
74
2
42
0.0000001000
43
0.0000001000
44
0.0000000001
12
-0.0046138457
22
0.0258209135
32
0.0000000000
13
-0.0023414663
23
0.0260031960
33
0.0000000000
40
0.0000000000
40
0.0000000000
40
0.0000000000
40
0.0000000000
40
1.0000000000
40
1.0000000000
40
1.0000000000
40
1.0000000000
10
4.6879797182
20
18.6373627377
30
0.0000000000
10
4.6864417696
20
18.6459697088
30
0.0000000000
10
4.6852778998
20
18.6546263690
30
0.0000000000
10
4.6844974111
20
18.6632941010
30
0.0000000000
11
4.6879797182
21
18.6373627377
31
0.0000000000
11
4.6844974111
21
18.6632941010
31
0.0000000000
0
SPLINE
5
39D
100
AcDbEntity
8
0
100
AcDbSpline
62
0
6
CONTINUOUS
70
0
71
3
72
8
73
4
74
2
42
0.0000001000
43
0.0000001000
44
0.0000000001
12
-0.0023546563
22
0.0261496775
32
0.0000000000
13
0.0000000000
23
0.0260990382
33
0.0000000000
40
0.0000000000
40
0.0000000000
40
0.0000000000
40
0.0000000000
40
1.0000000000
40
1.0000000000
40
1.0000000000
40
1.0000000000
10
4.6844974111
20
18.6632941010
30
0.0000000000
10
4.6837125256
20
18.6720106602
30
0.0000000000
10
4.6833153528
20
18.6807384163
30
0.0000000000
10
4.6833153528
20
18.6894380957
30
0.0000000000
11
4.6844974111
21
18.6632941010
31
0.0000000000
11
4.6833153528
21
18.6894380957
31
0.0000000000
0
SPLINE
5
39E
100
AcDbEntity
8
0
100
AcDbSpline
62
0
6
CONTINUOUS
70
0
71
3
72
8
73
4
74
2
42
0.0000001000
43
0.0000001000
44
0.0000000001
12
0.1384538100
22
-0.0174284148
32
0.0000000000
13
0.1353244022
23
-0.0368941415
33
0.0000000000
40
0.0000000000
40
0.0000000000
40
0.0000000000
40
0.0000000000
40
1.0000000000
40
1.0000000000
40
1.0000000000
40
1.0000000000
10
-3.9322007473
20
3.0737620957
30
0.0000000000
10
-3.8860494773
20
3.0679526241
30
0.0000000000
10
-3.8392044038
20
3.0659877758
30
0.0000000000
10
-3.7940962697
20
3.0536897286
30
0.0000000000
11
-3.9322007473
21
3.0737620957
31
0.0000000000
11
-3.7940962697
21
3.0536897286
31
0.0000000000
0
SPLINE
5
39F
100
AcDbEntity
8
0
100
AcDbSpline
62
0
6
CONTINUOUS
70
0
71
3
72
10
73
6
74
4
42
0.0000001000
43
0.0000001000
44
0.0000000001
12
0.0923987270
22
-0.0251911085
32
0.0000000000
13
0.0714524727
23
-0.0630625130
33
0.0000000000
40
0.0000000000
40
0.0000000000
40
0.0000000000
40
0.0000000000
40
0.0427858532
40
0.8788053328
40
1.0000000000
40
1.0000000000
40
1.0000000000
40
1.0000000000
10
-3.7940962697
20
3.0536897286
30
0.0000000000
10
-3.7927784836
20
3.0533304543
30
0.0000000000
10
-3.7657421001
20
3.0457699570
30
0.0000000000
10
-3.7357179000
20
3.0327635327
30
0.0000000000
10
-3.7122615162
20
3.0134315626
30
0.0000000000
10
-3.7093749633
20
3.0108839491
30
0.0000000000
11
-3.7940962697
21
3.0536897286
31
0.0000000000
11
-3.7901474191
21
3.0525850953
31
0.0000000000
11
-3.7182859219
21
3.0182165532
31
0.0000000000
11
-3.7093749633
21
3.0108839491
31
0.0000000000
0
SPLINE
5
3A0
100
AcDbEntity
8
0
100
AcDbSpline
62
0
6
CONTINUOUS
70
0
71
3
72
9
73
5
74
3
42
0.0000001000
43
0.0000001000
44
0.0000000001
12
0.0866203879
22
-0.0764494095
32
0.0000000000
13
0.0402668576
23
-0.1087869447
33
0.0000000000
40
0.0000000000
40
0.0000000000
40
0.0000000000
40
0.0000000000
40
0.6041179728
40
1.0000000000
40
1.0000000000
40
1.0000000000
40
1.0000000000
10
-3.7093749633
20
3.0108839491
30
0.0000000000
10
-3.6919319856
20
2.9954891284
30
0.0000000000
10
-3.6680938093
20
2.9639641104
30
0.0000000000
10
-3.6517506548
20
2.9287055455
30
0.0000000000
10
-3.6464370131
20
2.9143499467
30
0.0000000000
11
-3.7093749633
21
3.0108839491
31
0.0000000000
11
-3.6658652162
21
2.9560368787
31
0.0000000000
11
-3.6464370131
21
2.9143499467
31
0.0000000000
0
SPLINE
5
3A1
100
AcDbEntity
8
0
100
AcDbSpline
62
0
6
CONTINUOUS
70
0
71
3
72
9
73
5
74
3
42
0.0000001000
43
0.0000001000
44
0.0000000001
12
0.0460771613
22
-0.1244843500
32
0.0000000000
13
-0.0000000000
23
-0.1321750689
33
0.0000000000
40
0.0000000000
40
0.0000000000
40
0.0000000000
40
0.0000000000
40
0.3788391827
40
1.0000000000
40
1.0000000000
40
1.0000000000
40
1.0000000000
10
-3.6464370131
20
2.9143499467
30
0.0000000000
10
-3.6406184017
20
2.8986300969
30
0.0000000000
10
-3.6289193142
20
2.8558775744
30
0.0000000000
10
-3.6267136222
20
2.8115229195
30
0.0000000000
10
-3.6267136222
20
2.7841555949
30
0.0000000000
11
-3.6464370131
21
2.9143499467
31
0.0000000000
11
-3.6331167400
21
2.8660074989
31
0.0000000000
11
-3.6267136222
21
2.7841555949
31
0.0000000000
0
SPLINE
5
3A2
100
AcDbEntity
8
0
100
AcDbSpline
62
0
6
CONTINUOUS
70
0
71
3
72
9
73
5
74
3
42
0.0000001000
43
0.0000001000
44
0.0000000001
12
0.0000000000
22
-0.1240162106
32
0.0000000000
13
-0.0398804324
23
-0.1179052953
33
0.0000000000
40
0.0000000000
40
0.0000000000
40
0.0000000000
40
0.0000000000
40
0.6620261448
40
1.0000000000
40
1.0000000000
40
1.0000000000
40
1.0000000000
10
-3.6267136222
20
2.7841555949
30
0.0000000000
10
-3.6267136222
20
2.7567882703
30
0.0000000000
10
-3.6287831620
20
2.7151715247
30
0.0000000000
10
-3.6392102597
20
2.6749652243
30
0.0000000000
10
-3.6437031076
20
2.6616822552
30
0.0000000000
11
-3.6267136222
21
2.7841555949
31
0.0000000000
11
-3.6331167400
21
2.7023036910
31
0.0000000000
11
-3.6437031076
21
2.6616822552
31
0.0000000000
0
SPLINE
5
3A3
100
AcDbEntity
8
0
100
AcDbSpline
62
0
6
CONTINUOUS
70
0
71
3
72
11
73
7
74
5
42
0.0000001000
43
0.0000001000
44
0.0000000001
12
-0.1152827020
22
-0.3408298311
32
0.0000000000
13
-0.3556876794
23
-0.0447735727
33
0.0000000000
40
0.0000000000
40
0.0000000000
40
0.0000000000
40
0.0000000000
40
0.1503128121
40
0.3771724865
40
0.5993716183
40
1.0000000000
40
1.0000000000
40
1.0000000000
40
1.0000000000
10
-3.6437031076
20
2.6616822552
30
0.0000000000
10
-3.6494792633
20
2.6446052251
30
0.0000000000
10
-3.6679909480
20
2.6030225860
30
0.0000000000
10
-3.7137293767
20
2.5450730422
30
0.0000000000
10
-3.8097146388
20
2.5034924158
30
0.0000000000
10
-3.8847012092
20
2.5005282837
30
0.0000000000
10
-3.9322007357
20
2.4945490957
30
0.0000000000
11
-3.6437031076
21
2.6616822552
31
0.0000000000
11
-3.6658652162
21
2.6122743112
31
0.0000000000
11
-3.7182859219
21
2.5500946367
31
0.0000000000
11
-3.7901474191
21
2.5157260946
31
0.0000000000
11
-3.9322007357
21
2.4945490957
31
0.0000000000
0
SPLINE
5
3A4
100
AcDbEntity
8
0
100
AcDbSpline
62
0
6
CONTINUOUS
70
0
71
3
72
8
73
4
74
2
42
0.0000001000
43
0.0000001000
44
0.0000000001
12
0.2244462748
22
0.0083182735
32
0.0000000000
13
0.2235366364
23
0.0223511888
33
0.0000000000
40
0.0000000000
40
0.0000000000
40
0.0000000000
40
0.0000000000
40
1.0000000000
40
1.0000000000
40
1.0000000000
40
1.0000000000
10
-4.0017421628
20
2.1538730957
30
0.0000000000
10
-3.9269267379
20
2.1566458535
30
0.0000000000
10
-3.8519439684
20
2.1578572574
30
0.0000000000
10
-3.7774317562
20
2.1653076537
30
0.0000000000
11
-4.0017421628
21
2.1538730957
31
0.0000000000
11
-3.7774317562
21
2.1653076537
31
0.0000000000
0
SPLINE
5
3A5
100
AcDbEntity
8
0
100
AcDbSpline
62
0
6
CONTINUOUS
70
0
71
3
72
8
73
4
74
2
42
0.0000001000
43
0.0000001000
44
0.0000000001
12
0.0517165343
22
0.0051710809
32
0.0000000000
13
0.0514983982
23
0.0072764733
33
0.0000000000
40
0.0000000000
40
0.0000000000
40
0.0000000000
40
0.0000000000
40
1.0000000000
40
1.0000000000
40
1.0000000000
40
1.0000000000
10
-3.7774317562
20
2.1653076537
30
0.0000000000
10
-3.7601929115
20
2.1670313473
30
0.0000000000
10
-3.7429788729
20
2.1690906394
30
0.0000000000
10
-3.7258127402
20
2.1715161305
30
0.0000000000
11
-3.7774317562
21
2.1653076537
31
0.0000000000
11
-3.7258127402
21
2.1715161305
31
0.0000000000
0
SPLINE
5
3A6
100
AcDbEntity
8
0
100
AcDbSpline
62
0
6
CONTINUOUS
70
0
71
3
72
9
73
5
74
3
42
0.0000001000
43
0.0000001000
44
0.0000000001
12
0.1876570665
22
0.0265150313
32
0.0000000000
13
0.1801712170
23
0.0603586284
33
0.0000000000
40
0.0000000000
40
0.0000000000
40
0.0000000000
40
0.0000000000
40
0.8037357841
40
1.0000000000
40
1.0000000000
40
1.0000000000
40
1.0000000000
10
-3.7258127402
20
2.1715161305
30
0.0000000000
10
-3.6755371737
20
2.1786198237
30
0.0000000000
10
-3.6134961914
20
2.1913658540
30
0.0000000000
10
-3.5529909929
20
2.2101585397
30
0.0000000000
10
-3.5412039387
20
2.2141072860
30
0.0000000000
11
-3.7258127402
21
2.1715161305
31
0.0000000000
11
-3.5768001614
21
2.2030147913
31
0.0000000000
11
-3.5412039387
21
2.2141072860
31
0.0000000000
0
SPLINE
5
3A7
100
AcDbEntity
8
0
100
AcDbSpline
62
0
6
CONTINUOUS
70
0
71
3
72
8
73
4
74
2
42
0.0000001000
43
0.0000001000
44
0.0000000001
12
0.0801610617
22
0.0268545210
32
0.0000000000
13
0.0764429166
23
0.0358451320
33
0.0000000000
40
0.0000000000
40
0.0000000000
40
0.0000000000
40
0.0000000000
40
1.0000000000
40
1.0000000000
40
1.0000000000
40
1.0000000000
10
-3.5412039387
20
2.2141072860
30
0.0000000000
10
-3.5144835848
20
2.2230587930
30
0.0000000000
10
-3.4882152067
20
2.2333485558
30
0.0000000000
10
-3.4627342345
20
2.2452969331
30
0.0000000000
11
-3.5412039387
21
2.2141072860
31
0.0000000000
11
-3.4627342345
21
2.2452969331
31
0.0000000000
0
SPLINE
5
3A8
100
AcDbEntity
8
0
100
AcDbSpline
62
0
6
CONTINUOUS
70
0
71
3
72
9
73
5
74
3
42
0.0000001000
43
0.0000001000
44
0.0000000001
12
0.0720562213
22
0.0337881504
32
0.0000000000
13
0.0669961196
23
0.0433925074
33
0.0000000000
40
0.0000000000
40
0.0000000000
40
0.0000000000
40
0.0000000000
40
0.7982856733
40
1.0000000000
40
1.0000000000
40
1.0000000000
40
1.0000000000
10
-3.4627342345
20
2.2452969331
30
0.0000000000
10
-3.4435604181
20
2.2542877986
30
0.0000000000
10
-3.4201001806
20
2.2667269621
30
0.0000000000
10
-3.3975638367
20
2.2808540314
30
0.0000000000
10
-3.3930591443
20
2.2837716615
30
0.0000000000
11
-3.4627342345
21
2.2452969331
31
0.0000000000
11
-3.4066932356
21
2.2752234455
31
0.0000000000
11
-3.3930591443
21
2.2837716615
31
0.0000000000
0
SPLINE
5
3A9
100
AcDbEntity
8
0
100
AcDbSpline
62
0
6
CONTINUOUS
70
0
71
3
72
9
73
5
74
3
42
0.0000001000
43
0.0000001000
44
0.0000000001
12
0.2669940567
22
0.1729285463
32
0.0000000000
13
0.1095947205
23
0.2989867284
33
0.0000000000
40
0.0000000000
40
0.0000000000
40
0.0000000000
40
0.0000000000
40
0.5036827691
40
1.0000000000
40
1.0000000000
40
1.0000000000
40
1.0000000000
10
-3.3930591443
20
2.2837716615
30
0.0000000000
10
-3.3482323757
20
2.3128053712
30
0.0000000000
10
-3.2673365235
20
2.3838167253
30
0.0000000000
10
-3.2165836646
20
2.4787253841
30
0.0000000000
10
-3.1984524153
20
2.5281894724
30
0.0000000000
11
-3.3930591443
21
2.2837716615
31
0.0000000000
11
-3.2743878489
21
2.3904024207
31
0.0000000000
11
-3.1984524153
21
2.5281894724
31
0.0000000000
0
SPLINE
5
3AA
100
AcDbEntity
8
0
100
AcDbSpline
62
0
6
CONTINUOUS
70
0
71
3
72
10
73
6
74
4
42
0.0000001000
43
0.0000001000
44
0.0000000001
12
0.0900655880
22
0.2457090577
32
0.0000000000
13
0.0000000000
23
0.2600733183
33
0.0000000000
40
0.0000000000
40
0.0000000000
40
0.0000000000
40
0.0000000000
40
0.1173677502
40
0.5318453964
40
1.0000000000
40
1.0000000000
40
1.0000000000
40
1.0000000000
10
-3.1984524153
20
2.5281894724
30
0.0000000000
10
-3.1949288168
20
2.5378022455
30
0.0000000000
10
-3.1801697863
20
2.5817657597
30
0.0000000000
10
-3.1626073047
20
2.6668686127
30
0.0000000000
10
-3.1582059757
20
2.7435707545
30
0.0000000000
10
-3.1582059757
20
2.7841555949
30
0.0000000000
11
-3.1984524153
21
2.5281894724
31
0.0000000000
11
-3.1886786450
21
2.5572692145
31
0.0000000000
11
-3.1659977215
21
2.6626506479
31
0.0000000000
11
-3.1582059757
21
2.7841555949
31
0.0000000000
0
SPLINE
5
3AB
100
AcDbEntity
8
0
100
AcDbSpline
62
0
6
CONTINUOUS
70
0
71
3
72
9
73
5
74
3
42
0.0000001000
43
0.0000001000
44
0.0000000001
12
0.0000000000
22
0.1348716125
32
0.0000000000
13
-0.0204184265
23
0.1333705911
33
0.0000000000
40
0.0000000000
40
0.0000000000
40
0.0000000000
40
0.0000000000
40
0.9027438689
40
1.0000000000
40
1.0000000000
40
1.0000000000
40
1.0000000000
10
-3.1582059757
20
2.7841555949
30
0.0000000000
10
-3.1582059757
20
2.8247404354
30
0.0000000000
10
-3.1607919773
20
2.8698067922
30
0.0000000000
10
-3.1672098276
20
2.9143250786
30
0.0000000000
10
-3.1678717666
20
2.9186487812
30
0.0000000000
11
-3.1582059757
21
2.7841555949
31
0.0000000000
11
-3.1659977215
21
2.9056605419
31
0.0000000000
11
-3.1678717666
21
2.9186487812
31
0.0000000000
0
SPLINE
5
3AC
100
AcDbEntity
8
0
100
AcDbSpline
62
0
6
CONTINUOUS
70
0
71
3
72
10
73
6
74
4
42
0.0000001000
43
0.0000001000
44
0.0000000001
12
-0.0463084585
22
0.3024810206
32
0.0000000000
13
-0.2031437236
23
0.2303874033
33
0.0000000000
40
0.0000000000
40
0.0000000000
40
0.0000000000
40
0.0000000000
40
0.3095195690
40
0.9227937743
40
1.0000000000
40
1.0000000000
40
1.0000000000
40
1.0000000000
10
-3.1678717666
20
2.9186487812
30
0.0000000000
10
-3.1726495580
20
2.9498567129
30
0.0000000000
10
-3.1927595137
20
3.0419713894
30
0.0000000000
10
-3.2390053680
20
3.1359349044
30
0.0000000000
10
-3.2843634297
20
3.1901706050
30
0.0000000000
10
-3.2895914164
20
3.1960997190
30
0.0000000000
11
-3.1678717666
21
2.9186487812
31
0.0000000000
11
-3.1886786450
21
3.0110419753
31
0.0000000000
11
-3.2743878489
21
3.1779087692
31
0.0000000000
11
-3.2895914164
21
3.1960997190
31
0.0000000000
0
SPLINE
5
3AD
100
AcDbEntity
8
0
100
AcDbSpline
62
0
6
CONTINUOUS
70
0
71
3
72
8
73
4
74
2
42
0.0000001000
43
0.0000001000
44
0.0000000001
12
-0.0901440685
22
0.1022333227
32
0.0000000000
13
-0.1145101920
23
0.0741808376
33
0.0000000000
40
0.0000000000
40
0.0000000000
40
0.0000000000
40
0.0000000000
40
1.0000000000
40
1.0000000000
40
1.0000000000
40
1.0000000000
10
-3.2895914164
20
3.1960997190
30
0.0000000000
10
-3.3196394392
20
3.2301774932
30
0.0000000000
10
-3.3548495334
20
3.2597869660
30
0.0000000000
10
-3.3930195973
20
3.2845139119
30
0.0000000000
11
-3.2895914164
21
3.1960997190
31
0.0000000000
11
-3.3930195973
21
3.2845139119
31
0.0000000000
0
SPLINE
5
3AE
100
AcDbEntity
8
0
100
AcDbSpline
62
0
6
CONTINUOUS
70
0
71
3
72
9
73
5
74
3
42
0.0000001000
43
0.0000001000
44
0.0000000001
12
-0.0567622025
22
0.0367711175
32
0.0000000000
13
-0.0604905990
23
0.0297929555
33
0.0000000000
40
0.0000000000
40
0.0000000000
40
0.0000000000
40
0.0000000000
40
0.2387662701
40
1.0000000000
40
1.0000000000
40
1.0000000000
40
1.0000000000
10
-3.3930195973
20
3.2845139119
30
0.0000000000
10
-3.3975372305
20
3.2874404794
30
0.0000000000
10
-3.4166316209
20
3.2994110693
30
0.0000000000
10
-3.4363892773
20
3.3101699067
30
0.0000000000
10
-3.4517384387
20
3.3177297076
30
0.0000000000
11
-3.3930195973
21
3.2845139119
31
0.0000000000
11
-3.4066932356
21
3.2930877444
31
0.0000000000
11
-3.4517384387
21
3.3177297076
31
0.0000000000
0
SPLINE
5
3AF
100
AcDbEntity
8
0
100
AcDbSpline
62
0
6
CONTINUOUS
70
0
71
3
72
9
73
5
74
3
42
0.0000001000
43
0.0000001000
44
0.0000000001
12
-0.2251894753
22
0.1109107884
32
0.0000000000
13
-0.2471437008
23
0.0424701227
33
0.0000000000
40
0.0000000000
40
0.0000000000
40
0.0000000000
40
0.0000000000
40
0.5333030399
40
1.0000000000
40
1.0000000000
40
1.0000000000
40
1.0000000000
10
-3.4517384387
20
3.3177297076
30
0.0000000000
10
-3.4917698493
20
3.3374460612
30
0.0000000000
10
-3.5707736818
20
3.3663786700
30
0.0000000000
10
-3.6524649666
20
3.3847302990
30
0.0000000000
10
-3.6909120379
20
3.3913371914
30
0.0000000000
11
-3.4517384387
21
3.3177297076
31
0.0000000000
11
-3.5768001614
21
3.3652963986
31
0.0000000000
11
-3.6909120379
21
3.3913371914
31
0.0000000000
0
SPLINE
5
3B0
100
AcDbEntity
8
0
100
AcDbSpline
62
0
6
CONTINUOUS
70
0
71
3
72
9
73
5
74
3
42
0.0000001000
43
0.0000001000
44
0.0000000001
12
-0.2581236042
22
0.0443569515
32
0.0000000000
13
-0.2615754973
23
0.0086118352
33
0.0000000000
40
0.0000000000
40
0.0000000000
40
0.0000000000
40
0.0000000000
40
0.3282894820
40
1.0000000000
40
1.0000000000
40
1.0000000000
40
1.0000000000
10
-3.6909120379
20
3.3913371914
30
0.0000000000
10
-3.7191584593
20
3.3961911649
30
0.0000000000
10
-3.8057290745
20
3.4077579548
30
0.0000000000
10
-3.8929433546
20
3.4107960061
30
0.0000000000
10
-3.9515110255
20
3.4127242262
30
0.0000000000
11
-3.6909120379
21
3.3913371914
31
0.0000000000
11
-3.7760682745
21
3.4028664997
31
0.0000000000
11
-3.9515110255
21
3.4127242262
31
0.0000000000
0
SPLINE
5
3B1
100
AcDbEntity
8
0
100
AcDbSpline
62
0
6
CONTINUOUS
70
0
71
3
72
8
73
4
74
2
42
0.0000001000
43
0.0000001000
44
0.0000000001
12
-0.0502420184
22
0.0016541151
32
0.0000000000
13
-0.0502131925
23
0.0018609672
33
0.0000000000
40
0.0000000000
40
0.0000000000
40
0.0000000000
40
0.0000000000
40
1.0000000000
40
1.0000000000
40
1.0000000000
40
1.0000000000
10
-3.9515110255
20
3.4127242262
30
0.0000000000
10
-3.9682583650
20
3.4132755979
30
0.0000000000
10
-3.9850044716
20
3.4138177733
30
0.0000000000
10
-4.0017422024
20
3.4144380957
30
0.0000000000
11
-3.9515110255
21
3.4127242262
31
0.0000000000
11
-4.0017422024
21
3.4144380957
31
0.0000000000
0
SPLINE
5
3B2
100
AcDbEntity
8
0
100
AcDbSpline
62
0
6
CONTINUOUS
70
0
71
3
72
8
73
4
74
2
42
0.0000001000
43
0.0000001000
44
0.0000000001
12
0.1410266807
22
-0.0000152493
32
0.0000000000
13
0.1410266627
23
0.0000899271
33
0.0000000000
40
0.0000000000
40
0.0000000000
40
0.0000000000
40
0.0000000000
40
1.0000000000
40
1.0000000000
40
1.0000000000
40
1.0000000000
10
-4.0832509162
20
-20.3635949041
30
0.0000000000
10
-4.0362420226
20
-20.3635999872
30
0.0000000000
10
-3.9892331277
20
-20.3635840239
30
0.0000000000
10
-3.9422242401
20
-20.3635540482
30
0.0000000000
11
-4.0832509162
21
-20.3635949041
31
0.0000000000
11
-3.9422242401
21
-20.3635540482
31
0.0000000000
0
SPLINE
5
3B3
100
AcDbEntity
8
0
100
AcDbSpline
62
0
6
CONTINUOUS
70
0
71
3
72
9
73
5
74
3
42
0.0000001000
43
0.0000001000
44
0.0000000001
12
0.2167209644
22
0.0001381943
32
0.0000000000
13
0.2167207951
23
0.0002937839
33
0.0000000000
40
0.0000000000
40
0.0000000000
40
0.0000000000
40
0.0000000000
40
0.3301895020
40
1.0000000000
40
1.0000000000
40
1.0000000000
40
1.0000000000
10
-3.9422242401
20
-20.3635540482
30
0.0000000000
10
-3.9183712443
20
-20.3635388381
30
0.0000000000
10
-3.8461309286
20
-20.3634818470
30
0.0000000000
10
-3.7738906408
20
-20.3634001936
30
0.0000000000
10
-3.7255033529
20
-20.3633346004
30
0.0000000000
11
-3.9422242401
21
-20.3635540482
31
0.0000000000
11
-3.8706652596
21
-20.3634985135
31
0.0000000000
11
-3.7255033529
21
-20.3633346004
31
0.0000000000
0
SPLINE
5
3B4
100
AcDbEntity
8
0
100
AcDbSpline
62
0
6
CONTINUOUS
70
0
71
3
72
8
73
4
74
2
42
0.0000001000
43
0.0000001000
44
0.0000000001
12
0.0736976386
22
0.0000999036
32
0.0000000000
13
0.0736976139
23
0.0001166976
33
0.0000000000
40
0.0000000000
40
0.0000000000
40
0.0000000000
40
0.0000000000
40
1.0000000000
40
1.0000000000
40
1.0000000000
40
1.0000000000
10
-3.7255033529
20
-20.3633346004
30
0.0000000000
10
-3.7009374734
20
-20.3633012992
30
0.0000000000
10
-3.6763715978
20
-20.3632651883
30
0.0000000000
10
-3.6518057265
20
-20.3632262891
30
0.0000000000
11
-3.7255033529
21
-20.3633346004
31
0.0000000000
11
-3.6518057265
21
-20.3632262891
31
0.0000000000
0
SPLINE
5
3B5
100
AcDbEntity
8
0
100
AcDbSpline
62
0
6
CONTINUOUS
70
0
71
3
72
8
73
4
74
2
42
0.0000001000
43
0.0000001000
44
0.0000000001
12
0.1947448307
22
0.0003083718
32
0.0000000000
13
0.1947446489
23
0.0004080092
33
0.0000000000
40
0.0000000000
40
0.0000000000
40
0.0000000000
40
0.0000000000
40
1.0000000000
40
1.0000000000
40
1.0000000000
40
1.0000000000
10
-3.6518057265
20
-20.3632262891
30
0.0000000000
10
-3.5868907829
20
-20.3631234985
30
0.0000000000
10
-3.5219758693
20
-20.3630012380
30
0.0000000000
10
-3.4570609863
20
-20.3628652349
30
0.0000000000
11
-3.6518057265
21
-20.3632262891
31
0.0000000000
11
-3.4570609863
21
-20.3628652349
31
0.0000000000
0
SPLINE
5
3B6
100
AcDbEntity
8
0
100
AcDbSpline
62
0
6
CONTINUOUS
70
0
71
3
72
8
73
4
74
2
42
0.0000001000
43
0.0000001000
44
0.0000000001
12
0.0310279072
22
0.0000650065
32
0.0000000000
13
0.0310279026
23
0.0000670301
33
0.0000000000
40
0.0000000000
40
0.0000000000
40
0.0000000000
40
0.0000000000
40
1.0000000000
40
1.0000000000
40
1.0000000000
40
1.0000000000
10
-3.4570609863
20
-20.3628652349
30
0.0000000000
10
-3.4467183506
20
-20.3628435661
30
0.0000000000
10
-3.4363757156
20
-20.3628215484
30
0.0000000000
10
-3.4260330814
20
-20.3627992050
30
0.0000000000
11
-3.4570609863
21
-20.3628652349
31
0.0000000000
11
-3.4260330814
21
-20.3627992050
31
0.0000000000
0
SPLINE
5
3B7
100
AcDbEntity
8
0
100
AcDbSpline
62
0
6
CONTINUOUS
70
0
71
3
72
8
73
4
74
2
42
0.0000001000
43
0.0000001000
44
0.0000000001
12
0.2257272169
22
-0.0005059749
32
0.0000000000
13
0.2257275127
23
-0.0003544315
33
0.0000000000
40
0.0000000000
40
0.0000000000
40
0.0000000000
40
0.0000000000
40
1.0000000000
40
1.0000000000
40
1.0000000000
40
1.0000000000
10
3.5690555507
20
-20.3627992050
30
0.0000000000
10
3.6442979563
20
-20.3629678633
30
0.0000000000
10
3.7195404262
20
-20.3631082441
30
0.0000000000
10
3.7947829304
20
-20.3632263880
30
0.0000000000
11
3.5690555507
21
-20.3627992050
31
0.0000000000
11
3.7947829304
21
-20.3632263880
31
0.0000000000
0
SPLINE
5
3B8
100
AcDbEntity
8
0
100
AcDbSpline
62
0
6
CONTINUOUS
70
0
71
3
72
8
73
4
74
2
42
0.0000001000
43
0.0000001000
44
0.0000000001
12
0.2188505662
22
-0.0003436335
32
0.0000000000
13
0.2188507521
23
-0.0001910050
33
0.0000000000
40
0.0000000000
40
0.0000000000
40
0.0000000000
40
0.0000000000
40
1.0000000000
40
1.0000000000
40
1.0000000000
40
1.0000000000
10
3.7947829304
20
-20.3632263880
30
0.0000000000
10
3.8677331192
20
-20.3633409325
30
0.0000000000
10
3.9406833402
20
-20.3634345743
30
0.0000000000
10
4.0136335908
20
-20.3634982426
30
0.0000000000
11
3.7947829304
21
-20.3632263880
31
0.0000000000
11
4.0136335908
21
-20.3634982426
31
0.0000000000
0
SPLINE
5
3B9
100
AcDbEntity
8
0
100
AcDbSpline
62
0
6
CONTINUOUS
70
0
71
3
72
8
73
4
74
2
42
0.0000001000
43
0.0000001000
44
0.0000000001
12
0.0715700188
22
-0.0000624637
32
0.0000000000
13
0.0715700343
23
-0.0000427689
33
0.0000000000
40
0.0000000000
40
0.0000000000
40
0.0000000000
40
0.0000000000
40
1.0000000000
40
1.0000000000
40
1.0000000000
40
1.0000000000
10
4.0136335908
20
-20.3634982426
30
0.0000000000
10
4.0374902638
20
-20.3635190638
30
0.0000000000
10
4.0613469399
20
-20.3635366795
30
0.0000000000
10
4.0852036180
20
-20.3635509358
30
0.0000000000
11
4.0136335908
21
-20.3634982426
31
0.0000000000
11
4.0852036180
21
-20.3635509358
31
0.0000000000
0
SPLINE
5
3BA
100
AcDbEntity
8
0
100
AcDbSpline
62
0
6
CONTINUOUS
70
0
71
3
72
8
73
4
74
2
42
0.0000001000
43
0.0000001000
44
0.0000000001
12
0.1410697534
22
-0.0000843007
32
0.0000000000
13
0.1410697725
23
-0.0000024581
33
0.0000000000
40
0.0000000000
40
0.0000000000
40
0.0000000000
40
0.0000000000
40
1.0000000000
40
1.0000000000
40
1.0000000000
40
1.0000000000
10
4.0852036180
20
-20.3635509358
30
0.0000000000
10
4.1322268691
20
-20.3635790361
30
0.0000000000
10
4.1792501280
20
-20.3635940848
30
0.0000000000
10
4.2262733855
20
-20.3635949041
30
0.0000000000
11
4.0852036180
21
-20.3635509358
31
0.0000000000
11
4.2262733855
21
-20.3635949041
31
0.0000000000
0
SPLINE
5
3BB
100
AcDbEntity
8
0
100
AcDbSpline
62
0
6
CONTINUOUS
70
0
71
3
72
15
73
11
74
9
42
0.0000001000
43
0.0000001000
44
0.0000000001
12
-1.2544455271
22
0.0000000000
32
0.0000000000
13
-0.0000000000
23
-1.2544455271
33
0.0000000000
40
0.0000000000
40
0.0000000000
40
0.0000000000
40
0.0000000000
40
0.1249999808
40
0.2499998107
40
0.3750000467
40
0.5000001768
40
0.6250002546
40
0.7500003661
40
0.8750000750
40
1.0000000000
40
1.0000000000
40
1.0000000000
40
1.0000000000
10
-10.0286106092
20
21.5394380957
30
0.0000000000
10
-10.0808791648
20
21.5394380957
30
0.0000000000
10
-10.1857058477
20
21.5291286625
30
0.0000000000
10
-10.3366799330
20
21.4833246391
30
0.0000000000
10
-10.4758783533
20
21.4089367051
30
0.0000000000
10
-10.5978707049
20
21.3088197489
30
0.0000000000
10
-10.6979875643
20
21.1868273868
30
0.0000000000
10
-10.7723753857
20
21.0476290509
30
0.0000000000
10
-10.8181793441
20
20.8966550803
30
0.0000000000
10
-10.8284887654
20
20.7918284718
30
0.0000000000
10
-10.8284887654
20
20.7395599396
30
0.0000000000
11
-10.0286106092
21
21.5394380957
31
0.0000000000
11
-10.1846615643
21
21.5240720113
31
0.0000000000
11
-10.3347171555
21
21.4785607233
31
0.0000000000
11
-10.4730106959
21
21.4046485171
31
0.0000000000
11
-10.5942248119
21
21.3051738270
31
0.0000000000
11
-10.6936993977
21
21.1839597105
31
0.0000000000
11
-10.7676114783
21
21.0456662799
31
0.0000000000
11
-10.8131226947
21
20.8956108257
31
0.0000000000
11
-10.8284887654
21
20.7395599396
31
0.0000000000
0
SPLINE
5
3BC
100
AcDbEntity
8
0
100
AcDbSpline
62
0
6
CONTINUOUS
70
0
71
3
72
15
73
11
74
9
42
0.0000001000
43
0.0000001000
44
0.0000000001
12
0.0000000000
22
-1.2544455271
32
0.0000000000
13
1.2544455271
23
0.0000000000
33
0.0000000000
40
0.0000000000
40
0.0000000000
40
0.0000000000
40
0.0000000000
40
0.1249999808
40
0.2499998107
40
0.3750000467
40
0.5000001768
40
0.6250002546
40
0.7500003661
40
0.8750000750
40
1.0000000000
40
1.0000000000
40
1.0000000000
40
1.0000000000
10
-10.8284887654
20
-20.9606837482
30
0.0000000000
10
-10.8284887654
20
-21.0129523038
30
0.0000000000
10
-10.8181793321
20
-21.1177789866
30
0.0000000000
10
-10.7723753087
20
-21.2687530720
30
0.0000000000
10
-10.6979873748
20
-21.4079514923
30
0.0000000000
10
-10.5978704186
20
-21.5299438439
30
0.0000000000
10
-10.4758780565
20
-21.6300607032
30
0.0000000000
10
-10.3366797205
20
-21.7044485247
30
0.0000000000
10
-10.1857057500
20
-21.7502524830
30
0.0000000000
10
-10.0808791415
20
-21.7605619043
30
0.0000000000
10
-10.0286106092
20
-21.7605619043
30
0.0000000000
11
-10.8284887654
21
-20.9606837482
31
0.0000000000
11
-10.8131226810
21
-21.1167347033
31
0.0000000000
11
-10.7676113930
21
-21.2667902945
31
0.0000000000
11
-10.6936991868
21
-21.4050838349
31
0.0000000000
11
-10.5942244967
21
-21.5262979508
31
0.0000000000
11
-10.4730103802
21
-21.6257725367
31
0.0000000000
11
-10.3347169496
21
-21.6996846172
31
0.0000000000
11
-10.1846614953
21
-21.7451958336
31
0.0000000000
11
-10.0286106092
21
-21.7605619043
31
0.0000000000
0
SPLINE
5
3BD
100
AcDbEntity
8
0
100
AcDbSpline
62
0
6
CONTINUOUS
70
0
71
3
72
15
73
11
74
9
42
0.0000001000
43
0.0000001000
44
0.0000000001
12
0.0000000000
22
1.2544455271
32
0.0000000000
13
-1.2544455271
23
0.0000000000
33
0.0000000000
40
0.0000000000
40
0.0000000000
40
0.0000000000
40
0.0000000000
40
0.1249999808
40
0.2499998107
40
0.3750000467
40
0.5000001768
40
0.6250002546
40
0.7500003661
40
0.8750000750
40
1.0000000000
40
1.0000000000
40
1.0000000000
40
1.0000000000
10
10.9715112346
20
20.7395599396
30
0.0000000000
10
10.9715112346
20
20.7918284951
30
0.0000000000
10
10.9612018014
20
20.8966551780
30
0.0000000000
10
10.9153977780
20
21.0476292633
30
0.0000000000
10
10.8410098441
20
21.1868276836
30
0.0000000000
10
10.7408928879
20
21.3088200352
30
0.0000000000
10
10.6189005257
20
21.4089368946
30
0.0000000000
10
10.4797021898
20
21.4833247160
30
0.0000000000
10
10.3287282193
20
21.5291286744
30
0.0000000000
10
10.2239016108
20
21.5394380957
30
0.0000000000
10
10.1716330785
20
21.5394380957
30
0.0000000000
11
10.9715112346
21
20.7395599396
31
0.0000000000
11
10.9561451502
21
20.8956108946
31
0.0000000000
11
10.9106338623
21
21.0456664859
31
0.0000000000
11
10.8367216560
21
21.1839600263
31
0.0000000000
11
10.7372469659
21
21.3051741422
31
0.0000000000
11
10.6160328494
21
21.4046487281
31
0.0000000000
11
10.4777394189
21
21.4785608086
31
0.0000000000
11
10.3276839646
21
21.5240720250
31
0.0000000000
11
10.1716330785
21
21.5394380957
31
0.0000000000
0
SPLINE
5
3BE
100
AcDbEntity
8
0
100
AcDbSpline
62
0
6
CONTINUOUS
70
0
71
3
72
15
73
11
74
9
42
0.0000001000
43
0.0000001000
44
0.0000000001
12
1.2544455271
22
0.0000000000
32
0.0000000000
13
-0.0000000000
23
1.2544455271
33
0.0000000000
40
0.0000000000
40
0.0000000000
40
0.0000000000
40
0.0000000000
40
0.1249999808
40
0.2499998107
40
0.3750000467
40
0.5000001768
40
0.6250002546
40
0.7500003661
40
0.8750000750
40
1.0000000000
40
1.0000000000
40
1.0000000000
40
1.0000000000
10
10.1716330785
20
-21.7605619043
30
0.0000000000
10
10.2239016341
20
-21.7605619043
30
0.0000000000
10
10.3287283169
20
-21.7502524711
30
0.0000000000
10
10.4797024023
20
-21.7044484477
30
0.0000000000
10
10.6189008226
20
-21.6300605137
30
0.0000000000
10
10.7408931742
20
-21.5299435576
30
0.0000000000
10
10.8410100335
20
-21.4079511954
30
0.0000000000
10
10.9153978550
20
-21.2687528595
30
0.0000000000
10
10.9612018133
20
-21.1177788890
30
0.0000000000
10
10.9715112346
20
-21.0129522805
30
0.0000000000
10
10.9715112346
20
-20.9606837482
30
0.0000000000
11
10.1716330785
21
-21.7605619043
31
0.0000000000
11
10.3276840336
21
-21.7451958199
31
0.0000000000
11
10.4777396248
21
-21.6996845320
31
0.0000000000
11
10.6160331652
21
-21.6257723257
31
0.0000000000
11
10.7372472811
21
-21.5262976356
31
0.0000000000
11
10.8367218670
21
-21.4050835191
31
0.0000000000
11
10.9106339476
21
-21.2667900886
31
0.0000000000
11
10.9561451640
21
-21.1167346343
31
0.0000000000
11
10.9715112346
21
-20.9606837482
31
0.0000000000
0
SPLINE
5
3BF
100
AcDbEntity
8
0
100
AcDbSpline
62
0
6
CONTINUOUS
70
0
71
3
72
10
73
6
74
4
42
0.0000001000
43
0.0000001000
44
0.0000000001
12
-0.0005365532
22
-0.4375069623
32
0.0000000000
13
-0.4383143187
23
-0.0393041685
33
0.0000000000
40
0.0000000000
40
0.0000000000
40
0.0000000000
40
0.0000000000
40
0.3515661539
40
0.7047300360
40
1.0000000000
40
1.0000000000
40
1.0000000000
40
1.0000000000
10
-4.5507651248
20
19.6188731187
30
0.0000000000
10
-4.5508280028
20
19.5676022387
30
0.0000000000
10
-4.5792151136
20
19.4628897617
30
0.0000000000
10
-4.6874982643
20
19.3559832602
30
0.0000000000
10
-4.7816387910
20
19.3268458629
30
0.0000000000
10
-4.8247791420
20
19.3229774161
30
0.0000000000
11
-4.5507651248
21
19.6188731187
31
0.0000000000
11
-4.5910773122
21
19.4704369662
31
0.0000000000
11
-4.7008644898
21
19.3617140901
31
0.0000000000
11
-4.8247791420
21
19.3229774161
31
0.0000000000
0
SPLINE
5
3C0
100
AcDbEntity
8
0
100
AcDbSpline
62
0
6
CONTINUOUS
70
0
71
3
72
8
73
4
74
2
42
0.0000001000
43
0.0000001000
44
0.0000000001
12
-0.0259795242
22
-0.0023296150
32
0.0000000000
13
-0.0259316717
23
-0.0000311887
33
0.0000000000
40
0.0000000000
40
0.0000000000
40
0.0000000000
40
0.0000000000
40
1.0000000000
40
1.0000000000
40
1.0000000000
40
1.0000000000
10
-4.8247791420
20
19.3229774161
30
0.0000000000
10
-4.8334389834
20
19.3222008778
30
0.0000000000
10
-4.8421098112
20
19.3218030943
30
0.0000000000
10
-4.8507537017
20
19.3217926980
30
0.0000000000
11
-4.8247791420
21
19.3229774161
31
0.0000000000
11
-4.8507537017
21
19.3217926980
31
0.0000000000
0
SPLINE
5
3C1
100
AcDbEntity
8
0
100
AcDbSpline
62
0
6
CONTINUOUS
70
0
71
3
72
10
73
6
74
4
42
0.0000001000
43
0.0000001000
44
0.0000000001
12
0.0000000000
22
-0.4397634092
32
0.0000000000
13
-0.4406164218
23
-0.0396848911
33
0.0000000000
40
0.0000000000
40
0.0000000000
40
0.0000000000
40
0.0000000000
40
0.3531240384
40
0.7062422545
40
1.0000000000
40
1.0000000000
40
1.0000000000
40
1.0000000000
10
-4.5402928835
20
18.6894380957
30
0.0000000000
10
-4.5402928835
20
18.6376744187
30
0.0000000000
10
-4.5684151135
20
18.5321599227
30
0.0000000000
10
-4.6765861838
20
18.4239834375
30
0.0000000000
10
-4.7709896669
20
18.3945064871
30
0.0000000000
10
-4.8141344958
20
18.3906205723
30
0.0000000000
11
-4.5402928835
21
18.6894380957
31
0.0000000000
11
-4.5804837319
21
18.5394380957
31
0.0000000000
11
-4.6902871719
21
18.4296304745
31
0.0000000000
11
-4.8141344958
21
18.3906205723
31
0.0000000000
0
SPLINE
5
3C2
100
AcDbEntity
8
0
100
AcDbSpline
62
0
6
CONTINUOUS
70
0
71
3
72
8
73
4
74
2
42
0.0000001000
43
0.0000001000
44
0.0000000001
12
-0.0261526328
22
-0.0023554828
32
0.0000000000
13
-0.0261020025
23
0.0000000000
33
0.0000000000
40
0.0000000000
40
0.0000000000
40
0.0000000000
40
0.0000000000
40
1.0000000000
40
1.0000000000
40
1.0000000000
40
1.0000000000
10
-4.8141344958
20
18.3906205723
30
0.0000000000
10
-4.8228520401
20
18.3898354114
30
0.0000000000
10
-4.8315807929
20
18.3894380957
30
0.0000000000
10
-4.8402814604
20
18.3894380957
30
0.0000000000
11
-4.8141344958
21
18.3906205723
31
0.0000000000
11
-4.8402814604
21
18.3894380957
31
0.0000000000
0
SPLINE
5
3C3
100
AcDbEntity
8
0
100
AcDbSpline
62
0
6
CONTINUOUS
70
0
71
3
72
9
73
5
74
3
42
0.0000001000
43
0.0000001000
44
0.0000000001
12
-0.3096260021
22
0.0003723951
32
0.0000000000
13
-0.1575456116
23
0.2713195887
33
0.0000000000
40
0.0000000000
40
0.0000000000
40
0.0000000000
40
0.0000000000
40
0.5009732366
40
1.0000000000
40
1.0000000000
40
1.0000000000
40
1.0000000000
10
-5.0062238290
20
19.3217926980
30
0.0000000000
10
-5.0579286091
20
19.3218548847
30
0.0000000000
10
-5.1630611673
20
19.3496467571
30
0.0000000000
10
-5.2396937263
20
19.4253050541
30
0.0000000000
10
-5.2659002185
20
19.4704369662
30
0.0000000000
11
-5.0062238290
21
19.3217926980
31
0.0000000000
11
-5.1561130410
21
19.3617140901
31
0.0000000000
11
-5.2659002185
21
19.4704369662
31
0.0000000000
0
SPLINE
5
3C4
100
AcDbEntity
8
0
100
AcDbSpline
62
0
6
CONTINUOUS
70
0
71
3
72
8
73
4
74
2
42
0.0000001000
43
0.0000001000
44
0.0000000001
12
-0.0520525032
22
0.0896430158
32
0.0000000000
13
-0.0184816145
23
0.1017389658
33
0.0000000000
40
0.0000000000
40
0.0000000000
40
0.0000000000
40
0.0000000000
40
1.0000000000
40
1.0000000000
40
1.0000000000
40
1.0000000000
10
-5.2659002185
20
19.4704369662
30
0.0000000000
10
-5.2832510529
20
19.5003179715
30
0.0000000000
10
-5.2953262314
20
19.5334324347
30
0.0000000000
10
-5.3014867696
20
19.5673454233
30
0.0000000000
11
-5.2659002185
21
19.4704369662
31
0.0000000000
11
-5.3014867696
21
19.5673454233
31
0.0000000000
0
SPLINE
5
3C5
100
AcDbEntity
8
0
100
AcDbSpline
62
0
6
CONTINUOUS
70
0
71
3
72
8
73
4
74
2
42
0.0000001000
43
0.0000001000
44
0.0000000001
12
-0.0044835478
22
0.0246813672
32
0.0000000000
13
-0.0023676361
23
0.0248590450
33
0.0000000000
40
0.0000000000
40
0.0000000000
40
0.0000000000
40
0.0000000000
40
1.0000000000
40
1.0000000000
40
1.0000000000
40
1.0000000000
10
-5.3014867696
20
19.5673454233
30
0.0000000000
10
-5.3029812855
20
19.5755725457
30
0.0000000000
10
-5.3041277110
20
19.5838466632
30
0.0000000000
10
-5.3049169230
20
19.5921330115
30
0.0000000000
11
-5.3014867696
21
19.5673454233
31
0.0000000000
11
-5.3049169230
21
19.5921330115
31
0.0000000000
0
SPLINE
5
3C6
100
AcDbEntity
8
0
100
AcDbSpline
62
0
6
CONTINUOUS
70
0
71
3
72
8
73
4
74
2
42
0.0000001000
43
0.0000001000
44
0.0000000001
12
-0.0025468705
22
0.0267409210
32
0.0000000000
13
-0.0000327397
23
0.0266960211
33
0.0000000000
40
0.0000000000
40
0.0000000000
40
0.0000000000
40
0.0000000000
40
1.0000000000
40
1.0000000000
40
1.0000000000
40
1.0000000000
10
-5.3049169230
20
19.5921330115
30
0.0000000000
10
-5.3057658798
20
19.6010466519
30
0.0000000000
10
-5.3062014927
20
19.6099744450
30
0.0000000000
10
-5.3062124059
20
19.6188731187
30
0.0000000000
11
-5.3049169230
21
19.5921330115
31
0.0000000000
11
-5.3062124059
21
19.6188731187
31
0.0000000000
0
SPLINE
5
3C7
100
AcDbEntity
8
0
100
AcDbSpline
62
0
6
CONTINUOUS
70
0
71
3
72
9
73
5
74
3
42
0.0000001000
43
0.0000001000
44
0.0000000001
12
-0.2588284623
22
0.0000000000
32
0.0000000000
13
-0.1682104368
23
0.2004866365
33
0.0000000000
40
0.0000000000
40
0.0000000000
40
0.0000000000
40
0.0000000000
40
0.5999568547
40
1.0000000000
40
1.0000000000
40
1.0000000000
40
1.0000000000
10
-5.0166960703
20
18.3894380957
30
0.0000000000
10
-5.0684580404
20
18.3894380957
30
0.0000000000
10
-5.1563910142
20
18.4128767250
30
0.0000000000
10
-5.2240997951
20
18.4698425265
30
0.0000000000
10
-5.2465302726
20
18.4965769614
30
0.0000000000
11
-5.0166960703
21
18.3894380957
31
0.0000000000
11
-5.1666903588
21
18.4296304745
31
0.0000000000
11
-5.2465302726
21
18.4965769614
31
0.0000000000
0
SPLINE
5
3C8
100
AcDbEntity
8
0
100
AcDbSpline
62
0
6
CONTINUOUS
70
0
71
3
72
9
73
5
74
3
42
0.0000001000
43
0.0000001000
44
0.0000000001
12
-0.1007234916
22
0.1200503039
32
0.0000000000
13
-0.0275529456
23
0.1541972305
33
0.0000000000
40
0.0000000000
40
0.0000000000
40
0.0000000000
40
0.0000000000
40
0.3338767931
40
1.0000000000
40
1.0000000000
40
1.0000000000
40
1.0000000000
10
-5.2465302726
20
18.4965769614
30
0.0000000000
10
-5.2577400180
20
18.5099376315
30
0.0000000000
10
-5.2878316463
20
18.5529059316
30
0.0000000000
10
-5.3059023963
20
18.6031246198
30
0.0000000000
10
-5.3120202818
20
18.6373627377
30
0.0000000000
11
-5.2465302726
21
18.4965769614
31
0.0000000000
11
-5.2764937988
21
18.5394380957
31
0.0000000000
11
-5.3120202818
21
18.6373627377
31
0.0000000000
0
SPLINE
5
3C9
100
AcDbEntity
8
0
100
AcDbSpline
62
0
6
CONTINUOUS
70
0
71
3
72
8
73
4
74
2
42
0.0000001000
43
0.0000001000
44
0.0000000001
12
-0.0046138457
22
0.0258209135
32
0.0000000000
13
-0.0023414663
23
0.0260031960
33
0.0000000000
40
0.0000000000
40
0.0000000000
40
0.0000000000
40
0.0000000000
40
1.0000000000
40
1.0000000000
40
1.0000000000
40
1.0000000000
10
-5.3120202818
20
18.6373627377
30
0.0000000000
10
-5.3135582304
20
18.6459697088
30
0.0000000000
10
-5.3147221002
20
18.6546263690
30
0.0000000000
10
-5.3155025889
20
18.6632941010
30
0.0000000000
11
-5.3120202818
21
18.6373627377
31
0.0000000000
11
-5.3155025889
21
18.6632941010
31
0.0000000000
0
SPLINE
5
3CA
100
AcDbEntity
8
0
100
AcDbSpline
62
0
6
CONTINUOUS
70
0
71
3
72
8
73
4
74
2
42
0.0000001000
43
0.0000001000
44
0.0000000001
12
-0.0023546563
22
0.0261496775
32
0.0000000000
13
0.0000000000
23
0.0260990382
33
0.0000000000
40
0.0000000000
40
0.0000000000
40
0.0000000000
40
0.0000000000
40
1.0000000000
40
1.0000000000
40
1.0000000000
40
1.0000000000
10
-5.3155025889
20
18.6632941010
30
0.0000000000
10
-5.3162874744
20
18.6720106602
30
0.0000000000
10
-5.3166846472
20
18.6807384163
30
0.0000000000
10
-5.3166846472
20
18.6894380957
30
0.0000000000
11
-5.3155025889
21
18.6632941010
31
0.0000000000
11
-5.3166846472
21
18.6894380957
31
0.0000000000
0
SPLINE
5
3CB
100
AcDbEntity
8
0
100
AcDbSpline
62
0
6
CONTINUOUS
70
0
71
3
72
10
73
6
74
4
42
0.0000001000
43
0.0000001000
44
0.0000000001
12
-0.0005365532
22
-0.4375069623
32
0.0000000000
13
-0.4383143187
23
-0.0393041685
33
0.0000000000
40
0.0000000000
40
0.0000000000
40
0.0000000000
40
0.0000000000
40
0.3515661539
40
0.7047300360
40
1.0000000000
40
1.0000000000
40
1.0000000000
40
1.0000000000
10
5.4492348752
20
19.6188731187
30
0.0000000000
10
5.4491719972
20
19.5676022387
30
0.0000000000
10
5.4207848864
20
19.4628897617
30
0.0000000000
10
5.3125017357
20
19.3559832602
30
0.0000000000
10
5.2183612090
20
19.3268458629
30
0.0000000000
10
5.1752208580
20
19.3229774161
30
0.0000000000
11
5.4492348752
21
19.6188731187
31
0.0000000000
11
5.4089226878
21
19.4704369662
31
0.0000000000
11
5.2991355102
21
19.3617140901
31
0.0000000000
11
5.1752208580
21
19.3229774161
31
0.0000000000
0
SPLINE
5
3CC
100
AcDbEntity
8
0
100
AcDbSpline
62
0
6
CONTINUOUS
70
0
71
3
72
8
73
4
74
2
42
0.0000001000
43
0.0000001000
44
0.0000000001
12
-0.0259795242
22
-0.0023296150
32
0.0000000000
13
-0.0259316717
23
-0.0000311887
33
0.0000000000
40
0.0000000000
40
0.0000000000
40
0.0000000000
40
0.0000000000
40
1.0000000000
40
1.0000000000
40
1.0000000000
40
1.0000000000
10
5.1752208580
20
19.3229774161
30
0.0000000000
10
5.1665610166
20
19.3222008778
30
0.0000000000
10
5.1578901888
20
19.3218030943
30
0.0000000000
10
5.1492462983
20
19.3217926980
30
0.0000000000
11
5.1752208580
21
19.3229774161
31
0.0000000000
11
5.1492462983
21
19.3217926980
31
0.0000000000
0
SPLINE
5
3CD
100
AcDbEntity
8
0
100
AcDbSpline
62
0
6
CONTINUOUS
70
0
71
3
72
10
73
6
74
4
42
0.0000001000
43
0.0000001000
44
0.0000000001
12
0.0000000000
22
-0.4397634092
32
0.0000000000
13
-0.4406164218
23
-0.0396848911
33
0.0000000000
40
0.0000000000
40
0.0000000000
40
0.0000000000
40
0.0000000000
40
0.3531240384
40
0.7062422545
40
1.0000000000
40
1.0000000000
40
1.0000000000
40
1.0000000000
10
5.4597071165
20
18.6894380957
30
0.0000000000
10
5.4597071165
20
18.6376744187
30
0.0000000000
10
5.4315848865
20
18.5321599227
30
0.0000000000
10
5.3234138162
20
18.4239834375
30
0.0000000000
10
5.2290103331
20
18.3945064871
30
0.0000000000
10
5.1858655042
20
18.3906205723
30
0.0000000000
11
5.4597071165
21
18.6894380957
31
0.0000000000
11
5.4195162681
21
18.5394380957
31
0.0000000000
11
5.3097128281
21
18.4296304745
31
0.0000000000
11
5.1858655042
21
18.3906205723
31
0.0000000000
0
SPLINE
5
3CE
100
AcDbEntity
8
0
100
AcDbSpline
62
0
6
CONTINUOUS
70
0
71
3
72
8
73
4
74
2
42
0.0000001000
43
0.0000001000
44
0.0000000001
12
-0.0261526328
22
-0.0023554828
32
0.0000000000
13
-0.0261020025
23
0.0000000000
33
0.0000000000
40
0.0000000000
40
0.0000000000
40
0.0000000000
40
0.0000000000
40
1.0000000000
40
1.0000000000
40
1.0000000000
40
1.0000000000
10
5.1858655042
20
18.3906205723
30
0.0000000000
10
5.1771479599
20
18.3898354114
30
0.0000000000
10
5.1684192071
20
18.3894380957
30
0.0000000000
10
5.1597185396
20
18.3894380957
30
0.0000000000
11
5.1858655042
21
18.3906205723
31
0.0000000000
11
5.1597185396
21
18.3894380957
31
0.0000000000
0
SPLINE
5
3CF
100
AcDbEntity
8
0
100
AcDbSpline
62
0
6
CONTINUOUS
70
0
71
3
72
9
73
5
74
3
42
0.0000001000
43
0.0000001000
44
0.0000000001
12
-0.3096260021
22
0.0003723951
32
0.0000000000
13
-0.1575456116
23
0.2713195887
33
0.0000000000
40
0.0000000000
40
0.0000000000
40
0.0000000000
40
0.0000000000
40
0.5009732366
40
1.0000000000
40
1.0000000000
40
1.0000000000
40
1.0000000000
10
4.9937761710
20
19.3217926980
30
0.0000000000
10
4.9420713909
20
19.3218548847
30
0.0000000000
10
4.8369388327
20
19.3496467571
30
0.0000000000
10
4.7603062737
20
19.4253050541
30
0.0000000000
10
4.7340997815
20
19.4704369662
30
0.0000000000
11
4.9937761710
21
19.3217926980
31
0.0000000000
11
4.8438869590
21
19.3617140901
31
0.0000000000
11
4.7340997815
21
19.4704369662
31
0.0000000000
0
SPLINE
5
3D0
100
AcDbEntity
8
0
100
AcDbSpline
62
0
6
CONTINUOUS
70
0
71
3
72
8
73
4
74
2
42
0.0000001000
43
0.0000001000
44
0.0000000001
12
-0.0576624142
22
0.0993042100
32
0.0000000000
13
-0.0162119180
23
0.1131818109
33
0.0000000000
40
0.0000000000
40
0.0000000000
40
0.0000000000
40
0.0000000000
40
1.0000000000
40
1.0000000000
40
1.0000000000
40
1.0000000000
10
4.7340997815
20
19.4704369662
30
0.0000000000
10
4.7148789768
20
19.5035383695
30
0.0000000000
10
4.7021322640
20
19.5406077542
30
0.0000000000
10
4.6967282913
20
19.5783350245
30
0.0000000000
11
4.7340997815
21
19.4704369662
31
0.0000000000
11
4.6967282913
21
19.5783350245
31
0.0000000000
0
SPLINE
5
3D1
100
AcDbEntity
8
0
100
AcDbSpline
62
0
6
CONTINUOUS
70
0
71
3
72
8
73
4
74
2
42
0.0000001000
43
0.0000001000
44
0.0000000001
12
-0.0057921258
22
0.0404371211
32
0.0000000000
13
-0.0000496541
23
0.0404881109
33
0.0000000000
40
0.0000000000
40
0.0000000000
40
0.0000000000
40
0.0000000000
40
1.0000000000
40
1.0000000000
40
1.0000000000
40
1.0000000000
10
4.6967282913
20
19.5783350245
30
0.0000000000
10
4.6947975827
20
19.5918140649
30
0.0000000000
10
4.6938041455
20
19.6053770817
30
0.0000000000
10
4.6937875941
20
19.6188731187
30
0.0000000000
11
4.6967282913
21
19.5783350245
31
0.0000000000
11
4.6937875941
21
19.6188731187
31
0.0000000000
0
SPLINE
5
3D2
100
AcDbEntity
8
0
100
AcDbSpline
62
0
6
CONTINUOUS
70
0
71
3
72
10
73
6
74
4
42
0.0000001000
43
0.0000001000
44
0.0000000001
12
-0.0935594899
22
-0.1769971526
32
0.0000000000
13
-0.2002033221
23
0.0000001408
33
0.0000000000
40
0.0000000000
40
0.0000000000
40
0.0000000000
40
0.0000000000
40
0.1404425094
40
0.5054232647
40
1.0000000000
40
1.0000000000
40
1.0000000000
40
1.0000000000
10
9.8728291912
20
-19.7988198262
30
0.0000000000
10
9.8684492814
20
-19.8071058010
30
0.0000000000
10
9.8239308189
20
-19.7955056276
30
0.0000000000
10
9.7664258651
20
-19.8089558643
30
0.0000000000
10
9.7058649540
20
-19.8054216630
30
0.0000000000
10
9.6728596522
20
-19.8054216398
30
0.0000000000
11
9.8728291912
21
-19.7988198262
31
0.0000000000
11
9.8449017435
21
-19.8020796664
31
0.0000000000
11
9.7718711849
21
-19.8044910930
31
0.0000000000
11
9.6728596522
21
-19.8054216398
31
0.0000000000
0
SPLINE
5
3D3
100
AcDbEntity
8
0
100
AcDbSpline
62
0
6
CONTINUOUS
70
0
71
3
72
9
73
5
74
3
42
0.0000001000
43
0.0000001000
44
0.0000000001
12
-0.1715790311
22
0.2226553340
32
0.0000000000
13
-0.1571222304
23
0.2331254868
33
0.0000000000
40
0.0000000000
40
0.0000000000
40
0.0000000000
40
0.0000000000
40
0.7493529556
40
1.0000000000
40
1.0000000000
40
1.0000000000
40
1.0000000000
10
-5.5342726271
20
-15.8570465342
30
0.0000000000
10
-5.5771303785
20
-15.8014307233
30
0.0000000000
10
-5.6325557886
20
-15.7258338547
30
0.0000000000
10
-5.6855480894
20
-15.6485402149
30
0.0000000000
10
-5.6986754970
20
-15.6290628101
30
0.0000000000
11
-5.5342726271
21
-15.8570465342
31
0.0000000000
11
-5.6588305048
21
-15.6871804618
31
0.0000000000
11
-5.6986754970
21
-15.6290628101
31
0.0000000000
0
SPLINE
5
3D4
100
AcDbEntity
8
0
100
AcDbSpline
62
0
6
CONTINUOUS
70
0
71
3
72
8
73
4
74
2
42
0.0000001000
43
0.0000001000
44
0.0000000001
12
-0.0394686966
22
0.0585605174
32
0.0000000000
13
-0.0385285358
23
0.0591792562
33
0.0000000000
40
0.0000000000
40
0.0000000000
40
0.0000000000
40
0.0000000000
40
1.0000000000
40
1.0000000000
40
1.0000000000
40
1.0000000000
10
-5.6986754970
20
-15.6290628101
30
0.0000000000
10
-5.7118317292
20
-15.6095426377
30
0.0000000000
10
-5.7248323241
20
-15.5899180257
30
0.0000000000
10
-5.7376751694
20
-15.5701916070
30
0.0000000000
11
-5.6986754970
21
-15.6290628101
31
0.0000000000
11
-5.7376751694
21
-15.5701916070
31
0.0000000000
0
SPLINE
5
3D5
100
AcDbEntity
8
0
100
AcDbSpline
62
0
6
CONTINUOUS
70
0
71
3
72
8
73
4
74
2
42
0.0000001000
43
0.0000001000
44
0.0000000001
12
-0.0386236981
22
0.0593254241
32
0.0000000000
13
-0.0376661348
23
0.0599313289
33
0.0000000000
40
0.0000000000
40
0.0000000000
40
0.0000000000
40
0.0000000000
40
1.0000000000
40
1.0000000000
40
1.0000000000
40
1.0000000000
10
-5.7376751694
20
-15.5701916070
30
0.0000000000
10
-5.7505497354
20
-15.5504164656
30
0.0000000000
10
-5.7632657716
20
-15.5305390139
30
0.0000000000
10
-5.7758211499
20
-15.5105619043
30
0.0000000000
11
-5.7376751694
21
-15.5701916070
31
0.0000000000
11
-5.7758211499
21
-15.5105619043
31
0.0000000000
0
SPLINE
5
3D6
100
AcDbEntity
8
0
100
AcDbSpline
62
0
6
CONTINUOUS
70
0
71
3
72
10
73
6
74
4
42
0.0000001000
43
0.0000001000
44
0.0000000001
12
0.3602846892
22
-0.0000000000
32
0.0000000000
13
0.1272396737
23
0.3370684244
33
0.0000000000
40
0.0000000000
40
0.0000000000
40
0.0000000000
40
0.0000000000
40
0.3326568453
40
0.6656365789
40
1.0000000000
40
1.0000000000
40
1.0000000000
40
1.0000000000
10
6.5829280244
20
-15.0756411348
30
0.0000000000
10
6.6228784137
20
-15.0756411348
30
0.0000000000
10
6.7037503086
20
-15.0592016531
30
0.0000000000
10
6.8051016850
20
-14.9892889922
30
0.0000000000
10
6.8492440181
20
-14.9192764055
30
0.0000000000
10
6.8634254489
20
-14.8817086216
30
0.0000000000
11
6.5829280244
21
-15.0756411348
31
0.0000000000
11
6.7003621527
21
-15.0516926899
31
0.0000000000
11
6.7991123239
21
-14.9835707060
31
0.0000000000
11
6.8634254489
21
-14.8817086216
31
0.0000000000
0
SPLINE
5
3D7
100
AcDbEntity
8
0
100
AcDbSpline
62
0
6
CONTINUOUS
70
0
71
3
72
10
73
6
74
4
42
0.0000001000
43
0.0000001000
44
0.0000000001
12
-0.1272396737
22
0.3370684244
32
0.0000000000
13
-0.3602846892
23
-0.0000000000
33
0.0000000000
40
0.0000000000
40
0.0000000000
40
0.0000000000
40
0.0000000000
40
0.3326568410
40
0.6656365743
40
1.0000000000
40
1.0000000000
40
1.0000000000
40
1.0000000000
10
6.8634254489
20
-11.3394151870
30
0.0000000000
10
6.8493163996
20
-11.3020391479
30
0.0000000000
10
6.8053751940
20
-11.2321843680
30
0.0000000000
10
6.7041739292
20
-11.1620545910
30
0.0000000000
10
6.6230833653
20
-11.1454826738
30
0.0000000000
10
6.5829280244
20
-11.1454826738
30
0.0000000000
11
6.8634254489
21
-11.3394151870
31
0.0000000000
11
6.7995466745
21
-11.2380060932
31
0.0000000000
11
6.7009393503
21
-11.1696775003
31
0.0000000000
11
6.5829280244
21
-11.1454826738
31
0.0000000000
0
SPLINE
5
3D8
100
AcDbEntity
8
0
100
AcDbSpline
62
0
6
CONTINUOUS
70
0
71
3
72
10
73
6
74
4
42
0.0000001000
43
0.0000001000
44
0.0000000001
12
0.1272396737
22
-0.3370684244
32
0.0000000000
13
0.3602846892
23
0.0000000000
33
0.0000000000
40
0.0000000000
40
0.0000000000
40
0.0000000000
40
0.0000000000
40
0.3326568410
40
0.6656365743
40
1.0000000000
40
1.0000000000
40
1.0000000000
40
1.0000000000
10
-6.7204029796
20
-14.8817086216
30
0.0000000000
10
-6.7062939303
20
-14.9190846607
30
0.0000000000
10
-6.6623527248
20
-14.9889394407
30
0.0000000000
10
-6.5611514599
20
-15.0590692177
30
0.0000000000
10
-6.4800608961
20
-15.0756411348
30
0.0000000000
10
-6.4399055551
20
-15.0756411348
30
0.0000000000
11
-6.7204029796
21
-14.8817086216
31
0.0000000000
11
-6.6565242052
21
-14.9831177154
31
0.0000000000
11
-6.5579168810
21
-15.0514463083
31
0.0000000000
11
-6.4399055551
21
-15.0756411348
31
0.0000000000
0
SPLINE
5
3D9
100
AcDbEntity
8
0
100
AcDbSpline
62
0
6
CONTINUOUS
70
0
71
3
72
10
73
6
74
4
42
0.0000001000
43
0.0000001000
44
0.0000000001
12
-0.3602846892
22
0.0000000000
32
0.0000000000
13
-0.1272396737
23
-0.3370684244
33
0.0000000000
40
0.0000000000
40
0.0000000000
40
0.0000000000
40
0.0000000000
40
0.3326568453
40
0.6656365789
40
1.0000000000
40
1.0000000000
40
1.0000000000
40
1.0000000000
10
-6.4399055551
20
-11.1454826738
30
0.0000000000
10
-6.4798559445
20
-11.1454826738
30
0.0000000000
10
-6.5607278394
20
-11.1619221556
30
0.0000000000
10
-6.6620792157
20
-11.2318348164
30
0.0000000000
10
-6.7062215488
20
-11.3018474032
30
0.0000000000
10
-6.7204029796
20
-11.3394151870
30
0.0000000000
11
-6.4399055551
21
-11.1454826738
31
0.0000000000
11
-6.5573396834
21
-11.1694311188
31
0.0000000000
11
-6.6560898547
21
-11.2375531027
31
0.0000000000
11
-6.7204029796
21
-11.3394151870
31
0.0000000000
0
SPLINE
5
3DA
100
AcDbEntity
8
0
100
AcDbSpline
62
9
6
CONTINUOUS
70
0
71
3
72
8
73
4
74
2
42
0.0000001000
43
0.0000001000
44
0.0000000001
12
0.0019347555
22
0.0043185261
32
0.0000000000
13
0.0019300536
23
0.0043206219
33
0.0000000000
40
0.0000000000
40
0.0000000000
40
0.0000000000
40
0.0000000000
40
1.0000000000
40
1.0000000000
40
1.0000000000
40
1.0000000000
10
6.1413163270
20
-15.0889640444
30
0.0000000000
10
6.1419612455
20
-15.0875245357
30
0.0000000000
10
6.1426053806
20
-15.0860846771
30
0.0000000000
10
6.1432487318
20
-15.0846444698
30
0.0000000000
11
6.1413163270
21
-15.0889640444
31
0.0000000000
11
6.1432487318
21
-15.0846444698
31
0.0000000000
0
SPLINE
5
3DB
100
AcDbEntity
8
0
100
AcDbSpline
62
0
6
CONTINUOUS
70
0
71
3
72
9
73
5
74
3
42
0.0000001000
43
0.0000001000
44
0.0000000001
12
-0.2426364285
22
-0.0090545155
32
0.0000000000
13
-0.2426407411
23
-0.0089382039
33
0.0000000000
40
0.0000000000
40
0.0000000000
40
0.0000000000
40
0.0000000000
40
0.5029630138
40
1.0000000000
40
1.0000000000
40
1.0000000000
40
1.0000000000
10
6.3858870624
20
-15.0756411348
30
0.0000000000
10
6.3452080126
20
-15.0771591636
30
0.0000000000
10
6.2643291768
20
-15.0801766576
30
0.0000000000
10
6.1834492061
20
-15.0831635972
30
0.0000000000
10
6.1432487318
20
-15.0846444698
30
0.0000000000
11
6.3858870624
21
-15.0756411348
31
0.0000000000
11
6.2638495995
21
-15.0801868100
31
0.0000000000
11
6.1432487318
21
-15.0846444698
31
0.0000000000
0
SPLINE
5
3DC
100
AcDbEntity
8
0
100
AcDbSpline
62
9
6
CONTINUOUS
70
0
71
3
72
9
73
5
74
3
42
0.0000001000
43
0.0000001000
44
0.0000000001
12
-0.0240336825
22
0.0349512379
32
0.0000000000
13
-0.0242343111
23
0.0348127356
33
0.0000000000
40
0.0000000000
40
0.0000000000
40
0.0000000000
40
0.0000000000
40
0.6661360037
40
1.0000000000
40
1.0000000000
40
1.0000000000
40
1.0000000000
10
6.6070061097
20
-15.1105619043
30
0.0000000000
10
6.6016695426
20
-15.1028011450
30
0.0000000000
10
6.5936584124
20
-15.0911506283
30
0.0000000000
10
6.5856026851
20
-15.0795309173
30
0.0000000000
10
6.5829056971
20
-15.0756566776
30
0.0000000000
11
6.6070061097
21
-15.1105619043
31
0.0000000000
11
6.5909767487
21
-15.0872931573
31
0.0000000000
11
6.5829056971
21
-15.0756566776
31
0.0000000000
0
SPLINE
5
3DD
100
AcDbEntity
8
0
100
AcDbSpline
62
9
6
CONTINUOUS
70
0
71
3
72
8
73
4
74
2
42
0.0000001000
43
0.0000001000
44
0.0000000001
12
-0.0019347555
22
0.0043185261
32
0.0000000000
13
-0.0019300536
23
0.0043206219
33
0.0000000000
40
0.0000000000
40
0.0000000000
40
0.0000000000
40
0.0000000000
40
1.0000000000
40
1.0000000000
40
1.0000000000
40
1.0000000000
10
-5.9982938577
20
-15.0889640444
30
0.0000000000
10
-5.9989387762
20
-15.0875245357
30
0.0000000000
10
-5.9995829114
20
-15.0860846771
30
0.0000000000
10
-6.0002262626
20
-15.0846444698
30
0.0000000000
11
-5.9982938577
21
-15.0889640444
31
0.0000000000
11
-6.0002262626
21
-15.0846444698
31
0.0000000000
0
SPLINE
5
3DE
100
AcDbEntity
8
0
100
AcDbSpline
62
9
6
CONTINUOUS
70
0
71
3
72
9
73
5
74
3
42
0.0000001000
43
0.0000001000
44
0.0000000001
12
0.0240336825
22
0.0349512379
32
0.0000000000
13
0.0242343111
23
0.0348127356
33
0.0000000000
40
0.0000000000
40
0.0000000000
40
0.0000000000
40
0.0000000000
40
0.6661360037
40
1.0000000000
40
1.0000000000
40
1.0000000000
40
1.0000000000
10
-6.4639836404
20
-15.1105619043
30
0.0000000000
10
-6.4586470733
20
-15.1028011450
30
0.0000000000
10
-6.4506359432
20
-15.0911506283
30
0.0000000000
10
-6.4425802158
20
-15.0795309173
30
0.0000000000
10
-6.4398832278
20
-15.0756566776
30
0.0000000000
11
-6.4639836404
21
-15.1105619043
31
0.0000000000
11
-6.4479542794
21
-15.0872931573
31
0.0000000000
11
-6.4398832278
21
-15.0756566776
31
0.0000000000
0
SPLINE
5
3DF
100
AcDbEntity
8
0
100
AcDbSpline
62
0
6
CONTINUOUS
70
0
71
3
72
9
73
5
74
3
42
0.0000001000
43
0.0000001000
44
0.0000000001
12
-0.2018888897
22
0.0074370200
32
0.0000000000
13
-0.2018854963
23
0.0075285964
33
0.0000000000
40
0.0000000000
40
0.0000000000
40
0.0000000000
40
0.0000000000
40
0.5981471374
40
1.0000000000
40
1.0000000000
40
1.0000000000
40
1.0000000000
10
-6.0002262626
20
-15.0846444698
30
0.0000000000
10
-6.0404793497
20
-15.0831616591
30
0.0000000000
10
-6.1077754162
20
-15.0806763750
30
0.0000000000
10
-6.1750706967
20
-15.0781699291
30
0.0000000000
10
-6.2021134516
20
-15.0771614664
30
0.0000000000
11
-6.0002262626
21
-15.0846444698
31
0.0000000000
11
-6.1209849676
21
-15.0801809567
31
0.0000000000
11
-6.2021134516
21
-15.0771614664
31
0.0000000000
0
SPLINE
5
3E0
100
AcDbEntity
8
0
100
AcDbSpline
62
0
6
CONTINUOUS
70
0
71
3
72
8
73
4
74
2
42
0.0000001000
43
0.0000001000
44
0.0000000001
12
-0.0407511664
22
0.0015196688
32
0.0000000000
13
-0.0407511270
23
0.0015207185
33
0.0000000000
40
0.0000000000
40
0.0000000000
40
0.0000000000
40
0.0000000000
40
1.0000000000
40
1.0000000000
40
1.0000000000
40
1.0000000000
10
-6.2021134516
20
-15.0771614664
30
0.0000000000
10
-6.2156971737
20
-15.0766549102
30
0.0000000000
10
-6.2292808841
20
-15.0761480410
30
0.0000000000
10
-6.2428645931
20
-15.0756411348
30
0.0000000000
11
-6.2021134516
21
-15.0771614664
31
0.0000000000
11
-6.2428645931
21
-15.0756411348
31
0.0000000000
0
SPLINE
5
3E1
100
AcDbEntity
8
0
100
AcDbSpline
62
0
6
CONTINUOUS
70
0
71
3
72
9
73
5
74
3
42
0.0000001000
43
0.0000001000
44
0.0000000001
12
0.2426364285
22
0.0090545155
32
0.0000000000
13
0.2426407411
23
0.0089382039
33
0.0000000000
40
0.0000000000
40
0.0000000000
40
0.0000000000
40
0.0000000000
40
0.5028621667
40
1.0000000000
40
1.0000000000
40
1.0000000000
40
1.0000000000
10
-6.2428645931
20
-11.1454826738
30
0.0000000000
10
-6.2021936998
20
-11.1439649494
30
0.0000000000
10
-6.1213148640
20
-11.1409474525
30
0.0000000000
10
-6.0404348933
20
-11.1379605119
30
0.0000000000
10
-6.0002262626
20
-11.1364793388
30
0.0000000000
11
-6.2428645931
21
-11.1454826738
31
0.0000000000
11
-6.1208515996
21
-11.1409379061
31
0.0000000000
11
-6.0002262626
21
-11.1364793388
31
0.0000000000
0
SPLINE
5
3E2
100
AcDbEntity
8
0
100
AcDbSpline
62
9
6
CONTINUOUS
70
0
71
3
72
9
73
5
74
3
42
0.0000001000
43
0.0000001000
44
0.0000000001
12
0.0240336825
22
-0.0349512379
32
0.0000000000
13
0.0242343111
23
-0.0348127356
33
0.0000000000
40
0.0000000000
40
0.0000000000
40
0.0000000000
40
0.0000000000
40
0.6661360037
40
1.0000000000
40
1.0000000000
40
1.0000000000
40
1.0000000000
10
-6.4639836404
20
-11.1105619043
30
0.0000000000
10
-6.4586470733
20
-11.1183226636
30
0.0000000000
10
-6.4506359432
20
-11.1299731804
30
0.0000000000
10
-6.4425802158
20
-11.1415928914
30
0.0000000000
10
-6.4398832278
20
-11.1454671311
30
0.0000000000
11
-6.4639836404
21
-11.1105619043
31
0.0000000000
11
-6.4479542794
21
-11.1338306513
31
0.0000000000
11
-6.4398832278
21
-11.1454671311
31
0.0000000000
0
SPLINE
5
3E3
100
AcDbEntity
8
0
100
AcDbSpline
62
9
6
CONTINUOUS
70
0
71
3
72
9
73
5
74
3
42
0.0000001000
43
0.0000001000
44
0.0000000001
12
-0.0240336825
22
-0.0349512379
32
0.0000000000
13
-0.0242343111
23
-0.0348127356
33
0.0000000000
40
0.0000000000
40
0.0000000000
40
0.0000000000
40
0.0000000000
40
0.6661360037
40
1.0000000000
40
1.0000000000
40
1.0000000000
40
1.0000000000
10
6.6070061097
20
-11.1105619043
30
0.0000000000
10
6.6016695426
20
-11.1183226636
30
0.0000000000
10
6.5936584124
20
-11.1299731804
30
0.0000000000
10
6.5856026851
20
-11.1415928914
30
0.0000000000
10
6.5829056971
20
-11.1454671311
30
0.0000000000
11
6.6070061097
21
-11.1105619043
31
0.0000000000
11
6.5909767487
21
-11.1338306513
31
0.0000000000
11
6.5829056971
21
-11.1454671311
31
0.0000000000
0
SPLINE
5
3E4
100
AcDbEntity
8
0
100
AcDbSpline
62
0
6
CONTINUOUS
70
0
71
3
72
9
73
5
74
3
42
0.0000001000
43
0.0000001000
44
0.0000000001
12
0.2018351326
22
-0.0074350398
32
0.0000000000
13
0.2018317409
23
-0.0075265683
33
0.0000000000
40
0.0000000000
40
0.0000000000
40
0.0000000000
40
0.0000000000
40
0.5978270337
40
1.0000000000
40
1.0000000000
40
1.0000000000
40
1.0000000000
10
6.1432487318
20
-11.1364793388
30
0.0000000000
10
6.1834695647
20
-11.1379609614
30
0.0000000000
10
6.2507477123
20
-11.1404455806
30
0.0000000000
10
6.3180250746
20
-11.1429513448
30
0.0000000000
10
6.3450821645
20
-11.1439603389
30
0.0000000000
11
6.1432487318
21
-11.1364793388
31
0.0000000000
11
6.2639106749
21
-11.1409392636
31
0.0000000000
11
6.3450821645
21
-11.1439603389
31
0.0000000000
0
SPLINE
5
3E5
100
AcDbEntity
8
0
100
AcDbSpline
62
0
6
CONTINUOUS
70
0
71
3
72
8
73
4
74
2
42
0.0000001000
43
0.0000001000
44
0.0000000001
12
0.0408049228
22
-0.0015216687
32
0.0000000000
13
0.0408048832
23
-0.0015227246
33
0.0000000000
40
0.0000000000
40
0.0000000000
40
0.0000000000
40
0.0000000000
40
1.0000000000
40
1.0000000000
40
1.0000000000
40
1.0000000000
10
6.3450821645
20
-11.1439603389
30
0.0000000000
10
6.3586838055
20
-11.1444675618
30
0.0000000000
10
6.3722854347
20
-11.1449750990
30
0.0000000000
10
6.3858870624
20
-11.1454826738
30
0.0000000000
11
6.3450821645
21
-11.1439603389
31
0.0000000000
11
6.3858870624
21
-11.1454826738
31
0.0000000000
0
SPLINE
5
3E6
100
AcDbEntity
8
0
100
AcDbSpline
62
9
6
CONTINUOUS
70
0
71
3
72
10
73
6
74
4
42
0.0000001000
43
0.0000001000
44
0.0000000001
12
-0.0000945766
22
0.3105082439
32
0.0000000000
13
-0.3105082439
23
0.0000945766
33
0.0000000000
40
0.0000000000
40
0.0000000000
40
0.0000000000
40
0.0000000000
40
0.3333248773
40
0.6666751224
40
1.0000000000
40
1.0000000000
40
1.0000000000
40
1.0000000000
10
9.8745442344
20
19.9425015564
30
0.0000000000
10
9.8745337262
20
19.9770015972
30
0.0000000000
10
9.8557703520
20
20.0473216419
30
0.0000000000
10
9.7793947809
20
20.1236972130
30
0.0000000000
10
9.7090747362
20
20.1424605872
30
0.0000000000
10
9.6745746954
20
20.1424710955
30
0.0000000000
11
9.8745442344
21
19.9425015564
31
0.0000000000
11
9.8477330980
21
20.0424687474
31
0.0000000000
11
9.7745418864
21
20.1156599590
31
0.0000000000
11
9.6745746954
21
20.1424710955
31
0.0000000000
0
SPLINE
5
3E7
100
AcDbEntity
8
0
100
AcDbSpline
62
0
6
CONTINUOUS
70
0
71
3
72
10
73
6
74
4
42
0.0000001000
43
0.0000001000
44
0.0000000001
12
0.2741695677
22
0.0000000000
32
0.0000000000
13
0.0510244190
23
-0.2724620213
33
0.0000000000
40
0.0000000000
40
0.0000000000
40
0.0000000000
40
0.0000000000
40
0.3775703482
40
0.7550849595
40
1.0000000000
40
1.0000000000
40
1.0000000000
40
1.0000000000
10
9.7715416956
20
20.2394380957
30
0.0000000000
10
9.8060477953
20
20.2394380957
30
0.0000000000
10
9.8763812213
20
20.2206960471
30
0.0000000000
10
9.9438226388
20
20.1532546869
30
0.0000000000
10
9.9639326071
20
20.0980884739
30
0.0000000000
10
9.9680981563
20
20.0758451249
30
0.0000000000
11
9.7715416956
21
20.2394380957
31
0.0000000000
11
9.8715333401
21
20.2126479988
31
0.0000000000
11
9.9447210558
21
20.1394603431
31
0.0000000000
11
9.9680981563
21
20.0758451249
31
0.0000000000
0
SPLINE
5
3E8
100
AcDbEntity
8
0
100
AcDbSpline
62
0
6
CONTINUOUS
70
0
71
3
72
8
73
4
74
2
42
0.0000001000
43
0.0000001000
44
0.0000000001
12
0.0067686895
22
-0.0361436906
32
0.0000000000
13
0.0000000000
23
-0.0363702067
33
0.0000000000
40
0.0000000000
40
0.0000000000
40
0.0000000000
40
0.0000000000
40
1.0000000000
40
1.0000000000
40
1.0000000000
40
1.0000000000
10
9.9680981563
20
20.0758451249
30
0.0000000000
10
9.9703543862
20
20.0637972281
30
0.0000000000
10
9.9715112346
20
20.0515919589
30
0.0000000000
10
9.9715112346
20
20.0394685566
30
0.0000000000
11
9.9680981563
21
20.0758451249
31
0.0000000000
11
9.9715112346
21
20.0394685566
31
0.0000000000
0
SPLINE
5
3E9
100
AcDbEntity
8
0
100
AcDbSpline
62
0
6
CONTINUOUS
70
0
71
3
72
10
73
6
74
4
42
0.0000001000
43
0.0000001000
44
0.0000000001
12
-0.0935603079
22
0.1769965796
32
0.0000000000
13
-0.2002031978
23
-0.0000001616
33
0.0000000000
40
0.0000000000
40
0.0000000000
40
0.0000000000
40
0.0000000000
40
0.1404388933
40
0.5054282272
40
1.0000000000
40
1.0000000000
40
1.0000000000
40
1.0000000000
10
9.8728291912
20
19.5776960176
30
0.0000000000
10
9.8684493558
20
19.5859817522
30
0.0000000000
10
9.8239303577
20
19.5743791251
30
0.0000000000
10
9.7664257667
20
19.5878311974
30
0.0000000000
10
9.7058646023
20
19.5842978578
30
0.0000000000
10
9.6728596522
20
19.5842978312
30
0.0000000000
11
9.8728291912
21
19.5776960176
31
0.0000000000
11
9.8449023489
21
19.5809546484
31
0.0000000000
11
9.7718701190
21
19.5833661274
31
0.0000000000
11
9.6728596522
21
19.5842978312
31
0.0000000000
0
SPLINE
5
3EA
100
AcDbEntity
8
0
100
AcDbSpline
62
0
6
CONTINUOUS
70
0
71
3
72
10
73
6
74
4
42
0.0000001000
43
0.0000001000
44
0.0000000001
12
0.0935603073
22
0.1769965789
32
0.0000000000
13
0.2002031969
23
-0.0000001616
33
0.0000000000
40
0.0000000000
40
0.0000000000
40
0.0000000000
40
0.0000000000
40
0.1404419789
40
0.5054229655
40
1.0000000000
40
1.0000000000
40
1.0000000000
40
1.0000000000
10
-9.7298067219
20
19.5776960176
30
0.0000000000
10
-9.7254267904
20
19.5859819342
30
0.0000000000
10
-9.6809081777
20
19.5743792651
30
0.0000000000
10
-9.6234034455
20
19.5878312173
30
0.0000000000
10
-9.5628424840
20
19.5842978578
30
0.0000000000
10
-9.5298371829
20
19.5842978312
30
0.0000000000
11
-9.7298067219
21
19.5776960176
31
0.0000000000
11
-9.7018792618
21
19.5809546834
31
0.0000000000
11
-9.6288487025
21
19.5833661072
31
0.0000000000
11
-9.5298371829
21
19.5842978312
31
0.0000000000
0
SPLINE
5
3EB
100
AcDbEntity
8
0
100
AcDbSpline
62
9
6
CONTINUOUS
70
0
71
3
72
10
73
6
74
4
42
0.0000001000
43
0.0000001000
44
0.0000000001
12
-0.0000945766
22
-0.3105082439
32
0.0000000000
13
-0.3105082439
23
-0.0000945766
33
0.0000000000
40
0.0000000000
40
0.0000000000
40
0.0000000000
40
0.0000000000
40
0.3333247438
40
0.6666749967
40
1.0000000000
40
1.0000000000
40
1.0000000000
40
1.0000000000
10
9.8745442344
20
-20.1636253651
30
0.0000000000
10
9.8745337262
20
-20.1981253920
30
0.0000000000
10
9.8557703640
20
-20.2684454222
30
0.0000000000
10
9.7793948092
20
-20.3448210101
30
0.0000000000
10
9.7090747492
20
-20.3635843959
30
0.0000000000
10
9.6745746954
20
-20.3635949041
30
0.0000000000
11
9.8745442344
21
-20.1636253651
31
0.0000000000
11
9.8477331194
21
-20.2635925189
31
0.0000000000
11
9.7745419214
21
-20.3367837474
31
0.0000000000
11
9.6745746954
21
-20.3635949041
31
0.0000000000
0
SPLINE
5
3EC
100
AcDbEntity
8
0
100
AcDbSpline
62
9
6
CONTINUOUS
70
0
71
3
72
10
73
6
74
4
42
0.0000001000
43
0.0000001000
44
0.0000000001
12
0.0000945766
22
0.3105082439
32
0.0000000000
13
0.3105082439
23
0.0000945766
33
0.0000000000
40
0.0000000000
40
0.0000000000
40
0.0000000000
40
0.0000000000
40
0.3333248798
40
0.6666751249
40
1.0000000000
40
1.0000000000
40
1.0000000000
40
1.0000000000
10
-9.7315217651
20
19.9425015564
30
0.0000000000
10
-9.7315112569
20
19.9770015975
30
0.0000000000
10
-9.7127478825
20
20.0473216425
30
0.0000000000
10
-9.6363723111
20
20.1236972133
30
0.0000000000
10
-9.5660522667
20
20.1424605872
30
0.0000000000
10
-9.5315522261
20
20.1424710955
30
0.0000000000
11
-9.7315217651
21
19.9425015564
31
0.0000000000
11
-9.7047106283
21
20.0424687481
31
0.0000000000
11
-9.6315194165
21
20.1156599594
31
0.0000000000
11
-9.5315522261
21
20.1424710955
31
0.0000000000
0
SPLINE
5
3ED
100
AcDbEntity
8
0
100
AcDbSpline
62
0
6
CONTINUOUS
70
0
71
3
72
10
73
6
74
4
42
0.0000001000
43
0.0000001000
44
0.0000000001
12
0.0000000000
22
0.3105397744
32
0.0000000000
13
0.3105397744
23
0.0000000000
33
0.0000000000
40
0.0000000000
40
0.0000000000
40
0.0000000000
40
0.0000000000
40
0.3333500763
40
0.6666504336
40
1.0000000000
40
1.0000000000
40
1.0000000000
40
1.0000000000
10
-9.8284887654
20
20.0394685566
30
0.0000000000
10
-9.8284887654
20
20.0739747091
30
0.0000000000
10
-9.8097466705
20
20.1443081936
30
0.0000000000
10
-9.7333587520
20
20.2206960471
30
0.0000000000
10
-9.6630253260
20
20.2394380957
30
0.0000000000
10
-9.6285192263
20
20.2394380957
30
0.0000000000
11
-9.8284887654
21
20.0394685566
31
0.0000000000
11
-9.8016985866
21
20.1394603431
31
0.0000000000
11
-9.7285108708
21
20.2126479988
31
0.0000000000
11
-9.6285192263
21
20.2394380957
31
0.0000000000
0
SPLINE
5
3EE
100
AcDbEntity
8
0
100
AcDbSpline
62
0
6
CONTINUOUS
70
0
71
3
72
10
73
6
74
4
42
0.0000001000
43
0.0000001000
44
0.0000000001
12
0.0000000000
22
-0.3105397744
32
0.0000000000
13
-0.3105397744
23
0.0000000000
33
0.0000000000
40
0.0000000000
40
0.0000000000
40
0.0000000000
40
0.0000000000
40
0.3333500763
40
0.6666504336
40
1.0000000000
40
1.0000000000
40
1.0000000000
40
1.0000000000
10
9.9715112346
20
-20.2605923653
30
0.0000000000
10
9.9715112346
20
-20.2950985178
30
0.0000000000
10
9.9527691398
20
-20.3654320023
30
0.0000000000
10
9.8763812213
20
-20.4418198558
30
0.0000000000
10
9.8060477953
20
-20.4605619043
30
0.0000000000
10
9.7715416956
20
-20.4605619043
30
0.0000000000
11
9.9715112346
21
-20.2605923653
31
0.0000000000
11
9.9447210558
21
-20.3605841517
31
0.0000000000
11
9.8715333401
21
-20.4337718075
31
0.0000000000
11
9.7715416956
21
-20.4605619043
31
0.0000000000
0
SPLINE
5
3EF
100
AcDbEntity
8
0
100
AcDbSpline
62
0
6
CONTINUOUS
70
0
71
3
72
10
73
6
74
4
42
0.0000001000
43
0.0000001000
44
0.0000000001
12
0.0935594905
22
-0.1769971533
32
0.0000000000
13
0.2002033230
23
0.0000001408
33
0.0000000000
40
0.0000000000
40
0.0000000000
40
0.0000000000
40
0.0000000000
40
0.1404394153
40
0.5054285409
40
1.0000000000
40
1.0000000000
40
1.0000000000
40
1.0000000000
10
-9.7298067219
20
-19.7988198262
30
0.0000000000
10
-9.7254269086
20
-19.8071056185
30
0.0000000000
10
-9.6809080596
20
-19.7955054873
30
0.0000000000
10
-9.6234032473
20
-19.8089558444
30
0.0000000000
10
-9.5628421328
20
-19.8054216630
30
0.0000000000
10
-9.5298371829
20
-19.8054216398
30
0.0000000000
11
-9.7298067219
21
-19.7988198262
31
0.0000000000
11
-9.7018798937
21
-19.8020796313
31
0.0000000000
11
-9.6288476599
21
-19.8044911132
31
0.0000000000
11
-9.5298371829
21
-19.8054216398
31
0.0000000000
0
SPLINE
5
3F0
100
AcDbEntity
8
0
100
AcDbSpline
62
9
6
CONTINUOUS
70
0
71
3
72
10
73
6
74
4
42
0.0000001000
43
0.0000001000
44
0.0000000001
12
0.0000945766
22
-0.3105082439
32
0.0000000000
13
0.3105082439
23
-0.0000945766
33
0.0000000000
40
0.0000000000
40
0.0000000000
40
0.0000000000
40
0.0000000000
40
0.3333248774
40
0.6666751226
40
1.0000000000
40
1.0000000000
40
1.0000000000
40
1.0000000000
10
-9.7315217651
20
-20.1636253651
30
0.0000000000
10
-9.7315112569
20
-20.1981254058
30
0.0000000000
10
-9.7127478827
20
-20.2684454506
30
0.0000000000
10
-9.6363723116
20
-20.3448210217
30
0.0000000000
10
-9.5660522669
20
-20.3635843959
30
0.0000000000
10
-9.5315522261
20
-20.3635949041
30
0.0000000000
11
-9.7315217651
21
-20.1636253651
31
0.0000000000
11
-9.7047106287
21
-20.2635925561
31
0.0000000000
11
-9.6315194171
21
-20.3367837676
31
0.0000000000
11
-9.5315522261
21
-20.3635949041
31
0.0000000000
0
SPLINE
5
3F1
100
AcDbEntity
8
0
100
AcDbSpline
62
0
6
CONTINUOUS
70
0
71
3
72
10
73
6
74
4
42
0.0000001000
43
0.0000001000
44
0.0000000001
12
-0.2741695677
22
0.0000000000
32
0.0000000000
13
-0.0510244190
23
0.2724620213
33
0.0000000000
40
0.0000000000
40
0.0000000000
40
0.0000000000
40
0.0000000000
40
0.3775703482
40
0.7550849595
40
1.0000000000
40
1.0000000000
40
1.0000000000
40
1.0000000000
10
-9.6285192263
20
-20.4605619043
30
0.0000000000
10
-9.6630253260
20
-20.4605619043
30
0.0000000000
10
-9.7333587520
20
-20.4418198558
30
0.0000000000
10
-9.8008001695
20
-20.3743784956
30
0.0000000000
10
-9.8209101379
20
-20.3192122826
30
0.0000000000
10
-9.8250756871
20
-20.2969689336
30
0.0000000000
11
-9.6285192263
21
-20.4605619043
31
0.0000000000
11
-9.7285108708
21
-20.4337718075
31
0.0000000000
11
-9.8016985866
21
-20.3605841517
31
0.0000000000
11
-9.8250756871
21
-20.2969689336
31
0.0000000000
0
SPLINE
5
3F2
100
AcDbEntity
8
0
100
AcDbSpline
62
0
6
CONTINUOUS
70
0
71
3
72
8
73
4
74
2
42
0.0000001000
43
0.0000001000
44
0.0000000001
12
-0.0067686895
22
0.0361436906
32
0.0000000000
13
0.0000000000
23
0.0363702067
33
0.0000000000
40
0.0000000000
40
0.0000000000
40
0.0000000000
40
0.0000000000
40
1.0000000000
40
1.0000000000
40
1.0000000000
40
1.0000000000
10
-9.8250756871
20
-20.2969689336
30
0.0000000000
10
-9.8273319169
20
-20.2849210367
30
0.0000000000
10
-9.8284887654
20
-20.2727157675
30
0.0000000000
10
-9.8284887654
20
-20.2605923653
30
0.0000000000
11
-9.8250756871
21
-20.2969689336
31
0.0000000000
11
-9.8284887654
21
-20.2605923653
31
0.0000000000
0
SPLINE
5
3F3
100
AcDbEntity
8
0
100
AcDbSpline
62
9
6
CONTINUOUS
70
0
71
3
72
13
73
9
74
7
42
0.0000001000
43
0.0000001000
44
0.0000000001
12
-0.0000002463
22
0.2999605109
32
0.0000000000
13
0.0954109358
23
0.2843818936
33
0.0000000000
40
0.0000000000
40
0.0000000000
40
0.0000000000
40
0.0000000000
40
0.1657964109
40
0.3442973830
40
0.5288350145
40
0.7058246692
40
0.8562072513
40
1.0000000000
40
1.0000000000
40
1.0000000000
40
1.0000000000
10
9.6728596545
20
19.8425214881
30
0.0000000000
10
9.6728596408
20
19.8590989468
30
0.0000000000
10
9.6728892943
20
19.8935217413
30
0.0000000000
10
9.6729059551
20
19.9464099240
30
0.0000000000
10
9.6732961675
20
20.0003611245
30
0.0000000000
10
9.6726994709
20
20.0516967287
30
0.0000000000
10
9.6755981694
20
20.0983318459
30
0.0000000000
10
9.6700015618
20
20.1288404107
30
0.0000000000
10
9.6745746954
20
20.1424710955
30
0.0000000000
11
9.6728596545
21
19.8425214881
31
0.0000000000
11
9.6728838391
21
19.8922538584
31
0.0000000000
11
9.6729664180
21
19.9457970375
31
0.0000000000
11
9.6731237615
21
20.0011508161
31
0.0000000000
11
9.6733686790
21
20.0542401584
31
0.0000000000
11
9.6737032185
21
20.0993477540
31
0.0000000000
11
9.6745746954
21
20.1424710955
31
0.0000000000
0
SPLINE
5
3F4
100
AcDbEntity
8
0
100
AcDbSpline
62
9
6
CONTINUOUS
70
0
71
3
72
12
73
8
74
6
42
0.0000001000
43
0.0000001000
44
0.0000000001
12
0.0945377513
22
-0.2846653306
32
0.0000000000
13
-0.0000006435
23
-0.2999528911
33
0.0000000000
40
0.0000000000
40
0.0000000000
40
0.0000000000
40
0.0000000000
40
0.1752215306
40
0.3242607681
40
0.5187349349
40
0.7489634834
40
1.0000000000
40
1.0000000000
40
1.0000000000
40
1.0000000000
10
-9.5315522284
20
20.1424711022
30
0.0000000000
10
-9.5260305452
20
20.1258446039
30
0.0000000000
10
-9.5324807639
20
20.0921963849
30
0.0000000000
10
-9.5296165282
20
20.0407900316
30
0.0000000000
10
-9.5302506072
20
19.9832693032
30
0.0000000000
10
-9.5297957003
20
19.9157611234
30
0.0000000000
10
-9.5298371378
20
19.8676283472
30
0.0000000000
10
-9.5298371917
20
19.8425286376
30
0.0000000000
11
-9.5315522284
21
20.1424711022
31
0.0000000000
11
-9.5305952960
21
20.0899216097
31
0.0000000000
11
-9.5302959075
21
20.0452178621
31
0.0000000000
11
-9.5300527278
21
19.9868852804
31
0.0000000000
11
-9.5298933354
21
19.9178277456
31
0.0000000000
11
-9.5298371917
21
19.8425286376
31
0.0000000000
0
SPLINE
5
3F5
100
AcDbEntity
8
0
100
AcDbSpline
62
9
6
CONTINUOUS
70
0
71
3
72
9
73
5
74
3
42
0.0000001000
43
0.0000001000
44
0.0000000001
12
0.1468705224
22
0.0201855055
32
0.0000000000
13
0.0114188618
23
0.1478107390
33
0.0000000000
40
0.0000000000
40
0.0000000000
40
0.0000000000
40
0.0000000000
40
0.4861579297
40
1.0000000000
40
1.0000000000
40
1.0000000000
40
1.0000000000
10
3.5690555645
20
-20.3627176019
30
0.0000000000
10
3.5928563209
20
-20.3594464874
30
0.0000000000
10
3.5887334565
20
-20.2839210016
30
0.0000000000
10
3.5984306428
20
-20.2440221529
30
0.0000000000
10
3.6003864733
20
-20.2187050275
30
0.0000000000
11
3.5690555645
21
-20.3627176019
31
0.0000000000
11
3.5921139570
21
-20.2944321988
31
0.0000000000
11
3.6003864733
21
-20.2187050275
31
0.0000000000
0
SPLINE
5
3F6
100
AcDbEntity
8
0
100
AcDbSpline
62
9
6
CONTINUOUS
70
0
71
3
72
9
73
5
74
3
42
0.0000001000
43
0.0000001000
44
0.0000000001
12
-0.1468950503
22
0.0205945447
32
0.0000000000
13
-0.0114239789
23
0.1478911214
33
0.0000000000
40
0.0000000000
40
0.0000000000
40
0.0000000000
40
0.0000000000
40
0.4862860815
40
1.0000000000
40
1.0000000000
40
1.0000000000
40
1.0000000000
10
-3.4260330814
20
-20.3627992050
30
0.0000000000
10
-3.4498440875
20
-20.3594609249
30
0.0000000000
10
-3.4457034546
20
-20.2839809437
30
0.0000000000
10
-3.4554072866
20
-20.2440271238
30
0.0000000000
10
-3.4573635056
20
-20.2187025480
30
0.0000000000
11
-3.4260330814
21
-20.3627992050
31
0.0000000000
11
-3.4490908813
21
-20.2944522152
31
0.0000000000
11
-3.4573635056
21
-20.2187025480
31
0.0000000000
0
SPLINE
5
3F7
100
AcDbEntity
8
0
100
AcDbSpline
62
9
6
CONTINUOUS
70
0
71
3
72
13
73
9
74
7
42
0.0000001000
43
0.0000001000
44
0.0000000001
12
-0.0000000160
22
-0.2999655167
32
0.0000000000
13
-0.0949482455
23
-0.2845419862
33
0.0000000000
40
0.0000000000
40
0.0000000000
40
0.0000000000
40
0.0000000000
40
0.1755344721
40
0.3628645451
40
0.5512498476
40
0.7254443984
40
0.8682066335
40
1.0000000000
40
1.0000000000
40
1.0000000000
40
1.0000000000
10
-9.5298371828
20
-20.0636402920
30
0.0000000000
10
-9.5298371837
20
-20.0811917215
30
0.0000000000
10
-9.5298701984
20
-20.1174713133
30
0.0000000000
10
-9.5298890439
20
-20.1726027340
30
0.0000000000
10
-9.5303035879
20
-20.2275404582
30
0.0000000000
10
-9.5297146995
20
-20.2782205649
30
0.0000000000
10
-9.5324880096
20
-20.3226381058
30
0.0000000000
10
-9.5273809760
20
-20.3510944512
30
0.0000000000
10
-9.5315521590
20
-20.3635946999
30
0.0000000000
11
-9.5298371828
21
-20.0636402920
31
0.0000000000
11
-9.5298643024
21
-20.1162945737
31
0.0000000000
11
-9.5299562248
21
-20.1724870606
31
0.0000000000
11
-9.5301264390
21
-20.2289958989
31
0.0000000000
11
-9.5303812800
21
-20.2812476359
31
0.0000000000
11
-9.5307162204
21
-20.3240700736
31
0.0000000000
11
-9.5315521590
21
-20.3635946999
31
0.0000000000
0
SPLINE
5
3F8
100
AcDbEntity
8
0
100
AcDbSpline
62
9
6
CONTINUOUS
70
0
71
3
72
12
73
8
74
6
42
0.0000001000
43
0.0000001000
44
0.0000000001
12
-0.0949437716
22
0.2845428797
32
0.0000000000
13
0.0000002949
23
0.2999649482
33
0.0000000000
40
0.0000000000
40
0.0000000000
40
0.0000000000
40
0.0000000000
40
0.1603703071
40
0.3037018166
40
0.4979767162
40
0.7354621346
40
1.0000000000
40
1.0000000000
40
1.0000000000
40
1.0000000000
10
9.6745746954
20
-20.3635949041
30
0.0000000000
10
9.6694993081
20
-20.3483841611
30
0.0000000000
10
9.6754631470
20
-20.3168690830
30
0.0000000000
10
9.6726517184
20
-20.2675299752
30
0.0000000000
10
9.6733061406
20
-20.2098646282
30
0.0000000000
10
9.6728125847
20
-20.1403032849
30
0.0000000000
10
9.6728596262
20
-20.0900912913
30
0.0000000000
10
9.6728596522
20
-20.0636405956
30
0.0000000000
11
9.6745746954
21
-20.3635949041
31
0.0000000000
11
9.6736566912
21
-20.3154981932
31
0.0000000000
11
9.6733521261
21
-20.2725048432
31
0.0000000000
11
9.6730955321
21
-20.2142297479
31
0.0000000000
11
9.6729219199
21
-20.1429926582
31
0.0000000000
11
9.6728596522
21
-20.0636405956
31
0.0000000000
0
SPLINE
5
3F9
100
AcDbEntity
8
0
100
AcDbSpline
62
0
6
CONTINUOUS
70
0
71
3
72
9
73
5
74
3
42
0.0000001000
43
0.0000001000
44
0.0000000001
12
-0.2334753857
22
0.0000000000
32
0.0000000000
13
-0.1663155729
23
0.1657258968
33
0.0000000000
40
0.0000000000
40
0.0000000000
40
0.0000000000
40
0.0000000000
40
0.5014211041
40
1.0000000000
40
1.0000000000
40
1.0000000000
40
1.0000000000
10
4.9708546137
20
18.3894380957
30
0.0000000000
10
4.9318314518
20
18.3894380957
30
0.0000000000
10
4.8531505490
20
18.4050110426
30
0.0000000000
10
4.7868347265
20
18.4493321946
30
0.0000000000
10
4.7591942483
20
18.4768746729
30
0.0000000000
11
4.9708546137
21
18.3894380957
31
0.0000000000
11
4.8560357886
21
18.4122832677
31
0.0000000000
11
4.7591942483
21
18.4768746729
31
0.0000000000
0
SPLINE
5
3FA
100
AcDbEntity
8
0
100
AcDbSpline
62
0
6
CONTINUOUS
70
0
71
3
72
9
73
5
74
3
42
0.0000001000
43
0.0000001000
44
0.0000000001
12
-0.1390478725
22
0.1385548748
32
0.0000000000
13
-0.0259093627
23
0.1946549068
33
0.0000000000
40
0.0000000000
40
0.0000000000
40
0.0000000000
40
0.0000000000
40
0.5989768377
40
1.0000000000
40
1.0000000000
40
1.0000000000
40
1.0000000000
10
4.7591942483
20
18.4768746729
30
0.0000000000
10
4.7314320966
20
18.5045383931
30
0.0000000000
10
4.6942167854
20
18.5598938721
30
0.0000000000
10
4.6770902167
20
18.6239345214
30
0.0000000000
10
4.6736267985
20
18.6499548968
30
0.0000000000
11
4.7591942483
21
18.4768746729
31
0.0000000000
11
4.6940571812
21
18.5739676994
31
0.0000000000
11
4.6736267985
21
18.6499548968
31
0.0000000000
0
SPLINE
5
3FB
100
AcDbEntity
8
0
100
AcDbSpline
62
0
6
CONTINUOUS
70
0
71
3
72
10
73
6
74
4
42
0.0000001000
43
0.0000001000
44
0.0000000001
12
0.2000361656
22
-0.0000000018
32
0.0000000000
13
0.1415661040
23
0.1413276538
33
0.0000000000
40
0.0000000000
40
0.0000000000
40
0.0000000000
40
0.0000000000
40
0.4939061932
40
0.8585863064
40
1.0000000000
40
1.0000000000
40
1.0000000000
40
1.0000000000
10
9.6646174476
20
-10.4188020311
30
0.0000000000
10
9.6975504813
20
-10.4188020314
30
0.0000000000
10
9.7565770354
20
-10.4221754999
30
0.0000000000
10
9.8181257034
20
-10.4108400410
30
0.0000000000
10
9.8579159495
20
-10.4220338196
30
0.0000000000
10
9.8645890780
20
-10.4153719311
30
0.0000000000
11
9.6646174476
21
-10.4188020311
31
0.0000000000
11
9.7634154973
21
-10.4183462444
31
0.0000000000
11
9.8363540650
21
-10.4171001282
31
0.0000000000
11
9.8645890780
21
-10.4153719311
31
0.0000000000
0
SPLINE
5
3FC
100
AcDbEntity
8
0
100
AcDbSpline
62
0
6
CONTINUOUS
70
0
71
3
72
10
73
6
74
4
42
0.0000001000
43
0.0000001000
44
0.0000000001
12
-0.1415446682
22
0.1413542943
32
0.0000000000
13
-0.2000398201
23
-0.0000000014
33
0.0000000000
40
0.0000000000
40
0.0000000000
40
0.0000000000
40
0.0000000000
40
0.1415093173
40
0.5062463800
40
1.0000000000
40
1.0000000000
40
1.0000000000
40
1.0000000000
10
9.8642321942
20
-9.8053949937
30
0.0000000000
10
9.8575555644
20
-9.7987273438
30
0.0000000000
10
9.8177497291
20
-9.8099255780
30
0.0000000000
10
9.7562016649
20
-9.7985891371
30
0.0000000000
10
9.6971805025
20
-9.8019611196
30
0.0000000000
10
9.6642570407
20
-9.8019611198
30
0.0000000000
11
9.8642321942
21
-9.8053949937
31
0.0000000000
11
9.8359776484
21
-9.8036643568
31
0.0000000000
11
9.7630263735
21
-9.8024170980
31
0.0000000000
11
9.6642570407
21
-9.8019611198
31
0.0000000000
0
SPLINE
5
3FD
100
AcDbEntity
8
0
100
AcDbSpline
62
0
6
CONTINUOUS
70
0
71
3
72
10
73
6
74
4
42
0.0000001000
43
0.0000001000
44
0.0000000001
12
-0.2000398201
22
0.0000000014
32
0.0000000000
13
-0.1415446684
23
-0.1413542942
33
0.0000000000
40
0.0000000000
40
0.0000000000
40
0.0000000000
40
0.0000000000
40
0.4937536200
40
0.8584906827
40
1.0000000000
40
1.0000000000
40
1.0000000000
40
1.0000000000
10
-9.5212345714
20
-9.8019611198
30
0.0000000000
10
-9.5541580332
20
-9.8019611196
30
0.0000000000
10
-9.6131791957
20
-9.7985891371
30
0.0000000000
10
-9.6747272599
20
-9.8099255780
30
0.0000000000
10
-9.7145330951
20
-9.7987273438
30
0.0000000000
10
-9.7212097249
20
-9.8053949937
30
0.0000000000
11
-9.5212345714
21
-9.8019611198
31
0.0000000000
11
-9.6200039042
21
-9.8024170980
31
0.0000000000
11
-9.6929551791
21
-9.8036643568
31
0.0000000000
11
-9.7212097249
21
-9.8053949937
31
0.0000000000
0
SPLINE
5
3FE
100
AcDbEntity
8
0
100
AcDbSpline
62
0
6
CONTINUOUS
70
0
71
3
72
10
73
6
74
4
42
0.0000001000
43
0.0000001000
44
0.0000000001
12
0.1415661042
22
-0.1413276537
32
0.0000000000
13
0.2000361656
23
0.0000000018
33
0.0000000000
40
0.0000000000
40
0.0000000000
40
0.0000000000
40
0.0000000000
40
0.1414136936
40
0.5060938068
40
1.0000000000
40
1.0000000000
40
1.0000000000
40
1.0000000000
10
-9.7215666088
20
-10.4153719311
30
0.0000000000
10
-9.7148934802
20
-10.4220338196
30
0.0000000000
10
-9.6751032341
20
-10.4108400410
30
0.0000000000
10
-9.6135545662
20
-10.4221754999
30
0.0000000000
10
-9.5545280120
20
-10.4188020314
30
0.0000000000
10
-9.5215949783
20
-10.4188020311
30
0.0000000000
11
-9.7215666088
21
-10.4153719311
31
0.0000000000
11
-9.6933315957
21
-10.4171001282
31
0.0000000000
11
-9.6203930280
21
-10.4183462444
31
0.0000000000
11
-9.5215949783
21
-10.4188020311
31
0.0000000000
0
SPLINE
5
3FF
100
AcDbEntity
8
0
100
AcDbSpline
62
0
6
CONTINUOUS
70
0
71
3
72
10
73
6
74
4
42
0.0000001000
43
0.0000001000
44
0.0000000001
12
-0.1415935899
22
0.1413058574
32
0.0000000000
13
-0.2000402210
23
-0.0000000022
33
0.0000000000
40
0.0000000000
40
0.0000000000
40
0.0000000000
40
0.0000000000
40
0.1414539305
40
0.5061574823
40
1.0000000000
40
1.0000000000
40
1.0000000000
40
1.0000000000
10
9.8683331704
20
15.1905040301
30
0.0000000000
10
9.8616568471
20
15.1971667864
30
0.0000000000
10
9.8218632273
20
15.1859744587
30
0.0000000000
10
9.7603109497
20
15.1973074641
30
0.0000000000
10
9.7012869895
20
15.1939356365
30
0.0000000000
10
9.6683575340
20
15.1939356361
30
0.0000000000
11
9.8683331704
21
15.1905040301
31
0.0000000000
11
9.8400895769
21
15.1922331789
31
0.0000000000
11
9.7671448485
21
15.1934797458
31
0.0000000000
11
9.6683575340
21
15.1939356361
31
0.0000000000
0
SPLINE
5
400
100
AcDbEntity
8
0
100
AcDbSpline
62
0
6
CONTINUOUS
70
0
71
3
72
10
73
6
74
4
42
0.0000001000
43
0.0000001000
44
0.0000000001
12
0.2000457144
22
-0.0000000019
32
0.0000000000
13
0.1415779482
23
0.1413293050
33
0.0000000000
40
0.0000000000
40
0.0000000000
40
0.0000000000
40
0.0000000000
40
0.4936112202
40
0.8584008113
40
1.0000000000
40
1.0000000000
40
1.0000000000
40
1.0000000000
10
9.6678229602
20
14.5844056051
30
0.0000000000
10
9.7007378966
20
14.5844056048
30
0.0000000000
10
9.7597531284
20
14.5810365503
30
0.0000000000
10
9.8213059814
20
14.5923695666
30
0.0000000000
10
9.8611214524
20
14.5811721791
30
0.0000000000
10
9.8678038932
20
14.5878428841
30
0.0000000000
11
9.6678229602
21
14.5844056051
31
0.0000000000
11
9.7665667156
21
14.5848617934
31
0.0000000000
11
9.8395306329
21
14.5861100722
31
0.0000000000
11
9.8678038932
21
14.5878428841
31
0.0000000000
0
SPLINE
5
401
100
AcDbEntity
8
0
100
AcDbSpline
62
0
6
CONTINUOUS
70
0
71
3
72
8
73
4
74
2
42
0.0000001000
43
0.0000001000
44
0.0000000001
12
-0.0000570413
22
0.0994202789
32
0.0000000000
13
-0.0000573320
23
0.0994202788
33
0.0000000000
40
0.0000000000
40
0.0000000000
40
0.0000000000
40
0.0000000000
40
1.0000000000
40
1.0000000000
40
1.0000000000
40
1.0000000000
10
-4.5284315787
20
19.4848775523
30
0.0000000000
10
-4.5284505925
20
19.5180176453
30
0.0000000000
10
-4.5284696547
20
19.5511577382
30
0.0000000000
10
-4.5284887654
20
19.5842978312
30
0.0000000000
11
-4.5284315787
21
19.4848775523
31
0.0000000000
11
-4.5284887654
21
19.5842978312
31
0.0000000000
0
SPLINE
5
402
100
AcDbEntity
8
0
100
AcDbSpline
62
0
6
CONTINUOUS
70
0
71
3
72
10
73
6
74
4
42
0.0000001000
43
0.0000001000
44
0.0000000001
12
0.1415779476
22
-0.1413293056
32
0.0000000000
13
0.2000457144
23
0.0000000019
33
0.0000000000
40
0.0000000000
40
0.0000000000
40
0.0000000000
40
0.0000000000
40
0.1415991887
40
0.5063887798
40
1.0000000000
40
1.0000000000
40
1.0000000000
40
1.0000000000
10
-9.7247814240
20
14.5878428841
30
0.0000000000
10
-9.7180989831
20
14.5811721791
30
0.0000000000
10
-9.6782835121
20
14.5923695667
30
0.0000000000
10
-9.6167306591
20
14.5810365503
30
0.0000000000
10
-9.5577154273
20
14.5844056048
30
0.0000000000
10
-9.5248004909
20
14.5844056051
30
0.0000000000
11
-9.7247814240
21
14.5878428841
31
0.0000000000
11
-9.6965081636
21
14.5861100722
31
0.0000000000
11
-9.6235442464
21
14.5848617934
31
0.0000000000
11
-9.5248004909
21
14.5844056051
31
0.0000000000
0
SPLINE
5
403
100
AcDbEntity
8
0
100
AcDbSpline
62
0
6
CONTINUOUS
70
0
71
3
72
8
73
4
74
2
42
0.0000001000
43
0.0000001000
44
0.0000000001
12
-0.0000570413
22
0.0994202789
32
0.0000000000
13
-0.0000573320
23
0.0994202788
33
0.0000000000
40
0.0000000000
40
0.0000000000
40
0.0000000000
40
0.0000000000
40
1.0000000000
40
1.0000000000
40
1.0000000000
40
1.0000000000
10
5.4715684213
20
19.4848775523
30
0.0000000000
10
5.4715494075
20
19.5180176453
30
0.0000000000
10
5.4715303453
20
19.5511577382
30
0.0000000000
10
5.4715112346
20
19.5842978312
30
0.0000000000
11
5.4715684213
21
19.4848775523
31
0.0000000000
11
5.4715112346
21
19.5842978312
31
0.0000000000
0
SPLINE
5
404
100
AcDbEntity
8
0
100
AcDbSpline
62
0
6
CONTINUOUS
70
0
71
3
72
13
73
9
74
7
42
0.0000001000
43
0.0000001000
44
0.0000000001
12
-0.9465501270
22
0.0000000000
32
0.0000000000
13
0.9465501270
23
-0.0000000000
33
0.0000000000
40
0.0000000000
40
0.0000000000
40
0.0000000000
40
0.0000000000
40
0.1683728946
40
0.3342930806
40
0.4999949065
40
0.6656917469
40
0.8316143386
40
1.0000000000
40
1.0000000000
40
1.0000000000
40
1.0000000000
10
8.7715112346
20
15.1939356362
30
0.0000000000
10
8.7183867730
20
15.1939356362
30
0.0000000000
10
8.6108343154
20
15.1650239668
30
0.0000000000
10
8.4949959805
20
15.0478070586
30
0.0000000000
10
8.4526284752
20
14.8891774016
30
0.0000000000
10
8.4949896243
20
14.7305458071
30
0.0000000000
10
8.6108250460
20
14.6133210399
30
0.0000000000
10
8.7183827449
20
14.5844056050
30
0.0000000000
10
8.7715112346
20
14.5844056050
30
0.0000000000
11
8.7715112346
21
15.1939356362
31
0.0000000000
11
8.6176819840
21
15.1522650540
31
0.0000000000
11
8.5071059844
21
15.0407383408
31
0.0000000000
11
8.4667436123
21
14.8891756164
31
0.0000000000
11
8.5070985851
21
14.7376158053
31
0.0000000000
11
8.6176711757
21
14.6260825057
31
0.0000000000
11
8.7715112346
21
14.5844056050
31
0.0000000000
0
SPLINE
5
405
100
AcDbEntity
8
0
100
AcDbSpline
62
0
6
CONTINUOUS
70
0
71
3
72
13
73
9
74
7
42
0.0000001000
43
0.0000001000
44
0.0000000001
12
-0.9579033827
22
0.0000000000
32
0.0000000000
13
0.9579033827
23
0.0000000000
33
0.0000000000
40
0.0000000000
40
0.0000000000
40
0.0000000000
40
0.0000000000
40
0.1684222848
40
0.3343404494
40
0.5000034041
40
0.6656696982
40
0.8315862997
40
1.0000000000
40
1.0000000000
40
1.0000000000
40
1.0000000000
10
8.7715112346
20
-9.8019611198
30
0.0000000000
10
8.7177338092
20
-9.8019611198
30
0.0000000000
10
8.6088744596
20
-9.8312333830
30
0.0000000000
10
8.4916639689
20
-9.9498767332
30
0.0000000000
10
8.4488099034
20
-10.1103861642
30
0.0000000000
10
8.4916682728
20
-10.2708942995
30
0.0000000000
10
8.6088807498
20
-10.3895323265
30
0.0000000000
10
8.7177365502
20
-10.4188020311
30
0.0000000000
10
8.7715112346
20
-10.4188020311
30
0.0000000000
11
8.7715112346
21
-9.8019611198
31
0.0000000000
11
8.6157945830
21
-9.8441562356
31
0.0000000000
11
8.5039111972
21
-9.9570366503
31
0.0000000000
11
8.4630880477
21
-10.1103849544
31
0.0000000000
11
8.5039162044
21
-10.2637352359
31
0.0000000000
11
8.6158019374
21
-10.3766112158
31
0.0000000000
11
8.7715112346
21
-10.4188020311
31
0.0000000000
0
SPLINE
5
406
100
AcDbEntity
8
0
100
AcDbSpline
62
0
6
CONTINUOUS
70
0
71
3
72
16
73
12
74
10
42
0.0000001000
43
0.0000001000
44
0.0000000001
12
12.1168517532
22
-7.4891993630
32
0.0000000000
13
-12.4930423318
23
-6.8432519173
33
0.0000000000
40
0.0000000000
40
0.0000000000
40
0.0000000000
40
0.0000000000
40
0.1096104388
40
0.2202439964
40
0.3320433021
40
0.4441924707
40
0.5569501295
40
0.6691855110
40
0.7806422211
40
0.8909604546
40
1.0000000000
40
1.0000000000
40
1.0000000000
40
1.0000000000
10
5.6352209383
20
-7.7678896797
30
0.0000000000
10
6.0779320843
20
-8.0415211559
30
0.0000000000
10
6.9057908429
20
-8.6987893099
30
0.0000000000
10
7.8884414499
20
-9.9490890665
30
0.0000000000
10
8.5623917391
20
-11.4037145558
30
0.0000000000
10
8.8867569698
20
-12.9836838566
30
0.0000000000
10
8.8414130736
20
-14.5981685153
30
0.0000000000
10
8.4294892542
20
-16.1562994898
30
0.0000000000
10
7.6778968784
20
-17.5690551285
30
0.0000000000
10
6.6334214995
20
-18.7602178596
30
0.0000000000
10
5.7755897870
20
-19.3703903419
30
0.0000000000
10
5.3215112346
20
-19.6191187014
30
0.0000000000
11
5.6352209383
21
-7.7678896797
31
0.0000000000
11
6.8583362254
21
-8.7383509548
31
0.0000000000
11
7.8329856403
21
-9.9767316047
31
0.0000000000
11
8.5030306595
21
-11.4214397083
31
0.0000000000
11
8.8247762459
21
-12.9862143159
31
0.0000000000
11
8.7797568576
21
-14.5917614167
31
0.0000000000
11
8.3707653730
21
-16.1373004629
31
0.0000000000
11
7.6245256505
21
-17.5386385811
31
0.0000000000
11
6.5875870410
21
-18.7193797344
31
0.0000000000
11
5.3215112346
21
-19.6191187014
31
0.0000000000
0
SPLINE
5
407
100
AcDbEntity
8
0
100
AcDbSpline
62
0
6
CONTINUOUS
70
0
71
3
72
9
73
5
74
3
42
0.0000001000
43
0.0000001000
44
0.0000000001
12
-2.3706446575
22
1.4652511082
32
0.0000000000
13
-2.3647184590
23
1.4747960915
33
0.0000000000
40
0.0000000000
40
0.0000000000
40
0.0000000000
40
0.0000000000
40
0.5011979925
40
1.0000000000
40
1.0000000000
40
1.0000000000
40
1.0000000000
10
5.6352229550
20
-7.7678909290
30
0.0000000000
10
5.2391688406
20
-7.5230972910
30
0.0000000000
10
4.4494424734
20
-7.0338894228
30
0.0000000000
10
3.6607037743
20
-6.5430907323
30
0.0000000000
10
3.2675283361
20
-6.2978803153
30
0.0000000000
11
5.6352229550
21
-7.7678909290
31
0.0000000000
11
4.4477984025
21
-7.0323176744
31
0.0000000000
11
3.2675283361
21
-6.2978803153
31
0.0000000000
0
SPLINE
5
408
100
AcDbEntity
8
0
100
AcDbSpline
62
0
6
CONTINUOUS
70
0
71
3
72
9
73
5
74
3
42
0.0000001000
43
0.0000001000
44
0.0000000001
12
2.3706446576
22
1.4652511080
32
0.0000000000
13
2.3647184590
23
1.4747960915
33
0.0000000000
40
0.0000000000
40
0.0000000000
40
0.0000000000
40
0.0000000000
40
0.5011979925
40
1.0000000000
40
1.0000000000
40
1.0000000000
40
1.0000000000
10
-5.4922004858
20
-7.7678909290
30
0.0000000000
10
-5.0961463713
20
-7.5230972910
30
0.0000000000
10
-4.3064200041
20
-7.0338894228
30
0.0000000000
10
-3.5176813050
20
-6.5430907323
30
0.0000000000
10
-3.1245058668
20
-6.2978803153
30
0.0000000000
11
-5.4922004858
21
-7.7678909290
31
0.0000000000
11
-4.3047759332
21
-7.0323176744
31
0.0000000000
11
-3.1245058668
21
-6.2978803153
31
0.0000000000
0
SPLINE
5
409
100
AcDbEntity
8
0
100
AcDbSpline
62
0
6
CONTINUOUS
70
0
71
3
72
16
73
12
74
10
42
0.0000001000
43
0.0000001000
44
0.0000000001
12
-12.4930422721
22
6.8432518843
32
0.0000000000
13
12.1168516956
23
7.4891993264
33
0.0000000000
40
0.0000000000
40
0.0000000000
40
0.0000000000
40
0.0000000000
40
0.1090237711
40
0.2193315054
40
0.3307834695
40
0.4430061367
40
0.5557601662
40
0.6679303030
40
0.7797247653
40
0.8903833853
40
1.0000000000
40
1.0000000000
40
1.0000000000
40
1.0000000000
10
-5.1784887654
20
-19.6191186960
30
0.0000000000
10
-5.6325016257
20
-19.3704263203
30
0.0000000000
10
-6.4902382603
20
-18.7603434148
30
0.0000000000
10
-7.5346671614
20
-17.5693408245
30
0.0000000000
10
-8.2862803606
20
-16.1567489879
30
0.0000000000
10
-8.6982974190
20
-14.5987506971
30
0.0000000000
10
-8.7437935512
20
-12.9842495945
30
0.0000000000
10
-8.4195352564
20
-11.4041905570
30
0.0000000000
10
-7.7455906562
20
-9.9493480699
30
0.0000000000
10
-6.7629071349
20
-8.6989037159
30
0.0000000000
10
-5.9349345934
20
-8.0415365946
30
0.0000000000
10
-5.4921985055
20
-7.7678897023
30
0.0000000000
11
-5.1784887654
21
-19.6191186960
31
0.0000000000
11
-6.4443965874
21
-18.7195312562
31
0.0000000000
11
-7.4812888651
21
-17.5389484678
31
0.0000000000
11
-8.2275803504
21
-16.1377145190
31
0.0000000000
11
-8.6366446470
21
-14.5923820945
31
0.0000000000
11
-8.6818131139
21
-12.9868909078
31
0.0000000000
11
-8.3601266558
21
-11.4217992248
31
0.0000000000
11
-7.6901975772
21
-9.9771134103
31
0.0000000000
11
-6.7153762899
21
-8.7384137333
31
0.0000000000
11
-5.4921985055
21
-7.7678897023
31
0.0000000000
0
SPLINE
5
40A
100
AcDbEntity
8
0
100
AcDbSpline
62
0
6
CONTINUOUS
70
0
71
3
72
13
73
9
74
7
42
0.0000001000
43
0.0000001000
44
0.0000000001
12
0.9579033827
22
0.0000000000
32
0.0000000000
13
-0.9579033827
23
0.0000000000
33
0.0000000000
40
0.0000000000
40
0.0000000000
40
0.0000000000
40
0.0000000000
40
0.1684137652
40
0.3343304228
40
0.4999967029
40
0.6656596814
40
0.8315777856
40
1.0000000000
40
1.0000000000
40
1.0000000000
40
1.0000000000
10
-8.6284887654
20
-10.4188020311
30
0.0000000000
10
-8.5747140602
20
-10.4188020311
30
0.0000000000
10
-8.4658582187
20
-10.3895323037
30
0.0000000000
10
-8.3486457490
20
-10.2708942117
30
0.0000000000
10
-8.3057874332
20
-10.1103860413
30
0.0000000000
10
-8.3486415567
20
-9.9498766401
30
0.0000000000
10
-8.4658520573
20
-9.8312333583
30
0.0000000000
10
-8.5747113624
20
-9.8019611198
30
0.0000000000
10
-8.6284887654
20
-9.8019611198
30
0.0000000000
11
-8.6284887654
21
-10.4188020311
31
0.0000000000
11
-8.4727794125
21
-10.3766111833
31
0.0000000000
11
-8.3608936755
21
-10.2637351318
31
0.0000000000
11
-8.3200655784
21
-10.1103848483
31
0.0000000000
11
-8.3608887924
21
-9.9570365376
31
0.0000000000
11
-8.4727721741
21
-9.8441562003
31
0.0000000000
11
-8.6284887654
21
-9.8019611198
31
0.0000000000
0
SPLINE
5
40B
100
AcDbEntity
8
0
100
AcDbSpline
62
0
6
CONTINUOUS
70
0
71
3
72
13
73
9
74
7
42
0.0000001000
43
0.0000001000
44
0.0000000001
12
0.9465501270
22
0.0000000000
32
0.0000000000
13
-0.9465501270
23
-0.0000000000
33
0.0000000000
40
0.0000000000
40
0.0000000000
40
0.0000000000
40
0.0000000000
40
0.1683855649
40
0.3343080720
40
0.5000049335
40
0.6657067239
40
0.8316270007
40
1.0000000000
40
1.0000000000
40
1.0000000000
40
1.0000000000
10
-8.6284887654
20
14.5844056050
30
0.0000000000
10
-8.5753603061
20
14.5844056050
30
0.0000000000
10
-8.4678026679
20
14.6133210062
30
0.0000000000
10
-8.3519672356
20
14.7305456774
30
0.0000000000
10
-8.3096060072
20
14.8891772200
30
0.0000000000
10
-8.3519734271
20
15.0478069214
30
0.0000000000
10
-8.4678117476
20
15.1650239304
30
0.0000000000
10
-8.5753642708
20
15.1939356362
30
0.0000000000
10
-8.6284887654
20
15.1939356362
30
0.0000000000
11
-8.6284887654
21
14.5844056050
31
0.0000000000
11
-8.4746487881
21
14.6260824580
31
0.0000000000
11
-8.3640762041
21
14.7376156513
31
0.0000000000
11
-8.3237211430
21
14.8891754596
31
0.0000000000
11
-8.3640834199
21
15.0407381746
31
0.0000000000
11
-8.4746594261
21
15.1522650022
31
0.0000000000
11
-8.6284887654
21
15.1939356362
31
0.0000000000
0
SPLINE
5
40C
100
AcDbEntity
8
0
100
AcDbSpline
62
9
6
CONTINUOUS
70
0
71
3
72
9
73
5
74
3
42
0.0000001000
43
0.0000001000
44
0.0000000001
12
0.0707129781
22
-0.0707234489
32
0.0000000000
13
-0.0000001149
23
-0.1000106569
33
0.0000000000
40
0.0000000000
40
0.0000000000
40
0.0000000000
40
0.0000000000
40
0.3245603422
40
1.0000000000
40
1.0000000000
40
1.0000000000
40
1.0000000000
10
-9.7315217651
20
19.9425015564
30
0.0000000000
10
-9.7238715557
20
19.9348502142
30
0.0000000000
10
-9.7370282055
20
19.8950971588
30
0.0000000000
10
-9.7298066961
20
19.8650338415
30
0.0000000000
10
-9.7298067219
20
19.8425167869
30
0.0000000000
11
-9.7315217651
21
19.9425015564
31
0.0000000000
11
-9.7302651858
21
19.9100663950
31
0.0000000000
11
-9.7298067219
21
19.8425167869
31
0.0000000000
0
SPLINE
5
40D
100
AcDbEntity
8
0
100
AcDbSpline
62
9
6
CONTINUOUS
70
0
71
3
72
9
73
5
74
3
42
0.0000001000
43
0.0000001000
44
0.0000000001
12
-0.0039304971
22
4.3871925397
32
0.0000000000
13
-0.0050618704
23
4.3871913802
33
0.0000000000
40
0.0000000000
40
0.0000000000
40
0.0000000000
40
0.0000000000
40
0.5000409325
40
1.0000000000
40
1.0000000000
40
1.0000000000
40
1.0000000000
10
-9.7253107011
20
15.1905040301
30
0.0000000000
10
-9.7259658376
20
15.9217626462
30
0.0000000000
10
-9.7273703512
20
17.3841600764
30
0.0000000000
10
-9.7289631459
20
18.8465573137
30
0.0000000000
10
-9.7298067219
20
19.5776960176
30
0.0000000000
11
-9.7253107011
21
15.1905040301
31
0.0000000000
11
-9.7274175442
21
17.3842797472
31
0.0000000000
11
-9.7298067219
21
19.5776960176
31
0.0000000000
0
SPLINE
5
40E
100
AcDbEntity
8
0
100
AcDbSpline
62
9
6
CONTINUOUS
70
0
71
3
72
10
73
6
74
4
42
0.0000001000
43
0.0000001000
44
0.0000000001
12
0.0138367900
22
24.3932360553
32
0.0000000000
13
-0.0209910981
23
24.3932309479
33
0.0000000000
40
0.0000000000
40
0.0000000000
40
0.0000000000
40
0.0000000000
40
0.3333816775
40
0.6667805794
40
1.0000000000
40
1.0000000000
40
1.0000000000
40
1.0000000000
10
-9.7212097249
20
-9.8053949937
30
0.0000000000
10
-9.7196720809
20
-7.0946423417
30
0.0000000000
10
-9.7178878080
20
-1.6729961605
30
0.0000000000
10
-9.7190779944
20
6.4580840212
30
0.0000000000
10
-9.7224498768
20
11.8784101233
30
0.0000000000
10
-9.7247814240
20
14.5878428841
30
0.0000000000
11
-9.7212097249
21
-9.8053949937
31
0.0000000000
11
-9.7185322873
21
-1.6731361701
31
0.0000000000
11
-9.7197231758
21
6.4595431661
31
0.0000000000
11
-9.7247814240
21
14.5878428841
31
0.0000000000
0
SPLINE
5
40F
100
AcDbEntity
8
0
100
AcDbSpline
62
9
6
CONTINUOUS
70
0
71
3
72
9
73
5
74
3
42
0.0000001000
43
0.0000001000
44
0.0000000001
12
0.0108264765
22
9.3834453564
32
0.0000000000
13
0.0056579316
23
9.3834498963
33
0.0000000000
40
0.0000000000
40
0.0000000000
40
0.0000000000
40
0.0000000000
40
0.4999133897
40
1.0000000000
40
1.0000000000
40
1.0000000000
40
1.0000000000
10
-9.7298067219
20
-19.7988198262
30
0.0000000000
10
-9.7280026217
20
-18.2351831677
30
0.0000000000
10
-9.7248257150
20
-15.1073675358
30
0.0000000000
10
-9.7225097607
20
-11.9795511482
30
0.0000000000
10
-9.7215666088
20
-10.4153719311
30
0.0000000000
11
-9.7298067219
21
-19.7988198262
31
0.0000000000
11
-9.7250414289
21
-15.1079091488
31
0.0000000000
11
-9.7215666088
21
-10.4153719311
31
0.0000000000
0
SPLINE
5
410
100
AcDbEntity
8
0
100
AcDbSpline
62
9
6
CONTINUOUS
70
0
71
3
72
9
73
5
74
3
42
0.0000001000
43
0.0000001000
44
0.0000000001
12
-0.0000000035
22
-0.1000049608
32
0.0000000000
13
-0.0708473023
23
-0.0705808185
33
0.0000000000
40
0.0000000000
40
0.0000000000
40
0.0000000000
40
0.0000000000
40
0.3630547288
40
1.0000000000
40
1.0000000000
40
1.0000000000
40
1.0000000000
10
-9.7298067219
20
-20.0636405956
30
0.0000000000
10
-9.7298067224
20
-20.0757430202
30
0.0000000000
10
-9.7338624009
20
-20.1073029101
30
0.0000000000
10
-9.7164798138
20
-20.1486399922
30
0.0000000000
10
-9.7315217651
20
-20.1636253651
30
0.0000000000
11
-9.7298067219
21
-20.0636405956
31
0.0000000000
11
-9.7299258382
21
-20.0999476741
31
0.0000000000
11
-9.7315217651
21
-20.1636253651
31
0.0000000000
0
SPLINE
5
411
100
AcDbEntity
8
0
100
AcDbSpline
62
9
6
CONTINUOUS
70
0
71
3
72
9
73
5
74
3
42
0.0000001000
43
0.0000001000
44
0.0000000001
12
-0.0050618704
22
-4.3871913802
32
0.0000000000
13
-0.0039304971
23
-4.3871925397
33
0.0000000000
40
0.0000000000
40
0.0000000000
40
0.0000000000
40
0.0000000000
40
0.4999590675
40
1.0000000000
40
1.0000000000
40
1.0000000000
40
1.0000000000
10
9.8728291912
20
19.5776960176
30
0.0000000000
10
9.8719856152
20
18.8465573137
30
0.0000000000
10
9.8703928205
20
17.3841600764
30
0.0000000000
10
9.8689883069
20
15.9217626462
30
0.0000000000
10
9.8683331704
20
15.1905040301
30
0.0000000000
11
9.8728291912
21
19.5776960176
31
0.0000000000
11
9.8704400134
21
17.3842797472
31
0.0000000000
11
9.8683331704
21
15.1905040301
31
0.0000000000
0
SPLINE
5
412
100
AcDbEntity
8
0
100
AcDbSpline
62
9
6
CONTINUOUS
70
0
71
3
72
10
73
6
74
4
42
0.0000001000
43
0.0000001000
44
0.0000000001
12
-0.0000000545
22
0.1000118994
32
0.0000000000
13
0.0708144130
23
0.0706236429
33
0.0000000000
40
0.0000000000
40
0.0000000000
40
0.0000000000
40
0.0000000000
40
0.3444206040
40
0.7058672485
40
1.0000000000
40
1.0000000000
40
1.0000000000
40
1.0000000000
10
9.8728291912
20
19.8425167869
30
0.0000000000
10
9.8728291850
20
19.8539988398
30
0.0000000000
10
9.8718519296
20
19.8780189312
30
0.0000000000
10
9.8767779415
20
19.9092111663
30
0.0000000000
10
9.8676012884
20
19.9355773143
30
0.0000000000
10
9.8745442344
20
19.9425015564
30
0.0000000000
11
9.8728291912
21
19.8425167869
31
0.0000000000
11
9.8729360198
21
19.8769627801
31
0.0000000000
11
9.8733384036
21
19.9131095059
31
0.0000000000
11
9.8745442344
21
19.9425015564
31
0.0000000000
0
SPLINE
5
413
100
AcDbEntity
8
0
100
AcDbSpline
62
9
6
CONTINUOUS
70
0
71
3
72
9
73
5
74
3
42
0.0000001000
43
0.0000001000
44
0.0000000001
12
-0.0707816666
22
0.0706553419
32
0.0000000000
13
0.0000000782
23
0.1000111077
33
0.0000000000
40
0.0000000000
40
0.0000000000
40
0.0000000000
40
0.0000000000
40
0.3040444663
40
1.0000000000
40
1.0000000000
40
1.0000000000
40
1.0000000000
10
9.8745442344
20
-20.1636253651
30
0.0000000000
10
9.8673706431
20
-20.1564645765
30
0.0000000000
10
9.8802395344
20
-20.1167997064
30
0.0000000000
10
9.8728291731
20
-20.0868416902
30
0.0000000000
10
9.8728291912
20
-20.0636405956
30
0.0000000000
11
9.8745442344
21
-20.1636253651
31
0.0000000000
11
9.8733213977
21
-20.1332421391
31
0.0000000000
11
9.8728291912
21
-20.0636405956
31
0.0000000000
0
SPLINE
5
414
100
AcDbEntity
8
0
100
AcDbSpline
62
9
6
CONTINUOUS
70
0
71
3
72
9
73
5
74
3
42
0.0000001000
43
0.0000001000
44
0.0000000001
12
0.0056579316
22
-9.3834498964
32
0.0000000000
13
0.0108264765
23
-9.3834453564
33
0.0000000000
40
0.0000000000
40
0.0000000000
40
0.0000000000
40
0.0000000000
40
0.5000866103
40
1.0000000000
40
1.0000000000
40
1.0000000000
40
1.0000000000
10
9.8645890780
20
-10.4153719311
30
0.0000000000
10
9.8655322300
20
-11.9795511482
30
0.0000000000
10
9.8678481843
20
-15.1073675358
30
0.0000000000
10
9.8710250910
20
-18.2351831677
30
0.0000000000
10
9.8728291912
20
-19.7988198262
30
0.0000000000
11
9.8645890780
21
-10.4153719311
31
0.0000000000
11
9.8680638981
21
-15.1079091488
31
0.0000000000
11
9.8728291912
21
-19.7988198262
31
0.0000000000
0
SPLINE
5
415
100
AcDbEntity
8
0
100
AcDbSpline
62
9
6
CONTINUOUS
70
0
71
3
72
10
73
6
74
4
42
0.0000001000
43
0.0000001000
44
0.0000000001
12
-0.0209910981
22
-24.3932309479
32
0.0000000000
13
0.0138367900
23
-24.3932360553
33
0.0000000000
40
0.0000000000
40
0.0000000000
40
0.0000000000
40
0.0000000000
40
0.3332160225
40
0.6666026846
40
1.0000000000
40
1.0000000000
40
1.0000000000
40
1.0000000000
10
9.8678038932
20
14.5878428841
30
0.0000000000
10
9.8654723698
20
11.8784377533
30
0.0000000000
10
9.8621005534
20
6.4582388041
30
0.0000000000
10
9.8609102565
20
-1.6728413776
30
0.0000000000
10
9.8626944780
20
-7.0945151888
30
0.0000000000
10
9.8642321942
20
-9.8053949937
30
0.0000000000
11
9.8678038932
21
14.5878428841
31
0.0000000000
11
9.8627456769
21
6.4596260561
31
0.0000000000
11
9.8615547217
21
-1.6727547113
31
0.0000000000
11
9.8642321942
21
-9.8053949937
31
0.0000000000
0
SPLINE
5
416
100
AcDbEntity
8
0
100
AcDbSpline
62
9
6
CONTINUOUS
70
0
71
3
72
9
73
5
74
3
42
0.0000001000
43
0.0000001000
44
0.0000000001
12
1.3975420665
22
0.0030361016
32
0.0000000000
13
1.3975453644
23
0.0000012202
33
0.0000000000
40
0.0000000000
40
0.0000000000
40
0.0000000000
40
0.0000000000
40
0.4848926964
40
1.0000000000
40
1.0000000000
40
1.0000000000
40
1.0000000000
10
-3.4260330814
20
-20.3627992050
30
0.0000000000
10
-3.2001471011
20
-20.3623084772
30
0.0000000000
10
-2.7342992016
20
-20.3615321988
30
0.0000000000
10
-2.2684507068
20
-20.3612657687
30
0.0000000000
10
-2.0284887654
20
-20.3612655592
30
0.0000000000
11
-3.4260330814
21
-20.3627992050
31
0.0000000000
11
-2.7483744729
21
-20.3616755297
31
0.0000000000
11
-2.0284887654
21
-20.3612655592
31
0.0000000000
0
SPLINE
5
417
100
AcDbEntity
8
0
100
AcDbSpline
62
9
6
CONTINUOUS
70
0
71
3
72
9
73
5
74
3
42
0.0000001000
43
0.0000001000
44
0.0000000001
12
1.3975453644
22
-0.0000011460
32
0.0000000000
13
1.3975420665
23
-0.0030360823
33
0.0000000000
40
0.0000000000
40
0.0000000000
40
0.0000000000
40
0.0000000000
40
0.5151255647
40
1.0000000000
40
1.0000000000
40
1.0000000000
40
1.0000000000
10
2.1715112346
20
-20.3612655592
30
0.0000000000
10
2.4114816830
20
-20.3612657560
30
0.0000000000
10
2.8773301778
20
-20.3615322033
30
0.0000000000
10
3.3431780772
20
-20.3623084988
30
0.0000000000
10
3.5690555507
20
-20.3627992050
30
0.0000000000
11
2.1715112346
21
-20.3612655592
31
0.0000000000
11
2.8914224630
21
-20.3616755541
31
0.0000000000
11
3.5690555507
21
-20.3627992050
31
0.0000000000
0
SPLINE
5
418
100
AcDbEntity
8
0
100
AcDbSpline
62
0
6
CONTINUOUS
70
0
71
3
72
9
73
5
74
3
42
0.0000001000
43
0.0000001000
44
0.0000000001
12
0.3751325403
22
0.0010765389
32
0.0000000000
13
0.3751325440
23
0.0010752698
33
0.0000000000
40
0.0000000000
40
0.0000000000
40
0.0000000000
40
0.0000000000
40
0.7590990349
40
1.0000000000
40
1.0000000000
40
1.0000000000
40
1.0000000000
10
7.0715112346
20
-20.4605619043
30
0.0000000000
10
7.1664321511
20
-20.4602895044
30
0.0000000000
10
7.2914763316
20
-20.4599307850
30
0.0000000000
10
7.4165205127
20
-20.4595722980
30
0.0000000000
10
7.4466437766
20
-20.4594859535
30
0.0000000000
11
7.0715112346
21
-20.4605619043
31
0.0000000000
11
7.3562739849
21
-20.4597450312
31
0.0000000000
11
7.4466437766
21
-20.4594859535
31
0.0000000000
0
SPLINE
5
419
100
AcDbEntity
8
0
100
AcDbSpline
62
0
6
CONTINUOUS
70
0
71
3
72
10
73
6
74
4
42
0.0000001000
43
0.0000001000
44
0.0000000001
12
-0.2000402210
22
0.0000000022
32
0.0000000000
13
-0.1415935892
23
-0.1413058581
33
0.0000000000
40
0.0000000000
40
0.0000000000
40
0.0000000000
40
0.0000000000
40
0.4938425178
40
0.8585460695
40
1.0000000000
40
1.0000000000
40
1.0000000000
40
1.0000000000
10
-9.5253350647
20
15.1939356361
30
0.0000000000
10
-9.5582645202
20
15.1939356365
30
0.0000000000
10
-9.6172884805
20
15.1973074641
30
0.0000000000
10
-9.6788407580
20
15.1859744586
30
0.0000000000
10
-9.7186343779
20
15.1971667864
30
0.0000000000
10
-9.7253107011
20
15.1905040301
30
0.0000000000
11
-9.5253350647
21
15.1939356361
31
0.0000000000
11
-9.6241223792
21
15.1934797458
31
0.0000000000
11
-9.6970671077
21
15.1922331789
31
0.0000000000
11
-9.7253107011
21
15.1905040301
31
0.0000000000
0
SPLINE
5
41A
100
AcDbEntity
8
0
100
AcDbSpline
62
0
6
CONTINUOUS
70
0
71
3
72
9
73
5
74
3
42
0.0000001000
43
0.0000001000
44
0.0000000001
12
-0.3751325403
22
-0.0010765389
32
0.0000000000
13
-0.3751325440
23
-0.0010752698
33
0.0000000000
40
0.0000000000
40
0.0000000000
40
0.0000000000
40
0.0000000000
40
0.7590990349
40
1.0000000000
40
1.0000000000
40
1.0000000000
40
1.0000000000
10
-6.9284887654
20
20.2394380957
30
0.0000000000
10
-7.0234096818
20
20.2391656958
30
0.0000000000
10
-7.1484538623
20
20.2388069764
30
0.0000000000
10
-7.2734980434
20
20.2384484894
30
0.0000000000
10
-7.3036213074
20
20.2383621448
30
0.0000000000
11
-6.9284887654
21
20.2394380957
31
0.0000000000
11
-7.2132515156
21
20.2386212226
31
0.0000000000
11
-7.3036213074
21
20.2383621448
31
0.0000000000
0
SPLINE
5
41B
100
AcDbEntity
8
0
100
AcDbSpline
62
0
6
CONTINUOUS
70
0
71
3
72
10
73
6
74
4
42
0.0000001000
43
0.0000001000
44
0.0000000001
12
-0.0103476593
22
-1.0324092043
32
0.0000000000
13
-0.0105817516
23
-1.0324068315
33
0.0000000000
40
0.0000000000
40
0.0000000000
40
0.0000000000
40
0.0000000000
40
0.3263091910
40
0.6596571044
40
1.0000000000
40
1.0000000000
40
1.0000000000
40
1.0000000000
10
-4.5680157264
20
-18.8652631287
30
0.0000000000
10
-4.5691412385
20
-18.9775579995
30
0.0000000000
10
-4.5714268852
20
-19.2045699179
30
0.0000000000
10
-4.5749191975
20
-19.5487058850
30
0.0000000000
10
-4.5772882907
20
-19.7805469566
30
0.0000000000
10
-4.5784887654
20
-19.8976710668
30
0.0000000000
11
-4.5680157264
21
-18.8652631287
31
0.0000000000
11
-4.5714069212
21
-19.2021475937
31
0.0000000000
11
-4.5748987730
21
-19.5462986193
31
0.0000000000
11
-4.5784887654
21
-19.8976710668
31
0.0000000000
0
SPLINE
5
41C
100
AcDbEntity
8
0
100
AcDbSpline
62
9
6
CONTINUOUS
70
0
71
3
72
8
73
4
74
2
42
0.0000001000
43
0.0000001000
44
0.0000000001
12
0.2269377873
22
-0.0004803748
32
0.0000000000
13
0.2269379239
23
-0.0004143794
33
0.0000000000
40
0.0000000000
40
0.0000000000
40
0.0000000000
40
0.0000000000
40
1.0000000000
40
1.0000000000
40
1.0000000000
40
1.0000000000
10
-3.4573635644
20
-20.2187028421
30
0.0000000000
10
-3.3817176353
20
-20.2188629670
30
0.0000000000
10
-3.3060716822
20
-20.2190124513
30
0.0000000000
10
-3.2304257076
20
-20.2191505778
30
0.0000000000
11
-3.4573635644
21
-20.2187028421
31
0.0000000000
11
-3.2304257076
21
-20.2191505778
31
0.0000000000
0
SPLINE
5
41D
100
AcDbEntity
8
0
100
AcDbSpline
62
9
6
CONTINUOUS
70
0
71
3
72
9
73
5
74
3
42
0.0000001000
43
0.0000001000
44
0.0000000001
12
1.2019356152
22
-0.0021946853
32
0.0000000000
13
1.2019375843
23
0.0000163828
33
0.0000000000
40
0.0000000000
40
0.0000000000
40
0.0000000000
40
0.0000000000
40
0.3876877670
40
1.0000000000
40
1.0000000000
40
1.0000000000
40
1.0000000000
10
-3.2304257076
20
-20.2191505778
30
0.0000000000
10
-3.0751004627
20
-20.2194341954
30
0.0000000000
10
-2.6744550237
20
-20.2200422401
30
0.0000000000
10
-2.2738091274
20
-20.2202903738
30
0.0000000000
10
-2.0284887654
20
-20.2202870300
30
0.0000000000
11
-3.2304257076
21
-20.2191505778
31
0.0000000000
11
-2.7644497228
21
-20.2198515631
31
0.0000000000
11
-2.0284887654
21
-20.2202870300
31
0.0000000000
0
SPLINE
5
41E
100
AcDbEntity
8
0
100
AcDbSpline
62
0
6
CONTINUOUS
70
0
71
3
72
9
73
5
74
3
42
0.0000001000
43
0.0000001000
44
0.0000000001
12
-0.3775378306
22
-0.6846978867
32
0.0000000000
13
-0.3476583876
23
-0.7003425269
33
0.0000000000
40
0.0000000000
40
0.0000000000
40
0.0000000000
40
0.0000000000
40
0.4937633281
40
1.0000000000
40
1.0000000000
40
1.0000000000
40
1.0000000000
10
-7.1434178949
20
-15.5105619043
30
0.0000000000
10
-7.2055560068
20
-15.6232548067
30
0.0000000000
10
-7.3288022133
20
-15.8529290208
30
0.0000000000
10
-7.4470709720
20
-16.0852025373
30
0.0000000000
10
-7.5057367803
20
-16.2033822274
30
0.0000000000
11
-7.1434178949
21
-15.5105619043
31
0.0000000000
11
-7.3260514081
21
-15.8506979311
31
0.0000000000
11
-7.5057367803
21
-16.2033822274
31
0.0000000000
0
SPLINE
5
41F
100
AcDbEntity
8
0
100
AcDbSpline
62
0
6
CONTINUOUS
70
0
71
3
72
10
73
6
74
4
42
0.0000001000
43
0.0000001000
44
0.0000000001
12
0.0102413620
22
-1.0919480669
32
0.0000000000
13
0.0106695413
23
-1.0919439670
33
0.0000000000
40
0.0000000000
40
0.0000000000
40
0.0000000000
40
0.0000000000
40
0.3185577142
40
0.6451521271
40
1.0000000000
40
1.0000000000
40
1.0000000000
40
1.0000000000
10
-5.1889618043
20
-18.5490537484
30
0.0000000000
10
-5.1878743160
20
-18.6650032418
30
0.0000000000
10
-5.1856536365
20
-18.8998272768
30
0.0000000000
10
-5.1821611702
20
-19.2638092202
30
0.0000000000
10
-5.1797507867
20
-19.5118416135
30
0.0000000000
10
-5.1784887654
20
-19.6409996115
30
0.0000000000
11
-5.1889618043
21
-18.5490537484
31
0.0000000000
11
-5.1856733776
21
-18.8969019841
31
0.0000000000
11
-5.1822528457
21
-19.2535254033
31
0.0000000000
11
-5.1784887654
21
-19.6409996115
31
0.0000000000
0
SPLINE
5
420
100
AcDbEntity
8
0
100
AcDbSpline
62
9
6
CONTINUOUS
70
0
71
3
72
9
73
5
74
3
42
0.0000001000
43
0.0000001000
44
0.0000000001
12
1.3980490258
22
-0.0000261650
32
0.0000000000
13
1.3980460138
23
0.0029067207
33
0.0000000000
40
0.0000000000
40
0.0000000000
40
0.0000000000
40
0.0000000000
40
0.5267404005
40
1.0000000000
40
1.0000000000
40
1.0000000000
40
1.0000000000
10
2.1712318321
20
-20.2202727131
30
0.0000000000
10
2.4167014667
20
-20.2202773072
30
0.0000000000
10
2.8827178613
20
-20.2200074194
30
0.0000000000
10
3.3487336219
20
-20.2192266481
30
0.0000000000
10
3.5692798541
20
-20.2187681037
30
0.0000000000
11
2.1712318321
21
-20.2202727131
31
0.0000000000
11
2.9076406154
21
-20.2198512382
31
0.0000000000
11
3.5692798541
21
-20.2187681037
31
0.0000000000
0
SPLINE
5
421
100
AcDbEntity
8
0
100
AcDbSpline
62
9
6
CONTINUOUS
70
0
71
3
72
8
73
4
74
2
42
0.0000001000
43
0.0000001000
44
0.0000000001
12
0.0311061812
22
0.0000646738
32
0.0000000000
13
0.0311061785
23
0.0000658467
33
0.0000000000
40
0.0000000000
40
0.0000000000
40
0.0000000000
40
0.0000000000
40
1.0000000000
40
1.0000000000
40
1.0000000000
40
1.0000000000
10
3.5692798541
20
-20.2187681037
30
0.0000000000
10
3.5796485811
20
-20.2187465457
30
0.0000000000
10
3.5900173078
20
-20.2187247910
30
0.0000000000
10
3.6003860339
20
-20.2187028421
30
0.0000000000
11
3.5692798541
21
-20.2187681037
31
0.0000000000
11
3.6003860339
21
-20.2187028421
31
0.0000000000
0
SPLINE
5
422
100
AcDbEntity
8
0
100
AcDbSpline
62
0
6
CONTINUOUS
70
0
71
3
72
10
73
6
74
4
42
0.0000001000
43
0.0000001000
44
0.0000000001
12
-0.0105817516
22
1.0324068315
32
0.0000000000
13
-0.0103476593
23
1.0324092043
33
0.0000000000
40
0.0000000000
40
0.0000000000
40
0.0000000000
40
0.0000000000
40
0.3401307407
40
0.6734806557
40
1.0000000000
40
1.0000000000
40
1.0000000000
40
1.0000000000
10
4.7215112346
20
-19.8976710668
30
0.0000000000
10
4.7203115083
20
-19.7806199667
30
0.0000000000
10
4.7179431497
20
-19.5488512164
30
0.0000000000
10
4.7144508211
20
-19.2047152495
30
0.0000000000
10
4.7121644327
20
-18.9776303209
30
0.0000000000
10
4.7110381957
20
-18.8652631287
30
0.0000000000
11
4.7215112346
21
-19.8976710668
31
0.0000000000
11
4.7179234727
21
-19.5465176496
31
0.0000000000
11
4.7144315836
21
-19.2023645577
31
0.0000000000
11
4.7110381957
21
-18.8652631287
31
0.0000000000
0
SPLINE
5
423
100
AcDbEntity
8
0
100
AcDbSpline
62
0
6
CONTINUOUS
70
0
71
3
72
9
73
5
74
3
42
0.0000001000
43
0.0000001000
44
0.0000000001
12
-0.3476583874
22
0.7003425266
32
0.0000000000
13
-0.3775378304
23
0.6846978863
33
0.0000000000
40
0.0000000000
40
0.0000000000
40
0.0000000000
40
0.0000000000
40
0.5060194084
40
1.0000000000
40
1.0000000000
40
1.0000000000
40
1.0000000000
10
7.6487592496
20
-16.2033822274
30
0.0000000000
10
7.5901186191
20
-16.0852532570
30
0.0000000000
10
7.4718508863
20
-15.8529792478
30
0.0000000000
10
7.3486058178
20
-15.6233043933
30
0.0000000000
10
7.2864403642
20
-15.5105619043
30
0.0000000000
11
7.6487592496
21
-16.2033822274
31
0.0000000000
11
7.4691526078
21
-15.8508484718
31
0.0000000000
11
7.2864403642
21
-15.5105619043
31
0.0000000000
0
SPLINE
5
424
100
AcDbEntity
8
0
100
AcDbSpline
62
0
6
CONTINUOUS
70
0
71
3
72
10
73
6
74
4
42
0.0000001000
43
0.0000001000
44
0.0000000001
12
0.0106695405
22
1.0919438839
32
0.0000000000
13
0.0102413612
23
1.0919479837
33
0.0000000000
40
0.0000000000
40
0.0000000000
40
0.0000000000
40
0.0000000000
40
0.3546412809
40
0.6812396304
40
1.0000000000
40
1.0000000000
40
1.0000000000
40
1.0000000000
10
5.3215112346
20
-19.6409995284
30
0.0000000000
10
5.3227725211
20
-19.5119167358
30
0.0000000000
10
5.3251821959
20
-19.2639581243
30
0.0000000000
10
5.3286746915
20
-18.8999762089
30
0.0000000000
10
5.3308960936
20
-18.6650769960
30
0.0000000000
10
5.3319842736
20
-18.5490537484
30
0.0000000000
11
5.3215112346
21
-19.6409995284
31
0.0000000000
11
5.3252731374
21
-19.2537509368
31
0.0000000000
11
5.3286937394
21
-18.8971232465
31
0.0000000000
11
5.3319842736
21
-18.5490537484
31
0.0000000000
0
SPLINE
5
425
100
AcDbEntity
8
0
100
AcDbSpline
62
0
6
CONTINUOUS
70
0
71
3
72
8
73
4
74
2
42
0.0000001000
43
0.0000001000
44
0.0000000001
12
-0.0058118227
22
0.0567391165
32
0.0000000000
13
-0.0053383833
23
0.0567892660
33
0.0000000000
40
0.0000000000
40
0.0000000000
40
0.0000000000
40
0.0000000000
40
1.0000000000
40
1.0000000000
40
1.0000000000
40
1.0000000000
10
-5.5101469967
20
-16.2033822274
30
0.0000000000
10
-5.5120842709
20
-16.1844691885
30
0.0000000000
10
-5.5139536146
20
-16.1655479984
30
0.0000000000
10
-5.5157330757
20
-16.1466182430
30
0.0000000000
11
-5.5101469967
21
-16.2033822274
31
0.0000000000
11
-5.5157330757
21
-16.1466182430
31
0.0000000000
0
SPLINE
5
426
100
AcDbEntity
8
0
100
AcDbSpline
62
0
6
CONTINUOUS
70
0
71
3
72
9
73
5
74
3
42
0.0000001000
43
0.0000001000
44
0.0000000001
12
-0.0161998689
22
0.1723328231
32
0.0000000000
13
-0.0098000602
23
0.1728121288
33
0.0000000000
40
0.0000000000
40
0.0000000000
40
0.0000000000
40
0.0000000000
40
0.6647129840
40
1.0000000000
40
1.0000000000
40
1.0000000000
40
1.0000000000
10
-5.5157330757
20
-16.1466182430
30
0.0000000000
10
-5.5193224968
20
-16.1084342880
30
0.0000000000
10
-5.5241722624
20
-16.0509375845
30
0.0000000000
10
-5.5277865470
20
-15.9933543194
30
0.0000000000
10
-5.5288818246
20
-15.9740404317
30
0.0000000000
11
-5.5157330757
21
-16.1466182430
31
0.0000000000
11
-5.5252240120
21
-16.0319584306
31
0.0000000000
11
-5.5288818246
21
-15.9740404317
31
0.0000000000
0
SPLINE
5
427
100
AcDbEntity
8
0
100
AcDbSpline
62
0
6
CONTINUOUS
70
0
71
3
72
8
73
4
74
2
42
0.0000001000
43
0.0000001000
44
0.0000000001
12
-0.0066311072
22
0.1169315014
32
0.0000000000
13
-0.0043341481
23
0.1170335722
33
0.0000000000
40
0.0000000000
40
0.0000000000
40
0.0000000000
40
0.0000000000
40
1.0000000000
40
1.0000000000
40
1.0000000000
40
1.0000000000
10
-5.5288818246
20
-15.9740404317
30
0.0000000000
10
-5.5310921937
20
-15.9350632646
30
0.0000000000
10
-5.5328279111
20
-15.8960577249
30
0.0000000000
10
-5.5342726271
20
-15.8570465342
30
0.0000000000
11
-5.5288818246
21
-15.9740404317
31
0.0000000000
11
-5.5342726271
21
-15.8570465342
31
0.0000000000
0
SPLINE
5
428
100
AcDbEntity
8
0
100
AcDbSpline
62
0
6
CONTINUOUS
70
0
71
3
72
10
73
6
74
4
42
0.0000001000
43
0.0000001000
44
0.0000000001
12
0.3000887779
22
0.0000000000
32
0.0000000000
13
0.1341956046
23
-0.2684116509
33
0.0000000000
40
0.0000000000
40
0.0000000000
40
0.0000000000
40
0.0000000000
40
0.4973078836
40
0.8628897268
40
1.0000000000
40
1.0000000000
40
1.0000000000
40
1.0000000000
10
-4.8507537017
20
20.1870729009
30
0.0000000000
10
-4.8010081967
20
20.1870729009
30
0.0000000000
10
-4.7095378823
20
20.1939313385
30
0.0000000000
10
-4.6242737385
20
20.1718763441
30
0.0000000000
10
-4.5568983235
20
20.1941494097
30
0.0000000000
10
-4.5507651248
20
20.1818820781
30
0.0000000000
11
-4.8507537017
21
20.1870729009
31
0.0000000000
11
-4.7015187998
21
20.1863790246
31
0.0000000000
11
-4.5918282089
21
20.1844811313
31
0.0000000000
11
-4.5507651248
21
20.1818820781
31
0.0000000000
0
SPLINE
5
429
100
AcDbEntity
8
0
100
AcDbSpline
62
0
6
CONTINUOUS
70
0
71
3
72
10
73
6
74
4
42
0.0000001000
43
0.0000001000
44
0.0000000001
12
0.2854112351
22
0.0000000000
32
0.0000000000
13
0.1747797118
23
0.2279163333
33
0.0000000000
40
0.0000000000
40
0.0000000000
40
0.0000000000
40
0.0000000000
40
0.4770002960
40
0.8785401781
40
1.0000000000
40
1.0000000000
40
1.0000000000
40
1.0000000000
10
-4.8425351572
20
19.1894380957
30
0.0000000000
10
-4.7971547426
20
19.1894380957
30
0.0000000000
10
-4.7124990344
20
19.2063176184
30
0.0000000000
10
-4.6312696379
20
19.2599228112
30
0.0000000000
10
-4.5981971408
20
19.2976637905
30
0.0000000000
10
-4.5911209032
20
19.3068913496
30
0.0000000000
11
-4.8425351572
21
19.1894380957
31
0.0000000000
11
-4.7091461894
21
19.2166744958
31
0.0000000000
11
-4.6140659913
21
19.2806575506
31
0.0000000000
11
-4.5911209032
21
19.3068913496
31
0.0000000000
0
SPLINE
5
42A
100
AcDbEntity
8
0
100
AcDbSpline
62
0
6
CONTINUOUS
70
0
71
3
72
9
73
5
74
3
42
0.0000001000
43
0.0000001000
44
0.0000000001
12
0.0765721154
22
0.0998516109
32
0.0000000000
13
0.0172869180
23
0.1245271175
33
0.0000000000
40
0.0000000000
40
0.0000000000
40
0.0000000000
40
0.0000000000
40
0.5173499008
40
1.0000000000
40
1.0000000000
40
1.0000000000
40
1.0000000000
10
-4.5911209032
20
19.3068913496
30
0.0000000000
10
-4.5779160445
20
19.3241107566
30
0.0000000000
10
-4.5564603194
20
19.3605091300
30
0.0000000000
10
-4.5452203012
20
19.4014528426
30
0.0000000000
10
-4.5424391237
20
19.4214871845
30
0.0000000000
11
-4.5911209032
21
19.3068913496
31
0.0000000000
11
-4.5584500533
21
19.3629887105
31
0.0000000000
11
-4.5424391237
21
19.4214871845
31
0.0000000000
0
SPLINE
5
42B
100
AcDbEntity
8
0
100
AcDbSpline
62
0
6
CONTINUOUS
70
0
71
3
72
8
73
4
74
2
42
0.0000001000
43
0.0000001000
44
0.0000000001
12
0.0039752813
22
0.0286361239
32
0.0000000000
13
0.0002886394
23
0.0287527314
33
0.0000000000
40
0.0000000000
40
0.0000000000
40
0.0000000000
40
0.0000000000
40
1.0000000000
40
1.0000000000
40
1.0000000000
40
1.0000000000
10
-4.5424391237
20
19.4214871845
30
0.0000000000
10
-4.5411140299
20
19.4310325591
30
0.0000000000
10
-4.5403890966
20
19.4406398732
30
0.0000000000
10
-4.5402928835
20
19.4502241170
30
0.0000000000
11
-4.5424391237
21
19.4214871845
31
0.0000000000
11
-4.5402928835
21
19.4502241170
31
0.0000000000
0
SPLINE
5
42C
100
AcDbEntity
8
0
100
AcDbSpline
62
0
6
CONTINUOUS
70
0
71
3
72
11
73
7
74
5
42
0.0000001000
43
0.0000001000
44
0.0000000001
12
0.0002576444
22
-0.4681422303
32
0.0000000000
13
-0.4681423012
23
0.0000000000
33
0.0000000000
40
0.0000000000
40
0.0000000000
40
0.0000000000
40
0.0000000000
40
0.2503539262
40
0.4991000948
40
0.7487438262
40
1.0000000000
40
1.0000000000
40
1.0000000000
40
1.0000000000
10
-4.5279845049
20
18.6894380957
30
0.0000000000
10
-4.5279630042
20
18.6503710139
30
0.0000000000
10
-4.5435250850
20
18.5716203604
30
0.0000000000
10
-4.6100701494
20
18.4720606202
30
0.0000000000
10
-4.7095925230
20
18.4051561988
30
0.0000000000
10
-4.7886242633
20
18.3894380957
30
0.0000000000
10
-4.8278321444
20
18.3894380957
30
0.0000000000
11
-4.5279845049
21
18.6894380957
31
0.0000000000
11
-4.5508206062
21
18.5744831108
31
0.0000000000
11
-4.6154384795
21
18.4776078932
31
0.0000000000
11
-4.7124914910
21
18.4125000809
31
0.0000000000
11
-4.8278321444
21
18.3894380957
31
0.0000000000
0
SPLINE
5
42D
100
AcDbEntity
8
0
100
AcDbSpline
62
0
6
CONTINUOUS
70
0
71
3
72
10
73
6
74
4
42
0.0000001000
43
0.0000001000
44
0.0000000001
12
0.1341956046
22
0.2684116509
32
0.0000000000
13
0.3000887779
23
0.0000000000
33
0.0000000000
40
0.0000000000
40
0.0000000000
40
0.0000000000
40
0.0000000000
40
0.1371102732
40
0.5026921164
40
1.0000000000
40
1.0000000000
40
1.0000000000
40
1.0000000000
10
-5.3062124059
20
20.1818820781
30
0.0000000000
10
-5.3000792072
20
20.1941494097
30
0.0000000000
10
-5.2327037922
20
20.1718763441
30
0.0000000000
10
-5.1474396484
20
20.1939313385
30
0.0000000000
10
-5.0559693340
20
20.1870729009
30
0.0000000000
10
-5.0062238290
20
20.1870729009
30
0.0000000000
11
-5.3062124059
21
20.1818820781
31
0.0000000000
11
-5.2651493218
21
20.1844811313
31
0.0000000000
11
-5.1554587309
21
20.1863790246
31
0.0000000000
11
-5.0062238290
21
20.1870729009
31
0.0000000000
0
SPLINE
5
42E
100
AcDbEntity
8
0
100
AcDbSpline
62
0
6
CONTINUOUS
70
0
71
3
72
10
73
6
74
4
42
0.0000001000
43
0.0000001000
44
0.0000000001
12
0.0030422152
22
-0.3030493991
32
0.0000000000
13
0.2807899531
23
-0.1206886436
33
0.0000000000
40
0.0000000000
40
0.0000000000
40
0.0000000000
40
0.0000000000
40
0.2940131188
40
0.6218497055
40
1.0000000000
40
1.0000000000
40
1.0000000000
40
1.0000000000
10
-5.3166846472
20
19.4502241170
30
0.0000000000
10
-5.3163864969
20
19.4205239507
30
0.0000000000
10
-5.3029862711
20
19.3572383208
30
0.0000000000
10
-5.2441188863
20
19.2720726596
30
0.0000000000
10
-5.1832249425
20
19.2318873112
30
0.0000000000
10
-5.1478313413
20
19.2166744958
30
0.0000000000
11
-5.3166846472
21
19.4502241170
31
0.0000000000
11
-5.2985274774
21
19.3629887105
31
0.0000000000
11
-5.2429115394
21
19.2806575506
31
0.0000000000
11
-5.1478313413
21
19.2166744958
31
0.0000000000
0
SPLINE
5
42F
100
AcDbEntity
8
0
100
AcDbSpline
62
0
6
CONTINUOUS
70
0
71
3
72
8
73
4
74
2
42
0.0000001000
43
0.0000001000
44
0.0000000001
12
0.0819298375
22
-0.0352149386
32
0.0000000000
13
0.0881482670
23
-0.0124556959
33
0.0000000000
40
0.0000000000
40
0.0000000000
40
0.0000000000
40
0.0000000000
40
1.0000000000
40
1.0000000000
40
1.0000000000
40
1.0000000000
10
-5.1478313413
20
19.2166744958
30
0.0000000000
10
-5.1205213955
20
19.2049361830
30
0.0000000000
10
-5.0915582309
20
19.1969557761
30
0.0000000000
10
-5.0621754752
20
19.1928038775
30
0.0000000000
11
-5.1478313413
21
19.2166744958
31
0.0000000000
11
-5.0621754752
21
19.1928038775
31
0.0000000000
0
SPLINE
5
430
100
AcDbEntity
8
0
100
AcDbSpline
62
0
6
CONTINUOUS
70
0
71
3
72
8
73
4
74
2
42
0.0000001000
43
0.0000001000
44
0.0000000001
12
0.0475604216
22
-0.0067204741
32
0.0000000000
13
0.0477120147
23
0.0000000000
33
0.0000000000
40
0.0000000000
40
0.0000000000
40
0.0000000000
40
0.0000000000
40
1.0000000000
40
1.0000000000
40
1.0000000000
40
1.0000000000
10
-5.0621754752
20
19.1928038775
30
0.0000000000
10
-5.0463220013
20
19.1905637195
30
0.0000000000
10
-5.0303463785
20
19.1894380957
30
0.0000000000
10
-5.0144423736
20
19.1894380957
30
0.0000000000
11
-5.0621754752
21
19.1928038775
31
0.0000000000
11
-5.0144423736
21
19.1894380957
31
0.0000000000
0
SPLINE
5
431
100
AcDbEntity
8
0
100
AcDbSpline
62
0
6
CONTINUOUS
70
0
71
3
72
9
73
5
74
3
42
0.0000001000
43
0.0000001000
44
0.0000000001
12
-0.2334753857
22
0.0000000000
32
0.0000000000
13
-0.1663155729
23
0.1657258968
33
0.0000000000
40
0.0000000000
40
0.0000000000
40
0.0000000000
40
0.0000000000
40
0.5014211041
40
1.0000000000
40
1.0000000000
40
1.0000000000
40
1.0000000000
10
-5.0291453863
20
18.3894380957
30
0.0000000000
10
-5.0681685482
20
18.3894380957
30
0.0000000000
10
-5.1468494510
20
18.4050110426
30
0.0000000000
10
-5.2131652735
20
18.4493321946
30
0.0000000000
10
-5.2408057517
20
18.4768746729
30
0.0000000000
11
-5.0291453863
21
18.3894380957
31
0.0000000000
11
-5.1439642114
21
18.4122832677
31
0.0000000000
11
-5.2408057517
21
18.4768746729
31
0.0000000000
0
SPLINE
5
432
100
AcDbEntity
8
0
100
AcDbSpline
62
0
6
CONTINUOUS
70
0
71
3
72
9
73
5
74
3
42
0.0000001000
43
0.0000001000
44
0.0000000001
12
-0.1390478725
22
0.1385548748
32
0.0000000000
13
-0.0259093627
23
0.1946549068
33
0.0000000000
40
0.0000000000
40
0.0000000000
40
0.0000000000
40
0.0000000000
40
0.5989768377
40
1.0000000000
40
1.0000000000
40
1.0000000000
40
1.0000000000
10
-5.2408057517
20
18.4768746729
30
0.0000000000
10
-5.2685679034
20
18.5045383931
30
0.0000000000
10
-5.3057832146
20
18.5598938721
30
0.0000000000
10
-5.3229097833
20
18.6239345214
30
0.0000000000
10
-5.3263732015
20
18.6499548968
30
0.0000000000
11
-5.2408057517
21
18.4768746729
31
0.0000000000
11
-5.3059428188
21
18.5739676994
31
0.0000000000
11
-5.3263732015
21
18.6499548968
31
0.0000000000
0
SPLINE
5
433
100
AcDbEntity
8
0
100
AcDbSpline
62
0
6
CONTINUOUS
70
0
71
3
72
10
73
6
74
4
42
0.0000001000
43
0.0000001000
44
0.0000000001
12
0.3000887779
22
0.0000000000
32
0.0000000000
13
0.1341956046
23
-0.2684116509
33
0.0000000000
40
0.0000000000
40
0.0000000000
40
0.0000000000
40
0.0000000000
40
0.4973078836
40
0.8628897268
40
1.0000000000
40
1.0000000000
40
1.0000000000
40
1.0000000000
10
5.1492462983
20
20.1870729009
30
0.0000000000
10
5.1989918033
20
20.1870729009
30
0.0000000000
10
5.2904621177
20
20.1939313385
30
0.0000000000
10
5.3757262615
20
20.1718763441
30
0.0000000000
10
5.4431016765
20
20.1941494097
30
0.0000000000
10
5.4492348752
20
20.1818820781
30
0.0000000000
11
5.1492462983
21
20.1870729009
31
0.0000000000
11
5.2984812002
21
20.1863790246
31
0.0000000000
11
5.4081717911
21
20.1844811313
31
0.0000000000
11
5.4492348752
21
20.1818820781
31
0.0000000000
0
SPLINE
5
434
100
AcDbEntity
8
0
100
AcDbSpline
62
0
6
CONTINUOUS
70
0
71
3
72
10
73
6
74
4
42
0.0000001000
43
0.0000001000
44
0.0000000001
12
0.2854112351
22
0.0000000000
32
0.0000000000
13
0.1747797118
23
0.2279163333
33
0.0000000000
40
0.0000000000
40
0.0000000000
40
0.0000000000
40
0.0000000000
40
0.4770002960
40
0.8785401781
40
1.0000000000
40
1.0000000000
40
1.0000000000
40
1.0000000000
10
5.1574648428
20
19.1894380957
30
0.0000000000
10
5.2028452574
20
19.1894380957
30
0.0000000000
10
5.2875009656
20
19.2063176184
30
0.0000000000
10
5.3687303621
20
19.2599228112
30
0.0000000000
10
5.4018028592
20
19.2976637905
30
0.0000000000
10
5.4088790968
20
19.3068913496
30
0.0000000000
11
5.1574648428
21
19.1894380957
31
0.0000000000
11
5.2908538106
21
19.2166744958
31
0.0000000000
11
5.3859340087
21
19.2806575506
31
0.0000000000
11
5.4088790968
21
19.3068913496
31
0.0000000000
0
SPLINE
5
435
100
AcDbEntity
8
0
100
AcDbSpline
62
0
6
CONTINUOUS
70
0
71
3
72
9
73
5
74
3
42
0.0000001000
43
0.0000001000
44
0.0000000001
12
0.0765721154
22
0.0998516109
32
0.0000000000
13
0.0172869180
23
0.1245271175
33
0.0000000000
40
0.0000000000
40
0.0000000000
40
0.0000000000
40
0.0000000000
40
0.5173499008
40
1.0000000000
40
1.0000000000
40
1.0000000000
40
1.0000000000
10
5.4088790968
20
19.3068913496
30
0.0000000000
10
5.4220839555
20
19.3241107566
30
0.0000000000
10
5.4435396806
20
19.3605091300
30
0.0000000000
10
5.4547796988
20
19.4014528426
30
0.0000000000
10
5.4575608763
20
19.4214871845
30
0.0000000000
11
5.4088790968
21
19.3068913496
31
0.0000000000
11
5.4415499467
21
19.3629887105
31
0.0000000000
11
5.4575608763
21
19.4214871845
31
0.0000000000
0
SPLINE
5
436
100
AcDbEntity
8
0
100
AcDbSpline
62
0
6
CONTINUOUS
70
0
71
3
72
8
73
4
74
2
42
0.0000001000
43
0.0000001000
44
0.0000000001
12
0.0039752813
22
0.0286361239
32
0.0000000000
13
0.0002886394
23
0.0287527314
33
0.0000000000
40
0.0000000000
40
0.0000000000
40
0.0000000000
40
0.0000000000
40
1.0000000000
40
1.0000000000
40
1.0000000000
40
1.0000000000
10
5.4575608763
20
19.4214871845
30
0.0000000000
10
5.4588859701
20
19.4310325591
30
0.0000000000
10
5.4596109034
20
19.4406398732
30
0.0000000000
10
5.4597071165
20
19.4502241170
30
0.0000000000
11
5.4575608763
21
19.4214871845
31
0.0000000000
11
5.4597071165
21
19.4502241170
31
0.0000000000
0
SPLINE
5
437
100
AcDbEntity
8
0
100
AcDbSpline
62
0
6
CONTINUOUS
70
0
71
3
72
8
73
4
74
2
42
0.0000001000
43
0.0000001000
44
0.0000000001
12
-0.0376808778
22
-0.0599547868
32
0.0000000000
13
-0.0386390322
23
-0.0593485228
33
0.0000000000
40
0.0000000000
40
0.0000000000
40
0.0000000000
40
0.0000000000
40
1.0000000000
40
1.0000000000
40
1.0000000000
40
1.0000000000
10
5.9188436191
20
-15.5105619043
30
0.0000000000
10
5.9062833265
20
-15.5305468333
30
0.0000000000
10
5.8935623026
20
-15.5504320655
30
0.0000000000
10
5.8806826252
20
-15.5702149065
30
0.0000000000
11
5.9188436191
21
-15.5105619043
31
0.0000000000
11
5.8806826252
21
-15.5702149065
31
0.0000000000
0
SPLINE
5
438
100
AcDbEntity
8
0
100
AcDbSpline
62
0
6
CONTINUOUS
70
0
71
3
72
9
73
5
74
3
42
0.0000001000
43
0.0000001000
44
0.0000000001
12
-0.1536509798
22
-0.2360038064
32
0.0000000000
13
-0.1683309920
23
-0.2257672307
33
0.0000000000
40
0.0000000000
40
0.0000000000
40
0.0000000000
40
0.0000000000
40
0.5010368326
40
1.0000000000
40
1.0000000000
40
1.0000000000
40
1.0000000000
10
5.8806826252
20
-15.5702149065
30
0.0000000000
10
5.8550210252
20
-15.6096304397
30
0.0000000000
10
5.8025470254
20
-15.6874871317
30
0.0000000000
10
5.7476296789
20
-15.7636397940
30
0.0000000000
10
5.7196326906
20
-15.8011896382
30
0.0000000000
11
5.8806826252
21
-15.5702149065
31
0.0000000000
11
5.8018248393
21
-15.6872208044
31
0.0000000000
11
5.7196326906
21
-15.8011896382
31
0.0000000000
0
SPLINE
5
439
100
AcDbEntity
8
0
100
AcDbSpline
62
0
6
CONTINUOUS
70
0
71
3
72
8
73
4
74
2
42
0.0000001000
43
0.0000001000
44
0.0000000001
12
-0.0418946999
22
-0.0561895957
32
0.0000000000
13
-0.0427784433
23
-0.0555128499
33
0.0000000000
40
0.0000000000
40
0.0000000000
40
0.0000000000
40
0.0000000000
40
1.0000000000
40
1.0000000000
40
1.0000000000
40
1.0000000000
10
5.7196326906
20
-15.8011896382
30
0.0000000000
10
5.7056677907
20
-15.8199195034
30
0.0000000000
10
5.6915547903
20
-15.8385380226
30
0.0000000000
10
5.6772953092
20
-15.8570423059
30
0.0000000000
11
5.7196326906
21
-15.8011896382
31
0.0000000000
11
5.6772953092
21
-15.8570423059
31
0.0000000000
0
SPLINE
5
43A
100
AcDbEntity
8
0
100
AcDbSpline
62
0
6
CONTINUOUS
70
0
71
3
72
11
73
7
74
5
42
0.0000001000
43
0.0000001000
44
0.0000000001
12
0.0002576444
22
-0.4681422303
32
0.0000000000
13
-0.4681423012
23
0.0000000000
33
0.0000000000
40
0.0000000000
40
0.0000000000
40
0.0000000000
40
0.0000000000
40
0.2503539262
40
0.4991000948
40
0.7487438262
40
1.0000000000
40
1.0000000000
40
1.0000000000
40
1.0000000000
10
5.4720154951
20
18.6894380957
30
0.0000000000
10
5.4720369958
20
18.6503710139
30
0.0000000000
10
5.4564749150
20
18.5716203604
30
0.0000000000
10
5.3899298506
20
18.4720606202
30
0.0000000000
10
5.2904074770
20
18.4051561988
30
0.0000000000
10
5.2113757367
20
18.3894380957
30
0.0000000000
10
5.1721678556
20
18.3894380957
30
0.0000000000
11
5.4720154951
21
18.6894380957
31
0.0000000000
11
5.4491793938
21
18.5744831108
31
0.0000000000
11
5.3845615205
21
18.4776078932
31
0.0000000000
11
5.2875085090
21
18.4125000809
31
0.0000000000
11
5.1721678556
21
18.3894380957
31
0.0000000000
0
SPLINE
5
43B
100
AcDbEntity
8
0
100
AcDbSpline
62
0
6
CONTINUOUS
70
0
71
3
72
10
73
6
74
4
42
0.0000001000
43
0.0000001000
44
0.0000000001
12
0.1341956046
22
0.2684116509
32
0.0000000000
13
0.3000887779
23
0.0000000000
33
0.0000000000
40
0.0000000000
40
0.0000000000
40
0.0000000000
40
0.0000000000
40
0.1371102732
40
0.5026921164
40
1.0000000000
40
1.0000000000
40
1.0000000000
40
1.0000000000
10
4.6937875941
20
20.1818820781
30
0.0000000000
10
4.6999207928
20
20.1941494097
30
0.0000000000
10
4.7672962078
20
20.1718763441
30
0.0000000000
10
4.8525603516
20
20.1939313385
30
0.0000000000
10
4.9440306660
20
20.1870729009
30
0.0000000000
10
4.9937761710
20
20.1870729009
30
0.0000000000
11
4.6937875941
21
20.1818820781
31
0.0000000000
11
4.7348506782
21
20.1844811313
31
0.0000000000
11
4.8445412691
21
20.1863790246
31
0.0000000000
11
4.9937761710
21
20.1870729009
31
0.0000000000
0
SPLINE
5
43C
100
AcDbEntity
8
0
100
AcDbSpline
62
0
6
CONTINUOUS
70
0
71
3
72
10
73
6
74
4
42
0.0000001000
43
0.0000001000
44
0.0000000001
12
0.0030422152
22
-0.3030493991
32
0.0000000000
13
0.2807899531
23
-0.1206886436
33
0.0000000000
40
0.0000000000
40
0.0000000000
40
0.0000000000
40
0.0000000000
40
0.2940131188
40
0.6218497055
40
1.0000000000
40
1.0000000000
40
1.0000000000
40
1.0000000000
10
4.6833153528
20
19.4502241170
30
0.0000000000
10
4.6836135031
20
19.4205239507
30
0.0000000000
10
4.6970137289
20
19.3572383208
30
0.0000000000
10
4.7558811137
20
19.2720726596
30
0.0000000000
10
4.8167750575
20
19.2318873112
30
0.0000000000
10
4.8521686587
20
19.2166744958
30
0.0000000000
11
4.6833153528
21
19.4502241170
31
0.0000000000
11
4.7014725226
21
19.3629887105
31
0.0000000000
11
4.7570884606
21
19.2806575506
31
0.0000000000
11
4.8521686587
21
19.2166744958
31
0.0000000000
0
SPLINE
5
43D
100
AcDbEntity
8
0
100
AcDbSpline
62
0
6
CONTINUOUS
70
0
71
3
72
8
73
4
74
2
42
0.0000001000
43
0.0000001000
44
0.0000000001
12
0.0819298375
22
-0.0352149386
32
0.0000000000
13
0.0881482670
23
-0.0124556959
33
0.0000000000
40
0.0000000000
40
0.0000000000
40
0.0000000000
40
0.0000000000
40
1.0000000000
40
1.0000000000
40
1.0000000000
40
1.0000000000
10
4.8521686587
20
19.2166744958
30
0.0000000000
10
4.8794786045
20
19.2049361830
30
0.0000000000
10
4.9084417691
20
19.1969557761
30
0.0000000000
10
4.9378245248
20
19.1928038775
30
0.0000000000
11
4.8521686587
21
19.2166744958
31
0.0000000000
11
4.9378245248
21
19.1928038775
31
0.0000000000
0
SPLINE
5
43E
100
AcDbEntity
8
0
100
AcDbSpline
62
0
6
CONTINUOUS
70
0
71
3
72
8
73
4
74
2
42
0.0000001000
43
0.0000001000
44
0.0000000001
12
0.0475604216
22
-0.0067204741
32
0.0000000000
13
0.0477120147
23
0.0000000000
33
0.0000000000
40
0.0000000000
40
0.0000000000
40
0.0000000000
40
0.0000000000
40
1.0000000000
40
1.0000000000
40
1.0000000000
40
1.0000000000
10
4.9378245248
20
19.1928038775
30
0.0000000000
10
4.9536779987
20
19.1905637195
30
0.0000000000
10
4.9696536215
20
19.1894380957
30
0.0000000000
10
4.9855576264
20
19.1894380957
30
0.0000000000
11
4.9378245248
21
19.1928038775
31
0.0000000000
11
4.9855576264
21
19.1894380957
31
0.0000000000
0
SPLINE
5
43F
100
AcDbEntity
8
0
100
AcDbSpline
62
0
6
CONTINUOUS
70
0
71
3
72
8
73
4
74
2
42
0.0000001000
43
0.0000001000
44
0.0000000001
12
-0.0021741975
22
-0.0586972578
32
0.0000000000
13
-0.0027093251
23
-0.0586785670
33
0.0000000000
40
0.0000000000
40
0.0000000000
40
0.0000000000
40
0.0000000000
40
1.0000000000
40
1.0000000000
40
1.0000000000
40
1.0000000000
10
5.6772953092
20
-15.8570423059
30
0.0000000000
10
5.6765705767
20
-15.8766080585
30
0.0000000000
10
5.6757659853
20
-15.8961719807
30
0.0000000000
10
5.6748628769
20
-15.9157315030
30
0.0000000000
11
5.6772953092
21
-15.8570423059
31
0.0000000000
11
5.6748628769
21
-15.9157315030
31
0.0000000000
0
SPLINE
5
440
100
AcDbEntity
8
0
100
AcDbSpline
62
0
6
CONTINUOUS
70
0
71
3
72
8
73
4
74
2
42
0.0000001000
43
0.0000001000
44
0.0000000001
12
-0.0026928237
22
-0.0583211782
32
0.0000000000
13
-0.0033317049
23
-0.0582875315
33
0.0000000000
40
0.0000000000
40
0.0000000000
40
0.0000000000
40
0.0000000000
40
1.0000000000
40
1.0000000000
40
1.0000000000
40
1.0000000000
10
5.6748628769
20
-15.9157315030
30
0.0000000000
10
5.6739652690
20
-15.9351718958
30
0.0000000000
10
5.6729703406
20
-15.9546079421
30
0.0000000000
10
5.6718597723
20
-15.9740371193
30
0.0000000000
11
5.6748628769
21
-15.9157315030
31
0.0000000000
11
5.6718597723
21
-15.9740371193
31
0.0000000000
0
SPLINE
5
441
100
AcDbEntity
8
0
100
AcDbSpline
62
0
6
CONTINUOUS
70
0
71
3
72
9
73
5
74
3
42
0.0000001000
43
0.0000001000
44
0.0000000001
12
-0.0098776952
22
-0.1728083652
32
0.0000000000
13
-0.0161214125
23
-0.1723394578
33
0.0000000000
40
0.0000000000
40
0.0000000000
40
0.0000000000
40
0.0000000000
40
0.3352902954
40
1.0000000000
40
1.0000000000
40
1.0000000000
40
1.0000000000
10
5.6718597723
20
-15.9740371193
30
0.0000000000
10
5.6707558072
20
-15.9933507752
30
0.0000000000
10
5.6671224366
20
-16.0509333193
30
0.0000000000
10
5.6623125522
20
-16.1084334421
30
0.0000000000
10
5.6587405324
20
-16.1466186788
30
0.0000000000
11
5.6718597723
21
-15.9740371193
31
0.0000000000
11
5.6681870762
21
-16.0319552459
31
0.0000000000
11
5.6587405324
21
-16.1466186788
31
0.0000000000
0
SPLINE
5
442
100
AcDbEntity
8
0
100
AcDbSpline
62
0
6
CONTINUOUS
70
0
71
3
72
8
73
4
74
2
42
0.0000001000
43
0.0000001000
44
0.0000000001
12
-0.0053123693
22
-0.0567897414
32
0.0000000000
13
-0.0058120996
23
-0.0567374487
33
0.0000000000
40
0.0000000000
40
0.0000000000
40
0.0000000000
40
0.0000000000
40
1.0000000000
40
1.0000000000
40
1.0000000000
40
1.0000000000
10
5.6587405324
20
-16.1466186788
30
0.0000000000
10
5.6569697426
20
-16.1655485926
30
0.0000000000
10
5.6551068325
20
-16.1844697444
30
0.0000000000
10
5.6531694660
20
-16.2033822274
30
0.0000000000
11
5.6587405324
21
-16.1466186788
31
0.0000000000
11
5.6531694660
21
-16.2033822274
31
0.0000000000
0
SPLINE
5
443
100
AcDbEntity
8
0
100
AcDbSpline
62
0
6
CONTINUOUS
70
0
71
3
72
10
73
6
74
4
42
0.0000001000
43
0.0000001000
44
0.0000000001
12
0.1284179132
22
0.3350210411
32
0.0000000000
13
0.3587899921
23
-0.0000000000
33
0.0000000000
40
0.0000000000
40
0.0000000000
40
0.0000000000
40
0.0000000000
40
0.3342255691
40
0.6672833410
40
1.0000000000
40
1.0000000000
40
1.0000000000
40
1.0000000000
10
-6.7439387362
20
-11.3030687308
30
0.0000000000
10
-6.7296318862
20
-11.2657445314
30
0.0000000000
10
-6.6854000457
20
-11.1962327102
30
0.0000000000
10
-6.5843212740
20
-11.1268678097
30
0.0000000000
10
-6.5037754429
20
-11.1105619043
30
0.0000000000
10
-6.4639836404
20
-11.1105619043
30
0.0000000000
11
-6.7439387362
21
-11.3030687308
31
0.0000000000
11
-6.6794982186
21
-11.2019378450
31
0.0000000000
11
-6.5809708571
21
-11.1343206717
31
0.0000000000
11
-6.4639836404
21
-11.1105619043
31
0.0000000000
0
SPLINE
5
444
100
AcDbEntity
8
0
100
AcDbSpline
62
0
6
CONTINUOUS
70
0
71
3
72
10
73
6
74
4
42
0.0000001000
43
0.0000001000
44
0.0000000001
12
-0.3587899764
22
-0.0000000000
32
0.0000000000
13
-0.1284179075
23
0.3350210265
33
0.0000000000
40
0.0000000000
40
0.0000000000
40
0.0000000000
40
0.0000000000
40
0.3344497805
40
0.6674466338
40
1.0000000000
40
1.0000000000
40
1.0000000000
40
1.0000000000
10
-6.4639836404
20
-15.1105619043
30
0.0000000000
10
-6.5039827167
20
-15.1105619043
30
0.0000000000
10
-6.5847423146
20
-15.0941240299
30
0.0000000000
10
-6.6856718942
20
-15.0245449404
30
0.0000000000
10
-6.7297034671
20
-14.9551925345
30
0.0000000000
10
-6.7439387362
20
-14.9180550779
30
0.0000000000
11
-6.4639836404
21
-15.1105619043
31
0.0000000000
11
-6.5815548985
21
-15.0865549427
31
0.0000000000
11
-6.6799234095
21
-15.0187453959
31
0.0000000000
11
-6.7439387362
21
-14.9180550779
31
0.0000000000
0
SPLINE
5
445
100
AcDbEntity
8
0
100
AcDbSpline
62
0
6
CONTINUOUS
70
0
71
3
72
10
73
6
74
4
42
0.0000001000
43
0.0000001000
44
0.0000000001
12
-0.1497495011
22
0.0055163513
32
0.0000000000
13
-0.1142117673
23
-0.0980526771
33
0.0000000000
40
0.0000000000
40
0.0000000000
40
0.0000000000
40
0.0000000000
40
0.4674559703
40
0.9069468404
40
1.0000000000
40
1.0000000000
40
1.0000000000
40
1.0000000000
10
6.1432487318
20
-11.1364793388
30
0.0000000000
10
6.1199149657
20
-11.1356197884
30
0.0000000000
10
6.0739594484
20
-11.1415907672
30
0.0000000000
10
6.0285464476
20
-11.1644562093
30
0.0000000000
10
6.0076421363
20
-11.1811240255
30
0.0000000000
10
6.0040995477
20
-11.1841653960
30
0.0000000000
11
6.1432487318
21
-11.1364793388
31
0.0000000000
11
6.0738091733
21
-11.1456977403
31
0.0000000000
11
6.0150476410
21
-11.1754362982
31
0.0000000000
11
6.0040995477
21
-11.1841653960
31
0.0000000000
0
SPLINE
5
446
100
AcDbEntity
8
0
100
AcDbSpline
62
0
6
CONTINUOUS
70
0
71
3
72
11
73
7
74
5
42
0.0000001000
43
0.0000001000
44
0.0000000001
12
-0.1674806200
22
-0.1437848615
32
0.0000000000
13
0.0659886058
23
-0.2107391976
33
0.0000000000
40
0.0000000000
40
0.0000000000
40
0.0000000000
40
0.0000000000
40
0.2207829933
40
0.5025233441
40
0.7979316599
40
1.0000000000
40
1.0000000000
40
1.0000000000
40
1.0000000000
10
6.0040995477
20
-11.1841653960
30
0.0000000000
10
5.9917739235
20
-11.1947471467
30
0.0000000000
10
5.9667529151
20
-11.2223851309
30
0.0000000000
10
5.9414307014
20
-11.2762806282
30
0.0000000000
10
5.9357485087
20
-11.3341931878
30
0.0000000000
10
5.9427921321
20
-11.3704775141
30
0.0000000000
10
5.9472368681
20
-11.3846720874
30
0.0000000000
11
6.0040995477
21
-11.1841653960
31
0.0000000000
11
5.9715394647
21
-11.2202495049
31
0.0000000000
11
5.9452261473
21
-11.2762895733
31
0.0000000000
11
5.9388307153
21
-11.3408874459
31
0.0000000000
11
5.9472368681
21
-11.3846720874
31
0.0000000000
0
SPLINE
5
447
100
AcDbEntity
8
0
100
AcDbSpline
62
0
6
CONTINUOUS
70
0
71
3
72
8
73
4
74
2
42
0.0000001000
43
0.0000001000
44
0.0000000001
12
0.0070798766
22
-0.0226100777
32
0.0000000000
13
0.0096792519
23
-0.0214974483
33
0.0000000000
40
0.0000000000
40
0.0000000000
40
0.0000000000
40
0.0000000000
40
1.0000000000
40
1.0000000000
40
1.0000000000
40
1.0000000000
10
5.9472368681
20
-11.3846720874
30
0.0000000000
10
5.9495968270
20
-11.3922087800
30
0.0000000000
10
5.9524032563
20
-11.3995922147
30
0.0000000000
10
5.9556296736
20
-11.4067580308
30
0.0000000000
11
5.9472368681
21
-11.3846720874
31
0.0000000000
11
5.9556296736
21
-11.4067580308
31
0.0000000000
0
SPLINE
5
448
100
AcDbEntity
8
0
100
AcDbSpline
62
0
6
CONTINUOUS
70
0
71
3
72
11
73
7
74
5
42
0.0000001000
43
0.0000001000
44
0.0000000001
12
-0.0998994696
22
-0.2218749650
32
0.0000000000
13
0.1854491525
23
-0.1592177509
33
0.0000000000
40
0.0000000000
40
0.0000000000
40
0.0000000000
40
0.0000000000
40
0.2774565424
40
0.5424557079
40
0.7963574157
40
1.0000000000
40
1.0000000000
40
1.0000000000
40
1.0000000000
10
5.9556296736
20
-14.8143657779
30
0.0000000000
10
5.9463904198
20
-14.8348859981
30
0.0000000000
10
5.9350596104
20
-14.8784903576
30
0.0000000000
10
5.9412458963
20
-14.9440340009
30
0.0000000000
10
5.9663504330
20
-14.9982053775
30
0.0000000000
10
5.9915090488
20
-15.0261495278
30
0.0000000000
10
6.0040974970
20
-15.0369573659
30
0.0000000000
11
5.9556296736
21
-14.8143657779
31
0.0000000000
11
5.9388661233
21
-14.8797643453
31
0.0000000000
11
5.9449829148
21
-14.9439552235
31
0.0000000000
11
5.9709486144
21
-15.0000151558
31
0.0000000000
11
6.0040974970
21
-15.0369573659
31
0.0000000000
0
SPLINE
5
449
100
AcDbEntity
8
0
100
AcDbSpline
62
0
6
CONTINUOUS
70
0
71
3
72
10
73
6
74
4
42
0.0000001000
43
0.0000001000
44
0.0000000001
12
0.1141995932
22
-0.0980462954
32
0.0000000000
13
0.1497396858
23
0.0055159897
33
0.0000000000
40
0.0000000000
40
0.0000000000
40
0.0000000000
40
0.0000000000
40
0.0853415018
40
0.5272093497
40
1.0000000000
40
1.0000000000
40
1.0000000000
40
1.0000000000
10
6.0040974970
20
-15.0369573659
30
0.0000000000
10
6.0073461519
20
-15.0397465053
30
0.0000000000
10
6.0279874352
20
-15.0563064166
30
0.0000000000
10
6.0732928264
20
-15.0794015029
30
0.0000000000
10
6.1196502240
20
-15.0855137726
30
0.0000000000
10
6.1432487318
20
-15.0846444698
30
0.0000000000
11
6.0040974970
21
-15.0369573659
31
0.0000000000
11
6.0141137342
21
-15.0449928705
31
0.0000000000
11
6.0730397300
21
-15.0751838472
31
0.0000000000
11
6.1432487318
21
-15.0846444698
31
0.0000000000
0
SPLINE
5
44A
100
AcDbEntity
8
0
100
AcDbSpline
62
0
6
CONTINUOUS
70
0
71
3
72
10
73
6
74
4
42
0.0000001000
43
0.0000001000
44
0.0000000001
12
0.1497495011
22
-0.0055163513
32
0.0000000000
13
0.1142117673
23
0.0980526771
33
0.0000000000
40
0.0000000000
40
0.0000000000
40
0.0000000000
40
0.0000000000
40
0.4674559703
40
0.9069468404
40
1.0000000000
40
1.0000000000
40
1.0000000000
40
1.0000000000
10
-6.0002262626
20
-15.0846444698
30
0.0000000000
10
-5.9768924965
20
-15.0855040203
30
0.0000000000
10
-5.9309369791
20
-15.0795330414
30
0.0000000000
10
-5.8855239784
20
-15.0566675993
30
0.0000000000
10
-5.8646196670
20
-15.0399997831
30
0.0000000000
10
-5.8610770784
20
-15.0369584126
30
0.0000000000
11
-6.0002262626
21
-15.0846444698
31
0.0000000000
11
-5.9307867040
21
-15.0754260683
31
0.0000000000
11
-5.8720251718
21
-15.0456875104
31
0.0000000000
11
-5.8610770784
21
-15.0369584126
31
0.0000000000
0
SPLINE
5
44B
100
AcDbEntity
8
0
100
AcDbSpline
62
0
6
CONTINUOUS
70
0
71
3
72
11
73
7
74
5
42
0.0000001000
43
0.0000001000
44
0.0000000001
12
0.1674806200
22
0.1437848615
32
0.0000000000
13
-0.0659886058
23
0.2107391976
33
0.0000000000
40
0.0000000000
40
0.0000000000
40
0.0000000000
40
0.0000000000
40
0.2207829933
40
0.5025233441
40
0.7979316599
40
1.0000000000
40
1.0000000000
40
1.0000000000
40
1.0000000000
10
-5.8610770784
20
-15.0369584126
30
0.0000000000
10
-5.8487514542
20
-15.0263766619
30
0.0000000000
10
-5.8237304459
20
-14.9987386777
30
0.0000000000
10
-5.7984082321
20
-14.9448431804
30
0.0000000000
10
-5.7927260394
20
-14.8869306209
30
0.0000000000
10
-5.7997696628
20
-14.8506462945
30
0.0000000000
10
-5.8042143989
20
-14.8364517212
30
0.0000000000
11
-5.8610770784
21
-15.0369584126
31
0.0000000000
11
-5.8285169954
21
-15.0008743037
31
0.0000000000
11
-5.8022036780
21
-14.9448342353
31
0.0000000000
11
-5.7958082461
21
-14.8802363628
31
0.0000000000
11
-5.8042143989
21
-14.8364517212
31
0.0000000000
0
SPLINE
5
44C
100
AcDbEntity
8
0
100
AcDbSpline
62
0
6
CONTINUOUS
70
0
71
3
72
8
73
4
74
2
42
0.0000001000
43
0.0000001000
44
0.0000000001
12
-0.0070798766
22
0.0226100777
32
0.0000000000
13
-0.0096792519
23
0.0214974483
33
0.0000000000
40
0.0000000000
40
0.0000000000
40
0.0000000000
40
0.0000000000
40
1.0000000000
40
1.0000000000
40
1.0000000000
40
1.0000000000
10
-5.8042143989
20
-14.8364517212
30
0.0000000000
10
-5.8065743577
20
-14.8289150287
30
0.0000000000
10
-5.8093807871
20
-14.8215315940
30
0.0000000000
10
-5.8126072044
20
-14.8143657779
30
0.0000000000
11
-5.8042143989
21
-14.8364517212
31
0.0000000000
11
-5.8126072044
21
-14.8143657779
31
0.0000000000
0
SPLINE
5
44D
100
AcDbEntity
8
0
100
AcDbSpline
62
0
6
CONTINUOUS
70
0
71
3
72
11
73
7
74
5
42
0.0000001000
43
0.0000001000
44
0.0000000001
12
0.0998994696
22
0.2218749650
32
0.0000000000
13
-0.1854491525
23
0.1592177509
33
0.0000000000
40
0.0000000000
40
0.0000000000
40
0.0000000000
40
0.0000000000
40
0.2774565424
40
0.5424557079
40
0.7963574157
40
1.0000000000
40
1.0000000000
40
1.0000000000
40
1.0000000000
10
-5.8126072044
20
-11.4067580308
30
0.0000000000
10
-5.8033679506
20
-11.3862378106
30
0.0000000000
10
-5.7920371412
20
-11.3426334510
30
0.0000000000
10
-5.7982234271
20
-11.2770898077
30
0.0000000000
10
-5.8233279637
20
-11.2229184312
30
0.0000000000
10
-5.8484865795
20
-11.1949742808
30
0.0000000000
10
-5.8610750277
20
-11.1841664427
30
0.0000000000
11
-5.8126072044
21
-11.4067580308
31
0.0000000000
11
-5.7958436540
21
-11.3413594634
31
0.0000000000
11
-5.8019604456
21
-11.2771685851
31
0.0000000000
11
-5.8279261451
21
-11.2211086529
31
0.0000000000
11
-5.8610750277
21
-11.1841664427
31
0.0000000000
0
SPLINE
5
44E
100
AcDbEntity
8
0
100
AcDbSpline
62
0
6
CONTINUOUS
70
0
71
3
72
10
73
6
74
4
42
0.0000001000
43
0.0000001000
44
0.0000000001
12
-0.1141995932
22
0.0980462954
32
0.0000000000
13
-0.1497396858
23
-0.0055159897
33
0.0000000000
40
0.0000000000
40
0.0000000000
40
0.0000000000
40
0.0000000000
40
0.0853415018
40
0.5272093497
40
1.0000000000
40
1.0000000000
40
1.0000000000
40
1.0000000000
10
-5.8610750277
20
-11.1841664427
30
0.0000000000
10
-5.8643236827
20
-11.1813773034
30
0.0000000000
10
-5.8849649659
20
-11.1648173920
30
0.0000000000
10
-5.9302703571
20
-11.1417223058
30
0.0000000000
10
-5.9766277548
20
-11.1356100361
30
0.0000000000
10
-6.0002262626
20
-11.1364793388
30
0.0000000000
11
-5.8610750277
21
-11.1841664427
31
0.0000000000
11
-5.8710912650
21
-11.1761309382
31
0.0000000000
11
-5.9300172607
21
-11.1459399614
31
0.0000000000
11
-6.0002262626
21
-11.1364793388
31
0.0000000000
0
SPLINE
5
44F
100
AcDbEntity
8
0
100
AcDbSpline
62
0
6
CONTINUOUS
70
0
71
3
72
10
73
6
74
4
42
0.0000001000
43
0.0000001000
44
0.0000000001
12
0.3587899764
22
0.0000000000
32
0.0000000000
13
0.1284179075
23
-0.3350210265
33
0.0000000000
40
0.0000000000
40
0.0000000000
40
0.0000000000
40
0.0000000000
40
0.3344497805
40
0.6674466338
40
1.0000000000
40
1.0000000000
40
1.0000000000
40
1.0000000000
10
6.6070061097
20
-11.1105619043
30
0.0000000000
10
6.6470051860
20
-11.1105619043
30
0.0000000000
10
6.7277647839
20
-11.1269997788
30
0.0000000000
10
6.8286943635
20
-11.1965788682
30
0.0000000000
10
6.8727259364
20
-11.2659312741
30
0.0000000000
10
6.8869612055
20
-11.3030687308
30
0.0000000000
11
6.6070061097
21
-11.1105619043
31
0.0000000000
11
6.7245773677
21
-11.1345688660
31
0.0000000000
11
6.8229458788
21
-11.2023784128
31
0.0000000000
11
6.8869612055
21
-11.3030687308
31
0.0000000000
0
SPLINE
5
450
100
AcDbEntity
8
0
100
AcDbSpline
62
0
6
CONTINUOUS
70
0
71
3
72
10
73
6
74
4
42
0.0000001000
43
0.0000001000
44
0.0000000001
12
-0.1284179132
22
-0.3350210411
32
0.0000000000
13
-0.3587899921
23
0.0000000000
33
0.0000000000
40
0.0000000000
40
0.0000000000
40
0.0000000000
40
0.0000000000
40
0.3342255691
40
0.6672833410
40
1.0000000000
40
1.0000000000
40
1.0000000000
40
1.0000000000
10
6.8869612055
20
-14.9180550779
30
0.0000000000
10
6.8726543555
20
-14.9553792772
30
0.0000000000
10
6.8284225150
20
-15.0248910984
30
0.0000000000
10
6.7273437433
20
-15.0942559990
30
0.0000000000
10
6.6467979122
20
-15.1105619043
30
0.0000000000
10
6.6070061097
20
-15.1105619043
30
0.0000000000
11
6.8869612055
21
-14.9180550779
31
0.0000000000
11
6.8225206879
21
-15.0191859636
31
0.0000000000
11
6.7239933264
21
-15.0868031369
31
0.0000000000
11
6.6070061097
21
-15.1105619043
31
0.0000000000
0
ENDSEC
0
SECTION
2
OBJECTS
0
DICTIONARY
5
C
100
AcDbDictionary
280
0
281
1
3
ACAD_GROUP
350
D
3
ACAD_MLINESTYLE
350
17
3
ACAD_LAYOUT
350
1A
3
ACAD_PLOTSETTINGS
350
19
3
ACAD_PLOTSTYLENAME
350
E
0
DICTIONARY
5
D
102
{ACAD_REACTORS
330
C
102
}
100
AcDbDictionary
280
0
281
1
0
ACDBDICTIONARYWDFLT
5
E
102
{ACAD_REACTORS
330
C
102
}
100
AcDbDictionary
281
1
3
Normal
350
F
100
AcDbDictionaryWithDefault
340
F
0
DICTIONARY
5
17
102
{ACAD_REACTORS
330
C
102
}
100
AcDbDictionary
280
0
281
1
3
Standard
350
18
0
DICTIONARY
5
19
102
{ACAD_REACTORS
330
C
102
}
100
AcDbDictionary
281
1
0
DICTIONARY
5
1A
102
{ACAD_REACTORS
330
C
102
}
100
AcDbDictionary
281
1
3
Layout1
350
1E
3
Model
350
22
0
ACDBPLACEHOLDER
5
F
102
{ACAD_REACTORS
330
E
102
}
0
MLINESTYLE
5
18
102
{ACAD_REACTORS
330
17
102
}
100
AcDbMlineStyle
2
STANDARD
70
0
3

62
256
51
90.0
52
90.0
71
2
49
0.5
62
256
6
BYLAYER
49
-0.5
62
256
6
BYLAYER
0
LAYOUT
5
1E
102
{ACAD_REACTORS
330
1A
102
}
100
AcDbPlotSettings
1

2

4

6

40
0.0
41
0.0
42
0.0
43
0.0
44
0.0
45
0.0
46
0.0
47
0.0
48
0.0
49
0.0
140
0.0
141
0.0
142
1.0
143
1.0
70
0
72
0
73
0
74
0
7

75
0
147
1.0
148
0.0
149
0.0
100
AcDbLayout
1
Layout1
70
0
71
0
10
0.0
20
0.0
11
0.0
21
0.0
12
0.0
22
0.0
32
0.0
14
0.0
24
0.0
34
0.0
15
0.0
25
0.0
35
0.0
146
0.0
13
0.0
23
0.0
33
0.0
16
0.0
26
0.0
36
0.0
17
0.0
27
0.0
37
0.0
76
0
330
1B
331
0
345
0
346
0
0
LAYOUT
5
22
102
{ACAD_REACTORS
330
1A
102
}
100
AcDbPlotSettings
1

2

4

6

40
0.0
41
0.0
42
0.0
43
0.0
44
0.0
45
0.0
46
0.0
47
0.0
48
0.0
49
0.0
140
0.0
141
0.0
142
1.0
143
1.0
70
0
72
0
73
0
74
0
7

75
0
147
1.0
148
0.0
149
0.0
100
AcDbLayout
1
Model
70
0
71
0
10
0.0
20
0.0
11
0.0
21
0.0
12
0.0
22
0.0
32
0.0
14
0.0
24
0.0
34
0.0
15
0.0
25
0.0
35
0.0
146
0.0
13
0.0
23
0.0
33
0.0
16
0.0
26
0.0
36
0.0
17
0.0
27
0.0
37
0.0
76
0
330
1F
331
0
345
0
346
0
0
ENDSEC
0
EOF
