0
SECTION
2
HEADER
9
$ACADVER
1
AC1015
9
$DWGCODEPAGE
3
ANSI_1252
9
$EXTMAX
10
431.8000000000
20
558.8000000000
30
0.0000000000
9
$EXTMIN
10
0.0000000000
20
0.0000000000
30
0.0000000000
9
$LIMMIN
10
0.0000000000
20
0.0000000000
9
$LIMMAX
10
431.8000000000
20
558.8000000000
9
$VIEWCTR
10
215.9000000000
20
279.4000000000
9
$VIEWSIZE
40
558.8000000000
9
$CLAYER
8
0
9
$LTSCALE
40
36.4254814815
9
$CELTYPE
6
BYLAYER
9
$DIMSCALE
40
1
9
$DIMASZ
40
3.0000000000
9
$DIMEXO
40
4.1392592593
9
$DIMDLI
40
25.1666962963
9
$DIMEXE
40
11.9210666667
9
$DIMCEN
40
5.9605333333
9
$DIMLFAC
40
1.0000000000
9
$DIMBLK
1
_FILLED
9
$DIMTXT
40
3.0000000000
9
$DIMTOL
70
1
9
$DIMLIM
70
0
9
$DIMTFAC
40
1.0000000000
9
$DIMTP
40
0.0100000000
9
$DIMTM
40
0.0100000000
9
$PDMODE
70
3
9
$PDSIZE
40
3.0000000000
9
$HANDSEED
5
538
9
$MEASUREMENT
70
1
9
$INSUNITS
70
4
0
ENDSEC
0
SECTION
2
CLASSES
0
CLASS
1
ACDBDICTIONARYWDFLT
2
AcDbDictionaryWithDefault
3
AutoCAD 2000
90
0
280
0
281
0
0
CLASS
1
ACDBPLACEHOLDER
2
AcDbPlaceHolder
3
AutoCAD 2000
90
0
280
0
281
0
0
CLASS
1
LAYOUT
2
AcDbLayout
3
AutoCAD 2000
90
0
280
0
281
0
0
ENDSEC
0
SECTION
2
TABLES
0
TABLE
2
VPORT
5
8
100
AcDbSymbolTable
70
2
0
VPORT
5
1F4
100
AcDbSymbolTableRecord
100
AcDbViewportTableRecord
2
*ACTIVE
70
0
10
0.0
20
0.0
11
1.0
21
1.0
12
215.9000000000
22
279.4000000000
13
0.0
23
0.0
14
1.0
24
1.0
15
0.0
25
0.0
16
0.0
26
0.0
36
1.0
17
0.0
27
0.0
37
0.0
40
558.8000000000
41
0.7727272727
42
50.0
43
0.0
44
0.0
50
0.0
51
0.0
71
0
72
100
73
1
74
1
75
0
76
0
77
0
78
0
0
ENDTAB
0
TABLE
2
LTYPE
5
5
100
AcDbSymbolTable
70
6
0
LTYPE
5
14
100
AcDbSymbolTableRecord
100
AcDbLinetypeTableRecord
2
BYBLOCK
70
0
3

72
65
73
0
40
0.0
0
LTYPE
5
15
100
AcDbSymbolTableRecord
100
AcDbLinetypeTableRecord
2
BYLAYER
70
0
3

72
65
73
0
40
0.0
0
LTYPE
5
16
100
AcDbSymbolTableRecord
100
AcDbLinetypeTableRecord
2
CONTINUOUS
70
64
3
Solid line
72
65
73
0
40
0
0
LTYPE
5
1F5
100
AcDbSymbolTableRecord
100
AcDbLinetypeTableRecord
2
CENTER
70
64
3
____ _ ____ _ ____ _ ____ _ ____ _ ____ _ ____
72
65
73
4
40
0.6
49
0.375
74
0
49
-0.075
74
0
49
0.075
74
0
49
-0.075
74
0
0
LTYPE
5
1F6
100
AcDbSymbolTableRecord
100
AcDbLinetypeTableRecord
2
HIDDEN
70
64
3
- - - - - - - - - - - - - - - - - - - -
72
65
73
2
40
0.2
49
0.1
74
0
49
-0.1
74
0
0
LTYPE
5
1F7
100
AcDbSymbolTableRecord
100
AcDbLinetypeTableRecord
2
PHANTOM
70
64
3
_____ _ _ _____ _ _ _____ _ _ _____
72
65
73
6
40
0.8
49
0.45
74
0
49
-0.05
74
0
49
0.1
74
0
49
-0.05
74
0
49
0.1
74
0
49
-0.05
74
0
0
LTYPE
5
1F8
100
AcDbSymbolTableRecord
100
AcDbLinetypeTableRecord
2
DOT
70
64
3
. . . . . . . . . . . . . . . . . . . .
72
65
73
2
40
0.2
49
0.1
74
0
49
-0.1
74
0
0
LTYPE
5
1F9
100
AcDbSymbolTableRecord
100
AcDbLinetypeTableRecord
2
DASHED
70
64
3
- - - - - - - - - - - - - - - - - - - -
72
65
73
2
40
0.2
49
0.1
74
0
49
-0.1
74
0
0
ENDTAB
0
TABLE
2
LAYER
5
2
100
AcDbSymbolTable
70
36
0
LAYER
5
10
100
AcDbSymbolTableRecord
100
AcDbLayerTableRecord
2
0
70
0
62
7
6
CONTINUOUS
370
-3
390
F
0
LAYER
5
1FA
100
AcDbSymbolTableRecord
100
AcDbLayerTableRecord
2
DEFAULT_1
70
0
62
7
6
CENTER
370
-3
390
F
0
LAYER
5
1FB
100
AcDbSymbolTableRecord
100
AcDbLayerTableRecord
2
DEFAULT_2
70
0
62
9
6
HIDDEN
370
-3
390
F
0
LAYER
5
1FC
100
AcDbSymbolTableRecord
100
AcDbLayerTableRecord
2
DEFAULT_3
70
0
62
7
6
PHANTOM
370
-3
390
F
0
LAYER
5
1FD
100
AcDbSymbolTableRecord
100
AcDbLayerTableRecord
2
_2D_DELETED_OBJS
70
0
62
7
6
CONTINUOUS
370
-3
390
F
0
LAYER
5
1FE
100
AcDbSymbolTableRecord
100
AcDbLayerTableRecord
2
_BLACK_HOLE
70
0
62
7
6
CONTINUOUS
370
-3
390
F
0
LAYER
5
1FF
100
AcDbSymbolTableRecord
100
AcDbLayerTableRecord
2
ASSI
70
0
62
7
6
CONTINUOUS
370
-3
390
F
0
LAYER
5
200
100
AcDbSymbolTableRecord
100
AcDbLayerTableRecord
2
COORDINATE
70
0
62
7
6
CONTINUOUS
370
-3
390
F
0
LAYER
5
201
100
AcDbSymbolTableRecord
100
AcDbLayerTableRecord
2
COORD_ORIGINE
70
0
62
7
6
CONTINUOUS
370
-3
390
F
0
LAYER
5
202
100
AcDbSymbolTableRecord
100
AcDbLayerTableRecord
2
CURVE
70
0
62
7
6
CONTINUOUS
370
-3
390
F
0
LAYER
5
203
100
AcDbSymbolTableRecord
100
AcDbLayerTableRecord
2
DRAFT
70
0
62
7
6
CONTINUOUS
370
-3
390
F
0
LAYER
5
204
100
AcDbSymbolTableRecord
100
AcDbLayerTableRecord
2
NOTE
70
0
62
7
6
CONTINUOUS
370
-3
390
F
0
LAYER
5
205
100
AcDbSymbolTableRecord
100
AcDbLayerTableRecord
2
PIANI
70
0
62
7
6
CONTINUOUS
370
-3
390
F
0
LAYER
5
206
100
AcDbSymbolTableRecord
100
AcDbLayerTableRecord
2
PIANI_ORIGINE
70
0
62
7
6
CONTINUOUS
370
-3
390
F
0
LAYER
5
207
100
AcDbSymbolTableRecord
100
AcDbLayerTableRecord
2
PUNTI
70
0
62
7
6
CONTINUOUS
370
-3
390
F
0
LAYER
5
208
100
AcDbSymbolTableRecord
100
AcDbLayerTableRecord
2
RACCORDO
70
0
62
7
6
CONTINUOUS
370
-3
390
F
0
LAYER
5
209
100
AcDbSymbolTableRecord
100
AcDbLayerTableRecord
2
SMUSSO
70
0
62
7
6
CONTINUOUS
370
-3
390
F
0
LAYER
5
20A
100
AcDbSymbolTableRecord
100
AcDbLayerTableRecord
2
SUPERFICI
70
0
62
7
6
CONTINUOUS
370
-3
390
F
0
LAYER
5
20B
100
AcDbSymbolTableRecord
100
AcDbLayerTableRecord
2
TRASH
70
0
62
7
6
CONTINUOUS
370
-3
390
F
0
ENDTAB
0
TABLE
2
STYLE
5
3
100
AcDbSymbolTable
70
1
0
STYLE
5
11
100
AcDbSymbolTableRecord
100
AcDbTextStyleTableRecord
2
STANDARD
70
0
40
0.0
41
0.8000000000
50
0.0
71
0
42
0.2
3
txt
4

0
ENDTAB
0
TABLE
2
VIEW
5
6
100
AcDbSymbolTable
70
0
0
ENDTAB
0
TABLE
2
UCS
5
7
100
AcDbSymbolTable
70
0
0
ENDTAB
0
TABLE
2
APPID
5
9
100
AcDbSymbolTable
70
1
0
APPID
5
20C
100
AcDbSymbolTableRecord
100
AcDbRegAppTableRecord
2
ACAD
70
0
0
ENDTAB
0
TABLE
2
BLOCK_RECORD
5
1
100
AcDbSymbolTable
70
0
0
BLOCK_RECORD
5
1F
100
AcDbSymbolTableRecord
100
AcDbBlockTableRecord
2
*MODEL_SPACE
0
BLOCK_RECORD
5
1B
100
AcDbSymbolTableRecord
100
AcDbBlockTableRecord
2
*PAPER_SPACE
0
ENDTAB
0
TABLE
2
DIMSTYLE
5
A
100
AcDbSymbolTable
70
1
100
AcDbDimStyleTable
71
0
0
DIMSTYLE
105
20D
100
AcDbSymbolTableRecord
100
AcDbDimStyleTableRecord
2
STANDARD
70
0
3

4

40
1.0
41
3.0000000000
42
0.0625
43
0.38
44
0.18
45
0.0
46
0.0
47
0.0100000000
48
0.0100000000
140
3.0000000000
141
0.09
142
0.0
143
25.4
144
1.0000000000
145
0.0
146
1.0000000000
147
0.09
71
1
72
0
73
0
74
0
75
0
76
0
77
1
78
8
170
0
171
2
172
0
173
0
174
0
175
0
176
0
177
0
178
0
270
2
271
2
272
2
273
2
274
2
275
0
280
0
281
0
282
0
283
1
284
8
285
0
286
0
287
3
288
0
340
11
0
ENDTAB
0
ENDSEC
0
SECTION
2
BLOCKS
0
BLOCK
5
20
100
AcDbEntity
8
0
100
AcDbBlockBegin
2
*MODEL_SPACE
70
0
10
0.0
20
0.0
30
0.0
3
*MODEL_SPACE
1

0
ENDBLK
5
21
100
AcDbEntity
8
0
100
AcDbBlockEnd
0
BLOCK
5
1C
100
AcDbEntity
8
0
100
AcDbBlockBegin
2
*PAPER_SPACE
70
0
10
0.0
20
0.0
30
0.0
3
*PAPER_SPACE
1

0
ENDBLK
5
1D
100
AcDbEntity
8
0
100
AcDbBlockEnd
0
ENDSEC
0
SECTION
2
ENTITIES
0
LINE
5
20E
100
AcDbEntity
8
0
100
AcDbLine
62
0
6
CONTINUOUS
10
-10.4091057458
20
-21.7260656901
11
-10.3582075263
21
-21.7379512372
0
LINE
5
20F
100
AcDbEntity
8
0
100
AcDbLine
62
0
6
CONTINUOUS
10
-10.4593378059
20
-21.7108306827
11
-10.4091057458
21
-21.7260656901
0
LINE
5
210
100
AcDbEntity
8
0
100
AcDbLine
62
0
6
CONTINUOUS
10
-2.4356301463
20
-12.6578606390
11
-2.4378894132
21
-12.6571278692
0
LINE
5
211
100
AcDbEntity
8
0
100
AcDbLine
62
0
6
CONTINUOUS
10
-0.8743931584
20
-15.4283899008
11
-0.8520347994
21
-15.4356980652
0
LINE
5
212
100
AcDbEntity
8
0
100
AcDbLine
62
0
6
CONTINUOUS
10
-2.2798571507
20
-10.9386070683
11
-2.4409354685
21
-10.8814073576
0
LINE
5
213
100
AcDbEntity
8
0
100
AcDbLine
62
0
6
CONTINUOUS
10
-1.6555641980
20
-11.3056880236
11
-1.6582833628
21
-11.3046930608
0
LINE
5
214
100
AcDbEntity
8
0
100
AcDbLine
62
0
6
CONTINUOUS
10
-10.5082629745
20
-21.6924400240
11
-10.4593378059
21
-21.7108306827
0
LINE
5
215
100
AcDbEntity
8
0
100
AcDbLine
62
0
6
CONTINUOUS
10
-2.4378894132
20
-12.6571278692
11
-2.4416232574
21
-12.6555393674
0
LINE
5
216
100
AcDbEntity
8
0
100
AcDbLine
62
0
6
CONTINUOUS
10
-2.4409354685
20
-10.8814073576
11
-2.4449293635
21
-10.8796945315
0
LINE
5
217
100
AcDbEntity
8
0
100
AcDbLine
62
0
6
CONTINUOUS
10
-1.6582833628
20
-11.3046930608
11
-1.6624953837
21
-11.3028376344
0
LINE
5
218
100
AcDbEntity
8
0
100
AcDbLine
62
0
6
CONTINUOUS
10
-10.5558646110
20
-21.6708531927
11
-10.5082629745
21
-21.6924400240
0
LINE
5
219
100
AcDbEntity
8
0
100
AcDbLine
62
0
6
CONTINUOUS
10
-1.6624953837
20
-11.3028376344
11
-1.7294275515
21
-11.2718990507
0
LINE
5
21A
100
AcDbEntity
8
0
100
AcDbLine
62
0
6
CONTINUOUS
10
-2.4416232574
20
-12.6555393674
11
-2.4468260009
21
-12.6530974294
0
LINE
5
21B
100
AcDbEntity
8
0
100
AcDbLine
62
0
6
CONTINUOUS
10
-2.4449293635
20
-10.8796945315
11
-2.4513171068
21
-10.8765797911
0
LINE
5
21C
100
AcDbEntity
8
0
100
AcDbLine
62
0
6
CONTINUOUS
10
-2.4468260009
20
-12.6530974294
11
-2.4535033217
21
-12.6497997594
0
LINE
5
21D
100
AcDbEntity
8
0
100
AcDbLine
62
0
6
CONTINUOUS
10
-2.4535033217
20
-12.6497997594
11
-2.4616552200
21
-12.6456463574
0
LINE
5
21E
100
AcDbEntity
8
0
100
AcDbLine
62
0
6
CONTINUOUS
10
-2.4513171068
20
-10.8765797911
11
-2.4600986985
21
-10.8720631364
0
LINE
5
21F
100
AcDbEntity
8
0
100
AcDbLine
62
0
6
CONTINUOUS
10
-2.4689350933
20
-12.6418258005
11
-2.4616552200
21
-12.6456463574
0
LINE
5
220
100
AcDbEntity
8
0
100
AcDbLine
62
0
6
CONTINUOUS
10
-2.4600986985
20
-10.8720631364
11
-2.4714096555
21
-10.8660719392
0
LINE
5
221
100
AcDbEntity
8
0
100
AcDbLine
62
0
6
CONTINUOUS
10
-10.6021593561
20
-21.6461107101
11
-10.5558646110
21
-21.6708531927
0
LINE
5
222
100
AcDbEntity
8
0
100
AcDbLine
62
0
6
CONTINUOUS
10
-2.4777095314
20
-12.6371180618
11
-2.4689350933
21
-12.6418258005
0
LINE
5
223
100
AcDbEntity
8
0
100
AcDbLine
62
0
6
CONTINUOUS
10
-2.4714096555
20
-10.8660719392
11
-2.4851144609
21
-10.8586788278
0
LINE
5
224
100
AcDbEntity
8
0
100
AcDbLine
62
0
6
CONTINUOUS
10
-2.4879785342
20
-12.6315231412
11
-2.4777095314
21
-12.6371180618
0
LINE
5
225
100
AcDbEntity
8
0
100
AcDbLine
62
0
6
CONTINUOUS
10
-2.4851144609
20
-10.8586788278
11
-2.5008065639
21
-10.8501016866
0
LINE
5
226
100
AcDbEntity
8
0
100
AcDbLine
62
0
6
CONTINUOUS
10
-2.5132287851
20
-12.6175455532
11
-2.4879785342
21
-12.6315231412
0
LINE
5
227
100
AcDbEntity
8
0
100
AcDbLine
62
0
6
CONTINUOUS
10
-2.5008065639
20
-10.8501016866
11
-2.5382246866
21
-10.8293500788
0
LINE
5
228
100
AcDbEntity
8
0
100
AcDbLine
62
0
6
CONTINUOUS
10
-2.5434711149
20
-12.6005622859
11
-2.5132287851
21
-12.6175455532
0
LINE
5
229
100
AcDbEntity
8
0
100
AcDbLine
62
0
6
CONTINUOUS
10
-2.5382246866
20
-10.8293500788
11
-2.5821197922
21
-10.8046773803
0
LINE
5
22A
100
AcDbEntity
8
0
100
AcDbLine
62
0
6
CONTINUOUS
10
-3.5716551543
20
3.2950208369
11
-3.6171785006
21
3.3209080728
0
LINE
5
22B
100
AcDbEntity
8
0
100
AcDbLine
62
0
6
CONTINUOUS
10
-2.5959703310
20
-12.5706955702
11
-2.5434711149
21
-12.6005622859
0
LINE
5
22C
100
AcDbEntity
8
0
100
AcDbLine
62
0
6
CONTINUOUS
10
-2.5821197922
20
-10.8046773803
11
-2.6566842843
21
-10.7622422045
0
LINE
5
22D
100
AcDbEntity
8
0
100
AcDbLine
62
0
6
CONTINUOUS
10
-3.0656400338
20
-12.2996229456
11
-2.5959703310
21
-12.5706955702
0
LINE
5
22E
100
AcDbEntity
8
0
100
AcDbLine
62
0
6
CONTINUOUS
10
-3.4597871495
20
-12.0307434878
11
-2.4969357870
21
-12.5866459811
0
LINE
5
22F
100
AcDbEntity
8
0
100
AcDbLine
62
0
6
CONTINUOUS
10
-1.7469357870
20
-11.2876078755
11
-2.7097871495
21
-10.7317053821
0
LINE
5
230
100
AcDbEntity
8
0
100
AcDbLine
62
0
6
CONTINUOUS
10
-1.8102665304
20
-11.2098166440
11
-2.2798571507
21
-10.9386070683
0
LINE
5
231
100
AcDbEntity
8
0
100
AcDbLine
62
0
6
CONTINUOUS
10
-1.7581515792
20
-11.2403489461
11
-1.8102665304
21
-11.2098166440
0
LINE
5
232
100
AcDbEntity
8
0
100
AcDbLine
62
0
6
CONTINUOUS
10
-3.3815054047
20
-12.0762076233
11
-3.3103288469
21
-12.1180803561
0
LINE
5
233
100
AcDbEntity
8
0
100
AcDbLine
62
0
6
CONTINUOUS
10
-1.7283224737
20
-11.2580479380
11
-1.7581515792
21
-11.2403489461
0
LINE
5
234
100
AcDbEntity
8
0
100
AcDbLine
62
0
6
CONTINUOUS
10
-3.9252326947
20
3.0455530578
11
-3.9007250468
21
3.0309617830
0
LINE
5
235
100
AcDbEntity
8
0
100
AcDbLine
62
0
6
CONTINUOUS
10
-3.3103288469
20
-12.1180803561
11
-3.2700849367
21
-12.1420828417
0
LINE
5
236
100
AcDbEntity
8
0
100
AcDbLine
62
0
6
CONTINUOUS
10
-1.7035924124
20
-11.2729264964
11
-1.7283224737
21
-11.2580479380
0
LINE
5
237
100
AcDbEntity
8
0
100
AcDbLine
62
0
6
CONTINUOUS
10
-3.2700849367
20
-12.1420828417
11
-3.2527407878
21
-12.1525410744
0
LINE
5
238
100
AcDbEntity
8
0
100
AcDbLine
62
0
6
CONTINUOUS
10
-3.2527407878
20
-12.1525410744
11
-3.2374596989
21
-12.1618467903
0
LINE
5
239
100
AcDbEntity
8
0
100
AcDbLine
62
0
6
CONTINUOUS
10
-1.6936125665
20
-11.2790222541
11
-1.7035924124
21
-11.2729264964
0
LINE
5
23A
100
AcDbEntity
8
0
100
AcDbLine
62
0
6
CONTINUOUS
10
-3.2374596989
20
-12.1618467903
11
-3.2242014997
21
-12.1700212746
0
LINE
5
23B
100
AcDbEntity
8
0
100
AcDbLine
62
0
6
CONTINUOUS
10
-1.6851483219
20
-11.2842672735
11
-1.6936125665
21
-11.2790222541
0
LINE
5
23C
100
AcDbEntity
8
0
100
AcDbLine
62
0
6
CONTINUOUS
10
-10.6465564002
20
-21.6185279490
11
-10.6021593561
21
-21.6461107101
0
LINE
5
23D
100
AcDbEntity
8
0
100
AcDbLine
62
0
6
CONTINUOUS
10
-3.2242014997
20
-12.1700212746
11
-3.2133587352
21
-12.1768207082
0
LINE
5
23E
100
AcDbEntity
8
0
100
AcDbLine
62
0
6
CONTINUOUS
10
-1.6781996789
20
-11.2886615547
11
-1.6851483219
21
-11.2842672735
0
LINE
5
23F
100
AcDbEntity
8
0
100
AcDbLine
62
0
6
CONTINUOUS
10
-3.2133587352
20
-12.1768207082
11
-3.2050622538
21
-12.1821638181
0
LINE
5
240
100
AcDbEntity
8
0
100
AcDbLine
62
0
6
CONTINUOUS
10
-1.6781996789
20
-11.2886615547
11
-1.6705267781
21
-11.2936446046
0
LINE
5
241
100
AcDbEntity
8
0
100
AcDbLine
62
0
6
CONTINUOUS
10
-1.6705267781
20
-11.2936446046
11
-1.6643322516
21
-11.2977784991
0
LINE
5
242
100
AcDbEntity
8
0
100
AcDbLine
62
0
6
CONTINUOUS
10
-3.2050622538
20
-12.1821638181
11
-3.1991812072
21
-12.1861318772
0
LINE
5
243
100
AcDbEntity
8
0
100
AcDbLine
62
0
6
CONTINUOUS
10
-1.6643322516
20
-11.2977784991
11
-1.6596160995
21
-11.3010632382
0
LINE
5
244
100
AcDbEntity
8
0
100
AcDbLine
62
0
6
CONTINUOUS
10
-3.5301984769
20
3.2660561115
11
-3.5716551543
21
3.2950208369
0
LINE
5
245
100
AcDbEntity
8
0
100
AcDbLine
62
0
6
CONTINUOUS
10
-2.5017859105
20
-12.6096629703
11
-2.4415262272
21
-12.6521586360
0
LINE
5
246
100
AcDbEntity
8
0
100
AcDbLine
62
0
6
CONTINUOUS
10
-10.6890314035
20
-21.5880684422
11
-10.6465564002
21
-21.6185279490
0
LINE
5
247
100
AcDbEntity
8
0
100
AcDbLine
62
0
6
CONTINUOUS
10
-2.4415262272
20
-12.6521586360
11
-2.4378133704
21
-12.6548786399
0
LINE
5
248
100
AcDbEntity
8
0
100
AcDbLine
62
0
6
CONTINUOUS
10
-3.1991812072
20
-12.1861318772
11
-3.1957155953
21
-12.1887248857
0
LINE
5
249
100
AcDbEntity
8
0
100
AcDbLine
62
0
6
CONTINUOUS
10
-1.6596160995
20
-11.3010632382
11
-1.6563734945
21
-11.3035025912
0
LINE
5
24A
100
AcDbEntity
8
0
100
AcDbLine
62
0
6
CONTINUOUS
10
-3.9007250468
20
3.0309617830
11
-3.8780725078
21
3.0130197639
0
LINE
5
24B
100
AcDbEntity
8
0
100
AcDbLine
62
0
6
CONTINUOUS
10
-10.7296087058
20
-21.5547686569
11
-10.6890314035
21
-21.5880684422
0
LINE
5
24C
100
AcDbEntity
8
0
100
AcDbLine
62
0
6
CONTINUOUS
10
-2.4378133704
20
-12.6548786399
11
-2.4355921249
21
-12.6567360243
0
LINE
5
24D
100
AcDbEntity
8
0
100
AcDbLine
62
0
6
CONTINUOUS
10
-3.1957155953
20
-12.1887248857
11
-3.0656400338
21
-12.2996229456
0
LINE
5
24E
100
AcDbEntity
8
0
100
AcDbLine
62
0
6
CONTINUOUS
10
-3.4927317133
20
3.2339507792
11
-3.5301984769
21
3.2660561115
0
LINE
5
24F
100
AcDbEntity
8
0
100
AcDbLine
62
0
6
CONTINUOUS
10
1.5253579527
20
-11.2718990507
11
1.5428661883
21
-11.2876078755
0
LINE
5
250
100
AcDbEntity
8
0
100
AcDbLine
62
0
6
CONTINUOUS
10
-1.6563734945
20
-11.3035025912
11
-1.6546092639
21
-11.3050927888
0
LINE
5
251
100
AcDbEntity
8
0
100
AcDbLine
62
0
6
CONTINUOUS
10
-10.7677705167
20
-21.5190533677
11
-10.7296087058
21
-21.5547686569
0
LINE
5
252
100
AcDbEntity
8
0
100
AcDbLine
62
0
6
CONTINUOUS
10
-3.4593089091
20
3.1989077378
11
-3.4927317133
21
3.2339507792
0
LINE
5
253
100
AcDbEntity
8
0
100
AcDbLine
62
0
6
CONTINUOUS
10
-10.8034858345
20
-21.4808915698
11
-10.7677705167
21
-21.5190533677
0
LINE
5
254
100
AcDbEntity
8
0
100
AcDbLine
62
0
6
CONTINUOUS
10
-3.8780725078
20
3.0130197639
11
-3.8579751167
21
2.9912670804
0
LINE
5
255
100
AcDbEntity
8
0
100
AcDbLine
62
0
6
CONTINUOUS
10
-10.8367856609
20
-21.4403142680
11
-10.8034858345
21
-21.4808915698
0
LINE
5
256
100
AcDbEntity
8
0
100
AcDbLine
62
0
6
CONTINUOUS
10
0.6785115464
20
-15.3463885474
11
0.6789860831
21
-15.3469984940
0
LINE
5
257
100
AcDbEntity
8
0
100
AcDbLine
62
0
6
CONTINUOUS
10
-10.8672452114
20
-21.3978392518
11
-10.8367856609
21
-21.4403142680
0
LINE
5
258
100
AcDbEntity
8
0
100
AcDbLine
62
0
6
CONTINUOUS
10
-2.4355921249
20
-12.6567360243
11
-2.4348646487
21
-12.6577546515
0
LINE
5
259
100
AcDbEntity
8
0
100
AcDbLine
62
0
6
CONTINUOUS
10
-10.8948280186
20
-21.3534421779
11
-10.8672452114
21
-21.3978392518
0
LINE
5
25A
100
AcDbEntity
8
0
100
AcDbLine
62
0
6
CONTINUOUS
10
-10.3068567247
20
-21.7464227209
11
-10.2548397637
21
-21.7515447443
0
LINE
5
25B
100
AcDbEntity
8
0
100
AcDbLine
62
0
6
CONTINUOUS
10
6.8979652006
20
-20.0533173073
11
9.4979652006
21
-20.4533173073
0
LINE
5
25C
100
AcDbEntity
8
0
100
AcDbLine
62
0
6
CONTINUOUS
10
-10.3582075263
20
-21.7379512372
11
-10.3068567247
21
-21.7464227209
0
LINE
5
25D
100
AcDbEntity
8
0
100
AcDbLine
62
0
6
CONTINUOUS
10
-3.9796494961
20
3.0637046722
11
-3.9515135409
21
3.0563042371
0
LINE
5
25E
100
AcDbEntity
8
0
100
AcDbLine
62
0
6
CONTINUOUS
10
-3.7211912584
20
3.3634953591
11
-3.7782253092
21
3.3801679602
0
LINE
5
25F
100
AcDbEntity
8
0
100
AcDbLine
62
0
6
CONTINUOUS
10
-5.2133801823
20
18.4129935111
11
-5.2557939499
21
18.4284313321
0
LINE
5
260
100
AcDbEntity
8
0
100
AcDbLine
62
9
6
CONTINUOUS
10
-5.1272853188
20
18.7004029744
11
-5.1370056156
21
18.7039412043
0
LINE
5
261
100
AcDbEntity
8
0
100
AcDbLine
62
0
6
CONTINUOUS
10
-3.6671515450
20
3.3437404607
11
-3.7211912584
21
3.3634953591
0
LINE
5
262
100
AcDbEntity
8
0
100
AcDbLine
62
0
6
CONTINUOUS
10
-3.9515135409
20
3.0563042371
11
-3.9252326947
21
3.0455530578
0
LINE
5
263
100
AcDbEntity
8
0
100
AcDbLine
62
0
6
CONTINUOUS
10
-5.2426996743
20
18.4221490987
11
-5.2713189878
21
18.4343236711
0
LINE
5
264
100
AcDbEntity
8
0
100
AcDbLine
62
0
6
CONTINUOUS
10
4.7569854554
20
18.4222668040
11
4.7284092489
21
18.4344500615
0
LINE
5
265
100
AcDbEntity
8
0
100
AcDbLine
62
0
6
CONTINUOUS
10
-3.6171785006
20
3.3209080728
11
-3.6671515450
21
3.3437404607
0
LINE
5
266
100
AcDbEntity
8
0
100
AcDbLine
62
9
6
CONTINUOUS
10
-5.1370056156
20
18.7039412043
11
-5.1461351967
21
18.7085026812
0
LINE
5
267
100
AcDbEntity
8
0
100
AcDbLine
62
9
6
CONTINUOUS
10
4.8629943844
20
18.7039412043
11
4.8538648033
21
18.7085026812
0
LINE
5
268
100
AcDbEntity
8
0
100
AcDbLine
62
0
6
CONTINUOUS
10
-5.2557939499
20
18.4284313321
11
-5.2961295259
21
18.4486881431
0
LINE
5
269
100
AcDbEntity
8
0
100
AcDbLine
62
0
6
CONTINUOUS
10
4.7442060501
20
18.4284313321
11
4.7038704741
21
18.4486881431
0
LINE
5
26A
100
AcDbEntity
8
0
100
AcDbLine
62
0
6
CONTINUOUS
10
-4.7293235479
20
19.1678958432
11
-4.7210819071
21
19.1637078729
0
LINE
5
26B
100
AcDbEntity
8
0
100
AcDbLine
62
0
6
CONTINUOUS
10
5.2706764521
20
19.1678958432
11
5.2789180929
21
19.1637078729
0
LINE
5
26C
100
AcDbEntity
8
0
100
AcDbLine
62
0
6
CONTINUOUS
10
-5.2713189878
20
18.4343236711
11
-5.2982331849
21
18.4481072656
0
LINE
5
26D
100
AcDbEntity
8
0
100
AcDbLine
62
0
6
CONTINUOUS
10
4.7284092489
20
18.4344500615
11
4.7015361478
21
18.4482372032
0
LINE
5
26E
100
AcDbEntity
8
0
100
AcDbLine
62
0
6
CONTINUOUS
10
10.3980897574
20
21.4394760955
11
10.3517950123
21
21.4642185781
0
LINE
5
26F
100
AcDbEntity
8
0
100
AcDbLine
62
0
6
CONTINUOUS
10
-5.2982331849
20
18.4481072656
11
-5.3233482649
21
18.4633843446
0
LINE
5
270
100
AcDbEntity
8
0
100
AcDbLine
62
0
6
CONTINUOUS
10
4.7015361478
20
18.4482372032
11
4.6764594827
21
18.4635116704
0
LINE
5
271
100
AcDbEntity
8
0
100
AcDbLine
62
0
6
CONTINUOUS
10
10.4424868015
20
21.4118933344
11
10.3980897574
21
21.4394760955
0
LINE
5
272
100
AcDbEntity
8
0
100
AcDbLine
62
0
6
CONTINUOUS
10
-5.2961295259
20
18.4486881431
11
-5.3338426150
21
18.4734910783
0
LINE
5
273
100
AcDbEntity
8
0
100
AcDbLine
62
0
6
CONTINUOUS
10
4.7038704741
20
18.4486881431
11
4.6661573850
21
18.4734910783
0
LINE
5
274
100
AcDbEntity
8
0
100
AcDbLine
62
9
6
CONTINUOUS
10
-5.1461351967
20
18.7085026812
11
-5.1546500923
21
18.7141287257
0
LINE
5
275
100
AcDbEntity
8
0
100
AcDbLine
62
9
6
CONTINUOUS
10
4.8538648033
20
18.7085026812
11
4.8453499077
21
18.7141287257
0
LINE
5
276
100
AcDbEntity
8
0
100
AcDbLine
62
0
6
CONTINUOUS
10
10.4849618047
20
21.3814338276
11
10.4424868015
21
21.4118933344
0
LINE
5
277
100
AcDbEntity
8
0
100
AcDbLine
62
0
6
CONTINUOUS
10
-5.3233482649
20
18.4633843446
11
-5.3467582287
21
18.4802704456
0
LINE
5
278
100
AcDbEntity
8
0
100
AcDbLine
62
0
6
CONTINUOUS
10
4.6764594827
20
18.4635116704
11
4.6530859229
21
18.4803900217
0
LINE
5
279
100
AcDbEntity
8
0
100
AcDbLine
62
0
6
CONTINUOUS
10
10.5255391070
20
21.3481340423
11
10.4849618047
21
21.3814338276
0
LINE
5
27A
100
AcDbEntity
8
0
100
AcDbLine
62
0
6
CONTINUOUS
10
-5.3467582287
20
18.4802704456
11
-5.3685958457
21
18.4984497347
0
LINE
5
27B
100
AcDbEntity
8
0
100
AcDbLine
62
0
6
CONTINUOUS
10
4.6530859229
20
18.4803900217
11
4.6312794630
21
18.4985612336
0
LINE
5
27C
100
AcDbEntity
8
0
100
AcDbLine
62
0
6
CONTINUOUS
10
-5.3338426150
20
18.4734910783
11
-5.3684219664
21
18.5025044221
0
LINE
5
27D
100
AcDbEntity
8
0
100
AcDbLine
62
9
6
CONTINUOUS
10
-5.1546500923
20
18.7141287257
11
-5.1625742722
21
18.7207780173
0
LINE
5
27E
100
AcDbEntity
8
0
100
AcDbLine
62
0
6
CONTINUOUS
10
4.6661573850
20
18.4734910783
11
4.6315780336
21
18.5025044221
0
LINE
5
27F
100
AcDbEntity
8
0
100
AcDbLine
62
9
6
CONTINUOUS
10
4.8453499077
20
18.7141287257
11
4.8374257278
21
18.7207780173
0
LINE
5
280
100
AcDbEntity
8
0
100
AcDbLine
62
0
6
CONTINUOUS
10
-4.7210819071
20
19.1637078729
11
-4.7159203636
21
19.1593720494
0
LINE
5
281
100
AcDbEntity
8
0
100
AcDbLine
62
0
6
CONTINUOUS
10
5.2789180929
20
19.1637078729
11
5.2840796364
21
19.1593720494
0
LINE
5
282
100
AcDbEntity
8
0
100
AcDbLine
62
0
6
CONTINUOUS
10
10.5637009180
20
21.3124187532
11
10.5255391070
21
21.3481340423
0
LINE
5
283
100
AcDbEntity
8
0
100
AcDbLine
62
0
6
CONTINUOUS
10
-5.3685958457
20
18.4984497347
11
-5.3888977975
21
18.5178504890
0
LINE
5
284
100
AcDbEntity
8
0
100
AcDbLine
62
0
6
CONTINUOUS
10
4.6312794630
20
18.4985612336
11
4.6110016317
21
18.5179547114
0
LINE
5
285
100
AcDbEntity
8
0
100
AcDbLine
62
9
6
CONTINUOUS
10
-5.4902306813
20
18.7848933565
11
-5.5020347994
21
18.7966979241
0
LINE
5
286
100
AcDbEntity
8
0
100
AcDbLine
62
9
6
CONTINUOUS
10
4.5097693187
20
18.7848933565
11
4.4979652006
21
18.7966979241
0
LINE
5
287
100
AcDbEntity
8
0
100
AcDbLine
62
9
6
CONTINUOUS
10
-5.1625742722
20
18.7207780173
11
-5.1695941424
21
18.7281865388
0
LINE
5
288
100
AcDbEntity
8
0
100
AcDbLine
62
9
6
CONTINUOUS
10
4.8374257278
20
18.7207780173
11
4.8304058576
21
18.7281865388
0
LINE
5
289
100
AcDbEntity
8
0
100
AcDbLine
62
0
6
CONTINUOUS
10
-5.3684219664
20
18.5025044221
11
-5.3993976576
21
18.5353333675
0
LINE
5
28A
100
AcDbEntity
8
0
100
AcDbLine
62
0
6
CONTINUOUS
10
4.6315780336
20
18.5025044221
11
4.6006023424
21
18.5353333675
0
LINE
5
28B
100
AcDbEntity
8
0
100
AcDbLine
62
0
6
CONTINUOUS
10
10.5994162357
20
21.2742569552
11
10.5637009180
21
21.3124187532
0
LINE
5
28C
100
AcDbEntity
8
0
100
AcDbLine
62
0
6
CONTINUOUS
10
-5.3888977975
20
18.5178504890
11
-5.4076274026
21
18.5385444314
0
LINE
5
28D
100
AcDbEntity
8
0
100
AcDbLine
62
0
6
CONTINUOUS
10
4.6110016317
20
18.5179547114
11
4.5922909003
21
18.5386410498
0
LINE
5
28E
100
AcDbEntity
8
0
100
AcDbLine
62
0
6
CONTINUOUS
10
10.6327160621
20
21.2336796534
11
10.5994162357
21
21.2742569552
0
LINE
5
28F
100
AcDbEntity
8
0
100
AcDbLine
62
0
6
CONTINUOUS
10
-5.4076274026
20
18.5385444314
11
-5.4248073862
21
18.5604308968
0
LINE
5
290
100
AcDbEntity
8
0
100
AcDbLine
62
0
6
CONTINUOUS
10
4.5922909003
20
18.5386410498
11
4.5751266764
21
18.5605210094
0
LINE
5
291
100
AcDbEntity
8
0
100
AcDbLine
62
0
6
CONTINUOUS
10
-3.4298760185
20
3.1607240896
11
-3.4593089091
21
3.1989077378
0
LINE
5
292
100
AcDbEntity
8
0
100
AcDbLine
62
0
6
CONTINUOUS
10
-5.3993976576
20
18.5353333675
11
-5.4263479415
21
18.5715277430
0
LINE
5
293
100
AcDbEntity
8
0
100
AcDbLine
62
0
6
CONTINUOUS
10
4.6006023424
20
18.5353333675
11
4.5736520585
21
18.5715277430
0
LINE
5
294
100
AcDbEntity
8
0
100
AcDbLine
62
9
6
CONTINUOUS
10
-5.1695941424
20
18.7281865388
11
-5.1756738221
21
18.7363833252
0
LINE
5
295
100
AcDbEntity
8
0
100
AcDbLine
62
9
6
CONTINUOUS
10
4.8304058576
20
18.7281865388
11
4.8243261779
21
18.7363833252
0
LINE
5
296
100
AcDbEntity
8
0
100
AcDbLine
62
0
6
CONTINUOUS
10
-5.4248073862
20
18.5604308968
11
-5.4405240249
21
18.5835946012
0
LINE
5
297
100
AcDbEntity
8
0
100
AcDbLine
62
0
6
CONTINUOUS
10
4.5751266764
20
18.5605210094
11
4.5594225676
21
18.5836808628
0
LINE
5
298
100
AcDbEntity
8
0
100
AcDbLine
62
0
6
CONTINUOUS
10
-3.8579751167
20
2.9912670804
11
-3.8403769343
21
2.9651210548
0
LINE
5
299
100
AcDbEntity
8
0
100
AcDbLine
62
0
6
CONTINUOUS
10
-3.4041941485
20
3.1187280240
11
-3.4298760185
21
3.1607240896
0
LINE
5
29A
100
AcDbEntity
8
0
100
AcDbLine
62
0
6
CONTINUOUS
10
-5.4405240249
20
18.5835946012
11
-5.4546910421
21
18.6079508285
0
LINE
5
29B
100
AcDbEntity
8
0
100
AcDbLine
62
9
6
CONTINUOUS
10
-5.1756738221
20
18.7363833252
11
-5.1808491921
21
18.7453393415
0
LINE
5
29C
100
AcDbEntity
8
0
100
AcDbLine
62
0
6
CONTINUOUS
10
-5.4263479415
20
18.5715277430
11
-5.4489143821
21
18.6106025056
0
LINE
5
29D
100
AcDbEntity
8
0
100
AcDbLine
62
0
6
CONTINUOUS
10
-10.9195705498
20
-21.3071473895
11
-10.8948280186
21
-21.3534421779
0
LINE
5
29E
100
AcDbEntity
8
0
100
AcDbLine
62
0
6
CONTINUOUS
10
-3.8403769343
20
2.9651210548
11
-3.8253338996
21
2.9351643648
0
LINE
5
29F
100
AcDbEntity
8
0
100
AcDbLine
62
0
6
CONTINUOUS
10
-10.9411574232
20
-21.2595457066
11
-10.9195705498
21
-21.3071473895
0
LINE
5
2A0
100
AcDbEntity
8
0
100
AcDbLine
62
0
6
CONTINUOUS
10
9.9980870445
20
-21.7533173073
11
-10.2021566433
21
-21.7533173073
0
LINE
5
2A1
100
AcDbEntity
8
0
100
AcDbLine
62
0
6
CONTINUOUS
10
-0.1020347994
20
-21.6533173073
11
-2.6020347994
21
-21.6533173073
0
LINE
5
2A2
100
AcDbEntity
8
0
100
AcDbLine
62
0
6
CONTINUOUS
10
-9.7020347994
20
-20.4533173073
11
9.4979652006
21
-20.4533173073
0
LINE
5
2A3
100
AcDbEntity
8
0
100
AcDbLine
62
0
6
CONTINUOUS
10
-6.5020347994
20
-20.0533173073
11
-7.1020347994
21
-20.0533173073
0
LINE
5
2A4
100
AcDbEntity
8
0
100
AcDbLine
62
0
6
CONTINUOUS
10
6.2979652006
20
-20.0533173073
11
6.8979652006
21
-20.0533173073
0
LINE
5
2A5
100
AcDbEntity
8
0
100
AcDbLine
62
9
6
CONTINUOUS
10
-10.0020347994
20
-19.9533173073
11
9.7979652006
21
-19.9533173073
0
LINE
5
2A6
100
AcDbEntity
8
0
100
AcDbLine
62
0
6
CONTINUOUS
10
-10.2548397637
20
-21.7515447443
11
-10.2021566433
21
-21.7533173073
0
LINE
5
2A7
100
AcDbEntity
8
0
100
AcDbLine
62
0
6
CONTINUOUS
10
-1.6543183030
20
-11.3058087229
11
-1.6555641980
21
-11.3056880236
0
LINE
5
2A8
100
AcDbEntity
8
0
100
AcDbLine
62
0
6
CONTINUOUS
10
-4.0721593014
20
3.0786546772
11
-4.0399723763
21
3.0748798923
0
LINE
5
2A9
100
AcDbEntity
8
0
100
AcDbLine
62
0
6
CONTINUOUS
10
-3.9009967909
20
3.4038025480
11
-3.9662211538
21
3.4116871720
0
LINE
5
2AA
100
AcDbEntity
8
0
100
AcDbLine
62
0
6
CONTINUOUS
10
2.2315605476
20
-12.6578606390
11
2.2307950500
21
-12.6577546515
0
LINE
5
2AB
100
AcDbEntity
8
0
100
AcDbLine
62
0
6
CONTINUOUS
10
-3.8381138814
20
3.3935264027
11
-3.9009967909
21
3.4038025480
0
LINE
5
2AC
100
AcDbEntity
8
0
100
AcDbLine
62
0
6
CONTINUOUS
10
-4.0399723763
20
3.0748798923
11
-4.0091862531
21
3.0696823378
0
LINE
5
2AD
100
AcDbEntity
8
0
100
AcDbLine
62
0
6
CONTINUOUS
10
-4.0091862531
20
3.0696823378
11
-3.9796494961
21
3.0637046722
0
LINE
5
2AE
100
AcDbEntity
8
0
100
AcDbLine
62
0
6
CONTINUOUS
10
-4.7725290543
20
19.1795726347
11
-4.7553774915
21
19.1759123574
0
LINE
5
2AF
100
AcDbEntity
8
0
100
AcDbLine
62
0
6
CONTINUOUS
10
5.2274709457
20
19.1795726347
11
5.2446225085
21
19.1759123574
0
LINE
5
2B0
100
AcDbEntity
8
0
100
AcDbLine
62
0
6
CONTINUOUS
10
-3.7782253092
20
3.3801679602
11
-3.8381138814
21
3.3935264027
0
LINE
5
2B1
100
AcDbEntity
8
0
100
AcDbLine
62
0
6
CONTINUOUS
10
10.2050361470
20
21.5194310756
11
10.1541379276
21
21.5313166227
0
LINE
5
2B2
100
AcDbEntity
8
0
100
AcDbLine
62
0
6
CONTINUOUS
10
-5.1694610938
20
18.4025830983
11
-5.2133801823
21
18.4129935111
0
LINE
5
2B3
100
AcDbEntity
8
0
100
AcDbLine
62
0
6
CONTINUOUS
10
4.8305389062
20
18.4025830983
11
4.7866198177
21
18.4129935111
0
LINE
5
2B4
100
AcDbEntity
8
0
100
AcDbLine
62
9
6
CONTINUOUS
10
-5.1173598104
20
18.6980280467
11
-5.1272853188
21
18.7004029744
0
LINE
5
2B5
100
AcDbEntity
8
0
100
AcDbLine
62
9
6
CONTINUOUS
10
4.8826401896
20
18.6980280467
11
4.8727146812
21
18.7004029744
0
LINE
5
2B6
100
AcDbEntity
8
0
100
AcDbLine
62
0
6
CONTINUOUS
10
-5.1807949878
20
18.4045404315
11
-5.2125244775
21
18.4122459939
0
LINE
5
2B7
100
AcDbEntity
8
0
100
AcDbLine
62
0
6
CONTINUOUS
10
4.8188150730
20
18.4046192914
11
4.7871207815
21
18.4123481298
0
LINE
5
2B8
100
AcDbEntity
8
0
100
AcDbLine
62
0
6
CONTINUOUS
10
-4.7553774915
20
19.1759123574
11
-4.7408104711
21
19.1719780269
0
LINE
5
2B9
100
AcDbEntity
8
0
100
AcDbLine
62
0
6
CONTINUOUS
10
5.2446225085
20
19.1759123574
11
5.2591895289
21
19.1719780269
0
LINE
5
2BA
100
AcDbEntity
8
0
100
AcDbLine
62
0
6
CONTINUOUS
10
10.2552682071
20
21.5041960682
11
10.2050361470
21
21.5194310756
0
LINE
5
2BB
100
AcDbEntity
8
0
100
AcDbLine
62
0
6
CONTINUOUS
10
-5.2125244775
20
18.4122459939
11
-5.2426996743
21
18.4221490987
0
LINE
5
2BC
100
AcDbEntity
8
0
100
AcDbLine
62
0
6
CONTINUOUS
10
4.7871207815
20
18.4123481298
11
4.7569854554
21
18.4222668040
0
LINE
5
2BD
100
AcDbEntity
8
0
100
AcDbLine
62
0
6
CONTINUOUS
10
-4.7408104711
20
19.1719780269
11
-4.7293235479
21
19.1678958432
0
LINE
5
2BE
100
AcDbEntity
8
0
100
AcDbLine
62
0
6
CONTINUOUS
10
5.2591895289
20
19.1719780269
11
5.2706764521
21
19.1678958432
0
LINE
5
2BF
100
AcDbEntity
8
0
100
AcDbLine
62
0
6
CONTINUOUS
10
4.7866198177
20
18.4129935111
11
4.7442060501
21
18.4284313321
0
LINE
5
2C0
100
AcDbEntity
8
0
100
AcDbLine
62
9
6
CONTINUOUS
10
4.8727146812
20
18.7004029744
11
4.8629943844
21
18.7039412043
0
LINE
5
2C1
100
AcDbEntity
8
0
100
AcDbLine
62
0
6
CONTINUOUS
10
10.3041933758
20
21.4858054094
11
10.2552682071
21
21.5041960682
0
LINE
5
2C2
100
AcDbEntity
8
0
100
AcDbLine
62
0
6
CONTINUOUS
10
10.3517950123
20
21.4642185781
11
10.3041933758
21
21.4858054094
0
LINE
5
2C3
100
AcDbEntity
8
0
100
AcDbLine
62
0
6
CONTINUOUS
10
10.6631756127
20
21.1912046373
11
10.6327160621
21
21.2336796534
0
LINE
5
2C4
100
AcDbEntity
8
0
100
AcDbLine
62
0
6
CONTINUOUS
10
10.6907584198
20
21.1468075633
11
10.6631756127
21
21.1912046373
0
LINE
5
2C5
100
AcDbEntity
8
0
100
AcDbLine
62
0
6
CONTINUOUS
10
4.5594225676
20
18.5836808628
11
4.5452649663
21
18.6080343374
0
LINE
5
2C6
100
AcDbEntity
8
0
100
AcDbLine
62
9
6
CONTINUOUS
10
4.8243261779
20
18.7363833252
11
4.8191508079
21
18.7453393415
0
LINE
5
2C7
100
AcDbEntity
8
0
100
AcDbLine
62
0
6
CONTINUOUS
10
4.5736520585
20
18.5715277430
11
4.5510856179
21
18.6106025056
0
LINE
5
2C8
100
AcDbEntity
8
0
100
AcDbLine
62
0
6
CONTINUOUS
10
10.7155009511
20
21.1005127750
11
10.6907584198
21
21.1468075633
0
LINE
5
2C9
100
AcDbEntity
8
0
100
AcDbLine
62
0
6
CONTINUOUS
10
4.1623032006
20
7.3133076927
11
4.6633842006
21
6.3466266927
0
LINE
5
2CA
100
AcDbEntity
8
0
100
AcDbLine
62
0
6
CONTINUOUS
10
5.2265782006
20
6.3466326927
11
4.6943329312
21
7.3734411417
0
LINE
5
2CB
100
AcDbEntity
8
0
100
AcDbLine
62
0
6
CONTINUOUS
10
-5.4546910421
20
18.6079508285
11
-5.4670723333
21
18.6331447649
0
LINE
5
2CC
100
AcDbEntity
8
0
100
AcDbLine
62
0
6
CONTINUOUS
10
4.5452649663
20
18.6080343374
11
4.5328924584
21
18.6332233756
0
LINE
5
2CD
100
AcDbEntity
8
0
100
AcDbLine
62
0
6
CONTINUOUS
10
2.0033562006
20
1.7971546927
11
1.2168532006
21
3.4216826927
0
LINE
5
2CE
100
AcDbEntity
8
0
100
AcDbLine
62
0
6
CONTINUOUS
10
-3.3820593928
20
3.0724714213
11
-3.4041941485
21
3.1187280240
0
LINE
5
2CF
100
AcDbEntity
8
0
100
AcDbLine
62
0
6
CONTINUOUS
10
0.9755402006
20
3.0873936927
11
1.7904332006
21
1.3716826927
0
LINE
5
2D0
100
AcDbEntity
8
0
100
AcDbLine
62
0
6
CONTINUOUS
10
-4.7159203636
20
19.1593720494
11
-4.7138389175
21
19.1548883727
0
LINE
5
2D1
100
AcDbEntity
8
0
100
AcDbLine
62
0
6
CONTINUOUS
10
5.2840796364
20
19.1593720494
11
5.2861610825
21
19.1548883727
0
LINE
5
2D2
100
AcDbEntity
8
0
100
AcDbLine
62
0
6
CONTINUOUS
10
-0.8825811451
20
-15.3463885474
11
-0.8820627263
21
-15.3475278738
0
LINE
5
2D3
100
AcDbEntity
8
0
100
AcDbLine
62
9
6
CONTINUOUS
10
-5.1808491921
20
18.7453393415
11
-5.1849143005
21
18.7547034650
0
LINE
5
2D4
100
AcDbEntity
8
0
100
AcDbLine
62
9
6
CONTINUOUS
10
4.8191508079
20
18.7453393415
11
4.8150856995
21
18.7547034650
0
LINE
5
2D5
100
AcDbEntity
8
0
100
AcDbLine
62
0
6
CONTINUOUS
10
-5.4489143821
20
18.6106025056
11
-5.4667986962
21
18.6520450257
0
LINE
5
2D6
100
AcDbEntity
8
0
100
AcDbLine
62
0
6
CONTINUOUS
10
4.5510856179
20
18.6106025056
11
4.5332013038
21
18.6520450257
0
LINE
5
2D7
100
AcDbEntity
8
0
100
AcDbLine
62
0
6
CONTINUOUS
10
-1.6546092639
20
-11.3050927888
11
-1.6543183030
21
-11.3058087229
0
LINE
5
2D8
100
AcDbEntity
8
0
100
AcDbLine
62
0
6
CONTINUOUS
10
-5.4670723333
20
18.6331447649
11
-5.4776393015
21
18.6592245362
0
LINE
5
2D9
100
AcDbEntity
8
0
100
AcDbLine
62
0
6
CONTINUOUS
10
-10.9595481146
20
-21.2106204876
11
-10.9411574232
21
-21.2595457066
0
LINE
5
2DA
100
AcDbEntity
8
0
100
AcDbLine
62
0
6
CONTINUOUS
10
-3.3636756577
20
3.0224024013
11
-3.3820593928
21
3.0724714213
0
LINE
5
2DB
100
AcDbEntity
8
0
100
AcDbLine
62
0
6
CONTINUOUS
10
-3.8253338996
20
2.9351643648
11
-3.8137138689
21
2.9026851223
0
LINE
5
2DC
100
AcDbEntity
8
0
100
AcDbLine
62
0
6
CONTINUOUS
10
-10.9747831482
20
-21.1603883741
11
-10.9595481146
21
-21.2106204876
0
LINE
5
2DD
100
AcDbEntity
8
0
100
AcDbLine
62
0
6
CONTINUOUS
10
10.0507701817
20
-21.7515447463
11
10.1027871678
21
-21.7464227179
0
LINE
5
2DE
100
AcDbEntity
8
0
100
AcDbLine
62
0
6
CONTINUOUS
10
9.9980870445
20
-21.7533173073
11
10.0507701817
21
-21.7515447463
0
LINE
5
2DF
100
AcDbEntity
8
0
100
AcDbLine
62
0
6
CONTINUOUS
10
-4.1752900480
20
2.1611176927
11
-4.1032589666
21
2.1620580111
0
LINE
5
2E0
100
AcDbEntity
8
0
100
AcDbLine
62
0
6
CONTINUOUS
10
-4.8026177994
20
1.3716826927
11
-4.3624997994
21
1.3716826927
0
LINE
5
2E1
100
AcDbEntity
8
0
100
AcDbLine
62
0
6
CONTINUOUS
10
-3.0563407994
20
1.3716826927
11
-1.8577237994
21
1.3716826927
0
LINE
5
2E2
100
AcDbEntity
8
0
100
AcDbLine
62
0
6
CONTINUOUS
10
-1.6366227994
20
1.3716826927
11
-1.2164087994
21
1.3716826927
0
LINE
5
2E3
100
AcDbEntity
8
0
100
AcDbLine
62
0
6
CONTINUOUS
10
-0.1034237994
20
1.3716826927
11
0.3395492006
21
1.3716826927
0
LINE
5
2E4
100
AcDbEntity
8
0
100
AcDbLine
62
0
6
CONTINUOUS
10
0.5638122006
20
1.3716826927
11
0.9755402006
21
1.3716826927
0
LINE
5
2E5
100
AcDbEntity
8
0
100
AcDbLine
62
0
6
CONTINUOUS
10
1.7904332006
20
1.3716826927
11
2.4150852006
21
1.3716826927
0
LINE
5
2E6
100
AcDbEntity
8
0
100
AcDbLine
62
0
6
CONTINUOUS
10
2.6223762006
20
1.3716826927
11
3.0425902006
21
1.3716826927
0
LINE
5
2E7
100
AcDbEntity
8
0
100
AcDbLine
62
0
6
CONTINUOUS
10
4.1557302006
20
1.3716826927
11
4.5985482006
21
1.3716826927
0
LINE
5
2E8
100
AcDbEntity
8
0
100
AcDbLine
62
0
6
CONTINUOUS
10
-1.8577237994
20
1.7123586927
11
-2.6162227994
21
1.7123586927
0
LINE
5
2E9
100
AcDbEntity
8
0
100
AcDbLine
62
0
6
CONTINUOUS
10
-1.0631197994
20
1.8061686927
11
-0.2510807994
21
1.8061686927
0
LINE
5
2EA
100
AcDbEntity
8
0
100
AcDbLine
62
0
6
CONTINUOUS
10
3.1959562006
20
1.8061686927
11
4.0079952006
21
1.8061686927
0
LINE
5
2EB
100
AcDbEntity
8
0
100
AcDbLine
62
0
6
CONTINUOUS
10
3.8972142006
20
2.1468456927
11
3.3095152006
21
2.1468456927
0
LINE
5
2EC
100
AcDbEntity
8
0
100
AcDbLine
62
0
6
CONTINUOUS
10
-0.3617857994
20
2.1468456927
11
-0.9495607994
21
2.1468456927
0
LINE
5
2ED
100
AcDbEntity
8
0
100
AcDbLine
62
0
6
CONTINUOUS
10
-4.3624997994
20
2.1611176927
11
-4.1752900480
21
2.1611176927
0
LINE
5
2EE
100
AcDbEntity
8
0
100
AcDbLine
62
0
6
CONTINUOUS
10
-4.1057470158
20
2.5017936927
11
-4.3624997994
21
2.5017936927
0
LINE
5
2EF
100
AcDbEntity
8
0
100
AcDbLine
62
0
6
CONTINUOUS
10
-4.3624997994
20
3.0810066927
11
-4.1057470283
21
3.0810066927
0
LINE
5
2F0
100
AcDbEntity
8
0
100
AcDbLine
62
0
6
CONTINUOUS
10
3.8859502006
20
3.4216826927
11
3.3635182006
21
3.4216826927
0
LINE
5
2F1
100
AcDbEntity
8
0
100
AcDbLine
62
0
6
CONTINUOUS
10
2.4150852006
20
3.4216826927
11
2.0033562006
21
3.4216826927
0
LINE
5
2F2
100
AcDbEntity
8
0
100
AcDbLine
62
0
6
CONTINUOUS
10
1.2168532006
20
3.4216826927
11
0.5638122006
21
3.4216826927
0
LINE
5
2F3
100
AcDbEntity
8
0
100
AcDbLine
62
0
6
CONTINUOUS
10
-0.3731257994
20
3.4216826927
11
-0.8955587994
21
3.4216826927
0
LINE
5
2F4
100
AcDbEntity
8
0
100
AcDbLine
62
0
6
CONTINUOUS
10
-2.6162227994
20
3.4216826927
11
-3.0563407994
21
3.4216826927
0
LINE
5
2F5
100
AcDbEntity
8
0
100
AcDbLine
62
0
6
CONTINUOUS
10
-4.1752900786
20
3.4216826927
11
-4.8026177994
21
3.4216826927
0
LINE
5
2F6
100
AcDbEntity
8
0
100
AcDbLine
62
0
6
CONTINUOUS
10
-4.1032589837
20
3.4207423737
11
-4.1752900786
21
3.4216826927
0
LINE
5
2F7
100
AcDbEntity
8
0
100
AcDbLine
62
0
6
CONTINUOUS
10
-4.0335693420
20
3.4174105335
11
-4.1032589837
21
3.4207423737
0
LINE
5
2F8
100
AcDbEntity
8
0
100
AcDbLine
62
0
6
CONTINUOUS
10
-5.1128128192
20
18.3968279318
11
-5.1475096146
21
18.3991063368
0
LINE
5
2F9
100
AcDbEntity
8
0
100
AcDbLine
62
0
6
CONTINUOUS
10
4.8867374916
20
18.3968403066
11
4.8520684841
21
18.3991550362
0
LINE
5
2FA
100
AcDbEntity
8
0
100
AcDbLine
62
0
6
CONTINUOUS
10
-4.1057470283
20
3.0810066927
11
-4.0721593014
21
3.0786546772
0
LINE
5
2FB
100
AcDbEntity
8
0
100
AcDbLine
62
0
6
CONTINUOUS
10
-4.8931392819
20
19.1931124812
11
-4.8651433214
21
19.1911327140
0
LINE
5
2FC
100
AcDbEntity
8
0
100
AcDbLine
62
0
6
CONTINUOUS
10
5.1068607181
20
19.1931124812
11
5.1348566786
21
19.1911327140
0
LINE
5
2FD
100
AcDbEntity
8
0
100
AcDbLine
62
0
6
CONTINUOUS
10
-3.9662211538
20
3.4116871720
11
-4.0335693420
21
3.4174105335
0
LINE
5
2FE
100
AcDbEntity
8
0
100
AcDbLine
62
0
6
CONTINUOUS
10
-4.8651433214
20
19.1911327140
11
-4.8389954417
21
19.1887829470
0
LINE
5
2FF
100
AcDbEntity
8
0
100
AcDbLine
62
0
6
CONTINUOUS
10
5.1348566786
20
19.1911327140
11
5.1610045583
21
19.1887829470
0
LINE
5
300
100
AcDbEntity
8
0
100
AcDbLine
62
0
6
CONTINUOUS
10
10.1027871260
20
21.5397881064
11
10.0507701649
21
21.5449101297
0
LINE
5
301
100
AcDbEntity
8
0
100
AcDbLine
62
0
6
CONTINUOUS
10
-4.8389954417
20
19.1887829470
11
-4.8147464113
21
19.1860508605
0
LINE
5
302
100
AcDbEntity
8
0
100
AcDbLine
62
0
6
CONTINUOUS
10
5.1610045583
20
19.1887829470
11
5.1852535887
21
19.1860508605
0
LINE
5
303
100
AcDbEntity
8
0
100
AcDbLine
62
9
6
CONTINUOUS
10
-5.1072209106
20
18.6968630813
11
-5.1173598104
21
18.6980280467
0
LINE
5
304
100
AcDbEntity
8
0
100
AcDbLine
62
9
6
CONTINUOUS
10
4.8927790894
20
18.6968630813
11
4.8826401896
21
18.6980280467
0
LINE
5
305
100
AcDbEntity
8
0
100
AcDbLine
62
0
6
CONTINUOUS
10
-5.1246301770
20
18.3973408317
11
-5.1694610938
21
18.4025830983
0
LINE
5
306
100
AcDbEntity
8
0
100
AcDbLine
62
0
6
CONTINUOUS
10
4.8753698230
20
18.3973408317
11
4.8305389062
21
18.4025830983
0
LINE
5
307
100
AcDbEntity
8
0
100
AcDbLine
62
0
6
CONTINUOUS
10
-4.8147464113
20
19.1860508605
11
-4.7923454617
21
19.1829487742
0
LINE
5
308
100
AcDbEntity
8
0
100
AcDbLine
62
0
6
CONTINUOUS
10
5.1852535887
20
19.1860508605
11
5.2076545383
21
19.1829487742
0
LINE
5
309
100
AcDbEntity
8
0
100
AcDbLine
62
0
6
CONTINUOUS
10
-7.1020347994
20
19.8466826927
11
-9.7020347994
21
20.2466826927
0
LINE
5
30A
100
AcDbEntity
8
0
100
AcDbLine
62
0
6
CONTINUOUS
10
-5.1475096146
20
18.3991063368
11
-5.1807949878
21
18.4045404315
0
LINE
5
30B
100
AcDbEntity
8
0
100
AcDbLine
62
0
6
CONTINUOUS
10
4.8520684841
20
18.3991550362
11
4.8188150730
21
18.4046192914
0
LINE
5
30C
100
AcDbEntity
8
0
100
AcDbLine
62
0
6
CONTINUOUS
10
10.1541379276
20
21.5313166227
11
10.1027871260
21
21.5397881064
0
LINE
5
30D
100
AcDbEntity
8
0
100
AcDbLine
62
0
6
CONTINUOUS
10
-4.7923454617
20
19.1829487742
11
-4.7725290543
21
19.1795726347
0
LINE
5
30E
100
AcDbEntity
8
0
100
AcDbLine
62
0
6
CONTINUOUS
10
5.2076545383
20
19.1829487742
11
5.2274709457
21
19.1795726347
0
LINE
5
30F
100
AcDbEntity
8
0
100
AcDbLine
62
0
6
CONTINUOUS
10
10.7370878245
20
21.0529110920
11
10.7155009511
21
21.1005127750
0
LINE
5
310
100
AcDbEntity
8
0
100
AcDbLine
62
0
6
CONTINUOUS
10
4.5328924584
20
18.6332233756
11
4.5223348074
21
18.6592949360
0
LINE
5
311
100
AcDbEntity
8
0
100
AcDbLine
62
0
6
CONTINUOUS
10
10.7554785159
20
21.0039858731
11
10.7370878245
21
21.0529110920
0
LINE
5
312
100
AcDbEntity
8
0
100
AcDbLine
62
0
6
CONTINUOUS
10
0.3395492006
20
1.3716826927
11
-0.3731257994
21
3.4216826927
0
LINE
5
313
100
AcDbEntity
8
0
100
AcDbLine
62
0
6
CONTINUOUS
10
4.5985482006
20
1.3716826927
11
3.8859502006
21
3.4216826927
0
LINE
5
314
100
AcDbEntity
8
0
100
AcDbLine
62
0
6
CONTINUOUS
10
4.0079952006
20
1.8061686927
11
4.1557302006
21
1.3716826927
0
LINE
5
315
100
AcDbEntity
8
0
100
AcDbLine
62
0
6
CONTINUOUS
10
-0.2510807994
20
1.8061686927
11
-0.1034237994
21
1.3716826927
0
LINE
5
316
100
AcDbEntity
8
0
100
AcDbLine
62
0
6
CONTINUOUS
10
-5.4776393015
20
18.6592245362
11
-5.4864205436
21
18.6861420165
0
LINE
5
317
100
AcDbEntity
8
0
100
AcDbLine
62
0
6
CONTINUOUS
10
4.5223348074
20
18.6592949360
11
4.5135622497
21
18.6862020600
0
LINE
5
318
100
AcDbEntity
8
0
100
AcDbLine
62
0
6
CONTINUOUS
10
-0.6455847994
20
3.0299496927
11
-0.3617857994
21
2.1468456927
0
LINE
5
319
100
AcDbEntity
8
0
100
AcDbLine
62
0
6
CONTINUOUS
10
3.6134522006
20
3.0298336927
11
3.8972142006
21
2.1468456927
0
LINE
5
31A
100
AcDbEntity
8
0
100
AcDbLine
62
0
6
CONTINUOUS
10
-5.4306477994
20
8.8467326927
11
-4.6279477994
21
6.3466136927
0
LINE
5
31B
100
AcDbEntity
8
0
100
AcDbLine
62
0
6
CONTINUOUS
10
-4.3779227994
20
7.1252696927
11
-4.9306227994
21
8.8467326927
0
LINE
5
31C
100
AcDbEntity
8
0
100
AcDbLine
62
0
6
CONTINUOUS
10
1.8397402006
20
8.0680826927
11
2.0820712006
21
7.3133076927
0
LINE
5
31D
100
AcDbEntity
8
0
100
AcDbLine
62
0
6
CONTINUOUS
10
2.2345962006
20
6.8382886927
11
2.3924462006
21
6.3466266927
0
LINE
5
31E
100
AcDbEntity
8
0
100
AcDbLine
62
0
6
CONTINUOUS
10
2.8924712006
20
6.3466196927
11
2.0897652006
21
8.8467386927
0
LINE
5
31F
100
AcDbEntity
8
0
100
AcDbLine
62
0
6
CONTINUOUS
10
-5.4667986962
20
18.6520450257
11
-5.4797559322
21
18.6953023934
0
LINE
5
320
100
AcDbEntity
8
0
100
AcDbLine
62
0
6
CONTINUOUS
10
4.5332013038
20
18.6520450257
11
4.5202440678
21
18.6953023934
0
LINE
5
321
100
AcDbEntity
8
0
100
AcDbLine
62
9
6
CONTINUOUS
10
-5.1849143005
20
18.7547034650
11
-5.1878004967
21
18.7643586550
0
LINE
5
322
100
AcDbEntity
8
0
100
AcDbLine
62
9
6
CONTINUOUS
10
4.8150856995
20
18.7547034650
11
4.8121995033
21
18.7643586550
0
LINE
5
323
100
AcDbEntity
8
0
100
AcDbLine
62
0
6
CONTINUOUS
10
-1.4918227994
20
7.9952766927
11
-1.0190847994
21
6.3466196927
0
LINE
5
324
100
AcDbEntity
8
0
100
AcDbLine
62
0
6
CONTINUOUS
10
-0.7690787994
20
7.2185696927
11
-1.2359477994
21
8.8467326927
0
LINE
5
325
100
AcDbEntity
8
0
100
AcDbLine
62
0
6
CONTINUOUS
10
-3.3494157692
20
2.9691935135
11
-3.3636756577
21
3.0224024013
0
LINE
5
326
100
AcDbEntity
8
0
100
AcDbLine
62
0
6
CONTINUOUS
10
-5.4864205436
20
18.6861420165
11
-5.4932657459
21
18.7133980146
0
LINE
5
327
100
AcDbEntity
8
0
100
AcDbLine
62
0
6
CONTINUOUS
10
-10.9866687144
20
-21.1094901093
11
-10.9747831482
21
-21.1603883741
0
LINE
5
328
100
AcDbEntity
8
0
100
AcDbLine
62
0
6
CONTINUOUS
10
-3.8137138689
20
2.9026851223
11
-3.8058061274
21
2.8681126980
0
LINE
5
329
100
AcDbEntity
8
0
100
AcDbLine
62
0
6
CONTINUOUS
10
-11.0002622384
20
-21.0061222884
11
-10.9951402100
21
-21.0581392744
0
LINE
5
32A
100
AcDbEntity
8
0
100
AcDbLine
62
0
6
CONTINUOUS
10
10.1027871678
20
-21.7464227179
11
10.1541380026
21
-21.7379512223
0
LINE
5
32B
100
AcDbEntity
8
0
100
AcDbLine
62
0
6
CONTINUOUS
10
-7.1020347994
20
-20.0533173073
11
-9.7020347994
21
-20.4533173073
0
LINE
5
32C
100
AcDbEntity
8
0
100
AcDbLine
62
0
6
CONTINUOUS
10
-2.4348646487
20
-12.6577546515
11
-2.4356301463
21
-12.6578606390
0
LINE
5
32D
100
AcDbEntity
8
0
100
AcDbLine
62
0
6
CONTINUOUS
10
1.4514945993
20
-11.3056880236
11
1.4502487042
21
-11.3058087229
0
LINE
5
32E
100
AcDbEntity
8
0
100
AcDbLine
62
0
6
CONTINUOUS
10
-4.0335693352
20
2.1653898508
11
-3.9662211538
21
2.1711132120
0
LINE
5
32F
100
AcDbEntity
8
0
100
AcDbLine
62
0
6
CONTINUOUS
10
-4.0721592944
20
2.5041457076
11
-4.1057470158
21
2.5017936927
0
LINE
5
330
100
AcDbEntity
8
0
100
AcDbLine
62
0
6
CONTINUOUS
10
-4.1032589666
20
2.1620580111
11
-4.0335693352
21
2.1653898508
0
LINE
5
331
100
AcDbEntity
8
0
100
AcDbLine
62
0
6
CONTINUOUS
10
4.7180249574
20
19.1946632614
11
4.7476432897
21
19.1957653922
0
LINE
5
332
100
AcDbEntity
8
0
100
AcDbLine
62
0
6
CONTINUOUS
10
-5.2819750426
20
19.1946632614
11
-5.2523567103
21
19.1957653922
0
LINE
5
333
100
AcDbEntity
8
0
100
AcDbLine
62
0
6
CONTINUOUS
10
-5.0764127313
20
18.3976355807
11
-5.0770672975
21
18.3976210572
0
LINE
5
334
100
AcDbEntity
8
0
100
AcDbLine
62
0
6
CONTINUOUS
10
-5.0898067944
20
18.3973383919
11
-5.1128128192
21
18.3968279318
0
LINE
5
335
100
AcDbEntity
8
0
100
AcDbLine
62
0
6
CONTINUOUS
10
4.7476432897
20
19.1957653922
11
4.7782209358
21
19.1964385360
0
LINE
5
336
100
AcDbEntity
8
0
100
AcDbLine
62
0
6
CONTINUOUS
10
-5.2523567103
20
19.1957653922
11
-5.2217790642
21
19.1964385360
0
LINE
5
337
100
AcDbEntity
8
0
100
AcDbLine
62
0
6
CONTINUOUS
10
4.9231109538
20
18.3976038317
11
4.9227138403
21
18.3975954958
0
LINE
5
338
100
AcDbEntity
8
0
100
AcDbLine
62
0
6
CONTINUOUS
10
4.9104647977
20
18.3973383728
11
4.8867374916
21
18.3968403066
0
LINE
5
339
100
AcDbEntity
8
0
100
AcDbLine
62
0
6
CONTINUOUS
10
4.7782209358
20
19.1964385360
11
4.8097578957
21
19.1966826927
0
LINE
5
33A
100
AcDbEntity
8
0
100
AcDbLine
62
0
6
CONTINUOUS
10
-5.2217790642
20
19.1964385360
11
-5.1902421043
21
19.1966826927
0
LINE
5
33B
100
AcDbEntity
8
0
100
AcDbLine
62
0
6
CONTINUOUS
10
2.3924462006
20
6.3466266927
11
2.8924712006
21
6.3466196927
0
LINE
5
33C
100
AcDbEntity
8
0
100
AcDbLine
62
0
6
CONTINUOUS
10
-1.9918407994
20
6.3466196927
11
-1.4918227994
21
6.3466196927
0
LINE
5
33D
100
AcDbEntity
8
0
100
AcDbLine
62
0
6
CONTINUOUS
10
-0.0463347994
20
6.3466196927
11
0.4536842006
21
6.3466196927
0
LINE
5
33E
100
AcDbEntity
8
0
100
AcDbLine
62
0
6
CONTINUOUS
10
3.2258152006
20
6.3466266927
11
3.7258402006
21
6.3466266927
0
LINE
5
33F
100
AcDbEntity
8
0
100
AcDbLine
62
0
6
CONTINUOUS
10
4.6633842006
20
6.3466266927
11
5.2265782006
21
6.3466326927
0
LINE
5
340
100
AcDbEntity
8
0
100
AcDbLine
62
0
6
CONTINUOUS
10
-2.9918657994
20
6.3466136927
11
-2.4918477994
21
6.3466196927
0
LINE
5
341
100
AcDbEntity
8
0
100
AcDbLine
62
0
6
CONTINUOUS
10
-4.6279477994
20
6.3466136927
11
-4.1279097994
21
6.3466196927
0
LINE
5
342
100
AcDbEntity
8
0
100
AcDbLine
62
0
6
CONTINUOUS
10
0.7870282006
20
6.3466196927
11
1.2870462006
21
6.3466266927
0
LINE
5
343
100
AcDbEntity
8
0
100
AcDbLine
62
0
6
CONTINUOUS
10
-1.0190847994
20
6.3466196927
11
-0.5190787994
21
6.3466266927
0
LINE
5
344
100
AcDbEntity
8
0
100
AcDbLine
62
0
6
CONTINUOUS
10
1.4449032006
20
6.8382886927
11
2.2345962006
21
6.8382886927
0
LINE
5
345
100
AcDbEntity
8
0
100
AcDbLine
62
0
6
CONTINUOUS
10
3.7258962006
20
7.3133136927
11
4.1623032006
21
7.3133076927
0
LINE
5
346
100
AcDbEntity
8
0
100
AcDbLine
62
0
6
CONTINUOUS
10
2.0820712006
20
7.3133076927
11
1.5974212006
21
7.3133076927
0
LINE
5
347
100
AcDbEntity
8
0
100
AcDbLine
62
0
6
CONTINUOUS
10
4.3272982553
20
7.7758326927
11
3.7189462006
21
7.7758326927
0
LINE
5
348
100
AcDbEntity
8
0
100
AcDbLine
62
0
6
CONTINUOUS
10
3.7189402006
20
8.3842206927
11
4.3272882006
21
8.3842206927
0
LINE
5
349
100
AcDbEntity
8
0
100
AcDbLine
62
0
6
CONTINUOUS
10
4.3967074517
20
8.8467386927
11
3.2258152006
21
8.8467386927
0
LINE
5
34A
100
AcDbEntity
8
0
100
AcDbLine
62
0
6
CONTINUOUS
10
2.0897652006
20
8.8467386927
11
1.5897212006
21
8.8467386927
0
LINE
5
34B
100
AcDbEntity
8
0
100
AcDbLine
62
0
6
CONTINUOUS
10
0.4536842006
20
8.8467326927
11
-0.3022097994
21
8.8467326927
0
LINE
5
34C
100
AcDbEntity
8
0
100
AcDbLine
62
0
6
CONTINUOUS
10
-1.2359477994
20
8.8467326927
11
-1.9918407994
21
8.8467326927
0
LINE
5
34D
100
AcDbEntity
8
0
100
AcDbLine
62
0
6
CONTINUOUS
10
-2.4918407994
20
8.8467326927
11
-2.9918597994
21
8.8467326927
0
LINE
5
34E
100
AcDbEntity
8
0
100
AcDbLine
62
0
6
CONTINUOUS
10
-3.3252037994
20
8.8467326927
11
-3.8252287994
21
8.8467326927
0
LINE
5
34F
100
AcDbEntity
8
0
100
AcDbLine
62
0
6
CONTINUOUS
10
-4.9306227994
20
8.8467326927
11
-5.4306477994
21
8.8467326927
0
LINE
5
350
100
AcDbEntity
8
0
100
AcDbLine
62
9
6
CONTINUOUS
10
5.2861610825
20
18.7848933565
11
4.9861725056
21
18.7848933565
0
LINE
5
351
100
AcDbEntity
8
0
100
AcDbLine
62
9
6
CONTINUOUS
10
-4.7138389175
20
18.7848933565
11
-5.0138274944
21
18.7848933565
0
LINE
5
352
100
AcDbEntity
8
0
100
AcDbLine
62
9
6
CONTINUOUS
10
-5.4902306813
20
18.7848933565
11
-5.1902421043
21
18.7848933565
0
LINE
5
353
100
AcDbEntity
8
0
100
AcDbLine
62
9
6
CONTINUOUS
10
4.5097693187
20
18.7848933565
11
4.8097578957
21
18.7848933565
0
LINE
5
354
100
AcDbEntity
8
0
100
AcDbLine
62
0
6
CONTINUOUS
10
4.9861725056
20
19.1966826927
11
4.8097578957
21
19.1966826927
0
LINE
5
355
100
AcDbEntity
8
0
100
AcDbLine
62
0
6
CONTINUOUS
10
-5.0138274944
20
19.1966826927
11
-5.1902421043
21
19.1966826927
0
LINE
5
356
100
AcDbEntity
8
0
100
AcDbLine
62
0
6
CONTINUOUS
10
5.2730936274
20
19.3653316944
11
4.5228367738
21
19.3653316944
0
LINE
5
357
100
AcDbEntity
8
0
100
AcDbLine
62
0
6
CONTINUOUS
10
-4.7269063726
20
19.3653316944
11
-5.4771632262
21
19.3653316944
0
LINE
5
358
100
AcDbEntity
8
0
100
AcDbLine
62
9
6
CONTINUOUS
10
-10.0020347994
20
19.7466826927
11
-5.5020347994
21
19.7466826927
0
LINE
5
359
100
AcDbEntity
8
0
100
AcDbLine
62
9
6
CONTINUOUS
10
-4.7020347994
20
19.7466826927
11
4.4979652006
21
19.7466826927
0
LINE
5
35A
100
AcDbEntity
8
0
100
AcDbLine
62
9
6
CONTINUOUS
10
5.2979652006
20
19.7466826927
11
9.7979652006
21
19.7466826927
0
LINE
5
35B
100
AcDbEntity
8
0
100
AcDbLine
62
0
6
CONTINUOUS
10
-6.5020347994
20
19.8466826927
11
-7.1020347994
21
19.8466826927
0
LINE
5
35C
100
AcDbEntity
8
0
100
AcDbLine
62
0
6
CONTINUOUS
10
6.2979652006
20
19.8466826927
11
6.8979652006
21
19.8466826927
0
LINE
5
35D
100
AcDbEntity
8
0
100
AcDbLine
62
0
6
CONTINUOUS
10
-9.7020347994
20
20.2466826927
11
9.4979652006
21
20.2466826927
0
LINE
5
35E
100
AcDbEntity
8
0
100
AcDbLine
62
0
6
CONTINUOUS
10
9.9980870445
20
21.5466826927
11
-10.2021566433
21
21.5466826927
0
LINE
5
35F
100
AcDbEntity
8
0
100
AcDbLine
62
0
6
CONTINUOUS
10
-5.0794937262
20
18.3973376693
11
-5.1246301770
21
18.3973408317
0
LINE
5
360
100
AcDbEntity
8
0
100
AcDbLine
62
0
6
CONTINUOUS
10
4.9205062738
20
18.3973376693
11
4.8753698230
21
18.3973408317
0
LINE
5
361
100
AcDbEntity
8
0
100
AcDbLine
62
9
6
CONTINUOUS
10
-5.0968767991
20
18.6968614180
11
-5.1072209106
21
18.6968630813
0
LINE
5
362
100
AcDbEntity
8
0
100
AcDbLine
62
9
6
CONTINUOUS
10
4.9031232009
20
18.6968614180
11
4.8927790894
21
18.6968630813
0
LINE
5
363
100
AcDbEntity
8
0
100
AcDbLine
62
0
6
CONTINUOUS
10
-5.0138274944
20
19.1966826927
11
-4.9822905346
21
19.1964385360
0
LINE
5
364
100
AcDbEntity
8
0
100
AcDbLine
62
0
6
CONTINUOUS
10
4.9861725056
20
19.1966826927
11
5.0177094654
21
19.1964385360
0
LINE
5
365
100
AcDbEntity
8
0
100
AcDbLine
62
0
6
CONTINUOUS
10
-4.9822905346
20
19.1964385360
11
-4.9517128885
21
19.1957653922
0
LINE
5
366
100
AcDbEntity
8
0
100
AcDbLine
62
0
6
CONTINUOUS
10
5.0177094654
20
19.1964385360
11
5.0482871115
21
19.1957653922
0
LINE
5
367
100
AcDbEntity
8
0
100
AcDbLine
62
0
6
CONTINUOUS
10
10.0507701649
20
21.5449101297
11
9.9980870445
21
21.5466826927
0
LINE
5
368
100
AcDbEntity
8
0
100
AcDbLine
62
0
6
CONTINUOUS
10
-4.9517128885
20
19.1957653922
11
-4.9220945561
21
19.1946632614
0
LINE
5
369
100
AcDbEntity
8
0
100
AcDbLine
62
0
6
CONTINUOUS
10
5.0482871115
20
19.1957653922
11
5.0779054439
21
19.1946632614
0
LINE
5
36A
100
AcDbEntity
8
0
100
AcDbLine
62
0
6
CONTINUOUS
10
-4.9220945561
20
19.1946632614
11
-4.8931392819
21
19.1931124812
0
LINE
5
36B
100
AcDbEntity
8
0
100
AcDbLine
62
0
6
CONTINUOUS
10
5.0779054439
20
19.1946632614
11
5.1068607181
21
19.1931124812
0
LINE
5
36C
100
AcDbEntity
8
0
100
AcDbLine
62
0
6
CONTINUOUS
10
10.7707135494
20
20.9537537595
11
10.7554785159
21
21.0039858731
0
LINE
5
36D
100
AcDbEntity
8
0
100
AcDbLine
62
0
6
CONTINUOUS
10
4.5135622497
20
18.6862020600
11
4.5067240806
21
18.7134458142
0
LINE
5
36E
100
AcDbEntity
8
0
100
AcDbLine
62
0
6
CONTINUOUS
10
10.7825991156
20
20.9028554947
11
10.7707135494
21
20.9537537595
0
LINE
5
36F
100
AcDbEntity
8
0
100
AcDbLine
62
0
6
CONTINUOUS
10
0.6789860831
20
-15.3469984940
11
0.6794811192
21
-15.3493214614
0
LINE
5
370
100
AcDbEntity
8
0
100
AcDbLine
62
0
6
CONTINUOUS
10
2.2977163118
20
-12.6096629703
11
2.2928661883
21
-12.5866459811
0
LINE
5
371
100
AcDbEntity
8
0
100
AcDbLine
62
0
6
CONTINUOUS
10
-0.8878176825
20
-16.0717219079
11
-0.8568149261
21
-16.2398196785
0
LINE
5
372
100
AcDbEntity
8
0
100
AcDbLine
62
0
6
CONTINUOUS
10
-3.3394040028
20
2.9130689409
11
-3.3494157692
21
2.9691935135
0
LINE
5
373
100
AcDbEntity
8
0
100
AcDbLine
62
0
6
CONTINUOUS
10
-5.4932657459
20
18.7133980146
11
-5.4981248036
21
18.7408261334
0
LINE
5
374
100
AcDbEntity
8
0
100
AcDbLine
62
0
6
CONTINUOUS
10
4.5067240806
20
18.7134458142
11
4.5018700653
21
18.7408598873
0
LINE
5
375
100
AcDbEntity
8
0
100
AcDbLine
62
9
6
CONTINUOUS
10
-5.1878004967
20
18.7643586550
11
-5.1895764313
21
18.7744219521
0
LINE
5
376
100
AcDbEntity
8
0
100
AcDbLine
62
9
6
CONTINUOUS
10
4.8121995033
20
18.7643586550
11
4.8104235687
21
18.7744219521
0
LINE
5
377
100
AcDbEntity
8
0
100
AcDbLine
62
0
6
CONTINUOUS
10
-5.4797559322
20
18.6953023934
11
-5.4876036036
21
18.7397856521
0
LINE
5
378
100
AcDbEntity
8
0
100
AcDbLine
62
0
6
CONTINUOUS
10
4.5202440678
20
18.6953023934
11
4.5123963964
21
18.7397856521
0
LINE
5
379
100
AcDbEntity
8
0
100
AcDbLine
62
0
6
CONTINUOUS
10
-0.8820627263
20
-15.3475278738
11
-0.8815648069
21
-15.3503802210
0
LINE
5
37A
100
AcDbEntity
8
0
100
AcDbLine
62
0
6
CONTINUOUS
10
-10.9951402100
20
-21.0581392744
11
-10.9866687144
21
-21.1094901093
0
LINE
5
37B
100
AcDbEntity
8
0
100
AcDbLine
62
0
6
CONTINUOUS
10
-4.7059340986
20
20.2436972314
11
-4.7063982333
21
20.2466826927
0
LINE
5
37C
100
AcDbEntity
8
0
100
AcDbLine
62
0
6
CONTINUOUS
10
-3.8058061274
20
2.8681126980
11
-3.8013213899
21
2.8310177212
0
LINE
5
37D
100
AcDbEntity
8
0
100
AcDbLine
62
0
6
CONTINUOUS
10
-0.8815648069
20
-15.3503802210
11
-0.8810656429
21
-15.3549556513
0
LINE
5
37E
100
AcDbEntity
8
0
100
AcDbLine
62
0
6
CONTINUOUS
10
-5.4981248036
20
18.7408261334
11
-5.5010478214
21
18.7685927699
0
LINE
5
37F
100
AcDbEntity
8
0
100
AcDbLine
62
0
6
CONTINUOUS
10
4.5018700653
20
18.7408598873
11
4.4989504386
21
18.7686105906
0
LINE
5
380
100
AcDbEntity
8
0
100
AcDbLine
62
0
6
CONTINUOUS
10
-3.3335160829
20
2.8538045004
11
-3.3394040028
21
2.9130689409
0
LINE
5
381
100
AcDbEntity
8
0
100
AcDbLine
62
0
6
CONTINUOUS
10
10.7961926396
20
20.7994876739
11
10.7910706113
21
20.8515046599
0
LINE
5
382
100
AcDbEntity
8
0
100
AcDbLine
62
0
6
CONTINUOUS
10
-0.8768897956
20
-15.4009580728
11
-0.8743931584
21
-15.4283899008
0
LINE
5
383
100
AcDbEntity
8
0
100
AcDbLine
62
0
6
CONTINUOUS
10
-0.8810656429
20
-15.3549556513
11
-0.8773671638
21
-15.3957075392
0
LINE
5
384
100
AcDbEntity
8
0
100
AcDbLine
62
0
6
CONTINUOUS
10
0.6799723584
20
-15.3533493162
11
0.6804589499
21
-15.3590759933
0
LINE
5
385
100
AcDbEntity
8
0
100
AcDbLine
62
0
6
CONTINUOUS
10
-0.8563013296
20
-16.2441349061
11
-0.8558049022
21
-16.2512242243
0
LINE
5
386
100
AcDbEntity
8
0
100
AcDbLine
62
0
6
CONTINUOUS
10
0.6804589499
20
-15.3590759933
11
0.6809417443
21
-15.3665075578
0
LINE
5
387
100
AcDbEntity
8
0
100
AcDbLine
62
9
6
CONTINUOUS
10
-5.1895764313
20
18.7744219521
11
-5.1902421043
21
18.7848933565
0
LINE
5
388
100
AcDbEntity
8
0
100
AcDbLine
62
0
6
CONTINUOUS
10
-4.7269063726
20
19.3653316944
11
-4.7138389175
21
19.1548883727
0
LINE
5
389
100
AcDbEntity
8
0
100
AcDbLine
62
0
6
CONTINUOUS
10
-5.4876036036
20
18.7397856521
11
-5.4902306813
21
18.7848933565
0
LINE
5
38A
100
AcDbEntity
8
0
100
AcDbLine
62
0
6
CONTINUOUS
10
-4.7054846311
20
20.2355396472
11
-4.7059340986
21
20.2436972314
0
LINE
5
38B
100
AcDbEntity
8
0
100
AcDbLine
62
0
6
CONTINUOUS
10
0.6809417443
20
-15.3665075578
11
0.6814207417
21
-15.3756440097
0
LINE
5
38C
100
AcDbEntity
8
0
100
AcDbLine
62
0
6
CONTINUOUS
10
-0.8558049022
20
-16.2512242243
11
-0.8553256441
21
-16.2610876332
0
LINE
5
38D
100
AcDbEntity
8
0
100
AcDbLine
62
0
6
CONTINUOUS
10
-5.5010478214
20
18.7685927699
11
-5.5020347994
21
18.7966979241
0
LINE
5
38E
100
AcDbEntity
8
0
100
AcDbLine
62
0
6
CONTINUOUS
10
-11.0020347994
20
-20.9534391511
11
-11.0002622384
21
-21.0061222884
0
LINE
5
38F
100
AcDbEntity
8
0
100
AcDbLine
62
0
6
CONTINUOUS
10
-4.7050498309
20
20.2222099402
11
-4.7054846311
21
20.2355396472
0
LINE
5
390
100
AcDbEntity
8
0
100
AcDbLine
62
0
6
CONTINUOUS
10
10.1541380026
20
-21.7379512223
11
10.2050362674
21
-21.7260656561
0
LINE
5
391
100
AcDbEntity
8
0
100
AcDbLine
62
0
6
CONTINUOUS
10
-4.0091862531
20
2.5131180462
11
-4.0399723735
21
2.5079204921
0
LINE
5
392
100
AcDbEntity
8
0
100
AcDbLine
62
0
6
CONTINUOUS
10
-3.9009967932
20
2.1789978359
11
-3.8381138825
21
2.1892739812
0
LINE
5
393
100
AcDbEntity
8
0
100
AcDbLine
62
0
6
CONTINUOUS
10
4.5882758629
20
19.1829487742
11
4.6106768126
21
19.1860508605
0
LINE
5
394
100
AcDbEntity
8
0
100
AcDbLine
62
0
6
CONTINUOUS
10
-3.9662211538
20
2.1711132120
11
-3.9009967932
21
2.1789978359
0
LINE
5
395
100
AcDbEntity
8
0
100
AcDbLine
62
0
6
CONTINUOUS
10
-4.0399723735
20
2.5079204921
11
-4.0721592944
21
2.5041457076
0
LINE
5
396
100
AcDbEntity
8
0
100
AcDbLine
62
0
6
CONTINUOUS
10
4.9653379340
20
18.4025736556
11
4.9205062738
21
18.3973376693
0
LINE
5
397
100
AcDbEntity
8
0
100
AcDbLine
62
0
6
CONTINUOUS
10
-5.0346620660
20
18.4025736556
11
-5.0794937262
21
18.3973376693
0
LINE
5
398
100
AcDbEntity
8
0
100
AcDbLine
62
9
6
CONTINUOUS
10
4.9132624805
20
18.6980231314
11
4.9031232009
21
18.6968614180
0
LINE
5
399
100
AcDbEntity
8
0
100
AcDbLine
62
9
6
CONTINUOUS
10
-5.0867375195
20
18.6980231314
11
-5.0968767991
21
18.6968614180
0
LINE
5
39A
100
AcDbEntity
8
0
100
AcDbLine
62
0
6
CONTINUOUS
10
4.6106768126
20
19.1860508605
11
4.6349258430
21
19.1887829470
0
LINE
5
39B
100
AcDbEntity
8
0
100
AcDbLine
62
0
6
CONTINUOUS
10
-5.3893231874
20
19.1860508605
11
-5.3650741570
21
19.1887829470
0
LINE
5
39C
100
AcDbEntity
8
0
100
AcDbLine
62
0
6
CONTINUOUS
10
-5.0386012210
20
18.4015989194
11
-5.0764127313
21
18.3976355807
0
LINE
5
39D
100
AcDbEntity
8
0
100
AcDbLine
62
0
6
CONTINUOUS
10
4.9609000124
20
18.4015168822
11
4.9231109538
21
18.3976038317
0
LINE
5
39E
100
AcDbEntity
8
0
100
AcDbLine
62
0
6
CONTINUOUS
10
-10.2548397805
20
21.5449101317
11
-10.3068567665
21
21.5397881034
0
LINE
5
39F
100
AcDbEntity
8
0
100
AcDbLine
62
0
6
CONTINUOUS
10
4.6349258430
20
19.1887829470
11
4.6610737227
21
19.1911327140
0
LINE
5
3A0
100
AcDbEntity
8
0
100
AcDbLine
62
0
6
CONTINUOUS
10
-5.3650741570
20
19.1887829470
11
-5.3389262773
21
19.1911327140
0
LINE
5
3A1
100
AcDbEntity
8
0
100
AcDbLine
62
0
6
CONTINUOUS
10
4.6610737227
20
19.1911327140
11
4.6890696832
21
19.1931124812
0
LINE
5
3A2
100
AcDbEntity
8
0
100
AcDbLine
62
0
6
CONTINUOUS
10
-5.3389262773
20
19.1911327140
11
-5.3109303168
21
19.1931124812
0
LINE
5
3A3
100
AcDbEntity
8
0
100
AcDbLine
62
0
6
CONTINUOUS
10
4.6890696832
20
19.1931124812
11
4.7180249574
21
19.1946632614
0
LINE
5
3A4
100
AcDbEntity
8
0
100
AcDbLine
62
0
6
CONTINUOUS
10
-5.3109303168
20
19.1931124812
11
-5.2819750426
21
19.1946632614
0
LINE
5
3A5
100
AcDbEntity
8
0
100
AcDbLine
62
0
6
CONTINUOUS
10
-10.2021566433
20
21.5466826927
11
-10.2548397805
21
21.5449101317
0
LINE
5
3A6
100
AcDbEntity
8
0
100
AcDbLine
62
0
6
CONTINUOUS
10
10.7910706113
20
20.8515046599
11
10.7825991156
21
20.9028554947
0
LINE
5
3A7
100
AcDbEntity
8
0
100
AcDbLine
62
0
6
CONTINUOUS
10
5.2940659014
20
20.2436972314
11
5.2936017667
21
20.2466826927
0
LINE
5
3A8
100
AcDbEntity
8
0
100
AcDbLine
62
0
6
CONTINUOUS
10
0.6794811192
20
-15.3493214614
11
0.6799723584
21
-15.3533493162
0
LINE
5
3A9
100
AcDbEntity
8
0
100
AcDbLine
62
0
6
CONTINUOUS
10
-0.8568149261
20
-16.2398196785
11
-0.8563013296
21
-16.2441349061
0
LINE
5
3AA
100
AcDbEntity
8
0
100
AcDbLine
62
9
6
CONTINUOUS
10
4.8104235687
20
18.7744219521
11
4.8097578957
21
18.7848933565
0
LINE
5
3AB
100
AcDbEntity
8
0
100
AcDbLine
62
0
6
CONTINUOUS
10
5.2730936274
20
19.3653316944
11
5.2861610825
21
19.1548883727
0
LINE
5
3AC
100
AcDbEntity
8
0
100
AcDbLine
62
0
6
CONTINUOUS
10
4.5123963964
20
18.7397856521
11
4.5097693187
21
18.7848933565
0
LINE
5
3AD
100
AcDbEntity
8
0
100
AcDbLine
62
0
6
CONTINUOUS
10
5.2945153689
20
20.2355396472
11
5.2940659014
21
20.2436972314
0
LINE
5
3AE
100
AcDbEntity
8
0
100
AcDbLine
62
0
6
CONTINUOUS
10
0.6817519792
20
-15.3838588457
11
0.6814207417
21
-15.3756440097
0
LINE
5
3AF
100
AcDbEntity
8
0
100
AcDbLine
62
0
6
CONTINUOUS
10
-0.8553256441
20
-16.2610876332
11
-0.8548586945
21
-16.2738788078
0
LINE
5
3B0
100
AcDbEntity
8
0
100
AcDbLine
62
0
6
CONTINUOUS
10
4.4989504386
20
18.7686105906
11
4.4979652006
21
18.7966979241
0
LINE
5
3B1
100
AcDbEntity
8
0
100
AcDbLine
62
0
6
CONTINUOUS
10
10.7979652006
20
20.7468045366
11
10.7961926396
21
20.7994876739
0
LINE
5
3B2
100
AcDbEntity
8
0
100
AcDbLine
62
0
6
CONTINUOUS
10
5.2949501691
20
20.2222099402
11
5.2945153689
21
20.2355396472
0
LINE
5
3B3
100
AcDbEntity
8
0
100
AcDbLine
62
0
6
CONTINUOUS
10
0.6820621769
20
-15.3938116027
11
0.6817519792
21
-15.3838588457
0
LINE
5
3B4
100
AcDbEntity
8
0
100
AcDbLine
62
0
6
CONTINUOUS
10
-0.8548586945
20
-16.2738788078
11
-0.8544089141
21
-16.2894440731
0
LINE
5
3B5
100
AcDbEntity
8
0
100
AcDbLine
62
0
6
CONTINUOUS
10
-3.3317520097
20
2.7914001920
11
-3.3335160829
21
2.8538045004
0
LINE
5
3B6
100
AcDbEntity
8
0
100
AcDbLine
62
0
6
CONTINUOUS
10
-3.8013213899
20
2.8310177212
11
-3.8002596562
21
2.7914001920
0
LINE
5
3B7
100
AcDbEntity
8
0
100
AcDbLine
62
0
6
CONTINUOUS
10
0.6823513349
20
-15.4055022806
11
0.6820621769
21
-15.3938116027
0
LINE
5
3B8
100
AcDbEntity
8
0
100
AcDbLine
62
0
6
CONTINUOUS
10
-0.8544089141
20
-16.2894440731
11
-0.8539908849
21
-16.3073224035
0
LINE
5
3B9
100
AcDbEntity
8
0
100
AcDbLine
62
0
6
CONTINUOUS
10
-4.7046252879
20
20.2034505574
11
-4.7050498309
21
20.2222099402
0
LINE
5
3BA
100
AcDbEntity
8
0
100
AcDbLine
62
0
6
CONTINUOUS
10
5.2953747121
20
20.2034505574
11
5.2949501691
21
20.2222099402
0
LINE
5
3BB
100
AcDbEntity
8
0
100
AcDbLine
62
0
6
CONTINUOUS
10
0.6828715140
20
-15.4343584300
11
0.6823513349
21
-15.4055022806
0
LINE
5
3BC
100
AcDbEntity
8
0
100
AcDbLine
62
0
6
CONTINUOUS
10
-0.8539908849
20
-16.3073224035
11
-0.8532532429
21
-16.3501032522
0
LINE
5
3BD
100
AcDbEntity
8
0
100
AcDbLine
62
0
6
CONTINUOUS
10
-4.7038334338
20
20.1511880816
11
-4.7046252879
21
20.2034505574
0
LINE
5
3BE
100
AcDbEntity
8
0
100
AcDbLine
62
0
6
CONTINUOUS
10
5.2961665662
20
20.1511880816
11
5.2953747121
21
20.2034505574
0
LINE
5
3BF
100
AcDbEntity
8
0
100
AcDbLine
62
0
6
CONTINUOUS
10
0.6832847380
20
-15.4690406894
11
0.6828715140
21
-15.4343584300
0
LINE
5
3C0
100
AcDbEntity
8
0
100
AcDbLine
62
0
6
CONTINUOUS
10
-0.8532532429
20
-16.3501032522
11
-0.8526728739
21
-16.4004538780
0
LINE
5
3C1
100
AcDbEntity
8
0
100
AcDbLine
62
0
6
CONTINUOUS
10
-4.7028681140
20
20.0405710438
11
-4.7038334338
21
20.1511880816
0
LINE
5
3C2
100
AcDbEntity
8
0
100
AcDbLine
62
0
6
CONTINUOUS
10
5.2971318860
20
20.0405710438
11
5.2961665662
21
20.1511880816
0
LINE
5
3C3
100
AcDbEntity
8
0
100
AcDbLine
62
0
6
CONTINUOUS
10
0.6836690116
20
-15.5294397048
11
0.6832847380
21
-15.4690406894
0
LINE
5
3C4
100
AcDbEntity
8
0
100
AcDbLine
62
0
6
CONTINUOUS
10
-0.8526728739
20
-16.4004538780
11
-0.8521405681
21
-16.4862462104
0
LINE
5
3C5
100
AcDbEntity
8
0
100
AcDbLine
62
0
6
CONTINUOUS
10
-4.7020608493
20
19.7998647612
11
-4.7028681140
21
20.0405710438
0
LINE
5
3C6
100
AcDbEntity
8
0
100
AcDbLine
62
0
6
CONTINUOUS
10
5.2979391507
20
19.7998647612
11
5.2971318860
21
20.0405710438
0
LINE
5
3C7
100
AcDbEntity
8
0
100
AcDbLine
62
0
6
CONTINUOUS
10
0.6837480837
20
-16.0717219079
11
0.6836690116
21
-15.5294397048
0
LINE
5
3C8
100
AcDbEntity
8
0
100
AcDbLine
62
0
6
CONTINUOUS
10
-11.0020347994
20
-20.9534391511
11
-11.0020347994
21
20.7468045366
0
LINE
5
3C9
100
AcDbEntity
8
0
100
AcDbLine
62
0
6
CONTINUOUS
10
-10.7020347994
20
-6.0834488919
11
-10.7020347994
21
5.8768142774
0
LINE
5
3CA
100
AcDbEntity
8
0
100
AcDbLine
62
0
6
CONTINUOUS
10
-10.0020347994
20
-20.1533173073
11
-10.0020347994
21
19.9466826927
0
LINE
5
3CB
100
AcDbEntity
8
0
100
AcDbLine
62
9
6
CONTINUOUS
10
-9.7020347994
20
20.2466826927
11
-9.7020347994
21
-20.4533173073
0
LINE
5
3CC
100
AcDbEntity
8
0
100
AcDbLine
62
0
6
CONTINUOUS
10
-7.1020347994
20
-20.4533173073
11
-7.1020347994
21
-20.0533173073
0
LINE
5
3CD
100
AcDbEntity
8
0
100
AcDbLine
62
0
6
CONTINUOUS
10
-7.1020347994
20
20.2466826927
11
-7.1020347994
21
19.8466826927
0
LINE
5
3CE
100
AcDbEntity
8
0
100
AcDbLine
62
0
6
CONTINUOUS
10
-6.5020347994
20
-20.4533173073
11
-6.5020347994
21
-20.0533173073
0
LINE
5
3CF
100
AcDbEntity
8
0
100
AcDbLine
62
0
6
CONTINUOUS
10
-6.5020347994
20
20.2466826927
11
-6.5020347994
21
19.8466826927
0
LINE
5
3D0
100
AcDbEntity
8
0
100
AcDbLine
62
0
6
CONTINUOUS
10
-5.4902306813
20
18.7848933565
11
-5.4902306813
21
19.1548883727
0
LINE
5
3D1
100
AcDbEntity
8
0
100
AcDbLine
62
0
6
CONTINUOUS
10
-5.4771632262
20
19.3653316944
11
-5.4771632262
21
20.2466826927
0
LINE
5
3D2
100
AcDbEntity
8
0
100
AcDbLine
62
9
6
CONTINUOUS
10
-5.1902421043
20
18.7848933565
11
-5.1902421043
21
19.1966826927
0
LINE
5
3D3
100
AcDbEntity
8
0
100
AcDbLine
62
9
6
CONTINUOUS
10
-5.0138274944
20
19.1966826927
11
-5.0138274944
21
18.7848933565
0
LINE
5
3D4
100
AcDbEntity
8
0
100
AcDbLine
62
0
6
CONTINUOUS
10
-4.8026177994
20
3.4216826927
11
-4.8026177994
21
1.3716826927
0
LINE
5
3D5
100
AcDbEntity
8
0
100
AcDbLine
62
0
6
CONTINUOUS
10
-4.7269063726
20
19.3653316944
11
-4.7269063726
21
20.2466826927
0
LINE
5
3D6
100
AcDbEntity
8
0
100
AcDbLine
62
0
6
CONTINUOUS
10
-4.7138389175
20
19.1548883727
11
-4.7138389175
21
18.7848933565
0
LINE
5
3D7
100
AcDbEntity
8
0
100
AcDbLine
62
0
6
CONTINUOUS
10
-4.7020608493
20
19.7998647612
11
-4.7020347994
21
18.7966979241
0
LINE
5
3D8
100
AcDbEntity
8
0
100
AcDbLine
62
0
6
CONTINUOUS
10
-4.3624997994
20
1.3716826927
11
-4.3624997994
21
2.1611176927
0
LINE
5
3D9
100
AcDbEntity
8
0
100
AcDbLine
62
0
6
CONTINUOUS
10
-4.3624997994
20
2.5017936927
11
-4.3624997994
21
3.0810066927
0
LINE
5
3DA
100
AcDbEntity
8
0
100
AcDbLine
62
0
6
CONTINUOUS
10
-3.0563407994
20
3.4216826927
11
-3.0563407994
21
1.3716826927
0
LINE
5
3DB
100
AcDbEntity
8
0
100
AcDbLine
62
0
6
CONTINUOUS
10
-2.9918597994
20
8.8467326927
11
-2.9918657994
21
6.3466136927
0
LINE
5
3DC
100
AcDbEntity
8
0
100
AcDbLine
62
0
6
CONTINUOUS
10
-2.6162227994
20
1.7123586927
11
-2.6162227994
21
3.4216826927
0
LINE
5
3DD
100
AcDbEntity
8
0
100
AcDbLine
62
0
6
CONTINUOUS
10
-2.6020347994
20
-21.6533173073
11
-2.6020347994
21
-20.4533173073
0
LINE
5
3DE
100
AcDbEntity
8
0
100
AcDbLine
62
0
6
CONTINUOUS
10
-2.4918477994
20
6.3466196927
11
-2.4918407994
21
8.8467326927
0
LINE
5
3DF
100
AcDbEntity
8
0
100
AcDbLine
62
0
6
CONTINUOUS
10
-2.3270344295
20
-12.1389513778
11
-2.3270344295
21
-13.9307291670
0
LINE
5
3E0
100
AcDbEntity
8
0
100
AcDbLine
62
0
6
CONTINUOUS
10
-1.9918407994
20
8.8467326927
11
-1.9918407994
21
6.3466196927
0
LINE
5
3E1
100
AcDbEntity
8
0
100
AcDbLine
62
0
6
CONTINUOUS
10
-1.8577237994
20
1.3716826927
11
-1.8577237994
21
1.7123586927
0
LINE
5
3E2
100
AcDbEntity
8
0
100
AcDbLine
62
0
6
CONTINUOUS
10
-1.4918227994
20
6.3466196927
11
-1.4918227994
21
7.9952766927
0
LINE
5
3E3
100
AcDbEntity
8
0
100
AcDbLine
62
0
6
CONTINUOUS
10
-0.8520347994
20
-15.4356980652
11
-0.8520347994
21
-16.5475030518
0
LINE
5
3E4
100
AcDbEntity
8
0
100
AcDbLine
62
0
6
CONTINUOUS
10
-0.1020347994
20
-20.4533173073
11
-0.1020347994
21
-21.6533173073
0
LINE
5
3E5
100
AcDbEntity
8
0
100
AcDbLine
62
0
6
CONTINUOUS
10
-0.0463407994
20
7.9952766927
11
-0.0463347994
21
6.3466196927
0
LINE
5
3E6
100
AcDbEntity
8
0
100
AcDbLine
62
0
6
CONTINUOUS
10
0.4536842006
20
6.3466196927
11
0.4536842006
21
8.8467326927
0
LINE
5
3E7
100
AcDbEntity
8
0
100
AcDbLine
62
0
6
CONTINUOUS
10
0.5638122006
20
3.4216826927
11
0.5638122006
21
1.3716826927
0
LINE
5
3E8
100
AcDbEntity
8
0
100
AcDbLine
62
0
6
CONTINUOUS
10
0.6479652006
20
-16.5475030518
11
0.6479652006
21
-15.4356980652
0
LINE
5
3E9
100
AcDbEntity
8
0
100
AcDbLine
62
0
6
CONTINUOUS
10
0.9755402006
20
1.3716826927
11
0.9755402006
21
3.0873936927
0
LINE
5
3EA
100
AcDbEntity
8
0
100
AcDbLine
62
0
6
CONTINUOUS
10
2.0033562006
20
3.4216826927
11
2.0033562006
21
1.7971546927
0
LINE
5
3EB
100
AcDbEntity
8
0
100
AcDbLine
62
0
6
CONTINUOUS
10
2.4150852006
20
1.3716826927
11
2.4150852006
21
3.4216826927
0
LINE
5
3EC
100
AcDbEntity
8
0
100
AcDbLine
62
0
6
CONTINUOUS
10
3.2258152006
20
8.8467386927
11
3.2258152006
21
6.3466266927
0
LINE
5
3ED
100
AcDbEntity
8
0
100
AcDbLine
62
0
6
CONTINUOUS
10
3.7189462006
20
7.7758326927
11
3.7189402006
21
8.3842206927
0
LINE
5
3EE
100
AcDbEntity
8
0
100
AcDbLine
62
0
6
CONTINUOUS
10
4.5097693187
20
18.7848933565
11
4.5097693187
21
19.1548883727
0
LINE
5
3EF
100
AcDbEntity
8
0
100
AcDbLine
62
0
6
CONTINUOUS
10
4.5228367738
20
19.3653316944
11
4.5228367738
21
20.2466826927
0
LINE
5
3F0
100
AcDbEntity
8
0
100
AcDbLine
62
9
6
CONTINUOUS
10
4.8097578957
20
18.7848933565
11
4.8097578957
21
19.1966826927
0
LINE
5
3F1
100
AcDbEntity
8
0
100
AcDbLine
62
9
6
CONTINUOUS
10
4.9861725056
20
19.1966826927
11
4.9861725056
21
18.7848933565
0
LINE
5
3F2
100
AcDbEntity
8
0
100
AcDbLine
62
0
6
CONTINUOUS
10
5.2730936274
20
19.3653316944
11
5.2730936274
21
20.2466826927
0
LINE
5
3F3
100
AcDbEntity
8
0
100
AcDbLine
62
0
6
CONTINUOUS
10
5.2861610825
20
19.1548883727
11
5.2861610825
21
18.7848933565
0
LINE
5
3F4
100
AcDbEntity
8
0
100
AcDbLine
62
0
6
CONTINUOUS
10
5.2979391507
20
19.7998647612
11
5.2979652006
21
18.7966979241
0
LINE
5
3F5
100
AcDbEntity
8
0
100
AcDbLine
62
0
6
CONTINUOUS
10
6.2979652006
20
-20.4533173073
11
6.2979652006
21
-20.0533173073
0
LINE
5
3F6
100
AcDbEntity
8
0
100
AcDbLine
62
0
6
CONTINUOUS
10
6.2979652006
20
20.2466826927
11
6.2979652006
21
19.8466826927
0
LINE
5
3F7
100
AcDbEntity
8
0
100
AcDbLine
62
0
6
CONTINUOUS
10
6.8979652006
20
20.2466826927
11
6.8979652006
21
19.8466826927
0
LINE
5
3F8
100
AcDbEntity
8
0
100
AcDbLine
62
0
6
CONTINUOUS
10
6.8979652006
20
-20.4533173073
11
6.8979652006
21
-20.0533173073
0
LINE
5
3F9
100
AcDbEntity
8
0
100
AcDbLine
62
9
6
CONTINUOUS
10
9.4979652006
20
-20.4533173073
11
9.4979652006
21
20.2466826927
0
LINE
5
3FA
100
AcDbEntity
8
0
100
AcDbLine
62
0
6
CONTINUOUS
10
9.7979652006
20
-20.1533173073
11
9.7979652006
21
19.9466826927
0
LINE
5
3FB
100
AcDbEntity
8
0
100
AcDbLine
62
0
6
CONTINUOUS
10
10.4979652006
20
-6.0834488919
11
10.4979652006
21
5.8768142774
0
LINE
5
3FC
100
AcDbEntity
8
0
100
AcDbLine
62
0
6
CONTINUOUS
10
10.7979652006
20
-20.9534391511
11
10.7979652006
21
20.7468045366
0
LINE
5
3FD
100
AcDbEntity
8
0
100
AcDbLine
62
0
6
CONTINUOUS
10
-0.8877386103
20
-15.5294397016
11
-0.8878176825
21
-16.0717219079
0
LINE
5
3FE
100
AcDbEntity
8
0
100
AcDbLine
62
0
6
CONTINUOUS
10
3.7258402006
20
6.3466266927
11
3.7258962006
21
7.3133136927
0
LINE
5
3FF
100
AcDbEntity
8
0
100
AcDbLine
62
0
6
CONTINUOUS
10
-5.5016575473
20
19.9498346570
11
-5.5020347994
21
18.7966979241
0
LINE
5
400
100
AcDbEntity
8
0
100
AcDbLine
62
0
6
CONTINUOUS
10
4.4983424527
20
19.9498346570
11
4.4979652006
21
18.7966979241
0
LINE
5
401
100
AcDbEntity
8
0
100
AcDbLine
62
0
6
CONTINUOUS
10
-5.5005893350
20
20.1183141163
11
-5.5016575473
21
19.9498346570
0
LINE
5
402
100
AcDbEntity
8
0
100
AcDbLine
62
0
6
CONTINUOUS
10
-0.8873543367
20
-15.4690406889
11
-0.8877386103
21
-15.5294397016
0
LINE
5
403
100
AcDbEntity
8
0
100
AcDbLine
62
0
6
CONTINUOUS
10
4.4994106650
20
20.1183141163
11
4.4983424527
21
19.9498346570
0
LINE
5
404
100
AcDbEntity
8
0
100
AcDbLine
62
0
6
CONTINUOUS
10
0.6481974245
20
-16.4569770044
11
0.6488719959
21
-16.3743999304
0
LINE
5
405
100
AcDbEntity
8
0
100
AcDbLine
62
0
6
CONTINUOUS
10
-0.8869411127
20
-15.4343584294
11
-0.8873543367
21
-15.4690406889
0
LINE
5
406
100
AcDbEntity
8
0
100
AcDbLine
62
0
6
CONTINUOUS
10
-5.4998541866
20
20.1795190517
11
-5.5005893350
21
20.1183141163
0
LINE
5
407
100
AcDbEntity
8
0
100
AcDbLine
62
0
6
CONTINUOUS
10
4.5001458134
20
20.1795190517
11
4.4994106650
21
20.1183141163
0
LINE
5
408
100
AcDbEntity
8
0
100
AcDbLine
62
0
6
CONTINUOUS
10
0.6488719959
20
-16.3743999304
11
0.6495368031
21
-16.3275464391
0
LINE
5
409
100
AcDbEntity
8
0
100
AcDbLine
62
0
6
CONTINUOUS
10
-5.4994443109
20
20.2034505574
11
-5.4998541866
21
20.1795190517
0
LINE
5
40A
100
AcDbEntity
8
0
100
AcDbLine
62
0
6
CONTINUOUS
10
4.5005556891
20
20.2034505574
11
4.5001458134
21
20.1795190517
0
LINE
5
40B
100
AcDbEntity
8
0
100
AcDbLine
62
0
6
CONTINUOUS
10
-0.8864209336
20
-15.4055022767
11
-0.8869411127
21
-15.4343584294
0
LINE
5
40C
100
AcDbEntity
8
0
100
AcDbLine
62
0
6
CONTINUOUS
10
0.6495368031
20
-16.3275464391
11
0.6499218238
21
-16.3072968494
0
LINE
5
40D
100
AcDbEntity
8
0
100
AcDbLine
62
0
6
CONTINUOUS
10
-5.4990197679
20
20.2222099402
11
-5.4994443109
21
20.2034505574
0
LINE
5
40E
100
AcDbEntity
8
0
100
AcDbLine
62
0
6
CONTINUOUS
10
4.5009802321
20
20.2222099402
11
4.5005556891
21
20.2034505574
0
LINE
5
40F
100
AcDbEntity
8
0
100
AcDbLine
62
0
6
CONTINUOUS
10
0.6499218238
20
-16.3072968494
11
0.6503402658
21
-16.2894101804
0
LINE
5
410
100
AcDbEntity
8
0
100
AcDbLine
62
0
6
CONTINUOUS
10
-0.8861317756
20
-15.3938115991
11
-0.8864209336
21
-15.4055022767
0
LINE
5
411
100
AcDbEntity
8
0
100
AcDbLine
62
0
6
CONTINUOUS
10
-3.8002596562
20
2.7914001920
11
-3.8013213899
21
2.7517826628
0
LINE
5
412
100
AcDbEntity
8
0
100
AcDbLine
62
0
6
CONTINUOUS
10
-3.3335160829
20
2.7289958836
11
-3.3317520097
21
2.7914001920
0
LINE
5
413
100
AcDbEntity
8
0
100
AcDbLine
62
0
6
CONTINUOUS
10
0.6503402658
20
-16.2894101804
11
0.6507904772
21
-16.2738410011
0
LINE
5
414
100
AcDbEntity
8
0
100
AcDbLine
62
0
6
CONTINUOUS
10
-0.8858215779
20
-15.3838588434
11
-0.8861317756
21
-15.3938115991
0
LINE
5
415
100
AcDbEntity
8
0
100
AcDbLine
62
0
6
CONTINUOUS
10
-5.4985849677
20
20.2355396472
11
-5.4990197679
21
20.2222099402
0
LINE
5
416
100
AcDbEntity
8
0
100
AcDbLine
62
0
6
CONTINUOUS
10
-11.0002622364
20
20.7994876571
11
-11.0020347994
21
20.7468045366
0
LINE
5
417
100
AcDbEntity
8
0
100
AcDbLine
62
0
6
CONTINUOUS
10
-5.4981355002
20
20.2436972314
11
-5.4985849677
21
20.2355396472
0
LINE
5
418
100
AcDbEntity
8
0
100
AcDbLine
62
0
6
CONTINUOUS
10
-4.7020347994
20
18.7966979241
11
-4.7045675886
21
18.7518850803
0
LINE
5
419
100
AcDbEntity
8
0
100
AcDbLine
62
0
6
CONTINUOUS
10
-4.7138389175
20
18.7848933565
11
-4.7164686976
21
18.7397625507
0
LINE
5
41A
100
AcDbEntity
8
0
100
AcDbLine
62
0
6
CONTINUOUS
10
-3.9515135414
20
2.5264961469
11
-3.9796494970
21
2.5190957117
0
LINE
5
41B
100
AcDbEntity
8
0
100
AcDbLine
62
0
6
CONTINUOUS
10
5.0092585204
20
18.4129779273
11
4.9653379340
21
18.4025736556
0
LINE
5
41C
100
AcDbEntity
8
0
100
AcDbLine
62
0
6
CONTINUOUS
10
-3.8381138825
20
2.1892739812
11
-3.7782253092
21
2.2026324238
0
LINE
5
41D
100
AcDbEntity
8
0
100
AcDbLine
62
0
6
CONTINUOUS
10
-5.0003983603
20
18.4098110765
11
-5.0386012210
21
18.4015989194
0
LINE
5
41E
100
AcDbEntity
8
0
100
AcDbLine
62
0
6
CONTINUOUS
10
4.9990945697
20
18.4096782125
11
4.9609000124
21
18.4015168822
0
LINE
5
41F
100
AcDbEntity
8
0
100
AcDbLine
62
0
6
CONTINUOUS
10
4.5513078928
20
19.1759123574
11
4.5684594556
21
19.1795726347
0
LINE
5
420
100
AcDbEntity
8
0
100
AcDbLine
62
0
6
CONTINUOUS
10
-5.4486921072
20
19.1759123574
11
-5.4315405444
21
19.1795726347
0
LINE
5
421
100
AcDbEntity
8
0
100
AcDbLine
62
0
6
CONTINUOUS
10
-3.9796494970
20
2.5190957117
11
-4.0091862531
21
2.5131180462
0
LINE
5
422
100
AcDbEntity
8
0
100
AcDbLine
62
0
6
CONTINUOUS
10
4.5684594556
20
19.1795726347
11
4.5882758629
21
19.1829487742
0
LINE
5
423
100
AcDbEntity
8
0
100
AcDbLine
62
0
6
CONTINUOUS
10
-5.4315405444
20
19.1795726347
11
-5.4117241371
21
19.1829487742
0
LINE
5
424
100
AcDbEntity
8
0
100
AcDbLine
62
0
6
CONTINUOUS
10
-10.3068567665
20
21.5397881034
11
-10.3582076014
21
21.5313166077
0
LINE
5
425
100
AcDbEntity
8
0
100
AcDbLine
62
0
6
CONTINUOUS
10
6.8979652006
20
19.8466826927
11
9.4979652006
21
20.2466826927
0
LINE
5
426
100
AcDbEntity
8
0
100
AcDbLine
62
0
6
CONTINUOUS
10
-5.4117241371
20
19.1829487742
11
-5.3893231874
21
19.1860508605
0
LINE
5
427
100
AcDbEntity
8
0
100
AcDbLine
62
0
6
CONTINUOUS
10
4.5014150323
20
20.2355396472
11
4.5009802321
21
20.2222099402
0
LINE
5
428
100
AcDbEntity
8
0
100
AcDbLine
62
0
6
CONTINUOUS
10
10.7961926376
20
-21.0061222716
11
10.7979652006
21
-20.9534391511
0
LINE
5
429
100
AcDbEntity
8
0
100
AcDbLine
62
0
6
CONTINUOUS
10
0.6507904772
20
-16.2738410011
11
0.6512575772
21
-16.2610511748
0
LINE
5
42A
100
AcDbEntity
8
0
100
AcDbLine
62
0
6
CONTINUOUS
10
-0.8854903405
20
-15.3756440097
11
-0.8858215779
21
-15.3838588434
0
LINE
5
42B
100
AcDbEntity
8
0
100
AcDbLine
62
0
6
CONTINUOUS
10
0.6512575772
20
-16.2610511748
11
0.6517366054
21
-16.2511946563
0
LINE
5
42C
100
AcDbEntity
8
0
100
AcDbLine
62
0
6
CONTINUOUS
10
-0.8854903405
20
-15.3756440097
11
-0.8850113430
21
-15.3665075578
0
LINE
5
42D
100
AcDbEntity
8
0
100
AcDbLine
62
0
6
CONTINUOUS
10
4.5018644998
20
20.2436972314
11
4.5014150323
21
20.2355396472
0
LINE
5
42E
100
AcDbEntity
8
0
100
AcDbLine
62
0
6
CONTINUOUS
10
5.2979652006
20
18.7966979241
11
5.2954237078
21
18.7518124722
0
LINE
5
42F
100
AcDbEntity
8
0
100
AcDbLine
62
0
6
CONTINUOUS
10
5.2861610825
20
18.7848933565
11
5.2835313024
21
18.7397625507
0
LINE
5
430
100
AcDbEntity
8
0
100
AcDbLine
62
0
6
CONTINUOUS
10
-5.4902306813
20
19.1548883727
11
-5.4771632262
21
19.3653316944
0
LINE
5
431
100
AcDbEntity
8
0
100
AcDbLine
62
0
6
CONTINUOUS
10
4.5097693187
20
19.1548883727
11
4.5228367738
21
19.3653316944
0
LINE
5
432
100
AcDbEntity
8
0
100
AcDbLine
62
9
6
CONTINUOUS
10
-5.0138274944
20
18.7848933565
11
-5.0144964698
21
18.7744098566
0
LINE
5
433
100
AcDbEntity
8
0
100
AcDbLine
62
9
6
CONTINUOUS
10
4.9861725056
20
18.7848933565
11
4.9855035302
21
18.7744098566
0
LINE
5
434
100
AcDbEntity
8
0
100
AcDbLine
62
0
6
CONTINUOUS
10
-0.8850113430
20
-15.3665075578
11
-0.8845285486
21
-15.3590759933
0
LINE
5
435
100
AcDbEntity
8
0
100
AcDbLine
62
0
6
CONTINUOUS
10
0.6517366054
20
-16.2511946563
11
0.6522325221
21
-16.2441174908
0
LINE
5
436
100
AcDbEntity
8
0
100
AcDbLine
62
0
6
CONTINUOUS
10
-0.8845285486
20
-15.3590759933
11
-0.8840419572
21
-15.3533493162
0
LINE
5
437
100
AcDbEntity
8
0
100
AcDbLine
62
0
6
CONTINUOUS
10
0.6703235597
20
-15.4283899008
11
0.6769960441
21
-15.3549556513
0
LINE
5
438
100
AcDbEntity
8
0
100
AcDbLine
62
0
6
CONTINUOUS
10
-10.9951402130
20
20.8515046181
11
-11.0002622364
21
20.7994876571
0
LINE
5
439
100
AcDbEntity
8
0
100
AcDbLine
62
0
6
CONTINUOUS
10
-3.3394040028
20
2.6697314431
11
-3.3335160829
21
2.7289958836
0
LINE
5
43A
100
AcDbEntity
8
0
100
AcDbLine
62
0
6
CONTINUOUS
10
0.6769960441
20
-15.3549556513
11
0.6774952082
21
-15.3503802210
0
LINE
5
43B
100
AcDbEntity
8
0
100
AcDbLine
62
0
6
CONTINUOUS
10
-3.8013213899
20
2.7517826628
11
-3.8058061274
21
2.7146876860
0
LINE
5
43C
100
AcDbEntity
8
0
100
AcDbLine
62
0
6
CONTINUOUS
10
-10.9866687293
20
20.9028554197
11
-10.9951402130
21
20.8515046181
0
LINE
5
43D
100
AcDbEntity
8
0
100
AcDbLine
62
0
6
CONTINUOUS
10
4.5367408723
20
19.1719780269
11
4.5513078928
21
19.1759123574
0
LINE
5
43E
100
AcDbEntity
8
0
100
AcDbLine
62
0
6
CONTINUOUS
10
-5.4632591277
20
19.1719780269
11
-5.4486921072
21
19.1759123574
0
LINE
5
43F
100
AcDbEntity
8
0
100
AcDbLine
62
9
6
CONTINUOUS
10
4.9231887628
20
18.7003948932
11
4.9132624805
21
18.6980231314
0
LINE
5
440
100
AcDbEntity
8
0
100
AcDbLine
62
9
6
CONTINUOUS
10
-5.0768112372
20
18.7003948932
11
-5.0867375195
21
18.6980231314
0
LINE
5
441
100
AcDbEntity
8
0
100
AcDbLine
62
0
6
CONTINUOUS
10
-4.9907414796
20
18.4129779273
11
-5.0346620660
21
18.4025736556
0
LINE
5
442
100
AcDbEntity
8
0
100
AcDbLine
62
0
6
CONTINUOUS
10
-10.3582076014
20
21.5313166077
11
-10.4091058662
21
21.5194310415
0
LINE
5
443
100
AcDbEntity
8
0
100
AcDbLine
62
0
6
CONTINUOUS
10
10.7910706143
20
-21.0581392326
11
10.7961926376
21
-21.0061222716
0
LINE
5
444
100
AcDbEntity
8
0
100
AcDbLine
62
0
6
CONTINUOUS
10
0.6522325221
20
-16.2441174908
11
0.6527453274
21
-16.2398196785
0
LINE
5
445
100
AcDbEntity
8
0
100
AcDbLine
62
0
6
CONTINUOUS
10
-0.8840419572
20
-15.3533493162
11
-0.8835507180
21
-15.3493214614
0
LINE
5
446
100
AcDbEntity
8
0
100
AcDbLine
62
0
6
CONTINUOUS
10
-5.4976713655
20
20.2466826927
11
-5.4981355002
21
20.2436972314
0
LINE
5
447
100
AcDbEntity
8
0
100
AcDbLine
62
0
6
CONTINUOUS
10
4.5023286345
20
20.2466826927
11
4.5018644998
21
20.2436972314
0
LINE
5
448
100
AcDbEntity
8
0
100
AcDbLine
62
0
6
CONTINUOUS
10
-4.7045675886
20
18.7518850803
11
-4.7118388840
21
18.7084537089
0
LINE
5
449
100
AcDbEntity
8
0
100
AcDbLine
62
0
6
CONTINUOUS
10
5.2954237078
20
18.7518124722
11
5.2881298337
21
18.7083156154
0
LINE
5
44A
100
AcDbEntity
8
0
100
AcDbLine
62
0
6
CONTINUOUS
10
0.6774952082
20
-15.3503802210
11
0.6779931275
21
-15.3475278738
0
LINE
5
44B
100
AcDbEntity
8
0
100
AcDbLine
62
0
6
CONTINUOUS
10
-4.7164686976
20
18.7397625507
11
-4.7243230981
21
18.6952626326
0
LINE
5
44C
100
AcDbEntity
8
0
100
AcDbLine
62
0
6
CONTINUOUS
10
5.2835313024
20
18.7397625507
11
5.2756769019
21
18.6952626326
0
LINE
5
44D
100
AcDbEntity
8
0
100
AcDbLine
62
9
6
CONTINUOUS
10
-5.0144964698
20
18.7744098566
11
-5.0162755769
21
18.7643378669
0
LINE
5
44E
100
AcDbEntity
8
0
100
AcDbLine
62
9
6
CONTINUOUS
10
4.9855035302
20
18.7744098566
11
4.9837244231
21
18.7643378669
0
LINE
5
44F
100
AcDbEntity
8
0
100
AcDbLine
62
0
6
CONTINUOUS
10
-3.3494157692
20
2.6136068705
11
-3.3394040028
21
2.6697314431
0
LINE
5
450
100
AcDbEntity
8
0
100
AcDbLine
62
0
6
CONTINUOUS
10
-10.9747831822
20
20.9537536392
11
-10.9866687293
21
20.9028554197
0
LINE
5
451
100
AcDbEntity
8
0
100
AcDbLine
62
0
6
CONTINUOUS
10
10.7825991305
20
-21.1094900342
11
10.7910706143
21
-21.0581392326
0
LINE
5
452
100
AcDbEntity
8
0
100
AcDbLine
62
0
6
CONTINUOUS
10
0.6527453274
20
-16.2398196785
11
0.6837480837
21
-16.0717219079
0
LINE
5
453
100
AcDbEntity
8
0
100
AcDbLine
62
0
6
CONTINUOUS
10
-2.5017859105
20
-12.6096629703
11
-2.4969357870
21
-12.5866459811
0
LINE
5
454
100
AcDbEntity
8
0
100
AcDbLine
62
0
6
CONTINUOUS
10
-0.8835507180
20
-15.3493214614
11
-0.8830556818
21
-15.3469984940
0
LINE
5
455
100
AcDbEntity
8
0
100
AcDbLine
62
0
6
CONTINUOUS
10
-3.8058061274
20
2.7146876860
11
-3.8137138689
21
2.6801152617
0
LINE
5
456
100
AcDbEntity
8
0
100
AcDbLine
62
0
6
CONTINUOUS
10
-3.3636756577
20
2.5603979827
11
-3.3494157692
21
2.6136068705
0
LINE
5
457
100
AcDbEntity
8
0
100
AcDbLine
62
0
6
CONTINUOUS
10
-4.7118388840
20
18.7084537089
11
-4.7238486857
21
18.6664038099
0
LINE
5
458
100
AcDbEntity
8
0
100
AcDbLine
62
9
6
CONTINUOUS
10
-5.0162755769
20
18.7643378669
11
-5.0191648157
21
18.7546773874
0
LINE
5
459
100
AcDbEntity
8
0
100
AcDbLine
62
0
6
CONTINUOUS
10
-4.7243230981
20
18.6952626326
11
-4.7372889786
21
18.6519954000
0
LINE
5
45A
100
AcDbEntity
8
0
100
AcDbLine
62
0
6
CONTINUOUS
10
-10.9595481748
20
21.0039856992
11
-10.9747831822
21
20.9537536392
0
LINE
5
45B
100
AcDbEntity
8
0
100
AcDbLine
62
0
6
CONTINUOUS
10
10.7707135835
20
-21.1603882537
11
10.7825991305
21
-21.1094900342
0
LINE
5
45C
100
AcDbEntity
8
0
100
AcDbLine
62
0
6
CONTINUOUS
10
5.2881298337
20
18.7083156154
11
5.2760835785
21
18.6662073536
0
LINE
5
45D
100
AcDbEntity
8
0
100
AcDbLine
62
0
6
CONTINUOUS
10
-0.3022097994
20
8.8467326927
11
-0.7690787994
21
7.2185696927
0
LINE
5
45E
100
AcDbEntity
8
0
100
AcDbLine
62
0
6
CONTINUOUS
10
-0.5190787994
20
6.3466266927
11
-0.0463407994
21
7.9952766927
0
LINE
5
45F
100
AcDbEntity
8
0
100
AcDbLine
62
9
6
CONTINUOUS
10
4.9837244231
20
18.7643378669
11
4.9808351843
21
18.7546773874
0
LINE
5
460
100
AcDbEntity
8
0
100
AcDbLine
62
0
6
CONTINUOUS
10
5.2756769019
20
18.6952626326
11
5.2627110214
21
18.6519954000
0
LINE
5
461
100
AcDbEntity
8
0
100
AcDbLine
62
0
6
CONTINUOUS
10
-3.8252287994
20
8.8467326927
11
-4.3779227994
21
7.1252696927
0
LINE
5
462
100
AcDbEntity
8
0
100
AcDbLine
62
0
6
CONTINUOUS
10
-4.1279097994
20
6.3466196927
11
-3.3252037994
21
8.8467326927
0
LINE
5
463
100
AcDbEntity
8
0
100
AcDbLine
62
0
6
CONTINUOUS
10
1.5897212006
20
8.8467386927
11
0.7870282006
21
6.3466196927
0
LINE
5
464
100
AcDbEntity
8
0
100
AcDbLine
62
0
6
CONTINUOUS
10
1.5974212006
20
7.3133076927
11
1.8397402006
21
8.0680826927
0
LINE
5
465
100
AcDbEntity
8
0
100
AcDbLine
62
0
6
CONTINUOUS
10
1.2870462006
20
6.3466266927
11
1.4449032006
21
6.8382886927
0
LINE
5
466
100
AcDbEntity
8
0
100
AcDbLine
62
0
6
CONTINUOUS
10
-0.9495607994
20
2.1468456927
11
-0.6455847994
21
3.0299496927
0
LINE
5
467
100
AcDbEntity
8
0
100
AcDbLine
62
0
6
CONTINUOUS
10
-3.8137138689
20
2.6801152617
11
-3.8253338996
21
2.6476360192
0
LINE
5
468
100
AcDbEntity
8
0
100
AcDbLine
62
0
6
CONTINUOUS
10
-10.9411575161
20
21.0529108679
11
-10.9595481748
21
21.0039856992
0
LINE
5
469
100
AcDbEntity
8
0
100
AcDbLine
62
0
6
CONTINUOUS
10
10.7554785760
20
-21.2106203137
11
10.7707135835
21
-21.1603882537
0
LINE
5
46A
100
AcDbEntity
8
0
100
AcDbLine
62
0
6
CONTINUOUS
10
3.3095152006
20
2.1468456927
11
3.6134522006
21
3.0298336927
0
LINE
5
46B
100
AcDbEntity
8
0
100
AcDbLine
62
0
6
CONTINUOUS
10
-1.2164087994
20
1.3716826927
11
-1.0631197994
21
1.8061686927
0
LINE
5
46C
100
AcDbEntity
8
0
100
AcDbLine
62
0
6
CONTINUOUS
10
3.0425902006
20
1.3716826927
11
3.1959562006
21
1.8061686927
0
LINE
5
46D
100
AcDbEntity
8
0
100
AcDbLine
62
0
6
CONTINUOUS
10
-0.8955587994
20
3.4216826927
11
-1.6366227994
21
1.3716826927
0
LINE
5
46E
100
AcDbEntity
8
0
100
AcDbLine
62
0
6
CONTINUOUS
10
3.3635182006
20
3.4216826927
11
2.6223762006
21
1.3716826927
0
LINE
5
46F
100
AcDbEntity
8
0
100
AcDbLine
62
0
6
CONTINUOUS
10
-3.3820593928
20
2.5103289627
11
-3.3636756577
21
2.5603979827
0
LINE
5
470
100
AcDbEntity
8
0
100
AcDbLine
62
0
6
CONTINUOUS
10
-4.7238486857
20
18.6664038099
11
-4.7410027113
21
18.6250717442
0
LINE
5
471
100
AcDbEntity
8
0
100
AcDbLine
62
0
6
CONTINUOUS
10
5.2760835785
20
18.6662073536
11
5.2588740129
21
18.6248198218
0
LINE
5
472
100
AcDbEntity
8
0
100
AcDbLine
62
0
6
CONTINUOUS
10
-4.7372889786
20
18.6519954000
11
-4.7551809522
21
18.6105512920
0
LINE
5
473
100
AcDbEntity
8
0
100
AcDbLine
62
0
6
CONTINUOUS
10
5.2627110214
20
18.6519954000
11
5.2448190478
21
18.6105512920
0
LINE
5
474
100
AcDbEntity
8
0
100
AcDbLine
62
9
6
CONTINUOUS
10
-5.0191648157
20
18.7546773874
11
-5.0232328638
21
18.7453124040
0
LINE
5
475
100
AcDbEntity
8
0
100
AcDbLine
62
9
6
CONTINUOUS
10
4.9808351843
20
18.7546773874
11
4.9767671362
21
18.7453124040
0
LINE
5
476
100
AcDbEntity
8
0
100
AcDbLine
62
0
6
CONTINUOUS
10
-10.9195706848
20
21.1005125044
11
-10.9411575161
21
21.0529108679
0
LINE
5
477
100
AcDbEntity
8
0
100
AcDbLine
62
0
6
CONTINUOUS
10
-5.4902306813
20
19.1548883727
11
-5.4881492351
21
19.1593720494
0
LINE
5
478
100
AcDbEntity
8
0
100
AcDbLine
62
0
6
CONTINUOUS
10
10.7370879173
20
-21.2595454824
11
10.7554785760
21
-21.2106203137
0
LINE
5
479
100
AcDbEntity
8
0
100
AcDbLine
62
0
6
CONTINUOUS
10
1.4502487042
20
-11.3058087229
11
1.4505396651
21
-11.3050927888
0
LINE
5
47A
100
AcDbEntity
8
0
100
AcDbLine
62
0
6
CONTINUOUS
10
0.6779931275
20
-15.3475278738
11
0.6785115464
21
-15.3463885474
0
LINE
5
47B
100
AcDbEntity
8
0
100
AcDbLine
62
0
6
CONTINUOUS
10
4.5097693187
20
19.1548883727
11
4.5118507649
21
19.1593720494
0
LINE
5
47C
100
AcDbEntity
8
0
100
AcDbLine
62
0
6
CONTINUOUS
10
-3.4041941485
20
2.4640723600
11
-3.3820593928
21
2.5103289627
0
LINE
5
47D
100
AcDbEntity
8
0
100
AcDbLine
62
0
6
CONTINUOUS
10
-3.8253338996
20
2.6476360192
11
-3.8403769343
21
2.6176793292
0
LINE
5
47E
100
AcDbEntity
8
0
100
AcDbLine
62
0
6
CONTINUOUS
10
-10.8948282022
20
21.1468072495
11
-10.9195706848
21
21.1005125044
0
LINE
5
47F
100
AcDbEntity
8
0
100
AcDbLine
62
0
6
CONTINUOUS
10
-4.7410027113
20
18.6250717442
11
-4.7628952432
21
18.5851211509
0
LINE
5
480
100
AcDbEntity
8
0
100
AcDbLine
62
0
6
CONTINUOUS
10
10.7155010860
20
-21.3071471189
11
10.7370879173
21
-21.2595454824
0
LINE
5
481
100
AcDbEntity
8
0
100
AcDbLine
62
0
6
CONTINUOUS
10
5.2588740129
20
18.6248198218
11
5.2369120661
21
18.5848208850
0
LINE
5
482
100
AcDbEntity
8
0
100
AcDbLine
62
0
6
CONTINUOUS
10
-4.7551809522
20
18.6105512920
11
-4.7777525281
21
18.5714808250
0
LINE
5
483
100
AcDbEntity
8
0
100
AcDbLine
62
0
6
CONTINUOUS
10
5.2448190478
20
18.6105512920
11
5.2222474719
21
18.5714808250
0
LINE
5
484
100
AcDbEntity
8
0
100
AcDbLine
62
9
6
CONTINUOUS
10
-5.0232328638
20
18.7453124040
11
-5.0284110437
21
18.7363589309
0
LINE
5
485
100
AcDbEntity
8
0
100
AcDbLine
62
9
6
CONTINUOUS
10
4.9767671362
20
18.7453124040
11
4.9715889563
21
18.7363589309
0
LINE
5
486
100
AcDbEntity
8
0
100
AcDbLine
62
0
6
CONTINUOUS
10
-10.8672454411
20
21.1912042936
11
-10.8948282022
21
21.1468072495
0
LINE
5
487
100
AcDbEntity
8
0
100
AcDbLine
62
0
6
CONTINUOUS
10
10.6907586034
20
-21.3534418640
11
10.7155010860
21
-21.3071471189
0
LINE
5
488
100
AcDbEntity
8
0
100
AcDbLine
62
0
6
CONTINUOUS
10
-3.4298760185
20
2.4220762944
11
-3.4041941485
21
2.4640723600
0
LINE
5
489
100
AcDbEntity
8
0
100
AcDbLine
62
0
6
CONTINUOUS
10
-3.8403769343
20
2.6176793292
11
-3.8579751167
21
2.5915333036
0
LINE
5
48A
100
AcDbEntity
8
0
100
AcDbLine
62
0
6
CONTINUOUS
10
-4.7628952432
20
18.5851211509
11
-4.7883091281
21
18.5485429469
0
LINE
5
48B
100
AcDbEntity
8
0
100
AcDbLine
62
0
6
CONTINUOUS
10
5.2369120661
20
18.5848208850
11
5.2114305261
21
18.5482141385
0
LINE
5
48C
100
AcDbEntity
8
0
100
AcDbLine
62
0
6
CONTINUOUS
10
-10.8367859343
20
21.2336792969
11
-10.8672454411
21
21.1912042936
0
LINE
5
48D
100
AcDbEntity
8
0
100
AcDbLine
62
9
6
CONTINUOUS
10
-5.0284110437
20
18.7363589309
11
-5.0344933221
21
18.7281650103
0
LINE
5
48E
100
AcDbEntity
8
0
100
AcDbLine
62
0
6
CONTINUOUS
10
-4.7777525281
20
18.5714808250
11
-4.8047071373
21
18.5352914343
0
LINE
5
48F
100
AcDbEntity
8
0
100
AcDbLine
62
0
6
CONTINUOUS
10
10.6631758423
20
-21.3978389081
11
10.6907586034
21
-21.3534418640
0
LINE
5
490
100
AcDbEntity
8
0
100
AcDbLine
62
0
6
CONTINUOUS
10
2.2307950500
20
-12.6577546515
11
2.2315225262
21
-12.6567360243
0
LINE
5
491
100
AcDbEntity
8
0
100
AcDbLine
62
9
6
CONTINUOUS
10
4.9715889563
20
18.7363589309
11
4.9655066779
21
18.7281650103
0
LINE
5
492
100
AcDbEntity
8
0
100
AcDbLine
62
0
6
CONTINUOUS
10
5.2222474719
20
18.5714808250
11
5.1952928627
21
18.5352914343
0
LINE
5
493
100
AcDbEntity
8
0
100
AcDbLine
62
0
6
CONTINUOUS
10
-3.4593089091
20
2.3838926462
11
-3.4298760185
21
2.4220762944
0
LINE
5
494
100
AcDbEntity
8
0
100
AcDbLine
62
0
6
CONTINUOUS
10
-10.8034861490
20
21.2742565991
11
-10.8367859343
21
21.2336792969
0
LINE
5
495
100
AcDbEntity
8
0
100
AcDbLine
62
0
6
CONTINUOUS
10
10.6327163355
20
-21.4403139114
11
10.6631758423
21
-21.3978389081
0
LINE
5
496
100
AcDbEntity
8
0
100
AcDbLine
62
0
6
CONTINUOUS
10
-0.8830556818
20
-15.3469984940
11
-0.8825811451
21
-15.3463885474
0
LINE
5
497
100
AcDbEntity
8
0
100
AcDbLine
62
0
6
CONTINUOUS
10
-4.7883091281
20
18.5485429469
11
-4.8172796918
21
18.5157809435
0
LINE
5
498
100
AcDbEntity
8
0
100
AcDbLine
62
0
6
CONTINUOUS
10
5.2114305261
20
18.5482141385
11
5.1823959088
21
18.5154503597
0
LINE
5
499
100
AcDbEntity
8
0
100
AcDbLine
62
0
6
CONTINUOUS
10
-10.7677708598
20
21.3124184101
11
-10.8034861490
21
21.2742565991
0
LINE
5
49A
100
AcDbEntity
8
0
100
AcDbLine
62
0
6
CONTINUOUS
10
-4.8047071373
20
18.5352914343
11
-4.8356874638
21
18.5024668520
0
LINE
5
49B
100
AcDbEntity
8
0
100
AcDbLine
62
0
6
CONTINUOUS
10
5.1952928627
20
18.5352914343
11
5.1643125362
21
18.5024668520
0
LINE
5
49C
100
AcDbEntity
8
0
100
AcDbLine
62
9
6
CONTINUOUS
10
-5.0344933221
20
18.7281650103
11
-5.0415155944
21
18.7207586952
0
LINE
5
49D
100
AcDbEntity
8
0
100
AcDbLine
62
0
6
CONTINUOUS
10
10.5994165502
20
-21.4808912137
11
10.6327163355
21
-21.4403139114
0
LINE
5
49E
100
AcDbEntity
8
0
100
AcDbLine
62
0
6
CONTINUOUS
10
-3.8579751167
20
2.5915333036
11
-3.8780725078
21
2.5697806201
0
LINE
5
49F
100
AcDbEntity
8
0
100
AcDbLine
62
9
6
CONTINUOUS
10
4.9655066779
20
18.7281650103
11
4.9584844056
21
18.7207586952
0
LINE
5
4A0
100
AcDbEntity
8
0
100
AcDbLine
62
0
6
CONTINUOUS
10
-3.4927317133
20
2.3488496048
11
-3.4593089091
21
2.3838926462
0
LINE
5
4A1
100
AcDbEntity
8
0
100
AcDbLine
62
9
6
CONTINUOUS
10
-4.7138389175
20
18.7848933565
11
-4.7020347994
21
18.7966979241
0
LINE
5
4A2
100
AcDbEntity
8
0
100
AcDbLine
62
9
6
CONTINUOUS
10
5.2861610825
20
18.7848933565
11
5.2979652006
21
18.7966979241
0
LINE
5
4A3
100
AcDbEntity
8
0
100
AcDbLine
62
0
6
CONTINUOUS
10
-10.7296090619
20
21.3481337278
11
-10.7677708598
21
21.3124184101
0
LINE
5
4A4
100
AcDbEntity
8
0
100
AcDbLine
62
0
6
CONTINUOUS
10
-4.8172796918
20
18.5157809435
11
-4.8497716085
21
18.4863913294
0
LINE
5
4A5
100
AcDbEntity
8
0
100
AcDbLine
62
0
6
CONTINUOUS
10
10.5637012611
20
-21.5190530246
11
10.5994165502
21
-21.4808912137
0
LINE
5
4A6
100
AcDbEntity
8
0
100
AcDbLine
62
0
6
CONTINUOUS
10
5.1823959088
20
18.5154503597
11
5.1498416984
21
18.4860787711
0
LINE
5
4A7
100
AcDbEntity
8
0
100
AcDbLine
62
0
6
CONTINUOUS
10
1.4505396651
20
-11.3050927888
11
1.4523038958
21
-11.3035025912
0
LINE
5
4A8
100
AcDbEntity
8
0
100
AcDbLine
62
0
6
CONTINUOUS
10
-1.7294275515
20
-11.2718990507
11
-1.7469357870
21
-11.2876078755
0
LINE
5
4A9
100
AcDbEntity
8
0
100
AcDbLine
62
0
6
CONTINUOUS
10
-3.5301984769
20
2.3167442725
11
-3.4927317133
21
2.3488496048
0
LINE
5
4AA
100
AcDbEntity
8
0
100
AcDbLine
62
0
6
CONTINUOUS
10
-5.4881492351
20
19.1593720494
11
-5.4829876916
21
19.1637078729
0
LINE
5
4AB
100
AcDbEntity
8
0
100
AcDbLine
62
0
6
CONTINUOUS
10
4.5118507649
20
19.1593720494
11
4.5170123084
21
19.1637078729
0
LINE
5
4AC
100
AcDbEntity
8
0
100
AcDbLine
62
0
6
CONTINUOUS
10
-4.8356874638
20
18.5024668520
11
-4.8702707019
21
18.4734585385
0
LINE
5
4AD
100
AcDbEntity
8
0
100
AcDbLine
62
0
6
CONTINUOUS
10
5.1643125362
20
18.5024668520
11
5.1297292981
21
18.4734585385
0
LINE
5
4AE
100
AcDbEntity
8
0
100
AcDbLine
62
9
6
CONTINUOUS
10
-5.0415155944
20
18.7207586952
11
-5.0494419653
21
18.7141119328
0
LINE
5
4AF
100
AcDbEntity
8
0
100
AcDbLine
62
9
6
CONTINUOUS
10
4.9584844056
20
18.7207586952
11
4.9505580347
21
18.7141119328
0
LINE
5
4B0
100
AcDbEntity
8
0
100
AcDbLine
62
0
6
CONTINUOUS
10
-10.6890317601
20
21.3814335543
11
-10.7296090619
21
21.3481337278
0
LINE
5
4B1
100
AcDbEntity
8
0
100
AcDbLine
62
0
6
CONTINUOUS
10
10.5255394631
20
-21.5547683424
11
10.5637012611
21
-21.5190530246
0
LINE
5
4B2
100
AcDbEntity
8
0
100
AcDbLine
62
0
6
CONTINUOUS
10
2.8615704350
20
-12.2996229456
11
2.9916459965
21
-12.1887248857
0
LINE
5
4B3
100
AcDbEntity
8
0
100
AcDbLine
62
0
6
CONTINUOUS
10
2.2315225262
20
-12.6567360243
11
2.2337437716
21
-12.6548786399
0
LINE
5
4B4
100
AcDbEntity
8
0
100
AcDbLine
62
0
6
CONTINUOUS
10
-3.8780725078
20
2.5697806201
11
-3.9007250468
21
2.5518386011
0
LINE
5
4B5
100
AcDbEntity
8
0
100
AcDbLine
62
0
6
CONTINUOUS
10
-4.8497716085
20
18.4863913294
11
-4.8844617469
21
18.4610335874
0
LINE
5
4B6
100
AcDbEntity
8
0
100
AcDbLine
62
0
6
CONTINUOUS
10
5.1498416984
20
18.4860787711
11
5.1151011353
21
18.4607506358
0
LINE
5
4B7
100
AcDbEntity
8
0
100
AcDbLine
62
0
6
CONTINUOUS
10
-10.6465567439
20
21.4118931048
11
-10.6890317601
21
21.3814335543
0
LINE
5
4B8
100
AcDbEntity
8
0
100
AcDbLine
62
0
6
CONTINUOUS
10
10.4849621613
20
-21.5880681688
11
10.5255394631
21
-21.5547683424
0
LINE
5
4B9
100
AcDbEntity
8
0
100
AcDbLine
62
0
6
CONTINUOUS
10
1.4523038958
20
-11.3035025912
11
1.4555465008
21
-11.3010632382
0
LINE
5
4BA
100
AcDbEntity
8
0
100
AcDbLine
62
0
6
CONTINUOUS
10
2.9916459965
20
-12.1887248857
11
2.9951262951
21
-12.1861224841
0
LINE
5
4BB
100
AcDbEntity
8
0
100
AcDbLine
62
0
6
CONTINUOUS
10
2.2337437716
20
-12.6548786399
11
2.2374566285
21
-12.6521586360
0
LINE
5
4BC
100
AcDbEntity
8
0
100
AcDbLine
62
0
6
CONTINUOUS
10
2.2374566285
20
-12.6521586360
11
2.2977163118
21
-12.6096629703
0
LINE
5
4BD
100
AcDbEntity
8
0
100
AcDbLine
62
0
6
CONTINUOUS
10
-3.5716551543
20
2.2877795471
11
-3.5301984769
21
2.3167442725
0
LINE
5
4BE
100
AcDbEntity
8
0
100
AcDbLine
62
0
6
CONTINUOUS
10
1.4555465008
20
-11.3010632382
11
1.4602626529
21
-11.2977784991
0
LINE
5
4BF
100
AcDbEntity
8
0
100
AcDbLine
62
9
6
CONTINUOUS
10
-5.0494419653
20
18.7141119328
11
-5.0579587152
21
18.7084886068
0
LINE
5
4C0
100
AcDbEntity
8
0
100
AcDbLine
62
9
6
CONTINUOUS
10
4.9505580347
20
18.7141119328
11
4.9420412848
21
18.7084886068
0
LINE
5
4C1
100
AcDbEntity
8
0
100
AcDbLine
62
0
6
CONTINUOUS
10
-4.8702707019
20
18.4734585385
11
-4.9079871022
21
18.4486609964
0
LINE
5
4C2
100
AcDbEntity
8
0
100
AcDbLine
62
0
6
CONTINUOUS
10
5.1297292981
20
18.4734585385
11
5.0920128978
21
18.4486609964
0
LINE
5
4C3
100
AcDbEntity
8
0
100
AcDbLine
62
0
6
CONTINUOUS
10
-10.6021596700
20
21.4394759119
11
-10.6465567439
21
21.4118931048
0
LINE
5
4C4
100
AcDbEntity
8
0
100
AcDbLine
62
0
6
CONTINUOUS
10
-4.8844617469
20
18.4610335874
11
-4.9217722538
21
18.4398552295
0
LINE
5
4C5
100
AcDbEntity
8
0
100
AcDbLine
62
0
6
CONTINUOUS
10
10.4424871452
20
-21.6185277193
11
10.4849621613
21
-21.5880681688
0
LINE
5
4C6
100
AcDbEntity
8
0
100
AcDbLine
62
0
6
CONTINUOUS
10
2.9951262951
20
-12.1861224841
11
3.0010176112
21
-12.1821479063
0
LINE
5
4C7
100
AcDbEntity
8
0
100
AcDbLine
62
0
6
CONTINUOUS
10
1.4602626529
20
-11.2977784991
11
1.4664571793
21
-11.2936446046
0
LINE
5
4C8
100
AcDbEntity
8
0
100
AcDbLine
62
0
6
CONTINUOUS
10
1.4664571793
20
-11.2936446046
11
1.4741300801
21
-11.2886615547
0
LINE
5
4C9
100
AcDbEntity
8
0
100
AcDbLine
62
0
6
CONTINUOUS
10
3.0010176112
20
-12.1821479063
11
3.0093199447
21
-12.1768011521
0
LINE
5
4CA
100
AcDbEntity
8
0
100
AcDbLine
62
0
6
CONTINUOUS
10
1.4810787232
20
-11.2842672735
11
1.4741300801
21
-11.2886615547
0
LINE
5
4CB
100
AcDbEntity
8
0
100
AcDbLine
62
0
6
CONTINUOUS
10
3.0093199447
20
-12.1768011521
11
3.0201639521
21
-12.1700011747
0
LINE
5
4CC
100
AcDbEntity
8
0
100
AcDbLine
62
0
6
CONTINUOUS
10
1.4895429677
20
-11.2790222541
11
1.4810787232
21
-11.2842672735
0
LINE
5
4CD
100
AcDbEntity
8
0
100
AcDbLine
62
0
6
CONTINUOUS
10
3.0201639521
20
-12.1700011747
11
3.0334189769
21
-12.1618290209
0
LINE
5
4CE
100
AcDbEntity
8
0
100
AcDbLine
62
0
6
CONTINUOUS
10
1.4995228137
20
-11.2729264964
11
1.4895429677
21
-11.2790222541
0
LINE
5
4CF
100
AcDbEntity
8
0
100
AcDbLine
62
0
6
CONTINUOUS
10
3.0334189769
20
-12.1618290209
11
3.0486930504
21
-12.1525278318
0
LINE
5
4D0
100
AcDbEntity
8
0
100
AcDbLine
62
0
6
CONTINUOUS
10
1.5242528750
20
-11.2580479380
11
1.4995228137
21
-11.2729264964
0
LINE
5
4D1
100
AcDbEntity
8
0
100
AcDbLine
62
0
6
CONTINUOUS
10
3.0486930504
20
-12.1525278318
11
3.0853735311
21
-12.1304985909
0
LINE
5
4D2
100
AcDbEntity
8
0
100
AcDbLine
62
0
6
CONTINUOUS
10
-3.9007250468
20
2.5518386011
11
-3.9252326947
21
2.5372473262
0
LINE
5
4D3
100
AcDbEntity
8
0
100
AcDbLine
62
0
6
CONTINUOUS
10
1.5540819804
20
-11.2403489461
11
1.5242528750
21
-11.2580479380
0
LINE
5
4D4
100
AcDbEntity
8
0
100
AcDbLine
62
0
6
CONTINUOUS
10
-3.6171785006
20
2.2618923112
11
-3.5716551543
21
2.2877795471
0
LINE
5
4D5
100
AcDbEntity
8
0
100
AcDbLine
62
0
6
CONTINUOUS
10
5.1151011353
20
18.4607506358
11
5.0777546824
21
18.4396147660
0
LINE
5
4D6
100
AcDbEntity
8
0
100
AcDbLine
62
0
6
CONTINUOUS
10
-10.5558648817
20
21.4642184432
11
-10.6021596700
21
21.4394759119
0
LINE
5
4D7
100
AcDbEntity
8
0
100
AcDbLine
62
0
6
CONTINUOUS
10
-5.4829876916
20
19.1637078729
11
-5.4747460508
21
19.1678958432
0
LINE
5
4D8
100
AcDbEntity
8
0
100
AcDbLine
62
0
6
CONTINUOUS
10
4.5170123084
20
19.1637078729
11
4.5252539492
21
19.1678958432
0
LINE
5
4D9
100
AcDbEntity
8
0
100
AcDbLine
62
0
6
CONTINUOUS
10
-4.9079871022
20
18.4486609964
11
-4.9483255043
21
18.4284098307
0
LINE
5
4DA
100
AcDbEntity
8
0
100
AcDbLine
62
0
6
CONTINUOUS
10
5.0920128978
20
18.4486609964
11
5.0516744957
21
18.4284098307
0
LINE
5
4DB
100
AcDbEntity
8
0
100
AcDbLine
62
9
6
CONTINUOUS
10
-5.0579587152
20
18.7084886068
11
-5.0670897867
21
18.7039300318
0
LINE
5
4DC
100
AcDbEntity
8
0
100
AcDbLine
62
9
6
CONTINUOUS
10
4.9420412848
20
18.7084886068
11
4.9329102133
21
18.7039300318
0
LINE
5
4DD
100
AcDbEntity
8
0
100
AcDbLine
62
0
6
CONTINUOUS
10
-10.5082631987
20
21.4858053166
11
-10.5558648817
21
21.4642184432
0
LINE
5
4DE
100
AcDbEntity
8
0
100
AcDbLine
62
0
6
CONTINUOUS
10
10.3980900712
20
-21.6461105265
11
10.4424871452
21
-21.6185277193
0
LINE
5
4DF
100
AcDbEntity
8
0
100
AcDbLine
62
0
6
CONTINUOUS
10
3.0853735311
20
-12.1304985909
11
3.1286882677
21
-12.1048206636
0
LINE
5
4E0
100
AcDbEntity
8
0
100
AcDbLine
62
0
6
CONTINUOUS
10
1.6061969316
20
-11.2098166440
11
1.5540819804
21
-11.2403489461
0
LINE
5
4E1
100
AcDbEntity
8
0
100
AcDbLine
62
0
6
CONTINUOUS
10
3.1286882677
20
-12.1048206636
11
3.2027204543
21
-12.0614635070
0
LINE
5
4E2
100
AcDbEntity
8
0
100
AcDbLine
62
0
6
CONTINUOUS
10
2.0757875519
20
-10.9386070683
11
1.6061969316
21
-11.2098166440
0
LINE
5
4E3
100
AcDbEntity
8
0
100
AcDbLine
62
0
6
CONTINUOUS
10
2.5057175508
20
-10.7317053821
11
1.5428661883
21
-11.2876078755
0
LINE
5
4E4
100
AcDbEntity
8
0
100
AcDbLine
62
0
6
CONTINUOUS
10
2.2928661883
20
-12.5866459811
11
3.2557175508
21
-12.0307434878
0
LINE
5
4E5
100
AcDbEntity
8
0
100
AcDbLine
62
0
6
CONTINUOUS
10
2.3919007351
20
-12.5706955686
11
2.8615704350
21
-12.2996229456
0
LINE
5
4E6
100
AcDbEntity
8
0
100
AcDbLine
62
0
6
CONTINUOUS
10
2.3394015166
20
-12.6005622856
11
2.3919007351
21
-12.5706955686
0
LINE
5
4E7
100
AcDbEntity
8
0
100
AcDbLine
62
0
6
CONTINUOUS
10
2.4272035821
20
-10.7767672941
11
2.3553524529
21
-10.8174716349
0
LINE
5
4E8
100
AcDbEntity
8
0
100
AcDbLine
62
0
6
CONTINUOUS
10
2.3091591869
20
-12.6175455529
11
2.3394015166
21
-12.6005622856
0
LINE
5
4E9
100
AcDbEntity
8
0
100
AcDbLine
62
0
6
CONTINUOUS
10
2.3553524529
20
-10.8174716349
11
2.3144437355
21
-10.8403226406
0
LINE
5
4EA
100
AcDbEntity
8
0
100
AcDbLine
62
0
6
CONTINUOUS
10
2.2839089389
20
-12.6315231392
11
2.3091591869
21
-12.6175455529
0
LINE
5
4EB
100
AcDbEntity
8
0
100
AcDbLine
62
0
6
CONTINUOUS
10
2.3144437355
20
-10.8403226406
11
2.2967145659
21
-10.8501139979
0
LINE
5
4EC
100
AcDbEntity
8
0
100
AcDbLine
62
0
6
CONTINUOUS
10
2.2967145659
20
-10.8501139979
11
2.2810150350
21
-10.8586949511
0
LINE
5
4ED
100
AcDbEntity
8
0
100
AcDbLine
62
0
6
CONTINUOUS
10
2.2736399358
20
-12.6371180600
11
2.2839089389
21
-12.6315231392
0
LINE
5
4EE
100
AcDbEntity
8
0
100
AcDbLine
62
0
6
CONTINUOUS
10
2.2810150350
20
-10.8586949511
11
2.2673066243
21
-10.8660896463
0
LINE
5
4EF
100
AcDbEntity
8
0
100
AcDbLine
62
0
6
CONTINUOUS
10
2.2648654966
20
-12.6418257994
11
2.2736399358
21
-12.6371180600
0
LINE
5
4F0
100
AcDbEntity
8
0
100
AcDbLine
62
0
6
CONTINUOUS
10
2.2673066243
20
-10.8660896463
11
2.2559967598
21
-10.8720800390
0
LINE
5
4F1
100
AcDbEntity
8
0
100
AcDbLine
62
0
6
CONTINUOUS
10
2.2575856212
20
-12.6456463574
11
2.2648654966
21
-12.6418257994
0
LINE
5
4F2
100
AcDbEntity
8
0
100
AcDbLine
62
0
6
CONTINUOUS
10
2.2559967598
20
-10.8720800390
11
2.2472212502
21
-10.8765934477
0
LINE
5
4F3
100
AcDbEntity
8
0
100
AcDbLine
62
0
6
CONTINUOUS
10
2.2575856212
20
-12.6456463574
11
2.2494337230
21
-12.6497997594
0
LINE
5
4F4
100
AcDbEntity
8
0
100
AcDbLine
62
0
6
CONTINUOUS
10
-3.6671515450
20
2.2390599233
11
-3.6171785006
21
2.2618923112
0
LINE
5
4F5
100
AcDbEntity
8
0
100
AcDbLine
62
0
6
CONTINUOUS
10
-4.9217722538
20
18.4398552295
11
-4.9612809823
21
18.4227087438
0
LINE
5
4F6
100
AcDbEntity
8
0
100
AcDbLine
62
0
6
CONTINUOUS
10
5.0777546824
20
18.4396147660
11
5.0382218767
21
18.4225223494
0
LINE
5
4F7
100
AcDbEntity
8
0
100
AcDbLine
62
0
6
CONTINUOUS
10
-10.4593379798
20
21.5041960080
11
-10.5082631987
21
21.4858053166
0
LINE
5
4F8
100
AcDbEntity
8
0
100
AcDbLine
62
0
6
CONTINUOUS
10
10.3517952829
20
-21.6708530577
11
10.3980900712
21
-21.6461105265
0
LINE
5
4F9
100
AcDbEntity
8
0
100
AcDbLine
62
0
6
CONTINUOUS
10
2.2494337230
20
-12.6497997594
11
2.2427564021
21
-12.6530974294
0
LINE
5
4FA
100
AcDbEntity
8
0
100
AcDbLine
62
0
6
CONTINUOUS
10
2.2472212502
20
-10.8765934477
11
2.2408442869
21
-10.8797025539
0
LINE
5
4FB
100
AcDbEntity
8
0
100
AcDbLine
62
0
6
CONTINUOUS
10
2.2427564021
20
-12.6530974294
11
2.2375536586
21
-12.6555393674
0
LINE
5
4FC
100
AcDbEntity
8
0
100
AcDbLine
62
0
6
CONTINUOUS
10
1.5253579527
20
-11.2718990507
11
1.4584257850
21
-11.3028376344
0
LINE
5
4FD
100
AcDbEntity
8
0
100
AcDbLine
62
0
6
CONTINUOUS
10
1.4584257850
20
-11.3028376344
11
1.4542137641
21
-11.3046930608
0
LINE
5
4FE
100
AcDbEntity
8
0
100
AcDbLine
62
0
6
CONTINUOUS
10
2.2408442869
20
-10.8797025539
11
2.2368658698
21
-10.8814073576
0
LINE
5
4FF
100
AcDbEntity
8
0
100
AcDbLine
62
0
6
CONTINUOUS
10
2.2375536586
20
-12.6555393674
11
2.2338198144
21
-12.6571278692
0
LINE
5
500
100
AcDbEntity
8
0
100
AcDbLine
62
0
6
CONTINUOUS
10
-3.9252326947
20
2.5372473262
11
-3.9515135414
21
2.5264961469
0
LINE
5
501
100
AcDbEntity
8
0
100
AcDbLine
62
0
6
CONTINUOUS
10
-3.7211912584
20
2.2193050249
11
-3.6671515450
21
2.2390599233
0
LINE
5
502
100
AcDbEntity
8
0
100
AcDbLine
62
0
6
CONTINUOUS
10
-4.9483255043
20
18.4284098307
11
-4.9907414796
21
18.4129779273
0
LINE
5
503
100
AcDbEntity
8
0
100
AcDbLine
62
0
6
CONTINUOUS
10
5.0516744957
20
18.4284098307
11
5.0092585204
21
18.4129779273
0
LINE
5
504
100
AcDbEntity
8
0
100
AcDbLine
62
9
6
CONTINUOUS
10
-5.0670897867
20
18.7039300318
11
-5.0768112372
21
18.7003948932
0
LINE
5
505
100
AcDbEntity
8
0
100
AcDbLine
62
9
6
CONTINUOUS
10
4.9329102133
20
18.7039300318
11
4.9231887628
21
18.7003948932
0
LINE
5
506
100
AcDbEntity
8
0
100
AcDbLine
62
0
6
CONTINUOUS
10
-5.4747460508
20
19.1678958432
11
-5.4632591277
21
19.1719780269
0
LINE
5
507
100
AcDbEntity
8
0
100
AcDbLine
62
0
6
CONTINUOUS
10
4.5252539492
20
19.1678958432
11
4.5367408723
21
19.1719780269
0
LINE
5
508
100
AcDbEntity
8
0
100
AcDbLine
62
0
6
CONTINUOUS
10
-4.9612809823
20
18.4227087438
11
-5.0003983603
21
18.4098110765
0
LINE
5
509
100
AcDbEntity
8
0
100
AcDbLine
62
0
6
CONTINUOUS
10
5.0382218767
20
18.4225223494
11
4.9990945697
21
18.4096782125
0
LINE
5
50A
100
AcDbEntity
8
0
100
AcDbLine
62
0
6
CONTINUOUS
10
-10.4091058662
20
21.5194310415
11
-10.4593379798
21
21.5041960080
0
LINE
5
50B
100
AcDbEntity
8
0
100
AcDbLine
62
0
6
CONTINUOUS
10
10.3041935999
20
-21.6924399311
11
10.3517952829
21
-21.6708530577
0
LINE
5
50C
100
AcDbEntity
8
0
100
AcDbLine
62
0
6
CONTINUOUS
10
10.2552683810
20
-21.7108306225
11
10.3041935999
21
-21.6924399311
0
LINE
5
50D
100
AcDbEntity
8
0
100
AcDbLine
62
0
6
CONTINUOUS
10
1.4542137641
20
-11.3046930608
11
1.4514945993
21
-11.3056880236
0
LINE
5
50E
100
AcDbEntity
8
0
100
AcDbLine
62
0
6
CONTINUOUS
10
2.2368658698
20
-10.8814073576
11
2.0757875519
21
-10.9386070683
0
LINE
5
50F
100
AcDbEntity
8
0
100
AcDbLine
62
0
6
CONTINUOUS
10
-3.7782253092
20
2.2026324238
11
-3.7211912584
21
2.2193050249
0
LINE
5
510
100
AcDbEntity
8
0
100
AcDbLine
62
0
6
CONTINUOUS
10
0.6703235597
20
-15.4283899008
11
0.6479652006
21
-15.4356980652
0
LINE
5
511
100
AcDbEntity
8
0
100
AcDbLine
62
0
6
CONTINUOUS
10
2.2338198144
20
-12.6571278692
11
2.2315605476
21
-12.6578606390
0
LINE
5
512
100
AcDbEntity
8
0
100
AcDbLine
62
0
6
CONTINUOUS
10
10.2050362674
20
-21.7260656561
11
10.2552683810
21
-21.7108306225
0
ARC
5
513
100
AcDbEntity
8
0
100
AcDbCircle
62
9
6
CONTINUOUS
10
-0.1020347994
20
-13.1033173073
40
3.2260409428
100
AcDbArc
50
283.5306110192
51
16.4693889808
0
ARC
5
514
100
AcDbEntity
8
0
100
AcDbCircle
62
9
6
CONTINUOUS
10
-0.1020347994
20
-13.1033173073
40
3.2260409428
100
AcDbArc
50
43.5306110192
51
136.4693889808
0
ARC
5
515
100
AcDbEntity
8
0
100
AcDbCircle
62
9
6
CONTINUOUS
10
-0.1020347994
20
-13.1033173073
40
3.2260409428
100
AcDbArc
50
163.5306110192
51
256.4693889808
0
ARC
5
516
100
AcDbEntity
8
0
100
AcDbCircle
62
9
6
CONTINUOUS
10
-0.1020347994
20
-13.1033173073
40
3.5248993522
100
AcDbArc
50
282.2848500959
51
17.7151499041
0
ARC
5
517
100
AcDbEntity
8
0
100
AcDbCircle
62
9
6
CONTINUOUS
10
-0.1020347994
20
-13.1033173073
40
3.5248993522
100
AcDbArc
50
42.2848500959
51
137.7151499041
0
ARC
5
518
100
AcDbEntity
8
0
100
AcDbCircle
62
9
6
CONTINUOUS
10
-0.1020347994
20
-13.1033173073
40
3.5248993522
100
AcDbArc
50
162.2848500959
51
257.7151499041
0
ARC
5
519
100
AcDbEntity
8
0
100
AcDbCircle
62
9
6
CONTINUOUS
10
-0.1020347994
20
-13.1033173073
40
2.5921572875
100
AcDbArc
50
47.6462115036
51
132.3537884964
0
ARC
5
51A
100
AcDbEntity
8
0
100
AcDbCircle
62
9
6
CONTINUOUS
10
-0.1020347994
20
-13.1033173073
40
2.4035954792
100
AcDbArc
50
169.0232310188
51
250.9767689812
0
ARC
5
51B
100
AcDbEntity
8
0
100
AcDbCircle
62
9
6
CONTINUOUS
10
-0.1020347994
20
-13.1033173073
40
2.5921572875
100
AcDbArc
50
287.6462115036
51
12.3537884964
0
ARC
5
51C
100
AcDbEntity
8
0
100
AcDbCircle
62
9
6
CONTINUOUS
10
-0.1020347994
20
-13.1033173073
40
2.4035954792
100
AcDbArc
50
49.0232310188
51
130.9767689812
0
ARC
5
51D
100
AcDbEntity
8
0
100
AcDbCircle
62
9
6
CONTINUOUS
10
-0.1020347994
20
-13.1033173073
40
2.4035954792
100
AcDbArc
50
289.0232310188
51
10.9767689812
0
ARC
5
51E
100
AcDbEntity
8
0
100
AcDbCircle
62
9
6
CONTINUOUS
10
-0.1020347994
20
-13.1033173073
40
2.5921572875
100
AcDbArc
50
167.6462115036
51
252.3537884964
0
CIRCLE
5
51F
100
AcDbEntity
8
DEFAULT_2
100
AcDbCircle
62
9
6
HIDDEN
10
-0.1020347994
20
-13.1033173073
40
1.0000000000
0
CIRCLE
5
520
100
AcDbEntity
8
DEFAULT_2
100
AcDbCircle
62
9
6
HIDDEN
10
-0.1020347994
20
-13.1033173073
40
2.2249995624
0
CIRCLE
5
521
100
AcDbEntity
8
DEFAULT_2
100
AcDbCircle
62
9
6
HIDDEN
10
-0.1020347994
20
-13.1033173073
40
0.9939257687
0
ARC
5
522
100
AcDbEntity
8
0
100
AcDbCircle
62
0
6
CONTINUOUS
10
-0.1020347994
20
-13.1033173073
40
2.4250000000
100
AcDbArc
50
251.3643495003
51
288.6378224899
0
ARC
5
523
100
AcDbEntity
8
0
100
AcDbCircle
62
0
6
CONTINUOUS
10
-0.1020347994
20
-13.1033173073
40
2.4250000000
100
AcDbArc
50
11.3619771090
51
48.6401104258
0
ARC
5
524
100
AcDbEntity
8
0
100
AcDbCircle
62
0
6
CONTINUOUS
10
-0.1020347994
20
-13.1033173073
40
2.4250000000
100
AcDbArc
50
131.3608002916
51
156.5669838577
0
ARC
5
525
100
AcDbEntity
8
0
100
AcDbCircle
62
0
6
CONTINUOUS
10
11.7979652006
20
-7.6033173073
40
2.0000000000
100
AcDbArc
50
130.5416018735
51
180.0000000000
0
ARC
5
526
100
AcDbEntity
8
0
100
AcDbCircle
62
0
6
CONTINUOUS
10
11.7979652006
20
7.3966826927
40
2.0000000000
100
AcDbArc
50
180.0000000000
51
229.4583981265
0
ARC
5
527
100
AcDbEntity
8
0
100
AcDbCircle
62
0
6
CONTINUOUS
10
-12.0020347994
20
7.3966826927
40
2.0000000000
100
AcDbArc
50
310.5416018735
51
360.0000000000
0
ARC
5
528
100
AcDbEntity
8
0
100
AcDbCircle
62
0
6
CONTINUOUS
10
-12.0020347994
20
-7.6033173073
40
2.0000000000
100
AcDbArc
50
0.0000000000
51
49.4583981265
0
ARC
5
529
100
AcDbEntity
8
0
100
AcDbCircle
62
0
6
CONTINUOUS
10
-0.1020347994
20
-13.1033173073
40
2.3750000000
100
AcDbArc
50
169.1860436020
51
250.8139563980
0
ARC
5
52A
100
AcDbEntity
8
0
100
AcDbCircle
62
0
6
CONTINUOUS
10
-0.1020347994
20
-13.1033173073
40
2.3750000000
100
AcDbArc
50
49.1860436020
51
130.8139563980
0
ARC
5
52B
100
AcDbEntity
8
0
100
AcDbCircle
62
0
6
CONTINUOUS
10
-0.1020347994
20
-13.1033173073
40
2.3750000000
100
AcDbArc
50
289.1860436020
51
10.8139563980
0
ARC
5
52C
100
AcDbEntity
8
0
100
AcDbCircle
62
0
6
CONTINUOUS
10
4.3272882006
20
8.0800256927
40
0.3041950000
100
AcDbArc
50
270.0018938328
51
90.0000000000
0
ARC
5
52D
100
AcDbEntity
8
0
100
AcDbCircle
62
0
6
CONTINUOUS
10
4.3966902006
20
8.0800256927
40
0.7667158029
100
AcDbArc
50
292.8428449664
51
89.9987108403
0
ARC
5
52E
100
AcDbEntity
8
0
100
AcDbCircle
62
0
6
CONTINUOUS
10
-0.1020347994
20
-13.1033173073
40
2.4500000000
100
AcDbArc
50
12.1742941315
51
47.8257058685
0
ARC
5
52F
100
AcDbEntity
8
0
100
AcDbCircle
62
0
6
CONTINUOUS
10
-0.1020347994
20
-13.1033173073
40
2.4500000000
100
AcDbArc
50
252.1742941315
51
287.8257058685
0
ARC
5
530
100
AcDbEntity
8
0
100
AcDbCircle
62
0
6
CONTINUOUS
10
-0.1020347994
20
-13.1033173073
40
2.4500000000
100
AcDbArc
50
132.1742941315
51
167.8257058685
0
ARC
5
531
100
AcDbEntity
8
0
100
AcDbCircle
62
0
6
CONTINUOUS
10
9.4979652006
20
-20.1533173073
40
0.3000000000
100
AcDbArc
50
270.0000000000
51
360.0000000000
0
ARC
5
532
100
AcDbEntity
8
0
100
AcDbCircle
62
0
6
CONTINUOUS
10
-9.7020347994
20
-20.1533173073
40
0.3000000000
100
AcDbArc
50
180.0000000000
51
270.0000000000
0
ARC
5
533
100
AcDbEntity
8
0
100
AcDbCircle
62
0
6
CONTINUOUS
10
9.4979652006
20
19.9466826927
40
0.3000000000
100
AcDbArc
50
0.0000000000
51
90.0000000000
0
ARC
5
534
100
AcDbEntity
8
0
100
AcDbCircle
62
0
6
CONTINUOUS
10
-9.7020347994
20
19.9466826927
40
0.3000000000
100
AcDbArc
50
90.0000000000
51
180.0000000000
0
ARC
5
535
100
AcDbEntity
8
0
100
AcDbCircle
62
0
6
CONTINUOUS
10
-0.1020347994
20
-13.1033173073
40
3.0706482398
100
AcDbArc
50
164.8269980938
51
255.1730019062
0
ARC
5
536
100
AcDbEntity
8
0
100
AcDbCircle
62
0
6
CONTINUOUS
10
-0.1020347994
20
-13.1033173073
40
3.0706482398
100
AcDbArc
50
44.8269980938
51
135.1730019062
0
ARC
5
537
100
AcDbEntity
8
0
100
AcDbCircle
62
0
6
CONTINUOUS
10
-0.1020347994
20
-13.1033173073
40
3.0706482398
100
AcDbArc
50
284.8269980938
51
15.1730019062
0
ENDSEC
0
SECTION
2
OBJECTS
0
DICTIONARY
5
C
100
AcDbDictionary
280
0
281
1
3
ACAD_GROUP
350
D
3
ACAD_MLINESTYLE
350
17
3
ACAD_LAYOUT
350
1A
3
ACAD_PLOTSETTINGS
350
19
3
ACAD_PLOTSTYLENAME
350
E
0
DICTIONARY
5
D
102
{ACAD_REACTORS
330
C
102
}
100
AcDbDictionary
280
0
281
1
0
ACDBDICTIONARYWDFLT
5
E
102
{ACAD_REACTORS
330
C
102
}
100
AcDbDictionary
281
1
3
Normal
350
F
100
AcDbDictionaryWithDefault
340
F
0
DICTIONARY
5
17
102
{ACAD_REACTORS
330
C
102
}
100
AcDbDictionary
280
0
281
1
3
Standard
350
18
0
DICTIONARY
5
19
102
{ACAD_REACTORS
330
C
102
}
100
AcDbDictionary
281
1
0
DICTIONARY
5
1A
102
{ACAD_REACTORS
330
C
102
}
100
AcDbDictionary
281
1
3
Layout1
350
1E
3
Model
350
22
0
ACDBPLACEHOLDER
5
F
102
{ACAD_REACTORS
330
E
102
}
0
MLINESTYLE
5
18
102
{ACAD_REACTORS
330
17
102
}
100
AcDbMlineStyle
2
STANDARD
70
0
3

62
256
51
90.0
52
90.0
71
2
49
0.5
62
256
6
BYLAYER
49
-0.5
62
256
6
BYLAYER
0
LAYOUT
5
1E
102
{ACAD_REACTORS
330
1A
102
}
100
AcDbPlotSettings
1

2

4

6

40
0.0
41
0.0
42
0.0
43
0.0
44
0.0
45
0.0
46
0.0
47
0.0
48
0.0
49
0.0
140
0.0
141
0.0
142
1.0
143
1.0
70
0
72
0
73
0
74
0
7

75
0
147
1.0
148
0.0
149
0.0
100
AcDbLayout
1
Layout1
70
0
71
0
10
0.0
20
0.0
11
0.0
21
0.0
12
0.0
22
0.0
32
0.0
14
0.0
24
0.0
34
0.0
15
0.0
25
0.0
35
0.0
146
0.0
13
0.0
23
0.0
33
0.0
16
0.0
26
0.0
36
0.0
17
0.0
27
0.0
37
0.0
76
0
330
1B
331
0
345
0
346
0
0
LAYOUT
5
22
102
{ACAD_REACTORS
330
1A
102
}
100
AcDbPlotSettings
1

2

4

6

40
0.0
41
0.0
42
0.0
43
0.0
44
0.0
45
0.0
46
0.0
47
0.0
48
0.0
49
0.0
140
0.0
141
0.0
142
1.0
143
1.0
70
0
72
0
73
0
74
0
7

75
0
147
1.0
148
0.0
149
0.0
100
AcDbLayout
1
Model
70
0
71
0
10
0.0
20
0.0
11
0.0
21
0.0
12
0.0
22
0.0
32
0.0
14
0.0
24
0.0
34
0.0
15
0.0
25
0.0
35
0.0
146
0.0
13
0.0
23
0.0
33
0.0
16
0.0
26
0.0
36
0.0
17
0.0
27
0.0
37
0.0
76
0
330
1F
331
0
345
0
346
0
0
ENDSEC
0
EOF
