  0
SECTION
  2
HEADER
  9
$ACADVER
  1
AC1024
  9
$DWGCODEPAGE
  3
ANSI_1252
  9
$EXTMAX
 10
297.0
 20
210.0
 30
0.0
  9
$EXTMIN
 10
0.0
 20
0.0
 30
0.0
  9
$LIMMIN
 10
0.0
 20
0.0
  9
$LIMMAX
 10
297.0
 20
210.0
  9
$VIEWCTR
 10
148.5
 20
105.0
  9
$VIEWSIZE
 40
210.0
  9
$CLAYER
  8
0
  9
$LTSCALE
 40
16.335
  9
$CELTYPE
  6
BYLAYER
  9
$DIMSCALE
 40
1.0
  9
$DIMASZ
 40
3.0
  9
$DIMEXO
 40
0.5
  9
$DIMDLI
 40
11.286
  9
$DIMEXE
 40
1.5
  9
$DIMCEN
 40
2.673
  9
$DIMLFAC
 40
1.0
  9
$DIMBLK
  1
_FILLED
  9
$DIMALT
 70
0
  9
$DIMALTF
 40
0.0393700787
  9
$DIMTXT
 40
3.0
  9
$DIMTOL
 70
1
  9
$DIMLIM
 70
0
  9
$DIMTFAC
 40
1.0
  9
$DIMTP
 40
0.01
  9
$DIMTM
 40
0.01
  9
$DIMGAP
 40
0.625
  9
$DIMDSEP
 70
44
  9
$AUNITS
 70
0
  9
$PDMODE
 70
3
  9
$PDSIZE
 40
3.0
  9
$HANDSEED
  5
465
  9
$TILEMODE
 70
1
  9
$MEASUREMENT
 70
1
  9
$INSUNITS
 70
4
  0
ENDSEC
  0
SECTION
  2
CLASSES
  0
CLASS
  1
ACDBDICTIONARYWDFLT
  2
AcDbDictionaryWithDefault
  3
AutoCAD 2000
 90
0
 91
1
280
0
281
0
  0
CLASS
  1
ACDBPLACEHOLDER
  2
AcDbPlaceHolder
  3
AutoCAD 2000
 90
0
 91
1
280
0
281
0
  0
CLASS
  1
LAYOUT
  2
AcDbLayout
  3
AutoCAD 2000
 90
0
 91
0
280
0
281
0
  0
ENDSEC
  0
SECTION
  2
TABLES
  0
TABLE
  2
VPORT
  5
8
100
AcDbSymbolTable
 70
2
  0
VPORT
  5
1F4
100
AcDbSymbolTableRecord
100
AcDbViewportTableRecord
  2
*ACTIVE
 70
0
 10
0.0
 20
0.0
 11
1.0
 21
1.0
 12
148.5
 22
105.0
 13
0.0
 23
0.0
 14
1.0
 24
1.0
 15
0.0
 25
0.0
 16
0.0
 26
0.0
 36
1.0
 17
0.0
 27
0.0
 37
0.0
 40
210.0
 41
1.4142857143
 42
50.0
 43
0.0
 44
0.0
 50
0.0
 51
0.0
 71
0
 72
100
 73
1
 74
1
 75
0
 76
0
 77
0
 78
0
  0
ENDTAB
  0
TABLE
  2
LTYPE
  5
5
100
AcDbSymbolTable
 70
6
  0
LTYPE
  5
14
100
AcDbSymbolTableRecord
100
AcDbLinetypeTableRecord
  2
BYBLOCK
 70
0
  3

 72
65
 73
0
 40
0.0
  0
LTYPE
  5
15
100
AcDbSymbolTableRecord
100
AcDbLinetypeTableRecord
  2
BYLAYER
 70
0
  3

 72
65
 73
0
 40
0.0
  0
LTYPE
  5
16
100
AcDbSymbolTableRecord
100
AcDbLinetypeTableRecord
  2
CONTINUOUS
 70
64
  3
Solid line
 72
65
 73
0
 40
0.0
  0
LTYPE
  5
1F5
100
AcDbSymbolTableRecord
100
AcDbLinetypeTableRecord
  2
CENTER
 70
64
  3
____ _ ____ _ ____ _ ____ _ ____ _ ____ _ ____
 72
65
 73
4
 40
0.6
 49
0.375
 74
0
 49
-0.075
 74
0
 49
0.075
 74
0
 49
-0.075
 74
0
  0
LTYPE
  5
1F6
100
AcDbSymbolTableRecord
100
AcDbLinetypeTableRecord
  2
HIDDEN
 70
64
  3
- - - - - - - - - - - - - - - - - - - -
 72
65
 73
2
 40
0.2
 49
0.1
 74
0
 49
-0.1
 74
0
  0
LTYPE
  5
1F7
100
AcDbSymbolTableRecord
100
AcDbLinetypeTableRecord
  2
PHANTOM
 70
64
  3
_____ _ _ _____ _ _ _____ _ _ _____
 72
65
 73
6
 40
0.8
 49
0.45
 74
0
 49
-0.05
 74
0
 49
0.1
 74
0
 49
-0.05
 74
0
 49
0.1
 74
0
 49
-0.05
 74
0
  0
LTYPE
  5
1F8
100
AcDbSymbolTableRecord
100
AcDbLinetypeTableRecord
  2
DOT
 70
64
  3
. . . . . . . . . . . . . . . . . . . .
 72
65
 73
2
 40
0.2
 49
0.1
 74
0
 49
-0.1
 74
0
  0
LTYPE
  5
1F9
100
AcDbSymbolTableRecord
100
AcDbLinetypeTableRecord
  2
DASHED
 70
64
  3
- - - - - - - - - - - - - - - - - - - -
 72
65
 73
2
 40
0.2
 49
0.1
 74
0
 49
-0.1
 74
0
  0
ENDTAB
  0
TABLE
  2
LAYER
  5
2
100
AcDbSymbolTable
 70
36
  0
LAYER
  5
10
100
AcDbSymbolTableRecord
100
AcDbLayerTableRecord
  2
0
 70
0
 62
7
  6
CONTINUOUS
370
-3
390
F
  0
LAYER
  5
1FA
100
AcDbSymbolTableRecord
100
AcDbLayerTableRecord
  2
DEFAULT_1
 70
0
 62
7
  6
CENTER
370
-3
390
F
  0
LAYER
  5
1FB
100
AcDbSymbolTableRecord
100
AcDbLayerTableRecord
  2
DEFAULT_2
 70
0
 62
7
  6
HIDDEN
370
-3
390
F
  0
LAYER
  5
1FC
100
AcDbSymbolTableRecord
100
AcDbLayerTableRecord
  2
DEFAULT_3
 70
0
 62
7
  6
PHANTOM
370
-3
390
F
  0
LAYER
  5
1FD
100
AcDbSymbolTableRecord
100
AcDbLayerTableRecord
  2
ASSI
 70
0
 62
7
  6
CONTINUOUS
370
-3
390
F
  0
LAYER
  5
1FE
100
AcDbSymbolTableRecord
100
AcDbLayerTableRecord
  2
COORDINATE
 70
0
 62
7
  6
CONTINUOUS
370
-3
390
F
  0
LAYER
  5
1FF
100
AcDbSymbolTableRecord
100
AcDbLayerTableRecord
  2
COORD_ORIGINE
 70
0
 62
7
  6
CONTINUOUS
370
-3
390
F
  0
LAYER
  5
200
100
AcDbSymbolTableRecord
100
AcDbLayerTableRecord
  2
COPY_PUBLISH
 70
0
 62
7
  6
CONTINUOUS
370
-3
390
F
  0
LAYER
  5
201
100
AcDbSymbolTableRecord
100
AcDbLayerTableRecord
  2
COSMETICI
 70
0
 62
7
  6
CONTINUOUS
370
-3
390
F
  0
LAYER
  5
202
100
AcDbSymbolTableRecord
100
AcDbLayerTableRecord
  2
CURVE
 70
0
 62
7
  6
CONTINUOUS
370
-3
390
F
  0
LAYER
  5
203
100
AcDbSymbolTableRecord
100
AcDbLayerTableRecord
  2
DRAFT
 70
0
 62
7
  6
CONTINUOUS
370
-3
390
F
  0
LAYER
  5
204
100
AcDbSymbolTableRecord
100
AcDbLayerTableRecord
  2
IGES
 70
0
 62
7
  6
CONTINUOUS
370
-3
390
F
  0
LAYER
  5
205
100
AcDbSymbolTableRecord
100
AcDbLayerTableRecord
  2
IMPORT_IGES
 70
0
 62
7
  6
CONTINUOUS
370
-3
390
F
  0
LAYER
  5
206
100
AcDbSymbolTableRecord
100
AcDbLayerTableRecord
  2
INTF_1
 70
0
 62
7
  6
CONTINUOUS
370
-3
390
F
  0
LAYER
  5
207
100
AcDbSymbolTableRecord
100
AcDbLayerTableRecord
  2
INTF_5
 70
0
 62
7
  6
CONTINUOUS
370
-3
390
F
  0
LAYER
  5
208
100
AcDbSymbolTableRecord
100
AcDbLayerTableRecord
  2
INTF_8
 70
0
 62
7
  6
CONTINUOUS
370
-3
390
F
  0
LAYER
  5
209
100
AcDbSymbolTableRecord
100
AcDbLayerTableRecord
  2
INTF_CYAN
 70
0
 62
7
  6
CONTINUOUS
370
-3
390
F
  0
LAYER
  5
20A
100
AcDbSymbolTableRecord
100
AcDbLayerTableRecord
  2
NOTE
 70
0
 62
7
  6
CONTINUOUS
370
-3
390
F
  0
LAYER
  5
20B
100
AcDbSymbolTableRecord
100
AcDbLayerTableRecord
  2
PIANI
 70
0
 62
7
  6
CONTINUOUS
370
-3
390
F
  0
LAYER
  5
20C
100
AcDbSymbolTableRecord
100
AcDbLayerTableRecord
  2
PIANI_ORIGINE
 70
0
 62
7
  6
CONTINUOUS
370
-3
390
F
  0
LAYER
  5
20D
100
AcDbSymbolTableRecord
100
AcDbLayerTableRecord
  2
PUNTI
 70
0
 62
7
  6
CONTINUOUS
370
-3
390
F
  0
LAYER
  5
20E
100
AcDbSymbolTableRecord
100
AcDbLayerTableRecord
  2
RACCORDO
 70
0
 62
7
  6
CONTINUOUS
370
-3
390
F
  0
LAYER
  5
20F
100
AcDbSymbolTableRecord
100
AcDbLayerTableRecord
  2
RGB____0____0____0__
 70
0
 62
7
  6
CONTINUOUS
370
-3
390
F
  0
LAYER
  5
210
100
AcDbSymbolTableRecord
100
AcDbLayerTableRecord
  2
SIMBOLI
 70
0
 62
7
  6
CONTINUOUS
370
-3
390
F
  0
LAYER
  5
211
100
AcDbSymbolTableRecord
100
AcDbLayerTableRecord
  2
SMUSSO
 70
0
 62
7
  6
CONTINUOUS
370
-3
390
F
  0
LAYER
  5
212
100
AcDbSymbolTableRecord
100
AcDbLayerTableRecord
  2
SNAPLINE
 70
0
 62
7
  6
CONTINUOUS
370
-3
390
F
  0
LAYER
  5
213
100
AcDbSymbolTableRecord
100
AcDbLayerTableRecord
  2
SUPERFICI
 70
0
 62
7
  6
CONTINUOUS
370
-3
390
F
  0
LAYER
  5
214
100
AcDbSymbolTableRecord
100
AcDbLayerTableRecord
  2
TRASH
 70
0
 62
7
  6
CONTINUOUS
370
-3
390
F
  0
LAYER
  5
215
100
AcDbSymbolTableRecord
100
AcDbLayerTableRecord
  2
WHITE
 70
0
 62
7
  6
CONTINUOUS
370
-3
390
F
  0
ENDTAB
  0
TABLE
  2
STYLE
  5
3
100
AcDbSymbolTable
 70
1
  0
STYLE
  5
11
100
AcDbSymbolTableRecord
100
AcDbTextStyleTableRecord
  2
STANDARD
 70
0
 40
0.0
 41
0.8
 50
0.0
 71
0
 42
0.2
  3
txt
  4

  0
STYLE
  5
216
100
AcDbSymbolTableRecord
100
AcDbTextStyleTableRecord
  2
TEXTSTYLE_1
 70
0
 40
0.0
 41
0.8
 50
0.0
 71
0
 42
0.2
  3
gdt
  4

  0
ENDTAB
  0
TABLE
  2
VIEW
  5
6
100
AcDbSymbolTable
 70
0
  0
ENDTAB
  0
TABLE
  2
UCS
  5
7
100
AcDbSymbolTable
 70
0
  0
ENDTAB
  0
TABLE
  2
APPID
  5
9
100
AcDbSymbolTable
 70
1
  0
APPID
  5
217
100
AcDbSymbolTableRecord
100
AcDbRegAppTableRecord
  2
ACAD
 70
0
  0
ENDTAB
  0
TABLE
  2
BLOCK_RECORD
  5
1
100
AcDbSymbolTable
 70
0
  0
BLOCK_RECORD
  5
218
100
AcDbSymbolTableRecord
100
AcDbBlockTableRecord
  2
*Model_Space
  0
BLOCK_RECORD
  5
219
100
AcDbSymbolTableRecord
100
AcDbBlockTableRecord
  2
*Paper_Space
  0
BLOCK_RECORD
  5
21A
100
AcDbSymbolTableRecord
100
AcDbBlockTableRecord
  2
_FILLED
  0
ENDTAB
  0
TABLE
  2
DIMSTYLE
  5
A
100
AcDbSymbolTable
 70
1
100
AcDbDimStyleTable
 71
0
  0
DIMSTYLE
105
21B
100
AcDbSymbolTableRecord
100
AcDbDimStyleTableRecord
  2
STANDARD
 70
0
  3

  4

 40
1.0
 41
3.0
 42
0.5
 43
0.38
 44
1.5
 45
0.0
 46
0.0
 47
0.01
 48
0.01
140
3.0
141
0.09
142
0.0
143
25.4
144
1.0
145
0.0
146
1.0
147
0.625
 71
1
 72
0
 73
0
 74
0
 75
0
 76
0
 77
1
 78
8
 79
2
170
0
171
1
172
0
173
0
174
0
175
0
176
0
177
0
178
0
270
2
179
2
271
2
272
2
273
2
274
2
275
0
280
0
281
0
282
0
283
1
284
8
285
0
286
0
287
3
288
0
340
11
278
44
341
21A
342
21A
343
21A
344
21A
  0
ENDTAB
  0
ENDSEC
  0
SECTION
  2
BLOCKS
  0
BLOCK
  5
20
100
AcDbEntity
  8
0
100
AcDbBlockBegin
  2
*Model_Space
 70
0
 10
0.0
 20
0.0
 30
0.0
  3
*Model_Space
  1

  0
ENDBLK
  5
21
100
AcDbEntity
  8
0
100
AcDbBlockEnd
  0
BLOCK
  5
1C
100
AcDbEntity
  8
0
100
AcDbBlockBegin
  2
*Paper_Space
 70
0
 10
0.0
 20
0.0
 30
0.0
  3
*Paper_Space
  1

  0
ENDBLK
  5
1D
100
AcDbEntity
  8
0
100
AcDbBlockEnd
  0
BLOCK
  5
21C
100
AcDbEntity
  8
0
100
AcDbBlockBegin
  2
_FILLED
 70
64
 10
0.0
 20
0.0
  3
_FILLED
  1

  0
SOLID
  5
21D
100
AcDbEntity
  8
0
  6
BYBLOCK
 62
0
100
AcDbTrace
 10
0.0
 20
0.0
 11
-1.0
 21
0.3166666667
 12
-1.0
 22
-0.3166666667
 13
-1.0
 23
-0.3166666667
  0
ENDBLK
  5
21E
100
AcDbEntity
  8
0
  6
BYBLOCK
 62
0
100
AcDbBlockEnd
  0
ENDSEC
  0
SECTION
  2
ENTITIES
  0
LINE
  5
21F
100
AcDbEntity
  8
RACCORDO
100
AcDbLine
 62
7
  6
CONTINUOUS
 10
81.6031913475
 20
67.9622282499
 11
61.0033741957
 21
67.9622282499
  0
LINE
  5
220
100
AcDbEntity
  8
0
100
AcDbLine
 62
7
  6
CONTINUOUS
 10
61.7032827716
 20
69.1872282499
 11
80.9032827716
 21
69.1872282499
  0
LINE
  5
221
100
AcDbEntity
  8
RACCORDO
100
AcDbLine
 62
250
  6
CONTINUOUS
 10
64.9032827716
 20
69.2018729109
 11
77.7032827716
 21
69.2018729109
  0
LINE
  5
222
100
AcDbEntity
  8
RACCORDO
100
AcDbLine
 62
250
  6
CONTINUOUS
 10
64.9032827716
 20
69.242583589
 11
77.7032827716
 21
69.242583589
  0
LINE
  5
223
100
AcDbEntity
  8
RACCORDO
100
AcDbLine
 62
7
  6
CONTINUOUS
 10
64.9032827716
 20
69.2572282499
 11
77.7032827716
 21
69.2572282499
  0
LINE
  5
224
100
AcDbEntity
  8
RACCORDO
100
AcDbLine
 62
250
  6
CONTINUOUS
 10
64.9032827716
 20
69.5601169899
 11
77.7032827716
 21
69.5601169899
  0
LINE
  5
225
100
AcDbEntity
  8
0
100
AcDbLine
 62
7
  6
CONTINUOUS
 10
64.9032827716
 20
69.8622282499
 11
64.3032827716
 21
69.8622282499
  0
LINE
  5
226
100
AcDbEntity
  8
SUPERFICI
100
AcDbLine
 62
7
  6
CONTINUOUS
 10
77.7032827716
 20
69.8622282499
 11
78.3032827716
 21
69.8622282499
  0
LINE
  5
227
100
AcDbEntity
  8
0
100
AcDbLine
 62
7
  6
CONTINUOUS
 10
64.3032827716
 20
69.8622282499
 11
61.7032827716
 21
69.1872282499
  0
LINE
  5
228
100
AcDbEntity
  8
0
100
AcDbLine
 62
7
  6
CONTINUOUS
 10
78.3032827716
 20
69.8622282499
 11
80.9032827716
 21
69.1872282499
  0
LINE
  5
229
100
AcDbEntity
  8
0
100
AcDbLine
 62
250
  6
CONTINUOUS
 10
63.1032827716
 20
76.8122282499
 11
64.1032827716
 21
76.8122282499
  0
LINE
  5
22A
100
AcDbEntity
  8
0
100
AcDbLine
 62
250
  6
CONTINUOUS
 10
78.5032827716
 20
76.8122282499
 11
79.5032827716
 21
76.8122282499
  0
LWPOLYLINE
  5
22B
100
AcDbEntity
  8
0
100
AcDbPolyline
 62
250
  6
CONTINUOUS
 90
4
 70
0
 10
61.5694357249
 20
102.4673833685
 10
61.5580557561
 20
105.2472112794
 10
61.544472003
 20
108.0038262399
 10
61.5307373581
 20
110.3817972329
  0
LINE
  5
22C
100
AcDbEntity
  8
0
100
AcDbLine
 62
250
  6
CONTINUOUS
 10
61.5807467864
 20
98.8122777301
 11
61.5694357249
 21
102.4673833685
  0
LINE
  5
22D
100
AcDbEntity
  8
RACCORDO
100
AcDbLine
 62
7
  6
CONTINUOUS
 10
60.2032827716
 20
68.7620759584
 11
60.2032827716
 21
110.8623805414
  0
LINE
  5
22E
100
AcDbEntity
  8
0
100
AcDbLine
 62
7
  6
CONTINUOUS
 10
60.7032827716
 20
83.8320966653
 11
60.7032827716
 21
95.7923598346
  0
LINE
  5
22F
100
AcDbEntity
  8
0
100
AcDbLine
 62
7
  6
CONTINUOUS
 10
61.4032827716
 20
69.4872282499
 11
61.4032827716
 21
110.1372282499
  0
LINE
  5
230
100
AcDbEntity
  8
RACCORDO
100
AcDbLine
 62
7
  6
CONTINUOUS
 10
61.5345157669
 20
98.5122282499
 11
61.5345157669
 21
95.2709368884
  0
LINE
  5
231
100
AcDbEntity
  8
RACCORDO
100
AcDbLine
 62
7
  6
CONTINUOUS
 10
61.5345157669
 20
84.3535196114
 11
61.5345157669
 21
81.1122282499
  0
LWPOLYLINE
  5
232
100
AcDbEntity
  8
0
100
AcDbPolyline
 62
250
  6
CONTINUOUS
 90
5
 70
0
 10
61.530727113
 20
69.2426661125
 10
61.5445270919
 20
71.6439787651
 10
61.5581343983
 20
74.4069433972
 10
61.5695063848
 20
77.176122146
 10
61.5808080088
 20
80.8121783525
  0
LINE
  5
233
100
AcDbEntity
  8
RACCORDO
100
AcDbLine
 62
250
  6
CONTINUOUS
 10
75.9032827716
 20
79.8122282499
 11
75.6032827716
 21
79.8122282499
  0
LINE
  5
234
100
AcDbEntity
  8
RACCORDO
100
AcDbLine
 62
250
  6
CONTINUOUS
 10
66.7032827716
 20
79.8122282499
 11
67.0032827709
 21
79.8122282475
  0
LWPOLYLINE
  5
235
100
AcDbEntity
  8
0
100
AcDbPolyline
 62
7
  6
CONTINUOUS
 90
8
 70
0
 10
63.1041123709
 20
74.5648790193
 10
63.1090746289
 20
73.7935167757
 10
63.1181695454
 20
73.0400102641
 10
63.1305436852
 20
72.3045991924
 10
63.1470504837
 20
71.587038136
 10
63.1702502466
 20
70.8865969263
 10
63.2009964093
 20
70.2030297806
 10
63.2357112399
 20
69.5850702561
  0
LWPOLYLINE
  5
236
100
AcDbEntity
  8
0
100
AcDbPolyline
 62
250
  6
CONTINUOUS
 90
4
 70
0
 10
61.7687063363
 20
102.4673171869
 10
61.7573415477
 20
105.2474748265
 10
61.7437759216
 20
108.0041787984
 10
61.7297797872
 20
110.430349217
  0
LINE
  5
237
100
AcDbEntity
  8
0
100
AcDbLine
 62
250
  6
CONTINUOUS
 10
61.7800020042
 20
98.8122282499
 11
61.7687063363
 21
102.4673171869
  0
LINE
  5
238
100
AcDbEntity
  8
0
100
AcDbLine
 62
7
  6
CONTINUOUS
 10
63.1032827716
 20
76.8122282499
 11
63.1041123709
 21
74.5648790193
  0
LWPOLYLINE
  5
239
100
AcDbEntity
  8
0
100
AcDbPolyline
 62
250
  6
CONTINUOUS
 90
5
 70
0
 10
61.7297709516
 20
69.194104989
 10
61.7438300902
 20
71.6434029347
 10
61.7574186881
 20
74.4063173489
 10
61.7687752517
 20
77.1757426174
 10
61.7800629599
 20
80.8122282499
  0
LWPOLYLINE
  5
23A
100
AcDbEntity
  8
0
100
AcDbPolyline
 62
7
  6
CONTINUOUS
 90
9
 70
0
 10
63.2357125906
 20
110.0393858931
 10
63.2009880169
 20
109.4212232846
 10
63.1702401489
 20
108.7375839327
 10
63.14704088
 20
108.0370792789
 10
63.1305362361
 20
107.3194744708
 10
63.1181642956
 20
106.5840721303
 10
63.1090710843
 20
105.830637784
 10
63.1041105763
 20
105.0594002356
 10
63.1032827716
 20
102.8122282499
  0
LWPOLYLINE
  5
23B
100
AcDbEntity
  8
RACCORDO
100
AcDbPolyline
 62
7
  6
CONTINUOUS
 90
22
 70
0
 10
71.303283175
 20
81.3675687803
 10
71.0374208816
 20
81.3600426522
 10
70.7735669995
 20
81.3374702804
 10
70.5117215285
 20
81.2998516649
 10
70.2505512314
 20
81.2468194644
 10
69.9913893456
 20
81.1787410201
 10
69.738235583
 20
81.0967183563
 10
69.4919225982
 20
81.0008132884
 10
69.2516177367
 20
80.8909640009
 10
69.0188227474
 20
80.7680870721
 10
68.7934083559
 20
80.6321070457
 10
68.5755038365
 20
80.483099378
 10
68.3669987611
 20
80.3222070157
 10
68.1675867106
 20
80.1488320817
 10
67.9775741041
 20
79.9635724532
 10
67.7997697709
 20
79.7693647085
 10
67.6348008169
 20
79.5665350362
 10
67.4820401361
 20
79.3547572478
 10
67.3424152401
 20
79.1359893553
 10
67.2162352992
 20
78.9108840294
 10
67.103191143
 20
78.6787885995
 10
67.0032827716
 20
78.4397030656
  0
LINE
  5
23C
100
AcDbEntity
  8
RACCORDO
100
AcDbLine
 62
7
  6
CONTINUOUS
 10
81.0458031772
 20
80.8122282499
 11
76.9032827716
 21
80.8122282499
  0
LINE
  5
23D
100
AcDbEntity
  8
RACCORDO
100
AcDbLine
 62
7
  6
CONTINUOUS
 10
65.7032827716
 20
80.8122282499
 11
61.5607623659
 21
80.8122282499
  0
LINE
  5
23E
100
AcDbEntity
  8
RACCORDO
100
AcDbLine
 62
250
  6
CONTINUOUS
 10
81.0720497763
 20
81.1122282499
 11
76.9032827716
 21
81.1122282499
  0
LINE
  5
23F
100
AcDbEntity
  8
RACCORDO
100
AcDbLine
 62
250
  6
CONTINUOUS
 10
65.7032827716
 20
81.1122282499
 11
61.5345157669
 21
81.1122282499
  0
LWPOLYLINE
  5
240
100
AcDbEntity
  8
RACCORDO
100
AcDbPolyline
 62
250
  6
CONTINUOUS
 90
49
 70
0
 10
71.3032009686
 20
81.2175673911
 10
71.5276088908
 20
81.2107276599
 10
71.7454538649
 20
81.1946151513
 10
71.9567358906
 20
81.1692299091
 10
72.1625740999
 20
81.1333975209
 10
72.3618493609
 20
81.0882925727
 10
72.5512042782
 20
81.0374385978
 10
72.7290207071
 20
80.9812575837
 10
72.8969167923
 20
80.9193277245
 10
73.0563895732
 20
80.8539067932
 10
73.2076514839
 20
80.7851511867
 10
73.3504900902
 20
80.7129046547
 10
73.4857651294
 20
80.6389559248
 10
73.6134595685
 20
80.5634605127
 10
73.7335904404
 20
80.4862629887
 10
73.8470685818
 20
80.4086855938
 10
73.9535773614
 20
80.331170148
 10
74.0534334103
 20
80.2532748533
 10
74.1484974593
 20
80.1749964928
 10
74.2385932335
 20
80.0968579039
 10
74.3238970076
 20
80.0183362706
 10
74.4067983366
 20
79.9378599365
 10
74.4878161028
 20
79.8552598164
 10
74.5664314238
 20
79.7707051173
 10
74.6434772076
 20
79.6831316962
 10
74.719491575
 20
79.5919748197
 10
74.7939364051
 20
79.4977994338
 10
74.866030243
 20
79.4012359318
 10
74.9357826095
 20
79.3020803249
 10
75.0031839838
 20
79.2005367924
 10
75.0674243478
 20
79.0978479193
 10
75.1282769621
 20
78.9942069054
 10
75.1859685662
 20
78.8894206566
 10
75.2403693606
 20
78.7841522487
 10
75.2911905594
 20
78.6791636234
 10
75.3387209484
 20
78.5736928832
 10
75.3836970857
 20
78.4661173853
 10
75.4262516566
 20
78.3568404289
 10
75.4662519757
 20
78.2454589077
 10
75.5040365446
 20
78.1291407636
 10
75.5400582167
 20
78.0072929703
 10
75.5738641387
 20
77.8805090762
 10
75.6044342522
 20
77.7477370844
 10
75.6319685404
 20
77.6087127056
 10
75.6562670201
 20
77.4637009607
 10
75.6757096838
 20
77.3124439214
 10
75.689756529
 20
77.1548559182
 10
75.6989475583
 20
76.9910235242
 10
75.7032827716
 20
76.8209472305
  0
LWPOLYLINE
  5
241
100
AcDbEntity
  8
0
100
AcDbPolyline
 62
7
  6
CONTINUOUS
 90
8
 70
0
 10
64.1024549668
 20
105.0594002356
 10
64.0974944588
 20
105.830637784
 10
64.0884012476
 20
106.5840721303
 10
64.076029307
 20
107.3194744708
 10
64.0595246632
 20
108.0370792789
 10
64.0363253942
 20
108.7375839327
 10
64.0055775262
 20
109.4212232846
 10
63.9817326068
 20
109.8457076196
  0
LINE
  5
242
100
AcDbEntity
  8
0
100
AcDbLine
 62
7
  6
CONTINUOUS
 10
64.1032827716
 20
102.8122282499
 11
64.1024549668
 21
105.0594002356
  0
LINE
  5
243
100
AcDbEntity
  8
0
100
AcDbLine
 62
7
  6
CONTINUOUS
 10
64.3032827716
 20
110.4372282499
 11
64.3032827716
 21
109.7622282499
  0
LINE
  5
244
100
AcDbEntity
  8
0
100
AcDbLine
 62
7
  6
CONTINUOUS
 10
64.3032827716
 20
69.1872282499
 11
64.3032827716
 21
69.8622282499
  0
LINE
  5
245
100
AcDbEntity
  8
RACCORDO
100
AcDbLine
 62
7
  6
CONTINUOUS
 10
64.7032827716
 20
94.6155652952
 11
64.7032827716
 21
92.3122282499
  0
LINE
  5
246
100
AcDbEntity
  8
0
100
AcDbLine
 62
7
  6
CONTINUOUS
 10
64.9032827716
 20
110.4372282499
 11
64.9032827716
 21
109.7622282499
  0
LINE
  5
247
100
AcDbEntity
  8
0
100
AcDbLine
 62
7
  6
CONTINUOUS
 10
64.9032827716
 20
69.1872282499
 11
64.9032827716
 21
69.8622282499
  0
LINE
  5
248
100
AcDbEntity
  8
0
100
AcDbLine
 62
250
  6
CONTINUOUS
 10
65.9264242023
 20
109.4547345991
 11
65.9150868897
 21
109.2721541575
  0
LINE
  5
249
100
AcDbEntity
  8
0
100
AcDbLine
 62
250
  6
CONTINUOUS
 10
66.1264165869
 20
109.2566809854
 11
66.1173038703
 21
109.1099262928
  0
LWPOLYLINE
  5
24A
100
AcDbEntity
  8
0
100
AcDbPolyline
 62
7
  6
CONTINUOUS
 90
13
 70
0
 10
66.6914786535
 20
109.2721541575
 10
66.6891937304
 20
109.2487094053
 10
66.6831544317
 20
109.2261071015
 10
66.6736910757
 20
109.20481011
 10
66.6612520772
 20
109.1853359234
 10
66.6462025699
 20
109.1678435362
 10
66.6286625975
 20
109.1522375371
 10
66.6088626105
 20
109.1387294029
 10
66.5872292343
 20
109.1276399926
 10
66.5640705369
 20
109.1190841683
 10
66.5397450664
 20
109.1132020441
 10
66.5146730654
 20
109.1101298175
 10
66.4892616729
 20
109.1099262928
  0
LWPOLYLINE
  5
24B
100
AcDbEntity
  8
RACCORDO
100
AcDbPolyline
 62
7
  6
CONTINUOUS
 90
30
 70
0
 10
66.7034792182
 20
108.6702715084
 10
66.6970473074
 20
108.6291704061
 10
66.6861832425
 20
108.5889249663
 10
66.6705917649
 20
108.5488507962
 10
66.6505681331
 20
108.509632322
 10
66.6269981228
 20
108.4733228443
 10
66.5997099986
 20
108.4403046141
 10
66.5688754959
 20
108.410195514
 10
66.5358955959
 20
108.3839023511
 10
66.5009688737
 20
108.3616638314
 10
66.4638967542
 20
108.3432413676
 10
66.4254844937
 20
108.3288258322
 10
66.3855524548
 20
108.3184021238
 10
66.3442802749
 20
108.3119854059
 10
66.3030121224
 20
108.3098119369
 10
66.2617478443
 20
108.3120408644
 10
66.2204875937
 20
108.3185130406
 10
66.1805759981
 20
108.3289872655
 10
66.1421910567
 20
108.3434519664
 10
66.1051547703
 20
108.3619186536
 10
66.0702777684
 20
108.3841807402
 10
66.0373710431
 20
108.4104697282
 10
66.0066236023
 20
108.4405539974
 10
65.9794130985
 20
108.4735322837
 10
65.9559059526
 20
108.5097760893
 10
65.9359357437
 20
108.5489137794
 10
65.9203808618
 20
108.5889294425
 10
65.9095341036
 20
108.6291511147
 10
65.9031026725
 20
108.6702507251
 10
65.9010865684
 20
108.7122282499
  0
LWPOLYLINE
  5
24C
100
AcDbEntity
  8
0
100
AcDbPolyline
 62
7
  6
CONTINUOUS
 90
10
 70
0
 10
70.4277641963
 20
82.5290332274
 10
70.4623054182
 20
82.5297134812
 10
70.4956598362
 20
82.531980069
 10
70.5278274504
 20
82.5358329907
 10
70.5589040352
 20
82.5412576729
 10
70.5887938161
 20
82.5482686892
 10
70.6172094699
 20
82.5569097599
 10
70.6440552223
 20
82.5671954588
 10
70.6694268476
 20
82.5791112121
 10
70.6933243458
 20
82.59265702
  0
LINE
  5
24D
100
AcDbEntity
  8
RACCORDO
100
AcDbLine
 62
7
  6
CONTINUOUS
 10
67.2032827716
 20
82.1122282499
 11
75.4032827716
 21
82.1122282499
  0
LINE
  5
24E
100
AcDbEntity
  8
0
100
AcDbLine
 62
7
  6
CONTINUOUS
 10
67.9104750942
 20
82.5622282499
 11
68.140073974
 21
82.5622282499
  0
LINE
  5
24F
100
AcDbEntity
  8
0
100
AcDbLine
 62
7
  6
CONTINUOUS
 10
69.2936009358
 20
82.5622282499
 11
69.509368677
 21
82.5622282499
  0
LINE
  5
250
100
AcDbEntity
  8
0
100
AcDbLine
 62
7
  6
CONTINUOUS
 10
71.1691196154
 20
82.5622282499
 11
72.1566713046
 21
82.5622282499
  0
LINE
  5
251
100
AcDbEntity
  8
0
100
AcDbLine
 62
7
  6
CONTINUOUS
 10
72.9118583392
 20
82.5622282499
 11
73.1414568614
 21
82.5622282499
  0
LINE
  5
252
100
AcDbEntity
  8
0
100
AcDbLine
 62
7
  6
CONTINUOUS
 10
73.7500326823
 20
82.5622282499
 11
73.985163946
 21
82.5622282499
  0
LINE
  5
253
100
AcDbEntity
  8
0
100
AcDbLine
 62
7
  6
CONTINUOUS
 10
74.7873766612
 20
82.5622282499
 11
75.0169756602
 21
82.5622282499
  0
LINE
  5
254
100
AcDbEntity
  8
0
100
AcDbLine
 62
7
  6
CONTINUOUS
 10
72.1566713046
 20
82.7365021134
 11
71.4097836207
 21
82.7365021134
  0
LINE
  5
255
100
AcDbEntity
  8
0
100
AcDbLine
 62
7
  6
CONTINUOUS
 10
73.985163946
 20
82.8222559268
 11
73.7500326823
 21
82.8222559268
  0
LINE
  5
256
100
AcDbEntity
  8
0
100
AcDbLine
 62
7
  6
CONTINUOUS
 10
68.6490643214
 20
83.049088555
 11
69.2936009358
 21
83.049088555
  0
LINE
  5
257
100
AcDbEntity
  8
0
100
AcDbLine
 62
7
  6
CONTINUOUS
 10
69.509368677
 20
83.049088555
 11
69.7223699282
 21
83.049088555
  0
LINE
  5
258
100
AcDbEntity
  8
0
100
AcDbLine
 62
7
  6
CONTINUOUS
 10
69.7223699282
 20
83.2233624333
 11
69.509368677
 21
83.2233624333
  0
LINE
  5
259
100
AcDbEntity
  8
0
100
AcDbLine
 62
7
  6
CONTINUOUS
 10
69.2963671874
 20
83.2233624333
 11
68.828870673
 21
83.2233624333
  0
LWPOLYLINE
  5
25A
100
AcDbEntity
  8
0
100
AcDbPolyline
 62
7
  6
CONTINUOUS
 90
10
 70
0
 10
70.4277641963
 20
82.7033070946
 10
70.4087719459
 20
82.7036847429
 10
70.3905063071
 20
82.7051483686
 10
70.3729672798
 20
82.7076979716
 10
70.3560633086
 20
82.7113244041
 10
70.339885949
 20
82.7160368139
 10
70.3247098669
 20
82.7218626446
 10
70.3106266176
 20
82.7288110443
 10
70.2975446458
 20
82.7368728649
 10
70.2854639514
 20
82.7460481066
  0
LWPOLYLINE
  5
25B
100
AcDbEntity
  8
0
100
AcDbPolyline
 62
7
  6
CONTINUOUS
 90
10
 70
0
 10
70.1600420537
 20
82.5909087494
 10
70.1842371556
 20
82.5776787233
 10
70.2098830534
 20
82.5660542537
 10
70.2369797471
 20
82.5560353405
 10
70.2656110303
 20
82.547644403
 10
70.2956931094
 20
82.540859022
 10
70.3269746036
 20
82.5356119397
 10
70.3593717193
 20
82.5318807369
 10
70.3929682502
 20
82.5296878328
 10
70.4277641963
 20
82.5290332274
  0
LINE
  5
25C
100
AcDbEntity
  8
RACCORDO
100
AcDbLine
 62
7
  6
CONTINUOUS
 10
65.0532827716
 20
86.9122282499
 11
65.0532827716
 21
85.1122282499
  0
LINE
  5
25D
100
AcDbEntity
  8
0
100
AcDbLine
 62
7
  6
CONTINUOUS
 10
65.2263917716
 20
94.4622552499
 11
65.2263917716
 21
92.3622362499
  0
LINE
  5
25E
100
AcDbEntity
  8
0
100
AcDbLine
 62
7
  6
CONTINUOUS
 10
65.5180132765
 20
86.8122282499
 11
65.5180132765
 21
85.3122282499
  0
LINE
  5
25F
100
AcDbEntity
  8
0
100
AcDbLine
 62
7
  6
CONTINUOUS
 10
65.6772217716
 20
94.1132174345
 11
65.6772217716
 21
93.5198537177
  0
LINE
  5
260
100
AcDbEntity
  8
0
100
AcDbLine
 62
7
  6
CONTINUOUS
 10
65.6772217716
 20
93.1708162499
 11
65.6772217716
 21
92.3622362499
  0
LINE
  5
261
100
AcDbEntity
  8
0
100
AcDbLine
 62
7
  6
CONTINUOUS
 10
65.6777643155
 20
86.6815228635
 11
65.6777643155
 21
85.3122282499
  0
LINE
  5
262
100
AcDbEntity
  8
RACCORDO
100
AcDbLine
 62
250
  6
CONTINUOUS
 10
65.7032827716
 20
80.8122282499
 11
65.7032827716
 21
81.1122282499
  0
LINE
  5
263
100
AcDbEntity
  8
0
100
AcDbLine
 62
7
  6
CONTINUOUS
 10
65.9150868897
 20
108.7122282499
 11
65.9150868897
 21
109.2721541575
  0
LINE
  5
264
100
AcDbEntity
  8
0
100
AcDbLine
 62
7
  6
CONTINUOUS
 10
65.9264242023
 20
109.4547345991
 11
65.9264242023
 21
110.3725546702
  0
LINE
  5
265
100
AcDbEntity
  8
RACCORDO
100
AcDbLine
 62
7
  6
CONTINUOUS
 10
66.1032827716
 20
97.7122282499
 11
66.1032827716
 21
96.1122282499
  0
LINE
  5
266
100
AcDbEntity
  8
0
100
AcDbLine
 62
250
  6
CONTINUOUS
 10
66.1264165869
 20
109.2566809854
 11
66.1264165869
 21
110.3672282499
  0
LINE
  5
267
100
AcDbEntity
  8
RACCORDO
100
AcDbLine
 62
250
  6
CONTINUOUS
 10
66.2150754666
 20
108.7122282499
 11
66.2150754666
 21
109.1122282499
  0
LINE
  5
268
100
AcDbEntity
  8
RACCORDO
100
AcDbLine
 62
250
  6
CONTINUOUS
 10
66.3914900765
 20
109.1122282499
 11
66.3914900765
 21
108.7122282499
  0
LINE
  5
269
100
AcDbEntity
  8
0
100
AcDbLine
 62
250
  6
CONTINUOUS
 10
66.4801489563
 20
110.3672282499
 11
66.4801489563
 21
109.2566809854
  0
LINE
  5
26A
100
AcDbEntity
  8
RACCORDO
100
AcDbLine
 62
7
  6
CONTINUOUS
 10
66.7054789747
 20
108.7122282499
 11
66.7034792182
 21
108.6702715084
  0
LWPOLYLINE
  5
26B
100
AcDbEntity
  8
0
100
AcDbPolyline
 62
7
  6
CONTINUOUS
 90
9
 70
0
 10
63.981734527
 20
69.7787493788
 10
64.0055691338
 20
70.2030297806
 10
64.0363152965
 20
70.8865969263
 10
64.0595150595
 20
71.587038136
 10
64.0760218579
 20
72.3045991924
 10
64.0883959978
 20
73.0400102641
 10
64.0974909143
 20
73.7935167757
 10
64.1024531722
 20
74.5648790193
 10
64.1032827716
 20
76.8122282499
  0
LWPOLYLINE
  5
26C
100
AcDbEntity
  8
RACCORDO
100
AcDbPolyline
 62
250
  6
CONTINUOUS
 90
28
 70
0
 10
66.3914900765
 20
108.7122282499
 10
66.3908510351
 20
108.7018498278
 10
66.3890985482
 20
108.6918513874
 10
66.386232616
 20
108.6822329286
 10
66.3821858795
 20
108.6728688666
 10
66.3770256975
 20
108.6638847862
 10
66.3709541471
 20
108.6556574422
 10
66.3639328964
 20
108.6482222609
 10
66.3560002772
 20
108.6415438159
 10
66.3474733613
 20
108.6358925829
 10
66.3383287703
 20
108.6313116874
 10
66.3285898826
 20
108.6277580039
 10
66.3186439048
 20
108.6253726319
 10
66.3084819919
 20
108.6242025703
 10
66.2981129889
 20
108.6242008202
 10
66.2879506374
 20
108.6253674838
 10
66.2780037099
 20
108.6277496322
 10
66.2682634338
 20
108.6313001943
 10
66.2591172334
 20
108.6358780591
 10
66.2505886965
 20
108.641525969
 10
66.2426542353
 20
108.6482011816
 10
66.2356305108
 20
108.6556343587
 10
66.2295553541
 20
108.6638610446
 10
66.2243909342
 20
108.672845695
 10
66.2203404187
 20
108.6822123379
 10
66.2174715302
 20
108.6918356494
 10
66.2157165462
 20
108.7018409534
 10
66.2150754666
 20
108.7122282499
  0
LINE
  5
26D
100
AcDbEntity
  8
0
100
AcDbLine
 62
7
  6
CONTINUOUS
 10
67.4326167716
 20
95.8611382499
 11
67.9236677716
 21
97.5817842499
  0
LINE
  5
26E
100
AcDbEntity
  8
0
100
AcDbLine
 62
7
  6
CONTINUOUS
 10
68.4451037716
 20
97.5817842499
 11
67.6415887716
 21
95.0820482499
  0
LWPOLYLINE
  5
26F
100
AcDbEntity
  8
0
100
AcDbPolyline
 62
7
  6
CONTINUOUS
 90
13
 70
0
 10
70.4305303286
 20
84.4211494202
 10
70.4179789351
 20
84.4209722608
 10
70.4054806514
 20
84.4202178435
 10
70.3930354773
 20
84.4188861686
 10
70.3806174367
 20
84.4170166008
 10
70.3682525057
 20
84.4145697756
 10
70.3560186135
 20
84.4114275994
 10
70.343898686
 20
84.4075820663
 10
70.3319097973
 20
84.4030411831
 10
70.3201810983
 20
84.3977108753
 10
70.3087556396
 20
84.3915597853
 10
70.2975903707
 20
84.3846192724
 10
70.2866852916
 20
84.3768893375
  0
LWPOLYLINE
  5
270
100
AcDbEntity
  8
0
100
AcDbPolyline
 62
7
  6
CONTINUOUS
 90
19
 70
0
 10
71.6781099032
 20
84.4239156717
 10
71.6666200071
 20
84.4237557871
 10
71.6553205667
 20
84.42325859
 10
71.6442115822
 20
84.4224240805
 10
71.6332960789
 20
84.4212591923
 10
71.6225710313
 20
84.4197569918
 10
71.6120273636
 20
84.4178966784
 10
71.6016709694
 20
84.4156892915
 10
71.5914959551
 20
84.4131237918
 10
71.5814755637
 20
84.4101462612
 10
71.5715784586
 20
84.4067559518
 10
71.5618359766
 20
84.4029536118
 10
71.5523153707
 20
84.3986875675
 10
71.5429989002
 20
84.3939477118
 10
71.533904306
 20
84.3887441527
 10
71.5251520635
 20
84.3830555384
 10
71.5167823313
 20
84.3768747521
 10
71.5087549509
 20
84.3702089119
 10
71.5010699223
 20
84.3630580181
  0
LINE
  5
271
100
AcDbEntity
  8
0
100
AcDbLine
 62
7
  6
CONTINUOUS
 10
71.1857171248
 20
84.0753679747
 11
71.4125497531
 21
84.0753679747
  0
LINE
  5
272
100
AcDbEntity
  8
0
100
AcDbLine
 62
7
  6
CONTINUOUS
 10
75.0169756602
 20
84.5622282499
 11
74.8122732829
 21
84.5622282499
  0
LINE
  5
273
100
AcDbEntity
  8
0
100
AcDbLine
 62
7
  6
CONTINUOUS
 10
73.1414568614
 20
84.5622282499
 11
72.936754484
 21
84.5622282499
  0
LINE
  5
274
100
AcDbEntity
  8
0
100
AcDbLine
 62
7
  6
CONTINUOUS
 10
69.509368677
 20
84.5622282499
 11
69.1995483826
 21
84.5622282499
  0
LINE
  5
275
100
AcDbEntity
  8
0
100
AcDbLine
 62
7
  6
CONTINUOUS
 10
68.140073974
 20
84.5622282499
 11
67.9353713583
 21
84.5622282499
  0
LINE
  5
276
100
AcDbEntity
  8
RACCORDO
100
AcDbLine
 62
7
  6
CONTINUOUS
 10
77.2532827716
 20
84.8122282499
 11
76.9032827716
 21
84.8122282499
  0
LINE
  5
277
100
AcDbEntity
  8
RACCORDO
100
AcDbLine
 62
7
  6
CONTINUOUS
 10
65.7032827716
 20
84.8122282499
 11
65.3532827716
 21
84.8122282499
  0
LWPOLYLINE
  5
278
100
AcDbEntity
  8
0
100
AcDbPolyline
 62
7
  6
CONTINUOUS
 90
16
 70
0
 10
70.4305303286
 20
84.5954232687
 10
70.4479871312
 20
84.5953001512
 10
70.4654363422
 20
84.5947561977
 10
70.4828779614
 20
84.5937914081
 10
70.5003109435
 20
84.5924445317
 10
70.517736334
 20
84.5906768195
 10
70.5351572686
 20
84.5883720246
 10
70.5525782812
 20
84.585548539
 10
70.5699948379
 20
84.5821879713
 10
70.5873964734
 20
84.5781188998
 10
70.6048268657
 20
84.5733494009
 10
70.6222423368
 20
84.5678713992
 10
70.6395013871
 20
84.5614892459
 10
70.6565568504
 20
84.5541377254
 10
70.673455893
 20
84.5458820556
 10
70.6901985149
 20
84.5367222376
  0
LWPOLYLINE
  5
279
100
AcDbEntity
  8
0
100
AcDbPolyline
 62
7
  6
CONTINUOUS
 90
25
 70
0
 10
71.6891749095
 20
84.5981896395
 10
71.714034524
 20
84.5978873196
 10
71.7383799309
 20
84.5968854326
 10
71.76221113
 20
84.5951839786
 10
71.7855035848
 20
84.592812432
 10
71.8082818318
 20
84.589741319
 10
71.8306194816
 20
84.5858822173
 10
71.852542527
 20
84.5812515648
 10
71.874024975
 20
84.5758329248
 10
71.8950624577
 20
84.5694885637
 10
71.9156776434
 20
84.5622338727
 10
71.9358478638
 20
84.5540534627
 10
71.9555007455
 20
84.5447634306
 10
71.9747262484
 20
84.5343000853
 10
71.9934344126
 20
84.522727122
 10
72.0112829853
 20
84.5100517175
 10
72.0282240448
 20
84.4962363864
 10
72.0443055127
 20
84.4813186195
 10
72.0593289008
 20
84.4654180588
 10
72.0732760967
 20
84.4484299882
 10
72.0861652128
 20
84.4304591299
 10
72.0978520991
 20
84.4119392818
 10
72.1082887054
 20
84.3930150439
 10
72.1175230818
 20
84.3735418198
 10
72.1255552283
 20
84.3535196114
  0
LWPOLYLINE
  5
27A
100
AcDbEntity
  8
0
100
AcDbPolyline
 62
7
  6
CONTINUOUS
 90
11
 70
0
 10
70.5494259086
 20
84.3911022274
 10
70.5382266224
 20
84.3973398755
 10
70.5267240535
 20
84.4027417707
 10
70.514967575
 20
84.4073413762
 10
70.5031053066
 20
84.4112390836
 10
70.4911672148
 20
84.4144289795
 10
70.479123333
 20
84.4169169764
 10
70.4670318815
 20
84.418821206
 10
70.454912267
 20
84.4201810452
 10
70.4427450827
 20
84.4209571166
 10
70.4305303286
 20
84.4211494202
  0
LWPOLYLINE
  5
27B
100
AcDbEntity
  8
0
100
AcDbPolyline
 62
7
  6
CONTINUOUS
 90
7
 70
0
 10
70.6901985149
 20
84.5367222376
 10
70.7216255988
 20
84.5160967276
 10
70.7502799101
 20
84.4928814661
 10
70.7761614486
 20
84.4670764641
 10
70.7992702143
 20
84.4386817337
 10
70.8196062074
 20
84.4076972885
 10
70.8371694277
 20
84.3741231436
  0
LWPOLYLINE
  5
27C
100
AcDbEntity
  8
0
100
AcDbPolyline
 62
7
  6
CONTINUOUS
 90
3
 70
0
 10
70.5710627522
 20
84.3762200683
 10
70.5603712852
 20
84.3840622913
 10
70.5494259086
 20
84.3911022274
  0
LWPOLYLINE
  5
27D
100
AcDbEntity
  8
0
100
AcDbPolyline
 62
7
  6
CONTINUOUS
 90
10
 70
0
 10
70.2854639514
 20
82.7460481066
 10
70.2740489193
 20
82.7564586958
 10
70.2632398575
 20
82.7678708867
 10
70.2530367658
 20
82.7802846791
 10
70.2434146813
 20
82.7937521839
 10
70.2343985671
 20
82.8082212902
 10
70.226063312
 20
82.8235356658
 10
70.2184338791
 20
82.8396432
 10
70.2114853055
 20
82.8565960035
 10
70.205217591
 20
82.8743940764
  0
LINE
  5
27E
100
AcDbEntity
  8
0
100
AcDbLine
 62
7
  6
CONTINUOUS
 10
65.6777643155
 20
86.6815228635
 11
66.063656431
 21
85.3122282499
  0
LINE
  5
27F
100
AcDbEntity
  8
0
100
AcDbLine
 62
7
  6
CONTINUOUS
 10
65.8084697242
 20
86.8122282499
 11
66.169465598
 21
85.490651487
  0
LWPOLYLINE
  5
280
100
AcDbEntity
  8
0
100
AcDbPolyline
 62
250
  6
CONTINUOUS
 90
13
 70
0
 10
65.9264242023
 20
109.4547345991
 10
65.9281798206
 20
109.42878704
 10
65.9333518341
 20
109.4032902021
 10
65.9418497354
 20
109.3786832245
 10
65.9535254319
 20
109.3553902248
 10
65.9681767556
 20
109.3338111023
 10
65.9855517682
 20
109.3143151748
 10
66.0053880657
 20
109.2972096977
 10
66.0273140242
 20
109.2828263895
 10
66.0508228219
 20
109.2714649943
 10
66.075444359
 20
109.2632829811
 10
66.1007865478
 20
109.258344931
 10
66.1264165869
 20
109.2566809854
  0
LINE
  5
281
100
AcDbEntity
  8
0
100
AcDbLine
 62
250
  6
CONTINUOUS
 10
66.4892616729
 20
109.1099262928
 11
66.4801489563
 21
109.2566809854
  0
LINE
  5
282
100
AcDbEntity
  8
0
100
AcDbLine
 62
250
  6
CONTINUOUS
 10
66.6914786535
 20
109.2721541575
 11
66.6801413409
 21
109.4547345991
  0
LINE
  5
283
100
AcDbEntity
  8
0
100
AcDbLine
 62
7
  6
CONTINUOUS
 10
66.6466439928
 20
86.6815228635
 11
66.6466439928
 21
85.3122282499
  0
LINE
  5
284
100
AcDbEntity
  8
0
100
AcDbLine
 62
7
  6
CONTINUOUS
 10
66.6801413409
 20
110.3725546702
 11
66.6801413409
 21
109.4547345991
  0
LINE
  5
285
100
AcDbEntity
  8
0
100
AcDbLine
 62
7
  6
CONTINUOUS
 10
66.6914786535
 20
109.2721541575
 11
66.6914786535
 21
108.7122282499
  0
LINE
  5
286
100
AcDbEntity
  8
RACCORDO
100
AcDbLine
 62
7
  6
CONTINUOUS
 10
66.7032827716
 20
76.8122282499
 11
66.7032827716
 21
79.8122282499
  0
LINE
  5
287
100
AcDbEntity
  8
0
100
AcDbLine
 62
7
  6
CONTINUOUS
 10
66.8188431527
 20
86.8122282499
 11
66.8188431527
 21
85.3122282499
  0
LINE
  5
288
100
AcDbEntity
  8
0
100
AcDbLine
 62
7
  6
CONTINUOUS
 10
66.8407987716
 20
94.4622552499
 11
66.8407987716
 21
92.3622362499
  0
LINE
  5
289
100
AcDbEntity
  8
RACCORDO
100
AcDbLine
 62
7
  6
CONTINUOUS
 10
66.9032827716
 20
83.6122282499
 11
66.9032827716
 21
82.4122282499
  0
LINE
  5
28A
100
AcDbEntity
  8
RACCORDO
100
AcDbLine
 62
250
  6
CONTINUOUS
 10
67.0032827716
 20
78.4397030656
 11
67.0032827716
 21
79.8122282499
  0
LINE
  5
28B
100
AcDbEntity
  8
0
100
AcDbLine
 62
7
  6
CONTINUOUS
 10
67.2916437716
 20
94.4622552499
 11
67.2916437716
 21
92.7112592499
  0
LINE
  5
28C
100
AcDbEntity
  8
0
100
AcDbLine
 62
7
  6
CONTINUOUS
 10
67.589589883
 20
84.2607068295
 11
67.589589883
 21
84.0255754465
  0
LINE
  5
28D
100
AcDbEntity
  8
0
100
AcDbLine
 62
7
  6
CONTINUOUS
 10
67.9104750942
 20
84.282836842
 11
67.9104750942
 21
82.5622282499
  0
LINE
  5
28E
100
AcDbEntity
  8
0
100
AcDbLine
 62
7
  6
CONTINUOUS
 10
68.140073974
 20
82.5622282499
 11
68.140073974
 21
84.5622282499
  0
LINE
  5
28F
100
AcDbEntity
  8
0
100
AcDbLine
 62
7
  6
CONTINUOUS
 10
68.1828087716
 20
92.7112592499
 11
68.1828087716
 21
92.3622362499
  0
LWPOLYLINE
  5
290
100
AcDbEntity
  8
0
100
AcDbPolyline
 62
7
  6
CONTINUOUS
 90
25
 70
0
 10
66.733060535
 20
93.8165355761
 10
66.7323234393
 20
93.7725072906
 10
66.7285907805
 20
93.728528673
 10
66.7218625586
 20
93.6845997244
 10
66.7122365712
 20
93.6402545179
 10
66.6996150207
 20
93.5959589812
 10
66.6837045142
 20
93.5531109053
 10
66.6642352671
 20
93.5118764817
 10
66.6414770641
 20
93.4720895366
 10
66.615945866
 20
93.4346493256
 10
66.5876049035
 20
93.3997311148
 10
66.556490946
 20
93.3671596605
 10
66.5232302626
 20
93.3373084581
 10
66.4878175993
 20
93.3103814628
 10
66.4502582101
 20
93.2861747388
 10
66.4111941259
 20
93.2644499449
 10
66.3706985167
 20
93.2452095844
 10
66.3286982125
 20
93.228451166
 10
66.2856157339
 20
93.2139288546
 10
66.2415673845
 20
93.20165128
 10
66.1964368607
 20
93.1916098194
 10
66.1502977723
 20
93.1835327564
 10
66.103174656
 20
93.1773295198
 10
66.0550429751
 20
93.173090684
 10
66.0059027296
 20
93.1708162499
  0
LWPOLYLINE
  5
291
100
AcDbEntity
  8
RACCORDO
100
AcDbPolyline
 62
250
  6
CONTINUOUS
 90
49
 70
0
 10
66.9032827716
 20
76.8209472305
 10
66.9067387897
 20
76.9736190075
 10
66.9141728347
 20
77.1210066601
 10
66.9255849066
 20
77.2631098155
 10
66.9413541501
 20
77.3997144334
 10
66.9611014204
 20
77.5310338585
 10
66.983689284
 20
77.6577088583
 10
67.008818096
 20
77.7792419535
 10
67.0367875013
 20
77.8961300888
 10
67.0673590003
 20
78.0105058247
 10
67.1002725325
 20
78.1223874219
 10
67.1357881585
 20
78.2317563603
 10
67.1744475603
 20
78.3406902284
 10
67.21637452
 20
78.4499119519
 10
67.2614452555
 20
78.5586985591
 10
67.309830103
 20
78.6669588793
 10
67.3617631121
 20
78.7750744126
 10
67.4170102332
 20
78.8826635975
 10
67.475039653
 20
78.9884906185
 10
67.5359499455
 20
79.0924818942
 10
67.5996425367
 20
79.1947108424
 10
67.6652898922
 20
79.294162063
 10
67.7325676831
 20
79.3903212631
 10
67.8018002382
 20
79.4837025091
 10
67.8731330101
 20
79.5748329261
 10
67.9459928256
 20
79.6632930065
 10
68.0209528579
 20
79.7495020929
 10
68.0998780795
 20
79.8352456606
 10
68.182651587
 20
79.9208290676
 10
68.2693902838
 20
80.0059469206
 10
68.3623098521
 20
80.0914686458
 10
68.4618039834
 20
80.1780258187
 10
68.5674789863
 20
80.264986884
 10
68.6803694686
 20
80.3513265671
 10
68.8004564921
 20
80.4371879758
 10
68.9277589951
 20
80.5224279562
 10
69.0633684002
 20
80.6055917737
 10
69.2070970362
 20
80.6868149533
 10
69.3591325744
 20
80.7659618534
 10
69.5211294516
 20
80.8411709096
 10
69.6943653711
 20
80.9129880869
 10
69.8775626296
 20
80.9808672437
 10
70.068542554
 20
81.0413085492
 10
70.269182615
 20
81.0940040853
 10
70.477605342
 20
81.1392615127
 10
70.6859996493
 20
81.174504291
 10
70.891761842
 20
81.198873501
 10
71.0974956151
 20
81.2132278816
 10
71.3032009686
 20
81.2175673911
  0
LINE
  5
292
100
AcDbEntity
  8
0
100
AcDbLine
 62
7
  6
CONTINUOUS
 10
66.5283867385
 20
86.8122282499
 11
66.169465598
 21
85.490651487
  0
LINE
  5
293
100
AcDbEntity
  8
0
100
AcDbLine
 62
7
  6
CONTINUOUS
 10
66.6466439928
 20
86.6815228635
 11
66.2607518996
 21
85.3122282499
  0
LINE
  5
294
100
AcDbEntity
  8
0
100
AcDbLine
 62
7
  6
CONTINUOUS
 10
69.2610157716
 20
94.0608832499
 11
68.9496937716
 21
93.1562822499
  0
LINE
  5
295
100
AcDbEntity
  8
0
100
AcDbLine
 62
7
  6
CONTINUOUS
 10
68.8333527716
 20
92.8072172499
 11
68.6762857716
 21
92.3622362499
  0
LINE
  5
296
100
AcDbEntity
  8
0
100
AcDbLine
 62
7
  6
CONTINUOUS
 10
69.0049537716
 20
94.4622552499
 11
68.2457967716
 21
92.3622362499
  0
LWPOLYLINE
  5
297
100
AcDbEntity
  8
0
100
AcDbPolyline
 62
7
  6
CONTINUOUS
 90
7
 70
0
 10
68.7649013068
 20
85.4657552229
 10
68.7801770809
 20
85.4698811768
 10
68.7949442479
 20
85.4749436059
 10
68.8092028079
 20
85.4809425109
 10
68.8229527608
 20
85.4878778927
 10
68.8361941066
 20
85.4957497522
 10
68.8489268455
 20
85.5045580905
  0
LWPOLYLINE
  5
298
100
AcDbEntity
  8
0
100
AcDbPolyline
 62
7
  6
CONTINUOUS
 90
7
 70
0
 10
68.669465449
 20
85.4533070909
 10
68.6854150968
 20
85.4537158273
 10
68.701347276
 20
85.4547909443
 10
68.7172619866
 20
85.4565324422
 10
68.7331592286
 20
85.4589403211
 10
68.749039002
 20
85.4620145813
 10
68.7649013068
 20
85.4657552229
  0
LINE
  5
299
100
AcDbEntity
  8
0
100
AcDbLine
 62
7
  6
CONTINUOUS
 10
76.6777644421
 20
85.3122282499
 11
76.5014159943
 21
85.3122282499
  0
LINE
  5
29A
100
AcDbEntity
  8
0
100
AcDbLine
 62
7
  6
CONTINUOUS
 10
76.1777642037
 20
85.3122282499
 11
75.5304613377
 21
85.3122282499
  0
LINE
  5
29B
100
AcDbEntity
  8
0
100
AcDbLine
 62
7
  6
CONTINUOUS
 10
75.3416645791
 20
85.3122282499
 11
75.1590919759
 21
85.3122282499
  0
LINE
  5
29C
100
AcDbEntity
  8
0
100
AcDbLine
 62
7
  6
CONTINUOUS
 10
74.4267273213
 20
85.3122282499
 11
74.2503781583
 21
85.3122282499
  0
LINE
  5
29D
100
AcDbEntity
  8
0
100
AcDbLine
 62
7
  6
CONTINUOUS
 10
73.9910421635
 20
85.3122282499
 11
73.8146937157
 21
85.3122282499
  0
LINE
  5
29E
100
AcDbEntity
  8
0
100
AcDbLine
 62
7
  6
CONTINUOUS
 10
73.287722614
 20
85.3122282499
 11
73.1113741662
 21
85.3122282499
  0
LINE
  5
29F
100
AcDbEntity
  8
0
100
AcDbLine
 62
7
  6
CONTINUOUS
 10
72.3126187588
 20
85.3122282499
 11
72.0387602116
 21
85.3122282499
  0
LINE
  5
2A0
100
AcDbEntity
  8
0
100
AcDbLine
 62
7
  6
CONTINUOUS
 10
71.5346107747
 20
85.3122282499
 11
71.3707106377
 21
85.3122282499
  0
LINE
  5
2A1
100
AcDbEntity
  8
0
100
AcDbLine
 62
7
  6
CONTINUOUS
 10
71.0387600924
 20
85.3122282499
 11
70.8624116446
 21
85.3122282499
  0
LINE
  5
2A2
100
AcDbEntity
  8
0
100
AcDbLine
 62
7
  6
CONTINUOUS
 10
70.1528679396
 20
85.3122282499
 11
69.4474737908
 21
85.3122282499
  0
LINE
  5
2A3
100
AcDbEntity
  8
0
100
AcDbLine
 62
7
  6
CONTINUOUS
 10
68.6701559077
 20
85.3122917106
 11
68.2877227332
 21
85.3122282499
  0
LINE
  5
2A4
100
AcDbEntity
  8
0
100
AcDbLine
 62
7
  6
CONTINUOUS
 10
68.0989261534
 20
85.3122282499
 11
67.9163535501
 21
85.3122282499
  0
LINE
  5
2A5
100
AcDbEntity
  8
0
100
AcDbLine
 62
7
  6
CONTINUOUS
 10
67.1839883591
 20
85.3122282499
 11
67.0076399113
 21
85.3122282499
  0
LINE
  5
2A6
100
AcDbEntity
  8
0
100
AcDbLine
 62
7
  6
CONTINUOUS
 10
66.8188431527
 20
85.3122282499
 11
66.6466439928
 21
85.3122282499
  0
LINE
  5
2A7
100
AcDbEntity
  8
0
100
AcDbLine
 62
7
  6
CONTINUOUS
 10
66.2607518996
 20
85.3122282499
 11
66.063656431
 21
85.3122282499
  0
LINE
  5
2A8
100
AcDbEntity
  8
0
100
AcDbLine
 62
7
  6
CONTINUOUS
 10
65.6777643155
 20
85.3122282499
 11
65.5180132765
 21
85.3122282499
  0
LINE
  5
2A9
100
AcDbEntity
  8
0
100
AcDbLine
 62
7
  6
CONTINUOUS
 10
76.1777642037
 20
85.4533070909
 11
75.7068097855
 21
85.4533070909
  0
LINE
  5
2AA
100
AcDbEntity
  8
0
100
AcDbLine
 62
7
  6
CONTINUOUS
 10
70.1528679396
 20
85.4533070909
 11
69.6238222386
 21
85.4533070909
  0
LINE
  5
2AB
100
AcDbEntity
  8
0
100
AcDbLine
 62
7
  6
CONTINUOUS
 10
68.669465449
 20
85.4533070909
 11
68.4640715386
 21
85.4533070909
  0
LINE
  5
2AC
100
AcDbEntity
  8
0
100
AcDbLine
 62
7
  6
CONTINUOUS
 10
75.0532827641
 20
85.6918963218
 11
74.5325358178
 21
85.6918963218
  0
LINE
  5
2AD
100
AcDbEntity
  8
0
100
AcDbLine
 62
7
  6
CONTINUOUS
 10
67.8105443384
 20
85.6918963218
 11
67.2897975709
 21
85.6918963218
  0
LINE
  5
2AE
100
AcDbEntity
  8
0
100
AcDbLine
 62
7
  6
CONTINUOUS
 10
75.0117893483
 20
85.8329751516
 11
74.5761049058
 21
85.8329751516
  0
LINE
  5
2AF
100
AcDbEntity
  8
0
100
AcDbLine
 62
7
  6
CONTINUOUS
 10
67.7690505649
 20
85.8329751516
 11
67.3333659436
 21
85.8329751516
  0
LINE
  5
2B0
100
AcDbEntity
  8
0
100
AcDbLine
 62
7
  6
CONTINUOUS
 10
70.1113741662
 20
86.0155477548
 11
69.6238222386
 21
86.0155477548
  0
LINE
  5
2B1
100
AcDbEntity
  8
0
100
AcDbLine
 62
7
  6
CONTINUOUS
 10
70.1113741662
 20
86.1566266293
 11
69.6238222386
 21
86.1566266293
  0
LINE
  5
2B2
100
AcDbEntity
  8
0
100
AcDbLine
 62
7
  6
CONTINUOUS
 10
74.337515619
 20
86.6711494202
 11
73.9910421635
 21
86.6711494202
  0
LINE
  5
2B3
100
AcDbEntity
  8
0
100
AcDbLine
 62
7
  6
CONTINUOUS
 10
73.8146937157
 20
86.6711494202
 11
73.4682209756
 21
86.6711494202
  0
LINE
  5
2B4
100
AcDbEntity
  8
0
100
AcDbLine
 62
7
  6
CONTINUOUS
 10
70.1383453871
 20
86.6711494202
 11
69.6238222386
 21
86.6711494202
  0
LINE
  5
2B5
100
AcDbEntity
  8
0
100
AcDbLine
 62
7
  6
CONTINUOUS
 10
68.6466441418
 20
86.6711494202
 11
68.4640715386
 21
86.6711494202
  0
LWPOLYLINE
  5
2B6
100
AcDbEntity
  8
0
100
AcDbPolyline
 62
7
  6
CONTINUOUS
 90
7
 70
0
 10
68.7856480282
 20
86.6524772694
 10
68.7632220142
 20
86.6582569531
 10
68.74049948
 20
86.6629695741
 10
68.7174804257
 20
86.6666151316
 10
68.6941648512
 20
86.6691936253
 10
68.6705527566
 20
86.6707050549
 10
68.6466441418
 20
86.6711494202
  0
LWPOLYLINE
  5
2B7
100
AcDbEntity
  8
0
100
AcDbPolyline
 62
7
  6
CONTINUOUS
 90
7
 70
0
 10
68.8538452928
 20
86.7884465045
 10
68.8799525108
 20
86.7805957238
 10
68.9048435862
 20
86.7715838458
 10
68.9285185192
 20
86.7614108713
 10
68.9509773096
 20
86.7500768018
 10
68.9722199576
 20
86.7375816384
 10
68.9922464631
 20
86.7239253829
  0
LWPOLYLINE
  5
2B8
100
AcDbEntity
  8
0
100
AcDbPolyline
 62
7
  6
CONTINUOUS
 90
7
 70
0
 10
68.9922464631
 20
86.7239253829
 10
69.009614865
 20
86.7099202556
 10
69.0258225347
 20
86.6951823296
 10
69.0408694721
 20
86.6797116061
 10
69.0547556771
 20
86.6635080864
 10
69.0674811499
 20
86.6465717718
 10
69.0790458903
 20
86.6289026635
  0
LWPOLYLINE
  5
2B9
100
AcDbEntity
  8
0
100
AcDbPolyline
 62
7
  6
CONTINUOUS
 90
13
 70
0
 10
71.8605474083
 20
84.3535196114
 10
71.8478644024
 20
84.3659867
 10
71.8345518999
 20
84.3771654617
 10
71.8206099009
 20
84.3870558941
 10
71.8059153012
 20
84.3956146665
 10
71.7905912051
 20
84.4028851051
 10
71.7750069248
 20
84.408997193
 10
71.7592361611
 20
84.4139086496
 10
71.7432052133
 20
84.4176617532
 10
71.7270622925
 20
84.4205133253
 10
71.7108568024
 20
84.422548973
 10
71.6945393393
 20
84.4236830886
 10
71.6781099032
 20
84.4239156717
  0
LWPOLYLINE
  5
2BA
100
AcDbEntity
  8
0
100
AcDbPolyline
 62
7
  6
CONTINUOUS
 90
7
 70
0
 10
70.5945577367
 20
84.3535196114
 10
70.590925203
 20
84.3575966167
 10
70.5871793505
 20
84.3615561837
 10
70.5833201792
 20
84.3653983125
 10
70.579347689
 20
84.3691230029
 10
70.57526188
 20
84.3727302549
 10
70.5710627522
 20
84.3762200683
  0
LWPOLYLINE
  5
2BB
100
AcDbEntity
  8
0
100
AcDbPolyline
 62
7
  6
CONTINUOUS
 90
10
 70
0
 10
71.8605474212
 20
84.3535196114
 10
71.8737118656
 20
84.3377046682
 10
71.8853756538
 20
84.3206125807
 10
71.895538786
 20
84.302243349
 10
71.9042271003
 20
84.2825434045
 10
71.9114147585
 20
84.2615663158
 10
71.9170242463
 20
84.2394727881
 10
71.9210297257
 20
84.2163163898
 10
71.9234570346
 20
84.1920435525
 10
71.9243061732
 20
84.1666542763
  0
LWPOLYLINE
  5
2BC
100
AcDbEntity
  8
0
100
AcDbPolyline
 62
7
  6
CONTINUOUS
 90
7
 70
0
 10
68.8920009586
 20
86.5787426051
 10
68.8777013061
 20
86.5959630114
 10
68.8620313192
 20
86.6112109034
 10
68.844990998
 20
86.6244862778
 10
68.8265803424
 20
86.6357891318
 10
68.8067993525
 20
86.645119463
 10
68.7856480282
 20
86.6524772694
  0
LWPOLYLINE
  5
2BD
100
AcDbEntity
  8
0
100
AcDbPolyline
 62
7
  6
CONTINUOUS
 90
3
 70
0
 10
70.5945577367
 20
84.3535196114
 10
70.6022100795
 20
84.3441784767
 10
70.609472081
 20
84.3342705014
  0
LWPOLYLINE
  5
2BE
100
AcDbEntity
  8
0
100
AcDbPolyline
 62
7
  6
CONTINUOUS
 90
8
 70
0
 10
70.609472081
 20
84.3342705014
 10
70.616343741
 20
84.3237956856
 10
70.6228366229
 20
84.3127318558
 10
70.6289391635
 20
84.3011011854
 10
70.6346166726
 20
84.2889701949
 10
70.639857587
 20
84.2763610578
 10
70.6446734699
 20
84.2632516006
 10
70.6490643214
 20
84.2496418232
  0
LWPOLYLINE
  5
2BF
100
AcDbEntity
  8
0
100
AcDbPolyline
 62
7
  6
CONTINUOUS
 90
7
 70
0
 10
69.0790458903
 20
86.6289026635
 10
69.0896883526
 20
86.6095777139
 10
69.0994738603
 20
86.5893192448
 10
69.1084024133
 20
86.5681272583
 10
69.1164740118
 20
86.5460017568
 10
69.1236886557
 20
86.5229427426
 10
69.130046345
 20
86.4989502182
  0
LWPOLYLINE
  5
2C0
100
AcDbEntity
  8
0
100
AcDbPolyline
 62
7
  6
CONTINUOUS
 90
10
 70
0
 10
70.012318733
 20
82.7667113072
 10
70.024474982
 20
82.7408452902
 10
70.0376823714
 20
82.716599285
 10
70.0519409011
 20
82.6939732917
 10
70.0672329404
 20
82.6730165262
 10
70.08357612
 20
82.6536797725
 10
70.1010233319
 20
82.6358153828
 10
70.1195922069
 20
82.619374141
 10
70.1392651141
 20
82.6044052632
 10
70.1600420537
 20
82.5909087494
  0
LINE
  5
2C1
100
AcDbEntity
  8
0
100
AcDbLine
 62
7
  6
CONTINUOUS
 10
67.6653161313
 20
86.8122282499
 11
68.0989261534
 21
85.3122282499
  0
LINE
  5
2C2
100
AcDbEntity
  8
0
100
AcDbLine
 62
7
  6
CONTINUOUS
 10
67.8105443384
 20
85.6918963218
 11
67.9163535501
 21
85.3122282499
  0
LINE
  5
2C3
100
AcDbEntity
  8
0
100
AcDbLine
 62
7
  6
CONTINUOUS
 10
67.5512083437
 20
86.6483278448
 11
67.7690505649
 21
85.8329751516
  0
LWPOLYLINE
  5
2C4
100
AcDbEntity
  8
0
100
AcDbPolyline
 62
7
  6
CONTINUOUS
 90
10
 70
0
 10
69.9478303012
 20
83.0379061887
 10
69.9513652889
 20
83.0044782409
 10
69.9557995086
 20
82.9718491372
 10
69.9611329605
 20
82.9400188775
 10
69.9673544893
 20
82.9089541929
 10
69.9744752501
 20
82.8786883523
 10
69.9825287084
 20
82.8493211627
 10
69.9915260192
 20
82.8208858932
 10
70.0014560274
 20
82.7933492747
 10
70.012318733
 20
82.7667113072
  0
LWPOLYLINE
  5
2C5
100
AcDbEntity
  8
0
100
AcDbPolyline
 62
7
  6
CONTINUOUS
 90
9
 70
0
 10
70.1704093421
 20
83.0795109694
 10
70.1685675675
 20
83.1093610582
 10
70.1669690128
 20
83.1394251571
 10
70.1656136779
 20
83.169703266
 10
70.1645158309
 20
83.2001851487
 10
70.1636612038
 20
83.2308810415
 10
70.1630069922
 20
83.261821653
 10
70.162538928
 20
83.2930172194
 10
70.1622712793
 20
83.3244575046
  0
LWPOLYLINE
  5
2C6
100
AcDbEntity
  8
0
100
AcDbPolyline
 62
7
  6
CONTINUOUS
 90
7
 70
0
 10
69.1548790053
 20
86.3225977679
 10
69.156879732
 20
86.2846003721
 10
69.1584993631
 20
86.2460345599
 10
69.1597378988
 20
86.2069003346
 10
69.1605953389
 20
86.1671976996
 10
69.1610716836
 20
86.1269266583
 10
69.1611669328
 20
86.0860872144
  0
LWPOLYLINE
  5
2C7
100
AcDbEntity
  8
0
100
AcDbPolyline
 62
7
  6
CONTINUOUS
 90
9
 70
0
 10
69.9354000444
 20
83.3512089765
 10
69.9357301063
 20
83.3106903299
 10
69.9363616035
 20
83.2705478389
 10
69.9372445519
 20
83.2307698727
 10
69.9384289357
 20
83.1913680621
 10
69.9400647073
 20
83.1523772992
 10
69.9422018508
 20
83.1138092147
 10
69.9447903821
 20
83.0756521779
 10
69.9478303012
 20
83.0379061887
  0
LWPOLYLINE
  5
2C8
100
AcDbEntity
  8
0
100
AcDbPolyline
 62
7
  6
CONTINUOUS
 90
13
 70
0
 10
68.9765193726
 20
86.0674150163
 10
68.9764406134
 20
86.0927754243
 10
68.976154755
 20
86.1182665054
 10
68.9756617975
 20
86.1438882599
 10
68.9749693142
 20
86.1696780326
 10
68.9740697319
 20
86.1955984793
 10
68.97294033
 20
86.2215375656
 10
68.9715813215
 20
86.2474909103
 10
68.9699924935
 20
86.2734628944
 10
68.9681504875
 20
86.2993546261
 10
68.9660475173
 20
86.3251331412
 10
68.9636913691
 20
86.350831403
 10
68.9610820429
 20
86.376449411
  0
LINE
  5
2C9
100
AcDbEntity
  8
0
100
AcDbLine
 62
7
  6
CONTINUOUS
 10
68.2877227332
 20
86.8122282499
 11
68.2877227332
 21
85.3122282499
  0
LINE
  5
2CA
100
AcDbEntity
  8
0
100
AcDbLine
 62
7
  6
CONTINUOUS
 10
68.4640715386
 20
86.6711494202
 11
68.4640715386
 21
85.4533070909
  0
LINE
  5
2CB
100
AcDbEntity
  8
0
100
AcDbLine
 62
7
  6
CONTINUOUS
 10
68.6387427716
 20
95.0820482499
 11
68.6387427716
 21
97.5819342499
  0
LINE
  5
2CC
100
AcDbEntity
  8
0
100
AcDbLine
 62
7
  6
CONTINUOUS
 10
68.6490643214
 20
83.2648562068
 11
68.6490643214
 21
83.049088555
  0
LINE
  5
2CD
100
AcDbEntity
  8
0
100
AcDbLine
 62
7
  6
CONTINUOUS
 10
69.1605357716
 20
97.5819342499
 11
69.1605357716
 21
95.0820482499
  0
LINE
  5
2CE
100
AcDbEntity
  8
0
100
AcDbLine
 62
7
  6
CONTINUOUS
 10
69.2936009358
 20
83.049088555
 11
69.2936009358
 21
82.5622282499
  0
LINE
  5
2CF
100
AcDbEntity
  8
0
100
AcDbLine
 62
7
  6
CONTINUOUS
 10
69.2963671874
 20
84.3535196114
 11
69.2963671874
 21
83.2233624333
  0
LINE
  5
2D0
100
AcDbEntity
  8
0
100
AcDbLine
 62
7
  6
CONTINUOUS
 10
69.4474737908
 20
86.8122282499
 11
69.4474737908
 21
85.3122282499
  0
LINE
  5
2D1
100
AcDbEntity
  8
0
100
AcDbLine
 62
7
  6
CONTINUOUS
 10
69.509368677
 20
82.5622282499
 11
69.509368677
 21
83.049088555
  0
LINE
  5
2D2
100
AcDbEntity
  8
0
100
AcDbLine
 62
7
  6
CONTINUOUS
 10
69.509368677
 20
83.2233624333
 11
69.509368677
 21
84.5622282499
  0
LINE
  5
2D3
100
AcDbEntity
  8
0
100
AcDbLine
 62
7
  6
CONTINUOUS
 10
69.6238222386
 20
86.6711494202
 11
69.6238222386
 21
86.1566266293
  0
LINE
  5
2D4
100
AcDbEntity
  8
0
100
AcDbLine
 62
7
  6
CONTINUOUS
 10
69.6238222386
 20
86.0155477548
 11
69.6238222386
 21
85.4533070909
  0
LINE
  5
2D5
100
AcDbEntity
  8
0
100
AcDbLine
 62
7
  6
CONTINUOUS
 10
69.7223699282
 20
83.049088555
 11
69.7223699282
 21
83.2233624333
  0
LWPOLYLINE
  5
2D6
100
AcDbEntity
  8
0
100
AcDbPolyline
 62
7
  6
CONTINUOUS
 90
13
 70
0
 10
69.1611669328
 20
86.0860872144
 10
69.1610662614
 20
86.0526633614
 10
69.1606172878
 20
86.0190107349
 10
69.1598200119
 20
85.9851293362
 10
69.1586996835
 20
85.9509506609
 10
69.1572310527
 20
85.9165432166
 10
69.1553383706
 20
85.8821125221
 10
69.1530234242
 20
85.8476558863
 10
69.1502844264
 20
85.8131760015
 10
69.1470402671
 20
85.7788864598
 10
69.1432639096
 20
85.7448584577
 10
69.1389823906
 20
85.7110207976
 10
69.1341957101
 20
85.677373479
  0
LINE
  5
2D7
100
AcDbEntity
  8
0
100
AcDbLine
 62
7
  6
CONTINUOUS
 10
70.0532217716
 20
96.7143282499
 11
69.9406187716
 21
95.0820482499
  0
LINE
  5
2D8
100
AcDbEntity
  8
0
100
AcDbLine
 62
7
  6
CONTINUOUS
 10
69.4414327716
 20
95.0820482499
 11
69.6671447716
 21
97.5817842499
  0
LWPOLYLINE
  5
2D9
100
AcDbEntity
  8
0
100
AcDbPolyline
 62
7
  6
CONTINUOUS
 90
13
 70
0
 10
68.9516231105
 20
85.7001950761
 10
68.9564700056
 20
85.7303899037
 10
68.9607201882
 20
85.760745518
 10
68.9643736581
 20
85.7912619195
 10
68.9673676403
 20
85.8219917725
 10
68.96976491
 20
85.8528824134
 10
68.9717537923
 20
85.8837758506
 10
68.9733588489
 20
85.914673648
 10
68.9745555181
 20
85.945574241
 10
68.975458441
 20
85.9763149439
 10
68.9761058312
 20
86.0068415272
 10
68.9764594751
 20
86.0372082183
 10
68.9765193726
 20
86.0674150163
  0
LWPOLYLINE
  5
2DA
100
AcDbEntity
  8
0
100
AcDbPolyline
 62
7
  6
CONTINUOUS
 90
16
 70
0
 10
69.1341957101
 20
85.677373479
 10
69.131225903
 20
85.6593172901
 10
69.1276817419
 20
85.6413784962
 10
69.1235632268
 20
85.623557097
 10
69.1189107702
 20
85.6058346346
 10
69.1136839596
 20
85.5882295665
 10
69.1077615578
 20
85.5707972654
 10
69.1011632811
 20
85.5535367403
 10
69.0938694131
 20
85.5364489814
 10
69.0856995667
 20
85.5195923332
 10
69.0766385603
 20
85.5029085618
 10
69.0667015756
 20
85.4864559001
 10
69.0557537699
 20
85.4704673915
 10
69.043750196
 20
85.4550207161
 10
69.0307358012
 20
85.4400381917
 10
69.0167105856
 20
85.4255198173
  0
LINE
  5
2DB
100
AcDbEntity
  8
0
100
AcDbLine
 62
7
  6
CONTINUOUS
 10
67.5512083437
 20
86.6483278448
 11
67.3333659436
 21
85.8329751516
  0
LINE
  5
2DC
100
AcDbEntity
  8
0
100
AcDbLine
 62
7
  6
CONTINUOUS
 10
67.2897975709
 20
85.6918963218
 11
67.1839883591
 21
85.3122282499
  0
LINE
  5
2DD
100
AcDbEntity
  8
0
100
AcDbLine
 62
7
  6
CONTINUOUS
 10
67.44747391
 20
86.8122282499
 11
67.0076399113
 21
85.3122282499
  0
LINE
  5
2DE
100
AcDbEntity
  8
0
100
AcDbLine
 62
7
  6
CONTINUOUS
 10
70.7047877716
 20
96.1939232499
 11
71.2265807716
 21
97.5817842499
  0
LINE
  5
2DF
100
AcDbEntity
  8
0
100
AcDbLine
 62
7
  6
CONTINUOUS
 10
71.3589407716
 20
96.7075242499
 11
70.7385297716
 21
95.0820482499
  0
LWPOLYLINE
  5
2E0
100
AcDbEntity
  8
0
100
AcDbPolyline
 62
7
  6
CONTINUOUS
 90
42
 70
0
 10
75.7042101253
 20
96.3211339363
 10
75.717884376
 20
96.3328654053
 10
75.7316436331
 20
96.3451205879
 10
75.7455146482
 20
96.3577988896
 10
75.7594706698
 20
96.371000905
 10
75.7734046249
 20
96.3850059433
 10
75.7873297052
 20
96.3998040748
 10
75.801232719
 20
96.4154052292
 10
75.8149670182
 20
96.4321185039
 10
75.8285397481
 20
96.4500329834
 10
75.8419437633
 20
96.4690595833
 10
75.8550109802
 20
96.4892401477
 10
75.8677639582
 20
96.510581169
 10
75.8801801378
 20
96.5330761548
 10
75.892023757
 20
96.556747472
 10
75.9033186791
 20
96.5815703883
 10
75.9140410408
 20
96.6075696359
 10
75.9238834898
 20
96.6348417784
 10
75.9328472909
 20
96.6634239331
 10
75.9409311794
 20
96.6932789826
 10
75.9478240085
 20
96.7243921381
 10
75.9535230114
 20
96.7567059323
 10
75.9580309549
 20
96.7902778324
 10
75.9610449937
 20
96.8252654524
 10
75.9626704214
 20
96.8616482398
 10
75.9628019443
 20
96.899446747
 10
75.9608208356
 20
96.9388802445
 10
75.9569313972
 20
96.9801611543
 10
75.9509293272
 20
97.0230770544
 10
75.9415829927
 20
97.0672099495
 10
75.9287167025
 20
97.1130208488
 10
75.9125061478
 20
97.160048743
 10
75.8922467699
 20
97.2064926088
 10
75.8675030174
 20
97.2524130101
 10
75.8387104416
 20
97.297749383
 10
75.8064711375
 20
97.3405190133
 10
75.7704883184
 20
97.3805428206
 10
75.731058771
 20
97.4179998853
 10
75.6896749498
 20
97.4514447335
 10
75.6468343396
 20
97.4803955407
 10
75.6020394558
 20
97.5053341315
 10
75.5552902981
 20
97.5262605058
  0
LINE
  5
2E1
100
AcDbEntity
  8
0
100
AcDbLine
 62
7
  6
CONTINUOUS
 10
77.0885529782
 20
86.8122282499
 11
76.9039054181
 21
86.8122282499
  0
LINE
  5
2E2
100
AcDbEntity
  8
0
100
AcDbLine
 62
7
  6
CONTINUOUS
 10
76.2980959679
 20
86.8122282499
 11
76.1030757691
 21
86.8122282499
  0
LINE
  5
2E3
100
AcDbEntity
  8
0
100
AcDbLine
 62
7
  6
CONTINUOUS
 10
75.7068097855
 20
86.8122282499
 11
75.5304613377
 21
86.8122282499
  0
LINE
  5
2E4
100
AcDbEntity
  8
0
100
AcDbLine
 62
7
  6
CONTINUOUS
 10
74.9080550935
 20
86.8122282499
 11
74.6902125146
 21
86.8122282499
  0
LINE
  5
2E5
100
AcDbEntity
  8
0
100
AcDbLine
 62
7
  6
CONTINUOUS
 10
74.337515619
 20
86.8122282499
 11
73.4682209756
 21
86.8122282499
  0
LINE
  5
2E6
100
AcDbEntity
  8
0
100
AcDbLine
 62
7
  6
CONTINUOUS
 10
73.287722614
 20
86.8122282499
 11
73.1113741662
 21
86.8122282499
  0
LINE
  5
2E7
100
AcDbEntity
  8
0
100
AcDbLine
 62
7
  6
CONTINUOUS
 10
72.3126187588
 20
86.8122282499
 11
72.1487186219
 21
86.8122282499
  0
LINE
  5
2E8
100
AcDbEntity
  8
0
100
AcDbLine
 62
7
  6
CONTINUOUS
 10
71.6445691849
 20
86.8122282499
 11
71.3707106377
 21
86.8122282499
  0
LINE
  5
2E9
100
AcDbEntity
  8
0
100
AcDbLine
 62
7
  6
CONTINUOUS
 10
71.0387600924
 20
86.8122282499
 11
70.8624116446
 21
86.8122282499
  0
LINE
  5
2EA
100
AcDbEntity
  8
0
100
AcDbLine
 62
7
  6
CONTINUOUS
 10
70.1383453871
 20
86.8122282499
 11
69.4474737908
 21
86.8122282499
  0
LINE
  5
2EB
100
AcDbEntity
  8
0
100
AcDbLine
 62
7
  6
CONTINUOUS
 10
68.6549428965
 20
86.8122282499
 11
68.2877227332
 21
86.8122282499
  0
LINE
  5
2EC
100
AcDbEntity
  8
0
100
AcDbLine
 62
7
  6
CONTINUOUS
 10
67.6653161313
 20
86.8122282499
 11
67.44747391
 21
86.8122282499
  0
LINE
  5
2ED
100
AcDbEntity
  8
0
100
AcDbLine
 62
7
  6
CONTINUOUS
 10
66.8188431527
 20
86.8122282499
 11
66.5283867385
 21
86.8122282499
  0
LINE
  5
2EE
100
AcDbEntity
  8
0
100
AcDbLine
 62
7
  6
CONTINUOUS
 10
65.8084697242
 20
86.8122282499
 11
65.5180132765
 21
86.8122282499
  0
LINE
  5
2EF
100
AcDbEntity
  8
RACCORDO
100
AcDbLine
 62
7
  6
CONTINUOUS
 10
77.2532827716
 20
87.2122282499
 11
65.3532827716
 21
87.2122282499
  0
LWPOLYLINE
  5
2F0
100
AcDbEntity
  8
0
100
AcDbPolyline
 62
7
  6
CONTINUOUS
 90
7
 70
0
 10
68.6549428965
 20
86.8122282499
 10
68.6908533712
 20
86.8117827006
 10
68.7256598157
 20
86.8099299208
 10
68.7593622302
 20
86.8066699107
 10
68.7919606145
 20
86.8020026708
 10
68.8234549687
 20
86.7959282018
 10
68.8538452928
 20
86.7884465045
  0
LWPOLYLINE
  5
2F1
100
AcDbEntity
  8
0
100
AcDbPolyline
 62
7
  6
CONTINUOUS
 90
7
 70
0
 10
70.8371694277
 20
84.3741231436
 10
70.8387220163
 20
84.3707310662
 10
70.8402568131
 20
84.367322251
 10
70.8417738181
 20
84.3638966978
 10
70.8432730313
 20
84.3604544069
 10
70.8447544526
 20
84.3569953781
 10
70.8462180821
 20
84.3535196114
  0
LINE
  5
2F2
100
AcDbEntity
  8
0
100
AcDbLine
 62
7
  6
CONTINUOUS
 10
67.1817587716
 20
95.0820482499
 11
66.3892937716
 21
97.5817842499
  0
LWPOLYLINE
  5
2F3
100
AcDbEntity
  8
0
100
AcDbPolyline
 62
7
  6
CONTINUOUS
 90
10
 70
0
 10
70.205217591
 20
82.8743940764
 10
70.1990149557
 20
82.8951900081
 10
70.1934308506
 20
82.9164924331
 10
70.1884652757
 20
82.9383013514
 10
70.1841645872
 20
82.9606271427
 10
70.1804824288
 20
82.9834594273
 10
70.177279732
 20
83.0067670662
 10
70.1745101405
 20
83.0305396797
 10
70.1722200105
 20
83.0547876474
 10
70.1704093421
 20
83.0795109694
  0
LWPOLYLINE
  5
2F4
100
AcDbEntity
  8
0
100
AcDbPolyline
 62
7
  6
CONTINUOUS
 90
10
 70
0
 10
70.6490643214
 20
84.2496418232
 10
70.6551616654
 20
84.2281250928
 10
70.6607284159
 20
84.2062451163
 10
70.6657645729
 20
84.1840018937
 10
70.6702632319
 20
84.1614228856
 10
70.6742312973
 20
84.1384806313
 10
70.6776894828
 20
84.1150927494
 10
70.6806446927
 20
84.0912317792
 10
70.6830900226
 20
84.0669251814
 10
70.6850254725
 20
84.0421729559
  0
LINE
  5
2F5
100
AcDbEntity
  8
0
100
AcDbLine
 62
7
  6
CONTINUOUS
 10
66.9561217716
 20
97.5817842499
 11
67.4326167716
 21
95.8611382499
  0
LWPOLYLINE
  5
2F6
100
AcDbEntity
  8
0
100
AcDbPolyline
 62
7
  6
CONTINUOUS
 90
7
 70
0
 10
69.130046345
 20
86.4989502182
 10
69.1361440193
 20
86.4714535845
 10
69.1414581346
 20
86.4431987705
 10
69.1459886909
 20
86.414185779
 10
69.1497356881
 20
86.3844146128
 10
69.1526991262
 20
86.3538852748
 10
69.1548790053
 20
86.3225977679
  0
LWPOLYLINE
  5
2F7
100
AcDbEntity
  8
0
100
AcDbPolyline
 62
7
  6
CONTINUOUS
 90
13
 70
0
 10
68.9610820429
 20
86.376449411
 10
68.9590671511
 20
86.3938622075
 10
68.9565020346
 20
86.4112064314
 10
68.9533866934
 20
86.4284820826
 10
68.9497956901
 20
86.4456940149
 10
68.9456544622
 20
86.462837374
 10
68.9407393219
 20
86.4798975972
 10
68.9350700767
 20
86.4969343239
 10
68.9286269193
 20
86.5138879143
 10
68.9211267397
 20
86.5305648864
 10
68.9124751681
 20
86.5469007457
 10
68.9027665744
 20
86.5629599854
 10
68.8920009586
 20
86.5787426051
  0
LWPOLYLINE
  5
2F8
100
AcDbEntity
  8
0
100
AcDbPolyline
 62
7
  6
CONTINUOUS
 90
9
 70
0
 10
70.6850254725
 20
84.0421729559
 10
70.6868921019
 20
84.0111541626
 10
70.6885110165
 20
83.9799014715
 10
70.6898822162
 20
83.9484148827
 10
70.6909902587
 20
83.916698126
 10
70.6918505864
 20
83.8847474715
 10
70.6925095264
 20
83.8525517299
 10
70.6929825208
 20
83.8201071714
 10
70.6932541275
 20
83.7874175259
  0
LWPOLYLINE
  5
2F9
100
AcDbEntity
  8
0
100
AcDbPolyline
 62
7
  6
CONTINUOUS
 90
9
 70
0
 10
70.9199923718
 20
83.8159586259
 10
70.9194162587
 20
83.854920861
 10
70.9184286352
 20
83.893499511
 10
70.9170462228
 20
83.931697202
 10
70.9152523001
 20
83.969511308
 10
70.9129967029
 20
84.0069339507
 10
70.91026271
 20
84.0439625042
 10
70.9070670427
 20
84.0805995945
 10
70.903409701
 20
84.1168452216
  0
LWPOLYLINE
  5
2FA
100
AcDbEntity
  8
0
100
AcDbPolyline
 62
7
  6
CONTINUOUS
 90
10
 70
0
 10
71.4125497531
 20
84.0753679747
 10
71.4125216673
 20
84.0829237288
 10
71.4125678006
 20
84.0904346082
 10
71.4126881529
 20
84.0979006128
 10
71.4128698715
 20
84.1053216041
 10
71.4131258092
 20
84.1126977207
 10
71.4134945236
 20
84.1200293782
 10
71.4139888674
 20
84.1273167152
 10
71.414595988
 20
84.1345595932
 10
71.4153158854
 20
84.1417580122
  0
LINE
  5
2FB
100
AcDbEntity
  8
0
100
AcDbLine
 62
7
  6
CONTINUOUS
 10
69.9353714179
 20
83.7655477995
 11
69.9354000444
 21
83.3512089765
  0
LINE
  5
2FC
100
AcDbEntity
  8
0
100
AcDbLine
 62
7
  6
CONTINUOUS
 10
70.1113741662
 20
86.1566266293
 11
70.1113741662
 21
86.0155477548
  0
LINE
  5
2FD
100
AcDbEntity
  8
0
100
AcDbLine
 62
7
  6
CONTINUOUS
 10
70.1383453871
 20
86.8122282499
 11
70.1383453871
 21
86.6711494202
  0
LINE
  5
2FE
100
AcDbEntity
  8
0
100
AcDbLine
 62
7
  6
CONTINUOUS
 10
70.1528679396
 20
85.4533070909
 11
70.1528679396
 21
85.3122282499
  0
LINE
  5
2FF
100
AcDbEntity
  8
0
100
AcDbLine
 62
7
  6
CONTINUOUS
 10
70.3810887716
 20
94.4622552499
 11
70.3810887716
 21
92.3622362499
  0
LINE
  5
300
100
AcDbEntity
  8
0
100
AcDbLine
 62
7
  6
CONTINUOUS
 10
70.8624116446
 20
86.8122282499
 11
70.8624116446
 21
85.3122282499
  0
LINE
  5
301
100
AcDbEntity
  8
0
100
AcDbLine
 62
7
  6
CONTINUOUS
 10
70.9201569747
 20
83.3976362819
 11
70.9199923718
 21
83.8159586259
  0
LINE
  5
302
100
AcDbEntity
  8
0
100
AcDbLine
 62
7
  6
CONTINUOUS
 10
71.0387600924
 20
86.8122282499
 11
71.0387600924
 21
85.3122282499
  0
LINE
  5
303
100
AcDbEntity
  8
0
100
AcDbLine
 62
7
  6
CONTINUOUS
 10
71.1691196154
 20
82.764164629
 11
71.1691196154
 21
82.5622282499
  0
LINE
  5
304
100
AcDbEntity
  8
0
100
AcDbLine
 62
7
  6
CONTINUOUS
 10
71.1857171248
 20
84.0753679747
 11
71.1857171248
 21
84.1279267544
  0
LINE
  5
305
100
AcDbEntity
  8
0
100
AcDbLine
 62
7
  6
CONTINUOUS
 10
71.3707106377
 20
86.8122282499
 11
71.3707106377
 21
85.3122282499
  0
LINE
  5
306
100
AcDbEntity
  8
RACCORDO
100
AcDbLine
 62
250
  6
CONTINUOUS
 10
71.303283175
 20
81.3675687803
 11
71.3032662982
 21
81.2166808598
  0
LWPOLYLINE
  5
307
100
AcDbEntity
  8
0
100
AcDbPolyline
 62
7
  6
CONTINUOUS
 90
10
 70
0
 10
70.1622712793
 20
83.3244575046
 10
70.1622741191
 20
83.7874047828
 10
70.1625455342
 20
83.8200843739
 10
70.1630182913
 20
83.8525215666
 10
70.1636768475
 20
83.8847119683
 10
70.1645367458
 20
83.9166599715
 10
70.1656446154
 20
83.9483787541
 10
70.1670159994
 20
83.9798727087
 10
70.1686353548
 20
84.0111374426
 10
70.1705026816
 20
84.0421729559
  0
LWPOLYLINE
  5
308
100
AcDbEntity
  8
0
100
AcDbPolyline
 62
7
  6
CONTINUOUS
 90
10
 70
0
 10
70.6932541275
 20
83.7874175259
 10
70.6932540824
 20
83.3213934017
 10
70.6929848139
 20
83.2896489905
 10
70.6925165411
 20
83.2581430234
 10
70.6918644118
 20
83.2268805363
 10
70.6910132781
 20
83.1958564932
 10
70.6899176964
 20
83.1650557861
 10
70.6885625187
 20
83.1344733791
 10
70.686962893
 20
83.104114308
 10
70.6851188193
 20
83.073978573
  0
LINE
  5
309
100
AcDbEntity
  8
0
100
AcDbLine
 62
7
  6
CONTINUOUS
 10
70.8086587716
 20
93.8659202499
 11
70.8028507716
 21
92.3622362499
  0
LWPOLYLINE
  5
30A
100
AcDbEntity
  8
0
100
AcDbPolyline
 62
7
  6
CONTINUOUS
 90
10
 70
0
 10
71.4153158854
 20
84.1417580122
 10
71.4154215314
 20
84.1489440967
 10
71.4157035222
 20
84.1561862238
 10
71.4161618579
 20
84.1634843933
 10
71.416804189
 20
84.1708415927
 10
71.417622865
 20
84.1782548347
 10
71.4185949343
 20
84.1857151571
 10
71.4197127463
 20
84.1932195726
 10
71.4209839516
 20
84.2007710686
 10
71.4224085501
 20
84.2083696451
  0
LWPOLYLINE
  5
30B
100
AcDbEntity
  8
0
100
AcDbPolyline
 62
7
  6
CONTINUOUS
 90
10
 70
0
 10
70.1705026816
 20
84.0421729559
 10
70.172310791
 20
84.0672116485
 10
70.174592632
 20
84.0917764147
 10
70.1773482046
 20
84.1158672545
 10
70.1805264571
 20
84.1394999337
 10
70.1841784413
 20
84.1626586866
 10
70.188457312
 20
84.1852962159
 10
70.1934141207
 20
84.2073967561
 10
70.1989978159
 20
84.2289760728
 10
70.2052083976
 20
84.250034166
  0
LWPOLYLINE
  5
30C
100
AcDbEntity
  8
0
100
AcDbPolyline
 62
7
  6
CONTINUOUS
 90
10
 70
0
 10
70.6851188193
 20
83.073978573
 10
70.6831900899
 20
83.0494356128
 10
70.6807134183
 20
83.025356316
 10
70.6776888044
 20
83.0017406828
 10
70.6741242665
 20
82.9785917125
 10
70.6700117864
 20
82.9559064058
 10
70.6653273093
 20
82.9336757643
 10
70.6600628169
 20
82.9118967887
 10
70.6542263276
 20
82.8905724784
 10
70.6478178412
 20
82.8697028334
  0
LWPOLYLINE
  5
30D
100
AcDbEntity
  8
0
100
AcDbPolyline
 62
7
  6
CONTINUOUS
 90
10
 70
0
 10
70.9049533396
 20
83.0436734122
 10
70.9081951842
 20
83.0815710457
 10
70.9110438075
 20
83.1198264565
 10
70.9134992096
 20
83.1584396444
 10
70.9155546128
 20
83.1974104545
 10
70.9172167947
 20
83.2367390417
 10
70.9185060885
 20
83.2764258715
 10
70.919429272
 20
83.316471099
 10
70.9199795674
 20
83.3568745692
 10
70.9201569747
 20
83.3976362819
  0
LWPOLYLINE
  5
30E
100
AcDbEntity
  8
0
100
AcDbPolyline
 62
7
  6
CONTINUOUS
 90
10
 70
0
 10
69.9519689273
 20
84.1057967419
 10
69.948355566
 20
84.0695494931
 10
69.945195947
 20
84.0329106848
 10
69.9424900701
 20
83.995880317
 10
69.9402531938
 20
83.9584557069
 10
69.9384700596
 20
83.9206395372
 10
69.9370948925
 20
83.8824398568
 10
69.9361124339
 20
83.8438593484
 10
69.9355379424
 20
83.8048953294
 10
69.9353714179
 20
83.7655477995
  0
LINE
  5
30F
100
AcDbEntity
  8
0
100
AcDbLine
 62
7
  6
CONTINUOUS
 10
73.0851907716
 20
96.8949202499
 11
72.8253817716
 21
95.9672362499
  0
LINE
  5
310
100
AcDbEntity
  8
0
100
AcDbLine
 62
7
  6
CONTINUOUS
 10
72.7186467716
 20
95.5810842499
 11
72.5746637716
 21
95.0820482499
  0
LINE
  5
311
100
AcDbEntity
  8
0
100
AcDbLine
 62
7
  6
CONTINUOUS
 10
72.0585327716
 20
95.0820482499
 11
72.8426087716
 21
97.5817842499
  0
LINE
  5
312
100
AcDbEntity
  8
0
100
AcDbLine
 62
7
  6
CONTINUOUS
 10
73.1255617716
 20
94.4622552499
 11
72.3664047716
 21
92.3622362499
  0
LWPOLYLINE
  5
313
100
AcDbEntity
  8
RACCORDO
100
AcDbPolyline
 62
7
  6
CONTINUOUS
 90
7
 70
0
 10
67.0032827716
 20
78.4397030656
 10
66.9844944891
 20
78.3903856402
 10
66.9661272317
 20
78.3405803556
 10
66.9482444739
 20
78.2902872116
 10
66.930901607
 20
78.2395062084
 10
66.9141461838
 20
78.1882373459
 10
66.8980182122
 20
78.1364806241
  0
LINE
  5
314
100
AcDbEntity
  8
0
100
AcDbLine
 62
7
  6
CONTINUOUS
 10
68.828870673
 20
83.2233624333
 11
69.2963671874
 21
84.3630581373
  0
LINE
  5
315
100
AcDbEntity
  8
0
100
AcDbLine
 62
7
  6
CONTINUOUS
 10
69.1995483826
 20
84.5622282499
 11
68.6490643214
 21
83.2648562068
  0
LWPOLYLINE
  5
316
100
AcDbEntity
  8
RACCORDO
100
AcDbPolyline
 62
7
  6
CONTINUOUS
 90
22
 70
0
 10
75.6032827716
 20
78.4397028514
 10
75.5033474372
 20
78.6788381932
 10
75.3902813213
 20
78.9109701941
 10
75.264084424
 20
79.136098854
 10
75.1244448656
 20
79.3548761151
 10
74.9716745258
 20
79.5666500351
 10
74.8067090434
 20
79.7694647879
 10
74.6289266516
 20
79.9636424597
 10
74.4389491174
 20
80.1488609642
 10
74.2395773806
 20
80.3221982155
 10
74.0311202951
 20
80.4830590367
 10
73.813269007
 20
80.6320386047
 10
73.5878978949
 20
80.7680003655
 10
73.3551318434
 20
80.8908730376
 10
73.1148459679
 20
81.0007279025
 10
72.8685399926
 20
81.0966422499
 10
72.6153804302
 20
81.1786775197
 10
72.3562007681
 20
81.246772272
 10
72.0950011929
 20
81.2998194771
 10
71.8331151001
 20
81.3374501253
 10
71.5692090941
 20
81.3600332263
 10
71.303283175
 20
81.3675687803
  0
LINE
  5
317
100
AcDbEntity
  8
0
100
AcDbLine
 62
7
  6
CONTINUOUS
 10
71.5346107747
 20
86.6607759768
 11
72.0387602116
 21
85.3122282499
  0
LINE
  5
318
100
AcDbEntity
  8
0
100
AcDbLine
 62
7
  6
CONTINUOUS
 10
71.6445691849
 20
86.8122282499
 11
72.1487186219
 21
85.4636805342
  0
LINE
  5
319
100
AcDbEntity
  8
0
100
AcDbLine
 62
7
  6
CONTINUOUS
 10
69.5401397716
 20
94.4622552499
 11
70.2702147716
 21
92.3622362499
  0
LINE
  5
31A
100
AcDbEntity
  8
0
100
AcDbLine
 62
7
  6
CONTINUOUS
 10
69.6652207716
 20
92.8072172499
 11
69.8164657716
 21
92.3622362499
  0
LINE
  5
31B
100
AcDbEntity
  8
0
100
AcDbLine
 62
7
  6
CONTINUOUS
 10
69.2610157716
 20
94.0608832499
 11
69.5517837716
 21
93.1562822499
  0
LWPOLYLINE
  5
31C
100
AcDbEntity
  8
0
100
AcDbPolyline
 62
7
  6
CONTINUOUS
 90
10
 70
0
 10
70.903409701
 20
84.1168452216
 10
70.8999001845
 20
84.1457541495
 10
70.8956866798
 20
84.1740298185
 10
70.8907691866
 20
84.2016722286
 10
70.8851574233
 20
84.2287076258
 10
70.8788416717
 20
84.2551097641
 10
70.8717927772
 20
84.2807999056
 10
70.8640010217
 20
84.3057518043
 10
70.8554761233
 20
84.3299917063
 10
70.8462180821
 20
84.3535196114
  0
LINE
  5
31D
100
AcDbEntity
  8
0
100
AcDbLine
 62
7
  6
CONTINUOUS
 10
71.7428437716
 20
97.5817842499
 11
71.9765967716
 21
95.0820482499
  0
LINE
  5
31E
100
AcDbEntity
  8
0
100
AcDbLine
 62
7
  6
CONTINUOUS
 10
71.4661447716
 20
95.0820482499
 11
71.3589407716
 21
96.7075242499
  0
LWPOLYLINE
  5
31F
100
AcDbEntity
  8
0
100
AcDbPolyline
 62
7
  6
CONTINUOUS
 90
7
 70
0
 10
72.1594379138
 20
84.1417580122
 10
72.1586074889
 20
84.1808794236
 10
72.1558503882
 20
84.2184697104
 10
72.1511666119
 20
84.2545288725
 10
72.1445561598
 20
84.2890569101
 10
72.1360190319
 20
84.3220538231
 10
72.1255552283
 20
84.3535196114
  0
LINE
  5
320
100
AcDbEntity
  8
0
100
AcDbLine
 62
7
  6
CONTINUOUS
 10
71.5346107747
 20
86.6607759768
 11
71.5346107747
 21
85.3122282499
  0
LINE
  5
321
100
AcDbEntity
  8
0
100
AcDbLine
 62
7
  6
CONTINUOUS
 10
71.8557717716
 20
94.4622552499
 11
71.8557717716
 21
92.7993852499
  0
LINE
  5
322
100
AcDbEntity
  8
0
100
AcDbLine
 62
7
  6
CONTINUOUS
 10
72.1487186219
 20
86.8122282499
 11
72.1487186219
 21
85.4636805342
  0
LINE
  5
323
100
AcDbEntity
  8
0
100
AcDbLine
 62
7
  6
CONTINUOUS
 10
72.1566713046
 20
82.5622282499
 11
72.1566713046
 21
82.7365021134
  0
LINE
  5
324
100
AcDbEntity
  8
0
100
AcDbLine
 62
7
  6
CONTINUOUS
 10
72.2775347716
 20
94.4622552499
 11
72.2775347716
 21
92.3622362499
  0
LINE
  5
325
100
AcDbEntity
  8
0
100
AcDbLine
 62
7
  6
CONTINUOUS
 10
72.3126187588
 20
86.8122282499
 11
72.3126187588
 21
85.3122282499
  0
LINE
  5
326
100
AcDbEntity
  8
0
100
AcDbLine
 62
7
  6
CONTINUOUS
 10
72.5909731578
 20
84.2607068295
 11
72.5909731578
 21
84.0255754465
  0
LINE
  5
327
100
AcDbEntity
  8
0
100
AcDbLine
 62
7
  6
CONTINUOUS
 10
72.9118583392
 20
84.282836842
 11
72.9118583392
 21
82.5622282499
  0
LINE
  5
328
100
AcDbEntity
  8
0
100
AcDbLine
 62
7
  6
CONTINUOUS
 10
73.1113741662
 20
86.8122282499
 11
73.1113741662
 21
85.3122282499
  0
LINE
  5
329
100
AcDbEntity
  8
0
100
AcDbLine
 62
7
  6
CONTINUOUS
 10
73.1414568614
 20
82.5622282499
 11
73.1414568614
 21
84.5622282499
  0
LWPOLYLINE
  5
32A
100
AcDbEntity
  8
0
100
AcDbPolyline
 62
7
  6
CONTINUOUS
 90
10
 70
0
 10
71.9243061732
 20
84.1666542763
 10
71.9239347218
 20
84.1458243857
 10
71.922753206
 20
84.1247261922
 10
71.9207616258
 20
84.1033596959
 10
71.9179703931
 20
84.0817029709
 10
71.9143690959
 20
84.0597779431
 10
71.9099264983
 20
84.0376503902
 10
71.9046321883
 20
84.0153422381
 10
71.8984965778
 20
83.9928315609
 10
71.8915196668
 20
83.9701183586
  0
LWPOLYLINE
  5
32B
100
AcDbEntity
  8
0
100
AcDbPolyline
 62
7
  6
CONTINUOUS
 90
5
 70
0
 10
71.1869531006
 20
84.1496628239
 10
71.1864592237
 20
84.1441647903
 10
71.1861045482
 20
84.1387083426
 10
71.1858571819
 20
84.133295664
 10
71.1857171248
 20
84.1279267544
  0
LINE
  5
32C
100
AcDbEntity
  8
0
100
AcDbLine
 62
7
  6
CONTINUOUS
 10
71.1899796806
 20
84.1778815715
 11
71.1881671054
 21
84.1607967476
  0
LINE
  5
32D
100
AcDbEntity
  8
0
100
AcDbLine
 62
7
  6
CONTINUOUS
 10
71.1881671054
 20
84.1607967476
 11
71.1869531006
 21
84.1496628239
  0
LWPOLYLINE
  5
32E
100
AcDbEntity
  8
0
100
AcDbPolyline
 62
7
  6
CONTINUOUS
 90
10
 70
0
 10
71.4224085501
 20
84.2083696451
 10
71.4267939292
 20
84.2278185989
 10
71.4320569098
 20
84.2464614397
 10
71.4381974919
 20
84.2642981674
 10
71.4452698377
 20
84.2813610248
 10
71.453219785
 20
84.2976177692
 10
71.4618848472
 20
84.3129716729
 10
71.4712108619
 20
84.3273904931
 10
71.4812519915
 20
84.3409064727
 10
71.492008236
 20
84.3535196114
  0
LINE
  5
32F
100
AcDbEntity
  8
0
100
AcDbLine
 62
7
  6
CONTINUOUS
 10
73.3816167716
 20
94.0608622499
 11
73.0702877716
 21
93.1562822499
  0
LWPOLYLINE
  5
330
100
AcDbEntity
  8
0
100
AcDbPolyline
 62
7
  6
CONTINUOUS
 90
10
 70
0
 10
70.2052083976
 20
84.250034166
 10
70.2098780049
 20
84.2635718253
 10
70.214951712
 20
84.2766183815
 10
70.2204295189
 20
84.2891738346
 10
70.2263163928
 20
84.3012631391
 10
70.2326073664
 20
84.3128613405
 10
70.2392875385
 20
84.3238935748
 10
70.2463519419
 20
84.3343348874
 10
70.2538055437
 20
84.344210233
 10
70.261648344
 20
84.3535196114
  0
LWPOLYLINE
  5
331
100
AcDbEntity
  8
0
100
AcDbPolyline
 62
7
  6
CONTINUOUS
 90
10
 70
0
 10
70.6478178412
 20
82.8697028334
 10
70.6416949991
 20
82.8523055299
 10
70.6348758683
 20
82.835769143
 10
70.627360449
 20
82.8200936727
 10
70.6191241587
 20
82.8052287273
 10
70.6101915798
 20
82.7912246985
 10
70.6006364594
 20
82.7782327613
 10
70.5904833801
 20
82.7663033074
 10
70.5797077593
 20
82.7553859451
 10
70.5683095971
 20
82.7454806744
  0
LINE
  5
332
100
AcDbEntity
  8
0
100
AcDbLine
 62
7
  6
CONTINUOUS
 10
72.9539327716
 20
92.8072172499
 11
72.7968907716
 21
92.3622362499
  0
LWPOLYLINE
  5
333
100
AcDbEntity
  8
0
100
AcDbPolyline
 62
7
  6
CONTINUOUS
 90
9
 70
0
 10
70.0019213364
 20
84.3290934714
 10
69.9929670855
 20
84.3038672293
 10
69.9848055466
 20
84.2778408852
 10
69.9774557689
 20
84.2509805105
 10
69.9708987031
 20
84.2233200337
 10
69.9650772008
 20
84.19496124
 10
69.9599722127
 20
84.1659380576
 10
69.9556027882
 20
84.1362165582
 10
69.9519689273
 20
84.1057967419
  0
LINE
  5
334
100
AcDbEntity
  8
0
100
AcDbLine
 62
7
  6
CONTINUOUS
 10
70.0116682991
 20
84.3535196114
 11
70.0019213364
 21
84.3290934714
  0
LWPOLYLINE
  5
335
100
AcDbEntity
  8
0
100
AcDbPolyline
 62
7
  6
CONTINUOUS
 90
7
 70
0
 10
70.0116682991
 20
84.3535196114
 10
70.0127577401
 20
84.3560552396
 10
70.013857449
 20
84.3585813518
 10
70.014967426
 20
84.361097948
 10
70.0160876709
 20
84.3636050282
 10
70.0172181839
 20
84.3661025923
 10
70.0183589648
 20
84.3685906405
  0
LINE
  5
336
100
AcDbEntity
  8
0
100
AcDbLine
 62
7
  6
CONTINUOUS
 10
70.0183589648
 20
84.3685906405
 11
70.0360033796
 21
84.4027942222
  0
LWPOLYLINE
  5
337
100
AcDbEntity
  8
0
100
AcDbPolyline
 62
7
  6
CONTINUOUS
 90
7
 70
0
 10
69.0167105856
 20
85.4255198173
 10
68.9967693251
 20
85.4081243012
 10
68.9752095376
 20
85.3920706007
 10
68.9520312231
 20
85.3773587125
 10
68.9272343816
 20
85.3639886339
 10
68.9008190132
 20
85.351960362
 10
68.8727851177
 20
85.3412738945
  0
LWPOLYLINE
  5
338
100
AcDbEntity
  8
0
100
AcDbPolyline
 62
7
  6
CONTINUOUS
 90
7
 70
0
 10
67.7721624923
 20
84.3990194003
 10
67.8028679118
 20
84.4251171771
 10
67.8321717546
 20
84.4516564306
 10
67.8600740206
 20
84.4786371627
 10
67.8865747099
 20
84.5060593753
 10
67.9116738225
 20
84.5339230704
 10
67.9353713583
 20
84.5622282499
  0
LWPOLYLINE
  5
339
100
AcDbEntity
  8
0
100
AcDbPolyline
 62
7
  6
CONTINUOUS
 90
19
 70
0
 10
68.8489268455
 20
85.5045580905
 10
68.8587413647
 20
85.5125050105
 10
68.8680295038
 20
85.5209302763
 10
68.8767912629
 20
85.5298338884
 10
68.8850278984
 20
85.539267916
 10
68.8927381538
 20
85.5491802911
 10
68.8999182592
 20
85.5594148086
 10
68.9065472574
 20
85.569966317
 10
68.9126461055
 20
85.5808399686
 10
68.9182739045
 20
85.5918950134
 10
68.9234119195
 20
85.6030748499
 10
68.9280788855
 20
85.6144360802
 10
68.9323901088
 20
85.6260077595
 10
68.9363615935
 20
85.6377892149
 10
68.9399773354
 20
85.6497811201
 10
68.9433046286
 20
85.6620145508
 10
68.9463659046
 20
85.6744998661
 10
68.9491387319
 20
85.6872267077
 10
68.9516231105
 20
85.7001950761
  0
LINE
  5
33A
100
AcDbEntity
  8
0
100
AcDbLine
 62
7
  6
CONTINUOUS
 10
70.8086587716
 20
93.8659202499
 11
71.6376227716
 21
92.3622362499
  0
LINE
  5
33B
100
AcDbEntity
  8
0
100
AcDbLine
 62
7
  6
CONTINUOUS
 10
70.6653477716
 20
95.0820482499
 11
70.0532217716
 21
96.7143282499
  0
LINE
  5
33C
100
AcDbEntity
  8
0
100
AcDbLine
 62
7
  6
CONTINUOUS
 10
70.1885057716
 20
97.5817842499
 11
70.7047877716
 21
96.1939232499
  0
LWPOLYLINE
  5
33D
100
AcDbEntity
  8
RACCORDO
100
AcDbPolyline
 62
7
  6
CONTINUOUS
 90
7
 70
0
 10
75.7085472837
 20
78.1364801655
 10
75.6926071964
 20
78.1876847968
 10
75.6759694153
 20
78.2386224213
 10
75.6586692038
 20
78.289293039
 10
75.6407507032
 20
78.3396966499
 10
75.6222674385
 20
78.3898332541
 10
75.6032827716
 20
78.4397028514
  0
LINE
  5
33E
100
AcDbEntity
  8
0
100
AcDbLine
 62
7
  6
CONTINUOUS
 10
73.287722614
 20
86.8122282499
 11
73.287722614
 21
85.3122282499
  0
LINE
  5
33F
100
AcDbEntity
  8
0
100
AcDbLine
 62
7
  6
CONTINUOUS
 10
73.4682209756
 20
86.8122282499
 11
73.4682209756
 21
86.6711494202
  0
LINE
  5
340
100
AcDbEntity
  8
0
100
AcDbLine
 62
7
  6
CONTINUOUS
 10
73.7500326823
 20
82.8222559268
 11
73.7500326823
 21
82.5622282499
  0
LINE
  5
341
100
AcDbEntity
  8
0
100
AcDbLine
 62
7
  6
CONTINUOUS
 10
73.8146937157
 20
86.6711494202
 11
73.8146937157
 21
85.3122282499
  0
LINE
  5
342
100
AcDbEntity
  8
0
100
AcDbLine
 62
7
  6
CONTINUOUS
 10
73.985163946
 20
82.5622282499
 11
73.985163946
 21
82.8222559268
  0
LINE
  5
343
100
AcDbEntity
  8
0
100
AcDbLine
 62
7
  6
CONTINUOUS
 10
73.9910421635
 20
86.6711494202
 11
73.9910421635
 21
85.3122282499
  0
LINE
  5
344
100
AcDbEntity
  8
0
100
AcDbLine
 62
7
  6
CONTINUOUS
 10
74.2675852736
 20
95.0820484693
 11
74.2675852736
 21
97.5525788383
  0
LINE
  5
345
100
AcDbEntity
  8
0
100
AcDbLine
 62
7
  6
CONTINUOUS
 10
74.337515619
 20
86.8122282499
 11
74.337515619
 21
86.6711494202
  0
LINE
  5
346
100
AcDbEntity
  8
0
100
AcDbLine
 62
7
  6
CONTINUOUS
 10
74.4664914797
 20
84.2607068295
 11
74.4664914797
 21
84.0255754465
  0
LINE
  5
347
100
AcDbEntity
  8
0
100
AcDbLine
 62
7
  6
CONTINUOUS
 10
74.7619167716
 20
94.4617262499
 11
74.7619167716
 21
93.2344219256
  0
LINE
  5
348
100
AcDbEntity
  8
0
100
AcDbLine
 62
7
  6
CONTINUOUS
 10
74.7699767484
 20
97.155929325
 11
74.7699767484
 21
96.4697031726
  0
LINE
  5
349
100
AcDbEntity
  8
0
100
AcDbLine
 62
7
  6
CONTINUOUS
 10
74.7872786152
 20
96.0603068885
 11
74.7872786152
 21
95.0820484693
  0
LINE
  5
34A
100
AcDbEntity
  8
0
100
AcDbLine
 62
7
  6
CONTINUOUS
 10
74.7873766612
 20
84.282836842
 11
74.7873766612
 21
82.5622282499
  0
LINE
  5
34B
100
AcDbEntity
  8
0
100
AcDbLine
 62
250
  6
CONTINUOUS
 10
75.9264242023
 20
109.4547345991
 11
75.9150868897
 21
109.2721541575
  0
LWPOLYLINE
  5
34C
100
AcDbEntity
  8
0
100
AcDbPolyline
 62
7
  6
CONTINUOUS
 90
13
 70
0
 10
76.6914786535
 20
109.2721541575
 10
76.6891937304
 20
109.2487094053
 10
76.6831544317
 20
109.2261071015
 10
76.6736910757
 20
109.20481011
 10
76.6612520772
 20
109.1853359234
 10
76.6462025699
 20
109.1678435362
 10
76.6286625975
 20
109.1522375371
 10
76.6088626105
 20
109.1387294029
 10
76.5872292343
 20
109.1276399926
 10
76.5640705369
 20
109.1190841683
 10
76.5397450664
 20
109.1132020441
 10
76.5146730654
 20
109.1101298175
 10
76.4892616729
 20
109.1099262928
  0
LWPOLYLINE
  5
34D
100
AcDbEntity
  8
RACCORDO
100
AcDbPolyline
 62
7
  6
CONTINUOUS
 90
30
 70
0
 10
76.7034813781
 20
108.6702764849
 10
76.6970501674
 20
108.6291775604
 10
76.6861853425
 20
108.5889314995
 10
76.6705910849
 20
108.5488523089
 10
76.6505632131
 20
108.5096260151
 10
76.6269891831
 20
108.4733107204
 10
76.5996973603
 20
108.4402905975
 10
76.5688593792
 20
108.4101816072
 10
76.5358775997
 20
108.3838895933
 10
76.5009511621
 20
108.3616534608
 10
76.4638809262
 20
108.3432344234
 10
76.4254718306
 20
108.3288217941
 10
76.3855446084
 20
108.3184001613
 10
76.3442785265
 20
108.3119849985
 10
76.3030163243
 20
108.3098119341
 10
76.2617577648
 20
108.3120396684
 10
76.2205030851
 20
108.3185095009
 10
76.1805957355
 20
108.3289809429
 10
76.1422135483
 20
108.3434419679
 10
76.1051786912
 20
108.3619045402
 10
76.0703011177
 20
108.3841641459
 10
76.0373908755
 20
108.4104527727
 10
76.006637917
 20
108.4405383147
 10
75.9794220529
 20
108.4735201235
 10
75.955909846
 20
108.5097720342
 10
75.9359347336
 20
108.5489200791
 10
75.9203768374
 20
108.5889419632
 10
75.9095295315
 20
108.6291635952
 10
75.9030994418
 20
108.670259032
 10
75.9010865684
 20
108.7122282499
  0
LWPOLYLINE
  5
34E
100
AcDbEntity
  8
0
100
AcDbPolyline
 62
7
  6
CONTINUOUS
 90
10
 70
0
 10
72.1390834719
 20
83.987078436
 10
72.1432389353
 20
84.0048818322
 10
72.1469311787
 20
84.0225406989
 10
72.1501602021
 20
84.0400550363
 10
72.1529396651
 20
84.0574377306
 10
72.1552559081
 20
84.0746758956
 10
72.1570679524
 20
84.0917308722
 10
72.1583621383
 20
84.108589774
 10
72.1591521254
 20
84.1252654873
 10
72.1594379138
 20
84.1417580122
  0
LWPOLYLINE
  5
34F
100
AcDbEntity
  8
0
100
AcDbPolyline
 62
7
  6
CONTINUOUS
 90
10
 70
0
 10
71.8915196668
 20
83.9701183586
 10
71.8838997285
 20
83.9473902979
 10
71.8758787506
 20
83.9251828202
 10
71.8674567332
 20
83.9034959256
 10
71.8586477115
 20
83.8823072155
 10
71.8494376503
 20
83.8616390885
 10
71.8397844437
 20
83.8415587399
 10
71.8296740565
 20
83.8220885683
 10
71.8191205239
 20
83.8032061751
 10
71.8081238459
 20
83.7849115605
  0
LWPOLYLINE
  5
350
100
AcDbEntity
  8
0
100
AcDbPolyline
 62
7
  6
CONTINUOUS
 90
10
 70
0
 10
70.8427019282
 20
82.7696971333
 10
70.8533776547
 20
82.7965723761
 10
70.8630817282
 20
82.8243722436
 10
70.8718141487
 20
82.8530967359
 10
70.8795323464
 20
82.8827898306
 10
70.886278891
 20
82.91340755
 10
70.8921814917
 20
82.9448179612
 10
70.8972827183
 20
82.9769770865
 10
70.9015400009
 20
83.0099289034
 10
70.9049533396
 20
83.0436734122
  0
LWPOLYLINE
  5
351
100
AcDbEntity
  8
0
100
AcDbPolyline
 62
7
  6
CONTINUOUS
 90
7
 70
0
 10
71.2336854217
 20
84.3535196114
 10
71.2228165798
 20
84.3275839363
 10
71.2133815586
 20
84.3003133286
 10
71.2053803581
 20
84.2717077883
 10
71.1988129783
 20
84.2417673153
 10
71.1936794191
 20
84.2104919097
 10
71.1899796806
 20
84.1778815715
  0
LWPOLYLINE
  5
352
100
AcDbEntity
  8
0
100
AcDbPolyline
 62
7
  6
CONTINUOUS
 90
10
 70
0
 10
72.0891171833
 20
83.8407329506
 10
72.0961260384
 20
83.8569958447
 10
72.1027575741
 20
83.8732192919
 10
72.1090117904
 20
83.8894032922
 10
72.1148712764
 20
83.9054960112
 10
72.120353443
 20
83.9215492834
 10
72.1255105226
 20
83.9377186117
 10
72.130359926
 20
83.9540558304
 10
72.1348842424
 20
83.9705091052
 10
72.1390834719
 20
83.987078436
  0
LWPOLYLINE
  5
353
100
AcDbEntity
  8
0
100
AcDbPolyline
 62
7
  6
CONTINUOUS
 90
7
 70
0
 10
71.2336854217
 20
84.3535196114
 10
71.2468932545
 20
84.3800359437
 10
71.2619926278
 20
84.4051930618
 10
71.2789835417
 20
84.4289909595
 10
71.2978659961
 20
84.4514296306
 10
71.318639991
 20
84.4725090695
 10
71.3413055264
 20
84.4922292708
  0
LWPOLYLINE
  5
354
100
AcDbEntity
  8
0
100
AcDbPolyline
 62
7
  6
CONTINUOUS
 90
6
 70
0
 10
70.0360033796
 20
84.4027942222
 10
70.056548534
 20
84.4343813967
 10
70.0799944283
 20
84.4633521485
 10
70.1063410622
 20
84.4897064636
 10
70.1355884359
 20
84.5134443293
 10
70.1677365492
 20
84.5345657343
  0
LINE
  5
355
100
AcDbEntity
  8
0
100
AcDbLine
 62
7
  6
CONTINUOUS
 10
67.7534915299
 20
84.3835576314
 11
67.7721624923
 21
84.3990194003
  0
LWPOLYLINE
  5
356
100
AcDbEntity
  8
0
100
AcDbPolyline
 62
7
  6
CONTINUOUS
 90
10
 70
0
 10
67.758469147
 20
84.1443501612
 10
67.7755749242
 20
84.1582633355
 10
67.7926175678
 20
84.1725648851
 10
67.8095970781
 20
84.1872548102
 10
67.8265013528
 20
84.2023595328
 10
67.8433424941
 20
84.2178526307
 10
67.8601568082
 20
84.2336548373
 10
67.8769563973
 20
84.2497397303
 10
67.8937291593
 20
84.2661337318
 10
67.9104750942
 20
84.282836842
  0
LINE
  5
357
100
AcDbEntity
  8
0
100
AcDbLine
 62
7
  6
CONTINUOUS
 10
67.7349012418
 20
84.3683910354
 11
67.7534915299
 21
84.3835576314
  0
LINE
  5
358
100
AcDbEntity
  8
0
100
AcDbLine
 62
7
  6
CONTINUOUS
 10
67.7163916283
 20
84.3535196114
 11
67.7349012418
 21
84.3683910354
  0
LWPOLYLINE
  5
359
100
AcDbEntity
  8
0
100
AcDbPolyline
 62
7
  6
CONTINUOUS
 90
10
 70
0
 10
67.7163916283
 20
84.3535196114
 10
67.7022947446
 20
84.3423494672
 10
67.6882061455
 20
84.3313845184
 10
67.6741258309
 20
84.320624765
 10
67.6600622466
 20
84.31005793
 10
67.6460069469
 20
84.2996962904
 10
67.6319345944
 20
84.2895766775
 10
67.6178367433
 20
84.2797113682
 10
67.6037218395
 20
84.2700880855
 10
67.589589883
 20
84.2607068295
  0
LWPOLYLINE
  5
35A
100
AcDbEntity
  8
0
100
AcDbPolyline
 62
7
  6
CONTINUOUS
 90
10
 70
0
 10
67.589589883
 20
84.0255754465
 10
67.6092638675
 20
84.0379312728
 10
67.628665471
 20
84.0504661836
 10
67.6477946935
 20
84.0631801788
 10
67.6665915675
 20
84.0760315831
 10
67.6851160606
 20
84.0890620718
 10
67.7035480749
 20
84.1023966714
 10
67.7219475777
 20
84.1160770572
 10
67.7402546018
 20
84.1300615538
 10
67.758469147
 20
84.1443501612
  0
LWPOLYLINE
  5
35B
100
AcDbEntity
  8
0
100
AcDbPolyline
 62
7
  6
CONTINUOUS
 90
43
 70
0
 10
76.7419493336
 20
93.28246225
 10
76.7793675851
 20
93.2833614108
 10
76.8164227802
 20
93.2868051241
 10
76.8531149191
 20
93.2927933891
 10
76.8897950051
 20
93.3012681116
 10
76.9261120349
 20
93.3122873813
 10
76.9610129977
 20
93.3260254718
 10
76.9943663245
 20
93.3427066563
 10
77.0263035845
 20
93.3621066515
 10
77.0561664742
 20
93.3837268955
 10
77.0836928392
 20
93.4074578598
 10
77.1091448339
 20
93.4334090608
 10
77.1326506192
 20
93.4614105047
 10
77.1542549502
 20
93.4913136197
 10
77.1739130717
 20
93.5232669629
 10
77.1916188794
 20
93.5575462321
 10
77.2075964692
 20
93.5942394084
 10
77.2216217452
 20
93.6332584886
 10
77.2330163153
 20
93.6746151919
 10
77.2418459763
 20
93.7190874729
 10
77.2480449314
 20
93.7658973461
 10
77.2507373975
 20
93.8127226329
 10
77.2492911765
 20
93.8595180357
 10
77.2443384665
 20
93.9063288498
 10
77.2369000789
 20
93.9509688152
 10
77.2271575234
 20
93.9927333911
 10
77.2149292902
 20
94.0323271454
 10
77.2006916609
 20
94.0696774951
 10
77.1846587411
 20
94.1046856204
 10
77.1666164253
 20
94.1374503635
 10
77.1463986779
 20
94.1681956326
 10
77.1239909329
 20
94.1971170493
 10
77.0994077564
 20
94.2240190086
 10
77.0725268116
 20
94.248538578
 10
77.043025794
 20
94.2707215276
 10
77.0112270081
 20
94.2905221036
 10
76.9779750314
 20
94.3074400903
 10
76.9431832871
 20
94.3211963564
 10
76.9069383519
 20
94.3320700468
 10
76.8703445329
 20
94.3403983594
 10
76.8337699323
 20
94.3462936949
 10
76.7968464479
 20
94.349643658
 10
76.7595740796
 20
94.3504482499
  0
LINE
  5
35C
100
AcDbEntity
  8
RACCORDO
100
AcDbLine
 62
7
  6
CONTINUOUS
 10
77.6032827716
 20
92.0122282499
 11
65.0032827716
 21
92.0122282499
  0
LINE
  5
35D
100
AcDbEntity
  8
0
100
AcDbLine
 62
7
  6
CONTINUOUS
 10
76.3207767716
 20
92.3622012499
 11
76.1913007716
 21
92.3622012499
  0
LINE
  5
35E
100
AcDbEntity
  8
0
100
AcDbLine
 62
7
  6
CONTINUOUS
 10
74.3908217716
 20
92.3622362499
 11
73.9370737716
 21
92.3622362499
  0
LINE
  5
35F
100
AcDbEntity
  8
0
100
AcDbLine
 62
7
  6
CONTINUOUS
 10
72.7968907716
 20
92.3622362499
 11
72.3664047716
 21
92.3622362499
  0
LINE
  5
360
100
AcDbEntity
  8
0
100
AcDbLine
 62
7
  6
CONTINUOUS
 10
72.2775347716
 20
92.3622362499
 11
71.6376227716
 21
92.3622362499
  0
LINE
  5
361
100
AcDbEntity
  8
0
100
AcDbLine
 62
7
  6
CONTINUOUS
 10
70.8028507716
 20
92.3622362499
 11
70.3810887716
 21
92.3622362499
  0
LINE
  5
362
100
AcDbEntity
  8
0
100
AcDbLine
 62
7
  6
CONTINUOUS
 10
70.2702147716
 20
92.3622362499
 11
69.8164657716
 21
92.3622362499
  0
LINE
  5
363
100
AcDbEntity
  8
0
100
AcDbLine
 62
7
  6
CONTINUOUS
 10
68.6762857716
 20
92.3622362499
 11
68.2457967716
 21
92.3622362499
  0
LINE
  5
364
100
AcDbEntity
  8
0
100
AcDbLine
 62
7
  6
CONTINUOUS
 10
68.1828087716
 20
92.3622362499
 11
66.8407987716
 21
92.3622362499
  0
LINE
  5
365
100
AcDbEntity
  8
0
100
AcDbLine
 62
7
  6
CONTINUOUS
 10
65.6772217716
 20
92.3622362499
 11
65.2263917716
 21
92.3622362499
  0
LINE
  5
366
100
AcDbEntity
  8
0
100
AcDbLine
 62
7
  6
CONTINUOUS
 10
68.1828087716
 20
92.7112592499
 11
67.2916437716
 21
92.7112592499
  0
LINE
  5
367
100
AcDbEntity
  8
0
100
AcDbLine
 62
7
  6
CONTINUOUS
 10
73.7858147716
 20
92.8072172499
 11
72.9539327716
 21
92.8072172499
  0
LINE
  5
368
100
AcDbEntity
  8
0
100
AcDbLine
 62
7
  6
CONTINUOUS
 10
69.6652207716
 20
92.8072172499
 11
68.8333527716
 21
92.8072172499
  0
LINE
  5
369
100
AcDbEntity
  8
0
100
AcDbLine
 62
7
  6
CONTINUOUS
 10
73.6723777716
 20
93.1562822499
 11
73.0702877716
 21
93.1562822499
  0
LINE
  5
36A
100
AcDbEntity
  8
0
100
AcDbLine
 62
7
  6
CONTINUOUS
 10
69.5517837716
 20
93.1562822499
 11
68.9496937716
 21
93.1562822499
  0
LINE
  5
36B
100
AcDbEntity
  8
0
100
AcDbLine
 62
7
  6
CONTINUOUS
 10
76.7213839905
 20
93.1706852499
 11
76.3207767716
 21
93.1706852499
  0
LINE
  5
36C
100
AcDbEntity
  8
0
100
AcDbLine
 62
7
  6
CONTINUOUS
 10
66.0059027296
 20
93.1708162499
 11
65.6772217716
 21
93.1708162499
  0
LINE
  5
36D
100
AcDbEntity
  8
0
100
AcDbLine
 62
7
  6
CONTINUOUS
 10
76.7419541997
 20
93.2824622499
 11
76.3207767716
 21
93.2824622499
  0
LINE
  5
36E
100
AcDbEntity
  8
0
100
AcDbLine
 62
7
  6
CONTINUOUS
 10
70.9573547716
 20
94.4622552499
 11
71.8557717716
 21
92.7993852499
  0
LINE
  5
36F
100
AcDbEntity
  8
0
100
AcDbLine
 62
7
  6
CONTINUOUS
 10
76.1030757691
 20
86.8122282499
 11
76.5014159943
 21
85.9014398778
  0
LINE
  5
370
100
AcDbEntity
  8
0
100
AcDbLine
 62
7
  6
CONTINUOUS
 10
73.7858147716
 20
92.8072172499
 11
73.9370737716
 21
92.3622362499
  0
LINE
  5
371
100
AcDbEntity
  8
0
100
AcDbLine
 62
7
  6
CONTINUOUS
 10
73.3816167716
 20
94.0608622499
 11
73.6723777716
 21
93.1562822499
  0
LINE
  5
372
100
AcDbEntity
  8
0
100
AcDbLine
 62
7
  6
CONTINUOUS
 10
74.9080550935
 20
86.8122282499
 11
75.3416645791
 21
85.3122282499
  0
LINE
  5
373
100
AcDbEntity
  8
0
100
AcDbLine
 62
7
  6
CONTINUOUS
 10
75.0532827641
 20
85.6918963218
 11
75.1590919759
 21
85.3122282499
  0
LINE
  5
374
100
AcDbEntity
  8
0
100
AcDbLine
 62
7
  6
CONTINUOUS
 10
74.7939467694
 20
86.6483278448
 11
75.0117893483
 21
85.8329751516
  0
LWPOLYLINE
  5
375
100
AcDbEntity
  8
0
100
AcDbPolyline
 62
7
  6
CONTINUOUS
 90
40
 70
0
 10
75.9983067716
 20
93.2344355198
 10
75.9988549198
 20
93.1557684231
 10
75.9963303353
 20
93.0795189342
 10
75.990733018
 20
93.0056870788
 10
75.9823487952
 20
92.9338367377
 10
75.9708918396
 20
92.8644040746
 10
75.9555046698
 20
92.798697546
 10
75.9360430188
 20
92.7369043423
 10
75.9126511535
 20
92.6788373279
 10
75.8849043929
 20
92.62524348
 10
75.8524603769
 20
92.5760585167
 10
75.8156614655
 20
92.5313467667
 10
75.775110058
 20
92.4920481273
 10
75.7306220946
 20
92.4585559164
 10
75.682381635
 20
92.4304768538
 10
75.6315432577
 20
92.4075709387
 10
75.5777975093
 20
92.3900686765
 10
75.5214538432
 20
92.3777395806
 10
75.4645951971
 20
92.369652156
 10
75.4075523334
 20
92.3654953115
 10
75.3499944897
 20
92.3655801427
 10
75.2930123175
 20
92.3699084319
 10
75.2362955206
 20
92.3781716273
 10
75.1801543952
 20
92.3906782763
 10
75.1266104801
 20
92.4083558056
 10
75.0759538117
 20
92.4314343167
 10
75.0278943538
 20
92.4596836893
 10
74.983583536
 20
92.4933410115
 10
74.9432044031
 20
92.5328034278
 10
74.9065739103
 20
92.5776737558
 10
74.8742943538
 20
92.6269975932
 10
74.8467085487
 20
92.6807289414
 10
74.8234736799
 20
92.7389137523
 10
74.804163598
 20
92.800735553
 10
74.7889308669
 20
92.8663664038
 10
74.7776229228
 20
92.935634191
 10
74.7693559252
 20
93.0072061916
 10
74.7638352608
 20
93.080638154
 10
74.7613555429
 20
93.1563742875
 10
74.7619167716
 20
93.2344145677
  0
LINE
  5
376
100
AcDbEntity
  8
0
100
AcDbLine
 62
7
  6
CONTINUOUS
 10
74.8910637716
 20
94.4617262499
 11
74.8910637716
 21
93.2344219256
  0
LINE
  5
377
100
AcDbEntity
  8
0
100
AcDbLine
 62
7
  6
CONTINUOUS
 10
75.0169756602
 20
82.5622282499
 11
75.0169756602
 21
84.5622282499
  0
LINE
  5
378
100
AcDbEntity
  8
0
100
AcDbLine
 62
7
  6
CONTINUOUS
 10
75.5304613377
 20
86.8122282499
 11
75.5304613377
 21
85.3122282499
  0
LINE
  5
379
100
AcDbEntity
  8
RACCORDO
100
AcDbLine
 62
250
  6
CONTINUOUS
 10
75.6032827716
 20
79.8122282499
 11
75.6032827716
 21
78.4397028514
  0
LINE
  5
37A
100
AcDbEntity
  8
0
100
AcDbLine
 62
7
  6
CONTINUOUS
 10
75.6090891688
 20
96.2636741178
 11
75.6090891688
 21
96.2489028599
  0
LINE
  5
37B
100
AcDbEntity
  8
RACCORDO
100
AcDbLine
 62
7
  6
CONTINUOUS
 10
75.7032827716
 20
82.4122282499
 11
75.7032827716
 21
83.6122282499
  0
LINE
  5
37C
100
AcDbEntity
  8
0
100
AcDbLine
 62
7
  6
CONTINUOUS
 10
75.7068097855
 20
86.8122282499
 11
75.7068097855
 21
85.4533070909
  0
LINE
  5
37D
100
AcDbEntity
  8
0
100
AcDbLine
 62
7
  6
CONTINUOUS
 10
75.8688307716
 20
94.4617262499
 11
75.8688307716
 21
93.2344219256
  0
LINE
  5
37E
100
AcDbEntity
  8
RACCORDO
100
AcDbLine
 62
7
  6
CONTINUOUS
 10
75.9032827716
 20
79.8122282499
 11
75.9032827716
 21
76.8122282499
  0
LINE
  5
37F
100
AcDbEntity
  8
0
100
AcDbLine
 62
7
  6
CONTINUOUS
 10
75.9150868897
 20
108.7122282499
 11
75.9150868897
 21
109.2721541575
  0
LINE
  5
380
100
AcDbEntity
  8
0
100
AcDbLine
 62
7
  6
CONTINUOUS
 10
75.9264242023
 20
109.4547345991
 11
75.9264242023
 21
110.3725546702
  0
LINE
  5
381
100
AcDbEntity
  8
0
100
AcDbLine
 62
7
  6
CONTINUOUS
 10
75.9983067716
 20
94.4617262499
 11
75.9983067716
 21
93.2344219256
  0
LINE
  5
382
100
AcDbEntity
  8
0
100
AcDbLine
 62
250
  6
CONTINUOUS
 10
76.1264165869
 20
109.2566809854
 11
76.1264165869
 21
110.3672282499
  0
LINE
  5
383
100
AcDbEntity
  8
0
100
AcDbLine
 62
7
  6
CONTINUOUS
 10
76.1777642037
 20
85.4533070909
 11
76.1777642037
 21
85.3122282499
  0
LINE
  5
384
100
AcDbEntity
  8
0
100
AcDbLine
 62
7
  6
CONTINUOUS
 10
76.1913007716
 20
94.4622262499
 11
76.1913007716
 21
92.3622012499
  0
LINE
  5
385
100
AcDbEntity
  8
RACCORDO
100
AcDbLine
 62
250
  6
CONTINUOUS
 10
76.2150754666
 20
108.7122282499
 11
76.2150754666
 21
109.1122282499
  0
LINE
  5
386
100
AcDbEntity
  8
0
100
AcDbLine
 62
7
  6
CONTINUOUS
 10
76.3207767716
 20
94.3504482499
 11
76.3207767716
 21
93.2824622499
  0
LINE
  5
387
100
AcDbEntity
  8
0
100
AcDbLine
 62
7
  6
CONTINUOUS
 10
76.3207767716
 20
93.1706852499
 11
76.3207767716
 21
92.3622012499
  0
LINE
  5
388
100
AcDbEntity
  8
RACCORDO
100
AcDbLine
 62
250
  6
CONTINUOUS
 10
76.3914900765
 20
109.1122282499
 11
76.3914900765
 21
108.7122282499
  0
LWPOLYLINE
  5
389
100
AcDbEntity
  8
0
100
AcDbPolyline
 62
7
  6
CONTINUOUS
 90
40
 70
0
 10
74.8910637716
 20
93.234406961
 10
74.8905319022
 20
93.1673577999
 10
74.892193154
 20
93.1024053731
 10
74.896047527
 20
93.039549699
 10
74.9018444662
 20
92.9785221528
 10
74.9098345267
 20
92.9195913918
 10
74.9207693726
 20
92.8635633613
 10
74.9346923055
 20
92.8105481356
 10
74.9515600239
 20
92.7604356772
 10
74.9719942876
 20
92.7137017694
 10
74.9961876079
 20
92.6701582929
 10
75.0239474736
 20
92.6299933985
 10
75.0553181101
 20
92.594247278
 10
75.0905830311
 20
92.5631398163
 10
75.1294587228
 20
92.5364511578
 10
75.17113887
 20
92.5145618851
 10
75.2161123297
 20
92.4978033388
 10
75.2638902447
 20
92.485844196
 10
75.3121997286
 20
92.4780710403
 10
75.3606844133
 20
92.4742568277
 10
75.4097006669
 20
92.4746286067
 10
75.458044707
 20
92.4792540966
 10
75.5060697896
 20
92.4879822037
 10
75.5534226588
 20
92.5009640167
 10
75.5978397644
 20
92.5187205249
 10
75.6388057222
 20
92.5416000867
 10
75.6768359164
 20
92.5692543254
 10
75.71121295
 20
92.6011591249
 10
75.741644199
 20
92.6374904898
 10
75.7684222875
 20
92.6780723869
 10
75.7917076894
 20
92.7218526468
 10
75.8113402074
 20
92.7686643823
 10
75.8274800389
 20
92.8186744505
 10
75.8407682502
 20
92.8713313031
 10
75.8511616731
 20
92.9267220246
 10
75.8587034757
 20
92.984759497
 10
75.8641642297
 20
93.0446308742
 10
75.8678007923
 20
93.1060652002
 10
75.8693563063
 20
93.169333403
 10
75.8688307716
 20
93.2344354666
  0
LWPOLYLINE
  5
38A
100
AcDbEntity
  8
RACCORDO
100
AcDbPolyline
 62
250
  6
CONTINUOUS
 90
58
 70
0
 10
75.7032827716
 20
76.8209472305
 10
75.6937936234
 20
76.5451390949
 10
75.668569414
 20
76.2744800534
 10
75.6276101432
 20
76.0089696989
 10
75.5706606855
 20
75.7484203438
 10
75.4979761665
 20
75.4930188393
 10
75.4103219633
 20
75.2433265002
 10
75.3075118933
 20
74.998636283
 10
75.1897321391
 20
74.7596542402
 10
75.0583066253
 20
74.5290609266
 10
74.9130993065
 20
74.3069834736
 10
74.7542462281
 20
74.0932930395
 10
74.5834794515
 20
73.8902856479
 10
74.4006672195
 20
73.6980706742
 10
74.2059412893
 20
73.5165366356
 10
74.0014289944
 20
73.3476478633
 10
73.7870258627
 20
73.1915424254
 10
73.5628363663
 20
73.0480800529
 10
73.3313012554
 20
72.9188073492
 10
73.0923453515
 20
72.803878489
 10
72.8460438331
 20
72.7031373504
 10
72.5950629856
 20
72.617665055
 10
72.3393544566
 20
72.5476246922
 10
72.0789665985
 20
72.4928517961
 10
71.8167107541
 20
72.4539362678
 10
71.5525635603
 20
72.4310478732
 10
71.2865483804
 20
72.4240162689
 10
71.0215466467
 20
72.4329213927
 10
70.7575800588
 20
72.4579308454
 10
70.4946269171
 20
72.4988773453
 10
70.2355035564
 20
72.5553387189
 10
69.9802002842
 20
72.6275078259
 10
69.728726793
 20
72.7151929714
 10
69.4839284937
 20
72.8173952921
 10
69.246010632
 20
72.9341820678
 10
69.0147679622
 20
73.0654878208
 10
68.7924301593
 20
73.2101145752
 10
68.5780442065
 20
73.3695741006
 10
68.3725631204
 20
73.5423569099
 10
68.1810756259
 20
73.7227326256
 10
68.0046477186
 20
73.9113480538
 10
67.8422134028
 20
74.1075578149
 10
67.6956634154
 20
74.3036919283
 10
67.5665097412
 20
74.4985106599
 10
67.4532403953
 20
74.6932534732
 10
67.3532101603
 20
74.8839679885
 10
67.2666851776
 20
75.0695865735
 10
67.1933993058
 20
75.2511758744
 10
67.1299089028
 20
75.427984493
 10
67.07593057
 20
75.599638674
 10
67.031747706
 20
75.7665112196
 10
66.9947668653
 20
75.9289705612
 10
66.9647033679
 20
76.0867992833
 10
66.9418418939
 20
76.2402140325
 10
66.9244430377
 20
76.3902344606
 10
66.9119269977
 20
76.537200306
 10
66.9048735757
 20
76.6807713132
 10
66.9032827716
 20
76.8209472305
  0
LINE
  5
38B
100
AcDbEntity
  8
RACCORDO
100
AcDbLine
 62
7
  6
CONTINUOUS
 10
76.7054789747
 20
108.7122282499
 11
76.7034813781
 21
108.6702764849
  0
LWPOLYLINE
  5
38C
100
AcDbEntity
  8
0
100
AcDbPolyline
 62
7
  6
CONTINUOUS
 90
16
 70
0
 10
75.4735079026
 20
96.8579552249
 10
75.4707665867
 20
96.8084059324
 10
75.4640272911
 20
96.7617451424
 10
75.4532900158
 20
96.7179728548
 10
75.4383218298
 20
96.6766882751
 10
75.4193556641
 20
96.6382921978
 10
75.3970903117
 20
96.6039870071
 10
75.371587636
 20
96.5742312179
 10
75.3427857737
 20
96.5485663154
 10
75.3111979279
 20
96.5268191384
 10
75.276847589
 20
96.50924896
 10
75.2397112667
 20
96.4955965073
 10
75.2002316937
 20
96.4849108001
 10
75.1585564475
 20
96.4768748453
 10
75.1145379506
 20
96.4718056362
 10
75.068176203
 20
96.4697031726
  0
LWPOLYLINE
  5
38D
100
AcDbEntity
  8
RACCORDO
100
AcDbPolyline
 62
250
  6
CONTINUOUS
 90
28
 70
0
 10
76.3914900765
 20
108.7122282499
 10
76.3908510351
 20
108.7018498278
 10
76.3890985482
 20
108.6918513874
 10
76.386232616
 20
108.6822329286
 10
76.3821858795
 20
108.6728688666
 10
76.3770256975
 20
108.6638847862
 10
76.3709541471
 20
108.6556574422
 10
76.3639328964
 20
108.6482222609
 10
76.3560002772
 20
108.6415438159
 10
76.3474733613
 20
108.6358925829
 10
76.3383287703
 20
108.6313116874
 10
76.3285898826
 20
108.6277580039
 10
76.3186439048
 20
108.6253726319
 10
76.3084819919
 20
108.6242025703
 10
76.2981129889
 20
108.6242008202
 10
76.2879506374
 20
108.6253674838
 10
76.2780037099
 20
108.6277496322
 10
76.2682634338
 20
108.6313001943
 10
76.2591172334
 20
108.6358780591
 10
76.2505886965
 20
108.641525969
 10
76.2426542353
 20
108.6482011816
 10
76.2356305108
 20
108.6556343587
 10
76.2295553541
 20
108.6638610446
 10
76.2243909342
 20
108.672845695
 10
76.2203404187
 20
108.6822123379
 10
76.2174715302
 20
108.6918356494
 10
76.2157165462
 20
108.7018409534
 10
76.2150754666
 20
108.7122282499
  0
LINE
  5
38E
100
AcDbEntity
  8
0
100
AcDbLine
 62
250
  6
CONTINUOUS
 10
76.1264165869
 20
109.2566809854
 11
76.1173038703
 21
109.1099262928
  0
LINE
  5
38F
100
AcDbEntity
  8
0
100
AcDbLine
 62
7
  6
CONTINUOUS
 10
74.7939467694
 20
86.6483278448
 11
74.5761049058
 21
85.8329751516
  0
LINE
  5
390
100
AcDbEntity
  8
0
100
AcDbLine
 62
7
  6
CONTINUOUS
 10
74.5325358178
 20
85.6918963218
 11
74.4267273213
 21
85.3122282499
  0
LINE
  5
391
100
AcDbEntity
  8
0
100
AcDbLine
 62
7
  6
CONTINUOUS
 10
74.6902125146
 20
86.8122282499
 11
74.2503781583
 21
85.3122282499
  0
LWPOLYLINE
  5
392
100
AcDbEntity
  8
0
100
AcDbPolyline
 62
7
  6
CONTINUOUS
 90
10
 70
0
 10
72.0207348096
 20
83.704926947
 10
72.0289882345
 20
83.7188973689
 10
72.0370604214
 20
83.7331676416
 10
72.0449513703
 20
83.7477377651
 10
72.0526378914
 20
83.7626344958
 10
72.0601431745
 20
83.7778310772
 10
72.0675367884
 20
83.7932472404
 10
72.0748419226
 20
83.8088562288
 10
72.0820353876
 20
83.8246847988
 10
72.0891171833
 20
83.8407329506
  0
LINE
  5
393
100
AcDbEntity
  8
0
100
AcDbLine
 62
7
  6
CONTINUOUS
 10
71.9436700534
 20
83.5774426931
 11
71.9949616729
 21
83.662631812
  0
LINE
  5
394
100
AcDbEntity
  8
0
100
AcDbLine
 62
7
  6
CONTINUOUS
 10
71.9949616729
 20
83.662631812
 11
72.0207348096
 21
83.704926947
  0
LINE
  5
395
100
AcDbEntity
  8
0
100
AcDbLine
 62
7
  6
CONTINUOUS
 10
71.8081238459
 20
83.7849115605
 11
71.1691196154
 21
82.764164629
  0
LINE
  5
396
100
AcDbEntity
  8
0
100
AcDbLine
 62
7
  6
CONTINUOUS
 10
71.4097836207
 20
82.7365021134
 11
71.9436700534
 21
83.5774426931
  0
LWPOLYLINE
  5
397
100
AcDbEntity
  8
0
100
AcDbPolyline
 62
7
  6
CONTINUOUS
 90
7
 70
0
 10
71.5010699223
 20
84.3630580181
 10
71.4995289675
 20
84.3615038247
 10
71.4980002822
 20
84.3599354149
 10
71.4964838664
 20
84.3583527887
 10
71.4949797201
 20
84.356755946
 10
71.4934878433
 20
84.3551448869
 10
71.492008236
 20
84.3535196114
  0
LWPOLYLINE
  5
398
100
AcDbEntity
  8
0
100
AcDbPolyline
 62
7
  6
CONTINUOUS
 90
7
 70
0
 10
72.7735455226
 20
84.3990194077
 10
72.8042509656
 20
84.4251171953
 10
72.8335548289
 20
84.4516564549
 10
72.8614571124
 20
84.4786371882
 10
72.887957816
 20
84.5060593971
 10
72.9130569399
 20
84.5339230837
 10
72.936754484
 20
84.5622282499
  0
LWPOLYLINE
  5
399
100
AcDbEntity
  8
0
100
AcDbPolyline
 62
7
  6
CONTINUOUS
 90
3
 70
0
 10
72.7455693504
 20
84.3759374442
 10
72.7548745713
 20
84.3835576395
 10
72.7735455226
 20
84.3990194077
  0
LWPOLYLINE
  5
39A
100
AcDbEntity
  8
0
100
AcDbPolyline
 62
7
  6
CONTINUOUS
 90
7
 70
0
 10
70.2866852916
 20
84.3768893375
 10
70.2822164819
 20
84.3733191421
 10
70.2778660663
 20
84.3696190429
 10
70.2736340446
 20
84.3657890402
 10
70.2695204171
 20
84.361829134
 10
70.2655251835
 20
84.3577393243
 10
70.261648344
 20
84.3535196114
  0
LWPOLYLINE
  5
39B
100
AcDbEntity
  8
0
100
AcDbPolyline
 62
7
  6
CONTINUOUS
 90
16
 70
0
 10
71.3413055264
 20
84.4922292708
 10
71.3625769564
 20
84.5079344475
 10
71.3842907047
 20
84.5222331575
 10
71.4064467716
 20
84.5351253972
 10
71.4291407484
 20
84.5465496942
 10
71.4522770437
 20
84.5565675146
 10
71.4755688829
 20
84.565363264
 10
71.4989421622
 20
84.5729181536
 10
71.5224709854
 20
84.5792509684
 10
71.5460908901
 20
84.5846024756
 10
71.5697959142
 20
84.5889935197
 10
71.5935920198
 20
84.5924032545
 10
71.6174326298
 20
84.5950099109
 10
71.6413022186
 20
84.5968728994
 10
71.6652163118
 20
84.5979328089
 10
71.6891749095
 20
84.5981896395
  0
LWPOLYLINE
  5
39C
100
AcDbEntity
  8
0
100
AcDbPolyline
 62
7
  6
CONTINUOUS
 90
16
 70
0
 10
70.1677365492
 20
84.5345657343
 10
70.1846032558
 20
84.5437068592
 10
70.201633701
 20
84.5520023204
 10
70.218827885
 20
84.5594521167
 10
70.236226115
 20
84.5660078898
 10
70.2537880837
 20
84.5717179957
 10
70.271392869
 20
84.5767275058
 10
70.2890107926
 20
84.5810383979
 10
70.3066715328
 20
84.584648693
 10
70.3243432033
 20
84.5876975265
 10
70.3420154962
 20
84.5901962706
 10
70.3596987195
 20
84.5921335527
 10
70.3773919106
 20
84.5936143917
 10
70.3950947487
 20
84.5946737939
 10
70.4128075547
 20
84.595276753
 10
70.4305303286
 20
84.5954232687
  0
LWPOLYLINE
  5
39D
100
AcDbEntity
  8
0
100
AcDbPolyline
 62
7
  6
CONTINUOUS
 90
15
 70
0
 10
68.8727851177
 20
85.3412738945
 10
68.8589304093
 20
85.3367296689
 10
68.8449752814
 20
85.3326406409
 10
68.830919734
 20
85.3290068103
 10
68.8167605361
 20
85.3258657743
 10
68.8025009186
 20
85.3231799352
 10
68.7881505748
 20
85.3208365002
 10
68.7737094738
 20
85.3188235899
 10
68.7591776464
 20
85.3171530835
 10
68.7445648781
 20
85.3157478263
 10
68.7298842522
 20
85.3146007649
 10
68.7151226854
 20
85.3137189525
 10
68.7002507129
 20
85.3130463944
 10
68.6852585131
 20
85.3125644254
 10
68.6701559077
 20
85.3122917106
  0
LWPOLYLINE
  5
39E
100
AcDbEntity
  8
0
100
AcDbPolyline
 62
7
  6
CONTINUOUS
 90
7
 70
0
 10
75.6090891688
 20
96.2636741178
 10
75.6231210091
 20
96.2674315616
 10
75.6369773486
 20
96.2727709971
 10
75.6506581874
 20
96.2796924243
 10
75.6640677504
 20
96.2885411109
 10
75.6773018125
 20
96.2989717891
 10
75.7042101253
 20
96.3211339363
  0
LWPOLYLINE
  5
39F
100
AcDbEntity
  8
0
100
AcDbPolyline
 62
7
  6
CONTINUOUS
 90
43
 70
0
 10
65.9307401675
 20
93.5190232144
 10
65.9645693768
 20
93.5198633524
 10
65.997177928
 20
93.5225253155
 10
66.0285658211
 20
93.5270091032
 10
66.058975385
 20
93.5330615583
 10
66.0881642907
 20
93.5409358356
 10
66.115405552
 20
93.5513914007
 10
66.1407295619
 20
93.5647032426
 10
66.1641059272
 20
93.5805963643
 10
66.1847164821
 20
93.5990052495
 10
66.2022439006
 20
93.6201447568
 10
66.2170055085
 20
93.6438000143
 10
66.2291351171
 20
93.6692609115
 10
66.238487078
 20
93.6965123704
 10
66.2452070396
 20
93.7255694562
 10
66.2498657585
 20
93.7557672767
 10
66.2527394063
 20
93.7871456287
 10
66.2535518113
 20
93.8196647054
 10
66.2520452156
 20
93.8525402145
 10
66.248595966
 20
93.8861840195
 10
66.2428277155
 20
93.9201842516
 10
66.2333536657
 20
93.9525210324
 10
66.2194815273
 20
93.983278355
 10
66.2019035895
 20
94.01237224
 10
66.1813099216
 20
94.0375308689
 10
66.157069225
 20
94.0577676514
 10
66.1298127983
 20
94.0740692052
 10
66.1021246074
 20
94.0871235277
 10
66.0747399815
 20
94.0965937272
 10
66.0469235914
 20
94.1028167064
 10
66.0190534148
 20
94.1074911496
 10
65.991297601
 20
94.1109034732
 10
65.9634880007
 20
94.1127672626
 10
65.9354981444
 20
94.1139219526
 10
65.9072777067
 20
94.1144768406
 10
65.878877013
 20
94.1143226294
 10
65.8503205692
 20
94.1139708629
 10
65.8215624103
 20
94.1134260279
 10
65.7926485013
 20
94.1126836376
 10
65.7637412428
 20
94.1122417748
 10
65.7348947685
 20
94.1122664672
 10
65.7060549448
 20
94.1125916871
 10
65.6772217716
 20
94.1132174345
  0
LINE
  5
3A0
100
AcDbEntity
  8
0
100
AcDbLine
 62
7
  6
CONTINUOUS
 10
65.6772217716
 20
93.5198537177
 11
65.7604622297
 21
93.5201714083
  0
LINE
  5
3A1
100
AcDbEntity
  8
0
100
AcDbLine
 62
7
  6
CONTINUOUS
 10
76.7595747185
 20
94.3504482499
 11
76.3207767716
 21
94.3504482499
  0
LINE
  5
3A2
100
AcDbEntity
  8
0
100
AcDbLine
 62
7
  6
CONTINUOUS
 10
75.9983067716
 20
94.4617262499
 11
75.8688307716
 21
94.4617262499
  0
LINE
  5
3A3
100
AcDbEntity
  8
0
100
AcDbLine
 62
7
  6
CONTINUOUS
 10
74.8910637716
 20
94.4617262499
 11
74.7619167716
 21
94.4617262499
  0
LINE
  5
3A4
100
AcDbEntity
  8
0
100
AcDbLine
 62
7
  6
CONTINUOUS
 10
76.7684237896
 20
94.4622262499
 11
76.1913007716
 21
94.4622262499
  0
LINE
  5
3A5
100
AcDbEntity
  8
0
100
AcDbLine
 62
7
  6
CONTINUOUS
 10
73.6607337716
 20
94.4622552499
 11
73.1255617716
 21
94.4622552499
  0
LINE
  5
3A6
100
AcDbEntity
  8
0
100
AcDbLine
 62
7
  6
CONTINUOUS
 10
72.2775347716
 20
94.4622552499
 11
71.8557717716
 21
94.4622552499
  0
LINE
  5
3A7
100
AcDbEntity
  8
0
100
AcDbLine
 62
7
  6
CONTINUOUS
 10
70.9573547716
 20
94.4622552499
 11
70.3810887716
 21
94.4622552499
  0
LINE
  5
3A8
100
AcDbEntity
  8
0
100
AcDbLine
 62
7
  6
CONTINUOUS
 10
69.5401397716
 20
94.4622552499
 11
69.0049537716
 21
94.4622552499
  0
LINE
  5
3A9
100
AcDbEntity
  8
0
100
AcDbLine
 62
7
  6
CONTINUOUS
 10
67.2916437716
 20
94.4622552499
 11
66.8407987716
 21
94.4622552499
  0
LINE
  5
3AA
100
AcDbEntity
  8
0
100
AcDbLine
 62
7
  6
CONTINUOUS
 10
65.874953818
 20
94.4622552499
 11
65.2263917716
 21
94.4622552499
  0
LINE
  5
3AB
100
AcDbEntity
  8
0
100
AcDbLine
 62
7
  6
CONTINUOUS
 10
65.7604622297
 20
93.5201714083
 11
65.8449683616
 21
93.5198945739
  0
LWPOLYLINE
  5
3AC
100
AcDbEntity
  8
0
100
AcDbPolyline
 62
7
  6
CONTINUOUS
 90
31
 70
0
 10
65.874953818
 20
94.4622552499
 10
65.9154912466
 20
94.4618849287
 10
65.9558754454
 20
94.460757556
 10
65.9961064146
 20
94.4588731317
 10
66.0361783037
 20
94.4563236862
 10
66.0760969631
 20
94.4530171886
 10
66.1158799441
 20
94.4486775466
 10
66.1555526449
 20
94.4433407588
 10
66.1950896673
 20
94.4369708249
 10
66.2344323683
 20
94.4291836537
 10
66.2736918227
 20
94.4200289696
 10
66.3127569557
 20
94.4094570444
 10
66.3512358999
 20
94.3969346063
 10
66.3892391879
 20
94.3824501759
 10
66.426656287
 20
94.3660152243
 10
66.4627637314
 20
94.3471309025
 10
66.4976902366
 20
94.3255766106
 10
66.5313070872
 20
94.301572933
 10
66.5625046706
 20
94.2752827951
 10
66.5910537655
 20
94.2465391375
 10
66.6171835933
 20
94.2155090008
 10
66.6404722057
 20
94.1828564628
 10
66.6606569145
 20
94.1487938064
 10
66.6780004079
 20
94.1131087344
 10
66.6928688017
 20
94.0758284574
 10
66.7053016812
 20
94.0370422578
 10
66.7152594611
 20
93.9966608374
 10
66.7229895005
 20
93.9544435346
 10
66.7285742524
 20
93.9103101216
 10
66.7319312639
 20
93.8643408056
 10
66.733060535
 20
93.8165355761
  0
LINE
  5
3AD
100
AcDbEntity
  8
0
100
AcDbLine
 62
7
  6
CONTINUOUS
 10
65.8449683616
 20
93.5198945739
 11
65.9307401675
 21
93.5190232144
  0
LWPOLYLINE
  5
3AE
100
AcDbEntity
  8
0
100
AcDbPolyline
 62
7
  6
CONTINUOUS
 90
25
 70
0
 10
76.7684207218
 20
94.4622262499
 10
76.8135479751
 20
94.460358349
 10
76.8576198114
 20
94.4557995794
 10
76.9006362306
 20
94.4485499391
 10
76.9427071556
 20
94.4385394452
 10
76.9837226635
 20
94.4258380734
 10
77.0233529858
 20
94.4106557584
 10
77.0616948461
 20
94.3930216645
 10
77.0986515207
 20
94.3729066148
 10
77.1336030703
 20
94.3504330314
 10
77.1664439223
 20
94.3255076518
 10
77.1972796493
 20
94.2982237213
 10
77.2258070299
 20
94.2689834241
 10
77.2519911839
 20
94.2377833526
 10
77.2758669914
 20
94.2046268972
 10
77.2972358719
 20
94.1699264421
 10
77.3160283733
 20
94.1335910768
 10
77.3323139476
 20
94.0957116964
 10
77.3461023704
 20
94.0569733988
 10
77.3572575754
 20
94.0172887032
 10
77.3659156289
 20
93.9767450816
 10
77.3724945055
 20
93.9362900702
 10
77.3771335302
 20
93.8962395173
 10
77.379693378
 20
93.8562775781
 10
77.380174049
 20
93.8164042539
  0
LINE
  5
3AF
100
AcDbEntity
  8
0
100
AcDbLine
 62
7
  6
CONTINUOUS
 10
76.2980959679
 20
86.8122282499
 11
76.6010010506
 21
86.069489705
  0
LINE
  5
3B0
100
AcDbEntity
  8
0
100
AcDbLine
 62
7
  6
CONTINUOUS
 10
73.6607337716
 20
94.4622552499
 11
74.3908217716
 21
92.3622362499
  0
LINE
  5
3B1
100
AcDbEntity
  8
0
100
AcDbLine
 62
7
  6
CONTINUOUS
 10
73.3473807716
 20
97.5817842499
 11
74.1143617716
 21
95.0820482499
  0
LINE
  5
3B2
100
AcDbEntity
  8
0
100
AcDbLine
 62
7
  6
CONTINUOUS
 10
73.5644137716
 20
95.0820482499
 11
73.4292417716
 21
95.5810842499
  0
LINE
  5
3B3
100
AcDbEntity
  8
0
100
AcDbLine
 62
7
  6
CONTINUOUS
 10
73.3249617716
 20
95.9672362499
 11
73.0851907716
 21
96.8949202499
  0
LWPOLYLINE
  5
3B4
100
AcDbEntity
  8
0
100
AcDbPolyline
 62
250
  6
CONTINUOUS
 90
13
 70
0
 10
75.9264242023
 20
109.4547345991
 10
75.9281798206
 20
109.42878704
 10
75.9333518341
 20
109.4032902021
 10
75.9418497354
 20
109.3786832245
 10
75.9535254319
 20
109.3553902248
 10
75.9681767556
 20
109.3338111023
 10
75.9855517682
 20
109.3143151748
 10
76.0053880657
 20
109.2972096977
 10
76.0273140242
 20
109.2828263895
 10
76.0508228219
 20
109.2714649943
 10
76.075444359
 20
109.2632829811
 10
76.1007865478
 20
109.258344931
 10
76.1264165869
 20
109.2566809854
  0
LINE
  5
3B5
100
AcDbEntity
  8
0
100
AcDbLine
 62
250
  6
CONTINUOUS
 10
76.4892616729
 20
109.1099262928
 11
76.4801489563
 21
109.2566809854
  0
LINE
  5
3B6
100
AcDbEntity
  8
0
100
AcDbLine
 62
250
  6
CONTINUOUS
 10
76.6914786535
 20
109.2721541575
 11
76.6801413409
 21
109.4547345991
  0
LINE
  5
3B7
100
AcDbEntity
  8
0
100
AcDbLine
 62
250
  6
CONTINUOUS
 10
76.4801489563
 20
110.3672282499
 11
76.4801489563
 21
109.2566809854
  0
LINE
  5
3B8
100
AcDbEntity
  8
0
100
AcDbLine
 62
7
  6
CONTINUOUS
 10
76.5014159943
 20
85.9014398778
 11
76.5014159943
 21
85.3122282499
  0
LINE
  5
3B9
100
AcDbEntity
  8
RACCORDO
100
AcDbLine
 62
7
  6
CONTINUOUS
 10
76.5032827716
 20
96.1122282499
 11
76.5032827716
 21
97.7122282499
  0
LINE
  5
3BA
100
AcDbEntity
  8
0
100
AcDbLine
 62
7
  6
CONTINUOUS
 10
76.6777644421
 20
85.9014398778
 11
76.6777644421
 21
85.3122282499
  0
LINE
  5
3BB
100
AcDbEntity
  8
0
100
AcDbLine
 62
7
  6
CONTINUOUS
 10
76.6801413409
 20
110.3725546702
 11
76.6801413409
 21
109.4547345991
  0
LINE
  5
3BC
100
AcDbEntity
  8
0
100
AcDbLine
 62
7
  6
CONTINUOUS
 10
76.6914786535
 20
109.2721541575
 11
76.6914786535
 21
108.7122282499
  0
LINE
  5
3BD
100
AcDbEntity
  8
RACCORDO
100
AcDbLine
 62
250
  6
CONTINUOUS
 10
76.9032827716
 20
80.8122282499
 11
76.9032827741
 21
81.1122282493
  0
LINE
  5
3BE
100
AcDbEntity
  8
RACCORDO
100
AcDbLine
 62
7
  6
CONTINUOUS
 10
77.5532827716
 20
86.9122282499
 11
77.5532827716
 21
85.1122282499
  0
LINE
  5
3BF
100
AcDbEntity
  8
0
100
AcDbLine
 62
7
  6
CONTINUOUS
 10
77.7032827716
 20
110.4372282499
 11
77.7032827716
 21
109.7622282499
  0
LINE
  5
3C0
100
AcDbEntity
  8
0
100
AcDbLine
 62
7
  6
CONTINUOUS
 10
77.7032827716
 20
69.1872282499
 11
77.7032827716
 21
69.8622282499
  0
LINE
  5
3C1
100
AcDbEntity
  8
RACCORDO
100
AcDbLine
 62
7
  6
CONTINUOUS
 10
77.9032827716
 20
94.6155652952
 11
77.9032827716
 21
92.3122282499
  0
LWPOLYLINE
  5
3C2
100
AcDbEntity
  8
0
100
AcDbPolyline
 62
7
  6
CONTINUOUS
 90
25
 70
0
 10
77.380174049
 20
93.8164042539
 10
77.379385949
 20
93.7747613104
 10
77.3761305365
 20
93.7331546215
 10
77.3704078114
 20
93.6915841882
 10
77.3622838695
 20
93.649722454
 10
77.3516926149
 20
93.6078969762
 10
77.3384357607
 20
93.5670904317
 10
77.3223919206
 20
93.5273848073
 10
77.3036824809
 20
93.4886981284
 10
77.2824733132
 20
93.4517671388
 10
77.2587626409
 20
93.4166848293
 10
77.2325522405
 20
93.383358226
 10
77.2040133136
 20
93.3522451295
 10
77.173048503
 20
93.3234132368
 10
77.1397551658
 20
93.2967948676
 10
77.1045965748
 20
93.2726447585
 10
77.0675671009
 20
93.2509900848
 10
77.0286723731
 20
93.2318036847
 10
76.9883925511
 20
93.2152587893
 10
76.9467839596
 20
93.2014547172
 10
76.9037902738
 20
93.1902921591
 10
76.8597226793
 20
93.1816464028
 10
76.8146849044
 20
93.1754758788
 10
76.7685732207
 20
93.1718221608
 10
76.7213876282
 20
93.1706852499
  0
LWPOLYLINE
  5
3C3
100
AcDbEntity
  8
0
100
AcDbPolyline
 62
7
  6
CONTINUOUS
 90
9
 70
0
 10
78.6248277102
 20
109.8457062629
 10
78.6010087204
 20
109.4217332658
 10
78.5702648503
 20
108.7382581628
 10
78.5470638519
 20
108.0378715727
 10
78.5305532428
 20
107.3203242732
 10
78.5181755749
 20
106.5848758075
 10
78.5090783658
 20
105.8312773057
 10
78.504114098
 20
105.0597718781
 10
78.5032827716
 20
102.8122282499
  0
LINE
  5
3C4
100
AcDbEntity
  8
0
100
AcDbLine
 62
7
  6
CONTINUOUS
 10
76.9039054181
 20
86.8122282499
 11
76.6010010506
 21
86.069489705
  0
LINE
  5
3C5
100
AcDbEntity
  8
0
100
AcDbLine
 62
7
  6
CONTINUOUS
 10
77.0885529782
 20
86.8122282499
 11
76.6777644421
 21
85.9014398778
  0
LWPOLYLINE
  5
3C6
100
AcDbEntity
  8
0
100
AcDbPolyline
 62
7
  6
CONTINUOUS
 90
7
 70
0
 10
74.6490643214
 20
84.3990194077
 10
74.6797697644
 20
84.4251171953
 10
74.7090736277
 20
84.4516564549
 10
74.7369759112
 20
84.4786371882
 10
74.7634766149
 20
84.5060593971
 10
74.7885757388
 20
84.5339230837
 10
74.8122732829
 20
84.5622282499
  0
LINE
  5
3C7
100
AcDbEntity
  8
0
100
AcDbLine
 62
7
  6
CONTINUOUS
 10
74.6303933487
 20
84.3835576324
 11
74.6490643214
 21
84.3990194077
  0
LWPOLYLINE
  5
3C8
100
AcDbEntity
  8
0
100
AcDbPolyline
 62
7
  6
CONTINUOUS
 90
10
 70
0
 10
72.7598523203
 20
84.1443501386
 10
72.7769580985
 20
84.1582633173
 10
72.794000743
 20
84.1725648735
 10
72.8109802537
 20
84.1872548072
 10
72.8278845257
 20
84.2023595441
 10
72.8447256641
 20
84.2178526585
 10
72.8615399831
 20
84.2336548732
 10
72.8783395877
 20
84.2497397625
 10
72.8951123731
 20
84.2661337521
 10
72.9118583392
 20
84.282836842
  0
LWPOLYLINE
  5
3C9
100
AcDbEntity
  8
0
100
AcDbPolyline
 62
7
  6
CONTINUOUS
 90
10
 70
0
 10
74.635371025
 20
84.1443502587
 10
74.6524767679
 20
84.1582634372
 10
74.6695193795
 20
84.1725649845
 10
74.68649886
 20
84.1872549005
 10
74.7034031102
 20
84.2023596038
 10
74.7202442292
 20
84.2178526758
 10
74.7370585141
 20
84.2336548612
 10
74.7538580639
 20
84.2497397414
 10
74.7706307796
 20
84.266133735
 10
74.7873766612
 20
84.282836842
  0
LINE
  5
3CA
100
AcDbEntity
  8
0
100
AcDbLine
 62
7
  6
CONTINUOUS
 10
74.611803045
 20
84.3683910339
 11
74.6303933487
 21
84.3835576324
  0
LWPOLYLINE
  5
3CB
100
AcDbEntity
  8
0
100
AcDbPolyline
 62
7
  6
CONTINUOUS
 90
3
 70
0
 10
72.7177747067
 20
84.3535196114
 10
72.7270194181
 20
84.3609184302
 10
72.7455693504
 20
84.3759374442
  0
LINE
  5
3CC
100
AcDbEntity
  8
0
100
AcDbLine
 62
7
  6
CONTINUOUS
 10
74.5932934103
 20
84.3535196114
 11
74.611803045
 21
84.3683910339
  0
LWPOLYLINE
  5
3CD
100
AcDbEntity
  8
0
100
AcDbPolyline
 62
7
  6
CONTINUOUS
 90
10
 70
0
 10
72.7177747067
 20
84.3535196114
 10
72.7036778446
 20
84.342349463
 10
72.6895892675
 20
84.3313845105
 10
72.6755089753
 20
84.320624754
 10
72.6614454143
 20
84.3100579159
 10
72.6473901382
 20
84.2996962738
 10
72.6333178084
 20
84.2895766607
 10
72.6192199786
 20
84.2797113545
 10
72.605105095
 20
84.2700880774
 10
72.5909731578
 20
84.2607068295
  0
LWPOLYLINE
  5
3CE
100
AcDbEntity
  8
0
100
AcDbPolyline
 62
7
  6
CONTINUOUS
 90
10
 70
0
 10
74.5932934103
 20
84.3535196114
 10
74.5791965068
 20
84.3423494704
 10
74.5651078872
 20
84.3313845246
 10
74.5510275516
 20
84.3206247739
 10
74.5369639454
 20
84.3100579419
 10
74.5229086231
 20
84.2996963051
 10
74.508836249
 20
84.2895766925
 10
74.4947383777
 20
84.2797113806
 10
74.4806234547
 20
84.2700880929
 10
74.4664914797
 20
84.2607068295
  0
LWPOLYLINE
  5
3CF
100
AcDbEntity
  8
0
100
AcDbPolyline
 62
7
  6
CONTINUOUS
 90
10
 70
0
 10
70.5683095971
 20
82.7454806744
 10
70.5561056162
 20
82.736580907
 10
70.543000587
 20
82.7287314971
 10
70.5289945095
 20
82.7219324448
 10
70.5140233776
 20
82.716179622
 10
70.4981511974
 20
82.7114771567
 10
70.4815699873
 20
82.7078374329
 10
70.4643437534
 20
82.7052645786
 10
70.4464084898
 20
82.7037544658
 10
70.4277641963
 20
82.7033070946
  0
LWPOLYLINE
  5
3D0
100
AcDbEntity
  8
0
100
AcDbPolyline
 62
7
  6
CONTINUOUS
 90
10
 70
0
 10
70.6933243458
 20
82.59265702
 10
70.7152346234
 20
82.6074509443
 10
70.7357531315
 20
82.6233834374
 10
70.7548798701
 20
82.6404544991
 10
70.7725300695
 20
82.6585564882
 10
70.7887884994
 20
82.6777970459
 10
70.8039094692
 20
82.6984990969
 10
70.8179777489
 20
82.7207702825
 10
70.8309085685
 20
82.7445029613
 10
70.8427019282
 20
82.7696971333
  0
LWPOLYLINE
  5
3D1
100
AcDbEntity
  8
0
100
AcDbPolyline
 62
7
  6
CONTINUOUS
 90
10
 70
0
 10
72.5909731578
 20
84.0255754465
 10
72.6106471389
 20
84.0379312935
 10
72.6300487387
 20
84.0504662204
 10
72.6491779572
 20
84.0631802271
 10
72.667974829
 20
84.0760316398
 10
72.6864993194
 20
84.0890621323
 10
72.7049313242
 20
84.1023967263
 10
72.7233308085
 20
84.1160770956
 10
72.7416378072
 20
84.1300615664
 10
72.7598523203
 20
84.1443501386
  0
LWPOLYLINE
  5
3D2
100
AcDbEntity
  8
0
100
AcDbPolyline
 62
7
  6
CONTINUOUS
 90
10
 70
0
 10
74.4664914797
 20
84.0255754465
 10
74.4861655002
 20
84.037931227
 10
74.5055671349
 20
84.0504661036
 10
74.5246963838
 20
84.0631800762
 10
74.5434932746
 20
84.076031466
 10
74.5620177797
 20
84.0890619518
 10
74.5804498155
 20
84.1023965703
 10
74.5988493545
 20
84.1160770004
 10
74.6171564243
 20
84.1300615632
 10
74.635371025
 20
84.1443502587
  0
LWPOLYLINE
  5
3D3
100
AcDbEntity
  8
0
100
AcDbPolyline
 62
7
  6
CONTINUOUS
 90
10
 70
0
 10
74.7699767484
 20
97.155929325
 10
74.8165232418
 20
97.1636382384
 10
74.86272812
 20
97.1698271244
 10
74.9085913829
 20
97.174495983
 10
74.9540336175
 20
97.1776426911
 10
74.9991342368
 20
97.1792693718
 10
75.0441314799
 20
97.1793823945
 10
75.0891047598
 20
97.1779838825
 10
75.1339746635
 20
97.1750717126
 10
75.1787411909
 20
97.1706458848
  0
LINE
  5
3D4
100
AcDbEntity
  8
0
100
AcDbLine
 62
7
  6
CONTINUOUS
 10
76.0882365322
 20
95.0820484693
 11
75.586332434
 21
95.0820484693
  0
LINE
  5
3D5
100
AcDbEntity
  8
0
100
AcDbLine
 62
7
  6
CONTINUOUS
 10
74.7872786152
 20
95.0820484693
 11
74.2675852736
 21
95.0820484693
  0
LINE
  5
3D6
100
AcDbEntity
  8
0
100
AcDbLine
 62
7
  6
CONTINUOUS
 10
74.1143617716
 20
95.0820482499
 11
73.5644137716
 21
95.0820482499
  0
LINE
  5
3D7
100
AcDbEntity
  8
0
100
AcDbLine
 62
7
  6
CONTINUOUS
 10
72.5746637716
 20
95.0820482499
 11
72.0585327716
 21
95.0820482499
  0
LINE
  5
3D8
100
AcDbEntity
  8
0
100
AcDbLine
 62
7
  6
CONTINUOUS
 10
71.9765967716
 20
95.0820482499
 11
71.4661447716
 21
95.0820482499
  0
LINE
  5
3D9
100
AcDbEntity
  8
0
100
AcDbLine
 62
7
  6
CONTINUOUS
 10
70.7385297716
 20
95.0820482499
 11
70.6653477716
 21
95.0820482499
  0
LINE
  5
3DA
100
AcDbEntity
  8
0
100
AcDbLine
 62
7
  6
CONTINUOUS
 10
69.9406187716
 20
95.0820482499
 11
69.4414327716
 21
95.0820482499
  0
LINE
  5
3DB
100
AcDbEntity
  8
0
100
AcDbLine
 62
7
  6
CONTINUOUS
 10
69.1605357716
 20
95.0820482499
 11
68.6387427716
 21
95.0820482499
  0
LINE
  5
3DC
100
AcDbEntity
  8
0
100
AcDbLine
 62
7
  6
CONTINUOUS
 10
67.6415887716
 20
95.0820482499
 11
67.1817587716
 21
95.0820482499
  0
LINE
  5
3DD
100
AcDbEntity
  8
0
100
AcDbLine
 62
7
  6
CONTINUOUS
 10
73.4292417716
 20
95.5810842499
 11
72.7186467716
 21
95.5810842499
  0
LINE
  5
3DE
100
AcDbEntity
  8
0
100
AcDbLine
 62
7
  6
CONTINUOUS
 10
72.8253817716
 20
95.9672362499
 11
73.3249617716
 21
95.9672362499
  0
LINE
  5
3DF
100
AcDbEntity
  8
0
100
AcDbLine
 62
7
  6
CONTINUOUS
 10
75.0670514879
 20
96.0603068885
 11
74.7872786152
 21
96.0603068885
  0
LINE
  5
3E0
100
AcDbEntity
  8
0
100
AcDbLine
 62
7
  6
CONTINUOUS
 10
74.7699767484
 20
96.4697031726
 11
75.068176203
 21
96.4697031726
  0
LWPOLYLINE
  5
3E1
100
AcDbEntity
  8
0
100
AcDbPolyline
 62
7
  6
CONTINUOUS
 90
13
 70
0
 10
75.0670514879
 20
96.0603068885
 10
75.100298362
 20
96.0583718653
 10
75.1318266668
 20
96.0534331065
 10
75.1616364022
 20
96.0454906122
 10
75.1896248292
 20
96.0345412187
 10
75.2158946868
 20
96.0205880896
 10
75.240754192
 20
96.0036407165
 10
75.2644099423
 20
95.983661103
 10
75.2866553402
 20
95.9606872453
 10
75.3071788102
 20
95.9348426241
 10
75.3258764938
 20
95.9061683996
 10
75.3428522495
 20
95.8746234115
 10
75.3581060774
 20
95.8402076598
  0
LWPOLYLINE
  5
3E2
100
AcDbEntity
  8
0
100
AcDbPolyline
 62
7
  6
CONTINUOUS
 90
5
 70
0
 10
75.3581060774
 20
95.8402076598
 10
75.3790689318
 20
95.7806878834
 10
75.399390292
 20
95.7201631991
 10
75.4190701579
 20
95.658633607
 10
75.4378306199
 20
95.5960034072
  0
LWPOLYLINE
  5
3E3
100
AcDbEntity
  8
0
100
AcDbPolyline
 62
7
  6
CONTINUOUS
 90
3
 70
0
 10
75.586332434
 20
95.0820484693
 10
75.5772647289
 20
95.1133728545
 10
75.5311815362
 20
95.2709368884
  0
LINE
  5
3E4
100
AcDbEntity
  8
0
100
AcDbLine
 62
7
  6
CONTINUOUS
 10
75.4378306199
 20
95.5960034072
 11
75.5311815362
 21
95.2709368884
  0
LINE
  5
3E5
100
AcDbEntity
  8
0
100
AcDbLine
 62
7
  6
CONTINUOUS
 10
75.953932419
 20
95.5942392532
 11
75.9098713007
 21
95.7585673087
  0
LINE
  5
3E6
100
AcDbEntity
  8
0
100
AcDbLine
 62
7
  6
CONTINUOUS
 10
76.063185542
 20
95.1760269771
 11
76.0882365322
 21
95.0820484693
  0
LINE
  5
3E7
100
AcDbEntity
  8
0
100
AcDbLine
 62
7
  6
CONTINUOUS
 10
75.953932419
 20
95.5942392532
 11
76.063185542
 21
95.1760269771
  0
LWPOLYLINE
  5
3E8
100
AcDbEntity
  8
0
100
AcDbPolyline
 62
7
  6
CONTINUOUS
 90
16
 70
0
 10
75.9098713007
 20
95.7585673087
 10
75.8979933963
 20
95.8053274105
 10
75.8851038851
 20
95.8505826374
 10
75.8712027671
 20
95.8943329896
 10
75.8563953054
 20
95.9367806045
 10
75.840576237
 20
95.9777233445
 10
75.8234297723
 20
96.0165547968
 10
75.8048676512
 20
96.0532590394
 10
75.7849781339
 20
96.0878519943
 10
75.7637102119
 20
96.1197750143
 10
75.7409715122
 20
96.149035378
 10
75.7168544078
 20
96.1756258069
 10
75.6915850102
 20
96.1989658178
 10
75.6652386897
 20
96.2188619164
 10
75.6377400759
 20
96.2355075971
 10
75.6090891688
 20
96.2489028599
  0
LWPOLYLINE
  5
3E9
100
AcDbEntity
  8
0
100
AcDbPolyline
 62
7
  6
CONTINUOUS
 90
8
 70
0
 10
78.5041105763
 20
74.5650562642
 10
78.5090710843
 20
73.7938187159
 10
78.5181642956
 20
73.0403843696
 10
78.5305362361
 20
72.3049820291
 10
78.54704088
 20
71.587377221
 10
78.5702401489
 20
70.8868725672
 10
78.6009880169
 20
70.2032332153
 10
78.6248329363
 20
69.7787488803
  0
LWPOLYLINE
  5
3EA
100
AcDbEntity
  8
0
100
AcDbPolyline
 62
7
  6
CONTINUOUS
 90
8
 70
0
 10
79.5024514451
 20
105.0597718781
 10
79.4974871774
 20
105.8312773057
 10
79.4883899682
 20
106.5848758075
 10
79.4760123004
 20
107.3203242732
 10
79.4595016912
 20
108.0378715727
 10
79.4363006929
 20
108.7382581628
 10
79.4055568227
 20
109.4217332658
 10
79.3708567703
 20
110.0393868842
  0
LINE
  5
3EB
100
AcDbEntity
  8
0
100
AcDbLine
 62
7
  6
CONTINUOUS
 10
78.3032827716
 20
110.4372282499
 11
78.3032827716
 21
109.7622282499
  0
LINE
  5
3EC
100
AcDbEntity
  8
0
100
AcDbLine
 62
7
  6
CONTINUOUS
 10
78.3032827716
 20
69.1872282499
 11
78.3032827716
 21
69.8622282499
  0
LINE
  5
3ED
100
AcDbEntity
  8
0
100
AcDbLine
 62
7
  6
CONTINUOUS
 10
78.5032827716
 20
76.8122282499
 11
78.5041105763
 21
74.5650562642
  0
LINE
  5
3EE
100
AcDbEntity
  8
0
100
AcDbLine
 62
7
  6
CONTINUOUS
 10
79.5032827716
 20
102.8122282499
 11
79.5024514451
 21
105.0597718781
  0
LINE
  5
3EF
100
AcDbEntity
  8
0
100
AcDbLine
 62
7
  6
CONTINUOUS
 10
66.3892937716
 20
97.5817842499
 11
66.9561217716
 21
97.5817842499
  0
LINE
  5
3F0
100
AcDbEntity
  8
0
100
AcDbLine
 62
7
  6
CONTINUOUS
 10
67.9236677716
 20
97.5817842499
 11
68.4451037716
 21
97.5817842499
  0
LINE
  5
3F1
100
AcDbEntity
  8
0
100
AcDbLine
 62
7
  6
CONTINUOUS
 10
69.6671447716
 20
97.5817842499
 11
70.1885057716
 21
97.5817842499
  0
LINE
  5
3F2
100
AcDbEntity
  8
0
100
AcDbLine
 62
7
  6
CONTINUOUS
 10
71.2265807716
 20
97.5817842499
 11
71.7428437716
 21
97.5817842499
  0
LINE
  5
3F3
100
AcDbEntity
  8
0
100
AcDbLine
 62
7
  6
CONTINUOUS
 10
72.8426087716
 20
97.5817842499
 11
73.3473807716
 21
97.5817842499
  0
LINE
  5
3F4
100
AcDbEntity
  8
0
100
AcDbLine
 62
7
  6
CONTINUOUS
 10
68.6387427716
 20
97.5819342499
 11
69.1605357716
 21
97.5819342499
  0
LINE
  5
3F5
100
AcDbEntity
  8
RACCORDO
100
AcDbLine
 62
7
  6
CONTINUOUS
 10
76.2032827716
 20
98.0122282499
 11
66.4032827716
 21
98.0122282499
  0
LWPOLYLINE
  5
3F6
100
AcDbEntity
  8
0
100
AcDbPolyline
 62
7
  6
CONTINUOUS
 90
13
 70
0
 10
75.1787411909
 20
97.1706458848
 10
75.2219201592
 20
97.1624869707
 10
75.2619962153
 20
97.1506546762
 10
75.2989693593
 20
97.1351490012
 10
75.333013004
 20
97.1157843803
 10
75.3639537366
 20
97.0927463789
 10
75.3912713183
 20
97.0665916939
 10
75.4149605681
 20
97.0370381645
 10
75.435026667
 20
97.0043679514
 10
75.4509649194
 20
96.9699842331
 10
75.4626070935
 20
96.9343547356
 10
75.4701214213
 20
96.8970117329
 10
75.4735079026
 20
96.8579552249
  0
LWPOLYLINE
  5
3F7
100
AcDbEntity
  8
0
100
AcDbPolyline
 62
250
  6
CONTINUOUS
 90
4
 70
0
 10
80.8378581759
 20
77.1574175298
 10
80.8492231065
 20
74.3772064547
 10
80.8627890762
 20
71.6204097157
 10
80.8767857803
 20
69.1941072765
  0
LWPOLYLINE
  5
3F8
100
AcDbEntity
  8
0
100
AcDbPolyline
 62
250
  6
CONTINUOUS
 90
4
 70
0
 10
81.0371287853
 20
77.1573514989
 10
81.0485088965
 20
74.3774701469
 10
81.0620929939
 20
71.6207623972
 10
81.0758282132
 20
69.2426592857
  0
LINE
  5
3F9
100
AcDbEntity
  8
0
100
AcDbLine
 62
250
  6
CONTINUOUS
 10
80.8265634172
 20
80.8122282499
 11
80.8378581759
 21
77.1574175298
  0
LINE
  5
3FA
100
AcDbEntity
  8
0
100
AcDbLine
 62
250
  6
CONTINUOUS
 10
81.0258186349
 20
80.8121787713
 11
81.0371287853
 21
77.1573514989
  0
LINE
  5
3FB
100
AcDbEntity
  8
RACCORDO
100
AcDbLine
 62
7
  6
CONTINUOUS
 10
81.0720497763
 20
81.1122282499
 11
81.0720497763
 21
84.3535196114
  0
LINE
  5
3FC
100
AcDbEntity
  8
RACCORDO
100
AcDbLine
 62
7
  6
CONTINUOUS
 10
81.0720497763
 20
95.2709368884
 11
81.0720497763
 21
98.5122282499
  0
LINE
  5
3FD
100
AcDbEntity
  8
0
100
AcDbLine
 62
7
  6
CONTINUOUS
 10
81.2032827716
 20
69.4872282499
 11
81.2032827716
 21
110.1372282499
  0
LWPOLYLINE
  5
3FE
100
AcDbEntity
  8
0
100
AcDbPolyline
 62
250
  6
CONTINUOUS
 90
5
 70
0
 10
80.8767945902
 20
110.4303515106
 10
80.8627355509
 20
107.981072662
 10
80.8491470203
 20
105.2181764235
 10
80.8377904931
 20
102.4487684033
 10
80.8265026035
 20
98.8122282499
  0
LWPOLYLINE
  5
3FF
100
AcDbEntity
  8
0
100
AcDbPolyline
 62
250
  6
CONTINUOUS
 90
5
 70
0
 10
81.0758384287
 20
110.3817903884
 10
81.0620385498
 20
107.9804969214
 10
81.0484313109
 20
105.2175505359
 10
81.037059361
 20
102.4483890935
 10
81.0257575547
 20
98.8122781477
  0
LWPOLYLINE
  5
400
100
AcDbEntity
  8
0
100
AcDbPolyline
 62
7
  6
CONTINUOUS
 90
9
 70
0
 10
79.3708529525
 20
69.5850706068
 10
79.4055775262
 20
70.2032332153
 10
79.4363253942
 20
70.8868725672
 10
79.4595246632
 20
71.587377221
 10
79.476029307
 20
72.3049820291
 10
79.4884012476
 20
73.0403843696
 10
79.4974944588
 20
73.7938187159
 10
79.5024549668
 20
74.5650562642
 10
79.5032827716
 20
76.8122282499
  0
LINE
  5
401
100
AcDbEntity
  8
RACCORDO
100
AcDbLine
 62
250
  6
CONTINUOUS
 10
61.5345157669
 20
98.5122282499
 11
81.0720497763
 21
98.5122282499
  0
LINE
  5
402
100
AcDbEntity
  8
RACCORDO
100
AcDbLine
 62
7
  6
CONTINUOUS
 10
61.5607623659
 20
98.8122282499
 11
81.0458031772
 21
98.8122282499
  0
LWPOLYLINE
  5
403
100
AcDbEntity
  8
0
100
AcDbPolyline
 62
7
  6
CONTINUOUS
 90
13
 70
0
 10
75.5552902981
 20
97.5262605058
 10
75.4695667549
 20
97.5522046471
 10
75.3796348014
 20
97.5734175465
 10
75.2854944377
 20
97.5898992038
 10
75.1869419613
 20
97.6013674476
 10
75.0841810747
 20
97.6081044494
 10
74.9778228847
 20
97.6109567236
 10
74.8679884014
 20
97.6100436743
 10
74.7545566148
 20
97.6052458976
 10
74.637775601
 20
97.5970516954
 10
74.5177280523
 20
97.5856238351
 10
74.3943312765
 20
97.5707995494
 10
74.2675852736
 20
97.5525788383
  0
LINE
  5
404
100
AcDbEntity
  8
0
100
AcDbLine
 62
7
  6
CONTINUOUS
 10
81.9032827716
 20
83.8320966653
 11
81.9032827716
 21
95.7923598346
  0
LINE
  5
405
100
AcDbEntity
  8
RACCORDO
100
AcDbLine
 62
7
  6
CONTINUOUS
 10
82.4032827716
 20
68.7620759584
 11
82.4032827716
 21
110.8623805414
  0
LINE
  5
406
100
AcDbEntity
  8
0
100
AcDbLine
 62
250
  6
CONTINUOUS
 10
63.1032827716
 20
102.8122282499
 11
64.1032827716
 21
102.8122282499
  0
LINE
  5
407
100
AcDbEntity
  8
0
100
AcDbLine
 62
250
  6
CONTINUOUS
 10
78.5032827716
 20
102.8122282499
 11
79.5032827716
 21
102.8122282499
  0
LINE
  5
408
100
AcDbEntity
  8
0
100
AcDbLine
 62
7
  6
CONTINUOUS
 10
78.3032827716
 20
109.7622282499
 11
80.9032827716
 21
110.4372282499
  0
LINE
  5
409
100
AcDbEntity
  8
0
100
AcDbLine
 62
7
  6
CONTINUOUS
 10
64.3032827716
 20
109.7622282499
 11
61.7032827716
 21
110.4372282499
  0
LWPOLYLINE
  5
40A
100
AcDbEntity
  8
0
100
AcDbPolyline
 62
250
  6
CONTINUOUS
 90
13
 70
0
 10
76.4801489563
 20
109.2566809854
 10
76.5062331521
 20
109.2584041183
 10
76.531871729
 20
109.263481335
 10
76.5566266809
 20
109.2718258969
 10
76.5800750976
 20
109.2832952468
 10
76.6018163894
 20
109.2976934437
 10
76.621479131
 20
109.3147745107
 10
76.6387274067
 20
109.3342466373
 10
76.6532665493
 20
109.3557771642
 10
76.664848174
 20
109.3789982667
 10
76.6732744219
 20
109.4035132386
 10
76.67840134
 20
109.4289032694
 10
76.6801413409
 20
109.4547345991
  0
LWPOLYLINE
  5
40B
100
AcDbEntity
  8
0
100
AcDbPolyline
 62
250
  6
CONTINUOUS
 90
13
 70
0
 10
66.4801489563
 20
109.2566809854
 10
66.5062331521
 20
109.2584041183
 10
66.531871729
 20
109.263481335
 10
66.5566266809
 20
109.2718258969
 10
66.5800750976
 20
109.2832952468
 10
66.6018163894
 20
109.2976934437
 10
66.621479131
 20
109.3147745107
 10
66.6387274067
 20
109.3342466373
 10
66.6532665493
 20
109.3557771642
 10
66.664848174
 20
109.3789982667
 10
66.6732744219
 20
109.4035132386
 10
66.67840134
 20
109.4289032694
 10
66.6801413409
 20
109.4547345991
  0
LINE
  5
40C
100
AcDbEntity
  8
RACCORDO
100
AcDbLine
 62
250
  6
CONTINUOUS
 10
76.7054789747
 20
108.7122282499
 11
76.3914900765
 21
108.7122282499
  0
LINE
  5
40D
100
AcDbEntity
  8
RACCORDO
100
AcDbLine
 62
250
  6
CONTINUOUS
 10
66.7054789747
 20
108.7122282499
 11
66.3914900765
 21
108.7122282499
  0
LINE
  5
40E
100
AcDbEntity
  8
RACCORDO
100
AcDbLine
 62
250
  6
CONTINUOUS
 10
65.9010865684
 20
108.7122282499
 11
66.2150754666
 21
108.7122282499
  0
LINE
  5
40F
100
AcDbEntity
  8
RACCORDO
100
AcDbLine
 62
250
  6
CONTINUOUS
 10
75.9010865684
 20
108.7122282499
 11
76.2150754666
 21
108.7122282499
  0
LINE
  5
410
100
AcDbEntity
  8
RACCORDO
100
AcDbLine
 62
7
  6
CONTINUOUS
 10
76.3914900765
 20
109.1122282499
 11
76.2150754666
 21
109.1122282499
  0
LINE
  5
411
100
AcDbEntity
  8
RACCORDO
100
AcDbLine
 62
7
  6
CONTINUOUS
 10
66.3914900765
 20
109.1122282499
 11
66.2150754666
 21
109.1122282499
  0
LINE
  5
412
100
AcDbEntity
  8
0
100
AcDbLine
 62
250
  6
CONTINUOUS
 10
66.1264165869
 20
109.2566809854
 11
66.4801489563
 21
109.2566809854
  0
LINE
  5
413
100
AcDbEntity
  8
0
100
AcDbLine
 62
250
  6
CONTINUOUS
 10
76.1264165869
 20
109.2566809854
 11
76.4801489563
 21
109.2566809854
  0
LINE
  5
414
100
AcDbEntity
  8
0
100
AcDbLine
 62
250
  6
CONTINUOUS
 10
65.9264242023
 20
109.4547345991
 11
66.6801413409
 21
109.4547345991
  0
LINE
  5
415
100
AcDbEntity
  8
0
100
AcDbLine
 62
250
  6
CONTINUOUS
 10
75.9264242023
 20
109.4547345991
 11
76.6801413409
 21
109.4547345991
  0
LWPOLYLINE
  5
416
100
AcDbEntity
  8
0
100
AcDbPolyline
 62
7
  6
CONTINUOUS
 90
13
 70
0
 10
66.1173038703
 20
109.1099262928
 10
66.0923065783
 20
109.1101086711
 10
66.067548768
 20
109.1130757794
 10
66.0434278723
 20
109.118802797
 10
66.0203456618
 20
109.1271977753
 10
65.9986872693
 20
109.138148408
 10
65.9788183959
 20
109.151528739
 10
65.9612108057
 20
109.1669888052
 10
65.9460507467
 20
109.1843562636
 10
65.9334114359
 20
109.2038253398
 10
65.9237018685
 20
109.2252946399
 10
65.917459926
 20
109.248228302
 10
65.9150868897
 20
109.2721541575
  0
LWPOLYLINE
  5
417
100
AcDbEntity
  8
0
100
AcDbPolyline
 62
7
  6
CONTINUOUS
 90
13
 70
0
 10
76.1173038703
 20
109.1099262928
 10
76.0923065783
 20
109.1101086711
 10
76.067548768
 20
109.1130757794
 10
76.0434278723
 20
109.118802797
 10
76.0203456618
 20
109.1271977753
 10
75.9986872693
 20
109.138148408
 10
75.9788183959
 20
109.151528739
 10
75.9612108057
 20
109.1669888052
 10
75.9460507467
 20
109.1843562636
 10
75.9334114359
 20
109.2038253398
 10
75.9237018685
 20
109.2252946399
 10
75.917459926
 20
109.248228302
 10
75.9150868897
 20
109.2721541575
  0
LINE
  5
418
100
AcDbEntity
  8
SUPERFICI
100
AcDbLine
 62
7
  6
CONTINUOUS
 10
64.9032827716
 20
109.7622282499
 11
64.3032827716
 21
109.7622282499
  0
LINE
  5
419
100
AcDbEntity
  8
SUPERFICI
100
AcDbLine
 62
7
  6
CONTINUOUS
 10
77.7032827716
 20
109.7622282499
 11
78.3032827716
 21
109.7622282499
  0
LINE
  5
41A
100
AcDbEntity
  8
RACCORDO
100
AcDbLine
 62
250
  6
CONTINUOUS
 10
64.9032827716
 20
110.06433951
 11
65.9018612988
 21
110.06433951
  0
LINE
  5
41B
100
AcDbEntity
  8
RACCORDO
100
AcDbLine
 62
250
  6
CONTINUOUS
 10
66.7047042443
 20
110.06433951
 11
75.9018612988
 21
110.06433951
  0
LINE
  5
41C
100
AcDbEntity
  8
RACCORDO
100
AcDbLine
 62
250
  6
CONTINUOUS
 10
76.7047042443
 20
110.06433951
 11
77.7032827716
 21
110.06433951
  0
LINE
  5
41D
100
AcDbEntity
  8
RACCORDO
100
AcDbLine
 62
7
  6
CONTINUOUS
 10
64.9032827716
 20
110.3672282499
 11
77.7032827716
 21
110.3672282499
  0
LINE
  5
41E
100
AcDbEntity
  8
RACCORDO
100
AcDbLine
 62
250
  6
CONTINUOUS
 10
64.9032827716
 20
110.3818729109
 11
77.7032827716
 21
110.3818729109
  0
LINE
  5
41F
100
AcDbEntity
  8
RACCORDO
100
AcDbLine
 62
250
  6
CONTINUOUS
 10
77.7032827716
 20
110.422583589
 11
64.9032827716
 21
110.422583589
  0
LINE
  5
420
100
AcDbEntity
  8
0
100
AcDbLine
 62
7
  6
CONTINUOUS
 10
61.7032827716
 20
110.4372282499
 11
80.9032827716
 21
110.4372282499
  0
LINE
  5
421
100
AcDbEntity
  8
RACCORDO
100
AcDbLine
 62
7
  6
CONTINUOUS
 10
81.6031913475
 20
111.6622282499
 11
61.0033741957
 21
111.6622282499
  0
ARC
  5
422
100
AcDbEntity
  8
0
100
AcDbCircle
 62
7
  6
CONTINUOUS
 10
59.4032827716
 20
82.3122282499
 40
2.0
100
AcDbArc
 50
0.0
 51
49.4583981265
  0
ARC
  5
423
100
AcDbEntity
  8
RACCORDO
100
AcDbCircle
 62
250
  6
CONTINUOUS
 10
65.7032827716
 20
79.8122282499
 40
1.3
100
AcDbArc
 50
0.0
 51
90.0
  0
ARC
  5
424
100
AcDbEntity
  8
RACCORDO
100
AcDbCircle
 62
7
  6
CONTINUOUS
 10
65.7032827716
 20
83.6122282499
 40
1.2
100
AcDbArc
 50
0.0
 51
90.0
  0
ARC
  5
425
100
AcDbEntity
  8
RACCORDO
100
AcDbCircle
 62
7
  6
CONTINUOUS
 10
65.7032827716
 20
79.8122282499
 40
1.0
100
AcDbArc
 50
0.0
 51
90.0
  0
CIRCLE
  5
426
100
AcDbEntity
  8
DRAFT
100
AcDbCircle
 62
7
  6
CONTINUOUS
 10
64.3882827716
 20
82.6972282499
 40
0.75
  0
ARC
  5
427
100
AcDbEntity
  8
0
100
AcDbCircle
 62
7
  6
CONTINUOUS
 10
63.6032827716
 20
76.8122282499
 40
0.5
100
AcDbArc
 50
0.0
 51
180.0
  0
ARC
  5
428
100
AcDbEntity
  8
RACCORDO
100
AcDbCircle
 62
7
  6
CONTINUOUS
 10
67.2032827716
 20
82.4122282499
 40
0.3
100
AcDbArc
 50
180.0
 51
270.0
  0
ARC
  5
429
100
AcDbEntity
  8
RACCORDO
100
AcDbCircle
 62
7
  6
CONTINUOUS
 10
65.3532827716
 20
86.9122282499
 40
0.3
100
AcDbArc
 50
90.0
 51
180.0
  0
ARC
  5
42A
100
AcDbEntity
  8
RACCORDO
100
AcDbCircle
 62
7
  6
CONTINUOUS
 10
65.3532827716
 20
85.1122282499
 40
0.3
100
AcDbArc
 50
180.0
 51
270.0
  0
ARC
  5
42B
100
AcDbEntity
  8
0
100
AcDbCircle
 62
7
  6
CONTINUOUS
 10
61.7032827716
 20
69.4872282499
 40
0.3
100
AcDbArc
 50
180.0
 51
270.0
  0
ARC
  5
42C
100
AcDbEntity
  8
0
100
AcDbCircle
 62
7
  6
CONTINUOUS
 10
59.4032827716
 20
97.3122282499
 40
2.0
100
AcDbArc
 50
310.5416018735
 51
360.0
  0
ARC
  5
42D
100
AcDbEntity
  8
RACCORDO
100
AcDbCircle
 62
7
  6
CONTINUOUS
 10
64.9032827716
 20
96.1122282499
 40
1.2
100
AcDbArc
 50
273.8225537293
 51
360.0
  0
ARC
  5
42E
100
AcDbEntity
  8
0
100
AcDbCircle
 62
7
  6
CONTINUOUS
 10
63.6032827716
 20
102.8122282499
 40
0.5
100
AcDbArc
 50
180.0
 51
360.0
  0
ARC
  5
42F
100
AcDbEntity
  8
RACCORDO
100
AcDbCircle
 62
250
  6
CONTINUOUS
 10
66.3032827716
 20
108.7122282499
 40
0.38819588
100
AcDbArc
 50
180.0
 51
360.0
  0
ARC
  5
430
100
AcDbEntity
  8
RACCORDO
100
AcDbCircle
 62
7
  6
CONTINUOUS
 10
66.4032827716
 20
97.7122282499
 40
0.3
100
AcDbArc
 50
90.0
 51
180.0
  0
ARC
  5
431
100
AcDbEntity
  8
RACCORDO
100
AcDbCircle
 62
7
  6
CONTINUOUS
 10
65.0032827716
 20
94.6155652952
 40
0.3
100
AcDbArc
 50
93.8225537293
 51
180.0
  0
ARC
  5
432
100
AcDbEntity
  8
RACCORDO
100
AcDbCircle
 62
7
  6
CONTINUOUS
 10
65.0032827716
 20
92.3122282499
 40
0.3
100
AcDbArc
 50
180.0
 51
270.0
  0
ARC
  5
433
100
AcDbEntity
  8
0
100
AcDbCircle
 62
7
  6
CONTINUOUS
 10
61.7032827716
 20
110.1372282499
 40
0.3
100
AcDbArc
 50
90.0
 51
180.0
  0
ARC
  5
434
100
AcDbEntity
  8
RACCORDO
100
AcDbCircle
 62
7
  6
CONTINUOUS
 10
71.3032827716
 20
76.8122282499
 40
4.6
100
AcDbArc
 50
163.2688659838
 51
16.7311287153
  0
CIRCLE
  5
435
100
AcDbEntity
  8
0
100
AcDbCircle
 62
7
  6
CONTINUOUS
 10
71.3032827716
 20
76.8122282499
 40
2.25
  0
CIRCLE
  5
436
100
AcDbEntity
  8
RACCORDO
100
AcDbCircle
 62
250
  6
CONTINUOUS
 10
71.3032827716
 20
76.8122282499
 40
2.2377080299
  0
ARC
  5
437
100
AcDbEntity
  8
0
100
AcDbCircle
 62
7
  6
CONTINUOUS
 10
83.2032827716
 20
82.3122282499
 40
2.0
100
AcDbArc
 50
130.5416018735
 51
180.0
  0
ARC
  5
438
100
AcDbEntity
  8
RACCORDO
100
AcDbCircle
 62
250
  6
CONTINUOUS
 10
76.9032827716
 20
79.8122282499
 40
1.3
100
AcDbArc
 50
90.0
 51
180.0
  0
ARC
  5
439
100
AcDbEntity
  8
RACCORDO
100
AcDbCircle
 62
7
  6
CONTINUOUS
 10
76.9032827716
 20
83.6122282499
 40
1.2
100
AcDbArc
 50
90.0
 51
180.0
  0
ARC
  5
43A
100
AcDbEntity
  8
RACCORDO
100
AcDbCircle
 62
7
  6
CONTINUOUS
 10
76.9032827716
 20
79.8122282499
 40
1.0
100
AcDbArc
 50
90.0
 51
180.0
  0
CIRCLE
  5
43B
100
AcDbEntity
  8
0
100
AcDbCircle
 62
7
  6
CONTINUOUS
 10
71.3032827716
 20
70.8122282499
 40
1.0
  0
CIRCLE
  5
43C
100
AcDbEntity
  8
RACCORDO
100
AcDbCircle
 62
250
  6
CONTINUOUS
 10
71.3032827716
 20
76.8122282499
 40
0.7479513383
  0
ARC
  5
43D
100
AcDbEntity
  8
0
100
AcDbCircle
 62
7
  6
CONTINUOUS
 10
79.0032827716
 20
76.8122282499
 40
0.5
100
AcDbArc
 50
0.0
 51
180.0
  0
CIRCLE
  5
43E
100
AcDbEntity
  8
RACCORDO
100
AcDbCircle
 62
250
  6
CONTINUOUS
 10
71.3032827716
 20
76.8122282499
 40
0.45
  0
ARC
  5
43F
100
AcDbEntity
  8
RACCORDO
100
AcDbCircle
 62
7
  6
CONTINUOUS
 10
75.4032827716
 20
82.4122282499
 40
0.3
100
AcDbArc
 50
270.0
 51
360.0
  0
ARC
  5
440
100
AcDbEntity
  8
RACCORDO
100
AcDbCircle
 62
7
  6
CONTINUOUS
 10
77.2532827716
 20
85.1122282499
 40
0.3
100
AcDbArc
 50
270.0
 51
360.0
  0
ARC
  5
441
100
AcDbEntity
  8
RACCORDO
100
AcDbCircle
 62
7
  6
CONTINUOUS
 10
77.2532827716
 20
86.9122282499
 40
0.3
100
AcDbArc
 50
0.0
 51
90.0
  0
ARC
  5
442
100
AcDbEntity
  8
0
100
AcDbCircle
 62
7
  6
CONTINUOUS
 10
80.9032827716
 20
69.4872282499
 40
0.3
100
AcDbArc
 50
270.0
 51
360.0
  0
ARC
  5
443
100
AcDbEntity
  8
0
100
AcDbCircle
 62
7
  6
CONTINUOUS
 10
83.2032827716
 20
97.3122282499
 40
2.0
100
AcDbArc
 50
180.0
 51
229.4583981265
  0
CIRCLE
  5
444
100
AcDbEntity
  8
ASSI
100
AcDbCircle
 62
7
  6
CONTINUOUS
 10
71.3032827716
 20
90.3122282499
 40
1.5
  0
ARC
  5
445
100
AcDbEntity
  8
RACCORDO
100
AcDbCircle
 62
7
  6
CONTINUOUS
 10
77.7032827716
 20
96.1122282499
 40
1.2
100
AcDbArc
 50
180.0
 51
266.1774462707
  0
CIRCLE
  5
446
100
AcDbEntity
  8
DRAFT
100
AcDbCircle
 62
7
  6
CONTINUOUS
 10
78.2182827716
 20
96.9272282499
 40
0.75
  0
ARC
  5
447
100
AcDbEntity
  8
0
100
AcDbCircle
 62
7
  6
CONTINUOUS
 10
79.0032827716
 20
102.8122282499
 40
0.5
100
AcDbArc
 50
180.0
 51
360.0
  0
ARC
  5
448
100
AcDbEntity
  8
RACCORDO
100
AcDbCircle
 62
250
  6
CONTINUOUS
 10
76.3032827716
 20
108.7122282499
 40
0.38819588
100
AcDbArc
 50
180.0
 51
360.0
  0
ARC
  5
449
100
AcDbEntity
  8
RACCORDO
100
AcDbCircle
 62
7
  6
CONTINUOUS
 10
76.2032827716
 20
97.7122282499
 40
0.3
100
AcDbArc
 50
0.0
 51
90.0
  0
ARC
  5
44A
100
AcDbEntity
  8
RACCORDO
100
AcDbCircle
 62
7
  6
CONTINUOUS
 10
77.6032827716
 20
92.3122282499
 40
0.3
100
AcDbArc
 50
270.0
 51
360.0
  0
ARC
  5
44B
100
AcDbEntity
  8
RACCORDO
100
AcDbCircle
 62
7
  6
CONTINUOUS
 10
77.6032827716
 20
94.6155652952
 40
0.3
100
AcDbArc
 50
0.0
 51
86.1774462707
  0
ARC
  5
44C
100
AcDbEntity
  8
0
100
AcDbCircle
 62
7
  6
CONTINUOUS
 10
80.9032827716
 20
110.1372282499
 40
0.3
100
AcDbArc
 50
0.0
 51
90.0
  0
ELLIPSE
  5
44D
100
AcDbEntity
  8
RACCORDO
100
AcDbEllipse
 62
7
  6
CONTINUOUS
 10
61.5607623659
 20
81.1122282499
 30
0.0
 11
0.0
 21
0.3
 31
0.0
 40
0.0874886635
 41
-4.7123889804
 42
-3.1415926536
  0
ELLIPSE
  5
44E
100
AcDbEntity
  8
RACCORDO
100
AcDbEllipse
 62
7
  6
CONTINUOUS
 10
61.5607623659
 20
98.5122282499
 30
0.0
 11
0.0
 21
0.3
 31
0.0
 40
0.0874886635
 41
-0.0
 42
1.5707963268
  0
ELLIPSE
  5
44F
100
AcDbEntity
  8
0
100
AcDbEllipse
 62
7
  6
CONTINUOUS
 10
35.4672684693
 20
89.8122282499
 30
0.0
 11
0.0
 21
298.0
 31
0.0
 40
0.0874886635
 41
-1.5891151656
 42
-1.552477488
  0
ELLIPSE
  5
450
100
AcDbEntity
  8
RACCORDO
100
AcDbEllipse
 62
7
  6
CONTINUOUS
 10
81.0458031772
 20
81.1122282499
 30
0.0
 11
0.0
 21
0.3
 31
0.0
 40
0.0874886635
 41
-3.1415926536
 42
-1.5707963268
  0
ELLIPSE
  5
451
100
AcDbEntity
  8
0
100
AcDbEllipse
 62
7
  6
CONTINUOUS
 10
107.1392970738
 20
89.8122282499
 30
0.0
 11
0.0
 21
298.0
 31
0.0
 40
0.0874886635
 41
1.552477488
 42
1.5891151656
  0
ELLIPSE
  5
452
100
AcDbEntity
  8
RACCORDO
100
AcDbEllipse
 62
7
  6
CONTINUOUS
 10
81.0458031772
 20
98.5122282499
 30
0.0
 11
-0.0
 21
0.3
 31
0.0
 40
0.0874886635
 41
-1.5707963268
 42
0.0
  0
ELLIPSE
  5
453
100
AcDbEntity
  8
RACCORDO
100
AcDbEllipse
 62
7
  6
CONTINUOUS
 10
81.6030085376
 20
68.7622587127
 30
0.0
 11
-0.7592511077
 21
0.2530323029
 31
0.0
 40
0.9996192872
 41
1.8926001863
 42
3.463168079
  0
ELLIPSE
  5
454
100
AcDbEntity
  8
RACCORDO
100
AcDbEllipse
 62
7
  6
CONTINUOUS
 10
81.6030085376
 20
110.8621977872
 30
0.0
 11
0.7592511077
 21
0.2530323029
 31
0.0
 40
0.9996192872
 41
-0.3215754254
 42
1.2489924673
  0
ELLIPSE
  5
455
100
AcDbEntity
  8
RACCORDO
100
AcDbEllipse
 62
7
  6
CONTINUOUS
 10
61.0035570056
 20
110.8621977872
 30
0.0
 11
0.7592511077
 21
-0.2530323029
 31
0.0
 40
0.9996192872
 41
1.8926001863
 42
3.463168079
  0
ELLIPSE
  5
456
100
AcDbEntity
  8
RACCORDO
100
AcDbEllipse
 62
7
  6
CONTINUOUS
 10
61.0035570056
 20
68.7622587127
 30
0.0
 11
-0.7592511077
 21
-0.2530323029
 31
0.0
 40
0.9996192872
 41
-0.3215754254
 42
1.2489924673
  0
ELLIPSE
  5
457
100
AcDbEntity
  8
0
100
AcDbEllipse
 62
7
  6
CONTINUOUS
 10
66.2150754666
 20
109.0700659995
 30
0.0
 11
0.3
 21
-0.0
 31
0.0
 40
0.1405408347
 41
1.5707963268
 42
1.902765501
  0
ELLIPSE
  5
458
100
AcDbEntity
  8
RACCORDO
100
AcDbEllipse
 62
7
  6
CONTINUOUS
 10
75.9053440187
 20
110.0372282499
 30
0.0
 11
0.0
 21
0.4
 31
0.0
 40
0.0087268678
 41
0.9017896773
 42
1.502966175
  0
ELLIPSE
  5
459
100
AcDbEntity
  8
RACCORDO
100
AcDbEllipse
 62
7
  6
CONTINUOUS
 10
78.5034530298
 20
89.8122282499
 30
0.0
 11
0.0
 21
298.8
 31
0.0
 40
0.0087268678
 41
7.7861514822
 42
7.7906863672
  0
ELLIPSE
  5
45A
100
AcDbEntity
  8
RACCORDO
100
AcDbEllipse
 62
7
  6
CONTINUOUS
 10
74.1031125133
 20
89.8122282499
 30
0.0
 11
0.0
 21
298.8
 31
0.0
 40
0.0087268678
 41
-1.50750106
 42
-1.502966175
  0
ELLIPSE
  5
45B
100
AcDbEntity
  8
RACCORDO
100
AcDbEllipse
 62
7
  6
CONTINUOUS
 10
76.7012215245
 20
110.0372282499
 30
0.0
 11
-0.0
 21
0.4
 31
0.0
 40
0.0087268678
 41
4.7802191322
 42
5.682639778
  0
ELLIPSE
  5
45C
100
AcDbEntity
  8
RACCORDO
100
AcDbEllipse
 62
7
  6
CONTINUOUS
 10
65.9053440187
 20
110.0372282499
 30
0.0
 11
0.0
 21
0.4
 31
0.0
 40
0.0087268678
 41
0.9017896773
 42
1.502966175
  0
ELLIPSE
  5
45D
100
AcDbEntity
  8
RACCORDO
100
AcDbEllipse
 62
7
  6
CONTINUOUS
 10
68.5034530298
 20
89.8122282499
 30
0.0
 11
0.0
 21
298.8
 31
0.0
 40
0.0087268678
 41
7.7861514822
 42
7.7906863672
  0
ELLIPSE
  5
45E
100
AcDbEntity
  8
RACCORDO
100
AcDbEllipse
 62
7
  6
CONTINUOUS
 10
64.1031125133
 20
89.8122282499
 30
0.0
 11
0.0
 21
298.8
 31
0.0
 40
0.0087268678
 41
-1.50750106
 42
-1.502966175
  0
ELLIPSE
  5
45F
100
AcDbEntity
  8
RACCORDO
100
AcDbEllipse
 62
7
  6
CONTINUOUS
 10
66.7012215245
 20
110.0372282499
 30
0.0
 11
0.0
 21
0.4
 31
0.0
 40
0.0087268678
 41
4.7802191322
 42
5.682639778
  0
ELLIPSE
  5
460
100
AcDbEntity
  8
0
100
AcDbEllipse
 62
7
  6
CONTINUOUS
 10
76.3914900765
 20
109.0700659995
 30
0.0
 11
0.3
 21
-0.0
 31
0.0
 40
0.1405408347
 41
1.2388271526
 42
1.5707963268
  0
ELLIPSE
  5
461
100
AcDbEntity
  8
0
100
AcDbEllipse
 62
7
  6
CONTINUOUS
 10
76.2150754666
 20
109.0700659995
 30
0.0
 11
0.3
 21
-0.0
 31
0.0
 40
0.1405408347
 41
1.5707963268
 42
1.902765501
  0
ELLIPSE
  5
462
100
AcDbEntity
  8
0
100
AcDbEllipse
 62
7
  6
CONTINUOUS
 10
66.3914900765
 20
109.0700659995
 30
0.0
 11
0.3
 21
-0.0
 31
0.0
 40
0.1405408347
 41
1.2388271526
 42
1.5707963268
  0
ENDSEC
  0
SECTION
  2
OBJECTS
  0
DICTIONARY
  5
C
100
AcDbDictionary
280
0
281
1
  3
ACAD_GROUP
350
D
  3
ACAD_MLINESTYLE
350
17
  3
ACAD_LAYOUT
350
1A
  3
ACAD_PLOTSETTINGS
350
19
  3
ACAD_PLOTSTYLENAME
350
E
  0
DICTIONARY
  5
D
102
{ACAD_REACTORS
330
C
102
}
100
AcDbDictionary
280
0
281
1
  0
ACDBDICTIONARYWDFLT
  5
E
102
{ACAD_REACTORS
330
C
102
}
100
AcDbDictionary
281
1
  3
Normal
350
F
100
AcDbDictionaryWithDefault
340
F
  0
DICTIONARY
  5
17
102
{ACAD_REACTORS
330
C
102
}
100
AcDbDictionary
280
0
281
1
  3
Standard
350
18
  0
DICTIONARY
  5
19
102
{ACAD_REACTORS
330
C
102
}
100
AcDbDictionary
281
1
  0
DICTIONARY
  5
1A
102
{ACAD_REACTORS
330
C
102
}
100
AcDbDictionary
281
1
  3
Model
350
463
  3
Layout1
350
464
  0
ACDBPLACEHOLDER
  5
F
102
{ACAD_REACTORS
330
E
102
}
  0
MLINESTYLE
  5
18
102
{ACAD_REACTORS
330
17
102
}
100
AcDbMlineStyle
  2
STANDARD
 70
0
  3

 62
256
 51
90.0
 52
90.0
 71
2
 49
0.5
 62
256
  6
BYLAYER
 49
-0.5
 62
256
  6
BYLAYER
  0
LAYOUT
  5
463
102
{ACAD_REACTORS
330
1A
102
}
100
AcDbPlotSettings
  1

  2
none_device
  4
ISO_A4_(297.00_x_210.00_MM)
  6

 40
0.0
 41
0.0
 42
0.0
 43
0.0
 44
297.0
 45
210.0
 46
0.0
 47
0.0
 48
0.0
 49
0.0
140
0.0
141
0.0
142
1.0
143
1.0
 70
1024
 72
1
 73
0
 74
0
  7

 75
0
147
1.0
148
0.0
149
0.0
100
AcDbLayout
  1
Model
 70
0
 71
0
 10
0.0
 20
0.0
 11
297.0
 21
210.0
 12
0.0
 22
0.0
 32
0.0
 14
0.0
 24
0.0
 34
0.0
 15
0.0
 25
0.0
 35
0.0
146
0.0
 13
0.0
 23
0.0
 33
0.0
 16
1.0
 26
0.0
 36
0.0
 17
0.0
 27
1.0
 37
0.0
 76
0
330
218
345
0
346
0
  0
LAYOUT
  5
464
102
{ACAD_REACTORS
330
1A
102
}
100
AcDbPlotSettings
  1

  2
none_device
  4
ISO_A4_(297.00_x_210.00_MM)
  6

 40
0.0
 41
0.0
 42
0.0
 43
0.0
 44
297.0
 45
210.0
 46
0.0
 47
0.0
 48
0.0
 49
0.0
140
0.0
141
0.0
142
1.0
143
1.0
 70
0
 72
1
 73
0
 74
0
  7

 75
0
147
1.0
148
0.0
149
0.0
100
AcDbLayout
  1
Layout1
 70
0
 71
1
 10
0.0
 20
0.0
 11
297.0
 21
210.0
 12
0.0
 22
0.0
 32
0.0
 14
0.0
 24
0.0
 34
0.0
 15
0.0
 25
0.0
 35
0.0
146
0.0
 13
0.0
 23
0.0
 33
0.0
 16
1.0
 26
0.0
 36
0.0
 17
0.0
 27
1.0
 37
0.0
 76
0
330
219
345
0
346
0
  0
ENDSEC
  0
EOF
