0
SECTION
2
HEADER
9
$ACADVER
1
AC1015
9
$DWGCODEPAGE
3
ANSI_1252
9
$EXTMAX
10
431.8000000000
20
558.8000000000
30
0.0000000000
9
$EXTMIN
10
0.0000000000
20
0.0000000000
30
0.0000000000
9
$LIMMIN
10
0.0000000000
20
0.0000000000
9
$LIMMAX
10
431.8000000000
20
558.8000000000
9
$VIEWCTR
10
215.9000000000
20
279.4000000000
9
$VIEWSIZE
40
558.8000000000
9
$CLAYER
8
0
9
$LTSCALE
40
36.4254814815
9
$CELTYPE
6
BYLAYER
9
$DIMSCALE
40
1
9
$DIMASZ
40
3.0000000000
9
$DIMEXO
40
4.1392592593
9
$DIMDLI
40
25.1666962963
9
$DIMEXE
40
11.9210666667
9
$DIMCEN
40
5.9605333333
9
$DIMLFAC
40
1.0000000000
9
$DIMBLK
1
_FILLED
9
$DIMTXT
40
3.0000000000
9
$DIMTOL
70
1
9
$DIMLIM
70
0
9
$DIMTFAC
40
1.0000000000
9
$DIMTP
40
0.0100000000
9
$DIMTM
40
0.0100000000
9
$PDMODE
70
3
9
$PDSIZE
40
3.0000000000
9
$HANDSEED
5
4C4
9
$MEASUREMENT
70
1
9
$INSUNITS
70
4
0
ENDSEC
0
SECTION
2
CLASSES
0
CLASS
1
ACDBDICTIONARYWDFLT
2
AcDbDictionaryWithDefault
3
AutoCAD 2000
90
0
280
0
281
0
0
CLASS
1
ACDBPLACEHOLDER
2
AcDbPlaceHolder
3
AutoCAD 2000
90
0
280
0
281
0
0
CLASS
1
LAYOUT
2
AcDbLayout
3
AutoCAD 2000
90
0
280
0
281
0
0
ENDSEC
0
SECTION
2
TABLES
0
TABLE
2
VPORT
5
8
100
AcDbSymbolTable
70
2
0
VPORT
5
1F4
100
AcDbSymbolTableRecord
100
AcDbViewportTableRecord
2
*ACTIVE
70
0
10
0.0
20
0.0
11
1.0
21
1.0
12
215.9000000000
22
279.4000000000
13
0.0
23
0.0
14
1.0
24
1.0
15
0.0
25
0.0
16
0.0
26
0.0
36
1.0
17
0.0
27
0.0
37
0.0
40
558.8000000000
41
0.7727272727
42
50.0
43
0.0
44
0.0
50
0.0
51
0.0
71
0
72
100
73
1
74
1
75
0
76
0
77
0
78
0
0
ENDTAB
0
TABLE
2
LTYPE
5
5
100
AcDbSymbolTable
70
6
0
LTYPE
5
14
100
AcDbSymbolTableRecord
100
AcDbLinetypeTableRecord
2
BYBLOCK
70
0
3

72
65
73
0
40
0.0
0
LTYPE
5
15
100
AcDbSymbolTableRecord
100
AcDbLinetypeTableRecord
2
BYLAYER
70
0
3

72
65
73
0
40
0.0
0
LTYPE
5
16
100
AcDbSymbolTableRecord
100
AcDbLinetypeTableRecord
2
CONTINUOUS
70
64
3
Solid line
72
65
73
0
40
0
0
LTYPE
5
1F5
100
AcDbSymbolTableRecord
100
AcDbLinetypeTableRecord
2
CENTER
70
64
3
____ _ ____ _ ____ _ ____ _ ____ _ ____ _ ____
72
65
73
4
40
0.6
49
0.375
74
0
49
-0.075
74
0
49
0.075
74
0
49
-0.075
74
0
0
LTYPE
5
1F6
100
AcDbSymbolTableRecord
100
AcDbLinetypeTableRecord
2
HIDDEN
70
64
3
- - - - - - - - - - - - - - - - - - - -
72
65
73
2
40
0.2
49
0.1
74
0
49
-0.1
74
0
0
LTYPE
5
1F7
100
AcDbSymbolTableRecord
100
AcDbLinetypeTableRecord
2
PHANTOM
70
64
3
_____ _ _ _____ _ _ _____ _ _ _____
72
65
73
6
40
0.8
49
0.45
74
0
49
-0.05
74
0
49
0.1
74
0
49
-0.05
74
0
49
0.1
74
0
49
-0.05
74
0
0
LTYPE
5
1F8
100
AcDbSymbolTableRecord
100
AcDbLinetypeTableRecord
2
DOT
70
64
3
. . . . . . . . . . . . . . . . . . . .
72
65
73
2
40
0.2
49
0.1
74
0
49
-0.1
74
0
0
LTYPE
5
1F9
100
AcDbSymbolTableRecord
100
AcDbLinetypeTableRecord
2
DASHED
70
64
3
- - - - - - - - - - - - - - - - - - - -
72
65
73
2
40
0.2
49
0.1
74
0
49
-0.1
74
0
0
ENDTAB
0
TABLE
2
LAYER
5
2
100
AcDbSymbolTable
70
36
0
LAYER
5
10
100
AcDbSymbolTableRecord
100
AcDbLayerTableRecord
2
0
70
0
62
7
6
CONTINUOUS
370
-3
390
F
0
LAYER
5
1FA
100
AcDbSymbolTableRecord
100
AcDbLayerTableRecord
2
DEFAULT_1
70
0
62
7
6
CENTER
370
-3
390
F
0
LAYER
5
1FB
100
AcDbSymbolTableRecord
100
AcDbLayerTableRecord
2
DEFAULT_2
70
0
62
9
6
HIDDEN
370
-3
390
F
0
LAYER
5
1FC
100
AcDbSymbolTableRecord
100
AcDbLayerTableRecord
2
DEFAULT_3
70
0
62
7
6
PHANTOM
370
-3
390
F
0
LAYER
5
1FD
100
AcDbSymbolTableRecord
100
AcDbLayerTableRecord
2
_BLACK_HOLE
70
0
62
7
6
CONTINUOUS
370
-3
390
F
0
LAYER
5
1FE
100
AcDbSymbolTableRecord
100
AcDbLayerTableRecord
2
ASSI
70
0
62
7
6
CONTINUOUS
370
-3
390
F
0
LAYER
5
1FF
100
AcDbSymbolTableRecord
100
AcDbLayerTableRecord
2
COORDINATE
70
0
62
7
6
CONTINUOUS
370
-3
390
F
0
LAYER
5
200
100
AcDbSymbolTableRecord
100
AcDbLayerTableRecord
2
COORD_ORIGINE
70
0
62
7
6
CONTINUOUS
370
-3
390
F
0
LAYER
5
201
100
AcDbSymbolTableRecord
100
AcDbLayerTableRecord
2
COPY_PUBLISH
70
0
62
7
6
CONTINUOUS
370
-3
390
F
0
LAYER
5
202
100
AcDbSymbolTableRecord
100
AcDbLayerTableRecord
2
COSMETIC
70
0
62
7
6
CONTINUOUS
370
-3
390
F
0
LAYER
5
203
100
AcDbSymbolTableRecord
100
AcDbLayerTableRecord
2
CURVE
70
0
62
7
6
CONTINUOUS
370
-3
390
F
0
LAYER
5
204
100
AcDbSymbolTableRecord
100
AcDbLayerTableRecord
2
DRAFT
70
0
62
7
6
CONTINUOUS
370
-3
390
F
0
LAYER
5
205
100
AcDbSymbolTableRecord
100
AcDbLayerTableRecord
2
IMPORT
70
0
62
7
6
CONTINUOUS
370
-3
390
F
0
LAYER
5
206
100
AcDbSymbolTableRecord
100
AcDbLayerTableRecord
2
IMPORT_IGES
70
0
62
7
6
CONTINUOUS
370
-3
390
F
0
LAYER
5
207
100
AcDbSymbolTableRecord
100
AcDbLayerTableRecord
2
NOTE
70
0
62
7
6
CONTINUOUS
370
-3
390
F
0
LAYER
5
208
100
AcDbSymbolTableRecord
100
AcDbLayerTableRecord
2
PIANI
70
0
62
7
6
CONTINUOUS
370
-3
390
F
0
LAYER
5
209
100
AcDbSymbolTableRecord
100
AcDbLayerTableRecord
2
PIANI_ORIGINE
70
0
62
7
6
CONTINUOUS
370
-3
390
F
0
LAYER
5
20A
100
AcDbSymbolTableRecord
100
AcDbLayerTableRecord
2
PUNTI
70
0
62
7
6
CONTINUOUS
370
-3
390
F
0
LAYER
5
20B
100
AcDbSymbolTableRecord
100
AcDbLayerTableRecord
2
RACCORDO
70
0
62
7
6
CONTINUOUS
370
-3
390
F
0
LAYER
5
20C
100
AcDbSymbolTableRecord
100
AcDbLayerTableRecord
2
SMUSSO
70
0
62
7
6
CONTINUOUS
370
-3
390
F
0
LAYER
5
20D
100
AcDbSymbolTableRecord
100
AcDbLayerTableRecord
2
SUPERFICI
70
0
62
7
6
CONTINUOUS
370
-3
390
F
0
LAYER
5
20E
100
AcDbSymbolTableRecord
100
AcDbLayerTableRecord
2
TRASH
70
0
62
7
6
CONTINUOUS
370
-3
390
F
0
LAYER
5
20F
100
AcDbSymbolTableRecord
100
AcDbLayerTableRecord
2
XSEC_DATUMS
70
0
62
7
6
CONTINUOUS
370
-3
390
F
0
ENDTAB
0
TABLE
2
STYLE
5
3
100
AcDbSymbolTable
70
1
0
STYLE
5
11
100
AcDbSymbolTableRecord
100
AcDbTextStyleTableRecord
2
STANDARD
70
0
40
0.0
41
0.8000000000
50
0.0
71
0
42
0.2
3
txt
4

0
ENDTAB
0
TABLE
2
VIEW
5
6
100
AcDbSymbolTable
70
0
0
ENDTAB
0
TABLE
2
UCS
5
7
100
AcDbSymbolTable
70
0
0
ENDTAB
0
TABLE
2
APPID
5
9
100
AcDbSymbolTable
70
1
0
APPID
5
210
100
AcDbSymbolTableRecord
100
AcDbRegAppTableRecord
2
ACAD
70
0
0
ENDTAB
0
TABLE
2
BLOCK_RECORD
5
1
100
AcDbSymbolTable
70
0
0
BLOCK_RECORD
5
1F
100
AcDbSymbolTableRecord
100
AcDbBlockTableRecord
2
*MODEL_SPACE
0
BLOCK_RECORD
5
1B
100
AcDbSymbolTableRecord
100
AcDbBlockTableRecord
2
*PAPER_SPACE
0
ENDTAB
0
TABLE
2
DIMSTYLE
5
A
100
AcDbSymbolTable
70
1
100
AcDbDimStyleTable
71
0
0
DIMSTYLE
105
211
100
AcDbSymbolTableRecord
100
AcDbDimStyleTableRecord
2
STANDARD
70
0
3

4

40
1.0
41
3.0000000000
42
0.0625
43
0.38
44
0.18
45
0.0
46
0.0
47
0.0100000000
48
0.0100000000
140
3.0000000000
141
0.09
142
0.0
143
25.4
144
1.0000000000
145
0.0
146
1.0000000000
147
0.09
71
1
72
0
73
0
74
0
75
0
76
0
77
1
78
8
170
0
171
2
172
0
173
0
174
0
175
0
176
0
177
0
178
0
270
2
271
2
272
2
273
2
274
2
275
0
280
0
281
0
282
0
283
1
284
8
285
0
286
0
287
3
288
0
340
11
0
ENDTAB
0
ENDSEC
0
SECTION
2
BLOCKS
0
BLOCK
5
20
100
AcDbEntity
8
0
100
AcDbBlockBegin
2
*MODEL_SPACE
70
0
10
0.0
20
0.0
30
0.0
3
*MODEL_SPACE
1

0
ENDBLK
5
21
100
AcDbEntity
8
0
100
AcDbBlockEnd
0
BLOCK
5
1C
100
AcDbEntity
8
0
100
AcDbBlockBegin
2
*PAPER_SPACE
70
0
10
0.0
20
0.0
30
0.0
3
*PAPER_SPACE
1

0
ENDBLK
5
1D
100
AcDbEntity
8
0
100
AcDbBlockEnd
0
ENDSEC
0
SECTION
2
ENTITIES
0
LINE
5
212
100
AcDbEntity
8
0
100
AcDbLine
62
0
6
CONTINUOUS
10
10.2292532906
20
-21.1822226306
11
-9.9709903971
21
-21.1822226306
0
LINE
5
213
100
AcDbEntity
8
0
100
AcDbLine
62
0
6
CONTINUOUS
10
-9.5708990142
20
-19.8822226306
11
9.8291619077
21
-19.8822226306
0
LINE
5
214
100
AcDbEntity
8
0
100
AcDbLine
62
9
6
CONTINUOUS
10
-9.4254853810
20
-19.7852554282
11
-8.8405818802
21
-19.7852554501
0
LINE
5
215
100
AcDbEntity
8
0
100
AcDbLine
62
9
6
CONTINUOUS
10
-6.2708685496
20
-19.7852555463
11
-4.0256307041
21
-19.7852556304
0
LINE
5
216
100
AcDbEntity
8
0
100
AcDbLine
62
9
6
CONTINUOUS
10
4.2838935976
20
-19.7852556304
11
6.5291314468
21
-19.7852556304
0
LINE
5
217
100
AcDbEntity
8
0
100
AcDbLine
62
9
6
CONTINUOUS
10
9.0988459454
20
-19.7852556304
11
9.7321949075
21
-19.7852556304
0
LINE
5
218
100
AcDbEntity
8
0
100
AcDbLine
62
9
6
CONTINUOUS
10
-1.9708685532
20
-19.7829262855
11
2.2291314468
21
-19.7829262855
0
LINE
5
219
100
AcDbEntity
8
0
100
AcDbLine
62
9
6
CONTINUOUS
10
-1.9708685532
20
-19.6419477562
11
2.2288520388
21
-19.6419477562
0
LINE
5
21A
100
AcDbEntity
8
0
100
AcDbLine
62
9
6
CONTINUOUS
10
-9.6721865098
20
-19.4853013218
11
-6.8708685534
21
-19.4853011632
0
LINE
5
21B
100
AcDbEntity
8
0
100
AcDbLine
62
9
6
CONTINUOUS
10
-6.2708685534
20
-19.4853011967
11
-4.0256307041
21
-19.4853013218
0
LINE
5
21C
100
AcDbEntity
8
0
100
AcDbLine
62
9
6
CONTINUOUS
10
4.2838935976
20
-19.4853013218
11
6.5291314468
21
-19.4853013218
0
LINE
5
21D
100
AcDbEntity
8
0
100
AcDbLine
62
9
6
CONTINUOUS
10
7.1291314468
20
-19.4853013218
11
9.9304494034
21
-19.4853013218
0
LINE
5
21E
100
AcDbEntity
8
0
100
AcDbLine
62
0
6
CONTINUOUS
10
-6.2708685532
20
-19.4822226306
11
-6.8708685532
21
-19.4822226306
0
LINE
5
21F
100
AcDbEntity
8
0
100
AcDbLine
62
0
6
CONTINUOUS
10
6.5291314468
20
-19.4822226306
11
7.1291314468
21
-19.4822226306
0
LINE
5
220
100
AcDbEntity
8
0
100
AcDbLine
62
0
6
CONTINUOUS
10
-6.8708685532
20
-19.4822226306
11
-9.4254853844
21
-19.8752406046
0
LINE
5
221
100
AcDbEntity
8
0
100
AcDbLine
62
0
6
CONTINUOUS
10
9.7304798643
20
-19.2270804039
11
5.3791314468
21
-19.2270823660
0
LINE
5
222
100
AcDbEntity
8
0
100
AcDbLine
62
0
6
CONTINUOUS
10
-5.1208685532
20
-19.2270823660
11
-9.4722169708
21
-19.2270804038
0
LINE
5
223
100
AcDbEntity
8
0
100
AcDbLine
62
0
6
CONTINUOUS
10
-1.9708685532
20
-18.8223564422
11
2.2291314468
21
-18.8223564422
0
LINE
5
224
100
AcDbEntity
8
0
100
AcDbLine
62
0
6
CONTINUOUS
10
2.2291314468
20
-18.0217495916
11
-1.9708685532
21
-18.0217495916
0
LINE
5
225
100
AcDbEntity
8
0
100
AcDbLine
62
0
6
CONTINUOUS
10
7.1291314468
20
-19.4822226306
11
9.6837482780
21
-19.8752406046
0
LINE
5
226
100
AcDbEntity
8
0
100
AcDbLine
62
0
6
CONTINUOUS
10
-9.6687564234
20
15.7677773694
11
-9.6676904890
21
15.7688433038
0
LINE
5
227
100
AcDbEntity
8
0
100
AcDbLine
62
9
6
CONTINUOUS
10
4.7791314468
20
-16.8822226306
11
4.7686584078
21
-16.8822226306
0
LINE
5
228
100
AcDbEntity
8
0
100
AcDbLine
62
9
6
CONTINUOUS
10
-5.1208685532
20
-16.8822226306
11
-5.1313415922
21
-16.8822226306
0
LINE
5
229
100
AcDbEntity
8
0
100
AcDbLine
62
9
6
CONTINUOUS
10
-4.5208685532
20
-16.8822226306
11
-4.5103955143
21
-16.8822226306
0
LINE
5
22A
100
AcDbEntity
8
0
100
AcDbLine
62
9
6
CONTINUOUS
10
5.3791314468
20
-16.8822226306
11
5.3896044857
21
-16.8822226306
0
LINE
5
22B
100
AcDbEntity
8
0
100
AcDbLine
62
0
6
CONTINUOUS
10
7.7063794617
20
-15.6250429536
11
5.7107896781
21
-15.6250429536
0
LINE
5
22C
100
AcDbEntity
8
0
100
AcDbLine
62
0
6
CONTINUOUS
10
-5.4525267845
20
-15.6250429536
11
-7.4481165682
21
-15.6250429536
0
LINE
5
22D
100
AcDbEntity
8
0
100
AcDbLine
62
0
6
CONTINUOUS
10
-5.3854830612
20
-15.1284601604
11
-4.9531920306
21
-15.1284601604
0
LINE
5
22E
100
AcDbEntity
8
0
100
AcDbLine
62
0
6
CONTINUOUS
10
5.2114549242
20
-15.1284601604
11
5.6437459547
21
-15.1284601604
0
LINE
5
22F
100
AcDbEntity
8
0
100
AcDbLine
62
0
6
CONTINUOUS
10
-5.4587073383
20
-15.0322226306
11
-5.0555490970
21
-15.0322226306
0
LINE
5
230
100
AcDbEntity
8
0
100
AcDbLine
62
0
6
CONTINUOUS
10
5.3138119906
20
-15.0322226306
11
5.7169702318
21
-15.0322226306
0
LINE
5
231
100
AcDbEntity
8
0
100
AcDbLine
62
0
6
CONTINUOUS
10
7.3440605755
20
-14.9322226306
11
5.9764638313
21
-14.9322226306
0
LINE
5
232
100
AcDbEntity
8
0
100
AcDbLine
62
0
6
CONTINUOUS
10
-5.7182009377
20
-14.9322226306
11
-7.0857976820
21
-14.9322226306
0
LINE
5
233
100
AcDbEntity
8
0
100
AcDbLine
62
0
6
CONTINUOUS
10
6.6646263218
20
-14.5322226306
11
6.2043672888
21
-14.5322226306
0
LINE
5
234
100
AcDbEntity
8
0
100
AcDbLine
62
0
6
CONTINUOUS
10
-5.9461043953
20
-14.5322226306
11
-6.4063634283
21
-14.5322226306
0
LINE
5
235
100
AcDbEntity
8
0
100
AcDbLine
62
0
6
CONTINUOUS
10
-6.3822853430
20
-14.4973018611
11
-6.1852443810
21
-14.4973018611
0
LINE
5
236
100
AcDbEntity
8
0
100
AcDbLine
62
0
6
CONTINUOUS
10
6.4435072746
20
-14.4973018611
11
6.6405482365
21
-14.4973018611
0
LINE
5
237
100
AcDbEntity
8
0
100
AcDbLine
62
9
6
CONTINUOUS
10
4.4394801944
20
-17.5570872725
11
4.4503141033
21
-17.5637579436
0
LINE
5
238
100
AcDbEntity
8
0
100
AcDbLine
62
0
6
CONTINUOUS
10
-9.6687564234
20
-9.8322226306
11
-9.6639463966
21
-9.8370326573
0
LINE
5
239
100
AcDbEntity
8
0
100
AcDbLine
62
0
6
CONTINUOUS
10
-10.7708685532
20
-20.3823444744
11
-10.7708685532
21
21.3178992133
0
LINE
5
23A
100
AcDbEntity
8
0
100
AcDbLine
62
0
6
CONTINUOUS
10
6.6405482365
20
-10.5671434001
11
6.4435072746
21
-10.5671434001
0
LINE
5
23B
100
AcDbEntity
8
0
100
AcDbLine
62
0
6
CONTINUOUS
10
-6.1852443810
20
-10.5671434001
11
-6.3822853430
21
-10.5671434001
0
LINE
5
23C
100
AcDbEntity
8
0
100
AcDbLine
62
0
6
CONTINUOUS
10
-6.4063634283
20
-10.5322226306
11
-6.1687847029
21
-10.5322226306
0
LINE
5
23D
100
AcDbEntity
8
0
100
AcDbLine
62
0
6
CONTINUOUS
10
6.4270475965
20
-10.5322226306
11
6.6646263218
21
-10.5322226306
0
LINE
5
23E
100
AcDbEntity
8
0
100
AcDbLine
62
9
6
CONTINUOUS
10
4.6186584078
20
-17.2825226680
11
4.6291314468
21
-17.2893523626
0
LINE
5
23F
100
AcDbEntity
8
0
100
AcDbLine
62
9
6
CONTINUOUS
10
-6.6863185241
20
-10.7247294570
11
-6.6627827675
21
-10.7610759133
0
LINE
5
240
100
AcDbEntity
8
0
100
AcDbLine
62
0
6
CONTINUOUS
10
-5.7539865608
20
-14.2382467044
11
-5.7549869922
21
-14.2360265041
0
LINE
5
241
100
AcDbEntity
8
0
100
AcDbLine
62
9
6
CONTINUOUS
10
-9.4636143483
20
-9.2236219046
11
-9.4671802529
21
15.1627449815
0
LINE
5
242
100
AcDbEntity
8
0
100
AcDbLine
62
0
6
CONTINUOUS
10
-10.4708685532
20
-5.5123542152
11
-10.4708685532
21
6.4479089541
0
LINE
5
243
100
AcDbEntity
8
0
100
AcDbLine
62
0
6
CONTINUOUS
10
-9.7708685532
20
-19.6822530915
11
-9.7708685532
21
-7.0322226306
0
LINE
5
244
100
AcDbEntity
8
0
100
AcDbLine
62
0
6
CONTINUOUS
10
-9.7708685532
20
7.9677773694
11
-9.7708685532
21
20.6178078304
0
LINE
5
245
100
AcDbEntity
8
0
100
AcDbLine
62
0
6
CONTINUOUS
10
-9.7584329434
20
-7.0322226306
11
-9.7584329434
21
7.9677773694
0
LINE
5
246
100
AcDbEntity
8
0
100
AcDbLine
62
9
6
CONTINUOUS
10
-9.6721865098
20
20.4208560607
11
-9.6721865098
21
20.1560352914
0
LINE
5
247
100
AcDbEntity
8
0
100
AcDbLine
62
9
6
CONTINUOUS
10
-9.6721865098
20
-19.2204805525
11
-9.6721865098
21
-19.4853013218
0
LINE
5
248
100
AcDbEntity
8
0
100
AcDbLine
62
0
6
CONTINUOUS
10
-9.6687564234
20
-9.8322226306
11
-9.6687564234
21
-9.2322226306
0
LINE
5
249
100
AcDbEntity
8
0
100
AcDbLine
62
0
6
CONTINUOUS
10
-9.6687564234
20
15.1677773694
11
-9.6687564234
21
15.7677773694
0
LINE
5
24A
100
AcDbEntity
8
0
100
AcDbLine
62
9
6
CONTINUOUS
10
-9.4722169708
20
20.4208679113
11
-9.4677148450
21
15.7722749700
0
LINE
5
24B
100
AcDbEntity
8
0
100
AcDbLine
62
9
6
CONTINUOUS
10
-9.4722169708
20
-19.4853010182
11
-9.4639747646
21
-9.8404627824
0
LINE
5
24C
100
AcDbEntity
8
0
100
AcDbLine
62
0
6
CONTINUOUS
10
-5.4587073383
20
-10.0322226306
11
-5.0555490970
21
-10.0322226306
0
LINE
5
24D
100
AcDbEntity
8
0
100
AcDbLine
62
0
6
CONTINUOUS
10
5.3138119906
20
-10.0322226306
11
5.7169702318
21
-10.0322226306
0
LINE
5
24E
100
AcDbEntity
8
0
100
AcDbLine
62
0
6
CONTINUOUS
10
6.2295421411
20
-10.0234737642
11
5.7128338524
21
-10.0234737642
0
LINE
5
24F
100
AcDbEntity
8
0
100
AcDbLine
62
0
6
CONTINUOUS
10
-5.4545709588
20
-10.0234737642
11
-5.9712792476
21
-10.0234737642
0
LINE
5
250
100
AcDbEntity
8
0
100
AcDbLine
62
0
6
CONTINUOUS
10
-5.9538241826
20
-9.9359851007
11
-4.9531920306
21
-9.9359851007
0
LINE
5
251
100
AcDbEntity
8
0
100
AcDbLine
62
0
6
CONTINUOUS
10
5.2114549242
20
-9.9359851007
11
6.2120870762
21
-9.9359851007
0
LINE
5
252
100
AcDbEntity
8
0
100
AcDbLine
62
0
6
CONTINUOUS
10
9.7222376597
20
-9.8404627573
11
8.8291314468
21
-9.8404627573
0
LINE
5
253
100
AcDbEntity
8
0
100
AcDbLine
62
0
6
CONTINUOUS
10
-8.5708685532
20
-9.8404627573
11
-9.4639747662
21
-9.8404627573
0
LINE
5
254
100
AcDbEntity
8
0
100
AcDbLine
62
0
6
CONTINUOUS
10
9.9270193169
20
-9.8322226306
11
8.8291314468
21
-9.8322226306
0
LINE
5
255
100
AcDbEntity
8
0
100
AcDbLine
62
0
6
CONTINUOUS
10
-8.5708685532
20
-9.8322226306
11
-9.6687564234
21
-9.8322226306
0
LINE
5
256
100
AcDbEntity
8
0
100
AcDbLine
62
0
6
CONTINUOUS
10
-9.6687564234
20
-9.2322226306
11
-8.5708685532
21
-9.2322226306
0
LINE
5
257
100
AcDbEntity
8
0
100
AcDbLine
62
0
6
CONTINUOUS
10
8.8291314468
20
-9.2322226306
11
9.9270193169
21
-9.2322226306
0
LINE
5
258
100
AcDbEntity
8
0
100
AcDbLine
62
0
6
CONTINUOUS
10
9.7218772528
20
-9.2236218461
11
8.8291314468
21
-9.2236218460
0
LINE
5
259
100
AcDbEntity
8
0
100
AcDbLine
62
0
6
CONTINUOUS
10
-8.5708685532
20
-9.2236218460
11
-9.4636143593
21
-9.2236218461
0
LINE
5
25A
100
AcDbEntity
8
0
100
AcDbLine
62
9
6
CONTINUOUS
10
-8.5708685532
20
15.1677773694
11
-8.5708685532
21
15.1627448787
0
LINE
5
25B
100
AcDbEntity
8
0
100
AcDbLine
62
9
6
CONTINUOUS
10
-8.5708685532
20
-9.2322226306
11
-8.5708685532
21
-9.2236218460
0
LINE
5
25C
100
AcDbEntity
8
0
100
AcDbLine
62
9
6
CONTINUOUS
10
-8.5708685532
20
-9.8322226306
11
-8.5708685532
21
-9.8404627573
0
LINE
5
25D
100
AcDbEntity
8
0
100
AcDbLine
62
9
6
CONTINUOUS
10
-8.5708685532
20
15.7677773694
11
-8.5708685532
21
15.7722749099
0
LINE
5
25E
100
AcDbEntity
8
0
100
AcDbLine
62
9
6
CONTINUOUS
10
9.7321949075
20
20.7208103692
11
9.7529640799
21
20.7415795416
0
LINE
5
25F
100
AcDbEntity
8
0
100
AcDbLine
62
9
6
CONTINUOUS
10
9.9321644466
20
20.5208408302
11
10.0291314468
21
20.6178078304
0
LINE
5
260
100
AcDbEntity
8
0
100
AcDbLine
62
0
6
CONTINUOUS
10
2.2291314468
20
-7.0496776955
11
-1.9708685532
21
-7.0496776955
0
LINE
5
261
100
AcDbEntity
8
0
100
AcDbLine
62
9
6
CONTINUOUS
10
-9.7584329434
20
-7.0322226306
11
-9.7708685532
21
-7.0322226306
0
LINE
5
262
100
AcDbEntity
8
0
100
AcDbLine
62
9
6
CONTINUOUS
10
10.0166958369
20
-7.0322226306
11
10.0291314468
21
-7.0322226306
0
LINE
5
263
100
AcDbEntity
8
0
100
AcDbLine
62
9
6
CONTINUOUS
10
9.8291619077
20
-19.8822226306
11
9.7321949075
21
-19.7852556304
0
LINE
5
264
100
AcDbEntity
8
0
100
AcDbLine
62
9
6
CONTINUOUS
10
10.0291314468
20
-19.6822530915
11
9.9321644466
21
-19.5852860913
0
LINE
5
265
100
AcDbEntity
8
0
100
AcDbLine
62
9
6
CONTINUOUS
10
-5.4345802736
20
-7.1895516552
11
-5.0444211144
21
-7.7913604037
0
LINE
5
266
100
AcDbEntity
8
0
100
AcDbLine
62
0
6
CONTINUOUS
10
-6.8708685532
20
20.8177773694
11
-6.8708685532
21
20.4177773694
0
LINE
5
267
100
AcDbEntity
8
0
100
AcDbLine
62
0
6
CONTINUOUS
10
-6.8708685532
20
-19.8822226306
11
-6.8708685532
21
-19.4822226306
0
LINE
5
268
100
AcDbEntity
8
0
100
AcDbLine
62
0
6
CONTINUOUS
10
-6.2708685532
20
20.8177773694
11
-6.2708685532
21
20.4177773694
0
LINE
5
269
100
AcDbEntity
8
0
100
AcDbLine
62
0
6
CONTINUOUS
10
-6.2708685532
20
-19.8822226306
11
-6.2708685532
21
-19.4822226306
0
LINE
5
26A
100
AcDbEntity
8
0
100
AcDbLine
62
0
6
CONTINUOUS
10
-6.2534134883
20
-9.2158665725
11
-6.2534134883
21
-9.6352972157
0
LINE
5
26B
100
AcDbEntity
8
0
100
AcDbLine
62
0
6
CONTINUOUS
10
-5.2590644351
20
19.2677773694
11
-5.2590644351
21
20.0285633908
0
LINE
5
26C
100
AcDbEntity
8
0
100
AcDbLine
62
0
6
CONTINUOUS
10
-5.2485921938
20
20.1972123924
11
-5.2485921938
21
20.7602213518
0
LINE
5
26D
100
AcDbEntity
8
0
100
AcDbLine
62
0
6
CONTINUOUS
10
-5.1313415922
20
-17.9707144746
11
-5.1313415922
21
-16.8822226306
0
LINE
5
26E
100
AcDbEntity
8
0
100
AcDbLine
62
0
6
CONTINUOUS
10
-5.1208685532
20
-19.2270823660
11
-5.1208685532
21
-16.8822226306
0
LINE
5
26F
100
AcDbEntity
8
0
100
AcDbLine
62
9
6
CONTINUOUS
10
-5.2590644351
20
20.0285633908
11
-5.2485921938
21
20.1972123924
0
LINE
5
270
100
AcDbEntity
8
0
100
AcDbLine
62
9
6
CONTINUOUS
10
-4.9568221614
20
19.7677773694
11
-4.9486036168
21
19.9001319718
0
LINE
5
271
100
AcDbEntity
8
0
100
AcDbLine
62
0
6
CONTINUOUS
10
-3.5940625532
20
9.4178273694
11
-4.1467565532
21
7.6963643694
0
LINE
5
272
100
AcDbEntity
8
0
100
AcDbLine
62
0
6
CONTINUOUS
10
-3.0940375532
20
9.4178273694
11
-3.8967435532
21
6.9177143694
0
LINE
5
273
100
AcDbEntity
8
0
100
AcDbLine
62
0
6
CONTINUOUS
10
3.1291314468
20
-6.3822226306
11
-2.8708685532
21
-6.3822226306
0
LINE
5
274
100
AcDbEntity
8
0
100
AcDbLine
62
0
6
CONTINUOUS
10
-3.0668856547
20
-5.7195410415
11
3.3251485482
21
-5.7195410415
0
LINE
5
275
100
AcDbEntity
8
0
100
AcDbLine
62
9
6
CONTINUOUS
10
-4.7931334896
20
19.9001319718
11
-4.7849149450
21
19.7677773694
0
LINE
5
276
100
AcDbEntity
8
0
100
AcDbLine
62
9
6
CONTINUOUS
10
-4.9590758582
20
18.9677773694
11
-4.9590758582
21
19.7677773694
0
LINE
5
277
100
AcDbEntity
8
0
100
AcDbLine
62
9
6
CONTINUOUS
10
-4.9486036168
20
19.9001319718
11
-4.9486036168
21
20.7654121746
0
LINE
5
278
100
AcDbEntity
8
0
100
AcDbLine
62
9
6
CONTINUOUS
10
-4.7931334896
20
19.9001319718
11
-4.7931334896
21
20.7654121746
0
LINE
5
279
100
AcDbEntity
8
0
100
AcDbLine
62
9
6
CONTINUOUS
10
-4.7826612483
20
18.9677773694
11
-4.7826612483
21
19.7677773694
0
LINE
5
27A
100
AcDbEntity
8
0
100
AcDbLine
62
0
6
CONTINUOUS
10
-4.5714515532
20
3.9927773694
11
-4.5714515532
21
1.9427773694
0
LINE
5
27B
100
AcDbEntity
8
0
100
AcDbLine
62
0
6
CONTINUOUS
10
-4.5208685532
20
-16.8822226306
11
-4.5208685532
21
-19.3193317930
0
LINE
5
27C
100
AcDbEntity
8
0
100
AcDbLine
62
0
6
CONTINUOUS
10
-4.5103955143
20
-18.2869238550
11
-4.5103955143
21
-16.8822226306
0
LINE
5
27D
100
AcDbEntity
8
0
100
AcDbLine
62
0
6
CONTINUOUS
10
-4.4931449127
20
20.7602213518
11
-4.4931449127
21
20.1972123924
0
LINE
5
27E
100
AcDbEntity
8
0
100
AcDbLine
62
0
6
CONTINUOUS
10
-4.4826726713
20
20.0285633908
11
-4.4826726713
21
19.2677773694
0
LINE
5
27F
100
AcDbEntity
8
0
100
AcDbLine
62
0
6
CONTINUOUS
10
-4.3603955143
20
-17.2825226680
11
-4.3603955143
21
-16.0945536725
0
LINE
5
280
100
AcDbEntity
8
0
100
AcDbLine
62
0
6
CONTINUOUS
10
-4.1313335532
20
3.6521013694
11
-4.1313335532
21
3.0728883694
0
LINE
5
281
100
AcDbEntity
8
0
100
AcDbLine
62
0
6
CONTINUOUS
10
-4.1313335532
20
2.7322123694
11
-4.1313335532
21
1.9427773694
0
LINE
5
282
100
AcDbEntity
8
0
100
AcDbLine
62
9
6
CONTINUOUS
10
-4.0256307041
20
-19.7852556304
11
-4.0256307041
21
-19.4853013218
0
LINE
5
283
100
AcDbEntity
8
0
100
AcDbLine
62
9
6
CONTINUOUS
10
-6.2708685532
20
-9.7227858793
11
-6.2534134883
21
-9.6352972157
0
LINE
5
284
100
AcDbEntity
8
0
100
AcDbLine
62
9
6
CONTINUOUS
10
-5.9712792476
20
-10.0234737642
11
-5.9538241826
21
-9.9359851007
0
LINE
5
285
100
AcDbEntity
8
0
100
AcDbLine
62
0
6
CONTINUOUS
10
9.9270193169
20
15.1677773694
11
9.9254241054
21
15.1661821579
0
LINE
5
286
100
AcDbEntity
8
0
100
AcDbLine
62
0
6
CONTINUOUS
10
5.3026840079
20
-7.7913604037
11
3.1291314468
21
-6.3822226306
0
LINE
5
287
100
AcDbEntity
8
0
100
AcDbLine
62
0
6
CONTINUOUS
10
-3.0668856547
20
-5.7195410415
11
-2.8708685532
21
-6.3822226306
0
LINE
5
288
100
AcDbEntity
8
0
100
AcDbLine
62
9
6
CONTINUOUS
10
-4.4931449127
20
20.1972123924
11
-4.4826726713
21
20.0285633908
0
LINE
5
289
100
AcDbEntity
8
0
100
AcDbLine
62
0
6
CONTINUOUS
10
-2.8251745532
20
3.9927773694
11
-2.8251745532
21
1.9427773694
0
LINE
5
28A
100
AcDbEntity
8
0
100
AcDbLine
62
0
6
CONTINUOUS
10
-2.7606935532
20
9.4178273694
11
-2.7606995532
21
6.9177083694
0
LINE
5
28B
100
AcDbEntity
8
0
100
AcDbLine
62
0
6
CONTINUOUS
10
-2.3850565532
20
3.9927773694
11
-2.3850565532
21
2.2834533694
0
LINE
5
28C
100
AcDbEntity
8
0
100
AcDbLine
62
0
6
CONTINUOUS
10
-2.3708685532
20
20.8177773694
11
-2.3708685532
21
22.0177773694
0
LINE
5
28D
100
AcDbEntity
8
0
100
AcDbLine
62
0
6
CONTINUOUS
10
-2.2606745532
20
9.4178273694
11
-2.2606815532
21
6.9177143694
0
LINE
5
28E
100
AcDbEntity
8
0
100
AcDbLine
62
9
6
CONTINUOUS
10
-1.9708685532
20
-19.7829262855
11
-1.9708685532
21
-18.8223564422
0
LINE
5
28F
100
AcDbEntity
8
0
100
AcDbLine
62
9
6
CONTINUOUS
10
-1.9708685532
20
-7.0496776955
11
-1.9708685532
21
-7.0322226306
0
LINE
5
290
100
AcDbEntity
8
0
100
AcDbLine
62
9
6
CONTINUOUS
10
-1.9708685532
20
-18.0217495916
11
-1.9708685532
21
-18.0322226306
0
LINE
5
291
100
AcDbEntity
8
0
100
AcDbLine
62
0
6
CONTINUOUS
10
-1.7606745532
20
9.4178273694
11
-1.7606745532
21
6.9177143694
0
LINE
5
292
100
AcDbEntity
8
0
100
AcDbLine
62
0
6
CONTINUOUS
10
-1.6265575532
20
2.2834533694
11
-1.6265575532
21
1.9427773694
0
LINE
5
293
100
AcDbEntity
8
0
100
AcDbLine
62
0
6
CONTINUOUS
10
-0.0710435532
20
9.4178273694
11
-0.5379125532
21
7.7896643694
0
LINE
5
294
100
AcDbEntity
8
0
100
AcDbLine
62
0
6
CONTINUOUS
10
0.1848254468
20
8.5663713694
11
-0.2879125532
21
6.9177213694
0
LINE
5
295
100
AcDbEntity
8
0
100
AcDbLine
62
0
6
CONTINUOUS
10
-0.6643925532
20
3.9927773694
11
-1.4054565532
21
1.9427773694
0
LINE
5
296
100
AcDbEntity
8
0
100
AcDbLine
62
9
6
CONTINUOUS
10
6.9445814176
20
-14.3397158041
11
6.9210456610
21
-14.3033693479
0
LINE
5
297
100
AcDbEntity
8
0
100
AcDbLine
62
0
6
CONTINUOUS
10
-5.1994815532
20
9.4178273694
11
-4.3967815532
21
6.9177083694
0
LINE
5
298
100
AcDbEntity
8
0
100
AcDbLine
62
0
6
CONTINUOUS
10
-4.6994565532
20
9.4178273694
11
-4.1467565532
21
7.6963643694
0
LINE
5
299
100
AcDbEntity
8
0
100
AcDbLine
62
0
6
CONTINUOUS
10
-1.2606565532
20
8.5663713694
11
-1.2606565532
21
6.9177143694
0
LINE
5
29A
100
AcDbEntity
8
0
100
AcDbLine
62
0
6
CONTINUOUS
10
0.1291314468
20
22.0177773694
11
0.1291314468
21
20.8177773694
0
LINE
5
29B
100
AcDbEntity
8
0
100
AcDbLine
62
0
6
CONTINUOUS
10
0.1848254468
20
8.5663713694
11
0.1848314468
21
6.9177143694
0
LINE
5
29C
100
AcDbEntity
8
0
100
AcDbLine
62
0
6
CONTINUOUS
10
1.8208874468
20
9.4178333694
11
1.0181944468
21
6.9177143694
0
LINE
5
29D
100
AcDbEntity
8
0
100
AcDbLine
62
0
6
CONTINUOUS
10
1.6760694468
20
7.4093833694
11
1.5182124468
21
6.9177213694
0
LINE
5
29E
100
AcDbEntity
8
0
100
AcDbLine
62
0
6
CONTINUOUS
10
2.0709064468
20
8.6391773694
11
1.8285874468
21
7.8844023694
0
LINE
5
29F
100
AcDbEntity
8
0
100
AcDbLine
62
0
6
CONTINUOUS
10
-0.4144185532
20
3.6010443694
11
-0.7183945532
21
2.7179403694
0
LINE
5
2A0
100
AcDbEntity
8
0
100
AcDbLine
62
0
6
CONTINUOUS
10
-0.8319535532
20
2.3772633694
11
-0.9852425532
21
1.9427773694
0
LINE
5
2A1
100
AcDbEntity
8
0
100
AcDbLine
62
0
6
CONTINUOUS
10
-5.7539865608
20
-10.8261985567
11
-5.7549869922
21
-10.8284187570
0
LINE
5
2A2
100
AcDbEntity
8
0
100
AcDbLine
62
0
6
CONTINUOUS
10
-5.4545709588
20
-10.0234737642
11
-5.4587073383
21
-10.0322226306
0
LINE
5
2A3
100
AcDbEntity
8
0
100
AcDbLine
62
0
6
CONTINUOUS
10
-9.6687564234
20
-9.2322226306
11
-9.6635895128
21
-9.2270557200
0
LINE
5
2A4
100
AcDbEntity
8
0
100
AcDbLine
62
0
6
CONTINUOUS
10
9.9270193169
20
-9.2322226306
11
9.9218524064
21
-9.2270557200
0
LINE
5
2A5
100
AcDbEntity
8
0
100
AcDbLine
62
0
6
CONTINUOUS
10
0.6848504468
20
9.4178273694
11
0.6848504468
21
6.9177143694
0
LINE
5
2A6
100
AcDbEntity
8
0
100
AcDbLine
62
0
6
CONTINUOUS
10
0.7949784468
20
3.9927773694
11
0.7949784468
21
1.9427773694
0
LINE
5
2A7
100
AcDbEntity
8
0
100
AcDbLine
62
0
6
CONTINUOUS
10
1.2067064468
20
3.6584883694
11
1.2067064468
21
1.9427773694
0
LINE
5
2A8
100
AcDbEntity
8
0
100
AcDbLine
62
0
6
CONTINUOUS
10
3.5946844468
20
3.9927773694
11
2.8535424468
21
1.9427773694
0
LINE
5
2A9
100
AcDbEntity
8
0
100
AcDbLine
62
0
6
CONTINUOUS
10
4.8297144468
20
1.9427773694
11
4.3868964468
21
1.9427773694
0
LINE
5
2AA
100
AcDbEntity
8
0
100
AcDbLine
62
0
6
CONTINUOUS
10
3.2737564468
20
1.9427773694
11
2.8535424468
21
1.9427773694
0
LINE
5
2AB
100
AcDbEntity
8
0
100
AcDbLine
62
0
6
CONTINUOUS
10
2.6462514468
20
1.9427773694
11
2.0215994468
21
1.9427773694
0
LINE
5
2AC
100
AcDbEntity
8
0
100
AcDbLine
62
0
6
CONTINUOUS
10
1.2067064468
20
1.9427773694
11
0.7949784468
21
1.9427773694
0
LINE
5
2AD
100
AcDbEntity
8
0
100
AcDbLine
62
0
6
CONTINUOUS
10
0.5707154468
20
1.9427773694
11
0.1277424468
21
1.9427773694
0
LINE
5
2AE
100
AcDbEntity
8
0
100
AcDbLine
62
0
6
CONTINUOUS
10
-0.9852425532
20
1.9427773694
11
-1.4054565532
21
1.9427773694
0
LINE
5
2AF
100
AcDbEntity
8
0
100
AcDbLine
62
0
6
CONTINUOUS
10
-1.6265575532
20
1.9427773694
11
-2.8251745532
21
1.9427773694
0
LINE
5
2B0
100
AcDbEntity
8
0
100
AcDbLine
62
0
6
CONTINUOUS
10
-4.1313335532
20
1.9427773694
11
-4.5714515532
21
1.9427773694
0
LINE
5
2B1
100
AcDbEntity
8
0
100
AcDbLine
62
0
6
CONTINUOUS
10
-1.6265575532
20
2.2834533694
11
-2.3850565532
21
2.2834533694
0
LINE
5
2B2
100
AcDbEntity
8
0
100
AcDbLine
62
0
6
CONTINUOUS
10
4.2391614468
20
2.3772633694
11
3.4271224468
21
2.3772633694
0
LINE
5
2B3
100
AcDbEntity
8
0
100
AcDbLine
62
0
6
CONTINUOUS
10
-0.0199145532
20
2.3772633694
11
-0.8319535532
21
2.3772633694
0
LINE
5
2B4
100
AcDbEntity
8
0
100
AcDbLine
62
0
6
CONTINUOUS
10
5.7169702318
20
-10.0322226306
11
5.7128338524
21
-10.0234737642
0
LINE
5
2B5
100
AcDbEntity
8
0
100
AcDbLine
62
0
6
CONTINUOUS
10
6.0122494544
20
-10.8261985567
11
6.0132498858
21
-10.8284187570
0
LINE
5
2B6
100
AcDbEntity
8
0
100
AcDbLine
62
0
6
CONTINUOUS
10
-0.1419595532
20
3.9927773694
11
0.5707154468
21
1.9427773694
0
LINE
5
2B7
100
AcDbEntity
8
0
100
AcDbLine
62
0
6
CONTINUOUS
10
-0.0199145532
20
2.3772633694
11
0.1277424468
21
1.9427773694
0
LINE
5
2B8
100
AcDbEntity
8
0
100
AcDbLine
62
0
6
CONTINUOUS
10
-0.4144185532
20
3.6010443694
11
-0.1306195532
21
2.7179403694
0
LINE
5
2B9
100
AcDbEntity
8
0
100
AcDbLine
62
0
6
CONTINUOUS
10
-1.2606565532
20
8.5663713694
11
-0.7879185532
21
6.9177143694
0
LINE
5
2BA
100
AcDbEntity
8
0
100
AcDbLine
62
0
6
CONTINUOUS
10
-1.0047815532
20
9.4178273694
11
-0.5379125532
21
7.7896643694
0
LINE
5
2BB
100
AcDbEntity
8
0
100
AcDbLine
62
9
6
CONTINUOUS
10
2.2291314468
20
-7.0496776955
11
2.2291314468
21
-7.0322226306
0
LINE
5
2BC
100
AcDbEntity
8
0
100
AcDbLine
62
9
6
CONTINUOUS
10
2.2291314468
20
-18.0217495916
11
2.2291314468
21
-18.0322226306
0
LINE
5
2BD
100
AcDbEntity
8
0
100
AcDbLine
62
0
6
CONTINUOUS
10
2.2345224468
20
3.9927773694
11
2.2345224468
21
2.3682493694
0
LINE
5
2BE
100
AcDbEntity
8
0
100
AcDbLine
62
0
6
CONTINUOUS
10
2.6462514468
20
3.9927773694
11
2.6462514468
21
1.9427773694
0
LINE
5
2BF
100
AcDbEntity
8
0
100
AcDbLine
62
0
6
CONTINUOUS
10
3.4569814468
20
9.4178333694
11
3.4569814468
21
6.9177213694
0
LINE
5
2C0
100
AcDbEntity
8
0
100
AcDbLine
62
0
6
CONTINUOUS
10
3.9501064468
20
8.9553153694
11
3.9501124468
21
8.3469273694
0
LINE
5
2C1
100
AcDbEntity
8
0
100
AcDbLine
62
0
6
CONTINUOUS
10
3.9570624468
20
7.8844083694
11
3.9570064468
21
6.9177213694
0
LINE
5
2C2
100
AcDbEntity
8
0
100
AcDbLine
62
9
6
CONTINUOUS
10
2.2291314468
20
-19.7829262855
11
2.2291314468
21
-18.8223564422
0
LINE
5
2C3
100
AcDbEntity
8
0
100
AcDbLine
62
9
6
CONTINUOUS
10
4.7409355649
20
20.0285633908
11
4.7514078062
21
20.1972123924
0
LINE
5
2C4
100
AcDbEntity
8
0
100
AcDbLine
62
9
6
CONTINUOUS
10
5.0431778386
20
19.7677773694
11
5.0513963832
21
19.9001319718
0
LINE
5
2C5
100
AcDbEntity
8
0
100
AcDbLine
62
0
6
CONTINUOUS
10
3.8446184468
20
3.6009283694
11
3.5406814468
21
2.7179403694
0
LINE
5
2C6
100
AcDbEntity
8
0
100
AcDbLine
62
0
6
CONTINUOUS
10
3.4271224468
20
2.3772633694
11
3.2737564468
21
1.9427773694
0
LINE
5
2C7
100
AcDbEntity
8
0
100
AcDbLine
62
9
6
CONTINUOUS
10
-6.6863185241
20
-14.3397158041
11
-6.6627827675
21
-14.3033693479
0
LINE
5
2C8
100
AcDbEntity
8
0
100
AcDbLine
62
0
6
CONTINUOUS
10
4.1283804468
20
2.7179403694
11
3.5406814468
21
2.7179403694
0
LINE
5
2C9
100
AcDbEntity
8
0
100
AcDbLine
62
0
6
CONTINUOUS
10
-0.1306195532
20
2.7179403694
11
-0.7183945532
21
2.7179403694
0
LINE
5
2CA
100
AcDbEntity
8
0
100
AcDbLine
62
0
6
CONTINUOUS
10
-3.9441219507
20
2.7322123694
11
-4.1313335532
21
2.7322123694
0
LINE
5
2CB
100
AcDbEntity
8
0
100
AcDbLine
62
0
6
CONTINUOUS
10
-3.8745805236
20
3.0728883694
11
-4.1313335532
21
3.0728883694
0
LINE
5
2CC
100
AcDbEntity
8
0
100
AcDbLine
62
0
6
CONTINUOUS
10
-3.8745805352
20
3.6521013694
11
-4.1313335532
21
3.6521013694
0
LINE
5
2CD
100
AcDbEntity
8
0
100
AcDbLine
62
0
6
CONTINUOUS
10
4.1171164468
20
3.9927773694
11
3.5946844468
21
3.9927773694
0
LINE
5
2CE
100
AcDbEntity
8
0
100
AcDbLine
62
0
6
CONTINUOUS
10
2.6462514468
20
3.9927773694
11
2.2345224468
21
3.9927773694
0
LINE
5
2CF
100
AcDbEntity
8
0
100
AcDbLine
62
0
6
CONTINUOUS
10
1.4480194468
20
3.9927773694
11
0.7949784468
21
3.9927773694
0
LINE
5
2D0
100
AcDbEntity
8
0
100
AcDbLine
62
0
6
CONTINUOUS
10
-0.1419595532
20
3.9927773694
11
-0.6643925532
21
3.9927773694
0
LINE
5
2D1
100
AcDbEntity
8
0
100
AcDbLine
62
0
6
CONTINUOUS
10
-2.3850565532
20
3.9927773694
11
-2.8251745532
21
3.9927773694
0
LINE
5
2D2
100
AcDbEntity
8
0
100
AcDbLine
62
0
6
CONTINUOUS
10
-3.9441219903
20
3.9927773694
11
-4.5714515532
21
3.9927773694
0
LINE
5
2D3
100
AcDbEntity
8
0
100
AcDbLine
62
0
6
CONTINUOUS
10
-9.6687564234
20
15.1677773694
11
-9.6671612118
21
15.1661821579
0
LINE
5
2D4
100
AcDbEntity
8
0
100
AcDbLine
62
0
6
CONTINUOUS
10
1.4480194468
20
3.9927773694
11
2.2345224468
21
2.3682493694
0
LINE
5
2D5
100
AcDbEntity
8
0
100
AcDbLine
62
0
6
CONTINUOUS
10
1.2067064468
20
3.6584883694
11
2.0215994468
21
1.9427773694
0
LINE
5
2D6
100
AcDbEntity
8
0
100
AcDbLine
62
9
6
CONTINUOUS
10
4.2838935976
20
-19.7852556304
11
4.2838935976
21
-19.4853013218
0
LINE
5
2D7
100
AcDbEntity
8
0
100
AcDbLine
62
0
6
CONTINUOUS
10
4.6186584078
20
-16.0945536725
11
4.6186584078
21
-17.2825226680
0
LINE
5
2D8
100
AcDbEntity
8
0
100
AcDbLine
62
0
6
CONTINUOUS
10
4.7409355649
20
19.2677773694
11
4.7409355649
21
20.0285633908
0
LINE
5
2D9
100
AcDbEntity
8
0
100
AcDbLine
62
0
6
CONTINUOUS
10
4.7514078062
20
20.1972123924
11
4.7514078062
21
20.7602213518
0
LINE
5
2DA
100
AcDbEntity
8
0
100
AcDbLine
62
0
6
CONTINUOUS
10
4.7686584078
20
-18.2869238550
11
4.7686584078
21
-16.8822226306
0
LINE
5
2DB
100
AcDbEntity
8
0
100
AcDbLine
62
0
6
CONTINUOUS
10
4.7791314468
20
-19.3193317930
11
4.7791314468
21
-16.8822226306
0
LINE
5
2DC
100
AcDbEntity
8
0
100
AcDbLine
62
9
6
CONTINUOUS
10
5.0409241418
20
18.9677773694
11
5.0409241418
21
19.7677773694
0
LINE
5
2DD
100
AcDbEntity
8
0
100
AcDbLine
62
9
6
CONTINUOUS
10
5.0513963832
20
19.9001319718
11
5.0513963832
21
20.7654121746
0
LINE
5
2DE
100
AcDbEntity
8
0
100
AcDbLine
62
9
6
CONTINUOUS
10
5.2068665104
20
19.9001319718
11
5.2068665104
21
20.7654121746
0
LINE
5
2DF
100
AcDbEntity
8
0
100
AcDbLine
62
9
6
CONTINUOUS
10
5.2173387517
20
18.9677773694
11
5.2173387517
21
19.7677773694
0
LINE
5
2E0
100
AcDbEntity
8
0
100
AcDbLine
62
0
6
CONTINUOUS
10
5.3791314468
20
-16.8822226306
11
5.3791314468
21
-19.2270823660
0
LINE
5
2E1
100
AcDbEntity
8
0
100
AcDbLine
62
0
6
CONTINUOUS
10
5.3896044857
20
-17.9707144746
11
5.3896044857
21
-16.8822226306
0
LINE
5
2E2
100
AcDbEntity
8
0
100
AcDbLine
62
0
6
CONTINUOUS
10
5.5068550873
20
20.7602213518
11
5.5068550873
21
20.1972123924
0
LINE
5
2E3
100
AcDbEntity
8
0
100
AcDbLine
62
0
6
CONTINUOUS
10
5.5173273287
20
20.0285633908
11
5.5173273287
21
19.2677773694
0
LINE
5
2E4
100
AcDbEntity
8
0
100
AcDbLine
62
0
6
CONTINUOUS
10
3.3251485482
20
-5.7195410415
11
3.1291314468
21
-6.3822226306
0
LINE
5
2E5
100
AcDbEntity
8
0
100
AcDbLine
62
0
6
CONTINUOUS
10
-2.8708685532
20
-6.3822226306
11
-5.0444211144
21
-7.7913604037
0
LINE
5
2E6
100
AcDbEntity
8
0
100
AcDbLine
62
0
6
CONTINUOUS
10
4.1171164468
20
3.9927773694
11
4.8297144468
21
1.9427773694
0
LINE
5
2E7
100
AcDbEntity
8
0
100
AcDbLine
62
0
6
CONTINUOUS
10
4.2391614468
20
2.3772633694
11
4.3868964468
21
1.9427773694
0
LINE
5
2E8
100
AcDbEntity
8
0
100
AcDbLine
62
0
6
CONTINUOUS
10
3.8446184468
20
3.6009283694
11
4.1283804468
21
2.7179403694
0
LINE
5
2E9
100
AcDbEntity
8
0
100
AcDbLine
62
0
6
CONTINUOUS
10
2.4657624468
20
7.4093833694
11
2.6236124468
21
6.9177213694
0
LINE
5
2EA
100
AcDbEntity
8
0
100
AcDbLine
62
0
6
CONTINUOUS
10
2.0709064468
20
8.6391773694
11
2.3132374468
21
7.8844023694
0
LINE
5
2EB
100
AcDbEntity
8
0
100
AcDbLine
62
0
6
CONTINUOUS
10
2.3209314468
20
9.4178333694
11
3.1236374468
21
6.9177143694
0
LINE
5
2EC
100
AcDbEntity
8
0
100
AcDbLine
62
9
6
CONTINUOUS
10
6.2120870762
20
-9.9359851007
11
6.2295421411
21
-10.0234737642
0
LINE
5
2ED
100
AcDbEntity
8
0
100
AcDbLine
62
9
6
CONTINUOUS
10
6.5116763818
20
-9.6352972157
11
6.5291314468
21
-9.7227858793
0
LINE
5
2EE
100
AcDbEntity
8
0
100
AcDbLine
62
9
6
CONTINUOUS
10
5.2068665104
20
19.9001319718
11
5.2150850550
21
19.7677773694
0
LINE
5
2EF
100
AcDbEntity
8
0
100
AcDbLine
62
9
6
CONTINUOUS
10
5.5068550873
20
20.1972123924
11
5.5173273287
21
20.0285633908
0
LINE
5
2F0
100
AcDbEntity
8
0
100
AcDbLine
62
0
6
CONTINUOUS
10
6.5116763818
20
-9.6352972157
11
6.5116763818
21
-9.2158665725
0
LINE
5
2F1
100
AcDbEntity
8
0
100
AcDbLine
62
0
6
CONTINUOUS
10
6.5291314468
20
20.8177773694
11
6.5291314468
21
20.4177773694
0
LINE
5
2F2
100
AcDbEntity
8
0
100
AcDbLine
62
0
6
CONTINUOUS
10
6.5291314468
20
-19.8822226306
11
6.5291314468
21
-19.4822226306
0
LINE
5
2F3
100
AcDbEntity
8
0
100
AcDbLine
62
0
6
CONTINUOUS
10
7.1291314468
20
20.8177773694
11
7.1291314468
21
20.4177773694
0
LINE
5
2F4
100
AcDbEntity
8
0
100
AcDbLine
62
0
6
CONTINUOUS
10
7.1291314468
20
-19.8822226306
11
7.1291314468
21
-19.4822226306
0
LINE
5
2F5
100
AcDbEntity
8
0
100
AcDbLine
62
9
6
CONTINUOUS
10
-9.6739015530
20
-19.5852860913
11
-9.7708685532
21
-19.6822530915
0
LINE
5
2F6
100
AcDbEntity
8
0
100
AcDbLine
62
9
6
CONTINUOUS
10
-9.4739318100
20
-19.7852554264
11
-9.4947011863
21
-19.8060248027
0
LINE
5
2F7
100
AcDbEntity
8
0
100
AcDbLine
62
0
6
CONTINUOUS
10
5.4577444468
20
6.9177273694
11
4.8945504468
21
6.9177213694
0
LINE
5
2F8
100
AcDbEntity
8
0
100
AcDbLine
62
0
6
CONTINUOUS
10
1.5182124468
20
6.9177213694
11
1.0181944468
21
6.9177143694
0
LINE
5
2F9
100
AcDbEntity
8
0
100
AcDbLine
62
0
6
CONTINUOUS
10
0.6848504468
20
6.9177143694
11
0.1848314468
21
6.9177143694
0
LINE
5
2FA
100
AcDbEntity
8
0
100
AcDbLine
62
0
6
CONTINUOUS
10
-1.2606565532
20
6.9177143694
11
-1.7606745532
21
6.9177143694
0
LINE
5
2FB
100
AcDbEntity
8
0
100
AcDbLine
62
0
6
CONTINUOUS
10
3.9570064468
20
6.9177213694
11
3.4569814468
21
6.9177213694
0
LINE
5
2FC
100
AcDbEntity
8
0
100
AcDbLine
62
0
6
CONTINUOUS
10
-0.2879125532
20
6.9177213694
11
-0.7879185532
21
6.9177143694
0
LINE
5
2FD
100
AcDbEntity
8
0
100
AcDbLine
62
0
6
CONTINUOUS
10
-2.2606815532
20
6.9177143694
11
-2.7606995532
21
6.9177083694
0
LINE
5
2FE
100
AcDbEntity
8
0
100
AcDbLine
62
0
6
CONTINUOUS
10
3.1236374468
20
6.9177143694
11
2.6236124468
21
6.9177213694
0
LINE
5
2FF
100
AcDbEntity
8
0
100
AcDbLine
62
0
6
CONTINUOUS
10
-3.8967435532
20
6.9177143694
11
-4.3967815532
21
6.9177083694
0
LINE
5
300
100
AcDbEntity
8
0
100
AcDbLine
62
0
6
CONTINUOUS
10
2.4657624468
20
7.4093833694
11
1.6760694468
21
7.4093833694
0
LINE
5
301
100
AcDbEntity
8
0
100
AcDbLine
62
0
6
CONTINUOUS
10
2.3132374468
20
7.8844023694
11
1.8285874468
21
7.8844023694
0
LINE
5
302
100
AcDbEntity
8
0
100
AcDbLine
62
0
6
CONTINUOUS
10
4.3934694468
20
7.8844023694
11
3.9570624468
21
7.8844083694
0
LINE
5
303
100
AcDbEntity
8
0
100
AcDbLine
62
9
6
CONTINUOUS
10
10.0291314468
20
7.9677773694
11
10.0166958369
21
7.9677773694
0
LINE
5
304
100
AcDbEntity
8
0
100
AcDbLine
62
9
6
CONTINUOUS
10
-9.7708685532
20
7.9677773694
11
-9.7584329434
21
7.9677773694
0
LINE
5
305
100
AcDbEntity
8
0
100
AcDbLine
62
9
6
CONTINUOUS
10
-9.7708685532
20
20.6178078304
11
-9.6739015530
21
20.5208408302
0
LINE
5
306
100
AcDbEntity
8
0
100
AcDbLine
62
9
6
CONTINUOUS
10
-9.5708990142
20
20.8177773694
11
-9.4739320207
21
20.7208103760
0
LINE
5
307
100
AcDbEntity
8
0
100
AcDbLine
62
0
6
CONTINUOUS
10
4.3934694468
20
7.8844023694
11
4.8945504468
21
6.9177213694
0
LINE
5
308
100
AcDbEntity
8
0
100
AcDbLine
62
9
6
CONTINUOUS
10
8.8291314468
20
15.1677773694
11
8.8291314468
21
15.1627448787
0
LINE
5
309
100
AcDbEntity
8
0
100
AcDbLine
62
9
6
CONTINUOUS
10
8.8291314468
20
-9.2322226306
11
8.8291314468
21
-9.2236218460
0
LINE
5
30A
100
AcDbEntity
8
0
100
AcDbLine
62
9
6
CONTINUOUS
10
8.8291314468
20
-9.8322226306
11
8.8291314468
21
-9.8404627573
0
LINE
5
30B
100
AcDbEntity
8
0
100
AcDbLine
62
9
6
CONTINUOUS
10
8.8291314468
20
15.7677773694
11
8.8291314468
21
15.7722749099
0
LINE
5
30C
100
AcDbEntity
8
0
100
AcDbLine
62
9
6
CONTINUOUS
10
5.6928431672
20
-7.1895516552
11
5.3026840079
21
-7.7913604037
0
LINE
5
30D
100
AcDbEntity
8
0
100
AcDbLine
62
0
6
CONTINUOUS
10
4.5584544468
20
8.3469273694
11
3.9501124468
21
8.3469273694
0
LINE
5
30E
100
AcDbEntity
8
0
100
AcDbLine
62
0
6
CONTINUOUS
10
4.5584544468
20
8.9553153694
11
3.9501064468
21
8.9553153694
0
LINE
5
30F
100
AcDbEntity
8
0
100
AcDbLine
62
0
6
CONTINUOUS
10
0.6848504468
20
9.4178273694
11
-0.0710435532
21
9.4178273694
0
LINE
5
310
100
AcDbEntity
8
0
100
AcDbLine
62
0
6
CONTINUOUS
10
-1.0047815532
20
9.4178273694
11
-1.7606745532
21
9.4178273694
0
LINE
5
311
100
AcDbEntity
8
0
100
AcDbLine
62
0
6
CONTINUOUS
10
-2.2606745532
20
9.4178273694
11
-2.7606935532
21
9.4178273694
0
LINE
5
312
100
AcDbEntity
8
0
100
AcDbLine
62
0
6
CONTINUOUS
10
-3.0940375532
20
9.4178273694
11
-3.5940625532
21
9.4178273694
0
LINE
5
313
100
AcDbEntity
8
0
100
AcDbLine
62
0
6
CONTINUOUS
10
-4.6994565532
20
9.4178273694
11
-5.1994815532
21
9.4178273694
0
LINE
5
314
100
AcDbEntity
8
0
100
AcDbLine
62
0
6
CONTINUOUS
10
4.6278564468
20
9.4178333694
11
3.4569814468
21
9.4178333694
0
LINE
5
315
100
AcDbEntity
8
0
100
AcDbLine
62
0
6
CONTINUOUS
10
2.3209314468
20
9.4178333694
11
1.8208874468
21
9.4178333694
0
LINE
5
316
100
AcDbEntity
8
0
100
AcDbLine
62
0
6
CONTINUOUS
10
4.9254992374
20
7.9445357025
11
5.4577444468
21
6.9177273694
0
LINE
5
317
100
AcDbEntity
8
0
100
AcDbLine
62
9
6
CONTINUOUS
10
9.7304798643
20
-19.4853013218
11
9.7222376581
21
-9.8404627824
0
LINE
5
318
100
AcDbEntity
8
0
100
AcDbLine
62
0
6
CONTINUOUS
10
9.9270193169
20
-9.8322226306
11
9.9270193169
21
-9.2322226306
0
LINE
5
319
100
AcDbEntity
8
0
100
AcDbLine
62
0
6
CONTINUOUS
10
9.9270193169
20
15.1677773694
11
9.9270193169
21
15.7677773694
0
LINE
5
31A
100
AcDbEntity
8
0
100
AcDbLine
62
9
6
CONTINUOUS
10
9.9304494034
20
-19.4853013218
11
9.9304494034
21
-19.2204805525
0
LINE
5
31B
100
AcDbEntity
8
0
100
AcDbLine
62
9
6
CONTINUOUS
10
9.9304494034
20
20.1560352914
11
9.9304494034
21
20.4208560607
0
LINE
5
31C
100
AcDbEntity
8
0
100
AcDbLine
62
0
6
CONTINUOUS
10
10.0166958369
20
-7.0322226306
11
10.0166958369
21
7.9677773694
0
LINE
5
31D
100
AcDbEntity
8
0
100
AcDbLine
62
0
6
CONTINUOUS
10
10.0291314468
20
-19.6822530915
11
10.0291314468
21
-7.0322226306
0
LINE
5
31E
100
AcDbEntity
8
0
100
AcDbLine
62
0
6
CONTINUOUS
10
10.0291314468
20
7.9677773694
11
10.0291314468
21
20.6178078304
0
LINE
5
31F
100
AcDbEntity
8
0
100
AcDbLine
62
0
6
CONTINUOUS
10
10.7291314468
20
-5.5123542152
11
10.7291314468
21
6.4479089541
0
LINE
5
320
100
AcDbEntity
8
0
100
AcDbLine
62
0
6
CONTINUOUS
10
11.0291314468
20
-20.3823444744
11
11.0291314468
21
21.3178992133
0
LINE
5
321
100
AcDbEntity
8
0
100
AcDbLine
62
9
6
CONTINUOUS
10
9.7254431465
20
15.1627449815
11
9.7218772418
21
-9.2236219046
0
LINE
5
322
100
AcDbEntity
8
0
100
AcDbLine
62
9
6
CONTINUOUS
10
9.7304798643
20
20.4208607619
11
9.7259777385
21
15.7722749700
0
LINE
5
323
100
AcDbEntity
8
0
100
AcDbLine
62
9
6
CONTINUOUS
10
6.4441902378
20
-9.0232539673
11
6.4422236320
21
-9.0239248662
0
LINE
5
324
100
AcDbEntity
8
0
100
AcDbLine
62
0
6
CONTINUOUS
10
6.0122494544
20
-14.2382467044
11
6.0132498858
21
-14.2360265041
0
LINE
5
325
100
AcDbEntity
8
0
100
AcDbLine
62
9
6
CONTINUOUS
10
6.9445814176
20
-10.7247294570
11
6.9210456610
21
-10.7610759133
0
LINE
5
326
100
AcDbEntity
8
0
100
AcDbLine
62
0
6
CONTINUOUS
10
9.9270193169
20
-9.8322226306
11
9.9222092902
21
-9.8370326573
0
LINE
5
327
100
AcDbEntity
8
0
100
AcDbLine
62
0
6
CONTINUOUS
10
9.7254431723
20
15.1627448788
11
8.8291314468
21
15.1627448787
0
LINE
5
328
100
AcDbEntity
8
0
100
AcDbLine
62
0
6
CONTINUOUS
10
-8.5708685532
20
15.1627448787
11
-9.4671802788
21
15.1627448788
0
LINE
5
329
100
AcDbEntity
8
0
100
AcDbLine
62
0
6
CONTINUOUS
10
9.9270193169
20
15.1677773694
11
8.8291314468
21
15.1677773694
0
LINE
5
32A
100
AcDbEntity
8
0
100
AcDbLine
62
0
6
CONTINUOUS
10
-8.5708685532
20
15.1677773694
11
-9.6687564234
21
15.1677773694
0
LINE
5
32B
100
AcDbEntity
8
0
100
AcDbLine
62
0
6
CONTINUOUS
10
-9.6687564234
20
15.7677773694
11
-8.5708685532
21
15.7677773694
0
LINE
5
32C
100
AcDbEntity
8
0
100
AcDbLine
62
0
6
CONTINUOUS
10
8.8291314468
20
15.7677773694
11
9.9270193169
21
15.7677773694
0
LINE
5
32D
100
AcDbEntity
8
0
100
AcDbLine
62
0
6
CONTINUOUS
10
9.7259777461
20
15.7722749099
11
8.8291314468
21
15.7722749099
0
LINE
5
32E
100
AcDbEntity
8
0
100
AcDbLine
62
0
6
CONTINUOUS
10
-8.5708685532
20
15.7722749099
11
-9.4677148526
21
15.7722749099
0
LINE
5
32F
100
AcDbEntity
8
0
100
AcDbLine
62
0
6
CONTINUOUS
10
9.9270193169
20
15.7677773694
11
9.9259533825
21
15.7688433038
0
LINE
5
330
100
AcDbEntity
8
0
100
AcDbLine
62
0
6
CONTINUOUS
10
7.1291314468
20
20.4177773694
11
9.6837482780
21
20.8107953435
0
LINE
5
331
100
AcDbEntity
8
0
100
AcDbLine
62
0
6
CONTINUOUS
10
5.2173387517
20
18.9677773694
11
5.0409241418
21
18.9677773694
0
LINE
5
332
100
AcDbEntity
8
0
100
AcDbLine
62
0
6
CONTINUOUS
10
-4.7826612483
20
18.9677773694
11
-4.9590758582
21
18.9677773694
0
LINE
5
333
100
AcDbEntity
8
0
100
AcDbLine
62
9
6
CONTINUOUS
10
5.5173273287
20
19.2677773694
11
4.7409355649
21
19.2677773694
0
LINE
5
334
100
AcDbEntity
8
0
100
AcDbLine
62
9
6
CONTINUOUS
10
-4.4826726713
20
19.2677773694
11
-5.2590644351
21
19.2677773694
0
LINE
5
335
100
AcDbEntity
8
0
100
AcDbLine
62
0
6
CONTINUOUS
10
5.2173387517
20
19.7677773694
11
5.0409241418
21
19.7677773694
0
LINE
5
336
100
AcDbEntity
8
0
100
AcDbLine
62
0
6
CONTINUOUS
10
-4.7826612483
20
19.7677773694
11
-4.9590758582
21
19.7677773694
0
LINE
5
337
100
AcDbEntity
8
0
100
AcDbLine
62
9
6
CONTINUOUS
10
5.2068665104
20
19.9001319718
11
5.0513963832
21
19.9001319718
0
LINE
5
338
100
AcDbEntity
8
0
100
AcDbLine
62
9
6
CONTINUOUS
10
-4.7931334896
20
19.9001319718
11
-4.9486036168
21
19.9001319718
0
LINE
5
339
100
AcDbEntity
8
0
100
AcDbLine
62
0
6
CONTINUOUS
10
4.7291314468
20
20.1626371049
11
-4.4708685532
21
20.1626371049
0
LINE
5
33A
100
AcDbEntity
8
0
100
AcDbLine
62
0
6
CONTINUOUS
10
9.7304798643
20
20.1626348494
11
5.5291314468
21
20.1626371049
0
LINE
5
33B
100
AcDbEntity
8
0
100
AcDbLine
62
0
6
CONTINUOUS
10
-5.2708685532
20
20.1626371049
11
-9.4722169708
21
20.1626348495
0
LINE
5
33C
100
AcDbEntity
8
0
100
AcDbLine
62
9
6
CONTINUOUS
10
5.5068550873
20
20.1972123924
11
4.7514078062
21
20.1972123924
0
LINE
5
33D
100
AcDbEntity
8
0
100
AcDbLine
62
9
6
CONTINUOUS
10
-4.4931449127
20
20.1972123924
11
-5.2485921938
21
20.1972123924
0
LINE
5
33E
100
AcDbEntity
8
0
100
AcDbLine
62
0
6
CONTINUOUS
10
-6.2708685532
20
20.4177773694
11
-6.8708685532
21
20.4177773694
0
LINE
5
33F
100
AcDbEntity
8
0
100
AcDbLine
62
0
6
CONTINUOUS
10
6.5291314468
20
20.4177773694
11
7.1291314468
21
20.4177773694
0
LINE
5
340
100
AcDbEntity
8
0
100
AcDbLine
62
9
6
CONTINUOUS
10
-6.2708685445
20
20.4208588813
11
-5.2708685532
21
20.4208560607
0
LINE
5
341
100
AcDbEntity
8
0
100
AcDbLine
62
9
6
CONTINUOUS
10
5.5291314468
20
20.4208560607
11
6.5291314433
21
20.4208571796
0
LINE
5
342
100
AcDbEntity
8
0
100
AcDbLine
62
9
6
CONTINUOUS
10
9.9304494034
20
20.4208560607
11
7.1291314433
21
20.4208578510
0
LINE
5
343
100
AcDbEntity
8
0
100
AcDbLine
62
9
6
CONTINUOUS
10
-9.6721865098
20
20.4208560607
11
-6.8708685445
21
20.4208605738
0
LINE
5
344
100
AcDbEntity
8
0
100
AcDbLine
62
9
6
CONTINUOUS
10
-4.4708685532
20
20.4208560607
11
4.7291314468
21
20.4208560607
0
LINE
5
345
100
AcDbEntity
8
0
100
AcDbLine
62
9
6
CONTINUOUS
10
-9.4254853846
20
20.7208103759
11
-8.8405830891
21
20.7208103750
0
LINE
5
346
100
AcDbEntity
8
0
100
AcDbLine
62
9
6
CONTINUOUS
10
-6.2708685534
20
20.7208103708
11
-5.2682961843
21
20.7208103692
0
LINE
5
347
100
AcDbEntity
8
0
100
AcDbLine
62
9
6
CONTINUOUS
10
-4.4734409221
20
20.7208103692
11
4.7317038157
21
20.7208103692
0
LINE
5
348
100
AcDbEntity
8
0
100
AcDbLine
62
9
6
CONTINUOUS
10
5.5265590779
20
20.7208103692
11
6.5291314468
21
20.7208103692
0
LINE
5
349
100
AcDbEntity
8
0
100
AcDbLine
62
9
6
CONTINUOUS
10
9.0988459454
20
20.7208103692
11
9.7321949075
21
20.7208103692
0
LINE
5
34A
100
AcDbEntity
8
0
100
AcDbLine
62
0
6
CONTINUOUS
10
-6.8708685532
20
20.4177773694
11
-9.4254853844
21
20.8107953435
0
LINE
5
34B
100
AcDbEntity
8
0
100
AcDbLine
62
0
6
CONTINUOUS
10
5.2068665104
20
20.7654121746
11
5.0513963832
21
20.7654121746
0
LINE
5
34C
100
AcDbEntity
8
0
100
AcDbLine
62
0
6
CONTINUOUS
10
-4.7931334896
20
20.7654121746
11
-4.9486036168
21
20.7654121746
0
LINE
5
34D
100
AcDbEntity
8
0
100
AcDbLine
62
0
6
CONTINUOUS
10
-2.3708685532
20
20.8125408500
11
0.1291314468
21
20.8125408500
0
LINE
5
34E
100
AcDbEntity
8
0
100
AcDbLine
62
0
6
CONTINUOUS
10
-2.3708685532
20
20.8177773694
11
-9.5708990142
21
20.8177773694
0
LINE
5
34F
100
AcDbEntity
8
0
100
AcDbLine
62
0
6
CONTINUOUS
10
0.1291314468
20
20.8177773694
11
9.8291619077
21
20.8177773694
0
LINE
5
350
100
AcDbEntity
8
0
100
AcDbLine
62
0
6
CONTINUOUS
10
-2.3708685532
20
22.0177773694
11
0.1291314468
21
22.0177773694
0
LINE
5
351
100
AcDbEntity
8
0
100
AcDbLine
62
0
6
CONTINUOUS
10
10.2292532906
20
22.1177773694
11
-9.9709903971
21
22.1177773694
0
ARC
5
352
100
AcDbEntity
8
0
100
AcDbCircle
62
0
6
CONTINUOUS
10
-1.9708685532
20
-12.5322226306
40
3.8087275325
100
AcDbArc
50
204.3673439084
51
217.8759767342
0
ARC
5
353
100
AcDbEntity
8
0
100
AcDbCircle
62
0
6
CONTINUOUS
10
-1.9708685532
20
-12.5322226306
40
3.8087275325
100
AcDbArc
50
142.1240232645
51
155.6326560913
0
ARC
5
354
100
AcDbEntity
8
0
100
AcDbCircle
62
0
6
CONTINUOUS
10
2.2291314468
20
-12.5322226306
40
3.8087275325
100
AcDbArc
50
24.3673439084
51
37.8759767342
0
ARC
5
355
100
AcDbEntity
8
0
100
AcDbCircle
62
0
6
CONTINUOUS
10
2.2291314468
20
-12.5322226306
40
3.8087275325
100
AcDbArc
50
322.1240232645
51
335.6326560913
0
ARC
5
356
100
AcDbEntity
8
0
100
AcDbCircle
62
0
6
CONTINUOUS
10
-1.9708685532
20
-12.5322226306
40
4.2912724675
100
AcDbArc
50
206.9633147825
51
215.6320551568
0
ARC
5
357
100
AcDbEntity
8
0
100
AcDbCircle
62
0
6
CONTINUOUS
10
-1.9708685532
20
-12.5322226306
40
4.2912724675
100
AcDbArc
50
144.3679448432
51
153.0370354764
0
ARC
5
358
100
AcDbEntity
8
0
100
AcDbCircle
62
0
6
CONTINUOUS
10
2.2291314468
20
-12.5322226306
40
4.2912724675
100
AcDbArc
50
26.9633147825
51
35.6320551568
0
ARC
5
359
100
AcDbEntity
8
0
100
AcDbCircle
62
0
6
CONTINUOUS
10
2.2291314468
20
-12.5322226306
40
4.2912724675
100
AcDbArc
50
324.3679448432
51
333.0370354764
0
ARC
5
35A
100
AcDbEntity
8
0
100
AcDbCircle
62
0
6
CONTINUOUS
10
2.2291314468
20
-12.5322226306
40
4.2895269610
100
AcDbArc
50
303.8527694157
51
322.7531437389
0
ARC
5
35B
100
AcDbEntity
8
0
100
AcDbCircle
62
0
6
CONTINUOUS
10
2.2291314468
20
-12.5322226306
40
5.4895269610
100
AcDbArc
50
270.0000000000
51
293.7438417905
0
ARC
5
35C
100
AcDbEntity
8
0
100
AcDbCircle
62
0
6
CONTINUOUS
10
-1.9708685532
20
-12.5322226306
40
5.4895269610
100
AcDbArc
50
246.2561582095
51
270.0000000000
0
ARC
5
35D
100
AcDbEntity
8
0
100
AcDbCircle
62
0
6
CONTINUOUS
10
-1.9708685532
20
-12.5322226306
40
4.2895269610
100
AcDbArc
50
217.2468562611
51
236.1472305843
0
ARC
5
35E
100
AcDbEntity
8
0
100
AcDbCircle
62
0
6
CONTINUOUS
10
-1.9708685532
20
-12.5322226306
40
5.4825449351
100
AcDbArc
50
90.0000000000
51
140.2154021117
0
ARC
5
35F
100
AcDbEntity
8
0
100
AcDbCircle
62
0
6
CONTINUOUS
10
2.2291314468
20
-12.5322226306
40
3.7895269610
100
AcDbArc
50
320.0792135662
51
39.9207864311
0
ARC
5
360
100
AcDbEntity
8
0
100
AcDbCircle
62
0
6
CONTINUOUS
10
-1.9708685532
20
-12.5322226306
40
3.7895269610
100
AcDbArc
50
140.0792135662
51
219.9207864311
0
ARC
5
361
100
AcDbEntity
8
0
100
AcDbCircle
62
0
6
CONTINUOUS
10
2.2291314468
20
-12.5322226306
40
5.4825449351
100
AcDbArc
50
39.7845978882
51
90.0000000000
0
ARC
5
362
100
AcDbEntity
8
0
100
AcDbCircle
62
0
6
CONTINUOUS
10
-1.9708685532
20
-12.5322226306
40
4.4534946172
100
AcDbArc
50
145.6949857633
51
153.2142589725
0
ARC
5
363
100
AcDbEntity
8
0
100
AcDbCircle
62
0
6
CONTINUOUS
10
-1.9708685532
20
-12.5322226306
40
4.4500000000
100
AcDbArc
50
206.7076453021
51
212.6377578227
0
ARC
5
364
100
AcDbEntity
8
0
100
AcDbCircle
62
0
6
CONTINUOUS
10
2.2291314468
20
-12.5322226306
40
4.4500000000
100
AcDbArc
50
327.3622421773
51
333.2923546979
0
ARC
5
365
100
AcDbEntity
8
0
100
AcDbCircle
62
0
6
CONTINUOUS
10
2.2291314468
20
-12.5322226306
40
4.4534954036
100
AcDbArc
50
26.7857585947
51
34.3053046838
0
ARC
5
366
100
AcDbEntity
8
0
100
AcDbCircle
62
0
6
CONTINUOUS
10
2.2291314468
20
-12.5322226306
40
4.1500000000
100
AcDbArc
50
335.7602867576
51
24.2397132424
0
ARC
5
367
100
AcDbEntity
8
0
100
AcDbCircle
62
0
6
CONTINUOUS
10
-1.9708685532
20
-12.5322226306
40
4.1500000000
100
AcDbArc
50
155.7602867576
51
204.2397132424
0
ARC
5
368
100
AcDbEntity
8
0
100
AcDbCircle
62
0
6
CONTINUOUS
10
4.5584544468
20
8.6511203694
40
0.3041950000
100
AcDbArc
50
270.0016550819
51
90.0000000000
0
ARC
5
369
100
AcDbEntity
8
0
100
AcDbCircle
62
0
6
CONTINUOUS
10
4.6278564468
20
8.6511203694
40
0.7667158029
100
AcDbArc
50
292.8428457417
51
89.9989363352
0
ARC
5
36A
100
AcDbEntity
8
0
100
AcDbCircle
62
0
6
CONTINUOUS
10
-1.9708685532
20
-12.5322226306
40
4.4534875415
100
AcDbArc
50
218.0753500692
51
237.3746915521
0
ARC
5
36B
100
AcDbEntity
8
0
100
AcDbCircle
62
0
6
CONTINUOUS
10
2.2291314468
20
-12.5322226306
40
4.6501369129
100
AcDbArc
50
335.0013008965
51
24.9986991035
0
ARC
5
36C
100
AcDbEntity
8
0
100
AcDbCircle
62
0
6
CONTINUOUS
10
2.2291314468
20
-12.5322226306
40
5.0150792305
100
AcDbArc
50
339.3190223499
51
20.6809776501
0
ARC
5
36D
100
AcDbEntity
8
0
100
AcDbCircle
62
0
6
CONTINUOUS
10
-1.9708685532
20
-12.5322226306
40
5.0150792305
100
AcDbArc
50
159.3190223499
51
200.6809776501
0
ARC
5
36E
100
AcDbEntity
8
0
100
AcDbCircle
62
0
6
CONTINUOUS
10
-1.9708685532
20
-12.5322226306
40
4.6501369129
100
AcDbArc
50
155.0013008965
51
204.9986991035
0
ARC
5
36F
100
AcDbEntity
8
0
100
AcDbCircle
62
0
6
CONTINUOUS
10
-1.9708685532
20
-12.5322226306
40
5.6500000000
100
AcDbArc
50
122.9557802664
51
205.1366605176
0
ARC
5
370
100
AcDbEntity
8
0
100
AcDbCircle
62
0
6
CONTINUOUS
10
2.2291314468
20
-12.5322226306
40
5.6500000000
100
AcDbArc
50
334.8633394824
51
57.0442197336
0
ARC
5
371
100
AcDbEntity
8
0
100
AcDbCircle
62
0
6
CONTINUOUS
10
2.2291314468
20
-12.5322226306
40
5.0500000000
100
AcDbArc
50
339.0275234118
51
20.9724765882
0
ARC
5
372
100
AcDbEntity
8
0
100
AcDbCircle
62
0
6
CONTINUOUS
10
2.2291314468
20
-12.5322226306
40
4.6502945067
100
AcDbArc
50
25.4743842609
51
32.6773198706
0
ARC
5
373
100
AcDbEntity
8
0
100
AcDbCircle
62
0
6
CONTINUOUS
10
-1.9708685532
20
-12.5322226306
40
4.6502474510
100
AcDbArc
50
147.3228640362
51
154.5256157391
0
ARC
5
374
100
AcDbEntity
8
0
100
AcDbCircle
62
0
6
CONTINUOUS
10
-1.9708685532
20
-12.5322226306
40
5.0500000000
100
AcDbArc
50
159.0275234118
51
200.9724765882
0
ARC
5
375
100
AcDbEntity
8
0
100
AcDbCircle
62
0
6
CONTINUOUS
10
-4.8208685532
20
-16.8822226306
40
0.3000000000
100
AcDbArc
50
0.0000000000
51
180.0000000000
0
ARC
5
376
100
AcDbEntity
8
0
100
AcDbCircle
62
0
6
CONTINUOUS
10
5.0791314468
20
-16.8822226306
40
0.3000000000
100
AcDbArc
50
0.0000000000
51
180.0000000000
0
ARC
5
377
100
AcDbEntity
8
0
100
AcDbCircle
62
0
6
CONTINUOUS
10
-11.7708685532
20
7.9677773694
40
2.0000000000
100
AcDbArc
50
310.5416018735
51
360.0000000000
0
ARC
5
378
100
AcDbEntity
8
0
100
AcDbCircle
62
0
6
CONTINUOUS
10
-11.7708685532
20
-7.0322226306
40
2.0000000000
100
AcDbArc
50
0.0000000000
51
49.4583981265
0
ARC
5
379
100
AcDbEntity
8
0
100
AcDbCircle
62
0
6
CONTINUOUS
10
12.0291314468
20
-7.0322226306
40
2.0000000000
100
AcDbArc
50
130.5416018735
51
180.0000000000
0
ARC
5
37A
100
AcDbEntity
8
0
100
AcDbCircle
62
0
6
CONTINUOUS
10
12.0291314468
20
7.9677773694
40
2.0000000000
100
AcDbArc
50
180.0000000000
51
229.4583981265
0
ARC
5
37B
100
AcDbEntity
8
0
100
AcDbCircle
62
0
6
CONTINUOUS
10
-1.9708685532
20
-12.5322226306
40
4.6572218960
100
AcDbArc
50
221.6152678840
51
238.9576063770
0
ARC
5
37C
100
AcDbEntity
8
0
100
AcDbCircle
62
0
6
CONTINUOUS
10
2.2291314468
20
-12.5322226306
40
4.6571751254
100
AcDbArc
50
301.0302351262
51
318.3847321160
0
ARC
5
37D
100
AcDbEntity
8
0
100
AcDbCircle
62
0
6
CONTINUOUS
10
5.0791314468
20
-16.8822226306
40
0.3104730390
100
AcDbArc
50
0.0000000000
51
180.0000000000
0
ARC
5
37E
100
AcDbEntity
8
0
100
AcDbCircle
62
0
6
CONTINUOUS
10
-4.8208685532
20
-16.8822226306
40
0.3104730390
100
AcDbArc
50
0.0000000000
51
180.0000000000
0
ARC
5
37F
100
AcDbEntity
8
0
100
AcDbCircle
62
0
6
CONTINUOUS
10
8.8291314468
20
-9.5322226306
40
0.3000000000
100
AcDbArc
50
90.0000000000
51
270.0000000000
0
ARC
5
380
100
AcDbEntity
8
0
100
AcDbCircle
62
0
6
CONTINUOUS
10
-8.5708685532
20
-9.5322226306
40
0.3000000000
100
AcDbArc
50
270.0000000000
51
90.0000000000
0
ARC
5
381
100
AcDbEntity
8
0
100
AcDbCircle
62
0
6
CONTINUOUS
10
8.8291314468
20
15.4677773694
40
0.3000000000
100
AcDbArc
50
90.0000000000
51
270.0000000000
0
ARC
5
382
100
AcDbEntity
8
0
100
AcDbCircle
62
0
6
CONTINUOUS
10
-8.5708685532
20
15.4677773694
40
0.3000000000
100
AcDbArc
50
270.0000000000
51
90.0000000000
0
ARC
5
383
100
AcDbEntity
8
0
100
AcDbCircle
62
0
6
CONTINUOUS
10
-1.9708685532
20
-12.5322226306
40
6.2901338116
100
AcDbArc
50
246.1883212575
51
270.0000000000
0
ARC
5
384
100
AcDbEntity
8
0
100
AcDbCircle
62
0
6
CONTINUOUS
10
-1.9708685532
20
-12.5322226306
40
7.2503380976
100
AcDbArc
50
249.4081858812
51
258.6339132327
0
ARC
5
385
100
AcDbEntity
8
0
100
AcDbCircle
62
0
6
CONTINUOUS
10
-1.9708685532
20
-12.5322226306
40
6.2901338116
100
AcDbArc
50
209.4519765641
51
239.8378259567
0
ARC
5
386
100
AcDbEntity
8
0
100
AcDbCircle
62
0
6
CONTINUOUS
10
2.2291314468
20
-12.5322226306
40
7.2503369007
100
AcDbArc
50
281.3660867693
51
290.5918141188
0
ARC
5
387
100
AcDbEntity
8
0
100
AcDbCircle
62
0
6
CONTINUOUS
10
2.2291314468
20
-12.5322226306
40
6.2901338116
100
AcDbArc
50
270.0000000000
51
293.8116787425
0
ARC
5
388
100
AcDbEntity
8
0
100
AcDbCircle
62
0
6
CONTINUOUS
10
2.2291314468
20
-12.5322226306
40
6.2901338116
100
AcDbArc
50
300.1621740433
51
330.5480234359
0
ARC
5
389
100
AcDbEntity
8
0
100
AcDbCircle
62
0
6
CONTINUOUS
10
2.2291314468
20
-12.5322226306
40
4.4534883220
100
AcDbArc
50
302.6253907263
51
321.9246279868
0
SPLINE
5
38A
100
AcDbEntity
8
0
100
AcDbSpline
62
0
6
CONTINUOUS
70
0
71
3
72
9
73
5
74
3
42
0.0000001000
43
0.0000001000
44
0.0000000001
12
-0.0041469995
22
-0.0087438394
32
0.0000000000
13
-0.0041257553
23
-0.0087538834
33
0.0000000000
40
0.0000000000
40
0.0000000000
40
0.0000000000
40
0.0000000000
40
0.4999981899
40
1.0000000000
40
1.0000000000
40
1.0000000000
40
1.0000000000
10
-5.4545709588
20
-10.0234737642
30
0.0000000000
10
-5.4552621229
20
-10.0249310655
30
0.0000000000
10
-5.4566426868
20
-10.0278465181
30
0.0000000000
10
-5.4580197099
20
-10.0307636447
30
0.0000000000
10
-5.4587073383
20
-10.0322226306
30
0.0000000000
11
-5.4545709588
21
-10.0234737642
31
0.0000000000
11
-5.4566417966
21
-10.0278469260
31
0.0000000000
11
-5.4587073383
21
-10.0322226306
31
0.0000000000
0
SPLINE
5
38B
100
AcDbEntity
8
0
100
AcDbSpline
62
0
6
CONTINUOUS
70
0
71
3
72
9
73
5
74
3
42
0.0000001000
43
0.0000001000
44
0.0000000001
12
-0.0041257553
22
0.0087538834
32
0.0000000000
13
-0.0041469995
23
0.0087438394
33
0.0000000000
40
0.0000000000
40
0.0000000000
40
0.0000000000
40
0.0000000000
40
0.5000018101
40
1.0000000000
40
1.0000000000
40
1.0000000000
40
1.0000000000
10
5.7169702318
20
-10.0322226306
30
0.0000000000
10
5.7162826035
20
-10.0307636447
30
0.0000000000
10
5.7149055803
20
-10.0278465181
30
0.0000000000
10
5.7135250165
20
-10.0249310655
30
0.0000000000
10
5.7128338524
20
-10.0234737642
30
0.0000000000
11
5.7169702318
21
-10.0322226306
31
0.0000000000
11
5.7149046902
21
-10.0278469260
31
0.0000000000
11
5.7128338524
21
-10.0234737642
31
0.0000000000
0
SPLINE
5
38C
100
AcDbEntity
8
0
100
AcDbSpline
62
0
6
CONTINUOUS
70
0
71
3
72
12
73
8
74
6
42
0.0000001000
43
0.0000001000
44
0.0000000001
12
-0.4695527409
22
0.0000000000
32
0.0000000000
13
0.0000000000
23
0.4695527409
33
0.0000000000
40
0.0000000000
40
0.0000000000
40
0.0000000000
40
0.0000000000
40
0.1993649636
40
0.3988522271
40
0.5987371844
40
0.7991447419
40
1.0000000000
40
1.0000000000
40
1.0000000000
40
1.0000000000
10
-5.9712792476
20
-10.0234737642
30
0.0000000000
10
-6.0024833693
20
-10.0234737642
30
0.0000000000
10
-6.0653524018
20
-10.0135337535
30
0.0000000000
10
-6.1501347972
20
-9.9702285372
30
0.0000000000
10
-6.2175696471
20
-9.9026590820
30
0.0000000000
10
-6.2609084850
20
-9.8174707982
30
0.0000000000
10
-6.2708685532
20
-9.7542232583
30
0.0000000000
10
-6.2708685532
20
-9.7227858793
30
0.0000000000
11
-5.9712792476
21
-10.0234737642
31
0.0000000000
11
-6.0637364162
21
-10.0088126976
31
0.0000000000
11
-6.1471719245
21
-9.9662386943
31
0.0000000000
11
-6.2134845537
21
-9.8998181903
31
0.0000000000
11
-6.2561446929
21
-9.8159415936
31
0.0000000000
11
-6.2708685532
21
-9.7227858793
31
0.0000000000
0
SPLINE
5
38D
100
AcDbEntity
8
0
100
AcDbSpline
62
0
6
CONTINUOUS
70
0
71
3
72
12
73
8
74
6
42
0.0000001000
43
0.0000001000
44
0.0000000001
12
0.0000000000
22
-0.4695527409
32
0.0000000000
13
-0.4695527409
23
-0.0000000000
33
0.0000000000
40
0.0000000000
40
0.0000000000
40
0.0000000000
40
0.0000000000
40
0.2008552581
40
0.4012628156
40
0.6011477729
40
0.8006350364
40
1.0000000000
40
1.0000000000
40
1.0000000000
40
1.0000000000
10
6.5291314468
20
-9.7227858793
30
0.0000000000
10
6.5291314468
20
-9.7542232583
30
0.0000000000
10
6.5191713785
20
-9.8174707982
30
0.0000000000
10
6.4758325406
20
-9.9026590820
30
0.0000000000
10
6.4083976908
20
-9.9702285372
30
0.0000000000
10
6.3236152953
20
-10.0135337535
30
0.0000000000
10
6.2607462628
20
-10.0234737642
30
0.0000000000
10
6.2295421411
20
-10.0234737642
30
0.0000000000
11
6.5291314468
21
-9.7227858793
31
0.0000000000
11
6.5144075865
21
-9.8159415936
31
0.0000000000
11
6.4717474472
21
-9.8998181903
31
0.0000000000
11
6.4054348180
21
-9.9662386943
31
0.0000000000
11
6.3219993097
21
-10.0088126976
31
0.0000000000
11
6.2295421411
21
-10.0234737642
31
0.0000000000
0
SPLINE
5
38E
100
AcDbEntity
8
0
100
AcDbSpline
62
0
6
CONTINUOUS
70
0
71
3
72
9
73
5
74
3
42
0.0000001000
43
0.0000001000
44
0.0000000001
12
0.0206767351
22
-0.0438711744
32
0.0000000000
13
0.0212091994
23
-0.0436162490
33
0.0000000000
40
0.0000000000
40
0.0000000000
40
0.0000000000
40
0.0000000000
40
0.5000024224
40
1.0000000000
40
1.0000000000
40
1.0000000000
40
1.0000000000
10
-5.4587073383
20
-15.0322226306
30
0.0000000000
10
-5.4552611991
20
-15.0395345284
30
0.0000000000
10
-5.4483244500
20
-15.0541373195
30
0.0000000000
10
-5.4412989556
20
-15.0686976227
30
0.0000000000
10
-5.4377641061
20
-15.0759669623
30
0.0000000000
11
-5.4587073383
21
-15.0322226306
31
0.0000000000
11
-5.4483022298
21
-15.0541267682
31
0.0000000000
11
-5.4377641061
21
-15.0759669623
31
0.0000000000
0
SPLINE
5
38F
100
AcDbEntity
8
0
100
AcDbSpline
62
0
6
CONTINUOUS
70
0
71
3
72
9
73
5
74
3
42
0.0000001000
43
0.0000001000
44
0.0000000001
12
0.0212091994
22
0.0436162490
32
0.0000000000
13
0.0206767351
23
0.0438711744
33
0.0000000000
40
0.0000000000
40
0.0000000000
40
0.0000000000
40
0.0000000000
40
0.4999975776
40
1.0000000000
40
1.0000000000
40
1.0000000000
40
1.0000000000
10
5.6960269997
20
-15.0759669623
30
0.0000000000
10
5.6995618491
20
-15.0686976227
30
0.0000000000
10
5.7065873435
20
-15.0541373195
30
0.0000000000
10
5.7135240926
20
-15.0395345284
30
0.0000000000
10
5.7169702318
20
-15.0322226306
30
0.0000000000
11
5.6960269997
21
-15.0759669623
31
0.0000000000
11
5.7065651234
21
-15.0541267682
31
0.0000000000
11
5.7169702318
21
-15.0322226306
31
0.0000000000
0
SPLINE
5
390
100
AcDbEntity
8
0
100
AcDbSpline
62
0
6
CONTINUOUS
70
0
71
3
72
11
73
7
74
5
42
0.0000001000
43
0.0000001000
44
0.0000000001
12
0.3163996829
22
0.1391786033
32
0.0000000000
13
-0.0000000000
23
0.3456579856
33
0.0000000000
40
0.0000000000
40
0.0000000000
40
0.0000000000
40
0.0000000000
40
0.2501512982
40
0.5000772344
40
0.7495531928
40
1.0000000000
40
1.0000000000
40
1.0000000000
40
1.0000000000
10
4.4394801944
20
-17.5570872725
30
0.0000000000
10
4.4658627915
20
-17.5454820364
30
0.0000000000
10
4.5155296236
20
-17.5144390973
30
0.0000000000
10
4.5733930999
20
-17.4487591500
30
0.0000000000
10
4.6102332170
20
-17.3693247264
30
0.0000000000
10
4.6186584078
20
-17.3113789809
30
0.0000000000
10
4.6186584078
20
-17.2825226680
30
0.0000000000
11
4.4394801944
21
-17.5570872725
31
0.0000000000
11
4.5127839570
21
-17.5112280878
31
0.0000000000
11
4.5699173131
21
-17.4464297783
31
0.0000000000
11
4.6061671599
21
-17.3681856699
31
0.0000000000
11
4.6186584078
21
-17.2825226680
31
0.0000000000
0
SPLINE
5
391
100
AcDbEntity
8
0
100
AcDbSpline
62
0
6
CONTINUOUS
70
0
71
3
72
11
73
7
74
5
42
0.0000001000
43
0.0000001000
44
0.0000000001
12
-0.0000000000
22
-0.3456579856
32
0.0000000000
13
0.3163996829
23
-0.1391786033
33
0.0000000000
40
0.0000000000
40
0.0000000000
40
0.0000000000
40
0.0000000000
40
0.2504468072
40
0.4999227656
40
0.7498487018
40
1.0000000000
40
1.0000000000
40
1.0000000000
40
1.0000000000
10
-4.3603955143
20
-17.2825226680
30
0.0000000000
10
-4.3603955143
20
-17.3113789809
30
0.0000000000
10
-4.3519703235
20
-17.3693247264
30
0.0000000000
10
-4.3151302064
20
-17.4487591500
30
0.0000000000
10
-4.2572667300
20
-17.5144390973
30
0.0000000000
10
-4.2075998980
20
-17.5454820364
30
0.0000000000
10
-4.1812173008
20
-17.5570872725
30
0.0000000000
11
-4.3603955143
21
-17.2825226680
31
0.0000000000
11
-4.3479042664
21
-17.3681856699
31
0.0000000000
11
-4.3116544195
21
-17.4464297783
31
0.0000000000
11
-4.2545210634
21
-17.5112280878
31
0.0000000000
11
-4.1812173008
21
-17.5570872725
31
0.0000000000
0
SPLINE
5
392
100
AcDbEntity
8
0
100
AcDbSpline
62
0
6
CONTINUOUS
70
0
71
3
72
12
73
8
74
6
42
0.0000001000
43
0.0000001000
44
0.0000000001
12
-0.2249711768
22
0.0000000072
32
0.0000000000
13
0.1443702801
23
0.1725376846
33
0.0000000000
40
0.0000000000
40
0.0000000000
40
0.0000000000
40
0.0000000000
40
0.1979326552
40
0.4014972617
40
0.6002837164
40
0.7995798612
40
1.0000000000
40
1.0000000000
40
1.0000000000
40
1.0000000000
10
5.2114549242
20
-15.1284601604
30
0.0000000000
10
5.1966118767
20
-15.1284601600
30
0.0000000000
10
5.1660726202
20
-15.1215708491
30
0.0000000000
10
5.1298796766
20
-15.0921654824
30
0.0000000000
10
5.1104787224
20
-15.0496794506
30
0.0000000000
10
5.1115545465
20
-15.0033219056
30
0.0000000000
10
5.1257975075
20
-14.9755945248
30
0.0000000000
10
5.1354424113
20
-14.9640678492
30
0.0000000000
11
5.2114549242
21
-15.1284601604
31
0.0000000000
11
5.1680398475
21
-15.1185618962
31
0.0000000000
11
5.1324801422
21
-15.0897036831
31
0.0000000000
11
5.1138745610
21
-15.0490364961
31
0.0000000000
11
5.1149146527
21
-15.0042126734
31
0.0000000000
11
5.1354424113
21
-14.9640678492
31
0.0000000000
0
SPLINE
5
393
100
AcDbEntity
8
0
100
AcDbSpline
62
0
6
CONTINUOUS
70
0
71
3
72
12
73
8
74
6
42
0.0000001000
43
0.0000001000
44
0.0000000001
12
-0.1443708331
22
0.1725383444
32
0.0000000000
13
0.2249720377
23
0.0000000062
33
0.0000000000
40
0.0000000000
40
0.0000000000
40
0.0000000000
40
0.0000000000
40
0.2013081136
40
0.4014154804
40
0.6006504725
40
0.7999541930
40
1.0000000000
40
1.0000000000
40
1.0000000000
40
1.0000000000
10
5.1354424114
20
-10.1003774121
30
0.0000000000
10
5.1257547381
20
-10.0887996225
30
0.0000000000
10
5.1114742711
20
-10.0609301725
30
0.0000000000
10
5.1105308368
20
-10.0143905095
30
0.0000000000
10
5.1300373729
20
-9.9721937871
30
0.0000000000
10
5.1660619996
20
-9.9429249391
30
0.0000000000
10
5.1964533532
20
-9.9359851011
30
0.0000000000
10
5.2114549242
20
-9.9359851007
30
0.0000000000
11
5.1354424114
21
-10.1003774121
31
0.0000000000
11
5.1148644923
21
-10.0600336978
31
0.0000000000
11
5.1139542763
21
-10.0150243384
31
0.0000000000
11
5.1327839630
21
-9.9743490183
31
0.0000000000
11
5.1676007602
21
-9.9460963064
31
0.0000000000
11
5.2114549242
21
-9.9359851007
31
0.0000000000
0
SPLINE
5
394
100
AcDbEntity
8
0
100
AcDbSpline
62
0
6
CONTINUOUS
70
0
71
3
72
12
73
8
74
6
42
0.0000001000
43
0.0000001000
44
0.0000000001
12
0.2249711768
22
-0.0000000072
32
0.0000000000
13
-0.1443702801
23
-0.1725376846
33
0.0000000000
40
0.0000000000
40
0.0000000000
40
0.0000000000
40
0.0000000000
40
0.1979326552
40
0.4014972617
40
0.6002837164
40
0.7995798612
40
1.0000000000
40
1.0000000000
40
1.0000000000
40
1.0000000000
10
-4.9531920306
20
-9.9359851007
30
0.0000000000
10
-4.9383489832
20
-9.9359851012
30
0.0000000000
10
-4.9078097266
20
-9.9428744121
30
0.0000000000
10
-4.8716167831
20
-9.9722797787
30
0.0000000000
10
-4.8522158289
20
-10.0147658106
30
0.0000000000
10
-4.8532916529
20
-10.0611233555
30
0.0000000000
10
-4.8675346139
20
-10.0888507363
30
0.0000000000
10
-4.8771795178
20
-10.1003774119
30
0.0000000000
11
-4.9531920306
21
-9.9359851007
31
0.0000000000
11
-4.9097769539
21
-9.9458833649
31
0.0000000000
11
-4.8742172486
21
-9.9747415780
31
0.0000000000
11
-4.8556116674
21
-10.0154087650
31
0.0000000000
11
-4.8566517592
21
-10.0602325877
31
0.0000000000
11
-4.8771795178
21
-10.1003774119
31
0.0000000000
0
SPLINE
5
395
100
AcDbEntity
8
0
100
AcDbSpline
62
0
6
CONTINUOUS
70
0
71
3
72
12
73
8
74
6
42
0.0000001000
43
0.0000001000
44
0.0000000001
12
0.1443708331
22
-0.1725383444
32
0.0000000000
13
-0.2249720377
23
-0.0000000062
33
0.0000000000
40
0.0000000000
40
0.0000000000
40
0.0000000000
40
0.0000000000
40
0.2013081136
40
0.4014154804
40
0.6006504725
40
0.7999541930
40
1.0000000000
40
1.0000000000
40
1.0000000000
40
1.0000000000
10
-4.8771795179
20
-14.9640678491
30
0.0000000000
10
-4.8674918445
20
-14.9756456386
30
0.0000000000
10
-4.8532113776
20
-15.0035150886
30
0.0000000000
10
-4.8522679432
20
-15.0500547516
30
0.0000000000
10
-4.8717744794
20
-15.0922514741
30
0.0000000000
10
-4.9077991060
20
-15.1215203221
30
0.0000000000
10
-4.9381904597
20
-15.1284601600
30
0.0000000000
10
-4.9531920306
20
-15.1284601604
30
0.0000000000
11
-4.8771795179
21
-14.9640678491
31
0.0000000000
11
-4.8566015988
21
-15.0044115633
31
0.0000000000
11
-4.8556913828
21
-15.0494209228
31
0.0000000000
11
-4.8745210695
21
-15.0900962429
31
0.0000000000
11
-4.9093378667
21
-15.1183489547
31
0.0000000000
11
-4.9531920306
21
-15.1284601604
31
0.0000000000
0
SPLINE
5
396
100
AcDbEntity
8
0
100
AcDbSpline
62
0
6
CONTINUOUS
70
0
71
3
72
12
73
8
74
6
42
0.0000001000
43
0.0000001000
44
0.0000000001
12
0.2214620598
22
0.0000000043
32
0.0000000000
13
-0.1359675803
23
0.1748092132
33
0.0000000000
40
0.0000000000
40
0.0000000000
40
0.0000000000
40
0.0000000000
40
0.1996430843
40
0.3988290180
40
0.5983794923
40
0.7987103633
40
1.0000000000
40
1.0000000000
40
1.0000000000
40
1.0000000000
10
-5.0555490970
20
-15.0322226306
30
0.0000000000
10
-5.0408113075
20
-15.0322226303
30
0.0000000000
10
-5.0109487060
20
-15.0255205552
30
0.0000000000
10
-4.9752056714
20
-14.9971659766
30
0.0000000000
10
-4.9552264771
20
-14.9560113724
30
0.0000000000
10
-4.9549801559
20
-14.9101937799
30
0.0000000000
10
-4.9681325917
20
-14.8823363517
30
0.0000000000
10
-4.9772555467
20
-14.8706072574
30
0.0000000000
11
-5.0555490970
21
-15.0322226306
31
0.0000000000
11
-5.0124277713
21
-15.0224567084
31
0.0000000000
11
-4.9778525610
21
-14.9950626470
31
0.0000000000
11
-4.9585327623
21
-14.9553165256
31
0.0000000000
11
-4.9582939208
21
-14.9109514812
31
0.0000000000
11
-4.9772555467
21
-14.8706072574
31
0.0000000000
0
SPLINE
5
397
100
AcDbEntity
8
0
100
AcDbSpline
62
0
6
CONTINUOUS
70
0
71
3
72
12
73
8
74
6
42
0.0000001000
43
0.0000001000
44
0.0000000001
12
0.1359671642
22
0.1748086791
32
0.0000000000
13
-0.2214613827
23
0.0000000051
33
0.0000000000
40
0.0000000000
40
0.0000000000
40
0.0000000000
40
0.0000000000
40
0.2003556274
40
0.3997456707
40
0.5984189392
40
0.8016719181
40
1.0000000000
40
1.0000000000
40
1.0000000000
40
1.0000000000
10
-4.9772555466
20
-10.1938380037
30
0.0000000000
10
-4.9681749512
20
-10.1821633695
30
0.0000000000
10
-4.9550596670
20
-10.1544595621
30
0.0000000000
10
-4.9551620721
20
-10.1088649080
30
0.0000000000
10
-4.9749821253
20
-10.0674659403
30
0.0000000000
10
-5.0108503972
20
-10.0389159874
30
0.0000000000
10
-5.0409084266
20
-10.0322226309
30
0.0000000000
10
-5.0555490970
20
-10.0322226306
30
0.0000000000
11
-4.9772555466
21
-10.1938380037
31
0.0000000000
11
-4.9583398517
21
-10.1537009240
31
0.0000000000
11
-4.9584370794
21
-10.1095438363
31
0.0000000000
11
-4.9774624724
21
-10.0698714452
31
0.0000000000
11
-5.0126974572
21
-10.0418600597
31
0.0000000000
11
-5.0555490970
21
-10.0322226306
31
0.0000000000
0
SPLINE
5
398
100
AcDbEntity
8
0
100
AcDbSpline
62
0
6
CONTINUOUS
70
0
71
3
72
12
73
8
74
6
42
0.0000001000
43
0.0000001000
44
0.0000000001
12
-0.2214620598
22
-0.0000000043
32
0.0000000000
13
0.1359675803
23
-0.1748092132
33
0.0000000000
40
0.0000000000
40
0.0000000000
40
0.0000000000
40
0.0000000000
40
0.1996430843
40
0.3988290180
40
0.5983794923
40
0.7987103633
40
1.0000000000
40
1.0000000000
40
1.0000000000
40
1.0000000000
10
5.3138119906
20
-10.0322226306
30
0.0000000000
10
5.2990742010
20
-10.0322226309
30
0.0000000000
10
5.2692115995
20
-10.0389247060
30
0.0000000000
10
5.2334685649
20
-10.0672792846
30
0.0000000000
10
5.2134893707
20
-10.1084338887
30
0.0000000000
10
5.2132430494
20
-10.1542514813
30
0.0000000000
10
5.2263954853
20
-10.1821089094
30
0.0000000000
10
5.2355184402
20
-10.1938380037
30
0.0000000000
11
5.3138119906
21
-10.0322226306
31
0.0000000000
11
5.2706906648
21
-10.0419885528
31
0.0000000000
11
5.2361154546
21
-10.0693826141
31
0.0000000000
11
5.2167956558
21
-10.1091287355
31
0.0000000000
11
5.2165568143
21
-10.1534937800
31
0.0000000000
11
5.2355184402
21
-10.1938380037
31
0.0000000000
0
SPLINE
5
399
100
AcDbEntity
8
0
100
AcDbSpline
62
0
6
CONTINUOUS
70
0
71
3
72
12
73
8
74
6
42
0.0000001000
43
0.0000001000
44
0.0000000001
12
-0.1359671642
22
-0.1748086791
32
0.0000000000
13
0.2214613827
23
-0.0000000051
33
0.0000000000
40
0.0000000000
40
0.0000000000
40
0.0000000000
40
0.0000000000
40
0.2003556274
40
0.3997456707
40
0.5984189392
40
0.8016719181
40
1.0000000000
40
1.0000000000
40
1.0000000000
40
1.0000000000
10
5.2355184402
20
-14.8706072575
30
0.0000000000
10
5.2264378447
20
-14.8822818917
30
0.0000000000
10
5.2133225605
20
-14.9099856991
30
0.0000000000
10
5.2134249657
20
-14.9555803532
30
0.0000000000
10
5.2332450189
20
-14.9969793208
30
0.0000000000
10
5.2691132908
20
-15.0255292737
30
0.0000000000
10
5.2991713202
20
-15.0322226302
30
0.0000000000
10
5.3138119906
20
-15.0322226306
30
0.0000000000
11
5.2355184402
21
-14.8706072575
31
0.0000000000
11
5.2166027452
21
-14.9107443372
31
0.0000000000
11
5.2166999730
21
-14.9549014248
31
0.0000000000
11
5.2357253659
21
-14.9945738159
31
0.0000000000
11
5.2709603508
21
-15.0225852015
31
0.0000000000
11
5.3138119906
21
-15.0322226306
31
0.0000000000
0
SPLINE
5
39A
100
AcDbEntity
8
0
100
AcDbSpline
62
0
6
CONTINUOUS
70
0
71
3
72
12
73
8
74
6
42
0.0000001000
43
0.0000001000
44
0.0000000001
12
0.0000000000
22
-0.4695527409
32
0.0000000000
13
0.4695527409
23
0.0000000000
33
0.0000000000
40
0.0000000000
40
0.0000000000
40
0.0000000000
40
0.0000000000
40
0.2008552581
40
0.4012628156
40
0.6011477729
40
0.8006350364
40
1.0000000000
40
1.0000000000
40
1.0000000000
40
1.0000000000
10
-6.2534134883
20
-9.6352972157
30
0.0000000000
10
-6.2534134883
20
-9.6667345947
30
0.0000000000
10
-6.2434534201
20
-9.7299821347
30
0.0000000000
10
-6.2001145821
20
-9.8151704185
30
0.0000000000
10
-6.1326797323
20
-9.8827398736
30
0.0000000000
10
-6.0478973368
20
-9.9260450899
30
0.0000000000
10
-5.9850283043
20
-9.9359851007
30
0.0000000000
10
-5.9538241826
20
-9.9359851007
30
0.0000000000
11
-6.2534134883
21
-9.6352972157
31
0.0000000000
11
-6.2386896280
21
-9.7284529301
31
0.0000000000
11
-6.1960294888
21
-9.8123295268
31
0.0000000000
11
-6.1297168596
21
-9.8787500308
31
0.0000000000
11
-6.0462813512
21
-9.9213240341
31
0.0000000000
11
-5.9538241826
21
-9.9359851007
31
0.0000000000
0
SPLINE
5
39B
100
AcDbEntity
8
0
100
AcDbSpline
62
0
6
CONTINUOUS
70
0
71
3
72
10
73
6
74
4
42
0.0000001000
43
0.0000001000
44
0.0000000001
12
-0.1329817272
22
-0.1596968995
32
0.0000000000
13
0.0000000000
23
-0.2078153976
33
0.0000000000
40
0.0000000000
40
0.0000000000
40
0.0000000000
40
0.0000000000
40
0.3331959025
40
0.6662685541
40
1.0000000000
40
1.0000000000
40
1.0000000000
40
1.0000000000
10
-6.1839607385
20
-9.0239248662
30
0.0000000000
10
-6.1987303940
20
-9.0416616503
30
0.0000000000
10
-6.2242475490
20
-9.0807112507
30
0.0000000000
10
-6.2480211612
20
-9.1463740694
30
0.0000000000
10
-6.2534134883
20
-9.1927483948
30
0.0000000000
10
-6.2534134883
20
-9.2158665725
30
0.0000000000
11
-6.1839607385
21
-9.0239248662
31
0.0000000000
11
-6.2218319879
21
-9.0818937768
31
0.0000000000
11
-6.2453956602
21
-9.1469770545
31
0.0000000000
11
-6.2534134883
21
-9.2158665725
31
0.0000000000
0
SPLINE
5
39C
100
AcDbEntity
8
0
100
AcDbSpline
62
9
6
CONTINUOUS
70
0
71
3
72
8
73
4
74
2
42
0.0000001000
43
0.0000001000
44
0.0000000001
12
-0.0019406335
22
-0.0007020559
32
0.0000000000
13
-0.0019405859
23
-0.0007021873
33
0.0000000000
40
0.0000000000
40
0.0000000000
40
0.0000000000
40
0.0000000000
40
1.0000000000
40
1.0000000000
40
1.0000000000
40
1.0000000000
10
6.5136169915
20
-9.2151644510
30
0.0000000000
10
6.5129701137
20
-9.2153984696
30
0.0000000000
10
6.5123232438
20
-9.2156325101
30
0.0000000000
10
6.5116763818
20
-9.2158665725
30
0.0000000000
11
6.5136169915
21
-9.2151644510
31
0.0000000000
11
6.5116763818
21
-9.2158665725
31
0.0000000000
0
SPLINE
5
39D
100
AcDbEntity
8
0
100
AcDbSpline
62
9
6
CONTINUOUS
70
0
71
3
72
10
73
6
74
4
42
0.0000001000
43
0.0000001000
44
0.0000000001
12
0.1015178349
22
-0.0918997268
32
0.0000000000
13
0.0986181861
23
-0.0950046523
33
0.0000000000
40
0.0000000000
40
0.0000000000
40
0.0000000000
40
0.0000000000
40
0.3369604192
40
0.6702419771
40
1.0000000000
40
1.0000000000
40
1.0000000000
40
1.0000000000
10
5.1354424118
20
-10.1003774129
30
0.0000000000
10
5.1468449092
20
-10.1106996030
30
0.0000000000
10
5.1694181711
20
-10.1313501299
30
0.0000000000
10
5.2027749894
20
-10.1625091057
30
0.0000000000
10
5.2246783944
20
-10.1833951554
30
0.0000000000
10
5.2355184405
20
-10.1938380042
30
0.0000000000
11
5.1354424118
21
-10.1003774129
31
0.0000000000
11
5.1694874472
21
-10.1315225020
31
0.0000000000
11
5.2028385831
21
-10.1626761025
31
0.0000000000
11
5.2355184405
21
-10.1938380042
31
0.0000000000
0
SPLINE
5
39E
100
AcDbEntity
8
0
100
AcDbSpline
62
9
6
CONTINUOUS
70
0
71
3
72
10
73
6
74
4
42
0.0000001000
43
0.0000001000
44
0.0000000001
12
0.1015178353
22
0.0918997263
32
0.0000000000
13
0.0986181855
23
0.0950046529
33
0.0000000000
40
0.0000000000
40
0.0000000000
40
0.0000000000
40
0.0000000000
40
0.3369604207
40
0.6702419776
40
1.0000000000
40
1.0000000000
40
1.0000000000
40
1.0000000000
10
5.1354424118
20
-14.9640678483
30
0.0000000000
10
5.1468449093
20
-14.9537456581
30
0.0000000000
10
5.1694181711
20
-14.9330951311
30
0.0000000000
10
5.2027749894
20
-14.9019361553
30
0.0000000000
10
5.2246783945
20
-14.8810501057
30
0.0000000000
10
5.2355184405
20
-14.8706072569
30
0.0000000000
11
5.1354424118
21
-14.9640678483
31
0.0000000000
11
5.1694874473
21
-14.9329227590
31
0.0000000000
11
5.2028385831
21
-14.9017691585
31
0.0000000000
11
5.2355184405
21
-14.8706072569
31
0.0000000000
0
SPLINE
5
39F
100
AcDbEntity
8
0
100
AcDbSpline
62
9
6
CONTINUOUS
70
0
71
3
72
10
73
6
74
4
42
0.0000001000
43
0.0000001000
44
0.0000000001
12
-0.1015178349
22
0.0918997268
32
0.0000000000
13
-0.0986181861
23
0.0950046523
33
0.0000000000
40
0.0000000000
40
0.0000000000
40
0.0000000000
40
0.0000000000
40
0.3369604192
40
0.6702419771
40
1.0000000000
40
1.0000000000
40
1.0000000000
40
1.0000000000
10
-4.8771795183
20
-14.9640678483
30
0.0000000000
10
-4.8885820157
20
-14.9537456581
30
0.0000000000
10
-4.9111552775
20
-14.9330951312
30
0.0000000000
10
-4.9445120959
20
-14.9019361554
30
0.0000000000
10
-4.9664155009
20
-14.8810501057
30
0.0000000000
10
-4.9772555469
20
-14.8706072569
30
0.0000000000
11
-4.8771795183
21
-14.9640678483
31
0.0000000000
11
-4.9112245536
21
-14.9329227591
31
0.0000000000
11
-4.9445756896
21
-14.9017691586
31
0.0000000000
11
-4.9772555469
21
-14.8706072569
31
0.0000000000
0
SPLINE
5
3A0
100
AcDbEntity
8
0
100
AcDbSpline
62
9
6
CONTINUOUS
70
0
71
3
72
10
73
6
74
4
42
0.0000001000
43
0.0000001000
44
0.0000000001
12
-0.1015178353
22
-0.0918997263
32
0.0000000000
13
-0.0986181855
23
-0.0950046529
33
0.0000000000
40
0.0000000000
40
0.0000000000
40
0.0000000000
40
0.0000000000
40
0.3369604207
40
0.6702419776
40
1.0000000000
40
1.0000000000
40
1.0000000000
40
1.0000000000
10
-4.8771795183
20
-10.1003774129
30
0.0000000000
10
-4.8885820158
20
-10.1106996030
30
0.0000000000
10
-4.9111552776
20
-10.1313501300
30
0.0000000000
10
-4.9445120959
20
-10.1625091058
30
0.0000000000
10
-4.9664155010
20
-10.1833951554
30
0.0000000000
10
-4.9772555469
20
-10.1938380042
30
0.0000000000
11
-4.8771795183
21
-10.1003774129
31
0.0000000000
11
-4.9112245538
21
-10.1315225021
31
0.0000000000
11
-4.9445756896
21
-10.1626761026
31
0.0000000000
11
-4.9772555469
21
-10.1938380042
31
0.0000000000
0
SPLINE
5
3A1
100
AcDbEntity
8
0
100
AcDbSpline
62
9
6
CONTINUOUS
70
0
71
3
72
10
73
6
74
4
42
0.0000001000
43
0.0000001000
44
0.0000000001
12
-0.1038467556
22
0.0946356141
32
0.0000000000
13
-0.1008508744
23
0.0978220285
33
0.0000000000
40
0.0000000000
40
0.0000000000
40
0.0000000000
40
0.0000000000
40
0.3369805061
40
0.6702618819
40
1.0000000000
40
1.0000000000
40
1.0000000000
40
1.0000000000
10
-4.9531920306
20
-15.1284601604
30
0.0000000000
10
-4.9648568080
20
-15.1178300414
30
0.0000000000
10
-4.9879474915
20
-15.0965644964
30
0.0000000000
10
-5.0220645677
20
-15.0644796931
30
0.0000000000
10
-5.0444643045
20
-15.0429745144
30
0.0000000000
10
-5.0555490970
20
-15.0322226306
30
0.0000000000
11
-4.9531920306
21
-15.1284601604
31
0.0000000000
11
-4.9880184826
21
-15.0963865512
31
0.0000000000
11
-5.0221297250
21
-15.0643073038
31
0.0000000000
11
-5.0555490970
21
-15.0322226306
31
0.0000000000
0
SPLINE
5
3A2
100
AcDbEntity
8
0
100
AcDbSpline
62
9
6
CONTINUOUS
70
0
71
3
72
10
73
6
74
4
42
0.0000001000
43
0.0000001000
44
0.0000000001
12
0.1038467568
22
0.0946356128
32
0.0000000000
13
0.1008508732
23
0.0978220296
33
0.0000000000
40
0.0000000000
40
0.0000000000
40
0.0000000000
40
0.0000000000
40
0.3369805066
40
0.6702618829
40
1.0000000000
40
1.0000000000
40
1.0000000000
40
1.0000000000
10
5.2114549242
20
-15.1284601604
30
0.0000000000
10
5.2231197017
20
-15.1178300415
30
0.0000000000
10
5.2462103851
20
-15.0965644963
30
0.0000000000
10
5.2803274613
20
-15.0644796931
30
0.0000000000
10
5.3027271982
20
-15.0429745145
30
0.0000000000
10
5.3138119906
20
-15.0322226306
30
0.0000000000
11
5.2114549242
21
-15.1284601604
31
0.0000000000
11
5.2462813762
21
-15.0963865511
31
0.0000000000
11
5.2803926186
21
-15.0643073037
31
0.0000000000
11
5.3138119906
21
-15.0322226306
31
0.0000000000
0
SPLINE
5
3A3
100
AcDbEntity
8
0
100
AcDbSpline
62
9
6
CONTINUOUS
70
0
71
3
72
10
73
6
74
4
42
0.0000001000
43
0.0000001000
44
0.0000000001
12
0.1038467556
22
-0.0946356141
32
0.0000000000
13
0.1008508744
23
-0.0978220285
33
0.0000000000
40
0.0000000000
40
0.0000000000
40
0.0000000000
40
0.0000000000
40
0.3369805061
40
0.6702618819
40
1.0000000000
40
1.0000000000
40
1.0000000000
40
1.0000000000
10
5.2114549242
20
-9.9359851007
30
0.0000000000
10
5.2231197016
20
-9.9466152197
30
0.0000000000
10
5.2462103850
20
-9.9678807648
30
0.0000000000
10
5.2803274613
20
-9.9999655680
30
0.0000000000
10
5.3027271981
20
-10.0214707467
30
0.0000000000
10
5.3138119906
20
-10.0322226306
30
0.0000000000
11
5.2114549242
21
-9.9359851007
31
0.0000000000
11
5.2462813761
21
-9.9680587100
31
0.0000000000
11
5.2803926185
21
-10.0001379574
31
0.0000000000
11
5.3138119906
21
-10.0322226306
31
0.0000000000
0
SPLINE
5
3A4
100
AcDbEntity
8
0
100
AcDbSpline
62
9
6
CONTINUOUS
70
0
71
3
72
10
73
6
74
4
42
0.0000001000
43
0.0000001000
44
0.0000000001
12
-0.1038467568
22
-0.0946356128
32
0.0000000000
13
-0.1008508732
23
-0.0978220296
33
0.0000000000
40
0.0000000000
40
0.0000000000
40
0.0000000000
40
0.0000000000
40
0.3369805066
40
0.6702618829
40
1.0000000000
40
1.0000000000
40
1.0000000000
40
1.0000000000
10
-4.9531920306
20
-9.9359851007
30
0.0000000000
10
-4.9648568082
20
-9.9466152196
30
0.0000000000
10
-4.9879474915
20
-9.9678807648
30
0.0000000000
10
-5.0220645678
20
-9.9999655680
30
0.0000000000
10
-5.0444643047
20
-10.0214707466
30
0.0000000000
10
-5.0555490970
20
-10.0322226306
30
0.0000000000
11
-4.9531920306
21
-9.9359851007
31
0.0000000000
11
-4.9880184827
21
-9.9680587100
31
0.0000000000
11
-5.0221297251
21
-10.0001379574
31
0.0000000000
11
-5.0555490970
21
-10.0322226306
31
0.0000000000
0
SPLINE
5
3A5
100
AcDbEntity
8
0
100
AcDbSpline
62
0
6
CONTINUOUS
70
0
71
3
72
10
73
6
74
4
42
0.0000001000
43
0.0000001000
44
0.0000000001
12
0.0526724926
22
0.0521012756
32
0.0000000000
13
0.0518876604
23
0.0528829376
33
0.0000000000
40
0.0000000000
40
0.0000000000
40
0.0000000000
40
0.0000000000
40
0.3339708515
40
0.6672979872
40
1.0000000000
40
1.0000000000
40
1.0000000000
40
1.0000000000
10
5.6437459547
20
-15.1284601604
30
0.0000000000
10
5.6496096471
20
-15.1226600580
30
0.0000000000
10
5.6612968051
20
-15.1110417468
30
0.0000000000
10
5.6787238501
20
-15.0935436255
30
0.0000000000
10
5.6902726233
20
-15.0818317156
30
0.0000000000
10
5.6960269997
20
-15.0759669623
30
0.0000000000
11
5.6437459547
21
-15.1284601604
31
0.0000000000
11
5.6612935197
21
-15.1110159735
31
0.0000000000
11
5.6787201801
21
-15.0935182472
31
0.0000000000
11
5.6960269997
21
-15.0759669623
31
0.0000000000
0
SPLINE
5
3A6
100
AcDbEntity
8
0
100
AcDbSpline
62
0
6
CONTINUOUS
70
0
71
3
72
10
73
6
74
4
42
0.0000001000
43
0.0000001000
44
0.0000000001
12
0.0000000000
22
0.2078153976
32
0.0000000000
13
-0.1329817272
23
0.1596968995
33
0.0000000000
40
0.0000000000
40
0.0000000000
40
0.0000000000
40
0.0000000000
40
0.3337314459
40
0.6668040975
40
1.0000000000
40
1.0000000000
40
1.0000000000
40
1.0000000000
10
6.5116763818
20
-9.2158665725
30
0.0000000000
10
6.5116763818
20
-9.1927483948
30
0.0000000000
10
6.5062840548
20
-9.1463740694
30
0.0000000000
10
6.4825104425
20
-9.0807112507
30
0.0000000000
10
6.4569932875
20
-9.0416616503
30
0.0000000000
10
6.4422236320
20
-9.0239248662
30
0.0000000000
11
6.5116763818
21
-9.2158665725
31
0.0000000000
11
6.5036585537
21
-9.1469770545
31
0.0000000000
11
6.4800948815
21
-9.0818937768
31
0.0000000000
11
6.4422236320
21
-9.0239248662
31
0.0000000000
0
SPLINE
5
3A7
100
AcDbEntity
8
0
100
AcDbSpline
62
0
6
CONTINUOUS
70
0
71
3
72
10
73
6
74
4
42
0.0000001000
43
0.0000001000
44
0.0000000001
12
0.0461075976
22
-0.0469920052
32
0.0000000000
13
0.0467278440
23
-0.0463753828
33
0.0000000000
40
0.0000000000
40
0.0000000000
40
0.0000000000
40
0.0000000000
40
0.3744096406
40
0.7495227685
40
1.0000000000
40
1.0000000000
40
1.0000000000
40
1.0000000000
10
-5.4377641061
20
-15.0759669623
30
0.0000000000
10
-5.4320097298
20
-15.0818317156
30
0.0000000000
10
-5.4204609565
20
-15.0935436255
30
0.0000000000
10
-5.4049752096
20
-15.1090925311
30
0.0000000000
10
-5.3952471364
20
-15.1187794208
30
0.0000000000
10
-5.3913457161
20
-15.1226514133
30
0.0000000000
11
-5.4377641061
21
-15.0759669623
31
0.0000000000
11
-5.4204572866
21
-15.0935182472
31
0.0000000000
11
-5.4030306262
21
-15.1110159735
31
0.0000000000
11
-5.3913457161
21
-15.1226514133
31
0.0000000000
0
SPLINE
5
3A8
100
AcDbEntity
8
0
100
AcDbSpline
62
0
6
CONTINUOUS
70
0
71
3
72
8
73
4
74
2
42
0.0000001000
43
0.0000001000
44
0.0000000001
12
0.0058578170
22
-0.0058136324
32
0.0000000000
13
0.0058674897
23
-0.0058038586
33
0.0000000000
40
0.0000000000
40
0.0000000000
40
0.0000000000
40
0.0000000000
40
1.0000000000
40
1.0000000000
40
1.0000000000
40
1.0000000000
10
-5.3913457161
20
-15.1226514133
30
0.0000000000
10
-5.3893931104
20
-15.1245892907
30
0.0000000000
10
-5.3874388911
20
-15.1265255409
30
0.0000000000
10
-5.3854830612
20
-15.1284601604
30
0.0000000000
11
-5.3913457161
21
-15.1226514133
31
0.0000000000
11
-5.3854830612
21
-15.1284601604
31
0.0000000000
0
SPLINE
5
3A9
100
AcDbEntity
8
0
100
AcDbSpline
62
0
6
CONTINUOUS
70
0
71
3
72
12
73
8
74
6
42
0.0000001000
43
0.0000001000
44
0.0000000001
12
0.4695527409
22
0.0000000000
32
0.0000000000
13
0.0000000000
23
0.4695527409
33
0.0000000000
40
0.0000000000
40
0.0000000000
40
0.0000000000
40
0.0000000000
40
0.1993649636
40
0.3988522271
40
0.5987371844
40
0.7991447419
40
1.0000000000
40
1.0000000000
40
1.0000000000
40
1.0000000000
10
6.2120870762
20
-9.9359851007
30
0.0000000000
10
6.2432911979
20
-9.9359851007
30
0.0000000000
10
6.3061602304
20
-9.9260450899
30
0.0000000000
10
6.3909426258
20
-9.8827398736
30
0.0000000000
10
6.4583774757
20
-9.8151704185
30
0.0000000000
10
6.5017163136
20
-9.7299821347
30
0.0000000000
10
6.5116763818
20
-9.6667345947
30
0.0000000000
10
6.5116763818
20
-9.6352972157
30
0.0000000000
11
6.2120870762
21
-9.9359851007
31
0.0000000000
11
6.3045442448
21
-9.9213240341
31
0.0000000000
11
6.3879797531
21
-9.8787500308
31
0.0000000000
11
6.4542923823
21
-9.8123295268
31
0.0000000000
11
6.4969525216
21
-9.7284529301
31
0.0000000000
11
6.5116763818
21
-9.6352972157
31
0.0000000000
0
SPLINE
5
3AA
100
AcDbEntity
8
0
100
AcDbSpline
62
0
6
CONTINUOUS
70
0
71
3
72
8
73
4
74
2
42
0.0000001000
43
0.0000001000
44
0.0000000001
12
-0.1036908775
22
0.0000000000
32
0.0000000000
13
-0.0989601342
23
0.0358390060
33
0.0000000000
40
0.0000000000
40
0.0000000000
40
0.0000000000
40
0.0000000000
40
1.0000000000
40
1.0000000000
40
1.0000000000
40
1.0000000000
10
5.0409241418
20
18.9677773694
30
0.0000000000
10
5.0063605160
20
18.9677773694
30
0.0000000000
10
4.9713536773
20
18.9740473938
30
0.0000000000
10
4.9383669659
20
18.9859937291
30
0.0000000000
11
5.0409241418
21
18.9677773694
31
0.0000000000
11
4.9383669659
21
18.9859937291
31
0.0000000000
0
SPLINE
5
3AB
100
AcDbEntity
8
0
100
AcDbSpline
62
0
6
CONTINUOUS
70
0
71
3
72
10
73
6
74
4
42
0.0000001000
43
0.0000001000
44
0.0000000001
12
-0.2959737669
22
0.1071886744
32
0.0000000000
13
-0.0551330049
23
0.3085461996
33
0.0000000000
40
0.0000000000
40
0.0000000000
40
0.0000000000
40
0.0000000000
40
0.1663697627
40
0.6671021916
40
1.0000000000
40
1.0000000000
40
1.0000000000
40
1.0000000000
10
4.9383669659
20
18.9859937291
30
0.0000000000
10
4.9219532708
20
18.9919380472
30
0.0000000000
10
4.8581438948
20
19.0214086370
30
0.0000000000
10
4.7818612872
20
19.0976950633
30
0.0000000000
10
4.7517178158
20
19.1814638935
30
0.0000000000
10
4.7455999303
20
19.2157020114
30
0.0000000000
11
4.9383669659
21
18.9859937291
31
0.0000000000
11
4.8909298533
21
19.0079697483
31
0.0000000000
11
4.7811264133
21
19.1177773694
31
0.0000000000
11
4.7455999303
21
19.2157020114
31
0.0000000000
0
SPLINE
5
3AC
100
AcDbEntity
8
0
100
AcDbSpline
62
0
6
CONTINUOUS
70
0
71
3
72
8
73
4
74
2
42
0.0000001000
43
0.0000001000
44
0.0000000001
12
-0.0092536821
22
0.0517872817
32
0.0000000000
13
0.0000000000
23
0.0520518786
33
0.0000000000
40
0.0000000000
40
0.0000000000
40
0.0000000000
40
0.0000000000
40
1.0000000000
40
1.0000000000
40
1.0000000000
40
1.0000000000
10
4.7455999303
20
19.2157020114
30
0.0000000000
10
4.7425153696
20
19.2329644387
30
0.0000000000
10
4.7409355649
20
19.2504267432
30
0.0000000000
10
4.7409355649
20
19.2677773694
30
0.0000000000
11
4.7455999303
21
19.2157020114
31
0.0000000000
11
4.7409355649
21
19.2677773694
31
0.0000000000
0
SPLINE
5
3AD
100
AcDbEntity
8
0
100
AcDbSpline
62
0
6
CONTINUOUS
70
0
71
3
72
12
73
8
74
6
42
0.0000001000
43
0.0000001000
44
0.0000000001
12
0.4787328492
22
-0.0602623698
32
0.0000000000
13
0.0000000000
23
-0.4825109278
33
0.0000000000
40
0.0000000000
40
0.0000000000
40
0.0000000000
40
0.0000000000
40
0.2976578501
40
0.4627467792
40
0.6312983859
40
0.8298443225
40
1.0000000000
40
1.0000000000
40
1.0000000000
40
1.0000000000
10
-3.8745805352
20
3.6521013694
30
0.0000000000
10
-3.8270810050
20
3.6461221803
30
0.0000000000
10
-3.7520944304
20
3.6431580494
30
0.0000000000
10
-3.6561091645
20
3.6015774214
30
0.0000000000
10
-3.6014487017
20
3.5323238643
30
0.0000000000
10
-3.5720621866
20
3.4495618524
30
0.0000000000
10
-3.5690934100
20
3.3898621933
30
0.0000000000
10
-3.5690934100
20
3.3624948687
30
0.0000000000
11
-3.8745805352
21
3.6521013694
31
0.0000000000
11
-3.7325272070
21
3.6309243691
31
0.0000000000
11
-3.6606657098
21
3.5965558269
31
0.0000000000
11
-3.6082450041
21
3.5343761525
31
0.0000000000
11
-3.5754965279
21
3.4443467727
31
0.0000000000
11
-3.5690934100
21
3.3624948687
31
0.0000000000
0
SPLINE
5
3AE
100
AcDbEntity
8
0
100
AcDbSpline
62
0
6
CONTINUOUS
70
0
71
3
72
12
73
8
74
6
42
0.0000001000
43
0.0000001000
44
0.0000000001
12
0.0000000000
22
-0.4825109161
32
0.0000000000
13
-0.4787328387
23
-0.0602623616
33
0.0000000000
40
0.0000000000
40
0.0000000000
40
0.0000000000
40
0.0000000000
40
0.1701556816
40
0.3687016231
40
0.5372532339
40
0.7023421670
40
1.0000000000
40
1.0000000000
40
1.0000000000
40
1.0000000000
10
-3.5690934100
20
3.3624948687
30
0.0000000000
10
-3.5690934100
20
3.3351275441
30
0.0000000000
10
-3.5720621866
20
3.2754278850
30
0.0000000000
10
-3.6014487017
20
3.1926658731
30
0.0000000000
10
-3.6561091645
20
3.1234123160
30
0.0000000000
10
-3.7520944267
20
3.0818316896
30
0.0000000000
10
-3.8270809971
20
3.0788675574
30
0.0000000000
10
-3.8745805236
20
3.0728883694
30
0.0000000000
11
-3.5690934100
21
3.3624948687
31
0.0000000000
11
-3.5754965279
21
3.2806429647
31
0.0000000000
11
-3.6082450041
21
3.1906135849
31
0.0000000000
11
-3.6606657098
21
3.1284339105
31
0.0000000000
11
-3.7325272070
21
3.0940653683
31
0.0000000000
11
-3.8745805236
21
3.0728883694
31
0.0000000000
0
SPLINE
5
3AF
100
AcDbEntity
8
0
100
AcDbSpline
62
0
6
CONTINUOUS
70
0
71
3
72
9
73
5
74
3
42
0.0000001000
43
0.0000001000
44
0.0000000001
12
0.4209784888
22
0.0156020152
32
0.0000000000
13
0.4066504174
23
0.1143363319
33
0.0000000000
40
0.0000000000
40
0.0000000000
40
0.0000000000
40
0.0000000000
40
0.5364059302
40
1.0000000000
40
1.0000000000
40
1.0000000000
40
1.0000000000
10
-3.9441219507
20
2.7322123694
30
0.0000000000
10
-3.8688501647
20
2.7350020406
30
0.0000000000
10
-3.7282082105
20
2.7372563243
30
0.0000000000
10
-3.5892353627
20
2.7616267301
30
0.0000000000
10
-3.5263951221
20
2.7792952786
30
0.0000000000
11
-3.9441219507
21
2.7322123694
31
0.0000000000
11
-3.7184480623
21
2.7437839640
31
0.0000000000
11
-3.5263951221
21
2.7792952786
31
0.0000000000
0
SPLINE
5
3B0
100
AcDbEntity
8
0
100
AcDbSpline
62
0
6
CONTINUOUS
70
0
71
3
72
13
73
9
74
7
42
0.0000001000
43
0.0000001000
44
0.0000000001
12
0.7576052006
22
0.2130129369
32
0.0000000000
13
-0.0000000000
23
0.7848373072
33
0.0000000000
40
0.0000000000
40
0.0000000000
40
0.0000000000
40
0.0000000000
40
0.0095329708
40
0.2449937702
40
0.4685004684
40
0.7075201497
40
0.8448665473
40
1.0000000000
40
1.0000000000
40
1.0000000000
40
1.0000000000
10
-3.5263951221
20
2.7792952786
30
0.0000000000
10
-3.5239877126
20
2.7799721606
30
0.0000000000
10
-3.4621780438
20
2.7976080613
30
0.0000000000
10
-3.3470082117
20
2.8432569208
30
0.0000000000
10
-3.2043353515
20
2.9640847621
30
0.0000000000
10
-3.1331561690
20
3.1087084539
30
0.0000000000
10
-3.1049870926
20
3.2452078864
30
0.0000000000
10
-3.1005857636
20
3.3219100283
30
0.0000000000
10
-3.1005857636
20
3.3624948687
30
0.0000000000
11
-3.5263951221
21
2.7792952786
31
0.0000000000
11
-3.5191799493
21
2.7813540650
31
0.0000000000
11
-3.3490730235
21
2.8535627192
31
0.0000000000
11
-3.2167676367
21
2.9687416944
31
0.0000000000
11
-3.1310584328
21
3.1356084883
31
0.0000000000
11
-3.1083775094
21
3.2409899217
31
0.0000000000
11
-3.1005857636
21
3.3624948687
31
0.0000000000
0
SPLINE
5
3B1
100
AcDbEntity
8
0
100
AcDbSpline
62
0
6
CONTINUOUS
70
0
71
3
72
13
73
9
74
7
42
0.0000001000
43
0.0000001000
44
0.0000000001
12
0.0000000000
22
0.7821143173
32
0.0000000000
13
-0.7544422258
23
0.2144119618
33
0.0000000000
40
0.0000000000
40
0.0000000000
40
0.0000000000
40
0.0000000000
40
0.1556735615
40
0.2934981409
40
0.5333499873
40
0.7576348408
40
0.9939154148
40
1.0000000000
40
1.0000000000
40
1.0000000000
40
1.0000000000
10
-3.1005857636
20
3.3624948687
30
0.0000000000
10
-3.1005857636
20
3.4030797091
30
0.0000000000
10
-3.1049870926
20
3.4797818510
30
0.0000000000
10
-3.1331561690
20
3.6162812835
30
0.0000000000
10
-3.2043353515
20
3.7609049753
30
0.0000000000
10
-3.3470082117
20
3.8817328166
30
0.0000000000
10
-3.4613251497
20
3.9270436219
30
0.0000000000
10
-3.5222373866
20
3.9445168223
30
0.0000000000
10
-3.5237675426
20
3.9449516916
30
0.0000000000
11
-3.1005857636
21
3.3624948687
31
0.0000000000
11
-3.1083775094
21
3.4839998157
31
0.0000000000
11
-3.1310584328
21
3.5893812491
31
0.0000000000
11
-3.2167676367
21
3.7562480430
31
0.0000000000
11
-3.3490730235
21
3.8714270181
31
0.0000000000
11
-3.5191799493
21
3.9436356724
31
0.0000000000
11
-3.5237675426
21
3.9449516916
31
0.0000000000
0
SPLINE
5
3B2
100
AcDbEntity
8
0
100
AcDbSpline
62
0
6
CONTINUOUS
70
0
71
3
72
9
73
5
74
3
42
0.0000001000
43
0.0000001000
44
0.0000000001
12
-0.4089892252
22
0.1162344566
32
0.0000000000
13
-0.4236996501
23
0.0157028682
33
0.0000000000
40
0.0000000000
40
0.0000000000
40
0.0000000000
40
0.0000000000
40
0.4670389809
40
1.0000000000
40
1.0000000000
40
1.0000000000
40
1.0000000000
10
-3.5237675426
20
3.9449516916
30
0.0000000000
10
-3.5874388462
20
3.9630470323
30
0.0000000000
10
-3.7272991417
20
3.9877188441
30
0.0000000000
10
-3.8688501912
20
3.9899876972
30
0.0000000000
10
-3.9441219903
20
3.9927773694
30
0.0000000000
11
-3.5237675426
21
3.9449516916
31
0.0000000000
11
-3.7184480623
21
3.9812057734
31
0.0000000000
11
-3.9441219903
21
3.9927773694
31
0.0000000000
0
SPLINE
5
3B3
100
AcDbEntity
8
0
100
AcDbSpline
62
0
6
CONTINUOUS
70
0
71
3
72
10
73
6
74
4
42
0.0000001000
43
0.0000001000
44
0.0000000001
12
0.6572184261
22
-0.0000710653
32
0.0000000000
13
0.6572168963
23
0.0014197975
33
0.0000000000
40
0.0000000000
40
0.0000000000
40
0.0000000000
40
0.0000000000
40
0.3234627465
40
0.6564718232
40
1.0000000000
40
1.0000000000
40
1.0000000000
40
1.0000000000
10
-4.0256307041
20
-19.7852556304
30
0.0000000000
10
-3.9547688117
20
-19.7852632927
30
0.0000000000
10
-3.8109536792
20
-19.7851817846
30
0.0000000000
10
-3.5918810293
20
-19.7849087334
30
0.0000000000
10
-3.4436703767
20
-19.7846225114
30
0.0000000000
10
-3.3684128693
20
-19.7844599312
30
0.0000000000
11
-4.0256307041
21
-19.7852556304
31
0.0000000000
11
-3.8130450475
21
-19.7851592398
31
0.0000000000
11
-3.5941855143
21
-19.7848870154
31
0.0000000000
11
-3.3684128693
21
-19.7844599312
31
0.0000000000
0
SPLINE
5
3B4
100
AcDbEntity
8
0
100
AcDbSpline
62
0
6
CONTINUOUS
70
0
71
3
72
10
73
6
74
4
42
0.0000001000
43
0.0000001000
44
0.0000000001
12
0.6572167788
22
-0.0014731729
32
0.0000000000
13
0.6572184297
23
-0.0000114517
33
0.0000000000
40
0.0000000000
40
0.0000000000
40
0.0000000000
40
0.0000000000
40
0.3434593032
40
0.6764548787
40
1.0000000000
40
1.0000000000
40
1.0000000000
40
1.0000000000
10
3.6266757628
20
-19.7844599312
30
0.0000000000
10
3.7019181684
20
-19.7846285896
30
0.0000000000
10
3.8501107938
20
-19.7849050744
30
0.0000000000
10
4.0691834373
20
-19.7851862848
30
0.0000000000
10
4.2130136587
20
-19.7852543953
30
0.0000000000
10
4.2838935976
20
-19.7852556304
30
0.0000000000
11
3.6266757628
21
-19.7844599312
31
0.0000000000
11
3.8524031426
21
-19.7848871142
31
0.0000000000
11
4.0712538030
21
-19.7851589688
31
0.0000000000
11
4.2838935976
21
-19.7852556304
31
0.0000000000
0
SPLINE
5
3B5
100
AcDbEntity
8
0
100
AcDbSpline
62
0
6
CONTINUOUS
70
0
71
3
72
10
73
6
74
4
42
0.0000001000
43
0.0000001000
44
0.0000000001
12
0.0000000000
22
-0.4534904438
32
0.0000000000
13
-0.4544181187
23
-0.0195249843
33
0.0000000000
40
0.0000000000
40
0.0000000000
40
0.0000000000
40
0.0000000000
40
0.3424350681
40
0.6848644901
40
1.0000000000
40
1.0000000000
40
1.0000000000
40
1.0000000000
10
-4.4826726713
20
19.2677773694
30
0.0000000000
10
-4.4826726713
20
19.2160136924
30
0.0000000000
10
-4.5107949013
20
19.1104991965
30
0.0000000000
10
-4.6223424873
20
18.9989460266
30
0.0000000000
10
-4.7225371008
20
18.9700952808
30
0.0000000000
10
-4.7702715294
20
18.9680442755
30
0.0000000000
11
-4.4826726713
21
19.2677773694
31
0.0000000000
11
-4.5228635198
21
19.1177773694
31
0.0000000000
11
-4.6326669598
21
19.0079697483
31
0.0000000000
11
-4.7702715294
21
18.9680442755
31
0.0000000000
0
SPLINE
5
3B6
100
AcDbEntity
8
0
100
AcDbSpline
62
0
6
CONTINUOUS
70
0
71
3
72
8
73
4
74
2
42
0.0000001000
43
0.0000001000
44
0.0000000001
12
-0.0124002826
22
-0.0005328030
32
0.0000000000
13
-0.0123749679
23
0.0000000000
33
0.0000000000
40
0.0000000000
40
0.0000000000
40
0.0000000000
40
0.0000000000
40
1.0000000000
40
1.0000000000
40
1.0000000000
40
1.0000000000
10
-4.7702715294
20
18.9680442755
30
0.0000000000
10
-4.7744049569
20
18.9678666745
30
0.0000000000
10
-4.7785362589
20
18.9677773694
30
0.0000000000
10
-4.7826612483
20
18.9677773694
30
0.0000000000
11
-4.7702715294
21
18.9680442755
31
0.0000000000
11
-4.7826612483
21
18.9677773694
31
0.0000000000
0
SPLINE
5
3B7
100
AcDbEntity
8
0
100
AcDbSpline
62
0
6
CONTINUOUS
70
0
71
3
72
10
73
6
74
4
42
0.0000001000
43
0.0000001000
44
0.0000000001
12
-0.4138135331
22
0.0000000000
32
0.0000000000
13
-0.0735669682
23
0.4117099822
33
0.0000000000
40
0.0000000000
40
0.0000000000
40
0.0000000000
40
0.0000000000
40
0.3752557559
40
0.7505176991
40
1.0000000000
40
1.0000000000
40
1.0000000000
40
1.0000000000
10
-4.9590758582
20
18.9677773694
30
0.0000000000
10
-5.0108378282
20
18.9677773694
30
0.0000000000
10
-5.1163506789
20
18.9959019340
30
0.0000000000
10
-5.2181387128
20
19.0976950633
30
0.0000000000
10
-5.2482821842
20
19.1814638935
30
0.0000000000
10
-5.2544000697
20
19.2157020114
30
0.0000000000
11
-4.9590758582
21
18.9677773694
31
0.0000000000
11
-5.1090701467
21
19.0079697483
31
0.0000000000
11
-5.2188735867
21
19.1177773694
31
0.0000000000
11
-5.2544000697
21
19.2157020114
31
0.0000000000
0
SPLINE
5
3B8
100
AcDbEntity
8
0
100
AcDbSpline
62
0
6
CONTINUOUS
70
0
71
3
72
8
73
4
74
2
42
0.0000001000
43
0.0000001000
44
0.0000000001
12
-0.0092536821
22
0.0517872817
32
0.0000000000
13
0.0000000000
23
0.0520518786
33
0.0000000000
40
0.0000000000
40
0.0000000000
40
0.0000000000
40
0.0000000000
40
1.0000000000
40
1.0000000000
40
1.0000000000
40
1.0000000000
10
-5.2544000697
20
19.2157020114
30
0.0000000000
10
-5.2574846304
20
19.2329644387
30
0.0000000000
10
-5.2590644351
20
19.2504267432
30
0.0000000000
10
-5.2590644351
20
19.2677773694
30
0.0000000000
11
-5.2544000697
21
19.2157020114
31
0.0000000000
11
-5.2590644351
21
19.2677773694
31
0.0000000000
0
SPLINE
5
3B9
100
AcDbEntity
8
0
100
AcDbSpline
62
0
6
CONTINUOUS
70
0
71
3
72
10
73
6
74
4
42
0.0000001000
43
0.0000001000
44
0.0000000001
12
0.0000000000
22
-0.4534904438
32
0.0000000000
13
-0.4544181187
23
-0.0195249843
33
0.0000000000
40
0.0000000000
40
0.0000000000
40
0.0000000000
40
0.0000000000
40
0.3424350681
40
0.6848644901
40
1.0000000000
40
1.0000000000
40
1.0000000000
40
1.0000000000
10
5.5173273287
20
19.2677773694
30
0.0000000000
10
5.5173273287
20
19.2160136924
30
0.0000000000
10
5.4892050987
20
19.1104991965
30
0.0000000000
10
5.3776575127
20
18.9989460266
30
0.0000000000
10
5.2774628992
20
18.9700952808
30
0.0000000000
10
5.2297284706
20
18.9680442755
30
0.0000000000
11
5.5173273287
21
19.2677773694
31
0.0000000000
11
5.4771364802
21
19.1177773694
31
0.0000000000
11
5.3673330402
21
19.0079697483
31
0.0000000000
11
5.2297284706
21
18.9680442755
31
0.0000000000
0
SPLINE
5
3BA
100
AcDbEntity
8
0
100
AcDbSpline
62
0
6
CONTINUOUS
70
0
71
3
72
8
73
4
74
2
42
0.0000001000
43
0.0000001000
44
0.0000000001
12
-0.0124002826
22
-0.0005328030
32
0.0000000000
13
-0.0123749679
23
0.0000000000
33
0.0000000000
40
0.0000000000
40
0.0000000000
40
0.0000000000
40
0.0000000000
40
1.0000000000
40
1.0000000000
40
1.0000000000
40
1.0000000000
10
5.2297284706
20
18.9680442755
30
0.0000000000
10
5.2255950431
20
18.9678666745
30
0.0000000000
10
5.2214637411
20
18.9677773694
30
0.0000000000
10
5.2173387517
20
18.9677773694
30
0.0000000000
11
5.2297284706
21
18.9680442755
31
0.0000000000
11
5.2173387517
21
18.9677773694
31
0.0000000000
0
SPLINE
5
3BB
100
AcDbEntity
8
0
100
AcDbSpline
62
0
6
CONTINUOUS
70
0
71
3
72
8
73
4
74
2
42
0.0000001000
43
0.0000001000
44
0.0000000001
12
-0.0840031577
22
0.1126701675
32
0.0000000000
13
-0.0803916939
23
0.1152859822
33
0.0000000000
40
0.0000000000
40
0.0000000000
40
0.0000000000
40
0.0000000000
40
1.0000000000
40
1.0000000000
40
1.0000000000
40
1.0000000000
10
-5.5190066746
20
-15.2228311609
30
0.0000000000
10
-5.5470077272
20
-15.1852744384
30
0.0000000000
10
-5.5744130613
20
-15.1472698487
30
0.0000000000
10
-5.6012102926
20
-15.1088411880
30
0.0000000000
11
-5.5190066746
21
-15.2228311609
31
0.0000000000
11
-5.6012102926
21
-15.1088411880
31
0.0000000000
0
SPLINE
5
3BC
100
AcDbEntity
8
0
100
AcDbSpline
62
0
6
CONTINUOUS
70
0
71
3
72
8
73
4
74
2
42
0.0000001000
43
0.0000001000
44
0.0000000001
12
-0.0403056633
22
0.0578004736
32
0.0000000000
13
-0.0393822227
23
0.0584322142
33
0.0000000000
40
0.0000000000
40
0.0000000000
40
0.0000000000
40
0.0000000000
40
1.0000000000
40
1.0000000000
40
1.0000000000
40
1.0000000000
10
-5.6012102926
20
-15.1088411880
30
0.0000000000
10
-5.6146455137
20
-15.0895743635
30
0.0000000000
10
-5.6279278773
20
-15.0702009411
30
0.0000000000
10
-5.6410552849
20
-15.0507235364
30
0.0000000000
11
-5.6012102926
21
-15.1088411880
31
0.0000000000
11
-5.6410552849
21
-15.0507235364
31
0.0000000000
0
SPLINE
5
3BD
100
AcDbEntity
8
0
100
AcDbSpline
62
9
6
CONTINUOUS
70
0
71
3
72
10
73
6
74
4
42
0.0000001000
43
0.0000001000
44
0.0000000001
12
-0.0240337377
22
0.0349513183
32
0.0000000000
13
-0.0241225694
23
0.0348900680
33
0.0000000000
40
0.0000000000
40
0.0000000000
40
0.0000000000
40
0.0000000000
40
0.3328018275
40
0.6661345320
40
1.0000000000
40
1.0000000000
40
1.0000000000
40
1.0000000000
10
6.6646263218
20
-14.5322226306
30
0.0000000000
10
6.6619601645
20
-14.5283453430
30
0.0000000000
10
6.6566203298
20
-14.5205868291
30
0.0000000000
10
6.6485943325
20
-14.5089465451
30
0.0000000000
10
6.6432328008
20
-14.5011847240
30
0.0000000000
10
6.6405482365
20
-14.4973018611
30
0.0000000000
11
6.6646263218
21
-14.5322226306
31
0.0000000000
11
6.6566229482
21
-14.5205941402
31
0.0000000000
11
6.6485969608
21
-14.5089538836
31
0.0000000000
11
6.6405482365
21
-14.4973018611
31
0.0000000000
0
SPLINE
5
3BE
100
AcDbEntity
8
0
100
AcDbSpline
62
9
6
CONTINUOUS
70
0
71
3
72
10
73
6
74
4
42
0.0000001000
43
0.0000001000
44
0.0000000001
12
0.0240337377
22
0.0349513183
32
0.0000000000
13
0.0241225694
23
0.0348900680
33
0.0000000000
40
0.0000000000
40
0.0000000000
40
0.0000000000
40
0.0000000000
40
0.3328018275
40
0.6661345320
40
1.0000000000
40
1.0000000000
40
1.0000000000
40
1.0000000000
10
-6.4063634283
20
-14.5322226306
30
0.0000000000
10
-6.4036972710
20
-14.5283453430
30
0.0000000000
10
-6.3983574362
20
-14.5205868291
30
0.0000000000
10
-6.3903314389
20
-14.5089465451
30
0.0000000000
10
-6.3849699073
20
-14.5011847240
30
0.0000000000
10
-6.3822853430
20
-14.4973018611
30
0.0000000000
11
-6.4063634283
21
-14.5322226306
31
0.0000000000
11
-6.3983600546
21
-14.5205941402
31
0.0000000000
11
-6.3903340673
21
-14.5089538836
31
0.0000000000
11
-6.3822853430
21
-14.4973018611
31
0.0000000000
0
SPLINE
5
3BF
100
AcDbEntity
8
0
100
AcDbSpline
62
0
6
CONTINUOUS
70
0
71
3
72
9
73
5
74
3
42
0.0000001000
43
0.0000001000
44
0.0000000001
12
-0.2426407411
22
0.0089382039
32
0.0000000000
13
-0.2426364285
23
0.0090545155
33
0.0000000000
40
0.0000000000
40
0.0000000000
40
0.0000000000
40
0.0000000000
40
0.4976874903
40
1.0000000000
40
1.0000000000
40
1.0000000000
40
1.0000000000
10
-5.9426060504
20
-14.5063051960
30
0.0000000000
10
-5.9828591376
20
-14.5048223853
30
0.0000000000
10
-6.0637391081
20
-14.5018354395
30
0.0000000000
10
-6.1446179432
20
-14.4988179265
30
0.0000000000
10
-6.1852443810
20
-14.4973018611
30
0.0000000000
11
-5.9426060504
21
-14.5063051960
31
0.0000000000
11
-6.0633647554
21
-14.5018416829
31
0.0000000000
11
-6.1852443810
21
-14.4973018611
31
0.0000000000
0
SPLINE
5
3C0
100
AcDbEntity
8
0
100
AcDbSpline
62
9
6
CONTINUOUS
70
0
71
3
72
10
73
6
74
4
42
0.0000001000
43
0.0000001000
44
0.0000000001
12
0.0240337377
22
-0.0349513183
32
0.0000000000
13
0.0241225694
23
-0.0348900680
33
0.0000000000
40
0.0000000000
40
0.0000000000
40
0.0000000000
40
0.0000000000
40
0.3328018275
40
0.6661345320
40
1.0000000000
40
1.0000000000
40
1.0000000000
40
1.0000000000
10
-6.4063634283
20
-10.5322226306
30
0.0000000000
10
-6.4036972710
20
-10.5360999181
30
0.0000000000
10
-6.3983574362
20
-10.5438584321
30
0.0000000000
10
-6.3903314389
20
-10.5554987160
30
0.0000000000
10
-6.3849699073
20
-10.5632605371
30
0.0000000000
10
-6.3822853430
20
-10.5671434001
30
0.0000000000
11
-6.4063634283
21
-10.5322226306
31
0.0000000000
11
-6.3983600546
21
-10.5438511210
31
0.0000000000
11
-6.3903340673
21
-10.5554913775
31
0.0000000000
11
-6.3822853430
21
-10.5671434001
31
0.0000000000
0
SPLINE
5
3C1
100
AcDbEntity
8
0
100
AcDbSpline
62
9
6
CONTINUOUS
70
0
71
3
72
10
73
6
74
4
42
0.0000001000
43
0.0000001000
44
0.0000000001
12
-0.0240337377
22
-0.0349513183
32
0.0000000000
13
-0.0241225694
23
-0.0348900680
33
0.0000000000
40
0.0000000000
40
0.0000000000
40
0.0000000000
40
0.0000000000
40
0.3328018275
40
0.6661345320
40
1.0000000000
40
1.0000000000
40
1.0000000000
40
1.0000000000
10
6.6646263218
20
-10.5322226306
30
0.0000000000
10
6.6619601645
20
-10.5360999181
30
0.0000000000
10
6.6566203298
20
-10.5438584321
30
0.0000000000
10
6.6485943325
20
-10.5554987160
30
0.0000000000
10
6.6432328008
20
-10.5632605371
30
0.0000000000
10
6.6405482365
20
-10.5671434001
30
0.0000000000
11
6.6646263218
21
-10.5322226306
31
0.0000000000
11
6.6566229482
21
-10.5438511210
31
0.0000000000
11
6.6485969608
21
-10.5554913775
31
0.0000000000
11
6.6405482365
21
-10.5671434001
31
0.0000000000
0
SPLINE
5
3C2
100
AcDbEntity
8
0
100
AcDbSpline
62
0
6
CONTINUOUS
70
0
71
3
72
9
73
5
74
3
42
0.0000001000
43
0.0000001000
44
0.0000000001
12
0.2426407411
22
-0.0089382039
32
0.0000000000
13
0.2426364285
23
-0.0090545155
33
0.0000000000
40
0.0000000000
40
0.0000000000
40
0.0000000000
40
0.0000000000
40
0.4972886997
40
1.0000000000
40
1.0000000000
40
1.0000000000
40
1.0000000000
10
6.2008689440
20
-10.5581400651
30
0.0000000000
10
6.2410897769
20
-10.5596216877
30
0.0000000000
10
6.3219697475
20
-10.5626086297
30
0.0000000000
10
6.4028485831
20
-10.5656261310
30
0.0000000000
10
6.4435072746
20
-10.5671434001
30
0.0000000000
11
6.2008689440
21
-10.5581400651
31
0.0000000000
11
6.3215308870
21
-10.5625999899
31
0.0000000000
11
6.4435072746
21
-10.5671434001
31
0.0000000000
0
SPLINE
5
3C3
100
AcDbEntity
8
0
100
AcDbSpline
62
9
6
CONTINUOUS
70
0
71
3
72
10
73
6
74
4
42
0.0000001000
43
0.0000001000
44
0.0000000001
12
0.0234943415
22
0.0363732506
32
0.0000000000
13
0.0235772974
23
0.0363195332
33
0.0000000000
40
0.0000000000
40
0.0000000000
40
0.0000000000
40
0.0000000000
40
0.3327682483
40
0.6661008225
40
1.0000000000
40
1.0000000000
40
1.0000000000
40
1.0000000000
10
-6.6863185241
20
-14.3397158041
30
0.0000000000
10
-6.6837124671
20
-14.3356811831
30
0.0000000000
10
-6.6784928829
20
-14.3276070692
30
0.0000000000
10
-6.6706476605
20
-14.3154915597
30
0.0000000000
10
-6.6654069142
20
-14.3074117019
30
0.0000000000
10
-6.6627827675
20
-14.3033693479
30
0.0000000000
11
-6.6863185241
21
-14.3397158041
31
0.0000000000
11
-6.6784957763
21
-14.3276148987
31
0.0000000000
11
-6.6706505671
21
-14.3154994214
31
0.0000000000
11
-6.6627827675
21
-14.3033693479
31
0.0000000000
0
SPLINE
5
3C4
100
AcDbEntity
8
0
100
AcDbSpline
62
9
6
CONTINUOUS
70
0
71
3
72
10
73
6
74
4
42
0.0000001000
43
0.0000001000
44
0.0000000001
12
0.0234943415
22
-0.0363732506
32
0.0000000000
13
0.0235772974
23
-0.0363195332
33
0.0000000000
40
0.0000000000
40
0.0000000000
40
0.0000000000
40
0.0000000000
40
0.3327682483
40
0.6661008225
40
1.0000000000
40
1.0000000000
40
1.0000000000
40
1.0000000000
10
-6.6863185241
20
-10.7247294570
30
0.0000000000
10
-6.6837124671
20
-10.7287640780
30
0.0000000000
10
-6.6784928829
20
-10.7368381919
30
0.0000000000
10
-6.6706476605
20
-10.7489537015
30
0.0000000000
10
-6.6654069142
20
-10.7570335592
30
0.0000000000
10
-6.6627827675
20
-10.7610759133
30
0.0000000000
11
-6.6863185241
21
-10.7247294570
31
0.0000000000
11
-6.6784957763
21
-10.7368303624
31
0.0000000000
11
-6.6706505671
21
-10.7489458397
31
0.0000000000
11
-6.6627827675
21
-10.7610759133
31
0.0000000000
0
SPLINE
5
3C5
100
AcDbEntity
8
0
100
AcDbSpline
62
9
6
CONTINUOUS
70
0
71
3
72
10
73
6
74
4
42
0.0000001000
43
0.0000001000
44
0.0000000001
12
-0.0234943415
22
0.0363732506
32
0.0000000000
13
-0.0235772974
23
0.0363195332
33
0.0000000000
40
0.0000000000
40
0.0000000000
40
0.0000000000
40
0.0000000000
40
0.3327682483
40
0.6661008225
40
1.0000000000
40
1.0000000000
40
1.0000000000
40
1.0000000000
10
6.9445814176
20
-14.3397158041
30
0.0000000000
10
6.9419753607
20
-14.3356811831
30
0.0000000000
10
6.9367557764
20
-14.3276070692
30
0.0000000000
10
6.9289105541
20
-14.3154915597
30
0.0000000000
10
6.9236698078
20
-14.3074117019
30
0.0000000000
10
6.9210456610
20
-14.3033693479
30
0.0000000000
11
6.9445814176
21
-14.3397158041
31
0.0000000000
11
6.9367586699
21
-14.3276148987
31
0.0000000000
11
6.9289134606
21
-14.3154994214
31
0.0000000000
11
6.9210456610
21
-14.3033693479
31
0.0000000000
0
SPLINE
5
3C6
100
AcDbEntity
8
0
100
AcDbSpline
62
9
6
CONTINUOUS
70
0
71
3
72
10
73
6
74
4
42
0.0000001000
43
0.0000001000
44
0.0000000001
12
-0.0234943415
22
-0.0363732506
32
0.0000000000
13
-0.0235772974
23
-0.0363195332
33
0.0000000000
40
0.0000000000
40
0.0000000000
40
0.0000000000
40
0.0000000000
40
0.3327682483
40
0.6661008225
40
1.0000000000
40
1.0000000000
40
1.0000000000
40
1.0000000000
10
6.9445814176
20
-10.7247294570
30
0.0000000000
10
6.9419753607
20
-10.7287640780
30
0.0000000000
10
6.9367557764
20
-10.7368381919
30
0.0000000000
10
6.9289105541
20
-10.7489537015
30
0.0000000000
10
6.9236698078
20
-10.7570335592
30
0.0000000000
10
6.9210456610
20
-10.7610759133
30
0.0000000000
11
6.9445814176
21
-10.7247294570
31
0.0000000000
11
6.9367586699
21
-10.7368303624
31
0.0000000000
11
6.9289134606
21
-10.7489458397
31
0.0000000000
11
6.9210456610
21
-10.7610759133
31
0.0000000000
0
SPLINE
5
3C7
100
AcDbEntity
8
0
100
AcDbSpline
62
0
6
CONTINUOUS
70
0
71
3
72
11
73
7
74
5
42
0.0000001000
43
0.0000001000
44
0.0000000001
12
0.0000000000
22
-1.7300595342
32
0.0000000000
13
-1.3296995977
23
-1.1067994271
33
0.0000000000
40
0.0000000000
40
0.0000000000
40
0.0000000000
40
0.0000000000
40
0.2387798799
40
0.4856359857
40
0.7389652545
40
1.0000000000
40
1.0000000000
40
1.0000000000
40
1.0000000000
10
-9.7584329434
20
7.9677773694
30
0.0000000000
10
-9.7584329434
20
7.8300762335
30
0.0000000000
10
-9.7878888338
20
7.5491567142
30
0.0000000000
10
-9.9220060442
20
7.1412442097
30
0.0000000000
10
-10.1481755472
20
6.7609546566
30
0.0000000000
10
-10.3551692879
20
6.5442133230
30
0.0000000000
10
-10.4708685532
20
6.4479089541
30
0.0000000000
11
-9.7584329434
21
7.9677773694
31
0.0000000000
11
-9.8015860137
21
7.5569340439
31
0.0000000000
11
-9.9349174212
21
7.1512045280
31
0.0000000000
11
-10.1590256268
21
6.7745611429
31
0.0000000000
11
-10.4708685532
21
6.4479089541
31
0.0000000000
0
SPLINE
5
3C8
100
AcDbEntity
8
0
100
AcDbSpline
62
0
6
CONTINUOUS
70
0
71
3
72
11
73
7
74
5
42
0.0000001000
43
0.0000001000
44
0.0000000001
12
0.0000000000
22
1.7300595342
32
0.0000000000
13
-1.3296995977
23
1.1067994271
33
0.0000000000
40
0.0000000000
40
0.0000000000
40
0.0000000000
40
0.0000000000
40
0.2387798799
40
0.4856359857
40
0.7389652545
40
1.0000000000
40
1.0000000000
40
1.0000000000
40
1.0000000000
10
-9.7584329434
20
-7.0322226306
30
0.0000000000
10
-9.7584329434
20
-6.8945214946
30
0.0000000000
10
-9.7878888338
20
-6.6136019753
30
0.0000000000
10
-9.9220060442
20
-6.2056894708
30
0.0000000000
10
-10.1481755472
20
-5.8253999177
30
0.0000000000
10
-10.3551692879
20
-5.6086585841
30
0.0000000000
10
-10.4708685532
20
-5.5123542152
30
0.0000000000
11
-9.7584329434
21
-7.0322226306
31
0.0000000000
11
-9.8015860137
21
-6.6213793051
31
0.0000000000
11
-9.9349174212
21
-6.2156497892
31
0.0000000000
11
-10.1590256268
21
-5.8390064040
31
0.0000000000
11
-10.4708685532
21
-5.5123542152
31
0.0000000000
0
SPLINE
5
3C9
100
AcDbEntity
8
0
100
AcDbSpline
62
0
6
CONTINUOUS
70
0
71
3
72
11
73
7
74
5
42
0.0000001000
43
0.0000001000
44
0.0000000001
12
-1.3296995966
22
-1.1067994262
32
0.0000000000
13
-0.0000000000
23
-1.7300595328
33
0.0000000000
40
0.0000000000
40
0.0000000000
40
0.0000000000
40
0.0000000000
40
0.2610356535
40
0.5143648559
40
0.7612206883
40
1.0000000000
40
1.0000000000
40
1.0000000000
40
1.0000000000
10
10.7291314468
20
-5.5123542152
30
0.0000000000
10
10.6134317791
20
-5.6086589190
30
0.0000000000
10
10.4064377701
20
-5.8254007073
30
0.0000000000
10
10.1802683951
20
-6.2056907144
30
0.0000000000
10
10.0461516047
20
-6.6136027950
30
0.0000000000
10
10.0166958369
20
-6.8945218224
30
0.0000000000
10
10.0166958369
20
-7.0322226306
30
0.0000000000
11
10.7291314468
21
-5.5123542152
31
0.0000000000
11
10.4172875664
21
-5.8390076646
31
0.0000000000
11
10.1931797098
21
-6.2156511234
31
0.0000000000
11
10.0598487018
21
-6.6213802723
31
0.0000000000
11
10.0166958369
21
-7.0322226306
31
0.0000000000
0
SPLINE
5
3CA
100
AcDbEntity
8
0
100
AcDbSpline
62
0
6
CONTINUOUS
70
0
71
3
72
11
73
7
74
5
42
0.0000001000
43
0.0000001000
44
0.0000000001
12
-1.3296995966
22
1.1067994262
32
0.0000000000
13
0.0000000000
23
1.7300595328
33
0.0000000000
40
0.0000000000
40
0.0000000000
40
0.0000000000
40
0.0000000000
40
0.2610356535
40
0.5143648559
40
0.7612206883
40
1.0000000000
40
1.0000000000
40
1.0000000000
40
1.0000000000
10
10.7291314468
20
6.4479089541
30
0.0000000000
10
10.6134317791
20
6.5442136579
30
0.0000000000
10
10.4064377701
20
6.7609554462
30
0.0000000000
10
10.1802683951
20
7.1412454532
30
0.0000000000
10
10.0461516047
20
7.5491575339
30
0.0000000000
10
10.0166958369
20
7.8300765613
30
0.0000000000
10
10.0166958369
20
7.9677773694
30
0.0000000000
11
10.7291314468
21
6.4479089541
31
0.0000000000
11
10.4172875664
21
6.7745624035
31
0.0000000000
11
10.1931797098
21
7.1512058623
31
0.0000000000
11
10.0598487018
21
7.5569350112
31
0.0000000000
11
10.0166958369
21
7.9677773694
31
0.0000000000
0
SPLINE
5
3CB
100
AcDbEntity
8
0
100
AcDbSpline
62
0
6
CONTINUOUS
70
0
71
3
72
10
73
6
74
4
42
0.0000001000
43
0.0000001000
44
0.0000000001
12
0.3105397744
22
0.0000000000
32
0.0000000000
13
0.0000000000
23
-0.3105397744
33
0.0000000000
40
0.0000000000
40
0.0000000000
40
0.0000000000
40
0.0000000000
40
0.3333495664
40
0.6666499237
40
1.0000000000
40
1.0000000000
40
1.0000000000
40
1.0000000000
10
9.8291619077
20
20.8177773694
30
0.0000000000
10
9.8636680075
20
20.8177773694
30
0.0000000000
10
9.9340014334
20
20.7990353209
30
0.0000000000
10
10.0103893519
20
20.7226474674
30
0.0000000000
10
10.0291314468
20
20.6523139829
30
0.0000000000
10
10.0291314468
20
20.6178078304
30
0.0000000000
11
9.8291619077
21
20.8177773694
31
0.0000000000
11
9.9291535522
21
20.7909872726
31
0.0000000000
11
10.0023412680
21
20.7177996168
31
0.0000000000
11
10.0291314468
21
20.6178078304
31
0.0000000000
0
SPLINE
5
3CC
100
AcDbEntity
8
0
100
AcDbSpline
62
0
6
CONTINUOUS
70
0
71
3
72
10
73
6
74
4
42
0.0000001000
43
0.0000001000
44
0.0000000001
12
-0.0935603079
22
0.1769965796
32
0.0000000000
13
-0.2002031978
23
-0.0000001616
33
0.0000000000
40
0.0000000000
40
0.0000000000
40
0.0000000000
40
0.0000000000
40
0.1404388933
40
0.5054282272
40
1.0000000000
40
1.0000000000
40
1.0000000000
40
1.0000000000
10
9.9304494034
20
20.1560352914
30
0.0000000000
10
9.9260695680
20
20.1643210259
30
0.0000000000
10
9.8815505699
20
20.1527183988
30
0.0000000000
10
9.8240459789
20
20.1661704712
30
0.0000000000
10
9.7634848145
20
20.1626371315
30
0.0000000000
10
9.7304798643
20
20.1626371049
30
0.0000000000
11
9.9304494034
21
20.1560352914
31
0.0000000000
11
9.9025225610
21
20.1592939222
31
0.0000000000
11
9.8294903311
21
20.1617054011
31
0.0000000000
11
9.7304798643
21
20.1626371049
31
0.0000000000
0
SPLINE
5
3CD
100
AcDbEntity
8
0
100
AcDbSpline
62
0
6
CONTINUOUS
70
0
71
3
72
10
73
6
74
4
42
0.0000001000
43
0.0000001000
44
0.0000000001
12
0.0935603073
22
0.1769965789
32
0.0000000000
13
0.2002031969
23
-0.0000001616
33
0.0000000000
40
0.0000000000
40
0.0000000000
40
0.0000000000
40
0.0000000000
40
0.1404419789
40
0.5054229655
40
1.0000000000
40
1.0000000000
40
1.0000000000
40
1.0000000000
10
-9.6721865098
20
20.1560352914
30
0.0000000000
10
-9.6678065782
20
20.1643212080
30
0.0000000000
10
-9.6232879656
20
20.1527185389
30
0.0000000000
10
-9.5657832334
20
20.1661704910
30
0.0000000000
10
-9.5052222719
20
20.1626371315
30
0.0000000000
10
-9.4722169708
20
20.1626371049
30
0.0000000000
11
-9.6721865098
21
20.1560352914
31
0.0000000000
11
-9.6442590497
21
20.1592939572
31
0.0000000000
11
-9.5712284904
21
20.1617053810
31
0.0000000000
11
-9.4722169708
21
20.1626371049
31
0.0000000000
0
SPLINE
5
3CE
100
AcDbEntity
8
0
100
AcDbSpline
62
0
6
CONTINUOUS
70
0
71
3
72
10
73
6
74
4
42
0.0000001000
43
0.0000001000
44
0.0000000001
12
0.0935594905
22
-0.1769971533
32
0.0000000000
13
0.2002033230
23
0.0000001408
33
0.0000000000
40
0.0000000000
40
0.0000000000
40
0.0000000000
40
0.0000000000
40
0.1404394153
40
0.5054285409
40
1.0000000000
40
1.0000000000
40
1.0000000000
40
1.0000000000
10
-9.6721865098
20
-19.2204805525
30
0.0000000000
10
-9.6678066964
20
-19.2287663447
30
0.0000000000
10
-9.6232878474
20
-19.2171662135
30
0.0000000000
10
-9.5657830352
20
-19.2306165707
30
0.0000000000
10
-9.5052219206
20
-19.2270823893
30
0.0000000000
10
-9.4722169708
20
-19.2270823660
30
0.0000000000
11
-9.6721865098
21
-19.2204805525
31
0.0000000000
11
-9.6442596816
21
-19.2237403575
31
0.0000000000
11
-9.5712274478
21
-19.2261518394
31
0.0000000000
11
-9.4722169708
21
-19.2270823660
31
0.0000000000
0
SPLINE
5
3CF
100
AcDbEntity
8
0
100
AcDbSpline
62
0
6
CONTINUOUS
70
0
71
3
72
10
73
6
74
4
42
0.0000001000
43
0.0000001000
44
0.0000000001
12
-0.3105397744
22
0.0000000000
32
0.0000000000
13
-0.0000000000
23
0.3105397744
33
0.0000000000
40
0.0000000000
40
0.0000000000
40
0.0000000000
40
0.0000000000
40
0.3333495664
40
0.6666499237
40
1.0000000000
40
1.0000000000
40
1.0000000000
40
1.0000000000
10
-9.5708990142
20
-19.8822226306
30
0.0000000000
10
-9.6054051139
20
-19.8822226306
30
0.0000000000
10
-9.6757385398
20
-19.8634805820
30
0.0000000000
10
-9.7521264583
20
-19.7870927285
30
0.0000000000
10
-9.7708685532
20
-19.7167592440
30
0.0000000000
10
-9.7708685532
20
-19.6822530915
30
0.0000000000
11
-9.5708990142
21
-19.8822226306
31
0.0000000000
11
-9.6708906587
21
-19.8554325337
31
0.0000000000
11
-9.7440783744
21
-19.7822448780
31
0.0000000000
11
-9.7708685532
21
-19.6822530915
31
0.0000000000
0
SPLINE
5
3D0
100
AcDbEntity
8
0
100
AcDbSpline
62
9
6
CONTINUOUS
70
0
71
3
72
11
73
7
74
5
42
0.0000001000
43
0.0000001000
44
0.0000000001
12
0.0004230601
22
0.1053451506
32
0.0000000000
13
0.0335018566
23
0.0998556542
33
0.0000000000
40
0.0000000000
40
0.0000000000
40
0.0000000000
40
0.0000000000
40
0.1621836951
40
0.5904627325
40
0.8854382441
40
1.0000000000
40
1.0000000000
40
1.0000000000
40
1.0000000000
10
9.7309712682
20
20.6154823471
30
0.0000000000
10
9.7309941393
20
20.6211774357
30
0.0000000000
10
9.7310281722
20
20.6419232376
30
0.0000000000
10
9.7306032882
20
20.6731404127
30
0.0000000000
10
9.7327916320
20
20.7021726457
30
0.0000000000
10
9.7309155637
20
20.7169971562
30
0.0000000000
10
9.7321949075
20
20.7208103692
30
0.0000000000
11
9.7309712682
21
20.6154823471
31
0.0000000000
11
9.7309888911
21
20.6325794321
31
0.0000000000
11
9.7313234306
21
20.6776870278
31
0.0000000000
11
9.7317346559
21
20.7087528406
31
0.0000000000
11
9.7321949075
21
20.7208103692
31
0.0000000000
0
SPLINE
5
3D1
100
AcDbEntity
8
0
100
AcDbSpline
62
9
6
CONTINUOUS
70
0
71
3
72
10
73
6
74
4
42
0.0000001000
43
0.0000001000
44
0.0000000001
12
0.0306555023
22
-0.0923076610
32
0.0000000000
13
-0.0002348866
23
-0.0974073691
33
0.0000000000
40
0.0000000000
40
0.0000000000
40
0.0000000000
40
0.0000000000
40
0.2296861713
40
0.5403815529
40
1.0000000000
40
1.0000000000
40
1.0000000000
40
1.0000000000
10
-9.4739320162
20
20.7208103760
30
0.0000000000
10
-9.4715849679
20
20.7137431116
30
0.0000000000
10
-9.4744548956
20
20.6956194809
30
0.0000000000
10
-9.4723512648
20
20.6635402702
30
0.0000000000
10
-9.4726397093
20
20.6384805437
30
0.0000000000
10
-9.4726756953
20
20.6235571358
30
0.0000000000
11
-9.4739320162
21
20.7208103760
31
0.0000000000
11
-9.4733008016
21
20.6984788886
31
0.0000000000
11
-9.4729750839
21
20.6682608835
31
0.0000000000
11
-9.4726756953
21
20.6235571358
31
0.0000000000
0
SPLINE
5
3D2
100
AcDbEntity
8
0
100
AcDbSpline
62
9
6
CONTINUOUS
70
0
71
3
72
10
73
6
74
4
42
0.0000001000
43
0.0000001000
44
0.0000000001
12
-0.0003670927
22
-0.1522331633
32
0.0000000000
13
0.0001515735
23
-0.1520106918
33
0.0000000000
40
0.0000000000
40
0.0000000000
40
0.0000000000
40
0.0000000000
40
0.3837437299
40
0.8380393489
40
1.0000000000
40
1.0000000000
40
1.0000000000
40
1.0000000000
10
-9.4726756953
20
20.6235571358
30
0.0000000000
10
-9.4727226519
20
20.6040842952
30
0.0000000000
10
-9.4723190676
20
20.5616656856
30
0.0000000000
10
-9.4722897516
20
20.5109796513
30
0.0000000000
10
-9.4722568573
20
20.4797526550
30
0.0000000000
10
-9.4722486743
20
20.4715460714
30
0.0000000000
11
-9.4726756953
21
20.6235571358
31
0.0000000000
11
-9.4724325156
21
20.5652245541
31
0.0000000000
11
-9.4722731232
21
20.4961670193
31
0.0000000000
11
-9.4722486743
21
20.4715460714
31
0.0000000000
0
SPLINE
5
3D3
100
AcDbEntity
8
0
100
AcDbSpline
62
9
6
CONTINUOUS
70
0
71
3
72
8
73
4
74
2
42
0.0000001000
43
0.0000001000
44
0.0000000001
12
0.0000505337
22
-0.0506794574
32
0.0000000000
13
-0.0000001087
23
-0.0506794042
33
0.0000000000
40
0.0000000000
40
0.0000000000
40
0.0000000000
40
0.0000000000
40
1.0000000000
40
1.0000000000
40
1.0000000000
40
1.0000000000
10
-9.4722486743
20
20.4715460714
30
0.0000000000
10
-9.4722318297
20
20.4546529190
30
0.0000000000
10
-9.4722169433
20
20.4377610461
30
0.0000000000
10
-9.4722169795
20
20.4208679113
30
0.0000000000
11
-9.4722486743
21
20.4715460714
31
0.0000000000
11
-9.4722169795
21
20.4208679113
31
0.0000000000
0
SPLINE
5
3D4
100
AcDbEntity
8
0
100
AcDbSpline
62
9
6
CONTINUOUS
70
0
71
3
72
10
73
6
74
4
42
0.0000001000
43
0.0000001000
44
0.0000000001
12
0.1479178542
22
0.0203294481
32
0.0000000000
13
0.0115002895
23
0.1488647755
33
0.0000000000
40
0.0000000000
40
0.0000000000
40
0.0000000000
40
0.0000000000
40
0.1480408166
40
0.4897961865
40
1.0000000000
40
1.0000000000
40
1.0000000000
40
1.0000000000
10
3.6266757767
20
-19.7843783281
30
0.0000000000
10
3.6339750700
20
-19.7833751321
30
0.0000000000
10
3.6427551342
20
-19.7531852043
30
0.0000000000
10
3.6518257146
20
-19.7100549809
30
0.0000000000
10
3.6560508549
20
-19.6656828791
30
0.0000000000
10
3.6580066855
20
-19.6403657537
30
0.0000000000
11
3.6266757767
21
-19.7843783281
31
0.0000000000
11
3.6388863794
21
-19.7659534551
31
0.0000000000
11
3.6497341691
21
-19.7160929250
31
0.0000000000
11
3.6580066855
21
-19.6403657537
31
0.0000000000
0
SPLINE
5
3D5
100
AcDbEntity
8
0
100
AcDbSpline
62
9
6
CONTINUOUS
70
0
71
3
72
10
73
6
74
4
42
0.0000001000
43
0.0000001000
44
0.0000000001
12
-0.1479391652
22
0.0207409286
32
0.0000000000
13
-0.0115051794
23
0.1489423163
33
0.0000000000
40
0.0000000000
40
0.0000000000
40
0.0000000000
40
0.0000000000
40
0.1481484402
40
0.4899117364
40
1.0000000000
40
1.0000000000
40
1.0000000000
40
1.0000000000
10
-3.3684128693
20
-19.7844599312
30
0.0000000000
10
-3.3757185215
20
-19.7834356858
30
0.0000000000
10
-3.3844803168
20
-19.7532427959
30
0.0000000000
10
-3.3935667000
20
-19.7100700958
30
0.0000000000
10
-3.3977870744
20
-19.6656878500
30
0.0000000000
10
-3.3997432934
20
-19.6403632742
30
0.0000000000
11
-3.3684128693
21
-19.7844599312
31
0.0000000000
11
-3.3806234729
21
-19.7660019831
31
0.0000000000
11
-3.3914706692
21
-19.7161129415
31
0.0000000000
11
-3.3997432934
21
-19.6403632742
31
0.0000000000
0
SPLINE
5
3D6
100
AcDbEntity
8
0
100
AcDbSpline
62
9
6
CONTINUOUS
70
0
71
3
72
11
73
7
74
5
42
0.0000001000
43
0.0000001000
44
0.0000000001
12
-0.0004168390
22
-0.0989806277
32
0.0000000000
13
-0.0313240233
23
-0.0938721906
33
0.0000000000
40
0.0000000000
40
0.0000000000
40
0.0000000000
40
0.0000000000
40
0.1677497597
40
0.6004854792
40
0.8896057188
40
1.0000000000
40
1.0000000000
40
1.0000000000
40
1.0000000000
10
-9.4727405189
20
-19.6862927913
30
0.0000000000
10
-9.4727638272
20
-19.6918274501
30
0.0000000000
10
-9.4728001502
20
-19.7116509097
30
0.0000000000
10
-9.4724163266
20
-19.7411189941
30
0.0000000000
10
-9.4744365816
20
-19.7682205869
30
0.0000000000
10
-9.4727792825
20
-19.7818011085
30
0.0000000000
10
-9.4739319468
20
-19.7852554262
30
0.0000000000
11
-9.4727405189
21
-19.6862927913
31
0.0000000000
11
-9.4727610679
21
-19.7029083621
31
0.0000000000
11
-9.4730960083
21
-19.7457307999
31
0.0000000000
11
-9.4734945876
21
-19.7743395099
31
0.0000000000
11
-9.4739319468
21
-19.7852554262
31
0.0000000000
0
SPLINE
5
3D7
100
AcDbEntity
8
0
100
AcDbSpline
62
9
6
CONTINUOUS
70
0
71
3
72
11
73
7
74
5
42
0.0000001000
43
0.0000001000
44
0.0000000001
12
-0.0344576255
22
0.1032681957
32
0.0000000000
13
-0.0003880284
23
0.1088904294
33
0.0000000000
40
0.0000000000
40
0.0000000000
40
0.0000000000
40
0.0000000000
40
0.1848884759
40
0.4418988544
40
0.8368312942
40
1.0000000000
40
1.0000000000
40
1.0000000000
40
1.0000000000
10
9.7321949075
20
-19.7852556304
30
0.0000000000
10
9.7300713016
20
-19.7788912639
30
0.0000000000
10
9.7326530055
20
-19.7623023053
30
0.0000000000
10
9.7306670093
20
-19.7322595459
30
0.0000000000
10
9.7310058531
20
-19.7025772878
30
0.0000000000
10
9.7309785261
20
-19.6823098702
30
0.0000000000
10
9.7309574214
20
-19.6763873668
30
0.0000000000
11
9.7321949075
21
-19.7852556304
31
0.0000000000
11
9.7315961233
21
-19.7651366041
31
0.0000000000
11
9.7312769034
21
-19.7371589195
31
0.0000000000
11
9.7309723382
21
-19.6941655694
31
0.0000000000
11
9.7309574214
21
-19.6763873668
31
0.0000000000
0
SPLINE
5
3D8
100
AcDbEntity
8
0
100
AcDbSpline
62
9
6
CONTINUOUS
70
0
71
3
72
10
73
6
74
4
42
0.0000001000
43
0.0000001000
44
0.0000000001
12
-0.0004902098
22
0.1375650706
32
0.0000000000
13
-0.0001443699
23
0.1375335143
33
0.0000000000
40
0.0000000000
40
0.0000000000
40
0.0000000000
40
0.0000000000
40
0.2945632528
40
0.8125273022
40
1.0000000000
40
1.0000000000
40
1.0000000000
40
1.0000000000
10
9.7309574214
20
-19.6763873668
30
0.0000000000
10
9.7309092888
20
-19.6628801619
30
0.0000000000
10
9.7305883462
20
-19.6256641810
30
0.0000000000
10
9.7305600294
20
-19.5798045321
30
0.0000000000
10
9.7305242151
20
-19.5474628543
30
0.0000000000
10
9.7305151933
20
-19.5388682613
30
0.0000000000
11
9.7309574214
21
-19.6763873668
31
0.0000000000
11
9.7307157443
21
-19.6358904741
31
0.0000000000
11
9.7305421321
21
-19.5646533845
31
0.0000000000
11
9.7305151933
21
-19.5388682613
31
0.0000000000
0
SPLINE
5
3D9
100
AcDbEntity
8
0
100
AcDbSpline
62
9
6
CONTINUOUS
70
0
71
3
72
8
73
4
74
2
42
0.0000001000
43
0.0000001000
44
0.0000000001
12
-0.0000562311
22
0.0535684360
32
0.0000000000
13
0.0000000527
23
0.0535683497
33
0.0000000000
40
0.0000000000
40
0.0000000000
40
0.0000000000
40
0.0000000000
40
1.0000000000
40
1.0000000000
40
1.0000000000
40
1.0000000000
10
9.7305151933
20
-19.5388682613
30
0.0000000000
10
9.7304964496
20
-19.5210121160
30
0.0000000000
10
9.7304798468
20
-19.5031574384
30
0.0000000000
10
9.7304798643
20
-19.4853013218
30
0.0000000000
11
9.7305151933
21
-19.5388682613
31
0.0000000000
11
9.7304798643
21
-19.4853013218
31
0.0000000000
0
SPLINE
5
3DA
100
AcDbEntity
8
0
100
AcDbSpline
62
0
6
CONTINUOUS
70
0
71
3
72
9
73
5
74
3
42
0.0000001000
43
0.0000001000
44
0.0000000001
12
-0.0621281553
22
0.0475403159
32
0.0000000000
13
-0.0477446855
23
0.0619758402
33
0.0000000000
40
0.0000000000
40
0.0000000000
40
0.0000000000
40
0.0000000000
40
0.4994285084
40
1.0000000000
40
1.0000000000
40
1.0000000000
40
1.0000000000
10
4.8462062788
20
19.0295260055
30
0.0000000000
10
4.8358634215
20
19.0374403352
30
0.0000000000
10
4.8161882038
20
19.0546274075
30
0.0000000000
10
4.7989335891
20
19.0742447667
30
0.0000000000
10
4.7909670463
20
19.0845858796
30
0.0000000000
11
4.8462062788
21
19.0295260055
31
0.0000000000
11
4.8168144604
21
19.0552139466
31
0.0000000000
11
4.7909670463
21
19.0845858796
31
0.0000000000
0
SPLINE
5
3DB
100
AcDbEntity
8
0
100
AcDbSpline
62
0
6
CONTINUOUS
70
0
71
3
72
10
73
6
74
4
42
0.0000001000
43
0.0000001000
44
0.0000000001
12
0.2000361656
22
-0.0000000018
32
0.0000000000
13
0.1415661040
23
0.1413276538
33
0.0000000000
40
0.0000000000
40
0.0000000000
40
0.0000000000
40
0.0000000000
40
0.4939061932
40
0.8585863064
40
1.0000000000
40
1.0000000000
40
1.0000000000
40
1.0000000000
10
9.7222376597
20
-9.8404627573
30
0.0000000000
10
9.7551706934
20
-9.8404627576
30
0.0000000000
10
9.8141972476
20
-9.8438362262
30
0.0000000000
10
9.8757459155
20
-9.8325007673
30
0.0000000000
10
9.9155361616
20
-9.8436945458
30
0.0000000000
10
9.9222092902
20
-9.8370326573
30
0.0000000000
11
9.7222376597
21
-9.8404627573
31
0.0000000000
11
9.8210357094
21
-9.8400069706
31
0.0000000000
11
9.8939742771
21
-9.8387608545
31
0.0000000000
11
9.9222092902
21
-9.8370326573
31
0.0000000000
0
SPLINE
5
3DC
100
AcDbEntity
8
0
100
AcDbSpline
62
0
6
CONTINUOUS
70
0
71
3
72
10
73
6
74
4
42
0.0000001000
43
0.0000001000
44
0.0000000001
12
-0.1415446682
22
0.1413542943
32
0.0000000000
13
-0.2000398201
23
-0.0000000014
33
0.0000000000
40
0.0000000000
40
0.0000000000
40
0.0000000000
40
0.0000000000
40
0.1415093173
40
0.5062463800
40
1.0000000000
40
1.0000000000
40
1.0000000000
40
1.0000000000
10
9.9218524064
20
-9.2270557200
30
0.0000000000
10
9.9151757766
20
-9.2203880701
30
0.0000000000
10
9.8753699413
20
-9.2315863043
30
0.0000000000
10
9.8138218771
20
-9.2202498634
30
0.0000000000
10
9.7548007146
20
-9.2236218458
30
0.0000000000
10
9.7218772528
20
-9.2236218461
30
0.0000000000
11
9.9218524064
21
-9.2270557200
31
0.0000000000
11
9.8935978605
21
-9.2253250831
31
0.0000000000
11
9.8206465856
21
-9.2240778242
31
0.0000000000
11
9.7218772528
21
-9.2236218461
31
0.0000000000
0
SPLINE
5
3DD
100
AcDbEntity
8
0
100
AcDbSpline
62
0
6
CONTINUOUS
70
0
71
3
72
10
73
6
74
4
42
0.0000001000
43
0.0000001000
44
0.0000000001
12
-0.2000398201
22
0.0000000014
32
0.0000000000
13
-0.1415446684
23
-0.1413542942
33
0.0000000000
40
0.0000000000
40
0.0000000000
40
0.0000000000
40
0.0000000000
40
0.4937536200
40
0.8584906827
40
1.0000000000
40
1.0000000000
40
1.0000000000
40
1.0000000000
10
-9.4636143593
20
-9.2236218461
30
0.0000000000
10
-9.4965378211
20
-9.2236218458
30
0.0000000000
10
-9.5555589835
20
-9.2202498634
30
0.0000000000
10
-9.6171070477
20
-9.2315863042
30
0.0000000000
10
-9.6569128830
20
-9.2203880701
30
0.0000000000
10
-9.6635895128
20
-9.2270557200
30
0.0000000000
11
-9.4636143593
21
-9.2236218461
31
0.0000000000
11
-9.5623836921
21
-9.2240778242
31
0.0000000000
11
-9.6353349670
21
-9.2253250831
31
0.0000000000
11
-9.6635895128
21
-9.2270557200
31
0.0000000000
0
SPLINE
5
3DE
100
AcDbEntity
8
0
100
AcDbSpline
62
0
6
CONTINUOUS
70
0
71
3
72
10
73
6
74
4
42
0.0000001000
43
0.0000001000
44
0.0000000001
12
0.1415661042
22
-0.1413276537
32
0.0000000000
13
0.2000361656
23
0.0000000018
33
0.0000000000
40
0.0000000000
40
0.0000000000
40
0.0000000000
40
0.0000000000
40
0.1414136936
40
0.5060938068
40
1.0000000000
40
1.0000000000
40
1.0000000000
40
1.0000000000
10
-9.6639463966
20
-9.8370326573
30
0.0000000000
10
-9.6572732681
20
-9.8436945458
30
0.0000000000
10
-9.6174830220
20
-9.8325007673
30
0.0000000000
10
-9.5559343540
20
-9.8438362262
30
0.0000000000
10
-9.4969077999
20
-9.8404627576
30
0.0000000000
10
-9.4639747662
20
-9.8404627573
30
0.0000000000
11
-9.6639463966
21
-9.8370326573
31
0.0000000000
11
-9.6357113836
21
-9.8387608545
31
0.0000000000
11
-9.5627728159
21
-9.8400069706
31
0.0000000000
11
-9.4639747662
21
-9.8404627573
31
0.0000000000
0
SPLINE
5
3DF
100
AcDbEntity
8
0
100
AcDbSpline
62
0
6
CONTINUOUS
70
0
71
3
72
10
73
6
74
4
42
0.0000001000
43
0.0000001000
44
0.0000000001
12
-0.1415935899
22
0.1413058574
32
0.0000000000
13
-0.2000402210
23
-0.0000000022
33
0.0000000000
40
0.0000000000
40
0.0000000000
40
0.0000000000
40
0.0000000000
40
0.1414539305
40
0.5061574823
40
1.0000000000
40
1.0000000000
40
1.0000000000
40
1.0000000000
10
9.9259533825
20
15.7688433038
30
0.0000000000
10
9.9192770593
20
15.7755060601
30
0.0000000000
10
9.8794834395
20
15.7643137324
30
0.0000000000
10
9.8179311619
20
15.7756467378
30
0.0000000000
10
9.7589072016
20
15.7722749103
30
0.0000000000
10
9.7259777461
20
15.7722749099
30
0.0000000000
11
9.9259533825
21
15.7688433038
31
0.0000000000
11
9.8977097891
21
15.7705724526
31
0.0000000000
11
9.8247650606
21
15.7718190196
31
0.0000000000
11
9.7259777461
21
15.7722749099
31
0.0000000000
0
SPLINE
5
3E0
100
AcDbEntity
8
0
100
AcDbSpline
62
0
6
CONTINUOUS
70
0
71
3
72
10
73
6
74
4
42
0.0000001000
43
0.0000001000
44
0.0000000001
12
0.2000457144
22
-0.0000000019
32
0.0000000000
13
0.1415779482
23
0.1413293050
33
0.0000000000
40
0.0000000000
40
0.0000000000
40
0.0000000000
40
0.0000000000
40
0.4936112202
40
0.8584008113
40
1.0000000000
40
1.0000000000
40
1.0000000000
40
1.0000000000
10
9.7254431723
20
15.1627448788
30
0.0000000000
10
9.7583581087
20
15.1627448785
30
0.0000000000
10
9.8173733405
20
15.1593758241
30
0.0000000000
10
9.8789261935
20
15.1707088404
30
0.0000000000
10
9.9187416645
20
15.1595114529
30
0.0000000000
10
9.9254241054
20
15.1661821579
30
0.0000000000
11
9.7254431723
21
15.1627448788
31
0.0000000000
11
9.8241869277
21
15.1632010672
31
0.0000000000
11
9.8971508450
21
15.1644493459
31
0.0000000000
11
9.9254241054
21
15.1661821579
31
0.0000000000
0
SPLINE
5
3E1
100
AcDbEntity
8
0
100
AcDbSpline
62
0
6
CONTINUOUS
70
0
71
3
72
10
73
6
74
4
42
0.0000001000
43
0.0000001000
44
0.0000000001
12
0.1415779476
22
-0.1413293056
32
0.0000000000
13
0.2000457144
23
0.0000000019
33
0.0000000000
40
0.0000000000
40
0.0000000000
40
0.0000000000
40
0.0000000000
40
0.1415991887
40
0.5063887798
40
1.0000000000
40
1.0000000000
40
1.0000000000
40
1.0000000000
10
-9.6671612118
20
15.1661821579
30
0.0000000000
10
-9.6604787710
20
15.1595114529
30
0.0000000000
10
-9.6206633000
20
15.1707088404
30
0.0000000000
10
-9.5591104470
20
15.1593758241
30
0.0000000000
10
-9.5000952152
20
15.1627448785
30
0.0000000000
10
-9.4671802788
20
15.1627448788
30
0.0000000000
11
-9.6671612118
21
15.1661821579
31
0.0000000000
11
-9.6388879515
21
15.1644493459
31
0.0000000000
11
-9.5659240342
21
15.1632010672
31
0.0000000000
11
-9.4671802788
21
15.1627448788
31
0.0000000000
0
SPLINE
5
3E2
100
AcDbEntity
8
0
100
AcDbSpline
62
0
6
CONTINUOUS
70
0
71
3
72
10
73
6
74
4
42
0.0000001000
43
0.0000001000
44
0.0000000001
12
-0.0002130151
22
-0.1864550309
32
0.0000000000
13
-0.0002150598
23
-0.1864550285
33
0.0000000000
40
0.0000000000
40
0.0000000000
40
0.0000000000
40
0.0000000000
40
0.3333379000
40
0.6666712382
40
1.0000000000
40
1.0000000000
40
1.0000000000
40
1.0000000000
10
5.3793454842
20
-19.0406273363
30
0.0000000000
10
5.3793218155
20
-19.0613448458
30
0.0000000000
10
5.3792744028
20
-19.1027795812
30
0.0000000000
10
5.3792030570
20
-19.1649312577
30
0.0000000000
10
5.3791553420
20
-19.2063654248
30
0.0000000000
10
5.3791314468
20
-19.2270823660
30
0.0000000000
11
5.3793454842
21
-19.0406273363
31
0.0000000000
11
5.3792743646
21
-19.1027798646
31
0.0000000000
11
5.3792030188
21
-19.1649315421
31
0.0000000000
11
5.3791314468
21
-19.2270823660
31
0.0000000000
0
SPLINE
5
3E3
100
AcDbEntity
8
0
100
AcDbSpline
62
0
6
CONTINUOUS
70
0
71
3
72
10
73
6
74
4
42
0.0000001000
43
0.0000001000
44
0.0000000001
12
0.0002130151
22
-0.1864550309
32
0.0000000000
13
0.0002150598
23
-0.1864550285
33
0.0000000000
40
0.0000000000
40
0.0000000000
40
0.0000000000
40
0.0000000000
40
0.3333379000
40
0.6666712382
40
1.0000000000
40
1.0000000000
40
1.0000000000
40
1.0000000000
10
-5.1210825907
20
-19.0406273363
30
0.0000000000
10
-5.1210589220
20
-19.0613448458
30
0.0000000000
10
-5.1210115093
20
-19.1027795812
30
0.0000000000
10
-5.1209401635
20
-19.1649312577
30
0.0000000000
10
-5.1208924484
20
-19.2063654248
30
0.0000000000
10
-5.1208685532
20
-19.2270823660
30
0.0000000000
11
-5.1210825907
21
-19.0406273363
31
0.0000000000
11
-5.1210114711
21
-19.1027798646
31
0.0000000000
11
-5.1209401253
21
-19.1649315421
31
0.0000000000
11
-5.1208685532
21
-19.2270823660
31
0.0000000000
0
SPLINE
5
3E4
100
AcDbEntity
8
0
100
AcDbSpline
62
9
6
CONTINUOUS
70
0
71
3
72
13
73
9
74
7
42
0.0000001000
43
0.0000001000
44
0.0000000001
12
0.0707209077
22
-0.0707313796
32
0.0000000000
13
-0.0000001149
23
-0.1000218719
33
0.0000000000
40
0.0000000000
40
0.0000000000
40
0.0000000000
40
0.0000000000
40
0.0747933911
40
0.1756295326
40
0.3246302845
40
0.5188936257
40
0.7488200151
40
1.0000000000
40
1.0000000000
40
1.0000000000
40
1.0000000000
10
-9.6739015530
20
20.5208408302
30
0.0000000000
10
-9.6721384008
20
20.5190774169
30
0.0000000000
10
-9.6740555396
20
20.5120770864
30
0.0000000000
10
-9.6724912131
20
20.5019043484
30
0.0000000000
10
-9.6727628801
20
20.4868131028
30
0.0000000000
10
-9.6723139670
20
20.4678178941
30
0.0000000000
10
-9.6722406664
20
20.4452608489
30
0.0000000000
10
-9.6721865002
20
20.4292305581
30
0.0000000000
10
-9.6721865098
20
20.4208560607
30
0.0000000000
11
-9.6739015530
21
20.5208408302
31
0.0000000000
11
-9.6732700922
21
20.5133865533
31
0.0000000000
11
-9.6729443211
21
20.5033059962
31
0.0000000000
11
-9.6726449737
21
20.4884056688
31
0.0000000000
11
-9.6724019182
21
20.4689766060
31
0.0000000000
11
-9.6722425278
21
20.4459794905
31
0.0000000000
11
-9.6721865098
21
20.4208560607
31
0.0000000000
0
SPLINE
5
3E5
100
AcDbEntity
8
0
100
AcDbSpline
62
9
6
CONTINUOUS
70
0
71
3
72
13
73
9
74
7
42
0.0000001000
43
0.0000001000
44
0.0000000001
12
-0.0000000035
22
-0.1000180759
32
0.0000000000
13
-0.0708565935
23
-0.0705900748
33
0.0000000000
40
0.0000000000
40
0.0000000000
40
0.0000000000
40
0.0000000000
40
0.1756240431
40
0.3630076350
40
0.5513520660
40
0.7253988301
40
0.8680065199
40
1.0000000000
40
1.0000000000
40
1.0000000000
40
1.0000000000
10
-9.6721865098
20
-19.4853013218
30
0.0000000000
10
-9.6721865100
20
-19.4911565148
30
0.0000000000
10
-9.6722152907
20
-19.5032538549
30
0.0000000000
10
-9.6722544100
20
-19.5216597263
30
0.0000000000
10
-9.6725951201
20
-19.5398996956
30
0.0000000000
10
-9.6722473499
20
-19.5570226149
30
0.0000000000
10
-9.6743070224
20
-19.5711225135
30
0.0000000000
10
-9.6707840169
20
-19.5821802814
30
0.0000000000
10
-9.6739015530
20
-19.5852860913
30
0.0000000000
11
-9.6721865098
21
-19.4853013218
31
0.0000000000
11
-9.6722136504
21
-19.5028668797
31
0.0000000000
11
-9.6723056261
21
-19.5216084003
31
0.0000000000
11
-9.6724759063
21
-19.5404454783
31
0.0000000000
11
-9.6727307546
21
-19.5578514352
31
0.0000000000
11
-9.6730655979
21
-19.5721108510
31
0.0000000000
11
-9.6739015530
21
-19.5852860913
31
0.0000000000
0
SPLINE
5
3E6
100
AcDbEntity
8
0
100
AcDbSpline
62
9
6
CONTINUOUS
70
0
71
3
72
13
73
9
74
7
42
0.0000001000
43
0.0000001000
44
0.0000000001
12
-0.0000000545
22
0.1000174693
32
0.0000000000
13
0.0708183568
23
0.0706275761
33
0.0000000000
40
0.0000000000
40
0.0000000000
40
0.0000000000
40
0.0000000000
40
0.1659092587
40
0.3444018555
40
0.5289102089
40
0.7058296469
40
0.8561217898
40
1.0000000000
40
1.0000000000
40
1.0000000000
40
1.0000000000
10
9.9304494034
20
20.4208560607
30
0.0000000000
10
9.9304494003
20
20.4263873354
30
0.0000000000
10
9.9304751872
20
20.4378648796
30
0.0000000000
10
9.9305105580
20
20.4555200759
30
0.0000000000
10
9.9308301135
20
20.4734368990
30
0.0000000000
10
9.9304757987
20
20.4907803334
30
0.0000000000
10
9.9326181490
20
20.5055942429
30
0.0000000000
10
9.9287680404
20
20.5174535738
30
0.0000000000
10
9.9321644466
20
20.5208408302
30
0.0000000000
11
9.9304494034
21
20.4208560607
31
0.0000000000
11
9.9304736057
21
20.4374498672
31
0.0000000000
11
9.9305562319
21
20.4553020538
31
0.0000000000
11
9.9307136393
21
20.4737554411
31
0.0000000000
11
9.9309586157
21
20.4914487797
31
0.0000000000
11
9.9312931708
21
20.5064768960
31
0.0000000000
11
9.9321644466
21
20.5208408302
31
0.0000000000
0
SPLINE
5
3E7
100
AcDbEntity
8
0
100
AcDbSpline
62
9
6
CONTINUOUS
70
0
71
3
72
13
73
9
74
7
42
0.0000001000
43
0.0000001000
44
0.0000000001
12
-0.0707897528
22
0.0706634136
32
0.0000000000
13
0.0000000782
23
0.1000225331
33
0.0000000000
40
0.0000000000
40
0.0000000000
40
0.0000000000
40
0.0000000000
40
0.0673919306
40
0.1607512254
40
0.3041173562
40
0.4983459014
40
0.7356894277
40
1.0000000000
40
1.0000000000
40
1.0000000000
40
1.0000000000
10
9.9321644466
20
-19.5852860913
30
0.0000000000
10
9.9305742272
20
-19.5836987100
30
0.0000000000
10
9.9322762433
20
-19.5772983593
30
0.0000000000
10
9.9308044364
20
-19.5677710021
30
0.0000000000
10
9.9310564578
20
-19.5531214574
30
0.0000000000
10
9.9305890222
20
-19.5340724979
30
0.0000000000
10
9.9305087537
20
-19.5108280035
30
0.0000000000
10
9.9304493965
20
-19.4941136595
30
0.0000000000
10
9.9304494034
20
-19.4853013218
30
0.0000000000
11
9.9321644466
21
-19.5852860913
31
0.0000000000
11
9.9315654339
21
-19.5785720481
31
0.0000000000
11
9.9312461698
21
-19.5692394743
31
0.0000000000
11
9.9309416099
21
-19.5549028653
31
0.0000000000
11
9.9306850605
21
-19.5354773282
31
0.0000000000
11
9.9305115302
21
-19.5117382618
31
0.0000000000
11
9.9304494034
21
-19.4853013218
31
0.0000000000
0
SPLINE
5
3E8
100
AcDbEntity
8
0
100
AcDbSpline
62
0
6
CONTINUOUS
70
0
71
3
72
10
73
6
74
4
42
0.0000001000
43
0.0000001000
44
0.0000000001
12
-0.2000402210
22
0.0000000022
32
0.0000000000
13
-0.1415935892
23
-0.1413058581
33
0.0000000000
40
0.0000000000
40
0.0000000000
40
0.0000000000
40
0.0000000000
40
0.4938425178
40
0.8585460695
40
1.0000000000
40
1.0000000000
40
1.0000000000
40
1.0000000000
10
-9.4677148526
20
15.7722749099
30
0.0000000000
10
-9.5006443081
20
15.7722749103
30
0.0000000000
10
-9.5596682684
20
15.7756467379
30
0.0000000000
10
-9.6212205459
20
15.7643137324
30
0.0000000000
10
-9.6610141658
20
15.7755060602
30
0.0000000000
10
-9.6676904890
20
15.7688433038
30
0.0000000000
11
-9.4677148526
21
15.7722749099
31
0.0000000000
11
-9.5665021671
21
15.7718190196
31
0.0000000000
11
-9.6394468955
21
15.7705724526
31
0.0000000000
11
-9.6676904890
21
15.7688433038
31
0.0000000000
0
SPLINE
5
3E9
100
AcDbEntity
8
0
100
AcDbSpline
62
9
6
CONTINUOUS
70
0
71
3
72
9
73
5
74
3
42
0.0000001000
43
0.0000001000
44
0.0000000001
12
1.4288726789
22
-0.0030245930
32
0.0000000000
13
1.4288758799
23
0.0000194761
33
0.0000000000
40
0.0000000000
40
0.0000000000
40
0.0000000000
40
0.0000000000
40
0.4849370078
40
1.0000000000
40
1.0000000000
40
1.0000000000
40
1.0000000000
10
-3.3997433523
20
-19.6403635683
30
0.0000000000
10
-3.1687722718
20
-19.6408524807
30
0.0000000000
10
-2.6924809167
20
-19.6416561161
30
0.0000000000
10
-2.2161889153
20
-19.6419511000
30
0.0000000000
10
-1.9708685532
20
-19.6419477562
30
0.0000000000
11
-3.3997433523
21
-19.6403635683
31
0.0000000000
11
-2.7068295107
21
-19.6415122893
31
0.0000000000
11
-1.9708685532
21
-19.6419477562
31
0.0000000000
0
SPLINE
5
3EA
100
AcDbEntity
8
0
100
AcDbSpline
62
9
6
CONTINUOUS
70
0
71
3
72
9
73
5
74
3
42
0.0000001000
43
0.0000001000
44
0.0000000001
12
1.4291552740
22
-0.0000267472
32
0.0000000000
13
1.4291520723
23
0.0030252816
33
0.0000000000
40
0.0000000000
40
0.0000000000
40
0.0000000000
40
0.0000000000
40
0.5152756437
40
1.0000000000
40
1.0000000000
40
1.0000000000
40
1.0000000000
10
2.2288520443
20
-19.6419334394
30
0.0000000000
10
2.4743216789
20
-19.6419380335
30
0.0000000000
10
2.9507068240
20
-19.6416621407
30
0.0000000000
10
3.4270913066
20
-19.6408523775
30
0.0000000000
10
3.6580062461
20
-19.6403635683
30
0.0000000000
11
2.2288520443
21
-19.6419334394
31
0.0000000000
11
2.9652608276
21
-19.6415119645
31
0.0000000000
11
3.6580062461
21
-19.6403635683
31
0.0000000000
0
SPLINE
5
3EB
100
AcDbEntity
8
0
100
AcDbSpline
62
0
6
CONTINUOUS
70
0
71
3
72
9
73
5
74
3
42
0.0000001000
43
0.0000001000
44
0.0000000001
12
-0.0353819898
22
0.3454239664
32
0.0000000000
13
-0.0128503393
23
0.3469934733
33
0.0000000000
40
0.0000000000
40
0.0000000000
40
0.0000000000
40
0.0000000000
40
0.4955933566
40
1.0000000000
40
1.0000000000
40
1.0000000000
40
1.0000000000
10
-5.4525267845
20
-15.6250429536
30
0.0000000000
10
-5.4583718109
20
-15.5679796793
30
0.0000000000
10
-5.4689180496
20
-15.4526886320
30
0.0000000000
10
-5.4744918162
20
-15.3370491981
30
0.0000000000
10
-5.4766524150
20
-15.2787072604
30
0.0000000000
11
-5.4525267845
21
-15.6250429536
31
0.0000000000
11
-5.4676037999
21
-15.4536191568
31
0.0000000000
11
-5.4766524150
21
-15.2787072604
31
0.0000000000
0
SPLINE
5
3EC
100
AcDbEntity
8
0
100
AcDbSpline
62
0
6
CONTINUOUS
70
0
71
3
72
8
73
4
74
2
42
0.0000001000
43
0.0000001000
44
0.0000000001
12
-0.1127566415
22
-0.1794093131
32
0.0000000000
13
-0.1212252424
23
-0.1738362805
33
0.0000000000
40
0.0000000000
40
0.0000000000
40
0.0000000000
40
0.0000000000
40
1.0000000000
40
1.0000000000
40
1.0000000000
40
1.0000000000
10
5.9764638313
20
-14.9322226306
30
0.0000000000
10
5.9388782841
20
-14.9920257349
30
0.0000000000
10
5.8998534655
20
-15.0509361038
30
0.0000000000
10
5.8594450514
20
-15.1088815306
30
0.0000000000
11
5.9764638313
21
-14.9322226306
31
0.0000000000
11
5.8594450514
21
-15.1088815306
31
0.0000000000
0
SPLINE
5
3ED
100
AcDbEntity
8
0
100
AcDbSpline
62
0
6
CONTINUOUS
70
0
71
3
72
10
73
6
74
4
42
0.0000001000
43
0.0000001000
44
0.0000000001
12
0.3000887779
22
0.0000000000
32
0.0000000000
13
0.1341956046
23
-0.2684116509
33
0.0000000000
40
0.0000000000
40
0.0000000000
40
0.0000000000
40
0.0000000000
40
0.4973078836
40
0.8628897268
40
1.0000000000
40
1.0000000000
40
1.0000000000
40
1.0000000000
10
-4.7931334896
20
20.7654121746
30
0.0000000000
10
-4.7433879846
20
20.7654121746
30
0.0000000000
10
-4.6519176702
20
20.7722706123
30
0.0000000000
10
-4.5666535264
20
20.7502156179
30
0.0000000000
10
-4.4992781114
20
20.7724886834
30
0.0000000000
10
-4.4931449127
20
20.7602213518
30
0.0000000000
11
-4.7931334896
21
20.7654121746
31
0.0000000000
11
-4.6438985877
21
20.7647182983
31
0.0000000000
11
-4.5342079968
21
20.7628204051
31
0.0000000000
11
-4.4931449127
21
20.7602213518
31
0.0000000000
0
SPLINE
5
3EE
100
AcDbEntity
8
0
100
AcDbSpline
62
9
6
CONTINUOUS
70
0
71
3
72
10
73
6
74
4
42
0.0000001000
43
0.0000001000
44
0.0000000001
12
-0.0005365532
22
-0.4375069623
32
0.0000000000
13
-0.4383143187
23
-0.0393041685
33
0.0000000000
40
0.0000000000
40
0.0000000000
40
0.0000000000
40
0.0000000000
40
0.3515661539
40
0.7047300360
40
1.0000000000
40
1.0000000000
40
1.0000000000
40
1.0000000000
10
-4.4931449127
20
20.1972123924
30
0.0000000000
10
-4.4932077907
20
20.1459415124
30
0.0000000000
10
-4.5215949015
20
20.0412290354
30
0.0000000000
10
-4.6298780522
20
19.9343225340
30
0.0000000000
10
-4.7240185788
20
19.9051851367
30
0.0000000000
10
-4.7671589299
20
19.9013166898
30
0.0000000000
11
-4.4931449127
21
20.1972123924
31
0.0000000000
11
-4.5334571001
21
20.0487762399
31
0.0000000000
11
-4.6432442776
21
19.9400533638
31
0.0000000000
11
-4.7671589299
21
19.9013166898
31
0.0000000000
0
SPLINE
5
3EF
100
AcDbEntity
8
0
100
AcDbSpline
62
0
6
CONTINUOUS
70
0
71
3
72
11
73
7
74
5
42
0.0000001000
43
0.0000001000
44
0.0000000001
12
0.4104517321
22
0.0000000000
32
0.0000000000
13
0.0567451793
23
0.4087665379
33
0.0000000000
40
0.0000000000
40
0.0000000000
40
0.0000000000
40
0.0000000000
40
0.3316863664
40
0.6109006680
40
0.8529649078
40
1.0000000000
40
1.0000000000
40
1.0000000000
40
1.0000000000
10
-4.7849149450
20
19.7677773694
30
0.0000000000
10
-4.7395345305
20
19.7677773694
30
0.0000000000
10
-4.6548788223
20
19.7846568921
30
0.0000000000
10
-4.5552384323
20
19.8504119334
30
0.0000000000
10
-4.5019562692
20
19.9274972440
30
0.0000000000
10
-4.4876000891
20
19.9797921163
30
0.0000000000
10
-4.4848189115
20
19.9998264582
30
0.0000000000
11
-4.7849149450
21
19.7677773694
31
0.0000000000
11
-4.6515259773
21
19.7950137696
31
0.0000000000
11
-4.5564457791
21
19.8589968244
31
0.0000000000
11
-4.5008298412
21
19.9413279843
31
0.0000000000
11
-4.4848189115
21
19.9998264582
31
0.0000000000
0
SPLINE
5
3F0
100
AcDbEntity
8
0
100
AcDbSpline
62
0
6
CONTINUOUS
70
0
71
3
72
8
73
4
74
2
42
0.0000001000
43
0.0000001000
44
0.0000000001
12
0.0000430917
22
-0.0782979419
32
0.0000000000
13
-0.0203973380
23
-0.0762862416
33
0.0000000000
40
0.0000000000
40
0.0000000000
40
0.0000000000
40
0.0000000000
40
1.0000000000
40
1.0000000000
40
1.0000000000
40
1.0000000000
10
-4.4703642928
20
19.2677773694
30
0.0000000000
10
-4.4703499289
20
19.2416780555
30
0.0000000000
10
-4.4738291010
20
19.2153845588
30
0.0000000000
10
-4.4806282136
20
19.1899558116
30
0.0000000000
11
-4.4703642928
21
19.2677773694
31
0.0000000000
11
-4.4806282136
21
19.1899558116
31
0.0000000000
0
SPLINE
5
3F1
100
AcDbEntity
8
0
100
AcDbSpline
62
0
6
CONTINUOUS
70
0
71
3
72
9
73
5
74
3
42
0.0000001000
43
0.0000001000
44
0.0000000001
12
-0.0303512794
22
-0.1135140789
32
0.0000000000
13
-0.0712295993
23
-0.0930686915
33
0.0000000000
40
0.0000000000
40
0.0000000000
40
0.0000000000
40
0.0000000000
40
0.3339124594
40
1.0000000000
40
1.0000000000
40
1.0000000000
40
1.0000000000
10
-4.4806282136
20
19.1899558116
30
0.0000000000
10
-4.4840064371
20
19.1773212232
30
0.0000000000
10
-4.4965780694
20
19.1401225341
30
0.0000000000
10
-4.5163095707
20
19.1060034907
30
0.0000000000
10
-4.5321246202
20
19.0853395255
30
0.0000000000
11
-4.4806282136
21
19.1899558116
31
0.0000000000
11
-4.4932003941
21
19.1528223846
31
0.0000000000
11
-4.5321246202
21
19.0853395255
31
0.0000000000
0
SPLINE
5
3F2
100
AcDbEntity
8
0
100
AcDbSpline
62
0
6
CONTINUOUS
70
0
71
3
72
9
73
5
74
3
42
0.0000001000
43
0.0000001000
44
0.0000000001
12
-0.0475445216
22
-0.0621217368
32
0.0000000000
13
-0.0619773558
23
-0.0477376501
33
0.0000000000
40
0.0000000000
40
0.0000000000
40
0.0000000000
40
0.0000000000
40
0.4994989082
40
1.0000000000
40
1.0000000000
40
1.0000000000
40
1.0000000000
10
-4.5321246202
20
19.0853395255
30
0.0000000000
10
-4.5400407658
20
19.0749962789
30
0.0000000000
10
-4.5572292688
20
19.0553234718
30
0.0000000000
10
-4.5768475378
20
19.0380714321
30
0.0000000000
10
-4.5871874492
20
19.0301071834
30
0.0000000000
11
-4.5321246202
21
19.0853395255
31
0.0000000000
11
-4.5578182674
21
19.0559471670
31
0.0000000000
11
-4.5871874492
21
19.0301071834
31
0.0000000000
0
SPLINE
5
3F3
100
AcDbEntity
8
0
100
AcDbSpline
62
0
6
CONTINUOUS
70
0
71
3
72
9
73
5
74
3
42
0.0000001000
43
0.0000001000
44
0.0000000001
12
-0.1244466177
22
-0.0958541877
32
0.0000000000
13
-0.1557072447
23
-0.0207822048
33
0.0000000000
40
0.0000000000
40
0.0000000000
40
0.0000000000
40
0.0000000000
40
0.4991745005
40
1.0000000000
40
1.0000000000
40
1.0000000000
40
1.0000000000
10
-4.5871874492
20
19.0301071834
30
0.0000000000
10
-4.6078943086
20
19.0141578613
30
0.0000000000
10
-4.6535619000
20
18.9875927195
30
0.0000000000
10
-4.7047869310
20
18.9738810892
30
0.0000000000
10
-4.7307809839
20
18.9704116698
30
0.0000000000
11
-4.5871874492
21
19.0301071834
31
0.0000000000
11
-4.6548712789
21
18.9908393546
31
0.0000000000
11
-4.7307809839
21
18.9704116698
31
0.0000000000
0
SPLINE
5
3F4
100
AcDbEntity
8
0
100
AcDbSpline
62
0
6
CONTINUOUS
70
0
71
3
72
10
73
6
74
4
42
0.0000001000
43
0.0000001000
44
0.0000000001
12
0.1341956046
22
0.2684116509
32
0.0000000000
13
0.3000887779
23
0.0000000000
33
0.0000000000
40
0.0000000000
40
0.0000000000
40
0.0000000000
40
0.0000000000
40
0.1371102732
40
0.5026921164
40
1.0000000000
40
1.0000000000
40
1.0000000000
40
1.0000000000
10
-5.2485921938
20
20.7602213518
30
0.0000000000
10
-5.2424589951
20
20.7724886834
30
0.0000000000
10
-5.1750835800
20
20.7502156179
30
0.0000000000
10
-5.0898194363
20
20.7722706123
30
0.0000000000
10
-4.9983491219
20
20.7654121746
30
0.0000000000
10
-4.9486036168
20
20.7654121746
30
0.0000000000
11
-5.2485921938
21
20.7602213518
31
0.0000000000
11
-5.2075291097
21
20.7628204051
31
0.0000000000
11
-5.0978385188
21
20.7647182983
31
0.0000000000
11
-4.9486036168
21
20.7654121746
31
0.0000000000
0
SPLINE
5
3F5
100
AcDbEntity
8
0
100
AcDbSpline
62
9
6
CONTINUOUS
70
0
71
3
72
9
73
5
74
3
42
0.0000001000
43
0.0000001000
44
0.0000000001
12
-0.3096260021
22
0.0003723951
32
0.0000000000
13
-0.1575456116
23
0.2713195887
33
0.0000000000
40
0.0000000000
40
0.0000000000
40
0.0000000000
40
0.0000000000
40
0.5009732366
40
1.0000000000
40
1.0000000000
40
1.0000000000
40
1.0000000000
10
-4.9486036168
20
19.9001319718
30
0.0000000000
10
-5.0003083970
20
19.9001941584
30
0.0000000000
10
-5.1054409551
20
19.9279860309
30
0.0000000000
10
-5.1820735142
20
20.0036443279
30
0.0000000000
10
-5.2082800064
20
20.0487762399
30
0.0000000000
11
-4.9486036168
21
19.9001319718
31
0.0000000000
11
-5.0984928288
21
19.9400533638
31
0.0000000000
11
-5.2082800064
21
20.0487762399
31
0.0000000000
0
SPLINE
5
3F6
100
AcDbEntity
8
0
100
AcDbSpline
62
0
6
CONTINUOUS
70
0
71
3
72
11
73
7
74
5
42
0.0000001000
43
0.0000001000
44
0.0000000001
12
0.0044088244
22
-0.4391837835
32
0.0000000000
13
0.4392059123
23
0.0000000000
33
0.0000000000
40
0.0000000000
40
0.0000000000
40
0.0000000000
40
0.0000000000
40
0.2028774794
40
0.4290941212
40
0.6900286635
40
1.0000000000
40
1.0000000000
40
1.0000000000
40
1.0000000000
10
-5.2590644351
20
20.0285633908
30
0.0000000000
10
-5.2587662847
20
19.9988632244
30
0.0000000000
10
-5.2453660590
20
19.9355775946
30
0.0000000000
10
-5.1864986741
20
19.8504119334
30
0.0000000000
10
-5.0868582842
20
19.7846568921
30
0.0000000000
10
-5.0022025760
20
19.7677773694
30
0.0000000000
10
-4.9568221614
20
19.7677773694
30
0.0000000000
11
-5.2590644351
21
20.0285633908
31
0.0000000000
11
-5.2409072653
21
19.9413279843
31
0.0000000000
11
-5.1852913273
21
19.8589968244
31
0.0000000000
11
-5.0902111292
21
19.7950137696
31
0.0000000000
11
-4.9568221614
21
19.7677773694
31
0.0000000000
0
SPLINE
5
3F7
100
AcDbEntity
8
0
100
AcDbSpline
62
0
6
CONTINUOUS
70
0
71
3
72
10
73
6
74
4
42
0.0000001000
43
0.0000001000
44
0.0000000001
12
-0.0935594899
22
-0.1769971526
32
0.0000000000
13
-0.2002033221
23
0.0000001408
33
0.0000000000
40
0.0000000000
40
0.0000000000
40
0.0000000000
40
0.0000000000
40
0.1404425094
40
0.5054232647
40
1.0000000000
40
1.0000000000
40
1.0000000000
40
1.0000000000
10
9.9304494034
20
-19.2204805525
30
0.0000000000
10
9.9260694935
20
-19.2287665272
30
0.0000000000
10
9.8815510311
20
-19.2171663539
30
0.0000000000
10
9.8240460772
20
-19.2306165905
30
0.0000000000
10
9.7634851661
20
-19.2270823893
30
0.0000000000
10
9.7304798643
20
-19.2270823660
30
0.0000000000
11
9.9304494034
21
-19.2204805525
31
0.0000000000
11
9.9025219557
21
-19.2237403926
31
0.0000000000
11
9.8294913971
21
-19.2261518192
31
0.0000000000
11
9.7304798643
21
-19.2270823660
31
0.0000000000
0
SPLINE
5
3F8
100
AcDbEntity
8
0
100
AcDbSpline
62
0
6
CONTINUOUS
70
0
71
3
72
9
73
5
74
3
42
0.0000001000
43
0.0000001000
44
0.0000000001
12
-0.0621281553
22
0.0475403159
32
0.0000000000
13
-0.0477446855
23
0.0619758402
33
0.0000000000
40
0.0000000000
40
0.0000000000
40
0.0000000000
40
0.0000000000
40
0.4994285084
40
1.0000000000
40
1.0000000000
40
1.0000000000
40
1.0000000000
10
-5.1537937212
20
19.0295260055
30
0.0000000000
10
-5.1641365785
20
19.0374403352
30
0.0000000000
10
-5.1838117962
20
19.0546274075
30
0.0000000000
10
-5.2010664109
20
19.0742447667
30
0.0000000000
10
-5.2090329537
20
19.0845858796
30
0.0000000000
11
-5.1537937212
21
19.0295260055
31
0.0000000000
11
-5.1831855396
21
19.0552139466
31
0.0000000000
11
-5.2090329537
21
19.0845858796
31
0.0000000000
0
SPLINE
5
3F9
100
AcDbEntity
8
0
100
AcDbSpline
62
0
6
CONTINUOUS
70
0
71
3
72
10
73
6
74
4
42
0.0000001000
43
0.0000001000
44
0.0000000001
12
0.3000887779
22
0.0000000000
32
0.0000000000
13
0.1341956046
23
-0.2684116509
33
0.0000000000
40
0.0000000000
40
0.0000000000
40
0.0000000000
40
0.0000000000
40
0.4973078836
40
0.8628897268
40
1.0000000000
40
1.0000000000
40
1.0000000000
40
1.0000000000
10
5.2068665104
20
20.7654121746
30
0.0000000000
10
5.2566120154
20
20.7654121746
30
0.0000000000
10
5.3480823298
20
20.7722706123
30
0.0000000000
10
5.4333464736
20
20.7502156179
30
0.0000000000
10
5.5007218886
20
20.7724886834
30
0.0000000000
10
5.5068550873
20
20.7602213518
30
0.0000000000
11
5.2068665104
21
20.7654121746
31
0.0000000000
11
5.3561014123
21
20.7647182983
31
0.0000000000
11
5.4657920032
21
20.7628204051
31
0.0000000000
11
5.5068550873
21
20.7602213518
31
0.0000000000
0
SPLINE
5
3FA
100
AcDbEntity
8
0
100
AcDbSpline
62
9
6
CONTINUOUS
70
0
71
3
72
10
73
6
74
4
42
0.0000001000
43
0.0000001000
44
0.0000000001
12
-0.0005365532
22
-0.4375069623
32
0.0000000000
13
-0.4383143187
23
-0.0393041685
33
0.0000000000
40
0.0000000000
40
0.0000000000
40
0.0000000000
40
0.0000000000
40
0.3515661539
40
0.7047300360
40
1.0000000000
40
1.0000000000
40
1.0000000000
40
1.0000000000
10
5.5068550873
20
20.1972123924
30
0.0000000000
10
5.5067922093
20
20.1459415124
30
0.0000000000
10
5.4784050985
20
20.0412290354
30
0.0000000000
10
5.3701219478
20
19.9343225340
30
0.0000000000
10
5.2759814212
20
19.9051851367
30
0.0000000000
10
5.2328410701
20
19.9013166898
30
0.0000000000
11
5.5068550873
21
20.1972123924
31
0.0000000000
11
5.4665428999
21
20.0487762399
31
0.0000000000
11
5.3567557224
21
19.9400533638
31
0.0000000000
11
5.2328410701
21
19.9013166898
31
0.0000000000
0
SPLINE
5
3FB
100
AcDbEntity
8
0
100
AcDbSpline
62
0
6
CONTINUOUS
70
0
71
3
72
11
73
7
74
5
42
0.0000001000
43
0.0000001000
44
0.0000000001
12
0.4104517321
22
0.0000000000
32
0.0000000000
13
0.0567451793
23
0.4087665379
33
0.0000000000
40
0.0000000000
40
0.0000000000
40
0.0000000000
40
0.0000000000
40
0.3316863664
40
0.6109006680
40
0.8529649078
40
1.0000000000
40
1.0000000000
40
1.0000000000
40
1.0000000000
10
5.2150850550
20
19.7677773694
30
0.0000000000
10
5.2604654695
20
19.7677773694
30
0.0000000000
10
5.3451211777
20
19.7846568921
30
0.0000000000
10
5.4447615677
20
19.8504119334
30
0.0000000000
10
5.4980437308
20
19.9274972440
30
0.0000000000
10
5.5123999109
20
19.9797921163
30
0.0000000000
10
5.5151810885
20
19.9998264582
30
0.0000000000
11
5.2150850550
21
19.7677773694
31
0.0000000000
11
5.3484740227
21
19.7950137696
31
0.0000000000
11
5.4435542209
21
19.8589968244
31
0.0000000000
11
5.4991701588
21
19.9413279843
31
0.0000000000
11
5.5151810885
21
19.9998264582
31
0.0000000000
0
SPLINE
5
3FC
100
AcDbEntity
8
0
100
AcDbSpline
62
0
6
CONTINUOUS
70
0
71
3
72
8
73
4
74
2
42
0.0000001000
43
0.0000001000
44
0.0000000001
12
0.0000430917
22
-0.0782979419
32
0.0000000000
13
-0.0203973380
23
-0.0762862416
33
0.0000000000
40
0.0000000000
40
0.0000000000
40
0.0000000000
40
0.0000000000
40
1.0000000000
40
1.0000000000
40
1.0000000000
40
1.0000000000
10
5.5296357072
20
19.2677773694
30
0.0000000000
10
5.5296500711
20
19.2416780555
30
0.0000000000
10
5.5261708990
20
19.2153845588
30
0.0000000000
10
5.5193717864
20
19.1899558116
30
0.0000000000
11
5.5296357072
21
19.2677773694
31
0.0000000000
11
5.5193717864
21
19.1899558116
31
0.0000000000
0
SPLINE
5
3FD
100
AcDbEntity
8
0
100
AcDbSpline
62
0
6
CONTINUOUS
70
0
71
3
72
9
73
5
74
3
42
0.0000001000
43
0.0000001000
44
0.0000000001
12
-0.0303512794
22
-0.1135140789
32
0.0000000000
13
-0.0712295993
23
-0.0930686915
33
0.0000000000
40
0.0000000000
40
0.0000000000
40
0.0000000000
40
0.0000000000
40
0.3339124594
40
1.0000000000
40
1.0000000000
40
1.0000000000
40
1.0000000000
10
5.5193717864
20
19.1899558116
30
0.0000000000
10
5.5159935629
20
19.1773212232
30
0.0000000000
10
5.5034219306
20
19.1401225341
30
0.0000000000
10
5.4836904293
20
19.1060034907
30
0.0000000000
10
5.4678753798
20
19.0853395255
30
0.0000000000
11
5.5193717864
21
19.1899558116
31
0.0000000000
11
5.5067996059
21
19.1528223846
31
0.0000000000
11
5.4678753798
21
19.0853395255
31
0.0000000000
0
SPLINE
5
3FE
100
AcDbEntity
8
0
100
AcDbSpline
62
0
6
CONTINUOUS
70
0
71
3
72
9
73
5
74
3
42
0.0000001000
43
0.0000001000
44
0.0000000001
12
-0.0475445216
22
-0.0621217368
32
0.0000000000
13
-0.0619773558
23
-0.0477376501
33
0.0000000000
40
0.0000000000
40
0.0000000000
40
0.0000000000
40
0.0000000000
40
0.4994989082
40
1.0000000000
40
1.0000000000
40
1.0000000000
40
1.0000000000
10
5.4678753798
20
19.0853395255
30
0.0000000000
10
5.4599592342
20
19.0749962789
30
0.0000000000
10
5.4427707312
20
19.0553234718
30
0.0000000000
10
5.4231524622
20
19.0380714321
30
0.0000000000
10
5.4128125508
20
19.0301071834
30
0.0000000000
11
5.4678753798
21
19.0853395255
31
0.0000000000
11
5.4421817326
21
19.0559471670
31
0.0000000000
11
5.4128125508
21
19.0301071834
31
0.0000000000
0
SPLINE
5
3FF
100
AcDbEntity
8
0
100
AcDbSpline
62
0
6
CONTINUOUS
70
0
71
3
72
9
73
5
74
3
42
0.0000001000
43
0.0000001000
44
0.0000000001
12
-0.1244466177
22
-0.0958541877
32
0.0000000000
13
-0.1557072447
23
-0.0207822048
33
0.0000000000
40
0.0000000000
40
0.0000000000
40
0.0000000000
40
0.0000000000
40
0.4991745005
40
1.0000000000
40
1.0000000000
40
1.0000000000
40
1.0000000000
10
5.4128125508
20
19.0301071834
30
0.0000000000
10
5.3921056914
20
19.0141578613
30
0.0000000000
10
5.3464381000
20
18.9875927195
30
0.0000000000
10
5.2952130690
20
18.9738810892
30
0.0000000000
10
5.2692190161
20
18.9704116698
30
0.0000000000
11
5.4128125508
21
19.0301071834
31
0.0000000000
11
5.3451287211
21
18.9908393546
31
0.0000000000
11
5.2692190161
21
18.9704116698
31
0.0000000000
0
SPLINE
5
400
100
AcDbEntity
8
0
100
AcDbSpline
62
0
6
CONTINUOUS
70
0
71
3
72
10
73
6
74
4
42
0.0000001000
43
0.0000001000
44
0.0000000001
12
0.1341956046
22
0.2684116509
32
0.0000000000
13
0.3000887779
23
0.0000000000
33
0.0000000000
40
0.0000000000
40
0.0000000000
40
0.0000000000
40
0.0000000000
40
0.1371102732
40
0.5026921164
40
1.0000000000
40
1.0000000000
40
1.0000000000
40
1.0000000000
10
4.7514078062
20
20.7602213518
30
0.0000000000
10
4.7575410049
20
20.7724886834
30
0.0000000000
10
4.8249164200
20
20.7502156179
30
0.0000000000
10
4.9101805637
20
20.7722706123
30
0.0000000000
10
5.0016508781
20
20.7654121746
30
0.0000000000
10
5.0513963832
20
20.7654121746
30
0.0000000000
11
4.7514078062
21
20.7602213518
31
0.0000000000
11
4.7924708903
21
20.7628204051
31
0.0000000000
11
4.9021614812
21
20.7647182983
31
0.0000000000
11
5.0513963832
21
20.7654121746
31
0.0000000000
0
SPLINE
5
401
100
AcDbEntity
8
0
100
AcDbSpline
62
9
6
CONTINUOUS
70
0
71
3
72
9
73
5
74
3
42
0.0000001000
43
0.0000001000
44
0.0000000001
12
-0.3096260021
22
0.0003723951
32
0.0000000000
13
-0.1575456116
23
0.2713195887
33
0.0000000000
40
0.0000000000
40
0.0000000000
40
0.0000000000
40
0.0000000000
40
0.5009732366
40
1.0000000000
40
1.0000000000
40
1.0000000000
40
1.0000000000
10
5.0513963832
20
19.9001319718
30
0.0000000000
10
4.9996916030
20
19.9001941584
30
0.0000000000
10
4.8945590449
20
19.9279860309
30
0.0000000000
10
4.8179264858
20
20.0036443279
30
0.0000000000
10
4.7917199936
20
20.0487762399
30
0.0000000000
11
5.0513963832
21
19.9001319718
31
0.0000000000
11
4.9015071712
21
19.9400533638
31
0.0000000000
11
4.7917199936
21
20.0487762399
31
0.0000000000
0
SPLINE
5
402
100
AcDbEntity
8
0
100
AcDbSpline
62
0
6
CONTINUOUS
70
0
71
3
72
11
73
7
74
5
42
0.0000001000
43
0.0000001000
44
0.0000000001
12
0.0044088244
22
-0.4391837835
32
0.0000000000
13
0.4392059123
23
-0.0000000000
33
0.0000000000
40
0.0000000000
40
0.0000000000
40
0.0000000000
40
0.0000000000
40
0.2028774794
40
0.4290941212
40
0.6900286635
40
1.0000000000
40
1.0000000000
40
1.0000000000
40
1.0000000000
10
4.7409355649
20
20.0285633908
30
0.0000000000
10
4.7412337153
20
19.9988632244
30
0.0000000000
10
4.7546339410
20
19.9355775946
30
0.0000000000
10
4.8135013259
20
19.8504119334
30
0.0000000000
10
4.9131417158
20
19.7846568921
30
0.0000000000
10
4.9977974240
20
19.7677773694
30
0.0000000000
10
5.0431778386
20
19.7677773694
30
0.0000000000
11
4.7409355649
21
20.0285633908
31
0.0000000000
11
4.7590927347
21
19.9413279843
31
0.0000000000
11
4.8147086727
21
19.8589968244
31
0.0000000000
11
4.9097888708
21
19.7950137696
31
0.0000000000
11
5.0431778386
21
19.7677773694
31
0.0000000000
0
SPLINE
5
403
100
AcDbEntity
8
0
100
AcDbSpline
62
0
6
CONTINUOUS
70
0
71
3
72
9
73
5
74
3
42
0.0000001000
43
0.0000001000
44
0.0000000001
12
-0.0128530148
22
-0.3469954860
32
0.0000000000
13
-0.0353849028
23
-0.3454257894
33
0.0000000000
40
0.0000000000
40
0.0000000000
40
0.0000000000
40
0.0000000000
40
0.5044154783
40
1.0000000000
40
1.0000000000
40
1.0000000000
40
1.0000000000
10
5.7349155213
20
-15.2787030322
30
0.0000000000
10
5.7327544348
20
-15.3370463302
30
0.0000000000
10
5.7270623525
20
-15.4526792256
30
0.0000000000
10
5.7166350815
20
-15.5679803954
30
0.0000000000
10
5.7107896781
20
-15.6250429536
30
0.0000000000
11
5.7349155213
21
-15.2787030322
31
0.0000000000
11
5.7258072883
21
-15.4536159721
31
0.0000000000
11
5.7107896781
21
-15.6250429536
31
0.0000000000
0
SPLINE
5
404
100
AcDbEntity
8
0
100
AcDbSpline
62
0
6
CONTINUOUS
70
0
71
3
72
13
73
9
74
7
42
0.0000001000
43
0.0000001000
44
0.0000000001
12
-0.3693428047
22
0.0136055522
32
0.0000000000
13
0.1109888888
23
-0.3544507281
33
0.0000000000
40
0.0000000000
40
0.0000000000
40
0.0000000000
40
0.0000000000
40
0.1895293410
40
0.3677202729
40
0.5367153915
40
0.7042245283
40
0.8798599735
40
1.0000000000
40
1.0000000000
40
1.0000000000
40
1.0000000000
10
6.2008689440
20
-10.5581400651
30
0.0000000000
10
6.1775351779
20
-10.5572805146
30
0.0000000000
10
6.1315796605
20
-10.5632514935
30
0.0000000000
10
6.0714638775
20
-10.5935197852
30
0.0000000000
10
6.0263869136
20
-10.6397597384
30
0.0000000000
10
5.9990509135
20
-10.6979413545
30
0.0000000000
10
5.9933687208
20
-10.7558539140
30
0.0000000000
10
6.0004123443
20
-10.7921382404
30
0.0000000000
10
6.0048570803
20
-10.8063328136
30
0.0000000000
11
6.2008689440
21
-10.5581400651
31
0.0000000000
11
6.1314293854
21
-10.5673584665
31
0.0000000000
11
6.0726678532
21
-10.5970970245
31
0.0000000000
11
6.0291596768
21
-10.6419102312
31
0.0000000000
11
6.0028463594
21
-10.6979502996
31
0.0000000000
11
5.9964509275
21
-10.7625481721
31
0.0000000000
11
6.0048570803
21
-10.8063328136
31
0.0000000000
0
SPLINE
5
405
100
AcDbEntity
8
0
100
AcDbSpline
62
0
6
CONTINUOUS
70
0
71
3
72
8
73
4
74
2
42
0.0000001000
43
0.0000001000
44
0.0000000001
12
0.0027045661
22
-0.0086372196
32
0.0000000000
13
0.0030910571
23
-0.0084922667
33
0.0000000000
40
0.0000000000
40
0.0000000000
40
0.0000000000
40
0.0000000000
40
1.0000000000
40
1.0000000000
40
1.0000000000
40
1.0000000000
10
6.0048570803
20
-10.8063328136
30
0.0000000000
10
6.0057586023
20
-10.8092118868
30
0.0000000000
10
6.0067252776
20
-10.8120685952
30
0.0000000000
10
6.0077556300
20
-10.8148993507
30
0.0000000000
11
6.0048570803
21
-10.8063328136
31
0.0000000000
11
6.0077556300
21
-10.8148993507
31
0.0000000000
0
SPLINE
5
406
100
AcDbEntity
8
0
100
AcDbSpline
62
0
6
CONTINUOUS
70
0
71
3
72
8
73
4
74
2
42
0.0000001000
43
0.0000001000
44
0.0000000001
12
0.0050005562
22
-0.0137383606
32
0.0000000000
13
0.0059817049
23
-0.0132852615
33
0.0000000000
40
0.0000000000
40
0.0000000000
40
0.0000000000
40
0.0000000000
40
1.0000000000
40
1.0000000000
40
1.0000000000
40
1.0000000000
10
6.0077556300
20
-10.8148993507
30
0.0000000000
10
6.0094224821
20
-10.8194788043
30
0.0000000000
10
6.0112559841
20
-10.8239903365
30
0.0000000000
10
6.0132498858
20
-10.8284187570
30
0.0000000000
11
6.0077556300
21
-10.8148993507
31
0.0000000000
11
6.0132498858
21
-10.8284187570
31
0.0000000000
0
SPLINE
5
407
100
AcDbEntity
8
0
100
AcDbSpline
62
0
6
CONTINUOUS
70
0
71
3
72
13
73
9
74
7
42
0.0000001000
43
0.0000001000
44
0.0000000001
12
-0.1512986351
22
-0.3360316076
32
0.0000000000
13
0.3690533335
23
-0.0301474012
33
0.0000000000
40
0.0000000000
40
0.0000000000
40
0.0000000000
40
0.0000000000
40
0.1831990183
40
0.3581726793
40
0.5258189104
40
0.6949799399
40
0.8746436145
40
1.0000000000
40
1.0000000000
40
1.0000000000
40
1.0000000000
10
6.0132498858
20
-14.2360265041
30
0.0000000000
10
6.0040106320
20
-14.2565467243
30
0.0000000000
10
5.9926798226
20
-14.3001510839
30
0.0000000000
10
5.9988661085
20
-14.3656947272
30
0.0000000000
10
6.0257965924
20
-14.4238061914
30
0.0000000000
10
6.0706253373
20
-14.4703296910
30
0.0000000000
10
6.1234608880
20
-14.4972633863
30
0.0000000000
10
6.1607561913
20
-14.5044906169
30
0.0000000000
10
6.1761772552
20
-14.5057503400
30
0.0000000000
11
6.0132498858
21
-14.2360265041
31
0.0000000000
11
5.9964863354
21
-14.3014250715
31
0.0000000000
11
6.0026031270
21
-14.3656159498
31
0.0000000000
11
6.0285688265
21
-14.4216758820
31
0.0000000000
11
6.0717339464
21
-14.4666535967
31
0.0000000000
11
6.1306599421
21
-14.4968445735
31
0.0000000000
11
6.1761772552
21
-14.5057503400
31
0.0000000000
0
SPLINE
5
408
100
AcDbEntity
8
0
100
AcDbSpline
62
0
6
CONTINUOUS
70
0
71
3
72
8
73
4
74
2
42
0.0000001000
43
0.0000001000
44
0.0000000001
12
0.0246824771
22
-0.0020162737
32
0.0000000000
13
0.0246302404
23
0.0009073089
33
0.0000000000
40
0.0000000000
40
0.0000000000
40
0.0000000000
40
0.0000000000
40
1.0000000000
40
1.0000000000
40
1.0000000000
40
1.0000000000
10
6.1761772552
20
-14.5057503400
30
0.0000000000
10
6.1844047476
20
-14.5064224312
30
0.0000000000
10
6.1926588638
20
-14.5066076324
30
0.0000000000
10
6.2008689440
20
-14.5063051960
30
0.0000000000
11
6.1761772552
21
-14.5057503400
31
0.0000000000
11
6.2008689440
21
-14.5063051960
31
0.0000000000
0
SPLINE
5
409
100
AcDbEntity
8
0
100
AcDbSpline
62
0
6
CONTINUOUS
70
0
71
3
72
13
73
9
74
7
42
0.0000001000
43
0.0000001000
44
0.0000000001
12
0.3693428047
22
-0.0136055522
32
0.0000000000
13
-0.1109888888
23
0.3544507281
33
0.0000000000
40
0.0000000000
40
0.0000000000
40
0.0000000000
40
0.0000000000
40
0.1895293410
40
0.3677202729
40
0.5367153915
40
0.7042245283
40
0.8798599735
40
1.0000000000
40
1.0000000000
40
1.0000000000
40
1.0000000000
10
-5.9426060504
20
-14.5063051960
30
0.0000000000
10
-5.9192722843
20
-14.5071647465
30
0.0000000000
10
-5.8733167670
20
-14.5011937677
30
0.0000000000
10
-5.8132009840
20
-14.4709254760
30
0.0000000000
10
-5.7681240201
20
-14.4246855228
30
0.0000000000
10
-5.7407880200
20
-14.3665039066
30
0.0000000000
10
-5.7351058273
20
-14.3085913471
30
0.0000000000
10
-5.7421494507
20
-14.2723070208
30
0.0000000000
10
-5.7465941867
20
-14.2581124475
30
0.0000000000
11
-5.9426060504
21
-14.5063051960
31
0.0000000000
11
-5.8731664919
21
-14.4970867946
31
0.0000000000
11
-5.8144049596
21
-14.4673482366
31
0.0000000000
11
-5.7708967832
21
-14.4225350300
31
0.0000000000
11
-5.7445834659
21
-14.3664949616
31
0.0000000000
11
-5.7381880339
21
-14.3018970890
31
0.0000000000
11
-5.7465941867
21
-14.2581124475
31
0.0000000000
0
SPLINE
5
40A
100
AcDbEntity
8
0
100
AcDbSpline
62
0
6
CONTINUOUS
70
0
71
3
72
8
73
4
74
2
42
0.0000001000
43
0.0000001000
44
0.0000000001
12
-0.0027045661
22
0.0086372196
32
0.0000000000
13
-0.0030910571
23
0.0084922667
33
0.0000000000
40
0.0000000000
40
0.0000000000
40
0.0000000000
40
0.0000000000
40
1.0000000000
40
1.0000000000
40
1.0000000000
40
1.0000000000
10
-5.7465941867
20
-14.2581124475
30
0.0000000000
10
-5.7474957087
20
-14.2552333743
30
0.0000000000
10
-5.7484623841
20
-14.2523766660
30
0.0000000000
10
-5.7494927365
20
-14.2495459104
30
0.0000000000
11
-5.7465941867
21
-14.2581124475
31
0.0000000000
11
-5.7494927365
21
-14.2495459104
31
0.0000000000
0
SPLINE
5
40B
100
AcDbEntity
8
0
100
AcDbSpline
62
0
6
CONTINUOUS
70
0
71
3
72
8
73
4
74
2
42
0.0000001000
43
0.0000001000
44
0.0000000001
12
-0.0050005562
22
0.0137383606
32
0.0000000000
13
-0.0059817049
23
0.0132852615
33
0.0000000000
40
0.0000000000
40
0.0000000000
40
0.0000000000
40
0.0000000000
40
1.0000000000
40
1.0000000000
40
1.0000000000
40
1.0000000000
10
-5.7494927365
20
-14.2495459104
30
0.0000000000
10
-5.7511595885
20
-14.2449664569
30
0.0000000000
10
-5.7529930906
20
-14.2404549246
30
0.0000000000
10
-5.7549869922
20
-14.2360265041
30
0.0000000000
11
-5.7494927365
21
-14.2495459104
31
0.0000000000
11
-5.7549869922
21
-14.2360265041
31
0.0000000000
0
SPLINE
5
40C
100
AcDbEntity
8
0
100
AcDbSpline
62
0
6
CONTINUOUS
70
0
71
3
72
13
73
9
74
7
42
0.0000001000
43
0.0000001000
44
0.0000000001
12
0.1512986351
22
0.3360316076
32
0.0000000000
13
-0.3690533335
23
0.0301474012
33
0.0000000000
40
0.0000000000
40
0.0000000000
40
0.0000000000
40
0.0000000000
40
0.1831990183
40
0.3581726793
40
0.5258189104
40
0.6949799399
40
0.8746436145
40
1.0000000000
40
1.0000000000
40
1.0000000000
40
1.0000000000
10
-5.7549869922
20
-10.8284187570
30
0.0000000000
10
-5.7457477384
20
-10.8078985368
30
0.0000000000
10
-5.7344169290
20
-10.7642941773
30
0.0000000000
10
-5.7406032149
20
-10.6987505340
30
0.0000000000
10
-5.7675336988
20
-10.6406390697
30
0.0000000000
10
-5.8123624438
20
-10.5941155701
30
0.0000000000
10
-5.8651979945
20
-10.5671818748
30
0.0000000000
10
-5.9024932977
20
-10.5599546443
30
0.0000000000
10
-5.9179143617
20
-10.5586949212
30
0.0000000000
11
-5.7549869922
21
-10.8284187570
31
0.0000000000
11
-5.7382234419
21
-10.7630201896
31
0.0000000000
11
-5.7443402334
21
-10.6988293114
31
0.0000000000
11
-5.7703059330
21
-10.6427693791
31
0.0000000000
11
-5.8134710528
21
-10.5977916644
31
0.0000000000
11
-5.8723970486
21
-10.5676006877
31
0.0000000000
11
-5.9179143617
21
-10.5586949212
31
0.0000000000
0
SPLINE
5
40D
100
AcDbEntity
8
0
100
AcDbSpline
62
0
6
CONTINUOUS
70
0
71
3
72
8
73
4
74
2
42
0.0000001000
43
0.0000001000
44
0.0000000001
12
-0.0246824771
22
0.0020162737
32
0.0000000000
13
-0.0246302404
23
-0.0009073089
33
0.0000000000
40
0.0000000000
40
0.0000000000
40
0.0000000000
40
0.0000000000
40
1.0000000000
40
1.0000000000
40
1.0000000000
40
1.0000000000
10
-5.9179143617
20
-10.5586949212
30
0.0000000000
10
-5.9261418541
20
-10.5580228299
30
0.0000000000
10
-5.9343959703
20
-10.5578376288
30
0.0000000000
10
-5.9426060504
20
-10.5581400651
30
0.0000000000
11
-5.9179143617
21
-10.5586949212
31
0.0000000000
11
-5.9426060504
21
-10.5581400651
31
0.0000000000
0
SPLINE
5
40E
100
AcDbEntity
8
0
100
AcDbSpline
62
0
6
CONTINUOUS
70
0
71
3
72
8
73
4
74
2
42
0.0000001000
43
0.0000001000
44
0.0000000001
12
-0.0520499026
22
0.0000000000
32
0.0000000000
13
-0.0517852511
23
0.0092540774
33
0.0000000000
40
0.0000000000
40
0.0000000000
40
0.0000000000
40
0.0000000000
40
1.0000000000
40
1.0000000000
40
1.0000000000
40
1.0000000000
10
5.0409241418
20
18.9677773694
30
0.0000000000
10
5.0235741743
20
18.9677773694
30
0.0000000000
10
5.0061125278
20
18.9693572635
30
0.0000000000
10
4.9888507775
20
18.9724419560
30
0.0000000000
11
5.0409241418
21
18.9677773694
31
0.0000000000
11
4.9888507775
21
18.9724419560
31
0.0000000000
0
SPLINE
5
40F
100
AcDbEntity
8
0
100
AcDbSpline
62
0
6
CONTINUOUS
70
0
71
3
72
9
73
5
74
3
42
0.0000001000
43
0.0000001000
44
0.0000000001
12
-0.2057271791
22
0.0367636576
32
0.0000000000
13
-0.1343836437
23
0.1601691621
33
0.0000000000
40
0.0000000000
40
0.0000000000
40
0.0000000000
40
0.0000000000
40
0.4992587610
40
1.0000000000
40
1.0000000000
40
1.0000000000
40
1.0000000000
10
4.9888507775
20
18.9724419560
30
0.0000000000
10
4.9546137453
20
18.9785601487
30
0.0000000000
10
4.8876130932
20
19.0026717112
30
0.0000000000
10
4.8335204170
20
19.0481818002
30
0.0000000000
10
4.8110899396
20
19.0749162351
30
0.0000000000
11
4.9888507775
21
18.9724419560
31
0.0000000000
11
4.8909298533
21
19.0079697483
31
0.0000000000
11
4.8110899396
21
19.0749162351
31
0.0000000000
0
SPLINE
5
410
100
AcDbEntity
8
0
100
AcDbSpline
62
0
6
CONTINUOUS
70
0
71
3
72
9
73
5
74
3
42
0.0000001000
43
0.0000001000
44
0.0000000001
12
-0.1007234916
22
0.1200503039
32
0.0000000000
13
-0.0275529456
23
0.1541972305
33
0.0000000000
40
0.0000000000
40
0.0000000000
40
0.0000000000
40
0.0000000000
40
0.3338767931
40
1.0000000000
40
1.0000000000
40
1.0000000000
40
1.0000000000
10
4.8110899396
20
19.0749162351
30
0.0000000000
10
4.7998801941
20
19.0882769053
30
0.0000000000
10
4.7697885658
20
19.1312452053
30
0.0000000000
10
4.7517178158
20
19.1814638935
30
0.0000000000
10
4.7455999303
20
19.2157020114
30
0.0000000000
11
4.8110899396
21
19.0749162351
31
0.0000000000
11
4.7811264133
21
19.1177773694
31
0.0000000000
11
4.7455999303
21
19.2157020114
31
0.0000000000
0
SPLINE
5
411
100
AcDbEntity
8
0
100
AcDbSpline
62
0
6
CONTINUOUS
70
0
71
3
72
8
73
4
74
2
42
0.0000001000
43
0.0000001000
44
0.0000000001
12
-0.0046138457
22
0.0258209135
32
0.0000000000
13
-0.0023414663
23
0.0260031960
33
0.0000000000
40
0.0000000000
40
0.0000000000
40
0.0000000000
40
0.0000000000
40
1.0000000000
40
1.0000000000
40
1.0000000000
40
1.0000000000
10
4.7455999303
20
19.2157020114
30
0.0000000000
10
4.7440619818
20
19.2243089826
30
0.0000000000
10
4.7428981120
20
19.2329656428
30
0.0000000000
10
4.7421176232
20
19.2416333748
30
0.0000000000
11
4.7455999303
21
19.2157020114
31
0.0000000000
11
4.7421176232
21
19.2416333748
31
0.0000000000
0
SPLINE
5
412
100
AcDbEntity
8
0
100
AcDbSpline
62
0
6
CONTINUOUS
70
0
71
3
72
8
73
4
74
2
42
0.0000001000
43
0.0000001000
44
0.0000000001
12
-0.0023546563
22
0.0261496775
32
0.0000000000
13
0.0000000000
23
0.0260990382
33
0.0000000000
40
0.0000000000
40
0.0000000000
40
0.0000000000
40
0.0000000000
40
1.0000000000
40
1.0000000000
40
1.0000000000
40
1.0000000000
10
4.7421176232
20
19.2416333748
30
0.0000000000
10
4.7413327378
20
19.2503499340
30
0.0000000000
10
4.7409355649
20
19.2590776900
30
0.0000000000
10
4.7409355649
20
19.2677773694
30
0.0000000000
11
4.7421176232
21
19.2416333748
31
0.0000000000
11
4.7409355649
21
19.2677773694
31
0.0000000000
0
SPLINE
5
413
100
AcDbEntity
8
0
100
AcDbSpline
62
0
6
CONTINUOUS
70
0
71
3
72
8
73
4
74
2
42
0.0000001000
43
0.0000001000
44
0.0000000001
12
0.0922044916
22
-0.0116066010
32
0.0000000000
13
0.0918969236
23
-0.0139384319
33
0.0000000000
40
0.0000000000
40
0.0000000000
40
0.0000000000
40
0.0000000000
40
1.0000000000
40
1.0000000000
40
1.0000000000
40
1.0000000000
10
-3.8745805352
20
3.6521013694
30
0.0000000000
10
-3.8438457047
20
3.6482325024
30
0.0000000000
10
-3.8128031717
20
3.6460687287
30
0.0000000000
10
-3.7821708638
20
3.6414225847
30
0.0000000000
11
-3.8745805352
21
3.6521013694
31
0.0000000000
11
-3.7821708638
21
3.6414225847
31
0.0000000000
0
SPLINE
5
414
100
AcDbEntity
8
0
100
AcDbSpline
62
0
6
CONTINUOUS
70
0
71
3
72
8
73
4
74
2
42
0.0000001000
43
0.0000001000
44
0.0000000001
12
0.0460950437
22
-0.0069914487
32
0.0000000000
13
0.0452039662
23
-0.0123241743
33
0.0000000000
40
0.0000000000
40
0.0000000000
40
0.0000000000
40
0.0000000000
40
1.0000000000
40
1.0000000000
40
1.0000000000
40
1.0000000000
10
-3.7821708638
20
3.6414225847
30
0.0000000000
10
-3.7668058493
20
3.6390921018
30
0.0000000000
10
-3.7515440463
20
3.6361370605
30
0.0000000000
10
-3.7364760576
20
3.6320290024
30
0.0000000000
11
-3.7821708638
21
3.6414225847
31
0.0000000000
11
-3.7364760576
21
3.6320290024
31
0.0000000000
0
SPLINE
5
415
100
AcDbEntity
8
0
100
AcDbSpline
62
0
6
CONTINUOUS
70
0
71
3
72
10
73
6
74
4
42
0.0000001000
43
0.0000001000
44
0.0000000001
12
0.0923987270
22
-0.0251911085
32
0.0000000000
13
0.0714524727
23
-0.0630625130
33
0.0000000000
40
0.0000000000
40
0.0000000000
40
0.0000000000
40
0.0000000000
40
0.0427858532
40
0.8788053328
40
1.0000000000
40
1.0000000000
40
1.0000000000
40
1.0000000000
10
-3.7364760576
20
3.6320290024
30
0.0000000000
10
-3.7351582715
20
3.6316697280
30
0.0000000000
10
-3.7081218880
20
3.6241092307
30
0.0000000000
10
-3.6780976879
20
3.6111028064
30
0.0000000000
10
-3.6546413041
20
3.5917708363
30
0.0000000000
10
-3.6517547512
20
3.5892232229
30
0.0000000000
11
-3.7364760576
21
3.6320290024
31
0.0000000000
11
-3.7325272070
21
3.6309243691
31
0.0000000000
11
-3.6606657098
21
3.5965558269
31
0.0000000000
11
-3.6517547512
21
3.5892232229
31
0.0000000000
0
SPLINE
5
416
100
AcDbEntity
8
0
100
AcDbSpline
62
0
6
CONTINUOUS
70
0
71
3
72
9
73
5
74
3
42
0.0000001000
43
0.0000001000
44
0.0000000001
12
0.0866203879
22
-0.0764494095
32
0.0000000000
13
0.0402668576
23
-0.1087869447
33
0.0000000000
40
0.0000000000
40
0.0000000000
40
0.0000000000
40
0.0000000000
40
0.6041179728
40
1.0000000000
40
1.0000000000
40
1.0000000000
40
1.0000000000
10
-3.6517547512
20
3.5892232229
30
0.0000000000
10
-3.6343117735
20
3.5738284021
30
0.0000000000
10
-3.6104735971
20
3.5423033842
30
0.0000000000
10
-3.5941304427
20
3.5070448192
30
0.0000000000
10
-3.5888168009
20
3.4926892205
30
0.0000000000
11
-3.6517547512
21
3.5892232229
31
0.0000000000
11
-3.6082450041
21
3.5343761525
31
0.0000000000
11
-3.5888168009
21
3.4926892205
31
0.0000000000
0
SPLINE
5
417
100
AcDbEntity
8
0
100
AcDbSpline
62
0
6
CONTINUOUS
70
0
71
3
72
9
73
5
74
3
42
0.0000001000
43
0.0000001000
44
0.0000000001
12
0.0310080065
22
-0.0837727722
32
0.0000000000
13
0.0067547905
23
-0.0888554376
33
0.0000000000
40
0.0000000000
40
0.0000000000
40
0.0000000000
40
0.0000000000
40
0.5629460289
40
1.0000000000
40
1.0000000000
40
1.0000000000
40
1.0000000000
10
-3.5888168009
20
3.4926892205
30
0.0000000000
10
-3.5829981896
20
3.4769693707
30
0.0000000000
10
-3.5751251919
20
3.4481987073
30
0.0000000000
10
-3.5715514951
20
3.4187024818
30
0.0000000000
10
-3.5705674258
20
3.4057576078
30
0.0000000000
11
-3.5888168009
21
3.4926892205
31
0.0000000000
11
-3.5754965279
21
3.4443467727
31
0.0000000000
11
-3.5705674258
21
3.4057576078
31
0.0000000000
0
SPLINE
5
418
100
AcDbEntity
8
0
100
AcDbSpline
62
0
6
CONTINUOUS
70
0
71
3
72
8
73
4
74
2
42
0.0000001000
43
0.0000001000
44
0.0000000001
12
0.0032826678
22
-0.0431816326
32
0.0000000000
13
0.0000000000
23
-0.0432267639
33
0.0000000000
40
0.0000000000
40
0.0000000000
40
0.0000000000
40
0.0000000000
40
1.0000000000
40
1.0000000000
40
1.0000000000
40
1.0000000000
10
-3.5705674258
20
3.4057576078
30
0.0000000000
10
-3.5694732032
20
3.3913637303
30
0.0000000000
10
-3.5690934100
20
3.3769037900
30
0.0000000000
10
-3.5690934100
20
3.3624948687
30
0.0000000000
11
-3.5705674258
21
3.4057576078
31
0.0000000000
11
-3.5690934100
21
3.3624948687
31
0.0000000000
0
SPLINE
5
419
100
AcDbEntity
8
0
100
AcDbSpline
62
0
6
CONTINUOUS
70
0
71
3
72
8
73
4
74
2
42
0.0000001000
43
0.0000001000
44
0.0000000001
12
0.0000000000
22
-0.0418559742
32
0.0000000000
13
-0.0030479232
23
-0.0418241032
33
0.0000000000
40
0.0000000000
40
0.0000000000
40
0.0000000000
40
0.0000000000
40
1.0000000000
40
1.0000000000
40
1.0000000000
40
1.0000000000
10
-3.5690934100
20
3.3624948687
30
0.0000000000
10
-3.5690934100
20
3.3485428773
30
0.0000000000
10
-3.5694494975
20
3.3345430514
30
0.0000000000
10
-3.5704654718
20
3.3206016836
30
0.0000000000
11
-3.5690934100
21
3.3624948687
31
0.0000000000
11
-3.5704654718
21
3.3206016836
31
0.0000000000
0
SPLINE
5
41A
100
AcDbEntity
8
0
100
AcDbSpline
62
0
6
CONTINUOUS
70
0
71
3
72
9
73
5
74
3
42
0.0000001000
43
0.0000001000
44
0.0000000001
12
-0.0059828517
22
-0.0820976758
32
0.0000000000
13
-0.0264206246
23
-0.0781117798
33
0.0000000000
40
0.0000000000
40
0.0000000000
40
0.0000000000
40
0.0000000000
40
0.4898476605
40
1.0000000000
40
1.0000000000
40
1.0000000000
40
1.0000000000
10
-3.5704654718
20
3.3206016836
30
0.0000000000
10
-3.5714423672
20
3.3071965655
30
0.0000000000
10
-3.5746821376
20
3.2799410089
30
0.0000000000
10
-3.5815900476
20
3.2533044980
30
0.0000000000
10
-3.5860828954
20
3.2400215290
30
0.0000000000
11
-3.5704654718
21
3.3206016836
31
0.0000000000
11
-3.5754965279
21
3.2806429647
31
0.0000000000
11
-3.5860828954
21
3.2400215290
31
0.0000000000
0
SPLINE
5
41B
100
AcDbEntity
8
0
100
AcDbSpline
62
0
6
CONTINUOUS
70
0
71
3
72
11
73
7
74
5
42
0.0000001000
43
0.0000001000
44
0.0000000001
12
-0.0881400346
22
-0.2605833535
32
0.0000000000
13
-0.2716484560
23
-0.0373907313
33
0.0000000000
40
0.0000000000
40
0.0000000000
40
0.0000000000
40
0.0000000000
40
0.1966015468
40
0.4933225133
40
0.7839477261
40
1.0000000000
40
1.0000000000
40
1.0000000000
40
1.0000000000
10
-3.5860828954
20
3.2400215290
30
0.0000000000
10
-3.5918590511
20
3.2229444988
30
0.0000000000
10
-3.6103707359
20
3.1813618597
30
0.0000000000
10
-3.6561091645
20
3.1234123160
30
0.0000000000
10
-3.7254973525
20
3.0933534897
30
0.0000000000
10
-3.7710488329
20
3.0850405358
30
0.0000000000
10
-3.7906122551
20
3.0823477517
30
0.0000000000
11
-3.5860828954
21
3.2400215290
31
0.0000000000
11
-3.6082450041
21
3.1906135849
31
0.0000000000
11
-3.6606657098
21
3.1284339105
31
0.0000000000
11
-3.7325272070
21
3.0940653683
31
0.0000000000
11
-3.7906122551
21
3.0823477517
31
0.0000000000
0
SPLINE
5
41C
100
AcDbEntity
8
0
100
AcDbSpline
62
0
6
CONTINUOUS
70
0
71
3
72
8
73
4
74
2
42
0.0000001000
43
0.0000001000
44
0.0000000001
12
-0.0836539689
22
-0.0115144519
32
0.0000000000
13
-0.0837446749
23
-0.0105416873
33
0.0000000000
40
0.0000000000
40
0.0000000000
40
0.0000000000
40
0.0000000000
40
1.0000000000
40
1.0000000000
40
1.0000000000
40
1.0000000000
10
-3.7906122551
20
3.0823477517
30
0.0000000000
10
-3.8184969114
20
3.0785096010
30
0.0000000000
10
-3.8466656319
20
3.0764022652
30
0.0000000000
10
-3.8745805236
20
3.0728883694
30
0.0000000000
11
-3.7906122551
21
3.0823477517
31
0.0000000000
11
-3.8745805236
21
3.0728883694
31
0.0000000000
0
SPLINE
5
41D
100
AcDbEntity
8
0
100
AcDbSpline
62
0
6
CONTINUOUS
70
0
71
3
72
8
73
4
74
2
42
0.0000001000
43
0.0000001000
44
0.0000000001
12
0.0587025517
22
0.0021755936
32
0.0000000000
13
0.0587369971
23
0.0019534323
33
0.0000000000
40
0.0000000000
40
0.0000000000
40
0.0000000000
40
0.0000000000
40
1.0000000000
40
1.0000000000
40
1.0000000000
40
1.0000000000
10
-3.9441219507
20
2.7322123694
30
0.0000000000
10
-3.9245544334
20
2.7329375673
30
0.0000000000
10
-3.9049754690
20
2.7335559604
30
0.0000000000
10
-3.8853964700
20
2.7342071045
30
0.0000000000
11
-3.9441219507
21
2.7322123694
31
0.0000000000
11
-3.8853964700
21
2.7342071045
31
0.0000000000
0
SPLINE
5
41E
100
AcDbEntity
8
0
100
AcDbSpline
62
0
6
CONTINUOUS
70
0
71
3
72
8
73
4
74
2
42
0.0000001000
43
0.0000001000
44
0.0000000001
12
0.1658409780
22
0.0055154186
32
0.0000000000
13
0.1650719951
23
0.0165053719
33
0.0000000000
40
0.0000000000
40
0.0000000000
40
0.0000000000
40
0.0000000000
40
1.0000000000
40
1.0000000000
40
1.0000000000
40
1.0000000000
10
-3.8853964700
20
2.7342071045
30
0.0000000000
10
-3.8301161440
20
2.7360455774
30
0.0000000000
10
-3.7748355425
20
2.7381451368
30
0.0000000000
10
-3.7198115441
20
2.7436469274
30
0.0000000000
11
-3.8853964700
21
2.7342071045
31
0.0000000000
11
-3.7198115441
21
2.7436469274
31
0.0000000000
0
SPLINE
5
41F
100
AcDbEntity
8
0
100
AcDbSpline
62
0
6
CONTINUOUS
70
0
71
3
72
8
73
4
74
2
42
0.0000001000
43
0.0000001000
44
0.0000000001
12
0.0517165343
22
0.0051710809
32
0.0000000000
13
0.0514983982
23
0.0072764733
33
0.0000000000
40
0.0000000000
40
0.0000000000
40
0.0000000000
40
0.0000000000
40
1.0000000000
40
1.0000000000
40
1.0000000000
40
1.0000000000
10
-3.7198115441
20
2.7436469274
30
0.0000000000
10
-3.7025726993
20
2.7453706210
30
0.0000000000
10
-3.6853586607
20
2.7474299132
30
0.0000000000
10
-3.6681925280
20
2.7498554043
30
0.0000000000
11
-3.7198115441
21
2.7436469274
31
0.0000000000
11
-3.6681925280
21
2.7498554043
31
0.0000000000
0
SPLINE
5
420
100
AcDbEntity
8
0
100
AcDbSpline
62
0
6
CONTINUOUS
70
0
71
3
72
9
73
5
74
3
42
0.0000001000
43
0.0000001000
44
0.0000000001
12
0.1876570665
22
0.0265150313
32
0.0000000000
13
0.1801712170
23
0.0603586284
33
0.0000000000
40
0.0000000000
40
0.0000000000
40
0.0000000000
40
0.0000000000
40
0.8037357841
40
1.0000000000
40
1.0000000000
40
1.0000000000
40
1.0000000000
10
-3.6681925280
20
2.7498554043
30
0.0000000000
10
-3.6179169615
20
2.7569590975
30
0.0000000000
10
-3.5558759792
20
2.7697051278
30
0.0000000000
10
-3.4953707807
20
2.7884978135
30
0.0000000000
10
-3.4835837265
20
2.7924465598
30
0.0000000000
11
-3.6681925280
21
2.7498554043
31
0.0000000000
11
-3.5191799493
21
2.7813540650
31
0.0000000000
11
-3.4835837265
21
2.7924465598
31
0.0000000000
0
SPLINE
5
421
100
AcDbEntity
8
0
100
AcDbSpline
62
0
6
CONTINUOUS
70
0
71
3
72
8
73
4
74
2
42
0.0000001000
43
0.0000001000
44
0.0000000001
12
0.0801610617
22
0.0268545210
32
0.0000000000
13
0.0764429166
23
0.0358451320
33
0.0000000000
40
0.0000000000
40
0.0000000000
40
0.0000000000
40
0.0000000000
40
1.0000000000
40
1.0000000000
40
1.0000000000
40
1.0000000000
10
-3.4835837265
20
2.7924465598
30
0.0000000000
10
-3.4568633726
20
2.8013980668
30
0.0000000000
10
-3.4305949946
20
2.8116878296
30
0.0000000000
10
-3.4051140224
20
2.8236362069
30
0.0000000000
11
-3.4835837265
21
2.7924465598
31
0.0000000000
11
-3.4051140224
21
2.8236362069
31
0.0000000000
0
SPLINE
5
422
100
AcDbEntity
8
0
100
AcDbSpline
62
0
6
CONTINUOUS
70
0
71
3
72
9
73
5
74
3
42
0.0000001000
43
0.0000001000
44
0.0000000001
12
0.0720562213
22
0.0337881504
32
0.0000000000
13
0.0669961196
23
0.0433925074
33
0.0000000000
40
0.0000000000
40
0.0000000000
40
0.0000000000
40
0.0000000000
40
0.7982856733
40
1.0000000000
40
1.0000000000
40
1.0000000000
40
1.0000000000
10
-3.4051140224
20
2.8236362069
30
0.0000000000
10
-3.3859402060
20
2.8326270724
30
0.0000000000
10
-3.3624799685
20
2.8450662359
30
0.0000000000
10
-3.3399436246
20
2.8591933051
30
0.0000000000
10
-3.3354389322
20
2.8621109353
30
0.0000000000
11
-3.4051140224
21
2.8236362069
31
0.0000000000
11
-3.3490730235
21
2.8535627192
31
0.0000000000
11
-3.3354389322
21
2.8621109353
31
0.0000000000
0
SPLINE
5
423
100
AcDbEntity
8
0
100
AcDbSpline
62
0
6
CONTINUOUS
70
0
71
3
72
10
73
6
74
4
42
0.0000001000
43
0.0000001000
44
0.0000000001
12
0.0900655880
22
0.2457090577
32
0.0000000000
13
0.0000000000
23
0.2600733183
33
0.0000000000
40
0.0000000000
40
0.0000000000
40
0.0000000000
40
0.0000000000
40
0.1173677502
40
0.5318453964
40
1.0000000000
40
1.0000000000
40
1.0000000000
40
1.0000000000
10
-3.1408322031
20
3.1065287462
30
0.0000000000
10
-3.1373086046
20
3.1161415193
30
0.0000000000
10
-3.1225495742
20
3.1601050334
30
0.0000000000
10
-3.1049870926
20
3.2452078864
30
0.0000000000
10
-3.1005857636
20
3.3219100283
30
0.0000000000
10
-3.1005857636
20
3.3624948687
30
0.0000000000
11
-3.1408322031
21
3.1065287462
31
0.0000000000
11
-3.1310584328
21
3.1356084883
31
0.0000000000
11
-3.1083775094
21
3.2409899217
31
0.0000000000
11
-3.1005857636
21
3.3624948687
31
0.0000000000
0
SPLINE
5
424
100
AcDbEntity
8
0
100
AcDbSpline
62
0
6
CONTINUOUS
70
0
71
3
72
9
73
5
74
3
42
0.0000001000
43
0.0000001000
44
0.0000000001
12
0.0000000000
22
0.1348716125
32
0.0000000000
13
-0.0204184265
23
0.1333705911
33
0.0000000000
40
0.0000000000
40
0.0000000000
40
0.0000000000
40
0.0000000000
40
0.9027438689
40
1.0000000000
40
1.0000000000
40
1.0000000000
40
1.0000000000
10
-3.1005857636
20
3.3624948687
30
0.0000000000
10
-3.1005857636
20
3.4030797091
30
0.0000000000
10
-3.1031717652
20
3.4481460659
30
0.0000000000
10
-3.1095896154
20
3.4926643524
30
0.0000000000
10
-3.1102515545
20
3.4969880549
30
0.0000000000
11
-3.1005857636
21
3.3624948687
31
0.0000000000
11
-3.1083775094
21
3.4839998157
31
0.0000000000
11
-3.1102515545
21
3.4969880549
31
0.0000000000
0
SPLINE
5
425
100
AcDbEntity
8
0
100
AcDbSpline
62
0
6
CONTINUOUS
70
0
71
3
72
10
73
6
74
4
42
0.0000001000
43
0.0000001000
44
0.0000000001
12
-0.0463084585
22
0.3024810206
32
0.0000000000
13
-0.2031437236
23
0.2303874033
33
0.0000000000
40
0.0000000000
40
0.0000000000
40
0.0000000000
40
0.0000000000
40
0.3095195690
40
0.9227937743
40
1.0000000000
40
1.0000000000
40
1.0000000000
40
1.0000000000
10
-3.1102515545
20
3.4969880549
30
0.0000000000
10
-3.1150293459
20
3.5281959866
30
0.0000000000
10
-3.1351393016
20
3.6203106631
30
0.0000000000
10
-3.1813851559
20
3.7142741782
30
0.0000000000
10
-3.2267432175
20
3.7685098788
30
0.0000000000
10
-3.2319712042
20
3.7744389927
30
0.0000000000
11
-3.1102515545
21
3.4969880549
31
0.0000000000
11
-3.1310584328
21
3.5893812491
31
0.0000000000
11
-3.2167676367
21
3.7562480430
31
0.0000000000
11
-3.2319712042
21
3.7744389927
31
0.0000000000
0
SPLINE
5
426
100
AcDbEntity
8
0
100
AcDbSpline
62
0
6
CONTINUOUS
70
0
71
3
72
8
73
4
74
2
42
0.0000001000
43
0.0000001000
44
0.0000000001
12
-0.0901440685
22
0.1022333227
32
0.0000000000
13
-0.1145101920
23
0.0741808376
33
0.0000000000
40
0.0000000000
40
0.0000000000
40
0.0000000000
40
0.0000000000
40
1.0000000000
40
1.0000000000
40
1.0000000000
40
1.0000000000
10
-3.2319712042
20
3.7744389927
30
0.0000000000
10
-3.2620192271
20
3.8085167670
30
0.0000000000
10
-3.2972293212
20
3.8381262398
30
0.0000000000
10
-3.3353993852
20
3.8628531856
30
0.0000000000
11
-3.2319712042
21
3.7744389927
31
0.0000000000
11
-3.3353993852
21
3.8628531856
31
0.0000000000
0
SPLINE
5
427
100
AcDbEntity
8
0
100
AcDbSpline
62
0
6
CONTINUOUS
70
0
71
3
72
9
73
5
74
3
42
0.0000001000
43
0.0000001000
44
0.0000000001
12
-0.0567622025
22
0.0367711175
32
0.0000000000
13
-0.0604905990
23
0.0297929555
33
0.0000000000
40
0.0000000000
40
0.0000000000
40
0.0000000000
40
0.0000000000
40
0.2387662701
40
1.0000000000
40
1.0000000000
40
1.0000000000
40
1.0000000000
10
-3.3353993852
20
3.8628531856
30
0.0000000000
10
-3.3399170183
20
3.8657797532
30
0.0000000000
10
-3.3590114088
20
3.8777503430
30
0.0000000000
10
-3.3787690651
20
3.8885091805
30
0.0000000000
10
-3.3941182266
20
3.8960689814
30
0.0000000000
11
-3.3353993852
21
3.8628531856
31
0.0000000000
11
-3.3490730235
21
3.8714270181
31
0.0000000000
11
-3.3941182266
21
3.8960689814
31
0.0000000000
0
SPLINE
5
428
100
AcDbEntity
8
0
100
AcDbSpline
62
0
6
CONTINUOUS
70
0
71
3
72
9
73
5
74
3
42
0.0000001000
43
0.0000001000
44
0.0000000001
12
-0.2251894753
22
0.1109107884
32
0.0000000000
13
-0.2471437008
23
0.0424701227
33
0.0000000000
40
0.0000000000
40
0.0000000000
40
0.0000000000
40
0.0000000000
40
0.5333030399
40
1.0000000000
40
1.0000000000
40
1.0000000000
40
1.0000000000
10
-3.3941182266
20
3.8960689814
30
0.0000000000
10
-3.4341496371
20
3.9157853349
30
0.0000000000
10
-3.5131534697
20
3.9447179438
30
0.0000000000
10
-3.5948447545
20
3.9630695727
30
0.0000000000
10
-3.6332918258
20
3.9696764651
30
0.0000000000
11
-3.3941182266
21
3.8960689814
31
0.0000000000
11
-3.5191799493
21
3.9436356724
31
0.0000000000
11
-3.6332918258
21
3.9696764651
31
0.0000000000
0
SPLINE
5
429
100
AcDbEntity
8
0
100
AcDbSpline
62
0
6
CONTINUOUS
70
0
71
3
72
9
73
5
74
3
42
0.0000001000
43
0.0000001000
44
0.0000000001
12
-0.2581236042
22
0.0443569515
32
0.0000000000
13
-0.2615754973
23
0.0086118352
33
0.0000000000
40
0.0000000000
40
0.0000000000
40
0.0000000000
40
0.0000000000
40
0.3282894820
40
1.0000000000
40
1.0000000000
40
1.0000000000
40
1.0000000000
10
-3.6332918258
20
3.9696764651
30
0.0000000000
10
-3.6615382472
20
3.9745304387
30
0.0000000000
10
-3.7481088623
20
3.9860972285
30
0.0000000000
10
-3.8353231424
20
3.9891352799
30
0.0000000000
10
-3.8938908134
20
3.9910635000
30
0.0000000000
11
-3.6332918258
21
3.9696764651
31
0.0000000000
11
-3.7184480623
21
3.9812057734
31
0.0000000000
11
-3.8938908134
21
3.9910635000
31
0.0000000000
0
SPLINE
5
42A
100
AcDbEntity
8
0
100
AcDbSpline
62
0
6
CONTINUOUS
70
0
71
3
72
8
73
4
74
2
42
0.0000001000
43
0.0000001000
44
0.0000000001
12
-0.0502420184
22
0.0016541151
32
0.0000000000
13
-0.0502131925
23
0.0018609672
33
0.0000000000
40
0.0000000000
40
0.0000000000
40
0.0000000000
40
0.0000000000
40
1.0000000000
40
1.0000000000
40
1.0000000000
40
1.0000000000
10
-3.8938908134
20
3.9910635000
30
0.0000000000
10
-3.9106381528
20
3.9916148717
30
0.0000000000
10
-3.9273842594
20
3.9921570470
30
0.0000000000
10
-3.9441219903
20
3.9927773694
30
0.0000000000
11
-3.8938908134
21
3.9910635000
31
0.0000000000
11
-3.9441219903
21
3.9927773694
31
0.0000000000
0
SPLINE
5
42B
100
AcDbEntity
8
0
100
AcDbSpline
62
0
6
CONTINUOUS
70
0
71
3
72
8
73
4
74
2
42
0.0000001000
43
0.0000001000
44
0.0000000001
12
0.1410266807
22
-0.0000152493
32
0.0000000000
13
0.1410266627
23
0.0000899271
33
0.0000000000
40
0.0000000000
40
0.0000000000
40
0.0000000000
40
0.0000000000
40
1.0000000000
40
1.0000000000
40
1.0000000000
40
1.0000000000
10
-4.0256307041
20
-19.7852556304
30
0.0000000000
10
-3.9786218105
20
-19.7852607134
30
0.0000000000
10
-3.9316129155
20
-19.7852447501
30
0.0000000000
10
-3.8846040280
20
-19.7852147744
30
0.0000000000
11
-4.0256307041
21
-19.7852556304
31
0.0000000000
11
-3.8846040280
21
-19.7852147744
31
0.0000000000
0
SPLINE
5
42C
100
AcDbEntity
8
0
100
AcDbSpline
62
0
6
CONTINUOUS
70
0
71
3
72
9
73
5
74
3
42
0.0000001000
43
0.0000001000
44
0.0000000001
12
0.2167209644
22
0.0001381943
32
0.0000000000
13
0.2167207951
23
0.0002937839
33
0.0000000000
40
0.0000000000
40
0.0000000000
40
0.0000000000
40
0.0000000000
40
0.3301895020
40
1.0000000000
40
1.0000000000
40
1.0000000000
40
1.0000000000
10
-3.8846040280
20
-19.7852147744
30
0.0000000000
10
-3.8607510322
20
-19.7851995643
30
0.0000000000
10
-3.7885107165
20
-19.7851425732
30
0.0000000000
10
-3.7162704287
20
-19.7850609199
30
0.0000000000
10
-3.6678831408
20
-19.7849953267
30
0.0000000000
11
-3.8846040280
21
-19.7852147744
31
0.0000000000
11
-3.8130450475
21
-19.7851592398
31
0.0000000000
11
-3.6678831408
21
-19.7849953267
31
0.0000000000
0
SPLINE
5
42D
100
AcDbEntity
8
0
100
AcDbSpline
62
0
6
CONTINUOUS
70
0
71
3
72
8
73
4
74
2
42
0.0000001000
43
0.0000001000
44
0.0000000001
12
0.0736976386
22
0.0000999036
32
0.0000000000
13
0.0736976139
23
0.0001166976
33
0.0000000000
40
0.0000000000
40
0.0000000000
40
0.0000000000
40
0.0000000000
40
1.0000000000
40
1.0000000000
40
1.0000000000
40
1.0000000000
10
-3.6678831408
20
-19.7849953267
30
0.0000000000
10
-3.6433172612
20
-19.7849620255
30
0.0000000000
10
-3.6187513856
20
-19.7849259146
30
0.0000000000
10
-3.5941855143
20
-19.7848870154
30
0.0000000000
11
-3.6678831408
21
-19.7849953267
31
0.0000000000
11
-3.5941855143
21
-19.7848870154
31
0.0000000000
0
SPLINE
5
42E
100
AcDbEntity
8
0
100
AcDbSpline
62
0
6
CONTINUOUS
70
0
71
3
72
8
73
4
74
2
42
0.0000001000
43
0.0000001000
44
0.0000000001
12
0.1947448307
22
0.0003083718
32
0.0000000000
13
0.1947446489
23
0.0004080092
33
0.0000000000
40
0.0000000000
40
0.0000000000
40
0.0000000000
40
0.0000000000
40
1.0000000000
40
1.0000000000
40
1.0000000000
40
1.0000000000
10
-3.5941855143
20
-19.7848870154
30
0.0000000000
10
-3.5292705707
20
-19.7847842248
30
0.0000000000
10
-3.4643556571
20
-19.7846619642
30
0.0000000000
10
-3.3994407742
20
-19.7845259612
30
0.0000000000
11
-3.5941855143
21
-19.7848870154
31
0.0000000000
11
-3.3994407742
21
-19.7845259612
31
0.0000000000
0
SPLINE
5
42F
100
AcDbEntity
8
0
100
AcDbSpline
62
0
6
CONTINUOUS
70
0
71
3
72
8
73
4
74
2
42
0.0000001000
43
0.0000001000
44
0.0000000001
12
0.0310279072
22
0.0000650065
32
0.0000000000
13
0.0310279026
23
0.0000670301
33
0.0000000000
40
0.0000000000
40
0.0000000000
40
0.0000000000
40
0.0000000000
40
1.0000000000
40
1.0000000000
40
1.0000000000
40
1.0000000000
10
-3.3994407742
20
-19.7845259612
30
0.0000000000
10
-3.3890981384
20
-19.7845042923
30
0.0000000000
10
-3.3787555035
20
-19.7844822746
30
0.0000000000
10
-3.3684128693
20
-19.7844599312
30
0.0000000000
11
-3.3994407742
21
-19.7845259612
31
0.0000000000
11
-3.3684128693
21
-19.7844599312
31
0.0000000000
0
SPLINE
5
430
100
AcDbEntity
8
0
100
AcDbSpline
62
0
6
CONTINUOUS
70
0
71
3
72
8
73
4
74
2
42
0.0000001000
43
0.0000001000
44
0.0000000001
12
0.2257272169
22
-0.0005059749
32
0.0000000000
13
0.2257275127
23
-0.0003544315
33
0.0000000000
40
0.0000000000
40
0.0000000000
40
0.0000000000
40
0.0000000000
40
1.0000000000
40
1.0000000000
40
1.0000000000
40
1.0000000000
10
3.6266757628
20
-19.7844599312
30
0.0000000000
10
3.7019181684
20
-19.7846285896
30
0.0000000000
10
3.7771606384
20
-19.7847689704
30
0.0000000000
10
3.8524031426
20
-19.7848871142
30
0.0000000000
11
3.6266757628
21
-19.7844599312
31
0.0000000000
11
3.8524031426
21
-19.7848871142
31
0.0000000000
0
SPLINE
5
431
100
AcDbEntity
8
0
100
AcDbSpline
62
0
6
CONTINUOUS
70
0
71
3
72
8
73
4
74
2
42
0.0000001000
43
0.0000001000
44
0.0000000001
12
0.2188505662
22
-0.0003436335
32
0.0000000000
13
0.2188507521
23
-0.0001910050
33
0.0000000000
40
0.0000000000
40
0.0000000000
40
0.0000000000
40
0.0000000000
40
1.0000000000
40
1.0000000000
40
1.0000000000
40
1.0000000000
10
3.8524031426
20
-19.7848871142
30
0.0000000000
10
3.9253533313
20
-19.7850016587
30
0.0000000000
10
3.9983035523
20
-19.7850953005
30
0.0000000000
10
4.0712538030
20
-19.7851589688
30
0.0000000000
11
3.8524031426
21
-19.7848871142
31
0.0000000000
11
4.0712538030
21
-19.7851589688
31
0.0000000000
0
SPLINE
5
432
100
AcDbEntity
8
0
100
AcDbSpline
62
0
6
CONTINUOUS
70
0
71
3
72
8
73
4
74
2
42
0.0000001000
43
0.0000001000
44
0.0000000001
12
0.0715700188
22
-0.0000624637
32
0.0000000000
13
0.0715700343
23
-0.0000427689
33
0.0000000000
40
0.0000000000
40
0.0000000000
40
0.0000000000
40
0.0000000000
40
1.0000000000
40
1.0000000000
40
1.0000000000
40
1.0000000000
10
4.0712538030
20
-19.7851589688
30
0.0000000000
10
4.0951104759
20
-19.7851797901
30
0.0000000000
10
4.1189671520
20
-19.7851974057
30
0.0000000000
10
4.1428238301
20
-19.7852116621
30
0.0000000000
11
4.0712538030
21
-19.7851589688
31
0.0000000000
11
4.1428238301
21
-19.7852116621
31
0.0000000000
0
SPLINE
5
433
100
AcDbEntity
8
0
100
AcDbSpline
62
0
6
CONTINUOUS
70
0
71
3
72
8
73
4
74
2
42
0.0000001000
43
0.0000001000
44
0.0000000001
12
0.1410697534
22
-0.0000843007
32
0.0000000000
13
0.1410697725
23
-0.0000024581
33
0.0000000000
40
0.0000000000
40
0.0000000000
40
0.0000000000
40
0.0000000000
40
1.0000000000
40
1.0000000000
40
1.0000000000
40
1.0000000000
10
4.1428238301
20
-19.7852116621
30
0.0000000000
10
4.1898470812
20
-19.7852397623
30
0.0000000000
10
4.2368703401
20
-19.7852548110
30
0.0000000000
10
4.2838935976
20
-19.7852556304
30
0.0000000000
11
4.1428238301
21
-19.7852116621
31
0.0000000000
11
4.2838935976
21
-19.7852556304
31
0.0000000000
0
SPLINE
5
434
100
AcDbEntity
8
0
100
AcDbSpline
62
0
6
CONTINUOUS
70
0
71
3
72
15
73
11
74
9
42
0.0000001000
43
0.0000001000
44
0.0000000001
12
-1.2544455271
22
0.0000000000
32
0.0000000000
13
-0.0000000000
23
-1.2544455271
33
0.0000000000
40
0.0000000000
40
0.0000000000
40
0.0000000000
40
0.0000000000
40
0.1249999808
40
0.2499998107
40
0.3750000467
40
0.5000001768
40
0.6250002546
40
0.7500003661
40
0.8750000750
40
1.0000000000
40
1.0000000000
40
1.0000000000
40
1.0000000000
10
-9.9709903971
20
22.1177773694
30
0.0000000000
10
-10.0232589527
20
22.1177773694
30
0.0000000000
10
-10.1280856355
20
22.1074679362
30
0.0000000000
10
-10.2790597209
20
22.0616639128
30
0.0000000000
10
-10.4182581412
20
21.9872759789
30
0.0000000000
10
-10.5402504928
20
21.8871590227
30
0.0000000000
10
-10.6403673521
20
21.7651666605
30
0.0000000000
10
-10.7147551736
20
21.6259683246
30
0.0000000000
10
-10.7605591319
20
21.4749943541
30
0.0000000000
10
-10.7708685532
20
21.3701677456
30
0.0000000000
10
-10.7708685532
20
21.3178992133
30
0.0000000000
11
-9.9709903971
21
22.1177773694
31
0.0000000000
11
-10.1270413522
21
22.1024112850
31
0.0000000000
11
-10.2770969434
21
22.0568999971
31
0.0000000000
11
-10.4153904838
21
21.9829877908
31
0.0000000000
11
-10.5366045997
21
21.8835131007
31
0.0000000000
11
-10.6360791856
21
21.7622989842
31
0.0000000000
11
-10.7099912661
21
21.6240055537
31
0.0000000000
11
-10.7555024825
21
21.4739500994
31
0.0000000000
11
-10.7708685532
21
21.3178992133
31
0.0000000000
0
SPLINE
5
435
100
AcDbEntity
8
0
100
AcDbSpline
62
0
6
CONTINUOUS
70
0
71
3
72
15
73
11
74
9
42
0.0000001000
43
0.0000001000
44
0.0000000001
12
0.0000000000
22
-1.2544455271
32
0.0000000000
13
1.2544455271
23
0.0000000000
33
0.0000000000
40
0.0000000000
40
0.0000000000
40
0.0000000000
40
0.0000000000
40
0.1249999808
40
0.2499998107
40
0.3750000467
40
0.5000001768
40
0.6250002546
40
0.7500003661
40
0.8750000750
40
1.0000000000
40
1.0000000000
40
1.0000000000
40
1.0000000000
10
-10.7708685532
20
-20.3823444744
30
0.0000000000
10
-10.7708685532
20
-20.4346130300
30
0.0000000000
10
-10.7605591200
20
-20.5394397129
30
0.0000000000
10
-10.7147550966
20
-20.6904137982
30
0.0000000000
10
-10.6403671627
20
-20.8296122185
30
0.0000000000
10
-10.5402502065
20
-20.9516045701
30
0.0000000000
10
-10.4182578443
20
-21.0517214295
30
0.0000000000
10
-10.2790595084
20
-21.1261092509
30
0.0000000000
10
-10.1280855379
20
-21.1719132093
30
0.0000000000
10
-10.0232589294
20
-21.1822226306
30
0.0000000000
10
-9.9709903971
20
-21.1822226306
30
0.0000000000
11
-10.7708685532
21
-20.3823444744
31
0.0000000000
11
-10.7555024688
21
-20.5383954295
31
0.0000000000
11
-10.7099911809
21
-20.6884510207
31
0.0000000000
11
-10.6360789746
21
-20.8267445611
31
0.0000000000
11
-10.5366042845
21
-20.9479586771
31
0.0000000000
11
-10.4153901680
21
-21.0474332629
31
0.0000000000
11
-10.2770967375
21
-21.1213453435
31
0.0000000000
11
-10.1270412832
21
-21.1668565599
31
0.0000000000
11
-9.9709903971
21
-21.1822226306
31
0.0000000000
0
SPLINE
5
436
100
AcDbEntity
8
0
100
AcDbSpline
62
0
6
CONTINUOUS
70
0
71
3
72
15
73
11
74
9
42
0.0000001000
43
0.0000001000
44
0.0000000001
12
0.0000000000
22
1.2544455271
32
0.0000000000
13
-1.2544455271
23
-0.0000000000
33
0.0000000000
40
0.0000000000
40
0.0000000000
40
0.0000000000
40
0.0000000000
40
0.1249999808
40
0.2499998107
40
0.3750000467
40
0.5000001768
40
0.6250002546
40
0.7500003661
40
0.8750000750
40
1.0000000000
40
1.0000000000
40
1.0000000000
40
1.0000000000
10
11.0291314468
20
21.3178992133
30
0.0000000000
10
11.0291314468
20
21.3701677689
30
0.0000000000
10
11.0188220136
20
21.4749944517
30
0.0000000000
10
10.9730179901
20
21.6259685371
30
0.0000000000
10
10.8986300562
20
21.7651669574
30
0.0000000000
10
10.7985131000
20
21.8871593090
30
0.0000000000
10
10.6765207379
20
21.9872761683
30
0.0000000000
10
10.5373224020
20
22.0616639898
30
0.0000000000
10
10.3863484314
20
22.1074679481
30
0.0000000000
10
10.2815218229
20
22.1177773694
30
0.0000000000
10
10.2292532906
20
22.1177773694
30
0.0000000000
11
11.0291314468
21
21.3178992133
31
0.0000000000
11
11.0137653624
21
21.4739501684
31
0.0000000000
11
10.9682540744
21
21.6240057596
31
0.0000000000
11
10.8943418682
21
21.7622993000
31
0.0000000000
11
10.7948671781
21
21.8835134159
31
0.0000000000
11
10.6736530616
21
21.9829880018
31
0.0000000000
11
10.5353596310
21
22.0569000824
31
0.0000000000
11
10.3853041767
21
22.1024112987
31
0.0000000000
11
10.2292532906
21
22.1177773694
31
0.0000000000
0
SPLINE
5
437
100
AcDbEntity
8
0
100
AcDbSpline
62
0
6
CONTINUOUS
70
0
71
3
72
15
73
11
74
9
42
0.0000001000
43
0.0000001000
44
0.0000000001
12
1.2544455271
22
0.0000000000
32
0.0000000000
13
0.0000000000
23
1.2544455271
33
0.0000000000
40
0.0000000000
40
0.0000000000
40
0.0000000000
40
0.0000000000
40
0.1249999808
40
0.2499998107
40
0.3750000467
40
0.5000001768
40
0.6250002546
40
0.7500003661
40
0.8750000750
40
1.0000000000
40
1.0000000000
40
1.0000000000
40
1.0000000000
10
10.2292532906
20
-21.1822226306
30
0.0000000000
10
10.2815218462
20
-21.1822226306
30
0.0000000000
10
10.3863485291
20
-21.1719131974
30
0.0000000000
10
10.5373226144
20
-21.1261091739
30
0.0000000000
10
10.6765210347
20
-21.0517212400
30
0.0000000000
10
10.7985133863
20
-20.9516042838
30
0.0000000000
10
10.8986302457
20
-20.8296119217
30
0.0000000000
10
10.9730180671
20
-20.6904135857
30
0.0000000000
10
11.0188220255
20
-20.5394396152
30
0.0000000000
10
11.0291314468
20
-20.4346130067
30
0.0000000000
10
11.0291314468
20
-20.3823444744
30
0.0000000000
11
10.2292532906
21
-21.1822226306
31
0.0000000000
11
10.3853042457
21
-21.1668565462
31
0.0000000000
11
10.5353598370
21
-21.1213452582
31
0.0000000000
11
10.6736533774
21
-21.0474330520
31
0.0000000000
11
10.7948674933
21
-20.9479583619
31
0.0000000000
11
10.8943420792
21
-20.8267442454
31
0.0000000000
11
10.9682541597
21
-20.6884508148
31
0.0000000000
11
11.0137653761
21
-20.5383953605
31
0.0000000000
11
11.0291314468
21
-20.3823444744
31
0.0000000000
0
SPLINE
5
438
100
AcDbEntity
8
0
100
AcDbSpline
62
0
6
CONTINUOUS
70
0
71
3
72
10
73
6
74
4
42
0.0000001000
43
0.0000001000
44
0.0000000001
12
-0.0005365532
22
-0.4375069623
32
0.0000000000
13
-0.4383143187
23
-0.0393041685
33
0.0000000000
40
0.0000000000
40
0.0000000000
40
0.0000000000
40
0.0000000000
40
0.3515661539
40
0.7047300360
40
1.0000000000
40
1.0000000000
40
1.0000000000
40
1.0000000000
10
-4.4931449127
20
20.1972123924
30
0.0000000000
10
-4.4932077907
20
20.1459415124
30
0.0000000000
10
-4.5215949015
20
20.0412290354
30
0.0000000000
10
-4.6298780522
20
19.9343225340
30
0.0000000000
10
-4.7240185788
20
19.9051851367
30
0.0000000000
10
-4.7671589299
20
19.9013166898
30
0.0000000000
11
-4.4931449127
21
20.1972123924
31
0.0000000000
11
-4.5334571001
21
20.0487762399
31
0.0000000000
11
-4.6432442776
21
19.9400533638
31
0.0000000000
11
-4.7671589299
21
19.9013166898
31
0.0000000000
0
SPLINE
5
439
100
AcDbEntity
8
0
100
AcDbSpline
62
0
6
CONTINUOUS
70
0
71
3
72
8
73
4
74
2
42
0.0000001000
43
0.0000001000
44
0.0000000001
12
-0.0259795242
22
-0.0023296150
32
0.0000000000
13
-0.0259316717
23
-0.0000311887
33
0.0000000000
40
0.0000000000
40
0.0000000000
40
0.0000000000
40
0.0000000000
40
1.0000000000
40
1.0000000000
40
1.0000000000
40
1.0000000000
10
-4.7671589299
20
19.9013166898
30
0.0000000000
10
-4.7758187713
20
19.9005401515
30
0.0000000000
10
-4.7844895990
20
19.9001423680
30
0.0000000000
10
-4.7931334896
20
19.9001319718
30
0.0000000000
11
-4.7671589299
21
19.9013166898
31
0.0000000000
11
-4.7931334896
21
19.9001319718
31
0.0000000000
0
SPLINE
5
43A
100
AcDbEntity
8
0
100
AcDbSpline
62
0
6
CONTINUOUS
70
0
71
3
72
8
73
4
74
2
42
0.0000001000
43
0.0000001000
44
0.0000000001
12
-0.0261526328
22
-0.0023554828
32
0.0000000000
13
-0.0261020025
23
0.0000000000
33
0.0000000000
40
0.0000000000
40
0.0000000000
40
0.0000000000
40
0.0000000000
40
1.0000000000
40
1.0000000000
40
1.0000000000
40
1.0000000000
10
-4.7565142837
20
18.9689598461
30
0.0000000000
10
-4.7652318280
20
18.9681746852
30
0.0000000000
10
-4.7739605808
20
18.9677773694
30
0.0000000000
10
-4.7826612483
20
18.9677773694
30
0.0000000000
11
-4.7565142837
21
18.9689598461
31
0.0000000000
11
-4.7826612483
21
18.9677773694
31
0.0000000000
0
SPLINE
5
43B
100
AcDbEntity
8
0
100
AcDbSpline
62
0
6
CONTINUOUS
70
0
71
3
72
9
73
5
74
3
42
0.0000001000
43
0.0000001000
44
0.0000000001
12
-0.3096260021
22
0.0003723951
32
0.0000000000
13
-0.1575456116
23
0.2713195887
33
0.0000000000
40
0.0000000000
40
0.0000000000
40
0.0000000000
40
0.0000000000
40
0.5009732366
40
1.0000000000
40
1.0000000000
40
1.0000000000
40
1.0000000000
10
-4.9486036168
20
19.9001319718
30
0.0000000000
10
-5.0003083970
20
19.9001941584
30
0.0000000000
10
-5.1054409551
20
19.9279860309
30
0.0000000000
10
-5.1820735142
20
20.0036443279
30
0.0000000000
10
-5.2082800064
20
20.0487762399
30
0.0000000000
11
-4.9486036168
21
19.9001319718
31
0.0000000000
11
-5.0984928288
21
19.9400533638
31
0.0000000000
11
-5.2082800064
21
20.0487762399
31
0.0000000000
0
SPLINE
5
43C
100
AcDbEntity
8
0
100
AcDbSpline
62
0
6
CONTINUOUS
70
0
71
3
72
8
73
4
74
2
42
0.0000001000
43
0.0000001000
44
0.0000000001
12
-0.0520525032
22
0.0896430158
32
0.0000000000
13
-0.0184816145
23
0.1017389658
33
0.0000000000
40
0.0000000000
40
0.0000000000
40
0.0000000000
40
0.0000000000
40
1.0000000000
40
1.0000000000
40
1.0000000000
40
1.0000000000
10
-5.2082800064
20
20.0487762399
30
0.0000000000
10
-5.2256308408
20
20.0786572452
30
0.0000000000
10
-5.2377060193
20
20.1117717085
30
0.0000000000
10
-5.2438665574
20
20.1456846971
30
0.0000000000
11
-5.2082800064
21
20.0487762399
31
0.0000000000
11
-5.2438665574
21
20.1456846971
31
0.0000000000
0
SPLINE
5
43D
100
AcDbEntity
8
0
100
AcDbSpline
62
0
6
CONTINUOUS
70
0
71
3
72
8
73
4
74
2
42
0.0000001000
43
0.0000001000
44
0.0000000001
12
-0.0044835478
22
0.0246813672
32
0.0000000000
13
-0.0023676361
23
0.0248590450
33
0.0000000000
40
0.0000000000
40
0.0000000000
40
0.0000000000
40
0.0000000000
40
1.0000000000
40
1.0000000000
40
1.0000000000
40
1.0000000000
10
-5.2438665574
20
20.1456846971
30
0.0000000000
10
-5.2453610734
20
20.1539118195
30
0.0000000000
10
-5.2465074988
20
20.1621859370
30
0.0000000000
10
-5.2472967108
20
20.1704722853
30
0.0000000000
11
-5.2438665574
21
20.1456846971
31
0.0000000000
11
-5.2472967108
21
20.1704722853
31
0.0000000000
0
SPLINE
5
43E
100
AcDbEntity
8
0
100
AcDbSpline
62
0
6
CONTINUOUS
70
0
71
3
72
8
73
4
74
2
42
0.0000001000
43
0.0000001000
44
0.0000000001
12
-0.0025468705
22
0.0267409210
32
0.0000000000
13
-0.0000327397
23
0.0266960211
33
0.0000000000
40
0.0000000000
40
0.0000000000
40
0.0000000000
40
0.0000000000
40
1.0000000000
40
1.0000000000
40
1.0000000000
40
1.0000000000
10
-5.2472967108
20
20.1704722853
30
0.0000000000
10
-5.2481456677
20
20.1793859256
30
0.0000000000
10
-5.2485812805
20
20.1883137187
30
0.0000000000
10
-5.2485921938
20
20.1972123924
30
0.0000000000
11
-5.2472967108
21
20.1704722853
31
0.0000000000
11
-5.2485921938
21
20.1972123924
31
0.0000000000
0
SPLINE
5
43F
100
AcDbEntity
8
0
100
AcDbSpline
62
0
6
CONTINUOUS
70
0
71
3
72
8
73
4
74
2
42
0.0000001000
43
0.0000001000
44
0.0000000001
12
-0.0520499026
22
0.0000000000
32
0.0000000000
13
-0.0517852511
23
0.0092540774
33
0.0000000000
40
0.0000000000
40
0.0000000000
40
0.0000000000
40
0.0000000000
40
1.0000000000
40
1.0000000000
40
1.0000000000
40
1.0000000000
10
-4.9590758582
20
18.9677773694
30
0.0000000000
10
-4.9764258257
20
18.9677773694
30
0.0000000000
10
-4.9938874722
20
18.9693572635
30
0.0000000000
10
-5.0111492225
20
18.9724419560
30
0.0000000000
11
-4.9590758582
21
18.9677773694
31
0.0000000000
11
-5.0111492225
21
18.9724419560
31
0.0000000000
0
SPLINE
5
440
100
AcDbEntity
8
0
100
AcDbSpline
62
0
6
CONTINUOUS
70
0
71
3
72
9
73
5
74
3
42
0.0000001000
43
0.0000001000
44
0.0000000001
12
-0.2057271791
22
0.0367636576
32
0.0000000000
13
-0.1343836437
23
0.1601691621
33
0.0000000000
40
0.0000000000
40
0.0000000000
40
0.0000000000
40
0.0000000000
40
0.4992587610
40
1.0000000000
40
1.0000000000
40
1.0000000000
40
1.0000000000
10
-5.0111492225
20
18.9724419560
30
0.0000000000
10
-5.0453862547
20
18.9785601487
30
0.0000000000
10
-5.1123869068
20
19.0026717112
30
0.0000000000
10
-5.1664795830
20
19.0481818002
30
0.0000000000
10
-5.1889100604
20
19.0749162351
30
0.0000000000
11
-5.0111492225
21
18.9724419560
31
0.0000000000
11
-5.1090701467
21
19.0079697483
31
0.0000000000
11
-5.1889100604
21
19.0749162351
31
0.0000000000
0
SPLINE
5
441
100
AcDbEntity
8
0
100
AcDbSpline
62
0
6
CONTINUOUS
70
0
71
3
72
9
73
5
74
3
42
0.0000001000
43
0.0000001000
44
0.0000000001
12
-0.1007234916
22
0.1200503039
32
0.0000000000
13
-0.0275529456
23
0.1541972305
33
0.0000000000
40
0.0000000000
40
0.0000000000
40
0.0000000000
40
0.0000000000
40
0.3338767931
40
1.0000000000
40
1.0000000000
40
1.0000000000
40
1.0000000000
10
-5.1889100604
20
19.0749162351
30
0.0000000000
10
-5.2001198059
20
19.0882769053
30
0.0000000000
10
-5.2302114342
20
19.1312452053
30
0.0000000000
10
-5.2482821842
20
19.1814638935
30
0.0000000000
10
-5.2544000697
20
19.2157020114
30
0.0000000000
11
-5.1889100604
21
19.0749162351
31
0.0000000000
11
-5.2188735867
21
19.1177773694
31
0.0000000000
11
-5.2544000697
21
19.2157020114
31
0.0000000000
0
SPLINE
5
442
100
AcDbEntity
8
0
100
AcDbSpline
62
0
6
CONTINUOUS
70
0
71
3
72
8
73
4
74
2
42
0.0000001000
43
0.0000001000
44
0.0000000001
12
-0.0046138457
22
0.0258209135
32
0.0000000000
13
-0.0023414663
23
0.0260031960
33
0.0000000000
40
0.0000000000
40
0.0000000000
40
0.0000000000
40
0.0000000000
40
1.0000000000
40
1.0000000000
40
1.0000000000
40
1.0000000000
10
-5.2544000697
20
19.2157020114
30
0.0000000000
10
-5.2559380182
20
19.2243089826
30
0.0000000000
10
-5.2571018880
20
19.2329656428
30
0.0000000000
10
-5.2578823768
20
19.2416333748
30
0.0000000000
11
-5.2544000697
21
19.2157020114
31
0.0000000000
11
-5.2578823768
21
19.2416333748
31
0.0000000000
0
SPLINE
5
443
100
AcDbEntity
8
0
100
AcDbSpline
62
0
6
CONTINUOUS
70
0
71
3
72
8
73
4
74
2
42
0.0000001000
43
0.0000001000
44
0.0000000001
12
-0.0023546563
22
0.0261496775
32
0.0000000000
13
0.0000000000
23
0.0260990382
33
0.0000000000
40
0.0000000000
40
0.0000000000
40
0.0000000000
40
0.0000000000
40
1.0000000000
40
1.0000000000
40
1.0000000000
40
1.0000000000
10
-5.2578823768
20
19.2416333748
30
0.0000000000
10
-5.2586672622
20
19.2503499340
30
0.0000000000
10
-5.2590644351
20
19.2590776900
30
0.0000000000
10
-5.2590644351
20
19.2677773694
30
0.0000000000
11
-5.2578823768
21
19.2416333748
31
0.0000000000
11
-5.2590644351
21
19.2677773694
31
0.0000000000
0
SPLINE
5
444
100
AcDbEntity
8
0
100
AcDbSpline
62
0
6
CONTINUOUS
70
0
71
3
72
10
73
6
74
4
42
0.0000001000
43
0.0000001000
44
0.0000000001
12
-0.0005365532
22
-0.4375069623
32
0.0000000000
13
-0.4383143187
23
-0.0393041685
33
0.0000000000
40
0.0000000000
40
0.0000000000
40
0.0000000000
40
0.0000000000
40
0.3515661539
40
0.7047300360
40
1.0000000000
40
1.0000000000
40
1.0000000000
40
1.0000000000
10
5.5068550873
20
20.1972123924
30
0.0000000000
10
5.5067922093
20
20.1459415124
30
0.0000000000
10
5.4784050985
20
20.0412290354
30
0.0000000000
10
5.3701219478
20
19.9343225340
30
0.0000000000
10
5.2759814212
20
19.9051851367
30
0.0000000000
10
5.2328410701
20
19.9013166898
30
0.0000000000
11
5.5068550873
21
20.1972123924
31
0.0000000000
11
5.4665428999
21
20.0487762399
31
0.0000000000
11
5.3567557224
21
19.9400533638
31
0.0000000000
11
5.2328410701
21
19.9013166898
31
0.0000000000
0
SPLINE
5
445
100
AcDbEntity
8
0
100
AcDbSpline
62
0
6
CONTINUOUS
70
0
71
3
72
8
73
4
74
2
42
0.0000001000
43
0.0000001000
44
0.0000000001
12
-0.0259795242
22
-0.0023296150
32
0.0000000000
13
-0.0259316717
23
-0.0000311887
33
0.0000000000
40
0.0000000000
40
0.0000000000
40
0.0000000000
40
0.0000000000
40
1.0000000000
40
1.0000000000
40
1.0000000000
40
1.0000000000
10
5.2328410701
20
19.9013166898
30
0.0000000000
10
5.2241812287
20
19.9005401515
30
0.0000000000
10
5.2155104010
20
19.9001423680
30
0.0000000000
10
5.2068665104
20
19.9001319718
30
0.0000000000
11
5.2328410701
21
19.9013166898
31
0.0000000000
11
5.2068665104
21
19.9001319718
31
0.0000000000
0
SPLINE
5
446
100
AcDbEntity
8
0
100
AcDbSpline
62
0
6
CONTINUOUS
70
0
71
3
72
8
73
4
74
2
42
0.0000001000
43
0.0000001000
44
0.0000000001
12
-0.0261526328
22
-0.0023554828
32
0.0000000000
13
-0.0261020025
23
0.0000000000
33
0.0000000000
40
0.0000000000
40
0.0000000000
40
0.0000000000
40
0.0000000000
40
1.0000000000
40
1.0000000000
40
1.0000000000
40
1.0000000000
10
5.2434857163
20
18.9689598461
30
0.0000000000
10
5.2347681720
20
18.9681746852
30
0.0000000000
10
5.2260394192
20
18.9677773694
30
0.0000000000
10
5.2173387517
20
18.9677773694
30
0.0000000000
11
5.2434857163
21
18.9689598461
31
0.0000000000
11
5.2173387517
21
18.9677773694
31
0.0000000000
0
SPLINE
5
447
100
AcDbEntity
8
0
100
AcDbSpline
62
0
6
CONTINUOUS
70
0
71
3
72
9
73
5
74
3
42
0.0000001000
43
0.0000001000
44
0.0000000001
12
-0.3096260021
22
0.0003723951
32
0.0000000000
13
-0.1575456116
23
0.2713195887
33
0.0000000000
40
0.0000000000
40
0.0000000000
40
0.0000000000
40
0.0000000000
40
0.5009732366
40
1.0000000000
40
1.0000000000
40
1.0000000000
40
1.0000000000
10
5.0513963832
20
19.9001319718
30
0.0000000000
10
4.9996916030
20
19.9001941584
30
0.0000000000
10
4.8945590449
20
19.9279860309
30
0.0000000000
10
4.8179264858
20
20.0036443279
30
0.0000000000
10
4.7917199936
20
20.0487762399
30
0.0000000000
11
5.0513963832
21
19.9001319718
31
0.0000000000
11
4.9015071712
21
19.9400533638
31
0.0000000000
11
4.7917199936
21
20.0487762399
31
0.0000000000
0
SPLINE
5
448
100
AcDbEntity
8
0
100
AcDbSpline
62
0
6
CONTINUOUS
70
0
71
3
72
8
73
4
74
2
42
0.0000001000
43
0.0000001000
44
0.0000000001
12
-0.0576624142
22
0.0993042100
32
0.0000000000
13
-0.0162119180
23
0.1131818109
33
0.0000000000
40
0.0000000000
40
0.0000000000
40
0.0000000000
40
0.0000000000
40
1.0000000000
40
1.0000000000
40
1.0000000000
40
1.0000000000
10
4.7917199936
20
20.0487762399
30
0.0000000000
10
4.7724991889
20
20.0818776433
30
0.0000000000
10
4.7597524761
20
20.1189470280
30
0.0000000000
10
4.7543485035
20
20.1566742983
30
0.0000000000
11
4.7917199936
21
20.0487762399
31
0.0000000000
11
4.7543485035
21
20.1566742983
31
0.0000000000
0
SPLINE
5
449
100
AcDbEntity
8
0
100
AcDbSpline
62
0
6
CONTINUOUS
70
0
71
3
72
8
73
4
74
2
42
0.0000001000
43
0.0000001000
44
0.0000000001
12
-0.0057921258
22
0.0404371211
32
0.0000000000
13
-0.0000496541
23
0.0404881109
33
0.0000000000
40
0.0000000000
40
0.0000000000
40
0.0000000000
40
0.0000000000
40
1.0000000000
40
1.0000000000
40
1.0000000000
40
1.0000000000
10
4.7543485035
20
20.1566742983
30
0.0000000000
10
4.7524177949
20
20.1701533386
30
0.0000000000
10
4.7514243576
20
20.1837163555
30
0.0000000000
10
4.7514078062
20
20.1972123924
30
0.0000000000
11
4.7543485035
21
20.1566742983
31
0.0000000000
11
4.7514078062
21
20.1972123924
31
0.0000000000
0
SPLINE
5
44A
100
AcDbEntity
8
0
100
AcDbSpline
62
0
6
CONTINUOUS
70
0
71
3
72
10
73
6
74
4
42
0.0000001000
43
0.0000001000
44
0.0000000001
12
-0.0935594899
22
-0.1769971526
32
0.0000000000
13
-0.2002033221
23
0.0000001408
33
0.0000000000
40
0.0000000000
40
0.0000000000
40
0.0000000000
40
0.0000000000
40
0.1404425094
40
0.5054232647
40
1.0000000000
40
1.0000000000
40
1.0000000000
40
1.0000000000
10
9.9304494034
20
-19.2204805525
30
0.0000000000
10
9.9260694935
20
-19.2287665272
30
0.0000000000
10
9.8815510311
20
-19.2171663539
30
0.0000000000
10
9.8240460772
20
-19.2306165905
30
0.0000000000
10
9.7634851661
20
-19.2270823893
30
0.0000000000
10
9.7304798643
20
-19.2270823660
30
0.0000000000
11
9.9304494034
21
-19.2204805525
31
0.0000000000
11
9.9025219557
21
-19.2237403926
31
0.0000000000
11
9.8294913971
21
-19.2261518192
31
0.0000000000
11
9.7304798643
21
-19.2270823660
31
0.0000000000
0
SPLINE
5
44B
100
AcDbEntity
8
0
100
AcDbSpline
62
0
6
CONTINUOUS
70
0
71
3
72
8
73
4
74
2
42
0.0000001000
43
0.0000001000
44
0.0000000001
12
-0.0427960460
22
0.0555357369
32
0.0000000000
13
-0.0419109352
23
0.0562135069
33
0.0000000000
40
0.0000000000
40
0.0000000000
40
0.0000000000
40
0.0000000000
40
1.0000000000
40
1.0000000000
40
1.0000000000
40
1.0000000000
10
-5.4766524150
20
-15.2787072604
30
0.0000000000
10
-5.4909177637
20
-15.2601953481
30
0.0000000000
10
-5.5050363629
20
-15.2415689965
30
0.0000000000
10
-5.5190066746
20
-15.2228311609
30
0.0000000000
11
-5.4766524150
21
-15.2787072604
31
0.0000000000
11
-5.5190066746
21
-15.2228311609
31
0.0000000000
0
SPLINE
5
44C
100
AcDbEntity
8
0
100
AcDbSpline
62
0
6
CONTINUOUS
70
0
71
3
72
9
73
5
74
3
42
0.0000001000
43
0.0000001000
44
0.0000000001
12
-0.1261194862
22
0.1691591605
32
0.0000000000
13
-0.1179320673
23
0.1749782353
33
0.0000000000
40
0.0000000000
40
0.0000000000
40
0.0000000000
40
0.0000000000
40
0.6660601010
40
1.0000000000
40
1.0000000000
40
1.0000000000
40
1.0000000000
10
-5.5190066746
20
-15.2228311609
30
0.0000000000
10
-5.5470077272
20
-15.1852744384
30
0.0000000000
10
-5.5881531645
20
-15.1282156391
30
0.0000000000
10
-5.6279278773
20
-15.0702009411
30
0.0000000000
10
-5.6410552849
20
-15.0507235364
30
0.0000000000
11
-5.5190066746
21
-15.2228311609
31
0.0000000000
11
-5.6012102926
21
-15.1088411880
31
0.0000000000
11
-5.6410552849
21
-15.0507235364
31
0.0000000000
0
SPLINE
5
44D
100
AcDbEntity
8
0
100
AcDbSpline
62
0
6
CONTINUOUS
70
0
71
3
72
8
73
4
74
2
42
0.0000001000
43
0.0000001000
44
0.0000000001
12
-0.0394686966
22
0.0585605174
32
0.0000000000
13
-0.0385285358
23
0.0591792562
33
0.0000000000
40
0.0000000000
40
0.0000000000
40
0.0000000000
40
0.0000000000
40
1.0000000000
40
1.0000000000
40
1.0000000000
40
1.0000000000
10
-5.6410552849
20
-15.0507235364
30
0.0000000000
10
-5.6542115170
20
-15.0312033639
30
0.0000000000
10
-5.6672121120
20
-15.0115787519
30
0.0000000000
10
-5.6800549573
20
-14.9918523332
30
0.0000000000
11
-5.6410552849
21
-15.0507235364
31
0.0000000000
11
-5.6800549573
21
-14.9918523332
31
0.0000000000
0
SPLINE
5
44E
100
AcDbEntity
8
0
100
AcDbSpline
62
0
6
CONTINUOUS
70
0
71
3
72
8
73
4
74
2
42
0.0000001000
43
0.0000001000
44
0.0000000001
12
-0.0386236981
22
0.0593254241
32
0.0000000000
13
-0.0376661348
23
0.0599313289
33
0.0000000000
40
0.0000000000
40
0.0000000000
40
0.0000000000
40
0.0000000000
40
1.0000000000
40
1.0000000000
40
1.0000000000
40
1.0000000000
10
-5.6800549573
20
-14.9918523332
30
0.0000000000
10
-5.6929295233
20
-14.9720771918
30
0.0000000000
10
-5.7056455595
20
-14.9521997402
30
0.0000000000
10
-5.7182009377
20
-14.9322226306
30
0.0000000000
11
-5.6800549573
21
-14.9918523332
31
0.0000000000
11
-5.7182009377
21
-14.9322226306
31
0.0000000000
0
SPLINE
5
44F
100
AcDbEntity
8
0
100
AcDbSpline
62
0
6
CONTINUOUS
70
0
71
3
72
10
73
6
74
4
42
0.0000001000
43
0.0000001000
44
0.0000000001
12
0.3602846892
22
-0.0000000000
32
0.0000000000
13
0.1272396737
23
0.3370684244
33
0.0000000000
40
0.0000000000
40
0.0000000000
40
0.0000000000
40
0.0000000000
40
0.3326568453
40
0.6656365789
40
1.0000000000
40
1.0000000000
40
1.0000000000
40
1.0000000000
10
6.6405482365
20
-14.4973018611
30
0.0000000000
10
6.6804986259
20
-14.4973018611
30
0.0000000000
10
6.7613705208
20
-14.4808623793
30
0.0000000000
10
6.8627218971
20
-14.4109497185
30
0.0000000000
10
6.9068642302
20
-14.3409371317
30
0.0000000000
10
6.9210456610
20
-14.3033693479
30
0.0000000000
11
6.6405482365
21
-14.4973018611
31
0.0000000000
11
6.7579823648
21
-14.4733534161
31
0.0000000000
11
6.8567325361
21
-14.4052314322
31
0.0000000000
11
6.9210456610
21
-14.3033693479
31
0.0000000000
0
SPLINE
5
450
100
AcDbEntity
8
0
100
AcDbSpline
62
0
6
CONTINUOUS
70
0
71
3
72
10
73
6
74
4
42
0.0000001000
43
0.0000001000
44
0.0000000001
12
-0.1272396737
22
0.3370684244
32
0.0000000000
13
-0.3602846892
23
-0.0000000000
33
0.0000000000
40
0.0000000000
40
0.0000000000
40
0.0000000000
40
0.0000000000
40
0.3326568410
40
0.6656365743
40
1.0000000000
40
1.0000000000
40
1.0000000000
40
1.0000000000
10
6.9210456610
20
-10.7610759133
30
0.0000000000
10
6.9069366117
20
-10.7236998742
30
0.0000000000
10
6.8629954062
20
-10.6538450942
30
0.0000000000
10
6.7617941413
20
-10.5837153172
30
0.0000000000
10
6.6807035775
20
-10.5671434001
30
0.0000000000
10
6.6405482365
20
-10.5671434001
30
0.0000000000
11
6.9210456610
21
-10.7610759133
31
0.0000000000
11
6.8571668866
21
-10.6596668195
31
0.0000000000
11
6.7585595624
21
-10.5913382265
31
0.0000000000
11
6.6405482365
21
-10.5671434001
31
0.0000000000
0
SPLINE
5
451
100
AcDbEntity
8
0
100
AcDbSpline
62
0
6
CONTINUOUS
70
0
71
3
72
10
73
6
74
4
42
0.0000001000
43
0.0000001000
44
0.0000000001
12
0.1272396737
22
-0.3370684244
32
0.0000000000
13
0.3602846892
23
0.0000000000
33
0.0000000000
40
0.0000000000
40
0.0000000000
40
0.0000000000
40
0.0000000000
40
0.3326568410
40
0.6656365743
40
1.0000000000
40
1.0000000000
40
1.0000000000
40
1.0000000000
10
-6.6627827675
20
-14.3033693479
30
0.0000000000
10
-6.6486737182
20
-14.3407453870
30
0.0000000000
10
-6.6047325126
20
-14.4106001669
30
0.0000000000
10
-6.5035312478
20
-14.4807299439
30
0.0000000000
10
-6.4224406839
20
-14.4973018611
30
0.0000000000
10
-6.3822853430
20
-14.4973018611
30
0.0000000000
11
-6.6627827675
21
-14.3033693479
31
0.0000000000
11
-6.5989039931
21
-14.4047784417
31
0.0000000000
11
-6.5002966689
21
-14.4731070346
31
0.0000000000
11
-6.3822853430
21
-14.4973018611
31
0.0000000000
0
SPLINE
5
452
100
AcDbEntity
8
0
100
AcDbSpline
62
0
6
CONTINUOUS
70
0
71
3
72
10
73
6
74
4
42
0.0000001000
43
0.0000001000
44
0.0000000001
12
-0.3602846892
22
0.0000000000
32
0.0000000000
13
-0.1272396737
23
-0.3370684244
33
0.0000000000
40
0.0000000000
40
0.0000000000
40
0.0000000000
40
0.0000000000
40
0.3326568453
40
0.6656365789
40
1.0000000000
40
1.0000000000
40
1.0000000000
40
1.0000000000
10
-6.3822853430
20
-10.5671434001
30
0.0000000000
10
-6.4222357323
20
-10.5671434001
30
0.0000000000
10
-6.5031076272
20
-10.5835828818
30
0.0000000000
10
-6.6044590036
20
-10.6534955427
30
0.0000000000
10
-6.6486013366
20
-10.7235081294
30
0.0000000000
10
-6.6627827675
20
-10.7610759133
30
0.0000000000
11
-6.3822853430
21
-10.5671434001
31
0.0000000000
11
-6.4997194713
21
-10.5910918450
31
0.0000000000
11
-6.5984696425
21
-10.6592138289
31
0.0000000000
11
-6.6627827675
21
-10.7610759133
31
0.0000000000
0
SPLINE
5
453
100
AcDbEntity
8
0
100
AcDbSpline
62
9
6
CONTINUOUS
70
0
71
3
72
8
73
4
74
2
42
0.0000001000
43
0.0000001000
44
0.0000000001
12
0.0019347555
22
0.0043185261
32
0.0000000000
13
0.0019300536
23
0.0043206219
33
0.0000000000
40
0.0000000000
40
0.0000000000
40
0.0000000000
40
0.0000000000
40
1.0000000000
40
1.0000000000
40
1.0000000000
40
1.0000000000
10
6.1989365391
20
-14.5106247707
30
0.0000000000
10
6.1995814576
20
-14.5091852620
30
0.0000000000
10
6.2002255928
20
-14.5077454033
30
0.0000000000
10
6.2008689440
20
-14.5063051960
30
0.0000000000
11
6.1989365391
21
-14.5106247707
31
0.0000000000
11
6.2008689440
21
-14.5063051960
31
0.0000000000
0
SPLINE
5
454
100
AcDbEntity
8
0
100
AcDbSpline
62
0
6
CONTINUOUS
70
0
71
3
72
9
73
5
74
3
42
0.0000001000
43
0.0000001000
44
0.0000000001
12
-0.2426364285
22
-0.0090545155
32
0.0000000000
13
-0.2426407411
23
-0.0089382039
33
0.0000000000
40
0.0000000000
40
0.0000000000
40
0.0000000000
40
0.0000000000
40
0.5029630138
40
1.0000000000
40
1.0000000000
40
1.0000000000
40
1.0000000000
10
6.4435072746
20
-14.4973018611
30
0.0000000000
10
6.4028282248
20
-14.4988198899
30
0.0000000000
10
6.3219493889
20
-14.5018373839
30
0.0000000000
10
6.2410694182
20
-14.5048243234
30
0.0000000000
10
6.2008689440
20
-14.5063051960
30
0.0000000000
11
6.4435072746
21
-14.4973018611
31
0.0000000000
11
6.3214698116
21
-14.5018475362
31
0.0000000000
11
6.2008689440
21
-14.5063051960
31
0.0000000000
0
SPLINE
5
455
100
AcDbEntity
8
0
100
AcDbSpline
62
9
6
CONTINUOUS
70
0
71
3
72
8
73
4
74
2
42
0.0000001000
43
0.0000001000
44
0.0000000001
12
-0.0019347555
22
0.0043185261
32
0.0000000000
13
-0.0019300536
23
0.0043206219
33
0.0000000000
40
0.0000000000
40
0.0000000000
40
0.0000000000
40
0.0000000000
40
1.0000000000
40
1.0000000000
40
1.0000000000
40
1.0000000000
10
-5.9406736456
20
-14.5106247707
30
0.0000000000
10
-5.9413185641
20
-14.5091852620
30
0.0000000000
10
-5.9419626992
20
-14.5077454033
30
0.0000000000
10
-5.9426060504
20
-14.5063051960
30
0.0000000000
11
-5.9406736456
21
-14.5106247707
31
0.0000000000
11
-5.9426060504
21
-14.5063051960
31
0.0000000000
0
SPLINE
5
456
100
AcDbEntity
8
0
100
AcDbSpline
62
0
6
CONTINUOUS
70
0
71
3
72
8
73
4
74
2
42
0.0000001000
43
0.0000001000
44
0.0000000001
12
-0.0407511664
22
0.0015196688
32
0.0000000000
13
-0.0407511270
23
0.0015207185
33
0.0000000000
40
0.0000000000
40
0.0000000000
40
0.0000000000
40
0.0000000000
40
1.0000000000
40
1.0000000000
40
1.0000000000
40
1.0000000000
10
-6.1444932394
20
-14.4988221927
30
0.0000000000
10
-6.1580769615
20
-14.4983156364
30
0.0000000000
10
-6.1716606720
20
-14.4978087673
30
0.0000000000
10
-6.1852443810
20
-14.4973018611
30
0.0000000000
11
-6.1444932394
21
-14.4988221927
31
0.0000000000
11
-6.1852443810
21
-14.4973018611
31
0.0000000000
0
SPLINE
5
457
100
AcDbEntity
8
0
100
AcDbSpline
62
0
6
CONTINUOUS
70
0
71
3
72
9
73
5
74
3
42
0.0000001000
43
0.0000001000
44
0.0000000001
12
0.2426364285
22
0.0090545155
32
0.0000000000
13
0.2426407411
23
0.0089382039
33
0.0000000000
40
0.0000000000
40
0.0000000000
40
0.0000000000
40
0.0000000000
40
0.5028621667
40
1.0000000000
40
1.0000000000
40
1.0000000000
40
1.0000000000
10
-6.1852443810
20
-10.5671434001
30
0.0000000000
10
-6.1445734876
20
-10.5656256756
30
0.0000000000
10
-6.0636946519
20
-10.5626081787
30
0.0000000000
10
-5.9828146812
20
-10.5596212382
30
0.0000000000
10
-5.9426060504
20
-10.5581400651
30
0.0000000000
11
-6.1852443810
21
-10.5671434001
31
0.0000000000
11
-6.0632313875
21
-10.5625986324
31
0.0000000000
11
-5.9426060504
21
-10.5581400651
31
0.0000000000
0
SPLINE
5
458
100
AcDbEntity
8
0
100
AcDbSpline
62
0
6
CONTINUOUS
70
0
71
3
72
8
73
4
74
2
42
0.0000001000
43
0.0000001000
44
0.0000000001
12
0.0408049228
22
-0.0015216687
32
0.0000000000
13
0.0408048832
23
-0.0015227246
33
0.0000000000
40
0.0000000000
40
0.0000000000
40
0.0000000000
40
0.0000000000
40
1.0000000000
40
1.0000000000
40
1.0000000000
40
1.0000000000
10
6.4027023767
20
-10.5656210652
30
0.0000000000
10
6.4163040176
20
-10.5661282881
30
0.0000000000
10
6.4299056468
20
-10.5666358252
30
0.0000000000
10
6.4435072746
20
-10.5671434001
30
0.0000000000
11
6.4027023767
21
-10.5656210652
31
0.0000000000
11
6.4435072746
21
-10.5671434001
31
0.0000000000
0
SPLINE
5
459
100
AcDbEntity
8
0
100
AcDbSpline
62
9
6
CONTINUOUS
70
0
71
3
72
10
73
6
74
4
42
0.0000001000
43
0.0000001000
44
0.0000000001
12
-0.0000945766
22
0.3105082439
32
0.0000000000
13
-0.3105082439
23
0.0000945766
33
0.0000000000
40
0.0000000000
40
0.0000000000
40
0.0000000000
40
0.0000000000
40
0.3333248773
40
0.6666751224
40
1.0000000000
40
1.0000000000
40
1.0000000000
40
1.0000000000
10
9.9321644466
20
20.5208408302
30
0.0000000000
10
9.9321539383
20
20.5553408709
30
0.0000000000
10
9.9133905642
20
20.6256609157
30
0.0000000000
10
9.8370149931
20
20.7020364868
30
0.0000000000
10
9.7666949483
20
20.7207998610
30
0.0000000000
10
9.7321949075
20
20.7208103692
30
0.0000000000
11
9.9321644466
21
20.5208408302
31
0.0000000000
11
9.9053533101
21
20.6208080212
31
0.0000000000
11
9.8321620986
21
20.6939992327
31
0.0000000000
11
9.7321949075
21
20.7208103692
31
0.0000000000
0
SPLINE
5
45A
100
AcDbEntity
8
0
100
AcDbSpline
62
0
6
CONTINUOUS
70
0
71
3
72
8
73
4
74
2
42
0.0000001000
43
0.0000001000
44
0.0000000001
12
0.0067686895
22
-0.0361436906
32
0.0000000000
13
0.0000000000
23
-0.0363702067
33
0.0000000000
40
0.0000000000
40
0.0000000000
40
0.0000000000
40
0.0000000000
40
1.0000000000
40
1.0000000000
40
1.0000000000
40
1.0000000000
10
10.0257183685
20
20.6541843987
30
0.0000000000
10
10.0279745983
20
20.6421365018
30
0.0000000000
10
10.0291314468
20
20.6299312326
30
0.0000000000
10
10.0291314468
20
20.6178078304
30
0.0000000000
11
10.0257183685
21
20.6541843987
31
0.0000000000
11
10.0291314468
21
20.6178078304
31
0.0000000000
0
SPLINE
5
45B
100
AcDbEntity
8
0
100
AcDbSpline
62
0
6
CONTINUOUS
70
0
71
3
72
10
73
6
74
4
42
0.0000001000
43
0.0000001000
44
0.0000000001
12
-0.0935603079
22
0.1769965796
32
0.0000000000
13
-0.2002031978
23
-0.0000001616
33
0.0000000000
40
0.0000000000
40
0.0000000000
40
0.0000000000
40
0.0000000000
40
0.1404388933
40
0.5054282272
40
1.0000000000
40
1.0000000000
40
1.0000000000
40
1.0000000000
10
9.9304494034
20
20.1560352914
30
0.0000000000
10
9.9260695680
20
20.1643210259
30
0.0000000000
10
9.8815505699
20
20.1527183988
30
0.0000000000
10
9.8240459789
20
20.1661704712
30
0.0000000000
10
9.7634848145
20
20.1626371315
30
0.0000000000
10
9.7304798643
20
20.1626371049
30
0.0000000000
11
9.9304494034
21
20.1560352914
31
0.0000000000
11
9.9025225610
21
20.1592939222
31
0.0000000000
11
9.8294903311
21
20.1617054011
31
0.0000000000
11
9.7304798643
21
20.1626371049
31
0.0000000000
0
SPLINE
5
45C
100
AcDbEntity
8
0
100
AcDbSpline
62
0
6
CONTINUOUS
70
0
71
3
72
10
73
6
74
4
42
0.0000001000
43
0.0000001000
44
0.0000000001
12
0.0935603073
22
0.1769965789
32
0.0000000000
13
0.2002031969
23
-0.0000001616
33
0.0000000000
40
0.0000000000
40
0.0000000000
40
0.0000000000
40
0.0000000000
40
0.1404419789
40
0.5054229655
40
1.0000000000
40
1.0000000000
40
1.0000000000
40
1.0000000000
10
-9.6721865098
20
20.1560352914
30
0.0000000000
10
-9.6678065782
20
20.1643212080
30
0.0000000000
10
-9.6232879656
20
20.1527185389
30
0.0000000000
10
-9.5657832334
20
20.1661704910
30
0.0000000000
10
-9.5052222719
20
20.1626371315
30
0.0000000000
10
-9.4722169708
20
20.1626371049
30
0.0000000000
11
-9.6721865098
21
20.1560352914
31
0.0000000000
11
-9.6442590497
21
20.1592939572
31
0.0000000000
11
-9.5712284904
21
20.1617053810
31
0.0000000000
11
-9.4722169708
21
20.1626371049
31
0.0000000000
0
SPLINE
5
45D
100
AcDbEntity
8
0
100
AcDbSpline
62
9
6
CONTINUOUS
70
0
71
3
72
10
73
6
74
4
42
0.0000001000
43
0.0000001000
44
0.0000000001
12
-0.0000945766
22
-0.3105082439
32
0.0000000000
13
-0.3105082439
23
-0.0000945766
33
0.0000000000
40
0.0000000000
40
0.0000000000
40
0.0000000000
40
0.0000000000
40
0.3333247438
40
0.6666749967
40
1.0000000000
40
1.0000000000
40
1.0000000000
40
1.0000000000
10
9.9321644466
20
-19.5852860913
30
0.0000000000
10
9.9321539383
20
-19.6197861183
30
0.0000000000
10
9.9133905761
20
-19.6901061485
30
0.0000000000
10
9.8370150213
20
-19.7664817363
30
0.0000000000
10
9.7666949613
20
-19.7852451221
30
0.0000000000
10
9.7321949075
20
-19.7852556304
30
0.0000000000
11
9.9321644466
21
-19.5852860913
31
0.0000000000
11
9.9053533316
21
-19.6852532451
31
0.0000000000
11
9.8321621336
21
-19.7584444737
31
0.0000000000
11
9.7321949075
21
-19.7852556304
31
0.0000000000
0
SPLINE
5
45E
100
AcDbEntity
8
0
100
AcDbSpline
62
9
6
CONTINUOUS
70
0
71
3
72
10
73
6
74
4
42
0.0000001000
43
0.0000001000
44
0.0000000001
12
0.0000945766
22
0.3105082439
32
0.0000000000
13
0.3105082439
23
0.0000945766
33
0.0000000000
40
0.0000000000
40
0.0000000000
40
0.0000000000
40
0.0000000000
40
0.3333248798
40
0.6666751249
40
1.0000000000
40
1.0000000000
40
1.0000000000
40
1.0000000000
10
-9.6739015530
20
20.5208408302
30
0.0000000000
10
-9.6738910448
20
20.5553408712
30
0.0000000000
10
-9.6551276704
20
20.6256609162
30
0.0000000000
10
-9.5787520990
20
20.7020364870
30
0.0000000000
10
-9.5084320545
20
20.7207998610
30
0.0000000000
10
-9.4739320140
20
20.7208103692
30
0.0000000000
11
-9.6739015530
21
20.5208408302
31
0.0000000000
11
-9.6470904162
21
20.6208080219
31
0.0000000000
11
-9.5738992043
21
20.6939992331
31
0.0000000000
11
-9.4739320140
21
20.7208103692
31
0.0000000000
0
SPLINE
5
45F
100
AcDbEntity
8
0
100
AcDbSpline
62
0
6
CONTINUOUS
70
0
71
3
72
10
73
6
74
4
42
0.0000001000
43
0.0000001000
44
0.0000000001
12
0.0000000000
22
0.3105397744
32
0.0000000000
13
0.3105397744
23
0.0000000000
33
0.0000000000
40
0.0000000000
40
0.0000000000
40
0.0000000000
40
0.0000000000
40
0.3333500763
40
0.6666504336
40
1.0000000000
40
1.0000000000
40
1.0000000000
40
1.0000000000
10
-9.7708685532
20
20.6178078304
30
0.0000000000
10
-9.7708685532
20
20.6523139829
30
0.0000000000
10
-9.7521264583
20
20.7226474674
30
0.0000000000
10
-9.6757385398
20
20.7990353209
30
0.0000000000
10
-9.6054051139
20
20.8177773694
30
0.0000000000
10
-9.5708990142
20
20.8177773694
30
0.0000000000
11
-9.7708685532
21
20.6178078304
31
0.0000000000
11
-9.7440783744
21
20.7177996168
31
0.0000000000
11
-9.6708906587
21
20.7909872726
31
0.0000000000
11
-9.5708990142
21
20.8177773694
31
0.0000000000
0
SPLINE
5
460
100
AcDbEntity
8
0
100
AcDbSpline
62
0
6
CONTINUOUS
70
0
71
3
72
10
73
6
74
4
42
0.0000001000
43
0.0000001000
44
0.0000000001
12
0.0000000000
22
-0.3105397744
32
0.0000000000
13
-0.3105397744
23
0.0000000000
33
0.0000000000
40
0.0000000000
40
0.0000000000
40
0.0000000000
40
0.0000000000
40
0.3333500763
40
0.6666504336
40
1.0000000000
40
1.0000000000
40
1.0000000000
40
1.0000000000
10
10.0291314468
20
-19.6822530915
30
0.0000000000
10
10.0291314468
20
-19.7167592440
30
0.0000000000
10
10.0103893519
20
-19.7870927285
30
0.0000000000
10
9.9340014334
20
-19.8634805820
30
0.0000000000
10
9.8636680075
20
-19.8822226306
30
0.0000000000
10
9.8291619077
20
-19.8822226306
30
0.0000000000
11
10.0291314468
21
-19.6822530915
31
0.0000000000
11
10.0023412680
21
-19.7822448780
31
0.0000000000
11
9.9291535522
21
-19.8554325337
31
0.0000000000
11
9.8291619077
21
-19.8822226306
31
0.0000000000
0
SPLINE
5
461
100
AcDbEntity
8
0
100
AcDbSpline
62
0
6
CONTINUOUS
70
0
71
3
72
10
73
6
74
4
42
0.0000001000
43
0.0000001000
44
0.0000000001
12
0.0935594905
22
-0.1769971533
32
0.0000000000
13
0.2002033230
23
0.0000001408
33
0.0000000000
40
0.0000000000
40
0.0000000000
40
0.0000000000
40
0.0000000000
40
0.1404394153
40
0.5054285409
40
1.0000000000
40
1.0000000000
40
1.0000000000
40
1.0000000000
10
-9.6721865098
20
-19.2204805525
30
0.0000000000
10
-9.6678066964
20
-19.2287663447
30
0.0000000000
10
-9.6232878474
20
-19.2171662135
30
0.0000000000
10
-9.5657830352
20
-19.2306165707
30
0.0000000000
10
-9.5052219206
20
-19.2270823893
30
0.0000000000
10
-9.4722169708
20
-19.2270823660
30
0.0000000000
11
-9.6721865098
21
-19.2204805525
31
0.0000000000
11
-9.6442596816
21
-19.2237403575
31
0.0000000000
11
-9.5712274478
21
-19.2261518394
31
0.0000000000
11
-9.4722169708
21
-19.2270823660
31
0.0000000000
0
SPLINE
5
462
100
AcDbEntity
8
0
100
AcDbSpline
62
9
6
CONTINUOUS
70
0
71
3
72
10
73
6
74
4
42
0.0000001000
43
0.0000001000
44
0.0000000001
12
0.0000945766
22
-0.3105082439
32
0.0000000000
13
0.3105082439
23
-0.0000945766
33
0.0000000000
40
0.0000000000
40
0.0000000000
40
0.0000000000
40
0.0000000000
40
0.3333248774
40
0.6666751226
40
1.0000000000
40
1.0000000000
40
1.0000000000
40
1.0000000000
10
-9.6739015530
20
-19.5852860913
30
0.0000000000
10
-9.6738910448
20
-19.6197861321
30
0.0000000000
10
-9.6551276706
20
-19.6901061768
30
0.0000000000
10
-9.5787520995
20
-19.7664817480
30
0.0000000000
10
-9.5084320548
20
-19.7852451221
30
0.0000000000
10
-9.4739320140
20
-19.7852556304
30
0.0000000000
11
-9.6739015530
21
-19.5852860913
31
0.0000000000
11
-9.6470904166
21
-19.6852532823
31
0.0000000000
11
-9.5738992050
21
-19.7584444939
31
0.0000000000
11
-9.4739320140
21
-19.7852556304
31
0.0000000000
0
SPLINE
5
463
100
AcDbEntity
8
0
100
AcDbSpline
62
0
6
CONTINUOUS
70
0
71
3
72
8
73
4
74
2
42
0.0000001000
43
0.0000001000
44
0.0000000001
12
-0.0067686895
22
0.0361436906
32
0.0000000000
13
0.0000000000
23
0.0363702067
33
0.0000000000
40
0.0000000000
40
0.0000000000
40
0.0000000000
40
0.0000000000
40
1.0000000000
40
1.0000000000
40
1.0000000000
40
1.0000000000
10
-9.7674554749
20
-19.7186296598
30
0.0000000000
10
-9.7697117048
20
-19.7065817630
30
0.0000000000
10
-9.7708685532
20
-19.6943764938
30
0.0000000000
10
-9.7708685532
20
-19.6822530915
30
0.0000000000
11
-9.7674554749
21
-19.7186296598
31
0.0000000000
11
-9.7708685532
21
-19.6822530915
31
0.0000000000
0
SPLINE
5
464
100
AcDbEntity
8
0
100
AcDbSpline
62
9
6
CONTINUOUS
70
0
71
3
72
8
73
4
74
2
42
0.0000001000
43
0.0000001000
44
0.0000000001
12
-0.0000000408
22
0.0497323761
32
0.0000000000
13
0.0000297558
23
0.0497358427
33
0.0000000000
40
0.0000000000
40
0.0000000000
40
0.0000000000
40
0.0000000000
40
1.0000000000
40
1.0000000000
40
1.0000000000
40
1.0000000000
10
9.7304798666
20
20.4208607619
30
0.0000000000
10
9.7304798530
20
20.4374382206
30
0.0000000000
10
9.7304941326
20
20.4540145179
30
0.0000000000
10
9.7305040512
20
20.4705931321
30
0.0000000000
11
9.7304798666
21
20.4208607619
31
0.0000000000
11
9.7305040512
21
20.4705931321
31
0.0000000000
0
SPLINE
5
465
100
AcDbEntity
8
0
100
AcDbSpline
62
9
6
CONTINUOUS
70
0
71
3
72
12
73
8
74
6
42
0.0000001000
43
0.0000001000
44
0.0000000001
12
0.0001497160
22
0.2502455769
32
0.0000000000
13
0.0795921451
23
0.2372323963
33
0.0000000000
40
0.0000000000
40
0.0000000000
40
0.0000000000
40
0.0000000000
40
0.2139777081
40
0.4351918505
40
0.6473578696
40
0.8276287101
40
1.0000000000
40
1.0000000000
40
1.0000000000
40
1.0000000000
10
9.7305040512
20
20.4705931321
30
0.0000000000
10
9.7305147299
20
20.4884421238
30
0.0000000000
10
9.7305261673
20
20.5247491978
30
0.0000000000
10
9.7309163796
20
20.5787003982
30
0.0000000000
10
9.7303196830
20
20.6300360024
30
0.0000000000
10
9.7332183815
20
20.6766711196
30
0.0000000000
10
9.7276217740
20
20.7071796845
30
0.0000000000
10
9.7321949075
20
20.7208103692
30
0.0000000000
11
9.7305040512
21
20.4705931321
31
0.0000000000
11
9.7305866301
21
20.5241363112
31
0.0000000000
11
9.7307439737
21
20.5794900898
31
0.0000000000
11
9.7309888911
21
20.6325794321
31
0.0000000000
11
9.7313234306
21
20.6776870278
31
0.0000000000
11
9.7321949075
21
20.7208103692
31
0.0000000000
0
SPLINE
5
466
100
AcDbEntity
8
0
100
AcDbSpline
62
9
6
CONTINUOUS
70
0
71
3
72
12
73
8
74
6
42
0.0000001000
43
0.0000001000
44
0.0000000001
12
0.0785662457
22
-0.2365730728
32
0.0000000000
13
0.0002554585
23
-0.2492768971
33
0.0000000000
40
0.0000000000
40
0.0000000000
40
0.0000000000
40
0.0000000000
40
0.2108418104
40
0.3901788047
40
0.6241870642
40
0.9012181106
40
1.0000000000
40
1.0000000000
40
1.0000000000
40
1.0000000000
10
-9.4739320162
20
20.7208103760
30
0.0000000000
10
-9.4684103331
20
20.7041838777
30
0.0000000000
10
-9.4748605517
20
20.6705356587
30
0.0000000000
10
-9.4719963161
20
20.6191293053
30
0.0000000000
10
-9.4726303951
20
20.5616085769
30
0.0000000000
10
-9.4722892205
20
20.5109782755
30
0.0000000000
10
-9.4722328641
20
20.4797541104
30
0.0000000000
10
-9.4722244526
20
20.4715460961
30
0.0000000000
11
-9.4739320162
21
20.7208103760
31
0.0000000000
11
-9.4729750839
21
20.6682608835
31
0.0000000000
11
-9.4726756953
21
20.6235571358
31
0.0000000000
11
-9.4724325156
21
20.5652245541
31
0.0000000000
11
-9.4722731232
21
20.4961670193
31
0.0000000000
11
-9.4722244526
21
20.4715460961
31
0.0000000000
0
SPLINE
5
467
100
AcDbEntity
8
0
100
AcDbSpline
62
9
6
CONTINUOUS
70
0
71
3
72
8
73
4
74
2
42
0.0000001000
43
0.0000001000
44
0.0000000001
12
0.0000519314
22
-0.0506747817
32
0.0000000000
13
-0.0000001087
23
-0.0506749865
33
0.0000000000
40
0.0000000000
40
0.0000000000
40
0.0000000000
40
0.0000000000
40
1.0000000000
40
1.0000000000
40
1.0000000000
40
1.0000000000
10
-9.4722244526
20
20.4715460961
30
0.0000000000
10
-9.4722071421
20
20.4546545022
30
0.0000000000
10
-9.4722169433
20
20.4377595735
30
0.0000000000
10
-9.4722169795
20
20.4208679113
30
0.0000000000
11
-9.4722244526
21
20.4715460961
31
0.0000000000
11
-9.4722169795
21
20.4208679113
31
0.0000000000
0
SPLINE
5
468
100
AcDbEntity
8
0
100
AcDbSpline
62
9
6
CONTINUOUS
70
0
71
3
72
9
73
5
74
3
42
0.0000001000
43
0.0000001000
44
0.0000000001
12
0.1468705224
22
0.0201855055
32
0.0000000000
13
0.0114188618
23
0.1478107390
33
0.0000000000
40
0.0000000000
40
0.0000000000
40
0.0000000000
40
0.0000000000
40
0.4861579297
40
1.0000000000
40
1.0000000000
40
1.0000000000
40
1.0000000000
10
3.6266757767
20
-19.7843783281
30
0.0000000000
10
3.6504765330
20
-19.7811072136
30
0.0000000000
10
3.6463536687
20
-19.7055817278
30
0.0000000000
10
3.6560508549
20
-19.6656828791
30
0.0000000000
10
3.6580066855
20
-19.6403657537
30
0.0000000000
11
3.6266757767
21
-19.7843783281
31
0.0000000000
11
3.6497341691
21
-19.7160929250
31
0.0000000000
11
3.6580066855
21
-19.6403657537
31
0.0000000000
0
SPLINE
5
469
100
AcDbEntity
8
0
100
AcDbSpline
62
9
6
CONTINUOUS
70
0
71
3
72
9
73
5
74
3
42
0.0000001000
43
0.0000001000
44
0.0000000001
12
-0.1468950503
22
0.0205945447
32
0.0000000000
13
-0.0114239789
23
0.1478911214
33
0.0000000000
40
0.0000000000
40
0.0000000000
40
0.0000000000
40
0.0000000000
40
0.4862860815
40
1.0000000000
40
1.0000000000
40
1.0000000000
40
1.0000000000
10
-3.3684128693
20
-19.7844599312
30
0.0000000000
10
-3.3922238754
20
-19.7811216511
30
0.0000000000
10
-3.3880832425
20
-19.7056416700
30
0.0000000000
10
-3.3977870744
20
-19.6656878500
30
0.0000000000
10
-3.3997432934
20
-19.6403632742
30
0.0000000000
11
-3.3684128693
21
-19.7844599312
31
0.0000000000
11
-3.3914706692
21
-19.7161129415
31
0.0000000000
11
-3.3997432934
21
-19.6403632742
31
0.0000000000
0
SPLINE
5
46A
100
AcDbEntity
8
0
100
AcDbSpline
62
9
6
CONTINUOUS
70
0
71
3
72
8
73
4
74
2
42
0.0000001000
43
0.0000001000
44
0.0000000001
12
-0.0000000028
22
-0.0526542886
32
0.0000000000
13
-0.0000334437
23
-0.0526581742
33
0.0000000000
40
0.0000000000
40
0.0000000000
40
0.0000000000
40
0.0000000000
40
1.0000000000
40
1.0000000000
40
1.0000000000
40
1.0000000000
10
-9.4722169706
20
-19.4853010182
30
0.0000000000
10
-9.4722169716
20
-19.5028524478
30
0.0000000000
10
-9.4722329423
20
-19.5204025752
30
0.0000000000
10
-9.4722440902
20
-19.5379552999
30
0.0000000000
11
-9.4722169706
21
-19.4853010182
31
0.0000000000
11
-9.4722440902
21
-19.5379552999
31
0.0000000000
0
SPLINE
5
46B
100
AcDbEntity
8
0
100
AcDbSpline
62
9
6
CONTINUOUS
70
0
71
3
72
12
73
8
74
6
42
0.0000001000
43
0.0000001000
44
0.0000000001
12
-0.0001570813
22
-0.2473294780
32
0.0000000000
13
-0.0782815553
23
-0.2345950589
33
0.0000000000
40
0.0000000000
40
0.0000000000
40
0.0000000000
40
0.0000000000
40
0.2272139545
40
0.4557078043
40
0.6669895923
40
0.8401469048
40
1.0000000000
40
1.0000000000
40
1.0000000000
40
1.0000000000
10
-9.4722440902
20
-19.5379552999
30
0.0000000000
10
-9.4722559873
20
-19.5566875362
30
0.0000000000
10
-9.4722688317
20
-19.5942634602
30
0.0000000000
10
-9.4726833757
20
-19.6492011844
30
0.0000000000
10
-9.4720944874
20
-19.6998812911
30
0.0000000000
10
-9.4748677975
20
-19.7442988321
30
0.0000000000
10
-9.4697607638
20
-19.7727551774
30
0.0000000000
10
-9.4739319468
20
-19.7852554262
30
0.0000000000
11
-9.4722440902
21
-19.5379552999
31
0.0000000000
11
-9.4723360127
21
-19.5941477869
31
0.0000000000
11
-9.4725062269
21
-19.6506566251
31
0.0000000000
11
-9.4727610679
21
-19.7029083621
31
0.0000000000
11
-9.4730960083
21
-19.7457307999
31
0.0000000000
11
-9.4739319468
21
-19.7852554262
31
0.0000000000
0
SPLINE
5
46C
100
AcDbEntity
8
0
100
AcDbSpline
62
9
6
CONTINUOUS
70
0
71
3
72
12
73
8
74
6
42
0.0000001000
43
0.0000001000
44
0.0000000001
12
-0.0779901054
22
0.2337333857
32
0.0000000000
13
-0.0002682801
23
0.2464002158
33
0.0000000000
40
0.0000000000
40
0.0000000000
40
0.0000000000
40
0.0000000000
40
0.1952319686
40
0.3697212070
40
0.6062280253
40
0.8953385632
40
1.0000000000
40
1.0000000000
40
1.0000000000
40
1.0000000000
10
9.7321949075
20
-19.7852556304
30
0.0000000000
10
9.7271195203
20
-19.7700448873
30
0.0000000000
10
9.7330833591
20
-19.7385298092
30
0.0000000000
10
9.7302719306
20
-19.6891907014
30
0.0000000000
10
9.7309263528
20
-19.6315253545
30
0.0000000000
10
9.7305593690
20
-19.5798029840
30
0.0000000000
10
9.7304973459
20
-19.5474644909
30
0.0000000000
10
9.7304879864
20
-19.5388682907
30
0.0000000000
11
9.7321949075
21
-19.7852556304
31
0.0000000000
11
9.7312769034
21
-19.7371589195
31
0.0000000000
11
9.7309723382
21
-19.6941655694
31
0.0000000000
11
9.7307157443
21
-19.6358904741
31
0.0000000000
11
9.7305421321
21
-19.5646533845
31
0.0000000000
11
9.7304879864
21
-19.5388682907
31
0.0000000000
0
SPLINE
5
46D
100
AcDbEntity
8
0
100
AcDbSpline
62
9
6
CONTINUOUS
70
0
71
3
72
8
73
4
74
2
42
0.0000001000
43
0.0000001000
44
0.0000000001
12
-0.0000583193
22
0.0535630383
32
0.0000000000
13
0.0000000527
23
0.0535633408
33
0.0000000000
40
0.0000000000
40
0.0000000000
40
0.0000000000
40
0.0000000000
40
1.0000000000
40
1.0000000000
40
1.0000000000
40
1.0000000000
10
9.7304879864
20
-19.5388682907
30
0.0000000000
10
9.7304685466
20
-19.5210139446
30
0.0000000000
10
9.7304798468
20
-19.5031557687
30
0.0000000000
10
9.7304798643
20
-19.4853013218
30
0.0000000000
11
9.7304879864
21
-19.5388682907
31
0.0000000000
11
9.7304798643
21
-19.4853013218
31
0.0000000000
0
SPLINE
5
46E
100
AcDbEntity
8
0
100
AcDbSpline
62
0
6
CONTINUOUS
70
0
71
3
72
8
73
4
74
2
42
0.0000001000
43
0.0000001000
44
0.0000000001
12
-0.0781997658
22
0.0000000000
32
0.0000000000
13
-0.0761850971
23
0.0203857273
33
0.0000000000
40
0.0000000000
40
0.0000000000
40
0.0000000000
40
0.0000000000
40
1.0000000000
40
1.0000000000
40
1.0000000000
40
1.0000000000
10
5.0284748258
20
18.9677773694
30
0.0000000000
10
5.0024082373
20
18.9677773694
30
0.0000000000
10
4.9761501855
20
18.9712615198
30
0.0000000000
10
4.9507551531
20
18.9780567623
30
0.0000000000
11
5.0284748258
21
18.9677773694
31
0.0000000000
11
4.9507551531
21
18.9780567623
31
0.0000000000
0
SPLINE
5
46F
100
AcDbEntity
8
0
100
AcDbSpline
62
0
6
CONTINUOUS
70
0
71
3
72
9
73
5
74
3
42
0.0000001000
43
0.0000001000
44
0.0000000001
12
-0.1512752381
22
0.0404784645
32
0.0000000000
13
-0.1106101768
23
0.1102180056
33
0.0000000000
40
0.0000000000
40
0.0000000000
40
0.0000000000
40
0.0000000000
40
0.2503272562
40
1.0000000000
40
1.0000000000
40
1.0000000000
40
1.0000000000
10
4.9507551531
20
18.9780567623
30
0.0000000000
10
4.9381323813
20
18.9814343833
30
0.0000000000
10
4.8885590759
20
18.9981951519
30
0.0000000000
10
4.8444549387
20
19.0276714684
30
0.0000000000
10
4.8168144604
20
19.0552139466
30
0.0000000000
11
4.9507551531
21
18.9780567623
31
0.0000000000
11
4.9136560008
21
18.9906225414
31
0.0000000000
11
4.8168144604
21
19.0552139466
31
0.0000000000
0
SPLINE
5
470
100
AcDbEntity
8
0
100
AcDbSpline
62
0
6
CONTINUOUS
70
0
71
3
72
9
73
5
74
3
42
0.0000001000
43
0.0000001000
44
0.0000000001
12
-0.1390478725
22
0.1385548748
32
0.0000000000
13
-0.0259093627
23
0.1946549068
33
0.0000000000
40
0.0000000000
40
0.0000000000
40
0.0000000000
40
0.0000000000
40
0.5989768377
40
1.0000000000
40
1.0000000000
40
1.0000000000
40
1.0000000000
10
4.8168144604
20
19.0552139466
30
0.0000000000
10
4.7890523088
20
19.0828776669
30
0.0000000000
10
4.7518369975
20
19.1382331458
30
0.0000000000
10
4.7347104288
20
19.2022737952
30
0.0000000000
10
4.7312470107
20
19.2282941706
30
0.0000000000
11
4.8168144604
21
19.0552139466
31
0.0000000000
11
4.7516773934
21
19.1523069731
31
0.0000000000
11
4.7312470107
21
19.2282941706
31
0.0000000000
0
SPLINE
5
471
100
AcDbEntity
8
0
100
AcDbSpline
62
0
6
CONTINUOUS
70
0
71
3
72
10
73
6
74
4
42
0.0000001000
43
0.0000001000
44
0.0000000001
12
0.2000361656
22
-0.0000000018
32
0.0000000000
13
0.1415661040
23
0.1413276538
33
0.0000000000
40
0.0000000000
40
0.0000000000
40
0.0000000000
40
0.0000000000
40
0.4939061932
40
0.8585863064
40
1.0000000000
40
1.0000000000
40
1.0000000000
40
1.0000000000
10
9.7222376597
20
-9.8404627573
30
0.0000000000
10
9.7551706934
20
-9.8404627576
30
0.0000000000
10
9.8141972476
20
-9.8438362262
30
0.0000000000
10
9.8757459155
20
-9.8325007673
30
0.0000000000
10
9.9155361616
20
-9.8436945458
30
0.0000000000
10
9.9222092902
20
-9.8370326573
30
0.0000000000
11
9.7222376597
21
-9.8404627573
31
0.0000000000
11
9.8210357094
21
-9.8400069706
31
0.0000000000
11
9.8939742771
21
-9.8387608545
31
0.0000000000
11
9.9222092902
21
-9.8370326573
31
0.0000000000
0
SPLINE
5
472
100
AcDbEntity
8
0
100
AcDbSpline
62
0
6
CONTINUOUS
70
0
71
3
72
10
73
6
74
4
42
0.0000001000
43
0.0000001000
44
0.0000000001
12
-0.1415446682
22
0.1413542943
32
0.0000000000
13
-0.2000398201
23
-0.0000000014
33
0.0000000000
40
0.0000000000
40
0.0000000000
40
0.0000000000
40
0.0000000000
40
0.1415093173
40
0.5062463800
40
1.0000000000
40
1.0000000000
40
1.0000000000
40
1.0000000000
10
9.9218524064
20
-9.2270557200
30
0.0000000000
10
9.9151757766
20
-9.2203880701
30
0.0000000000
10
9.8753699413
20
-9.2315863043
30
0.0000000000
10
9.8138218771
20
-9.2202498634
30
0.0000000000
10
9.7548007146
20
-9.2236218458
30
0.0000000000
10
9.7218772528
20
-9.2236218461
30
0.0000000000
11
9.9218524064
21
-9.2270557200
31
0.0000000000
11
9.8935978605
21
-9.2253250831
31
0.0000000000
11
9.8206465856
21
-9.2240778242
31
0.0000000000
11
9.7218772528
21
-9.2236218461
31
0.0000000000
0
SPLINE
5
473
100
AcDbEntity
8
0
100
AcDbSpline
62
0
6
CONTINUOUS
70
0
71
3
72
10
73
6
74
4
42
0.0000001000
43
0.0000001000
44
0.0000000001
12
-0.2000398201
22
0.0000000014
32
0.0000000000
13
-0.1415446684
23
-0.1413542942
33
0.0000000000
40
0.0000000000
40
0.0000000000
40
0.0000000000
40
0.0000000000
40
0.4937536200
40
0.8584906827
40
1.0000000000
40
1.0000000000
40
1.0000000000
40
1.0000000000
10
-9.4636143593
20
-9.2236218461
30
0.0000000000
10
-9.4965378211
20
-9.2236218458
30
0.0000000000
10
-9.5555589835
20
-9.2202498634
30
0.0000000000
10
-9.6171070477
20
-9.2315863042
30
0.0000000000
10
-9.6569128830
20
-9.2203880701
30
0.0000000000
10
-9.6635895128
20
-9.2270557200
30
0.0000000000
11
-9.4636143593
21
-9.2236218461
31
0.0000000000
11
-9.5623836921
21
-9.2240778242
31
0.0000000000
11
-9.6353349670
21
-9.2253250831
31
0.0000000000
11
-9.6635895128
21
-9.2270557200
31
0.0000000000
0
SPLINE
5
474
100
AcDbEntity
8
0
100
AcDbSpline
62
0
6
CONTINUOUS
70
0
71
3
72
10
73
6
74
4
42
0.0000001000
43
0.0000001000
44
0.0000000001
12
0.1415661042
22
-0.1413276537
32
0.0000000000
13
0.2000361656
23
0.0000000018
33
0.0000000000
40
0.0000000000
40
0.0000000000
40
0.0000000000
40
0.0000000000
40
0.1414136936
40
0.5060938068
40
1.0000000000
40
1.0000000000
40
1.0000000000
40
1.0000000000
10
-9.6639463966
20
-9.8370326573
30
0.0000000000
10
-9.6572732681
20
-9.8436945458
30
0.0000000000
10
-9.6174830220
20
-9.8325007673
30
0.0000000000
10
-9.5559343540
20
-9.8438362262
30
0.0000000000
10
-9.4969077999
20
-9.8404627576
30
0.0000000000
10
-9.4639747662
20
-9.8404627573
30
0.0000000000
11
-9.6639463966
21
-9.8370326573
31
0.0000000000
11
-9.6357113836
21
-9.8387608545
31
0.0000000000
11
-9.5627728159
21
-9.8400069706
31
0.0000000000
11
-9.4639747662
21
-9.8404627573
31
0.0000000000
0
SPLINE
5
475
100
AcDbEntity
8
0
100
AcDbSpline
62
0
6
CONTINUOUS
70
0
71
3
72
10
73
6
74
4
42
0.0000001000
43
0.0000001000
44
0.0000000001
12
-0.1415935899
22
0.1413058574
32
0.0000000000
13
-0.2000402210
23
-0.0000000022
33
0.0000000000
40
0.0000000000
40
0.0000000000
40
0.0000000000
40
0.0000000000
40
0.1414539305
40
0.5061574823
40
1.0000000000
40
1.0000000000
40
1.0000000000
40
1.0000000000
10
9.9259533825
20
15.7688433038
30
0.0000000000
10
9.9192770593
20
15.7755060601
30
0.0000000000
10
9.8794834395
20
15.7643137324
30
0.0000000000
10
9.8179311619
20
15.7756467378
30
0.0000000000
10
9.7589072016
20
15.7722749103
30
0.0000000000
10
9.7259777461
20
15.7722749099
30
0.0000000000
11
9.9259533825
21
15.7688433038
31
0.0000000000
11
9.8977097891
21
15.7705724526
31
0.0000000000
11
9.8247650606
21
15.7718190196
31
0.0000000000
11
9.7259777461
21
15.7722749099
31
0.0000000000
0
SPLINE
5
476
100
AcDbEntity
8
0
100
AcDbSpline
62
0
6
CONTINUOUS
70
0
71
3
72
10
73
6
74
4
42
0.0000001000
43
0.0000001000
44
0.0000000001
12
0.2000457144
22
-0.0000000019
32
0.0000000000
13
0.1415779482
23
0.1413293050
33
0.0000000000
40
0.0000000000
40
0.0000000000
40
0.0000000000
40
0.0000000000
40
0.4936112202
40
0.8584008113
40
1.0000000000
40
1.0000000000
40
1.0000000000
40
1.0000000000
10
9.7254431723
20
15.1627448788
30
0.0000000000
10
9.7583581087
20
15.1627448785
30
0.0000000000
10
9.8173733405
20
15.1593758241
30
0.0000000000
10
9.8789261935
20
15.1707088404
30
0.0000000000
10
9.9187416645
20
15.1595114529
30
0.0000000000
10
9.9254241054
20
15.1661821579
30
0.0000000000
11
9.7254431723
21
15.1627448788
31
0.0000000000
11
9.8241869277
21
15.1632010672
31
0.0000000000
11
9.8971508450
21
15.1644493459
31
0.0000000000
11
9.9254241054
21
15.1661821579
31
0.0000000000
0
SPLINE
5
477
100
AcDbEntity
8
0
100
AcDbSpline
62
0
6
CONTINUOUS
70
0
71
3
72
8
73
4
74
2
42
0.0000001000
43
0.0000001000
44
0.0000000001
12
-0.0000570413
22
0.0994202789
32
0.0000000000
13
-0.0000573320
23
0.0994202788
33
0.0000000000
40
0.0000000000
40
0.0000000000
40
0.0000000000
40
0.0000000000
40
1.0000000000
40
1.0000000000
40
1.0000000000
40
1.0000000000
10
-4.4708113666
20
20.0632168261
30
0.0000000000
10
-4.4708303803
20
20.0963569190
30
0.0000000000
10
-4.4708494426
20
20.1294970120
30
0.0000000000
10
-4.4708685532
20
20.1626371049
30
0.0000000000
11
-4.4708113666
21
20.0632168261
31
0.0000000000
11
-4.4708685532
21
20.1626371049
31
0.0000000000
0
SPLINE
5
478
100
AcDbEntity
8
0
100
AcDbSpline
62
0
6
CONTINUOUS
70
0
71
3
72
10
73
6
74
4
42
0.0000001000
43
0.0000001000
44
0.0000000001
12
0.1415779476
22
-0.1413293056
32
0.0000000000
13
0.2000457144
23
0.0000000019
33
0.0000000000
40
0.0000000000
40
0.0000000000
40
0.0000000000
40
0.0000000000
40
0.1415991887
40
0.5063887798
40
1.0000000000
40
1.0000000000
40
1.0000000000
40
1.0000000000
10
-9.6671612118
20
15.1661821579
30
0.0000000000
10
-9.6604787710
20
15.1595114529
30
0.0000000000
10
-9.6206633000
20
15.1707088404
30
0.0000000000
10
-9.5591104470
20
15.1593758241
30
0.0000000000
10
-9.5000952152
20
15.1627448785
30
0.0000000000
10
-9.4671802788
20
15.1627448788
30
0.0000000000
11
-9.6671612118
21
15.1661821579
31
0.0000000000
11
-9.6388879515
21
15.1644493459
31
0.0000000000
11
-9.5659240342
21
15.1632010672
31
0.0000000000
11
-9.4671802788
21
15.1627448788
31
0.0000000000
0
SPLINE
5
479
100
AcDbEntity
8
0
100
AcDbSpline
62
0
6
CONTINUOUS
70
0
71
3
72
8
73
4
74
2
42
0.0000001000
43
0.0000001000
44
0.0000000001
12
-0.0000570413
22
0.0994202789
32
0.0000000000
13
-0.0000573320
23
0.0994202788
33
0.0000000000
40
0.0000000000
40
0.0000000000
40
0.0000000000
40
0.0000000000
40
1.0000000000
40
1.0000000000
40
1.0000000000
40
1.0000000000
10
5.5291886334
20
20.0632168261
30
0.0000000000
10
5.5291696197
20
20.0963569190
30
0.0000000000
10
5.5291505574
20
20.1294970120
30
0.0000000000
10
5.5291314468
20
20.1626371049
30
0.0000000000
11
5.5291886334
21
20.0632168261
31
0.0000000000
11
5.5291314468
21
20.1626371049
31
0.0000000000
0
SPLINE
5
47A
100
AcDbEntity
8
0
100
AcDbSpline
62
0
6
CONTINUOUS
70
0
71
3
72
13
73
9
74
7
42
0.0000001000
43
0.0000001000
44
0.0000000001
12
-0.9465501270
22
0.0000000000
32
0.0000000000
13
0.9465501270
23
0.0000000000
33
0.0000000000
40
0.0000000000
40
0.0000000000
40
0.0000000000
40
0.0000000000
40
0.1683728946
40
0.3342930806
40
0.4999949065
40
0.6656917469
40
0.8316143386
40
1.0000000000
40
1.0000000000
40
1.0000000000
40
1.0000000000
10
8.8291314468
20
15.7722749099
30
0.0000000000
10
8.7760069852
20
15.7722749099
30
0.0000000000
10
8.6684545276
20
15.7433632406
30
0.0000000000
10
8.5526161926
20
15.6261463324
30
0.0000000000
10
8.5102486873
20
15.4675166754
30
0.0000000000
10
8.5526098364
20
15.3088850809
30
0.0000000000
10
8.6684452581
20
15.1916603136
30
0.0000000000
10
8.7760029570
20
15.1627448787
30
0.0000000000
10
8.8291314468
20
15.1627448787
30
0.0000000000
11
8.8291314468
21
15.7722749099
31
0.0000000000
11
8.6753021961
21
15.7306043277
31
0.0000000000
11
8.5647261966
21
15.6190776145
31
0.0000000000
11
8.5243638244
21
15.4675148902
31
0.0000000000
11
8.5647187973
21
15.3159550791
31
0.0000000000
11
8.6752913878
21
15.2044217795
31
0.0000000000
11
8.8291314468
21
15.1627448787
31
0.0000000000
0
SPLINE
5
47B
100
AcDbEntity
8
0
100
AcDbSpline
62
0
6
CONTINUOUS
70
0
71
3
72
13
73
9
74
7
42
0.0000001000
43
0.0000001000
44
0.0000000001
12
-0.9579033827
22
0.0000000000
32
0.0000000000
13
0.9579033827
23
0.0000000000
33
0.0000000000
40
0.0000000000
40
0.0000000000
40
0.0000000000
40
0.0000000000
40
0.1684222848
40
0.3343404494
40
0.5000034041
40
0.6656696982
40
0.8315862997
40
1.0000000000
40
1.0000000000
40
1.0000000000
40
1.0000000000
10
8.8291314468
20
-9.2236218460
30
0.0000000000
10
8.7753540213
20
-9.2236218460
30
0.0000000000
10
8.6664946717
20
-9.2528941093
30
0.0000000000
10
8.5492841811
20
-9.3715374595
30
0.0000000000
10
8.5064301155
20
-9.5320468904
30
0.0000000000
10
8.5492884849
20
-9.6925550258
30
0.0000000000
10
8.6665009619
20
-9.8111930528
30
0.0000000000
10
8.7753567624
20
-9.8404627573
30
0.0000000000
10
8.8291314468
20
-9.8404627573
30
0.0000000000
11
8.8291314468
21
-9.2236218460
31
0.0000000000
11
8.6734147952
21
-9.2658169619
31
0.0000000000
11
8.5615314093
21
-9.3786973765
31
0.0000000000
11
8.5207082598
21
-9.5320456807
31
0.0000000000
11
8.5615364165
21
-9.6853959621
31
0.0000000000
11
8.6734221496
21
-9.7982719421
31
0.0000000000
11
8.8291314468
21
-9.8404627573
31
0.0000000000
0
SPLINE
5
47C
100
AcDbEntity
8
0
100
AcDbSpline
62
0
6
CONTINUOUS
70
0
71
3
72
16
73
12
74
10
42
0.0000001000
43
0.0000001000
44
0.0000000001
12
12.1168517532
22
-7.4891993630
32
0.0000000000
13
-12.4930423318
23
-6.8432519173
33
0.0000000000
40
0.0000000000
40
0.0000000000
40
0.0000000000
40
0.0000000000
40
0.1096104388
40
0.2202439964
40
0.3320433021
40
0.4441924707
40
0.5569501295
40
0.6691855110
40
0.7806422211
40
0.8909604546
40
1.0000000000
40
1.0000000000
40
1.0000000000
40
1.0000000000
10
5.6928411505
20
-7.1895504060
30
0.0000000000
10
6.1355522964
20
-7.4631818822
30
0.0000000000
10
6.9634110551
20
-8.1204500361
30
0.0000000000
10
7.9460616620
20
-9.3707497927
30
0.0000000000
10
8.6200119513
20
-10.8253752820
30
0.0000000000
10
8.9443771819
20
-12.4053445828
30
0.0000000000
10
8.8990332857
20
-14.0198292416
30
0.0000000000
10
8.4871094663
20
-15.5779602161
30
0.0000000000
10
7.7355170905
20
-16.9907158547
30
0.0000000000
10
6.6910417116
20
-18.1818785858
30
0.0000000000
10
5.8332099991
20
-18.7920510682
30
0.0000000000
10
5.3791314468
20
-19.0407794276
30
0.0000000000
11
5.6928411505
21
-7.1895504060
31
0.0000000000
11
6.9159564375
21
-8.1600116810
31
0.0000000000
11
7.8906058524
21
-9.3983923310
31
0.0000000000
11
8.5606508716
21
-10.8431004346
31
0.0000000000
11
8.8823964580
21
-12.4078750421
31
0.0000000000
11
8.8373770697
21
-14.0134221430
31
0.0000000000
11
8.4283855852
21
-15.5589611891
31
0.0000000000
11
7.6821458626
21
-16.9602993074
31
0.0000000000
11
6.6452072532
21
-18.1410404606
31
0.0000000000
11
5.3791314468
21
-19.0407794276
31
0.0000000000
0
SPLINE
5
47D
100
AcDbEntity
8
0
100
AcDbSpline
62
0
6
CONTINUOUS
70
0
71
3
72
9
73
5
74
3
42
0.0000001000
43
0.0000001000
44
0.0000000001
12
-2.3706446575
22
1.4652511082
32
0.0000000000
13
-2.3647184590
23
1.4747960915
33
0.0000000000
40
0.0000000000
40
0.0000000000
40
0.0000000000
40
0.0000000000
40
0.5011979925
40
1.0000000000
40
1.0000000000
40
1.0000000000
40
1.0000000000
10
5.6928431672
20
-7.1895516552
30
0.0000000000
10
5.2967890527
20
-6.9447580172
30
0.0000000000
10
4.5070626855
20
-6.4555501490
30
0.0000000000
10
3.7183239864
20
-5.9647514585
30
0.0000000000
10
3.3251485482
20
-5.7195410415
30
0.0000000000
11
5.6928431672
21
-7.1895516552
31
0.0000000000
11
4.5054186147
21
-6.4539784007
31
0.0000000000
11
3.3251485482
21
-5.7195410415
31
0.0000000000
0
SPLINE
5
47E
100
AcDbEntity
8
0
100
AcDbSpline
62
0
6
CONTINUOUS
70
0
71
3
72
9
73
5
74
3
42
0.0000001000
43
0.0000001000
44
0.0000000001
12
2.3706446576
22
1.4652511080
32
0.0000000000
13
2.3647184590
23
1.4747960915
33
0.0000000000
40
0.0000000000
40
0.0000000000
40
0.0000000000
40
0.0000000000
40
0.5011979925
40
1.0000000000
40
1.0000000000
40
1.0000000000
40
1.0000000000
10
-5.4345802736
20
-7.1895516552
30
0.0000000000
10
-5.0385261592
20
-6.9447580173
30
0.0000000000
10
-4.2487997920
20
-6.4555501490
30
0.0000000000
10
-3.4600610929
20
-5.9647514585
30
0.0000000000
10
-3.0668856547
20
-5.7195410415
30
0.0000000000
11
-5.4345802736
21
-7.1895516552
31
0.0000000000
11
-4.2471557211
21
-6.4539784007
31
0.0000000000
11
-3.0668856547
21
-5.7195410415
31
0.0000000000
0
SPLINE
5
47F
100
AcDbEntity
8
0
100
AcDbSpline
62
0
6
CONTINUOUS
70
0
71
3
72
16
73
12
74
10
42
0.0000001000
43
0.0000001000
44
0.0000000001
12
-12.4930422721
22
6.8432518843
32
0.0000000000
13
12.1168516956
23
7.4891993264
33
0.0000000000
40
0.0000000000
40
0.0000000000
40
0.0000000000
40
0.0000000000
40
0.1090237711
40
0.2193315054
40
0.3307834695
40
0.4430061367
40
0.5557601662
40
0.6679303030
40
0.7797247653
40
0.8903833853
40
1.0000000000
40
1.0000000000
40
1.0000000000
40
1.0000000000
10
-5.1208685532
20
-19.0407794222
30
0.0000000000
10
-5.5748814136
20
-18.7920870465
30
0.0000000000
10
-6.4326180482
20
-18.1820041411
30
0.0000000000
10
-7.4770469492
20
-16.9910015507
30
0.0000000000
10
-8.2286601485
20
-15.5784097142
30
0.0000000000
10
-8.6406772068
20
-14.0204114233
30
0.0000000000
10
-8.6861733391
20
-12.4059103208
30
0.0000000000
10
-8.3619150442
20
-10.8258512833
30
0.0000000000
10
-7.6879704441
20
-9.3710087961
30
0.0000000000
10
-6.7052869227
20
-8.1205644422
30
0.0000000000
10
-5.8773143813
20
-7.4631973209
30
0.0000000000
10
-5.4345782934
20
-7.1895504286
30
0.0000000000
11
-5.1208685532
21
-19.0407794222
31
0.0000000000
11
-6.3867763753
21
-18.1411919824
31
0.0000000000
11
-7.4236686529
21
-16.9606091941
31
0.0000000000
11
-8.1699601382
21
-15.5593752452
31
0.0000000000
11
-8.5790244349
21
-14.0140428207
31
0.0000000000
11
-8.6241929017
21
-12.4085516340
31
0.0000000000
11
-8.3025064437
21
-10.8434599510
31
0.0000000000
11
-7.6325773651
21
-9.3987741365
31
0.0000000000
11
-6.6577560778
21
-8.1600744596
31
0.0000000000
11
-5.4345782934
21
-7.1895504286
31
0.0000000000
0
SPLINE
5
480
100
AcDbEntity
8
0
100
AcDbSpline
62
0
6
CONTINUOUS
70
0
71
3
72
13
73
9
74
7
42
0.0000001000
43
0.0000001000
44
0.0000000001
12
0.9579033827
22
0.0000000000
32
0.0000000000
13
-0.9579033827
23
0.0000000000
33
0.0000000000
40
0.0000000000
40
0.0000000000
40
0.0000000000
40
0.0000000000
40
0.1684137652
40
0.3343304228
40
0.4999967029
40
0.6656596814
40
0.8315777856
40
1.0000000000
40
1.0000000000
40
1.0000000000
40
1.0000000000
10
-8.5708685532
20
-9.8404627573
30
0.0000000000
10
-8.5170938481
20
-9.8404627573
30
0.0000000000
10
-8.4082380066
20
-9.8111930299
30
0.0000000000
10
-8.2910255368
20
-9.6925549379
30
0.0000000000
10
-8.2481672210
20
-9.5320467675
30
0.0000000000
10
-8.2910213445
20
-9.3715373663
30
0.0000000000
10
-8.4082318451
20
-9.2528940845
30
0.0000000000
10
-8.5170911503
20
-9.2236218460
30
0.0000000000
10
-8.5708685532
20
-9.2236218460
30
0.0000000000
11
-8.5708685532
21
-9.8404627573
31
0.0000000000
11
-8.4151592003
21
-9.7982719095
31
0.0000000000
11
-8.3032734633
21
-9.6853958580
31
0.0000000000
11
-8.2624453663
21
-9.5320455745
31
0.0000000000
11
-8.3032685803
21
-9.3786972639
31
0.0000000000
11
-8.4151519620
21
-9.2658169266
31
0.0000000000
11
-8.5708685532
21
-9.2236218460
31
0.0000000000
0
SPLINE
5
481
100
AcDbEntity
8
0
100
AcDbSpline
62
0
6
CONTINUOUS
70
0
71
3
72
13
73
9
74
7
42
0.0000001000
43
0.0000001000
44
0.0000000001
12
0.9465501270
22
0.0000000000
32
0.0000000000
13
-0.9465501270
23
-0.0000000000
33
0.0000000000
40
0.0000000000
40
0.0000000000
40
0.0000000000
40
0.0000000000
40
0.1683855649
40
0.3343080720
40
0.5000049335
40
0.6657067239
40
0.8316270007
40
1.0000000000
40
1.0000000000
40
1.0000000000
40
1.0000000000
10
-8.5708685532
20
15.1627448787
30
0.0000000000
10
-8.5177400939
20
15.1627448787
30
0.0000000000
10
-8.4101824558
20
15.1916602800
30
0.0000000000
10
-8.2943470235
20
15.3088849512
30
0.0000000000
10
-8.2519857951
20
15.4675164938
30
0.0000000000
10
-8.2943532150
20
15.6261461951
30
0.0000000000
10
-8.4101915355
20
15.7433632042
30
0.0000000000
10
-8.5177440586
20
15.7722749099
30
0.0000000000
10
-8.5708685532
20
15.7722749099
30
0.0000000000
11
-8.5708685532
21
15.1627448787
31
0.0000000000
11
-8.4170285760
21
15.2044217317
31
0.0000000000
11
-8.3064559920
21
15.3159549250
31
0.0000000000
11
-8.2661009309
21
15.4675147334
31
0.0000000000
11
-8.3064632077
21
15.6190774483
31
0.0000000000
11
-8.4170392140
21
15.7306042759
31
0.0000000000
11
-8.5708685532
21
15.7722749099
31
0.0000000000
0
SPLINE
5
482
100
AcDbEntity
8
0
100
AcDbSpline
62
9
6
CONTINUOUS
70
0
71
3
72
9
73
5
74
3
42
0.0000001000
43
0.0000001000
44
0.0000000001
12
0.0707129781
22
-0.0707234489
32
0.0000000000
13
-0.0000001149
23
-0.1000106569
33
0.0000000000
40
0.0000000000
40
0.0000000000
40
0.0000000000
40
0.0000000000
40
0.3245603422
40
1.0000000000
40
1.0000000000
40
1.0000000000
40
1.0000000000
10
-9.6739015530
20
20.5208408302
30
0.0000000000
10
-9.6662513436
20
20.5131894879
30
0.0000000000
10
-9.6794079933
20
20.4734364325
30
0.0000000000
10
-9.6721864839
20
20.4433731153
30
0.0000000000
10
-9.6721865098
20
20.4208560607
30
0.0000000000
11
-9.6739015530
21
20.5208408302
31
0.0000000000
11
-9.6726449737
21
20.4884056688
31
0.0000000000
11
-9.6721865098
21
20.4208560607
31
0.0000000000
0
SPLINE
5
483
100
AcDbEntity
8
0
100
AcDbSpline
62
9
6
CONTINUOUS
70
0
71
3
72
9
73
5
74
3
42
0.0000001000
43
0.0000001000
44
0.0000000001
12
-0.0039304971
22
4.3871925397
32
0.0000000000
13
-0.0050618704
23
4.3871913802
33
0.0000000000
40
0.0000000000
40
0.0000000000
40
0.0000000000
40
0.0000000000
40
0.5000409325
40
1.0000000000
40
1.0000000000
40
1.0000000000
40
1.0000000000
10
-9.6676904890
20
15.7688433038
30
0.0000000000
10
-9.6683456255
20
16.5001019200
30
0.0000000000
10
-9.6697501391
20
17.9624993502
30
0.0000000000
10
-9.6713429338
20
19.4248965875
30
0.0000000000
10
-9.6721865098
20
20.1560352914
30
0.0000000000
11
-9.6676904890
21
15.7688433038
31
0.0000000000
11
-9.6697973320
21
17.9626190210
31
0.0000000000
11
-9.6721865098
21
20.1560352914
31
0.0000000000
0
SPLINE
5
484
100
AcDbEntity
8
0
100
AcDbSpline
62
9
6
CONTINUOUS
70
0
71
3
72
10
73
6
74
4
42
0.0000001000
43
0.0000001000
44
0.0000000001
12
0.0138367900
22
24.3932360553
32
0.0000000000
13
-0.0209910981
23
24.3932309479
33
0.0000000000
40
0.0000000000
40
0.0000000000
40
0.0000000000
40
0.0000000000
40
0.3333816775
40
0.6667805794
40
1.0000000000
40
1.0000000000
40
1.0000000000
40
1.0000000000
10
-9.6635895128
20
-9.2270557200
30
0.0000000000
10
-9.6620518687
20
-6.5163030680
30
0.0000000000
10
-9.6602675958
20
-1.0946568868
30
0.0000000000
10
-9.6614577823
20
7.0364232949
30
0.0000000000
10
-9.6648296646
20
12.4567493971
30
0.0000000000
10
-9.6671612118
20
15.1661821579
30
0.0000000000
11
-9.6635895128
21
-9.2270557200
31
0.0000000000
11
-9.6609120752
21
-1.0947968963
31
0.0000000000
11
-9.6621029636
21
7.0378824399
31
0.0000000000
11
-9.6671612118
21
15.1661821579
31
0.0000000000
0
SPLINE
5
485
100
AcDbEntity
8
0
100
AcDbSpline
62
9
6
CONTINUOUS
70
0
71
3
72
9
73
5
74
3
42
0.0000001000
43
0.0000001000
44
0.0000000001
12
0.0108264765
22
9.3834453564
32
0.0000000000
13
0.0056579316
23
9.3834498963
33
0.0000000000
40
0.0000000000
40
0.0000000000
40
0.0000000000
40
0.0000000000
40
0.4999133897
40
1.0000000000
40
1.0000000000
40
1.0000000000
40
1.0000000000
10
-9.6721865098
20
-19.2204805525
30
0.0000000000
10
-9.6703824096
20
-17.6568438940
30
0.0000000000
10
-9.6672055029
20
-14.5290282620
30
0.0000000000
10
-9.6648895486
20
-11.4012118744
30
0.0000000000
10
-9.6639463966
20
-9.8370326573
30
0.0000000000
11
-9.6721865098
21
-19.2204805525
31
0.0000000000
11
-9.6674212167
21
-14.5295698750
31
0.0000000000
11
-9.6639463966
21
-9.8370326573
31
0.0000000000
0
SPLINE
5
486
100
AcDbEntity
8
0
100
AcDbSpline
62
9
6
CONTINUOUS
70
0
71
3
72
9
73
5
74
3
42
0.0000001000
43
0.0000001000
44
0.0000000001
12
-0.0000000035
22
-0.1000049608
32
0.0000000000
13
-0.0708473023
23
-0.0705808185
33
0.0000000000
40
0.0000000000
40
0.0000000000
40
0.0000000000
40
0.0000000000
40
0.3630547288
40
1.0000000000
40
1.0000000000
40
1.0000000000
40
1.0000000000
10
-9.6721865098
20
-19.4853013218
30
0.0000000000
10
-9.6721865102
20
-19.4974037464
30
0.0000000000
10
-9.6762421888
20
-19.5289636363
30
0.0000000000
10
-9.6588596016
20
-19.5703007185
30
0.0000000000
10
-9.6739015530
20
-19.5852860913
30
0.0000000000
11
-9.6721865098
21
-19.4853013218
31
0.0000000000
11
-9.6723056261
21
-19.5216084003
31
0.0000000000
11
-9.6739015530
21
-19.5852860913
31
0.0000000000
0
SPLINE
5
487
100
AcDbEntity
8
0
100
AcDbSpline
62
9
6
CONTINUOUS
70
0
71
3
72
9
73
5
74
3
42
0.0000001000
43
0.0000001000
44
0.0000000001
12
-0.0050618704
22
-4.3871913802
32
0.0000000000
13
-0.0039304971
23
-4.3871925397
33
0.0000000000
40
0.0000000000
40
0.0000000000
40
0.0000000000
40
0.0000000000
40
0.4999590675
40
1.0000000000
40
1.0000000000
40
1.0000000000
40
1.0000000000
10
9.9304494034
20
20.1560352914
30
0.0000000000
10
9.9296058273
20
19.4248965875
30
0.0000000000
10
9.9280130326
20
17.9624993502
30
0.0000000000
10
9.9266085190
20
16.5001019200
30
0.0000000000
10
9.9259533825
20
15.7688433038
30
0.0000000000
11
9.9304494034
21
20.1560352914
31
0.0000000000
11
9.9280602256
21
17.9626190210
31
0.0000000000
11
9.9259533825
21
15.7688433038
31
0.0000000000
0
SPLINE
5
488
100
AcDbEntity
8
0
100
AcDbSpline
62
9
6
CONTINUOUS
70
0
71
3
72
10
73
6
74
4
42
0.0000001000
43
0.0000001000
44
0.0000000001
12
-0.0000000545
22
0.1000118994
32
0.0000000000
13
0.0708144130
23
0.0706236429
33
0.0000000000
40
0.0000000000
40
0.0000000000
40
0.0000000000
40
0.0000000000
40
0.3444206040
40
0.7058672485
40
1.0000000000
40
1.0000000000
40
1.0000000000
40
1.0000000000
10
9.9304494034
20
20.4208560607
30
0.0000000000
10
9.9304493971
20
20.4323381136
30
0.0000000000
10
9.9294721417
20
20.4563582050
30
0.0000000000
10
9.9343981537
20
20.4875504400
30
0.0000000000
10
9.9252215005
20
20.5139165880
30
0.0000000000
10
9.9321644466
20
20.5208408302
30
0.0000000000
11
9.9304494034
21
20.4208560607
31
0.0000000000
11
9.9305562319
21
20.4553020538
31
0.0000000000
11
9.9309586157
21
20.4914487797
31
0.0000000000
11
9.9321644466
21
20.5208408302
31
0.0000000000
0
SPLINE
5
489
100
AcDbEntity
8
0
100
AcDbSpline
62
9
6
CONTINUOUS
70
0
71
3
72
9
73
5
74
3
42
0.0000001000
43
0.0000001000
44
0.0000000001
12
-0.0707816666
22
0.0706553419
32
0.0000000000
13
0.0000000782
23
0.1000111077
33
0.0000000000
40
0.0000000000
40
0.0000000000
40
0.0000000000
40
0.0000000000
40
0.3040444663
40
1.0000000000
40
1.0000000000
40
1.0000000000
40
1.0000000000
10
9.9321644466
20
-19.5852860913
30
0.0000000000
10
9.9249908552
20
-19.5781253027
30
0.0000000000
10
9.9378597465
20
-19.5384604327
30
0.0000000000
10
9.9304493852
20
-19.5085024164
30
0.0000000000
10
9.9304494034
20
-19.4853013218
30
0.0000000000
11
9.9321644466
21
-19.5852860913
31
0.0000000000
11
9.9309416099
21
-19.5549028653
31
0.0000000000
11
9.9304494034
21
-19.4853013218
31
0.0000000000
0
SPLINE
5
48A
100
AcDbEntity
8
0
100
AcDbSpline
62
9
6
CONTINUOUS
70
0
71
3
72
9
73
5
74
3
42
0.0000001000
43
0.0000001000
44
0.0000000001
12
0.0056579316
22
-9.3834498964
32
0.0000000000
13
0.0108264765
23
-9.3834453564
33
0.0000000000
40
0.0000000000
40
0.0000000000
40
0.0000000000
40
0.0000000000
40
0.5000866103
40
1.0000000000
40
1.0000000000
40
1.0000000000
40
1.0000000000
10
9.9222092902
20
-9.8370326573
30
0.0000000000
10
9.9231524421
20
-11.4012118744
30
0.0000000000
10
9.9254683964
20
-14.5290282620
30
0.0000000000
10
9.9286453032
20
-17.6568438940
30
0.0000000000
10
9.9304494034
20
-19.2204805525
30
0.0000000000
11
9.9222092902
21
-9.8370326573
31
0.0000000000
11
9.9256841103
21
-14.5295698750
31
0.0000000000
11
9.9304494034
21
-19.2204805525
31
0.0000000000
0
SPLINE
5
48B
100
AcDbEntity
8
0
100
AcDbSpline
62
9
6
CONTINUOUS
70
0
71
3
72
10
73
6
74
4
42
0.0000001000
43
0.0000001000
44
0.0000000001
12
-0.0209910981
22
-24.3932309479
32
0.0000000000
13
0.0138367900
23
-24.3932360553
33
0.0000000000
40
0.0000000000
40
0.0000000000
40
0.0000000000
40
0.0000000000
40
0.3332160225
40
0.6666026846
40
1.0000000000
40
1.0000000000
40
1.0000000000
40
1.0000000000
10
9.9254241054
20
15.1661821579
30
0.0000000000
10
9.9230925820
20
12.4567770271
30
0.0000000000
10
9.9197207655
20
7.0365780778
30
0.0000000000
10
9.9185304687
20
-1.0945021038
30
0.0000000000
10
9.9203146901
20
-6.5161759151
30
0.0000000000
10
9.9218524064
20
-9.2270557200
30
0.0000000000
11
9.9254241054
21
15.1661821579
31
0.0000000000
11
9.9203658890
21
7.0379653298
31
0.0000000000
11
9.9191749338
21
-1.0944154376
31
0.0000000000
11
9.9218524064
21
-9.2270557200
31
0.0000000000
0
SPLINE
5
48C
100
AcDbEntity
8
0
100
AcDbSpline
62
9
6
CONTINUOUS
70
0
71
3
72
9
73
5
74
3
42
0.0000001000
43
0.0000001000
44
0.0000000001
12
1.3975420665
22
0.0030361016
32
0.0000000000
13
1.3975453644
23
0.0000012202
33
0.0000000000
40
0.0000000000
40
0.0000000000
40
0.0000000000
40
0.0000000000
40
0.4848926964
40
1.0000000000
40
1.0000000000
40
1.0000000000
40
1.0000000000
10
-3.3684128693
20
-19.7844599312
30
0.0000000000
10
-3.1425268889
20
-19.7839692034
30
0.0000000000
10
-2.6766789895
20
-19.7831929250
30
0.0000000000
10
-2.2108304947
20
-19.7829264950
30
0.0000000000
10
-1.9708685532
20
-19.7829262855
30
0.0000000000
11
-3.3684128693
21
-19.7844599312
31
0.0000000000
11
-2.6907542608
21
-19.7833362560
31
0.0000000000
11
-1.9708685532
21
-19.7829262855
31
0.0000000000
0
SPLINE
5
48D
100
AcDbEntity
8
0
100
AcDbSpline
62
9
6
CONTINUOUS
70
0
71
3
72
9
73
5
74
3
42
0.0000001000
43
0.0000001000
44
0.0000000001
12
1.3975453644
22
-0.0000011460
32
0.0000000000
13
1.3975420665
23
-0.0030360823
33
0.0000000000
40
0.0000000000
40
0.0000000000
40
0.0000000000
40
0.0000000000
40
0.5151255647
40
1.0000000000
40
1.0000000000
40
1.0000000000
40
1.0000000000
10
2.2291314468
20
-19.7829262855
30
0.0000000000
10
2.4691018951
20
-19.7829264823
30
0.0000000000
10
2.9349503900
20
-19.7831929295
30
0.0000000000
10
3.4007982894
20
-19.7839692250
30
0.0000000000
10
3.6266757628
20
-19.7844599312
30
0.0000000000
11
2.2291314468
21
-19.7829262855
31
0.0000000000
11
2.9490426751
21
-19.7833362803
31
0.0000000000
11
3.6266757628
21
-19.7844599312
31
0.0000000000
0
SPLINE
5
48E
100
AcDbEntity
8
0
100
AcDbSpline
62
0
6
CONTINUOUS
70
0
71
3
72
9
73
5
74
3
42
0.0000001000
43
0.0000001000
44
0.0000000001
12
0.3751325403
22
0.0010765389
32
0.0000000000
13
0.3751325440
23
0.0010752698
33
0.0000000000
40
0.0000000000
40
0.0000000000
40
0.0000000000
40
0.0000000000
40
0.7590990349
40
1.0000000000
40
1.0000000000
40
1.0000000000
40
1.0000000000
10
7.1291314468
20
-19.8822226306
30
0.0000000000
10
7.2240523632
20
-19.8819502307
30
0.0000000000
10
7.3490965437
20
-19.8815915113
30
0.0000000000
10
7.4741407248
20
-19.8812330242
30
0.0000000000
10
7.5042639888
20
-19.8811466797
30
0.0000000000
11
7.1291314468
21
-19.8822226306
31
0.0000000000
11
7.4138941970
21
-19.8814057575
31
0.0000000000
11
7.5042639888
21
-19.8811466797
31
0.0000000000
0
SPLINE
5
48F
100
AcDbEntity
8
0
100
AcDbSpline
62
0
6
CONTINUOUS
70
0
71
3
72
10
73
6
74
4
42
0.0000001000
43
0.0000001000
44
0.0000000001
12
-0.2000402210
22
0.0000000022
32
0.0000000000
13
-0.1415935892
23
-0.1413058581
33
0.0000000000
40
0.0000000000
40
0.0000000000
40
0.0000000000
40
0.0000000000
40
0.4938425178
40
0.8585460695
40
1.0000000000
40
1.0000000000
40
1.0000000000
40
1.0000000000
10
-9.4677148526
20
15.7722749099
30
0.0000000000
10
-9.5006443081
20
15.7722749103
30
0.0000000000
10
-9.5596682684
20
15.7756467379
30
0.0000000000
10
-9.6212205459
20
15.7643137324
30
0.0000000000
10
-9.6610141658
20
15.7755060602
30
0.0000000000
10
-9.6676904890
20
15.7688433038
30
0.0000000000
11
-9.4677148526
21
15.7722749099
31
0.0000000000
11
-9.5665021671
21
15.7718190196
31
0.0000000000
11
-9.6394468955
21
15.7705724526
31
0.0000000000
11
-9.6676904890
21
15.7688433038
31
0.0000000000
0
SPLINE
5
490
100
AcDbEntity
8
0
100
AcDbSpline
62
0
6
CONTINUOUS
70
0
71
3
72
9
73
5
74
3
42
0.0000001000
43
0.0000001000
44
0.0000000001
12
-0.3751325403
22
-0.0010765389
32
0.0000000000
13
-0.3751325440
23
-0.0010752698
33
0.0000000000
40
0.0000000000
40
0.0000000000
40
0.0000000000
40
0.0000000000
40
0.7590990349
40
1.0000000000
40
1.0000000000
40
1.0000000000
40
1.0000000000
10
-6.8708685532
20
20.8177773694
30
0.0000000000
10
-6.9657894697
20
20.8175049696
30
0.0000000000
10
-7.0908336501
20
20.8171462501
30
0.0000000000
10
-7.2158778313
20
20.8167877631
30
0.0000000000
10
-7.2460010952
20
20.8167014186
30
0.0000000000
11
-6.8708685532
21
20.8177773694
31
0.0000000000
11
-7.1556313035
21
20.8169604963
31
0.0000000000
11
-7.2460010952
21
20.8167014186
31
0.0000000000
0
SPLINE
5
491
100
AcDbEntity
8
0
100
AcDbSpline
62
0
6
CONTINUOUS
70
0
71
3
72
10
73
6
74
4
42
0.0000001000
43
0.0000001000
44
0.0000000001
12
-0.0103476593
22
-1.0324092043
32
0.0000000000
13
-0.0105817516
23
-1.0324068315
33
0.0000000000
40
0.0000000000
40
0.0000000000
40
0.0000000000
40
0.0000000000
40
0.3263091910
40
0.6596571044
40
1.0000000000
40
1.0000000000
40
1.0000000000
40
1.0000000000
10
-4.5103955143
20
-18.2869238550
30
0.0000000000
10
-4.5115210264
20
-18.3992187257
30
0.0000000000
10
-4.5138066730
20
-18.6262306442
30
0.0000000000
10
-4.5172989854
20
-18.9703666113
30
0.0000000000
10
-4.5196680786
20
-19.2022076829
30
0.0000000000
10
-4.5208685532
20
-19.3193317930
30
0.0000000000
11
-4.5103955143
21
-18.2869238550
31
0.0000000000
11
-4.5137867091
21
-18.6238083199
31
0.0000000000
11
-4.5172785609
21
-18.9679593456
31
0.0000000000
11
-4.5208685532
21
-19.3193317930
31
0.0000000000
0
SPLINE
5
492
100
AcDbEntity
8
0
100
AcDbSpline
62
9
6
CONTINUOUS
70
0
71
3
72
8
73
4
74
2
42
0.0000001000
43
0.0000001000
44
0.0000000001
12
0.2269377873
22
-0.0004803748
32
0.0000000000
13
0.2269379239
23
-0.0004143794
33
0.0000000000
40
0.0000000000
40
0.0000000000
40
0.0000000000
40
0.0000000000
40
1.0000000000
40
1.0000000000
40
1.0000000000
40
1.0000000000
10
-3.3997433523
20
-19.6403635683
30
0.0000000000
10
-3.3240974232
20
-19.6405236933
30
0.0000000000
10
-3.2484514701
20
-19.6406731776
30
0.0000000000
10
-3.1728054954
20
-19.6408113040
30
0.0000000000
11
-3.3997433523
21
-19.6403635683
31
0.0000000000
11
-3.1728054954
21
-19.6408113040
31
0.0000000000
0
SPLINE
5
493
100
AcDbEntity
8
0
100
AcDbSpline
62
0
6
CONTINUOUS
70
0
71
3
72
9
73
5
74
3
42
0.0000001000
43
0.0000001000
44
0.0000000001
12
-0.3775378306
22
-0.6846978867
32
0.0000000000
13
-0.3476583876
23
-0.7003425269
33
0.0000000000
40
0.0000000000
40
0.0000000000
40
0.0000000000
40
0.0000000000
40
0.4937633281
40
1.0000000000
40
1.0000000000
40
1.0000000000
40
1.0000000000
10
-7.0857976827
20
-14.9322226306
30
0.0000000000
10
-7.1479357946
20
-15.0449155330
30
0.0000000000
10
-7.2711820012
20
-15.2745897470
30
0.0000000000
10
-7.3894507598
20
-15.5068632636
30
0.0000000000
10
-7.4481165682
20
-15.6250429536
30
0.0000000000
11
-7.0857976827
21
-14.9322226306
31
0.0000000000
11
-7.2684311960
21
-15.2723586573
31
0.0000000000
11
-7.4481165682
21
-15.6250429536
31
0.0000000000
0
SPLINE
5
494
100
AcDbEntity
8
0
100
AcDbSpline
62
0
6
CONTINUOUS
70
0
71
3
72
10
73
6
74
4
42
0.0000001000
43
0.0000001000
44
0.0000000001
12
0.0102413620
22
-1.0919480669
32
0.0000000000
13
0.0106695413
23
-1.0919439670
33
0.0000000000
40
0.0000000000
40
0.0000000000
40
0.0000000000
40
0.0000000000
40
0.3185577142
40
0.6451521271
40
1.0000000000
40
1.0000000000
40
1.0000000000
40
1.0000000000
10
-5.1313415922
20
-17.9707144746
30
0.0000000000
10
-5.1302541039
20
-18.0866639680
30
0.0000000000
10
-5.1280334244
20
-18.3214880030
30
0.0000000000
10
-5.1245409581
20
-18.6854699464
30
0.0000000000
10
-5.1221305746
20
-18.9335023398
30
0.0000000000
10
-5.1208685532
20
-19.0626603378
30
0.0000000000
11
-5.1313415922
21
-17.9707144746
31
0.0000000000
11
-5.1280531655
21
-18.3185627104
31
0.0000000000
11
-5.1246326336
21
-18.6751861296
31
0.0000000000
11
-5.1208685532
21
-19.0626603378
31
0.0000000000
0
SPLINE
5
495
100
AcDbEntity
8
0
100
AcDbSpline
62
9
6
CONTINUOUS
70
0
71
3
72
8
73
4
74
2
42
0.0000001000
43
0.0000001000
44
0.0000000001
12
0.0311061812
22
0.0000646738
32
0.0000000000
13
0.0311061785
23
0.0000658467
33
0.0000000000
40
0.0000000000
40
0.0000000000
40
0.0000000000
40
0.0000000000
40
1.0000000000
40
1.0000000000
40
1.0000000000
40
1.0000000000
10
3.6269000662
20
-19.6404288299
30
0.0000000000
10
3.6372687933
20
-19.6404072720
30
0.0000000000
10
3.6476375199
20
-19.6403855172
30
0.0000000000
10
3.6580062461
20
-19.6403635683
30
0.0000000000
11
3.6269000662
21
-19.6404288299
31
0.0000000000
11
3.6580062461
21
-19.6403635683
31
0.0000000000
0
SPLINE
5
496
100
AcDbEntity
8
0
100
AcDbSpline
62
0
6
CONTINUOUS
70
0
71
3
72
10
73
6
74
4
42
0.0000001000
43
0.0000001000
44
0.0000000001
12
-0.0105817516
22
1.0324068315
32
0.0000000000
13
-0.0103476593
23
1.0324092043
33
0.0000000000
40
0.0000000000
40
0.0000000000
40
0.0000000000
40
0.0000000000
40
0.3401307407
40
0.6734806557
40
1.0000000000
40
1.0000000000
40
1.0000000000
40
1.0000000000
10
4.7791314468
20
-19.3193317930
30
0.0000000000
10
4.7779317204
20
-19.2022806929
30
0.0000000000
10
4.7755633618
20
-18.9705119427
30
0.0000000000
10
4.7720710332
20
-18.6263759757
30
0.0000000000
10
4.7697846448
20
-18.3992910471
30
0.0000000000
10
4.7686584078
20
-18.2869238550
30
0.0000000000
11
4.7791314468
21
-19.3193317930
31
0.0000000000
11
4.7755436848
21
-18.9681783759
31
0.0000000000
11
4.7720517957
21
-18.6240252840
31
0.0000000000
11
4.7686584078
21
-18.2869238550
31
0.0000000000
0
SPLINE
5
497
100
AcDbEntity
8
0
100
AcDbSpline
62
0
6
CONTINUOUS
70
0
71
3
72
9
73
5
74
3
42
0.0000001000
43
0.0000001000
44
0.0000000001
12
-0.3476583874
22
0.7003425266
32
0.0000000000
13
-0.3775378304
23
0.6846978863
33
0.0000000000
40
0.0000000000
40
0.0000000000
40
0.0000000000
40
0.0000000000
40
0.5060194084
40
1.0000000000
40
1.0000000000
40
1.0000000000
40
1.0000000000
10
7.7063794617
20
-15.6250429536
30
0.0000000000
10
7.6477388312
20
-15.5069139833
30
0.0000000000
10
7.5294710984
20
-15.2746399741
30
0.0000000000
10
7.4062260299
20
-15.0449651196
30
0.0000000000
10
7.3440605763
20
-14.9322226306
30
0.0000000000
11
7.7063794617
21
-15.6250429536
31
0.0000000000
11
7.5267728200
21
-15.2725091981
31
0.0000000000
11
7.3440605763
21
-14.9322226306
31
0.0000000000
0
SPLINE
5
498
100
AcDbEntity
8
0
100
AcDbSpline
62
0
6
CONTINUOUS
70
0
71
3
72
10
73
6
74
4
42
0.0000001000
43
0.0000001000
44
0.0000000001
12
0.0106695405
22
1.0919438839
32
0.0000000000
13
0.0102413612
23
1.0919479837
33
0.0000000000
40
0.0000000000
40
0.0000000000
40
0.0000000000
40
0.0000000000
40
0.3546412809
40
0.6812396304
40
1.0000000000
40
1.0000000000
40
1.0000000000
40
1.0000000000
10
5.3791314468
20
-19.0626602546
30
0.0000000000
10
5.3803927333
20
-18.9335774621
30
0.0000000000
10
5.3828024081
20
-18.6856188505
30
0.0000000000
10
5.3862949037
20
-18.3216369351
30
0.0000000000
10
5.3885163057
20
-18.0867377223
30
0.0000000000
10
5.3896044857
20
-17.9707144746
30
0.0000000000
11
5.3791314468
21
-19.0626602546
31
0.0000000000
11
5.3828933496
21
-18.6754116630
31
0.0000000000
11
5.3863139515
21
-18.3187839728
31
0.0000000000
11
5.3896044857
21
-17.9707144746
31
0.0000000000
0
SPLINE
5
499
100
AcDbEntity
8
0
100
AcDbSpline
62
0
6
CONTINUOUS
70
0
71
3
72
8
73
4
74
2
42
0.0000001000
43
0.0000001000
44
0.0000000001
12
-0.0058118227
22
0.0567391165
32
0.0000000000
13
-0.0053383833
23
0.0567892660
33
0.0000000000
40
0.0000000000
40
0.0000000000
40
0.0000000000
40
0.0000000000
40
1.0000000000
40
1.0000000000
40
1.0000000000
40
1.0000000000
10
-5.4525267845
20
-15.6250429536
30
0.0000000000
10
-5.4544640588
20
-15.6061299148
30
0.0000000000
10
-5.4563334025
20
-15.5872087246
30
0.0000000000
10
-5.4581128636
20
-15.5682789693
30
0.0000000000
11
-5.4525267845
21
-15.6250429536
31
0.0000000000
11
-5.4581128636
21
-15.5682789693
31
0.0000000000
0
SPLINE
5
49A
100
AcDbEntity
8
0
100
AcDbSpline
62
0
6
CONTINUOUS
70
0
71
3
72
9
73
5
74
3
42
0.0000001000
43
0.0000001000
44
0.0000000001
12
-0.0161998689
22
0.1723328231
32
0.0000000000
13
-0.0098000602
23
0.1728121288
33
0.0000000000
40
0.0000000000
40
0.0000000000
40
0.0000000000
40
0.0000000000
40
0.6647129840
40
1.0000000000
40
1.0000000000
40
1.0000000000
40
1.0000000000
10
-5.4581128636
20
-15.5682789693
30
0.0000000000
10
-5.4617022846
20
-15.5300950142
30
0.0000000000
10
-5.4665520502
20
-15.4725983107
30
0.0000000000
10
-5.4701663349
20
-15.4150150456
30
0.0000000000
10
-5.4712616125
20
-15.3957011580
30
0.0000000000
11
-5.4581128636
21
-15.5682789693
31
0.0000000000
11
-5.4676037999
21
-15.4536191568
31
0.0000000000
11
-5.4712616125
21
-15.3957011580
31
0.0000000000
0
SPLINE
5
49B
100
AcDbEntity
8
0
100
AcDbSpline
62
0
6
CONTINUOUS
70
0
71
3
72
8
73
4
74
2
42
0.0000001000
43
0.0000001000
44
0.0000000001
12
-0.0033054300
22
0.0582872328
32
0.0000000000
13
-0.0026660336
23
0.0583210893
33
0.0000000000
40
0.0000000000
40
0.0000000000
40
0.0000000000
40
0.0000000000
40
1.0000000000
40
1.0000000000
40
1.0000000000
40
1.0000000000
10
-5.4712616125
20
-15.3957011580
30
0.0000000000
10
-5.4723634225
20
-15.3762720804
30
0.0000000000
10
-5.4733472931
20
-15.3568359529
30
0.0000000000
10
-5.4742359710
20
-15.3373955898
30
0.0000000000
11
-5.4712616125
21
-15.3957011580
31
0.0000000000
11
-5.4742359710
21
-15.3373955898
31
0.0000000000
0
SPLINE
5
49C
100
AcDbEntity
8
0
100
AcDbSpline
62
0
6
CONTINUOUS
70
0
71
3
72
8
73
4
74
2
42
0.0000001000
43
0.0000001000
44
0.0000000001
12
-0.0026823643
22
0.0586783326
32
0.0000000000
13
-0.0021736910
23
0.0586954599
33
0.0000000000
40
0.0000000000
40
0.0000000000
40
0.0000000000
40
0.0000000000
40
1.0000000000
40
1.0000000000
40
1.0000000000
40
1.0000000000
10
-5.4742359710
20
-15.3373955898
30
0.0000000000
10
-5.4751300924
20
-15.3178361456
30
0.0000000000
10
-5.4759278513
20
-15.2982724137
30
0.0000000000
10
-5.4766524150
20
-15.2787072604
30
0.0000000000
11
-5.4742359710
21
-15.3373955898
31
0.0000000000
11
-5.4766524150
21
-15.2787072604
31
0.0000000000
0
SPLINE
5
49D
100
AcDbEntity
8
0
100
AcDbSpline
62
0
6
CONTINUOUS
70
0
71
3
72
10
73
6
74
4
42
0.0000001000
43
0.0000001000
44
0.0000000001
12
0.3000887779
22
0.0000000000
32
0.0000000000
13
0.1341956046
23
-0.2684116509
33
0.0000000000
40
0.0000000000
40
0.0000000000
40
0.0000000000
40
0.0000000000
40
0.4973078836
40
0.8628897268
40
1.0000000000
40
1.0000000000
40
1.0000000000
40
1.0000000000
10
-4.7931334896
20
20.7654121746
30
0.0000000000
10
-4.7433879846
20
20.7654121746
30
0.0000000000
10
-4.6519176702
20
20.7722706123
30
0.0000000000
10
-4.5666535264
20
20.7502156179
30
0.0000000000
10
-4.4992781114
20
20.7724886834
30
0.0000000000
10
-4.4931449127
20
20.7602213518
30
0.0000000000
11
-4.7931334896
21
20.7654121746
31
0.0000000000
11
-4.6438985877
21
20.7647182983
31
0.0000000000
11
-4.5342079968
21
20.7628204051
31
0.0000000000
11
-4.4931449127
21
20.7602213518
31
0.0000000000
0
SPLINE
5
49E
100
AcDbEntity
8
0
100
AcDbSpline
62
0
6
CONTINUOUS
70
0
71
3
72
9
73
5
74
3
42
0.0000001000
43
0.0000001000
44
0.0000000001
12
0.0765721154
22
0.0998516109
32
0.0000000000
13
0.0172869180
23
0.1245271175
33
0.0000000000
40
0.0000000000
40
0.0000000000
40
0.0000000000
40
0.0000000000
40
0.5173499008
40
1.0000000000
40
1.0000000000
40
1.0000000000
40
1.0000000000
10
-4.5335006911
20
19.8852306233
30
0.0000000000
10
-4.5202958323
20
19.9024500303
30
0.0000000000
10
-4.4988401072
20
19.9388484037
30
0.0000000000
10
-4.4876000891
20
19.9797921163
30
0.0000000000
10
-4.4848189115
20
19.9998264582
30
0.0000000000
11
-4.5335006911
21
19.8852306233
31
0.0000000000
11
-4.5008298412
21
19.9413279843
31
0.0000000000
11
-4.4848189115
21
19.9998264582
31
0.0000000000
0
SPLINE
5
49F
100
AcDbEntity
8
0
100
AcDbSpline
62
0
6
CONTINUOUS
70
0
71
3
72
8
73
4
74
2
42
0.0000001000
43
0.0000001000
44
0.0000000001
12
0.0039752813
22
0.0286361239
32
0.0000000000
13
0.0002886394
23
0.0287527314
33
0.0000000000
40
0.0000000000
40
0.0000000000
40
0.0000000000
40
0.0000000000
40
1.0000000000
40
1.0000000000
40
1.0000000000
40
1.0000000000
10
-4.4848189115
20
19.9998264582
30
0.0000000000
10
-4.4834938178
20
20.0093718328
30
0.0000000000
10
-4.4827688845
20
20.0189791470
30
0.0000000000
10
-4.4826726713
20
20.0285633908
30
0.0000000000
11
-4.4848189115
21
19.9998264582
31
0.0000000000
11
-4.4826726713
21
20.0285633908
31
0.0000000000
0
SPLINE
5
4A0
100
AcDbEntity
8
0
100
AcDbSpline
62
0
6
CONTINUOUS
70
0
71
3
72
11
73
7
74
5
42
0.0000001000
43
0.0000001000
44
0.0000000001
12
0.0002576444
22
-0.4681422303
32
0.0000000000
13
-0.4681423012
23
-0.0000000000
33
0.0000000000
40
0.0000000000
40
0.0000000000
40
0.0000000000
40
0.0000000000
40
0.2503539262
40
0.4991000948
40
0.7487438262
40
1.0000000000
40
1.0000000000
40
1.0000000000
40
1.0000000000
10
-4.4703642928
20
19.2677773694
30
0.0000000000
10
-4.4703427920
20
19.2287102876
30
0.0000000000
10
-4.4859048729
20
19.1499596341
30
0.0000000000
10
-4.5524499372
20
19.0503998939
30
0.0000000000
10
-4.6519723109
20
18.9834954725
30
0.0000000000
10
-4.7310040512
20
18.9677773694
30
0.0000000000
10
-4.7702119323
20
18.9677773694
30
0.0000000000
11
-4.4703642928
21
19.2677773694
31
0.0000000000
11
-4.4932003941
21
19.1528223846
31
0.0000000000
11
-4.5578182674
21
19.0559471670
31
0.0000000000
11
-4.6548712789
21
18.9908393546
31
0.0000000000
11
-4.7702119323
21
18.9677773694
31
0.0000000000
0
SPLINE
5
4A1
100
AcDbEntity
8
0
100
AcDbSpline
62
0
6
CONTINUOUS
70
0
71
3
72
10
73
6
74
4
42
0.0000001000
43
0.0000001000
44
0.0000000001
12
0.1341956046
22
0.2684116509
32
0.0000000000
13
0.3000887779
23
0.0000000000
33
0.0000000000
40
0.0000000000
40
0.0000000000
40
0.0000000000
40
0.0000000000
40
0.1371102732
40
0.5026921164
40
1.0000000000
40
1.0000000000
40
1.0000000000
40
1.0000000000
10
-5.2485921938
20
20.7602213518
30
0.0000000000
10
-5.2424589951
20
20.7724886834
30
0.0000000000
10
-5.1750835800
20
20.7502156179
30
0.0000000000
10
-5.0898194363
20
20.7722706123
30
0.0000000000
10
-4.9983491219
20
20.7654121746
30
0.0000000000
10
-4.9486036168
20
20.7654121746
30
0.0000000000
11
-5.2485921938
21
20.7602213518
31
0.0000000000
11
-5.2075291097
21
20.7628204051
31
0.0000000000
11
-5.0978385188
21
20.7647182983
31
0.0000000000
11
-4.9486036168
21
20.7654121746
31
0.0000000000
0
SPLINE
5
4A2
100
AcDbEntity
8
0
100
AcDbSpline
62
0
6
CONTINUOUS
70
0
71
3
72
8
73
4
74
2
42
0.0000001000
43
0.0000001000
44
0.0000000001
12
0.0819298375
22
-0.0352149386
32
0.0000000000
13
0.0881482670
23
-0.0124556959
33
0.0000000000
40
0.0000000000
40
0.0000000000
40
0.0000000000
40
0.0000000000
40
1.0000000000
40
1.0000000000
40
1.0000000000
40
1.0000000000
10
-5.0902111292
20
19.7950137696
30
0.0000000000
10
-5.0629011834
20
19.7832754567
30
0.0000000000
10
-5.0339380187
20
19.7752950499
30
0.0000000000
10
-5.0045552631
20
19.7711431513
30
0.0000000000
11
-5.0902111292
21
19.7950137696
31
0.0000000000
11
-5.0045552631
21
19.7711431513
31
0.0000000000
0
SPLINE
5
4A3
100
AcDbEntity
8
0
100
AcDbSpline
62
0
6
CONTINUOUS
70
0
71
3
72
8
73
4
74
2
42
0.0000001000
43
0.0000001000
44
0.0000000001
12
0.0475604216
22
-0.0067204741
32
0.0000000000
13
0.0477120147
23
0.0000000000
33
0.0000000000
40
0.0000000000
40
0.0000000000
40
0.0000000000
40
0.0000000000
40
1.0000000000
40
1.0000000000
40
1.0000000000
40
1.0000000000
10
-5.0045552631
20
19.7711431513
30
0.0000000000
10
-4.9887017892
20
19.7689029932
30
0.0000000000
10
-4.9727261663
20
19.7677773694
30
0.0000000000
10
-4.9568221614
20
19.7677773694
30
0.0000000000
11
-5.0045552631
21
19.7711431513
31
0.0000000000
11
-4.9568221614
21
19.7677773694
31
0.0000000000
0
SPLINE
5
4A4
100
AcDbEntity
8
0
100
AcDbSpline
62
0
6
CONTINUOUS
70
0
71
3
72
8
73
4
74
2
42
0.0000001000
43
0.0000001000
44
0.0000000001
12
-0.0781997658
22
0.0000000000
32
0.0000000000
13
-0.0761850971
23
0.0203857273
33
0.0000000000
40
0.0000000000
40
0.0000000000
40
0.0000000000
40
0.0000000000
40
1.0000000000
40
1.0000000000
40
1.0000000000
40
1.0000000000
10
-4.9715251742
20
18.9677773694
30
0.0000000000
10
-4.9975917627
20
18.9677773694
30
0.0000000000
10
-5.0238498145
20
18.9712615198
30
0.0000000000
10
-5.0492448469
20
18.9780567623
30
0.0000000000
11
-4.9715251742
21
18.9677773694
31
0.0000000000
11
-5.0492448469
21
18.9780567623
31
0.0000000000
0
SPLINE
5
4A5
100
AcDbEntity
8
0
100
AcDbSpline
62
0
6
CONTINUOUS
70
0
71
3
72
9
73
5
74
3
42
0.0000001000
43
0.0000001000
44
0.0000000001
12
-0.1512752381
22
0.0404784645
32
0.0000000000
13
-0.1106101768
23
0.1102180056
33
0.0000000000
40
0.0000000000
40
0.0000000000
40
0.0000000000
40
0.0000000000
40
0.2503272562
40
1.0000000000
40
1.0000000000
40
1.0000000000
40
1.0000000000
10
-5.0492448469
20
18.9780567623
30
0.0000000000
10
-5.0618676187
20
18.9814343833
30
0.0000000000
10
-5.1114409241
20
18.9981951519
30
0.0000000000
10
-5.1555450613
20
19.0276714684
30
0.0000000000
10
-5.1831855396
20
19.0552139466
30
0.0000000000
11
-5.0492448469
21
18.9780567623
31
0.0000000000
11
-5.0863439992
21
18.9906225414
31
0.0000000000
11
-5.1831855396
21
19.0552139466
31
0.0000000000
0
SPLINE
5
4A6
100
AcDbEntity
8
0
100
AcDbSpline
62
0
6
CONTINUOUS
70
0
71
3
72
9
73
5
74
3
42
0.0000001000
43
0.0000001000
44
0.0000000001
12
-0.1390478725
22
0.1385548748
32
0.0000000000
13
-0.0259093627
23
0.1946549068
33
0.0000000000
40
0.0000000000
40
0.0000000000
40
0.0000000000
40
0.0000000000
40
0.5989768377
40
1.0000000000
40
1.0000000000
40
1.0000000000
40
1.0000000000
10
-5.1831855396
20
19.0552139466
30
0.0000000000
10
-5.2109476912
20
19.0828776669
30
0.0000000000
10
-5.2481630025
20
19.1382331458
30
0.0000000000
10
-5.2652895712
20
19.2022737952
30
0.0000000000
10
-5.2687529893
20
19.2282941706
30
0.0000000000
11
-5.1831855396
21
19.0552139466
31
0.0000000000
11
-5.2483226066
21
19.1523069731
31
0.0000000000
11
-5.2687529893
21
19.2282941706
31
0.0000000000
0
SPLINE
5
4A7
100
AcDbEntity
8
0
100
AcDbSpline
62
0
6
CONTINUOUS
70
0
71
3
72
10
73
6
74
4
42
0.0000001000
43
0.0000001000
44
0.0000000001
12
0.3000887779
22
0.0000000000
32
0.0000000000
13
0.1341956046
23
-0.2684116509
33
0.0000000000
40
0.0000000000
40
0.0000000000
40
0.0000000000
40
0.0000000000
40
0.4973078836
40
0.8628897268
40
1.0000000000
40
1.0000000000
40
1.0000000000
40
1.0000000000
10
5.2068665104
20
20.7654121746
30
0.0000000000
10
5.2566120154
20
20.7654121746
30
0.0000000000
10
5.3480823298
20
20.7722706123
30
0.0000000000
10
5.4333464736
20
20.7502156179
30
0.0000000000
10
5.5007218886
20
20.7724886834
30
0.0000000000
10
5.5068550873
20
20.7602213518
30
0.0000000000
11
5.2068665104
21
20.7654121746
31
0.0000000000
11
5.3561014123
21
20.7647182983
31
0.0000000000
11
5.4657920032
21
20.7628204051
31
0.0000000000
11
5.5068550873
21
20.7602213518
31
0.0000000000
0
SPLINE
5
4A8
100
AcDbEntity
8
0
100
AcDbSpline
62
0
6
CONTINUOUS
70
0
71
3
72
9
73
5
74
3
42
0.0000001000
43
0.0000001000
44
0.0000000001
12
0.0765721154
22
0.0998516109
32
0.0000000000
13
0.0172869180
23
0.1245271175
33
0.0000000000
40
0.0000000000
40
0.0000000000
40
0.0000000000
40
0.0000000000
40
0.5173499008
40
1.0000000000
40
1.0000000000
40
1.0000000000
40
1.0000000000
10
5.4664993089
20
19.8852306233
30
0.0000000000
10
5.4797041677
20
19.9024500303
30
0.0000000000
10
5.5011598928
20
19.9388484037
30
0.0000000000
10
5.5123999109
20
19.9797921163
30
0.0000000000
10
5.5151810885
20
19.9998264582
30
0.0000000000
11
5.4664993089
21
19.8852306233
31
0.0000000000
11
5.4991701588
21
19.9413279843
31
0.0000000000
11
5.5151810885
21
19.9998264582
31
0.0000000000
0
SPLINE
5
4A9
100
AcDbEntity
8
0
100
AcDbSpline
62
0
6
CONTINUOUS
70
0
71
3
72
8
73
4
74
2
42
0.0000001000
43
0.0000001000
44
0.0000000001
12
0.0039752813
22
0.0286361239
32
0.0000000000
13
0.0002886394
23
0.0287527314
33
0.0000000000
40
0.0000000000
40
0.0000000000
40
0.0000000000
40
0.0000000000
40
1.0000000000
40
1.0000000000
40
1.0000000000
40
1.0000000000
10
5.5151810885
20
19.9998264582
30
0.0000000000
10
5.5165061822
20
20.0093718328
30
0.0000000000
10
5.5172311155
20
20.0189791470
30
0.0000000000
10
5.5173273287
20
20.0285633908
30
0.0000000000
11
5.5151810885
21
19.9998264582
31
0.0000000000
11
5.5173273287
21
20.0285633908
31
0.0000000000
0
SPLINE
5
4AA
100
AcDbEntity
8
0
100
AcDbSpline
62
0
6
CONTINUOUS
70
0
71
3
72
8
73
4
74
2
42
0.0000001000
43
0.0000001000
44
0.0000000001
12
-0.0376808778
22
-0.0599547868
32
0.0000000000
13
-0.0386390322
23
-0.0593485228
33
0.0000000000
40
0.0000000000
40
0.0000000000
40
0.0000000000
40
0.0000000000
40
1.0000000000
40
1.0000000000
40
1.0000000000
40
1.0000000000
10
5.9764638313
20
-14.9322226306
30
0.0000000000
10
5.9639035387
20
-14.9522075595
30
0.0000000000
10
5.9511825148
20
-14.9720927918
30
0.0000000000
10
5.9383028374
20
-14.9918756327
30
0.0000000000
11
5.9764638313
21
-14.9322226306
31
0.0000000000
11
5.9383028374
21
-14.9918756327
31
0.0000000000
0
SPLINE
5
4AB
100
AcDbEntity
8
0
100
AcDbSpline
62
0
6
CONTINUOUS
70
0
71
3
72
8
73
4
74
2
42
0.0000001000
43
0.0000001000
44
0.0000000001
12
-0.0769848003
22
-0.1182465996
32
0.0000000000
13
-0.0807143378
23
-0.1157438829
33
0.0000000000
40
0.0000000000
40
0.0000000000
40
0.0000000000
40
0.0000000000
40
1.0000000000
40
1.0000000000
40
1.0000000000
40
1.0000000000
10
5.9383028374
20
-14.9918756327
30
0.0000000000
10
5.9126412373
20
-15.0312911659
30
0.0000000000
10
5.8863498307
20
-15.0703002363
30
0.0000000000
10
5.8594450514
20
-15.1088815306
30
0.0000000000
11
5.9383028374
21
-14.9918756327
31
0.0000000000
11
5.8594450514
21
-15.1088815306
31
0.0000000000
0
SPLINE
5
4AC
100
AcDbEntity
8
0
100
AcDbSpline
62
0
6
CONTINUOUS
70
0
71
3
72
8
73
4
74
2
42
0.0000001000
43
0.0000001000
44
0.0000000001
12
-0.0803802815
22
-0.1152648482
32
0.0000000000
13
-0.0839909649
23
-0.1126495325
33
0.0000000000
40
0.0000000000
40
0.0000000000
40
0.0000000000
40
0.0000000000
40
1.0000000000
40
1.0000000000
40
1.0000000000
40
1.0000000000
10
5.8594450514
20
-15.1088815306
30
0.0000000000
10
5.8326516242
20
-15.1473031467
30
0.0000000000
10
5.8052498911
20
-15.1853005203
30
0.0000000000
10
5.7772529028
20
-15.2228503644
30
0.0000000000
11
5.8594450514
21
-15.1088815306
31
0.0000000000
11
5.7772529028
21
-15.2228503644
31
0.0000000000
0
SPLINE
5
4AD
100
AcDbEntity
8
0
100
AcDbSpline
62
0
6
CONTINUOUS
70
0
71
3
72
8
73
4
74
2
42
0.0000001000
43
0.0000001000
44
0.0000000001
12
-0.0418946999
22
-0.0561895957
32
0.0000000000
13
-0.0427784433
23
-0.0555128499
33
0.0000000000
40
0.0000000000
40
0.0000000000
40
0.0000000000
40
0.0000000000
40
1.0000000000
40
1.0000000000
40
1.0000000000
40
1.0000000000
10
5.7772529028
20
-15.2228503644
30
0.0000000000
10
5.7632880028
20
-15.2415802297
30
0.0000000000
10
5.7491750024
20
-15.2601987489
30
0.0000000000
10
5.7349155213
20
-15.2787030322
30
0.0000000000
11
5.7772529028
21
-15.2228503644
31
0.0000000000
11
5.7349155213
21
-15.2787030322
31
0.0000000000
0
SPLINE
5
4AE
100
AcDbEntity
8
0
100
AcDbSpline
62
0
6
CONTINUOUS
70
0
71
3
72
11
73
7
74
5
42
0.0000001000
43
0.0000001000
44
0.0000000001
12
0.0002576444
22
-0.4681422303
32
0.0000000000
13
-0.4681423012
23
0.0000000000
33
0.0000000000
40
0.0000000000
40
0.0000000000
40
0.0000000000
40
0.0000000000
40
0.2503539262
40
0.4991000948
40
0.7487438262
40
1.0000000000
40
1.0000000000
40
1.0000000000
40
1.0000000000
10
5.5296357072
20
19.2677773694
30
0.0000000000
10
5.5296572080
20
19.2287102876
30
0.0000000000
10
5.5140951271
20
19.1499596341
30
0.0000000000
10
5.4475500628
20
19.0503998939
30
0.0000000000
10
5.3480276891
20
18.9834954725
30
0.0000000000
10
5.2689959488
20
18.9677773694
30
0.0000000000
10
5.2297880677
20
18.9677773694
30
0.0000000000
11
5.5296357072
21
19.2677773694
31
0.0000000000
11
5.5067996059
21
19.1528223846
31
0.0000000000
11
5.4421817326
21
19.0559471670
31
0.0000000000
11
5.3451287211
21
18.9908393546
31
0.0000000000
11
5.2297880677
21
18.9677773694
31
0.0000000000
0
SPLINE
5
4AF
100
AcDbEntity
8
0
100
AcDbSpline
62
0
6
CONTINUOUS
70
0
71
3
72
10
73
6
74
4
42
0.0000001000
43
0.0000001000
44
0.0000000001
12
0.1341956046
22
0.2684116509
32
0.0000000000
13
0.3000887779
23
0.0000000000
33
0.0000000000
40
0.0000000000
40
0.0000000000
40
0.0000000000
40
0.0000000000
40
0.1371102732
40
0.5026921164
40
1.0000000000
40
1.0000000000
40
1.0000000000
40
1.0000000000
10
4.7514078062
20
20.7602213518
30
0.0000000000
10
4.7575410049
20
20.7724886834
30
0.0000000000
10
4.8249164200
20
20.7502156179
30
0.0000000000
10
4.9101805637
20
20.7722706123
30
0.0000000000
10
5.0016508781
20
20.7654121746
30
0.0000000000
10
5.0513963832
20
20.7654121746
30
0.0000000000
11
4.7514078062
21
20.7602213518
31
0.0000000000
11
4.7924708903
21
20.7628204051
31
0.0000000000
11
4.9021614812
21
20.7647182983
31
0.0000000000
11
5.0513963832
21
20.7654121746
31
0.0000000000
0
SPLINE
5
4B0
100
AcDbEntity
8
0
100
AcDbSpline
62
0
6
CONTINUOUS
70
0
71
3
72
8
73
4
74
2
42
0.0000001000
43
0.0000001000
44
0.0000000001
12
0.0819298375
22
-0.0352149386
32
0.0000000000
13
0.0881482670
23
-0.0124556959
33
0.0000000000
40
0.0000000000
40
0.0000000000
40
0.0000000000
40
0.0000000000
40
1.0000000000
40
1.0000000000
40
1.0000000000
40
1.0000000000
10
4.9097888708
20
19.7950137696
30
0.0000000000
10
4.9370988166
20
19.7832754567
30
0.0000000000
10
4.9660619813
20
19.7752950499
30
0.0000000000
10
4.9954447369
20
19.7711431513
30
0.0000000000
11
4.9097888708
21
19.7950137696
31
0.0000000000
11
4.9954447369
21
19.7711431513
31
0.0000000000
0
SPLINE
5
4B1
100
AcDbEntity
8
0
100
AcDbSpline
62
0
6
CONTINUOUS
70
0
71
3
72
8
73
4
74
2
42
0.0000001000
43
0.0000001000
44
0.0000000001
12
0.0475604216
22
-0.0067204741
32
0.0000000000
13
0.0477120147
23
0.0000000000
33
0.0000000000
40
0.0000000000
40
0.0000000000
40
0.0000000000
40
0.0000000000
40
1.0000000000
40
1.0000000000
40
1.0000000000
40
1.0000000000
10
4.9954447369
20
19.7711431513
30
0.0000000000
10
5.0112982108
20
19.7689029932
30
0.0000000000
10
5.0272738337
20
19.7677773694
30
0.0000000000
10
5.0431778386
20
19.7677773694
30
0.0000000000
11
4.9954447369
21
19.7711431513
31
0.0000000000
11
5.0431778386
21
19.7677773694
31
0.0000000000
0
SPLINE
5
4B2
100
AcDbEntity
8
0
100
AcDbSpline
62
0
6
CONTINUOUS
70
0
71
3
72
8
73
4
74
2
42
0.0000001000
43
0.0000001000
44
0.0000000001
12
-0.0021741975
22
-0.0586972578
32
0.0000000000
13
-0.0027093251
23
-0.0586785670
33
0.0000000000
40
0.0000000000
40
0.0000000000
40
0.0000000000
40
0.0000000000
40
1.0000000000
40
1.0000000000
40
1.0000000000
40
1.0000000000
10
5.7349155213
20
-15.2787030322
30
0.0000000000
10
5.7341907888
20
-15.2982687848
30
0.0000000000
10
5.7333861974
20
-15.3178327070
30
0.0000000000
10
5.7324830891
20
-15.3373922293
30
0.0000000000
11
5.7349155213
21
-15.2787030322
31
0.0000000000
11
5.7324830891
21
-15.3373922293
31
0.0000000000
0
SPLINE
5
4B3
100
AcDbEntity
8
0
100
AcDbSpline
62
0
6
CONTINUOUS
70
0
71
3
72
8
73
4
74
2
42
0.0000001000
43
0.0000001000
44
0.0000000001
12
-0.0026928237
22
-0.0583211782
32
0.0000000000
13
-0.0033317049
23
-0.0582875315
33
0.0000000000
40
0.0000000000
40
0.0000000000
40
0.0000000000
40
0.0000000000
40
1.0000000000
40
1.0000000000
40
1.0000000000
40
1.0000000000
10
5.7324830891
20
-15.3373922293
30
0.0000000000
10
5.7315854812
20
-15.3568326220
30
0.0000000000
10
5.7305905527
20
-15.3762686684
30
0.0000000000
10
5.7294799844
20
-15.3956978455
30
0.0000000000
11
5.7324830891
21
-15.3373922293
31
0.0000000000
11
5.7294799844
21
-15.3956978455
31
0.0000000000
0
SPLINE
5
4B4
100
AcDbEntity
8
0
100
AcDbSpline
62
0
6
CONTINUOUS
70
0
71
3
72
9
73
5
74
3
42
0.0000001000
43
0.0000001000
44
0.0000000001
12
-0.0098776952
22
-0.1728083652
32
0.0000000000
13
-0.0161214125
23
-0.1723394578
33
0.0000000000
40
0.0000000000
40
0.0000000000
40
0.0000000000
40
0.0000000000
40
0.3352902954
40
1.0000000000
40
1.0000000000
40
1.0000000000
40
1.0000000000
10
5.7294799844
20
-15.3956978455
30
0.0000000000
10
5.7283760193
20
-15.4150115015
30
0.0000000000
10
5.7247426487
20
-15.4725940455
30
0.0000000000
10
5.7199327643
20
-15.5300941684
30
0.0000000000
10
5.7163607445
20
-15.5682794051
30
0.0000000000
11
5.7294799844
21
-15.3956978455
31
0.0000000000
11
5.7258072883
21
-15.4536159721
31
0.0000000000
11
5.7163607445
21
-15.5682794051
31
0.0000000000
0
SPLINE
5
4B5
100
AcDbEntity
8
0
100
AcDbSpline
62
0
6
CONTINUOUS
70
0
71
3
72
8
73
4
74
2
42
0.0000001000
43
0.0000001000
44
0.0000000001
12
-0.0053123693
22
-0.0567897414
32
0.0000000000
13
-0.0058120996
23
-0.0567374487
33
0.0000000000
40
0.0000000000
40
0.0000000000
40
0.0000000000
40
0.0000000000
40
1.0000000000
40
1.0000000000
40
1.0000000000
40
1.0000000000
10
5.7163607445
20
-15.5682794051
30
0.0000000000
10
5.7145899548
20
-15.5872093189
30
0.0000000000
10
5.7127270446
20
-15.6061304707
30
0.0000000000
10
5.7107896781
20
-15.6250429536
30
0.0000000000
11
5.7163607445
21
-15.5682794051
31
0.0000000000
11
5.7107896781
21
-15.6250429536
31
0.0000000000
0
SPLINE
5
4B6
100
AcDbEntity
8
0
100
AcDbSpline
62
0
6
CONTINUOUS
70
0
71
3
72
10
73
6
74
4
42
0.0000001000
43
0.0000001000
44
0.0000000001
12
0.1284179132
22
0.3350210411
32
0.0000000000
13
0.3587899921
23
-0.0000000000
33
0.0000000000
40
0.0000000000
40
0.0000000000
40
0.0000000000
40
0.0000000000
40
0.3342255691
40
0.6672833410
40
1.0000000000
40
1.0000000000
40
1.0000000000
40
1.0000000000
10
-6.6863185241
20
-10.7247294570
30
0.0000000000
10
-6.6720116740
20
-10.6874052577
30
0.0000000000
10
-6.6277798336
20
-10.6178934364
30
0.0000000000
10
-6.5267010619
20
-10.5485285359
30
0.0000000000
10
-6.4461552308
20
-10.5322226306
30
0.0000000000
10
-6.4063634283
20
-10.5322226306
30
0.0000000000
11
-6.6863185241
21
-10.7247294570
31
0.0000000000
11
-6.6218780065
21
-10.6235985713
31
0.0000000000
11
-6.5233506450
21
-10.5559813980
31
0.0000000000
11
-6.4063634283
21
-10.5322226306
31
0.0000000000
0
SPLINE
5
4B7
100
AcDbEntity
8
0
100
AcDbSpline
62
0
6
CONTINUOUS
70
0
71
3
72
10
73
6
74
4
42
0.0000001000
43
0.0000001000
44
0.0000000001
12
-0.3587899764
22
-0.0000000000
32
0.0000000000
13
-0.1284179075
23
0.3350210265
33
0.0000000000
40
0.0000000000
40
0.0000000000
40
0.0000000000
40
0.0000000000
40
0.3344497805
40
0.6674466338
40
1.0000000000
40
1.0000000000
40
1.0000000000
40
1.0000000000
10
-6.4063634283
20
-14.5322226306
30
0.0000000000
10
-6.4463625046
20
-14.5322226306
30
0.0000000000
10
-6.5271221024
20
-14.5157847561
30
0.0000000000
10
-6.6280516821
20
-14.4462056667
30
0.0000000000
10
-6.6720832549
20
-14.3768532608
30
0.0000000000
10
-6.6863185241
20
-14.3397158041
30
0.0000000000
11
-6.4063634283
21
-14.5322226306
31
0.0000000000
11
-6.5239346863
21
-14.5082156689
31
0.0000000000
11
-6.6223031974
21
-14.4404061221
31
0.0000000000
11
-6.6863185241
21
-14.3397158041
31
0.0000000000
0
SPLINE
5
4B8
100
AcDbEntity
8
0
100
AcDbSpline
62
0
6
CONTINUOUS
70
0
71
3
72
9
73
5
74
3
42
0.0000001000
43
0.0000001000
44
0.0000000001
12
-0.0922443551
22
0.0033980231
32
0.0000000000
13
-0.0849125480
23
-0.0373334579
33
0.0000000000
40
0.0000000000
40
0.0000000000
40
0.0000000000
40
0.0000000000
40
0.7588680985
40
1.0000000000
40
1.0000000000
40
1.0000000000
40
1.0000000000
10
6.2008689440
20
-10.5581400651
30
0.0000000000
10
6.1775351779
20
-10.5572805146
30
0.0000000000
10
6.1463225566
20
-10.5613359559
30
0.0000000000
10
6.1173095792
20
-10.5722033311
30
0.0000000000
10
6.1104845378
20
-10.5752040937
30
0.0000000000
11
6.2008689440
21
-10.5581400651
31
0.0000000000
11
6.1314293854
21
-10.5673584665
31
0.0000000000
11
6.1104845378
21
-10.5752040937
31
0.0000000000
0
SPLINE
5
4B9
100
AcDbEntity
8
0
100
AcDbSpline
62
0
6
CONTINUOUS
70
0
71
3
72
8
73
4
74
2
42
0.0000001000
43
0.0000001000
44
0.0000000001
12
-0.0203393469
22
-0.0089425906
32
0.0000000000
13
-0.0192009275
23
-0.0111477588
33
0.0000000000
40
0.0000000000
40
0.0000000000
40
0.0000000000
40
0.0000000000
40
1.0000000000
40
1.0000000000
40
1.0000000000
40
1.0000000000
10
6.1104845378
20
-10.5752040937
30
0.0000000000
10
6.1037047555
20
-10.5781849572
30
0.0000000000
10
6.0970936270
20
-10.5815410855
30
0.0000000000
10
6.0906933179
20
-10.5852570051
30
0.0000000000
11
6.1104845378
21
-10.5752040937
31
0.0000000000
11
6.0906933179
21
-10.5852570051
31
0.0000000000
0
SPLINE
5
4BA
100
AcDbEntity
8
0
100
AcDbSpline
62
0
6
CONTINUOUS
70
0
71
3
72
9
73
5
74
3
42
0.0000001000
43
0.0000001000
44
0.0000000001
12
-0.0307707571
22
-0.0178650212
32
0.0000000000
13
-0.0270063797
23
-0.0231854203
33
0.0000000000
40
0.0000000000
40
0.0000000000
40
0.0000000000
40
0.0000000000
40
0.6064720287
40
1.0000000000
40
1.0000000000
40
1.0000000000
40
1.0000000000
10
6.0906933179
20
-10.5852570051
30
0.0000000000
10
6.0844727834
20
-10.5888685503
30
0.0000000000
10
6.0745442265
20
-10.5953839512
30
0.0000000000
10
6.0652623484
20
-10.6027847518
30
0.0000000000
10
6.0617197598
20
-10.6058261223
30
0.0000000000
11
6.0906933179
21
-10.5852570051
31
0.0000000000
11
6.0726678532
21
-10.5970970245
31
0.0000000000
11
6.0617197598
21
-10.6058261223
31
0.0000000000
0
SPLINE
5
4BB
100
AcDbEntity
8
0
100
AcDbSpline
62
0
6
CONTINUOUS
70
0
71
3
72
8
73
4
74
2
42
0.0000001000
43
0.0000001000
44
0.0000000001
12
0.0070798766
22
-0.0226100777
32
0.0000000000
13
0.0096792519
23
-0.0214974483
33
0.0000000000
40
0.0000000000
40
0.0000000000
40
0.0000000000
40
0.0000000000
40
1.0000000000
40
1.0000000000
40
1.0000000000
40
1.0000000000
10
6.0048570803
20
-10.8063328136
30
0.0000000000
10
6.0072170391
20
-10.8138695062
30
0.0000000000
10
6.0100234685
20
-10.8212529409
30
0.0000000000
10
6.0132498858
20
-10.8284187570
30
0.0000000000
11
6.0048570803
21
-10.8063328136
31
0.0000000000
11
6.0132498858
21
-10.8284187570
31
0.0000000000
0
SPLINE
5
4BC
100
AcDbEntity
8
0
100
AcDbSpline
62
0
6
CONTINUOUS
70
0
71
3
72
10
73
6
74
4
42
0.0000001000
43
0.0000001000
44
0.0000000001
12
0.0954152381
22
-0.0819189487
32
0.0000000000
13
0.1253747818
23
-0.0102416738
33
0.0000000000
40
0.0000000000
40
0.0000000000
40
0.0000000000
40
0.0000000000
40
0.1021426449
40
0.6310008180
40
1.0000000000
40
1.0000000000
40
1.0000000000
40
1.0000000000
10
6.0617177091
20
-14.4586180921
30
0.0000000000
10
6.0649663641
20
-14.4614072315
30
0.0000000000
10
6.0856076474
20
-14.4779671428
30
0.0000000000
10
6.1234608880
20
-14.4972633863
30
0.0000000000
10
6.1607561913
20
-14.5044906169
30
0.0000000000
10
6.1761772552
20
-14.5057503400
30
0.0000000000
11
6.0617177091
21
-14.4586180921
31
0.0000000000
11
6.0717339464
21
-14.4666535967
31
0.0000000000
11
6.1306599421
21
-14.4968445735
31
0.0000000000
11
6.1761772552
21
-14.5057503400
31
0.0000000000
0
SPLINE
5
4BD
100
AcDbEntity
8
0
100
AcDbSpline
62
0
6
CONTINUOUS
70
0
71
3
72
9
73
5
74
3
42
0.0000001000
43
0.0000001000
44
0.0000000001
12
0.1143399109
22
-0.0042119614
32
0.0000000000
13
0.0993608113
23
0.0576873359
33
0.0000000000
40
0.0000000000
40
0.0000000000
40
0.0000000000
40
0.0000000000
40
0.6122210332
40
1.0000000000
40
1.0000000000
40
1.0000000000
40
1.0000000000
10
-5.9426060504
20
-14.5063051960
30
0.0000000000
10
-5.9192722843
20
-14.5071647465
30
0.0000000000
10
-5.8805832141
20
-14.5021378937
30
0.0000000000
10
-5.8452737686
20
-14.4866449012
30
0.0000000000
10
-5.8324304243
20
-14.4791882561
30
0.0000000000
11
-5.9426060504
21
-14.5063051960
31
0.0000000000
11
-5.8731664919
21
-14.4970867946
31
0.0000000000
11
-5.8324304243
21
-14.4791882561
31
0.0000000000
0
SPLINE
5
4BE
100
AcDbEntity
8
0
100
AcDbSpline
62
0
6
CONTINUOUS
70
0
71
3
72
9
73
5
74
3
42
0.0000001000
43
0.0000001000
44
0.0000000001
12
0.0307707571
22
0.0178650212
32
0.0000000000
13
0.0270063797
23
0.0231854203
33
0.0000000000
40
0.0000000000
40
0.0000000000
40
0.0000000000
40
0.0000000000
40
0.6064720287
40
1.0000000000
40
1.0000000000
40
1.0000000000
40
1.0000000000
10
-5.8324304243
20
-14.4791882561
30
0.0000000000
10
-5.8262098898
20
-14.4755767108
30
0.0000000000
10
-5.8162813330
20
-14.4690613099
30
0.0000000000
10
-5.8069994548
20
-14.4616605093
30
0.0000000000
10
-5.8034568662
20
-14.4586191389
30
0.0000000000
11
-5.8324304243
21
-14.4791882561
31
0.0000000000
11
-5.8144049596
21
-14.4673482366
31
0.0000000000
11
-5.8034568662
21
-14.4586191389
31
0.0000000000
0
SPLINE
5
4BF
100
AcDbEntity
8
0
100
AcDbSpline
62
0
6
CONTINUOUS
70
0
71
3
72
8
73
4
74
2
42
0.0000001000
43
0.0000001000
44
0.0000000001
12
0.0212964606
22
0.0182833610
32
0.0000000000
13
0.0184041089
23
0.0211928790
33
0.0000000000
40
0.0000000000
40
0.0000000000
40
0.0000000000
40
0.0000000000
40
1.0000000000
40
1.0000000000
40
1.0000000000
40
1.0000000000
10
-5.8034568662
20
-14.4586191389
30
0.0000000000
10
-5.7963580460
20
-14.4525246852
30
0.0000000000
10
-5.7897012837
20
-14.4459124495
30
0.0000000000
10
-5.7835665807
20
-14.4388481565
30
0.0000000000
11
-5.8034568662
21
-14.4586191389
31
0.0000000000
11
-5.7835665807
21
-14.4388481565
31
0.0000000000
0
SPLINE
5
4C0
100
AcDbEntity
8
0
100
AcDbSpline
62
0
6
CONTINUOUS
70
0
71
3
72
8
73
4
74
2
42
0.0000001000
43
0.0000001000
44
0.0000000001
12
-0.0070798766
22
0.0226100777
32
0.0000000000
13
-0.0096792519
23
0.0214974483
33
0.0000000000
40
0.0000000000
40
0.0000000000
40
0.0000000000
40
0.0000000000
40
1.0000000000
40
1.0000000000
40
1.0000000000
40
1.0000000000
10
-5.7465941867
20
-14.2581124475
30
0.0000000000
10
-5.7489541456
20
-14.2505757549
30
0.0000000000
10
-5.7517605749
20
-14.2431923202
30
0.0000000000
10
-5.7549869922
20
-14.2360265041
30
0.0000000000
11
-5.7465941867
21
-14.2581124475
31
0.0000000000
11
-5.7549869922
21
-14.2360265041
31
0.0000000000
0
SPLINE
5
4C1
100
AcDbEntity
8
0
100
AcDbSpline
62
0
6
CONTINUOUS
70
0
71
3
72
10
73
6
74
4
42
0.0000001000
43
0.0000001000
44
0.0000000001
12
-0.0954152381
22
0.0819189487
32
0.0000000000
13
-0.1253747818
23
0.0102416738
33
0.0000000000
40
0.0000000000
40
0.0000000000
40
0.0000000000
40
0.0000000000
40
0.1021426449
40
0.6310008180
40
1.0000000000
40
1.0000000000
40
1.0000000000
40
1.0000000000
10
-5.8034548156
20
-10.6058271690
30
0.0000000000
10
-5.8067034705
20
-10.6030380296
30
0.0000000000
10
-5.8273447538
20
-10.5864781183
30
0.0000000000
10
-5.8651979945
20
-10.5671818748
30
0.0000000000
10
-5.9024932977
20
-10.5599546443
30
0.0000000000
10
-5.9179143617
20
-10.5586949212
30
0.0000000000
11
-5.8034548156
21
-10.6058271690
31
0.0000000000
11
-5.8134710528
21
-10.5977916644
31
0.0000000000
11
-5.8723970486
21
-10.5676006877
31
0.0000000000
11
-5.9179143617
21
-10.5586949212
31
0.0000000000
0
SPLINE
5
4C2
100
AcDbEntity
8
0
100
AcDbSpline
62
0
6
CONTINUOUS
70
0
71
3
72
10
73
6
74
4
42
0.0000001000
43
0.0000001000
44
0.0000000001
12
0.3587899764
22
0.0000000000
32
0.0000000000
13
0.1284179075
23
-0.3350210265
33
0.0000000000
40
0.0000000000
40
0.0000000000
40
0.0000000000
40
0.0000000000
40
0.3344497805
40
0.6674466338
40
1.0000000000
40
1.0000000000
40
1.0000000000
40
1.0000000000
10
6.6646263218
20
-10.5322226306
30
0.0000000000
10
6.7046253981
20
-10.5322226306
30
0.0000000000
10
6.7853849960
20
-10.5486605050
30
0.0000000000
10
6.8863145756
20
-10.6182395945
30
0.0000000000
10
6.9303461485
20
-10.6875920003
30
0.0000000000
10
6.9445814176
20
-10.7247294570
30
0.0000000000
11
6.6646263218
21
-10.5322226306
31
0.0000000000
11
6.7821975799
21
-10.5562295922
31
0.0000000000
11
6.8805660909
21
-10.6240391390
31
0.0000000000
11
6.9445814176
21
-10.7247294570
31
0.0000000000
0
SPLINE
5
4C3
100
AcDbEntity
8
0
100
AcDbSpline
62
0
6
CONTINUOUS
70
0
71
3
72
10
73
6
74
4
42
0.0000001000
43
0.0000001000
44
0.0000000001
12
-0.1284179132
22
-0.3350210411
32
0.0000000000
13
-0.3587899921
23
0.0000000000
33
0.0000000000
40
0.0000000000
40
0.0000000000
40
0.0000000000
40
0.0000000000
40
0.3342255691
40
0.6672833410
40
1.0000000000
40
1.0000000000
40
1.0000000000
40
1.0000000000
10
6.9445814176
20
-14.3397158041
30
0.0000000000
10
6.9302745676
20
-14.3770400035
30
0.0000000000
10
6.8860427272
20
-14.4465518247
30
0.0000000000
10
6.7849639554
20
-14.5159167252
30
0.0000000000
10
6.7044181243
20
-14.5322226306
30
0.0000000000
10
6.6646263218
20
-14.5322226306
30
0.0000000000
11
6.9445814176
21
-14.3397158041
31
0.0000000000
11
6.8801409000
21
-14.4408466898
31
0.0000000000
11
6.7816135385
21
-14.5084638631
31
0.0000000000
11
6.6646263218
21
-14.5322226306
31
0.0000000000
0
ENDSEC
0
SECTION
2
OBJECTS
0
DICTIONARY
5
C
100
AcDbDictionary
280
0
281
1
3
ACAD_GROUP
350
D
3
ACAD_MLINESTYLE
350
17
3
ACAD_LAYOUT
350
1A
3
ACAD_PLOTSETTINGS
350
19
3
ACAD_PLOTSTYLENAME
350
E
0
DICTIONARY
5
D
102
{ACAD_REACTORS
330
C
102
}
100
AcDbDictionary
280
0
281
1
0
ACDBDICTIONARYWDFLT
5
E
102
{ACAD_REACTORS
330
C
102
}
100
AcDbDictionary
281
1
3
Normal
350
F
100
AcDbDictionaryWithDefault
340
F
0
DICTIONARY
5
17
102
{ACAD_REACTORS
330
C
102
}
100
AcDbDictionary
280
0
281
1
3
Standard
350
18
0
DICTIONARY
5
19
102
{ACAD_REACTORS
330
C
102
}
100
AcDbDictionary
281
1
0
DICTIONARY
5
1A
102
{ACAD_REACTORS
330
C
102
}
100
AcDbDictionary
281
1
3
Layout1
350
1E
3
Model
350
22
0
ACDBPLACEHOLDER
5
F
102
{ACAD_REACTORS
330
E
102
}
0
MLINESTYLE
5
18
102
{ACAD_REACTORS
330
17
102
}
100
AcDbMlineStyle
2
STANDARD
70
0
3

62
256
51
90.0
52
90.0
71
2
49
0.5
62
256
6
BYLAYER
49
-0.5
62
256
6
BYLAYER
0
LAYOUT
5
1E
102
{ACAD_REACTORS
330
1A
102
}
100
AcDbPlotSettings
1

2

4

6

40
0.0
41
0.0
42
0.0
43
0.0
44
0.0
45
0.0
46
0.0
47
0.0
48
0.0
49
0.0
140
0.0
141
0.0
142
1.0
143
1.0
70
0
72
0
73
0
74
0
7

75
0
147
1.0
148
0.0
149
0.0
100
AcDbLayout
1
Layout1
70
0
71
0
10
0.0
20
0.0
11
0.0
21
0.0
12
0.0
22
0.0
32
0.0
14
0.0
24
0.0
34
0.0
15
0.0
25
0.0
35
0.0
146
0.0
13
0.0
23
0.0
33
0.0
16
0.0
26
0.0
36
0.0
17
0.0
27
0.0
37
0.0
76
0
330
1B
331
0
345
0
346
0
0
LAYOUT
5
22
102
{ACAD_REACTORS
330
1A
102
}
100
AcDbPlotSettings
1

2

4

6

40
0.0
41
0.0
42
0.0
43
0.0
44
0.0
45
0.0
46
0.0
47
0.0
48
0.0
49
0.0
140
0.0
141
0.0
142
1.0
143
1.0
70
0
72
0
73
0
74
0
7

75
0
147
1.0
148
0.0
149
0.0
100
AcDbLayout
1
Model
70
0
71
0
10
0.0
20
0.0
11
0.0
21
0.0
12
0.0
22
0.0
32
0.0
14
0.0
24
0.0
34
0.0
15
0.0
25
0.0
35
0.0
146
0.0
13
0.0
23
0.0
33
0.0
16
0.0
26
0.0
36
0.0
17
0.0
27
0.0
37
0.0
76
0
330
1F
331
0
345
0
346
0
0
ENDSEC
0
EOF
