0
SECTION
2
HEADER
9
$ACADVER
1
AC1015
9
$DWGCODEPAGE
3
ANSI_1252
9
$EXTMAX
10
431.8000000000
20
558.8000000000
30
0.0000000000
9
$EXTMIN
10
0.0000000000
20
0.0000000000
30
0.0000000000
9
$LIMMIN
10
0.0000000000
20
0.0000000000
9
$LIMMAX
10
431.8000000000
20
558.8000000000
9
$VIEWCTR
10
215.9000000000
20
279.4000000000
9
$VIEWSIZE
40
558.8000000000
9
$CLAYER
8
0
9
$LTSCALE
40
36.4254814815
9
$CELTYPE
6
BYLAYER
9
$DIMSCALE
40
1
9
$DIMASZ
40
3.0000000000
9
$DIMEXO
40
4.1392592593
9
$DIMDLI
40
25.1666962963
9
$DIMEXE
40
11.9210666667
9
$DIMCEN
40
5.9605333333
9
$DIMLFAC
40
1.0000000000
9
$DIMBLK
1
_FILLED
9
$DIMTXT
40
3.0000000000
9
$DIMTOL
70
1
9
$DIMLIM
70
0
9
$DIMTFAC
40
1.0000000000
9
$DIMTP
40
0.0100000000
9
$DIMTM
40
0.0100000000
9
$PDMODE
70
3
9
$PDSIZE
40
3.0000000000
9
$HANDSEED
5
4C7
9
$MEASUREMENT
70
1
9
$INSUNITS
70
4
0
ENDSEC
0
SECTION
2
CLASSES
0
CLASS
1
ACDBDICTIONARYWDFLT
2
AcDbDictionaryWithDefault
3
AutoCAD 2000
90
0
280
0
281
0
0
CLASS
1
ACDBPLACEHOLDER
2
AcDbPlaceHolder
3
AutoCAD 2000
90
0
280
0
281
0
0
CLASS
1
LAYOUT
2
AcDbLayout
3
AutoCAD 2000
90
0
280
0
281
0
0
ENDSEC
0
SECTION
2
TABLES
0
TABLE
2
VPORT
5
8
100
AcDbSymbolTable
70
2
0
VPORT
5
1F4
100
AcDbSymbolTableRecord
100
AcDbViewportTableRecord
2
*ACTIVE
70
0
10
0.0
20
0.0
11
1.0
21
1.0
12
215.9000000000
22
279.4000000000
13
0.0
23
0.0
14
1.0
24
1.0
15
0.0
25
0.0
16
0.0
26
0.0
36
1.0
17
0.0
27
0.0
37
0.0
40
558.8000000000
41
0.7727272727
42
50.0
43
0.0
44
0.0
50
0.0
51
0.0
71
0
72
100
73
1
74
1
75
0
76
0
77
0
78
0
0
ENDTAB
0
TABLE
2
LTYPE
5
5
100
AcDbSymbolTable
70
6
0
LTYPE
5
14
100
AcDbSymbolTableRecord
100
AcDbLinetypeTableRecord
2
BYBLOCK
70
0
3

72
65
73
0
40
0.0
0
LTYPE
5
15
100
AcDbSymbolTableRecord
100
AcDbLinetypeTableRecord
2
BYLAYER
70
0
3

72
65
73
0
40
0.0
0
LTYPE
5
16
100
AcDbSymbolTableRecord
100
AcDbLinetypeTableRecord
2
CONTINUOUS
70
64
3
Solid line
72
65
73
0
40
0
0
LTYPE
5
1F5
100
AcDbSymbolTableRecord
100
AcDbLinetypeTableRecord
2
CENTER
70
64
3
____ _ ____ _ ____ _ ____ _ ____ _ ____ _ ____
72
65
73
4
40
0.6
49
0.375
74
0
49
-0.075
74
0
49
0.075
74
0
49
-0.075
74
0
0
LTYPE
5
1F6
100
AcDbSymbolTableRecord
100
AcDbLinetypeTableRecord
2
HIDDEN
70
64
3
- - - - - - - - - - - - - - - - - - - -
72
65
73
2
40
0.2
49
0.1
74
0
49
-0.1
74
0
0
LTYPE
5
1F7
100
AcDbSymbolTableRecord
100
AcDbLinetypeTableRecord
2
PHANTOM
70
64
3
_____ _ _ _____ _ _ _____ _ _ _____
72
65
73
6
40
0.8
49
0.45
74
0
49
-0.05
74
0
49
0.1
74
0
49
-0.05
74
0
49
0.1
74
0
49
-0.05
74
0
0
LTYPE
5
1F8
100
AcDbSymbolTableRecord
100
AcDbLinetypeTableRecord
2
DOT
70
64
3
. . . . . . . . . . . . . . . . . . . .
72
65
73
2
40
0.2
49
0.1
74
0
49
-0.1
74
0
0
LTYPE
5
1F9
100
AcDbSymbolTableRecord
100
AcDbLinetypeTableRecord
2
DASHED
70
64
3
- - - - - - - - - - - - - - - - - - - -
72
65
73
2
40
0.2
49
0.1
74
0
49
-0.1
74
0
0
ENDTAB
0
TABLE
2
LAYER
5
2
100
AcDbSymbolTable
70
36
0
LAYER
5
10
100
AcDbSymbolTableRecord
100
AcDbLayerTableRecord
2
0
70
0
62
7
6
CONTINUOUS
370
-3
390
F
0
LAYER
5
1FA
100
AcDbSymbolTableRecord
100
AcDbLayerTableRecord
2
DEFAULT_1
70
0
62
7
6
CENTER
370
-3
390
F
0
LAYER
5
1FB
100
AcDbSymbolTableRecord
100
AcDbLayerTableRecord
2
DEFAULT_2
70
0
62
9
6
HIDDEN
370
-3
390
F
0
LAYER
5
1FC
100
AcDbSymbolTableRecord
100
AcDbLayerTableRecord
2
DEFAULT_3
70
0
62
7
6
PHANTOM
370
-3
390
F
0
LAYER
5
1FD
100
AcDbSymbolTableRecord
100
AcDbLayerTableRecord
2
_2D_DELETED_OBJS
70
0
62
7
6
CONTINUOUS
370
-3
390
F
0
LAYER
5
1FE
100
AcDbSymbolTableRecord
100
AcDbLayerTableRecord
2
_BLACK_HOLE
70
0
62
7
6
CONTINUOUS
370
-3
390
F
0
LAYER
5
1FF
100
AcDbSymbolTableRecord
100
AcDbLayerTableRecord
2
ASSI
70
0
62
7
6
CONTINUOUS
370
-3
390
F
0
LAYER
5
200
100
AcDbSymbolTableRecord
100
AcDbLayerTableRecord
2
COORDINATE
70
0
62
7
6
CONTINUOUS
370
-3
390
F
0
LAYER
5
201
100
AcDbSymbolTableRecord
100
AcDbLayerTableRecord
2
COORD_ORIGINE
70
0
62
7
6
CONTINUOUS
370
-3
390
F
0
LAYER
5
202
100
AcDbSymbolTableRecord
100
AcDbLayerTableRecord
2
COPY_PUBLISH
70
0
62
7
6
CONTINUOUS
370
-3
390
F
0
LAYER
5
203
100
AcDbSymbolTableRecord
100
AcDbLayerTableRecord
2
COSMETIC
70
0
62
7
6
CONTINUOUS
370
-3
390
F
0
LAYER
5
204
100
AcDbSymbolTableRecord
100
AcDbLayerTableRecord
2
CURVE
70
0
62
7
6
CONTINUOUS
370
-3
390
F
0
LAYER
5
205
100
AcDbSymbolTableRecord
100
AcDbLayerTableRecord
2
DRAFT
70
0
62
7
6
CONTINUOUS
370
-3
390
F
0
LAYER
5
206
100
AcDbSymbolTableRecord
100
AcDbLayerTableRecord
2
IMPORT
70
0
62
7
6
CONTINUOUS
370
-3
390
F
0
LAYER
5
207
100
AcDbSymbolTableRecord
100
AcDbLayerTableRecord
2
IMPORT_IGES
70
0
62
7
6
CONTINUOUS
370
-3
390
F
0
LAYER
5
208
100
AcDbSymbolTableRecord
100
AcDbLayerTableRecord
2
INCISIONI_LASER
70
0
62
7
6
CONTINUOUS
370
-3
390
F
0
LAYER
5
209
100
AcDbSymbolTableRecord
100
AcDbLayerTableRecord
2
NOTE
70
0
62
7
6
CONTINUOUS
370
-3
390
F
0
LAYER
5
20A
100
AcDbSymbolTableRecord
100
AcDbLayerTableRecord
2
PIANI
70
0
62
7
6
CONTINUOUS
370
-3
390
F
0
LAYER
5
20B
100
AcDbSymbolTableRecord
100
AcDbLayerTableRecord
2
PIANI_ORIGINE
70
0
62
7
6
CONTINUOUS
370
-3
390
F
0
LAYER
5
20C
100
AcDbSymbolTableRecord
100
AcDbLayerTableRecord
2
PUNTI
70
0
62
7
6
CONTINUOUS
370
-3
390
F
0
LAYER
5
20D
100
AcDbSymbolTableRecord
100
AcDbLayerTableRecord
2
RACCORDO
70
0
62
7
6
CONTINUOUS
370
-3
390
F
0
LAYER
5
20E
100
AcDbSymbolTableRecord
100
AcDbLayerTableRecord
2
SMUSSO
70
0
62
7
6
CONTINUOUS
370
-3
390
F
0
LAYER
5
20F
100
AcDbSymbolTableRecord
100
AcDbLayerTableRecord
2
SNAPLINE
70
0
62
7
6
CONTINUOUS
370
-3
390
F
0
LAYER
5
210
100
AcDbSymbolTableRecord
100
AcDbLayerTableRecord
2
SUPERFICI
70
0
62
7
6
CONTINUOUS
370
-3
390
F
0
LAYER
5
211
100
AcDbSymbolTableRecord
100
AcDbLayerTableRecord
2
TRASH
70
0
62
7
6
CONTINUOUS
370
-3
390
F
0
LAYER
5
212
100
AcDbSymbolTableRecord
100
AcDbLayerTableRecord
2
XSEC_DATUMS
70
0
62
7
6
CONTINUOUS
370
-3
390
F
0
ENDTAB
0
TABLE
2
STYLE
5
3
100
AcDbSymbolTable
70
1
0
STYLE
5
11
100
AcDbSymbolTableRecord
100
AcDbTextStyleTableRecord
2
STANDARD
70
0
40
0.0
41
0.8000000000
50
0.0
71
0
42
0.2
3
txt
4

0
ENDTAB
0
TABLE
2
VIEW
5
6
100
AcDbSymbolTable
70
0
0
ENDTAB
0
TABLE
2
UCS
5
7
100
AcDbSymbolTable
70
0
0
ENDTAB
0
TABLE
2
APPID
5
9
100
AcDbSymbolTable
70
1
0
APPID
5
213
100
AcDbSymbolTableRecord
100
AcDbRegAppTableRecord
2
ACAD
70
0
0
ENDTAB
0
TABLE
2
BLOCK_RECORD
5
1
100
AcDbSymbolTable
70
0
0
BLOCK_RECORD
5
1F
100
AcDbSymbolTableRecord
100
AcDbBlockTableRecord
2
*MODEL_SPACE
0
BLOCK_RECORD
5
1B
100
AcDbSymbolTableRecord
100
AcDbBlockTableRecord
2
*PAPER_SPACE
0
ENDTAB
0
TABLE
2
DIMSTYLE
5
A
100
AcDbSymbolTable
70
1
100
AcDbDimStyleTable
71
0
0
DIMSTYLE
105
214
100
AcDbSymbolTableRecord
100
AcDbDimStyleTableRecord
2
STANDARD
70
0
3

4

40
1.0
41
3.0000000000
42
0.0625
43
0.38
44
0.18
45
0.0
46
0.0
47
0.0100000000
48
0.0100000000
140
3.0000000000
141
0.09
142
0.0
143
25.4
144
1.0000000000
145
0.0
146
1.0000000000
147
0.09
71
1
72
0
73
0
74
0
75
0
76
0
77
1
78
8
170
0
171
2
172
0
173
0
174
0
175
0
176
0
177
0
178
0
270
2
271
2
272
2
273
2
274
2
275
0
280
0
281
0
282
0
283
1
284
8
285
0
286
0
287
3
288
0
340
11
0
ENDTAB
0
ENDSEC
0
SECTION
2
BLOCKS
0
BLOCK
5
20
100
AcDbEntity
8
0
100
AcDbBlockBegin
2
*MODEL_SPACE
70
0
10
0.0
20
0.0
30
0.0
3
*MODEL_SPACE
1

0
ENDBLK
5
21
100
AcDbEntity
8
0
100
AcDbBlockEnd
0
BLOCK
5
1C
100
AcDbEntity
8
0
100
AcDbBlockBegin
2
*PAPER_SPACE
70
0
10
0.0
20
0.0
30
0.0
3
*PAPER_SPACE
1

0
ENDBLK
5
1D
100
AcDbEntity
8
0
100
AcDbBlockEnd
0
ENDSEC
0
SECTION
2
ENTITIES
0
LINE
5
215
100
AcDbEntity
8
0
100
AcDbLine
62
0
6
CONTINUOUS
10
10.4056643556
20
-21.8096571883
11
-10.1945793321
21
-21.8096571883
0
LINE
5
216
100
AcDbEntity
8
0
100
AcDbLine
62
0
6
CONTINUOUS
10
-9.5944879492
20
-20.3096571883
11
9.8055729727
21
-20.3096571883
0
LINE
5
217
100
AcDbEntity
8
0
100
AcDbLine
62
9
6
CONTINUOUS
10
9.7055666812
20
-20.2096508968
11
9.0555016170
21
-20.2096508968
0
LINE
5
218
100
AcDbEntity
8
0
100
AcDbLine
62
9
6
CONTINUOUS
10
6.5055425117
20
-20.2096508968
11
5.3534366734
21
-20.2096508968
0
LINE
5
219
100
AcDbEntity
8
0
100
AcDbLine
62
9
6
CONTINUOUS
10
4.7576483501
20
-20.2096508968
11
3.1747770888
21
-20.2096508968
0
LINE
5
21A
100
AcDbEntity
8
0
100
AcDbLine
62
9
6
CONTINUOUS
10
-2.9636920654
20
-20.2096508968
11
-4.5465633266
21
-20.2096508968
0
LINE
5
21B
100
AcDbEntity
8
0
100
AcDbLine
62
9
6
CONTINUOUS
10
-5.1423516499
20
-20.2096508968
11
-6.2944574883
21
-20.2096508968
0
LINE
5
21C
100
AcDbEntity
8
0
100
AcDbLine
62
9
6
CONTINUOUS
10
-8.8444165936
20
-20.2096508968
11
-9.4944816577
21
-20.2096508968
0
LINE
5
21D
100
AcDbEntity
8
0
100
AcDbLine
62
9
6
CONTINUOUS
10
2.2055378222
20
-20.2093909759
11
-1.9944526388
21
-20.2093909759
0
LINE
5
21E
100
AcDbEntity
8
0
100
AcDbLine
62
0
6
CONTINUOUS
10
-5.1444574883
20
-20.2075450584
11
-4.5444574883
21
-20.2075450584
0
LINE
5
21F
100
AcDbEntity
8
0
100
AcDbLine
62
0
6
CONTINUOUS
10
4.7555425117
20
-20.2075450584
11
5.3555425117
21
-20.2075450584
0
LINE
5
220
100
AcDbEntity
8
0
100
AcDbLine
62
0
6
CONTINUOUS
10
2.2055425117
20
-20.0973119357
11
-1.9944574883
21
-20.0973119357
0
LINE
5
221
100
AcDbEntity
8
0
100
AcDbLine
62
9
6
CONTINUOUS
10
9.7055666681
20
-20.0231152098
11
7.8430196516
21
-20.0231152098
0
LINE
5
222
100
AcDbEntity
8
0
100
AcDbLine
62
9
6
CONTINUOUS
10
6.5055425117
20
-20.0231152098
11
5.3568588757
21
-20.0231152098
0
LINE
5
223
100
AcDbEntity
8
0
100
AcDbLine
62
9
6
CONTINUOUS
10
4.7542261478
20
-20.0231152098
11
3.1747770888
21
-20.0231152098
0
LINE
5
224
100
AcDbEntity
8
0
100
AcDbLine
62
9
6
CONTINUOUS
10
-2.9636920654
20
-20.0231152098
11
-4.5431411243
21
-20.0231152098
0
LINE
5
225
100
AcDbEntity
8
0
100
AcDbLine
62
9
6
CONTINUOUS
10
-5.1457738522
20
-20.0231152098
11
-6.2944574883
21
-20.0231152098
0
LINE
5
226
100
AcDbEntity
8
0
100
AcDbLine
62
9
6
CONTINUOUS
10
-7.6319346281
20
-20.0231152098
11
-9.4944816446
21
-20.0231152098
0
LINE
5
227
100
AcDbEntity
8
0
100
AcDbLine
62
0
6
CONTINUOUS
10
-6.2944574883
20
-19.9096571883
11
-6.8944574883
21
-19.9096571883
0
LINE
5
228
100
AcDbEntity
8
0
100
AcDbLine
62
0
6
CONTINUOUS
10
6.5055425117
20
-19.9096571883
11
7.1055425117
21
-19.9096571883
0
LINE
5
229
100
AcDbEntity
8
0
100
AcDbLine
62
0
6
CONTINUOUS
10
-6.8944574883
20
-19.9096571883
11
-9.4490743194
21
-20.3026751623
0
LINE
5
22A
100
AcDbEntity
8
0
100
AcDbLine
62
0
6
CONTINUOUS
10
-1.9944574883
20
-19.2497909999
11
2.2055425117
21
-19.2497909999
0
LINE
5
22B
100
AcDbEntity
8
0
100
AcDbLine
62
0
6
CONTINUOUS
10
2.2055425117
20
-18.4596571883
11
-1.9944574883
21
-18.4596571883
0
LINE
5
22C
100
AcDbEntity
8
0
100
AcDbLine
62
0
6
CONTINUOUS
10
2.2055425117
20
-18.4491841493
11
-1.9944574883
21
-18.4491841493
0
LINE
5
22D
100
AcDbEntity
8
0
100
AcDbLine
62
0
6
CONTINUOUS
10
7.1055425117
20
-19.9096571883
11
9.6601593429
21
-20.3026751623
0
LINE
5
22E
100
AcDbEntity
8
0
100
AcDbLine
62
0
6
CONTINUOUS
10
-9.6923453584
20
15.3403428117
11
-9.6895354801
21
15.3431526901
0
LINE
5
22F
100
AcDbEntity
8
0
100
AcDbLine
62
9
6
CONTINUOUS
10
4.7555425117
20
-17.3096571883
11
4.7450694728
21
-17.3096571883
0
LINE
5
230
100
AcDbEntity
8
0
100
AcDbLine
62
9
6
CONTINUOUS
10
-5.1444574883
20
-17.3096571883
11
-5.1549305272
21
-17.3096571883
0
LINE
5
231
100
AcDbEntity
8
0
100
AcDbLine
62
9
6
CONTINUOUS
10
-4.5444574883
20
-17.3096571883
11
-4.5339844493
21
-17.3096571883
0
LINE
5
232
100
AcDbEntity
8
0
100
AcDbLine
62
9
6
CONTINUOUS
10
5.3555425117
20
-17.3096571883
11
5.3660155507
21
-17.3096571883
0
LINE
5
233
100
AcDbEntity
8
0
100
AcDbLine
62
0
6
CONTINUOUS
10
7.6827905267
20
-16.0524775113
11
5.6872007431
21
-16.0524775113
0
LINE
5
234
100
AcDbEntity
8
0
100
AcDbLine
62
0
6
CONTINUOUS
10
-5.4761157196
20
-16.0524775113
11
-7.4717055032
21
-16.0524775113
0
LINE
5
235
100
AcDbEntity
8
0
100
AcDbLine
62
0
6
CONTINUOUS
10
-5.4090719962
20
-15.5558947181
11
-4.9767809656
21
-15.5558947181
0
LINE
5
236
100
AcDbEntity
8
0
100
AcDbLine
62
0
6
CONTINUOUS
10
5.1878659891
20
-15.5558947181
11
5.6201570197
21
-15.5558947181
0
LINE
5
237
100
AcDbEntity
8
0
100
AcDbLine
62
0
6
CONTINUOUS
10
-5.4822962733
20
-15.4596571883
11
-5.0791380320
21
-15.4596571883
0
LINE
5
238
100
AcDbEntity
8
0
100
AcDbLine
62
0
6
CONTINUOUS
10
5.2902230555
20
-15.4596571883
11
5.6933812968
21
-15.4596571883
0
LINE
5
239
100
AcDbEntity
8
0
100
AcDbLine
62
0
6
CONTINUOUS
10
7.3204716405
20
-15.3596571883
11
5.9528748963
21
-15.3596571883
0
LINE
5
23A
100
AcDbEntity
8
0
100
AcDbLine
62
0
6
CONTINUOUS
10
-5.7417898728
20
-15.3596571883
11
-7.1093866170
21
-15.3596571883
0
LINE
5
23B
100
AcDbEntity
8
0
100
AcDbLine
62
0
6
CONTINUOUS
10
-6.4299523633
20
-14.9596571883
11
-5.9545157430
21
-14.9596571883
0
LINE
5
23C
100
AcDbEntity
8
0
100
AcDbLine
62
0
6
CONTINUOUS
10
6.1656007664
20
-14.9596571883
11
6.6410373868
21
-14.9596571883
0
LINE
5
23D
100
AcDbEntity
8
0
100
AcDbLine
62
0
6
CONTINUOUS
10
-6.4058742780
20
-14.9247364188
11
-6.2088333160
21
-14.9247364188
0
LINE
5
23E
100
AcDbEntity
8
0
100
AcDbLine
62
0
6
CONTINUOUS
10
6.4199183395
20
-14.9247364188
11
6.6169593015
21
-14.9247364188
0
LINE
5
23F
100
AcDbEntity
8
0
100
AcDbLine
62
9
6
CONTINUOUS
10
4.4158912593
20
-17.9845218302
11
4.4267251683
21
-17.9911925013
0
LINE
5
240
100
AcDbEntity
8
0
100
AcDbLine
62
0
6
CONTINUOUS
10
-9.6923453584
20
-10.2596571883
11
-9.6857908771
21
-10.2662116696
0
LINE
5
241
100
AcDbEntity
8
0
100
AcDbLine
62
0
6
CONTINUOUS
10
-10.9944574883
20
-21.0097790321
11
-10.9944574883
21
21.0904646556
0
LINE
5
242
100
AcDbEntity
8
0
100
AcDbLine
62
0
6
CONTINUOUS
10
6.6169593015
20
-10.9945779577
11
6.4199183395
21
-10.9945779577
0
LINE
5
243
100
AcDbEntity
8
0
100
AcDbLine
62
0
6
CONTINUOUS
10
-6.2088333160
20
-10.9945779577
11
-6.4058742780
21
-10.9945779577
0
LINE
5
244
100
AcDbEntity
8
0
100
AcDbLine
62
0
6
CONTINUOUS
10
6.1807783538
20
-10.9596571883
11
6.1656007664
21
-10.9596571883
0
LINE
5
245
100
AcDbEntity
8
0
100
AcDbLine
62
0
6
CONTINUOUS
10
-5.9545157430
20
-10.9596571883
11
-5.9696933303
21
-10.9596571883
0
LINE
5
246
100
AcDbEntity
8
0
100
AcDbLine
62
0
6
CONTINUOUS
10
-6.4299523633
20
-10.9596571883
11
-6.1923736380
21
-10.9596571883
0
LINE
5
247
100
AcDbEntity
8
0
100
AcDbLine
62
0
6
CONTINUOUS
10
6.4034586615
20
-10.9596571883
11
6.6410373868
21
-10.9596571883
0
LINE
5
248
100
AcDbEntity
8
0
100
AcDbLine
62
0
6
CONTINUOUS
10
4.6055425117
20
-16.5275697432
11
4.5950694728
21
-16.5219882301
0
LINE
5
249
100
AcDbEntity
8
0
100
AcDbLine
62
9
6
CONTINUOUS
10
4.5950694728
20
-17.7099572257
11
4.6055425117
21
-17.7167869202
0
LINE
5
24A
100
AcDbEntity
8
0
100
AcDbLine
62
9
6
CONTINUOUS
10
-9.4854567879
20
-9.6493099676
11
-9.4890221806
21
14.7335634340
0
LINE
5
24B
100
AcDbEntity
8
0
100
AcDbLine
62
0
6
CONTINUOUS
10
-10.4944574883
20
-5.9397887729
11
-10.4944574883
21
6.0204743964
0
LINE
5
24C
100
AcDbEntity
8
0
100
AcDbLine
62
0
6
CONTINUOUS
10
-9.7944574883
20
-20.1096876492
11
-9.7944574883
21
-7.4596571883
0
LINE
5
24D
100
AcDbEntity
8
0
100
AcDbLine
62
0
6
CONTINUOUS
10
-9.7944574883
20
7.5403428117
11
-9.7944574883
21
20.1903732727
0
LINE
5
24E
100
AcDbEntity
8
0
100
AcDbLine
62
0
6
CONTINUOUS
10
-9.7820218784
20
-7.4596571883
11
-9.7820218784
21
7.5403428117
0
LINE
5
24F
100
AcDbEntity
8
0
100
AcDbLine
62
0
6
CONTINUOUS
10
-9.6923453584
20
-10.2596571883
11
-9.6923453584
21
-9.6596571883
0
LINE
5
250
100
AcDbEntity
8
0
100
AcDbLine
62
0
6
CONTINUOUS
10
-9.6923453584
20
14.7403428117
11
-9.6923453584
21
15.3403428117
0
LINE
5
251
100
AcDbEntity
8
0
100
AcDbLine
62
9
6
CONTINUOUS
10
-9.4944816577
20
20.2903365203
11
-9.4895598343
21
15.3465843532
0
LINE
5
252
100
AcDbEntity
8
0
100
AcDbLine
62
9
6
CONTINUOUS
10
-9.4944816577
20
-20.2096508968
11
-9.4858192439
21
-10.2696417946
0
LINE
5
253
100
AcDbEntity
8
0
100
AcDbLine
62
0
6
CONTINUOUS
10
-5.4822962733
20
-10.4596571883
11
-5.0791380320
21
-10.4596571883
0
LINE
5
254
100
AcDbEntity
8
0
100
AcDbLine
62
0
6
CONTINUOUS
10
5.2902230555
20
-10.4596571883
11
5.6933812968
21
-10.4596571883
0
LINE
5
255
100
AcDbEntity
8
0
100
AcDbLine
62
0
6
CONTINUOUS
10
6.2059532061
20
-10.4509083219
11
5.6892449174
21
-10.4509083219
0
LINE
5
256
100
AcDbEntity
8
0
100
AcDbLine
62
0
6
CONTINUOUS
10
-5.4781598939
20
-10.4509083219
11
-5.9948681826
21
-10.4509083219
0
LINE
5
257
100
AcDbEntity
8
0
100
AcDbLine
62
0
6
CONTINUOUS
10
-5.9774131177
20
-10.3634196584
11
-4.9767809656
21
-10.3634196584
0
LINE
5
258
100
AcDbEntity
8
0
100
AcDbLine
62
0
6
CONTINUOUS
10
5.1878659891
20
-10.3634196584
11
6.1884981411
21
-10.3634196584
0
LINE
5
259
100
AcDbEntity
8
0
100
AcDbLine
62
0
6
CONTINUOUS
10
9.6969042690
20
-10.2696417700
11
8.8055425117
21
-10.2696417700
0
LINE
5
25A
100
AcDbEntity
8
0
100
AcDbLine
62
0
6
CONTINUOUS
10
-8.5944574883
20
-10.2696417700
11
-9.4858192455
21
-10.2696417700
0
LINE
5
25B
100
AcDbEntity
8
0
100
AcDbLine
62
0
6
CONTINUOUS
10
9.9034303819
20
-10.2596571883
11
8.8055425117
21
-10.2596571883
0
LINE
5
25C
100
AcDbEntity
8
0
100
AcDbLine
62
0
6
CONTINUOUS
10
-8.5944574883
20
-10.2596571883
11
-9.6923453584
21
-10.2596571883
0
LINE
5
25D
100
AcDbEntity
8
0
100
AcDbLine
62
0
6
CONTINUOUS
10
-9.6923453584
20
-9.6596571883
11
-8.5944574883
21
-9.6596571883
0
LINE
5
25E
100
AcDbEntity
8
0
100
AcDbLine
62
0
6
CONTINUOUS
10
8.8055425117
20
-9.6596571883
11
9.9034303819
21
-9.6596571883
0
LINE
5
25F
100
AcDbEntity
8
0
100
AcDbLine
62
0
6
CONTINUOUS
10
9.6965418227
20
-9.6493099077
11
8.8055425117
21
-9.6493099077
0
LINE
5
260
100
AcDbEntity
8
0
100
AcDbLine
62
0
6
CONTINUOUS
10
-8.5944574883
20
-9.6493099077
11
-9.4854567992
21
-9.6493099077
0
LINE
5
261
100
AcDbEntity
8
0
100
AcDbLine
62
9
6
CONTINUOUS
10
-8.5944574883
20
14.7403428117
11
-8.5944574883
21
14.7335633126
0
LINE
5
262
100
AcDbEntity
8
0
100
AcDbLine
62
9
6
CONTINUOUS
10
-8.5944574883
20
-9.6596571883
11
-8.5944574883
21
-9.6493099077
0
LINE
5
263
100
AcDbEntity
8
0
100
AcDbLine
62
9
6
CONTINUOUS
10
-8.5944574883
20
-10.2596571883
11
-8.5944574883
21
-10.2696417700
0
LINE
5
264
100
AcDbEntity
8
0
100
AcDbLine
62
9
6
CONTINUOUS
10
-8.5944574883
20
15.3403428117
11
-8.5944574883
21
15.3465842969
0
LINE
5
265
100
AcDbEntity
8
0
100
AcDbLine
62
9
6
CONTINUOUS
10
9.7055666812
20
20.2903365203
11
9.8055729727
21
20.3903428117
0
LINE
5
266
100
AcDbEntity
8
0
100
AcDbLine
62
9
6
CONTINUOUS
10
9.9055362460
20
20.0903670070
11
10.0055425117
21
20.1903732727
0
LINE
5
267
100
AcDbEntity
8
0
100
AcDbLine
62
0
6
CONTINUOUS
10
2.2055425117
20
-7.4771122532
11
-1.9944574883
21
-7.4771122532
0
LINE
5
268
100
AcDbEntity
8
0
100
AcDbLine
62
9
6
CONTINUOUS
10
-9.7820218784
20
-7.4596571883
11
-9.7944574883
21
-7.4596571883
0
LINE
5
269
100
AcDbEntity
8
0
100
AcDbLine
62
9
6
CONTINUOUS
10
9.9931069019
20
-7.4596571883
11
10.0055425117
21
-7.4596571883
0
LINE
5
26A
100
AcDbEntity
8
0
100
AcDbLine
62
9
6
CONTINUOUS
10
9.7055666812
20
-20.2096508968
11
9.8055729727
21
-20.3096571883
0
LINE
5
26B
100
AcDbEntity
8
0
100
AcDbLine
62
9
6
CONTINUOUS
10
9.9055362794
20
-20.0096814169
11
10.0055425117
21
-20.1096876492
0
LINE
5
26C
100
AcDbEntity
8
0
100
AcDbLine
62
9
6
CONTINUOUS
10
-5.3740341418
20
-7.7467620188
11
-5.0680100494
21
-8.2187949614
0
LINE
5
26D
100
AcDbEntity
8
0
100
AcDbLine
62
0
6
CONTINUOUS
10
-5.9700832212
20
-10.9526658229
11
-5.9696933303
21
-10.9596571883
0
LINE
5
26E
100
AcDbEntity
8
0
100
AcDbLine
62
0
6
CONTINUOUS
10
-6.8944574883
20
-20.3096571883
11
-6.8944574883
21
-19.9096571883
0
LINE
5
26F
100
AcDbEntity
8
0
100
AcDbLine
62
0
6
CONTINUOUS
10
-6.8944574883
20
20.3903428117
11
-6.8944574883
21
19.9903428117
0
LINE
5
270
100
AcDbEntity
8
0
100
AcDbLine
62
0
6
CONTINUOUS
10
-6.2944574883
20
-20.3096571883
11
-6.2944574883
21
-19.9096571883
0
LINE
5
271
100
AcDbEntity
8
0
100
AcDbLine
62
0
6
CONTINUOUS
10
-6.2944574883
20
20.3903428117
11
-6.2944574883
21
19.9903428117
0
LINE
5
272
100
AcDbEntity
8
0
100
AcDbLine
62
0
6
CONTINUOUS
10
-6.2770024233
20
-9.6433011302
11
-6.2770024233
21
-10.0627317734
0
LINE
5
273
100
AcDbEntity
8
0
100
AcDbLine
62
0
6
CONTINUOUS
10
-5.2826533701
20
18.8403428117
11
-5.2826533701
21
19.6011288331
0
LINE
5
274
100
AcDbEntity
8
0
100
AcDbLine
62
0
6
CONTINUOUS
10
-5.2721811288
20
19.7697778347
11
-5.2721811288
21
20.3327867942
0
LINE
5
275
100
AcDbEntity
8
0
100
AcDbLine
62
0
6
CONTINUOUS
10
-5.1549305272
20
-18.3981490323
11
-5.1549305272
21
-17.3096571883
0
LINE
5
276
100
AcDbEntity
8
0
100
AcDbLine
62
0
6
CONTINUOUS
10
-5.1444574883
20
-20.1664958345
11
-5.1444574883
21
-17.3096571883
0
LINE
5
277
100
AcDbEntity
8
0
100
AcDbLine
62
9
6
CONTINUOUS
10
-5.2826533701
20
19.6011288331
11
-5.2721811288
21
19.7697778347
0
LINE
5
278
100
AcDbEntity
8
0
100
AcDbLine
62
9
6
CONTINUOUS
10
-4.9804110965
20
19.3403428117
11
-4.9721925519
21
19.4726974141
0
LINE
5
279
100
AcDbEntity
8
0
100
AcDbLine
62
0
6
CONTINUOUS
10
-3.6176514883
20
8.9903928117
11
-4.1703454883
21
7.2689298117
0
LINE
5
27A
100
AcDbEntity
8
IMPORT
100
AcDbLine
62
7
6
CONTINUOUS
10
-3.6176514883
20
8.9903928117
11
-4.1703454883
21
7.2689298117
0
LINE
5
27B
100
AcDbEntity
8
0
100
AcDbLine
62
0
6
CONTINUOUS
10
-3.1176264883
20
8.9903928117
11
-3.9203324883
21
6.4902798117
0
LINE
5
27C
100
AcDbEntity
8
IMPORT
100
AcDbLine
62
7
6
CONTINUOUS
10
-3.9203324883
20
6.4902798117
11
-3.1176264883
21
8.9903928117
0
LINE
5
27D
100
AcDbEntity
8
0
100
AcDbLine
62
0
6
CONTINUOUS
10
3.1055425117
20
-6.8096571883
11
-2.8944574883
21
-6.8096571883
0
LINE
5
27E
100
AcDbEntity
8
0
100
AcDbLine
62
0
6
CONTINUOUS
10
-3.0446752511
20
-6.3018109592
11
3.2557602746
21
-6.3018109592
0
LINE
5
27F
100
AcDbEntity
8
0
100
AcDbLine
62
9
6
CONTINUOUS
10
-4.8167224246
20
19.4726974141
11
-4.8085038801
21
19.3403428117
0
LINE
5
280
100
AcDbEntity
8
0
100
AcDbLine
62
9
6
CONTINUOUS
10
-4.9826647932
20
18.5403428117
11
-4.9826647932
21
19.3403428117
0
LINE
5
281
100
AcDbEntity
8
0
100
AcDbLine
62
9
6
CONTINUOUS
10
-4.9721925519
20
19.4726974141
11
-4.9721925519
21
20.3379776170
0
LINE
5
282
100
AcDbEntity
8
0
100
AcDbLine
62
9
6
CONTINUOUS
10
-4.8167224246
20
19.4726974141
11
-4.8167224246
21
20.3379776170
0
LINE
5
283
100
AcDbEntity
8
0
100
AcDbLine
62
9
6
CONTINUOUS
10
-4.8062501833
20
18.5403428117
11
-4.8062501833
21
19.3403428117
0
LINE
5
284
100
AcDbEntity
8
0
100
AcDbLine
62
0
6
CONTINUOUS
10
-4.5950404883
20
3.5653428117
11
-4.5950404883
21
1.5153428117
0
LINE
5
285
100
AcDbEntity
8
IMPORT
100
AcDbLine
62
7
6
CONTINUOUS
10
-4.5950404883
20
3.5653428117
11
-4.5950404883
21
1.5153428117
0
LINE
5
286
100
AcDbEntity
8
0
100
AcDbLine
62
0
6
CONTINUOUS
10
-4.5444574883
20
-17.3096571883
11
-4.5444574883
21
-20.1664958345
0
LINE
5
287
100
AcDbEntity
8
0
100
AcDbLine
62
0
6
CONTINUOUS
10
-4.5339844493
20
-18.7143584127
11
-4.5339844493
21
-17.3096571883
0
LINE
5
288
100
AcDbEntity
8
0
100
AcDbLine
62
0
6
CONTINUOUS
10
-4.5167338477
20
20.3327867942
11
-4.5167338477
21
19.7697778347
0
LINE
5
289
100
AcDbEntity
8
0
100
AcDbLine
62
0
6
CONTINUOUS
10
-4.5062616064
20
19.6011288331
11
-4.5062616064
21
18.8403428117
0
LINE
5
28A
100
AcDbEntity
8
0
100
AcDbLine
62
0
6
CONTINUOUS
10
-4.3944574883
20
-17.7167869202
11
-4.3944574883
21
-16.5275697432
0
LINE
5
28B
100
AcDbEntity
8
0
100
AcDbLine
62
0
6
CONTINUOUS
10
-4.3839844493
20
-17.7099572257
11
-4.3839844493
21
-16.5219882301
0
LINE
5
28C
100
AcDbEntity
8
0
100
AcDbLine
62
0
6
CONTINUOUS
10
-4.1549224883
20
3.2246668117
11
-4.1549224883
21
2.6454538117
0
LINE
5
28D
100
AcDbEntity
8
0
100
AcDbLine
62
0
6
CONTINUOUS
10
-4.1549224883
20
2.3047778117
11
-4.1549224883
21
1.5153428117
0
LINE
5
28E
100
AcDbEntity
8
IMPORT
100
AcDbLine
62
7
6
CONTINUOUS
10
-4.1549224883
20
1.5153428117
11
-4.1549224883
21
2.3047778117
0
LINE
5
28F
100
AcDbEntity
8
IMPORT
100
AcDbLine
62
7
6
CONTINUOUS
10
-4.1549224883
20
2.6454538117
11
-4.1549224883
21
3.2246668117
0
LINE
5
290
100
AcDbEntity
8
0
100
AcDbLine
62
9
6
CONTINUOUS
10
-6.2944574883
20
-10.1502204369
11
-6.2770024233
21
-10.0627317734
0
LINE
5
291
100
AcDbEntity
8
0
100
AcDbLine
62
9
6
CONTINUOUS
10
-5.9948681826
20
-10.4509083219
11
-5.9774131177
21
-10.3634196584
0
LINE
5
292
100
AcDbEntity
8
0
100
AcDbLine
62
0
6
CONTINUOUS
10
9.9034303819
20
14.7403428117
11
9.9000881606
21
14.7370005904
0
LINE
5
293
100
AcDbEntity
8
0
100
AcDbLine
62
0
6
CONTINUOUS
10
5.2790950729
20
-8.2187949614
11
3.1055425117
21
-6.8096571883
0
LINE
5
294
100
AcDbEntity
8
0
100
AcDbLine
62
0
6
CONTINUOUS
10
-3.0446752511
20
-6.3018109592
11
-2.8944574883
21
-6.8096571883
0
LINE
5
295
100
AcDbEntity
8
0
100
AcDbLine
62
9
6
CONTINUOUS
10
-4.5167338477
20
19.7697778347
11
-4.5062616064
21
19.6011288331
0
LINE
5
296
100
AcDbEntity
8
0
100
AcDbLine
62
9
6
CONTINUOUS
10
-2.9636920654
20
-20.0231152098
11
-2.9636920654
21
-20.2096508968
0
LINE
5
297
100
AcDbEntity
8
0
100
AcDbLine
62
0
6
CONTINUOUS
10
-2.8487634883
20
3.5653428117
11
-2.8487634883
21
1.5153428117
0
LINE
5
298
100
AcDbEntity
8
IMPORT
100
AcDbLine
62
7
6
CONTINUOUS
10
-2.8487634883
20
1.5153428117
11
-2.8487634883
21
3.5653428117
0
LINE
5
299
100
AcDbEntity
8
0
100
AcDbLine
62
0
6
CONTINUOUS
10
-2.7842824883
20
8.9903928117
11
-2.7842884883
21
6.4902738117
0
LINE
5
29A
100
AcDbEntity
8
IMPORT
100
AcDbLine
62
7
6
CONTINUOUS
10
-2.7842824883
20
8.9903928117
11
-2.7842884883
21
6.4902738117
0
LINE
5
29B
100
AcDbEntity
8
0
100
AcDbLine
62
0
6
CONTINUOUS
10
-2.4086454883
20
3.5653428117
11
-2.4086454883
21
1.8560188117
0
LINE
5
29C
100
AcDbEntity
8
IMPORT
100
AcDbLine
62
7
6
CONTINUOUS
10
-2.4086454883
20
3.5653428117
11
-2.4086454883
21
1.8560188117
0
LINE
5
29D
100
AcDbEntity
8
0
100
AcDbLine
62
0
6
CONTINUOUS
10
-2.3944574883
20
20.3903428117
11
-2.3944574883
21
21.5903428117
0
LINE
5
29E
100
AcDbEntity
8
0
100
AcDbLine
62
0
6
CONTINUOUS
10
-2.2842634883
20
8.9903928117
11
-2.2842704883
21
6.4902798117
0
LINE
5
29F
100
AcDbEntity
8
IMPORT
100
AcDbLine
62
7
6
CONTINUOUS
10
-2.2842704883
20
6.4902798117
11
-2.2842634883
21
8.9903928117
0
LINE
5
2A0
100
AcDbEntity
8
0
100
AcDbLine
62
9
6
CONTINUOUS
10
-1.9944574883
20
-7.4771122532
11
-1.9944574883
21
-7.4596571883
0
LINE
5
2A1
100
AcDbEntity
8
0
100
AcDbLine
62
9
6
CONTINUOUS
10
-1.9944574883
20
-18.4491841493
11
-1.9944574883
21
-18.4596571883
0
LINE
5
2A2
100
AcDbEntity
8
0
100
AcDbLine
62
0
6
CONTINUOUS
10
-1.7842634883
20
8.9903928117
11
-1.7842634883
21
6.4902798117
0
LINE
5
2A3
100
AcDbEntity
8
IMPORT
100
AcDbLine
62
7
6
CONTINUOUS
10
-1.7842634883
20
8.9903928117
11
-1.7842634883
21
6.4902798117
0
LINE
5
2A4
100
AcDbEntity
8
0
100
AcDbLine
62
0
6
CONTINUOUS
10
-1.6501464883
20
1.8560188117
11
-1.6501464883
21
1.5153428117
0
LINE
5
2A5
100
AcDbEntity
8
IMPORT
100
AcDbLine
62
7
6
CONTINUOUS
10
-1.6501464883
20
1.8560188117
11
-1.6501464883
21
1.5153428117
0
LINE
5
2A6
100
AcDbEntity
8
0
100
AcDbLine
62
9
6
CONTINUOUS
10
-1.9944574883
20
-19.2497909999
11
-1.9944526388
21
-20.2093909759
0
LINE
5
2A7
100
AcDbEntity
8
0
100
AcDbLine
62
0
6
CONTINUOUS
10
-0.0946324883
20
8.9903928117
11
-0.5615014883
21
7.3622298117
0
LINE
5
2A8
100
AcDbEntity
8
IMPORT
100
AcDbLine
62
7
6
CONTINUOUS
10
-0.0946324883
20
8.9903928117
11
-0.5615014883
21
7.3622298117
0
LINE
5
2A9
100
AcDbEntity
8
0
100
AcDbLine
62
0
6
CONTINUOUS
10
0.1612365117
20
8.1389368117
11
-0.3115014883
21
6.4902868117
0
LINE
5
2AA
100
AcDbEntity
8
IMPORT
100
AcDbLine
62
7
6
CONTINUOUS
10
-0.3115014883
20
6.4902868117
11
0.1612365117
21
8.1389368117
0
LINE
5
2AB
100
AcDbEntity
8
0
100
AcDbLine
62
0
6
CONTINUOUS
10
-0.6879814883
20
3.5653428117
11
-1.4290454883
21
1.5153428117
0
LINE
5
2AC
100
AcDbEntity
8
IMPORT
100
AcDbLine
62
7
6
CONTINUOUS
10
-0.6879814883
20
3.5653428117
11
-1.4290454883
21
1.5153428117
0
LINE
5
2AD
100
AcDbEntity
8
0
100
AcDbLine
62
0
6
CONTINUOUS
10
-5.2230704883
20
8.9903928117
11
-4.4203704883
21
6.4902738117
0
LINE
5
2AE
100
AcDbEntity
8
IMPORT
100
AcDbLine
62
7
6
CONTINUOUS
10
-5.2230704883
20
8.9903928117
11
-4.4203704883
21
6.4902738117
0
LINE
5
2AF
100
AcDbEntity
8
IMPORT
100
AcDbLine
62
7
6
CONTINUOUS
10
-4.1703454883
20
7.2689298117
11
-4.7230454883
21
8.9903928117
0
LINE
5
2B0
100
AcDbEntity
8
0
100
AcDbLine
62
0
6
CONTINUOUS
10
-4.7230454883
20
8.9903928117
11
-4.1703454883
21
7.2689298117
0
LINE
5
2B1
100
AcDbEntity
8
0
100
AcDbLine
62
0
6
CONTINUOUS
10
-1.2842454883
20
8.1389368117
11
-1.2842454883
21
6.4902798117
0
LINE
5
2B2
100
AcDbEntity
8
IMPORT
100
AcDbLine
62
7
6
CONTINUOUS
10
-1.2842454883
20
6.4902798117
11
-1.2842454883
21
8.1389368117
0
LINE
5
2B3
100
AcDbEntity
8
0
100
AcDbLine
62
0
6
CONTINUOUS
10
0.1055425117
20
21.5903428117
11
0.1055425117
21
20.3903428117
0
LINE
5
2B4
100
AcDbEntity
8
0
100
AcDbLine
62
0
6
CONTINUOUS
10
0.1612365117
20
8.1389368117
11
0.1612425117
21
6.4902798117
0
LINE
5
2B5
100
AcDbEntity
8
IMPORT
100
AcDbLine
62
7
6
CONTINUOUS
10
0.1612365117
20
8.1389368117
11
0.1612425117
21
6.4902798117
0
LINE
5
2B6
100
AcDbEntity
8
0
100
AcDbLine
62
0
6
CONTINUOUS
10
1.7972985117
20
8.9903988117
11
0.9946055117
21
6.4902798117
0
LINE
5
2B7
100
AcDbEntity
8
IMPORT
100
AcDbLine
62
7
6
CONTINUOUS
10
0.9946055117
20
6.4902798117
11
1.7972985117
21
8.9903988117
0
LINE
5
2B8
100
AcDbEntity
8
0
100
AcDbLine
62
0
6
CONTINUOUS
10
1.6524805117
20
6.9819488117
11
1.4946235117
21
6.4902868117
0
LINE
5
2B9
100
AcDbEntity
8
IMPORT
100
AcDbLine
62
7
6
CONTINUOUS
10
1.6524805117
20
6.9819488117
11
1.4946235117
21
6.4902868117
0
LINE
5
2BA
100
AcDbEntity
8
0
100
AcDbLine
62
0
6
CONTINUOUS
10
2.0473175117
20
8.2117428117
11
1.8049985117
21
7.4569678117
0
LINE
5
2BB
100
AcDbEntity
8
IMPORT
100
AcDbLine
62
7
6
CONTINUOUS
10
2.0473175117
20
8.2117428117
11
1.8049985117
21
7.4569678117
0
LINE
5
2BC
100
AcDbEntity
8
0
100
AcDbLine
62
0
6
CONTINUOUS
10
-0.4380074883
20
3.1736098117
11
-0.7419834883
21
2.2905058117
0
LINE
5
2BD
100
AcDbEntity
8
IMPORT
100
AcDbLine
62
7
6
CONTINUOUS
10
-0.7419834883
20
2.2905058117
11
-0.4380074883
21
3.1736098117
0
LINE
5
2BE
100
AcDbEntity
8
0
100
AcDbLine
62
0
6
CONTINUOUS
10
-0.8555424883
20
1.9498288117
11
-1.0088314883
21
1.5153428117
0
LINE
5
2BF
100
AcDbEntity
8
IMPORT
100
AcDbLine
62
7
6
CONTINUOUS
10
-1.0088314883
20
1.5153428117
11
-0.8555424883
21
1.9498288117
0
LINE
5
2C0
100
AcDbEntity
8
0
100
AcDbLine
62
0
6
CONTINUOUS
10
-5.4781598939
20
-10.4509083219
11
-5.4822962733
21
-10.4596571883
0
LINE
5
2C1
100
AcDbEntity
8
0
100
AcDbLine
62
0
6
CONTINUOUS
10
-9.6923453584
20
-9.6596571883
11
-9.6854319508
21
-9.6527437806
0
LINE
5
2C2
100
AcDbEntity
8
0
100
AcDbLine
62
0
6
CONTINUOUS
10
9.9034303819
20
-9.6596571883
11
9.8965169743
21
-9.6527437806
0
LINE
5
2C3
100
AcDbEntity
8
0
100
AcDbLine
62
0
6
CONTINUOUS
10
0.6612615117
20
8.9903928117
11
0.6612615117
21
6.4902798117
0
LINE
5
2C4
100
AcDbEntity
8
IMPORT
100
AcDbLine
62
7
6
CONTINUOUS
10
0.6612615117
20
6.4902798117
11
0.6612615117
21
8.9903928117
0
LINE
5
2C5
100
AcDbEntity
8
0
100
AcDbLine
62
0
6
CONTINUOUS
10
0.7713895117
20
3.5653428117
11
0.7713895117
21
1.5153428117
0
LINE
5
2C6
100
AcDbEntity
8
IMPORT
100
AcDbLine
62
7
6
CONTINUOUS
10
0.7713895117
20
1.5153428117
11
0.7713895117
21
3.5653428117
0
LINE
5
2C7
100
AcDbEntity
8
0
100
AcDbLine
62
0
6
CONTINUOUS
10
1.1831175117
20
3.2310538117
11
1.1831175117
21
1.5153428117
0
LINE
5
2C8
100
AcDbEntity
8
IMPORT
100
AcDbLine
62
7
6
CONTINUOUS
10
1.1831175117
20
3.2310538117
11
1.1831175117
21
1.5153428117
0
LINE
5
2C9
100
AcDbEntity
8
0
100
AcDbLine
62
0
6
CONTINUOUS
10
3.5710955117
20
3.5653428117
11
2.8299535117
21
1.5153428117
0
LINE
5
2CA
100
AcDbEntity
8
IMPORT
100
AcDbLine
62
7
6
CONTINUOUS
10
3.5710955117
20
3.5653428117
11
2.8299535117
21
1.5153428117
0
LINE
5
2CB
100
AcDbEntity
8
0
100
AcDbLine
62
0
6
CONTINUOUS
10
4.8061255117
20
1.5153428117
11
4.3633075117
21
1.5153428117
0
LINE
5
2CC
100
AcDbEntity
8
0
100
AcDbLine
62
0
6
CONTINUOUS
10
3.2501675117
20
1.5153428117
11
2.8299535117
21
1.5153428117
0
LINE
5
2CD
100
AcDbEntity
8
0
100
AcDbLine
62
0
6
CONTINUOUS
10
2.6226625117
20
1.5153428117
11
1.9980105117
21
1.5153428117
0
LINE
5
2CE
100
AcDbEntity
8
IMPORT
100
AcDbLine
62
7
6
CONTINUOUS
10
2.6226625117
20
1.5153428117
11
1.9980105117
21
1.5153428117
0
LINE
5
2CF
100
AcDbEntity
8
0
100
AcDbLine
62
0
6
CONTINUOUS
10
1.1831175117
20
1.5153428117
11
0.7713895117
21
1.5153428117
0
LINE
5
2D0
100
AcDbEntity
8
IMPORT
100
AcDbLine
62
7
6
CONTINUOUS
10
1.1831175117
20
1.5153428117
11
0.7713895117
21
1.5153428117
0
LINE
5
2D1
100
AcDbEntity
8
0
100
AcDbLine
62
0
6
CONTINUOUS
10
0.5471265117
20
1.5153428117
11
0.1041535117
21
1.5153428117
0
LINE
5
2D2
100
AcDbEntity
8
0
100
AcDbLine
62
0
6
CONTINUOUS
10
-1.0088314883
20
1.5153428117
11
-1.4290454883
21
1.5153428117
0
LINE
5
2D3
100
AcDbEntity
8
0
100
AcDbLine
62
0
6
CONTINUOUS
10
-1.6501464883
20
1.5153428117
11
-2.8487634883
21
1.5153428117
0
LINE
5
2D4
100
AcDbEntity
8
IMPORT
100
AcDbLine
62
7
6
CONTINUOUS
10
-1.6501464883
20
1.5153428117
11
-2.8487634883
21
1.5153428117
0
LINE
5
2D5
100
AcDbEntity
8
0
100
AcDbLine
62
0
6
CONTINUOUS
10
-4.1549224883
20
1.5153428117
11
-4.5950404883
21
1.5153428117
0
LINE
5
2D6
100
AcDbEntity
8
IMPORT
100
AcDbLine
62
7
6
CONTINUOUS
10
-4.5950404883
20
1.5153428117
11
-4.1549224883
21
1.5153428117
0
LINE
5
2D7
100
AcDbEntity
8
IMPORT
100
AcDbLine
62
7
6
CONTINUOUS
10
-1.4290454883
20
1.5153428117
11
-1.0088314883
21
1.5153428117
0
LINE
5
2D8
100
AcDbEntity
8
IMPORT
100
AcDbLine
62
7
6
CONTINUOUS
10
0.1041535117
20
1.5153428117
11
0.5471265117
21
1.5153428117
0
LINE
5
2D9
100
AcDbEntity
8
IMPORT
100
AcDbLine
62
7
6
CONTINUOUS
10
2.8299535117
20
1.5153428117
11
3.2501675117
21
1.5153428117
0
LINE
5
2DA
100
AcDbEntity
8
IMPORT
100
AcDbLine
62
7
6
CONTINUOUS
10
4.3633075117
20
1.5153428117
11
4.8061255117
21
1.5153428117
0
LINE
5
2DB
100
AcDbEntity
8
0
100
AcDbLine
62
0
6
CONTINUOUS
10
-1.6501464883
20
1.8560188117
11
-2.4086454883
21
1.8560188117
0
LINE
5
2DC
100
AcDbEntity
8
IMPORT
100
AcDbLine
62
7
6
CONTINUOUS
10
-2.4086454883
20
1.8560188117
11
-1.6501464883
21
1.8560188117
0
LINE
5
2DD
100
AcDbEntity
8
0
100
AcDbLine
62
0
6
CONTINUOUS
10
4.2155725117
20
1.9498288117
11
3.4035335117
21
1.9498288117
0
LINE
5
2DE
100
AcDbEntity
8
0
100
AcDbLine
62
0
6
CONTINUOUS
10
-0.0435034883
20
1.9498288117
11
-0.8555424883
21
1.9498288117
0
LINE
5
2DF
100
AcDbEntity
8
IMPORT
100
AcDbLine
62
7
6
CONTINUOUS
10
-0.8555424883
20
1.9498288117
11
-0.0435034883
21
1.9498288117
0
LINE
5
2E0
100
AcDbEntity
8
IMPORT
100
AcDbLine
62
7
6
CONTINUOUS
10
3.4035335117
20
1.9498288117
11
4.2155725117
21
1.9498288117
0
LINE
5
2E1
100
AcDbEntity
8
0
100
AcDbLine
62
0
6
CONTINUOUS
10
5.6933812968
20
-10.4596571883
11
5.6892449174
21
-10.4509083219
0
LINE
5
2E2
100
AcDbEntity
8
IMPORT
100
AcDbLine
62
7
6
CONTINUOUS
10
0.5471265117
20
1.5153428117
11
-0.1655484883
21
3.5653428117
0
LINE
5
2E3
100
AcDbEntity
8
0
100
AcDbLine
62
0
6
CONTINUOUS
10
-0.1655484883
20
3.5653428117
11
0.5471265117
21
1.5153428117
0
LINE
5
2E4
100
AcDbEntity
8
0
100
AcDbLine
62
0
6
CONTINUOUS
10
-0.0435034883
20
1.9498288117
11
0.1041535117
21
1.5153428117
0
LINE
5
2E5
100
AcDbEntity
8
IMPORT
100
AcDbLine
62
7
6
CONTINUOUS
10
-0.0435034883
20
1.9498288117
11
0.1041535117
21
1.5153428117
0
LINE
5
2E6
100
AcDbEntity
8
0
100
AcDbLine
62
0
6
CONTINUOUS
10
-0.4380074883
20
3.1736098117
11
-0.1542084883
21
2.2905058117
0
LINE
5
2E7
100
AcDbEntity
8
IMPORT
100
AcDbLine
62
7
6
CONTINUOUS
10
-0.4380074883
20
3.1736098117
11
-0.1542084883
21
2.2905058117
0
LINE
5
2E8
100
AcDbEntity
8
0
100
AcDbLine
62
0
6
CONTINUOUS
10
-1.2842454883
20
8.1389368117
11
-0.8115074883
21
6.4902798117
0
LINE
5
2E9
100
AcDbEntity
8
IMPORT
100
AcDbLine
62
7
6
CONTINUOUS
10
-1.2842454883
20
8.1389368117
11
-0.8115074883
21
6.4902798117
0
LINE
5
2EA
100
AcDbEntity
8
IMPORT
100
AcDbLine
62
7
6
CONTINUOUS
10
-0.5615014883
20
7.3622298117
11
-1.0283704883
21
8.9903928117
0
LINE
5
2EB
100
AcDbEntity
8
0
100
AcDbLine
62
0
6
CONTINUOUS
10
-1.0283704883
20
8.9903928117
11
-0.5615014883
21
7.3622298117
0
LINE
5
2EC
100
AcDbEntity
8
0
100
AcDbLine
62
9
6
CONTINUOUS
10
2.2055378222
20
-20.2093909759
11
2.2055425117
21
-19.2497909999
0
LINE
5
2ED
100
AcDbEntity
8
0
100
AcDbLine
62
9
6
CONTINUOUS
10
2.2055425117
20
-7.4771122532
11
2.2055425117
21
-7.4596571883
0
LINE
5
2EE
100
AcDbEntity
8
0
100
AcDbLine
62
9
6
CONTINUOUS
10
2.2055425117
20
-18.4491841493
11
2.2055425117
21
-18.4596571883
0
LINE
5
2EF
100
AcDbEntity
8
0
100
AcDbLine
62
0
6
CONTINUOUS
10
2.2109335117
20
3.5653428117
11
2.2109335117
21
1.9408148117
0
LINE
5
2F0
100
AcDbEntity
8
IMPORT
100
AcDbLine
62
7
6
CONTINUOUS
10
2.2109335117
20
1.9408148117
11
2.2109335117
21
3.5653428117
0
LINE
5
2F1
100
AcDbEntity
8
0
100
AcDbLine
62
0
6
CONTINUOUS
10
2.6226625117
20
3.5653428117
11
2.6226625117
21
1.5153428117
0
LINE
5
2F2
100
AcDbEntity
8
IMPORT
100
AcDbLine
62
7
6
CONTINUOUS
10
2.6226625117
20
3.5653428117
11
2.6226625117
21
1.5153428117
0
LINE
5
2F3
100
AcDbEntity
8
0
100
AcDbLine
62
9
6
CONTINUOUS
10
3.1747770888
20
-20.0231152098
11
3.1747770888
21
-20.2096508968
0
LINE
5
2F4
100
AcDbEntity
8
0
100
AcDbLine
62
0
6
CONTINUOUS
10
3.4333925117
20
8.9903988117
11
3.4333925117
21
6.4902868117
0
LINE
5
2F5
100
AcDbEntity
8
IMPORT
100
AcDbLine
62
7
6
CONTINUOUS
10
3.4333925117
20
6.4902868117
11
3.4333925117
21
8.9903988117
0
LINE
5
2F6
100
AcDbEntity
8
0
100
AcDbLine
62
0
6
CONTINUOUS
10
3.9265175117
20
8.5278808117
11
3.9265235117
21
7.9194928117
0
LINE
5
2F7
100
AcDbEntity
8
IMPORT
100
AcDbLine
62
7
6
CONTINUOUS
10
3.9265175117
20
8.5278808117
11
3.9265235117
21
7.9194928117
0
LINE
5
2F8
100
AcDbEntity
8
0
100
AcDbLine
62
0
6
CONTINUOUS
10
3.9334735117
20
7.4569738117
11
3.9334175117
21
6.4902868117
0
LINE
5
2F9
100
AcDbEntity
8
IMPORT
100
AcDbLine
62
7
6
CONTINUOUS
10
3.9334735117
20
7.4569738117
11
3.9334175117
21
6.4902868117
0
LINE
5
2FA
100
AcDbEntity
8
0
100
AcDbLine
62
9
6
CONTINUOUS
10
4.7173466299
20
19.6011288331
11
4.7278188712
21
19.7697778347
0
LINE
5
2FB
100
AcDbEntity
8
0
100
AcDbLine
62
9
6
CONTINUOUS
10
5.0195889035
20
19.3403428117
11
5.0278074481
21
19.4726974141
0
LINE
5
2FC
100
AcDbEntity
8
0
100
AcDbLine
62
0
6
CONTINUOUS
10
3.8210295117
20
3.1734938117
11
3.5170925117
21
2.2905058117
0
LINE
5
2FD
100
AcDbEntity
8
IMPORT
100
AcDbLine
62
7
6
CONTINUOUS
10
3.5170925117
20
2.2905058117
11
3.8210295117
21
3.1734938117
0
LINE
5
2FE
100
AcDbEntity
8
0
100
AcDbLine
62
0
6
CONTINUOUS
10
3.4035335117
20
1.9498288117
11
3.2501675117
21
1.5153428117
0
LINE
5
2FF
100
AcDbEntity
8
IMPORT
100
AcDbLine
62
7
6
CONTINUOUS
10
3.2501675117
20
1.5153428117
11
3.4035335117
21
1.9498288117
0
LINE
5
300
100
AcDbEntity
8
0
100
AcDbLine
62
0
6
CONTINUOUS
10
4.1047915117
20
2.2905058117
11
3.5170925117
21
2.2905058117
0
LINE
5
301
100
AcDbEntity
8
IMPORT
100
AcDbLine
62
7
6
CONTINUOUS
10
4.1047915117
20
2.2905058117
11
3.5170925117
21
2.2905058117
0
LINE
5
302
100
AcDbEntity
8
0
100
AcDbLine
62
0
6
CONTINUOUS
10
-0.1542084883
20
2.2905058117
11
-0.7419834883
21
2.2905058117
0
LINE
5
303
100
AcDbEntity
8
IMPORT
100
AcDbLine
62
7
6
CONTINUOUS
10
-0.1542084883
20
2.2905058117
11
-0.7419834883
21
2.2905058117
0
LINE
5
304
100
AcDbEntity
8
0
100
AcDbLine
62
0
6
CONTINUOUS
10
-3.9677108857
20
2.3047778117
11
-4.1549224883
21
2.3047778117
0
LINE
5
305
100
AcDbEntity
8
IMPORT
100
AcDbLine
62
7
6
CONTINUOUS
10
-3.9677194883
20
2.3047778117
11
-4.1549224883
21
2.3047778117
0
LINE
5
306
100
AcDbEntity
8
0
100
AcDbLine
62
0
6
CONTINUOUS
10
-3.8981694586
20
2.6454538117
11
-4.1549224883
21
2.6454538117
0
LINE
5
307
100
AcDbEntity
8
IMPORT
100
AcDbLine
62
7
6
CONTINUOUS
10
-4.1549224883
20
2.6454538117
11
-3.8981664883
21
2.6454538117
0
LINE
5
308
100
AcDbEntity
8
0
100
AcDbLine
62
0
6
CONTINUOUS
10
-3.8981694702
20
3.2246668117
11
-4.1549224883
21
3.2246668117
0
LINE
5
309
100
AcDbEntity
8
IMPORT
100
AcDbLine
62
7
6
CONTINUOUS
10
-4.1549224883
20
3.2246668117
11
-3.8981664883
21
3.2246668117
0
LINE
5
30A
100
AcDbEntity
8
0
100
AcDbLine
62
0
6
CONTINUOUS
10
4.0935275117
20
3.5653428117
11
3.5710955117
21
3.5653428117
0
LINE
5
30B
100
AcDbEntity
8
IMPORT
100
AcDbLine
62
7
6
CONTINUOUS
10
4.0935275117
20
3.5653428117
11
3.5710955117
21
3.5653428117
0
LINE
5
30C
100
AcDbEntity
8
0
100
AcDbLine
62
0
6
CONTINUOUS
10
2.6226625117
20
3.5653428117
11
2.2109335117
21
3.5653428117
0
LINE
5
30D
100
AcDbEntity
8
0
100
AcDbLine
62
0
6
CONTINUOUS
10
1.4244305117
20
3.5653428117
11
0.7713895117
21
3.5653428117
0
LINE
5
30E
100
AcDbEntity
8
0
100
AcDbLine
62
0
6
CONTINUOUS
10
-0.1655484883
20
3.5653428117
11
-0.6879814883
21
3.5653428117
0
LINE
5
30F
100
AcDbEntity
8
IMPORT
100
AcDbLine
62
7
6
CONTINUOUS
10
-0.1655484883
20
3.5653428117
11
-0.6879814883
21
3.5653428117
0
LINE
5
310
100
AcDbEntity
8
0
100
AcDbLine
62
0
6
CONTINUOUS
10
-2.4086454883
20
3.5653428117
11
-2.8487634883
21
3.5653428117
0
LINE
5
311
100
AcDbEntity
8
0
100
AcDbLine
62
0
6
CONTINUOUS
10
-3.9677109253
20
3.5653428117
11
-4.5950404883
21
3.5653428117
0
LINE
5
312
100
AcDbEntity
8
IMPORT
100
AcDbLine
62
7
6
CONTINUOUS
10
-3.9677194883
20
3.5653428117
11
-4.5950404883
21
3.5653428117
0
LINE
5
313
100
AcDbEntity
8
IMPORT
100
AcDbLine
62
7
6
CONTINUOUS
10
-2.8487634883
20
3.5653428117
11
-2.4086454883
21
3.5653428117
0
LINE
5
314
100
AcDbEntity
8
IMPORT
100
AcDbLine
62
7
6
CONTINUOUS
10
0.7713895117
20
3.5653428117
11
1.4244305117
21
3.5653428117
0
LINE
5
315
100
AcDbEntity
8
IMPORT
100
AcDbLine
62
7
6
CONTINUOUS
10
2.2109335117
20
3.5653428117
11
2.6226625117
21
3.5653428117
0
LINE
5
316
100
AcDbEntity
8
0
100
AcDbLine
62
0
6
CONTINUOUS
10
-9.6923453584
20
14.7403428117
11
-9.6890031371
21
14.7370005904
0
LINE
5
317
100
AcDbEntity
8
0
100
AcDbLine
62
0
6
CONTINUOUS
10
1.4244305117
20
3.5653428117
11
2.2109335117
21
1.9408148117
0
LINE
5
318
100
AcDbEntity
8
IMPORT
100
AcDbLine
62
7
6
CONTINUOUS
10
1.4244305117
20
3.5653428117
11
2.2109335117
21
1.9408148117
0
LINE
5
319
100
AcDbEntity
8
IMPORT
100
AcDbLine
62
7
6
CONTINUOUS
10
1.9980105117
20
1.5153428117
11
1.1831175117
21
3.2310538117
0
LINE
5
31A
100
AcDbEntity
8
0
100
AcDbLine
62
0
6
CONTINUOUS
10
1.1831175117
20
3.2310538117
11
1.9980105117
21
1.5153428117
0
LINE
5
31B
100
AcDbEntity
8
0
100
AcDbLine
62
0
6
CONTINUOUS
10
4.5950694728
20
-16.5219882301
11
4.5950694728
21
-17.7099572257
0
LINE
5
31C
100
AcDbEntity
8
0
100
AcDbLine
62
0
6
CONTINUOUS
10
4.6055425117
20
-16.5275697432
11
4.6055425117
21
-17.7167869202
0
LINE
5
31D
100
AcDbEntity
8
0
100
AcDbLine
62
0
6
CONTINUOUS
10
4.7173466299
20
18.8403428117
11
4.7173466299
21
19.6011288331
0
LINE
5
31E
100
AcDbEntity
8
0
100
AcDbLine
62
0
6
CONTINUOUS
10
4.7278188712
20
19.7697778347
11
4.7278188712
21
20.3327867942
0
LINE
5
31F
100
AcDbEntity
8
0
100
AcDbLine
62
0
6
CONTINUOUS
10
4.7450694728
20
-18.7143584127
11
4.7450694728
21
-17.3096571883
0
LINE
5
320
100
AcDbEntity
8
0
100
AcDbLine
62
0
6
CONTINUOUS
10
4.7555425117
20
-20.1664958345
11
4.7555425117
21
-17.3096571883
0
LINE
5
321
100
AcDbEntity
8
0
100
AcDbLine
62
9
6
CONTINUOUS
10
5.0173352068
20
18.5403428117
11
5.0173352068
21
19.3403428117
0
LINE
5
322
100
AcDbEntity
8
0
100
AcDbLine
62
9
6
CONTINUOUS
10
5.0278074481
20
19.4726974141
11
5.0278074481
21
20.3379776170
0
LINE
5
323
100
AcDbEntity
8
0
100
AcDbLine
62
9
6
CONTINUOUS
10
5.1832775754
20
19.4726974141
11
5.1832775754
21
20.3379776170
0
LINE
5
324
100
AcDbEntity
8
0
100
AcDbLine
62
9
6
CONTINUOUS
10
5.1937498167
20
18.5403428117
11
5.1937498167
21
19.3403428117
0
LINE
5
325
100
AcDbEntity
8
0
100
AcDbLine
62
0
6
CONTINUOUS
10
5.3555425117
20
-17.3096571883
11
5.3555425117
21
-20.1664958345
0
LINE
5
326
100
AcDbEntity
8
0
100
AcDbLine
62
0
6
CONTINUOUS
10
5.3660155507
20
-18.3981490323
11
5.3660155507
21
-17.3096571883
0
LINE
5
327
100
AcDbEntity
8
0
100
AcDbLine
62
0
6
CONTINUOUS
10
5.4832661523
20
20.3327867942
11
5.4832661523
21
19.7697778347
0
LINE
5
328
100
AcDbEntity
8
0
100
AcDbLine
62
0
6
CONTINUOUS
10
5.4937383936
20
19.6011288331
11
5.4937383936
21
18.8403428117
0
LINE
5
329
100
AcDbEntity
8
0
100
AcDbLine
62
0
6
CONTINUOUS
10
3.2557602746
20
-6.3018109592
11
3.1055425117
21
-6.8096571883
0
LINE
5
32A
100
AcDbEntity
8
0
100
AcDbLine
62
0
6
CONTINUOUS
10
-2.8944574883
20
-6.8096571883
11
-5.0680100494
21
-8.2187949614
0
LINE
5
32B
100
AcDbEntity
8
0
100
AcDbLine
62
0
6
CONTINUOUS
10
-4.5167338477
20
20.3327867942
11
-4.4955103272
21
20.2903365203
0
LINE
5
32C
100
AcDbEntity
8
IMPORT
100
AcDbLine
62
7
6
CONTINUOUS
10
4.8061255117
20
1.5153428117
11
4.0935275117
21
3.5653428117
0
LINE
5
32D
100
AcDbEntity
8
0
100
AcDbLine
62
0
6
CONTINUOUS
10
4.0935275117
20
3.5653428117
11
4.8061255117
21
1.5153428117
0
LINE
5
32E
100
AcDbEntity
8
0
100
AcDbLine
62
0
6
CONTINUOUS
10
4.2155725117
20
1.9498288117
11
4.3633075117
21
1.5153428117
0
LINE
5
32F
100
AcDbEntity
8
IMPORT
100
AcDbLine
62
7
6
CONTINUOUS
10
4.2155725117
20
1.9498288117
11
4.3633075117
21
1.5153428117
0
LINE
5
330
100
AcDbEntity
8
0
100
AcDbLine
62
0
6
CONTINUOUS
10
3.8210295117
20
3.1734938117
11
4.1047915117
21
2.2905058117
0
LINE
5
331
100
AcDbEntity
8
IMPORT
100
AcDbLine
62
7
6
CONTINUOUS
10
3.8210295117
20
3.1734938117
11
4.1047915117
21
2.2905058117
0
LINE
5
332
100
AcDbEntity
8
IMPORT
100
AcDbLine
62
7
6
CONTINUOUS
10
2.6000235117
20
6.4902868117
11
2.4421735117
21
6.9819488117
0
LINE
5
333
100
AcDbEntity
8
0
100
AcDbLine
62
0
6
CONTINUOUS
10
2.4421735117
20
6.9819488117
11
2.6000235117
21
6.4902868117
0
LINE
5
334
100
AcDbEntity
8
IMPORT
100
AcDbLine
62
7
6
CONTINUOUS
10
2.2896485117
20
7.4569678117
11
2.0473175117
21
8.2117428117
0
LINE
5
335
100
AcDbEntity
8
0
100
AcDbLine
62
0
6
CONTINUOUS
10
2.0473175117
20
8.2117428117
11
2.2896485117
21
7.4569678117
0
LINE
5
336
100
AcDbEntity
8
0
100
AcDbLine
62
0
6
CONTINUOUS
10
2.2973425117
20
8.9903988117
11
3.1000485117
21
6.4902798117
0
LINE
5
337
100
AcDbEntity
8
IMPORT
100
AcDbLine
62
7
6
CONTINUOUS
10
2.2973425117
20
8.9903988117
11
3.1000485117
21
6.4902798117
0
LINE
5
338
100
AcDbEntity
8
0
100
AcDbLine
62
9
6
CONTINUOUS
10
6.1884981411
20
-10.3634196584
11
6.2059532061
21
-10.4509083219
0
LINE
5
339
100
AcDbEntity
8
0
100
AcDbLine
62
9
6
CONTINUOUS
10
6.4880874468
20
-10.0627317734
11
6.5055425117
21
-10.1502204369
0
LINE
5
33A
100
AcDbEntity
8
0
100
AcDbLine
62
9
6
CONTINUOUS
10
5.1832775754
20
19.4726974141
11
5.1914961199
21
19.3403428117
0
LINE
5
33B
100
AcDbEntity
8
0
100
AcDbLine
62
9
6
CONTINUOUS
10
5.4832661523
20
19.7697778347
11
5.4937383936
21
19.6011288331
0
LINE
5
33C
100
AcDbEntity
8
0
100
AcDbLine
62
0
6
CONTINUOUS
10
6.4880874468
20
-10.0627317734
11
6.4880874468
21
-9.6433011302
0
LINE
5
33D
100
AcDbEntity
8
0
100
AcDbLine
62
0
6
CONTINUOUS
10
6.5055425117
20
-20.3096571883
11
6.5055425117
21
-19.9096571883
0
LINE
5
33E
100
AcDbEntity
8
0
100
AcDbLine
62
0
6
CONTINUOUS
10
6.5055425117
20
20.3903428117
11
6.5055425117
21
19.9903428117
0
LINE
5
33F
100
AcDbEntity
8
0
100
AcDbLine
62
0
6
CONTINUOUS
10
6.5055425117
20
-9.6369911413
11
6.5055425117
21
-10.1502204369
0
LINE
5
340
100
AcDbEntity
8
0
100
AcDbLine
62
0
6
CONTINUOUS
10
7.1055425117
20
-20.3096571883
11
7.1055425117
21
-19.9096571883
0
LINE
5
341
100
AcDbEntity
8
0
100
AcDbLine
62
0
6
CONTINUOUS
10
7.1055425117
20
20.3903428117
11
7.1055425117
21
19.9903428117
0
LINE
5
342
100
AcDbEntity
8
0
100
AcDbLine
62
0
6
CONTINUOUS
10
6.1811683314
20
-10.9526642499
11
6.1807783538
21
-10.9596571883
0
LINE
5
343
100
AcDbEntity
8
0
100
AcDbLine
62
9
6
CONTINUOUS
10
-9.6944512560
20
-20.0096814169
11
-9.7944574883
21
-20.1096876492
0
LINE
5
344
100
AcDbEntity
8
0
100
AcDbLine
62
9
6
CONTINUOUS
10
-9.4944816577
20
-20.2096508968
11
-9.5944879492
21
-20.3096571883
0
LINE
5
345
100
AcDbEntity
8
0
100
AcDbLine
62
0
6
CONTINUOUS
10
5.4341555117
20
6.4902928117
11
4.8709615117
21
6.4902868117
0
LINE
5
346
100
AcDbEntity
8
IMPORT
100
AcDbLine
62
7
6
CONTINUOUS
10
5.4341555117
20
6.4902928117
11
4.8709615117
21
6.4902868117
0
LINE
5
347
100
AcDbEntity
8
0
100
AcDbLine
62
0
6
CONTINUOUS
10
1.4946235117
20
6.4902868117
11
0.9946055117
21
6.4902798117
0
LINE
5
348
100
AcDbEntity
8
IMPORT
100
AcDbLine
62
7
6
CONTINUOUS
10
1.4946235117
20
6.4902868117
11
0.9946055117
21
6.4902798117
0
LINE
5
349
100
AcDbEntity
8
0
100
AcDbLine
62
0
6
CONTINUOUS
10
0.6612615117
20
6.4902798117
11
0.1612425117
21
6.4902798117
0
LINE
5
34A
100
AcDbEntity
8
0
100
AcDbLine
62
0
6
CONTINUOUS
10
-1.2842454883
20
6.4902798117
11
-1.7842634883
21
6.4902798117
0
LINE
5
34B
100
AcDbEntity
8
IMPORT
100
AcDbLine
62
7
6
CONTINUOUS
10
-1.7842634883
20
6.4902798117
11
-1.2842454883
21
6.4902798117
0
LINE
5
34C
100
AcDbEntity
8
IMPORT
100
AcDbLine
62
7
6
CONTINUOUS
10
0.1612425117
20
6.4902798117
11
0.6612615117
21
6.4902798117
0
LINE
5
34D
100
AcDbEntity
8
0
100
AcDbLine
62
0
6
CONTINUOUS
10
3.9334175117
20
6.4902868117
11
3.4333925117
21
6.4902868117
0
LINE
5
34E
100
AcDbEntity
8
IMPORT
100
AcDbLine
62
7
6
CONTINUOUS
10
3.9334175117
20
6.4902868117
11
3.4333925117
21
6.4902868117
0
LINE
5
34F
100
AcDbEntity
8
0
100
AcDbLine
62
0
6
CONTINUOUS
10
-0.3115014883
20
6.4902868117
11
-0.8115074883
21
6.4902798117
0
LINE
5
350
100
AcDbEntity
8
IMPORT
100
AcDbLine
62
7
6
CONTINUOUS
10
-0.8115074883
20
6.4902798117
11
-0.3115014883
21
6.4902868117
0
LINE
5
351
100
AcDbEntity
8
0
100
AcDbLine
62
0
6
CONTINUOUS
10
-2.2842704883
20
6.4902798117
11
-2.7842884883
21
6.4902738117
0
LINE
5
352
100
AcDbEntity
8
IMPORT
100
AcDbLine
62
7
6
CONTINUOUS
10
-2.7842884883
20
6.4902738117
11
-2.2842704883
21
6.4902798117
0
LINE
5
353
100
AcDbEntity
8
0
100
AcDbLine
62
0
6
CONTINUOUS
10
3.1000485117
20
6.4902798117
11
2.6000235117
21
6.4902868117
0
LINE
5
354
100
AcDbEntity
8
IMPORT
100
AcDbLine
62
7
6
CONTINUOUS
10
3.1000485117
20
6.4902798117
11
2.6000235117
21
6.4902868117
0
LINE
5
355
100
AcDbEntity
8
0
100
AcDbLine
62
0
6
CONTINUOUS
10
-3.9203324883
20
6.4902798117
11
-4.4203704883
21
6.4902738117
0
LINE
5
356
100
AcDbEntity
8
IMPORT
100
AcDbLine
62
7
6
CONTINUOUS
10
-4.4203704883
20
6.4902738117
11
-3.9203324883
21
6.4902798117
0
LINE
5
357
100
AcDbEntity
8
0
100
AcDbLine
62
0
6
CONTINUOUS
10
2.4421735117
20
6.9819488117
11
1.6524805117
21
6.9819488117
0
LINE
5
358
100
AcDbEntity
8
IMPORT
100
AcDbLine
62
7
6
CONTINUOUS
10
2.4421735117
20
6.9819488117
11
1.6524805117
21
6.9819488117
0
LINE
5
359
100
AcDbEntity
8
0
100
AcDbLine
62
0
6
CONTINUOUS
10
2.2896485117
20
7.4569678117
11
1.8049985117
21
7.4569678117
0
LINE
5
35A
100
AcDbEntity
8
IMPORT
100
AcDbLine
62
7
6
CONTINUOUS
10
1.8049985117
20
7.4569678117
11
2.2896485117
21
7.4569678117
0
LINE
5
35B
100
AcDbEntity
8
0
100
AcDbLine
62
0
6
CONTINUOUS
10
4.3698805117
20
7.4569678117
11
3.9334735117
21
7.4569738117
0
LINE
5
35C
100
AcDbEntity
8
IMPORT
100
AcDbLine
62
7
6
CONTINUOUS
10
4.3698805117
20
7.4569678117
11
3.9334735117
21
7.4569738117
0
LINE
5
35D
100
AcDbEntity
8
0
100
AcDbLine
62
9
6
CONTINUOUS
10
10.0055425117
20
7.5403428117
11
9.9931069019
21
7.5403428117
0
LINE
5
35E
100
AcDbEntity
8
0
100
AcDbLine
62
9
6
CONTINUOUS
10
-9.7944574883
20
7.5403428117
11
-9.7820218784
21
7.5403428117
0
LINE
5
35F
100
AcDbEntity
8
0
100
AcDbLine
62
9
6
CONTINUOUS
10
-9.7944574883
20
20.1903732727
11
-9.6944512225
21
20.0903670070
0
LINE
5
360
100
AcDbEntity
8
0
100
AcDbLine
62
9
6
CONTINUOUS
10
-9.5944879492
20
20.3903428117
11
-9.4944816577
21
20.2903365203
0
LINE
5
361
100
AcDbEntity
8
IMPORT
100
AcDbLine
62
7
6
CONTINUOUS
10
4.8709615117
20
6.4902868117
11
4.3698805117
21
7.4569678117
0
LINE
5
362
100
AcDbEntity
8
0
100
AcDbLine
62
0
6
CONTINUOUS
10
4.3698805117
20
7.4569678117
11
4.8709615117
21
6.4902868117
0
LINE
5
363
100
AcDbEntity
8
0
100
AcDbLine
62
9
6
CONTINUOUS
10
8.8055425117
20
14.7403428117
11
8.8055425117
21
14.7335633126
0
LINE
5
364
100
AcDbEntity
8
0
100
AcDbLine
62
9
6
CONTINUOUS
10
8.8055425117
20
-9.6596571883
11
8.8055425117
21
-9.6493099077
0
LINE
5
365
100
AcDbEntity
8
0
100
AcDbLine
62
9
6
CONTINUOUS
10
8.8055425117
20
-10.2596571883
11
8.8055425117
21
-10.2696417700
0
LINE
5
366
100
AcDbEntity
8
0
100
AcDbLine
62
9
6
CONTINUOUS
10
8.8055425117
20
15.3403428117
11
8.8055425117
21
15.3465842969
0
LINE
5
367
100
AcDbEntity
8
0
100
AcDbLine
62
9
6
CONTINUOUS
10
5.5851191653
20
-7.7467620188
11
5.2790950729
21
-8.2187949614
0
LINE
5
368
100
AcDbEntity
8
0
100
AcDbLine
62
0
6
CONTINUOUS
10
4.5348655117
20
7.9194928117
11
3.9265235117
21
7.9194928117
0
LINE
5
369
100
AcDbEntity
8
IMPORT
100
AcDbLine
62
7
6
CONTINUOUS
10
3.9265235117
20
7.9194928117
11
4.5348675117
21
7.9194928117
0
LINE
5
36A
100
AcDbEntity
8
0
100
AcDbLine
62
0
6
CONTINUOUS
10
4.5348655117
20
8.5278808117
11
3.9265175117
21
8.5278808117
0
LINE
5
36B
100
AcDbEntity
8
IMPORT
100
AcDbLine
62
7
6
CONTINUOUS
10
4.5348675117
20
8.5278808117
11
3.9265175117
21
8.5278808117
0
LINE
5
36C
100
AcDbEntity
8
0
100
AcDbLine
62
0
6
CONTINUOUS
10
0.6612615117
20
8.9903928117
11
-0.0946324883
21
8.9903928117
0
LINE
5
36D
100
AcDbEntity
8
IMPORT
100
AcDbLine
62
7
6
CONTINUOUS
10
0.6612615117
20
8.9903928117
11
-0.0946324883
21
8.9903928117
0
LINE
5
36E
100
AcDbEntity
8
0
100
AcDbLine
62
0
6
CONTINUOUS
10
-1.0283704883
20
8.9903928117
11
-1.7842634883
21
8.9903928117
0
LINE
5
36F
100
AcDbEntity
8
IMPORT
100
AcDbLine
62
7
6
CONTINUOUS
10
-1.0283704883
20
8.9903928117
11
-1.7842634883
21
8.9903928117
0
LINE
5
370
100
AcDbEntity
8
0
100
AcDbLine
62
0
6
CONTINUOUS
10
-2.2842634883
20
8.9903928117
11
-2.7842824883
21
8.9903928117
0
LINE
5
371
100
AcDbEntity
8
IMPORT
100
AcDbLine
62
7
6
CONTINUOUS
10
-2.2842634883
20
8.9903928117
11
-2.7842824883
21
8.9903928117
0
LINE
5
372
100
AcDbEntity
8
0
100
AcDbLine
62
0
6
CONTINUOUS
10
-3.1176264883
20
8.9903928117
11
-3.6176514883
21
8.9903928117
0
LINE
5
373
100
AcDbEntity
8
IMPORT
100
AcDbLine
62
7
6
CONTINUOUS
10
-3.1176264883
20
8.9903928117
11
-3.6176514883
21
8.9903928117
0
LINE
5
374
100
AcDbEntity
8
0
100
AcDbLine
62
0
6
CONTINUOUS
10
-4.7230454883
20
8.9903928117
11
-5.2230704883
21
8.9903928117
0
LINE
5
375
100
AcDbEntity
8
IMPORT
100
AcDbLine
62
7
6
CONTINUOUS
10
-4.7230454883
20
8.9903928117
11
-5.2230704883
21
8.9903928117
0
LINE
5
376
100
AcDbEntity
8
0
100
AcDbLine
62
0
6
CONTINUOUS
10
4.6042675117
20
8.9903988117
11
3.4333925117
21
8.9903988117
0
LINE
5
377
100
AcDbEntity
8
0
100
AcDbLine
62
0
6
CONTINUOUS
10
2.2973425117
20
8.9903988117
11
1.7972985117
21
8.9903988117
0
LINE
5
378
100
AcDbEntity
8
IMPORT
100
AcDbLine
62
7
6
CONTINUOUS
10
1.7972985117
20
8.9903988117
11
2.2973425117
21
8.9903988117
0
LINE
5
379
100
AcDbEntity
8
IMPORT
100
AcDbLine
62
7
6
CONTINUOUS
10
3.4333925117
20
8.9903988117
11
4.6042675117
21
8.9903988117
0
LINE
5
37A
100
AcDbEntity
8
0
100
AcDbLine
62
0
6
CONTINUOUS
10
4.9019103024
20
7.5171011448
11
5.4341555117
21
6.4902928117
0
LINE
5
37B
100
AcDbEntity
8
IMPORT
100
AcDbLine
62
7
6
CONTINUOUS
10
4.9019115117
20
7.5170988117
11
5.4341555117
21
6.4902928117
0
LINE
5
37C
100
AcDbEntity
8
0
100
AcDbLine
62
9
6
CONTINUOUS
10
9.7055666812
20
-20.2096508968
11
9.6969042674
21
-10.2696417946
0
LINE
5
37D
100
AcDbEntity
8
0
100
AcDbLine
62
0
6
CONTINUOUS
10
9.9034303819
20
-10.2596571883
11
9.9034303819
21
-9.6596571883
0
LINE
5
37E
100
AcDbEntity
8
0
100
AcDbLine
62
0
6
CONTINUOUS
10
9.9034303819
20
14.7403428117
11
9.9034303819
21
15.3403428117
0
LINE
5
37F
100
AcDbEntity
8
0
100
AcDbLine
62
0
6
CONTINUOUS
10
9.9931069019
20
-7.4596571883
11
9.9931069019
21
7.5403428117
0
LINE
5
380
100
AcDbEntity
8
0
100
AcDbLine
62
0
6
CONTINUOUS
10
10.0055425117
20
-20.1096876492
11
10.0055425117
21
-7.4596571883
0
LINE
5
381
100
AcDbEntity
8
0
100
AcDbLine
62
0
6
CONTINUOUS
10
10.0055425117
20
7.5403428117
11
10.0055425117
21
20.1903732727
0
LINE
5
382
100
AcDbEntity
8
0
100
AcDbLine
62
0
6
CONTINUOUS
10
10.7055425117
20
-5.9397887729
11
10.7055425117
21
6.0204743964
0
LINE
5
383
100
AcDbEntity
8
0
100
AcDbLine
62
0
6
CONTINUOUS
10
11.2055425117
20
-21.0097790321
11
11.2055425117
21
21.0904646556
0
LINE
5
384
100
AcDbEntity
8
0
100
AcDbLine
62
9
6
CONTINUOUS
10
9.7001072040
20
14.7335634340
11
9.6965418114
21
-9.6493099676
0
LINE
5
385
100
AcDbEntity
8
0
100
AcDbLine
62
9
6
CONTINUOUS
10
9.7055666812
20
20.2903365203
11
9.7006448578
21
15.3465843532
0
LINE
5
386
100
AcDbEntity
8
0
100
AcDbLine
62
9
6
CONTINUOUS
10
6.4206013028
20
-9.4506885250
11
6.4186346970
21
-9.4513594238
0
LINE
5
387
100
AcDbEntity
8
0
100
AcDbLine
62
9
6
CONTINUOUS
10
-4.3944574883
20
-17.7167869202
11
-4.3839844493
21
-17.7099572257
0
LINE
5
388
100
AcDbEntity
8
0
100
AcDbLine
62
0
6
CONTINUOUS
10
-4.3944574883
20
-16.5275697432
11
-4.3839844493
21
-16.5219882301
0
LINE
5
389
100
AcDbEntity
8
0
100
AcDbLine
62
0
6
CONTINUOUS
10
9.9034303819
20
-10.2596571883
11
9.8968759005
21
-10.2662116696
0
LINE
5
38A
100
AcDbEntity
8
0
100
AcDbLine
62
9
6
CONTINUOUS
10
-4.2156401448
20
-17.9911925013
11
-4.2048062358
21
-17.9845218302
0
LINE
5
38B
100
AcDbEntity
8
0
100
AcDbLine
62
0
6
CONTINUOUS
10
9.7001072345
20
14.7335633127
11
8.8055425117
21
14.7335633126
0
LINE
5
38C
100
AcDbEntity
8
0
100
AcDbLine
62
0
6
CONTINUOUS
10
-8.5944574883
20
14.7335633126
11
-9.4890222111
21
14.7335633127
0
LINE
5
38D
100
AcDbEntity
8
0
100
AcDbLine
62
0
6
CONTINUOUS
10
9.9034303819
20
14.7403428117
11
8.8055425117
21
14.7403428117
0
LINE
5
38E
100
AcDbEntity
8
0
100
AcDbLine
62
0
6
CONTINUOUS
10
-8.5944574883
20
14.7403428117
11
-9.6923453584
21
14.7403428117
0
LINE
5
38F
100
AcDbEntity
8
0
100
AcDbLine
62
0
6
CONTINUOUS
10
5.4832661523
20
20.3327867942
11
5.5044896728
21
20.2903365203
0
LINE
5
390
100
AcDbEntity
8
0
100
AcDbLine
62
0
6
CONTINUOUS
10
-9.6923453584
20
15.3403428117
11
-8.5944574883
21
15.3403428117
0
LINE
5
391
100
AcDbEntity
8
0
100
AcDbLine
62
0
6
CONTINUOUS
10
8.8055425117
20
15.3403428117
11
9.9034303819
21
15.3403428117
0
LINE
5
392
100
AcDbEntity
8
0
100
AcDbLine
62
0
6
CONTINUOUS
10
9.7006448649
20
15.3465842969
11
8.8055425117
21
15.3465842969
0
LINE
5
393
100
AcDbEntity
8
0
100
AcDbLine
62
0
6
CONTINUOUS
10
-8.5944574883
20
15.3465842969
11
-9.4895598414
21
15.3465842969
0
LINE
5
394
100
AcDbEntity
8
0
100
AcDbLine
62
0
6
CONTINUOUS
10
9.9034303819
20
15.3403428117
11
9.9006205035
21
15.3431526901
0
LINE
5
395
100
AcDbEntity
8
0
100
AcDbLine
62
0
6
CONTINUOUS
10
7.1055425117
20
19.9903428117
11
9.6601593429
21
20.3833607858
0
LINE
5
396
100
AcDbEntity
8
0
100
AcDbLine
62
0
6
CONTINUOUS
10
5.1937498167
20
18.5403428117
11
5.0173352068
21
18.5403428117
0
LINE
5
397
100
AcDbEntity
8
0
100
AcDbLine
62
0
6
CONTINUOUS
10
-4.8062501833
20
18.5403428117
11
-4.9826647932
21
18.5403428117
0
LINE
5
398
100
AcDbEntity
8
0
100
AcDbLine
62
9
6
CONTINUOUS
10
5.4937383936
20
18.8403428117
11
4.7173466299
21
18.8403428117
0
LINE
5
399
100
AcDbEntity
8
0
100
AcDbLine
62
9
6
CONTINUOUS
10
-4.5062616064
20
18.8403428117
11
-5.2826533701
21
18.8403428117
0
LINE
5
39A
100
AcDbEntity
8
0
100
AcDbLine
62
0
6
CONTINUOUS
10
5.1937498167
20
19.3403428117
11
5.0173352068
21
19.3403428117
0
LINE
5
39B
100
AcDbEntity
8
0
100
AcDbLine
62
0
6
CONTINUOUS
10
-4.8062501833
20
19.3403428117
11
-4.9826647932
21
19.3403428117
0
LINE
5
39C
100
AcDbEntity
8
0
100
AcDbLine
62
9
6
CONTINUOUS
10
5.1832775754
20
19.4726974141
11
5.0278074481
21
19.4726974141
0
LINE
5
39D
100
AcDbEntity
8
0
100
AcDbLine
62
9
6
CONTINUOUS
10
-4.8167224246
20
19.4726974141
11
-4.9721925519
21
19.4726974141
0
LINE
5
39E
100
AcDbEntity
8
0
100
AcDbLine
62
9
6
CONTINUOUS
10
5.4832661523
20
19.7697778347
11
4.7278188712
21
19.7697778347
0
LINE
5
39F
100
AcDbEntity
8
0
100
AcDbLine
62
9
6
CONTINUOUS
10
-4.5167338477
20
19.7697778347
11
-5.2721811288
21
19.7697778347
0
LINE
5
3A0
100
AcDbEntity
8
0
100
AcDbLine
62
0
6
CONTINUOUS
10
-6.2944574883
20
19.9903428117
11
-6.8944574883
21
19.9903428117
0
LINE
5
3A1
100
AcDbEntity
8
0
100
AcDbLine
62
0
6
CONTINUOUS
10
6.5055425117
20
19.9903428117
11
7.1055425117
21
19.9903428117
0
LINE
5
3A2
100
AcDbEntity
8
0
100
AcDbLine
62
9
6
CONTINUOUS
10
-9.4944816629
20
20.1038008333
11
-7.6319346281
21
20.1038008333
0
LINE
5
3A3
100
AcDbEntity
8
0
100
AcDbLine
62
9
6
CONTINUOUS
10
-6.2944574883
20
20.1038008333
11
-5.2951156201
21
20.1038008333
0
LINE
5
3A4
100
AcDbEntity
8
0
100
AcDbLine
62
9
6
CONTINUOUS
10
-4.4937993564
20
20.1038008333
11
4.7048843799
21
20.1038008333
0
LINE
5
3A5
100
AcDbEntity
8
0
100
AcDbLine
62
9
6
CONTINUOUS
10
5.5062006436
20
20.1038008333
11
6.5055425117
21
20.1038008333
0
LINE
5
3A6
100
AcDbEntity
8
0
100
AcDbLine
62
9
6
CONTINUOUS
10
7.8430196516
20
20.1038008333
11
9.7055666863
21
20.1038008333
0
LINE
5
3A7
100
AcDbEntity
8
0
100
AcDbLine
62
9
6
CONTINUOUS
10
-9.4944816577
20
20.2903365203
11
-8.8444165936
21
20.2903365203
0
LINE
5
3A8
100
AcDbEntity
8
0
100
AcDbLine
62
9
6
CONTINUOUS
10
-6.2944574883
20
20.2903365203
11
-5.2934046493
21
20.2903365203
0
LINE
5
3A9
100
AcDbEntity
8
0
100
AcDbLine
62
9
6
CONTINUOUS
10
-4.4955103272
20
20.2903365203
11
4.7065953507
21
20.2903365203
0
LINE
5
3AA
100
AcDbEntity
8
0
100
AcDbLine
62
9
6
CONTINUOUS
10
5.5044896728
20
20.2903365203
11
6.5055425117
21
20.2903365203
0
LINE
5
3AB
100
AcDbEntity
8
0
100
AcDbLine
62
9
6
CONTINUOUS
10
9.0555016170
20
20.2903365203
11
9.7055666812
21
20.2903365203
0
LINE
5
3AC
100
AcDbEntity
8
0
100
AcDbLine
62
0
6
CONTINUOUS
10
-6.8944574883
20
19.9903428117
11
-9.4490743194
21
20.3833607858
0
LINE
5
3AD
100
AcDbEntity
8
0
100
AcDbLine
62
0
6
CONTINUOUS
10
5.1832775754
20
20.3379776170
11
5.0278074481
21
20.3379776170
0
LINE
5
3AE
100
AcDbEntity
8
0
100
AcDbLine
62
0
6
CONTINUOUS
10
-4.8167224246
20
20.3379776170
11
-4.9721925519
21
20.3379776170
0
LINE
5
3AF
100
AcDbEntity
8
0
100
AcDbLine
62
0
6
CONTINUOUS
10
-2.3944574883
20
20.3851062923
11
0.1055425117
21
20.3851062923
0
LINE
5
3B0
100
AcDbEntity
8
0
100
AcDbLine
62
0
6
CONTINUOUS
10
-2.3944574883
20
20.3903428117
11
-9.5944879492
21
20.3903428117
0
LINE
5
3B1
100
AcDbEntity
8
0
100
AcDbLine
62
0
6
CONTINUOUS
10
0.1055425117
20
20.3903428117
11
9.8055729727
21
20.3903428117
0
LINE
5
3B2
100
AcDbEntity
8
0
100
AcDbLine
62
0
6
CONTINUOUS
10
-2.3944574883
20
21.5903428117
11
0.1055425117
21
21.5903428117
0
LINE
5
3B3
100
AcDbEntity
8
0
100
AcDbLine
62
0
6
CONTINUOUS
10
10.4056643556
20
21.8903428117
11
-10.1945793321
21
21.8903428117
0
ARC
5
3B4
100
AcDbEntity
8
0
100
AcDbCircle
62
0
6
CONTINUOUS
10
-1.9944574883
20
-12.9596571883
40
5.5000000000
100
AcDbArc
50
246.1808305336
51
270.0000000000
0
ARC
5
3B5
100
AcDbEntity
8
0
100
AcDbCircle
62
0
6
CONTINUOUS
10
2.2055425117
20
-12.9596571883
40
5.5000000000
100
AcDbArc
50
270.0000000000
51
293.8191694664
0
ARC
5
3B6
100
AcDbEntity
8
0
100
AcDbCircle
62
0
6
CONTINUOUS
10
-1.9944574883
20
-12.9596571883
40
4.2912724675
100
AcDbArc
50
206.6910614822
51
215.6320551568
0
ARC
5
3B7
100
AcDbEntity
8
0
100
AcDbCircle
62
0
6
CONTINUOUS
10
-1.9944574883
20
-12.9596571883
40
4.2912724675
100
AcDbArc
50
144.3679448432
51
153.0422800228
0
ARC
5
3B8
100
AcDbEntity
8
0
100
AcDbCircle
62
0
6
CONTINUOUS
10
2.2055425117
20
-12.9596571883
40
4.2912724675
100
AcDbArc
50
26.9582361121
51
35.6320551568
0
ARC
5
3B9
100
AcDbEntity
8
0
100
AcDbCircle
62
0
6
CONTINUOUS
10
2.2055425117
20
-12.9596571883
40
4.2912724675
100
AcDbArc
50
324.3679448432
51
333.0422800228
0
ARC
5
3BA
100
AcDbEntity
8
0
100
AcDbCircle
62
0
6
CONTINUOUS
10
-1.9944574883
20
-12.9596571883
40
4.2895269610
100
AcDbArc
50
217.2468562611
51
236.1472305843
0
ARC
5
3BB
100
AcDbEntity
8
0
100
AcDbCircle
62
0
6
CONTINUOUS
10
-1.9944574883
20
-12.9596571883
40
5.4825449351
100
AcDbArc
50
90.0000000000
51
140.2154021118
0
ARC
5
3BC
100
AcDbEntity
8
0
100
AcDbCircle
62
0
6
CONTINUOUS
10
2.2055425117
20
-12.9596571883
40
3.7895269610
100
AcDbArc
50
320.0792135662
51
39.9207864311
0
ARC
5
3BD
100
AcDbEntity
8
0
100
AcDbCircle
62
0
6
CONTINUOUS
10
-1.9944574883
20
-12.9596571883
40
3.7895269610
100
AcDbArc
50
140.0792135662
51
219.9207864311
0
ARC
5
3BE
100
AcDbEntity
8
0
100
AcDbCircle
62
0
6
CONTINUOUS
10
-1.9944574883
20
-12.9596571883
40
5.4895269610
100
AcDbArc
50
246.2561582095
51
270.0000000000
0
ARC
5
3BF
100
AcDbEntity
8
0
100
AcDbCircle
62
0
6
CONTINUOUS
10
2.2055425117
20
-12.9596571883
40
5.4825449351
100
AcDbArc
50
39.7845978882
51
90.0000000000
0
ARC
5
3C0
100
AcDbEntity
8
0
100
AcDbCircle
62
0
6
CONTINUOUS
10
2.2055425117
20
-12.9596571883
40
4.2895269610
100
AcDbArc
50
303.8527694157
51
322.7531437389
0
ARC
5
3C1
100
AcDbEntity
8
0
100
AcDbCircle
62
0
6
CONTINUOUS
10
2.2055425117
20
-12.9596571883
40
5.4895269610
100
AcDbArc
50
270.0000000000
51
293.7438417905
0
ARC
5
3C2
100
AcDbEntity
8
0
100
AcDbCircle
62
0
6
CONTINUOUS
10
-1.9944574883
20
-12.9596571883
40
4.4534946176
100
AcDbArc
50
145.6949856662
51
153.2142589630
0
ARC
5
3C3
100
AcDbEntity
8
0
100
AcDbCircle
62
0
6
CONTINUOUS
10
-1.9944574883
20
-12.9596571883
40
4.4500000000
100
AcDbArc
50
206.7076453021
51
212.6377578227
0
ARC
5
3C4
100
AcDbEntity
8
0
100
AcDbCircle
62
0
6
CONTINUOUS
10
2.2055425117
20
-12.9596571883
40
4.4500000000
100
AcDbArc
50
327.3622421773
51
333.2923546979
0
ARC
5
3C5
100
AcDbEntity
8
0
100
AcDbCircle
62
0
6
CONTINUOUS
10
2.2055425117
20
-12.9596571883
40
4.4534954039
100
AcDbArc
50
26.7857585998
51
34.3053047261
0
ARC
5
3C6
100
AcDbEntity
8
0
100
AcDbCircle
62
0
6
CONTINUOUS
10
2.2055425117
20
-12.9596571883
40
4.1500000000
100
AcDbArc
50
335.7602897022
51
24.2397102978
0
ARC
5
3C7
100
AcDbEntity
8
0
100
AcDbCircle
62
0
6
CONTINUOUS
10
-1.9944574883
20
-12.9596571883
40
4.1500000000
100
AcDbArc
50
155.7602897022
51
204.2397102978
0
ARC
5
3C8
100
AcDbEntity
8
0
100
AcDbCircle
62
0
6
CONTINUOUS
10
4.5348655117
20
8.2236858117
40
0.3041950000
100
AcDbArc
50
270.0000000000
51
90.0000000000
0
ARC
5
3C9
100
AcDbEntity
8
0
100
AcDbCircle
62
0
6
CONTINUOUS
10
4.6042675117
20
8.2236858117
40
0.7667158029
100
AcDbArc
50
292.8428457417
51
90.0000000000
0
ARC
5
3CA
100
AcDbEntity
8
0
100
AcDbCircle
62
0
6
CONTINUOUS
10
12.0055425117
20
-7.4596571883
40
2.0000000000
100
AcDbArc
50
130.5416018735
51
180.0000000000
0
ARC
5
3CB
100
AcDbEntity
8
0
100
AcDbCircle
62
0
6
CONTINUOUS
10
12.0055425117
20
7.5403428117
40
2.0000000000
100
AcDbArc
50
180.0000000000
51
229.4583981265
0
ARC
5
3CC
100
AcDbEntity
8
0
100
AcDbCircle
62
0
6
CONTINUOUS
10
2.2055425117
20
-12.9596571883
40
4.4534883220
100
AcDbArc
50
302.6253907263
51
321.9246279868
0
ARC
5
3CD
100
AcDbEntity
8
0
100
AcDbCircle
62
0
6
CONTINUOUS
10
-1.9944574883
20
-12.9596571883
40
4.4534875415
100
AcDbArc
50
218.0753500692
51
237.3746915521
0
ARC
5
3CE
100
AcDbEntity
8
0
100
AcDbCircle
62
0
6
CONTINUOUS
10
2.2055425117
20
-12.9596571883
40
4.6501314619
100
AcDbArc
50
335.0013008965
51
24.9986991035
0
ARC
5
3CF
100
AcDbEntity
8
0
100
AcDbCircle
62
0
6
CONTINUOUS
10
2.2055425117
20
-12.9596571883
40
5.0150792305
100
AcDbArc
50
339.3190223499
51
20.6809776501
0
ARC
5
3D0
100
AcDbEntity
8
0
100
AcDbCircle
62
0
6
CONTINUOUS
10
-1.9944574883
20
-12.9596571883
40
5.0150792305
100
AcDbArc
50
159.3190223499
51
200.6809776501
0
ARC
5
3D1
100
AcDbEntity
8
0
100
AcDbCircle
62
0
6
CONTINUOUS
10
-1.9944574883
20
-12.9596571883
40
4.6501314619
100
AcDbArc
50
155.0013008965
51
204.9986991036
0
ARC
5
3D2
100
AcDbEntity
8
0
100
AcDbCircle
62
0
6
CONTINUOUS
10
-1.9944574883
20
-12.9596571883
40
4.6572218960
100
AcDbArc
50
221.6152678840
51
238.9576063770
0
ARC
5
3D3
100
AcDbEntity
8
0
100
AcDbCircle
62
0
6
CONTINUOUS
10
2.2055425117
20
-12.9596571883
40
4.6571751254
100
AcDbArc
50
301.0302351262
51
318.3847321160
0
ARC
5
3D4
100
AcDbEntity
8
0
100
AcDbCircle
62
0
6
CONTINUOUS
10
5.0555425117
20
-17.3096571883
40
0.3104730390
100
AcDbArc
50
0.0000000000
51
180.0000000000
0
ARC
5
3D5
100
AcDbEntity
8
0
100
AcDbCircle
62
0
6
CONTINUOUS
10
-4.8444574883
20
-17.3096571883
40
0.3104730390
100
AcDbArc
50
0.0000000000
51
180.0000000000
0
ARC
5
3D6
100
AcDbEntity
8
0
100
AcDbCircle
62
0
6
CONTINUOUS
10
-1.9944574883
20
-12.9596571883
40
5.6500000000
100
AcDbArc
50
122.9557802664
51
205.1366605176
0
ARC
5
3D7
100
AcDbEntity
8
0
100
AcDbCircle
62
0
6
CONTINUOUS
10
2.2055425117
20
-12.9596571883
40
5.6500000000
100
AcDbArc
50
334.8633394824
51
57.0442197336
0
ARC
5
3D8
100
AcDbEntity
8
0
100
AcDbCircle
62
0
6
CONTINUOUS
10
2.2055425117
20
-12.9596571883
40
6.2901338116
100
AcDbArc
50
300.1621740433
51
330.5480234359
0
ARC
5
3D9
100
AcDbEntity
8
0
100
AcDbCircle
62
0
6
CONTINUOUS
10
2.2055425117
20
-12.9596571883
40
6.2901338116
100
AcDbArc
50
270.0000000000
51
293.8116787425
0
ARC
5
3DA
100
AcDbEntity
8
0
100
AcDbCircle
62
0
6
CONTINUOUS
10
-1.9944574883
20
-12.9596571883
40
6.2901338116
100
AcDbArc
50
209.4519765641
51
239.8378259567
0
ARC
5
3DB
100
AcDbEntity
8
0
100
AcDbCircle
62
0
6
CONTINUOUS
10
-1.9944574883
20
-12.9596571883
40
6.2901338116
100
AcDbArc
50
246.1883212575
51
270.0000000000
0
ARC
5
3DC
100
AcDbEntity
8
0
100
AcDbCircle
62
0
6
CONTINUOUS
10
-4.8444574883
20
-17.3096571883
40
0.3000000000
100
AcDbArc
50
0.0000000000
51
180.0000000000
0
ARC
5
3DD
100
AcDbEntity
8
0
100
AcDbCircle
62
0
6
CONTINUOUS
10
5.0555425117
20
-17.3096571883
40
0.3000000000
100
AcDbArc
50
0.0000000000
51
180.0000000000
0
ARC
5
3DE
100
AcDbEntity
8
0
100
AcDbCircle
62
0
6
CONTINUOUS
10
-8.5944574883
20
15.0403428117
40
0.3000000000
100
AcDbArc
50
270.0000000000
51
90.0000000000
0
ARC
5
3DF
100
AcDbEntity
8
0
100
AcDbCircle
62
0
6
CONTINUOUS
10
8.8055425117
20
15.0403428117
40
0.3000000000
100
AcDbArc
50
90.0000000000
51
270.0000000000
0
ARC
5
3E0
100
AcDbEntity
8
0
100
AcDbCircle
62
0
6
CONTINUOUS
10
-8.5944574883
20
-9.9596571883
40
0.3000000000
100
AcDbArc
50
270.0000000000
51
90.0000000000
0
ARC
5
3E1
100
AcDbEntity
8
0
100
AcDbCircle
62
0
6
CONTINUOUS
10
8.8055425117
20
-9.9596571883
40
0.3000000000
100
AcDbArc
50
90.0000000000
51
270.0000000000
0
ARC
5
3E2
100
AcDbEntity
8
0
100
AcDbCircle
62
0
6
CONTINUOUS
10
-11.7944574883
20
7.5403428117
40
2.0000000000
100
AcDbArc
50
310.5416018735
51
360.0000000000
0
ARC
5
3E3
100
AcDbEntity
8
0
100
AcDbCircle
62
0
6
CONTINUOUS
10
2.2055425117
20
-12.9596571883
40
5.0500000000
100
AcDbArc
50
339.0275234118
51
20.9724765882
0
ARC
5
3E4
100
AcDbEntity
8
0
100
AcDbCircle
62
0
6
CONTINUOUS
10
2.2055425117
20
-12.9596571883
40
4.6502945204
100
AcDbArc
50
25.4743842609
51
32.6773198389
0
ARC
5
3E5
100
AcDbEntity
8
0
100
AcDbCircle
62
0
6
CONTINUOUS
10
-1.9944574883
20
-12.9596571883
40
4.6502474764
100
AcDbArc
50
147.3228640462
51
154.5256157391
0
ARC
5
3E6
100
AcDbEntity
8
0
100
AcDbCircle
62
0
6
CONTINUOUS
10
-11.7944574883
20
-7.4596571883
40
2.0000000000
100
AcDbArc
50
0.0000000000
51
49.4583981265
0
ARC
5
3E7
100
AcDbEntity
8
0
100
AcDbCircle
62
0
6
CONTINUOUS
10
-1.9944574883
20
-12.9596571883
40
5.0500000000
100
AcDbArc
50
159.0275234118
51
200.9724765882
0
ARC
5
3E8
100
AcDbEntity
8
IMPORT
100
AcDbCircle
62
7
6
CONTINUOUS
10
4.6042675117
20
8.2236858117
40
0.7667158029
100
AcDbArc
50
292.8427816283
51
90.0000747289
0
ARC
5
3E9
100
AcDbEntity
8
IMPORT
100
AcDbCircle
62
7
6
CONTINUOUS
10
4.5348655117
20
8.2236858117
40
0.3041950000
100
AcDbArc
50
270.0000000000
51
90.0000000000
0
SPLINE
5
3EA
100
AcDbEntity
8
0
100
AcDbSpline
62
0
6
CONTINUOUS
70
0
71
3
72
12
73
8
74
6
42
0.0000001000
43
0.0000001000
44
0.0000000001
12
-0.4695527409
22
0.0000000000
32
0.0000000000
13
0.0000000000
23
0.4695527409
33
0.0000000000
40
0.0000000000
40
0.0000000000
40
0.0000000000
40
0.0000000000
40
0.1993649636
40
0.3988522271
40
0.5987371844
40
0.7991447419
40
1.0000000000
40
1.0000000000
40
1.0000000000
40
1.0000000000
10
-5.9948681826
20
-10.4509083219
30
0.0000000000
10
-6.0260723043
20
-10.4509083219
30
0.0000000000
10
-6.0889413368
20
-10.4409683111
30
0.0000000000
10
-6.1737237322
20
-10.3976630948
30
0.0000000000
10
-6.2411585821
20
-10.3300936397
30
0.0000000000
10
-6.2844974200
20
-10.2449053559
30
0.0000000000
10
-6.2944574883
20
-10.1816578159
30
0.0000000000
10
-6.2944574883
20
-10.1502204369
30
0.0000000000
11
-5.9948681826
21
-10.4509083219
31
0.0000000000
11
-6.0873253512
21
-10.4362472553
31
0.0000000000
11
-6.1707608595
21
-10.3936732520
31
0.0000000000
11
-6.2370734887
21
-10.3272527480
31
0.0000000000
11
-6.2797336280
21
-10.2433761513
31
0.0000000000
11
-6.2944574883
21
-10.1502204369
31
0.0000000000
0
SPLINE
5
3EB
100
AcDbEntity
8
0
100
AcDbSpline
62
0
6
CONTINUOUS
70
0
71
3
72
12
73
8
74
6
42
0.0000001000
43
0.0000001000
44
0.0000000001
12
0.0000000000
22
-0.4695527409
32
0.0000000000
13
-0.4695527409
23
-0.0000000000
33
0.0000000000
40
0.0000000000
40
0.0000000000
40
0.0000000000
40
0.0000000000
40
0.2008552581
40
0.4012628156
40
0.6011477729
40
0.8006350364
40
1.0000000000
40
1.0000000000
40
1.0000000000
40
1.0000000000
10
6.5055425117
20
-10.1502204369
30
0.0000000000
10
6.5055425117
20
-10.1816578159
30
0.0000000000
10
6.4955824435
20
-10.2449053559
30
0.0000000000
10
6.4522436056
20
-10.3300936397
30
0.0000000000
10
6.3848087557
20
-10.3976630948
30
0.0000000000
10
6.3000263603
20
-10.4409683111
30
0.0000000000
10
6.2371573278
20
-10.4509083219
30
0.0000000000
10
6.2059532061
20
-10.4509083219
30
0.0000000000
11
6.5055425117
21
-10.1502204369
31
0.0000000000
11
6.4908186514
21
-10.2433761513
31
0.0000000000
11
6.4481585122
21
-10.3272527480
31
0.0000000000
11
6.3818458830
21
-10.3936732520
31
0.0000000000
11
6.2984103747
21
-10.4362472553
31
0.0000000000
11
6.2059532061
21
-10.4509083219
31
0.0000000000
0
SPLINE
5
3EC
100
AcDbEntity
8
0
100
AcDbSpline
62
0
6
CONTINUOUS
70
0
71
3
72
11
73
7
74
5
42
0.0000001000
43
0.0000001000
44
0.0000000001
12
0.0000000000
22
-0.3452677321
32
0.0000000000
13
-0.3158594158
23
-0.1394368543
33
0.0000000000
40
0.0000000000
40
0.0000000000
40
0.0000000000
40
0.0000000000
40
0.2504482748
40
0.4999274780
40
0.7498299826
40
1.0000000000
40
1.0000000000
40
1.0000000000
40
1.0000000000
10
4.6055425117
20
-17.7167869202
30
0.0000000000
10
4.6055425117
20
-17.7456108229
30
0.0000000000
10
4.5971364721
20
-17.8034909104
30
0.0000000000
10
4.5603788993
20
-17.8828493559
30
0.0000000000
10
4.5026372017
20
-17.9485006518
30
0.0000000000
10
4.4530646868
20
-17.9795648612
30
0.0000000000
10
4.4267251683
20
-17.9911925013
30
0.0000000000
11
4.6055425117
21
-17.7167869202
31
0.0000000000
11
4.5930793047
21
-17.8023557506
31
0.0000000000
11
4.5569081863
21
-17.8805302568
31
0.0000000000
11
4.4998984039
21
-17.9452966644
31
0.0000000000
11
4.4267251683
21
-17.9911925013
31
0.0000000000
0
SPLINE
5
3ED
100
AcDbEntity
8
0
100
AcDbSpline
62
0
6
CONTINUOUS
70
0
71
3
72
11
73
7
74
5
42
0.0000001000
43
0.0000001000
44
0.0000000001
12
-0.3158594158
22
0.1394368543
32
0.0000000000
13
0.0000000000
23
0.3452677321
33
0.0000000000
40
0.0000000000
40
0.0000000000
40
0.0000000000
40
0.0000000000
40
0.2501700174
40
0.5000725220
40
0.7495517252
40
1.0000000000
40
1.0000000000
40
1.0000000000
40
1.0000000000
10
-4.2156401448
20
-17.9911925013
30
0.0000000000
10
-4.2419796633
20
-17.9795648612
30
0.0000000000
10
-4.2915521782
20
-17.9485006518
30
0.0000000000
10
-4.3492938758
20
-17.8828493559
30
0.0000000000
10
-4.3860514486
20
-17.8034909104
30
0.0000000000
10
-4.3944574883
20
-17.7456108229
30
0.0000000000
10
-4.3944574883
20
-17.7167869202
30
0.0000000000
11
-4.2156401448
21
-17.9911925013
31
0.0000000000
11
-4.2888133804
21
-17.9452966644
31
0.0000000000
11
-4.3458231628
21
-17.8805302568
31
0.0000000000
11
-4.3819942812
21
-17.8023557506
31
0.0000000000
11
-4.3944574883
21
-17.7167869202
31
0.0000000000
0
SPLINE
5
3EE
100
AcDbEntity
8
0
100
AcDbSpline
62
0
6
CONTINUOUS
70
0
71
3
72
9
73
5
74
3
42
0.0000001000
43
0.0000001000
44
0.0000000001
12
0.0206767351
22
-0.0438711744
32
0.0000000000
13
0.0212091994
23
-0.0436162490
33
0.0000000000
40
0.0000000000
40
0.0000000000
40
0.0000000000
40
0.0000000000
40
0.5000024224
40
1.0000000000
40
1.0000000000
40
1.0000000000
40
1.0000000000
10
-5.4822962733
20
-15.4596571883
30
0.0000000000
10
-5.4788501341
20
-15.4669690861
30
0.0000000000
10
-5.4719133850
20
-15.4815718772
30
0.0000000000
10
-5.4648878906
20
-15.4961321804
30
0.0000000000
10
-5.4613530411
20
-15.5034015200
30
0.0000000000
11
-5.4822962733
21
-15.4596571883
31
0.0000000000
11
-5.4718911649
21
-15.4815613259
31
0.0000000000
11
-5.4613530411
21
-15.5034015200
31
0.0000000000
0
SPLINE
5
3EF
100
AcDbEntity
8
0
100
AcDbSpline
62
0
6
CONTINUOUS
70
0
71
3
72
9
73
5
74
3
42
0.0000001000
43
0.0000001000
44
0.0000000001
12
0.0212091994
22
0.0436162490
32
0.0000000000
13
0.0206767351
23
0.0438711744
33
0.0000000000
40
0.0000000000
40
0.0000000000
40
0.0000000000
40
0.0000000000
40
0.4999975776
40
1.0000000000
40
1.0000000000
40
1.0000000000
40
1.0000000000
10
5.6724380646
20
-15.5034015200
30
0.0000000000
10
5.6759729141
20
-15.4961321804
30
0.0000000000
10
5.6829984085
20
-15.4815718772
30
0.0000000000
10
5.6899351576
20
-15.4669690861
30
0.0000000000
10
5.6933812968
20
-15.4596571883
30
0.0000000000
11
5.6724380646
21
-15.5034015200
31
0.0000000000
11
5.6829761883
21
-15.4815613259
31
0.0000000000
11
5.6933812968
21
-15.4596571883
31
0.0000000000
0
SPLINE
5
3F0
100
AcDbEntity
8
0
100
AcDbSpline
62
0
6
CONTINUOUS
70
0
71
3
72
12
73
8
74
6
42
0.0000001000
43
0.0000001000
44
0.0000000001
12
-0.1359671642
22
-0.1748086791
32
0.0000000000
13
0.2214613827
23
-0.0000000051
33
0.0000000000
40
0.0000000000
40
0.0000000000
40
0.0000000000
40
0.0000000000
40
0.2003556274
40
0.3997456707
40
0.5984189392
40
0.8016719181
40
1.0000000000
40
1.0000000000
40
1.0000000000
40
1.0000000000
10
5.2119295052
20
-15.2980418152
30
0.0000000000
10
5.2028489097
20
-15.3097164493
30
0.0000000000
10
5.1897336255
20
-15.3374202567
30
0.0000000000
10
5.1898360306
20
-15.3830149108
30
0.0000000000
10
5.2096560839
20
-15.4244138785
30
0.0000000000
10
5.2455243558
20
-15.4529638314
30
0.0000000000
10
5.2755823851
20
-15.4596571879
30
0.0000000000
10
5.2902230555
20
-15.4596571883
30
0.0000000000
11
5.2119295052
21
-15.2980418152
31
0.0000000000
11
5.1930138102
21
-15.3381788948
31
0.0000000000
11
5.1931110379
21
-15.3823359825
31
0.0000000000
11
5.2121364309
21
-15.4220083736
31
0.0000000000
11
5.2473714158
21
-15.4500197592
31
0.0000000000
11
5.2902230555
21
-15.4596571883
31
0.0000000000
0
SPLINE
5
3F1
100
AcDbEntity
8
0
100
AcDbSpline
62
0
6
CONTINUOUS
70
0
71
3
72
12
73
8
74
6
42
0.0000001000
43
0.0000001000
44
0.0000000001
12
0.0000000000
22
-0.4695527409
32
0.0000000000
13
0.4695527409
23
0.0000000000
33
0.0000000000
40
0.0000000000
40
0.0000000000
40
0.0000000000
40
0.0000000000
40
0.2008552581
40
0.4012628156
40
0.6011477729
40
0.8006350364
40
1.0000000000
40
1.0000000000
40
1.0000000000
40
1.0000000000
10
-6.2770024233
20
-10.0627317734
30
0.0000000000
10
-6.2770024233
20
-10.0941691524
30
0.0000000000
10
-6.2670423551
20
-10.1574166924
30
0.0000000000
10
-6.2237035172
20
-10.2426049761
30
0.0000000000
10
-6.1562686673
20
-10.3101744313
30
0.0000000000
10
-6.0714862719
20
-10.3534796476
30
0.0000000000
10
-6.0086172394
20
-10.3634196584
30
0.0000000000
10
-5.9774131177
20
-10.3634196584
30
0.0000000000
11
-6.2770024233
21
-10.0627317734
31
0.0000000000
11
-6.2622785630
21
-10.1558874878
31
0.0000000000
11
-6.2196184238
21
-10.2397640845
31
0.0000000000
11
-6.1533057946
21
-10.3061845885
31
0.0000000000
11
-6.0698702863
21
-10.3487585918
31
0.0000000000
11
-5.9774131177
21
-10.3634196584
31
0.0000000000
0
SPLINE
5
3F2
100
AcDbEntity
8
0
100
AcDbSpline
62
0
6
CONTINUOUS
70
0
71
3
72
10
73
6
74
4
42
0.0000001000
43
0.0000001000
44
0.0000000001
12
-0.1329817272
22
-0.1596968995
32
0.0000000000
13
0.0000000000
23
-0.2078153976
33
0.0000000000
40
0.0000000000
40
0.0000000000
40
0.0000000000
40
0.0000000000
40
0.3331959025
40
0.6662685541
40
1.0000000000
40
1.0000000000
40
1.0000000000
40
1.0000000000
10
-6.2075496735
20
-9.4513594238
30
0.0000000000
10
-6.2223193290
20
-9.4690962080
30
0.0000000000
10
-6.2478364840
20
-9.5081458084
30
0.0000000000
10
-6.2716100962
20
-9.5738086271
30
0.0000000000
10
-6.2770024233
20
-9.6201829525
30
0.0000000000
10
-6.2770024233
20
-9.6433011302
30
0.0000000000
11
-6.2075496735
21
-9.4513594238
31
0.0000000000
11
-6.2454209230
21
-9.5093283345
31
0.0000000000
11
-6.2689845952
21
-9.5744116122
31
0.0000000000
11
-6.2770024233
21
-9.6433011302
31
0.0000000000
0
SPLINE
5
3F3
100
AcDbEntity
8
0
100
AcDbSpline
62
9
6
CONTINUOUS
70
0
71
3
72
8
73
4
74
2
42
0.0000001000
43
0.0000001000
44
0.0000000001
12
-0.0019406335
22
-0.0007020559
32
0.0000000000
13
-0.0019405859
23
-0.0007021873
33
0.0000000000
40
0.0000000000
40
0.0000000000
40
0.0000000000
40
0.0000000000
40
1.0000000000
40
1.0000000000
40
1.0000000000
40
1.0000000000
10
6.4900280565
20
-9.6425990086
30
0.0000000000
10
6.4893811787
20
-9.6428330273
30
0.0000000000
10
6.4887343088
20
-9.6430670678
30
0.0000000000
10
6.4880874468
20
-9.6433011302
30
0.0000000000
11
6.4900280565
21
-9.6425990086
31
0.0000000000
11
6.4880874468
21
-9.6433011302
31
0.0000000000
0
SPLINE
5
3F4
100
AcDbEntity
8
0
100
AcDbSpline
62
9
6
CONTINUOUS
70
0
71
3
72
10
73
6
74
4
42
0.0000001000
43
0.0000001000
44
0.0000000001
12
0.1015178349
22
-0.0918997268
32
0.0000000000
13
0.0986181861
23
-0.0950046523
33
0.0000000000
40
0.0000000000
40
0.0000000000
40
0.0000000000
40
0.0000000000
40
0.3369604192
40
0.6702419771
40
1.0000000000
40
1.0000000000
40
1.0000000000
40
1.0000000000
10
5.1118534768
20
-10.5278119706
30
0.0000000000
10
5.1232559742
20
-10.5381341607
30
0.0000000000
10
5.1458292360
20
-10.5587846876
30
0.0000000000
10
5.1791860544
20
-10.5899436634
30
0.0000000000
10
5.2010894594
20
-10.6108297131
30
0.0000000000
10
5.2119295054
20
-10.6212725619
30
0.0000000000
11
5.1118534768
21
-10.5278119706
31
0.0000000000
11
5.1458985122
21
-10.5589570597
31
0.0000000000
11
5.1792496481
21
-10.5901106602
31
0.0000000000
11
5.2119295054
21
-10.6212725619
31
0.0000000000
0
SPLINE
5
3F5
100
AcDbEntity
8
0
100
AcDbSpline
62
9
6
CONTINUOUS
70
0
71
3
72
10
73
6
74
4
42
0.0000001000
43
0.0000001000
44
0.0000000001
12
0.1015178353
22
0.0918997263
32
0.0000000000
13
0.0986181855
23
0.0950046529
33
0.0000000000
40
0.0000000000
40
0.0000000000
40
0.0000000000
40
0.0000000000
40
0.3369604207
40
0.6702419776
40
1.0000000000
40
1.0000000000
40
1.0000000000
40
1.0000000000
10
5.1118534768
20
-15.3915024059
30
0.0000000000
10
5.1232559743
20
-15.3811802158
30
0.0000000000
10
5.1458292361
20
-15.3605296888
30
0.0000000000
10
5.1791860544
20
-15.3293707130
30
0.0000000000
10
5.2010894595
20
-15.3084846634
30
0.0000000000
10
5.2119295054
20
-15.2980418146
30
0.0000000000
11
5.1118534768
21
-15.3915024059
31
0.0000000000
11
5.1458985123
21
-15.3603573167
31
0.0000000000
11
5.1792496481
21
-15.3292037162
31
0.0000000000
11
5.2119295054
21
-15.2980418146
31
0.0000000000
0
SPLINE
5
3F6
100
AcDbEntity
8
0
100
AcDbSpline
62
9
6
CONTINUOUS
70
0
71
3
72
10
73
6
74
4
42
0.0000001000
43
0.0000001000
44
0.0000000001
12
-0.1015178349
22
0.0918997268
32
0.0000000000
13
-0.0986181861
23
0.0950046523
33
0.0000000000
40
0.0000000000
40
0.0000000000
40
0.0000000000
40
0.0000000000
40
0.3369604192
40
0.6702419771
40
1.0000000000
40
1.0000000000
40
1.0000000000
40
1.0000000000
10
-4.9007684533
20
-15.3915024059
30
0.0000000000
10
-4.9121709507
20
-15.3811802158
30
0.0000000000
10
-4.9347442126
20
-15.3605296889
30
0.0000000000
10
-4.9681010309
20
-15.3293707131
30
0.0000000000
10
-4.9900044359
20
-15.3084846634
30
0.0000000000
10
-5.0008444819
20
-15.2980418146
30
0.0000000000
11
-4.9007684533
21
-15.3915024059
31
0.0000000000
11
-4.9348134887
21
-15.3603573168
31
0.0000000000
11
-4.9681646246
21
-15.3292037163
31
0.0000000000
11
-5.0008444819
21
-15.2980418146
31
0.0000000000
0
SPLINE
5
3F7
100
AcDbEntity
8
0
100
AcDbSpline
62
9
6
CONTINUOUS
70
0
71
3
72
10
73
6
74
4
42
0.0000001000
43
0.0000001000
44
0.0000000001
12
-0.1015178353
22
-0.0918997263
32
0.0000000000
13
-0.0986181855
23
-0.0950046529
33
0.0000000000
40
0.0000000000
40
0.0000000000
40
0.0000000000
40
0.0000000000
40
0.3369604207
40
0.6702419776
40
1.0000000000
40
1.0000000000
40
1.0000000000
40
1.0000000000
10
-4.9007684533
20
-10.5278119706
30
0.0000000000
10
-4.9121709508
20
-10.5381341607
30
0.0000000000
10
-4.9347442126
20
-10.5587846877
30
0.0000000000
10
-4.9681010309
20
-10.5899436635
30
0.0000000000
10
-4.9900044360
20
-10.6108297131
30
0.0000000000
10
-5.0008444819
20
-10.6212725619
30
0.0000000000
11
-4.9007684533
21
-10.5278119706
31
0.0000000000
11
-4.9348134888
21
-10.5589570598
31
0.0000000000
11
-4.9681646246
21
-10.5901106603
31
0.0000000000
11
-5.0008444819
21
-10.6212725619
31
0.0000000000
0
SPLINE
5
3F8
100
AcDbEntity
8
0
100
AcDbSpline
62
0
6
CONTINUOUS
70
0
71
3
72
11
73
7
74
5
42
0.0000001000
43
0.0000001000
44
0.0000000001
12
-0.0000000000
22
-0.3456579856
32
0.0000000000
13
0.3163996829
23
-0.1391786033
33
0.0000000000
40
0.0000000000
40
0.0000000000
40
0.0000000000
40
0.0000000000
40
0.2504468072
40
0.4999227656
40
0.7498487018
40
1.0000000000
40
1.0000000000
40
1.0000000000
40
1.0000000000
10
-4.3839844493
20
-17.7099572257
30
0.0000000000
10
-4.3839844493
20
-17.7388135386
30
0.0000000000
10
-4.3755592585
20
-17.7967592841
30
0.0000000000
10
-4.3387191414
20
-17.8761937077
30
0.0000000000
10
-4.2808556651
20
-17.9418736550
30
0.0000000000
10
-4.2311888330
20
-17.9729165941
30
0.0000000000
10
-4.2048062358
20
-17.9845218302
30
0.0000000000
11
-4.3839844493
21
-17.7099572257
31
0.0000000000
11
-4.3714932014
21
-17.7956202276
31
0.0000000000
11
-4.3352433545
21
-17.8738643360
31
0.0000000000
11
-4.2781099985
21
-17.9386626455
31
0.0000000000
11
-4.2048062358
21
-17.9845218302
31
0.0000000000
0
SPLINE
5
3F9
100
AcDbEntity
8
0
100
AcDbSpline
62
0
6
CONTINUOUS
70
0
71
3
72
10
73
6
74
4
42
0.0000001000
43
0.0000001000
44
0.0000000001
12
0.0526724926
22
0.0521012756
32
0.0000000000
13
0.0518876604
23
0.0528829376
33
0.0000000000
40
0.0000000000
40
0.0000000000
40
0.0000000000
40
0.0000000000
40
0.3339708515
40
0.6672979872
40
1.0000000000
40
1.0000000000
40
1.0000000000
40
1.0000000000
10
5.6201570197
20
-15.5558947181
30
0.0000000000
10
5.6260207121
20
-15.5500946157
30
0.0000000000
10
5.6377078701
20
-15.5384763045
30
0.0000000000
10
5.6551349150
20
-15.5209781832
30
0.0000000000
10
5.6666836883
20
-15.5092662733
30
0.0000000000
10
5.6724380646
20
-15.5034015200
30
0.0000000000
11
5.6201570197
21
-15.5558947181
31
0.0000000000
11
5.6377045847
21
-15.5384505312
31
0.0000000000
11
5.6551312451
21
-15.5209528049
31
0.0000000000
11
5.6724380646
21
-15.5034015200
31
0.0000000000
0
SPLINE
5
3FA
100
AcDbEntity
8
0
100
AcDbSpline
62
0
6
CONTINUOUS
70
0
71
3
72
10
73
6
74
4
42
0.0000001000
43
0.0000001000
44
0.0000000001
12
0.0000000000
22
0.2078153976
32
0.0000000000
13
-0.1329817272
23
0.1596968995
33
0.0000000000
40
0.0000000000
40
0.0000000000
40
0.0000000000
40
0.0000000000
40
0.3337314459
40
0.6668040975
40
1.0000000000
40
1.0000000000
40
1.0000000000
40
1.0000000000
10
6.4880874468
20
-9.6433011302
30
0.0000000000
10
6.4880874468
20
-9.6201829525
30
0.0000000000
10
6.4826951197
20
-9.5738086271
30
0.0000000000
10
6.4589215075
20
-9.5081458084
30
0.0000000000
10
6.4334043525
20
-9.4690962080
30
0.0000000000
10
6.4186346970
20
-9.4513594238
30
0.0000000000
11
6.4880874468
21
-9.6433011302
31
0.0000000000
11
6.4800696187
21
-9.5744116122
31
0.0000000000
11
6.4565059465
21
-9.5093283345
31
0.0000000000
11
6.4186346970
21
-9.4513594238
31
0.0000000000
0
SPLINE
5
3FB
100
AcDbEntity
8
0
100
AcDbSpline
62
0
6
CONTINUOUS
70
0
71
3
72
11
73
7
74
5
42
0.0000001000
43
0.0000001000
44
0.0000000001
12
0.3163996829
22
0.1391786033
32
0.0000000000
13
-0.0000000000
23
0.3456579856
33
0.0000000000
40
0.0000000000
40
0.0000000000
40
0.0000000000
40
0.0000000000
40
0.2501512982
40
0.5000772344
40
0.7495531928
40
1.0000000000
40
1.0000000000
40
1.0000000000
40
1.0000000000
10
4.4158912593
20
-17.9845218302
30
0.0000000000
10
4.4422738565
20
-17.9729165941
30
0.0000000000
10
4.4919406885
20
-17.9418736550
30
0.0000000000
10
4.5498041649
20
-17.8761937077
30
0.0000000000
10
4.5866442820
20
-17.7967592841
30
0.0000000000
10
4.5950694728
20
-17.7388135386
30
0.0000000000
10
4.5950694728
20
-17.7099572257
30
0.0000000000
11
4.4158912593
21
-17.9845218302
31
0.0000000000
11
4.4891950219
21
-17.9386626455
31
0.0000000000
11
4.5463283780
21
-17.8738643360
31
0.0000000000
11
4.5825782249
21
-17.7956202276
31
0.0000000000
11
4.5950694728
21
-17.7099572257
31
0.0000000000
0
SPLINE
5
3FC
100
AcDbEntity
8
0
100
AcDbSpline
62
0
6
CONTINUOUS
70
0
71
3
72
12
73
8
74
6
42
0.0000001000
43
0.0000001000
44
0.0000000001
12
0.2214620598
22
0.0000000043
32
0.0000000000
13
-0.1359675803
23
0.1748092132
33
0.0000000000
40
0.0000000000
40
0.0000000000
40
0.0000000000
40
0.0000000000
40
0.1996430843
40
0.3988290180
40
0.5983794923
40
0.7987103633
40
1.0000000000
40
1.0000000000
40
1.0000000000
40
1.0000000000
10
-5.0791380320
20
-15.4596571883
30
0.0000000000
10
-5.0644002425
20
-15.4596571880
30
0.0000000000
10
-5.0345376410
20
-15.4529551128
30
0.0000000000
10
-4.9987946064
20
-15.4246005342
30
0.0000000000
10
-4.9788154121
20
-15.3834459301
30
0.0000000000
10
-4.9785690909
20
-15.3376283376
30
0.0000000000
10
-4.9917215268
20
-15.3097709094
30
0.0000000000
10
-5.0008444817
20
-15.2980418151
30
0.0000000000
11
-5.0791380320
21
-15.4596571883
31
0.0000000000
11
-5.0360167063
21
-15.4498912661
31
0.0000000000
11
-5.0014414960
21
-15.4224972047
31
0.0000000000
11
-4.9821216973
21
-15.3827510833
31
0.0000000000
11
-4.9818828558
21
-15.3383860388
31
0.0000000000
11
-5.0008444817
21
-15.2980418151
31
0.0000000000
0
SPLINE
5
3FD
100
AcDbEntity
8
0
100
AcDbSpline
62
0
6
CONTINUOUS
70
0
71
3
72
10
73
6
74
4
42
0.0000001000
43
0.0000001000
44
0.0000000001
12
0.0518876604
22
-0.0528829376
32
0.0000000000
13
0.0526724926
23
-0.0521012756
33
0.0000000000
40
0.0000000000
40
0.0000000000
40
0.0000000000
40
0.0000000000
40
0.3327020128
40
0.6660291475
40
1.0000000000
40
1.0000000000
40
1.0000000000
40
1.0000000000
10
-5.4613530411
20
-15.5034015200
30
0.0000000000
10
-5.4555986648
20
-15.5092662733
30
0.0000000000
10
-5.4440498916
20
-15.5209781832
30
0.0000000000
10
-5.4266228466
20
-15.5384763044
30
0.0000000000
10
-5.4149356886
20
-15.5500946157
30
0.0000000000
10
-5.4090719962
20
-15.5558947181
30
0.0000000000
11
-5.4613530411
21
-15.5034015200
31
0.0000000000
11
-5.4440462216
21
-15.5209528049
31
0.0000000000
11
-5.4266195612
21
-15.5384505311
31
0.0000000000
11
-5.4090719962
21
-15.5558947181
31
0.0000000000
0
SPLINE
5
3FE
100
AcDbEntity
8
0
100
AcDbSpline
62
0
6
CONTINUOUS
70
0
71
3
72
12
73
8
74
6
42
0.0000001000
43
0.0000001000
44
0.0000000001
12
0.4695527409
22
0.0000000000
32
0.0000000000
13
0.0000000000
23
0.4695527409
33
0.0000000000
40
0.0000000000
40
0.0000000000
40
0.0000000000
40
0.0000000000
40
0.1993649636
40
0.3988522271
40
0.5987371844
40
0.7991447419
40
1.0000000000
40
1.0000000000
40
1.0000000000
40
1.0000000000
10
6.1884981411
20
-10.3634196584
30
0.0000000000
10
6.2197022628
20
-10.3634196584
30
0.0000000000
10
6.2825712954
20
-10.3534796476
30
0.0000000000
10
6.3673536908
20
-10.3101744313
30
0.0000000000
10
6.4347885407
20
-10.2426049761
30
0.0000000000
10
6.4781273786
20
-10.1574166924
30
0.0000000000
10
6.4880874468
20
-10.0941691524
30
0.0000000000
10
6.4880874468
20
-10.0627317734
30
0.0000000000
11
6.1884981411
21
-10.3634196584
31
0.0000000000
11
6.2809553098
21
-10.3487585918
31
0.0000000000
11
6.3643908181
21
-10.3061845885
31
0.0000000000
11
6.4307034473
21
-10.2397640845
31
0.0000000000
11
6.4733635865
21
-10.1558874878
31
0.0000000000
11
6.4880874468
21
-10.0627317734
31
0.0000000000
0
SPLINE
5
3FF
100
AcDbEntity
8
0
100
AcDbSpline
62
0
6
CONTINUOUS
70
0
71
3
72
12
73
8
74
6
42
0.0000001000
43
0.0000001000
44
0.0000000001
12
0.1359671642
22
0.1748086791
32
0.0000000000
13
-0.2214613827
23
0.0000000051
33
0.0000000000
40
0.0000000000
40
0.0000000000
40
0.0000000000
40
0.0000000000
40
0.2003556274
40
0.3997456707
40
0.5984189392
40
0.8016719181
40
1.0000000000
40
1.0000000000
40
1.0000000000
40
1.0000000000
10
-5.0008444817
20
-10.6212725613
30
0.0000000000
10
-4.9917638862
20
-10.6095979272
30
0.0000000000
10
-4.9786486020
20
-10.5818941198
30
0.0000000000
10
-4.9787510072
20
-10.5362994657
30
0.0000000000
10
-4.9985710604
20
-10.4949004980
30
0.0000000000
10
-5.0344393323
20
-10.4663505451
30
0.0000000000
10
-5.0644973616
20
-10.4596571886
30
0.0000000000
10
-5.0791380320
20
-10.4596571883
30
0.0000000000
11
-5.0008444817
21
-10.6212725613
31
0.0000000000
11
-4.9819287867
21
-10.5811354817
31
0.0000000000
11
-4.9820260144
21
-10.5369783940
31
0.0000000000
11
-5.0010514074
21
-10.4973060029
31
0.0000000000
11
-5.0362863923
21
-10.4692946173
31
0.0000000000
11
-5.0791380320
21
-10.4596571883
31
0.0000000000
0
SPLINE
5
400
100
AcDbEntity
8
0
100
AcDbSpline
62
9
6
CONTINUOUS
70
0
71
3
72
10
73
6
74
4
42
0.0000001000
43
0.0000001000
44
0.0000000001
12
-0.1038467568
22
-0.0946356128
32
0.0000000000
13
-0.1008508732
23
-0.0978220296
33
0.0000000000
40
0.0000000000
40
0.0000000000
40
0.0000000000
40
0.0000000000
40
0.3369805066
40
0.6702618829
40
1.0000000000
40
1.0000000000
40
1.0000000000
40
1.0000000000
10
-4.9767809656
20
-10.3634196584
30
0.0000000000
10
-4.9884457432
20
-10.3740497773
30
0.0000000000
10
-5.0115364266
20
-10.3953153225
30
0.0000000000
10
-5.0456535028
20
-10.4274001257
30
0.0000000000
10
-5.0680532397
20
-10.4489053043
30
0.0000000000
10
-5.0791380320
20
-10.4596571883
30
0.0000000000
11
-4.9767809656
21
-10.3634196584
31
0.0000000000
11
-5.0116074177
21
-10.3954932677
31
0.0000000000
11
-5.0457186601
21
-10.4275725151
31
0.0000000000
11
-5.0791380320
21
-10.4596571883
31
0.0000000000
0
SPLINE
5
401
100
AcDbEntity
8
0
100
AcDbSpline
62
9
6
CONTINUOUS
70
0
71
3
72
10
73
6
74
4
42
0.0000001000
43
0.0000001000
44
0.0000000001
12
0.1038467556
22
-0.0946356141
32
0.0000000000
13
0.1008508744
23
-0.0978220285
33
0.0000000000
40
0.0000000000
40
0.0000000000
40
0.0000000000
40
0.0000000000
40
0.3369805061
40
0.6702618819
40
1.0000000000
40
1.0000000000
40
1.0000000000
40
1.0000000000
10
5.1878659891
20
-10.3634196584
30
0.0000000000
10
5.1995307665
20
-10.3740497774
30
0.0000000000
10
5.2226214500
20
-10.3953153225
30
0.0000000000
10
5.2567385262
20
-10.4274001257
30
0.0000000000
10
5.2791382630
20
-10.4489053044
30
0.0000000000
10
5.2902230555
20
-10.4596571883
30
0.0000000000
11
5.1878659891
21
-10.3634196584
31
0.0000000000
11
5.2226924411
21
-10.3954932677
31
0.0000000000
11
5.2568036835
21
-10.4275725150
31
0.0000000000
11
5.2902230555
21
-10.4596571883
31
0.0000000000
0
SPLINE
5
402
100
AcDbEntity
8
0
100
AcDbSpline
62
9
6
CONTINUOUS
70
0
71
3
72
10
73
6
74
4
42
0.0000001000
43
0.0000001000
44
0.0000000001
12
0.1038467568
22
0.0946356128
32
0.0000000000
13
0.1008508732
23
0.0978220296
33
0.0000000000
40
0.0000000000
40
0.0000000000
40
0.0000000000
40
0.0000000000
40
0.3369805066
40
0.6702618829
40
1.0000000000
40
1.0000000000
40
1.0000000000
40
1.0000000000
10
5.1878659891
20
-15.5558947181
30
0.0000000000
10
5.1995307667
20
-15.5452645992
30
0.0000000000
10
5.2226214500
20
-15.5239990540
30
0.0000000000
10
5.2567385263
20
-15.4919142508
30
0.0000000000
10
5.2791382632
20
-15.4704090722
30
0.0000000000
10
5.2902230555
20
-15.4596571883
30
0.0000000000
11
5.1878659891
21
-15.5558947181
31
0.0000000000
11
5.2226924412
21
-15.5238211088
31
0.0000000000
11
5.2568036836
21
-15.4917418614
31
0.0000000000
11
5.2902230555
21
-15.4596571883
31
0.0000000000
0
SPLINE
5
403
100
AcDbEntity
8
0
100
AcDbSpline
62
9
6
CONTINUOUS
70
0
71
3
72
10
73
6
74
4
42
0.0000001000
43
0.0000001000
44
0.0000000001
12
-0.1038467556
22
0.0946356141
32
0.0000000000
13
-0.1008508744
23
0.0978220285
33
0.0000000000
40
0.0000000000
40
0.0000000000
40
0.0000000000
40
0.0000000000
40
0.3369805061
40
0.6702618819
40
1.0000000000
40
1.0000000000
40
1.0000000000
40
1.0000000000
10
-4.9767809656
20
-15.5558947181
30
0.0000000000
10
-4.9884457431
20
-15.5452645991
30
0.0000000000
10
-5.0115364265
20
-15.5239990540
30
0.0000000000
10
-5.0456535028
20
-15.4919142508
30
0.0000000000
10
-5.0680532395
20
-15.4704090721
30
0.0000000000
10
-5.0791380320
20
-15.4596571883
30
0.0000000000
11
-4.9767809656
21
-15.5558947181
31
0.0000000000
11
-5.0116074176
21
-15.5238211088
31
0.0000000000
11
-5.0457186600
21
-15.4917418615
31
0.0000000000
11
-5.0791380320
21
-15.4596571883
31
0.0000000000
0
SPLINE
5
404
100
AcDbEntity
8
0
100
AcDbSpline
62
0
6
CONTINUOUS
70
0
71
3
72
12
73
8
74
6
42
0.0000001000
43
0.0000001000
44
0.0000000001
12
0.1443708331
22
-0.1725383444
32
0.0000000000
13
-0.2249720377
23
-0.0000000062
33
0.0000000000
40
0.0000000000
40
0.0000000000
40
0.0000000000
40
0.0000000000
40
0.2013081136
40
0.4014154804
40
0.6006504725
40
0.7999541930
40
1.0000000000
40
1.0000000000
40
1.0000000000
40
1.0000000000
10
-4.9007684529
20
-15.3915024068
30
0.0000000000
10
-4.8910807795
20
-15.4030801963
30
0.0000000000
10
-4.8768003126
20
-15.4309496463
30
0.0000000000
10
-4.8758568783
20
-15.4774893093
30
0.0000000000
10
-4.8953634144
20
-15.5196860318
30
0.0000000000
10
-4.9313880411
20
-15.5489548797
30
0.0000000000
10
-4.9617793947
20
-15.5558947177
30
0.0000000000
10
-4.9767809656
20
-15.5558947181
30
0.0000000000
11
-4.9007684529
21
-15.3915024068
31
0.0000000000
11
-4.8801905338
21
-15.4318461210
31
0.0000000000
11
-4.8792803178
21
-15.4768554804
31
0.0000000000
11
-4.8981100045
21
-15.5175308006
31
0.0000000000
11
-4.9329268017
21
-15.5457835124
31
0.0000000000
11
-4.9767809656
21
-15.5558947181
31
0.0000000000
0
SPLINE
5
405
100
AcDbEntity
8
0
100
AcDbSpline
62
0
6
CONTINUOUS
70
0
71
3
72
12
73
8
74
6
42
0.0000001000
43
0.0000001000
44
0.0000000001
12
0.2249711768
22
-0.0000000072
32
0.0000000000
13
-0.1443702801
23
-0.1725376846
33
0.0000000000
40
0.0000000000
40
0.0000000000
40
0.0000000000
40
0.0000000000
40
0.1979326552
40
0.4014972617
40
0.6002837164
40
0.7995798612
40
1.0000000000
40
1.0000000000
40
1.0000000000
40
1.0000000000
10
-4.9767809656
20
-10.3634196584
30
0.0000000000
10
-4.9619379182
20
-10.3634196588
30
0.0000000000
10
-4.9313986617
20
-10.3703089698
30
0.0000000000
10
-4.8952057181
20
-10.3997143364
30
0.0000000000
10
-4.8758047639
20
-10.4422003683
30
0.0000000000
10
-4.8768805880
20
-10.4885579132
30
0.0000000000
10
-4.8911235490
20
-10.5162852940
30
0.0000000000
10
-4.9007684528
20
-10.5278119696
30
0.0000000000
11
-4.9767809656
21
-10.3634196584
31
0.0000000000
11
-4.9333658890
21
-10.3733179226
31
0.0000000000
11
-4.8978061837
21
-10.4021761357
31
0.0000000000
11
-4.8792006024
21
-10.4428433227
31
0.0000000000
11
-4.8802406942
21
-10.4876671454
31
0.0000000000
11
-4.9007684528
21
-10.5278119696
31
0.0000000000
0
SPLINE
5
406
100
AcDbEntity
8
0
100
AcDbSpline
62
0
6
CONTINUOUS
70
0
71
3
72
12
73
8
74
6
42
0.0000001000
43
0.0000001000
44
0.0000000001
12
-0.1443708331
22
0.1725383444
32
0.0000000000
13
0.2249720377
23
0.0000000062
33
0.0000000000
40
0.0000000000
40
0.0000000000
40
0.0000000000
40
0.0000000000
40
0.2013081136
40
0.4014154804
40
0.6006504725
40
0.7999541930
40
1.0000000000
40
1.0000000000
40
1.0000000000
40
1.0000000000
10
5.1118534764
20
-10.5278119697
30
0.0000000000
10
5.1021658030
20
-10.5162341802
30
0.0000000000
10
5.0878853361
20
-10.4883647302
30
0.0000000000
10
5.0869419017
20
-10.4418250672
30
0.0000000000
10
5.1064484379
20
-10.3996283447
30
0.0000000000
10
5.1424730646
20
-10.3703594968
30
0.0000000000
10
5.1728644182
20
-10.3634196588
30
0.0000000000
10
5.1878659891
20
-10.3634196584
30
0.0000000000
11
5.1118534764
21
-10.5278119697
31
0.0000000000
11
5.0912755573
21
-10.4874682555
31
0.0000000000
11
5.0903653413
21
-10.4424588961
31
0.0000000000
11
5.1091950280
21
-10.4017835759
31
0.0000000000
11
5.1440118252
21
-10.3735308641
31
0.0000000000
11
5.1878659891
21
-10.3634196584
31
0.0000000000
0
SPLINE
5
407
100
AcDbEntity
8
0
100
AcDbSpline
62
0
6
CONTINUOUS
70
0
71
3
72
12
73
8
74
6
42
0.0000001000
43
0.0000001000
44
0.0000000001
12
-0.2249711768
22
0.0000000072
32
0.0000000000
13
0.1443702801
23
0.1725376846
33
0.0000000000
40
0.0000000000
40
0.0000000000
40
0.0000000000
40
0.0000000000
40
0.1979326552
40
0.4014972617
40
0.6002837164
40
0.7995798612
40
1.0000000000
40
1.0000000000
40
1.0000000000
40
1.0000000000
10
5.1878659891
20
-15.5558947181
30
0.0000000000
10
5.1730229417
20
-15.5558947177
30
0.0000000000
10
5.1424836852
20
-15.5490054067
30
0.0000000000
10
5.1062907416
20
-15.5196000401
30
0.0000000000
10
5.0868897874
20
-15.4771140082
30
0.0000000000
10
5.0879656114
20
-15.4307564633
30
0.0000000000
10
5.1022085724
20
-15.4030290825
30
0.0000000000
10
5.1118534763
20
-15.3915024069
30
0.0000000000
11
5.1878659891
21
-15.5558947181
31
0.0000000000
11
5.1444509124
21
-15.5459964539
31
0.0000000000
11
5.1088912071
21
-15.5171382408
31
0.0000000000
11
5.0902856259
21
-15.4764710538
31
0.0000000000
11
5.0913257177
21
-15.4316472311
31
0.0000000000
11
5.1118534763
21
-15.3915024069
31
0.0000000000
0
SPLINE
5
408
100
AcDbEntity
8
0
100
AcDbSpline
62
0
6
CONTINUOUS
70
0
71
3
72
12
73
8
74
6
42
0.0000001000
43
0.0000001000
44
0.0000000001
12
-0.2214620598
22
-0.0000000043
32
0.0000000000
13
0.1359675803
23
-0.1748092132
33
0.0000000000
40
0.0000000000
40
0.0000000000
40
0.0000000000
40
0.0000000000
40
0.1996430843
40
0.3988290180
40
0.5983794923
40
0.7987103633
40
1.0000000000
40
1.0000000000
40
1.0000000000
40
1.0000000000
10
5.2902230555
20
-10.4596571883
30
0.0000000000
10
5.2754852660
20
-10.4596571885
30
0.0000000000
10
5.2456226645
20
-10.4663592637
30
0.0000000000
10
5.2098796299
20
-10.4947138423
30
0.0000000000
10
5.1899004356
20
-10.5358684464
30
0.0000000000
10
5.1896541144
20
-10.5816860389
30
0.0000000000
10
5.2028065503
20
-10.6095434671
30
0.0000000000
10
5.2119295052
20
-10.6212725614
30
0.0000000000
11
5.2902230555
21
-10.4596571883
31
0.0000000000
11
5.2471017298
21
-10.4694231104
31
0.0000000000
11
5.2125265195
21
-10.4968171718
31
0.0000000000
11
5.1932067208
21
-10.5365632932
31
0.0000000000
11
5.1929678793
21
-10.5809283377
31
0.0000000000
11
5.2119295052
21
-10.6212725614
31
0.0000000000
0
SPLINE
5
409
100
AcDbEntity
8
0
100
AcDbSpline
62
0
6
CONTINUOUS
70
0
71
3
72
10
73
6
74
4
42
0.0000001000
43
0.0000001000
44
0.0000000001
12
-0.0161853103
22
0.1800472576
32
0.0000000000
13
0.1308273246
23
0.1238722576
33
0.0000000000
40
0.0000000000
40
0.0000000000
40
0.0000000000
40
0.0000000000
40
0.1779161012
40
0.7358056253
40
1.0000000000
40
1.0000000000
40
1.0000000000
40
1.0000000000
10
5.9665232794
20
-11.1772997113
30
0.0000000000
10
5.9655634036
20
-11.1666219426
30
0.0000000000
10
5.9650845224
20
-11.1221279250
30
0.0000000000
10
5.9848735498
20
-11.0634503452
30
0.0000000000
10
6.0166950934
20
-11.0252906267
30
0.0000000000
10
6.0282163745
20
-11.0143818421
30
0.0000000000
11
5.9665232794
21
-11.1772997113
31
0.0000000000
11
5.9662111353
21
-11.1451819419
31
0.0000000000
11
5.9978483560
21
-11.0508583928
31
0.0000000000
11
6.0282163745
21
-11.0143818421
31
0.0000000000
0
SPLINE
5
40A
100
AcDbEntity
8
0
100
AcDbSpline
62
0
6
CONTINUOUS
70
0
71
3
72
9
73
5
74
3
42
0.0000001000
43
0.0000001000
44
0.0000000001
12
0.1099733055
22
0.1041268838
32
0.0000000000
13
0.1499032161
23
0.0000000000
33
0.0000000000
40
0.0000000000
40
0.0000000000
40
0.0000000000
40
0.0000000000
40
0.3465134997
40
1.0000000000
40
1.0000000000
40
1.0000000000
40
1.0000000000
10
6.0282163745
20
-11.0143818421
30
0.0000000000
10
6.0409187861
20
-11.0023547185
30
0.0000000000
10
6.0821184175
20
-10.9723978182
30
0.0000000000
10
6.1329475238
20
-10.9596571883
30
0.0000000000
10
6.1656007664
20
-10.9596571883
30
0.0000000000
11
6.0282163745
21
-11.0143818421
31
0.0000000000
11
6.0706274696
21
-10.9836609630
31
0.0000000000
11
6.1656007664
21
-10.9596571883
31
0.0000000000
0
SPLINE
5
40B
100
AcDbEntity
8
0
100
AcDbSpline
62
0
6
CONTINUOUS
70
0
71
3
72
8
73
4
74
2
42
0.0000001000
43
0.0000001000
44
0.0000000001
12
-0.0671033182
22
0.0000000000
32
0.0000000000
13
-0.0641927601
23
0.0225095105
33
0.0000000000
40
0.0000000000
40
0.0000000000
40
0.0000000000
40
0.0000000000
40
1.0000000000
40
1.0000000000
40
1.0000000000
40
1.0000000000
10
6.1656007664
20
-14.9596571883
30
0.0000000000
10
6.1432329937
20
-14.9596571882
30
0.0000000000
10
6.1205984248
20
-14.9557471761
30
0.0000000000
10
6.0992008381
20
-14.9482440059
30
0.0000000000
11
6.1656007664
21
-14.9596571883
31
0.0000000000
11
6.0992008381
21
-14.9482440059
31
0.0000000000
0
SPLINE
5
40C
100
AcDbEntity
8
0
100
AcDbSpline
62
0
6
CONTINUOUS
70
0
71
3
72
9
73
5
74
3
42
0.0000001000
43
0.0000001000
44
0.0000000001
12
-0.0791956189
22
0.0277703375
32
0.0000000000
13
-0.0607350194
23
0.0575189094
33
0.0000000000
40
0.0000000000
40
0.0000000000
40
0.0000000000
40
0.0000000000
40
0.3829415685
40
1.0000000000
40
1.0000000000
40
1.0000000000
40
1.0000000000
10
6.0992008381
20
-14.9482440059
30
0.0000000000
10
6.0890917399
20
-14.9446992003
30
0.0000000000
10
6.0634141852
20
-14.9333481205
30
0.0000000000
10
6.0407007234
20
-14.9167559020
30
0.0000000000
10
6.0282083715
20
-14.9049250594
30
0.0000000000
11
6.0992008381
21
-14.9482440059
31
0.0000000000
11
6.0698604009
21
-14.9352370169
31
0.0000000000
11
6.0282083715
21
-14.9049250594
31
0.0000000000
0
SPLINE
5
40D
100
AcDbEntity
8
0
100
AcDbSpline
62
0
6
CONTINUOUS
70
0
71
3
72
8
73
4
74
2
42
0.0000001000
43
0.0000001000
44
0.0000000001
12
-0.0354896710
22
0.0336103815
32
0.0000000000
13
-0.0262889590
23
0.0411516651
33
0.0000000000
40
0.0000000000
40
0.0000000000
40
0.0000000000
40
0.0000000000
40
1.0000000000
40
1.0000000000
40
1.0000000000
40
1.0000000000
10
6.0282083715
20
-14.9049250594
30
0.0000000000
10
6.0163784811
20
-14.8937215989
30
0.0000000000
10
6.0059145086
20
-14.8810900816
30
0.0000000000
10
5.9971515223
20
-14.8673728599
30
0.0000000000
11
6.0282083715
21
-14.9049250594
31
0.0000000000
11
5.9971515223
21
-14.8673728599
31
0.0000000000
0
SPLINE
5
40E
100
AcDbEntity
8
0
100
AcDbSpline
62
0
6
CONTINUOUS
70
0
71
3
72
10
73
6
74
4
42
0.0000001000
43
0.0000001000
44
0.0000000001
12
0.0161853103
22
-0.1800472576
32
0.0000000000
13
-0.1308273246
23
-0.1238722576
33
0.0000000000
40
0.0000000000
40
0.0000000000
40
0.0000000000
40
0.0000000000
40
0.1779161012
40
0.7358056253
40
1.0000000000
40
1.0000000000
40
1.0000000000
40
1.0000000000
10
-5.7554382559
20
-14.7420146652
30
0.0000000000
10
-5.7544783802
20
-14.7526924339
30
0.0000000000
10
-5.7539994989
20
-14.7971864515
30
0.0000000000
10
-5.7737885263
20
-14.8558640313
30
0.0000000000
10
-5.8056100699
20
-14.8940237498
30
0.0000000000
10
-5.8171313510
20
-14.9049325344
30
0.0000000000
11
-5.7554382559
21
-14.7420146652
31
0.0000000000
11
-5.7551261118
21
-14.7741324346
31
0.0000000000
11
-5.7867633325
21
-14.8684559837
31
0.0000000000
11
-5.8171313510
21
-14.9049325344
31
0.0000000000
0
SPLINE
5
40F
100
AcDbEntity
8
0
100
AcDbSpline
62
0
6
CONTINUOUS
70
0
71
3
72
9
73
5
74
3
42
0.0000001000
43
0.0000001000
44
0.0000000001
12
-0.1099733055
22
-0.1041268838
32
0.0000000000
13
-0.1499032161
23
-0.0000000000
33
0.0000000000
40
0.0000000000
40
0.0000000000
40
0.0000000000
40
0.0000000000
40
0.3465134997
40
1.0000000000
40
1.0000000000
40
1.0000000000
40
1.0000000000
10
-5.8171313510
20
-14.9049325344
30
0.0000000000
10
-5.8298337627
20
-14.9169596580
30
0.0000000000
10
-5.8710333941
20
-14.9469165583
30
0.0000000000
10
-5.9218625003
20
-14.9596571882
30
0.0000000000
10
-5.9545157430
20
-14.9596571883
30
0.0000000000
11
-5.8171313510
21
-14.9049325344
31
0.0000000000
11
-5.8595424461
21
-14.9356534135
31
0.0000000000
11
-5.9545157430
21
-14.9596571883
31
0.0000000000
0
SPLINE
5
410
100
AcDbEntity
8
0
100
AcDbSpline
62
0
6
CONTINUOUS
70
0
71
3
72
8
73
4
74
2
42
0.0000001000
43
0.0000001000
44
0.0000000001
12
0.0671033182
22
-0.0000000000
32
0.0000000000
13
0.0641927601
23
-0.0225095105
33
0.0000000000
40
0.0000000000
40
0.0000000000
40
0.0000000000
40
0.0000000000
40
1.0000000000
40
1.0000000000
40
1.0000000000
40
1.0000000000
10
-5.9545157430
20
-10.9596571883
30
0.0000000000
10
-5.9321479702
20
-10.9596571883
30
0.0000000000
10
-5.9095134013
20
-10.9635672004
30
0.0000000000
10
-5.8881158146
20
-10.9710703706
30
0.0000000000
11
-5.9545157430
21
-10.9596571883
31
0.0000000000
11
-5.8881158146
21
-10.9710703706
31
0.0000000000
0
SPLINE
5
411
100
AcDbEntity
8
0
100
AcDbSpline
62
0
6
CONTINUOUS
70
0
71
3
72
9
73
5
74
3
42
0.0000001000
43
0.0000001000
44
0.0000000001
12
0.0791956189
22
-0.0277703375
32
0.0000000000
13
0.0607350194
23
-0.0575189094
33
0.0000000000
40
0.0000000000
40
0.0000000000
40
0.0000000000
40
0.0000000000
40
0.3829415685
40
1.0000000000
40
1.0000000000
40
1.0000000000
40
1.0000000000
10
-5.8881158146
20
-10.9710703706
30
0.0000000000
10
-5.8780067164
20
-10.9746151762
30
0.0000000000
10
-5.8523291617
20
-10.9859662560
30
0.0000000000
10
-5.8296156999
20
-11.0025584745
30
0.0000000000
10
-5.8171233480
20
-11.0143893171
30
0.0000000000
11
-5.8881158146
21
-10.9710703706
31
0.0000000000
11
-5.8587753774
21
-10.9840773596
31
0.0000000000
11
-5.8171233480
21
-11.0143893171
31
0.0000000000
0
SPLINE
5
412
100
AcDbEntity
8
0
100
AcDbSpline
62
0
6
CONTINUOUS
70
0
71
3
72
8
73
4
74
2
42
0.0000001000
43
0.0000001000
44
0.0000000001
12
0.0354896710
22
-0.0336103815
32
0.0000000000
13
0.0262889590
23
-0.0411516651
33
0.0000000000
40
0.0000000000
40
0.0000000000
40
0.0000000000
40
0.0000000000
40
1.0000000000
40
1.0000000000
40
1.0000000000
40
1.0000000000
10
-5.8171233480
20
-11.0143893171
30
0.0000000000
10
-5.8052934576
20
-11.0255927776
30
0.0000000000
10
-5.7948294851
20
-11.0382242949
30
0.0000000000
10
-5.7860664988
20
-11.0519415166
30
0.0000000000
11
-5.8171233480
21
-11.0143893171
31
0.0000000000
11
-5.7860664988
21
-11.0519415166
31
0.0000000000
0
SPLINE
5
413
100
AcDbEntity
8
0
100
AcDbSpline
62
0
6
CONTINUOUS
70
0
71
3
72
8
73
4
74
2
42
0.0000001000
43
0.0000001000
44
0.0000000001
12
-0.1036908775
22
0.0000000000
32
0.0000000000
13
-0.0989601342
23
0.0358390060
33
0.0000000000
40
0.0000000000
40
0.0000000000
40
0.0000000000
40
0.0000000000
40
1.0000000000
40
1.0000000000
40
1.0000000000
40
1.0000000000
10
-4.9826647932
20
18.5403428117
30
0.0000000000
10
-5.0172284191
20
18.5403428117
30
0.0000000000
10
-5.0522352577
20
18.5466128361
30
0.0000000000
10
-5.0852219691
20
18.5585591714
30
0.0000000000
11
-4.9826647932
21
18.5403428117
31
0.0000000000
11
-5.0852219691
21
18.5585591714
31
0.0000000000
0
SPLINE
5
414
100
AcDbEntity
8
0
100
AcDbSpline
62
0
6
CONTINUOUS
70
0
71
3
72
10
73
6
74
4
42
0.0000001000
43
0.0000001000
44
0.0000000001
12
-0.3456508553
22
0.1251795299
32
0.0000000000
13
0.0000000000
23
0.3621745341
33
0.0000000000
40
0.0000000000
40
0.0000000000
40
0.0000000000
40
0.0000000000
40
0.1424590294
40
0.5712259799
40
1.0000000000
40
1.0000000000
40
1.0000000000
40
1.0000000000
10
-5.0852219691
20
18.5585591714
30
0.0000000000
10
-5.1016356642
20
18.5645034895
30
0.0000000000
10
-5.1654450402
20
18.5939740794
30
0.0000000000
10
-5.2545311402
20
18.6830646388
30
0.0000000000
10
-5.2826533701
20
18.7885791348
30
0.0000000000
10
-5.2826533701
20
18.8403428117
30
0.0000000000
11
-5.0852219691
21
18.5585591714
31
0.0000000000
11
-5.1326590817
21
18.5805351906
31
0.0000000000
11
-5.2424625217
21
18.6903428117
31
0.0000000000
11
-5.2826533701
21
18.8403428117
31
0.0000000000
0
SPLINE
5
415
100
AcDbEntity
8
0
100
AcDbSpline
62
0
6
CONTINUOUS
70
0
71
3
72
9
73
5
74
3
42
0.0000001000
43
0.0000001000
44
0.0000000001
12
0.0009528639
22
-0.0432129157
32
0.0000000000
13
0.0305635733
23
-0.0305635733
33
0.0000000000
40
0.0000000000
40
0.0000000000
40
0.0000000000
40
0.0000000000
40
0.7184465604
40
1.0000000000
40
1.0000000000
40
1.0000000000
40
1.0000000000
10
4.7555425117
20
-20.1664958345
30
0.0000000000
10
4.7557707057
20
-20.1768445580
30
0.0000000000
10
4.7588651421
20
-20.1897893303
30
0.0000000000
10
4.7547799237
20
-20.2067824704
30
0.0000000000
10
4.7576483501
20
-20.2096508968
30
0.0000000000
11
4.7555425117
21
-20.1664958345
31
0.0000000000
11
4.7565111903
21
-20.1975344399
31
0.0000000000
11
4.7576483501
21
-20.2096508968
31
0.0000000000
0
SPLINE
5
416
100
AcDbEntity
8
0
100
AcDbSpline
62
0
6
CONTINUOUS
70
0
71
3
72
9
73
5
74
3
42
0.0000001000
43
0.0000001000
44
0.0000000001
12
0.0305635733
22
0.0305635733
32
0.0000000000
13
0.0009528639
23
0.0432129157
33
0.0000000000
40
0.0000000000
40
0.0000000000
40
0.0000000000
40
0.0000000000
40
0.2815534396
40
1.0000000000
40
1.0000000000
40
1.0000000000
40
1.0000000000
10
-4.5465633266
20
-20.2096508968
30
0.0000000000
10
-4.5436949002
20
-20.2067824704
30
0.0000000000
10
-4.5477801187
20
-20.1897893303
30
0.0000000000
10
-4.5446856822
20
-20.1768445580
30
0.0000000000
10
-4.5444574883
20
-20.1664958345
30
0.0000000000
11
-4.5465633266
21
-20.2096508968
31
0.0000000000
11
-4.5454261668
21
-20.1975344399
31
0.0000000000
11
-4.5444574883
21
-20.1664958345
31
0.0000000000
0
SPLINE
5
417
100
AcDbEntity
8
0
100
AcDbSpline
62
0
6
CONTINUOUS
70
0
71
3
72
9
73
5
74
3
42
0.0000001000
43
0.0000001000
44
0.0000000001
12
0.0305635733
22
0.0305635733
32
0.0000000000
13
0.0009528639
23
0.0432129157
33
0.0000000000
40
0.0000000000
40
0.0000000000
40
0.0000000000
40
0.0000000000
40
0.2815534396
40
1.0000000000
40
1.0000000000
40
1.0000000000
40
1.0000000000
10
5.3534366734
20
-20.2096508968
30
0.0000000000
10
5.3563050998
20
-20.2067824704
30
0.0000000000
10
5.3522198813
20
-20.1897893303
30
0.0000000000
10
5.3553143178
20
-20.1768445580
30
0.0000000000
10
5.3555425117
20
-20.1664958345
30
0.0000000000
11
5.3534366734
21
-20.2096508968
31
0.0000000000
11
5.3545738332
21
-20.1975344399
31
0.0000000000
11
5.3555425117
21
-20.1664958345
31
0.0000000000
0
SPLINE
5
418
100
AcDbEntity
8
0
100
AcDbSpline
62
0
6
CONTINUOUS
70
0
71
3
72
8
73
4
74
2
42
0.0000001000
43
0.0000001000
44
0.0000000001
12
0.0336623924
22
-0.0000102531
32
0.0000000000
13
0.0335017260
23
-0.0058088144
33
0.0000000000
40
0.0000000000
40
0.0000000000
40
0.0000000000
40
0.0000000000
40
1.0000000000
40
1.0000000000
40
1.0000000000
40
1.0000000000
10
9.7055666812
20
20.2903365203
30
0.0000000000
10
9.7167874787
20
20.2903331026
30
0.0000000000
10
9.7280758697
20
20.2893413041
30
0.0000000000
10
9.7392431117
20
20.2874050327
30
0.0000000000
11
9.7055666812
21
20.2903365203
31
0.0000000000
11
9.7392431117
21
20.2874050327
31
0.0000000000
0
SPLINE
5
419
100
AcDbEntity
8
0
100
AcDbSpline
62
0
6
CONTINUOUS
70
0
71
3
72
10
73
6
74
4
42
0.0000001000
43
0.0000001000
44
0.0000000001
12
0.2755223857
22
-0.0477724161
32
0.0000000000
13
0.0000843229
23
-0.2768437262
33
0.0000000000
40
0.0000000000
40
0.0000000000
40
0.0000000000
40
0.0000000000
40
0.2449347149
40
0.6223641413
40
1.0000000000
40
1.0000000000
40
1.0000000000
40
1.0000000000
10
9.7392431117
20
20.2874050327
30
0.0000000000
10
9.7617381107
20
20.2835046583
30
0.0000000000
10
9.8176474369
20
20.2638561775
30
0.0000000000
10
9.8863773318
20
20.1962515711
30
0.0000000000
10
9.9055256058
20
20.1252156873
30
0.0000000000
10
9.9055362202
20
20.0903669812
30
0.0000000000
11
9.7392431117
21
20.2874050327
31
0.0000000000
11
9.8037106185
21
20.2645656304
31
0.0000000000
11
9.8781807987
21
20.1912707610
31
0.0000000000
11
9.9055362202
21
20.0903669812
31
0.0000000000
0
SPLINE
5
41A
100
AcDbEntity
8
0
100
AcDbSpline
62
0
6
CONTINUOUS
70
0
71
3
72
8
73
4
74
2
42
0.0000001000
43
0.0000001000
44
0.0000000001
12
-0.0336623924
22
0.0000102531
32
0.0000000000
13
-0.0335017260
23
0.0058088144
33
0.0000000000
40
0.0000000000
40
0.0000000000
40
0.0000000000
40
0.0000000000
40
1.0000000000
40
1.0000000000
40
1.0000000000
40
1.0000000000
10
-9.4944816577
20
-20.2096508968
30
0.0000000000
10
-9.5057024552
20
-20.2096474791
30
0.0000000000
10
-9.5169908462
20
-20.2086556806
30
0.0000000000
10
-9.5281580882
20
-20.2067194092
30
0.0000000000
11
-9.4944816577
21
-20.2096508968
31
0.0000000000
11
-9.5281580882
21
-20.2067194092
31
0.0000000000
0
SPLINE
5
41B
100
AcDbEntity
8
0
100
AcDbSpline
62
0
6
CONTINUOUS
70
0
71
3
72
10
73
6
74
4
42
0.0000001000
43
0.0000001000
44
0.0000000001
12
-0.2755223857
22
0.0477724161
32
0.0000000000
13
-0.0000843229
23
0.2768437262
33
0.0000000000
40
0.0000000000
40
0.0000000000
40
0.0000000000
40
0.0000000000
40
0.2449347149
40
0.6223641413
40
1.0000000000
40
1.0000000000
40
1.0000000000
40
1.0000000000
10
-9.5281580882
20
-20.2067194092
30
0.0000000000
10
-9.5506530872
20
-20.2028190348
30
0.0000000000
10
-9.6065624134
20
-20.1831705540
30
0.0000000000
10
-9.6752923083
20
-20.1155659476
30
0.0000000000
10
-9.6944405823
20
-20.0445300638
30
0.0000000000
10
-9.6944511968
20
-20.0096813577
30
0.0000000000
11
-9.5281580882
21
-20.2067194092
31
0.0000000000
11
-9.5926255950
21
-20.1838800069
31
0.0000000000
11
-9.6670957752
21
-20.1105851375
31
0.0000000000
11
-9.6944511968
21
-20.0096813577
31
0.0000000000
0
SPLINE
5
41C
100
AcDbEntity
8
0
100
AcDbSpline
62
0
6
CONTINUOUS
70
0
71
3
72
9
73
5
74
3
42
0.0000001000
43
0.0000001000
44
0.0000000001
12
0.0009528639
22
-0.0432129157
32
0.0000000000
13
0.0305635733
23
-0.0305635733
33
0.0000000000
40
0.0000000000
40
0.0000000000
40
0.0000000000
40
0.0000000000
40
0.7184465604
40
1.0000000000
40
1.0000000000
40
1.0000000000
40
1.0000000000
10
-5.1444574883
20
-20.1664958345
30
0.0000000000
10
-5.1442292943
20
-20.1768445580
30
0.0000000000
10
-5.1411348579
20
-20.1897893303
30
0.0000000000
10
-5.1452200763
20
-20.2067824704
30
0.0000000000
10
-5.1423516499
20
-20.2096508968
30
0.0000000000
11
-5.1444574883
21
-20.1664958345
31
0.0000000000
11
-5.1434888097
21
-20.1975344399
31
0.0000000000
11
-5.1423516499
21
-20.2096508968
31
0.0000000000
0
SPLINE
5
41D
100
AcDbEntity
8
0
100
AcDbSpline
62
0
6
CONTINUOUS
70
0
71
3
72
12
73
8
74
6
42
0.0000001000
43
0.0000001000
44
0.0000000001
12
0.4787328492
22
-0.0602623698
32
0.0000000000
13
0.0000000000
23
-0.4825109278
33
0.0000000000
40
0.0000000000
40
0.0000000000
40
0.0000000000
40
0.0000000000
40
0.2976578501
40
0.4627467792
40
0.6312983859
40
0.8298443225
40
1.0000000000
40
1.0000000000
40
1.0000000000
40
1.0000000000
10
-3.8981694702
20
3.2246668117
30
0.0000000000
10
-3.8506699400
20
3.2186876226
30
0.0000000000
10
-3.7756833654
20
3.2157234917
30
0.0000000000
10
-3.6796980996
20
3.1741428638
30
0.0000000000
10
-3.6250376367
20
3.1048893066
30
0.0000000000
10
-3.5956511216
20
3.0221272948
30
0.0000000000
10
-3.5926823451
20
2.9624276356
30
0.0000000000
10
-3.5926823451
20
2.9350603110
30
0.0000000000
11
-3.8981694702
21
3.2246668117
31
0.0000000000
11
-3.7561161420
21
3.2034898114
31
0.0000000000
11
-3.6842546448
21
3.1691212692
31
0.0000000000
11
-3.6318339391
21
3.1069415948
31
0.0000000000
11
-3.5990854629
21
3.0169122150
31
0.0000000000
11
-3.5926823451
21
2.9350603110
31
0.0000000000
0
SPLINE
5
41E
100
AcDbEntity
8
0
100
AcDbSpline
62
0
6
CONTINUOUS
70
0
71
3
72
12
73
8
74
6
42
0.0000001000
43
0.0000001000
44
0.0000000001
12
0.0000000000
22
-0.4825109161
32
0.0000000000
13
-0.4787328387
23
-0.0602623616
33
0.0000000000
40
0.0000000000
40
0.0000000000
40
0.0000000000
40
0.0000000000
40
0.1701556816
40
0.3687016231
40
0.5372532339
40
0.7023421670
40
1.0000000000
40
1.0000000000
40
1.0000000000
40
1.0000000000
10
-3.5926823451
20
2.9350603110
30
0.0000000000
10
-3.5926823451
20
2.9076929864
30
0.0000000000
10
-3.5956511216
20
2.8479933273
30
0.0000000000
10
-3.6250376367
20
2.7652313155
30
0.0000000000
10
-3.6796980996
20
2.6959777583
30
0.0000000000
10
-3.7756833617
20
2.6543971319
30
0.0000000000
10
-3.8506699321
20
2.6514329997
30
0.0000000000
10
-3.8981694586
20
2.6454538117
30
0.0000000000
11
-3.5926823451
21
2.9350603110
31
0.0000000000
11
-3.5990854629
21
2.8532084070
31
0.0000000000
11
-3.6318339391
21
2.7631790273
31
0.0000000000
11
-3.6842546448
21
2.7009993528
31
0.0000000000
11
-3.7561161420
21
2.6666308106
31
0.0000000000
11
-3.8981694586
21
2.6454538117
31
0.0000000000
0
SPLINE
5
41F
100
AcDbEntity
8
0
100
AcDbSpline
62
0
6
CONTINUOUS
70
0
71
3
72
14
73
10
74
8
42
0.0000001000
43
0.0000001000
44
0.0000000001
12
1.2052774317
22
0.0446691632
32
0.0000000000
13
0.0000000000
23
1.2061047672
33
0.0000000000
40
0.0000000000
40
0.0000000000
40
0.0000000000
40
0.0000000000
40
0.1873555017
40
0.3554826270
40
0.5087018372
40
0.6541422665
40
0.8096773147
40
0.8990514551
40
1.0000000000
40
1.0000000000
40
1.0000000000
40
1.0000000000
10
-3.9677108857
20
2.3047778117
30
0.0000000000
10
-3.8924390997
20
2.3075674829
30
0.0000000000
10
-3.7492993040
20
2.3098618034
30
0.0000000000
10
-3.5469378761
20
2.3459277299
30
0.0000000000
10
-3.3705971467
20
2.4158223631
30
0.0000000000
10
-3.2279242865
20
2.5366502044
30
0.0000000000
10
-3.1567451041
20
2.6812738963
30
0.0000000000
10
-3.1285760276
20
2.8177733287
30
0.0000000000
10
-3.1241746986
20
2.8944754706
30
0.0000000000
10
-3.1241746986
20
2.9350603110
30
0.0000000000
11
-3.9677108857
21
2.3047778117
31
0.0000000000
11
-3.7420369974
21
2.3163494063
31
0.0000000000
11
-3.5427688843
21
2.3539195073
31
0.0000000000
11
-3.3726619585
21
2.4261281616
31
0.0000000000
11
-3.2403565718
21
2.5413071367
31
0.0000000000
11
-3.1546473679
21
2.7081739306
31
0.0000000000
11
-3.1319664444
21
2.8135553640
31
0.0000000000
11
-3.1241746986
21
2.9350603110
31
0.0000000000
0
SPLINE
5
420
100
AcDbEntity
8
0
100
AcDbSpline
62
0
6
CONTINUOUS
70
0
71
3
72
14
73
10
74
8
42
0.0000001000
43
0.0000001000
44
0.0000000001
12
0.0000000000
22
1.2061048068
32
0.0000000000
13
-1.2052774703
23
0.0446691736
33
0.0000000000
40
0.0000000000
40
0.0000000000
40
0.0000000000
40
0.0000000000
40
0.1009485416
40
0.1903226791
40
0.3458577222
40
0.4912981467
40
0.6445173518
40
0.8126444716
40
1.0000000000
40
1.0000000000
40
1.0000000000
40
1.0000000000
10
-3.1241746986
20
2.9350603110
30
0.0000000000
10
-3.1241746986
20
2.9756451514
30
0.0000000000
10
-3.1285760276
20
3.0523472933
30
0.0000000000
10
-3.1567451041
20
3.1888467258
30
0.0000000000
10
-3.2279242865
20
3.3334704176
30
0.0000000000
10
-3.3705971467
20
3.4542982590
30
0.0000000000
10
-3.5469378761
20
3.5241928921
30
0.0000000000
10
-3.7492993171
20
3.5602588210
30
0.0000000000
10
-3.8924391262
20
3.5625531395
30
0.0000000000
10
-3.9677109253
20
3.5653428117
30
0.0000000000
11
-3.1241746986
21
2.9350603110
31
0.0000000000
11
-3.1319664444
21
3.0565652580
31
0.0000000000
11
-3.1546473679
21
3.1619466914
31
0.0000000000
11
-3.2403565718
21
3.3288134853
31
0.0000000000
11
-3.3726619585
21
3.4439924605
31
0.0000000000
11
-3.5427688843
21
3.5162011147
31
0.0000000000
11
-3.7420369974
21
3.5537712158
31
0.0000000000
11
-3.9677109253
21
3.5653428117
31
0.0000000000
0
SPLINE
5
421
100
AcDbEntity
8
0
100
AcDbSpline
62
0
6
CONTINUOUS
70
0
71
3
72
15
73
11
74
9
42
0.0000001000
43
0.0000001000
44
0.0000000001
12
-1.2544455271
22
0.0000000000
32
0.0000000000
13
0.0000000000
23
-1.2544455271
33
0.0000000000
40
0.0000000000
40
0.0000000000
40
0.0000000000
40
0.0000000000
40
0.1249999808
40
0.2499998108
40
0.3750000468
40
0.5000001769
40
0.6250002546
40
0.7500003661
40
0.8750000750
40
1.0000000000
40
1.0000000000
40
1.0000000000
40
1.0000000000
10
-10.1945793321
20
21.8903428117
30
0.0000000000
10
-10.2468478877
20
21.8903428117
30
0.0000000000
10
-10.3516745706
20
21.8800333785
30
0.0000000000
10
-10.5026486559
20
21.8342293551
30
0.0000000000
10
-10.6418470762
20
21.7598414211
30
0.0000000000
10
-10.7638394279
20
21.6597244650
30
0.0000000000
10
-10.8639562872
20
21.5377321028
30
0.0000000000
10
-10.9383441086
20
21.3985337669
30
0.0000000000
10
-10.9841480670
20
21.2475597964
30
0.0000000000
10
-10.9944574883
20
21.1427331879
30
0.0000000000
10
-10.9944574883
20
21.0904646556
30
0.0000000000
11
-10.1945793321
21
21.8903428117
31
0.0000000000
11
-10.3506302872
21
21.8749767273
31
0.0000000000
11
-10.5006858785
21
21.8294654394
31
0.0000000000
11
-10.6389794189
21
21.7555532331
31
0.0000000000
11
-10.7601935348
21
21.6560785430
31
0.0000000000
11
-10.8596681207
21
21.5348644265
31
0.0000000000
11
-10.9335802012
21
21.3965709960
31
0.0000000000
11
-10.9790914176
21
21.2465155417
31
0.0000000000
11
-10.9944574883
21
21.0904646556
31
0.0000000000
0
SPLINE
5
422
100
AcDbEntity
8
0
100
AcDbSpline
62
0
6
CONTINUOUS
70
0
71
3
72
15
73
11
74
9
42
0.0000001000
43
0.0000001000
44
0.0000000001
12
0.0000000000
22
-1.2544455271
32
0.0000000000
13
1.2544455271
23
0.0000000000
33
0.0000000000
40
0.0000000000
40
0.0000000000
40
0.0000000000
40
0.0000000000
40
0.1249999808
40
0.2499998108
40
0.3750000468
40
0.5000001769
40
0.6250002546
40
0.7500003661
40
0.8750000750
40
1.0000000000
40
1.0000000000
40
1.0000000000
40
1.0000000000
10
-10.9944574883
20
-21.0097790321
30
0.0000000000
10
-10.9944574883
20
-21.0620475877
30
0.0000000000
10
-10.9841480550
20
-21.1668742706
30
0.0000000000
10
-10.9383440316
20
-21.3178483559
30
0.0000000000
10
-10.8639560976
20
-21.4570467762
30
0.0000000000
10
-10.7638391415
20
-21.5790391279
30
0.0000000000
10
-10.6418467793
20
-21.6791559872
30
0.0000000000
10
-10.5026484434
20
-21.7535438086
30
0.0000000000
10
-10.3516744729
20
-21.7993477670
30
0.0000000000
10
-10.2468478644
20
-21.8096571883
30
0.0000000000
10
-10.1945793321
20
-21.8096571883
30
0.0000000000
11
-10.9944574883
21
-21.0097790321
31
0.0000000000
11
-10.9790914039
21
-21.1658299872
31
0.0000000000
11
-10.9335801159
21
-21.3158855785
31
0.0000000000
11
-10.8596679096
21
-21.4541791189
31
0.0000000000
11
-10.7601932195
21
-21.5753932348
31
0.0000000000
11
-10.6389791030
21
-21.6748678207
31
0.0000000000
11
-10.5006856725
21
-21.7487799012
31
0.0000000000
11
-10.3506302182
21
-21.7942911176
31
0.0000000000
11
-10.1945793321
21
-21.8096571883
31
0.0000000000
0
SPLINE
5
423
100
AcDbEntity
8
0
100
AcDbSpline
62
0
6
CONTINUOUS
70
0
71
3
72
15
73
11
74
9
42
0.0000001000
43
0.0000001000
44
0.0000000001
12
0.0000000000
22
1.2544455271
32
0.0000000000
13
-1.2544455271
23
0.0000000000
33
0.0000000000
40
0.0000000000
40
0.0000000000
40
0.0000000000
40
0.0000000000
40
0.1249999808
40
0.2499998108
40
0.3750000468
40
0.5000001769
40
0.6250002546
40
0.7500003661
40
0.8750000750
40
1.0000000000
40
1.0000000000
40
1.0000000000
40
1.0000000000
10
11.2055425117
20
21.0904646556
30
0.0000000000
10
11.2055425117
20
21.1427332112
30
0.0000000000
10
11.1952330785
20
21.2475598941
30
0.0000000000
10
11.1494290551
20
21.3985339794
30
0.0000000000
10
11.0750411211
20
21.5377323997
30
0.0000000000
10
10.9749241650
20
21.6597247514
30
0.0000000000
10
10.8529318028
20
21.7598416107
30
0.0000000000
10
10.7137334669
20
21.8342294321
30
0.0000000000
10
10.5627594964
20
21.8800333905
30
0.0000000000
10
10.4579328879
20
21.8903428117
30
0.0000000000
10
10.4056643556
20
21.8903428117
30
0.0000000000
11
11.2055425117
21
21.0904646556
31
0.0000000000
11
11.1901764273
21
21.2465156107
31
0.0000000000
11
11.1446651394
21
21.3965712020
31
0.0000000000
11
11.0707529331
21
21.5348647424
31
0.0000000000
11
10.9712782430
21
21.6560788583
31
0.0000000000
11
10.8500641265
21
21.7555534442
31
0.0000000000
11
10.7117706960
21
21.8294655247
31
0.0000000000
11
10.5617152417
21
21.8749767411
31
0.0000000000
11
10.4056643556
21
21.8903428117
31
0.0000000000
0
SPLINE
5
424
100
AcDbEntity
8
0
100
AcDbSpline
62
0
6
CONTINUOUS
70
0
71
3
72
15
73
11
74
9
42
0.0000001000
43
0.0000001000
44
0.0000000001
12
1.2544455271
22
0.0000000000
32
0.0000000000
13
-0.0000000000
23
1.2544455271
33
0.0000000000
40
0.0000000000
40
0.0000000000
40
0.0000000000
40
0.0000000000
40
0.1249999808
40
0.2499998108
40
0.3750000468
40
0.5000001769
40
0.6250002546
40
0.7500003661
40
0.8750000750
40
1.0000000000
40
1.0000000000
40
1.0000000000
40
1.0000000000
10
10.4056643556
20
-21.8096571883
30
0.0000000000
10
10.4579329112
20
-21.8096571883
30
0.0000000000
10
10.5627595941
20
-21.7993477550
30
0.0000000000
10
10.7137336794
20
-21.7535437316
30
0.0000000000
10
10.8529320997
20
-21.6791557976
30
0.0000000000
10
10.9749244514
20
-21.5790388415
30
0.0000000000
10
11.0750413107
20
-21.4570464793
30
0.0000000000
10
11.1494291321
20
-21.3178481434
30
0.0000000000
10
11.1952330904
20
-21.1668741729
30
0.0000000000
10
11.2055425117
20
-21.0620475644
30
0.0000000000
10
11.2055425117
20
-21.0097790321
30
0.0000000000
11
10.4056643556
21
-21.8096571883
31
0.0000000000
11
10.5617153107
21
-21.7942911038
31
0.0000000000
11
10.7117709020
21
-21.7487798159
31
0.0000000000
11
10.8500644424
21
-21.6748676096
31
0.0000000000
11
10.9712785583
21
-21.5753929195
31
0.0000000000
11
11.0707531442
21
-21.4541788030
31
0.0000000000
11
11.1446652247
21
-21.3158853725
31
0.0000000000
11
11.1901764411
21
-21.1658299182
31
0.0000000000
11
11.2055425117
21
-21.0097790321
31
0.0000000000
0
SPLINE
5
425
100
AcDbEntity
8
0
100
AcDbSpline
62
0
6
CONTINUOUS
70
0
71
3
72
10
73
6
74
4
42
0.0000001000
43
0.0000001000
44
0.0000000001
12
0.0000000000
22
-0.4526220516
32
0.0000000000
13
-0.4535784191
23
-0.0208467880
33
0.0000000000
40
0.0000000000
40
0.0000000000
40
0.0000000000
40
0.0000000000
40
0.3430920575
40
0.6861784582
40
1.0000000000
40
1.0000000000
40
1.0000000000
40
1.0000000000
10
-4.5062616064
20
18.8403428117
30
0.0000000000
10
-4.5062616064
20
18.7885791348
30
0.0000000000
10
-4.5343838364
20
18.6830646388
30
0.0000000000
10
-4.6457178191
20
18.5717250829
30
0.0000000000
10
-4.7455427063
20
18.5428291341
30
0.0000000000
10
-4.7929902659
20
18.5406484104
30
0.0000000000
11
-4.5062616064
21
18.8403428117
31
0.0000000000
11
-4.5464524548
21
18.6903428117
31
0.0000000000
11
-4.6562558948
21
18.5805351906
31
0.0000000000
11
-4.7929902659
21
18.5406484104
31
0.0000000000
0
SPLINE
5
426
100
AcDbEntity
8
0
100
AcDbSpline
62
0
6
CONTINUOUS
70
0
71
3
72
8
73
4
74
2
42
0.0000001000
43
0.0000001000
44
0.0000000001
12
-0.0132713426
22
-0.0006099604
32
0.0000000000
13
-0.0132433600
23
0.0000000000
33
0.0000000000
40
0.0000000000
40
0.0000000000
40
0.0000000000
40
0.0000000000
40
1.0000000000
40
1.0000000000
40
1.0000000000
40
1.0000000000
10
-4.7929902659
20
18.5406484104
30
0.0000000000
10
-4.7974140468
20
18.5404450903
30
0.0000000000
10
-4.8018357299
20
18.5403428117
30
0.0000000000
10
-4.8062501833
20
18.5403428117
30
0.0000000000
11
-4.7929902659
21
18.5406484104
31
0.0000000000
11
-4.8062501833
21
18.5403428117
31
0.0000000000
0
SPLINE
5
427
100
AcDbEntity
8
0
100
AcDbSpline
62
0
6
CONTINUOUS
70
0
71
3
72
10
73
6
74
4
42
0.0000001000
43
0.0000001000
44
0.0000000001
12
0.0000000000
22
-0.4658654117
32
0.0000000000
13
-0.4658654117
23
0.0000000000
33
0.0000000000
40
0.0000000000
40
0.0000000000
40
0.0000000000
40
0.0000000000
40
0.3333388294
40
0.6666721627
40
1.0000000000
40
1.0000000000
40
1.0000000000
40
1.0000000000
10
5.4937383936
20
18.8403428117
30
0.0000000000
10
5.4937383936
20
18.7885791348
30
0.0000000000
10
5.4656161636
20
18.6830646388
30
0.0000000000
10
5.3510246374
20
18.5684673763
30
0.0000000000
10
5.2455117868
20
18.5403428117
30
0.0000000000
10
5.1937498167
20
18.5403428117
30
0.0000000000
11
5.4937383936
21
18.8403428117
31
0.0000000000
11
5.4535475452
21
18.6903428117
31
0.0000000000
11
5.3437441052
21
18.5805351906
31
0.0000000000
11
5.1937498167
21
18.5403428117
31
0.0000000000
0
SPLINE
5
428
100
AcDbEntity
8
0
100
AcDbSpline
62
0
6
CONTINUOUS
70
0
71
3
72
10
73
6
74
4
42
0.0000001000
43
0.0000001000
44
0.0000000001
12
-0.4658654117
22
0.0000000000
32
0.0000000000
13
0.0000000000
23
0.4658654117
33
0.0000000000
40
0.0000000000
40
0.0000000000
40
0.0000000000
40
0.0000000000
40
0.3333278373
40
0.6666611706
40
1.0000000000
40
1.0000000000
40
1.0000000000
40
1.0000000000
10
5.0173352068
20
18.5403428117
30
0.0000000000
10
4.9655732367
20
18.5403428117
30
0.0000000000
10
4.8600603861
20
18.5684673763
30
0.0000000000
10
4.7454688598
20
18.6830646388
30
0.0000000000
10
4.7173466299
20
18.7885791348
30
0.0000000000
10
4.7173466299
20
18.8403428117
30
0.0000000000
11
5.0173352068
21
18.5403428117
31
0.0000000000
11
4.8673409183
21
18.5805351906
31
0.0000000000
11
4.7575374783
21
18.6903428117
31
0.0000000000
11
4.7173466299
21
18.8403428117
31
0.0000000000
0
SPLINE
5
429
100
AcDbEntity
8
0
100
AcDbSpline
62
9
6
CONTINUOUS
70
0
71
3
72
10
73
6
74
4
42
0.0000001000
43
0.0000001000
44
0.0000000001
12
0.0234943415
22
0.0363732506
32
0.0000000000
13
0.0235772974
23
0.0363195332
33
0.0000000000
40
0.0000000000
40
0.0000000000
40
0.0000000000
40
0.0000000000
40
0.3327682483
40
0.6661008225
40
1.0000000000
40
1.0000000000
40
1.0000000000
40
1.0000000000
10
-6.7099074591
20
-14.7671503618
30
0.0000000000
10
-6.7073014022
20
-14.7631157408
30
0.0000000000
10
-6.7020818179
20
-14.7550416269
30
0.0000000000
10
-6.6942365955
20
-14.7429261174
30
0.0000000000
10
-6.6889958493
20
-14.7348462596
30
0.0000000000
10
-6.6863717025
20
-14.7308039055
30
0.0000000000
11
-6.7099074591
21
-14.7671503618
31
0.0000000000
11
-6.7020847114
21
-14.7550494564
31
0.0000000000
11
-6.6942395021
21
-14.7429339791
31
0.0000000000
11
-6.6863717025
21
-14.7308039055
31
0.0000000000
0
SPLINE
5
42A
100
AcDbEntity
8
0
100
AcDbSpline
62
9
6
CONTINUOUS
70
0
71
3
72
10
73
6
74
4
42
0.0000001000
43
0.0000001000
44
0.0000000001
12
0.0234943415
22
-0.0363732506
32
0.0000000000
13
0.0235772974
23
-0.0363195332
33
0.0000000000
40
0.0000000000
40
0.0000000000
40
0.0000000000
40
0.0000000000
40
0.3327682483
40
0.6661008225
40
1.0000000000
40
1.0000000000
40
1.0000000000
40
1.0000000000
10
-6.7099074591
20
-11.1521640147
30
0.0000000000
10
-6.7073014022
20
-11.1561986357
30
0.0000000000
10
-6.7020818179
20
-11.1642727496
30
0.0000000000
10
-6.6942365955
20
-11.1763882591
30
0.0000000000
10
-6.6889958493
20
-11.1844681169
30
0.0000000000
10
-6.6863717025
20
-11.1885104710
30
0.0000000000
11
-6.7099074591
21
-11.1521640147
31
0.0000000000
11
-6.7020847114
21
-11.1642649201
31
0.0000000000
11
-6.6942395021
21
-11.1763803974
31
0.0000000000
11
-6.6863717025
21
-11.1885104710
31
0.0000000000
0
SPLINE
5
42B
100
AcDbEntity
8
0
100
AcDbSpline
62
9
6
CONTINUOUS
70
0
71
3
72
10
73
6
74
4
42
0.0000001000
43
0.0000001000
44
0.0000000001
12
-0.0234943415
22
0.0363732506
32
0.0000000000
13
-0.0235772974
23
0.0363195332
33
0.0000000000
40
0.0000000000
40
0.0000000000
40
0.0000000000
40
0.0000000000
40
0.3327682483
40
0.6661008225
40
1.0000000000
40
1.0000000000
40
1.0000000000
40
1.0000000000
10
6.9209924826
20
-14.7671503618
30
0.0000000000
10
6.9183864256
20
-14.7631157408
30
0.0000000000
10
6.9131668414
20
-14.7550416269
30
0.0000000000
10
6.9053216190
20
-14.7429261174
30
0.0000000000
10
6.9000808727
20
-14.7348462596
30
0.0000000000
10
6.8974567260
20
-14.7308039055
30
0.0000000000
11
6.9209924826
21
-14.7671503618
31
0.0000000000
11
6.9131697349
21
-14.7550494564
31
0.0000000000
11
6.9053245256
21
-14.7429339791
31
0.0000000000
11
6.8974567260
21
-14.7308039055
31
0.0000000000
0
SPLINE
5
42C
100
AcDbEntity
8
0
100
AcDbSpline
62
9
6
CONTINUOUS
70
0
71
3
72
10
73
6
74
4
42
0.0000001000
43
0.0000001000
44
0.0000000001
12
-0.0234943415
22
-0.0363732506
32
0.0000000000
13
-0.0235772974
23
-0.0363195332
33
0.0000000000
40
0.0000000000
40
0.0000000000
40
0.0000000000
40
0.0000000000
40
0.3327682483
40
0.6661008225
40
1.0000000000
40
1.0000000000
40
1.0000000000
40
1.0000000000
10
6.9209924826
20
-11.1521640147
30
0.0000000000
10
6.9183864256
20
-11.1561986357
30
0.0000000000
10
6.9131668414
20
-11.1642727496
30
0.0000000000
10
6.9053216190
20
-11.1763882591
30
0.0000000000
10
6.9000808727
20
-11.1844681169
30
0.0000000000
10
6.8974567260
20
-11.1885104710
30
0.0000000000
11
6.9209924826
21
-11.1521640147
31
0.0000000000
11
6.9131697349
21
-11.1642649201
31
0.0000000000
11
6.9053245256
21
-11.1763803974
31
0.0000000000
11
6.8974567260
21
-11.1885104710
31
0.0000000000
0
SPLINE
5
42D
100
AcDbEntity
8
0
100
AcDbSpline
62
0
6
CONTINUOUS
70
0
71
3
72
8
73
4
74
2
42
0.0000001000
43
0.0000001000
44
0.0000000001
12
-0.0000198793
22
0.0338368561
32
0.0000000000
13
0.0003966189
23
0.0339643560
33
0.0000000000
40
0.0000000000
40
0.0000000000
40
0.0000000000
40
0.0000000000
40
1.0000000000
40
1.0000000000
40
1.0000000000
40
1.0000000000
10
-4.4937993564
20
20.1038008333
30
0.0000000000
10
-4.4938059828
20
20.1150797853
30
0.0000000000
10
-4.4936492392
20
20.1264053920
30
0.0000000000
10
-4.4935170329
20
20.1377268440
30
0.0000000000
11
-4.4937993564
21
20.1038008333
31
0.0000000000
11
-4.4935170329
21
20.1377268440
31
0.0000000000
0
SPLINE
5
42E
100
AcDbEntity
8
0
100
AcDbSpline
62
0
6
CONTINUOUS
70
0
71
3
72
10
73
6
74
4
42
0.0000001000
43
0.0000001000
44
0.0000000001
12
0.0017900529
22
0.1532907302
32
0.0000000000
13
-0.0682922033
23
0.1365948094
33
0.0000000000
40
0.0000000000
40
0.0000000000
40
0.0000000000
40
0.0000000000
40
0.3889904370
40
0.8316380012
40
1.0000000000
40
1.0000000000
40
1.0000000000
40
1.0000000000
10
-4.4935170329
20
20.1377268440
30
0.0000000000
10
-4.4932849284
20
20.1576030534
30
0.0000000000
10
-4.4929503942
20
20.2000698078
30
0.0000000000
10
-4.4985522978
20
20.2495523113
30
0.0000000000
10
-4.4916777233
20
20.2826707285
30
0.0000000000
10
-4.4955103272
20
20.2903365203
30
0.0000000000
11
-4.4935170329
21
20.1377268440
31
0.0000000000
11
-4.4940644143
21
20.1970421150
31
0.0000000000
11
-4.4946844207
21
20.2646383332
31
0.0000000000
11
-4.4955103272
21
20.2903365203
31
0.0000000000
0
SPLINE
5
42F
100
AcDbEntity
8
0
100
AcDbSpline
62
0
6
CONTINUOUS
70
0
71
3
72
10
73
6
74
4
42
0.0000001000
43
0.0000001000
44
0.0000000001
12
-0.0682922033
22
-0.1365948094
32
0.0000000000
13
0.0017900529
23
-0.1532907302
33
0.0000000000
40
0.0000000000
40
0.0000000000
40
0.0000000000
40
0.0000000000
40
0.1683619988
40
0.6110095630
40
1.0000000000
40
1.0000000000
40
1.0000000000
40
1.0000000000
10
-5.2934046493
20
20.2903365203
30
0.0000000000
10
-5.2972372532
20
20.2826707285
30
0.0000000000
10
-5.2903626788
20
20.2495523113
30
0.0000000000
10
-5.2959645823
20
20.2000698078
30
0.0000000000
10
-5.2956300481
20
20.1576030534
30
0.0000000000
10
-5.2953979436
20
20.1377268440
30
0.0000000000
11
-5.2934046493
21
20.2903365203
31
0.0000000000
11
-5.2942305558
21
20.2646383332
31
0.0000000000
11
-5.2948505622
21
20.1970421150
31
0.0000000000
11
-5.2953979436
21
20.1377268440
31
0.0000000000
0
SPLINE
5
430
100
AcDbEntity
8
0
100
AcDbSpline
62
0
6
CONTINUOUS
70
0
71
3
72
8
73
4
74
2
42
0.0000001000
43
0.0000001000
44
0.0000000001
12
0.0003966189
22
-0.0339643560
32
0.0000000000
13
-0.0000198793
23
-0.0338368561
33
0.0000000000
40
0.0000000000
40
0.0000000000
40
0.0000000000
40
0.0000000000
40
1.0000000000
40
1.0000000000
40
1.0000000000
40
1.0000000000
10
-5.2953979436
20
20.1377268440
30
0.0000000000
10
-5.2952657373
20
20.1264053920
30
0.0000000000
10
-5.2951089937
20
20.1150797853
30
0.0000000000
10
-5.2951156201
20
20.1038008333
30
0.0000000000
11
-5.2953979436
21
20.1377268440
31
0.0000000000
11
-5.2951156201
21
20.1038008333
31
0.0000000000
0
SPLINE
5
431
100
AcDbEntity
8
0
100
AcDbSpline
62
0
6
CONTINUOUS
70
0
71
3
72
9
73
5
74
3
42
0.0000001000
43
0.0000001000
44
0.0000000001
12
-0.1875216855
22
-0.2983694471
32
0.0000000000
13
-0.2106616470
23
-0.2825415338
33
0.0000000000
40
0.0000000000
40
0.0000000000
40
0.0000000000
40
0.0000000000
40
0.6012992107
40
1.0000000000
40
1.0000000000
40
1.0000000000
40
1.0000000000
10
5.9528748963
20
-15.3596571883
30
0.0000000000
10
5.9152893491
20
-15.4194602926
30
0.0000000000
10
5.8503885179
20
-15.5174320974
30
0.0000000000
10
5.7816609560
20
-15.6127350779
30
0.0000000000
10
5.7536639677
20
-15.6502849221
30
0.0000000000
11
5.9528748963
21
-15.3596571883
31
0.0000000000
11
5.8358561164
21
-15.5363160883
31
0.0000000000
11
5.7536639677
21
-15.6502849221
31
0.0000000000
0
SPLINE
5
432
100
AcDbEntity
8
0
100
AcDbSpline
62
0
6
CONTINUOUS
70
0
71
3
72
8
73
4
74
2
42
0.0000001000
43
0.0000001000
44
0.0000000001
12
-0.0418946999
22
-0.0561895957
32
0.0000000000
13
-0.0427784433
23
-0.0555128499
33
0.0000000000
40
0.0000000000
40
0.0000000000
40
0.0000000000
40
0.0000000000
40
1.0000000000
40
1.0000000000
40
1.0000000000
40
1.0000000000
10
5.7536639677
20
-15.6502849221
30
0.0000000000
10
5.7396990678
20
-15.6690147873
30
0.0000000000
10
5.7255860674
20
-15.6876333066
30
0.0000000000
10
5.7113265863
20
-15.7061375899
30
0.0000000000
11
5.7536639677
21
-15.6502849221
31
0.0000000000
11
5.7113265863
21
-15.7061375899
31
0.0000000000
0
SPLINE
5
433
100
AcDbEntity
8
0
100
AcDbSpline
62
0
6
CONTINUOUS
70
0
71
3
72
8
73
4
74
2
42
0.0000001000
43
0.0000001000
44
0.0000000001
12
-0.0781997658
22
0.0000000000
32
0.0000000000
13
-0.0761850971
23
0.0203857273
33
0.0000000000
40
0.0000000000
40
0.0000000000
40
0.0000000000
40
0.0000000000
40
1.0000000000
40
1.0000000000
40
1.0000000000
40
1.0000000000
10
-4.9959867960
20
18.5403428117
30
0.0000000000
10
-5.0220533846
20
18.5403428117
30
0.0000000000
10
-5.0483114363
20
18.5438269622
30
0.0000000000
10
-5.0737064687
20
18.5506222046
30
0.0000000000
11
-4.9959867960
21
18.5403428117
31
0.0000000000
11
-5.0737064687
21
18.5506222046
31
0.0000000000
0
SPLINE
5
434
100
AcDbEntity
8
0
100
AcDbSpline
62
0
6
CONTINUOUS
70
0
71
3
72
9
73
5
74
3
42
0.0000001000
43
0.0000001000
44
0.0000000001
12
-0.1134355786
22
0.0303532693
32
0.0000000000
13
-0.0930173278
23
0.0711766368
33
0.0000000000
40
0.0000000000
40
0.0000000000
40
0.0000000000
40
0.0000000000
40
0.3338310232
40
1.0000000000
40
1.0000000000
40
1.0000000000
40
1.0000000000
10
-5.0737064687
20
18.5506222046
30
0.0000000000
10
-5.0863292405
20
18.5539998256
30
0.0000000000
10
-5.1235023870
20
18.5665680920
30
0.0000000000
10
-5.1576002569
20
18.5862862254
30
0.0000000000
10
-5.1782553430
20
18.6020914479
30
0.0000000000
11
-5.0737064687
21
18.5506222046
31
0.0000000000
11
-5.1108056210
21
18.5631879837
31
0.0000000000
11
-5.1782553430
21
18.6020914479
31
0.0000000000
0
SPLINE
5
435
100
AcDbEntity
8
0
100
AcDbSpline
62
0
6
CONTINUOUS
70
0
71
3
72
9
73
5
74
3
42
0.0000001000
43
0.0000001000
44
0.0000000001
12
-0.0621281553
22
0.0475403159
32
0.0000000000
13
-0.0477446855
23
0.0619758402
33
0.0000000000
40
0.0000000000
40
0.0000000000
40
0.0000000000
40
0.0000000000
40
0.4994285084
40
1.0000000000
40
1.0000000000
40
1.0000000000
40
1.0000000000
10
-5.1782553430
20
18.6020914479
30
0.0000000000
10
-5.1885982003
20
18.6100057775
30
0.0000000000
10
-5.2082734180
20
18.6271928499
30
0.0000000000
10
-5.2255280327
20
18.6468102090
30
0.0000000000
10
-5.2334945755
20
18.6571513219
30
0.0000000000
11
-5.1782553430
21
18.6020914479
31
0.0000000000
11
-5.2076471614
21
18.6277793889
31
0.0000000000
11
-5.2334945755
21
18.6571513219
31
0.0000000000
0
SPLINE
5
436
100
AcDbEntity
8
0
100
AcDbSpline
62
0
6
CONTINUOUS
70
0
71
3
72
9
73
5
74
3
42
0.0000001000
43
0.0000001000
44
0.0000000001
12
-0.1201683711
22
0.1559866964
32
0.0000000000
13
0.0001077252
23
0.1957376584
33
0.0000000000
40
0.0000000000
40
0.0000000000
40
0.0000000000
40
0.0000000000
40
0.3984369296
40
1.0000000000
40
1.0000000000
40
1.0000000000
40
1.0000000000
10
-5.2334945755
20
18.6571513219
30
0.0000000000
10
-5.2494544145
20
18.6778682754
30
0.0000000000
10
-5.2827553471
20
18.7351140975
30
0.0000000000
10
-5.2958560366
20
18.8010932962
30
0.0000000000
10
-5.2958344355
20
18.8403428117
30
0.0000000000
11
-5.2334945755
21
18.6571513219
31
0.0000000000
11
-5.2727842284
21
18.7248724155
31
0.0000000000
11
-5.2958344355
21
18.8403428117
31
0.0000000000
0
SPLINE
5
437
100
AcDbEntity
8
0
100
AcDbSpline
62
9
6
CONTINUOUS
70
0
71
3
72
9
73
5
74
3
42
0.0000001000
43
0.0000001000
44
0.0000000001
12
0.0114494373
22
9.7434669687
32
0.0000000000
13
0.0058759983
23
9.7434719239
33
0.0000000000
40
0.0000000000
40
0.0000000000
40
0.0000000000
40
0.0000000000
40
0.4999104849
40
1.0000000000
40
1.0000000000
40
1.0000000000
40
1.0000000000
10
-9.6944512560
20
-20.0096814169
30
0.0000000000
10
-9.6925433580
20
-18.3860609846
30
0.0000000000
10
-9.6891926064
20
-15.1382380979
30
0.0000000000
10
-9.6867703855
20
-11.8904143862
30
0.0000000000
10
-9.6857908771
20
-10.2662116696
30
0.0000000000
11
-9.6944512560
21
-20.0096814169
31
0.0000000000
11
-9.6894252559
21
-15.1388193501
31
0.0000000000
11
-9.6857908771
21
-10.2662116696
31
0.0000000000
0
SPLINE
5
438
100
AcDbEntity
8
0
100
AcDbSpline
62
9
6
CONTINUOUS
70
0
71
3
72
9
73
5
74
3
42
0.0000001000
43
0.0000001000
44
0.0000000001
12
-0.0055783957
22
-4.7472135960
32
0.0000000000
13
-0.0042535242
23
-4.7472149680
33
0.0000000000
40
0.0000000000
40
0.0000000000
40
0.0000000000
40
0.0000000000
40
0.4999562760
40
1.0000000000
40
1.0000000000
40
1.0000000000
40
1.0000000000
10
9.9055362460
20
20.0903670070
30
0.0000000000
10
9.9046065947
20
19.2992339300
30
0.0000000000
10
9.9028577353
20
17.7168292661
30
0.0000000000
10
9.9013294862
20
16.1344243738
30
0.0000000000
10
9.9006205035
20
15.3431526901
30
0.0000000000
11
9.9055362460
21
20.0903670070
31
0.0000000000
11
9.9029130312
21
17.7169675871
31
0.0000000000
11
9.9006205035
21
15.3431526901
31
0.0000000000
0
SPLINE
5
439
100
AcDbEntity
8
0
100
AcDbSpline
62
9
6
CONTINUOUS
70
0
71
3
72
10
73
6
74
4
42
0.0000001000
43
0.0000001000
44
0.0000000001
12
-0.0000945766
22
-0.3105082439
32
0.0000000000
13
-0.3105082439
23
-0.0000945766
33
0.0000000000
40
0.0000000000
40
0.0000000000
40
0.0000000000
40
0.0000000000
40
0.3333248774
40
0.6666751226
40
1.0000000000
40
1.0000000000
40
1.0000000000
40
1.0000000000
10
9.9055362202
20
-20.0096813577
30
0.0000000000
10
9.9055257120
20
-20.0441813985
30
0.0000000000
10
9.8867623378
20
-20.1145014432
30
0.0000000000
10
9.8103867667
20
-20.1908770144
30
0.0000000000
10
9.7400667220
20
-20.2096403885
30
0.0000000000
10
9.7055666812
20
-20.2096508968
30
0.0000000000
11
9.9055362202
21
-20.0096813577
31
0.0000000000
11
9.8787250838
21
-20.1096485487
31
0.0000000000
11
9.8055338722
21
-20.1828397603
31
0.0000000000
11
9.7055666812
21
-20.2096508968
31
0.0000000000
0
SPLINE
5
43A
100
AcDbEntity
8
0
100
AcDbSpline
62
9
6
CONTINUOUS
70
0
71
3
72
10
73
6
74
4
42
0.0000001000
43
0.0000001000
44
0.0000000001
12
0.2002847392
22
0.0161116315
32
0.0000000000
13
0.0239988525
23
0.1994933997
33
0.0000000000
40
0.0000000000
40
0.0000000000
40
0.0000000000
40
0.0000000000
40
0.4927581058
40
0.8570816232
40
1.0000000000
40
1.0000000000
40
1.0000000000
40
1.0000000000
10
9.7055666812
20
-20.0231152098
30
0.0000000000
10
9.7384639908
20
-20.0204688308
30
0.0000000000
10
9.8010238664
20
-20.0263202957
30
0.0000000000
10
9.8534049762
20
-20.0120999449
30
0.0000000000
10
9.9043929279
20
-20.0191851153
30
0.0000000000
10
9.9055362202
20
-20.0096813577
30
0.0000000000
11
9.7055666812
21
-20.0231152098
31
0.0000000000
11
9.8045595558
21
-20.0212343902
31
0.0000000000
11
9.8775990803
21
-20.0163276310
31
0.0000000000
11
9.9055362202
21
-20.0096813577
31
0.0000000000
0
SPLINE
5
43B
100
AcDbEntity
8
0
100
AcDbSpline
62
0
6
CONTINUOUS
70
0
71
3
72
10
73
6
74
4
42
0.0000001000
43
0.0000001000
44
0.0000000001
12
0.0000000000
22
-0.3105397744
32
0.0000000000
13
-0.3105397744
23
-0.0000000000
33
0.0000000000
40
0.0000000000
40
0.0000000000
40
0.0000000000
40
0.0000000000
40
0.3333495664
40
0.6666499237
40
1.0000000000
40
1.0000000000
40
1.0000000000
40
1.0000000000
10
10.0055425117
20
-20.1096876492
30
0.0000000000
10
10.0055425117
20
-20.1441937489
30
0.0000000000
10
9.9868004632
20
-20.2145271749
30
0.0000000000
10
9.9104126097
20
-20.2909150934
30
0.0000000000
10
9.8400791252
20
-20.3096571883
30
0.0000000000
10
9.8055729727
20
-20.3096571883
30
0.0000000000
11
10.0055425117
21
-20.1096876492
31
0.0000000000
11
9.9787524149
21
-20.2096792937
31
0.0000000000
11
9.9055647592
21
-20.2828670094
31
0.0000000000
11
9.8055729727
21
-20.3096571883
31
0.0000000000
0
SPLINE
5
43C
100
AcDbEntity
8
0
100
AcDbSpline
62
9
6
CONTINUOUS
70
0
71
3
72
10
73
6
74
4
42
0.0000001000
43
0.0000001000
44
0.0000000001
12
-0.1759060596
22
-0.0971127323
32
0.0000000000
13
-0.2005585331
23
-0.0122515064
33
0.0000000000
40
0.0000000000
40
0.0000000000
40
0.0000000000
40
0.0000000000
40
0.1429214395
40
0.5072437679
40
1.0000000000
40
1.0000000000
40
1.0000000000
40
1.0000000000
10
9.9055362202
20
20.0903669812
30
0.0000000000
10
9.8971559712
20
20.0857404841
30
0.0000000000
10
9.8622420572
20
20.1101916740
30
0.0000000000
10
9.7963382388
20
20.0962415886
30
0.0000000000
10
9.7385088369
20
20.1058131686
30
0.0000000000
10
9.7055666812
20
20.1038008333
30
0.0000000000
11
9.9055362202
21
20.0903669812
31
0.0000000000
11
9.8775990846
21
20.0970163353
31
0.0000000000
11
9.8045595604
21
20.1019230945
31
0.0000000000
11
9.7055666812
21
20.1038008333
31
0.0000000000
0
SPLINE
5
43D
100
AcDbEntity
8
0
100
AcDbSpline
62
0
6
CONTINUOUS
70
0
71
3
72
10
73
6
74
4
42
0.0000001000
43
0.0000001000
44
0.0000000001
12
0.3105397744
22
0.0000000000
32
0.0000000000
13
0.0000000000
23
-0.3105397744
33
0.0000000000
40
0.0000000000
40
0.0000000000
40
0.0000000000
40
0.0000000000
40
0.3333495664
40
0.6666499237
40
1.0000000000
40
1.0000000000
40
1.0000000000
40
1.0000000000
10
9.8055729727
20
20.3903428117
30
0.0000000000
10
9.8400790724
20
20.3903428117
30
0.0000000000
10
9.9104124984
20
20.3716007632
30
0.0000000000
10
9.9868004169
20
20.2952129097
30
0.0000000000
10
10.0055425117
20
20.2248794252
30
0.0000000000
10
10.0055425117
20
20.1903732727
30
0.0000000000
11
9.8055729727
21
20.3903428117
31
0.0000000000
11
9.9055646172
21
20.3635527149
31
0.0000000000
11
9.9787523329
21
20.2903650592
31
0.0000000000
11
10.0055425117
21
20.1903732727
31
0.0000000000
0
SPLINE
5
43E
100
AcDbEntity
8
0
100
AcDbSpline
62
9
6
CONTINUOUS
70
0
71
3
72
10
73
6
74
4
42
0.0000001000
43
0.0000001000
44
0.0000000001
12
0.0000945766
22
0.3105082439
32
0.0000000000
13
0.3105082439
23
0.0000945766
33
0.0000000000
40
0.0000000000
40
0.0000000000
40
0.0000000000
40
0.0000000000
40
0.3333248774
40
0.6666751226
40
1.0000000000
40
1.0000000000
40
1.0000000000
40
1.0000000000
10
-9.6944511968
20
20.0903669812
30
0.0000000000
10
-9.6944406885
20
20.1248670220
30
0.0000000000
10
-9.6756773144
20
20.1951870667
30
0.0000000000
10
-9.5993017432
20
20.2715626379
30
0.0000000000
10
-9.5289816985
20
20.2903260120
30
0.0000000000
10
-9.4944816577
20
20.2903365203
30
0.0000000000
11
-9.6944511968
21
20.0903669812
31
0.0000000000
11
-9.6676400603
21
20.1903341722
31
0.0000000000
11
-9.5944488487
21
20.2635253838
31
0.0000000000
11
-9.4944816577
21
20.2903365203
31
0.0000000000
0
SPLINE
5
43F
100
AcDbEntity
8
0
100
AcDbSpline
62
9
6
CONTINUOUS
70
0
71
3
72
10
73
6
74
4
42
0.0000001000
43
0.0000001000
44
0.0000000001
12
-0.2002861342
22
-0.0161024540
32
0.0000000000
13
-0.0239919681
23
-0.1994948873
33
0.0000000000
40
0.0000000000
40
0.0000000000
40
0.0000000000
40
0.0000000000
40
0.4927562321
40
0.8570785605
40
1.0000000000
40
1.0000000000
40
1.0000000000
40
1.0000000000
10
-9.4944816577
20
20.1038008333
30
0.0000000000
10
-9.5273790714
20
20.1011559718
30
0.0000000000
10
-9.5899385755
20
20.1070076769
30
0.0000000000
10
-9.6423206447
20
20.0927920948
30
0.0000000000
10
-9.6933082079
20
20.0998710134
30
0.0000000000
10
-9.6944511968
20
20.0903669812
30
0.0000000000
11
-9.4944816577
21
20.1038008333
31
0.0000000000
11
-9.5934745370
21
20.1019230945
31
0.0000000000
11
-9.6665140611
21
20.0970163353
31
0.0000000000
11
-9.6944511968
21
20.0903669812
31
0.0000000000
0
SPLINE
5
440
100
AcDbEntity
8
0
100
AcDbSpline
62
0
6
CONTINUOUS
70
0
71
3
72
10
73
6
74
4
42
0.0000001000
43
0.0000001000
44
0.0000000001
12
0.0000000000
22
0.3105397744
32
0.0000000000
13
0.3105397744
23
-0.0000000000
33
0.0000000000
40
0.0000000000
40
0.0000000000
40
0.0000000000
40
0.0000000000
40
0.3333500763
40
0.6666504336
40
1.0000000000
40
1.0000000000
40
1.0000000000
40
1.0000000000
10
-9.7944574883
20
20.1903732727
30
0.0000000000
10
-9.7944574883
20
20.2248794252
30
0.0000000000
10
-9.7757153934
20
20.2952129097
30
0.0000000000
10
-9.6993274749
20
20.3716007632
30
0.0000000000
10
-9.6289940489
20
20.3903428117
30
0.0000000000
10
-9.5944879492
20
20.3903428117
30
0.0000000000
11
-9.7944574883
21
20.1903732727
31
0.0000000000
11
-9.7676673094
21
20.2903650592
31
0.0000000000
11
-9.6944795937
21
20.3635527149
31
0.0000000000
11
-9.5944879492
21
20.3903428117
31
0.0000000000
0
SPLINE
5
441
100
AcDbEntity
8
0
100
AcDbSpline
62
9
6
CONTINUOUS
70
0
71
3
72
9
73
5
74
3
42
0.0000001000
43
0.0000001000
44
0.0000000001
12
0.0058759983
22
-9.7434719239
32
0.0000000000
13
0.0114494373
23
-9.7434669687
33
0.0000000000
40
0.0000000000
40
0.0000000000
40
0.0000000000
40
0.0000000000
40
0.5000895151
40
1.0000000000
40
1.0000000000
40
1.0000000000
40
1.0000000000
10
9.8968759005
20
-10.2662116696
30
0.0000000000
10
9.8978554089
20
-11.8904143862
30
0.0000000000
10
9.9002776299
20
-15.1382380979
30
0.0000000000
10
9.9036283815
20
-18.3860609846
30
0.0000000000
10
9.9055362794
20
-20.0096814169
30
0.0000000000
11
9.8968759005
21
-10.2662116696
31
0.0000000000
11
9.9005102793
21
-15.1388193501
31
0.0000000000
11
9.9055362794
21
-20.0096814169
31
0.0000000000
0
SPLINE
5
442
100
AcDbEntity
8
0
100
AcDbSpline
62
9
6
CONTINUOUS
70
0
71
3
72
10
73
6
74
4
42
0.0000001000
43
0.0000001000
44
0.0000000001
12
0.1757065723
22
0.0974718518
32
0.0000000000
13
0.2005583848
23
0.0122431907
33
0.0000000000
40
0.0000000000
40
0.0000000000
40
0.0000000000
40
0.0000000000
40
0.1429183768
40
0.5072418942
40
1.0000000000
40
1.0000000000
40
1.0000000000
40
1.0000000000
10
-9.6944511968
20
-20.0096813577
30
0.0000000000
10
-9.6860806307
20
-20.0050378514
30
0.0000000000
10
-9.6511443821
20
-20.0295203945
30
0.0000000000
10
-9.5852597069
20
-20.0155430662
30
0.0000000000
10
-9.5274239143
20
-20.0251261869
30
0.0000000000
10
-9.4944816577
20
-20.0231152098
30
0.0000000000
11
-9.6944511968
21
-20.0096813577
31
0.0000000000
11
-9.6665140568
21
-20.0163276310
31
0.0000000000
11
-9.5934745323
21
-20.0212343902
31
0.0000000000
11
-9.4944816577
21
-20.0231152098
31
0.0000000000
0
SPLINE
5
443
100
AcDbEntity
8
0
100
AcDbSpline
62
0
6
CONTINUOUS
70
0
71
3
72
10
73
6
74
4
42
0.0000001000
43
0.0000001000
44
0.0000000001
12
-0.3105397744
22
0.0000000000
32
0.0000000000
13
-0.0000000000
23
0.3105397744
33
0.0000000000
40
0.0000000000
40
0.0000000000
40
0.0000000000
40
0.0000000000
40
0.3333495664
40
0.6666499237
40
1.0000000000
40
1.0000000000
40
1.0000000000
40
1.0000000000
10
-9.5944879492
20
-20.3096571883
30
0.0000000000
10
-9.6289940489
20
-20.3096571883
30
0.0000000000
10
-9.6993274749
20
-20.2909151397
30
0.0000000000
10
-9.7757153934
20
-20.2145272862
30
0.0000000000
10
-9.7944574883
20
-20.1441938017
30
0.0000000000
10
-9.7944574883
20
-20.1096876492
30
0.0000000000
11
-9.5944879492
21
-20.3096571883
31
0.0000000000
11
-9.6944795937
21
-20.2828670914
31
0.0000000000
11
-9.7676673094
21
-20.2096794357
31
0.0000000000
11
-9.7944574883
21
-20.1096876492
31
0.0000000000
0
SPLINE
5
444
100
AcDbEntity
8
0
100
AcDbSpline
62
9
6
CONTINUOUS
70
0
71
3
72
10
73
6
74
4
42
0.0000001000
43
0.0000001000
44
0.0000000001
12
-0.0209856391
22
-24.3897374437
32
0.0000000000
13
0.0138323985
23
-24.3897425496
33
0.0000000000
40
0.0000000000
40
0.0000000000
40
0.0000000000
40
0.0000000000
40
0.3332161416
40
0.6665972125
40
1.0000000000
40
1.0000000000
40
1.0000000000
40
1.0000000000
10
9.9000881606
20
14.7370005904
30
0.0000000000
10
9.8977572427
20
12.0279825222
30
0.0000000000
10
9.8943863079
20
6.6086043213
30
0.0000000000
10
9.8931961538
20
-1.5213113577
30
0.0000000000
10
9.8949797209
20
-6.9422077294
30
0.0000000000
10
9.8965169743
20
-9.6527437806
30
0.0000000000
11
9.9000881606
21
14.7370005904
31
0.0000000000
11
9.8950312185
21
6.6099449508
31
0.0000000000
11
9.8938404234
21
-1.5211347598
31
0.0000000000
11
9.8965169743
21
-9.6527437806
31
0.0000000000
0
SPLINE
5
445
100
AcDbEntity
8
0
100
AcDbSpline
62
0
6
CONTINUOUS
70
0
71
3
72
10
73
6
74
4
42
0.0000001000
43
0.0000001000
44
0.0000000001
12
-0.0682922033
22
-0.1365948094
32
0.0000000000
13
0.0017900529
23
-0.1532907302
33
0.0000000000
40
0.0000000000
40
0.0000000000
40
0.0000000000
40
0.0000000000
40
0.1683619988
40
0.6110095630
40
1.0000000000
40
1.0000000000
40
1.0000000000
40
1.0000000000
10
4.7065953507
20
20.2903365203
30
0.0000000000
10
4.7027627468
20
20.2826707285
30
0.0000000000
10
4.7096373212
20
20.2495523113
30
0.0000000000
10
4.7040354177
20
20.2000698078
30
0.0000000000
10
4.7043699519
20
20.1576030534
30
0.0000000000
10
4.7046020564
20
20.1377268440
30
0.0000000000
11
4.7065953507
21
20.2903365203
31
0.0000000000
11
4.7057694442
21
20.2646383332
31
0.0000000000
11
4.7051494378
21
20.1970421150
31
0.0000000000
11
4.7046020564
21
20.1377268440
31
0.0000000000
0
SPLINE
5
446
100
AcDbEntity
8
0
100
AcDbSpline
62
0
6
CONTINUOUS
70
0
71
3
72
8
73
4
74
2
42
0.0000001000
43
0.0000001000
44
0.0000000001
12
0.0003966189
22
-0.0339643560
32
0.0000000000
13
-0.0000198793
23
-0.0338368561
33
0.0000000000
40
0.0000000000
40
0.0000000000
40
0.0000000000
40
0.0000000000
40
1.0000000000
40
1.0000000000
40
1.0000000000
40
1.0000000000
10
4.7046020564
20
20.1377268440
30
0.0000000000
10
4.7047342627
20
20.1264053920
30
0.0000000000
10
4.7048910063
20
20.1150797853
30
0.0000000000
10
4.7048843799
20
20.1038008333
30
0.0000000000
11
4.7046020564
21
20.1377268440
31
0.0000000000
11
4.7048843799
21
20.1038008333
31
0.0000000000
0
SPLINE
5
447
100
AcDbEntity
8
0
100
AcDbSpline
62
9
6
CONTINUOUS
70
0
71
3
72
10
73
6
74
4
42
0.0000001000
43
0.0000001000
44
0.0000000001
12
-0.9692394636
22
0.0000659708
32
0.0000000000
13
-0.9692394658
23
-0.0000010633
33
0.0000000000
40
0.0000000000
40
0.0000000000
40
0.0000000000
40
0.0000000000
40
0.3201261013
40
0.6600053129
40
1.0000000000
40
1.0000000000
40
1.0000000000
40
1.0000000000
10
-1.9944526388
20
-20.2093909759
30
0.0000000000
10
-2.0978789223
20
-20.2093839362
30
0.0000000000
10
-2.3111133236
20
-20.2094333768
30
0.0000000000
10
-2.6341931078
20
-20.2095812962
30
0.0000000000
10
-2.8538466424
20
-20.2096507763
30
0.0000000000
10
-2.9636920654
20
-20.2096508968
30
0.0000000000
11
-1.9944526388
21
-20.2093909759
31
0.0000000000
11
-2.3047314858
21
-20.2094432336
31
0.0000000000
11
-2.6341558055
21
-20.2095735102
31
0.0000000000
11
-2.9636920654
21
-20.2096508968
31
0.0000000000
0
SPLINE
5
448
100
AcDbEntity
8
0
100
AcDbSpline
62
9
6
CONTINUOUS
70
0
71
3
72
10
73
6
74
4
42
0.0000001000
43
0.0000001000
44
0.0000000001
12
-0.9692393058
22
0.0000010587
32
0.0000000000
13
-0.9692393036
23
-0.0000659892
33
0.0000000000
40
0.0000000000
40
0.0000000000
40
0.0000000000
40
0.0000000000
40
0.3399648458
40
0.6798675233
40
1.0000000000
40
1.0000000000
40
1.0000000000
40
1.0000000000
10
3.1747770888
20
-20.2096508968
30
0.0000000000
10
3.0649413251
20
-20.2096507768
30
0.0000000000
10
2.8452898865
20
-20.2095813033
30
0.0000000000
10
2.5222101557
20
-20.2094333796
30
0.0000000000
10
2.3089661485
20
-20.2093839341
30
0.0000000000
10
2.2055378222
20
-20.2093909759
30
0.0000000000
11
3.1747770888
21
-20.2096508968
31
0.0000000000
11
2.8452698068
21
-20.2095735218
31
0.0000000000
11
2.5158227973
21
-20.2094432350
31
0.0000000000
11
2.2055378222
21
-20.2093909759
31
0.0000000000
0
SPLINE
5
449
100
AcDbEntity
8
0
100
AcDbSpline
62
0
6
CONTINUOUS
70
0
71
3
72
21
73
17
74
15
42
0.0000001000
43
0.0000001000
44
0.0000000001
12
2.5546159632
22
0.0073311248
32
0.0000000000
13
2.5546258436
23
0.0018067160
33
0.0000000000
40
0.0000000000
40
0.0000000000
40
0.0000000000
40
0.0000000000
40
0.1115169553
40
0.2150898721
40
0.3112248033
40
0.4004293374
40
0.4832108438
40
0.5600310243
40
0.6312597998
40
0.6972494890
40
0.7583552256
40
0.8149072324
40
0.8671495266
40
0.9152642332
40
0.9594742335
40
1.0000000000
40
1.0000000000
40
1.0000000000
40
1.0000000000
10
7.1055425117
20
-20.3096571883
30
0.0000000000
10
7.2005035098
20
-20.3093846733
30
0.0000000000
10
7.3836608507
20
-20.3088592424
30
0.0000000000
10
7.6486808037
20
-20.3080996903
30
0.0000000000
10
7.8947008699
20
-20.3073954669
30
0.0000000000
10
8.1230162491
20
-20.3067429974
30
0.0000000000
10
8.3348843749
20
-20.3061388737
30
0.0000000000
10
8.5314454515
20
-20.3055801089
30
0.0000000000
10
8.7137076519
20
-20.3050642269
30
0.0000000000
10
8.8825884028
20
-20.3045892139
30
0.0000000000
10
9.0389713274
20
-20.3041535268
30
0.0000000000
10
9.1836478280
20
-20.3037564537
30
0.0000000000
10
9.3172619849
20
-20.3033991423
30
0.0000000000
10
9.4403664833
20
-20.3030848469
30
0.0000000000
10
9.5534939595
20
-20.3028256428
30
0.0000000000
10
9.6256499528
20
-20.3026995685
30
0.0000000000
10
9.6601593429
20
-20.3026751623
30
0.0000000000
11
7.1055425117
21
-20.3096571883
31
0.0000000000
11
7.3904255069
21
-20.3088399704
31
0.0000000000
11
7.6550145366
21
-20.3080817003
31
0.0000000000
11
7.9006023715
21
-20.3073787740
31
0.0000000000
11
8.1284857065
21
-20.3067276169
31
0.0000000000
11
8.3399606755
21
-20.3061247175
31
0.0000000000
11
8.5362067506
21
-20.3055669902
31
0.0000000000
11
8.7181689384
21
-20.3050521576
31
0.0000000000
11
8.8867472801
21
-20.3045782947
31
0.0000000000
11
9.0428490084
21
-20.3041438441
31
0.0000000000
11
9.1873177207
21
-20.3037481426
31
0.0000000000
11
9.3207767953
21
-20.3033925480
31
0.0000000000
11
9.4436915064
21
-20.3030819484
31
0.0000000000
11
9.5566312611
21
-20.3028291398
31
0.0000000000
11
9.6601593429
21
-20.3026751623
31
0.0000000000
0
SPLINE
5
44A
100
AcDbEntity
8
0
100
AcDbSpline
62
0
6
CONTINUOUS
70
0
71
3
72
9
73
5
74
3
42
0.0000001000
43
0.0000001000
44
0.0000000001
12
-0.1715790311
22
0.2226553340
32
0.0000000000
13
-0.1571222304
23
0.2331254868
33
0.0000000000
40
0.0000000000
40
0.0000000000
40
0.0000000000
40
0.0000000000
40
0.7493529556
40
1.0000000000
40
1.0000000000
40
1.0000000000
40
1.0000000000
10
-5.5002413500
20
-15.7061418181
30
0.0000000000
10
-5.5430991014
20
-15.6505260072
30
0.0000000000
10
-5.5985245115
20
-15.5749291386
30
0.0000000000
10
-5.6515168123
20
-15.4976354988
30
0.0000000000
10
-5.6646442199
20
-15.4781580941
30
0.0000000000
11
-5.5002413500
21
-15.7061418181
31
0.0000000000
11
-5.6247992277
21
-15.5362757457
31
0.0000000000
11
-5.6646442199
21
-15.4781580941
31
0.0000000000
0
SPLINE
5
44B
100
AcDbEntity
8
0
100
AcDbSpline
62
0
6
CONTINUOUS
70
0
71
3
72
8
73
4
74
2
42
0.0000001000
43
0.0000001000
44
0.0000000001
12
-0.0394686966
22
0.0585605174
32
0.0000000000
13
-0.0385285358
23
0.0591792562
33
0.0000000000
40
0.0000000000
40
0.0000000000
40
0.0000000000
40
0.0000000000
40
1.0000000000
40
1.0000000000
40
1.0000000000
40
1.0000000000
10
-5.6646442199
20
-15.4781580941
30
0.0000000000
10
-5.6778004521
20
-15.4586379216
30
0.0000000000
10
-5.6908010470
20
-15.4390133096
30
0.0000000000
10
-5.7036438923
20
-15.4192868909
30
0.0000000000
11
-5.6646442199
21
-15.4781580941
31
0.0000000000
11
-5.7036438923
21
-15.4192868909
31
0.0000000000
0
SPLINE
5
44C
100
AcDbEntity
8
0
100
AcDbSpline
62
0
6
CONTINUOUS
70
0
71
3
72
8
73
4
74
2
42
0.0000001000
43
0.0000001000
44
0.0000000001
12
-0.0386236981
22
0.0593254241
32
0.0000000000
13
-0.0376661348
23
0.0599313289
33
0.0000000000
40
0.0000000000
40
0.0000000000
40
0.0000000000
40
0.0000000000
40
1.0000000000
40
1.0000000000
40
1.0000000000
40
1.0000000000
10
-5.7036438923
20
-15.4192868909
30
0.0000000000
10
-5.7165184583
20
-15.3995117495
30
0.0000000000
10
-5.7292344945
20
-15.3796342979
30
0.0000000000
10
-5.7417898728
20
-15.3596571883
30
0.0000000000
11
-5.7036438923
21
-15.4192868909
31
0.0000000000
11
-5.7417898728
21
-15.3596571883
31
0.0000000000
0
SPLINE
5
44D
100
AcDbEntity
8
0
100
AcDbSpline
62
0
6
CONTINUOUS
70
0
71
3
72
21
73
17
74
15
42
0.0000001000
43
0.0000001000
44
0.0000000001
12
2.5546258436
22
-0.0018067160
32
0.0000000000
13
2.5546159632
23
-0.0073311248
33
0.0000000000
40
0.0000000000
40
0.0000000000
40
0.0000000000
40
0.0000000000
40
0.0405177273
40
0.0847277609
40
0.1328485325
40
0.1851007364
40
0.2416663502
40
0.3027890118
40
0.3687901499
40
0.4400157974
40
0.5168237066
40
0.5995944660
40
0.6887944357
40
0.7849269114
40
0.8884949002
40
1.0000000000
40
1.0000000000
40
1.0000000000
40
1.0000000000
10
-9.4490743194
20
-20.3026751623
30
0.0000000000
10
-9.4145717750
20
-20.3026995636
30
0.0000000000
10
-9.3424225992
20
-20.3028256145
30
0.0000000000
10
-9.2292967757
20
-20.3030848087
30
0.0000000000
10
-9.1061786459
20
-20.3033991370
30
0.0000000000
10
-8.9725392989
20
-20.3037565169
30
0.0000000000
10
-8.8278283606
20
-20.3041536867
30
0.0000000000
10
-8.6714096876
20
-20.3045894761
30
0.0000000000
10
-8.5025074389
20
-20.3050645521
30
0.0000000000
10
-8.3202486025
20
-20.3055804263
30
0.0000000000
10
-8.1237097906
20
-20.3061391288
30
0.0000000000
10
-7.9118651526
20
-20.3067431861
30
0.0000000000
10
-7.6835649024
20
-20.3073956126
30
0.0000000000
10
-7.4375550102
20
-20.3080998071
30
0.0000000000
10
-7.1725514399
20
-20.3088593123
30
0.0000000000
10
-6.9894083909
20
-20.3093847023
30
0.0000000000
10
-6.8944574883
20
-20.3096571883
30
0.0000000000
11
-9.4490743194
21
-20.3026751623
31
0.0000000000
11
-9.3455667747
21
-20.3028290989
31
0.0000000000
11
-9.2326269351
21
-20.3030818989
31
0.0000000000
11
-9.1096967302
21
-20.3033925351
31
0.0000000000
11
-8.9762123400
21
-20.3037481977
31
0.0000000000
11
-8.8317088671
21
-20.3041439965
31
0.0000000000
11
-8.6755639017
21
-20.3045785700
31
0.0000000000
11
-8.5069563127
21
-20.3050525176
31
0.0000000000
11
-8.3250021157
21
-20.3055673295
31
0.0000000000
11
-8.1287873892
21
-20.3061249688
31
0.0000000000
11
-7.9173398746
21
-20.3067277905
31
0.0000000000
11
-7.6894681999
21
-20.3073789146
31
0.0000000000
11
-7.4438866376
21
-20.3080818231
31
0.0000000000
11
-7.1793101971
21
-20.3088400572
31
0.0000000000
11
-6.8944574883
21
-20.3096571883
31
0.0000000000
0
SPLINE
5
44E
100
AcDbEntity
8
0
100
AcDbSpline
62
0
6
CONTINUOUS
70
0
71
3
72
8
73
4
74
2
42
0.0000001000
43
0.0000001000
44
0.0000000001
12
-0.0000824661
22
-0.1403668922
32
0.0000000000
13
-0.0000818866
23
-0.1403668925
33
0.0000000000
40
0.0000000000
40
0.0000000000
40
0.0000000000
40
0.0000000000
40
1.0000000000
40
1.0000000000
40
1.0000000000
40
1.0000000000
10
-5.2951156201
20
20.1038008333
30
0.0000000000
10
-5.2951431088
20
20.0570118692
30
0.0000000000
10
-5.2951705009
20
20.0102229051
30
0.0000000000
10
-5.2951977965
20
19.9634339409
30
0.0000000000
11
-5.2951156201
21
20.1038008333
31
0.0000000000
11
-5.2951977965
21
19.9634339409
31
0.0000000000
0
SPLINE
5
44F
100
AcDbEntity
8
0
100
AcDbSpline
62
0
6
CONTINUOUS
70
0
71
3
72
8
73
4
74
2
42
0.0000001000
43
0.0000001000
44
0.0000000001
12
-0.0001637808
22
-0.2807468602
32
0.0000000000
13
-0.0001614628
23
-0.2807468615
33
0.0000000000
40
0.0000000000
40
0.0000000000
40
0.0000000000
40
0.0000000000
40
1.0000000000
40
1.0000000000
40
1.0000000000
40
1.0000000000
10
-5.2951977965
20
19.9634339409
30
0.0000000000
10
-5.2952523901
20
19.8698516542
30
0.0000000000
10
-5.2953065973
20
19.7762693672
30
0.0000000000
10
-5.2953604182
20
19.6826870800
30
0.0000000000
11
-5.2951977965
21
19.9634339409
31
0.0000000000
11
-5.2953604182
21
19.6826870800
31
0.0000000000
0
SPLINE
5
450
100
AcDbEntity
8
0
100
AcDbSpline
62
0
6
CONTINUOUS
70
0
71
3
72
8
73
4
74
2
42
0.0000001000
43
0.0000001000
44
0.0000000001
12
-0.0001614729
22
-0.2807643634
32
0.0000000000
13
-0.0001591550
23
-0.2807643647
33
0.0000000000
40
0.0000000000
40
0.0000000000
40
0.0000000000
40
0.0000000000
40
1.0000000000
40
1.0000000000
40
1.0000000000
40
1.0000000000
10
-5.2953604182
20
19.6826870800
30
0.0000000000
10
-5.2954142425
20
19.5890989589
30
0.0000000000
10
-5.2954676804
20
19.4955108376
30
0.0000000000
10
-5.2955207321
20
19.4019227160
30
0.0000000000
11
-5.2953604182
21
19.6826870800
31
0.0000000000
11
-5.2955207321
21
19.4019227160
31
0.0000000000
0
SPLINE
5
451
100
AcDbEntity
8
0
100
AcDbSpline
62
0
6
CONTINUOUS
70
0
71
3
72
9
73
5
74
3
42
0.0000001000
43
0.0000001000
44
0.0000000001
12
-0.0002387506
22
-0.4211785511
32
0.0000000000
13
-0.0002335358
23
-0.4211785540
33
0.0000000000
40
0.0000000000
40
0.0000000000
40
0.0000000000
40
0.0000000000
40
0.3333232829
40
1.0000000000
40
1.0000000000
40
1.0000000000
40
1.0000000000
10
-5.2955207321
20
19.4019227160
30
0.0000000000
10
-5.2955472591
20
19.3551265102
30
0.0000000000
10
-5.2956265529
20
19.2147336597
30
0.0000000000
10
-5.2957049776
20
19.0743408087
30
0.0000000000
10
-5.2957568752
20
18.9807441635
30
0.0000000000
11
-5.2955207321
21
19.4019227160
31
0.0000000000
11
-5.2956000235
21
19.2615340985
31
0.0000000000
11
-5.2957568752
21
18.9807441635
31
0.0000000000
0
SPLINE
5
452
100
AcDbEntity
8
0
100
AcDbSpline
62
0
6
CONTINUOUS
70
0
71
3
72
8
73
4
74
2
42
0.0000001000
43
0.0000001000
44
0.0000000001
12
-0.0000778500
22
-0.1404013515
32
0.0000000000
13
-0.0000772706
23
-0.1404013519
33
0.0000000000
40
0.0000000000
40
0.0000000000
40
0.0000000000
40
0.0000000000
40
1.0000000000
40
1.0000000000
40
1.0000000000
40
1.0000000000
10
-5.2957568752
20
18.9807441635
30
0.0000000000
10
-5.2957828252
20
18.9339437129
30
0.0000000000
10
-5.2958086786
20
18.8871432624
30
0.0000000000
10
-5.2958344355
20
18.8403428117
30
0.0000000000
11
-5.2957568752
21
18.9807441635
31
0.0000000000
11
-5.2958344355
21
18.8403428117
31
0.0000000000
0
SPLINE
5
453
100
AcDbEntity
8
0
100
AcDbSpline
62
0
6
CONTINUOUS
70
0
71
3
72
8
73
4
74
2
42
0.0000001000
43
0.0000001000
44
0.0000000001
12
-0.0000772706
22
0.1404013519
32
0.0000000000
13
-0.0000778500
23
0.1404013515
33
0.0000000000
40
0.0000000000
40
0.0000000000
40
0.0000000000
40
0.0000000000
40
1.0000000000
40
1.0000000000
40
1.0000000000
40
1.0000000000
10
-4.4930805411
20
18.8403428117
30
0.0000000000
10
-4.4931062979
20
18.8871432624
30
0.0000000000
10
-4.4931321513
20
18.9339437129
30
0.0000000000
10
-4.4931581013
20
18.9807441635
30
0.0000000000
11
-4.4930805411
21
18.8403428117
31
0.0000000000
11
-4.4931581013
21
18.9807441635
31
0.0000000000
0
SPLINE
5
454
100
AcDbEntity
8
0
100
AcDbSpline
62
0
6
CONTINUOUS
70
0
71
3
72
9
73
5
74
3
42
0.0000001000
43
0.0000001000
44
0.0000000001
12
-0.0002335358
22
0.4211785540
32
0.0000000000
13
-0.0002387506
23
0.4211785511
33
0.0000000000
40
0.0000000000
40
0.0000000000
40
0.0000000000
40
0.0000000000
40
0.6666767171
40
1.0000000000
40
1.0000000000
40
1.0000000000
40
1.0000000000
10
-4.4931581013
20
18.9807441635
30
0.0000000000
10
-4.4932099990
20
19.0743408087
30
0.0000000000
10
-4.4932884236
20
19.2147336597
30
0.0000000000
10
-4.4933677174
20
19.3551265102
30
0.0000000000
10
-4.4933942444
20
19.4019227160
30
0.0000000000
11
-4.4931581013
21
18.9807441635
31
0.0000000000
11
-4.4933149530
21
19.2615340985
31
0.0000000000
11
-4.4933942444
21
19.4019227160
31
0.0000000000
0
SPLINE
5
455
100
AcDbEntity
8
0
100
AcDbSpline
62
0
6
CONTINUOUS
70
0
71
3
72
8
73
4
74
2
42
0.0000001000
43
0.0000001000
44
0.0000000001
12
-0.0001591550
22
0.2807643647
32
0.0000000000
13
-0.0001614729
23
0.2807643634
33
0.0000000000
40
0.0000000000
40
0.0000000000
40
0.0000000000
40
0.0000000000
40
1.0000000000
40
1.0000000000
40
1.0000000000
40
1.0000000000
10
-4.4933942444
20
19.4019227160
30
0.0000000000
10
-4.4934472961
20
19.4955108376
30
0.0000000000
10
-4.4935007340
20
19.5890989589
30
0.0000000000
10
-4.4935545583
20
19.6826870800
30
0.0000000000
11
-4.4933942444
21
19.4019227160
31
0.0000000000
11
-4.4935545583
21
19.6826870800
31
0.0000000000
0
SPLINE
5
456
100
AcDbEntity
8
0
100
AcDbSpline
62
0
6
CONTINUOUS
70
0
71
3
72
8
73
4
74
2
42
0.0000001000
43
0.0000001000
44
0.0000000001
12
-0.0001614628
22
0.2807468615
32
0.0000000000
13
-0.0001637808
23
0.2807468602
33
0.0000000000
40
0.0000000000
40
0.0000000000
40
0.0000000000
40
0.0000000000
40
1.0000000000
40
1.0000000000
40
1.0000000000
40
1.0000000000
10
-4.4935545583
20
19.6826870800
30
0.0000000000
10
-4.4936083792
20
19.7762693672
30
0.0000000000
10
-4.4936625865
20
19.8698516542
30
0.0000000000
10
-4.4937171801
20
19.9634339409
30
0.0000000000
11
-4.4935545583
21
19.6826870800
31
0.0000000000
11
-4.4937171801
21
19.9634339409
31
0.0000000000
0
SPLINE
5
457
100
AcDbEntity
8
0
100
AcDbSpline
62
0
6
CONTINUOUS
70
0
71
3
72
8
73
4
74
2
42
0.0000001000
43
0.0000001000
44
0.0000000001
12
-0.0000818866
22
0.1403668925
32
0.0000000000
13
-0.0000824661
23
0.1403668922
33
0.0000000000
40
0.0000000000
40
0.0000000000
40
0.0000000000
40
0.0000000000
40
1.0000000000
40
1.0000000000
40
1.0000000000
40
1.0000000000
10
-4.4937171801
20
19.9634339409
30
0.0000000000
10
-4.4937444756
20
20.0102229051
30
0.0000000000
10
-4.4937718677
20
20.0570118692
30
0.0000000000
10
-4.4937993564
20
20.1038008333
30
0.0000000000
11
-4.4937171801
21
19.9634339409
31
0.0000000000
11
-4.4937993564
21
20.1038008333
31
0.0000000000
0
SPLINE
5
458
100
AcDbEntity
8
0
100
AcDbSpline
62
0
6
CONTINUOUS
70
0
71
3
72
8
73
4
74
2
42
0.0000001000
43
0.0000001000
44
0.0000000001
12
-0.0000824661
22
-0.1403668922
32
0.0000000000
13
-0.0000818866
23
-0.1403668925
33
0.0000000000
40
0.0000000000
40
0.0000000000
40
0.0000000000
40
0.0000000000
40
1.0000000000
40
1.0000000000
40
1.0000000000
40
1.0000000000
10
4.7048843799
20
20.1038008333
30
0.0000000000
10
4.7048568912
20
20.0570118692
30
0.0000000000
10
4.7048294991
20
20.0102229051
30
0.0000000000
10
4.7048022035
20
19.9634339409
30
0.0000000000
11
4.7048843799
21
20.1038008333
31
0.0000000000
11
4.7048022035
21
19.9634339409
31
0.0000000000
0
SPLINE
5
459
100
AcDbEntity
8
0
100
AcDbSpline
62
0
6
CONTINUOUS
70
0
71
3
72
8
73
4
74
2
42
0.0000001000
43
0.0000001000
44
0.0000000001
12
-0.0001637808
22
-0.2807468602
32
0.0000000000
13
-0.0001614628
23
-0.2807468615
33
0.0000000000
40
0.0000000000
40
0.0000000000
40
0.0000000000
40
0.0000000000
40
1.0000000000
40
1.0000000000
40
1.0000000000
40
1.0000000000
10
4.7048022035
20
19.9634339409
30
0.0000000000
10
4.7047476099
20
19.8698516542
30
0.0000000000
10
4.7046934027
20
19.7762693672
30
0.0000000000
10
4.7046395818
20
19.6826870800
30
0.0000000000
11
4.7048022035
21
19.9634339409
31
0.0000000000
11
4.7046395818
21
19.6826870800
31
0.0000000000
0
SPLINE
5
45A
100
AcDbEntity
8
0
100
AcDbSpline
62
0
6
CONTINUOUS
70
0
71
3
72
8
73
4
74
2
42
0.0000001000
43
0.0000001000
44
0.0000000001
12
-0.0001614729
22
-0.2807643634
32
0.0000000000
13
-0.0001591550
23
-0.2807643647
33
0.0000000000
40
0.0000000000
40
0.0000000000
40
0.0000000000
40
0.0000000000
40
1.0000000000
40
1.0000000000
40
1.0000000000
40
1.0000000000
10
4.7046395818
20
19.6826870800
30
0.0000000000
10
4.7045857575
20
19.5890989589
30
0.0000000000
10
4.7045323196
20
19.4955108376
30
0.0000000000
10
4.7044792679
20
19.4019227160
30
0.0000000000
11
4.7046395818
21
19.6826870800
31
0.0000000000
11
4.7044792679
21
19.4019227160
31
0.0000000000
0
SPLINE
5
45B
100
AcDbEntity
8
0
100
AcDbSpline
62
0
6
CONTINUOUS
70
0
71
3
72
9
73
5
74
3
42
0.0000001000
43
0.0000001000
44
0.0000000001
12
-0.0002387506
22
-0.4211785511
32
0.0000000000
13
-0.0002335358
23
-0.4211785540
33
0.0000000000
40
0.0000000000
40
0.0000000000
40
0.0000000000
40
0.0000000000
40
0.3333232829
40
1.0000000000
40
1.0000000000
40
1.0000000000
40
1.0000000000
10
4.7044792679
20
19.4019227160
30
0.0000000000
10
4.7044527409
20
19.3551265102
30
0.0000000000
10
4.7043734471
20
19.2147336597
30
0.0000000000
10
4.7042950224
20
19.0743408087
30
0.0000000000
10
4.7042431248
20
18.9807441635
30
0.0000000000
11
4.7044792679
21
19.4019227160
31
0.0000000000
11
4.7043999765
21
19.2615340985
31
0.0000000000
11
4.7042431248
21
18.9807441635
31
0.0000000000
0
SPLINE
5
45C
100
AcDbEntity
8
0
100
AcDbSpline
62
0
6
CONTINUOUS
70
0
71
3
72
8
73
4
74
2
42
0.0000001000
43
0.0000001000
44
0.0000000001
12
-0.0000778500
22
-0.1404013515
32
0.0000000000
13
-0.0000772706
23
-0.1404013519
33
0.0000000000
40
0.0000000000
40
0.0000000000
40
0.0000000000
40
0.0000000000
40
1.0000000000
40
1.0000000000
40
1.0000000000
40
1.0000000000
10
4.7042431248
20
18.9807441635
30
0.0000000000
10
4.7042171748
20
18.9339437129
30
0.0000000000
10
4.7041913214
20
18.8871432624
30
0.0000000000
10
4.7041655645
20
18.8403428117
30
0.0000000000
11
4.7042431248
21
18.9807441635
31
0.0000000000
11
4.7041655645
21
18.8403428117
31
0.0000000000
0
SPLINE
5
45D
100
AcDbEntity
8
0
100
AcDbSpline
62
0
6
CONTINUOUS
70
0
71
3
72
21
73
17
74
15
42
0.0000001000
43
0.0000001000
44
0.0000000001
12
-2.5546159632
22
-0.0073311248
32
0.0000000000
13
-2.5546258436
23
-0.0018067160
33
0.0000000000
40
0.0000000000
40
0.0000000000
40
0.0000000000
40
0.0000000000
40
0.1115169553
40
0.2150898721
40
0.3112248033
40
0.4004293374
40
0.4832108438
40
0.5600310243
40
0.6312597998
40
0.6972494890
40
0.7583552256
40
0.8149072324
40
0.8671495266
40
0.9152642332
40
0.9594742335
40
1.0000000000
40
1.0000000000
40
1.0000000000
40
1.0000000000
10
-6.8944574883
20
20.3903428117
30
0.0000000000
10
-6.9894184863
20
20.3900702968
30
0.0000000000
10
-7.1725758272
20
20.3895448659
30
0.0000000000
10
-7.4375957802
20
20.3887853138
30
0.0000000000
10
-7.6836158464
20
20.3880810904
30
0.0000000000
10
-7.9119312257
20
20.3874286209
30
0.0000000000
10
-8.1237993515
20
20.3868244972
30
0.0000000000
10
-8.3203604280
20
20.3862657324
30
0.0000000000
10
-8.5026226284
20
20.3857498504
30
0.0000000000
10
-8.6715033793
20
20.3852748374
30
0.0000000000
10
-8.8278863039
20
20.3848391503
30
0.0000000000
10
-8.9725628045
20
20.3844420772
30
0.0000000000
10
-9.1061769614
20
20.3840847658
30
0.0000000000
10
-9.2292814599
20
20.3837704704
30
0.0000000000
10
-9.3424089361
20
20.3835112663
30
0.0000000000
10
-9.4145649293
20
20.3833851920
30
0.0000000000
10
-9.4490743194
20
20.3833607858
30
0.0000000000
11
-6.8944574883
21
20.3903428117
31
0.0000000000
11
-7.1793404834
21
20.3895255939
31
0.0000000000
11
-7.4439295131
21
20.3887673238
31
0.0000000000
11
-7.6895173480
21
20.3880643975
31
0.0000000000
11
-7.9174006830
21
20.3874132404
31
0.0000000000
11
-8.1288756520
21
20.3868103410
31
0.0000000000
11
-8.3251217271
21
20.3862526137
31
0.0000000000
11
-8.5070839149
21
20.3857377811
31
0.0000000000
11
-8.6756622566
21
20.3852639182
31
0.0000000000
11
-8.8317639850
21
20.3848294676
31
0.0000000000
11
-8.9762326972
21
20.3844337661
31
0.0000000000
11
-9.1096917718
21
20.3840781715
31
0.0000000000
11
-9.2326064829
21
20.3837675719
31
0.0000000000
11
-9.3455462376
21
20.3835147633
31
0.0000000000
11
-9.4490743194
21
20.3833607858
31
0.0000000000
0
SPLINE
5
45E
100
AcDbEntity
8
0
100
AcDbSpline
62
0
6
CONTINUOUS
70
0
71
3
72
8
73
4
74
2
42
0.0000001000
43
0.0000001000
44
0.0000000001
12
-0.0000772706
22
0.1404013519
32
0.0000000000
13
-0.0000778500
23
0.1404013515
33
0.0000000000
40
0.0000000000
40
0.0000000000
40
0.0000000000
40
0.0000000000
40
1.0000000000
40
1.0000000000
40
1.0000000000
40
1.0000000000
10
5.5069194589
20
18.8403428117
30
0.0000000000
10
5.5068937021
20
18.8871432624
30
0.0000000000
10
5.5068678487
20
18.9339437129
30
0.0000000000
10
5.5068418987
20
18.9807441635
30
0.0000000000
11
5.5069194589
21
18.8403428117
31
0.0000000000
11
5.5068418987
21
18.9807441635
31
0.0000000000
0
SPLINE
5
45F
100
AcDbEntity
8
0
100
AcDbSpline
62
0
6
CONTINUOUS
70
0
71
3
72
9
73
5
74
3
42
0.0000001000
43
0.0000001000
44
0.0000000001
12
-0.0002335358
22
0.4211785540
32
0.0000000000
13
-0.0002387506
23
0.4211785511
33
0.0000000000
40
0.0000000000
40
0.0000000000
40
0.0000000000
40
0.0000000000
40
0.6666767171
40
1.0000000000
40
1.0000000000
40
1.0000000000
40
1.0000000000
10
5.5068418987
20
18.9807441635
30
0.0000000000
10
5.5067900010
20
19.0743408087
30
0.0000000000
10
5.5067115764
20
19.2147336597
30
0.0000000000
10
5.5066322826
20
19.3551265102
30
0.0000000000
10
5.5066057556
20
19.4019227160
30
0.0000000000
11
5.5068418987
21
18.9807441635
31
0.0000000000
11
5.5066850470
21
19.2615340985
31
0.0000000000
11
5.5066057556
21
19.4019227160
31
0.0000000000
0
SPLINE
5
460
100
AcDbEntity
8
0
100
AcDbSpline
62
0
6
CONTINUOUS
70
0
71
3
72
8
73
4
74
2
42
0.0000001000
43
0.0000001000
44
0.0000000001
12
-0.0001591550
22
0.2807643647
32
0.0000000000
13
-0.0001614729
23
0.2807643634
33
0.0000000000
40
0.0000000000
40
0.0000000000
40
0.0000000000
40
0.0000000000
40
1.0000000000
40
1.0000000000
40
1.0000000000
40
1.0000000000
10
5.5066057556
20
19.4019227160
30
0.0000000000
10
5.5065527039
20
19.4955108376
30
0.0000000000
10
5.5064992660
20
19.5890989589
30
0.0000000000
10
5.5064454417
20
19.6826870800
30
0.0000000000
11
5.5066057556
21
19.4019227160
31
0.0000000000
11
5.5064454417
21
19.6826870800
31
0.0000000000
0
SPLINE
5
461
100
AcDbEntity
8
0
100
AcDbSpline
62
0
6
CONTINUOUS
70
0
71
3
72
8
73
4
74
2
42
0.0000001000
43
0.0000001000
44
0.0000000001
12
-0.0001614628
22
0.2807468615
32
0.0000000000
13
-0.0001637808
23
0.2807468602
33
0.0000000000
40
0.0000000000
40
0.0000000000
40
0.0000000000
40
0.0000000000
40
1.0000000000
40
1.0000000000
40
1.0000000000
40
1.0000000000
10
5.5064454417
20
19.6826870800
30
0.0000000000
10
5.5063916208
20
19.7762693672
30
0.0000000000
10
5.5063374135
20
19.8698516542
30
0.0000000000
10
5.5062828199
20
19.9634339409
30
0.0000000000
11
5.5064454417
21
19.6826870800
31
0.0000000000
11
5.5062828199
21
19.9634339409
31
0.0000000000
0
SPLINE
5
462
100
AcDbEntity
8
0
100
AcDbSpline
62
0
6
CONTINUOUS
70
0
71
3
72
8
73
4
74
2
42
0.0000001000
43
0.0000001000
44
0.0000000001
12
-0.0000818866
22
0.1403668925
32
0.0000000000
13
-0.0000824661
23
0.1403668922
33
0.0000000000
40
0.0000000000
40
0.0000000000
40
0.0000000000
40
0.0000000000
40
1.0000000000
40
1.0000000000
40
1.0000000000
40
1.0000000000
10
5.5062828199
20
19.9634339409
30
0.0000000000
10
5.5062555244
20
20.0102229051
30
0.0000000000
10
5.5062281323
20
20.0570118692
30
0.0000000000
10
5.5062006436
20
20.1038008333
30
0.0000000000
11
5.5062828199
21
19.9634339409
31
0.0000000000
11
5.5062006436
21
20.1038008333
31
0.0000000000
0
SPLINE
5
463
100
AcDbEntity
8
0
100
AcDbSpline
62
0
6
CONTINUOUS
70
0
71
3
72
13
73
9
74
7
42
0.0000001000
43
0.0000001000
44
0.0000000001
12
-0.9519713230
22
0.0000000000
32
0.0000000000
13
0.9519713230
23
0.0000000000
33
0.0000000000
40
0.0000000000
40
0.0000000000
40
0.0000000000
40
0.0000000000
40
0.1683694687
40
0.3342869372
40
0.4999948902
40
0.6656978434
40
0.8316176989
40
1.0000000000
40
1.0000000000
40
1.0000000000
40
1.0000000000
10
8.8055425117
20
15.3465842969
30
0.0000000000
10
8.7521148764
20
15.3465842969
30
0.0000000000
10
8.6439485067
20
15.3175082134
30
0.0000000000
10
8.5274450668
20
15.1996220318
30
0.0000000000
10
8.4848322772
20
15.0400806460
30
0.0000000000
10
8.5274386521
20
14.8805373135
30
0.0000000000
10
8.6439391463
20
14.7626432002
30
0.0000000000
10
8.7521108044
20
14.7335633126
30
0.0000000000
10
8.8055425117
20
14.7335633126
30
0.0000000000
11
8.8055425117
21
15.3465842969
31
0.0000000000
11
8.6508351479
21
15.3046767619
31
0.0000000000
11
8.5396259358
21
15.1925148516
31
0.0000000000
11
8.4990293822
21
15.0400788453
31
0.0000000000
11
8.5396184709
21
14.8876457767
31
0.0000000000
11
8.6508242218
21
14.7754772349
31
0.0000000000
11
8.8055425117
21
14.7335633126
31
0.0000000000
0
SPLINE
5
464
100
AcDbEntity
8
0
100
AcDbSpline
62
0
6
CONTINUOUS
70
0
71
3
72
13
73
9
74
7
42
0.0000001000
43
0.0000001000
44
0.0000000001
12
-0.9633245763
22
0.0000000000
32
0.0000000000
13
0.9633245763
23
0.0000000000
33
0.0000000000
40
0.0000000000
40
0.0000000000
40
0.0000000000
40
0.0000000000
40
0.1684189647
40
0.3343345094
40
0.5000034145
40
0.6656756684
40
0.8315896630
40
1.0000000000
40
1.0000000000
40
1.0000000000
40
1.0000000000
10
8.8055425117
20
-9.6493099077
30
0.0000000000
10
8.7514618025
20
-9.6493099077
30
0.0000000000
10
8.6419884012
20
-9.6787466865
30
0.0000000000
10
8.5241129304
20
-9.7980594756
30
0.0000000000
10
8.4810137591
20
-9.9594804674
30
0.0000000000
10
8.5241172731
20
-10.1209001579
30
0.0000000000
10
8.6419947520
20
-10.2402075756
30
0.0000000000
10
8.7514645729
20
-10.2696417700
30
0.0000000000
10
8.8055425117
20
-10.2696417700
30
0.0000000000
11
8.8055425117
21
-9.6493099077
31
0.0000000000
11
8.6489474513
21
-9.6917421485
31
0.0000000000
11
8.5364309509
21
-9.8052579309
31
0.0000000000
11
8.4953738180
21
-9.9594792474
31
0.0000000000
11
8.5364360017
21
-10.1137025575
31
0.0000000000
11
8.6489548845
21
-10.2272138757
31
0.0000000000
11
8.8055425117
21
-10.2696417700
31
0.0000000000
0
SPLINE
5
465
100
AcDbEntity
8
0
100
AcDbSpline
62
0
6
CONTINUOUS
70
0
71
3
72
10
73
6
74
4
42
0.0000001000
43
0.0000001000
44
0.0000000001
12
-0.0008568518
22
-0.7579294174
32
0.0000000000
13
-0.0008906410
23
-0.7579293785
33
0.0000000000
40
0.0000000000
40
0.0000000000
40
0.0000000000
40
0.0000000000
40
0.3333519688
40
0.6666853804
40
1.0000000000
40
1.0000000000
40
1.0000000000
40
1.0000000000
10
5.3577326207
20
-19.2651858117
30
0.0000000000
10
5.3576374096
20
-19.3494048995
30
0.0000000000
10
5.3574457415
20
-19.5178383854
30
0.0000000000
10
5.3571544933
20
-19.7704815181
30
0.0000000000
10
5.3569578302
20
-19.9389055623
30
0.0000000000
10
5.3568588757
20
-20.0231152098
30
0.0000000000
11
5.3577326207
21
-19.2651858117
31
0.0000000000
11
5.3574451104
21
-19.5178430731
31
0.0000000000
11
5.3571538620
21
-19.7704862651
31
0.0000000000
11
5.3568588757
21
-20.0231152098
31
0.0000000000
0
SPLINE
5
466
100
AcDbEntity
8
0
100
AcDbSpline
62
0
6
CONTINUOUS
70
0
71
3
72
22
73
18
74
16
42
0.0000001000
43
0.0000001000
44
0.0000000001
12
11.7667321189
22
-7.2670502590
32
0.0000000000
13
-12.0386934108
23
-6.8070452609
33
0.0000000000
40
0.0000000000
40
0.0000000000
40
0.0000000000
40
0.0000000000
40
0.0640535695
40
0.1269210068
40
0.1898784710
40
0.2541049607
40
0.3208469030
40
0.3898609338
40
0.4599077141
40
0.5300279998
40
0.6007916725
40
0.6710352780
40
0.7392911415
40
0.8051278814
40
0.8697589774
40
0.9343069625
40
1.0000000000
40
1.0000000000
40
1.0000000000
40
1.0000000000
10
5.5851184881
20
-7.7467615996
30
0.0000000000
10
5.8363522193
20
-7.9019217693
30
0.0000000000
10
6.3137965870
20
-8.2438395443
30
0.0000000000
10
6.9525353443
20
-8.8459024452
30
0.0000000000
10
7.5069955457
20
-9.5275819061
30
0.0000000000
10
7.9758410220
20
-10.2918689056
30
0.0000000000
10
8.3484763201
20
-11.1383084771
30
0.0000000000
10
8.6070763041
20
-12.0544295301
30
0.0000000000
10
8.7352851116
20
-13.0135132226
30
0.0000000000
10
8.7255491921
20
-13.9891523669
30
0.0000000000
10
8.5762832240
20
-14.9543535695
30
0.0000000000
10
8.2927644467
20
-15.8799225908
30
0.0000000000
10
7.8909971627
20
-16.7353511887
30
0.0000000000
10
7.3894924866
20
-17.5053690762
30
0.0000000000
10
6.7997478981
20
-18.1875768837
30
0.0000000000
10
6.1239444383
20
-18.7834360560
30
0.0000000000
10
5.6213520666
20
-19.1161273184
30
0.0000000000
10
5.3577326207
20
-19.2651858117
30
0.0000000000
11
5.5851184881
21
-7.7467615996
31
0.0000000000
11
6.3053988825
21
-8.2624492442
31
0.0000000000
11
6.9382070061
21
-8.8586851994
31
0.0000000000
11
7.4877181178
21
-9.5340721715
31
0.0000000000
11
7.9523006378
21
-10.2911345056
31
0.0000000000
11
8.3243321472
21
-11.1358737907
31
0.0000000000
11
8.5837336422
21
-12.0544045127
31
0.0000000000
11
8.7121694689
21
-13.0145923726
31
0.0000000000
11
8.7025156478
21
-13.9843005295
31
0.0000000000
11
8.5529089056
21
-14.9514519324
31
0.0000000000
11
8.2682910059
21
-15.8802848050
31
0.0000000000
11
7.8668738425
21
-16.7346537841
31
0.0000000000
11
7.3698233927
21
-17.4975291452
31
0.0000000000
11
6.7851441706
21
-18.1736226759
31
0.0000000000
11
6.1154069751
21
-18.7638352430
31
0.0000000000
11
5.3577326207
21
-19.2651858117
31
0.0000000000
0
SPLINE
5
467
100
AcDbEntity
8
0
100
AcDbSpline
62
0
6
CONTINUOUS
70
0
71
3
72
9
73
5
74
3
42
0.0000001000
43
0.0000001000
44
0.0000000001
12
-2.3322059452
22
1.4403538423
32
0.0000000000
13
-2.3264870768
23
1.4495729176
33
0.0000000000
40
0.0000000000
40
0.0000000000
40
0.0000000000
40
0.0000000000
40
0.5011767503
40
1.0000000000
40
1.0000000000
40
1.0000000000
40
1.0000000000
10
5.5851191653
20
-7.7467620188
30
0.0000000000
10
5.1955033664
20
-7.5061380661
30
0.0000000000
10
4.4185729043
20
-7.0252562094
30
0.0000000000
10
3.6425955560
20
-6.5428378503
30
0.0000000000
10
3.2557602746
20
-6.3018109592
30
0.0000000000
11
5.5851191653
21
-7.7467620188
31
0.0000000000
11
4.4169837993
21
-7.0237385179
31
0.0000000000
11
3.2557602746
21
-6.3018109592
31
0.0000000000
0
SPLINE
5
468
100
AcDbEntity
8
0
100
AcDbSpline
62
0
6
CONTINUOUS
70
0
71
3
72
9
73
5
74
3
42
0.0000001000
43
0.0000001000
44
0.0000000001
12
2.3322059452
22
1.4403538423
32
0.0000000000
13
2.3264870768
23
1.4495729176
33
0.0000000000
40
0.0000000000
40
0.0000000000
40
0.0000000000
40
0.0000000000
40
0.5011767503
40
1.0000000000
40
1.0000000000
40
1.0000000000
40
1.0000000000
10
-5.3740341418
20
-7.7467620188
30
0.0000000000
10
-4.9844183429
20
-7.5061380661
30
0.0000000000
10
-4.2074878808
20
-7.0252562094
30
0.0000000000
10
-3.4315105325
20
-6.5428378503
30
0.0000000000
10
-3.0446752511
20
-6.3018109592
30
0.0000000000
11
-5.3740341418
21
-7.7467620188
31
0.0000000000
11
-4.2058987758
21
-7.0237385179
31
0.0000000000
11
-3.0446752511
21
-6.3018109592
31
0.0000000000
0
SPLINE
5
469
100
AcDbEntity
8
0
100
AcDbSpline
62
0
6
CONTINUOUS
70
0
71
3
72
22
73
18
74
16
42
0.0000001000
43
0.0000001000
44
0.0000000001
12
-12.0386810001
22
6.8070382435
32
0.0000000000
13
11.7667199884
23
7.2670427677
33
0.0000000000
40
0.0000000000
40
0.0000000000
40
0.0000000000
40
0.0000000000
40
0.0654316728
40
0.1295011341
40
0.1936443410
40
0.2592135088
40
0.3275604001
40
0.3982265876
40
0.4696042981
40
0.5403859352
40
0.6110331036
40
0.6804543242
40
0.7472856403
40
0.8112626653
40
0.8737641125
40
0.9361857549
40
1.0000000000
40
1.0000000000
40
1.0000000000
40
1.0000000000
10
-5.1466475972
20
-19.2651858117
30
0.0000000000
10
-5.4092179426
20
-19.1167205120
30
0.0000000000
10
-5.9090328519
20
-18.7860681378
30
0.0000000000
10
-6.5811738496
20
-18.1947018330
30
0.0000000000
10
-7.1685537404
20
-17.5180506232
30
0.0000000000
10
-7.6705339959
20
-16.7520414305
30
0.0000000000
10
-8.0753424155
20
-15.8967793270
30
0.0000000000
10
-8.3626720568
20
-14.9668826660
30
0.0000000000
10
-8.5144868689
20
-13.9940684115
30
0.0000000000
10
-8.5243847283
20
-13.0096910384
30
0.0000000000
10
-8.3939724811
20
-12.0430563205
30
0.0000000000
10
-8.1319085754
20
-11.1226039196
30
0.0000000000
10
-7.7564537838
20
-10.2761523414
30
0.0000000000
10
-7.2871026243
20
-9.5155459010
30
0.0000000000
10
-6.7347278553
20
-8.8390822936
30
0.0000000000
10
-6.0992696951
20
-8.2412842280
30
0.0000000000
10
-5.6243282351
20
-7.9013418738
30
0.0000000000
10
-5.3740334505
20
-7.7467615909
30
0.0000000000
11
-5.1466475972
21
-19.2651858117
31
0.0000000000
11
-5.9014454698
21
-18.7660401867
31
0.0000000000
11
-6.5668349422
21
-18.1809057907
31
0.0000000000
11
-7.1484783578
21
-17.5111112024
31
0.0000000000
11
-7.6456505506
21
-16.7527372437
31
0.0000000000
11
-8.0501539665
21
-15.8984331044
31
0.0000000000
11
-8.3387657184
21
-14.9647156658
31
0.0000000000
11
-8.4910142814
21
-13.9893818191
31
0.0000000000
11
-8.5008330663
21
-13.0105294427
31
0.0000000000
11
-8.3701200742
21
-12.0422706656
31
0.0000000000
11
-8.1071053021
21
-11.1189122820
31
0.0000000000
11
-7.7322246046
21
-10.2740821638
31
0.0000000000
11
-7.2674624303
21
-9.5211826438
31
0.0000000000
11
-6.7206500705
21
-8.8517335193
31
0.0000000000
11
-6.0917525400
21
-8.2603394294
31
0.0000000000
11
-5.3740334505
21
-7.7467615909
31
0.0000000000
0
SPLINE
5
46A
100
AcDbEntity
8
0
100
AcDbSpline
62
0
6
CONTINUOUS
70
0
71
3
72
10
73
6
74
4
42
0.0000001000
43
0.0000001000
44
0.0000000001
12
0.0008568518
22
-0.7579294174
32
0.0000000000
13
0.0008906410
23
-0.7579293785
33
0.0000000000
40
0.0000000000
40
0.0000000000
40
0.0000000000
40
0.0000000000
40
0.3333519688
40
0.6666853804
40
1.0000000000
40
1.0000000000
40
1.0000000000
40
1.0000000000
10
-5.1466475972
20
-19.2651858117
30
0.0000000000
10
-5.1465523861
20
-19.3494048995
30
0.0000000000
10
-5.1463607180
20
-19.5178383854
30
0.0000000000
10
-5.1460694698
20
-19.7704815181
30
0.0000000000
10
-5.1458728068
20
-19.9389055623
30
0.0000000000
10
-5.1457738522
20
-20.0231152098
30
0.0000000000
11
-5.1466475972
21
-19.2651858117
31
0.0000000000
11
-5.1463600869
21
-19.5178430731
31
0.0000000000
11
-5.1460688385
21
-19.7704862651
31
0.0000000000
11
-5.1457738522
21
-20.0231152098
31
0.0000000000
0
SPLINE
5
46B
100
AcDbEntity
8
0
100
AcDbSpline
62
0
6
CONTINUOUS
70
0
71
3
72
13
73
9
74
7
42
0.0000001000
43
0.0000001000
44
0.0000000001
12
0.9633245763
22
0.0000000000
32
0.0000000000
13
-0.9633245763
23
0.0000000000
33
0.0000000000
40
0.0000000000
40
0.0000000000
40
0.0000000000
40
0.0000000000
40
0.1684104019
40
0.3343244520
40
0.4999966921
40
0.6656656210
40
0.8315811057
40
1.0000000000
40
1.0000000000
40
1.0000000000
40
1.0000000000
10
-8.5944574883
20
-10.2696417700
30
0.0000000000
10
-8.5403795286
20
-10.2696417700
30
0.0000000000
10
-8.4309096666
20
-10.2402075526
30
0.0000000000
10
-8.3130321950
20
-10.1209000698
30
0.0000000000
10
-8.2699287347
20
-9.9594803443
30
0.0000000000
10
-8.3130279641
20
-9.7980593823
30
0.0000000000
10
-8.4309034448
20
-9.6787466616
30
0.0000000000
10
-8.5403768016
20
-9.6493099077
30
0.0000000000
10
-8.5944574883
20
-9.6493099077
30
0.0000000000
11
-8.5944574883
21
-10.2696417700
31
0.0000000000
11
-8.4378698051
21
-10.2272138430
31
0.0000000000
11
-8.3253509185
21
-10.1137024532
31
0.0000000000
11
-8.2842887945
21
-9.9594791410
31
0.0000000000
11
-8.3253459921
21
-9.8052578181
31
0.0000000000
11
-8.4378624884
21
-9.6917421131
31
0.0000000000
11
-8.5944574883
21
-9.6493099077
31
0.0000000000
0
SPLINE
5
46C
100
AcDbEntity
8
0
100
AcDbSpline
62
0
6
CONTINUOUS
70
0
71
3
72
13
73
9
74
7
42
0.0000001000
43
0.0000001000
44
0.0000000001
12
0.9519713230
22
0.0000000000
32
0.0000000000
13
-0.9519713230
23
0.0000000000
33
0.0000000000
40
0.0000000000
40
0.0000000000
40
0.0000000000
40
0.0000000000
40
0.1683822047
40
0.3343019760
40
0.5000049502
40
0.6657128679
40
0.8316304267
40
1.0000000000
40
1.0000000000
40
1.0000000000
40
1.0000000000
10
-8.5944574883
20
14.7335633126
30
0.0000000000
10
-8.5410258115
20
14.7335633126
30
0.0000000000
10
-8.4328542143
20
14.7626431664
30
0.0000000000
10
-8.3163537095
20
14.8805371833
30
0.0000000000
10
-8.2737472550
20
15.0400804639
30
0.0000000000
10
-8.3163599589
20
15.1996218941
30
0.0000000000
10
-8.4328633843
20
15.3175081769
30
0.0000000000
10
-8.5410298198
20
15.3465842969
30
0.0000000000
10
-8.5944574883
20
15.3465842969
30
0.0000000000
11
-8.5944574883
21
14.7335633126
31
0.0000000000
11
-8.4397392804
21
14.7754771868
31
0.0000000000
11
-8.3285335359
21
14.8876456222
31
0.0000000000
11
-8.2879443587
21
15.0400786880
31
0.0000000000
11
-8.3285408167
21
15.1925146850
31
0.0000000000
11
-8.4397500353
21
15.3046767099
31
0.0000000000
11
-8.5944574883
21
15.3465842969
31
0.0000000000
0
SPLINE
5
46D
100
AcDbEntity
8
0
100
AcDbSpline
62
0
6
CONTINUOUS
70
0
71
3
72
10
73
6
74
4
42
0.0000001000
43
0.0000001000
44
0.0000000001
12
-0.0005245600
22
-0.4568448436
32
0.0000000000
13
-0.0005368373
23
-0.4568448293
33
0.0000000000
40
0.0000000000
40
0.0000000000
40
0.0000000000
40
0.0000000000
40
0.3333446606
40
0.6666780129
40
1.0000000000
40
1.0000000000
40
1.0000000000
40
1.0000000000
10
-4.5426104260
20
-19.5662703733
30
0.0000000000
10
-4.5426687124
20
-19.6170326364
30
0.0000000000
10
-4.5427857379
20
-19.7185554401
30
0.0000000000
10
-4.5429626374
20
-19.8708370522
30
0.0000000000
10
-4.5430814778
20
-19.9723564010
30
0.0000000000
10
-4.5431411243
20
-20.0231152098
30
0.0000000000
11
-4.5426104260
21
-19.5662703733
31
0.0000000000
11
-4.5427859673
21
-19.7185571619
31
0.0000000000
11
-4.5429628667
21
-19.8708387827
31
0.0000000000
11
-4.5431411243
21
-20.0231152098
31
0.0000000000
0
SPLINE
5
46E
100
AcDbEntity
8
0
100
AcDbSpline
62
0
6
CONTINUOUS
70
0
71
3
72
9
73
5
74
3
42
0.0000001000
43
0.0000001000
44
0.0000000001
12
-1.6279096257
22
0.2506342408
32
0.0000000000
13
-1.5105148951
23
0.6566978178
33
0.0000000000
40
0.0000000000
40
0.0000000000
40
0.0000000000
40
0.0000000000
40
0.4989659333
40
1.0000000000
40
1.0000000000
40
1.0000000000
40
1.0000000000
10
-2.9636920654
20
-20.0231152098
30
0.0000000000
10
-3.2344492139
20
-19.9814292271
30
0.0000000000
10
-3.7722505183
20
-19.8627514292
30
0.0000000000
10
-4.2903372858
20
-19.6759463660
30
0.0000000000
10
-4.5426104260
20
-19.5662703733
30
0.0000000000
11
-2.9636920654
21
-20.0231152098
31
0.0000000000
11
-3.7662300043
21
-19.8460354297
31
0.0000000000
11
-4.5426104260
21
-19.5662703733
31
0.0000000000
0
SPLINE
5
46F
100
AcDbEntity
8
0
100
AcDbSpline
62
0
6
CONTINUOUS
70
0
71
3
72
9
73
5
74
3
42
0.0000001000
43
0.0000001000
44
0.0000000001
12
-1.5105148951
22
-0.6566978178
32
0.0000000000
13
-1.6279096257
23
-0.2506342408
33
0.0000000000
40
0.0000000000
40
0.0000000000
40
0.0000000000
40
0.0000000000
40
0.5010335918
40
1.0000000000
40
1.0000000000
40
1.0000000000
40
1.0000000000
10
4.7536954495
20
-19.5662703733
30
0.0000000000
10
4.5014225483
20
-19.6759462621
30
0.0000000000
10
3.9833357963
20
-19.8627513555
30
0.0000000000
10
3.4455344951
20
-19.9814291875
30
0.0000000000
10
3.1747770888
20
-20.0231152098
30
0.0000000000
11
4.7536954495
21
-19.5662703733
31
0.0000000000
11
3.9773157807
21
-19.8460352120
31
0.0000000000
11
3.1747770888
21
-20.0231152098
31
0.0000000000
0
SPLINE
5
470
100
AcDbEntity
8
0
100
AcDbSpline
62
0
6
CONTINUOUS
70
0
71
3
72
10
73
6
74
4
42
0.0000001000
43
0.0000001000
44
0.0000000001
12
0.0005245600
22
-0.4568448436
32
0.0000000000
13
0.0005368373
23
-0.4568448293
33
0.0000000000
40
0.0000000000
40
0.0000000000
40
0.0000000000
40
0.0000000000
40
0.3333446606
40
0.6666780129
40
1.0000000000
40
1.0000000000
40
1.0000000000
40
1.0000000000
10
4.7536954495
20
-19.5662703733
30
0.0000000000
10
4.7537537359
20
-19.6170326364
30
0.0000000000
10
4.7538707614
20
-19.7185554401
30
0.0000000000
10
4.7540476608
20
-19.8708370522
30
0.0000000000
10
4.7541665012
20
-19.9723564010
30
0.0000000000
10
4.7542261478
20
-20.0231152098
30
0.0000000000
11
4.7536954495
21
-19.5662703733
31
0.0000000000
11
4.7538709908
21
-19.7185571619
31
0.0000000000
11
4.7540478902
21
-19.8708387827
31
0.0000000000
11
4.7542261478
21
-20.0231152098
31
0.0000000000
0
SPLINE
5
471
100
AcDbEntity
8
0
100
AcDbSpline
62
0
6
CONTINUOUS
70
0
71
3
72
10
73
6
74
4
42
0.0000001000
43
0.0000001000
44
0.0000000001
12
0.3602846892
22
-0.0000000000
32
0.0000000000
13
0.1272396737
23
0.3370684244
33
0.0000000000
40
0.0000000000
40
0.0000000000
40
0.0000000000
40
0.0000000000
40
0.3326568453
40
0.6656365789
40
1.0000000000
40
1.0000000000
40
1.0000000000
40
1.0000000000
10
6.6169593015
20
-14.9247364188
30
0.0000000000
10
6.6569096908
20
-14.9247364188
30
0.0000000000
10
6.7377815858
20
-14.9082969370
30
0.0000000000
10
6.8391329621
20
-14.8383842762
30
0.0000000000
10
6.8832752952
20
-14.7683716894
30
0.0000000000
10
6.8974567260
20
-14.7308039055
30
0.0000000000
11
6.6169593015
21
-14.9247364188
31
0.0000000000
11
6.7343934298
21
-14.9007879738
31
0.0000000000
11
6.8331436010
21
-14.8326659899
31
0.0000000000
11
6.8974567260
21
-14.7308039055
31
0.0000000000
0
SPLINE
5
472
100
AcDbEntity
8
0
100
AcDbSpline
62
0
6
CONTINUOUS
70
0
71
3
72
10
73
6
74
4
42
0.0000001000
43
0.0000001000
44
0.0000000001
12
-0.1272396737
22
0.3370684244
32
0.0000000000
13
-0.3602846892
23
-0.0000000000
33
0.0000000000
40
0.0000000000
40
0.0000000000
40
0.0000000000
40
0.0000000000
40
0.3326568410
40
0.6656365743
40
1.0000000000
40
1.0000000000
40
1.0000000000
40
1.0000000000
10
6.8974567260
20
-11.1885104710
30
0.0000000000
10
6.8833476767
20
-11.1511344319
30
0.0000000000
10
6.8394064711
20
-11.0812796519
30
0.0000000000
10
6.7382052063
20
-11.0111498749
30
0.0000000000
10
6.6571146424
20
-10.9945779577
30
0.0000000000
10
6.6169593015
20
-10.9945779577
30
0.0000000000
11
6.8974567260
21
-11.1885104710
31
0.0000000000
11
6.8335779516
21
-11.0871013771
31
0.0000000000
11
6.7349706274
21
-11.0187727842
31
0.0000000000
11
6.6169593015
21
-10.9945779577
31
0.0000000000
0
SPLINE
5
473
100
AcDbEntity
8
0
100
AcDbSpline
62
0
6
CONTINUOUS
70
0
71
3
72
10
73
6
74
4
42
0.0000001000
43
0.0000001000
44
0.0000000001
12
0.1272396737
22
-0.3370684244
32
0.0000000000
13
0.3602846892
23
0.0000000000
33
0.0000000000
40
0.0000000000
40
0.0000000000
40
0.0000000000
40
0.0000000000
40
0.3326568410
40
0.6656365743
40
1.0000000000
40
1.0000000000
40
1.0000000000
40
1.0000000000
10
-6.6863717025
20
-14.7308039055
30
0.0000000000
10
-6.6722626532
20
-14.7681799446
30
0.0000000000
10
-6.6283214477
20
-14.8380347246
30
0.0000000000
10
-6.5271201828
20
-14.9081645016
30
0.0000000000
10
-6.4460296190
20
-14.9247364188
30
0.0000000000
10
-6.4058742780
20
-14.9247364188
30
0.0000000000
11
-6.6863717025
21
-14.7308039055
31
0.0000000000
11
-6.6224929281
21
-14.8322129994
31
0.0000000000
11
-6.5238856039
21
-14.9005415923
31
0.0000000000
11
-6.4058742780
21
-14.9247364188
31
0.0000000000
0
SPLINE
5
474
100
AcDbEntity
8
0
100
AcDbSpline
62
0
6
CONTINUOUS
70
0
71
3
72
10
73
6
74
4
42
0.0000001000
43
0.0000001000
44
0.0000000001
12
-0.3602846892
22
0.0000000000
32
0.0000000000
13
-0.1272396737
23
-0.3370684244
33
0.0000000000
40
0.0000000000
40
0.0000000000
40
0.0000000000
40
0.0000000000
40
0.3326568453
40
0.6656365789
40
1.0000000000
40
1.0000000000
40
1.0000000000
40
1.0000000000
10
-6.4058742780
20
-10.9945779577
30
0.0000000000
10
-6.4458246674
20
-10.9945779577
30
0.0000000000
10
-6.5266965623
20
-11.0110174395
30
0.0000000000
10
-6.6280479386
20
-11.0809301003
30
0.0000000000
10
-6.6721902717
20
-11.1509426871
30
0.0000000000
10
-6.6863717025
20
-11.1885104710
30
0.0000000000
11
-6.4058742780
21
-10.9945779577
31
0.0000000000
11
-6.5233084063
21
-11.0185264027
31
0.0000000000
11
-6.6220585776
21
-11.0866483866
31
0.0000000000
11
-6.6863717025
21
-11.1885104710
31
0.0000000000
0
SPLINE
5
475
100
AcDbEntity
8
0
100
AcDbSpline
62
9
6
CONTINUOUS
70
0
71
3
72
9
73
5
74
3
42
0.0000001000
43
0.0000001000
44
0.0000000001
12
0.0098057150
22
0.0215714300
32
0.0000000000
13
0.0096880685
23
0.0216245319
33
0.0000000000
40
0.0000000000
40
0.0000000000
40
0.0000000000
40
0.0000000000
40
0.6002942768
40
1.0000000000
40
1.0000000000
40
1.0000000000
40
1.0000000000
10
6.1656007664
20
-14.9596571883
30
0.0000000000
10
6.1675628713
20
-14.9553407863
30
0.0000000000
10
6.1708196888
20
-14.9481449607
30
0.0000000000
10
6.1740568931
20
-14.9409402969
30
0.0000000000
10
6.1753476853
20
-14.9380591472
30
0.0000000000
11
6.1656007664
21
-14.9596571883
31
0.0000000000
11
6.1714659015
21
-14.9466983756
31
0.0000000000
11
6.1753476853
21
-14.9380591472
31
0.0000000000
0
SPLINE
5
476
100
AcDbEntity
8
0
100
AcDbSpline
62
0
6
CONTINUOUS
70
0
71
3
72
9
73
5
74
3
42
0.0000001000
43
0.0000001000
44
0.0000000001
12
-0.2426363231
22
-0.0090545220
32
0.0000000000
13
-0.2426406356
23
-0.0089382105
33
0.0000000000
40
0.0000000000
40
0.0000000000
40
0.0000000000
40
0.0000000000
40
0.5029664106
40
1.0000000000
40
1.0000000000
40
1.0000000000
40
1.0000000000
10
6.4199183395
20
-14.9247364188
30
0.0000000000
10
6.3792390327
20
-14.9262544589
30
0.0000000000
10
6.2983602195
20
-14.9292716202
30
0.0000000000
10
6.2174802881
20
-14.9322586727
30
0.0000000000
10
6.1772801061
20
-14.9337395363
30
0.0000000000
11
6.4199183395
21
-14.9247364188
31
0.0000000000
11
6.2978800971
21
-14.9292819037
31
0.0000000000
11
6.1772801061
21
-14.9337395363
31
0.0000000000
0
SPLINE
5
477
100
AcDbEntity
8
0
100
AcDbSpline
62
0
6
CONTINUOUS
70
0
71
3
72
21
73
17
74
15
42
0.0000001000
43
0.0000001000
44
0.0000000001
12
-2.5546258436
22
0.0018067160
32
0.0000000000
13
-2.5546159632
23
0.0073311248
33
0.0000000000
40
0.0000000000
40
0.0000000000
40
0.0000000000
40
0.0000000000
40
0.0405177273
40
0.0847277609
40
0.1328485325
40
0.1851007364
40
0.2416663502
40
0.3027890118
40
0.3687901499
40
0.4400157974
40
0.5168237066
40
0.5995944660
40
0.6887944357
40
0.7849269114
40
0.8884949002
40
1.0000000000
40
1.0000000000
40
1.0000000000
40
1.0000000000
10
9.6601593429
20
20.3833607858
30
0.0000000000
10
9.6256567985
20
20.3833851871
30
0.0000000000
10
9.5535076226
20
20.3835112380
30
0.0000000000
10
9.4403817992
20
20.3837704322
30
0.0000000000
10
9.3172636694
20
20.3840847605
30
0.0000000000
10
9.1836243224
20
20.3844421404
30
0.0000000000
10
9.0389133841
20
20.3848393102
30
0.0000000000
10
8.8824947111
20
20.3852750996
30
0.0000000000
10
8.7135924624
20
20.3857501756
30
0.0000000000
10
8.5313336260
20
20.3862660498
30
0.0000000000
10
8.3347948141
20
20.3868247523
30
0.0000000000
10
8.1229501760
20
20.3874288096
30
0.0000000000
10
7.8946499259
20
20.3880812361
30
0.0000000000
10
7.6486400337
20
20.3887854306
30
0.0000000000
10
7.3836364634
20
20.3895449358
30
0.0000000000
10
7.2004934144
20
20.3900703258
30
0.0000000000
10
7.1055425117
20
20.3903428117
30
0.0000000000
11
9.6601593429
21
20.3833607858
31
0.0000000000
11
9.5566517982
21
20.3835147224
31
0.0000000000
11
9.4437119586
21
20.3837675224
31
0.0000000000
11
9.3207817536
21
20.3840781586
31
0.0000000000
11
9.1872973635
21
20.3844338212
31
0.0000000000
11
9.0427938906
21
20.3848296200
31
0.0000000000
11
8.8866489252
21
20.3852641935
31
0.0000000000
11
8.7180413362
21
20.3857381411
31
0.0000000000
11
8.5360871392
21
20.3862529530
31
0.0000000000
11
8.3398724127
21
20.3868105923
31
0.0000000000
11
8.1284248981
21
20.3874134140
31
0.0000000000
11
7.9005532234
21
20.3880645381
31
0.0000000000
11
7.6549716611
21
20.3887674466
31
0.0000000000
11
7.3903952206
21
20.3895256807
31
0.0000000000
11
7.1055425117
21
20.3903428117
31
0.0000000000
0
SPLINE
5
478
100
AcDbEntity
8
0
100
AcDbSpline
62
0
6
CONTINUOUS
70
0
71
3
72
11
73
7
74
5
42
0.0000001000
43
0.0000001000
44
0.0000000001
12
0.0000000000
22
-1.7300594365
32
0.0000000000
13
-1.3296995226
23
-1.1067993646
33
0.0000000000
40
0.0000000000
40
0.0000000000
40
0.0000000000
40
0.0000000000
40
0.2387420166
40
0.4855713787
40
0.7389084442
40
1.0000000000
40
1.0000000000
40
1.0000000000
40
1.0000000000
10
-9.7820218784
20
7.5403428117
30
0.0000000000
10
-9.7820218784
20
7.4026635189
30
0.0000000000
10
-9.8114691016
20
7.1217816804
30
0.0000000000
10
-9.9455573510
20
6.7138951671
30
0.0000000000
10
-10.1717177329
20
6.3335744921
30
0.0000000000
10
-10.3787330492
20
6.1167997191
30
0.0000000000
10
-10.4944574883
20
6.0204743964
30
0.0000000000
11
-9.7820218784
21
7.5403428117
31
0.0000000000
11
-9.8251612594
21
7.1295639381
31
0.0000000000
11
-9.9584599200
21
6.7238723892
31
0.0000000000
11
-10.1825548814
21
6.3472054571
31
0.0000000000
11
-10.4944574883
21
6.0204743964
31
0.0000000000
0
SPLINE
5
479
100
AcDbEntity
8
0
100
AcDbSpline
62
0
6
CONTINUOUS
70
0
71
3
72
11
73
7
74
5
42
0.0000001000
43
0.0000001000
44
0.0000000001
12
0.0000000000
22
1.7300594365
32
0.0000000000
13
-1.3296995226
23
1.1067993646
33
0.0000000000
40
0.0000000000
40
0.0000000000
40
0.0000000000
40
0.0000000000
40
0.2387420166
40
0.4855713787
40
0.7389084442
40
1.0000000000
40
1.0000000000
40
1.0000000000
40
1.0000000000
10
-9.7820218784
20
-7.4596571883
30
0.0000000000
10
-9.7820218784
20
-7.3219778954
30
0.0000000000
10
-9.8114691016
20
-7.0410960569
30
0.0000000000
10
-9.9455573510
20
-6.6332095436
30
0.0000000000
10
-10.1717177329
20
-6.2528888686
30
0.0000000000
10
-10.3787330492
20
-6.0361140956
30
0.0000000000
10
-10.4944574883
20
-5.9397887729
30
0.0000000000
11
-9.7820218784
21
-7.4596571883
31
0.0000000000
11
-9.8251612594
21
-7.0488783146
31
0.0000000000
11
-9.9584599200
21
-6.6431867657
31
0.0000000000
11
-10.1825548814
21
-6.2665198336
31
0.0000000000
11
-10.4944574883
21
-5.9397887729
31
0.0000000000
0
SPLINE
5
47A
100
AcDbEntity
8
0
100
AcDbSpline
62
0
6
CONTINUOUS
70
0
71
3
72
11
73
7
74
5
42
0.0000001000
43
0.0000001000
44
0.0000000001
12
-1.3296995215
22
-1.1067993637
32
0.0000000000
13
0.0000000000
23
-1.7300594350
33
0.0000000000
40
0.0000000000
40
0.0000000000
40
0.0000000000
40
0.0000000000
40
0.2610924730
40
0.5144294767
40
0.7612585643
40
1.0000000000
40
1.0000000000
40
1.0000000000
40
1.0000000000
10
10.7055425117
20
-5.9397887729
30
0.0000000000
10
10.5898176663
20
-6.0361144339
30
0.0000000000
10
10.3828020768
20
-6.2528896685
30
0.0000000000
10
10.1566418232
20
-6.6332108061
30
0.0000000000
10
10.0225540001
20
-7.0410968919
30
0.0000000000
10
9.9931069019
20
-7.3219782305
30
0.0000000000
10
9.9931069019
20
-7.4596571883
30
0.0000000000
11
10.7055425117
21
-5.9397887729
31
0.0000000000
11
10.3936389413
21
-6.2665211071
31
0.0000000000
11
10.1695443287
21
-6.6431881217
31
0.0000000000
11
10.0362460729
21
-7.0488793034
31
0.0000000000
11
9.9931069019
21
-7.4596571883
31
0.0000000000
0
SPLINE
5
47B
100
AcDbEntity
8
0
100
AcDbSpline
62
0
6
CONTINUOUS
70
0
71
3
72
11
73
7
74
5
42
0.0000001000
43
0.0000001000
44
0.0000000001
12
-1.3296995215
22
1.1067993637
32
0.0000000000
13
0.0000000000
23
1.7300594350
33
0.0000000000
40
0.0000000000
40
0.0000000000
40
0.0000000000
40
0.0000000000
40
0.2610924730
40
0.5144294767
40
0.7612585643
40
1.0000000000
40
1.0000000000
40
1.0000000000
40
1.0000000000
10
10.7055425117
20
6.0204743964
30
0.0000000000
10
10.5898176663
20
6.1168000574
30
0.0000000000
10
10.3828020768
20
6.3335752920
30
0.0000000000
10
10.1566418232
20
6.7138964296
30
0.0000000000
10
10.0225540001
20
7.1217825154
30
0.0000000000
10
9.9931069019
20
7.4026638540
30
0.0000000000
10
9.9931069019
20
7.5403428117
30
0.0000000000
11
10.7055425117
21
6.0204743964
31
0.0000000000
11
10.3936389413
21
6.3472067306
31
0.0000000000
11
10.1695443287
21
6.7238737452
31
0.0000000000
11
10.0362460729
21
7.1295649269
31
0.0000000000
11
9.9931069019
21
7.5403428117
31
0.0000000000
0
SPLINE
5
47C
100
AcDbEntity
8
0
100
AcDbSpline
62
9
6
CONTINUOUS
70
0
71
3
72
10
73
6
74
4
42
0.0000001000
43
0.0000001000
44
0.0000000001
12
-0.0240337377
22
0.0349513183
32
0.0000000000
13
-0.0241225694
23
0.0348900680
33
0.0000000000
40
0.0000000000
40
0.0000000000
40
0.0000000000
40
0.0000000000
40
0.3328018275
40
0.6661345320
40
1.0000000000
40
1.0000000000
40
1.0000000000
40
1.0000000000
10
6.6410373868
20
-14.9596571883
30
0.0000000000
10
6.6383712295
20
-14.9557799007
30
0.0000000000
10
6.6330313947
20
-14.9480213868
30
0.0000000000
10
6.6250053975
20
-14.9363811028
30
0.0000000000
10
6.6196438658
20
-14.9286192817
30
0.0000000000
10
6.6169593015
20
-14.9247364188
30
0.0000000000
11
6.6410373868
21
-14.9596571883
31
0.0000000000
11
6.6330340131
21
-14.9480286978
31
0.0000000000
11
6.6250080258
21
-14.9363884413
31
0.0000000000
11
6.6169593015
21
-14.9247364188
31
0.0000000000
0
SPLINE
5
47D
100
AcDbEntity
8
0
100
AcDbSpline
62
9
6
CONTINUOUS
70
0
71
3
72
9
73
5
74
3
42
0.0000001000
43
0.0000001000
44
0.0000000001
12
-0.0098057149
22
0.0215714300
32
0.0000000000
13
-0.0096880685
23
0.0216245319
33
0.0000000000
40
0.0000000000
40
0.0000000000
40
0.0000000000
40
0.0000000000
40
0.6002942765
40
1.0000000000
40
1.0000000000
40
1.0000000000
40
1.0000000000
10
-5.9545157430
20
-14.9596571883
30
0.0000000000
10
-5.9564778478
20
-14.9553407863
30
0.0000000000
10
-5.9597346654
20
-14.9481449607
30
0.0000000000
10
-5.9629718697
20
-14.9409402969
30
0.0000000000
10
-5.9642626618
20
-14.9380591472
30
0.0000000000
11
-5.9545157430
21
-14.9596571883
31
0.0000000000
11
-5.9603808780
21
-14.9466983756
31
0.0000000000
11
-5.9642626618
21
-14.9380591472
31
0.0000000000
0
SPLINE
5
47E
100
AcDbEntity
8
0
100
AcDbSpline
62
9
6
CONTINUOUS
70
0
71
3
72
10
73
6
74
4
42
0.0000001000
43
0.0000001000
44
0.0000000001
12
0.0240337377
22
0.0349513183
32
0.0000000000
13
0.0241225694
23
0.0348900680
33
0.0000000000
40
0.0000000000
40
0.0000000000
40
0.0000000000
40
0.0000000000
40
0.3328018275
40
0.6661345320
40
1.0000000000
40
1.0000000000
40
1.0000000000
40
1.0000000000
10
-6.4299523633
20
-14.9596571883
30
0.0000000000
10
-6.4272862060
20
-14.9557799007
30
0.0000000000
10
-6.4219463713
20
-14.9480213868
30
0.0000000000
10
-6.4139203740
20
-14.9363811028
30
0.0000000000
10
-6.4085588423
20
-14.9286192817
30
0.0000000000
10
-6.4058742780
20
-14.9247364188
30
0.0000000000
11
-6.4299523633
21
-14.9596571883
31
0.0000000000
11
-6.4219489897
21
-14.9480286978
31
0.0000000000
11
-6.4139230023
21
-14.9363884413
31
0.0000000000
11
-6.4058742780
21
-14.9247364188
31
0.0000000000
0
SPLINE
5
47F
100
AcDbEntity
8
0
100
AcDbSpline
62
0
6
CONTINUOUS
70
0
71
3
72
9
73
5
74
3
42
0.0000001000
43
0.0000001000
44
0.0000000001
12
-0.2426406356
22
0.0089382105
32
0.0000000000
13
-0.2426363231
23
0.0090545220
33
0.0000000000
40
0.0000000000
40
0.0000000000
40
0.0000000000
40
0.0000000000
40
0.4976886504
40
1.0000000000
40
1.0000000000
40
1.0000000000
40
1.0000000000
10
-5.9661950826
20
-14.9337395363
30
0.0000000000
10
-6.0064482461
20
-14.9322567210
30
0.0000000000
10
-6.0873281773
20
-14.9292696619
30
0.0000000000
10
-6.1682069897
20
-14.9262524818
30
0.0000000000
10
-6.2088333160
20
-14.9247364188
30
0.0000000000
11
-5.9661950826
21
-14.9337395363
31
0.0000000000
11
-6.0869540166
21
-14.9292760094
31
0.0000000000
11
-6.2088333160
21
-14.9247364188
31
0.0000000000
0
SPLINE
5
480
100
AcDbEntity
8
0
100
AcDbSpline
62
9
6
CONTINUOUS
70
0
71
3
72
9
73
5
74
3
42
0.0000001000
43
0.0000001000
44
0.0000000001
12
-0.0042535242
22
4.7472149680
32
0.0000000000
13
-0.0055783957
23
4.7472135960
33
0.0000000000
40
0.0000000000
40
0.0000000000
40
0.0000000000
40
0.0000000000
40
0.5000437240
40
1.0000000000
40
1.0000000000
40
1.0000000000
40
1.0000000000
10
-9.6895354801
20
15.3431526901
30
0.0000000000
10
-9.6902444627
20
16.1344243738
30
0.0000000000
10
-9.6917727119
20
17.7168292661
30
0.0000000000
10
-9.6935215712
20
19.2992339300
30
0.0000000000
10
-9.6944512225
20
20.0903670070
30
0.0000000000
11
-9.6895354801
21
15.3431526901
31
0.0000000000
11
-9.6918280077
21
17.7169675871
31
0.0000000000
11
-9.6944512225
21
20.0903670070
31
0.0000000000
0
SPLINE
5
481
100
AcDbEntity
8
0
100
AcDbSpline
62
9
6
CONTINUOUS
70
0
71
3
72
9
73
5
74
3
42
0.0000001000
43
0.0000001000
44
0.0000000001
12
-0.0098057150
22
-0.0215714300
32
0.0000000000
13
-0.0096880685
23
-0.0216245319
33
0.0000000000
40
0.0000000000
40
0.0000000000
40
0.0000000000
40
0.0000000000
40
0.6002942768
40
1.0000000000
40
1.0000000000
40
1.0000000000
40
1.0000000000
10
-5.9545157430
20
-10.9596571883
30
0.0000000000
10
-5.9564778478
20
-10.9639735902
30
0.0000000000
10
-5.9597346653
20
-10.9711694158
30
0.0000000000
10
-5.9629718697
20
-10.9783740796
30
0.0000000000
10
-5.9642626618
20
-10.9812552293
30
0.0000000000
11
-5.9545157430
21
-10.9596571883
31
0.0000000000
11
-5.9603808780
21
-10.9726160009
31
0.0000000000
11
-5.9642626618
21
-10.9812552293
31
0.0000000000
0
SPLINE
5
482
100
AcDbEntity
8
0
100
AcDbSpline
62
0
6
CONTINUOUS
70
0
71
3
72
9
73
5
74
3
42
0.0000001000
43
0.0000001000
44
0.0000000001
12
0.2426363231
22
0.0090545220
32
0.0000000000
13
0.2426406356
23
0.0089382105
33
0.0000000000
40
0.0000000000
40
0.0000000000
40
0.0000000000
40
0.0000000000
40
0.5028660724
40
1.0000000000
40
1.0000000000
40
1.0000000000
40
1.0000000000
10
-6.2088333160
20
-10.9945779577
30
0.0000000000
10
-6.1681621244
20
-10.9930602204
30
0.0000000000
10
-6.0872833114
20
-10.9900430563
30
0.0000000000
10
-6.0064033800
20
-10.9870560028
30
0.0000000000
10
-5.9661950826
20
-10.9855748402
30
0.0000000000
11
-6.2088333160
21
-10.9945779577
31
0.0000000000
11
-6.0868194195
21
-10.9900333757
31
0.0000000000
11
-5.9661950826
21
-10.9855748402
31
0.0000000000
0
SPLINE
5
483
100
AcDbEntity
8
0
100
AcDbSpline
62
9
6
CONTINUOUS
70
0
71
3
72
10
73
6
74
4
42
0.0000001000
43
0.0000001000
44
0.0000000001
12
0.0240337377
22
-0.0349513183
32
0.0000000000
13
0.0241225694
23
-0.0348900680
33
0.0000000000
40
0.0000000000
40
0.0000000000
40
0.0000000000
40
0.0000000000
40
0.3328018275
40
0.6661345320
40
1.0000000000
40
1.0000000000
40
1.0000000000
40
1.0000000000
10
-6.4299523633
20
-10.9596571883
30
0.0000000000
10
-6.4272862060
20
-10.9635344758
30
0.0000000000
10
-6.4219463713
20
-10.9712929897
30
0.0000000000
10
-6.4139203740
20
-10.9829332737
30
0.0000000000
10
-6.4085588423
20
-10.9906950948
30
0.0000000000
10
-6.4058742780
20
-10.9945779577
30
0.0000000000
11
-6.4299523633
21
-10.9596571883
31
0.0000000000
11
-6.4219489897
21
-10.9712856787
31
0.0000000000
11
-6.4139230023
21
-10.9829259352
31
0.0000000000
11
-6.4058742780
21
-10.9945779577
31
0.0000000000
0
SPLINE
5
484
100
AcDbEntity
8
0
100
AcDbSpline
62
9
6
CONTINUOUS
70
0
71
3
72
10
73
6
74
4
42
0.0000001000
43
0.0000001000
44
0.0000000001
12
-0.0240337377
22
-0.0349513183
32
0.0000000000
13
-0.0241225694
23
-0.0348900680
33
0.0000000000
40
0.0000000000
40
0.0000000000
40
0.0000000000
40
0.0000000000
40
0.3328018275
40
0.6661345320
40
1.0000000000
40
1.0000000000
40
1.0000000000
40
1.0000000000
10
6.6410373868
20
-10.9596571883
30
0.0000000000
10
6.6383712295
20
-10.9635344758
30
0.0000000000
10
6.6330313947
20
-10.9712929897
30
0.0000000000
10
6.6250053975
20
-10.9829332737
30
0.0000000000
10
6.6196438658
20
-10.9906950948
30
0.0000000000
10
6.6169593015
20
-10.9945779577
30
0.0000000000
11
6.6410373868
21
-10.9596571883
31
0.0000000000
11
6.6330340131
21
-10.9712856787
31
0.0000000000
11
6.6250080258
21
-10.9829259352
31
0.0000000000
11
6.6169593015
21
-10.9945779577
31
0.0000000000
0
SPLINE
5
485
100
AcDbEntity
8
0
100
AcDbSpline
62
0
6
CONTINUOUS
70
0
71
3
72
10
73
6
74
4
42
0.0000001000
43
0.0000001000
44
0.0000000001
12
0.3000887779
22
0.0000000000
32
0.0000000000
13
0.1341956046
23
-0.2684116509
33
0.0000000000
40
0.0000000000
40
0.0000000000
40
0.0000000000
40
0.0000000000
40
0.4973078836
40
0.8628897268
40
1.0000000000
40
1.0000000000
40
1.0000000000
40
1.0000000000
10
-4.8167224246
20
20.3379776170
30
0.0000000000
10
-4.7669769196
20
20.3379776170
30
0.0000000000
10
-4.6755066052
20
20.3448360546
30
0.0000000000
10
-4.5902424614
20
20.3227810602
30
0.0000000000
10
-4.5228670464
20
20.3450541258
30
0.0000000000
10
-4.5167338477
20
20.3327867942
30
0.0000000000
11
-4.8167224246
21
20.3379776170
31
0.0000000000
11
-4.6674875227
21
20.3372837406
31
0.0000000000
11
-4.5577969318
21
20.3353858474
31
0.0000000000
11
-4.5167338477
21
20.3327867942
31
0.0000000000
0
SPLINE
5
486
100
AcDbEntity
8
0
100
AcDbSpline
62
9
6
CONTINUOUS
70
0
71
3
72
10
73
6
74
4
42
0.0000001000
43
0.0000001000
44
0.0000000001
12
-0.0005683555
22
-0.4634386333
32
0.0000000000
13
-0.4634386466
23
-0.0005573894
33
0.0000000000
40
0.0000000000
40
0.0000000000
40
0.0000000000
40
0.0000000000
40
0.3318942984
40
0.6652969242
40
1.0000000000
40
1.0000000000
40
1.0000000000
40
1.0000000000
10
-4.5167338477
20
19.7697778347
30
0.0000000000
10
-4.5167967257
20
19.7185069547
30
0.0000000000
10
-4.5451838365
20
19.6137944777
30
0.0000000000
10
-4.6598850863
20
19.5005514732
30
0.0000000000
10
-4.7650176445
20
19.4727596008
30
0.0000000000
10
-4.8167224246
20
19.4726974141
30
0.0000000000
11
-4.5167338477
21
19.7697778347
31
0.0000000000
11
-4.5570460351
21
19.6213416823
31
0.0000000000
11
-4.6668332126
21
19.5126188062
31
0.0000000000
11
-4.8167224246
21
19.4726974141
31
0.0000000000
0
SPLINE
5
487
100
AcDbEntity
8
0
100
AcDbSpline
62
0
6
CONTINUOUS
70
0
71
3
72
11
73
7
74
5
42
0.0000001000
43
0.0000001000
44
0.0000000001
12
0.4392059123
22
0.0000000000
32
0.0000000000
13
0.0044088244
23
0.4391837835
33
0.0000000000
40
0.0000000000
40
0.0000000000
40
0.0000000000
40
0.0000000000
40
0.3099713365
40
0.5709058788
40
0.7971225206
40
1.0000000000
40
1.0000000000
40
1.0000000000
40
1.0000000000
10
-4.8085038801
20
19.3403428117
30
0.0000000000
10
-4.7631234655
20
19.3403428117
30
0.0000000000
10
-4.6784677573
20
19.3572223344
30
0.0000000000
10
-4.5788273674
20
19.4229773757
30
0.0000000000
10
-4.5199599825
20
19.5081430369
30
0.0000000000
10
-4.5065597568
20
19.5714286668
30
0.0000000000
10
-4.5062616064
20
19.6011288331
30
0.0000000000
11
-4.8085038801
21
19.3403428117
31
0.0000000000
11
-4.6751149123
21
19.3675792119
31
0.0000000000
11
-4.5800347142
21
19.4315622667
31
0.0000000000
11
-4.5244187762
21
19.5138934266
31
0.0000000000
11
-4.5062616064
21
19.6011288331
31
0.0000000000
0
SPLINE
5
488
100
AcDbEntity
8
0
100
AcDbSpline
62
0
6
CONTINUOUS
70
0
71
3
72
8
73
4
74
2
42
0.0000001000
43
0.0000001000
44
0.0000000001
12
0.0000430917
22
-0.0782979419
32
0.0000000000
13
-0.0203973380
23
-0.0762862416
33
0.0000000000
40
0.0000000000
40
0.0000000000
40
0.0000000000
40
0.0000000000
40
1.0000000000
40
1.0000000000
40
1.0000000000
40
1.0000000000
10
-4.4930805411
20
18.8403428117
30
0.0000000000
10
-4.4930661772
20
18.8142434978
30
0.0000000000
10
-4.4965453492
20
18.7879500011
30
0.0000000000
10
-4.5033444619
20
18.7625212539
30
0.0000000000
11
-4.4930805411
21
18.8403428117
31
0.0000000000
11
-4.5033444619
21
18.7625212539
31
0.0000000000
0
SPLINE
5
489
100
AcDbEntity
8
0
100
AcDbSpline
62
0
6
CONTINUOUS
70
0
71
3
72
9
73
5
74
3
42
0.0000001000
43
0.0000001000
44
0.0000000001
12
-0.0303512794
22
-0.1135140789
32
0.0000000000
13
-0.0712295993
23
-0.0930686915
33
0.0000000000
40
0.0000000000
40
0.0000000000
40
0.0000000000
40
0.0000000000
40
0.3339124594
40
1.0000000000
40
1.0000000000
40
1.0000000000
40
1.0000000000
10
-4.5033444619
20
18.7625212539
30
0.0000000000
10
-4.5067226854
20
18.7498866655
30
0.0000000000
10
-4.5192943176
20
18.7126879764
30
0.0000000000
10
-4.5390258190
20
18.6785689331
30
0.0000000000
10
-4.5548408685
20
18.6579049678
30
0.0000000000
11
-4.5033444619
21
18.7625212539
31
0.0000000000
11
-4.5159166424
21
18.7253878269
31
0.0000000000
11
-4.5548408685
21
18.6579049678
31
0.0000000000
0
SPLINE
5
48A
100
AcDbEntity
8
0
100
AcDbSpline
62
0
6
CONTINUOUS
70
0
71
3
72
9
73
5
74
3
42
0.0000001000
43
0.0000001000
44
0.0000000001
12
-0.0475445216
22
-0.0621217368
32
0.0000000000
13
-0.0619773558
23
-0.0477376501
33
0.0000000000
40
0.0000000000
40
0.0000000000
40
0.0000000000
40
0.0000000000
40
0.4994989082
40
1.0000000000
40
1.0000000000
40
1.0000000000
40
1.0000000000
10
-4.5548408685
20
18.6579049678
30
0.0000000000
10
-4.5627570140
20
18.6475617212
30
0.0000000000
10
-4.5799455171
20
18.6278889141
30
0.0000000000
10
-4.5995637861
20
18.6106368744
30
0.0000000000
10
-4.6099036975
20
18.6026726257
30
0.0000000000
11
-4.5548408685
21
18.6579049678
31
0.0000000000
11
-4.5805345156
21
18.6285126093
31
0.0000000000
11
-4.6099036975
21
18.6026726257
31
0.0000000000
0
SPLINE
5
48B
100
AcDbEntity
8
0
100
AcDbSpline
62
0
6
CONTINUOUS
70
0
71
3
72
9
73
5
74
3
42
0.0000001000
43
0.0000001000
44
0.0000000001
12
-0.1558624816
22
-0.1200520499
32
0.0000000000
13
-0.1955700951
23
0.0000000000
33
0.0000000000
40
0.0000000000
40
0.0000000000
40
0.0000000000
40
0.0000000000
40
0.3985601769
40
1.0000000000
40
1.0000000000
40
1.0000000000
40
1.0000000000
10
-4.6099036975
20
18.6026726257
30
0.0000000000
10
-4.6306105569
20
18.5867233036
30
0.0000000000
10
-4.6878066805
20
18.5534519379
30
0.0000000000
10
-4.7537202994
20
18.5403428117
30
0.0000000000
10
-4.7929281806
20
18.5403428117
30
0.0000000000
11
-4.6099036975
21
18.6026726257
31
0.0000000000
11
-4.6775875272
21
18.5634047969
31
0.0000000000
11
-4.7929281806
21
18.5403428117
31
0.0000000000
0
SPLINE
5
48C
100
AcDbEntity
8
0
100
AcDbSpline
62
0
6
CONTINUOUS
70
0
71
3
72
10
73
6
74
4
42
0.0000001000
43
0.0000001000
44
0.0000000001
12
0.1341956046
22
0.2684116509
32
0.0000000000
13
0.3000887779
23
-0.0000000000
33
0.0000000000
40
0.0000000000
40
0.0000000000
40
0.0000000000
40
0.0000000000
40
0.1371102732
40
0.5026921164
40
1.0000000000
40
1.0000000000
40
1.0000000000
40
1.0000000000
10
-5.2721811288
20
20.3327867942
30
0.0000000000
10
-5.2660479301
20
20.3450541258
30
0.0000000000
10
-5.1986725151
20
20.3227810602
30
0.0000000000
10
-5.1134083713
20
20.3448360546
30
0.0000000000
10
-5.0219380569
20
20.3379776170
30
0.0000000000
10
-4.9721925519
20
20.3379776170
30
0.0000000000
11
-5.2721811288
21
20.3327867942
31
0.0000000000
11
-5.2311180447
21
20.3353858474
31
0.0000000000
11
-5.1214274538
21
20.3372837406
31
0.0000000000
11
-4.9721925519
21
20.3379776170
31
0.0000000000
0
SPLINE
5
48D
100
AcDbEntity
8
0
100
AcDbSpline
62
9
6
CONTINUOUS
70
0
71
3
72
10
73
6
74
4
42
0.0000001000
43
0.0000001000
44
0.0000000001
12
-0.4634386466
22
0.0005573894
32
0.0000000000
13
-0.0005683555
23
0.4634386333
33
0.0000000000
40
0.0000000000
40
0.0000000000
40
0.0000000000
40
0.0000000000
40
0.3347030758
40
0.6681057016
40
1.0000000000
40
1.0000000000
40
1.0000000000
40
1.0000000000
10
-4.9721925519
20
19.4726974141
30
0.0000000000
10
-5.0238973320
20
19.4727596008
30
0.0000000000
10
-5.1290298902
20
19.5005514732
30
0.0000000000
10
-5.2437311400
20
19.6137944777
30
0.0000000000
10
-5.2721182508
20
19.7185069547
30
0.0000000000
10
-5.2721811288
20
19.7697778347
30
0.0000000000
11
-4.9721925519
21
19.4726974141
31
0.0000000000
11
-5.1220817639
21
19.5126188062
31
0.0000000000
11
-5.2318689414
21
19.6213416823
31
0.0000000000
11
-5.2721811288
21
19.7697778347
31
0.0000000000
0
SPLINE
5
48E
100
AcDbEntity
8
0
100
AcDbSpline
62
0
6
CONTINUOUS
70
0
71
3
72
11
73
7
74
5
42
0.0000001000
43
0.0000001000
44
0.0000000001
12
0.0044088244
22
-0.4391837835
32
0.0000000000
13
0.4392059123
23
0.0000000000
33
0.0000000000
40
0.0000000000
40
0.0000000000
40
0.0000000000
40
0.0000000000
40
0.2028774794
40
0.4290941212
40
0.6900286635
40
1.0000000000
40
1.0000000000
40
1.0000000000
40
1.0000000000
10
-5.2826533701
20
19.6011288331
30
0.0000000000
10
-5.2823552198
20
19.5714286668
30
0.0000000000
10
-5.2689549940
20
19.5081430369
30
0.0000000000
10
-5.2100876092
20
19.4229773757
30
0.0000000000
10
-5.1104472192
20
19.3572223344
30
0.0000000000
10
-5.0257915110
20
19.3403428117
30
0.0000000000
10
-4.9804110965
20
19.3403428117
30
0.0000000000
11
-5.2826533701
21
19.6011288331
31
0.0000000000
11
-5.2644962003
21
19.5138934266
31
0.0000000000
11
-5.2088802623
21
19.4315622667
31
0.0000000000
11
-5.1138000642
21
19.3675792119
31
0.0000000000
11
-4.9804110965
21
19.3403428117
31
0.0000000000
0
SPLINE
5
48F
100
AcDbEntity
8
0
100
AcDbSpline
62
0
6
CONTINUOUS
70
0
71
3
72
9
73
5
74
3
42
0.0000001000
43
0.0000001000
44
0.0000000001
12
0.2426406356
22
-0.0089382105
32
0.0000000000
13
0.2426363231
23
-0.0090545220
33
0.0000000000
40
0.0000000000
40
0.0000000000
40
0.0000000000
40
0.0000000000
40
0.4972910640
40
1.0000000000
40
1.0000000000
40
1.0000000000
40
1.0000000000
10
6.1772801061
20
-10.9855748402
30
0.0000000000
10
6.2175011127
20
-10.9870564710
30
0.0000000000
10
6.2983810440
20
-10.9900435260
30
0.0000000000
10
6.3792598569
20
-10.9930606947
30
0.0000000000
10
6.4199183395
20
-10.9945779577
30
0.0000000000
11
6.1772801061
21
-10.9855748402
31
0.0000000000
11
6.2979425703
21
-10.9900347896
31
0.0000000000
11
6.4199183395
21
-10.9945779577
31
0.0000000000
0
SPLINE
5
490
100
AcDbEntity
8
0
100
AcDbSpline
62
9
6
CONTINUOUS
70
0
71
3
72
9
73
5
74
3
42
0.0000001000
43
0.0000001000
44
0.0000000001
12
0.0098057149
22
-0.0215714300
32
0.0000000000
13
0.0096880685
23
-0.0216245319
33
0.0000000000
40
0.0000000000
40
0.0000000000
40
0.0000000000
40
0.0000000000
40
0.6002942765
40
1.0000000000
40
1.0000000000
40
1.0000000000
40
1.0000000000
10
6.1656007664
20
-10.9596571883
30
0.0000000000
10
6.1675628713
20
-10.9639735902
30
0.0000000000
10
6.1708196888
20
-10.9711694158
30
0.0000000000
10
6.1740568931
20
-10.9783740796
30
0.0000000000
10
6.1753476853
20
-10.9812552293
30
0.0000000000
11
6.1656007664
21
-10.9596571883
31
0.0000000000
11
6.1714659015
21
-10.9726160009
31
0.0000000000
11
6.1753476853
21
-10.9812552293
31
0.0000000000
0
SPLINE
5
491
100
AcDbEntity
8
0
100
AcDbSpline
62
0
6
CONTINUOUS
70
0
71
3
72
10
73
6
74
4
42
0.0000001000
43
0.0000001000
44
0.0000000001
12
0.3000887779
22
0.0000000000
32
0.0000000000
13
0.1341956046
23
-0.2684116509
33
0.0000000000
40
0.0000000000
40
0.0000000000
40
0.0000000000
40
0.0000000000
40
0.4973078836
40
0.8628897268
40
1.0000000000
40
1.0000000000
40
1.0000000000
40
1.0000000000
10
5.1832775754
20
20.3379776170
30
0.0000000000
10
5.2330230804
20
20.3379776170
30
0.0000000000
10
5.3244933948
20
20.3448360546
30
0.0000000000
10
5.4097575386
20
20.3227810602
30
0.0000000000
10
5.4771329536
20
20.3450541258
30
0.0000000000
10
5.4832661523
20
20.3327867942
30
0.0000000000
11
5.1832775754
21
20.3379776170
31
0.0000000000
11
5.3325124773
21
20.3372837406
31
0.0000000000
11
5.4422030682
21
20.3353858474
31
0.0000000000
11
5.4832661523
21
20.3327867942
31
0.0000000000
0
SPLINE
5
492
100
AcDbEntity
8
0
100
AcDbSpline
62
9
6
CONTINUOUS
70
0
71
3
72
10
73
6
74
4
42
0.0000001000
43
0.0000001000
44
0.0000000001
12
-0.0005683555
22
-0.4634386333
32
0.0000000000
13
-0.4634386466
23
-0.0005573894
33
0.0000000000
40
0.0000000000
40
0.0000000000
40
0.0000000000
40
0.0000000000
40
0.3318942984
40
0.6652969242
40
1.0000000000
40
1.0000000000
40
1.0000000000
40
1.0000000000
10
5.4832661523
20
19.7697778347
30
0.0000000000
10
5.4832032743
20
19.7185069547
30
0.0000000000
10
5.4548161635
20
19.6137944777
30
0.0000000000
10
5.3401149137
20
19.5005514732
30
0.0000000000
10
5.2349823555
20
19.4727596008
30
0.0000000000
10
5.1832775754
20
19.4726974141
30
0.0000000000
11
5.4832661523
21
19.7697778347
31
0.0000000000
11
5.4429539649
21
19.6213416823
31
0.0000000000
11
5.3331667874
21
19.5126188062
31
0.0000000000
11
5.1832775754
21
19.4726974141
31
0.0000000000
0
SPLINE
5
493
100
AcDbEntity
8
0
100
AcDbSpline
62
0
6
CONTINUOUS
70
0
71
3
72
11
73
7
74
5
42
0.0000001000
43
0.0000001000
44
0.0000000001
12
0.4392059123
22
0.0000000000
32
0.0000000000
13
0.0044088244
23
0.4391837835
33
0.0000000000
40
0.0000000000
40
0.0000000000
40
0.0000000000
40
0.0000000000
40
0.3099713365
40
0.5709058788
40
0.7971225206
40
1.0000000000
40
1.0000000000
40
1.0000000000
40
1.0000000000
10
5.1914961199
20
19.3403428117
30
0.0000000000
10
5.2368765345
20
19.3403428117
30
0.0000000000
10
5.3215322427
20
19.3572223344
30
0.0000000000
10
5.4211726326
20
19.4229773757
30
0.0000000000
10
5.4800400175
20
19.5081430369
30
0.0000000000
10
5.4934402432
20
19.5714286668
30
0.0000000000
10
5.4937383936
20
19.6011288331
30
0.0000000000
11
5.1914961199
21
19.3403428117
31
0.0000000000
11
5.3248850877
21
19.3675792119
31
0.0000000000
11
5.4199652858
21
19.4315622667
31
0.0000000000
11
5.4755812238
21
19.5138934266
31
0.0000000000
11
5.4937383936
21
19.6011288331
31
0.0000000000
0
SPLINE
5
494
100
AcDbEntity
8
0
100
AcDbSpline
62
0
6
CONTINUOUS
70
0
71
3
72
8
73
4
74
2
42
0.0000001000
43
0.0000001000
44
0.0000000001
12
0.0000430917
22
-0.0782979419
32
0.0000000000
13
-0.0203973380
23
-0.0762862416
33
0.0000000000
40
0.0000000000
40
0.0000000000
40
0.0000000000
40
0.0000000000
40
1.0000000000
40
1.0000000000
40
1.0000000000
40
1.0000000000
10
5.5069194589
20
18.8403428117
30
0.0000000000
10
5.5069338228
20
18.8142434978
30
0.0000000000
10
5.5034546508
20
18.7879500011
30
0.0000000000
10
5.4966555381
20
18.7625212539
30
0.0000000000
11
5.5069194589
21
18.8403428117
31
0.0000000000
11
5.4966555381
21
18.7625212539
31
0.0000000000
0
SPLINE
5
495
100
AcDbEntity
8
0
100
AcDbSpline
62
0
6
CONTINUOUS
70
0
71
3
72
9
73
5
74
3
42
0.0000001000
43
0.0000001000
44
0.0000000001
12
-0.0303512794
22
-0.1135140789
32
0.0000000000
13
-0.0712295993
23
-0.0930686915
33
0.0000000000
40
0.0000000000
40
0.0000000000
40
0.0000000000
40
0.0000000000
40
0.3339124594
40
1.0000000000
40
1.0000000000
40
1.0000000000
40
1.0000000000
10
5.4966555381
20
18.7625212539
30
0.0000000000
10
5.4932773146
20
18.7498866655
30
0.0000000000
10
5.4807056824
20
18.7126879764
30
0.0000000000
10
5.4609741810
20
18.6785689331
30
0.0000000000
10
5.4451591315
20
18.6579049678
30
0.0000000000
11
5.4966555381
21
18.7625212539
31
0.0000000000
11
5.4840833576
21
18.7253878269
31
0.0000000000
11
5.4451591315
21
18.6579049678
31
0.0000000000
0
SPLINE
5
496
100
AcDbEntity
8
0
100
AcDbSpline
62
0
6
CONTINUOUS
70
0
71
3
72
9
73
5
74
3
42
0.0000001000
43
0.0000001000
44
0.0000000001
12
-0.0475445216
22
-0.0621217368
32
0.0000000000
13
-0.0619773558
23
-0.0477376501
33
0.0000000000
40
0.0000000000
40
0.0000000000
40
0.0000000000
40
0.0000000000
40
0.4994989082
40
1.0000000000
40
1.0000000000
40
1.0000000000
40
1.0000000000
10
5.4451591315
20
18.6579049678
30
0.0000000000
10
5.4372429860
20
18.6475617212
30
0.0000000000
10
5.4200544829
20
18.6278889141
30
0.0000000000
10
5.4004362139
20
18.6106368744
30
0.0000000000
10
5.3900963025
20
18.6026726257
30
0.0000000000
11
5.4451591315
21
18.6579049678
31
0.0000000000
11
5.4194654844
21
18.6285126093
31
0.0000000000
11
5.3900963025
21
18.6026726257
31
0.0000000000
0
SPLINE
5
497
100
AcDbEntity
8
0
100
AcDbSpline
62
0
6
CONTINUOUS
70
0
71
3
72
9
73
5
74
3
42
0.0000001000
43
0.0000001000
44
0.0000000001
12
-0.1558624816
22
-0.1200520499
32
0.0000000000
13
-0.1955700951
23
-0.0000000000
33
0.0000000000
40
0.0000000000
40
0.0000000000
40
0.0000000000
40
0.0000000000
40
0.3985601769
40
1.0000000000
40
1.0000000000
40
1.0000000000
40
1.0000000000
10
5.3900963025
20
18.6026726257
30
0.0000000000
10
5.3693894431
20
18.5867233036
30
0.0000000000
10
5.3121933195
20
18.5534519379
30
0.0000000000
10
5.2462797006
20
18.5403428117
30
0.0000000000
10
5.2070718194
20
18.5403428117
30
0.0000000000
11
5.3900963025
21
18.6026726257
31
0.0000000000
11
5.3224124728
21
18.5634047969
31
0.0000000000
11
5.2070718194
21
18.5403428117
31
0.0000000000
0
SPLINE
5
498
100
AcDbEntity
8
0
100
AcDbSpline
62
0
6
CONTINUOUS
70
0
71
3
72
10
73
6
74
4
42
0.0000001000
43
0.0000001000
44
0.0000000001
12
0.1341956046
22
0.2684116509
32
0.0000000000
13
0.3000887779
23
0.0000000000
33
0.0000000000
40
0.0000000000
40
0.0000000000
40
0.0000000000
40
0.0000000000
40
0.1371102732
40
0.5026921164
40
1.0000000000
40
1.0000000000
40
1.0000000000
40
1.0000000000
10
4.7278188712
20
20.3327867942
30
0.0000000000
10
4.7339520699
20
20.3450541258
30
0.0000000000
10
4.8013274849
20
20.3227810602
30
0.0000000000
10
4.8865916287
20
20.3448360546
30
0.0000000000
10
4.9780619431
20
20.3379776170
30
0.0000000000
10
5.0278074481
20
20.3379776170
30
0.0000000000
11
4.7278188712
21
20.3327867942
31
0.0000000000
11
4.7688819553
21
20.3353858474
31
0.0000000000
11
4.8785725462
21
20.3372837406
31
0.0000000000
11
5.0278074481
21
20.3379776170
31
0.0000000000
0
SPLINE
5
499
100
AcDbEntity
8
0
100
AcDbSpline
62
9
6
CONTINUOUS
70
0
71
3
72
10
73
6
74
4
42
0.0000001000
43
0.0000001000
44
0.0000000001
12
-0.4634386466
22
0.0005573894
32
0.0000000000
13
-0.0005683555
23
0.4634386333
33
0.0000000000
40
0.0000000000
40
0.0000000000
40
0.0000000000
40
0.0000000000
40
0.3347030758
40
0.6681057016
40
1.0000000000
40
1.0000000000
40
1.0000000000
40
1.0000000000
10
5.0278074481
20
19.4726974141
30
0.0000000000
10
4.9761026680
20
19.4727596008
30
0.0000000000
10
4.8709701098
20
19.5005514732
30
0.0000000000
10
4.7562688600
20
19.6137944777
30
0.0000000000
10
4.7278817492
20
19.7185069547
30
0.0000000000
10
4.7278188712
20
19.7697778347
30
0.0000000000
11
5.0278074481
21
19.4726974141
31
0.0000000000
11
4.8779182361
21
19.5126188062
31
0.0000000000
11
4.7681310586
21
19.6213416823
31
0.0000000000
11
4.7278188712
21
19.7697778347
31
0.0000000000
0
SPLINE
5
49A
100
AcDbEntity
8
0
100
AcDbSpline
62
0
6
CONTINUOUS
70
0
71
3
72
11
73
7
74
5
42
0.0000001000
43
0.0000001000
44
0.0000000001
12
0.0044088244
22
-0.4391837835
32
0.0000000000
13
0.4392059123
23
0.0000000000
33
0.0000000000
40
0.0000000000
40
0.0000000000
40
0.0000000000
40
0.0000000000
40
0.2028774794
40
0.4290941212
40
0.6900286635
40
1.0000000000
40
1.0000000000
40
1.0000000000
40
1.0000000000
10
4.7173466299
20
19.6011288331
30
0.0000000000
10
4.7176447802
20
19.5714286668
30
0.0000000000
10
4.7310450060
20
19.5081430369
30
0.0000000000
10
4.7899123908
20
19.4229773757
30
0.0000000000
10
4.8895527808
20
19.3572223344
30
0.0000000000
10
4.9742084890
20
19.3403428117
30
0.0000000000
10
5.0195889035
20
19.3403428117
30
0.0000000000
11
4.7173466299
21
19.6011288331
31
0.0000000000
11
4.7355037997
21
19.5138934266
31
0.0000000000
11
4.7911197377
21
19.4315622667
31
0.0000000000
11
4.8861999358
21
19.3675792119
31
0.0000000000
11
5.0195889035
21
19.3403428117
31
0.0000000000
0
SPLINE
5
49B
100
AcDbEntity
8
0
100
AcDbSpline
62
9
6
CONTINUOUS
70
0
71
3
72
10
73
6
74
4
42
0.0000001000
43
0.0000001000
44
0.0000000001
12
0.0138323985
22
24.3897425496
32
0.0000000000
13
-0.0209856391
23
24.3897374437
33
0.0000000000
40
0.0000000000
40
0.0000000000
40
0.0000000000
40
0.0000000000
40
0.3333876987
40
0.6667827043
40
1.0000000000
40
1.0000000000
40
1.0000000000
40
1.0000000000
10
-9.6854319508
20
-9.6527437806
30
0.0000000000
10
-9.6838947670
20
-6.9423304008
30
0.0000000000
10
-9.6821111446
20
-1.5214434124
30
0.0000000000
10
-9.6833012045
20
6.6084722666
30
0.0000000000
10
-9.6866722111
20
12.0279731388
30
0.0000000000
10
-9.6890031371
20
14.7370005904
30
0.0000000000
11
-9.6854319508
21
-9.6527437806
31
0.0000000000
11
-9.6827554335
21
-1.5215027738
31
0.0000000000
11
-9.6839461842
21
6.6099168007
31
0.0000000000
11
-9.6890031371
21
14.7370005904
31
0.0000000000
0
SPLINE
5
49C
100
AcDbEntity
8
0
100
AcDbSpline
62
0
6
CONTINUOUS
70
0
71
3
72
8
73
4
74
2
42
0.0000001000
43
0.0000001000
44
0.0000000001
12
-0.0781997658
22
0.0000000000
32
0.0000000000
13
-0.0761850971
23
0.0203857273
33
0.0000000000
40
0.0000000000
40
0.0000000000
40
0.0000000000
40
0.0000000000
40
1.0000000000
40
1.0000000000
40
1.0000000000
40
1.0000000000
10
5.0040132040
20
18.5403428117
30
0.0000000000
10
4.9779466154
20
18.5403428117
30
0.0000000000
10
4.9516885637
20
18.5438269622
30
0.0000000000
10
4.9262935313
20
18.5506222046
30
0.0000000000
11
5.0040132040
21
18.5403428117
31
0.0000000000
11
4.9262935313
21
18.5506222046
31
0.0000000000
0
SPLINE
5
49D
100
AcDbEntity
8
0
100
AcDbSpline
62
0
6
CONTINUOUS
70
0
71
3
72
9
73
5
74
3
42
0.0000001000
43
0.0000001000
44
0.0000000001
12
-0.1134355786
22
0.0303532693
32
0.0000000000
13
-0.0930173278
23
0.0711766368
33
0.0000000000
40
0.0000000000
40
0.0000000000
40
0.0000000000
40
0.0000000000
40
0.3338310232
40
1.0000000000
40
1.0000000000
40
1.0000000000
40
1.0000000000
10
4.9262935313
20
18.5506222046
30
0.0000000000
10
4.9136707595
20
18.5539998256
30
0.0000000000
10
4.8764976130
20
18.5665680920
30
0.0000000000
10
4.8423997431
20
18.5862862254
30
0.0000000000
10
4.8217446570
20
18.6020914479
30
0.0000000000
11
4.9262935313
21
18.5506222046
31
0.0000000000
11
4.8891943790
21
18.5631879837
31
0.0000000000
11
4.8217446570
21
18.6020914479
31
0.0000000000
0
SPLINE
5
49E
100
AcDbEntity
8
0
100
AcDbSpline
62
0
6
CONTINUOUS
70
0
71
3
72
9
73
5
74
3
42
0.0000001000
43
0.0000001000
44
0.0000000001
12
-0.0621281553
22
0.0475403159
32
0.0000000000
13
-0.0477446855
23
0.0619758402
33
0.0000000000
40
0.0000000000
40
0.0000000000
40
0.0000000000
40
0.0000000000
40
0.4994285084
40
1.0000000000
40
1.0000000000
40
1.0000000000
40
1.0000000000
10
4.8217446570
20
18.6020914479
30
0.0000000000
10
4.8114017997
20
18.6100057775
30
0.0000000000
10
4.7917265820
20
18.6271928499
30
0.0000000000
10
4.7744719673
20
18.6468102090
30
0.0000000000
10
4.7665054245
20
18.6571513219
30
0.0000000000
11
4.8217446570
21
18.6020914479
31
0.0000000000
11
4.7923528386
21
18.6277793889
31
0.0000000000
11
4.7665054245
21
18.6571513219
31
0.0000000000
0
SPLINE
5
49F
100
AcDbEntity
8
0
100
AcDbSpline
62
0
6
CONTINUOUS
70
0
71
3
72
9
73
5
74
3
42
0.0000001000
43
0.0000001000
44
0.0000000001
12
-0.1201683711
22
0.1559866964
32
0.0000000000
13
0.0001077252
23
0.1957376584
33
0.0000000000
40
0.0000000000
40
0.0000000000
40
0.0000000000
40
0.0000000000
40
0.3984369296
40
1.0000000000
40
1.0000000000
40
1.0000000000
40
1.0000000000
10
4.7665054245
20
18.6571513219
30
0.0000000000
10
4.7505455855
20
18.6778682754
30
0.0000000000
10
4.7172446529
20
18.7351140975
30
0.0000000000
10
4.7041439634
20
18.8010932962
30
0.0000000000
10
4.7041655645
20
18.8403428117
30
0.0000000000
11
4.7665054245
21
18.6571513219
31
0.0000000000
11
4.7272157716
21
18.7248724155
31
0.0000000000
11
4.7041655645
21
18.8403428117
31
0.0000000000
0
SPLINE
5
4A0
100
AcDbEntity
8
0
100
AcDbSpline
62
0
6
CONTINUOUS
70
0
71
3
72
13
73
9
74
7
42
0.0000001000
43
0.0000001000
44
0.0000000001
12
-0.3929028468
22
0.0144734551
32
0.0000000000
13
0.1614176780
23
-0.3585058733
33
0.0000000000
40
0.0000000000
40
0.0000000000
40
0.0000000000
40
0.0000000000
40
0.1781645853
40
0.3456835577
40
0.5045628521
40
0.6620405003
40
0.8271351757
40
1.0000000000
40
1.0000000000
40
1.0000000000
40
1.0000000000
10
6.1772801061
20
-10.9855748402
30
0.0000000000
10
6.1539463152
20
-10.9847152878
30
0.0000000000
10
6.1079890466
20
-10.9906864928
30
0.0000000000
10
6.0478697670
20
-11.0209575243
30
0.0000000000
10
6.0027906473
20
-11.0672039581
30
0.0000000000
10
5.9754580107
20
-11.1253906229
30
0.0000000000
10
5.9689994582
20
-11.1912733653
30
0.0000000000
10
5.9803598921
20
-11.2351958242
30
0.0000000000
10
5.9896610383
20
-11.2558535092
30
0.0000000000
11
6.1772801061
21
-10.9855748402
31
0.0000000000
11
6.1078404749
21
-10.9947932607
31
0.0000000000
11
6.0490747548
21
-11.0245349405
31
0.0000000000
11
6.0055637834
21
-11.0693551910
31
0.0000000000
11
5.9792527839
21
-11.1254020099
31
0.0000000000
11
5.9728631162
21
-11.1899969133
31
0.0000000000
11
5.9896610383
21
-11.2558535092
31
0.0000000000
0
SPLINE
5
4A1
100
AcDbEntity
8
0
100
AcDbSpline
62
0
6
CONTINUOUS
70
0
71
3
72
13
73
9
74
7
42
0.0000001000
43
0.0000001000
44
0.0000000001
12
-0.1614175509
22
-0.3585055910
32
0.0000000000
13
0.3929025374
23
0.0144734437
33
0.0000000000
40
0.0000000000
40
0.0000000000
40
0.0000000000
40
0.0000000000
40
0.1716822213
40
0.3356784806
40
0.4928273684
40
0.6514013980
40
0.8198155947
40
1.0000000000
40
1.0000000000
40
1.0000000000
40
1.0000000000
10
5.9896610383
20
-14.6634608673
30
0.0000000000
10
5.9804235304
20
-14.6839772127
30
0.0000000000
10
5.9690928124
20
-14.7275754431
30
0.0000000000
10
5.9752735596
20
-14.7931155747
30
0.0000000000
10
6.0022009120
20
-14.8512317624
30
0.0000000000
10
6.0470318241
20
-14.8977614629
30
0.0000000000
10
6.1073228766
20
-14.9284964412
30
0.0000000000
10
6.1536818027
20
-14.9346088326
30
0.0000000000
10
6.1772801061
20
-14.9337395363
30
0.0000000000
11
5.9896610383
21
-14.6634608673
31
0.0000000000
11
5.9728984764
21
-14.7288465259
31
0.0000000000
11
5.9790099512
21
-14.7930344888
31
0.0000000000
11
6.0049734451
21
-14.8491006649
31
0.0000000000
11
6.0481413690
21
-14.8940851464
31
0.0000000000
11
6.1070716976
21
-14.9242791055
31
0.0000000000
11
6.1772801061
21
-14.9337395363
31
0.0000000000
0
SPLINE
5
4A2
100
AcDbEntity
8
0
100
AcDbSpline
62
0
6
CONTINUOUS
70
0
71
3
72
13
73
9
74
7
42
0.0000001000
43
0.0000001000
44
0.0000000001
12
0.3929028468
22
-0.0144734551
32
0.0000000000
13
-0.1614176780
23
0.3585058733
33
0.0000000000
40
0.0000000000
40
0.0000000000
40
0.0000000000
40
0.0000000000
40
0.1781645853
40
0.3456835577
40
0.5045628521
40
0.6620405003
40
0.8271351757
40
1.0000000000
40
1.0000000000
40
1.0000000000
40
1.0000000000
10
-5.9661950826
20
-14.9337395363
30
0.0000000000
10
-5.9428612917
20
-14.9345990887
30
0.0000000000
10
-5.8969040231
20
-14.9286278837
30
0.0000000000
10
-5.8367847435
20
-14.8983568522
30
0.0000000000
10
-5.7917056239
20
-14.8521104184
30
0.0000000000
10
-5.7643729873
20
-14.7939237536
30
0.0000000000
10
-5.7579144348
20
-14.7280410112
30
0.0000000000
10
-5.7692748687
20
-14.6841185523
30
0.0000000000
10
-5.7785760148
20
-14.6634608673
30
0.0000000000
11
-5.9661950826
21
-14.9337395363
31
0.0000000000
11
-5.8967554514
21
-14.9245211158
31
0.0000000000
11
-5.8379897313
21
-14.8947794361
31
0.0000000000
11
-5.7944787599
21
-14.8499591856
31
0.0000000000
11
-5.7681677604
21
-14.7939123666
31
0.0000000000
11
-5.7617780927
21
-14.7293174632
31
0.0000000000
11
-5.7785760148
21
-14.6634608673
31
0.0000000000
0
SPLINE
5
4A3
100
AcDbEntity
8
0
100
AcDbSpline
62
0
6
CONTINUOUS
70
0
71
3
72
13
73
9
74
7
42
0.0000001000
43
0.0000001000
44
0.0000000001
12
0.1614175509
22
0.3585055910
32
0.0000000000
13
-0.3929025374
23
-0.0144734437
33
0.0000000000
40
0.0000000000
40
0.0000000000
40
0.0000000000
40
0.0000000000
40
0.1716822213
40
0.3356784806
40
0.4928273684
40
0.6514013980
40
0.8198155947
40
1.0000000000
40
1.0000000000
40
1.0000000000
40
1.0000000000
10
-5.7785760148
20
-11.2558535092
30
0.0000000000
10
-5.7693385069
20
-11.2353371638
30
0.0000000000
10
-5.7580077889
20
-11.1917389334
30
0.0000000000
10
-5.7641885361
20
-11.1261988018
30
0.0000000000
10
-5.7911158885
20
-11.0680826141
30
0.0000000000
10
-5.8359468006
20
-11.0215529136
30
0.0000000000
10
-5.8962378531
20
-10.9908179353
30
0.0000000000
10
-5.9425967793
20
-10.9847055439
30
0.0000000000
10
-5.9661950826
20
-10.9855748402
30
0.0000000000
11
-5.7785760148
21
-11.2558535092
31
0.0000000000
11
-5.7618134529
21
-11.1904678506
31
0.0000000000
11
-5.7679249277
21
-11.1262798877
31
0.0000000000
11
-5.7938884217
21
-11.0702137116
31
0.0000000000
11
-5.8370563455
21
-11.0252292301
31
0.0000000000
11
-5.8959866741
21
-10.9950352710
31
0.0000000000
11
-5.9661950826
21
-10.9855748402
31
0.0000000000
0
SPLINE
5
4A4
100
AcDbEntity
8
0
100
AcDbSpline
62
0
6
CONTINUOUS
70
0
71
3
72
10
73
6
74
4
42
0.0000001000
43
0.0000001000
44
0.0000000001
12
-0.1284179132
22
-0.3350210411
32
0.0000000000
13
-0.3587899921
23
0.0000000000
33
0.0000000000
40
0.0000000000
40
0.0000000000
40
0.0000000000
40
0.0000000000
40
0.3342255691
40
0.6672833410
40
1.0000000000
40
1.0000000000
40
1.0000000000
40
1.0000000000
10
6.9209924826
20
-14.7671503618
30
0.0000000000
10
6.9066856326
20
-14.8044745612
30
0.0000000000
10
6.8624537921
20
-14.8739863824
30
0.0000000000
10
6.7613750204
20
-14.9433512829
30
0.0000000000
10
6.6808291893
20
-14.9596571883
30
0.0000000000
10
6.6410373868
20
-14.9596571883
30
0.0000000000
11
6.9209924826
21
-14.7671503618
31
0.0000000000
11
6.8565519650
21
-14.8682812475
31
0.0000000000
11
6.7580246035
21
-14.9358984208
31
0.0000000000
11
6.6410373868
21
-14.9596571883
31
0.0000000000
0
SPLINE
5
4A5
100
AcDbEntity
8
0
100
AcDbSpline
62
0
6
CONTINUOUS
70
0
71
3
72
10
73
6
74
4
42
0.0000001000
43
0.0000001000
44
0.0000000001
12
0.3587899764
22
0.0000000000
32
0.0000000000
13
0.1284179075
23
-0.3350210265
33
0.0000000000
40
0.0000000000
40
0.0000000000
40
0.0000000000
40
0.0000000000
40
0.3344497805
40
0.6674466338
40
1.0000000000
40
1.0000000000
40
1.0000000000
40
1.0000000000
10
6.6410373868
20
-10.9596571883
30
0.0000000000
10
6.6810364631
20
-10.9596571882
30
0.0000000000
10
6.7617960610
20
-10.9760950627
30
0.0000000000
10
6.8627256406
20
-11.0456741521
30
0.0000000000
10
6.9067572135
20
-11.1150265580
30
0.0000000000
10
6.9209924826
20
-11.1521640147
30
0.0000000000
11
6.6410373868
21
-10.9596571883
31
0.0000000000
11
6.7586086448
21
-10.9836641499
31
0.0000000000
11
6.8569771559
21
-11.0514736967
31
0.0000000000
11
6.9209924826
21
-11.1521640147
31
0.0000000000
0
SPLINE
5
4A6
100
AcDbEntity
8
0
100
AcDbSpline
62
0
6
CONTINUOUS
70
0
71
3
72
10
73
6
74
4
42
0.0000001000
43
0.0000001000
44
0.0000000001
12
-0.3587899764
22
-0.0000000000
32
0.0000000000
13
-0.1284179075
23
0.3350210265
33
0.0000000000
40
0.0000000000
40
0.0000000000
40
0.0000000000
40
0.0000000000
40
0.3344497805
40
0.6674466338
40
1.0000000000
40
1.0000000000
40
1.0000000000
40
1.0000000000
10
-6.4299523633
20
-14.9596571883
30
0.0000000000
10
-6.4699514396
20
-14.9596571883
30
0.0000000000
10
-6.5507110375
20
-14.9432193138
30
0.0000000000
10
-6.6516406171
20
-14.8736402244
30
0.0000000000
10
-6.6956721900
20
-14.8042878185
30
0.0000000000
10
-6.7099074591
20
-14.7671503618
30
0.0000000000
11
-6.4299523633
21
-14.9596571883
31
0.0000000000
11
-6.5475236214
21
-14.9356502266
31
0.0000000000
11
-6.6458921324
21
-14.8678406798
31
0.0000000000
11
-6.7099074591
21
-14.7671503618
31
0.0000000000
0
SPLINE
5
4A7
100
AcDbEntity
8
0
100
AcDbSpline
62
0
6
CONTINUOUS
70
0
71
3
72
10
73
6
74
4
42
0.0000001000
43
0.0000001000
44
0.0000000001
12
0.1284179132
22
0.3350210411
32
0.0000000000
13
0.3587899921
23
-0.0000000000
33
0.0000000000
40
0.0000000000
40
0.0000000000
40
0.0000000000
40
0.0000000000
40
0.3342255691
40
0.6672833410
40
1.0000000000
40
1.0000000000
40
1.0000000000
40
1.0000000000
10
-6.7099074591
20
-11.1521640147
30
0.0000000000
10
-6.6956006091
20
-11.1148398153
30
0.0000000000
10
-6.6513687686
20
-11.0453279941
30
0.0000000000
10
-6.5502899969
20
-10.9759630936
30
0.0000000000
10
-6.4697441658
20
-10.9596571882
30
0.0000000000
10
-6.4299523633
20
-10.9596571883
30
0.0000000000
11
-6.7099074591
21
-11.1521640147
31
0.0000000000
11
-6.6454669415
21
-11.0510331290
31
0.0000000000
11
-6.5469395800
21
-10.9834159557
31
0.0000000000
11
-6.4299523633
21
-10.9596571883
31
0.0000000000
0
SPLINE
5
4A8
100
AcDbEntity
8
0
100
AcDbSpline
62
0
6
CONTINUOUS
70
0
71
3
72
9
73
5
74
3
42
0.0000001000
43
0.0000001000
44
0.0000000001
12
-0.0128530148
22
-0.3469954860
32
0.0000000000
13
-0.0353849028
23
-0.3454257893
33
0.0000000000
40
0.0000000000
40
0.0000000000
40
0.0000000000
40
0.0000000000
40
0.5044185972
40
1.0000000000
40
1.0000000000
40
1.0000000000
40
1.0000000000
10
5.7113265863
20
-15.7061375899
30
0.0000000000
10
5.7091654864
20
-15.7644812486
30
0.0000000000
10
5.7034733925
20
-15.8801141440
30
0.0000000000
10
5.6930461096
20
-15.9954153122
30
0.0000000000
10
5.6872007431
20
-16.0524775113
30
0.0000000000
11
5.7113265863
21
-15.7061375899
31
0.0000000000
11
5.7022182778
21
-15.8810516103
31
0.0000000000
11
5.6872007431
21
-16.0524775113
31
0.0000000000
0
SPLINE
5
4A9
100
AcDbEntity
8
0
100
AcDbSpline
62
0
6
CONTINUOUS
70
0
71
3
72
9
73
5
74
3
42
0.0000001000
43
0.0000001000
44
0.0000000001
12
-0.0353819898
22
0.3454239664
32
0.0000000000
13
-0.0128503393
23
0.3469934733
33
0.0000000000
40
0.0000000000
40
0.0000000000
40
0.0000000000
40
0.0000000000
40
0.4955902418
40
1.0000000000
40
1.0000000000
40
1.0000000000
40
1.0000000000
10
-5.4761157196
20
-16.0524775113
30
0.0000000000
10
-5.4819607092
20
-15.9954145956
30
0.0000000000
10
-5.4925069598
20
-15.8801235498
30
0.0000000000
10
-5.4980807378
20
-15.7644841161
30
0.0000000000
10
-5.5002413500
20
-15.7061418181
30
0.0000000000
11
-5.4761157196
21
-16.0524775113
31
0.0000000000
11
-5.4911926596
21
-15.8810547936
31
0.0000000000
11
-5.5002413500
21
-15.7061418181
31
0.0000000000
0
SPLINE
5
4AA
100
AcDbEntity
8
0
100
AcDbSpline
62
0
6
CONTINUOUS
70
0
71
3
72
9
73
5
74
3
42
0.0000001000
43
0.0000001000
44
0.0000000001
12
-0.2222893711
22
0.0070234237
32
0.0000000000
13
-0.2222919883
23
0.0069400956
33
0.0000000000
40
0.0000000000
40
0.0000000000
40
0.0000000000
40
0.0000000000
40
0.5024679695
40
1.0000000000
40
1.0000000000
40
1.0000000000
40
1.0000000000
10
6.4034586615
20
-10.9596571883
30
0.0000000000
10
6.3662275651
20
-10.9584808398
30
0.0000000000
10
6.2921313869
20
-10.9561308489
30
0.0000000000
10
6.2180341261
20
-10.9538152232
30
0.0000000000
10
6.1811683314
20
-10.9526642499
30
0.0000000000
11
6.4034586615
21
-10.9596571883
31
0.0000000000
11
6.2917653793
21
-10.9561279258
31
0.0000000000
11
6.1811683314
21
-10.9526642499
31
0.0000000000
0
SPLINE
5
4AB
100
AcDbEntity
8
0
100
AcDbSpline
62
0
6
CONTINUOUS
70
0
71
3
72
8
73
4
74
2
42
0.0000001000
43
0.0000001000
44
0.0000000001
12
-0.0735982742
22
-0.0022978077
32
0.0000000000
13
-0.0735979766
23
-0.0023073249
33
0.0000000000
40
0.0000000000
40
0.0000000000
40
0.0000000000
40
0.0000000000
40
1.0000000000
40
1.0000000000
40
1.0000000000
40
1.0000000000
10
-5.9700832212
20
-10.9526658229
30
0.0000000000
10
-5.9946159793
20
-10.9534317588
30
0.0000000000
10
-6.0191487166
20
-10.9541983722
30
0.0000000000
10
-6.0436813754
20
-10.9549674805
30
0.0000000000
11
-5.9700832212
21
-10.9526658229
31
0.0000000000
11
-6.0436813754
21
-10.9549674805
31
0.0000000000
0
SPLINE
5
4AC
100
AcDbEntity
8
0
100
AcDbSpline
62
0
6
CONTINUOUS
70
0
71
3
72
9
73
5
74
3
42
0.0000001000
43
0.0000001000
44
0.0000000001
12
-0.1486931476
22
-0.0046615873
32
0.0000000000
13
-0.1486919981
23
-0.0046980982
33
0.0000000000
40
0.0000000000
40
0.0000000000
40
0.0000000000
40
0.0000000000
40
0.2487413708
40
1.0000000000
40
1.0000000000
40
1.0000000000
40
1.0000000000
10
-6.0436813754
20
-10.9549674805
30
0.0000000000
10
-6.0560100879
20
-10.9553539904
30
0.0000000000
10
-6.1055743908
20
-10.9569103859
30
0.0000000000
10
-6.1551382557
20
-10.9584806926
30
0.0000000000
10
-6.1923736380
20
-10.9596571883
30
0.0000000000
11
-6.0436813754
21
-10.9549674805
31
0.0000000000
11
-6.0806674461
21
-10.9561291310
31
0.0000000000
11
-6.1923736380
21
-10.9596571883
31
0.0000000000
0
SPLINE
5
4AD
100
AcDbEntity
8
0
100
AcDbSpline
62
0
6
CONTINUOUS
70
0
71
3
72
10
73
6
74
4
42
0.0000001000
43
0.0000001000
44
0.0000000001
12
0.0084177384
22
0.8670354845
32
0.0000000000
13
0.0081319363
23
0.8670382121
33
0.0000000000
40
0.0000000000
40
0.0000000000
40
0.0000000000
40
0.0000000000
40
0.3399298113
40
0.6732566750
40
1.0000000000
40
1.0000000000
40
1.0000000000
40
1.0000000000
10
5.3577326207
20
-19.2651858117
30
0.0000000000
10
5.3586864341
20
-19.1669420755
30
0.0000000000
10
5.3605663732
20
-18.9723628439
30
0.0000000000
10
5.3633285183
20
-18.6833505936
30
0.0000000000
10
5.3651298654
20
-18.4925820151
30
0.0000000000
10
5.3660155507
20
-18.3981490323
30
0.0000000000
11
5.3577326207
21
-19.2651858117
31
0.0000000000
11
5.3605796339
21
-18.9704544633
31
0.0000000000
11
5.3633411278
21
-18.6814478172
31
0.0000000000
11
5.3660155507
21
-18.3981490323
31
0.0000000000
0
SPLINE
5
4AE
100
AcDbEntity
8
0
100
AcDbSpline
62
0
6
CONTINUOUS
70
0
71
3
72
9
73
5
74
3
42
0.0000001000
43
0.0000001000
44
0.0000000001
12
-0.3476583874
22
0.7003425266
32
0.0000000000
13
-0.3775378304
23
0.6846978863
33
0.0000000000
40
0.0000000000
40
0.0000000000
40
0.0000000000
40
0.0000000000
40
0.5060313535
40
1.0000000000
40
1.0000000000
40
1.0000000000
40
1.0000000000
10
7.6827905267
20
-16.0524775113
30
0.0000000000
10
7.6241485119
20
-15.9343457524
30
0.0000000000
10
7.5058807227
20
-15.7020717703
30
0.0000000000
10
7.3826355916
20
-15.4723969510
30
0.0000000000
10
7.3204716413
20
-15.3596571883
30
0.0000000000
11
7.6827905267
21
-16.0524775113
31
0.0000000000
11
7.5031795564
21
-15.6999354790
31
0.0000000000
11
7.3204716413
21
-15.3596571883
31
0.0000000000
0
SPLINE
5
4AF
100
AcDbEntity
8
0
100
AcDbSpline
62
0
6
CONTINUOUS
70
0
71
3
72
10
73
6
74
4
42
0.0000001000
43
0.0000001000
44
0.0000000001
12
-0.9616028751
22
-0.1479040958
32
0.0000000000
13
-0.9725247031
23
-0.0274119078
33
0.0000000000
40
0.0000000000
40
0.0000000000
40
0.0000000000
40
0.0000000000
40
0.3478363285
40
0.6811533615
40
1.0000000000
40
1.0000000000
40
1.0000000000
40
1.0000000000
10
3.1747770930
20
-20.0231152091
30
0.0000000000
10
3.0632836218
20
-20.0402640150
30
0.0000000000
10
2.8440876284
20
-20.0684066384
30
0.0000000000
10
2.5204680921
20
-20.0928301966
30
0.0000000000
10
2.3089045892
20
-20.0943985201
30
0.0000000000
10
2.2055425117
20
-20.0973119183
30
0.0000000000
11
3.1747770930
21
-20.0231152091
31
0.0000000000
11
2.8390923249
21
-20.0660059697
31
0.0000000000
11
2.5156518128
21
-20.0894325792
31
0.0000000000
11
2.2055425117
21
-20.0973119183
31
0.0000000000
0
SPLINE
5
4B0
100
AcDbEntity
8
0
100
AcDbSpline
62
0
6
CONTINUOUS
70
0
71
3
72
10
73
6
74
4
42
0.0000001000
43
0.0000001000
44
0.0000000001
12
-0.0087035788
22
0.8519111725
32
0.0000000000
13
-0.0085385754
23
0.8519128423
33
0.0000000000
40
0.0000000000
40
0.0000000000
40
0.0000000000
40
0.0000000000
40
0.3390220982
40
0.6723674445
40
1.0000000000
40
1.0000000000
40
1.0000000000
40
1.0000000000
10
4.7536954495
20
-19.5662703733
30
0.0000000000
10
4.7527118809
20
-19.4699981356
30
0.0000000000
10
4.7507664378
20
-19.2790656361
30
0.0000000000
10
4.7478903388
20
-18.9950949898
30
0.0000000000
10
4.7460019779
20
-18.8073965399
30
0.0000000000
10
4.7450694728
20
-18.7143584127
30
0.0000000000
11
4.7536954495
21
-19.5662703733
31
0.0000000000
11
4.7507529739
21
-19.2774535761
31
0.0000000000
11
4.7478771325
21
-18.9934726924
31
0.0000000000
11
4.7450694728
21
-18.7143584127
31
0.0000000000
0
SPLINE
5
4B1
100
AcDbEntity
8
0
100
AcDbSpline
62
0
6
CONTINUOUS
70
0
71
3
72
10
73
6
74
4
42
0.0000001000
43
0.0000001000
44
0.0000000001
12
0.0081319363
22
-0.8670382121
32
0.0000000000
13
0.0084177384
23
-0.8670354845
33
0.0000000000
40
0.0000000000
40
0.0000000000
40
0.0000000000
40
0.0000000000
40
0.3266032406
40
0.6599278034
40
1.0000000000
40
1.0000000000
40
1.0000000000
40
1.0000000000
10
-5.1549305272
20
-18.3981490323
30
0.0000000000
10
-5.1540452216
20
-18.4925415289
30
0.0000000000
10
-5.1522442683
20
-18.6832689563
30
0.0000000000
10
-5.1494821365
20
-18.9722812067
30
0.0000000000
10
-5.1476018101
20
-19.1669009244
30
0.0000000000
10
-5.1466475972
20
-19.2651858117
30
0.0000000000
11
-5.1549305272
21
-18.3981490323
31
0.0000000000
11
-5.1522572581
21
-18.6813263589
31
0.0000000000
11
-5.1494957967
21
-18.9703310101
31
0.0000000000
11
-5.1466475972
21
-19.2651858117
31
0.0000000000
0
SPLINE
5
4B2
100
AcDbEntity
8
0
100
AcDbSpline
62
0
6
CONTINUOUS
70
0
71
3
72
9
73
5
74
3
42
0.0000001000
43
0.0000001000
44
0.0000000001
12
-0.3775378306
22
-0.6846978867
32
0.0000000000
13
-0.3476583876
23
-0.7003425270
33
0.0000000000
40
0.0000000000
40
0.0000000000
40
0.0000000000
40
0.0000000000
40
0.4937509951
40
1.0000000000
40
1.0000000000
40
1.0000000000
40
1.0000000000
10
-7.1093866178
20
-15.3596571883
30
0.0000000000
10
-7.1715231776
20
-15.4723472759
30
0.0000000000
10
-7.2947694488
20
-15.7020214535
30
0.0000000000
10
-7.4130382656
20
-15.9342949422
30
0.0000000000
10
-7.4717055032
20
-16.0524775113
30
0.0000000000
11
-7.1093866178
21
-15.3596571883
31
0.0000000000
11
-7.2920156619
21
-15.6997846695
31
0.0000000000
11
-7.4717055032
21
-16.0524775113
31
0.0000000000
0
SPLINE
5
4B3
100
AcDbEntity
8
0
100
AcDbSpline
62
0
6
CONTINUOUS
70
0
71
3
72
10
73
6
74
4
42
0.0000001000
43
0.0000001000
44
0.0000000001
12
-0.9725251700
22
0.0273954608
32
0.0000000000
13
-0.9616029541
23
0.1479036043
33
0.0000000000
40
0.0000000000
40
0.0000000000
40
0.0000000000
40
0.0000000000
40
0.3188380122
40
0.6521594051
40
1.0000000000
40
1.0000000000
40
1.0000000000
40
1.0000000000
10
-1.9944574883
20
-20.0973119177
30
0.0000000000
10
-2.0978168189
20
-20.0944003463
30
0.0000000000
10
-2.3093788784
20
-20.0928299360
30
0.0000000000
10
-2.6329984311
20
-20.0684071182
30
0.0000000000
10
-2.8521972217
20
-20.0402641683
30
0.0000000000
10
-2.9636920695
20
-20.0231152091
30
0.0000000000
11
-1.9944574883
21
-20.0973119177
31
0.0000000000
11
-2.3045584102
21
-20.0894331763
31
0.0000000000
11
-2.6280031560
21
-20.0660062857
31
0.0000000000
11
-2.9636920695
21
-20.0231152091
31
0.0000000000
0
SPLINE
5
4B4
100
AcDbEntity
8
0
100
AcDbSpline
62
0
6
CONTINUOUS
70
0
71
3
72
10
73
6
74
4
42
0.0000001000
43
0.0000001000
44
0.0000000001
12
-0.0085385754
22
-0.8519128423
32
0.0000000000
13
-0.0087035788
23
-0.8519111725
33
0.0000000000
40
0.0000000000
40
0.0000000000
40
0.0000000000
40
0.0000000000
40
0.3274852609
40
0.6608294033
40
1.0000000000
40
1.0000000000
40
1.0000000000
40
1.0000000000
10
-4.5339844493
20
-18.7143584127
30
0.0000000000
10
-4.5349165352
20
-18.8073547125
30
0.0000000000
10
-4.5368044686
20
-18.9950109932
30
0.0000000000
10
-4.5396805596
20
-19.2789816396
30
0.0000000000
10
-4.5416264266
20
-19.4699559664
30
0.0000000000
10
-4.5426104260
20
-19.5662703733
30
0.0000000000
11
-4.5339844493
21
-18.7143584127
31
0.0000000000
11
-4.5367908424
21
-18.9933472103
31
0.0000000000
11
-4.5396666653
21
-19.2773270685
31
0.0000000000
11
-4.5426104260
21
-19.5662703733
31
0.0000000000
0
SPLINE
5
4B5
100
AcDbEntity
8
0
100
AcDbSpline
62
0
6
CONTINUOUS
70
0
71
3
72
9
73
5
74
3
42
0.0000001000
43
0.0000001000
44
0.0000000001
12
0.0001684951
22
-0.1433881836
32
0.0000000000
13
0.0031610066
23
-0.1433534360
33
0.0000000000
40
0.0000000000
40
0.0000000000
40
0.0000000000
40
0.0000000000
40
0.5584455691
40
1.0000000000
40
1.0000000000
40
1.0000000000
40
1.0000000000
10
-5.1457738522
20
-20.0231152098
30
0.0000000000
10
-5.1457424871
20
-20.0498067084
30
0.0000000000
10
-5.1455191281
20
-20.0976024302
30
0.0000000000
10
-5.1449227404
20
-20.1453963862
30
0.0000000000
10
-5.1444574883
20
-20.1664958345
30
0.0000000000
11
-5.1457738522
21
-20.0231152098
31
0.0000000000
11
-5.1453766862
21
-20.1031887758
31
0.0000000000
11
-5.1444574883
21
-20.1664958345
31
0.0000000000
0
SPLINE
5
4B6
100
AcDbEntity
8
0
100
AcDbSpline
62
0
6
CONTINUOUS
70
0
71
3
72
9
73
5
74
3
42
0.0000001000
43
0.0000001000
44
0.0000000001
12
0.0031610066
22
0.1433534360
32
0.0000000000
13
0.0001684951
23
0.1433881836
33
0.0000000000
40
0.0000000000
40
0.0000000000
40
0.0000000000
40
0.0000000000
40
0.4415544309
40
1.0000000000
40
1.0000000000
40
1.0000000000
40
1.0000000000
10
-4.5444574883
20
-20.1664958345
30
0.0000000000
10
-4.5439922361
20
-20.1453963862
30
0.0000000000
10
-4.5433958484
20
-20.0976024302
30
0.0000000000
10
-4.5431724894
20
-20.0498067084
30
0.0000000000
10
-4.5431411243
20
-20.0231152098
30
0.0000000000
11
-4.5444574883
21
-20.1664958345
31
0.0000000000
11
-4.5435382904
21
-20.1031887758
31
0.0000000000
11
-4.5431411243
21
-20.0231152098
31
0.0000000000
0
SPLINE
5
4B7
100
AcDbEntity
8
0
100
AcDbSpline
62
0
6
CONTINUOUS
70
0
71
3
72
9
73
5
74
3
42
0.0000001000
43
0.0000001000
44
0.0000000001
12
0.0001684951
22
-0.1433881836
32
0.0000000000
13
0.0031610066
23
-0.1433534360
33
0.0000000000
40
0.0000000000
40
0.0000000000
40
0.0000000000
40
0.0000000000
40
0.5584455691
40
1.0000000000
40
1.0000000000
40
1.0000000000
40
1.0000000000
10
4.7542261478
20
-20.0231152098
30
0.0000000000
10
4.7542575129
20
-20.0498067084
30
0.0000000000
10
4.7544808719
20
-20.0976024302
30
0.0000000000
10
4.7550772596
20
-20.1453963862
30
0.0000000000
10
4.7555425117
20
-20.1664958345
30
0.0000000000
11
4.7542261478
21
-20.0231152098
31
0.0000000000
11
4.7546233138
21
-20.1031887758
31
0.0000000000
11
4.7555425117
21
-20.1664958345
31
0.0000000000
0
SPLINE
5
4B8
100
AcDbEntity
8
0
100
AcDbSpline
62
0
6
CONTINUOUS
70
0
71
3
72
9
73
5
74
3
42
0.0000001000
43
0.0000001000
44
0.0000000001
12
0.0031610066
22
0.1433534360
32
0.0000000000
13
0.0001684951
23
0.1433881836
33
0.0000000000
40
0.0000000000
40
0.0000000000
40
0.0000000000
40
0.0000000000
40
0.4415544309
40
1.0000000000
40
1.0000000000
40
1.0000000000
40
1.0000000000
10
5.3555425117
20
-20.1664958345
30
0.0000000000
10
5.3560077639
20
-20.1453963862
30
0.0000000000
10
5.3566041516
20
-20.0976024302
30
0.0000000000
10
5.3568275106
20
-20.0498067084
30
0.0000000000
10
5.3568588757
20
-20.0231152098
30
0.0000000000
11
5.3555425117
21
-20.1664958345
31
0.0000000000
11
5.3564617096
21
-20.1031887758
31
0.0000000000
11
5.3568588757
21
-20.0231152098
31
0.0000000000
0
SPLINE
5
4B9
100
AcDbEntity
8
0
100
AcDbSpline
62
0
6
CONTINUOUS
70
0
71
3
72
10
73
6
74
4
42
0.0000001000
43
0.0000001000
44
0.0000000001
12
-0.2000402238
22
0.0000000020
32
0.0000000000
13
-0.1415843180
23
-0.1413151515
33
0.0000000000
40
0.0000000000
40
0.0000000000
40
0.0000000000
40
0.0000000000
40
0.4938434697
40
0.8585468628
40
1.0000000000
40
1.0000000000
40
1.0000000000
40
1.0000000000
10
-9.4895598414
20
15.3465842969
30
0.0000000000
10
-9.5224893608
20
15.3465842972
30
0.0000000000
10
-9.5815136667
20
15.3499564264
30
0.0000000000
10
-9.6430651152
20
15.3386225993
30
0.0000000000
10
-9.6828596314
20
15.3498158473
30
0.0000000000
10
-9.6895354801
20
15.3431526901
30
0.0000000000
11
-9.4895598414
21
15.3465842969
31
0.0000000000
11
-9.5883473477
21
15.3461284125
31
0.0000000000
11
-9.6612920454
21
15.3448818424
31
0.0000000000
11
-9.6895354801
21
15.3431526901
31
0.0000000000
0
SPLINE
5
4BA
100
AcDbEntity
8
0
100
AcDbSpline
62
0
6
CONTINUOUS
70
0
71
3
72
10
73
6
74
4
42
0.0000001000
43
0.0000001000
44
0.0000000001
12
0.1416003721
22
-0.1413068262
32
0.0000000000
13
0.2000457061
23
0.0000000022
33
0.0000000000
40
0.0000000000
40
0.0000000000
40
0.0000000000
40
0.0000000000
40
0.1416012208
40
0.5063912846
40
1.0000000000
40
1.0000000000
40
1.0000000000
40
1.0000000000
10
-9.6890031371
20
14.7370005904
30
0.0000000000
10
-9.6823195419
20
14.7303308507
30
0.0000000000
10
-9.6425062242
20
14.7415260179
30
0.0000000000
10
-9.5809513665
20
14.7301949886
30
0.0000000000
10
-9.5219369791
20
14.7335633124
30
0.0000000000
10
-9.4890222111
20
14.7335633127
30
0.0000000000
11
-9.6890031371
21
14.7370005904
31
0.0000000000
11
-9.6607294702
21
14.7352677861
31
0.0000000000
11
-9.5877654612
21
14.7340195152
31
0.0000000000
11
-9.4890222111
21
14.7335633127
31
0.0000000000
0
SPLINE
5
4BB
100
AcDbEntity
8
0
100
AcDbSpline
62
0
6
CONTINUOUS
70
0
71
3
72
10
73
6
74
4
42
0.0000001000
43
0.0000001000
44
0.0000000001
12
0.2000457061
22
-0.0000000022
32
0.0000000000
13
0.1416003728
23
0.1413068256
33
0.0000000000
40
0.0000000000
40
0.0000000000
40
0.0000000000
40
0.0000000000
40
0.4936087153
40
0.8583987791
40
1.0000000000
40
1.0000000000
40
1.0000000000
40
1.0000000000
10
9.7001072345
20
14.7335633127
30
0.0000000000
10
9.7330220025
20
14.7335633124
30
0.0000000000
10
9.7920363900
20
14.7301949886
30
0.0000000000
10
9.8535912477
20
14.7415260179
30
0.0000000000
10
9.8934045653
20
14.7303308507
30
0.0000000000
10
9.9000881606
20
14.7370005904
30
0.0000000000
11
9.7001072345
21
14.7335633127
31
0.0000000000
11
9.7988504847
21
14.7340195152
31
0.0000000000
11
9.8718144936
21
14.7352677861
31
0.0000000000
11
9.9000881606
21
14.7370005904
31
0.0000000000
0
SPLINE
5
4BC
100
AcDbEntity
8
0
100
AcDbSpline
62
0
6
CONTINUOUS
70
0
71
3
72
10
73
6
74
4
42
0.0000001000
43
0.0000001000
44
0.0000000001
12
-0.1415843187
22
0.1413151508
32
0.0000000000
13
-0.2000402238
23
-0.0000000020
33
0.0000000000
40
0.0000000000
40
0.0000000000
40
0.0000000000
40
0.0000000000
40
0.1414531372
40
0.5061565303
40
1.0000000000
40
1.0000000000
40
1.0000000000
40
1.0000000000
10
9.9006205035
20
15.3431526901
30
0.0000000000
10
9.8939446549
20
15.3498158473
30
0.0000000000
10
9.8541501387
20
15.3386225993
30
0.0000000000
10
9.7925986901
20
15.3499564264
30
0.0000000000
10
9.7335743843
20
15.3465842972
30
0.0000000000
10
9.7006448649
20
15.3465842969
30
0.0000000000
11
9.9006205035
21
15.3431526901
31
0.0000000000
11
9.8723770689
21
15.3448818424
31
0.0000000000
11
9.7994323712
21
15.3461284125
31
0.0000000000
11
9.7006448649
21
15.3465842969
31
0.0000000000
0
SPLINE
5
4BD
100
AcDbEntity
8
0
100
AcDbSpline
62
0
6
CONTINUOUS
70
0
71
3
72
10
73
6
74
4
42
0.0000001000
43
0.0000001000
44
0.0000000001
12
0.1415636703
22
-0.1413300934
32
0.0000000000
13
0.2000361668
23
0.0000000018
33
0.0000000000
40
0.0000000000
40
0.0000000000
40
0.0000000000
40
0.0000000000
40
0.1414135165
40
0.5060936134
40
1.0000000000
40
1.0000000000
40
1.0000000000
40
1.0000000000
10
-9.6857908771
20
-10.2662116696
30
0.0000000000
10
-9.6791178716
20
-10.2728736648
30
0.0000000000
10
-9.6393273855
20
-10.2616796429
30
0.0000000000
10
-9.5777789350
20
-10.2730153175
30
0.0000000000
10
-9.5187522923
20
-10.2696417702
30
0.0000000000
10
-9.4858192455
20
-10.2696417700
30
0.0000000000
11
-9.6857908771
21
-10.2662116696
31
0.0000000000
11
-9.6575558994
21
-10.2679398679
31
0.0000000000
11
-9.5846173345
21
-10.2691859849
31
0.0000000000
11
-9.4858192455
21
-10.2696417700
31
0.0000000000
0
SPLINE
5
4BE
100
AcDbEntity
8
0
100
AcDbSpline
62
0
6
CONTINUOUS
70
0
71
3
72
10
73
6
74
4
42
0.0000001000
43
0.0000001000
44
0.0000000001
12
-0.2000398180
22
0.0000000015
32
0.0000000000
13
-0.1415468890
23
-0.1413520675
33
0.0000000000
40
0.0000000000
40
0.0000000000
40
0.0000000000
40
0.0000000000
40
0.4937534122
40
0.8584905077
40
1.0000000000
40
1.0000000000
40
1.0000000000
40
1.0000000000
10
-9.4854567992
20
-9.6493099077
30
0.0000000000
10
-9.5183802468
20
-9.6493099075
30
0.0000000000
10
-9.5774013272
20
-9.6459379968
30
0.0000000000
10
-9.6389495895
20
-9.6572742412
30
0.0000000000
10
-9.6787552080
20
-9.6460762275
30
0.0000000000
10
-9.6854319508
20
-9.6527437806
30
0.0000000000
11
-9.4854567992
21
-9.6493099077
31
0.0000000000
11
-9.5842260894
21
-9.6497658872
31
0.0000000000
11
-9.6571773701
21
-9.6510131450
31
0.0000000000
11
-9.6854319508
21
-9.6527437806
31
0.0000000000
0
SPLINE
5
4BF
100
AcDbEntity
8
0
100
AcDbSpline
62
0
6
CONTINUOUS
70
0
71
3
72
10
73
6
74
4
42
0.0000001000
43
0.0000001000
44
0.0000000001
12
-0.1415468889
22
0.1413520677
32
0.0000000000
13
-0.2000398180
23
-0.0000000015
33
0.0000000000
40
0.0000000000
40
0.0000000000
40
0.0000000000
40
0.0000000000
40
0.1415094923
40
0.5062465878
40
1.0000000000
40
1.0000000000
40
1.0000000000
40
1.0000000000
10
9.8965169743
20
-9.6527437806
30
0.0000000000
10
9.8898402315
20
-9.6460762275
30
0.0000000000
10
9.8500346130
20
-9.6572742412
30
0.0000000000
10
9.7884863507
20
-9.6459379968
30
0.0000000000
10
9.7294652703
20
-9.6493099075
30
0.0000000000
10
9.6965418227
20
-9.6493099077
30
0.0000000000
11
9.8965169743
21
-9.6527437806
31
0.0000000000
11
9.8682623936
21
-9.6510131450
31
0.0000000000
11
9.7953111129
21
-9.6497658872
31
0.0000000000
11
9.6965418227
21
-9.6493099077
31
0.0000000000
0
SPLINE
5
4C0
100
AcDbEntity
8
0
100
AcDbSpline
62
0
6
CONTINUOUS
70
0
71
3
72
10
73
6
74
4
42
0.0000001000
43
0.0000001000
44
0.0000000001
12
0.2000361668
22
-0.0000000018
32
0.0000000000
13
0.1415636701
23
0.1413300936
33
0.0000000000
40
0.0000000000
40
0.0000000000
40
0.0000000000
40
0.0000000000
40
0.4939063866
40
0.8585864835
40
1.0000000000
40
1.0000000000
40
1.0000000000
40
1.0000000000
10
9.6969042690
20
-10.2696417700
30
0.0000000000
10
9.7298373158
20
-10.2696417702
30
0.0000000000
10
9.7888639585
20
-10.2730153175
30
0.0000000000
10
9.8504124089
20
-10.2616796429
30
0.0000000000
10
9.8902028951
20
-10.2728736648
30
0.0000000000
10
9.8968759005
20
-10.2662116696
30
0.0000000000
11
9.6969042690
21
-10.2696417700
31
0.0000000000
11
9.7957023580
21
-10.2691859849
31
0.0000000000
11
9.8686409229
21
-10.2679398679
31
0.0000000000
11
9.8968759005
21
-10.2662116696
31
0.0000000000
0
SPLINE
5
4C1
100
AcDbEntity
8
0
100
AcDbSpline
62
0
6
CONTINUOUS
70
0
71
3
72
8
73
4
74
2
42
0.0000001000
43
0.0000001000
44
0.0000000001
12
-0.0000198793
22
0.0338368561
32
0.0000000000
13
0.0003966189
23
0.0339643560
33
0.0000000000
40
0.0000000000
40
0.0000000000
40
0.0000000000
40
0.0000000000
40
1.0000000000
40
1.0000000000
40
1.0000000000
40
1.0000000000
10
5.5062006436
20
20.1038008333
30
0.0000000000
10
5.5061940172
20
20.1150797853
30
0.0000000000
10
5.5063507608
20
20.1264053920
30
0.0000000000
10
5.5064829671
20
20.1377268440
30
0.0000000000
11
5.5062006436
21
20.1038008333
31
0.0000000000
11
5.5064829671
21
20.1377268440
31
0.0000000000
0
SPLINE
5
4C2
100
AcDbEntity
8
0
100
AcDbSpline
62
0
6
CONTINUOUS
70
0
71
3
72
10
73
6
74
4
42
0.0000001000
43
0.0000001000
44
0.0000000001
12
0.0017900529
22
0.1532907302
32
0.0000000000
13
-0.0682922033
23
0.1365948094
33
0.0000000000
40
0.0000000000
40
0.0000000000
40
0.0000000000
40
0.0000000000
40
0.3889904370
40
0.8316380012
40
1.0000000000
40
1.0000000000
40
1.0000000000
40
1.0000000000
10
5.5064829671
20
20.1377268440
30
0.0000000000
10
5.5067150716
20
20.1576030534
30
0.0000000000
10
5.5070496058
20
20.2000698078
30
0.0000000000
10
5.5014477022
20
20.2495523113
30
0.0000000000
10
5.5083222767
20
20.2826707285
30
0.0000000000
10
5.5044896728
20
20.2903365203
30
0.0000000000
11
5.5064829671
21
20.1377268440
31
0.0000000000
11
5.5059355857
21
20.1970421150
31
0.0000000000
11
5.5053155793
21
20.2646383332
31
0.0000000000
11
5.5044896728
21
20.2903365203
31
0.0000000000
0
SPLINE
5
4C3
100
AcDbEntity
8
IMPORT
100
AcDbSpline
62
7
6
CONTINUOUS
70
0
71
3
72
12
73
8
74
6
42
0.0000001000
43
0.0000001000
44
0.0000000001
12
0.4787298318
22
-0.0602600061
32
0.0000000000
13
0.0000000000
23
-0.4825075338
33
-0.0000000000
40
0.0000000000
40
0.0000000000
40
0.0000000000
40
0.0000000000
40
0.2976529099
40
0.4627430001
40
0.6312957924
40
0.8298431256
40
1.0000000000
40
1.0000000000
40
1.0000000000
40
1.0000000000
10
-3.8981661029
20
3.2246663879
30
-2.4000000000
10
-3.8506676604
20
3.2186875325
30
-2.4000000000
10
-3.7756822959
20
3.2157230285
30
-2.4000000000
10
-3.6796980996
20
3.1741428638
30
-2.4000000000
10
-3.6250376367
20
3.1048893066
30
-2.4000000000
10
-3.5956511216
20
3.0221272948
30
-2.4000000000
10
-3.5926823451
20
2.9624276356
30
-2.4000000000
10
-3.5926823451
20
2.9350603110
30
-2.4000000000
11
-3.8981661029
21
3.2246663879
31
-2.4000000000
11
-3.7561161420
21
3.2034898114
31
-2.4000000000
11
-3.6842546448
21
3.1691212692
31
-2.4000000000
11
-3.6318339391
21
3.1069415948
31
-2.4000000000
11
-3.5990854629
21
3.0169122150
31
-2.4000000000
11
-3.5926823451
21
2.9350603110
31
-2.4000000000
0
SPLINE
5
4C4
100
AcDbEntity
8
IMPORT
100
AcDbSpline
62
7
6
CONTINUOUS
70
0
71
3
72
12
73
8
74
6
42
0.0000001000
43
0.0000001000
44
0.0000000001
12
0.4787298318
22
0.0602600061
32
0.0000000000
13
-0.0000000000
23
0.4825075338
33
0.0000000000
40
0.0000000000
40
0.0000000000
40
0.0000000000
40
0.0000000000
40
0.2976529099
40
0.4627430001
40
0.6312957924
40
0.8298431256
40
1.0000000000
40
1.0000000000
40
1.0000000000
40
1.0000000000
10
-3.8981661029
20
2.6454542342
30
-2.4000000000
10
-3.8506676604
20
2.6514330895
30
-2.4000000000
10
-3.7756822959
20
2.6543975936
30
-2.4000000000
10
-3.6796980996
20
2.6959777583
30
-2.4000000000
10
-3.6250376367
20
2.7652313155
30
-2.4000000000
10
-3.5956511216
20
2.8479933273
30
-2.4000000000
10
-3.5926823451
20
2.9076929864
30
-2.4000000000
10
-3.5926823451
20
2.9350603110
30
-2.4000000000
11
-3.8981661029
21
2.6454542342
31
-2.4000000000
11
-3.7561161420
21
2.6666308106
31
-2.4000000000
11
-3.6842546448
21
2.7009993528
31
-2.4000000000
11
-3.6318339391
21
2.7631790273
31
-2.4000000000
11
-3.5990854629
21
2.8532084070
31
-2.4000000000
11
-3.5926823451
21
2.9350603110
31
-2.4000000000
0
SPLINE
5
4C5
100
AcDbEntity
8
IMPORT
100
AcDbSpline
62
7
6
CONTINUOUS
70
0
71
3
72
14
73
10
74
8
42
0.0000001000
43
0.0000001000
44
0.0000000001
12
1.2052854684
22
0.0446713143
32
0.0000000000
13
0.0000000000
23
1.2061130074
33
0.0000000000
40
0.0000000000
40
0.0000000000
40
0.0000000000
40
0.0000000000
40
0.1873610537
40
0.3554870304
40
0.5087051938
40
0.6541446294
40
0.8096786150
40
0.8990521448
40
1.0000000000
40
1.0000000000
40
1.0000000000
40
1.0000000000
10
-3.9677191203
20
2.3047775066
30
-2.4000000000
10
-3.8924446018
20
2.3075673947
30
-2.4000000000
10
-3.7493020218
20
2.3098613190
30
-2.4000000000
10
-3.5469378761
20
2.3459277299
30
-2.4000000000
10
-3.3705971467
20
2.4158223631
30
-2.4000000000
10
-3.2279242865
20
2.5366502044
30
-2.4000000000
10
-3.1567451041
20
2.6812738963
30
-2.4000000000
10
-3.1285760276
20
2.8177733287
30
-2.4000000000
10
-3.1241746986
20
2.8944754706
30
-2.4000000000
10
-3.1241746986
20
2.9350603110
30
-2.4000000000
11
-3.9677191203
21
2.3047775066
31
-2.4000000000
11
-3.7420369974
21
2.3163494063
31
-2.4000000000
11
-3.5427688843
21
2.3539195073
31
-2.4000000000
11
-3.3726619585
21
2.4261281616
31
-2.4000000000
11
-3.2403565718
21
2.5413071367
31
-2.4000000000
11
-3.1546473679
21
2.7081739306
31
-2.4000000000
11
-3.1319664444
21
2.8135553640
31
-2.4000000000
11
-3.1241746986
21
2.9350603110
31
-2.4000000000
0
SPLINE
5
4C6
100
AcDbEntity
8
IMPORT
100
AcDbSpline
62
7
6
CONTINUOUS
70
0
71
3
72
14
73
10
74
8
42
0.0000001000
43
0.0000001000
44
0.0000000001
12
1.2052854684
22
-0.0446713143
32
0.0000000000
13
0.0000000000
23
-1.2061130074
33
0.0000000000
40
0.0000000000
40
0.0000000000
40
0.0000000000
40
0.0000000000
40
0.1873610537
40
0.3554870304
40
0.5087051938
40
0.6541446294
40
0.8096786150
40
0.8990521448
40
1.0000000000
40
1.0000000000
40
1.0000000000
40
1.0000000000
10
-3.9677191203
20
3.5653431155
30
-2.4000000000
10
-3.8924446018
20
3.5625532273
30
-2.4000000000
10
-3.7493020218
20
3.5602593030
30
-2.4000000000
10
-3.5469378761
20
3.5241928921
30
-2.4000000000
10
-3.3705971467
20
3.4542982590
30
-2.4000000000
10
-3.2279242865
20
3.3334704176
30
-2.4000000000
10
-3.1567451041
20
3.1888467258
30
-2.4000000000
10
-3.1285760276
20
3.0523472933
30
-2.4000000000
10
-3.1241746986
20
2.9756451514
30
-2.4000000000
10
-3.1241746986
20
2.9350603110
30
-2.4000000000
11
-3.9677191203
21
3.5653431155
31
-2.4000000000
11
-3.7420369974
21
3.5537712158
31
-2.4000000000
11
-3.5427688843
21
3.5162011147
31
-2.4000000000
11
-3.3726619585
21
3.4439924605
31
-2.4000000000
11
-3.2403565718
21
3.3288134853
31
-2.4000000000
11
-3.1546473679
21
3.1619466914
31
-2.4000000000
11
-3.1319664444
21
3.0565652580
31
-2.4000000000
11
-3.1241746986
21
2.9350603110
31
-2.4000000000
0
ENDSEC
0
SECTION
2
OBJECTS
0
DICTIONARY
5
C
100
AcDbDictionary
280
0
281
1
3
ACAD_GROUP
350
D
3
ACAD_MLINESTYLE
350
17
3
ACAD_LAYOUT
350
1A
3
ACAD_PLOTSETTINGS
350
19
3
ACAD_PLOTSTYLENAME
350
E
0
DICTIONARY
5
D
102
{ACAD_REACTORS
330
C
102
}
100
AcDbDictionary
280
0
281
1
0
ACDBDICTIONARYWDFLT
5
E
102
{ACAD_REACTORS
330
C
102
}
100
AcDbDictionary
281
1
3
Normal
350
F
100
AcDbDictionaryWithDefault
340
F
0
DICTIONARY
5
17
102
{ACAD_REACTORS
330
C
102
}
100
AcDbDictionary
280
0
281
1
3
Standard
350
18
0
DICTIONARY
5
19
102
{ACAD_REACTORS
330
C
102
}
100
AcDbDictionary
281
1
0
DICTIONARY
5
1A
102
{ACAD_REACTORS
330
C
102
}
100
AcDbDictionary
281
1
3
Layout1
350
1E
3
Model
350
22
0
ACDBPLACEHOLDER
5
F
102
{ACAD_REACTORS
330
E
102
}
0
MLINESTYLE
5
18
102
{ACAD_REACTORS
330
17
102
}
100
AcDbMlineStyle
2
STANDARD
70
0
3

62
256
51
90.0
52
90.0
71
2
49
0.5
62
256
6
BYLAYER
49
-0.5
62
256
6
BYLAYER
0
LAYOUT
5
1E
102
{ACAD_REACTORS
330
1A
102
}
100
AcDbPlotSettings
1

2

4

6

40
0.0
41
0.0
42
0.0
43
0.0
44
0.0
45
0.0
46
0.0
47
0.0
48
0.0
49
0.0
140
0.0
141
0.0
142
1.0
143
1.0
70
0
72
0
73
0
74
0
7

75
0
147
1.0
148
0.0
149
0.0
100
AcDbLayout
1
Layout1
70
0
71
0
10
0.0
20
0.0
11
0.0
21
0.0
12
0.0
22
0.0
32
0.0
14
0.0
24
0.0
34
0.0
15
0.0
25
0.0
35
0.0
146
0.0
13
0.0
23
0.0
33
0.0
16
0.0
26
0.0
36
0.0
17
0.0
27
0.0
37
0.0
76
0
330
1B
331
0
345
0
346
0
0
LAYOUT
5
22
102
{ACAD_REACTORS
330
1A
102
}
100
AcDbPlotSettings
1

2

4

6

40
0.0
41
0.0
42
0.0
43
0.0
44
0.0
45
0.0
46
0.0
47
0.0
48
0.0
49
0.0
140
0.0
141
0.0
142
1.0
143
1.0
70
0
72
0
73
0
74
0
7

75
0
147
1.0
148
0.0
149
0.0
100
AcDbLayout
1
Model
70
0
71
0
10
0.0
20
0.0
11
0.0
21
0.0
12
0.0
22
0.0
32
0.0
14
0.0
24
0.0
34
0.0
15
0.0
25
0.0
35
0.0
146
0.0
13
0.0
23
0.0
33
0.0
16
0.0
26
0.0
36
0.0
17
0.0
27
0.0
37
0.0
76
0
330
1F
331
0
345
0
346
0
0
ENDSEC
0
EOF
