0
SECTION
2
HEADER
9
$ACADVER
1
AC1014
9
$HANDSEED
5
       303
9
$EXTMAX
10
297.0000000000
20
210.0000000000
9
$EXTMIN
10
0.0000000000
20
0.0000000000
9
$LIMMIN
10
0.0000000000
20
0.0000000000
9
$LIMMAX
10
297.0000000000
20
210.0000000000
9
$VIEWCTR
10
148.5000000000
20
105.0000000000
9
$VIEWSIZE
40
210.0000000000
9
$CLAYER
8
0
9
$LTSCALE
40
16.3350000000
9
$CELTYPE
6
BYLAYER
9
$DIMSCALE
40
1
9
$DIMASZ
40
3.0000000000
9
$DIMEXO
40
1.8562500000
9
$DIMDLI
40
11.2860000000
9
$DIMEXE
40
5.3460000000
9
$DIMCEN
40
2.6730000000
9
$DIMLFAC
40
1.0000000000
9
$DIMTXT
40
3.0000000000
9
$DIMTOL
70
1
9
$DIMLIM
70
0
9
$DIMTFAC
40
1.0000000000
9
$DIMTP
40
0.0100000000
9
$DIMTM
40
0.0100000000
9
$MEASUREMENT
70
1
0
ENDSEC
0
SECTION
2
CLASSES
0
ENDSEC
0
SECTION
2
TABLES
0
TABLE
2
VPORT
5
8
100
AcDbSymbolTable
70
2
0
VPORT
5
1F4
100
AcDbSymbolTableRecord
100
AcDbViewportTableRecord
2
*ACTIVE
70
0
10
0.0
20
0.0
11
1.0
21
1.0
12
148.5000000000
22
105.0000000000
13
0.0
23
0.0
14
1.0
24
1.0
15
0.0
25
0.0
16
0.0
26
0.0
36
1.0
17
0.0
27
0.0
37
0.0
40
210.0000000000
41
1.4142857143
42
50.0
43
0.0
44
0.0
50
0.0
51
0.0
71
0
72
100
73
1
74
1
75
0
76
0
77
0
78
0
0
ENDTAB
0
TABLE
2
LTYPE
5
5
100
AcDbSymbolTable
70
6
0
LTYPE
5
14
100
AcDbSymbolTableRecord
100
AcDbLinetypeTableRecord
2
BYBLOCK
70
0
3

72
65
73
0
40
0.0
0
LTYPE
5
15
100
AcDbSymbolTableRecord
100
AcDbLinetypeTableRecord
2
BYLAYER
70
0
3

72
65
73
0
40
0.0
0
LTYPE
5
16
100
AcDbSymbolTableRecord
100
AcDbLinetypeTableRecord
2
CONTINUOUS
70
64
3
Solid line
72
65
73
0
40
0
0
LTYPE
5
1F5
100
AcDbSymbolTableRecord
100
AcDbLinetypeTableRecord
2
CENTER
70
64
3
____ _ ____ _ ____ _ ____ _ ____ _ ____ _ ____
72
65
73
4
40
0.6
49
0.375
74
0
49
-0.075
74
0
49
0.075
74
0
49
-0.075
74
0
0
LTYPE
5
1F6
100
AcDbSymbolTableRecord
100
AcDbLinetypeTableRecord
2
HIDDEN
70
64
3
- - - - - - - - - - - - - - - - - - - -
72
65
73
2
40
0.2
49
0.1
74
0
49
-0.1
74
0
0
LTYPE
5
1F7
100
AcDbSymbolTableRecord
100
AcDbLinetypeTableRecord
2
PHANTOM
70
64
3
_____ _ _ _____ _ _ _____ _ _ _____
72
65
73
6
40
0.8
49
0.45
74
0
49
-0.05
74
0
49
0.1
74
0
49
-0.05
74
0
49
0.1
74
0
49
-0.05
74
0
0
LTYPE
5
1F8
100
AcDbSymbolTableRecord
100
AcDbLinetypeTableRecord
2
DOT
70
64
3
. . . . . . . . . . . . . . . . . . . .
72
65
73
2
40
0.2
49
0.1
74
0
49
-0.1
74
0
0
LTYPE
5
1F9
100
AcDbSymbolTableRecord
100
AcDbLinetypeTableRecord
2
DASHED
70
64
3
- - - - - - - - - - - - - - - - - - - -
72
65
73
2
40
0.2
49
0.1
74
0
49
-0.1
74
0
0
ENDTAB
0
TABLE
2
LAYER
5
2
100
AcDbSymbolTable
70
36
0
LAYER
5
10
100
AcDbSymbolTableRecord
100
AcDbLayerTableRecord
2
0
70
0
62
7
6
CONTINUOUS
0
LAYER
5
1FA
100
AcDbSymbolTableRecord
100
AcDbLayerTableRecord
2
DEFAULT_1
70
0
62
7
6
CENTER
0
LAYER
5
1FB
100
AcDbSymbolTableRecord
100
AcDbLayerTableRecord
2
DEFAULT_2
70
0
62
8
6
HIDDEN
0
LAYER
5
1FC
100
AcDbSymbolTableRecord
100
AcDbLayerTableRecord
2
DEFAULT_3
70
0
62
7
6
PHANTOM
0
LAYER
5
1FD
100
AcDbSymbolTableRecord
100
AcDbLayerTableRecord
2
ASSI
70
0
62
7
6
CONTINUOUS
0
LAYER
5
1FE
100
AcDbSymbolTableRecord
100
AcDbLayerTableRecord
2
COORDINATE
70
0
62
7
6
CONTINUOUS
0
LAYER
5
1FF
100
AcDbSymbolTableRecord
100
AcDbLayerTableRecord
2
COORD_ORIGINE
70
0
62
7
6
CONTINUOUS
0
LAYER
5
200
100
AcDbSymbolTableRecord
100
AcDbLayerTableRecord
2
CURVE
70
0
62
7
6
CONTINUOUS
0
LAYER
5
201
100
AcDbSymbolTableRecord
100
AcDbLayerTableRecord
2
DRAFT
70
0
62
7
6
CONTINUOUS
0
LAYER
5
202
100
AcDbSymbolTableRecord
100
AcDbLayerTableRecord
2
NOTE
70
0
62
7
6
CONTINUOUS
0
LAYER
5
203
100
AcDbSymbolTableRecord
100
AcDbLayerTableRecord
2
PIANI
70
0
62
7
6
CONTINUOUS
0
LAYER
5
204
100
AcDbSymbolTableRecord
100
AcDbLayerTableRecord
2
PIANI_ORIGINE
70
0
62
7
6
CONTINUOUS
0
LAYER
5
205
100
AcDbSymbolTableRecord
100
AcDbLayerTableRecord
2
PUNTI
70
0
62
7
6
CONTINUOUS
0
LAYER
5
206
100
AcDbSymbolTableRecord
100
AcDbLayerTableRecord
2
RACCORDO
70
0
62
7
6
CONTINUOUS
0
LAYER
5
207
100
AcDbSymbolTableRecord
100
AcDbLayerTableRecord
2
SUPERFICI
70
0
62
7
6
CONTINUOUS
0
LAYER
5
208
100
AcDbSymbolTableRecord
100
AcDbLayerTableRecord
2
TRASH
70
0
62
7
6
CONTINUOUS
0
ENDTAB
0
TABLE
2
STYLE
5
3
100
AcDbSymbolTable
70
1
0
STYLE
5
11
100
AcDbSymbolTableRecord
100
AcDbTextStyleTableRecord
2
STANDARD
70
0
40
0.0
41
0.8000000000
50
0.0
71
0
42
0.2
3
txt
4

0
ENDTAB
0
TABLE
2
VIEW
5
6
100
AcDbSymbolTable
70
0
0
ENDTAB
0
TABLE
2
UCS
5
7
100
AcDbSymbolTable
70
0
0
ENDTAB
0
TABLE
2
APPID
5
9
100
AcDbSymbolTable
70
1
0
APPID
5
209
100
AcDbSymbolTableRecord
100
AcDbRegAppTableRecord
2
ACAD
70
0
0
ENDTAB
0
TABLE
2
DIMSTYLE
5
A
100
AcDbSymbolTable
70
1
0
DIMSTYLE
105
20A
100
AcDbSymbolTableRecord
100
AcDbDimStyleTableRecord
2
STANDARD
70
0
3

4

5

6

7

40
1.0
41
3.0000000000
42
0.0625
43
0.38
44
0.18
45
0.0
46
0.0
47
0.0100000000
48
0.0100000000
140
3.0000000000
141
0.09
142
0.0
143
25.4
144
1.0000000000
145
0.0
146
1.0000000000
147
0.09
71
1
72
0
73
0
74
0
75
0
76
0
77
1
78
8
170
0
171
2
172
0
173
0
174
0
175
0
176
0
177
0
178
0
270
2
271
2
272
2
273
2
274
2
340
11
275
0
280
0
281
0
282
0
283
1
284
8
285
0
286
0
287
3
288
0
0
ENDTAB
0
TABLE
2
BLOCK_RECORD
5
1
100
AcDbSymbolTable
70
0
0
BLOCK_RECORD
5
1B
100
AcDbSymbolTableRecord
100
AcDbBlockTableRecord
2
*MODEL_SPACE
0
BLOCK_RECORD
5
1C
100
AcDbSymbolTableRecord
100
AcDbBlockTableRecord
2
*PAPER_SPACE
0
ENDTAB
0
ENDSEC
0
SECTION
2
BLOCKS
0
BLOCK
5
1E
100
AcDbEntity
8
0
100
AcDbBlockBegin
2
*MODEL_SPACE
70
0
10
0.0
20
0.0
30
0.0
3
*MODEL_SPACE
1

0
ENDBLK
5
1F
100
AcDbEntity
8
0
100
AcDbBlockEnd
0
BLOCK
5
20
100
AcDbEntity
8
0
100
AcDbBlockBegin
2
*PAPER_SPACE
70
0
10
0.0
20
0.0
30
0.0
3
*PAPER_SPACE
1

0
ENDBLK
5
21
100
AcDbEntity
8
0
100
AcDbBlockEnd
0
ENDSEC
0
SECTION
2
ENTITIES
0
LINE
5
20B
100
AcDbEntity
8
0
100
AcDbLine
62
7
6
CONTINUOUS
10
-10.3001218439
20
-21.8500000000
11
10.3001218439
21
-21.8500000000
0
LINE
5
20C
100
AcDbEntity
8
0
100
AcDbLine
62
7
6
CONTINUOUS
10
9.6000000000
20
-20.3500000000
11
-9.6000000000
21
-20.3500000000
0
LINE
5
20D
100
AcDbEntity
8
0
100
AcDbLine
62
7
6
CONTINUOUS
10
6.4000000000
20
-19.9500000000
11
7.0000000000
21
-19.9500000000
0
LINE
5
20E
100
AcDbEntity
8
0
100
AcDbLine
62
7
6
CONTINUOUS
10
-6.4000000000
20
-19.9500000000
11
-7.0000000000
21
-19.9500000000
0
LINE
5
20F
100
AcDbEntity
8
0
100
AcDbLine
62
9
6
CONTINUOUS
10
9.9000000000
20
-19.8500000000
11
5.4000000000
21
-19.8500000000
0
LINE
5
210
100
AcDbEntity
8
0
100
AcDbLine
62
9
6
CONTINUOUS
10
4.6000000000
20
-19.8500000000
11
-4.6000000000
21
-19.8500000000
0
LINE
5
211
100
AcDbEntity
8
0
100
AcDbLine
62
9
6
CONTINUOUS
10
-5.4000000000
20
-19.8500000000
11
-9.9000000000
21
-19.8500000000
0
LINE
5
212
100
AcDbEntity
8
0
100
AcDbLine
62
7
6
CONTINUOUS
10
-5.3751284268
20
-19.4686490016
11
-4.6248715732
21
-19.4686490016
0
LINE
5
213
100
AcDbEntity
8
0
100
AcDbLine
62
7
6
CONTINUOUS
10
4.6248715732
20
-19.4686490016
11
5.3751284268
21
-19.4686490016
0
LINE
5
214
100
AcDbEntity
8
0
100
AcDbLine
62
7
6
CONTINUOUS
10
-7.0000000000
20
-19.9500000000
11
-9.6000000000
21
-20.3500000000
0
LINE
5
215
100
AcDbEntity
8
0
100
AcDbLine
62
7
6
CONTINUOUS
10
-5.0882073050
20
-19.3000000000
11
-4.9117926950
21
-19.3000000000
0
LINE
5
216
100
AcDbEntity
8
0
100
AcDbLine
62
7
6
CONTINUOUS
10
4.9117926950
20
-19.3000000000
11
5.0882073050
21
-19.3000000000
0
LINE
5
217
100
AcDbEntity
8
0
100
AcDbLine
62
9
6
CONTINUOUS
10
-5.4000000000
20
-18.9000000000
11
-5.0882073050
21
-18.9000000000
0
LINE
5
218
100
AcDbEntity
8
0
100
AcDbLine
62
9
6
CONTINUOUS
10
5.4000000000
20
-18.9000000000
11
5.0882073050
21
-18.9000000000
0
LINE
5
219
100
AcDbEntity
8
0
100
AcDbLine
62
9
6
CONTINUOUS
10
4.6000000000
20
-18.9000000000
11
4.9117926950
21
-18.9000000000
0
LINE
5
21A
100
AcDbEntity
8
0
100
AcDbLine
62
9
6
CONTINUOUS
10
-4.6000000000
20
-18.9000000000
11
-4.9117926950
21
-18.9000000000
0
LINE
5
21B
100
AcDbEntity
8
0
100
AcDbLine
62
7
6
CONTINUOUS
10
7.0000000000
20
-19.9500000000
11
9.6000000000
21
-20.3500000000
0
LINE
5
21C
100
AcDbEntity
8
0
100
AcDbLine
62
7
6
CONTINUOUS
10
-11.1000000000
20
21.0501218439
11
-11.1000000000
21
-21.0501218439
0
LINE
5
21D
100
AcDbEntity
8
0
100
AcDbLine
62
7
6
CONTINUOUS
10
-10.6000000000
20
5.9801315846
11
-10.6000000000
21
-5.9801315846
0
LINE
5
21E
100
AcDbEntity
8
0
100
AcDbLine
62
7
6
CONTINUOUS
10
-9.9000000000
20
20.0500000000
11
-9.9000000000
21
-20.0500000000
0
LINE
5
21F
100
AcDbEntity
8
0
100
AcDbLine
62
9
6
CONTINUOUS
10
-9.6000000000
20
20.3500000000
11
-9.6000000000
21
-20.3500000000
0
LINE
5
220
100
AcDbEntity
8
0
100
AcDbLine
62
7
6
CONTINUOUS
10
-4.4987422511
20
-8.9500560000
11
-3.3278500000
21
-8.9500560000
0
LINE
5
221
100
AcDbEntity
8
0
100
AcDbLine
62
7
6
CONTINUOUS
10
-2.1918000000
20
-8.9500560000
11
-1.6917560000
21
-8.9500560000
0
LINE
5
222
100
AcDbEntity
8
0
100
AcDbLine
62
7
6
CONTINUOUS
10
-0.5557190000
20
-8.9500500000
11
0.2001750000
21
-8.9500500000
0
LINE
5
223
100
AcDbEntity
8
0
100
AcDbLine
62
7
6
CONTINUOUS
10
1.1339130000
20
-8.9500500000
11
1.8898060000
21
-8.9500500000
0
LINE
5
224
100
AcDbEntity
8
0
100
AcDbLine
62
7
6
CONTINUOUS
10
2.3898060000
20
-8.9500500000
11
2.8898250000
21
-8.9500500000
0
LINE
5
225
100
AcDbEntity
8
0
100
AcDbLine
62
7
6
CONTINUOUS
10
3.2231690000
20
-8.9500500000
11
3.7231940000
21
-8.9500500000
0
LINE
5
226
100
AcDbEntity
8
0
100
AcDbLine
62
7
6
CONTINUOUS
10
4.8285880000
20
-8.9500500000
11
5.3286130000
21
-8.9500500000
0
LINE
5
227
100
AcDbEntity
8
0
100
AcDbLine
62
7
6
CONTINUOUS
10
-3.8209750000
20
-8.4875380000
11
-4.4293230000
21
-8.4875380000
0
LINE
5
228
100
AcDbEntity
8
0
100
AcDbLine
62
7
6
CONTINUOUS
10
-5.3751284268
20
-19.4686490016
11
-5.3881958819
21
-19.2582056800
0
LINE
5
229
100
AcDbEntity
8
0
100
AcDbLine
62
7
6
CONTINUOUS
10
-7.0000000000
20
20.3500000000
11
-7.0000000000
21
19.9500000000
0
LINE
5
22A
100
AcDbEntity
8
0
100
AcDbLine
62
7
6
CONTINUOUS
10
-7.0000000000
20
-20.3500000000
11
-7.0000000000
21
-19.9500000000
0
LINE
5
22B
100
AcDbEntity
8
0
100
AcDbLine
62
7
6
CONTINUOUS
10
-6.4000000000
20
20.3500000000
11
-6.4000000000
21
19.9500000000
0
LINE
5
22C
100
AcDbEntity
8
0
100
AcDbLine
62
7
6
CONTINUOUS
10
-6.4000000000
20
-20.3500000000
11
-6.4000000000
21
-19.9500000000
0
LINE
5
22D
100
AcDbEntity
8
0
100
AcDbLine
62
7
6
CONTINUOUS
10
-4.4293330547
20
-7.8791500000
11
-3.8209810000
21
-7.8791500000
0
LINE
5
22E
100
AcDbEntity
8
0
100
AcDbLine
62
7
6
CONTINUOUS
10
-3.8279310000
20
-7.4166310000
11
-4.2643380000
21
-7.4166250000
0
LINE
5
22F
100
AcDbEntity
8
0
100
AcDbLine
62
7
6
CONTINUOUS
10
-2.1841060000
20
-7.4166250000
11
-1.6994560000
21
-7.4166250000
0
LINE
5
230
100
AcDbEntity
8
0
100
AcDbLine
62
7
6
CONTINUOUS
10
-1.5469380000
20
-6.9416060000
11
-2.3366310000
21
-6.9416060000
0
LINE
5
231
100
AcDbEntity
8
0
100
AcDbLine
62
7
6
CONTINUOUS
10
4.5259130000
20
-6.4499310000
11
4.0258750000
21
-6.4499370000
0
LINE
5
232
100
AcDbEntity
8
0
100
AcDbLine
62
7
6
CONTINUOUS
10
-2.4944810000
20
-6.4499440000
11
-2.9945060000
21
-6.4499370000
0
LINE
5
233
100
AcDbEntity
8
0
100
AcDbLine
62
7
6
CONTINUOUS
10
2.8898310000
20
-6.4499310000
11
2.3898130000
21
-6.4499370000
0
LINE
5
234
100
AcDbEntity
8
0
100
AcDbLine
62
7
6
CONTINUOUS
10
0.9170500000
20
-6.4499370000
11
0.4170440000
21
-6.4499440000
0
LINE
5
235
100
AcDbEntity
8
0
100
AcDbLine
62
7
6
CONTINUOUS
10
-3.3278500000
20
-6.4499440000
11
-3.8278750000
21
-6.4499440000
0
LINE
5
236
100
AcDbEntity
8
0
100
AcDbLine
62
7
6
CONTINUOUS
10
1.8898060000
20
-6.4499370000
11
1.3897880000
21
-6.4499370000
0
LINE
5
237
100
AcDbEntity
8
0
100
AcDbLine
62
7
6
CONTINUOUS
10
-0.0557000000
20
-6.4499370000
11
-0.5557190000
21
-6.4499370000
0
LINE
5
238
100
AcDbEntity
8
0
100
AcDbLine
62
7
6
CONTINUOUS
10
-0.8890630000
20
-6.4499370000
11
-1.3890810000
21
-6.4499440000
0
LINE
5
239
100
AcDbEntity
8
0
100
AcDbLine
62
7
6
CONTINUOUS
10
-4.7654190000
20
-6.4499440000
11
-5.3286130000
21
-6.4499500000
0
LINE
5
23A
100
AcDbEntity
8
0
100
AcDbLine
62
7
6
CONTINUOUS
10
-5.3286130000
20
-6.4499500000
11
-4.7963677306
21
-7.4767584490
0
LINE
5
23B
100
AcDbEntity
8
0
100
AcDbLine
62
7
6
CONTINUOUS
10
-4.2643380000
20
-7.4166250000
11
-4.7654190000
21
-6.4499440000
0
LINE
5
23C
100
AcDbEntity
8
0
100
AcDbLine
62
7
6
CONTINUOUS
10
-5.4000000000
20
-19.8500000000
11
-5.4000000000
21
-18.9000000000
0
LINE
5
23D
100
AcDbEntity
8
0
100
AcDbLine
62
7
6
CONTINUOUS
10
-5.3881958819
20
-19.2582056800
11
-5.3881958819
21
-18.9000000000
0
LINE
5
23E
100
AcDbEntity
8
0
100
AcDbLine
62
7
6
CONTINUOUS
10
-5.3751284268
20
-19.4686490016
11
-5.3751284268
21
-20.3500000000
0
LINE
5
23F
100
AcDbEntity
8
0
100
AcDbLine
62
9
6
CONTINUOUS
10
-5.0882073050
20
-19.3000000000
11
-5.0882073050
21
-18.9000000000
0
LINE
5
240
100
AcDbEntity
8
0
100
AcDbLine
62
9
6
CONTINUOUS
10
-4.9117926950
20
-18.9000000000
11
-4.9117926950
21
-19.3000000000
0
LINE
5
241
100
AcDbEntity
8
0
100
AcDbLine
62
7
6
CONTINUOUS
10
-4.7005830000
20
-1.4750000000
11
-3.9879850000
21
-3.5250000000
0
LINE
5
242
100
AcDbEntity
8
0
100
AcDbLine
62
7
6
CONTINUOUS
10
-2.9945060000
20
-6.4499370000
11
-2.1918000000
21
-8.9500560000
0
LINE
5
243
100
AcDbEntity
8
0
100
AcDbLine
62
7
6
CONTINUOUS
10
-4.6248715732
20
-19.4686490016
11
-4.6248715732
21
-20.3500000000
0
LINE
5
244
100
AcDbEntity
8
0
100
AcDbLine
62
7
6
CONTINUOUS
10
-4.6118041181
20
-18.9000000000
11
-4.6118041181
21
-19.2582056800
0
LINE
5
245
100
AcDbEntity
8
0
100
AcDbLine
62
7
6
CONTINUOUS
10
-4.6000000000
20
-19.8500000000
11
-4.6000000000
21
-18.9000000000
0
LINE
5
246
100
AcDbEntity
8
0
100
AcDbLine
62
7
6
CONTINUOUS
10
-3.8209810000
20
-7.8791500000
11
-3.8209750000
21
-8.4875380000
0
LINE
5
247
100
AcDbEntity
8
0
100
AcDbLine
62
7
6
CONTINUOUS
10
-3.4988970000
20
2.4807480000
11
-3.4988970000
21
0.3802870000
0
LINE
5
248
100
AcDbEntity
8
0
100
AcDbLine
62
7
6
CONTINUOUS
10
-3.3278500000
20
-8.9500560000
11
-3.3278500000
21
-6.4499440000
0
LINE
5
249
100
AcDbEntity
8
0
100
AcDbLine
62
7
6
CONTINUOUS
10
-3.2934680000
20
0.6466920000
11
-3.2934680000
21
2.4807480000
0
LINE
5
24A
100
AcDbEntity
8
0
100
AcDbLine
62
7
6
CONTINUOUS
10
-3.8278750000
20
-6.4499440000
11
-3.8279310000
21
-7.4166310000
0
LINE
5
24B
100
AcDbEntity
8
0
100
AcDbLine
62
7
6
CONTINUOUS
10
-4.6118041181
20
-19.2582056800
11
-4.6248715732
21
-19.4686490016
0
LINE
5
24C
100
AcDbEntity
8
0
100
AcDbLine
62
7
6
CONTINUOUS
10
-3.9879850000
20
-3.5250000000
11
-3.4655530000
21
-3.5250000000
0
LINE
5
24D
100
AcDbEntity
8
0
100
AcDbLine
62
7
6
CONTINUOUS
10
-2.5171200000
20
-3.5250000000
11
-2.1053910000
21
-3.5250000000
0
LINE
5
24E
100
AcDbEntity
8
0
100
AcDbLine
62
7
6
CONTINUOUS
10
-1.3188880000
20
-3.5250000000
11
-0.6658470000
21
-3.5250000000
0
LINE
5
24F
100
AcDbEntity
8
0
100
AcDbLine
62
7
6
CONTINUOUS
10
0.2710910000
20
-3.5250000000
11
0.7935240000
21
-3.5250000000
0
LINE
5
250
100
AcDbEntity
8
0
100
AcDbLine
62
7
6
CONTINUOUS
10
2.5141880000
20
-3.5250000000
11
2.9543060000
21
-3.5250000000
0
LINE
5
251
100
AcDbEntity
8
0
100
AcDbLine
62
7
6
CONTINUOUS
10
4.0732552820
20
-3.5250000000
11
4.7005830000
21
-3.5250000000
0
LINE
5
252
100
AcDbEntity
8
0
100
AcDbLine
62
7
6
CONTINUOUS
10
4.2604650000
20
-3.1843240000
11
4.0037122289
21
-3.1843240000
0
LINE
5
253
100
AcDbEntity
8
0
100
AcDbLine
62
7
6
CONTINUOUS
10
-4.1100300000
20
-1.9094860000
11
-4.2577650000
21
-1.4750000000
0
LINE
5
254
100
AcDbEntity
8
0
100
AcDbLine
62
7
6
CONTINUOUS
10
-3.7154870000
20
-3.1331510000
11
-3.9992490000
21
-2.2501630000
0
LINE
5
255
100
AcDbEntity
8
0
100
AcDbLine
62
7
6
CONTINUOUS
10
-1.9417750000
20
-8.1714000000
11
-2.1841060000
21
-7.4166250000
0
LINE
5
256
100
AcDbEntity
8
0
100
AcDbLine
62
7
6
CONTINUOUS
10
-2.3366310000
20
-6.9416060000
11
-2.4944810000
21
-6.4499440000
0
LINE
5
257
100
AcDbEntity
8
0
100
AcDbLine
62
7
6
CONTINUOUS
10
-2.5171200000
20
-1.4750000000
11
-2.5171200000
21
-3.5250000000
0
LINE
5
258
100
AcDbEntity
8
0
100
AcDbLine
62
7
6
CONTINUOUS
10
-2.2797240000
20
2.4807480000
11
-2.2797240000
21
2.2867720000
0
LINE
5
259
100
AcDbEntity
8
0
100
AcDbLine
62
7
6
CONTINUOUS
10
-2.1053910000
20
-3.5250000000
11
-2.1053910000
21
-1.9004720000
0
LINE
5
25A
100
AcDbEntity
8
0
100
AcDbLine
62
7
6
CONTINUOUS
10
-3.4115500000
20
-2.2501630000
11
-3.7154870000
21
-3.1331510000
0
LINE
5
25B
100
AcDbEntity
8
0
100
AcDbLine
62
7
6
CONTINUOUS
10
-3.1446250000
20
-1.4750000000
11
-3.2979910000
21
-1.9094860000
0
LINE
5
25C
100
AcDbEntity
8
0
100
AcDbLine
62
7
6
CONTINUOUS
10
-3.4655530000
20
-3.5250000000
11
-2.7244110000
21
-1.4750000000
0
LINE
5
25D
100
AcDbEntity
8
0
100
AcDbLine
62
7
6
CONTINUOUS
10
-1.7982447916
20
1.3817871941
11
-0.9873070000
21
2.2342830000
0
LINE
5
25E
100
AcDbEntity
8
0
100
AcDbLine
62
7
6
CONTINUOUS
10
-1.2101190000
20
2.2867720000
11
-1.8509304243
21
1.6300268387
0
LINE
5
25F
100
AcDbEntity
8
0
100
AcDbLine
62
7
6
CONTINUOUS
10
-2.9279470000
20
0.9801860000
11
-3.2934680000
21
0.6466920000
0
LINE
5
260
100
AcDbEntity
8
0
100
AcDbLine
62
7
6
CONTINUOUS
10
-3.3170760000
20
0.3802870000
11
-2.7986150000
21
0.8193470000
0
LINE
5
261
100
AcDbEntity
8
0
100
AcDbLine
62
7
6
CONTINUOUS
10
4.0037122164
20
-2.6051110000
11
4.2604650000
21
-2.6051110000
0
LINE
5
262
100
AcDbEntity
8
0
100
AcDbLine
62
7
6
CONTINUOUS
10
4.2604650000
20
-2.2644350000
11
4.0732552514
21
-2.2644350000
0
LINE
5
263
100
AcDbEntity
8
0
100
AcDbLine
62
7
6
CONTINUOUS
10
-3.9992490000
20
-2.2501630000
11
-3.4115500000
21
-2.2501630000
0
LINE
5
264
100
AcDbEntity
8
0
100
AcDbLine
62
7
6
CONTINUOUS
10
0.2597510000
20
-2.2501630000
11
0.8475260000
21
-2.2501630000
0
LINE
5
265
100
AcDbEntity
8
0
100
AcDbLine
62
7
6
CONTINUOUS
10
0.9610850000
20
-1.9094860000
11
0.1490460000
21
-1.9094860000
0
LINE
5
266
100
AcDbEntity
8
0
100
AcDbLine
62
7
6
CONTINUOUS
10
-3.2979910000
20
-1.9094860000
11
-4.1100300000
21
-1.9094860000
0
LINE
5
267
100
AcDbEntity
8
0
100
AcDbLine
62
7
6
CONTINUOUS
10
1.7556890000
20
-1.8156760000
11
2.5141880000
21
-1.8156760000
0
LINE
5
268
100
AcDbEntity
8
0
100
AcDbLine
62
7
6
CONTINUOUS
10
4.7005830000
20
-1.4750000000
11
4.2604650000
21
-1.4750000000
0
LINE
5
269
100
AcDbEntity
8
0
100
AcDbLine
62
7
6
CONTINUOUS
10
2.9543060000
20
-1.4750000000
11
1.7556890000
21
-1.4750000000
0
LINE
5
26A
100
AcDbEntity
8
0
100
AcDbLine
62
7
6
CONTINUOUS
10
1.5345880000
20
-1.4750000000
11
1.1143740000
21
-1.4750000000
0
LINE
5
26B
100
AcDbEntity
8
0
100
AcDbLine
62
7
6
CONTINUOUS
10
0.0013890000
20
-1.4750000000
11
-0.4415840000
21
-1.4750000000
0
LINE
5
26C
100
AcDbEntity
8
0
100
AcDbLine
62
7
6
CONTINUOUS
10
-0.6658470000
20
-1.4750000000
11
-1.0775750000
21
-1.4750000000
0
LINE
5
26D
100
AcDbEntity
8
0
100
AcDbLine
62
7
6
CONTINUOUS
10
-1.8924680000
20
-1.4750000000
11
-2.5171200000
21
-1.4750000000
0
LINE
5
26E
100
AcDbEntity
8
0
100
AcDbLine
62
7
6
CONTINUOUS
10
-2.7244110000
20
-1.4750000000
11
-3.1446250000
21
-1.4750000000
0
LINE
5
26F
100
AcDbEntity
8
0
100
AcDbLine
62
7
6
CONTINUOUS
10
-4.2577650000
20
-1.4750000000
11
-4.7005830000
21
-1.4750000000
0
LINE
5
270
100
AcDbEntity
8
0
100
AcDbLine
62
7
6
CONTINUOUS
10
-2.7986150000
20
0.8193470000
11
-2.9279470000
21
0.9801860000
0
LINE
5
271
100
AcDbEntity
8
0
100
AcDbLine
62
7
6
CONTINUOUS
10
-2.1053910000
20
-1.9004720000
11
-1.3188880000
21
-3.5250000000
0
LINE
5
272
100
AcDbEntity
8
0
100
AcDbLine
62
7
6
CONTINUOUS
10
-1.0775750000
20
-3.1907110000
11
-1.8924680000
21
-1.4750000000
0
LINE
5
273
100
AcDbEntity
8
0
100
AcDbLine
62
7
6
CONTINUOUS
10
-1.0775750000
20
-1.4750000000
11
-1.0775750000
21
-3.1907110000
0
LINE
5
274
100
AcDbEntity
8
0
100
AcDbLine
62
7
6
CONTINUOUS
10
-0.9873070000
20
2.2342830000
11
-0.9873070000
21
2.4807480000
0
LINE
5
275
100
AcDbEntity
8
0
100
AcDbLine
62
7
6
CONTINUOUS
10
-0.6658470000
20
-3.5250000000
11
-0.6658470000
21
-1.4750000000
0
LINE
5
276
100
AcDbEntity
8
0
100
AcDbLine
62
7
6
CONTINUOUS
10
-0.5557190000
20
-6.4499370000
11
-0.5557190000
21
-8.9500500000
0
LINE
5
277
100
AcDbEntity
8
0
100
AcDbLine
62
7
6
CONTINUOUS
10
-0.0556940000
20
-8.0985940000
11
-0.0557000000
21
-6.4499370000
0
LINE
5
278
100
AcDbEntity
8
0
100
AcDbLine
62
7
6
CONTINUOUS
10
-0.4415840000
20
-1.4750000000
11
0.2710910000
21
-3.5250000000
0
LINE
5
279
100
AcDbEntity
8
0
100
AcDbLine
62
7
6
CONTINUOUS
10
0.1490460000
20
-1.9094860000
11
0.0013890000
21
-1.4750000000
0
LINE
5
27A
100
AcDbEntity
8
0
100
AcDbLine
62
7
6
CONTINUOUS
10
0.5435500000
20
-3.1332670000
11
0.2597510000
21
-2.2501630000
0
LINE
5
27B
100
AcDbEntity
8
0
100
AcDbLine
62
7
6
CONTINUOUS
10
0.6670440000
20
-7.3218870000
11
1.1339130000
21
-8.9500500000
0
LINE
5
27C
100
AcDbEntity
8
0
100
AcDbLine
62
7
6
CONTINUOUS
10
1.3897880000
20
-8.0985940000
11
0.9170500000
21
-6.4499370000
0
LINE
5
27D
100
AcDbEntity
8
0
100
AcDbLine
62
7
6
CONTINUOUS
10
0.9611650000
20
1.9822960000
11
0.9611650000
21
1.7884560000
0
LINE
5
27E
100
AcDbEntity
8
0
100
AcDbLine
62
7
6
CONTINUOUS
10
1.2553880000
20
2.4807480000
11
1.2553880000
21
1.9822960000
0
LINE
5
27F
100
AcDbEntity
8
0
100
AcDbLine
62
7
6
CONTINUOUS
10
1.2553880000
20
1.7884560000
11
1.2553880000
21
0.3802870000
0
LINE
5
280
100
AcDbEntity
8
0
100
AcDbLine
62
7
6
CONTINUOUS
10
1.3897880000
20
-6.4499370000
11
1.3897880000
21
-8.0985940000
0
LINE
5
281
100
AcDbEntity
8
0
100
AcDbLine
62
7
6
CONTINUOUS
10
1.4608160000
20
0.5916460000
11
1.4608160000
21
1.7884560000
0
LINE
5
282
100
AcDbEntity
8
0
100
AcDbLine
62
7
6
CONTINUOUS
10
1.4608160000
20
1.9822960000
11
1.4608160000
21
2.4807480000
0
LINE
5
283
100
AcDbEntity
8
0
100
AcDbLine
62
7
6
CONTINUOUS
10
1.7556890000
20
-1.4750000000
11
1.7556890000
21
-1.8156760000
0
LINE
5
284
100
AcDbEntity
8
0
100
AcDbLine
62
7
6
CONTINUOUS
10
-1.6994560000
20
-7.4166250000
11
-1.9417750000
21
-8.1714000000
0
LINE
5
285
100
AcDbEntity
8
0
100
AcDbLine
62
7
6
CONTINUOUS
10
-1.3890810000
20
-6.4499440000
11
-1.5469380000
21
-6.9416060000
0
LINE
5
286
100
AcDbEntity
8
0
100
AcDbLine
62
7
6
CONTINUOUS
10
-1.6917560000
20
-8.9500560000
11
-0.8890630000
21
-6.4499370000
0
LINE
5
287
100
AcDbEntity
8
0
100
AcDbLine
62
7
6
CONTINUOUS
10
0.8475260000
20
-2.2501630000
11
0.5435500000
21
-3.1332670000
0
LINE
5
288
100
AcDbEntity
8
0
100
AcDbLine
62
7
6
CONTINUOUS
10
1.1143740000
20
-1.4750000000
11
0.9610850000
21
-1.9094860000
0
LINE
5
289
100
AcDbEntity
8
0
100
AcDbLine
62
7
6
CONTINUOUS
10
2.1708990000
20
1.7884560000
11
1.4664520000
21
0.5916460000
0
LINE
5
28A
100
AcDbEntity
8
0
100
AcDbLine
62
7
6
CONTINUOUS
10
1.5192130000
20
0.3802870000
11
2.3415610000
21
1.7389550000
0
LINE
5
28B
100
AcDbEntity
8
0
100
AcDbLine
62
7
6
CONTINUOUS
10
3.6718460000
20
0.9801860000
11
3.3063250000
21
0.6466920000
0
LINE
5
28C
100
AcDbEntity
8
0
100
AcDbLine
62
7
6
CONTINUOUS
10
3.2827170000
20
0.3802870000
11
3.8011780000
21
0.8193470000
0
LINE
5
28D
100
AcDbEntity
8
0
100
AcDbLine
62
7
6
CONTINUOUS
10
-3.4988970000
20
0.3802870000
11
-3.3170760000
21
0.3802870000
0
LINE
5
28E
100
AcDbEntity
8
0
100
AcDbLine
62
7
6
CONTINUOUS
10
1.2553880000
20
0.3802870000
11
1.5192130000
21
0.3802870000
0
LINE
5
28F
100
AcDbEntity
8
0
100
AcDbLine
62
7
6
CONTINUOUS
10
3.1008960000
20
0.3802870000
11
3.2827170000
21
0.3802870000
0
LINE
5
290
100
AcDbEntity
8
0
100
AcDbLine
62
7
6
CONTINUOUS
10
1.4664520000
20
0.5916460000
11
1.4608160000
21
0.5916460000
0
LINE
5
291
100
AcDbEntity
8
0
100
AcDbLine
62
7
6
CONTINUOUS
10
0.9611650000
20
1.7884560000
11
1.2553880000
21
1.7884560000
0
LINE
5
292
100
AcDbEntity
8
0
100
AcDbLine
62
7
6
CONTINUOUS
10
1.4608160000
20
1.7884560000
11
2.1708990000
21
1.7884560000
0
LINE
5
293
100
AcDbEntity
8
0
100
AcDbLine
62
7
6
CONTINUOUS
10
-1.0388230818
20
0.8457830086
11
-1.2577641542
21
0.8689160163
0
LINE
5
294
100
AcDbEntity
8
0
100
AcDbLine
62
7
6
CONTINUOUS
10
4.6248715732
20
-19.4686490016
11
4.6118041181
21
-19.2582056800
0
LINE
5
295
100
AcDbEntity
8
0
100
AcDbLine
62
7
6
CONTINUOUS
10
1.8898060000
20
-8.9500500000
11
1.8898060000
21
-6.4499370000
0
LINE
5
296
100
AcDbEntity
8
0
100
AcDbLine
62
7
6
CONTINUOUS
10
2.3415610000
20
1.7389550000
11
2.3415610000
21
1.9822960000
0
LINE
5
297
100
AcDbEntity
8
0
100
AcDbLine
62
7
6
CONTINUOUS
10
2.3898130000
20
-6.4499370000
11
2.3898060000
21
-8.9500500000
0
LINE
5
298
100
AcDbEntity
8
0
100
AcDbLine
62
7
6
CONTINUOUS
10
2.5141880000
20
-1.8156760000
11
2.5141880000
21
-3.5250000000
0
LINE
5
299
100
AcDbEntity
8
0
100
AcDbLine
62
7
6
CONTINUOUS
10
2.8898250000
20
-8.9500500000
11
2.8898310000
21
-6.4499310000
0
LINE
5
29A
100
AcDbEntity
8
0
100
AcDbLine
62
7
6
CONTINUOUS
10
2.9543060000
20
-3.5250000000
11
2.9543060000
21
-1.4750000000
0
LINE
5
29B
100
AcDbEntity
8
0
100
AcDbLine
62
7
6
CONTINUOUS
10
3.1008960000
20
2.4807480000
11
3.1008960000
21
0.3802870000
0
LINE
5
29C
100
AcDbEntity
8
0
100
AcDbLine
62
7
6
CONTINUOUS
10
3.3063250000
20
0.6466920000
11
3.3063250000
21
2.4807480000
0
LINE
5
29D
100
AcDbEntity
8
0
100
AcDbLine
62
7
6
CONTINUOUS
10
0.4170440000
20
-6.4499440000
11
-0.0556940000
21
-8.0985940000
0
LINE
5
29E
100
AcDbEntity
8
0
100
AcDbLine
62
7
6
CONTINUOUS
10
0.2001750000
20
-8.9500500000
11
0.6670440000
21
-7.3218870000
0
LINE
5
29F
100
AcDbEntity
8
0
100
AcDbLine
62
7
6
CONTINUOUS
10
0.7935240000
20
-3.5250000000
11
1.5345880000
21
-1.4750000000
0
LINE
5
2A0
100
AcDbEntity
8
0
100
AcDbLine
62
7
6
CONTINUOUS
10
2.3415610000
20
1.9822960000
11
1.4608160000
21
1.9822960000
0
LINE
5
2A1
100
AcDbEntity
8
0
100
AcDbLine
62
7
6
CONTINUOUS
10
1.2553880000
20
1.9822960000
11
0.9611650000
21
1.9822960000
0
LINE
5
2A2
100
AcDbEntity
8
0
100
AcDbLine
62
7
6
CONTINUOUS
10
-2.2797240000
20
2.2867720000
11
-1.2101190000
21
2.2867720000
0
LINE
5
2A3
100
AcDbEntity
8
0
100
AcDbLine
62
7
6
CONTINUOUS
10
3.3063250000
20
2.4807480000
11
3.1008960000
21
2.4807480000
0
LINE
5
2A4
100
AcDbEntity
8
0
100
AcDbLine
62
7
6
CONTINUOUS
10
1.4608160000
20
2.4807480000
11
1.2553880000
21
2.4807480000
0
LINE
5
2A5
100
AcDbEntity
8
0
100
AcDbLine
62
7
6
CONTINUOUS
10
-0.9873070000
20
2.4807480000
11
-2.2797240000
21
2.4807480000
0
LINE
5
2A6
100
AcDbEntity
8
0
100
AcDbLine
62
7
6
CONTINUOUS
10
-3.2934680000
20
2.4807480000
11
-3.4988970000
21
2.4807480000
0
LINE
5
2A7
100
AcDbEntity
8
0
100
AcDbLine
62
7
6
CONTINUOUS
10
3.8011780000
20
0.8193470000
11
3.6718460000
21
0.9801860000
0
LINE
5
2A8
100
AcDbEntity
8
0
100
AcDbLine
62
7
6
CONTINUOUS
10
4.2758880000
20
-7.2285870000
11
4.8285880000
21
-8.9500500000
0
LINE
5
2A9
100
AcDbEntity
8
0
100
AcDbLine
62
7
6
CONTINUOUS
10
5.3286130000
20
-8.9500500000
11
4.5259130000
21
-6.4499310000
0
LINE
5
2AA
100
AcDbEntity
8
0
100
AcDbLine
62
7
6
CONTINUOUS
10
4.2604650000
20
-1.4750000000
11
4.2604650000
21
-2.2644350000
0
LINE
5
2AB
100
AcDbEntity
8
0
100
AcDbLine
62
7
6
CONTINUOUS
10
4.2604650000
20
-2.6051110000
11
4.2604650000
21
-3.1843240000
0
LINE
5
2AC
100
AcDbEntity
8
0
100
AcDbLine
62
7
6
CONTINUOUS
10
4.6000000000
20
-19.8500000000
11
4.6000000000
21
-18.9000000000
0
LINE
5
2AD
100
AcDbEntity
8
0
100
AcDbLine
62
7
6
CONTINUOUS
10
4.6118041181
20
-19.2582056800
11
4.6118041181
21
-18.9000000000
0
LINE
5
2AE
100
AcDbEntity
8
0
100
AcDbLine
62
7
6
CONTINUOUS
10
4.6248715732
20
-19.4686490016
11
4.6248715732
21
-20.3500000000
0
LINE
5
2AF
100
AcDbEntity
8
0
100
AcDbLine
62
7
6
CONTINUOUS
10
4.7005830000
20
-3.5250000000
11
4.7005830000
21
-1.4750000000
0
LINE
5
2B0
100
AcDbEntity
8
0
100
AcDbLine
62
9
6
CONTINUOUS
10
4.9117926950
20
-19.3000000000
11
4.9117926950
21
-18.9000000000
0
LINE
5
2B1
100
AcDbEntity
8
0
100
AcDbLine
62
9
6
CONTINUOUS
10
5.0882073050
20
-18.9000000000
11
5.0882073050
21
-19.3000000000
0
LINE
5
2B2
100
AcDbEntity
8
0
100
AcDbLine
62
7
6
CONTINUOUS
10
5.3751284268
20
-19.4686490016
11
5.3751284268
21
-20.3500000000
0
LINE
5
2B3
100
AcDbEntity
8
0
100
AcDbLine
62
7
6
CONTINUOUS
10
5.3881958819
20
-18.9000000000
11
5.3881958819
21
-19.2582056800
0
LINE
5
2B4
100
AcDbEntity
8
0
100
AcDbLine
62
7
6
CONTINUOUS
10
5.4000000000
20
-19.8500000000
11
5.4000000000
21
-18.9000000000
0
LINE
5
2B5
100
AcDbEntity
8
0
100
AcDbLine
62
7
6
CONTINUOUS
10
6.4000000000
20
20.3500000000
11
6.4000000000
21
19.9500000000
0
LINE
5
2B6
100
AcDbEntity
8
0
100
AcDbLine
62
7
6
CONTINUOUS
10
6.4000000000
20
-20.3500000000
11
6.4000000000
21
-19.9500000000
0
LINE
5
2B7
100
AcDbEntity
8
0
100
AcDbLine
62
7
6
CONTINUOUS
10
5.3881958819
20
-19.2582056800
11
5.3751284268
21
-19.4686490016
0
LINE
5
2B8
100
AcDbEntity
8
0
100
AcDbLine
62
7
6
CONTINUOUS
10
4.0258750000
20
-6.4499370000
11
3.2231690000
21
-8.9500500000
0
LINE
5
2B9
100
AcDbEntity
8
0
100
AcDbLine
62
7
6
CONTINUOUS
10
3.7231940000
20
-8.9500500000
11
4.2758880000
21
-7.2285870000
0
LINE
5
2BA
100
AcDbEntity
8
0
100
AcDbLine
62
7
6
CONTINUOUS
10
7.0000000000
20
20.3500000000
11
7.0000000000
21
19.9500000000
0
LINE
5
2BB
100
AcDbEntity
8
0
100
AcDbLine
62
7
6
CONTINUOUS
10
7.0000000000
20
-20.3500000000
11
7.0000000000
21
-19.9500000000
0
LINE
5
2BC
100
AcDbEntity
8
0
100
AcDbLine
62
9
6
CONTINUOUS
10
9.6000000000
20
-20.3500000000
11
9.6000000000
21
20.3500000000
0
LINE
5
2BD
100
AcDbEntity
8
0
100
AcDbLine
62
7
6
CONTINUOUS
10
9.9000000000
20
20.0500000000
11
9.9000000000
21
-20.0500000000
0
LINE
5
2BE
100
AcDbEntity
8
0
100
AcDbLine
62
7
6
CONTINUOUS
10
10.6000000000
20
5.9801315846
11
10.6000000000
21
-5.9801315846
0
LINE
5
2BF
100
AcDbEntity
8
0
100
AcDbLine
62
7
6
CONTINUOUS
10
11.1000000000
20
21.0501218439
11
11.1000000000
21
-21.0501218439
0
LINE
5
2C0
100
AcDbEntity
8
0
100
AcDbLine
62
7
6
CONTINUOUS
10
7.0000000000
20
19.9500000000
11
9.6000000000
21
20.3500000000
0
LINE
5
2C1
100
AcDbEntity
8
0
100
AcDbLine
62
7
6
CONTINUOUS
10
-7.0000000000
20
19.9500000000
11
-9.6000000000
21
20.3500000000
0
LINE
5
2C2
100
AcDbEntity
8
0
100
AcDbLine
62
9
6
CONTINUOUS
10
9.9000000000
20
19.8500000000
11
-9.9000000000
21
19.8500000000
0
LINE
5
2C3
100
AcDbEntity
8
0
100
AcDbLine
62
7
6
CONTINUOUS
10
6.4000000000
20
19.9500000000
11
7.0000000000
21
19.9500000000
0
LINE
5
2C4
100
AcDbEntity
8
0
100
AcDbLine
62
7
6
CONTINUOUS
10
-6.4000000000
20
19.9500000000
11
-7.0000000000
21
19.9500000000
0
LINE
5
2C5
100
AcDbEntity
8
0
100
AcDbLine
62
7
6
CONTINUOUS
10
9.6000000000
20
20.3500000000
11
-9.6000000000
21
20.3500000000
0
LINE
5
2C6
100
AcDbEntity
8
0
100
AcDbLine
62
7
6
CONTINUOUS
10
-10.3001218439
20
21.8500000000
11
10.3001218439
21
21.8500000000
0
ARC
5
2C7
100
AcDbEntity
8
0
100
AcDbCircle
62
7
6
CONTINUOUS
10
-11.9000000000
20
7.5000000000
40
2.0000000000
100
AcDbArc
50
310.5416018735
51
360.0000000000
0
ARC
5
2C8
100
AcDbEntity
8
0
100
AcDbCircle
62
7
6
CONTINUOUS
10
-11.9000000000
20
-7.5000000000
40
2.0000000000
100
AcDbArc
50
0.0000000000
51
49.4583981265
0
ARC
5
2C9
100
AcDbEntity
8
0
100
AcDbCircle
62
7
6
CONTINUOUS
10
11.9000000000
20
-7.5000000000
40
2.0000000000
100
AcDbArc
50
130.5416018735
51
180.0000000000
0
ARC
5
2CA
100
AcDbEntity
8
0
100
AcDbCircle
62
7
6
CONTINUOUS
10
11.9000000000
20
7.5000000000
40
2.0000000000
100
AcDbArc
50
180.0000000000
51
229.4583981265
0
ARC
5
2CB
100
AcDbEntity
8
0
100
AcDbCircle
62
7
6
CONTINUOUS
10
-4.4293230000
20
-8.1833430000
40
0.3041950000
100
AcDbArc
50
90.0018938328
51
270.0000000000
0
ARC
5
2CC
100
AcDbEntity
8
0
100
AcDbCircle
62
7
6
CONTINUOUS
10
-4.4987250000
20
-8.1833430000
40
0.7667158029
100
AcDbArc
50
112.8428449664
51
269.9987108403
0
ARC
5
2CD
100
AcDbEntity
8
0
100
AcDbCircle
62
7
6
CONTINUOUS
10
9.6000000000
20
-20.0500000000
40
0.3000000000
100
AcDbArc
50
270.0000000000
51
360.0000000000
0
ARC
5
2CE
100
AcDbEntity
8
0
100
AcDbCircle
62
7
6
CONTINUOUS
10
9.6000000000
20
20.0500000000
40
0.3000000000
100
AcDbArc
50
0.0000000000
51
90.0000000000
0
ARC
5
2CF
100
AcDbEntity
8
0
100
AcDbCircle
62
7
6
CONTINUOUS
10
-9.6000000000
20
-20.0500000000
40
0.3000000000
100
AcDbArc
50
180.0000000000
51
270.0000000000
0
ARC
5
2D0
100
AcDbEntity
8
0
100
AcDbCircle
62
7
6
CONTINUOUS
10
-9.6000000000
20
20.0500000000
40
0.3000000000
100
AcDbArc
50
90.0000000000
51
180.0000000000
0
ARC
5
2D1
100
AcDbEntity
8
0
100
AcDbCircle
62
7
6
CONTINUOUS
10
5.0000000000
20
-18.9000000000
40
0.4000000000
100
AcDbArc
50
0.0000000000
51
180.0000000000
0
ARC
5
2D2
100
AcDbEntity
8
0
100
AcDbCircle
62
9
6
CONTINUOUS
10
5.0000000000
20
-18.9000000000
40
0.3881958800
100
AcDbArc
50
0.0000000000
51
180.0000000000
0
ARC
5
2D3
100
AcDbEntity
8
0
100
AcDbCircle
62
7
6
CONTINUOUS
10
-5.0000000000
20
-18.9000000000
40
0.4000000000
100
AcDbArc
50
0.0000000000
51
180.0000000000
0
ARC
5
2D4
100
AcDbEntity
8
0
100
AcDbCircle
62
9
6
CONTINUOUS
10
-5.0000000000
20
-18.9000000000
40
0.3881958800
100
AcDbArc
50
0.0000000000
51
180.0000000000
0
SPLINE
5
2D5
100
AcDbEntity
8
0
100
AcDbSpline
62
7
6
CONTINUOUS
70
0
71
3
72
130
73
126
74
124
42
0.0000001000
43
0.0000001000
44
0.0000000001
12
2.8939439327
22
0.0395457295
32
0.0000000000
13
-2.8939433551
23
0.0395879814
33
0.0000000000
40
0.0000000000
40
0.0000000000
40
0.0000000000
40
0.0000000000
40
0.0351420869
40
0.0677148520
40
0.0832491550
40
0.0983983501
40
0.1058617310
40
0.1132675191
40
0.1169532758
40
0.1206297620
40
0.1242987170
40
0.1261309444
40
0.1270465880
40
0.1279619528
40
0.1288843526
40
0.1298060496
40
0.1316473914
40
0.1353222740
40
0.1389876050
40
0.1426443628
40
0.1499358571
40
0.1572049540
40
0.1717060833
40
0.1862143914
40
0.2007944252
40
0.2155097877
40
0.2304223506
40
0.2379721691
40
0.2417735048
40
0.2455935572
40
0.2475231147
40
0.2494534385
40
0.2533165119
40
0.2610532714
40
0.2688060614
40
0.2765770183
40
0.2921813777
40
0.3078836480
40
0.3396434067
40
0.3476710477
40
0.3557371600
40
0.3638436408
40
0.3679126334
40
0.3699511653
40
0.3719924235
40
0.3740626552
40
0.3761307522
40
0.3802605783
40
0.3843819821
40
0.3884950423
40
0.3966964278
40
0.4048653918
40
0.4211084790
40
0.4372297150
40
0.4532344708
40
0.4691282351
40
0.4770353315
40
0.4849167914
40
0.4888481433
40
0.4927733559
40
0.4966925203
40
0.4986498643
40
0.4996279815
40
0.5006057308
40
0.5015522590
40
0.5024992775
40
0.5043947909
40
0.5081917625
40
0.5119967426
40
0.5158098245
40
0.5234606401
40
0.5311449659
40
0.5388635256
40
0.5466170333
40
0.5622315291
40
0.5779941516
40
0.5939102675
40
0.6019276002
40
0.6099852481
40
0.6180838388
40
0.6221486909
40
0.6241850384
40
0.6262240121
40
0.6282959246
40
0.6303646076
40
0.6344923923
40
0.6386076045
40
0.6427104776
40
0.6508800899
40
0.6590031958
40
0.6751171871
40
0.6910688437
40
0.7068745667
40
0.7225512155
40
0.7303467960
40
0.7381166206
40
0.7458629071
40
0.7497279575
40
0.7535879642
40
0.7574074052
40
0.7612080897
40
0.7687564810
40
0.7836656568
40
0.7983768527
40
0.8129518687
40
0.8274542457
40
0.8419484799
40
0.8492137551
40
0.8565011735
40
0.8638186842
40
0.8674913035
40
0.8693314895
40
0.8711744104
40
0.8730493889
40
0.8749241678
40
0.8786740148
40
0.8824259047
40
0.8861817285
40
0.8937122417
40
0.9012809886
40
0.9165882631
40
0.9322211593
40
0.9482866448
40
0.9648833250
40
1.0000000000
40
1.0000000000
40
1.0000000000
40
1.0000000000
10
0.0022179826
20
0.3455205158
30
0.0000000000
10
0.0361177256
20
0.3459837556
30
0.0000000000
10
0.1014745732
20
0.3503765252
30
0.0000000000
10
0.1804898597
20
0.3663251451
30
0.0000000000
10
0.2385698664
20
0.3852354730
30
0.0000000000
10
0.2725808558
20
0.3994143377
30
0.0000000000
10
0.2985601887
20
0.4122265081
30
0.0000000000
10
0.3142685882
20
0.4208232405
30
0.0000000000
10
0.3265387811
20
0.4280656234
30
0.0000000000
10
0.3355854536
20
0.4336722438
30
0.0000000000
10
0.3430065444
20
0.4385026273
30
0.0000000000
10
0.3481427285
20
0.4419589050
30
0.0000000000
10
0.3510522934
20
0.4439646393
30
0.0000000000
10
0.3532484733
20
0.4454598454
30
0.0000000000
10
0.3553736964
20
0.4470640102
30
0.0000000000
10
0.3582278718
20
0.4491839388
30
0.0000000000
10
0.3631798125
20
0.4529330855
30
0.0000000000
10
0.3701828785
20
0.4583573865
30
0.0000000000
10
0.3784610470
20
0.4649935332
30
0.0000000000
10
0.3893165636
20
0.4739897876
30
0.0000000000
10
0.4025704363
20
0.4855372279
30
0.0000000000
10
0.4230908546
20
0.5046477380
30
0.0000000000
10
0.4474995223
20
0.5297706887
30
0.0000000000
10
0.4747385994
20
0.5618488559
30
0.0000000000
10
0.4999057497
20
0.5958353692
30
0.0000000000
10
0.5229995018
20
0.6317259909
30
0.0000000000
10
0.5404439015
20
0.6630941034
30
0.0000000000
10
0.5517213061
20
0.6857875992
30
0.0000000000
10
0.5579290780
20
0.6990426139
30
0.0000000000
10
0.5617222627
20
0.7074403488
30
0.0000000000
10
0.5646691777
20
0.7142382744
30
0.0000000000
10
0.5676147147
20
0.7210819358
30
0.0000000000
10
0.5726948042
20
0.7331060409
30
0.0000000000
10
0.5797478326
20
0.7503937613
30
0.0000000000
10
0.5878770481
20
0.7713110066
30
0.0000000000
10
0.5982910395
20
0.7994791065
30
0.0000000000
10
0.6104869059
20
0.8351598805
30
0.0000000000
10
0.6282811791
20
0.8933501250
30
0.0000000000
10
0.6414491924
20
0.9452849122
30
0.0000000000
10
0.6510566636
20
0.9904405807
30
0.0000000000
10
0.6555639510
20
1.0133494082
30
0.0000000000
10
0.6590383205
20
1.0325663847
30
0.0000000000
10
0.6613304993
20
1.0460864314
30
0.0000000000
10
0.6625925717
20
1.0538458531
30
0.0000000000
10
0.6635467806
20
1.0597019723
30
0.0000000000
10
0.6643919640
20
1.0656036287
30
0.0000000000
10
0.6655413643
20
1.0734969311
30
0.0000000000
10
0.6669316681
20
1.0833548972
30
0.0000000000
10
0.6685512494
20
1.0951727576
30
0.0000000000
10
0.6706336315
20
1.1108917615
30
0.0000000000
10
0.6731005442
20
1.1304985915
30
0.0000000000
10
0.6767515161
20
1.1617497993
30
0.0000000000
10
0.6807702804
20
1.2006490510
30
0.0000000000
10
0.6847240955
20
1.2471472958
30
0.0000000000
10
0.6877999195
20
1.2933741583
30
0.0000000000
10
0.6896344812
20
1.3317347804
30
0.0000000000
10
0.6906607968
20
1.3622830531
30
0.0000000000
10
0.6911186537
20
1.3813024182
30
0.0000000000
10
0.6913749374
20
1.3964833722
30
0.0000000000
10
0.6915121364
20
1.4078430826
30
0.0000000000
10
0.6915807726
20
1.4172989658
30
0.0000000000
10
0.6916047991
20
1.4239118460
30
0.0000000000
10
0.6916116514
20
1.4276870636
30
0.0000000000
10
0.6916133714
20
1.4304871144
30
0.0000000000
10
0.6916116625
20
1.4332571631
30
0.0000000000
10
0.6916048056
20
1.4369126080
30
0.0000000000
10
0.6915808197
20
1.4433179505
30
0.0000000000
10
0.6915122664
20
1.4524803003
30
0.0000000000
10
0.6913752748
20
1.4634920114
30
0.0000000000
10
0.6911193107
20
1.4782203038
30
0.0000000000
10
0.6906619625
20
1.4966879845
30
0.0000000000
10
0.6898946265
20
1.5189158622
30
0.0000000000
10
0.6889081811
20
1.5412342890
30
0.0000000000
10
0.6872970741
20
1.5711817476
30
0.0000000000
10
0.6847313547
20
1.6088477196
30
0.0000000000
10
0.6807829878
20
1.6543046069
30
0.0000000000
10
0.6767722415
20
1.6923926202
30
0.0000000000
10
0.6731287466
20
1.7230401549
30
0.0000000000
10
0.6701707796
20
1.7461732959
30
0.0000000000
10
0.6675249496
20
1.7655013401
30
0.0000000000
10
0.6655819329
20
1.7790619854
30
0.0000000000
10
0.6644377621
20
1.7868313043
30
0.0000000000
10
0.6635756225
20
1.7926988417
30
0.0000000000
10
0.6626397790
20
1.7985866752
30
0.0000000000
10
0.6613751039
20
1.8064625901
30
0.0000000000
10
0.6597372589
20
1.8162750321
30
0.0000000000
10
0.6576906395
20
1.8280085138
30
0.0000000000
10
0.6548556154
20
1.8435622077
30
0.0000000000
10
0.6511073577
20
1.8628791903
30
0.0000000000
10
0.6446805922
20
1.8934764836
30
0.0000000000
10
0.6358290648
20
1.9312313057
30
0.0000000000
10
0.6238626587
20
1.9758454914
30
0.0000000000
10
0.6105805637
20
2.0196453027
30
0.0000000000
10
0.5983927281
20
2.0555327225
30
0.0000000000
10
0.5879860715
20
2.0838208415
30
0.0000000000
10
0.5798652972
20
2.1047942869
30
0.0000000000
10
0.5728231404
20
2.1221163442
30
0.0000000000
10
0.5670164655
20
2.1358663678
30
0.0000000000
10
0.5626203885
20
2.1460998147
30
0.0000000000
10
0.5580703750
20
2.1561979439
30
0.0000000000
10
0.5518666967
20
2.1694520650
30
0.0000000000
10
0.5406014259
20
2.1921456270
30
0.0000000000
10
0.5231734671
20
2.2235129991
30
0.0000000000
10
0.5001023483
20
2.2594036782
30
0.0000000000
10
0.4749597041
20
2.2933901544
30
0.0000000000
10
0.4477473219
20
2.3254684009
30
0.0000000000
10
0.4233622014
20
2.3505916886
30
0.0000000000
10
0.4028616252
20
2.3697028050
30
0.0000000000
10
0.3869568434
20
2.3835726081
30
0.0000000000
10
0.3732916148
20
2.3947219365
30
0.0000000000
10
0.3635097609
20
2.4023073056
30
0.0000000000
10
0.3578533571
20
2.4065927587
30
0.0000000000
10
0.3535422409
20
2.4097812829
30
0.0000000000
10
0.3492211500
20
2.4130124093
30
0.0000000000
10
0.3433598633
20
2.4172545727
30
0.0000000000
10
0.3359490863
20
2.4224431617
30
0.0000000000
10
0.3269112227
20
2.4284673768
30
0.0000000000
10
0.3146618624
20
2.4362430598
30
0.0000000000
10
0.2989793590
20
2.4454730815
30
0.0000000000
10
0.2730563964
20
2.4592193274
30
0.0000000000
10
0.2391092342
20
2.4744373059
30
0.0000000000
10
0.1962576664
20
2.4894282216
30
0.0000000000
10
0.1511321220
20
2.5012266428
30
0.0000000000
10
0.0867501712
20
2.5129232092
30
0.0000000000
10
0.0367948566
20
2.5164991476
30
0.0000000000
10
0.0029196338
20
2.5169625470
30
0.0000000000
11
0.0022179826
21
0.3455205158
31
0.0000000000
11
0.1036619781
21
0.3528540216
31
0.0000000000
11
0.1959787029
21
0.3719573517
31
0.0000000000
11
0.2387143388
21
0.3859227008
31
0.0000000000
11
0.2791681570
21
0.4028305060
31
0.0000000000
11
0.2985393845
21
0.4123878296
31
0.0000000000
11
0.3173401576
21
0.4226807673
31
0.0000000000
11
0.3265266237
21
0.4281030913
31
0.0000000000
11
0.3355704762
21
0.4337093189
31
0.0000000000
11
0.3444717151
21
0.4394994500
31
0.0000000000
11
0.3488688545
21
0.4424634793
31
0.0000000000
11
0.3510540541
21
0.4439627349
31
0.0000000000
11
0.3532303404
21
0.4454734845
31
0.0000000000
11
0.3553762161
21
0.4470615974
31
0.0000000000
11
0.3575140377
21
0.4486571371
31
0.0000000000
11
0.3617655186
21
0.4518704972
31
0.0000000000
11
0.3701718318
21
0.4583863398
31
0.0000000000
11
0.3784492799
21
0.4650210123
31
0.0000000000
11
0.3865978629
21
0.4717745148
31
0.0000000000
11
0.4025084338
21
0.4856380097
31
0.0000000000
11
0.4179035445
21
0.4999768244
31
0.0000000000
11
0.4471473851
21
0.5300804132
31
0.0000000000
11
0.4743293849
21
0.5620852814
31
0.0000000000
11
0.4994495439
21
0.5959914289
31
0.0000000000
11
0.5225078619
21
0.6317988556
31
0.0000000000
11
0.5435043390
21
0.6695075617
31
0.0000000000
11
0.5532293872
21
0.6890748944
31
0.0000000000
11
0.5578986138
21
0.6990368058
31
0.0000000000
11
0.5624389752
21
0.7091175470
31
0.0000000000
11
0.5646666497
21
0.7142385523
31
0.0000000000
11
0.5668737456
21
0.7193708747
31
0.0000000000
11
0.5712262015
21
0.7296694709
31
0.0000000000
11
0.5796841698
21
0.7504024689
31
0.0000000000
11
0.5878128803
21
0.7713165412
31
0.0000000000
11
0.5956123330
21
0.7924116877
31
0.0000000000
11
0.6102234648
21
0.8351452033
31
0.0000000000
11
0.6235175652
21
0.8786030158
31
0.0000000000
11
0.6461546719
21
0.9676915314
31
0.0000000000
11
0.6509908040
21
0.9904163459
31
0.0000000000
11
0.6554976782
21
1.0133222345
31
0.0000000000
11
0.6596752945
21
1.0364091974
31
0.0000000000
11
0.6616406310
21
1.0480205817
31
0.0000000000
11
0.6625924313
21
1.0538432496
31
0.0000000000
11
0.6635236530
21
1.0596772345
31
0.0000000000
11
0.6643945812
21
1.0656052932
31
0.0000000000
11
0.6652517939
21
1.0715291080
31
0.0000000000
11
0.6669250731
21
1.0833640058
31
0.0000000000
11
0.6685434908
21
1.0951819278
31
0.0000000000
11
0.6701070468
21
1.1069828742
31
0.0000000000
11
0.6730695740
21
1.1305338398
31
0.0000000000
11
0.6758126548
21
1.1540169025
31
0.0000000000
11
0.6806404769
21
1.2007793195
31
0.0000000000
11
0.6845905131
21
1.2472701252
31
0.0000000000
11
0.6876627636
21
1.2934893195
31
0.0000000000
11
0.6898572282
21
1.3394369025
31
0.0000000000
11
0.6906252908
21
1.3623088398
31
0.0000000000
11
0.6911739069
21
1.3851128742
31
0.0000000000
11
0.6913659226
21
1.3964894278
31
0.0000000000
11
0.6915030766
21
1.4078490058
31
0.0000000000
11
0.6915853690
21
1.4191916080
31
0.0000000000
11
0.6916059421
21
1.4248565432
31
0.0000000000
11
0.6916110854
21
1.4276874194
31
0.0000000000
11
0.6916127998
21
1.4305172345
31
0.0000000000
11
0.6916110882
21
1.4332566894
31
0.0000000000
11
0.6916059532
21
1.4359975589
31
0.0000000000
11
0.6915854132
21
1.4414835419
31
0.0000000000
11
0.6915032534
21
1.4524724836
31
0.0000000000
11
0.6913663204
21
1.4634840595
31
0.0000000000
11
0.6911746143
21
1.4745182697
31
0.0000000000
11
0.6906268823
21
1.4966545929
31
0.0000000000
11
0.6898600575
21
1.5188814533
31
0.0000000000
11
0.6888741399
21
1.5411988507
31
0.0000000000
11
0.6876691296
21
1.5636067853
31
0.0000000000
11
0.6846018304
21
1.6086942658
31
0.0000000000
11
0.6806581602
21
1.6541438947
31
0.0000000000
11
0.6758381187
21
1.6999556720
31
0.0000000000
11
0.6730994588
21
1.7229973664
31
0.0000000000
11
0.6701417061
21
1.7461295978
31
0.0000000000
11
0.6669648606
21
1.7693523664
31
0.0000000000
11
0.6652942780
21
1.7809977021
31
0.0000000000
11
0.6644384468
21
1.7868288578
31
0.0000000000
11
0.6635689223
21
1.7926656720
31
0.0000000000
11
0.6626377227
21
1.7985894868
31
0.0000000000
11
0.6616859887
21
1.8045005698
31
0.0000000000
11
0.6597209174
21
1.8162845404
31
0.0000000000
11
0.6576737086
21
1.8280175840
31
0.0000000000
11
0.6555443621
21
1.8396997004
31
0.0000000000
11
0.6510392562
21
1.8629111518
31
0.0000000000
11
0.6462055998
21
1.8859188947
31
0.0000000000
11
0.6355526355
21
1.9313232550
31
0.0000000000
11
0.6235854691
21
1.9759127814
31
0.0000000000
11
0.6103041007
21
2.0196874738
31
0.0000000000
11
0.5957085302
21
2.0626473322
31
0.0000000000
11
0.5879179191
21
2.0838216986
31
0.0000000000
11
0.5797987576
21
2.1047923566
31
0.0000000000
11
0.5713510455
21
2.1255593061
31
0.0000000000
11
0.5670039831
21
2.1358663901
31
0.0000000000
11
0.5625747830
21
2.1461225470
31
0.0000000000
11
0.5580387318
21
2.1562032883
31
0.0000000000
11
0.5533739482
21
2.1661651996
31
0.0000000000
11
0.5436581837
21
2.1857325324
31
0.0000000000
11
0.5226818655
21
2.2234412384
31
0.0000000000
11
0.4996458285
21
2.2592486652
31
0.0000000000
11
0.4745500725
21
2.2931548127
31
0.0000000000
11
0.4473945977
21
2.3251596808
31
0.0000000000
11
0.4181794039
21
2.3552632697
31
0.0000000000
11
0.4027994125
21
2.3696020844
31
0.0000000000
11
0.3869044913
21
2.3834655793
31
0.0000000000
11
0.3704946404
21
2.3968537543
31
0.0000000000
11
0.3620966163
21
2.4033695969
31
0.0000000000
11
0.3578493296
21
2.4065829570
31
0.0000000000
11
0.3535698598
21
2.4097666095
31
0.0000000000
11
0.3492126399
21
2.4130011892
31
0.0000000000
11
0.3448198108
21
2.4161862564
31
0.0000000000
11
0.3359273251
21
2.4224078534
31
0.0000000000
11
0.3268924025
21
2.4284314005
31
0.0000000000
11
0.3177150432
21
2.4342568976
31
0.0000000000
11
0.2989330140
21
2.4453137421
31
0.0000000000
11
0.2795812375
21
2.4555783869
31
0.0000000000
11
0.2391684428
21
2.4737310773
31
0.0000000000
11
0.1964766591
21
2.4887149689
31
0.0000000000
11
0.1515058863
21
2.5005300617
31
0.0000000000
11
0.1042561245
21
2.5091763556
31
0.0000000000
11
0.0029196338
21
2.5169625470
31
0.0000000000
0
SPLINE
5
2D6
100
AcDbEntity
8
0
100
AcDbSpline
62
7
6
CONTINUOUS
70
0
71
3
72
137
73
133
74
131
42
0.0000001000
43
0.0000001000
44
0.0000000001
12
-2.9044694087
22
-0.0384578548
32
0.0000000000
13
2.9044688812
23
-0.0384976684
33
0.0000000000
40
0.0000000000
40
0.0000000000
40
0.0000000000
40
0.0000000000
40
0.0360133103
40
0.0529213477
40
0.0692063040
40
0.0849679626
40
0.1003163165
40
0.1078743551
40
0.1153743689
40
0.1191078445
40
0.1228328231
40
0.1265513408
40
0.1284088481
40
0.1302655082
40
0.1321138012
40
0.1339591081
40
0.1376412195
40
0.1449747411
40
0.1522742689
40
0.1595478365
40
0.1885250942
40
0.2030788731
40
0.2177572960
40
0.2326235492
40
0.2401471485
40
0.2439346818
40
0.2477404968
40
0.2515863503
40
0.2554368663
40
0.2631529936
40
0.2708913036
40
0.2786541265
40
0.2942619532
40
0.3099952275
40
0.3258716928
40
0.3419086169
40
0.3499927635
40
0.3581232620
40
0.3622065533
40
0.3663021831
40
0.3704103969
40
0.3724693027
40
0.3734999681
40
0.3745314465
40
0.3755444824
40
0.3765569092
40
0.3785799393
40
0.3826187281
40
0.3866478702
40
0.3906674214
40
0.3986779627
40
0.4066508208
40
0.4224852214
40
0.4381745066
40
0.4537225509
40
0.4614449111
40
0.4691334631
40
0.4767887214
40
0.4844112071
40
0.4882103333
40
0.4920014649
40
0.4957846689
40
0.4976733202
40
0.4986169117
40
0.4995600152
40
0.5005342267
40
0.5015088045
40
0.5034590627
40
0.5073640178
40
0.5112749480
40
0.5151919185
40
0.5230442226
40
0.5309214606
40
0.5467526464
40
0.5626896205
40
0.5787363204
40
0.5868020855
40
0.5948967215
40
0.6030206981
40
0.6111744797
40
0.6152626982
40
0.6193585398
40
0.6234620611
40
0.6255167202
40
0.6265447773
40
0.6275733205
40
0.6285894288
40
0.6296048483
40
0.6316336353
40
0.6356831021
40
0.6397219715
40
0.6437504872
40
0.6517773810
40
0.6597658332
40
0.6756349968
40
0.6913749477
40
0.7070025635
40
0.7225350878
40
0.7302714454
40
0.7379906398
40
0.7456949071
40
0.7495421807
40
0.7514647215
40
0.7533865757
40
0.7571915854
40
0.7609782730
40
0.7685000567
40
0.7833621587
40
0.7980356925
40
0.8125838012
40
0.8270712681
40
0.8415636898
40
0.8488332790
40
0.8561286161
40
0.8597885790
40
0.8634579825
40
0.8671378133
40
0.8689819601
40
0.8699051427
40
0.8708290837
40
0.8717338914
40
0.8726392338
40
0.8744516344
40
0.8780841015
40
0.8817284443
40
0.8853865365
40
0.8927509023
40
0.9001921932
40
0.9153580515
40
0.9309940914
40
0.9640348731
40
1.0000000000
40
1.0000000000
40
1.0000000000
40
1.0000000000
10
0.0029196338
20
2.5169625470
30
0.0000000000
10
-0.0319468856
20
2.5165008822
30
0.0000000000
10
-0.0832553107
20
2.5129616299
30
0.0000000000
10
-0.1492810390
20
2.5012521626
30
0.0000000000
10
-0.1952443386
20
2.4894640091
30
0.0000000000
10
-0.2386743761
20
2.4744832069
30
0.0000000000
10
-0.2729348012
20
2.4592514236
30
0.0000000000
10
-0.2989692505
20
2.4454871713
30
0.0000000000
10
-0.3146543783
20
2.4362517243
30
0.0000000000
10
-0.3268714288
20
2.4284708587
30
0.0000000000
10
-0.3358635613
20
2.4224474420
30
0.0000000000
10
-0.3432223014
20
2.4172548540
30
0.0000000000
10
-0.3490388378
20
2.4130165117
30
0.0000000000
10
-0.3533257496
20
2.4097557726
30
0.0000000000
10
-0.3576730060
20
2.4065960900
30
0.0000000000
10
-0.3633824790
20
2.4023060295
30
0.0000000000
10
-0.3732620126
20
2.3947252027
30
0.0000000000
10
-0.3870566337
20
2.3835758900
30
0.0000000000
10
-0.4031103550
20
2.3697061204
30
0.0000000000
10
-0.4340838687
20
2.3410896045
30
0.0000000000
10
-0.4674120798
20
2.3046561939
30
0.0000000000
10
-0.5010792193
20
2.2594183461
30
0.0000000000
10
-0.5242643281
20
2.2235247330
30
0.0000000000
10
-0.5417502346
20
2.1921517677
30
0.0000000000
10
-0.5530370450
20
2.1694534175
30
0.0000000000
10
-0.5592465747
20
2.1561984847
30
0.0000000000
10
-0.5637979782
20
2.1461003195
30
0.0000000000
10
-0.5681926988
20
2.1358668516
30
0.0000000000
10
-0.5739936433
20
2.1221174175
30
0.0000000000
10
-0.5810218463
20
2.1047959910
30
0.0000000000
10
-0.5891152839
20
2.0838223849
30
0.0000000000
10
-0.5994701104
20
2.0555358598
30
0.0000000000
10
-0.6115660221
20
2.0196495127
30
0.0000000000
10
-0.6246948898
20
1.9758483760
30
0.0000000000
10
-0.6364640657
20
1.9312328668
30
0.0000000000
10
-0.6451152238
20
1.8934767200
30
0.0000000000
10
-0.6513596886
20
1.8628790886
30
0.0000000000
10
-0.6549849580
20
1.8435620913
30
0.0000000000
10
-0.6577155451
20
1.8280083931
30
0.0000000000
10
-0.6596825915
20
1.8162750757
30
0.0000000000
10
-0.6612467758
20
1.8064620893
30
0.0000000000
10
-0.6623102515
20
1.7995744275
30
0.0000000000
10
-0.6628983837
20
1.7956279246
30
0.0000000000
10
-0.6633581098
20
1.7926857861
30
0.0000000000
10
-0.6637098761
20
1.7897465915
30
0.0000000000
10
-0.6642073566
20
1.7858584453
30
0.0000000000
10
-0.6650508780
20
1.7790609438
30
0.0000000000
10
-0.6662357861
20
1.7693625885
30
0.0000000000
10
-0.6676083233
20
1.7577397057
30
0.0000000000
10
-0.6693754805
20
1.7422912129
30
0.0000000000
10
-0.6714680541
20
1.7230366914
30
0.0000000000
10
-0.6745648799
20
1.6923851980
30
0.0000000000
10
-0.6779737297
20
1.6542935720
30
0.0000000000
10
-0.6813290475
20
1.6088386664
30
0.0000000000
10
-0.6835092136
20
1.5711775608
30
0.0000000000
10
-0.6848783183
20
1.5412328310
30
0.0000000000
10
-0.6857166560
20
1.5189146888
30
0.0000000000
10
-0.6863687820
20
1.4966870929
30
0.0000000000
10
-0.6867574565
20
1.4782199346
30
0.0000000000
10
-0.6869749906
20
1.4634918984
30
0.0000000000
10
-0.6870914161
20
1.4524802248
30
0.0000000000
10
-0.6871496777
20
1.4433179258
30
0.0000000000
10
-0.6871700625
20
1.4369126049
30
0.0000000000
10
-0.6871758904
20
1.4332571625
30
0.0000000000
10
-0.6871773420
20
1.4304871144
30
0.0000000000
10
-0.6871758831
20
1.4276870642
30
0.0000000000
10
-0.6871700747
20
1.4239118490
30
0.0000000000
10
-0.6871497072
20
1.4172989901
30
0.0000000000
10
-0.6870915246
20
1.4078431570
30
0.0000000000
10
-0.6869752213
20
1.3964834839
30
0.0000000000
10
-0.6867579729
20
1.3813027827
30
0.0000000000
10
-0.6863698617
20
1.3622839394
30
0.0000000000
10
-0.6854999173
20
1.3317376605
30
0.0000000000
10
-0.6839449902
20
1.2933810603
30
0.0000000000
10
-0.6813378579
20
1.2471563900
30
0.0000000000
10
-0.6785499479
20
1.2084775079
30
0.0000000000
10
-0.6759496584
20
1.1774016174
30
0.0000000000
10
-0.6738099940
20
1.1539857923
30
0.0000000000
10
-0.6714842371
20
1.1305021055
30
0.0000000000
10
-0.6693932063
20
1.1108938970
30
0.0000000000
10
-0.6676272189
20
1.0951737854
30
0.0000000000
10
-0.6662561843
20
1.0833556537
30
0.0000000000
10
-0.6650716677
20
1.0734982290
30
0.0000000000
10
-0.6642298375
20
1.0665912414
30
0.0000000000
10
-0.6637311121
20
1.0626420264
30
0.0000000000
10
-0.6633883500
20
1.0596862487
30
0.0000000000
10
-0.6629205758
20
1.0567600602
30
0.0000000000
10
-0.6623341069
20
1.0528728027
30
0.0000000000
10
-0.6612705569
20
1.0460871461
30
0.0000000000
10
-0.6597078926
20
1.0364167376
30
0.0000000000
10
-0.6577423242
20
1.0248503727
30
0.0000000000
10
-0.6550134301
20
1.0095079138
30
0.0000000000
10
-0.6513902545
20
0.9904408833
30
0.0000000000
10
-0.6451480900
20
0.9602056022
30
0.0000000000
10
-0.6364993374
20
0.9228464247
30
0.0000000000
10
-0.6247394030
20
0.8786392662
30
0.0000000000
10
-0.6116211682
20
0.8351561729
30
0.0000000000
10
-0.5995413581
20
0.7994766505
30
0.0000000000
10
-0.5892005257
20
0.7713097422
30
0.0000000000
10
-0.5811158099
20
0.7503923671
30
0.0000000000
10
-0.5740918727
20
0.7331051542
30
0.0000000000
10
-0.5690279504
20
0.7210817044
30
0.0000000000
10
-0.5660903116
20
0.7142381704
30
0.0000000000
10
-0.5631503191
20
0.7074401384
30
0.0000000000
10
-0.5593642691
20
0.6990421842
30
0.0000000000
10
-0.5531643242
20
0.6857865203
30
0.0000000000
10
-0.5418904087
20
0.6630891446
30
0.0000000000
10
-0.5244254642
20
0.6317159621
30
0.0000000000
10
-0.5012687084
20
0.5958239158
30
0.0000000000
10
-0.4759979617
20
0.5618363656
30
0.0000000000
10
-0.4486148388
20
0.5297576379
30
0.0000000000
10
-0.4240580504
20
0.5046401938
30
0.0000000000
10
-0.4034004382
20
0.4855339799
30
0.0000000000
10
-0.3900510779
20
0.4739879751
30
0.0000000000
10
-0.3791143881
20
0.4649926937
30
0.0000000000
10
-0.3707715669
20
0.4583568246
30
0.0000000000
10
-0.3637137347
20
0.4529320183
30
0.0000000000
10
-0.3587210500
20
0.4491846998
30
0.0000000000
10
-0.3558454163
20
0.4470624337
30
0.0000000000
10
-0.3537068243
20
0.4454726444
30
0.0000000000
10
-0.3515320431
20
0.4439628217
30
0.0000000000
10
-0.3486531403
20
0.4419593132
30
0.0000000000
10
-0.3435698639
20
0.4384999394
30
0.0000000000
10
-0.3362129022
20
0.4336690067
30
0.0000000000
10
-0.3272306321
20
0.4280621235
30
0.0000000000
10
-0.3150167839
20
0.4208152272
30
0.0000000000
10
-0.2993372599
20
0.4122133388
30
0.0000000000
10
-0.2732987928
20
0.3993846893
30
0.0000000000
10
-0.2390446969
20
0.3851933971
30
0.0000000000
10
-0.1801444010
20
0.3662462988
30
0.0000000000
10
-0.0994468030
20
0.3503227971
30
0.0000000000
10
-0.0326018813
20
0.3459820403
30
0.0000000000
10
0.0022179826
20
0.3455205158
30
0.0000000000
11
0.0029196338
21
2.5169625470
31
0.0000000000
11
-0.1013989215
21
2.5091763556
31
0.0000000000
11
-0.1497450306
21
2.5005300617
31
0.0000000000
11
-0.1955490273
21
2.4887149689
31
0.0000000000
11
-0.2388109116
21
2.4737310773
31
0.0000000000
11
-0.2795306835
21
2.4555783869
31
0.0000000000
11
-0.2989372773
21
2.4453137421
31
0.0000000000
11
-0.3177083431
21
2.4342568976
31
0.0000000000
11
-0.3268555529
21
2.4284314005
31
0.0000000000
11
-0.3358438807
21
2.4224078534
31
0.0000000000
11
-0.3446733265
21
2.4161862564
31
0.0000000000
11
-0.3490284686
21
2.4130011892
31
0.0000000000
11
-0.3533438902
21
2.4097666095
31
0.0000000000
11
-0.3576668713
21
2.4065829570
31
0.0000000000
11
-0.3619569841
21
2.4033695969
31
0.0000000000
11
-0.3704386047
21
2.3968537543
31
0.0000000000
11
-0.3870074259
21
2.3834655793
31
0.0000000000
11
-0.4030503540
21
2.3696020844
31
0.0000000000
11
-0.4185673889
21
2.3552632697
31
0.0000000000
11
-0.4753765964
21
2.2931548127
31
0.0000000000
11
-0.5006258409
21
2.2592486652
31
0.0000000000
11
-0.5237715127
21
2.2234412384
31
0.0000000000
11
-0.5448136117
21
2.1857325324
31
0.0000000000
11
-0.5545458214
21
2.1661651996
31
0.0000000000
11
-0.5592147163
21
2.1562032883
31
0.0000000000
11
-0.5637521379
21
2.1461225470
31
0.0000000000
11
-0.5681799676
21
2.1358663901
31
0.0000000000
11
-0.5725229188
21
2.1255593061
31
0.0000000000
11
-0.5809541856
21
2.1047923566
31
0.0000000000
11
-0.5890459385
21
2.0838216986
31
0.0000000000
11
-0.5967981773
21
2.0626473322
31
0.0000000000
11
-0.6112841131
21
2.0196874738
31
0.0000000000
11
-0.6244119929
21
1.9759127814
31
0.0000000000
11
-0.6361818168
21
1.9313232550
31
0.0000000000
11
-0.6465935847
21
1.8859188947
31
0.0000000000
11
-0.6512901977
21
1.8629111518
31
0.0000000000
11
-0.6556472967
21
1.8396997004
31
0.0000000000
11
-0.6576985285
21
1.8280175840
31
0.0000000000
11
-0.6596648817
21
1.8162845404
31
0.0000000000
11
-0.6615463565
21
1.8045005698
31
0.0000000000
11
-0.6624552644
21
1.7985894868
31
0.0000000000
11
-0.6629017610
21
1.7956291709
31
0.0000000000
11
-0.6633429527
21
1.7926656720
31
0.0000000000
11
-0.6637139028
21
1.7897465576
31
0.0000000000
11
-0.6640819434
21
1.7868288578
31
0.0000000000
11
-0.6648092964
21
1.7809977021
31
0.0000000000
11
-0.6662290895
21
1.7693523664
31
0.0000000000
11
-0.6676023321
21
1.7577296650
31
0.0000000000
11
-0.6689290240
21
1.7461295978
31
0.0000000000
11
-0.6714427561
21
1.7229973664
31
0.0000000000
11
-0.6737702858
21
1.6999556720
31
0.0000000000
11
-0.6778667380
21
1.6541438947
31
0.0000000000
11
-0.6812183808
21
1.6086942658
31
0.0000000000
11
-0.6838252140
21
1.5636067853
31
0.0000000000
11
-0.6848493271
21
1.5411988507
31
0.0000000000
11
-0.6856872378
21
1.5188814533
31
0.0000000000
11
-0.6863389461
21
1.4966545929
31
0.0000000000
11
-0.6868044520
21
1.4745182697
31
0.0000000000
11
-0.6869673791
21
1.4634840595
31
0.0000000000
11
-0.6870837556
21
1.4524724836
31
0.0000000000
11
-0.6871535815
21
1.4414835419
31
0.0000000000
11
-0.6871710380
21
1.4359975589
31
0.0000000000
11
-0.6871754021
21
1.4332566894
31
0.0000000000
11
-0.6871768568
21
1.4305172345
31
0.0000000000
11
-0.6871754035
21
1.4276874194
31
0.0000000000
11
-0.6871710435
21
1.4248565432
31
0.0000000000
11
-0.6871536036
21
1.4191916080
31
0.0000000000
11
-0.6870838440
21
1.4078490058
31
0.0000000000
11
-0.6869675781
21
1.3964894278
31
0.0000000000
11
-0.6868048057
21
1.3851128742
31
0.0000000000
11
-0.6863397418
21
1.3623088398
31
0.0000000000
11
-0.6856886524
21
1.3394369025
31
0.0000000000
11
-0.6838283970
21
1.2934893195
31
0.0000000000
11
-0.6812240394
21
1.2472701252
31
0.0000000000
11
-0.6778755797
21
1.2007793195
31
0.0000000000
11
-0.6759223115
21
1.1774320624
31
0.0000000000
11
-0.6737830177
21
1.1540169025
31
0.0000000000
11
-0.6714576985
21
1.1305338398
31
0.0000000000
11
-0.6689463536
21
1.1069828742
31
0.0000000000
11
-0.6676209216
21
1.0951819278
31
0.0000000000
11
-0.6662489833
21
1.0833640058
31
0.0000000000
11
-0.6648305385
21
1.0715291080
31
0.0000000000
11
-0.6641038762
21
1.0656052932
31
0.0000000000
11
-0.6637361851
21
1.0626417944
31
0.0000000000
11
-0.6633655874
21
1.0596772345
31
0.0000000000
11
-0.6629247521
21
1.0567588274
31
0.0000000000
11
-0.6624786174
21
1.0538432496
31
0.0000000000
11
-0.6615704500
21
1.0480205817
31
0.0000000000
11
-0.6596905225
21
1.0364091974
31
0.0000000000
11
-0.6577258049
21
1.0248430817
31
0.0000000000
11
-0.6556762973
21
1.0133222345
31
0.0000000000
11
-0.6513229118
21
0.9904163459
31
0.0000000000
11
-0.6466303660
21
0.9676915314
31
0.0000000000
11
-0.6362277934
21
0.9227851252
31
0.0000000000
11
-0.6244685795
21
0.8786030158
31
0.0000000000
11
-0.6113527243
21
0.8351452033
31
0.0000000000
11
-0.5968802278
21
0.7924116877
31
0.0000000000
11
-0.5891352391
21
0.7713165412
31
0.0000000000
11
-0.5810510901
21
0.7504024689
31
0.0000000000
11
-0.5726277807
21
0.7296694709
31
0.0000000000
11
-0.5682889409
21
0.7193708747
31
0.0000000000
11
-0.5660877248
21
0.7142385523
31
0.0000000000
11
-0.5638653111
21
0.7091175470
31
0.0000000000
11
-0.5593335923
21
0.6990368058
31
0.0000000000
11
-0.5546704887
21
0.6890748944
31
0.0000000000
11
-0.5449501268
21
0.6695075617
31
0.0000000000
11
-0.5239327844
21
0.6317988556
31
0.0000000000
11
-0.5008132839
21
0.5959914289
31
0.0000000000
11
-0.4755916253
21
0.5620852814
31
0.0000000000
11
-0.4482678085
21
0.5300804132
31
0.0000000000
11
-0.4188418337
21
0.4999768244
31
0.0000000000
11
-0.4033405369
21
0.4856380097
31
0.0000000000
11
-0.3873137007
21
0.4717745148
31
0.0000000000
11
-0.3791032052
21
0.4650210123
31
0.0000000000
11
-0.3707613249
21
0.4583863398
31
0.0000000000
11
-0.3622880597
21
0.4518704972
31
0.0000000000
11
-0.3580021577
21
0.4486571371
31
0.0000000000
11
-0.3558468894
21
0.4470615974
31
0.0000000000
11
-0.3536834096
21
0.4454734845
31
0.0000000000
11
-0.3515327913
21
0.4439627349
31
0.0000000000
11
-0.3493722540
21
0.4424634793
31
0.0000000000
11
-0.3450214222
21
0.4394994500
31
0.0000000000
11
-0.3362007296
21
0.4337093189
31
0.0000000000
11
-0.3272213317
21
0.4281030913
31
0.0000000000
11
-0.3180832287
21
0.4226807673
31
0.0000000000
11
-0.2993309068
21
0.4123878296
31
0.0000000000
11
-0.2799437640
21
0.4028305060
31
0.0000000000
11
-0.2392650156
21
0.3859227008
31
0.0000000000
11
-0.1960469835
21
0.3719573517
31
0.0000000000
11
-0.1019930679
21
0.3528540216
31
0.0000000000
11
0.0022179826
21
0.3455205158
31
0.0000000000
0
SPLINE
5
2D7
100
AcDbEntity
8
0
100
AcDbSpline
62
7
6
CONTINUOUS
70
0
71
3
72
8
73
4
74
2
42
0.0000001000
43
0.0000001000
44
0.0000000001
12
-0.1972668924
22
0.1888960497
32
0.0000000000
13
-0.0862805955
23
0.2591362639
33
0.0000000000
40
0.0000000000
40
0.0000000000
40
0.0000000000
40
0.0000000000
40
1.0000000000
40
1.0000000000
40
1.0000000000
40
1.0000000000
10
-0.2636895201
20
0.6280868134
30
0.0000000000
10
-0.3294451509
20
0.6910521633
30
0.0000000000
10
-0.3784306413
20
0.7740941936
30
0.0000000000
10
-0.4071908398
20
0.8604729482
30
0.0000000000
11
-0.2636895201
21
0.6280868134
31
0.0000000000
11
-0.4071908398
21
0.8604729482
31
0.0000000000
0
SPLINE
5
2D8
100
AcDbEntity
8
0
100
AcDbSpline
62
7
6
CONTINUOUS
70
0
71
3
72
8
73
4
74
2
42
0.0000001000
43
0.0000001000
44
0.0000000001
12
-0.1056056914
22
0.2770369597
32
0.0000000000
13
-0.0272531090
23
0.2952275515
33
0.0000000000
40
0.0000000000
40
0.0000000000
40
0.0000000000
40
0.0000000000
40
1.0000000000
40
1.0000000000
40
1.0000000000
40
1.0000000000
10
-0.4071908398
20
0.8604729482
30
0.0000000000
10
-0.4423927370
20
0.9528186015
30
0.0000000000
10
-0.4642211863
20
1.0510808632
30
0.0000000000
10
-0.4733055560
20
1.1494900470
30
0.0000000000
11
-0.4071908398
21
0.8604729482
31
0.0000000000
11
-0.4733055560
21
1.1494900470
31
0.0000000000
0
SPLINE
5
2D9
100
AcDbEntity
8
0
100
AcDbSpline
62
7
6
CONTINUOUS
70
0
71
3
72
21
73
17
74
15
42
0.0000001000
43
0.0000001000
44
0.0000000001
12
-0.0306386154
22
0.5586415431
32
0.0000000000
13
0.0315259159
23
0.5585921724
33
0.0000000000
40
0.0000000000
40
0.0000000000
40
0.0000000000
40
0.0000000000
40
0.1348139371
40
0.2637166635
40
0.3565277591
40
0.4016943440
40
0.4460366900
40
0.4895562784
40
0.5110289496
40
0.5325891193
40
0.5762235004
40
0.6205446251
40
0.7112526249
40
0.8047245785
40
0.9009706120
40
1.0000000000
40
1.0000000000
40
1.0000000000
40
1.0000000000
10
-0.4733055560
20
1.1494900470
30
0.0000000000
10
-0.4746823935
20
1.1745942690
30
0.0000000000
10
-0.4771036444
20
1.2237174529
30
0.0000000000
10
-0.4795558653
20
1.2901642550
30
0.0000000000
10
-0.4807981566
20
1.3399212526
30
0.0000000000
10
-0.4813656881
20
1.3739182089
30
0.0000000000
10
-0.4816390758
20
1.3987258210
30
0.0000000000
10
-0.4817438553
20
1.4191159001
30
0.0000000000
10
-0.4817522796
20
1.4352574036
30
0.0000000000
10
-0.4817106082
20
1.4514202624
30
0.0000000000
10
-0.4815648232
20
1.4718438626
30
0.0000000000
10
-0.4811312369
20
1.5051608143
30
0.0000000000
10
-0.4802101996
20
1.5477658293
30
0.0000000000
10
-0.4785201491
20
1.6000371121
30
0.0000000000
10
-0.4762368857
20
1.6538390864
30
0.0000000000
10
-0.4743462201
20
1.6902082209
30
0.0000000000
10
-0.4733055560
20
1.7086472345
30
0.0000000000
11
-0.4733055560
21
1.1494900470
31
0.0000000000
11
-0.4769991855
21
1.2248254031
31
0.0000000000
11
-0.4796374922
21
1.2968957674
31
0.0000000000
11
-0.4809236668
21
1.3488058897
31
0.0000000000
11
-0.4813441469
21
1.3740722416
31
0.0000000000
11
-0.4816162223
21
1.3988794540
31
0.0000000000
11
-0.4817398929
21
1.4232275270
31
0.0000000000
11
-0.4817460765
21
1.4352410791
31
0.0000000000
11
-0.4817151588
21
1.4473035469
31
0.0000000000
11
-0.4815420199
21
1.4717155444
31
0.0000000000
11
-0.4812204763
21
1.4965102910
31
0.0000000000
11
-0.4801321748
21
1.5472480318
31
0.0000000000
11
-0.4784502542
21
1.5995167693
31
0.0000000000
11
-0.4761747146
21
1.6533165036
31
0.0000000000
11
-0.4733055560
21
1.7086472345
31
0.0000000000
0
SPLINE
5
2DA
100
AcDbEntity
8
0
100
AcDbSpline
62
7
6
CONTINUOUS
70
0
71
3
72
8
73
4
74
2
42
0.0000001000
43
0.0000001000
44
0.0000000001
12
0.0273887362
22
0.2994708320
32
0.0000000000
13
0.1051488627
23
0.2817386001
33
0.0000000000
40
0.0000000000
40
0.0000000000
40
0.0000000000
40
0.0000000000
40
1.0000000000
40
1.0000000000
40
1.0000000000
40
1.0000000000
10
-0.4733055560
20
1.7086472345
30
0.0000000000
10
-0.4641759773
20
1.8084708452
30
0.0000000000
10
-0.4422404607
20
1.9080972258
30
0.0000000000
10
-0.4071908398
20
2.0020100925
30
0.0000000000
11
-0.4733055560
21
1.7086472345
31
0.0000000000
11
-0.4071908398
21
2.0020100925
31
0.0000000000
0
SPLINE
5
2DB
100
AcDbEntity
8
0
100
AcDbSpline
62
7
6
CONTINUOUS
70
0
71
3
72
122
73
118
74
116
42
0.0000001000
43
0.0000001000
44
0.0000000001
12
0.7089441049
22
2.0850077613
32
0.0000000000
13
-0.5901703933
23
-2.1218090188
33
0.0000000000
40
0.0000000000
40
0.0000000000
40
0.0000000000
40
0.0000000000
40
0.0359094179
40
0.0533129268
40
0.0704506353
40
0.0874085095
40
0.0958490675
40
0.1042780864
40
0.1084919754
40
0.1127072174
40
0.1169252241
40
0.1190357268
40
0.1211474487
40
0.1232676437
40
0.1243557960
40
0.1254429309
40
0.1276136517
40
0.1297824804
40
0.1384301832
40
0.1470641230
40
0.1557161775
40
0.1731931142
40
0.1911143821
40
0.2097078224
40
0.2193243372
40
0.2291832578
40
0.2393060168
40
0.2444728771
40
0.2497129864
40
0.2523612439
40
0.2550127004
40
0.2576048490
40
0.2601791723
40
0.2652753939
40
0.2703037376
40
0.2801658443
40
0.2897864233
40
0.2991873862
40
0.3083922130
40
0.3263081562
40
0.3437570235
40
0.3523828600
40
0.3609808138
40
0.3695815542
40
0.3738930299
40
0.3782166678
40
0.3803842860
40
0.3825563556
40
0.3836442122
40
0.3847169994
40
0.3868453581
40
0.3910961402
40
0.3953402994
40
0.4038143098
40
0.4122796706
40
0.4292292441
40
0.4462871727
40
0.4635468320
40
0.4722820047
40
0.4811010599
40
0.4900145668
40
0.4990327623
40
0.5035843718
40
0.5081878534
40
0.5105349730
40
0.5128833885
40
0.5175842404
40
0.5222907020
40
0.5270030562
40
0.5364464984
40
0.5554158657
40
0.5745106688
40
0.5937482548
40
0.6131455878
40
0.6229096013
40
0.6278088032
40
0.6327197823
40
0.6376427877
40
0.6401088814
40
0.6425780742
40
0.6438098606
40
0.6450092582
40
0.6474031627
40
0.6521714277
40
0.6616299399
40
0.6709847619
40
0.6802362869
40
0.6893849214
40
0.7073751045
40
0.7249589541
40
0.7421402608
40
0.7505812860
40
0.7589232242
40
0.7671666300
40
0.7712545579
40
0.7753598824
40
0.7836588321
40
0.7920760073
40
0.8092670446
40
0.8269371895
40
0.8450901782
40
0.8637294565
40
0.8732325055
40
0.8828582996
40
0.8877178778
40
0.8926072123
40
0.8950637170
40
0.8975279428
40
0.9024256690
40
0.9073052242
40
0.9121710494
40
0.9218624637
40
0.9410913255
40
0.9601296966
40
0.9789949564
40
0.9977049667
40
1.0000000000
40
1.0000000000
40
1.0000000000
40
1.0000000000
10
-0.4071908398
20
2.0020100925
30
0.0000000000
10
-0.3987049164
20
2.0269672309
30
0.0000000000
10
-0.3838534318
20
2.0633325236
30
0.0000000000
10
-0.3594883248
20
2.1089849370
30
0.0000000000
10
-0.3393842541
20
2.1410393734
30
0.0000000000
10
-0.3209189793
20
2.1662559129
30
0.0000000000
10
-0.3051699244
20
2.1854606440
30
0.0000000000
10
-0.2949219983
20
2.1970639896
30
0.0000000000
10
-0.2864777951
20
2.2061113885
30
0.0000000000
10
-0.2800193784
20
2.2127815766
30
0.0000000000
10
-0.2745348889
20
2.2182437009
30
0.0000000000
10
-0.2700838731
20
2.2225538077
30
0.0000000000
10
-0.2667137373
20
2.2257662847
30
0.0000000000
10
-0.2638495519
20
2.2284213053
30
0.0000000000
10
-0.2615695834
20
2.2305995896
30
0.0000000000
10
-0.2592364677
20
2.2327755938
30
0.0000000000
10
-0.2562947169
20
2.2354619606
30
0.0000000000
10
-0.2491614013
20
2.2417873132
30
0.0000000000
10
-0.2381172199
20
2.2508524076
30
0.0000000000
10
-0.2226871890
20
2.2620231337
30
0.0000000000
10
-0.2011342931
20
2.2757110340
30
0.0000000000
10
-0.1723002959
20
2.2905328730
30
0.0000000000
10
-0.1351037597
20
2.3044514719
30
0.0000000000
10
-0.1022160353
20
2.3128014429
30
0.0000000000
10
-0.0746849089
20
2.3176449115
30
0.0000000000
10
-0.0531223834
20
2.3203836982
30
0.0000000000
10
-0.0347154131
20
2.3218762703
30
0.0000000000
10
-0.0196620702
20
2.3226124300
30
0.0000000000
10
-0.0100814525
20
2.3228803010
30
0.0000000000
10
-0.0023449099
20
2.3229787570
30
0.0000000000
10
0.0034484256
20
2.3229952051
30
0.0000000000
10
0.0091873615
20
2.3229531930
30
0.0000000000
10
0.0167199217
20
2.3228198937
30
0.0000000000
10
0.0260375424
20
2.3225089353
30
0.0000000000
10
0.0406881191
20
2.3217036560
30
0.0000000000
10
0.0586184297
20
2.3201238253
30
0.0000000000
10
0.0796376256
20
2.3172804275
30
0.0000000000
10
0.1000198044
20
2.3135010164
30
0.0000000000
10
0.1261056669
20
2.3072714434
30
0.0000000000
10
0.1572941224
20
2.2971583768
30
0.0000000000
10
0.1867515560
20
2.2837357519
30
0.0000000000
10
0.2088923136
20
2.2711550615
30
0.0000000000
10
0.2247965100
20
2.2608173182
30
0.0000000000
10
0.2375052039
20
2.2514289691
30
0.0000000000
10
0.2473369016
20
2.2434628014
30
0.0000000000
10
0.2533498650
20
2.2382905495
30
0.0000000000
10
0.2580759360
20
2.2340349933
30
0.0000000000
10
0.2610036708
20
2.2313323053
30
0.0000000000
10
0.2633027603
20
2.2291344311
30
0.0000000000
10
0.2656139044
20
2.2269962380
30
0.0000000000
10
0.2696293289
20
2.2232813147
30
0.0000000000
10
0.2752660291
20
2.2178913377
30
0.0000000000
10
0.2841148955
20
2.2091234921
30
0.0000000000
10
0.2948498661
20
2.1978670472
30
0.0000000000
10
0.3113352286
20
2.1792300698
30
0.0000000000
10
0.3306608500
20
2.1547223002
30
0.0000000000
10
0.3517091529
20
2.1234848199
30
0.0000000000
10
0.3674141979
20
2.0960242908
30
0.0000000000
10
0.3789050214
20
2.0731924449
30
0.0000000000
10
0.3870290899
20
2.0555384896
30
0.0000000000
10
0.3946242421
20
2.0374255867
30
0.0000000000
10
0.4004917163
20
2.0219958141
30
0.0000000000
10
0.4049327783
20
2.0094154571
30
0.0000000000
10
0.4076017531
20
2.0014045706
30
0.0000000000
10
0.4097363498
20
1.9949207022
30
0.0000000000
10
0.4118652106
20
1.9883597157
30
0.0000000000
10
0.4144815519
20
1.9801361505
30
0.0000000000
10
0.4175468651
20
1.9702347104
30
0.0000000000
10
0.4215393570
20
1.9569762597
30
0.0000000000
10
0.4282805411
20
1.9336119427
30
0.0000000000
10
0.4371738875
20
1.8998844805
30
0.0000000000
10
0.4466606243
20
1.8588977301
30
0.0000000000
10
0.4549780113
20
1.8173374615
30
0.0000000000
10
0.4609214718
20
1.7823039062
30
0.0000000000
10
0.4645685323
20
1.7575673993
30
0.0000000000
10
0.4665115082
20
1.7433302298
30
0.0000000000
10
0.4678975436
20
1.7326039820
30
0.0000000000
10
0.4689906810
20
1.7236410809
30
0.0000000000
10
0.4698295554
20
1.7164530712
30
0.0000000000
10
0.4703366056
20
1.7119544392
30
0.0000000000
10
0.4707343471
20
1.7083791966
30
0.0000000000
10
0.4710911032
20
1.7048551820
30
0.0000000000
10
0.4717168791
20
1.6987491198
30
0.0000000000
10
0.4729222615
20
1.6866078649
30
0.0000000000
10
0.4745570001
20
1.6693743397
30
0.0000000000
10
0.4763687399
20
1.6488521615
30
0.0000000000
10
0.4780280175
20
1.6285453096
30
0.0000000000
10
0.4800248375
20
1.6019064674
30
0.0000000000
10
0.4821442874
20
1.5691437693
30
0.0000000000
10
0.4840900236
20
1.5304647281
30
0.0000000000
10
0.4852078496
20
1.4987662616
30
0.0000000000
10
0.4857907686
20
1.4738403657
30
0.0000000000
10
0.4860722950
20
1.4554709634
30
0.0000000000
10
0.4861797335
20
1.4402953203
30
0.0000000000
10
0.4861883404
20
1.4282294715
30
0.0000000000
10
0.4861454153
20
1.4161229236
30
0.0000000000
10
0.4859951792
20
1.4008388597
30
0.0000000000
10
0.4855483856
20
1.3759520846
30
0.0000000000
10
0.4845995314
20
1.3441951056
30
0.0000000000
10
0.4828567485
20
1.3053161847
30
0.0000000000
10
0.4805020361
20
1.2654045755
30
0.0000000000
10
0.4780457059
20
1.2315079628
30
0.0000000000
10
0.4757805100
20
1.2038756947
30
0.0000000000
10
0.4742314306
20
1.1863344201
30
0.0000000000
10
0.4729198286
20
1.1721724364
30
0.0000000000
10
0.4720649057
20
1.1632535313
30
0.0000000000
10
0.4713585857
20
1.1560869089
30
0.0000000000
10
0.4706611850
20
1.1489130826
30
0.0000000000
10
0.4696272671
20
1.1399860589
30
0.0000000000
10
0.4683447999
20
1.1293136921
30
0.0000000000
10
0.4665297539
20
1.1151612615
30
0.0000000000
10
0.4631127113
20
1.0905953732
30
0.0000000000
10
0.4574956886
20
1.0558351903
30
0.0000000000
10
0.4495689452
20
1.0146449660
30
0.0000000000
10
0.4404731778
20
0.9740867433
30
0.0000000000
10
0.4331820780
20
0.9457367624
30
0.0000000000
10
0.4290787122
20
0.9308725288
30
0.0000000000
10
0.4286272253
20
0.9292493213
30
0.0000000000
11
-0.4071908398
21
2.0020100925
31
0.0000000000
11
-0.3770710263
21
2.0751307031
31
0.0000000000
11
-0.3590059219
21
2.1089328867
31
0.0000000000
11
-0.3389373524
21
2.1408963226
31
0.0000000000
11
-0.3168653178
21
2.1710210107
31
0.0000000000
11
-0.3050780012
21
2.1853938244
31
0.0000000000
11
-0.2927898182
21
2.1993069511
31
0.0000000000
11
-0.2864579019
21
2.2060911318
31
0.0000000000
11
-0.2800007690
21
2.2127603908
31
0.0000000000
11
-0.2734184195
21
2.2193147281
31
0.0000000000
11
-0.2700802886
21
2.2225488011
31
0.0000000000
11
-0.2667108535
21
2.2257541437
31
0.0000000000
11
-0.2633045628
21
2.2289476370
31
0.0000000000
11
-0.2615657457
21
2.2305966108
31
0.0000000000
11
-0.2598162770
21
2.2322309991
31
0.0000000000
11
-0.2562859109
21
2.2354542259
31
0.0000000000
11
-0.2527118873
21
2.2386226969
31
0.0000000000
11
-0.2379918347
21
2.2507059878
31
0.0000000000
11
-0.2225900845
21
2.2618558055
31
0.0000000000
11
-0.2065066369
21
2.2720721502
31
0.0000000000
11
-0.1722946493
21
2.2897044201
31
0.0000000000
11
-0.1353558717
21
2.3036027976
31
0.0000000000
11
-0.0956903042
21
2.3137672826
31
0.0000000000
11
-0.0748349742
21
2.3174493155
31
0.0000000000
11
-0.0532979468
21
2.3201978752
31
0.0000000000
11
-0.0310792218
21
2.3220129618
31
0.0000000000
11
-0.0197142228
21
2.3225704527
31
0.0000000000
11
-0.0081787994
21
2.3228945753
31
0.0000000000
11
-0.0023471786
21
2.3229691235
31
0.0000000000
11
0.0034919415
21
2.3229853296
31
0.0000000000
11
0.0092003181
21
2.3229431937
31
0.0000000000
11
0.0148687043
21
2.3228427157
31
0.0000000000
11
0.0260855054
21
2.3224667334
31
0.0000000000
11
0.0371423449
21
2.3218573829
31
0.0000000000
11
0.0587761390
21
2.3199385771
31
0.0000000000
11
0.0797700866
21
2.3170862981
31
0.0000000000
11
0.1001241877
21
2.3133005461
31
0.0000000000
11
0.1198384422
21
2.3085813209
31
0.0000000000
11
0.1573474118
21
2.2963424512
31
0.0000000000
11
0.1922969952
21
2.2803696890
31
0.0000000000
11
0.2088120171
21
2.2709830982
31
0.0000000000
11
0.2246871925
21
2.2606630343
31
0.0000000000
11
0.2399225214
21
2.2494094974
31
0.0000000000
11
0.2473002434
21
2.2434326764
31
0.0000000000
11
0.2545180037
21
2.2372224872
31
0.0000000000
11
0.2580668983
21
2.2340298795
31
0.0000000000
11
0.2615758025
21
2.2307789298
31
0.0000000000
11
0.2633152581
21
2.2291315766
31
0.0000000000
11
0.2650451024
21
2.2275224751
31
0.0000000000
11
0.2684798189
21
2.2243330939
31
0.0000000000
11
0.2752501362
21
2.2178681402
31
0.0000000000
11
0.2818882991
21
2.2112882648
31
0.0000000000
11
0.2947681616
21
2.1977837487
31
0.0000000000
11
0.3071194066
21
2.1838195457
31
0.0000000000
11
0.3302360439
21
2.1545120788
31
0.0000000000
11
0.3512382110
21
2.1233658641
31
0.0000000000
11
0.3701259078
21
2.0903809017
31
0.0000000000
11
0.3787768299
21
2.0731988901
31
0.0000000000
11
0.3868991344
21
2.0555571915
31
0.0000000000
11
0.3944928214
21
2.0374558060
31
0.0000000000
11
0.4015578908
21
2.0188947336
31
0.0000000000
11
0.4048921939
21
2.0094418147
31
0.0000000000
11
0.4081177298
21
1.9998306577
31
0.0000000000
11
0.4097325453
21
1.9949204539
31
0.0000000000
11
0.4113291071
21
1.9900012841
31
0.0000000000
11
0.4144674694
21
1.9801360465
31
0.0000000000
11
0.4175328167
21
1.9702349449
31
0.0000000000
11
0.4205251489
21
1.9602979792
31
0.0000000000
11
0.4262907682
21
1.9403164558
31
0.0000000000
11
0.4369458262
21
1.8999230407
31
0.0000000000
11
0.4464326435
21
1.8589558010
31
0.0000000000
11
0.4547512201
21
1.8174147369
31
0.0000000000
11
0.4619015559
21
1.7752998482
31
0.0000000000
11
0.4650386336
21
1.7540272197
31
0.0000000000
11
0.4664976499
21
1.7433371094
31
0.0000000000
11
0.4678836511
21
1.7326111351
31
0.0000000000
11
0.4691966373
21
1.7218492968
31
0.0000000000
11
0.4698257497
21
1.7164549286
31
0.0000000000
11
0.4704366084
21
1.7110515944
31
0.0000000000
11
0.4707324651
21
1.7083550874
31
0.0000000000
11
0.4710031451
21
1.7057276325
31
0.0000000000
11
0.4715373295
21
1.7004828146
31
0.0000000000
11
0.4725769958
21
1.6900335468
31
0.0000000000
11
0.4745415187
21
1.6692964836
31
0.0000000000
11
0.4763529619
21
1.6487747168
31
0.0000000000
11
0.4780113254
21
1.6284682465
31
0.0000000000
11
0.4795166091
21
1.6083770725
31
0.0000000000
11
0.4820679375
21
1.5688406138
31
0.0000000000
11
0.4840069471
21
1.5301653408
31
0.0000000000
11
0.4853336379
21
1.4923512534
31
0.0000000000
11
0.4857673637
21
1.4737671544
31
0.0000000000
11
0.4860480099
21
1.4553983517
31
0.0000000000
11
0.4861755763
21
1.4372448455
31
0.0000000000
11
0.4861819546
21
1.4282422512
31
0.0000000000
11
0.4861500630
21
1.4192013995
31
0.0000000000
11
0.4859714700
21
1.4009259967
31
0.0000000000
11
0.4856397973
21
1.3823923279
31
0.0000000000
11
0.4845172128
21
1.3445501924
31
0.0000000000
11
0.4827823095
21
1.3056749932
31
0.0000000000
11
0.4804350873
21
1.2657667300
31
0.0000000000
11
0.4774755464
21
1.2248254031
31
0.0000000000
11
0.4757661564
21
1.2039673407
31
0.0000000000
11
0.4739036866
21
1.1828510124
31
0.0000000000
11
0.4729161554
21
1.1721947169
31
0.0000000000
11
0.4718881372
21
1.1614764181
31
0.0000000000
11
0.4713603311
21
1.1560924154
31
0.0000000000
11
0.4708229575
21
1.1506922712
31
0.0000000000
11
0.4696180738
21
1.1399738140
31
0.0000000000
11
0.4683294259
21
1.1293054110
31
0.0000000000
11
0.4669677631
21
1.1186765648
31
0.0000000000
11
0.4640253922
21
1.0975375428
31
0.0000000000
11
0.4572644699
21
1.0557341805
31
0.0000000000
11
0.4493353069
21
1.0145637270
31
0.0000000000
11
0.4402379031
21
0.9740261822
31
0.0000000000
11
0.4299722587
21
0.9341215463
31
0.0000000000
11
0.4286272253
21
0.9292493213
31
0.0000000000
0
SPLINE
5
2DC
100
AcDbEntity
8
0
100
AcDbSpline
62
7
6
CONTINUOUS
70
0
71
3
72
16
73
12
74
10
42
0.0000001000
43
0.0000001000
44
0.0000000001
12
-0.0259848779
22
-0.0934220843
32
0.0000000000
13
-0.0333399429
23
-0.0910535278
33
0.0000000000
40
0.0000000000
40
0.0000000000
40
0.0000000000
40
0.0000000000
40
0.3697079349
40
0.5795973170
40
0.6320141588
40
0.6843083445
40
0.7366079994
40
0.7895666527
40
0.8424707481
40
0.8951548827
40
1.0000000000
40
1.0000000000
40
1.0000000000
40
1.0000000000
10
0.4286272253
20
0.9292493213
30
0.0000000000
10
0.4254249534
20
0.9177363594
30
0.0000000000
10
0.4201563616
20
0.8997562609
30
0.0000000000
10
0.4139684973
20
0.8802878622
30
0.0000000000
10
0.4108070598
20
0.8706235505
30
0.0000000000
10
0.4092024245
20
0.8658091331
30
0.0000000000
10
0.4075550193
20
0.8609905729
30
0.0000000000
10
0.4059833523
20
0.8561260521
30
0.0000000000
10
0.4043567000
20
0.8512665844
30
0.0000000000
10
0.4021405356
20
0.8448362558
30
0.0000000000
10
0.4004291670
20
0.8400407779
30
0.0000000000
10
0.3992639903
20
0.8368586053
30
0.0000000000
11
0.4286272253
21
0.9292493213
31
0.0000000000
11
0.4185383735
21
0.8948498192
31
0.0000000000
11
0.4123833407
21
0.8754512965
31
0.0000000000
11
0.4108013442
21
0.8706212607
31
0.0000000000
11
0.4091963017
21
0.8658113703
31
0.0000000000
11
0.4075754015
21
0.8610062410
31
0.0000000000
11
0.4059742606
21
0.8561271944
31
0.0000000000
11
0.4043472419
21
0.8512622940
31
0.0000000000
11
0.4026840090
21
0.8464322070
31
0.0000000000
11
0.3992639903
21
0.8368586053
31
0.0000000000
0
SPLINE
5
2DD
100
AcDbEntity
8
0
100
AcDbSpline
62
7
6
CONTINUOUS
70
0
71
3
72
9
73
5
74
3
42
0.0000001000
43
0.0000001000
44
0.0000000001
12
-0.0085271162
22
-0.0232881025
32
0.0000000000
13
-0.0094629939
23
-0.0229245715
33
0.0000000000
40
0.0000000000
40
0.0000000000
40
0.0000000000
40
0.0000000000
40
0.8132344158
40
1.0000000000
40
1.0000000000
40
1.0000000000
40
1.0000000000
10
0.3992639903
20
0.8368586053
30
0.0000000000
10
0.3969524755
20
0.8305457098
30
0.0000000000
10
0.3939835001
20
0.8228290062
30
0.0000000000
10
0.3908584774
20
0.8151753669
30
0.0000000000
10
0.3902693569
20
0.8137481932
30
0.0000000000
11
0.3992639903
21
0.8368586053
31
0.0000000000
11
0.3920203277
21
0.8180364395
31
0.0000000000
11
0.3902693569
21
0.8137481932
31
0.0000000000
0
SPLINE
5
2DE
100
AcDbEntity
8
0
100
AcDbSpline
62
7
6
CONTINUOUS
70
0
71
3
72
9
73
5
74
3
42
0.0000001000
43
0.0000001000
44
0.0000000001
12
-0.2107597076
22
-0.1833914231
32
0.0000000000
13
-0.2793339869
23
-0.0049590502
33
0.0000000000
40
0.0000000000
40
0.0000000000
40
0.0000000000
40
0.0000000000
40
0.7214010269
40
1.0000000000
40
1.0000000000
40
1.0000000000
40
1.0000000000
10
0.2638928550
20
0.6280868134
30
0.0000000000
10
0.2132120985
20
0.5839872264
30
0.0000000000
10
0.1208239646
20
0.5467865264
30
0.0000000000
10
0.0281587032
20
0.5399567993
30
0.0000000000
10
0.0022179826
20
0.5394962705
30
0.0000000000
11
0.2638928550
21
0.6280868134
31
0.0000000000
11
0.0797700866
21
0.5461196248
31
0.0000000000
11
0.0022179826
21
0.5394962705
31
0.0000000000
0
SPLINE
5
2DF
100
AcDbEntity
8
0
100
AcDbSpline
62
7
6
CONTINUOUS
70
0
71
3
72
9
73
5
74
3
42
0.0000001000
43
0.0000001000
44
0.0000000001
12
-0.2833581583
22
0.0049033178
32
0.0000000000
13
-0.2137942954
23
0.1860319533
33
0.0000000000
40
0.0000000000
40
0.0000000000
40
0.0000000000
40
0.0000000000
40
0.2811555278
40
1.0000000000
40
1.0000000000
40
1.0000000000
40
1.0000000000
10
0.0022179826
20
0.5394962705
30
0.0000000000
10
-0.0243379216
20
0.5399558022
30
0.0000000000
10
-0.1182908882
20
0.5466870562
30
0.0000000000
10
-0.2124612376
20
0.5835107997
30
0.0000000000
10
-0.2636895201
20
0.6280868134
30
0.0000000000
11
0.0022179826
21
0.5394962705
31
0.0000000000
11
-0.0771858972
21
0.5461196248
31
0.0000000000
11
-0.2636895201
21
0.6280868134
31
0.0000000000
0
SPLINE
5
2E0
100
AcDbEntity
8
0
100
AcDbSpline
62
7
6
CONTINUOUS
70
0
71
3
72
59
73
55
74
53
42
0.0000001000
43
0.0000001000
44
0.0000000001
12
-0.2009904903
22
-0.8468304763
32
0.0000000000
13
-0.6666606612
23
0.5595379214
33
0.0000000000
40
0.0000000000
40
0.0000000000
40
0.0000000000
40
0.0000000000
40
0.1296604752
40
0.1911215047
40
0.2214044919
40
0.2515448328
40
0.2816693814
40
0.2967674475
40
0.3119091211
40
0.3195014492
40
0.3271105314
40
0.3309219880
40
0.3328073664
40
0.3346480046
40
0.3383252903
40
0.3419974735
40
0.3566395675
40
0.3712201980
40
0.3857557344
40
0.4002626992
40
0.4292532689
40
0.4583292193
40
0.4876225527
40
0.5172623674
40
0.5473733052
40
0.5626446374
40
0.5780777785
40
0.5936865349
40
0.6094842523
40
0.6254838037
40
0.6335633466
40
0.6376235808
40
0.6416979996
40
0.6457864364
40
0.6498891890
40
0.6509171368
40
0.6519459934
40
0.6530102896
40
0.6541432093
40
0.6564057405
40
0.6586638823
40
0.6631670901
40
0.6676530382
40
0.6765739118
40
0.6854281927
40
0.6942175578
40
0.7116079924
40
0.7456839888
40
0.7789262590
40
0.8114645325
40
0.8434371096
40
0.8749897300
40
0.9374062532
40
1.0000000000
40
1.0000000000
40
1.0000000000
40
1.0000000000
10
-1.2577642321
20
0.8689160348
30
0.0000000000
10
-1.2664510729
20
0.8323158875
30
0.0000000000
10
-1.2846364007
20
0.7792761772
30
0.0000000000
10
-1.3164737907
20
0.7233146799
30
0.0000000000
10
-1.3368478292
20
0.6943840414
30
0.0000000000
10
-1.3533434177
20
0.6739158758
30
0.0000000000
10
-1.3681536386
20
0.6578088852
30
0.0000000000
10
-1.3806213881
20
0.6455069119
30
0.0000000000
10
-1.3886805970
20
0.6380527667
30
0.0000000000
10
-1.3952844816
20
0.6322313946
30
0.0000000000
10
-1.3994814441
20
0.6286516670
30
0.0000000000
10
-1.4024455684
20
0.6261786158
30
0.0000000000
10
-1.4041368711
20
0.6247923656
30
0.0000000000
10
-1.4058195506
20
0.6234574639
30
0.0000000000
10
-1.4079132409
20
0.6218066323
30
0.0000000000
10
-1.4129600440
20
0.6179031792
30
0.0000000000
10
-1.4206276529
20
0.6122179204
30
0.0000000000
10
-1.4310749485
20
0.6050014605
30
0.0000000000
10
-1.4417260439
20
0.5981611714
30
0.0000000000
10
-1.4561943736
20
0.5895459128
30
0.0000000000
10
-1.4748250565
20
0.5796995514
30
0.0000000000
10
-1.4980011757
20
0.5693954450
30
0.0000000000
10
-1.5219932006
20
0.5606037400
30
0.0000000000
10
-1.5467983982
20
0.5533248402
30
0.0000000000
10
-1.5680475357
20
0.5485415838
30
0.0000000000
10
-1.5854228908
20
0.5454637583
30
0.0000000000
10
-1.5987201528
20
0.5435208960
30
0.0000000000
10
-1.6122205654
20
0.5419546942
30
0.0000000000
10
-1.6259242341
20
0.5407650649
30
0.0000000000
10
-1.6374751231
20
0.5400897358
30
0.0000000000
10
-1.6456332316
20
0.5397806800
30
0.0000000000
10
-1.6503354979
20
0.5396502912
30
0.0000000000
10
-1.6538808893
20
0.5395758623
30
0.0000000000
10
-1.6574390311
20
0.5395249460
30
0.0000000000
10
-1.6601136176
20
0.5395044245
30
0.0000000000
10
-1.6619006085
20
0.5394980669
30
0.0000000000
10
-1.6628060966
20
0.5394963290
30
0.0000000000
10
-1.6637420406
20
0.5394961177
30
0.0000000000
10
-1.6650358954
20
0.5394978861
30
0.0000000000
10
-1.6666760990
20
0.5395041678
30
0.0000000000
10
-1.6692940316
20
0.5395228328
30
0.0000000000
10
-1.6725568707
20
0.5395622926
30
0.0000000000
10
-1.6777520183
20
0.5396598118
30
0.0000000000
10
-1.6842079071
20
0.5398460546
30
0.0000000000
10
-1.6919080483
20
0.5401735058
30
0.0000000000
10
-1.7020562664
20
0.5407461050
30
0.0000000000
10
-1.7194872484
20
0.5420977337
30
0.0000000000
10
-1.7438999994
20
0.5450541174
30
0.0000000000
10
-1.7724123234
20
0.5502887085
30
0.0000000000
10
-1.7999411744
20
0.5571869139
30
0.0000000000
10
-1.8264858533
20
0.5657510138
30
0.0000000000
10
-1.8604314096
20
0.5793348066
30
0.0000000000
10
-1.9007382595
20
0.6006191555
30
0.0000000000
10
-1.9301713085
20
0.6220482432
30
0.0000000000
10
-1.9440809047
20
0.6337227682
30
0.0000000000
11
-1.2577642321
21
0.8689160348
31
0.0000000000
11
-1.2954047925
21
0.7625277040
31
0.0000000000
11
-1.3219189904
21
0.7160681076
31
0.0000000000
11
-1.3370995837
21
0.6945218886
31
0.0000000000
11
-1.3535625066
21
0.6740980556
31
0.0000000000
11
-1.3713077591
21
0.6547966088
31
0.0000000000
11
-1.3806612590
21
0.6455667802
31
0.0000000000
11
-1.3903353413
21
0.6366175480
31
0.0000000000
11
-1.3952926008
21
0.6322481557
31
0.0000000000
11
-1.4003300059
21
0.6279489125
31
0.0000000000
11
-1.4028787631
21
0.6258255968
31
0.0000000000
11
-1.4041496785
21
0.6247875743
31
0.0000000000
11
-1.4054024301
21
0.6237890505
31
0.0000000000
11
-1.4079174726
21
0.6218096414
31
0.0000000000
11
-1.4104452345
21
0.6198537499
31
0.0000000000
11
-1.4206834757
21
0.6122653615
31
0.0000000000
11
-1.4311252265
21
0.6050532569
31
0.0000000000
11
-1.4417704870
21
0.5982174359
31
0.0000000000
11
-1.4526192571
21
0.5917578987
31
0.0000000000
11
-1.4749273264
21
0.5799676754
31
0.0000000000
11
-1.4980494342
21
0.5696825869
31
0.0000000000
11
-1.5219855807
21
0.5609026334
31
0.0000000000
11
-1.5467357658
21
0.5536278148
31
0.0000000000
11
-1.5722999896
21
0.5478581310
31
0.0000000000
11
-1.5853873659
21
0.5455377148
31
0.0000000000
11
-1.5986782519
21
0.5435935822
31
0.0000000000
11
-1.6121726476
21
0.5420257334
31
0.0000000000
11
-1.6258705529
21
0.5408341682
31
0.0000000000
11
-1.6397719679
21
0.5400188868
31
0.0000000000
11
-1.6467989915
21
0.5397523525
31
0.0000000000
11
-1.6503314808
21
0.5396543621
31
0.0000000000
11
-1.6538768925
21
0.5395798892
31
0.0000000000
11
-1.6574349221
21
0.5395289341
31
0.0000000000
11
-1.6610056710
21
0.5395014967
31
0.0000000000
11
-1.6619003456
21
0.5394983120
31
0.0000000000
11
-1.6627958152
21
0.5394965972
31
0.0000000000
11
-1.6637221315
21
0.5394963604
31
0.0000000000
11
-1.6647081738
21
0.5394977083
31
0.0000000000
11
-1.6666773663
21
0.5395052567
31
0.0000000000
11
-1.6686427030
21
0.5395192751
31
0.0000000000
11
-1.6725618086
21
0.5395667219
31
0.0000000000
11
-1.6764654906
21
0.5396400488
31
0.0000000000
11
-1.6842265839
21
0.5398643428
31
0.0000000000
11
-1.6919259827
21
0.5401921572
31
0.0000000000
11
-1.6995636871
21
0.5406234918
31
0.0000000000
11
-1.7146540128
21
0.5417967222
31
0.0000000000
11
-1.7440943314
21
0.5453854267
31
0.0000000000
11
-1.7725475395
21
0.5506304563
31
0.0000000000
11
-1.8000136372
21
0.5575318111
31
0.0000000000
11
-1.8264926245
21
0.5660894911
31
0.0000000000
11
-1.8519845014
21
0.5763034962
31
0.0000000000
11
-1.9000069239
21
0.6017004819
31
0.0000000000
11
-1.9440809047
21
0.6337227682
31
0.0000000000
0
SPLINE
5
2E1
100
AcDbEntity
8
0
100
AcDbSpline
62
7
6
CONTINUOUS
70
0
71
3
72
9
73
5
74
3
42
0.0000001000
43
0.0000001000
44
0.0000000001
12
-0.2236492813
22
0.2014091684
32
0.0000000000
13
-0.0048149468
23
0.3009343291
33
0.0000000000
40
0.0000000000
40
0.0000000000
40
0.0000000000
40
0.0000000000
40
0.7232361125
40
1.0000000000
40
1.0000000000
40
1.0000000000
40
1.0000000000
10
-1.9440809047
20
0.6337227682
30
0.0000000000
10
-1.9979979836
20
0.6822782295
30
0.0000000000
10
-2.0479589457
20
0.7800508685
30
0.0000000000
10
-2.0559253428
20
0.8799707261
30
0.0000000000
10
-2.0563695439
20
0.9077333110
30
0.0000000000
11
-1.9440809047
21
0.6337227682
31
0.0000000000
11
-2.0482990106
21
0.8248267828
31
0.0000000000
11
-2.0563695439
21
0.9077333110
31
0.0000000000
0
SPLINE
5
2E2
100
AcDbEntity
8
0
100
AcDbSpline
62
7
6
CONTINUOUS
70
0
71
3
72
30
73
26
74
24
42
0.0000001000
43
0.0000001000
44
0.0000000001
12
0.0109493033
22
0.5542646109
32
0.0000000000
13
0.3969213036
23
0.3870177841
33
0.0000000000
40
0.0000000000
40
0.0000000000
40
0.0000000000
40
0.0000000000
40
0.1256757777
40
0.1872027376
40
0.2482453177
40
0.3091245536
40
0.3701640584
40
0.4008494310
40
0.4316947285
40
0.4627388680
40
0.4783480524
40
0.4861764090
40
0.4940213360
40
0.5020506603
40
0.5100743083
40
0.5261048927
40
0.5421137896
40
0.5581016808
40
0.5900170151
40
0.6218565745
40
0.6853291941
40
0.7485657293
40
0.8116114913
40
0.8745122034
40
1.0000000000
40
1.0000000000
40
1.0000000000
40
1.0000000000
10
-2.0563695439
20
0.9077333110
30
0.0000000000
10
-2.0559108565
20
0.9309525230
30
0.0000000000
10
-2.0529749823
20
0.9655654612
30
0.0000000000
10
-2.0442274702
20
1.0106264414
30
0.0000000000
10
-2.0353765297
20
1.0433834699
30
0.0000000000
10
-2.0241895155
20
1.0753192864
30
0.0000000000
10
-2.0129387819
20
1.1012071683
30
0.0000000000
10
-2.0028001622
20
1.1214655854
30
0.0000000000
10
-1.9946004089
20
1.1364835555
30
0.0000000000
10
-1.9872970454
20
1.1488060534
30
0.0000000000
10
-1.9819379794
20
1.1573294123
30
0.0000000000
10
-1.9788005337
20
1.1621847415
30
0.0000000000
10
-1.9763843162
20
1.1658380746
30
0.0000000000
10
-1.9739453937
20
1.1695196081
30
0.0000000000
10
-1.9706518568
20
1.1744494023
30
0.0000000000
10
-1.9665102958
20
1.1805859416
30
0.0000000000
10
-1.9614971143
20
1.1879095495
30
0.0000000000
10
-1.9547624810
20
1.1976116788
30
0.0000000000
10
-1.9462409303
20
1.2096341418
30
0.0000000000
10
-1.9323937714
20
1.2286347842
30
0.0000000000
10
-1.9146697494
20
1.2519687761
30
0.0000000000
10
-1.8927200348
20
1.2793191460
30
0.0000000000
10
-1.8701114536
20
1.3059899050
30
0.0000000000
10
-1.8391190206
20
1.3406107960
30
0.0000000000
10
-1.8148489064
20
1.3655997431
30
0.0000000000
10
-1.7982459798
20
1.3817884127
30
0.0000000000
11
-2.0563695439
21
0.9077333110
31
0.0000000000
11
-2.0503191203
21
0.9771413234
31
0.0000000000
11
-2.0438085841
21
1.0106230786
31
0.0000000000
11
-2.0349744983
21
1.0432899998
31
0.0000000000
11
-2.0238168630
21
1.0751420870
31
0.0000000000
11
-2.0103356781
21
1.1061793402
31
0.0000000000
11
-2.0027237546
21
1.1213924041
31
0.0000000000
11
-1.9945309437
21
1.1364017595
31
0.0000000000
11
-1.9857572454
21
1.1512074064
31
0.0000000000
11
-1.9811525634
21
1.1585338391
31
0.0000000000
11
-1.9787957643
21
1.1621779578
31
0.0000000000
11
-1.9764026597
21
1.1658093448
31
0.0000000000
11
-1.9739424086
21
1.1695188851
31
0.0000000000
11
-1.9714718793
21
1.1732178047
31
0.0000000000
11
-1.9664999859
21
1.1805837811
31
0.0000000000
11
-1.9614869795
21
1.1879072740
31
0.0000000000
11
-1.9564328600
21
1.1951882834
31
0.0000000000
11
-1.9462012821
21
1.2096228519
31
0.0000000000
11
-1.9358052520
21
1.2238874865
31
0.0000000000
11
-1.9145198357
21
1.2519069538
31
0.0000000000
11
-1.8925766109
21
1.2792466855
31
0.0000000000
11
-1.8699755778
21
1.3059066816
31
0.0000000000
11
-1.8467167364
21
1.3318869420
31
0.0000000000
11
-1.7982459798
21
1.3817884127
31
0.0000000000
0
SPLINE
5
2E3
100
AcDbEntity
8
0
100
AcDbSpline
62
7
6
CONTINUOUS
70
0
71
3
72
27
73
23
74
21
42
0.0000001000
43
0.0000001000
44
0.0000000001
12
-0.6279634749
22
-0.6035947566
32
0.0000000000
13
-0.0156113426
23
-0.8708737761
33
0.0000000000
40
0.0000000000
40
0.0000000000
40
0.0000000000
40
0.0000000000
40
0.1265367780
40
0.1892835189
40
0.2517325021
40
0.3139196819
40
0.3758814682
40
0.4067899068
40
0.4376558305
40
0.4684838924
40
0.4838852571
40
0.4992789092
40
0.5146468529
40
0.5299757160
40
0.5605377228
40
0.5910126396
40
0.6214471460
40
0.6823706710
40
0.7436934945
40
0.8057819045
40
0.8689888807
40
1.0000000000
40
1.0000000000
40
1.0000000000
40
1.0000000000
10
-1.8509298889
20
1.6300262816
30
0.0000000000
10
-1.8774167139
20
1.6045673031
30
0.0000000000
10
-1.9161710140
20
1.5655646450
30
0.0000000000
10
-1.9658122636
20
1.5119156126
30
0.0000000000
10
-2.0018009167
20
1.4711079006
30
0.0000000000
10
-2.0366485297
20
1.4296195988
30
0.0000000000
10
-2.0647600861
20
1.3944500844
30
0.0000000000
10
-2.0866726322
20
1.3659804344
30
0.0000000000
10
-2.1028083506
20
1.3444738970
30
0.0000000000
10
-2.1160238050
20
1.3264070515
30
0.0000000000
10
-2.1264462998
20
1.3118646871
30
0.0000000000
10
-2.1342045601
20
1.3009354647
30
0.0000000000
10
-2.1418149634
20
1.2899275192
30
0.0000000000
10
-2.1516195780
20
1.2750870112
30
0.0000000000
10
-2.1633110101
20
1.2562412527
30
0.0000000000
10
-2.1764184769
20
1.2331354886
30
0.0000000000
10
-2.1926570174
20
1.2017019624
30
0.0000000000
10
-2.2106647283
20
1.1611407789
30
0.0000000000
10
-2.2285125688
20
1.1106304225
30
0.0000000000
10
-2.2426117069
20
1.0582578075
30
0.0000000000
10
-2.2565791784
20
0.9851136433
30
0.0000000000
10
-2.2611165099
20
0.9286758189
30
0.0000000000
10
-2.2617982630
20
0.8906444361
30
0.0000000000
11
-1.8509298889
21
1.6300262816
31
0.0000000000
11
-1.9285933976
21
1.5518228076
31
0.0000000000
11
-1.9657093702
21
1.5117056724
31
0.0000000000
11
-2.0016851409
21
1.4709080943
31
0.0000000000
11
-2.0365207098
21
1.4294300733
31
0.0000000000
11
-2.0702160768
21
1.3872716092
31
0.0000000000
11
-2.0866361846
21
1.3659372110
31
0.0000000000
11
-2.1027712420
21
1.3444327021
31
0.0000000000
11
-2.1186212489
21
1.3227580825
31
0.0000000000
11
-2.1264393584
21
1.3118569811
31
0.0000000000
11
-2.1341862053
21
1.3009133521
31
0.0000000000
11
-2.1417824357
21
1.2898918293
31
0.0000000000
11
-2.1491458691
21
1.2787542175
31
0.0000000000
11
-2.1631743448
21
1.2561307265
31
0.0000000000
11
-2.1762716325
21
1.2330428792
31
0.0000000000
11
-2.1884377322
21
1.2094906755
31
0.0000000000
11
-2.2099763675
21
1.1609931992
31
0.0000000000
11
-2.2277902508
21
1.1106382974
31
0.0000000000
11
-2.2418793820
21
1.0584259702
31
0.0000000000
11
-2.2522437611
21
1.0043562176
31
0.0000000000
11
-2.2617982630
21
0.8906444361
31
0.0000000000
0
SPLINE
5
2E4
100
AcDbEntity
8
0
100
AcDbSpline
62
7
6
CONTINUOUS
70
0
71
3
72
79
73
75
74
73
42
0.0000001000
43
0.0000001000
44
0.0000000001
12
0.0457709190
22
-1.7837280613
32
0.0000000000
13
0.3413776588
23
1.7513543806
33
0.0000000000
40
0.0000000000
40
0.0000000000
40
0.0000000000
40
0.0000000000
40
0.0720432973
40
0.1053580877
40
0.1373174370
40
0.1683374730
40
0.1836436356
40
0.1988876852
40
0.2141295959
40
0.2294293675
40
0.2371204480
40
0.2448481374
40
0.2526196348
40
0.2565241376
40
0.2584814464
40
0.2604422621
40
0.2623749332
40
0.2643063602
40
0.2681657098
40
0.2758720397
40
0.2912484724
40
0.3219631514
40
0.3528484371
40
0.3841533512
40
0.4000420222
40
0.4161241429
40
0.4324273191
40
0.4489780509
40
0.4658016682
40
0.4743237566
40
0.4829230053
40
0.4916022364
40
0.5003641949
40
0.5047770745
40
0.5092116298
40
0.5114371414
40
0.5136681922
40
0.5159048215
40
0.5170252410
40
0.5175859790
40
0.5181470699
40
0.5186621911
40
0.5191770080
40
0.5202057313
40
0.5222595517
40
0.5243085702
40
0.5263528246
40
0.5304271849
40
0.5344829508
40
0.5425398763
40
0.5505262347
40
0.5584446499
40
0.5662978142
40
0.5818187815
40
0.5971126949
40
0.6122034637
40
0.6418694631
40
0.6710323071
40
0.6999123688
40
0.7287365078
40
0.7432025407
40
0.7504609955
40
0.7577407837
40
0.7614027404
40
0.7650581801
40
0.7723514127
40
0.7868811238
40
0.8013641485
40
0.8158338945
40
0.8448591039
40
0.8742303173
40
0.9042035429
40
0.9350197891
40
1.0000000000
40
1.0000000000
40
1.0000000000
40
1.0000000000
10
-2.2617982630
20
0.8906444361
30
0.0000000000
10
-2.2606991004
20
0.8478092191
30
0.0000000000
10
-2.2543715826
20
0.7850025974
30
0.0000000000
10
-2.2337824941
20
0.7058353593
30
0.0000000000
10
-2.2133180315
20
0.6522081905
30
0.0000000000
10
-2.1916236060
20
0.6108675057
30
0.0000000000
10
-2.1716434646
20
0.5801540590
30
0.0000000000
10
-2.1553810975
20
0.5582829081
30
0.0000000000
10
-2.1377785974
20
0.5374818665
30
0.0000000000
10
-2.1220192094
20
0.5210663500
30
0.0000000000
10
-2.1087671119
20
0.5084854015
30
0.0000000000
10
-2.0984753536
20
0.4992993160
30
0.0000000000
10
-2.0896359421
20
0.4918764545
30
0.0000000000
10
-2.0833078473
20
0.4868059749
30
0.0000000000
10
-2.0796488688
20
0.4839319503
30
0.0000000000
10
-2.0768845931
20
0.4818179712
30
0.0000000000
10
-2.0741614892
20
0.4796760471
30
0.0000000000
10
-2.0705209301
20
0.4768744903
30
0.0000000000
10
-2.0641242890
20
0.4720238364
30
0.0000000000
10
-2.0511886722
20
0.4625635056
30
0.0000000000
10
-2.0247318365
20
0.4445506105
30
0.0000000000
10
-1.9851569288
20
0.4213929190
30
0.0000000000
10
-1.9350643591
20
0.3978978765
30
0.0000000000
10
-1.8913709061
20
0.3819764997
30
0.0000000000
10
-1.8552487687
20
0.3713829695
30
0.0000000000
10
-1.8273740003
20
0.3644637235
30
0.0000000000
10
-1.7988546916
20
0.3586114860
30
0.0000000000
10
-1.7696905476
20
0.3538256755
30
0.0000000000
10
-1.7449570877
20
0.3507394864
30
0.0000000000
10
-1.7248603098
20
0.3487973275
30
0.0000000000
10
-1.7095606998
20
0.3476006084
30
0.0000000000
10
-1.6940997718
20
0.3466701461
30
0.0000000000
10
-1.6811126010
20
0.3461179561
30
0.0000000000
10
-1.6706435075
20
0.3458083882
30
0.0000000000
10
-1.6640589932
20
0.3456700336
30
0.0000000000
10
-1.6587713639
20
0.3455925774
30
0.0000000000
10
-1.6547906464
20
0.3455508395
30
0.0000000000
10
-1.6514670606
20
0.3455306045
30
0.0000000000
10
-1.6491368755
20
0.3455223889
30
0.0000000000
10
-1.6478032607
20
0.3455218308
30
0.0000000000
10
-1.6468296197
20
0.3455167788
30
0.0000000000
10
-1.6458834220
20
0.3455329650
30
0.0000000000
10
-1.6446590992
20
0.3455487159
30
0.0000000000
10
-1.6425197510
20
0.3455826795
30
0.0000000000
10
-1.6394681643
20
0.3456393242
30
0.0000000000
10
-1.6358130029
20
0.3457235434
30
0.0000000000
10
-1.6309569251
20
0.3458561553
30
0.0000000000
10
-1.6249088605
20
0.3460606977
30
0.0000000000
10
-1.6152898768
20
0.3464702111
30
0.0000000000
10
-1.6033534174
20
0.3471364534
30
0.0000000000
10
-1.5891396438
20
0.3481862964
30
0.0000000000
10
-1.5750680223
20
0.3494847155
30
0.0000000000
10
-1.5565689565
20
0.3515391995
30
0.0000000000
10
-1.5337856576
20
0.3547230171
30
0.0000000000
10
-1.5069056219
20
0.3595544515
30
0.0000000000
10
-1.4720264101
20
0.3672784606
30
0.0000000000
10
-1.4297114880
20
0.3794161144
30
0.0000000000
10
-1.3809251204
20
0.3980732355
30
0.0000000000
10
-1.3344229030
20
0.4207413274
30
0.0000000000
10
-1.2976163622
20
0.4429481708
30
0.0000000000
10
-1.2729617573
20
0.4601687063
30
0.0000000000
10
-1.2591443928
20
0.4704996761
30
0.0000000000
10
-1.2506343505
20
0.4771910372
30
0.0000000000
10
-1.2438599082
20
0.4826210756
30
0.0000000000
10
-1.2371513594
20
0.4881451724
30
0.0000000000
10
-1.2256207605
20
0.4979797909
30
0.0000000000
10
-1.2096959080
20
0.5125767651
30
0.0000000000
10
-1.1914829015
20
0.5309524084
30
0.0000000000
10
-1.1684072613
20
0.5565922640
30
0.0000000000
10
-1.1417764843
20
0.5908758140
30
0.0000000000
10
-1.1135830906
20
0.6353220937
30
0.0000000000
10
-1.0891076922
20
0.6831213773
30
0.0000000000
10
-1.0609411489
20
0.7524977852
30
0.0000000000
10
-1.0462173063
20
0.8078485419
30
0.0000000000
10
-1.0388230422
20
0.8457830009
30
0.0000000000
11
-2.2617982630
21
0.8906444361
31
0.0000000000
11
-2.2476178805
21
0.7628810121
31
0.0000000000
11
-2.2325151561
21
0.7053874713
31
0.0000000000
11
-2.2120707429
21
0.6521527113
31
0.0000000000
11
-2.1862846410
21
0.6031767321
31
0.0000000000
11
-2.1713884568
21
0.5802857853
31
0.0000000000
11
-2.1551568503
21
0.5584595337
31
0.0000000000
11
-2.1375898217
21
0.5376979773
31
0.0000000000
11
-2.1186873709
21
0.5180011161
31
0.0000000000
11
-2.1087353621
21
0.5085519462
31
0.0000000000
11
-2.0984494978
21
0.4993689501
31
0.0000000000
11
-2.0878297780
21
0.4904521278
31
0.0000000000
11
-2.0823947223
21
0.4860935318
31
0.0000000000
11
-2.0796458954
21
0.4839391876
31
0.0000000000
11
-2.0768762026
21
0.4818014793
31
0.0000000000
11
-2.0741571648
21
0.4796804072
31
0.0000000000
11
-2.0714280338
21
0.4775759709
31
0.0000000000
11
-2.0659394924
21
0.4734170060
31
0.0000000000
11
-2.0548412918
21
0.4652987064
31
0.0000000000
11
-2.0321604199
21
0.4498606285
31
0.0000000000
11
-1.9848607929
21
0.4221785578
31
0.0000000000
11
-1.9349773217
21
0.3987552672
31
0.0000000000
11
-1.8825100062
21
0.3795907567
31
0.0000000000
11
-1.8553074068
21
0.3716055440
31
0.0000000000
11
-1.8274588463
21
0.3646850263
31
0.0000000000
11
-1.7989643248
21
0.3588292036
31
0.0000000000
11
-1.7698238423
21
0.3540380760
31
0.0000000000
11
-1.7400373986
21
0.3503116434
31
0.0000000000
11
-1.7249019414
21
0.3488476877
31
0.0000000000
11
-1.7096049939
21
0.3476499058
31
0.0000000000
11
-1.6941465561
21
0.3467182977
31
0.0000000000
11
-1.6785266281
21
0.3460528633
31
0.0000000000
11
-1.6706561052
21
0.3458199613
31
0.0000000000
11
-1.6627452098
21
0.3456536027
31
0.0000000000
11
-1.6587746224
21
0.3455953772
31
0.0000000000
11
-1.6547939418
21
0.3455537875
31
0.0000000000
11
-1.6508031681
21
0.3455288337
31
0.0000000000
11
-1.6488039963
21
0.3455225953
31
0.0000000000
11
-1.6478034642
21
0.3455210357
31
0.0000000000
11
-1.6468023012
21
0.3455205158
31
0.0000000000
11
-1.6458832385
21
0.3455323183
31
0.0000000000
11
-1.6449647317
21
0.3455450914
31
0.0000000000
11
-1.6431293857
21
0.3455735497
31
0.0000000000
11
-1.6394653641
21
0.3456421142
31
0.0000000000
11
-1.6358102366
21
0.3457262095
31
0.0000000000
11
-1.6321640031
21
0.3458258354
31
0.0000000000
11
-1.6248982180
21
0.3460716792
31
0.0000000000
11
-1.6176680090
21
0.3463796457
31
0.0000000000
11
-1.6033143191
21
0.3471819469
31
0.0000000000
11
-1.5891029334
21
0.3482327387
31
0.0000000000
11
-1.5750338518
21
0.3495320214
31
0.0000000000
11
-1.5611070744
21
0.3510797948
31
0.0000000000
11
-1.5336804319
21
0.3549208139
31
0.0000000000
11
-1.5068230060
21
0.3597557960
31
0.0000000000
11
-1.4805347968
21
0.3655847411
31
0.0000000000
11
-1.4296660280
21
0.3802245206
31
0.0000000000
11
-1.3810741255
21
0.3988401522
31
0.0000000000
11
-1.3347590894
21
0.4214316359
31
0.0000000000
11
-1.2907209197
21
0.4479989719
31
0.0000000000
11
-1.2695556597
21
0.4627735844
31
0.0000000000
11
-1.2591864859
21
0.4705336268
31
0.0000000000
11
-1.2489596163
21
0.4785421599
31
0.0000000000
11
-1.2438659312
21
0.4826346704
31
0.0000000000
11
-1.2388297160
21
0.4867794231
31
0.0000000000
11
-1.2289296951
21
0.4952256554
31
0.0000000000
11
-1.2098192914
21
0.5127450276
31
0.0000000000
11
-1.1916284053
21
0.5311002766
31
0.0000000000
11
-1.1743570368
21
0.5502914024
31
0.0000000000
11
-1.1425728524
21
0.5911812842
31
0.0000000000
11
-1.1144667383
21
0.6354146731
31
0.0000000000
11
-1.0900386944
21
0.6829915690
31
0.0000000000
11
-1.0692887207
21
0.7339119720
31
0.0000000000
11
-1.0388230422
21
0.8457830009
31
0.0000000000
0
SPLINE
5
2E5
100
AcDbEntity
8
0
100
AcDbSpline
62
7
6
CONTINUOUS
70
0
71
3
72
15
73
11
74
9
42
0.0000001000
43
0.0000001000
44
0.0000000001
12
1.2544455271
22
0.0000000000
32
0.0000000000
13
-0.0000000000
23
1.2544455271
33
0.0000000000
40
0.0000000000
40
0.0000000000
40
0.0000000000
40
0.0000000000
40
0.1249999833
40
0.2499998186
40
0.3750000602
40
0.5000001926
40
0.6250002680
40
0.7500003740
40
0.8750000775
40
1.0000000000
40
1.0000000000
40
1.0000000000
40
1.0000000000
10
10.3001218439
20
-21.8500000000
30
0.0000000000
10
10.3523904005
20
-21.8500000000
30
0.0000000000
10
10.4572170867
20
-21.8396905663
30
0.0000000000
10
10.6081911771
20
-21.7938865399
30
0.0000000000
10
10.7473896012
20
-21.7194986010
30
0.0000000000
10
10.8693819523
20
-21.6193816405
30
0.0000000000
10
10.9694988074
20
-21.4973892779
30
0.0000000000
10
11.0438866238
20
-21.3581909457
30
0.0000000000
10
11.0896905792
20
-21.2072169803
30
0.0000000000
10
11.1000000000
20
-21.1023903751
30
0.0000000000
10
11.1000000000
20
-21.0501218439
30
0.0000000000
11
10.3001218439
21
-21.8500000000
31
0.0000000000
11
10.4561728020
21
-21.8346339150
31
0.0000000000
11
10.6062283994
21
-21.7891226238
31
0.0000000000
11
10.7445219447
21
-21.7152104120
31
0.0000000000
11
10.8657360606
21
-21.6157357172
31
0.0000000000
11
10.9652106418
21
-21.4945216007
31
0.0000000000
11
11.0391227167
21
-21.3562281751
31
0.0000000000
11
11.0846339299
21
-21.2061727269
31
0.0000000000
11
11.1000000000
21
-21.0501218439
31
0.0000000000
0
SPLINE
5
2E6
100
AcDbEntity
8
0
100
AcDbSpline
62
7
6
CONTINUOUS
70
0
71
3
72
15
73
11
74
9
42
0.0000001000
43
0.0000001000
44
0.0000000001
12
0.0000000000
22
1.2544455271
32
0.0000000000
13
-1.2544455271
23
0.0000000000
33
0.0000000000
40
0.0000000000
40
0.0000000000
40
0.0000000000
40
0.0000000000
40
0.1249999833
40
0.2499998186
40
0.3750000602
40
0.5000001926
40
0.6250002680
40
0.7500003740
40
0.8750000775
40
1.0000000000
40
1.0000000000
40
1.0000000000
40
1.0000000000
10
11.1000000000
20
21.0501218439
30
0.0000000000
10
11.1000000000
20
21.1023904005
30
0.0000000000
10
11.0896905663
20
21.2072170867
30
0.0000000000
10
11.0438865399
20
21.3581911771
30
0.0000000000
10
10.9694986010
20
21.4973896012
30
0.0000000000
10
10.8693816405
20
21.6193819523
30
0.0000000000
10
10.7473892779
20
21.7194988074
30
0.0000000000
10
10.6081909457
20
21.7938866238
30
0.0000000000
10
10.4572169803
20
21.8396905792
30
0.0000000000
10
10.3523903751
20
21.8500000000
30
0.0000000000
10
10.3001218439
20
21.8500000000
30
0.0000000000
11
11.1000000000
21
21.0501218439
31
0.0000000000
11
11.0846339150
21
21.2061728020
31
0.0000000000
11
11.0391226238
21
21.3562283994
31
0.0000000000
11
10.9652104120
21
21.4945219447
31
0.0000000000
11
10.8657357172
21
21.6157360606
31
0.0000000000
11
10.7445216007
21
21.7152106418
31
0.0000000000
11
10.6062281751
21
21.7891227167
31
0.0000000000
11
10.4561727269
21
21.8346339299
31
0.0000000000
11
10.3001218439
21
21.8500000000
31
0.0000000000
0
SPLINE
5
2E7
100
AcDbEntity
8
0
100
AcDbSpline
62
7
6
CONTINUOUS
70
0
71
3
72
15
73
11
74
9
42
0.0000001000
43
0.0000001000
44
0.0000000001
12
0.0000000000
22
-1.2544455271
32
0.0000000000
13
1.2544455271
23
0.0000000000
33
0.0000000000
40
0.0000000000
40
0.0000000000
40
0.0000000000
40
0.0000000000
40
0.1249999833
40
0.2499998186
40
0.3750000602
40
0.5000001926
40
0.6250002680
40
0.7500003740
40
0.8750000775
40
1.0000000000
40
1.0000000000
40
1.0000000000
40
1.0000000000
10
-11.1000000000
20
-21.0501218439
30
0.0000000000
10
-11.1000000000
20
-21.1023904005
30
0.0000000000
10
-11.0896905663
20
-21.2072170867
30
0.0000000000
10
-11.0438865399
20
-21.3581911771
30
0.0000000000
10
-10.9694986010
20
-21.4973896012
30
0.0000000000
10
-10.8693816405
20
-21.6193819523
30
0.0000000000
10
-10.7473892779
20
-21.7194988074
30
0.0000000000
10
-10.6081909457
20
-21.7938866238
30
0.0000000000
10
-10.4572169803
20
-21.8396905792
30
0.0000000000
10
-10.3523903751
20
-21.8500000000
30
0.0000000000
10
-10.3001218439
20
-21.8500000000
30
0.0000000000
11
-11.1000000000
21
-21.0501218439
31
0.0000000000
11
-11.0846339150
21
-21.2061728020
31
0.0000000000
11
-11.0391226238
21
-21.3562283994
31
0.0000000000
11
-10.9652104120
21
-21.4945219447
31
0.0000000000
11
-10.8657357172
21
-21.6157360606
31
0.0000000000
11
-10.7445216007
21
-21.7152106418
31
0.0000000000
11
-10.6062281751
21
-21.7891227167
31
0.0000000000
11
-10.4561727269
21
-21.8346339299
31
0.0000000000
11
-10.3001218439
21
-21.8500000000
31
0.0000000000
0
SPLINE
5
2E8
100
AcDbEntity
8
0
100
AcDbSpline
62
7
6
CONTINUOUS
70
0
71
3
72
15
73
11
74
9
42
0.0000001000
43
0.0000001000
44
0.0000000001
12
-1.2544455271
22
0.0000000000
32
0.0000000000
13
0.0000000000
23
-1.2544455271
33
0.0000000000
40
0.0000000000
40
0.0000000000
40
0.0000000000
40
0.0000000000
40
0.1249999833
40
0.2499998186
40
0.3750000602
40
0.5000001926
40
0.6250002680
40
0.7500003740
40
0.8750000775
40
1.0000000000
40
1.0000000000
40
1.0000000000
40
1.0000000000
10
-10.3001218439
20
21.8500000000
30
0.0000000000
10
-10.3523904005
20
21.8500000000
30
0.0000000000
10
-10.4572170867
20
21.8396905663
30
0.0000000000
10
-10.6081911771
20
21.7938865399
30
0.0000000000
10
-10.7473896012
20
21.7194986010
30
0.0000000000
10
-10.8693819523
20
21.6193816405
30
0.0000000000
10
-10.9694988074
20
21.4973892779
30
0.0000000000
10
-11.0438866238
20
21.3581909457
30
0.0000000000
10
-11.0896905792
20
21.2072169803
30
0.0000000000
10
-11.1000000000
20
21.1023903751
30
0.0000000000
10
-11.1000000000
20
21.0501218439
30
0.0000000000
11
-10.3001218439
21
21.8500000000
31
0.0000000000
11
-10.4561728020
21
21.8346339150
31
0.0000000000
11
-10.6062283994
21
21.7891226238
31
0.0000000000
11
-10.7445219447
21
21.7152104120
31
0.0000000000
11
-10.8657360606
21
21.6157357172
31
0.0000000000
11
-10.9652106418
21
21.4945216007
31
0.0000000000
11
-11.0391227167
21
21.3562281751
31
0.0000000000
11
-11.0846339299
21
21.2061727269
31
0.0000000000
11
-11.1000000000
21
21.0501218439
31
0.0000000000
0
SPLINE
5
2E9
100
AcDbEntity
8
0
100
AcDbSpline
62
7
6
CONTINUOUS
70
0
71
3
72
14
73
10
74
8
42
0.0000001000
43
0.0000001000
44
0.0000000001
12
0.0000000000
22
-1.2061066505
32
0.0000000000
13
1.2052792685
23
-0.0446696548
33
0.0000000000
40
0.0000000000
40
0.0000000000
40
0.0000000000
40
0.0000000000
40
0.1009483873
40
0.1903223882
40
0.3458571934
40
0.4912973956
40
0.6445163665
40
0.8126432293
40
1.0000000000
40
1.0000000000
40
1.0000000000
40
1.0000000000
10
3.2297172104
20
-2.8947174993
30
0.0000000000
10
3.2297172104
20
-2.9353023397
30
0.0000000000
10
3.2341185393
20
-3.0120044815
30
0.0000000000
10
3.2622876158
20
-3.1485039140
30
0.0000000000
10
3.3334667983
20
-3.2931276059
30
0.0000000000
10
3.4761396585
20
-3.4139554472
30
0.0000000000
10
3.6524803879
20
-3.4838500804
30
0.0000000000
10
3.8548424369
20
-3.5199161176
30
0.0000000000
10
3.9979828690
20
-3.5222103475
30
0.0000000000
10
4.0732552795
20
-3.5250000683
30
0.0000000000
11
3.2297172104
21
-2.8947174993
31
0.0000000000
11
3.2375089562
21
-3.0162224463
31
0.0000000000
11
3.2601898796
21
-3.1216038797
31
0.0000000000
11
3.3458990835
21
-3.2884706736
31
0.0000000000
11
3.4782044702
21
-3.4036496487
31
0.0000000000
11
3.6483113960
21
-3.4758583029
31
0.0000000000
11
3.8475795091
21
-3.5134284040
31
0.0000000000
11
4.0732552795
21
-3.5250000683
31
0.0000000000
0
SPLINE
5
2EA
100
AcDbEntity
8
0
100
AcDbSpline
62
7
6
CONTINUOUS
70
0
71
3
72
14
73
10
74
8
42
0.0000001000
43
0.0000001000
44
0.0000000001
12
-1.2052792386
22
-0.0446696468
32
0.0000000000
13
-0.0000000000
23
-1.2061066198
33
0.0000000000
40
0.0000000000
40
0.0000000000
40
0.0000000000
40
0.0000000000
40
0.1873567500
40
0.3554836171
40
0.5087025918
40
0.6541427977
40
0.8096776070
40
0.8990516101
40
1.0000000000
40
1.0000000000
40
1.0000000000
40
1.0000000000
10
4.0732552488
20
-2.2644349314
30
0.0000000000
10
3.9979828485
20
-2.2672246513
30
0.0000000000
10
3.8548424268
20
-2.2695188827
30
0.0000000000
10
3.6524803879
20
-2.3055849181
30
0.0000000000
10
3.4761396585
20
-2.3754795513
30
0.0000000000
10
3.3334667983
20
-2.4963073926
30
0.0000000000
10
3.2622876158
20
-2.6409310845
30
0.0000000000
10
3.2341185393
20
-2.7774305170
30
0.0000000000
10
3.2297172104
20
-2.8541326588
30
0.0000000000
10
3.2297172104
20
-2.8947174993
30
0.0000000000
11
4.0732552488
21
-2.2644349314
31
0.0000000000
11
3.8475795091
21
-2.2760065945
31
0.0000000000
11
3.6483113960
21
-2.3135766956
31
0.0000000000
11
3.4782044702
21
-2.3857853498
31
0.0000000000
11
3.3458990835
21
-2.5009643250
31
0.0000000000
11
3.2601898796
21
-2.6678311189
31
0.0000000000
11
3.2375089562
21
-2.7732125523
31
0.0000000000
11
3.2297172104
21
-2.8947174993
31
0.0000000000
0
SPLINE
5
2EB
100
AcDbEntity
8
0
100
AcDbSpline
62
7
6
CONTINUOUS
70
0
71
3
72
12
73
8
74
6
42
0.0000001000
43
0.0000001000
44
0.0000000001
12
-0.4787330669
22
0.0602625404
32
0.0000000000
13
0.0000000000
23
0.4825111728
33
0.0000000000
40
0.0000000000
40
0.0000000000
40
0.0000000000
40
0.0000000000
40
0.2976582067
40
0.4627470519
40
0.6312985730
40
0.8298444089
40
1.0000000000
40
1.0000000000
40
1.0000000000
40
1.0000000000
10
4.0037122250
20
-3.1843240306
30
0.0000000000
10
3.9562126163
20
-3.1783448174
30
0.0000000000
10
3.8812259543
20
-3.1753807134
30
0.0000000000
10
3.7852406113
20
-3.1338000520
30
0.0000000000
10
3.7305801485
20
-3.0645464948
30
0.0000000000
10
3.7011936334
20
-2.9817844830
30
0.0000000000
10
3.6982248568
20
-2.9220848239
30
0.0000000000
10
3.6982248568
20
-2.8947174993
30
0.0000000000
11
4.0037122250
21
-3.1843240306
31
0.0000000000
11
3.8616586538
21
-3.1631469996
31
0.0000000000
11
3.7897971565
21
-3.1287784575
31
0.0000000000
11
3.7373764508
21
-3.0665987830
31
0.0000000000
11
3.7046279746
21
-2.9765694032
31
0.0000000000
11
3.6982248568
21
-2.8947174993
31
0.0000000000
0
SPLINE
5
2EC
100
AcDbEntity
8
0
100
AcDbSpline
62
7
6
CONTINUOUS
70
0
71
3
72
12
73
8
74
6
42
0.0000001000
43
0.0000001000
44
0.0000000001
12
0.0000000000
22
0.4825111602
32
0.0000000000
13
0.4787330557
23
0.0602625316
33
0.0000000000
40
0.0000000000
40
0.0000000000
40
0.0000000000
40
0.0000000000
40
0.1701555955
40
0.3687014366
40
0.5372529621
40
0.7023418116
40
1.0000000000
40
1.0000000000
40
1.0000000000
40
1.0000000000
10
3.6982248568
20
-2.8947174993
30
0.0000000000
10
3.6982248568
20
-2.8673501747
30
0.0000000000
10
3.7011936334
20
-2.8076505155
30
0.0000000000
10
3.7305801485
20
-2.7248885037
30
0.0000000000
10
3.7852406113
20
-2.6556349465
30
0.0000000000
10
3.8812259504
20
-2.6140542868
30
0.0000000000
10
3.9562126078
20
-2.6110901815
30
0.0000000000
10
4.0037122125
20
-2.6051109695
30
0.0000000000
11
3.6982248568
21
-2.8947174993
31
0.0000000000
11
3.7046279746
21
-2.8128655953
31
0.0000000000
11
3.7373764508
21
-2.7228362155
31
0.0000000000
11
3.7897971565
21
-2.6606565410
31
0.0000000000
11
3.8616586538
21
-2.6262879989
31
0.0000000000
11
4.0037122125
21
-2.6051109695
31
0.0000000000
0
SPLINE
5
2ED
100
AcDbEntity
8
0
100
AcDbSpline
62
7
6
CONTINUOUS
70
0
71
3
72
11
73
7
74
5
42
0.0000001000
43
0.0000001000
44
0.0000000001
12
-0.0320715388
22
-0.0776948916
32
0.0000000000
13
-0.0432547866
23
-0.0721251373
33
0.0000000000
40
0.0000000000
40
0.0000000000
40
0.0000000000
40
0.0000000000
40
0.1820491903
40
0.4167564419
40
0.8798531837
40
1.0000000000
40
1.0000000000
40
1.0000000000
40
1.0000000000
10
0.3902693569
20
0.8137481932
30
0.0000000000
10
0.3883231577
20
0.8090334292
30
0.0000000000
10
0.3837310596
20
0.7982966796
30
0.0000000000
10
0.3733630496
20
0.7759276858
30
0.0000000000
10
0.3626632942
20
0.7556440938
30
0.0000000000
10
0.3543865284
20
0.7415438433
30
0.0000000000
10
0.3526542201
20
0.7386553081
30
0.0000000000
11
0.3902693569
21
0.8137481932
31
0.0000000000
11
0.3842504348
21
0.7996802567
31
0.0000000000
11
0.3759519245
21
0.7817835371
31
0.0000000000
11
0.3577690510
21
0.7473684873
31
0.0000000000
11
0.3526542201
21
0.7386553081
31
0.0000000000
0
SPLINE
5
2EE
100
AcDbEntity
8
0
100
AcDbSpline
62
7
6
CONTINUOUS
70
0
71
3
72
9
73
5
74
3
42
0.0000001000
43
0.0000001000
44
0.0000000001
12
-0.0731324437
22
-0.1219445975
32
0.0000000000
13
-0.1033399031
23
-0.0975447026
33
0.0000000000
40
0.0000000000
40
0.0000000000
40
0.0000000000
40
0.0000000000
40
0.4663853646
40
1.0000000000
40
1.0000000000
40
1.0000000000
40
1.0000000000
10
0.3526542201
20
0.7386553081
30
0.0000000000
10
0.3412849196
20
0.7196975829
30
0.0000000000
10
0.3143848055
20
0.6805348233
30
0.0000000000
10
0.2822740832
20
0.6454372404
30
0.0000000000
10
0.2638928550
20
0.6280868134
30
0.0000000000
11
0.3526542201
21
0.7386553081
31
0.0000000000
11
0.3150598935
21
0.6840519453
31
0.0000000000
11
0.2638928550
21
0.6280868134
31
0.0000000000
0
SPLINE
5
2EF
100
AcDbEntity
8
0
100
AcDbSpline
62
7
6
CONTINUOUS
70
0
71
3
72
24
73
20
74
18
42
0.0000001000
43
0.0000001000
44
0.0000000001
12
-14.7857264253
22
0.0000000000
32
0.0000000000
13
14.7857264253
23
0.0000000000
33
0.0000000000
40
0.0000000000
40
0.0000000000
40
0.0000000000
40
0.0000000000
40
0.0586059269
40
0.1173118595
40
0.1759343834
40
0.2347850974
40
0.2934731204
40
0.3524733486
40
0.4112144395
40
0.4702913439
40
0.5290660457
40
0.5881528128
40
0.6469638816
40
0.7059975126
40
0.7648113180
40
0.8237218881
40
0.8824885758
40
0.9412772253
40
1.0000000000
40
1.0000000000
40
1.0000000000
40
1.0000000000
10
0.0000000000
20
8.1768349261
30
0.0000000000
10
-0.2888437341
20
8.1768349261
30
0.0000000000
10
-0.8683673516
20
8.2309141315
30
0.0000000000
10
-1.7071127903
20
8.4688271391
30
0.0000000000
10
-2.4886953751
20
8.8584551945
30
0.0000000000
10
-3.1859232481
20
9.3840914819
30
0.0000000000
10
-3.7754007473
20
10.0307879388
30
0.0000000000
10
-4.2363063735
20
10.7739839311
30
0.0000000000
10
-4.5532946086
20
11.5910612325
30
0.0000000000
10
-4.7148179898
20
12.4513552762
30
0.0000000000
10
-4.7158117419
20
13.3283556432
30
0.0000000000
10
-4.5557196724
20
14.1893249809
30
0.0000000000
10
-4.2402210229
20
15.0075850927
30
0.0000000000
10
-3.7798947462
20
15.7524928334
30
0.0000000000
10
-3.1906626548
20
16.4008946674
30
0.0000000000
10
-2.4927702245
20
16.9283979475
30
0.0000000000
10
-1.7101828420
20
17.3192335541
30
0.0000000000
10
-0.8699552695
20
17.5582199267
30
0.0000000000
10
-0.2894196271
20
17.6123595108
30
0.0000000000
10
0.0000000000
20
17.6123595108
30
0.0000000000
11
0.0000000000
21
8.1768349261
31
0.0000000000
11
-0.8628184954
21
8.2569633775
31
0.0000000000
11
-1.6977852679
21
8.4941797434
31
0.0000000000
11
-2.4736878352
21
8.8805434079
31
0.0000000000
11
-3.1683330516
21
9.4045949474
31
0.0000000000
11
-3.7530914362
21
10.0457182629
31
0.0000000000
11
-4.2127496495
21
10.7871550098
31
0.0000000000
11
-4.5269767299
21
11.5968495087
31
0.0000000000
11
-4.6881736225
21
12.4553417826
31
0.0000000000
11
-4.6890864938
21
13.3243679636
31
0.0000000000
11
-4.5294992012
21
14.1833092293
31
0.0000000000
11
-4.2164753975
21
14.9945787890
31
0.0000000000
11
-3.7577991825
21
15.7372039880
31
0.0000000000
11
-3.1727469961
21
16.3805751971
31
0.0000000000
11
-2.4780302786
21
16.9060004069
31
0.0000000000
11
-1.7005353419
21
17.2939476016
31
0.0000000000
11
-0.8645308519
21
17.5319860617
31
0.0000000000
11
0.0000000000
21
17.6123595108
31
0.0000000000
0
SPLINE
5
2F0
100
AcDbEntity
8
0
100
AcDbSpline
62
7
6
CONTINUOUS
70
0
71
3
72
24
73
20
74
18
42
0.0000001000
43
0.0000001000
44
0.0000000001
12
14.7857264253
22
0.0000000000
32
0.0000000000
13
-14.7857264253
23
0.0000000000
33
0.0000000000
40
0.0000000000
40
0.0000000000
40
0.0000000000
40
0.0000000000
40
0.0587227747
40
0.1175114242
40
0.1762781119
40
0.2351886820
40
0.2940024874
40
0.3530361184
40
0.4118471872
40
0.4709339543
40
0.5297086561
40
0.5887855605
40
0.6475266514
40
0.7065268796
40
0.7652149026
40
0.8240656166
40
0.8826881405
40
0.9413940731
40
1.0000000000
40
1.0000000000
40
1.0000000000
40
1.0000000000
10
0.0000000000
20
17.6123595108
30
0.0000000000
10
0.2894196271
20
17.6123595108
30
0.0000000000
10
0.8699552695
20
17.5582199267
30
0.0000000000
10
1.7101828420
20
17.3192335541
30
0.0000000000
10
2.4927702245
20
16.9283979475
30
0.0000000000
10
3.1906626548
20
16.4008946674
30
0.0000000000
10
3.7798947462
20
15.7524928334
30
0.0000000000
10
4.2402210229
20
15.0075850927
30
0.0000000000
10
4.5557196724
20
14.1893249809
30
0.0000000000
10
4.7158117419
20
13.3283556432
30
0.0000000000
10
4.7148179898
20
12.4513552762
30
0.0000000000
10
4.5532946086
20
11.5910612325
30
0.0000000000
10
4.2363063735
20
10.7739839311
30
0.0000000000
10
3.7754007473
20
10.0307879388
30
0.0000000000
10
3.1859232481
20
9.3840914819
30
0.0000000000
10
2.4886953751
20
8.8584551945
30
0.0000000000
10
1.7071127903
20
8.4688271391
30
0.0000000000
10
0.8683673516
20
8.2309141315
30
0.0000000000
10
0.2888437341
20
8.1768349261
30
0.0000000000
10
0.0000000000
20
8.1768349261
30
0.0000000000
11
0.0000000000
21
17.6123595108
31
0.0000000000
11
0.8645308519
21
17.5319860617
31
0.0000000000
11
1.7005353419
21
17.2939476016
31
0.0000000000
11
2.4780302786
21
16.9060004069
31
0.0000000000
11
3.1727469961
21
16.3805751971
31
0.0000000000
11
3.7577991825
21
15.7372039880
31
0.0000000000
11
4.2164753975
21
14.9945787890
31
0.0000000000
11
4.5294992012
21
14.1833092293
31
0.0000000000
11
4.6890864938
21
13.3243679636
31
0.0000000000
11
4.6881736225
21
12.4553417826
31
0.0000000000
11
4.5269767299
21
11.5968495087
31
0.0000000000
11
4.2127496495
21
10.7871550098
31
0.0000000000
11
3.7530914362
21
10.0457182629
31
0.0000000000
11
3.1683330516
21
9.4045949474
31
0.0000000000
11
2.4736878352
21
8.8805434079
31
0.0000000000
11
1.6977852679
21
8.4941797434
31
0.0000000000
11
0.8628184954
21
8.2569633775
31
0.0000000000
11
0.0000000000
21
8.1768349261
31
0.0000000000
0
SPLINE
5
2F1
100
AcDbEntity
8
0
100
AcDbSpline
62
9
6
CONTINUOUS
70
0
71
3
72
16
73
12
74
10
42
0.0000001000
43
0.0000001000
44
0.0000000001
12
-0.0000233623
22
0.2756978420
32
0.0000000000
13
-0.0000703490
23
-0.2756978340
33
0.0000000000
40
0.0000000000
40
0.0000000000
40
0.0000000000
40
0.0000000000
40
0.1104571761
40
0.2216454180
40
0.3329694791
40
0.4442823825
40
0.5556112409
40
0.6669259628
40
0.7782465236
40
0.8894636869
40
1.0000000000
40
1.0000000000
40
1.0000000000
40
1.0000000000
10
-5.0882073050
20
-18.9000000000
30
0.0000000000
10
-5.0882081651
20
-18.8898490650
30
0.0000000000
10
-5.0846203491
20
-18.8693051314
30
0.0000000000
10
-5.0690537680
20
-18.8422631186
30
0.0000000000
10
-5.0451021476
20
-18.8220903940
30
0.0000000000
10
-5.0156758330
20
-18.8113559794
30
0.0000000000
10
-4.9843538468
20
-18.8113506421
30
0.0000000000
10
-4.9549241906
20
-18.8220752665
30
0.0000000000
10
-4.9309633780
20
-18.8422413116
30
0.0000000000
10
-4.9153850335
20
-18.8692876125
30
0.0000000000
10
-4.9117901030
20
-18.8898417926
30
0.0000000000
10
-4.9117926950
20
-18.9000000000
30
0.0000000000
11
-5.0882073050
21
-18.9000000000
31
0.0000000000
11
-5.0829497668
21
-18.8700044730
31
0.0000000000
11
-5.0676712123
21
-18.8434290057
31
0.0000000000
11
-5.0441905165
21
-18.8236642965
31
0.0000000000
11
-5.0153611959
21
-18.8131443984
31
0.0000000000
11
-4.9846680702
21
-18.8131392026
31
0.0000000000
11
-4.9558347647
21
-18.8236496381
31
0.0000000000
11
-4.9323480689
21
-18.8434057178
31
0.0000000000
11
-4.9170578069
21
-18.8699836503
31
0.0000000000
11
-4.9117926950
21
-18.9000000000
31
0.0000000000
0
SPLINE
5
2F2
100
AcDbEntity
8
0
100
AcDbSpline
62
9
6
CONTINUOUS
70
0
71
3
72
16
73
12
74
10
42
0.0000001000
43
0.0000001000
44
0.0000000001
12
-0.0000233623
22
0.2756978420
32
0.0000000000
13
-0.0000703490
23
-0.2756978340
33
0.0000000000
40
0.0000000000
40
0.0000000000
40
0.0000000000
40
0.0000000000
40
0.1104571761
40
0.2216454180
40
0.3329694791
40
0.4442823825
40
0.5556112409
40
0.6669259628
40
0.7782465236
40
0.8894636869
40
1.0000000000
40
1.0000000000
40
1.0000000000
40
1.0000000000
10
4.9117926950
20
-18.9000000000
30
0.0000000000
10
4.9117918349
20
-18.8898490650
30
0.0000000000
10
4.9153796509
20
-18.8693051314
30
0.0000000000
10
4.9309462320
20
-18.8422631186
30
0.0000000000
10
4.9548978524
20
-18.8220903940
30
0.0000000000
10
4.9843241670
20
-18.8113559794
30
0.0000000000
10
5.0156461532
20
-18.8113506421
30
0.0000000000
10
5.0450758094
20
-18.8220752665
30
0.0000000000
10
5.0690366220
20
-18.8422413116
30
0.0000000000
10
5.0846149665
20
-18.8692876125
30
0.0000000000
10
5.0882098970
20
-18.8898417926
30
0.0000000000
10
5.0882073050
20
-18.9000000000
30
0.0000000000
11
4.9117926950
21
-18.9000000000
31
0.0000000000
11
4.9170502332
21
-18.8700044730
31
0.0000000000
11
4.9323287877
21
-18.8434290057
31
0.0000000000
11
4.9558094835
21
-18.8236642965
31
0.0000000000
11
4.9846388041
21
-18.8131443984
31
0.0000000000
11
5.0153319298
21
-18.8131392026
31
0.0000000000
11
5.0441652353
21
-18.8236496381
31
0.0000000000
11
5.0676519311
21
-18.8434057178
31
0.0000000000
11
5.0829421931
21
-18.8699836503
31
0.0000000000
11
5.0882073050
21
-18.9000000000
31
0.0000000000
0
SPLINE
5
2F3
100
AcDbEntity
8
0
100
AcDbSpline
62
9
6
CONTINUOUS
70
0
71
3
72
34
73
30
74
28
42
0.0000001000
43
0.0000001000
44
0.0000000001
12
13.0894350043
22
-0.0000426114
32
0.0000000000
13
-13.0894350043
23
-0.0000251151
33
0.0000000000
40
0.0000000000
40
0.0000000000
40
0.0000000000
40
0.0000000000
40
0.0192554511
40
0.0395611705
40
0.0614499210
40
0.0854187444
40
0.1119618226
40
0.1415687453
40
0.1747239424
40
0.2119057518
40
0.2535921915
40
0.3001984726
40
0.3520557198
40
0.4084850661
40
0.4673168060
40
0.5268051151
40
0.5858364497
40
0.6427393903
40
0.6953081165
40
0.7426663725
40
0.7850456859
40
0.8228526906
40
0.8565594301
40
0.8866470212
40
0.9136010430
40
0.9379125698
40
0.9600775078
40
0.9805949799
40
1.0000000000
40
1.0000000000
40
1.0000000000
40
1.0000000000
10
0.0000000000
20
17.1700210012
30
0.0000000000
10
0.0840143252
20
17.1700207277
30
0.0000000000
10
0.2566698604
20
17.1647908938
30
0.0000000000
10
0.5238131466
20
17.1400301901
30
0.0000000000
10
0.8090953500
20
17.0943969856
30
0.0000000000
10
1.1169214408
20
17.0221485379
30
0.0000000000
10
1.4502376980
20
16.9154592093
30
0.0000000000
10
1.8099455017
20
16.7642060624
30
0.0000000000
10
2.1940143023
20
16.5560339364
30
0.0000000000
10
2.5963832678
20
16.2766003087
30
0.0000000000
10
3.0052195029
20
15.9101431307
30
0.0000000000
10
3.4010668097
20
15.4411980531
30
0.0000000000
10
3.7539238544
20
14.8612982194
30
0.0000000000
10
4.0233032096
20
14.1795765539
30
0.0000000000
10
4.1720623975
20
13.4273221082
30
0.0000000000
10
4.1792584352
20
12.6490138782
30
0.0000000000
10
4.0436664742
20
11.8912440402
30
0.0000000000
10
3.7838366380
20
11.1992646594
30
0.0000000000
10
3.4355174117
20
10.6066592038
30
0.0000000000
10
3.0397252666
20
10.1252850761
30
0.0000000000
10
2.6281109310
20
9.7483239991
30
0.0000000000
10
2.2214473682
20
9.4607052070
30
0.0000000000
10
1.8324230502
20
9.2464383474
30
0.0000000000
10
1.4676788249
20
9.0908596293
30
0.0000000000
10
1.1296212847
20
8.9812620606
30
0.0000000000
10
0.8175950615
20
8.9071921847
30
0.0000000000
10
0.5287983004
20
8.8605324237
30
0.0000000000
10
0.2588999901
20
8.8352979935
30
0.0000000000
10
0.0846669166
20
8.8299791613
30
0.0000000000
10
0.0000000000
20
8.8299789988
30
0.0000000000
11
0.0000000000
21
17.1700210012
31
0.0000000000
11
0.2519274976
21
17.1623922777
31
0.0000000000
11
0.5165838519
21
17.1378658095
31
0.0000000000
11
0.7994987347
21
17.0926116509
31
0.0000000000
11
1.1049365880
21
17.0209215293
31
0.0000000000
11
1.4358296740
21
16.9149966561
31
0.0000000000
11
1.7930696993
21
16.7647795461
31
0.0000000000
11
2.1746176645
21
16.5579892689
31
0.0000000000
11
2.5743573320
21
16.2803667522
31
0.0000000000
11
2.9806498345
21
15.9161381904
31
0.0000000000
11
3.3741822451
21
15.4499911023
31
0.0000000000
11
3.7269648709
21
14.8700863585
31
0.0000000000
11
3.9984169826
21
14.1831471627
31
0.0000000000
11
4.1477884668
21
13.4276986281
31
0.0000000000
11
4.1549862219
21
12.6490635409
31
0.0000000000
11
4.0189057574
21
11.8884538993
31
0.0000000000
11
3.7570696066
21
11.1911665845
31
0.0000000000
11
3.4084507572
21
10.5979216744
31
0.0000000000
11
3.0147318883
21
10.1191184232
31
0.0000000000
11
2.6056646680
21
9.7444456394
31
0.0000000000
11
2.2016432310
21
9.4586742240
31
0.0000000000
11
1.8151753035
21
9.2458317907
31
0.0000000000
11
1.4529235172
21
9.0913152175
31
0.0000000000
11
1.1173106976
21
8.9824989065
31
0.0000000000
11
0.8076913077
21
8.9089975955
31
0.0000000000
11
0.5212788426
21
8.8627234700
31
0.0000000000
11
0.2538825599
21
8.8377266908
31
0.0000000000
11
0.0000000000
21
8.8299789988
31
0.0000000000
0
SPLINE
5
2F4
100
AcDbEntity
8
0
100
AcDbSpline
62
7
6
CONTINUOUS
70
0
71
3
72
15
73
11
74
9
42
0.0000001000
43
0.0000001000
44
0.0000000001
12
0.0000000000
22
-0.5000623335
32
0.0000000000
13
0.5000623335
23
0.0000000000
33
0.0000000000
40
0.0000000000
40
0.0000000000
40
0.0000000000
40
0.0000000000
40
0.1950698124
40
0.3826431420
40
0.5555115264
40
0.7070324718
40
0.8313846992
40
0.9237928711
40
0.9807131008
40
1.0000000000
40
1.0000000000
40
1.0000000000
40
1.0000000000
10
4.6000000000
20
-19.8500000000
30
0.0000000000
10
4.6000000000
20
-19.8825156885
30
0.0000000000
10
4.6000659305
20
-19.9462829007
30
0.0000000000
10
4.6002545055
20
-20.0389414348
30
0.0000000000
10
4.6008093941
20
-20.1240783436
30
0.0000000000
10
4.6008225911
20
-20.1994850039
30
0.0000000000
10
4.6028454433
20
-20.2591877296
30
0.0000000000
10
4.6001991936
20
-20.3088148526
30
0.0000000000
10
4.6069358085
20
-20.3296336646
30
0.0000000000
10
4.6011485500
20
-20.3500000000
30
0.0000000000
10
4.6043634339
20
-20.3500000000
30
0.0000000000
11
4.6000000000
21
-19.8500000000
31
0.0000000000
11
4.6000838454
21
-19.9475470295
31
0.0000000000
11
4.6003321587
21
-20.0413450577
31
0.0000000000
11
4.6007353943
21
-20.1277890850
31
0.0000000000
11
4.6012780522
21
-20.2035570592
31
0.0000000000
11
4.6019392739
21
-20.2657374087
31
0.0000000000
11
4.6026936481
21
-20.3119410967
31
0.0000000000
11
4.6035121854
21
-20.3403929877
31
0.0000000000
11
4.6043634339
21
-20.3500000000
31
0.0000000000
0
SPLINE
5
2F5
100
AcDbEntity
8
0
100
AcDbSpline
62
7
6
CONTINUOUS
70
0
71
3
72
15
73
11
74
9
42
0.0000001000
43
0.0000001000
44
0.0000000001
12
0.5000623335
22
0.0000000000
32
0.0000000000
13
0.0000000000
23
0.5000623335
33
0.0000000000
40
0.0000000000
40
0.0000000000
40
0.0000000000
40
0.0000000000
40
0.0192869114
40
0.0762072046
40
0.1686154880
40
0.2929678079
40
0.4444887538
40
0.6173570408
40
0.8049302488
40
1.0000000000
40
1.0000000000
40
1.0000000000
40
1.0000000000
10
-4.6043634339
20
-20.3500000000
30
0.0000000000
10
-4.6011485479
20
-20.3500000000
30
0.0000000000
10
-4.6069358124
20
-20.3296336448
30
0.0000000000
10
-4.6001991894
20
-20.3088148105
30
0.0000000000
10
-4.6028454431
20
-20.2591876381
30
0.0000000000
10
-4.6008225901
20
-20.1994848794
30
0.0000000000
10
-4.6008093934
20
-20.1240782199
30
0.0000000000
10
-4.6002545052
20
-20.0389413473
30
0.0000000000
10
-4.6000659304
20
-19.9462828601
30
0.0000000000
10
-4.6000000000
20
-19.8825156783
30
0.0000000000
10
-4.6000000000
20
-19.8500000000
30
0.0000000000
11
-4.6043634339
21
-20.3500000000
31
0.0000000000
11
-4.6035121852
21
-20.3403929816
31
0.0000000000
11
-4.6026936473
21
-20.3119410589
31
0.0000000000
11
-4.6019392727
21
-20.2657373150
31
0.0000000000
11
-4.6012780510
21
-20.2035569194
31
0.0000000000
11
-4.6007353935
21
-20.1277889448
31
0.0000000000
11
-4.6003321584
21
-20.0413449664
31
0.0000000000
11
-4.6000838453
21
-19.9475469989
31
0.0000000000
11
-4.6000000000
21
-19.8500000000
31
0.0000000000
0
SPLINE
5
2F6
100
AcDbEntity
8
0
100
AcDbSpline
62
9
6
CONTINUOUS
70
0
71
3
72
34
73
30
74
28
42
0.0000001000
43
0.0000001000
44
0.0000000001
12
13.9986494751
22
-0.0000236348
32
0.0000000000
13
-13.9986494751
23
-0.0000143469
33
0.0000000000
40
0.0000000000
40
0.0000000000
40
0.0000000000
40
0.0000000000
40
0.0192647173
40
0.0395721280
40
0.0614619508
40
0.0854319146
40
0.1119778973
40
0.1415902092
40
0.1747475880
40
0.2119293895
40
0.2536178836
40
0.3002226461
40
0.3520700803
40
0.4084895715
40
0.4673037045
40
0.5267820008
40
0.5858013106
40
0.6427045555
40
0.6952737507
40
0.7426359523
40
0.7850203501
40
0.8228289916
40
0.8565381630
40
0.8866311212
40
0.9135882983
40
0.9379008692
40
0.9600667507
40
0.9805857968
40
1.0000000000
40
1.0000000000
40
1.0000000000
40
1.0000000000
10
-0.0000000000
20
17.4498237718
30
0.0000000000
10
0.0898933417
20
17.4498236200
30
0.0000000000
10
0.2745930224
20
17.4442304150
30
0.0000000000
10
0.5603485984
20
17.4177457964
30
0.0000000000
10
0.8654646922
20
17.3689373771
30
0.0000000000
10
1.1946942208
20
17.2916555776
30
0.0000000000
10
1.5511992764
20
17.1775237424
30
0.0000000000
10
1.9359347662
20
17.0157386468
30
0.0000000000
10
2.3467138265
20
16.7930914861
30
0.0000000000
10
2.7770380658
20
16.4942197377
30
0.0000000000
10
3.2142482125
20
16.1022788227
30
0.0000000000
10
3.6375734194
20
15.6008013028
30
0.0000000000
10
4.0148574532
20
14.9806859187
30
0.0000000000
10
4.3028978453
20
14.2517817532
30
0.0000000000
10
4.4619823831
20
13.4474522022
30
0.0000000000
10
4.4697135696
20
12.6152702637
30
0.0000000000
10
4.3248025639
20
11.8049495544
30
0.0000000000
10
4.0469702569
20
11.0649442087
30
0.0000000000
10
3.6745211810
20
10.4311103163
30
0.0000000000
10
3.2512030529
20
9.9162672288
30
0.0000000000
10
2.8109925094
20
9.5130558698
30
0.0000000000
10
2.3760603932
20
9.2054113037
30
0.0000000000
10
1.9599718145
20
8.9762451394
30
0.0000000000
10
1.5698470601
20
8.8098360403
30
0.0000000000
10
1.2082721933
20
8.6925898853
30
0.0000000000
10
0.8745508563
20
8.6133589912
30
0.0000000000
10
0.5656774336
20
8.5634541192
30
0.0000000000
10
0.2769767391
20
8.5364654814
30
0.0000000000
10
0.0905908750
20
8.5307784789
30
0.0000000000
10
0.0000000000
20
8.5307783860
30
0.0000000000
11
-0.0000000000
21
17.4498237718
31
0.0000000000
11
0.2695564920
21
17.4416620551
31
0.0000000000
11
0.5526199169
21
17.4154299043
31
0.0000000000
11
0.8552009059
21
17.3670270417
31
0.0000000000
11
1.1818683825
21
17.2903443791
31
0.0000000000
11
1.5357799410
21
17.1770348712
31
0.0000000000
11
1.9179006981
21
17.0163463014
31
0.0000000000
11
2.3259768013
21
16.7951743559
31
0.0000000000
11
2.7534727339
21
16.4982530218
31
0.0000000000
11
3.1879900343
21
16.1086848183
31
0.0000000000
11
3.6088394497
21
15.6101706228
31
0.0000000000
11
3.9860374502
21
14.9900910455
31
0.0000000000
11
4.2763005413
21
14.2555666188
31
0.0000000000
11
4.4360262764
21
13.4478903652
31
0.0000000000
11
4.4437670929
21
12.6153105276
31
0.0000000000
11
4.2983315707
21
11.8020212393
31
0.0000000000
11
4.0183544327
21
11.0562771121
31
0.0000000000
11
3.6455711812
21
10.4217866651
31
0.0000000000
11
3.2244832211
21
9.9096704447
31
0.0000000000
11
2.7869721722
21
9.5088988878
31
0.0000000000
11
2.3548808991
21
9.2032458503
31
0.0000000000
11
1.9415388686
21
8.9756017998
31
0.0000000000
11
1.5540579244
21
8.8103167211
31
0.0000000000
11
1.1950962793
21
8.6939114800
31
0.0000000000
11
0.8639583843
21
8.6152911235
31
0.0000000000
11
0.5576384730
21
8.5657988139
31
0.0000000000
11
0.2716462313
21
8.5390660110
31
0.0000000000
11
0.0000000000
21
8.5307783860
31
0.0000000000
0
SPLINE
5
2F7
100
AcDbEntity
8
0
100
AcDbSpline
62
7
6
CONTINUOUS
70
0
71
3
72
15
73
11
74
9
42
0.0000001000
43
0.0000001000
44
0.0000000001
12
0.5000623335
22
0.0000000000
32
0.0000000000
13
0.0000000000
23
0.5000623335
33
0.0000000000
40
0.0000000000
40
0.0000000000
40
0.0000000000
40
0.0000000000
40
0.0192869114
40
0.0762072046
40
0.1686154880
40
0.2929678079
40
0.4444887538
40
0.6173570408
40
0.8049302488
40
1.0000000000
40
1.0000000000
40
1.0000000000
40
1.0000000000
10
5.3956365661
20
-20.3500000000
30
0.0000000000
10
5.3988514521
20
-20.3500000000
30
0.0000000000
10
5.3930641876
20
-20.3296336448
30
0.0000000000
10
5.3998008106
20
-20.3088148105
30
0.0000000000
10
5.3971545569
20
-20.2591876381
30
0.0000000000
10
5.3991774099
20
-20.1994848794
30
0.0000000000
10
5.3991906066
20
-20.1240782199
30
0.0000000000
10
5.3997454948
20
-20.0389413473
30
0.0000000000
10
5.3999340696
20
-19.9462828601
30
0.0000000000
10
5.4000000000
20
-19.8825156783
30
0.0000000000
10
5.4000000000
20
-19.8500000000
30
0.0000000000
11
5.3956365661
21
-20.3500000000
31
0.0000000000
11
5.3964878148
21
-20.3403929816
31
0.0000000000
11
5.3973063527
21
-20.3119410589
31
0.0000000000
11
5.3980607273
21
-20.2657373150
31
0.0000000000
11
5.3987219490
21
-20.2035569194
31
0.0000000000
11
5.3992646065
21
-20.1277889448
31
0.0000000000
11
5.3996678416
21
-20.0413449664
31
0.0000000000
11
5.3999161547
21
-19.9475469989
31
0.0000000000
11
5.4000000000
21
-19.8500000000
31
0.0000000000
0
SPLINE
5
2F8
100
AcDbEntity
8
0
100
AcDbSpline
62
7
6
CONTINUOUS
70
0
71
3
72
15
73
11
74
9
42
0.0000001000
43
0.0000001000
44
0.0000000001
12
0.0000000000
22
-0.5000623335
32
0.0000000000
13
0.5000623335
23
0.0000000000
33
0.0000000000
40
0.0000000000
40
0.0000000000
40
0.0000000000
40
0.0000000000
40
0.1950698124
40
0.3826431420
40
0.5555115264
40
0.7070324718
40
0.8313846992
40
0.9237928711
40
0.9807131008
40
1.0000000000
40
1.0000000000
40
1.0000000000
40
1.0000000000
10
-5.4000000000
20
-19.8500000000
30
0.0000000000
10
-5.4000000000
20
-19.8825156885
30
0.0000000000
10
-5.3999340695
20
-19.9462829007
30
0.0000000000
10
-5.3997454945
20
-20.0389414348
30
0.0000000000
10
-5.3991906059
20
-20.1240783436
30
0.0000000000
10
-5.3991774089
20
-20.1994850039
30
0.0000000000
10
-5.3971545567
20
-20.2591877296
30
0.0000000000
10
-5.3998008064
20
-20.3088148526
30
0.0000000000
10
-5.3930641915
20
-20.3296336646
30
0.0000000000
10
-5.3988514500
20
-20.3500000000
30
0.0000000000
10
-5.3956365661
20
-20.3500000000
30
0.0000000000
11
-5.4000000000
21
-19.8500000000
31
0.0000000000
11
-5.3999161546
21
-19.9475470295
31
0.0000000000
11
-5.3996678413
21
-20.0413450577
31
0.0000000000
11
-5.3992646057
21
-20.1277890850
31
0.0000000000
11
-5.3987219478
21
-20.2035570592
31
0.0000000000
11
-5.3980607261
21
-20.2657374087
31
0.0000000000
11
-5.3973063519
21
-20.3119410967
31
0.0000000000
11
-5.3964878146
21
-20.3403929877
31
0.0000000000
11
-5.3956365661
21
-20.3500000000
31
0.0000000000
0
SPLINE
5
2F9
100
AcDbEntity
8
0
100
AcDbSpline
62
9
6
CONTINUOUS
70
0
71
3
72
34
73
30
74
28
42
0.0000001000
43
0.0000001000
44
0.0000000001
12
-13.0894350043
22
0.0000426114
32
0.0000000000
13
13.0894350043
23
0.0000251151
33
0.0000000000
40
0.0000000000
40
0.0000000000
40
0.0000000000
40
0.0000000000
40
0.0192554511
40
0.0395611705
40
0.0614499210
40
0.0854187444
40
0.1119618226
40
0.1415687453
40
0.1747239424
40
0.2119057518
40
0.2535921915
40
0.3001984726
40
0.3520557198
40
0.4084850661
40
0.4673168060
40
0.5268051151
40
0.5858364497
40
0.6427393903
40
0.6953081165
40
0.7426663725
40
0.7850456859
40
0.8228526906
40
0.8565594301
40
0.8866470212
40
0.9136010430
40
0.9379125698
40
0.9600775078
40
0.9805949799
40
1.0000000000
40
1.0000000000
40
1.0000000000
40
1.0000000000
10
0.0000000000
20
8.8299789988
30
0.0000000000
10
-0.0840143252
20
8.8299792723
30
0.0000000000
10
-0.2566698604
20
8.8352091062
30
0.0000000000
10
-0.5238131466
20
8.8599698099
30
0.0000000000
10
-0.8090953500
20
8.9056030144
30
0.0000000000
10
-1.1169214408
20
8.9778514621
30
0.0000000000
10
-1.4502376980
20
9.0845407907
30
0.0000000000
10
-1.8099455017
20
9.2357939376
30
0.0000000000
10
-2.1940143023
20
9.4439660636
30
0.0000000000
10
-2.5963832678
20
9.7233996913
30
0.0000000000
10
-3.0052195029
20
10.0898568693
30
0.0000000000
10
-3.4010668097
20
10.5588019469
30
0.0000000000
10
-3.7539238544
20
11.1387017806
30
0.0000000000
10
-4.0233032096
20
11.8204234461
30
0.0000000000
10
-4.1720623975
20
12.5726778918
30
0.0000000000
10
-4.1792584352
20
13.3509861218
30
0.0000000000
10
-4.0436664742
20
14.1087559598
30
0.0000000000
10
-3.7838366380
20
14.8007353406
30
0.0000000000
10
-3.4355174117
20
15.3933407962
30
0.0000000000
10
-3.0397252666
20
15.8747149239
30
0.0000000000
10
-2.6281109310
20
16.2516760009
30
0.0000000000
10
-2.2214473682
20
16.5392947930
30
0.0000000000
10
-1.8324230501
20
16.7535616526
30
0.0000000000
10
-1.4676788249
20
16.9091403707
30
0.0000000000
10
-1.1296212847
20
17.0187379394
30
0.0000000000
10
-0.8175950615
20
17.0928078153
30
0.0000000000
10
-0.5287983004
20
17.1394675763
30
0.0000000000
10
-0.2588999901
20
17.1647020065
30
0.0000000000
10
-0.0846669166
20
17.1700208387
30
0.0000000000
10
0.0000000000
20
17.1700210012
30
0.0000000000
11
0.0000000000
21
8.8299789988
31
0.0000000000
11
-0.2519274976
21
8.8376077223
31
0.0000000000
11
-0.5165838519
21
8.8621341905
31
0.0000000000
11
-0.7994987347
21
8.9073883491
31
0.0000000000
11
-1.1049365880
21
8.9790784707
31
0.0000000000
11
-1.4358296740
21
9.0850033439
31
0.0000000000
11
-1.7930696993
21
9.2352204539
31
0.0000000000
11
-2.1746176645
21
9.4420107311
31
0.0000000000
11
-2.5743573320
21
9.7196332478
31
0.0000000000
11
-2.9806498345
21
10.0838618096
31
0.0000000000
11
-3.3741822451
21
10.5500088977
31
0.0000000000
11
-3.7269648709
21
11.1299136415
31
0.0000000000
11
-3.9984169826
21
11.8168528373
31
0.0000000000
11
-4.1477884668
21
12.5723013719
31
0.0000000000
11
-4.1549862219
21
13.3509364591
31
0.0000000000
11
-4.0189057574
21
14.1115461007
31
0.0000000000
11
-3.7570696066
21
14.8088334155
31
0.0000000000
11
-3.4084507572
21
15.4020783256
31
0.0000000000
11
-3.0147318883
21
15.8808815768
31
0.0000000000
11
-2.6056646680
21
16.2555543606
31
0.0000000000
11
-2.2016432310
21
16.5413257760
31
0.0000000000
11
-1.8151753035
21
16.7541682093
31
0.0000000000
11
-1.4529235172
21
16.9086847825
31
0.0000000000
11
-1.1173106976
21
17.0175010935
31
0.0000000000
11
-0.8076913077
21
17.0910024045
31
0.0000000000
11
-0.5212788426
21
17.1372765300
31
0.0000000000
11
-0.2538825599
21
17.1622733092
31
0.0000000000
11
0.0000000000
21
17.1700210012
31
0.0000000000
0
SPLINE
5
2FA
100
AcDbEntity
8
0
100
AcDbSpline
62
9
6
CONTINUOUS
70
0
71
3
72
34
73
30
74
28
42
0.0000001000
43
0.0000001000
44
0.0000000001
12
-13.9986494809
22
0.0000241636
32
0.0000000000
13
13.9986494809
23
0.0000140297
33
0.0000000000
40
0.0000000000
40
0.0000000000
40
0.0000000000
40
0.0000000000
40
0.0192647148
40
0.0395721119
40
0.0614619225
40
0.0854319042
40
0.1119779443
40
0.1415902453
40
0.1747475163
40
0.2119293544
40
0.2536180005
40
0.3002225456
40
0.3520701299
40
0.4084895462
40
0.4673036832
40
0.5267820276
40
0.5858012446
40
0.6427046421
40
0.6952736376
40
0.7426360628
40
0.7850203285
40
0.8228289151
40
0.8565381936
40
0.8866311711
40
0.9135882896
40
0.9379008410
40
0.9600667344
40
0.9805857943
40
1.0000000000
40
1.0000000000
40
1.0000000000
40
1.0000000000
10
0.0000000000
20
8.5307783077
30
0.0000000000
10
-0.0898933300
20
8.5307784629
30
0.0000000000
10
-0.2745929348
20
8.5363705775
30
0.0000000000
10
-0.5603486140
20
8.5628527950
30
0.0000000000
10
-0.8654649022
20
8.6116600346
30
0.0000000000
10
-1.1946945208
20
8.6889430847
30
0.0000000000
10
-1.5511987459
20
8.8030784223
30
0.0000000000
10
-1.9359340807
20
8.9648626719
30
0.0000000000
10
-2.3467148961
20
9.1875058832
30
0.0000000000
10
-2.7770388199
20
9.4863792847
30
0.0000000000
10
-3.2142457401
20
9.8783231312
30
0.0000000000
10
-3.6375757957
20
10.3797970465
30
0.0000000000
10
-4.0148560971
20
10.9999142500
30
0.0000000000
10
-4.3028983443
20
11.7288177734
30
0.0000000000
10
-4.4619822275
20
12.5331474848
30
0.0000000000
10
-4.4697138947
20
13.3653292803
30
0.0000000000
10
-4.3248016281
20
14.1756500538
30
0.0000000000
10
-4.0469721080
20
14.9156560790
30
0.0000000000
10
-3.6745185678
20
15.5494880372
30
0.0000000000
10
-3.2512053874
20
16.0643344728
30
0.0000000000
10
-2.8109920385
20
16.4675435349
30
0.0000000000
10
-2.3760591981
20
16.7751859380
30
0.0000000000
10
-1.9599724266
20
17.0043559085
30
0.0000000000
10
-1.5698476682
20
17.1707662960
30
0.0000000000
10
-1.2082718925
20
17.2880088720
30
0.0000000000
10
-0.8745506368
20
17.3672384129
30
0.0000000000
10
-0.5656774144
20
17.4171444288
30
0.0000000000
10
-0.2769768283
20
17.4441354947
30
0.0000000000
10
-0.0905908870
20
17.4498236008
30
0.0000000000
10
-0.0000000000
20
17.4498236916
30
0.0000000000
11
0.0000000000
21
8.5307783077
31
0.0000000000
11
-0.2695564920
21
8.5389388614
31
0.0000000000
11
-0.5526199169
21
8.5651689523
31
0.0000000000
11
-0.8552009059
21
8.6135707365
31
0.0000000000
11
-1.1818683825
21
8.6902544973
31
0.0000000000
11
-1.5357799410
21
8.8035666398
31
0.0000000000
11
-1.9179006981
21
8.9642548174
31
0.0000000000
11
-2.3259768013
21
9.1854235950
31
0.0000000000
11
-2.7534727339
21
9.4823458288
31
0.0000000000
11
-3.1879900343
21
9.8719172207
31
0.0000000000
11
-3.6088394497
21
10.3704274311
31
0.0000000000
11
-3.9860374502
21
10.9905094690
31
0.0000000000
11
-4.2763005413
21
11.7250327699
31
0.0000000000
11
-4.4360262764
21
12.5327090805
31
0.0000000000
11
-4.4437670929
21
13.3652895913
31
0.0000000000
11
-4.2983315707
21
14.1785775600
31
0.0000000000
11
-4.0183544327
21
14.9243239695
31
0.0000000000
11
-3.6455711812
21
15.5588111749
31
0.0000000000
11
-3.2244832211
21
16.0709314495
31
0.0000000000
11
-2.7869721722
21
16.4717002669
31
0.0000000000
11
-2.3548808991
21
16.7773519750
31
0.0000000000
11
-1.9415388686
21
17.0049991324
31
0.0000000000
11
-1.5540579244
21
17.1702849006
31
0.0000000000
11
-1.1950962793
21
17.2866874832
31
0.0000000000
11
-0.8639583843
21
17.3653066534
31
0.0000000000
11
-0.5576384730
21
17.4148000111
31
0.0000000000
11
-0.2716462313
21
17.4415348906
31
0.0000000000
11
-0.0000000000
21
17.4498236916
31
0.0000000000
0
SPLINE
5
2FB
100
AcDbEntity
8
0
100
AcDbSpline
62
7
6
CONTINUOUS
70
0
71
3
72
12
73
8
74
6
42
0.0000001000
43
0.0000001000
44
0.0000000001
12
-0.3071459658
22
0.0000000000
32
0.0000000000
13
-0.0190355322
23
0.3065555297
33
0.0000000000
40
0.0000000000
40
0.0000000000
40
0.0000000000
40
0.0000000000
40
0.2987762157
40
0.5714152082
40
0.7891092504
40
0.9344517588
40
1.0000000000
40
1.0000000000
40
1.0000000000
40
1.0000000000
10
-5.0882073050
20
-19.3000000000
30
0.0000000000
10
-5.1187966081
20
-19.3000000000
30
0.0000000000
10
-5.1775072329
20
-19.2987080175
30
0.0000000000
10
-5.2573740240
20
-19.2935449227
30
0.0000000000
10
-5.3240096083
20
-19.2846474594
30
0.0000000000
10
-5.3627524783
20
-19.2760752647
30
0.0000000000
10
-5.3877799667
20
-19.2649037386
30
0.0000000000
10
-5.3881958819
20
-19.2582056800
30
0.0000000000
11
-5.0882073050
21
-19.3000000000
31
0.0000000000
11
-5.1799529793
21
-19.2979799938
31
0.0000000000
11
-5.2634831039
21
-19.2920554441
31
0.0000000000
11
-5.3297103761
21
-19.2828509650
31
0.0000000000
11
-5.3727981926
21
-19.2711765680
31
0.0000000000
11
-5.3881958819
21
-19.2582056800
31
0.0000000000
0
SPLINE
5
2FC
100
AcDbEntity
8
0
100
AcDbSpline
62
7
6
CONTINUOUS
70
0
71
3
72
12
73
8
74
6
42
0.0000001000
43
0.0000001000
44
0.0000000001
12
-0.0190355322
22
-0.3065555297
32
0.0000000000
13
-0.3071459658
23
0.0000000000
33
0.0000000000
40
0.0000000000
40
0.0000000000
40
0.0000000000
40
0.0000000000
40
0.0655482412
40
0.2108907496
40
0.4285847918
40
0.7012237843
40
1.0000000000
40
1.0000000000
40
1.0000000000
40
1.0000000000
10
-4.6118041181
20
-19.2582056800
30
0.0000000000
10
-4.6122200333
20
-19.2649037386
30
0.0000000000
10
-4.6372475217
20
-19.2760752647
30
0.0000000000
10
-4.6759903917
20
-19.2846474594
30
0.0000000000
10
-4.7426259760
20
-19.2935449227
30
0.0000000000
10
-4.8224927671
20
-19.2987080175
30
0.0000000000
10
-4.8812033919
20
-19.3000000000
30
0.0000000000
10
-4.9117926950
20
-19.3000000000
30
0.0000000000
11
-4.6118041181
21
-19.2582056800
31
0.0000000000
11
-4.6272018074
21
-19.2711765680
31
0.0000000000
11
-4.6702896239
21
-19.2828509650
31
0.0000000000
11
-4.7365168961
21
-19.2920554441
31
0.0000000000
11
-4.8200470207
21
-19.2979799938
31
0.0000000000
11
-4.9117926950
21
-19.3000000000
31
0.0000000000
0
SPLINE
5
2FD
100
AcDbEntity
8
0
100
AcDbSpline
62
7
6
CONTINUOUS
70
0
71
3
72
12
73
8
74
6
42
0.0000001000
43
0.0000001000
44
0.0000000001
12
-0.3071459658
22
0.0000000000
32
0.0000000000
13
-0.0190355322
23
0.3065555297
33
0.0000000000
40
0.0000000000
40
0.0000000000
40
0.0000000000
40
0.0000000000
40
0.2987762157
40
0.5714152082
40
0.7891092504
40
0.9344517588
40
1.0000000000
40
1.0000000000
40
1.0000000000
40
1.0000000000
10
4.9117926950
20
-19.3000000000
30
0.0000000000
10
4.8812033919
20
-19.3000000000
30
0.0000000000
10
4.8224927671
20
-19.2987080175
30
0.0000000000
10
4.7426259760
20
-19.2935449227
30
0.0000000000
10
4.6759903917
20
-19.2846474594
30
0.0000000000
10
4.6372475217
20
-19.2760752647
30
0.0000000000
10
4.6122200333
20
-19.2649037386
30
0.0000000000
10
4.6118041181
20
-19.2582056800
30
0.0000000000
11
4.9117926950
21
-19.3000000000
31
0.0000000000
11
4.8200470207
21
-19.2979799938
31
0.0000000000
11
4.7365168961
21
-19.2920554441
31
0.0000000000
11
4.6702896239
21
-19.2828509650
31
0.0000000000
11
4.6272018074
21
-19.2711765680
31
0.0000000000
11
4.6118041181
21
-19.2582056800
31
0.0000000000
0
SPLINE
5
2FE
100
AcDbEntity
8
0
100
AcDbSpline
62
7
6
CONTINUOUS
70
0
71
3
72
12
73
8
74
6
42
0.0000001000
43
0.0000001000
44
0.0000000001
12
-0.0190355322
22
-0.3065555297
32
0.0000000000
13
-0.3071459658
23
0.0000000000
33
0.0000000000
40
0.0000000000
40
0.0000000000
40
0.0000000000
40
0.0000000000
40
0.0655482412
40
0.2108907496
40
0.4285847918
40
0.7012237843
40
1.0000000000
40
1.0000000000
40
1.0000000000
40
1.0000000000
10
5.3881958819
20
-19.2582056800
30
0.0000000000
10
5.3877799667
20
-19.2649037386
30
0.0000000000
10
5.3627524783
20
-19.2760752647
30
0.0000000000
10
5.3240096083
20
-19.2846474594
30
0.0000000000
10
5.2573740240
20
-19.2935449227
30
0.0000000000
10
5.1775072329
20
-19.2987080175
30
0.0000000000
10
5.1187966081
20
-19.3000000000
30
0.0000000000
10
5.0882073050
20
-19.3000000000
30
0.0000000000
11
5.3881958819
21
-19.2582056800
31
0.0000000000
11
5.3727981926
21
-19.2711765680
31
0.0000000000
11
5.3297103761
21
-19.2828509650
31
0.0000000000
11
5.2634831039
21
-19.2920554441
31
0.0000000000
11
5.1799529793
21
-19.2979799938
31
0.0000000000
11
5.0882073050
21
-19.3000000000
31
0.0000000000
0
ENDSEC
0
SECTION
2
OBJECTS
0
DICTIONARY
5
2FF
100
AcDbDictionary
3
ACAD_GROUP
350
300
3
ACAD_MLINESTYLE
350
301
0
DICTIONARY
5
300
102
{ACAD_REACTORS
330
2FF
102
}
100
AcDbDictionary
0
DICTIONARY
5
301
102
{ACAD_REACTORS
330
2FF
102
}
100
AcDbDictionary
3
STANDARD
350
302
0
MLINESTYLE
5
302
102
{ACAD_REACTORS
330
301
102
}
100
AcDbMlineStyle
2
STANDARD
70
0
3

62
256
51
90.0
52
90.0
71
2
49
0.5
62
256
6
BYLAYER
49
-0.5
62
256
6
BYLAYER
0
ENDSEC
0
EOF
