0
SECTION
2
HEADER
9
$ACADVER
1
AC1014
9
$HANDSEED
5
       3AE
9
$EXTMAX
10
297.0000000000
20
210.0000000000
9
$EXTMIN
10
0.0000000000
20
0.0000000000
9
$LIMMIN
10
0.0000000000
20
0.0000000000
9
$LIMMAX
10
297.0000000000
20
210.0000000000
9
$VIEWCTR
10
148.5000000000
20
105.0000000000
9
$VIEWSIZE
40
210.0000000000
9
$CLAYER
8
0
9
$LTSCALE
40
16.3350000000
9
$CELTYPE
6
BYLAYER
9
$DIMSCALE
40
1
9
$DIMASZ
40
3.0000000000
9
$DIMEXO
40
1.8562500000
9
$DIMDLI
40
11.2860000000
9
$DIMEXE
40
5.3460000000
9
$DIMCEN
40
2.6730000000
9
$DIMLFAC
40
1.0000000000
9
$DIMTXT
40
3.0000000000
9
$DIMTOL
70
1
9
$DIMLIM
70
0
9
$DIMTFAC
40
1.0000000000
9
$DIMTP
40
0.0100000000
9
$DIMTM
40
0.0100000000
9
$MEASUREMENT
70
1
0
ENDSEC
0
SECTION
2
CLASSES
0
ENDSEC
0
SECTION
2
TABLES
0
TABLE
2
VPORT
5
8
100
AcDbSymbolTable
70
2
0
VPORT
5
1F4
100
AcDbSymbolTableRecord
100
AcDbViewportTableRecord
2
*ACTIVE
70
0
10
0.0
20
0.0
11
1.0
21
1.0
12
148.5000000000
22
105.0000000000
13
0.0
23
0.0
14
1.0
24
1.0
15
0.0
25
0.0
16
0.0
26
0.0
36
1.0
17
0.0
27
0.0
37
0.0
40
210.0000000000
41
1.4142857143
42
50.0
43
0.0
44
0.0
50
0.0
51
0.0
71
0
72
100
73
1
74
1
75
0
76
0
77
0
78
0
0
ENDTAB
0
TABLE
2
LTYPE
5
5
100
AcDbSymbolTable
70
6
0
LTYPE
5
14
100
AcDbSymbolTableRecord
100
AcDbLinetypeTableRecord
2
BYBLOCK
70
0
3

72
65
73
0
40
0.0
0
LTYPE
5
15
100
AcDbSymbolTableRecord
100
AcDbLinetypeTableRecord
2
BYLAYER
70
0
3

72
65
73
0
40
0.0
0
LTYPE
5
16
100
AcDbSymbolTableRecord
100
AcDbLinetypeTableRecord
2
CONTINUOUS
70
64
3
Solid line
72
65
73
0
40
0
0
LTYPE
5
1F5
100
AcDbSymbolTableRecord
100
AcDbLinetypeTableRecord
2
CENTER
70
64
3
____ _ ____ _ ____ _ ____ _ ____ _ ____ _ ____
72
65
73
4
40
0.6
49
0.375
74
0
49
-0.075
74
0
49
0.075
74
0
49
-0.075
74
0
0
LTYPE
5
1F6
100
AcDbSymbolTableRecord
100
AcDbLinetypeTableRecord
2
HIDDEN
70
64
3
- - - - - - - - - - - - - - - - - - - -
72
65
73
2
40
0.2
49
0.1
74
0
49
-0.1
74
0
0
LTYPE
5
1F7
100
AcDbSymbolTableRecord
100
AcDbLinetypeTableRecord
2
PHANTOM
70
64
3
_____ _ _ _____ _ _ _____ _ _ _____
72
65
73
6
40
0.8
49
0.45
74
0
49
-0.05
74
0
49
0.1
74
0
49
-0.05
74
0
49
0.1
74
0
49
-0.05
74
0
0
LTYPE
5
1F8
100
AcDbSymbolTableRecord
100
AcDbLinetypeTableRecord
2
DOT
70
64
3
. . . . . . . . . . . . . . . . . . . .
72
65
73
2
40
0.2
49
0.1
74
0
49
-0.1
74
0
0
LTYPE
5
1F9
100
AcDbSymbolTableRecord
100
AcDbLinetypeTableRecord
2
DASHED
70
64
3
- - - - - - - - - - - - - - - - - - - -
72
65
73
2
40
0.2
49
0.1
74
0
49
-0.1
74
0
0
ENDTAB
0
TABLE
2
LAYER
5
2
100
AcDbSymbolTable
70
36
0
LAYER
5
10
100
AcDbSymbolTableRecord
100
AcDbLayerTableRecord
2
0
70
0
62
7
6
CONTINUOUS
0
LAYER
5
1FA
100
AcDbSymbolTableRecord
100
AcDbLayerTableRecord
2
DEFAULT_1
70
0
62
7
6
CENTER
0
LAYER
5
1FB
100
AcDbSymbolTableRecord
100
AcDbLayerTableRecord
2
DEFAULT_2
70
0
62
8
6
HIDDEN
0
LAYER
5
1FC
100
AcDbSymbolTableRecord
100
AcDbLayerTableRecord
2
DEFAULT_3
70
0
62
7
6
PHANTOM
0
LAYER
5
1FD
100
AcDbSymbolTableRecord
100
AcDbLayerTableRecord
2
ASSI
70
0
62
7
6
CONTINUOUS
0
LAYER
5
1FE
100
AcDbSymbolTableRecord
100
AcDbLayerTableRecord
2
COORDINATE
70
0
62
7
6
CONTINUOUS
0
LAYER
5
1FF
100
AcDbSymbolTableRecord
100
AcDbLayerTableRecord
2
COORD_ORIGINE
70
0
62
7
6
CONTINUOUS
0
LAYER
5
200
100
AcDbSymbolTableRecord
100
AcDbLayerTableRecord
2
CURVE
70
0
62
7
6
CONTINUOUS
0
LAYER
5
201
100
AcDbSymbolTableRecord
100
AcDbLayerTableRecord
2
DRAFT
70
0
62
7
6
CONTINUOUS
0
LAYER
5
202
100
AcDbSymbolTableRecord
100
AcDbLayerTableRecord
2
IMPORT_SCRITTE
70
0
62
7
6
CONTINUOUS
0
LAYER
5
203
100
AcDbSymbolTableRecord
100
AcDbLayerTableRecord
2
NOTE
70
0
62
7
6
CONTINUOUS
0
LAYER
5
204
100
AcDbSymbolTableRecord
100
AcDbLayerTableRecord
2
PIANI
70
0
62
7
6
CONTINUOUS
0
LAYER
5
205
100
AcDbSymbolTableRecord
100
AcDbLayerTableRecord
2
PIANI_ORIGINE
70
0
62
7
6
CONTINUOUS
0
LAYER
5
206
100
AcDbSymbolTableRecord
100
AcDbLayerTableRecord
2
PUNTI
70
0
62
7
6
CONTINUOUS
0
LAYER
5
207
100
AcDbSymbolTableRecord
100
AcDbLayerTableRecord
2
RACCORDO
70
0
62
7
6
CONTINUOUS
0
LAYER
5
208
100
AcDbSymbolTableRecord
100
AcDbLayerTableRecord
2
SNAPLINE
70
0
62
7
6
CONTINUOUS
0
LAYER
5
209
100
AcDbSymbolTableRecord
100
AcDbLayerTableRecord
2
SUPERFICI
70
0
62
7
6
CONTINUOUS
0
LAYER
5
20A
100
AcDbSymbolTableRecord
100
AcDbLayerTableRecord
2
TRASH
70
0
62
7
6
CONTINUOUS
0
ENDTAB
0
TABLE
2
STYLE
5
3
100
AcDbSymbolTable
70
1
0
STYLE
5
11
100
AcDbSymbolTableRecord
100
AcDbTextStyleTableRecord
2
STANDARD
70
0
40
0.0
41
0.8000000000
50
0.0
71
0
42
0.2
3
txt
4

0
ENDTAB
0
TABLE
2
VIEW
5
6
100
AcDbSymbolTable
70
0
0
ENDTAB
0
TABLE
2
UCS
5
7
100
AcDbSymbolTable
70
0
0
ENDTAB
0
TABLE
2
APPID
5
9
100
AcDbSymbolTable
70
1
0
APPID
5
20B
100
AcDbSymbolTableRecord
100
AcDbRegAppTableRecord
2
ACAD
70
0
0
ENDTAB
0
TABLE
2
DIMSTYLE
5
A
100
AcDbSymbolTable
70
1
0
DIMSTYLE
105
20C
100
AcDbSymbolTableRecord
100
AcDbDimStyleTableRecord
2
STANDARD
70
0
3

4

5

6

7

40
1.0
41
3.0000000000
42
0.0625
43
0.38
44
0.18
45
0.0
46
0.0
47
0.0100000000
48
0.0100000000
140
3.0000000000
141
0.09
142
0.0
143
25.4
144
1.0000000000
145
0.0
146
1.0000000000
147
0.09
71
1
72
0
73
0
74
0
75
0
76
0
77
1
78
8
170
0
171
2
172
0
173
0
174
0
175
0
176
0
177
0
178
0
270
2
271
2
272
2
273
2
274
2
340
11
275
0
280
0
281
0
282
0
283
1
284
8
285
0
286
0
287
3
288
0
0
ENDTAB
0
TABLE
2
BLOCK_RECORD
5
1
100
AcDbSymbolTable
70
0
0
BLOCK_RECORD
5
1B
100
AcDbSymbolTableRecord
100
AcDbBlockTableRecord
2
*MODEL_SPACE
0
BLOCK_RECORD
5
1C
100
AcDbSymbolTableRecord
100
AcDbBlockTableRecord
2
*PAPER_SPACE
0
ENDTAB
0
ENDSEC
0
SECTION
2
BLOCKS
0
BLOCK
5
1E
100
AcDbEntity
8
0
100
AcDbBlockBegin
2
*MODEL_SPACE
70
0
10
0.0
20
0.0
30
0.0
3
*MODEL_SPACE
1

0
ENDBLK
5
1F
100
AcDbEntity
8
0
100
AcDbBlockEnd
0
BLOCK
5
20
100
AcDbEntity
8
0
100
AcDbBlockBegin
2
*PAPER_SPACE
70
0
10
0.0
20
0.0
30
0.0
3
*PAPER_SPACE
1

0
ENDBLK
5
21
100
AcDbEntity
8
0
100
AcDbBlockEnd
0
ENDSEC
0
SECTION
2
ENTITIES
0
LINE
5
20D
100
AcDbEntity
8
0
100
AcDbLine
62
7
6
CONTINUOUS
10
11.5978984489
20
-21.5096799218
11
-9.0023452389
21
-21.5096799218
0
LINE
5
20E
100
AcDbEntity
8
0
100
AcDbLine
62
7
6
CONTINUOUS
10
10.8977766050
20
-20.0096799218
11
-8.3022233950
21
-20.0096799218
0
LINE
5
20F
100
AcDbEntity
8
0
100
AcDbLine
62
7
6
CONTINUOUS
10
-5.1022233950
20
-19.6096799218
11
-5.7022233950
21
-19.6096799218
0
LINE
5
210
100
AcDbEntity
8
0
100
AcDbLine
62
7
6
CONTINUOUS
10
7.6977766050
20
-19.6096799218
11
8.2977766050
21
-19.6096799218
0
LINE
5
211
100
AcDbEntity
8
0
100
AcDbLine
62
9
6
CONTINUOUS
10
-8.6022233950
20
-19.5096799218
11
11.1977766050
21
-19.5096799218
0
LINE
5
212
100
AcDbEntity
8
0
100
AcDbLine
62
7
6
CONTINUOUS
10
-5.7022233950
20
-19.6096799218
11
-8.3022233950
21
-20.0096799218
0
LINE
5
213
100
AcDbEntity
8
0
100
AcDbLine
62
7
6
CONTINUOUS
10
8.2977766050
20
-19.6096799218
11
10.8977766050
21
-20.0096799218
0
LINE
5
214
100
AcDbEntity
8
0
100
AcDbLine
62
9
6
CONTINUOUS
10
6.8013358909
20
-15.2631782846
11
-4.2057826809
21
-15.2631782846
0
LINE
5
215
100
AcDbEntity
8
0
100
AcDbLine
62
7
6
CONTINUOUS
10
6.8013358909
20
-15.0631859000
11
-4.2057826809
21
-15.0631859000
0
LINE
5
216
100
AcDbEntity
8
0
100
AcDbLine
62
7
6
CONTINUOUS
10
6.7978299127
20
-15.0596799218
11
-4.2022767027
21
-15.0596799218
0
LINE
5
217
100
AcDbEntity
8
0
100
AcDbLine
62
7
6
CONTINUOUS
10
6.7977766050
20
-14.9596799218
11
-4.2022233950
21
-14.9596799218
0
LINE
5
218
100
AcDbEntity
8
0
100
AcDbLine
62
7
6
CONTINUOUS
10
-4.5022233950
20
-14.1096799218
11
7.0977766050
21
-14.1096799218
0
LINE
5
219
100
AcDbEntity
8
0
100
AcDbLine
62
7
6
CONTINUOUS
10
7.0977766050
20
-13.7096799218
11
-4.5022233950
21
-13.7096799218
0
LINE
5
21A
100
AcDbEntity
8
0
100
AcDbLine
62
9
6
CONTINUOUS
10
8.4012749678
20
-13.6632392077
11
8.2012825832
21
-13.6632392077
0
LINE
5
21B
100
AcDbEntity
8
0
100
AcDbLine
62
9
6
CONTINUOUS
10
-5.8057217578
20
-13.6632392077
11
-5.6057293732
21
-13.6632392077
0
LINE
5
21C
100
AcDbEntity
8
0
100
AcDbLine
62
7
6
CONTINUOUS
10
7.0977766050
20
-13.3096799218
11
-4.5022233950
21
-13.3096799218
0
LINE
5
21D
100
AcDbEntity
8
0
100
AcDbLine
62
7
6
CONTINUOUS
10
7.0977766050
20
-12.9096799218
11
-4.5022233950
21
-12.9096799218
0
LINE
5
21E
100
AcDbEntity
8
0
100
AcDbLine
62
7
6
CONTINUOUS
10
-4.1022233950
20
-14.1096799218
11
-4.5022233950
21
-13.7096799218
0
LINE
5
21F
100
AcDbEntity
8
0
100
AcDbLine
62
7
6
CONTINUOUS
10
-3.7022233950
20
-14.1096799218
11
-4.5022233950
21
-13.3096799218
0
LINE
5
220
100
AcDbEntity
8
0
100
AcDbLine
62
7
6
CONTINUOUS
10
-3.3022233950
20
-14.1096799218
11
-4.5022233950
21
-12.9096799218
0
LINE
5
221
100
AcDbEntity
8
0
100
AcDbLine
62
7
6
CONTINUOUS
10
-2.9022233950
20
-14.1096799218
11
-4.5022233950
21
-12.5096799218
0
LINE
5
222
100
AcDbEntity
8
0
100
AcDbLine
62
7
6
CONTINUOUS
10
-2.5022233950
20
-14.1096799218
11
-4.5022233950
21
-12.1096799218
0
LINE
5
223
100
AcDbEntity
8
0
100
AcDbLine
62
7
6
CONTINUOUS
10
7.0977766050
20
-12.5096799218
11
-4.5022233950
21
-12.5096799218
0
LINE
5
224
100
AcDbEntity
8
0
100
AcDbLine
62
7
6
CONTINUOUS
10
7.0977766050
20
-12.1096799218
11
-4.5022233950
21
-12.1096799218
0
LINE
5
225
100
AcDbEntity
8
0
100
AcDbLine
62
7
6
CONTINUOUS
10
7.0977766050
20
-11.7096799218
11
-4.5022233950
21
-11.7096799218
0
LINE
5
226
100
AcDbEntity
8
0
100
AcDbLine
62
7
6
CONTINUOUS
10
7.0977766050
20
-11.3096799218
11
-4.5022233950
21
-11.3096799218
0
LINE
5
227
100
AcDbEntity
8
0
100
AcDbLine
62
7
6
CONTINUOUS
10
7.0977766050
20
-10.9096799218
11
-4.5022233950
21
-10.9096799218
0
LINE
5
228
100
AcDbEntity
8
0
100
AcDbLine
62
7
6
CONTINUOUS
10
-2.1022233950
20
-14.1096799218
11
-4.5022233950
21
-11.7096799218
0
LINE
5
229
100
AcDbEntity
8
0
100
AcDbLine
62
7
6
CONTINUOUS
10
-1.7022233950
20
-14.1096799218
11
-4.5022233950
21
-11.3096799218
0
LINE
5
22A
100
AcDbEntity
8
0
100
AcDbLine
62
9
6
CONTINUOUS
10
-5.6022233950
20
-10.1596266141
11
-5.6057293732
21
-10.1561206359
0
LINE
5
22B
100
AcDbEntity
8
0
100
AcDbLine
62
7
6
CONTINUOUS
10
-1.3022233950
20
-14.1096799218
11
-4.5022233950
21
-10.9096799218
0
LINE
5
22C
100
AcDbEntity
8
0
100
AcDbLine
62
7
6
CONTINUOUS
10
-0.9022233950
20
-14.1096799218
11
-4.5022233950
21
-10.5096799218
0
LINE
5
22D
100
AcDbEntity
8
0
100
AcDbLine
62
7
6
CONTINUOUS
10
-0.5022233950
20
-14.1096799218
11
-4.5022233950
21
-10.1096799218
0
LINE
5
22E
100
AcDbEntity
8
0
100
AcDbLine
62
7
6
CONTINUOUS
10
-9.8022233950
20
-20.7098017657
11
-9.8022233950
21
21.3904419221
0
LINE
5
22F
100
AcDbEntity
8
0
100
AcDbLine
62
7
6
CONTINUOUS
10
-9.3022233950
20
-5.6398115064
11
-9.3022233950
21
6.3204516629
0
LINE
5
230
100
AcDbEntity
8
0
100
AcDbLine
62
7
6
CONTINUOUS
10
-8.6022233950
20
-19.7096799218
11
-8.6022233950
21
20.3903200782
0
LINE
5
231
100
AcDbEntity
8
0
100
AcDbLine
62
9
6
CONTINUOUS
10
-8.3022233950
20
20.6903200782
11
-8.3022233950
21
-20.0096799218
0
LINE
5
232
100
AcDbEntity
8
0
100
AcDbLine
62
7
6
CONTINUOUS
10
7.0977766050
20
-10.5096799218
11
-4.5022233950
21
-10.5096799218
0
LINE
5
233
100
AcDbEntity
8
0
100
AcDbLine
62
9
6
CONTINUOUS
10
8.4012749678
20
-10.1561206359
11
8.2012825832
21
-10.1561206359
0
LINE
5
234
100
AcDbEntity
8
0
100
AcDbLine
62
9
6
CONTINUOUS
10
-5.8057217578
20
-10.1561206359
11
-5.6057293732
21
-10.1561206359
0
LINE
5
235
100
AcDbEntity
8
0
100
AcDbLine
62
7
6
CONTINUOUS
10
7.0977766050
20
-10.1096799218
11
-4.5022233950
21
-10.1096799218
0
LINE
5
236
100
AcDbEntity
8
0
100
AcDbLine
62
7
6
CONTINUOUS
10
7.0977766050
20
-9.7096799218
11
-4.5022233950
21
-9.7096799218
0
LINE
5
237
100
AcDbEntity
8
0
100
AcDbLine
62
7
6
CONTINUOUS
10
-0.1022233950
20
-14.1096799218
11
-4.5022233950
21
-9.7096799218
0
LINE
5
238
100
AcDbEntity
8
0
100
AcDbLine
62
7
6
CONTINUOUS
10
0.2977766050
20
-14.1096799218
11
-4.1022233950
21
-9.7096799218
0
LINE
5
239
100
AcDbEntity
8
0
100
AcDbLine
62
7
6
CONTINUOUS
10
0.6977766050
20
-14.1096799218
11
-3.7022233950
21
-9.7096799218
0
LINE
5
23A
100
AcDbEntity
8
0
100
AcDbLine
62
7
6
CONTINUOUS
10
1.0977766050
20
-14.1096799218
11
-3.3022233950
21
-9.7096799218
0
LINE
5
23B
100
AcDbEntity
8
0
100
AcDbLine
62
9
6
CONTINUOUS
10
-4.2022767027
20
-8.7596799218
11
-4.2057826809
21
-8.7561739436
0
LINE
5
23C
100
AcDbEntity
8
0
100
AcDbLine
62
7
6
CONTINUOUS
10
1.4977766050
20
-14.1096799218
11
-2.9022233950
21
-9.7096799218
0
LINE
5
23D
100
AcDbEntity
8
0
100
AcDbLine
62
7
6
CONTINUOUS
10
1.8977766050
20
-14.1096799218
11
-2.5022233950
21
-9.7096799218
0
LINE
5
23E
100
AcDbEntity
8
0
100
AcDbLine
62
7
6
CONTINUOUS
10
-4.2022233950
20
-8.8596799218
11
6.7977766050
21
-8.8596799218
0
LINE
5
23F
100
AcDbEntity
8
0
100
AcDbLine
62
7
6
CONTINUOUS
10
-4.2022767027
20
-8.7596799218
11
6.7978299127
21
-8.7596799218
0
LINE
5
240
100
AcDbEntity
8
0
100
AcDbLine
62
7
6
CONTINUOUS
10
-4.2057826809
20
-8.7561739436
11
6.8013358909
21
-8.7561739436
0
LINE
5
241
100
AcDbEntity
8
0
100
AcDbLine
62
9
6
CONTINUOUS
10
-4.2057826809
20
-8.5561815590
11
6.8013358909
21
-8.5561815590
0
LINE
5
242
100
AcDbEntity
8
0
100
AcDbLine
62
7
6
CONTINUOUS
10
2.2977766050
20
-14.1096799218
11
-2.1022233950
21
-9.7096799218
0
LINE
5
243
100
AcDbEntity
8
0
100
AcDbLine
62
7
6
CONTINUOUS
10
2.6977766050
20
-14.1096799218
11
-1.7022233950
21
-9.7096799218
0
LINE
5
244
100
AcDbEntity
8
0
100
AcDbLine
62
7
6
CONTINUOUS
10
3.0977766050
20
-14.1096799218
11
-1.3022233950
21
-9.7096799218
0
LINE
5
245
100
AcDbEntity
8
0
100
AcDbLine
62
7
6
CONTINUOUS
10
3.4977766050
20
-14.1096799218
11
-0.9022233950
21
-9.7096799218
0
LINE
5
246
100
AcDbEntity
8
0
100
AcDbLine
62
7
6
CONTINUOUS
10
3.8977766050
20
-14.1096799218
11
-0.5022233950
21
-9.7096799218
0
LINE
5
247
100
AcDbEntity
8
0
100
AcDbLine
62
7
6
CONTINUOUS
10
4.2977766050
20
-14.1096799218
11
-0.1022233950
21
-9.7096799218
0
LINE
5
248
100
AcDbEntity
8
0
100
AcDbLine
62
9
6
CONTINUOUS
10
-5.8057217578
20
-13.6632392077
11
-5.8057217578
21
-10.1561206359
0
LINE
5
249
100
AcDbEntity
8
0
100
AcDbLine
62
7
6
CONTINUOUS
10
-5.7022233950
20
20.6903200782
11
-5.7022233950
21
20.2903200782
0
LINE
5
24A
100
AcDbEntity
8
0
100
AcDbLine
62
7
6
CONTINUOUS
10
-5.7022233950
20
-20.0096799218
11
-5.7022233950
21
-19.6096799218
0
LINE
5
24B
100
AcDbEntity
8
0
100
AcDbLine
62
7
6
CONTINUOUS
10
-5.6057293732
20
-13.6632392077
11
-5.6057293732
21
-10.1561206359
0
LINE
5
24C
100
AcDbEntity
8
0
100
AcDbLine
62
7
6
CONTINUOUS
10
-5.6022233950
20
-13.6597332295
11
-5.6022233950
21
-10.1596266141
0
LINE
5
24D
100
AcDbEntity
8
0
100
AcDbLine
62
7
6
CONTINUOUS
10
-5.5022233950
20
-13.6596799218
11
-5.5022233950
21
-10.1596799218
0
LINE
5
24E
100
AcDbEntity
8
0
100
AcDbLine
62
7
6
CONTINUOUS
10
-5.1022233950
20
20.6903200782
11
-5.1022233950
21
20.2903200782
0
LINE
5
24F
100
AcDbEntity
8
0
100
AcDbLine
62
7
6
CONTINUOUS
10
-5.1022233950
20
-20.0096799218
11
-5.1022233950
21
-19.6096799218
0
LINE
5
250
100
AcDbEntity
8
0
100
AcDbLine
62
7
6
CONTINUOUS
10
-4.0904192769
20
19.5985257582
11
-4.0799470355
21
19.7671747598
0
LINE
5
251
100
AcDbEntity
8
0
100
AcDbLine
62
7
6
CONTINUOUS
10
4.6977766050
20
-14.1096799218
11
0.2977766050
21
-9.7096799218
0
LINE
5
252
100
AcDbEntity
8
0
100
AcDbLine
62
7
6
CONTINUOUS
10
5.0977766050
20
-14.1096799218
11
0.6977766050
21
-9.7096799218
0
LINE
5
253
100
AcDbEntity
8
0
100
AcDbLine
62
7
6
CONTINUOUS
10
5.4977766050
20
-14.1096799218
11
1.0977766050
21
-9.7096799218
0
LINE
5
254
100
AcDbEntity
8
0
100
AcDbLine
62
9
6
CONTINUOUS
10
6.7978299127
20
-15.0596799218
11
6.8013358909
21
-15.0631859000
0
LINE
5
255
100
AcDbEntity
8
0
100
AcDbLine
62
7
6
CONTINUOUS
10
5.8977766050
20
-14.1096799218
11
1.4977766050
21
-9.7096799218
0
LINE
5
256
100
AcDbEntity
8
0
100
AcDbLine
62
7
6
CONTINUOUS
10
6.2977766050
20
-14.1096799218
11
1.8977766050
21
-9.7096799218
0
LINE
5
257
100
AcDbEntity
8
0
100
AcDbLine
62
7
6
CONTINUOUS
10
6.6977766050
20
-14.1096799218
11
2.2977766050
21
-9.7096799218
0
LINE
5
258
100
AcDbEntity
8
0
100
AcDbLine
62
7
6
CONTINUOUS
10
-4.5022233950
20
-9.7096799218
11
-4.5022233950
21
-14.1096799218
0
LINE
5
259
100
AcDbEntity
8
0
100
AcDbLine
62
9
6
CONTINUOUS
10
-4.2057826809
20
-8.5561815590
11
-4.2057826809
21
-8.7561739436
0
LINE
5
25A
100
AcDbEntity
8
0
100
AcDbLine
62
9
6
CONTINUOUS
10
-4.2057826809
20
-15.2631782846
11
-4.2057826809
21
-15.0631859000
0
LINE
5
25B
100
AcDbEntity
8
0
100
AcDbLine
62
7
6
CONTINUOUS
10
-4.1022233950
20
20.1903200782
11
-4.1022233950
21
19.2403200782
0
LINE
5
25C
100
AcDbEntity
8
0
100
AcDbLine
62
7
6
CONTINUOUS
10
-4.1022233950
20
-14.1096799218
11
-4.1022233950
21
-9.7096799218
0
LINE
5
25D
100
AcDbEntity
8
0
100
AcDbLine
62
7
6
CONTINUOUS
10
-4.0904192769
20
19.2403200782
11
-4.0904192769
21
19.5985257582
0
LINE
5
25E
100
AcDbEntity
8
0
100
AcDbLine
62
7
6
CONTINUOUS
10
-4.0799470355
20
19.7671747598
11
-4.0799470355
21
20.6903200782
0
LINE
5
25F
100
AcDbEntity
8
0
100
AcDbLine
62
9
6
CONTINUOUS
10
-3.7904307000
20
19.2403200782
11
-3.7904307000
21
19.6403200782
0
LINE
5
260
100
AcDbEntity
8
0
100
AcDbLine
62
9
6
CONTINUOUS
10
-3.7799584586
20
19.8089690799
11
-3.7799584586
21
20.6903200782
0
LINE
5
261
100
AcDbEntity
8
0
100
AcDbLine
62
7
6
CONTINUOUS
10
-3.7022233950
20
-14.1096799218
11
-3.7022233950
21
-9.7096799218
0
LINE
5
262
100
AcDbEntity
8
0
100
AcDbLine
62
9
6
CONTINUOUS
10
-3.6244883314
20
20.6903200782
11
-3.6244883314
21
19.8089690799
0
LINE
5
263
100
AcDbEntity
8
0
100
AcDbLine
62
9
6
CONTINUOUS
10
-3.6140160900
20
19.6403200782
11
-3.6140160900
21
19.2403200782
0
LINE
5
264
100
AcDbEntity
8
0
100
AcDbLine
62
7
6
CONTINUOUS
10
-3.4028063950
20
3.8653200782
11
-3.4028063950
21
1.8153200782
0
LINE
5
265
100
AcDbEntity
8
0
100
AcDbLine
62
7
6
CONTINUOUS
10
-2.4254173950
20
9.2903700782
11
-2.9781113950
21
7.5689070782
0
LINE
5
266
100
AcDbEntity
8
0
100
AcDbLine
62
7
6
CONTINUOUS
10
-2.7280983950
20
6.7902570782
11
-1.9253923950
21
9.2903700782
0
LINE
5
267
100
AcDbEntity
8
0
100
AcDbLine
62
7
6
CONTINUOUS
10
7.0977766050
20
-14.1096799218
11
2.6977766050
21
-9.7096799218
0
LINE
5
268
100
AcDbEntity
8
0
100
AcDbLine
62
7
6
CONTINUOUS
10
7.0977766050
20
-13.7096799218
11
3.0977766050
21
-9.7096799218
0
LINE
5
269
100
AcDbEntity
8
0
100
AcDbLine
62
7
6
CONTINUOUS
10
7.0977766050
20
-13.3096799218
11
3.4977766050
21
-9.7096799218
0
LINE
5
26A
100
AcDbEntity
8
0
100
AcDbLine
62
7
6
CONTINUOUS
10
7.0977766050
20
-12.9096799218
11
3.8977766050
21
-9.7096799218
0
LINE
5
26B
100
AcDbEntity
8
0
100
AcDbLine
62
9
6
CONTINUOUS
10
8.1977766050
20
-13.6597332295
11
8.2012825832
21
-13.6632392077
0
LINE
5
26C
100
AcDbEntity
8
0
100
AcDbLine
62
7
6
CONTINUOUS
10
7.0977766050
20
-12.5096799218
11
4.2977766050
21
-9.7096799218
0
LINE
5
26D
100
AcDbEntity
8
0
100
AcDbLine
62
7
6
CONTINUOUS
10
7.0977766050
20
-12.1096799218
11
4.6977766050
21
-9.7096799218
0
LINE
5
26E
100
AcDbEntity
8
0
100
AcDbLine
62
7
6
CONTINUOUS
10
-3.3244997545
20
19.7671747598
11
-3.3140275131
21
19.5985257582
0
LINE
5
26F
100
AcDbEntity
8
0
100
AcDbLine
62
7
6
CONTINUOUS
10
-3.3244997545
20
20.6903200782
11
-3.3244997545
21
19.7671747598
0
LINE
5
270
100
AcDbEntity
8
0
100
AcDbLine
62
7
6
CONTINUOUS
10
-3.3140275131
20
19.5985257582
11
-3.3140275131
21
19.2403200782
0
LINE
5
271
100
AcDbEntity
8
0
100
AcDbLine
62
7
6
CONTINUOUS
10
-3.3022233950
20
20.1903200782
11
-3.3022233950
21
19.2403200782
0
LINE
5
272
100
AcDbEntity
8
0
100
AcDbLine
62
7
6
CONTINUOUS
10
-3.3022233950
20
-14.1096799218
11
-3.3022233950
21
-9.7096799218
0
LINE
5
273
100
AcDbEntity
8
0
100
AcDbLine
62
7
6
CONTINUOUS
10
-2.9626883950
20
1.8153200782
11
-2.9626883950
21
2.6047550782
0
LINE
5
274
100
AcDbEntity
8
0
100
AcDbLine
62
7
6
CONTINUOUS
10
-2.9626883950
20
2.9454310782
11
-2.9626883950
21
3.5246440782
0
LINE
5
275
100
AcDbEntity
8
0
100
AcDbLine
62
7
6
CONTINUOUS
10
-2.9022233950
20
-14.1096799218
11
-2.9022233950
21
-9.7096799218
0
LINE
5
276
100
AcDbEntity
8
0
100
AcDbLine
62
7
6
CONTINUOUS
10
-2.5022233950
20
-14.1096799218
11
-2.5022233950
21
-9.7096799218
0
LINE
5
277
100
AcDbEntity
8
0
100
AcDbLine
62
7
6
CONTINUOUS
10
-2.4877053950
20
-0.7278173444
11
-2.4877053950
21
-0.9010939218
0
LINE
5
278
100
AcDbEntity
8
0
100
AcDbLine
62
7
6
CONTINUOUS
10
-2.1022233950
20
-14.1096799218
11
-2.1022233950
21
-9.7096799218
0
LINE
5
279
100
AcDbEntity
8
0
100
AcDbLine
62
7
6
CONTINUOUS
10
-2.0635673950
20
-0.9010939218
11
-2.0635673950
21
-2.1812659218
0
LINE
5
27A
100
AcDbEntity
8
0
100
AcDbLine
62
7
6
CONTINUOUS
10
-1.8204643950
20
-2.1812659218
11
-1.8204643950
21
-0.3812659218
0
LINE
5
27B
100
AcDbEntity
8
0
100
AcDbLine
62
7
6
CONTINUOUS
10
7.0977766050
20
-11.7096799218
11
5.0977766050
21
-9.7096799218
0
LINE
5
27C
100
AcDbEntity
8
0
100
AcDbLine
62
7
6
CONTINUOUS
10
7.0977766050
20
-11.3096799218
11
5.4977766050
21
-9.7096799218
0
LINE
5
27D
100
AcDbEntity
8
0
100
AcDbLine
62
7
6
CONTINUOUS
10
7.0977766050
20
-10.9096799218
11
5.8977766050
21
-9.7096799218
0
LINE
5
27E
100
AcDbEntity
8
0
100
AcDbLine
62
7
6
CONTINUOUS
10
7.0977766050
20
-10.5096799218
11
6.2977766050
21
-9.7096799218
0
LINE
5
27F
100
AcDbEntity
8
0
100
AcDbLine
62
7
6
CONTINUOUS
10
7.0977766050
20
-10.1096799218
11
6.6977766050
21
-9.7096799218
0
LINE
5
280
100
AcDbEntity
8
0
100
AcDbLine
62
7
6
CONTINUOUS
10
-1.7022233950
20
-14.1096799218
11
-1.7022233950
21
-9.7096799218
0
LINE
5
281
100
AcDbEntity
8
0
100
AcDbLine
62
7
6
CONTINUOUS
10
-1.6565293950
20
3.8653200782
11
-1.6565293950
21
1.8153200782
0
LINE
5
282
100
AcDbEntity
8
0
100
AcDbLine
62
7
6
CONTINUOUS
10
-1.5920483950
20
9.2903700782
11
-1.5920543950
21
6.7902510782
0
LINE
5
283
100
AcDbEntity
8
0
100
AcDbLine
62
7
6
CONTINUOUS
10
-1.3022233950
20
-14.1096799218
11
-1.3022233950
21
-9.7096799218
0
LINE
5
284
100
AcDbEntity
8
0
100
AcDbLine
62
7
6
CONTINUOUS
10
-1.2333953950
20
-1.5133779218
11
-1.2333953950
21
-1.7390249218
0
LINE
5
285
100
AcDbEntity
8
0
100
AcDbLine
62
7
6
CONTINUOUS
10
-1.2164113950
20
2.1559960782
11
-1.2164113950
21
3.8653200782
0
LINE
5
286
100
AcDbEntity
8
0
100
AcDbLine
62
7
6
CONTINUOUS
10
-1.0920363950
20
6.7902570782
11
-1.0920293950
21
9.2903700782
0
LINE
5
287
100
AcDbEntity
8
0
100
AcDbLine
62
7
6
CONTINUOUS
10
-0.9022233950
20
-14.1096799218
11
-0.9022233950
21
-9.7096799218
0
LINE
5
288
100
AcDbEntity
8
0
100
AcDbLine
62
7
6
CONTINUOUS
10
-0.5920293950
20
9.2903700782
11
-0.5920293950
21
6.7902570782
0
LINE
5
289
100
AcDbEntity
8
0
100
AcDbLine
62
7
6
CONTINUOUS
10
-0.5022233950
20
-14.1096799218
11
-0.5022233950
21
-9.7096799218
0
LINE
5
28A
100
AcDbEntity
8
0
100
AcDbLine
62
7
6
CONTINUOUS
10
-0.4579123950
20
1.8153200782
11
-0.4579123950
21
2.1559960782
0
LINE
5
28B
100
AcDbEntity
8
0
100
AcDbLine
62
7
6
CONTINUOUS
10
-0.4420153950
20
-0.7214329218
11
-0.4420153950
21
-1.5373009218
0
LINE
5
28C
100
AcDbEntity
8
0
100
AcDbLine
62
7
6
CONTINUOUS
10
-0.4394293950
20
-1.7390249218
11
-0.4394293950
21
-2.1812659218
0
LINE
5
28D
100
AcDbEntity
8
0
100
AcDbLine
62
7
6
CONTINUOUS
10
-0.2118433950
20
-2.1812659218
11
-0.2118433950
21
-1.7390249218
0
LINE
5
28E
100
AcDbEntity
8
0
100
AcDbLine
62
7
6
CONTINUOUS
10
-0.2118433950
20
-1.5373009218
11
-0.2118433950
21
-0.3683349218
0
LINE
5
28F
100
AcDbEntity
8
0
100
AcDbLine
62
7
6
CONTINUOUS
10
1.0976016050
20
9.2903700782
11
0.6307326050
21
7.6622070782
0
LINE
5
290
100
AcDbEntity
8
0
100
AcDbLine
62
7
6
CONTINUOUS
10
0.8807326050
20
6.7902640782
11
1.3534706050
21
8.4389140782
0
LINE
5
291
100
AcDbEntity
8
0
100
AcDbLine
62
7
6
CONTINUOUS
10
0.4502506050
20
2.5904830782
11
0.7542266050
21
3.4735870782
0
LINE
5
292
100
AcDbEntity
8
0
100
AcDbLine
62
7
6
CONTINUOUS
10
0.1834026050
20
1.8153200782
11
0.3366916050
21
2.2498060782
0
LINE
5
293
100
AcDbEntity
8
0
100
AcDbLine
62
7
6
CONTINUOUS
10
0.5042526050
20
3.8653200782
11
-0.2368113950
21
1.8153200782
0
LINE
5
294
100
AcDbEntity
8
0
100
AcDbLine
62
7
6
CONTINUOUS
10
-2.0635673950
20
-2.1812659218
11
-1.8204643950
21
-2.1812659218
0
LINE
5
295
100
AcDbEntity
8
0
100
AcDbLine
62
7
6
CONTINUOUS
10
-0.4394293950
20
-2.1812659218
11
-0.2118433950
21
-2.1812659218
0
LINE
5
296
100
AcDbEntity
8
0
100
AcDbLine
62
7
6
CONTINUOUS
10
1.6579837139
20
-2.1812659218
11
2.8993636050
21
-2.1812659218
0
LINE
5
297
100
AcDbEntity
8
0
100
AcDbLine
62
7
6
CONTINUOUS
10
2.8993636050
20
-1.9666109218
11
1.9114318515
21
-1.9666109218
0
LINE
5
298
100
AcDbEntity
8
0
100
AcDbLine
62
7
6
CONTINUOUS
10
-1.2333953950
20
-1.7390249218
11
-0.4394293950
21
-1.7390249218
0
LINE
5
299
100
AcDbEntity
8
0
100
AcDbLine
62
7
6
CONTINUOUS
10
-0.2118433950
20
-1.7390249218
11
0.0545356050
21
-1.7390249218
0
LINE
5
29A
100
AcDbEntity
8
0
100
AcDbLine
62
7
6
CONTINUOUS
10
0.0545356050
20
-1.5373009218
11
-0.2118433950
21
-1.5373009218
0
LINE
5
29B
100
AcDbEntity
8
0
100
AcDbLine
62
7
6
CONTINUOUS
10
-0.4420153950
20
-1.5373009218
11
-1.0233873950
21
-1.5373009218
0
LINE
5
29C
100
AcDbEntity
8
0
100
AcDbLine
62
7
6
CONTINUOUS
10
-4.0308363950
20
9.2903700782
11
-3.2281363950
21
6.7902510782
0
LINE
5
29D
100
AcDbEntity
8
0
100
AcDbLine
62
7
6
CONTINUOUS
10
-2.9781113950
20
7.5689070782
11
-3.5308113950
21
9.2903700782
0
LINE
5
29E
100
AcDbEntity
8
0
100
AcDbLine
62
7
6
CONTINUOUS
10
-0.1022233950
20
-14.1096799218
11
-0.1022233950
21
-9.7096799218
0
LINE
5
29F
100
AcDbEntity
8
0
100
AcDbLine
62
7
6
CONTINUOUS
10
-0.0920113950
20
6.7902570782
11
-0.0920113950
21
8.4389140782
0
LINE
5
2A0
100
AcDbEntity
8
0
100
AcDbLine
62
7
6
CONTINUOUS
10
0.0545356050
20
-1.7390249218
11
0.0545356050
21
-1.5373009218
0
LINE
5
2A1
100
AcDbEntity
8
0
100
AcDbLine
62
7
6
CONTINUOUS
10
0.2977766050
20
-14.1096799218
11
0.2977766050
21
-9.7096799218
0
LINE
5
2A2
100
AcDbEntity
8
0
100
AcDbLine
62
7
6
CONTINUOUS
10
0.6977766050
20
-14.1096799218
11
0.6977766050
21
-9.7096799218
0
LINE
5
2A3
100
AcDbEntity
8
0
100
AcDbLine
62
7
6
CONTINUOUS
10
1.0977766050
20
-14.1096799218
11
1.0977766050
21
-9.7096799218
0
LINE
5
2A4
100
AcDbEntity
8
0
100
AcDbLine
62
7
6
CONTINUOUS
10
1.3534706050
20
8.4389140782
11
1.3534766050
21
6.7902570782
0
LINE
5
2A5
100
AcDbEntity
8
0
100
AcDbLine
62
7
6
CONTINUOUS
10
1.4977766050
20
-14.1096799218
11
1.4977766050
21
-9.7096799218
0
LINE
5
2A6
100
AcDbEntity
8
0
100
AcDbLine
62
7
6
CONTINUOUS
10
2.9895326050
20
9.2903760782
11
2.1868396050
21
6.7902570782
0
LINE
5
2A7
100
AcDbEntity
8
0
100
AcDbLine
62
7
6
CONTINUOUS
10
2.6868576050
20
6.7902640782
11
2.8447146050
21
7.2819260782
0
LINE
5
2A8
100
AcDbEntity
8
0
100
AcDbLine
62
7
6
CONTINUOUS
10
2.9972326050
20
7.7569450782
11
3.2395516050
21
8.5117200782
0
LINE
5
2A9
100
AcDbEntity
8
0
100
AcDbLine
62
7
6
CONTINUOUS
10
-1.0233873950
20
-1.5373009218
11
-0.4420153950
21
-0.7214329218
0
LINE
5
2AA
100
AcDbEntity
8
0
100
AcDbLine
62
7
6
CONTINUOUS
10
-0.4040303950
20
-0.3683349218
11
-1.2333953950
21
-1.5133779218
0
LINE
5
2AB
100
AcDbEntity
8
0
100
AcDbLine
62
7
6
CONTINUOUS
10
4.0897961307
20
-0.8211098795
11
4.3075571226
21
-0.8035888801
0
LINE
5
2AC
100
AcDbEntity
8
0
100
AcDbLine
62
7
6
CONTINUOUS
10
1.7019492049
20
-1.0148869218
11
1.9347078266
21
-1.0148869218
0
LINE
5
2AD
100
AcDbEntity
8
0
100
AcDbLine
62
7
6
CONTINUOUS
10
-2.4877053950
20
-0.9010939218
11
-2.0635673950
21
-0.9010939218
0
LINE
5
2AE
100
AcDbEntity
8
0
100
AcDbLine
62
7
6
CONTINUOUS
10
-1.8204643950
20
-0.3812659218
11
-2.0002463650
21
-0.3812659218
0
LINE
5
2AF
100
AcDbEntity
8
0
100
AcDbLine
62
7
6
CONTINUOUS
10
-0.2118433950
20
-0.3683349218
11
-0.4040303950
21
-0.3683349218
0
LINE
5
2B0
100
AcDbEntity
8
0
100
AcDbLine
62
7
6
CONTINUOUS
10
1.8534956050
20
6.7902570782
11
1.8534956050
21
9.2903700782
0
LINE
5
2B1
100
AcDbEntity
8
0
100
AcDbLine
62
7
6
CONTINUOUS
10
1.8977766050
20
-14.1096799218
11
1.8977766050
21
-9.7096799218
0
LINE
5
2B2
100
AcDbEntity
8
0
100
AcDbLine
62
7
6
CONTINUOUS
10
1.9636236050
20
3.8653200782
11
1.9636236050
21
1.8153200782
0
LINE
5
2B3
100
AcDbEntity
8
0
100
AcDbLine
62
7
6
CONTINUOUS
10
2.2977766050
20
-14.1096799218
11
2.2977766050
21
-9.7096799218
0
LINE
5
2B4
100
AcDbEntity
8
0
100
AcDbLine
62
7
6
CONTINUOUS
10
2.3753516050
20
1.8153200782
11
2.3753516050
21
3.5310310782
0
LINE
5
2B5
100
AcDbEntity
8
0
100
AcDbLine
62
7
6
CONTINUOUS
10
2.6977766050
20
-14.1096799218
11
2.6977766050
21
-9.7096799218
0
LINE
5
2B6
100
AcDbEntity
8
0
100
AcDbLine
62
7
6
CONTINUOUS
10
2.8993636050
20
-2.1812659218
11
2.8993636050
21
-1.9666109218
0
LINE
5
2B7
100
AcDbEntity
8
0
100
AcDbLine
62
7
6
CONTINUOUS
10
3.0977766050
20
-14.1096799218
11
3.0977766050
21
-9.7096799218
0
LINE
5
2B8
100
AcDbEntity
8
0
100
AcDbLine
62
7
6
CONTINUOUS
10
-3.4028063950
20
1.8153200782
11
-2.9626883950
21
1.8153200782
0
LINE
5
2B9
100
AcDbEntity
8
0
100
AcDbLine
62
7
6
CONTINUOUS
10
-1.6565293950
20
1.8153200782
11
-0.4579123950
21
1.8153200782
0
LINE
5
2BA
100
AcDbEntity
8
0
100
AcDbLine
62
7
6
CONTINUOUS
10
-0.2368113950
20
1.8153200782
11
0.1834026050
21
1.8153200782
0
LINE
5
2BB
100
AcDbEntity
8
0
100
AcDbLine
62
7
6
CONTINUOUS
10
1.2963876050
20
1.8153200782
11
1.7393606050
21
1.8153200782
0
LINE
5
2BC
100
AcDbEntity
8
0
100
AcDbLine
62
7
6
CONTINUOUS
10
1.9636236050
20
1.8153200782
11
2.3753516050
21
1.8153200782
0
LINE
5
2BD
100
AcDbEntity
8
0
100
AcDbLine
62
7
6
CONTINUOUS
10
3.1902446050
20
1.8153200782
11
3.8148966050
21
1.8153200782
0
LINE
5
2BE
100
AcDbEntity
8
0
100
AcDbLine
62
7
6
CONTINUOUS
10
4.0221876050
20
1.8153200782
11
4.4424016050
21
1.8153200782
0
LINE
5
2BF
100
AcDbEntity
8
0
100
AcDbLine
62
7
6
CONTINUOUS
10
5.5555416050
20
1.8153200782
11
5.9983596050
21
1.8153200782
0
LINE
5
2C0
100
AcDbEntity
8
0
100
AcDbLine
62
7
6
CONTINUOUS
10
-0.4579123950
20
2.1559960782
11
-1.2164113950
21
2.1559960782
0
LINE
5
2C1
100
AcDbEntity
8
0
100
AcDbLine
62
7
6
CONTINUOUS
10
1.7393606050
20
1.8153200782
11
1.0266856050
21
3.8653200782
0
LINE
5
2C2
100
AcDbEntity
8
0
100
AcDbLine
62
7
6
CONTINUOUS
10
1.1487306050
20
2.2498060782
11
1.2963876050
21
1.8153200782
0
LINE
5
2C3
100
AcDbEntity
8
0
100
AcDbLine
62
7
6
CONTINUOUS
10
0.7542266050
20
3.4735870782
11
1.0380256050
21
2.5904830782
0
LINE
5
2C4
100
AcDbEntity
8
0
100
AcDbLine
62
7
6
CONTINUOUS
10
-0.0920113950
20
8.4389140782
11
0.3807266050
21
6.7902570782
0
LINE
5
2C5
100
AcDbEntity
8
0
100
AcDbLine
62
7
6
CONTINUOUS
10
0.6307326050
20
7.6622070782
11
0.1638636050
21
9.2903700782
0
LINE
5
2C6
100
AcDbEntity
8
0
100
AcDbLine
62
7
6
CONTINUOUS
10
3.4031676050
20
3.8653200782
11
3.4031676050
21
2.2407920782
0
LINE
5
2C7
100
AcDbEntity
8
0
100
AcDbLine
62
7
6
CONTINUOUS
10
3.4977766050
20
-14.1096799218
11
3.4977766050
21
-9.7096799218
0
LINE
5
2C8
100
AcDbEntity
8
0
100
AcDbLine
62
7
6
CONTINUOUS
10
3.8148966050
20
1.8153200782
11
3.8148966050
21
3.8653200782
0
LINE
5
2C9
100
AcDbEntity
8
0
100
AcDbLine
62
7
6
CONTINUOUS
10
3.8977766050
20
-14.1096799218
11
3.8977766050
21
-9.7096799218
0
LINE
5
2CA
100
AcDbEntity
8
0
100
AcDbLine
62
7
6
CONTINUOUS
10
4.2977766050
20
-14.1096799218
11
4.2977766050
21
-9.7096799218
0
LINE
5
2CB
100
AcDbEntity
8
0
100
AcDbLine
62
7
6
CONTINUOUS
10
4.6256266050
20
9.2903760782
11
4.6256266050
21
6.7902640782
0
LINE
5
2CC
100
AcDbEntity
8
0
100
AcDbLine
62
7
6
CONTINUOUS
10
4.6977766050
20
-14.1096799218
11
4.6977766050
21
-9.7096799218
0
LINE
5
2CD
100
AcDbEntity
8
0
100
AcDbLine
62
7
6
CONTINUOUS
10
5.9095807231
20
19.5985257582
11
5.9200529645
21
19.7671747598
0
LINE
5
2CE
100
AcDbEntity
8
0
100
AcDbLine
62
7
6
CONTINUOUS
10
4.7093266050
20
2.5904830782
11
5.0132636050
21
3.4734710782
0
LINE
5
2CF
100
AcDbEntity
8
0
100
AcDbLine
62
7
6
CONTINUOUS
10
4.4424016050
20
1.8153200782
11
4.5957676050
21
2.2498060782
0
LINE
5
2D0
100
AcDbEntity
8
0
100
AcDbLine
62
7
6
CONTINUOUS
10
4.7633296050
20
3.8653200782
11
4.0221876050
21
1.8153200782
0
LINE
5
2D1
100
AcDbEntity
8
0
100
AcDbLine
62
7
6
CONTINUOUS
10
-4.5022233950
20
-10.1096799218
11
-4.1022233950
21
-9.7096799218
0
LINE
5
2D2
100
AcDbEntity
8
0
100
AcDbLine
62
7
6
CONTINUOUS
10
2.3248210614
20
-1.3203416202
11
2.0826874161
21
-1.4604413037
0
LINE
5
2D3
100
AcDbEntity
8
0
100
AcDbLine
62
7
6
CONTINUOUS
10
0.3366916050
20
2.2498060782
11
1.1487306050
21
2.2498060782
0
LINE
5
2D4
100
AcDbEntity
8
0
100
AcDbLine
62
7
6
CONTINUOUS
10
4.5957676050
20
2.2498060782
11
5.4078066050
21
2.2498060782
0
LINE
5
2D5
100
AcDbEntity
8
0
100
AcDbLine
62
7
6
CONTINUOUS
10
5.2970256050
20
2.5904830782
11
4.7093266050
21
2.5904830782
0
LINE
5
2D6
100
AcDbEntity
8
0
100
AcDbLine
62
7
6
CONTINUOUS
10
1.0380256050
20
2.5904830782
11
0.4502506050
21
2.5904830782
0
LINE
5
2D7
100
AcDbEntity
8
0
100
AcDbLine
62
7
6
CONTINUOUS
10
-2.9626883950
20
2.6047550782
11
-2.7754786464
21
2.6047550782
0
LINE
5
2D8
100
AcDbEntity
8
0
100
AcDbLine
62
7
6
CONTINUOUS
10
-2.7059356113
20
2.9454310782
11
-2.9626883950
21
2.9454310782
0
LINE
5
2D9
100
AcDbEntity
8
0
100
AcDbLine
62
7
6
CONTINUOUS
10
-2.9626883950
20
3.5246440782
11
-2.7059356239
21
3.5246440782
0
LINE
5
2DA
100
AcDbEntity
8
0
100
AcDbLine
62
7
6
CONTINUOUS
10
3.4031676050
20
2.2407920782
11
2.6166646050
21
3.8653200782
0
LINE
5
2DB
100
AcDbEntity
8
0
100
AcDbLine
62
7
6
CONTINUOUS
10
2.3753516050
20
3.5310310782
11
3.1902446050
21
1.8153200782
0
LINE
5
2DC
100
AcDbEntity
8
0
100
AcDbLine
62
7
6
CONTINUOUS
10
5.0977766050
20
-14.1096799218
11
5.0977766050
21
-9.7096799218
0
LINE
5
2DD
100
AcDbEntity
8
0
100
AcDbLine
62
7
6
CONTINUOUS
10
5.1187576050
20
8.2194700782
11
5.1187516050
21
8.8278580782
0
LINE
5
2DE
100
AcDbEntity
8
0
100
AcDbLine
62
7
6
CONTINUOUS
10
5.4977766050
20
-14.1096799218
11
5.4977766050
21
-9.7096799218
0
LINE
5
2DF
100
AcDbEntity
8
0
100
AcDbLine
62
7
6
CONTINUOUS
10
5.8977766050
20
20.1903200782
11
5.8977766050
21
19.2403200782
0
LINE
5
2E0
100
AcDbEntity
8
0
100
AcDbLine
62
7
6
CONTINUOUS
10
5.8977766050
20
-14.1096799218
11
5.8977766050
21
-9.7096799218
0
LINE
5
2E1
100
AcDbEntity
8
0
100
AcDbLine
62
7
6
CONTINUOUS
10
5.9095807231
20
19.2403200782
11
5.9095807231
21
19.5985257582
0
LINE
5
2E2
100
AcDbEntity
8
0
100
AcDbLine
62
7
6
CONTINUOUS
10
5.9200529645
20
19.7671747598
11
5.9200529645
21
20.6903200782
0
LINE
5
2E3
100
AcDbEntity
8
0
100
AcDbLine
62
9
6
CONTINUOUS
10
6.2095693000
20
19.2403200782
11
6.2095693000
21
19.6403200782
0
LINE
5
2E4
100
AcDbEntity
8
0
100
AcDbLine
62
9
6
CONTINUOUS
10
6.2200415414
20
19.8089690799
11
6.2200415414
21
20.6903200782
0
LINE
5
2E5
100
AcDbEntity
8
0
100
AcDbLine
62
7
6
CONTINUOUS
10
6.2977766050
20
-14.1096799218
11
6.2977766050
21
-9.7096799218
0
LINE
5
2E6
100
AcDbEntity
8
0
100
AcDbLine
62
9
6
CONTINUOUS
10
6.3755116686
20
20.6903200782
11
6.3755116686
21
19.8089690799
0
LINE
5
2E7
100
AcDbEntity
8
0
100
AcDbLine
62
9
6
CONTINUOUS
10
6.3859839100
20
19.6403200782
11
6.3859839100
21
19.2403200782
0
LINE
5
2E8
100
AcDbEntity
8
0
100
AcDbLine
62
7
6
CONTINUOUS
10
5.1256516050
20
6.7902640782
11
5.1257076050
21
7.7569510782
0
LINE
5
2E9
100
AcDbEntity
8
0
100
AcDbLine
62
7
6
CONTINUOUS
10
-4.5022233950
20
-10.5096799218
11
-3.7022233950
21
-9.7096799218
0
LINE
5
2EA
100
AcDbEntity
8
0
100
AcDbLine
62
7
6
CONTINUOUS
10
-4.5022233950
20
-10.9096799218
11
-3.3022233950
21
-9.7096799218
0
LINE
5
2EB
100
AcDbEntity
8
0
100
AcDbLine
62
7
6
CONTINUOUS
10
-4.5022233950
20
-11.3096799218
11
-2.9022233950
21
-9.7096799218
0
LINE
5
2EC
100
AcDbEntity
8
0
100
AcDbLine
62
7
6
CONTINUOUS
10
-4.5022233950
20
-11.7096799218
11
-2.5022233950
21
-9.7096799218
0
LINE
5
2ED
100
AcDbEntity
8
0
100
AcDbLine
62
7
6
CONTINUOUS
10
-4.5022233950
20
-12.1096799218
11
-2.1022233950
21
-9.7096799218
0
LINE
5
2EE
100
AcDbEntity
8
0
100
AcDbLine
62
7
6
CONTINUOUS
10
-4.5022233950
20
-12.5096799218
11
-1.7022233950
21
-9.7096799218
0
LINE
5
2EF
100
AcDbEntity
8
0
100
AcDbLine
62
9
6
CONTINUOUS
10
-5.6022233950
20
-13.6597332295
11
-5.6057293732
21
-13.6632392077
0
LINE
5
2F0
100
AcDbEntity
8
0
100
AcDbLine
62
7
6
CONTINUOUS
10
5.2857616050
20
3.8653200782
11
4.7633296050
21
3.8653200782
0
LINE
5
2F1
100
AcDbEntity
8
0
100
AcDbLine
62
7
6
CONTINUOUS
10
3.8148966050
20
3.8653200782
11
3.4031676050
21
3.8653200782
0
LINE
5
2F2
100
AcDbEntity
8
0
100
AcDbLine
62
7
6
CONTINUOUS
10
2.6166646050
20
3.8653200782
11
1.9636236050
21
3.8653200782
0
LINE
5
2F3
100
AcDbEntity
8
0
100
AcDbLine
62
7
6
CONTINUOUS
10
1.0266856050
20
3.8653200782
11
0.5042526050
21
3.8653200782
0
LINE
5
2F4
100
AcDbEntity
8
0
100
AcDbLine
62
7
6
CONTINUOUS
10
-1.2164113950
20
3.8653200782
11
-1.6565293950
21
3.8653200782
0
LINE
5
2F5
100
AcDbEntity
8
0
100
AcDbLine
62
7
6
CONTINUOUS
10
-2.7754786770
20
3.8653200782
11
-3.4028063950
21
3.8653200782
0
LINE
5
2F6
100
AcDbEntity
8
0
100
AcDbLine
62
7
6
CONTINUOUS
10
5.9983596050
20
1.8153200782
11
5.2857616050
21
3.8653200782
0
LINE
5
2F7
100
AcDbEntity
8
0
100
AcDbLine
62
7
6
CONTINUOUS
10
5.4078066050
20
2.2498060782
11
5.5555416050
21
1.8153200782
0
LINE
5
2F8
100
AcDbEntity
8
0
100
AcDbLine
62
7
6
CONTINUOUS
10
5.0132636050
20
3.4734710782
11
5.2970256050
21
2.5904830782
0
LINE
5
2F9
100
AcDbEntity
8
0
100
AcDbLine
62
7
6
CONTINUOUS
10
3.6344076050
20
7.2819260782
11
3.7922576050
21
6.7902640782
0
LINE
5
2FA
100
AcDbEntity
8
0
100
AcDbLine
62
7
6
CONTINUOUS
10
3.2395516050
20
8.5117200782
11
3.4818826050
21
7.7569450782
0
LINE
5
2FB
100
AcDbEntity
8
0
100
AcDbLine
62
7
6
CONTINUOUS
10
4.2922826050
20
6.7902570782
11
3.4895766050
21
9.2903760782
0
LINE
5
2FC
100
AcDbEntity
8
0
100
AcDbLine
62
7
6
CONTINUOUS
10
6.6755002455
20
19.7671747598
11
6.6859724869
21
19.5985257582
0
LINE
5
2FD
100
AcDbEntity
8
0
100
AcDbLine
62
7
6
CONTINUOUS
10
6.6755002455
20
20.6903200782
11
6.6755002455
21
19.7671747598
0
LINE
5
2FE
100
AcDbEntity
8
0
100
AcDbLine
62
7
6
CONTINUOUS
10
6.6859724869
20
19.5985257582
11
6.6859724869
21
19.2403200782
0
LINE
5
2FF
100
AcDbEntity
8
0
100
AcDbLine
62
7
6
CONTINUOUS
10
6.6977766050
20
20.1903200782
11
6.6977766050
21
19.2403200782
0
LINE
5
300
100
AcDbEntity
8
0
100
AcDbLine
62
7
6
CONTINUOUS
10
6.6977766050
20
-14.1096799218
11
6.6977766050
21
-9.7096799218
0
LINE
5
301
100
AcDbEntity
8
0
100
AcDbLine
62
9
6
CONTINUOUS
10
6.8013358909
20
-8.5561815590
11
6.8013358909
21
-8.7561739436
0
LINE
5
302
100
AcDbEntity
8
0
100
AcDbLine
62
9
6
CONTINUOUS
10
6.8013358909
20
-15.2631782846
11
6.8013358909
21
-15.0631859000
0
LINE
5
303
100
AcDbEntity
8
0
100
AcDbLine
62
7
6
CONTINUOUS
10
7.0977766050
20
-14.1096799218
11
7.0977766050
21
-9.7096799218
0
LINE
5
304
100
AcDbEntity
8
0
100
AcDbLine
62
7
6
CONTINUOUS
10
7.6977766050
20
20.6903200782
11
7.6977766050
21
20.2903200782
0
LINE
5
305
100
AcDbEntity
8
0
100
AcDbLine
62
7
6
CONTINUOUS
10
7.6977766050
20
-20.0096799218
11
7.6977766050
21
-19.6096799218
0
LINE
5
306
100
AcDbEntity
8
0
100
AcDbLine
62
7
6
CONTINUOUS
10
-4.5022233950
20
-12.9096799218
11
-1.3022233950
21
-9.7096799218
0
LINE
5
307
100
AcDbEntity
8
0
100
AcDbLine
62
7
6
CONTINUOUS
10
-4.5022233950
20
-13.3096799218
11
-0.9022233950
21
-9.7096799218
0
LINE
5
308
100
AcDbEntity
8
0
100
AcDbLine
62
7
6
CONTINUOUS
10
-4.5022233950
20
-13.7096799218
11
-0.5022233950
21
-9.7096799218
0
LINE
5
309
100
AcDbEntity
8
0
100
AcDbLine
62
7
6
CONTINUOUS
10
-4.5022233950
20
-14.1096799218
11
-0.1022233950
21
-9.7096799218
0
LINE
5
30A
100
AcDbEntity
8
0
100
AcDbLine
62
7
6
CONTINUOUS
10
-4.1022233950
20
-14.1096799218
11
0.2977766050
21
-9.7096799218
0
LINE
5
30B
100
AcDbEntity
8
0
100
AcDbLine
62
7
6
CONTINUOUS
10
-3.7022233950
20
-14.1096799218
11
0.6977766050
21
-9.7096799218
0
LINE
5
30C
100
AcDbEntity
8
0
100
AcDbLine
62
7
6
CONTINUOUS
10
6.0631956050
20
6.7902640782
11
6.6263896050
21
6.7902700782
0
LINE
5
30D
100
AcDbEntity
8
0
100
AcDbLine
62
7
6
CONTINUOUS
10
2.1868396050
20
6.7902570782
11
2.6868576050
21
6.7902640782
0
LINE
5
30E
100
AcDbEntity
8
0
100
AcDbLine
62
7
6
CONTINUOUS
10
-0.5920293950
20
6.7902570782
11
-0.0920113950
21
6.7902570782
0
LINE
5
30F
100
AcDbEntity
8
0
100
AcDbLine
62
7
6
CONTINUOUS
10
1.3534766050
20
6.7902570782
11
1.8534956050
21
6.7902570782
0
LINE
5
310
100
AcDbEntity
8
0
100
AcDbLine
62
7
6
CONTINUOUS
10
4.6256266050
20
6.7902640782
11
5.1256516050
21
6.7902640782
0
LINE
5
311
100
AcDbEntity
8
0
100
AcDbLine
62
7
6
CONTINUOUS
10
0.3807266050
20
6.7902570782
11
0.8807326050
21
6.7902640782
0
LINE
5
312
100
AcDbEntity
8
0
100
AcDbLine
62
7
6
CONTINUOUS
10
-1.5920543950
20
6.7902510782
11
-1.0920363950
21
6.7902570782
0
LINE
5
313
100
AcDbEntity
8
0
100
AcDbLine
62
7
6
CONTINUOUS
10
3.7922576050
20
6.7902640782
11
4.2922826050
21
6.7902570782
0
LINE
5
314
100
AcDbEntity
8
0
100
AcDbLine
62
7
6
CONTINUOUS
10
-3.2281363950
20
6.7902510782
11
-2.7280983950
21
6.7902570782
0
LINE
5
315
100
AcDbEntity
8
0
100
AcDbLine
62
7
6
CONTINUOUS
10
8.0977766050
20
-10.1596799218
11
8.0977766050
21
-13.6596799218
0
LINE
5
316
100
AcDbEntity
8
0
100
AcDbLine
62
7
6
CONTINUOUS
10
8.1977766050
20
-10.1596266141
11
8.1977766050
21
-13.6597332295
0
LINE
5
317
100
AcDbEntity
8
0
100
AcDbLine
62
7
6
CONTINUOUS
10
8.2012825832
20
-10.1561206359
11
8.2012825832
21
-13.6632392077
0
LINE
5
318
100
AcDbEntity
8
0
100
AcDbLine
62
7
6
CONTINUOUS
10
8.2977766050
20
20.6903200782
11
8.2977766050
21
20.2903200782
0
LINE
5
319
100
AcDbEntity
8
0
100
AcDbLine
62
7
6
CONTINUOUS
10
8.2977766050
20
-20.0096799218
11
8.2977766050
21
-19.6096799218
0
LINE
5
31A
100
AcDbEntity
8
0
100
AcDbLine
62
9
6
CONTINUOUS
10
8.4012749678
20
-10.1561206359
11
8.4012749678
21
-13.6632392077
0
LINE
5
31B
100
AcDbEntity
8
0
100
AcDbLine
62
7
6
CONTINUOUS
10
-3.3022233950
20
-14.1096799218
11
1.0977766050
21
-9.7096799218
0
LINE
5
31C
100
AcDbEntity
8
0
100
AcDbLine
62
9
6
CONTINUOUS
10
-4.2022767027
20
-15.0596799218
11
-4.2057826809
21
-15.0631859000
0
LINE
5
31D
100
AcDbEntity
8
0
100
AcDbLine
62
7
6
CONTINUOUS
10
-2.9022233950
20
-14.1096799218
11
1.4977766050
21
-9.7096799218
0
LINE
5
31E
100
AcDbEntity
8
0
100
AcDbLine
62
7
6
CONTINUOUS
10
-2.5022233950
20
-14.1096799218
11
1.8977766050
21
-9.7096799218
0
LINE
5
31F
100
AcDbEntity
8
0
100
AcDbLine
62
7
6
CONTINUOUS
10
-2.1022233950
20
-14.1096799218
11
2.2977766050
21
-9.7096799218
0
LINE
5
320
100
AcDbEntity
8
0
100
AcDbLine
62
7
6
CONTINUOUS
10
-1.7022233950
20
-14.1096799218
11
2.6977766050
21
-9.7096799218
0
LINE
5
321
100
AcDbEntity
8
0
100
AcDbLine
62
7
6
CONTINUOUS
10
-1.3022233950
20
-14.1096799218
11
3.0977766050
21
-9.7096799218
0
LINE
5
322
100
AcDbEntity
8
0
100
AcDbLine
62
7
6
CONTINUOUS
10
2.8447146050
20
7.2819260782
11
3.6344076050
21
7.2819260782
0
LINE
5
323
100
AcDbEntity
8
0
100
AcDbLine
62
7
6
CONTINUOUS
10
3.4818826050
20
7.7569450782
11
2.9972326050
21
7.7569450782
0
LINE
5
324
100
AcDbEntity
8
0
100
AcDbLine
62
7
6
CONTINUOUS
10
5.1257076050
20
7.7569510782
11
5.5621146050
21
7.7569450782
0
LINE
5
325
100
AcDbEntity
8
0
100
AcDbLine
62
7
6
CONTINUOUS
10
5.7271096597
20
8.2194700782
11
5.1187576050
21
8.2194700782
0
LINE
5
326
100
AcDbEntity
8
0
100
AcDbLine
62
7
6
CONTINUOUS
10
5.5621146050
20
7.7569450782
11
6.0631956050
21
6.7902640782
0
LINE
5
327
100
AcDbEntity
8
0
100
AcDbLine
62
7
6
CONTINUOUS
10
6.6263896050
20
6.7902700782
11
6.0941443356
21
7.8170785272
0
LINE
5
328
100
AcDbEntity
8
0
100
AcDbLine
62
9
6
CONTINUOUS
10
10.8977766050
20
-20.0096799218
11
10.8977766050
21
20.6903200782
0
LINE
5
329
100
AcDbEntity
8
0
100
AcDbLine
62
7
6
CONTINUOUS
10
11.1977766050
20
-19.7096799218
11
11.1977766050
21
20.3903200782
0
LINE
5
32A
100
AcDbEntity
8
0
100
AcDbLine
62
7
6
CONTINUOUS
10
-0.9022233950
20
-14.1096799218
11
3.4977766050
21
-9.7096799218
0
LINE
5
32B
100
AcDbEntity
8
0
100
AcDbLine
62
7
6
CONTINUOUS
10
-0.5022233950
20
-14.1096799218
11
3.8977766050
21
-9.7096799218
0
LINE
5
32C
100
AcDbEntity
8
0
100
AcDbLine
62
7
6
CONTINUOUS
10
-0.1022233950
20
-14.1096799218
11
4.2977766050
21
-9.7096799218
0
LINE
5
32D
100
AcDbEntity
8
0
100
AcDbLine
62
7
6
CONTINUOUS
10
0.2977766050
20
-14.1096799218
11
4.6977766050
21
-9.7096799218
0
LINE
5
32E
100
AcDbEntity
8
0
100
AcDbLine
62
7
6
CONTINUOUS
10
0.6977766050
20
-14.1096799218
11
5.0977766050
21
-9.7096799218
0
LINE
5
32F
100
AcDbEntity
8
0
100
AcDbLine
62
7
6
CONTINUOUS
10
5.1187516050
20
8.8278580782
11
5.7270996050
21
8.8278580782
0
LINE
5
330
100
AcDbEntity
8
0
100
AcDbLine
62
7
6
CONTINUOUS
10
1.8534956050
20
9.2903700782
11
1.0976016050
21
9.2903700782
0
LINE
5
331
100
AcDbEntity
8
0
100
AcDbLine
62
7
6
CONTINUOUS
10
0.1638636050
20
9.2903700782
11
-0.5920293950
21
9.2903700782
0
LINE
5
332
100
AcDbEntity
8
0
100
AcDbLine
62
7
6
CONTINUOUS
10
-1.0920293950
20
9.2903700782
11
-1.5920483950
21
9.2903700782
0
LINE
5
333
100
AcDbEntity
8
0
100
AcDbLine
62
7
6
CONTINUOUS
10
-1.9253923950
20
9.2903700782
11
-2.4254173950
21
9.2903700782
0
LINE
5
334
100
AcDbEntity
8
0
100
AcDbLine
62
7
6
CONTINUOUS
10
-3.5308113950
20
9.2903700782
11
-4.0308363950
21
9.2903700782
0
LINE
5
335
100
AcDbEntity
8
0
100
AcDbLine
62
7
6
CONTINUOUS
10
5.7965188561
20
9.2903760782
11
4.6256266050
21
9.2903760782
0
LINE
5
336
100
AcDbEntity
8
0
100
AcDbLine
62
7
6
CONTINUOUS
10
3.4895766050
20
9.2903760782
11
2.9895326050
21
9.2903760782
0
LINE
5
337
100
AcDbEntity
8
0
100
AcDbLine
62
7
6
CONTINUOUS
10
11.8977766050
20
-5.6398115064
11
11.8977766050
21
6.3204516629
0
LINE
5
338
100
AcDbEntity
8
0
100
AcDbLine
62
7
6
CONTINUOUS
10
12.3977766050
20
-20.7098017657
11
12.3977766050
21
21.3904419221
0
LINE
5
339
100
AcDbEntity
8
0
100
AcDbLine
62
7
6
CONTINUOUS
10
1.0977766050
20
-14.1096799218
11
5.4977766050
21
-9.7096799218
0
LINE
5
33A
100
AcDbEntity
8
0
100
AcDbLine
62
9
6
CONTINUOUS
10
6.7978299127
20
-8.7596799218
11
6.8013358909
21
-8.7561739436
0
LINE
5
33B
100
AcDbEntity
8
0
100
AcDbLine
62
7
6
CONTINUOUS
10
1.4977766050
20
-14.1096799218
11
5.8977766050
21
-9.7096799218
0
LINE
5
33C
100
AcDbEntity
8
0
100
AcDbLine
62
7
6
CONTINUOUS
10
1.8977766050
20
-14.1096799218
11
6.2977766050
21
-9.7096799218
0
LINE
5
33D
100
AcDbEntity
8
0
100
AcDbLine
62
7
6
CONTINUOUS
10
2.2977766050
20
-14.1096799218
11
6.6977766050
21
-9.7096799218
0
LINE
5
33E
100
AcDbEntity
8
0
100
AcDbLine
62
7
6
CONTINUOUS
10
2.6977766050
20
-14.1096799218
11
7.0977766050
21
-9.7096799218
0
LINE
5
33F
100
AcDbEntity
8
0
100
AcDbLine
62
7
6
CONTINUOUS
10
3.0977766050
20
-14.1096799218
11
7.0977766050
21
-10.1096799218
0
LINE
5
340
100
AcDbEntity
8
0
100
AcDbLine
62
7
6
CONTINUOUS
10
3.4977766050
20
-14.1096799218
11
7.0977766050
21
-10.5096799218
0
LINE
5
341
100
AcDbEntity
8
0
100
AcDbLine
62
7
6
CONTINUOUS
10
3.8977766050
20
-14.1096799218
11
7.0977766050
21
-10.9096799218
0
LINE
5
342
100
AcDbEntity
8
0
100
AcDbLine
62
9
6
CONTINUOUS
10
8.1977766050
20
-10.1596266141
11
8.2012825832
21
-10.1561206359
0
LINE
5
343
100
AcDbEntity
8
0
100
AcDbLine
62
7
6
CONTINUOUS
10
4.2977766050
20
-14.1096799218
11
7.0977766050
21
-11.3096799218
0
LINE
5
344
100
AcDbEntity
8
0
100
AcDbLine
62
7
6
CONTINUOUS
10
4.6977766050
20
-14.1096799218
11
7.0977766050
21
-11.7096799218
0
LINE
5
345
100
AcDbEntity
8
0
100
AcDbLine
62
7
6
CONTINUOUS
10
5.0977766050
20
-14.1096799218
11
7.0977766050
21
-12.1096799218
0
LINE
5
346
100
AcDbEntity
8
0
100
AcDbLine
62
7
6
CONTINUOUS
10
5.4977766050
20
-14.1096799218
11
7.0977766050
21
-12.5096799218
0
LINE
5
347
100
AcDbEntity
8
0
100
AcDbLine
62
7
6
CONTINUOUS
10
5.8977766050
20
-14.1096799218
11
7.0977766050
21
-12.9096799218
0
LINE
5
348
100
AcDbEntity
8
0
100
AcDbLine
62
7
6
CONTINUOUS
10
6.2977766050
20
-14.1096799218
11
7.0977766050
21
-13.3096799218
0
LINE
5
349
100
AcDbEntity
8
0
100
AcDbLine
62
7
6
CONTINUOUS
10
6.6977766050
20
-14.1096799218
11
7.0977766050
21
-13.7096799218
0
LINE
5
34A
100
AcDbEntity
8
0
100
AcDbLine
62
7
6
CONTINUOUS
10
8.2977766050
20
20.2903200782
11
10.8977766050
21
20.6903200782
0
LINE
5
34B
100
AcDbEntity
8
0
100
AcDbLine
62
9
6
CONTINUOUS
10
6.6977766050
20
19.2403200782
11
6.3859839100
21
19.2403200782
0
LINE
5
34C
100
AcDbEntity
8
0
100
AcDbLine
62
9
6
CONTINUOUS
10
-4.1022233950
20
19.2403200782
11
-3.7904307000
21
19.2403200782
0
LINE
5
34D
100
AcDbEntity
8
0
100
AcDbLine
62
9
6
CONTINUOUS
10
-3.3022233950
20
19.2403200782
11
-3.6140160900
21
19.2403200782
0
LINE
5
34E
100
AcDbEntity
8
0
100
AcDbLine
62
9
6
CONTINUOUS
10
5.8977766050
20
19.2403200782
11
6.2095693000
21
19.2403200782
0
LINE
5
34F
100
AcDbEntity
8
0
100
AcDbLine
62
7
6
CONTINUOUS
10
6.3859839100
20
19.6403200782
11
6.2095693000
21
19.6403200782
0
LINE
5
350
100
AcDbEntity
8
0
100
AcDbLine
62
7
6
CONTINUOUS
10
-3.6140160900
20
19.6403200782
11
-3.7904307000
21
19.6403200782
0
LINE
5
351
100
AcDbEntity
8
0
100
AcDbLine
62
7
6
CONTINUOUS
10
6.3755116686
20
19.8089690799
11
6.2200415414
21
19.8089690799
0
LINE
5
352
100
AcDbEntity
8
0
100
AcDbLine
62
7
6
CONTINUOUS
10
-3.6244883314
20
19.8089690799
11
-3.7799584586
21
19.8089690799
0
LINE
5
353
100
AcDbEntity
8
0
100
AcDbLine
62
7
6
CONTINUOUS
10
-5.7022233950
20
20.2903200782
11
-8.3022233950
21
20.6903200782
0
LINE
5
354
100
AcDbEntity
8
0
100
AcDbLine
62
9
6
CONTINUOUS
10
-8.6022233950
20
20.1903200782
11
-4.1022233950
21
20.1903200782
0
LINE
5
355
100
AcDbEntity
8
0
100
AcDbLine
62
9
6
CONTINUOUS
10
-3.3022233950
20
20.1903200782
11
5.8977766050
21
20.1903200782
0
LINE
5
356
100
AcDbEntity
8
0
100
AcDbLine
62
9
6
CONTINUOUS
10
6.6977766050
20
20.1903200782
11
11.1977766050
21
20.1903200782
0
LINE
5
357
100
AcDbEntity
8
0
100
AcDbLine
62
7
6
CONTINUOUS
10
-5.1022233950
20
20.2903200782
11
-5.7022233950
21
20.2903200782
0
LINE
5
358
100
AcDbEntity
8
0
100
AcDbLine
62
7
6
CONTINUOUS
10
7.6977766050
20
20.2903200782
11
8.2977766050
21
20.2903200782
0
LINE
5
359
100
AcDbEntity
8
0
100
AcDbLine
62
7
6
CONTINUOUS
10
10.8977766050
20
20.6903200782
11
-8.3022233950
21
20.6903200782
0
LINE
5
35A
100
AcDbEntity
8
0
100
AcDbLine
62
7
6
CONTINUOUS
10
11.5978984489
20
22.1903200782
11
-9.0023452389
21
22.1903200782
0
ARC
5
35B
100
AcDbEntity
8
0
100
AcDbCircle
62
7
6
CONTINUOUS
10
-4.2022233950
20
-13.6596799218
40
1.3000000000
100
AcDbArc
50
180.0000000000
51
270.0000000000
0
ARC
5
35C
100
AcDbEntity
8
0
100
AcDbCircle
62
7
6
CONTINUOUS
10
-4.2022233950
20
-10.1596799218
40
1.3000000000
100
AcDbArc
50
90.0000000000
51
180.0000000000
0
ARC
5
35D
100
AcDbEntity
8
0
100
AcDbCircle
62
7
6
CONTINUOUS
10
6.7977766050
20
-13.6596799218
40
1.3000000000
100
AcDbArc
50
270.0000000000
51
360.0000000000
0
ARC
5
35E
100
AcDbEntity
8
0
100
AcDbCircle
62
7
6
CONTINUOUS
10
6.7977766050
20
-10.1596799218
40
1.3000000000
100
AcDbArc
50
0.0000000000
51
90.0000000000
0
ARC
5
35F
100
AcDbEntity
8
0
100
AcDbCircle
62
7
6
CONTINUOUS
10
13.1977766050
20
-7.1596799218
40
2.0000000000
100
AcDbArc
50
130.5416018735
51
180.0000000000
0
ARC
5
360
100
AcDbEntity
8
0
100
AcDbCircle
62
7
6
CONTINUOUS
10
13.1977766050
20
7.8403200782
40
2.0000000000
100
AcDbArc
50
180.0000000000
51
229.4583981265
0
ARC
5
361
100
AcDbEntity
8
0
100
AcDbCircle
62
7
6
CONTINUOUS
10
-10.6022233950
20
7.8403200782
40
2.0000000000
100
AcDbArc
50
310.5416018735
51
360.0000000000
0
ARC
5
362
100
AcDbEntity
8
0
100
AcDbCircle
62
7
6
CONTINUOUS
10
-10.6022233950
20
-7.1596799218
40
2.0000000000
100
AcDbArc
50
0.0000000000
51
49.4583981265
0
ARC
5
363
100
AcDbEntity
8
0
100
AcDbCircle
62
7
6
CONTINUOUS
10
5.7270996050
20
8.5236630782
40
0.3041950000
100
AcDbArc
50
270.0018938328
51
90.0000000000
0
ARC
5
364
100
AcDbEntity
8
0
100
AcDbCircle
62
7
6
CONTINUOUS
10
5.7965016050
20
8.5236630782
40
0.7667158029
100
AcDbArc
50
292.8428449664
51
89.9987108403
0
ARC
5
365
100
AcDbEntity
8
0
100
AcDbCircle
62
7
6
CONTINUOUS
10
10.8977766050
20
-19.7096799218
40
0.3000000000
100
AcDbArc
50
270.0000000000
51
360.0000000000
0
ARC
5
366
100
AcDbEntity
8
0
100
AcDbCircle
62
7
6
CONTINUOUS
10
10.8977766050
20
20.3903200782
40
0.3000000000
100
AcDbArc
50
0.0000000000
51
90.0000000000
0
ARC
5
367
100
AcDbEntity
8
0
100
AcDbCircle
62
7
6
CONTINUOUS
10
-8.3022233950
20
-19.7096799218
40
0.3000000000
100
AcDbArc
50
180.0000000000
51
270.0000000000
0
ARC
5
368
100
AcDbEntity
8
0
100
AcDbCircle
62
7
6
CONTINUOUS
10
-8.3022233950
20
20.3903200782
40
0.3000000000
100
AcDbArc
50
90.0000000000
51
180.0000000000
0
ARC
5
369
100
AcDbEntity
8
0
100
AcDbCircle
62
7
6
CONTINUOUS
10
-3.7022233950
20
19.2403200782
40
0.4000000000
100
AcDbArc
50
180.0000000000
51
360.0000000000
0
ARC
5
36A
100
AcDbEntity
8
0
100
AcDbCircle
62
9
6
CONTINUOUS
10
-3.7022233950
20
19.2403200782
40
0.3881958800
100
AcDbArc
50
180.0000000000
51
360.0000000000
0
ARC
5
36B
100
AcDbEntity
8
0
100
AcDbCircle
62
7
6
CONTINUOUS
10
6.2977766050
20
19.2403200782
40
0.4000000000
100
AcDbArc
50
180.0000000000
51
360.0000000000
0
ARC
5
36C
100
AcDbEntity
8
0
100
AcDbCircle
62
9
6
CONTINUOUS
10
6.2977766050
20
19.2403200782
40
0.3881958800
100
AcDbArc
50
180.0000000000
51
360.0000000000
0
SPLINE
5
36D
100
AcDbEntity
8
0
100
AcDbSpline
62
7
6
CONTINUOUS
70
0
71
3
72
97
73
93
74
91
42
0.0000001000
43
0.0000001000
44
0.0000000001
12
0.0124179256
22
1.3551099844
32
0.0000000000
13
0.3005910990
23
-1.3214091918
33
0.0000000000
40
0.0000000000
40
0.0000000000
40
0.0000000000
40
0.0000000000
40
0.1152244659
40
0.1664251358
40
0.2135078897
40
0.2566398995
40
0.2960386590
40
0.3053399555
40
0.3144387739
40
0.3322824314
40
0.3497202136
40
0.3667743541
40
0.3998218135
40
0.4316395775
40
0.4624616943
40
0.4775832385
40
0.4925541161
40
0.4999945511
40
0.5037053984
40
0.5074107023
40
0.5111110284
40
0.5129595111
40
0.5148069625
40
0.5165728416
40
0.5172940502
40
0.5180147623
40
0.5194547213
40
0.5208927735
40
0.5266268460
40
0.5323346994
40
0.5380198196
40
0.5436857341
40
0.5549733291
40
0.5662272031
40
0.5774764476
40
0.5887501897
40
0.6000773678
40
0.6114865133
40
0.6230055491
40
0.6346616078
40
0.6405496424
40
0.6464816640
40
0.6524607780
40
0.6584900174
40
0.6600055359
40
0.6615244179
40
0.6622851349
40
0.6630467097
40
0.6648670789
40
0.6667562283
40
0.6686396620
40
0.6723897383
40
0.6761181003
40
0.6798255306
40
0.6871805881
40
0.6944616302
40
0.7016753799
40
0.7159270356
40
0.7439225399
40
0.7578023474
40
0.7716809344
40
0.7856203673
40
0.7996819072
40
0.8067781078
40
0.8139270358
40
0.8211357933
40
0.8284113073
40
0.8320763143
40
0.8357605204
40
0.8394647363
40
0.8431897599
40
0.8441243669
40
0.8450603355
40
0.8455288344
40
0.8459976782
40
0.8466461834
40
0.8472234342
40
0.8478019542
40
0.8489628366
40
0.8501289063
40
0.8513002362
40
0.8536589446
40
0.8584424393
40
0.8633177929
40
0.8733592054
40
0.8838140847
40
0.8947088870
40
0.9060669949
40
0.9179090468
40
0.9431119204
40
0.9704437663
40
1.0000000000
40
1.0000000000
40
1.0000000000
40
1.0000000000
10
3.3714350422
20
-1.2321490882
30
0.0000000000
10
3.3719119918
20
-1.1801018135
30
0.0000000000
10
3.3749148149
20
-1.1048737114
30
0.0000000000
10
3.3855915321
20
-1.0089857531
30
0.0000000000
10
3.3961014608
20
-0.9459365395
30
0.0000000000
10
3.4094234911
20
-0.8888778377
30
0.0000000000
10
3.4219512560
20
-0.8492714264
30
0.0000000000
10
3.4312899552
20
-0.8248872325
30
0.0000000000
10
3.4375355544
20
-0.8097519298
30
0.0000000000
10
3.4456417816
20
-0.7914121787
30
0.0000000000
10
3.4559503433
20
-0.7701309077
30
0.0000000000
10
3.4702462959
20
-0.7431726246
30
0.0000000000
10
3.4894271334
20
-0.7114775229
30
0.0000000000
10
3.5148170291
20
-0.6764339879
30
0.0000000000
10
3.5379068372
20
-0.6498903288
30
0.0000000000
10
3.5573989666
20
-0.6304562158
30
0.0000000000
10
3.5699716117
20
-0.6190704678
30
0.0000000000
10
3.5790038631
20
-0.6114756088
30
0.0000000000
10
3.5842193768
20
-0.6072520059
30
0.0000000000
10
3.5881605564
20
-0.6041400183
30
0.0000000000
10
3.5914734042
20
-0.6015903569
30
0.0000000000
10
3.5941396673
20
-0.5995769316
30
0.0000000000
10
3.5961185588
20
-0.5981034537
30
0.0000000000
10
3.5976938042
20
-0.5969404142
30
0.0000000000
10
3.5988718606
20
-0.5960966594
30
0.0000000000
10
3.5999314402
20
-0.5953403565
30
0.0000000000
10
3.6012592323
20
-0.5944024502
30
0.0000000000
10
3.6044500255
20
-0.5921768938
30
0.0000000000
10
3.6092727889
20
-0.5889211545
30
0.0000000000
10
3.6157902290
20
-0.5847509533
30
0.0000000000
10
3.6223829320
20
-0.5807597254
30
0.0000000000
10
3.6312614766
20
-0.5756835171
30
0.0000000000
10
3.6425588736
20
-0.5697779410
30
0.0000000000
10
3.6564336356
20
-0.5634000153
30
0.0000000000
10
3.6706096756
20
-0.5577394574
30
0.0000000000
10
3.6850864981
20
-0.5527965004
30
0.0000000000
10
3.6998638428
20
-0.5485711471
30
0.0000000000
10
3.7149414528
20
-0.5450633803
30
0.0000000000
10
3.7303188419
20
-0.5422731314
30
0.0000000000
10
3.7433393272
20
-0.5405515631
30
0.0000000000
10
3.7538954509
20
-0.5395299596
30
0.0000000000
10
3.7619148161
20
-0.5389401017
30
0.0000000000
10
3.7700091141
20
-0.5385292507
30
0.0000000000
10
3.7761162581
20
-0.5383559167
30
0.0000000000
10
3.7802100722
20
-0.5382957562
30
0.0000000000
10
3.7819243491
20
-0.5382799331
30
0.0000000000
10
3.7832980982
20
-0.5382728597
30
0.0000000000
10
3.7848080496
20
-0.5382691709
30
0.0000000000
10
3.7868277535
20
-0.5382736139
30
0.0000000000
10
3.7893541312
20
-0.5382966799
30
0.0000000000
10
3.7927518619
20
-0.5383517100
30
0.0000000000
10
3.7969794580
20
-0.5384652811
30
0.0000000000
10
3.8020282458
20
-0.5386737188
30
0.0000000000
10
3.8086993844
20
-0.5390465611
30
0.0000000000
10
3.8169617816
20
-0.5396912756
30
0.0000000000
10
3.8267758487
20
-0.5407549990
30
0.0000000000
10
3.8396387116
20
-0.5425501422
30
0.0000000000
10
3.8616102302
20
-0.5466679099
30
0.0000000000
10
3.8860483479
20
-0.5537408342
30
0.0000000000
10
3.9094269988
20
-0.5631473442
30
0.0000000000
10
3.9264047854
20
-0.5713392757
30
0.0000000000
10
3.9428675773
20
-0.5806865928
30
0.0000000000
10
3.9561189551
20
-0.5894126924
30
0.0000000000
10
3.9664483130
20
-0.5969525767
30
0.0000000000
10
3.9740918822
20
-0.6029131325
30
0.0000000000
10
3.9816074292
20
-0.6091614819
30
0.0000000000
10
3.9877486719
20
-0.6145949079
30
0.0000000000
10
3.9925966418
20
-0.6190830248
30
0.0000000000
10
3.9962098033
20
-0.6225294532
30
0.0000000000
10
3.9997909904
20
-0.6260478503
30
0.0000000000
10
4.0024473547
20
-0.6287347082
30
0.0000000000
10
4.0042080108
20
-0.6305483064
30
0.0000000000
10
4.0049415581
20
-0.6313088000
30
0.0000000000
10
4.0055267265
20
-0.6319200715
30
0.0000000000
10
4.0060232517
20
-0.6324364660
30
0.0000000000
10
4.0065425425
20
-0.6329989409
30
0.0000000000
10
4.0070913835
20
-0.6336014684
30
0.0000000000
10
4.0077934399
20
-0.6343775194
30
0.0000000000
10
4.0086679204
20
-0.6353562378
30
0.0000000000
10
4.0097115146
20
-0.6365428966
30
0.0000000000
10
4.0110998526
20
-0.6381468528
30
0.0000000000
10
4.0135242914
20
-0.6410149859
30
0.0000000000
10
4.0169329047
20
-0.6452412155
30
0.0000000000
10
4.0223138426
20
-0.6523304425
30
0.0000000000
10
4.0288486346
20
-0.6617535136
30
0.0000000000
10
4.0363119927
20
-0.6738173047
30
0.0000000000
10
4.0434734070
20
-0.6867465908
30
0.0000000000
10
4.0503333510
20
-0.7005411984
30
0.0000000000
10
4.0592640079
20
-0.7205044663
30
0.0000000000
10
4.0696090471
20
-0.7477106984
30
0.0000000000
10
4.0805740751
20
-0.7831547804
30
0.0000000000
10
4.0868346629
20
-0.8080912579
30
0.0000000000
10
4.0897961098
20
-0.8211098842
30
0.0000000000
11
3.3714350422
21
-1.2321490882
31
0.0000000000
11
3.3786198804
21
-1.0761660933
31
0.0000000000
11
3.3864459618
21
-1.0072234111
31
0.0000000000
11
3.3970944847
21
-0.9443132725
31
0.0000000000
11
3.4105654491
21
-0.8874356773
31
0.0000000000
11
3.4268588551
21
-0.8365906257
31
0.0000000000
11
3.4313732131
21
-0.8248219477
31
0.0000000000
11
3.4360603740
21
-0.8134171368
31
0.0000000000
11
3.4458451154
21
-0.7913041076
31
0.0000000000
11
3.4561554847
21
-0.7700408669
31
0.0000000000
11
3.4669914821
21
-0.7496274148
31
0.0000000000
11
3.4902403609
21
-0.7113498764
31
0.0000000000
11
3.5155917520
21
-0.6764714923
31
0.0000000000
11
3.5430456551
21
-0.6449922626
31
0.0000000000
11
3.5575610487
21
-0.6305273305
31
0.0000000000
11
3.5726020704
21
-0.6169121871
31
0.0000000000
11
3.5803196918
21
-0.6104232861
31
0.0000000000
11
3.5842277801
21
-0.6072585033
31
0.0000000000
11
3.5881687201
21
-0.6041468322
31
0.0000000000
11
3.5921425119
21
-0.6010882730
31
0.0000000000
11
3.5941417272
21
-0.5995789103
31
0.0000000000
11
3.5961491555
21
-0.5980828255
31
0.0000000000
11
3.5980782579
21
-0.5966667378
31
0.0000000000
11
3.5988721952
21
-0.5960967446
31
0.0000000000
11
3.5996673056
21
-0.5955295469
31
0.0000000000
11
3.6012610453
21
-0.5944035378
31
0.0000000000
11
3.6028594771
21
-0.5932887105
31
0.0000000000
11
3.6093001243
21
-0.5889412196
31
0.0000000000
11
3.6158158441
21
-0.5847726378
31
0.0000000000
11
3.6224066364
21
-0.5807829651
31
0.0000000000
11
3.6290725011
21
-0.5769722014
31
0.0000000000
11
3.6426294481
21
-0.5698874014
31
0.0000000000
11
3.6564866850
21
-0.5635182377
31
0.0000000000
11
3.6706442119
21
-0.5578647105
31
0.0000000000
11
3.6851020286
21
-0.5529268195
31
0.0000000000
11
3.6998601354
21
-0.5487045650
31
0.0000000000
11
3.7149185321
21
-0.5451979468
31
0.0000000000
11
3.7302772187
21
-0.5424069650
31
0.0000000000
11
3.7459361952
21
-0.5403316195
31
0.0000000000
11
3.7538782922
21
-0.5395623104
31
0.0000000000
11
3.7618954617
21
-0.5389719104
31
0.0000000000
11
3.7699877037
21
-0.5385604195
31
0.0000000000
11
3.7781550182
21
-0.5383278377
31
0.0000000000
11
3.7802085769
21
-0.5382976468
31
0.0000000000
11
3.7822668276
21
-0.5382786377
31
0.0000000000
11
3.7832977125
21
-0.5382733263
31
0.0000000000
11
3.7843297703
21
-0.5382708104
31
0.0000000000
11
3.7867966681
21
-0.5382763419
31
0.0000000000
11
3.7893566741
21
-0.5382997223
31
0.0000000000
11
3.7919087058
21
-0.5383410876
31
0.0000000000
11
3.7969888465
21
-0.5384777729
31
0.0000000000
11
3.8020370903
21
-0.5386863977
31
0.0000000000
11
3.8070534371
21
-0.5389669622
31
0.0000000000
11
3.8169904400
21
-0.5397439101
31
0.0000000000
11
3.8267998551
21
-0.5408086164
31
0.0000000000
11
3.8364816825
21
-0.5421610811
31
0.0000000000
11
3.8554625742
21
-0.5457292859
31
0.0000000000
11
3.8918933046
21
-0.5563187971
31
0.0000000000
11
3.9093431434
21
-0.5633401034
31
0.0000000000
11
3.9262826313
21
-0.5715124435
31
0.0000000000
11
3.9427117682
21
-0.5808358175
31
0.0000000000
11
3.9586305542
21
-0.5913102252
31
0.0000000000
11
3.9663985656
21
-0.5969790668
31
0.0000000000
11
3.9740389893
21
-0.6029356668
31
0.0000000000
11
3.9815518252
21
-0.6091800253
31
0.0000000000
11
3.9889370734
21
-0.6157121422
31
0.0000000000
11
3.9925818521
21
-0.6190861101
31
0.0000000000
11
3.9961947339
21
-0.6225320176
31
0.0000000000
11
3.9997757187
21
-0.6260498647
31
0.0000000000
11
4.0033248066
21
-0.6296396515
31
0.0000000000
11
4.0042070947
21
-0.6305483387
31
0.0000000000
11
4.0050873892
21
-0.6314615222
31
0.0000000000
11
4.0055267889
21
-0.6319198000
31
0.0000000000
11
4.0059656902
21
-0.6323792019
31
0.0000000000
11
4.0065636058
21
-0.6330232856
31
0.0000000000
11
4.0070906684
21
-0.6336013455
31
0.0000000000
11
4.0076165579
21
-0.6341827939
31
0.0000000000
11
4.0086648181
21
-0.6353558563
31
0.0000000000
11
4.0097083862
21
-0.6365424725
31
0.0000000000
11
4.0107472623
21
-0.6377426428
31
0.0000000000
11
4.0128109383
21
-0.6401836451
31
0.0000000000
11
4.0168819859
21
-0.6452282973
31
0.0000000000
11
4.0208779608
21
-0.6504898129
31
0.0000000000
11
4.0286446930
21
-0.6616634341
31
0.0000000000
11
4.0361111348
21
-0.6737045088
31
0.0000000000
11
4.0432772861
21
-0.6866130370
31
0.0000000000
11
4.0501431471
21
-0.7003890186
31
0.0000000000
11
4.0567087176
21
-0.7150324536
31
0.0000000000
11
4.0689389874
21
-0.7469216842
31
0.0000000000
11
4.0799680956
21
-0.7822807286
31
0.0000000000
11
4.0897961098
21
-0.8211098842
31
0.0000000000
0
SPLINE
5
36E
100
AcDbEntity
8
0
100
AcDbSpline
62
7
6
CONTINUOUS
70
0
71
3
72
109
73
105
74
103
42
0.0000001000
43
0.0000001000
44
0.0000000001
12
-0.2997594618
22
2.3219478458
32
0.0000000000
13
0.3608783062
23
-2.3132841280
33
0.0000000000
40
0.0000000000
40
0.0000000000
40
0.0000000000
40
0.0000000000
40
0.0682203511
40
0.0998597506
40
0.1153643426
40
0.1307811196
40
0.1462101069
40
0.1539619655
40
0.1617497205
40
0.1772559969
40
0.1926965528
40
0.2237544100
40
0.2395920114
40
0.2557519212
40
0.2723212448
40
0.2807861429
40
0.2893831328
40
0.2937341425
40
0.2981215307
40
0.3025463609
40
0.3070096698
40
0.3115124677
40
0.3137789986
40
0.3160557684
40
0.3171980319
40
0.3177701396
40
0.3183429001
40
0.3189163154
40
0.3192032691
40
0.3194903872
40
0.3202304202
40
0.3209996379
40
0.3225350941
40
0.3240666070
40
0.3271179268
40
0.3301538725
40
0.3331747156
40
0.3391721292
40
0.3451124883
40
0.3509981109
40
0.3626141239
40
0.3740405940
40
0.3852983610
40
0.3964092143
40
0.4182756621
40
0.4398355074
40
0.4612869084
40
0.4828310159
40
0.4937031684
40
0.5046723924
40
0.5102011536
40
0.5157629513
40
0.5213606094
40
0.5269968979
40
0.5298304206
40
0.5326746135
40
0.5355298065
40
0.5369616352
40
0.5383963360
40
0.5391147765
40
0.5399156839
40
0.5407419521
40
0.5415690830
40
0.5448864013
40
0.5482182857
40
0.5515653377
40
0.5583071638
40
0.5651166749
40
0.5789555731
40
0.5931175534
40
0.6076346974
40
0.6225367930
40
0.6378513821
40
0.6698119153
40
0.7037018840
40
0.7396714753
40
0.7584779519
40
0.7778496155
40
0.7977990101
40
0.8183376210
40
0.8394759732
40
0.8502732423
40
0.8612239977
40
0.8667572898
40
0.8695384702
40
0.8723293604
40
0.8751299762
40
0.8765339365
40
0.8779403342
40
0.8805014241
40
0.8830078510
40
0.8855052798
40
0.8879937249
40
0.8929437194
40
0.8978579580
40
0.9027365628
40
0.9123873413
40
0.9218971189
40
0.9312669753
40
0.9404980393
40
0.9585482503
40
0.9760581514
40
0.9930388187
40
1.0000000000
40
1.0000000000
40
1.0000000000
40
1.0000000000
10
4.3075570807
20
-0.8035888855
30
0.0000000000
10
4.3007405155
20
-0.7507875198
30
0.0000000000
10
4.2822529261
20
-0.6738257078
30
0.0000000000
10
4.2418114258
20
-0.5930141740
30
0.0000000000
10
4.2148826998
20
-0.5522296371
30
0.0000000000
10
4.1925664579
20
-0.5237124965
30
0.0000000000
10
4.1721222694
20
-0.5015430643
30
0.0000000000
10
4.1546972573
20
-0.4847879792
30
0.0000000000
10
4.1365786325
20
-0.4686951957
30
0.0000000000
10
4.1128021503
20
-0.4499689472
30
0.0000000000
10
4.0724739741
20
-0.4231547156
30
0.0000000000
10
4.0287723206
20
-0.4012296428
30
0.0000000000
10
3.9824858908
20
-0.3844228510
30
0.0000000000
10
3.9459556786
20
-0.3741833541
30
0.0000000000
10
3.9144304026
20
-0.3677463184
30
0.0000000000
10
3.8884786583
20
-0.3638020246
30
0.0000000000
10
3.8718805295
20
-0.3618363941
30
0.0000000000
10
3.8584112346
20
-0.3605661431
30
0.0000000000
10
3.8481696317
20
-0.3597622811
30
0.0000000000
10
3.8378294178
20
-0.3591111193
30
0.0000000000
10
3.8273905611
20
-0.3586126491
30
0.0000000000
10
3.8186289149
20
-0.3583251427
30
0.0000000000
10
3.8115709223
20
-0.3581709756
30
0.0000000000
10
3.8071343029
20
-0.3581062859
30
0.0000000000
10
3.8040197196
20
-0.3580776612
30
0.0000000000
10
3.8022348657
20
-0.3580660484
30
0.0000000000
10
3.8008939217
20
-0.3580597192
30
0.0000000000
10
3.7997755034
20
-0.3580564340
30
0.0000000000
10
3.7988799989
20
-0.3580549966
30
0.0000000000
10
3.7978544641
20
-0.3580542652
30
0.0000000000
10
3.7964525668
20
-0.3580554521
30
0.0000000000
10
3.7940764698
20
-0.3580627901
30
0.0000000000
10
3.7910827396
20
-0.3580823845
30
0.0000000000
10
3.7863082763
20
-0.3581357442
30
0.0000000000
10
3.7803634239
20
-0.3582436563
30
0.0000000000
10
3.7732579936
20
-0.3584395047
30
0.0000000000
10
3.7638571661
20
-0.3587880329
30
0.0000000000
10
3.7521980238
20
-0.3593880208
30
0.0000000000
10
3.7383226359
20
-0.3603746088
30
0.0000000000
10
3.7201029612
20
-0.3620357715
30
0.0000000000
10
3.6976861093
20
-0.3647672486
30
0.0000000000
10
3.6712663688
20
-0.3691202774
30
0.0000000000
10
3.6454449882
20
-0.3745347370
30
0.0000000000
10
3.6119990624
20
-0.3831213065
30
0.0000000000
10
3.5715299517
20
-0.3965153959
30
0.0000000000
10
3.5251224670
20
-0.4169521773
30
0.0000000000
10
3.4811318256
20
-0.4416663556
30
0.0000000000
10
3.4465937144
20
-0.4657559605
30
0.0000000000
10
3.4202643866
20
-0.4870589094
30
0.0000000000
10
3.4042992543
20
-0.5012620986
30
0.0000000000
10
3.3918364787
20
-0.5131404224
30
0.0000000000
10
3.3826142934
20
-0.5223380142
30
0.0000000000
10
3.3735424297
20
-0.5318003032
30
0.0000000000
10
3.3661211039
20
-0.5398915874
30
0.0000000000
10
3.3602597349
20
-0.5464951573
30
0.0000000000
10
3.3558932164
20
-0.5515230111
30
0.0000000000
10
3.3522893432
20
-0.5557639140
30
0.0000000000
10
3.3494249158
20
-0.5591893790
30
0.0000000000
10
3.3476419328
20
-0.5613453805
30
0.0000000000
10
3.3461789992
20
-0.5631270965
30
0.0000000000
10
3.3450237420
20
-0.5645470438
30
0.0000000000
10
3.3438200294
20
-0.5660369007
30
0.0000000000
10
3.3413924154
20
-0.5690625792
30
0.0000000000
10
3.3377799051
20
-0.5736445395
30
0.0000000000
10
3.3330329149
20
-0.5798354600
30
0.0000000000
10
3.3267714877
20
-0.5882317053
30
0.0000000000
10
3.3190989912
20
-0.5989597535
30
0.0000000000
10
3.3071195078
20
-0.6166653114
30
0.0000000000
10
3.2927648787
20
-0.6397439537
30
0.0000000000
10
3.2766277988
20
-0.6687508643
30
0.0000000000
10
3.2614860624
20
-0.6992184079
30
0.0000000000
10
3.2473392200
20
-0.7311461449
30
0.0000000000
10
3.2295505136
20
-0.7763041133
30
0.0000000000
10
3.2098981874
20
-0.8365895283
30
0.0000000000
10
3.1906306143
20
-0.9137355075
30
0.0000000000
10
3.1780791854
20
-0.9818270283
30
0.0000000000
10
3.1699294539
20
-1.0391205691
30
0.0000000000
10
3.1647187679
20
-1.0841887217
30
0.0000000000
10
3.1604996895
20
-1.1307170181
30
0.0000000000
10
3.1572722126
20
-1.1787062236
30
0.0000000000
10
3.1554222179
20
-1.2196189602
30
0.0000000000
10
3.1544271388
20
-1.2530733801
30
0.0000000000
10
3.1540089029
20
-1.2743601711
30
0.0000000000
10
3.1538237738
20
-1.2893937735
30
0.0000000000
10
3.1537484446
20
-1.2980601432
30
0.0000000000
10
3.1537073475
20
-1.3045941125
30
0.0000000000
10
3.1536860261
20
-1.3100533784
30
0.0000000000
10
3.1536767110
20
-1.3144322055
30
0.0000000000
10
3.1536726923
20
-1.3186241131
30
0.0000000000
10
3.1536765413
20
-1.3236763967
30
0.0000000000
10
3.1536955239
20
-1.3295800987
30
0.0000000000
10
3.1537283184
20
-1.3354270471
30
0.0000000000
10
3.1537906156
20
-1.3431808117
30
0.0000000000
10
3.1539032746
20
-1.3528202958
30
0.0000000000
10
3.1540946913
20
-1.3643241480
30
0.0000000000
10
3.1544233524
20
-1.3794945537
30
0.0000000000
10
3.1549725508
20
-1.3982471771
30
0.0000000000
10
3.1558579121
20
-1.4204952688
30
0.0000000000
10
3.1569671657
20
-1.4424054296
30
0.0000000000
10
3.1587315079
20
-1.4709541800
30
0.0000000000
10
3.1614833563
20
-1.5058045318
30
0.0000000000
10
3.1657062564
20
-1.5465937518
30
0.0000000000
10
3.1698701709
20
-1.5786780634
30
0.0000000000
10
3.1726400121
20
-1.5971565097
30
0.0000000000
10
3.1734773919
20
-1.6025242398
30
0.0000000000
11
4.3075570807
21
-0.8035888855
31
0.0000000000
11
4.2677710497
21
-0.6489049467
31
0.0000000000
11
4.2344589915
21
-0.5827432594
31
0.0000000000
11
4.2144481968
21
-0.5524574489
31
0.0000000000
11
4.1922008919
21
-0.5240349940
31
0.0000000000
11
4.1677170765
21
-0.4974758944
31
0.0000000000
11
4.1546364775
21
-0.4848951030
31
0.0000000000
11
4.1410045327
21
-0.4727870060
31
0.0000000000
11
4.1124776400
21
-0.4503333888
31
0.0000000000
11
4.0823717973
21
-0.4303224245
31
0.0000000000
11
4.0174232621
21
-0.3976284547
31
0.0000000000
11
3.9825805695
21
-0.3849454492
31
0.0000000000
11
3.9461589269
21
-0.3747050966
31
0.0000000000
11
3.9081583344
21
-0.3669073969
31
0.0000000000
11
3.8885659319
21
-0.3639245419
31
0.0000000000
11
3.8685787919
21
-0.3615523501
31
0.0000000000
11
3.8584371953
21
-0.3605952529
31
0.0000000000
11
3.8481969144
21
-0.3597908216
31
0.0000000000
11
3.8378579491
21
-0.3591390560
31
0.0000000000
11
3.8274202994
21
-0.3586399563
31
0.0000000000
11
3.8168839653
21
-0.3582935223
31
0.0000000000
11
3.8115787917
21
-0.3581775550
31
0.0000000000
11
3.8062489469
21
-0.3580997542
31
0.0000000000
11
3.8035747729
21
-0.3580751662
31
0.0000000000
11
3.8022353729
21
-0.3580664503
31
0.0000000000
11
3.8008944310
21
-0.3580601198
31
0.0000000000
11
3.7995519472
21
-0.3580561747
31
0.0000000000
11
3.7988801271
21
-0.3580550967
31
0.0000000000
11
3.7982079215
21
-0.3580546150
31
0.0000000000
11
3.7964753440
21
-0.3580560676
31
0.0000000000
11
3.7946744470
21
-0.3580616360
31
0.0000000000
11
3.7910796875
21
-0.3580851825
31
0.0000000000
11
3.7874943073
21
-0.3581252751
31
0.0000000000
11
3.7803516848
21
-0.3582550987
31
0.0000000000
11
3.7732465795
21
-0.3584511069
31
0.0000000000
11
3.7661789915
21
-0.3587132997
31
0.0000000000
11
3.7521563669
21
-0.3594362391
31
0.0000000000
11
3.7382838112
21
-0.3604239168
31
0.0000000000
11
3.7245613243
21
-0.3616763329
31
0.0000000000
11
3.6975665571
21
-0.3649753802
31
0.0000000000
11
3.6711720652
21
-0.3693333809
31
0.0000000000
11
3.6453778487
21
-0.3747503351
31
0.0000000000
11
3.6201839074
21
-0.3812262428
31
0.0000000000
11
3.5715968510
21
-0.3973549184
31
0.0000000000
11
3.5254108959
21
-0.4177194079
31
0.0000000000
11
3.4816260422
21
-0.4423197112
31
0.0000000000
11
3.4402422898
21
-0.4711558282
31
0.0000000000
11
3.4204508267
21
-0.4871623170
31
0.0000000000
11
3.4012596388
21
-0.5042277591
31
0.0000000000
11
3.3918891482
21
-0.5131575878
31
0.0000000000
11
3.3826687263
21
-0.5223521548
31
0.0000000000
11
3.3735983733
21
-0.5318114601
31
0.0000000000
11
3.3646780892
21
-0.5415355038
31
0.0000000000
11
3.3602742229
21
-0.5464968026
31
0.0000000000
11
3.3559078738
21
-0.5515242859
31
0.0000000000
11
3.3515790420
21
-0.5566179538
31
0.0000000000
11
3.3494286950
21
-0.5591896070
31
0.0000000000
11
3.3472877273
21
-0.5617778064
31
0.0000000000
11
3.3462207607
21
-0.5630781108
31
0.0000000000
11
3.3450370480
21
-0.5645323519
31
0.0000000000
11
3.3438213056
21
-0.5660370636
31
0.0000000000
11
3.3426094375
21
-0.5675474876
31
0.0000000000
11
3.3378007063
21
-0.5736463074
31
0.0000000000
11
3.3330539619
21
-0.5798365249
31
0.0000000000
11
3.3283692040
21
-0.5861181402
31
0.0000000000
11
3.3191856481
21
-0.5989555642
31
0.0000000000
11
3.3102500387
21
-0.6121585794
31
0.0000000000
11
3.2931226593
21
-0.6396613832
31
0.0000000000
11
3.2769870658
21
-0.6686265515
31
0.0000000000
11
3.2618432582
21
-0.6990540845
31
0.0000000000
11
3.2476912365
21
-0.7309439821
31
0.0000000000
11
3.2345310006
21
-0.7642962443
31
0.0000000000
11
3.2111858866
21
-0.8353878626
31
0.0000000000
11
3.1918079162
21
-0.9123289393
31
0.0000000000
11
3.1763970893
21
-0.9951194744
31
0.0000000000
11
3.1701793547
21
-1.0387082889
31
0.0000000000
11
3.1649534059
21
-1.0837594679
31
0.0000000000
11
3.1607192431
21
-1.1302730116
31
0.0000000000
11
3.1574768662
21
-1.1782489199
31
0.0000000000
11
3.1552262751
21
-1.2276871929
31
0.0000000000
11
3.1544728993
21
-1.2529547160
31
0.0000000000
11
3.1539674699
21
-1.2785878304
31
0.0000000000
11
3.1538077352
21
-1.2915414842
31
0.0000000000
11
3.1537511128
21
-1.2980525853
31
0.0000000000
11
3.1537099871
21
-1.3045865359
31
0.0000000000
11
3.1536843580
21
-1.3111433359
31
0.0000000000
11
3.1536773547
21
-1.3144303044
31
0.0000000000
11
3.1536742256
21
-1.3177229853
31
0.0000000000
11
3.1536790522
21
-1.3237190511
31
0.0000000000
11
3.1536978915
21
-1.3295871106
31
0.0000000000
11
3.1537307256
21
-1.3354340415
31
0.0000000000
11
3.1537775547
21
-1.3412598437
31
0.0000000000
11
3.1539131975
21
-1.3528480622
31
0.0000000000
11
3.1541048199
21
-1.3643517662
31
0.0000000000
11
3.1543524218
21
-1.3757709556
31
0.0000000000
11
3.1550155645
21
-1.3983557906
31
0.0000000000
11
3.1559026254
21
-1.4206025673
31
0.0000000000
11
3.1570136046
21
-1.4425112857
31
0.0000000000
11
3.1583485020
21
-1.4640819458
31
0.0000000000
11
3.1616900519
21
-1.5062090911
31
0.0000000000
11
3.1659272749
21
-1.5469840031
31
0.0000000000
11
3.1710601710
21
-1.5864066819
31
0.0000000000
11
3.1734773919
21
-1.6025242398
31
0.0000000000
0
SPLINE
5
36F
100
AcDbEntity
8
0
100
AcDbSpline
62
7
6
CONTINUOUS
70
0
71
3
72
8
73
4
74
2
42
0.0000001000
43
0.0000001000
44
0.0000000001
12
0.0000000000
22
-0.2621123352
32
0.0000000000
13
-0.1835727717
23
-0.1870933290
33
0.0000000000
40
0.0000000000
40
0.0000000000
40
0.0000000000
40
0.0000000000
40
1.0000000000
40
1.0000000000
40
1.0000000000
40
1.0000000000
10
2.6562596057
20
-0.9175399059
30
0.0000000000
10
2.6562596057
20
-1.0049106843
30
0.0000000000
10
2.6142043042
20
-1.0960968053
30
0.0000000000
10
2.5530133804
20
-1.1584612483
30
0.0000000000
11
2.6562596057
21
-0.9175399059
31
0.0000000000
11
2.5530133804
21
-1.1584612483
31
0.0000000000
0
SPLINE
5
370
100
AcDbEntity
8
0
100
AcDbSpline
62
7
6
CONTINUOUS
70
0
71
3
72
9
73
5
74
3
42
0.0000001000
43
0.0000001000
44
0.0000000001
12
-0.1955210603
22
-0.2005870771
32
0.0000000000
13
-0.2421000971
23
-0.1408942991
33
0.0000000000
40
0.0000000000
40
0.0000000000
40
0.0000000000
40
0.0000000000
40
0.6857809111
40
1.0000000000
40
1.0000000000
40
1.0000000000
40
1.0000000000
10
2.5530133804
20
-1.1584612483
30
0.0000000000
10
2.5083185101
20
-1.2043141778
30
0.0000000000
10
2.4297639973
20
-1.2571674448
30
0.0000000000
10
2.3501785521
20
-1.3055843941
30
0.0000000000
10
2.3248210614
20
-1.3203416202
30
0.0000000000
11
2.5530133804
21
-1.1584612483
31
0.0000000000
11
2.4000912966
21
-1.2747193209
31
0.0000000000
11
2.3248210614
21
-1.3203416202
31
0.0000000000
0
SPLINE
5
371
100
AcDbEntity
8
0
100
AcDbSpline
62
7
6
CONTINUOUS
70
0
71
3
72
13
73
9
74
7
42
0.0000001000
43
0.0000001000
44
0.0000000001
12
-0.7610233330
22
-0.4421087654
32
0.0000000000
13
-0.0472795298
23
-0.8788522646
33
0.0000000000
40
0.0000000000
40
0.0000000000
40
0.0000000000
40
0.0000000000
40
0.2868751927
40
0.4096273534
40
0.5224210327
40
0.6335499300
40
0.7494038504
40
1.0000000000
40
1.0000000000
40
1.0000000000
40
1.0000000000
10
2.0826874161
20
-1.4604413037
30
0.0000000000
10
2.0099145110
20
-1.5027179828
30
0.0000000000
10
1.9100043697
20
-1.5722358048
30
0.0000000000
10
1.8061939759
20
-1.6859233163
30
0.0000000000
10
1.7526788976
20
-1.7731237065
30
0.0000000000
10
1.7152045100
20
-1.8657881775
30
0.0000000000
10
1.6757067518
20
-2.0003903415
30
0.0000000000
10
1.6619330869
20
-2.1078535915
30
0.0000000000
10
1.6579837309
20
-2.1812659227
30
0.0000000000
11
2.0826874161
21
-1.4604413037
31
0.0000000000
11
1.8790539305
21
-1.6097139515
31
0.0000000000
11
1.8070518129
21
-1.6902601562
31
0.0000000000
11
1.7549261119
21
-1.7747462815
31
0.0000000000
11
1.7172265944
21
-1.8649958085
31
0.0000000000
11
1.6885030272
21
-1.9628322181
31
0.0000000000
11
1.6579837309
21
-2.1812659227
31
0.0000000000
0
SPLINE
5
372
100
AcDbEntity
8
0
100
AcDbSpline
62
7
6
CONTINUOUS
70
0
71
3
72
13
73
9
74
7
42
0.0000001000
43
0.0000001000
44
0.0000000001
12
0.1740956315
22
0.7055485301
32
0.0000000000
13
0.6351469399
23
0.3531238046
33
0.0000000000
40
0.0000000000
40
0.0000000000
40
0.0000000000
40
0.0000000000
40
0.1922762010
40
0.4059693222
40
0.5510013824
40
0.7283329118
40
0.8641664559
40
1.0000000000
40
1.0000000000
40
1.0000000000
40
1.0000000000
10
1.9114319148
20
-1.9666109374
30
0.0000000000
10
1.9225900637
20
-1.9213908738
30
0.0000000000
10
1.9642459490
20
-1.8297750452
30
0.0000000000
10
2.0563981597
20
-1.7308858507
30
0.0000000000
10
2.1609236529
20
-1.6534559871
30
0.0000000000
10
2.2569414452
20
-1.5975094742
30
0.0000000000
10
2.3522229274
20
-1.5451092033
30
0.0000000000
10
2.4096944379
20
-1.5130409872
30
0.0000000000
10
2.4384525245
20
-1.4970523012
30
0.0000000000
11
1.9114319148
21
-1.9666109374
31
0.0000000000
11
1.9679346024
21
-1.8388155075
31
0.0000000000
11
2.0714131957
21
-1.7230221436
31
0.0000000000
11
2.1555760278
21
-1.6595792545
31
0.0000000000
11
2.2659040047
21
-1.5929844170
31
0.0000000000
11
2.3521782646
21
-1.5450183591
31
0.0000000000
11
2.4384525245
21
-1.4970523012
31
0.0000000000
0
SPLINE
5
373
100
AcDbEntity
8
0
100
AcDbSpline
62
7
6
CONTINUOUS
70
0
71
3
72
9
73
5
74
3
42
0.0000001000
43
0.0000001000
44
0.0000000001
12
0.3354126946
22
0.1875956609
32
0.0000000000
13
0.2693930215
23
0.2740824833
33
0.0000000000
40
0.0000000000
40
0.0000000000
40
0.0000000000
40
0.0000000000
40
0.8155808779
40
1.0000000000
40
1.0000000000
40
1.0000000000
40
1.0000000000
10
2.4384525245
20
-1.4970523012
30
0.0000000000
10
2.5296379178
20
-1.4460524900
30
0.0000000000
10
2.6410148045
20
-1.3807771828
30
0.0000000000
10
2.7380558798
20
-1.2966596056
30
0.0000000000
10
2.7546162880
20
-1.2798109219
30
0.0000000000
11
2.4384525245
21
-1.4970523012
31
0.0000000000
11
2.7017758531
21
-1.3270445517
31
0.0000000000
11
2.7546162880
21
-1.2798109219
31
0.0000000000
0
SPLINE
5
374
100
AcDbEntity
8
0
100
AcDbSpline
62
7
6
CONTINUOUS
70
0
71
3
72
13
73
9
74
7
42
0.0000001000
43
0.0000001000
44
0.0000000001
12
0.5761224493
22
0.5826865937
32
0.0000000000
13
-0.5313582607
23
0.6237781191
33
0.0000000000
40
0.0000000000
40
0.0000000000
40
0.0000000000
40
0.0000000000
40
0.2500958115
40
0.3733591670
40
0.5017487819
40
0.6250927559
40
0.7466647446
40
1.0000000000
40
1.0000000000
40
1.0000000000
40
1.0000000000
10
2.7546162880
20
-1.2798109219
30
0.0000000000
10
2.8026448918
20
-1.2312350964
30
0.0000000000
10
2.8626874509
20
-1.1445118713
30
0.0000000000
10
2.9011804962
20
-1.0121419637
30
0.0000000000
10
2.9100920176
20
-0.9094961769
30
0.0000000000
10
2.9013460470
20
-0.8073672231
30
0.0000000000
10
2.8645283374
20
-0.6756228622
30
0.0000000000
10
2.8087608612
20
-0.5865672791
30
0.0000000000
10
2.7638902677
20
-0.5338922828
30
0.0000000000
11
2.7546162880
21
-1.2798109219
31
0.0000000000
11
2.8689953280
21
-1.1097678283
31
0.0000000000
11
2.8975900880
21
-1.0128961975
31
0.0000000000
11
2.9071216747
21
-0.9081245106
31
0.0000000000
11
2.8981697117
21
-0.8074518504
31
0.0000000000
11
2.8713138229
21
-0.7115222590
31
0.0000000000
11
2.7638902677
21
-0.5338922828
31
0.0000000000
0
SPLINE
5
375
100
AcDbEntity
8
0
100
AcDbSpline
62
7
6
CONTINUOUS
70
0
71
3
72
18
73
14
74
12
42
0.0000001000
43
0.0000001000
44
0.0000000001
12
-0.9786057430
22
1.1488159585
32
0.0000000000
13
-0.0242207093
23
-1.5089269555
33
0.0000000000
40
0.0000000000
40
0.0000000000
40
0.0000000000
40
0.0000000000
40
0.1483764252
40
0.2330702158
40
0.2795959410
40
0.3293202437
40
0.3889250216
40
0.4443955883
40
0.5455251125
40
0.6398496568
40
0.7358583136
40
0.8567991639
40
1.0000000000
40
1.0000000000
40
1.0000000000
40
1.0000000000
10
2.7638902677
20
-0.5338922828
30
0.0000000000
10
2.7154895937
20
-0.4770732144
30
0.0000000000
10
2.6114843395
20
-0.4099045555
30
0.0000000000
10
2.4742669088
20
-0.3773756506
30
0.0000000000
10
2.3836817094
20
-0.3673214550
30
0.0000000000
10
2.3052701266
20
-0.3647355504
30
0.0000000000
10
2.2223011591
20
-0.3681876844
30
0.0000000000
10
2.1145490279
20
-0.3838266066
30
0.0000000000
10
1.9929940339
20
-0.4233511440
30
0.0000000000
10
1.8710892918
20
-0.5089329425
30
0.0000000000
10
1.7754201851
20
-0.6359752342
30
0.0000000000
10
1.7151539063
20
-0.8095474884
30
0.0000000000
10
1.7031053940
20
-0.9428603887
30
0.0000000000
10
1.7019492521
20
-1.0148869225
30
0.0000000000
11
2.7638902677
21
-0.5338922828
31
0.0000000000
11
2.5788603005
21
-0.4077844038
31
0.0000000000
11
2.4549963967
21
-0.3762574340
31
0.0000000000
11
2.3852272148
21
-0.3683756916
31
0.0000000000
11
2.3102332129
21
-0.3657484441
31
0.0000000000
11
2.2203764191
21
-0.3698607402
31
0.0000000000
11
2.1375786561
21
-0.3821976286
31
0.0000000000
11
1.9931602221
21
-0.4315451821
31
0.0000000000
11
1.8769779110
21
-0.5137911046
31
0.0000000000
11
1.7890317228
21
-0.6289353961
31
0.0000000000
11
1.7256191313
21
-0.8000796550
31
0.0000000000
11
1.7019492521
21
-1.0148869225
31
0.0000000000
0
SPLINE
5
376
100
AcDbEntity
8
0
100
AcDbSpline
62
7
6
CONTINUOUS
70
0
71
3
72
17
73
13
74
11
42
0.0000001000
43
0.0000001000
44
0.0000000001
12
0.0360502146
22
1.2063921560
32
0.0000000000
13
0.0000000000
23
-1.2069307029
33
0.0000000000
40
0.0000000000
40
0.0000000000
40
0.0000000000
40
0.0000000000
40
0.1254570121
40
0.2245807092
40
0.3762339023
40
0.4554195431
40
0.5449694170
40
0.6071161786
40
0.6644104270
40
0.7725273771
40
0.8805957479
40
1.0000000000
40
1.0000000000
40
1.0000000000
40
1.0000000000
10
1.9347078652
20
-1.0148869229
30
0.0000000000
10
1.9362154493
20
-0.9644368045
30
0.0000000000
10
1.9440656683
20
-0.8739822604
30
0.0000000000
10
1.9865890322
20
-0.7273548189
30
0.0000000000
10
2.0824296060
20
-0.6218450974
30
0.0000000000
10
2.2057333702
20
-0.5787372394
30
0.0000000000
10
2.2989317366
20
-0.5702471049
30
0.0000000000
10
2.3831234437
20
-0.5760256484
30
0.0000000000
10
2.4723483927
20
-0.5985770230
30
0.0000000000
10
2.5687638605
20
-0.6588312806
30
0.0000000000
10
2.6438893978
20
-0.7762617649
30
0.0000000000
10
2.6562596057
20
-0.8695023533
30
0.0000000000
10
2.6562596057
20
-0.9175399059
30
0.0000000000
11
1.9347078652
21
-1.0148869229
31
0.0000000000
11
1.9504575008
21
-0.8642903262
31
0.0000000000
11
1.9876039124
21
-0.7505679404
31
0.0000000000
11
2.1128833991
21
-0.6171257320
31
0.0000000000
11
2.2024434386
21
-0.5837651799
31
0.0000000000
11
2.3099503422
21
-0.5726449958
31
0.0000000000
11
2.3847306295
21
-0.5784702742
31
0.0000000000
11
2.4516361122
21
-0.5959461093
31
0.0000000000
11
2.5618226636
21
-0.6658494496
31
0.0000000000
11
2.6326503702
21
-0.7753742906
31
0.0000000000
11
2.6562596057
21
-0.9175399059
31
0.0000000000
0
SPLINE
5
377
100
AcDbEntity
8
0
100
AcDbSpline
62
7
6
CONTINUOUS
70
0
71
3
72
9
73
5
74
3
42
0.0000001000
43
0.0000001000
44
0.0000000001
12
-0.1841667870
22
-0.2765178345
32
0.0000000000
13
-0.3322341317
23
0.0000000000
33
0.0000000000
40
0.0000000000
40
0.0000000000
40
0.0000000000
40
0.0000000000
40
0.5100675892
40
1.0000000000
40
1.0000000000
40
1.0000000000
40
1.0000000000
10
1.1140519081
20
-1.8669405223
30
0.0000000000
10
1.0827394050
20
-1.9139547841
30
0.0000000000
10
1.0022280846
20
-1.9978058670
30
0.0000000000
10
0.8881301889
20
-2.0235070648
30
0.0000000000
10
0.8338727658
20
-2.0235070648
30
0.0000000000
11
1.1140519081
21
-1.8669405223
31
0.0000000000
11
0.9918687909
21
-1.9843654292
31
0.0000000000
11
0.8338727658
21
-2.0235070648
31
0.0000000000
0
SPLINE
5
378
100
AcDbEntity
8
0
100
AcDbSpline
62
7
6
CONTINUOUS
70
0
71
3
72
20
73
16
74
14
42
0.0000001000
43
0.0000001000
44
0.0000000001
12
-1.8562317387
22
0.0000000000
32
0.0000000000
13
1.8499553161
23
-0.2054914892
33
0.0000000000
40
0.0000000000
40
0.0000000000
40
0.0000000000
40
0.0000000000
40
0.1062786178
40
0.2290850792
40
0.3368405819
40
0.4006328476
40
0.4714882451
40
0.5644992631
40
0.6459608483
40
0.7165855612
40
0.7774676612
40
0.8771663672
40
0.9241681257
40
0.9747655444
40
1.0000000000
40
1.0000000000
40
1.0000000000
40
1.0000000000
10
0.8338727658
20
-2.0235070648
30
0.0000000000
10
0.7681135180
20
-2.0235070648
30
0.0000000000
10
0.6195019163
20
-1.9740021028
30
0.0000000000
10
0.5175928600
20
-1.7772429841
30
0.0000000000
10
0.4813743044
20
-1.5996245166
30
0.0000000000
10
0.4677966962
20
-1.4499046787
30
0.0000000000
10
0.4643849606
20
-1.3090751519
30
0.0000000000
10
0.4689190144
20
-1.1571999355
30
0.0000000000
10
0.4852176563
20
-1.0062714331
30
0.0000000000
10
0.5134757449
20
-0.8770666644
30
0.0000000000
10
0.5619091217
20
-0.7426414909
30
0.0000000000
10
0.6440665381
20
-0.6341837178
30
0.0000000000
10
0.7581237014
20
-0.5845471438
30
0.0000000000
10
0.8344322566
20
-0.5762341543
30
0.0000000000
10
0.8815632176
20
-0.5785139436
30
0.0000000000
10
0.8971240893
20
-0.5802424322
30
0.0000000000
11
0.8338727658
21
-2.0235070648
31
0.0000000000
11
0.6472920956
21
-1.9594277264
31
0.0000000000
11
0.5247806513
21
-1.7671897114
31
0.0000000000
11
0.4805019361
21
-1.5721331313
31
0.0000000000
11
0.4694322573
21
-1.4542384546
31
0.0000000000
11
0.4657423643
21
-1.3227661867
31
0.0000000000
11
0.4715133441
21
-1.1502126601
31
0.0000000000
11
0.4888262834
21
-0.9999954706
31
0.0000000000
11
0.5176811822
21
-0.8721146182
31
0.0000000000
11
0.5580780405
21
-0.7665701030
31
0.0000000000
11
0.6772759207
21
-0.6250055830
31
0.0000000000
11
0.7570215139
21
-0.5896144530
31
0.0000000000
11
0.8501982092
21
-0.5778174096
31
0.0000000000
11
0.8971240893
21
-0.5802424322
31
0.0000000000
0
SPLINE
5
379
100
AcDbEntity
8
0
100
AcDbSpline
62
7
6
CONTINUOUS
70
0
71
3
72
9
73
5
74
3
42
0.0000001000
43
0.0000001000
44
0.0000000001
12
0.1821601148
22
-0.4805200057
32
0.0000000000
13
0.0000000000
23
-0.5138888822
33
0.0000000000
40
0.0000000000
40
0.0000000000
40
0.0000000000
40
0.0000000000
40
0.7133823030
40
1.0000000000
40
1.0000000000
40
1.0000000000
40
1.0000000000
10
1.1429446950
20
-0.7766724700
30
0.0000000000
10
1.1862612958
20
-0.8909372927
30
0.0000000000
10
1.2132491086
20
-1.0635983793
30
0.0000000000
10
1.2183285712
20
-1.2345128825
30
0.0000000000
10
1.2183285712
20
-1.2836094318
30
0.0000000000
11
1.1429446950
21
-0.7766724700
31
0.0000000000
11
1.2136170790
21
-1.1363951586
31
0.0000000000
11
1.2183285712
21
-1.2836094318
31
0.0000000000
0
SPLINE
5
37A
100
AcDbEntity
8
0
100
AcDbSpline
62
7
6
CONTINUOUS
70
0
71
3
72
9
73
5
74
3
42
0.0000001000
43
0.0000001000
44
0.0000000001
12
0.0000000000
22
-0.5975295406
32
0.0000000000
13
-0.3312275445
23
-0.4973226976
33
0.0000000000
40
0.0000000000
40
0.0000000000
40
0.0000000000
40
0.0000000000
40
0.6027480373
40
1.0000000000
40
1.0000000000
40
1.0000000000
40
1.0000000000
10
1.2183285712
20
-1.2836094318
30
0.0000000000
10
1.2183285712
20
-1.4036626844
30
0.0000000000
10
1.2097261548
20
-1.6015715022
30
0.0000000000
10
1.1579121721
20
-1.8010863831
30
0.0000000000
10
1.1140519081
20
-1.8669405223
30
0.0000000000
11
1.2183285712
21
-1.2836094318
31
0.0000000000
11
1.1922594054
21
-1.6428244784
31
0.0000000000
11
1.1140519081
21
-1.8669405223
31
0.0000000000
0
SPLINE
5
37B
100
AcDbEntity
8
0
100
AcDbSpline
62
7
6
CONTINUOUS
70
0
71
3
72
9
73
5
74
3
42
0.0000001000
43
0.0000001000
44
0.0000000001
12
-0.3052322493
22
-0.1770614383
32
0.0000000000
13
-0.3511915455
23
-0.0343796650
33
0.0000000000
40
0.0000000000
40
0.0000000000
40
0.0000000000
40
0.0000000000
40
0.6758568348
40
1.0000000000
40
1.0000000000
40
1.0000000000
40
1.0000000000
10
-2.1450940734
20
-0.6475035408
30
0.0000000000
10
-2.2138585074
20
-0.6873929352
30
0.0000000000
10
-2.3338524510
20
-0.7093491867
30
0.0000000000
10
-2.4497599472
20
-0.7241027144
30
0.0000000000
10
-2.4877053936
20
-0.7278173589
30
0.0000000000
11
-2.1450940734
21
-0.6475035408
31
0.0000000000
11
-2.3741893437
21
-0.7137814226
31
0.0000000000
11
-2.4877053936
21
-0.7278173589
31
0.0000000000
0
SPLINE
5
37C
100
AcDbEntity
8
0
100
AcDbSpline
62
7
6
CONTINUOUS
70
0
71
3
72
9
73
5
74
3
42
0.0000001000
43
0.0000001000
44
0.0000000001
12
-0.0684845086
22
-0.3005451031
32
0.0000000000
13
-0.2666348818
23
-0.1546715846
33
0.0000000000
40
0.0000000000
40
0.0000000000
40
0.0000000000
40
0.0000000000
40
0.8083984444
40
1.0000000000
40
1.0000000000
40
1.0000000000
40
1.0000000000
10
-2.0002463562
20
-0.3812659238
30
0.0000000000
10
-2.0187006129
20
-0.4622526551
30
0.0000000000
10
-2.0493479352
20
-0.5684644807
30
0.0000000000
10
-2.1280648540
20
-0.6376251020
30
0.0000000000
10
-2.1450940734
20
-0.6475035408
30
0.0000000000
11
-2.0002463562
21
-0.3812659238
31
0.0000000000
11
-2.0996649763
21
-0.6097623442
31
0.0000000000
11
-2.1450940734
21
-0.6475035408
31
0.0000000000
0
SPLINE
5
37D
100
AcDbEntity
8
0
100
AcDbSpline
62
7
6
CONTINUOUS
70
0
71
3
72
75
73
71
74
69
42
0.0000001000
43
0.0000001000
44
0.0000000001
12
-0.0378116464
22
-1.2088183311
32
0.0000000000
13
-0.0004937110
23
1.2094634855
33
0.0000000000
40
0.0000000000
40
0.0000000000
40
0.0000000000
40
0.0000000000
40
0.0058933751
40
0.0273482201
40
0.0482113901
40
0.0685198576
40
0.0883137040
40
0.1265218736
40
0.1632312236
40
0.1988752503
40
0.2339269980
40
0.2513935847
40
0.2600997311
40
0.2686966228
40
0.3020593508
40
0.3341049642
40
0.3652733741
40
0.3960421391
40
0.4114393652
40
0.4269227908
40
0.4347168914
40
0.4425552900
40
0.4504453405
40
0.4583942536
40
0.4664090809
40
0.4704434746
40
0.4724677733
40
0.4744969370
40
0.4765310693
40
0.4785702728
40
0.4790808790
40
0.4795918102
40
0.4798473981
40
0.4800496590
40
0.4804007440
40
0.4811026674
40
0.4818042657
40
0.4832065034
40
0.4846074928
40
0.4874058567
40
0.4901996448
40
0.4929891370
40
0.4985562901
40
0.5041096510
40
0.5096515017
40
0.5207092905
40
0.5317487216
40
0.5427883804
40
0.5538468508
40
0.5760894529
40
0.5986264267
40
0.6215974487
40
0.6332892669
40
0.6451173986
40
0.6687469505
40
0.6924076814
40
0.7162746390
40
0.7405184048
40
0.7653017806
40
0.7907772253
40
0.8038209002
40
0.8170810033
40
0.8303495848
40
0.8435384589
40
0.8697218363
40
0.8957313760
40
0.9476017411
40
0.9736875387
40
0.9868097524
40
1.0000000000
40
1.0000000000
40
1.0000000000
40
1.0000000000
10
4.1119741500
20
-1.6116905071
30
0.0000000000
10
4.1118998706
20
-1.6140651803
30
0.0000000000
10
4.1114988010
20
-1.6250831775
30
0.0000000000
10
4.1103198778
20
-1.6444884891
30
0.0000000000
10
4.1077584382
20
-1.6696121321
30
0.0000000000
10
4.1042095219
20
-1.6939405019
30
0.0000000000
10
4.0982322432
20
-1.7249476529
30
0.0000000000
10
4.0883432440
20
-1.7618969566
30
0.0000000000
10
4.0723388012
20
-1.8035892436
30
0.0000000000
10
4.0523262202
20
-1.8420920743
30
0.0000000000
10
4.0322755445
20
-1.8715492895
30
0.0000000000
10
4.0165851988
20
-1.8906186826
30
0.0000000000
10
4.0072113788
20
-1.9010422677
30
0.0000000000
10
3.9931919214
20
-1.9158966336
30
0.0000000000
10
3.9713288830
20
-1.9362918139
30
0.0000000000
10
3.9399701792
20
-1.9595144100
30
0.0000000000
10
3.9069279031
20
-1.9782491527
30
0.0000000000
10
3.8779931476
20
-1.9901023005
30
0.0000000000
10
3.8541857826
20
-1.9972815496
30
0.0000000000
10
3.8389925903
20
-2.0008328344
30
0.0000000000
10
3.8266565896
20
-2.0031152595
30
0.0000000000
10
3.8172818753
20
-2.0045526238
30
0.0000000000
10
3.8078059295
20
-2.0057114381
30
0.0000000000
10
3.7982286804
20
-2.0065917777
30
0.0000000000
10
3.7901810933
20
-2.0070922162
30
0.0000000000
10
3.7845120588
20
-2.0073211957
30
0.0000000000
10
3.7812529865
20
-2.0074176656
30
0.0000000000
10
3.7787994789
20
-2.0074727125
30
0.0000000000
10
3.7763396349
20
-2.0075103691
30
0.0000000000
10
3.7744917464
20
-2.0075255545
30
0.0000000000
10
3.7732578727
20
-2.0075302590
30
0.0000000000
10
3.7727430235
20
-2.0075313152
30
0.0000000000
10
3.7723524774
20
-2.0075316012
30
0.0000000000
10
3.7720263703
20
-2.0075315834
30
0.0000000000
10
3.7715203314
20
-2.0075310612
30
0.0000000000
10
3.7708129955
20
-2.0075290177
30
0.0000000000
10
3.7696819197
20
-2.0075229452
30
0.0000000000
10
3.7682690645
20
-2.0075101014
30
0.0000000000
10
3.7660111001
20
-2.0074783457
30
0.0000000000
10
3.7631925446
20
-2.0074176481
30
0.0000000000
10
3.7598152577
20
-2.0073111330
30
0.0000000000
10
3.7553239803
20
-2.0071243852
30
0.0000000000
10
3.7497249950
20
-2.0068069557
30
0.0000000000
10
3.7430272238
20
-2.0062911393
30
0.0000000000
10
3.7341382763
20
-2.0054245955
30
0.0000000000
10
3.7230835207
20
-2.0040045388
30
0.0000000000
10
3.7099112257
20
-2.0017600294
30
0.0000000000
10
3.6968416552
20
-1.9989762113
30
0.0000000000
10
3.6795220211
20
-1.9945378718
30
0.0000000000
10
3.6580745761
20
-1.9876144893
30
0.0000000000
10
3.6328134361
20
-1.9771589359
30
0.0000000000
10
3.6122319189
20
-1.9667071149
30
0.0000000000
10
3.5960156564
20
-1.9573042434
30
0.0000000000
10
3.5799134393
20
-1.9471969911
30
0.0000000000
10
3.5605623971
20
-1.9332295614
30
0.0000000000
10
3.5388154150
20
-1.9144697221
30
0.0000000000
10
3.5185821625
20
-1.8937386074
30
0.0000000000
10
3.4998651753
20
-1.8710415835
30
0.0000000000
10
3.4826640089
20
-1.8463836423
30
0.0000000000
10
3.4696957210
20
-1.8243759446
30
0.0000000000
10
3.4600719095
20
-1.8058489881
30
0.0000000000
10
3.4532241405
20
-1.7914371883
30
0.0000000000
10
3.4467880164
20
-1.7767737388
30
0.0000000000
10
3.4388391600
20
-1.7570948396
30
0.0000000000
10
3.4300781573
20
-1.7322159074
30
0.0000000000
10
3.4185952235
20
-1.6918463997
30
0.0000000000
10
3.4109150778
20
-1.6505129257
30
0.0000000000
10
3.4075881997
20
-1.6139288598
30
0.0000000000
10
3.4066340171
20
-1.5928236351
30
0.0000000000
10
3.4064792129
20
-1.5822159645
30
0.0000000000
10
3.4064770422
20
-1.5768982569
30
0.0000000000
11
4.1119741500
21
-1.6116905071
31
0.0000000000
11
4.1117145840
21
-1.6188133290
31
0.0000000000
11
4.1101265081
21
-1.6447120842
31
0.0000000000
11
4.1075527299
21
-1.6698123010
31
0.0000000000
11
4.1039932495
21
-1.6941139796
31
0.0000000000
11
4.0994480668
21
-1.7176171198
31
0.0000000000
11
4.0874005946
21
-1.7622277854
31
0.0000000000
11
4.0714103133
21
-1.8036442978
31
0.0000000000
11
4.0514772229
21
-1.8418666569
31
0.0000000000
11
4.0276013234
21
-1.8768948629
31
0.0000000000
11
4.0141848202
21
-1.8932111584
31
0.0000000000
11
4.0071507923
21
-1.9010460810
31
0.0000000000
11
4.0000117712
21
-1.9086047125
31
0.0000000000
11
3.9704415617
21
-1.9360569201
31
0.0000000000
11
3.9392487518
21
-1.9590574184
31
0.0000000000
11
3.9064333415
21
-1.9776062073
31
0.0000000000
11
3.8719953307
21
-1.9917032869
31
0.0000000000
11
3.8541678501
21
-1.9970824357
31
0.0000000000
11
3.8359347194
21
-2.0013486571
31
0.0000000000
11
3.8266660353
21
-2.0030644201
31
0.0000000000
11
3.8172959386
21
-2.0045019513
31
0.0000000000
11
3.8078244295
21
-2.0056612506
31
0.0000000000
11
3.7982515077
21
-2.0065423180
31
0.0000000000
11
3.7885771735
21
-2.0071451537
31
0.0000000000
11
3.7837019767
21
-2.0073422346
31
0.0000000000
11
3.7812548709
21
-2.0074146908
31
0.0000000000
11
3.7788014267
21
-2.0074697575
31
0.0000000000
11
3.7763416443
21
-2.0075074347
31
0.0000000000
11
3.7738755237
21
-2.0075277224
31
0.0000000000
11
3.7732580031
21
-2.0075300773
31
0.0000000000
11
3.7726400865
21
-2.0075313453
31
0.0000000000
11
3.7723309796
21
-2.0075315717
31
0.0000000000
11
3.7720863661
21
-2.0075315576
31
0.0000000000
11
3.7716617656
21
-2.0075311195
31
0.0000000000
11
3.7708128660
21
-2.0075286664
31
0.0000000000
11
3.7699643681
21
-2.0075241105
31
0.0000000000
11
3.7682685779
21
-2.0075086908
31
0.0000000000
11
3.7665743949
21
-2.0074848603
31
0.0000000000
11
3.7631908505
21
-2.0074119671
31
0.0000000000
11
3.7598137351
21
-2.0073054308
31
0.0000000000
11
3.7564430485
21
-2.0071652514
31
0.0000000000
11
3.7497209621
21
-2.0067839636
31
0.0000000000
11
3.7430245914
21
-2.0062681036
31
0.0000000000
11
3.7363539362
21
-2.0056176714
31
0.0000000000
11
3.7230897728
21
-2.0039130905
31
0.0000000000
11
3.7099284719
21
-2.0016702209
31
0.0000000000
11
3.6968700335
21
-1.9988890627
31
0.0000000000
11
3.6839144575
21
-1.9955696157
31
0.0000000000
11
3.6583118932
21
-1.9873158556
31
0.0000000000
11
3.6331207787
21
-1.9769089408
31
0.0000000000
11
3.6083411143
21
-1.9643488711
31
0.0000000000
11
3.5961055758
21
-1.9572614033
31
0.0000000000
11
3.5839997684
21
-1.9496404208
31
0.0000000000
11
3.5608289104
21
-1.9329136843
31
0.0000000000
11
3.5391576806
21
-1.9142271445
31
0.0000000000
11
3.5189860790
21
-1.8935808013
31
0.0000000000
11
3.5003141056
21
-1.8709746549
31
0.0000000000
11
3.4831417604
21
-1.8464087051
31
0.0000000000
11
3.4674690434
21
-1.8198829520
31
0.0000000000
11
3.4601950455
21
-1.8058851492
31
0.0000000000
11
3.4532984945
21
-1.7914071060
31
0.0000000000
11
3.4468486006
21
-1.7767134340
31
0.0000000000
11
3.4408764765
21
-1.7619230868
31
0.0000000000
11
3.4303655383
21
-1.7320523669
31
0.0000000000
11
3.4217656797
21
-1.7017949462
31
0.0000000000
11
3.4102992015
21
-1.6401200029
31
0.0000000000
11
3.4074325762
21
-1.6087024581
31
0.0000000000
11
3.4067159250
21
-1.5928486979
31
0.0000000000
11
3.4064770422
21
-1.5768982569
31
0.0000000000
0
SPLINE
5
37E
100
AcDbEntity
8
0
100
AcDbSpline
62
7
6
CONTINUOUS
70
0
71
3
72
53
73
49
74
47
42
0.0000001000
43
0.0000001000
44
0.0000000001
12
-0.0004937110
22
1.2094634855
32
0.0000000000
13
-0.0378116464
23
-1.2088183311
33
0.0000000000
40
0.0000000000
40
0.0000000000
40
0.0000000000
40
0.0000000000
40
0.0199364370
40
0.0393647407
40
0.0768496963
40
0.1475825270
40
0.1817862512
40
0.2157976429
40
0.2328882673
40
0.2501094840
40
0.2587660179
40
0.2673472785
40
0.2842631746
40
0.3008921080
40
0.3172842111
40
0.3495553266
40
0.3815271806
40
0.4136498478
40
0.4463671794
40
0.4630876945
40
0.4801115772
40
0.4887676144
40
0.4931592246
40
0.4975244451
40
0.5147337869
40
0.5315789910
40
0.5481099234
40
0.5804284492
40
0.6121529900
40
0.6437597572
40
0.6757302254
40
0.7085298565
40
0.7253600252
40
0.7422345000
40
0.7760723629
40
0.8104644311
40
0.8826695140
40
0.9017902722
40
0.9214175623
40
0.9415914630
40
0.9623488872
40
0.9729576203
40
0.9783211836
40
0.9810179678
40
0.9838117609
40
0.9893925950
40
0.9949328398
40
1.0000000000
40
1.0000000000
40
1.0000000000
40
1.0000000000
10
3.4064770422
20
-1.5768982569
30
0.0000000000
10
3.4064737612
20
-1.5688607927
30
0.0000000000
10
3.4068075359
20
-1.5529900050
30
0.0000000000
10
3.4088232555
20
-1.5220638076
30
0.0000000000
10
3.4157030684
20
-1.4710153438
30
0.0000000000
10
3.4320481525
20
-1.4154004005
30
0.0000000000
10
3.4571283068
20
-1.3651921408
30
0.0000000000
10
3.4760890908
20
-1.3363921961
30
0.0000000000
10
3.4932259679
20
-1.3148136724
30
0.0000000000
10
3.5047792835
20
-1.3018924483
30
0.0000000000
10
3.5144758264
20
-1.2919431810
30
0.0000000000
10
3.5243299685
20
-1.2823254738
30
0.0000000000
10
3.5369429484
20
-1.2709411605
30
0.0000000000
10
3.5526020256
20
-1.2582730528
30
0.0000000000
10
3.5739655957
20
-1.2428782607
30
0.0000000000
10
3.6019358429
20
-1.2261582019
30
0.0000000000
10
3.6374926479
20
-1.2102843145
30
0.0000000000
10
3.6748575298
20
-1.1987051932
30
0.0000000000
10
3.7072581670
20
-1.1926793206
30
0.0000000000
10
3.7339231615
20
-1.1899645908
30
0.0000000000
10
3.7510053547
20
-1.1891422967
30
0.0000000000
10
3.7631286007
20
-1.1890256901
30
0.0000000000
10
3.7701482093
20
-1.1890887556
30
0.0000000000
10
3.7806136842
20
-1.1893141850
30
0.0000000000
10
3.7960878209
20
-1.1901368262
30
0.0000000000
10
3.8163753650
20
-1.1923047603
30
0.0000000000
10
3.8425233289
20
-1.1965767602
30
0.0000000000
10
3.8740931639
20
-1.2045617476
30
0.0000000000
10
3.9101418174
20
-1.2185176124
30
0.0000000000
10
3.9440581198
20
-1.2367763735
30
0.0000000000
10
3.9758202054
20
-1.2593170337
30
0.0000000000
10
4.0002470275
20
-1.2814637239
30
0.0000000000
10
4.0185909831
20
-1.3010319704
30
0.0000000000
10
4.0359961806
20
-1.3219904272
30
0.0000000000
10
4.0554389436
20
-1.3503740418
30
0.0000000000
10
4.0816354662
20
-1.4006857371
30
0.0000000000
10
4.0969411563
20
-1.4495115624
30
0.0000000000
10
4.1051723070
20
-1.4934718076
30
0.0000000000
10
4.1084619482
20
-1.5170074914
30
0.0000000000
10
4.1107747060
20
-1.5413172968
30
0.0000000000
10
4.1118821050
20
-1.5620714863
30
0.0000000000
10
4.1122388753
20
-1.5768748433
30
0.0000000000
10
4.1123131849
20
-1.5844006986
30
0.0000000000
10
4.1123255289
20
-1.5887763454
30
0.0000000000
10
4.1123174718
20
-1.5932395908
30
0.0000000000
10
4.1122693870
20
-1.5988489992
30
0.0000000000
10
4.1121529097
20
-1.6053740464
30
0.0000000000
10
4.1120380159
20
-1.6096487483
30
0.0000000000
10
4.1119741500
20
-1.6116905071
30
0.0000000000
11
3.4064770422
21
-1.5768982569
31
0.0000000000
11
3.4069910677
21
-1.5527926942
31
0.0000000000
11
3.4085331412
21
-1.5293468435
31
0.0000000000
11
3.4147014116
21
-1.4844342919
31
0.0000000000
11
3.4393745198
21
-1.4025257373
31
0.0000000000
11
3.4578793509
21
-1.3655297389
31
0.0000000000
11
3.4804963668
21
-1.3311725931
31
0.0000000000
11
3.4933469440
21
-1.3149835899
31
0.0000000000
11
3.5072255674
21
-1.2994542999
31
0.0000000000
11
3.5145280029
21
-1.2919524288
31
0.0000000000
11
3.5219566721
21
-1.2847053141
31
0.0000000000
11
3.5371497159
21
-1.2710048863
31
0.0000000000
11
3.5527903670
21
-1.2583628607
31
0.0000000000
11
3.5688786255
21
-1.2467792372
31
0.0000000000
11
3.6023979643
21
-1.2267871966
31
0.0000000000
11
3.6377077323
21
-1.2110287647
31
0.0000000000
11
3.6748079295
21
-1.1995039413
31
0.0000000000
11
3.7136985559
21
-1.1922127265
31
0.0000000000
11
3.7338152801
21
-1.1901547223
31
0.0000000000
11
3.7543796116
21
-1.1891551203
31
0.0000000000
11
3.7648476806
21
-1.1890522201
31
0.0000000000
11
3.7701586605
21
-1.1890999952
31
0.0000000000
11
3.7754367103
21
-1.1892139204
31
0.0000000000
11
3.7962196090
21
-1.1903311227
31
0.0000000000
11
3.8164756269
21
-1.1925067271
31
0.0000000000
11
3.8362047640
21
-1.1957407337
31
0.0000000000
11
3.8740823957
21
-1.2053839532
31
0.0000000000
11
3.9098525041
21
-1.2192607814
31
0.0000000000
11
3.9435150891
21
-1.2373712181
31
0.0000000000
11
3.9750701508
21
-1.2597152634
31
0.0000000000
11
4.0045176892
21
-1.2862929173
31
0.0000000000
11
4.0184263239
21
-1.3011539009
31
0.0000000000
11
4.0314606907
21
-1.3168570348
31
0.0000000000
11
4.0546088609
21
-1.3506043945
31
0.0000000000
11
4.0738629463
21
-1.3874732102
31
0.0000000000
11
4.1006888632
21
-1.4705752095
31
0.0000000000
11
4.1049615395
21
-1.4933016194
31
0.0000000000
11
4.1082606945
21
-1.5168083932
31
0.0000000000
11
4.1105863285
21
-1.5410955310
31
0.0000000000
11
4.1119384412
21
-1.5661630329
31
0.0000000000
11
4.1122494271
21
-1.5789894203
31
0.0000000000
11
4.1123136525
21
-1.5854757731
31
0.0000000000
11
4.1123229483
21
-1.5887372393
31
0.0000000000
11
4.1123169576
21
-1.5921160355
31
0.0000000000
11
4.1122587738
21
-1.5988652218
31
0.0000000000
11
4.1121389836
21
-1.6055644995
31
0.0000000000
11
4.1119741500
21
-1.6116905071
31
0.0000000000
0
SPLINE
5
37F
100
AcDbEntity
8
0
100
AcDbSpline
62
7
6
CONTINUOUS
70
0
71
3
72
25
73
21
74
19
42
0.0000001000
43
0.0000001000
44
0.0000000001
12
2.5236683417
22
0.0409755799
32
0.0000000000
13
-2.5265783236
23
-0.0080770910
33
0.0000000000
40
0.0000000000
40
0.0000000000
40
0.0000000000
40
0.0000000000
40
0.0297992344
40
0.0624168073
40
0.1244761135
40
0.1877496050
40
0.2580749515
40
0.3125726269
40
0.3715633739
40
0.4358215102
40
0.5059470848
40
0.5791430986
40
0.6446856233
40
0.7033434619
40
0.7561867675
40
0.8178431113
40
0.8757608754
40
0.9348539797
40
0.9664314256
40
1.0000000000
40
1.0000000000
40
1.0000000000
40
1.0000000000
10
0.8476990509
20
-2.2303070021
30
0.0000000000
10
0.8727668457
20
-2.2298999885
30
0.0000000000
10
0.9251536711
20
-2.2263313033
30
0.0000000000
10
1.0280355553
20
-2.2060855784
30
0.0000000000
10
1.1513396222
20
-2.1506326111
30
0.0000000000
10
1.2726798873
20
-2.0358255205
30
0.0000000000
10
1.3532243261
20
-1.8979537397
30
0.0000000000
10
1.4062624867
20
-1.7525582493
30
0.0000000000
10
1.4400963732
20
-1.6067828095
30
0.0000000000
10
1.4600362568
20
-1.4453209107
30
0.0000000000
10
1.4661736269
20
-1.2708903732
30
0.0000000000
10
1.4597810788
20
-1.0953572551
30
0.0000000000
10
1.4379820510
20
-0.9306701955
30
0.0000000000
10
1.4009262300
20
-0.7861613238
30
0.0000000000
10
1.3440484212
20
-0.6516707867
30
0.0000000000
10
1.2606206557
20
-0.5311774563
30
0.0000000000
10
1.1414856653
20
-0.4361139541
30
0.0000000000
10
1.0230779639
20
-0.3910291801
30
0.0000000000
10
0.9199527456
20
-0.3736964496
30
0.0000000000
10
0.8652555149
20
-0.3708304791
30
0.0000000000
10
0.8369843040
20
-0.3709208579
30
0.0000000000
11
0.8476990509
21
-2.2303070021
31
0.0000000000
11
0.9226062987
21
-2.2249919023
31
0.0000000000
11
1.0031859668
21
-2.2087567595
31
0.0000000000
11
1.1454601842
21
-2.1438161883
31
0.0000000000
11
1.2625542433
21
-2.0355819029
31
0.0000000000
11
1.3544681439
21
-1.8840539034
31
0.0000000000
11
1.4023963050
21
-1.7553497126
31
0.0000000000
11
1.4366307058
21
-1.6106837741
31
0.0000000000
11
1.4571713463
21
-1.4500560882
31
0.0000000000
11
1.4640182264
21
-1.2734666547
31
0.0000000000
11
1.4564641794
21
-1.0891615215
31
0.0000000000
11
1.4338020383
21
-0.9255510996
31
0.0000000000
11
1.3960318032
21
-0.7826353891
31
0.0000000000
11
1.3431534740
21
-0.6604143899
31
0.0000000000
11
1.2529960307
21
-0.5338669251
31
0.0000000000
11
1.1385400731
21
-0.4432942409
31
0.0000000000
11
0.9998736924
21
-0.3889930126
31
0.0000000000
11
0.9214592337
21
-0.3754362477
31
0.0000000000
11
0.8369843040
21
-0.3709208579
31
0.0000000000
0
SPLINE
5
380
100
AcDbEntity
8
0
100
AcDbSpline
62
7
6
CONTINUOUS
70
0
71
3
72
24
73
20
74
18
42
0.0000001000
43
0.0000001000
44
0.0000000001
12
-2.5265783236
22
-0.0080770910
32
0.0000000000
13
2.5236683417
23
0.0409755799
33
0.0000000000
40
0.0000000000
40
0.0000000000
40
0.0000000000
40
0.0000000000
40
0.0719587609
40
0.1387013532
40
0.2083807840
40
0.2882212926
40
0.3362877372
40
0.3876179851
40
0.4426418078
40
0.5017084079
40
0.5767717273
40
0.6444565891
40
0.7056351786
40
0.7614853333
40
0.8221739429
40
0.8783394826
40
0.9345224488
40
0.9952594299
40
1.0000000000
40
1.0000000000
40
1.0000000000
40
1.0000000000
10
0.8369843040
20
-0.3709208579
30
0.0000000000
10
0.7763811556
20
-0.3711145971
30
0.0000000000
10
0.6587998661
20
-0.3853687662
30
0.0000000000
10
0.4994927901
20
-0.4670802345
30
0.0000000000
10
0.3761060979
20
-0.6049742477
30
0.0000000000
10
0.3047104884
20
-0.7566955015
30
0.0000000000
10
0.2620535530
20
-0.9012421551
30
0.0000000000
10
0.2375403869
20
-1.0288326384
30
0.0000000000
10
0.2230126300
20
-1.1671710865
30
0.0000000000
10
0.2181100882
20
-1.3260956375
30
0.0000000000
10
0.2247349471
20
-1.4957231670
30
0.0000000000
10
0.2486813098
20
-1.6657000579
30
0.0000000000
10
0.2894000797
20
-1.8159516888
30
0.0000000000
10
0.3499794756
20
-1.9530559087
30
0.0000000000
10
0.4342880302
20
-2.0729437476
30
0.0000000000
10
0.5487913225
20
-2.1658795498
30
0.0000000000
10
0.6858951482
20
-2.2202900949
30
0.0000000000
10
0.7886100058
20
-2.2308127922
30
0.0000000000
10
0.8437111753
20
-2.2303717513
30
0.0000000000
10
0.8476990509
20
-2.2303070021
30
0.0000000000
11
0.8369843040
21
-0.3709208579
31
0.0000000000
11
0.6574851485
21
-0.3967072336
31
0.0000000000
11
0.5080713120
21
-0.4739448277
31
0.0000000000
11
0.3886966524
21
-0.6027247900
31
0.0000000000
11
0.2993765503
21
-0.7830167372
31
0.0000000000
11
0.2646723698
21
-0.8990702534
31
0.0000000000
11
0.2398836695
21
-1.0260292726
31
0.0000000000
11
0.2250104492
21
-1.1638937947
31
0.0000000000
11
0.2200527092
21
-1.3126638197
31
0.0000000000
11
0.2283164487
21
-1.5016488686
31
0.0000000000
11
0.2531076673
21
-1.6704089736
31
0.0000000000
11
0.2944263650
21
-1.8189441347
31
0.0000000000
11
0.3522725417
21
-1.9472543517
31
0.0000000000
11
0.4419664446
21
-2.0711321551
31
0.0000000000
11
0.5524409204
21
-2.1596163003
31
0.0000000000
11
0.6836959692
21
-2.2127067875
31
0.0000000000
11
0.8357315909
21
-2.2304036165
31
0.0000000000
11
0.8476990509
21
-2.2303070021
31
0.0000000000
0
SPLINE
5
381
100
AcDbEntity
8
0
100
AcDbSpline
62
7
6
CONTINUOUS
70
0
71
3
72
12
73
8
74
6
42
0.0000001000
43
0.0000001000
44
0.0000000001
12
0.4787330669
22
-0.0602625404
32
0.0000000000
13
0.0000000000
23
-0.4825111728
33
0.0000000000
40
0.0000000000
40
0.0000000000
40
0.0000000000
40
0.0000000000
40
0.2976582067
40
0.4627470519
40
0.6312985730
40
0.8298444089
40
1.0000000000
40
1.0000000000
40
1.0000000000
40
1.0000000000
10
-2.7059356200
20
3.5246441088
30
0.0000000000
10
-2.6584360113
20
3.5186648956
30
0.0000000000
10
-2.5834493493
20
3.5157007916
30
0.0000000000
10
-2.4874640063
20
3.4741201302
30
0.0000000000
10
-2.4328035435
20
3.4048665730
30
0.0000000000
10
-2.4034170284
20
3.3221045612
30
0.0000000000
10
-2.4004482518
20
3.2624049021
30
0.0000000000
10
-2.4004482518
20
3.2350375775
30
0.0000000000
11
-2.7059356200
21
3.5246441088
31
0.0000000000
11
-2.5638820488
21
3.5034670779
31
0.0000000000
11
-2.4920205515
21
3.4690985357
31
0.0000000000
11
-2.4395998458
21
3.4069188612
31
0.0000000000
11
-2.4068513696
21
3.3168894815
31
0.0000000000
11
-2.4004482518
21
3.2350375775
31
0.0000000000
0
SPLINE
5
382
100
AcDbEntity
8
0
100
AcDbSpline
62
7
6
CONTINUOUS
70
0
71
3
72
12
73
8
74
6
42
0.0000001000
43
0.0000001000
44
0.0000000001
12
0.0000000000
22
-0.4825111602
32
0.0000000000
13
-0.4787330557
23
-0.0602625316
33
0.0000000000
40
0.0000000000
40
0.0000000000
40
0.0000000000
40
0.0000000000
40
0.1701555955
40
0.3687014366
40
0.5372529621
40
0.7023418116
40
1.0000000000
40
1.0000000000
40
1.0000000000
40
1.0000000000
10
-2.4004482518
20
3.2350375775
30
0.0000000000
10
-2.4004482518
20
3.2076702529
30
0.0000000000
10
-2.4034170284
20
3.1479705937
30
0.0000000000
10
-2.4328035435
20
3.0652085819
30
0.0000000000
10
-2.4874640063
20
2.9959550247
30
0.0000000000
10
-2.5834493454
20
2.9543743650
30
0.0000000000
10
-2.6584360028
20
2.9514102597
30
0.0000000000
10
-2.7059356075
20
2.9454310477
30
0.0000000000
11
-2.4004482518
21
3.2350375775
31
0.0000000000
11
-2.4068513696
21
3.1531856735
31
0.0000000000
11
-2.4395998458
21
3.0631562937
31
0.0000000000
11
-2.4920205515
21
3.0009766193
31
0.0000000000
11
-2.5638820488
21
2.9666080771
31
0.0000000000
11
-2.7059356075
21
2.9454310477
31
0.0000000000
0
SPLINE
5
383
100
AcDbEntity
8
0
100
AcDbSpline
62
7
6
CONTINUOUS
70
0
71
3
72
14
73
10
74
8
42
0.0000001000
43
0.0000001000
44
0.0000000001
12
0.0000000000
22
1.2061066505
32
0.0000000000
13
-1.2052792685
23
0.0446696548
33
0.0000000000
40
0.0000000000
40
0.0000000000
40
0.0000000000
40
0.0000000000
40
0.1009483873
40
0.1903223882
40
0.3458571934
40
0.4912973956
40
0.6445163665
40
0.8126432293
40
1.0000000000
40
1.0000000000
40
1.0000000000
40
1.0000000000
10
-1.9319406054
20
3.2350375775
30
0.0000000000
10
-1.9319406054
20
3.2756224179
30
0.0000000000
10
-1.9363419343
20
3.3523245598
30
0.0000000000
10
-1.9645110108
20
3.4888239922
30
0.0000000000
10
-2.0356901933
20
3.6334476841
30
0.0000000000
10
-2.1783630535
20
3.7542755254
30
0.0000000000
10
-2.3547037829
20
3.8241701586
30
0.0000000000
10
-2.5570658319
20
3.8602361958
30
0.0000000000
10
-2.7002062640
20
3.8625304257
30
0.0000000000
10
-2.7754786745
20
3.8653201465
30
0.0000000000
11
-1.9319406054
21
3.2350375775
31
0.0000000000
11
-1.9397323512
21
3.3565425245
31
0.0000000000
11
-1.9624132746
21
3.4619239579
31
0.0000000000
11
-2.0481224785
21
3.6287907518
31
0.0000000000
11
-2.1804278652
21
3.7439697269
31
0.0000000000
11
-2.3505347910
21
3.8161783812
31
0.0000000000
11
-2.5498029041
21
3.8537484822
31
0.0000000000
11
-2.7754786745
21
3.8653201465
31
0.0000000000
0
SPLINE
5
384
100
AcDbEntity
8
0
100
AcDbSpline
62
7
6
CONTINUOUS
70
0
71
3
72
14
73
10
74
8
42
0.0000001000
43
0.0000001000
44
0.0000000001
12
1.2052792386
22
0.0446696468
32
0.0000000000
13
0.0000000000
23
1.2061066198
33
0.0000000000
40
0.0000000000
40
0.0000000000
40
0.0000000000
40
0.0000000000
40
0.1873567500
40
0.3554836171
40
0.5087025918
40
0.6541427977
40
0.8096776070
40
0.8990516101
40
1.0000000000
40
1.0000000000
40
1.0000000000
40
1.0000000000
10
-2.7754786438
20
2.6047550096
30
0.0000000000
10
-2.7002062435
20
2.6075447296
30
0.0000000000
10
-2.5570658218
20
2.6098389610
30
0.0000000000
10
-2.3547037829
20
2.6459049964
30
0.0000000000
10
-2.1783630535
20
2.7157996295
30
0.0000000000
10
-2.0356901933
20
2.8366274709
30
0.0000000000
10
-1.9645110108
20
2.9812511627
30
0.0000000000
10
-1.9363419343
20
3.1177505952
30
0.0000000000
10
-1.9319406054
20
3.1944527371
30
0.0000000000
10
-1.9319406054
20
3.2350375775
30
0.0000000000
11
-2.7754786438
21
2.6047550096
31
0.0000000000
11
-2.5498029041
21
2.6163266727
31
0.0000000000
11
-2.3505347910
21
2.6538967738
31
0.0000000000
11
-2.1804278652
21
2.7261054280
31
0.0000000000
11
-2.0481224785
21
2.8412844032
31
0.0000000000
11
-1.9624132746
21
3.0081511971
31
0.0000000000
11
-1.9397323512
21
3.1135326305
31
0.0000000000
11
-1.9319406054
21
3.2350375775
31
0.0000000000
0
SPLINE
5
385
100
AcDbEntity
8
0
100
AcDbSpline
62
7
6
CONTINUOUS
70
0
71
3
72
15
73
11
74
9
42
0.0000001000
43
0.0000001000
44
0.0000000001
12
1.2544455271
22
0.0000000000
32
0.0000000000
13
0.0000000000
23
1.2544455271
33
0.0000000000
40
0.0000000000
40
0.0000000000
40
0.0000000000
40
0.0000000000
40
0.1249999833
40
0.2499998186
40
0.3750000602
40
0.5000001926
40
0.6250002680
40
0.7500003740
40
0.8750000775
40
1.0000000000
40
1.0000000000
40
1.0000000000
40
1.0000000000
10
11.5978984489
20
-21.5096799218
30
0.0000000000
10
11.6501670055
20
-21.5096799218
30
0.0000000000
10
11.7549936917
20
-21.4993704880
30
0.0000000000
10
11.9059677821
20
-21.4535664617
30
0.0000000000
10
12.0451662062
20
-21.3791785228
30
0.0000000000
10
12.1671585573
20
-21.2790615623
30
0.0000000000
10
12.2672754124
20
-21.1570691996
30
0.0000000000
10
12.3416632288
20
-21.0178708675
30
0.0000000000
10
12.3874671842
20
-20.8668969021
30
0.0000000000
10
12.3977766050
20
-20.7620702969
30
0.0000000000
10
12.3977766050
20
-20.7098017657
30
0.0000000000
11
11.5978984489
21
-21.5096799218
31
0.0000000000
11
11.7539494070
21
-21.4943138368
31
0.0000000000
11
11.9040050044
21
-21.4488025456
31
0.0000000000
11
12.0422985497
21
-21.3748903338
31
0.0000000000
11
12.1635126656
21
-21.2754156390
31
0.0000000000
11
12.2629872468
21
-21.1542015225
31
0.0000000000
11
12.3368993217
21
-21.0159080969
31
0.0000000000
11
12.3824105349
21
-20.8658526487
31
0.0000000000
11
12.3977766050
21
-20.7098017657
31
0.0000000000
0
SPLINE
5
386
100
AcDbEntity
8
0
100
AcDbSpline
62
7
6
CONTINUOUS
70
0
71
3
72
15
73
11
74
9
42
0.0000001000
43
0.0000001000
44
0.0000000001
12
0.0000000000
22
1.2544455271
32
0.0000000000
13
-1.2544455271
23
0.0000000000
33
0.0000000000
40
0.0000000000
40
0.0000000000
40
0.0000000000
40
0.0000000000
40
0.1249999833
40
0.2499998186
40
0.3750000602
40
0.5000001926
40
0.6250002680
40
0.7500003740
40
0.8750000775
40
1.0000000000
40
1.0000000000
40
1.0000000000
40
1.0000000000
10
12.3977766050
20
21.3904419221
30
0.0000000000
10
12.3977766050
20
21.4427104787
30
0.0000000000
10
12.3874671713
20
21.5475371649
30
0.0000000000
10
12.3416631449
20
21.6985112553
30
0.0000000000
10
12.2672752060
20
21.8377096794
30
0.0000000000
10
12.1671582455
20
21.9597020305
30
0.0000000000
10
12.0451658829
20
22.0598188856
30
0.0000000000
10
11.9059675507
20
22.1342067020
30
0.0000000000
10
11.7549935853
20
22.1800106575
30
0.0000000000
10
11.6501669801
20
22.1903200782
30
0.0000000000
10
11.5978984489
20
22.1903200782
30
0.0000000000
11
12.3977766050
21
21.3904419221
31
0.0000000000
11
12.3824105200
21
21.5464928802
31
0.0000000000
11
12.3368992288
21
21.6965484776
31
0.0000000000
11
12.2629870170
21
21.8348420229
31
0.0000000000
11
12.1635123222
21
21.9560561388
31
0.0000000000
11
12.0422982057
21
22.0555307200
31
0.0000000000
11
11.9040047801
21
22.1294427949
31
0.0000000000
11
11.7539493319
21
22.1749540081
31
0.0000000000
11
11.5978984489
21
22.1903200782
31
0.0000000000
0
SPLINE
5
387
100
AcDbEntity
8
0
100
AcDbSpline
62
7
6
CONTINUOUS
70
0
71
3
72
15
73
11
74
9
42
0.0000001000
43
0.0000001000
44
0.0000000001
12
0.0000000000
22
-1.2544455271
32
0.0000000000
13
1.2544455271
23
0.0000000000
33
0.0000000000
40
0.0000000000
40
0.0000000000
40
0.0000000000
40
0.0000000000
40
0.1249999833
40
0.2499998186
40
0.3750000602
40
0.5000001926
40
0.6250002680
40
0.7500003740
40
0.8750000775
40
1.0000000000
40
1.0000000000
40
1.0000000000
40
1.0000000000
10
-9.8022233950
20
-20.7098017657
30
0.0000000000
10
-9.8022233950
20
-20.7620703223
30
0.0000000000
10
-9.7919139612
20
-20.8668970085
30
0.0000000000
10
-9.7461099349
20
-21.0178710989
30
0.0000000000
10
-9.6717219960
20
-21.1570695230
30
0.0000000000
10
-9.5716050355
20
-21.2790618741
30
0.0000000000
10
-9.4496126728
20
-21.3791787291
30
0.0000000000
10
-9.3104143407
20
-21.4535665456
30
0.0000000000
10
-9.1594403753
20
-21.4993705010
30
0.0000000000
10
-9.0546137701
20
-21.5096799218
30
0.0000000000
10
-9.0023452389
20
-21.5096799218
30
0.0000000000
11
-9.8022233950
21
-20.7098017657
31
0.0000000000
11
-9.7868573100
21
-20.8658527238
31
0.0000000000
11
-9.7413460188
21
-21.0159083212
31
0.0000000000
11
-9.6674338070
21
-21.1542018665
31
0.0000000000
11
-9.5679591122
21
-21.2754159824
31
0.0000000000
11
-9.4467449957
21
-21.3748905636
31
0.0000000000
11
-9.3084515701
21
-21.4488026385
31
0.0000000000
11
-9.1583961219
21
-21.4943138517
31
0.0000000000
11
-9.0023452389
21
-21.5096799218
31
0.0000000000
0
SPLINE
5
388
100
AcDbEntity
8
0
100
AcDbSpline
62
7
6
CONTINUOUS
70
0
71
3
72
15
73
11
74
9
42
0.0000001000
43
0.0000001000
44
0.0000000001
12
-1.2544455271
22
0.0000000000
32
0.0000000000
13
0.0000000000
23
-1.2544455271
33
0.0000000000
40
0.0000000000
40
0.0000000000
40
0.0000000000
40
0.0000000000
40
0.1249999833
40
0.2499998186
40
0.3750000602
40
0.5000001926
40
0.6250002680
40
0.7500003740
40
0.8750000775
40
1.0000000000
40
1.0000000000
40
1.0000000000
40
1.0000000000
10
-9.0023452389
20
22.1903200782
30
0.0000000000
10
-9.0546137955
20
22.1903200782
30
0.0000000000
10
-9.1594404817
20
22.1800106445
30
0.0000000000
10
-9.3104145721
20
22.1342066182
30
0.0000000000
10
-9.4496129962
20
22.0598186792
30
0.0000000000
10
-9.5716053473
20
21.9597017187
30
0.0000000000
10
-9.6717222024
20
21.8377093561
30
0.0000000000
10
-9.7461100188
20
21.6985110239
30
0.0000000000
10
-9.7919139742
20
21.5475370585
30
0.0000000000
10
-9.8022233950
20
21.4427104533
30
0.0000000000
10
-9.8022233950
20
21.3904419221
30
0.0000000000
11
-9.0023452389
21
22.1903200782
31
0.0000000000
11
-9.1583961970
21
22.1749539932
31
0.0000000000
11
-9.3084517944
21
22.1294427020
31
0.0000000000
11
-9.4467453397
21
22.0555304902
31
0.0000000000
11
-9.5679594556
21
21.9560557954
31
0.0000000000
11
-9.6674340368
21
21.8348416789
31
0.0000000000
11
-9.7413461117
21
21.6965482533
31
0.0000000000
11
-9.7868573249
21
21.5464928051
31
0.0000000000
11
-9.8022233950
21
21.3904419221
31
0.0000000000
0
SPLINE
5
389
100
AcDbEntity
8
0
100
AcDbSpline
62
7
6
CONTINUOUS
70
0
71
3
72
111
73
107
74
105
42
0.0000001000
43
0.0000001000
44
0.0000000001
12
0.3066627702
22
-1.9657544017
32
0.0000000000
13
-0.3533855620
23
1.9579719721
33
0.0000000000
40
0.0000000000
40
0.0000000000
40
0.0000000000
40
0.0000000000
40
0.0111823444
40
0.0481649856
40
0.0829216782
40
0.1156265501
40
0.1464884794
40
0.1757558289
40
0.2037194817
40
0.2173200251
40
0.2307064294
40
0.2569209766
40
0.2825608024
40
0.3078316377
40
0.3329482822
40
0.3581294820
40
0.3708156703
40
0.3835988935
40
0.3965051222
40
0.4095595925
40
0.4227866924
40
0.4294726991
40
0.4362105700
40
0.4430030772
40
0.4464207092
40
0.4498530092
40
0.4533003049
40
0.4567629198
40
0.4602411730
40
0.4619862674
40
0.4628603230
40
0.4637353903
40
0.4646114741
40
0.4650498987
40
0.4654885793
40
0.4657080158
40
0.4659135542
40
0.4660423152
40
0.4661710545
40
0.4664284682
40
0.4666857955
40
0.4677142437
40
0.4687413218
40
0.4697670393
40
0.4707914058
40
0.4728361220
40
0.4769097485
40
0.4809628497
40
0.4890098677
40
0.4969825362
40
0.5048862041
40
0.5127263619
40
0.5205086342
40
0.5282387722
40
0.5435647180
40
0.5587538176
40
0.5738555453
40
0.5889202368
40
0.6039985983
40
0.6342532181
40
0.6643629222
40
0.6946616038
40
0.7255725117
40
0.7413893585
40
0.7575058977
40
0.7656910867
40
0.7739543661
40
0.7904387498
40
0.8068523145
40
0.8232332934
40
0.8396201481
40
0.8560512987
40
0.8725648560
40
0.8808648766
40
0.8891995133
40
0.8975733308
40
0.9059908300
40
0.9102174163
40
0.9144565783
40
0.9187088583
40
0.9229747932
40
0.9251130560
40
0.9272549316
40
0.9294004857
40
0.9304746636
40
0.9315497856
40
0.9326258598
40
0.9331642566
40
0.9334335453
40
0.9335844152
40
0.9337892636
40
0.9341987806
40
0.9346080583
40
0.9354258970
40
0.9362427828
40
0.9370587189
40
0.9386877530
40
0.9403130245
40
0.9435523723
40
0.9499869617
40
0.9563641689
40
0.9626856648
40
0.9689531646
40
0.9813328040
40
0.9935181376
40
1.0000000000
40
1.0000000000
40
1.0000000000
40
1.0000000000
10
3.1734773919
20
-1.6025242398
30
0.0000000000
10
3.1746204615
20
-1.6098514874
30
0.0000000000
10
3.1798010690
20
-1.6413719624
30
0.0000000000
10
3.1907240488
20
-1.6953053530
30
0.0000000000
10
3.2089503986
20
-1.7621864341
30
0.0000000000
10
3.2307829181
20
-1.8236999318
30
0.0000000000
10
3.2562359062
20
-1.8798480776
30
0.0000000000
10
3.2853298103
20
-1.9306136793
30
0.0000000000
10
3.3128689704
20
-1.9687997424
30
0.0000000000
10
3.3366893548
20
-1.9963949212
30
0.0000000000
10
3.3607628579
20
-2.0221961148
30
0.0000000000
10
3.3922456964
20
-2.0519579238
30
0.0000000000
10
3.4324074229
20
-2.0837365137
30
0.0000000000
10
3.4746993354
20
-2.1113188643
30
0.0000000000
10
3.5191083491
20
-2.1346958724
30
0.0000000000
10
3.5577888544
20
-2.1506312138
30
0.0000000000
10
3.5896640839
20
-2.1612552233
30
0.0000000000
10
3.6141571811
20
-2.1681992125
30
0.0000000000
10
3.6391731516
20
-2.1740972928
30
0.0000000000
10
3.6647120885
20
-2.1789500206
30
0.0000000000
10
3.6863522742
20
-2.1821114860
30
0.0000000000
10
3.7039124310
20
-2.1841227553
30
0.0000000000
10
3.7172614706
20
-2.1853758228
30
0.0000000000
10
3.7284712516
20
-2.1862008900
30
0.0000000000
10
3.7375029825
20
-2.1867312564
30
0.0000000000
10
3.7443237002
20
-2.1870646585
30
0.0000000000
10
3.7511771394
20
-2.1873328534
30
0.0000000000
10
3.7580633049
20
-2.1875358421
30
0.0000000000
10
3.7638224719
20
-2.1876505298
30
0.0000000000
10
3.7678657293
20
-2.1877023505
30
0.0000000000
10
3.7701828695
20
-2.1877238598
30
0.0000000000
10
3.7719237710
20
-2.1877359259
30
0.0000000000
10
3.7733758043
20
-2.1877425833
30
0.0000000000
10
3.7745384511
20
-2.1877458732
30
0.0000000000
10
3.7752656369
20
-2.1877470814
30
0.0000000000
10
3.7758383817
20
-2.1877475302
30
0.0000000000
10
3.7762055992
20
-2.1877476136
30
0.0000000000
10
3.7765126697
20
-2.1877475385
30
0.0000000000
10
3.7768541418
20
-2.1877473243
30
0.0000000000
10
3.7772808744
20
-2.1877468145
30
0.0000000000
10
3.7783042595
20
-2.1877448151
30
0.0000000000
10
3.7798380514
20
-2.1877389095
30
0.0000000000
10
3.7818813748
20
-2.1877248209
30
0.0000000000
10
3.7839219392
20
-2.1877045219
30
0.0000000000
10
3.7866372363
20
-2.1876691993
30
0.0000000000
10
3.7913733122
20
-2.1875857977
30
0.0000000000
10
3.7981164102
20
-2.1874046984
30
0.0000000000
10
3.8088341812
20
-2.1869830966
30
0.0000000000
10
3.8221247789
20
-2.1862092690
30
0.0000000000
10
3.8379358909
20
-2.1848807028
30
0.0000000000
10
3.8535706329
20
-2.1831544037
30
0.0000000000
10
3.8690288785
20
-2.1810303697
30
0.0000000000
10
3.8843107847
20
-2.1785085255
30
0.0000000000
10
3.9043920936
20
-2.1746272436
30
0.0000000000
10
3.9290869863
20
-2.1687819714
30
0.0000000000
10
3.9580982877
20
-2.1601522948
30
0.0000000000
10
3.9864025438
20
-2.1499268310
30
0.0000000000
10
4.0140002865
20
-2.1381064472
30
0.0000000000
10
4.0498536949
20
-2.1202116060
30
0.0000000000
10
4.0926458820
20
-2.0940508984
30
0.0000000000
10
4.1399469840
20
-2.0567034588
30
0.0000000000
10
4.1827290124
20
-2.0136418384
30
0.0000000000
10
4.2143263306
20
-1.9733542170
30
0.0000000000
10
4.2372675296
20
-1.9385420377
30
0.0000000000
10
4.2507093149
20
-1.9155660732
30
0.0000000000
10
4.2608946680
20
-1.8965208189
30
0.0000000000
10
4.2707090918
20
-1.8770082555
30
0.0000000000
10
4.2821069392
20
-1.8521928137
30
0.0000000000
10
4.2943049194
20
-1.8218611675
30
0.0000000000
10
4.3049990529
20
-1.7910353444
30
0.0000000000
10
4.3141883874
20
-1.7597157933
30
0.0000000000
10
4.3218729769
20
-1.7279034889
30
0.0000000000
10
4.3270141723
20
-1.7010275060
30
0.0000000000
10
4.3303759450
20
-1.6793017245
30
0.0000000000
10
4.3325263072
20
-1.6628553939
30
0.0000000000
10
4.3343011550
20
-1.6462861239
30
0.0000000000
10
4.3354656751
20
-1.6323952042
30
0.0000000000
10
4.3362102160
20
-1.6212234358
30
0.0000000000
10
4.3366755854
20
-1.6128019595
30
0.0000000000
10
4.3370471235
20
-1.6043497211
30
0.0000000000
10
4.3372783569
20
-1.5972863555
30
0.0000000000
10
4.3374165399
20
-1.5916205712
30
0.0000000000
10
4.3374968078
20
-1.5873600190
30
0.0000000000
10
4.3375441312
20
-1.5838046912
30
0.0000000000
10
4.3375702773
20
-1.5809566171
30
0.0000000000
10
4.3375840317
20
-1.5788177077
30
0.0000000000
10
4.3375906062
20
-1.5770340770
30
0.0000000000
10
4.3375926437
20
-1.5757848373
30
0.0000000000
10
4.3375930291
20
-1.5751491582
30
0.0000000000
10
4.3375930571
20
-1.5747346762
30
0.0000000000
10
4.3375928794
20
-1.5742272000
30
0.0000000000
10
4.3375921546
20
-1.5735483574
30
0.0000000000
10
4.3375899549
20
-1.5724630037
30
0.0000000000
10
4.3375852564
20
-1.5711075029
30
0.0000000000
10
4.3375764956
20
-1.5694823364
30
0.0000000000
10
4.3375606625
20
-1.5673192489
30
0.0000000000
10
4.3375330823
20
-1.5646201459
30
0.0000000000
10
4.3374723531
20
-1.5603142089
30
0.0000000000
10
4.3373228723
20
-1.5528224087
30
0.0000000000
10
4.3369850672
20
-1.5421827472
30
0.0000000000
10
4.3363790002
20
-1.5295081913
30
0.0000000000
10
4.3355731465
20
-1.5169557301
30
0.0000000000
10
4.3342378664
20
-1.5004507532
30
0.0000000000
10
4.3320746645
20
-1.4801141204
30
0.0000000000
10
4.3291827588
20
-1.4597249015
30
0.0000000000
10
4.3271041479
20
-1.4475198084
30
0.0000000000
10
4.3263406157
20
-1.4432893734
30
0.0000000000
11
3.1734773919
21
-1.6025242398
31
0.0000000000
11
3.1770887403
21
-1.6244771275
31
0.0000000000
11
3.1918328983
21
-1.6965613190
31
0.0000000000
11
3.2101597490
21
-1.7632365776
31
0.0000000000
11
3.2320692922
21
-1.8245029033
31
0.0000000000
11
3.2575615281
21
-1.8803602960
31
0.0000000000
11
3.2866364566
21
-1.9308087559
31
0.0000000000
11
3.3192940776
21
-1.9758482828
31
0.0000000000
11
3.3369124769
21
-1.9963844941
31
0.0000000000
11
3.3550942197
21
-2.0158445722
31
0.0000000000
11
3.3930288897
21
-2.0516350663
31
0.0000000000
11
3.4330584723
21
-2.0832526776
31
0.0000000000
11
3.4751829674
21
-2.1106974062
31
0.0000000000
11
3.5194023750
21
-2.1339692521
31
0.0000000000
11
3.5657166951
21
-2.1530682153
31
0.0000000000
11
3.5896594474
21
-2.1610528659
31
0.0000000000
11
3.6141259277
21
-2.1679942958
31
0.0000000000
11
3.6391161363
21
-2.1738925050
31
0.0000000000
11
3.6646300729
21
-2.1787474936
31
0.0000000000
11
3.6906677377
21
-2.1825592614
31
0.0000000000
11
3.7038829682
21
-2.1840739376
31
0.0000000000
11
3.7172291306
21
-2.1853278086
31
0.0000000000
11
3.7307062251
21
-2.1863208745
31
0.0000000000
11
3.7374938719
21
-2.1867196055
31
0.0000000000
11
3.7443142517
21
-2.1870531351
31
0.0000000000
11
3.7511673645
21
-2.1873214635
31
0.0000000000
11
3.7580532103
21
-2.1875245906
31
0.0000000000
11
3.7649717891
21
-2.1876625165
31
0.0000000000
11
3.7684433533
21
-2.1877070289
31
0.0000000000
11
3.7701822042
21
-2.1877231725
31
0.0000000000
11
3.7719231009
21
-2.1877352410
31
0.0000000000
11
3.7736660433
21
-2.1877432344
31
0.0000000000
11
3.7745382818
21
-2.1877457030
31
0.0000000000
11
3.7754110316
21
-2.1877471527
31
0.0000000000
11
3.7758475984
21
-2.1877474956
31
0.0000000000
11
3.7762565153
21
-2.1877475856
31
0.0000000000
11
3.7765126840
21
-2.1877475222
31
0.0000000000
11
3.7767688096
21
-2.1877473617
31
0.0000000000
11
3.7772809316
21
-2.1877467496
31
0.0000000000
11
3.7777928810
21
-2.1877457494
31
0.0000000000
11
3.7798389543
21
-2.1877378671
31
0.0000000000
11
3.7818822683
21
-2.1877237744
31
0.0000000000
11
3.7839228231
21
-2.1877034714
31
0.0000000000
11
3.7859606186
21
-2.1876769581
31
0.0000000000
11
3.7900279318
21
-2.1876053006
31
0.0000000000
11
3.7981294471
21
-2.1873874615
31
0.0000000000
11
3.8061868140
21
-2.1870702574
31
0.0000000000
11
3.8221691033
21
-2.1861377535
31
0.0000000000
11
3.8379747996
21
-2.1848077890
31
0.0000000000
11
3.8536039029
21
-2.1830803638
31
0.0000000000
11
3.8690564133
21
-2.1809554780
31
0.0000000000
11
3.8843323307
21
-2.1784331315
31
0.0000000000
11
3.8994316552
21
-2.1755133244
31
0.0000000000
11
3.9291005252
21
-2.1684813282
31
0.0000000000
11
3.9580630233
21
-2.1598594893
31
0.0000000000
11
3.9863191495
21
-2.1496478078
31
0.0000000000
11
4.0138689040
21
-2.1378462836
31
0.0000000000
11
4.0407122865
21
-2.1244549169
31
0.0000000000
11
4.0920382850
21
-2.0930123692
31
0.0000000000
11
4.1390494367
21
-2.0558866459
31
0.0000000000
11
4.1815682022
21
-2.0131583531
31
0.0000000000
11
4.2195945814
21
-1.9648274907
31
0.0000000000
11
4.2369231262
21
-1.9385610960
31
0.0000000000
11
4.2531285743
21
-1.9108940588
31
0.0000000000
11
4.2608101372
21
-1.8965352993
31
0.0000000000
11
4.2682008610
21
-1.8818505588
31
0.0000000000
11
4.2818838888
21
-1.8520458318
31
0.0000000000
11
4.2940658250
21
-1.8217485396
31
0.0000000000
11
4.3047466696
21
-1.7909586823
31
0.0000000000
11
4.3139264224
21
-1.7596762598
31
0.0000000000
11
4.3216050836
21
-1.7279012722
31
0.0000000000
11
4.3277826532
21
-1.6956337194
31
0.0000000000
11
4.3303085286
21
-1.6793152311
31
0.0000000000
11
4.3324591310
21
-1.6628736015
31
0.0000000000
11
4.3342344606
21
-1.6463088306
31
0.0000000000
11
4.3356345172
21
-1.6296209184
31
0.0000000000
11
4.3361938182
21
-1.6212307843
31
0.0000000000
11
4.3366593010
21
-1.6128098650
31
0.0000000000
11
4.3370309655
21
-1.6043581602
31
0.0000000000
11
4.3373088118
21
-1.5958756702
31
0.0000000000
11
4.3374125531
21
-1.5916228807
31
0.0000000000
11
4.3374928399
21
-1.5873623948
31
0.0000000000
11
4.3375496721
21
-1.5830942127
31
0.0000000000
11
4.3375692927
21
-1.5809572355
31
0.0000000000
11
4.3375830497
21
-1.5788183342
31
0.0000000000
11
4.3375909431
21
-1.5766775088
31
0.0000000000
11
4.3375926909
21
-1.5756063746
31
0.0000000000
11
4.3375930151
21
-1.5750706271
31
0.0000000000
11
4.3375930370
21
-1.5747704728
31
0.0000000000
11
4.3375928944
21
-1.5743629288
31
0.0000000000
11
4.3375920242
21
-1.5735481989
31
0.0000000000
11
4.3375903737
21
-1.5727339463
31
0.0000000000
11
4.3375847320
21
-1.5711068734
31
0.0000000000
11
4.3375759694
21
-1.5694817099
31
0.0000000000
11
4.3375640859
21
-1.5678584560
31
0.0000000000
11
4.3375309562
21
-1.5646176766
31
0.0000000000
11
4.3374853428
21
-1.5613845353
31
0.0000000000
11
4.3373566649
21
-1.5549411666
31
0.0000000000
11
4.3369495050
21
-1.5421460855
31
0.0000000000
11
4.3363426062
21
-1.5294732127
31
0.0000000000
11
4.3355359687
21
-1.5169225481
31
0.0000000000
11
4.3345295923
21
-1.5044940919
31
0.0000000000
11
4.3319176231
21
-1.4800038042
31
0.0000000000
11
4.3285066986
21
-1.4560023497
31
0.0000000000
11
4.3263406157
21
-1.4432893734
31
0.0000000000
0
SPLINE
5
38A
100
AcDbEntity
8
0
100
AcDbSpline
62
7
6
CONTINUOUS
70
0
71
3
72
66
73
62
74
60
42
0.0000001000
43
0.0000001000
44
0.0000000001
12
-0.2247339894
22
1.2451636395
32
0.0000000000
13
-0.6952540007
23
-1.0570587764
33
0.0000000000
40
0.0000000000
40
0.0000000000
40
0.0000000000
40
0.0000000000
40
0.0086870502
40
0.0273103329
40
0.0638872029
40
0.0997660798
40
0.1351815806
40
0.1703775903
40
0.2056025532
40
0.2411043059
40
0.2768637660
40
0.3117463643
40
0.3457660698
40
0.3791447232
40
0.4121171069
40
0.4449267261
40
0.4613515898
40
0.4778283779
40
0.4943876211
40
0.5110593971
40
0.5278731797
40
0.5448577034
40
0.5534231660
40
0.5620416877
40
0.5663719417
40
0.5707167055
40
0.5750763857
40
0.5794513850
40
0.5816447601
40
0.5838421139
40
0.5860434957
40
0.5882489542
40
0.5893532281
40
0.5903857746
40
0.5907021360
40
0.5910184538
40
0.5916509592
40
0.5922832922
40
0.5929154544
40
0.5941792709
40
0.5967049109
40
0.5992279709
40
0.6042666855
40
0.6092961530
40
0.6143170934
40
0.6193302302
40
0.6243362905
40
0.6343299211
40
0.6443040398
40
0.6642159090
40
0.6841208657
40
0.7040664538
40
0.7240999279
40
0.7442679250
40
0.7646161570
40
0.7851891344
40
0.8059136358
40
0.8266431570
40
0.8683526226
40
0.9108470751
40
1.0000000000
40
1.0000000000
40
1.0000000000
40
1.0000000000
10
4.3263406157
20
-1.4432893734
30
0.0000000000
10
4.3256898572
20
-1.4396837737
30
0.0000000000
10
4.3235486128
20
-1.4283657915
30
0.0000000000
10
4.3178266414
20
-1.4020317912
30
0.0000000000
10
4.3075434910
20
-1.3649789175
30
0.0000000000
10
4.2919103991
20
-1.3222040443
30
0.0000000000
10
4.2730558076
20
-1.2813852384
30
0.0000000000
10
4.2509801332
20
-1.2425307079
30
0.0000000000
10
4.2256874908
20
-1.2056453989
30
0.0000000000
10
4.1972466915
20
-1.1708224363
30
0.0000000000
10
4.1661843010
20
-1.1385285072
30
0.0000000000
10
4.1333226278
20
-1.1089979988
30
0.0000000000
10
4.0990115267
20
-1.0827765054
30
0.0000000000
10
4.0633314307
20
-1.0599076148
30
0.0000000000
10
4.0262819937
20
-1.0404020344
30
0.0000000000
10
3.9942744072
20
-1.0269556431
30
0.0000000000
10
3.9680726943
20
-1.0179077809
30
0.0000000000
10
3.9480734349
20
-1.0119556011
30
0.0000000000
10
3.9277368183
20
-1.0068412984
30
0.0000000000
10
3.9070625581
20
-1.0025645283
30
0.0000000000
10
3.8860511873
20
-0.9991253185
30
0.0000000000
10
3.8683107926
20
-0.9969632995
30
0.0000000000
10
3.8539599791
20
-0.9956494402
30
0.0000000000
10
3.8449091649
20
-0.9950011712
30
0.0000000000
10
3.8376275580
20
-0.9945866389
30
0.0000000000
10
3.8321363766
20
-0.9943274856
30
0.0000000000
10
3.8266241045
20
-0.9941205856
30
0.0000000000
10
3.8220170727
20
-0.9939918273
30
0.0000000000
10
3.8183210392
20
-0.9939148790
30
0.0000000000
10
3.8155412571
20
-0.9938701778
30
0.0000000000
10
3.8127562004
20
-0.9938385409
30
0.0000000000
10
3.8104320072
20
-0.9938230630
30
0.0000000000
10
3.8086007196
20
-0.9938173130
30
0.0000000000
10
3.8075661239
20
-0.9938163763
30
0.0000000000
10
3.8068638383
20
-0.9938167895
30
0.0000000000
10
3.8063302649
20
-0.9938175026
30
0.0000000000
10
3.8056634361
20
-0.9938191307
30
0.0000000000
10
3.8048634085
20
-0.9938222672
30
0.0000000000
10
3.8037971435
20
-0.9938280240
30
0.0000000000
10
3.8019324395
20
-0.9938422297
30
0.0000000000
10
3.7992703998
20
-0.9938743362
30
0.0000000000
10
3.7950168429
20
-0.9939508964
30
0.0000000000
10
3.7897084488
20
-0.9940938128
30
0.0000000000
10
3.7833494781
20
-0.9943410465
30
0.0000000000
10
3.7770046980
20
-0.9946639301
30
0.0000000000
10
3.7706741005
20
-0.9950624661
30
0.0000000000
10
3.7622574942
20
-0.9956943143
30
0.0000000000
10
3.7517695391
20
-0.9966731765
30
0.0000000000
10
3.7350652521
20
-0.9986426236
30
0.0000000000
10
3.7143058458
20
-1.0018634233
30
0.0000000000
10
3.6896091789
20
-1.0069436748
30
0.0000000000
10
3.6651401784
20
-1.0132368866
30
0.0000000000
10
3.6408998112
20
-1.0207432771
30
0.0000000000
10
3.6168876147
20
-1.0294609879
30
0.0000000000
10
3.5931065049
20
-1.0393958048
30
0.0000000000
10
3.5695911365
20
-1.0505033490
30
0.0000000000
10
3.5464889242
20
-1.0628033015
30
0.0000000000
10
3.5165314965
20
-1.0810735145
30
0.0000000000
10
3.4807423448
20
-1.1072809896
30
0.0000000000
10
3.4267876834
20
-1.1567814818
30
0.0000000000
10
3.3920963514
20
-1.2007357943
30
0.0000000000
10
3.3714350422
20
-1.2321490882
30
0.0000000000
11
4.3263406157
21
-1.4432893734
31
0.0000000000
11
4.3242968188
21
-1.4324897284
31
0.0000000000
11
4.3192879837
21
-1.4094659402
31
0.0000000000
11
4.3068734477
21
-1.3648848632
31
0.0000000000
11
4.2912630905
21
-1.3222591188
31
0.0000000000
11
4.2724569122
21
-1.2815887070
31
0.0000000000
11
4.2504549127
21
-1.2428736278
31
0.0000000000
11
4.2252570920
21
-1.2061138811
31
0.0000000000
11
4.1968634502
21
-1.1713094671
31
0.0000000000
11
4.1655414869
21
-1.1386616828
31
0.0000000000
11
4.1326723733
21
-1.1092098796
31
0.0000000000
11
4.0984526400
21
-1.0831019493
31
0.0000000000
11
4.0628822867
21
-1.0603378917
31
0.0000000000
11
4.0259613136
21
-1.0409177071
31
0.0000000000
11
3.9876897207
21
-1.0248413953
31
0.0000000000
11
3.9680474417
21
-1.0180571917
31
0.0000000000
11
3.9480675079
21
-1.0121089563
31
0.0000000000
11
3.9277499190
21
-1.0069966892
31
0.0000000000
11
3.9070946752
21
-1.0027203902
31
0.0000000000
11
3.8861017764
21
-0.9992800595
31
0.0000000000
11
3.8647712227
21
-0.9966756970
31
0.0000000000
11
3.8539793252
21
-0.9956870038
31
0.0000000000
11
3.8431030140
21
-0.9949073027
31
0.0000000000
11
3.8376332032
21
-0.9945958242
31
0.0000000000
11
3.8321422890
21
-0.9943365936
31
0.0000000000
11
3.8266302714
21
-0.9941296111
31
0.0000000000
11
3.8210971503
21
-0.9939748766
31
0.0000000000
11
3.8183226760
21
-0.9939171024
31
0.0000000000
11
3.8155429258
21
-0.9938723901
31
0.0000000000
11
3.8127578998
21
-0.9938407399
31
0.0000000000
11
3.8099675979
21
-0.9938221517
31
0.0000000000
11
3.8085704685
21
-0.9938177558
31
0.0000000000
11
3.8072640829
21
-0.9938166008
31
0.0000000000
11
3.8068638200
21
-0.9938168394
31
0.0000000000
11
3.8064636126
21
-0.9938173735
31
0.0000000000
11
3.8056633640
21
-0.9938193282
31
0.0000000000
11
3.8048633373
21
-0.9938224646
31
0.0000000000
11
3.8040635323
21
-0.9938267830
31
0.0000000000
11
3.8024645878
21
-0.9938389653
31
0.0000000000
11
3.7992693604
21
-0.9938775124
31
0.0000000000
11
3.7960776817
21
-0.9939349694
31
0.0000000000
11
3.7897049706
21
-0.9941066130
31
0.0000000000
11
3.7833464545
21
-0.9943538961
31
0.0000000000
11
3.7770021334
21
-0.9946768187
31
0.0000000000
11
3.7706720072
21
-0.9950753809
31
0.0000000000
11
3.7643560761
21
-0.9955495827
31
0.0000000000
11
3.7517667987
21
-0.9967249048
31
0.0000000000
11
3.7392343014
21
-0.9982027851
31
0.0000000000
11
3.7143396466
21
-1.0020662202
31
0.0000000000
11
3.6896721116
21
-1.0071398880
31
0.0000000000
11
3.6652316966
21
-1.0134237885
31
0.0000000000
11
3.6410184014
21
-1.0209179217
31
0.0000000000
11
3.6170322260
21
-1.0296222875
31
0.0000000000
11
3.5932731706
21
-1.0395368861
31
0.0000000000
11
3.5697412350
21
-1.0506617173
31
0.0000000000
11
3.5466175173
21
-1.0630239313
31
0.0000000000
11
3.5242208098
21
-1.0766713213
31
0.0000000000
11
3.4816263860
21
-1.1078243219
31
0.0000000000
11
3.4419639501
21
-1.1441216166
31
0.0000000000
11
3.3714350422
21
-1.2321490882
31
0.0000000000
0
SPLINE
5
38B
100
AcDbEntity
8
0
100
AcDbSpline
62
7
6
CONTINUOUS
70
0
71
3
72
10
73
6
74
4
42
0.0000001000
43
0.0000001000
44
0.0000000001
12
0.3285981640
22
-0.0365004092
32
0.0000000000
13
0.1168746054
23
-0.3083034181
33
0.0000000000
40
0.0000000000
40
0.0000000000
40
0.0000000000
40
0.0000000000
40
0.1629825849
40
0.4363527991
40
1.0000000000
40
1.0000000000
40
1.0000000000
40
1.0000000000
10
0.8971240893
20
-0.5802424322
30
0.0000000000
10
0.9149760154
20
-0.5822254092
30
0.0000000000
10
0.9623381256
20
-0.5909518760
30
0.0000000000
10
1.0651178553
20
-0.6356167900
30
0.0000000000
10
1.1209860136
20
-0.7187476838
30
0.0000000000
10
1.1429446950
20
-0.7766724700
30
0.0000000000
11
0.8971240893
21
-0.5802424322
31
0.0000000000
11
0.9500058432
21
-0.5902458509
31
0.0000000000
11
1.0320661355
21
-0.6275311747
31
0.0000000000
11
1.1429446950
21
-0.7766724700
31
0.0000000000
0
SPLINE
5
38C
100
AcDbEntity
8
0
100
AcDbSpline
62
9
6
CONTINUOUS
70
0
71
3
72
21
73
17
74
15
42
0.0000001000
43
0.0000001000
44
0.0000000001
12
2.5117523814
22
-0.0000076257
32
0.0000000000
13
0.0000007082
23
-2.5117523814
33
0.0000000000
40
0.0000000000
40
0.0000000000
40
0.0000000000
40
0.0000000000
40
0.0511158838
40
0.1111676663
40
0.1799212209
40
0.2552417291
40
0.3355215171
40
0.4190812553
40
0.5042684421
40
0.5894759316
40
0.6729639223
40
0.7528724109
40
0.8273321027
40
0.8945220913
40
0.9526693274
40
1.0000000000
40
1.0000000000
40
1.0000000000
40
1.0000000000
10
6.8013358909
20
-8.5561815590
30
0.0000000000
10
6.8441327052
20
-8.5561816889
30
0.0000000000
10
6.9372475792
20
-8.5599194691
30
0.0000000000
10
7.0868803706
20
-8.5790886007
30
0.0000000000
10
7.2536678485
20
-8.6178856486
30
0.0000000000
10
7.4310615425
20
-8.6809769585
30
0.0000000000
10
7.6106108491
20
-8.7708128518
30
0.0000000000
10
7.7840536915
20
-8.8876022478
30
0.0000000000
10
7.9436528092
20
-9.0290521215
30
0.0000000000
10
8.0829070957
20
-9.1904914993
30
0.0000000000
10
8.1971684604
20
-9.3651850574
30
0.0000000000
10
8.2841756180
20
-9.5449013175
30
0.0000000000
10
8.3443575679
20
-9.7208151841
30
0.0000000000
10
8.3806665348
20
-9.8844280322
30
0.0000000000
10
8.3979917802
20
-10.0281502660
30
0.0000000000
10
8.4012749566
20
-10.1164929927
30
0.0000000000
10
8.4012749678
20
-10.1561206359
30
0.0000000000
11
6.8013358909
21
-8.5561815590
31
0.0000000000
11
6.9296229512
21
-8.5613328704
31
0.0000000000
11
7.0792353982
21
-8.5804999138
31
0.0000000000
11
7.2474361101
21
-8.6196280931
31
0.0000000000
11
7.4256841860
21
-8.6830247988
31
0.0000000000
11
7.6060137735
21
-8.7732529463
31
0.0000000000
11
7.7801054484
21
-8.8904804123
31
0.0000000000
11
7.9402347922
21
-9.0324007325
31
0.0000000000
11
8.0800247365
21
-9.1944605393
31
0.0000000000
11
8.1948116531
21
-9.3699556675
31
0.0000000000
11
8.2822736051
21
-9.5506073936
31
0.0000000000
11
8.3428134625
21
-9.7275622397
31
0.0000000000
11
8.3793782699
21
-9.8923181493
31
0.0000000000
11
8.3968585075
21
-10.0373197696
31
0.0000000000
11
8.4012749678
21
-10.1561206359
31
0.0000000000
0
SPLINE
5
38D
100
AcDbEntity
8
0
100
AcDbSpline
62
9
6
CONTINUOUS
70
0
71
3
72
16
73
12
74
10
42
0.0000001000
43
0.0000001000
44
0.0000000001
12
0.0000211855
22
-0.2756978577
32
0.0000000000
13
0.0000680086
23
0.2756978501
33
0.0000000000
40
0.0000000000
40
0.0000000000
40
0.0000000000
40
0.0000000000
40
0.1104560191
40
0.2216441129
40
0.3329690526
40
0.4442827286
40
0.5556123376
40
0.6669278037
40
0.7782492249
40
0.8894661435
40
1.0000000000
40
1.0000000000
40
1.0000000000
40
1.0000000000
10
-3.6140160900
20
19.2403200782
30
0.0000000000
10
-3.6140153100
20
19.2301692489
30
0.0000000000
10
-3.6176029430
20
19.2096254392
30
0.0000000000
10
-3.6331694421
20
19.1825833962
30
0.0000000000
10
-3.6571211132
20
19.1624105083
30
0.0000000000
10
-3.6865476509
20
19.1516760078
30
0.0000000000
10
-3.7178698586
20
19.1516707429
30
0.0000000000
10
-3.7472996858
20
19.1623955840
30
0.0000000000
10
-3.7712604449
20
19.1825618933
30
0.0000000000
10
-3.7868385320
20
19.2096081741
30
0.0000000000
10
-3.7904332057
20
19.2301620960
30
0.0000000000
10
-3.7904307000
20
19.2403200782
30
0.0000000000
11
-3.6140160900
21
19.2403200782
31
0.0000000000
11
-3.6192735141
21
19.2103248534
31
0.0000000000
11
-3.6345519424
21
19.1837493586
31
0.0000000000
11
-3.6580327709
21
19.1639844283
31
0.0000000000
11
-3.6868622918
21
19.1534644523
31
0.0000000000
11
-3.7175556261
21
19.1534593269
31
0.0000000000
11
-3.7463890767
21
19.1639699684
31
0.0000000000
11
-3.7698758121
21
19.1837263723
31
0.0000000000
11
-3.7851658235
21
19.2103043731
31
0.0000000000
11
-3.7904307000
21
19.2403200782
31
0.0000000000
0
SPLINE
5
38E
100
AcDbEntity
8
0
100
AcDbSpline
62
7
6
CONTINUOUS
70
0
71
3
72
12
73
8
74
6
42
0.0000001000
43
0.0000001000
44
0.0000000001
12
-0.3071460193
22
0.0000000000
32
0.0000000000
13
-0.0190355355
23
-0.3065555831
33
0.0000000000
40
0.0000000000
40
0.0000000000
40
0.0000000000
40
0.0000000000
40
0.2987601449
40
0.5714134951
40
0.7891086986
40
0.9344564439
40
1.0000000000
40
1.0000000000
40
1.0000000000
40
1.0000000000
10
-3.7799584586
20
19.8089690799
30
0.0000000000
10
-3.8105461217
20
19.8089690799
30
0.0000000000
10
-3.8692565558
20
19.8076771450
30
0.0000000000
10
-3.9491233535
20
19.8025142835
30
0.0000000000
10
-4.0157609576
20
19.7936163899
30
0.0000000000
10
-4.0545042433
20
19.7850444823
30
0.0000000000
10
-4.0795311500
20
19.7738723408
30
0.0000000000
10
-4.0799470355
20
19.7671747598
30
0.0000000000
11
-3.7799584586
21
19.8089690799
31
0.0000000000
11
-3.8716992165
21
19.8069492956
31
0.0000000000
11
-3.9552337646
21
19.8010245738
31
0.0000000000
11
-4.0214614050
21
19.7918200687
31
0.0000000000
11
-4.0645507315
21
19.7801450641
31
0.0000000000
11
-4.0799470355
21
19.7671747598
31
0.0000000000
0
SPLINE
5
38F
100
AcDbEntity
8
0
100
AcDbSpline
62
7
6
CONTINUOUS
70
0
71
3
72
12
73
8
74
6
42
0.0000001000
43
0.0000001000
44
0.0000000001
12
-0.0190355355
22
0.3065555831
32
0.0000000000
13
-0.3071460193
23
-0.0000000000
33
0.0000000000
40
0.0000000000
40
0.0000000000
40
0.0000000000
40
0.0000000000
40
0.0655435561
40
0.2108913014
40
0.4285865049
40
0.7012398551
40
1.0000000000
40
1.0000000000
40
1.0000000000
40
1.0000000000
10
-3.3244997545
20
19.7671747598
30
0.0000000000
10
-3.3249156400
20
19.7738723408
30
0.0000000000
10
-3.3499425467
20
19.7850444823
30
0.0000000000
10
-3.3886858324
20
19.7936163899
30
0.0000000000
10
-3.4553234365
20
19.8025142835
30
0.0000000000
10
-3.5351902342
20
19.8076771450
30
0.0000000000
10
-3.5939006683
20
19.8089690799
30
0.0000000000
10
-3.6244883314
20
19.8089690799
30
0.0000000000
11
-3.3244997545
21
19.7671747598
31
0.0000000000
11
-3.3398960585
21
19.7801450641
31
0.0000000000
11
-3.3829853850
21
19.7918200687
31
0.0000000000
11
-3.4492130254
21
19.8010245738
31
0.0000000000
11
-3.5327475734
21
19.8069492956
31
0.0000000000
11
-3.6244883314
21
19.8089690799
31
0.0000000000
0
SPLINE
5
390
100
AcDbEntity
8
0
100
AcDbSpline
62
9
6
CONTINUOUS
70
0
71
3
72
16
73
12
74
10
42
0.0000001000
43
0.0000001000
44
0.0000000001
12
0.0000211855
22
-0.2756978577
32
0.0000000000
13
0.0000680086
23
0.2756978501
33
0.0000000000
40
0.0000000000
40
0.0000000000
40
0.0000000000
40
0.0000000000
40
0.1104560191
40
0.2216441129
40
0.3329690526
40
0.4442827286
40
0.5556123376
40
0.6669278037
40
0.7782492249
40
0.8894661435
40
1.0000000000
40
1.0000000000
40
1.0000000000
40
1.0000000000
10
6.3859839100
20
19.2403200782
30
0.0000000000
10
6.3859846900
20
19.2301692489
30
0.0000000000
10
6.3823970570
20
19.2096254392
30
0.0000000000
10
6.3668305579
20
19.1825833962
30
0.0000000000
10
6.3428788868
20
19.1624105083
30
0.0000000000
10
6.3134523491
20
19.1516760078
30
0.0000000000
10
6.2821301414
20
19.1516707429
30
0.0000000000
10
6.2527003142
20
19.1623955840
30
0.0000000000
10
6.2287395551
20
19.1825618933
30
0.0000000000
10
6.2131614680
20
19.2096081741
30
0.0000000000
10
6.2095667943
20
19.2301620960
30
0.0000000000
10
6.2095693000
20
19.2403200782
30
0.0000000000
11
6.3859839100
21
19.2403200782
31
0.0000000000
11
6.3807264859
21
19.2103248534
31
0.0000000000
11
6.3654480576
21
19.1837493586
31
0.0000000000
11
6.3419672291
21
19.1639844283
31
0.0000000000
11
6.3131377082
21
19.1534644523
31
0.0000000000
11
6.2824443739
21
19.1534593269
31
0.0000000000
11
6.2536109233
21
19.1639699684
31
0.0000000000
11
6.2301241879
21
19.1837263723
31
0.0000000000
11
6.2148341765
21
19.2103043731
31
0.0000000000
11
6.2095693000
21
19.2403200782
31
0.0000000000
0
SPLINE
5
391
100
AcDbEntity
8
0
100
AcDbSpline
62
7
6
CONTINUOUS
70
0
71
3
72
12
73
8
74
6
42
0.0000001000
43
0.0000001000
44
0.0000000001
12
-0.3071460193
22
0.0000000000
32
0.0000000000
13
-0.0190355355
23
-0.3065555831
33
0.0000000000
40
0.0000000000
40
0.0000000000
40
0.0000000000
40
0.0000000000
40
0.2987601449
40
0.5714134951
40
0.7891086986
40
0.9344564439
40
1.0000000000
40
1.0000000000
40
1.0000000000
40
1.0000000000
10
6.2200415414
20
19.8089690799
30
0.0000000000
10
6.1894538783
20
19.8089690799
30
0.0000000000
10
6.1307434442
20
19.8076771450
30
0.0000000000
10
6.0508766465
20
19.8025142835
30
0.0000000000
10
5.9842390424
20
19.7936163899
30
0.0000000000
10
5.9454957567
20
19.7850444823
30
0.0000000000
10
5.9204688500
20
19.7738723408
30
0.0000000000
10
5.9200529645
20
19.7671747598
30
0.0000000000
11
6.2200415414
21
19.8089690799
31
0.0000000000
11
6.1283007835
21
19.8069492956
31
0.0000000000
11
6.0447662354
21
19.8010245738
31
0.0000000000
11
5.9785385950
21
19.7918200687
31
0.0000000000
11
5.9354492685
21
19.7801450641
31
0.0000000000
11
5.9200529645
21
19.7671747598
31
0.0000000000
0
SPLINE
5
392
100
AcDbEntity
8
0
100
AcDbSpline
62
7
6
CONTINUOUS
70
0
71
3
72
12
73
8
74
6
42
0.0000001000
43
0.0000001000
44
0.0000000001
12
-0.0190355355
22
0.3065555831
32
0.0000000000
13
-0.3071460193
23
0.0000000000
33
0.0000000000
40
0.0000000000
40
0.0000000000
40
0.0000000000
40
0.0000000000
40
0.0655435561
40
0.2108913014
40
0.4285865049
40
0.7012398551
40
1.0000000000
40
1.0000000000
40
1.0000000000
40
1.0000000000
10
6.6755002455
20
19.7671747598
30
0.0000000000
10
6.6750843600
20
19.7738723408
30
0.0000000000
10
6.6500574533
20
19.7850444823
30
0.0000000000
10
6.6113141676
20
19.7936163899
30
0.0000000000
10
6.5446765635
20
19.8025142835
30
0.0000000000
10
6.4648097658
20
19.8076771450
30
0.0000000000
10
6.4060993317
20
19.8089690799
30
0.0000000000
10
6.3755116686
20
19.8089690799
30
0.0000000000
11
6.6755002455
21
19.7671747598
31
0.0000000000
11
6.6601039415
21
19.7801450641
31
0.0000000000
11
6.6170146150
21
19.7918200687
31
0.0000000000
11
6.5507869746
21
19.8010245738
31
0.0000000000
11
6.4672524266
21
19.8069492956
31
0.0000000000
11
6.3755116686
21
19.8089690799
31
0.0000000000
0
SPLINE
5
393
100
AcDbEntity
8
0
100
AcDbSpline
62
7
6
CONTINUOUS
70
0
71
3
72
12
73
8
74
6
42
0.0000001000
43
0.0000001000
44
0.0000000001
12
0.0000000000
22
0.3970997385
32
0.0000000000
13
-0.0023992921
23
0.3996492298
33
0.0000000000
40
0.0000000000
40
0.0000000000
40
0.0000000000
40
0.0000000000
40
0.2456487781
40
0.4818573369
40
0.6995481569
40
0.8903564355
40
1.0000000000
40
1.0000000000
40
1.0000000000
40
1.0000000000
10
6.6977766050
20
20.1903200782
30
0.0000000000
10
6.6977766050
20
20.2228357667
30
0.0000000000
10
6.6977106745
20
20.2866029789
30
0.0000000000
10
6.6975220995
20
20.3792615130
30
0.0000000000
10
6.6969672109
20
20.4643984218
30
0.0000000000
10
6.6969551104
20
20.5335398310
30
0.0000000000
10
6.6958207819
20
20.5724090667
30
0.0000000000
10
6.6957330929
20
20.5870153887
30
0.0000000000
11
6.6977766050
21
20.1903200782
31
0.0000000000
11
6.6976927596
21
20.2878671077
31
0.0000000000
11
6.6974444463
21
20.3816651360
31
0.0000000000
11
6.6970412107
21
20.4681091632
31
0.0000000000
11
6.6964985528
21
20.5438771374
31
0.0000000000
11
6.6957330929
21
20.5870153887
31
0.0000000000
0
SPLINE
5
394
100
AcDbEntity
8
0
100
AcDbSpline
62
7
6
CONTINUOUS
70
0
71
3
72
11
73
7
74
5
42
0.0000001000
43
0.0000001000
44
0.0000000001
12
-0.0006221040
22
0.1036236436
32
0.0000000000
13
-0.1029625950
23
0.0000000000
33
0.0000000000
40
0.0000000000
40
0.0000000000
40
0.0000000000
40
0.0000000000
40
0.1810796846
40
0.6298819519
40
0.9063285864
40
1.0000000000
40
1.0000000000
40
1.0000000000
40
1.0000000000
10
6.6957330929
20
20.5870153887
30
0.0000000000
10
6.6956955428
20
20.5932701009
30
0.0000000000
10
6.6957730324
20
20.6152960451
30
0.0000000000
10
6.6975774114
20
20.6491349308
30
0.0000000000
10
6.6908407965
20
20.6699537428
30
0.0000000000
10
6.6966280551
20
20.6903200782
30
0.0000000000
10
6.6934131711
20
20.6903200782
30
0.0000000000
11
6.6957330929
21
20.5870153887
31
0.0000000000
11
6.6958373311
21
20.6060574869
31
0.0000000000
11
6.6950829569
21
20.6522611750
31
0.0000000000
11
6.6942644196
21
20.6807130659
31
0.0000000000
11
6.6934131711
21
20.6903200782
31
0.0000000000
0
SPLINE
5
395
100
AcDbEntity
8
0
100
AcDbSpline
62
7
6
CONTINUOUS
70
0
71
3
72
11
73
7
74
5
42
0.0000001000
43
0.0000001000
44
0.0000000001
12
-0.1029627061
22
0.0000000000
32
0.0000000000
13
-0.0006221043
23
-0.1036237548
33
0.0000000000
40
0.0000000000
40
0.0000000000
40
0.0000000000
40
0.0000000000
40
0.0936713716
40
0.3701180161
40
0.8189203405
40
1.0000000000
40
1.0000000000
40
1.0000000000
40
1.0000000000
10
-4.0978599611
20
20.6903200782
30
0.0000000000
10
-4.1010748471
20
20.6903200782
30
0.0000000000
10
-4.0952875825
20
20.6699537230
30
0.0000000000
10
-4.1020242056
20
20.6491348887
30
0.0000000000
10
-4.1002198235
20
20.6152959642
30
0.0000000000
10
-4.1001423338
20
20.5932699953
30
0.0000000000
10
-4.1001798839
20
20.5870152772
30
0.0000000000
11
-4.0978599611
21
20.6903200782
31
0.0000000000
11
-4.0987112098
21
20.6807130599
31
0.0000000000
11
-4.0995297477
21
20.6522611371
31
0.0000000000
11
-4.1002841223
21
20.6060573932
31
0.0000000000
11
-4.1001798839
21
20.5870152772
31
0.0000000000
0
SPLINE
5
396
100
AcDbEntity
8
0
100
AcDbSpline
62
7
6
CONTINUOUS
70
0
71
3
72
12
73
8
74
6
42
0.0000001000
43
0.0000001000
44
0.0000000001
12
-0.0023992900
22
-0.3996491153
32
0.0000000000
13
0.0000000000
23
-0.3970996273
33
0.0000000000
40
0.0000000000
40
0.0000000000
40
0.0000000000
40
0.0000000000
40
0.1096436675
40
0.3004520001
40
0.5181427583
40
0.7543512302
40
1.0000000000
40
1.0000000000
40
1.0000000000
40
1.0000000000
10
-4.1001798839
20
20.5870152772
30
0.0000000000
10
-4.1002675729
20
20.5724089457
30
0.0000000000
10
-4.1014019014
20
20.5335397006
30
0.0000000000
10
-4.1014140016
20
20.4643982982
30
0.0000000000
10
-4.1019688898
20
20.3792614255
30
0.0000000000
10
-4.1021574646
20
20.2866029383
30
0.0000000000
10
-4.1022233950
20
20.2228357565
30
0.0000000000
10
-4.1022233950
20
20.1903200782
30
0.0000000000
11
-4.1001798839
21
20.5870152772
31
0.0000000000
11
-4.1009453440
21
20.5438769976
31
0.0000000000
11
-4.1014880015
21
20.4681090231
31
0.0000000000
11
-4.1018912366
21
20.3816650446
31
0.0000000000
11
-4.1021395496
21
20.2878670771
31
0.0000000000
11
-4.1022233950
21
20.1903200782
31
0.0000000000
0
SPLINE
5
397
100
AcDbEntity
8
0
100
AcDbSpline
62
7
6
CONTINUOUS
70
0
71
3
72
11
73
7
74
5
42
0.0000001000
43
0.0000001000
44
0.0000000001
12
-0.1029627061
22
0.0000000000
32
0.0000000000
13
-0.0006221043
23
-0.1036237548
33
0.0000000000
40
0.0000000000
40
0.0000000000
40
0.0000000000
40
0.0000000000
40
0.0936713716
40
0.3701180161
40
0.8189203405
40
1.0000000000
40
1.0000000000
40
1.0000000000
40
1.0000000000
10
5.9021400389
20
20.6903200782
30
0.0000000000
10
5.8989251529
20
20.6903200782
30
0.0000000000
10
5.9047124175
20
20.6699537230
30
0.0000000000
10
5.8979757944
20
20.6491348887
30
0.0000000000
10
5.8997801765
20
20.6152959642
30
0.0000000000
10
5.8998576662
20
20.5932699953
30
0.0000000000
10
5.8998201161
20
20.5870152772
30
0.0000000000
11
5.9021400389
21
20.6903200782
31
0.0000000000
11
5.9012887902
21
20.6807130599
31
0.0000000000
11
5.9004702523
21
20.6522611371
31
0.0000000000
11
5.8997158777
21
20.6060573932
31
0.0000000000
11
5.8998201161
21
20.5870152772
31
0.0000000000
0
SPLINE
5
398
100
AcDbEntity
8
0
100
AcDbSpline
62
7
6
CONTINUOUS
70
0
71
3
72
12
73
8
74
6
42
0.0000001000
43
0.0000001000
44
0.0000000001
12
-0.0023992900
22
-0.3996491153
32
0.0000000000
13
0.0000000000
23
-0.3970996273
33
0.0000000000
40
0.0000000000
40
0.0000000000
40
0.0000000000
40
0.0000000000
40
0.1096436675
40
0.3004520001
40
0.5181427583
40
0.7543512302
40
1.0000000000
40
1.0000000000
40
1.0000000000
40
1.0000000000
10
5.8998201161
20
20.5870152772
30
0.0000000000
10
5.8997324271
20
20.5724089457
30
0.0000000000
10
5.8985980986
20
20.5335397006
30
0.0000000000
10
5.8985859984
20
20.4643982982
30
0.0000000000
10
5.8980311102
20
20.3792614255
30
0.0000000000
10
5.8978425354
20
20.2866029383
30
0.0000000000
10
5.8977766050
20
20.2228357565
30
0.0000000000
10
5.8977766050
20
20.1903200782
30
0.0000000000
11
5.8998201161
21
20.5870152772
31
0.0000000000
11
5.8990546560
21
20.5438769976
31
0.0000000000
11
5.8985119985
21
20.4681090231
31
0.0000000000
11
5.8981087634
21
20.3816650446
31
0.0000000000
11
5.8978604504
21
20.2878670771
31
0.0000000000
11
5.8977766050
21
20.1903200782
31
0.0000000000
0
SPLINE
5
399
100
AcDbEntity
8
0
100
AcDbSpline
62
7
6
CONTINUOUS
70
0
71
3
72
12
73
8
74
6
42
0.0000001000
43
0.0000001000
44
0.0000000001
12
0.0000000000
22
0.3970997385
32
0.0000000000
13
-0.0023992921
23
0.3996492298
33
0.0000000000
40
0.0000000000
40
0.0000000000
40
0.0000000000
40
0.0000000000
40
0.2456487781
40
0.4818573369
40
0.6995481569
40
0.8903564355
40
1.0000000000
40
1.0000000000
40
1.0000000000
40
1.0000000000
10
-3.3022233950
20
20.1903200782
30
0.0000000000
10
-3.3022233950
20
20.2228357667
30
0.0000000000
10
-3.3022893255
20
20.2866029789
30
0.0000000000
10
-3.3024779005
20
20.3792615130
30
0.0000000000
10
-3.3030327891
20
20.4643984218
30
0.0000000000
10
-3.3030448896
20
20.5335398310
30
0.0000000000
10
-3.3041792181
20
20.5724090667
30
0.0000000000
10
-3.3042669071
20
20.5870153887
30
0.0000000000
11
-3.3022233950
21
20.1903200782
31
0.0000000000
11
-3.3023072404
21
20.2878671077
31
0.0000000000
11
-3.3025555537
21
20.3816651360
31
0.0000000000
11
-3.3029587893
21
20.4681091632
31
0.0000000000
11
-3.3035014472
21
20.5438771374
31
0.0000000000
11
-3.3042669071
21
20.5870153887
31
0.0000000000
0
SPLINE
5
39A
100
AcDbEntity
8
0
100
AcDbSpline
62
7
6
CONTINUOUS
70
0
71
3
72
11
73
7
74
5
42
0.0000001000
43
0.0000001000
44
0.0000000001
12
-0.0006221040
22
0.1036236436
32
0.0000000000
13
-0.1029625950
23
-0.0000000000
33
0.0000000000
40
0.0000000000
40
0.0000000000
40
0.0000000000
40
0.0000000000
40
0.1810796846
40
0.6298819519
40
0.9063285864
40
1.0000000000
40
1.0000000000
40
1.0000000000
40
1.0000000000
10
-3.3042669071
20
20.5870153887
30
0.0000000000
10
-3.3043044572
20
20.5932701009
30
0.0000000000
10
-3.3042269676
20
20.6152960451
30
0.0000000000
10
-3.3024225886
20
20.6491349308
30
0.0000000000
10
-3.3091592035
20
20.6699537428
30
0.0000000000
10
-3.3033719449
20
20.6903200782
30
0.0000000000
10
-3.3065868289
20
20.6903200782
30
0.0000000000
11
-3.3042669071
21
20.5870153887
31
0.0000000000
11
-3.3041626689
21
20.6060574869
31
0.0000000000
11
-3.3049170431
21
20.6522611750
31
0.0000000000
11
-3.3057355804
21
20.6807130659
31
0.0000000000
11
-3.3065868289
21
20.6903200782
31
0.0000000000
0
SPLINE
5
39B
100
AcDbEntity
8
0
100
AcDbSpline
62
9
6
CONTINUOUS
70
0
71
3
72
21
73
17
74
15
42
0.0000001000
43
0.0000001000
44
0.0000000001
12
0.0000076257
22
2.5117523814
32
0.0000000000
13
2.5117523814
23
0.0000007082
33
0.0000000000
40
0.0000000000
40
0.0000000000
40
0.0000000000
40
0.0000000000
40
0.0511158838
40
0.1111676663
40
0.1799212209
40
0.2552417291
40
0.3355215171
40
0.4190812553
40
0.5042684421
40
0.5894759316
40
0.6729639223
40
0.7528724109
40
0.8273321027
40
0.8945220913
40
0.9526693274
40
1.0000000000
40
1.0000000000
40
1.0000000000
40
1.0000000000
10
-5.8057217578
20
-10.1561206359
30
0.0000000000
10
-5.8057216279
20
-10.1133238216
30
0.0000000000
10
-5.8019838476
20
-10.0202089476
30
0.0000000000
10
-5.7828147161
20
-9.8705761562
30
0.0000000000
10
-5.7440176682
20
-9.7037886783
30
0.0000000000
10
-5.6809263583
20
-9.5263949843
30
0.0000000000
10
-5.5910904650
20
-9.3468456777
30
0.0000000000
10
-5.4743010690
20
-9.1734028353
30
0.0000000000
10
-5.3328511953
20
-9.0138037176
30
0.0000000000
10
-5.1714118175
20
-8.8745494311
30
0.0000000000
10
-4.9967182594
20
-8.7602880664
30
0.0000000000
10
-4.8170019993
20
-8.6732809088
30
0.0000000000
10
-4.6410881327
20
-8.6130989589
30
0.0000000000
10
-4.4774752845
20
-8.5767899920
30
0.0000000000
10
-4.3337530508
20
-8.5594647466
30
0.0000000000
10
-4.2454103241
20
-8.5561815702
30
0.0000000000
10
-4.2057826809
20
-8.5561815590
30
0.0000000000
11
-5.8057217578
21
-10.1561206359
31
0.0000000000
11
-5.8005704464
21
-10.0278335756
31
0.0000000000
11
-5.7814034029
21
-9.8782211286
31
0.0000000000
11
-5.7422752237
21
-9.7100204167
31
0.0000000000
11
-5.6788785179
21
-9.5317723408
31
0.0000000000
11
-5.5886503704
21
-9.3514427533
31
0.0000000000
11
-5.4714229045
21
-9.1773510784
31
0.0000000000
11
-5.3295025843
21
-9.0172217346
31
0.0000000000
11
-5.1674427775
21
-8.8774317903
31
0.0000000000
11
-4.9919476493
21
-8.7626448737
31
0.0000000000
11
-4.8112959232
21
-8.6751829217
31
0.0000000000
11
-4.6343410771
21
-8.6146430643
31
0.0000000000
11
-4.4695851675
21
-8.5780782568
31
0.0000000000
11
-4.3245835472
21
-8.5605980193
31
0.0000000000
11
-4.2057826809
21
-8.5561815590
31
0.0000000000
0
SPLINE
5
39C
100
AcDbEntity
8
0
100
AcDbSpline
62
9
6
CONTINUOUS
70
0
71
3
72
21
73
17
74
15
42
0.0000001000
43
0.0000001000
44
0.0000000001
12
-2.5117523814
22
0.0000076257
32
0.0000000000
13
-0.0000007082
23
2.5117523814
33
0.0000000000
40
0.0000000000
40
0.0000000000
40
0.0000000000
40
0.0000000000
40
0.0511158838
40
0.1111676663
40
0.1799212209
40
0.2552417291
40
0.3355215171
40
0.4190812553
40
0.5042684421
40
0.5894759316
40
0.6729639223
40
0.7528724109
40
0.8273321027
40
0.8945220913
40
0.9526693274
40
1.0000000000
40
1.0000000000
40
1.0000000000
40
1.0000000000
10
-4.2057826809
20
-15.2631782846
30
0.0000000000
10
-4.2485794952
20
-15.2631781546
30
0.0000000000
10
-4.3416943692
20
-15.2594403744
30
0.0000000000
10
-4.4913271606
20
-15.2402712429
30
0.0000000000
10
-4.6581146385
20
-15.2014741950
30
0.0000000000
10
-4.8355083325
20
-15.1383828851
30
0.0000000000
10
-5.0150576391
20
-15.0485469918
30
0.0000000000
10
-5.1885004815
20
-14.9317575958
30
0.0000000000
10
-5.3480995992
20
-14.7903077221
30
0.0000000000
10
-5.4873538856
20
-14.6288683443
30
0.0000000000
10
-5.6016152504
20
-14.4541747862
30
0.0000000000
10
-5.6886224080
20
-14.2744585261
30
0.0000000000
10
-5.7488043579
20
-14.0985446595
30
0.0000000000
10
-5.7851133248
20
-13.9349318113
30
0.0000000000
10
-5.8024385702
20
-13.7912095776
30
0.0000000000
10
-5.8057217466
20
-13.7028668509
30
0.0000000000
10
-5.8057217578
20
-13.6632392077
30
0.0000000000
11
-4.2057826809
21
-15.2631782846
31
0.0000000000
11
-4.3340697412
21
-15.2580269732
31
0.0000000000
11
-4.4836821882
21
-15.2388599297
31
0.0000000000
11
-4.6518829001
21
-15.1997317505
31
0.0000000000
11
-4.8301309760
21
-15.1363350447
31
0.0000000000
11
-5.0104605634
21
-15.0461068972
31
0.0000000000
11
-5.1845522384
21
-14.9288794313
31
0.0000000000
11
-5.3446815822
21
-14.7869591110
31
0.0000000000
11
-5.4844715265
21
-14.6248993043
31
0.0000000000
11
-5.5992584431
21
-14.4494041760
31
0.0000000000
11
-5.6867203951
21
-14.2687524500
31
0.0000000000
11
-5.7472602525
21
-14.0917976039
31
0.0000000000
11
-5.7838250599
21
-13.9270416943
31
0.0000000000
11
-5.8013052975
21
-13.7820400740
31
0.0000000000
11
-5.8057217578
21
-13.6632392077
31
0.0000000000
0
SPLINE
5
39D
100
AcDbEntity
8
0
100
AcDbSpline
62
7
6
CONTINUOUS
70
0
71
3
72
12
73
8
74
6
42
0.0000001000
43
0.0000001000
44
0.0000000001
12
0.3071460193
22
0.0000000000
32
0.0000000000
13
0.0190355355
23
-0.3065555831
33
0.0000000000
40
0.0000000000
40
0.0000000000
40
0.0000000000
40
0.0000000000
40
0.2987601449
40
0.5714134951
40
0.7891086986
40
0.9344564439
40
1.0000000000
40
1.0000000000
40
1.0000000000
40
1.0000000000
10
6.3859839100
20
19.6403200782
30
0.0000000000
10
6.4165715731
20
19.6403200782
30
0.0000000000
10
6.4752820071
20
19.6390281434
30
0.0000000000
10
6.5551488049
20
19.6338652818
30
0.0000000000
10
6.6217864090
20
19.6249673883
30
0.0000000000
10
6.6605296947
20
19.6163954806
30
0.0000000000
10
6.6855566013
20
19.6052233392
30
0.0000000000
10
6.6859724869
20
19.5985257582
30
0.0000000000
11
6.3859839100
21
19.6403200782
31
0.0000000000
11
6.4777246679
21
19.6383002940
31
0.0000000000
11
6.5612592160
21
19.6323755721
31
0.0000000000
11
6.6274868564
21
19.6231710670
31
0.0000000000
11
6.6705761828
21
19.6114960624
31
0.0000000000
11
6.6859724869
21
19.5985257582
31
0.0000000000
0
SPLINE
5
39E
100
AcDbEntity
8
0
100
AcDbSpline
62
7
6
CONTINUOUS
70
0
71
3
72
12
73
8
74
6
42
0.0000001000
43
0.0000001000
44
0.0000000001
12
0.0190355355
22
0.3065555831
32
0.0000000000
13
0.3071460193
23
0.0000000000
33
0.0000000000
40
0.0000000000
40
0.0000000000
40
0.0000000000
40
0.0000000000
40
0.0655435561
40
0.2108913014
40
0.4285865049
40
0.7012398551
40
1.0000000000
40
1.0000000000
40
1.0000000000
40
1.0000000000
10
5.9095807231
20
19.5985257582
30
0.0000000000
10
5.9099966087
20
19.6052233392
30
0.0000000000
10
5.9350235153
20
19.6163954806
30
0.0000000000
10
5.9737668010
20
19.6249673883
30
0.0000000000
10
6.0404044051
20
19.6338652818
30
0.0000000000
10
6.1202712029
20
19.6390281434
30
0.0000000000
10
6.1789816370
20
19.6403200782
30
0.0000000000
10
6.2095693000
20
19.6403200782
30
0.0000000000
11
5.9095807231
21
19.5985257582
31
0.0000000000
11
5.9249770272
21
19.6114960624
31
0.0000000000
11
5.9680663536
21
19.6231710670
31
0.0000000000
11
6.0342939940
21
19.6323755721
31
0.0000000000
11
6.1178285421
21
19.6383002940
31
0.0000000000
11
6.2095693000
21
19.6403200782
31
0.0000000000
0
SPLINE
5
39F
100
AcDbEntity
8
0
100
AcDbSpline
62
9
6
CONTINUOUS
70
0
71
3
72
21
73
17
74
15
42
0.0000001000
43
0.0000001000
44
0.0000000001
12
0.0000205257
22
-2.1977923739
32
0.0000000000
13
-2.1977923739
23
0.0000235898
33
0.0000000000
40
0.0000000000
40
0.0000000000
40
0.0000000000
40
0.0000000000
40
0.0511185339
40
0.1111745174
40
0.1799340421
40
0.2552604201
40
0.3355451060
40
0.4191078082
40
0.5042955910
40
0.5895012356
40
0.6729851714
40
0.7528881617
40
0.8273420587
40
0.8945270826
40
0.9526709426
40
1.0000000000
40
1.0000000000
40
1.0000000000
40
1.0000000000
10
8.2012825832
20
-13.6632392077
30
0.0000000000
10
8.2012829329
20
-13.7006885156
30
0.0000000000
10
8.1980130306
20
-13.7821694310
30
0.0000000000
10
8.1812394225
20
-13.9131081056
30
0.0000000000
10
8.1472885721
20
-14.0590591303
30
0.0000000000
10
8.0920770641
20
-14.2142901007
30
0.0000000000
10
8.0134617647
20
-14.3714034705
30
0.0000000000
10
7.9112618454
20
-14.5231682391
30
0.0000000000
10
7.7874861036
20
-14.6628139331
30
0.0000000000
10
7.6462236949
20
-14.7846532257
30
0.0000000000
10
7.4933690047
20
-14.8846212653
30
0.0000000000
10
7.3361239740
20
-14.9607420298
30
0.0000000000
10
7.1822084528
20
-15.0133929031
30
0.0000000000
10
7.0390560646
20
-15.0451578692
30
0.0000000000
10
6.9133056133
20
-15.0603145580
30
0.0000000000
10
6.8360090380
20
-15.0631862721
30
0.0000000000
10
6.8013358909
20
-15.0631859000
30
0.0000000000
11
8.2012825832
21
-13.6632392077
31
0.0000000000
11
8.1967761124
21
-13.7754967140
31
0.0000000000
11
8.1800043409
21
-13.9064173831
31
0.0000000000
11
8.1457634602
21
-14.0536062491
31
0.0000000000
11
8.0902844963
21
-14.2095852954
31
0.0000000000
11
8.0113256841
21
-14.3673819382
31
0.0000000000
11
7.9087422888
21
-14.5197146134
31
0.0000000000
11
7.7845548775
21
-14.6598242482
31
0.0000000000
11
7.6427497000
21
-14.7821321205
31
0.0000000000
11
7.4891940509
21
-14.8825597273
31
0.0000000000
11
7.3311311645
21
-14.9590780922
31
0.0000000000
11
7.1763054881
21
-15.0120418882
31
0.0000000000
11
7.0321534011
21
-15.0440305934
31
0.0000000000
11
6.9052835765
21
-15.0593228903
31
0.0000000000
11
6.8013358909
21
-15.0631859000
31
0.0000000000
0
SPLINE
5
3A0
100
AcDbEntity
8
0
100
AcDbSpline
62
9
6
CONTINUOUS
70
0
71
3
72
21
73
17
74
15
42
0.0000001000
43
0.0000001000
44
0.0000000001
12
2.1977923739
22
0.0000205257
32
0.0000000000
13
-0.0000235898
23
-2.1977923739
33
0.0000000000
40
0.0000000000
40
0.0000000000
40
0.0000000000
40
0.0000000000
40
0.0511185339
40
0.1111745174
40
0.1799340421
40
0.2552604201
40
0.3355451060
40
0.4191078082
40
0.5042955910
40
0.5895012356
40
0.6729851714
40
0.7528881617
40
0.8273420587
40
0.8945270826
40
0.9526709426
40
1.0000000000
40
1.0000000000
40
1.0000000000
40
1.0000000000
10
6.8013358909
20
-8.7561739436
30
0.0000000000
10
6.8387851989
20
-8.7561735939
30
0.0000000000
10
6.9202661142
20
-8.7594434962
30
0.0000000000
10
7.0512047888
20
-8.7762171043
30
0.0000000000
10
7.1971558135
20
-8.8101679547
30
0.0000000000
10
7.3523867839
20
-8.8653794627
30
0.0000000000
10
7.5095001537
20
-8.9439947620
30
0.0000000000
10
7.6612649223
20
-9.0461946814
30
0.0000000000
10
7.8009106163
20
-9.1699704231
30
0.0000000000
10
7.9227499089
20
-9.3112328319
30
0.0000000000
10
8.0227179485
20
-9.4640875221
30
0.0000000000
10
8.0988387130
20
-9.6213325527
30
0.0000000000
10
8.1514895864
20
-9.7752480740
30
0.0000000000
10
8.1832545524
20
-9.9184004622
30
0.0000000000
10
8.1984112412
20
-10.0441509135
30
0.0000000000
10
8.2012829553
20
-10.1214474888
30
0.0000000000
10
8.2012825832
20
-10.1561206359
30
0.0000000000
11
6.8013358909
21
-8.7561739436
31
0.0000000000
11
6.9135933972
21
-8.7606804144
31
0.0000000000
11
7.0445140664
21
-8.7774521859
31
0.0000000000
11
7.1917029323
21
-8.8116930666
31
0.0000000000
11
7.3476819786
21
-8.8671720305
31
0.0000000000
11
7.5054786214
21
-8.9461308427
31
0.0000000000
11
7.6578112966
21
-9.0487142380
31
0.0000000000
11
7.7979209314
21
-9.1729016493
31
0.0000000000
11
7.9202288037
21
-9.3147068268
31
0.0000000000
11
8.0206564105
21
-9.4682624759
31
0.0000000000
11
8.0971747754
21
-9.6263253623
31
0.0000000000
11
8.1501385715
21
-9.7811510387
31
0.0000000000
11
8.1821272766
21
-9.9253031257
31
0.0000000000
11
8.1974195735
21
-10.0521729503
31
0.0000000000
11
8.2012825832
21
-10.1561206359
31
0.0000000000
0
SPLINE
5
3A1
100
AcDbEntity
8
0
100
AcDbSpline
62
7
6
CONTINUOUS
70
0
71
3
72
14
73
10
74
8
42
0.0000001000
43
0.0000001000
44
0.0000000001
12
0.0000000000
22
-2.1944258811
32
0.0000000000
13
2.1944258811
23
0.0000000000
33
0.0000000000
40
0.0000000000
40
0.0000000000
40
0.0000000000
40
0.0000000000
40
0.1411050566
40
0.2857209433
40
0.4295000773
40
0.5702907652
40
0.7141620954
40
0.8588605434
40
1.0000000000
40
1.0000000000
40
1.0000000000
40
1.0000000000
10
-5.6022233950
20
-13.6597332295
30
0.0000000000
10
-5.6022233950
20
-13.7629480922
30
0.0000000000
10
-5.5789261443
20
-13.9726726498
30
0.0000000000
10
-5.4746838646
20
-14.2718043825
30
0.0000000000
10
-5.3060245976
20
-14.5398057154
30
0.0000000000
10
-5.0826654623
20
-14.7632387279
30
0.0000000000
10
-4.8145953111
20
-14.9320376686
30
0.0000000000
10
-4.5153273689
20
-15.0363674098
30
0.0000000000
10
-4.3055167282
20
-15.0596799218
30
0.0000000000
10
-4.2022767027
20
-15.0596799218
30
0.0000000000
11
-5.6022233950
21
-13.6597332295
31
0.0000000000
11
-5.5679813501
21
-13.9674786654
31
0.0000000000
11
-5.4635836151
21
-14.2671641708
31
0.0000000000
11
-5.2955259426
21
-14.5341938558
31
0.0000000000
11
-5.0770980044
21
-14.7526938801
31
0.0000000000
11
-4.8099403582
21
-14.9209280463
31
0.0000000000
11
-4.5100962346
21
-15.0254211790
31
0.0000000000
11
-4.2022767027
21
-15.0596799218
31
0.0000000000
0
SPLINE
5
3A2
100
AcDbEntity
8
0
100
AcDbSpline
62
7
6
CONTINUOUS
70
0
71
3
72
14
73
10
74
8
42
0.0000001000
43
0.0000001000
44
0.0000000001
12
-2.1944258811
22
0.0000000000
32
0.0000000000
13
0.0000000000
23
-2.1944258811
33
0.0000000000
40
0.0000000000
40
0.0000000000
40
0.0000000000
40
0.0000000000
40
0.1411050566
40
0.2857209433
40
0.4295000773
40
0.5702907652
40
0.7141620954
40
0.8588605434
40
1.0000000000
40
1.0000000000
40
1.0000000000
40
1.0000000000
10
-4.2022767027
20
-8.7596799218
30
0.0000000000
10
-4.3054915654
20
-8.7596799218
30
0.0000000000
10
-4.5152161230
20
-8.7829771724
30
0.0000000000
10
-4.8143478557
20
-8.8872194522
30
0.0000000000
10
-5.0823491886
20
-9.0558787192
30
0.0000000000
10
-5.3057822011
20
-9.2792378545
30
0.0000000000
10
-5.4745811418
20
-9.5473080057
30
0.0000000000
10
-5.5789108830
20
-9.8465759479
30
0.0000000000
10
-5.6022233950
20
-10.0563865886
30
0.0000000000
10
-5.6022233950
20
-10.1596266141
30
0.0000000000
11
-4.2022767027
21
-8.7596799218
31
0.0000000000
11
-4.5100221387
21
-8.7939219667
31
0.0000000000
11
-4.8097076440
21
-8.8983197017
31
0.0000000000
11
-5.0767373290
21
-9.0663773742
31
0.0000000000
11
-5.2952373534
21
-9.2848053124
31
0.0000000000
11
-5.4634715196
21
-9.5519629586
31
0.0000000000
11
-5.5679646522
21
-9.8518070821
31
0.0000000000
11
-5.6022233950
21
-10.1596266141
31
0.0000000000
0
SPLINE
5
3A3
100
AcDbEntity
8
0
100
AcDbSpline
62
7
6
CONTINUOUS
70
0
71
3
72
14
73
10
74
8
42
0.0000001000
43
0.0000001000
44
0.0000000001
12
0.0000000000
22
2.1944258811
32
0.0000000000
13
-2.1944258811
23
-0.0000000000
33
0.0000000000
40
0.0000000000
40
0.0000000000
40
0.0000000000
40
0.0000000000
40
0.1411050566
40
0.2857209433
40
0.4295000773
40
0.5702907652
40
0.7141620954
40
0.8588605434
40
1.0000000000
40
1.0000000000
40
1.0000000000
40
1.0000000000
10
8.1977766050
20
-10.1596266141
30
0.0000000000
10
8.1977766050
20
-10.0564117513
30
0.0000000000
10
8.1744793543
20
-9.8466871938
30
0.0000000000
10
8.0702370746
20
-9.5475554611
30
0.0000000000
10
7.9015778076
20
-9.2795541281
30
0.0000000000
10
7.6782186723
20
-9.0561211157
30
0.0000000000
10
7.4101485211
20
-8.8873221750
30
0.0000000000
10
7.1108805789
20
-8.7829924338
30
0.0000000000
10
6.9010699382
20
-8.7596799218
30
0.0000000000
10
6.7978299127
20
-8.7596799218
30
0.0000000000
11
8.1977766050
21
-10.1596266141
31
0.0000000000
11
8.1635345601
21
-9.8518811781
31
0.0000000000
11
8.0591368251
21
-9.5521956728
31
0.0000000000
11
7.8910791526
21
-9.2851659878
31
0.0000000000
11
7.6726512144
21
-9.0666659634
31
0.0000000000
11
7.4054935682
21
-8.8984317972
31
0.0000000000
11
7.1056494446
21
-8.7939386645
31
0.0000000000
11
6.7978299127
21
-8.7596799218
31
0.0000000000
0
SPLINE
5
3A4
100
AcDbEntity
8
0
100
AcDbSpline
62
7
6
CONTINUOUS
70
0
71
3
72
14
73
10
74
8
42
0.0000001000
43
0.0000001000
44
0.0000000001
12
2.1944258811
22
0.0000000000
32
0.0000000000
13
0.0000000000
23
2.1944258811
33
0.0000000000
40
0.0000000000
40
0.0000000000
40
0.0000000000
40
0.0000000000
40
0.1411050566
40
0.2857209433
40
0.4295000773
40
0.5702907652
40
0.7141620954
40
0.8588605434
40
1.0000000000
40
1.0000000000
40
1.0000000000
40
1.0000000000
10
6.7978299127
20
-15.0596799218
30
0.0000000000
10
6.9010447754
20
-15.0596799218
30
0.0000000000
10
7.1107693330
20
-15.0363826711
30
0.0000000000
10
7.4099010657
20
-14.9321403914
30
0.0000000000
10
7.6779023986
20
-14.7634811244
30
0.0000000000
10
7.9013354111
20
-14.5401219891
30
0.0000000000
10
8.0701343518
20
-14.2720518379
30
0.0000000000
10
8.1744640930
20
-13.9727838957
30
0.0000000000
10
8.1977766050
20
-13.7629732549
30
0.0000000000
10
8.1977766050
20
-13.6597332295
30
0.0000000000
11
6.7978299127
21
-15.0596799218
31
0.0000000000
11
7.1055753487
21
-15.0254378769
31
0.0000000000
11
7.4052608540
21
-14.9210401419
31
0.0000000000
11
7.6722905390
21
-14.7529824694
31
0.0000000000
11
7.8907905634
21
-14.5345545312
31
0.0000000000
11
8.0590247296
21
-14.2673968850
31
0.0000000000
11
8.1635178622
21
-13.9675527614
31
0.0000000000
11
8.1977766050
21
-13.6597332295
31
0.0000000000
0
SPLINE
5
3A5
100
AcDbEntity
8
0
100
AcDbSpline
62
7
6
CONTINUOUS
70
0
71
3
72
12
73
8
74
6
42
0.0000001000
43
0.0000001000
44
0.0000000001
12
0.3071460193
22
0.0000000000
32
0.0000000000
13
0.0190355355
23
-0.3065555831
33
0.0000000000
40
0.0000000000
40
0.0000000000
40
0.0000000000
40
0.0000000000
40
0.2987601449
40
0.5714134951
40
0.7891086986
40
0.9344564439
40
1.0000000000
40
1.0000000000
40
1.0000000000
40
1.0000000000
10
-3.6140160900
20
19.6403200782
30
0.0000000000
10
-3.5834284269
20
19.6403200782
30
0.0000000000
10
-3.5247179929
20
19.6390281434
30
0.0000000000
10
-3.4448511951
20
19.6338652818
30
0.0000000000
10
-3.3782135910
20
19.6249673883
30
0.0000000000
10
-3.3394703053
20
19.6163954806
30
0.0000000000
10
-3.3144433987
20
19.6052233392
30
0.0000000000
10
-3.3140275131
20
19.5985257582
30
0.0000000000
11
-3.6140160900
21
19.6403200782
31
0.0000000000
11
-3.5222753321
21
19.6383002940
31
0.0000000000
11
-3.4387407840
21
19.6323755721
31
0.0000000000
11
-3.3725131436
21
19.6231710670
31
0.0000000000
11
-3.3294238172
21
19.6114960624
31
0.0000000000
11
-3.3140275131
21
19.5985257582
31
0.0000000000
0
SPLINE
5
3A6
100
AcDbEntity
8
0
100
AcDbSpline
62
7
6
CONTINUOUS
70
0
71
3
72
12
73
8
74
6
42
0.0000001000
43
0.0000001000
44
0.0000000001
12
0.0190355355
22
0.3065555831
32
0.0000000000
13
0.3071460193
23
0.0000000000
33
0.0000000000
40
0.0000000000
40
0.0000000000
40
0.0000000000
40
0.0000000000
40
0.0655435561
40
0.2108913014
40
0.4285865049
40
0.7012398551
40
1.0000000000
40
1.0000000000
40
1.0000000000
40
1.0000000000
10
-4.0904192769
20
19.5985257582
30
0.0000000000
10
-4.0900033913
20
19.6052233392
30
0.0000000000
10
-4.0649764847
20
19.6163954806
30
0.0000000000
10
-4.0262331990
20
19.6249673883
30
0.0000000000
10
-3.9595955949
20
19.6338652818
30
0.0000000000
10
-3.8797287971
20
19.6390281434
30
0.0000000000
10
-3.8210183630
20
19.6403200782
30
0.0000000000
10
-3.7904307000
20
19.6403200782
30
0.0000000000
11
-4.0904192769
21
19.5985257582
31
0.0000000000
11
-4.0750229728
21
19.6114960624
31
0.0000000000
11
-4.0319336464
21
19.6231710670
31
0.0000000000
11
-3.9657060060
21
19.6323755721
31
0.0000000000
11
-3.8821714579
21
19.6383002940
31
0.0000000000
11
-3.7904307000
21
19.6403200782
31
0.0000000000
0
SPLINE
5
3A7
100
AcDbEntity
8
0
100
AcDbSpline
62
9
6
CONTINUOUS
70
0
71
3
72
21
73
17
74
15
42
0.0000001000
43
0.0000001000
44
0.0000000001
12
-0.0000205257
22
2.1977923739
32
0.0000000000
13
2.1977923739
23
-0.0000235898
33
0.0000000000
40
0.0000000000
40
0.0000000000
40
0.0000000000
40
0.0000000000
40
0.0511185339
40
0.1111745174
40
0.1799340421
40
0.2552604201
40
0.3355451060
40
0.4191078082
40
0.5042955910
40
0.5895012356
40
0.6729851714
40
0.7528881617
40
0.8273420587
40
0.8945270826
40
0.9526709426
40
1.0000000000
40
1.0000000000
40
1.0000000000
40
1.0000000000
10
-5.6057293732
20
-10.1561206359
30
0.0000000000
10
-5.6057297229
20
-10.1186713279
30
0.0000000000
10
-5.6024598206
20
-10.0371904126
30
0.0000000000
10
-5.5856862125
20
-9.9062517379
30
0.0000000000
10
-5.5517353621
20
-9.7603007133
30
0.0000000000
10
-5.4965238541
20
-9.6050697429
30
0.0000000000
10
-5.4179085547
20
-9.4479563731
30
0.0000000000
10
-5.3157086353
20
-9.2961916045
30
0.0000000000
10
-5.1919328936
20
-9.1565459104
30
0.0000000000
10
-5.0506704849
20
-9.0347066179
30
0.0000000000
10
-4.8978157947
20
-8.9347385783
30
0.0000000000
10
-4.7405707640
20
-8.8586178138
30
0.0000000000
10
-4.5866552428
20
-8.8059669404
30
0.0000000000
10
-4.4435028546
20
-8.7742019744
30
0.0000000000
10
-4.3177524032
20
-8.7590452856
30
0.0000000000
10
-4.2404558280
20
-8.7561735714
30
0.0000000000
10
-4.2057826809
20
-8.7561739436
30
0.0000000000
11
-5.6057293732
21
-10.1561206359
31
0.0000000000
11
-5.6012229024
21
-10.0438631296
31
0.0000000000
11
-5.5844511309
21
-9.9129424604
31
0.0000000000
11
-5.5502102502
21
-9.7657535945
31
0.0000000000
11
-5.4947312863
21
-9.6097745482
31
0.0000000000
11
-5.4157724741
21
-9.4519779054
31
0.0000000000
11
-5.3131890788
21
-9.2996452302
31
0.0000000000
11
-5.1890016675
21
-9.1595355954
31
0.0000000000
11
-5.0471964900
21
-9.0372277231
31
0.0000000000
11
-4.8936408409
21
-8.9368001163
31
0.0000000000
11
-4.7355779545
21
-8.8602817514
31
0.0000000000
11
-4.5807522781
21
-8.8073179553
31
0.0000000000
11
-4.4366001911
21
-8.7753292502
31
0.0000000000
11
-4.3097303665
21
-8.7600369533
31
0.0000000000
11
-4.2057826809
21
-8.7561739436
31
0.0000000000
0
SPLINE
5
3A8
100
AcDbEntity
8
0
100
AcDbSpline
62
9
6
CONTINUOUS
70
0
71
3
72
21
73
17
74
15
42
0.0000001000
43
0.0000001000
44
0.0000000001
12
-2.1977923739
22
-0.0000205257
32
0.0000000000
13
0.0000235898
23
2.1977923739
33
0.0000000000
40
0.0000000000
40
0.0000000000
40
0.0000000000
40
0.0000000000
40
0.0511185339
40
0.1111745174
40
0.1799340421
40
0.2552604201
40
0.3355451060
40
0.4191078082
40
0.5042955910
40
0.5895012356
40
0.6729851714
40
0.7528881617
40
0.8273420587
40
0.8945270826
40
0.9526709426
40
1.0000000000
40
1.0000000000
40
1.0000000000
40
1.0000000000
10
-4.2057826809
20
-15.0631859000
30
0.0000000000
10
-4.2432319888
20
-15.0631862497
30
0.0000000000
10
-4.3247129042
20
-15.0599163474
30
0.0000000000
10
-4.4556515788
20
-15.0431427393
30
0.0000000000
10
-4.6016026035
20
-15.0091918889
30
0.0000000000
10
-4.7568335739
20
-14.9539803809
30
0.0000000000
10
-4.9139469437
20
-14.8753650815
30
0.0000000000
10
-5.0657117123
20
-14.7731651621
30
0.0000000000
10
-5.2053574063
20
-14.6493894204
30
0.0000000000
10
-5.3271966989
20
-14.5081270117
30
0.0000000000
10
-5.4271647385
20
-14.3552723215
30
0.0000000000
10
-5.5032855030
20
-14.1980272908
30
0.0000000000
10
-5.5559363763
20
-14.0441117696
30
0.0000000000
10
-5.5877013424
20
-13.9009593814
30
0.0000000000
10
-5.6028580312
20
-13.7752089300
30
0.0000000000
10
-5.6057297453
20
-13.6979123548
30
0.0000000000
10
-5.6057293732
20
-13.6632392077
30
0.0000000000
11
-4.2057826809
21
-15.0631859000
31
0.0000000000
11
-4.3180401872
21
-15.0586794292
31
0.0000000000
11
-4.4489608563
21
-15.0419076576
31
0.0000000000
11
-4.5961497223
21
-15.0076667770
31
0.0000000000
11
-4.7521287686
21
-14.9521878130
31
0.0000000000
11
-4.9099254114
21
-14.8732290009
31
0.0000000000
11
-5.0622580866
21
-14.7706456056
31
0.0000000000
11
-5.2023677214
21
-14.6464581943
31
0.0000000000
11
-5.3246755937
21
-14.5046530168
31
0.0000000000
11
-5.4251032005
21
-14.3510973677
31
0.0000000000
11
-5.5016215654
21
-14.1930344813
31
0.0000000000
11
-5.5545853614
21
-14.0382088049
31
0.0000000000
11
-5.5865740666
21
-13.8940567179
31
0.0000000000
11
-5.6018663635
21
-13.7671868933
31
0.0000000000
11
-5.6057293732
21
-13.6632392077
31
0.0000000000
0
SPLINE
5
3A9
100
AcDbEntity
8
0
100
AcDbSpline
62
9
6
CONTINUOUS
70
0
71
3
72
21
73
17
74
15
42
0.0000001000
43
0.0000001000
44
0.0000000001
12
-0.0000076257
22
-2.5117523814
32
0.0000000000
13
-2.5117523814
23
-0.0000007082
33
0.0000000000
40
0.0000000000
40
0.0000000000
40
0.0000000000
40
0.0000000000
40
0.0511158838
40
0.1111676663
40
0.1799212209
40
0.2552417291
40
0.3355215171
40
0.4190812553
40
0.5042684421
40
0.5894759316
40
0.6729639223
40
0.7528724109
40
0.8273321027
40
0.8945220913
40
0.9526693274
40
1.0000000000
40
1.0000000000
40
1.0000000000
40
1.0000000000
10
8.4012749678
20
-13.6632392077
30
0.0000000000
10
8.4012748379
20
-13.7060360220
30
0.0000000000
10
8.3975370576
20
-13.7991508960
30
0.0000000000
10
8.3783679261
20
-13.9487836873
30
0.0000000000
10
8.3395708782
20
-14.1155711653
30
0.0000000000
10
8.2764795683
20
-14.2929648592
30
0.0000000000
10
8.1866436750
20
-14.4725141659
30
0.0000000000
10
8.0698542790
20
-14.6459570082
30
0.0000000000
10
7.9284044053
20
-14.8055561260
30
0.0000000000
10
7.7669650275
20
-14.9448104124
30
0.0000000000
10
7.5922714694
20
-15.0590717772
30
0.0000000000
10
7.4125552093
20
-15.1460789348
30
0.0000000000
10
7.2366413427
20
-15.2062608847
30
0.0000000000
10
7.0730284945
20
-15.2425698516
30
0.0000000000
10
6.9293062608
20
-15.2598950970
30
0.0000000000
10
6.8409635341
20
-15.2631782734
30
0.0000000000
10
6.8013358909
20
-15.2631782846
30
0.0000000000
11
8.4012749678
21
-13.6632392077
31
0.0000000000
11
8.3961236564
21
-13.7915262679
31
0.0000000000
11
8.3769566130
21
-13.9411387150
31
0.0000000000
11
8.3378284337
21
-14.1093394269
31
0.0000000000
11
8.2744317279
21
-14.2875875028
31
0.0000000000
11
8.1842035804
21
-14.4679170902
31
0.0000000000
11
8.0669761145
21
-14.6420087652
31
0.0000000000
11
7.9250557943
21
-14.8021381090
31
0.0000000000
11
7.7629959875
21
-14.9419280532
31
0.0000000000
11
7.5875008593
21
-15.0567149699
31
0.0000000000
11
7.4068491332
21
-15.1441769219
31
0.0000000000
11
7.2298942871
21
-15.2047167793
31
0.0000000000
11
7.0651383775
21
-15.2412815867
31
0.0000000000
11
6.9201367572
21
-15.2587618243
31
0.0000000000
11
6.8013358909
21
-15.2631782846
31
0.0000000000
0
ENDSEC
0
SECTION
2
OBJECTS
0
DICTIONARY
5
3AA
100
AcDbDictionary
3
ACAD_GROUP
350
3AB
3
ACAD_MLINESTYLE
350
3AC
0
DICTIONARY
5
3AB
102
{ACAD_REACTORS
330
3AA
102
}
100
AcDbDictionary
0
DICTIONARY
5
3AC
102
{ACAD_REACTORS
330
3AA
102
}
100
AcDbDictionary
3
STANDARD
350
3AD
0
MLINESTYLE
5
3AD
102
{ACAD_REACTORS
330
3AC
102
}
100
AcDbMlineStyle
2
STANDARD
70
0
3

62
256
51
90.0
52
90.0
71
2
49
0.5
62
256
6
BYLAYER
49
-0.5
62
256
6
BYLAYER
0
ENDSEC
0
EOF
