  0
SECTION
  2
HEADER
  9
$ACADVER
  1
AC1021
  9
$DWGCODEPAGE
  3
ANSI_1252
  9
$EXTMAX
 10
297.0
 20
210.0
 30
0.0
  9
$EXTMIN
 10
0.0
 20
0.0
 30
0.0
  9
$LIMMIN
 10
0.0
 20
0.0
  9
$LIMMAX
 10
297.0
 20
210.0
  9
$VIEWCTR
 10
148.5
 20
105.0
  9
$VIEWSIZE
 40
210.0
  9
$CLAYER
  8
0
  9
$LTSCALE
 40
16.335
  9
$CELTYPE
  6
BYLAYER
  9
$DIMSCALE
 40
1.0
  9
$DIMASZ
 40
3.0
  9
$DIMEXO
 40
0.5
  9
$DIMDLI
 40
11.286
  9
$DIMEXE
 40
1.5
  9
$DIMCEN
 40
2.673
  9
$DIMLFAC
 40
1.0
  9
$DIMBLK
  1
_FILLED
  9
$DIMALT
 70
0
  9
$DIMALTF
 40
0.0393700787
  9
$DIMTXT
 40
3.0
  9
$DIMTOL
 70
1
  9
$DIMLIM
 70
0
  9
$DIMTFAC
 40
1.0
  9
$DIMTP
 40
0.01
  9
$DIMTM
 40
0.01
  9
$DIMGAP
 40
0.625
  9
$DIMDSEP
 70
44
  9
$AUNITS
 70
0
  9
$PDMODE
 70
3
  9
$PDSIZE
 40
3.0
  9
$HANDSEED
  5
554
  9
$TILEMODE
 70
1
  9
$MEASUREMENT
 70
1
  9
$INSUNITS
 70
4
  0
ENDSEC
  0
SECTION
  2
CLASSES
  0
CLASS
  1
ACDBDICTIONARYWDFLT
  2
AcDbDictionaryWithDefault
  3
AutoCAD 2000
 90
0
 91
1
280
0
281
0
  0
CLASS
  1
ACDBPLACEHOLDER
  2
AcDbPlaceHolder
  3
AutoCAD 2000
 90
0
 91
1
280
0
281
0
  0
CLASS
  1
LAYOUT
  2
AcDbLayout
  3
AutoCAD 2000
 90
0
 91
0
280
0
281
0
  0
ENDSEC
  0
SECTION
  2
TABLES
  0
TABLE
  2
VPORT
  5
8
100
AcDbSymbolTable
 70
2
  0
VPORT
  5
1F4
100
AcDbSymbolTableRecord
100
AcDbViewportTableRecord
  2
*ACTIVE
 70
0
 10
0.0
 20
0.0
 11
1.0
 21
1.0
 12
148.5
 22
105.0
 13
0.0
 23
0.0
 14
1.0
 24
1.0
 15
0.0
 25
0.0
 16
0.0
 26
0.0
 36
1.0
 17
0.0
 27
0.0
 37
0.0
 40
210.0
 41
1.4142857143
 42
50.0
 43
0.0
 44
0.0
 50
0.0
 51
0.0
 71
0
 72
100
 73
1
 74
1
 75
0
 76
0
 77
0
 78
0
  0
ENDTAB
  0
TABLE
  2
LTYPE
  5
5
100
AcDbSymbolTable
 70
6
  0
LTYPE
  5
14
100
AcDbSymbolTableRecord
100
AcDbLinetypeTableRecord
  2
BYBLOCK
 70
0
  3

 72
65
 73
0
 40
0.0
  0
LTYPE
  5
15
100
AcDbSymbolTableRecord
100
AcDbLinetypeTableRecord
  2
BYLAYER
 70
0
  3

 72
65
 73
0
 40
0.0
  0
LTYPE
  5
16
100
AcDbSymbolTableRecord
100
AcDbLinetypeTableRecord
  2
CONTINUOUS
 70
64
  3
Solid line
 72
65
 73
0
 40
0.0
  0
LTYPE
  5
1F5
100
AcDbSymbolTableRecord
100
AcDbLinetypeTableRecord
  2
CENTER
 70
64
  3
____ _ ____ _ ____ _ ____ _ ____ _ ____ _ ____
 72
65
 73
4
 40
0.6
 49
0.375
 74
0
 49
-0.075
 74
0
 49
0.075
 74
0
 49
-0.075
 74
0
  0
LTYPE
  5
1F6
100
AcDbSymbolTableRecord
100
AcDbLinetypeTableRecord
  2
HIDDEN
 70
64
  3
- - - - - - - - - - - - - - - - - - - -
 72
65
 73
2
 40
0.2
 49
0.1
 74
0
 49
-0.1
 74
0
  0
LTYPE
  5
1F7
100
AcDbSymbolTableRecord
100
AcDbLinetypeTableRecord
  2
PHANTOM
 70
64
  3
_____ _ _ _____ _ _ _____ _ _ _____
 72
65
 73
6
 40
0.8
 49
0.45
 74
0
 49
-0.05
 74
0
 49
0.1
 74
0
 49
-0.05
 74
0
 49
0.1
 74
0
 49
-0.05
 74
0
  0
LTYPE
  5
1F8
100
AcDbSymbolTableRecord
100
AcDbLinetypeTableRecord
  2
DOT
 70
64
  3
. . . . . . . . . . . . . . . . . . . .
 72
65
 73
2
 40
0.2
 49
0.1
 74
0
 49
-0.1
 74
0
  0
LTYPE
  5
1F9
100
AcDbSymbolTableRecord
100
AcDbLinetypeTableRecord
  2
DASHED
 70
64
  3
- - - - - - - - - - - - - - - - - - - -
 72
65
 73
2
 40
0.2
 49
0.1
 74
0
 49
-0.1
 74
0
  0
ENDTAB
  0
TABLE
  2
LAYER
  5
2
100
AcDbSymbolTable
 70
36
  0
LAYER
  5
10
100
AcDbSymbolTableRecord
100
AcDbLayerTableRecord
  2
0
 70
0
 62
7
  6
CONTINUOUS
370
-3
390
F
  0
LAYER
  5
1FA
100
AcDbSymbolTableRecord
100
AcDbLayerTableRecord
  2
DEFAULT_1
 70
0
 62
7
  6
CENTER
370
-3
390
F
  0
LAYER
  5
1FB
100
AcDbSymbolTableRecord
100
AcDbLayerTableRecord
  2
DEFAULT_2
 70
0
 62
7
  6
HIDDEN
370
-3
390
F
  0
LAYER
  5
1FC
100
AcDbSymbolTableRecord
100
AcDbLayerTableRecord
  2
DEFAULT_3
 70
0
 62
7
  6
PHANTOM
370
-3
390
F
  0
LAYER
  5
1FD
100
AcDbSymbolTableRecord
100
AcDbLayerTableRecord
  2
ASSI
 70
0
 62
7
  6
CONTINUOUS
370
-3
390
F
  0
LAYER
  5
1FE
100
AcDbSymbolTableRecord
100
AcDbLayerTableRecord
  2
COORDINATE
 70
0
 62
7
  6
CONTINUOUS
370
-3
390
F
  0
LAYER
  5
1FF
100
AcDbSymbolTableRecord
100
AcDbLayerTableRecord
  2
COORD_ORIGINE
 70
0
 62
7
  6
CONTINUOUS
370
-3
390
F
  0
LAYER
  5
200
100
AcDbSymbolTableRecord
100
AcDbLayerTableRecord
  2
COPY_PUBLISH
 70
0
 62
7
  6
CONTINUOUS
370
-3
390
F
  0
LAYER
  5
201
100
AcDbSymbolTableRecord
100
AcDbLayerTableRecord
  2
COSMETICI
 70
0
 62
7
  6
CONTINUOUS
370
-3
390
F
  0
LAYER
  5
202
100
AcDbSymbolTableRecord
100
AcDbLayerTableRecord
  2
CURVE
 70
0
 62
7
  6
CONTINUOUS
370
-3
390
F
  0
LAYER
  5
203
100
AcDbSymbolTableRecord
100
AcDbLayerTableRecord
  2
DRAFT
 70
0
 62
7
  6
CONTINUOUS
370
-3
390
F
  0
LAYER
  5
204
100
AcDbSymbolTableRecord
100
AcDbLayerTableRecord
  2
IGES
 70
0
 62
7
  6
CONTINUOUS
370
-3
390
F
  0
LAYER
  5
205
100
AcDbSymbolTableRecord
100
AcDbLayerTableRecord
  2
IMPORT_IGES
 70
0
 62
7
  6
CONTINUOUS
370
-3
390
F
  0
LAYER
  5
206
100
AcDbSymbolTableRecord
100
AcDbLayerTableRecord
  2
IMPORT_SCRITTE
 70
0
 62
7
  6
CONTINUOUS
370
-3
390
F
  0
LAYER
  5
207
100
AcDbSymbolTableRecord
100
AcDbLayerTableRecord
  2
INTF_MAGENTA
 70
0
 62
7
  6
CONTINUOUS
370
-3
390
F
  0
LAYER
  5
208
100
AcDbSymbolTableRecord
100
AcDbLayerTableRecord
  2
NOTE
 70
0
 62
7
  6
CONTINUOUS
370
-3
390
F
  0
LAYER
  5
209
100
AcDbSymbolTableRecord
100
AcDbLayerTableRecord
  2
PIANI
 70
0
 62
7
  6
CONTINUOUS
370
-3
390
F
  0
LAYER
  5
20A
100
AcDbSymbolTableRecord
100
AcDbLayerTableRecord
  2
PIANI_ORIGINE
 70
0
 62
7
  6
CONTINUOUS
370
-3
390
F
  0
LAYER
  5
20B
100
AcDbSymbolTableRecord
100
AcDbLayerTableRecord
  2
PUNTI
 70
0
 62
7
  6
CONTINUOUS
370
-3
390
F
  0
LAYER
  5
20C
100
AcDbSymbolTableRecord
100
AcDbLayerTableRecord
  2
RACCORDO
 70
0
 62
7
  6
CONTINUOUS
370
-3
390
F
  0
LAYER
  5
20D
100
AcDbSymbolTableRecord
100
AcDbLayerTableRecord
  2
SIMBOLI
 70
0
 62
7
  6
CONTINUOUS
370
-3
390
F
  0
LAYER
  5
20E
100
AcDbSymbolTableRecord
100
AcDbLayerTableRecord
  2
SMUSSO
 70
0
 62
7
  6
CONTINUOUS
370
-3
390
F
  0
LAYER
  5
20F
100
AcDbSymbolTableRecord
100
AcDbLayerTableRecord
  2
SNAPLINE
 70
0
 62
7
  6
CONTINUOUS
370
-3
390
F
  0
LAYER
  5
210
100
AcDbSymbolTableRecord
100
AcDbLayerTableRecord
  2
STANDARD
 70
0
 62
7
  6
CONTINUOUS
370
-3
390
F
  0
LAYER
  5
211
100
AcDbSymbolTableRecord
100
AcDbLayerTableRecord
  2
SUPERFICI
 70
0
 62
7
  6
CONTINUOUS
370
-3
390
F
  0
LAYER
  5
212
100
AcDbSymbolTableRecord
100
AcDbLayerTableRecord
  2
TRASH
 70
0
 62
7
  6
CONTINUOUS
370
-3
390
F
  0
ENDTAB
  0
TABLE
  2
STYLE
  5
3
100
AcDbSymbolTable
 70
1
  0
STYLE
  5
11
100
AcDbSymbolTableRecord
100
AcDbTextStyleTableRecord
  2
STANDARD
 70
0
 40
0.0
 41
0.8
 50
0.0
 71
0
 42
0.2
  3
txt
  4

  0
STYLE
  5
213
100
AcDbSymbolTableRecord
100
AcDbTextStyleTableRecord
  2
TEXTSTYLE_1
 70
0
 40
0.0
 41
0.8
 50
0.0
 71
0
 42
0.2
  3
gdt
  4

  0
ENDTAB
  0
TABLE
  2
VIEW
  5
6
100
AcDbSymbolTable
 70
0
  0
ENDTAB
  0
TABLE
  2
UCS
  5
7
100
AcDbSymbolTable
 70
0
  0
ENDTAB
  0
TABLE
  2
APPID
  5
9
100
AcDbSymbolTable
 70
1
  0
APPID
  5
214
100
AcDbSymbolTableRecord
100
AcDbRegAppTableRecord
  2
ACAD
 70
0
  0
ENDTAB
  0
TABLE
  2
BLOCK_RECORD
  5
1
100
AcDbSymbolTable
 70
0
  0
BLOCK_RECORD
  5
215
100
AcDbSymbolTableRecord
100
AcDbBlockTableRecord
  2
*Model_Space
  0
BLOCK_RECORD
  5
216
100
AcDbSymbolTableRecord
100
AcDbBlockTableRecord
  2
*Paper_Space
  0
ENDTAB
  0
TABLE
  2
DIMSTYLE
  5
A
100
AcDbSymbolTable
 70
1
100
AcDbDimStyleTable
 71
0
  0
DIMSTYLE
105
217
100
AcDbSymbolTableRecord
100
AcDbDimStyleTableRecord
  2
STANDARD
 70
0
  3

  4

 40
1.0
 41
3.0
 42
0.5
 43
0.38
 44
1.5
 45
0.0
 46
0.0
 47
0.01
 48
0.01
140
3.0
141
0.09
142
0.0
143
25.4
144
1.0
145
0.0
146
1.0
147
0.625
 71
1.0
 72
0.0
 73
0
 74
0
 75
0
 76
0
 77
1
 78
8
170
0
171
2
172
0
173
0
174
0
175
0
176
0
177
0
178
0
270
2
271
2
272
2
273
2
274
2
275
0
280
0
281
0
282
0
283
1
284
8
285
0
286
0
287
3
288
0
340
11
278
44
  0
ENDTAB
  0
ENDSEC
  0
SECTION
  2
BLOCKS
  0
BLOCK
  5
20
100
AcDbEntity
  8
0
100
AcDbBlockBegin
  2
*Model_Space
 70
0
 10
0.0
 20
0.0
 30
0.0
  3
*Model_Space
  1

  0
ENDBLK
  5
21
100
AcDbEntity
  8
0
100
AcDbBlockEnd
  0
BLOCK
  5
1C
100
AcDbEntity
  8
0
100
AcDbBlockBegin
  2
*Paper_Space
 70
0
 10
0.0
 20
0.0
 30
0.0
  3
*Paper_Space
  1

  0
ENDBLK
  5
1D
100
AcDbEntity
  8
0
100
AcDbBlockEnd
  0
ENDSEC
  0
SECTION
  2
ENTITIES
  0
LINE
  5
218
100
AcDbEntity
  8
RACCORDO
100
AcDbLine
 62
7
  6
CONTINUOUS
 10
154.0904164715
 20
90.6987598119
 11
133.4901727837
 21
90.6987598119
  0
LINE
  5
219
100
AcDbEntity
  8
ASSI
100
AcDbLine
 62
7
  6
CONTINUOUS
 10
154.0904164715
 20
90.6987598119
 11
133.4901727837
 21
90.6987598119
  0
LINE
  5
21A
100
AcDbEntity
  8
RACCORDO
100
AcDbLine
 62
7
  6
CONTINUOUS
 10
153.3902946276
 20
92.1987598119
 11
150.7902946276
 21
92.1987598119
  0
LINE
  5
21B
100
AcDbEntity
  8
RACCORDO
100
AcDbLine
 62
7
  6
CONTINUOUS
 10
136.7902946276
 20
92.1987598119
 11
134.1902946276
 21
92.1987598119
  0
LINE
  5
21C
100
AcDbEntity
  8
0
100
AcDbLine
 62
7
  6
CONTINUOUS
 10
136.7902946276
 20
92.1987598119
 11
150.7902946276
 21
92.1987598119
  0
LINE
  5
21D
100
AcDbEntity
  8
ASSI
100
AcDbLine
 62
7
  6
CONTINUOUS
 10
134.1902946276
 20
92.1987598119
 11
153.3902946276
 21
92.1987598119
  0
LINE
  5
21E
100
AcDbEntity
  8
0
100
AcDbLine
 62
7
  6
CONTINUOUS
 10
137.3902946276
 20
92.5987598119
 11
136.7902946276
 21
92.5987598119
  0
LINE
  5
21F
100
AcDbEntity
  8
ASSI
100
AcDbLine
 62
7
  6
CONTINUOUS
 10
137.3902946276
 20
92.5987598119
 11
136.7902946276
 21
92.5987598119
  0
LINE
  5
220
100
AcDbEntity
  8
SUPERFICI
100
AcDbLine
 62
7
  6
CONTINUOUS
 10
150.1902946276
 20
92.5987598119
 11
150.7902946276
 21
92.5987598119
  0
LINE
  5
221
100
AcDbEntity
  8
ASSI
100
AcDbLine
 62
7
  6
CONTINUOUS
 10
150.1902946276
 20
92.5987598119
 11
150.7902946276
 21
92.5987598119
  0
LINE
  5
222
100
AcDbEntity
  8
RACCORDO
100
AcDbLine
 62
253
  6
CONTINUOUS
 10
133.8902946276
 20
92.6987598119
 11
153.6902946276
 21
92.6987598119
  0
LINE
  5
223
100
AcDbEntity
  8
ASSI
100
AcDbLine
 62
253
  6
CONTINUOUS
 10
133.8902946276
 20
92.6987598119
 11
153.6902946276
 21
92.6987598119
  0
LINE
  5
224
100
AcDbEntity
  8
0
100
AcDbLine
 62
7
  6
CONTINUOUS
 10
136.7902946276
 20
92.5987598119
 11
134.1902946276
 21
92.1987598119
  0
LINE
  5
225
100
AcDbEntity
  8
ASSI
100
AcDbLine
 62
7
  6
CONTINUOUS
 10
136.7902946276
 20
92.5987598119
 11
134.1902946276
 21
92.1987598119
  0
LINE
  5
226
100
AcDbEntity
  8
0
100
AcDbLine
 62
7
  6
CONTINUOUS
 10
150.7902946276
 20
92.5987598119
 11
153.3902946276
 21
92.1987598119
  0
LINE
  5
227
100
AcDbEntity
  8
ASSI
100
AcDbLine
 62
7
  6
CONTINUOUS
 10
150.7902946276
 20
92.5987598119
 11
153.3902946276
 21
92.1987598119
  0
LINE
  5
228
100
AcDbEntity
  8
RACCORDO
100
AcDbLine
 62
253
  6
CONTINUOUS
 10
149.3305430074
 20
96.9452820717
 11
138.2867353417
 21
96.9452614491
  0
LINE
  5
229
100
AcDbEntity
  8
ASSI
100
AcDbLine
 62
253
  6
CONTINUOUS
 10
149.3305430074
 20
96.9452820717
 11
138.2867353417
 21
96.9452614491
  0
LINE
  5
22A
100
AcDbEntity
  8
RACCORDO
100
AcDbLine
 62
7
  6
CONTINUOUS
 10
149.2938539135
 20
97.1452538337
 11
138.2867353417
 21
97.1452538337
  0
LINE
  5
22B
100
AcDbEntity
  8
ASSI
100
AcDbLine
 62
7
  6
CONTINUOUS
 10
149.2938539135
 20
97.1452538337
 11
138.2867353417
 21
97.1452538337
  0
LINE
  5
22C
100
AcDbEntity
  8
RACCORDO
100
AcDbLine
 62
7
  6
CONTINUOUS
 10
149.2902946276
 20
97.2487598119
 11
138.2902946276
 21
97.2487598119
  0
LWPOLYLINE
  5
22D
100
AcDbEntity
  8
RACCORDO
100
AcDbPolyline
 62
253
  6
CONTINUOUS
 90
42
 70
0
 10
138.2867353417
 20
96.9452614491
 10
138.2463424757
 20
96.9454212493
 10
138.2035801223
 20
96.9471383531
 10
138.1584482814
 20
96.9504127605
 10
138.1108455783
 20
96.9550242713
 10
138.0608733877
 20
96.9611930856
 10
138.0088358344
 20
96.9695798039
 10
137.9545179635
 20
96.9802450934
 10
137.8981347299
 20
96.9931282868
 10
137.8406351225
 20
97.0087079832
 10
137.7820404394
 20
97.0270487927
 10
137.7223293825
 20
97.0480861052
 10
137.6623870466
 20
97.072104689
 10
137.6022003363
 20
97.0991932492
 10
137.541782347
 20
97.1292630807
 10
137.4820574591
 20
97.1623328365
 10
137.4230477098
 20
97.1984941588
 10
137.3647310619
 20
97.2376554053
 10
137.3079657842
 20
97.2795603024
 10
137.2528017784
 20
97.3242920686
 10
137.1991891428
 20
97.3717674852
 10
137.1478364404
 20
97.4214806226
 10
137.0988071321
 20
97.4735111399
 10
137.052037757
 20
97.5277793779
 10
137.0080464961
 20
97.5835404294
 10
136.9669200787
 20
97.6408526114
 10
136.9285717755
 20
97.6996576068
 10
136.8932595795
 20
97.7590355576
 10
136.8610844094
 20
97.8190077509
 10
136.8319453465
 20
97.8795528996
 10
136.8057976275
 20
97.9396872837
 10
136.782735481
 20
97.9993978878
 10
136.7626646783
 20
98.0586977275
 10
136.7452577701
 20
98.1166421298
 10
136.7305867354
 20
98.1731960316
 10
136.7185795951
 20
98.228394496
 10
136.7086929626
 20
98.2813980394
 10
136.7009687013
 20
98.3321655918
 10
136.6953649478
 20
98.3807382232
 10
136.6912127251
 20
98.4263996597
 10
136.6882890408
 20
98.4689111434
 10
136.6868168874
 20
98.5085114321
  0
LWPOLYLINE
  5
22E
100
AcDbEntity
  8
ASSI
100
AcDbPolyline
 62
253
  6
CONTINUOUS
 90
42
 70
0
 10
138.2867353417
 20
96.9452614491
 10
138.2463424757
 20
96.9454212493
 10
138.2035801223
 20
96.9471383531
 10
138.1584482814
 20
96.9504127605
 10
138.1108455783
 20
96.9550242713
 10
138.0608733877
 20
96.9611930856
 10
138.0088358344
 20
96.9695798039
 10
137.9545179635
 20
96.9802450934
 10
137.8981347299
 20
96.9931282868
 10
137.8406351225
 20
97.0087079832
 10
137.7820404394
 20
97.0270487927
 10
137.7223293825
 20
97.0480861052
 10
137.6623870466
 20
97.072104689
 10
137.6022003363
 20
97.0991932492
 10
137.541782347
 20
97.1292630807
 10
137.4820574591
 20
97.1623328365
 10
137.4230477098
 20
97.1984941588
 10
137.3647310619
 20
97.2376554053
 10
137.3079657842
 20
97.2795603024
 10
137.2528017784
 20
97.3242920686
 10
137.1991891428
 20
97.3717674852
 10
137.1478364404
 20
97.4214806226
 10
137.0988071321
 20
97.4735111399
 10
137.052037757
 20
97.5277793779
 10
137.0080464961
 20
97.5835404294
 10
136.9669200787
 20
97.6408526114
 10
136.9285717755
 20
97.6996576068
 10
136.8932595795
 20
97.7590355576
 10
136.8610844094
 20
97.8190077509
 10
136.8319453465
 20
97.8795528996
 10
136.8057976275
 20
97.9396872837
 10
136.782735481
 20
97.9993978878
 10
136.7626646783
 20
98.0586977275
 10
136.7452577701
 20
98.1166421298
 10
136.7305867354
 20
98.1731960316
 10
136.7185795951
 20
98.228394496
 10
136.7086929626
 20
98.2813980394
 10
136.7009687013
 20
98.3321655918
 10
136.6953649478
 20
98.3807382232
 10
136.6912127251
 20
98.4263996597
 10
136.6882890408
 20
98.4689111434
 10
136.6868168874
 20
98.5085114321
  0
LWPOLYLINE
  5
22F
100
AcDbEntity
  8
RACCORDO
100
AcDbPolyline
 62
253
  6
CONTINUOUS
 90
43
 70
0
 10
138.2867353417
 20
97.1452538337
 10
138.2514643038
 20
97.1456977681
 10
138.2140339058
 20
97.147141883
 10
138.1744778354
 20
97.1497603045
 10
138.1328214844
 20
97.153738076
 10
138.0891396389
 20
97.1592656059
 10
138.0435571662
 20
97.166532076
 10
137.996005115
 20
97.1757695503
 10
137.9467362865
 20
97.1871617992
 10
137.8963683003
 20
97.2007729567
 10
137.8450587701
 20
97.2167438265
 10
137.7928966822
 20
97.2352377764
 10
137.740389254
 20
97.2562519206
 10
137.6876714528
 20
97.2798909114
 10
137.6349000918
 20
97.3062493198
 10
137.5825926112
 20
97.3352107328
 10
137.5308960134
 20
97.3668110175
 10
137.4799595197
 20
97.4010807743
 10
137.430259936
 20
97.4377941281
 10
137.3819281738
 20
97.4769195157
 10
137.3350898877
 20
97.5184230269
 10
137.2901503012
 20
97.5619815394
 10
137.2471924089
 20
97.6075164528
 10
137.2063104348
 20
97.6549297773
 10
137.1678424289
 20
97.7037867169
 10
137.1318147199
 20
97.7539641917
 10
137.0982583409
 20
97.8053244893
 10
137.0674148221
 20
97.857342366
 10
137.0392438361
 20
97.9098634282
 10
137.0136982174
 20
97.962739049
 10
136.9908964572
 20
98.0154052524
 10
136.97072793
 20
98.0677045541
 10
136.9530739756
 20
98.1194991541
 10
136.9379326611
 20
98.1702309288
 10
136.9251334418
 20
98.2197656688
 10
136.9145036061
 20
98.2679921793
 10
136.905943956
 20
98.3143830158
 10
136.8992445959
 20
98.3588448007
 10
136.8942019381
 20
98.4012997978
 10
136.8906516591
 20
98.4412528404
 10
136.888377317
 20
98.4785067406
 10
136.8871548117
 20
98.5131654271
 10
136.8867886494
 20
98.545200526
  0
LWPOLYLINE
  5
230
100
AcDbEntity
  8
ASSI
100
AcDbPolyline
 62
253
  6
CONTINUOUS
 90
43
 70
0
 10
138.2867353417
 20
97.1452538337
 10
138.2514643038
 20
97.1456977681
 10
138.2140339058
 20
97.147141883
 10
138.1744778354
 20
97.1497603045
 10
138.1328214844
 20
97.153738076
 10
138.0891396389
 20
97.1592656059
 10
138.0435571662
 20
97.166532076
 10
137.996005115
 20
97.1757695503
 10
137.9467362865
 20
97.1871617992
 10
137.8963683003
 20
97.2007729567
 10
137.8450587701
 20
97.2167438265
 10
137.7928966822
 20
97.2352377764
 10
137.740389254
 20
97.2562519206
 10
137.6876714528
 20
97.2798909114
 10
137.6349000918
 20
97.3062493198
 10
137.5825926112
 20
97.3352107328
 10
137.5308960134
 20
97.3668110175
 10
137.4799595197
 20
97.4010807743
 10
137.430259936
 20
97.4377941281
 10
137.3819281738
 20
97.4769195157
 10
137.3350898877
 20
97.5184230269
 10
137.2901503012
 20
97.5619815394
 10
137.2471924089
 20
97.6075164528
 10
137.2063104348
 20
97.6549297773
 10
137.1678424289
 20
97.7037867169
 10
137.1318147199
 20
97.7539641917
 10
137.0982583409
 20
97.8053244893
 10
137.0674148221
 20
97.857342366
 10
137.0392438361
 20
97.9098634282
 10
137.0136982174
 20
97.962739049
 10
136.9908964572
 20
98.0154052524
 10
136.97072793
 20
98.0677045541
 10
136.9530739756
 20
98.1194991541
 10
136.9379326611
 20
98.1702309288
 10
136.9251334418
 20
98.2197656688
 10
136.9145036061
 20
98.2679921793
 10
136.905943956
 20
98.3143830158
 10
136.8992445959
 20
98.3588448007
 10
136.8942019381
 20
98.4012997978
 10
136.8906516591
 20
98.4412528404
 10
136.888377317
 20
98.4785067406
 10
136.8871548117
 20
98.5131654271
 10
136.8867886494
 20
98.545200526
  0
LINE
  5
231
100
AcDbEntity
  8
0
100
AcDbLine
 62
7
  6
CONTINUOUS
 10
137.9902946276
 20
98.0987598119
 11
149.5902946276
 21
98.0987598119
  0
LINE
  5
232
100
AcDbEntity
  8
0
100
AcDbLine
 62
7
  6
CONTINUOUS
 10
149.5902946276
 20
98.4987598119
 11
137.9902946276
 21
98.4987598119
  0
LINE
  5
233
100
AcDbEntity
  8
RACCORDO
100
AcDbLine
 62
253
  6
CONTINUOUS
 10
150.8937929904
 20
98.545200526
 11
150.6938006058
 21
98.545200526
  0
LINE
  5
234
100
AcDbEntity
  8
ASSI
100
AcDbLine
 62
253
  6
CONTINUOUS
 10
150.8937929904
 20
98.545200526
 11
150.6938006058
 21
98.545200526
  0
LINE
  5
235
100
AcDbEntity
  8
RACCORDO
100
AcDbLine
 62
253
  6
CONTINUOUS
 10
136.6867962648
 20
98.545200526
 11
136.8867886494
 21
98.545200526
  0
LINE
  5
236
100
AcDbEntity
  8
ASSI
100
AcDbLine
 62
253
  6
CONTINUOUS
 10
136.6867962648
 20
98.545200526
 11
136.8867886494
 21
98.545200526
  0
LINE
  5
237
100
AcDbEntity
  8
0
100
AcDbLine
 62
7
  6
CONTINUOUS
 10
149.5902946276
 20
98.8987598119
 11
137.9902946276
 21
98.8987598119
  0
LINE
  5
238
100
AcDbEntity
  8
0
100
AcDbLine
 62
7
  6
CONTINUOUS
 10
149.5902946276
 20
99.2987598119
 11
137.9902946276
 21
99.2987598119
  0
LINE
  5
239
100
AcDbEntity
  8
0
100
AcDbLine
 62
7
  6
CONTINUOUS
 10
137.9902946276
 20
98.4987598119
 11
138.3902946276
 21
98.0987598119
  0
LINE
  5
23A
100
AcDbEntity
  8
0
100
AcDbLine
 62
7
  6
CONTINUOUS
 10
137.9902946276
 20
98.8987598119
 11
138.7902946276
 21
98.0987598119
  0
LINE
  5
23B
100
AcDbEntity
  8
0
100
AcDbLine
 62
7
  6
CONTINUOUS
 10
137.9902946276
 20
99.2987598119
 11
139.1902946276
 21
98.0987598119
  0
LINE
  5
23C
100
AcDbEntity
  8
0
100
AcDbLine
 62
7
  6
CONTINUOUS
 10
137.9902946276
 20
99.6987598119
 11
139.5902946276
 21
98.0987598119
  0
LINE
  5
23D
100
AcDbEntity
  8
0
100
AcDbLine
 62
7
  6
CONTINUOUS
 10
137.9902946276
 20
100.0987598119
 11
139.9902946276
 21
98.0987598119
  0
LINE
  5
23E
100
AcDbEntity
  8
0
100
AcDbLine
 62
7
  6
CONTINUOUS
 10
149.5902946276
 20
99.6987598119
 11
137.9902946276
 21
99.6987598119
  0
LINE
  5
23F
100
AcDbEntity
  8
0
100
AcDbLine
 62
7
  6
CONTINUOUS
 10
149.5902946276
 20
100.0987598119
 11
137.9902946276
 21
100.0987598119
  0
LINE
  5
240
100
AcDbEntity
  8
0
100
AcDbLine
 62
7
  6
CONTINUOUS
 10
149.5902946276
 20
100.4987598119
 11
137.9902946276
 21
100.4987598119
  0
LINE
  5
241
100
AcDbEntity
  8
0
100
AcDbLine
 62
7
  6
CONTINUOUS
 10
149.5902946276
 20
100.8987598119
 11
137.9902946276
 21
100.8987598119
  0
LINE
  5
242
100
AcDbEntity
  8
0
100
AcDbLine
 62
7
  6
CONTINUOUS
 10
149.5902946276
 20
101.2987598119
 11
137.9902946276
 21
101.2987598119
  0
LINE
  5
243
100
AcDbEntity
  8
0
100
AcDbLine
 62
7
  6
CONTINUOUS
 10
137.9902946276
 20
100.4987598119
 11
140.3902946276
 21
98.0987598119
  0
LINE
  5
244
100
AcDbEntity
  8
0
100
AcDbLine
 62
7
  6
CONTINUOUS
 10
137.9902946276
 20
100.8987598119
 11
140.7902946276
 21
98.0987598119
  0
LINE
  5
245
100
AcDbEntity
  8
0
100
AcDbLine
 62
7
  6
CONTINUOUS
 10
137.9902946276
 20
101.2987598119
 11
141.1902946276
 21
98.0987598119
  0
LINE
  5
246
100
AcDbEntity
  8
0
100
AcDbLine
 62
7
  6
CONTINUOUS
 10
137.9902946276
 20
101.6987598119
 11
141.5902946276
 21
98.0987598119
  0
LINE
  5
247
100
AcDbEntity
  8
0
100
AcDbLine
 62
7
  6
CONTINUOUS
 10
137.9902946276
 20
102.0987598119
 11
141.9902946276
 21
98.0987598119
  0
LINE
  5
248
100
AcDbEntity
  8
RACCORDO
100
AcDbLine
 62
7
  6
CONTINUOUS
 10
132.6902946276
 20
91.498637968
 11
132.6902946276
 21
133.5988816558
  0
LINE
  5
249
100
AcDbEntity
  8
ASSI
100
AcDbLine
 62
7
  6
CONTINUOUS
 10
132.6902946276
 20
91.498637968
 11
132.6902946276
 21
133.5988816558
  0
LINE
  5
24A
100
AcDbEntity
  8
0
100
AcDbLine
 62
7
  6
CONTINUOUS
 10
133.1902946276
 20
106.5686282273
 11
133.1902946276
 21
118.5288913965
  0
LINE
  5
24B
100
AcDbEntity
  8
ASSI
100
AcDbLine
 62
7
  6
CONTINUOUS
 10
133.1902946276
 20
106.5686282273
 11
133.1902946276
 21
118.5288913965
  0
LINE
  5
24C
100
AcDbEntity
  8
RACCORDO
100
AcDbLine
 62
7
  6
CONTINUOUS
 10
133.8902946276
 20
92.4987598119
 11
133.8902946276
 21
105.0487598119
  0
LINE
  5
24D
100
AcDbEntity
  8
0
100
AcDbLine
 62
7
  6
CONTINUOUS
 10
133.8902946276
 20
105.0487598119
 11
133.8902946276
 21
120.0487598119
  0
LINE
  5
24E
100
AcDbEntity
  8
RACCORDO
100
AcDbLine
 62
7
  6
CONTINUOUS
 10
133.8902946276
 20
120.0487598119
 11
133.8902946276
 21
132.5987598119
  0
LINE
  5
24F
100
AcDbEntity
  8
ASSI
100
AcDbLine
 62
7
  6
CONTINUOUS
 10
133.8902946276
 20
92.4987598119
 11
133.8902946276
 21
132.5987598119
  0
LINE
  5
250
100
AcDbEntity
  8
RACCORDO
100
AcDbLine
 62
253
  6
CONTINUOUS
 10
134.1902946276
 20
132.8987598119
 11
134.1902946276
 21
92.1987598119
  0
LINE
  5
251
100
AcDbEntity
  8
ASSI
100
AcDbLine
 62
253
  6
CONTINUOUS
 10
134.1902946276
 20
132.8987598119
 11
134.1902946276
 21
92.1987598119
  0
LINE
  5
252
100
AcDbEntity
  8
0
100
AcDbLine
 62
7
  6
CONTINUOUS
 10
149.5902946276
 20
101.6987598119
 11
137.9902946276
 21
101.6987598119
  0
LINE
  5
253
100
AcDbEntity
  8
RACCORDO
100
AcDbLine
 62
253
  6
CONTINUOUS
 10
150.8937929904
 20
102.0523190978
 11
150.6938006058
 21
102.0523190978
  0
LINE
  5
254
100
AcDbEntity
  8
ASSI
100
AcDbLine
 62
253
  6
CONTINUOUS
 10
150.8937929904
 20
102.0523190978
 11
150.6938006058
 21
102.0523190978
  0
LINE
  5
255
100
AcDbEntity
  8
RACCORDO
100
AcDbLine
 62
253
  6
CONTINUOUS
 10
136.6867962648
 20
102.0523190978
 11
136.8867886494
 21
102.0523190978
  0
LINE
  5
256
100
AcDbEntity
  8
ASSI
100
AcDbLine
 62
253
  6
CONTINUOUS
 10
136.6867962648
 20
102.0523190978
 11
136.8867886494
 21
102.0523190978
  0
LINE
  5
257
100
AcDbEntity
  8
0
100
AcDbLine
 62
7
  6
CONTINUOUS
 10
149.5902946276
 20
102.0987598119
 11
137.9902946276
 21
102.0987598119
  0
LINE
  5
258
100
AcDbEntity
  8
0
100
AcDbLine
 62
7
  6
CONTINUOUS
 10
149.5902946276
 20
102.4987598119
 11
137.9902946276
 21
102.4987598119
  0
LINE
  5
259
100
AcDbEntity
  8
0
100
AcDbLine
 62
7
  6
CONTINUOUS
 10
137.9902946276
 20
102.4987598119
 11
142.3902946276
 21
98.0987598119
  0
LINE
  5
25A
100
AcDbEntity
  8
0
100
AcDbLine
 62
7
  6
CONTINUOUS
 10
138.3902946276
 20
102.4987598119
 11
142.7902946276
 21
98.0987598119
  0
LINE
  5
25B
100
AcDbEntity
  8
0
100
AcDbLine
 62
7
  6
CONTINUOUS
 10
138.7902946276
 20
102.4987598119
 11
143.1902946276
 21
98.0987598119
  0
LINE
  5
25C
100
AcDbEntity
  8
0
100
AcDbLine
 62
7
  6
CONTINUOUS
 10
139.1902946276
 20
102.4987598119
 11
143.5902946276
 21
98.0987598119
  0
LINE
  5
25D
100
AcDbEntity
  8
0
100
AcDbLine
 62
7
  6
CONTINUOUS
 10
139.5902946276
 20
102.4987598119
 11
143.9902946276
 21
98.0987598119
  0
LINE
  5
25E
100
AcDbEntity
  8
0
100
AcDbLine
 62
7
  6
CONTINUOUS
 10
139.9902946276
 20
102.4987598119
 11
144.3902946276
 21
98.0987598119
  0
LINE
  5
25F
100
AcDbEntity
  8
0
100
AcDbLine
 62
7
  6
CONTINUOUS
 10
135.8379346276
 20
106.3487598119
 11
135.8379346276
 21
104.7487598119
  0
LINE
  5
260
100
AcDbEntity
  8
ASSI
100
AcDbLine
 62
7
  6
CONTINUOUS
 10
135.8379346276
 20
106.3487598119
 11
135.8379346276
 21
104.7487598119
  0
LINE
  5
261
100
AcDbEntity
  8
RACCORDO
100
AcDbLine
 62
7
  6
CONTINUOUS
 10
138.2902946276
 20
103.3487598119
 11
149.2902946276
 21
103.3487598119
  0
LINE
  5
262
100
AcDbEntity
  8
RACCORDO
100
AcDbLine
 62
7
  6
CONTINUOUS
 10
138.2867353417
 20
103.4522657901
 11
149.2938539135
 21
103.4522657901
  0
LINE
  5
263
100
AcDbEntity
  8
ASSI
100
AcDbLine
 62
7
  6
CONTINUOUS
 10
138.2867353417
 20
103.4522657901
 11
149.2938539135
 21
103.4522657901
  0
LINE
  5
264
100
AcDbEntity
  8
RACCORDO
100
AcDbLine
 62
253
  6
CONTINUOUS
 10
138.2500462478
 20
103.6522375521
 11
149.2938539135
 21
103.6522581747
  0
LINE
  5
265
100
AcDbEntity
  8
ASSI
100
AcDbLine
 62
253
  6
CONTINUOUS
 10
138.2500462478
 20
103.6522375521
 11
149.2938539135
 21
103.6522581747
  0
LWPOLYLINE
  5
266
100
AcDbEntity
  8
RACCORDO
100
AcDbPolyline
 62
253
  6
CONTINUOUS
 90
42
 70
0
 10
149.2938539135
 20
103.6522581747
 10
149.3342467795
 20
103.6520983745
 10
149.3770091329
 20
103.6503812707
 10
149.4221409737
 20
103.6471068633
 10
149.4697436769
 20
103.6424953525
 10
149.5197158674
 20
103.6363265382
 10
149.5717534207
 20
103.6279398198
 10
149.6260712916
 20
103.6172745304
 10
149.6824545253
 20
103.604391337
 10
149.7399541327
 20
103.5888116406
 10
149.7985488158
 20
103.5704708311
 10
149.8582598727
 20
103.5494335186
 10
149.9182022086
 20
103.5254149348
 10
149.9783889188
 20
103.4983263746
 10
150.0388069081
 20
103.4682565431
 10
150.098531796
 20
103.4351867873
 10
150.1575415453
 20
103.399025465
 10
150.2158581932
 20
103.3598642185
 10
150.272623471
 20
103.3179593214
 10
150.3277874767
 20
103.2732275552
 10
150.3814001124
 20
103.2257521385
 10
150.4327528147
 20
103.1760390012
 10
150.4817821231
 20
103.1240084839
 10
150.5285514982
 20
103.0697402459
 10
150.572542759
 20
103.0139791944
 10
150.6136691764
 20
102.9566670124
 10
150.6520174797
 20
102.8978620169
 10
150.6873296757
 20
102.8384840662
 10
150.7195048458
 20
102.7785118729
 10
150.7486439086
 20
102.7179667242
 10
150.7747916277
 20
102.6578323401
 10
150.7978537742
 20
102.598121736
 10
150.8179245769
 20
102.5388218963
 10
150.8353314851
 20
102.480877494
 10
150.8500025198
 20
102.4243235922
 10
150.86200966
 20
102.3691251278
 10
150.8718962925
 20
102.3161215844
 10
150.8796205538
 20
102.265354032
 10
150.8852243074
 20
102.2167814006
 10
150.8893765301
 20
102.1711199641
 10
150.8923002143
 20
102.1286084804
 10
150.8937723678
 20
102.0890081917
  0
LWPOLYLINE
  5
267
100
AcDbEntity
  8
ASSI
100
AcDbPolyline
 62
253
  6
CONTINUOUS
 90
42
 70
0
 10
149.2938539135
 20
103.6522581747
 10
149.3342467795
 20
103.6520983745
 10
149.3770091329
 20
103.6503812707
 10
149.4221409737
 20
103.6471068633
 10
149.4697436769
 20
103.6424953525
 10
149.5197158674
 20
103.6363265382
 10
149.5717534207
 20
103.6279398198
 10
149.6260712916
 20
103.6172745304
 10
149.6824545253
 20
103.604391337
 10
149.7399541327
 20
103.5888116406
 10
149.7985488158
 20
103.5704708311
 10
149.8582598727
 20
103.5494335186
 10
149.9182022086
 20
103.5254149348
 10
149.9783889188
 20
103.4983263746
 10
150.0388069081
 20
103.4682565431
 10
150.098531796
 20
103.4351867873
 10
150.1575415453
 20
103.399025465
 10
150.2158581932
 20
103.3598642185
 10
150.272623471
 20
103.3179593214
 10
150.3277874767
 20
103.2732275552
 10
150.3814001124
 20
103.2257521385
 10
150.4327528147
 20
103.1760390012
 10
150.4817821231
 20
103.1240084839
 10
150.5285514982
 20
103.0697402459
 10
150.572542759
 20
103.0139791944
 10
150.6136691764
 20
102.9566670124
 10
150.6520174797
 20
102.8978620169
 10
150.6873296757
 20
102.8384840662
 10
150.7195048458
 20
102.7785118729
 10
150.7486439086
 20
102.7179667242
 10
150.7747916277
 20
102.6578323401
 10
150.7978537742
 20
102.598121736
 10
150.8179245769
 20
102.5388218963
 10
150.8353314851
 20
102.480877494
 10
150.8500025198
 20
102.4243235922
 10
150.86200966
 20
102.3691251278
 10
150.8718962925
 20
102.3161215844
 10
150.8796205538
 20
102.265354032
 10
150.8852243074
 20
102.2167814006
 10
150.8893765301
 20
102.1711199641
 10
150.8923002143
 20
102.1286084804
 10
150.8937723678
 20
102.0890081917
  0
LWPOLYLINE
  5
268
100
AcDbEntity
  8
RACCORDO
100
AcDbPolyline
 62
253
  6
CONTINUOUS
 90
43
 70
0
 10
149.2938539135
 20
103.4522657901
 10
149.3291249513
 20
103.4518218556
 10
149.3665553493
 20
103.4503777408
 10
149.4061114198
 20
103.4477593193
 10
149.4477677707
 20
103.4437815478
 10
149.4914496163
 20
103.4382540179
 10
149.5370320889
 20
103.4309875478
 10
149.5845841401
 20
103.4217500735
 10
149.6338529686
 20
103.4103578246
 10
149.6842209549
 20
103.3967466671
 10
149.735530485
 20
103.3807757973
 10
149.7876925729
 20
103.3622818473
 10
149.8402000012
 20
103.3412677032
 10
149.8929178024
 20
103.3176287124
 10
149.9456891634
 20
103.291270304
 10
149.997996644
 20
103.262308891
 10
150.0496932417
 20
103.2307086063
 10
150.1006297354
 20
103.1964388495
 10
150.1503293192
 20
103.1597254957
 10
150.1986610814
 20
103.1206001081
 10
150.2454993675
 20
103.0790965969
 10
150.290438954
 20
103.0355380844
 10
150.3333968462
 20
102.9900031709
 10
150.3742788204
 20
102.9425898465
 10
150.4127468263
 20
102.8937329069
 10
150.4487745352
 20
102.8435554321
 10
150.4823309142
 20
102.7921951345
 10
150.513174433
 20
102.7401772578
 10
150.5413454191
 20
102.6876561956
 10
150.5668910378
 20
102.6347805748
 10
150.589692798
 20
102.5821143714
 10
150.6098613251
 20
102.5298150697
 10
150.6275152796
 20
102.4780204697
 10
150.642656594
 20
102.427288695
 10
150.6554558134
 20
102.377753955
 10
150.6660856491
 20
102.3295274445
 10
150.6746452991
 20
102.283136608
 10
150.6813446592
 20
102.238674823
 10
150.6863873171
 20
102.196219826
 10
150.6899375961
 20
102.1562667834
 10
150.6922119381
 20
102.1190128831
 10
150.6934344435
 20
102.0843541967
 10
150.6938006058
 20
102.0523190978
  0
LWPOLYLINE
  5
269
100
AcDbEntity
  8
ASSI
100
AcDbPolyline
 62
253
  6
CONTINUOUS
 90
43
 70
0
 10
149.2938539135
 20
103.4522657901
 10
149.3291249513
 20
103.4518218556
 10
149.3665553493
 20
103.4503777408
 10
149.4061114198
 20
103.4477593193
 10
149.4477677707
 20
103.4437815478
 10
149.4914496163
 20
103.4382540179
 10
149.5370320889
 20
103.4309875478
 10
149.5845841401
 20
103.4217500735
 10
149.6338529686
 20
103.4103578246
 10
149.6842209549
 20
103.3967466671
 10
149.735530485
 20
103.3807757973
 10
149.7876925729
 20
103.3622818473
 10
149.8402000012
 20
103.3412677032
 10
149.8929178024
 20
103.3176287124
 10
149.9456891634
 20
103.291270304
 10
149.997996644
 20
103.262308891
 10
150.0496932417
 20
103.2307086063
 10
150.1006297354
 20
103.1964388495
 10
150.1503293192
 20
103.1597254957
 10
150.1986610814
 20
103.1206001081
 10
150.2454993675
 20
103.0790965969
 10
150.290438954
 20
103.0355380844
 10
150.3333968462
 20
102.9900031709
 10
150.3742788204
 20
102.9425898465
 10
150.4127468263
 20
102.8937329069
 10
150.4487745352
 20
102.8435554321
 10
150.4823309142
 20
102.7921951345
 10
150.513174433
 20
102.7401772578
 10
150.5413454191
 20
102.6876561956
 10
150.5668910378
 20
102.6347805748
 10
150.589692798
 20
102.5821143714
 10
150.6098613251
 20
102.5298150697
 10
150.6275152796
 20
102.4780204697
 10
150.642656594
 20
102.427288695
 10
150.6554558134
 20
102.377753955
 10
150.6660856491
 20
102.3295274445
 10
150.6746452991
 20
102.283136608
 10
150.6813446592
 20
102.238674823
 10
150.6863873171
 20
102.196219826
 10
150.6899375961
 20
102.1562667834
 10
150.6922119381
 20
102.1190128831
 10
150.6934344435
 20
102.0843541967
 10
150.6938006058
 20
102.0523190978
  0
LINE
  5
26A
100
AcDbEntity
  8
0
100
AcDbLine
 62
7
  6
CONTINUOUS
 10
140.3902946276
 20
102.4987598119
 11
144.7902946276
 21
98.0987598119
  0
LINE
  5
26B
100
AcDbEntity
  8
0
100
AcDbLine
 62
7
  6
CONTINUOUS
 10
140.7902946276
 20
102.4987598119
 11
145.1902946276
 21
98.0987598119
  0
LINE
  5
26C
100
AcDbEntity
  8
0
100
AcDbLine
 62
7
  6
CONTINUOUS
 10
141.1902946276
 20
102.4987598119
 11
145.5902946276
 21
98.0987598119
  0
LINE
  5
26D
100
AcDbEntity
  8
0
100
AcDbLine
 62
7
  6
CONTINUOUS
 10
141.5902946276
 20
102.4987598119
 11
145.9902946276
 21
98.0987598119
  0
LINE
  5
26E
100
AcDbEntity
  8
0
100
AcDbLine
 62
7
  6
CONTINUOUS
 10
141.9902946276
 20
102.4987598119
 11
146.3902946276
 21
98.0987598119
  0
LINE
  5
26F
100
AcDbEntity
  8
0
100
AcDbLine
 62
7
  6
CONTINUOUS
 10
142.3902946276
 20
102.4987598119
 11
146.7902946276
 21
98.0987598119
  0
LINE
  5
270
100
AcDbEntity
  8
0
100
AcDbLine
 62
7
  6
CONTINUOUS
 10
136.6067406276
 20
104.9895308119
 11
136.1476976276
 21
106.3487598119
  0
LINE
  5
271
100
AcDbEntity
  8
ASSI
100
AcDbLine
 62
7
  6
CONTINUOUS
 10
136.6067406276
 20
104.9895308119
 11
136.1476976276
 21
106.3487598119
  0
LINE
  5
272
100
AcDbEntity
  8
0
100
AcDbLine
 62
7
  6
CONTINUOUS
 10
136.0473966276
 20
106.0903528119
 11
136.4975736276
 21
104.7487598119
  0
LINE
  5
273
100
AcDbEntity
  8
ASSI
100
AcDbLine
 62
7
  6
CONTINUOUS
 10
136.0473966276
 20
106.0903528119
 11
136.4975736276
 21
104.7487598119
  0
LINE
  5
274
100
AcDbEntity
  8
0
100
AcDbLine
 62
7
  6
CONTINUOUS
 10
136.0473966276
 20
104.7487598119
 11
136.0473966276
 21
106.0903528119
  0
LINE
  5
275
100
AcDbEntity
  8
ASSI
100
AcDbLine
 62
7
  6
CONTINUOUS
 10
136.0473966276
 20
104.7487598119
 11
136.0473966276
 21
106.0903528119
  0
LINE
  5
276
100
AcDbEntity
  8
RACCORDO
100
AcDbLine
 62
253
  6
CONTINUOUS
 10
136.6868168874
 20
98.5085114321
 11
136.6867962648
 21
102.0523190978
  0
LINE
  5
277
100
AcDbEntity
  8
ASSI
100
AcDbLine
 62
253
  6
CONTINUOUS
 10
136.6868168874
 20
98.5085114321
 11
136.6867962648
 21
102.0523190978
  0
LINE
  5
278
100
AcDbEntity
  8
0
100
AcDbLine
 62
7
  6
CONTINUOUS
 10
136.7902946276
 20
132.8987598119
 11
136.7902946276
 21
132.4987598119
  0
LINE
  5
279
100
AcDbEntity
  8
ASSI
100
AcDbLine
 62
7
  6
CONTINUOUS
 10
136.7902946276
 20
132.8987598119
 11
136.7902946276
 21
132.4987598119
  0
LINE
  5
27A
100
AcDbEntity
  8
0
100
AcDbLine
 62
7
  6
CONTINUOUS
 10
136.7902946276
 20
92.1987598119
 11
136.7902946276
 21
92.5987598119
  0
LINE
  5
27B
100
AcDbEntity
  8
ASSI
100
AcDbLine
 62
7
  6
CONTINUOUS
 10
136.7902946276
 20
92.1987598119
 11
136.7902946276
 21
92.5987598119
  0
LINE
  5
27C
100
AcDbEntity
  8
RACCORDO
100
AcDbLine
 62
7
  6
CONTINUOUS
 10
136.8867886494
 20
98.545200526
 11
136.8867886494
 21
102.0523190978
  0
LINE
  5
27D
100
AcDbEntity
  8
ASSI
100
AcDbLine
 62
7
  6
CONTINUOUS
 10
136.8867886494
 20
98.545200526
 11
136.8867886494
 21
102.0523190978
  0
LINE
  5
27E
100
AcDbEntity
  8
RACCORDO
100
AcDbLine
 62
7
  6
CONTINUOUS
 10
136.9902946276
 20
98.5487598119
 11
136.9902946276
 21
102.0487598119
  0
LINE
  5
27F
100
AcDbEntity
  8
0
100
AcDbLine
 62
7
  6
CONTINUOUS
 10
137.1616016276
 20
106.0925528119
 11
137.1616016276
 21
104.7487598119
  0
LINE
  5
280
100
AcDbEntity
  8
ASSI
100
AcDbLine
 62
7
  6
CONTINUOUS
 10
137.1616016276
 20
106.0925528119
 11
137.1616016276
 21
104.7487598119
  0
LINE
  5
281
100
AcDbEntity
  8
0
100
AcDbLine
 62
7
  6
CONTINUOUS
 10
137.3711476276
 20
104.7487598119
 11
137.3711476276
 21
106.3487598119
  0
LINE
  5
282
100
AcDbEntity
  8
ASSI
100
AcDbLine
 62
7
  6
CONTINUOUS
 10
137.3711476276
 20
104.7487598119
 11
137.3711476276
 21
106.3487598119
  0
LINE
  5
283
100
AcDbEntity
  8
0
100
AcDbLine
 62
7
  6
CONTINUOUS
 10
137.3902946276
 20
132.8987598119
 11
137.3902946276
 21
132.4987598119
  0
LINE
  5
284
100
AcDbEntity
  8
ASSI
100
AcDbLine
 62
7
  6
CONTINUOUS
 10
137.3902946276
 20
132.8987598119
 11
137.3902946276
 21
132.4987598119
  0
LINE
  5
285
100
AcDbEntity
  8
0
100
AcDbLine
 62
7
  6
CONTINUOUS
 10
137.3902946276
 20
92.1987598119
 11
137.3902946276
 21
92.5987598119
  0
LINE
  5
286
100
AcDbEntity
  8
ASSI
100
AcDbLine
 62
7
  6
CONTINUOUS
 10
137.3902946276
 20
92.1987598119
 11
137.3902946276
 21
92.5987598119
  0
LWPOLYLINE
  5
287
100
AcDbEntity
  8
RACCORDO
100
AcDbPolyline
 62
253
  6
CONTINUOUS
 90
42
 70
0
 10
136.6867962648
 20
102.0523190978
 10
136.686956065
 20
102.0927119638
 10
136.6886731688
 20
102.1354743172
 10
136.6919475762
 20
102.1806061581
 10
136.6965590869
 20
102.2282088612
 10
136.7027279013
 20
102.2781810517
 10
136.7111146196
 20
102.3302186051
 10
136.7217799091
 20
102.3845364759
 10
136.7346631025
 20
102.4409197096
 10
136.7502427988
 20
102.498419317
 10
136.7685836084
 20
102.5570140001
 10
136.7896209209
 20
102.616725057
 10
136.8136395046
 20
102.6766673929
 10
136.8407280648
 20
102.7368541031
 10
136.8707978964
 20
102.7972720924
 10
136.9038676521
 20
102.8569969803
 10
136.9400289744
 20
102.9160067296
 10
136.979190221
 20
102.9743233775
 10
137.0210951181
 20
103.0310886553
 10
137.0658268843
 20
103.0862526611
 10
137.1133023009
 20
103.1398652967
 10
137.1630154383
 20
103.1912179991
 10
137.2150459556
 20
103.2402473074
 10
137.2693141936
 20
103.2870166825
 10
137.3250752451
 20
103.3310079434
 10
137.3823874271
 20
103.3721343608
 10
137.4411924225
 20
103.410482664
 10
137.5005703733
 20
103.44579486
 10
137.5605425666
 20
103.4779700301
 10
137.6210877152
 20
103.5071090929
 10
137.6812220994
 20
103.533256812
 10
137.7409327035
 20
103.5563189585
 10
137.8002325432
 20
103.5763897612
 10
137.8581769455
 20
103.5937966694
 10
137.9147308473
 20
103.6084677041
 10
137.9699293117
 20
103.6204748444
 10
138.0229328551
 20
103.6303614768
 10
138.0737004075
 20
103.6380857381
 10
138.1222730389
 20
103.6436894917
 10
138.1679344754
 20
103.6478417144
 10
138.210445959
 20
103.6507653987
 10
138.2500462478
 20
103.6522375521
  0
LWPOLYLINE
  5
288
100
AcDbEntity
  8
ASSI
100
AcDbPolyline
 62
253
  6
CONTINUOUS
 90
42
 70
0
 10
136.6867962648
 20
102.0523190978
 10
136.686956065
 20
102.0927119638
 10
136.6886731688
 20
102.1354743172
 10
136.6919475762
 20
102.1806061581
 10
136.6965590869
 20
102.2282088612
 10
136.7027279013
 20
102.2781810517
 10
136.7111146196
 20
102.3302186051
 10
136.7217799091
 20
102.3845364759
 10
136.7346631025
 20
102.4409197096
 10
136.7502427988
 20
102.498419317
 10
136.7685836084
 20
102.5570140001
 10
136.7896209209
 20
102.616725057
 10
136.8136395046
 20
102.6766673929
 10
136.8407280648
 20
102.7368541031
 10
136.8707978964
 20
102.7972720924
 10
136.9038676521
 20
102.8569969803
 10
136.9400289744
 20
102.9160067296
 10
136.979190221
 20
102.9743233775
 10
137.0210951181
 20
103.0310886553
 10
137.0658268843
 20
103.0862526611
 10
137.1133023009
 20
103.1398652967
 10
137.1630154383
 20
103.1912179991
 10
137.2150459556
 20
103.2402473074
 10
137.2693141936
 20
103.2870166825
 10
137.3250752451
 20
103.3310079434
 10
137.3823874271
 20
103.3721343608
 10
137.4411924225
 20
103.410482664
 10
137.5005703733
 20
103.44579486
 10
137.5605425666
 20
103.4779700301
 10
137.6210877152
 20
103.5071090929
 10
137.6812220994
 20
103.533256812
 10
137.7409327035
 20
103.5563189585
 10
137.8002325432
 20
103.5763897612
 10
137.8581769455
 20
103.5937966694
 10
137.9147308473
 20
103.6084677041
 10
137.9699293117
 20
103.6204748444
 10
138.0229328551
 20
103.6303614768
 10
138.0737004075
 20
103.6380857381
 10
138.1222730389
 20
103.6436894917
 10
138.1679344754
 20
103.6478417144
 10
138.210445959
 20
103.6507653987
 10
138.2500462478
 20
103.6522375521
  0
LWPOLYLINE
  5
289
100
AcDbEntity
  8
RACCORDO
100
AcDbPolyline
 62
253
  6
CONTINUOUS
 90
43
 70
0
 10
136.8867886494
 20
102.0523190978
 10
136.8872325838
 20
102.0875901357
 10
136.8886766986
 20
102.1250205337
 10
136.8912951202
 20
102.1645766041
 10
136.8952728917
 20
102.206232955
 10
136.9008004216
 20
102.2499148006
 10
136.9080668917
 20
102.2954972732
 10
136.917304366
 20
102.3430493244
 10
136.9286966149
 20
102.392318153
 10
136.9423077724
 20
102.4426861392
 10
136.9582786422
 20
102.4939956694
 10
136.9767725921
 20
102.5461577572
 10
136.9977867363
 20
102.5986651855
 10
137.0214257271
 20
102.6513829867
 10
137.0477841355
 20
102.7041543477
 10
137.0767455485
 20
102.7564618283
 10
137.1083458332
 20
102.808158426
 10
137.14261559
 20
102.8590949197
 10
137.1793289438
 20
102.9087945035
 10
137.2184543314
 20
102.9571262657
 10
137.2599578426
 20
103.0039645518
 10
137.303516355
 20
103.0489041383
 10
137.3490512685
 20
103.0918620305
 10
137.3964645929
 20
103.1327440047
 10
137.4453215326
 20
103.1712120106
 10
137.4954990074
 20
103.2072397196
 10
137.546859305
 20
103.2407960985
 10
137.5988771817
 20
103.2716396174
 10
137.6513982439
 20
103.2998106034
 10
137.7042738647
 20
103.3253562221
 10
137.7569400681
 20
103.3481579823
 10
137.8092393698
 20
103.3683265094
 10
137.8610339698
 20
103.3859804639
 10
137.9117657445
 20
103.4011217783
 10
137.9613004845
 20
103.4139209977
 10
138.009526995
 20
103.4245508334
 10
138.0559178315
 20
103.4331104835
 10
138.1003796164
 20
103.4398098435
 10
138.1428346135
 20
103.4448525014
 10
138.1827876561
 20
103.4484027804
 10
138.2200415563
 20
103.4506771224
 10
138.2547002428
 20
103.4518996278
 10
138.2867353417
 20
103.4522657901
  0
LWPOLYLINE
  5
28A
100
AcDbEntity
  8
ASSI
100
AcDbPolyline
 62
253
  6
CONTINUOUS
 90
43
 70
0
 10
136.8867886494
 20
102.0523190978
 10
136.8872325838
 20
102.0875901357
 10
136.8886766986
 20
102.1250205337
 10
136.8912951202
 20
102.1645766041
 10
136.8952728917
 20
102.206232955
 10
136.9008004216
 20
102.2499148006
 10
136.9080668917
 20
102.2954972732
 10
136.917304366
 20
102.3430493244
 10
136.9286966149
 20
102.392318153
 10
136.9423077724
 20
102.4426861392
 10
136.9582786422
 20
102.4939956694
 10
136.9767725921
 20
102.5461577572
 10
136.9977867363
 20
102.5986651855
 10
137.0214257271
 20
102.6513829867
 10
137.0477841355
 20
102.7041543477
 10
137.0767455485
 20
102.7564618283
 10
137.1083458332
 20
102.808158426
 10
137.14261559
 20
102.8590949197
 10
137.1793289438
 20
102.9087945035
 10
137.2184543314
 20
102.9571262657
 10
137.2599578426
 20
103.0039645518
 10
137.303516355
 20
103.0489041383
 10
137.3490512685
 20
103.0918620305
 10
137.3964645929
 20
103.1327440047
 10
137.4453215326
 20
103.1712120106
 10
137.4954990074
 20
103.2072397196
 10
137.546859305
 20
103.2407960985
 10
137.5988771817
 20
103.2716396174
 10
137.6513982439
 20
103.2998106034
 10
137.7042738647
 20
103.3253562221
 10
137.7569400681
 20
103.3481579823
 10
137.8092393698
 20
103.3683265094
 10
137.8610339698
 20
103.3859804639
 10
137.9117657445
 20
103.4011217783
 10
137.9613004845
 20
103.4139209977
 10
138.009526995
 20
103.4245508334
 10
138.0559178315
 20
103.4331104835
 10
138.1003796164
 20
103.4398098435
 10
138.1428346135
 20
103.4448525014
 10
138.1827876561
 20
103.4484027804
 10
138.2200415563
 20
103.4506771224
 10
138.2547002428
 20
103.4518996278
 10
138.2867353417
 20
103.4522657901
  0
LINE
  5
28B
100
AcDbEntity
  8
RACCORDO
100
AcDbLine
 62
7
  6
CONTINUOUS
 10
138.4020987457
 20
131.8069654919
 11
138.412570987
 21
131.9756144935
  0
LINE
  5
28C
100
AcDbEntity
  8
ASSI
100
AcDbLine
 62
7
  6
CONTINUOUS
 10
138.4020987457
 20
131.8069654919
 11
138.412570987
 21
131.9756144935
  0
LWPOLYLINE
  5
28D
100
AcDbEntity
  8
0
100
AcDbPolyline
 62
7
  6
CONTINUOUS
 90
19
 70
0
 10
139.846936245
 20
104.7487598119
 10
139.9147132116
 20
104.7520335961
 10
139.9790038207
 20
104.7603747889
 10
140.0398080723
 20
104.7737833905
 10
140.0969965321
 20
104.7922496418
 10
140.1506986344
 20
104.8157833017
 10
140.2013026824
 20
104.8444136469
 10
140.24913516
 20
104.8784195592
 10
140.2938695831
 20
104.9175221567
 10
140.3349148029
 20
104.9609140702
 10
140.3721590738
 20
105.008162197
 10
140.4057141414
 20
105.0596996398
 10
140.435324093
 20
105.1160183381
 10
140.4612905483
 20
105.1775252702
 10
140.4833118876
 20
105.2438134578
 10
140.50022734
 20
105.3141539053
 10
140.5116499817
 20
105.3883036142
 10
140.5179667365
 20
105.4665055831
 10
140.5191776043
 20
105.5487598119
  0
LWPOLYLINE
  5
28E
100
AcDbEntity
  8
ASSI
100
AcDbPolyline
 62
7
  6
CONTINUOUS
 90
19
 70
0
 10
139.846936245
 20
104.7487598119
 10
139.9147132116
 20
104.7520335961
 10
139.9790038207
 20
104.7603747889
 10
140.0398080723
 20
104.7737833905
 10
140.0969965321
 20
104.7922496418
 10
140.1506986344
 20
104.8157833017
 10
140.2013026824
 20
104.8444136469
 10
140.24913516
 20
104.8784195592
 10
140.2938695831
 20
104.9175221567
 10
140.3349148029
 20
104.9609140702
 10
140.3721590738
 20
105.008162197
 10
140.4057141414
 20
105.0596996398
 10
140.435324093
 20
105.1160183381
 10
140.4612905483
 20
105.1775252702
 10
140.4833118876
 20
105.2438134578
 10
140.50022734
 20
105.3141539053
 10
140.5116499817
 20
105.3883036142
 10
140.5179667365
 20
105.4665055831
 10
140.5191776043
 20
105.5487598119
  0
LINE
  5
28F
100
AcDbEntity
  8
0
100
AcDbLine
 62
7
  6
CONTINUOUS
 10
135.8379346276
 20
104.7487598119
 11
136.0473966276
 21
104.7487598119
  0
LINE
  5
290
100
AcDbEntity
  8
ASSI
100
AcDbLine
 62
7
  6
CONTINUOUS
 10
135.8379346276
 20
104.7487598119
 11
136.0473966276
 21
104.7487598119
  0
LINE
  5
291
100
AcDbEntity
  8
0
100
AcDbLine
 62
7
  6
CONTINUOUS
 10
136.4975736276
 20
104.7487598119
 11
136.7115106276
 21
104.7487598119
  0
LINE
  5
292
100
AcDbEntity
  8
ASSI
100
AcDbLine
 62
7
  6
CONTINUOUS
 10
136.4975736276
 20
104.7487598119
 11
136.7115106276
 21
104.7487598119
  0
LINE
  5
293
100
AcDbEntity
  8
0
100
AcDbLine
 62
7
  6
CONTINUOUS
 10
137.1616016276
 20
104.7487598119
 11
137.3711476276
 21
104.7487598119
  0
LINE
  5
294
100
AcDbEntity
  8
ASSI
100
AcDbLine
 62
7
  6
CONTINUOUS
 10
137.1616016276
 20
104.7487598119
 11
137.3711476276
 21
104.7487598119
  0
LINE
  5
295
100
AcDbEntity
  8
0
100
AcDbLine
 62
7
  6
CONTINUOUS
 10
137.5627986276
 20
104.7487598119
 11
137.7856216276
 21
104.7487598119
  0
LINE
  5
296
100
AcDbEntity
  8
ASSI
100
AcDbLine
 62
7
  6
CONTINUOUS
 10
137.5627986276
 20
104.7487598119
 11
137.7856216276
 21
104.7487598119
  0
LINE
  5
297
100
AcDbEntity
  8
0
100
AcDbLine
 62
7
  6
CONTINUOUS
 10
138.7527376276
 20
104.7487598119
 11
138.9889786276
 21
104.7487598119
  0
LINE
  5
298
100
AcDbEntity
  8
ASSI
100
AcDbLine
 62
7
  6
CONTINUOUS
 10
138.7527376276
 20
104.7487598119
 11
138.9889786276
 21
104.7487598119
  0
LINE
  5
299
100
AcDbEntity
  8
0
100
AcDbLine
 62
7
  6
CONTINUOUS
 10
139.1984346276
 20
104.7487598119
 11
139.846936245
 21
104.7487598119
  0
LINE
  5
29A
100
AcDbEntity
  8
ASSI
100
AcDbLine
 62
7
  6
CONTINUOUS
 10
139.1984346276
 20
104.7487598119
 11
139.846936245
 21
104.7487598119
  0
LINE
  5
29B
100
AcDbEntity
  8
0
100
AcDbLine
 62
7
  6
CONTINUOUS
 10
140.8185566276
 20
104.7487598119
 11
141.9996966276
 21
104.7487598119
  0
LINE
  5
29C
100
AcDbEntity
  8
ASSI
100
AcDbLine
 62
7
  6
CONTINUOUS
 10
140.8185566276
 20
104.7487598119
 11
141.9996966276
 21
104.7487598119
  0
LINE
  5
29D
100
AcDbEntity
  8
0
100
AcDbLine
 62
7
  6
CONTINUOUS
 10
142.9356806276
 20
104.7487598119
 11
143.1518256276
 21
104.7487598119
  0
LINE
  5
29E
100
AcDbEntity
  8
ASSI
100
AcDbLine
 62
7
  6
CONTINUOUS
 10
142.9356806276
 20
104.7487598119
 11
143.1518256276
 21
104.7487598119
  0
LINE
  5
29F
100
AcDbEntity
  8
0
100
AcDbLine
 62
7
  6
CONTINUOUS
 10
143.5216956276
 20
104.7487598119
 11
143.7312546276
 21
104.7487598119
  0
LINE
  5
2A0
100
AcDbEntity
  8
ASSI
100
AcDbLine
 62
7
  6
CONTINUOUS
 10
143.5216956276
 20
104.7487598119
 11
143.7312546276
 21
104.7487598119
  0
LINE
  5
2A1
100
AcDbEntity
  8
0
100
AcDbLine
 62
7
  6
CONTINUOUS
 10
144.5491116276
 20
104.7487598119
 11
144.7920036276
 21
104.7487598119
  0
LINE
  5
2A2
100
AcDbEntity
  8
ASSI
100
AcDbLine
 62
7
  6
CONTINUOUS
 10
144.5491116276
 20
104.7487598119
 11
144.7920036276
 21
104.7487598119
  0
LINE
  5
2A3
100
AcDbEntity
  8
0
100
AcDbLine
 62
7
  6
CONTINUOUS
 10
145.7836286276
 20
104.7487598119
 11
145.9998386276
 21
104.7487598119
  0
LINE
  5
2A4
100
AcDbEntity
  8
ASSI
100
AcDbLine
 62
7
  6
CONTINUOUS
 10
145.7836286276
 20
104.7487598119
 11
145.9998386276
 21
104.7487598119
  0
LINE
  5
2A5
100
AcDbEntity
  8
0
100
AcDbLine
 62
7
  6
CONTINUOUS
 10
146.7731316276
 20
104.7487598119
 11
146.9892636276
 21
104.7487598119
  0
LINE
  5
2A6
100
AcDbEntity
  8
ASSI
100
AcDbLine
 62
7
  6
CONTINUOUS
 10
146.7731316276
 20
104.7487598119
 11
146.9892636276
 21
104.7487598119
  0
LINE
  5
2A7
100
AcDbEntity
  8
0
100
AcDbLine
 62
7
  6
CONTINUOUS
 10
147.5931876276
 20
104.7487598119
 11
147.8159976276
 21
104.7487598119
  0
LINE
  5
2A8
100
AcDbEntity
  8
ASSI
100
AcDbLine
 62
7
  6
CONTINUOUS
 10
147.5931876276
 20
104.7487598119
 11
147.8159976276
 21
104.7487598119
  0
LINE
  5
2A9
100
AcDbEntity
  8
0
100
AcDbLine
 62
7
  6
CONTINUOUS
 10
148.7832046276
 20
104.7487598119
 11
149.0194846276
 21
104.7487598119
  0
LINE
  5
2AA
100
AcDbEntity
  8
ASSI
100
AcDbLine
 62
7
  6
CONTINUOUS
 10
148.7832046276
 20
104.7487598119
 11
149.0194846276
 21
104.7487598119
  0
LINE
  5
2AB
100
AcDbEntity
  8
0
100
AcDbLine
 62
7
  6
CONTINUOUS
 10
149.2177216276
 20
104.7487598119
 11
150.2451376276
 21
104.7487598119
  0
LINE
  5
2AC
100
AcDbEntity
  8
ASSI
100
AcDbLine
 62
7
  6
CONTINUOUS
 10
149.2177216276
 20
104.7487598119
 11
150.2451376276
 21
104.7487598119
  0
LINE
  5
2AD
100
AcDbEntity
  8
0
100
AcDbLine
 62
7
  6
CONTINUOUS
 10
150.9225336276
 20
104.7487598119
 11
151.1386276276
 21
104.7487598119
  0
LINE
  5
2AE
100
AcDbEntity
  8
ASSI
100
AcDbLine
 62
7
  6
CONTINUOUS
 10
150.9225336276
 20
104.7487598119
 11
151.1386276276
 21
104.7487598119
  0
LINE
  5
2AF
100
AcDbEntity
  8
0
100
AcDbLine
 62
7
  6
CONTINUOUS
 10
139.8414353301
 20
104.9336688119
 11
139.4146576276
 21
104.9336688119
  0
LINE
  5
2B0
100
AcDbEntity
  8
ASSI
100
AcDbLine
 62
7
  6
CONTINUOUS
 10
139.8414353301
 20
104.9336688119
 11
139.4146576276
 21
104.9336688119
  0
LINE
  5
2B1
100
AcDbEntity
  8
0
100
AcDbLine
 62
7
  6
CONTINUOUS
 10
150.2451376276
 20
104.9403978119
 11
149.4339446276
 21
104.9403978119
  0
LINE
  5
2B2
100
AcDbEntity
  8
ASSI
100
AcDbLine
 62
7
  6
CONTINUOUS
 10
150.2451376276
 20
104.9403978119
 11
149.4339446276
 21
104.9403978119
  0
LINE
  5
2B3
100
AcDbEntity
  8
0
100
AcDbLine
 62
7
  6
CONTINUOUS
 10
141.9996966276
 20
104.9403978119
 11
141.0347666276
 21
104.9403978119
  0
LINE
  5
2B4
100
AcDbEntity
  8
ASSI
100
AcDbLine
 62
7
  6
CONTINUOUS
 10
141.9996966276
 20
104.9403978119
 11
141.0347666276
 21
104.9403978119
  0
LINE
  5
2B5
100
AcDbEntity
  8
0
100
AcDbLine
 62
7
  6
CONTINUOUS
 10
137.9527766276
 20
105.2144618119
 11
138.5945366276
 21
105.2144618119
  0
LINE
  5
2B6
100
AcDbEntity
  8
ASSI
100
AcDbLine
 62
7
  6
CONTINUOUS
 10
137.9527766276
 20
105.2144618119
 11
138.5945366276
 21
105.2144618119
  0
LINE
  5
2B7
100
AcDbEntity
  8
0
100
AcDbLine
 62
7
  6
CONTINUOUS
 10
147.9831656276
 20
105.2144618119
 11
148.6249906276
 21
105.2144618119
  0
LINE
  5
2B8
100
AcDbEntity
  8
ASSI
100
AcDbLine
 62
7
  6
CONTINUOUS
 10
147.9831656276
 20
105.2144618119
 11
148.6249906276
 21
105.2144618119
  0
LINE
  5
2B9
100
AcDbEntity
  8
0
100
AcDbLine
 62
7
  6
CONTINUOUS
 10
148.5469766276
 20
105.4060988119
 11
148.0500256276
 21
105.4060988119
  0
LINE
  5
2BA
100
AcDbEntity
  8
ASSI
100
AcDbLine
 62
7
  6
CONTINUOUS
 10
148.5469766276
 20
105.4060988119
 11
148.0500256276
 21
105.4060988119
  0
LINE
  5
2BB
100
AcDbEntity
  8
0
100
AcDbLine
 62
7
  6
CONTINUOUS
 10
138.5166006276
 20
105.4060988119
 11
138.0196496276
 21
105.4060988119
  0
LINE
  5
2BC
100
AcDbEntity
  8
ASSI
100
AcDbLine
 62
7
  6
CONTINUOUS
 10
138.5166006276
 20
105.4060988119
 11
138.0196496276
 21
105.4060988119
  0
LINE
  5
2BD
100
AcDbEntity
  8
0
100
AcDbLine
 62
7
  6
CONTINUOUS
 10
141.0347666276
 20
105.4751978119
 11
141.9105416276
 21
105.4751978119
  0
LINE
  5
2BE
100
AcDbEntity
  8
ASSI
100
AcDbLine
 62
7
  6
CONTINUOUS
 10
141.0347666276
 20
105.4751978119
 11
141.9105416276
 21
105.4751978119
  0
LINE
  5
2BF
100
AcDbEntity
  8
0
100
AcDbLine
 62
7
  6
CONTINUOUS
 10
141.9105416276
 20
105.6668348119
 11
141.0347666276
 21
105.6668348119
  0
LINE
  5
2C0
100
AcDbEntity
  8
ASSI
100
AcDbLine
 62
7
  6
CONTINUOUS
 10
141.9105416276
 20
105.6668348119
 11
141.0347666276
 21
105.6668348119
  0
LINE
  5
2C1
100
AcDbEntity
  8
0
100
AcDbLine
 62
7
  6
CONTINUOUS
 10
141.0347666276
 20
106.1571218119
 11
141.9840786276
 21
106.1571218119
  0
LINE
  5
2C2
100
AcDbEntity
  8
ASSI
100
AcDbLine
 62
7
  6
CONTINUOUS
 10
141.0347666276
 20
106.1571218119
 11
141.9840786276
 21
106.1571218119
  0
LINE
  5
2C3
100
AcDbEntity
  8
0
100
AcDbLine
 62
7
  6
CONTINUOUS
 10
146.2316026276
 20
106.1571218119
 11
146.7731316276
 21
106.1571218119
  0
LINE
  5
2C4
100
AcDbEntity
  8
ASSI
100
AcDbLine
 62
7
  6
CONTINUOUS
 10
146.2316026276
 20
106.1571218119
 11
146.7731316276
 21
106.1571218119
  0
LINE
  5
2C5
100
AcDbEntity
  8
0
100
AcDbLine
 62
7
  6
CONTINUOUS
 10
146.9892636276
 20
106.1571218119
 11
147.5307926276
 21
106.1571218119
  0
LINE
  5
2C6
100
AcDbEntity
  8
ASSI
100
AcDbLine
 62
7
  6
CONTINUOUS
 10
146.9892636276
 20
106.1571218119
 11
147.5307926276
 21
106.1571218119
  0
LINE
  5
2C7
100
AcDbEntity
  8
0
100
AcDbLine
 62
7
  6
CONTINUOUS
 10
139.4146576276
 20
106.1638508119
 11
139.8414353301
 21
106.1638508119
  0
LINE
  5
2C8
100
AcDbEntity
  8
ASSI
100
AcDbLine
 62
7
  6
CONTINUOUS
 10
139.4146576276
 20
106.1638508119
 11
139.8414353301
 21
106.1638508119
  0
LWPOLYLINE
  5
2C9
100
AcDbEntity
  8
0
100
AcDbPolyline
 62
7
  6
CONTINUOUS
 90
19
 70
0
 10
139.8414353301
 20
106.1638508119
 10
139.888356031
 20
106.1601033704
 10
139.9331689473
 20
106.1523963169
 10
139.9758740789
 20
106.1407296516
 10
140.0166542189
 20
106.1249628162
 10
140.0553265742
 20
106.1052363689
 10
140.0913427655
 20
106.0819719839
 10
140.1246128579
 20
106.0553065301
 10
140.1552267862
 20
106.0251031385
 10
140.1829059752
 20
105.9913728768
 10
140.2076226932
 20
105.9539418074
 10
140.2294046719
 20
105.9129838678
 10
140.24805653
 20
105.8690319381
 10
140.2634048812
 20
105.8220692941
 10
140.2756231119
 20
105.77211266
 10
140.2850360005
 20
105.7197450895
 10
140.2917518064
 20
105.6651609335
 10
140.2956622703
 20
105.608165841
 10
140.2967673921
 20
105.5487598119
  0
LWPOLYLINE
  5
2CA
100
AcDbEntity
  8
ASSI
100
AcDbPolyline
 62
7
  6
CONTINUOUS
 90
19
 70
0
 10
139.8414353301
 20
106.1638508119
 10
139.888356031
 20
106.1601033704
 10
139.9331689473
 20
106.1523963169
 10
139.9758740789
 20
106.1407296516
 10
140.0166542189
 20
106.1249628162
 10
140.0553265742
 20
106.1052363689
 10
140.0913427655
 20
106.0819719839
 10
140.1246128579
 20
106.0553065301
 10
140.1552267862
 20
106.0251031385
 10
140.1829059752
 20
105.9913728768
 10
140.2076226932
 20
105.9539418074
 10
140.2294046719
 20
105.9129838678
 10
140.24805653
 20
105.8690319381
 10
140.2634048812
 20
105.8220692941
 10
140.2756231119
 20
105.77211266
 10
140.2850360005
 20
105.7197450895
 10
140.2917518064
 20
105.6651609335
 10
140.2956622703
 20
105.608165841
 10
140.2967673921
 20
105.5487598119
  0
LINE
  5
2CB
100
AcDbEntity
  8
0
100
AcDbLine
 62
7
  6
CONTINUOUS
 10
142.7902946276
 20
102.4987598119
 11
147.1902946276
 21
98.0987598119
  0
LINE
  5
2CC
100
AcDbEntity
  8
0
100
AcDbLine
 62
7
  6
CONTINUOUS
 10
143.1902946276
 20
102.4987598119
 11
147.5902946276
 21
98.0987598119
  0
LINE
  5
2CD
100
AcDbEntity
  8
0
100
AcDbLine
 62
7
  6
CONTINUOUS
 10
143.5902946276
 20
102.4987598119
 11
147.9902946276
 21
98.0987598119
  0
LINE
  5
2CE
100
AcDbEntity
  8
0
100
AcDbLine
 62
7
  6
CONTINUOUS
 10
143.9902946276
 20
102.4987598119
 11
148.3902946276
 21
98.0987598119
  0
LINE
  5
2CF
100
AcDbEntity
  8
0
100
AcDbLine
 62
7
  6
CONTINUOUS
 10
144.3902946276
 20
102.4987598119
 11
148.7902946276
 21
98.0987598119
  0
LINE
  5
2D0
100
AcDbEntity
  8
0
100
AcDbLine
 62
7
  6
CONTINUOUS
 10
144.7902946276
 20
102.4987598119
 11
149.1902946276
 21
98.0987598119
  0
LINE
  5
2D1
100
AcDbEntity
  8
0
100
AcDbLine
 62
7
  6
CONTINUOUS
 10
138.9889786276
 20
104.7487598119
 11
138.4096146276
 21
106.3487598119
  0
LINE
  5
2D2
100
AcDbEntity
  8
ASSI
100
AcDbLine
 62
7
  6
CONTINUOUS
 10
138.9889786276
 20
104.7487598119
 11
138.4096146276
 21
106.3487598119
  0
LINE
  5
2D3
100
AcDbEntity
  8
0
100
AcDbLine
 62
7
  6
CONTINUOUS
 10
138.5945366276
 20
105.2144618119
 11
138.7527376276
 21
104.7487598119
  0
LINE
  5
2D4
100
AcDbEntity
  8
ASSI
100
AcDbLine
 62
7
  6
CONTINUOUS
 10
138.5945366276
 20
105.2144618119
 11
138.7527376276
 21
104.7487598119
  0
LINE
  5
2D5
100
AcDbEntity
  8
0
100
AcDbLine
 62
7
  6
CONTINUOUS
 10
138.2782246276
 20
106.1166818119
 11
138.5166006276
 21
105.4060988119
  0
LINE
  5
2D6
100
AcDbEntity
  8
ASSI
100
AcDbLine
 62
7
  6
CONTINUOUS
 10
138.2782246276
 20
106.1166818119
 11
138.5166006276
 21
105.4060988119
  0
LINE
  5
2D7
100
AcDbEntity
  8
0
100
AcDbLine
 62
7
  6
CONTINUOUS
 10
137.9902946276
 20
102.4987598119
 11
137.9902946276
 21
98.0987598119
  0
LINE
  5
2D8
100
AcDbEntity
  8
RACCORDO
100
AcDbLine
 62
253
  6
CONTINUOUS
 10
138.2867353417
 20
103.6522581747
 11
138.2867353417
 21
103.4522657901
  0
LINE
  5
2D9
100
AcDbEntity
  8
ASSI
100
AcDbLine
 62
253
  6
CONTINUOUS
 10
138.2867353417
 20
103.6522581747
 11
138.2867353417
 21
103.4522657901
  0
LINE
  5
2DA
100
AcDbEntity
  8
RACCORDO
100
AcDbLine
 62
253
  6
CONTINUOUS
 10
138.2867353417
 20
96.9452614491
 11
138.2867353417
 21
97.1452538337
  0
LINE
  5
2DB
100
AcDbEntity
  8
ASSI
100
AcDbLine
 62
253
  6
CONTINUOUS
 10
138.2867353417
 20
96.9452614491
 11
138.2867353417
 21
97.1452538337
  0
LINE
  5
2DC
100
AcDbEntity
  8
RACCORDO
100
AcDbLine
 62
7
  6
CONTINUOUS
 10
138.3902946276
 20
132.3987598119
 11
138.3902946276
 21
131.4487598119
  0
LINE
  5
2DD
100
AcDbEntity
  8
ASSI
100
AcDbLine
 62
7
  6
CONTINUOUS
 10
138.3902946276
 20
132.3987598119
 11
138.3902946276
 21
131.4487598119
  0
LINE
  5
2DE
100
AcDbEntity
  8
0
100
AcDbLine
 62
7
  6
CONTINUOUS
 10
138.3902946276
 20
98.0987598119
 11
138.3902946276
 21
102.4987598119
  0
LINE
  5
2DF
100
AcDbEntity
  8
RACCORDO
100
AcDbLine
 62
7
  6
CONTINUOUS
 10
138.4020987457
 20
131.4487598119
 11
138.4020987457
 21
131.8069654919
  0
LINE
  5
2E0
100
AcDbEntity
  8
ASSI
100
AcDbLine
 62
7
  6
CONTINUOUS
 10
138.4020987457
 20
131.4487598119
 11
138.4020987457
 21
131.8069654919
  0
LINE
  5
2E1
100
AcDbEntity
  8
RACCORDO
100
AcDbLine
 62
7
  6
CONTINUOUS
 10
138.412570987
 20
131.9756144935
 11
138.412570987
 21
132.8987598119
  0
LINE
  5
2E2
100
AcDbEntity
  8
ASSI
100
AcDbLine
 62
7
  6
CONTINUOUS
 10
138.412570987
 20
131.9756144935
 11
138.412570987
 21
132.8987598119
  0
LINE
  5
2E3
100
AcDbEntity
  8
RACCORDO
100
AcDbLine
 62
253
  6
CONTINUOUS
 10
138.7020873226
 20
131.4487598119
 11
138.7020873226
 21
131.8487598119
  0
LINE
  5
2E4
100
AcDbEntity
  8
ASSI
100
AcDbLine
 62
253
  6
CONTINUOUS
 10
138.7020873226
 20
131.4487598119
 11
138.7020873226
 21
131.8487598119
  0
LINE
  5
2E5
100
AcDbEntity
  8
RACCORDO
100
AcDbLine
 62
253
  6
CONTINUOUS
 10
138.712559564
 20
132.0174088135
 11
138.712559564
 21
132.8987598119
  0
LINE
  5
2E6
100
AcDbEntity
  8
ASSI
100
AcDbLine
 62
253
  6
CONTINUOUS
 10
138.712559564
 20
132.0174088135
 11
138.712559564
 21
132.8987598119
  0
LINE
  5
2E7
100
AcDbEntity
  8
0
100
AcDbLine
 62
7
  6
CONTINUOUS
 10
138.7902946276
 20
98.0987598119
 11
138.7902946276
 21
102.4987598119
  0
LINE
  5
2E8
100
AcDbEntity
  8
RACCORDO
100
AcDbLine
 62
253
  6
CONTINUOUS
 10
138.8680296912
 20
132.8987598119
 11
138.8680296912
 21
132.0174088135
  0
LINE
  5
2E9
100
AcDbEntity
  8
ASSI
100
AcDbLine
 62
253
  6
CONTINUOUS
 10
138.8680296912
 20
132.8987598119
 11
138.8680296912
 21
132.0174088135
  0
LINE
  5
2EA
100
AcDbEntity
  8
RACCORDO
100
AcDbLine
 62
253
  6
CONTINUOUS
 10
138.8785019325
 20
131.8487598119
 11
138.8785019325
 21
131.4487598119
  0
LINE
  5
2EB
100
AcDbEntity
  8
ASSI
100
AcDbLine
 62
253
  6
CONTINUOUS
 10
138.8785019325
 20
131.8487598119
 11
138.8785019325
 21
131.4487598119
  0
LINE
  5
2EC
100
AcDbEntity
  8
0
100
AcDbLine
 62
7
  6
CONTINUOUS
 10
139.0897116276
 20
116.0737598119
 11
139.0897116276
 21
114.0237598119
  0
LINE
  5
2ED
100
AcDbEntity
  8
ASSI
100
AcDbLine
 62
7
  6
CONTINUOUS
 10
139.0897116276
 20
116.0737598119
 11
139.0897116276
 21
114.0237598119
  0
LWPOLYLINE
  5
2EE
100
AcDbEntity
  8
RACCORDO
100
AcDbPolyline
 62
253
  6
CONTINUOUS
 90
28
 70
0
 10
138.8785019325
 20
131.4487598119
 10
138.8778629028
 20
131.4383814336
 10
138.8761104281
 20
131.4283830253
 10
138.8732445085
 20
131.418764587
 10
138.8691977883
 20
131.4094005323
 10
138.8640376231
 20
131.4004164476
 10
138.8579660802
 20
131.3921890923
 10
138.8509448223
 20
131.3847538902
 10
138.8430121865
 20
131.3780754175
 10
138.8344852517
 20
131.3724241619
 10
138.825340641
 20
131.3678432529
 10
138.8156017311
 20
131.3642895611
 10
138.8056557308
 20
131.361904186
 10
138.795493795
 20
131.3607341268
 10
138.7851247689
 20
131.3607323844
 10
138.7749623964
 20
131.3618990606
 10
138.7650154506
 20
131.3642812264
 10
138.7552751585
 20
131.3678318108
 10
138.7461289458
 20
131.3724097021
 10
138.7376003987
 20
131.378057647
 10
138.729665931
 20
131.3847328989
 10
138.7226422104
 20
131.3921661059
 10
138.716567074
 20
131.4003928137
 10
138.7114026846
 20
131.4093774767
 10
138.7073521991
 20
131.4187441068
 10
138.7044833364
 20
131.4283673747
 10
138.7027283776
 20
131.4383726097
 10
138.7020873226
 20
131.4487598119
  0
LWPOLYLINE
  5
2EF
100
AcDbEntity
  8
ASSI
100
AcDbPolyline
 62
253
  6
CONTINUOUS
 90
28
 70
0
 10
138.8785019325
 20
131.4487598119
 10
138.8778629028
 20
131.4383814336
 10
138.8761104281
 20
131.4283830253
 10
138.8732445085
 20
131.418764587
 10
138.8691977883
 20
131.4094005323
 10
138.8640376231
 20
131.4004164476
 10
138.8579660802
 20
131.3921890923
 10
138.8509448223
 20
131.3847538902
 10
138.8430121865
 20
131.3780754175
 10
138.8344852517
 20
131.3724241619
 10
138.825340641
 20
131.3678432529
 10
138.8156017311
 20
131.3642895611
 10
138.8056557308
 20
131.361904186
 10
138.795493795
 20
131.3607341268
 10
138.7851247689
 20
131.3607323844
 10
138.7749623964
 20
131.3618990606
 10
138.7650154506
 20
131.3642812264
 10
138.7552751585
 20
131.3678318108
 10
138.7461289458
 20
131.3724097021
 10
138.7376003987
 20
131.378057647
 10
138.729665931
 20
131.3847328989
 10
138.7226422104
 20
131.3921661059
 10
138.716567074
 20
131.4003928137
 10
138.7114026846
 20
131.4093774767
 10
138.7073521991
 20
131.4187441068
 10
138.7044833364
 20
131.4283673747
 10
138.7027283776
 20
131.4383726097
 10
138.7020873226
 20
131.4487598119
  0
LINE
  5
2F0
100
AcDbEntity
  8
ASSI
100
AcDbLine
 62
7
  6
CONTINUOUS
 10
140.0671006276
 20
121.4988098119
 11
139.5144066276
 21
119.7773468119
  0
LINE
  5
2F1
100
AcDbEntity
  8
ASSI
100
AcDbLine
 62
7
  6
CONTINUOUS
 10
139.7644196276
 20
118.9986968119
 11
140.5671256276
 21
121.4988098119
  0
LINE
  5
2F2
100
AcDbEntity
  8
0
100
AcDbLine
 62
7
  6
CONTINUOUS
 10
151.7426546276
 20
106.3487598119
 11
151.4885186276
 21
106.3487598119
  0
LINE
  5
2F3
100
AcDbEntity
  8
ASSI
100
AcDbLine
 62
7
  6
CONTINUOUS
 10
151.7426546276
 20
106.3487598119
 11
151.4885186276
 21
106.3487598119
  0
LINE
  5
2F4
100
AcDbEntity
  8
0
100
AcDbLine
 62
7
  6
CONTINUOUS
 10
150.5704426276
 20
106.3487598119
 11
150.3186356276
 21
106.3487598119
  0
LINE
  5
2F5
100
AcDbEntity
  8
ASSI
100
AcDbLine
 62
7
  6
CONTINUOUS
 10
150.5704426276
 20
106.3487598119
 11
150.3186356276
 21
106.3487598119
  0
LINE
  5
2F6
100
AcDbEntity
  8
0
100
AcDbLine
 62
7
  6
CONTINUOUS
 10
149.4339446276
 20
106.3487598119
 11
149.2177216276
 21
106.3487598119
  0
LINE
  5
2F7
100
AcDbEntity
  8
ASSI
100
AcDbLine
 62
7
  6
CONTINUOUS
 10
149.4339446276
 20
106.3487598119
 11
149.2177216276
 21
106.3487598119
  0
LINE
  5
2F8
100
AcDbEntity
  8
0
100
AcDbLine
 62
7
  6
CONTINUOUS
 10
148.4400036276
 20
106.3487598119
 11
148.1949116276
 21
106.3487598119
  0
LINE
  5
2F9
100
AcDbEntity
  8
ASSI
100
AcDbLine
 62
7
  6
CONTINUOUS
 10
148.4400036276
 20
106.3487598119
 11
148.1949116276
 21
106.3487598119
  0
LINE
  5
2FA
100
AcDbEntity
  8
0
100
AcDbLine
 62
7
  6
CONTINUOUS
 10
147.5307926276
 20
106.3487598119
 11
146.2316026276
 21
106.3487598119
  0
LINE
  5
2FB
100
AcDbEntity
  8
ASSI
100
AcDbLine
 62
7
  6
CONTINUOUS
 10
147.5307926276
 20
106.3487598119
 11
146.2316026276
 21
106.3487598119
  0
LINE
  5
2FC
100
AcDbEntity
  8
0
100
AcDbLine
 62
7
  6
CONTINUOUS
 10
145.9998386276
 20
106.3487598119
 11
145.7836286276
 21
106.3487598119
  0
LINE
  5
2FD
100
AcDbEntity
  8
ASSI
100
AcDbLine
 62
7
  6
CONTINUOUS
 10
145.9998386276
 20
106.3487598119
 11
145.7836286276
 21
106.3487598119
  0
LINE
  5
2FE
100
AcDbEntity
  8
0
100
AcDbLine
 62
7
  6
CONTINUOUS
 10
144.7920036276
 20
106.3487598119
 11
144.5825476276
 21
106.3487598119
  0
LINE
  5
2FF
100
AcDbEntity
  8
ASSI
100
AcDbLine
 62
7
  6
CONTINUOUS
 10
144.7920036276
 20
106.3487598119
 11
144.5825476276
 21
106.3487598119
  0
LINE
  5
300
100
AcDbEntity
  8
0
100
AcDbLine
 62
7
  6
CONTINUOUS
 10
143.7780196276
 20
106.3487598119
 11
143.5216956276
 21
106.3487598119
  0
LINE
  5
301
100
AcDbEntity
  8
ASSI
100
AcDbLine
 62
7
  6
CONTINUOUS
 10
143.7780196276
 20
106.3487598119
 11
143.5216956276
 21
106.3487598119
  0
LINE
  5
302
100
AcDbEntity
  8
0
100
AcDbLine
 62
7
  6
CONTINUOUS
 10
143.1518256276
 20
106.3487598119
 11
142.9356806276
 21
106.3487598119
  0
LINE
  5
303
100
AcDbEntity
  8
ASSI
100
AcDbLine
 62
7
  6
CONTINUOUS
 10
143.1518256276
 20
106.3487598119
 11
142.9356806276
 21
106.3487598119
  0
LINE
  5
304
100
AcDbEntity
  8
0
100
AcDbLine
 62
7
  6
CONTINUOUS
 10
141.9840786276
 20
106.3487598119
 11
140.8185566276
 21
106.3487598119
  0
LINE
  5
305
100
AcDbEntity
  8
ASSI
100
AcDbLine
 62
7
  6
CONTINUOUS
 10
141.9840786276
 20
106.3487598119
 11
140.8185566276
 21
106.3487598119
  0
LINE
  5
306
100
AcDbEntity
  8
0
100
AcDbLine
 62
7
  6
CONTINUOUS
 10
139.853739083
 20
106.3487598119
 11
139.1984346276
 21
106.3487598119
  0
LINE
  5
307
100
AcDbEntity
  8
ASSI
100
AcDbLine
 62
7
  6
CONTINUOUS
 10
139.853739083
 20
106.3487598119
 11
139.1984346276
 21
106.3487598119
  0
LINE
  5
308
100
AcDbEntity
  8
0
100
AcDbLine
 62
7
  6
CONTINUOUS
 10
138.4096146276
 20
106.3487598119
 11
138.1644456276
 21
106.3487598119
  0
LINE
  5
309
100
AcDbEntity
  8
ASSI
100
AcDbLine
 62
7
  6
CONTINUOUS
 10
138.4096146276
 20
106.3487598119
 11
138.1644456276
 21
106.3487598119
  0
LINE
  5
30A
100
AcDbEntity
  8
0
100
AcDbLine
 62
7
  6
CONTINUOUS
 10
137.3711476276
 20
106.3487598119
 11
137.0635836276
 21
106.3487598119
  0
LINE
  5
30B
100
AcDbEntity
  8
ASSI
100
AcDbLine
 62
7
  6
CONTINUOUS
 10
137.3711476276
 20
106.3487598119
 11
137.0635836276
 21
106.3487598119
  0
LINE
  5
30C
100
AcDbEntity
  8
0
100
AcDbLine
 62
7
  6
CONTINUOUS
 10
136.1476976276
 20
106.3487598119
 11
135.8379346276
 21
106.3487598119
  0
LINE
  5
30D
100
AcDbEntity
  8
ASSI
100
AcDbLine
 62
7
  6
CONTINUOUS
 10
136.1476976276
 20
106.3487598119
 11
135.8379346276
 21
106.3487598119
  0
LINE
  5
30E
100
AcDbEntity
  8
0
100
AcDbLine
 62
7
  6
CONTINUOUS
 10
145.1902946276
 20
102.4987598119
 11
149.5902946276
 21
98.0987598119
  0
LINE
  5
30F
100
AcDbEntity
  8
0
100
AcDbLine
 62
7
  6
CONTINUOUS
 10
145.5902946276
 20
102.4987598119
 11
149.5902946276
 21
98.4987598119
  0
LINE
  5
310
100
AcDbEntity
  8
0
100
AcDbLine
 62
7
  6
CONTINUOUS
 10
145.9902946276
 20
102.4987598119
 11
149.5902946276
 21
98.8987598119
  0
LINE
  5
311
100
AcDbEntity
  8
0
100
AcDbLine
 62
7
  6
CONTINUOUS
 10
146.3902946276
 20
102.4987598119
 11
149.5902946276
 21
99.2987598119
  0
LINE
  5
312
100
AcDbEntity
  8
0
100
AcDbLine
 62
7
  6
CONTINUOUS
 10
146.7902946276
 20
102.4987598119
 11
149.5902946276
 21
99.6987598119
  0
LINE
  5
313
100
AcDbEntity
  8
0
100
AcDbLine
 62
7
  6
CONTINUOUS
 10
147.1902946276
 20
102.4987598119
 11
149.5902946276
 21
100.0987598119
  0
LINE
  5
314
100
AcDbEntity
  8
RACCORDO
100
AcDbLine
 62
7
  6
CONTINUOUS
 10
139.1680182681
 20
131.9756144935
 11
139.1784905095
 21
131.8069654919
  0
LINE
  5
315
100
AcDbEntity
  8
ASSI
100
AcDbLine
 62
7
  6
CONTINUOUS
 10
139.1680182681
 20
131.9756144935
 11
139.1784905095
 21
131.8069654919
  0
LWPOLYLINE
  5
316
100
AcDbEntity
  8
0
100
AcDbPolyline
 62
7
  6
CONTINUOUS
 90
22
 70
0
 10
140.5605774172
 20
115.4434773112
 10
140.5588113585
 20
115.5058827653
 10
140.5529239836
 20
115.5651447076
 10
140.5429152926
 20
115.6212631379
 10
140.5286607329
 20
115.674460589
 10
140.5102848571
 20
115.7245145281
 10
140.4881613229
 20
115.7707573575
 10
140.4624953206
 20
115.8127417813
 10
140.4330816599
 20
115.8509150952
 10
140.3996784275
 20
115.8859515884
 10
140.3622323024
 20
115.9180552891
 10
140.3207966055
 20
115.947022169
 10
140.2752893874
 20
115.9729144317
 10
140.2253265137
 20
115.9957554267
 10
140.1712921186
 20
116.0155218044
 10
140.1142566551
 20
116.0322057203
 10
140.0543592739
 20
116.0455750043
 10
139.9914608243
 20
116.0558618264
 10
139.9262143066
 20
116.0637548517
 10
139.8588373877
 20
116.0694836352
 10
139.7891124006
 20
116.0728186219
 10
139.7170393455
 20
116.0737598119
  0
LWPOLYLINE
  5
317
100
AcDbEntity
  8
ASSI
100
AcDbPolyline
 62
7
  6
CONTINUOUS
 90
22
 70
0
 10
140.5605774172
 20
115.4434773112
 10
140.5588113585
 20
115.5058827653
 10
140.5529239836
 20
115.5651447076
 10
140.5429152926
 20
115.6212631379
 10
140.5286607329
 20
115.674460589
 10
140.5102848571
 20
115.7245145281
 10
140.4881613229
 20
115.7707573575
 10
140.4624953206
 20
115.8127417813
 10
140.4330816599
 20
115.8509150952
 10
140.3996784275
 20
115.8859515884
 10
140.3622323024
 20
115.9180552891
 10
140.3207966055
 20
115.947022169
 10
140.2752893874
 20
115.9729144317
 10
140.2253265137
 20
115.9957554267
 10
140.1712921186
 20
116.0155218044
 10
140.1142566551
 20
116.0322057203
 10
140.0543592739
 20
116.0455750043
 10
139.9914608243
 20
116.0558618264
 10
139.9262143066
 20
116.0637548517
 10
139.8588373877
 20
116.0694836352
 10
139.7891124006
 20
116.0728186219
 10
139.7170393455
 20
116.0737598119
  0
LWPOLYLINE
  5
318
100
AcDbEntity
  8
0
100
AcDbPolyline
 62
7
  6
CONTINUOUS
 90
19
 70
0
 10
140.5191776043
 20
105.5487598119
 10
140.518025726
 20
105.6302310484
 10
140.5118532451
 20
105.7077213555
 10
140.5006601617
 20
105.7812307332
 10
140.4840630688
 20
105.8509832421
 10
140.4624453734
 20
105.9167548215
 10
140.4369572959
 20
105.9778732896
 10
140.4079701016
 20
106.0339313227
 10
140.3751125252
 20
106.0853362444
 10
140.3384209917
 20
106.132637844
 10
140.2976408016
 20
106.1763565418
 10
140.2530266543
 20
106.2159719175
 10
140.2053790742
 20
106.2504724993
 10
140.1551002163
 20
106.2794945583
 10
140.1017879256
 20
106.3034018235
 10
140.0450362609
 20
106.3222740099
 10
139.9847099088
 20
106.3361376893
 10
139.9209441828
 20
106.3449662899
 10
139.853739083
 20
106.3487598119
  0
LWPOLYLINE
  5
319
100
AcDbEntity
  8
ASSI
100
AcDbPolyline
 62
7
  6
CONTINUOUS
 90
19
 70
0
 10
140.5191776043
 20
105.5487598119
 10
140.518025726
 20
105.6302310484
 10
140.5118532451
 20
105.7077213555
 10
140.5006601617
 20
105.7812307332
 10
140.4840630688
 20
105.8509832421
 10
140.4624453734
 20
105.9167548215
 10
140.4369572959
 20
105.9778732896
 10
140.4079701016
 20
106.0339313227
 10
140.3751125252
 20
106.0853362444
 10
140.3384209917
 20
106.132637844
 10
140.2976408016
 20
106.1763565418
 10
140.2530266543
 20
106.2159719175
 10
140.2053790742
 20
106.2504724993
 10
140.1551002163
 20
106.2794945583
 10
140.1017879256
 20
106.3034018235
 10
140.0450362609
 20
106.3222740099
 10
139.9847099088
 20
106.3361376893
 10
139.9209441828
 20
106.3449662899
 10
139.853739083
 20
106.3487598119
  0
LINE
  5
31A
100
AcDbEntity
  8
RACCORDO
100
AcDbLine
 62
7
  6
CONTINUOUS
 10
139.1680182681
 20
132.8987598119
 11
139.1680182681
 21
131.9756144935
  0
LINE
  5
31B
100
AcDbEntity
  8
ASSI
100
AcDbLine
 62
7
  6
CONTINUOUS
 10
139.1680182681
 20
132.8987598119
 11
139.1680182681
 21
131.9756144935
  0
LINE
  5
31C
100
AcDbEntity
  8
RACCORDO
100
AcDbLine
 62
7
  6
CONTINUOUS
 10
139.1784905095
 20
131.8069654919
 11
139.1784905095
 21
131.4487598119
  0
LINE
  5
31D
100
AcDbEntity
  8
ASSI
100
AcDbLine
 62
7
  6
CONTINUOUS
 10
139.1784905095
 20
131.8069654919
 11
139.1784905095
 21
131.4487598119
  0
LINE
  5
31E
100
AcDbEntity
  8
RACCORDO
100
AcDbLine
 62
7
  6
CONTINUOUS
 10
139.1902946276
 20
132.3987598119
 11
139.1902946276
 21
131.4487598119
  0
LINE
  5
31F
100
AcDbEntity
  8
ASSI
100
AcDbLine
 62
7
  6
CONTINUOUS
 10
139.1902946276
 20
132.3987598119
 11
139.1902946276
 21
131.4487598119
  0
LINE
  5
320
100
AcDbEntity
  8
0
100
AcDbLine
 62
7
  6
CONTINUOUS
 10
139.1902946276
 20
98.0987598119
 11
139.1902946276
 21
102.4987598119
  0
LINE
  5
321
100
AcDbEntity
  8
0
100
AcDbLine
 62
7
  6
CONTINUOUS
 10
139.1984346276
 20
106.3487598119
 11
139.1984346276
 21
104.7487598119
  0
LINE
  5
322
100
AcDbEntity
  8
ASSI
100
AcDbLine
 62
7
  6
CONTINUOUS
 10
139.1984346276
 20
106.3487598119
 11
139.1984346276
 21
104.7487598119
  0
LINE
  5
323
100
AcDbEntity
  8
0
100
AcDbLine
 62
7
  6
CONTINUOUS
 10
139.4146576276
 20
104.9336688119
 11
139.4146576276
 21
106.1638508119
  0
LINE
  5
324
100
AcDbEntity
  8
ASSI
100
AcDbLine
 62
7
  6
CONTINUOUS
 10
139.4146576276
 20
104.9336688119
 11
139.4146576276
 21
106.1638508119
  0
LINE
  5
325
100
AcDbEntity
  8
0
100
AcDbLine
 62
7
  6
CONTINUOUS
 10
139.5298296276
 20
114.0237598119
 11
139.5298296276
 21
114.8131948119
  0
LINE
  5
326
100
AcDbEntity
  8
ASSI
100
AcDbLine
 62
7
  6
CONTINUOUS
 10
139.5298296276
 20
114.0237598119
 11
139.5298296276
 21
114.8131948119
  0
LINE
  5
327
100
AcDbEntity
  8
0
100
AcDbLine
 62
7
  6
CONTINUOUS
 10
139.5298296276
 20
115.1538708119
 11
139.5298296276
 21
115.7330838119
  0
LINE
  5
328
100
AcDbEntity
  8
ASSI
100
AcDbLine
 62
7
  6
CONTINUOUS
 10
139.5298296276
 20
115.1538708119
 11
139.5298296276
 21
115.7330838119
  0
LINE
  5
329
100
AcDbEntity
  8
0
100
AcDbLine
 62
7
  6
CONTINUOUS
 10
139.5902946276
 20
98.0987598119
 11
139.5902946276
 21
102.4987598119
  0
LINE
  5
32A
100
AcDbEntity
  8
0
100
AcDbLine
 62
7
  6
CONTINUOUS
 10
139.9902946276
 20
98.0987598119
 11
139.9902946276
 21
102.4987598119
  0
LINE
  5
32B
100
AcDbEntity
  8
0
100
AcDbLine
 62
7
  6
CONTINUOUS
 10
140.0048126276
 20
111.4806223892
 11
140.0048126276
 21
111.3073458119
  0
LINE
  5
32C
100
AcDbEntity
  8
ASSI
100
AcDbLine
 62
7
  6
CONTINUOUS
 10
140.0048126276
 20
111.4806223892
 11
140.0048126276
 21
111.3073458119
  0
LINE
  5
32D
100
AcDbEntity
  8
0
100
AcDbLine
 62
7
  6
CONTINUOUS
 10
140.3902946276
 20
98.0987598119
 11
140.3902946276
 21
102.4987598119
  0
LINE
  5
32E
100
AcDbEntity
  8
0
100
AcDbLine
 62
7
  6
CONTINUOUS
 10
140.4289506276
 20
111.3073458119
 11
140.4289506276
 21
110.0271738119
  0
LINE
  5
32F
100
AcDbEntity
  8
ASSI
100
AcDbLine
 62
7
  6
CONTINUOUS
 10
140.4289506276
 20
111.3073458119
 11
140.4289506276
 21
110.0271738119
  0
LINE
  5
330
100
AcDbEntity
  8
0
100
AcDbLine
 62
7
  6
CONTINUOUS
 10
140.6720536276
 20
110.0271738119
 11
140.6720536276
 21
111.8271738119
  0
LINE
  5
331
100
AcDbEntity
  8
ASSI
100
AcDbLine
 62
7
  6
CONTINUOUS
 10
140.6720536276
 20
110.0271738119
 11
140.6720536276
 21
111.8271738119
  0
LWPOLYLINE
  5
332
100
AcDbEntity
  8
0
100
AcDbPolyline
 62
7
  6
CONTINUOUS
 90
19
 70
0
 10
140.2967673921
 20
105.5487598119
 10
140.295661481
 20
105.4893471042
 10
140.2917502332
 20
105.4323471483
 10
140.2850336486
 20
105.3777599441
 10
140.2756199287
 20
105.3253916013
 10
140.2634008721
 20
105.2754360102
 10
140.2480518743
 20
105.2284748418
 10
140.2293996179
 20
105.1845245725
 10
140.2076174202
 20
105.1435687259
 10
140.1829006288
 20
105.1061395439
 10
140.1552215036
 20
105.072410732
 10
140.1246077846
 20
105.0422085847
 10
140.0913380397
 20
105.0155442279
 10
140.0553223407
 20
104.9922808193
 10
140.0166506158
 20
104.9725552011
 10
139.9758712171
 20
104.956789026
 10
139.9331669286
 20
104.9451228449
 10
139.8883549662
 20
104.9374161068
 10
139.8414353301
 20
104.9336688119
  0
LWPOLYLINE
  5
333
100
AcDbEntity
  8
ASSI
100
AcDbPolyline
 62
7
  6
CONTINUOUS
 90
19
 70
0
 10
140.2967673921
 20
105.5487598119
 10
140.295661481
 20
105.4893471042
 10
140.2917502332
 20
105.4323471483
 10
140.2850336486
 20
105.3777599441
 10
140.2756199287
 20
105.3253916013
 10
140.2634008721
 20
105.2754360102
 10
140.2480518743
 20
105.2284748418
 10
140.2293996179
 20
105.1845245725
 10
140.2076174202
 20
105.1435687259
 10
140.1829006288
 20
105.1061395439
 10
140.1552215036
 20
105.072410732
 10
140.1246077846
 20
105.0422085847
 10
140.0913380397
 20
105.0155442279
 10
140.0553223407
 20
104.9922808193
 10
140.0166506158
 20
104.9725552011
 10
139.9758712171
 20
104.956789026
 10
139.9331669286
 20
104.9451228449
 10
139.8883549662
 20
104.9374161068
 10
139.8414353301
 20
104.9336688119
  0
LWPOLYLINE
  5
334
100
AcDbEntity
  8
0
100
AcDbPolyline
 62
7
  6
CONTINUOUS
 90
16
 70
0
 10
140.0920697708
 20
115.4434773112
 10
140.0910046691
 20
115.4038425476
 10
140.0865162606
 20
115.3667350914
 10
140.0786045451
 20
115.3321549427
 10
140.0669792772
 20
115.299673593
 10
140.0519307024
 20
115.2697195508
 10
140.0343295574
 20
115.2435783412
 10
140.01423327
 20
115.2218331381
 10
139.9915844125
 20
115.2039007676
 10
139.9670814384
 20
115.1893172341
 10
139.9408068563
 20
115.1785701983
 10
139.9126781577
 20
115.1711719995
 10
139.8831462711
 20
115.1651956593
 10
139.8523615058
 20
115.1599988516
 10
139.8201735526
 20
115.1562239024
 10
139.7865824112
 20
115.1538708119
  0
LWPOLYLINE
  5
335
100
AcDbEntity
  8
ASSI
100
AcDbPolyline
 62
7
  6
CONTINUOUS
 90
16
 70
0
 10
140.0920697708
 20
115.4434773112
 10
140.0910046691
 20
115.4038425476
 10
140.0865162606
 20
115.3667350914
 10
140.0786045451
 20
115.3321549427
 10
140.0669792772
 20
115.299673593
 10
140.0519307024
 20
115.2697195508
 10
140.0343295574
 20
115.2435783412
 10
140.01423327
 20
115.2218331381
 10
139.9915844125
 20
115.2039007676
 10
139.9670814384
 20
115.1893172341
 10
139.9408068563
 20
115.1785701983
 10
139.9126781577
 20
115.1711719995
 10
139.8831462711
 20
115.1651956593
 10
139.8523615058
 20
115.1599988516
 10
139.8201735526
 20
115.1562239024
 10
139.7865824112
 20
115.1538708119
  0
LWPOLYLINE
  5
336
100
AcDbEntity
  8
0
100
AcDbPolyline
 62
7
  6
CONTINUOUS
 90
13
 70
0
 10
140.4922716576
 20
111.8271738119
 10
140.4853887464
 20
111.7968776475
 10
140.4776254673
 20
111.7678194131
 10
140.4689818203
 20
111.7399991086
 10
140.4595162886
 20
111.7132566128
 10
140.449170389
 20
111.687752047
 10
140.4377686718
 20
111.6639657748
 10
140.4252308522
 20
111.641960023
 10
140.4116372149
 20
111.6216725648
 10
140.3970531655
 20
111.6033970844
 10
140.3815005056
 20
111.5872314762
 10
140.3649574335
 20
111.5730778457
 10
140.3474239492
 20
111.5609361929
  0
LWPOLYLINE
  5
337
100
AcDbEntity
  8
ASSI
100
AcDbPolyline
 62
7
  6
CONTINUOUS
 90
13
 70
0
 10
140.4922716576
 20
111.8271738119
 10
140.4853887464
 20
111.7968776475
 10
140.4776254673
 20
111.7678194131
 10
140.4689818203
 20
111.7399991086
 10
140.4595162886
 20
111.7132566128
 10
140.449170389
 20
111.687752047
 10
140.4377686718
 20
111.6639657748
 10
140.4252308522
 20
111.641960023
 10
140.4116372149
 20
111.6216725648
 10
140.3970531655
 20
111.6033970844
 10
140.3815005056
 20
111.5872314762
 10
140.3649574335
 20
111.5730778457
 10
140.3474239492
 20
111.5609361929
  0
LINE
  5
338
100
AcDbEntity
  8
0
100
AcDbLine
 62
7
  6
CONTINUOUS
 10
136.7115106276
 20
104.7487598119
 11
137.1616016276
 21
106.0925528119
  0
LINE
  5
339
100
AcDbEntity
  8
ASSI
100
AcDbLine
 62
7
  6
CONTINUOUS
 10
136.7115106276
 20
104.7487598119
 11
137.1616016276
 21
106.0925528119
  0
LINE
  5
33A
100
AcDbEntity
  8
0
100
AcDbLine
 62
7
  6
CONTINUOUS
 10
137.0635836276
 20
106.3487598119
 11
136.6067406276
 21
104.9895308119
  0
LINE
  5
33B
100
AcDbEntity
  8
ASSI
100
AcDbLine
 62
7
  6
CONTINUOUS
 10
137.0635836276
 20
106.3487598119
 11
136.6067406276
 21
104.9895308119
  0
LINE
  5
33C
100
AcDbEntity
  8
0
100
AcDbLine
 62
7
  6
CONTINUOUS
 10
138.1644456276
 20
106.3487598119
 11
137.5627986276
 21
104.7487598119
  0
LINE
  5
33D
100
AcDbEntity
  8
ASSI
100
AcDbLine
 62
7
  6
CONTINUOUS
 10
138.1644456276
 20
106.3487598119
 11
137.5627986276
 21
104.7487598119
  0
LINE
  5
33E
100
AcDbEntity
  8
0
100
AcDbLine
 62
7
  6
CONTINUOUS
 10
147.5902946276
 20
102.4987598119
 11
149.5902946276
 21
100.4987598119
  0
LINE
  5
33F
100
AcDbEntity
  8
0
100
AcDbLine
 62
7
  6
CONTINUOUS
 10
147.9902946276
 20
102.4987598119
 11
149.5902946276
 21
100.8987598119
  0
LINE
  5
340
100
AcDbEntity
  8
0
100
AcDbLine
 62
7
  6
CONTINUOUS
 10
148.3902946276
 20
102.4987598119
 11
149.5902946276
 21
101.2987598119
  0
LINE
  5
341
100
AcDbEntity
  8
0
100
AcDbLine
 62
7
  6
CONTINUOUS
 10
148.7902946276
 20
102.4987598119
 11
149.5902946276
 21
101.6987598119
  0
LINE
  5
342
100
AcDbEntity
  8
0
100
AcDbLine
 62
7
  6
CONTINUOUS
 10
149.1902946276
 20
102.4987598119
 11
149.5902946276
 21
102.0987598119
  0
LINE
  5
343
100
AcDbEntity
  8
0
100
AcDbLine
 62
7
  6
CONTINUOUS
 10
143.7312546276
 20
106.0481508119
 11
144.5491116276
 21
104.7487598119
  0
LINE
  5
344
100
AcDbEntity
  8
ASSI
100
AcDbLine
 62
7
  6
CONTINUOUS
 10
143.7312546276
 20
106.0481508119
 11
144.5491116276
 21
104.7487598119
  0
LINE
  5
345
100
AcDbEntity
  8
0
100
AcDbLine
 62
7
  6
CONTINUOUS
 10
144.5825476276
 20
105.0491048119
 11
143.7780196276
 21
106.3487598119
  0
LINE
  5
346
100
AcDbEntity
  8
ASSI
100
AcDbLine
 62
7
  6
CONTINUOUS
 10
144.5825476276
 20
105.0491048119
 11
143.7780196276
 21
106.3487598119
  0
LINE
  5
347
100
AcDbEntity
  8
0
100
AcDbLine
 62
7
  6
CONTINUOUS
 10
140.7902946276
 20
98.0987598119
 11
140.7902946276
 21
102.4987598119
  0
LINE
  5
348
100
AcDbEntity
  8
0
100
AcDbLine
 62
7
  6
CONTINUOUS
 10
140.8185566276
 20
106.3487598119
 11
140.8185566276
 21
104.7487598119
  0
LINE
  5
349
100
AcDbEntity
  8
ASSI
100
AcDbLine
 62
7
  6
CONTINUOUS
 10
140.8185566276
 20
106.3487598119
 11
140.8185566276
 21
104.7487598119
  0
LINE
  5
34A
100
AcDbEntity
  8
0
100
AcDbLine
 62
7
  6
CONTINUOUS
 10
140.8359886276
 20
116.0737598119
 11
140.8359886276
 21
114.0237598119
  0
LINE
  5
34B
100
AcDbEntity
  8
ASSI
100
AcDbLine
 62
7
  6
CONTINUOUS
 10
140.8359886276
 20
116.0737598119
 11
140.8359886276
 21
114.0237598119
  0
LINE
  5
34C
100
AcDbEntity
  8
ASSI
100
AcDbLine
 62
7
  6
CONTINUOUS
 10
140.9004696276
 20
121.4988098119
 11
140.9004636276
 21
118.9986908119
  0
LINE
  5
34D
100
AcDbEntity
  8
0
100
AcDbLine
 62
7
  6
CONTINUOUS
 10
141.0347666276
 20
104.9403978119
 11
141.0347666276
 21
105.4751978119
  0
LINE
  5
34E
100
AcDbEntity
  8
ASSI
100
AcDbLine
 62
7
  6
CONTINUOUS
 10
141.0347666276
 20
104.9403978119
 11
141.0347666276
 21
105.4751978119
  0
LINE
  5
34F
100
AcDbEntity
  8
0
100
AcDbLine
 62
7
  6
CONTINUOUS
 10
141.0347666276
 20
105.6668348119
 11
141.0347666276
 21
106.1571218119
  0
LINE
  5
350
100
AcDbEntity
  8
ASSI
100
AcDbLine
 62
7
  6
CONTINUOUS
 10
141.0347666276
 20
105.6668348119
 11
141.0347666276
 21
106.1571218119
  0
LINE
  5
351
100
AcDbEntity
  8
0
100
AcDbLine
 62
7
  6
CONTINUOUS
 10
141.1902946276
 20
98.0987598119
 11
141.1902946276
 21
102.4987598119
  0
LINE
  5
352
100
AcDbEntity
  8
0
100
AcDbLine
 62
7
  6
CONTINUOUS
 10
141.2591226276
 20
110.6950618119
 11
141.2591226276
 21
110.4694148119
  0
LINE
  5
353
100
AcDbEntity
  8
ASSI
100
AcDbLine
 62
7
  6
CONTINUOUS
 10
141.2591226276
 20
110.6950618119
 11
141.2591226276
 21
110.4694148119
  0
LINE
  5
354
100
AcDbEntity
  8
0
100
AcDbLine
 62
7
  6
CONTINUOUS
 10
141.2761066276
 20
114.3644358119
 11
141.2761066276
 21
116.0737598119
  0
LINE
  5
355
100
AcDbEntity
  8
ASSI
100
AcDbLine
 62
7
  6
CONTINUOUS
 10
141.2761066276
 20
114.3644358119
 11
141.2761066276
 21
116.0737598119
  0
LINE
  5
356
100
AcDbEntity
  8
ASSI
100
AcDbLine
 62
7
  6
CONTINUOUS
 10
141.4004816276
 20
118.9986968119
 11
141.4004886276
 21
121.4988098119
  0
LINE
  5
357
100
AcDbEntity
  8
0
100
AcDbLine
 62
7
  6
CONTINUOUS
 10
141.5902946276
 20
98.0987598119
 11
141.5902946276
 21
102.4987598119
  0
LINE
  5
358
100
AcDbEntity
  8
ASSI
100
AcDbLine
 62
7
  6
CONTINUOUS
 10
141.9004886276
 20
121.4988098119
 11
141.9004886276
 21
118.9986968119
  0
LINE
  5
359
100
AcDbEntity
  8
0
100
AcDbLine
 62
7
  6
CONTINUOUS
 10
141.9105416276
 20
105.4751978119
 11
141.9105416276
 21
105.6668348119
  0
LINE
  5
35A
100
AcDbEntity
  8
ASSI
100
AcDbLine
 62
7
  6
CONTINUOUS
 10
141.9105416276
 20
105.4751978119
 11
141.9105416276
 21
105.6668348119
  0
LINE
  5
35B
100
AcDbEntity
  8
0
100
AcDbLine
 62
7
  6
CONTINUOUS
 10
141.9840786276
 20
106.1571218119
 11
141.9840786276
 21
106.3487598119
  0
LINE
  5
35C
100
AcDbEntity
  8
ASSI
100
AcDbLine
 62
7
  6
CONTINUOUS
 10
141.9840786276
 20
106.1571218119
 11
141.9840786276
 21
106.3487598119
  0
LINE
  5
35D
100
AcDbEntity
  8
0
100
AcDbLine
 62
7
  6
CONTINUOUS
 10
141.9902946276
 20
98.0987598119
 11
141.9902946276
 21
102.4987598119
  0
LINE
  5
35E
100
AcDbEntity
  8
0
100
AcDbLine
 62
7
  6
CONTINUOUS
 10
141.9996966276
 20
104.7487598119
 11
141.9996966276
 21
104.9403978119
  0
LINE
  5
35F
100
AcDbEntity
  8
ASSI
100
AcDbLine
 62
7
  6
CONTINUOUS
 10
141.9996966276
 20
104.7487598119
 11
141.9996966276
 21
104.9403978119
  0
LINE
  5
360
100
AcDbEntity
  8
0
100
AcDbLine
 62
7
  6
CONTINUOUS
 10
142.0346056276
 20
114.0237598119
 11
142.0346056276
 21
114.3644358119
  0
LINE
  5
361
100
AcDbEntity
  8
ASSI
100
AcDbLine
 62
7
  6
CONTINUOUS
 10
142.0346056276
 20
114.0237598119
 11
142.0346056276
 21
114.3644358119
  0
LINE
  5
362
100
AcDbEntity
  8
0
100
AcDbLine
 62
7
  6
CONTINUOUS
 10
142.0505026276
 20
111.4870068119
 11
142.0505026276
 21
110.6711388119
  0
LINE
  5
363
100
AcDbEntity
  8
ASSI
100
AcDbLine
 62
7
  6
CONTINUOUS
 10
142.0505026276
 20
111.4870068119
 11
142.0505026276
 21
110.6711388119
  0
LINE
  5
364
100
AcDbEntity
  8
0
100
AcDbLine
 62
7
  6
CONTINUOUS
 10
142.0530886276
 20
110.4694148119
 11
142.0530886276
 21
110.0271738119
  0
LINE
  5
365
100
AcDbEntity
  8
ASSI
100
AcDbLine
 62
7
  6
CONTINUOUS
 10
142.0530886276
 20
110.4694148119
 11
142.0530886276
 21
110.0271738119
  0
LINE
  5
366
100
AcDbEntity
  8
0
100
AcDbLine
 62
7
  6
CONTINUOUS
 10
142.2806746276
 20
110.0271738119
 11
142.2806746276
 21
110.4694148119
  0
LINE
  5
367
100
AcDbEntity
  8
ASSI
100
AcDbLine
 62
7
  6
CONTINUOUS
 10
142.2806746276
 20
110.0271738119
 11
142.2806746276
 21
110.4694148119
  0
LINE
  5
368
100
AcDbEntity
  8
0
100
AcDbLine
 62
7
  6
CONTINUOUS
 10
142.2806746276
 20
110.6711388119
 11
142.2806746276
 21
111.8401048119
  0
LINE
  5
369
100
AcDbEntity
  8
ASSI
100
AcDbLine
 62
7
  6
CONTINUOUS
 10
142.2806746276
 20
110.6711388119
 11
142.2806746276
 21
111.8401048119
  0
LINE
  5
36A
100
AcDbEntity
  8
ASSI
100
AcDbLine
 62
7
  6
CONTINUOUS
 10
143.5901196276
 20
121.4988098119
 11
143.1232506276
 21
119.8706468119
  0
LINE
  5
36B
100
AcDbEntity
  8
ASSI
100
AcDbLine
 62
7
  6
CONTINUOUS
 10
143.3732506276
 20
118.9987038119
 11
143.8459886276
 21
120.6473538119
  0
LINE
  5
36C
100
AcDbEntity
  8
0
100
AcDbLine
 62
7
  6
CONTINUOUS
 10
142.9427686276
 20
114.7989228119
 11
143.2467446276
 21
115.6820268119
  0
LINE
  5
36D
100
AcDbEntity
  8
ASSI
100
AcDbLine
 62
7
  6
CONTINUOUS
 10
142.9427686276
 20
114.7989228119
 11
143.2467446276
 21
115.6820268119
  0
LINE
  5
36E
100
AcDbEntity
  8
0
100
AcDbLine
 62
7
  6
CONTINUOUS
 10
142.6759206276
 20
114.0237598119
 11
142.8292096276
 21
114.4582458119
  0
LINE
  5
36F
100
AcDbEntity
  8
ASSI
100
AcDbLine
 62
7
  6
CONTINUOUS
 10
142.6759206276
 20
114.0237598119
 11
142.8292096276
 21
114.4582458119
  0
LINE
  5
370
100
AcDbEntity
  8
0
100
AcDbLine
 62
7
  6
CONTINUOUS
 10
137.7856216276
 20
104.7487598119
 11
137.9527766276
 21
105.2144618119
  0
LINE
  5
371
100
AcDbEntity
  8
ASSI
100
AcDbLine
 62
7
  6
CONTINUOUS
 10
137.7856216276
 20
104.7487598119
 11
137.9527766276
 21
105.2144618119
  0
LINE
  5
372
100
AcDbEntity
  8
0
100
AcDbLine
 62
7
  6
CONTINUOUS
 10
142.9967706276
 20
116.0737598119
 11
142.2557066276
 21
114.0237598119
  0
LINE
  5
373
100
AcDbEntity
  8
ASSI
100
AcDbLine
 62
7
  6
CONTINUOUS
 10
142.9967706276
 20
116.0737598119
 11
142.2557066276
 21
114.0237598119
  0
LINE
  5
374
100
AcDbEntity
  8
0
100
AcDbLine
 62
7
  6
CONTINUOUS
 10
138.0196496276
 20
105.4060988119
 11
138.2782246276
 21
106.1166818119
  0
LINE
  5
375
100
AcDbEntity
  8
ASSI
100
AcDbLine
 62
7
  6
CONTINUOUS
 10
138.0196496276
 20
105.4060988119
 11
138.2782246276
 21
106.1166818119
  0
LWPOLYLINE
  5
376
100
AcDbEntity
  8
0
100
AcDbPolyline
 62
7
  6
CONTINUOUS
 90
40
 70
0
 10
143.3402170735
 20
109.9781327316
 10
143.4001770022
 20
109.9818334282
 10
143.4569693832
 20
109.9904905082
 10
143.5105942163
 20
110.0041039714
 10
143.5608607071
 20
110.0225404189
 10
143.6079596501
 20
110.0459332497
 10
143.6524634292
 20
110.0746826613
 10
143.6946915638
 20
110.108908961
 10
143.7343245345
 20
110.1484918415
 10
143.7709761664
 20
110.1934705789
 10
143.8046732136
 20
110.244213886
 10
143.8353889219
 20
110.30035305
 10
143.8626568538
 20
110.3608212079
 10
143.8863141469
 20
110.4253983357
 10
143.9065236636
 20
110.4943044574
 10
143.9233075536
 20
110.5671327818
 10
143.9366356588
 20
110.6446560042
 10
143.9465381373
 20
110.7261014293
 10
143.9531276134
 20
110.8087441799
 10
143.9563726439
 20
110.8929977142
 10
143.956304672
 20
110.978448574
 10
143.9531306513
 20
111.0611315077
 10
143.9470372582
 20
111.1399674845
 10
143.9378378163
 20
111.2160355353
 10
143.9251792492
 20
111.2886075008
 10
143.9089878105
 20
111.3577464219
 10
143.8893372468
 20
111.4233892578
 10
143.8660957212
 20
111.4846187265
 10
143.8390463619
 20
111.5414039692
 10
143.8084060408
 20
111.5937758448
 10
143.7746935369
 20
111.6409096483
 10
143.7381025971
 20
111.6824082803
 10
143.6984394743
 20
111.7186688403
 10
143.6556417065
 20
111.7500579211
 10
143.60981441
 20
111.776672004
 10
143.5608524683
 20
111.7984146078
 10
143.5083780703
 20
111.8153628819
 10
143.4522652788
 20
111.8275425429
 10
143.3926400309
 20
111.8349278741
 10
143.3295023266
 20
111.8375188758
  0
LWPOLYLINE
  5
377
100
AcDbEntity
  8
ASSI
100
AcDbPolyline
 62
7
  6
CONTINUOUS
 90
40
 70
0
 10
143.3402170735
 20
109.9781327316
 10
143.4001770022
 20
109.9818334282
 10
143.4569693832
 20
109.9904905082
 10
143.5105942163
 20
110.0041039714
 10
143.5608607071
 20
110.0225404189
 10
143.6079596501
 20
110.0459332497
 10
143.6524634292
 20
110.0746826613
 10
143.6946915638
 20
110.108908961
 10
143.7343245345
 20
110.1484918415
 10
143.7709761664
 20
110.1934705789
 10
143.8046732136
 20
110.244213886
 10
143.8353889219
 20
110.30035305
 10
143.8626568538
 20
110.3608212079
 10
143.8863141469
 20
110.4253983357
 10
143.9065236636
 20
110.4943044574
 10
143.9233075536
 20
110.5671327818
 10
143.9366356588
 20
110.6446560042
 10
143.9465381373
 20
110.7261014293
 10
143.9531276134
 20
110.8087441799
 10
143.9563726439
 20
110.8929977142
 10
143.956304672
 20
110.978448574
 10
143.9531306513
 20
111.0611315077
 10
143.9470372582
 20
111.1399674845
 10
143.9378378163
 20
111.2160355353
 10
143.9251792492
 20
111.2886075008
 10
143.9089878105
 20
111.3577464219
 10
143.8893372468
 20
111.4233892578
 10
143.8660957212
 20
111.4846187265
 10
143.8390463619
 20
111.5414039692
 10
143.8084060408
 20
111.5937758448
 10
143.7746935369
 20
111.6409096483
 10
143.7381025971
 20
111.6824082803
 10
143.6984394743
 20
111.7186688403
 10
143.6556417065
 20
111.7500579211
 10
143.60981441
 20
111.776672004
 10
143.5608524683
 20
111.7984146078
 10
143.5083780703
 20
111.8153628819
 10
143.4522652788
 20
111.8275425429
 10
143.3926400309
 20
111.8349278741
 10
143.3295023266
 20
111.8375188758
  0
LINE
  5
378
100
AcDbEntity
  8
0
100
AcDbLine
 62
7
  6
CONTINUOUS
 10
140.4289506276
 20
110.0271738119
 11
140.6720536276
 21
110.0271738119
  0
LINE
  5
379
100
AcDbEntity
  8
ASSI
100
AcDbLine
 62
7
  6
CONTINUOUS
 10
140.4289506276
 20
110.0271738119
 11
140.6720536276
 21
110.0271738119
  0
LINE
  5
37A
100
AcDbEntity
  8
0
100
AcDbLine
 62
7
  6
CONTINUOUS
 10
142.0530886276
 20
110.0271738119
 11
142.2806746276
 21
110.0271738119
  0
LINE
  5
37B
100
AcDbEntity
  8
ASSI
100
AcDbLine
 62
7
  6
CONTINUOUS
 10
142.0530886276
 20
110.0271738119
 11
142.2806746276
 21
110.0271738119
  0
LINE
  5
37C
100
AcDbEntity
  8
0
100
AcDbLine
 62
7
  6
CONTINUOUS
 10
144.1505017365
 20
110.0271738119
 11
145.3918816276
 21
110.0271738119
  0
LINE
  5
37D
100
AcDbEntity
  8
ASSI
100
AcDbLine
 62
7
  6
CONTINUOUS
 10
144.1505017365
 20
110.0271738119
 11
145.3918816276
 21
110.0271738119
  0
LINE
  5
37E
100
AcDbEntity
  8
0
100
AcDbLine
 62
7
  6
CONTINUOUS
 10
145.3918816276
 20
110.2418288119
 11
144.403949874
 21
110.2418288119
  0
LINE
  5
37F
100
AcDbEntity
  8
ASSI
100
AcDbLine
 62
7
  6
CONTINUOUS
 10
145.3918816276
 20
110.2418288119
 11
144.403949874
 21
110.2418288119
  0
LINE
  5
380
100
AcDbEntity
  8
0
100
AcDbLine
 62
7
  6
CONTINUOUS
 10
141.2591226276
 20
110.4694148119
 11
142.0530886276
 21
110.4694148119
  0
LINE
  5
381
100
AcDbEntity
  8
ASSI
100
AcDbLine
 62
7
  6
CONTINUOUS
 10
141.2591226276
 20
110.4694148119
 11
142.0530886276
 21
110.4694148119
  0
LINE
  5
382
100
AcDbEntity
  8
0
100
AcDbLine
 62
7
  6
CONTINUOUS
 10
142.2806746276
 20
110.4694148119
 11
142.5470536276
 21
110.4694148119
  0
LINE
  5
383
100
AcDbEntity
  8
ASSI
100
AcDbLine
 62
7
  6
CONTINUOUS
 10
142.2806746276
 20
110.4694148119
 11
142.5470536276
 21
110.4694148119
  0
LINE
  5
384
100
AcDbEntity
  8
0
100
AcDbLine
 62
7
  6
CONTINUOUS
 10
142.5470536276
 20
110.6711388119
 11
142.2806746276
 21
110.6711388119
  0
LINE
  5
385
100
AcDbEntity
  8
ASSI
100
AcDbLine
 62
7
  6
CONTINUOUS
 10
142.5470536276
 20
110.6711388119
 11
142.2806746276
 21
110.6711388119
  0
LINE
  5
386
100
AcDbEntity
  8
0
100
AcDbLine
 62
7
  6
CONTINUOUS
 10
142.0505026276
 20
110.6711388119
 11
141.4691306276
 21
110.6711388119
  0
LINE
  5
387
100
AcDbEntity
  8
ASSI
100
AcDbLine
 62
7
  6
CONTINUOUS
 10
142.0505026276
 20
110.6711388119
 11
141.4691306276
 21
110.6711388119
  0
LWPOLYLINE
  5
388
100
AcDbEntity
  8
0
100
AcDbPolyline
 62
7
  6
CONTINUOUS
 90
43
 70
0
 10
143.3263907884
 20
110.1849326689
 10
143.2884552284
 20
110.1875861063
 10
143.2521912907
 20
110.1943630647
 10
143.2175989753
 20
110.205263544
 10
143.1842840572
 20
110.2204577823
 10
143.1526407615
 20
110.2397755415
 10
143.1238517628
 20
110.2627061075
 10
143.0985391104
 20
110.2891929878
 10
143.0760807551
 20
110.319292675
 10
143.0557932242
 20
110.3526639326
 10
143.037508698
 20
110.3895758479
 10
143.0213949963
 20
110.4297593337
 10
143.0072721053
 20
110.472065892
 10
142.9951883409
 20
110.5160283685
 10
142.9850953873
 20
110.5621139174
 10
142.9766682831
 20
110.6105755033
 10
142.9698537194
 20
110.66159552
 10
142.9647050052
 20
110.7149915737
 10
142.9610571067
 20
110.7704694468
 10
142.9588938438
 20
110.8289586981
 10
142.9582313967
 20
110.8895297689
 10
142.9589532709
 20
110.9490997651
 10
142.9609742504
 20
111.0069624581
 10
142.9643795514
 20
111.0638240766
 10
142.9693083285
 20
111.1187204126
 10
142.9757330686
 20
111.1713957214
 10
142.9836812848
 20
111.2221057478
 10
142.9933746707
 20
111.2706535183
 10
143.0046788903
 20
111.3171229219
 10
143.0177282796
 20
111.3614300697
 10
143.0331475396
 20
111.4031263211
 10
143.0512407939
 20
111.4424845509
 10
143.0717039189
 20
111.4792318843
 10
143.0942492444
 20
111.5121010574
 10
143.1187072168
 20
111.5406990319
 10
143.1452473897
 20
111.5654188461
 10
143.1740907538
 20
111.5861723502
 10
143.2055449661
 20
111.6028941336
 10
143.2393023695
 20
111.6156496069
 10
143.2746609839
 20
111.6245468522
 10
143.3123697241
 20
111.6295330774
 10
143.3516796751
 20
111.6306610746
 10
143.3896421119
 20
111.6281973015
  0
LWPOLYLINE
  5
389
100
AcDbEntity
  8
ASSI
100
AcDbPolyline
 62
7
  6
CONTINUOUS
 90
43
 70
0
 10
143.3263907884
 20
110.1849326689
 10
143.2884552284
 20
110.1875861063
 10
143.2521912907
 20
110.1943630647
 10
143.2175989753
 20
110.205263544
 10
143.1842840572
 20
110.2204577823
 10
143.1526407615
 20
110.2397755415
 10
143.1238517628
 20
110.2627061075
 10
143.0985391104
 20
110.2891929878
 10
143.0760807551
 20
110.319292675
 10
143.0557932242
 20
110.3526639326
 10
143.037508698
 20
110.3895758479
 10
143.0213949963
 20
110.4297593337
 10
143.0072721053
 20
110.472065892
 10
142.9951883409
 20
110.5160283685
 10
142.9850953873
 20
110.5621139174
 10
142.9766682831
 20
110.6105755033
 10
142.9698537194
 20
110.66159552
 10
142.9647050052
 20
110.7149915737
 10
142.9610571067
 20
110.7704694468
 10
142.9588938438
 20
110.8289586981
 10
142.9582313967
 20
110.8895297689
 10
142.9589532709
 20
110.9490997651
 10
142.9609742504
 20
111.0069624581
 10
142.9643795514
 20
111.0638240766
 10
142.9693083285
 20
111.1187204126
 10
142.9757330686
 20
111.1713957214
 10
142.9836812848
 20
111.2221057478
 10
142.9933746707
 20
111.2706535183
 10
143.0046788903
 20
111.3171229219
 10
143.0177282796
 20
111.3614300697
 10
143.0331475396
 20
111.4031263211
 10
143.0512407939
 20
111.4424845509
 10
143.0717039189
 20
111.4792318843
 10
143.0942492444
 20
111.5121010574
 10
143.1187072168
 20
111.5406990319
 10
143.1452473897
 20
111.5654188461
 10
143.1740907538
 20
111.5861723502
 10
143.2055449661
 20
111.6028941336
 10
143.2393023695
 20
111.6156496069
 10
143.2746609839
 20
111.6245468522
 10
143.3123697241
 20
111.6295330774
 10
143.3516796751
 20
111.6306610746
 10
143.3896421119
 20
111.6281973015
  0
LINE
  5
38A
100
AcDbEntity
  8
ASSI
100
AcDbLine
 62
7
  6
CONTINUOUS
 10
138.4616816276
 20
121.4988098119
 11
139.2643816276
 21
118.9986908119
  0
LINE
  5
38B
100
AcDbEntity
  8
ASSI
100
AcDbLine
 62
7
  6
CONTINUOUS
 10
139.5144066276
 20
119.7773468119
 11
138.9617066276
 21
121.4988098119
  0
LINE
  5
38C
100
AcDbEntity
  8
0
100
AcDbLine
 62
7
  6
CONTINUOUS
 10
142.3902946276
 20
98.0987598119
 11
142.3902946276
 21
102.4987598119
  0
LINE
  5
38D
100
AcDbEntity
  8
ASSI
100
AcDbLine
 62
7
  6
CONTINUOUS
 10
142.4005066276
 20
118.9986968119
 11
142.4005066276
 21
120.6473538119
  0
LINE
  5
38E
100
AcDbEntity
  8
0
100
AcDbLine
 62
7
  6
CONTINUOUS
 10
142.5470536276
 20
110.4694148119
 11
142.5470536276
 21
110.6711388119
  0
LINE
  5
38F
100
AcDbEntity
  8
ASSI
100
AcDbLine
 62
7
  6
CONTINUOUS
 10
142.5470536276
 20
110.4694148119
 11
142.5470536276
 21
110.6711388119
  0
LINE
  5
390
100
AcDbEntity
  8
0
100
AcDbLine
 62
7
  6
CONTINUOUS
 10
142.7902946276
 20
98.0987598119
 11
142.7902946276
 21
102.4987598119
  0
LINE
  5
391
100
AcDbEntity
  8
0
100
AcDbLine
 62
7
  6
CONTINUOUS
 10
142.9356806276
 20
106.3487598119
 11
142.9356806276
 21
104.7487598119
  0
LINE
  5
392
100
AcDbEntity
  8
ASSI
100
AcDbLine
 62
7
  6
CONTINUOUS
 10
142.9356806276
 20
106.3487598119
 11
142.9356806276
 21
104.7487598119
  0
LINE
  5
393
100
AcDbEntity
  8
0
100
AcDbLine
 62
7
  6
CONTINUOUS
 10
143.1518256276
 20
104.7487598119
 11
143.1518256276
 21
106.3487598119
  0
LINE
  5
394
100
AcDbEntity
  8
ASSI
100
AcDbLine
 62
7
  6
CONTINUOUS
 10
143.1518256276
 20
104.7487598119
 11
143.1518256276
 21
106.3487598119
  0
LINE
  5
395
100
AcDbEntity
  8
0
100
AcDbLine
 62
7
  6
CONTINUOUS
 10
143.1902946276
 20
98.0987598119
 11
143.1902946276
 21
102.4987598119
  0
LINE
  5
396
100
AcDbEntity
  8
0
100
AcDbLine
 62
7
  6
CONTINUOUS
 10
143.5216956276
 20
106.3487598119
 11
143.5216956276
 21
104.7487598119
  0
LINE
  5
397
100
AcDbEntity
  8
ASSI
100
AcDbLine
 62
7
  6
CONTINUOUS
 10
143.5216956276
 20
106.3487598119
 11
143.5216956276
 21
104.7487598119
  0
LINE
  5
398
100
AcDbEntity
  8
0
100
AcDbLine
 62
7
  6
CONTINUOUS
 10
143.5902946276
 20
98.0987598119
 11
143.5902946276
 21
102.4987598119
  0
LINE
  5
399
100
AcDbEntity
  8
0
100
AcDbLine
 62
7
  6
CONTINUOUS
 10
143.7312546276
 20
104.7487598119
 11
143.7312546276
 21
106.0481508119
  0
LINE
  5
39A
100
AcDbEntity
  8
ASSI
100
AcDbLine
 62
7
  6
CONTINUOUS
 10
143.7312546276
 20
104.7487598119
 11
143.7312546276
 21
106.0481508119
  0
LINE
  5
39B
100
AcDbEntity
  8
ASSI
100
AcDbLine
 62
7
  6
CONTINUOUS
 10
143.8459886276
 20
120.6473538119
 11
143.8459946276
 21
118.9986968119
  0
LINE
  5
39C
100
AcDbEntity
  8
0
100
AcDbLine
 62
7
  6
CONTINUOUS
 10
143.9902946276
 20
98.0987598119
 11
143.9902946276
 21
102.4987598119
  0
LWPOLYLINE
  5
39D
100
AcDbEntity
  8
0
100
AcDbPolyline
 62
7
  6
CONTINUOUS
 90
13
 70
0
 10
143.7108465938
 20
110.9248303019
 10
143.7105742811
 20
110.866181567
 10
143.7090239905
 20
110.8092018109
 10
143.7061957222
 20
110.7538910335
 10
143.7021893785
 20
110.7002432789
 10
143.696905057
 20
110.6482645031
 10
143.6900430503
 20
110.5979725738
 10
143.6818208736
 20
110.5490097914
 10
143.6720210116
 20
110.5017338556
 10
143.6596912116
 20
110.457235733
 10
143.644514056
 20
110.4158790792
 10
143.6268069623
 20
110.3773002387
 10
143.6065699306
 20
110.3414992114
  0
LWPOLYLINE
  5
39E
100
AcDbEntity
  8
ASSI
100
AcDbPolyline
 62
7
  6
CONTINUOUS
 90
13
 70
0
 10
143.7108465938
 20
110.9248303019
 10
143.7105742811
 20
110.866181567
 10
143.7090239905
 20
110.8092018109
 10
143.7061957222
 20
110.7538910335
 10
143.7021893785
 20
110.7002432789
 10
143.696905057
 20
110.6482645031
 10
143.6900430503
 20
110.5979725738
 10
143.6818208736
 20
110.5490097914
 10
143.6720210116
 20
110.5017338556
 10
143.6596912116
 20
110.457235733
 10
143.644514056
 20
110.4158790792
 10
143.6268069623
 20
110.3773002387
 10
143.6065699306
 20
110.3414992114
  0
LINE
  5
39F
100
AcDbEntity
  8
ASSI
100
AcDbLine
 62
7
  6
CONTINUOUS
 10
145.4820506276
 20
121.4988158119
 11
144.6793576276
 21
118.9986968119
  0
LINE
  5
3A0
100
AcDbEntity
  8
ASSI
100
AcDbLine
 62
7
  6
CONTINUOUS
 10
145.1793756276
 20
118.9987038119
 11
145.3372326276
 21
119.4903658119
  0
LINE
  5
3A1
100
AcDbEntity
  8
ASSI
100
AcDbLine
 62
7
  6
CONTINUOUS
 10
145.4897506276
 20
119.9653848119
 11
145.7320696276
 21
120.7201598119
  0
LINE
  5
3A2
100
AcDbEntity
  8
0
100
AcDbLine
 62
7
  6
CONTINUOUS
 10
141.4691306276
 20
110.6711388119
 11
142.0505026276
 21
111.4870068119
  0
LINE
  5
3A3
100
AcDbEntity
  8
ASSI
100
AcDbLine
 62
7
  6
CONTINUOUS
 10
141.4691306276
 20
110.6711388119
 11
142.0505026276
 21
111.4870068119
  0
LINE
  5
3A4
100
AcDbEntity
  8
0
100
AcDbLine
 62
7
  6
CONTINUOUS
 10
142.0884876276
 20
111.8401048119
 11
141.2591226276
 21
110.6950618119
  0
LINE
  5
3A5
100
AcDbEntity
  8
ASSI
100
AcDbLine
 62
7
  6
CONTINUOUS
 10
142.0884876276
 20
111.8401048119
 11
141.2591226276
 21
110.6950618119
  0
LWPOLYLINE
  5
3A6
100
AcDbEntity
  8
0
100
AcDbPolyline
 62
7
  6
CONTINUOUS
 90
10
 70
0
 10
140.3474239492
 20
111.5609361929
 10
140.3162888292
 20
111.5454885715
 10
140.2832135436
 20
111.5319316937
 10
140.2481980923
 20
111.5202655595
 10
140.2109665227
 20
111.5108365386
 10
140.1717947874
 20
111.5032982614
 10
140.1315107444
 20
111.4966116187
 10
140.0903903465
 20
111.4904302409
 10
140.0481576409
 20
111.4851004978
 10
140.0048126276
 20
111.4806223892
  0
LWPOLYLINE
  5
3A7
100
AcDbEntity
  8
ASSI
100
AcDbPolyline
 62
7
  6
CONTINUOUS
 90
10
 70
0
 10
140.3474239492
 20
111.5609361929
 10
140.3162888292
 20
111.5454885715
 10
140.2832135436
 20
111.5319316937
 10
140.2481980923
 20
111.5202655595
 10
140.2109665227
 20
111.5108365386
 10
140.1717947874
 20
111.5032982614
 10
140.1315107444
 20
111.4966116187
 10
140.0903903465
 20
111.4904302409
 10
140.0481576409
 20
111.4851004978
 10
140.0048126276
 20
111.4806223892
  0
LINE
  5
3A8
100
AcDbEntity
  8
0
100
AcDbLine
 62
7
  6
CONTINUOUS
 10
146.5823141532
 20
111.3873298542
 11
146.8000751452
 21
111.4048508535
  0
LINE
  5
3A9
100
AcDbEntity
  8
ASSI
100
AcDbLine
 62
7
  6
CONTINUOUS
 10
146.5823141532
 20
111.3873298542
 11
146.8000751452
 21
111.4048508535
  0
LWPOLYLINE
  5
3AA
100
AcDbEntity
  8
0
100
AcDbPolyline
 62
7
  6
CONTINUOUS
 90
40
 70
0
 10
143.3295023266
 20
111.8375188758
 10
143.2694717366
 20
111.8348728988
 10
143.2125382432
 20
111.8271596411
 10
143.1587018464
 20
111.8143791026
 10
143.1080954595
 20
111.7966470654
 10
143.0605861692
 20
111.7738477474
 10
143.0157752358
 20
111.7456338023
 10
142.9734246394
 20
111.7119071993
 10
142.9337724
 20
111.6727659693
 10
142.8971338372
 20
111.6281568583
 10
142.8634637237
 20
111.5776787483
 10
142.8328072868
 20
111.5217327574
 10
142.805615529
 20
111.4614689863
 10
142.782055154
 20
111.3971583761
 10
142.7619594579
 20
111.3285299857
 10
142.7452793313
 20
111.2559210929
 10
142.7320003562
 20
111.1786478523
 10
142.7221369505
 20
111.0973941094
 10
142.7156832584
 20
111.0145486779
 10
142.7126784389
 20
110.9294031124
 10
142.7130833331
 20
110.8426658583
 10
142.7167746082
 20
110.7588510657
 10
142.723642282
 20
110.6792410268
 10
142.7337963367
 20
110.6025534494
 10
142.7474433857
 20
110.5294556067
 10
142.7646760738
 20
110.4599164523
 10
142.7854017561
 20
110.3939670326
 10
142.8095491111
 20
110.3323677602
 10
142.837295903
 20
110.2750611137
 10
142.8684643676
 20
110.2221046145
 10
142.9024498903
 20
110.1744312388
 10
142.9390461211
 20
110.1324399284
 10
142.9784594101
 20
110.0957317416
 10
143.020704193
 20
110.0640428292
 10
143.0655425433
 20
110.037309452
 10
143.1132123876
 20
110.0155953492
 10
143.1644419413
 20
109.9988278889
 10
143.2194739427
 20
109.9869828605
 10
143.2780656534
 20
109.9800844748
 10
143.3402170735
 20
109.9781327316
  0
LWPOLYLINE
  5
3AB
100
AcDbEntity
  8
ASSI
100
AcDbPolyline
 62
7
  6
CONTINUOUS
 90
40
 70
0
 10
143.3295023266
 20
111.8375188758
 10
143.2694717366
 20
111.8348728988
 10
143.2125382432
 20
111.8271596411
 10
143.1587018464
 20
111.8143791026
 10
143.1080954595
 20
111.7966470654
 10
143.0605861692
 20
111.7738477474
 10
143.0157752358
 20
111.7456338023
 10
142.9734246394
 20
111.7119071993
 10
142.9337724
 20
111.6727659693
 10
142.8971338372
 20
111.6281568583
 10
142.8634637237
 20
111.5776787483
 10
142.8328072868
 20
111.5217327574
 10
142.805615529
 20
111.4614689863
 10
142.782055154
 20
111.3971583761
 10
142.7619594579
 20
111.3285299857
 10
142.7452793313
 20
111.2559210929
 10
142.7320003562
 20
111.1786478523
 10
142.7221369505
 20
111.0973941094
 10
142.7156832584
 20
111.0145486779
 10
142.7126784389
 20
110.9294031124
 10
142.7130833331
 20
110.8426658583
 10
142.7167746082
 20
110.7588510657
 10
142.723642282
 20
110.6792410268
 10
142.7337963367
 20
110.6025534494
 10
142.7474433857
 20
110.5294556067
 10
142.7646760738
 20
110.4599164523
 10
142.7854017561
 20
110.3939670326
 10
142.8095491111
 20
110.3323677602
 10
142.837295903
 20
110.2750611137
 10
142.8684643676
 20
110.2221046145
 10
142.9024498903
 20
110.1744312388
 10
142.9390461211
 20
110.1324399284
 10
142.9784594101
 20
110.0957317416
 10
143.020704193
 20
110.0640428292
 10
143.0655425433
 20
110.037309452
 10
143.1132123876
 20
110.0155953492
 10
143.1644419413
 20
109.9988278889
 10
143.2194739427
 20
109.9869828605
 10
143.2780656534
 20
109.9800844748
 10
143.3402170735
 20
109.9781327316
  0
LINE
  5
3AC
100
AcDbEntity
  8
0
100
AcDbLine
 62
7
  6
CONTINUOUS
 10
144.1944672275
 20
111.1935528119
 11
144.4272258492
 21
111.1935528119
  0
LINE
  5
3AD
100
AcDbEntity
  8
ASSI
100
AcDbLine
 62
7
  6
CONTINUOUS
 10
144.1944672275
 20
111.1935528119
 11
144.4272258492
 21
111.1935528119
  0
LINE
  5
3AE
100
AcDbEntity
  8
0
100
AcDbLine
 62
7
  6
CONTINUOUS
 10
140.0048126276
 20
111.3073458119
 11
140.4289506276
 21
111.3073458119
  0
LINE
  5
3AF
100
AcDbEntity
  8
ASSI
100
AcDbLine
 62
7
  6
CONTINUOUS
 10
140.0048126276
 20
111.3073458119
 11
140.4289506276
 21
111.3073458119
  0
LINE
  5
3B0
100
AcDbEntity
  8
0
100
AcDbLine
 62
7
  6
CONTINUOUS
 10
140.6720536276
 20
111.8271738119
 11
140.4922716576
 21
111.8271738119
  0
LINE
  5
3B1
100
AcDbEntity
  8
ASSI
100
AcDbLine
 62
7
  6
CONTINUOUS
 10
140.6720536276
 20
111.8271738119
 11
140.4922716576
 21
111.8271738119
  0
LINE
  5
3B2
100
AcDbEntity
  8
0
100
AcDbLine
 62
7
  6
CONTINUOUS
 10
142.2806746276
 20
111.8401048119
 11
142.0884876276
 21
111.8401048119
  0
LINE
  5
3B3
100
AcDbEntity
  8
ASSI
100
AcDbLine
 62
7
  6
CONTINUOUS
 10
142.2806746276
 20
111.8401048119
 11
142.0884876276
 21
111.8401048119
  0
LWPOLYLINE
  5
3B4
100
AcDbEntity
  8
0
100
AcDbPolyline
 62
7
  6
CONTINUOUS
 90
10
 70
0
 10
143.3896421119
 20
111.6281973015
 10
143.425564295
 20
111.6223712679
 10
143.4601389638
 20
111.6129534641
 10
143.4924956113
 20
111.5995218184
 10
143.5224497469
 20
111.5820108203
 10
143.5501858612
 20
111.5604859803
 10
143.5753869189
 20
111.5347217586
 10
143.5979472417
 20
111.5046429753
 10
143.6179725079
 20
111.4703248104
 10
143.6354627176
 20
111.4317672637
  0
LWPOLYLINE
  5
3B5
100
AcDbEntity
  8
ASSI
100
AcDbPolyline
 62
7
  6
CONTINUOUS
 90
10
 70
0
 10
143.3896421119
 20
111.6281973015
 10
143.425564295
 20
111.6223712679
 10
143.4601389638
 20
111.6129534641
 10
143.4924956113
 20
111.5995218184
 10
143.5224497469
 20
111.5820108203
 10
143.5501858612
 20
111.5604859803
 10
143.5753869189
 20
111.5347217586
 10
143.5979472417
 20
111.5046429753
 10
143.6179725079
 20
111.4703248104
 10
143.6354627176
 20
111.4317672637
  0
LWPOLYLINE
  5
3B6
100
AcDbEntity
  8
0
100
AcDbPolyline
 62
7
  6
CONTINUOUS
 90
10
 70
0
 10
143.6354627176
 20
111.4317672637
 10
143.6522312244
 20
111.3829086513
 10
143.666818707
 20
111.3320575076
 10
143.6792251654
 20
111.2792138325
 10
143.6893400743
 20
111.2242101566
 10
143.697273959
 20
111.1672139494
 10
143.7033583957
 20
111.1087276195
 10
143.7077039097
 20
111.0489186363
 10
143.7101999758
 20
110.9876195305
 10
143.7108465938
 20
110.9248303019
  0
LWPOLYLINE
  5
3B7
100
AcDbEntity
  8
ASSI
100
AcDbPolyline
 62
7
  6
CONTINUOUS
 90
10
 70
0
 10
143.6354627176
 20
111.4317672637
 10
143.6522312244
 20
111.3829086513
 10
143.666818707
 20
111.3320575076
 10
143.6792251654
 20
111.2792138325
 10
143.6893400743
 20
111.2242101566
 10
143.697273959
 20
111.1672139494
 10
143.7033583957
 20
111.1087276195
 10
143.7077039097
 20
111.0489186363
 10
143.7101999758
 20
110.9876195305
 10
143.7108465938
 20
110.9248303019
  0
LINE
  5
3B8
100
AcDbEntity
  8
ASSI
100
AcDbLine
 62
7
  6
CONTINUOUS
 10
144.3460136276
 20
118.9986968119
 11
144.3460136276
 21
121.4988098119
  0
LINE
  5
3B9
100
AcDbEntity
  8
0
100
AcDbLine
 62
7
  6
CONTINUOUS
 10
144.3902946276
 20
98.0987598119
 11
144.3902946276
 21
102.4987598119
  0
LINE
  5
3BA
100
AcDbEntity
  8
0
100
AcDbLine
 62
7
  6
CONTINUOUS
 10
144.4561416276
 20
116.0737598119
 11
144.4561416276
 21
114.0237598119
  0
LINE
  5
3BB
100
AcDbEntity
  8
ASSI
100
AcDbLine
 62
7
  6
CONTINUOUS
 10
144.4561416276
 20
116.0737598119
 11
144.4561416276
 21
114.0237598119
  0
LINE
  5
3BC
100
AcDbEntity
  8
0
100
AcDbLine
 62
7
  6
CONTINUOUS
 10
144.5825476276
 20
106.3487598119
 11
144.5825476276
 21
105.0491048119
  0
LINE
  5
3BD
100
AcDbEntity
  8
ASSI
100
AcDbLine
 62
7
  6
CONTINUOUS
 10
144.5825476276
 20
106.3487598119
 11
144.5825476276
 21
105.0491048119
  0
LINE
  5
3BE
100
AcDbEntity
  8
0
100
AcDbLine
 62
7
  6
CONTINUOUS
 10
144.7902946276
 20
98.0987598119
 11
144.7902946276
 21
102.4987598119
  0
LINE
  5
3BF
100
AcDbEntity
  8
0
100
AcDbLine
 62
7
  6
CONTINUOUS
 10
144.7920036276
 20
104.7487598119
 11
144.7920036276
 21
106.3487598119
  0
LINE
  5
3C0
100
AcDbEntity
  8
ASSI
100
AcDbLine
 62
7
  6
CONTINUOUS
 10
144.7920036276
 20
104.7487598119
 11
144.7920036276
 21
106.3487598119
  0
LINE
  5
3C1
100
AcDbEntity
  8
0
100
AcDbLine
 62
7
  6
CONTINUOUS
 10
144.8678696276
 20
114.0237598119
 11
144.8678696276
 21
115.7394708119
  0
LINE
  5
3C2
100
AcDbEntity
  8
ASSI
100
AcDbLine
 62
7
  6
CONTINUOUS
 10
144.8678696276
 20
114.0237598119
 11
144.8678696276
 21
115.7394708119
  0
LINE
  5
3C3
100
AcDbEntity
  8
0
100
AcDbLine
 62
7
  6
CONTINUOUS
 10
145.1902946276
 20
98.0987598119
 11
145.1902946276
 21
102.4987598119
  0
LINE
  5
3C4
100
AcDbEntity
  8
0
100
AcDbLine
 62
7
  6
CONTINUOUS
 10
145.3918816276
 20
110.0271738119
 11
145.3918816276
 21
110.2418288119
  0
LINE
  5
3C5
100
AcDbEntity
  8
ASSI
100
AcDbLine
 62
7
  6
CONTINUOUS
 10
145.3918816276
 20
110.0271738119
 11
145.3918816276
 21
110.2418288119
  0
LINE
  5
3C6
100
AcDbEntity
  8
0
100
AcDbLine
 62
7
  6
CONTINUOUS
 10
145.5902946276
 20
98.0987598119
 11
145.5902946276
 21
102.4987598119
  0
LWPOLYLINE
  5
3C7
100
AcDbEntity
  8
0
100
AcDbPolyline
 62
7
  6
CONTINUOUS
 90
10
 70
0
 10
145.1487776283
 20
111.2908998278
 10
145.1477346921
 20
111.264549419
 10
145.1439943837
 20
111.2376902192
 10
145.137556703
 20
111.2103222282
 10
145.1283014428
 20
111.1819066012
 10
145.1163488103
 20
111.1529821831
 10
145.1020594279
 20
111.125165509
 10
145.0855535029
 20
111.0989954238
 10
145.0667108279
 20
111.0739330826
 10
145.0455314029
 20
111.0499784854
  0
LWPOLYLINE
  5
3C8
100
AcDbEntity
  8
ASSI
100
AcDbPolyline
 62
7
  6
CONTINUOUS
 90
10
 70
0
 10
145.1487776283
 20
111.2908998278
 10
145.1477346921
 20
111.264549419
 10
145.1439943837
 20
111.2376902192
 10
145.137556703
 20
111.2103222282
 10
145.1283014428
 20
111.1819066012
 10
145.1163488103
 20
111.1529821831
 10
145.1020594279
 20
111.125165509
 10
145.0855535029
 20
111.0989954238
 10
145.0667108279
 20
111.0739330826
 10
145.0455314029
 20
111.0499784854
  0
LWPOLYLINE
  5
3C9
100
AcDbEntity
  8
0
100
AcDbPolyline
 62
7
  6
CONTINUOUS
 90
31
 70
0
 10
144.4272258492
 20
111.1935528119
 10
144.4292245469
 20
111.2438946976
 10
144.4340541462
 20
111.2919239894
 10
144.441714647
 20
111.3376406873
 10
144.4520333808
 20
111.3814518475
 10
144.4651830162
 20
111.4229504138
 10
144.4816815586
 20
111.4609152174
 10
144.5020641052
 20
111.4950633666
 10
144.5257955589
 20
111.5256777532
 10
144.5517886331
 20
111.5523858841
 10
144.5795762324
 20
111.5749121292
 10
144.6096254522
 20
111.5935321186
 10
144.6422502925
 20
111.6087002497
 10
144.67792947
 20
111.62053365
 10
144.716184268
 20
111.6289151921
 10
144.7558925365
 20
111.6339478908
 10
144.7977260845
 20
111.6358633433
 10
144.8410131029
 20
111.6344299525
 10
144.8826160152
 20
111.6290559418
 10
144.9219624606
 20
111.619412229
 10
144.9596247998
 20
111.6058278963
 10
144.9941825376
 20
111.588698413
 10
145.025252034
 20
111.5680152063
 10
145.0532169291
 20
111.543786849
 10
145.0778076481
 20
111.5164345286
 10
145.0991260916
 20
111.4859749343
 10
145.117070359
 20
111.4523913769
 10
145.131065174
 20
111.4160549757
 10
145.1409187779
 20
111.3770894369
 10
145.1468229293
 20
111.3353710543
 10
145.1487776283
 20
111.2908998278
  0
LWPOLYLINE
  5
3CA
100
AcDbEntity
  8
ASSI
100
AcDbPolyline
 62
7
  6
CONTINUOUS
 90
31
 70
0
 10
144.4272258492
 20
111.1935528119
 10
144.4292245469
 20
111.2438946976
 10
144.4340541462
 20
111.2919239894
 10
144.441714647
 20
111.3376406873
 10
144.4520333808
 20
111.3814518475
 10
144.4651830162
 20
111.4229504138
 10
144.4816815586
 20
111.4609152174
 10
144.5020641052
 20
111.4950633666
 10
144.5257955589
 20
111.5256777532
 10
144.5517886331
 20
111.5523858841
 10
144.5795762324
 20
111.5749121292
 10
144.6096254522
 20
111.5935321186
 10
144.6422502925
 20
111.6087002497
 10
144.67792947
 20
111.62053365
 10
144.716184268
 20
111.6289151921
 10
144.7558925365
 20
111.6339478908
 10
144.7977260845
 20
111.6358633433
 10
144.8410131029
 20
111.6344299525
 10
144.8826160152
 20
111.6290559418
 10
144.9219624606
 20
111.619412229
 10
144.9596247998
 20
111.6058278963
 10
144.9941825376
 20
111.588698413
 10
145.025252034
 20
111.5680152063
 10
145.0532169291
 20
111.543786849
 10
145.0778076481
 20
111.5164345286
 10
145.0991260916
 20
111.4859749343
 10
145.117070359
 20
111.4523913769
 10
145.131065174
 20
111.4160549757
 10
145.1409187779
 20
111.3770894369
 10
145.1468229293
 20
111.3353710543
 10
145.1487776283
 20
111.2908998278
  0
LWPOLYLINE
  5
3CB
100
AcDbEntity
  8
0
100
AcDbPolyline
 62
7
  6
CONTINUOUS
 90
12
 70
0
 10
144.403949874
 20
110.2418288119
 10
144.414775564
 20
110.2786603163
 10
144.4296846968
 20
110.3149173487
 10
144.4486772722
 20
110.3505999093
 10
144.4719146814
 20
110.3859485973
 10
144.4992355334
 20
110.4207228134
 10
144.5301556546
 20
110.4542007593
 10
144.564850182
 20
110.4860741362
 10
144.6031439786
 20
110.5166512428
 10
144.6440274596
 20
110.5461351775
 10
144.6875612078
 20
110.5741899706
 10
144.7336846403
 20
110.6011515917
  0
LWPOLYLINE
  5
3CC
100
AcDbEntity
  8
ASSI
100
AcDbPolyline
 62
7
  6
CONTINUOUS
 90
12
 70
0
 10
144.403949874
 20
110.2418288119
 10
144.414775564
 20
110.2786603163
 10
144.4296846968
 20
110.3149173487
 10
144.4486772722
 20
110.3505999093
 10
144.4719146814
 20
110.3859485973
 10
144.4992355334
 20
110.4207228134
 10
144.5301556546
 20
110.4542007593
 10
144.564850182
 20
110.4860741362
 10
144.6031439786
 20
110.5166512428
 10
144.6440274596
 20
110.5461351775
 10
144.6875612078
 20
110.5741899706
 10
144.7336846403
 20
110.6011515917
  0
LWPOLYLINE
  5
3CD
100
AcDbEntity
  8
0
100
AcDbPolyline
 62
7
  6
CONTINUOUS
 90
10
 70
0
 10
143.6065699306
 20
110.3414992114
 10
143.5825139393
 20
110.308607777
 10
143.556644374
 20
110.2795995017
 10
143.5289612349
 20
110.2544743855
 10
143.4994047647
 20
110.233244923
 10
143.4680347207
 20
110.2158986196
 10
143.435030374
 20
110.2023979909
 10
143.4004514815
 20
110.1927305421
 10
143.3642382863
 20
110.1869087681
 10
143.3263907884
 20
110.1849326689
  0
LWPOLYLINE
  5
3CE
100
AcDbEntity
  8
ASSI
100
AcDbPolyline
 62
7
  6
CONTINUOUS
 90
10
 70
0
 10
143.6065699306
 20
110.3414992114
 10
143.5825139393
 20
110.308607777
 10
143.556644374
 20
110.2795995017
 10
143.5289612349
 20
110.2544743855
 10
143.4994047647
 20
110.233244923
 10
143.4680347207
 20
110.2158986196
 10
143.435030374
 20
110.2023979909
 10
143.4004514815
 20
110.1927305421
 10
143.3642382863
 20
110.1869087681
 10
143.3263907884
 20
110.1849326689
  0
LINE
  5
3CF
100
AcDbEntity
  8
0
100
AcDbLine
 62
7
  6
CONTINUOUS
 10
139.0897116276
 20
114.0237598119
 11
139.5298296276
 21
114.0237598119
  0
LINE
  5
3D0
100
AcDbEntity
  8
ASSI
100
AcDbLine
 62
7
  6
CONTINUOUS
 10
139.0897116276
 20
114.0237598119
 11
139.5298296276
 21
114.0237598119
  0
LINE
  5
3D1
100
AcDbEntity
  8
0
100
AcDbLine
 62
7
  6
CONTINUOUS
 10
140.8359886276
 20
114.0237598119
 11
142.0346056276
 21
114.0237598119
  0
LINE
  5
3D2
100
AcDbEntity
  8
ASSI
100
AcDbLine
 62
7
  6
CONTINUOUS
 10
140.8359886276
 20
114.0237598119
 11
142.0346056276
 21
114.0237598119
  0
LINE
  5
3D3
100
AcDbEntity
  8
0
100
AcDbLine
 62
7
  6
CONTINUOUS
 10
142.2557066276
 20
114.0237598119
 11
142.6759206276
 21
114.0237598119
  0
LINE
  5
3D4
100
AcDbEntity
  8
ASSI
100
AcDbLine
 62
7
  6
CONTINUOUS
 10
142.2557066276
 20
114.0237598119
 11
142.6759206276
 21
114.0237598119
  0
LINE
  5
3D5
100
AcDbEntity
  8
0
100
AcDbLine
 62
7
  6
CONTINUOUS
 10
143.7889056276
 20
114.0237598119
 11
144.2318786276
 21
114.0237598119
  0
LINE
  5
3D6
100
AcDbEntity
  8
ASSI
100
AcDbLine
 62
7
  6
CONTINUOUS
 10
143.7889056276
 20
114.0237598119
 11
144.2318786276
 21
114.0237598119
  0
LINE
  5
3D7
100
AcDbEntity
  8
0
100
AcDbLine
 62
7
  6
CONTINUOUS
 10
144.4561416276
 20
114.0237598119
 11
144.8678696276
 21
114.0237598119
  0
LINE
  5
3D8
100
AcDbEntity
  8
ASSI
100
AcDbLine
 62
7
  6
CONTINUOUS
 10
144.4561416276
 20
114.0237598119
 11
144.8678696276
 21
114.0237598119
  0
LINE
  5
3D9
100
AcDbEntity
  8
0
100
AcDbLine
 62
7
  6
CONTINUOUS
 10
145.6827626276
 20
114.0237598119
 11
146.3074146276
 21
114.0237598119
  0
LINE
  5
3DA
100
AcDbEntity
  8
ASSI
100
AcDbLine
 62
7
  6
CONTINUOUS
 10
145.6827626276
 20
114.0237598119
 11
146.3074146276
 21
114.0237598119
  0
LINE
  5
3DB
100
AcDbEntity
  8
0
100
AcDbLine
 62
7
  6
CONTINUOUS
 10
146.5147056276
 20
114.0237598119
 11
146.9349196276
 21
114.0237598119
  0
LINE
  5
3DC
100
AcDbEntity
  8
ASSI
100
AcDbLine
 62
7
  6
CONTINUOUS
 10
146.5147056276
 20
114.0237598119
 11
146.9349196276
 21
114.0237598119
  0
LINE
  5
3DD
100
AcDbEntity
  8
0
100
AcDbLine
 62
7
  6
CONTINUOUS
 10
148.0480596276
 20
114.0237598119
 11
148.4908776276
 21
114.0237598119
  0
LINE
  5
3DE
100
AcDbEntity
  8
ASSI
100
AcDbLine
 62
7
  6
CONTINUOUS
 10
148.0480596276
 20
114.0237598119
 11
148.4908776276
 21
114.0237598119
  0
LINE
  5
3DF
100
AcDbEntity
  8
0
100
AcDbLine
 62
7
  6
CONTINUOUS
 10
142.0346056276
 20
114.3644358119
 11
141.2761066276
 21
114.3644358119
  0
LINE
  5
3E0
100
AcDbEntity
  8
ASSI
100
AcDbLine
 62
7
  6
CONTINUOUS
 10
142.0346056276
 20
114.3644358119
 11
141.2761066276
 21
114.3644358119
  0
LWPOLYLINE
  5
3E1
100
AcDbEntity
  8
0
100
AcDbPolyline
 62
7
  6
CONTINUOUS
 90
28
 70
0
 10
145.2564082902
 20
111.6745474509
 10
145.2264732394
 20
111.7063576661
 10
145.1922565614
 20
111.7350766116
 10
145.1537582562
 20
111.7607042875
 10
145.1106491577
 20
111.7835197273
 10
145.063258432
 20
111.8032438974
 10
145.0125735778
 20
111.819039697
 10
144.9583942887
 20
111.8305762238
 10
144.9009208711
 20
111.83818438
 10
144.8417417429
 20
111.8420197715
 10
144.7800015813
 20
111.8423699456
 10
144.716555709
 20
111.8389473549
 10
144.6555585122
 20
111.8310449629
 10
144.5977993011
 20
111.8183347816
 10
144.5424887655
 20
111.8011447991
 10
144.4914133611
 20
111.7797519431
 10
144.4453442948
 20
111.7542749372
 10
144.4035103596
 20
111.7245950578
 10
144.3653843906
 20
111.6906330629
 10
144.3307334474
 20
111.652470786
 10
144.2997904704
 20
111.6100263936
 10
144.2727271155
 20
111.5629751421
 10
144.2495152363
 20
111.5108280912
 10
144.2301829794
 20
111.4540741814
 10
144.2149864404
 20
111.3938554907
 10
144.2040109847
 20
111.3305527119
 10
144.1971712471
 20
111.2637851523
 10
144.1944672275
 20
111.1935528119
  0
LWPOLYLINE
  5
3E2
100
AcDbEntity
  8
ASSI
100
AcDbPolyline
 62
7
  6
CONTINUOUS
 90
28
 70
0
 10
145.2564082902
 20
111.6745474509
 10
145.2264732394
 20
111.7063576661
 10
145.1922565614
 20
111.7350766116
 10
145.1537582562
 20
111.7607042875
 10
145.1106491577
 20
111.7835197273
 10
145.063258432
 20
111.8032438974
 10
145.0125735778
 20
111.819039697
 10
144.9583942887
 20
111.8305762238
 10
144.9009208711
 20
111.83818438
 10
144.8417417429
 20
111.8420197715
 10
144.7800015813
 20
111.8423699456
 10
144.716555709
 20
111.8389473549
 10
144.6555585122
 20
111.8310449629
 10
144.5977993011
 20
111.8183347816
 10
144.5424887655
 20
111.8011447991
 10
144.4914133611
 20
111.7797519431
 10
144.4453442948
 20
111.7542749372
 10
144.4035103596
 20
111.7245950578
 10
144.3653843906
 20
111.6906330629
 10
144.3307334474
 20
111.652470786
 10
144.2997904704
 20
111.6100263936
 10
144.2727271155
 20
111.5629751421
 10
144.2495152363
 20
111.5108280912
 10
144.2301829794
 20
111.4540741814
 10
144.2149864404
 20
111.3938554907
 10
144.2040109847
 20
111.3305527119
 10
144.1971712471
 20
111.2637851523
 10
144.1944672275
 20
111.1935528119
  0
LINE
  5
3E3
100
AcDbEntity
  8
0
100
AcDbLine
 62
7
  6
CONTINUOUS
 10
144.2318786276
 20
114.0237598119
 11
143.5192036276
 21
116.0737598119
  0
LINE
  5
3E4
100
AcDbEntity
  8
ASSI
100
AcDbLine
 62
7
  6
CONTINUOUS
 10
144.2318786276
 20
114.0237598119
 11
143.5192036276
 21
116.0737598119
  0
LINE
  5
3E5
100
AcDbEntity
  8
0
100
AcDbLine
 62
7
  6
CONTINUOUS
 10
143.6412486276
 20
114.4582458119
 11
143.7889056276
 21
114.0237598119
  0
LINE
  5
3E6
100
AcDbEntity
  8
ASSI
100
AcDbLine
 62
7
  6
CONTINUOUS
 10
143.6412486276
 20
114.4582458119
 11
143.7889056276
 21
114.0237598119
  0
LINE
  5
3E7
100
AcDbEntity
  8
0
100
AcDbLine
 62
7
  6
CONTINUOUS
 10
143.2467446276
 20
115.6820268119
 11
143.5305436276
 21
114.7989228119
  0
LINE
  5
3E8
100
AcDbEntity
  8
ASSI
100
AcDbLine
 62
7
  6
CONTINUOUS
 10
143.2467446276
 20
115.6820268119
 11
143.5305436276
 21
114.7989228119
  0
LINE
  5
3E9
100
AcDbEntity
  8
ASSI
100
AcDbLine
 62
7
  6
CONTINUOUS
 10
142.4005066276
 20
120.6473538119
 11
142.8732446276
 21
118.9986968119
  0
LINE
  5
3EA
100
AcDbEntity
  8
ASSI
100
AcDbLine
 62
7
  6
CONTINUOUS
 10
143.1232506276
 20
119.8706468119
 11
142.6563816276
 21
121.4988098119
  0
LWPOLYLINE
  5
3EB
100
AcDbEntity
  8
0
100
AcDbPolyline
 62
7
  6
CONTINUOUS
 90
33
 70
0
 10
145.6659954144
 20
110.6059154939
 10
145.6787278877
 20
110.5371982172
 10
145.6947033432
 20
110.4718730851
 10
145.7142787988
 20
110.4108524941
 10
145.7373867138
 20
110.3545336259
 10
145.7640946289
 20
110.3025192988
 10
145.7949621839
 20
110.254530365
 10
145.8301655578
 20
110.210433556
 10
145.8695285715
 20
110.1703621401
 10
145.9130823273
 20
110.1344367747
 10
145.9610168703
 20
110.1021575945
 10
146.0131421553
 20
110.0740244647
 10
146.0689191495
 20
110.0516576383
 10
146.1295818306
 20
110.0354585066
 10
146.1938962208
 20
110.0250256783
 10
146.2576213541
 20
110.0207752312
 10
146.3203041221
 20
110.0230073432
 10
146.3823976331
 20
110.0314218365
 10
146.4410202459
 20
110.0455342559
 10
146.4952887442
 20
110.0653839416
 10
146.5460863443
 20
110.0909315534
 10
146.5931810537
 20
110.1215746152
 10
146.6365064211
 20
110.1568847861
 10
146.6761288979
 20
110.1972904071
 10
146.7120158459
 20
110.2434740245
 10
146.7448500854
 20
110.2962007575
 10
146.7739487962
 20
110.3547054871
 10
146.797230879
 20
110.4173754024
 10
146.8142444193
 20
110.4855028612
 10
146.8254413315
 20
110.5577955058
 10
146.8300962598
 20
110.6287634517
 10
146.8276401041
 20
110.6975997021
 10
146.8186419645
 20
110.7651112538
  0
LWPOLYLINE
  5
3EC
100
AcDbEntity
  8
ASSI
100
AcDbPolyline
 62
7
  6
CONTINUOUS
 90
33
 70
0
 10
145.6659954144
 20
110.6059154939
 10
145.6787278877
 20
110.5371982172
 10
145.6947033432
 20
110.4718730851
 10
145.7142787988
 20
110.4108524941
 10
145.7373867138
 20
110.3545336259
 10
145.7640946289
 20
110.3025192988
 10
145.7949621839
 20
110.254530365
 10
145.8301655578
 20
110.210433556
 10
145.8695285715
 20
110.1703621401
 10
145.9130823273
 20
110.1344367747
 10
145.9610168703
 20
110.1021575945
 10
146.0131421553
 20
110.0740244647
 10
146.0689191495
 20
110.0516576383
 10
146.1295818306
 20
110.0354585066
 10
146.1938962208
 20
110.0250256783
 10
146.2576213541
 20
110.0207752312
 10
146.3203041221
 20
110.0230073432
 10
146.3823976331
 20
110.0314218365
 10
146.4410202459
 20
110.0455342559
 10
146.4952887442
 20
110.0653839416
 10
146.5460863443
 20
110.0909315534
 10
146.5931810537
 20
110.1215746152
 10
146.6365064211
 20
110.1568847861
 10
146.6761288979
 20
110.1972904071
 10
146.7120158459
 20
110.2434740245
 10
146.7448500854
 20
110.2962007575
 10
146.7739487962
 20
110.3547054871
 10
146.797230879
 20
110.4173754024
 10
146.8142444193
 20
110.4855028612
 10
146.8254413315
 20
110.5577955058
 10
146.8300962598
 20
110.6287634517
 10
146.8276401041
 20
110.6975997021
 10
146.8186419645
 20
110.7651112538
  0
LINE
  5
3ED
100
AcDbEntity
  8
0
100
AcDbLine
 62
7
  6
CONTINUOUS
 10
145.7836286276
 20
106.3487598119
 11
145.7836286276
 21
104.7487598119
  0
LINE
  5
3EE
100
AcDbEntity
  8
ASSI
100
AcDbLine
 62
7
  6
CONTINUOUS
 10
145.7836286276
 20
106.3487598119
 11
145.7836286276
 21
104.7487598119
  0
LINE
  5
3EF
100
AcDbEntity
  8
0
100
AcDbLine
 62
7
  6
CONTINUOUS
 10
145.8956856276
 20
116.0737598119
 11
145.8956856276
 21
114.4492318119
  0
LINE
  5
3F0
100
AcDbEntity
  8
ASSI
100
AcDbLine
 62
7
  6
CONTINUOUS
 10
145.8956856276
 20
116.0737598119
 11
145.8956856276
 21
114.4492318119
  0
LINE
  5
3F1
100
AcDbEntity
  8
0
100
AcDbLine
 62
7
  6
CONTINUOUS
 10
145.9902946276
 20
98.0987598119
 11
145.9902946276
 21
102.4987598119
  0
LINE
  5
3F2
100
AcDbEntity
  8
0
100
AcDbLine
 62
7
  6
CONTINUOUS
 10
145.9998386276
 20
104.7487598119
 11
145.9998386276
 21
106.3487598119
  0
LINE
  5
3F3
100
AcDbEntity
  8
ASSI
100
AcDbLine
 62
7
  6
CONTINUOUS
 10
145.9998386276
 20
104.7487598119
 11
145.9998386276
 21
106.3487598119
  0
LINE
  5
3F4
100
AcDbEntity
  8
0
100
AcDbLine
 62
7
  6
CONTINUOUS
 10
146.2316026276
 20
106.3487598119
 11
146.2316026276
 21
106.1571218119
  0
LINE
  5
3F5
100
AcDbEntity
  8
ASSI
100
AcDbLine
 62
7
  6
CONTINUOUS
 10
146.2316026276
 20
106.3487598119
 11
146.2316026276
 21
106.1571218119
  0
LINE
  5
3F6
100
AcDbEntity
  8
0
100
AcDbLine
 62
7
  6
CONTINUOUS
 10
146.3074146276
 20
114.0237598119
 11
146.3074146276
 21
116.0737598119
  0
LINE
  5
3F7
100
AcDbEntity
  8
ASSI
100
AcDbLine
 62
7
  6
CONTINUOUS
 10
146.3074146276
 20
114.0237598119
 11
146.3074146276
 21
116.0737598119
  0
LINE
  5
3F8
100
AcDbEntity
  8
0
100
AcDbLine
 62
7
  6
CONTINUOUS
 10
146.3902946276
 20
98.0987598119
 11
146.3902946276
 21
102.4987598119
  0
LINE
  5
3F9
100
AcDbEntity
  8
0
100
AcDbLine
 62
7
  6
CONTINUOUS
 10
146.7731316276
 20
106.1571218119
 11
146.7731316276
 21
104.7487598119
  0
LINE
  5
3FA
100
AcDbEntity
  8
ASSI
100
AcDbLine
 62
7
  6
CONTINUOUS
 10
146.7731316276
 20
106.1571218119
 11
146.7731316276
 21
104.7487598119
  0
LINE
  5
3FB
100
AcDbEntity
  8
0
100
AcDbLine
 62
7
  6
CONTINUOUS
 10
146.7902946276
 20
98.0987598119
 11
146.7902946276
 21
102.4987598119
  0
LINE
  5
3FC
100
AcDbEntity
  8
0
100
AcDbLine
 62
7
  6
CONTINUOUS
 10
146.9892636276
 20
104.7487598119
 11
146.9892636276
 21
106.1571218119
  0
LINE
  5
3FD
100
AcDbEntity
  8
ASSI
100
AcDbLine
 62
7
  6
CONTINUOUS
 10
146.9892636276
 20
104.7487598119
 11
146.9892636276
 21
106.1571218119
  0
LINE
  5
3FE
100
AcDbEntity
  8
ASSI
100
AcDbLine
 62
7
  6
CONTINUOUS
 10
147.1181446276
 20
121.4988158119
 11
147.1181446276
 21
118.9987038119
  0
LINE
  5
3FF
100
AcDbEntity
  8
0
100
AcDbLine
 62
7
  6
CONTINUOUS
 10
147.1902946276
 20
98.0987598119
 11
147.1902946276
 21
102.4987598119
  0
LWPOLYLINE
  5
400
100
AcDbEntity
  8
0
100
AcDbPolyline
 62
7
  6
CONTINUOUS
 90
34
 70
0
 10
145.8639530647
 20
110.9762906455
 10
145.8650751201
 20
111.0408175407
 10
145.8684767144
 20
111.1029399482
 10
145.8741578478
 20
111.162657868
 10
145.8818872383
 20
111.2202151704
 10
145.8918961677
 20
111.2753679851
 10
145.9048784823
 20
111.3273847013
 10
145.9212931793
 20
111.3761581036
 10
145.9406812615
 20
111.4217954074
 10
145.9623595832
 20
111.4638866484
 10
145.9863607267
 20
111.5024468866
 10
146.0126521098
 20
111.5374610619
 10
146.0404528402
 20
111.5684740296
 10
146.0694921761
 20
111.5953931035
 10
146.1000408594
 20
111.6183109696
 10
146.1321302241
 20
111.6370505417
 10
146.1659898065
 20
111.6515306883
 10
146.2013900704
 20
111.6618325409
 10
146.2376737415
 20
111.668022407
 10
146.2756953529
 20
111.669999321
 10
146.3146003715
 20
111.6678642485
 10
146.3511679246
 20
111.6619863948
 10
146.3845264505
 20
111.6519662235
 10
146.4155475109
 20
111.638203271
 10
146.443624918
 20
111.6222653511
 10
146.468409066
 20
111.604673139
 10
146.4902495608
 20
111.5849059596
 10
146.5095890324
 20
111.5629696016
 10
146.5262667087
 20
111.5388097142
 10
146.5404433618
 20
111.5124806483
 10
146.5530439382
 20
111.4841512452
 10
146.5643767533
 20
111.4538777854
 10
146.5741334916
 20
111.4216039884
 10
146.5823141532
 20
111.3873298542
  0
LWPOLYLINE
  5
401
100
AcDbEntity
  8
ASSI
100
AcDbPolyline
 62
7
  6
CONTINUOUS
 90
34
 70
0
 10
145.8639530647
 20
110.9762906455
 10
145.8650751201
 20
111.0408175407
 10
145.8684767144
 20
111.1029399482
 10
145.8741578478
 20
111.162657868
 10
145.8818872383
 20
111.2202151704
 10
145.8918961677
 20
111.2753679851
 10
145.9048784823
 20
111.3273847013
 10
145.9212931793
 20
111.3761581036
 10
145.9406812615
 20
111.4217954074
 10
145.9623595832
 20
111.4638866484
 10
145.9863607267
 20
111.5024468866
 10
146.0126521098
 20
111.5374610619
 10
146.0404528402
 20
111.5684740296
 10
146.0694921761
 20
111.5953931035
 10
146.1000408594
 20
111.6183109696
 10
146.1321302241
 20
111.6370505417
 10
146.1659898065
 20
111.6515306883
 10
146.2013900704
 20
111.6618325409
 10
146.2376737415
 20
111.668022407
 10
146.2756953529
 20
111.669999321
 10
146.3146003715
 20
111.6678642485
 10
146.3511679246
 20
111.6619863948
 10
146.3845264505
 20
111.6519662235
 10
146.4155475109
 20
111.638203271
 10
146.443624918
 20
111.6222653511
 10
146.468409066
 20
111.604673139
 10
146.4902495608
 20
111.5849059596
 10
146.5095890324
 20
111.5629696016
 10
146.5262667087
 20
111.5388097142
 10
146.5404433618
 20
111.5124806483
 10
146.5530439382
 20
111.4841512452
 10
146.5643767533
 20
111.4538777854
 10
146.5741334916
 20
111.4216039884
 10
146.5823141532
 20
111.3873298542
  0
LWPOLYLINE
  5
402
100
AcDbEntity
  8
0
100
AcDbPolyline
 62
7
  6
CONTINUOUS
 90
7
 70
0
 10
145.8989950647
 20
110.6315414768
 10
145.9011864316
 20
110.6785003781
 10
145.907128809
 20
110.7226364051
 10
145.9168221971
 20
110.7639495577
 10
145.9303011742
 20
110.8023246735
 10
145.9475311619
 20
110.8378769149
 10
145.9684084249
 20
110.8709517693
  0
LWPOLYLINE
  5
403
100
AcDbEntity
  8
ASSI
100
AcDbPolyline
 62
7
  6
CONTINUOUS
 90
7
 70
0
 10
145.8989950647
 20
110.6315414768
 10
145.9011864316
 20
110.6785003781
 10
145.907128809
 20
110.7226364051
 10
145.9168221971
 20
110.7639495577
 10
145.9303011742
 20
110.8023246735
 10
145.9475311619
 20
110.8378769149
 10
145.9684084249
 20
110.8709517693
  0
LINE
  5
404
100
AcDbEntity
  8
RACCORDO
100
AcDbLine
 62
7
  6
CONTINUOUS
 10
148.4020987457
 20
131.8069654919
 11
148.412570987
 21
131.9756144935
  0
LINE
  5
405
100
AcDbEntity
  8
ASSI
100
AcDbLine
 62
7
  6
CONTINUOUS
 10
148.4020987457
 20
131.8069654919
 11
148.412570987
 21
131.9756144935
  0
LWPOLYLINE
  5
406
100
AcDbEntity
  8
0
100
AcDbPolyline
 62
7
  6
CONTINUOUS
 90
28
 70
0
 10
146.6044921726
 20
110.5967492266
 10
146.6003641068
 20
110.5422248031
 10
146.5919877598
 20
110.4914815694
 10
146.5793631316
 20
110.4445195255
 10
146.5621808047
 20
110.4012795473
 10
146.5407501965
 20
110.3618207588
 10
146.5159995594
 20
110.3263205324
 10
146.4876043417
 20
110.2945354122
 10
146.455889095
 20
110.2667088541
 10
146.4227557264
 20
110.2437485979
 10
146.388923029
 20
110.2260259642
 10
146.3536722097
 20
110.2131696325
 10
146.3167487958
 20
110.204973381
 10
146.2772985343
 20
110.2012547979
 10
146.2361756783
 20
110.202196295
 10
146.1956885138
 20
110.2081388869
 10
146.1559205737
 20
110.2194644455
 10
146.1167883252
 20
110.2357910988
 10
146.0803494556
 20
110.2563142448
 10
146.0471894313
 20
110.2806324958
 10
146.0167227859
 20
110.3091472394
 10
145.9892508073
 20
110.3422580359
 10
145.9644633486
 20
110.3803461304
 10
145.9426705567
 20
110.4230302778
 10
145.9251041596
 20
110.4695663036
 10
145.9121747332
 20
110.5197061496
 10
145.9034717016
 20
110.573697874
 10
145.8989950647
 20
110.6315414768
  0
LWPOLYLINE
  5
407
100
AcDbEntity
  8
ASSI
100
AcDbPolyline
 62
7
  6
CONTINUOUS
 90
28
 70
0
 10
146.6044921726
 20
110.5967492266
 10
146.6003641068
 20
110.5422248031
 10
146.5919877598
 20
110.4914815694
 10
146.5793631316
 20
110.4445195255
 10
146.5621808047
 20
110.4012795473
 10
146.5407501965
 20
110.3618207588
 10
146.5159995594
 20
110.3263205324
 10
146.4876043417
 20
110.2945354122
 10
146.455889095
 20
110.2667088541
 10
146.4227557264
 20
110.2437485979
 10
146.388923029
 20
110.2260259642
 10
146.3536722097
 20
110.2131696325
 10
146.3167487958
 20
110.204973381
 10
146.2772985343
 20
110.2012547979
 10
146.2361756783
 20
110.202196295
 10
146.1956885138
 20
110.2081388869
 10
146.1559205737
 20
110.2194644455
 10
146.1167883252
 20
110.2357910988
 10
146.0803494556
 20
110.2563142448
 10
146.0471894313
 20
110.2806324958
 10
146.0167227859
 20
110.3091472394
 10
145.9892508073
 20
110.3422580359
 10
145.9644633486
 20
110.3803461304
 10
145.9426705567
 20
110.4230302778
 10
145.9251041596
 20
110.4695663036
 10
145.9121747332
 20
110.5197061496
 10
145.9034717016
 20
110.573697874
 10
145.8989950647
 20
110.6315414768
  0
LINE
  5
408
100
AcDbEntity
  8
0
100
AcDbLine
 62
7
  6
CONTINUOUS
 10
147.2018446276
 20
114.7989228119
 11
147.5057816276
 21
115.6819108119
  0
LINE
  5
409
100
AcDbEntity
  8
ASSI
100
AcDbLine
 62
7
  6
CONTINUOUS
 10
147.2018446276
 20
114.7989228119
 11
147.5057816276
 21
115.6819108119
  0
LINE
  5
40A
100
AcDbEntity
  8
0
100
AcDbLine
 62
7
  6
CONTINUOUS
 10
146.9349196276
 20
114.0237598119
 11
147.0882856276
 21
114.4582458119
  0
LINE
  5
40B
100
AcDbEntity
  8
ASSI
100
AcDbLine
 62
7
  6
CONTINUOUS
 10
146.9349196276
 20
114.0237598119
 11
147.0882856276
 21
114.4582458119
  0
LINE
  5
40C
100
AcDbEntity
  8
0
100
AcDbLine
 62
7
  6
CONTINUOUS
 10
147.2558476276
 20
116.0737598119
 11
146.5147056276
 21
114.0237598119
  0
LINE
  5
40D
100
AcDbEntity
  8
ASSI
100
AcDbLine
 62
7
  6
CONTINUOUS
 10
147.2558476276
 20
116.0737598119
 11
146.5147056276
 21
114.0237598119
  0
LWPOLYLINE
  5
40E
100
AcDbEntity
  8
0
100
AcDbPolyline
 62
7
  6
CONTINUOUS
 90
25
 70
0
 10
145.9684084249
 20
110.8709517693
 10
145.9935065937
 20
110.9021395926
 10
146.0222520379
 20
110.9308500288
 10
146.0528201297
 20
110.9556574977
 10
146.084571933
 20
110.9761084412
 10
146.1181463841
 20
110.9926564173
 10
146.1536356641
 20
111.0052365203
 10
146.1919215273
 20
111.0138390611
 10
146.2321222194
 20
111.0184737288
 10
146.2716846592
 20
111.0191046846
 10
146.310267367
 20
111.0156339165
 10
146.3482118223
 20
111.0081594365
 10
146.3839893828
 20
110.9969394416
 10
146.4170972647
 20
110.9819994016
 10
146.4480382518
 20
110.9633138468
 10
146.4767920533
 20
110.9410645653
 10
146.5037212962
 20
110.9151638925
 10
146.5284633536
 20
110.8856994929
 10
146.5499100536
 20
110.8531161483
 10
146.5677912366
 20
110.8174235474
 10
146.5823770623
 20
110.7786120014
 10
146.593369838
 20
110.7370972249
 10
146.6006703329
 20
110.6930177893
 10
146.6043777777
 20
110.6462351232
 10
146.6044921726
 20
110.5967492266
  0
LWPOLYLINE
  5
40F
100
AcDbEntity
  8
ASSI
100
AcDbPolyline
 62
7
  6
CONTINUOUS
 90
25
 70
0
 10
145.9684084249
 20
110.8709517693
 10
145.9935065937
 20
110.9021395926
 10
146.0222520379
 20
110.9308500288
 10
146.0528201297
 20
110.9556574977
 10
146.084571933
 20
110.9761084412
 10
146.1181463841
 20
110.9926564173
 10
146.1536356641
 20
111.0052365203
 10
146.1919215273
 20
111.0138390611
 10
146.2321222194
 20
111.0184737288
 10
146.2716846592
 20
111.0191046846
 10
146.310267367
 20
111.0156339165
 10
146.3482118223
 20
111.0081594365
 10
146.3839893828
 20
110.9969394416
 10
146.4170972647
 20
110.9819994016
 10
146.4480382518
 20
110.9633138468
 10
146.4767920533
 20
110.9410645653
 10
146.5037212962
 20
110.9151638925
 10
146.5284633536
 20
110.8856994929
 10
146.5499100536
 20
110.8531161483
 10
146.5677912366
 20
110.8174235474
 10
146.5823770623
 20
110.7786120014
 10
146.593369838
 20
110.7370972249
 10
146.6006703329
 20
110.6930177893
 10
146.6043777777
 20
110.6462351232
 10
146.6044921726
 20
110.5967492266
  0
LWPOLYLINE
  5
410
100
AcDbEntity
  8
0
100
AcDbPolyline
 62
7
  6
CONTINUOUS
 90
16
 70
0
 10
145.2471343106
 20
110.9286288118
 10
145.2839264935
 20
110.969672055
 10
145.3156371043
 20
111.0126672606
 10
145.3422661428
 20
111.0576144287
 10
145.3637984329
 20
111.1045560525
 10
145.3802491507
 20
111.1534496388
 10
145.3916638248
 20
111.2041677076
 10
145.3981486553
 20
111.2574568997
 10
145.399597442
 20
111.3125705743
 10
145.3957371134
 20
111.3671413293
 10
145.3866295823
 20
111.4205238193
 10
145.3722129358
 20
111.4733633897
 10
145.3520283643
 20
111.5252286746
 10
145.3259229313
 20
111.5759758855
 10
145.2940495733
 20
111.6257488109
 10
145.2564082902
 20
111.6745474509
  0
LWPOLYLINE
  5
411
100
AcDbEntity
  8
ASSI
100
AcDbPolyline
 62
7
  6
CONTINUOUS
 90
16
 70
0
 10
145.2471343106
 20
110.9286288118
 10
145.2839264935
 20
110.969672055
 10
145.3156371043
 20
111.0126672606
 10
145.3422661428
 20
111.0576144287
 10
145.3637984329
 20
111.1045560525
 10
145.3802491507
 20
111.1534496388
 10
145.3916638248
 20
111.2041677076
 10
145.3981486553
 20
111.2574568997
 10
145.399597442
 20
111.3125705743
 10
145.3957371134
 20
111.3671413293
 10
145.3866295823
 20
111.4205238193
 10
145.3722129358
 20
111.4733633897
 10
145.3520283643
 20
111.5252286746
 10
145.3259229313
 20
111.5759758855
 10
145.2940495733
 20
111.6257488109
 10
145.2564082902
 20
111.6745474509
  0
LINE
  5
412
100
AcDbEntity
  8
0
100
AcDbLine
 62
7
  6
CONTINUOUS
 10
137.9902946276
 20
102.0987598119
 11
138.3902946276
 21
102.4987598119
  0
LWPOLYLINE
  5
413
100
AcDbEntity
  8
0
100
AcDbPolyline
 62
7
  6
CONTINUOUS
 90
10
 70
0
 10
145.0455314029
 20
111.0499784854
 10
145.0246635996
 20
111.0302231798
 10
145.0025499918
 20
111.0109993171
 10
144.9791905793
 20
110.9923068973
 10
144.9544199223
 20
110.9742649786
 10
144.9284034608
 20
110.9567545028
 10
144.9016375143
 20
110.9394182958
 10
144.8742875225
 20
110.9221372996
 10
144.8461880458
 20
110.9050305721
 10
144.817339084
 20
110.8880981135
  0
LWPOLYLINE
  5
414
100
AcDbEntity
  8
ASSI
100
AcDbPolyline
 62
7
  6
CONTINUOUS
 90
10
 70
0
 10
145.0455314029
 20
111.0499784854
 10
145.0246635996
 20
111.0302231798
 10
145.0025499918
 20
111.0109993171
 10
144.9791905793
 20
110.9923068973
 10
144.9544199223
 20
110.9742649786
 10
144.9284034608
 20
110.9567545028
 10
144.9016375143
 20
110.9394182958
 10
144.8742875225
 20
110.9221372996
 10
144.8461880458
 20
110.9050305721
 10
144.817339084
 20
110.8880981135
  0
LWPOLYLINE
  5
415
100
AcDbEntity
  8
0
100
AcDbPolyline
 62
7
  6
CONTINUOUS
 90
16
 70
0
 10
144.5752054386
 20
110.74799843
 10
144.5183110161
 20
110.7134539025
 10
144.4657194229
 20
110.6772993583
 10
144.4174306591
 20
110.6395347972
 10
144.3732889429
 20
110.6002324366
 10
144.3334500561
 20
110.5593200592
 10
144.2983813438
 20
110.5165810131
 10
144.2687947579
 20
110.4721980944
 10
144.2439783465
 20
110.4259885069
 10
144.2222635986
 20
110.3771872102
 10
144.2032155028
 20
110.3255854738
 10
144.1872690706
 20
110.2713920282
 10
144.1740608254
 20
110.2144680242
 10
144.1634696086
 20
110.1547671786
 10
144.155616579
 20
110.0923357745
 10
144.1505017365
 20
110.0271738119
  0
LWPOLYLINE
  5
416
100
AcDbEntity
  8
ASSI
100
AcDbPolyline
 62
7
  6
CONTINUOUS
 90
16
 70
0
 10
144.5752054386
 20
110.74799843
 10
144.5183110161
 20
110.7134539025
 10
144.4657194229
 20
110.6772993583
 10
144.4174306591
 20
110.6395347972
 10
144.3732889429
 20
110.6002324366
 10
144.3334500561
 20
110.5593200592
 10
144.2983813438
 20
110.5165810131
 10
144.2687947579
 20
110.4721980944
 10
144.2439783465
 20
110.4259885069
 10
144.2222635986
 20
110.3771872102
 10
144.2032155028
 20
110.3255854738
 10
144.1872690706
 20
110.2713920282
 10
144.1740608254
 20
110.2144680242
 10
144.1634696086
 20
110.1547671786
 10
144.155616579
 20
110.0923357745
 10
144.1505017365
 20
110.0271738119
  0
LINE
  5
417
100
AcDbEntity
  8
0
100
AcDbLine
 62
7
  6
CONTINUOUS
 10
144.817339084
 20
110.8880981135
 11
144.5752054386
 21
110.74799843
  0
LINE
  5
418
100
AcDbEntity
  8
ASSI
100
AcDbLine
 62
7
  6
CONTINUOUS
 10
144.817339084
 20
110.8880981135
 11
144.5752054386
 21
110.74799843
  0
LWPOLYLINE
  5
419
100
AcDbEntity
  8
0
100
AcDbPolyline
 62
7
  6
CONTINUOUS
 90
4
 70
0
 10
144.7336846403
 20
110.6011515917
 10
144.8297294473
 20
110.6558320077
 10
144.8796508217
 20
110.6835508026
 10
144.9309705471
 20
110.7113874324
  0
LWPOLYLINE
  5
41A
100
AcDbEntity
  8
ASSI
100
AcDbPolyline
 62
7
  6
CONTINUOUS
 90
4
 70
0
 10
144.7336846403
 20
110.6011515917
 10
144.8297294473
 20
110.6558320077
 10
144.8796508217
 20
110.6835508026
 10
144.9309705471
 20
110.7113874324
  0
LWPOLYLINE
  5
41B
100
AcDbEntity
  8
0
100
AcDbPolyline
 62
7
  6
CONTINUOUS
 90
10
 70
0
 10
144.9309705471
 20
110.7113874324
 10
144.9720373491
 20
110.734232042
 10
145.0117176209
 20
110.7573278205
 10
145.0500113627
 20
110.7806747679
 10
145.0870490324
 20
110.804176669
 10
145.122700172
 20
110.827929739
 10
145.156573407
 20
110.8522226237
 10
145.1885382794
 20
110.8771515384
 10
145.2187252472
 20
110.9026202677
 10
145.2471343106
 20
110.9286288118
  0
LWPOLYLINE
  5
41C
100
AcDbEntity
  8
ASSI
100
AcDbPolyline
 62
7
  6
CONTINUOUS
 90
10
 70
0
 10
144.9309705471
 20
110.7113874324
 10
144.9720373491
 20
110.734232042
 10
145.0117176209
 20
110.7573278205
 10
145.0500113627
 20
110.7806747679
 10
145.0870490324
 20
110.804176669
 10
145.122700172
 20
110.827929739
 10
145.156573407
 20
110.8522226237
 10
145.1885382794
 20
110.8771515384
 10
145.2187252472
 20
110.9026202677
 10
145.2471343106
 20
110.9286288118
  0
LWPOLYLINE
  5
41D
100
AcDbEntity
  8
0
100
AcDbPolyline
 62
7
  6
CONTINUOUS
 90
22
 70
0
 10
139.7170393762
 20
114.8131948119
 10
139.7891124177
 20
114.8141360012
 10
139.8588373945
 20
114.8174709874
 10
139.9262143066
 20
114.8231997707
 10
139.991460822
 20
114.8310927958
 10
140.0543592728
 20
114.841379618
 10
140.1142566551
 20
114.854748902
 10
140.1712921186
 20
114.8714328179
 10
140.2253265137
 20
114.8911991957
 10
140.2752893874
 20
114.9140401906
 10
140.3207966055
 20
114.9399324533
 10
140.3622323024
 20
114.9688993332
 10
140.3996784275
 20
115.001003034
 10
140.4330816599
 20
115.0360395271
 10
140.4624953206
 20
115.074212841
 10
140.4881613229
 20
115.1161972649
 10
140.5102848571
 20
115.1624400942
 10
140.5286607329
 20
115.2124940334
 10
140.5429152926
 20
115.2656914844
 10
140.5529239836
 20
115.3218099148
 10
140.5588113585
 20
115.381071857
 10
140.5605774172
 20
115.4434773112
  0
LWPOLYLINE
  5
41E
100
AcDbEntity
  8
ASSI
100
AcDbPolyline
 62
7
  6
CONTINUOUS
 90
22
 70
0
 10
139.7170393762
 20
114.8131948119
 10
139.7891124177
 20
114.8141360012
 10
139.8588373945
 20
114.8174709874
 10
139.9262143066
 20
114.8231997707
 10
139.991460822
 20
114.8310927958
 10
140.0543592728
 20
114.841379618
 10
140.1142566551
 20
114.854748902
 10
140.1712921186
 20
114.8714328179
 10
140.2253265137
 20
114.8911991957
 10
140.2752893874
 20
114.9140401906
 10
140.3207966055
 20
114.9399324533
 10
140.3622323024
 20
114.9688993332
 10
140.3996784275
 20
115.001003034
 10
140.4330816599
 20
115.0360395271
 10
140.4624953206
 20
115.074212841
 10
140.4881613229
 20
115.1161972649
 10
140.5102848571
 20
115.1624400942
 10
140.5286607329
 20
115.2124940334
 10
140.5429152926
 20
115.2656914844
 10
140.5529239836
 20
115.3218099148
 10
140.5588113585
 20
115.381071857
 10
140.5605774172
 20
115.4434773112
  0
LINE
  5
41F
100
AcDbEntity
  8
0
100
AcDbLine
 62
7
  6
CONTINUOUS
 10
142.8292096276
 20
114.4582458119
 11
143.6412486276
 21
114.4582458119
  0
LINE
  5
420
100
AcDbEntity
  8
ASSI
100
AcDbLine
 62
7
  6
CONTINUOUS
 10
142.8292096276
 20
114.4582458119
 11
143.6412486276
 21
114.4582458119
  0
LINE
  5
421
100
AcDbEntity
  8
0
100
AcDbLine
 62
7
  6
CONTINUOUS
 10
147.0882856276
 20
114.4582458119
 11
147.9003246276
 21
114.4582458119
  0
LINE
  5
422
100
AcDbEntity
  8
ASSI
100
AcDbLine
 62
7
  6
CONTINUOUS
 10
147.0882856276
 20
114.4582458119
 11
147.9003246276
 21
114.4582458119
  0
LINE
  5
423
100
AcDbEntity
  8
0
100
AcDbLine
 62
7
  6
CONTINUOUS
 10
147.7895436276
 20
114.7989228119
 11
147.2018446276
 21
114.7989228119
  0
LINE
  5
424
100
AcDbEntity
  8
ASSI
100
AcDbLine
 62
7
  6
CONTINUOUS
 10
147.7895436276
 20
114.7989228119
 11
147.2018446276
 21
114.7989228119
  0
LINE
  5
425
100
AcDbEntity
  8
0
100
AcDbLine
 62
7
  6
CONTINUOUS
 10
143.5305436276
 20
114.7989228119
 11
142.9427686276
 21
114.7989228119
  0
LINE
  5
426
100
AcDbEntity
  8
ASSI
100
AcDbLine
 62
7
  6
CONTINUOUS
 10
143.5305436276
 20
114.7989228119
 11
142.9427686276
 21
114.7989228119
  0
LINE
  5
427
100
AcDbEntity
  8
0
100
AcDbLine
 62
7
  6
CONTINUOUS
 10
139.5298296276
 20
114.8131948119
 11
139.7170393762
 21
114.8131948119
  0
LINE
  5
428
100
AcDbEntity
  8
ASSI
100
AcDbLine
 62
7
  6
CONTINUOUS
 10
139.5298296276
 20
114.8131948119
 11
139.7170393762
 21
114.8131948119
  0
LINE
  5
429
100
AcDbEntity
  8
0
100
AcDbLine
 62
7
  6
CONTINUOUS
 10
139.7865824112
 20
115.1538708119
 11
139.5298296276
 21
115.1538708119
  0
LINE
  5
42A
100
AcDbEntity
  8
ASSI
100
AcDbLine
 62
7
  6
CONTINUOUS
 10
139.7865824112
 20
115.1538708119
 11
139.5298296276
 21
115.1538708119
  0
LINE
  5
42B
100
AcDbEntity
  8
0
100
AcDbLine
 62
7
  6
CONTINUOUS
 10
139.5298296276
 20
115.7330838119
 11
139.7865823987
 21
115.7330838119
  0
LINE
  5
42C
100
AcDbEntity
  8
ASSI
100
AcDbLine
 62
7
  6
CONTINUOUS
 10
139.5298296276
 20
115.7330838119
 11
139.7865823987
 21
115.7330838119
  0
LWPOLYLINE
  5
42D
100
AcDbEntity
  8
0
100
AcDbPolyline
 62
7
  6
CONTINUOUS
 90
16
 70
0
 10
139.7865823987
 20
115.7330838119
 10
139.8201735456
 20
115.7307307207
 10
139.8523615031
 20
115.7269557711
 10
139.8831462711
 20
115.721758963
 10
139.9126781587
 20
115.7157826227
 10
139.9408068568
 20
115.708384424
 10
139.9670814384
 20
115.6976373883
 10
139.9915844125
 20
115.6830538547
 10
140.01423327
 20
115.6651214843
 10
140.0343295574
 20
115.6433762811
 10
140.0519307024
 20
115.6172350715
 10
140.0669792772
 20
115.5872810293
 10
140.0786045451
 20
115.5547996796
 10
140.0865162606
 20
115.5202195309
 10
140.0910046691
 20
115.4831120747
 10
140.0920697708
 20
115.4434773112
  0
LWPOLYLINE
  5
42E
100
AcDbEntity
  8
ASSI
100
AcDbPolyline
 62
7
  6
CONTINUOUS
 90
16
 70
0
 10
139.7865823987
 20
115.7330838119
 10
139.8201735456
 20
115.7307307207
 10
139.8523615031
 20
115.7269557711
 10
139.8831462711
 20
115.721758963
 10
139.9126781587
 20
115.7157826227
 10
139.9408068568
 20
115.708384424
 10
139.9670814384
 20
115.6976373883
 10
139.9915844125
 20
115.6830538547
 10
140.01423327
 20
115.6651214843
 10
140.0343295574
 20
115.6433762811
 10
140.0519307024
 20
115.6172350715
 10
140.0669792772
 20
115.5872810293
 10
140.0786045451
 20
115.5547996796
 10
140.0865162606
 20
115.5202195309
 10
140.0910046691
 20
115.4831120747
 10
140.0920697708
 20
115.4434773112
  0
LINE
  5
42F
100
AcDbEntity
  8
0
100
AcDbLine
 62
7
  6
CONTINUOUS
 10
150.3186356276
 20
106.3487598119
 11
150.9225336276
 21
105.3927708119
  0
LINE
  5
430
100
AcDbEntity
  8
ASSI
100
AcDbLine
 62
7
  6
CONTINUOUS
 10
150.3186356276
 20
106.3487598119
 11
150.9225336276
 21
105.3927708119
  0
LINE
  5
431
100
AcDbEntity
  8
0
100
AcDbLine
 62
7
  6
CONTINUOUS
 10
151.0295456276
 20
105.5798798119
 11
150.5704426276
 21
106.3487598119
  0
LINE
  5
432
100
AcDbEntity
  8
ASSI
100
AcDbLine
 62
7
  6
CONTINUOUS
 10
151.0295456276
 20
105.5798798119
 11
150.5704426276
 21
106.3487598119
  0
LINE
  5
433
100
AcDbEntity
  8
0
100
AcDbLine
 62
7
  6
CONTINUOUS
 10
145.8956856276
 20
114.4492318119
 11
145.1091826276
 21
116.0737598119
  0
LINE
  5
434
100
AcDbEntity
  8
ASSI
100
AcDbLine
 62
7
  6
CONTINUOUS
 10
145.8956856276
 20
114.4492318119
 11
145.1091826276
 21
116.0737598119
  0
LINE
  5
435
100
AcDbEntity
  8
0
100
AcDbLine
 62
7
  6
CONTINUOUS
 10
144.8678696276
 20
115.7394708119
 11
145.6827626276
 21
114.0237598119
  0
LINE
  5
436
100
AcDbEntity
  8
ASSI
100
AcDbLine
 62
7
  6
CONTINUOUS
 10
144.8678696276
 20
115.7394708119
 11
145.6827626276
 21
114.0237598119
  0
LINE
  5
437
100
AcDbEntity
  8
0
100
AcDbLine
 62
7
  6
CONTINUOUS
 10
149.0194846276
 20
104.7487598119
 11
148.4400036276
 21
106.3487598119
  0
LINE
  5
438
100
AcDbEntity
  8
ASSI
100
AcDbLine
 62
7
  6
CONTINUOUS
 10
149.0194846276
 20
104.7487598119
 11
148.4400036276
 21
106.3487598119
  0
LINE
  5
439
100
AcDbEntity
  8
0
100
AcDbLine
 62
7
  6
CONTINUOUS
 10
148.6249906276
 20
105.2144618119
 11
148.7832046276
 21
104.7487598119
  0
LINE
  5
43A
100
AcDbEntity
  8
ASSI
100
AcDbLine
 62
7
  6
CONTINUOUS
 10
148.6249906276
 20
105.2144618119
 11
148.7832046276
 21
104.7487598119
  0
LINE
  5
43B
100
AcDbEntity
  8
0
100
AcDbLine
 62
7
  6
CONTINUOUS
 10
148.3085876276
 20
106.1166818119
 11
148.5469766276
 21
105.4060988119
  0
LINE
  5
43C
100
AcDbEntity
  8
ASSI
100
AcDbLine
 62
7
  6
CONTINUOUS
 10
148.3085876276
 20
106.1166818119
 11
148.5469766276
 21
105.4060988119
  0
LWPOLYLINE
  5
43D
100
AcDbEntity
  8
0
100
AcDbPolyline
 62
7
  6
CONTINUOUS
 90
23
 70
0
 10
146.8186419645
 20
110.7651112538
 10
146.8040837851
 20
110.8282292134
 10
146.7842272808
 20
110.8856493366
 10
146.7588107368
 20
110.9386758677
 10
146.7280309523
 20
110.9881526452
 10
146.6909488803
 20
111.0351399815
 10
146.6485035678
 20
111.0785775642
 10
146.603708956
 20
111.1161282952
 10
146.5576652161
 20
111.1469620454
 10
146.5092721768
 20
111.171908944
 10
146.4582432656
 20
111.1911222794
 10
146.4035690139
 20
111.2047729888
 10
146.3462588902
 20
111.2126901351
 10
146.2890547275
 20
111.2145141963
 10
146.2318950629
 20
111.2098121701
 10
146.1748413594
 20
111.1990170588
 10
146.1208198387
 20
111.1830683478
 10
146.0708898315
 20
111.1624547104
 10
146.0239920072
 20
111.1366874733
 10
145.9798745953
 20
111.1052401018
 10
145.9384536726
 20
111.0679370842
 10
145.8998131624
 20
111.0249539321
 10
145.8639530647
 20
110.9762906455
  0
LWPOLYLINE
  5
43E
100
AcDbEntity
  8
ASSI
100
AcDbPolyline
 62
7
  6
CONTINUOUS
 90
23
 70
0
 10
146.8186419645
 20
110.7651112538
 10
146.8040837851
 20
110.8282292134
 10
146.7842272808
 20
110.8856493366
 10
146.7588107368
 20
110.9386758677
 10
146.7280309523
 20
110.9881526452
 10
146.6909488803
 20
111.0351399815
 10
146.6485035678
 20
111.0785775642
 10
146.603708956
 20
111.1161282952
 10
146.5576652161
 20
111.1469620454
 10
146.5092721768
 20
111.171908944
 10
146.4582432656
 20
111.1911222794
 10
146.4035690139
 20
111.2047729888
 10
146.3462588902
 20
111.2126901351
 10
146.2890547275
 20
111.2145141963
 10
146.2318950629
 20
111.2098121701
 10
146.1748413594
 20
111.1990170588
 10
146.1208198387
 20
111.1830683478
 10
146.0708898315
 20
111.1624547104
 10
146.0239920072
 20
111.1366874733
 10
145.9798745953
 20
111.1052401018
 10
145.9384536726
 20
111.0679370842
 10
145.8998131624
 20
111.0249539321
 10
145.8639530647
 20
110.9762906455
  0
LWPOLYLINE
  5
43F
100
AcDbEntity
  8
0
100
AcDbPolyline
 62
7
  6
CONTINUOUS
 90
37
 70
0
 10
146.8000751452
 20
111.4048508535
 10
146.7889208733
 20
111.4665576704
 10
146.7732794918
 20
111.5236083719
 10
146.7531510007
 20
111.5760029579
 10
146.7284167255
 20
111.6235928162
 10
146.6991953406
 20
111.6665265591
 10
146.6658428702
 20
111.7052500233
 10
146.6283734167
 20
111.7401246433
 10
146.5867728777
 20
111.7707889845
 10
146.5413549694
 20
111.7966045797
 10
146.4921114605
 20
111.8175294062
 10
146.4390505823
 20
111.8336054866
 10
146.3825107449
 20
111.8443204224
 10
146.3208100514
 20
111.8496358107
 10
146.2556303987
 20
111.8495900544
 10
146.1923558882
 20
111.8437859635
 10
146.1322444885
 20
111.8320292294
 10
146.0740382308
 20
111.8145141607
 10
146.0193473109
 20
111.7914264937
 10
145.9687787971
 20
111.7629208576
 10
145.921725621
 20
111.7288426232
 10
145.8779767722
 20
111.6889136391
 10
145.8371771374
 20
111.6428977828
 10
145.79968183
 20
111.5910311768
 10
145.7663451794
 20
111.5337440376
 10
145.7375130064
 20
111.4709177597
 10
145.7128394902
 20
111.4026709485
 10
145.692141498
 20
111.3297896362
 10
145.6755125934
 20
111.251248482
 10
145.6628592126
 20
111.1680728266
 10
145.6537175323
 20
111.0841247248
 10
145.6481436887
 20
110.9994331336
 10
145.6460815456
 20
110.9139690959
 10
145.6468988699
 20
110.8315077948
 10
145.6502637457
 20
110.7531778219
 10
145.656508089
 20
110.6778505856
 10
145.6659954144
 20
110.6059154939
  0
LWPOLYLINE
  5
440
100
AcDbEntity
  8
ASSI
100
AcDbPolyline
 62
7
  6
CONTINUOUS
 90
37
 70
0
 10
146.8000751452
 20
111.4048508535
 10
146.7889208733
 20
111.4665576704
 10
146.7732794918
 20
111.5236083719
 10
146.7531510007
 20
111.5760029579
 10
146.7284167255
 20
111.6235928162
 10
146.6991953406
 20
111.6665265591
 10
146.6658428702
 20
111.7052500233
 10
146.6283734167
 20
111.7401246433
 10
146.5867728777
 20
111.7707889845
 10
146.5413549694
 20
111.7966045797
 10
146.4921114605
 20
111.8175294062
 10
146.4390505823
 20
111.8336054866
 10
146.3825107449
 20
111.8443204224
 10
146.3208100514
 20
111.8496358107
 10
146.2556303987
 20
111.8495900544
 10
146.1923558882
 20
111.8437859635
 10
146.1322444885
 20
111.8320292294
 10
146.0740382308
 20
111.8145141607
 10
146.0193473109
 20
111.7914264937
 10
145.9687787971
 20
111.7629208576
 10
145.921725621
 20
111.7288426232
 10
145.8779767722
 20
111.6889136391
 10
145.8371771374
 20
111.6428977828
 10
145.79968183
 20
111.5910311768
 10
145.7663451794
 20
111.5337440376
 10
145.7375130064
 20
111.4709177597
 10
145.7128394902
 20
111.4026709485
 10
145.692141498
 20
111.3297896362
 10
145.6755125934
 20
111.251248482
 10
145.6628592126
 20
111.1680728266
 10
145.6537175323
 20
111.0841247248
 10
145.6481436887
 20
110.9994331336
 10
145.6460815456
 20
110.9139690959
 10
145.6468988699
 20
110.8315077948
 10
145.6502637457
 20
110.7531778219
 10
145.656508089
 20
110.6778505856
 10
145.6659954144
 20
110.6059154939
  0
LINE
  5
441
100
AcDbEntity
  8
0
100
AcDbLine
 62
7
  6
CONTINUOUS
 10
147.5307926276
 20
106.1571218119
 11
147.5307926276
 21
106.3487598119
  0
LINE
  5
442
100
AcDbEntity
  8
ASSI
100
AcDbLine
 62
7
  6
CONTINUOUS
 10
147.5307926276
 20
106.1571218119
 11
147.5307926276
 21
106.3487598119
  0
LINE
  5
443
100
AcDbEntity
  8
0
100
AcDbLine
 62
7
  6
CONTINUOUS
 10
147.5902946276
 20
98.0987598119
 11
147.5902946276
 21
102.4987598119
  0
LINE
  5
444
100
AcDbEntity
  8
ASSI
100
AcDbLine
 62
7
  6
CONTINUOUS
 10
147.6112756276
 20
120.4279098119
 11
147.6112696276
 21
121.0362978119
  0
LINE
  5
445
100
AcDbEntity
  8
0
100
AcDbLine
 62
7
  6
CONTINUOUS
 10
147.9902946276
 20
98.0987598119
 11
147.9902946276
 21
102.4987598119
  0
LINE
  5
446
100
AcDbEntity
  8
RACCORDO
100
AcDbLine
 62
7
  6
CONTINUOUS
 10
148.3902946276
 20
132.3987598119
 11
148.3902946276
 21
131.4487598119
  0
LINE
  5
447
100
AcDbEntity
  8
ASSI
100
AcDbLine
 62
7
  6
CONTINUOUS
 10
148.3902946276
 20
132.3987598119
 11
148.3902946276
 21
131.4487598119
  0
LINE
  5
448
100
AcDbEntity
  8
0
100
AcDbLine
 62
7
  6
CONTINUOUS
 10
148.3902946276
 20
98.0987598119
 11
148.3902946276
 21
102.4987598119
  0
LINE
  5
449
100
AcDbEntity
  8
RACCORDO
100
AcDbLine
 62
7
  6
CONTINUOUS
 10
148.4020987457
 20
131.4487598119
 11
148.4020987457
 21
131.8069654919
  0
LINE
  5
44A
100
AcDbEntity
  8
ASSI
100
AcDbLine
 62
7
  6
CONTINUOUS
 10
148.4020987457
 20
131.4487598119
 11
148.4020987457
 21
131.8069654919
  0
LINE
  5
44B
100
AcDbEntity
  8
RACCORDO
100
AcDbLine
 62
7
  6
CONTINUOUS
 10
148.412570987
 20
131.9756144935
 11
148.412570987
 21
132.8987598119
  0
LINE
  5
44C
100
AcDbEntity
  8
ASSI
100
AcDbLine
 62
7
  6
CONTINUOUS
 10
148.412570987
 20
131.9756144935
 11
148.412570987
 21
132.8987598119
  0
LINE
  5
44D
100
AcDbEntity
  8
RACCORDO
100
AcDbLine
 62
253
  6
CONTINUOUS
 10
148.7020873226
 20
131.4487598119
 11
148.7020873226
 21
131.8487598119
  0
LINE
  5
44E
100
AcDbEntity
  8
ASSI
100
AcDbLine
 62
253
  6
CONTINUOUS
 10
148.7020873226
 20
131.4487598119
 11
148.7020873226
 21
131.8487598119
  0
LINE
  5
44F
100
AcDbEntity
  8
RACCORDO
100
AcDbLine
 62
253
  6
CONTINUOUS
 10
148.712559564
 20
132.0174088135
 11
148.712559564
 21
132.8987598119
  0
LINE
  5
450
100
AcDbEntity
  8
ASSI
100
AcDbLine
 62
253
  6
CONTINUOUS
 10
148.712559564
 20
132.0174088135
 11
148.712559564
 21
132.8987598119
  0
LINE
  5
451
100
AcDbEntity
  8
0
100
AcDbLine
 62
7
  6
CONTINUOUS
 10
148.7902946276
 20
98.0987598119
 11
148.7902946276
 21
102.4987598119
  0
LINE
  5
452
100
AcDbEntity
  8
RACCORDO
100
AcDbLine
 62
253
  6
CONTINUOUS
 10
148.8680296912
 20
132.8987598119
 11
148.8680296912
 21
132.0174088135
  0
LINE
  5
453
100
AcDbEntity
  8
ASSI
100
AcDbLine
 62
253
  6
CONTINUOUS
 10
148.8680296912
 20
132.8987598119
 11
148.8680296912
 21
132.0174088135
  0
LINE
  5
454
100
AcDbEntity
  8
RACCORDO
100
AcDbLine
 62
253
  6
CONTINUOUS
 10
148.8785019325
 20
131.8487598119
 11
148.8785019325
 21
131.4487598119
  0
LINE
  5
455
100
AcDbEntity
  8
ASSI
100
AcDbLine
 62
253
  6
CONTINUOUS
 10
148.8785019325
 20
131.8487598119
 11
148.8785019325
 21
131.4487598119
  0
LINE
  5
456
100
AcDbEntity
  8
ASSI
100
AcDbLine
 62
7
  6
CONTINUOUS
 10
147.6181696276
 20
118.9987038119
 11
147.6182256276
 21
119.9653908119
  0
LWPOLYLINE
  5
457
100
AcDbEntity
  8
RACCORDO
100
AcDbPolyline
 62
253
  6
CONTINUOUS
 90
28
 70
0
 10
148.8785019325
 20
131.4487598119
 10
148.8778629028
 20
131.4383814336
 10
148.8761104281
 20
131.4283830253
 10
148.8732445085
 20
131.418764587
 10
148.8691977883
 20
131.4094005323
 10
148.8640376231
 20
131.4004164476
 10
148.8579660802
 20
131.3921890923
 10
148.8509448223
 20
131.3847538902
 10
148.8430121865
 20
131.3780754175
 10
148.8344852517
 20
131.3724241619
 10
148.825340641
 20
131.3678432529
 10
148.8156017311
 20
131.3642895611
 10
148.8056557308
 20
131.361904186
 10
148.795493795
 20
131.3607341268
 10
148.7851247689
 20
131.3607323844
 10
148.7749623964
 20
131.3618990606
 10
148.7650154506
 20
131.3642812264
 10
148.7552751585
 20
131.3678318108
 10
148.7461289458
 20
131.3724097021
 10
148.7376003987
 20
131.378057647
 10
148.729665931
 20
131.3847328989
 10
148.7226422104
 20
131.3921661059
 10
148.716567074
 20
131.4003928137
 10
148.7114026846
 20
131.4093774767
 10
148.7073521991
 20
131.4187441068
 10
148.7044833364
 20
131.4283673747
 10
148.7027283776
 20
131.4383726097
 10
148.7020873226
 20
131.4487598119
  0
LWPOLYLINE
  5
458
100
AcDbEntity
  8
ASSI
100
AcDbPolyline
 62
253
  6
CONTINUOUS
 90
28
 70
0
 10
148.8785019325
 20
131.4487598119
 10
148.8778629028
 20
131.4383814336
 10
148.8761104281
 20
131.4283830253
 10
148.8732445085
 20
131.418764587
 10
148.8691977883
 20
131.4094005323
 10
148.8640376231
 20
131.4004164476
 10
148.8579660802
 20
131.3921890923
 10
148.8509448223
 20
131.3847538902
 10
148.8430121865
 20
131.3780754175
 10
148.8344852517
 20
131.3724241619
 10
148.825340641
 20
131.3678432529
 10
148.8156017311
 20
131.3642895611
 10
148.8056557308
 20
131.361904186
 10
148.795493795
 20
131.3607341268
 10
148.7851247689
 20
131.3607323844
 10
148.7749623964
 20
131.3618990606
 10
148.7650154506
 20
131.3642812264
 10
148.7552751585
 20
131.3678318108
 10
148.7461289458
 20
131.3724097021
 10
148.7376003987
 20
131.378057647
 10
148.729665931
 20
131.3847328989
 10
148.7226422104
 20
131.3921661059
 10
148.716567074
 20
131.4003928137
 10
148.7114026846
 20
131.4093774767
 10
148.7073521991
 20
131.4187441068
 10
148.7044833364
 20
131.4283673747
 10
148.7027283776
 20
131.4383726097
 10
148.7020873226
 20
131.4487598119
  0
LINE
  5
459
100
AcDbEntity
  8
0
100
AcDbLine
 62
7
  6
CONTINUOUS
 10
137.9902946276
 20
101.6987598119
 11
138.7902946276
 21
102.4987598119
  0
LINE
  5
45A
100
AcDbEntity
  8
0
100
AcDbLine
 62
7
  6
CONTINUOUS
 10
137.9902946276
 20
101.2987598119
 11
139.1902946276
 21
102.4987598119
  0
LINE
  5
45B
100
AcDbEntity
  8
0
100
AcDbLine
 62
7
  6
CONTINUOUS
 10
137.9902946276
 20
100.8987598119
 11
139.5902946276
 21
102.4987598119
  0
LINE
  5
45C
100
AcDbEntity
  8
0
100
AcDbLine
 62
7
  6
CONTINUOUS
 10
137.9902946276
 20
100.4987598119
 11
139.9902946276
 21
102.4987598119
  0
LINE
  5
45D
100
AcDbEntity
  8
0
100
AcDbLine
 62
7
  6
CONTINUOUS
 10
137.9902946276
 20
100.0987598119
 11
140.3902946276
 21
102.4987598119
  0
LINE
  5
45E
100
AcDbEntity
  8
0
100
AcDbLine
 62
7
  6
CONTINUOUS
 10
137.9902946276
 20
99.6987598119
 11
140.7902946276
 21
102.4987598119
  0
LINE
  5
45F
100
AcDbEntity
  8
0
100
AcDbLine
 62
7
  6
CONTINUOUS
 10
147.7782796276
 20
116.0737598119
 11
147.2558476276
 21
116.0737598119
  0
LINE
  5
460
100
AcDbEntity
  8
ASSI
100
AcDbLine
 62
7
  6
CONTINUOUS
 10
147.7782796276
 20
116.0737598119
 11
147.2558476276
 21
116.0737598119
  0
LINE
  5
461
100
AcDbEntity
  8
0
100
AcDbLine
 62
7
  6
CONTINUOUS
 10
146.3074146276
 20
116.0737598119
 11
145.8956856276
 21
116.0737598119
  0
LINE
  5
462
100
AcDbEntity
  8
ASSI
100
AcDbLine
 62
7
  6
CONTINUOUS
 10
146.3074146276
 20
116.0737598119
 11
145.8956856276
 21
116.0737598119
  0
LINE
  5
463
100
AcDbEntity
  8
0
100
AcDbLine
 62
7
  6
CONTINUOUS
 10
145.1091826276
 20
116.0737598119
 11
144.4561416276
 21
116.0737598119
  0
LINE
  5
464
100
AcDbEntity
  8
ASSI
100
AcDbLine
 62
7
  6
CONTINUOUS
 10
145.1091826276
 20
116.0737598119
 11
144.4561416276
 21
116.0737598119
  0
LINE
  5
465
100
AcDbEntity
  8
0
100
AcDbLine
 62
7
  6
CONTINUOUS
 10
143.5192036276
 20
116.0737598119
 11
142.9967706276
 21
116.0737598119
  0
LINE
  5
466
100
AcDbEntity
  8
ASSI
100
AcDbLine
 62
7
  6
CONTINUOUS
 10
143.5192036276
 20
116.0737598119
 11
142.9967706276
 21
116.0737598119
  0
LINE
  5
467
100
AcDbEntity
  8
0
100
AcDbLine
 62
7
  6
CONTINUOUS
 10
141.2761066276
 20
116.0737598119
 11
140.8359886276
 21
116.0737598119
  0
LINE
  5
468
100
AcDbEntity
  8
ASSI
100
AcDbLine
 62
7
  6
CONTINUOUS
 10
141.2761066276
 20
116.0737598119
 11
140.8359886276
 21
116.0737598119
  0
LINE
  5
469
100
AcDbEntity
  8
0
100
AcDbLine
 62
7
  6
CONTINUOUS
 10
139.7170393455
 20
116.0737598119
 11
139.0897116276
 21
116.0737598119
  0
LINE
  5
46A
100
AcDbEntity
  8
ASSI
100
AcDbLine
 62
7
  6
CONTINUOUS
 10
139.7170393455
 20
116.0737598119
 11
139.0897116276
 21
116.0737598119
  0
LINE
  5
46B
100
AcDbEntity
  8
0
100
AcDbLine
 62
7
  6
CONTINUOUS
 10
148.4908776276
 20
114.0237598119
 11
147.7782796276
 21
116.0737598119
  0
LINE
  5
46C
100
AcDbEntity
  8
ASSI
100
AcDbLine
 62
7
  6
CONTINUOUS
 10
148.4908776276
 20
114.0237598119
 11
147.7782796276
 21
116.0737598119
  0
LINE
  5
46D
100
AcDbEntity
  8
0
100
AcDbLine
 62
7
  6
CONTINUOUS
 10
147.9003246276
 20
114.4582458119
 11
148.0480596276
 21
114.0237598119
  0
LINE
  5
46E
100
AcDbEntity
  8
ASSI
100
AcDbLine
 62
7
  6
CONTINUOUS
 10
147.9003246276
 20
114.4582458119
 11
148.0480596276
 21
114.0237598119
  0
LINE
  5
46F
100
AcDbEntity
  8
0
100
AcDbLine
 62
7
  6
CONTINUOUS
 10
147.5057816276
 20
115.6819108119
 11
147.7895436276
 21
114.7989228119
  0
LINE
  5
470
100
AcDbEntity
  8
ASSI
100
AcDbLine
 62
7
  6
CONTINUOUS
 10
147.5057816276
 20
115.6819108119
 11
147.7895436276
 21
114.7989228119
  0
LINE
  5
471
100
AcDbEntity
  8
ASSI
100
AcDbLine
 62
7
  6
CONTINUOUS
 10
146.1269256276
 20
119.4903658119
 11
146.2847756276
 21
118.9987038119
  0
LINE
  5
472
100
AcDbEntity
  8
ASSI
100
AcDbLine
 62
7
  6
CONTINUOUS
 10
145.7320696276
 20
120.7201598119
 11
145.9744006276
 21
119.9653848119
  0
LINE
  5
473
100
AcDbEntity
  8
ASSI
100
AcDbLine
 62
7
  6
CONTINUOUS
 10
146.7848006276
 20
118.9986968119
 11
145.9820946276
 21
121.4988158119
  0
LINE
  5
474
100
AcDbEntity
  8
RACCORDO
100
AcDbLine
 62
7
  6
CONTINUOUS
 10
149.1680182681
 20
131.9756144935
 11
149.1784905095
 21
131.8069654919
  0
LINE
  5
475
100
AcDbEntity
  8
ASSI
100
AcDbLine
 62
7
  6
CONTINUOUS
 10
149.1680182681
 20
131.9756144935
 11
149.1784905095
 21
131.8069654919
  0
LINE
  5
476
100
AcDbEntity
  8
RACCORDO
100
AcDbLine
 62
7
  6
CONTINUOUS
 10
149.1680182681
 20
132.8987598119
 11
149.1680182681
 21
131.9756144935
  0
LINE
  5
477
100
AcDbEntity
  8
ASSI
100
AcDbLine
 62
7
  6
CONTINUOUS
 10
149.1680182681
 20
132.8987598119
 11
149.1680182681
 21
131.9756144935
  0
LINE
  5
478
100
AcDbEntity
  8
RACCORDO
100
AcDbLine
 62
7
  6
CONTINUOUS
 10
149.1784905095
 20
131.8069654919
 11
149.1784905095
 21
131.4487598119
  0
LINE
  5
479
100
AcDbEntity
  8
ASSI
100
AcDbLine
 62
7
  6
CONTINUOUS
 10
149.1784905095
 20
131.8069654919
 11
149.1784905095
 21
131.4487598119
  0
LINE
  5
47A
100
AcDbEntity
  8
RACCORDO
100
AcDbLine
 62
7
  6
CONTINUOUS
 10
149.1902946276
 20
132.3987598119
 11
149.1902946276
 21
131.4487598119
  0
LINE
  5
47B
100
AcDbEntity
  8
ASSI
100
AcDbLine
 62
7
  6
CONTINUOUS
 10
149.1902946276
 20
132.3987598119
 11
149.1902946276
 21
131.4487598119
  0
LINE
  5
47C
100
AcDbEntity
  8
0
100
AcDbLine
 62
7
  6
CONTINUOUS
 10
149.1902946276
 20
98.0987598119
 11
149.1902946276
 21
102.4987598119
  0
LINE
  5
47D
100
AcDbEntity
  8
0
100
AcDbLine
 62
7
  6
CONTINUOUS
 10
149.2177216276
 20
106.3487598119
 11
149.2177216276
 21
104.7487598119
  0
LINE
  5
47E
100
AcDbEntity
  8
ASSI
100
AcDbLine
 62
7
  6
CONTINUOUS
 10
149.2177216276
 20
106.3487598119
 11
149.2177216276
 21
104.7487598119
  0
LINE
  5
47F
100
AcDbEntity
  8
RACCORDO
100
AcDbLine
 62
253
  6
CONTINUOUS
 10
149.2938539135
 20
103.6522581747
 11
149.2938539135
 21
103.4522657901
  0
LINE
  5
480
100
AcDbEntity
  8
ASSI
100
AcDbLine
 62
253
  6
CONTINUOUS
 10
149.2938539135
 20
103.6522581747
 11
149.2938539135
 21
103.4522657901
  0
LINE
  5
481
100
AcDbEntity
  8
RACCORDO
100
AcDbLine
 62
253
  6
CONTINUOUS
 10
149.2938539135
 20
96.9452614491
 11
149.2938539135
 21
97.1452538337
  0
LINE
  5
482
100
AcDbEntity
  8
ASSI
100
AcDbLine
 62
253
  6
CONTINUOUS
 10
149.2938539135
 20
96.9452614491
 11
149.2938539135
 21
97.1452538337
  0
LINE
  5
483
100
AcDbEntity
  8
0
100
AcDbLine
 62
7
  6
CONTINUOUS
 10
149.4339446276
 20
104.9403978119
 11
149.4339446276
 21
106.3487598119
  0
LINE
  5
484
100
AcDbEntity
  8
ASSI
100
AcDbLine
 62
7
  6
CONTINUOUS
 10
149.4339446276
 20
104.9403978119
 11
149.4339446276
 21
106.3487598119
  0
LINE
  5
485
100
AcDbEntity
  8
0
100
AcDbLine
 62
7
  6
CONTINUOUS
 10
149.5902946276
 20
98.0987598119
 11
149.5902946276
 21
102.4987598119
  0
LINE
  5
486
100
AcDbEntity
  8
0
100
AcDbLine
 62
7
  6
CONTINUOUS
 10
150.1902946276
 20
132.8987598119
 11
150.1902946276
 21
132.4987598119
  0
LINE
  5
487
100
AcDbEntity
  8
ASSI
100
AcDbLine
 62
7
  6
CONTINUOUS
 10
150.1902946276
 20
132.8987598119
 11
150.1902946276
 21
132.4987598119
  0
LINE
  5
488
100
AcDbEntity
  8
0
100
AcDbLine
 62
7
  6
CONTINUOUS
 10
150.1902946276
 20
92.1987598119
 11
150.1902946276
 21
92.5987598119
  0
LINE
  5
489
100
AcDbEntity
  8
ASSI
100
AcDbLine
 62
7
  6
CONTINUOUS
 10
150.1902946276
 20
92.1987598119
 11
150.1902946276
 21
92.5987598119
  0
LINE
  5
48A
100
AcDbEntity
  8
0
100
AcDbLine
 62
7
  6
CONTINUOUS
 10
150.2451376276
 20
104.7487598119
 11
150.2451376276
 21
104.9403978119
  0
LINE
  5
48B
100
AcDbEntity
  8
ASSI
100
AcDbLine
 62
7
  6
CONTINUOUS
 10
150.2451376276
 20
104.7487598119
 11
150.2451376276
 21
104.9403978119
  0
LINE
  5
48C
100
AcDbEntity
  8
0
100
AcDbLine
 62
7
  6
CONTINUOUS
 10
147.8159976276
 20
104.7487598119
 11
147.9831656276
 21
105.2144618119
  0
LINE
  5
48D
100
AcDbEntity
  8
ASSI
100
AcDbLine
 62
7
  6
CONTINUOUS
 10
147.8159976276
 20
104.7487598119
 11
147.9831656276
 21
105.2144618119
  0
LINE
  5
48E
100
AcDbEntity
  8
0
100
AcDbLine
 62
7
  6
CONTINUOUS
 10
148.0500256276
 20
105.4060988119
 11
148.3085876276
 21
106.1166818119
  0
LINE
  5
48F
100
AcDbEntity
  8
ASSI
100
AcDbLine
 62
7
  6
CONTINUOUS
 10
148.0500256276
 20
105.4060988119
 11
148.3085876276
 21
106.1166818119
  0
LINE
  5
490
100
AcDbEntity
  8
0
100
AcDbLine
 62
7
  6
CONTINUOUS
 10
148.1949116276
 20
106.3487598119
 11
147.5931876276
 21
104.7487598119
  0
LINE
  5
491
100
AcDbEntity
  8
ASSI
100
AcDbLine
 62
7
  6
CONTINUOUS
 10
148.1949116276
 20
106.3487598119
 11
147.5931876276
 21
104.7487598119
  0
LINE
  5
492
100
AcDbEntity
  8
0
100
AcDbLine
 62
7
  6
CONTINUOUS
 10
137.9902946276
 20
99.2987598119
 11
141.1902946276
 21
102.4987598119
  0
LINE
  5
493
100
AcDbEntity
  8
0
100
AcDbLine
 62
7
  6
CONTINUOUS
 10
137.9902946276
 20
98.8987598119
 11
141.5902946276
 21
102.4987598119
  0
LINE
  5
494
100
AcDbEntity
  8
0
100
AcDbLine
 62
7
  6
CONTINUOUS
 10
137.9902946276
 20
98.4987598119
 11
141.9902946276
 21
102.4987598119
  0
LINE
  5
495
100
AcDbEntity
  8
0
100
AcDbLine
 62
7
  6
CONTINUOUS
 10
137.9902946276
 20
98.0987598119
 11
142.3902946276
 21
102.4987598119
  0
LINE
  5
496
100
AcDbEntity
  8
0
100
AcDbLine
 62
7
  6
CONTINUOUS
 10
138.3902946276
 20
98.0987598119
 11
142.7902946276
 21
102.4987598119
  0
LINE
  5
497
100
AcDbEntity
  8
0
100
AcDbLine
 62
7
  6
CONTINUOUS
 10
138.7902946276
 20
98.0987598119
 11
143.1902946276
 21
102.4987598119
  0
LINE
  5
498
100
AcDbEntity
  8
ASSI
100
AcDbLine
 62
7
  6
CONTINUOUS
 10
148.5557136276
 20
118.9987038119
 11
149.1189076276
 21
118.9987098119
  0
LINE
  5
499
100
AcDbEntity
  8
ASSI
100
AcDbLine
 62
7
  6
CONTINUOUS
 10
144.6793576276
 20
118.9986968119
 11
145.1793756276
 21
118.9987038119
  0
LINE
  5
49A
100
AcDbEntity
  8
ASSI
100
AcDbLine
 62
7
  6
CONTINUOUS
 10
141.9004886276
 20
118.9986968119
 11
142.4005066276
 21
118.9986968119
  0
LINE
  5
49B
100
AcDbEntity
  8
ASSI
100
AcDbLine
 62
7
  6
CONTINUOUS
 10
143.8459946276
 20
118.9986968119
 11
144.3460136276
 21
118.9986968119
  0
LINE
  5
49C
100
AcDbEntity
  8
ASSI
100
AcDbLine
 62
7
  6
CONTINUOUS
 10
147.1181446276
 20
118.9987038119
 11
147.6181696276
 21
118.9987038119
  0
LINE
  5
49D
100
AcDbEntity
  8
ASSI
100
AcDbLine
 62
7
  6
CONTINUOUS
 10
142.8732446276
 20
118.9986968119
 11
143.3732506276
 21
118.9987038119
  0
LINE
  5
49E
100
AcDbEntity
  8
ASSI
100
AcDbLine
 62
7
  6
CONTINUOUS
 10
140.9004636276
 20
118.9986908119
 11
141.4004816276
 21
118.9986968119
  0
LINE
  5
49F
100
AcDbEntity
  8
ASSI
100
AcDbLine
 62
7
  6
CONTINUOUS
 10
146.2847756276
 20
118.9987038119
 11
146.7848006276
 21
118.9986968119
  0
LINE
  5
4A0
100
AcDbEntity
  8
ASSI
100
AcDbLine
 62
7
  6
CONTINUOUS
 10
139.2643816276
 20
118.9986908119
 11
139.7644196276
 21
118.9986968119
  0
LINE
  5
4A1
100
AcDbEntity
  8
RACCORDO
100
AcDbLine
 62
7
  6
CONTINUOUS
 10
150.5902946276
 20
102.0487598119
 11
150.5902946276
 21
98.5487598119
  0
LINE
  5
4A2
100
AcDbEntity
  8
RACCORDO
100
AcDbLine
 62
7
  6
CONTINUOUS
 10
150.6938006058
 20
102.0523190978
 11
150.6938006058
 21
98.545200526
  0
LINE
  5
4A3
100
AcDbEntity
  8
ASSI
100
AcDbLine
 62
7
  6
CONTINUOUS
 10
150.6938006058
 20
102.0523190978
 11
150.6938006058
 21
98.545200526
  0
LINE
  5
4A4
100
AcDbEntity
  8
0
100
AcDbLine
 62
7
  6
CONTINUOUS
 10
150.7902946276
 20
132.8987598119
 11
150.7902946276
 21
132.4987598119
  0
LINE
  5
4A5
100
AcDbEntity
  8
ASSI
100
AcDbLine
 62
7
  6
CONTINUOUS
 10
150.7902946276
 20
132.8987598119
 11
150.7902946276
 21
132.4987598119
  0
LINE
  5
4A6
100
AcDbEntity
  8
0
100
AcDbLine
 62
7
  6
CONTINUOUS
 10
150.7902946276
 20
92.1987598119
 11
150.7902946276
 21
92.5987598119
  0
LINE
  5
4A7
100
AcDbEntity
  8
ASSI
100
AcDbLine
 62
7
  6
CONTINUOUS
 10
150.7902946276
 20
92.1987598119
 11
150.7902946276
 21
92.5987598119
  0
LINE
  5
4A8
100
AcDbEntity
  8
RACCORDO
100
AcDbLine
 62
253
  6
CONTINUOUS
 10
150.8937723678
 20
102.0890081917
 11
150.8937929904
 21
98.545200526
  0
LINE
  5
4A9
100
AcDbEntity
  8
ASSI
100
AcDbLine
 62
253
  6
CONTINUOUS
 10
150.8937723678
 20
102.0890081917
 11
150.8937929904
 21
98.545200526
  0
LINE
  5
4AA
100
AcDbEntity
  8
0
100
AcDbLine
 62
7
  6
CONTINUOUS
 10
150.9225336276
 20
105.3927708119
 11
150.9225336276
 21
104.7487598119
  0
LINE
  5
4AB
100
AcDbEntity
  8
ASSI
100
AcDbLine
 62
7
  6
CONTINUOUS
 10
150.9225336276
 20
105.3927708119
 11
150.9225336276
 21
104.7487598119
  0
LINE
  5
4AC
100
AcDbEntity
  8
0
100
AcDbLine
 62
7
  6
CONTINUOUS
 10
151.1386276276
 20
104.7487598119
 11
151.1386276276
 21
105.3927708119
  0
LINE
  5
4AD
100
AcDbEntity
  8
ASSI
100
AcDbLine
 62
7
  6
CONTINUOUS
 10
151.1386276276
 20
104.7487598119
 11
151.1386276276
 21
105.3927708119
  0
LWPOLYLINE
  5
4AE
100
AcDbEntity
  8
RACCORDO
100
AcDbPolyline
 62
253
  6
CONTINUOUS
 90
42
 70
0
 10
150.8937929904
 20
98.545200526
 10
150.8936331901
 20
98.50480766
 10
150.8919160864
 20
98.4620453066
 10
150.888641679
 20
98.4169134657
 10
150.8840301682
 20
98.3693107626
 10
150.8778613539
 20
98.319338572
 10
150.8694746355
 20
98.2673010187
 10
150.8588093461
 20
98.2129831478
 10
150.8459261527
 20
98.1565999142
 10
150.8303464563
 20
98.0991003068
 10
150.8120056468
 20
98.0405056237
 10
150.7909683343
 20
97.9807945668
 10
150.7669497505
 20
97.9208522309
 10
150.7398611903
 20
97.8606655207
 10
150.7097913588
 20
97.8002475314
 10
150.676721603
 20
97.7405226434
 10
150.6405602807
 20
97.6815128942
 10
150.6013990341
 20
97.6231962463
 10
150.5594941371
 20
97.5664309685
 10
150.5147623709
 20
97.5112669627
 10
150.4672869542
 20
97.4576543271
 10
150.4175738168
 20
97.4063016247
 10
150.3655432996
 20
97.3572723164
 10
150.3112750616
 20
97.3105029413
 10
150.2555140101
 20
97.2665116804
 10
150.1982018281
 20
97.225385263
 10
150.1393968326
 20
97.1870369598
 10
150.0800188818
 20
97.1517247638
 10
150.0200466885
 20
97.1195495937
 10
149.9595015399
 20
97.0904105309
 10
149.8993671557
 20
97.0642628118
 10
149.8396565516
 20
97.0412006653
 10
149.780356712
 20
97.0211298626
 10
149.7224123097
 20
97.0037229544
 10
149.6658584079
 20
96.9890519197
 10
149.6106599434
 20
96.9770447794
 10
149.5576564001
 20
96.967158147
 10
149.5068888476
 20
96.9594338856
 10
149.4583162163
 20
96.9538301321
 10
149.4126547798
 20
96.9496779094
 10
149.3701432961
 20
96.9467542251
 10
149.3305430074
 20
96.9452820717
  0
LWPOLYLINE
  5
4AF
100
AcDbEntity
  8
ASSI
100
AcDbPolyline
 62
253
  6
CONTINUOUS
 90
42
 70
0
 10
150.8937929904
 20
98.545200526
 10
150.8936331901
 20
98.50480766
 10
150.8919160864
 20
98.4620453066
 10
150.888641679
 20
98.4169134657
 10
150.8840301682
 20
98.3693107626
 10
150.8778613539
 20
98.319338572
 10
150.8694746355
 20
98.2673010187
 10
150.8588093461
 20
98.2129831478
 10
150.8459261527
 20
98.1565999142
 10
150.8303464563
 20
98.0991003068
 10
150.8120056468
 20
98.0405056237
 10
150.7909683343
 20
97.9807945668
 10
150.7669497505
 20
97.9208522309
 10
150.7398611903
 20
97.8606655207
 10
150.7097913588
 20
97.8002475314
 10
150.676721603
 20
97.7405226434
 10
150.6405602807
 20
97.6815128942
 10
150.6013990341
 20
97.6231962463
 10
150.5594941371
 20
97.5664309685
 10
150.5147623709
 20
97.5112669627
 10
150.4672869542
 20
97.4576543271
 10
150.4175738168
 20
97.4063016247
 10
150.3655432996
 20
97.3572723164
 10
150.3112750616
 20
97.3105029413
 10
150.2555140101
 20
97.2665116804
 10
150.1982018281
 20
97.225385263
 10
150.1393968326
 20
97.1870369598
 10
150.0800188818
 20
97.1517247638
 10
150.0200466885
 20
97.1195495937
 10
149.9595015399
 20
97.0904105309
 10
149.8993671557
 20
97.0642628118
 10
149.8396565516
 20
97.0412006653
 10
149.780356712
 20
97.0211298626
 10
149.7224123097
 20
97.0037229544
 10
149.6658584079
 20
96.9890519197
 10
149.6106599434
 20
96.9770447794
 10
149.5576564001
 20
96.967158147
 10
149.5068888476
 20
96.9594338856
 10
149.4583162163
 20
96.9538301321
 10
149.4126547798
 20
96.9496779094
 10
149.3701432961
 20
96.9467542251
 10
149.3305430074
 20
96.9452820717
  0
LWPOLYLINE
  5
4B0
100
AcDbEntity
  8
RACCORDO
100
AcDbPolyline
 62
253
  6
CONTINUOUS
 90
43
 70
0
 10
150.6938006058
 20
98.545200526
 10
150.6933566713
 20
98.5099294881
 10
150.6919125565
 20
98.4724990901
 10
150.689294135
 20
98.4329430197
 10
150.6853163635
 20
98.3912866687
 10
150.6797888336
 20
98.3476048232
 10
150.6725223634
 20
98.3020223505
 10
150.6632848892
 20
98.2544702994
 10
150.6518926403
 20
98.2052014708
 10
150.6382814828
 20
98.1548334846
 10
150.622310613
 20
98.1035239544
 10
150.603816663
 20
98.0513618666
 10
150.5828025188
 20
97.9988544383
 10
150.5591635281
 20
97.9461366371
 10
150.5328051197
 20
97.8933652761
 10
150.5038437067
 20
97.8410577955
 10
150.472243422
 20
97.7893611977
 10
150.4379736652
 20
97.738424704
 10
150.4012603114
 20
97.6887251203
 10
150.3621349237
 20
97.6403933581
 10
150.3206314126
 20
97.593555072
 10
150.2770729001
 20
97.5486154855
 10
150.2315379866
 20
97.5056575933
 10
150.1841246622
 20
97.4647756191
 10
150.1352677225
 20
97.4263076132
 10
150.0850902478
 20
97.3902799042
 10
150.0337299502
 20
97.3567235252
 10
149.9817120735
 20
97.3258800064
 10
149.9291910113
 20
97.2977090204
 10
149.8763153905
 20
97.2721634017
 10
149.823649187
 20
97.2493616415
 10
149.7713498854
 20
97.2291931143
 10
149.7195552854
 20
97.2115391599
 10
149.6688235107
 20
97.1963978454
 10
149.6192887707
 20
97.1835986261
 10
149.5710622602
 20
97.1729687904
 10
149.5246714237
 20
97.1644091403
 10
149.4802096387
 20
97.1577097802
 10
149.4377546417
 20
97.1526671224
 10
149.3978015991
 20
97.1491168434
 10
149.3605476988
 20
97.1468425014
 10
149.3258890124
 20
97.145619996
 10
149.2938539135
 20
97.1452538337
  0
LWPOLYLINE
  5
4B1
100
AcDbEntity
  8
ASSI
100
AcDbPolyline
 62
253
  6
CONTINUOUS
 90
43
 70
0
 10
150.6938006058
 20
98.545200526
 10
150.6933566713
 20
98.5099294881
 10
150.6919125565
 20
98.4724990901
 10
150.689294135
 20
98.4329430197
 10
150.6853163635
 20
98.3912866687
 10
150.6797888336
 20
98.3476048232
 10
150.6725223634
 20
98.3020223505
 10
150.6632848892
 20
98.2544702994
 10
150.6518926403
 20
98.2052014708
 10
150.6382814828
 20
98.1548334846
 10
150.622310613
 20
98.1035239544
 10
150.603816663
 20
98.0513618666
 10
150.5828025188
 20
97.9988544383
 10
150.5591635281
 20
97.9461366371
 10
150.5328051197
 20
97.8933652761
 10
150.5038437067
 20
97.8410577955
 10
150.472243422
 20
97.7893611977
 10
150.4379736652
 20
97.738424704
 10
150.4012603114
 20
97.6887251203
 10
150.3621349237
 20
97.6403933581
 10
150.3206314126
 20
97.593555072
 10
150.2770729001
 20
97.5486154855
 10
150.2315379866
 20
97.5056575933
 10
150.1841246622
 20
97.4647756191
 10
150.1352677225
 20
97.4263076132
 10
150.0850902478
 20
97.3902799042
 10
150.0337299502
 20
97.3567235252
 10
149.9817120735
 20
97.3258800064
 10
149.9291910113
 20
97.2977090204
 10
149.8763153905
 20
97.2721634017
 10
149.823649187
 20
97.2493616415
 10
149.7713498854
 20
97.2291931143
 10
149.7195552854
 20
97.2115391599
 10
149.6688235107
 20
97.1963978454
 10
149.6192887707
 20
97.1835986261
 10
149.5710622602
 20
97.1729687904
 10
149.5246714237
 20
97.1644091403
 10
149.4802096387
 20
97.1577097802
 10
149.4377546417
 20
97.1526671224
 10
149.3978015991
 20
97.1491168434
 10
149.3605476988
 20
97.1468425014
 10
149.3258890124
 20
97.145619996
 10
149.2938539135
 20
97.1452538337
  0
LINE
  5
4B2
100
AcDbEntity
  8
0
100
AcDbLine
 62
7
  6
CONTINUOUS
 10
139.1902946276
 20
98.0987598119
 11
143.5902946276
 21
102.4987598119
  0
LINE
  5
4B3
100
AcDbEntity
  8
0
100
AcDbLine
 62
7
  6
CONTINUOUS
 10
139.5902946276
 20
98.0987598119
 11
143.9902946276
 21
102.4987598119
  0
LINE
  5
4B4
100
AcDbEntity
  8
0
100
AcDbLine
 62
7
  6
CONTINUOUS
 10
139.9902946276
 20
98.0987598119
 11
144.3902946276
 21
102.4987598119
  0
LINE
  5
4B5
100
AcDbEntity
  8
0
100
AcDbLine
 62
7
  6
CONTINUOUS
 10
140.3902946276
 20
98.0987598119
 11
144.7902946276
 21
102.4987598119
  0
LINE
  5
4B6
100
AcDbEntity
  8
0
100
AcDbLine
 62
7
  6
CONTINUOUS
 10
140.7902946276
 20
98.0987598119
 11
145.1902946276
 21
102.4987598119
  0
LINE
  5
4B7
100
AcDbEntity
  8
0
100
AcDbLine
 62
7
  6
CONTINUOUS
 10
141.1902946276
 20
98.0987598119
 11
145.5902946276
 21
102.4987598119
  0
LINE
  5
4B8
100
AcDbEntity
  8
ASSI
100
AcDbLine
 62
7
  6
CONTINUOUS
 10
145.3372326276
 20
119.4903658119
 11
146.1269256276
 21
119.4903658119
  0
LINE
  5
4B9
100
AcDbEntity
  8
ASSI
100
AcDbLine
 62
7
  6
CONTINUOUS
 10
145.9744006276
 20
119.9653848119
 11
145.4897506276
 21
119.9653848119
  0
LINE
  5
4BA
100
AcDbEntity
  8
ASSI
100
AcDbLine
 62
7
  6
CONTINUOUS
 10
147.6182256276
 20
119.9653908119
 11
148.0546326276
 21
119.9653848119
  0
LINE
  5
4BB
100
AcDbEntity
  8
ASSI
100
AcDbLine
 62
7
  6
CONTINUOUS
 10
148.2196276823
 20
120.4279098119
 11
147.6112756276
 21
120.4279098119
  0
LINE
  5
4BC
100
AcDbEntity
  8
ASSI
100
AcDbLine
 62
7
  6
CONTINUOUS
 10
148.0546326276
 20
119.9653848119
 11
148.5557136276
 21
118.9987038119
  0
LINE
  5
4BD
100
AcDbEntity
  8
ASSI
100
AcDbLine
 62
7
  6
CONTINUOUS
 10
149.1189076276
 20
118.9987098119
 11
148.5866623581
 21
120.0255182609
  0
LINE
  5
4BE
100
AcDbEntity
  8
RACCORDO
100
AcDbLine
 62
253
  6
CONTINUOUS
 10
153.3902946276
 20
92.1987598119
 11
153.3902946276
 21
132.8987598119
  0
LINE
  5
4BF
100
AcDbEntity
  8
ASSI
100
AcDbLine
 62
253
  6
CONTINUOUS
 10
153.3902946276
 20
92.1987598119
 11
153.3902946276
 21
132.8987598119
  0
LINE
  5
4C0
100
AcDbEntity
  8
RACCORDO
100
AcDbLine
 62
7
  6
CONTINUOUS
 10
153.6902946276
 20
92.4987598119
 11
153.6902946276
 21
105.0487598119
  0
LINE
  5
4C1
100
AcDbEntity
  8
0
100
AcDbLine
 62
7
  6
CONTINUOUS
 10
153.6902946276
 20
105.0487598119
 11
153.6902946276
 21
120.0487598119
  0
LINE
  5
4C2
100
AcDbEntity
  8
RACCORDO
100
AcDbLine
 62
7
  6
CONTINUOUS
 10
153.6902946276
 20
120.0487598119
 11
153.6902946276
 21
132.5987598119
  0
LINE
  5
4C3
100
AcDbEntity
  8
ASSI
100
AcDbLine
 62
7
  6
CONTINUOUS
 10
153.6902946276
 20
92.4987598119
 11
153.6902946276
 21
132.5987598119
  0
LINE
  5
4C4
100
AcDbEntity
  8
0
100
AcDbLine
 62
7
  6
CONTINUOUS
 10
151.4885186276
 20
106.3487598119
 11
151.0295456276
 21
105.5798798119
  0
LINE
  5
4C5
100
AcDbEntity
  8
ASSI
100
AcDbLine
 62
7
  6
CONTINUOUS
 10
151.4885186276
 20
106.3487598119
 11
151.0295456276
 21
105.5798798119
  0
LINE
  5
4C6
100
AcDbEntity
  8
0
100
AcDbLine
 62
7
  6
CONTINUOUS
 10
141.5902946276
 20
98.0987598119
 11
145.9902946276
 21
102.4987598119
  0
LINE
  5
4C7
100
AcDbEntity
  8
0
100
AcDbLine
 62
7
  6
CONTINUOUS
 10
141.9902946276
 20
98.0987598119
 11
146.3902946276
 21
102.4987598119
  0
LINE
  5
4C8
100
AcDbEntity
  8
0
100
AcDbLine
 62
7
  6
CONTINUOUS
 10
142.3902946276
 20
98.0987598119
 11
146.7902946276
 21
102.4987598119
  0
LINE
  5
4C9
100
AcDbEntity
  8
0
100
AcDbLine
 62
7
  6
CONTINUOUS
 10
142.7902946276
 20
98.0987598119
 11
147.1902946276
 21
102.4987598119
  0
LINE
  5
4CA
100
AcDbEntity
  8
0
100
AcDbLine
 62
7
  6
CONTINUOUS
 10
143.1902946276
 20
98.0987598119
 11
147.5902946276
 21
102.4987598119
  0
LINE
  5
4CB
100
AcDbEntity
  8
ASSI
100
AcDbLine
 62
7
  6
CONTINUOUS
 10
147.6112696276
 20
121.0362978119
 11
148.2196176276
 21
121.0362978119
  0
LINE
  5
4CC
100
AcDbEntity
  8
ASSI
100
AcDbLine
 62
7
  6
CONTINUOUS
 10
144.3460136276
 20
121.4988098119
 11
143.5901196276
 21
121.4988098119
  0
LINE
  5
4CD
100
AcDbEntity
  8
ASSI
100
AcDbLine
 62
7
  6
CONTINUOUS
 10
142.6563816276
 20
121.4988098119
 11
141.9004886276
 21
121.4988098119
  0
LINE
  5
4CE
100
AcDbEntity
  8
ASSI
100
AcDbLine
 62
7
  6
CONTINUOUS
 10
141.4004886276
 20
121.4988098119
 11
140.9004696276
 21
121.4988098119
  0
LINE
  5
4CF
100
AcDbEntity
  8
ASSI
100
AcDbLine
 62
7
  6
CONTINUOUS
 10
140.5671256276
 20
121.4988098119
 11
140.0671006276
 21
121.4988098119
  0
LINE
  5
4D0
100
AcDbEntity
  8
ASSI
100
AcDbLine
 62
7
  6
CONTINUOUS
 10
138.9617066276
 20
121.4988098119
 11
138.4616816276
 21
121.4988098119
  0
LINE
  5
4D1
100
AcDbEntity
  8
ASSI
100
AcDbLine
 62
7
  6
CONTINUOUS
 10
148.2890368787
 20
121.4988158119
 11
147.1181446276
 21
121.4988158119
  0
LINE
  5
4D2
100
AcDbEntity
  8
ASSI
100
AcDbLine
 62
7
  6
CONTINUOUS
 10
145.9820946276
 20
121.4988158119
 11
145.4820506276
 21
121.4988158119
  0
LINE
  5
4D3
100
AcDbEntity
  8
0
100
AcDbLine
 62
7
  6
CONTINUOUS
 10
154.3902946276
 20
106.5686282273
 11
154.3902946276
 21
118.5288913965
  0
LINE
  5
4D4
100
AcDbEntity
  8
ASSI
100
AcDbLine
 62
7
  6
CONTINUOUS
 10
154.3902946276
 20
106.5686282273
 11
154.3902946276
 21
118.5288913965
  0
LINE
  5
4D5
100
AcDbEntity
  8
RACCORDO
100
AcDbLine
 62
7
  6
CONTINUOUS
 10
154.8902946276
 20
91.498637968
 11
154.8902946276
 21
133.5988816558
  0
LINE
  5
4D6
100
AcDbEntity
  8
ASSI
100
AcDbLine
 62
7
  6
CONTINUOUS
 10
154.8902946276
 20
91.498637968
 11
154.8902946276
 21
133.5988816558
  0
LINE
  5
4D7
100
AcDbEntity
  8
0
100
AcDbLine
 62
7
  6
CONTINUOUS
 10
151.1386276276
 20
105.3927708119
 11
151.7426546276
 21
106.3487598119
  0
LINE
  5
4D8
100
AcDbEntity
  8
ASSI
100
AcDbLine
 62
7
  6
CONTINUOUS
 10
151.1386276276
 20
105.3927708119
 11
151.7426546276
 21
106.3487598119
  0
LINE
  5
4D9
100
AcDbEntity
  8
0
100
AcDbLine
 62
7
  6
CONTINUOUS
 10
143.5902946276
 20
98.0987598119
 11
147.9902946276
 21
102.4987598119
  0
LINE
  5
4DA
100
AcDbEntity
  8
0
100
AcDbLine
 62
7
  6
CONTINUOUS
 10
143.9902946276
 20
98.0987598119
 11
148.3902946276
 21
102.4987598119
  0
LINE
  5
4DB
100
AcDbEntity
  8
0
100
AcDbLine
 62
7
  6
CONTINUOUS
 10
144.3902946276
 20
98.0987598119
 11
148.7902946276
 21
102.4987598119
  0
LINE
  5
4DC
100
AcDbEntity
  8
0
100
AcDbLine
 62
7
  6
CONTINUOUS
 10
144.7902946276
 20
98.0987598119
 11
149.1902946276
 21
102.4987598119
  0
LINE
  5
4DD
100
AcDbEntity
  8
0
100
AcDbLine
 62
7
  6
CONTINUOUS
 10
145.1902946276
 20
98.0987598119
 11
149.5902946276
 21
102.4987598119
  0
LINE
  5
4DE
100
AcDbEntity
  8
0
100
AcDbLine
 62
7
  6
CONTINUOUS
 10
145.5902946276
 20
98.0987598119
 11
149.5902946276
 21
102.0987598119
  0
LINE
  5
4DF
100
AcDbEntity
  8
0
100
AcDbLine
 62
7
  6
CONTINUOUS
 10
145.9902946276
 20
98.0987598119
 11
149.5902946276
 21
101.6987598119
  0
LINE
  5
4E0
100
AcDbEntity
  8
0
100
AcDbLine
 62
7
  6
CONTINUOUS
 10
146.3902946276
 20
98.0987598119
 11
149.5902946276
 21
101.2987598119
  0
LINE
  5
4E1
100
AcDbEntity
  8
0
100
AcDbLine
 62
7
  6
CONTINUOUS
 10
146.7902946276
 20
98.0987598119
 11
149.5902946276
 21
100.8987598119
  0
LINE
  5
4E2
100
AcDbEntity
  8
0
100
AcDbLine
 62
7
  6
CONTINUOUS
 10
147.1902946276
 20
98.0987598119
 11
149.5902946276
 21
100.4987598119
  0
LINE
  5
4E3
100
AcDbEntity
  8
0
100
AcDbLine
 62
7
  6
CONTINUOUS
 10
147.5902946276
 20
98.0987598119
 11
149.5902946276
 21
100.0987598119
  0
LINE
  5
4E4
100
AcDbEntity
  8
0
100
AcDbLine
 62
7
  6
CONTINUOUS
 10
147.9902946276
 20
98.0987598119
 11
149.5902946276
 21
99.6987598119
  0
LINE
  5
4E5
100
AcDbEntity
  8
0
100
AcDbLine
 62
7
  6
CONTINUOUS
 10
148.3902946276
 20
98.0987598119
 11
149.5902946276
 21
99.2987598119
  0
LINE
  5
4E6
100
AcDbEntity
  8
0
100
AcDbLine
 62
7
  6
CONTINUOUS
 10
148.7902946276
 20
98.0987598119
 11
149.5902946276
 21
98.8987598119
  0
LINE
  5
4E7
100
AcDbEntity
  8
0
100
AcDbLine
 62
7
  6
CONTINUOUS
 10
149.1902946276
 20
98.0987598119
 11
149.5902946276
 21
98.4987598119
  0
LINE
  5
4E8
100
AcDbEntity
  8
0
100
AcDbLine
 62
7
  6
CONTINUOUS
 10
150.7902946276
 20
132.4987598119
 11
153.3902946276
 21
132.8987598119
  0
LINE
  5
4E9
100
AcDbEntity
  8
ASSI
100
AcDbLine
 62
7
  6
CONTINUOUS
 10
150.7902946276
 20
132.4987598119
 11
153.3902946276
 21
132.8987598119
  0
LINE
  5
4EA
100
AcDbEntity
  8
RACCORDO
100
AcDbLine
 62
253
  6
CONTINUOUS
 10
149.1902946276
 20
131.4487598119
 11
148.8785019325
 21
131.4487598119
  0
LINE
  5
4EB
100
AcDbEntity
  8
ASSI
100
AcDbLine
 62
253
  6
CONTINUOUS
 10
149.1902946276
 20
131.4487598119
 11
148.8785019325
 21
131.4487598119
  0
LINE
  5
4EC
100
AcDbEntity
  8
RACCORDO
100
AcDbLine
 62
253
  6
CONTINUOUS
 10
139.1902946276
 20
131.4487598119
 11
138.8785019325
 21
131.4487598119
  0
LINE
  5
4ED
100
AcDbEntity
  8
ASSI
100
AcDbLine
 62
253
  6
CONTINUOUS
 10
139.1902946276
 20
131.4487598119
 11
138.8785019325
 21
131.4487598119
  0
LINE
  5
4EE
100
AcDbEntity
  8
RACCORDO
100
AcDbLine
 62
253
  6
CONTINUOUS
 10
138.3902946276
 20
131.4487598119
 11
138.7020873226
 21
131.4487598119
  0
LINE
  5
4EF
100
AcDbEntity
  8
ASSI
100
AcDbLine
 62
253
  6
CONTINUOUS
 10
138.3902946276
 20
131.4487598119
 11
138.7020873226
 21
131.4487598119
  0
LINE
  5
4F0
100
AcDbEntity
  8
RACCORDO
100
AcDbLine
 62
253
  6
CONTINUOUS
 10
148.3902946276
 20
131.4487598119
 11
148.7020873226
 21
131.4487598119
  0
LINE
  5
4F1
100
AcDbEntity
  8
ASSI
100
AcDbLine
 62
253
  6
CONTINUOUS
 10
148.3902946276
 20
131.4487598119
 11
148.7020873226
 21
131.4487598119
  0
LINE
  5
4F2
100
AcDbEntity
  8
RACCORDO
100
AcDbLine
 62
7
  6
CONTINUOUS
 10
148.8785019325
 20
131.8487598119
 11
148.7020873226
 21
131.8487598119
  0
LINE
  5
4F3
100
AcDbEntity
  8
ASSI
100
AcDbLine
 62
7
  6
CONTINUOUS
 10
148.8785019325
 20
131.8487598119
 11
148.7020873226
 21
131.8487598119
  0
LINE
  5
4F4
100
AcDbEntity
  8
RACCORDO
100
AcDbLine
 62
7
  6
CONTINUOUS
 10
138.8785019325
 20
131.8487598119
 11
138.7020873226
 21
131.8487598119
  0
LINE
  5
4F5
100
AcDbEntity
  8
ASSI
100
AcDbLine
 62
7
  6
CONTINUOUS
 10
138.8785019325
 20
131.8487598119
 11
138.7020873226
 21
131.8487598119
  0
LINE
  5
4F6
100
AcDbEntity
  8
RACCORDO
100
AcDbLine
 62
7
  6
CONTINUOUS
 10
148.8680296912
 20
132.0174088135
 11
148.712559564
 21
132.0174088135
  0
LINE
  5
4F7
100
AcDbEntity
  8
ASSI
100
AcDbLine
 62
7
  6
CONTINUOUS
 10
148.8680296912
 20
132.0174088135
 11
148.712559564
 21
132.0174088135
  0
LINE
  5
4F8
100
AcDbEntity
  8
RACCORDO
100
AcDbLine
 62
7
  6
CONTINUOUS
 10
138.8680296912
 20
132.0174088135
 11
138.712559564
 21
132.0174088135
  0
LINE
  5
4F9
100
AcDbEntity
  8
ASSI
100
AcDbLine
 62
7
  6
CONTINUOUS
 10
138.8680296912
 20
132.0174088135
 11
138.712559564
 21
132.0174088135
  0
LINE
  5
4FA
100
AcDbEntity
  8
0
100
AcDbLine
 62
7
  6
CONTINUOUS
 10
136.7902946276
 20
132.4987598119
 11
134.1902946276
 21
132.8987598119
  0
LINE
  5
4FB
100
AcDbEntity
  8
ASSI
100
AcDbLine
 62
7
  6
CONTINUOUS
 10
136.7902946276
 20
132.4987598119
 11
134.1902946276
 21
132.8987598119
  0
LINE
  5
4FC
100
AcDbEntity
  8
RACCORDO
100
AcDbLine
 62
253
  6
CONTINUOUS
 10
133.8902946276
 20
132.3987598119
 11
138.3902946276
 21
132.3987598119
  0
LINE
  5
4FD
100
AcDbEntity
  8
ASSI
100
AcDbLine
 62
253
  6
CONTINUOUS
 10
133.8902946276
 20
132.3987598119
 11
138.3902946276
 21
132.3987598119
  0
LINE
  5
4FE
100
AcDbEntity
  8
RACCORDO
100
AcDbLine
 62
253
  6
CONTINUOUS
 10
139.1902946276
 20
132.3987598119
 11
148.3902946276
 21
132.3987598119
  0
LINE
  5
4FF
100
AcDbEntity
  8
ASSI
100
AcDbLine
 62
253
  6
CONTINUOUS
 10
139.1902946276
 20
132.3987598119
 11
148.3902946276
 21
132.3987598119
  0
LINE
  5
500
100
AcDbEntity
  8
RACCORDO
100
AcDbLine
 62
253
  6
CONTINUOUS
 10
149.1902946276
 20
132.3987598119
 11
153.6902946276
 21
132.3987598119
  0
LINE
  5
501
100
AcDbEntity
  8
ASSI
100
AcDbLine
 62
253
  6
CONTINUOUS
 10
149.1902946276
 20
132.3987598119
 11
153.6902946276
 21
132.3987598119
  0
LINE
  5
502
100
AcDbEntity
  8
SUPERFICI
100
AcDbLine
 62
7
  6
CONTINUOUS
 10
137.3902946276
 20
132.4987598119
 11
136.7902946276
 21
132.4987598119
  0
LINE
  5
503
100
AcDbEntity
  8
ASSI
100
AcDbLine
 62
7
  6
CONTINUOUS
 10
137.3902946276
 20
132.4987598119
 11
136.7902946276
 21
132.4987598119
  0
LINE
  5
504
100
AcDbEntity
  8
SUPERFICI
100
AcDbLine
 62
7
  6
CONTINUOUS
 10
150.1902946276
 20
132.4987598119
 11
150.7902946276
 21
132.4987598119
  0
LINE
  5
505
100
AcDbEntity
  8
ASSI
100
AcDbLine
 62
7
  6
CONTINUOUS
 10
150.1902946276
 20
132.4987598119
 11
150.7902946276
 21
132.4987598119
  0
LINE
  5
506
100
AcDbEntity
  8
RACCORDO
100
AcDbLine
 62
7
  6
CONTINUOUS
 10
153.3902946276
 20
132.8987598119
 11
150.7902946276
 21
132.8987598119
  0
LINE
  5
507
100
AcDbEntity
  8
RACCORDO
100
AcDbLine
 62
7
  6
CONTINUOUS
 10
136.7902946276
 20
132.8987598119
 11
134.1902946276
 21
132.8987598119
  0
LINE
  5
508
100
AcDbEntity
  8
0
100
AcDbLine
 62
7
  6
CONTINUOUS
 10
136.7902946276
 20
132.8987598119
 11
150.7902946276
 21
132.8987598119
  0
LINE
  5
509
100
AcDbEntity
  8
ASSI
100
AcDbLine
 62
7
  6
CONTINUOUS
 10
134.1902946276
 20
132.8987598119
 11
153.3902946276
 21
132.8987598119
  0
LINE
  5
50A
100
AcDbEntity
  8
RACCORDO
100
AcDbLine
 62
7
  6
CONTINUOUS
 10
154.0904164715
 20
134.3987598119
 11
133.4901727837
 21
134.3987598119
  0
LINE
  5
50B
100
AcDbEntity
  8
ASSI
100
AcDbLine
 62
7
  6
CONTINUOUS
 10
154.0904164715
 20
134.3987598119
 11
133.4901727837
 21
134.3987598119
  0
ARC
  5
50C
100
AcDbEntity
  8
0
100
AcDbCircle
 62
7
  6
CONTINUOUS
 10
155.6902946276
 20
105.0487598119
 40
2.0
100
AcDbArc
 50
130.5416018735
 51
180.0
  0
ARC
  5
50D
100
AcDbEntity
  8
0
100
AcDbCircle
 62
7
  6
CONTINUOUS
 10
155.6902946276
 20
120.0487598119
 40
2.0
100
AcDbArc
 50
180.0
 51
229.4583981265
  0
ARC
  5
50E
100
AcDbEntity
  8
0
100
AcDbCircle
 62
7
  6
CONTINUOUS
 10
131.8902946276
 20
120.0487598119
 40
2.0
100
AcDbArc
 50
310.5416018735
 51
360.0
  0
ARC
  5
50F
100
AcDbEntity
  8
0
100
AcDbCircle
 62
7
  6
CONTINUOUS
 10
131.8902946276
 20
105.0487598119
 40
2.0
100
AcDbArc
 50
0.0
 51
49.4583981265
  0
ARC
  5
510
100
AcDbEntity
  8
ASSI
100
AcDbCircle
 62
7
  6
CONTINUOUS
 10
155.6902946276
 20
105.0487598119
 40
2.0
100
AcDbArc
 50
130.5416018735
 51
180.0
  0
ARC
  5
511
100
AcDbEntity
  8
ASSI
100
AcDbCircle
 62
7
  6
CONTINUOUS
 10
155.6902946276
 20
120.0487598119
 40
2.0
100
AcDbArc
 50
180.0
 51
229.4583981265
  0
ARC
  5
512
100
AcDbEntity
  8
ASSI
100
AcDbCircle
 62
7
  6
CONTINUOUS
 10
131.8902946276
 20
120.0487598119
 40
2.0
100
AcDbArc
 50
310.5416018735
 51
360.0
  0
ARC
  5
513
100
AcDbEntity
  8
ASSI
100
AcDbCircle
 62
7
  6
CONTINUOUS
 10
131.8902946276
 20
105.0487598119
 40
2.0
100
AcDbArc
 50
0.0
 51
49.4583981265
  0
ARC
  5
514
100
AcDbEntity
  8
RACCORDO
100
AcDbCircle
 62
7
  6
CONTINUOUS
 10
138.2902946276
 20
98.5487598119
 40
1.3
100
AcDbArc
 50
180.0
 51
270.0
  0
ARC
  5
515
100
AcDbEntity
  8
RACCORDO
100
AcDbCircle
 62
7
  6
CONTINUOUS
 10
138.2902946276
 20
102.0487598119
 40
1.3
100
AcDbArc
 50
90.0
 51
180.0
  0
ARC
  5
516
100
AcDbEntity
  8
RACCORDO
100
AcDbCircle
 62
7
  6
CONTINUOUS
 10
149.2902946276
 20
98.5487598119
 40
1.3
100
AcDbArc
 50
270.0
 51
360.0
  0
ARC
  5
517
100
AcDbEntity
  8
RACCORDO
100
AcDbCircle
 62
7
  6
CONTINUOUS
 10
149.2902946276
 20
102.0487598119
 40
1.3
100
AcDbArc
 50
0.0
 51
90.0
  0
ARC
  5
518
100
AcDbEntity
  8
ASSI
100
AcDbCircle
 62
7
  6
CONTINUOUS
 10
148.2890196276
 20
120.7321028119
 40
0.7667158029
100
AcDbArc
 50
292.8428449664
 51
89.9987108403
  0
ARC
  5
519
100
AcDbEntity
  8
RACCORDO
100
AcDbCircle
 62
7
  6
CONTINUOUS
 10
138.7902946276
 20
131.4487598119
 40
0.4
100
AcDbArc
 50
180.0
 51
360.0
  0
ARC
  5
51A
100
AcDbEntity
  8
RACCORDO
100
AcDbCircle
 62
7
  6
CONTINUOUS
 10
148.7902946276
 20
131.4487598119
 40
0.4
100
AcDbArc
 50
180.0
 51
360.0
  0
ARC
  5
51B
100
AcDbEntity
  8
ASSI
100
AcDbCircle
 62
7
  6
CONTINUOUS
 10
148.7902946276
 20
131.4487598119
 40
0.4
100
AcDbArc
 50
180.0
 51
360.0
  0
ARC
  5
51C
100
AcDbEntity
  8
ASSI
100
AcDbCircle
 62
7
  6
CONTINUOUS
 10
138.7902946276
 20
131.4487598119
 40
0.4
100
AcDbArc
 50
180.0
 51
360.0
  0
ARC
  5
51D
100
AcDbEntity
  8
RACCORDO
100
AcDbCircle
 62
253
  6
CONTINUOUS
 10
138.7902946276
 20
131.4487598119
 40
0.38819588
100
AcDbArc
 50
180.0
 51
360.0
  0
ARC
  5
51E
100
AcDbEntity
  8
RACCORDO
100
AcDbCircle
 62
253
  6
CONTINUOUS
 10
148.7902946276
 20
131.4487598119
 40
0.38819588
100
AcDbArc
 50
180.0
 51
360.0
  0
ARC
  5
51F
100
AcDbEntity
  8
ASSI
100
AcDbCircle
 62
253
  6
CONTINUOUS
 10
148.7902946276
 20
131.4487598119
 40
0.38819588
100
AcDbArc
 50
180.0
 51
360.0
  0
ARC
  5
520
100
AcDbEntity
  8
ASSI
100
AcDbCircle
 62
253
  6
CONTINUOUS
 10
138.7902946276
 20
131.4487598119
 40
0.38819588
100
AcDbArc
 50
180.0
 51
360.0
  0
ARC
  5
521
100
AcDbEntity
  8
ASSI
100
AcDbCircle
 62
7
  6
CONTINUOUS
 10
148.2196176276
 20
120.7321028119
 40
0.304195
100
AcDbArc
 50
270.0018938328
 51
90.0
  0
ARC
  5
522
100
AcDbEntity
  8
RACCORDO
100
AcDbCircle
 62
7
  6
CONTINUOUS
 10
153.3902946276
 20
92.4987598119
 40
0.3
100
AcDbArc
 50
270.0
 51
360.0
  0
ARC
  5
523
100
AcDbEntity
  8
RACCORDO
100
AcDbCircle
 62
7
  6
CONTINUOUS
 10
153.3902946276
 20
132.5987598119
 40
0.3
100
AcDbArc
 50
0.0
 51
90.0
  0
ARC
  5
524
100
AcDbEntity
  8
RACCORDO
100
AcDbCircle
 62
7
  6
CONTINUOUS
 10
134.1902946276
 20
92.4987598119
 40
0.3
100
AcDbArc
 50
180.0
 51
270.0
  0
ARC
  5
525
100
AcDbEntity
  8
RACCORDO
100
AcDbCircle
 62
7
  6
CONTINUOUS
 10
134.1902946276
 20
132.5987598119
 40
0.3
100
AcDbArc
 50
90.0
 51
180.0
  0
ARC
  5
526
100
AcDbEntity
  8
ASSI
100
AcDbCircle
 62
7
  6
CONTINUOUS
 10
134.1902946276
 20
132.5987598119
 40
0.3
100
AcDbArc
 50
90.0
 51
180.0
  0
ARC
  5
527
100
AcDbEntity
  8
ASSI
100
AcDbCircle
 62
7
  6
CONTINUOUS
 10
134.1902946276
 20
92.4987598119
 40
0.3
100
AcDbArc
 50
180.0
 51
270.0
  0
ARC
  5
528
100
AcDbEntity
  8
ASSI
100
AcDbCircle
 62
7
  6
CONTINUOUS
 10
153.3902946276
 20
132.5987598119
 40
0.3
100
AcDbArc
 50
0.0
 51
90.0
  0
ARC
  5
529
100
AcDbEntity
  8
ASSI
100
AcDbCircle
 62
7
  6
CONTINUOUS
 10
153.3902946276
 20
92.4987598119
 40
0.3
100
AcDbArc
 50
270.0
 51
360.0
  0
ELLIPSE
  5
52A
100
AcDbEntity
  8
RACCORDO
100
AcDbEllipse
 62
7
  6
CONTINUOUS
 10
133.49041649
 20
133.5986379495
 30
0.0
 11
0.5658577513
 21
-0.5658577513
 31
0.0
 40
0.9996954599
 41
2.3563467834
 42
3.9268385237
  0
ELLIPSE
  5
52B
100
AcDbEntity
  8
RACCORDO
100
AcDbEllipse
 62
7
  6
CONTINUOUS
 10
133.49041649
 20
91.4988816743
 30
0.0
 11
-0.5658577513
 21
-0.5658577513
 31
0.0
 40
0.9996954599
 41
-0.7852458701
 42
0.7852458701
  0
ELLIPSE
  5
52C
100
AcDbEntity
  8
RACCORDO
100
AcDbEllipse
 62
7
  6
CONTINUOUS
 10
154.0901727651
 20
133.5986379495
 30
0.0
 11
0.5658577513
 21
0.5658577513
 31
0.0
 40
0.9996954599
 41
-0.7852458701
 42
0.7852458701
  0
ELLIPSE
  5
52D
100
AcDbEntity
  8
RACCORDO
100
AcDbEllipse
 62
7
  6
CONTINUOUS
 10
154.0901727651
 20
91.4988816743
 30
0.0
 11
-0.5658577513
 21
0.5658577513
 31
0.0
 40
0.9996954599
 41
2.3563467834
 42
3.9268385237
  0
ELLIPSE
  5
52E
100
AcDbEntity
  8
RACCORDO
100
AcDbEllipse
 62
7
  6
CONTINUOUS
 10
148.712559564
 20
131.9752465631
 30
0.0
 11
0.3
 21
-0.0
 31
0.0
 40
0.1405408347
 41
1.5707963268
 42
3.1328660073
  0
ELLIPSE
  5
52F
100
AcDbEntity
  8
RACCORDO
100
AcDbEllipse
 62
7
  6
CONTINUOUS
 10
148.8680296912
 20
131.9752465631
 30
0.0
 11
0.3
 21
-0.0
 31
0.0
 40
0.1405408347
 41
0.0087266463
 42
1.5707963268
  0
ELLIPSE
  5
530
100
AcDbEntity
  8
RACCORDO
100
AcDbEllipse
 62
7
  6
CONTINUOUS
 10
138.712559564
 20
131.9752465631
 30
0.0
 11
0.3
 21
0.0
 31
0.0
 40
0.1405408347
 41
1.5707963268
 42
3.1328660073
  0
ELLIPSE
  5
531
100
AcDbEntity
  8
RACCORDO
100
AcDbEllipse
 62
7
  6
CONTINUOUS
 10
138.8680296912
 20
131.9752465631
 30
0.0
 11
0.3
 21
0.0
 31
0.0
 40
0.1405408347
 41
0.0087266463
 42
1.5707963268
  0
ELLIPSE
  5
532
100
AcDbEntity
  8
RACCORDO
100
AcDbEllipse
 62
7
  6
CONTINUOUS
 10
148.8785019325
 20
131.8065975615
 30
0.0
 11
0.3
 21
0.0
 31
0.0
 40
0.1405408347
 41
0.0087266463
 42
1.5707963268
  0
ELLIPSE
  5
533
100
AcDbEntity
  8
RACCORDO
100
AcDbEllipse
 62
7
  6
CONTINUOUS
 10
148.7020873226
 20
131.8065975615
 30
0.0
 11
0.3
 21
-0.0
 31
0.0
 40
0.1405408347
 41
1.5707963268
 42
3.1328660073
  0
ELLIPSE
  5
534
100
AcDbEntity
  8
RACCORDO
100
AcDbEllipse
 62
7
  6
CONTINUOUS
 10
138.8785019325
 20
131.8065975615
 30
0.0
 11
0.3
 21
-0.0
 31
0.0
 40
0.1405408347
 41
0.0087266463
 42
1.5707963268
  0
ELLIPSE
  5
535
100
AcDbEntity
  8
RACCORDO
100
AcDbEllipse
 62
7
  6
CONTINUOUS
 10
138.7020873226
 20
131.8065975615
 30
0.0
 11
0.3
 21
-0.0
 31
0.0
 40
0.1405408347
 41
1.5707963268
 42
3.1328660073
  0
ELLIPSE
  5
536
100
AcDbEntity
  8
RACCORDO
100
AcDbEllipse
 62
7
  6
CONTINUOUS
 10
138.2903479373
 20
98.5488131216
 30
0.0
 11
0.9900248836
 21
0.9900248836
 31
0.0
 40
0.9999238505
 41
2.3562325664
 42
3.9269527408
  0
ELLIPSE
  5
537
100
AcDbEntity
  8
RACCORDO
100
AcDbEllipse
 62
7
  6
CONTINUOUS
 10
138.2903479373
 20
102.0487065022
 30
0.0
 11
0.9900248836
 21
-0.9900248836
 31
0.0
 40
0.9999238505
 41
2.3562325664
 42
3.9269527408
  0
ELLIPSE
  5
538
100
AcDbEntity
  8
RACCORDO
100
AcDbEllipse
 62
7
  6
CONTINUOUS
 10
149.2902413178
 20
102.0487065022
 30
0.0
 11
-0.9900248836
 21
-0.9900248836
 31
0.0
 40
0.9999238505
 41
2.3562325664
 42
3.9269527408
  0
ELLIPSE
  5
539
100
AcDbEntity
  8
RACCORDO
100
AcDbEllipse
 62
7
  6
CONTINUOUS
 10
149.2902413178
 20
98.5488131216
 30
0.0
 11
-0.9900248836
 21
0.9900248836
 31
0.0
 40
0.9999238505
 41
2.3562325664
 42
3.9269527408
  0
ELLIPSE
  5
53A
100
AcDbEntity
  8
RACCORDO
100
AcDbEllipse
 62
7
  6
CONTINUOUS
 10
139.1859311937
 20
132.3987598119
 30
0.0
 11
0.0
 21
0.5
 31
0.0
 40
0.0087268678
 41
4.7123889804
 42
6.2831853072
  0
ELLIPSE
  5
53B
100
AcDbEntity
  8
RACCORDO
100
AcDbEllipse
 62
7
  6
CONTINUOUS
 10
148.3946580615
 20
132.3987598119
 30
0.0
 11
0.0
 21
0.5
 31
0.0
 40
0.0087268678
 41
6.2831853072
 42
7.853981634
  0
ELLIPSE
  5
53C
100
AcDbEntity
  8
RACCORDO
100
AcDbEllipse
 62
7
  6
CONTINUOUS
 10
138.3946580615
 20
132.3987598119
 30
0.0
 11
0.0
 21
0.5
 31
0.0
 40
0.0087268678
 41
6.2831853072
 42
7.853981634
  0
ELLIPSE
  5
53D
100
AcDbEntity
  8
RACCORDO
100
AcDbEllipse
 62
7
  6
CONTINUOUS
 10
149.1859311937
 20
132.3987598119
 30
0.0
 11
0.0
 21
0.5
 31
0.0
 40
0.0087268678
 41
4.7123889804
 42
6.2831853072
  0
ELLIPSE
  5
53E
100
AcDbEntity
  8
ASSI
100
AcDbEllipse
 62
7
  6
CONTINUOUS
 10
133.49041649
 20
133.5986379495
 30
0.0
 11
0.5658577513
 21
-0.5658577513
 31
0.0
 40
0.9996954599
 41
2.3563467834
 42
3.9268385237
  0
ELLIPSE
  5
53F
100
AcDbEntity
  8
ASSI
100
AcDbEllipse
 62
7
  6
CONTINUOUS
 10
133.49041649
 20
91.4988816743
 30
0.0
 11
-0.5658577513
 21
-0.5658577513
 31
0.0
 40
0.9996954599
 41
-0.7852458701
 42
0.7852458701
  0
ELLIPSE
  5
540
100
AcDbEntity
  8
ASSI
100
AcDbEllipse
 62
7
  6
CONTINUOUS
 10
154.0901727651
 20
133.5986379495
 30
0.0
 11
0.5658577513
 21
0.5658577513
 31
0.0
 40
0.9996954599
 41
-0.7852458701
 42
0.7852458701
  0
ELLIPSE
  5
541
100
AcDbEntity
  8
ASSI
100
AcDbEllipse
 62
7
  6
CONTINUOUS
 10
154.0901727651
 20
91.4988816743
 30
0.0
 11
-0.5658577513
 21
0.5658577513
 31
0.0
 40
0.9996954599
 41
2.3563467834
 42
3.9268385237
  0
ELLIPSE
  5
542
100
AcDbEntity
  8
ASSI
100
AcDbEllipse
 62
7
  6
CONTINUOUS
 10
138.7020873226
 20
131.8065975615
 30
0.0
 11
0.3
 21
-0.0
 31
0.0
 40
0.1405408347
 41
1.5707963268
 42
3.1328660073
  0
ELLIPSE
  5
543
100
AcDbEntity
  8
ASSI
100
AcDbEllipse
 62
7
  6
CONTINUOUS
 10
138.8785019325
 20
131.8065975615
 30
0.0
 11
0.3
 21
-0.0
 31
0.0
 40
0.1405408347
 41
0.0087266463
 42
1.5707963268
  0
ELLIPSE
  5
544
100
AcDbEntity
  8
ASSI
100
AcDbEllipse
 62
7
  6
CONTINUOUS
 10
148.7020873226
 20
131.8065975615
 30
0.0
 11
0.3
 21
-0.0
 31
0.0
 40
0.1405408347
 41
1.5707963268
 42
3.1328660073
  0
ELLIPSE
  5
545
100
AcDbEntity
  8
ASSI
100
AcDbEllipse
 62
7
  6
CONTINUOUS
 10
148.8785019325
 20
131.8065975615
 30
0.0
 11
0.3
 21
0.0
 31
0.0
 40
0.1405408347
 41
0.0087266463
 42
1.5707963268
  0
ELLIPSE
  5
546
100
AcDbEntity
  8
ASSI
100
AcDbEllipse
 62
7
  6
CONTINUOUS
 10
148.712559564
 20
131.9752465631
 30
0.0
 11
0.3
 21
-0.0
 31
0.0
 40
0.1405408347
 41
1.5707963268
 42
3.1328660073
  0
ELLIPSE
  5
547
100
AcDbEntity
  8
ASSI
100
AcDbEllipse
 62
7
  6
CONTINUOUS
 10
148.8680296912
 20
131.9752465631
 30
0.0
 11
0.3
 21
-0.0
 31
0.0
 40
0.1405408347
 41
0.0087266463
 42
1.5707963268
  0
ELLIPSE
  5
548
100
AcDbEntity
  8
ASSI
100
AcDbEllipse
 62
7
  6
CONTINUOUS
 10
138.2903479373
 20
98.5488131216
 30
0.0
 11
0.9900248836
 21
0.9900248836
 31
0.0
 40
0.9999238505
 41
2.3562325664
 42
3.9269527408
  0
ELLIPSE
  5
549
100
AcDbEntity
  8
ASSI
100
AcDbEllipse
 62
7
  6
CONTINUOUS
 10
138.2903479373
 20
102.0487065022
 30
0.0
 11
0.9900248836
 21
-0.9900248836
 31
0.0
 40
0.9999238505
 41
2.3562325664
 42
3.9269527408
  0
ELLIPSE
  5
54A
100
AcDbEntity
  8
ASSI
100
AcDbEllipse
 62
7
  6
CONTINUOUS
 10
149.2902413178
 20
102.0487065022
 30
0.0
 11
-0.9900248836
 21
-0.9900248836
 31
0.0
 40
0.9999238505
 41
2.3562325664
 42
3.9269527408
  0
ELLIPSE
  5
54B
100
AcDbEntity
  8
ASSI
100
AcDbEllipse
 62
7
  6
CONTINUOUS
 10
149.2902413178
 20
98.5488131216
 30
0.0
 11
-0.9900248836
 21
0.9900248836
 31
0.0
 40
0.9999238505
 41
2.3562325664
 42
3.9269527408
  0
ELLIPSE
  5
54C
100
AcDbEntity
  8
ASSI
100
AcDbEllipse
 62
7
  6
CONTINUOUS
 10
138.712559564
 20
131.9752465631
 30
0.0
 11
0.3
 21
0.0
 31
0.0
 40
0.1405408347
 41
1.5707963268
 42
3.1328660073
  0
ELLIPSE
  5
54D
100
AcDbEntity
  8
ASSI
100
AcDbEllipse
 62
7
  6
CONTINUOUS
 10
138.8680296912
 20
131.9752465631
 30
0.0
 11
0.3
 21
0.0
 31
0.0
 40
0.1405408347
 41
0.0087266463
 42
1.5707963268
  0
ELLIPSE
  5
54E
100
AcDbEntity
  8
ASSI
100
AcDbEllipse
 62
7
  6
CONTINUOUS
 10
139.1859311937
 20
132.3987598119
 30
0.0
 11
0.0
 21
0.5
 31
0.0
 40
0.0087268678
 41
4.7123889804
 42
6.2831853072
  0
ELLIPSE
  5
54F
100
AcDbEntity
  8
ASSI
100
AcDbEllipse
 62
7
  6
CONTINUOUS
 10
148.3946580615
 20
132.3987598119
 30
0.0
 11
0.0
 21
0.5
 31
0.0
 40
0.0087268678
 41
6.2831853072
 42
7.853981634
  0
ELLIPSE
  5
550
100
AcDbEntity
  8
ASSI
100
AcDbEllipse
 62
7
  6
CONTINUOUS
 10
138.3946580615
 20
132.3987598119
 30
0.0
 11
0.0
 21
0.5
 31
0.0
 40
0.0087268678
 41
6.2831853072
 42
7.853981634
  0
ELLIPSE
  5
551
100
AcDbEntity
  8
ASSI
100
AcDbEllipse
 62
7
  6
CONTINUOUS
 10
149.1859311937
 20
132.3987598119
 30
0.0
 11
0.0
 21
0.5
 31
0.0
 40
0.0087268678
 41
4.7123889804
 42
6.2831853072
  0
ENDSEC
  0
SECTION
  2
OBJECTS
  0
DICTIONARY
  5
C
100
AcDbDictionary
280
0
281
1
  3
ACAD_GROUP
350
D
  3
ACAD_MLINESTYLE
350
17
  3
ACAD_LAYOUT
350
1A
  3
ACAD_PLOTSETTINGS
350
19
  3
ACAD_PLOTSTYLENAME
350
E
  0
DICTIONARY
  5
D
102
{ACAD_REACTORS
330
C
102
}
100
AcDbDictionary
280
0
281
1
  0
ACDBDICTIONARYWDFLT
  5
E
102
{ACAD_REACTORS
330
C
102
}
100
AcDbDictionary
281
1
  3
Normal
350
F
100
AcDbDictionaryWithDefault
340
F
  0
DICTIONARY
  5
17
102
{ACAD_REACTORS
330
C
102
}
100
AcDbDictionary
280
0
281
1
  3
Standard
350
18
  0
DICTIONARY
  5
19
102
{ACAD_REACTORS
330
C
102
}
100
AcDbDictionary
281
1
  0
DICTIONARY
  5
1A
102
{ACAD_REACTORS
330
C
102
}
100
AcDbDictionary
281
1
  3
Model
350
552
  3
Layout1
350
553
  0
ACDBPLACEHOLDER
  5
F
102
{ACAD_REACTORS
330
E
102
}
  0
MLINESTYLE
  5
18
102
{ACAD_REACTORS
330
17
102
}
100
AcDbMlineStyle
  2
STANDARD
 70
0
  3

 62
256
 51
90.0
 52
90.0
 71
2
 49
0.5
 62
256
  6
BYLAYER
 49
-0.5
 62
256
  6
BYLAYER
  0
LAYOUT
  5
552
102
{ACAD_REACTORS
330
1A
102
}
100
AcDbPlotSettings
  1

  2
none_device
  4
ISO_A4_(297.00_x_210.00_MM)
  6

 40
0.0
 41
0.0
 42
0.0
 43
0.0
 44
297.0
 45
210.0
 46
0.0
 47
0.0
 48
0.0
 49
0.0
140
0.0
141
0.0
142
1.0
143
1.0
 70
1024
 72
1
 73
0
 74
0
  7

 75
0
147
1.0
148
0.0
149
0.0
100
AcDbLayout
  1
Model
 70
0
 71
0
 10
0.0
 20
0.0
 11
297.0
 21
210.0
 12
0.0
 22
0.0
 32
0.0
 14
0.0
 24
0.0
 34
0.0
 15
0.0
 25
0.0
 35
0.0
146
0.0
 13
0.0
 23
0.0
 33
0.0
 16
1.0
 26
0.0
 36
0.0
 17
0.0
 27
1.0
 37
0.0
 76
0
330
215
345
0
346
0
  0
LAYOUT
  5
553
102
{ACAD_REACTORS
330
1A
102
}
100
AcDbPlotSettings
  1

  2
none_device
  4
ISO_A4_(297.00_x_210.00_MM)
  6

 40
0.0
 41
0.0
 42
0.0
 43
0.0
 44
297.0
 45
210.0
 46
0.0
 47
0.0
 48
0.0
 49
0.0
140
0.0
141
0.0
142
1.0
143
1.0
 70
0
 72
1
 73
0
 74
0
  7

 75
0
147
1.0
148
0.0
149
0.0
100
AcDbLayout
  1
Layout1
 70
0
 71
1
 10
0.0
 20
0.0
 11
297.0
 21
210.0
 12
0.0
 22
0.0
 32
0.0
 14
0.0
 24
0.0
 34
0.0
 15
0.0
 25
0.0
 35
0.0
146
0.0
 13
0.0
 23
0.0
 33
0.0
 16
1.0
 26
0.0
 36
0.0
 17
0.0
 27
1.0
 37
0.0
 76
0
330
216
345
0
346
0
  0
ENDSEC
  0
EOF
