0
SECTION
2
HEADER
9
$ACADVER
1
AC1015
9
$DWGCODEPAGE
3
ANSI_1252
9
$EXTMAX
10
431.8000000000
20
558.8000000000
30
0.0000000000
9
$EXTMIN
10
0.0000000000
20
0.0000000000
30
0.0000000000
9
$LIMMIN
10
0.0000000000
20
0.0000000000
9
$LIMMAX
10
431.8000000000
20
558.8000000000
9
$VIEWCTR
10
215.9000000000
20
279.4000000000
9
$VIEWSIZE
40
558.8000000000
9
$CLAYER
8
0
9
$LTSCALE
40
36.4254814815
9
$CELTYPE
6
BYLAYER
9
$DIMSCALE
40
1
9
$DIMASZ
40
3.0000000000
9
$DIMEXO
40
4.1392592593
9
$DIMDLI
40
25.1666962963
9
$DIMEXE
40
11.9210666667
9
$DIMCEN
40
5.9605333333
9
$DIMLFAC
40
1.0000000000
9
$DIMBLK
1
_FILLED
9
$DIMTXT
40
3.0000000000
9
$DIMTOL
70
1
9
$DIMLIM
70
0
9
$DIMTFAC
40
1.0000000000
9
$DIMTP
40
0.0100000000
9
$DIMTM
40
0.0100000000
9
$PDMODE
70
3
9
$PDSIZE
40
3.0000000000
9
$HANDSEED
5
58A
9
$MEASUREMENT
70
1
9
$INSUNITS
70
4
0
ENDSEC
0
SECTION
2
CLASSES
0
CLASS
1
ACDBDICTIONARYWDFLT
2
AcDbDictionaryWithDefault
3
AutoCAD 2000
90
0
280
0
281
0
0
CLASS
1
ACDBPLACEHOLDER
2
AcDbPlaceHolder
3
AutoCAD 2000
90
0
280
0
281
0
0
CLASS
1
LAYOUT
2
AcDbLayout
3
AutoCAD 2000
90
0
280
0
281
0
0
ENDSEC
0
SECTION
2
TABLES
0
TABLE
2
VPORT
5
8
100
AcDbSymbolTable
70
2
0
VPORT
5
1F4
100
AcDbSymbolTableRecord
100
AcDbViewportTableRecord
2
*ACTIVE
70
0
10
0.0
20
0.0
11
1.0
21
1.0
12
215.9000000000
22
279.4000000000
13
0.0
23
0.0
14
1.0
24
1.0
15
0.0
25
0.0
16
0.0
26
0.0
36
1.0
17
0.0
27
0.0
37
0.0
40
558.8000000000
41
0.7727272727
42
50.0
43
0.0
44
0.0
50
0.0
51
0.0
71
0
72
100
73
1
74
1
75
0
76
0
77
0
78
0
0
ENDTAB
0
TABLE
2
LTYPE
5
5
100
AcDbSymbolTable
70
6
0
LTYPE
5
14
100
AcDbSymbolTableRecord
100
AcDbLinetypeTableRecord
2
BYBLOCK
70
0
3

72
65
73
0
40
0.0
0
LTYPE
5
15
100
AcDbSymbolTableRecord
100
AcDbLinetypeTableRecord
2
BYLAYER
70
0
3

72
65
73
0
40
0.0
0
LTYPE
5
16
100
AcDbSymbolTableRecord
100
AcDbLinetypeTableRecord
2
CONTINUOUS
70
64
3
Solid line
72
65
73
0
40
0
0
LTYPE
5
1F5
100
AcDbSymbolTableRecord
100
AcDbLinetypeTableRecord
2
CENTER
70
64
3
____ _ ____ _ ____ _ ____ _ ____ _ ____ _ ____
72
65
73
4
40
0.6
49
0.375
74
0
49
-0.075
74
0
49
0.075
74
0
49
-0.075
74
0
0
LTYPE
5
1F6
100
AcDbSymbolTableRecord
100
AcDbLinetypeTableRecord
2
HIDDEN
70
64
3
- - - - - - - - - - - - - - - - - - - -
72
65
73
2
40
0.2
49
0.1
74
0
49
-0.1
74
0
0
LTYPE
5
1F7
100
AcDbSymbolTableRecord
100
AcDbLinetypeTableRecord
2
PHANTOM
70
64
3
_____ _ _ _____ _ _ _____ _ _ _____
72
65
73
6
40
0.8
49
0.45
74
0
49
-0.05
74
0
49
0.1
74
0
49
-0.05
74
0
49
0.1
74
0
49
-0.05
74
0
0
LTYPE
5
1F8
100
AcDbSymbolTableRecord
100
AcDbLinetypeTableRecord
2
DOT
70
64
3
. . . . . . . . . . . . . . . . . . . .
72
65
73
2
40
0.2
49
0.1
74
0
49
-0.1
74
0
0
LTYPE
5
1F9
100
AcDbSymbolTableRecord
100
AcDbLinetypeTableRecord
2
DASHED
70
64
3
- - - - - - - - - - - - - - - - - - - -
72
65
73
2
40
0.2
49
0.1
74
0
49
-0.1
74
0
0
ENDTAB
0
TABLE
2
LAYER
5
2
100
AcDbSymbolTable
70
36
0
LAYER
5
10
100
AcDbSymbolTableRecord
100
AcDbLayerTableRecord
2
0
70
0
62
7
6
CONTINUOUS
370
-3
390
F
0
LAYER
5
1FA
100
AcDbSymbolTableRecord
100
AcDbLayerTableRecord
2
DEFAULT_1
70
0
62
7
6
CENTER
370
-3
390
F
0
LAYER
5
1FB
100
AcDbSymbolTableRecord
100
AcDbLayerTableRecord
2
DEFAULT_2
70
0
62
9
6
HIDDEN
370
-3
390
F
0
LAYER
5
1FC
100
AcDbSymbolTableRecord
100
AcDbLayerTableRecord
2
DEFAULT_3
70
0
62
7
6
PHANTOM
370
-3
390
F
0
LAYER
5
1FD
100
AcDbSymbolTableRecord
100
AcDbLayerTableRecord
2
_2D_DELETED_OBJS
70
0
62
7
6
CONTINUOUS
370
-3
390
F
0
LAYER
5
1FE
100
AcDbSymbolTableRecord
100
AcDbLayerTableRecord
2
_BLACK_HOLE
70
0
62
7
6
CONTINUOUS
370
-3
390
F
0
LAYER
5
1FF
100
AcDbSymbolTableRecord
100
AcDbLayerTableRecord
2
0
70
0
62
7
6
CONTINUOUS
370
-3
390
F
0
LAYER
5
200
100
AcDbSymbolTableRecord
100
AcDbLayerTableRecord
2
ASSI
70
0
62
7
6
CONTINUOUS
370
-3
390
F
0
LAYER
5
201
100
AcDbSymbolTableRecord
100
AcDbLayerTableRecord
2
COORDINATE
70
0
62
7
6
CONTINUOUS
370
-3
390
F
0
LAYER
5
202
100
AcDbSymbolTableRecord
100
AcDbLayerTableRecord
2
COORD_ORIGINE
70
0
62
7
6
CONTINUOUS
370
-3
390
F
0
LAYER
5
203
100
AcDbSymbolTableRecord
100
AcDbLayerTableRecord
2
CURVE
70
0
62
7
6
CONTINUOUS
370
-3
390
F
0
LAYER
5
204
100
AcDbSymbolTableRecord
100
AcDbLayerTableRecord
2
DEFAULT_1
70
0
62
7
6
CONTINUOUS
370
-3
390
F
0
LAYER
5
205
100
AcDbSymbolTableRecord
100
AcDbLayerTableRecord
2
DEFAULT_2
70
0
62
7
6
CONTINUOUS
370
-3
390
F
0
LAYER
5
206
100
AcDbSymbolTableRecord
100
AcDbLayerTableRecord
2
DEFAULT_3
70
0
62
7
6
CONTINUOUS
370
-3
390
F
0
LAYER
5
207
100
AcDbSymbolTableRecord
100
AcDbLayerTableRecord
2
DRAFT
70
0
62
7
6
CONTINUOUS
370
-3
390
F
0
LAYER
5
208
100
AcDbSymbolTableRecord
100
AcDbLayerTableRecord
2
IMPORT
70
0
62
7
6
CONTINUOUS
370
-3
390
F
0
LAYER
5
209
100
AcDbSymbolTableRecord
100
AcDbLayerTableRecord
2
NOTE
70
0
62
7
6
CONTINUOUS
370
-3
390
F
0
LAYER
5
20A
100
AcDbSymbolTableRecord
100
AcDbLayerTableRecord
2
PIANI
70
0
62
7
6
CONTINUOUS
370
-3
390
F
0
LAYER
5
20B
100
AcDbSymbolTableRecord
100
AcDbLayerTableRecord
2
PIANI_ORIGINE
70
0
62
7
6
CONTINUOUS
370
-3
390
F
0
LAYER
5
20C
100
AcDbSymbolTableRecord
100
AcDbLayerTableRecord
2
PUNTI
70
0
62
7
6
CONTINUOUS
370
-3
390
F
0
LAYER
5
20D
100
AcDbSymbolTableRecord
100
AcDbLayerTableRecord
2
RACCORDO
70
0
62
7
6
CONTINUOUS
370
-3
390
F
0
LAYER
5
20E
100
AcDbSymbolTableRecord
100
AcDbLayerTableRecord
2
SMUSSO
70
0
62
7
6
CONTINUOUS
370
-3
390
F
0
LAYER
5
20F
100
AcDbSymbolTableRecord
100
AcDbLayerTableRecord
2
SNAPLINE
70
0
62
7
6
CONTINUOUS
370
-3
390
F
0
LAYER
5
210
100
AcDbSymbolTableRecord
100
AcDbLayerTableRecord
2
SUPERFICI
70
0
62
7
6
CONTINUOUS
370
-3
390
F
0
LAYER
5
211
100
AcDbSymbolTableRecord
100
AcDbLayerTableRecord
2
TRASH
70
0
62
7
6
CONTINUOUS
370
-3
390
F
0
LAYER
5
212
100
AcDbSymbolTableRecord
100
AcDbLayerTableRecord
2
_2D_DELETED_OBJS
70
0
62
7
6
CONTINUOUS
370
-3
390
F
0
LAYER
5
213
100
AcDbSymbolTableRecord
100
AcDbLayerTableRecord
2
_BLACK_HOLE
70
0
62
7
6
CONTINUOUS
370
-3
390
F
0
ENDTAB
0
TABLE
2
STYLE
5
3
100
AcDbSymbolTable
70
1
0
STYLE
5
11
100
AcDbSymbolTableRecord
100
AcDbTextStyleTableRecord
2
STANDARD
70
0
40
0.0
41
0.8000000000
50
0.0
71
0
42
0.2
3
txt
4

0
ENDTAB
0
TABLE
2
VIEW
5
6
100
AcDbSymbolTable
70
0
0
ENDTAB
0
TABLE
2
UCS
5
7
100
AcDbSymbolTable
70
0
0
ENDTAB
0
TABLE
2
APPID
5
9
100
AcDbSymbolTable
70
1
0
APPID
5
214
100
AcDbSymbolTableRecord
100
AcDbRegAppTableRecord
2
ACAD
70
0
0
ENDTAB
0
TABLE
2
BLOCK_RECORD
5
1
100
AcDbSymbolTable
70
0
0
BLOCK_RECORD
5
1F
100
AcDbSymbolTableRecord
100
AcDbBlockTableRecord
2
*MODEL_SPACE
0
BLOCK_RECORD
5
1B
100
AcDbSymbolTableRecord
100
AcDbBlockTableRecord
2
*PAPER_SPACE
0
ENDTAB
0
TABLE
2
DIMSTYLE
5
A
100
AcDbSymbolTable
70
1
100
AcDbDimStyleTable
71
0
0
DIMSTYLE
105
215
100
AcDbSymbolTableRecord
100
AcDbDimStyleTableRecord
2
STANDARD
70
0
3

4

40
1.0
41
3.0000000000
42
0.0625
43
0.38
44
0.18
45
0.0
46
0.0
47
0.0100000000
48
0.0100000000
140
3.0000000000
141
0.09
142
0.0
143
25.4
144
1.0000000000
145
0.0
146
1.0000000000
147
0.09
71
1
72
0
73
0
74
0
75
0
76
0
77
1
78
8
170
0
171
2
172
0
173
0
174
0
175
0
176
0
177
0
178
0
270
2
271
2
272
2
273
2
274
2
275
0
280
0
281
0
282
0
283
1
284
8
285
0
286
0
287
3
288
0
340
11
0
ENDTAB
0
ENDSEC
0
SECTION
2
BLOCKS
0
BLOCK
5
20
100
AcDbEntity
8
0
100
AcDbBlockBegin
2
*MODEL_SPACE
70
0
10
0.0
20
0.0
30
0.0
3
*MODEL_SPACE
1

0
ENDBLK
5
21
100
AcDbEntity
8
0
100
AcDbBlockEnd
0
BLOCK
5
1C
100
AcDbEntity
8
0
100
AcDbBlockBegin
2
*PAPER_SPACE
70
0
10
0.0
20
0.0
30
0.0
3
*PAPER_SPACE
1

0
ENDBLK
5
1D
100
AcDbEntity
8
0
100
AcDbBlockEnd
0
ENDSEC
0
SECTION
2
ENTITIES
0
LINE
5
216
100
AcDbEntity
8
0
100
AcDbLine
62
0
6
CONTINUOUS
10
-9.8914280831
20
-20.3917837409
11
-9.9414222576
21
-20.3783896437
0
LINE
5
217
100
AcDbEntity
8
0
100
AcDbLine
62
9
6
CONTINUOUS
10
-9.8460024444
20
-20.2857930339
11
-9.7955076269
21
-20.2993357115
0
LINE
5
218
100
AcDbEntity
8
0
100
AcDbLine
62
0
6
CONTINUOUS
10
-2.5705138628
20
-12.6019865799
11
-2.5727682686
21
-12.6012572423
0
LINE
5
219
100
AcDbEntity
8
0
100
AcDbLine
62
0
6
CONTINUOUS
10
-1.0092806839
20
-15.3725162980
11
-0.9869223249
21
-15.3798244624
0
LINE
5
21A
100
AcDbEntity
8
0
100
AcDbLine
62
0
6
CONTINUOUS
10
-10.8435892058
20
-21.8363845754
11
-10.7466826412
21
-21.8691982687
0
LINE
5
21B
100
AcDbEntity
8
0
100
AcDbLine
62
0
6
CONTINUOUS
10
-2.5758229940
20
-10.8255337548
11
-2.4147446762
21
-10.8827334655
0
LINE
5
21C
100
AcDbEntity
8
0
100
AcDbLine
62
0
6
CONTINUOUS
10
-1.7904548555
20
-11.2498149570
11
-1.7931732573
21
-11.2488194971
0
LINE
5
21D
100
AcDbEntity
8
0
100
AcDbLine
62
0
6
CONTINUOUS
10
-2.5727682686
20
-12.6012572423
11
-2.5764996986
21
-12.5996707596
0
LINE
5
21E
100
AcDbEntity
8
0
100
AcDbLine
62
0
6
CONTINUOUS
10
-1.7931732573
20
-11.2488194971
11
-1.7973829092
21
-11.2469640316
0
LINE
5
21F
100
AcDbEntity
8
0
100
AcDbLine
62
0
6
CONTINUOUS
10
-2.5758229940
20
-10.8255337548
11
-2.5846050929
21
-10.8214730619
0
LINE
5
220
100
AcDbEntity
8
0
100
AcDbLine
62
0
6
CONTINUOUS
10
-9.9414222576
20
-20.3783896437
11
-9.9869505399
21
-20.3572614130
0
LINE
5
221
100
AcDbEntity
8
0
100
AcDbLine
62
9
6
CONTINUOUS
10
-9.8933818890
20
-20.2636900860
11
-9.8460024444
21
-20.2857930339
0
LINE
5
222
100
AcDbEntity
8
0
100
AcDbLine
62
0
6
CONTINUOUS
10
-2.5764996986
20
-12.5996707596
11
-2.5817036901
21
-12.5972285696
0
LINE
5
223
100
AcDbEntity
8
0
100
AcDbLine
62
0
6
CONTINUOUS
10
-2.5817036901
20
-12.5972285696
11
-2.5883847057
21
-12.5939292346
0
LINE
5
224
100
AcDbEntity
8
0
100
AcDbLine
62
0
6
CONTINUOUS
10
-10.9366424338
20
-21.7901368307
11
-10.8435892058
21
-21.8363845754
0
LINE
5
225
100
AcDbEntity
8
0
100
AcDbLine
62
0
6
CONTINUOUS
10
-2.5883847057
20
-12.5939292346
11
-2.5965427455
21
-12.5897727546
0
LINE
5
226
100
AcDbEntity
8
0
100
AcDbLine
62
0
6
CONTINUOUS
10
-2.5846050929
20
-10.8214730619
11
-2.5992630797
21
-10.8139347152
0
LINE
5
227
100
AcDbEntity
8
0
100
AcDbLine
62
0
6
CONTINUOUS
10
-2.6070617306
20
-12.5842166094
11
-2.5965427455
21
-12.5897727546
0
LINE
5
228
100
AcDbEntity
8
0
100
AcDbLine
62
0
6
CONTINUOUS
10
-2.5992630797
20
-10.8139347152
11
-2.6197969545
21
-10.8029187149
0
LINE
5
229
100
AcDbEntity
8
0
100
AcDbLine
62
0
6
CONTINUOUS
10
-2.6199538997
20
-12.5772396358
11
-2.6070617306
21
-12.5842166094
0
LINE
5
22A
100
AcDbEntity
8
0
100
AcDbLine
62
0
6
CONTINUOUS
10
-2.6197969545
20
-10.8029187149
11
-2.6470111310
21
-10.7879791426
0
LINE
5
22B
100
AcDbEntity
8
0
100
AcDbLine
62
0
6
CONTINUOUS
10
-2.6352192528
20
-12.5688418338
11
-2.6199538997
21
-12.5772396358
0
LINE
5
22C
100
AcDbEntity
8
0
100
AcDbLine
62
0
6
CONTINUOUS
10
-2.6470111310
20
-10.7879791426
11
-2.6801011954
21
-10.7695619166
0
LINE
5
22D
100
AcDbEntity
8
0
100
AcDbLine
62
0
6
CONTINUOUS
10
-2.6734317056
20
-12.5474696383
11
-2.6352192528
21
-12.5688418338
0
LINE
5
22E
100
AcDbEntity
8
0
100
AcDbLine
62
0
6
CONTINUOUS
10
-2.6801011954
20
-10.7695619166
11
-2.7558648495
21
-10.7267536865
0
LINE
5
22F
100
AcDbEntity
8
0
100
AcDbLine
62
0
6
CONTINUOUS
10
-2.7183259218
20
-12.5219846597
11
-2.6734317056
21
-12.5474696383
0
LINE
5
230
100
AcDbEntity
8
0
100
AcDbLine
62
0
6
CONTINUOUS
10
-2.7558648495
20
-10.7267536865
11
-2.8446746751
21
-10.6758317793
0
LINE
5
231
100
AcDbEntity
8
0
100
AcDbLine
62
0
6
CONTINUOUS
10
-3.2005275593
20
-12.2437493428
11
-2.7183259218
21
-12.5219846597
0
LINE
5
232
100
AcDbEntity
8
0
100
AcDbLine
62
0
6
CONTINUOUS
10
-3.5946746751
20
-11.9748698850
11
-2.6318233126
21
-12.5307723783
0
LINE
5
233
100
AcDbEntity
8
0
100
AcDbLine
62
0
6
CONTINUOUS
10
-1.8818233126
20
-11.2317342727
11
-2.8446746751
21
-10.6758317793
0
LINE
5
234
100
AcDbEntity
8
0
100
AcDbLine
62
0
6
CONTINUOUS
10
-1.9326851920
20
-11.1612145653
11
-2.4147446762
21
-10.8827334655
0
LINE
5
235
100
AcDbEntity
8
0
100
AcDbLine
62
0
6
CONTINUOUS
10
-3.5486353557
20
-12.0015560089
11
-3.4672651944
21
-12.0491699616
0
LINE
5
236
100
AcDbEntity
8
0
100
AcDbLine
62
0
6
CONTINUOUS
10
-1.8881674993
20
-11.1873515746
11
-1.9326851920
21
-11.1612145653
0
LINE
5
237
100
AcDbEntity
8
0
100
AcDbLine
62
0
6
CONTINUOUS
10
-3.4672651944
20
-12.0491699616
11
-3.4311276638
21
-12.0705827598
0
LINE
5
238
100
AcDbEntity
8
0
100
AcDbLine
62
0
6
CONTINUOUS
10
-1.8505523475
20
-11.2097584660
11
-1.8881674993
21
-11.1873515746
0
LINE
5
239
100
AcDbEntity
8
0
100
AcDbLine
62
0
6
CONTINUOUS
10
-3.4311276638
20
-12.0705827598
11
-3.3985596257
21
-12.0900761264
0
LINE
5
23A
100
AcDbEntity
8
0
100
AcDbLine
62
0
6
CONTINUOUS
10
-1.8356469151
20
-11.2187797758
11
-1.8505523475
21
-11.2097584660
0
LINE
5
23B
100
AcDbEntity
8
0
100
AcDbLine
62
0
6
CONTINUOUS
10
-3.3985596257
20
-12.0900761264
11
-3.3719811457
21
-12.1061951528
0
LINE
5
23C
100
AcDbEntity
8
0
100
AcDbLine
62
0
6
CONTINUOUS
10
-1.8243010181
20
-11.2257539965
11
-1.8356469151
21
-11.2187797758
0
LINE
5
23D
100
AcDbEntity
8
0
100
AcDbLine
62
0
6
CONTINUOUS
10
-3.3719811457
20
-12.1061951528
11
-3.3521989125
21
-12.1184548697
0
LINE
5
23E
100
AcDbEntity
8
0
100
AcDbLine
62
0
6
CONTINUOUS
10
-1.8130872044
20
-11.2327879519
11
-1.8231585340
21
-11.2264562711
0
LINE
5
23F
100
AcDbEntity
8
0
100
AcDbLine
62
0
6
CONTINUOUS
10
-3.3521989125
20
-12.1184548697
11
-3.3384062376
21
-12.1273402463
0
LINE
5
240
100
AcDbEntity
8
0
100
AcDbLine
62
0
6
CONTINUOUS
10
-1.8130872044
20
-11.2327879519
11
-1.8054085638
21
-11.2377747839
0
LINE
5
241
100
AcDbEntity
8
0
100
AcDbLine
62
0
6
CONTINUOUS
10
-4.0509652579
20
6.3463984954
11
-4.0204513029
21
6.3262866576
0
LINE
5
242
100
AcDbEntity
8
0
100
AcDbLine
62
0
6
CONTINUOUS
10
-3.6639116167
20
6.5705341186
11
-3.7268904914
21
6.6123004008
0
LINE
5
243
100
AcDbEntity
8
0
100
AcDbLine
62
0
6
CONTINUOUS
10
-1.8054085638
20
-11.2377747839
11
-1.7992107461
21
-11.2419110471
0
LINE
5
244
100
AcDbEntity
8
0
100
AcDbLine
62
0
6
CONTINUOUS
10
-11.0244205475
20
-21.7314284357
11
-10.9366424338
21
-21.7901368307
0
LINE
5
245
100
AcDbEntity
8
0
100
AcDbLine
62
0
6
CONTINUOUS
10
-1.7992107461
20
-11.2419110471
11
-1.7944937512
21
-11.2451967414
0
LINE
5
246
100
AcDbEntity
8
0
100
AcDbLine
62
9
6
CONTINUOUS
10
-9.9362069172
20
-20.2336981950
11
-9.8933818890
21
-20.2636900860
0
LINE
5
247
100
AcDbEntity
8
0
100
AcDbLine
62
0
6
CONTINUOUS
10
-3.3384062376
20
-12.1273402463
11
-3.3306031208
21
-12.1328512829
0
LINE
5
248
100
AcDbEntity
8
0
100
AcDbLine
62
0
6
CONTINUOUS
10
-9.9869505399
20
-20.3572614130
11
-10.0291023437
21
-20.3273096349
0
LINE
5
249
100
AcDbEntity
8
0
100
AcDbLine
62
0
6
CONTINUOUS
10
-2.5764137528
20
-12.5962850332
11
-2.5727020458
21
-12.5990029669
0
LINE
5
24A
100
AcDbEntity
8
0
100
AcDbLine
62
0
6
CONTINUOUS
10
-1.7944937512
20
-11.2451967414
11
-1.7912541035
21
-11.2476350125
0
LINE
5
24B
100
AcDbEntity
8
0
100
AcDbLine
62
0
6
CONTINUOUS
10
-2.5727020458
20
-12.5990029669
11
-2.5704807514
21
-12.6008594422
0
LINE
5
24C
100
AcDbEntity
8
0
100
AcDbLine
62
0
6
CONTINUOUS
10
-3.2005275593
20
-12.2437493428
11
-3.3306031208
21
-12.1328512829
0
LINE
5
24D
100
AcDbEntity
8
0
100
AcDbLine
62
0
6
CONTINUOUS
10
-11.1026582138
20
-21.6631795934
11
-11.0244205475
21
-21.7314284357
0
LINE
5
24E
100
AcDbEntity
8
0
100
AcDbLine
62
0
6
CONTINUOUS
10
-3.6094794865
20
6.5217329486
11
-3.6639116167
21
6.5705341186
0
LINE
5
24F
100
AcDbEntity
8
0
100
AcDbLine
62
0
6
CONTINUOUS
10
1.3904704272
20
-11.2160254479
11
1.4079786628
21
-11.2317342727
0
LINE
5
250
100
AcDbEntity
8
0
100
AcDbLine
62
0
6
CONTINUOUS
10
-1.7912541035
20
-11.2476350125
11
-1.7894952787
21
-11.2492227147
0
LINE
5
251
100
AcDbEntity
8
0
100
AcDbLine
62
0
6
CONTINUOUS
10
-10.0291023437
20
-20.3273096349
11
-10.0667882554
21
-20.2896237233
0
LINE
5
252
100
AcDbEntity
8
0
100
AcDbLine
62
9
6
CONTINUOUS
10
-9.9731768154
20
-20.1967282968
11
-9.9362069172
21
-20.2336981950
0
LINE
5
253
100
AcDbEntity
8
0
100
AcDbLine
62
9
6
CONTINUOUS
10
9.3631233666
20
-20.3974437045
11
9.2695864527
21
-20.3039067907
0
LINE
5
254
100
AcDbEntity
8
0
100
AcDbLine
62
9
6
CONTINUOUS
10
9.6630776751
20
-20.0974893959
11
9.5695407613
21
-20.0039524821
0
LINE
5
255
100
AcDbEntity
8
0
100
AcDbLine
62
0
6
CONTINUOUS
10
-9.8488821123
20
2.9145160829
11
-9.8369223249
21
2.9025562955
0
LINE
5
256
100
AcDbEntity
8
0
100
AcDbLine
62
0
6
CONTINUOUS
10
9.3750374625
20
-3.0094034919
11
9.3630776751
21
-2.9974437045
0
LINE
5
257
100
AcDbEntity
8
0
100
AcDbLine
62
0
6
CONTINUOUS
10
-4.0204513029
20
6.3262866576
11
-3.9942804423
21
6.2986051165
0
LINE
5
258
100
AcDbEntity
8
0
100
AcDbLine
62
0
6
CONTINUOUS
10
-11.1709070561
20
-21.5849419270
11
-11.1026582138
21
-21.6631795934
0
LINE
5
259
100
AcDbEntity
8
0
100
AcDbLine
62
0
6
CONTINUOUS
10
0.5436239906
20
-15.2905151649
11
0.5440962579
21
-15.2911218206
0
LINE
5
25A
100
AcDbEntity
8
0
100
AcDbLine
62
0
6
CONTINUOUS
10
-2.5704807514
20
-12.6008594422
11
-2.5697523499
21
-12.6018809123
0
LINE
5
25B
100
AcDbEntity
8
0
100
AcDbLine
62
0
6
CONTINUOUS
10
-10.0667882554
20
-20.2896237233
11
-10.0967400334
21
-20.2474719195
0
LINE
5
25C
100
AcDbEntity
8
0
100
AcDbLine
62
9
6
CONTINUOUS
10
-10.0031687064
20
-20.1539032686
11
-9.9731768154
21
-20.1967282968
0
LINE
5
25D
100
AcDbEntity
8
0
100
AcDbLine
62
0
6
CONTINUOUS
10
-11.2296154511
20
-21.4971638134
11
-11.1709070561
21
-21.5849419270
0
LINE
5
25E
100
AcDbEntity
8
0
100
AcDbLine
62
0
6
CONTINUOUS
10
-9.8369680163
20
-20.3974437045
11
-9.8914280831
21
-20.3917837409
0
LINE
5
25F
100
AcDbEntity
8
0
100
AcDbLine
62
0
6
CONTINUOUS
10
9.3176945063
20
-20.3904616785
11
6.7630776751
21
-19.9974437045
0
LINE
5
260
100
AcDbEntity
8
0
100
AcDbLine
62
0
6
CONTINUOUS
10
-10.7466826412
20
-21.8691982687
11
-10.6445009621
21
-21.8895513118
0
LINE
5
261
100
AcDbEntity
8
0
100
AcDbLine
62
0
6
CONTINUOUS
10
-4.1219149714
20
6.3714774416
11
-4.0854814721
21
6.3605928535
0
LINE
5
262
100
AcDbEntity
8
0
100
AcDbLine
62
0
6
CONTINUOUS
10
3.6952084319
20
10.5494376345
11
3.7463581181
21
10.5313067979
0
LINE
5
263
100
AcDbEntity
8
0
100
AcDbLine
62
0
6
CONTINUOUS
10
-3.7959807886
20
6.6471545034
11
-3.8712526850
21
6.6745377910
0
LINE
5
264
100
AcDbEntity
8
0
100
AcDbLine
62
9
6
CONTINUOUS
10
-5.2651757400
20
18.7690012618
11
-5.2726165842
21
18.7719047891
0
LINE
5
265
100
AcDbEntity
8
0
100
AcDbLine
62
0
6
CONTINUOUS
10
3.6088101403
20
9.4380324162
11
3.6467550623
21
9.4230962598
0
LINE
5
266
100
AcDbEntity
8
0
100
AcDbLine
62
0
6
CONTINUOUS
10
-4.0854814721
20
6.3605928535
11
-4.0509652579
21
6.3463984954
0
LINE
5
267
100
AcDbEntity
8
0
100
AcDbLine
62
0
6
CONTINUOUS
10
9.4675776078
20
20.2835022348
11
9.5131058901
21
20.2623740041
0
LINE
5
268
100
AcDbEntity
8
0
100
AcDbLine
62
9
6
CONTINUOUS
10
9.4195372393
20
20.1688026770
11
9.3721577946
21
20.1909056249
0
LINE
5
269
100
AcDbEntity
8
0
100
AcDbLine
62
9
6
CONTINUOUS
10
4.7278238607
20
18.7717113543
11
4.7206873373
21
18.7752039416
0
LINE
5
26A
100
AcDbEntity
8
0
100
AcDbLine
62
9
6
CONTINUOUS
10
-5.2726165842
20
18.7719047891
11
-5.2796952562
21
18.7754150912
0
LINE
5
26B
100
AcDbEntity
8
0
100
AcDbLine
62
0
6
CONTINUOUS
10
10.4627977840
20
21.6952494218
11
10.3697445560
21
21.7414971664
0
LINE
5
26C
100
AcDbEntity
8
0
100
AcDbLine
62
0
6
CONTINUOUS
10
4.0888249123
20
10.8797640324
11
4.0150852017
21
10.9165885514
0
LINE
5
26D
100
AcDbEntity
8
0
100
AcDbLine
62
0
6
CONTINUOUS
10
-3.7268904914
20
6.6123004008
11
-3.7959807886
21
6.6471545034
0
LINE
5
26E
100
AcDbEntity
8
0
100
AcDbLine
62
0
6
CONTINUOUS
10
-4.8687014241
20
19.2254038422
11
-4.8549064793
21
19.2184026526
0
LINE
5
26F
100
AcDbEntity
8
0
100
AcDbLine
62
0
6
CONTINUOUS
10
5.1312985759
20
19.2254038422
11
5.1450935207
21
19.2184026526
0
LINE
5
270
100
AcDbEntity
8
0
100
AcDbLine
62
0
6
CONTINUOUS
10
3.7463581181
20
10.5313067979
11
3.7919984015
21
10.5065798829
0
LINE
5
271
100
AcDbEntity
8
0
100
AcDbLine
62
0
6
CONTINUOUS
10
4.1245468914
20
9.6088119774
11
4.0779586065
21
9.6354321990
0
LINE
5
272
100
AcDbEntity
8
0
100
AcDbLine
62
0
6
CONTINUOUS
10
3.6467550623
20
9.4230962598
11
3.6831919093
21
9.4017447097
0
LINE
5
273
100
AcDbEntity
8
0
100
AcDbLine
62
9
6
CONTINUOUS
10
4.7206873373
20
18.7752039416
11
4.7139217964
21
18.7793246623
0
LINE
5
274
100
AcDbEntity
8
0
100
AcDbLine
62
9
6
CONTINUOUS
10
-5.2796952562
20
18.7754150912
11
-5.2864071445
21
18.7795484855
0
LINE
5
275
100
AcDbEntity
8
0
100
AcDbLine
62
0
6
CONTINUOUS
10
4.1554384965
20
10.8365475050
11
4.0888249123
21
10.8797640324
0
LINE
5
276
100
AcDbEntity
8
0
100
AcDbLine
62
0
6
CONTINUOUS
10
10.5505758977
20
21.6365410268
11
10.4627977840
21
21.6952494218
0
LINE
5
277
100
AcDbEntity
8
0
100
AcDbLine
62
9
6
CONTINUOUS
10
9.4623622675
20
20.1388107860
11
9.4195372393
21
20.1688026770
0
LINE
5
278
100
AcDbEntity
8
0
100
AcDbLine
62
0
6
CONTINUOUS
10
9.5131058901
20
20.2623740041
11
9.5552576939
21
20.2324222260
0
LINE
5
279
100
AcDbEntity
8
0
100
AcDbLine
62
9
6
CONTINUOUS
10
4.7139217964
20
18.7793246623
11
4.7075210412
21
18.7840596788
0
LINE
5
27A
100
AcDbEntity
8
0
100
AcDbLine
62
9
6
CONTINUOUS
10
-5.2864071445
20
18.7795484855
11
-5.2927568607
21
18.7842886545
0
LINE
5
27B
100
AcDbEntity
8
0
100
AcDbLine
62
0
6
CONTINUOUS
10
3.6831919093
20
9.4017447097
11
3.7176041214
21
9.3746365614
0
LINE
5
27C
100
AcDbEntity
8
0
100
AcDbLine
62
0
6
CONTINUOUS
10
3.7919984015
20
10.5065798829
11
3.8327530956
21
10.4741906559
0
LINE
5
27D
100
AcDbEntity
8
0
100
AcDbLine
62
0
6
CONTINUOUS
10
4.1674706375
20
9.5743898641
11
4.1245468914
21
9.6088119774
0
LINE
5
27E
100
AcDbEntity
8
0
100
AcDbLine
62
0
6
CONTINUOUS
10
4.2149259540
20
10.7869389692
11
4.1554384965
21
10.8365475050
0
LINE
5
27F
100
AcDbEntity
8
0
100
AcDbLine
62
0
6
CONTINUOUS
10
10.6288135640
20
21.5682921844
11
10.5505758977
21
21.6365410268
0
LINE
5
280
100
AcDbEntity
8
0
100
AcDbLine
62
9
6
CONTINUOUS
10
4.7075210412
20
18.7840596788
11
4.7016270237
21
18.7892779702
0
LINE
5
281
100
AcDbEntity
8
0
100
AcDbLine
62
9
6
CONTINUOUS
10
-5.2927568607
20
18.7842886545
11
-5.2985995849
21
18.7894993161
0
LINE
5
282
100
AcDbEntity
8
0
100
AcDbLine
62
9
6
CONTINUOUS
10
-10.1369223249
20
20.0026019870
11
-10.0433854111
21
19.9090650732
0
LINE
5
283
100
AcDbEntity
8
0
100
AcDbLine
62
9
6
CONTINUOUS
10
-9.8369680163
20
20.3025562955
11
-9.7434311025
21
20.2090193817
0
LINE
5
284
100
AcDbEntity
8
0
100
AcDbLine
62
9
6
CONTINUOUS
10
9.4993321656
20
20.1018408878
11
9.4623622675
21
20.1388107860
0
LINE
5
285
100
AcDbEntity
8
0
100
AcDbLine
62
0
6
CONTINUOUS
10
9.5552576939
20
20.2324222260
11
9.5929436056
21
20.1947363144
0
LINE
5
286
100
AcDbEntity
8
0
100
AcDbLine
62
0
6
CONTINUOUS
10
3.7176041214
20
9.3746365614
11
3.7484420186
21
9.3437482010
0
LINE
5
287
100
AcDbEntity
8
0
100
AcDbLine
62
9
6
CONTINUOUS
10
4.7016270237
20
18.7892779702
11
4.6962552850
21
18.7949866031
0
LINE
5
288
100
AcDbEntity
8
0
100
AcDbLine
62
9
6
CONTINUOUS
10
-5.2985995849
20
18.7894993161
11
-5.3039146922
21
18.7951792857
0
LINE
5
289
100
AcDbEntity
8
0
100
AcDbLine
62
0
6
CONTINUOUS
10
4.2067298447
20
9.5321658593
11
4.1674706375
21
9.5743898641
0
LINE
5
28A
100
AcDbEntity
8
0
100
AcDbLine
62
0
6
CONTINUOUS
10
4.2676703681
20
10.7291201568
11
4.2149259540
21
10.7869389692
0
LINE
5
28B
100
AcDbEntity
8
0
100
AcDbLine
62
0
6
CONTINUOUS
10
3.8327530956
20
10.4741906559
11
3.8679983867
21
10.4352053505
0
LINE
5
28C
100
AcDbEntity
8
0
100
AcDbLine
62
0
6
CONTINUOUS
10
10.6970624063
20
21.4900545181
11
10.6288135640
21
21.5682921844
0
LINE
5
28D
100
AcDbEntity
8
0
100
AcDbLine
62
0
6
CONTINUOUS
10
-4.8549064793
20
19.2184026526
11
-4.8487264430
21
19.2107619755
0
LINE
5
28E
100
AcDbEntity
8
0
100
AcDbLine
62
0
6
CONTINUOUS
10
5.1450935207
20
19.2184026526
11
5.1512735570
21
19.2107619755
0
LINE
5
28F
100
AcDbEntity
8
0
100
AcDbLine
62
0
6
CONTINUOUS
10
-3.5644280763
20
6.4652513238
11
-3.6094794865
21
6.5217329486
0
LINE
5
290
100
AcDbEntity
8
0
100
AcDbLine
62
0
6
CONTINUOUS
10
3.7484420186
20
9.3437482010
11
3.7751890409
21
9.3097384239
0
LINE
5
291
100
AcDbEntity
8
0
100
AcDbLine
62
9
6
CONTINUOUS
10
4.6962552850
20
18.7949866031
11
4.6913902839
21
18.8011785108
0
LINE
5
292
100
AcDbEntity
8
0
100
AcDbLine
62
9
6
CONTINUOUS
10
-5.3039146922
20
18.7951792857
11
-5.3087228076
21
18.8013297477
0
LINE
5
293
100
AcDbEntity
8
0
100
AcDbLine
62
0
6
CONTINUOUS
10
4.3132886555
20
10.6649093359
11
4.2676703681
21
10.7291201568
0
LINE
5
294
100
AcDbEntity
8
0
100
AcDbLine
62
0
6
CONTINUOUS
10
4.2421644443
20
9.4808819349
11
4.2067298447
21
9.5321658593
0
LINE
5
295
100
AcDbEntity
8
0
100
AcDbLine
62
0
6
CONTINUOUS
10
-3.9942804423
20
6.2986051165
11
-3.9721118409
21
6.2650060956
0
LINE
5
296
100
AcDbEntity
8
0
100
AcDbLine
62
0
6
CONTINUOUS
10
3.8679983867
20
10.4352053505
11
3.8958628340
21
10.3928226678
0
LINE
5
297
100
AcDbEntity
8
0
100
AcDbLine
62
9
6
CONTINUOUS
10
-5.3087228076
20
18.8013297477
11
-5.3129409867
21
18.8078179733
0
LINE
5
298
100
AcDbEntity
8
0
100
AcDbLine
62
0
6
CONTINUOUS
10
3.7751890409
20
9.3097384239
11
3.7983617484
21
9.2719484348
0
LINE
5
299
100
AcDbEntity
8
0
100
AcDbLine
62
0
6
CONTINUOUS
10
-3.5279234105
20
6.4017348112
11
-3.5644280763
21
6.4652513238
0
LINE
5
29A
100
AcDbEntity
8
0
100
AcDbLine
62
0
6
CONTINUOUS
10
-11.2758631958
20
-21.4041105854
11
-11.2296154511
21
-21.4971638134
0
LINE
5
29B
100
AcDbEntity
8
0
100
AcDbLine
62
9
6
CONTINUOUS
10
-10.0252716543
20
-20.1065238240
11
-10.0031687064
21
-20.1539032686
0
LINE
5
29C
100
AcDbEntity
8
0
100
AcDbLine
62
0
6
CONTINUOUS
10
-10.0967400334
20
-20.2474719195
11
-10.1178682641
21
-20.2019436372
0
LINE
5
29D
100
AcDbEntity
8
0
100
AcDbLine
62
0
6
CONTINUOUS
10
6.7630776751
20
-20.3974437045
11
9.1106963605
21
-20.3907897610
0
LINE
5
29E
100
AcDbEntity
8
0
100
AcDbLine
62
0
6
CONTINUOUS
10
9.1106963605
20
-20.3907897610
11
9.3176945063
21
-20.3904616785
0
LINE
5
29F
100
AcDbEntity
8
0
100
AcDbLine
62
0
6
CONTINUOUS
10
10.0631995190
20
-21.8974437045
11
-10.5370441688
21
-21.8974437045
0
LINE
5
2A0
100
AcDbEntity
8
0
100
AcDbLine
62
0
6
CONTINUOUS
10
-9.8369680163
20
-20.3974437045
11
9.3631233666
21
-20.3974437045
0
LINE
5
2A1
100
AcDbEntity
8
0
100
AcDbLine
62
9
6
CONTINUOUS
10
-9.7434311025
20
-20.3039067907
11
-9.2289323851
21
-20.3039067907
0
LINE
5
2A2
100
AcDbEntity
8
0
100
AcDbLine
62
9
6
CONTINUOUS
10
-6.6369223249
20
-20.3039067907
11
6.1630776751
21
-20.3039067907
0
LINE
5
2A3
100
AcDbEntity
8
0
100
AcDbLine
62
9
6
CONTINUOUS
10
8.7550877353
20
-20.3039067907
11
9.2695864527
21
-20.3039067907
0
LINE
5
2A4
100
AcDbEntity
8
0
100
AcDbLine
62
0
6
CONTINUOUS
10
6.7630776751
20
-19.9974437045
11
6.1630776751
21
-19.9974437045
0
LINE
5
2A5
100
AcDbEntity
8
0
100
AcDbLine
62
0
6
CONTINUOUS
10
-7.2369223249
20
-19.9974437045
11
-6.6369223249
21
-19.9974437045
0
LINE
5
2A6
100
AcDbEntity
8
0
100
AcDbLine
62
9
6
CONTINUOUS
10
-10.0399553247
20
-19.8039829431
11
9.5661106749
21
-19.8039829431
0
LINE
5
2A7
100
AcDbEntity
8
0
100
AcDbLine
62
0
6
CONTINUOUS
10
-9.7915391561
20
-20.3904616785
11
-9.3009450536
21
-20.3914979170
0
LINE
5
2A8
100
AcDbEntity
8
0
100
AcDbLine
62
0
6
CONTINUOUS
10
-9.3009450536
20
-20.3914979170
11
-7.2369223249
21
-20.3974437045
0
LINE
5
2A9
100
AcDbEntity
8
0
100
AcDbLine
62
0
6
CONTINUOUS
10
-10.6445009621
20
-21.8895513118
11
-10.5370441688
21
-21.8974437045
0
LINE
5
2AA
100
AcDbEntity
8
0
100
AcDbLine
62
9
6
CONTINUOUS
10
-9.7955076269
20
-20.2993357115
11
-9.7434311025
21
-20.3039067907
0
LINE
5
2AB
100
AcDbEntity
8
0
100
AcDbLine
62
0
6
CONTINUOUS
10
-1.7892060344
20
-11.2499350362
11
-1.7904548555
21
-11.2498149570
0
LINE
5
2AC
100
AcDbEntity
8
0
100
AcDbLine
62
0
6
CONTINUOUS
10
-4.0374848940
20
6.7103664422
11
-4.1249174045
21
6.7212099584
0
LINE
5
2AD
100
AcDbEntity
8
0
100
AcDbLine
62
0
6
CONTINUOUS
10
-4.1991438430
20
6.3850557809
11
-4.1595707646
21
6.3799214962
0
LINE
5
2AE
100
AcDbEntity
8
0
100
AcDbLine
62
0
6
CONTINUOUS
10
2.0966692108
20
-12.6019865802
11
2.0959077002
21
-12.6018809123
0
LINE
5
2AF
100
AcDbEntity
8
0
100
AcDbLine
62
0
6
CONTINUOUS
10
-3.9526360040
20
6.6950088992
11
-4.0374848940
21
6.7103664422
0
LINE
5
2B0
100
AcDbEntity
8
0
100
AcDbLine
62
9
6
CONTINUOUS
10
-5.2496702870
20
18.7652894267
11
-5.2575313774
21
18.7667918392
0
LINE
5
2B1
100
AcDbEntity
8
0
100
AcDbLine
62
0
6
CONTINUOUS
10
-4.9202385741
20
19.2376340634
11
-4.8901112772
21
19.2317655443
0
LINE
5
2B2
100
AcDbEntity
8
0
100
AcDbLine
62
0
6
CONTINUOUS
10
3.6385493428
20
10.5609723927
11
3.6952084319
21
10.5494376345
0
LINE
5
2B3
100
AcDbEntity
8
0
100
AcDbLine
62
0
6
CONTINUOUS
10
3.8931522269
20
10.9519564279
11
3.7655322310
21
10.9786068591
0
LINE
5
2B4
100
AcDbEntity
8
0
100
AcDbLine
62
0
6
CONTINUOUS
10
-4.1595707646
20
6.3799214962
11
-4.1219149714
21
6.3714774416
0
LINE
5
2B5
100
AcDbEntity
8
0
100
AcDbLine
62
0
6
CONTINUOUS
10
3.5688405833
20
9.4472119743
11
3.6088101403
21
9.4380324162
0
LINE
5
2B6
100
AcDbEntity
8
0
100
AcDbLine
62
0
6
CONTINUOUS
10
-3.8712526850
20
6.6745377910
11
-3.9526360040
21
6.6950088992
0
LINE
5
2B7
100
AcDbEntity
8
0
100
AcDbLine
62
0
6
CONTINUOUS
10
9.4175834333
20
20.2968963319
11
9.4675776078
21
20.2835022348
0
LINE
5
2B8
100
AcDbEntity
8
0
100
AcDbLine
62
9
6
CONTINUOUS
10
9.3721577946
20
20.1909056249
11
9.3216629771
21
20.2044483026
0
LINE
5
2B9
100
AcDbEntity
8
0
100
AcDbLine
62
9
6
CONTINUOUS
10
4.7430307233
20
18.7666585746
11
4.7353251700
21
18.7688330626
0
LINE
5
2BA
100
AcDbEntity
8
0
100
AcDbLine
62
9
6
CONTINUOUS
10
-5.2575313774
20
18.7667918392
11
-5.2651757400
21
18.7690012618
0
LINE
5
2BB
100
AcDbEntity
8
0
100
AcDbLine
62
0
6
CONTINUOUS
10
4.0150852017
20
10.9165885514
11
3.8931522269
21
10.9519564279
0
LINE
5
2BC
100
AcDbEntity
8
0
100
AcDbLine
62
0
6
CONTINUOUS
10
-4.8901112772
20
19.2317655443
11
-4.8687014241
21
19.2254038422
0
LINE
5
2BD
100
AcDbEntity
8
0
100
AcDbLine
62
0
6
CONTINUOUS
10
5.1098887228
20
19.2317655443
11
5.1312985759
21
19.2254038422
0
LINE
5
2BE
100
AcDbEntity
8
0
100
AcDbLine
62
0
6
CONTINUOUS
10
10.3697445560
20
21.7414971664
11
10.2728379914
21
21.7743108598
0
LINE
5
2BF
100
AcDbEntity
8
0
100
AcDbLine
62
9
6
CONTINUOUS
10
4.7353251700
20
18.7688330626
11
4.7278238607
21
18.7717113543
0
LINE
5
2C0
100
AcDbEntity
8
0
100
AcDbLine
62
0
6
CONTINUOUS
10
9.5929436056
20
20.1947363144
11
9.6228953836
21
20.1525845105
0
LINE
5
2C1
100
AcDbEntity
8
0
100
AcDbLine
62
9
6
CONTINUOUS
10
9.5293240566
20
20.0590158597
11
9.4993321656
21
20.1018408878
0
LINE
5
2C2
100
AcDbEntity
8
0
100
AcDbLine
62
0
6
CONTINUOUS
10
10.7557708013
20
21.4022764045
11
10.6970624063
21
21.4900545181
0
LINE
5
2C3
100
AcDbEntity
8
0
100
AcDbLine
62
9
6
CONTINUOUS
10
4.6913902839
20
18.8011785108
11
4.6871273484
21
18.8077014732
0
LINE
5
2C4
100
AcDbEntity
8
0
100
AcDbLine
62
0
6
CONTINUOUS
10
4.3506315675
20
10.5997613113
11
4.3132886555
21
10.6649093359
0
LINE
5
2C5
100
AcDbEntity
8
0
100
AcDbLine
62
0
6
CONTINUOUS
10
4.2739345052
20
9.4217961188
11
4.2421644443
21
9.4808819349
0
LINE
5
2C6
100
AcDbEntity
8
0
100
AcDbLine
62
9
6
CONTINUOUS
10
4.6871273484
20
18.8077014732
11
4.6834802323
21
18.8145392190
0
LINE
5
2C7
100
AcDbEntity
8
0
100
AcDbLine
62
9
6
CONTINUOUS
10
-5.3129409867
20
18.8078179733
11
-5.3165625400
21
18.8146374456
0
LINE
5
2C8
100
AcDbEntity
8
0
100
AcDbLine
62
0
6
CONTINUOUS
10
-4.8412096064
20
20.2090193817
11
-4.8617938981
21
20.2501911007
0
LINE
5
2C9
100
AcDbEntity
8
0
100
AcDbLine
62
0
6
CONTINUOUS
10
5.1587903936
20
20.2090193817
11
5.1382061019
21
20.2501911007
0
LINE
5
2CA
100
AcDbEntity
8
0
100
AcDbLine
62
0
6
CONTINUOUS
10
10.8020185460
20
21.3092231765
11
10.7557708013
21
21.4022764045
0
LINE
5
2CB
100
AcDbEntity
8
0
100
AcDbLine
62
0
6
CONTINUOUS
10
1.8684686751
20
5.1030282955
11
1.0819656751
21
6.7275562955
0
LINE
5
2CC
100
AcDbEntity
8
0
100
AcDbLine
62
0
6
CONTINUOUS
10
0.8406526751
20
6.3932672955
11
1.6555456751
21
4.6775562955
0
LINE
5
2CD
100
AcDbEntity
8
0
100
AcDbLine
62
0
6
CONTINUOUS
10
3.7983617484
20
9.2719484348
11
3.8179601411
21
9.2303782337
0
LINE
5
2CE
100
AcDbEntity
8
0
100
AcDbLine
62
0
6
CONTINUOUS
10
-3.9721118409
20
6.2650060956
11
-3.9550079673
21
6.2278385569
0
LINE
5
2CF
100
AcDbEntity
8
0
100
AcDbLine
62
0
6
CONTINUOUS
10
-1.0174686404
20
-15.2905151650
11
-1.0169482215
21
-15.2916567154
0
LINE
5
2D0
100
AcDbEntity
8
0
100
AcDbLine
62
0
6
CONTINUOUS
10
4.3025202332
20
9.3586824952
11
4.2739345052
21
9.4217961188
0
LINE
5
2D1
100
AcDbEntity
8
0
100
AcDbLine
62
0
6
CONTINUOUS
10
3.8958628340
20
10.3928226678
11
3.9157226236
21
10.3481088414
0
LINE
5
2D2
100
AcDbEntity
8
0
100
AcDbLine
62
0
6
CONTINUOUS
10
4.3784791136
20
10.5347346274
11
4.3506315675
21
10.5997613113
0
LINE
5
2D3
100
AcDbEntity
8
0
100
AcDbLine
62
9
6
CONTINUOUS
10
-5.3165625400
20
18.8146374456
11
-5.3195941570
21
18.8217946814
0
LINE
5
2D4
100
AcDbEntity
8
0
100
AcDbLine
62
0
6
CONTINUOUS
10
-3.4998988840
20
6.3329974028
11
-3.5279234105
21
6.4017348112
0
LINE
5
2D5
100
AcDbEntity
8
0
100
AcDbLine
62
0
6
CONTINUOUS
10
-1.7894952787
20
-11.2492227147
11
-1.7892060344
21
-11.2499350362
0
LINE
5
2D6
100
AcDbEntity
8
0
100
AcDbLine
62
9
6
CONTINUOUS
10
9.5695407613
20
-20.0039524821
11
9.5692732144
21
-20.0032681657
0
LINE
5
2D7
100
AcDbEntity
8
0
100
AcDbLine
62
0
6
CONTINUOUS
10
-1.4869833249
20
10.1046562955
11
-0.8748573249
21
8.4723762955
0
LINE
5
2D8
100
AcDbEntity
8
0
100
AcDbLine
62
9
6
CONTINUOUS
10
-10.0433854111
20
19.9090650732
11
-10.0430981631
21
19.9082331435
0
LINE
5
2D9
100
AcDbEntity
8
0
100
AcDbLine
62
0
6
CONTINUOUS
10
-11.3086768892
20
-21.3072040207
11
-11.2758631958
21
-21.4041105854
0
LINE
5
2DA
100
AcDbEntity
8
0
100
AcDbLine
62
0
6
CONTINUOUS
10
9.4175834333
20
-20.3917837409
11
9.3631233666
21
-20.3974437045
0
LINE
5
2DB
100
AcDbEntity
8
0
100
AcDbLine
62
9
6
CONTINUOUS
10
9.3216630089
20
-20.2993357058
11
9.2695864527
21
-20.3039067907
0
LINE
5
2DC
100
AcDbEntity
8
0
100
AcDbLine
62
0
6
CONTINUOUS
10
10.0631995190
20
-21.8974437045
11
10.1706563123
21
-21.8895513118
0
LINE
5
2DD
100
AcDbEntity
8
0
100
AcDbLine
62
0
6
CONTINUOUS
10
10.3630776751
20
-6.1474437045
11
9.6630776751
21
-6.1474437045
0
LINE
5
2DE
100
AcDbEntity
8
0
100
AcDbLine
62
0
6
CONTINUOUS
10
-10.1369223249
20
-6.1474437045
11
-10.8369223249
21
-6.1474437045
0
LINE
5
2DF
100
AcDbEntity
8
0
100
AcDbLine
62
0
6
CONTINUOUS
10
9.2661563663
20
-3.0092249760
11
-9.8488821118
21
-3.0094034914
0
LINE
5
2E0
100
AcDbEntity
8
0
100
AcDbLine
62
0
6
CONTINUOUS
10
-9.8369223249
20
-2.9974437045
11
-9.2443401625
21
-2.9974437045
0
LINE
5
2E1
100
AcDbEntity
8
0
100
AcDbLine
62
0
6
CONTINUOUS
10
8.7704955127
20
-2.9974437045
11
9.3630776751
21
-2.9974437045
0
LINE
5
2E2
100
AcDbEntity
8
0
100
AcDbLine
62
0
6
CONTINUOUS
10
-9.3869223249
20
-2.9474437045
11
-9.1369223249
21
-2.9474437045
0
LINE
5
2E3
100
AcDbEntity
8
0
100
AcDbLine
62
0
6
CONTINUOUS
10
8.6630776751
20
-2.9474437045
11
8.9130776751
21
-2.9474437045
0
LINE
5
2E4
100
AcDbEntity
8
0
100
AcDbLine
62
0
6
CONTINUOUS
10
8.9130776751
20
2.8525562955
11
8.6630776751
21
2.8525562955
0
LINE
5
2E5
100
AcDbEntity
8
0
100
AcDbLine
62
0
6
CONTINUOUS
10
-9.1369223249
20
2.8525562955
11
-9.3869223249
21
2.8525562955
0
LINE
5
2E6
100
AcDbEntity
8
0
100
AcDbLine
62
0
6
CONTINUOUS
10
-9.8369223249
20
2.9025562955
11
-9.2443401625
21
2.9025562955
0
LINE
5
2E7
100
AcDbEntity
8
0
100
AcDbLine
62
0
6
CONTINUOUS
10
8.7704955127
20
2.9025562955
11
9.3630776751
21
2.9025562955
0
LINE
5
2E8
100
AcDbEntity
8
0
100
AcDbLine
62
0
6
CONTINUOUS
10
9.3750374620
20
2.9145160825
11
-9.7400010161
21
2.9143375671
0
LINE
5
2E9
100
AcDbEntity
8
0
100
AcDbLine
62
0
6
CONTINUOUS
10
-4.9375053249
20
4.6775562955
11
-4.4973873249
21
4.6775562955
0
LINE
5
2EA
100
AcDbEntity
8
0
100
AcDbLine
62
0
6
CONTINUOUS
10
-3.1912283249
20
4.6775562955
11
-1.9926113249
21
4.6775562955
0
LINE
5
2EB
100
AcDbEntity
8
0
100
AcDbLine
62
0
6
CONTINUOUS
10
-1.7715103249
20
4.6775562955
11
-1.3512963249
21
4.6775562955
0
LINE
5
2EC
100
AcDbEntity
8
0
100
AcDbLine
62
0
6
CONTINUOUS
10
-0.2383113249
20
4.6775562955
11
0.2046616751
21
4.6775562955
0
LINE
5
2ED
100
AcDbEntity
8
0
100
AcDbLine
62
0
6
CONTINUOUS
10
0.4289246751
20
4.6775562955
11
0.8406526751
21
4.6775562955
0
LINE
5
2EE
100
AcDbEntity
8
0
100
AcDbLine
62
0
6
CONTINUOUS
10
1.6555456751
20
4.6775562955
11
2.2801976751
21
4.6775562955
0
LINE
5
2EF
100
AcDbEntity
8
0
100
AcDbLine
62
0
6
CONTINUOUS
10
2.4874886751
20
4.6775562955
11
2.9077026751
21
4.6775562955
0
LINE
5
2F0
100
AcDbEntity
8
0
100
AcDbLine
62
0
6
CONTINUOUS
10
4.0208426751
20
4.6775562955
11
4.4636606751
21
4.6775562955
0
LINE
5
2F1
100
AcDbEntity
8
0
100
AcDbLine
62
0
6
CONTINUOUS
10
-1.9926113249
20
5.0182322955
11
-2.7511103249
21
5.0182322955
0
LINE
5
2F2
100
AcDbEntity
8
0
100
AcDbLine
62
0
6
CONTINUOUS
10
-1.1980073249
20
5.1120422955
11
-0.3859683249
21
5.1120422955
0
LINE
5
2F3
100
AcDbEntity
8
0
100
AcDbLine
62
0
6
CONTINUOUS
10
3.0610686751
20
5.1120422955
11
3.8731076751
21
5.1120422955
0
LINE
5
2F4
100
AcDbEntity
8
0
100
AcDbLine
62
0
6
CONTINUOUS
10
9.3750374620
20
-3.0094034914
11
9.2661563663
21
-3.0092249760
0
LINE
5
2F5
100
AcDbEntity
8
0
100
AcDbLine
62
0
6
CONTINUOUS
10
-9.8488821118
20
2.9145160825
11
-9.7400010161
21
2.9143375671
0
LINE
5
2F6
100
AcDbEntity
8
0
100
AcDbLine
62
0
6
CONTINUOUS
10
3.5071607844
20
10.5691922320
11
3.5515637920
21
10.5679230103
0
LINE
5
2F7
100
AcDbEntity
8
0
100
AcDbLine
62
0
6
CONTINUOUS
10
-4.2406342066
20
6.3868802955
11
-4.1991438430
21
6.3850557809
0
LINE
5
2F8
100
AcDbEntity
8
0
100
AcDbLine
62
0
6
CONTINUOUS
10
3.6322252139
20
10.9965398449
11
3.4926969345
21
11.0049466638
0
LINE
5
2F9
100
AcDbEntity
8
0
100
AcDbLine
62
0
6
CONTINUOUS
10
3.5515637920
20
10.5679230103
11
3.5953599781
21
10.5651830639
0
LINE
5
2FA
100
AcDbEntity
8
0
100
AcDbLine
62
0
6
CONTINUOUS
10
-4.1249174045
20
6.7212099584
11
-4.2158154861
21
6.7269399095
0
LINE
5
2FB
100
AcDbEntity
8
0
100
AcDbLine
62
0
6
CONTINUOUS
10
3.5268463914
20
9.4506349341
11
3.5688405833
21
9.4472119743
0
LINE
5
2FC
100
AcDbEntity
8
0
100
AcDbLine
62
9
6
CONTINUOUS
10
9.3216629771
20
20.2044483026
11
9.2695864527
21
20.2090193817
0
LINE
5
2FD
100
AcDbEntity
8
0
100
AcDbLine
62
9
6
CONTINUOUS
10
4.7590878765
20
18.7644488572
11
4.7509571778
21
18.7652018141
0
LINE
5
2FE
100
AcDbEntity
8
0
100
AcDbLine
62
0
6
CONTINUOUS
10
3.5953599781
20
10.5651830639
11
3.6385493428
21
10.5609723927
0
LINE
5
2FF
100
AcDbEntity
8
0
100
AcDbLine
62
0
6
CONTINUOUS
10
-5.0000302872
20
19.2470137255
11
-4.9579807794
21
19.2428630951
0
LINE
5
300
100
AcDbEntity
8
0
100
AcDbLine
62
0
6
CONTINUOUS
10
4.9999697128
20
19.2470137255
11
5.0420192206
21
19.2428630951
0
LINE
5
301
100
AcDbEntity
8
0
100
AcDbLine
62
9
6
CONTINUOUS
10
-5.2416056782
20
18.7644811189
11
-5.2496702870
21
18.7652894267
0
LINE
5
302
100
AcDbEntity
8
0
100
AcDbLine
62
0
6
CONTINUOUS
10
9.3631233666
20
20.3025562955
11
9.4175834333
21
20.2968963319
0
LINE
5
303
100
AcDbEntity
8
0
100
AcDbLine
62
0
6
CONTINUOUS
10
3.7655322310
20
10.9786068591
11
3.6322252139
21
10.9965398449
0
LINE
5
304
100
AcDbEntity
8
0
100
AcDbLine
62
0
6
CONTINUOUS
10
-4.9579807794
20
19.2428630951
11
-4.9202385741
21
19.2376340634
0
LINE
5
305
100
AcDbEntity
8
0
100
AcDbLine
62
0
6
CONTINUOUS
10
5.0420192206
20
19.2428630951
11
5.0797614259
21
19.2376340634
0
LINE
5
306
100
AcDbEntity
8
0
100
AcDbLine
62
0
6
CONTINUOUS
10
-9.7915391561
20
20.2955742696
11
-7.2369223249
21
19.9025562955
0
LINE
5
307
100
AcDbEntity
8
0
100
AcDbLine
62
9
6
CONTINUOUS
10
4.7509571778
20
18.7652018141
11
4.7430307233
21
18.7666585746
0
LINE
5
308
100
AcDbEntity
8
0
100
AcDbLine
62
0
6
CONTINUOUS
10
5.0797614259
20
19.2376340634
11
5.1098887228
21
19.2317655443
0
LINE
5
309
100
AcDbEntity
8
0
100
AcDbLine
62
0
6
CONTINUOUS
10
10.2728379914
20
21.7743108598
11
10.1706563123
21
21.7946639028
0
LINE
5
30A
100
AcDbEntity
8
0
100
AcDbLine
62
9
6
CONTINUOUS
10
9.5514270045
20
20.0116364150
11
9.5293240566
21
20.0590158597
0
LINE
5
30B
100
AcDbEntity
8
0
100
AcDbLine
62
0
6
CONTINUOUS
10
9.6228953836
20
20.1525845105
11
9.6440236143
21
20.1070562282
0
LINE
5
30C
100
AcDbEntity
8
0
100
AcDbLine
62
9
6
CONTINUOUS
10
4.6834802323
20
18.8145392190
11
4.6804351819
21
18.8217080194
0
LINE
5
30D
100
AcDbEntity
8
0
100
AcDbLine
62
0
6
CONTINUOUS
10
4.3280816970
20
9.2927990920
11
4.3025202332
21
9.3586824952
0
LINE
5
30E
100
AcDbEntity
8
0
100
AcDbLine
62
0
6
CONTINUOUS
10
-0.8354173249
20
9.5842512955
11
-1.3516993249
21
10.9721122955
0
LINE
5
30F
100
AcDbEntity
8
0
100
AcDbLine
62
0
6
CONTINUOUS
10
0.2046616751
20
4.6775562955
11
-0.5080133249
21
6.7275562955
0
LINE
5
310
100
AcDbEntity
8
0
100
AcDbLine
62
0
6
CONTINUOUS
10
4.4636606751
20
4.6775562955
11
3.7510626751
21
6.7275562955
0
LINE
5
311
100
AcDbEntity
8
0
100
AcDbLine
62
0
6
CONTINUOUS
10
3.8731076751
20
5.1120422955
11
4.0208426751
21
4.6775562955
0
LINE
5
312
100
AcDbEntity
8
0
100
AcDbLine
62
0
6
CONTINUOUS
10
-0.3859683249
20
5.1120422955
11
-0.2383113249
21
4.6775562955
0
LINE
5
313
100
AcDbEntity
8
0
100
AcDbLine
62
0
6
CONTINUOUS
10
10.8348322394
20
21.2123166118
11
10.8020185460
21
21.3092231765
0
LINE
5
314
100
AcDbEntity
8
0
100
AcDbLine
62
9
6
CONTINUOUS
10
4.6804351819
20
18.8217080194
11
4.6780462638
21
18.8291044679
0
LINE
5
315
100
AcDbEntity
8
0
100
AcDbLine
62
9
6
CONTINUOUS
10
-5.3195941570
20
18.8217946814
11
-5.3219729621
21
18.8291765021
0
LINE
5
316
100
AcDbEntity
8
0
100
AcDbLine
62
0
6
CONTINUOUS
10
3.8179601411
20
9.2303782337
11
3.8435015588
21
9.1509273257
0
LINE
5
317
100
AcDbEntity
8
0
100
AcDbLine
62
0
6
CONTINUOUS
10
-0.7804723249
20
6.3358232955
11
-0.4966733249
21
5.4527192955
0
LINE
5
318
100
AcDbEntity
8
0
100
AcDbLine
62
0
6
CONTINUOUS
10
3.4785646751
20
6.3357072955
11
3.7623266751
21
5.4527192955
0
LINE
5
319
100
AcDbEntity
8
0
100
AcDbLine
62
0
6
CONTINUOUS
10
4.3504588281
20
9.2228878813
11
4.3280816970
21
9.2927990920
0
LINE
5
31A
100
AcDbEntity
8
0
100
AcDbLine
62
0
6
CONTINUOUS
10
-5.1509113249
20
10.9721122955
11
-4.3584463249
21
8.4723762955
0
LINE
5
31B
100
AcDbEntity
8
0
100
AcDbLine
62
0
6
CONTINUOUS
10
3.8435015588
20
9.1509273257
11
3.8689290140
21
9.0702796541
0
LINE
5
31C
100
AcDbEntity
8
0
100
AcDbLine
62
0
6
CONTINUOUS
10
3.8689290140
20
9.0702796541
11
3.8942425066
21
8.9884352188
0
LINE
5
31D
100
AcDbEntity
8
0
100
AcDbLine
62
0
6
CONTINUOUS
10
2.5741566751
20
8.4723762955
11
1.8071756751
21
10.9721122955
0
LINE
5
31E
100
AcDbEntity
8
0
100
AcDbLine
62
0
6
CONTINUOUS
10
3.8942425066
20
8.9884352188
11
3.9193532556
21
8.9053888368
0
LINE
5
31F
100
AcDbEntity
8
0
100
AcDbLine
62
0
6
CONTINUOUS
10
4.3980512841
20
10.4687707399
11
4.3784791136
21
10.5347346274
0
LINE
5
320
100
AcDbEntity
8
0
100
AcDbLine
62
0
6
CONTINUOUS
10
3.9193532556
20
8.9053888368
11
3.9694992093
21
8.7357213313
0
LINE
5
321
100
AcDbEntity
8
0
100
AcDbLine
62
0
6
CONTINUOUS
10
-3.9550079673
20
6.2278385569
11
-3.9433229776
21
6.1878854874
0
LINE
5
322
100
AcDbEntity
8
0
100
AcDbLine
62
0
6
CONTINUOUS
10
3.9694992093
20
8.7357213313
11
4.0204322475
21
8.5613393347
0
LINE
5
323
100
AcDbEntity
8
0
100
AcDbLine
62
0
6
CONTINUOUS
10
4.0204322475
20
8.5613393347
11
4.0461273375
21
8.4723765148
0
LINE
5
324
100
AcDbEntity
8
0
100
AcDbLine
62
0
6
CONTINUOUS
10
-4.1075883249
20
9.2514662955
11
-4.5840833249
21
10.9721122955
0
LINE
5
325
100
AcDbEntity
8
0
100
AcDbLine
62
0
6
CONTINUOUS
10
1.8890366751
20
8.9714122955
11
2.0242086751
21
8.4723762955
0
LINE
5
326
100
AcDbEntity
8
0
100
AcDbLine
62
9
6
CONTINUOUS
10
-10.0388143319
20
-20.0560290064
11
-10.0252716543
21
-20.1065238240
0
LINE
5
327
100
AcDbEntity
8
0
100
AcDbLine
62
0
6
CONTINUOUS
10
-10.1178682641
20
-20.2019436372
11
-10.1312623613
21
-20.1519494627
0
LINE
5
328
100
AcDbEntity
8
0
100
AcDbLine
62
0
6
CONTINUOUS
10
4.4104047397
20
8.9967882869
11
4.3696516263
21
9.1489488629
0
LINE
5
329
100
AcDbEntity
8
0
100
AcDbLine
62
0
6
CONTINUOUS
10
-3.4803322951
20
6.2596437626
11
-3.4998988840
21
6.3329974028
0
LINE
5
32A
100
AcDbEntity
8
0
100
AcDbLine
62
0
6
CONTINUOUS
10
1.5449856751
20
10.2852482955
11
1.7847566751
21
9.3575642955
0
LINE
5
32B
100
AcDbEntity
8
0
100
AcDbLine
62
0
6
CONTINUOUS
10
-11.3290299322
20
-21.2050223417
11
-11.3086768892
21
-21.3072040207
0
LINE
5
32C
100
AcDbEntity
8
0
100
AcDbLine
62
0
6
CONTINUOUS
10
-10.1312623613
20
-20.1519494627
11
-10.1369223249
21
-20.0974893959
0
LINE
5
32D
100
AcDbEntity
8
0
100
AcDbLine
62
9
6
CONTINUOUS
10
-10.0433854111
20
-20.0039524821
11
-10.0388143319
21
-20.0560290064
0
LINE
5
32E
100
AcDbEntity
8
0
100
AcDbLine
62
0
6
CONTINUOUS
10
10.1706563123
20
-21.8895513118
11
10.2728379914
21
-21.8691982687
0
LINE
5
32F
100
AcDbEntity
8
0
100
AcDbLine
62
0
6
CONTINUOUS
10
-9.7915391561
20
-20.3904616785
11
-7.2369223249
21
-19.9974437045
0
LINE
5
330
100
AcDbEntity
8
0
100
AcDbLine
62
0
6
CONTINUOUS
10
-2.5697523499
20
-12.6018809123
11
-2.5705138628
21
-12.6019865799
0
LINE
5
331
100
AcDbEntity
8
0
100
AcDbLine
62
0
6
CONTINUOUS
10
1.3166102044
20
-11.2498149570
11
1.3153613846
21
-11.2499350362
0
LINE
5
332
100
AcDbEntity
8
0
100
AcDbLine
62
0
6
CONTINUOUS
10
3.3703108326
20
10.5641755480
11
3.4164030332
21
10.5672936838
0
LINE
5
333
100
AcDbEntity
8
0
100
AcDbLine
62
0
6
CONTINUOUS
10
-4.2158154732
20
5.4676076809
11
-4.1249173993
21
5.4733376316
0
LINE
5
334
100
AcDbEntity
8
0
100
AcDbLine
62
0
6
CONTINUOUS
10
3.5871998475
20
9.8628208209
11
3.5279711065
21
9.8600312182
0
LINE
5
335
100
AcDbEntity
8
0
100
AcDbLine
62
0
6
CONTINUOUS
10
3.3474816341
20
11.0046360373
11
3.1981820357
21
10.9980341297
0
LINE
5
336
100
AcDbEntity
8
0
100
AcDbLine
62
0
6
CONTINUOUS
10
-4.1991438367
20
5.8094918095
11
-4.2406341952
21
5.8076672955
0
LINE
5
337
100
AcDbEntity
8
0
100
AcDbLine
62
0
6
CONTINUOUS
10
4.5714399125
20
19.2499396501
11
4.6210014901
21
19.2517871734
0
LINE
5
338
100
AcDbEntity
8
0
100
AcDbLine
62
0
6
CONTINUOUS
10
-5.4285600875
20
19.2499396501
11
-5.3789985099
21
19.2517871734
0
LINE
5
339
100
AcDbEntity
8
0
100
AcDbLine
62
0
6
CONTINUOUS
10
3.4164030332
20
10.5672936838
11
3.4620853196
21
10.5689783203
0
LINE
5
33A
100
AcDbEntity
8
0
100
AcDbLine
62
0
6
CONTINUOUS
10
4.6210014901
20
19.2517871734
11
4.6748703701
21
19.2525562955
0
LINE
5
33B
100
AcDbEntity
8
0
100
AcDbLine
62
0
6
CONTINUOUS
10
-5.3789985099
20
19.2517871734
11
-5.3251296299
21
19.2525562955
0
LINE
5
33C
100
AcDbEntity
8
0
100
AcDbLine
62
0
6
CONTINUOUS
10
-4.3101791155
20
5.4669912955
11
-4.2158154732
21
5.4676076809
0
LINE
5
33D
100
AcDbEntity
8
0
100
AcDbLine
62
0
6
CONTINUOUS
10
3.4620853196
20
10.5689783203
11
3.5071607844
21
10.5691922320
0
LINE
5
33E
100
AcDbEntity
8
0
100
AcDbLine
62
0
6
CONTINUOUS
10
-7.2369223249
20
20.3025562955
11
-9.4137381142
21
20.2963149599
0
LINE
5
33F
100
AcDbEntity
8
0
100
AcDbLine
62
0
6
CONTINUOUS
10
3.4926969345
20
11.0049466638
11
3.3474816341
21
11.0046360373
0
LINE
5
340
100
AcDbEntity
8
0
100
AcDbLine
62
0
6
CONTINUOUS
10
-9.4137381142
20
20.2963149599
11
-9.7915391561
21
20.2955742696
0
LINE
5
341
100
AcDbEntity
8
0
100
AcDbLine
62
0
6
CONTINUOUS
10
3.7623266751
20
5.4527192955
11
3.1746276751
21
5.4527192955
0
LINE
5
342
100
AcDbEntity
8
0
100
AcDbLine
62
0
6
CONTINUOUS
10
-0.4966733249
20
5.4527192955
11
-1.0844483249
21
5.4527192955
0
LINE
5
343
100
AcDbEntity
8
0
100
AcDbLine
62
0
6
CONTINUOUS
10
-4.4973873249
20
5.4669912955
11
-4.3101791155
21
5.4669912955
0
LINE
5
344
100
AcDbEntity
8
0
100
AcDbLine
62
0
6
CONTINUOUS
10
-4.2406341952
20
5.8076672955
11
-4.4973873249
21
5.8076672955
0
LINE
5
345
100
AcDbEntity
8
0
100
AcDbLine
62
0
6
CONTINUOUS
10
10.3630776751
20
6.0525562955
11
9.6630776751
21
6.0525562955
0
LINE
5
346
100
AcDbEntity
8
0
100
AcDbLine
62
0
6
CONTINUOUS
10
-10.1369223249
20
6.0525562955
11
-10.8369223249
21
6.0525562955
0
LINE
5
347
100
AcDbEntity
8
0
100
AcDbLine
62
0
6
CONTINUOUS
10
-4.4973873249
20
6.3868802955
11
-4.2406342066
21
6.3868802955
0
LINE
5
348
100
AcDbEntity
8
0
100
AcDbLine
62
0
6
CONTINUOUS
10
3.7510626751
20
6.7275562955
11
3.2286306751
21
6.7275562955
0
LINE
5
349
100
AcDbEntity
8
0
100
AcDbLine
62
0
6
CONTINUOUS
10
2.2801976751
20
6.7275562955
11
1.8684686751
21
6.7275562955
0
LINE
5
34A
100
AcDbEntity
8
0
100
AcDbLine
62
0
6
CONTINUOUS
10
1.0819656751
20
6.7275562955
11
0.4289246751
21
6.7275562955
0
LINE
5
34B
100
AcDbEntity
8
0
100
AcDbLine
62
0
6
CONTINUOUS
10
-0.5080133249
20
6.7275562955
11
-1.0304463249
21
6.7275562955
0
LINE
5
34C
100
AcDbEntity
8
0
100
AcDbLine
62
0
6
CONTINUOUS
10
-2.7511103249
20
6.7275562955
11
-3.1912283249
21
6.7275562955
0
LINE
5
34D
100
AcDbEntity
8
0
100
AcDbLine
62
0
6
CONTINUOUS
10
-4.3101791388
20
6.7275562955
11
-4.9375053249
21
6.7275562955
0
LINE
5
34E
100
AcDbEntity
8
0
100
AcDbLine
62
0
6
CONTINUOUS
10
-4.3584463249
20
8.4723762955
11
-3.8986163249
21
8.4723762955
0
LINE
5
34F
100
AcDbEntity
8
0
100
AcDbLine
62
0
6
CONTINUOUS
10
-2.9014623249
20
8.4723762955
11
-2.3796693249
21
8.4723762955
0
LINE
5
350
100
AcDbEntity
8
0
100
AcDbLine
62
0
6
CONTINUOUS
10
-2.0987723249
20
8.4723762955
11
-1.5995863249
21
8.4723762955
0
LINE
5
351
100
AcDbEntity
8
0
100
AcDbLine
62
0
6
CONTINUOUS
10
-0.8748573249
20
8.4723762955
11
-0.8016753249
21
8.4723762955
0
LINE
5
352
100
AcDbEntity
8
0
100
AcDbLine
62
0
6
CONTINUOUS
10
-0.0740603249
20
8.4723762955
11
0.4363916751
21
8.4723762955
0
LINE
5
353
100
AcDbEntity
8
0
100
AcDbLine
62
0
6
CONTINUOUS
10
0.5183276751
20
8.4723762955
11
1.0344586751
21
8.4723762955
0
LINE
5
354
100
AcDbEntity
8
0
100
AcDbLine
62
0
6
CONTINUOUS
10
2.0242086751
20
8.4723762955
11
2.5741566751
21
8.4723762955
0
LINE
5
355
100
AcDbEntity
8
0
100
AcDbLine
62
0
6
CONTINUOUS
10
2.7273801772
20
8.4723765148
11
3.2470735187
21
8.4723765148
0
LINE
5
356
100
AcDbEntity
8
0
100
AcDbLine
62
0
6
CONTINUOUS
10
4.0461273375
20
8.4723765148
11
4.5480314358
21
8.4723765148
0
LINE
5
357
100
AcDbEntity
8
0
100
AcDbLine
62
0
6
CONTINUOUS
10
1.1784416751
20
8.9714122955
11
1.8890366751
21
8.9714122955
0
LINE
5
358
100
AcDbEntity
8
0
100
AcDbLine
62
0
6
CONTINUOUS
10
1.7847566751
20
9.3575642955
11
1.2851766751
21
9.3575642955
0
LINE
5
359
100
AcDbEntity
8
0
100
AcDbLine
62
0
6
CONTINUOUS
10
3.2470735187
20
9.4506349341
11
3.5268463914
21
9.4506349341
0
LINE
5
35A
100
AcDbEntity
8
0
100
AcDbLine
62
0
6
CONTINUOUS
10
3.5279711065
20
9.8600312182
11
3.2297716520
21
9.8600312182
0
LINE
5
35B
100
AcDbEntity
8
0
100
AcDbLine
62
0
6
CONTINUOUS
10
1.8071756751
20
10.9721122955
11
1.3024036751
21
10.9721122955
0
LINE
5
35C
100
AcDbEntity
8
0
100
AcDbLine
62
0
6
CONTINUOUS
10
0.2026386751
20
10.9721122955
11
-0.3136243249
21
10.9721122955
0
LINE
5
35D
100
AcDbEntity
8
0
100
AcDbLine
62
0
6
CONTINUOUS
10
-1.3516993249
20
10.9721122955
11
-1.8730603249
21
10.9721122955
0
LINE
5
35E
100
AcDbEntity
8
0
100
AcDbLine
62
0
6
CONTINUOUS
10
-3.0951013249
20
10.9721122955
11
-3.6165373249
21
10.9721122955
0
LINE
5
35F
100
AcDbEntity
8
0
100
AcDbLine
62
0
6
CONTINUOUS
10
-4.5840833249
20
10.9721122955
11
-5.1509113249
21
10.9721122955
0
LINE
5
360
100
AcDbEntity
8
0
100
AcDbLine
62
0
6
CONTINUOUS
10
-2.3796693249
20
10.9722622955
11
-2.9014623249
21
10.9722622955
0
LINE
5
361
100
AcDbEntity
8
0
100
AcDbLine
62
9
6
CONTINUOUS
10
5.1512735570
20
18.8525562955
11
4.8512849801
21
18.8525562955
0
LINE
5
362
100
AcDbEntity
8
0
100
AcDbLine
62
9
6
CONTINUOUS
10
-4.8487264430
20
18.8525562955
11
-5.1487150199
21
18.8525562955
0
LINE
5
363
100
AcDbEntity
8
0
100
AcDbLine
62
9
6
CONTINUOUS
10
-5.6251182068
20
18.8525562955
11
-5.3251296299
21
18.8525562955
0
LINE
5
364
100
AcDbEntity
8
0
100
AcDbLine
62
9
6
CONTINUOUS
10
4.3748817932
20
18.8525562955
11
4.6748703701
21
18.8525562955
0
LINE
5
365
100
AcDbEntity
8
0
100
AcDbLine
62
0
6
CONTINUOUS
10
4.8512849801
20
19.2525562955
11
4.6748703701
21
19.2525562955
0
LINE
5
366
100
AcDbEntity
8
0
100
AcDbLine
62
0
6
CONTINUOUS
10
-5.1487150199
20
19.2525562955
11
-5.3251296299
21
19.2525562955
0
LINE
5
367
100
AcDbEntity
8
0
100
AcDbLine
62
0
6
CONTINUOUS
10
5.1382061019
20
19.4212052972
11
4.3879492483
21
19.4212052972
0
LINE
5
368
100
AcDbEntity
8
0
100
AcDbLine
62
0
6
CONTINUOUS
10
-4.8617938981
20
19.4212052972
11
-5.6120507517
21
19.4212052972
0
LINE
5
369
100
AcDbEntity
8
0
100
AcDbLine
62
9
6
CONTINUOUS
10
-10.0399553247
20
19.7090955341
11
-5.6369223249
21
19.7090955341
0
LINE
5
36A
100
AcDbEntity
8
0
100
AcDbLine
62
9
6
CONTINUOUS
10
-4.8369223249
20
19.7090955341
11
4.3630776751
21
19.7090955341
0
LINE
5
36B
100
AcDbEntity
8
0
100
AcDbLine
62
9
6
CONTINUOUS
10
5.1630776751
20
19.7090955341
11
9.5661106749
21
19.7090955341
0
LINE
5
36C
100
AcDbEntity
8
0
100
AcDbLine
62
0
6
CONTINUOUS
10
6.7630776751
20
19.9025562955
11
6.1630776751
21
19.9025562955
0
LINE
5
36D
100
AcDbEntity
8
0
100
AcDbLine
62
0
6
CONTINUOUS
10
-7.2369223249
20
19.9025562955
11
-6.6369223249
21
19.9025562955
0
LINE
5
36E
100
AcDbEntity
8
0
100
AcDbLine
62
9
6
CONTINUOUS
10
-9.7434311025
20
20.2090193817
11
-9.2289323851
21
20.2090193817
0
LINE
5
36F
100
AcDbEntity
8
0
100
AcDbLine
62
9
6
CONTINUOUS
10
-6.6369223249
20
20.2090193817
11
-5.6326350434
21
20.2090193817
0
LINE
5
370
100
AcDbEntity
8
0
100
AcDbLine
62
9
6
CONTINUOUS
10
-4.8412096064
20
20.2090193817
11
4.3673649566
21
20.2090193817
0
LINE
5
371
100
AcDbEntity
8
0
100
AcDbLine
62
9
6
CONTINUOUS
10
5.1587903936
20
20.2090193817
11
6.1630776751
21
20.2090193817
0
LINE
5
372
100
AcDbEntity
8
0
100
AcDbLine
62
9
6
CONTINUOUS
10
8.7550877353
20
20.2090193817
11
9.2695864527
21
20.2090193817
0
LINE
5
373
100
AcDbEntity
8
0
100
AcDbLine
62
0
6
CONTINUOUS
10
5.1382061019
20
20.2501911007
11
4.3879492483
21
20.2501911007
0
LINE
5
374
100
AcDbEntity
8
0
100
AcDbLine
62
0
6
CONTINUOUS
10
-4.8617938981
20
20.2501911007
11
-5.6120507517
21
20.2501911007
0
LINE
5
375
100
AcDbEntity
8
0
100
AcDbLine
62
0
6
CONTINUOUS
10
-9.8369680163
20
20.3025562955
11
9.3631233666
21
20.3025562955
0
LINE
5
376
100
AcDbEntity
8
0
100
AcDbLine
62
0
6
CONTINUOUS
10
10.0631995190
20
21.8025562955
11
-10.5370441688
21
21.8025562955
0
LINE
5
377
100
AcDbEntity
8
0
100
AcDbLine
62
9
6
CONTINUOUS
10
4.7672123066
20
18.7644474405
11
4.7590878765
21
18.7644488572
0
LINE
5
378
100
AcDbEntity
8
0
100
AcDbLine
62
0
6
CONTINUOUS
10
9.3176945063
20
20.2955742696
11
8.8881205134
21
20.2964493179
0
LINE
5
379
100
AcDbEntity
8
0
100
AcDbLine
62
0
6
CONTINUOUS
10
8.8881205134
20
20.2964493179
11
6.7630776751
21
20.3025562955
0
LINE
5
37A
100
AcDbEntity
8
0
100
AcDbLine
62
0
6
CONTINUOUS
10
-4.2158154861
20
6.7269399095
11
-4.3101791388
21
6.7275562955
0
LINE
5
37B
100
AcDbEntity
8
0
100
AcDbLine
62
9
6
CONTINUOUS
10
-5.2335358336
20
18.7644155288
11
-5.2416056782
21
18.7644811189
0
LINE
5
37C
100
AcDbEntity
8
0
100
AcDbLine
62
0
6
CONTINUOUS
10
-5.1487150199
20
19.2525562955
11
-5.0948461398
21
19.2517871734
0
LINE
5
37D
100
AcDbEntity
8
0
100
AcDbLine
62
0
6
CONTINUOUS
10
4.8512849801
20
19.2525562955
11
4.9051538602
21
19.2517871734
0
LINE
5
37E
100
AcDbEntity
8
0
100
AcDbLine
62
0
6
CONTINUOUS
10
-5.0948461398
20
19.2517871734
11
-5.0452845623
21
19.2499396501
0
LINE
5
37F
100
AcDbEntity
8
0
100
AcDbLine
62
0
6
CONTINUOUS
10
4.9051538602
20
19.2517871734
11
4.9547154377
21
19.2499396501
0
LINE
5
380
100
AcDbEntity
8
0
100
AcDbLine
62
0
6
CONTINUOUS
10
-5.0452845623
20
19.2499396501
11
-5.0000302872
21
19.2470137255
0
LINE
5
381
100
AcDbEntity
8
0
100
AcDbLine
62
0
6
CONTINUOUS
10
4.9547154377
20
19.2499396501
11
4.9999697128
21
19.2470137255
0
LINE
5
382
100
AcDbEntity
8
0
100
AcDbLine
62
0
6
CONTINUOUS
10
10.1706563123
20
21.7946639028
11
10.0631995190
21
21.8025562955
0
LINE
5
383
100
AcDbEntity
8
0
100
AcDbLine
62
9
6
CONTINUOUS
10
9.5649696821
20
19.9611415975
11
9.5514270045
21
20.0116364150
0
LINE
5
384
100
AcDbEntity
8
0
100
AcDbLine
62
0
6
CONTINUOUS
10
9.6440236143
20
20.1070562282
11
9.6574177115
21
20.0570620537
0
LINE
5
385
100
AcDbEntity
8
0
100
AcDbLine
62
0
6
CONTINUOUS
10
4.5480314358
20
8.4723765148
11
4.4892571483
21
8.6955316879
0
LINE
5
386
100
AcDbEntity
8
0
100
AcDbLine
62
0
6
CONTINUOUS
10
4.4502007629
20
8.8456453103
11
4.4104047397
21
8.9967882869
0
LINE
5
387
100
AcDbEntity
8
0
100
AcDbLine
62
0
6
CONTINUOUS
10
4.4892571483
20
8.6955316879
11
4.4502007629
21
8.8456453103
0
LINE
5
388
100
AcDbEntity
8
0
100
AcDbLine
62
0
6
CONTINUOUS
10
4.3696516263
20
9.1489488629
11
4.3504588281
21
9.2228878813
0
LINE
5
389
100
AcDbEntity
8
0
100
AcDbLine
62
0
6
CONTINUOUS
10
3.9157226236
20
10.3481088414
11
3.9282015693
21
10.2999976378
0
LINE
5
38A
100
AcDbEntity
8
0
100
AcDbLine
62
9
6
CONTINUOUS
10
4.6780462638
20
18.8291044679
11
4.6763315002
21
18.8366940957
0
LINE
5
38B
100
AcDbEntity
8
0
100
AcDbLine
62
9
6
CONTINUOUS
10
-5.3219729621
20
18.8291765021
11
-5.3236779967
21
18.8367451817
0
LINE
5
38C
100
AcDbEntity
8
0
100
AcDbLine
62
0
6
CONTINUOUS
10
0.5440962579
20
-15.2911218206
11
0.5445918359
21
-15.2934388622
0
LINE
5
38D
100
AcDbEntity
8
0
100
AcDbLine
62
0
6
CONTINUOUS
10
4.4118588011
20
10.4041488208
11
4.3980512841
21
10.4687707399
0
LINE
5
38E
100
AcDbEntity
8
0
100
AcDbLine
62
0
6
CONTINUOUS
10
2.1628287863
20
-12.5537893675
11
2.1579786628
21
-12.5307723783
0
LINE
5
38F
100
AcDbEntity
8
0
100
AcDbLine
62
0
6
CONTINUOUS
10
10.8551852824
20
21.1101349328
11
10.8348322394
21
21.2123166118
0
LINE
5
390
100
AcDbEntity
8
0
100
AcDbLine
62
0
6
CONTINUOUS
10
-0.9917024516
20
-16.1839460757
11
-1.0227052080
21
-16.0158483051
0
LINE
5
391
100
AcDbEntity
8
0
100
AcDbLine
62
0
6
CONTINUOUS
10
-1.0169482215
20
-15.2916567154
11
-1.0164511142
21
-15.2945086503
0
LINE
5
392
100
AcDbEntity
8
0
100
AcDbLine
62
0
6
CONTINUOUS
10
-3.9433229776
20
6.1878854874
11
-3.9367027158
21
6.1443639001
0
LINE
5
393
100
AcDbEntity
8
0
100
AcDbLine
62
0
6
CONTINUOUS
10
-3.4692458456
20
6.1810692266
11
-3.4803322951
21
6.2596437626
0
LINE
5
394
100
AcDbEntity
8
0
100
AcDbLine
62
9
6
CONTINUOUS
10
-5.3236779967
20
18.8367451817
11
-5.3247302193
21
18.8445384461
0
LINE
5
395
100
AcDbEntity
8
0
100
AcDbLine
62
9
6
CONTINUOUS
10
-10.0430981631
20
19.9082331435
11
-10.0428114271
21
19.9058797371
0
LINE
5
396
100
AcDbEntity
8
0
100
AcDbLine
62
9
6
CONTINUOUS
10
-9.7434311025
20
20.2090193817
11
-9.7431438807
21
20.2066606610
0
LINE
5
397
100
AcDbEntity
8
0
100
AcDbLine
62
0
6
CONTINUOUS
10
-1.0164511142
20
-15.2945086503
11
-1.0159531684
21
-15.2990820485
0
LINE
5
398
100
AcDbEntity
8
0
100
AcDbLine
62
0
6
CONTINUOUS
10
9.6574177115
20
20.0570620537
11
9.6630776751
21
20.0026019870
0
LINE
5
399
100
AcDbEntity
8
0
100
AcDbLine
62
0
6
CONTINUOUS
10
3.9282015693
20
10.2999976378
11
3.9332996711
21
10.2484890568
0
LINE
5
39A
100
AcDbEntity
8
0
100
AcDbLine
62
0
6
CONTINUOUS
10
0.4363916751
20
8.4723762955
11
0.2026386751
21
10.9721122955
0
LINE
5
39B
100
AcDbEntity
8
0
100
AcDbLine
62
0
6
CONTINUOUS
10
-0.9917024516
20
-16.1839460757
11
-0.9908280653
21
-16.1935819475
0
LINE
5
39C
100
AcDbEntity
8
0
100
AcDbLine
62
9
6
CONTINUOUS
10
9.5695407613
20
19.9090650732
11
9.5649696821
21
19.9611415975
0
LINE
5
39D
100
AcDbEntity
8
0
100
AcDbLine
62
0
6
CONTINUOUS
10
0.5450836166
20
-15.2974636167
11
0.5455706137
21
-15.3031915004
0
LINE
5
39E
100
AcDbEntity
8
0
100
AcDbLine
62
9
6
CONTINUOUS
10
9.5690034845
20
-20.0011739876
11
9.5687315716
21
-19.9976699478
0
LINE
5
39F
100
AcDbEntity
8
0
100
AcDbLine
62
9
6
CONTINUOUS
10
-10.0428114271
20
19.9058797371
11
-10.0425252030
21
19.9020048541
0
LINE
5
3A0
100
AcDbEntity
8
0
100
AcDbLine
62
0
6
CONTINUOUS
10
-11.3369223249
20
-21.0975655483
11
-11.3290299322
21
-21.2050223417
0
LINE
5
3A1
100
AcDbEntity
8
0
100
AcDbLine
62
0
6
CONTINUOUS
10
-4.8404283426
20
20.1982664429
11
-4.8412096064
21
20.2090193817
0
LINE
5
3A2
100
AcDbEntity
8
0
100
AcDbLine
62
0
6
CONTINUOUS
10
5.1595716574
20
20.1982664429
11
5.1587903936
21
20.2090193817
0
LINE
5
3A3
100
AcDbEntity
8
0
100
AcDbLine
62
0
6
CONTINUOUS
10
-0.1812643249
20
10.0978522955
11
-0.0740603249
21
8.4723762955
0
LINE
5
3A4
100
AcDbEntity
8
0
100
AcDbLine
62
0
6
CONTINUOUS
10
0.5455706137
20
-15.3031915004
11
0.5460538136
21
-15.3106270972
0
LINE
5
3A5
100
AcDbEntity
8
0
100
AcDbLine
62
0
6
CONTINUOUS
10
-4.8617938981
20
19.4212052972
11
-4.8487264430
21
19.2107619755
0
LINE
5
3A6
100
AcDbEntity
8
0
100
AcDbLine
62
9
6
CONTINUOUS
10
-10.0425252030
20
19.9020048541
11
-10.0422357161
21
19.8965956144
0
LINE
5
3A7
100
AcDbEntity
8
0
100
AcDbLine
62
0
6
CONTINUOUS
10
0.5460538136
20
-15.3106270972
11
0.5465332162
21
-15.3197704069
0
LINE
5
3A8
100
AcDbEntity
8
0
100
AcDbLine
62
9
6
CONTINUOUS
10
-5.3247302193
20
18.8445384461
11
-5.3251296299
21
18.8525562955
0
LINE
5
3A9
100
AcDbEntity
8
0
100
AcDbLine
62
9
6
CONTINUOUS
10
-9.7431438807
20
20.2066606610
11
-9.7428571506
21
20.2008426483
0
LINE
5
3AA
100
AcDbEntity
8
0
100
AcDbLine
62
0
6
CONTINUOUS
10
-0.9908280653
20
-16.1935819475
11
-0.9900274715
21
-16.2100453138
0
LINE
5
3AB
100
AcDbEntity
8
0
100
AcDbLine
62
9
6
CONTINUOUS
10
-10.0422357161
20
19.8965956144
11
-10.0419467411
21
19.8896648979
0
LINE
5
3AC
100
AcDbEntity
8
0
100
AcDbLine
62
0
6
CONTINUOUS
10
-3.9367027158
20
6.1443639001
11
-3.9351471817
21
6.0972737948
0
LINE
5
3AD
100
AcDbEntity
8
0
100
AcDbLine
62
9
6
CONTINUOUS
10
-10.0419467411
20
19.8896648979
11
-10.0416696021
21
19.8812513448
0
LINE
5
3AE
100
AcDbEntity
8
0
100
AcDbLine
62
0
6
CONTINUOUS
10
-4.8397118928
20
20.1749841465
11
-4.8404283426
21
20.1982664429
0
LINE
5
3AF
100
AcDbEntity
8
0
100
AcDbLine
62
9
6
CONTINUOUS
10
-9.7428571506
20
20.2008426483
11
-9.7425709121
21
20.1913668614
0
LINE
5
3B0
100
AcDbEntity
8
0
100
AcDbLine
62
9
6
CONTINUOUS
10
-10.0416696021
20
19.8812513448
11
-10.0414047574
21
19.8712322660
0
LINE
5
3B1
100
AcDbEntity
8
0
100
AcDbLine
62
9
6
CONTINUOUS
10
-9.7425709121
20
20.1913668614
11
-9.7422813811
21
20.1780006363
0
LINE
5
3B2
100
AcDbEntity
8
0
100
AcDbLine
62
9
6
CONTINUOUS
10
-10.0414047574
20
19.8712322660
11
-10.0409205249
21
19.8471523054
0
LINE
5
3B3
100
AcDbEntity
8
0
100
AcDbLine
62
9
6
CONTINUOUS
10
-9.7422813811
20
20.1780006363
11
-9.7417151464
21
20.1394432122
0
LINE
5
3B4
100
AcDbEntity
8
0
100
AcDbLine
62
9
6
CONTINUOUS
10
-10.0409205249
20
19.8471523054
11
-10.0405270796
21
19.8186196747
0
LINE
5
3B5
100
AcDbEntity
8
0
100
AcDbLine
62
9
6
CONTINUOUS
10
-10.0405270796
20
19.8186196747
11
-10.0401312761
21
19.7715448754
0
LINE
5
3B6
100
AcDbEntity
8
0
100
AcDbLine
62
9
6
CONTINUOUS
10
9.3721578481
20
-20.2857930143
11
9.3216630089
21
-20.2993357058
0
LINE
5
3B7
100
AcDbEntity
8
0
100
AcDbLine
62
0
6
CONTINUOUS
10
9.4675776078
20
-20.3783896437
11
9.4175834333
21
-20.3917837409
0
LINE
5
3B8
100
AcDbEntity
8
0
100
AcDbLine
62
0
6
CONTINUOUS
10
-4.0374848940
20
5.4841811474
11
-3.9526360057
21
5.4995386903
0
LINE
5
3B9
100
AcDbEntity
8
0
100
AcDbLine
62
0
6
CONTINUOUS
10
3.2297716520
20
10.5462573706
11
3.2770279598
21
10.5536635957
0
LINE
5
3BA
100
AcDbEntity
8
0
100
AcDbLine
62
0
6
CONTINUOUS
10
2.8883984279
20
10.9675739137
11
2.7273801772
21
10.9429068839
0
LINE
5
3BB
100
AcDbEntity
8
0
100
AcDbLine
62
0
6
CONTINUOUS
10
3.6423611291
20
9.8708351165
11
3.5871998475
21
9.8628208209
0
LINE
5
3BC
100
AcDbEntity
8
0
100
AcDbLine
62
0
6
CONTINUOUS
10
4.4463939243
20
19.2376340634
11
4.4841361296
21
19.2428630951
0
LINE
5
3BD
100
AcDbEntity
8
0
100
AcDbLine
62
0
6
CONTINUOUS
10
-4.1595707621
20
5.8146260937
11
-4.1991438367
21
5.8094918095
0
LINE
5
3BE
100
AcDbEntity
8
0
100
AcDbLine
62
0
6
CONTINUOUS
10
3.2770279598
20
10.5536635957
11
3.3238743533
21
10.5596363215
0
LINE
5
3BF
100
AcDbEntity
8
0
100
AcDbLine
62
0
6
CONTINUOUS
10
-4.1249173993
20
5.4733376316
11
-4.0374848940
21
5.4841811474
0
LINE
5
3C0
100
AcDbEntity
8
0
100
AcDbLine
62
0
6
CONTINUOUS
10
3.0453323807
20
10.9859496623
11
2.8883984279
21
10.9675739137
0
LINE
5
3C1
100
AcDbEntity
8
0
100
AcDbLine
62
0
6
CONTINUOUS
10
-9.8914280831
20
20.2968963319
11
-9.8369680163
21
20.3025562955
0
LINE
5
3C2
100
AcDbEntity
8
0
100
AcDbLine
62
0
6
CONTINUOUS
10
4.4841361296
20
19.2428630951
11
4.5261856374
21
19.2470137255
0
LINE
5
3C3
100
AcDbEntity
8
0
100
AcDbLine
62
0
6
CONTINUOUS
10
-5.5158638704
20
19.2428630951
11
-5.4738143626
21
19.2470137255
0
LINE
5
3C4
100
AcDbEntity
8
0
100
AcDbLine
62
0
6
CONTINUOUS
10
3.3238743533
20
10.5596363215
11
3.3703108326
21
10.5641755480
0
LINE
5
3C5
100
AcDbEntity
8
0
100
AcDbLine
62
9
6
CONTINUOUS
10
4.7753453069
20
18.7652284002
11
4.7672123066
21
18.7644474405
0
LINE
5
3C6
100
AcDbEntity
8
0
100
AcDbLine
62
9
6
CONTINUOUS
10
-9.7955080714
20
20.2044482241
11
-9.7434311025
21
20.2090193817
0
LINE
5
3C7
100
AcDbEntity
8
0
100
AcDbLine
62
9
6
CONTINUOUS
10
-5.2254447940
20
18.7651199747
11
-5.2335358336
21
18.7644155288
0
LINE
5
3C8
100
AcDbEntity
8
0
100
AcDbLine
62
0
6
CONTINUOUS
10
3.1981820357
20
10.9980341297
11
3.0453323807
21
10.9859496623
0
LINE
5
3C9
100
AcDbEntity
8
0
100
AcDbLine
62
0
6
CONTINUOUS
10
-10.5370441688
20
21.8025562955
11
-10.6445009621
21
21.7946639028
0
LINE
5
3CA
100
AcDbEntity
8
0
100
AcDbLine
62
0
6
CONTINUOUS
10
4.5261856374
20
19.2470137255
11
4.5714399125
21
19.2499396501
0
LINE
5
3CB
100
AcDbEntity
8
0
100
AcDbLine
62
0
6
CONTINUOUS
10
-5.4738143626
20
19.2470137255
11
-5.4285600875
21
19.2499396501
0
LINE
5
3CC
100
AcDbEntity
8
0
100
AcDbLine
62
9
6
CONTINUOUS
10
4.6763315002
20
18.8366940957
11
4.6752728690
21
18.8445113716
0
LINE
5
3CD
100
AcDbEntity
8
0
100
AcDbLine
62
0
6
CONTINUOUS
10
4.4201797652
20
10.3413403821
11
4.4118588011
21
10.4041488208
0
LINE
5
3CE
100
AcDbEntity
8
0
100
AcDbLine
62
9
6
CONTINUOUS
10
9.5692732144
20
-20.0032681657
11
9.5690034845
21
-20.0011739876
0
LINE
5
3CF
100
AcDbEntity
8
0
100
AcDbLine
62
9
6
CONTINUOUS
10
9.2695864527
20
-20.3039067907
11
9.2693189291
21
-20.3018172482
0
LINE
5
3D0
100
AcDbEntity
8
0
100
AcDbLine
62
0
6
CONTINUOUS
10
0.5445918359
20
-15.2934388622
11
0.5450836166
21
-15.2974636167
0
LINE
5
3D1
100
AcDbEntity
8
0
100
AcDbLine
62
0
6
CONTINUOUS
10
10.8630776751
20
21.0026781394
11
10.8551852824
21
21.1101349328
0
LINE
5
3D2
100
AcDbEntity
8
0
100
AcDbLine
62
0
6
CONTINUOUS
10
5.1382061019
20
19.4212052972
11
5.1512735570
21
19.2107619755
0
LINE
5
3D3
100
AcDbEntity
8
0
100
AcDbLine
62
9
6
CONTINUOUS
10
9.5687315716
20
-19.9976699478
11
9.5684539948
21
-19.9927849463
0
LINE
5
3D4
100
AcDbEntity
8
0
100
AcDbLine
62
9
6
CONTINUOUS
10
9.2693189291
20
-20.3018172482
11
9.2690492451
21
-20.2966732476
0
LINE
5
3D5
100
AcDbEntity
8
0
100
AcDbLine
62
9
6
CONTINUOUS
10
4.6752728690
20
18.8445113716
11
4.6748703701
21
18.8525562955
0
LINE
5
3D6
100
AcDbEntity
8
0
100
AcDbLine
62
9
6
CONTINUOUS
10
9.5684539948
20
-19.9927849463
11
9.5681742350
21
-19.9864900830
0
LINE
5
3D7
100
AcDbEntity
8
0
100
AcDbLine
62
0
6
CONTINUOUS
10
4.4227360757
20
10.2798739117
11
4.4201797652
21
10.3413403821
0
LINE
5
3D8
100
AcDbEntity
8
0
100
AcDbLine
62
0
6
CONTINUOUS
10
0.5470312659
20
-15.3329942454
11
0.5465332162
21
-15.3197704069
0
LINE
5
3D9
100
AcDbEntity
8
0
100
AcDbLine
62
9
6
CONTINUOUS
10
9.5681742350
20
-19.9864900830
11
9.5679027352
21
-19.9786986580
0
LINE
5
3DA
100
AcDbEntity
8
0
100
AcDbLine
62
9
6
CONTINUOUS
10
9.2690492451
20
-20.2966732476
11
9.2687774008
21
-20.2882234523
0
LINE
5
3DB
100
AcDbEntity
8
0
100
AcDbLine
62
0
6
CONTINUOUS
10
-0.9900274715
20
-16.2100453138
11
-0.9893006702
21
-16.2333361745
0
LINE
5
3DC
100
AcDbEntity
8
0
100
AcDbLine
62
0
6
CONTINUOUS
10
-3.4666395353
20
6.0972737948
11
-3.4692458456
21
6.1810692266
0
LINE
5
3DD
100
AcDbEntity
8
0
100
AcDbLine
62
0
6
CONTINUOUS
10
5.1602881072
20
20.1749841465
11
5.1595716574
21
20.1982664429
0
LINE
5
3DE
100
AcDbEntity
8
0
100
AcDbLine
62
9
6
CONTINUOUS
10
9.5679027352
20
-19.9786986580
11
9.5676393432
21
-19.9692926534
0
LINE
5
3DF
100
AcDbEntity
8
0
100
AcDbLine
62
0
6
CONTINUOUS
10
0.5473847941
20
-15.3463116197
11
0.5469809459
21
-15.3316581873
0
LINE
5
3E0
100
AcDbEntity
8
0
100
AcDbLine
62
9
6
CONTINUOUS
10
9.2687774008
20
-20.2882234523
11
9.2684999358
21
-20.2761915348
0
LINE
5
3E1
100
AcDbEntity
8
0
100
AcDbLine
62
0
6
CONTINUOUS
10
-0.9893006702
20
-16.2333361745
11
-0.9886316311
21
-16.2643741325
0
LINE
5
3E2
100
AcDbEntity
8
0
100
AcDbLine
62
9
6
CONTINUOUS
10
9.5676393432
20
-19.9692926534
11
9.5671482385
21
-19.9462583128
0
LINE
5
3E3
100
AcDbEntity
8
0
100
AcDbLine
62
0
6
CONTINUOUS
10
0.5477447607
20
-15.3637307040
11
0.5473847941
21
-15.3463116197
0
LINE
5
3E4
100
AcDbEntity
8
0
100
AcDbLine
62
0
6
CONTINUOUS
10
-4.8390602568
20
20.1391724925
11
-4.8397118928
21
20.1749841465
0
LINE
5
3E5
100
AcDbEntity
8
0
100
AcDbLine
62
0
6
CONTINUOUS
10
5.1609397432
20
20.1391724925
11
5.1602881072
21
20.1749841465
0
LINE
5
3E6
100
AcDbEntity
8
0
100
AcDbLine
62
0
6
CONTINUOUS
10
-0.9886316311
20
-16.2643741325
11
-0.9880363845
21
-16.3022395850
0
LINE
5
3E7
100
AcDbEntity
8
0
100
AcDbLine
62
9
6
CONTINUOUS
10
9.2684999358
20
-20.2761915348
11
9.2679489060
21
-20.2408458192
0
LINE
5
3E8
100
AcDbEntity
8
0
100
AcDbLine
62
9
6
CONTINUOUS
10
9.5671482385
20
-19.9462583128
11
9.5667364202
21
-19.9181007237
0
LINE
5
3E9
100
AcDbEntity
8
0
100
AcDbLine
62
0
6
CONTINUOUS
10
0.5483421229
20
-15.4075097563
11
0.5477447607
21
-15.3637307040
0
LINE
5
3EA
100
AcDbEntity
8
0
100
AcDbLine
62
0
6
CONTINUOUS
10
-4.8379209973
20
20.0264122619
11
-4.8390602568
21
20.1391724925
0
LINE
5
3EB
100
AcDbEntity
8
0
100
AcDbLine
62
0
6
CONTINUOUS
10
5.1620790027
20
20.0264122619
11
5.1609397432
21
20.1391724925
0
LINE
5
3EC
100
AcDbEntity
8
0
100
AcDbLine
62
0
6
CONTINUOUS
10
-0.9880363845
20
-16.3022395850
11
-0.9872275724
21
-16.3892569459
0
LINE
5
3ED
100
AcDbEntity
8
0
100
AcDbLine
62
9
6
CONTINUOUS
10
9.2679489060
20
-20.2408458192
11
9.2671943990
21
-20.1597809454
0
LINE
5
3EE
100
AcDbEntity
8
0
100
AcDbLine
62
9
6
CONTINUOUS
10
9.5667364202
20
-19.9181007237
11
9.5663082467
21
-19.8700588757
0
LINE
5
3EF
100
AcDbEntity
8
0
100
AcDbLine
62
9
6
CONTINUOUS
10
-9.7417151464
20
20.1394432122
11
-9.7409659754
21
20.0541350349
0
LINE
5
3F0
100
AcDbEntity
8
0
100
AcDbLine
62
0
6
CONTINUOUS
10
0.5487185921
20
-15.4591317776
11
0.5483421229
21
-15.4075097563
0
LINE
5
3F1
100
AcDbEntity
8
0
100
AcDbLine
62
0
6
CONTINUOUS
10
-4.8371931388
20
19.8812788508
11
-4.8379209973
21
20.0264122619
0
LINE
5
3F2
100
AcDbEntity
8
0
100
AcDbLine
62
0
6
CONTINUOUS
10
5.1628068612
20
19.8812788508
11
5.1620790027
21
20.0264122619
0
LINE
5
3F3
100
AcDbEntity
8
0
100
AcDbLine
62
9
6
CONTINUOUS
10
9.2671943990
20
-20.1597809454
11
9.2664701010
21
-20.0108105821
0
LINE
5
3F4
100
AcDbEntity
8
0
100
AcDbLine
62
9
6
CONTINUOUS
10
-9.7409659754
20
20.0541350349
11
-9.7402818649
21
19.9052896524
0
LINE
5
3F5
100
AcDbEntity
8
0
100
AcDbLine
62
9
6
CONTINUOUS
10
9.5663082467
20
-19.8700588757
11
9.5661201823
21
-19.8204520738
0
LINE
5
3F6
100
AcDbEntity
8
0
100
AcDbLine
62
9
6
CONTINUOUS
10
-10.0401312761
20
19.7715448754
11
-10.0399626004
21
19.7244339233
0
LINE
5
3F7
100
AcDbEntity
8
0
100
AcDbLine
62
0
6
CONTINUOUS
10
-0.9872275724
20
-16.3892569459
11
-0.9869223249
21
-16.4916294490
0
LINE
5
3F8
100
AcDbEntity
8
0
100
AcDbLine
62
9
6
CONTINUOUS
10
9.2664701010
20
-20.0108105821
11
9.2661659253
21
-19.8445777665
0
LINE
5
3F9
100
AcDbEntity
8
0
100
AcDbLine
62
0
6
CONTINUOUS
10
-4.8369223249
20
19.7090955341
11
-4.8371931388
21
19.8812788508
0
LINE
5
3FA
100
AcDbEntity
8
0
100
AcDbLine
62
0
6
CONTINUOUS
10
5.1630776751
20
19.7090955341
11
5.1628068612
21
19.8812788508
0
LINE
5
3FB
100
AcDbEntity
8
0
100
AcDbLine
62
9
6
CONTINUOUS
10
-9.7402818649
20
19.9052896524
11
-9.7400010161
21
19.7090955341
0
LINE
5
3FC
100
AcDbEntity
8
0
100
AcDbLine
62
0
6
CONTINUOUS
10
0.5488605582
20
-16.0158483051
11
0.5487185921
21
-15.4591317776
0
LINE
5
3FD
100
AcDbEntity
8
0
100
AcDbLine
62
0
6
CONTINUOUS
10
-11.3369223249
20
-21.0975655483
11
-11.3369223249
21
21.0026781394
0
LINE
5
3FE
100
AcDbEntity
8
0
100
AcDbLine
62
0
6
CONTINUOUS
10
-10.8369223249
20
-6.1474437045
11
-10.8369223249
21
6.0525562955
0
LINE
5
3FF
100
AcDbEntity
8
0
100
AcDbLine
62
0
6
CONTINUOUS
10
-10.1369223249
20
-20.0974893959
11
-10.1369223249
21
-6.1474437045
0
LINE
5
400
100
AcDbEntity
8
0
100
AcDbLine
62
0
6
CONTINUOUS
10
-10.1369223249
20
6.0525562955
11
-10.1369223249
21
20.0026019870
0
LINE
5
401
100
AcDbEntity
8
0
100
AcDbLine
62
0
6
CONTINUOUS
10
-10.1244867151
20
-6.1474437045
11
-10.1244867151
21
6.0525562955
0
LINE
5
402
100
AcDbEntity
8
0
100
AcDbLine
62
9
6
CONTINUOUS
10
-10.0399626004
20
19.7244339233
11
-10.0400635381
21
-19.8533818114
0
LINE
5
403
100
AcDbEntity
8
0
100
AcDbLine
62
0
6
CONTINUOUS
10
-9.8488821123
20
2.9145160829
11
-9.8488821123
21
-3.0094034919
0
LINE
5
404
100
AcDbEntity
8
0
100
AcDbLine
62
0
6
CONTINUOUS
10
-9.8369223249
20
2.9025562955
11
-9.8369223249
21
-2.9974437045
0
LINE
5
405
100
AcDbEntity
8
0
100
AcDbLine
62
9
6
CONTINUOUS
10
-9.7400010161
20
19.7090955341
11
-9.7400010161
21
2.9143375671
0
LINE
5
406
100
AcDbEntity
8
0
100
AcDbLine
62
9
6
CONTINUOUS
10
-9.7400010161
20
-3.0092249760
11
-9.7401987839
21
-19.9693531968
0
LINE
5
407
100
AcDbEntity
8
0
100
AcDbLine
62
0
6
CONTINUOUS
10
-9.3869223249
20
2.8525562955
11
-9.3869223249
21
-2.9474437045
0
LINE
5
408
100
AcDbEntity
8
0
100
AcDbLine
62
9
6
CONTINUOUS
10
-9.2869223249
20
2.8525562955
11
-9.2869223249
21
-2.9474437045
0
LINE
5
409
100
AcDbEntity
8
0
100
AcDbLine
62
0
6
CONTINUOUS
10
-9.2443401625
20
2.9025562955
11
-9.2443401625
21
2.8525562955
0
LINE
5
40A
100
AcDbEntity
8
0
100
AcDbLine
62
0
6
CONTINUOUS
10
-9.2443401625
20
-2.9474437045
11
-9.2443401625
21
-2.9974437045
0
LINE
5
40B
100
AcDbEntity
8
0
100
AcDbLine
62
0
6
CONTINUOUS
10
-9.1885506392
20
2.8525562955
11
-9.1885506392
21
-2.9474437045
0
LINE
5
40C
100
AcDbEntity
8
0
100
AcDbLine
62
0
6
CONTINUOUS
10
-9.1369223249
20
-3.0048615421
11
-9.1369223249
21
2.9099741332
0
LINE
5
40D
100
AcDbEntity
8
0
100
AcDbLine
62
0
6
CONTINUOUS
10
-7.2369223249
20
-19.9974437045
11
-7.2369223249
21
-20.3974437045
0
LINE
5
40E
100
AcDbEntity
8
0
100
AcDbLine
62
0
6
CONTINUOUS
10
-7.2369223249
20
19.9025562955
11
-7.2369223249
21
20.3025562955
0
LINE
5
40F
100
AcDbEntity
8
0
100
AcDbLine
62
0
6
CONTINUOUS
10
-6.6369223249
20
-19.9974437045
11
-6.6369223249
21
-20.3974437045
0
LINE
5
410
100
AcDbEntity
8
0
100
AcDbLine
62
0
6
CONTINUOUS
10
-6.6369223249
20
19.9025562955
11
-6.6369223249
21
20.3025562955
0
LINE
5
411
100
AcDbEntity
8
0
100
AcDbLine
62
0
6
CONTINUOUS
10
-5.6251182068
20
18.8525562955
11
-5.6251182068
21
19.2107619755
0
LINE
5
412
100
AcDbEntity
8
0
100
AcDbLine
62
0
6
CONTINUOUS
10
-5.6120507517
20
19.4212052972
11
-5.6120507517
21
20.2501911007
0
LINE
5
413
100
AcDbEntity
8
0
100
AcDbLine
62
9
6
CONTINUOUS
10
-5.3251296299
20
18.8525562955
11
-5.3251296299
21
19.2525562955
0
LINE
5
414
100
AcDbEntity
8
0
100
AcDbLine
62
9
6
CONTINUOUS
10
-5.1487150199
20
19.2525562955
11
-5.1487150199
21
18.8525562955
0
LINE
5
415
100
AcDbEntity
8
0
100
AcDbLine
62
0
6
CONTINUOUS
10
-4.9375053249
20
6.7275562955
11
-4.9375053249
21
4.6775562955
0
LINE
5
416
100
AcDbEntity
8
0
100
AcDbLine
62
0
6
CONTINUOUS
10
-4.8617938981
20
19.4212052972
11
-4.8617938981
21
20.2501911007
0
LINE
5
417
100
AcDbEntity
8
0
100
AcDbLine
62
0
6
CONTINUOUS
10
-4.8487264430
20
19.2107619755
11
-4.8487264430
21
18.8525411409
0
LINE
5
418
100
AcDbEntity
8
0
100
AcDbLine
62
0
6
CONTINUOUS
10
-4.8369223249
20
19.7090955341
11
-4.8369223249
21
18.8525562955
0
LINE
5
419
100
AcDbEntity
8
0
100
AcDbLine
62
0
6
CONTINUOUS
10
-4.4973873249
20
4.6775562955
11
-4.4973873249
21
5.4669912955
0
LINE
5
41A
100
AcDbEntity
8
0
100
AcDbLine
62
0
6
CONTINUOUS
10
-4.4973873249
20
5.8076672955
11
-4.4973873249
21
6.3868802955
0
LINE
5
41B
100
AcDbEntity
8
0
100
AcDbLine
62
0
6
CONTINUOUS
10
-3.1912283249
20
6.7275562955
11
-3.1912283249
21
4.6775562955
0
LINE
5
41C
100
AcDbEntity
8
0
100
AcDbLine
62
0
6
CONTINUOUS
10
-2.9014623249
20
10.9722622955
11
-2.9014623249
21
8.4723762955
0
LINE
5
41D
100
AcDbEntity
8
0
100
AcDbLine
62
0
6
CONTINUOUS
10
-2.7511103249
20
5.0182322955
11
-2.7511103249
21
6.7275562955
0
LINE
5
41E
100
AcDbEntity
8
0
100
AcDbLine
62
0
6
CONTINUOUS
10
-2.4619219550
20
-12.0830777750
11
-2.4619219550
21
-13.8664817460
0
LINE
5
41F
100
AcDbEntity
8
0
100
AcDbLine
62
0
6
CONTINUOUS
10
-2.3796693249
20
8.4723762955
11
-2.3796693249
21
10.9722622955
0
LINE
5
420
100
AcDbEntity
8
0
100
AcDbLine
62
0
6
CONTINUOUS
10
-1.9926113249
20
4.6775562955
11
-1.9926113249
21
5.0182322955
0
LINE
5
421
100
AcDbEntity
8
0
100
AcDbLine
62
0
6
CONTINUOUS
10
-0.9869223249
20
-15.3798244624
11
-0.9869223249
21
-16.4916294490
0
LINE
5
422
100
AcDbEntity
8
0
100
AcDbLine
62
0
6
CONTINUOUS
10
0.4289246751
20
6.7275562955
11
0.4289246751
21
4.6775562955
0
LINE
5
423
100
AcDbEntity
8
0
100
AcDbLine
62
0
6
CONTINUOUS
10
0.5130776751
20
-16.4916294490
11
0.5130776751
21
-15.3798244624
0
LINE
5
424
100
AcDbEntity
8
0
100
AcDbLine
62
0
6
CONTINUOUS
10
0.8406526751
20
4.6775562955
11
0.8406526751
21
6.3932672955
0
LINE
5
425
100
AcDbEntity
8
0
100
AcDbLine
62
0
6
CONTINUOUS
10
1.8684686751
20
6.7275562955
11
1.8684686751
21
5.1030282955
0
LINE
5
426
100
AcDbEntity
8
0
100
AcDbLine
62
0
6
CONTINUOUS
10
2.2801976751
20
4.6775562955
11
2.2801976751
21
6.7275562955
0
LINE
5
427
100
AcDbEntity
8
0
100
AcDbLine
62
0
6
CONTINUOUS
10
2.7273801772
20
10.9429068839
11
2.7273801772
21
8.4723765148
0
LINE
5
428
100
AcDbEntity
8
0
100
AcDbLine
62
0
6
CONTINUOUS
10
3.2297716520
20
9.8600312182
11
3.2297716520
21
10.5462573706
0
LINE
5
429
100
AcDbEntity
8
0
100
AcDbLine
62
0
6
CONTINUOUS
10
3.2470735187
20
8.4723765148
11
3.2470735187
21
9.4506349341
0
LINE
5
42A
100
AcDbEntity
8
0
100
AcDbLine
62
0
6
CONTINUOUS
10
4.0779586065
20
9.6354321990
11
4.0779586065
21
9.6554321990
0
LINE
5
42B
100
AcDbEntity
8
0
100
AcDbLine
62
0
6
CONTINUOUS
10
4.3748817932
20
18.8525562955
11
4.3748817932
21
19.2107619755
0
LINE
5
42C
100
AcDbEntity
8
0
100
AcDbLine
62
0
6
CONTINUOUS
10
4.3879492483
20
19.4212052972
11
4.3879492483
21
20.2501911007
0
LINE
5
42D
100
AcDbEntity
8
0
100
AcDbLine
62
9
6
CONTINUOUS
10
4.6748703701
20
18.8525562955
11
4.6748703701
21
19.2525562955
0
LINE
5
42E
100
AcDbEntity
8
0
100
AcDbLine
62
9
6
CONTINUOUS
10
4.8512849801
20
19.2525562955
11
4.8512849801
21
18.8525562955
0
LINE
5
42F
100
AcDbEntity
8
0
100
AcDbLine
62
0
6
CONTINUOUS
10
5.1382061019
20
19.4212052972
11
5.1382061019
21
20.2501911007
0
LINE
5
430
100
AcDbEntity
8
0
100
AcDbLine
62
0
6
CONTINUOUS
10
5.1512735570
20
19.2107619755
11
5.1512735570
21
18.8525562955
0
LINE
5
431
100
AcDbEntity
8
0
100
AcDbLine
62
0
6
CONTINUOUS
10
5.1630776751
20
19.7090955341
11
5.1630776751
21
18.8525562955
0
LINE
5
432
100
AcDbEntity
8
0
100
AcDbLine
62
0
6
CONTINUOUS
10
6.1630776751
20
-19.9974437045
11
6.1630776751
21
-20.3974437045
0
LINE
5
433
100
AcDbEntity
8
0
100
AcDbLine
62
0
6
CONTINUOUS
10
6.1630776751
20
19.9025562955
11
6.1630776751
21
20.3025562955
0
LINE
5
434
100
AcDbEntity
8
0
100
AcDbLine
62
0
6
CONTINUOUS
10
6.7630776751
20
-19.9974437045
11
6.7630776751
21
-20.3974437045
0
LINE
5
435
100
AcDbEntity
8
0
100
AcDbLine
62
0
6
CONTINUOUS
10
6.7630776751
20
19.9025562955
11
6.7630776751
21
20.3025562955
0
LINE
5
436
100
AcDbEntity
8
0
100
AcDbLine
62
0
6
CONTINUOUS
10
8.6630776751
20
2.9099741332
11
8.6630776751
21
-3.0048615421
0
LINE
5
437
100
AcDbEntity
8
0
100
AcDbLine
62
0
6
CONTINUOUS
10
8.7147059894
20
2.8525562955
11
8.7147059894
21
-2.9474437045
0
LINE
5
438
100
AcDbEntity
8
0
100
AcDbLine
62
0
6
CONTINUOUS
10
8.7704955127
20
2.9025562955
11
8.7704955127
21
2.8525562955
0
LINE
5
439
100
AcDbEntity
8
0
100
AcDbLine
62
0
6
CONTINUOUS
10
8.7704955127
20
-2.9474437045
11
8.7704955127
21
-2.9974437045
0
LINE
5
43A
100
AcDbEntity
8
0
100
AcDbLine
62
9
6
CONTINUOUS
10
8.8130776751
20
2.8525562955
11
8.8130776751
21
-2.9474437045
0
LINE
5
43B
100
AcDbEntity
8
0
100
AcDbLine
62
0
6
CONTINUOUS
10
8.9130776751
20
2.8525562955
11
8.9130776751
21
-2.9474437045
0
LINE
5
43C
100
AcDbEntity
8
0
100
AcDbLine
62
9
6
CONTINUOUS
10
9.2661659253
20
-19.8445777665
11
9.2661563663
21
-3.0092249760
0
LINE
5
43D
100
AcDbEntity
8
0
100
AcDbLine
62
9
6
CONTINUOUS
10
9.2661563663
20
2.9143375671
11
9.2663322968
21
19.8652118875
0
LINE
5
43E
100
AcDbEntity
8
0
100
AcDbLine
62
0
6
CONTINUOUS
10
9.3630776751
20
2.9025562955
11
9.3630776751
21
-2.9974437045
0
LINE
5
43F
100
AcDbEntity
8
0
100
AcDbLine
62
0
6
CONTINUOUS
10
9.3750374625
20
-3.0094034919
11
9.3750374625
21
2.9145160829
0
LINE
5
440
100
AcDbEntity
8
0
100
AcDbLine
62
9
6
CONTINUOUS
10
9.5661201823
20
-19.8204520738
11
9.5662062087
21
19.7555591451
0
LINE
5
441
100
AcDbEntity
8
0
100
AcDbLine
62
0
6
CONTINUOUS
10
9.6506420653
20
-6.1474437045
11
9.6506420653
21
6.0525562955
0
LINE
5
442
100
AcDbEntity
8
0
100
AcDbLine
62
0
6
CONTINUOUS
10
9.6630776751
20
-20.0974893959
11
9.6630776751
21
-6.1474437045
0
LINE
5
443
100
AcDbEntity
8
0
100
AcDbLine
62
0
6
CONTINUOUS
10
9.6630776751
20
6.0525562955
11
9.6630776751
21
20.0026019870
0
LINE
5
444
100
AcDbEntity
8
0
100
AcDbLine
62
0
6
CONTINUOUS
10
10.3630776751
20
-6.1474437045
11
10.3630776751
21
6.0525562955
0
LINE
5
445
100
AcDbEntity
8
0
100
AcDbLine
62
0
6
CONTINUOUS
10
10.8630776751
20
-21.0975655483
11
10.8630776751
21
21.0026781394
0
LINE
5
446
100
AcDbEntity
8
0
100
AcDbLine
62
0
6
CONTINUOUS
10
-5.6366515110
20
19.8812788508
11
-5.6369223249
21
18.8525562955
0
LINE
5
447
100
AcDbEntity
8
0
100
AcDbLine
62
0
6
CONTINUOUS
10
-1.0225632419
20
-15.4591317788
11
-1.0227052080
21
-16.0158483051
0
LINE
5
448
100
AcDbEntity
8
0
100
AcDbLine
62
0
6
CONTINUOUS
10
4.3633484890
20
19.8812788508
11
4.3630776751
21
18.8525562955
0
LINE
5
449
100
AcDbEntity
8
0
100
AcDbLine
62
9
6
CONTINUOUS
10
9.2663322968
20
19.8652118875
11
9.2669137248
21
20.0197479234
0
LINE
5
44A
100
AcDbEntity
8
0
100
AcDbLine
62
9
6
CONTINUOUS
10
-9.7401987839
20
-19.9693531968
11
-9.7408235115
21
-20.1261255905
0
LINE
5
44B
100
AcDbEntity
8
0
100
AcDbLine
62
0
6
CONTINUOUS
10
-5.6359236525
20
20.0264122619
11
-5.6366515110
21
19.8812788508
0
LINE
5
44C
100
AcDbEntity
8
0
100
AcDbLine
62
0
6
CONTINUOUS
10
4.3640763475
20
20.0264122619
11
4.3633484890
21
19.8812788508
0
LINE
5
44D
100
AcDbEntity
8
0
100
AcDbLine
62
0
6
CONTINUOUS
10
0.5131688766
20
-16.4384151674
11
0.5137186886
21
-16.3441395646
0
LINE
5
44E
100
AcDbEntity
8
0
100
AcDbLine
62
9
6
CONTINUOUS
10
-10.0400635381
20
-19.8533818114
11
-10.0404108266
21
-19.9027550929
0
LINE
5
44F
100
AcDbEntity
8
0
100
AcDbLine
62
0
6
CONTINUOUS
10
-1.0221867727
20
-15.4075097579
11
-1.0225632419
21
-15.4591317788
0
LINE
5
450
100
AcDbEntity
8
0
100
AcDbLine
62
9
6
CONTINUOUS
10
-9.7408235115
20
-20.1261255905
11
-9.7415301917
21
-20.2174705504
0
LINE
5
451
100
AcDbEntity
8
0
100
AcDbLine
62
0
6
CONTINUOUS
10
-5.6347843930
20
20.1391724925
11
-5.6359236525
21
20.0264122619
0
LINE
5
452
100
AcDbEntity
8
0
100
AcDbLine
62
0
6
CONTINUOUS
10
4.3652156070
20
20.1391724925
11
4.3640763475
21
20.0264122619
0
LINE
5
453
100
AcDbEntity
8
0
100
AcDbLine
62
0
6
CONTINUOUS
10
0.5137186886
20
-16.3441395646
11
0.5141939505
21
-16.3021371460
0
LINE
5
454
100
AcDbEntity
8
0
100
AcDbLine
62
9
6
CONTINUOUS
10
-10.0404108266
20
-19.9027550929
11
-10.0407773995
21
-19.9327941239
0
LINE
5
455
100
AcDbEntity
8
0
100
AcDbLine
62
9
6
CONTINUOUS
10
-9.7415301917
20
-20.2174705504
11
-9.7420649605
21
-20.2603925846
0
LINE
5
456
100
AcDbEntity
8
0
100
AcDbLine
62
0
6
CONTINUOUS
10
-1.0215894105
20
-15.3637307052
11
-1.0221867727
21
-15.4075097579
0
LINE
5
457
100
AcDbEntity
8
0
100
AcDbLine
62
0
6
CONTINUOUS
10
0.5141939505
20
-16.3021371460
11
0.5147916821
21
-16.2641857142
0
LINE
5
458
100
AcDbEntity
8
0
100
AcDbLine
62
9
6
CONTINUOUS
10
-10.0407773995
20
-19.9327941239
11
-10.0412288609
21
-19.9583900871
0
LINE
5
459
100
AcDbEntity
8
0
100
AcDbLine
62
9
6
CONTINUOUS
10
-9.7420649605
20
-20.2603925846
11
-9.7423445877
21
-20.2761915348
0
LINE
5
45A
100
AcDbEntity
8
0
100
AcDbLine
62
0
6
CONTINUOUS
10
-5.6341327570
20
20.1749841465
11
-5.6347843930
21
20.1391724925
0
LINE
5
45B
100
AcDbEntity
8
0
100
AcDbLine
62
0
6
CONTINUOUS
10
4.3658672430
20
20.1749841465
11
4.3652156070
21
20.1391724925
0
LINE
5
45C
100
AcDbEntity
8
0
100
AcDbLine
62
0
6
CONTINUOUS
10
-1.0212294439
20
-15.3463116206
11
-1.0215894105
21
-15.3637307052
0
LINE
5
45D
100
AcDbEntity
8
0
100
AcDbLine
62
0
6
CONTINUOUS
10
0.5147916821
20
-16.2641857142
11
0.5154619285
21
-16.2331085620
0
LINE
5
45E
100
AcDbEntity
8
0
100
AcDbLine
62
9
6
CONTINUOUS
10
-9.7423445877
20
-20.2761915348
11
-9.7426220538
21
-20.2882234522
0
LINE
5
45F
100
AcDbEntity
8
0
100
AcDbLine
62
9
6
CONTINUOUS
10
-10.0412288609
20
-19.9583900871
11
-10.0414839930
21
-19.9692926491
0
LINE
5
460
100
AcDbEntity
8
0
100
AcDbLine
62
9
6
CONTINUOUS
10
-5.1487150199
20
18.8525562955
11
-5.1488746661
21
18.8462921177
0
LINE
5
461
100
AcDbEntity
8
0
100
AcDbLine
62
0
6
CONTINUOUS
10
-1.0208255957
20
-15.3316581878
11
-1.0212294439
21
-15.3463116206
0
LINE
5
462
100
AcDbEntity
8
0
100
AcDbLine
62
9
6
CONTINUOUS
10
-10.0414839930
20
-19.9692926491
11
-10.0417473851
21
-19.9786986523
0
LINE
5
463
100
AcDbEntity
8
0
100
AcDbLine
62
0
6
CONTINUOUS
10
-5.6334163072
20
20.1982664429
11
-5.6341327570
21
20.1749841465
0
LINE
5
464
100
AcDbEntity
8
0
100
AcDbLine
62
0
6
CONTINUOUS
10
-3.4692458456
20
6.0134783630
11
-3.4666395353
21
6.0972737948
0
LINE
5
465
100
AcDbEntity
8
0
100
AcDbLine
62
0
6
CONTINUOUS
10
0.5154619285
20
-16.2331085620
11
0.5161880381
21
-16.2098467870
0
LINE
5
466
100
AcDbEntity
8
0
100
AcDbLine
62
9
6
CONTINUOUS
10
-9.7426220538
20
-20.2882234522
11
-9.7428938978
21
-20.2966732476
0
LINE
5
467
100
AcDbEntity
8
0
100
AcDbLine
62
0
6
CONTINUOUS
10
-3.9351471817
20
6.0972737948
11
-3.9367027158
21
6.0501836895
0
LINE
5
468
100
AcDbEntity
8
0
100
AcDbLine
62
9
6
CONTINUOUS
10
-10.0417473851
20
-19.9786986523
11
-10.0420188848
21
-19.9864900822
0
LINE
5
469
100
AcDbEntity
8
0
100
AcDbLine
62
0
6
CONTINUOUS
10
-1.0203778660
20
-15.3197704069
11
-1.0208255957
21
-15.3316581878
0
LINE
5
46A
100
AcDbEntity
8
0
100
AcDbLine
62
9
6
CONTINUOUS
10
-10.0420188848
20
-19.9864900822
11
-10.0422986446
21
-19.9927849532
0
LINE
5
46B
100
AcDbEntity
8
0
100
AcDbLine
62
9
6
CONTINUOUS
10
-9.7428938978
20
-20.2966732476
11
-9.7431635808
21
-20.3018172482
0
LINE
5
46C
100
AcDbEntity
8
0
100
AcDbLine
62
9
6
CONTINUOUS
10
-10.0422986446
20
-19.9927849532
11
-10.0425762213
21
-19.9976699594
0
LINE
5
46D
100
AcDbEntity
8
0
100
AcDbLine
62
0
6
CONTINUOUS
10
-5.6251182068
20
19.2107619755
11
-5.6120507517
21
19.4212052972
0
LINE
5
46E
100
AcDbEntity
8
0
100
AcDbLine
62
0
6
CONTINUOUS
10
-11.3290299322
20
21.1101349328
11
-11.3369223249
21
21.0026781394
0
LINE
5
46F
100
AcDbEntity
8
0
100
AcDbLine
62
0
6
CONTINUOUS
10
3.6934549512
20
9.8840741048
11
3.6423611291
21
9.8708351165
0
LINE
5
470
100
AcDbEntity
8
0
100
AcDbLine
62
0
6
CONTINUOUS
10
-3.9526360057
20
5.4995386903
11
-3.8712526859
21
5.5200097985
0
LINE
5
471
100
AcDbEntity
8
0
100
AcDbLine
62
0
6
CONTINUOUS
10
-4.1219149714
20
5.8230701480
11
-4.1595707621
21
5.8146260937
0
LINE
5
472
100
AcDbEntity
8
0
100
AcDbLine
62
0
6
CONTINUOUS
10
-10.6445009621
20
21.7946639028
11
-10.7466826412
21
21.7743108598
0
LINE
5
473
100
AcDbEntity
8
0
100
AcDbLine
62
0
6
CONTINUOUS
10
4.4162666274
20
19.2317655443
11
4.4463939243
21
19.2376340634
0
LINE
5
474
100
AcDbEntity
8
0
100
AcDbLine
62
0
6
CONTINUOUS
10
-5.5837333726
20
19.2317655443
11
-5.5536060757
21
19.2376340634
0
LINE
5
475
100
AcDbEntity
8
0
100
AcDbLine
62
9
6
CONTINUOUS
10
4.7834720388
20
18.7667609002
11
4.7753453069
21
18.7652284002
0
LINE
5
476
100
AcDbEntity
8
0
100
AcDbLine
62
9
6
CONTINUOUS
10
-5.2173485186
20
18.7665671382
11
-5.2254447940
21
18.7651199747
0
LINE
5
477
100
AcDbEntity
8
0
100
AcDbLine
62
0
6
CONTINUOUS
10
9.3176945063
20
20.2955742696
11
6.7630776751
21
19.9025562955
0
LINE
5
478
100
AcDbEntity
8
0
100
AcDbLine
62
0
6
CONTINUOUS
10
-5.5536060757
20
19.2376340634
11
-5.5158638704
21
19.2428630951
0
LINE
5
479
100
AcDbEntity
8
0
100
AcDbLine
62
9
6
CONTINUOUS
10
9.5662062087
20
19.7555591451
11
9.5665228617
21
19.8033681035
0
LINE
5
47A
100
AcDbEntity
8
0
100
AcDbLine
62
9
6
CONTINUOUS
10
9.2669137248
20
20.0197479234
11
9.2676056084
21
20.1144603764
0
LINE
5
47B
100
AcDbEntity
8
0
100
AcDbLine
62
9
6
CONTINUOUS
10
9.5665228617
20
19.8033681035
11
9.5668682600
21
19.8334240535
0
LINE
5
47C
100
AcDbEntity
8
0
100
AcDbLine
62
9
6
CONTINUOUS
10
9.2676056084
20
20.1144603764
11
9.2681476918
21
20.1606366828
0
LINE
5
47D
100
AcDbEntity
8
0
100
AcDbLine
62
9
6
CONTINUOUS
10
9.2681476918
20
20.1606366828
11
9.2684367314
21
20.1780006363
0
LINE
5
47E
100
AcDbEntity
8
0
100
AcDbLine
62
9
6
CONTINUOUS
10
9.5668682600
20
19.8334240535
11
9.5673070990
21
19.8597303499
0
LINE
5
47F
100
AcDbEntity
8
0
100
AcDbLine
62
9
6
CONTINUOUS
10
9.2684367314
20
20.1780006363
11
9.2687262625
21
20.1913668614
0
LINE
5
480
100
AcDbEntity
8
0
100
AcDbLine
62
9
6
CONTINUOUS
10
9.5673070990
20
19.8597303499
11
9.5675601076
21
19.8712322689
0
LINE
5
481
100
AcDbEntity
8
0
100
AcDbLine
62
9
6
CONTINUOUS
10
4.8512849801
20
18.8525562955
11
4.8511341217
21
18.8463995008
0
LINE
5
482
100
AcDbEntity
8
0
100
AcDbLine
62
0
6
CONTINUOUS
10
4.4212041522
20
10.2206140458
11
4.4227360757
21
10.2798739117
0
LINE
5
483
100
AcDbEntity
8
0
100
AcDbLine
62
9
6
CONTINUOUS
10
9.5675601076
20
19.8712322689
11
9.5678249522
21
19.8812513489
0
LINE
5
484
100
AcDbEntity
8
0
100
AcDbLine
62
9
6
CONTINUOUS
10
9.2687262625
20
20.1913668614
11
9.2690125011
21
20.2008426483
0
LINE
5
485
100
AcDbEntity
8
0
100
AcDbLine
62
0
6
CONTINUOUS
10
4.3665836928
20
20.1982664429
11
4.3658672430
21
20.1749841465
0
LINE
5
486
100
AcDbEntity
8
0
100
AcDbLine
62
9
6
CONTINUOUS
10
9.5678249522
20
19.8812513489
11
9.5681020913
21
19.8896648979
0
LINE
5
487
100
AcDbEntity
8
0
100
AcDbLine
62
9
6
CONTINUOUS
10
9.5681020913
20
19.8896648979
11
9.5683910663
21
19.8965956080
0
LINE
5
488
100
AcDbEntity
8
0
100
AcDbLine
62
0
6
CONTINUOUS
10
0.5161880381
20
-16.2098467870
11
0.5169866626
21
-16.1934592915
0
LINE
5
489
100
AcDbEntity
8
0
100
AcDbLine
62
9
6
CONTINUOUS
10
9.2690125011
20
20.2008426483
11
9.2692992311
21
20.2066606610
0
LINE
5
48A
100
AcDbEntity
8
0
100
AcDbLine
62
0
6
CONTINUOUS
10
-1.0203778660
20
-15.3197704069
11
-1.0198984631
21
-15.3106270931
0
LINE
5
48B
100
AcDbEntity
8
0
100
AcDbLine
62
9
6
CONTINUOUS
10
9.5683910663
20
19.8965956080
11
9.5686805532
21
19.9020048440
0
LINE
5
48C
100
AcDbEntity
8
0
100
AcDbLine
62
0
6
CONTINUOUS
10
4.3748817932
20
19.2107619755
11
4.3879492483
21
19.4212052972
0
LINE
5
48D
100
AcDbEntity
8
0
100
AcDbLine
62
0
6
CONTINUOUS
10
-1.0198984631
20
-15.3106270931
11
-1.0194152630
21
-15.3031914939
0
LINE
5
48E
100
AcDbEntity
8
0
100
AcDbLine
62
0
6
CONTINUOUS
10
3.9332996711
20
10.2484890568
11
3.9291631310
21
10.1880489312
0
LINE
5
48F
100
AcDbEntity
8
0
100
AcDbLine
62
0
6
CONTINUOUS
10
-1.5995863249
20
8.4723762955
11
-1.4869833249
21
10.1046562955
0
LINE
5
490
100
AcDbEntity
8
0
100
AcDbLine
62
0
6
CONTINUOUS
10
-5.6326350434
20
20.2090193817
11
-5.6334163072
21
20.1982664429
0
LINE
5
491
100
AcDbEntity
8
0
100
AcDbLine
62
0
6
CONTINUOUS
10
4.3673649566
20
20.2090193817
11
4.3665836928
21
20.1982664429
0
LINE
5
492
100
AcDbEntity
8
0
100
AcDbLine
62
0
6
CONTINUOUS
10
10.8551852824
20
-21.2050223417
11
10.8630776751
21
-21.0975655483
0
LINE
5
493
100
AcDbEntity
8
0
100
AcDbLine
62
9
6
CONTINUOUS
10
9.5686805532
20
19.9020048440
11
9.5689667774
21
19.9058797277
0
LINE
5
494
100
AcDbEntity
8
0
100
AcDbLine
62
9
6
CONTINUOUS
10
-10.0425762213
20
-19.9976699594
11
-10.0428481342
21
-20.0011739985
0
LINE
5
495
100
AcDbEntity
8
0
100
AcDbLine
62
0
6
CONTINUOUS
10
-1.0194152630
20
-15.3031914939
11
-1.0189282656
21
-15.2974636094
0
LINE
5
496
100
AcDbEntity
8
0
100
AcDbLine
62
9
6
CONTINUOUS
10
-10.0433854111
20
19.9090650732
11
-10.0388144194
21
19.9611411023
0
LINE
5
497
100
AcDbEntity
8
0
100
AcDbLine
62
0
6
CONTINUOUS
10
-1.8730603249
20
10.9721122955
11
-2.0987723249
21
8.4723762955
0
LINE
5
498
100
AcDbEntity
8
0
100
AcDbLine
62
0
6
CONTINUOUS
10
0.5169866626
20
-16.1934592915
11
0.5178578018
21
-16.1839460757
0
LINE
5
499
100
AcDbEntity
8
0
100
AcDbLine
62
0
6
CONTINUOUS
10
4.4158777928
20
10.1635508334
11
4.4212041522
21
10.2206140458
0
LINE
5
49A
100
AcDbEntity
8
0
100
AcDbLine
62
0
6
CONTINUOUS
10
-10.1369223249
20
20.0026019870
11
-10.1312623613
21
20.0570620537
0
LINE
5
49B
100
AcDbEntity
8
0
100
AcDbLine
62
9
6
CONTINUOUS
10
4.8511341217
20
18.8463995008
11
4.8504643804
21
18.8401606142
0
LINE
5
49C
100
AcDbEntity
8
0
100
AcDbLine
62
0
6
CONTINUOUS
10
0.5421085186
20
-15.2990820485
11
0.5426064648
21
-15.2945086492
0
LINE
5
49D
100
AcDbEntity
8
0
100
AcDbLine
62
9
6
CONTINUOUS
10
-5.1488746661
20
18.8462921177
11
-5.1495656606
21
18.8399557265
0
LINE
5
49E
100
AcDbEntity
8
0
100
AcDbLine
62
9
6
CONTINUOUS
10
-9.7431635808
20
-20.3018172482
11
-9.7434311025
21
-20.3039067907
0
LINE
5
49F
100
AcDbEntity
8
0
100
AcDbLine
62
9
6
CONTINUOUS
10
-10.0428481342
20
-20.0011739985
11
-10.0431178641
21
-20.0032681728
0
LINE
5
4A0
100
AcDbEntity
8
0
100
AcDbLine
62
9
6
CONTINUOUS
10
-5.2094931663
20
18.7687236778
11
-5.2173485186
21
18.7665671382
0
LINE
5
4A1
100
AcDbEntity
8
0
100
AcDbLine
62
9
6
CONTINUOUS
10
-9.8460031927
20
20.1909053525
11
-9.7955080714
21
20.2044482241
0
LINE
5
4A2
100
AcDbEntity
8
0
100
AcDbLine
62
0
6
CONTINUOUS
10
-9.9414222576
20
20.2835022348
11
-9.8914280831
21
20.2968963319
0
LINE
5
4A3
100
AcDbEntity
8
0
100
AcDbLine
62
9
6
CONTINUOUS
10
9.5695407613
20
-20.0039524821
11
9.5649696883
21
-20.0560289715
0
LINE
5
4A4
100
AcDbEntity
8
0
100
AcDbLine
62
0
6
CONTINUOUS
10
9.6630776751
20
-20.0974893959
11
9.6574177115
21
-20.1519494627
0
LINE
5
4A5
100
AcDbEntity
8
0
100
AcDbLine
62
9
6
CONTINUOUS
10
9.2692992311
20
20.2066606610
11
9.2695864527
21
20.2090193817
0
LINE
5
4A6
100
AcDbEntity
8
0
100
AcDbLine
62
9
6
CONTINUOUS
10
9.5689667774
20
19.9058797277
11
9.5692535134
21
19.9082331374
0
LINE
5
4A7
100
AcDbEntity
8
0
100
AcDbLine
62
0
6
CONTINUOUS
10
-1.0189282656
20
-15.2974636094
11
-1.0184364848
21
-15.2934388567
0
LINE
5
4A8
100
AcDbEntity
8
0
100
AcDbLine
62
0
6
CONTINUOUS
10
-3.4803322951
20
5.9349038270
11
-3.4692458456
21
6.0134783630
0
LINE
5
4A9
100
AcDbEntity
8
0
100
AcDbLine
62
0
6
CONTINUOUS
10
-3.9367027158
20
6.0501836895
11
-3.9433229776
21
6.0066621022
0
LINE
5
4AA
100
AcDbEntity
8
0
100
AcDbLine
62
0
6
CONTINUOUS
10
4.4064631995
20
10.1086942255
11
4.4158777928
21
10.1635508334
0
LINE
5
4AB
100
AcDbEntity
8
0
100
AcDbLine
62
0
6
CONTINUOUS
10
0.5426064648
20
-15.2945086492
11
0.5431035723
21
-15.2916567142
0
LINE
5
4AC
100
AcDbEntity
8
0
100
AcDbLine
62
0
6
CONTINUOUS
10
3.9291631310
20
10.1880489312
11
3.9192833395
21
10.1322282004
0
LINE
5
4AD
100
AcDbEntity
8
0
100
AcDbLine
62
9
6
CONTINUOUS
10
4.8504643804
20
18.8401606142
11
4.8492757563
21
18.8338396357
0
LINE
5
4AE
100
AcDbEntity
8
0
100
AcDbLine
62
9
6
CONTINUOUS
10
-5.1495656606
20
18.8399557265
11
-5.1507880033
21
18.8335471220
0
LINE
5
4AF
100
AcDbEntity
8
0
100
AcDbLine
62
0
6
CONTINUOUS
10
-11.3086768892
20
21.2123166118
11
-11.3290299322
21
21.1101349328
0
LINE
5
4B0
100
AcDbEntity
8
0
100
AcDbLine
62
0
6
CONTINUOUS
10
0.5488605582
20
-16.0158483051
11
0.5178578018
21
-16.1839460757
0
LINE
5
4B1
100
AcDbEntity
8
0
100
AcDbLine
62
0
6
CONTINUOUS
10
10.8348322394
20
-21.3072040207
11
10.8551852824
21
-21.2050223417
0
LINE
5
4B2
100
AcDbEntity
8
0
100
AcDbLine
62
0
6
CONTINUOUS
10
-2.6366734361
20
-12.5537893675
11
-2.6318233126
21
-12.5307723783
0
LINE
5
4B3
100
AcDbEntity
8
0
100
AcDbLine
62
0
6
CONTINUOUS
10
-1.0184364848
20
-15.2934388567
11
-1.0179409068
21
-15.2911218185
0
LINE
5
4B4
100
AcDbEntity
8
0
100
AcDbLine
62
0
6
CONTINUOUS
10
4.3937553971
20
10.0569387107
11
4.4064631995
21
10.1086942255
0
LINE
5
4B5
100
AcDbEntity
8
0
100
AcDbLine
62
9
6
CONTINUOUS
10
4.8492757563
20
18.8338396357
11
4.8475942522
21
18.8273792576
0
LINE
5
4B6
100
AcDbEntity
8
0
100
AcDbLine
62
9
6
CONTINUOUS
10
-5.1507880033
20
18.8335471220
11
-5.1525168526
21
18.8270080356
0
LINE
5
4B7
100
AcDbEntity
8
0
100
AcDbLine
62
0
6
CONTINUOUS
10
-3.4998988840
20
5.8615501868
11
-3.4803322951
21
5.9349038270
0
LINE
5
4B8
100
AcDbEntity
8
0
100
AcDbLine
62
0
6
CONTINUOUS
10
-10.1312623613
20
20.0570620537
11
-10.1178682641
21
20.1070562282
0
LINE
5
4B9
100
AcDbEntity
8
0
100
AcDbLine
62
9
6
CONTINUOUS
10
-10.0388144194
20
19.9611411023
11
-10.0252719533
21
20.0116355942
0
LINE
5
4BA
100
AcDbEntity
8
0
100
AcDbLine
62
0
6
CONTINUOUS
10
-3.6165373249
20
10.9721122955
11
-4.1075883249
21
9.2514662955
0
LINE
5
4BB
100
AcDbEntity
8
0
100
AcDbLine
62
0
6
CONTINUOUS
10
9.6574177115
20
-20.1519494627
11
9.6440236143
21
-20.2019436372
0
LINE
5
4BC
100
AcDbEntity
8
0
100
AcDbLine
62
9
6
CONTINUOUS
10
9.5649696883
20
-20.0560289715
11
9.5514270256
21
-20.1065237659
0
LINE
5
4BD
100
AcDbEntity
8
0
100
AcDbLine
62
0
6
CONTINUOUS
10
1.2851766751
20
9.3575642955
11
1.5449856751
21
10.2852482955
0
LINE
5
4BE
100
AcDbEntity
8
0
100
AcDbLine
62
0
6
CONTINUOUS
10
1.0344586751
20
8.4723762955
11
1.1784416751
21
8.9714122955
0
LINE
5
4BF
100
AcDbEntity
8
0
100
AcDbLine
62
0
6
CONTINUOUS
10
-3.9433229776
20
6.0066621022
11
-3.9550079673
21
5.9667090327
0
LINE
5
4C0
100
AcDbEntity
8
0
100
AcDbLine
62
0
6
CONTINUOUS
10
3.9192833395
20
10.1322282004
11
3.9036602968
21
10.0810268646
0
LINE
5
4C1
100
AcDbEntity
8
0
100
AcDbLine
62
0
6
CONTINUOUS
10
1.3024036751
20
10.9721122955
11
0.5183276751
21
8.4723762955
0
LINE
5
4C2
100
AcDbEntity
8
0
100
AcDbLine
62
0
6
CONTINUOUS
10
-3.8986163249
20
8.4723762955
11
-3.0951013249
21
10.9721122955
0
LINE
5
4C3
100
AcDbEntity
8
0
100
AcDbLine
62
9
6
CONTINUOUS
10
4.8475942522
20
18.8273792576
11
4.8453938652
21
18.8208367875
0
LINE
5
4C4
100
AcDbEntity
8
0
100
AcDbLine
62
0
6
CONTINUOUS
10
4.3775932154
20
10.0089187672
11
4.3937553971
21
10.0569387107
0
LINE
5
4C5
100
AcDbEntity
8
0
100
AcDbLine
62
0
6
CONTINUOUS
10
-11.2758631958
20
21.3092231765
11
-11.3086768892
21
21.2123166118
0
LINE
5
4C6
100
AcDbEntity
8
0
100
AcDbLine
62
9
6
CONTINUOUS
10
-5.1525168526
20
18.8270080356
11
-5.1547770503
21
18.8203967359
0
LINE
5
4C7
100
AcDbEntity
8
0
100
AcDbLine
62
0
6
CONTINUOUS
10
-1.0844483249
20
5.4527192955
11
-0.7804723249
21
6.3358232955
0
LINE
5
4C8
100
AcDbEntity
8
0
100
AcDbLine
62
0
6
CONTINUOUS
10
-1.3512963249
20
4.6775562955
11
-1.1980073249
21
5.1120422955
0
LINE
5
4C9
100
AcDbEntity
8
0
100
AcDbLine
62
0
6
CONTINUOUS
10
10.8020185460
20
-21.4041105854
11
10.8348322394
21
-21.3072040207
0
LINE
5
4CA
100
AcDbEntity
8
0
100
AcDbLine
62
0
6
CONTINUOUS
10
3.1746276751
20
5.4527192955
11
3.4785646751
21
6.3357072955
0
LINE
5
4CB
100
AcDbEntity
8
0
100
AcDbLine
62
9
6
CONTINUOUS
10
9.5692535134
20
19.9082331374
11
9.5695407613
21
19.9090650732
0
LINE
5
4CC
100
AcDbEntity
8
0
100
AcDbLine
62
0
6
CONTINUOUS
10
2.9077026751
20
4.6775562955
11
3.0610686751
21
5.1120422955
0
LINE
5
4CD
100
AcDbEntity
8
0
100
AcDbLine
62
0
6
CONTINUOUS
10
-1.0304463249
20
6.7275562955
11
-1.7715103249
21
4.6775562955
0
LINE
5
4CE
100
AcDbEntity
8
0
100
AcDbLine
62
0
6
CONTINUOUS
10
3.2286306751
20
6.7275562955
11
2.4874886751
21
4.6775562955
0
LINE
5
4CF
100
AcDbEntity
8
0
100
AcDbLine
62
0
6
CONTINUOUS
10
-0.3136243249
20
10.9721122955
11
-0.8354173249
21
9.5842512955
0
LINE
5
4D0
100
AcDbEntity
8
0
100
AcDbLine
62
0
6
CONTINUOUS
10
-0.8016753249
20
8.4723762955
11
-0.1812643249
21
10.0978522955
0
LINE
5
4D1
100
AcDbEntity
8
0
100
AcDbLine
62
9
6
CONTINUOUS
10
-10.0431178641
20
-20.0032681728
11
-10.0433854111
21
-20.0039524821
0
LINE
5
4D2
100
AcDbEntity
8
0
100
AcDbLine
62
0
6
CONTINUOUS
10
1.3153613846
20
-11.2499350362
11
1.3156506302
21
-11.2492227129
0
LINE
5
4D3
100
AcDbEntity
8
0
100
AcDbLine
62
0
6
CONTINUOUS
10
-3.5279234105
20
5.7928127784
11
-3.4998988840
21
5.8615501868
0
LINE
5
4D4
100
AcDbEntity
8
0
100
AcDbLine
62
9
6
CONTINUOUS
10
4.8453938652
20
18.8208367875
11
4.8425965869
21
18.8143841488
0
LINE
5
4D5
100
AcDbEntity
8
0
100
AcDbLine
62
9
6
CONTINUOUS
10
-5.1547770503
20
18.8203967359
11
-5.1576431212
21
18.8138880285
0
LINE
5
4D6
100
AcDbEntity
8
0
100
AcDbLine
62
0
6
CONTINUOUS
10
-10.1178682641
20
20.1070562282
11
-10.0967400334
21
20.1525845105
0
LINE
5
4D7
100
AcDbEntity
8
0
100
AcDbLine
62
9
6
CONTINUOUS
10
-10.0252719533
20
20.0116355942
11
-10.0031692627
21
20.0590148966
0
LINE
5
4D8
100
AcDbEntity
8
0
100
AcDbLine
62
0
6
CONTINUOUS
10
4.3581378247
20
9.9639999170
11
4.3775932154
21
10.0089187672
0
LINE
5
4D9
100
AcDbEntity
8
0
100
AcDbLine
62
0
6
CONTINUOUS
10
0.5431035723
20
-15.2916567142
11
0.5436239906
21
-15.2905151649
0
LINE
5
4DA
100
AcDbEntity
8
0
100
AcDbLine
62
0
6
CONTINUOUS
10
3.9036602968
20
10.0810268646
11
3.8821406254
21
10.0339542585
0
LINE
5
4DB
100
AcDbEntity
8
0
100
AcDbLine
62
0
6
CONTINUOUS
10
-3.9550079673
20
5.9667090327
11
-3.9721118409
21
5.9295414940
0
LINE
5
4DC
100
AcDbEntity
8
0
100
AcDbLine
62
0
6
CONTINUOUS
10
-11.2296154511
20
21.4022764045
11
-11.2758631958
21
21.3092231765
0
LINE
5
4DD
100
AcDbEntity
8
0
100
AcDbLine
62
0
6
CONTINUOUS
10
-5.6326350434
20
20.2090193817
11
-5.6120507517
21
20.2501911007
0
LINE
5
4DE
100
AcDbEntity
8
0
100
AcDbLine
62
0
6
CONTINUOUS
10
4.3673649566
20
20.2090193817
11
4.3879492483
21
20.2501911007
0
LINE
5
4DF
100
AcDbEntity
8
0
100
AcDbLine
62
0
6
CONTINUOUS
10
4.3366677615
20
9.9211732139
11
4.3581378247
21
9.9639999170
0
LINE
5
4E0
100
AcDbEntity
8
0
100
AcDbLine
62
9
6
CONTINUOUS
10
-5.1576431212
20
18.8138880285
11
-5.1611433564
21
18.8074632790
0
LINE
5
4E1
100
AcDbEntity
8
0
100
AcDbLine
62
0
6
CONTINUOUS
10
9.6440236143
20
-20.2019436372
11
9.6228953836
21
-20.2474719195
0
LINE
5
4E2
100
AcDbEntity
8
0
100
AcDbLine
62
9
6
CONTINUOUS
10
9.5514270256
20
-20.1065237659
11
9.5293240959
21
-20.1539032004
0
LINE
5
4E3
100
AcDbEntity
8
0
100
AcDbLine
62
0
6
CONTINUOUS
10
10.7557708013
20
-21.4971638134
11
10.8020185460
21
-21.4041105854
0
LINE
5
4E4
100
AcDbEntity
8
0
100
AcDbLine
62
9
6
CONTINUOUS
10
4.8425965869
20
18.8143841488
11
4.8391768299
21
18.8080040126
0
LINE
5
4E5
100
AcDbEntity
8
0
100
AcDbLine
62
0
6
CONTINUOUS
10
4.3133412568
20
9.8801216991
11
4.3366677615
21
9.9211732139
0
LINE
5
4E6
100
AcDbEntity
8
0
100
AcDbLine
62
0
6
CONTINUOUS
10
-3.5644280763
20
5.7292962658
11
-3.5279234105
21
5.7928127784
0
LINE
5
4E7
100
AcDbEntity
8
0
100
AcDbLine
62
9
6
CONTINUOUS
10
-5.1611433564
20
18.8074632790
11
-5.1652494649
21
18.8011411219
0
LINE
5
4E8
100
AcDbEntity
8
0
100
AcDbLine
62
0
6
CONTINUOUS
10
-11.1709070561
20
21.4900545181
11
-11.2296154511
21
21.4022764045
0
LINE
5
4E9
100
AcDbEntity
8
0
100
AcDbLine
62
9
6
CONTINUOUS
10
4.8391768299
20
18.8080040126
11
4.8351601816
21
18.8017137077
0
LINE
5
4EA
100
AcDbEntity
8
0
100
AcDbLine
62
0
6
CONTINUOUS
10
3.8821406254
20
10.0339542585
11
3.8548777027
21
9.9915010473
0
LINE
5
4EB
100
AcDbEntity
8
0
100
AcDbLine
62
0
6
CONTINUOUS
10
4.2880000796
20
9.8411623315
11
4.3133412568
21
9.8801216991
0
LINE
5
4EC
100
AcDbEntity
8
0
100
AcDbLine
62
0
6
CONTINUOUS
10
-3.9721118409
20
5.9295414940
11
-3.9942804423
21
5.8959424731
0
LINE
5
4ED
100
AcDbEntity
8
0
100
AcDbLine
62
9
6
CONTINUOUS
10
-10.0031692627
20
20.0590148966
11
-9.9731775934
21
20.1018399610
0
LINE
5
4EE
100
AcDbEntity
8
0
100
AcDbLine
62
0
6
CONTINUOUS
10
-10.0967400334
20
20.1525845105
11
-10.0667882554
21
20.1947363144
0
LINE
5
4EF
100
AcDbEntity
8
0
100
AcDbLine
62
0
6
CONTINUOUS
10
10.6970624063
20
-21.5849419270
11
10.7557708013
21
-21.4971638134
0
LINE
5
4F0
100
AcDbEntity
8
0
100
AcDbLine
62
9
6
CONTINUOUS
10
9.5293240959
20
-20.1539032004
11
9.4993322207
21
-20.1967282310
0
LINE
5
4F1
100
AcDbEntity
8
0
100
AcDbLine
62
0
6
CONTINUOUS
10
2.0959077002
20
-12.6018809123
11
2.0966361023
21
-12.6008594411
0
LINE
5
4F2
100
AcDbEntity
8
0
100
AcDbLine
62
0
6
CONTINUOUS
10
4.2614480740
20
9.8042370419
11
4.2880000796
21
9.8411623315
0
LINE
5
4F3
100
AcDbEntity
8
0
100
AcDbLine
62
0
6
CONTINUOUS
10
4.2339664369
20
9.7682099037
11
4.2614480740
21
9.8042370419
0
LINE
5
4F4
100
AcDbEntity
8
0
100
AcDbLine
62
9
6
CONTINUOUS
10
4.8351601816
20
18.8017137077
11
4.8305453954
21
18.7957371432
0
LINE
5
4F5
100
AcDbEntity
8
0
100
AcDbLine
62
9
6
CONTINUOUS
10
-5.1652494649
20
18.8011411219
11
-5.1699510991
21
18.7951522657
0
LINE
5
4F6
100
AcDbEntity
8
0
100
AcDbLine
62
0
6
CONTINUOUS
10
-3.6094794865
20
5.6728146410
11
-3.5644280763
21
5.7292962658
0
LINE
5
4F7
100
AcDbEntity
8
0
100
AcDbLine
62
0
6
CONTINUOUS
10
-5.6251182068
20
19.2107619755
11
-5.6189381705
21
19.2184026526
0
LINE
5
4F8
100
AcDbEntity
8
0
100
AcDbLine
62
0
6
CONTINUOUS
10
4.3748817932
20
19.2107619755
11
4.3810618295
21
19.2184026526
0
LINE
5
4F9
100
AcDbEntity
8
0
100
AcDbLine
62
0
6
CONTINUOUS
10
-11.1026582138
20
21.5682921844
11
-11.1709070561
21
21.4900545181
0
LINE
5
4FA
100
AcDbEntity
8
0
100
AcDbLine
62
0
6
CONTINUOUS
10
9.6228953836
20
-20.2474719195
11
9.5929436056
21
-20.2896237233
0
LINE
5
4FB
100
AcDbEntity
8
0
100
AcDbLine
62
0
6
CONTINUOUS
10
-1.0179409068
20
-15.2911218185
11
-1.0174686404
21
-15.2905151650
0
LINE
5
4FC
100
AcDbEntity
8
0
100
AcDbLine
62
0
6
CONTINUOUS
10
4.2052739714
20
9.7342168435
11
4.2339664369
21
9.7682099037
0
LINE
5
4FD
100
AcDbEntity
8
0
100
AcDbLine
62
0
6
CONTINUOUS
10
3.8548777027
20
9.9915010473
11
3.8223316608
21
9.9551392267
0
LINE
5
4FE
100
AcDbEntity
8
0
100
AcDbLine
62
9
6
CONTINUOUS
10
4.8305453954
20
18.7957371432
11
4.8252933824
21
18.7900716947
0
LINE
5
4FF
100
AcDbEntity
8
0
100
AcDbLine
62
9
6
CONTINUOUS
10
-5.1699510991
20
18.7951522657
11
-5.1752875164
21
18.7894979165
0
LINE
5
500
100
AcDbEntity
8
0
100
AcDbLine
62
0
6
CONTINUOUS
10
-10.0667882554
20
20.1947363144
11
-10.0291023437
21
20.2324222260
0
LINE
5
501
100
AcDbEntity
8
0
100
AcDbLine
62
9
6
CONTINUOUS
10
-9.9731775934
20
20.1018399610
11
-9.9362078180
21
20.1388100304
0
LINE
5
502
100
AcDbEntity
8
0
100
AcDbLine
62
0
6
CONTINUOUS
10
10.6288135640
20
-21.6631795934
11
10.6970624063
21
-21.5849419270
0
LINE
5
503
100
AcDbEntity
8
0
100
AcDbLine
62
0
6
CONTINUOUS
10
-3.9942804423
20
5.8959424731
11
-4.0204513029
21
5.8682609320
0
LINE
5
504
100
AcDbEntity
8
0
100
AcDbLine
62
9
6
CONTINUOUS
10
9.2695864527
20
20.2090193817
11
9.3369179234
21
20.2763508524
0
LINE
5
505
100
AcDbEntity
8
0
100
AcDbLine
62
9
6
CONTINUOUS
10
9.5695407613
20
19.9090650732
11
9.6630776751
21
20.0026019870
0
LINE
5
506
100
AcDbEntity
8
0
100
AcDbLine
62
0
6
CONTINUOUS
10
-9.8488821118
20
-3.0094034914
11
-9.8369223249
21
-2.9974437045
0
LINE
5
507
100
AcDbEntity
8
0
100
AcDbLine
62
0
6
CONTINUOUS
10
4.1753309303
20
9.7056075719
11
4.2052739714
21
9.7342168435
0
LINE
5
508
100
AcDbEntity
8
0
100
AcDbLine
62
9
6
CONTINUOUS
10
-5.1752875164
20
18.7894979165
11
-5.1812194593
21
18.7841768682
0
LINE
5
509
100
AcDbEntity
8
0
100
AcDbLine
62
0
6
CONTINUOUS
10
-11.0244205475
20
21.6365410268
11
-11.1026582138
21
21.5682921844
0
LINE
5
50A
100
AcDbEntity
8
0
100
AcDbLine
62
0
6
CONTINUOUS
10
9.3630776751
20
2.9025562955
11
9.3750374625
21
2.9145160829
0
LINE
5
50B
100
AcDbEntity
8
0
100
AcDbLine
62
9
6
CONTINUOUS
10
-10.0433854111
20
-20.0039524821
11
-10.1369223249
21
-20.0974893959
0
LINE
5
50C
100
AcDbEntity
8
0
100
AcDbLine
62
9
6
CONTINUOUS
10
-9.7434311025
20
-20.3039067907
11
-9.8107625732
21
-20.3712382613
0
LINE
5
50D
100
AcDbEntity
8
0
100
AcDbLine
62
9
6
CONTINUOUS
10
9.4993322207
20
-20.1967282310
11
9.4623623315
21
-20.2336981411
0
LINE
5
50E
100
AcDbEntity
8
0
100
AcDbLine
62
0
6
CONTINUOUS
10
9.5929436056
20
-20.2896237233
11
9.5552576939
21
-20.3273096349
0
LINE
5
50F
100
AcDbEntity
8
0
100
AcDbLine
62
9
6
CONTINUOUS
10
4.8252933824
20
18.7900716947
11
4.8194432315
21
18.7847199866
0
LINE
5
510
100
AcDbEntity
8
0
100
AcDbLine
62
0
6
CONTINUOUS
10
1.3156506302
20
-11.2492227129
11
1.3174094581
21
-11.2476350090
0
LINE
5
511
100
AcDbEntity
8
0
100
AcDbLine
62
0
6
CONTINUOUS
10
-1.8643150770
20
-11.2160254479
11
-1.8818233126
21
-11.2317342727
0
LINE
5
512
100
AcDbEntity
8
0
100
AcDbLine
62
0
6
CONTINUOUS
10
-3.6639116167
20
5.6240134710
11
-3.6094794865
21
5.6728146410
0
LINE
5
513
100
AcDbEntity
8
0
100
AcDbLine
62
0
6
CONTINUOUS
10
10.5505758977
20
-21.7314284357
11
10.6288135640
21
-21.6631795934
0
LINE
5
514
100
AcDbEntity
8
0
100
AcDbLine
62
0
6
CONTINUOUS
10
2.8567584710
20
-12.1328512829
11
2.7266829095
21
-12.2437493428
0
LINE
5
515
100
AcDbEntity
8
0
100
AcDbLine
62
0
6
CONTINUOUS
10
2.0966361023
20
-12.6008594411
11
2.0988573968
21
-12.5990029661
0
LINE
5
516
100
AcDbEntity
8
0
100
AcDbLine
62
0
6
CONTINUOUS
10
3.8223316608
20
9.9551392267
11
3.7842506569
21
9.9256483614
0
LINE
5
517
100
AcDbEntity
8
0
100
AcDbLine
62
9
6
CONTINUOUS
10
4.8194432315
20
18.7847199866
11
4.8131109631
21
18.7799138016
0
LINE
5
518
100
AcDbEntity
8
0
100
AcDbLine
62
9
6
CONTINUOUS
10
-5.1812194593
20
18.7841768682
11
-5.1876188078
21
18.7794162112
0
LINE
5
519
100
AcDbEntity
8
0
100
AcDbLine
62
0
6
CONTINUOUS
10
-10.0291023437
20
20.2324222260
11
-9.9869505399
21
20.2623740041
0
LINE
5
51A
100
AcDbEntity
8
0
100
AcDbLine
62
9
6
CONTINUOUS
10
-9.9362078180
20
20.1388100304
11
-9.8933827854
21
20.1688021596
0
LINE
5
51B
100
AcDbEntity
8
0
100
AcDbLine
62
0
6
CONTINUOUS
10
-10.9366424338
20
21.6952494218
11
-11.0244205475
21
21.6365410268
0
LINE
5
51C
100
AcDbEntity
8
0
100
AcDbLine
62
0
6
CONTINUOUS
10
1.3174094581
20
-11.2476350090
11
1.3206491074
21
-11.2451967371
0
LINE
5
51D
100
AcDbEntity
8
0
100
AcDbLine
62
0
6
CONTINUOUS
10
2.0988573968
20
-12.5990029661
11
2.1025691030
21
-12.5962850332
0
LINE
5
51E
100
AcDbEntity
8
0
100
AcDbLine
62
0
6
CONTINUOUS
10
4.1441240646
20
9.6834986591
11
4.1753309303
21
9.7056075719
0
LINE
5
51F
100
AcDbEntity
8
0
100
AcDbLine
62
0
6
CONTINUOUS
10
2.1561299076
20
-12.5585155988
11
2.1628287863
21
-12.5537893675
0
LINE
5
520
100
AcDbEntity
8
0
100
AcDbLine
62
0
6
CONTINUOUS
10
2.8567584710
20
-12.1328512829
11
2.8646661877
21
-12.1272761061
0
LINE
5
521
100
AcDbEntity
8
0
100
AcDbLine
62
0
6
CONTINUOUS
10
1.3206491074
20
-11.2451967371
11
1.3253661016
21
-11.2419110433
0
LINE
5
522
100
AcDbEntity
8
0
100
AcDbLine
62
0
6
CONTINUOUS
10
-3.7268904914
20
5.5822471888
11
-3.6639116167
21
5.6240134710
0
LINE
5
523
100
AcDbEntity
8
0
100
AcDbLine
62
0
6
CONTINUOUS
10
-4.0204513029
20
5.8682609320
11
-4.0509652583
21
5.8481490942
0
LINE
5
524
100
AcDbEntity
8
0
100
AcDbLine
62
9
6
CONTINUOUS
10
4.8131109631
20
18.7799138016
11
4.8062616439
21
18.7756766524
0
LINE
5
525
100
AcDbEntity
8
0
100
AcDbLine
62
9
6
CONTINUOUS
10
-5.1876188078
20
18.7794162112
11
-5.1945183492
21
18.7752419806
0
LINE
5
526
100
AcDbEntity
8
0
100
AcDbLine
62
0
6
CONTINUOUS
10
9.5552576939
20
-20.3273096349
11
9.5131058901
21
-20.3572614130
0
LINE
5
527
100
AcDbEntity
8
0
100
AcDbLine
62
9
6
CONTINUOUS
10
9.4623623315
20
-20.2336981411
11
9.4195373032
21
-20.2636900489
0
LINE
5
528
100
AcDbEntity
8
0
100
AcDbLine
62
0
6
CONTINUOUS
10
10.4627977840
20
-21.7901368307
11
10.5505758977
21
-21.7314284357
0
LINE
5
529
100
AcDbEntity
8
0
100
AcDbLine
62
0
6
CONTINUOUS
10
1.3253661016
20
-11.2419110433
11
1.3315639174
21
-11.2377747816
0
LINE
5
52A
100
AcDbEntity
8
0
100
AcDbLine
62
0
6
CONTINUOUS
10
1.3315639174
20
-11.2377747816
11
1.3392425546
21
-11.2327879519
0
LINE
5
52B
100
AcDbEntity
8
0
100
AcDbLine
62
0
6
CONTINUOUS
10
2.8646661877
20
-12.1272761061
11
2.8785235844
21
-12.1183510883
0
LINE
5
52C
100
AcDbEntity
8
0
100
AcDbLine
62
0
6
CONTINUOUS
10
1.3504457111
20
-11.2257447101
11
1.3392425546
21
-11.2327879519
0
LINE
5
52D
100
AcDbEntity
8
0
100
AcDbLine
62
0
6
CONTINUOUS
10
2.8785235844
20
-12.1183510883
11
2.8983306609
21
-12.1060762295
0
LINE
5
52E
100
AcDbEntity
8
0
100
AcDbLine
62
0
6
CONTINUOUS
10
1.3618022653
20
-11.2187797758
11
1.3493138843
21
-11.2264562711
0
LINE
5
52F
100
AcDbEntity
8
0
100
AcDbLine
62
0
6
CONTINUOUS
10
2.8983306609
20
-12.1060762295
11
2.9248758016
21
-12.0899778456
0
LINE
5
530
100
AcDbEntity
8
0
100
AcDbLine
62
0
6
CONTINUOUS
10
1.3767076977
20
-11.2097584660
11
1.3618022653
21
-11.2187797758
0
LINE
5
531
100
AcDbEntity
8
0
100
AcDbLine
62
0
6
CONTINUOUS
10
2.9248758016
20
-12.0899778456
11
2.9573706222
21
-12.0705296206
0
LINE
5
532
100
AcDbEntity
8
0
100
AcDbLine
62
0
6
CONTINUOUS
10
1.4143228495
20
-11.1873515746
11
1.3767076977
21
-11.2097584660
0
LINE
5
533
100
AcDbEntity
8
0
100
AcDbLine
62
0
6
CONTINUOUS
10
3.7842506569
20
9.9256483614
11
3.7408865338
21
9.9022488867
0
LINE
5
534
100
AcDbEntity
8
0
100
AcDbLine
62
0
6
CONTINUOUS
10
-5.6189381705
20
19.2184026526
11
-5.6051432257
21
19.2254038422
0
LINE
5
535
100
AcDbEntity
8
0
100
AcDbLine
62
0
6
CONTINUOUS
10
4.3810618295
20
19.2184026526
11
4.3948567743
21
19.2254038422
0
LINE
5
536
100
AcDbEntity
8
0
100
AcDbLine
62
9
6
CONTINUOUS
10
4.8062616439
20
18.7756766524
11
4.7989302073
21
18.7719850262
0
LINE
5
537
100
AcDbEntity
8
0
100
AcDbLine
62
0
6
CONTINUOUS
10
-10.8435892058
20
21.7414971664
11
-10.9366424338
21
21.6952494218
0
LINE
5
538
100
AcDbEntity
8
0
100
AcDbLine
62
9
6
CONTINUOUS
10
-5.1945183492
20
18.7752419806
11
-5.2018852962
21
18.7716281412
0
LINE
5
539
100
AcDbEntity
8
0
100
AcDbLine
62
9
6
CONTINUOUS
10
-9.8933827854
20
20.1688021596
11
-9.8460031927
21
20.1909053525
0
LINE
5
53A
100
AcDbEntity
8
0
100
AcDbLine
62
0
6
CONTINUOUS
10
-9.9869505399
20
20.2623740041
11
-9.9414222576
21
20.2835022348
0
LINE
5
53B
100
AcDbEntity
8
0
100
AcDbLine
62
0
6
CONTINUOUS
10
2.9573706222
20
-12.0705296206
11
3.0323254611
21
-12.0263204884
0
LINE
5
53C
100
AcDbEntity
8
0
100
AcDbLine
62
0
6
CONTINUOUS
10
1.4588405422
20
-11.1612145653
11
1.4143228495
21
-11.1873515746
0
LINE
5
53D
100
AcDbEntity
8
0
100
AcDbLine
62
0
6
CONTINUOUS
10
3.0323254611
20
-12.0263204884
11
3.1208300253
21
-11.9748698850
0
LINE
5
53E
100
AcDbEntity
8
0
100
AcDbLine
62
0
6
CONTINUOUS
10
1.9409000264
20
-10.8827334655
11
1.4588405422
21
-11.1612145653
0
LINE
5
53F
100
AcDbEntity
8
0
100
AcDbLine
62
0
6
CONTINUOUS
10
2.3708300253
20
-10.6758317793
11
1.4079786628
21
-11.2317342727
0
LINE
5
540
100
AcDbEntity
8
0
100
AcDbLine
62
0
6
CONTINUOUS
10
2.1579786628
20
-12.5307723783
11
3.1208300253
21
-11.9748698850
0
LINE
5
541
100
AcDbEntity
8
0
100
AcDbLine
62
0
6
CONTINUOUS
10
2.2444812709
20
-12.5219846603
11
2.7266829095
21
-12.2437493428
0
LINE
5
542
100
AcDbEntity
8
0
100
AcDbLine
62
0
6
CONTINUOUS
10
2.3246994955
20
-10.7023599426
11
2.2427795126
21
-10.7490215985
0
LINE
5
543
100
AcDbEntity
8
0
100
AcDbLine
62
0
6
CONTINUOUS
10
2.1995870545
20
-12.5474696390
11
2.2444812709
21
-12.5219846603
0
LINE
5
544
100
AcDbEntity
8
0
100
AcDbLine
62
0
6
CONTINUOUS
10
2.2427795126
20
-10.7490215985
11
2.2061667199
21
-10.7696112189
0
LINE
5
545
100
AcDbEntity
8
0
100
AcDbLine
62
0
6
CONTINUOUS
10
2.1613746020
20
-12.5688418343
11
2.1995870545
21
-12.5474696390
0
LINE
5
546
100
AcDbEntity
8
0
100
AcDbLine
62
0
6
CONTINUOUS
10
2.2061667199
20
-10.7696112189
11
2.1730009527
21
-10.7880692824
0
LINE
5
547
100
AcDbEntity
8
0
100
AcDbLine
62
0
6
CONTINUOUS
10
2.1461092491
20
-12.5772396362
11
2.1613746020
21
-12.5688418343
0
LINE
5
548
100
AcDbEntity
8
0
100
AcDbLine
62
0
6
CONTINUOUS
10
2.1730009527
20
-10.7880692824
11
2.1457522297
21
-10.8030274061
0
LINE
5
549
100
AcDbEntity
8
0
100
AcDbLine
62
0
6
CONTINUOUS
10
2.1332170804
20
-12.5842166096
11
2.1461092491
21
-12.5772396362
0
LINE
5
54A
100
AcDbEntity
8
0
100
AcDbLine
62
0
6
CONTINUOUS
10
2.1457522297
20
-10.8030274061
11
2.1252438904
21
-10.8140294622
0
LINE
5
54B
100
AcDbEntity
8
0
100
AcDbLine
62
0
6
CONTINUOUS
10
2.1226980957
20
-12.5897727546
11
2.1332170804
21
-12.5842166096
0
LINE
5
54C
100
AcDbEntity
8
0
100
AcDbLine
62
0
6
CONTINUOUS
10
4.1116666234
20
9.6667735348
11
4.1441240646
21
9.6834986591
0
LINE
5
54D
100
AcDbEntity
8
0
100
AcDbLine
62
0
6
CONTINUOUS
10
2.1252438904
20
-10.8140294622
11
2.1106525952
21
-10.8215315784
0
LINE
5
54E
100
AcDbEntity
8
0
100
AcDbLine
62
0
6
CONTINUOUS
10
2.1226980957
20
-12.5897727546
11
2.1145400522
21
-12.5939292364
0
LINE
5
54F
100
AcDbEntity
8
0
100
AcDbLine
62
0
6
CONTINUOUS
10
-3.7959807886
20
5.5473930862
11
-3.7268904914
21
5.5822471888
0
LINE
5
550
100
AcDbEntity
8
0
100
AcDbLine
62
9
6
CONTINUOUS
10
-5.2018852962
20
18.7716281412
11
-5.2094931663
21
18.7687236778
0
LINE
5
551
100
AcDbEntity
8
0
100
AcDbLine
62
0
6
CONTINUOUS
10
10.3697445560
20
-21.8363845754
11
10.4627977840
21
-21.7901368307
0
LINE
5
552
100
AcDbEntity
8
0
100
AcDbLine
62
0
6
CONTINUOUS
10
2.1145400522
20
-12.5939292364
11
2.1078590343
21
-12.5972285724
0
LINE
5
553
100
AcDbEntity
8
0
100
AcDbLine
62
0
6
CONTINUOUS
10
2.1078590343
20
-12.5972285724
11
2.1026550422
21
-12.5996707626
0
LINE
5
554
100
AcDbEntity
8
0
100
AcDbLine
62
9
6
CONTINUOUS
10
9.4195373032
20
-20.2636900489
11
9.3721578481
21
-20.2857930143
0
LINE
5
555
100
AcDbEntity
8
0
100
AcDbLine
62
0
6
CONTINUOUS
10
9.5131058901
20
-20.3572614130
11
9.4675776078
21
-20.3783896437
0
LINE
5
556
100
AcDbEntity
8
0
100
AcDbLine
62
0
6
CONTINUOUS
10
2.1106525952
20
-10.8215315784
11
2.1019783443
21
-10.8255337548
0
LINE
5
557
100
AcDbEntity
8
0
100
AcDbLine
62
0
6
CONTINUOUS
10
1.3235382595
20
-11.2469640316
11
1.3193286064
21
-11.2488194972
0
LINE
5
558
100
AcDbEntity
8
0
100
AcDbLine
62
0
6
CONTINUOUS
10
2.1026550422
20
-12.5996707626
11
2.0989236136
21
-12.6012572443
0
LINE
5
559
100
AcDbEntity
8
0
100
AcDbLine
62
0
6
CONTINUOUS
10
-4.0509652583
20
5.8481490942
11
-4.0854814729
21
5.8339547360
0
LINE
5
55A
100
AcDbEntity
8
0
100
AcDbLine
62
9
6
CONTINUOUS
10
4.7989302073
20
18.7719850262
11
4.7913374732
21
18.7690001675
0
LINE
5
55B
100
AcDbEntity
8
0
100
AcDbLine
62
0
6
CONTINUOUS
10
3.7408865338
20
9.9022488867
11
3.6934549512
21
9.8840741048
0
LINE
5
55C
100
AcDbEntity
8
0
100
AcDbLine
62
0
6
CONTINUOUS
10
-3.8712526859
20
5.5200097985
11
-3.7959807886
21
5.5473930862
0
LINE
5
55D
100
AcDbEntity
8
0
100
AcDbLine
62
0
6
CONTINUOUS
10
-10.7466826412
20
21.7743108598
11
-10.8435892058
21
21.7414971664
0
LINE
5
55E
100
AcDbEntity
8
0
100
AcDbLine
62
0
6
CONTINUOUS
10
-5.6051432257
20
19.2254038422
11
-5.5837333726
21
19.2317655443
0
LINE
5
55F
100
AcDbEntity
8
0
100
AcDbLine
62
0
6
CONTINUOUS
10
1.3193286064
20
-11.2488194972
11
1.3166102044
21
-11.2498149570
0
LINE
5
560
100
AcDbEntity
8
0
100
AcDbLine
62
0
6
CONTINUOUS
10
1.9409000264
20
-10.8827334655
11
2.1019783443
21
-10.8255337548
0
LINE
5
561
100
AcDbEntity
8
0
100
AcDbLine
62
0
6
CONTINUOUS
10
4.0779586065
20
9.6554321990
11
4.1116666234
21
9.6667735348
0
LINE
5
562
100
AcDbEntity
8
0
100
AcDbLine
62
0
6
CONTINUOUS
10
-4.0854814729
20
5.8339547360
11
-4.1219149714
21
5.8230701480
0
LINE
5
563
100
AcDbEntity
8
0
100
AcDbLine
62
0
6
CONTINUOUS
10
4.3948567743
20
19.2254038422
11
4.4162666274
21
19.2317655443
0
LINE
5
564
100
AcDbEntity
8
0
100
AcDbLine
62
9
6
CONTINUOUS
10
4.7913374732
20
18.7690001675
11
4.7834720388
21
18.7667609002
0
LINE
5
565
100
AcDbEntity
8
0
100
AcDbLine
62
0
6
CONTINUOUS
10
10.2728379914
20
-21.8691982687
11
10.3697445560
21
-21.8363845754
0
LINE
5
566
100
AcDbEntity
8
0
100
AcDbLine
62
0
6
CONTINUOUS
10
0.5354360341
20
-15.3725162980
11
0.5130776751
21
-15.3798244624
0
LINE
5
567
100
AcDbEntity
8
0
100
AcDbLine
62
0
6
CONTINUOUS
10
2.0989236136
20
-12.6012572443
11
2.0966692108
21
-12.6019865802
0
ARC
5
568
100
AcDbEntity
8
0
100
AcDbCircle
62
9
6
CONTINUOUS
10
-5.2369223249
20
18.8525562955
40
0.3881958812
100
AcDbArc
50
180.0000000000
51
359.9977632553
0
ARC
5
569
100
AcDbEntity
8
0
100
AcDbCircle
62
9
6
CONTINUOUS
10
4.7630776751
20
18.8525562955
40
0.3881958812
100
AcDbArc
50
180.0000000000
51
360.0000000000
0
ARC
5
56A
100
AcDbEntity
8
0
100
AcDbCircle
62
9
6
CONTINUOUS
10
-0.2369223249
20
-13.0474437045
40
2.5921572875
100
AcDbArc
50
287.6462115036
51
12.3537884964
0
ARC
5
56B
100
AcDbEntity
8
0
100
AcDbCircle
62
9
6
CONTINUOUS
10
-0.2369223249
20
-13.0474437045
40
2.5921572875
100
AcDbArc
50
167.6462115036
51
252.3537884964
0
ARC
5
56C
100
AcDbEntity
8
0
100
AcDbCircle
62
9
6
CONTINUOUS
10
-0.2369223249
20
-13.0474437045
40
2.5921572875
100
AcDbArc
50
47.6462115036
51
132.3537884964
0
ARC
5
56D
100
AcDbEntity
8
0
100
AcDbCircle
62
9
6
CONTINUOUS
10
-0.2369223249
20
-13.0474437045
40
3.5248993522
100
AcDbArc
50
42.2848500959
51
137.7151499041
0
ARC
5
56E
100
AcDbEntity
8
0
100
AcDbCircle
62
9
6
CONTINUOUS
10
-0.2369223249
20
-13.0474437045
40
3.5248993522
100
AcDbArc
50
162.2848500959
51
257.7151499041
0
ARC
5
56F
100
AcDbEntity
8
0
100
AcDbCircle
62
9
6
CONTINUOUS
10
-0.2369223249
20
-13.0474437045
40
3.5248993522
100
AcDbArc
50
282.2848500959
51
17.7151499041
0
ARC
5
570
100
AcDbEntity
8
0
100
AcDbCircle
62
9
6
CONTINUOUS
10
-0.2369223249
20
-13.0474437045
40
2.4035954792
100
AcDbArc
50
289.0232310188
51
10.9767689812
0
ARC
5
571
100
AcDbEntity
8
0
100
AcDbCircle
62
9
6
CONTINUOUS
10
-0.2369223249
20
-13.0474437045
40
2.4035954792
100
AcDbArc
50
169.0232310188
51
250.9767689812
0
ARC
5
572
100
AcDbEntity
8
0
100
AcDbCircle
62
9
6
CONTINUOUS
10
-0.2369223249
20
-13.0474437045
40
2.4035954792
100
AcDbArc
50
49.0232310188
51
130.9767689812
0
ARC
5
573
100
AcDbEntity
8
0
100
AcDbCircle
62
9
6
CONTINUOUS
10
-0.2369223249
20
-13.0474437045
40
3.2260409428
100
AcDbArc
50
43.5306110192
51
136.4693889808
0
ARC
5
574
100
AcDbEntity
8
0
100
AcDbCircle
62
9
6
CONTINUOUS
10
-0.2369223249
20
-13.0474437045
40
3.2260409428
100
AcDbArc
50
283.5306110192
51
16.4693889808
0
ARC
5
575
100
AcDbEntity
8
0
100
AcDbCircle
62
9
6
CONTINUOUS
10
-0.2369223249
20
-13.0474437045
40
3.2260409428
100
AcDbArc
50
163.5306110192
51
256.4693889808
0
CIRCLE
5
576
100
AcDbEntity
8
DEFAULT_2
100
AcDbCircle
62
9
6
HIDDEN
10
-0.2369223249
20
-13.0474437045
40
1.0000000000
0
CIRCLE
5
577
100
AcDbEntity
8
DEFAULT_2
100
AcDbCircle
62
9
6
HIDDEN
10
-0.2369223249
20
-13.0474437045
40
2.2249995624
0
ARC
5
578
100
AcDbEntity
8
DEFAULT_2
100
AcDbCircle
62
9
6
HIDDEN
10
-0.2369223249
20
-13.0474437045
40
2.4162625080
100
AcDbArc
50
251.0681481619
51
288.9321870528
0
CIRCLE
5
579
100
AcDbEntity
8
DEFAULT_2
100
AcDbCircle
62
9
6
HIDDEN
10
-0.2369223249
20
-13.0474437045
40
0.9939257687
0
ARC
5
57A
100
AcDbEntity
8
DEFAULT_2
100
AcDbCircle
62
9
6
HIDDEN
10
-0.2369223249
20
-13.0474437045
40
2.4162625080
100
AcDbArc
50
131.0681481764
51
157.0497093640
0
ARC
5
57B
100
AcDbEntity
8
DEFAULT_2
100
AcDbCircle
62
9
6
HIDDEN
10
-0.2369223249
20
-13.0474437045
40
2.4162625080
100
AcDbArc
50
10.6648935270
51
48.9321870141
0
ARC
5
57C
100
AcDbEntity
8
0
100
AcDbCircle
62
0
6
CONTINUOUS
10
-0.2369223249
20
-13.0474437045
40
2.4250000000
100
AcDbArc
50
251.3643495067
51
288.6378224844
0
ARC
5
57D
100
AcDbEntity
8
0
100
AcDbCircle
62
0
6
CONTINUOUS
10
-0.2369223249
20
-13.0474437045
40
2.4250000000
100
AcDbArc
50
11.3619771139
51
48.6401104215
0
ARC
5
57E
100
AcDbEntity
8
0
100
AcDbCircle
62
0
6
CONTINUOUS
10
-0.2369223249
20
-13.0474437045
40
2.4250000000
100
AcDbArc
50
131.3608002958
51
156.5669838577
0
ARC
5
57F
100
AcDbEntity
8
0
100
AcDbCircle
62
0
6
CONTINUOUS
10
-0.2369223249
20
-13.0474437045
40
2.3750000000
100
AcDbArc
50
289.1859459794
51
10.8140540537
0
ARC
5
580
100
AcDbEntity
8
0
100
AcDbCircle
62
0
6
CONTINUOUS
10
-0.2369223249
20
-13.0474437045
40
2.3750000000
100
AcDbArc
50
169.1859459794
51
250.8140540537
0
ARC
5
581
100
AcDbEntity
8
0
100
AcDbCircle
62
0
6
CONTINUOUS
10
-0.2369223249
20
-13.0474437045
40
2.3750000000
100
AcDbArc
50
49.1859459794
51
130.8140540537
0
ARC
5
582
100
AcDbEntity
8
0
100
AcDbCircle
62
0
6
CONTINUOUS
10
-0.2369223249
20
-13.0474437045
40
2.4500000000
100
AcDbArc
50
132.1742941315
51
167.8257058685
0
ARC
5
583
100
AcDbEntity
8
0
100
AcDbCircle
62
0
6
CONTINUOUS
10
-0.2369223249
20
-13.0474437045
40
2.4500000000
100
AcDbArc
50
12.1742941315
51
47.8257058685
0
ARC
5
584
100
AcDbEntity
8
0
100
AcDbCircle
62
0
6
CONTINUOUS
10
-0.2369223249
20
-13.0474437045
40
2.4500000000
100
AcDbArc
50
252.1742941315
51
287.8257058685
0
ARC
5
585
100
AcDbEntity
8
0
100
AcDbCircle
62
0
6
CONTINUOUS
10
-5.2369223249
20
18.8525562955
40
0.4000000000
100
AcDbArc
50
180.0000000000
51
360.0000000000
0
ARC
5
586
100
AcDbEntity
8
0
100
AcDbCircle
62
0
6
CONTINUOUS
10
4.7630776751
20
18.8525562955
40
0.4000000000
100
AcDbArc
50
180.0000000000
51
360.0000000000
0
ARC
5
587
100
AcDbEntity
8
0
100
AcDbCircle
62
0
6
CONTINUOUS
10
-0.2369223249
20
-13.0474437045
40
3.0706482398
100
AcDbArc
50
284.8269980938
51
15.1730019062
0
ARC
5
588
100
AcDbEntity
8
0
100
AcDbCircle
62
0
6
CONTINUOUS
10
-0.2369223249
20
-13.0474437045
40
3.0706482398
100
AcDbArc
50
164.8269980938
51
255.1730019062
0
ARC
5
589
100
AcDbEntity
8
0
100
AcDbCircle
62
0
6
CONTINUOUS
10
-0.2369223249
20
-13.0474437045
40
3.0706482398
100
AcDbArc
50
44.8269980938
51
135.1730019062
0
ENDSEC
0
SECTION
2
OBJECTS
0
DICTIONARY
5
C
100
AcDbDictionary
280
0
281
1
3
ACAD_GROUP
350
D
3
ACAD_MLINESTYLE
350
17
3
ACAD_LAYOUT
350
1A
3
ACAD_PLOTSETTINGS
350
19
3
ACAD_PLOTSTYLENAME
350
E
0
DICTIONARY
5
D
102
{ACAD_REACTORS
330
C
102
}
100
AcDbDictionary
280
0
281
1
0
ACDBDICTIONARYWDFLT
5
E
102
{ACAD_REACTORS
330
C
102
}
100
AcDbDictionary
281
1
3
Normal
350
F
100
AcDbDictionaryWithDefault
340
F
0
DICTIONARY
5
17
102
{ACAD_REACTORS
330
C
102
}
100
AcDbDictionary
280
0
281
1
3
Standard
350
18
0
DICTIONARY
5
19
102
{ACAD_REACTORS
330
C
102
}
100
AcDbDictionary
281
1
0
DICTIONARY
5
1A
102
{ACAD_REACTORS
330
C
102
}
100
AcDbDictionary
281
1
3
Layout1
350
1E
3
Model
350
22
0
ACDBPLACEHOLDER
5
F
102
{ACAD_REACTORS
330
E
102
}
0
MLINESTYLE
5
18
102
{ACAD_REACTORS
330
17
102
}
100
AcDbMlineStyle
2
STANDARD
70
0
3

62
256
51
90.0
52
90.0
71
2
49
0.5
62
256
6
BYLAYER
49
-0.5
62
256
6
BYLAYER
0
LAYOUT
5
1E
102
{ACAD_REACTORS
330
1A
102
}
100
AcDbPlotSettings
1

2

4

6

40
0.0
41
0.0
42
0.0
43
0.0
44
0.0
45
0.0
46
0.0
47
0.0
48
0.0
49
0.0
140
0.0
141
0.0
142
1.0
143
1.0
70
0
72
0
73
0
74
0
7

75
0
147
1.0
148
0.0
149
0.0
100
AcDbLayout
1
Layout1
70
0
71
0
10
0.0
20
0.0
11
0.0
21
0.0
12
0.0
22
0.0
32
0.0
14
0.0
24
0.0
34
0.0
15
0.0
25
0.0
35
0.0
146
0.0
13
0.0
23
0.0
33
0.0
16
0.0
26
0.0
36
0.0
17
0.0
27
0.0
37
0.0
76
0
330
1B
331
0
345
0
346
0
0
LAYOUT
5
22
102
{ACAD_REACTORS
330
1A
102
}
100
AcDbPlotSettings
1

2

4

6

40
0.0
41
0.0
42
0.0
43
0.0
44
0.0
45
0.0
46
0.0
47
0.0
48
0.0
49
0.0
140
0.0
141
0.0
142
1.0
143
1.0
70
0
72
0
73
0
74
0
7

75
0
147
1.0
148
0.0
149
0.0
100
AcDbLayout
1
Model
70
0
71
0
10
0.0
20
0.0
11
0.0
21
0.0
12
0.0
22
0.0
32
0.0
14
0.0
24
0.0
34
0.0
15
0.0
25
0.0
35
0.0
146
0.0
13
0.0
23
0.0
33
0.0
16
0.0
26
0.0
36
0.0
17
0.0
27
0.0
37
0.0
76
0
330
1F
331
0
345
0
346
0
0
ENDSEC
0
EOF
