  0
SECTION
  2
HEADER
  9
$ACADVER
  1
AC1015
  9
$DWGCODEPAGE
  3
ANSI_1252
  9
$EXTMAX
 10
297.0
 20
210.0
 30
0.0
  9
$EXTMIN
 10
0.0
 20
0.0
 30
0.0
  9
$LIMMIN
 10
0.0
 20
0.0
  9
$LIMMAX
 10
297.0
 20
210.0
  9
$VIEWCTR
 10
148.5
 20
105.0
  9
$VIEWSIZE
 40
210.0
  9
$CLAYER
  8
0
  9
$LTSCALE
 40
16.335
  9
$CELTYPE
  6
BYLAYER
  9
$DIMSCALE
 40
1.0
  9
$DIMASZ
 40
3.0
  9
$DIMEXO
 40
1.85625
  9
$DIMDLI
 40
11.286
  9
$DIMEXE
 40
5.346
  9
$DIMCEN
 40
2.673
  9
$DIMLFAC
 40
1.0
  9
$DIMBLK
  1
_FILLED
  9
$DIMTXT
 40
3.0
  9
$DIMTOL
 70
1
  9
$DIMLIM
 70
0
  9
$DIMTFAC
 40
1.0
  9
$DIMTP
 40
0.01
  9
$DIMTM
 40
0.01
  9
$PDMODE
 70
3
  9
$PDSIZE
 40
3.0
  9
$HANDSEED
  5
655
  9
$TILEMODE
 70
1
  9
$MEASUREMENT
 70
1
  9
$INSUNITS
 70
4
  0
ENDSEC
  0
SECTION
  2
CLASSES
  0
CLASS
  1
ACDBDICTIONARYWDFLT
  2
AcDbDictionaryWithDefault
  3
AutoCAD 2000
 90
0
280
0
281
0
  0
CLASS
  1
ACDBPLACEHOLDER
  2
AcDbPlaceHolder
  3
AutoCAD 2000
 90
0
280
0
281
0
  0
CLASS
  1
LAYOUT
  2
AcDbLayout
  3
AutoCAD 2000
 90
0
280
0
281
0
  0
ENDSEC
  0
SECTION
  2
TABLES
  0
TABLE
  2
VPORT
  5
8
100
AcDbSymbolTable
 70
2
  0
VPORT
  5
1F4
100
AcDbSymbolTableRecord
100
AcDbViewportTableRecord
  2
*ACTIVE
 70
0
 10
0.0
 20
0.0
 11
1.0
 21
1.0
 12
148.5
 22
105.0
 13
0.0
 23
0.0
 14
1.0
 24
1.0
 15
0.0
 25
0.0
 16
0.0
 26
0.0
 36
1.0
 17
0.0
 27
0.0
 37
0.0
 40
210.0
 41
1.4142857143
 42
50.0
 43
0.0
 44
0.0
 50
0.0
 51
0.0
 71
0
 72
100
 73
1
 74
1
 75
0
 76
0
 77
0
 78
0
  0
ENDTAB
  0
TABLE
  2
LTYPE
  5
5
100
AcDbSymbolTable
 70
6
  0
LTYPE
  5
14
100
AcDbSymbolTableRecord
100
AcDbLinetypeTableRecord
  2
BYBLOCK
 70
0
  3

 72
65
 73
0
 40
0.0
  0
LTYPE
  5
15
100
AcDbSymbolTableRecord
100
AcDbLinetypeTableRecord
  2
BYLAYER
 70
0
  3

 72
65
 73
0
 40
0.0
  0
LTYPE
  5
16
100
AcDbSymbolTableRecord
100
AcDbLinetypeTableRecord
  2
CONTINUOUS
 70
64
  3
Solid line
 72
65
 73
0
 40
0.0
  0
LTYPE
  5
1F5
100
AcDbSymbolTableRecord
100
AcDbLinetypeTableRecord
  2
CENTER
 70
64
  3
____ _ ____ _ ____ _ ____ _ ____ _ ____ _ ____
 72
65
 73
4
 40
0.6
 49
0.375
 74
0
 49
-0.075
 74
0
 49
0.075
 74
0
 49
-0.075
 74
0
  0
LTYPE
  5
1F6
100
AcDbSymbolTableRecord
100
AcDbLinetypeTableRecord
  2
HIDDEN
 70
64
  3
- - - - - - - - - - - - - - - - - - - -
 72
65
 73
2
 40
0.2
 49
0.1
 74
0
 49
-0.1
 74
0
  0
LTYPE
  5
1F7
100
AcDbSymbolTableRecord
100
AcDbLinetypeTableRecord
  2
PHANTOM
 70
64
  3
_____ _ _ _____ _ _ _____ _ _ _____
 72
65
 73
6
 40
0.8
 49
0.45
 74
0
 49
-0.05
 74
0
 49
0.1
 74
0
 49
-0.05
 74
0
 49
0.1
 74
0
 49
-0.05
 74
0
  0
LTYPE
  5
1F8
100
AcDbSymbolTableRecord
100
AcDbLinetypeTableRecord
  2
DOT
 70
64
  3
. . . . . . . . . . . . . . . . . . . .
 72
65
 73
2
 40
0.2
 49
0.1
 74
0
 49
-0.1
 74
0
  0
LTYPE
  5
1F9
100
AcDbSymbolTableRecord
100
AcDbLinetypeTableRecord
  2
DASHED
 70
64
  3
- - - - - - - - - - - - - - - - - - - -
 72
65
 73
2
 40
0.2
 49
0.1
 74
0
 49
-0.1
 74
0
  0
ENDTAB
  0
TABLE
  2
LAYER
  5
2
100
AcDbSymbolTable
 70
36
  0
LAYER
  5
10
100
AcDbSymbolTableRecord
100
AcDbLayerTableRecord
  2
0
 70
0
 62
7
  6
CONTINUOUS
370
-3
390
F
  0
LAYER
  5
1FA
100
AcDbSymbolTableRecord
100
AcDbLayerTableRecord
  2
DEFAULT_1
 70
0
 62
7
  6
CENTER
370
-3
390
F
  0
LAYER
  5
1FB
100
AcDbSymbolTableRecord
100
AcDbLayerTableRecord
  2
DEFAULT_2
 70
0
 62
7
  6
HIDDEN
370
-3
390
F
  0
LAYER
  5
1FC
100
AcDbSymbolTableRecord
100
AcDbLayerTableRecord
  2
DEFAULT_3
 70
0
 62
7
  6
PHANTOM
370
-3
390
F
  0
LAYER
  5
1FD
100
AcDbSymbolTableRecord
100
AcDbLayerTableRecord
  2
ASSI
 70
0
 62
7
  6
CONTINUOUS
370
-3
390
F
  0
LAYER
  5
1FE
100
AcDbSymbolTableRecord
100
AcDbLayerTableRecord
  2
COORDINATE
 70
0
 62
7
  6
CONTINUOUS
370
-3
390
F
  0
LAYER
  5
1FF
100
AcDbSymbolTableRecord
100
AcDbLayerTableRecord
  2
COORD_ORIGINE
 70
0
 62
7
  6
CONTINUOUS
370
-3
390
F
  0
LAYER
  5
200
100
AcDbSymbolTableRecord
100
AcDbLayerTableRecord
  2
CURVE
 70
0
 62
7
  6
CONTINUOUS
370
-3
390
F
  0
LAYER
  5
201
100
AcDbSymbolTableRecord
100
AcDbLayerTableRecord
  2
DRAFT
 70
0
 62
7
  6
CONTINUOUS
370
-3
390
F
  0
LAYER
  5
202
100
AcDbSymbolTableRecord
100
AcDbLayerTableRecord
  2
IMPORT_AI
 70
0
 62
7
  6
CONTINUOUS
370
-3
390
F
  0
LAYER
  5
203
100
AcDbSymbolTableRecord
100
AcDbLayerTableRecord
  2
NOTE
 70
0
 62
7
  6
CONTINUOUS
370
-3
390
F
  0
LAYER
  5
204
100
AcDbSymbolTableRecord
100
AcDbLayerTableRecord
  2
PIANI
 70
0
 62
7
  6
CONTINUOUS
370
-3
390
F
  0
LAYER
  5
205
100
AcDbSymbolTableRecord
100
AcDbLayerTableRecord
  2
PIANI_ORIGINE
 70
0
 62
7
  6
CONTINUOUS
370
-3
390
F
  0
LAYER
  5
206
100
AcDbSymbolTableRecord
100
AcDbLayerTableRecord
  2
PIANI_RIFERIMENTO
 70
0
 62
7
  6
CONTINUOUS
370
-3
390
F
  0
LAYER
  5
207
100
AcDbSymbolTableRecord
100
AcDbLayerTableRecord
  2
PUNTI
 70
0
 62
7
  6
CONTINUOUS
370
-3
390
F
  0
LAYER
  5
208
100
AcDbSymbolTableRecord
100
AcDbLayerTableRecord
  2
RACCORDO
 70
0
 62
7
  6
CONTINUOUS
370
-3
390
F
  0
LAYER
  5
209
100
AcDbSymbolTableRecord
100
AcDbLayerTableRecord
  2
SMUSSO
 70
0
 62
7
  6
CONTINUOUS
370
-3
390
F
  0
LAYER
  5
20A
100
AcDbSymbolTableRecord
100
AcDbLayerTableRecord
  2
SNAPLINE
 70
0
 62
7
  6
CONTINUOUS
370
-3
390
F
  0
LAYER
  5
20B
100
AcDbSymbolTableRecord
100
AcDbLayerTableRecord
  2
SUPERFICI
 70
0
 62
7
  6
CONTINUOUS
370
-3
390
F
  0
LAYER
  5
20C
100
AcDbSymbolTableRecord
100
AcDbLayerTableRecord
  2
TRASH
 70
0
 62
7
  6
CONTINUOUS
370
-3
390
F
  0
LAYER
  5
20D
100
AcDbSymbolTableRecord
100
AcDbLayerTableRecord
  2
XSEC_DATUMS
 70
0
 62
7
  6
CONTINUOUS
370
-3
390
F
  0
ENDTAB
  0
TABLE
  2
STYLE
  5
3
100
AcDbSymbolTable
 70
1
  0
STYLE
  5
11
100
AcDbSymbolTableRecord
100
AcDbTextStyleTableRecord
  2
STANDARD
 70
0
 40
0.0
 41
0.8
 50
0.0
 71
0
 42
0.2
  3
txt
  4

  0
STYLE
  5
20E
100
AcDbSymbolTableRecord
100
AcDbTextStyleTableRecord
  2
TEXTSTYLE_1
 70
0
 40
0.0
 41
0.8
 50
0.0
 71
0
 42
0.2
  3
gdt
  4

  0
ENDTAB
  0
TABLE
  2
VIEW
  5
6
100
AcDbSymbolTable
 70
0
  0
ENDTAB
  0
TABLE
  2
UCS
  5
7
100
AcDbSymbolTable
 70
0
  0
ENDTAB
  0
TABLE
  2
APPID
  5
9
100
AcDbSymbolTable
 70
1
  0
APPID
  5
20F
100
AcDbSymbolTableRecord
100
AcDbRegAppTableRecord
  2
ACAD
 70
0
  0
ENDTAB
  0
TABLE
  2
BLOCK_RECORD
  5
1
100
AcDbSymbolTable
 70
0
  0
BLOCK_RECORD
  5
210
100
AcDbSymbolTableRecord
100
AcDbBlockTableRecord
  2
*Model_Space
  0
BLOCK_RECORD
  5
211
100
AcDbSymbolTableRecord
100
AcDbBlockTableRecord
  2
*Paper_Space
  0
ENDTAB
  0
TABLE
  2
DIMSTYLE
  5
A
100
AcDbSymbolTable
 70
1
100
AcDbDimStyleTable
 71
0
  0
DIMSTYLE
105
212
100
AcDbSymbolTableRecord
100
AcDbDimStyleTableRecord
  2
STANDARD
 70
0
  3

  4

 40
1.0
 41
3.0
 42
0.0625
 43
0.38
 44
0.18
 45
0.0
 46
0.0
 47
0.01
 48
0.01
140
3.0
141
0.09
142
0.0
143
25.4
144
1.0
145
0.0
146
1.0
147
0.09
 71
1.0
 72
0.0
 73
0
 74
0
 75
0
 76
0
 77
1
 78
8
170
0
171
2
172
0
173
0
174
0
175
0
176
0
177
0
178
0
270
2
271
2
272
2
273
2
274
2
275
0
280
0
281
0
282
0
283
1
284
8
285
0
286
0
287
3
288
0
340
11
  0
ENDTAB
  0
ENDSEC
  0
SECTION
  2
BLOCKS
  0
BLOCK
  5
20
100
AcDbEntity
  8
0
100
AcDbBlockBegin
  2
*Model_Space
 70
0
 10
0.0
 20
0.0
 30
0.0
  3
*Model_Space
  1

  0
ENDBLK
  5
21
100
AcDbEntity
  8
0
100
AcDbBlockEnd
  0
BLOCK
  5
1C
100
AcDbEntity
  8
0
100
AcDbBlockBegin
  2
*Paper_Space
 70
0
 10
0.0
 20
0.0
 30
0.0
  3
*Paper_Space
  1

  0
ENDBLK
  5
1D
100
AcDbEntity
  8
0
100
AcDbBlockEnd
  0
ENDSEC
  0
SECTION
  2
ENTITIES
  0
LINE
  5
213
100
AcDbEntity
  8
0
100
AcDbLine
 62
7
  6
CONTINUOUS
 10
-20.85
 20
20.1990396502
 11
-20.1498936624
 21
20.9
  0
LINE
  5
214
100
AcDbEntity
  8
0
100
AcDbLine
 62
7
  6
CONTINUOUS
 10
-18.5558178298
 20
22.3441821702
 11
-19.5
 21
21.4
  0
LINE
  5
215
100
AcDbEntity
  8
0
100
AcDbLine
 62
7
  6
CONTINUOUS
 10
-22.3412731322
 20
18.5587268678
 11
-21.4
 21
19.5
  0
LINE
  5
216
100
AcDbEntity
  8
DRAFT
100
AcDbLine
 62
7
  6
CONTINUOUS
 10
-18.55
 20
20.9959955457
 11
-18.6459955457
 21
20.9
  0
LINE
  5
217
100
AcDbEntity
  8
0
100
AcDbLine
 62
7
  6
CONTINUOUS
 10
-14.75
 20
23.8
 11
-14.8067703336
 21
23.7659383532
  0
LINE
  5
218
100
AcDbEntity
  8
0
100
AcDbLine
 62
7
  6
CONTINUOUS
 10
-19.3165695018
 20
20.9917082642
 11
-19.5
 21
20.9
  0
LINE
  5
219
100
AcDbEntity
  8
0
100
AcDbLine
 62
7
  6
CONTINUOUS
 10
-19.3165695018
 20
-20.9917082642
 11
-19.5
 21
-20.9
  0
LINE
  5
21A
100
AcDbEntity
  8
0
100
AcDbLine
 62
7
  6
CONTINUOUS
 10
-14.75
 20
-23.8
 11
-14.8067703336
 21
-23.7659383532
  0
LINE
  5
21B
100
AcDbEntity
  8
0
100
AcDbLine
 62
7
  6
CONTINUOUS
 10
-22.3412731322
 20
-18.5587268678
 11
-21.4
 21
-19.5
  0
LINE
  5
21C
100
AcDbEntity
  8
0
100
AcDbLine
 62
7
  6
CONTINUOUS
 10
-18.5558178298
 20
-22.3441821702
 11
-19.5
 21
-21.4
  0
LINE
  5
21D
100
AcDbEntity
  8
DRAFT
100
AcDbLine
 62
7
  6
CONTINUOUS
 10
-18.55
 20
-20.9959955457
 11
-18.6459955457
 21
-20.9
  0
LINE
  5
21E
100
AcDbEntity
  8
0
100
AcDbLine
 62
7
  6
CONTINUOUS
 10
-20.85
 20
-20.1990396502
 11
-20.1498936624
 21
-20.9
  0
LINE
  5
21F
100
AcDbEntity
  8
0
100
AcDbLine
 62
7
  6
CONTINUOUS
 10
-22.3849101299
 20
-18.1473460386
 11
-22.35
 21
-18.5
  0
LINE
  5
220
100
AcDbEntity
  8
0
100
AcDbLine
 62
7
  6
CONTINUOUS
 10
-22.35
 20
18.5
 11
-22.3849101299
 21
18.1473460386
  0
LINE
  5
221
100
AcDbEntity
  8
0
100
AcDbLine
 62
7
  6
CONTINUOUS
 10
-14.25
 20
21.7
 11
-14.3262444645
 21
21.6237555355
  0
LINE
  5
222
100
AcDbEntity
  8
0
100
AcDbLine
 62
7
  6
CONTINUOUS
 10
-14.75
 20
22.3441821702
 11
-14.8075937104
 21
22.3057869048
  0
LINE
  5
223
100
AcDbEntity
  8
0
100
AcDbLine
 62
7
  6
CONTINUOUS
 10
-14.3373194485
 20
22.2859700255
 11
-14.25
 21
22.3441821702
  0
LINE
  5
224
100
AcDbEntity
  8
0
100
AcDbLine
 62
7
  6
CONTINUOUS
 10
-19.3165695018
 20
21.4537354271
 11
-19.5
 21
21.4
  0
LINE
  5
225
100
AcDbEntity
  8
0
100
AcDbLine
 62
7
  6
CONTINUOUS
 10
-21.5750034269
 20
-24.5
 11
-19.7999965731
 21
-24.5
  0
LINE
  5
226
100
AcDbEntity
  8
0
100
AcDbLine
 62
7
  6
CONTINUOUS
 10
21.5750034269
 20
-24.5
 11
19.7999965731
 21
-24.5
  0
LINE
  5
227
100
AcDbEntity
  8
0
100
AcDbLine
 62
7
  6
CONTINUOUS
 10
0.9249965731
 20
-24.5
 11
2.7000034269
 21
-24.5
  0
LINE
  5
228
100
AcDbEntity
  8
0
100
AcDbLine
 62
7
  6
CONTINUOUS
 10
-0.9249965731
 20
-24.5
 11
-2.7000034269
 21
-24.5
  0
LINE
  5
229
100
AcDbEntity
  8
0
100
AcDbLine
 62
7
  6
CONTINUOUS
 10
-21.825
 20
-23.8
 11
-19.55
 21
-23.8
  0
LINE
  5
22A
100
AcDbEntity
  8
0
100
AcDbLine
 62
7
  6
CONTINUOUS
 10
21.825
 20
-23.8
 11
19.55
 21
-23.8
  0
LINE
  5
22B
100
AcDbEntity
  8
0
100
AcDbLine
 62
7
  6
CONTINUOUS
 10
-15.65
 20
-23.8
 11
-6.85
 21
-23.8
  0
LINE
  5
22C
100
AcDbEntity
  8
0
100
AcDbLine
 62
7
  6
CONTINUOUS
 10
0.675
 20
-23.8
 11
2.95
 21
-23.8
  0
LINE
  5
22D
100
AcDbEntity
  8
0
100
AcDbLine
 62
7
  6
CONTINUOUS
 10
-0.675
 20
-23.8
 11
-2.95
 21
-23.8
  0
LINE
  5
22E
100
AcDbEntity
  8
0
100
AcDbLine
 62
7
  6
CONTINUOUS
 10
6.85
 20
-23.8
 11
15.65
 21
-23.8
  0
LINE
  5
22F
100
AcDbEntity
  8
0
100
AcDbLine
 62
7
  6
CONTINUOUS
 10
-15.6159383532
 20
-23.7659383532
 11
-14.8067703336
 21
-23.7659383532
  0
LINE
  5
230
100
AcDbEntity
  8
0
100
AcDbLine
 62
7
  6
CONTINUOUS
 10
-7.6932296664
 20
-23.7659383532
 11
-6.8840616468
 21
-23.7659383532
  0
LINE
  5
231
100
AcDbEntity
  8
0
100
AcDbLine
 62
7
  6
CONTINUOUS
 10
6.8840616468
 20
-23.7659383532
 11
7.6932296664
 21
-23.7659383532
  0
LINE
  5
232
100
AcDbEntity
  8
0
100
AcDbLine
 62
7
  6
CONTINUOUS
 10
14.8067703336
 20
-23.7659383532
 11
15.6159383532
 21
-23.7659383532
  0
LINE
  5
233
100
AcDbEntity
  8
0
100
AcDbLine
 62
7
  6
CONTINUOUS
 10
-19.3165695018
 20
-21.4537354271
 11
-19.5
 21
-21.4
  0
LINE
  5
234
100
AcDbEntity
  8
0
100
AcDbLine
 62
7
  6
CONTINUOUS
 10
-14.75
 20
-22.3441821702
 11
-14.8075937104
 21
-22.3057869048
  0
LINE
  5
235
100
AcDbEntity
  8
0
100
AcDbLine
 62
7
  6
CONTINUOUS
 10
-14.3373194485
 20
-22.2859700255
 11
-14.25
 21
-22.3441821702
  0
LINE
  5
236
100
AcDbEntity
  8
0
100
AcDbLine
 62
7
  6
CONTINUOUS
 10
-14.25
 20
-21.7
 11
-14.3262444645
 21
-21.6237555355
  0
LINE
  5
237
100
AcDbEntity
  8
0
100
AcDbLine
 62
7
  6
CONTINUOUS
 10
-22.35
 20
18.5
 11
-22.3325462644
 21
18.1473460386
  0
LINE
  5
238
100
AcDbEntity
  8
DRAFT
100
AcDbLine
 62
7
  6
CONTINUOUS
 10
-18.55
 20
-19.7
 11
-18.7222338992
 21
-16.220001889
  0
LINE
  5
239
100
AcDbEntity
  8
0
100
AcDbLine
 62
7
  6
CONTINUOUS
 10
-21.825
 20
23.8
 11
-21.8197639644
 21
23.2226497308
  0
LINE
  5
23A
100
AcDbEntity
  8
0
100
AcDbLine
 62
7
  6
CONTINUOUS
 10
-19.5552360356
 20
-23.2226497308
 11
-19.55
 21
-23.8
  0
LINE
  5
23B
100
AcDbEntity
  8
0
100
AcDbLine
 62
7
  6
CONTINUOUS
 10
-22.3849101299
 20
18.1473460386
 11
-22.3849101299
 21
-18.1473460386
  0
LINE
  5
23C
100
AcDbEntity
  8
0
100
AcDbLine
 62
7
  6
CONTINUOUS
 10
-22.35
 20
21.850016923
 11
-22.35
 21
18.5
  0
LINE
  5
23D
100
AcDbEntity
  8
0
100
AcDbLine
 62
7
  6
CONTINUOUS
 10
-22.35
 20
-21.850016923
 11
-22.35
 21
-18.5
  0
LINE
  5
23E
100
AcDbEntity
  8
0
100
AcDbLine
 62
7
  6
CONTINUOUS
 10
-22.3412731322
 20
21.8441990932
 11
-22.3412731322
 21
18.5587268678
  0
LINE
  5
23F
100
AcDbEntity
  8
0
100
AcDbLine
 62
7
  6
CONTINUOUS
 10
-22.3412731322
 20
-18.5587268678
 11
-22.3412731322
 21
-21.8441990932
  0
LINE
  5
240
100
AcDbEntity
  8
0
100
AcDbLine
 62
7
  6
CONTINUOUS
 10
-22.3325462644
 20
18.5674537356
 11
-22.3325462644
 21
18.1473460386
  0
LINE
  5
241
100
AcDbEntity
  8
0
100
AcDbLine
 62
7
  6
CONTINUOUS
 10
-22.3325462644
 20
-18.1473460386
 11
-22.3325462644
 21
-18.5674537356
  0
LINE
  5
242
100
AcDbEntity
  8
0
100
AcDbLine
 62
7
  6
CONTINUOUS
 10
-21.825
 20
24.2500034269
 11
-21.825
 21
23.8
  0
LINE
  5
243
100
AcDbEntity
  8
0
100
AcDbLine
 62
7
  6
CONTINUOUS
 10
-21.825
 20
-23.8
 11
-21.825
 21
-24.2500034269
  0
LINE
  5
244
100
AcDbEntity
  8
0
100
AcDbLine
 62
7
  6
CONTINUOUS
 10
-21.8197639644
 20
23.2226497308
 11
-21.8197639644
 21
22.35
  0
LINE
  5
245
100
AcDbEntity
  8
0
100
AcDbLine
 62
7
  6
CONTINUOUS
 10
-21.8197639644
 20
-22.35
 11
-21.8197639644
 21
-23.2226497308
  0
LINE
  5
246
100
AcDbEntity
  8
0
100
AcDbLine
 62
7
  6
CONTINUOUS
 10
-20.8674550649
 20
-19.5
 11
-20.8674550649
 21
19.5
  0
LINE
  5
247
100
AcDbEntity
  8
0
100
AcDbLine
 62
7
  6
CONTINUOUS
 10
-20.85
 20
20.1990396502
 11
-20.85
 21
19.5
  0
LINE
  5
248
100
AcDbEntity
  8
0
100
AcDbLine
 62
7
  6
CONTINUOUS
 10
-20.85
 20
-19.5
 11
-20.85
 21
-20.1990396502
  0
LINE
  5
249
100
AcDbEntity
  8
0
100
AcDbLine
 62
7
  6
CONTINUOUS
 10
-19.75
 20
-0.636603
 11
-19.75
 21
-1.273716
  0
LINE
  5
24A
100
AcDbEntity
  8
0
100
AcDbLine
 62
7
  6
CONTINUOUS
 10
-19.75
 20
-2.430342
 11
-19.75
 21
-2.932449
  0
LINE
  5
24B
100
AcDbEntity
  8
0
100
AcDbLine
 62
7
  6
CONTINUOUS
 10
-19.75
 20
-3.8916
 11
-19.75
 21
-4.687991
  0
LINE
  5
24C
100
AcDbEntity
  8
0
100
AcDbLine
 62
7
  6
CONTINUOUS
 10
-19.75
 20
-5.830599
 11
-19.75
 21
-6.467712
  0
LINE
  5
24D
100
AcDbEntity
  8
0
100
AcDbLine
 62
7
  6
CONTINUOUS
 10
-19.75
 20
-8.566083
 11
-19.75
 21
-9.102812
  0
LINE
  5
24E
100
AcDbEntity
  8
0
100
AcDbLine
 62
7
  6
CONTINUOUS
 10
-19.75
 20
-10.4673822405
 11
-19.75
 21
-11.232418
  0
LINE
  5
24F
100
AcDbEntity
  8
0
100
AcDbLine
 62
7
  6
CONTINUOUS
 10
-19.5552360356
 20
23.2226497308
 11
-19.5552360356
 21
22.35
  0
LINE
  5
250
100
AcDbEntity
  8
0
100
AcDbLine
 62
7
  6
CONTINUOUS
 10
-19.5552360356
 20
-22.35
 11
-19.5552360356
 21
-23.2226497308
  0
LINE
  5
251
100
AcDbEntity
  8
0
100
AcDbLine
 62
7
  6
CONTINUOUS
 10
-19.55
 20
-24.2500034269
 11
-19.55
 21
-23.8
  0
LINE
  5
252
100
AcDbEntity
  8
0
100
AcDbLine
 62
7
  6
CONTINUOUS
 10
-19.55
 20
23.8
 11
-19.55
 21
24.2500034269
  0
LINE
  5
253
100
AcDbEntity
  8
0
100
AcDbLine
 62
7
  6
CONTINUOUS
 10
-19.5
 20
9.0416665077
 11
-19.5
 21
8.875
  0
LINE
  5
254
100
AcDbEntity
  8
0
100
AcDbLine
 62
7
  6
CONTINUOUS
 10
-19.5
 20
7.4166665077
 11
-19.5
 21
7.1666665077
  0
LINE
  5
255
100
AcDbEntity
  8
0
100
AcDbLine
 62
7
  6
CONTINUOUS
 10
-19.5
 20
3.5833332539
 11
-19.5
 21
3.3333333731
  0
LINE
  5
256
100
AcDbEntity
  8
0
100
AcDbLine
 62
7
  6
CONTINUOUS
 10
-19.5
 20
2.0
 11
-19.5
 21
1.75
  0
LINE
  5
257
100
AcDbEntity
  8
0
100
AcDbLine
 62
7
  6
CONTINUOUS
 10
-19.5
 20
-21.4
 11
-19.5
 21
-20.9
  0
LINE
  5
258
100
AcDbEntity
  8
0
100
AcDbLine
 62
7
  6
CONTINUOUS
 10
-19.5
 20
20.9
 11
-19.5
 21
21.4
  0
LINE
  5
259
100
AcDbEntity
  8
0
100
AcDbLine
 62
7
  6
CONTINUOUS
 10
-21.8197639644
 20
-23.2226497308
 11
-21.825
 21
-23.8
  0
LINE
  5
25A
100
AcDbEntity
  8
0
100
AcDbLine
 62
7
  6
CONTINUOUS
 10
-19.55
 20
23.8
 11
-19.5552360356
 21
23.2226497308
  0
LINE
  5
25B
100
AcDbEntity
  8
0
100
AcDbLine
 62
7
  6
CONTINUOUS
 10
-22.3325462644
 20
-18.1473460386
 11
-22.35
 21
-18.5
  0
LINE
  5
25C
100
AcDbEntity
  8
DRAFT
100
AcDbLine
 62
7
  6
CONTINUOUS
 10
-18.55
 20
19.7
 11
-18.7222338992
 21
16.220001889
  0
LINE
  5
25D
100
AcDbEntity
  8
DRAFT
100
AcDbLine
 62
7
  6
CONTINUOUS
 10
-18.720875119
 20
20.4503229513
 11
-18.6459955457
 21
20.9
  0
LINE
  5
25E
100
AcDbEntity
  8
0
100
AcDbLine
 62
7
  6
CONTINUOUS
 10
-19.4574468136
 20
9.2916665077
 11
-19.5
 21
9.0416665077
  0
LINE
  5
25F
100
AcDbEntity
  8
0
100
AcDbLine
 62
7
  6
CONTINUOUS
 10
-19.4574468136
 20
5.3333332539
 11
-19.5
 21
5.0833332539
  0
LINE
  5
260
100
AcDbEntity
  8
0
100
AcDbLine
 62
7
  6
CONTINUOUS
 10
-19.2872340679
 20
9.0
 11
-19.2446808815
 21
9.2083334923
  0
LINE
  5
261
100
AcDbEntity
  8
0
100
AcDbLine
 62
7
  6
CONTINUOUS
 10
-19.2872340679
 20
5.0833332539
 11
-19.2446808815
 21
5.2916667461
  0
LINE
  5
262
100
AcDbEntity
  8
0
100
AcDbLine
 62
7
  6
CONTINUOUS
 10
-15.285169
 20
17.921902
 11
-15.835146
 21
15.99478
  0
LINE
  5
263
100
AcDbEntity
  8
0
100
AcDbLine
 62
7
  6
CONTINUOUS
 10
-15.601097
 20
15.122199
 11
-14.70116
 21
17.921902
  0
LINE
  5
264
100
AcDbEntity
  8
0
100
AcDbLine
 62
7
  6
CONTINUOUS
 10
-19.3723404408
 20
9.4583334923
 11
-19.4574468136
 21
9.2916665077
  0
LINE
  5
265
100
AcDbEntity
  8
0
100
AcDbLine
 62
7
  6
CONTINUOUS
 10
-19.3297872543
 20
5.5416665077
 11
-19.4574468136
 21
5.3333332539
  0
LINE
  5
266
100
AcDbEntity
  8
0
100
AcDbLine
 62
7
  6
CONTINUOUS
 10
-19.2446808815
 20
9.2083334923
 11
-19.1595745087
 21
9.3333334923
  0
LINE
  5
267
100
AcDbEntity
  8
0
100
AcDbLine
 62
7
  6
CONTINUOUS
 10
-6.8845482821
 20
22.3057951078
 11
-6.8447639644
 21
22.35
  0
LINE
  5
268
100
AcDbEntity
  8
0
100
AcDbLine
 62
7
  6
CONTINUOUS
 10
-6.85
 20
23.8
 11
-6.8840616468
 21
23.7659383532
  0
LINE
  5
269
100
AcDbEntity
  8
DRAFT
100
AcDbLine
 62
7
  6
CONTINUOUS
 10
-15.2
 20
12.5
 11
-15.1768005047
 21
12.5231994953
  0
LINE
  5
26A
100
AcDbEntity
  8
0
100
AcDbLine
 62
7
  6
CONTINUOUS
 10
-19.2021276951
 20
9.625
 11
-19.3723404408
 21
9.4583334923
  0
LINE
  5
26B
100
AcDbEntity
  8
0
100
AcDbLine
 62
7
  6
CONTINUOUS
 10
3.1834304982
 20
21.4537354271
 11
3.0174550649
 21
21.4051134101
  0
LINE
  5
26C
100
AcDbEntity
  8
0
100
AcDbLine
 62
7
  6
CONTINUOUS
 10
-21.8197639644
 20
-23.2226497308
 11
-19.5552360356
 21
-23.2226497308
  0
LINE
  5
26D
100
AcDbEntity
  8
0
100
AcDbLine
 62
7
  6
CONTINUOUS
 10
21.8197639644
 20
-23.2226497308
 11
19.5552360356
 21
-23.2226497308
  0
LINE
  5
26E
100
AcDbEntity
  8
0
100
AcDbLine
 62
7
  6
CONTINUOUS
 10
0.6802360356
 20
-23.2226497308
 11
2.9447639644
 21
-23.2226497308
  0
LINE
  5
26F
100
AcDbEntity
  8
0
100
AcDbLine
 62
7
  6
CONTINUOUS
 10
-0.6802360356
 20
-23.2226497308
 11
-2.9447639644
 21
-23.2226497308
  0
LINE
  5
270
100
AcDbEntity
  8
0
100
AcDbLine
 62
7
  6
CONTINUOUS
 10
-21.8503805997
 20
-22.35
 11
-15.6552360356
 21
-22.35
  0
LINE
  5
271
100
AcDbEntity
  8
0
100
AcDbLine
 62
7
  6
CONTINUOUS
 10
-6.8447639644
 20
-22.35
 11
6.8447639644
 21
-22.35
  0
LINE
  5
272
100
AcDbEntity
  8
0
100
AcDbLine
 62
7
  6
CONTINUOUS
 10
15.6552360356
 20
-22.35
 11
21.8503805997
 21
-22.35
  0
LINE
  5
273
100
AcDbEntity
  8
0
100
AcDbLine
 62
7
  6
CONTINUOUS
 10
-21.8412794783
 20
-22.3441821702
 11
-18.5558178298
 21
-22.3441821702
  0
LINE
  5
274
100
AcDbEntity
  8
0
100
AcDbLine
 62
7
  6
CONTINUOUS
 10
-14.75
 20
-22.3441821702
 11
-14.25
 21
-22.3441821702
  0
LINE
  5
275
100
AcDbEntity
  8
0
100
AcDbLine
 62
7
  6
CONTINUOUS
 10
-8.25
 20
-22.3441821702
 11
-7.75
 21
-22.3441821702
  0
LINE
  5
276
100
AcDbEntity
  8
0
100
AcDbLine
 62
7
  6
CONTINUOUS
 10
7.75
 20
-22.3441821702
 11
8.25
 21
-22.3441821702
  0
LINE
  5
277
100
AcDbEntity
  8
0
100
AcDbLine
 62
7
  6
CONTINUOUS
 10
14.25
 20
-22.3441821702
 11
14.75
 21
-22.3441821702
  0
LINE
  5
278
100
AcDbEntity
  8
0
100
AcDbLine
 62
7
  6
CONTINUOUS
 10
18.5558178298
 20
-22.3441821702
 11
21.8412794783
 21
-22.3441821702
  0
LINE
  5
279
100
AcDbEntity
  8
0
100
AcDbLine
 62
7
  6
CONTINUOUS
 10
3.9507059952
 20
-22.3383643404
 11
-3.9507059952
 21
-22.3383643404
  0
LINE
  5
27A
100
AcDbEntity
  8
0
100
AcDbLine
 62
253
  6
CONTINUOUS
 10
-18.4905416262
 20
-22.2859700255
 11
-14.3373194485
 21
-22.2859700255
  0
LINE
  5
27B
100
AcDbEntity
  8
0
100
AcDbLine
 62
253
  6
CONTINUOUS
 10
-8.1626805515
 20
-22.2859700255
 11
-4.0094583738
 21
-22.2859700255
  0
LINE
  5
27C
100
AcDbEntity
  8
0
100
AcDbLine
 62
253
  6
CONTINUOUS
 10
4.0094583738
 20
-22.2859700255
 11
8.1626805515
 21
-22.2859700255
  0
LINE
  5
27D
100
AcDbEntity
  8
0
100
AcDbLine
 62
253
  6
CONTINUOUS
 10
14.3373194485
 20
-22.2859700255
 11
18.4905416262
 21
-22.2859700255
  0
LINE
  5
27E
100
AcDbEntity
  8
0
100
AcDbLine
 62
7
  6
CONTINUOUS
 10
8.25
 20
-21.7
 11
14.25
 21
-21.7
  0
LINE
  5
27F
100
AcDbEntity
  8
0
100
AcDbLine
 62
7
  6
CONTINUOUS
 10
-8.25
 20
-21.7
 11
-14.25
 21
-21.7
  0
LINE
  5
280
100
AcDbEntity
  8
0
100
AcDbLine
 62
7
  6
CONTINUOUS
 10
14.3262444645
 20
-21.6237555355
 11
8.1737555355
 21
-21.6237555355
  0
LINE
  5
281
100
AcDbEntity
  8
0
100
AcDbLine
 62
7
  6
CONTINUOUS
 10
-8.1737555355
 20
-21.6237555355
 11
-14.3262444645
 21
-21.6237555355
  0
LINE
  5
282
100
AcDbEntity
  8
0
100
AcDbLine
 62
253
  6
CONTINUOUS
 10
-18.8166456542
 20
-21.2859869487
 11
-14.3459955457
 21
-21.2859869487
  0
LINE
  5
283
100
AcDbEntity
  8
0
100
AcDbLine
 62
253
  6
CONTINUOUS
 10
-8.1540044543
 20
-21.2859869487
 11
-3.6833543458
 21
-21.2859869487
  0
LINE
  5
284
100
AcDbEntity
  8
0
100
AcDbLine
 62
253
  6
CONTINUOUS
 10
3.6833543458
 20
-21.2859869487
 11
8.1540044543
 21
-21.2859869487
  0
LINE
  5
285
100
AcDbEntity
  8
0
100
AcDbLine
 62
253
  6
CONTINUOUS
 10
14.3459955457
 20
-21.2859869487
 11
18.8166456542
 21
-21.2859869487
  0
LINE
  5
286
100
AcDbEntity
  8
DRAFT
100
AcDbLine
 62
7
  6
CONTINUOUS
 10
-18.8166456542
 20
-20.9959955457
 11
-18.55
 21
-20.9959955457
  0
LINE
  5
287
100
AcDbEntity
  8
DRAFT
100
AcDbLine
 62
7
  6
CONTINUOUS
 10
18.8166456542
 20
-20.9959955457
 11
18.55
 21
-20.9959955457
  0
LINE
  5
288
100
AcDbEntity
  8
DRAFT
100
AcDbLine
 62
7
  6
CONTINUOUS
 10
3.6833543458
 20
-20.9959955457
 11
3.95
 21
-20.9959955457
  0
LINE
  5
289
100
AcDbEntity
  8
DRAFT
100
AcDbLine
 62
7
  6
CONTINUOUS
 10
-3.6833543458
 20
-20.9959955457
 11
-3.95
 21
-20.9959955457
  0
LINE
  5
28A
100
AcDbEntity
  8
0
100
AcDbLine
 62
7
  6
CONTINUOUS
 10
-3.0174550649
 20
-20.9087268678
 11
3.0174550649
 21
-20.9087268678
  0
LINE
  5
28B
100
AcDbEntity
  8
0
100
AcDbLine
 62
7
  6
CONTINUOUS
 10
-20.1498936624
 20
-20.9
 11
-19.5
 21
-20.9
  0
LINE
  5
28C
100
AcDbEntity
  8
DRAFT
100
AcDbLine
 62
7
  6
CONTINUOUS
 10
-19.5
 20
-20.9
 11
-18.6459955457
 21
-20.9
  0
LINE
  5
28D
100
AcDbEntity
  8
DRAFT
100
AcDbLine
 62
7
  6
CONTINUOUS
 10
-3.8540044543
 20
-20.9
 11
3.8540044543
 21
-20.9
  0
LINE
  5
28E
100
AcDbEntity
  8
DRAFT
100
AcDbLine
 62
7
  6
CONTINUOUS
 10
18.6459955457
 20
-20.9
 11
19.5
 21
-20.9
  0
LINE
  5
28F
100
AcDbEntity
  8
0
100
AcDbLine
 62
7
  6
CONTINUOUS
 10
19.5
 20
-20.9
 11
20.1498936624
 21
-20.9
  0
LINE
  5
290
100
AcDbEntity
  8
0
100
AcDbLine
 62
7
  6
CONTINUOUS
 10
-14.3459955457
 20
-20.8
 11
-8.1540044543
 21
-20.8
  0
LINE
  5
291
100
AcDbEntity
  8
0
100
AcDbLine
 62
7
  6
CONTINUOUS
 10
8.1540044543
 20
-20.8
 11
14.3459955457
 21
-20.8
  0
LINE
  5
292
100
AcDbEntity
  8
DRAFT
100
AcDbLine
 62
7
  6
CONTINUOUS
 10
-20.0001231095
 20
-20.4503229513
 11
-18.720875119
 21
-20.4503229513
  0
LINE
  5
293
100
AcDbEntity
  8
DRAFT
100
AcDbLine
 62
7
  6
CONTINUOUS
 10
-3.779124881
 20
-20.4503229513
 11
3.779124881
 21
-20.4503229513
  0
LINE
  5
294
100
AcDbEntity
  8
DRAFT
100
AcDbLine
 62
7
  6
CONTINUOUS
 10
18.720875119
 20
-20.4503229513
 11
20.0001231095
 21
-20.4503229513
  0
LINE
  5
295
100
AcDbEntity
  8
DRAFT
100
AcDbLine
 62
7
  6
CONTINUOUS
 10
17.75
 20
-20.0
 11
4.75
 21
-20.0
  0
LINE
  5
296
100
AcDbEntity
  8
DRAFT
100
AcDbLine
 62
7
  6
CONTINUOUS
 10
-4.75
 20
-20.0
 11
-17.75
 21
-20.0
  0
LINE
  5
297
100
AcDbEntity
  8
DRAFT
100
AcDbLine
 62
7
  6
CONTINUOUS
 10
-17.5789056093
 20
-19.8289056093
 11
-4.9210943907
 21
-19.8289056093
  0
LINE
  5
298
100
AcDbEntity
  8
DRAFT
100
AcDbLine
 62
7
  6
CONTINUOUS
 10
4.9210943907
 20
-19.8289056093
 11
17.5789056093
 21
-19.8289056093
  0
LINE
  5
299
100
AcDbEntity
  8
DRAFT
100
AcDbLine
 62
7
  6
CONTINUOUS
 10
18.55
 20
-19.7
 11
17.75
 21
-19.7
  0
LINE
  5
29A
100
AcDbEntity
  8
DRAFT
100
AcDbLine
 62
7
  6
CONTINUOUS
 10
4.75
 20
-19.7
 11
3.95
 21
-19.7
  0
LINE
  5
29B
100
AcDbEntity
  8
DRAFT
100
AcDbLine
 62
7
  6
CONTINUOUS
 10
-3.95
 20
-19.7
 11
-4.75
 21
-19.7
  0
LINE
  5
29C
100
AcDbEntity
  8
DRAFT
100
AcDbLine
 62
7
  6
CONTINUOUS
 10
-17.75
 20
-19.7
 11
-18.55
 21
-19.7
  0
LINE
  5
29D
100
AcDbEntity
  8
0
100
AcDbLine
 62
7
  6
CONTINUOUS
 10
-20.85
 20
-19.5
 11
-21.4
 21
-19.5
  0
LINE
  5
29E
100
AcDbEntity
  8
0
100
AcDbLine
 62
7
  6
CONTINUOUS
 10
20.85
 20
-19.5
 11
21.4
 21
-19.5
  0
LINE
  5
29F
100
AcDbEntity
  8
0
100
AcDbLine
 62
7
  6
CONTINUOUS
 10
3.1834304982
 20
-21.4537354271
 11
3.0174550649
 21
-21.4051134101
  0
LINE
  5
2A0
100
AcDbEntity
  8
0
100
AcDbLine
 62
7
  6
CONTINUOUS
 10
-6.85
 20
-23.8
 11
-6.8840616468
 21
-23.7659383532
  0
LINE
  5
2A1
100
AcDbEntity
  8
DRAFT
100
AcDbLine
 62
7
  6
CONTINUOUS
 10
-15.2
 20
-12.5
 11
-15.1768005047
 21
-12.5231994953
  0
LINE
  5
2A2
100
AcDbEntity
  8
0
100
AcDbLine
 62
7
  6
CONTINUOUS
 10
-6.8447639644
 20
-22.35
 11
-6.8845482821
 21
-22.3057951078
  0
LINE
  5
2A3
100
AcDbEntity
  8
DRAFT
100
AcDbLine
 62
7
  6
CONTINUOUS
 10
-18.6459955457
 20
-20.9
 11
-18.720875119
 21
-20.4503229513
  0
LINE
  5
2A4
100
AcDbEntity
  8
DRAFT
100
AcDbLine
 62
7
  6
CONTINUOUS
 10
-17.75
 20
19.7
 11
-17.5777661008
 21
16.220001889
  0
LINE
  5
2A5
100
AcDbEntity
  8
0
100
AcDbLine
 62
7
  6
CONTINUOUS
 10
-15.65
 20
-23.8
 11
-15.6532134755
 21
-23.4456668619
  0
LINE
  5
2A6
100
AcDbEntity
  8
0
100
AcDbLine
 62
7
  6
CONTINUOUS
 10
-19.334541
 20
-10.695689
 11
-19.334541
 21
-10.3825719063
  0
LINE
  5
2A7
100
AcDbEntity
  8
0
100
AcDbLine
 62
253
  6
CONTINUOUS
 10
-19.3165695018
 20
-21.4537354271
 11
-19.3165695018
 21
-20.9917082642
  0
LINE
  5
2A8
100
AcDbEntity
  8
0
100
AcDbLine
 62
253
  6
CONTINUOUS
 10
-19.3165695018
 20
20.9917082642
 11
-19.3165695018
 21
21.4537354271
  0
LINE
  5
2A9
100
AcDbEntity
  8
0
100
AcDbLine
 62
7
  6
CONTINUOUS
 10
-19.2872340679
 20
8.8333334923
 11
-19.2872340679
 21
9.0
  0
LINE
  5
2AA
100
AcDbEntity
  8
0
100
AcDbLine
 62
7
  6
CONTINUOUS
 10
-19.0319149494
 20
8.2083334923
 11
-19.0319149494
 21
8.4166665077
  0
LINE
  5
2AB
100
AcDbEntity
  8
0
100
AcDbLine
 62
253
  6
CONTINUOUS
 10
-18.8166456542
 20
-21.2859869487
 11
-18.8166456542
 21
-20.9959955457
  0
LINE
  5
2AC
100
AcDbEntity
  8
0
100
AcDbLine
 62
253
  6
CONTINUOUS
 10
-18.8166456542
 20
20.9959955457
 11
-18.8166456542
 21
21.2859869487
  0
LINE
  5
2AD
100
AcDbEntity
  8
0
100
AcDbLine
 62
7
  6
CONTINUOUS
 10
-18.628185
 20
-10.3825687918
 11
-18.628185
 21
-10.695689
  0
LINE
  5
2AE
100
AcDbEntity
  8
DRAFT
100
AcDbLine
 62
7
  6
CONTINUOUS
 10
-18.55
 20
20.9959955457
 11
-18.55
 21
19.7
  0
LINE
  5
2AF
100
AcDbEntity
  8
DRAFT
100
AcDbLine
 62
7
  6
CONTINUOUS
 10
-18.55
 20
-19.7
 11
-18.55
 21
-20.9959955457
  0
LINE
  5
2B0
100
AcDbEntity
  8
0
100
AcDbLine
 62
7
  6
CONTINUOUS
 10
-18.3510638475
 20
7.8333334923
 11
-18.3510638475
 21
7.4166665077
  0
LINE
  5
2B1
100
AcDbEntity
  8
0
100
AcDbLine
 62
7
  6
CONTINUOUS
 10
-18.3510638475
 20
7.1666665077
 11
-18.3510638475
 21
6.4583334923
  0
LINE
  5
2B2
100
AcDbEntity
  8
0
100
AcDbLine
 62
7
  6
CONTINUOUS
 10
-18.3510638475
 20
4.0
 11
-18.3510638475
 21
3.5833332539
  0
LINE
  5
2B3
100
AcDbEntity
  8
0
100
AcDbLine
 62
7
  6
CONTINUOUS
 10
-18.3510638475
 20
3.3333333731
 11
-18.3510638475
 21
2.625
  0
LINE
  5
2B4
100
AcDbEntity
  8
0
100
AcDbLine
 62
7
  6
CONTINUOUS
 10
-18.212725
 20
-10.695689
 11
-18.212725
 21
-10.4673986442
  0
LINE
  5
2B5
100
AcDbEntity
  8
0
100
AcDbLine
 62
7
  6
CONTINUOUS
 10
-18.19532
 20
-0.622868
 11
-18.19532
 21
-1.339573
  0
LINE
  5
2B6
100
AcDbEntity
  8
0
100
AcDbLine
 62
7
  6
CONTINUOUS
 10
-18.19532
 20
-5.816769
 11
-18.19532
 21
-6.533568
  0
LINE
  5
2B7
100
AcDbEntity
  8
0
100
AcDbLine
 62
7
  6
CONTINUOUS
 10
-18.0957446694
 20
2.3333333135
 11
-18.0957446694
 21
3.3333333731
  0
LINE
  5
2B8
100
AcDbEntity
  8
0
100
AcDbLine
 62
7
  6
CONTINUOUS
 10
-18.0957446694
 20
3.5833332539
 11
-18.0957446694
 21
4.0
  0
LINE
  5
2B9
100
AcDbEntity
  8
0
100
AcDbLine
 62
7
  6
CONTINUOUS
 10
-18.0957446694
 20
6.1666665077
 11
-18.0957446694
 21
7.1666665077
  0
LINE
  5
2BA
100
AcDbEntity
  8
0
100
AcDbLine
 62
7
  6
CONTINUOUS
 10
-18.0957446694
 20
7.4166665077
 11
-18.0957446694
 21
7.8333334923
  0
LINE
  5
2BB
100
AcDbEntity
  8
0
100
AcDbLine
 62
7
  6
CONTINUOUS
 10
-17.779861
 20
-6.672055
 11
-17.779861
 21
-5.681764
  0
LINE
  5
2BC
100
AcDbEntity
  8
0
100
AcDbLine
 62
7
  6
CONTINUOUS
 10
-17.779861
 20
-1.478059
 11
-17.779861
 21
-0.487768
  0
LINE
  5
2BD
100
AcDbEntity
  8
DRAFT
100
AcDbLine
 62
7
  6
CONTINUOUS
 10
-17.75
 20
-20.0
 11
-17.75
 21
-19.7
  0
LINE
  5
2BE
100
AcDbEntity
  8
DRAFT
100
AcDbLine
 62
7
  6
CONTINUOUS
 10
-17.75
 20
19.7
 11
-17.75
 21
20.0
  0
LINE
  5
2BF
100
AcDbEntity
  8
0
100
AcDbLine
 62
7
  6
CONTINUOUS
 10
-17.7127659619
 20
9.6666669846
 11
-17.7127659619
 21
8.5
  0
LINE
  5
2C0
100
AcDbEntity
  8
0
100
AcDbLine
 62
7
  6
CONTINUOUS
 10
-17.665459
 20
-7.641084
 11
-17.665459
 21
-8.566083
  0
LINE
  5
2C1
100
AcDbEntity
  8
0
100
AcDbLine
 62
7
  6
CONTINUOUS
 10
-17.5
 20
1.75
 11
-17.5
 21
2.0
  0
LINE
  5
2C2
100
AcDbEntity
  8
0
100
AcDbLine
 62
7
  6
CONTINUOUS
 10
-17.5
 20
3.3333333731
 11
-17.5
 21
3.5833332539
  0
LINE
  5
2C3
100
AcDbEntity
  8
0
100
AcDbLine
 62
7
  6
CONTINUOUS
 10
-17.5
 20
7.1666665077
 11
-17.5
 21
7.4166665077
  0
LINE
  5
2C4
100
AcDbEntity
  8
0
100
AcDbLine
 62
7
  6
CONTINUOUS
 10
-17.5
 20
8.1666665077
 11
-17.5
 21
9.6666669846
  0
LINE
  5
2C5
100
AcDbEntity
  8
0
100
AcDbLine
 62
7
  6
CONTINUOUS
 10
-17.25
 20
-11.232418
 11
-17.25
 21
-10.695689
  0
LINE
  5
2C6
100
AcDbEntity
  8
0
100
AcDbLine
 62
7
  6
CONTINUOUS
 10
-17.25
 20
-9.102812
 11
-17.25
 21
-7.641084
  0
LINE
  5
2C7
100
AcDbEntity
  8
0
100
AcDbLine
 62
7
  6
CONTINUOUS
 10
-17.25
 20
-7.371449
 11
-17.25
 21
-6.858993
  0
LINE
  5
2C8
100
AcDbEntity
  8
0
100
AcDbLine
 62
7
  6
CONTINUOUS
 10
-17.25
 20
-5.501693
 11
-17.25
 21
-4.961483
  0
LINE
  5
2C9
100
AcDbEntity
  8
0
100
AcDbLine
 62
7
  6
CONTINUOUS
 10
-17.25
 20
-4.687991
 11
-17.25
 21
-4.185884
  0
LINE
  5
2CA
100
AcDbEntity
  8
0
100
AcDbLine
 62
7
  6
CONTINUOUS
 10
-17.25
 20
-3.192112
 11
-17.25
 21
-2.430342
  0
LINE
  5
2CB
100
AcDbEntity
  8
0
100
AcDbLine
 62
7
  6
CONTINUOUS
 10
-17.25
 20
-2.177548
 11
-17.25
 21
-1.665091
  0
LINE
  5
2CC
100
AcDbEntity
  8
0
100
AcDbLine
 62
7
  6
CONTINUOUS
 10
-17.25
 20
-0.307604
 11
-17.25
 21
0.232418
  0
LINE
  5
2CD
100
AcDbEntity
  8
DRAFT
100
AcDbLine
 62
7
  6
CONTINUOUS
 10
-16.0
 20
-12.5
 11
-16.0
 21
12.5
  0
LINE
  5
2CE
100
AcDbEntity
  8
0
100
AcDbLine
 62
7
  6
CONTINUOUS
 10
-15.6552360356
 20
-22.35
 11
-15.6552360356
 21
-22.85711136
  0
LINE
  5
2CF
100
AcDbEntity
  8
0
100
AcDbLine
 62
7
  6
CONTINUOUS
 10
-15.6552360356
 20
22.35
 11
-15.6552360356
 21
22.85711136
  0
LINE
  5
2D0
100
AcDbEntity
  8
0
100
AcDbLine
 62
7
  6
CONTINUOUS
 10
-15.6159657686
 20
23.4906890903
 11
-15.6159657686
 21
22.8093109097
  0
LINE
  5
2D1
100
AcDbEntity
  8
0
100
AcDbLine
 62
7
  6
CONTINUOUS
 10
-15.6159657686
 20
-23.4906890903
 11
-15.6159657686
 21
-22.8093109097
  0
LINE
  5
2D2
100
AcDbEntity
  8
0
100
AcDbLine
 62
253
  6
CONTINUOUS
 10
-15.6154517179
 20
-22.3057951078
 11
-15.6154517179
 21
-23.7562325953
  0
LINE
  5
2D3
100
AcDbEntity
  8
0
100
AcDbLine
 62
253
  6
CONTINUOUS
 10
-15.6154517179
 20
22.3057951078
 11
-15.6154517179
 21
23.7562325953
  0
LINE
  5
2D4
100
AcDbEntity
  8
0
100
AcDbLine
 62
7
  6
CONTINUOUS
 10
-15.6532134755
 20
23.4456668619
 11
-15.65
 21
23.8
  0
LINE
  5
2D5
100
AcDbEntity
  8
DRAFT
100
AcDbLine
 62
7
  6
CONTINUOUS
 10
-17.75
 20
-19.7
 11
-17.5777661008
 21
-16.220001889
  0
LINE
  5
2D6
100
AcDbEntity
  8
0
100
AcDbLine
 62
7
  6
CONTINUOUS
 10
-17.5425531901
 20
4.8333332539
 11
-17.5
 21
5.0833332539
  0
LINE
  5
2D7
100
AcDbEntity
  8
0
100
AcDbLine
 62
7
  6
CONTINUOUS
 10
-17.7127659619
 20
5.0833332539
 11
-17.7553191483
 21
4.875
  0
LINE
  5
2D8
100
AcDbEntity
  8
0
100
AcDbLine
 62
7
  6
CONTINUOUS
 10
-11.585906
 20
17.921902
 11
-12.170314
 21
16.367498
  0
LINE
  5
2D9
100
AcDbEntity
  8
0
100
AcDbLine
 62
7
  6
CONTINUOUS
 10
-12.132524
 20
15.122199
 11
-11.437663
 21
16.942731
  0
LINE
  5
2DA
100
AcDbEntity
  8
0
100
AcDbLine
 62
7
  6
CONTINUOUS
 10
-17.6702127606
 20
4.625
 11
-17.5425531901
 21
4.8333332539
  0
LINE
  5
2DB
100
AcDbEntity
  8
0
100
AcDbLine
 62
7
  6
CONTINUOUS
 10
-19.2446808815
 20
5.2916667461
 11
-19.1595745087
 21
5.4166667461
  0
LINE
  5
2DC
100
AcDbEntity
  8
0
100
AcDbLine
 62
7
  6
CONTINUOUS
 10
-17.7553191483
 20
4.875
 11
-17.8404255211
 21
4.75
  0
LINE
  5
2DD
100
AcDbEntity
  8
0
100
AcDbLine
 62
7
  6
CONTINUOUS
 10
-19.2021276951
 20
5.6666665077
 11
-19.3297872543
 21
5.5416665077
  0
LINE
  5
2DE
100
AcDbEntity
  8
0
100
AcDbLine
 62
7
  6
CONTINUOUS
 10
-17.7978723347
 20
4.5
 11
-17.6702127606
 21
4.625
  0
LINE
  5
2DF
100
AcDbEntity
  8
0
100
AcDbLine
 62
7
  6
CONTINUOUS
 10
-4.0094583738
 20
22.2859700255
 11
-3.9507059952
 21
22.3383643404
  0
LINE
  5
2E0
100
AcDbEntity
  8
0
100
AcDbLine
 62
7
  6
CONTINUOUS
 10
-19.1595745087
 20
9.3333334923
 11
-19.0319149494
 21
9.4166665077
  0
LINE
  5
2E1
100
AcDbEntity
  8
0
100
AcDbLine
 62
7
  6
CONTINUOUS
 10
7.6932296664
 20
23.7659383532
 11
7.75
 21
23.8
  0
LINE
  5
2E2
100
AcDbEntity
  8
0
100
AcDbLine
 62
7
  6
CONTINUOUS
 10
3.1834304982
 20
20.9917082642
 11
3.0174550649
 21
20.9087268678
  0
LINE
  5
2E3
100
AcDbEntity
  8
ASSI
100
AcDbLine
 62
7
  6
CONTINUOUS
 10
7.046068
 20
-18.470433
 11
7.958087
 21
-18.470433
  0
LINE
  5
2E4
100
AcDbEntity
  8
ASSI
100
AcDbLine
 62
7
  6
CONTINUOUS
 10
7.958087
 20
-18.149006
 11
7.673343
 21
-18.149006
  0
LINE
  5
2E5
100
AcDbEntity
  8
ASSI
100
AcDbLine
 62
7
  6
CONTINUOUS
 10
7.330922
 20
-18.149006
 11
7.046068
 21
-18.149006
  0
LINE
  5
2E6
100
AcDbEntity
  8
0
100
AcDbLine
 62
7
  6
CONTINUOUS
 10
22.3849101299
 20
-18.1473460386
 11
22.3325462644
 21
-18.1473460386
  0
LINE
  5
2E7
100
AcDbEntity
  8
0
100
AcDbLine
 62
7
  6
CONTINUOUS
 10
-22.3849101299
 20
-18.1473460386
 11
-22.3325462644
 21
-18.1473460386
  0
LINE
  5
2E8
100
AcDbEntity
  8
ASSI
100
AcDbLine
 62
7
  6
CONTINUOUS
 10
15.157055
 20
-16.875
 11
16.617556
 21
-16.875
  0
LINE
  5
2E9
100
AcDbEntity
  8
DRAFT
100
AcDbLine
 62
7
  6
CONTINUOUS
 10
-18.7222338992
 20
-16.220001889
 11
-17.5777661008
 21
-16.220001889
  0
LINE
  5
2EA
100
AcDbEntity
  8
DRAFT
100
AcDbLine
 62
7
  6
CONTINUOUS
 10
-4.9222338992
 20
-16.220001889
 11
-3.7777661008
 21
-16.220001889
  0
LINE
  5
2EB
100
AcDbEntity
  8
DRAFT
100
AcDbLine
 62
7
  6
CONTINUOUS
 10
3.7777661008
 20
-16.220001889
 11
4.9222338992
 21
-16.220001889
  0
LINE
  5
2EC
100
AcDbEntity
  8
DRAFT
100
AcDbLine
 62
7
  6
CONTINUOUS
 10
17.5777661008
 20
-16.220001889
 11
18.7222338992
 21
-16.220001889
  0
LINE
  5
2ED
100
AcDbEntity
  8
ASSI
100
AcDbLine
 62
7
  6
CONTINUOUS
 10
16.617556
 20
-16.125
 11
15.157051888
 21
-16.125
  0
LINE
  5
2EE
100
AcDbEntity
  8
ASSI
100
AcDbLine
 62
7
  6
CONTINUOUS
 10
7.056565
 20
-15.865424
 11
7.330922
 21
-15.865424
  0
LINE
  5
2EF
100
AcDbEntity
  8
ASSI
100
AcDbLine
 62
7
  6
CONTINUOUS
 10
7.673343
 20
-15.865424
 11
7.94759
 21
-15.865424
  0
LINE
  5
2F0
100
AcDbEntity
  8
ASSI
100
AcDbLine
 62
7
  6
CONTINUOUS
 10
7.94759
 20
-15.542229
 11
7.056565
 21
-15.542229
  0
LINE
  5
2F1
100
AcDbEntity
  8
0
100
AcDbLine
 62
7
  6
CONTINUOUS
 10
3.1834304982
 20
-20.9917082642
 11
3.0174550649
 21
-20.9087268678
  0
LINE
  5
2F2
100
AcDbEntity
  8
0
100
AcDbLine
 62
7
  6
CONTINUOUS
 10
7.6932296664
 20
-23.7659383532
 11
7.75
 21
-23.8
  0
LINE
  5
2F3
100
AcDbEntity
  8
0
100
AcDbLine
 62
7
  6
CONTINUOUS
 10
-4.0094583738
 20
-22.2859700255
 11
-3.9507059952
 21
-22.3383643404
  0
LINE
  5
2F4
100
AcDbEntity
  8
DRAFT
100
AcDbLine
 62
7
  6
CONTINUOUS
 10
-4.75
 20
-20.0
 11
-4.9210943907
 21
-19.8289056093
  0
LINE
  5
2F5
100
AcDbEntity
  8
0
100
AcDbLine
 62
7
  6
CONTINUOUS
 10
-19.2446808815
 20
4.875
 11
-19.2872340679
 21
5.0833332539
  0
LINE
  5
2F6
100
AcDbEntity
  8
0
100
AcDbLine
 62
7
  6
CONTINUOUS
 10
-19.2446808815
 20
8.625
 11
-19.2872340679
 21
8.8333334923
  0
LINE
  5
2F7
100
AcDbEntity
  8
0
100
AcDbLine
 62
7
  6
CONTINUOUS
 10
-17.7553191483
 20
5.2916667461
 11
-17.7127659619
 21
5.0833332539
  0
LINE
  5
2F8
100
AcDbEntity
  8
0
100
AcDbLine
 62
7
  6
CONTINUOUS
 10
-19.5
 20
5.0833332539
 11
-19.4574468136
 21
4.8333332539
  0
LINE
  5
2F9
100
AcDbEntity
  8
0
100
AcDbLine
 62
7
  6
CONTINUOUS
 10
-17.5
 20
5.0833332539
 11
-17.5425531901
 21
5.3333332539
  0
LINE
  5
2FA
100
AcDbEntity
  8
0
100
AcDbLine
 62
7
  6
CONTINUOUS
 10
-19.5
 20
8.875
 11
-19.4574468136
 21
8.5833334923
  0
LINE
  5
2FB
100
AcDbEntity
  8
0
100
AcDbLine
 62
7
  6
CONTINUOUS
 10
-14.3262444645
 20
-21.6237555355
 11
-14.3459955457
 21
-20.8
  0
LINE
  5
2FC
100
AcDbEntity
  8
DRAFT
100
AcDbLine
 62
7
  6
CONTINUOUS
 10
-15.2
 20
12.5
 11
-15.2
 21
4.8
  0
LINE
  5
2FD
100
AcDbEntity
  8
DRAFT
100
AcDbLine
 62
7
  6
CONTINUOUS
 10
-15.2
 20
-12.5
 11
-15.2
 21
-4.8
  0
LINE
  5
2FE
100
AcDbEntity
  8
DRAFT
100
AcDbLine
 62
7
  6
CONTINUOUS
 10
-15.2
 20
-4.0
 11
-15.2
 21
4.0
  0
LINE
  5
2FF
100
AcDbEntity
  8
0
100
AcDbLine
 62
253
  6
CONTINUOUS
 10
-14.8075937104
 20
-22.3057869048
 11
-14.8075937104
 21
-23.755948138
  0
LINE
  5
300
100
AcDbEntity
  8
0
100
AcDbLine
 62
253
  6
CONTINUOUS
 10
-14.8075937104
 20
22.3057869048
 11
-14.8075937104
 21
23.755948138
  0
LINE
  5
301
100
AcDbEntity
  8
0
100
AcDbLine
 62
7
  6
CONTINUOUS
 10
-14.75
 20
23.8
 11
-14.75
 21
22.3441821702
  0
LINE
  5
302
100
AcDbEntity
  8
0
100
AcDbLine
 62
7
  6
CONTINUOUS
 10
-14.75
 20
-23.8
 11
-14.75
 21
-22.3441821702
  0
LINE
  5
303
100
AcDbEntity
  8
0
100
AcDbLine
 62
7
  6
CONTINUOUS
 10
-14.484285
 20
17.92207
 11
-14.484285
 21
15.122199
  0
LINE
  5
304
100
AcDbEntity
  8
0
100
AcDbLine
 62
7
  6
CONTINUOUS
 10
-14.3459955457
 20
-21.2859869487
 11
-14.3459955457
 21
-20.8
  0
LINE
  5
305
100
AcDbEntity
  8
0
100
AcDbLine
 62
7
  6
CONTINUOUS
 10
-14.3459955457
 20
20.8
 11
-14.3459955457
 21
21.2859869487
  0
LINE
  5
306
100
AcDbEntity
  8
0
100
AcDbLine
 62
7
  6
CONTINUOUS
 10
-14.25
 20
22.3441821702
 11
-14.25
 21
21.7
  0
LINE
  5
307
100
AcDbEntity
  8
0
100
AcDbLine
 62
7
  6
CONTINUOUS
 10
-14.25
 20
-21.7
 11
-14.25
 21
-22.3441821702
  0
LINE
  5
308
100
AcDbEntity
  8
0
100
AcDbLine
 62
7
  6
CONTINUOUS
 10
-13.899877
 20
15.122199
 11
-13.899877
 21
17.92207
  0
LINE
  5
309
100
AcDbEntity
  8
0
100
AcDbLine
 62
7
  6
CONTINUOUS
 10
-14.3459955457
 20
20.8
 11
-14.3262444645
 21
21.6237555355
  0
LINE
  5
30A
100
AcDbEntity
  8
0
100
AcDbLine
 62
7
  6
CONTINUOUS
 10
-13.026183
 20
15.122199
 11
-12.900068
 21
16.950353
  0
LINE
  5
30B
100
AcDbEntity
  8
0
100
AcDbLine
 62
7
  6
CONTINUOUS
 10
-13.332475
 20
17.921902
 11
-13.585272
 21
15.122199
  0
LINE
  5
30C
100
AcDbEntity
  8
0
100
AcDbLine
 62
7
  6
CONTINUOUS
 10
-9.795249
 20
16.113609
 11
-9.504263
 21
17.152615
  0
LINE
  5
30D
100
AcDbEntity
  8
0
100
AcDbLine
 62
7
  6
CONTINUOUS
 10
-10.076053
 20
15.122199
 11
-9.914793
 21
15.681119
  0
LINE
  5
30E
100
AcDbEntity
  8
0
100
AcDbLine
 62
7
  6
CONTINUOUS
 10
-9.775955
 20
17.921902
 11
-10.65412
 21
15.122199
  0
LINE
  5
30F
100
AcDbEntity
  8
0
100
AcDbLine
 62
7
  6
CONTINUOUS
 10
-20.85
 20
-20.1990396502
 11
-20.6997346818
 21
-19.7478770987
  0
LINE
  5
310
100
AcDbEntity
  8
0
100
AcDbLine
 62
7
  6
CONTINUOUS
 10
-20.0001231095
 20
-20.4503229513
 11
-20.1498936624
 21
-20.9
  0
LINE
  5
311
100
AcDbEntity
  8
DRAFT
100
AcDbLine
 62
7
  6
CONTINUOUS
 10
-15.2
 20
4.8
 11
-15.1697817668
 21
4.8302182332
  0
LINE
  5
312
100
AcDbEntity
  8
0
100
AcDbLine
 62
7
  6
CONTINUOUS
 10
3.0174550649
 20
21.4051134101
 11
3.9507059952
 21
22.3383643404
  0
LINE
  5
313
100
AcDbEntity
  8
DRAFT
100
AcDbLine
 62
7
  6
CONTINUOUS
 10
-4.8
 20
12.5
 11
-4.7768005047
 21
12.5231994953
  0
LINE
  5
314
100
AcDbEntity
  8
DRAFT
100
AcDbLine
 62
7
  6
CONTINUOUS
 10
3.95
 20
20.9959955457
 11
3.8540044543
 21
20.9
  0
LINE
  5
315
100
AcDbEntity
  8
0
100
AcDbLine
 62
7
  6
CONTINUOUS
 10
7.75
 20
22.3441821702
 11
7.6924062896
 21
22.3057869048
  0
LINE
  5
316
100
AcDbEntity
  8
0
100
AcDbLine
 62
7
  6
CONTINUOUS
 10
8.1626805515
 20
22.2859700255
 11
8.25
 21
22.3441821702
  0
LINE
  5
317
100
AcDbEntity
  8
0
100
AcDbLine
 62
7
  6
CONTINUOUS
 10
-19.1595745087
 20
5.4166667461
 11
-18.904255271
 21
5.5833334923
  0
LINE
  5
318
100
AcDbEntity
  8
0
100
AcDbLine
 62
7
  6
CONTINUOUS
 10
-17.8404255211
 20
4.75
 11
-18.0957446694
 21
4.5833332539
  0
LINE
  5
319
100
AcDbEntity
  8
0
100
AcDbLine
 62
7
  6
CONTINUOUS
 10
-19.0319149494
 20
5.75
 11
-19.2021276951
 21
5.6666665077
  0
LINE
  5
31A
100
AcDbEntity
  8
0
100
AcDbLine
 62
7
  6
CONTINUOUS
 10
-17.9680851102
 20
4.4166667461
 11
-17.7978723347
 21
4.5
  0
LINE
  5
31B
100
AcDbEntity
  8
DRAFT
100
AcDbLine
 62
7
  6
CONTINUOUS
 10
-16.0231994953
 20
-12.5231994953
 11
-15.1768005047
 21
-12.5231994953
  0
LINE
  5
31C
100
AcDbEntity
  8
DRAFT
100
AcDbLine
 62
7
  6
CONTINUOUS
 10
-5.6231994953
 20
-12.5231994953
 11
-4.7768005047
 21
-12.5231994953
  0
LINE
  5
31D
100
AcDbEntity
  8
DRAFT
100
AcDbLine
 62
7
  6
CONTINUOUS
 10
4.7768005047
 20
-12.5231994953
 11
5.6231994953
 21
-12.5231994953
  0
LINE
  5
31E
100
AcDbEntity
  8
DRAFT
100
AcDbLine
 62
7
  6
CONTINUOUS
 10
15.1768005047
 20
-12.5231994953
 11
16.0231994953
 21
-12.5231994953
  0
LINE
  5
31F
100
AcDbEntity
  8
DRAFT
100
AcDbLine
 62
7
  6
CONTINUOUS
 10
-16.0
 20
-12.5
 11
-15.2
 21
-12.5
  0
LINE
  5
320
100
AcDbEntity
  8
DRAFT
100
AcDbLine
 62
7
  6
CONTINUOUS
 10
16.0
 20
-12.5
 11
15.2
 21
-12.5
  0
LINE
  5
321
100
AcDbEntity
  8
DRAFT
100
AcDbLine
 62
7
  6
CONTINUOUS
 10
-5.6
 20
-12.5
 11
-4.8
 21
-12.5
  0
LINE
  5
322
100
AcDbEntity
  8
DRAFT
100
AcDbLine
 62
7
  6
CONTINUOUS
 10
4.8
 20
-12.5
 11
5.6
 21
-12.5
  0
LINE
  5
323
100
AcDbEntity
  8
0
100
AcDbLine
 62
7
  6
CONTINUOUS
 10
-18.19532
 20
-6.533568
 11
-19.272277
 21
-6.162866
  0
LINE
  5
324
100
AcDbEntity
  8
0
100
AcDbLine
 62
7
  6
CONTINUOUS
 10
-17.25
 20
-6.858993
 11
-17.779861
 21
-6.672055
  0
LINE
  5
325
100
AcDbEntity
  8
0
100
AcDbLine
 62
7
  6
CONTINUOUS
 10
-19.75
 20
-6.467712
 11
-17.25
 21
-7.371449
  0
LINE
  5
326
100
AcDbEntity
  8
0
100
AcDbLine
 62
7
  6
CONTINUOUS
 10
7.75
 20
-22.3441821702
 11
7.6924062896
 21
-22.3057869048
  0
LINE
  5
327
100
AcDbEntity
  8
0
100
AcDbLine
 62
7
  6
CONTINUOUS
 10
8.1626805515
 20
-22.2859700255
 11
8.25
 21
-22.3441821702
  0
LINE
  5
328
100
AcDbEntity
  8
DRAFT
100
AcDbLine
 62
7
  6
CONTINUOUS
 10
-15.2
 20
-4.8
 11
-15.1697817668
 21
-4.8302182332
  0
LINE
  5
329
100
AcDbEntity
  8
0
100
AcDbLine
 62
7
  6
CONTINUOUS
 10
3.9507059952
 20
-22.3383643404
 11
3.0174550649
 21
-21.4051134101
  0
LINE
  5
32A
100
AcDbEntity
  8
DRAFT
100
AcDbLine
 62
7
  6
CONTINUOUS
 10
-4.8
 20
-12.5
 11
-4.7768005047
 21
-12.5231994953
  0
LINE
  5
32B
100
AcDbEntity
  8
DRAFT
100
AcDbLine
 62
7
  6
CONTINUOUS
 10
3.95
 20
-20.9959955457
 11
3.8540044543
 21
-20.9
  0
LINE
  5
32C
100
AcDbEntity
  8
0
100
AcDbLine
 62
7
  6
CONTINUOUS
 10
-19.1595745087
 20
4.75
 11
-19.2446808815
 21
4.875
  0
LINE
  5
32D
100
AcDbEntity
  8
0
100
AcDbLine
 62
7
  6
CONTINUOUS
 10
-17.8404255211
 20
5.4166667461
 11
-17.7553191483
 21
5.2916667461
  0
LINE
  5
32E
100
AcDbEntity
  8
0
100
AcDbLine
 62
7
  6
CONTINUOUS
 10
-19.4574468136
 20
4.8333332539
 11
-19.3297872543
 21
4.625
  0
LINE
  5
32F
100
AcDbEntity
  8
0
100
AcDbLine
 62
7
  6
CONTINUOUS
 10
-17.5425531901
 20
5.3333332539
 11
-17.6702127606
 21
5.5416665077
  0
LINE
  5
330
100
AcDbEntity
  8
0
100
AcDbLine
 62
7
  6
CONTINUOUS
 10
-19.4574468136
 20
8.5833334923
 11
-19.3723404408
 21
8.4166665077
  0
LINE
  5
331
100
AcDbEntity
  8
0
100
AcDbLine
 62
7
  6
CONTINUOUS
 10
-20.6997346818
 20
19.7478770987
 11
-20.85
 21
20.1990396502
  0
LINE
  5
332
100
AcDbEntity
  8
0
100
AcDbLine
 62
7
  6
CONTINUOUS
 10
-20.1498936624
 20
20.9
 11
-20.0001231095
 21
20.4503229513
  0
LINE
  5
333
100
AcDbEntity
  8
0
100
AcDbLine
 62
7
  6
CONTINUOUS
 10
-10.745888
 20
15.122199
 11
-11.007692
 21
17.921902
  0
LINE
  5
334
100
AcDbEntity
  8
0
100
AcDbLine
 62
7
  6
CONTINUOUS
 10
-11.437663
 20
16.942731
 11
-11.317594
 21
15.122199
  0
LINE
  5
335
100
AcDbEntity
  8
0
100
AcDbLine
 62
7
  6
CONTINUOUS
 10
-8.1540044543
 20
20.8
 11
-8.1737555355
 21
21.6237555355
  0
LINE
  5
336
100
AcDbEntity
  8
0
100
AcDbLine
 62
7
  6
CONTINUOUS
 10
-8.25
 20
-22.3441821702
 11
-8.25
 21
-21.7
  0
LINE
  5
337
100
AcDbEntity
  8
0
100
AcDbLine
 62
7
  6
CONTINUOUS
 10
-8.25
 20
21.7
 11
-8.25
 21
22.3441821702
  0
LINE
  5
338
100
AcDbEntity
  8
0
100
AcDbLine
 62
7
  6
CONTINUOUS
 10
-8.1799811977
 20
17.889192659
 11
-8.1799811977
 21
15.1221986456
  0
LINE
  5
339
100
AcDbEntity
  8
0
100
AcDbLine
 62
7
  6
CONTINUOUS
 10
-8.1540044543
 20
-21.2859869487
 11
-8.1540044543
 21
-20.8
  0
LINE
  5
33A
100
AcDbEntity
  8
0
100
AcDbLine
 62
7
  6
CONTINUOUS
 10
-8.1540044543
 20
20.8
 11
-8.1540044543
 21
21.2859869487
  0
LINE
  5
33B
100
AcDbEntity
  8
0
100
AcDbLine
 62
7
  6
CONTINUOUS
 10
-7.75
 20
23.8
 11
-7.75
 21
22.3441821702
  0
LINE
  5
33C
100
AcDbEntity
  8
0
100
AcDbLine
 62
7
  6
CONTINUOUS
 10
-7.75
 20
-23.8
 11
-7.75
 21
-22.3441821702
  0
LINE
  5
33D
100
AcDbEntity
  8
0
100
AcDbLine
 62
253
  6
CONTINUOUS
 10
-7.6924062896
 20
-22.3057869048
 11
-7.6924062896
 21
-23.755948138
  0
LINE
  5
33E
100
AcDbEntity
  8
0
100
AcDbLine
 62
253
  6
CONTINUOUS
 10
-7.6924062896
 20
22.3057869048
 11
-7.6924062896
 21
23.755948138
  0
LINE
  5
33F
100
AcDbEntity
  8
0
100
AcDbLine
 62
7
  6
CONTINUOUS
 10
-7.6173027459
 20
16.6763719134
 11
-7.6173027459
 21
17.4449452041
  0
LINE
  5
340
100
AcDbEntity
  8
0
100
AcDbLine
 62
7
  6
CONTINUOUS
 10
-7.5979246551
 20
15.1221986456
 11
-7.5979246551
 21
16.2178480752
  0
LINE
  5
341
100
AcDbEntity
  8
0
100
AcDbLine
 62
7
  6
CONTINUOUS
 10
-8.1737555355
 20
-21.6237555355
 11
-8.1540044543
 21
-20.8
  0
LINE
  5
342
100
AcDbEntity
  8
0
100
AcDbLine
 62
7
  6
CONTINUOUS
 10
-2.207618
 20
18.501209
 11
-1.757385
 21
19.844532
  0
LINE
  5
343
100
AcDbEntity
  8
0
100
AcDbLine
 62
7
  6
CONTINUOUS
 10
-1.855481
 20
20.100773
 11
-2.312374
 21
18.74167
  0
LINE
  5
344
100
AcDbEntity
  8
0
100
AcDbLine
 62
7
  6
CONTINUOUS
 10
-0.754422
 20
20.100773
 11
-1.3562
 21
18.501209
  0
LINE
  5
345
100
AcDbEntity
  8
0
100
AcDbLine
 62
7
  6
CONTINUOUS
 10
8.25
 20
21.7
 11
8.1737555355
 21
21.6237555355
  0
LINE
  5
346
100
AcDbEntity
  8
DRAFT
100
AcDbLine
 62
7
  6
CONTINUOUS
 10
-15.2
 20
-4.0
 11
-15.1693835675
 21
-3.9693835675
  0
LINE
  5
347
100
AcDbEntity
  8
0
100
AcDbLine
 62
7
  6
CONTINUOUS
 10
-18.904255271
 20
5.7916665077
 11
-19.0319149494
 21
5.75
  0
LINE
  5
348
100
AcDbEntity
  8
0
100
AcDbLine
 62
7
  6
CONTINUOUS
 10
-18.0957446694
 20
4.375
 11
-17.9680851102
 21
4.4166667461
  0
LINE
  5
349
100
AcDbEntity
  8
0
100
AcDbLine
 62
7
  6
CONTINUOUS
 10
-19.75
 20
-11.232418
 11
-17.25
 21
-11.232418
  0
LINE
  5
34A
100
AcDbEntity
  8
0
100
AcDbLine
 62
7
  6
CONTINUOUS
 10
-17.25
 20
-10.695689
 11
-18.212725
 21
-10.695689
  0
LINE
  5
34B
100
AcDbEntity
  8
0
100
AcDbLine
 62
7
  6
CONTINUOUS
 10
-18.628185
 20
-10.695689
 11
-19.334541
 21
-10.695689
  0
LINE
  5
34C
100
AcDbEntity
  8
0
100
AcDbLine
 62
7
  6
CONTINUOUS
 10
-19.75
 20
-9.102812
 11
-17.25
 21
-9.102812
  0
LINE
  5
34D
100
AcDbEntity
  8
0
100
AcDbLine
 62
7
  6
CONTINUOUS
 10
-17.665459
 20
-8.566083
 11
-19.75
 21
-8.566083
  0
LINE
  5
34E
100
AcDbEntity
  8
0
100
AcDbLine
 62
7
  6
CONTINUOUS
 10
-17.25
 20
-7.641084
 11
-17.665459
 21
-7.641084
  0
LINE
  5
34F
100
AcDbEntity
  8
0
100
AcDbLine
 62
7
  6
CONTINUOUS
 10
-19.75
 20
-1.273716
 11
-17.25
 21
-2.177548
  0
LINE
  5
350
100
AcDbEntity
  8
0
100
AcDbLine
 62
7
  6
CONTINUOUS
 10
-19.5
 20
1.75
 11
-19.2021276951
 21
1.5
  0
LINE
  5
351
100
AcDbEntity
  8
0
100
AcDbLine
 62
7
  6
CONTINUOUS
 10
-18.8617020845
 20
1.5
 11
-19.1595745087
 21
1.75
  0
LINE
  5
352
100
AcDbEntity
  8
ASSI
100
AcDbLine
 62
7
  6
CONTINUOUS
 10
6.466644
 20
-16.354957
 11
7.330922
 21
-17.08329
  0
LINE
  5
353
100
AcDbEntity
  8
ASSI
100
AcDbLine
 62
7
  6
CONTINUOUS
 10
7.330922
 20
-16.684959
 11
6.426751
 21
-15.923008
  0
LINE
  5
354
100
AcDbEntity
  8
0
100
AcDbLine
 62
7
  6
CONTINUOUS
 10
-19.5
 20
3.3333333731
 11
-18.3510638475
 21
2.3333333135
  0
LINE
  5
355
100
AcDbEntity
  8
0
100
AcDbLine
 62
7
  6
CONTINUOUS
 10
-18.3510638475
 20
2.625
 11
-19.1595745087
 21
3.3333333731
  0
LINE
  5
356
100
AcDbEntity
  8
0
100
AcDbLine
 62
7
  6
CONTINUOUS
 10
-19.3297872543
 20
4.625
 11
-19.2021276951
 21
4.5
  0
LINE
  5
357
100
AcDbEntity
  8
0
100
AcDbLine
 62
7
  6
CONTINUOUS
 10
-17.6702127606
 20
5.5416665077
 11
-17.7978723347
 21
5.6666665077
  0
LINE
  5
358
100
AcDbEntity
  8
0
100
AcDbLine
 62
7
  6
CONTINUOUS
 10
-19.3723404408
 20
8.4166665077
 11
-19.2021276951
 21
8.25
  0
LINE
  5
359
100
AcDbEntity
  8
0
100
AcDbLine
 62
7
  6
CONTINUOUS
 10
8.25
 20
-21.7
 11
8.1737555355
 21
-21.6237555355
  0
LINE
  5
35A
100
AcDbEntity
  8
DRAFT
100
AcDbLine
 62
7
  6
CONTINUOUS
 10
-15.2
 20
4.0
 11
-15.1693835675
 21
3.9693835675
  0
LINE
  5
35B
100
AcDbEntity
  8
0
100
AcDbLine
 62
7
  6
CONTINUOUS
 10
-18.7765957117
 20
9.3333334923
 11
-17.7127659619
 21
8.1666665077
  0
LINE
  5
35C
100
AcDbEntity
  8
0
100
AcDbLine
 62
7
  6
CONTINUOUS
 10
-17.7127659619
 20
8.5
 11
-18.6489361525
 21
9.5416669846
  0
LINE
  5
35D
100
AcDbEntity
  8
0
100
AcDbLine
 62
7
  6
CONTINUOUS
 10
-19.1595745087
 20
8.5
 11
-19.2446808815
 21
8.625
  0
LINE
  5
35E
100
AcDbEntity
  8
0
100
AcDbLine
 62
7
  6
CONTINUOUS
 10
-17.003668
 20
17.921902
 11
-16.116107
 21
15.122199
  0
LINE
  5
35F
100
AcDbEntity
  8
0
100
AcDbLine
 62
7
  6
CONTINUOUS
 10
-15.835146
 20
15.99478
 11
-16.36882
 21
17.921902
  0
LINE
  5
360
100
AcDbEntity
  8
DRAFT
100
AcDbLine
 62
7
  6
CONTINUOUS
 10
-4.75
 20
-19.7
 11
-4.9222338992
 21
-16.220001889
  0
LINE
  5
361
100
AcDbEntity
  8
0
100
AcDbLine
 62
7
  6
CONTINUOUS
 10
-6.8467865245
 20
23.4456668619
 11
-6.85
 21
23.8
  0
LINE
  5
362
100
AcDbEntity
  8
0
100
AcDbLine
 62
253
  6
CONTINUOUS
 10
-6.8845482821
 20
-22.3057951078
 11
-6.8845482821
 21
-23.7562325953
  0
LINE
  5
363
100
AcDbEntity
  8
0
100
AcDbLine
 62
253
  6
CONTINUOUS
 10
-6.8845482821
 20
22.3057951078
 11
-6.8845482821
 21
23.7562325953
  0
LINE
  5
364
100
AcDbEntity
  8
0
100
AcDbLine
 62
7
  6
CONTINUOUS
 10
-6.8840342314
 20
23.4906890903
 11
-6.8840342314
 21
22.8093109097
  0
LINE
  5
365
100
AcDbEntity
  8
0
100
AcDbLine
 62
7
  6
CONTINUOUS
 10
-6.8840342314
 20
-23.4906890903
 11
-6.8840342314
 21
-22.8093109097
  0
LINE
  5
366
100
AcDbEntity
  8
0
100
AcDbLine
 62
7
  6
CONTINUOUS
 10
-6.8447639644
 20
-22.35
 11
-6.8447639644
 21
-22.85711136
  0
LINE
  5
367
100
AcDbEntity
  8
0
100
AcDbLine
 62
7
  6
CONTINUOUS
 10
-6.8447639644
 20
22.35
 11
-6.8447639644
 21
22.85711136
  0
LINE
  5
368
100
AcDbEntity
  8
0
100
AcDbLine
 62
7
  6
CONTINUOUS
 10
-6.6774968351
 20
16.4290755631
 11
-6.6774968351
 21
16.445619372
  0
LINE
  5
369
100
AcDbEntity
  8
DRAFT
100
AcDbLine
 62
7
  6
CONTINUOUS
 10
-5.6
 20
12.5
 11
-5.6
 21
4.8
  0
LINE
  5
36A
100
AcDbEntity
  8
DRAFT
100
AcDbLine
 62
7
  6
CONTINUOUS
 10
-5.6
 20
4.0
 11
-5.6
 21
-4.0
  0
LINE
  5
36B
100
AcDbEntity
  8
DRAFT
100
AcDbLine
 62
7
  6
CONTINUOUS
 10
-5.6
 20
-12.5
 11
-5.6
 21
-4.8
  0
LINE
  5
36C
100
AcDbEntity
  8
DRAFT
100
AcDbLine
 62
7
  6
CONTINUOUS
 10
-4.8
 20
12.5
 11
-4.8
 21
4.8
  0
LINE
  5
36D
100
AcDbEntity
  8
DRAFT
100
AcDbLine
 62
7
  6
CONTINUOUS
 10
-4.8
 20
-12.5
 11
-4.8
 21
-4.8
  0
LINE
  5
36E
100
AcDbEntity
  8
DRAFT
100
AcDbLine
 62
7
  6
CONTINUOUS
 10
-4.8
 20
-4.0
 11
-4.8
 21
4.0
  0
LINE
  5
36F
100
AcDbEntity
  8
DRAFT
100
AcDbLine
 62
7
  6
CONTINUOUS
 10
-4.75
 20
-19.7
 11
-4.75
 21
-20.0
  0
LINE
  5
370
100
AcDbEntity
  8
DRAFT
100
AcDbLine
 62
7
  6
CONTINUOUS
 10
-4.75
 20
16.220001889
 11
-4.75
 21
20.0
  0
LINE
  5
371
100
AcDbEntity
  8
DRAFT
100
AcDbLine
 62
7
  6
CONTINUOUS
 10
-3.95
 20
-20.9959955457
 11
-3.95
 21
-19.7
  0
LINE
  5
372
100
AcDbEntity
  8
DRAFT
100
AcDbLine
 62
7
  6
CONTINUOUS
 10
-3.95
 20
19.7
 11
-3.95
 21
20.9959955457
  0
LINE
  5
373
100
AcDbEntity
  8
0
100
AcDbLine
 62
253
  6
CONTINUOUS
 10
-3.6833543458
 20
-21.2859869487
 11
-3.6833543458
 21
-20.9959955457
  0
LINE
  5
374
100
AcDbEntity
  8
0
100
AcDbLine
 62
253
  6
CONTINUOUS
 10
-3.6833543458
 20
20.9959955457
 11
-3.6833543458
 21
21.2859869487
  0
LINE
  5
375
100
AcDbEntity
  8
0
100
AcDbLine
 62
7
  6
CONTINUOUS
 10
-6.85
 20
-23.8
 11
-6.8467865245
 21
-23.4456668619
  0
LINE
  5
376
100
AcDbEntity
  8
0
100
AcDbLine
 62
7
  6
CONTINUOUS
 10
-1.133348
 20
18.501209
 11
-0.966144
 21
18.967101
  0
LINE
  5
377
100
AcDbEntity
  8
0
100
AcDbLine
 62
7
  6
CONTINUOUS
 10
-0.718833
 20
13.899227
 11
-0.55163
 21
14.36512
  0
LINE
  5
378
100
AcDbEntity
  8
0
100
AcDbLine
 62
7
  6
CONTINUOUS
 10
-0.899237
 20
19.158635
 11
-0.640707
 21
19.868939
  0
LINE
  5
379
100
AcDbEntity
  8
0
100
AcDbLine
 62
7
  6
CONTINUOUS
 10
-0.484852
 20
14.556653
 11
-0.226192
 21
15.266956
  0
LINE
  5
37A
100
AcDbEntity
  8
0
100
AcDbLine
 62
7
  6
CONTINUOUS
 10
-0.339907
 20
15.500085
 11
-0.941685
 21
13.899227
  0
LINE
  5
37B
100
AcDbEntity
  8
0
100
AcDbLine
 62
7
  6
CONTINUOUS
 10
2.619933
 20
15.500085
 11
2.16077
 21
14.731363
  0
LINE
  5
37C
100
AcDbEntity
  8
0
100
AcDbLine
 62
7
  6
CONTINUOUS
 10
2.269996
 20
14.543712
 11
2.873974
 21
15.500085
  0
LINE
  5
37D
100
AcDbEntity
  8
DRAFT
100
AcDbLine
 62
7
  6
CONTINUOUS
 10
-5.6
 20
4.0
 11
-5.6306164325
 21
3.9693835675
  0
LINE
  5
37E
100
AcDbEntity
  8
DRAFT
100
AcDbLine
 62
7
  6
CONTINUOUS
 10
-4.8
 20
4.8
 11
-4.7697817668
 21
4.8302182332
  0
LINE
  5
37F
100
AcDbEntity
  8
0
100
AcDbLine
 62
7
  6
CONTINUOUS
 10
15.65
 20
23.8
 11
15.6159383532
 21
23.7659383532
  0
LINE
  5
380
100
AcDbEntity
  8
DRAFT
100
AcDbLine
 62
7
  6
CONTINUOUS
 10
5.6
 20
12.5
 11
5.6231994953
 21
12.5231994953
  0
LINE
  5
381
100
AcDbEntity
  8
0
100
AcDbLine
 62
7
  6
CONTINUOUS
 10
18.4905416262
 20
22.2859700255
 11
18.5558178298
 21
22.3441821702
  0
LINE
  5
382
100
AcDbEntity
  8
0
100
AcDbLine
 62
253
  6
CONTINUOUS
 10
21.8500063461
 20
22.35
 11
21.8412794783
 21
22.3441821702
  0
LINE
  5
383
100
AcDbEntity
  8
0
100
AcDbLine
 62
253
  6
CONTINUOUS
 10
22.35
 20
21.850016923
 11
22.3412731322
 21
21.8441990932
  0
LINE
  5
384
100
AcDbEntity
  8
0
100
AcDbLine
 62
7
  6
CONTINUOUS
 10
-17.768868
 20
-2.932449
 11
-19.75
 21
-3.8916
  0
LINE
  5
385
100
AcDbEntity
  8
0
100
AcDbLine
 62
7
  6
CONTINUOUS
 10
-19.342331
 20
-4.185884
 11
-17.25
 21
-3.192112
  0
LINE
  5
386
100
AcDbEntity
  8
0
100
AcDbLine
 62
7
  6
CONTINUOUS
 10
-17.25
 20
0.232418
 11
-19.75
 21
-0.636603
  0
LINE
  5
387
100
AcDbEntity
  8
0
100
AcDbLine
 62
7
  6
CONTINUOUS
 10
-17.779861
 20
-0.487768
 11
-17.25
 21
-0.307604
  0
LINE
  5
388
100
AcDbEntity
  8
0
100
AcDbLine
 62
7
  6
CONTINUOUS
 10
-19.272135
 20
-0.968919
 11
-18.19532
 21
-0.622868
  0
LINE
  5
389
100
AcDbEntity
  8
DRAFT
100
AcDbLine
 62
7
  6
CONTINUOUS
 10
-15.1697817668
 20
-4.8302182332
 11
-5.6302182332
 21
-4.8302182332
  0
LINE
  5
38A
100
AcDbEntity
  8
DRAFT
100
AcDbLine
 62
7
  6
CONTINUOUS
 10
-4.7697817668
 20
-4.8302182332
 11
4.7697817668
 21
-4.8302182332
  0
LINE
  5
38B
100
AcDbEntity
  8
DRAFT
100
AcDbLine
 62
7
  6
CONTINUOUS
 10
5.6302182332
 20
-4.8302182332
 11
15.1697817668
 21
-4.8302182332
  0
LINE
  5
38C
100
AcDbEntity
  8
DRAFT
100
AcDbLine
 62
7
  6
CONTINUOUS
 10
-15.2
 20
-4.8
 11
-5.6
 21
-4.8
  0
LINE
  5
38D
100
AcDbEntity
  8
DRAFT
100
AcDbLine
 62
7
  6
CONTINUOUS
 10
-4.8
 20
-4.8
 11
4.8
 21
-4.8
  0
LINE
  5
38E
100
AcDbEntity
  8
DRAFT
100
AcDbLine
 62
7
  6
CONTINUOUS
 10
5.6
 20
-4.8
 11
15.2
 21
-4.8
  0
LINE
  5
38F
100
AcDbEntity
  8
0
100
AcDbLine
 62
7
  6
CONTINUOUS
 10
-19.75
 20
-4.687991
 11
-17.25
 21
-4.687991
  0
LINE
  5
390
100
AcDbEntity
  8
0
100
AcDbLine
 62
7
  6
CONTINUOUS
 10
-17.25
 20
-4.185884
 11
-19.342331
 21
-4.185884
  0
LINE
  5
391
100
AcDbEntity
  8
DRAFT
100
AcDbLine
 62
7
  6
CONTINUOUS
 10
15.2
 20
-4.0
 11
5.6
 21
-4.0
  0
LINE
  5
392
100
AcDbEntity
  8
DRAFT
100
AcDbLine
 62
7
  6
CONTINUOUS
 10
4.8
 20
-4.0
 11
-4.8
 21
-4.0
  0
LINE
  5
393
100
AcDbEntity
  8
DRAFT
100
AcDbLine
 62
7
  6
CONTINUOUS
 10
-5.6
 20
-4.0
 11
-15.2
 21
-4.0
  0
LINE
  5
394
100
AcDbEntity
  8
DRAFT
100
AcDbLine
 62
7
  6
CONTINUOUS
 10
-15.1693835675
 20
-3.9693835675
 11
-5.6306164325
 21
-3.9693835675
  0
LINE
  5
395
100
AcDbEntity
  8
DRAFT
100
AcDbLine
 62
7
  6
CONTINUOUS
 10
-4.7693835675
 20
-3.9693835675
 11
4.7693835675
 21
-3.9693835675
  0
LINE
  5
396
100
AcDbEntity
  8
DRAFT
100
AcDbLine
 62
7
  6
CONTINUOUS
 10
5.6306164325
 20
-3.9693835675
 11
15.1693835675
 21
-3.9693835675
  0
LINE
  5
397
100
AcDbEntity
  8
0
100
AcDbLine
 62
7
  6
CONTINUOUS
 10
-18.19532
 20
-1.339573
 11
-19.272135
 21
-0.968919
  0
LINE
  5
398
100
AcDbEntity
  8
0
100
AcDbLine
 62
7
  6
CONTINUOUS
 10
-17.25
 20
-1.665091
 11
-17.779861
 21
-1.478059
  0
LINE
  5
399
100
AcDbEntity
  8
0
100
AcDbLine
 62
7
  6
CONTINUOUS
 10
-19.2021276951
 20
4.5
 11
-19.0319149494
 21
4.4166667461
  0
LINE
  5
39A
100
AcDbEntity
  8
0
100
AcDbLine
 62
7
  6
CONTINUOUS
 10
-18.904255271
 20
4.5833332539
 11
-19.1595745087
 21
4.75
  0
LINE
  5
39B
100
AcDbEntity
  8
0
100
AcDbLine
 62
7
  6
CONTINUOUS
 10
-18.0957446694
 20
5.5833334923
 11
-17.8404255211
 21
5.4166667461
  0
LINE
  5
39C
100
AcDbEntity
  8
0
100
AcDbLine
 62
253
  6
CONTINUOUS
 10
21.8412794783
 20
-22.3441821702
 11
21.8500063461
 21
-22.35
  0
LINE
  5
39D
100
AcDbEntity
  8
0
100
AcDbLine
 62
253
  6
CONTINUOUS
 10
22.3412731322
 20
-21.8441990932
 11
22.35
 21
-21.850016923
  0
LINE
  5
39E
100
AcDbEntity
  8
0
100
AcDbLine
 62
7
  6
CONTINUOUS
 10
-19.5
 20
7.1666665077
 11
-18.3510638475
 21
6.1666665077
  0
LINE
  5
39F
100
AcDbEntity
  8
0
100
AcDbLine
 62
7
  6
CONTINUOUS
 10
-18.3510638475
 20
6.4583334923
 11
-19.1595745087
 21
7.1666665077
  0
LINE
  5
3A0
100
AcDbEntity
  8
0
100
AcDbLine
 62
7
  6
CONTINUOUS
 10
18.4905416262
 20
-22.2859700255
 11
18.5558178298
 21
-22.3441821702
  0
LINE
  5
3A1
100
AcDbEntity
  8
DRAFT
100
AcDbLine
 62
7
  6
CONTINUOUS
 10
-4.8
 20
-4.8
 11
-4.7697817668
 21
-4.8302182332
  0
LINE
  5
3A2
100
AcDbEntity
  8
DRAFT
100
AcDbLine
 62
7
  6
CONTINUOUS
 10
-5.6
 20
-4.0
 11
-5.6306164325
 21
-3.9693835675
  0
LINE
  5
3A3
100
AcDbEntity
  8
0
100
AcDbLine
 62
7
  6
CONTINUOUS
 10
15.65
 20
-23.8
 11
15.6159383532
 21
-23.7659383532
  0
LINE
  5
3A4
100
AcDbEntity
  8
DRAFT
100
AcDbLine
 62
7
  6
CONTINUOUS
 10
5.6
 20
-12.5
 11
5.6231994953
 21
-12.5231994953
  0
LINE
  5
3A5
100
AcDbEntity
  8
0
100
AcDbLine
 62
7
  6
CONTINUOUS
 10
-12.900068
 20
16.950353
 11
-12.214487
 21
15.122199
  0
LINE
  5
3A6
100
AcDbEntity
  8
0
100
AcDbLine
 62
7
  6
CONTINUOUS
 10
-12.170314
 20
16.367498
 11
-12.74855
 21
17.921902
  0
LINE
  5
3A7
100
AcDbEntity
  8
0
100
AcDbLine
 62
7
  6
CONTINUOUS
 10
-8.351592
 20
15.122199
 11
-9.21061
 21
17.921902
  0
LINE
  5
3A8
100
AcDbEntity
  8
0
100
AcDbLine
 62
7
  6
CONTINUOUS
 10
-9.118926
 20
15.681119
 11
-8.967534
 21
15.122199
  0
LINE
  5
3A9
100
AcDbEntity
  8
0
100
AcDbLine
 62
7
  6
CONTINUOUS
 10
-9.504263
 20
17.152615
 11
-9.23572
 21
16.113609
  0
LINE
  5
3AA
100
AcDbEntity
  8
DRAFT
100
AcDbLine
 62
7
  6
CONTINUOUS
 10
-3.95
 20
19.7
 11
-3.7777661008
 21
16.220001889
  0
LINE
  5
3AB
100
AcDbEntity
  8
0
100
AcDbLine
 62
7
  6
CONTINUOUS
 10
-2.9447639644
 20
23.2226497308
 11
-2.95
 21
23.8
  0
LINE
  5
3AC
100
AcDbEntity
  8
0
100
AcDbLine
 62
7
  6
CONTINUOUS
 10
-0.675
 20
-23.8
 11
-0.6802360356
 21
-23.2226497308
  0
LINE
  5
3AD
100
AcDbEntity
  8
0
100
AcDbLine
 62
253
  6
CONTINUOUS
 10
-3.1834304982
 20
-21.4537354271
 11
-3.1834304982
 21
-20.9917082642
  0
LINE
  5
3AE
100
AcDbEntity
  8
0
100
AcDbLine
 62
253
  6
CONTINUOUS
 10
-3.1834304982
 20
20.9917082642
 11
-3.1834304982
 21
21.4537354271
  0
LINE
  5
3AF
100
AcDbEntity
  8
0
100
AcDbLine
 62
7
  6
CONTINUOUS
 10
-3.081296
 20
20.100773
 11
-3.081296
 21
18.501209
  0
LINE
  5
3B0
100
AcDbEntity
  8
0
100
AcDbLine
 62
7
  6
CONTINUOUS
 10
-3.0174550649
 20
21.4051134101
 11
-3.0174550649
 21
20.9087268678
  0
LINE
  5
3B1
100
AcDbEntity
  8
0
100
AcDbLine
 62
7
  6
CONTINUOUS
 10
-3.0174550649
 20
-20.9087268678
 11
-3.0174550649
 21
-21.4051134101
  0
LINE
  5
3B2
100
AcDbEntity
  8
0
100
AcDbLine
 62
7
  6
CONTINUOUS
 10
-2.95
 20
24.2500034269
 11
-2.95
 21
23.8
  0
LINE
  5
3B3
100
AcDbEntity
  8
0
100
AcDbLine
 62
7
  6
CONTINUOUS
 10
-2.95
 20
-23.8
 11
-2.95
 21
-24.2500034269
  0
LINE
  5
3B4
100
AcDbEntity
  8
0
100
AcDbLine
 62
7
  6
CONTINUOUS
 10
-2.9447639644
 20
23.2226497308
 11
-2.9447639644
 21
22.35
  0
LINE
  5
3B5
100
AcDbEntity
  8
0
100
AcDbLine
 62
7
  6
CONTINUOUS
 10
-2.9447639644
 20
-22.35
 11
-2.9447639644
 21
-23.2226497308
  0
LINE
  5
3B6
100
AcDbEntity
  8
0
100
AcDbLine
 62
7
  6
CONTINUOUS
 10
-2.871774
 20
18.501209
 11
-2.871774
 21
19.841944
  0
LINE
  5
3B7
100
AcDbEntity
  8
0
100
AcDbLine
 62
7
  6
CONTINUOUS
 10
-2.751547
 20
15.500085
 11
-2.751547
 21
13.899227
  0
LINE
  5
3B8
100
AcDbEntity
  8
0
100
AcDbLine
 62
7
  6
CONTINUOUS
 10
-2.535296
 20
13.899227
 11
-2.535296
 21
15.500085
  0
LINE
  5
3B9
100
AcDbEntity
  8
0
100
AcDbLine
 62
7
  6
CONTINUOUS
 10
-2.303385
 20
15.500085
 11
-2.303385
 21
15.308552
  0
LINE
  5
3BA
100
AcDbEntity
  8
0
100
AcDbLine
 62
7
  6
CONTINUOUS
 10
-1.761785
 20
15.308552
 11
-1.761785
 21
13.899227
  0
LINE
  5
3BB
100
AcDbEntity
  8
0
100
AcDbLine
 62
7
  6
CONTINUOUS
 10
-1.757385
 20
19.844532
 11
-1.757385
 21
18.501209
  0
LINE
  5
3BC
100
AcDbEntity
  8
0
100
AcDbLine
 62
7
  6
CONTINUOUS
 10
-1.547863
 20
18.501209
 11
-1.547863
 21
20.100773
  0
LINE
  5
3BD
100
AcDbEntity
  8
0
100
AcDbLine
 62
7
  6
CONTINUOUS
 10
-1.545663
 20
13.899227
 11
-1.545663
 21
15.308552
  0
LINE
  5
3BE
100
AcDbEntity
  8
0
100
AcDbLine
 62
7
  6
CONTINUOUS
 10
-1.004063
 20
15.308552
 11
-1.004063
 21
15.500085
  0
LINE
  5
3BF
100
AcDbEntity
  8
0
100
AcDbLine
 62
7
  6
CONTINUOUS
 10
-0.93612
 20
17.799782
 11
-0.93612
 21
16.200218
  0
LINE
  5
3C0
100
AcDbEntity
  8
0
100
AcDbLine
 62
7
  6
CONTINUOUS
 10
-0.719868
 20
16.200218
 11
-0.719868
 21
17.799782
  0
LINE
  5
3C1
100
AcDbEntity
  8
0
100
AcDbLine
 62
7
  6
CONTINUOUS
 10
-0.6802360356
 20
23.2226497308
 11
-0.6802360356
 21
22.35
  0
LINE
  5
3C2
100
AcDbEntity
  8
0
100
AcDbLine
 62
7
  6
CONTINUOUS
 10
-0.6802360356
 20
-22.35
 11
-0.6802360356
 21
-23.2226497308
  0
LINE
  5
3C3
100
AcDbEntity
  8
0
100
AcDbLine
 62
7
  6
CONTINUOUS
 10
-0.675
 20
-24.2500034269
 11
-0.675
 21
-23.8
  0
LINE
  5
3C4
100
AcDbEntity
  8
0
100
AcDbLine
 62
7
  6
CONTINUOUS
 10
-0.675
 20
23.8
 11
-0.675
 21
24.2500034269
  0
LINE
  5
3C5
100
AcDbEntity
  8
0
100
AcDbLine
 62
7
  6
CONTINUOUS
 10
-0.350002
 20
17.799782
 11
-0.350002
 21
16.200218
  0
LINE
  5
3C6
100
AcDbEntity
  8
0
100
AcDbLine
 62
7
  6
CONTINUOUS
 10
-0.14035
 20
16.200218
 11
-0.14035
 21
17.500062
  0
LINE
  5
3C7
100
AcDbEntity
  8
0
100
AcDbLine
 62
7
  6
CONTINUOUS
 10
0.27973
 20
20.100773
 11
0.27973
 21
18.501209
  0
LINE
  5
3C8
100
AcDbEntity
  8
0
100
AcDbLine
 62
7
  6
CONTINUOUS
 10
0.495852
 20
18.686272
 11
0.495852
 21
19.91571
  0
LINE
  5
3C9
100
AcDbEntity
  8
0
100
AcDbLine
 62
7
  6
CONTINUOUS
 10
-2.95
 20
-23.8
 11
-2.9447639644
 21
-23.2226497308
  0
LINE
  5
3CA
100
AcDbEntity
  8
0
100
AcDbLine
 62
7
  6
CONTINUOUS
 10
-0.6802360356
 20
23.2226497308
 11
-0.675
 21
23.8
  0
LINE
  5
3CB
100
AcDbEntity
  8
DRAFT
100
AcDbLine
 62
7
  6
CONTINUOUS
 10
-3.95
 20
-19.7
 11
-3.7777661008
 21
-16.220001889
  0
LINE
  5
3CC
100
AcDbEntity
  8
DRAFT
100
AcDbLine
 62
7
  6
CONTINUOUS
 10
-3.8540044543
 20
-20.9
 11
-3.779124881
 21
-20.4503229513
  0
LINE
  5
3CD
100
AcDbEntity
  8
DRAFT
100
AcDbLine
 62
7
  6
CONTINUOUS
 10
3.779124881
 20
20.4503229513
 11
3.8540044543
 21
20.9
  0
LINE
  5
3CE
100
AcDbEntity
  8
0
100
AcDbLine
 62
7
  6
CONTINUOUS
 10
15.6154517179
 20
22.3057951078
 11
15.6552360356
 21
22.35
  0
LINE
  5
3CF
100
AcDbEntity
  8
DRAFT
100
AcDbLine
 62
7
  6
CONTINUOUS
 10
-16.0
 20
-12.5
 11
-16.0231994953
 21
-12.5231994953
  0
LINE
  5
3D0
100
AcDbEntity
  8
DRAFT
100
AcDbLine
 62
7
  6
CONTINUOUS
 10
-5.6
 20
-4.8
 11
-5.6302182332
 21
-4.8302182332
  0
LINE
  5
3D1
100
AcDbEntity
  8
DRAFT
100
AcDbLine
 62
7
  6
CONTINUOUS
 10
-4.8
 20
-4.0
 11
-4.7693835675
 21
-3.9693835675
  0
LINE
  5
3D2
100
AcDbEntity
  8
0
100
AcDbLine
 62
7
  6
CONTINUOUS
 10
-17.25
 20
-4.961483
 11
-19.75
 21
-5.830599
  0
LINE
  5
3D3
100
AcDbEntity
  8
0
100
AcDbLine
 62
7
  6
CONTINUOUS
 10
-17.779861
 20
-5.681764
 11
-17.25
 21
-5.501693
  0
LINE
  5
3D4
100
AcDbEntity
  8
0
100
AcDbLine
 62
7
  6
CONTINUOUS
 10
-19.272277
 20
-6.162866
 11
-18.19532
 21
-5.816769
  0
LINE
  5
3D5
100
AcDbEntity
  8
0
100
AcDbLine
 62
7
  6
CONTINUOUS
 10
-19.75
 20
-2.932449
 11
-17.768868
 21
-2.932449
  0
LINE
  5
3D6
100
AcDbEntity
  8
0
100
AcDbLine
 62
7
  6
CONTINUOUS
 10
-17.25
 20
-2.430342
 11
-19.75
 21
-2.430342
  0
LINE
  5
3D7
100
AcDbEntity
  8
0
100
AcDbLine
 62
7
  6
CONTINUOUS
 10
-19.0319149494
 20
4.4166667461
 11
-18.904255271
 21
4.375
  0
LINE
  5
3D8
100
AcDbEntity
  8
0
100
AcDbLine
 62
7
  6
CONTINUOUS
 10
-17.9680851102
 20
5.75
 11
-18.0957446694
 21
5.7916665077
  0
LINE
  5
3D9
100
AcDbEntity
  8
0
100
AcDbLine
 62
7
  6
CONTINUOUS
 10
-17.7978723347
 20
5.6666665077
 11
-17.9680851102
 21
5.75
  0
LINE
  5
3DA
100
AcDbEntity
  8
0
100
AcDbLine
 62
7
  6
CONTINUOUS
 10
-18.9468084574
 20
9.4166665077
 11
-18.7765957117
 21
9.3333334923
  0
LINE
  5
3DB
100
AcDbEntity
  8
0
100
AcDbLine
 62
7
  6
CONTINUOUS
 10
-19.0319149494
 20
8.4166665077
 11
-19.1595745087
 21
8.5
  0
LINE
  5
3DC
100
AcDbEntity
  8
0
100
AcDbLine
 62
7
  6
CONTINUOUS
 10
-18.6489361525
 20
9.5416669846
 11
-18.7765957117
 21
9.625
  0
LINE
  5
3DD
100
AcDbEntity
  8
DRAFT
100
AcDbLine
 62
7
  6
CONTINUOUS
 10
-16.0
 20
12.5
 11
-16.0231994953
 21
12.5231994953
  0
LINE
  5
3DE
100
AcDbEntity
  8
DRAFT
100
AcDbLine
 62
7
  6
CONTINUOUS
 10
17.75
 20
-20.0
 11
17.5789056093
 21
-19.8289056093
  0
LINE
  5
3DF
100
AcDbEntity
  8
DRAFT
100
AcDbLine
 62
7
  6
CONTINUOUS
 10
-4.8
 20
4.0
 11
-4.7693835675
 21
3.9693835675
  0
LINE
  5
3E0
100
AcDbEntity
  8
DRAFT
100
AcDbLine
 62
7
  6
CONTINUOUS
 10
-5.6
 20
4.8
 11
-5.6302182332
 21
4.8302182332
  0
LINE
  5
3E1
100
AcDbEntity
  8
0
100
AcDbLine
 62
7
  6
CONTINUOUS
 10
15.6552360356
 20
-22.35
 11
15.6154517179
 21
-22.3057951078
  0
LINE
  5
3E2
100
AcDbEntity
  8
ASSI
100
AcDbLine
 62
7
  6
CONTINUOUS
 10
8.096221
 20
-18.062274
 11
8.244178
 21
-18.325886
  0
LINE
  5
3E3
100
AcDbEntity
  8
DRAFT
100
AcDbLine
 62
7
  6
CONTINUOUS
 10
-3.779124881
 20
20.4503229513
 11
-3.8540044543
 21
20.9
  0
LINE
  5
3E4
100
AcDbEntity
  8
DRAFT
100
AcDbLine
 62
7
  6
CONTINUOUS
 10
3.8540044543
 20
-20.9
 11
3.779124881
 21
-20.4503229513
  0
LINE
  5
3E5
100
AcDbEntity
  8
DRAFT
100
AcDbLine
 62
7
  6
CONTINUOUS
 10
3.95
 20
-19.7
 11
3.7777661008
 21
-16.220001889
  0
LINE
  5
3E6
100
AcDbEntity
  8
0
100
AcDbLine
 62
7
  6
CONTINUOUS
 10
0.675
 20
23.8
 11
0.6802360356
 21
23.2226497308
  0
LINE
  5
3E7
100
AcDbEntity
  8
0
100
AcDbLine
 62
7
  6
CONTINUOUS
 10
2.9447639644
 20
-23.2226497308
 11
2.95
 21
-23.8
  0
LINE
  5
3E8
100
AcDbEntity
  8
0
100
AcDbLine
 62
7
  6
CONTINUOUS
 10
0.675
 20
24.2500034269
 11
0.675
 21
23.8
  0
LINE
  5
3E9
100
AcDbEntity
  8
0
100
AcDbLine
 62
7
  6
CONTINUOUS
 10
0.675
 20
-23.8
 11
0.675
 21
-24.2500034269
  0
LINE
  5
3EA
100
AcDbEntity
  8
0
100
AcDbLine
 62
7
  6
CONTINUOUS
 10
0.6802360356
 20
23.2226497308
 11
0.6802360356
 21
22.35
  0
LINE
  5
3EB
100
AcDbEntity
  8
0
100
AcDbLine
 62
7
  6
CONTINUOUS
 10
0.6802360356
 20
-22.35
 11
0.6802360356
 21
-23.2226497308
  0
LINE
  5
3EC
100
AcDbEntity
  8
0
100
AcDbLine
 62
7
  6
CONTINUOUS
 10
0.683115
 20
15.500085
 11
0.683115
 21
13.899227
  0
LINE
  5
3ED
100
AcDbEntity
  8
0
100
AcDbLine
 62
7
  6
CONTINUOUS
 10
0.711068
 20
17.799782
 11
0.711068
 21
16.500914
  0
LINE
  5
3EE
100
AcDbEntity
  8
0
100
AcDbLine
 62
7
  6
CONTINUOUS
 10
0.899237
 20
14.090761
 11
0.899237
 21
15.500085
  0
LINE
  5
3EF
100
AcDbEntity
  8
0
100
AcDbLine
 62
7
  6
CONTINUOUS
 10
0.920461
 20
16.200218
 11
0.920461
 21
17.799782
  0
LINE
  5
3F0
100
AcDbEntity
  8
0
100
AcDbLine
 62
7
  6
CONTINUOUS
 10
1.710537
 20
13.899227
 11
1.710537
 21
14.090761
  0
LINE
  5
3F1
100
AcDbEntity
  8
0
100
AcDbLine
 62
7
  6
CONTINUOUS
 10
1.9
 20
20.100773
 11
1.9
 21
18.501209
  0
LINE
  5
3F2
100
AcDbEntity
  8
0
100
AcDbLine
 62
7
  6
CONTINUOUS
 10
2.053874
 20
14.543712
 11
2.053874
 21
13.899227
  0
LINE
  5
3F3
100
AcDbEntity
  8
0
100
AcDbLine
 62
7
  6
CONTINUOUS
 10
2.116251
 20
18.692742
 11
2.116251
 21
19.227224
  0
LINE
  5
3F4
100
AcDbEntity
  8
0
100
AcDbLine
 62
7
  6
CONTINUOUS
 10
2.116251
 20
19.418758
 11
2.116251
 21
19.909239
  0
LINE
  5
3F5
100
AcDbEntity
  8
0
100
AcDbLine
 62
7
  6
CONTINUOUS
 10
2.269996
 20
13.899227
 11
2.269996
 21
14.543712
  0
LINE
  5
3F6
100
AcDbEntity
  8
0
100
AcDbLine
 62
7
  6
CONTINUOUS
 10
2.9447639644
 20
23.2226497308
 11
2.9447639644
 21
22.35
  0
LINE
  5
3F7
100
AcDbEntity
  8
0
100
AcDbLine
 62
7
  6
CONTINUOUS
 10
2.9447639644
 20
-22.35
 11
2.9447639644
 21
-23.2226497308
  0
LINE
  5
3F8
100
AcDbEntity
  8
0
100
AcDbLine
 62
7
  6
CONTINUOUS
 10
2.95
 20
-24.2500034269
 11
2.95
 21
-23.8
  0
LINE
  5
3F9
100
AcDbEntity
  8
0
100
AcDbLine
 62
7
  6
CONTINUOUS
 10
2.95
 20
23.8
 11
2.95
 21
24.2500034269
  0
LINE
  5
3FA
100
AcDbEntity
  8
0
100
AcDbLine
 62
7
  6
CONTINUOUS
 10
2.992129
 20
19.227224
 11
2.992129
 21
19.418758
  0
LINE
  5
3FB
100
AcDbEntity
  8
0
100
AcDbLine
 62
7
  6
CONTINUOUS
 10
3.0174550649
 20
-21.4051134101
 11
3.0174550649
 21
-20.9087268678
  0
LINE
  5
3FC
100
AcDbEntity
  8
0
100
AcDbLine
 62
7
  6
CONTINUOUS
 10
3.0174550649
 20
20.9087268678
 11
3.0174550649
 21
21.4051134101
  0
LINE
  5
3FD
100
AcDbEntity
  8
0
100
AcDbLine
 62
7
  6
CONTINUOUS
 10
3.065637
 20
19.909239
 11
3.065637
 21
20.100773
  0
LINE
  5
3FE
100
AcDbEntity
  8
0
100
AcDbLine
 62
7
  6
CONTINUOUS
 10
3.081296
 20
18.501209
 11
3.081296
 21
18.692742
  0
LINE
  5
3FF
100
AcDbEntity
  8
0
100
AcDbLine
 62
253
  6
CONTINUOUS
 10
3.1834304982
 20
21.4537354271
 11
3.1834304982
 21
20.9917082642
  0
LINE
  5
400
100
AcDbEntity
  8
0
100
AcDbLine
 62
253
  6
CONTINUOUS
 10
3.1834304982
 20
-20.9917082642
 11
3.1834304982
 21
-21.4537354271
  0
LINE
  5
401
100
AcDbEntity
  8
0
100
AcDbLine
 62
253
  6
CONTINUOUS
 10
3.6833543458
 20
21.2859869487
 11
3.6833543458
 21
20.9959955457
  0
LINE
  5
402
100
AcDbEntity
  8
0
100
AcDbLine
 62
253
  6
CONTINUOUS
 10
3.6833543458
 20
-20.9959955457
 11
3.6833543458
 21
-21.2859869487
  0
LINE
  5
403
100
AcDbEntity
  8
DRAFT
100
AcDbLine
 62
7
  6
CONTINUOUS
 10
3.95
 20
20.9959955457
 11
3.95
 21
19.7
  0
LINE
  5
404
100
AcDbEntity
  8
DRAFT
100
AcDbLine
 62
7
  6
CONTINUOUS
 10
3.95
 20
-19.7
 11
3.95
 21
-20.9959955457
  0
LINE
  5
405
100
AcDbEntity
  8
0
100
AcDbLine
 62
7
  6
CONTINUOUS
 10
0.6802360356
 20
-23.2226497308
 11
0.675
 21
-23.8
  0
LINE
  5
406
100
AcDbEntity
  8
0
100
AcDbLine
 62
7
  6
CONTINUOUS
 10
2.95
 20
23.8
 11
2.9447639644
 21
23.2226497308
  0
LINE
  5
407
100
AcDbEntity
  8
DRAFT
100
AcDbLine
 62
7
  6
CONTINUOUS
 10
3.95
 20
19.7
 11
3.7777661008
 21
16.220001889
  0
LINE
  5
408
100
AcDbEntity
  8
0
100
AcDbLine
 62
7
  6
CONTINUOUS
 10
-15.6154517179
 20
-22.3057951078
 11
-15.6552360356
 21
-22.35
  0
LINE
  5
409
100
AcDbEntity
  8
DRAFT
100
AcDbLine
 62
7
  6
CONTINUOUS
 10
4.8
 20
4.0
 11
4.7693835675
 21
3.9693835675
  0
LINE
  5
40A
100
AcDbEntity
  8
DRAFT
100
AcDbLine
 62
7
  6
CONTINUOUS
 10
5.6
 20
4.8
 11
5.6302182332
 21
4.8302182332
  0
LINE
  5
40B
100
AcDbEntity
  8
DRAFT
100
AcDbLine
 62
7
  6
CONTINUOUS
 10
-17.5789056093
 20
-19.8289056093
 11
-17.75
 21
-20.0
  0
LINE
  5
40C
100
AcDbEntity
  8
DRAFT
100
AcDbLine
 62
7
  6
CONTINUOUS
 10
16.0
 20
12.5
 11
16.0231994953
 21
12.5231994953
  0
LINE
  5
40D
100
AcDbEntity
  8
0
100
AcDbLine
 62
7
  6
CONTINUOUS
 10
-18.4905416262
 20
-22.2859700255
 11
-18.5558178298
 21
-22.3441821702
  0
LINE
  5
40E
100
AcDbEntity
  8
0
100
AcDbLine
 62
7
  6
CONTINUOUS
 10
-19.2021276951
 20
1.5
 11
-18.8617020845
 21
1.5
  0
LINE
  5
40F
100
AcDbEntity
  8
0
100
AcDbLine
 62
7
  6
CONTINUOUS
 10
-19.1595745087
 20
1.75
 11
-17.5
 21
1.75
  0
LINE
  5
410
100
AcDbEntity
  8
0
100
AcDbLine
 62
7
  6
CONTINUOUS
 10
-17.5
 20
2.0
 11
-19.5
 21
2.0
  0
LINE
  5
411
100
AcDbEntity
  8
0
100
AcDbLine
 62
7
  6
CONTINUOUS
 10
-18.3510638475
 20
2.3333333135
 11
-18.0957446694
 21
2.3333333135
  0
LINE
  5
412
100
AcDbEntity
  8
0
100
AcDbLine
 62
7
  6
CONTINUOUS
 10
-19.1595745087
 20
3.3333333731
 11
-18.3510638475
 21
3.3333333731
  0
LINE
  5
413
100
AcDbEntity
  8
0
100
AcDbLine
 62
7
  6
CONTINUOUS
 10
-18.0957446694
 20
3.3333333731
 11
-17.5
 21
3.3333333731
  0
LINE
  5
414
100
AcDbEntity
  8
0
100
AcDbLine
 62
7
  6
CONTINUOUS
 10
-17.5
 20
3.5833332539
 11
-18.0957446694
 21
3.5833332539
  0
LINE
  5
415
100
AcDbEntity
  8
0
100
AcDbLine
 62
7
  6
CONTINUOUS
 10
-18.3510638475
 20
3.5833332539
 11
-19.5
 21
3.5833332539
  0
LINE
  5
416
100
AcDbEntity
  8
DRAFT
100
AcDbLine
 62
7
  6
CONTINUOUS
 10
-15.1693835675
 20
3.9693835675
 11
-5.6306164325
 21
3.9693835675
  0
LINE
  5
417
100
AcDbEntity
  8
DRAFT
100
AcDbLine
 62
7
  6
CONTINUOUS
 10
-4.7693835675
 20
3.9693835675
 11
4.7693835675
 21
3.9693835675
  0
LINE
  5
418
100
AcDbEntity
  8
DRAFT
100
AcDbLine
 62
7
  6
CONTINUOUS
 10
5.6306164325
 20
3.9693835675
 11
15.1693835675
 21
3.9693835675
  0
LINE
  5
419
100
AcDbEntity
  8
DRAFT
100
AcDbLine
 62
7
  6
CONTINUOUS
 10
-15.2
 20
4.0
 11
-5.6
 21
4.0
  0
LINE
  5
41A
100
AcDbEntity
  8
DRAFT
100
AcDbLine
 62
7
  6
CONTINUOUS
 10
-4.8
 20
4.0
 11
4.8
 21
4.0
  0
LINE
  5
41B
100
AcDbEntity
  8
DRAFT
100
AcDbLine
 62
7
  6
CONTINUOUS
 10
5.6
 20
4.0
 11
15.2
 21
4.0
  0
LINE
  5
41C
100
AcDbEntity
  8
0
100
AcDbLine
 62
7
  6
CONTINUOUS
 10
-18.0957446694
 20
4.0
 11
-18.3510638475
 21
4.0
  0
LINE
  5
41D
100
AcDbEntity
  8
0
100
AcDbLine
 62
7
  6
CONTINUOUS
 10
-18.6914893389
 20
4.3333332539
 11
-18.3085106611
 21
4.3333332539
  0
LINE
  5
41E
100
AcDbEntity
  8
0
100
AcDbLine
 62
7
  6
CONTINUOUS
 10
-18.6489361525
 20
4.5416667461
 11
-18.904255271
 21
4.5833332539
  0
LINE
  5
41F
100
AcDbEntity
  8
0
100
AcDbLine
 62
7
  6
CONTINUOUS
 10
-18.3510638475
 20
5.625
 11
-18.0957446694
 21
5.5833334923
  0
LINE
  5
420
100
AcDbEntity
  8
0
100
AcDbLine
 62
7
  6
CONTINUOUS
 10
-18.904255271
 20
4.375
 11
-18.6914893389
 21
4.3333332539
  0
LINE
  5
421
100
AcDbEntity
  8
0
100
AcDbLine
 62
7
  6
CONTINUOUS
 10
-18.0957446694
 20
5.7916665077
 11
-18.3085106611
 21
5.8333334923
  0
LINE
  5
422
100
AcDbEntity
  8
0
100
AcDbLine
 62
7
  6
CONTINUOUS
 10
-19.2021276951
 20
8.25
 11
-19.0319149494
 21
8.2083334923
  0
LINE
  5
423
100
AcDbEntity
  8
0
100
AcDbLine
 62
7
  6
CONTINUOUS
 10
-18.4905416262
 20
22.2859700255
 11
-18.5558178298
 21
22.3441821702
  0
LINE
  5
424
100
AcDbEntity
  8
DRAFT
100
AcDbLine
 62
7
  6
CONTINUOUS
 10
5.6
 20
-4.8
 11
5.6302182332
 21
-4.8302182332
  0
LINE
  5
425
100
AcDbEntity
  8
DRAFT
100
AcDbLine
 62
7
  6
CONTINUOUS
 10
4.8
 20
-4.0
 11
4.7693835675
 21
-3.9693835675
  0
LINE
  5
426
100
AcDbEntity
  8
DRAFT
100
AcDbLine
 62
7
  6
CONTINUOUS
 10
-17.75
 20
20.0
 11
-17.5789056093
 21
19.8289056093
  0
LINE
  5
427
100
AcDbEntity
  8
DRAFT
100
AcDbLine
 62
7
  6
CONTINUOUS
 10
16.0
 20
-12.5
 11
16.0231994953
 21
-12.5231994953
  0
LINE
  5
428
100
AcDbEntity
  8
0
100
AcDbLine
 62
7
  6
CONTINUOUS
 10
-15.6552360356
 20
22.35
 11
-15.6154517179
 21
22.3057951078
  0
LINE
  5
429
100
AcDbEntity
  8
0
100
AcDbLine
 62
7
  6
CONTINUOUS
 10
-2.312374
 20
18.74167
 11
-2.771477
 21
20.100773
  0
LINE
  5
42A
100
AcDbEntity
  8
0
100
AcDbLine
 62
7
  6
CONTINUOUS
 10
-2.871774
 20
19.841944
 11
-2.42154
 21
18.501209
  0
LINE
  5
42B
100
AcDbEntity
  8
DRAFT
100
AcDbLine
 62
7
  6
CONTINUOUS
 10
4.75
 20
19.7
 11
4.9222338992
 21
16.220001889
  0
LINE
  5
42C
100
AcDbEntity
  8
0
100
AcDbLine
 62
7
  6
CONTINUOUS
 10
8.1737555355
 20
-21.6237555355
 11
8.1540044543
 21
-20.8
  0
LINE
  5
42D
100
AcDbEntity
  8
0
100
AcDbLine
 62
7
  6
CONTINUOUS
 10
6.85
 20
-23.8
 11
6.8467865245
 21
-23.4456668619
  0
LINE
  5
42E
100
AcDbEntity
  8
DRAFT
100
AcDbLine
 62
7
  6
CONTINUOUS
 10
4.75
 20
-20.0
 11
4.75
 21
-19.7
  0
LINE
  5
42F
100
AcDbEntity
  8
DRAFT
100
AcDbLine
 62
7
  6
CONTINUOUS
 10
4.75
 20
19.7
 11
4.75
 21
20.0
  0
LINE
  5
430
100
AcDbEntity
  8
DRAFT
100
AcDbLine
 62
7
  6
CONTINUOUS
 10
4.8
 20
12.5
 11
4.8
 21
4.8
  0
LINE
  5
431
100
AcDbEntity
  8
DRAFT
100
AcDbLine
 62
7
  6
CONTINUOUS
 10
4.8
 20
4.0
 11
4.8
 21
-4.0
  0
LINE
  5
432
100
AcDbEntity
  8
DRAFT
100
AcDbLine
 62
7
  6
CONTINUOUS
 10
4.8
 20
-12.5
 11
4.8
 21
-4.8
  0
LINE
  5
433
100
AcDbEntity
  8
DRAFT
100
AcDbLine
 62
7
  6
CONTINUOUS
 10
5.6
 20
12.5
 11
5.6
 21
4.8
  0
LINE
  5
434
100
AcDbEntity
  8
DRAFT
100
AcDbLine
 62
7
  6
CONTINUOUS
 10
5.6
 20
-12.5
 11
5.6
 21
-4.8
  0
LINE
  5
435
100
AcDbEntity
  8
DRAFT
100
AcDbLine
 62
7
  6
CONTINUOUS
 10
5.6
 20
-4.0
 11
5.6
 21
4.0
  0
LINE
  5
436
100
AcDbEntity
  8
0
100
AcDbLine
 62
7
  6
CONTINUOUS
 10
6.8447639644
 20
-22.35
 11
6.8447639644
 21
-22.85711136
  0
LINE
  5
437
100
AcDbEntity
  8
0
100
AcDbLine
 62
7
  6
CONTINUOUS
 10
6.8447639644
 20
22.35
 11
6.8447639644
 21
22.85711136
  0
LINE
  5
438
100
AcDbEntity
  8
0
100
AcDbLine
 62
7
  6
CONTINUOUS
 10
6.8840342314
 20
23.4906890903
 11
6.8840342314
 21
22.8093109097
  0
LINE
  5
439
100
AcDbEntity
  8
0
100
AcDbLine
 62
7
  6
CONTINUOUS
 10
6.8840342314
 20
-23.4906890903
 11
6.8840342314
 21
-22.8093109097
  0
LINE
  5
43A
100
AcDbEntity
  8
0
100
AcDbLine
 62
253
  6
CONTINUOUS
 10
6.8845482821
 20
-22.3057951078
 11
6.8845482821
 21
-23.7562325953
  0
LINE
  5
43B
100
AcDbEntity
  8
0
100
AcDbLine
 62
253
  6
CONTINUOUS
 10
6.8845482821
 20
22.3057951078
 11
6.8845482821
 21
23.7562325953
  0
LINE
  5
43C
100
AcDbEntity
  8
ASSI
100
AcDbLine
 62
7
  6
CONTINUOUS
 10
7.046068
 20
-18.149006
 11
7.046068
 21
-18.470433
  0
LINE
  5
43D
100
AcDbEntity
  8
ASSI
100
AcDbLine
 62
7
  6
CONTINUOUS
 10
7.056565
 20
-15.542229
 11
7.056565
 21
-15.865424
  0
LINE
  5
43E
100
AcDbEntity
  8
ASSI
100
AcDbLine
 62
7
  6
CONTINUOUS
 10
7.330922
 20
-15.865424
 11
7.330922
 21
-16.684959
  0
LINE
  5
43F
100
AcDbEntity
  8
ASSI
100
AcDbLine
 62
7
  6
CONTINUOUS
 10
7.330922
 20
-17.08329
 11
7.330922
 21
-18.149006
  0
LINE
  5
440
100
AcDbEntity
  8
ASSI
100
AcDbLine
 62
7
  6
CONTINUOUS
 10
7.673343
 20
-18.149006
 11
7.673343
 21
-17.079696
  0
LINE
  5
441
100
AcDbEntity
  8
ASSI
100
AcDbLine
 62
7
  6
CONTINUOUS
 10
7.673343
 20
-16.684959
 11
7.673343
 21
-15.865424
  0
LINE
  5
442
100
AcDbEntity
  8
0
100
AcDbLine
 62
253
  6
CONTINUOUS
 10
7.6924062896
 20
-22.3057869048
 11
7.6924062896
 21
-23.755948138
  0
LINE
  5
443
100
AcDbEntity
  8
0
100
AcDbLine
 62
253
  6
CONTINUOUS
 10
7.6924062896
 20
22.3057869048
 11
7.6924062896
 21
23.755948138
  0
LINE
  5
444
100
AcDbEntity
  8
0
100
AcDbLine
 62
7
  6
CONTINUOUS
 10
7.75
 20
23.8
 11
7.75
 21
22.3441821702
  0
LINE
  5
445
100
AcDbEntity
  8
0
100
AcDbLine
 62
7
  6
CONTINUOUS
 10
7.75
 20
-23.8
 11
7.75
 21
-22.3441821702
  0
LINE
  5
446
100
AcDbEntity
  8
ASSI
100
AcDbLine
 62
7
  6
CONTINUOUS
 10
7.94759
 20
-15.865424
 11
7.94759
 21
-15.542229
  0
LINE
  5
447
100
AcDbEntity
  8
ASSI
100
AcDbLine
 62
7
  6
CONTINUOUS
 10
7.958087
 20
-18.470433
 11
7.958087
 21
-18.149006
  0
LINE
  5
448
100
AcDbEntity
  8
0
100
AcDbLine
 62
7
  6
CONTINUOUS
 10
8.1540044543
 20
-21.2859869487
 11
8.1540044543
 21
-20.8
  0
LINE
  5
449
100
AcDbEntity
  8
0
100
AcDbLine
 62
7
  6
CONTINUOUS
 10
8.1540044543
 20
20.8
 11
8.1540044543
 21
21.2859869487
  0
LINE
  5
44A
100
AcDbEntity
  8
0
100
AcDbLine
 62
7
  6
CONTINUOUS
 10
8.25
 20
-22.3441821702
 11
8.25
 21
-21.7
  0
LINE
  5
44B
100
AcDbEntity
  8
0
100
AcDbLine
 62
7
  6
CONTINUOUS
 10
8.25
 20
21.7
 11
8.25
 21
22.3441821702
  0
LINE
  5
44C
100
AcDbEntity
  8
0
100
AcDbLine
 62
7
  6
CONTINUOUS
 10
6.8467865245
 20
23.4456668619
 11
6.85
 21
23.8
  0
LINE
  5
44D
100
AcDbEntity
  8
0
100
AcDbLine
 62
7
  6
CONTINUOUS
 10
8.1540044543
 20
20.8
 11
8.1737555355
 21
21.6237555355
  0
LINE
  5
44E
100
AcDbEntity
  8
DRAFT
100
AcDbLine
 62
7
  6
CONTINUOUS
 10
4.75
 20
-19.7
 11
4.9222338992
 21
-16.220001889
  0
LINE
  5
44F
100
AcDbEntity
  8
DRAFT
100
AcDbLine
 62
7
  6
CONTINUOUS
 10
-5.6
 20
-12.5
 11
-5.6231994953
 21
-12.5231994953
  0
LINE
  5
450
100
AcDbEntity
  8
0
100
AcDbLine
 62
7
  6
CONTINUOUS
 10
-15.65
 20
-23.8
 11
-15.6159383532
 21
-23.7659383532
  0
LINE
  5
451
100
AcDbEntity
  8
DRAFT
100
AcDbLine
 62
7
  6
CONTINUOUS
 10
4.8
 20
-4.8
 11
4.7697817668
 21
-4.8302182332
  0
LINE
  5
452
100
AcDbEntity
  8
DRAFT
100
AcDbLine
 62
7
  6
CONTINUOUS
 10
5.6
 20
-4.0
 11
5.6306164325
 21
-3.9693835675
  0
LINE
  5
453
100
AcDbEntity
  8
DRAFT
100
AcDbLine
 62
7
  6
CONTINUOUS
 10
15.2
 20
4.0
 11
15.1693835675
 21
3.9693835675
  0
LINE
  5
454
100
AcDbEntity
  8
0
100
AcDbLine
 62
253
  6
CONTINUOUS
 10
-22.35
 20
-21.850016923
 11
-22.3412731322
 21
-21.8441990932
  0
LINE
  5
455
100
AcDbEntity
  8
0
100
AcDbLine
 62
253
  6
CONTINUOUS
 10
-21.8500063461
 20
-22.35
 11
-21.8412794783
 21
-22.3441821702
  0
LINE
  5
456
100
AcDbEntity
  8
0
100
AcDbLine
 62
7
  6
CONTINUOUS
 10
-18.3085106611
 20
4.3333332539
 11
-18.0957446694
 21
4.375
  0
LINE
  5
457
100
AcDbEntity
  8
0
100
AcDbLine
 62
7
  6
CONTINUOUS
 10
-18.0957446694
 20
4.5833332539
 11
-18.3510638475
 21
4.5416667461
  0
LINE
  5
458
100
AcDbEntity
  8
0
100
AcDbLine
 62
7
  6
CONTINUOUS
 10
-18.3510638475
 20
4.5416667461
 11
-18.6489361525
 21
4.5416667461
  0
LINE
  5
459
100
AcDbEntity
  8
DRAFT
100
AcDbLine
 62
7
  6
CONTINUOUS
 10
15.2
 20
4.8
 11
5.6
 21
4.8
  0
LINE
  5
45A
100
AcDbEntity
  8
DRAFT
100
AcDbLine
 62
7
  6
CONTINUOUS
 10
4.8
 20
4.8
 11
-4.8
 21
4.8
  0
LINE
  5
45B
100
AcDbEntity
  8
DRAFT
100
AcDbLine
 62
7
  6
CONTINUOUS
 10
-5.6
 20
4.8
 11
-15.2
 21
4.8
  0
LINE
  5
45C
100
AcDbEntity
  8
DRAFT
100
AcDbLine
 62
7
  6
CONTINUOUS
 10
-15.1697817668
 20
4.8302182332
 11
-5.6302182332
 21
4.8302182332
  0
LINE
  5
45D
100
AcDbEntity
  8
DRAFT
100
AcDbLine
 62
7
  6
CONTINUOUS
 10
-4.7697817668
 20
4.8302182332
 11
4.7697817668
 21
4.8302182332
  0
LINE
  5
45E
100
AcDbEntity
  8
DRAFT
100
AcDbLine
 62
7
  6
CONTINUOUS
 10
5.6302182332
 20
4.8302182332
 11
15.1697817668
 21
4.8302182332
  0
LINE
  5
45F
100
AcDbEntity
  8
0
100
AcDbLine
 62
7
  6
CONTINUOUS
 10
-18.6489361525
 20
5.625
 11
-18.3510638475
 21
5.625
  0
LINE
  5
460
100
AcDbEntity
  8
0
100
AcDbLine
 62
7
  6
CONTINUOUS
 10
-18.3085106611
 20
5.8333334923
 11
-18.6914893389
 21
5.8333334923
  0
LINE
  5
461
100
AcDbEntity
  8
0
100
AcDbLine
 62
7
  6
CONTINUOUS
 10
-18.3510638475
 20
6.1666665077
 11
-18.0957446694
 21
6.1666665077
  0
LINE
  5
462
100
AcDbEntity
  8
0
100
AcDbLine
 62
7
  6
CONTINUOUS
 10
-19.1595745087
 20
7.1666665077
 11
-18.3510638475
 21
7.1666665077
  0
LINE
  5
463
100
AcDbEntity
  8
0
100
AcDbLine
 62
7
  6
CONTINUOUS
 10
-18.0957446694
 20
7.1666665077
 11
-17.5
 21
7.1666665077
  0
LINE
  5
464
100
AcDbEntity
  8
0
100
AcDbLine
 62
7
  6
CONTINUOUS
 10
-17.5
 20
7.4166665077
 11
-18.0957446694
 21
7.4166665077
  0
LINE
  5
465
100
AcDbEntity
  8
0
100
AcDbLine
 62
7
  6
CONTINUOUS
 10
-18.3510638475
 20
7.4166665077
 11
-19.5
 21
7.4166665077
  0
LINE
  5
466
100
AcDbEntity
  8
0
100
AcDbLine
 62
7
  6
CONTINUOUS
 10
-18.0957446694
 20
7.8333334923
 11
-18.3510638475
 21
7.8333334923
  0
LINE
  5
467
100
AcDbEntity
  8
0
100
AcDbLine
 62
7
  6
CONTINUOUS
 10
-17.7127659619
 20
8.1666665077
 11
-17.5
 21
8.1666665077
  0
LINE
  5
468
100
AcDbEntity
  8
0
100
AcDbLine
 62
7
  6
CONTINUOUS
 10
-18.7765957117
 20
9.625
 11
-18.9468084574
 21
9.6666669846
  0
LINE
  5
469
100
AcDbEntity
  8
0
100
AcDbLine
 62
253
  6
CONTINUOUS
 10
-22.3412731322
 20
21.8441990932
 11
-22.35
 21
21.850016923
  0
LINE
  5
46A
100
AcDbEntity
  8
0
100
AcDbLine
 62
253
  6
CONTINUOUS
 10
-21.8412794783
 20
22.3441821702
 11
-21.8500063461
 21
22.35
  0
LINE
  5
46B
100
AcDbEntity
  8
DRAFT
100
AcDbLine
 62
7
  6
CONTINUOUS
 10
-5.6
 20
12.5
 11
-5.6231994953
 21
12.5231994953
  0
LINE
  5
46C
100
AcDbEntity
  8
0
100
AcDbLine
 62
7
  6
CONTINUOUS
 10
-15.65
 20
23.8
 11
-15.6159383532
 21
23.7659383532
  0
LINE
  5
46D
100
AcDbEntity
  8
DRAFT
100
AcDbLine
 62
7
  6
CONTINUOUS
 10
5.6
 20
4.0
 11
5.6306164325
 21
3.9693835675
  0
LINE
  5
46E
100
AcDbEntity
  8
DRAFT
100
AcDbLine
 62
7
  6
CONTINUOUS
 10
4.8
 20
4.8
 11
4.7697817668
 21
4.8302182332
  0
LINE
  5
46F
100
AcDbEntity
  8
DRAFT
100
AcDbLine
 62
7
  6
CONTINUOUS
 10
15.2
 20
-4.0
 11
15.1693835675
 21
-3.9693835675
  0
LINE
  5
470
100
AcDbEntity
  8
0
100
AcDbLine
 62
7
  6
CONTINUOUS
 10
0.070207
 20
18.501209
 11
-0.509311
 21
20.100773
  0
LINE
  5
471
100
AcDbEntity
  8
0
100
AcDbLine
 62
7
  6
CONTINUOUS
 10
0.484722
 20
13.899227
 11
-0.094796
 21
15.500085
  0
LINE
  5
472
100
AcDbEntity
  8
0
100
AcDbLine
 62
7
  6
CONTINUOUS
 10
0.090267
 20
14.36512
 11
0.248541
 21
13.899227
  0
LINE
  5
473
100
AcDbEntity
  8
0
100
AcDbLine
 62
7
  6
CONTINUOUS
 10
-0.324248
 20
18.967101
 11
-0.165974
 21
18.501209
  0
LINE
  5
474
100
AcDbEntity
  8
0
100
AcDbLine
 62
7
  6
CONTINUOUS
 10
-0.226192
 20
15.266956
 11
0.01223
 21
14.556653
  0
LINE
  5
475
100
AcDbEntity
  8
0
100
AcDbLine
 62
7
  6
CONTINUOUS
 10
-0.640707
 20
19.868939
 11
-0.402285
 21
19.158635
  0
LINE
  5
476
100
AcDbEntity
  8
0
100
AcDbLine
 62
7
  6
CONTINUOUS
 10
-8.25
 20
-21.7
 11
-8.1737555355
 21
-21.6237555355
  0
LINE
  5
477
100
AcDbEntity
  8
DRAFT
100
AcDbLine
 62
7
  6
CONTINUOUS
 10
-3.95
 20
-20.9959955457
 11
-3.8540044543
 21
-20.9
  0
LINE
  5
478
100
AcDbEntity
  8
DRAFT
100
AcDbLine
 62
7
  6
CONTINUOUS
 10
4.8
 20
-12.5
 11
4.7768005047
 21
-12.5231994953
  0
LINE
  5
479
100
AcDbEntity
  8
0
100
AcDbLine
 62
7
  6
CONTINUOUS
 10
-18.6914893389
 20
5.8333334923
 11
-18.904255271
 21
5.7916665077
  0
LINE
  5
47A
100
AcDbEntity
  8
0
100
AcDbLine
 62
7
  6
CONTINUOUS
 10
-18.904255271
 20
5.5833334923
 11
-18.6489361525
 21
5.625
  0
LINE
  5
47B
100
AcDbEntity
  8
0
100
AcDbLine
 62
7
  6
CONTINUOUS
 10
-19.0319149494
 20
9.4166665077
 11
-18.9468084574
 21
9.4166665077
  0
LINE
  5
47C
100
AcDbEntity
  8
0
100
AcDbLine
 62
7
  6
CONTINUOUS
 10
-17.5
 20
9.6666669846
 11
-17.7127659619
 21
9.6666669846
  0
LINE
  5
47D
100
AcDbEntity
  8
0
100
AcDbLine
 62
7
  6
CONTINUOUS
 10
-18.9468084574
 20
9.6666669846
 11
-19.0319149494
 21
9.6666669846
  0
LINE
  5
47E
100
AcDbEntity
  8
0
100
AcDbLine
 62
7
  6
CONTINUOUS
 10
-8.25
 20
21.7
 11
-8.1737555355
 21
21.6237555355
  0
LINE
  5
47F
100
AcDbEntity
  8
DRAFT
100
AcDbLine
 62
7
  6
CONTINUOUS
 10
-3.95
 20
20.9959955457
 11
-3.8540044543
 21
20.9
  0
LINE
  5
480
100
AcDbEntity
  8
DRAFT
100
AcDbLine
 62
7
  6
CONTINUOUS
 10
4.8
 20
12.5
 11
4.7768005047
 21
12.5231994953
  0
LINE
  5
481
100
AcDbEntity
  8
0
100
AcDbLine
 62
7
  6
CONTINUOUS
 10
1.449767
 20
15.500085
 11
2.053874
 21
14.543712
  0
LINE
  5
482
100
AcDbEntity
  8
0
100
AcDbLine
 62
7
  6
CONTINUOUS
 10
-0.14035
 20
17.500062
 11
0.67755
 21
16.200218
  0
LINE
  5
483
100
AcDbEntity
  8
0
100
AcDbLine
 62
7
  6
CONTINUOUS
 10
0.711068
 20
16.500914
 11
-0.093631
 21
17.799782
  0
LINE
  5
484
100
AcDbEntity
  8
0
100
AcDbLine
 62
7
  6
CONTINUOUS
 10
2.16077
 20
14.731363
 11
1.701607
 21
15.500085
  0
LINE
  5
485
100
AcDbEntity
  8
0
100
AcDbLine
 62
7
  6
CONTINUOUS
 10
14.3459955457
 20
20.8
 11
14.3262444645
 21
21.6237555355
  0
LINE
  5
486
100
AcDbEntity
  8
0
100
AcDbLine
 62
7
  6
CONTINUOUS
 10
15.6532134755
 20
23.4456668619
 11
15.65
 21
23.8
  0
LINE
  5
487
100
AcDbEntity
  8
ASSI
100
AcDbLine
 62
7
  6
CONTINUOUS
 10
12.632446
 20
-19.048037
 11
12.632446
 21
-18.29722
  0
LINE
  5
488
100
AcDbEntity
  8
ASSI
100
AcDbLine
 62
7
  6
CONTINUOUS
 10
12.632446
 20
-14.70278
 11
12.632446
 21
-13.951963
  0
LINE
  5
489
100
AcDbEntity
  8
0
100
AcDbLine
 62
7
  6
CONTINUOUS
 10
14.25
 20
22.3441821702
 11
14.25
 21
21.7
  0
LINE
  5
48A
100
AcDbEntity
  8
0
100
AcDbLine
 62
7
  6
CONTINUOUS
 10
14.25
 20
-21.7
 11
14.25
 21
-22.3441821702
  0
LINE
  5
48B
100
AcDbEntity
  8
0
100
AcDbLine
 62
7
  6
CONTINUOUS
 10
14.3459955457
 20
-21.2859869487
 11
14.3459955457
 21
-20.8
  0
LINE
  5
48C
100
AcDbEntity
  8
0
100
AcDbLine
 62
7
  6
CONTINUOUS
 10
14.3459955457
 20
20.8
 11
14.3459955457
 21
21.2859869487
  0
LINE
  5
48D
100
AcDbEntity
  8
0
100
AcDbLine
 62
7
  6
CONTINUOUS
 10
14.75
 20
23.8
 11
14.75
 21
22.3441821702
  0
LINE
  5
48E
100
AcDbEntity
  8
0
100
AcDbLine
 62
7
  6
CONTINUOUS
 10
14.75
 20
-23.8
 11
14.75
 21
-22.3441821702
  0
LINE
  5
48F
100
AcDbEntity
  8
0
100
AcDbLine
 62
253
  6
CONTINUOUS
 10
14.8075937104
 20
-22.3057869048
 11
14.8075937104
 21
-23.755948138
  0
LINE
  5
490
100
AcDbEntity
  8
0
100
AcDbLine
 62
253
  6
CONTINUOUS
 10
14.8075937104
 20
22.3057869048
 11
14.8075937104
 21
23.755948138
  0
LINE
  5
491
100
AcDbEntity
  8
DRAFT
100
AcDbLine
 62
7
  6
CONTINUOUS
 10
15.2
 20
12.5
 11
15.2
 21
4.8
  0
LINE
  5
492
100
AcDbEntity
  8
DRAFT
100
AcDbLine
 62
7
  6
CONTINUOUS
 10
15.2
 20
4.0
 11
15.2
 21
-4.0
  0
LINE
  5
493
100
AcDbEntity
  8
DRAFT
100
AcDbLine
 62
7
  6
CONTINUOUS
 10
15.2
 20
-12.5
 11
15.2
 21
-4.8
  0
LINE
  5
494
100
AcDbEntity
  8
0
100
AcDbLine
 62
253
  6
CONTINUOUS
 10
15.6154517179
 20
-22.3057951078
 11
15.6154517179
 21
-23.7562325953
  0
LINE
  5
495
100
AcDbEntity
  8
0
100
AcDbLine
 62
253
  6
CONTINUOUS
 10
15.6154517179
 20
22.3057951078
 11
15.6154517179
 21
23.7562325953
  0
LINE
  5
496
100
AcDbEntity
  8
0
100
AcDbLine
 62
7
  6
CONTINUOUS
 10
15.6159657686
 20
23.4906890903
 11
15.6159657686
 21
22.8093109097
  0
LINE
  5
497
100
AcDbEntity
  8
0
100
AcDbLine
 62
7
  6
CONTINUOUS
 10
15.6159657686
 20
-23.4906890903
 11
15.6159657686
 21
-22.8093109097
  0
LINE
  5
498
100
AcDbEntity
  8
0
100
AcDbLine
 62
7
  6
CONTINUOUS
 10
15.6552360356
 20
-22.35
 11
15.6552360356
 21
-22.85711136
  0
LINE
  5
499
100
AcDbEntity
  8
0
100
AcDbLine
 62
7
  6
CONTINUOUS
 10
15.6552360356
 20
22.35
 11
15.6552360356
 21
22.85711136
  0
LINE
  5
49A
100
AcDbEntity
  8
DRAFT
100
AcDbLine
 62
7
  6
CONTINUOUS
 10
16.0
 20
-12.5
 11
16.0
 21
12.5
  0
LINE
  5
49B
100
AcDbEntity
  8
0
100
AcDbLine
 62
7
  6
CONTINUOUS
 10
15.65
 20
-23.8
 11
15.6532134755
 21
-23.4456668619
  0
LINE
  5
49C
100
AcDbEntity
  8
0
100
AcDbLine
 62
7
  6
CONTINUOUS
 10
14.3262444645
 20
-21.6237555355
 11
14.3459955457
 21
-20.8
  0
LINE
  5
49D
100
AcDbEntity
  8
0
100
AcDbLine
 62
7
  6
CONTINUOUS
 10
20.0001231095
 20
20.4503229513
 11
20.1498936624
 21
20.9
  0
LINE
  5
49E
100
AcDbEntity
  8
0
100
AcDbLine
 62
7
  6
CONTINUOUS
 10
20.85
 20
20.1990396502
 11
20.6997346818
 21
19.7478770987
  0
LINE
  5
49F
100
AcDbEntity
  8
ASSI
100
AcDbLine
 62
7
  6
CONTINUOUS
 10
6.7558219029
 20
-18.325886173
 11
6.9037790879
 21
-18.0622738435
  0
LINE
  5
4A0
100
AcDbEntity
  8
0
100
AcDbLine
 62
7
  6
CONTINUOUS
 10
-3.0174550649
 20
-21.4051134101
 11
-3.9507059952
 21
-22.3383643404
  0
LINE
  5
4A1
100
AcDbEntity
  8
DRAFT
100
AcDbLine
 62
7
  6
CONTINUOUS
 10
15.2
 20
-4.8
 11
15.1697817668
 21
-4.8302182332
  0
LINE
  5
4A2
100
AcDbEntity
  8
0
100
AcDbLine
 62
7
  6
CONTINUOUS
 10
-8.1626805515
 20
-22.2859700255
 11
-8.25
 21
-22.3441821702
  0
LINE
  5
4A3
100
AcDbEntity
  8
0
100
AcDbLine
 62
7
  6
CONTINUOUS
 10
-7.75
 20
-22.3441821702
 11
-7.6924062896
 21
-22.3057869048
  0
LINE
  5
4A4
100
AcDbEntity
  8
0
100
AcDbLine
 62
7
  6
CONTINUOUS
 10
-7.75
 20
-23.8
 11
-7.6932296664
 21
-23.7659383532
  0
LINE
  5
4A5
100
AcDbEntity
  8
0
100
AcDbLine
 62
7
  6
CONTINUOUS
 10
-19.0319149494
 20
9.6666669846
 11
-19.2021276951
 21
9.625
  0
LINE
  5
4A6
100
AcDbEntity
  8
DRAFT
100
AcDbLine
 62
7
  6
CONTINUOUS
 10
-16.0
 20
12.5
 11
-15.2
 21
12.5
  0
LINE
  5
4A7
100
AcDbEntity
  8
DRAFT
100
AcDbLine
 62
7
  6
CONTINUOUS
 10
16.0
 20
12.5
 11
15.2
 21
12.5
  0
LINE
  5
4A8
100
AcDbEntity
  8
DRAFT
100
AcDbLine
 62
7
  6
CONTINUOUS
 10
5.6
 20
12.5
 11
4.8
 21
12.5
  0
LINE
  5
4A9
100
AcDbEntity
  8
DRAFT
100
AcDbLine
 62
7
  6
CONTINUOUS
 10
-4.8
 20
12.5
 11
-5.6
 21
12.5
  0
LINE
  5
4AA
100
AcDbEntity
  8
DRAFT
100
AcDbLine
 62
7
  6
CONTINUOUS
 10
-16.0231994953
 20
12.5231994953
 11
-15.1768005047
 21
12.5231994953
  0
LINE
  5
4AB
100
AcDbEntity
  8
DRAFT
100
AcDbLine
 62
7
  6
CONTINUOUS
 10
-5.6231994953
 20
12.5231994953
 11
-4.7768005047
 21
12.5231994953
  0
LINE
  5
4AC
100
AcDbEntity
  8
DRAFT
100
AcDbLine
 62
7
  6
CONTINUOUS
 10
4.7768005047
 20
12.5231994953
 11
5.6231994953
 21
12.5231994953
  0
LINE
  5
4AD
100
AcDbEntity
  8
DRAFT
100
AcDbLine
 62
7
  6
CONTINUOUS
 10
15.1768005047
 20
12.5231994953
 11
16.0231994953
 21
12.5231994953
  0
LINE
  5
4AE
100
AcDbEntity
  8
0
100
AcDbLine
 62
7
  6
CONTINUOUS
 10
-2.751547
 20
13.899227
 11
-2.535296
 21
13.899227
  0
LINE
  5
4AF
100
AcDbEntity
  8
0
100
AcDbLine
 62
7
  6
CONTINUOUS
 10
-1.761785
 20
13.899227
 11
-1.545663
 21
13.899227
  0
LINE
  5
4B0
100
AcDbEntity
  8
0
100
AcDbLine
 62
7
  6
CONTINUOUS
 10
-0.941685
 20
13.899227
 11
-0.718833
 21
13.899227
  0
LINE
  5
4B1
100
AcDbEntity
  8
0
100
AcDbLine
 62
7
  6
CONTINUOUS
 10
0.248541
 20
13.899227
 11
0.484722
 21
13.899227
  0
LINE
  5
4B2
100
AcDbEntity
  8
0
100
AcDbLine
 62
7
  6
CONTINUOUS
 10
0.683115
 20
13.899227
 11
1.710537
 21
13.899227
  0
LINE
  5
4B3
100
AcDbEntity
  8
0
100
AcDbLine
 62
7
  6
CONTINUOUS
 10
2.053874
 20
13.899227
 11
2.269996
 21
13.899227
  0
LINE
  5
4B4
100
AcDbEntity
  8
0
100
AcDbLine
 62
7
  6
CONTINUOUS
 10
1.710537
 20
14.090761
 11
0.899237
 21
14.090761
  0
LINE
  5
4B5
100
AcDbEntity
  8
0
100
AcDbLine
 62
7
  6
CONTINUOUS
 10
-0.55163
 20
14.36512
 11
0.090267
 21
14.36512
  0
LINE
  5
4B6
100
AcDbEntity
  8
0
100
AcDbLine
 62
7
  6
CONTINUOUS
 10
0.01223
 20
14.556653
 11
-0.484852
 21
14.556653
  0
LINE
  5
4B7
100
AcDbEntity
  8
0
100
AcDbLine
 62
7
  6
CONTINUOUS
 10
-8.1799811977
 20
15.1221986456
 11
-7.5979246551
 21
15.1221986456
  0
LINE
  5
4B8
100
AcDbEntity
  8
0
100
AcDbLine
 62
7
  6
CONTINUOUS
 10
-6.7029843781
 20
15.1221986456
 11
-6.1408517881
 21
15.1221986456
  0
LINE
  5
4B9
100
AcDbEntity
  8
0
100
AcDbLine
 62
7
  6
CONTINUOUS
 10
-16.116107
 20
15.122199
 11
-15.601097
 21
15.122199
  0
LINE
  5
4BA
100
AcDbEntity
  8
0
100
AcDbLine
 62
7
  6
CONTINUOUS
 10
-14.484285
 20
15.122199
 11
-13.899877
 21
15.122199
  0
LINE
  5
4BB
100
AcDbEntity
  8
0
100
AcDbLine
 62
7
  6
CONTINUOUS
 10
-13.585272
 20
15.122199
 11
-13.026183
 21
15.122199
  0
LINE
  5
4BC
100
AcDbEntity
  8
0
100
AcDbLine
 62
7
  6
CONTINUOUS
 10
-12.214487
 20
15.122199
 11
-12.132524
 21
15.122199
  0
LINE
  5
4BD
100
AcDbEntity
  8
0
100
AcDbLine
 62
7
  6
CONTINUOUS
 10
-11.317594
 20
15.122199
 11
-10.745888
 21
15.122199
  0
LINE
  5
4BE
100
AcDbEntity
  8
0
100
AcDbLine
 62
7
  6
CONTINUOUS
 10
-10.65412
 20
15.122199
 11
-10.076053
 21
15.122199
  0
LINE
  5
4BF
100
AcDbEntity
  8
0
100
AcDbLine
 62
7
  6
CONTINUOUS
 10
-8.967534
 20
15.122199
 11
-8.351592
 21
15.122199
  0
LINE
  5
4C0
100
AcDbEntity
  8
0
100
AcDbLine
 62
7
  6
CONTINUOUS
 10
-2.303385
 20
15.308552
 11
-1.761785
 21
15.308552
  0
LINE
  5
4C1
100
AcDbEntity
  8
0
100
AcDbLine
 62
7
  6
CONTINUOUS
 10
-1.545663
 20
15.308552
 11
-1.004063
 21
15.308552
  0
LINE
  5
4C2
100
AcDbEntity
  8
0
100
AcDbLine
 62
7
  6
CONTINUOUS
 10
2.873974
 20
15.500085
 11
2.619933
 21
15.500085
  0
LINE
  5
4C3
100
AcDbEntity
  8
0
100
AcDbLine
 62
7
  6
CONTINUOUS
 10
1.701607
 20
15.500085
 11
1.449767
 21
15.500085
  0
LINE
  5
4C4
100
AcDbEntity
  8
0
100
AcDbLine
 62
7
  6
CONTINUOUS
 10
0.899237
 20
15.500085
 11
0.683115
 21
15.500085
  0
LINE
  5
4C5
100
AcDbEntity
  8
0
100
AcDbLine
 62
7
  6
CONTINUOUS
 10
-0.094796
 20
15.500085
 11
-0.339907
 21
15.500085
  0
LINE
  5
4C6
100
AcDbEntity
  8
0
100
AcDbLine
 62
7
  6
CONTINUOUS
 10
-1.004063
 20
15.500085
 11
-2.303385
 21
15.500085
  0
LINE
  5
4C7
100
AcDbEntity
  8
0
100
AcDbLine
 62
7
  6
CONTINUOUS
 10
-2.535296
 20
15.500085
 11
-2.751547
 21
15.500085
  0
LINE
  5
4C8
100
AcDbEntity
  8
0
100
AcDbLine
 62
7
  6
CONTINUOUS
 10
-9.914793
 20
15.681119
 11
-9.118926
 21
15.681119
  0
LINE
  5
4C9
100
AcDbEntity
  8
0
100
AcDbLine
 62
7
  6
CONTINUOUS
 10
-9.23572
 20
16.113609
 11
-9.795249
 21
16.113609
  0
LINE
  5
4CA
100
AcDbEntity
  8
0
100
AcDbLine
 62
7
  6
CONTINUOUS
 10
-0.93612
 20
16.200218
 11
-0.719868
 21
16.200218
  0
LINE
  5
4CB
100
AcDbEntity
  8
0
100
AcDbLine
 62
7
  6
CONTINUOUS
 10
-0.350002
 20
16.200218
 11
-0.14035
 21
16.200218
  0
LINE
  5
4CC
100
AcDbEntity
  8
0
100
AcDbLine
 62
7
  6
CONTINUOUS
 10
0.67755
 20
16.200218
 11
0.920461
 21
16.200218
  0
LINE
  5
4CD
100
AcDbEntity
  8
0
100
AcDbLine
 62
7
  6
CONTINUOUS
 10
-7.5979246551
 20
16.2178480752
 11
-7.2845790377
 21
16.2178480752
  0
LINE
  5
4CE
100
AcDbEntity
  8
DRAFT
100
AcDbLine
 62
7
  6
CONTINUOUS
 10
18.7222338992
 20
16.220001889
 11
17.75
 21
16.220001889
  0
LINE
  5
4CF
100
AcDbEntity
  8
DRAFT
100
AcDbLine
 62
7
  6
CONTINUOUS
 10
4.9222338992
 20
16.220001889
 11
3.7777661008
 21
16.220001889
  0
LINE
  5
4D0
100
AcDbEntity
  8
DRAFT
100
AcDbLine
 62
7
  6
CONTINUOUS
 10
-3.7777661008
 20
16.220001889
 11
-4.75
 21
16.220001889
  0
LINE
  5
4D1
100
AcDbEntity
  8
DRAFT
100
AcDbLine
 62
7
  6
CONTINUOUS
 10
-17.5777661008
 20
16.220001889
 11
-18.7222338992
 21
16.220001889
  0
LINE
  5
4D2
100
AcDbEntity
  8
0
100
AcDbLine
 62
7
  6
CONTINUOUS
 10
-7.75
 20
23.8
 11
-7.6932296664
 21
23.7659383532
  0
LINE
  5
4D3
100
AcDbEntity
  8
0
100
AcDbLine
 62
7
  6
CONTINUOUS
 10
-8.1626805515
 20
22.2859700255
 11
-8.25
 21
22.3441821702
  0
LINE
  5
4D4
100
AcDbEntity
  8
0
100
AcDbLine
 62
7
  6
CONTINUOUS
 10
-7.75
 20
22.3441821702
 11
-7.6924062896
 21
22.3057869048
  0
LINE
  5
4D5
100
AcDbEntity
  8
0
100
AcDbLine
 62
7
  6
CONTINUOUS
 10
-3.9507059952
 20
22.3383643404
 11
-3.0174550649
 21
21.4051134101
  0
LINE
  5
4D6
100
AcDbEntity
  8
DRAFT
100
AcDbLine
 62
7
  6
CONTINUOUS
 10
15.2
 20
4.8
 11
15.1697817668
 21
4.8302182332
  0
LINE
  5
4D7
100
AcDbEntity
  8
0
100
AcDbLine
 62
7
  6
CONTINUOUS
 10
20.1498936624
 20
-20.9
 11
20.0001231095
 21
-20.4503229513
  0
LINE
  5
4D8
100
AcDbEntity
  8
0
100
AcDbLine
 62
7
  6
CONTINUOUS
 10
20.6997346818
 20
-19.7478770987
 11
20.85
 21
-20.1990396502
  0
LINE
  5
4D9
100
AcDbEntity
  8
DRAFT
100
AcDbLine
 62
7
  6
CONTINUOUS
 10
17.75
 20
-19.7
 11
17.5777661008
 21
-16.220001889
  0
LINE
  5
4DA
100
AcDbEntity
  8
DRAFT
100
AcDbLine
 62
7
  6
CONTINUOUS
 10
18.55
 20
19.7
 11
18.7222338992
 21
16.220001889
  0
LINE
  5
4DB
100
AcDbEntity
  8
0
100
AcDbLine
 62
7
  6
CONTINUOUS
 10
19.5552360356
 20
23.2226497308
 11
19.55
 21
23.8
  0
LINE
  5
4DC
100
AcDbEntity
  8
ASSI
100
AcDbLine
 62
7
  6
CONTINUOUS
 10
16.617556
 20
-16.875
 11
16.617556
 21
-16.125
  0
LINE
  5
4DD
100
AcDbEntity
  8
ASSI
100
AcDbLine
 62
7
  6
CONTINUOUS
 10
17.017556
 20
-19.0480371177
 11
17.017556
 21
-18.2972169516
  0
LINE
  5
4DE
100
AcDbEntity
  8
ASSI
100
AcDbLine
 62
7
  6
CONTINUOUS
 10
17.017556
 20
-14.70278
 11
17.017556
 21
-13.9519628823
  0
LINE
  5
4DF
100
AcDbEntity
  8
DRAFT
100
AcDbLine
 62
7
  6
CONTINUOUS
 10
17.75
 20
-19.7
 11
17.75
 21
-20.0
  0
LINE
  5
4E0
100
AcDbEntity
  8
DRAFT
100
AcDbLine
 62
7
  6
CONTINUOUS
 10
17.75
 20
16.220001889
 11
17.75
 21
20.0
  0
LINE
  5
4E1
100
AcDbEntity
  8
DRAFT
100
AcDbLine
 62
7
  6
CONTINUOUS
 10
18.55
 20
-20.9959955457
 11
18.55
 21
-19.7
  0
LINE
  5
4E2
100
AcDbEntity
  8
DRAFT
100
AcDbLine
 62
7
  6
CONTINUOUS
 10
18.55
 20
19.7
 11
18.55
 21
20.9959955457
  0
LINE
  5
4E3
100
AcDbEntity
  8
0
100
AcDbLine
 62
253
  6
CONTINUOUS
 10
18.8166456542
 20
21.2859869487
 11
18.8166456542
 21
20.9959955457
  0
LINE
  5
4E4
100
AcDbEntity
  8
0
100
AcDbLine
 62
253
  6
CONTINUOUS
 10
18.8166456542
 20
-20.9959955457
 11
18.8166456542
 21
-21.2859869487
  0
LINE
  5
4E5
100
AcDbEntity
  8
0
100
AcDbLine
 62
253
  6
CONTINUOUS
 10
19.3165695018
 20
21.4537354271
 11
19.3165695018
 21
20.9917082642
  0
LINE
  5
4E6
100
AcDbEntity
  8
0
100
AcDbLine
 62
253
  6
CONTINUOUS
 10
19.3165695018
 20
-20.9917082642
 11
19.3165695018
 21
-21.4537354271
  0
LINE
  5
4E7
100
AcDbEntity
  8
0
100
AcDbLine
 62
7
  6
CONTINUOUS
 10
19.5
 20
21.4
 11
19.5
 21
20.9
  0
LINE
  5
4E8
100
AcDbEntity
  8
0
100
AcDbLine
 62
7
  6
CONTINUOUS
 10
19.5
 20
-20.9
 11
19.5
 21
-21.4
  0
LINE
  5
4E9
100
AcDbEntity
  8
0
100
AcDbLine
 62
7
  6
CONTINUOUS
 10
19.55
 20
24.2500034269
 11
19.55
 21
23.8
  0
LINE
  5
4EA
100
AcDbEntity
  8
0
100
AcDbLine
 62
7
  6
CONTINUOUS
 10
19.55
 20
-23.8
 11
19.55
 21
-24.2500034269
  0
LINE
  5
4EB
100
AcDbEntity
  8
0
100
AcDbLine
 62
7
  6
CONTINUOUS
 10
19.5552360356
 20
23.2226497308
 11
19.5552360356
 21
22.35
  0
LINE
  5
4EC
100
AcDbEntity
  8
0
100
AcDbLine
 62
7
  6
CONTINUOUS
 10
19.5552360356
 20
-22.35
 11
19.5552360356
 21
-23.2226497308
  0
LINE
  5
4ED
100
AcDbEntity
  8
0
100
AcDbLine
 62
7
  6
CONTINUOUS
 10
19.55
 20
-23.8
 11
19.5552360356
 21
-23.2226497308
  0
LINE
  5
4EE
100
AcDbEntity
  8
DRAFT
100
AcDbLine
 62
7
  6
CONTINUOUS
 10
18.55
 20
-19.7
 11
18.7222338992
 21
-16.220001889
  0
LINE
  5
4EF
100
AcDbEntity
  8
ASSI
100
AcDbLine
 62
7
  6
CONTINUOUS
 10
8.664033
 20
-19.490956
 11
8.831763
 21
-19.253173
  0
LINE
  5
4F0
100
AcDbEntity
  8
0
100
AcDbLine
 62
7
  6
CONTINUOUS
 10
6.8845482821
 20
-22.3057951078
 11
6.8447639644
 21
-22.35
  0
LINE
  5
4F1
100
AcDbEntity
  8
DRAFT
100
AcDbLine
 62
7
  6
CONTINUOUS
 10
4.9210943907
 20
-19.8289056093
 11
4.75
 21
-20.0
  0
LINE
  5
4F2
100
AcDbEntity
  8
DRAFT
100
AcDbLine
 62
7
  6
CONTINUOUS
 10
15.2
 20
-12.5
 11
15.1768005047
 21
-12.5231994953
  0
LINE
  5
4F3
100
AcDbEntity
  8
0
100
AcDbLine
 62
7
  6
CONTINUOUS
 10
4.0094583738
 20
-22.2859700255
 11
3.9507059952
 21
-22.3383643404
  0
LINE
  5
4F4
100
AcDbEntity
  8
ASSI
100
AcDbLine
 62
7
  6
CONTINUOUS
 10
8.5752015271
 20
-15.9249575558
 11
7.673343
 21
-16.684959
  0
LINE
  5
4F5
100
AcDbEntity
  8
ASSI
100
AcDbLine
 62
7
  6
CONTINUOUS
 10
7.673343
 20
-17.079696
 11
8.5333561387
 21
-16.3549568831
  0
LINE
  5
4F6
100
AcDbEntity
  8
0
100
AcDbLine
 62
7
  6
CONTINUOUS
 10
-3.0174550649
 20
-20.9087268678
 11
-3.1834304982
 21
-20.9917082642
  0
LINE
  5
4F7
100
AcDbEntity
  8
0
100
AcDbLine
 62
7
  6
CONTINUOUS
 10
-3.1834304982
 20
-21.4537354271
 11
-3.0174550649
 21
-21.4051134101
  0
LINE
  5
4F8
100
AcDbEntity
  8
0
100
AcDbLine
 62
7
  6
CONTINUOUS
 10
-7.2833193568
 20
16.6763719134
 11
-7.6173027459
 21
16.6763719134
  0
LINE
  5
4F9
100
AcDbEntity
  8
0
100
AcDbLine
 62
7
  6
CONTINUOUS
 10
0.920461
 20
17.799782
 11
0.711068
 21
17.799782
  0
LINE
  5
4FA
100
AcDbEntity
  8
0
100
AcDbLine
 62
7
  6
CONTINUOUS
 10
-0.093631
 20
17.799782
 11
-0.350002
 21
17.799782
  0
LINE
  5
4FB
100
AcDbEntity
  8
0
100
AcDbLine
 62
7
  6
CONTINUOUS
 10
-0.719868
 20
17.799782
 11
-0.93612
 21
17.799782
  0
LINE
  5
4FC
100
AcDbEntity
  8
0
100
AcDbLine
 62
7
  6
CONTINUOUS
 10
-9.21061
 20
17.921902
 11
-9.775955
 21
17.921902
  0
LINE
  5
4FD
100
AcDbEntity
  8
0
100
AcDbLine
 62
7
  6
CONTINUOUS
 10
-11.007692
 20
17.921902
 11
-11.585906
 21
17.921902
  0
LINE
  5
4FE
100
AcDbEntity
  8
0
100
AcDbLine
 62
7
  6
CONTINUOUS
 10
-12.74855
 20
17.921902
 11
-13.332475
 21
17.921902
  0
LINE
  5
4FF
100
AcDbEntity
  8
0
100
AcDbLine
 62
7
  6
CONTINUOUS
 10
-14.70116
 20
17.921902
 11
-15.285169
 21
17.921902
  0
LINE
  5
500
100
AcDbEntity
  8
0
100
AcDbLine
 62
7
  6
CONTINUOUS
 10
-16.36882
 20
17.921902
 11
-17.003668
 21
17.921902
  0
LINE
  5
501
100
AcDbEntity
  8
0
100
AcDbLine
 62
7
  6
CONTINUOUS
 10
-13.899877
 20
17.92207
 11
-14.484285
 21
17.92207
  0
LINE
  5
502
100
AcDbEntity
  8
0
100
AcDbLine
 62
7
  6
CONTINUOUS
 10
22.3849101299
 20
18.1473460386
 11
22.3325462644
 21
18.1473460386
  0
LINE
  5
503
100
AcDbEntity
  8
0
100
AcDbLine
 62
7
  6
CONTINUOUS
 10
-22.3849101299
 20
18.1473460386
 11
-22.3325462644
 21
18.1473460386
  0
LINE
  5
504
100
AcDbEntity
  8
0
100
AcDbLine
 62
7
  6
CONTINUOUS
 10
-3.081296
 20
18.501209
 11
-2.871774
 21
18.501209
  0
LINE
  5
505
100
AcDbEntity
  8
0
100
AcDbLine
 62
7
  6
CONTINUOUS
 10
-2.42154
 20
18.501209
 11
-2.207618
 21
18.501209
  0
LINE
  5
506
100
AcDbEntity
  8
0
100
AcDbLine
 62
7
  6
CONTINUOUS
 10
-1.757385
 20
18.501209
 11
-1.547863
 21
18.501209
  0
LINE
  5
507
100
AcDbEntity
  8
0
100
AcDbLine
 62
7
  6
CONTINUOUS
 10
-1.3562
 20
18.501209
 11
-1.133348
 21
18.501209
  0
LINE
  5
508
100
AcDbEntity
  8
0
100
AcDbLine
 62
7
  6
CONTINUOUS
 10
0.27973
 20
18.501209
 11
0.9282258683
 21
18.501209
  0
LINE
  5
509
100
AcDbEntity
  8
0
100
AcDbLine
 62
7
  6
CONTINUOUS
 10
-0.165974
 20
18.501209
 11
0.070207
 21
18.501209
  0
LINE
  5
50A
100
AcDbEntity
  8
0
100
AcDbLine
 62
7
  6
CONTINUOUS
 10
1.9
 20
18.501209
 11
3.081296
 21
18.501209
  0
LINE
  5
50B
100
AcDbEntity
  8
0
100
AcDbLine
 62
7
  6
CONTINUOUS
 10
0.8992370089
 20
18.686272
 11
0.495852
 21
18.686272
  0
LINE
  5
50C
100
AcDbEntity
  8
0
100
AcDbLine
 62
7
  6
CONTINUOUS
 10
3.081296
 20
18.692742
 11
2.116251
 21
18.692742
  0
LINE
  5
50D
100
AcDbEntity
  8
0
100
AcDbLine
 62
7
  6
CONTINUOUS
 10
-0.966144
 20
18.967101
 11
-0.324248
 21
18.967101
  0
LINE
  5
50E
100
AcDbEntity
  8
0
100
AcDbLine
 62
7
  6
CONTINUOUS
 10
-0.402285
 20
19.158635
 11
-0.899237
 21
19.158635
  0
LINE
  5
50F
100
AcDbEntity
  8
0
100
AcDbLine
 62
7
  6
CONTINUOUS
 10
2.116251
 20
19.227224
 11
2.992129
 21
19.227224
  0
LINE
  5
510
100
AcDbEntity
  8
0
100
AcDbLine
 62
7
  6
CONTINUOUS
 10
2.992129
 20
19.418758
 11
2.116251
 21
19.418758
  0
LINE
  5
511
100
AcDbEntity
  8
0
100
AcDbLine
 62
7
  6
CONTINUOUS
 10
20.85
 20
19.5
 11
21.4
 21
19.5
  0
LINE
  5
512
100
AcDbEntity
  8
0
100
AcDbLine
 62
7
  6
CONTINUOUS
 10
-20.85
 20
19.5
 11
-21.4
 21
19.5
  0
LINE
  5
513
100
AcDbEntity
  8
DRAFT
100
AcDbLine
 62
7
  6
CONTINUOUS
 10
-18.55
 20
19.7
 11
-17.75
 21
19.7
  0
LINE
  5
514
100
AcDbEntity
  8
DRAFT
100
AcDbLine
 62
7
  6
CONTINUOUS
 10
-4.75
 20
19.7
 11
-3.95
 21
19.7
  0
LINE
  5
515
100
AcDbEntity
  8
DRAFT
100
AcDbLine
 62
7
  6
CONTINUOUS
 10
3.95
 20
19.7
 11
4.75
 21
19.7
  0
LINE
  5
516
100
AcDbEntity
  8
DRAFT
100
AcDbLine
 62
7
  6
CONTINUOUS
 10
17.75
 20
19.7
 11
18.55
 21
19.7
  0
LINE
  5
517
100
AcDbEntity
  8
DRAFT
100
AcDbLine
 62
7
  6
CONTINUOUS
 10
-17.5789056093
 20
19.8289056093
 11
-4.75
 21
19.8289056093
  0
LINE
  5
518
100
AcDbEntity
  8
DRAFT
100
AcDbLine
 62
7
  6
CONTINUOUS
 10
4.9210943907
 20
19.8289056093
 11
17.75
 21
19.8289056093
  0
LINE
  5
519
100
AcDbEntity
  8
0
100
AcDbLine
 62
7
  6
CONTINUOUS
 10
2.116251
 20
19.909239
 11
3.065637
 21
19.909239
  0
LINE
  5
51A
100
AcDbEntity
  8
0
100
AcDbLine
 62
7
  6
CONTINUOUS
 10
0.495852
 20
19.91571
 11
0.8992370089
 21
19.91571
  0
LINE
  5
51B
100
AcDbEntity
  8
DRAFT
100
AcDbLine
 62
7
  6
CONTINUOUS
 10
-17.75
 20
20.0
 11
-4.75
 21
20.0
  0
LINE
  5
51C
100
AcDbEntity
  8
DRAFT
100
AcDbLine
 62
7
  6
CONTINUOUS
 10
4.75
 20
20.0
 11
17.75
 21
20.0
  0
LINE
  5
51D
100
AcDbEntity
  8
0
100
AcDbLine
 62
7
  6
CONTINUOUS
 10
3.065637
 20
20.100773
 11
1.9
 21
20.100773
  0
LINE
  5
51E
100
AcDbEntity
  8
0
100
AcDbLine
 62
7
  6
CONTINUOUS
 10
0.9282258683
 20
20.100773
 11
0.27973
 21
20.100773
  0
LINE
  5
51F
100
AcDbEntity
  8
0
100
AcDbLine
 62
7
  6
CONTINUOUS
 10
-0.509311
 20
20.100773
 11
-0.754422
 21
20.100773
  0
LINE
  5
520
100
AcDbEntity
  8
0
100
AcDbLine
 62
7
  6
CONTINUOUS
 10
-1.547863
 20
20.100773
 11
-1.855481
 21
20.100773
  0
LINE
  5
521
100
AcDbEntity
  8
0
100
AcDbLine
 62
7
  6
CONTINUOUS
 10
-2.771477
 20
20.100773
 11
-3.081296
 21
20.100773
  0
LINE
  5
522
100
AcDbEntity
  8
0
100
AcDbLine
 62
7
  6
CONTINUOUS
 10
-3.1834304982
 20
21.4537354271
 11
-3.0174550649
 21
21.4051134101
  0
LINE
  5
523
100
AcDbEntity
  8
0
100
AcDbLine
 62
7
  6
CONTINUOUS
 10
-3.0174550649
 20
20.9087268678
 11
-3.1834304982
 21
20.9917082642
  0
LINE
  5
524
100
AcDbEntity
  8
0
100
AcDbLine
 62
7
  6
CONTINUOUS
 10
4.0094583738
 20
22.2859700255
 11
3.9507059952
 21
22.3383643404
  0
LINE
  5
525
100
AcDbEntity
  8
DRAFT
100
AcDbLine
 62
7
  6
CONTINUOUS
 10
4.75
 20
20.0
 11
4.9210943907
 21
19.8289056093
  0
LINE
  5
526
100
AcDbEntity
  8
DRAFT
100
AcDbLine
 62
7
  6
CONTINUOUS
 10
15.2
 20
12.5
 11
15.1768005047
 21
12.5231994953
  0
LINE
  5
527
100
AcDbEntity
  8
0
100
AcDbLine
 62
7
  6
CONTINUOUS
 10
6.8447639644
 20
22.35
 11
6.8845482821
 21
22.3057951078
  0
LINE
  5
528
100
AcDbEntity
  8
0
100
AcDbLine
 62
7
  6
CONTINUOUS
 10
22.35
 20
18.5
 11
22.3849101299
 21
18.1473460386
  0
LINE
  5
529
100
AcDbEntity
  8
0
100
AcDbLine
 62
7
  6
CONTINUOUS
 10
22.3325462644
 20
-18.1473460386
 11
22.35
 21
-18.5
  0
LINE
  5
52A
100
AcDbEntity
  8
0
100
AcDbLine
 62
7
  6
CONTINUOUS
 10
21.825
 20
-23.8
 11
21.8197639644
 21
-23.2226497308
  0
LINE
  5
52B
100
AcDbEntity
  8
0
100
AcDbLine
 62
7
  6
CONTINUOUS
 10
20.85
 20
20.1990396502
 11
20.85
 21
19.5
  0
LINE
  5
52C
100
AcDbEntity
  8
0
100
AcDbLine
 62
7
  6
CONTINUOUS
 10
20.85
 20
-19.5
 11
20.85
 21
-20.1990396502
  0
LINE
  5
52D
100
AcDbEntity
  8
0
100
AcDbLine
 62
7
  6
CONTINUOUS
 10
20.8674550649
 20
19.5
 11
20.8674550649
 21
-19.5
  0
LINE
  5
52E
100
AcDbEntity
  8
0
100
AcDbLine
 62
7
  6
CONTINUOUS
 10
21.8197639644
 20
23.2226497308
 11
21.8197639644
 21
22.35
  0
LINE
  5
52F
100
AcDbEntity
  8
0
100
AcDbLine
 62
7
  6
CONTINUOUS
 10
21.8197639644
 20
-22.35
 11
21.8197639644
 21
-23.2226497308
  0
LINE
  5
530
100
AcDbEntity
  8
0
100
AcDbLine
 62
7
  6
CONTINUOUS
 10
21.825
 20
-24.2500034269
 11
21.825
 21
-23.8
  0
LINE
  5
531
100
AcDbEntity
  8
0
100
AcDbLine
 62
7
  6
CONTINUOUS
 10
21.825
 20
23.8
 11
21.825
 21
24.2500034269
  0
LINE
  5
532
100
AcDbEntity
  8
0
100
AcDbLine
 62
7
  6
CONTINUOUS
 10
22.3325462644
 20
-18.5674537356
 11
22.3325462644
 21
-18.1473460386
  0
LINE
  5
533
100
AcDbEntity
  8
0
100
AcDbLine
 62
7
  6
CONTINUOUS
 10
22.3325462644
 20
18.1473460386
 11
22.3325462644
 21
18.5674537356
  0
LINE
  5
534
100
AcDbEntity
  8
0
100
AcDbLine
 62
7
  6
CONTINUOUS
 10
22.3412731322
 20
21.8441990932
 11
22.3412731322
 21
18.5587268678
  0
LINE
  5
535
100
AcDbEntity
  8
0
100
AcDbLine
 62
7
  6
CONTINUOUS
 10
22.3412731322
 20
-18.5587268678
 11
22.3412731322
 21
-21.8441990932
  0
LINE
  5
536
100
AcDbEntity
  8
0
100
AcDbLine
 62
7
  6
CONTINUOUS
 10
22.35
 20
21.850016923
 11
22.35
 21
18.5
  0
LINE
  5
537
100
AcDbEntity
  8
0
100
AcDbLine
 62
7
  6
CONTINUOUS
 10
22.35
 20
-21.850016923
 11
22.35
 21
-18.5
  0
LINE
  5
538
100
AcDbEntity
  8
0
100
AcDbLine
 62
7
  6
CONTINUOUS
 10
22.3849101299
 20
-18.1473460386
 11
22.3849101299
 21
18.1473460386
  0
LINE
  5
539
100
AcDbEntity
  8
0
100
AcDbLine
 62
7
  6
CONTINUOUS
 10
21.8197639644
 20
23.2226497308
 11
21.825
 21
23.8
  0
LINE
  5
53A
100
AcDbEntity
  8
0
100
AcDbLine
 62
7
  6
CONTINUOUS
 10
22.35
 20
18.5
 11
22.3325462644
 21
18.1473460386
  0
LINE
  5
53B
100
AcDbEntity
  8
0
100
AcDbLine
 62
7
  6
CONTINUOUS
 10
22.3849101299
 20
-18.1473460386
 11
22.35
 21
-18.5
  0
LINE
  5
53C
100
AcDbEntity
  8
DRAFT
100
AcDbLine
 62
7
  6
CONTINUOUS
 10
18.6459955457
 20
-20.9
 11
18.720875119
 21
-20.4503229513
  0
LINE
  5
53D
100
AcDbEntity
  8
0
100
AcDbLine
 62
7
  6
CONTINUOUS
 10
6.85
 20
-23.8
 11
6.8840616468
 21
-23.7659383532
  0
LINE
  5
53E
100
AcDbEntity
  8
DRAFT
100
AcDbLine
 62
7
  6
CONTINUOUS
 10
-20.0001231095
 20
20.4503229513
 11
-18.720875119
 21
20.4503229513
  0
LINE
  5
53F
100
AcDbEntity
  8
DRAFT
100
AcDbLine
 62
7
  6
CONTINUOUS
 10
-3.779124881
 20
20.4503229513
 11
3.779124881
 21
20.4503229513
  0
LINE
  5
540
100
AcDbEntity
  8
DRAFT
100
AcDbLine
 62
7
  6
CONTINUOUS
 10
18.720875119
 20
20.4503229513
 11
20.0001231095
 21
20.4503229513
  0
LINE
  5
541
100
AcDbEntity
  8
0
100
AcDbLine
 62
7
  6
CONTINUOUS
 10
14.3459955457
 20
20.8
 11
8.1540044543
 21
20.8
  0
LINE
  5
542
100
AcDbEntity
  8
0
100
AcDbLine
 62
7
  6
CONTINUOUS
 10
-8.1540044543
 20
20.8
 11
-14.3459955457
 21
20.8
  0
LINE
  5
543
100
AcDbEntity
  8
0
100
AcDbLine
 62
7
  6
CONTINUOUS
 10
-20.1498936624
 20
20.9
 11
-19.5
 21
20.9
  0
LINE
  5
544
100
AcDbEntity
  8
DRAFT
100
AcDbLine
 62
7
  6
CONTINUOUS
 10
19.5
 20
20.9
 11
18.6459955457
 21
20.9
  0
LINE
  5
545
100
AcDbEntity
  8
DRAFT
100
AcDbLine
 62
7
  6
CONTINUOUS
 10
3.8540044543
 20
20.9
 11
-3.8540044543
 21
20.9
  0
LINE
  5
546
100
AcDbEntity
  8
0
100
AcDbLine
 62
7
  6
CONTINUOUS
 10
19.5
 20
20.9
 11
20.1498936624
 21
20.9
  0
LINE
  5
547
100
AcDbEntity
  8
DRAFT
100
AcDbLine
 62
7
  6
CONTINUOUS
 10
-18.6459955457
 20
20.9
 11
-19.5
 21
20.9
  0
LINE
  5
548
100
AcDbEntity
  8
0
100
AcDbLine
 62
7
  6
CONTINUOUS
 10
3.0174550649
 20
20.9087268678
 11
-3.0174550649
 21
20.9087268678
  0
LINE
  5
549
100
AcDbEntity
  8
DRAFT
100
AcDbLine
 62
7
  6
CONTINUOUS
 10
-18.8166456542
 20
20.9959955457
 11
-18.55
 21
20.9959955457
  0
LINE
  5
54A
100
AcDbEntity
  8
DRAFT
100
AcDbLine
 62
7
  6
CONTINUOUS
 10
18.8166456542
 20
20.9959955457
 11
18.55
 21
20.9959955457
  0
LINE
  5
54B
100
AcDbEntity
  8
DRAFT
100
AcDbLine
 62
7
  6
CONTINUOUS
 10
3.6833543458
 20
20.9959955457
 11
3.95
 21
20.9959955457
  0
LINE
  5
54C
100
AcDbEntity
  8
DRAFT
100
AcDbLine
 62
7
  6
CONTINUOUS
 10
-3.6833543458
 20
20.9959955457
 11
-3.95
 21
20.9959955457
  0
LINE
  5
54D
100
AcDbEntity
  8
0
100
AcDbLine
 62
253
  6
CONTINUOUS
 10
18.8166456542
 20
21.2859869487
 11
14.3459955457
 21
21.2859869487
  0
LINE
  5
54E
100
AcDbEntity
  8
0
100
AcDbLine
 62
253
  6
CONTINUOUS
 10
8.1540044543
 20
21.2859869487
 11
3.6833543458
 21
21.2859869487
  0
LINE
  5
54F
100
AcDbEntity
  8
0
100
AcDbLine
 62
253
  6
CONTINUOUS
 10
-3.6833543458
 20
21.2859869487
 11
-8.1540044543
 21
21.2859869487
  0
LINE
  5
550
100
AcDbEntity
  8
0
100
AcDbLine
 62
253
  6
CONTINUOUS
 10
-14.3459955457
 20
21.2859869487
 11
-18.8166456542
 21
21.2859869487
  0
LINE
  5
551
100
AcDbEntity
  8
0
100
AcDbLine
 62
7
  6
CONTINUOUS
 10
-14.3262444645
 20
21.6237555355
 11
-8.1737555355
 21
21.6237555355
  0
LINE
  5
552
100
AcDbEntity
  8
0
100
AcDbLine
 62
7
  6
CONTINUOUS
 10
8.1737555355
 20
21.6237555355
 11
14.3262444645
 21
21.6237555355
  0
LINE
  5
553
100
AcDbEntity
  8
0
100
AcDbLine
 62
7
  6
CONTINUOUS
 10
-14.25
 20
21.7
 11
-8.25
 21
21.7
  0
LINE
  5
554
100
AcDbEntity
  8
0
100
AcDbLine
 62
7
  6
CONTINUOUS
 10
14.25
 20
21.7
 11
8.25
 21
21.7
  0
LINE
  5
555
100
AcDbEntity
  8
0
100
AcDbLine
 62
253
  6
CONTINUOUS
 10
18.4905416262
 20
22.2859700255
 11
14.3373194485
 21
22.2859700255
  0
LINE
  5
556
100
AcDbEntity
  8
0
100
AcDbLine
 62
253
  6
CONTINUOUS
 10
8.1626805515
 20
22.2859700255
 11
4.0094583738
 21
22.2859700255
  0
LINE
  5
557
100
AcDbEntity
  8
0
100
AcDbLine
 62
253
  6
CONTINUOUS
 10
-4.0094583738
 20
22.2859700255
 11
-8.1626805515
 21
22.2859700255
  0
LINE
  5
558
100
AcDbEntity
  8
0
100
AcDbLine
 62
253
  6
CONTINUOUS
 10
-14.3373194485
 20
22.2859700255
 11
-18.4905416262
 21
22.2859700255
  0
LINE
  5
559
100
AcDbEntity
  8
0
100
AcDbLine
 62
7
  6
CONTINUOUS
 10
-3.9507059952
 20
22.3383643404
 11
3.9507059952
 21
22.3383643404
  0
LINE
  5
55A
100
AcDbEntity
  8
0
100
AcDbLine
 62
7
  6
CONTINUOUS
 10
-21.8412794783
 20
22.3441821702
 11
-18.5558178298
 21
22.3441821702
  0
LINE
  5
55B
100
AcDbEntity
  8
0
100
AcDbLine
 62
7
  6
CONTINUOUS
 10
14.75
 20
22.3441821702
 11
14.25
 21
22.3441821702
  0
LINE
  5
55C
100
AcDbEntity
  8
0
100
AcDbLine
 62
7
  6
CONTINUOUS
 10
8.25
 20
22.3441821702
 11
7.75
 21
22.3441821702
  0
LINE
  5
55D
100
AcDbEntity
  8
0
100
AcDbLine
 62
7
  6
CONTINUOUS
 10
-7.75
 20
22.3441821702
 11
-8.25
 21
22.3441821702
  0
LINE
  5
55E
100
AcDbEntity
  8
0
100
AcDbLine
 62
7
  6
CONTINUOUS
 10
-14.25
 20
22.3441821702
 11
-14.75
 21
22.3441821702
  0
LINE
  5
55F
100
AcDbEntity
  8
0
100
AcDbLine
 62
7
  6
CONTINUOUS
 10
18.5558178298
 20
22.3441821702
 11
21.8412794783
 21
22.3441821702
  0
LINE
  5
560
100
AcDbEntity
  8
0
100
AcDbLine
 62
7
  6
CONTINUOUS
 10
21.8503805997
 20
22.35
 11
15.6552360356
 21
22.35
  0
LINE
  5
561
100
AcDbEntity
  8
0
100
AcDbLine
 62
7
  6
CONTINUOUS
 10
6.8447639644
 20
22.35
 11
-6.8447639644
 21
22.35
  0
LINE
  5
562
100
AcDbEntity
  8
0
100
AcDbLine
 62
7
  6
CONTINUOUS
 10
-15.6552360356
 20
22.35
 11
-21.8503805997
 21
22.35
  0
LINE
  5
563
100
AcDbEntity
  8
0
100
AcDbLine
 62
7
  6
CONTINUOUS
 10
-21.8197639644
 20
23.2226497308
 11
-19.5552360356
 21
23.2226497308
  0
LINE
  5
564
100
AcDbEntity
  8
0
100
AcDbLine
 62
7
  6
CONTINUOUS
 10
21.8197639644
 20
23.2226497308
 11
19.5552360356
 21
23.2226497308
  0
LINE
  5
565
100
AcDbEntity
  8
0
100
AcDbLine
 62
7
  6
CONTINUOUS
 10
0.6802360356
 20
23.2226497308
 11
2.9447639644
 21
23.2226497308
  0
LINE
  5
566
100
AcDbEntity
  8
0
100
AcDbLine
 62
7
  6
CONTINUOUS
 10
-0.6802360356
 20
23.2226497308
 11
-2.9447639644
 21
23.2226497308
  0
LINE
  5
567
100
AcDbEntity
  8
0
100
AcDbLine
 62
7
  6
CONTINUOUS
 10
-15.6159383532
 20
23.7659383532
 11
-14.8067703336
 21
23.7659383532
  0
LINE
  5
568
100
AcDbEntity
  8
0
100
AcDbLine
 62
7
  6
CONTINUOUS
 10
-7.6932296664
 20
23.7659383532
 11
-6.8840616468
 21
23.7659383532
  0
LINE
  5
569
100
AcDbEntity
  8
0
100
AcDbLine
 62
7
  6
CONTINUOUS
 10
6.8840616468
 20
23.7659383532
 11
7.6932296664
 21
23.7659383532
  0
LINE
  5
56A
100
AcDbEntity
  8
0
100
AcDbLine
 62
7
  6
CONTINUOUS
 10
14.8067703336
 20
23.7659383532
 11
15.6159383532
 21
23.7659383532
  0
LINE
  5
56B
100
AcDbEntity
  8
0
100
AcDbLine
 62
7
  6
CONTINUOUS
 10
-21.825
 20
23.8
 11
-19.55
 21
23.8
  0
LINE
  5
56C
100
AcDbEntity
  8
0
100
AcDbLine
 62
7
  6
CONTINUOUS
 10
21.825
 20
23.8
 11
19.55
 21
23.8
  0
LINE
  5
56D
100
AcDbEntity
  8
0
100
AcDbLine
 62
7
  6
CONTINUOUS
 10
0.675
 20
23.8
 11
2.95
 21
23.8
  0
LINE
  5
56E
100
AcDbEntity
  8
0
100
AcDbLine
 62
7
  6
CONTINUOUS
 10
-0.675
 20
23.8
 11
-2.95
 21
23.8
  0
LINE
  5
56F
100
AcDbEntity
  8
0
100
AcDbLine
 62
7
  6
CONTINUOUS
 10
6.85
 20
23.8
 11
15.65
 21
23.8
  0
LINE
  5
570
100
AcDbEntity
  8
0
100
AcDbLine
 62
7
  6
CONTINUOUS
 10
-6.85
 20
23.8
 11
-15.65
 21
23.8
  0
LINE
  5
571
100
AcDbEntity
  8
0
100
AcDbLine
 62
7
  6
CONTINUOUS
 10
6.85
 20
23.8
 11
6.8840616468
 21
23.7659383532
  0
LINE
  5
572
100
AcDbEntity
  8
DRAFT
100
AcDbLine
 62
7
  6
CONTINUOUS
 10
18.720875119
 20
20.4503229513
 11
18.6459955457
 21
20.9
  0
LINE
  5
573
100
AcDbEntity
  8
0
100
AcDbLine
 62
7
  6
CONTINUOUS
 10
14.25
 20
-21.7
 11
14.3262444645
 21
-21.6237555355
  0
LINE
  5
574
100
AcDbEntity
  8
DRAFT
100
AcDbLine
 62
7
  6
CONTINUOUS
 10
18.55
 20
-20.9959955457
 11
18.6459955457
 21
-20.9
  0
LINE
  5
575
100
AcDbEntity
  8
0
100
AcDbLine
 62
7
  6
CONTINUOUS
 10
14.3373194485
 20
-22.2859700255
 11
14.25
 21
-22.3441821702
  0
LINE
  5
576
100
AcDbEntity
  8
0
100
AcDbLine
 62
7
  6
CONTINUOUS
 10
14.75
 20
-22.3441821702
 11
14.8075937104
 21
-22.3057869048
  0
LINE
  5
577
100
AcDbEntity
  8
0
100
AcDbLine
 62
7
  6
CONTINUOUS
 10
14.8067703336
 20
-23.7659383532
 11
14.75
 21
-23.8
  0
LINE
  5
578
100
AcDbEntity
  8
0
100
AcDbLine
 62
7
  6
CONTINUOUS
 10
19.3165695018
 20
-20.9917082642
 11
19.5
 21
-20.9
  0
LINE
  5
579
100
AcDbEntity
  8
0
100
AcDbLine
 62
7
  6
CONTINUOUS
 10
19.3165695018
 20
-21.4537354271
 11
19.5
 21
-21.4
  0
LINE
  5
57A
100
AcDbEntity
  8
0
100
AcDbLine
 62
7
  6
CONTINUOUS
 10
-21.5750034269
 20
24.5
 11
-19.7999965731
 21
24.5
  0
LINE
  5
57B
100
AcDbEntity
  8
0
100
AcDbLine
 62
7
  6
CONTINUOUS
 10
21.5750034269
 20
24.5
 11
19.7999965731
 21
24.5
  0
LINE
  5
57C
100
AcDbEntity
  8
0
100
AcDbLine
 62
7
  6
CONTINUOUS
 10
0.9249965731
 20
24.5
 11
2.7000034269
 21
24.5
  0
LINE
  5
57D
100
AcDbEntity
  8
0
100
AcDbLine
 62
7
  6
CONTINUOUS
 10
-0.9249965731
 20
24.5
 11
-2.7000034269
 21
24.5
  0
LINE
  5
57E
100
AcDbEntity
  8
0
100
AcDbLine
 62
7
  6
CONTINUOUS
 10
19.3165695018
 20
21.4537354271
 11
19.5
 21
21.4
  0
LINE
  5
57F
100
AcDbEntity
  8
0
100
AcDbLine
 62
7
  6
CONTINUOUS
 10
19.3165695018
 20
20.9917082642
 11
19.5
 21
20.9
  0
LINE
  5
580
100
AcDbEntity
  8
0
100
AcDbLine
 62
7
  6
CONTINUOUS
 10
14.8067703336
 20
23.7659383532
 11
14.75
 21
23.8
  0
LINE
  5
581
100
AcDbEntity
  8
0
100
AcDbLine
 62
7
  6
CONTINUOUS
 10
14.3373194485
 20
22.2859700255
 11
14.25
 21
22.3441821702
  0
LINE
  5
582
100
AcDbEntity
  8
0
100
AcDbLine
 62
7
  6
CONTINUOUS
 10
14.75
 20
22.3441821702
 11
14.8075937104
 21
22.3057869048
  0
LINE
  5
583
100
AcDbEntity
  8
0
100
AcDbLine
 62
7
  6
CONTINUOUS
 10
14.25
 20
21.7
 11
14.3262444645
 21
21.6237555355
  0
LINE
  5
584
100
AcDbEntity
  8
DRAFT
100
AcDbLine
 62
7
  6
CONTINUOUS
 10
18.55
 20
20.9959955457
 11
18.6459955457
 21
20.9
  0
LINE
  5
585
100
AcDbEntity
  8
0
100
AcDbLine
 62
7
  6
CONTINUOUS
 10
20.85
 20
-20.1990396502
 11
20.1498936624
 21
-20.9
  0
LINE
  5
586
100
AcDbEntity
  8
0
100
AcDbLine
 62
7
  6
CONTINUOUS
 10
18.5558178298
 20
-22.3441821702
 11
19.5
 21
-21.4
  0
LINE
  5
587
100
AcDbEntity
  8
0
100
AcDbLine
 62
7
  6
CONTINUOUS
 10
21.4
 20
-19.5
 11
22.3412731322
 21
-18.5587268678
  0
LINE
  5
588
100
AcDbEntity
  8
0
100
AcDbLine
 62
7
  6
CONTINUOUS
 10
18.5558178298
 20
22.3441821702
 11
19.5
 21
21.4
  0
LINE
  5
589
100
AcDbEntity
  8
0
100
AcDbLine
 62
7
  6
CONTINUOUS
 10
22.3412731322
 20
18.5587268678
 11
21.4
 21
19.5
  0
LINE
  5
58A
100
AcDbEntity
  8
0
100
AcDbLine
 62
7
  6
CONTINUOUS
 10
20.85
 20
20.1990396502
 11
20.1498936624
 21
20.9
  0
ARC
  5
58B
100
AcDbEntity
  8
ASSI
100
AcDbCircle
 62
7
  6
CONTINUOUS
 10
16.917556
 20
-16.5
 40
2.5499986575
100
AcDbArc
 50
87.752529198
 51
272.247470802
  0
ARC
  5
58C
100
AcDbEntity
  8
ASSI
100
AcDbCircle
 62
7
  6
CONTINUOUS
 10
12.532446
 20
-16.5
 40
2.5499985399
100
AcDbArc
 50
87.7525290943
 51
272.2474709057
  0
ARC
  5
58D
100
AcDbEntity
  8
ASSI
100
AcDbCircle
 62
7
  6
CONTINUOUS
 10
7.5
 20
-17.0
 40
2.0240299518
100
AcDbArc
 50
292.0885283167
 51
273.4299000434
  0
ARC
  5
58E
100
AcDbEntity
  8
ASSI
100
AcDbCircle
 62
7
  6
CONTINUOUS
 10
7.438781
 20
-20.815557
 40
1.8043863978
100
AcDbArc
 50
47.231266101
 51
84.2010647067
  0
ARC
  5
58F
100
AcDbEntity
  8
ASSI
100
AcDbCircle
 62
7
  6
CONTINUOUS
 10
16.917556
 20
-16.5
 40
1.7999999246
100
AcDbArc
 50
86.8152613297
 51
167.9753003079
  0
ARC
  5
590
100
AcDbEntity
  8
ASSI
100
AcDbCircle
 62
7
  6
CONTINUOUS
 10
12.532446
 20
-16.5
 40
1.7999999246
100
AcDbArc
 50
86.8152613297
 51
273.1847386704
  0
ARC
  5
591
100
AcDbEntity
  8
ASSI
100
AcDbCircle
 62
7
  6
CONTINUOUS
 10
16.917556
 20
-16.5
 40
1.7999968808
100
AcDbArc
 50
192.0247203293
 51
273.1847440612
  0
ARC
  5
592
100
AcDbEntity
  8
ASSI
100
AcDbCircle
 62
7
  6
CONTINUOUS
 10
7.580786
 20
-20.523287
 40
1.7827319001
100
AcDbArc
 50
45.4349102329
 51
67.565881117
  0
CIRCLE
  5
593
100
AcDbEntity
  8
ASSI
100
AcDbCircle
 62
7
  6
CONTINUOUS
 10
7.5
 20
-17.0
 40
1.700044
  0
ARC
  5
594
100
AcDbEntity
  8
ASSI
100
AcDbCircle
 62
7
  6
CONTINUOUS
 10
7.5
 20
-17.0
 40
1.5204522959
100
AcDbArc
 50
134.9002633258
 51
240.6958764731
  0
ARC
  5
595
100
AcDbEntity
  8
ASSI
100
AcDbCircle
 62
7
  6
CONTINUOUS
 10
7.5
 20
-17.0
 40
1.5204520975
100
AcDbArc
 50
299.3041235269
 51
44.9957610488
  0
ARC
  5
596
100
AcDbEntity
  8
ASSI
100
AcDbCircle
 62
7
  6
CONTINUOUS
 10
7.5
 20
-17.0
 40
1.2181566122
100
AcDbArc
 50
299.3041277351
 51
31.9732965665
  0
ARC
  5
597
100
AcDbEntity
  8
ASSI
100
AcDbCircle
 62
7
  6
CONTINUOUS
 10
7.5
 20
-17.0
 40
1.2181564327
100
AcDbArc
 50
148.0267046423
 51
240.6958722649
  0
ARC
  5
598
100
AcDbEntity
  8
0
100
AcDbCircle
 62
7
  6
CONTINUOUS
 10
7.25
 20
-23.15
 40
0.5
100
AcDbArc
 50
137.04856697
 51
222.95143303
  0
ARC
  5
599
100
AcDbEntity
  8
0
100
AcDbCircle
 62
7
  6
CONTINUOUS
 10
15.25
 20
-23.15
 40
0.5
100
AcDbArc
 50
317.04856697
 51
42.95143303
  0
ARC
  5
59A
100
AcDbEntity
  8
0
100
AcDbCircle
 62
7
  6
CONTINUOUS
 10
7.25
 20
23.15
 40
0.5
100
AcDbArc
 50
137.04856697
 51
222.95143303
  0
ARC
  5
59B
100
AcDbEntity
  8
0
100
AcDbCircle
 62
7
  6
CONTINUOUS
 10
15.25
 20
23.15
 40
0.5
100
AcDbArc
 50
317.04856697
 51
42.95143303
  0
ARC
  5
59C
100
AcDbEntity
  8
0
100
AcDbCircle
 62
7
  6
CONTINUOUS
 10
-15.25
 20
-23.15
 40
0.5
100
AcDbArc
 50
137.04856697
 51
222.95143303
  0
ARC
  5
59D
100
AcDbEntity
  8
0
100
AcDbCircle
 62
7
  6
CONTINUOUS
 10
-7.25
 20
-23.15
 40
0.5
100
AcDbArc
 50
317.04856697
 51
42.95143303
  0
ARC
  5
59E
100
AcDbEntity
  8
0
100
AcDbCircle
 62
7
  6
CONTINUOUS
 10
-15.25
 20
23.15
 40
0.5
100
AcDbArc
 50
137.04856697
 51
222.95143303
  0
ARC
  5
59F
100
AcDbEntity
  8
0
100
AcDbCircle
 62
7
  6
CONTINUOUS
 10
-7.25
 20
23.15
 40
0.5
100
AcDbArc
 50
317.04856697
 51
42.95143303
  0
ARC
  5
5A0
100
AcDbEntity
  8
0
100
AcDbCircle
 62
7
  6
CONTINUOUS
 10
21.8500379269
 20
-21.8500492562
 40
0.4999540432
100
AcDbArc
 50
270.0392712812
 51
0.0318712707
  0
ARC
  5
5A1
100
AcDbEntity
  8
0
100
AcDbCircle
 62
7
  6
CONTINUOUS
 10
-21.8500379951
 20
21.8500492541
 40
0.4999540432
100
AcDbArc
 50
90.0392634605
 51
180.0318710392
  0
ARC
  5
5A2
100
AcDbEntity
  8
0
100
AcDbCircle
 62
7
  6
CONTINUOUS
 10
21.8500381445
 20
21.8500495277
 40
0.499953721
100
AcDbArc
 50
359.9962634925
 51
90.0036441889
  0
ARC
  5
5A3
100
AcDbEntity
  8
0
100
AcDbCircle
 62
7
  6
CONTINUOUS
 10
-21.8500382388
 20
-21.8500494994
 40
0.499953721
100
AcDbArc
 50
179.9962667338
 51
270.0036549929
  0
SPLINE
  5
5A4
100
AcDbEntity
  8
0
100
AcDbSpline
 62
7
  6
CONTINUOUS
 70
0
 71
3
 72
14
 73
10
 74
8
 42
0.0000001
 43
0.0000001
 44
0.0000000001
 12
0.5896122414
 22
0.0
 32
0.0
 13
0.0736355371
 23
-0.58499605
 33
0.0
 40
0.0
 40
0.0
 40
0.0
 40
0.0
 40
0.169813907
 40
0.3679610492
 40
0.4548043277
 40
0.5366456165
 40
0.6096742719
 40
0.7029516352
 40
1.0
 40
1.0
 40
1.0
 40
1.0
 10
-18.981362804
 20
-10.0100303132
 30
0.0
 10
-18.9479880179
 20
-10.0100303132
 30
0.0
 10
-18.8755136583
 20
-10.0138952454
 30
0.0
 10
-18.7885412177
 20
-10.0432864549
 30
0.0
 10
-18.7303605141
 20
-10.0864217438
 30
0.0
 10
-18.6960539233
 20
-10.1194057928
 30
0.0
 10
-18.6672572489
 20
-10.1595533373
 30
0.0
 10
-18.6421314063
 20
-10.2482510367
 30
0.0
 10
-18.6354761053
 20
-10.3246447518
 30
0.0
 10
-18.628185
 20
-10.3825687918
 30
0.0
 11
-18.981362804
 21
-10.0100303132
 31
0.0
 11
-18.8815434089
 21
-10.0178389935
 31
0.0
 11
-18.7717514823
 21
-10.0577761596
 31
0.0
 11
-18.7303125874
 21
-10.0878536142
 31
0.0
 11
-18.695922611
 21
-10.1217038494
 31
0.0
 11
-18.6715895422
 21
-10.1572276988
 31
0.0
 11
-18.6540097547
 21
-10.2093398217
 31
0.0
 11
-18.628185
 21
-10.3825687918
 31
0.0
  0
SPLINE
  5
5A5
100
AcDbEntity
  8
0
100
AcDbSpline
 62
7
  6
CONTINUOUS
 70
0
 71
3
 72
14
 73
10
 74
8
 42
0.0000001
 43
0.0000001
 44
0.0000000001
 12
0.0736367352
 22
0.5849990871
 32
0.0
 13
0.5896153804
 23
-0.0
 33
0.0
 40
0.0
 40
0.0
 40
0.0
 40
0.0
 40
0.2970521072
 40
0.3903289739
 40
0.4633572406
 40
0.5451980936
 40
0.6320409098
 40
0.8301869971
 40
1.0
 40
1.0
 40
1.0
 40
1.0
 10
-19.334541
 20
-10.3825719063
 30
0.0
 10
-19.3272496842
 20
-10.3246468358
 30
0.0
 10
-19.3205944904
 20
-10.2482520559
 30
0.0
 10
-19.295468359
 20
-10.1595533373
 30
0.0
 10
-19.2666716847
 20
-10.1194057928
 30
0.0
 10
-19.2323650938
 20
-10.0864217438
 30
0.0
 10
-19.1741843903
 20
-10.0432864549
 30
0.0
 10
-19.0872119497
 20
-10.0138952454
 30
0.0
 10
-19.0147375901
 20
-10.0100303132
 30
0.0
 10
-18.981362804
 20
-10.0100303132
 30
0.0
 11
-19.334541
 21
-10.3825719063
 31
0.0
 11
-19.3087158532
 21
-10.2093398217
 31
0.0
 11
-19.2911360657
 21
-10.1572276988
 31
0.0
 11
-19.2668029969
 21
-10.1217038494
 31
0.0
 11
-19.2324130206
 21
-10.0878536142
 31
0.0
 11
-19.1909741256
 21
-10.0577761596
 31
0.0
 11
-19.0811821991
 21
-10.0178389935
 31
0.0
 11
-18.981362804
 21
-10.0100303132
 31
0.0
  0
SPLINE
  5
5A6
100
AcDbEntity
  8
0
100
AcDbSpline
 62
7
  6
CONTINUOUS
 70
0
 71
3
 72
16
 73
12
 74
10
 42
0.0000001
 43
0.0000001
 44
0.0000000001
 12
-0.0545110699
 22
1.470779212
 32
0.0
 13
-1.4717889362
 23
0.0
 33
0.0
 40
0.0
 40
0.0
 40
0.0
 40
0.0
 40
0.187248369
 40
0.2847874705
 40
0.3556904934
 40
0.4294340304
 40
0.5090121018
 40
0.6543606825
 40
0.8097975072
 40
0.8991152061
 40
1.0
 40
1.0
 40
1.0
 40
1.0
 10
-18.212725
 20
-10.4673986442
 30
0.0
 10
-18.2161273696
 20
-10.375598308
 30
0.0
 10
-18.2217004656
 20
-10.2361835505
 30
0.0
 10
-18.2384298626
 20
-10.0617782093
 30
0.0
 10
-18.2721361848
 20
-9.9474638944
 30
0.0
 10
-18.309237214
 20
-9.8439214836
 30
0.0
 10
-18.3708190207
 20
-9.7104932626
 30
0.0
 10
-18.4959327827
 20
-9.5653886832
 30
0.0
 10
-18.6718021373
 20
-9.478371892
 30
0.0
 10
-18.8383460177
 20
-9.4440538492
 30
0.0
 10
-18.9318690962
 20
-9.4386795248
 30
0.0
 10
-18.981362804
 20
-9.4386795248
 30
0.0
 11
-18.212725
 21
-10.4673986442
 31
0.0
 11
-18.2268373104
 21
-10.1921701331
 31
0.0
 11
-18.2448869762
 21
-10.0497523907
 31
0.0
 11
-18.2726545068
 21
-9.9491602391
 31
0.0
 11
-18.3097161997
 21
-9.8471491603
 31
0.0
 11
-18.3607138412
 21
-9.7417127686
 31
0.0
 11
-18.5011760061
 21
-9.580364736
 31
0.0
 11
-18.7046720962
 21
-9.4758413166
 31
0.0
 11
-18.8331860393
 21
-9.4481816539
 31
0.0
 11
-18.981362804
 21
-9.4386795248
 31
0.0
  0
SPLINE
  5
5A7
100
AcDbEntity
  8
0
100
AcDbSpline
 62
7
  6
CONTINUOUS
 70
0
 71
3
 72
16
 73
12
 74
10
 42
0.0000001
 43
0.0000001
 44
0.0000000001
 12
-1.4717725213
 22
0.0
 32
0.0
 13
-0.0545109621
 23
-1.470762551
 33
0.0
 40
0.0
 40
0.0
 40
0.0
 40
0.0
 40
0.1008859191
 40
0.1902046141
 40
0.3456431724
 40
0.4909933743
 40
0.5705723332
 40
0.6443166927
 40
0.7152205063
 40
0.8127606958
 40
1.0
 40
1.0
 40
1.0
 40
1.0
 10
-18.981362804
 20
-9.4386795248
 30
0.0
 10
-19.0308565118
 20
-9.4386795248
 30
0.0
 10
-19.1243795903
 20
-9.4440538492
 30
0.0
 10
-19.2909234706
 20
-9.478371892
 30
0.0
 10
-19.4667928252
 20
-9.5653886832
 30
0.0
 10
-19.5919065872
 20
-9.7104932626
 30
0.0
 10
-19.653488394
 20
-9.8439214836
 30
0.0
 10
-19.6905894231
 20
-9.9474638944
 30
0.0
 10
-19.7242957454
 20
-10.0617782093
 30
0.0
 10
-19.7410246178
 20
-10.2361780818
 30
0.0
 10
-19.7465978018
 20
-10.3755873883
 30
0.0
 10
-19.75
 20
-10.4673822405
 30
0.0
 11
-18.981362804
 21
-9.4386795248
 31
0.0
 11
-19.1295395686
 21
-9.4481816539
 31
0.0
 11
-19.2580535118
 21
-9.4758413166
 31
0.0
 11
-19.4615496019
 21
-9.580364736
 31
0.0
 11
-19.6020117667
 21
-9.7417127686
 31
0.0
 11
-19.6530094083
 21
-9.8471491603
 31
0.0
 11
-19.6900711011
 21
-9.9491602391
 31
0.0
 11
-19.7178386318
 21
-10.0497523907
 31
0.0
 11
-19.7358882976
 21
-10.1921701331
 31
0.0
 11
-19.75
 21
-10.4673822405
 31
0.0
  0
SPLINE
  5
5A8
100
AcDbEntity
  8
0
100
AcDbSpline
 62
7
  6
CONTINUOUS
 70
0
 71
3
 72
13
 73
9
 74
7
 42
0.0000001
 43
0.0000001
 44
0.0000000001
 12
1.1749907131
 22
0.0
 32
0.0
 13
0.0000002754
 23
1.1749907903
 33
0.0
 40
0.0
 40
0.0
 40
0.0
 40
0.0
 40
0.2440853867
 40
0.3951682524
 40
0.586595894
 40
0.7510189876
 40
0.8853909028
 40
1.0
 40
1.0
 40
1.0
 40
1.0
 10
0.9282258683
 20
18.5012087937
 30
0.0
 10
1.0238252225
 20
18.5012087937
 30
0.0
 10
1.1818796189
 20
18.5301893471
 30
0.0
 10
1.3785118304
 20
18.6554649817
 30
0.0
 10
1.5012805508
 20
18.8175004388
 30
0.0
 10
1.5694289143
 20
18.9983956827
 30
0.0
 10
1.5997432394
 20
19.1583341801
 30
0.0
 10
1.6006347019
 20
19.256100782
 30
0.0
 10
1.6006347124
 20
19.3009889932
 30
0.0
 11
0.9282258683
 21
18.5012087937
 31
0.0
 11
1.2093142735
 21
18.5581511962
 31
0.0
 11
1.3587880801
 21
18.6539179641
 31
0.0
 11
1.4971969426
 21
18.8312158992
 31
0.0
 11
1.5676631657
 21
19.0111021253
 31
0.0
 11
1.596134367
 21
19.1663995867
 31
0.0
 11
1.6006347124
 21
19.3009889932
 31
0.0
  0
SPLINE
  5
5A9
100
AcDbEntity
  8
0
100
AcDbSpline
 62
7
  6
CONTINUOUS
 70
0
 71
3
 72
13
 73
9
 74
7
 42
0.0000001
 43
0.0000001
 44
0.0000000001
 12
0.0000002754
 22
1.1749940894
 32
0.0
 13
-1.1749941666
 23
0.0
 33
0.0
 40
0.0
 40
0.0
 40
0.0
 40
0.0
 40
0.1146116995
 40
0.2489832197
 40
0.4134058301
 40
0.604832909
 40
0.7559153307
 40
1.0
 40
1.0
 40
1.0
 40
1.0
 10
1.6006347124
 20
19.3009889932
 30
0.0
 10
1.6006347229
 20
19.3458783497
 30
0.0
 10
1.5997434549
 20
19.4436461227
 30
0.0
 10
1.5694289143
 20
19.6035857572
 30
0.0
 10
1.5012805508
 20
19.7844810012
 30
0.0
 10
1.3785118304
 20
19.9465164582
 30
0.0
 10
1.1818796189
 20
20.0717920928
 30
0.0
 10
1.0238252225
 20
20.1007726463
 30
0.0
 10
0.9282258683
 20
20.1007726463
 30
0.0
 11
1.6006347124
 21
19.3009889932
 31
0.0
 11
1.596134367
 21
19.4355818532
 31
0.0
 11
1.5676631657
 21
19.5908793146
 31
0.0
 11
1.4971969426
 21
19.7707655408
 31
0.0
 11
1.3587880801
 21
19.9480634759
 31
0.0
 11
1.2093142735
 21
20.0438302437
 31
0.0
 11
0.9282258683
 21
20.1007726463
 31
0.0
  0
SPLINE
  5
5AA
100
AcDbEntity
  8
0
100
AcDbSpline
 62
7
  6
CONTINUOUS
 70
0
 71
3
 72
13
 73
9
 74
7
 42
0.0000001
 43
0.0000001
 44
0.0000000001
 12
-0.0000007019
 22
-0.8818292726
 32
0.0
 13
-0.8818292729
 23
0.0
 33
0.0
 40
0.0
 40
0.0
 40
0.0
 40
0.0
 40
0.170594464
 40
0.3141151008
 40
0.5170631194
 40
0.6977972499
 40
0.8426894471
 40
1.0
 40
1.0
 40
1.0
 40
1.0
 10
1.3788093739
 20
19.3009898574
 30
0.0
 10
1.378809334
 20
19.2508447934
 30
0.0
 10
1.372400052
 20
19.158515781
 30
0.0
 10
1.3463846317
 20
19.0082745721
 30
0.0
 10
1.2805401344
 20
18.8647502425
 30
0.0
 10
1.1683691263
 20
18.7511880551
 30
0.0
 10
1.0348316974
 20
18.695956797
 30
0.0
 10
0.945477359
 20
18.6862716019
 30
0.0
 10
0.8992370089
 20
18.6862716019
 30
0.0
 11
1.3788093739
 21
19.3009898574
 31
0.0
 11
1.3690765369
 21
19.1508698406
 31
0.0
 11
1.3449407231
 21
19.0266318715
 31
0.0
 11
1.2683920161
 21
18.8648636825
 31
0.0
 11
1.1543130892
 21
18.7535671685
 31
0.0
 11
1.0369340913
 21
18.7030954935
 31
0.0
 11
0.8992370089
 21
18.6862716019
 31
0.0
  0
SPLINE
  5
5AB
100
AcDbEntity
  8
0
100
AcDbSpline
 62
7
  6
CONTINUOUS
 70
0
 71
3
 72
13
 73
9
 74
7
 42
0.0000001
 43
0.0000001
 44
0.0000000001
 12
0.881830998
 22
0.0
 32
0.0
 13
-0.0000007019
 23
-0.8818309983
 33
0.0
 40
0.0
 40
0.0
 40
0.0
 40
0.0
 40
0.1573102452
 40
0.3022021589
 40
0.4829359359
 40
0.6858835575
 40
0.8294039135
 40
1.0
 40
1.0
 40
1.0
 40
1.0
 10
0.8992370089
 20
19.9157098381
 30
0.0
 10
0.945477359
 20
19.9157098381
 30
0.0
 10
1.0348316974
 20
19.9060246429
 30
0.0
 10
1.1683691263
 20
19.8507933848
 30
0.0
 10
1.2805401344
 20
19.7372311975
 30
0.0
 10
1.3463846317
 20
19.5937068678
 30
0.0
 10
1.3724001504
 20
19.4434650905
 30
0.0
 10
1.3788094139
 20
19.3511354965
 30
0.0
 10
1.3788093739
 20
19.3009898574
 30
0.0
 11
0.8992370089
 21
19.9157098381
 31
0.0
 11
1.0369340913
 21
19.8988859464
 31
0.0
 11
1.1543130892
 21
19.8484142715
 31
0.0
 11
1.2683920161
 21
19.7371177575
 31
0.0
 11
1.3449407231
 21
19.5753495685
 31
0.0
 11
1.3690765369
 21
19.4511115993
 31
0.0
 11
1.3788093739
 21
19.3009898574
 31
0.0
  0
SPLINE
  5
5AC
100
AcDbEntity
  8
0
100
AcDbSpline
 62
7
  6
CONTINUOUS
 70
0
 71
3
 72
9
 73
5
 74
3
 42
0.0000001
 43
0.0000001
 44
0.0000000001
 12
0.4529420129
 22
0.0772875072
 32
0.0
 13
0.4564242747
 23
-0.0529783657
 33
0.0
 40
0.0
 40
0.0
 40
0.0
 40
0.0
 40
0.5157390107
 40
1.0
 40
1.0
 40
1.0
 40
1.0
 10
-7.6173027459
 20
17.4449452041
 30
0.0
 10
-7.539436124
 20
17.4582319316
 30
0.0
 10
-7.3868977702
 20
17.4777323007
 30
0.0
 10
-7.2331478892
 20
17.4699778141
 30
0.0
 10
-7.1594717322
 20
17.4614260288
 30
0.0
 11
-7.6173027459
 21
17.4449452041
 31
0.0
 11
-7.3817739145
 21
17.4710967039
 31
0.0
 11
-7.1594717322
 21
17.4614260288
 31
0.0
  0
SPLINE
  5
5AD
100
AcDbEntity
  8
0
100
AcDbSpline
 62
7
  6
CONTINUOUS
 70
0
 71
3
 72
10
 73
6
 74
4
 42
0.0000001
 43
0.0000001
 44
0.0000000001
 12
0.5175457361
 22
-0.0600869426
 32
0.0
 13
0.0077222452
 23
-0.5209336738
 33
0.0
 40
0.0
 40
0.0
 40
0.0
 40
0.0
 40
0.4964876759
 40
0.7407608183
 40
1.0
 40
1.0
 40
1.0
 40
1.0
 10
-7.1594717322
 20
17.4614260288
 30
0.0
 10
-7.073820039
 20
17.4514818867
 30
0.0
 10
-6.9442968413
 20
17.3928222529
 30
0.0
 10
-6.847256323
 20
17.244524134
 30
0.0
 10
-6.8300140579
 20
17.1561575513
 30
0.0
 10
-6.829346755
 20
17.1111420782
 30
0.0
 11
-7.1594717322
 21
17.4614260288
 31
0.0
 11
-6.9260896069
 21
17.3498524197
 31
0.0
 11
-6.856150419
 21
17.243519936
 31
0.0
 11
-6.829346755
 21
17.1111420782
 31
0.0
  0
SPLINE
  5
5AE
100
AcDbEntity
  8
0
100
AcDbSpline
 62
7
  6
CONTINUOUS
 70
0
 71
3
 72
10
 73
6
 74
4
 42
0.0000001
 43
0.0000001
 44
0.0000000001
 12
0.0106363896
 22
-0.7074905322
 32
0.0
 13
-0.7073330599
 23
-0.0157987992
 33
0.0
 40
0.0
 40
0.0
 40
0.0
 40
0.0
 40
0.2926185832
 40
0.5273917329
 40
1.0
 40
1.0
 40
1.0
 40
1.0
 10
-6.829346755
 20
17.1111420782
 30
0.0
 10
-6.8283092866
 20
17.0421337858
 30
0.0
 10
-6.8432527661
 20
16.9138467608
 30
0.0
 10
-6.9896749186
 20
16.7153286201
 30
0.0
 10
-7.1718888729
 20
16.6788607944
 30
0.0
 10
-7.2833193568
 20
16.6763719134
 30
0.0
 11
-6.829346755
 21
17.1111420782
 31
0.0
 11
-6.8640641017
 21
16.9070381798
 31
0.0
 11
-6.9635126262
 21
16.7739945568
 31
0.0
 11
-7.2833193568
 21
16.6763719134
 31
0.0
  0
SPLINE
  5
5AF
100
AcDbEntity
  8
0
100
AcDbSpline
 62
7
  6
CONTINUOUS
 70
0
 71
3
 72
9
 73
5
 74
3
 42
0.0000001
 43
0.0000001
 44
0.0000000001
 12
-0.2053978623
 22
0.7562592206
 32
0.0
 13
-0.2059945995
 23
0.7560968956
 33
0.0
 40
0.0
 40
0.0
 40
0.0
 40
0.0
 40
0.1980141723
 40
1.0
 40
1.0
 40
1.0
 40
1.0
 10
-6.1408517881
 20
15.1221986456
 30
0.0
 10
-6.1544090173
 20
15.1721153268
 30
0.0
 10
-6.2207655796
 20
15.4247683575
 30
0.0
 10
-6.2855689249
 20
15.6778333439
 30
0.0
 10
-6.3406371747
 20
15.8799596754
 30
0.0
 11
-6.1408517881
 21
15.1221986456
 31
0.0
 11
-6.1806271958
 21
15.272189241
 31
0.0
 11
-6.3406371747
 21
15.8799596754
 31
0.0
  0
SPLINE
  5
5B0
100
AcDbEntity
  8
0
100
AcDbSpline
 62
7
  6
CONTINUOUS
 70
0
 71
3
 72
10
 73
6
 74
4
 42
0.0000001
 43
0.0000001
 44
0.0000000001
 12
-0.175170713
 22
0.6429932004
 32
0.0
 13
-0.6190284601
 23
0.2468375985
 33
0.0
 40
0.0
 40
0.0
 40
0.0
 40
0.0
 40
0.4939032387
 40
0.7479365287
 40
1.0
 40
1.0
 40
1.0
 40
1.0
 10
-6.3406371747
 20
15.8799596754
 30
0.0
 10
-6.3694763022
 20
15.9858184835
 30
0.0
 10
-6.4126105595
 20
16.1480034108
 30
0.0
 10
-6.5309059051
 20
16.3393982599
 30
0.0
 10
-6.6254853476
 20
16.4083359825
 30
0.0
 10
-6.6774968351
 20
16.4290755631
 30
0.0
 11
-6.3406371747
 21
15.8799596754
 31
0.0
 11
-6.4462168023
 21
16.1917175701
 31
0.0
 11
-6.5398842446
 21
16.332739172
 31
0.0
 11
-6.6774968351
 21
16.4290755631
 31
0.0
  0
SPLINE
  5
5B1
100
AcDbEntity
  8
0
100
AcDbSpline
 62
7
  6
CONTINUOUS
 70
0
 71
3
 72
24
 73
20
 74
18
 42
0.0000001
 43
0.0000001
 44
0.0000000001
 12
1.7322844081
 22
0.2235205688
 32
0.0
 13
-1.6421001289
 23
0.5951462205
 33
0.0
 40
0.0
 40
0.0
 40
0.0
 40
0.0
 40
0.0193979276
 40
0.0561067798
 40
0.1068645913
 40
0.1689835515
 40
0.240715158
 40
0.3215952789
 40
0.3657995498
 40
0.4128469595
 40
0.4631378498
 40
0.5171651256
 40
0.5607500765
 40
0.6019057046
 40
0.6780102423
 40
0.7473748184
 40
0.8109762383
 40
0.9205238865
 40
1.0
 40
1.0
 40
1.0
 40
1.0
 10
-6.6774968351
 20
16.445619372
 30
0.0
 10
-6.666295926
 20
16.4470646506
 30
0.0
 10
-6.6367150419
 20
16.4632055923
 30
0.0
 10
-6.584407237
 20
16.4958035282
 30
0.0
 10
-6.5175738677
 20
16.5526219694
 30
0.0
 10
-6.4448944112
 20
16.6320696923
 30
0.0
 10
-6.3752672291
 20
16.7366326477
 30
0.0
 10
-6.3289035572
 20
16.8421695848
 30
0.0
 10
-6.3016911314
 20
16.9387579415
 30
0.0
 10
-6.2871470693
 20
17.0200145115
 30
0.0
 10
-6.280258187
 20
17.1080104484
 30
0.0
 10
-6.2818241664
 20
17.194243465
 30
0.0
 10
-6.2903142311
 20
17.274683776
 30
0.0
 10
-6.3081576689
 20
17.3667108897
 30
0.0
 10
-6.3422818667
 20
17.4704772812
 30
0.0
 10
-6.3995504798
 20
17.5785044247
 30
0.0
 10
-6.4847098644
 20
17.6917597354
 30
0.0
 10
-6.5962121394
 20
17.789981082
 30
0.0
 10
-6.6936352434
 20
17.8437275641
 30
0.0
 10
-6.7371378222
 20
17.8594942003
 30
0.0
 11
-6.6774968351
 21
16.445619372
 31
0.0
 11
-6.6460949424
 21
16.4583419464
 31
0.0
 11
-6.5919415408
 21
16.4926704209
 31
0.0
 11
-6.5238617764
 21
16.5494596394
 31
0.0
 11
-6.4506807964
 21
16.6295642716
 31
0.0
 11
-6.381223748
 21
16.7338390305
 31
0.0
 11
-6.3243157783
 21
16.8631386294
 31
0.0
 11
-6.3033255564
 21
16.9374398417
 31
0.0
 11
-6.2887820343
 21
17.0183177814
 31
0.0
 11
-6.2817883554
 21
17.1058792876
 31
0.0
 11
-6.283447663
 21
17.2002311996
 31
0.0
 11
-6.2915782019
 21
17.2759232377
 31
0.0
 11
-6.3053193643
 21
17.3464819533
 31
0.0
 11
-6.3471402772
 21
17.4726594955
 31
0.0
 11
-6.4039238371
 21
17.5796839836
 31
0.0
 11
-6.4706834789
 21
17.6684755752
 31
0.0
 11
-6.6141847495
 21
17.7950406988
 31
0.0
 11
-6.7371378222
 21
17.8594942003
 31
0.0
  0
SPLINE
  5
5B2
100
AcDbEntity
  8
0
100
AcDbSpline
 62
7
  6
CONTINUOUS
 70
0
 71
3
 72
10
 73
6
 74
4
 42
0.0000001
 43
0.0000001
 44
0.0000000001
 12
-1.3674889598
 22
0.4949032572
 32
0.0
 13
-1.4387917159
 23
-0.2116707611
 33
0.0
 40
0.0
 40
0.0
 40
0.0
 40
0.0
 40
0.2957399575
 40
0.5850600175
 40
1.0
 40
1.0
 40
1.0
 40
1.0
 10
-6.7371378222
 20
17.8594942003
 30
0.0
 10
-6.8719448644
 20
17.9082817563
 30
0.0
 10
-7.1557289153
 20
17.9556382108
 30
0.0
 10
-7.6406680588
 20
17.9555471951
 30
0.0
 10
-7.9809771279
 20
17.9184695463
 30
0.0
 10
-8.1799811977
 20
17.889192659
 30
0.0
 11
-6.7371378222
 21
17.8594942003
 31
0.0
 11
-7.1588261458
 21
17.944043888
 31
0.0
 11
-7.5795451239
 21
17.9493119128
 31
0.0
 11
-8.1799811977
 21
17.889192659
 31
0.0
  0
SPLINE
  5
5B3
100
AcDbEntity
  8
0
100
AcDbSpline
 62
7
  6
CONTINUOUS
 70
0
 71
3
 72
10
 73
6
 74
4
 42
0.0000001
 43
0.0000001
 44
0.0000000001
 12
0.4340415705
 22
0.0
 32
0.0
 13
0.1527549137
 23
-0.4063107917
 33
0.0
 40
0.0
 40
0.0
 40
0.0
 40
0.0
 40
0.3519958402
 40
0.6306761049
 40
1.0
 40
1.0
 40
1.0
 40
1.0
 10
-7.2845790377
 20
16.2178480752
 30
0.0
 10
-7.2336520953
 20
16.2178480752
 30
0.0
 10
-7.1404377233
 20
16.1972580272
 30
0.0
 10
-7.023854917
 20
16.1062064952
 30
0.0
 10
-6.9774506042
 20
16.0214831492
 30
0.0
 10
-6.9586452576
 20
15.9714630544
 30
0.0
 11
-7.2845790377
 21
16.2178480752
 31
0.0
 11
-7.1357346208
 21
16.1833905547
 31
0.0
 11
-7.0398122185
 21
16.1097025039
 31
0.0
 11
-6.9586452576
 21
15.9714630544
 31
0.0
  0
SPLINE
  5
5B4
100
AcDbEntity
  8
0
100
AcDbSpline
 62
7
  6
CONTINUOUS
 70
0
 71
3
 72
11
 73
7
 74
5
 42
0.0000001
 43
0.0000001
 44
0.0000000001
 12
0.312132302
 22
-0.8302366167
 32
0.0
 13
0.2450789468
 23
-0.8524366048
 33
0.0
 40
0.0
 40
0.0
 40
0.0
 40
0.0
 40
0.2225167621
 40
0.5587954617
 40
0.8657835933
 40
1.0
 40
1.0
 40
1.0
 40
1.0
 10
-6.9586453104
 20
15.9714630346
 30
0.0
 10
-6.935493754
 20
15.9098825133
 30
0.0
 10
-6.8886105534
 20
15.7512671442
 30
0.0
 10
-6.8143743459
 20
15.5063964643
 30
0.0
 10
-6.7502510446
 20
15.2856243631
 30
0.0
 10
-6.7139489167
 20
15.1603356383
 30
0.0
 10
-6.7029843781
 20
15.1221986456
 30
0.0
 11
-6.9586453104
 21
15.9714630346
 31
0.0
 11
-6.8979918346
 21
15.7836491996
 31
0.0
 11
-6.8124375244
 21
15.4979142123
 31
0.0
 11
-6.7360434561
 21
15.236561923
 31
0.0
 11
-6.7029843781
 21
15.1221986456
 31
0.0
  0
SPLINE
  5
5B5
100
AcDbEntity
  8
0
100
AcDbSpline
 62
7
  6
CONTINUOUS
 70
0
 71
3
 72
11
 73
7
 74
5
 42
0.0000001
 43
0.0000001
 44
0.0000000001
 12
-0.2622191459
 22
-0.3975362729
 32
0.0
 13
-0.2749508858
 23
-0.3888392717
 33
0.0
 40
0.0
 40
0.0
 40
0.0
 40
0.0
 40
0.243654614
 40
0.492867173
 40
0.7456018656
 40
1.0
 40
1.0
 40
1.0
 40
1.0
 10
-3.4123063547
 20
21.6775335309
 30
0.0
 10
-3.4336033229
 20
21.6452463485
 30
0.0
 10
-3.4772988815
 20
21.5803413031
 30
0.0
 10
-3.5445818579
 20
21.4829648185
 30
0.0
 10
-3.6135595411
 20
21.3846911358
 30
0.0
 10
-3.6600386816
 20
21.3189602771
 30
0.0
 10
-3.6833543458
 20
21.2859869487
 30
0.0
 11
-3.4123063547
 21
21.6775335309
 31
0.0
 11
-3.4769969315
 21
21.5812042191
 31
0.0
 11
-3.5443826602
 21
21.4835075774
 31
0.0
 11
-3.613464789
 21
21.3849475221
 31
0.0
 11
-3.6833543458
 21
21.2859869487
 31
0.0
  0
SPLINE
  5
5B6
100
AcDbEntity
  8
0
100
AcDbSpline
 62
7
  6
CONTINUOUS
 70
0
 71
3
 72
11
 73
7
 74
5
 42
0.0000001
 43
0.0000001
 44
0.0000000001
 12
-0.2749508858
 22
0.3888392717
 32
0.0
 13
-0.2622191459
 23
0.3975362729
 33
0.0
 40
0.0
 40
0.0
 40
0.0
 40
0.0
 40
0.2543981344
 40
0.507132827
 40
0.756345386
 40
1.0
 40
1.0
 40
1.0
 40
1.0
 10
-18.8166456542
 20
21.2859869487
 30
0.0
 10
-18.8399613184
 20
21.3189602771
 30
0.0
 10
-18.8864404589
 20
21.3846911358
 30
0.0
 10
-18.9554181421
 20
21.4829648185
 30
0.0
 10
-19.0227011185
 20
21.5803413031
 30
0.0
 10
-19.0663966771
 20
21.6452463485
 30
0.0
 10
-19.0876936453
 20
21.6775335309
 30
0.0
 11
-18.8166456542
 21
21.2859869487
 31
0.0
 11
-18.886535211
 21
21.3849475221
 31
0.0
 11
-18.9556173398
 21
21.4835075774
 31
0.0
 11
-19.0230030685
 21
21.5812042191
 31
0.0
 11
-19.0876936453
 21
21.6775335309
 31
0.0
  0
SPLINE
  5
5B7
100
AcDbEntity
  8
0
100
AcDbSpline
 62
7
  6
CONTINUOUS
 70
0
 71
3
 72
11
 73
7
 74
5
 42
0.0000001
 43
0.0000001
 44
0.0000000001
 12
0.2622191459
 22
0.3975362729
 32
0.0
 13
0.2749508858
 23
0.3888392717
 33
0.0
 40
0.0
 40
0.0
 40
0.0
 40
0.0
 40
0.243654614
 40
0.492867173
 40
0.7456018656
 40
1.0
 40
1.0
 40
1.0
 40
1.0
 10
-19.0876936453
 20
-21.6775335309
 30
0.0
 10
-19.0663966771
 20
-21.6452463485
 30
0.0
 10
-19.0227011185
 20
-21.5803413031
 30
0.0
 10
-18.9554181421
 20
-21.4829648185
 30
0.0
 10
-18.8864404589
 20
-21.3846911358
 30
0.0
 10
-18.8399613184
 20
-21.3189602771
 30
0.0
 10
-18.8166456542
 20
-21.2859869487
 30
0.0
 11
-19.0876936453
 21
-21.6775335309
 31
0.0
 11
-19.0230030685
 21
-21.5812042191
 31
0.0
 11
-18.9556173398
 21
-21.4835075774
 31
0.0
 11
-18.886535211
 21
-21.3849475221
 31
0.0
 11
-18.8166456542
 21
-21.2859869487
 31
0.0
  0
SPLINE
  5
5B8
100
AcDbEntity
  8
0
100
AcDbSpline
 62
7
  6
CONTINUOUS
 70
0
 71
3
 72
11
 73
7
 74
5
 42
0.0000001
 43
0.0000001
 44
0.0000000001
 12
0.2749508858
 22
-0.3888392717
 32
0.0
 13
0.2622191459
 23
-0.3975362729
 33
0.0
 40
0.0
 40
0.0
 40
0.0
 40
0.0
 40
0.2543981344
 40
0.507132827
 40
0.756345386
 40
1.0
 40
1.0
 40
1.0
 40
1.0
 10
-3.6833543458
 20
-21.2859869487
 30
0.0
 10
-3.6600386816
 20
-21.3189602771
 30
0.0
 10
-3.6135595411
 20
-21.3846911358
 30
0.0
 10
-3.5445818579
 20
-21.4829648185
 30
0.0
 10
-3.4772988815
 20
-21.5803413031
 30
0.0
 10
-3.4336033229
 20
-21.6452463485
 30
0.0
 10
-3.4123063547
 20
-21.6775335309
 30
0.0
 11
-3.6833543458
 21
-21.2859869487
 31
0.0
 11
-3.613464789
 21
-21.3849475221
 31
0.0
 11
-3.5443826602
 21
-21.4835075774
 31
0.0
 11
-3.4769969315
 21
-21.5812042191
 31
0.0
 11
-3.4123063547
 21
-21.6775335309
 31
0.0
  0
SPLINE
  5
5B9
100
AcDbEntity
  8
0
100
AcDbSpline
 62
7
  6
CONTINUOUS
 70
0
 71
3
 72
11
 73
7
 74
5
 42
0.0000001
 43
0.0000001
 44
0.0000000001
 12
-0.2749508858
 22
0.3888392717
 32
0.0
 13
-0.2622191459
 23
0.3975362729
 33
0.0
 40
0.0
 40
0.0
 40
0.0
 40
0.0
 40
0.2543981344
 40
0.507132827
 40
0.756345386
 40
1.0
 40
1.0
 40
1.0
 40
1.0
 10
3.6833543458
 20
21.2859869487
 30
0.0
 10
3.6600386816
 20
21.3189602771
 30
0.0
 10
3.6135595411
 20
21.3846911358
 30
0.0
 10
3.5445818579
 20
21.4829648185
 30
0.0
 10
3.4772988815
 20
21.5803413031
 30
0.0
 10
3.4336033229
 20
21.6452463485
 30
0.0
 10
3.4123063547
 20
21.6775335309
 30
0.0
 11
3.6833543458
 21
21.2859869487
 31
0.0
 11
3.613464789
 21
21.3849475221
 31
0.0
 11
3.5443826602
 21
21.4835075774
 31
0.0
 11
3.4769969315
 21
21.5812042191
 31
0.0
 11
3.4123063547
 21
21.6775335309
 31
0.0
  0
SPLINE
  5
5BA
100
AcDbEntity
  8
0
100
AcDbSpline
 62
7
  6
CONTINUOUS
 70
0
 71
3
 72
11
 73
7
 74
5
 42
0.0000001
 43
0.0000001
 44
0.0000000001
 12
-0.2622191459
 22
-0.3975362729
 32
0.0
 13
-0.2749508858
 23
-0.3888392717
 33
0.0
 40
0.0
 40
0.0
 40
0.0
 40
0.0
 40
0.243654614
 40
0.492867173
 40
0.7456018656
 40
1.0
 40
1.0
 40
1.0
 40
1.0
 10
19.0876936453
 20
21.6775335309
 30
0.0
 10
19.0663966771
 20
21.6452463485
 30
0.0
 10
19.0227011185
 20
21.5803413031
 30
0.0
 10
18.9554181421
 20
21.4829648185
 30
0.0
 10
18.8864404589
 20
21.3846911358
 30
0.0
 10
18.8399613184
 20
21.3189602771
 30
0.0
 10
18.8166456542
 20
21.2859869487
 30
0.0
 11
19.0876936453
 21
21.6775335309
 31
0.0
 11
19.0230030685
 21
21.5812042191
 31
0.0
 11
18.9556173398
 21
21.4835075774
 31
0.0
 11
18.886535211
 21
21.3849475221
 31
0.0
 11
18.8166456542
 21
21.2859869487
 31
0.0
  0
SPLINE
  5
5BB
100
AcDbEntity
  8
0
100
AcDbSpline
 62
7
  6
CONTINUOUS
 70
0
 71
3
 72
11
 73
7
 74
5
 42
0.0000001
 43
0.0000001
 44
0.0000000001
 12
0.2749508858
 22
-0.3888392717
 32
0.0
 13
0.2622191459
 23
-0.3975362729
 33
0.0
 40
0.0
 40
0.0
 40
0.0
 40
0.0
 40
0.2543981344
 40
0.507132827
 40
0.756345386
 40
1.0
 40
1.0
 40
1.0
 40
1.0
 10
18.8166456542
 20
-21.2859869487
 30
0.0
 10
18.8399613184
 20
-21.3189602771
 30
0.0
 10
18.8864404589
 20
-21.3846911358
 30
0.0
 10
18.9554181421
 20
-21.4829648185
 30
0.0
 10
19.0227011185
 20
-21.5803413031
 30
0.0
 10
19.0663966771
 20
-21.6452463485
 30
0.0
 10
19.0876936453
 20
-21.6775335309
 30
0.0
 11
18.8166456542
 21
-21.2859869487
 31
0.0
 11
18.886535211
 21
-21.3849475221
 31
0.0
 11
18.9556173398
 21
-21.4835075774
 31
0.0
 11
19.0230030685
 21
-21.5812042191
 31
0.0
 11
19.0876936453
 21
-21.6775335309
 31
0.0
  0
SPLINE
  5
5BC
100
AcDbEntity
  8
0
100
AcDbSpline
 62
7
  6
CONTINUOUS
 70
0
 71
3
 72
11
 73
7
 74
5
 42
0.0000001
 43
0.0000001
 44
0.0000000001
 12
0.2622191459
 22
0.3975362729
 32
0.0
 13
0.2749508858
 23
0.3888392717
 33
0.0
 40
0.0
 40
0.0
 40
0.0
 40
0.0
 40
0.243654614
 40
0.492867173
 40
0.7456018656
 40
1.0
 40
1.0
 40
1.0
 40
1.0
 10
3.4123063547
 20
-21.6775335309
 30
0.0
 10
3.4336033229
 20
-21.6452463485
 30
0.0
 10
3.4772988815
 20
-21.5803413031
 30
0.0
 10
3.5445818579
 20
-21.4829648185
 30
0.0
 10
3.6135595411
 20
-21.3846911358
 30
0.0
 10
3.6600386816
 20
-21.3189602771
 30
0.0
 10
3.6833543458
 20
-21.2859869487
 30
0.0
 11
3.4123063547
 21
-21.6775335309
 31
0.0
 11
3.4769969315
 21
-21.5812042191
 31
0.0
 11
3.5443826602
 21
-21.4835075774
 31
0.0
 11
3.613464789
 21
-21.3849475221
 31
0.0
 11
3.6833543458
 21
-21.2859869487
 31
0.0
  0
SPLINE
  5
5BD
100
AcDbEntity
  8
0
100
AcDbSpline
 62
7
  6
CONTINUOUS
 70
0
 71
3
 72
20
 73
16
 74
14
 42
0.0000001
 43
0.0000001
 44
0.0000000001
 12
0.4260808996
 22
-0.4740442974
 32
0.0
 13
0.0166604583
 23
-0.6371698032
 33
0.0
 40
0.0
 40
0.0
 40
0.0
 40
0.0
 40
0.1315901813
 40
0.2620527276
 40
0.386996807
 40
0.5019908922
 40
0.6042482501
 40
0.6934053592
 40
0.7698429769
 40
0.8341772544
 40
0.8869029406
 40
0.9288470955
 40
0.9608815698
 40
0.9842172113
 40
1.0
 40
1.0
 40
1.0
 40
1.0
 10
15.2115177923
 20
-23.2659657686
 30
0.0
 10
15.2302071466
 20
-23.2867589602
 30
0.0
 10
15.2674257915
 20
-23.3281670822
 30
0.0
 10
15.3223045926
 20
-23.3893948225
 30
0.0
 10
15.3746568012
 20
-23.4481517726
 30
0.0
 10
15.4227640747
 20
-23.5026639455
 30
0.0
 10
15.4655038249
 20
-23.5517706156
 30
0.0
 10
15.5024559856
 20
-23.5950514549
 30
0.0
 10
15.5336910623
 20
-23.6326153442
 30
0.0
 10
15.5594041549
 20
-23.6646947127
 30
0.0
 10
15.5798601674
 20
-23.6915908866
 30
0.0
 10
15.5953486262
 20
-23.7136072598
 30
0.0
 10
15.6062779886
 20
-23.7312085748
 30
0.0
 10
15.6129811162
 20
-23.7447319644
 30
0.0
 10
15.6153640684
 20
-23.7528804899
 30
0.0
 10
15.6154517179
 20
-23.7562325953
 30
0.0
 11
15.2115177923
 21
-23.2659657686
 31
0.0
 11
15.2675713791
 21
-23.3283583519
 31
0.0
 11
15.3230559963
 21
-23.3902957855
 31
0.0
 11
15.3760139909
 21
-23.4497737707
 31
0.0
 11
15.4244878229
 21
-23.5047516043
 31
0.0
 11
15.4672476123
 21
-23.5539422136
 31
0.0
 11
15.5041094124
 21
-23.5971925049
 31
0.0
 11
15.5352123746
 21
-23.6346929312
 31
0.0
 11
15.5607970343
 21
-23.6667383134
 31
0.0
 11
15.5810589936
 21
-23.6935499365
 31
0.0
 11
15.5963238223
 21
-23.7154982463
 31
0.0
 11
15.6069194478
 21
-23.7329522659
 31
0.0
 11
15.6132292196
 21
-23.746421421
 31
0.0
 11
15.6154517179
 21
-23.7562325953
 31
0.0
  0
SPLINE
  5
5BE
100
AcDbEntity
  8
0
100
AcDbSpline
 62
7
  6
CONTINUOUS
 70
0
 71
3
 72
20
 73
16
 74
14
 42
0.0000001
 43
0.0000001
 44
0.0000000001
 12
0.0273309204
 22
0.6365193985
 32
0.0
 13
0.4258925992
 23
0.4738348002
 33
0.0
 40
0.0
 40
0.0
 40
0.0
 40
0.0
 40
0.0159689408
 40
0.039495951
 40
0.0717158176
 40
0.1138445699
 40
0.1667373501
 40
0.2311988604
 40
0.3076914735
 40
0.3968178397
 40
0.4989691974
 40
0.6138264744
 40
0.7386299247
 40
0.8688458992
 40
1.0
 40
1.0
 40
1.0
 40
1.0
 10
14.8075937104
 20
-23.755948138
 30
0.0
 10
14.8077391923
 20
-23.7525599578
 30
0.0
 10
14.8102071702
 20
-23.7443667921
 30
0.0
 10
14.8170104636
 20
-23.7307644042
 30
0.0
 10
14.8280315788
 20
-23.7130929233
 30
0.0
 10
14.8436034199
 20
-23.69100977
 30
0.0
 10
14.8641302709
 20
-23.6640588752
 30
0.0
 10
14.8898921863
 20
-23.6319468087
 30
0.0
 10
14.9211441603
 20
-23.5943832897
 30
0.0
 10
14.9580758619
 20
-23.5511408909
 30
0.0
 10
15.0007633024
 20
-23.5021038683
 30
0.0
 10
15.0487982991
 20
-23.4476793745
 30
0.0
 10
15.1010548833
 20
-23.3890328557
 30
0.0
 10
15.1557933228
 20
-23.3279628967
 30
0.0
 10
15.1928986053
 20
-23.2866808943
 30
0.0
 10
15.2115177923
 20
-23.2659657686
 30
0.0
 11
14.8075937104
 21
-23.755948138
 31
0.0
 11
14.8099439384
 21
-23.7460494109
 31
0.0
 11
14.8163619492
 21
-23.7325037413
 31
0.0
 11
14.8270523215
 21
-23.7149796767
 31
0.0
 11
14.8424043175
 21
-23.6929631511
 31
0.0
 11
14.8627411518
 21
-23.6660933029
 31
0.0
 11
14.8883797187
 21
-23.6340104275
 31
0.0
 11
14.9195020331
 21
-23.5965085067
 31
0.0
 11
14.956342409
 21
-23.5532986902
 31
0.0
 11
14.999044027
 21
-23.5041851623
 31
0.0
 11
15.04744188
 21
-23.4492997255
 31
0.0
 11
15.1003185735
 21
-23.3899164391
 31
0.0
 11
15.1556745441
 21
-23.3281240072
 31
0.0
 11
15.2115177923
 21
-23.2659657686
 31
0.0
  0
SPLINE
  5
5BF
100
AcDbEntity
  8
0
100
AcDbSpline
 62
7
  6
CONTINUOUS
 70
0
 71
3
 72
20
 73
16
 74
14
 42
0.0000001
 43
0.0000001
 44
0.0000000001
 12
0.4258925876
 22
-0.4738347873
 32
0.0
 13
0.0273309197
 23
-0.6365193811
 33
0.0
 40
0.0
 40
0.0
 40
0.0
 40
0.0
 40
0.1312225557
 40
0.2614220709
 40
0.3861825708
 40
0.5010332171
 40
0.603201725
 40
0.6923386883
 40
0.7688264237
 40
0.8332713088
 40
0.8861504123
 40
0.9282720388
 40
0.9604959628
 40
0.9840265574
 40
1.0
 40
1.0
 40
1.0
 40
1.0
 10
7.2884822077
 20
-23.2659657686
 30
0.0
 10
7.3071111123
 20
-23.2866917058
 30
0.0
 10
7.3442237757
 20
-23.3279819192
 30
0.0
 10
7.3989634331
 20
-23.3890533632
 30
0.0
 10
7.4512106212
 20
-23.4476894665
 30
0.0
 10
7.4992410409
 20
-23.502108811
 30
0.0
 10
7.5419313905
 20
-23.5511492451
 30
0.0
 10
7.578866122
 20
-23.5943954418
 30
0.0
 10
7.610116411
 20
-23.6319573493
 30
0.0
 10
7.6358734535
 20
-23.6640637431
 30
0.0
 10
7.6563954332
 20
-23.6910083541
 30
0.0
 10
7.6719653724
 20
-23.7130884801
 30
0.0
 10
7.6829869616
 20
-23.7307598115
 30
0.0
 10
7.6897918264
 20
-23.7443642376
 30
0.0
 10
7.6922607667
 20
-23.7525590027
 30
0.0
 10
7.6924062896
 20
-23.755948138
 30
0.0
 11
7.2884822077
 21
-23.2659657686
 31
0.0
 11
7.3443545863
 21
-23.3281564621
 31
0.0
 11
7.3997034969
 21
-23.3899411368
 31
0.0
 11
7.4525619386
 21
-23.4493040325
 31
0.0
 11
7.500956981
 21
-23.5041863127
 31
0.0
 11
7.5436657209
 21
-23.5533081251
 31
0.0
 11
7.580510337
 21
-23.5965231965
 31
0.0
 11
7.611630455
 21
-23.6340229
 31
0.0
 11
7.6372622313
 21
-23.666097642
 31
0.0
 11
7.6575937884
 21
-23.6929605553
 31
0.0
 11
7.6729434157
 21
-23.714973197
 31
0.0
 11
7.6836355581
 21
-23.7324992093
 31
0.0
 11
7.6900550502
 21
-23.7460467034
 31
0.0
 11
7.6924062896
 21
-23.755948138
 31
0.0
  0
SPLINE
  5
5C0
100
AcDbEntity
  8
0
100
AcDbSpline
 62
7
  6
CONTINUOUS
 70
0
 71
3
 72
20
 73
16
 74
14
 42
0.0000001
 43
0.0000001
 44
0.0000000001
 12
0.0166604588
 22
0.6371698225
 32
0.0
 13
0.4260809125
 23
0.4740443118
 33
0.0
 40
0.0
 40
0.0
 40
0.0
 40
0.0
 40
0.0157781165
 40
0.0391100726
 40
0.0711401266
 40
0.1130912899
 40
0.1658303468
 40
0.2301807718
 40
0.3066231278
 40
0.395769823
 40
0.4980103582
 40
0.6130115042
 40
0.7379985251
 40
0.8684772219
 40
1.0
 40
1.0
 40
1.0
 40
1.0
 10
6.8845482821
 20
-23.7562325953
 30
0.0
 10
6.8846359057
 20
-23.7528814821
 30
0.0
 10
6.8870178565
 20
-23.7447346195
 30
0.0
 10
6.8937193383
 20
-23.7312133779
 30
0.0
 10
6.9046481325
 20
-23.7136120044
 30
0.0
 10
6.9201383779
 20
-23.6915927237
 30
0.0
 10
6.9405991296
 20
-23.6646904019
 30
0.0
 10
6.9663169604
 20
-23.6326054993
 30
0.0
 10
6.9975536533
 20
-23.5950400596
 30
0.0
 10
7.0345028274
 20
-23.5517629539
 30
0.0
 10
7.0772397942
 20
-23.502659542
 30
0.0
 10
7.1253517496
 20
-23.4481420958
 30
0.0
 10
7.1777133732
 20
-23.3893747065
 30
0.0
 10
7.2325910595
 20
-23.328148335
 30
0.0
 10
7.2698024259
 20
-23.2867483102
 30
0.0
 10
7.2884822077
 20
-23.2659657686
 30
0.0
 11
6.8845482821
 21
-23.7562325953
 31
0.0
 11
6.8867697484
 21
-23.7464242403
 31
0.0
 11
6.8930779883
 21
-23.7329569612
 31
0.0
 11
6.9036717007
 21
-23.7155050754
 31
0.0
 11
6.9189388309
 21
-23.693552924
 31
0.0
 11
6.9392059325
 21
-23.6667345037
 31
0.0
 11
6.9647971799
 21
-23.6346812093
 31
0.0
 11
6.9959022718
 21
-23.5971786236
 31
0.0
 11
7.0327598986
 21
-23.5539334947
 31
0.0
 11
7.0755126958
 21
-23.5047510121
 31
0.0
 11
7.1239895184
 21
-23.4497698124
 31
0.0
 11
7.1769657675
 21
-23.39027143
 31
0.0
 11
7.2324573161
 21
-23.3283263816
 31
0.0
 11
7.2884822077
 21
-23.2659657686
 31
0.0
  0
SPLINE
  5
5C1
100
AcDbEntity
  8
0
100
AcDbSpline
 62
7
  6
CONTINUOUS
 70
0
 71
3
 72
20
 73
16
 74
14
 42
0.0000001
 43
0.0000001
 44
0.0000000001
 12
-0.4258925497
 22
0.4738347451
 32
0.0
 13
-0.0273309172
 23
0.6365193246
 33
0.0
 40
0.0
 40
0.0
 40
0.0
 40
0.0
 40
0.1318826192
 40
0.2622539236
 40
0.3868859902
 40
0.5015377921
 40
0.603612993
 40
0.6927007188
 40
0.7691443518
 40
0.8334803957
 40
0.8862385626
 40
0.9282628168
 40
0.9604553999
 40
0.9840076025
 40
1.0
 40
1.0
 40
1.0
 40
1.0
 10
15.2115177923
 20
23.2659657686
 30
0.0
 10
15.192795184
 20
23.2867959577
 30
0.0
 10
15.1555644275
 20
23.3282175517
 30
0.0
 10
15.1007257799
 20
23.3894008687
 30
0.0
 10
15.0485019521
 20
23.4480135511
 30
0.0
 10
15.0005323255
 20
23.5023674105
 30
0.0
 10
14.9578913628
 20
23.5513547077
 30
0.0
 10
14.9209844353
 20
23.5945725196
 30
0.0
 10
14.8897641058
 20
23.6321034999
 30
0.0
 10
14.864046291
 20
23.6641667919
 30
0.0
 10
14.8435688781
 20
23.691057987
 30
0.0
 10
14.828030779
 20
23.7130956504
 30
0.0
 10
14.8170206419
 20
23.7307472336
 30
0.0
 10
14.8102128159
 20
23.7443521377
 30
0.0
 10
14.807739406
 20
23.7525549813
 30
0.0
 10
14.8075937104
 20
23.755948138
 30
0.0
 11
15.2115177923
 21
23.2659657686
 31
0.0
 11
15.1553645212
 21
23.3284694141
 31
0.0
 11
15.0999433756
 21
23.3903363108
 31
0.0
 11
15.0471407672
 21
23.4496393498
 31
0.0
 11
14.9988311923
 21
23.5044280831
 31
0.0
 11
14.9561632656
 21
23.5535065991
 31
0.0
 11
14.9193411232
 21
23.5966996015
 31
0.0
 11
14.8882415477
 21
23.6341798336
 31
0.0
 11
14.8626558942
 21
23.6662026638
 31
0.0
 11
14.8423731416
 21
23.6930058815
 31
0.0
 11
14.8270598525
 21
23.7149682297
 31
0.0
 11
14.8163769445
 21
23.7324764833
 31
0.0
 11
14.8099492097
 21
23.746035304
 31
0.0
 11
14.8075937104
 21
23.755948138
 31
0.0
  0
SPLINE
  5
5C2
100
AcDbEntity
  8
0
100
AcDbSpline
 62
7
  6
CONTINUOUS
 70
0
 71
3
 72
20
 73
16
 74
14
 42
0.0000001
 43
0.0000001
 44
0.0000000001
 12
-0.0166604572
 22
-0.6371697617
 32
0.0
 13
-0.4260808719
 23
-0.4740442666
 33
0.0
 40
0.0
 40
0.0
 40
0.0
 40
0.0
 40
0.0157966061
 40
0.0391513397
 40
0.0711523361
 40
0.1130071515
 40
0.1656255935
 40
0.2298658313
 40
0.3062635936
 40
0.3953610635
 40
0.4975091774
 40
0.6123111915
 40
0.7371681441
 40
0.8678171632
 40
1.0
 40
1.0
 40
1.0
 40
1.0
 10
15.6154517179
 20
23.7562325953
 30
0.0
 10
15.6153639917
 20
23.7528775554
 30
0.0
 10
15.612977568
 20
23.7447224155
 30
0.0
 10
15.6062727631
 20
23.7312001639
 30
0.0
 10
15.5953547954
 20
23.7136178191
 30
0.0
 10
15.5798958487
 20
23.6916404705
 30
0.0
 10
15.5594796126
 20
23.6647916464
 30
0.0
 10
15.5338012015
 20
23.6327501396
 30
0.0
 10
15.5025947219
 20
23.5952159466
 30
0.0
 10
15.4656733054
 20
23.5519671759
 30
0.0
 10
15.4229856572
 20
23.5029168317
 30
0.0
 10
15.374934666
 20
23.4484650669
 30
0.0
 10
15.322596896
 20
23.3897216437
 30
0.0
 10
15.2676206208
 20
23.3283838379
 30
0.0
 10
15.2302913184
 20
23.2868526072
 30
0.0
 10
15.2115177923
 20
23.2659657686
 30
0.0
 11
15.6154517179
 21
23.7562325953
 31
0.0
 11
15.6132261667
 21
23.7464130831
 31
0.0
 11
15.6069093563
 21
23.7329337884
 31
0.0
 11
15.5963239914
 21
23.7154985041
 31
0.0
 11
15.5810927033
 21
23.6935962311
 31
0.0
 11
15.5608742191
 21
23.6668374363
 31
0.0
 11
15.535329614
 21
23.6348367786
 31
0.0
 11
15.5042452691
 21
23.5973539191
 31
0.0
 11
15.4674101193
 21
23.5541308655
 31
0.0
 11
15.4246977792
 21
23.5049912766
 31
0.0
 11
15.3763065793
 21
23.4501038068
 31
0.0
 11
15.3233868839
 21
23.3906660841
 31
0.0
 11
15.267823697
 21
23.3286394704
 31
0.0
 11
15.2115177923
 21
23.2659657686
 31
0.0
  0
SPLINE
  5
5C3
100
AcDbEntity
  8
0
100
AcDbSpline
 62
7
  6
CONTINUOUS
 70
0
 71
3
 72
20
 73
16
 74
14
 42
0.0000001
 43
0.0000001
 44
0.0000000001
 12
-0.4260808566
 22
0.4740442496
 32
0.0
 13
-0.0166604566
 23
0.6371697389
 33
0.0
 40
0.0
 40
0.0
 40
0.0
 40
0.0
 40
0.1322409039
 40
0.2628730871
 40
0.3876885393
 40
0.502485347
 40
0.6046497038
 40
0.6937562087
 40
0.7701488815
 40
0.8343750395
 40
0.8869820922
 40
0.9288315508
 40
0.9608390866
 40
0.9841980846
 40
1.0
 40
1.0
 40
1.0
 40
1.0
 10
7.2884822077
 20
23.2659657686
 30
0.0
 10
7.2697004352
 20
23.2868617819
 30
0.0
 10
7.2323652778
 20
23.328399526
 30
0.0
 10
7.1773890957
 20
23.3897373344
 30
0.0
 10
7.1250603551
 20
23.448470717
 30
0.0
 10
7.0770136428
 20
23.5029176218
 30
0.0
 10
7.0343231995
 20
23.5519711841
 30
0.0
 10
6.9973990741
 20
23.5952232796
 30
0.0
 10
6.9661941008
 20
23.6327559236
 30
0.0
 10
6.9405198516
 20
23.6647924403
 30
0.0
 10
6.9201075259
 20
23.6916360085
 30
0.0
 10
6.9046495646
 20
23.7136113771
 30
0.0
 10
6.8937304347
 20
23.7311943894
 30
0.0
 10
6.8870236047
 20
23.7447193828
 30
0.0
 10
6.8846360378
 20
23.7528764279
 30
0.0
 10
6.8845482821
 20
23.7562325953
 30
0.0
 11
7.2884822077
 21
23.2659657686
 31
0.0
 11
7.2321515832
 21
23.328667012
 31
0.0
 11
7.1765956094
 21
23.3906856763
 31
0.0
 11
7.1236935404
 21
23.4501036717
 31
0.0
 11
7.0753045281
 21
23.5049886426
 31
0.0
 11
7.0325854106
 21
23.554136055
 31
0.0
 11
6.9957466136
 21
23.5973635639
 31
0.0
 11
6.9646644727
 21
23.6348440345
 31
0.0
 11
6.9391255449
 21
23.6668377394
 31
0.0
 11
6.9189113449
 21
23.6935906712
 31
0.0
 11
6.9036816532
 21
23.7154898942
 31
0.0
 11
6.8930935814
 21
23.7329284106
 31
0.0
 11
6.8867750066
 21
23.7464098795
 31
0.0
 11
6.8845482821
 21
23.7562325953
 31
0.0
  0
SPLINE
  5
5C4
100
AcDbEntity
  8
0
100
AcDbSpline
 62
7
  6
CONTINUOUS
 70
0
 71
3
 72
20
 73
16
 74
14
 42
0.0000001
 43
0.0000001
 44
0.0000000001
 12
-0.0273309181
 22
-0.6365193453
 32
0.0
 13
-0.4258925635
 23
-0.4738347605
 33
0.0
 40
0.0
 40
0.0
 40
0.0
 40
0.0
 40
0.0159872484
 40
0.0395353773
 40
0.0717217246
 40
0.1137514476
 40
0.1665212875
 40
0.2308718837
 40
0.3073208095
 40
0.3963993416
 40
0.4984579746
 40
0.6131144546
 40
0.7377879217
 40
0.8681762794
 40
1.0
 40
1.0
 40
1.0
 40
1.0
 10
7.6924062896
 20
23.755948138
 30
0.0
 10
7.6922606409
 20
23.7525560737
 30
0.0
 10
7.6897883306
 20
23.744355054
 30
0.0
 10
7.68298245
 20
23.7307527793
 30
0.0
 10
7.6719733766
 20
23.7131017683
 30
0.0
 10
7.6564341864
 20
23.6910620202
 30
0.0
 10
7.6359527346
 20
23.6641654387
 30
0.0
 10
7.6102306176
 20
23.632097012
 30
0.0
 10
7.579008701
 20
23.5945644085
 30
0.0
 10
7.5421045125
 20
23.5513499719
 30
0.0
 10
7.49946648
 20
23.5023660579
 30
0.0
 10
7.4514927078
 20
23.4480074951
 30
0.0
 10
7.3992599117
 20
23.3893848428
 30
0.0
 10
7.3444212719
 20
23.328201642
 30
0.0
 10
7.3071964551
 20
23.2867866556
 30
0.0
 10
7.2884822077
 20
23.2659657686
 30
0.0
 11
7.6924062896
 21
23.755948138
 31
0.0
 11
7.6900519477
 21
23.7460384005
 31
0.0
 11
7.6836258995
 21
23.7324816521
 31
0.0
 11
7.6729455731
 21
23.7149764764
 31
0.0
 11
7.657630621
 21
23.6930110391
 31
0.0
 11
7.6373434573
 21
23.6662018318
 31
0.0
 11
7.6117519249
 21
23.6341718299
 31
0.0
 11
7.5806500518
 21
23.5966891203
 31
0.0
 11
7.543831613
 21
23.5535006551
 31
0.0
 11
7.5011705918
 21
23.5044301196
 31
0.0
 11
7.4528590502
 21
23.4496391438
 31
0.0
 11
7.4000388641
 21
23.3903164354
 31
0.0
 11
7.3446104157
 21
23.3284414903
 31
0.0
 11
7.2884822077
 21
23.2659657686
 31
0.0
  0
SPLINE
  5
5C5
100
AcDbEntity
  8
0
100
AcDbSpline
 62
7
  6
CONTINUOUS
 70
0
 71
3
 72
20
 73
16
 74
14
 42
0.0000001
 43
0.0000001
 44
0.0000000001
 12
0.4258925876
 22
-0.4738347873
 32
0.0
 13
0.0273309197
 23
-0.6365193811
 33
0.0
 40
0.0
 40
0.0
 40
0.0
 40
0.0
 40
0.1312225557
 40
0.2614220709
 40
0.3861825708
 40
0.5010332171
 40
0.603201725
 40
0.6923386883
 40
0.7688264237
 40
0.8332713088
 40
0.8861504123
 40
0.9282720388
 40
0.9604959628
 40
0.9840265574
 40
1.0
 40
1.0
 40
1.0
 40
1.0
 10
-15.2115177923
 20
-23.2659657686
 30
0.0
 10
-15.1928888877
 20
-23.2866917058
 30
0.0
 10
-15.1557762243
 20
-23.3279819192
 30
0.0
 10
-15.1010365669
 20
-23.3890533632
 30
0.0
 10
-15.0487893788
 20
-23.4476894665
 30
0.0
 10
-15.0007589591
 20
-23.502108811
 30
0.0
 10
-14.9580686095
 20
-23.5511492451
 30
0.0
 10
-14.921133878
 20
-23.5943954418
 30
0.0
 10
-14.8898835889
 20
-23.6319573493
 30
0.0
 10
-14.8641265465
 20
-23.6640637431
 30
0.0
 10
-14.8436045668
 20
-23.6910083541
 30
0.0
 10
-14.8280346276
 20
-23.7130884801
 30
0.0
 10
-14.8170130384
 20
-23.7307598115
 30
0.0
 10
-14.8102081736
 20
-23.7443642376
 30
0.0
 10
-14.8077392333
 20
-23.7525590027
 30
0.0
 10
-14.8075937104
 20
-23.755948138
 30
0.0
 11
-15.2115177923
 21
-23.2659657686
 31
0.0
 11
-15.1556454137
 21
-23.3281564621
 31
0.0
 11
-15.1002965031
 21
-23.3899411368
 31
0.0
 11
-15.0474380614
 21
-23.4493040325
 31
0.0
 11
-14.999043019
 21
-23.5041863127
 31
0.0
 11
-14.9563342791
 21
-23.5533081251
 31
0.0
 11
-14.919489663
 21
-23.5965231965
 31
0.0
 11
-14.888369545
 21
-23.6340229
 31
0.0
 11
-14.8627377687
 21
-23.666097642
 31
0.0
 11
-14.8424062116
 21
-23.6929605553
 31
0.0
 11
-14.8270565843
 21
-23.714973197
 31
0.0
 11
-14.8163644419
 21
-23.7324992093
 31
0.0
 11
-14.8099449498
 21
-23.7460467034
 31
0.0
 11
-14.8075937104
 21
-23.755948138
 31
0.0
  0
SPLINE
  5
5C6
100
AcDbEntity
  8
0
100
AcDbSpline
 62
7
  6
CONTINUOUS
 70
0
 71
3
 72
20
 73
16
 74
14
 42
0.0000001
 43
0.0000001
 44
0.0000000001
 12
0.0166604588
 22
0.6371698225
 32
0.0
 13
0.4260809125
 23
0.4740443118
 33
0.0
 40
0.0
 40
0.0
 40
0.0
 40
0.0
 40
0.0157781165
 40
0.0391100726
 40
0.0711401266
 40
0.1130912899
 40
0.1658303468
 40
0.2301807718
 40
0.3066231278
 40
0.3957698229
 40
0.4980103582
 40
0.6130115042
 40
0.737998525
 40
0.8684772219
 40
1.0
 40
1.0
 40
1.0
 40
1.0
 10
-15.6154517179
 20
-23.7562325953
 30
0.0
 10
-15.6153640943
 20
-23.7528814821
 30
0.0
 10
-15.6129821435
 20
-23.7447346195
 30
0.0
 10
-15.6062806617
 20
-23.7312133779
 30
0.0
 10
-15.5953518675
 20
-23.7136120044
 30
0.0
 10
-15.5798616221
 20
-23.6915927237
 30
0.0
 10
-15.5594008704
 20
-23.6646904019
 30
0.0
 10
-15.5336830396
 20
-23.6326054993
 30
0.0
 10
-15.5024463467
 20
-23.5950400596
 30
0.0
 10
-15.4654971726
 20
-23.5517629539
 30
0.0
 10
-15.4227602058
 20
-23.502659542
 30
0.0
 10
-15.3746482504
 20
-23.4481420958
 30
0.0
 10
-15.3222866268
 20
-23.3893747065
 30
0.0
 10
-15.2674089405
 20
-23.328148335
 30
0.0
 10
-15.2301975741
 20
-23.2867483102
 30
0.0
 10
-15.2115177923
 20
-23.2659657686
 30
0.0
 11
-15.6154517179
 21
-23.7562325953
 31
0.0
 11
-15.6132302516
 21
-23.7464242403
 31
0.0
 11
-15.6069220117
 21
-23.7329569612
 31
0.0
 11
-15.5963282993
 21
-23.7155050754
 31
0.0
 11
-15.5810611691
 21
-23.693552924
 31
0.0
 11
-15.5607940675
 21
-23.6667345037
 31
0.0
 11
-15.5352028201
 21
-23.6346812093
 31
0.0
 11
-15.5040977282
 21
-23.5971786236
 31
0.0
 11
-15.4672401014
 21
-23.5539334947
 31
0.0
 11
-15.4244873042
 21
-23.5047510121
 31
0.0
 11
-15.3760104816
 21
-23.4497698124
 31
0.0
 11
-15.3230342325
 21
-23.39027143
 31
0.0
 11
-15.2675426839
 21
-23.3283263816
 31
0.0
 11
-15.2115177923
 21
-23.2659657686
 31
0.0
  0
SPLINE
  5
5C7
100
AcDbEntity
  8
0
100
AcDbSpline
 62
7
  6
CONTINUOUS
 70
0
 71
3
 72
20
 73
16
 74
14
 42
0.0000001
 43
0.0000001
 44
0.0000000001
 12
0.4260808996
 22
-0.4740442974
 32
0.0
 13
0.0166604583
 23
-0.6371698032
 33
0.0
 40
0.0
 40
0.0
 40
0.0
 40
0.0
 40
0.1315901813
 40
0.2620527276
 40
0.386996807
 40
0.5019908922
 40
0.6042482501
 40
0.6934053592
 40
0.7698429769
 40
0.8341772544
 40
0.8869029406
 40
0.9288470955
 40
0.9608815698
 40
0.9842172113
 40
1.0
 40
1.0
 40
1.0
 40
1.0
 10
-7.2884822077
 20
-23.2659657686
 30
0.0
 10
-7.2697928534
 20
-23.2867589602
 30
0.0
 10
-7.2325742085
 20
-23.3281670822
 30
0.0
 10
-7.1776954074
 20
-23.3893948225
 30
0.0
 10
-7.1253431988
 20
-23.4481517726
 30
0.0
 10
-7.0772359253
 20
-23.5026639455
 30
0.0
 10
-7.0344961751
 20
-23.5517706156
 30
0.0
 10
-6.9975440144
 20
-23.5950514549
 30
0.0
 10
-6.9663089377
 20
-23.6326153442
 30
0.0
 10
-6.9405958451
 20
-23.6646947127
 30
0.0
 10
-6.9201398326
 20
-23.6915908866
 30
0.0
 10
-6.9046513738
 20
-23.7136072598
 30
0.0
 10
-6.8937220114
 20
-23.7312085748
 30
0.0
 10
-6.8870188838
 20
-23.7447319644
 30
0.0
 10
-6.8846359316
 20
-23.7528804899
 30
0.0
 10
-6.8845482821
 20
-23.7562325953
 30
0.0
 11
-7.2884822077
 21
-23.2659657686
 31
0.0
 11
-7.2324286209
 21
-23.3283583519
 31
0.0
 11
-7.1769440037
 21
-23.3902957855
 31
0.0
 11
-7.1239860091
 21
-23.4497737707
 31
0.0
 11
-7.0755121771
 21
-23.5047516043
 31
0.0
 11
-7.0327523877
 21
-23.5539422136
 31
0.0
 11
-6.9958905876
 21
-23.5971925049
 31
0.0
 11
-6.9647876254
 21
-23.6346929312
 31
0.0
 11
-6.9392029657
 21
-23.6667383134
 31
0.0
 11
-6.9189410064
 21
-23.6935499365
 31
0.0
 11
-6.9036761777
 21
-23.7154982463
 31
0.0
 11
-6.8930805522
 21
-23.7329522659
 31
0.0
 11
-6.8867707804
 21
-23.746421421
 31
0.0
 11
-6.8845482821
 21
-23.7562325953
 31
0.0
  0
SPLINE
  5
5C8
100
AcDbEntity
  8
0
100
AcDbSpline
 62
7
  6
CONTINUOUS
 70
0
 71
3
 72
20
 73
16
 74
14
 42
0.0000001
 43
0.0000001
 44
0.0000000001
 12
0.0273309204
 22
0.6365193985
 32
0.0
 13
0.4258925992
 23
0.4738348002
 33
0.0
 40
0.0
 40
0.0
 40
0.0
 40
0.0
 40
0.0159689408
 40
0.039495951
 40
0.0717158176
 40
0.1138445699
 40
0.1667373501
 40
0.2311988604
 40
0.3076914735
 40
0.3968178397
 40
0.4989691974
 40
0.6138264744
 40
0.7386299247
 40
0.8688458992
 40
1.0
 40
1.0
 40
1.0
 40
1.0
 10
-7.6924062896
 20
-23.755948138
 30
0.0
 10
-7.6922608077
 20
-23.7525599578
 30
0.0
 10
-7.6897928298
 20
-23.7443667921
 30
0.0
 10
-7.6829895364
 20
-23.7307644042
 30
0.0
 10
-7.6719684212
 20
-23.7130929233
 30
0.0
 10
-7.6563965801
 20
-23.69100977
 30
0.0
 10
-7.6358697291
 20
-23.6640588752
 30
0.0
 10
-7.6101078137
 20
-23.6319468087
 30
0.0
 10
-7.5788558397
 20
-23.5943832897
 30
0.0
 10
-7.5419241381
 20
-23.5511408909
 30
0.0
 10
-7.4992366976
 20
-23.5021038683
 30
0.0
 10
-7.4512017009
 20
-23.4476793745
 30
0.0
 10
-7.3989451167
 20
-23.3890328557
 30
0.0
 10
-7.3442066772
 20
-23.3279628967
 30
0.0
 10
-7.3071013947
 20
-23.2866808943
 30
0.0
 10
-7.2884822077
 20
-23.2659657686
 30
0.0
 11
-7.6924062896
 21
-23.755948138
 31
0.0
 11
-7.6900560616
 21
-23.7460494109
 31
0.0
 11
-7.6836380508
 21
-23.7325037413
 31
0.0
 11
-7.6729476785
 21
-23.7149796767
 31
0.0
 11
-7.6575956825
 21
-23.6929631511
 31
0.0
 11
-7.6372588482
 21
-23.6660933029
 31
0.0
 11
-7.6116202813
 21
-23.6340104275
 31
0.0
 11
-7.5804979669
 21
-23.5965085067
 31
0.0
 11
-7.543657591
 21
-23.5532986902
 31
0.0
 11
-7.500955973
 21
-23.5041851623
 31
0.0
 11
-7.45255812
 21
-23.4492997255
 31
0.0
 11
-7.3996814265
 21
-23.3899164391
 31
0.0
 11
-7.3443254559
 21
-23.3281240072
 31
0.0
 11
-7.2884822077
 21
-23.2659657686
 31
0.0
  0
SPLINE
  5
5C9
100
AcDbEntity
  8
0
100
AcDbSpline
 62
7
  6
CONTINUOUS
 70
0
 71
3
 72
20
 73
16
 74
14
 42
0.0000001
 43
0.0000001
 44
0.0000000001
 12
-0.4258925497
 22
0.4738347451
 32
0.0
 13
-0.0273309172
 23
0.6365193246
 33
0.0
 40
0.0
 40
0.0
 40
0.0
 40
0.0
 40
0.1318826192
 40
0.2622539236
 40
0.3868859902
 40
0.5015377921
 40
0.603612993
 40
0.6927007188
 40
0.7691443518
 40
0.8334803957
 40
0.8862385626
 40
0.9282628168
 40
0.9604553999
 40
0.9840076025
 40
1.0
 40
1.0
 40
1.0
 40
1.0
 10
-7.2884822077
 20
23.2659657686
 30
0.0
 10
-7.307204816
 20
23.2867959577
 30
0.0
 10
-7.3444355725
 20
23.3282175517
 30
0.0
 10
-7.3992742201
 20
23.3894008687
 30
0.0
 10
-7.4514980479
 20
23.4480135511
 30
0.0
 10
-7.4994676745
 20
23.5023674105
 30
0.0
 10
-7.5421086372
 20
23.5513547077
 30
0.0
 10
-7.5790155647
 20
23.5945725196
 30
0.0
 10
-7.6102358942
 20
23.6321034999
 30
0.0
 10
-7.635953709
 20
23.6641667919
 30
0.0
 10
-7.6564311219
 20
23.691057987
 30
0.0
 10
-7.671969221
 20
23.7130956504
 30
0.0
 10
-7.6829793581
 20
23.7307472336
 30
0.0
 10
-7.6897871841
 20
23.7443521377
 30
0.0
 10
-7.692260594
 20
23.7525549813
 30
0.0
 10
-7.6924062896
 20
23.755948138
 30
0.0
 11
-7.2884822077
 21
23.2659657686
 31
0.0
 11
-7.3446354788
 21
23.3284694141
 31
0.0
 11
-7.4000566244
 21
23.3903363108
 31
0.0
 11
-7.4528592328
 21
23.4496393498
 31
0.0
 11
-7.5011688077
 21
23.5044280831
 31
0.0
 11
-7.5438367344
 21
23.5535065991
 31
0.0
 11
-7.5806588768
 21
23.5966996015
 31
0.0
 11
-7.6117584523
 21
23.6341798336
 31
0.0
 11
-7.6373441058
 21
23.6662026638
 31
0.0
 11
-7.6576268584
 21
23.6930058815
 31
0.0
 11
-7.6729401475
 21
23.7149682297
 31
0.0
 11
-7.6836230555
 21
23.7324764833
 31
0.0
 11
-7.6900507903
 21
23.746035304
 31
0.0
 11
-7.6924062896
 21
23.755948138
 31
0.0
  0
SPLINE
  5
5CA
100
AcDbEntity
  8
0
100
AcDbSpline
 62
7
  6
CONTINUOUS
 70
0
 71
3
 72
20
 73
16
 74
14
 42
0.0000001
 43
0.0000001
 44
0.0000000001
 12
-0.0166604572
 22
-0.6371697617
 32
0.0
 13
-0.4260808719
 23
-0.4740442666
 33
0.0
 40
0.0
 40
0.0
 40
0.0
 40
0.0
 40
0.0157966061
 40
0.0391513397
 40
0.0711523361
 40
0.1130071515
 40
0.1656255935
 40
0.2298658313
 40
0.3062635936
 40
0.3953610635
 40
0.4975091774
 40
0.6123111915
 40
0.7371681441
 40
0.8678171631
 40
1.0
 40
1.0
 40
1.0
 40
1.0
 10
-6.8845482821
 20
23.7562325953
 30
0.0
 10
-6.8846360083
 20
23.7528775554
 30
0.0
 10
-6.887022432
 20
23.7447224155
 30
0.0
 10
-6.8937272369
 20
23.7312001639
 30
0.0
 10
-6.9046452046
 20
23.7136178191
 30
0.0
 10
-6.9201041513
 20
23.6916404705
 30
0.0
 10
-6.9405203874
 20
23.6647916464
 30
0.0
 10
-6.9661987984
 20
23.6327501396
 30
0.0
 10
-6.9974052781
 20
23.5952159466
 30
0.0
 10
-7.0343266946
 20
23.5519671759
 30
0.0
 10
-7.0770143428
 20
23.5029168317
 30
0.0
 10
-7.125065334
 20
23.4484650669
 30
0.0
 10
-7.177403104
 20
23.3897216437
 30
0.0
 10
-7.2323793792
 20
23.328383838
 30
0.0
 10
-7.2697086816
 20
23.2868526072
 30
0.0
 10
-7.2884822077
 20
23.2659657686
 30
0.0
 11
-6.8845482821
 21
23.7562325953
 31
0.0
 11
-6.8867738333
 21
23.7464130831
 31
0.0
 11
-6.8930906437
 21
23.7329337884
 31
0.0
 11
-6.9036760086
 21
23.7154985041
 31
0.0
 11
-6.9189072967
 21
23.6935962311
 31
0.0
 11
-6.9391257809
 21
23.6668374363
 31
0.0
 11
-6.964670386
 21
23.6348367786
 31
0.0
 11
-6.9957547309
 21
23.5973539191
 31
0.0
 11
-7.0325898807
 21
23.5541308655
 31
0.0
 11
-7.0753022208
 21
23.5049912766
 31
0.0
 11
-7.1236934206
 21
23.4501038068
 31
0.0
 11
-7.176613116
 21
23.3906660841
 31
0.0
 11
-7.232176303
 21
23.3286394704
 31
0.0
 11
-7.2884822077
 21
23.2659657686
 31
0.0
  0
SPLINE
  5
5CB
100
AcDbEntity
  8
0
100
AcDbSpline
 62
7
  6
CONTINUOUS
 70
0
 71
3
 72
20
 73
16
 74
14
 42
0.0000001
 43
0.0000001
 44
0.0000000001
 12
-0.4260808566
 22
0.4740442496
 32
0.0
 13
-0.0166604566
 23
0.6371697389
 33
0.0
 40
0.0
 40
0.0
 40
0.0
 40
0.0
 40
0.1322409039
 40
0.2628730871
 40
0.3876885393
 40
0.502485347
 40
0.6046497038
 40
0.6937562087
 40
0.7701488815
 40
0.8343750395
 40
0.8869820922
 40
0.9288315508
 40
0.9608390866
 40
0.9841980846
 40
1.0
 40
1.0
 40
1.0
 40
1.0
 10
-15.2115177923
 20
23.2659657686
 30
0.0
 10
-15.2302995648
 20
23.2868617819
 30
0.0
 10
-15.2676347222
 20
23.328399526
 30
0.0
 10
-15.3226109043
 20
23.3897373344
 30
0.0
 10
-15.3749396449
 20
23.4484707169
 30
0.0
 10
-15.4229863572
 20
23.5029176218
 30
0.0
 10
-15.4656768005
 20
23.5519711841
 30
0.0
 10
-15.5026009259
 20
23.5952232796
 30
0.0
 10
-15.5338058992
 20
23.6327559236
 30
0.0
 10
-15.5594801484
 20
23.6647924403
 30
0.0
 10
-15.5798924741
 20
23.6916360085
 30
0.0
 10
-15.5953504354
 20
23.7136113771
 30
0.0
 10
-15.6062695653
 20
23.7311943894
 30
0.0
 10
-15.6129763953
 20
23.7447193828
 30
0.0
 10
-15.6153639622
 20
23.7528764279
 30
0.0
 10
-15.6154517179
 20
23.7562325953
 30
0.0
 11
-15.2115177923
 21
23.2659657686
 31
0.0
 11
-15.2678484168
 21
23.328667012
 31
0.0
 11
-15.3234043906
 21
23.3906856763
 31
0.0
 11
-15.3763064596
 21
23.4501036717
 31
0.0
 11
-15.4246954719
 21
23.5049886426
 31
0.0
 11
-15.4674145894
 21
23.554136055
 31
0.0
 11
-15.5042533864
 21
23.5973635639
 31
0.0
 11
-15.5353355273
 21
23.6348440345
 31
0.0
 11
-15.5608744551
 21
23.6668377394
 31
0.0
 11
-15.5810886551
 21
23.6935906712
 31
0.0
 11
-15.5963183468
 21
23.7154898942
 31
0.0
 11
-15.6069064186
 21
23.7329284106
 31
0.0
 11
-15.6132249934
 21
23.7464098795
 31
0.0
 11
-15.6154517179
 21
23.7562325953
 31
0.0
  0
SPLINE
  5
5CC
100
AcDbEntity
  8
0
100
AcDbSpline
 62
7
  6
CONTINUOUS
 70
0
 71
3
 72
20
 73
16
 74
14
 42
0.0000001
 43
0.0000001
 44
0.0000000001
 12
-0.0273309181
 22
-0.6365193453
 32
0.0
 13
-0.4258925635
 23
-0.4738347605
 33
0.0
 40
0.0
 40
0.0
 40
0.0
 40
0.0
 40
0.0159872484
 40
0.0395353773
 40
0.0717217246
 40
0.1137514476
 40
0.1665212875
 40
0.2308718837
 40
0.3073208095
 40
0.3963993416
 40
0.4984579746
 40
0.6131144546
 40
0.7377879217
 40
0.8681762794
 40
1.0
 40
1.0
 40
1.0
 40
1.0
 10
-14.8075937104
 20
23.755948138
 30
0.0
 10
-14.8077393591
 20
23.7525560737
 30
0.0
 10
-14.8102116694
 20
23.744355054
 30
0.0
 10
-14.81701755
 20
23.7307527793
 30
0.0
 10
-14.8280266234
 20
23.7131017683
 30
0.0
 10
-14.8435658136
 20
23.6910620202
 30
0.0
 10
-14.8640472654
 20
23.6641654387
 30
0.0
 10
-14.8897693824
 20
23.632097012
 30
0.0
 10
-14.920991299
 20
23.5945644085
 30
0.0
 10
-14.9578954875
 20
23.5513499719
 30
0.0
 10
-15.00053352
 20
23.5023660579
 30
0.0
 10
-15.0485072922
 20
23.4480074951
 30
0.0
 10
-15.1007400883
 20
23.3893848428
 30
0.0
 10
-15.1555787281
 20
23.328201642
 30
0.0
 10
-15.1928035449
 20
23.2867866556
 30
0.0
 10
-15.2115177923
 20
23.2659657686
 30
0.0
 11
-14.8075937104
 21
23.755948138
 31
0.0
 11
-14.8099480523
 21
23.7460384005
 31
0.0
 11
-14.8163741005
 21
23.7324816521
 31
0.0
 11
-14.8270544269
 21
23.7149764764
 31
0.0
 11
-14.842369379
 21
23.6930110391
 31
0.0
 11
-14.8626565427
 21
23.6662018318
 31
0.0
 11
-14.8882480751
 21
23.6341718299
 31
0.0
 11
-14.9193499482
 21
23.5966891203
 31
0.0
 11
-14.956168387
 21
23.5535006551
 31
0.0
 11
-14.9988294082
 21
23.5044301196
 31
0.0
 11
-15.0471409499
 21
23.4496391438
 31
0.0
 11
-15.0999611359
 21
23.3903164354
 31
0.0
 11
-15.1553895843
 21
23.3284414903
 31
0.0
 11
-15.2115177923
 21
23.2659657686
 31
0.0
  0
SPLINE
  5
5CD
100
AcDbEntity
  8
ASSI
100
AcDbSpline
 62
7
  6
CONTINUOUS
 70
0
 71
3
 72
34
 73
30
 74
28
 42
0.0000001
 43
0.0000001
 44
0.0000000001
 12
-2.6248727856
 22
0.0
 32
0.0
 13
2.6248727856
 23
-0.0
 33
0.0
 40
0.0
 40
0.0
 40
0.0
 40
0.0
 40
0.0369165408
 40
0.0738706913
 40
0.1108207742
 40
0.1478088473
 40
0.1847730898
 40
0.2218077094
 40
0.2588003077
 40
0.2958780421
 40
0.3329130047
 40
0.370024881
 40
0.4071154129
 40
0.4442287371
 40
0.4813703468
 40
0.5184662435
 40
0.5556374755
 40
0.5927102842
 40
0.6298680621
 40
0.6669249125
 40
0.7040350635
 40
0.7410970791
 40
0.7781231876
 40
0.8151780956
 40
0.8521361299
 40
0.8891609448
 40
0.9260966851
 40
0.9630764648
 40
1.0
 40
1.0
 40
1.0
 40
1.0
 10
-10.4
 20
9.1923097769
 30
0.0
 10
-10.4323004078
 20
9.1923097769
 30
0.0
 10
-10.4969971122
 20
9.1960754379
 30
0.0
 10
-10.5926926966
 20
9.2129517418
 30
0.0
 10
-10.6858539819
 20
9.2408470908
 30
0.0
 10
-10.7751495451
 20
9.2793777189
 30
0.0
 10
-10.8594316039
 20
9.3280531025
 30
0.0
 10
-10.9374949097
 20
9.3861889182
 30
0.0
 10
-11.0083531703
 20
9.4530614346
 30
0.0
 10
-11.0709710592
 20
9.5277078584
 30
0.0
 10
-11.1245590587
 20
9.6092037789
 30
0.0
 10
-11.1683338501
 20
9.6963782973
 30
0.0
 10
-11.201718813
 20
9.7881080747
 30
0.0
 10
-11.224243439
 20
9.8831168432
 30
0.0
 10
-11.2355913318
 20
9.9801025773
 30
0.0
 10
-11.2356130364
 20
10.0777998525
 30
0.0
 10
-11.2243051298
 20
10.1747810958
 30
0.0
 10
-11.2018102686
 20
10.2698468973
 30
0.0
 10
-11.1684708072
 20
10.3615679169
 30
0.0
 10
-11.1246979703
 20
10.448827973
 30
0.0
 10
-11.0711401519
 20
10.5303497056
 30
0.0
 10
-11.0084950231
 20
10.6050790922
 30
0.0
 10
-10.9376338364
 20
10.6719977822
 30
0.0
 10
-10.8595514812
 20
10.7301782494
 30
0.0
 10
-10.7752423332
 20
10.7788955255
 30
0.0
 10
-10.6859401729
 20
10.817448171
 30
0.0
 10
-10.5927424924
 20
10.8453680329
 30
0.0
 10
-10.4970323185
 20
10.8622564407
 30
0.0
 10
-10.4323070426
 20
10.8660255857
 30
0.0
 10
-10.400000515
 20
10.8660255857
 30
0.0
 11
-10.4
 21
9.1923097769
 31
0.0
 11
-10.4967373713
 21
9.1979425441
 31
0.0
 11
-10.5922636237
 21
9.2147866602
 31
0.0
 11
-10.6851770011
 21
9.2426079142
 31
0.0
 11
-10.7743217048
 21
9.281072094
 31
0.0
 11
-10.8583430368
 21
9.3295957451
 31
0.0
 11
-10.9363096426
 21
9.3876579442
 31
0.0
 11
-11.0069285951
 21
9.454302835
 31
0.0
 11
-11.0694779866
 21
9.52886556
 31
0.0
 11
-11.1228890841
 21
9.6100901889
 31
0.0
 11
-11.1666046619
 21
9.6971443485
 31
0.0
 11
-11.1999021929
 21
9.7886311813
 31
0.0
 11
-11.2223756385
 21
9.8834212818
 31
0.0
 11
-11.233705873
 21
9.9802526608
 31
0.0
 11
-11.2337275561
 21
10.0776246679
 31
0.0
 11
-11.2224273446
 21
10.1745378372
 31
0.0
 11
-11.2000193384
 21
10.2692341473
 31
0.0
 11
-11.1666988566
 21
10.3609004576
 31
0.0
 11
-11.1230838586
 21
10.4478434913
 31
0.0
 11
-11.0695971666
 21
10.5292546082
 31
0.0
 11
-11.0070990659
 21
10.6038064984
 31
0.0
 11
-10.9364376636
 21
10.670534557
 31
0.0
 11
-10.8584428625
 21
10.7286480523
 31
0.0
 11
-10.7744468938
 21
10.7771830315
 31
0.0
 11
-10.6852205616
 21
10.8157014587
 31
0.0
 11
-10.5923469414
 21
10.8435242416
 31
0.0
 11
-10.4967560724
 21
10.8603893062
 31
0.0
 11
-10.400000515
 21
10.8660255857
 31
0.0
  0
SPLINE
  5
5CE
100
AcDbEntity
  8
ASSI
100
AcDbSpline
 62
7
  6
CONTINUOUS
 70
0
 71
3
 72
34
 73
30
 74
28
 42
0.0000001
 43
0.0000001
 44
0.0000000001
 12
2.6248738141
 22
0.0
 32
0.0
 13
-2.6248738141
 23
-0.0
 33
0.0
 40
0.0
 40
0.0
 40
0.0
 40
0.0
 40
0.0369345186
 40
0.0738974079
 40
0.1108500341
 40
0.1478574761
 40
0.1848266005
 40
0.2218746698
 40
0.2588992779
 40
0.2959656907
 40
0.3330654495
 40
0.3701287105
 40
0.4072782054
 40
0.4443537385
 40
0.4815227756
 40
0.5186172478
 40
0.5557616555
 40
0.5928736332
 40
0.6299668287
 40
0.6670815081
 40
0.7041130915
 40
0.7411992798
 40
0.7781836892
 40
0.8152306401
 40
0.8521838271
 40
0.889184525
 40
0.9261249049
 40
0.9630882499
 40
1.0
 40
1.0
 40
1.0
 40
1.0
 10
-10.400000515
 20
10.8660255857
 30
0.0
 10
-10.3676843648
 20
10.8660255857
 30
0.0
 10
-10.3029641564
 20
10.8622557406
 30
0.0
 10
-10.2072448584
 20
10.8453650301
 30
0.0
 10
-10.1140616501
 20
10.8174488111
 30
0.0
 10
-10.0247514236
 20
10.778892027
 30
0.0
 10
-9.9404518531
 20
10.7301807091
 30
0.0
 10
-9.8623678057
 20
10.6719986027
 30
0.0
 10
-9.7915084393
 20
10.6050829875
 30
0.0
 10
-9.7288670577
 20
10.5303588862
 30
0.0
 10
-9.6753078993
 20
10.4488377472
 30
0.0
 10
-9.6315379832
 20
10.3615880839
 30
0.0
 10
-9.5981961115
 20
10.2698672464
 30
0.0
 10
-9.5756996986
 20
10.1748087032
 30
0.0
 10
-9.5643888161
 20
10.0778285939
 30
0.0
 10
-9.5644068762
 20
9.9801320193
 30
0.0
 10
-9.5757513792
 20
9.8831457835
 30
0.0
 10
-9.5982737279
 20
9.7881327526
 30
0.0
 10
-9.6316571352
 20
9.6963984869
 30
0.0
 10
-9.6754308649
 20
9.6092212952
 30
0.0
 10
-9.7290207726
 20
9.5277183943
 30
0.0
 10
-9.7916359096
 20
9.4530729928
 30
0.0
 10
-9.862501153
 20
9.3861919437
 30
0.0
 10
-9.9405593346
 20
9.3280589846
 30
0.0
 10
-10.0248515262
 20
9.2793770894
 30
0.0
 10
-10.1141406425
 20
9.2408488863
 30
0.0
 10
-10.2073120139
 20
9.2129506516
 30
0.0
 10
-10.303003221
 20
9.1960751685
 30
0.0
 10
-10.3677037712
 20
9.1923097769
 30
0.0
 10
-10.4
 20
9.1923097769
 30
0.0
 11
-10.400000515
 21
10.8660255857
 31
0.0
 11
-10.3032162293
 21
10.8603860679
 31
0.0
 11
-10.2076690991
 21
10.8435280461
 31
0.0
 11
-10.1147531749
 21
10.815691894
 31
0.0
 11
-10.0255689117
 21
10.7771909767
 31
0.0
 11
-9.9415475252
 21
10.7286417257
 31
0.0
 11
-9.8635672645
 21
10.670538696
 31
0.0
 11
-9.7929080281
 21
10.6038140244
 31
0.0
 11
-9.7304020831
 21
10.5292535993
 31
0.0
 11
-9.6769291442
 21
10.4478660397
 31
0.0
 11
-9.6333047587
 21
10.3609088471
 31
0.0
 11
-9.5999895037
 21
10.2692637296
 31
0.0
 11
-9.5775767611
 21
10.1745611527
 31
0.0
 11
-9.5662741452
 21
10.0776540257
 31
0.0
 11
-9.5662921978
 21
9.9802857188
 31
0.0
 11
-9.5776198928
 21
9.8834466097
 31
0.0
 11
-9.6000894257
 21
9.7886591747
 31
0.0
 11
-9.6333865545
 21
9.6971647149
 31
0.0
 11
-9.6771035308
 21
9.6101029813
 31
0.0
 11
-9.730507913
 21
9.5288845069
 31
0.0
 11
-9.7930704775
 21
9.4543038181
 31
0.0
 11
-9.8636728604
 21
9.3876726321
 31
0.0
 11
-9.9416649973
 21
9.3295904599
 31
0.0
 11
-10.0256609476
 21
9.2810808096
 31
0.0
 11
-10.1148359841
 21
9.2426031873
 31
0.0
 11
-10.2077250354
 21
9.2147893486
 31
0.0
 11
-10.303275102
 21
9.1979410867
 31
0.0
 11
-10.4
 21
9.1923097769
 31
0.0
  0
SPLINE
  5
5CF
100
AcDbEntity
  8
ASSI
100
AcDbSpline
 62
7
  6
CONTINUOUS
 70
0
 71
3
 72
34
 73
30
 74
28
 42
0.0000001
 43
0.0000001
 44
0.0000000001
 12
-2.6248727855
 22
0.0
 32
0.0
 13
2.6248727855
 23
0.0
 33
0.0
 40
0.0
 40
0.0
 40
0.0
 40
0.0
 40
0.0369165408
 40
0.0738706913
 40
0.1108207742
 40
0.1478088473
 40
0.1847730898
 40
0.2218077094
 40
0.2588003077
 40
0.2958780421
 40
0.3329130047
 40
0.3700248809
 40
0.4071154129
 40
0.4442287371
 40
0.4813703468
 40
0.5184662434
 40
0.5556374755
 40
0.5927102842
 40
0.629868062
 40
0.6669249124
 40
0.7040350635
 40
0.7410970791
 40
0.7781231875
 40
0.8151780956
 40
0.8521361299
 40
0.8891609447
 40
0.9260966851
 40
0.9630764647
 40
1.0
 40
1.0
 40
1.0
 40
1.0
 10
0.0
 20
9.1923097769
 30
0.0
 10
-0.0323004078
 20
9.1923097769
 30
0.0
 10
-0.0969971122
 20
9.1960754379
 30
0.0
 10
-0.1926926965
 20
9.2129517418
 30
0.0
 10
-0.2858539818
 20
9.2408470908
 30
0.0
 10
-0.3751495451
 20
9.2793777189
 30
0.0
 10
-0.4594316038
 20
9.3280531025
 30
0.0
 10
-0.5374949097
 20
9.3861889182
 30
0.0
 10
-0.6083531702
 20
9.4530614346
 30
0.0
 10
-0.6709710592
 20
9.5277078584
 30
0.0
 10
-0.7245590586
 20
9.6092037788
 30
0.0
 10
-0.7683338501
 20
9.6963782972
 30
0.0
 10
-0.801718813
 20
9.7881080747
 30
0.0
 10
-0.824243439
 20
9.8831168431
 30
0.0
 10
-0.8355913318
 20
9.9801025772
 30
0.0
 10
-0.8356130364
 20
10.0777998525
 30
0.0
 10
-0.8243051298
 20
10.1747810957
 30
0.0
 10
-0.8018102686
 20
10.2698468972
 30
0.0
 10
-0.7684708072
 20
10.3615679168
 30
0.0
 10
-0.7246979704
 20
10.4488279729
 30
0.0
 10
-0.671140152
 20
10.5303497055
 30
0.0
 10
-0.6084950232
 20
10.6050790922
 30
0.0
 10
-0.5376338365
 20
10.6719977821
 30
0.0
 10
-0.4595514813
 20
10.7301782493
 30
0.0
 10
-0.3752423333
 20
10.7788955254
 30
0.0
 10
-0.285940173
 20
10.8174481709
 30
0.0
 10
-0.1927424925
 20
10.8453680329
 30
0.0
 10
-0.0970323186
 20
10.8622564406
 30
0.0
 10
-0.0323070427
 20
10.8660255857
 30
0.0
 10
-0.0000005151
 20
10.8660255857
 30
0.0
 11
0.0
 21
9.1923097769
 31
0.0
 11
-0.0967373713
 21
9.1979425441
 31
0.0
 11
-0.1922636237
 21
9.2147866602
 31
0.0
 11
-0.2851770011
 21
9.2426079142
 31
0.0
 11
-0.3743217048
 21
9.281072094
 31
0.0
 11
-0.4583430368
 21
9.329595745
 31
0.0
 11
-0.5363096425
 21
9.3876579442
 31
0.0
 11
-0.6069285951
 21
9.454302835
 31
0.0
 11
-0.6694779866
 21
9.52886556
 31
0.0
 11
-0.7228890841
 21
9.6100901889
 31
0.0
 11
-0.7666046619
 21
9.6971443485
 31
0.0
 11
-0.7999021928
 21
9.7886311813
 31
0.0
 11
-0.8223756385
 21
9.8834212817
 31
0.0
 11
-0.833705873
 21
9.9802526607
 31
0.0
 11
-0.8337275561
 21
10.0776246679
 31
0.0
 11
-0.8224273446
 21
10.1745378371
 31
0.0
 11
-0.8000193385
 21
10.2692341472
 31
0.0
 11
-0.7666988566
 21
10.3609004575
 31
0.0
 11
-0.7230838587
 21
10.4478434912
 31
0.0
 11
-0.6695971666
 21
10.5292546081
 31
0.0
 11
-0.607099066
 21
10.6038064984
 31
0.0
 11
-0.5364376637
 21
10.6705345569
 31
0.0
 11
-0.4584428626
 21
10.7286480522
 31
0.0
 11
-0.3744468939
 21
10.7771830314
 31
0.0
 11
-0.2852205617
 21
10.8157014587
 31
0.0
 11
-0.1923469416
 21
10.8435242415
 31
0.0
 11
-0.0967560725
 21
10.8603893062
 31
0.0
 11
-0.0000005151
 21
10.8660255857
 31
0.0
  0
SPLINE
  5
5D0
100
AcDbEntity
  8
ASSI
100
AcDbSpline
 62
7
  6
CONTINUOUS
 70
0
 71
3
 72
34
 73
30
 74
28
 42
0.0000001
 43
0.0000001
 44
0.0000000001
 12
2.6248738142
 22
0.0
 32
0.0
 13
-2.6248738142
 23
0.0
 33
0.0
 40
0.0
 40
0.0
 40
0.0
 40
0.0
 40
0.0369345187
 40
0.0738974079
 40
0.1108500341
 40
0.1478574761
 40
0.1848266005
 40
0.2218746699
 40
0.2588992779
 40
0.2959656907
 40
0.3330654496
 40
0.3701287105
 40
0.4072782055
 40
0.4443537385
 40
0.4815227756
 40
0.5186172478
 40
0.5557616555
 40
0.5928736332
 40
0.6299668287
 40
0.6670815081
 40
0.7041130916
 40
0.7411992798
 40
0.7781836893
 40
0.8152306401
 40
0.8521838271
 40
0.889184525
 40
0.9261249049
 40
0.9630882499
 40
1.0
 40
1.0
 40
1.0
 40
1.0
 10
-0.0000005151
 20
10.8660255857
 30
0.0
 10
0.0323156352
 20
10.8660255857
 30
0.0
 10
0.0970358436
 20
10.8622557406
 30
0.0
 10
0.1927551416
 20
10.8453650301
 30
0.0
 10
0.28593835
 20
10.8174488111
 30
0.0
 10
0.3752485764
 20
10.778892027
 30
0.0
 10
0.4595481469
 20
10.7301807091
 30
0.0
 10
0.5376321943
 20
10.6719986027
 30
0.0
 10
0.6084915607
 20
10.6050829875
 30
0.0
 10
0.6711329423
 20
10.5303588862
 30
0.0
 10
0.7246921007
 20
10.4488377472
 30
0.0
 10
0.7684620168
 20
10.3615880839
 30
0.0
 10
0.8018038885
 20
10.2698672464
 30
0.0
 10
0.8243003014
 20
10.1748087032
 30
0.0
 10
0.8356111839
 20
10.0778285939
 30
0.0
 10
0.8355931238
 20
9.9801320192
 30
0.0
 10
0.8242486208
 20
9.8831457834
 30
0.0
 10
0.8017262721
 20
9.7881327526
 30
0.0
 10
0.7683428648
 20
9.6963984869
 30
0.0
 10
0.7245691351
 20
9.6092212952
 30
0.0
 10
0.6709792274
 20
9.5277183943
 30
0.0
 10
0.6083640904
 20
9.4530729928
 30
0.0
 10
0.537498847
 20
9.3861919437
 30
0.0
 10
0.4594406654
 20
9.3280589846
 30
0.0
 10
0.3751484738
 20
9.2793770894
 30
0.0
 10
0.2858593575
 20
9.2408488863
 30
0.0
 10
0.1926879861
 20
9.2129506516
 30
0.0
 10
0.096996779
 20
9.1960751685
 30
0.0
 10
0.0322962288
 20
9.1923097769
 30
0.0
 10
0.0
 20
9.1923097769
 30
0.0
 11
-0.0000005151
 21
10.8660255857
 31
0.0
 11
0.0967837707
 21
10.8603860679
 31
0.0
 11
0.192330901
 21
10.8435280461
 31
0.0
 11
0.2852468251
 21
10.815691894
 31
0.0
 11
0.3744310883
 21
10.7771909767
 31
0.0
 11
0.4584524748
 21
10.7286417257
 31
0.0
 11
0.5364327356
 21
10.670538696
 31
0.0
 11
0.6070919719
 21
10.6038140243
 31
0.0
 11
0.6695979169
 21
10.5292535993
 31
0.0
 11
0.7230708559
 21
10.4478660396
 31
0.0
 11
0.7666952413
 21
10.3609088471
 31
0.0
 11
0.8000104963
 21
10.2692637296
 31
0.0
 11
0.8224232389
 21
10.1745611527
 31
0.0
 11
0.8337258548
 21
10.0776540257
 31
0.0
 11
0.8337078022
 21
9.9802857188
 31
0.0
 11
0.8223801072
 21
9.8834466097
 31
0.0
 11
0.7999105743
 21
9.7886591747
 31
0.0
 11
0.7666134455
 21
9.6971647149
 31
0.0
 11
0.7228964692
 21
9.6101029813
 31
0.0
 11
0.669492087
 21
9.5288845069
 31
0.0
 11
0.6069295225
 21
9.4543038181
 31
0.0
 11
0.5363271396
 21
9.3876726321
 31
0.0
 11
0.4583350027
 21
9.3295904599
 31
0.0
 11
0.3743390524
 21
9.2810808096
 31
0.0
 11
0.2851640159
 21
9.2426031873
 31
0.0
 11
0.1922749646
 21
9.2147893486
 31
0.0
 11
0.096724898
 21
9.1979410867
 31
0.0
 11
0.0
 21
9.1923097769
 31
0.0
  0
SPLINE
  5
5D1
100
AcDbEntity
  8
ASSI
100
AcDbSpline
 62
7
  6
CONTINUOUS
 70
0
 71
3
 72
34
 73
30
 74
28
 42
0.0000001
 43
0.0000001
 44
0.0000000001
 12
-2.6248727856
 22
0.0
 32
0.0
 13
2.6248727856
 23
0.0
 33
0.0
 40
0.0
 40
0.0
 40
0.0
 40
0.0
 40
0.0369165408
 40
0.0738706913
 40
0.1108207742
 40
0.1478088473
 40
0.1847730898
 40
0.2218077094
 40
0.2588003077
 40
0.2958780421
 40
0.3329130047
 40
0.370024881
 40
0.4071154129
 40
0.4442287371
 40
0.4813703468
 40
0.5184662435
 40
0.5556374755
 40
0.5927102842
 40
0.6298680621
 40
0.6669249125
 40
0.7040350635
 40
0.7410970791
 40
0.7781231876
 40
0.8151780956
 40
0.8521361299
 40
0.8891609448
 40
0.9260966851
 40
0.9630764648
 40
1.0
 40
1.0
 40
1.0
 40
1.0
 10
10.4
 20
9.1923097769
 30
0.0
 10
10.3676995922
 20
9.1923097769
 30
0.0
 10
10.3030028878
 20
9.1960754379
 30
0.0
 10
10.2073073034
 20
9.2129517418
 30
0.0
 10
10.1141460181
 20
9.2408470908
 30
0.0
 10
10.0248504549
 20
9.2793777189
 30
0.0
 10
9.9405683961
 20
9.3280531025
 30
0.0
 10
9.8625050903
 20
9.3861889182
 30
0.0
 10
9.7916468297
 20
9.4530614346
 30
0.0
 10
9.7290289408
 20
9.5277078584
 30
0.0
 10
9.6754409413
 20
9.6092037789
 30
0.0
 10
9.6316661499
 20
9.6963782973
 30
0.0
 10
9.598281187
 20
9.7881080747
 30
0.0
 10
9.575756561
 20
9.8831168432
 30
0.0
 10
9.5644086682
 20
9.9801025773
 30
0.0
 10
9.5643869636
 20
10.0777998525
 30
0.0
 10
9.5756948702
 20
10.1747810958
 30
0.0
 10
9.5981897314
 20
10.2698468973
 30
0.0
 10
9.6315291928
 20
10.3615679169
 30
0.0
 10
9.6753020297
 20
10.448827973
 30
0.0
 10
9.7288598481
 20
10.5303497056
 30
0.0
 10
9.7915049769
 20
10.6050790922
 30
0.0
 10
9.8623661636
 20
10.6719977822
 30
0.0
 10
9.9404485188
 20
10.7301782494
 30
0.0
 10
10.0247576668
 20
10.7788955255
 30
0.0
 10
10.1140598271
 20
10.817448171
 30
0.0
 10
10.2072575076
 20
10.8453680329
 30
0.0
 10
10.3029676815
 20
10.8622564407
 30
0.0
 10
10.3676929574
 20
10.8660255857
 30
0.0
 10
10.399999485
 20
10.8660255857
 30
0.0
 11
10.4
 21
9.1923097769
 31
0.0
 11
10.3032626287
 21
9.1979425441
 31
0.0
 11
10.2077363763
 21
9.2147866602
 31
0.0
 11
10.1148229989
 21
9.2426079142
 31
0.0
 11
10.0256782952
 21
9.281072094
 31
0.0
 11
9.9416569632
 21
9.3295957451
 31
0.0
 11
9.8636903574
 21
9.3876579442
 31
0.0
 11
9.7930714049
 21
9.454302835
 31
0.0
 11
9.7305220134
 21
9.52886556
 31
0.0
 11
9.6771109159
 21
9.6100901889
 31
0.0
 11
9.6333953381
 21
9.6971443485
 31
0.0
 11
9.6000978071
 21
9.7886311813
 31
0.0
 11
9.5776243615
 21
9.8834212818
 31
0.0
 11
9.566294127
 21
9.9802526608
 31
0.0
 11
9.5662724439
 21
10.0776246679
 31
0.0
 11
9.5775726554
 21
10.1745378372
 31
0.0
 11
9.5999806616
 21
10.2692341473
 31
0.0
 11
9.6333011434
 21
10.3609004576
 31
0.0
 11
9.6769161414
 21
10.4478434913
 31
0.0
 11
9.7304028334
 21
10.5292546082
 31
0.0
 11
9.7929009341
 21
10.6038064984
 31
0.0
 11
9.8635623364
 21
10.670534557
 31
0.0
 11
9.9415571375
 21
10.7286480523
 31
0.0
 11
10.0255531062
 21
10.7771830315
 31
0.0
 11
10.1147794384
 21
10.8157014587
 31
0.0
 11
10.2076530586
 21
10.8435242416
 31
0.0
 11
10.3032439276
 21
10.8603893062
 31
0.0
 11
10.399999485
 21
10.8660255857
 31
0.0
  0
SPLINE
  5
5D2
100
AcDbEntity
  8
ASSI
100
AcDbSpline
 62
7
  6
CONTINUOUS
 70
0
 71
3
 72
34
 73
30
 74
28
 42
0.0000001
 43
0.0000001
 44
0.0000000001
 12
2.6248738141
 22
0.0
 32
0.0
 13
-2.6248738141
 23
0.0
 33
0.0
 40
0.0
 40
0.0
 40
0.0
 40
0.0
 40
0.0369345186
 40
0.0738974079
 40
0.1108500341
 40
0.1478574761
 40
0.1848266005
 40
0.2218746698
 40
0.2588992779
 40
0.2959656907
 40
0.3330654495
 40
0.3701287105
 40
0.4072782054
 40
0.4443537385
 40
0.4815227756
 40
0.5186172478
 40
0.5557616555
 40
0.5928736332
 40
0.6299668287
 40
0.6670815081
 40
0.7041130915
 40
0.7411992798
 40
0.7781836892
 40
0.8152306401
 40
0.8521838271
 40
0.889184525
 40
0.9261249049
 40
0.9630882499
 40
1.0
 40
1.0
 40
1.0
 40
1.0
 10
10.399999485
 20
10.8660255857
 30
0.0
 10
10.4323156352
 20
10.8660255857
 30
0.0
 10
10.4970358436
 20
10.8622557406
 30
0.0
 10
10.5927551416
 20
10.8453650301
 30
0.0
 10
10.6859383499
 20
10.8174488111
 30
0.0
 10
10.7752485764
 20
10.778892027
 30
0.0
 10
10.8595481469
 20
10.7301807091
 30
0.0
 10
10.9376321943
 20
10.6719986027
 30
0.0
 10
11.0084915607
 20
10.6050829875
 30
0.0
 10
11.0711329423
 20
10.5303588862
 30
0.0
 10
11.1246921007
 20
10.4488377472
 30
0.0
 10
11.1684620168
 20
10.3615880839
 30
0.0
 10
11.2018038885
 20
10.2698672464
 30
0.0
 10
11.2243003014
 20
10.1748087032
 30
0.0
 10
11.2356111839
 20
10.0778285939
 30
0.0
 10
11.2355931238
 20
9.9801320193
 30
0.0
 10
11.2242486208
 20
9.8831457835
 30
0.0
 10
11.2017262721
 20
9.7881327526
 30
0.0
 10
11.1683428648
 20
9.6963984869
 30
0.0
 10
11.1245691351
 20
9.6092212952
 30
0.0
 10
11.0709792274
 20
9.5277183943
 30
0.0
 10
11.0083640904
 20
9.4530729928
 30
0.0
 10
10.937498847
 20
9.3861919437
 30
0.0
 10
10.8594406654
 20
9.3280589846
 30
0.0
 10
10.7751484738
 20
9.2793770894
 30
0.0
 10
10.6858593575
 20
9.2408488863
 30
0.0
 10
10.5926879861
 20
9.2129506516
 30
0.0
 10
10.496996779
 20
9.1960751685
 30
0.0
 10
10.4322962288
 20
9.1923097769
 30
0.0
 10
10.4
 20
9.1923097769
 30
0.0
 11
10.399999485
 21
10.8660255857
 31
0.0
 11
10.4967837707
 21
10.8603860679
 31
0.0
 11
10.5923309009
 21
10.8435280461
 31
0.0
 11
10.6852468251
 21
10.815691894
 31
0.0
 11
10.7744310883
 21
10.7771909767
 31
0.0
 11
10.8584524748
 21
10.7286417257
 31
0.0
 11
10.9364327355
 21
10.670538696
 31
0.0
 11
11.0070919719
 21
10.6038140244
 31
0.0
 11
11.0695979169
 21
10.5292535993
 31
0.0
 11
11.1230708558
 21
10.4478660397
 31
0.0
 11
11.1666952413
 21
10.3609088471
 31
0.0
 11
11.2000104963
 21
10.2692637296
 31
0.0
 11
11.2224232389
 21
10.1745611527
 31
0.0
 11
11.2337258548
 21
10.0776540257
 31
0.0
 11
11.2337078022
 21
9.9802857188
 31
0.0
 11
11.2223801072
 21
9.8834466097
 31
0.0
 11
11.1999105743
 21
9.7886591747
 31
0.0
 11
11.1666134455
 21
9.6971647149
 31
0.0
 11
11.1228964692
 21
9.6101029813
 31
0.0
 11
11.069492087
 21
9.5288845069
 31
0.0
 11
11.0069295225
 21
9.4543038181
 31
0.0
 11
10.9363271396
 21
9.3876726321
 31
0.0
 11
10.8583350027
 21
9.3295904599
 31
0.0
 11
10.7743390524
 21
9.2810808096
 31
0.0
 11
10.6851640159
 21
9.2426031873
 31
0.0
 11
10.5922749646
 21
9.2147893486
 31
0.0
 11
10.496724898
 21
9.1979410867
 31
0.0
 11
10.4
 21
9.1923097769
 31
0.0
  0
SPLINE
  5
5D3
100
AcDbEntity
  8
ASSI
100
AcDbSpline
 62
7
  6
CONTINUOUS
 70
0
 71
3
 72
34
 73
30
 74
28
 42
0.0000001
 43
0.0000001
 44
0.0000000001
 12
-2.7171191197
 22
0.0
 32
0.0
 13
2.7171191197
 23
0.0
 33
0.0
 40
0.0
 40
0.0
 40
0.0
 40
0.0
 40
0.0369633062
 40
0.0739471028
 40
0.1109210306
 40
0.1479372604
 40
0.184915819
 40
0.2219662907
 40
0.2589715457
 40
0.2960451849
 40
0.333099857
 40
0.370171641
 40
0.4072791364
 40
0.4443374124
 40
0.4814769698
 40
0.518523369
 40
0.5556601924
 40
0.5927170759
 40
0.6298254656
 40
0.6668924992
 40
0.7039503229
 40
0.7410272829
 40
0.7780269213
 40
0.8150890047
 40
0.8520551225
 40
0.8890871726
 40
0.9260476065
 40
0.9630443171
 40
1.0
 40
1.0
 40
1.0
 40
1.0
 10
-10.399996718
 20
-0.8660273047
 30
0.0
 10
-10.43347462
 20
-0.8660273047
 30
0.0
 10
-10.5005141846
 20
-0.8621208827
 30
0.0
 10
-10.5996614186
 20
-0.8446304918
 30
0.0
 10
-10.6961656899
 20
-0.8157266729
 30
0.0
 10
-10.788651535
 20
-0.775810641
 30
0.0
 10
-10.8759367505
 20
-0.7253902073
 30
0.0
 10
-10.9567688153
 20
-0.6651801824
 30
0.0
 10
-11.0301252164
 20
-0.5959335098
 30
0.0
 10
-11.0949501794
 20
-0.5186358376
 30
0.0
 10
-11.1503951226
 20
-0.4342846291
 30
0.0
 10
-11.1956909145
 20
-0.3440417975
 30
0.0
 10
-11.2302066142
 20
-0.2491477078
 30
0.0
 10
-11.2534938916
 20
-0.1508311691
 30
0.0
 10
-11.2652089319
 20
-0.0505302958
 30
0.0
 10
-11.2652092676
 20
0.0505220401
 30
0.0
 10
-11.2534957634
 20
0.1508192851
 30
0.0
 10
-11.2302108813
 20
0.2491333557
 30
0.0
 10
-11.1956985297
 20
0.3440236159
 30
0.0
 10
-11.1504052475
 20
0.4342669101
 30
0.0
 10
-11.0949616851
 20
0.5186209502
 30
0.0
 10
-11.0301374688
 20
0.5959203351
 30
0.0
 10
-10.9567764028
 20
0.6651742291
 30
0.0
 10
-10.8759495179
 20
0.7253817509
 30
0.0
 10
-10.7886533294
 20
0.7758099428
 30
0.0
 10
-10.6961759325
 20
0.8157230657
 30
0.0
 10
-10.599658735
 20
0.8446311291
 30
0.0
 10
-10.5005186833
 20
0.8621205153
 30
0.0
 10
-10.4334744104
 20
0.8660273157
 30
0.0
 10
-10.4000034129
 20
0.8660273157
 30
0.0
 11
-10.399996718
 21
-0.8660273047
 31
0.0
 11
-10.5002603304
 21
-0.8601845895
 31
0.0
 11
-10.5992218931
 21
-0.8427282214
 31
0.0
 11
-10.6954605904
 21
-0.8139039198
 31
0.0
 11
-10.7878050539
 21
-0.7740500027
 31
0.0
 11
-10.8748081334
 21
-0.7237934648
 31
0.0
 11
-10.9555432349
 21
-0.6636569365
 31
0.0
 11
-11.028660527
 21
-0.5946373829
 31
0.0
 11
-11.0933907429
 21
-0.5174542507
 31
0.0
 11
-11.148693708
 21
-0.4333207927
 31
0.0
 11
-11.1938806694
 21
-0.3432965749
 31
0.0
 11
-11.2283454444
 21
-0.2485444891
 31
0.0
 11
-11.2515536213
 21
-0.1505638323
 31
0.0
 11
-11.2632607743
 21
-0.0503326211
 31
0.0
 11
-11.2632611093
 21
0.0503268583
 31
0.0
 11
-11.2515559151
 21
0.1505508195
 31
0.0
 11
-11.2283503174
 21
0.2485281986
 31
0.0
 11
-11.1938864375
 21
0.3432831955
 31
0.0
 11
-11.1487074514
 21
0.4332969745
 31
0.0
 11
-11.0934020374
 21
0.51743907
 31
0.0
 11
-11.0286673073
 21
0.594630193
 31
0.0
 11
-10.955562511
 21
0.6636407515
 31
0.0
 11
-10.8748027584
 21
0.7237970013
 31
0.0
 11
-10.7878295596
 21
0.7740376877
 31
0.0
 11
-10.6954459012
 21
0.8139092682
 31
0.0
 11
-10.5992424181
 21
0.8427233543
 31
0.0
 11
-10.5002463713
 21
0.8601862213
 31
0.0
 11
-10.4000034129
 21
0.8660273157
 31
0.0
  0
SPLINE
  5
5D4
100
AcDbEntity
  8
ASSI
100
AcDbSpline
 62
7
  6
CONTINUOUS
 70
0
 71
3
 72
34
 73
30
 74
28
 42
0.0000001
 43
0.0000001
 44
0.0000000001
 12
2.717119381
 22
0.0
 32
0.0
 13
-2.717119381
 23
0.0
 33
0.0
 40
0.0
 40
0.0
 40
0.0
 40
0.0
 40
0.0369635309
 40
0.0739474834
 40
0.1109215678
 40
0.1479379534
 40
0.1849166685
 40
0.2219672967
 40
0.2589727071
 40
0.2960465048
 40
0.333101329
 40
0.370173275
 40
0.4072809234
 40
0.4443393688
 40
0.4814790081
 40
0.5185241404
 40
0.5556597784
 40
0.5927171516
 40
0.6298244176
 40
0.6668911775
 40
0.703949141
 40
0.7410262614
 40
0.7780260538
 40
0.8150882945
 40
0.8520545685
 40
0.8890867747
 40
0.9260473649
 40
0.9630442314
 40
1.0
 40
1.0
 40
1.0
 40
1.0
 10
-10.4000034129
 20
0.8660273157
 30
0.0
 10
-10.3665253042
 20
0.8660273157
 30
0.0
 10
-10.2994853875
 20
0.8621208505
 30
0.0
 10
-10.200337676
 20
0.8446302952
 30
0.0
 10
-10.1038330245
 20
0.8157262225
 30
0.0
 10
-10.0113468508
 20
0.7758098489
 30
0.0
 10
-9.924061374
 20
0.7253889933
 30
0.0
 10
-9.8432291293
 20
0.6651784787
 30
0.0
 10
-9.7698726397
 20
0.5959312608
 30
0.0
 10
-9.7050476936
 20
0.5186330071
 30
0.0
 10
-9.6496028737
 20
0.4342811904
 30
0.0
 10
-9.6043073223
 20
0.3440377505
 30
0.0
 10
-9.5697919747
 20
0.2491430524
 30
0.0
 10
-9.5465051853
 20
0.150826009
 30
0.0
 10
-9.5347908783
 20
0.0505259661
 30
0.0
 10
-9.5347909885
 20
-0.0505242113
 30
0.0
 10
-9.5465043419
 20
-0.1508196735
 30
0.0
 10
-9.5697887978
 20
-0.2491321678
 30
0.0
 10
-9.604300724
 20
-0.3440216984
 30
0.0
 10
-9.6495931652
 20
-0.4342641457
 30
0.0
 10
-9.70503642
 20
-0.5186184305
 30
0.0
 10
-9.7698606462
 20
-0.5959183606
 30
0.0
 10
-9.8432218316
 20
-0.6651727688
 30
0.0
 10
-9.9240489222
 20
-0.7253807446
 30
0.0
 10
-10.0113453945
 20
-0.7758093203
 30
0.0
 10
-10.1038231374
 20
-0.8157227455
 30
0.0
 10
-10.2003407278
 20
-0.8446310171
 30
0.0
 10
-10.2994811396
 20
-0.8621205154
 30
0.0
 10
-10.3665256397
 20
-0.8660273047
 30
0.0
 10
-10.399996718
 20
-0.8660273047
 30
0.0
 11
-10.4000034129
 21
0.8660273157
 31
0.0
 11
-10.2997391832
 21
0.8601845326
 31
0.0
 11
-10.200777208
 21
0.8427280082
 31
0.0
 11
-10.1045381321
 21
0.8139034546
 31
0.0
 11
-10.0121933438
 21
0.7740491976
 31
0.0
 11
-9.9251900045
 21
0.7237922396
 31
0.0
 11
-9.8444547244
 21
0.6636552231
 31
0.0
 11
-9.771337348
 21
0.5946351296
 31
0.0
 11
-9.7066071449
 21
0.5174514118
 31
0.0
 11
-9.6513043119
 21
0.4333173611
 31
0.0
 11
-9.6061175837
 21
0.343292523
 31
0.0
 11
-9.5716531689
 21
0.2485398533
 31
0.0
 11
-9.5484454569
 21
0.1505586034
 31
0.0
 11
-9.5367389041
 21
0.0503270884
 31
0.0
 11
-9.5367390128
 21
-0.0503289585
 31
0.0
 11
-9.5484438916
 21
-0.1505497232
 31
0.0
 11
-9.5716497484
 21
-0.2485284187
 31
0.0
 11
-9.6061124465
 21
-0.3432806068
 31
0.0
 11
-9.6512907723
 21
-0.4332938958
 31
0.0
 11
-9.706596074
 21
-0.5174365315
 31
0.0
 11
-9.7713308279
 21
-0.5946282155
 31
0.0
 11
-9.8444357361
 21
-0.6636392797
 31
0.0
 11
-9.9251956951
 21
-0.7237959838
 31
0.0
 11
-10.0121691749
 21
-0.7740370517
 31
0.0
 11
-10.1045531763
 21
-0.8139089323
 31
0.0
 11
-10.2007570501
 21
-0.8427232282
 31
0.0
 11
-10.299753517
 21
-0.8601862082
 31
0.0
 11
-10.399996718
 21
-0.8660273047
 31
0.0
  0
SPLINE
  5
5D5
100
AcDbEntity
  8
ASSI
100
AcDbSpline
 62
7
  6
CONTINUOUS
 70
0
 71
3
 72
34
 73
30
 74
28
 42
0.0000001
 43
0.0000001
 44
0.0000000001
 12
-2.7171191166
 22
0.0
 32
0.0
 13
2.7171191166
 23
0.0
 33
0.0
 40
0.0
 40
0.0
 40
0.0
 40
0.0
 40
0.0369633067
 40
0.0739471032
 40
0.1109210311
 40
0.1479372608
 40
0.1849158194
 40
0.221966291
 40
0.2589715461
 40
0.2960451852
 40
0.3330998573
 40
0.3701716414
 40
0.4072791367
 40
0.4443374127
 40
0.4814769701
 40
0.5185233692
 40
0.5556601927
 40
0.5927170761
 40
0.6298254657
 40
0.6668924994
 40
0.703950323
 40
0.741027283
 40
0.7780269214
 40
0.8150890048
 40
0.8520551226
 40
0.8890871726
 40
0.9260476065
 40
0.9630443171
 40
1.0
 40
1.0
 40
1.0
 40
1.0
 10
0.0000032789
 20
-0.8660273047
 30
0.0
 10
-0.0334746235
 20
-0.8660273047
 30
0.0
 10
-0.1005141884
 20
-0.8621208821
 30
0.0
 10
-0.1996614226
 20
-0.8446304908
 30
0.0
 10
-0.2961656937
 20
-0.8157266715
 30
0.0
 10
-0.3886515384
 20
-0.7758106393
 30
0.0
 10
-0.4759367535
 20
-0.7253902053
 30
0.0
 10
-0.5567688179
 20
-0.6651801801
 30
0.0
 10
-0.6301252186
 20
-0.5959335074
 30
0.0
 10
-0.6949501813
 20
-0.5186358351
 30
0.0
 10
-0.7503951241
 20
-0.4342846265
 30
0.0
 10
-0.7956909157
 20
-0.3440417949
 30
0.0
 10
-0.830206615
 20
-0.2491477053
 30
0.0
 10
-0.853493892
 20
-0.1508311667
 30
0.0
 10
-0.865208932
 20
-0.0505302935
 30
0.0
 10
-0.8652092675
 20
0.0505220422
 30
0.0
 10
-0.853495763
 20
0.1508192871
 30
0.0
 10
-0.8302108808
 20
0.2491333575
 30
0.0
 10
-0.7956985291
 20
0.3440236174
 30
0.0
 10
-0.7504052467
 20
0.4342669114
 30
0.0
 10
-0.6949616843
 20
0.5186209513
 30
0.0
 10
-0.630137468
 20
0.5959203359
 30
0.0
 10
-0.556776402
 20
0.6651742297
 30
0.0
 10
-0.4759495172
 20
0.7253817513
 30
0.0
 10
-0.3886533289
 20
0.7758099431
 30
0.0
 10
-0.296175932
 20
0.8157230659
 30
0.0
 10
-0.1996587347
 20
0.8446311292
 30
0.0
 10
-0.1005186831
 20
0.8621205153
 30
0.0
 10
-0.0334744103
 20
0.8660273157
 30
0.0
 10
-0.0000034129
 20
0.8660273157
 30
0.0
 11
0.0000032789
 21
-0.8660273047
 31
0.0
 11
-0.1002603346
 21
-0.860184589
 31
0.0
 11
-0.1992218971
 21
-0.8427282204
 31
0.0
 11
-0.2954605941
 21
-0.8139039184
 31
0.0
 11
-0.3878050573
 21
-0.774050001
 31
0.0
 11
-0.4748081364
 21
-0.7237934628
 31
0.0
 11
-0.5555432375
 21
-0.6636569343
 31
0.0
 11
-0.6286605293
 21
-0.5946373805
 31
0.0
 11
-0.6933907448
 21
-0.5174542482
 31
0.0
 11
-0.7486937095
 21
-0.4333207901
 31
0.0
 11
-0.7938806705
 21
-0.3432965723
 31
0.0
 11
-0.8283454451
 21
-0.2485444866
 31
0.0
 11
-0.8515536218
 21
-0.1505638299
 31
0.0
 11
-0.8632607744
 21
-0.0503326188
 31
0.0
 11
-0.8632611092
 21
0.0503268604
 31
0.0
 11
-0.8515559148
 21
0.1505508214
 31
0.0
 11
-0.8283503169
 21
0.2485282004
 31
0.0
 11
-0.7938864368
 21
0.3432831971
 31
0.0
 11
-0.7487074506
 21
0.4332969757
 31
0.0
 11
-0.6934020366
 21
0.5174390711
 31
0.0
 11
-0.6286673065
 21
0.5946301938
 31
0.0
 11
-0.5555625102
 21
0.6636407521
 31
0.0
 11
-0.4748027577
 21
0.7237970018
 31
0.0
 11
-0.387829559
 21
0.774037688
 31
0.0
 11
-0.2954459007
 21
0.8139092683
 31
0.0
 11
-0.1992424178
 21
0.8427233544
 31
0.0
 11
-0.1002463711
 21
0.8601862213
 31
0.0
 11
-0.0000034129
 21
0.8660273157
 31
0.0
  0
SPLINE
  5
5D6
100
AcDbEntity
  8
ASSI
100
AcDbSpline
 62
7
  6
CONTINUOUS
 70
0
 71
3
 72
34
 73
30
 74
28
 42
0.0000001
 43
0.0000001
 44
0.0000000001
 12
2.7171193841
 22
0.0
 32
0.0
 13
-2.7171193841
 23
0.0
 33
0.0
 40
0.0
 40
0.0
 40
0.0
 40
0.0
 40
0.0369635308
 40
0.0739474834
 40
0.1109215677
 40
0.1479379533
 40
0.1849166684
 40
0.2219672965
 40
0.258972707
 40
0.2960465046
 40
0.3331013288
 40
0.3701732748
 40
0.4072809232
 40
0.4443393686
 40
0.4814790078
 40
0.5185241401
 40
0.5556597781
 40
0.5927171513
 40
0.6298244172
 40
0.6668911771
 40
0.7039491407
 40
0.741026261
 40
0.7780260534
 40
0.8150882941
 40
0.8520545681
 40
0.8890867742
 40
0.9260473645
 40
0.963044231
 40
1.0
 40
1.0
 40
1.0
 40
1.0
 10
-0.0000034129
 20
0.8660273157
 30
0.0
 10
0.0334746959
 20
0.8660273157
 30
0.0
 10
0.1005146126
 20
0.8621208505
 30
0.0
 10
0.1996623241
 20
0.8446302952
 30
0.0
 10
0.2961669756
 20
0.8157262225
 30
0.0
 10
0.3886531494
 20
0.7758098487
 30
0.0
 10
0.4759386262
 20
0.7253889931
 30
0.0
 10
0.556770871
 20
0.6651784785
 30
0.0
 10
0.6301273606
 20
0.5959312605
 30
0.0
 10
0.6949523067
 20
0.5186330067
 30
0.0
 10
0.7503971266
 20
0.4342811899
 30
0.0
 10
0.7956926779
 20
0.3440377499
 30
0.0
 10
0.8302080255
 20
0.2491430517
 30
0.0
 10
0.8534948148
 20
0.1508260082
 30
0.0
 10
0.8652091217
 20
0.0505259653
 30
0.0
 10
0.8652090115
 20
-0.0505242122
 30
0.0
 10
0.8534956579
 20
-0.1508196745
 30
0.0
 10
0.8302112019
 20
-0.2491321688
 30
0.0
 10
0.7956992755
 20
-0.3440216994
 30
0.0
 10
0.7504068342
 20
-0.4342641468
 30
0.0
 10
0.6949635793
 20
-0.5186184315
 30
0.0
 10
0.6301393529
 20
-0.5959183615
 30
0.0
 10
0.5567781673
 20
-0.6651727697
 30
0.0
 10
0.4759510766
 20
-0.7253807454
 30
0.0
 10
0.3886546042
 20
-0.775809321
 30
0.0
 10
0.2961768612
 20
-0.815722746
 30
0.0
 10
0.1996592706
 20
-0.8446310174
 30
0.0
 10
0.1005188583
 20
-0.8621205157
 30
0.0
 10
0.0334743577
 20
-0.8660273047
 30
0.0
 10
0.0000032789
 20
-0.8660273047
 30
0.0
 11
-0.0000034129
 21
0.8660273157
 31
0.0
 11
0.1002608169
 21
0.8601845326
 31
0.0
 11
0.1992227921
 21
0.8427280082
 31
0.0
 11
0.2954618681
 21
0.8139034546
 31
0.0
 11
0.3878066564
 21
0.7740491974
 31
0.0
 11
0.4748099957
 21
0.7237922394
 31
0.0
 11
0.5555452759
 21
0.6636552229
 31
0.0
 11
0.6286626523
 21
0.5946351293
 31
0.0
 11
0.6933928554
 21
0.5174514114
 31
0.0
 11
0.7486956884
 21
0.4333173606
 31
0.0
 11
0.7938824165
 21
0.3432925223
 31
0.0
 11
0.8283468314
 21
0.2485398526
 31
0.0
 11
0.8515545432
 21
0.1505586026
 31
0.0
 11
0.863261096
 21
0.0503270875
 31
0.0
 11
0.8632609872
 21
-0.0503289594
 31
0.0
 11
0.8515561082
 21
-0.1505497242
 31
0.0
 11
0.8283502513
 21
-0.2485284197
 31
0.0
 11
0.7938875531
 21
-0.3432806079
 31
0.0
 11
0.7487092271
 21
-0.4332938968
 31
0.0
 11
0.6934039253
 21
-0.5174365325
 31
0.0
 11
0.6286691712
 21
-0.5946282165
 31
0.0
 11
0.5555642628
 21
-0.6636392806
 31
0.0
 11
0.4748043037
 21
-0.7237959846
 31
0.0
 11
0.3878308237
 21
-0.7740370524
 31
0.0
 11
0.2954468222
 21
-0.8139089328
 31
0.0
 11
0.1992429483
 21
-0.8427232286
 31
0.0
 11
0.1002464813
 21
-0.8601862084
 31
0.0
 11
0.0000032789
 21
-0.8660273047
 31
0.0
  0
SPLINE
  5
5D7
100
AcDbEntity
  8
ASSI
100
AcDbSpline
 62
7
  6
CONTINUOUS
 70
0
 71
3
 72
34
 73
30
 74
28
 42
0.0000001
 43
0.0000001
 44
0.0000000001
 12
-2.7171191197
 22
0.0
 32
0.0
 13
2.7171191197
 23
-0.0
 33
0.0
 40
0.0
 40
0.0
 40
0.0
 40
0.0
 40
0.0369633062
 40
0.0739471028
 40
0.1109210306
 40
0.1479372604
 40
0.184915819
 40
0.2219662907
 40
0.2589715457
 40
0.2960451849
 40
0.333099857
 40
0.370171641
 40
0.4072791364
 40
0.4443374124
 40
0.4814769698
 40
0.518523369
 40
0.5556601924
 40
0.5927170759
 40
0.6298254656
 40
0.6668924992
 40
0.7039503229
 40
0.7410272829
 40
0.7780269213
 40
0.8150890047
 40
0.8520551225
 40
0.8890871726
 40
0.9260476065
 40
0.9630443171
 40
1.0
 40
1.0
 40
1.0
 40
1.0
 10
10.400003282
 20
-0.8660273047
 30
0.0
 10
10.36652538
 20
-0.8660273047
 30
0.0
 10
10.2994858154
 20
-0.8621208827
 30
0.0
 10
10.2003385814
 20
-0.8446304918
 30
0.0
 10
10.1038343101
 20
-0.8157266729
 30
0.0
 10
10.011348465
 20
-0.775810641
 30
0.0
 10
9.9240632495
 20
-0.7253902073
 30
0.0
 10
9.8432311847
 20
-0.6651801824
 30
0.0
 10
9.7698747836
 20
-0.5959335098
 30
0.0
 10
9.7050498206
 20
-0.5186358376
 30
0.0
 10
9.6496048774
 20
-0.4342846291
 30
0.0
 10
9.6043090855
 20
-0.3440417975
 30
0.0
 10
9.5697933858
 20
-0.2491477078
 30
0.0
 10
9.5465061084
 20
-0.1508311691
 30
0.0
 10
9.5347910681
 20
-0.0505302958
 30
0.0
 10
9.5347907324
 20
0.0505220401
 30
0.0
 10
9.5465042366
 20
0.1508192851
 30
0.0
 10
9.5697891187
 20
0.2491333557
 30
0.0
 10
9.6043014703
 20
0.3440236159
 30
0.0
 10
9.6495947525
 20
0.4342669101
 30
0.0
 10
9.7050383149
 20
0.5186209502
 30
0.0
 10
9.7698625312
 20
0.5959203351
 30
0.0
 10
9.8432235972
 20
0.6651742291
 30
0.0
 10
9.9240504821
 20
0.7253817509
 30
0.0
 10
10.0113466706
 20
0.7758099428
 30
0.0
 10
10.1038240675
 20
0.8157230657
 30
0.0
 10
10.200341265
 20
0.8446311291
 30
0.0
 10
10.2994813167
 20
0.8621205153
 30
0.0
 10
10.3665255896
 20
0.8660273157
 30
0.0
 10
10.3999965871
 20
0.8660273157
 30
0.0
 11
10.400003282
 21
-0.8660273047
 31
0.0
 11
10.2997396696
 21
-0.8601845895
 31
0.0
 11
10.2007781069
 21
-0.8427282214
 31
0.0
 11
10.1045394096
 21
-0.8139039198
 31
0.0
 11
10.0121949461
 21
-0.7740500027
 31
0.0
 11
9.9251918666
 21
-0.7237934648
 31
0.0
 11
9.8444567651
 21
-0.6636569365
 31
0.0
 11
9.771339473
 21
-0.5946373829
 31
0.0
 11
9.7066092571
 21
-0.5174542507
 31
0.0
 11
9.651306292
 21
-0.4333207927
 31
0.0
 11
9.6061193306
 21
-0.3432965749
 31
0.0
 11
9.5716545556
 21
-0.2485444891
 31
0.0
 11
9.5484463787
 21
-0.1505638323
 31
0.0
 11
9.5367392257
 21
-0.0503326211
 31
0.0
 11
9.5367388907
 21
0.0503268583
 31
0.0
 11
9.5484440849
 21
0.1505508195
 31
0.0
 11
9.5716496826
 21
0.2485281986
 31
0.0
 11
9.6061135625
 21
0.3432831955
 31
0.0
 11
9.6512925486
 21
0.4332969745
 31
0.0
 11
9.7065979626
 21
0.51743907
 31
0.0
 11
9.7713326927
 21
0.594630193
 31
0.0
 11
9.844437489
 21
0.6636407515
 31
0.0
 11
9.9251972416
 21
0.7237970013
 31
0.0
 11
10.0121704404
 21
0.7740376877
 31
0.0
 11
10.1045540988
 21
0.8139092682
 31
0.0
 11
10.2007575819
 21
0.8427233543
 31
0.0
 11
10.2997536287
 21
0.8601862213
 31
0.0
 11
10.3999965871
 21
0.8660273157
 31
0.0
  0
SPLINE
  5
5D8
100
AcDbEntity
  8
ASSI
100
AcDbSpline
 62
7
  6
CONTINUOUS
 70
0
 71
3
 72
34
 73
30
 74
28
 42
0.0000001
 43
0.0000001
 44
0.0000000001
 12
2.717119381
 22
0.0
 32
0.0
 13
-2.717119381
 23
0.0
 33
0.0
 40
0.0
 40
0.0
 40
0.0
 40
0.0
 40
0.0369635309
 40
0.0739474834
 40
0.1109215678
 40
0.1479379534
 40
0.1849166685
 40
0.2219672967
 40
0.2589727071
 40
0.2960465048
 40
0.333101329
 40
0.370173275
 40
0.4072809234
 40
0.4443393688
 40
0.4814790081
 40
0.5185241404
 40
0.5556597784
 40
0.5927171516
 40
0.6298244176
 40
0.6668911775
 40
0.703949141
 40
0.7410262614
 40
0.7780260538
 40
0.8150882945
 40
0.8520545685
 40
0.8890867747
 40
0.9260473649
 40
0.9630442314
 40
1.0
 40
1.0
 40
1.0
 40
1.0
 10
10.3999965871
 20
0.8660273157
 30
0.0
 10
10.4334746958
 20
0.8660273157
 30
0.0
 10
10.5005146125
 20
0.8621208505
 30
0.0
 10
10.599662324
 20
0.8446302952
 30
0.0
 10
10.6961669754
 20
0.8157262225
 30
0.0
 10
10.7886531492
 20
0.7758098489
 30
0.0
 10
10.875938626
 20
0.7253889933
 30
0.0
 10
10.9567708707
 20
0.6651784787
 30
0.0
 10
11.0301273603
 20
0.5959312608
 30
0.0
 10
11.0949523064
 20
0.5186330071
 30
0.0
 10
11.1503971263
 20
0.4342811904
 30
0.0
 10
11.1956926777
 20
0.3440377505
 30
0.0
 10
11.2302080253
 20
0.2491430524
 30
0.0
 10
11.2534948147
 20
0.150826009
 30
0.0
 10
11.2652091217
 20
0.0505259661
 30
0.0
 10
11.2652090115
 20
-0.0505242113
 30
0.0
 10
11.2534956581
 20
-0.1508196735
 30
0.0
 10
11.2302112022
 20
-0.2491321678
 30
0.0
 10
11.195699276
 20
-0.3440216984
 30
0.0
 10
11.1504068348
 20
-0.4342641457
 30
0.0
 10
11.09496358
 20
-0.5186184305
 30
0.0
 10
11.0301393538
 20
-0.5959183606
 30
0.0
 10
10.9567781684
 20
-0.6651727688
 30
0.0
 10
10.8759510778
 20
-0.7253807446
 30
0.0
 10
10.7886546055
 20
-0.7758093203
 30
0.0
 10
10.6961768626
 20
-0.8157227455
 30
0.0
 10
10.5996592722
 20
-0.8446310171
 30
0.0
 10
10.5005188604
 20
-0.8621205154
 30
0.0
 10
10.4334743603
 20
-0.8660273047
 30
0.0
 10
10.400003282
 20
-0.8660273047
 30
0.0
 11
10.3999965871
 21
0.8660273157
 31
0.0
 11
10.5002608168
 21
0.8601845326
 31
0.0
 11
10.599222792
 21
0.8427280082
 31
0.0
 11
10.6954618679
 21
0.8139034546
 31
0.0
 11
10.7878066562
 21
0.7740491976
 31
0.0
 11
10.8748099955
 21
0.7237922396
 31
0.0
 11
10.9555452756
 21
0.6636552231
 31
0.0
 11
11.028662652
 21
0.5946351296
 31
0.0
 11
11.0933928551
 21
0.5174514118
 31
0.0
 11
11.1486956881
 21
0.4333173611
 31
0.0
 11
11.1938824163
 21
0.343292523
 31
0.0
 11
11.2283468311
 21
0.2485398533
 31
0.0
 11
11.2515545431
 21
0.1505586034
 31
0.0
 11
11.2632610959
 21
0.0503270884
 31
0.0
 11
11.2632609872
 21
-0.0503289585
 31
0.0
 11
11.2515561084
 21
-0.1505497232
 31
0.0
 11
11.2283502516
 21
-0.2485284187
 31
0.0
 11
11.1938875535
 21
-0.3432806068
 31
0.0
 11
11.1487092277
 21
-0.4332938958
 31
0.0
 11
11.093403926
 21
-0.5174365315
 31
0.0
 11
11.0286691721
 21
-0.5946282155
 31
0.0
 11
10.9555642639
 21
-0.6636392797
 31
0.0
 11
10.8748043049
 21
-0.7237959838
 31
0.0
 11
10.7878308251
 21
-0.7740370517
 31
0.0
 11
10.6954468237
 21
-0.8139089323
 31
0.0
 11
10.5992429499
 21
-0.8427232282
 31
0.0
 11
10.500246483
 21
-0.8601862082
 31
0.0
 11
10.400003282
 21
-0.8660273047
 31
0.0
  0
SPLINE
  5
5D9
100
AcDbEntity
  8
ASSI
100
AcDbSpline
 62
7
  6
CONTINUOUS
 70
0
 71
3
 72
34
 73
30
 74
28
 42
0.0000001
 43
0.0000001
 44
0.0000000001
 12
-2.6248727967
 22
0.0
 32
0.0
 13
2.6248727967
 23
-0.0
 33
0.0
 40
0.0
 40
0.0
 40
0.0
 40
0.0
 40
0.0369235435
 40
0.0739033228
 40
0.1108390628
 40
0.1478638774
 40
0.1848219114
 40
0.2218768191
 40
0.2589029272
 40
0.2959649425
 40
0.3330750932
 40
0.3701319433
 40
0.4072897209
 40
0.4443625293
 40
0.481533761
 40
0.5186296573
 40
0.5557712667
 40
0.5928845906
 40
0.6299751222
 40
0.6670869982
 40
0.7041219605
 40
0.7411996945
 40
0.7781922925
 40
0.8152269117
 40
0.852191154
 40
0.8891792268
 40
0.9261293093
 40
0.9630834595
 40
1.0
 40
1.0
 40
1.0
 40
1.0
 10
-10.400000504
 20
-10.866025587
 30
0.0
 10
-10.4323070389
 20
-10.866025587
 30
0.0
 10
-10.4970323219
 20
-10.8622564403
 30
0.0
 10
-10.5927425026
 20
-10.8453680306
 30
0.0
 10
-10.6859401824
 20
-10.8174481675
 30
0.0
 10
-10.7752423418
 20
-10.7788955211
 30
0.0
 10
-10.8595514889
 20
-10.7301782443
 30
0.0
 10
-10.9376338431
 20
-10.6719977765
 30
0.0
 10
-11.0084950289
 20
-10.6050790861
 30
0.0
 10
-11.0711401567
 20
-10.5303496992
 30
0.0
 10
-11.1246979741
 20
-10.4488279664
 30
0.0
 10
-11.16847081
 20
-10.3615679103
 30
0.0
 10
-11.2018102705
 20
-10.2698468909
 30
0.0
 10
-11.2243051309
 20
-10.1747810895
 30
0.0
 10
-11.2356130367
 20
-10.0777998466
 30
0.0
 10
-11.2355913315
 20
-9.9801025718
 30
0.0
 10
-11.2242434381
 20
-9.8831168382
 30
0.0
 10
-11.2017188116
 20
-9.7881080703
 30
0.0
 10
-11.1683338485
 20
-9.6963782934
 30
0.0
 10
-11.1245590568
 20
-9.6092037756
 30
0.0
 10
-11.0709710572
 20
-9.5277078557
 30
0.0
 10
-11.0083531682
 20
-9.4530614325
 30
0.0
 10
-10.9374949078
 20
-9.3861889166
 30
0.0
 10
-10.8594316021
 20
-9.3280531013
 30
0.0
 10
-10.7751495436
 20
-9.2793777182
 30
0.0
 10
-10.6858539807
 20
-9.2408470904
 30
0.0
 10
-10.5926926957
 20
-9.2129517416
 30
0.0
 10
-10.4969971117
 20
-9.1960754379
 30
0.0
 10
-10.4323004076
 20
-9.1923097769
 30
0.0
 10
-10.4
 20
-9.1923097769
 30
0.0
 11
-10.400000504
 21
-10.866025587
 31
0.0
 11
-10.4967560832
 21
-10.8603893049
 31
0.0
 11
-10.5923469516
 21
-10.8435242392
 31
0.0
 11
-10.6852205711
 21
-10.8157014553
 31
0.0
 11
-10.7744469024
 21
-10.7771830271
 31
0.0
 11
-10.8584428702
 21
-10.7286480472
 31
0.0
 11
-10.9364376703
 21
-10.6705345513
 31
0.0
 11
-11.0070990717
 21
-10.6038064923
 31
0.0
 11
-11.0695971713
 21
-10.5292546018
 31
0.0
 11
-11.1230838624
 21
-10.4478434848
 31
0.0
 11
-11.1666988594
 21
-10.360900451
 31
0.0
 11
-11.2000193404
 21
-10.2692341408
 31
0.0
 11
-11.2224273457
 21
-10.174537831
 31
0.0
 11
-11.2337275564
 21
-10.0776246621
 31
0.0
 11
-11.2337058726
 21
-9.9802526553
 31
0.0
 11
-11.2223756376
 21
-9.8834212768
 31
0.0
 11
-11.1999021915
 21
-9.7886311769
 31
0.0
 11
-11.1666046603
 21
-9.6971443447
 31
0.0
 11
-11.1228890822
 21
-9.6100901856
 31
0.0
 11
-11.0694779846
 21
-9.5288655573
 31
0.0
 11
-11.0069285931
 21
-9.4543028329
 31
0.0
 11
-10.9363096406
 21
-9.3876579426
 31
0.0
 11
-10.8583430351
 21
-9.3295957439
 31
0.0
 11
-10.7743217033
 21
-9.2810720932
 31
0.0
 11
-10.685177
 21
-9.2426079138
 31
0.0
 11
-10.5922636229
 21
-9.21478666
 31
0.0
 11
-10.4967373709
 21
-9.1979425441
 31
0.0
 11
-10.4
 21
-9.1923097769
 31
0.0
  0
SPLINE
  5
5DA
100
AcDbEntity
  8
ASSI
100
AcDbSpline
 62
7
  6
CONTINUOUS
 70
0
 71
3
 72
34
 73
30
 74
28
 42
0.0000001
 43
0.0000001
 44
0.0000000001
 12
2.6248738032
 22
0.0
 32
0.0
 13
-2.6248738032
 23
-0.0
 33
0.0
 40
0.0
 40
0.0
 40
0.0
 40
0.0
 40
0.0369117498
 40
0.0738750945
 40
0.1108154741
 40
0.1478161717
 40
0.1847693583
 40
0.2218163088
 40
0.2588007179
 40
0.2958869059
 40
0.332918489
 40
0.3700331682
 40
0.4071263633
 40
0.4442383407
 40
0.4813827481
 40
0.5184772199
 40
0.5556462567
 40
0.5927217895
 40
0.6298712841
 40
0.6669345447
 40
0.7040343033
 40
0.7411007158
 40
0.7781253235
 40
0.8151733925
 40
0.8521425166
 40
0.8891499583
 40
0.9261025842
 40
0.9630654731
 40
1.0
 40
1.0
 40
1.0
 40
1.0
 10
-10.4
 20
-9.1923097769
 30
0.0
 10
-10.3677037716
 20
-9.1923097769
 30
0.0
 10
-10.3030032223
 20
-9.1960751684
 30
0.0
 10
-10.2073120163
 20
-9.212950651
 30
0.0
 10
-10.114140646
 20
-9.2408488851
 30
0.0
 10
-10.0248515307
 20
-9.2793770873
 30
0.0
 10
-9.9405593398
 20
-9.3280589813
 30
0.0
 10
-9.8625011587
 20
-9.3861919389
 30
0.0
 10
-9.7916359156
 20
-9.4530729865
 30
0.0
 10
-9.7290207786
 20
-9.5277183863
 30
0.0
 10
-9.6754308705
 20
-9.6092212855
 30
0.0
 10
-9.6316571401
 20
-9.6963984755
 30
0.0
 10
-9.5982737319
 20
-9.7881327395
 30
0.0
 10
-9.5757513818
 20
-9.8831457688
 30
0.0
 10
-9.5644068772
 20
-9.9801320031
 30
0.0
 10
-9.5643888151
 20
-10.0778285765
 30
0.0
 10
-9.5756996954
 20
-10.1748086848
 30
0.0
 10
-9.5981961058
 20
-10.2698672273
 30
0.0
 10
-9.6315379749
 20
-10.3615880645
 30
0.0
 10
-9.6753078882
 20
-10.4488377278
 30
0.0
 10
-9.7288670436
 20
-10.5303588672
 30
0.0
 10
-9.7915084222
 20
-10.6050829694
 30
0.0
 10
-9.8623677857
 20
-10.6719985859
 30
0.0
 10
-9.9404518303
 20
-10.7301806941
 30
0.0
 10
-10.0247513981
 20
-10.7788920141
 30
0.0
 10
-10.1140616221
 20
-10.8174488008
 30
0.0
 10
-10.2072448282
 20
-10.8453650231
 30
0.0
 10
-10.3029641317
 20
-10.8622557373
 30
0.0
 10
-10.3676843466
 20
-10.866025587
 30
0.0
 10
-10.400000504
 20
-10.866025587
 30
0.0
 11
-10.4
 21
-9.1923097769
 31
0.0
 11
-10.3032751032
 21
-9.1979410866
 31
0.0
 11
-10.2077250379
 21
-9.214789348
 31
0.0
 11
-10.1148359876
 21
-9.242603186
 31
0.0
 11
-10.0256609521
 21
-9.2810808074
 31
0.0
 11
-9.9416650025
 21
-9.3295904565
 31
0.0
 11
-9.8636728661
 21
-9.3876726274
 31
0.0
 11
-9.7930704835
 21
-9.4543038118
 31
0.0
 11
-9.7305079189
 21
-9.528884499
 31
0.0
 11
-9.6771035363
 21
-9.6101029716
 31
0.0
 11
-9.6333865594
 21
-9.6971647035
 31
0.0
 11
-9.6000894296
 21
-9.7886591616
 31
0.0
 11
-9.5776198954
 21
-9.883446595
 31
0.0
 11
-9.5662921987
 21
-9.9802857027
 31
0.0
 11
-9.5662741442
 21
-10.0776540083
 31
0.0
 11
-9.5775767578
 21
-10.1745611343
 31
0.0
 11
-9.599989498
 21
-10.2692637106
 31
0.0
 11
-9.6333047503
 21
-10.3609088277
 31
0.0
 11
-9.676929133
 21
-10.4478660203
 31
0.0
 11
-9.730402069
 21
-10.5292535803
 31
0.0
 11
-9.7929080111
 21
-10.6038140063
 31
0.0
 11
-9.8635672445
 21
-10.6705386792
 31
0.0
 11
-9.9415475024
 21
-10.7286417107
 31
0.0
 11
-10.0255688862
 21
-10.7771909639
 31
0.0
 11
-10.1147531469
 21
-10.8156918838
 31
0.0
 11
-10.2076690689
 21
-10.843528039
 31
0.0
 11
-10.3032161973
 21
-10.8603860642
 31
0.0
 11
-10.400000504
 21
-10.866025587
 31
0.0
  0
SPLINE
  5
5DB
100
AcDbEntity
  8
ASSI
100
AcDbSpline
 62
7
  6
CONTINUOUS
 70
0
 71
3
 72
34
 73
30
 74
28
 42
0.0000001
 43
0.0000001
 44
0.0000000001
 12
-2.6248727966
 22
0.0
 32
0.0
 13
2.6248727966
 23
-0.0
 33
0.0
 40
0.0
 40
0.0
 40
0.0
 40
0.0
 40
0.0369235434
 40
0.0739033227
 40
0.1108390628
 40
0.1478638774
 40
0.1848219114
 40
0.2218768191
 40
0.2589029272
 40
0.2959649425
 40
0.3330750932
 40
0.3701319433
 40
0.4072897208
 40
0.4443625293
 40
0.481533761
 40
0.5186296573
 40
0.5557712667
 40
0.5928845905
 40
0.6299751222
 40
0.6670869982
 40
0.7041219605
 40
0.7411996945
 40
0.7781922925
 40
0.8152269117
 40
0.852191154
 40
0.8891792268
 40
0.9261293093
 40
0.9630834595
 40
1.0
 40
1.0
 40
1.0
 40
1.0
 10
-0.000000504
 20
-10.866025587
 30
0.0
 10
-0.0323070389
 20
-10.866025587
 30
0.0
 10
-0.0970323219
 20
-10.8622564403
 30
0.0
 10
-0.1927425026
 20
-10.8453680306
 30
0.0
 10
-0.2859401823
 20
-10.8174481675
 30
0.0
 10
-0.3752423418
 20
-10.7788955212
 30
0.0
 10
-0.4595514889
 20
-10.7301782443
 30
0.0
 10
-0.5376338431
 20
-10.6719977765
 30
0.0
 10
-0.6084950289
 20
-10.6050790861
 30
0.0
 10
-0.6711401567
 20
-10.5303496992
 30
0.0
 10
-0.7246979741
 20
-10.4488279665
 30
0.0
 10
-0.76847081
 20
-10.3615679103
 30
0.0
 10
-0.8018102705
 20
-10.2698468909
 30
0.0
 10
-0.8243051309
 20
-10.1747810896
 30
0.0
 10
-0.8356130367
 20
-10.0777998467
 30
0.0
 10
-0.8355913315
 20
-9.9801025719
 30
0.0
 10
-0.8242434381
 20
-9.8831168382
 30
0.0
 10
-0.8017188117
 20
-9.7881080703
 30
0.0
 10
-0.7683338485
 20
-9.6963782934
 30
0.0
 10
-0.7245590568
 20
-9.6092037756
 30
0.0
 10
-0.6709710572
 20
-9.5277078558
 30
0.0
 10
-0.6083531682
 20
-9.4530614325
 30
0.0
 10
-0.5374949078
 20
-9.3861889166
 30
0.0
 10
-0.4594316021
 20
-9.3280531013
 30
0.0
 10
-0.3751495436
 20
-9.2793777182
 30
0.0
 10
-0.2858539807
 20
-9.2408470904
 30
0.0
 10
-0.1926926957
 20
-9.2129517416
 30
0.0
 10
-0.0969971117
 20
-9.1960754379
 30
0.0
 10
-0.0323004076
 20
-9.1923097769
 30
0.0
 10
0.0
 20
-9.1923097769
 30
0.0
 11
-0.000000504
 21
-10.866025587
 31
0.0
 11
-0.0967560832
 21
-10.860389305
 31
0.0
 11
-0.1923469516
 21
-10.8435242392
 31
0.0
 11
-0.2852205711
 21
-10.8157014553
 31
0.0
 11
-0.3744469024
 21
-10.7771830271
 31
0.0
 11
-0.4584428702
 21
-10.7286480472
 31
0.0
 11
-0.5364376703
 21
-10.6705345513
 31
0.0
 11
-0.6070990716
 21
-10.6038064923
 31
0.0
 11
-0.6695971713
 21
-10.5292546018
 31
0.0
 11
-0.7230838624
 21
-10.4478434848
 31
0.0
 11
-0.7666988594
 21
-10.3609004511
 31
0.0
 11
-0.8000193404
 21
-10.2692341408
 31
0.0
 11
-0.8224273457
 21
-10.174537831
 31
0.0
 11
-0.8337275564
 21
-10.0776246621
 31
0.0
 11
-0.8337058726
 21
-9.9802526554
 31
0.0
 11
-0.8223756376
 21
-9.8834212768
 31
0.0
 11
-0.7999021915
 21
-9.7886311769
 31
0.0
 11
-0.7666046603
 21
-9.6971443447
 31
0.0
 11
-0.7228890822
 21
-9.6100901857
 31
0.0
 11
-0.6694779846
 21
-9.5288655573
 31
0.0
 11
-0.6069285931
 21
-9.4543028329
 31
0.0
 11
-0.5363096406
 21
-9.3876579426
 31
0.0
 11
-0.4583430351
 21
-9.3295957439
 31
0.0
 11
-0.3743217033
 21
-9.2810720932
 31
0.0
 11
-0.285177
 21
-9.2426079138
 31
0.0
 11
-0.1922636229
 21
-9.21478666
 31
0.0
 11
-0.0967373709
 21
-9.1979425441
 31
0.0
 11
0.0
 21
-9.1923097769
 31
0.0
  0
SPLINE
  5
5DC
100
AcDbEntity
  8
ASSI
100
AcDbSpline
 62
7
  6
CONTINUOUS
 70
0
 71
3
 72
34
 73
30
 74
28
 42
0.0000001
 43
0.0000001
 44
0.0000000001
 12
2.6248738032
 22
0.0
 32
0.0
 13
-2.6248738032
 23
0.0
 33
0.0
 40
0.0
 40
0.0
 40
0.0
 40
0.0
 40
0.0369117498
 40
0.0738750945
 40
0.1108154741
 40
0.1478161717
 40
0.1847693583
 40
0.2218163089
 40
0.258800718
 40
0.2958869059
 40
0.332918489
 40
0.3700331682
 40
0.4071263633
 40
0.4442383407
 40
0.4813827481
 40
0.5184772199
 40
0.5556462567
 40
0.5927217895
 40
0.6298712841
 40
0.6669345448
 40
0.7040343033
 40
0.7411007158
 40
0.7781253235
 40
0.8151733925
 40
0.8521425167
 40
0.8891499583
 40
0.9261025843
 40
0.9630654731
 40
1.0
 40
1.0
 40
1.0
 40
1.0
 10
0.0
 20
-9.1923097769
 30
0.0
 10
0.0322962284
 20
-9.1923097769
 30
0.0
 10
0.0969967777
 20
-9.1960751685
 30
0.0
 10
0.1926879837
 20
-9.212950651
 30
0.0
 10
0.285859354
 20
-9.2408488851
 30
0.0
 10
0.3751484693
 20
-9.2793770873
 30
0.0
 10
0.4594406602
 20
-9.3280589813
 30
0.0
 10
0.5374988413
 20
-9.3861919389
 30
0.0
 10
0.6083640844
 20
-9.4530729865
 30
0.0
 10
0.6709792214
 20
-9.5277183863
 30
0.0
 10
0.7245691295
 20
-9.6092212855
 30
0.0
 10
0.7683428599
 20
-9.6963984756
 30
0.0
 10
0.8017262681
 20
-9.7881327396
 30
0.0
 10
0.8242486182
 20
-9.8831457688
 30
0.0
 10
0.8355931228
 20
-9.9801320031
 30
0.0
 10
0.8356111849
 20
-10.0778285765
 30
0.0
 10
0.8243003046
 20
-10.1748086849
 30
0.0
 10
0.8018038942
 20
-10.2698672273
 30
0.0
 10
0.7684620251
 20
-10.3615880645
 30
0.0
 10
0.7246921118
 20
-10.4488377278
 30
0.0
 10
0.6711329563
 20
-10.5303588673
 30
0.0
 10
0.6084915777
 20
-10.6050829694
 30
0.0
 10
0.5376322142
 20
-10.6719985859
 30
0.0
 10
0.4595481697
 20
-10.7301806941
 30
0.0
 10
0.3752486018
 20
-10.7788920141
 30
0.0
 10
0.2859383779
 20
-10.8174488009
 30
0.0
 10
0.1927551717
 20
-10.8453650231
 30
0.0
 10
0.0970358682
 20
-10.8622557373
 30
0.0
 10
0.0323156533
 20
-10.866025587
 30
0.0
 10
-0.000000504
 20
-10.866025587
 30
0.0
 11
0.0
 21
-9.1923097769
 31
0.0
 11
0.0967248968
 21
-9.1979410866
 31
0.0
 11
0.1922749622
 21
-9.214789348
 31
0.0
 11
0.2851640124
 21
-9.242603186
 31
0.0
 11
0.374339048
 21
-9.2810808074
 31
0.0
 11
0.4583349975
 21
-9.3295904565
 31
0.0
 11
0.5363271339
 21
-9.3876726274
 31
0.0
 11
0.6069295166
 21
-9.4543038118
 31
0.0
 11
0.6694920811
 21
-9.528884499
 31
0.0
 11
0.7228964637
 21
-9.6101029717
 31
0.0
 11
0.7666134406
 21
-9.6971647036
 31
0.0
 11
0.7999105704
 21
-9.7886591617
 31
0.0
 11
0.8223801046
 21
-9.8834465951
 31
0.0
 11
0.8337078013
 21
-9.9802857027
 31
0.0
 11
0.8337258558
 21
-10.0776540084
 31
0.0
 11
0.8224232422
 21
-10.1745611344
 31
0.0
 11
0.800010502
 21
-10.2692637106
 31
0.0
 11
0.7666952497
 21
-10.3609088278
 31
0.0
 11
0.723070867
 21
-10.4478660204
 31
0.0
 11
0.669597931
 21
-10.5292535804
 31
0.0
 11
0.6070919889
 21
-10.6038140063
 31
0.0
 11
0.5364327554
 21
-10.6705386793
 31
0.0
 11
0.4584524976
 21
-10.7286417108
 31
0.0
 11
0.3744311137
 21
-10.7771909639
 31
0.0
 11
0.2852468531
 21
-10.8156918838
 31
0.0
 11
0.192330931
 21
-10.843528039
 31
0.0
 11
0.0967838026
 21
-10.8603860642
 31
0.0
 11
-0.000000504
 21
-10.866025587
 31
0.0
  0
SPLINE
  5
5DD
100
AcDbEntity
  8
ASSI
100
AcDbSpline
 62
7
  6
CONTINUOUS
 70
0
 71
3
 72
34
 73
30
 74
28
 42
0.0000001
 43
0.0000001
 44
0.0000000001
 12
-2.6248728046
 22
0.0
 32
0.0
 13
2.6248728046
 23
0.0
 33
0.0
 40
0.0
 40
0.0
 40
0.0
 40
0.0
 40
0.0369235405
 40
0.07390332
 40
0.1108390601
 40
0.1478638748
 40
0.1848219089
 40
0.2218768167
 40
0.2589029249
 40
0.2959649404
 40
0.3330750912
 40
0.3701319414
 40
0.4072897191
 40
0.4443625276
 40
0.4815337594
 40
0.5186296558
 40
0.5557712654
 40
0.5928845893
 40
0.6299751211
 40
0.6670869972
 40
0.7041219596
 40
0.7411996937
 40
0.7781922919
 40
0.8152269112
 40
0.8521911535
 40
0.8891792265
 40
0.9261293091
 40
0.9630834594
 40
1.0
 40
1.0
 40
1.0
 40
1.0
 10
10.399999504
 20
-10.8660255866
 30
0.0
 10
10.3676929715
 20
-10.8660255866
 30
0.0
 10
10.3029676907
 20
-10.862256442
 30
0.0
 10
10.2072575117
 20
-10.8453680339
 30
0.0
 10
10.1140598309
 20
-10.8174481724
 30
0.0
 10
10.0247576703
 20
-10.7788955273
 30
0.0
 10
9.9404485219
 20
-10.7301782515
 30
0.0
 10
9.8623661663
 20
-10.6719977845
 30
0.0
 10
9.7915049792
 20
-10.6050790947
 30
0.0
 10
9.72885985
 20
-10.5303497082
 30
0.0
 10
9.6753020312
 20
-10.4488279757
 30
0.0
 10
9.631529194
 20
-10.3615679196
 30
0.0
 10
9.5981897322
 20
-10.2698468999
 30
0.0
 10
9.5756948706
 20
-10.1747810983
 30
0.0
 10
9.5643869637
 20
-10.0777998549
 30
0.0
 10
9.564408668
 20
-9.9801025795
 30
0.0
 10
9.5757565606
 20
-9.8831168452
 30
0.0
 10
9.5982811865
 20
-9.7881080765
 30
0.0
 10
9.6316661492
 20
-9.6963782989
 30
0.0
 10
9.6754409406
 20
-9.6092037802
 30
0.0
 10
9.72902894
 20
-9.5277078595
 30
0.0
 10
9.7916468289
 20
-9.4530614355
 30
0.0
 10
9.8625050895
 20
-9.3861889189
 30
0.0
 10
9.9405683954
 20
-9.3280531029
 30
0.0
 10
10.0248504543
 20
-9.2793777192
 30
0.0
 10
10.1141460177
 20
-9.240847091
 30
0.0
 10
10.2073073031
 20
-9.2129517419
 30
0.0
 10
10.3030028877
 20
-9.1960754379
 30
0.0
 10
10.3676995922
 20
-9.1923097769
 30
0.0
 10
10.4
 20
-9.1923097769
 30
0.0
 11
10.399999504
 21
-10.8660255866
 31
0.0
 11
10.303243932
 21
-10.8603893067
 31
0.0
 11
10.2076530627
 21
-10.8435242425
 31
0.0
 11
10.1147794422
 21
-10.8157014601
 31
0.0
 11
10.0255531097
 21
-10.7771830332
 31
0.0
 11
9.9415571406
 21
-10.7286480543
 31
0.0
 11
9.8635623392
 21
-10.6705345593
 31
0.0
 11
9.7929009364
 21
-10.6038065009
 31
0.0
 11
9.7304028354
 21
-10.5292546108
 31
0.0
 11
9.6769161429
 21
-10.447843494
 31
0.0
 11
9.6333011445
 21
-10.3609004603
 31
0.0
 11
9.5999806623
 21
-10.2692341499
 31
0.0
 11
9.5775726559
 21
-10.1745378397
 31
0.0
 11
9.5662724441
 21
-10.0776246703
 31
0.0
 11
9.5662941269
 21
-9.980252663
 31
0.0
 11
9.5776243611
 21
-9.8834212838
 31
0.0
 11
9.6000978066
 21
-9.7886311831
 31
0.0
 11
9.6333953374
 21
-9.6971443501
 31
0.0
 11
9.6771109152
 21
-9.6100901903
 31
0.0
 11
9.7305220125
 21
-9.5288655611
 31
0.0
 11
9.793071404
 21
-9.4543028359
 31
0.0
 11
9.8636903567
 21
-9.3876579449
 31
0.0
 11
9.9416569625
 21
-9.3295957455
 31
0.0
 11
10.0256782946
 21
-9.2810720943
 31
0.0
 11
10.1148229984
 21
-9.2426079144
 31
0.0
 11
10.207736376
 21
-9.2147866603
 31
0.0
 11
10.3032626285
 21
-9.1979425441
 31
0.0
 11
10.4
 21
-9.1923097769
 31
0.0
  0
SPLINE
  5
5DE
100
AcDbEntity
  8
ASSI
100
AcDbSpline
 62
7
  6
CONTINUOUS
 70
0
 71
3
 72
34
 73
30
 74
28
 42
0.0000001
 43
0.0000001
 44
0.0000000001
 12
2.6248737952
 22
0.0
 32
0.0
 13
-2.6248737952
 23
-0.0
 33
0.0
 40
0.0
 40
0.0
 40
0.0
 40
0.0
 40
0.0369117499
 40
0.0738750947
 40
0.1108154744
 40
0.1478161721
 40
0.1847693589
 40
0.2218163095
 40
0.2588007187
 40
0.2958869068
 40
0.33291849
 40
0.3700331693
 40
0.4071263646
 40
0.444238342
 40
0.4813827496
 40
0.5184772215
 40
0.5556462584
 40
0.5927217913
 40
0.629871286
 40
0.6669345468
 40
0.7040343054
 40
0.741100718
 40
0.7781253259
 40
0.815173395
 40
0.8521425192
 40
0.889149961
 40
0.926102587
 40
0.963065476
 40
1.0
 40
1.0
 40
1.0
 40
1.0
 10
10.4
 20
-9.1923097769
 30
0.0
 10
10.4322962284
 20
-9.1923097769
 30
0.0
 10
10.4969967777
 20
-9.1960751684
 30
0.0
 10
10.5926879837
 20
-9.212950651
 30
0.0
 10
10.685859354
 20
-9.2408488851
 30
0.0
 10
10.7751484693
 20
-9.2793770873
 30
0.0
 10
10.8594406602
 20
-9.3280589813
 30
0.0
 10
10.9374988413
 20
-9.3861919389
 30
0.0
 10
11.0083640844
 20
-9.4530729865
 30
0.0
 10
11.0709792214
 20
-9.5277183863
 30
0.0
 10
11.1245691295
 20
-9.6092212855
 30
0.0
 10
11.1683428599
 20
-9.6963984755
 30
0.0
 10
11.2017262681
 20
-9.7881327395
 30
0.0
 10
11.2242486182
 20
-9.8831457688
 30
0.0
 10
11.2355931228
 20
-9.9801320031
 30
0.0
 10
11.2356111849
 20
-10.0778285765
 30
0.0
 10
11.2243003046
 20
-10.1748086848
 30
0.0
 10
11.2018038942
 20
-10.2698672273
 30
0.0
 10
11.1684620251
 20
-10.3615880645
 30
0.0
 10
11.1246921118
 20
-10.4488377278
 30
0.0
 10
11.0711329564
 20
-10.5303588672
 30
0.0
 10
11.0084915778
 20
-10.6050829694
 30
0.0
 10
10.9376322143
 20
-10.6719985859
 30
0.0
 10
10.8595481697
 20
-10.7301806941
 30
0.0
 10
10.7752486019
 20
-10.7788920141
 30
0.0
 10
10.6859383779
 20
-10.8174488008
 30
0.0
 10
10.5927551718
 20
-10.845365023
 30
0.0
 10
10.4970358709
 20
-10.8622557369
 30
0.0
 10
10.4323156587
 20
-10.8660255866
 30
0.0
 10
10.399999504
 20
-10.8660255866
 30
0.0
 11
10.4
 21
-9.1923097769
 31
0.0
 11
10.4967248968
 21
-9.1979410866
 31
0.0
 11
10.5922749621
 21
-9.214789348
 31
0.0
 11
10.6851640124
 21
-9.242603186
 31
0.0
 11
10.7743390479
 21
-9.2810808074
 31
0.0
 11
10.8583349975
 21
-9.3295904565
 31
0.0
 11
10.9363271339
 21
-9.3876726274
 31
0.0
 11
11.0069295165
 21
-9.4543038118
 31
0.0
 11
11.0694920811
 21
-9.528884499
 31
0.0
 11
11.1228964637
 21
-9.6101029716
 31
0.0
 11
11.1666134406
 21
-9.6971647035
 31
0.0
 11
11.1999105704
 21
-9.7886591616
 31
0.0
 11
11.2223801046
 21
-9.883446595
 31
0.0
 11
11.2337078013
 21
-9.9802857027
 31
0.0
 11
11.2337258558
 21
-10.0776540083
 31
0.0
 11
11.2224232422
 21
-10.1745611343
 31
0.0
 11
11.200010502
 21
-10.2692637106
 31
0.0
 11
11.1666952497
 21
-10.3609088277
 31
0.0
 11
11.123070867
 21
-10.4478660203
 31
0.0
 11
11.069597931
 21
-10.5292535803
 31
0.0
 11
11.0070919889
 21
-10.6038140063
 31
0.0
 11
10.9364327555
 21
-10.6705386792
 31
0.0
 11
10.8584524976
 21
-10.7286417107
 31
0.0
 11
10.7744311138
 21
-10.7771909639
 31
0.0
 11
10.6852468531
 21
-10.8156918838
 31
0.0
 11
10.5923309311
 21
-10.843528039
 31
0.0
 11
10.4967838027
 21
-10.8603860642
 31
0.0
 11
10.399999504
 21
-10.8660255866
 31
0.0
  0
ELLIPSE
  5
5DF
100
AcDbEntity
  8
0
100
AcDbEllipse
 62
7
  6
CONTINUOUS
 10
19.800003427
 20
24.249996573
 30
0.0
 11
0.1767815418
 21
-0.1767815418
 31
-0.0
 40
0.9999725851
 41
2.3562081979
 42
3.9269771093
  0
ELLIPSE
  5
5E0
100
AcDbEntity
  8
0
100
AcDbEllipse
 62
7
  6
CONTINUOUS
 10
21.574996573
 20
24.249996573
 30
0.0
 11
-0.1767815418
 21
-0.1767815418
 31
-0.0
 40
0.9999725851
 41
2.3562081979
 42
3.9269771093
  0
ELLIPSE
  5
5E1
100
AcDbEntity
  8
0
100
AcDbEllipse
 62
7
  6
CONTINUOUS
 10
0.925003427
 20
24.249996573
 30
0.0
 11
0.1767815418
 21
-0.1767815418
 31
-0.0
 40
0.9999725851
 41
2.3562081979
 42
3.9269771093
  0
ELLIPSE
  5
5E2
100
AcDbEntity
  8
0
100
AcDbEllipse
 62
7
  6
CONTINUOUS
 10
2.699996573
 20
24.249996573
 30
0.0
 11
-0.1767815418
 21
-0.1767815418
 31
-0.0
 40
0.9999725851
 41
2.3562081979
 42
3.9269771093
  0
ELLIPSE
  5
5E3
100
AcDbEntity
  8
0
100
AcDbEllipse
 62
7
  6
CONTINUOUS
 10
19.800003427
 20
-24.249996573
 30
0.0
 11
0.1767815418
 21
0.1767815418
 31
0.0
 40
0.9999725851
 41
2.3562081979
 42
3.9269771093
  0
ELLIPSE
  5
5E4
100
AcDbEntity
  8
0
100
AcDbEllipse
 62
7
  6
CONTINUOUS
 10
21.574996573
 20
-24.249996573
 30
0.0
 11
-0.1767815418
 21
0.1767815418
 31
0.0
 40
0.9999725851
 41
2.3562081979
 42
3.9269771093
  0
ELLIPSE
  5
5E5
100
AcDbEntity
  8
0
100
AcDbEllipse
 62
7
  6
CONTINUOUS
 10
0.925003427
 20
-24.249996573
 30
0.0
 11
0.1767815418
 21
0.1767815418
 31
0.0
 40
0.9999725851
 41
2.3562081979
 42
3.9269771093
  0
ELLIPSE
  5
5E6
100
AcDbEntity
  8
0
100
AcDbEllipse
 62
7
  6
CONTINUOUS
 10
2.699996573
 20
-24.249996573
 30
0.0
 11
-0.1767815418
 21
0.1767815418
 31
0.0
 40
0.9999725851
 41
2.3562081979
 42
3.9269771093
  0
ELLIPSE
  5
5E7
100
AcDbEntity
  8
0
100
AcDbEllipse
 62
7
  6
CONTINUOUS
 10
-21.574996573
 20
-24.249996573
 30
0.0
 11
0.1767815418
 21
0.1767815418
 31
0.0
 40
0.9999725851
 41
2.3562081979
 42
3.9269771093
  0
ELLIPSE
  5
5E8
100
AcDbEntity
  8
0
100
AcDbEllipse
 62
7
  6
CONTINUOUS
 10
-19.800003427
 20
-24.249996573
 30
0.0
 11
-0.1767815418
 21
0.1767815418
 31
0.0
 40
0.9999725851
 41
2.3562081979
 42
3.9269771093
  0
ELLIPSE
  5
5E9
100
AcDbEntity
  8
0
100
AcDbEllipse
 62
7
  6
CONTINUOUS
 10
-2.699996573
 20
-24.249996573
 30
0.0
 11
0.1767815418
 21
0.1767815418
 31
0.0
 40
0.9999725851
 41
2.3562081979
 42
3.9269771093
  0
ELLIPSE
  5
5EA
100
AcDbEntity
  8
0
100
AcDbEllipse
 62
7
  6
CONTINUOUS
 10
-0.925003427
 20
-24.249996573
 30
0.0
 11
-0.1767815418
 21
0.1767815418
 31
0.0
 40
0.9999725851
 41
2.3562081979
 42
3.9269771093
  0
ELLIPSE
  5
5EB
100
AcDbEntity
  8
0
100
AcDbEllipse
 62
7
  6
CONTINUOUS
 10
-19.800003427
 20
24.249996573
 30
0.0
 11
-0.1767815418
 21
-0.1767815418
 31
-0.0
 40
0.9999725851
 41
2.3562081979
 42
3.9269771093
  0
ELLIPSE
  5
5EC
100
AcDbEntity
  8
0
100
AcDbEllipse
 62
7
  6
CONTINUOUS
 10
-21.574996573
 20
24.249996573
 30
0.0
 11
0.1767815418
 21
-0.1767815418
 31
-0.0
 40
0.9999725851
 41
2.3562081979
 42
3.9269771093
  0
ELLIPSE
  5
5ED
100
AcDbEntity
  8
0
100
AcDbEllipse
 62
7
  6
CONTINUOUS
 10
-0.925003427
 20
24.249996573
 30
0.0
 11
-0.1767815418
 21
-0.1767815418
 31
-0.0
 40
0.9999725851
 41
2.3562081979
 42
3.9269771093
  0
ELLIPSE
  5
5EE
100
AcDbEntity
  8
0
100
AcDbEllipse
 62
7
  6
CONTINUOUS
 10
-2.699996573
 20
24.249996573
 30
0.0
 11
0.1767815418
 21
-0.1767815418
 31
-0.0
 40
0.9999725851
 41
2.3562081979
 42
3.9269771093
  0
ELLIPSE
  5
5EF
100
AcDbEntity
  8
0
100
AcDbEllipse
 62
7
  6
CONTINUOUS
 10
15.6159657686
 20
23.2659657686
 30
0.0
 11
0.0
 21
0.5
 31
0.0
 40
0.0052360356
 41
0.0104719755
 42
0.1976351831
  0
ELLIPSE
  5
5F0
100
AcDbEntity
  8
0
100
AcDbEllipse
 62
7
  6
CONTINUOUS
 10
15.6159657686
 20
-23.2659657686
 30
0.0
 11
0.0
 21
0.5
 31
0.0
 40
0.0052360356
 41
-3.3392278367
 42
-3.1520646291
  0
ELLIPSE
  5
5F1
100
AcDbEntity
  8
0
100
AcDbEllipse
 62
7
  6
CONTINUOUS
 10
6.8840342314
 20
-23.2659657686
 30
0.0
 11
0.0
 21
0.5
 31
0.0
 40
0.0052360356
 41
-3.1311206781
 42
-2.9439574705
  0
ELLIPSE
  5
5F2
100
AcDbEntity
  8
0
100
AcDbEllipse
 62
7
  6
CONTINUOUS
 10
-15.6159657686
 20
23.2659657686
 30
0.0
 11
0.0
 21
0.5
 31
0.0
 40
0.0052360356
 41
-0.1976351831
 42
-0.0104719755
  0
ELLIPSE
  5
5F3
100
AcDbEntity
  8
0
100
AcDbEllipse
 62
7
  6
CONTINUOUS
 10
-6.8840342314
 20
23.2659657686
 30
0.0
 11
-0.0
 21
0.5
 31
0.0
 40
0.0052360356
 41
0.0104719755
 42
0.1976351831
  0
ELLIPSE
  5
5F4
100
AcDbEntity
  8
0
100
AcDbEllipse
 62
7
  6
CONTINUOUS
 10
-6.8840342314
 20
-23.2659657686
 30
0.0
 11
-0.0
 21
0.5
 31
0.0
 40
0.0052360356
 41
-3.3392278367
 42
-3.1520646291
  0
ELLIPSE
  5
5F5
100
AcDbEntity
  8
0
100
AcDbEllipse
 62
7
  6
CONTINUOUS
 10
-15.6159657686
 20
-23.2659657686
 30
0.0
 11
0.0
 21
0.5
 31
0.0
 40
0.0052360356
 41
-3.1311206781
 42
-2.9439574705
  0
ELLIPSE
  5
5F6
100
AcDbEntity
  8
0
100
AcDbEllipse
 62
7
  6
CONTINUOUS
 10
21.841254093
 20
-21.8441737085
 30
0.0
 11
0.4160498344
 21
-0.2773626446
 31
-0.0
 40
0.9999450019
 41
-0.9827748477
 42
0.5879707104
  0
ELLIPSE
  5
5F7
100
AcDbEntity
  8
0
100
AcDbEllipse
 62
7
  6
CONTINUOUS
 10
18.8166456542
 20
-21.9537669705
 30
0.0
 11
0.4999904798
 21
0.5000285596
 31
0.0
 40
0.0061705924
 41
0.0112823085
 42
0.9916959574
  0
ELLIPSE
  5
5F8
100
AcDbEntity
  8
0
100
AcDbEllipse
 62
7
  6
CONTINUOUS
 10
3.6833543458
 20
-21.9537669705
 30
0.0
 11
-0.4999904798
 21
0.5000285596
 31
0.0
 40
0.0061705924
 41
-0.9916959574
 42
-0.0112823085
  0
ELLIPSE
  5
5F9
100
AcDbEntity
  8
0
100
AcDbEllipse
 62
7
  6
CONTINUOUS
 10
3.6833543458
 20
21.9537669705
 30
0.0
 11
0.4999904798
 21
0.5000285596
 31
0.0
 40
0.0061705924
 41
-3.1303103451
 42
-2.1498966962
  0
ELLIPSE
  5
5FA
100
AcDbEntity
  8
0
100
AcDbEllipse
 62
7
  6
CONTINUOUS
 10
-8.1627313221
 20
21.2859869487
 30
0.0
 11
0.0
 21
1.0
 31
0.0
 40
0.0087268678
 41
-1.5707963268
 42
-0.0058177642
  0
ELLIPSE
  5
5FB
100
AcDbEntity
  8
0
100
AcDbEllipse
 62
7
  6
CONTINUOUS
 10
-3.0094034965
 20
21.2859869487
 30
0.0
 11
1.0000571192
 21
-0.9999809595
 31
0.0
 40
0.0061705924
 41
3.1412394337
 42
4.303906225
  0
ELLIPSE
  5
5FC
100
AcDbEntity
  8
0
100
AcDbEllipse
 62
7
  6
CONTINUOUS
 10
-19.4905965035
 20
21.2859869487
 30
0.0
 11
1.0000571192
 21
0.9999809595
 31
0.0
 40
0.0061705924
 41
-1.1623135715
 42
0.0003532199
  0
ELLIPSE
  5
5FD
100
AcDbEntity
  8
0
100
AcDbEllipse
 62
7
  6
CONTINUOUS
 10
-14.3372686779
 20
21.2859869487
 30
0.0
 11
0.0
 21
1.0
 31
0.0
 40
0.0087268678
 41
0.0058177642
 42
1.5707963268
  0
ELLIPSE
  5
5FE
100
AcDbEntity
  8
0
100
AcDbEllipse
 62
7
  6
CONTINUOUS
 10
-14.3372686779
 20
-21.2859869487
 30
0.0
 11
0.0
 21
1.0
 31
0.0
 40
0.0087268678
 41
-4.7123889804
 42
-3.1474104178
  0
ELLIPSE
  5
5FF
100
AcDbEntity
  8
0
100
AcDbEllipse
 62
7
  6
CONTINUOUS
 10
-19.4905965035
 20
-21.2859869487
 30
0.0
 11
1.0000571192
 21
-0.9999809595
 31
0.0
 40
0.0061705924
 41
-0.0003532199
 42
1.1623135715
  0
ELLIPSE
  5
600
100
AcDbEntity
  8
0
100
AcDbEllipse
 62
7
  6
CONTINUOUS
 10
-3.0094034965
 20
-21.2859869487
 30
0.0
 11
1.0000571192
 21
0.9999809595
 31
0.0
 40
0.0061705924
 41
1.9792790821
 42
3.1419458735
  0
ELLIPSE
  5
601
100
AcDbEntity
  8
0
100
AcDbEllipse
 62
7
  6
CONTINUOUS
 10
-8.1627313221
 20
-21.2859869487
 30
0.0
 11
-0.0
 21
1.0
 31
0.0
 40
0.0087268678
 41
-3.1357748894
 42
-1.5707963268
  0
ELLIPSE
  5
602
100
AcDbEntity
  8
0
100
AcDbEllipse
 62
7
  6
CONTINUOUS
 10
18.8166456542
 20
21.9537669705
 30
0.0
 11
-0.4999904798
 21
0.5000285596
 31
0.0
 40
0.0061705924
 41
-4.133288611
 42
-3.1528749621
  0
ELLIPSE
  5
603
100
AcDbEntity
  8
0
100
AcDbEllipse
 62
7
  6
CONTINUOUS
 10
-3.6833543458
 20
-21.9537669705
 30
0.0
 11
0.4999904798
 21
0.5000285596
 31
0.0
 40
0.0061705924
 41
0.0112823085
 42
0.9916959574
  0
ELLIPSE
  5
604
100
AcDbEntity
  8
0
100
AcDbEllipse
 62
7
  6
CONTINUOUS
 10
-18.8166456542
 20
-21.9537669705
 30
0.0
 11
-0.4999904798
 21
0.5000285596
 31
0.0
 40
0.0061705924
 41
-0.9916959574
 42
-0.0112823085
  0
ELLIPSE
  5
605
100
AcDbEntity
  8
0
100
AcDbEllipse
 62
7
  6
CONTINUOUS
 10
-18.8166456542
 20
21.9537669705
 30
0.0
 11
0.4999904798
 21
0.5000285596
 31
0.0
 40
0.0061705924
 41
-3.1303103451
 42
-2.1498966962
  0
ELLIPSE
  5
606
100
AcDbEntity
  8
0
100
AcDbEllipse
 62
7
  6
CONTINUOUS
 10
-3.6833543458
 20
21.9537669705
 30
0.0
 11
-0.4999904798
 21
0.5000285596
 31
0.0
 40
0.0061705924
 41
-4.133288611
 42
-3.1528749621
  0
ELLIPSE
  5
607
100
AcDbEntity
  8
0
100
AcDbEllipse
 62
7
  6
CONTINUOUS
 10
18.8166456542
 20
-20.9916321118
 30
0.0
 11
0.5
 21
0.0
 31
0.0
 40
0.0087268678
 41
-1.5707963268
 42
-0.0174532925
  0
ELLIPSE
  5
608
100
AcDbEntity
  8
0
100
AcDbEllipse
 62
7
  6
CONTINUOUS
 10
8.1627313221
 20
21.2859869487
 30
0.0
 11
0.0
 21
1.0
 31
0.0
 40
0.0087268678
 41
0.0058177642
 42
1.5707963268
  0
ELLIPSE
  5
609
100
AcDbEntity
  8
0
100
AcDbEllipse
 62
7
  6
CONTINUOUS
 10
3.0094034965
 20
21.2859869487
 30
0.0
 11
1.0000571192
 21
0.9999809595
 31
0.0
 40
0.0061705924
 41
-1.1623135715
 42
0.0003532199
  0
ELLIPSE
  5
60A
100
AcDbEntity
  8
0
100
AcDbEllipse
 62
7
  6
CONTINUOUS
 10
14.3372686779
 20
21.2859869487
 30
0.0
 11
0.0
 21
1.0
 31
0.0
 40
0.0087268678
 41
-1.5707963268
 42
-0.0058177642
  0
ELLIPSE
  5
60B
100
AcDbEntity
  8
0
100
AcDbEllipse
 62
7
  6
CONTINUOUS
 10
19.4905965035
 20
21.2859869487
 30
0.0
 11
1.0000571192
 21
-0.9999809595
 31
0.0
 40
0.0061705924
 41
3.1412394337
 42
4.303906225
  0
ELLIPSE
  5
60C
100
AcDbEntity
  8
0
100
AcDbEllipse
 62
7
  6
CONTINUOUS
 10
14.3372686779
 20
-21.2859869487
 30
0.0
 11
-0.0
 21
1.0
 31
0.0
 40
0.0087268678
 41
-3.1357748894
 42
-1.5707963268
  0
ELLIPSE
  5
60D
100
AcDbEntity
  8
0
100
AcDbEllipse
 62
7
  6
CONTINUOUS
 10
19.4905965035
 20
-21.2859869487
 30
0.0
 11
1.0000571192
 21
0.9999809595
 31
0.0
 40
0.0061705924
 41
1.9792790821
 42
3.1419458735
  0
ELLIPSE
  5
60E
100
AcDbEntity
  8
0
100
AcDbEllipse
 62
7
  6
CONTINUOUS
 10
8.1627313221
 20
-21.2859869487
 30
0.0
 11
0.0
 21
1.0
 31
0.0
 40
0.0087268678
 41
-4.7123889804
 42
-3.1474104178
  0
ELLIPSE
  5
60F
100
AcDbEntity
  8
0
100
AcDbEllipse
 62
7
  6
CONTINUOUS
 10
3.0094034965
 20
-21.2859869487
 30
0.0
 11
1.0000571192
 21
-0.9999809595
 31
0.0
 40
0.0061705924
 41
-0.0003532199
 42
1.1623135715
  0
ELLIPSE
  5
610
100
AcDbEntity
  8
0
100
AcDbEllipse
 62
7
  6
CONTINUOUS
 10
3.6833543458
 20
-20.9916321118
 30
0.0
 11
0.5
 21
0.0
 31
0.0
 40
0.0087268678
 41
-3.1241393611
 42
-1.5707963268
  0
ELLIPSE
  5
611
100
AcDbEntity
  8
0
100
AcDbEllipse
 62
7
  6
CONTINUOUS
 10
-3.6833543458
 20
-20.9916321118
 30
0.0
 11
0.5
 21
0.0
 31
0.0
 40
0.0087268678
 41
-1.5707963268
 42
-0.0174532925
  0
ELLIPSE
  5
612
100
AcDbEntity
  8
0
100
AcDbEllipse
 62
7
  6
CONTINUOUS
 10
-3.6833543458
 20
20.9916321118
 30
0.0
 11
0.5
 21
0.0
 31
0.0
 40
0.0087268678
 41
0.0174532925
 42
1.5707963268
  0
ELLIPSE
  5
613
100
AcDbEntity
  8
0
100
AcDbEllipse
 62
7
  6
CONTINUOUS
 10
3.6833543458
 20
20.9916321118
 30
0.0
 11
0.5
 21
-0.0
 31
0.0
 40
0.0087268678
 41
1.5707963268
 42
3.1241393611
  0
ELLIPSE
  5
614
100
AcDbEntity
  8
0
100
AcDbEllipse
 62
7
  6
CONTINUOUS
 10
18.8166456542
 20
20.9916321118
 30
0.0
 11
0.5
 21
-0.0
 31
0.0
 40
0.0087268678
 41
0.0174532925
 42
1.5707963268
  0
ELLIPSE
  5
615
100
AcDbEntity
  8
0
100
AcDbEllipse
 62
7
  6
CONTINUOUS
 10
-18.8166456542
 20
-20.9916321118
 30
0.0
 11
0.5
 21
-0.0
 31
0.0
 40
0.0087268678
 41
-3.1241393611
 42
-1.5707963268
  0
ELLIPSE
  5
616
100
AcDbEntity
  8
0
100
AcDbEllipse
 62
7
  6
CONTINUOUS
 10
-18.8166456542
 20
20.9916321118
 30
0.0
 11
0.5
 21
0.0
 31
0.0
 40
0.0087268678
 41
1.5707963268
 42
3.1241393611
  0
ELLIPSE
  5
617
100
AcDbEntity
  8
0
100
AcDbEllipse
 62
7
  6
CONTINUOUS
 10
-21.841254093
 20
-21.8441737085
 30
0.0
 11
0.4160498344
 21
0.2773626446
 31
0.0
 40
0.9999450019
 41
2.5536219432
 42
4.1243675013
  0
ELLIPSE
  5
618
100
AcDbEntity
  8
0
100
AcDbEllipse
 62
7
  6
CONTINUOUS
 10
21.841254093
 20
21.8441737085
 30
0.0
 11
-0.4160498344
 21
-0.2773626446
 31
-0.0
 40
0.9999450019
 41
2.5536219432
 42
4.1243675013
  0
ELLIPSE
  5
619
100
AcDbEntity
  8
0
100
AcDbEllipse
 62
7
  6
CONTINUOUS
 10
7.6932753594
 20
-23.2659657686
 30
0.0
 11
0.0
 21
0.5
 31
0.0
 40
0.0087268678
 41
-3.3421046127
 42
-3.1520646291
  0
ELLIPSE
  5
61A
100
AcDbEntity
  8
0
100
AcDbEllipse
 62
7
  6
CONTINUOUS
 10
14.8067246406
 20
-23.2659657686
 30
0.0
 11
-0.0
 21
0.5
 31
0.0
 40
0.0087268678
 41
-3.1311206781
 42
-2.9410806945
  0
ELLIPSE
  5
61B
100
AcDbEntity
  8
0
100
AcDbEllipse
 62
7
  6
CONTINUOUS
 10
14.8067246406
 20
23.2659657686
 30
0.0
 11
-0.0
 21
0.5
 31
0.0
 40
0.0087268678
 41
-0.2005119591
 42
-0.0104719755
  0
ELLIPSE
  5
61C
100
AcDbEntity
  8
0
100
AcDbEllipse
 62
7
  6
CONTINUOUS
 10
7.6932753594
 20
23.2659657686
 30
0.0
 11
-0.0
 21
0.5
 31
0.0
 40
0.0087268678
 41
0.0104719755
 42
0.2005119591
  0
ELLIPSE
  5
61D
100
AcDbEntity
  8
0
100
AcDbEllipse
 62
7
  6
CONTINUOUS
 10
-14.8067246406
 20
-23.2659657686
 30
0.0
 11
0.0
 21
0.5
 31
0.0
 40
0.0087268678
 41
-3.3421046127
 42
-3.1520646291
  0
ELLIPSE
  5
61E
100
AcDbEntity
  8
0
100
AcDbEllipse
 62
7
  6
CONTINUOUS
 10
-7.6932753594
 20
-23.2659657686
 30
0.0
 11
-0.0
 21
0.5
 31
0.0
 40
0.0087268678
 41
-3.1311206781
 42
-2.9410806945
  0
ELLIPSE
  5
61F
100
AcDbEntity
  8
0
100
AcDbEllipse
 62
7
  6
CONTINUOUS
 10
-7.6932753594
 20
23.2659657686
 30
0.0
 11
-0.0
 21
0.5
 31
0.0
 40
0.0087268678
 41
-0.2005119591
 42
-0.0104719755
  0
ELLIPSE
  5
620
100
AcDbEntity
  8
0
100
AcDbEllipse
 62
7
  6
CONTINUOUS
 10
-14.8067246406
 20
23.2659657686
 30
0.0
 11
0.0
 21
0.5
 31
0.0
 40
0.0087268678
 41
0.0104719755
 42
0.2005119591
  0
ELLIPSE
  5
621
100
AcDbEntity
  8
0
100
AcDbEllipse
 62
7
  6
CONTINUOUS
 10
15.2115177923
 20
-22.3058074126
 30
0.0
 11
0.4039394627
 21
-0.0
 31
0.0
 40
0.0058178298
 41
0.0052359878
 42
3.1328660073
  0
ELLIPSE
  5
622
100
AcDbEntity
  8
0
100
AcDbEllipse
 62
7
  6
CONTINUOUS
 10
7.2884822077
 20
-22.3058074126
 30
0.0
 11
0.4039394627
 21
0.0
 31
0.0
 40
0.0058178298
 41
0.0087266463
 42
3.1363566658
  0
ELLIPSE
  5
623
100
AcDbEntity
  8
0
100
AcDbEllipse
 62
7
  6
CONTINUOUS
 10
15.2115177923
 20
22.3058074126
 30
0.0
 11
0.4039394627
 21
0.0
 31
0.0
 40
0.0058178298
 41
-3.1328660073
 42
-0.0052359878
  0
ELLIPSE
  5
624
100
AcDbEntity
  8
0
100
AcDbEllipse
 62
7
  6
CONTINUOUS
 10
7.2884822077
 20
22.3058074126
 30
0.0
 11
0.4039394627
 21
0.0
 31
0.0
 40
0.0058178298
 41
-3.1363566658
 42
-0.0087266463
  0
ELLIPSE
  5
625
100
AcDbEntity
  8
0
100
AcDbEllipse
 62
7
  6
CONTINUOUS
 10
-15.2115177923
 20
-22.3058074126
 30
0.0
 11
0.4039394627
 21
0.0
 31
0.0
 40
0.0058178298
 41
0.0087266463
 42
3.1363566658
  0
ELLIPSE
  5
626
100
AcDbEntity
  8
0
100
AcDbEllipse
 62
7
  6
CONTINUOUS
 10
-7.2884822077
 20
-22.3058074126
 30
0.0
 11
0.4039394627
 21
-0.0
 31
0.0
 40
0.0058178298
 41
0.0052359878
 42
3.1328660073
  0
ELLIPSE
  5
627
100
AcDbEntity
  8
0
100
AcDbEllipse
 62
7
  6
CONTINUOUS
 10
-7.2884822077
 20
22.3058074126
 30
0.0
 11
0.4039394627
 21
0.0
 31
0.0
 40
0.0058178298
 41
-3.1328660073
 42
-0.0052359878
  0
ELLIPSE
  5
628
100
AcDbEntity
  8
0
100
AcDbEllipse
 62
7
  6
CONTINUOUS
 10
-15.2115177923
 20
22.3058074126
 30
0.0
 11
0.4039394627
 21
0.0
 31
0.0
 40
0.0058178298
 41
-3.1363566658
 42
-0.0087266463
  0
ELLIPSE
  5
629
100
AcDbEntity
  8
DRAFT
100
AcDbEllipse
 62
7
  6
CONTINUOUS
 10
41.293833305
 20
-0.0
 30
0.0
 11
-0.0
 21
498.5
 31
0.0
 40
0.0524077793
 41
1.5456719194
 42
1.5611066702
  0
ELLIPSE
  5
62A
100
AcDbEntity
  8
DRAFT
100
AcDbEllipse
 62
7
  6
CONTINUOUS
 10
-20.493833305
 20
-0.0
 30
0.0
 11
-0.0
 21
498.5
 31
0.0
 40
0.0524077793
 41
-1.5611066702
 42
-1.5456719194
  0
ELLIPSE
  5
62B
100
AcDbEntity
  8
DRAFT
100
AcDbEllipse
 62
7
  6
CONTINUOUS
 10
30.893833305
 20
-0.0
 30
0.0
 11
-0.0
 21
498.5
 31
0.0
 40
0.0524077793
 41
1.5456719194
 42
1.5611066702
  0
ELLIPSE
  5
62C
100
AcDbEntity
  8
DRAFT
100
AcDbEllipse
 62
7
  6
CONTINUOUS
 10
-30.893833305
 20
-0.0
 30
0.0
 11
-0.0
 21
498.5
 31
0.0
 40
0.0524077793
 41
-1.5611066702
 42
-1.5456719194
  0
ELLIPSE
  5
62D
100
AcDbEntity
  8
DRAFT
100
AcDbEllipse
 62
7
  6
CONTINUOUS
 10
20.493833305
 20
-0.0
 30
0.0
 11
0.0
 21
498.5
 31
0.0
 40
0.0524077793
 41
1.5456719194
 42
1.5611066702
  0
ELLIPSE
  5
62E
100
AcDbEntity
  8
DRAFT
100
AcDbEllipse
 62
7
  6
CONTINUOUS
 10
-41.293833305
 20
-0.0
 30
0.0
 11
-0.0
 21
498.5
 31
0.0
 40
0.0524077793
 41
-1.5611066702
 42
-1.5456719194
  0
ELLIPSE
  5
62F
100
AcDbEntity
  8
DRAFT
100
AcDbEllipse
 62
7
  6
CONTINUOUS
 10
10.093833305
 20
-0.0
 30
0.0
 11
-0.0
 21
498.5
 31
0.0
 40
0.0524077793
 41
1.5456719194
 42
1.5959207342
  0
ELLIPSE
  5
630
100
AcDbEntity
  8
DRAFT
100
AcDbEllipse
 62
7
  6
CONTINUOUS
 10
-41.293833305
 20
-0.0
 30
0.0
 11
-0.0
 21
498.5
 31
0.0
 40
0.0524077793
 41
-1.5959207342
 42
-1.5804859834
  0
ELLIPSE
  5
631
100
AcDbEntity
  8
DRAFT
100
AcDbEllipse
 62
7
  6
CONTINUOUS
 10
20.493833305
 20
-0.0
 30
0.0
 11
-0.0
 21
498.5
 31
0.0
 40
0.0524077793
 41
-4.7026993238
 42
-4.6872645729
  0
ELLIPSE
  5
632
100
AcDbEntity
  8
DRAFT
100
AcDbEllipse
 62
7
  6
CONTINUOUS
 10
-30.893833305
 20
-0.0
 30
0.0
 11
0.0
 21
498.5
 31
0.0
 40
0.0524077793
 41
-1.5959207342
 42
-1.5804859834
  0
ELLIPSE
  5
633
100
AcDbEntity
  8
DRAFT
100
AcDbEllipse
 62
7
  6
CONTINUOUS
 10
30.893833305
 20
-0.0
 30
0.0
 11
-0.0
 21
498.5
 31
0.0
 40
0.0524077793
 41
-4.7026993238
 42
-4.6872645729
  0
ELLIPSE
  5
634
100
AcDbEntity
  8
DRAFT
100
AcDbEllipse
 62
7
  6
CONTINUOUS
 10
-20.493833305
 20
-0.0
 30
0.0
 11
-0.0
 21
498.5
 31
0.0
 40
0.0524077793
 41
-1.5959207342
 42
-1.5804859834
  0
ELLIPSE
  5
635
100
AcDbEntity
  8
DRAFT
100
AcDbEllipse
 62
7
  6
CONTINUOUS
 10
41.293833305
 20
-0.0
 30
0.0
 11
-0.0
 21
498.5
 31
0.0
 40
0.0524077793
 41
-4.7026993238
 42
-4.6872645729
  0
ELLIPSE
  5
636
100
AcDbEntity
  8
DRAFT
100
AcDbEllipse
 62
7
  6
CONTINUOUS
 10
-10.093833305
 20
-0.0
 30
0.0
 11
-0.0
 21
498.5
 31
0.0
 40
0.0524077793
 41
-1.5959207342
 42
-1.5456719194
  0
ELLIPSE
  5
637
100
AcDbEntity
  8
DRAFT
100
AcDbEllipse
 62
7
  6
CONTINUOUS
 10
41.293833305
 20
-0.0
 30
0.0
 11
-0.0
 21
498.5
 31
0.0
 40
0.0524077793
 41
1.5628335875
 42
1.578759066
  0
ELLIPSE
  5
638
100
AcDbEntity
  8
DRAFT
100
AcDbEllipse
 62
7
  6
CONTINUOUS
 10
-20.493833305
 20
-0.0
 30
0.0
 11
-0.0
 21
498.5
 31
0.0
 40
0.0524077793
 41
-1.578759066
 42
-1.5628335875
  0
ELLIPSE
  5
639
100
AcDbEntity
  8
DRAFT
100
AcDbEllipse
 62
7
  6
CONTINUOUS
 10
30.893833305
 20
-0.0
 30
0.0
 11
-0.0
 21
498.5
 31
0.0
 40
0.0524077793
 41
1.5628335875
 42
1.578759066
  0
ELLIPSE
  5
63A
100
AcDbEntity
  8
DRAFT
100
AcDbEllipse
 62
7
  6
CONTINUOUS
 10
-30.893833305
 20
-0.0
 30
0.0
 11
-0.0
 21
498.5
 31
0.0
 40
0.0524077793
 41
-1.578759066
 42
-1.5628335875
  0
ELLIPSE
  5
63B
100
AcDbEntity
  8
DRAFT
100
AcDbEllipse
 62
7
  6
CONTINUOUS
 10
-41.293833305
 20
-0.0
 30
0.0
 11
-0.0
 21
498.5
 31
0.0
 40
0.0524077793
 41
-1.578759066
 42
-1.5628335875
  0
ELLIPSE
  5
63C
100
AcDbEntity
  8
DRAFT
100
AcDbEllipse
 62
7
  6
CONTINUOUS
 10
20.493833305
 20
-0.0
 30
0.0
 11
-0.0
 21
498.5
 31
0.0
 40
0.0524077793
 41
1.5628335875
 42
1.578759066
  0
ELLIPSE
  5
63D
100
AcDbEntity
  8
DRAFT
100
AcDbEllipse
 62
7
  6
CONTINUOUS
 10
-8.1258062379
 20
-0.0
 30
0.0
 11
-0.0
 21
498.5
 31
0.0
 40
0.0087268678
 41
-1.5382529662
 42
-1.5297610942
  0
ELLIPSE
  5
63E
100
AcDbEntity
  8
DRAFT
100
AcDbEllipse
 62
7
  6
CONTINUOUS
 10
8.1258062379
 20
-0.0
 30
0.0
 11
-0.0
 21
498.5
 31
0.0
 40
0.0087268678
 41
1.5297610942
 42
1.5382529662
  0
ELLIPSE
  5
63F
100
AcDbEntity
  8
DRAFT
100
AcDbEllipse
 62
7
  6
CONTINUOUS
 10
0.5741937621
 20
-0.0
 30
0.0
 11
-0.0
 21
498.5
 31
0.0
 40
0.0087268678
 41
-1.5382529662
 42
-1.5310086873
  0
ELLIPSE
  5
640
100
AcDbEntity
  8
DRAFT
100
AcDbEllipse
 62
7
  6
CONTINUOUS
 10
14.3741937621
 20
-0.0
 30
0.0
 11
-0.0
 21
498.5
 31
0.0
 40
0.0087268678
 41
-1.5382529662
 42
-1.5297610942
  0
ELLIPSE
  5
641
100
AcDbEntity
  8
0
100
AcDbEllipse
 62
7
  6
CONTINUOUS
 10
75.1910375036
 20
-0.0
 30
0.0
 11
498.8040429346
 21
-498.1959568395
 31
0.0
 40
0.0348994837
 41
-1.6467594301
 42
-1.6453491642
  0
ELLIPSE
  5
642
100
AcDbEntity
  8
0
100
AcDbEllipse
 62
7
  6
CONTINUOUS
 10
29.3942542824
 20
-0.0
 30
0.0
 11
-0.0
 21
498.5
 31
0.0
 40
0.0174550649
 41
1.5311713602
 42
1.6104212934
  0
ELLIPSE
  5
643
100
AcDbEntity
  8
0
100
AcDbEllipse
 62
7
  6
CONTINUOUS
 10
75.1910375036
 20
0.0
 30
0.0
 11
498.8040429346
 21
498.1959568395
 31
0.0
 40
0.0348994837
 41
1.6453491642
 42
1.6467594301
  0
ELLIPSE
  5
644
100
AcDbEntity
  8
DRAFT
100
AcDbEllipse
 62
7
  6
CONTINUOUS
 10
14.3741937621
 20
-0.0
 30
0.0
 11
-0.0
 21
498.5
 31
0.0
 40
0.0087268678
 41
-1.6118315594
 42
-1.6033396874
  0
ELLIPSE
  5
645
100
AcDbEntity
  8
DRAFT
100
AcDbEllipse
 62
7
  6
CONTINUOUS
 10
21.9258062379
 20
-0.0
 30
0.0
 11
-0.0
 21
498.5
 31
0.0
 40
0.0087268678
 41
-4.6798456198
 42
-4.6726013409
  0
ELLIPSE
  5
646
100
AcDbEntity
  8
DRAFT
100
AcDbEllipse
 62
7
  6
CONTINUOUS
 10
0.5741937621
 20
-0.0
 30
0.0
 11
-0.0
 21
498.5
 31
0.0
 40
0.0087268678
 41
-1.6105839663
 42
-1.6033396874
  0
ELLIPSE
  5
647
100
AcDbEntity
  8
DRAFT
100
AcDbEllipse
 62
7
  6
CONTINUOUS
 10
8.1258062379
 20
-0.0
 30
0.0
 11
-0.0
 21
498.5
 31
0.0
 40
0.0087268678
 41
-4.6798456198
 42
-4.6713537478
  0
ELLIPSE
  5
648
100
AcDbEntity
  8
DRAFT
100
AcDbEllipse
 62
7
  6
CONTINUOUS
 10
-8.1258062379
 20
-0.0
 30
0.0
 11
-0.0
 21
498.5
 31
0.0
 40
0.0087268678
 41
-1.6118315594
 42
-1.6033396874
  0
ELLIPSE
  5
649
100
AcDbEntity
  8
DRAFT
100
AcDbEllipse
 62
7
  6
CONTINUOUS
 10
-0.5741937621
 20
-0.0
 30
0.0
 11
-0.0
 21
498.5
 31
0.0
 40
0.0087268678
 41
-4.6798456198
 42
-4.6726013409
  0
ELLIPSE
  5
64A
100
AcDbEntity
  8
DRAFT
100
AcDbEllipse
 62
7
  6
CONTINUOUS
 10
-21.9258062379
 20
-0.0
 30
0.0
 11
-0.0
 21
498.5
 31
0.0
 40
0.0087268678
 41
-1.6105839663
 42
-1.6033396874
  0
ELLIPSE
  5
64B
100
AcDbEntity
  8
DRAFT
100
AcDbEllipse
 62
7
  6
CONTINUOUS
 10
-14.3741937621
 20
-0.0
 30
0.0
 11
-0.0
 21
498.5
 31
0.0
 40
0.0087268678
 41
-4.6798456198
 42
-4.6713537478
  0
ELLIPSE
  5
64C
100
AcDbEntity
  8
0
100
AcDbEllipse
 62
7
  6
CONTINUOUS
 10
-75.1910375036
 20
-0.0
 30
0.0
 11
498.8040429346
 21
-498.1959568395
 31
0.0
 40
0.0348994837
 41
1.4948332235
 42
1.4962434894
  0
ELLIPSE
  5
64D
100
AcDbEntity
  8
0
100
AcDbEllipse
 62
7
  6
CONTINUOUS
 10
-29.3942542824
 20
-0.0
 30
0.0
 11
-0.0
 21
498.5
 31
0.0
 40
0.0174550649
 41
-1.6104212934
 42
-1.5311713602
  0
ELLIPSE
  5
64E
100
AcDbEntity
  8
0
100
AcDbEllipse
 62
7
  6
CONTINUOUS
 10
-75.1910375036
 20
-0.0
 30
0.0
 11
498.8040429346
 21
498.1959568395
 31
0.0
 40
0.0348994837
 41
-1.4962434894
 42
-1.4948332235
  0
ELLIPSE
  5
64F
100
AcDbEntity
  8
DRAFT
100
AcDbEllipse
 62
7
  6
CONTINUOUS
 10
-14.3741937621
 20
-0.0
 30
0.0
 11
-0.0
 21
498.5
 31
0.0
 40
0.0087268678
 41
1.5297610942
 42
1.5382529662
  0
ELLIPSE
  5
650
100
AcDbEntity
  8
DRAFT
100
AcDbEllipse
 62
7
  6
CONTINUOUS
 10
-21.9258062379
 20
-0.0
 30
0.0
 11
-0.0
 21
498.5
 31
0.0
 40
0.0087268678
 41
-1.5382529662
 42
-1.5310086873
  0
ELLIPSE
  5
651
100
AcDbEntity
  8
0
100
AcDbEllipse
 62
7
  6
CONTINUOUS
 10
-21.841254093
 20
21.8441737085
 30
0.0
 11
-0.4160498344
 21
0.2773626446
 31
0.0
 40
0.9999450019
 41
-0.9827748477
 42
0.5879707104
  0
ELLIPSE
  5
652
100
AcDbEntity
  8
0
100
AcDbEllipse
 62
7
  6
CONTINUOUS
 10
6.8840342314
 20
23.2659657686
 30
0.0
 11
-0.0
 21
0.5
 31
0.0
 40
0.0052360356
 41
-0.1976351831
 42
-0.0104719755
  0
ENDSEC
  0
SECTION
  2
OBJECTS
  0
DICTIONARY
  5
C
100
AcDbDictionary
280
0
281
1
  3
ACAD_GROUP
350
D
  3
ACAD_MLINESTYLE
350
17
  3
ACAD_LAYOUT
350
1A
  3
ACAD_PLOTSETTINGS
350
19
  3
ACAD_PLOTSTYLENAME
350
E
  0
DICTIONARY
  5
D
102
{ACAD_REACTORS
330
C
102
}
100
AcDbDictionary
280
0
281
1
  0
ACDBDICTIONARYWDFLT
  5
E
102
{ACAD_REACTORS
330
C
102
}
100
AcDbDictionary
281
1
  3
Normal
350
F
100
AcDbDictionaryWithDefault
340
F
  0
DICTIONARY
  5
17
102
{ACAD_REACTORS
330
C
102
}
100
AcDbDictionary
280
0
281
1
  3
Standard
350
18
  0
DICTIONARY
  5
19
102
{ACAD_REACTORS
330
C
102
}
100
AcDbDictionary
281
1
  0
DICTIONARY
  5
1A
102
{ACAD_REACTORS
330
C
102
}
100
AcDbDictionary
281
1
  3
Model
350
653
  3
Layout1
350
654
  0
ACDBPLACEHOLDER
  5
F
102
{ACAD_REACTORS
330
E
102
}
  0
MLINESTYLE
  5
18
102
{ACAD_REACTORS
330
17
102
}
100
AcDbMlineStyle
  2
STANDARD
 70
0
  3

 62
256
 51
90.0
 52
90.0
 71
2
 49
0.5
 62
256
  6
BYLAYER
 49
-0.5
 62
256
  6
BYLAYER
  0
LAYOUT
  5
653
102
{ACAD_REACTORS
330
1A
102
}
100
AcDbPlotSettings
  1

  2
none_device
  4
ISO_A4_(297.00_x_210.00_MM)
  6

 40
0.0
 41
0.0
 42
0.0
 43
0.0
 44
297.0
 45
210.0
 46
0.0
 47
0.0
 48
0.0
 49
0.0
140
0.0
141
0.0
142
1.0
143
1.0
 70
1024
 72
1
 73
0
 74
0
  7

 75
0
147
1.0
148
0.0
149
0.0
100
AcDbLayout
  1
Model
 70
0
 71
0
 10
0.0
 20
0.0
 11
297.0
 21
210.0
 12
0.0
 22
0.0
 32
0.0
 14
0.0
 24
0.0
 34
0.0
 15
0.0
 25
0.0
 35
0.0
146
0.0
 13
0.0
 23
0.0
 33
0.0
 16
1.0
 26
0.0
 36
0.0
 17
0.0
 27
1.0
 37
0.0
 76
0
330
210
345
0
346
0
  0
LAYOUT
  5
654
102
{ACAD_REACTORS
330
1A
102
}
100
AcDbPlotSettings
  1

  2
none_device
  4
ISO_A4_(297.00_x_210.00_MM)
  6

 40
0.0
 41
0.0
 42
0.0
 43
0.0
 44
297.0
 45
210.0
 46
0.0
 47
0.0
 48
0.0
 49
0.0
140
0.0
141
0.0
142
1.0
143
1.0
 70
0
 72
1
 73
0
 74
0
  7

 75
0
147
1.0
148
0.0
149
0.0
100
AcDbLayout
  1
Layout1
 70
0
 71
1
 10
0.0
 20
0.0
 11
297.0
 21
210.0
 12
0.0
 22
0.0
 32
0.0
 14
0.0
 24
0.0
 34
0.0
 15
0.0
 25
0.0
 35
0.0
146
0.0
 13
0.0
 23
0.0
 33
0.0
 16
1.0
 26
0.0
 36
0.0
 17
0.0
 27
1.0
 37
0.0
 76
0
330
211
345
0
346
0
  0
ENDSEC
  0
EOF
