  0
SECTION
  2
HEADER
  9
$ACADVER
  1
AC1024
  9
$DWGCODEPAGE
  3
ANSI_1252
  9
$EXTMAX
 10
297.0
 20
210.0
 30
0.0
  9
$EXTMIN
 10
0.0
 20
0.0
 30
0.0
  9
$LIMMIN
 10
0.0
 20
0.0
  9
$LIMMAX
 10
297.0
 20
210.0
  9
$VIEWCTR
 10
148.5
 20
105.0
  9
$VIEWSIZE
 40
210.0
  9
$CLAYER
  8
0
  9
$LTSCALE
 40
16.335
  9
$CELTYPE
  6
BYLAYER
  9
$DIMSCALE
 40
1.0
  9
$DIMASZ
 40
3.0
  9
$DIMEXO
 40
0.5
  9
$DIMDLI
 40
11.286
  9
$DIMEXE
 40
1.5
  9
$DIMCEN
 40
2.673
  9
$DIMLFAC
 40
1.0
  9
$DIMBLK
  1
_FILLED
  9
$DIMALT
 70
0
  9
$DIMALTF
 40
0.0393700787
  9
$DIMTXT
 40
3.0
  9
$DIMTOL
 70
1
  9
$DIMLIM
 70
0
  9
$DIMTFAC
 40
1.0
  9
$DIMTP
 40
0.01
  9
$DIMTM
 40
0.01
  9
$DIMGAP
 40
0.625
  9
$DIMDSEP
 70
44
  9
$AUNITS
 70
0
  9
$PDMODE
 70
3
  9
$PDSIZE
 40
3.0
  9
$HANDSEED
  5
6AF
  9
$TILEMODE
 70
1
  9
$MEASUREMENT
 70
1
  9
$INSUNITS
 70
4
  0
ENDSEC
  0
SECTION
  2
CLASSES
  0
CLASS
  1
ACDBDICTIONARYWDFLT
  2
AcDbDictionaryWithDefault
  3
AutoCAD 2000
 90
0
 91
1
280
0
281
0
  0
CLASS
  1
ACDBPLACEHOLDER
  2
AcDbPlaceHolder
  3
AutoCAD 2000
 90
0
 91
1
280
0
281
0
  0
CLASS
  1
LAYOUT
  2
AcDbLayout
  3
AutoCAD 2000
 90
0
 91
0
280
0
281
0
  0
ENDSEC
  0
SECTION
  2
TABLES
  0
TABLE
  2
VPORT
  5
8
100
AcDbSymbolTable
 70
2
  0
VPORT
  5
1F4
100
AcDbSymbolTableRecord
100
AcDbViewportTableRecord
  2
*ACTIVE
 70
0
 10
0.0
 20
0.0
 11
1.0
 21
1.0
 12
148.5
 22
105.0
 13
0.0
 23
0.0
 14
1.0
 24
1.0
 15
0.0
 25
0.0
 16
0.0
 26
0.0
 36
1.0
 17
0.0
 27
0.0
 37
0.0
 40
210.0
 41
1.4142857143
 42
50.0
 43
0.0
 44
0.0
 50
0.0
 51
0.0
 71
0
 72
100
 73
1
 74
1
 75
0
 76
0
 77
0
 78
0
  0
ENDTAB
  0
TABLE
  2
LTYPE
  5
5
100
AcDbSymbolTable
 70
6
  0
LTYPE
  5
14
100
AcDbSymbolTableRecord
100
AcDbLinetypeTableRecord
  2
BYBLOCK
 70
0
  3

 72
65
 73
0
 40
0.0
  0
LTYPE
  5
15
100
AcDbSymbolTableRecord
100
AcDbLinetypeTableRecord
  2
BYLAYER
 70
0
  3

 72
65
 73
0
 40
0.0
  0
LTYPE
  5
16
100
AcDbSymbolTableRecord
100
AcDbLinetypeTableRecord
  2
CONTINUOUS
 70
64
  3
Solid line
 72
65
 73
0
 40
0.0
  0
LTYPE
  5
1F5
100
AcDbSymbolTableRecord
100
AcDbLinetypeTableRecord
  2
CENTER
 70
64
  3
____ _ ____ _ ____ _ ____ _ ____ _ ____ _ ____
 72
65
 73
4
 40
0.6
 49
0.375
 74
0
 49
-0.075
 74
0
 49
0.075
 74
0
 49
-0.075
 74
0
  0
LTYPE
  5
1F6
100
AcDbSymbolTableRecord
100
AcDbLinetypeTableRecord
  2
HIDDEN
 70
64
  3
- - - - - - - - - - - - - - - - - - - -
 72
65
 73
2
 40
0.2
 49
0.1
 74
0
 49
-0.1
 74
0
  0
LTYPE
  5
1F7
100
AcDbSymbolTableRecord
100
AcDbLinetypeTableRecord
  2
PHANTOM
 70
64
  3
_____ _ _ _____ _ _ _____ _ _ _____
 72
65
 73
6
 40
0.8
 49
0.45
 74
0
 49
-0.05
 74
0
 49
0.1
 74
0
 49
-0.05
 74
0
 49
0.1
 74
0
 49
-0.05
 74
0
  0
LTYPE
  5
1F8
100
AcDbSymbolTableRecord
100
AcDbLinetypeTableRecord
  2
DOT
 70
64
  3
. . . . . . . . . . . . . . . . . . . .
 72
65
 73
2
 40
0.2
 49
0.1
 74
0
 49
-0.1
 74
0
  0
LTYPE
  5
1F9
100
AcDbSymbolTableRecord
100
AcDbLinetypeTableRecord
  2
DASHED
 70
64
  3
- - - - - - - - - - - - - - - - - - - -
 72
65
 73
2
 40
0.2
 49
0.1
 74
0
 49
-0.1
 74
0
  0
ENDTAB
  0
TABLE
  2
LAYER
  5
2
100
AcDbSymbolTable
 70
36
  0
LAYER
  5
10
100
AcDbSymbolTableRecord
100
AcDbLayerTableRecord
  2
0
 70
0
 62
7
  6
CONTINUOUS
370
-3
390
F
  0
LAYER
  5
1FA
100
AcDbSymbolTableRecord
100
AcDbLayerTableRecord
  2
DEFAULT_1
 70
0
 62
7
  6
CENTER
370
-3
390
F
  0
LAYER
  5
1FB
100
AcDbSymbolTableRecord
100
AcDbLayerTableRecord
  2
DEFAULT_2
 70
0
 62
7
  6
HIDDEN
370
-3
390
F
  0
LAYER
  5
1FC
100
AcDbSymbolTableRecord
100
AcDbLayerTableRecord
  2
DEFAULT_3
 70
0
 62
7
  6
PHANTOM
370
-3
390
F
  0
LAYER
  5
1FD
100
AcDbSymbolTableRecord
100
AcDbLayerTableRecord
  2
ASSI
 70
0
 62
7
  6
CONTINUOUS
370
-3
390
F
  0
LAYER
  5
1FE
100
AcDbSymbolTableRecord
100
AcDbLayerTableRecord
  2
COORDINATE
 70
0
 62
7
  6
CONTINUOUS
370
-3
390
F
  0
LAYER
  5
1FF
100
AcDbSymbolTableRecord
100
AcDbLayerTableRecord
  2
COORD_ORIGINE
 70
0
 62
7
  6
CONTINUOUS
370
-3
390
F
  0
LAYER
  5
200
100
AcDbSymbolTableRecord
100
AcDbLayerTableRecord
  2
COPY_PUBLISH
 70
0
 62
7
  6
CONTINUOUS
370
-3
390
F
  0
LAYER
  5
201
100
AcDbSymbolTableRecord
100
AcDbLayerTableRecord
  2
COSMETICI
 70
0
 62
7
  6
CONTINUOUS
370
-3
390
F
  0
LAYER
  5
202
100
AcDbSymbolTableRecord
100
AcDbLayerTableRecord
  2
CURVE
 70
0
 62
7
  6
CONTINUOUS
370
-3
390
F
  0
LAYER
  5
203
100
AcDbSymbolTableRecord
100
AcDbLayerTableRecord
  2
DRAFT
 70
0
 62
7
  6
CONTINUOUS
370
-3
390
F
  0
LAYER
  5
204
100
AcDbSymbolTableRecord
100
AcDbLayerTableRecord
  2
IMPORT_AI
 70
0
 62
7
  6
CONTINUOUS
370
-3
390
F
  0
LAYER
  5
205
100
AcDbSymbolTableRecord
100
AcDbLayerTableRecord
  2
IMPORT_IGES
 70
0
 62
7
  6
CONTINUOUS
370
-3
390
F
  0
LAYER
  5
206
100
AcDbSymbolTableRecord
100
AcDbLayerTableRecord
  2
INTF_1
 70
0
 62
7
  6
CONTINUOUS
370
-3
390
F
  0
LAYER
  5
207
100
AcDbSymbolTableRecord
100
AcDbLayerTableRecord
  2
INTF_10
 70
0
 62
7
  6
CONTINUOUS
370
-3
390
F
  0
LAYER
  5
208
100
AcDbSymbolTableRecord
100
AcDbLayerTableRecord
  2
INTF_11
 70
0
 62
7
  6
CONTINUOUS
370
-3
390
F
  0
LAYER
  5
209
100
AcDbSymbolTableRecord
100
AcDbLayerTableRecord
  2
INTF_2
 70
0
 62
7
  6
CONTINUOUS
370
-3
390
F
  0
LAYER
  5
20A
100
AcDbSymbolTableRecord
100
AcDbLayerTableRecord
  2
INTF_3
 70
0
 62
7
  6
CONTINUOUS
370
-3
390
F
  0
LAYER
  5
20B
100
AcDbSymbolTableRecord
100
AcDbLayerTableRecord
  2
INTF_7
 70
0
 62
7
  6
CONTINUOUS
370
-3
390
F
  0
LAYER
  5
20C
100
AcDbSymbolTableRecord
100
AcDbLayerTableRecord
  2
INTF_BLANK
 70
0
 62
7
  6
CONTINUOUS
370
-3
390
F
  0
LAYER
  5
20D
100
AcDbSymbolTableRecord
100
AcDbLayerTableRecord
  2
INTF_CYAN
 70
0
 62
7
  6
CONTINUOUS
370
-3
390
F
  0
LAYER
  5
20E
100
AcDbSymbolTableRecord
100
AcDbLayerTableRecord
  2
INTF_YELLOW
 70
0
 62
7
  6
CONTINUOUS
370
-3
390
F
  0
LAYER
  5
20F
100
AcDbSymbolTableRecord
100
AcDbLayerTableRecord
  2
NOTE
 70
0
 62
7
  6
CONTINUOUS
370
-3
390
F
  0
LAYER
  5
210
100
AcDbSymbolTableRecord
100
AcDbLayerTableRecord
  2
PIANI
 70
0
 62
7
  6
CONTINUOUS
370
-3
390
F
  0
LAYER
  5
211
100
AcDbSymbolTableRecord
100
AcDbLayerTableRecord
  2
PIANI_ORIGINE
 70
0
 62
7
  6
CONTINUOUS
370
-3
390
F
  0
LAYER
  5
212
100
AcDbSymbolTableRecord
100
AcDbLayerTableRecord
  2
PIANI_RIFERIMENTO
 70
0
 62
7
  6
CONTINUOUS
370
-3
390
F
  0
LAYER
  5
213
100
AcDbSymbolTableRecord
100
AcDbLayerTableRecord
  2
PUNTI
 70
0
 62
7
  6
CONTINUOUS
370
-3
390
F
  0
LAYER
  5
214
100
AcDbSymbolTableRecord
100
AcDbLayerTableRecord
  2
RACCORDO
 70
0
 62
7
  6
CONTINUOUS
370
-3
390
F
  0
LAYER
  5
215
100
AcDbSymbolTableRecord
100
AcDbLayerTableRecord
  2
RGB__255__255__255__
 70
0
 62
7
  6
CONTINUOUS
370
-3
390
F
  0
LAYER
  5
216
100
AcDbSymbolTableRecord
100
AcDbLayerTableRecord
  2
RGB____0____0____0__
 70
0
 62
7
  6
CONTINUOUS
370
-3
390
F
  0
LAYER
  5
217
100
AcDbSymbolTableRecord
100
AcDbLayerTableRecord
  2
SIMBOLI
 70
0
 62
7
  6
CONTINUOUS
370
-3
390
F
  0
LAYER
  5
218
100
AcDbSymbolTableRecord
100
AcDbLayerTableRecord
  2
SMUSSO
 70
0
 62
7
  6
CONTINUOUS
370
-3
390
F
  0
LAYER
  5
219
100
AcDbSymbolTableRecord
100
AcDbLayerTableRecord
  2
SNAPLINE
 70
0
 62
7
  6
CONTINUOUS
370
-3
390
F
  0
LAYER
  5
21A
100
AcDbSymbolTableRecord
100
AcDbLayerTableRecord
  2
SUPERFICI
 70
0
 62
7
  6
CONTINUOUS
370
-3
390
F
  0
LAYER
  5
21B
100
AcDbSymbolTableRecord
100
AcDbLayerTableRecord
  2
TRASH
 70
0
 62
7
  6
CONTINUOUS
370
-3
390
F
  0
LAYER
  5
21C
100
AcDbSymbolTableRecord
100
AcDbLayerTableRecord
  2
XSEC_DATUMS
 70
0
 62
7
  6
CONTINUOUS
370
-3
390
F
  0
LAYER
  5
21D
100
AcDbSymbolTableRecord
100
AcDbLayerTableRecord
  2
_BLACK_HOLE
 70
0
 62
7
  6
CONTINUOUS
370
-3
390
F
  0
ENDTAB
  0
TABLE
  2
STYLE
  5
3
100
AcDbSymbolTable
 70
1
  0
STYLE
  5
11
100
AcDbSymbolTableRecord
100
AcDbTextStyleTableRecord
  2
STANDARD
 70
0
 40
0.0
 41
0.8
 50
0.0
 71
0
 42
0.2
  3
txt
  4

  0
STYLE
  5
21E
100
AcDbSymbolTableRecord
100
AcDbTextStyleTableRecord
  2
TEXTSTYLE_1
 70
0
 40
0.0
 41
0.8
 50
0.0
 71
0
 42
0.2
  3
gdt
  4

  0
ENDTAB
  0
TABLE
  2
VIEW
  5
6
100
AcDbSymbolTable
 70
0
  0
ENDTAB
  0
TABLE
  2
UCS
  5
7
100
AcDbSymbolTable
 70
0
  0
ENDTAB
  0
TABLE
  2
APPID
  5
9
100
AcDbSymbolTable
 70
1
  0
APPID
  5
21F
100
AcDbSymbolTableRecord
100
AcDbRegAppTableRecord
  2
ACAD
 70
0
  0
ENDTAB
  0
TABLE
  2
BLOCK_RECORD
  5
1
100
AcDbSymbolTable
 70
0
  0
BLOCK_RECORD
  5
220
100
AcDbSymbolTableRecord
100
AcDbBlockTableRecord
  2
*Model_Space
  0
BLOCK_RECORD
  5
221
100
AcDbSymbolTableRecord
100
AcDbBlockTableRecord
  2
*Paper_Space
  0
BLOCK_RECORD
  5
222
100
AcDbSymbolTableRecord
100
AcDbBlockTableRecord
  2
_FILLED
  0
ENDTAB
  0
TABLE
  2
DIMSTYLE
  5
A
100
AcDbSymbolTable
 70
1
100
AcDbDimStyleTable
 71
0
  0
DIMSTYLE
105
223
100
AcDbSymbolTableRecord
100
AcDbDimStyleTableRecord
  2
STANDARD
 70
0
  3

  4

 40
1.0
 41
3.0
 42
0.5
 43
0.38
 44
1.5
 45
0.0
 46
0.0
 47
0.01
 48
0.01
140
3.0
141
0.0
142
0.0
143
25.4
144
1.0
145
0.0
146
1.0
147
0.625
 71
1
 72
0
 73
0
 74
0
 75
0
 76
0
 77
1
 78
8
 79
2
170
0
171
1
172
0
173
0
174
0
175
0
176
0
177
0
178
0
270
2
179
2
271
2
272
2
273
2
274
2
275
0
280
0
281
0
282
0
283
1
284
8
285
0
286
0
287
3
288
0
340
11
278
44
341
222
342
222
343
222
344
222
  0
ENDTAB
  0
ENDSEC
  0
SECTION
  2
BLOCKS
  0
BLOCK
  5
20
100
AcDbEntity
  8
0
100
AcDbBlockBegin
  2
*Model_Space
 70
0
 10
0.0
 20
0.0
 30
0.0
  3
*Model_Space
  1

  0
ENDBLK
  5
21
100
AcDbEntity
  8
0
100
AcDbBlockEnd
  0
BLOCK
  5
1C
100
AcDbEntity
  8
0
100
AcDbBlockBegin
  2
*Paper_Space
 70
0
 10
0.0
 20
0.0
 30
0.0
  3
*Paper_Space
  1

  0
ENDBLK
  5
1D
100
AcDbEntity
  8
0
100
AcDbBlockEnd
  0
BLOCK
  5
224
100
AcDbEntity
  8
0
100
AcDbBlockBegin
  2
_FILLED
 70
64
 10
0.0
 20
0.0
 30
0.0
  3
_FILLED
  1

  0
SOLID
  5
225
100
AcDbEntity
  8
0
  6
BYBLOCK
 62
0
100
AcDbTrace
 10
0.0
 20
0.0
 30
0.0
 11
-1.0
 21
0.3166666667
 31
0.0
 12
-1.0
 22
-0.3166666667
 32
0.0
 13
-1.0
 23
-0.3166666667
 33
0.0
  0
ENDBLK
  5
226
100
AcDbEntity
  8
0
  6
BYBLOCK
 62
0
100
AcDbBlockEnd
  0
ENDSEC
  0
SECTION
  2
ENTITIES
  0
LINE
  5
227
100
AcDbEntity
  8
0
100
AcDbLine
 62
7
  6
CONTINUOUS
 10
-16.5465640553
 20
20.1990396502
 30
0.0
 11
-15.8464577177
 21
20.9
 31
0.0
  0
LINE
  5
228
100
AcDbEntity
  8
0
100
AcDbLine
 62
7
  6
CONTINUOUS
 10
-14.2523818851
 20
22.3441821702
 30
0.0
 11
-15.1965640553
 21
21.4
 31
0.0
  0
LINE
  5
229
100
AcDbEntity
  8
0
100
AcDbLine
 62
7
  6
CONTINUOUS
 10
-18.0378371875
 20
18.5587268678
 30
0.0
 11
-17.0965640553
 21
19.5
 31
0.0
  0
LINE
  5
22A
100
AcDbEntity
  8
DRAFT
100
AcDbLine
 62
7
  6
CONTINUOUS
 10
-14.2465640553
 20
20.9959955457
 30
0.0
 11
-14.342559601
 21
20.9
 31
0.0
  0
LINE
  5
22B
100
AcDbEntity
  8
0
100
AcDbLine
 62
7
  6
CONTINUOUS
 10
-10.4465640553
 20
22.3441821702
 30
0.0
 11
-10.5041577657
 21
22.3057869048
 31
0.0
  0
LINE
  5
22C
100
AcDbEntity
  8
0
100
AcDbLine
 62
7
  6
CONTINUOUS
 10
-10.0338835037
 20
22.2859700255
 30
0.0
 11
-9.9465640553
 21
22.3441821702
 31
0.0
  0
LINE
  5
22D
100
AcDbEntity
  8
0
100
AcDbLine
 62
7
  6
CONTINUOUS
 10
-10.4465640553
 20
23.8
 30
0.0
 11
-10.5033343888
 21
23.7659383532
 31
0.0
  0
LINE
  5
22E
100
AcDbEntity
  8
0
100
AcDbLine
 62
7
  6
CONTINUOUS
 10
-15.0131335571
 20
20.9917082642
 30
0.0
 11
-15.1965640553
 21
20.9
 31
0.0
  0
LINE
  5
22F
100
AcDbEntity
  8
0
100
AcDbLine
 62
7
  6
CONTINUOUS
 10
-15.0131335571
 20
21.4537354271
 30
0.0
 11
-15.1965640553
 21
21.4
 31
0.0
  0
LINE
  5
230
100
AcDbEntity
  8
0
100
AcDbLine
 62
7
  6
CONTINUOUS
 10
25.8784393717
 20
-24.5
 30
0.0
 11
24.1034325178
 21
-24.5
 31
0.0
  0
LINE
  5
231
100
AcDbEntity
  8
0
100
AcDbLine
 62
7
  6
CONTINUOUS
 10
-17.2715674822
 20
-24.5
 30
0.0
 11
-15.4965606283
 21
-24.5
 31
0.0
  0
LINE
  5
232
100
AcDbEntity
  8
0
100
AcDbLine
 62
7
  6
CONTINUOUS
 10
3.3784393717
 20
-24.5
 30
0.0
 11
1.6034325178
 21
-24.5
 31
0.0
  0
LINE
  5
233
100
AcDbEntity
  8
0
100
AcDbLine
 62
7
  6
CONTINUOUS
 10
5.2284325178
 20
-24.5
 30
0.0
 11
7.0034393717
 21
-24.5
 31
0.0
  0
LINE
  5
234
100
AcDbEntity
  8
0
100
AcDbLine
 62
7
  6
CONTINUOUS
 10
-15.0131335571
 20
-21.4537354271
 30
0.0
 11
-15.1965640553
 21
-21.4
 31
0.0
  0
LINE
  5
235
100
AcDbEntity
  8
0
100
AcDbLine
 62
7
  6
CONTINUOUS
 10
-15.0131335571
 20
-20.9917082642
 30
0.0
 11
-15.1965640553
 21
-20.9
 31
0.0
  0
LINE
  5
236
100
AcDbEntity
  8
0
100
AcDbLine
 62
7
  6
CONTINUOUS
 10
-10.4465640553
 20
-23.8
 30
0.0
 11
-10.5033343888
 21
-23.7659383532
 31
0.0
  0
LINE
  5
237
100
AcDbEntity
  8
0
100
AcDbLine
 62
7
  6
CONTINUOUS
 10
-10.4465640553
 20
-22.3441821702
 30
0.0
 11
-10.5041577657
 21
-22.3057869048
 31
0.0
  0
LINE
  5
238
100
AcDbEntity
  8
0
100
AcDbLine
 62
7
  6
CONTINUOUS
 10
-10.0338835037
 20
-22.2859700255
 30
0.0
 11
-9.9465640553
 21
-22.3441821702
 31
0.0
  0
LINE
  5
239
100
AcDbEntity
  8
0
100
AcDbLine
 62
7
  6
CONTINUOUS
 10
-18.0378371875
 20
-18.5587268678
 30
0.0
 11
-17.0965640553
 21
-19.5
 31
0.0
  0
LINE
  5
23A
100
AcDbEntity
  8
0
100
AcDbLine
 62
7
  6
CONTINUOUS
 10
-14.2523818851
 20
-22.3441821702
 30
0.0
 11
-15.1965640553
 21
-21.4
 31
0.0
  0
LINE
  5
23B
100
AcDbEntity
  8
DRAFT
100
AcDbLine
 62
7
  6
CONTINUOUS
 10
-14.2465640553
 20
-20.9959955457
 30
0.0
 11
-14.342559601
 21
-20.9
 31
0.0
  0
LINE
  5
23C
100
AcDbEntity
  8
0
100
AcDbLine
 62
7
  6
CONTINUOUS
 10
-16.5465640553
 20
-20.1990396502
 30
0.0
 11
-15.8464577177
 21
-20.9
 31
0.0
  0
LINE
  5
23D
100
AcDbEntity
  8
0
100
AcDbLine
 62
7
  6
CONTINUOUS
 10
-9.9465640553
 20
21.7
 30
0.0
 11
-10.0228085198
 21
21.6237555355
 31
0.0
  0
LINE
  5
23E
100
AcDbEntity
  8
0
100
AcDbLine
 62
7
  6
CONTINUOUS
 10
26.1284359447
 20
-23.8
 30
0.0
 11
23.8534359447
 21
-23.8
 31
0.0
  0
LINE
  5
23F
100
AcDbEntity
  8
0
100
AcDbLine
 62
7
  6
CONTINUOUS
 10
-17.5215640553
 20
-23.8
 30
0.0
 11
-15.2465640553
 21
-23.8
 31
0.0
  0
LINE
  5
240
100
AcDbEntity
  8
0
100
AcDbLine
 62
7
  6
CONTINUOUS
 10
-11.3465640553
 20
-23.8
 30
0.0
 11
-2.5465640553
 21
-23.8
 31
0.0
  0
LINE
  5
241
100
AcDbEntity
  8
0
100
AcDbLine
 62
7
  6
CONTINUOUS
 10
3.6284359447
 20
-23.8
 30
0.0
 11
1.3534359447
 21
-23.8
 31
0.0
  0
LINE
  5
242
100
AcDbEntity
  8
0
100
AcDbLine
 62
7
  6
CONTINUOUS
 10
4.9784359447
 20
-23.8
 30
0.0
 11
7.2534359447
 21
-23.8
 31
0.0
  0
LINE
  5
243
100
AcDbEntity
  8
0
100
AcDbLine
 62
7
  6
CONTINUOUS
 10
11.1534359447
 20
-23.8
 30
0.0
 11
19.9534359447
 21
-23.8
 31
0.0
  0
LINE
  5
244
100
AcDbEntity
  8
0
100
AcDbLine
 62
7
  6
CONTINUOUS
 10
-11.3125024085
 20
-23.7659383532
 30
0.0
 11
-10.5033343888
 21
-23.7659383532
 31
0.0
  0
LINE
  5
245
100
AcDbEntity
  8
0
100
AcDbLine
 62
7
  6
CONTINUOUS
 10
-3.3897937217
 20
-23.7659383532
 30
0.0
 11
-2.580625702
 21
-23.7659383532
 31
0.0
  0
LINE
  5
246
100
AcDbEntity
  8
0
100
AcDbLine
 62
7
  6
CONTINUOUS
 10
11.1874975915
 20
-23.7659383532
 30
0.0
 11
11.9966656112
 21
-23.7659383532
 31
0.0
  0
LINE
  5
247
100
AcDbEntity
  8
0
100
AcDbLine
 62
7
  6
CONTINUOUS
 10
19.1102062783
 20
-23.7659383532
 30
0.0
 11
19.919374298
 21
-23.7659383532
 31
0.0
  0
LINE
  5
248
100
AcDbEntity
  8
0
100
AcDbLine
 62
7
  6
CONTINUOUS
 10
26.1231999091
 20
-23.2226497308
 30
0.0
 11
23.8586719803
 21
-23.2226497308
 31
0.0
  0
LINE
  5
249
100
AcDbEntity
  8
0
100
AcDbLine
 62
7
  6
CONTINUOUS
 10
-17.5163280197
 20
-23.2226497308
 30
0.0
 11
-15.2518000909
 21
-23.2226497308
 31
0.0
  0
LINE
  5
24A
100
AcDbEntity
  8
0
100
AcDbLine
 62
7
  6
CONTINUOUS
 10
3.6231999091
 20
-23.2226497308
 30
0.0
 11
1.3586719803
 21
-23.2226497308
 31
0.0
  0
LINE
  5
24B
100
AcDbEntity
  8
0
100
AcDbLine
 62
7
  6
CONTINUOUS
 10
4.9836719803
 20
-23.2226497308
 30
0.0
 11
7.2481999091
 21
-23.2226497308
 31
0.0
  0
LINE
  5
24C
100
AcDbEntity
  8
0
100
AcDbLine
 62
7
  6
CONTINUOUS
 10
-17.546944655
 20
-22.35
 30
0.0
 11
-11.3518000909
 21
-22.35
 31
0.0
  0
LINE
  5
24D
100
AcDbEntity
  8
0
100
AcDbLine
 62
7
  6
CONTINUOUS
 10
-2.5413280197
 20
-22.35
 30
0.0
 11
11.1481999091
 21
-22.35
 31
0.0
  0
LINE
  5
24E
100
AcDbEntity
  8
0
100
AcDbLine
 62
7
  6
CONTINUOUS
 10
19.9586719803
 20
-22.35
 30
0.0
 11
26.1538165445
 21
-22.35
 31
0.0
  0
LINE
  5
24F
100
AcDbEntity
  8
0
100
AcDbLine
 62
7
  6
CONTINUOUS
 10
-17.5378435336
 20
-22.3441821702
 30
0.0
 11
-14.2523818851
 21
-22.3441821702
 31
0.0
  0
LINE
  5
250
100
AcDbEntity
  8
0
100
AcDbLine
 62
7
  6
CONTINUOUS
 10
-10.4465640553
 20
-22.3441821702
 30
0.0
 11
-9.9465640553
 21
-22.3441821702
 31
0.0
  0
LINE
  5
251
100
AcDbEntity
  8
0
100
AcDbLine
 62
7
  6
CONTINUOUS
 10
-3.9465640553
 20
-22.3441821702
 30
0.0
 11
-3.4465640553
 21
-22.3441821702
 31
0.0
  0
LINE
  5
252
100
AcDbEntity
  8
0
100
AcDbLine
 62
7
  6
CONTINUOUS
 10
12.0534359447
 20
-22.3441821702
 30
0.0
 11
12.5534359447
 21
-22.3441821702
 31
0.0
  0
LINE
  5
253
100
AcDbEntity
  8
0
100
AcDbLine
 62
7
  6
CONTINUOUS
 10
18.5534359447
 20
-22.3441821702
 30
0.0
 11
19.0534359447
 21
-22.3441821702
 31
0.0
  0
LINE
  5
254
100
AcDbEntity
  8
0
100
AcDbLine
 62
7
  6
CONTINUOUS
 10
22.8592537745
 20
-22.3441821702
 30
0.0
 11
26.144715423
 21
-22.3441821702
 31
0.0
  0
LINE
  5
255
100
AcDbEntity
  8
0
100
AcDbLine
 62
7
  6
CONTINUOUS
 10
8.2541419399
 20
-22.3383643404
 30
0.0
 11
0.3527299496
 21
-22.3383643404
 31
0.0
  0
LINE
  5
256
100
AcDbEntity
  8
0
100
AcDbLine
 62
250
  6
CONTINUOUS
 10
-14.1871056815
 20
-22.2859700255
 30
0.0
 11
-10.0338835037
 21
-22.2859700255
 31
0.0
  0
LINE
  5
257
100
AcDbEntity
  8
0
100
AcDbLine
 62
250
  6
CONTINUOUS
 10
-3.8592446068
 20
-22.2859700255
 30
0.0
 11
0.2939775709
 21
-22.2859700255
 31
0.0
  0
LINE
  5
258
100
AcDbEntity
  8
0
100
AcDbLine
 62
250
  6
CONTINUOUS
 10
8.3128943185
 20
-22.2859700255
 30
0.0
 11
12.4661164963
 21
-22.2859700255
 31
0.0
  0
LINE
  5
259
100
AcDbEntity
  8
0
100
AcDbLine
 62
250
  6
CONTINUOUS
 10
18.6407553932
 20
-22.2859700255
 30
0.0
 11
22.7939775709
 21
-22.2859700255
 31
0.0
  0
LINE
  5
25A
100
AcDbEntity
  8
0
100
AcDbLine
 62
7
  6
CONTINUOUS
 10
-3.9465640553
 20
-21.7
 30
0.0
 11
-9.9465640553
 21
-21.7
 31
0.0
  0
LINE
  5
25B
100
AcDbEntity
  8
0
100
AcDbLine
 62
7
  6
CONTINUOUS
 10
12.5534359447
 20
-21.7
 30
0.0
 11
18.5534359447
 21
-21.7
 31
0.0
  0
LINE
  5
25C
100
AcDbEntity
  8
0
100
AcDbLine
 62
7
  6
CONTINUOUS
 10
18.6296804092
 20
-21.6237555355
 30
0.0
 11
12.4771914802
 21
-21.6237555355
 31
0.0
  0
LINE
  5
25D
100
AcDbEntity
  8
0
100
AcDbLine
 62
7
  6
CONTINUOUS
 10
-3.8703195908
 20
-21.6237555355
 30
0.0
 11
-10.0228085198
 21
-21.6237555355
 31
0.0
  0
LINE
  5
25E
100
AcDbEntity
  8
0
100
AcDbLine
 62
7
  6
CONTINUOUS
 10
-9.9465640553
 20
-21.7
 30
0.0
 11
-10.0228085198
 21
-21.6237555355
 31
0.0
  0
LINE
  5
25F
100
AcDbEntity
  8
0
100
AcDbLine
 62
7
  6
CONTINUOUS
 10
-18.0814741851
 20
-18.1473460386
 30
0.0
 11
-18.0465640553
 21
-18.5
 31
0.0
  0
LINE
  5
260
100
AcDbEntity
  8
0
100
AcDbLine
 62
7
  6
CONTINUOUS
 10
-20.6965640553
 20
0.6622606125
 30
0.0
 11
-20.6965640553
 21
-0.6877393875
 31
0.0
  0
LINE
  5
261
100
AcDbEntity
  8
0
100
AcDbLine
 62
7
  6
CONTINUOUS
 10
-20.5050746896
 20
-0.6877393875
 30
0.0
 11
-20.5050746896
 21
0.3622606036
 31
0.0
  0
LINE
  5
262
100
AcDbEntity
  8
0
100
AcDbLine
 62
7
  6
CONTINUOUS
 10
-19.3178406008
 20
0.6247606114
 30
0.0
 11
-19.3178406008
 21
0.4372606125
 31
0.0
  0
LINE
  5
263
100
AcDbEntity
  8
0
100
AcDbLine
 62
7
  6
CONTINUOUS
 10
-19.0880533941
 20
0.0622605946
 30
0.0
 11
-19.0880533941
 21
-0.0877393696
 31
0.0
  0
LINE
  5
264
100
AcDbEntity
  8
0
100
AcDbLine
 62
7
  6
CONTINUOUS
 10
-18.0465640553
 20
18.5
 30
0.0
 11
-18.0814741851
 21
18.1473460386
 31
0.0
  0
LINE
  5
265
100
AcDbEntity
  8
0
100
AcDbLine
 62
7
  6
CONTINUOUS
 10
-16.4712854652
 20
9.8807306966
 30
0.0
 11
-16.6056463292
 21
9.6125009822
 31
0.0
  0
LINE
  5
266
100
AcDbEntity
  8
0
100
AcDbLine
 62
250
  6
CONTINUOUS
 10
-14.5132097095
 20
-21.2859869487
 30
0.0
 11
-10.042559601
 21
-21.2859869487
 31
0.0
  0
LINE
  5
267
100
AcDbEntity
  8
0
100
AcDbLine
 62
250
  6
CONTINUOUS
 10
-3.8505685096
 20
-21.2859869487
 30
0.0
 11
0.620081599
 21
-21.2859869487
 31
0.0
  0
LINE
  5
268
100
AcDbEntity
  8
0
100
AcDbLine
 62
250
  6
CONTINUOUS
 10
7.9867902905
 20
-21.2859869487
 30
0.0
 11
12.457440399
 21
-21.2859869487
 31
0.0
  0
LINE
  5
269
100
AcDbEntity
  8
0
100
AcDbLine
 62
250
  6
CONTINUOUS
 10
18.6494314904
 20
-21.2859869487
 30
0.0
 11
23.120081599
 21
-21.2859869487
 31
0.0
  0
LINE
  5
26A
100
AcDbEntity
  8
DRAFT
100
AcDbLine
 62
7
  6
CONTINUOUS
 10
23.120081599
 20
-20.9959955457
 30
0.0
 11
22.8534359447
 21
-20.9959955457
 31
0.0
  0
LINE
  5
26B
100
AcDbEntity
  8
DRAFT
100
AcDbLine
 62
7
  6
CONTINUOUS
 10
-14.5132097095
 20
-20.9959955457
 30
0.0
 11
-14.2465640553
 21
-20.9959955457
 31
0.0
  0
LINE
  5
26C
100
AcDbEntity
  8
DRAFT
100
AcDbLine
 62
7
  6
CONTINUOUS
 10
0.620081599
 20
-20.9959955457
 30
0.0
 11
0.3534359447
 21
-20.9959955457
 31
0.0
  0
LINE
  5
26D
100
AcDbEntity
  8
DRAFT
100
AcDbLine
 62
7
  6
CONTINUOUS
 10
7.9867902905
 20
-20.9959955457
 30
0.0
 11
8.2534359447
 21
-20.9959955457
 31
0.0
  0
LINE
  5
26E
100
AcDbEntity
  8
0
100
AcDbLine
 62
7
  6
CONTINUOUS
 10
1.2859808798
 20
-20.9087268678
 30
0.0
 11
7.3208910097
 21
-20.9087268678
 31
0.0
  0
LINE
  5
26F
100
AcDbEntity
  8
0
100
AcDbLine
 62
7
  6
CONTINUOUS
 10
-15.8464577177
 20
-20.9
 30
0.0
 11
-15.1965640553
 21
-20.9
 31
0.0
  0
LINE
  5
270
100
AcDbEntity
  8
DRAFT
100
AcDbLine
 62
7
  6
CONTINUOUS
 10
-15.1965640553
 20
-20.9
 30
0.0
 11
-14.342559601
 21
-20.9
 31
0.0
  0
LINE
  5
271
100
AcDbEntity
  8
DRAFT
100
AcDbLine
 62
7
  6
CONTINUOUS
 10
0.4494314904
 20
-20.9
 30
0.0
 11
8.157440399
 21
-20.9
 31
0.0
  0
LINE
  5
272
100
AcDbEntity
  8
DRAFT
100
AcDbLine
 62
7
  6
CONTINUOUS
 10
22.9494314904
 20
-20.9
 30
0.0
 11
23.8034359447
 21
-20.9
 31
0.0
  0
LINE
  5
273
100
AcDbEntity
  8
0
100
AcDbLine
 62
7
  6
CONTINUOUS
 10
23.8034359447
 20
-20.9
 30
0.0
 11
24.4533296071
 21
-20.9
 31
0.0
  0
LINE
  5
274
100
AcDbEntity
  8
0
100
AcDbLine
 62
7
  6
CONTINUOUS
 10
-10.042559601
 20
-20.8
 30
0.0
 11
-3.8505685096
 21
-20.8
 31
0.0
  0
LINE
  5
275
100
AcDbEntity
  8
0
100
AcDbLine
 62
7
  6
CONTINUOUS
 10
12.457440399
 20
-20.8
 30
0.0
 11
18.6494314904
 21
-20.8
 31
0.0
  0
LINE
  5
276
100
AcDbEntity
  8
DRAFT
100
AcDbLine
 62
7
  6
CONTINUOUS
 10
-15.6966871647
 20
-20.4503229513
 30
0.0
 11
-14.4174391743
 21
-20.4503229513
 31
0.0
  0
LINE
  5
277
100
AcDbEntity
  8
DRAFT
100
AcDbLine
 62
7
  6
CONTINUOUS
 10
0.5243110638
 20
-20.4503229513
 30
0.0
 11
2.9076029365
 21
-20.4503229513
 31
0.0
  0
LINE
  5
278
100
AcDbEntity
  8
DRAFT
100
AcDbLine
 62
7
  6
CONTINUOUS
 10
5.6992689534
 20
-20.4503229513
 30
0.0
 11
8.0825608257
 21
-20.4503229513
 31
0.0
  0
LINE
  5
279
100
AcDbEntity
  8
DRAFT
100
AcDbLine
 62
7
  6
CONTINUOUS
 10
23.0243110638
 20
-20.4503229513
 30
0.0
 11
24.3035590542
 21
-20.4503229513
 31
0.0
  0
LINE
  5
27A
100
AcDbEntity
  8
0
100
AcDbLine
 62
7
  6
CONTINUOUS
 10
22.0534359447
 20
-20.0
 30
0.0
 11
10.7065601822
 21
-20.0
 31
0.0
  0
LINE
  5
27B
100
AcDbEntity
  8
0
100
AcDbLine
 62
7
  6
CONTINUOUS
 10
-2.0996882927
 20
-20.0
 30
0.0
 11
-13.4465640553
 21
-20.0
 31
0.0
  0
LINE
  5
27C
100
AcDbEntity
  8
0
100
AcDbLine
 62
7
  6
CONTINUOUS
 10
-0.5111428769
 20
-19.9354211783
 30
0.0
 11
-2.2980019624
 21
-19.9354211783
 31
0.0
  0
LINE
  5
27D
100
AcDbEntity
  8
0
100
AcDbLine
 62
7
  6
CONTINUOUS
 10
9.1180147664
 20
-19.9354211783
 30
0.0
 11
10.9048738519
 21
-19.9354211783
 31
0.0
  0
LINE
  5
27E
100
AcDbEntity
  8
DRAFT
100
AcDbLine
 62
7
  6
CONTINUOUS
 10
-13.2754696645
 20
-19.8289056093
 30
0.0
 11
-0.8917671565
 21
-19.8289056093
 31
0.0
  0
LINE
  5
27F
100
AcDbEntity
  8
DRAFT
100
AcDbLine
 62
7
  6
CONTINUOUS
 10
9.4986390456
 20
-19.8289056093
 30
0.0
 11
21.882341554
 21
-19.8289056093
 31
0.0
  0
LINE
  5
280
100
AcDbEntity
  8
DRAFT
100
AcDbLine
 62
7
  6
CONTINUOUS
 10
22.8534359447
 20
-19.7
 30
0.0
 11
22.0534359447
 21
-19.7
 31
0.0
  0
LINE
  5
281
100
AcDbEntity
  8
DRAFT
100
AcDbLine
 62
7
  6
CONTINUOUS
 10
-13.4465640553
 20
-19.7
 30
0.0
 11
-14.2465640553
 21
-19.7
 31
0.0
  0
LINE
  5
282
100
AcDbEntity
  8
0
100
AcDbLine
 62
7
  6
CONTINUOUS
 10
-16.5465640553
 20
-19.5
 30
0.0
 11
-17.0965640553
 21
-19.5
 31
0.0
  0
LINE
  5
283
100
AcDbEntity
  8
0
100
AcDbLine
 62
7
  6
CONTINUOUS
 10
25.1534359447
 20
-19.5
 30
0.0
 11
25.7034359447
 21
-19.5
 31
0.0
  0
LINE
  5
284
100
AcDbEntity
  8
0
100
AcDbLine
 62
7
  6
CONTINUOUS
 10
-16.5302895919
 20
-9.7425102136
 30
0.0
 11
-16.435200483
 21
-9.9464294657
 31
0.0
  0
LINE
  5
285
100
AcDbEntity
  8
0
100
AcDbLine
 62
7
  6
CONTINUOUS
 10
-18.0465640553
 20
18.5
 30
0.0
 11
-18.0291103197
 21
18.1473460386
 31
0.0
  0
LINE
  5
286
100
AcDbEntity
  8
0
100
AcDbLine
 62
7
  6
CONTINUOUS
 10
-17.5215640553
 20
23.8
 30
0.0
 11
-17.5163280197
 21
23.2226497308
 31
0.0
  0
LINE
  5
287
100
AcDbEntity
  8
0
100
AcDbLine
 62
7
  6
CONTINUOUS
 10
-18.8965640553
 20
-0.1252393875
 30
0.0
 11
-18.8965640553
 21
0.0247606304
 31
0.0
  0
LINE
  5
288
100
AcDbEntity
  8
0
100
AcDbLine
 62
7
  6
CONTINUOUS
 10
-18.0814741851
 20
18.1473460386
 30
0.0
 11
-18.0814741851
 21
12.0933218991
 31
0.0
  0
LINE
  5
289
100
AcDbEntity
  8
0
100
AcDbLine
 62
7
  6
CONTINUOUS
 10
-18.0814741851
 20
11.0998441173
 30
0.0
 11
-18.0814741851
 21
10.0203523544
 31
0.0
  0
LINE
  5
28A
100
AcDbEntity
  8
0
100
AcDbLine
 62
7
  6
CONTINUOUS
 10
-18.0814741851
 20
8.7831881422
 30
0.0
 11
-18.0814741851
 21
2.0911974381
 31
0.0
  0
LINE
  5
28B
100
AcDbEntity
  8
0
100
AcDbLine
 62
7
  6
CONTINUOUS
 10
-18.0814741851
 20
-2.0911974382
 30
0.0
 11
-18.0814741851
 21
-8.7831881422
 31
0.0
  0
LINE
  5
28C
100
AcDbEntity
  8
0
100
AcDbLine
 62
7
  6
CONTINUOUS
 10
-18.0814741851
 20
-10.0203523544
 30
0.0
 11
-18.0814741851
 21
-11.0998441173
 31
0.0
  0
LINE
  5
28D
100
AcDbEntity
  8
0
100
AcDbLine
 62
7
  6
CONTINUOUS
 10
-18.0814741851
 20
-12.0933218991
 30
0.0
 11
-18.0814741851
 21
-18.1473460386
 31
0.0
  0
LINE
  5
28E
100
AcDbEntity
  8
0
100
AcDbLine
 62
7
  6
CONTINUOUS
 10
-18.0465640553
 20
21.850016923
 30
0.0
 11
-18.0465640553
 21
18.5
 31
0.0
  0
LINE
  5
28F
100
AcDbEntity
  8
0
100
AcDbLine
 62
7
  6
CONTINUOUS
 10
-18.0465640553
 20
-21.850016923
 30
0.0
 11
-18.0465640553
 21
-18.5
 31
0.0
  0
LINE
  5
290
100
AcDbEntity
  8
0
100
AcDbLine
 62
7
  6
CONTINUOUS
 10
-18.0378371875
 20
21.8441990932
 30
0.0
 11
-18.0378371875
 21
18.5587268678
 31
0.0
  0
LINE
  5
291
100
AcDbEntity
  8
0
100
AcDbLine
 62
7
  6
CONTINUOUS
 10
-18.0378371875
 20
-18.5587268678
 30
0.0
 11
-18.0378371875
 21
-21.8441990932
 31
0.0
  0
LINE
  5
292
100
AcDbEntity
  8
0
100
AcDbLine
 62
7
  6
CONTINUOUS
 10
-18.0291103197
 20
18.5674537356
 30
0.0
 11
-18.0291103197
 21
18.1473460386
 31
0.0
  0
LINE
  5
293
100
AcDbEntity
  8
0
100
AcDbLine
 62
7
  6
CONTINUOUS
 10
-18.0291103197
 20
-18.1473460386
 30
0.0
 11
-18.0291103197
 21
-18.5674537356
 31
0.0
  0
LINE
  5
294
100
AcDbEntity
  8
0
100
AcDbLine
 62
7
  6
CONTINUOUS
 10
-17.5215640553
 20
24.2500034269
 30
0.0
 11
-17.5215640553
 21
23.8
 31
0.0
  0
LINE
  5
295
100
AcDbEntity
  8
0
100
AcDbLine
 62
7
  6
CONTINUOUS
 10
-17.5215640553
 20
-23.8
 30
0.0
 11
-17.5215640553
 21
-24.2500034269
 31
0.0
  0
LINE
  5
296
100
AcDbEntity
  8
0
100
AcDbLine
 62
7
  6
CONTINUOUS
 10
-17.5163280197
 20
23.2226497308
 30
0.0
 11
-17.5163280197
 21
22.35
 31
0.0
  0
LINE
  5
297
100
AcDbEntity
  8
0
100
AcDbLine
 62
7
  6
CONTINUOUS
 10
-17.5163280197
 20
-22.35
 30
0.0
 11
-17.5163280197
 21
-23.2226497308
 31
0.0
  0
LINE
  5
298
100
AcDbEntity
  8
0
100
AcDbLine
 62
7
  6
CONTINUOUS
 10
-17.5163280197
 20
-23.2226497308
 30
0.0
 11
-17.5215640553
 21
-23.8
 31
0.0
  0
LINE
  5
299
100
AcDbEntity
  8
0
100
AcDbLine
 62
7
  6
CONTINUOUS
 10
-18.0291103197
 20
-18.1473460386
 30
0.0
 11
-18.0465640553
 21
-18.5
 31
0.0
  0
LINE
  5
29A
100
AcDbEntity
  8
0
100
AcDbLine
 62
7
  6
CONTINUOUS
 10
-15.7140483405
 20
8.998117571
 30
0.0
 11
-15.6817618465
 21
9.2335947741
 31
0.0
  0
LINE
  5
29B
100
AcDbEntity
  8
DRAFT
100
AcDbLine
 62
7
  6
CONTINUOUS
 10
-14.4174391743
 20
20.4503229513
 30
0.0
 11
-14.342559601
 21
20.9
 31
0.0
  0
LINE
  5
29C
100
AcDbEntity
  8
0
100
AcDbLine
 62
7
  6
CONTINUOUS
 10
-18.934861923
 20
-0.3502393875
 30
0.0
 11
-18.8965640553
 21
-0.1252393875
 31
0.0
  0
LINE
  5
29D
100
AcDbEntity
  8
0
100
AcDbLine
 62
7
  6
CONTINUOUS
 10
-19.0880533941
 20
-0.0877393696
 30
0.0
 11
-19.1263512619
 21
-0.2752393517
 31
0.0
  0
LINE
  5
29E
100
AcDbEntity
  8
0
100
AcDbLine
 62
7
  6
CONTINUOUS
 10
-16.6056463292
 20
9.6125009822
 30
0.0
 11
-16.6385846752
 21
9.4612336769
 31
0.0
  0
LINE
  5
29F
100
AcDbEntity
  8
0
100
AcDbLine
 62
7
  6
CONTINUOUS
 10
-16.4673742391
 20
9.3754714332
 30
0.0
 11
-16.4176407761
 21
9.5602674633
 31
0.0
  0
LINE
  5
2A0
100
AcDbEntity
  8
0
100
AcDbLine
 62
7
  6
CONTINUOUS
 10
-15.016974563
 20
9.2780663951
 30
0.0
 11
-15.066708014
 21
9.0932703889
 31
0.0
  0
LINE
  5
2A1
100
AcDbEntity
  8
0
100
AcDbLine
 62
7
  6
CONTINUOUS
 10
-14.9122926889
 20
8.9739794774
 30
0.0
 11
-14.8289690339
 21
9.2258328881
 31
0.0
  0
LINE
  5
2A2
100
AcDbEntity
  8
0
100
AcDbLine
 62
7
  6
CONTINUOUS
 10
-16.4176407761
 20
9.5602674633
 30
0.0
 11
-16.31687014
 21
9.7614397251
 31
0.0
  0
LINE
  5
2A3
100
AcDbEntity
  8
0
100
AcDbLine
 62
7
  6
CONTINUOUS
 10
-15.9434665558
 20
9.9938121402
 30
0.0
 11
-15.8594910278
 21
10.1614556877
 31
0.0
  0
LINE
  5
2A4
100
AcDbEntity
  8
0
100
AcDbLine
 62
7
  6
CONTINUOUS
 10
-15.7515497706
 20
9.4363193698
 30
0.0
 11
-15.8187301786
 21
9.3022045606
 31
0.0
  0
LINE
  5
2A5
100
AcDbEntity
  8
0
100
AcDbLine
 62
7
  6
CONTINUOUS
 10
-15.6817618465
 20
9.2335947741
 30
0.0
 11
-15.6145814385
 21
9.3677095833
 31
0.0
  0
LINE
  5
2A6
100
AcDbEntity
  8
0
100
AcDbLine
 62
7
  6
CONTINUOUS
 10
-15.0202339146
 20
9.6991157383
 30
0.0
 11
-15.1042094442
 21
9.5314721878
 31
0.0
  0
LINE
  5
2A7
100
AcDbEntity
  8
0
100
AcDbLine
 62
7
  6
CONTINUOUS
 10
-15.066708014
 20
9.0932703889
 30
0.0
 11
-15.133888422
 21
8.9591555797
 31
0.0
  0
LINE
  5
2A8
100
AcDbEntity
  8
0
100
AcDbLine
 62
7
  6
CONTINUOUS
 10
-14.9458829169
 20
8.9069220248
 30
0.0
 11
-14.9122926889
 21
8.9739794774
 31
0.0
  0
LINE
  5
2A9
100
AcDbEntity
  8
0
100
AcDbLine
 62
7
  6
CONTINUOUS
 10
-19.0114576586
 20
-0.5002393517
 30
0.0
 11
-18.934861923
 21
-0.3502393875
 31
0.0
  0
LINE
  5
2AA
100
AcDbEntity
  8
0
100
AcDbLine
 62
7
  6
CONTINUOUS
 10
-15.09769075
 20
8.6893734834
 30
0.0
 11
-14.9458829169
 21
8.9069220248
 31
0.0
  0
LINE
  5
2AB
100
AcDbEntity
  8
0
100
AcDbLine
 62
7
  6
CONTINUOUS
 10
-15.8187301786
 20
9.3022045606
 30
0.0
 11
-15.9537429217
 21
9.1181846975
 31
0.0
  0
LINE
  5
2AC
100
AcDbEntity
  8
0
100
AcDbLine
 62
7
  6
CONTINUOUS
 10
-16.31687014
 20
9.7614397251
 30
0.0
 11
-16.198652523
 21
9.9119308379
 31
0.0
  0
LINE
  5
2AD
100
AcDbEntity
  8
0
100
AcDbLine
 62
7
  6
CONTINUOUS
 10
-15.133888422
 20
8.9591555797
 30
0.0
 11
-15.2521060271
 21
8.8086644909
 31
0.0
  0
LINE
  5
2AE
100
AcDbEntity
  8
0
100
AcDbLine
 62
7
  6
CONTINUOUS
 10
-16.3698629591
 20
9.9976930816
 30
0.0
 11
-16.4712854652
 21
9.8807306966
 31
0.0
  0
LINE
  5
2AF
100
AcDbEntity
  8
0
100
AcDbLine
 62
7
  6
CONTINUOUS
 10
-2.5811123374
 20
22.3057951078
 30
0.0
 11
-2.5413280197
 21
22.35
 31
0.0
  0
LINE
  5
2B0
100
AcDbEntity
  8
0
100
AcDbLine
 62
7
  6
CONTINUOUS
 10
-2.5465640553
 20
23.8
 30
0.0
 11
-2.580625702
 21
23.7659383532
 31
0.0
  0
LINE
  5
2B1
100
AcDbEntity
  8
0
100
AcDbLine
 62
7
  6
CONTINUOUS
 10
-16.0370665647
 20
8.8663313108
 30
0.0
 11
-15.8846068526
 21
8.9996700009
 31
0.0
  0
LINE
  5
2B2
100
AcDbEntity
  8
0
100
AcDbLine
 62
7
  6
CONTINUOUS
 10
-16.234198364
 20
10.0975030171
 30
0.0
 11
-16.3698629591
 21
9.9976930816
 31
0.0
  0
LINE
  5
2B3
100
AcDbEntity
  8
0
100
AcDbLine
 62
7
  6
CONTINUOUS
 10
-16.198652523
 20
9.9119308379
 30
0.0
 11
-16.1308202359
 21
9.9618357959
 31
0.0
  0
LINE
  5
2B4
100
AcDbEntity
  8
0
100
AcDbLine
 62
7
  6
CONTINUOUS
 10
-16.115328868
 20
10.1637842487
 30
0.0
 11
-16.234198364
 21
10.0975030171
 31
0.0
  0
LINE
  5
2B5
100
AcDbEntity
  8
0
100
AcDbLine
 62
7
  6
CONTINUOUS
 10
7.4868664429
 20
21.4537354271
 30
0.0
 11
7.3208910097
 21
21.4051134101
 31
0.0
  0
LINE
  5
2B6
100
AcDbEntity
  8
0
100
AcDbLine
 62
7
  6
CONTINUOUS
 10
26.6883460746
 20
-18.1473460386
 30
0.0
 11
26.6359822092
 21
-18.1473460386
 31
0.0
  0
LINE
  5
2B7
100
AcDbEntity
  8
0
100
AcDbLine
 62
7
  6
CONTINUOUS
 10
-18.0814741851
 20
-18.1473460386
 30
0.0
 11
-18.0291103197
 21
-18.1473460386
 31
0.0
  0
LINE
  5
2B8
100
AcDbEntity
  8
RACCORDO
100
AcDbLine
 62
7
  6
CONTINUOUS
 10
-0.1965640553
 20
-17.5
 30
0.0
 11
8.8034359447
 21
-17.5
 31
0.0
  0
LINE
  5
2B9
100
AcDbEntity
  8
ASSI
100
AcDbLine
 62
7
  6
CONTINUOUS
 10
19.4604909447
 20
-16.875
 30
0.0
 11
20.9209919447
 21
-16.875
 31
0.0
  0
LINE
  5
2BA
100
AcDbEntity
  8
0
100
AcDbLine
 62
7
  6
CONTINUOUS
 10
-7.9235640553
 20
-16.78
 30
0.0
 11
-7.5995640553
 21
-16.78
 31
0.0
  0
LINE
  5
2BB
100
AcDbEntity
  8
RACCORDO
100
AcDbLine
 62
250
  6
CONTINUOUS
 10
8.8034359447
 20
-16.6467688363
 30
0.0
 11
8.3034359447
 21
-16.6467688363
 31
0.0
  0
LINE
  5
2BC
100
AcDbEntity
  8
RACCORDO
100
AcDbLine
 62
250
  6
CONTINUOUS
 10
-0.1965640553
 20
-16.6467688363
 30
0.0
 11
0.3034359447
 21
-16.6467688363
 31
0.0
  0
LINE
  5
2BD
100
AcDbEntity
  8
0
100
AcDbLine
 62
7
  6
CONTINUOUS
 10
7.4868664429
 20
-21.4537354271
 30
0.0
 11
7.3208910097
 21
-21.4051134101
 31
0.0
  0
LINE
  5
2BE
100
AcDbEntity
  8
0
100
AcDbLine
 62
7
  6
CONTINUOUS
 10
-2.5465640553
 20
-23.8
 30
0.0
 11
-2.580625702
 21
-23.7659383532
 31
0.0
  0
LINE
  5
2BF
100
AcDbEntity
  8
0
100
AcDbLine
 62
7
  6
CONTINUOUS
 10
-9.6262700553
 20
-16.169706
 30
0.0
 11
-6.8662700553
 21
-18.929706
 31
0.0
  0
LINE
  5
2C0
100
AcDbEntity
  8
0
100
AcDbLine
 62
7
  6
CONTINUOUS
 10
-6.6965640553
 20
-18.76
 30
0.0
 11
-9.4565640553
 21
-16.0
 31
0.0
  0
LINE
  5
2C1
100
AcDbEntity
  8
0
100
AcDbLine
 62
7
  6
CONTINUOUS
 10
-2.5413280197
 20
-22.35
 30
0.0
 11
-2.5811123374
 21
-22.3057951078
 31
0.0
  0
LINE
  5
2C2
100
AcDbEntity
  8
0
100
AcDbLine
 62
7
  6
CONTINUOUS
 10
-18.934861923
 20
0.2872606215
 30
0.0
 11
-19.0114576586
 21
0.4372606125
 31
0.0
  0
LINE
  5
2C3
100
AcDbEntity
  8
0
100
AcDbLine
 62
7
  6
CONTINUOUS
 10
-14.8038464664
 20
-9.1857165946
 30
0.0
 11
-14.8989355753
 21
-8.9817973425
 31
0.0
  0
LINE
  5
2C4
100
AcDbEntity
  8
0
100
AcDbLine
 62
7
  6
CONTINUOUS
 10
-19.1263512619
 20
0.2497606036
 30
0.0
 11
-19.0880533941
 21
0.0622605946
 31
0.0
  0
LINE
  5
2C5
100
AcDbEntity
  8
DRAFT
100
AcDbLine
 62
7
  6
CONTINUOUS
 10
-14.342559601
 20
-20.9
 30
0.0
 11
-14.4174391743
 21
-20.4503229513
 31
0.0
  0
LINE
  5
2C6
100
AcDbEntity
  8
0
100
AcDbLine
 62
7
  6
CONTINUOUS
 10
-18.8965640553
 20
0.0247606304
 30
0.0
 11
-18.934861923
 21
0.2872606215
 31
0.0
  0
LINE
  5
2C7
100
AcDbEntity
  8
DRAFT
100
AcDbLine
 62
7
  6
CONTINUOUS
 10
-14.2465640553
 20
-19.7
 30
0.0
 11
-14.4187979545
 21
-16.220001889
 31
0.0
  0
LINE
  5
2C8
100
AcDbEntity
  8
0
100
AcDbLine
 62
7
  6
CONTINUOUS
 10
-15.2518000909
 20
-23.2226497308
 30
0.0
 11
-15.2465640553
 21
-23.8
 31
0.0
  0
LINE
  5
2C9
100
AcDbEntity
  8
0
100
AcDbLine
 62
7
  6
CONTINUOUS
 10
-16.6385846752
 20
9.4612336769
 30
0.0
 11
-16.6372809082
 21
9.2928139699
 31
0.0
  0
LINE
  5
2CA
100
AcDbEntity
  8
0
100
AcDbLine
 62
7
  6
CONTINUOUS
 10
-16.466722336
 20
9.2912616299
 30
0.0
 11
-16.4673742391
 21
9.3754714332
 31
0.0
  0
LINE
  5
2CB
100
AcDbEntity
  8
0
100
AcDbLine
 62
7
  6
CONTINUOUS
 10
-14.8289690339
 20
9.2258328881
 30
0.0
 11
-14.8302727799
 21
9.3942526146
 31
0.0
  0
LINE
  5
2CC
100
AcDbEntity
  8
0
100
AcDbLine
 62
7
  6
CONTINUOUS
 10
-16.5640191202
 20
-19.5
 30
0.0
 11
-16.5640191202
 21
-11.3857209814
 31
0.0
  0
LINE
  5
2CD
100
AcDbEntity
  8
0
100
AcDbLine
 62
7
  6
CONTINUOUS
 10
-16.5640191202
 20
-8.0755872245
 30
0.0
 11
-16.5640191202
 21
-2.1
 31
0.0
  0
LINE
  5
2CE
100
AcDbEntity
  8
0
100
AcDbLine
 62
7
  6
CONTINUOUS
 10
-16.5640191202
 20
2.1
 30
0.0
 11
-16.5640191202
 21
8.0755872245
 31
0.0
  0
LINE
  5
2CF
100
AcDbEntity
  8
0
100
AcDbLine
 62
7
  6
CONTINUOUS
 10
-16.5640191202
 20
11.3857209814
 30
0.0
 11
-16.5640191202
 21
19.5
 31
0.0
  0
LINE
  5
2D0
100
AcDbEntity
  8
0
100
AcDbLine
 62
7
  6
CONTINUOUS
 10
-16.5465640553
 20
20.1990396502
 30
0.0
 11
-16.5465640553
 21
19.5
 31
0.0
  0
LINE
  5
2D1
100
AcDbEntity
  8
0
100
AcDbLine
 62
7
  6
CONTINUOUS
 10
-16.5465640553
 20
-19.5
 30
0.0
 11
-16.5465640553
 21
-20.1990396502
 31
0.0
  0
LINE
  5
2D2
100
AcDbEntity
  8
0
100
AcDbLine
 62
7
  6
CONTINUOUS
 10
-15.4465640553
 20
-5.830599
 30
0.0
 11
-15.4465640553
 21
-6.467712
 31
0.0
  0
LINE
  5
2D3
100
AcDbEntity
  8
0
100
AcDbLine
 62
7
  6
CONTINUOUS
 10
-15.4465640553
 20
-10.864643127
 30
0.0
 11
-15.4465640553
 21
-11.232418
 31
0.0
  0
LINE
  5
2D4
100
AcDbEntity
  8
0
100
AcDbLine
 62
7
  6
CONTINUOUS
 10
-15.2518000909
 20
23.2226497308
 30
0.0
 11
-15.2518000909
 21
22.35
 31
0.0
  0
LINE
  5
2D5
100
AcDbEntity
  8
0
100
AcDbLine
 62
7
  6
CONTINUOUS
 10
-15.2518000909
 20
-22.35
 30
0.0
 11
-15.2518000909
 21
-23.2226497308
 31
0.0
  0
LINE
  5
2D6
100
AcDbEntity
  8
0
100
AcDbLine
 62
7
  6
CONTINUOUS
 10
-15.2465640553
 20
-24.2500034269
 30
0.0
 11
-15.2465640553
 21
-23.8
 31
0.0
  0
LINE
  5
2D7
100
AcDbEntity
  8
0
100
AcDbLine
 62
7
  6
CONTINUOUS
 10
-15.2465640553
 20
23.8
 30
0.0
 11
-15.2465640553
 21
24.2500034269
 31
0.0
  0
LINE
  5
2D8
100
AcDbEntity
  8
0
100
AcDbLine
 62
7
  6
CONTINUOUS
 10
-15.1965640553
 20
-21.4
 30
0.0
 11
-15.1965640553
 21
-20.9
 31
0.0
  0
LINE
  5
2D9
100
AcDbEntity
  8
0
100
AcDbLine
 62
7
  6
CONTINUOUS
 10
-15.1965640553
 20
20.9
 30
0.0
 11
-15.1965640553
 21
21.4
 31
0.0
  0
LINE
  5
2DA
100
AcDbEntity
  8
0
100
AcDbLine
 62
7
  6
CONTINUOUS
 10
-15.0311050553
 20
-10.695689
 30
0.0
 11
-15.0311050553
 21
-10.6709114137
 31
0.0
  0
LINE
  5
2DB
100
AcDbEntity
  8
0
100
AcDbLine
 62
250
  6
CONTINUOUS
 10
-15.0131335571
 20
-21.4537354271
 30
0.0
 11
-15.0131335571
 21
-20.9917082642
 31
0.0
  0
LINE
  5
2DC
100
AcDbEntity
  8
0
100
AcDbLine
 62
250
  6
CONTINUOUS
 10
-15.0131335571
 20
20.9917082642
 30
0.0
 11
-15.0131335571
 21
21.4537354271
 31
0.0
  0
LINE
  5
2DD
100
AcDbEntity
  8
0
100
AcDbLine
 62
250
  6
CONTINUOUS
 10
-14.5132097095
 20
-21.2859869487
 30
0.0
 11
-14.5132097095
 21
-20.9959955457
 31
0.0
  0
LINE
  5
2DE
100
AcDbEntity
  8
0
100
AcDbLine
 62
250
  6
CONTINUOUS
 10
-14.5132097095
 20
20.9959955457
 30
0.0
 11
-14.5132097095
 21
21.2859869487
 31
0.0
  0
LINE
  5
2DF
100
AcDbEntity
  8
0
100
AcDbLine
 62
7
  6
CONTINUOUS
 10
-14.3247490553
 20
-10.5326776491
 30
0.0
 11
-14.3247490553
 21
-10.695689
 31
0.0
  0
LINE
  5
2E0
100
AcDbEntity
  8
DRAFT
100
AcDbLine
 62
7
  6
CONTINUOUS
 10
-14.2465640553
 20
20.9959955457
 30
0.0
 11
-14.2465640553
 21
19.7
 31
0.0
  0
LINE
  5
2E1
100
AcDbEntity
  8
DRAFT
100
AcDbLine
 62
7
  6
CONTINUOUS
 10
-14.2465640553
 20
-19.7
 30
0.0
 11
-14.2465640553
 21
-20.9959955457
 31
0.0
  0
LINE
  5
2E2
100
AcDbEntity
  8
0
100
AcDbLine
 62
7
  6
CONTINUOUS
 10
-15.2465640553
 20
23.8
 30
0.0
 11
-15.2518000909
 21
23.2226497308
 31
0.0
  0
LINE
  5
2E3
100
AcDbEntity
  8
DRAFT
100
AcDbLine
 62
7
  6
CONTINUOUS
 10
-14.2465640553
 20
19.7
 30
0.0
 11
-14.4187979545
 21
16.220001889
 31
0.0
  0
LINE
  5
2E4
100
AcDbEntity
  8
0
100
AcDbLine
 62
7
  6
CONTINUOUS
 10
-10.9817330553
 20
17.921902
 30
0.0
 11
-11.5317100553
 21
15.99478
 31
0.0
  0
LINE
  5
2E5
100
AcDbEntity
  8
0
100
AcDbLine
 62
7
  6
CONTINUOUS
 10
-11.2976610553
 20
15.122199
 30
0.0
 11
-10.3977240553
 21
17.921902
 31
0.0
  0
LINE
  5
2E6
100
AcDbEntity
  8
0
100
AcDbLine
 62
7
  6
CONTINUOUS
 10
-19.1263512619
 20
-0.2752393517
 30
0.0
 11
-19.2029469975
 21
-0.3877393517
 31
0.0
  0
LINE
  5
2E7
100
AcDbEntity
  8
RACCORDO
100
AcDbLine
 62
7
  6
CONTINUOUS
 10
-11.2529132414
 20
9.1923881554
 30
0.0
 11
-4.8889522107
 21
15.5563491861
 31
0.0
  0
LINE
  5
2E8
100
AcDbEntity
  8
0
100
AcDbLine
 62
7
  6
CONTINUOUS
 10
0.2939775709
 20
22.2859700255
 30
0.0
 11
0.3527299496
 21
22.3383643404
 31
0.0
  0
LINE
  5
2E9
100
AcDbEntity
  8
0
100
AcDbLine
 62
7
  6
CONTINUOUS
 10
-15.2333553241
 20
8.5895635675
 30
0.0
 11
-15.09769075
 21
8.6893734834
 31
0.0
  0
LINE
  5
2EA
100
AcDbEntity
  8
0
100
AcDbLine
 62
7
  6
CONTINUOUS
 10
11.9966656112
 20
23.7659383532
 30
0.0
 11
12.0534359447
 21
23.8
 31
0.0
  0
LINE
  5
2EB
100
AcDbEntity
  8
0
100
AcDbLine
 62
7
  6
CONTINUOUS
 10
-15.9537429217
 20
9.1181846975
 30
0.0
 11
-16.0726124058
 21
9.0519034599
 31
0.0
  0
LINE
  5
2EC
100
AcDbEntity
  8
0
100
AcDbLine
 62
7
  6
CONTINUOUS
 10
-15.2521060271
 20
8.8086644909
 30
0.0
 11
-15.3709755112
 21
8.7423832533
 31
0.0
  0
LINE
  5
2ED
100
AcDbEntity
  8
0
100
AcDbLine
 62
7
  6
CONTINUOUS
 10
7.4868664429
 20
20.9917082642
 30
0.0
 11
7.3208910097
 21
20.9087268678
 31
0.0
  0
LINE
  5
2EE
100
AcDbEntity
  8
0
100
AcDbLine
 62
7
  6
CONTINUOUS
 10
-16.1308202359
 20
9.9618357959
 30
0.0
 11
-16.0287458299
 21
9.9945883192
 31
0.0
  0
LINE
  5
2EF
100
AcDbEntity
  8
DRAFT
100
AcDbLine
 62
7
  6
CONTINUOUS
 10
-14.4187979545
 20
-16.220001889
 30
0.0
 11
-13.274330156
 21
-16.220001889
 31
0.0
  0
LINE
  5
2F0
100
AcDbEntity
  8
DRAFT
100
AcDbLine
 62
7
  6
CONTINUOUS
 10
21.8812020455
 20
-16.220001889
 30
0.0
 11
23.025669844
 21
-16.220001889
 31
0.0
  0
LINE
  5
2F1
100
AcDbEntity
  8
ASSI
100
AcDbLine
 62
7
  6
CONTINUOUS
 10
20.9209919447
 20
-16.125
 30
0.0
 11
19.4604878327
 21
-16.125
 31
0.0
  0
LINE
  5
2F2
100
AcDbEntity
  8
0
100
AcDbLine
 62
7
  6
CONTINUOUS
 10
7.4868664429
 20
-20.9917082642
 30
0.0
 11
7.3208910097
 21
-20.9087268678
 31
0.0
  0
LINE
  5
2F3
100
AcDbEntity
  8
0
100
AcDbLine
 62
7
  6
CONTINUOUS
 10
11.9966656112
 20
-23.7659383532
 30
0.0
 11
12.0534359447
 21
-23.8
 31
0.0
  0
LINE
  5
2F4
100
AcDbEntity
  8
0
100
AcDbLine
 62
7
  6
CONTINUOUS
 10
0.2939775709
 20
-22.2859700255
 30
0.0
 11
0.3527299496
 21
-22.3383643404
 31
0.0
  0
LINE
  5
2F5
100
AcDbEntity
  8
0
100
AcDbLine
 62
7
  6
CONTINUOUS
 10
-0.5111428769
 20
-19.9354211783
 30
0.0
 11
-0.5272588922
 21
-19.9193051631
 31
0.0
  0
LINE
  5
2F6
100
AcDbEntity
  8
RACCORDO
100
AcDbLine
 62
7
  6
CONTINUOUS
 10
-4.8889522107
 20
-15.5563491861
 30
0.0
 11
-11.2529132414
 21
-9.1923881554
 31
0.0
  0
LINE
  5
2F7
100
AcDbEntity
  8
0
100
AcDbLine
 62
7
  6
CONTINUOUS
 10
-19.5476279147
 20
-0.3877393517
 30
0.0
 11
-20.5050746896
 21
0.6622606125
 31
0.0
  0
LINE
  5
2F8
100
AcDbEntity
  8
0
100
AcDbLine
 62
7
  6
CONTINUOUS
 10
-20.5050746896
 20
0.3622606036
 30
0.0
 11
-19.6625215181
 21
-0.5752393875
 31
0.0
  0
LINE
  5
2F9
100
AcDbEntity
  8
0
100
AcDbLine
 62
7
  6
CONTINUOUS
 10
-19.2029469975
 20
0.3622606036
 30
0.0
 11
-19.1263512619
 21
0.2497606036
 31
0.0
  0
LINE
  5
2FA
100
AcDbEntity
  8
0
100
AcDbLine
 62
7
  6
CONTINUOUS
 10
-16.6372809082
 20
9.2928139699
 30
0.0
 11
-16.6191820481
 21
9.1579229397
 31
0.0
  0
LINE
  5
2FB
100
AcDbEntity
  8
DRAFT
100
AcDbLine
 62
7
  6
CONTINUOUS
 10
-13.4465640553
 20
19.7
 30
0.0
 11
-13.274330156
 21
16.220001889
 31
0.0
  0
LINE
  5
2FC
100
AcDbEntity
  8
0
100
AcDbLine
 62
7
  6
CONTINUOUS
 10
-13.9092890553
 20
-10.695689
 30
0.0
 11
-13.9092890553
 21
-10.615181822
 31
0.0
  0
LINE
  5
2FD
100
AcDbEntity
  8
DRAFT
100
AcDbLine
 62
7
  6
CONTINUOUS
 10
-13.4465640553
 20
-20.0
 30
0.0
 11
-13.4465640553
 21
-19.7
 31
0.0
  0
LINE
  5
2FE
100
AcDbEntity
  8
DRAFT
100
AcDbLine
 62
7
  6
CONTINUOUS
 10
-13.4465640553
 20
19.7
 30
0.0
 11
-13.4465640553
 21
20.0
 31
0.0
  0
LINE
  5
2FF
100
AcDbEntity
  8
RACCORDO
100
AcDbLine
 62
7
  6
CONTINUOUS
 10
-13.1965640553
 20
-4.5
 30
0.0
 11
-13.1965640553
 21
4.5
 31
0.0
  0
LINE
  5
300
100
AcDbEntity
  8
0
100
AcDbLine
 62
7
  6
CONTINUOUS
 10
-12.9465640553
 20
-11.232418
 30
0.0
 11
-12.9465640553
 21
-11.0713738882
 31
0.0
  0
LINE
  5
301
100
AcDbEntity
  8
RACCORDO
100
AcDbLine
 62
250
  6
CONTINUOUS
 10
-12.3433328916
 20
4.5
 30
0.0
 11
-12.3433328916
 21
4.0
 31
0.0
  0
LINE
  5
302
100
AcDbEntity
  8
RACCORDO
100
AcDbLine
 62
250
  6
CONTINUOUS
 10
-12.3433328916
 20
-4.5
 30
0.0
 11
-12.3433328916
 21
-4.0
 31
0.0
  0
LINE
  5
303
100
AcDbEntity
  8
DRAFT
100
AcDbLine
 62
7
  6
CONTINUOUS
 10
-13.4465640553
 20
-19.7
 30
0.0
 11
-13.274330156
 21
-16.220001889
 31
0.0
  0
LINE
  5
304
100
AcDbEntity
  8
0
100
AcDbLine
 62
7
  6
CONTINUOUS
 10
-7.2824700553
 20
17.921902
 30
0.0
 11
-7.800791924
 21
16.5432733947
 31
0.0
  0
LINE
  5
305
100
AcDbEntity
  8
RACCORDO
100
AcDbLine
 62
250
  6
CONTINUOUS
 10
-4.2856266689
 20
14.9530236443
 30
0.0
 11
-4.6391800595
 21
14.5994702537
 31
0.0
  0
LINE
  5
306
100
AcDbEntity
  8
RACCORDO
100
AcDbLine
 62
250
  6
CONTINUOUS
 10
-10.6495876996
 20
8.5890626137
 30
0.0
 11
-10.296034309
 21
8.9426160042
 31
0.0
  0
LINE
  5
307
100
AcDbEntity
  8
0
100
AcDbLine
 62
7
  6
CONTINUOUS
 10
-19.1646491297
 20
-0.6502394232
 30
0.0
 11
-19.0114576586
 21
-0.5002393517
 31
0.0
  0
LINE
  5
308
100
AcDbEntity
  8
0
100
AcDbLine
 62
7
  6
CONTINUOUS
 10
12.0534359447
 20
22.3441821702
 30
0.0
 11
11.9958422343
 21
22.3057869048
 31
0.0
  0
LINE
  5
309
100
AcDbEntity
  8
0
100
AcDbLine
 62
7
  6
CONTINUOUS
 10
-15.4375040642
 20
8.5240585448
 30
0.0
 11
-15.2333553241
 21
8.5895635675
 31
0.0
  0
LINE
  5
30A
100
AcDbEntity
  8
0
100
AcDbLine
 62
7
  6
CONTINUOUS
 10
-15.5146696183
 20
-9.0206588104
 30
0.0
 11
-15.1766128216
 21
-9.111280369
 31
0.0
  0
LINE
  5
30B
100
AcDbEntity
  8
0
100
AcDbLine
 62
7
  6
CONTINUOUS
 10
-14.8989355753
 20
-8.9817973425
 30
0.0
 11
-15.2369922747
 21
-8.8911757386
 31
0.0
  0
LINE
  5
30C
100
AcDbEntity
  8
0
100
AcDbLine
 62
7
  6
CONTINUOUS
 10
12.0534359447
 20
-22.3441821702
 30
0.0
 11
11.9958422343
 21
-22.3057869048
 31
0.0
  0
LINE
  5
30D
100
AcDbEntity
  8
0
100
AcDbLine
 62
7
  6
CONTINUOUS
 10
-19.0114576586
 20
0.4372606125
 30
0.0
 11
-19.1646491297
 21
0.5872606103
 31
0.0
  0
LINE
  5
30E
100
AcDbEntity
  8
RACCORDO
100
AcDbLine
 62
250
  6
CONTINUOUS
 10
-10.6495876996
 20
-8.5890626137
 30
0.0
 11
-10.296034309
 21
-8.9426160042
 31
0.0
  0
LINE
  5
30F
100
AcDbEntity
  8
RACCORDO
100
AcDbLine
 62
250
  6
CONTINUOUS
 10
-4.2856266689
 20
-14.9530236443
 30
0.0
 11
-4.6391800595
 21
-14.5994702537
 31
0.0
  0
LINE
  5
310
100
AcDbEntity
  8
0
100
AcDbLine
 62
7
  6
CONTINUOUS
 10
-16.431828374
 20
9.189899272
 30
0.0
 11
-16.466722336
 21
9.2912616299
 31
0.0
  0
LINE
  5
311
100
AcDbEntity
  8
0
100
AcDbLine
 62
7
  6
CONTINUOUS
 10
-15.6791543544
 20
8.8967553211
 30
0.0
 11
-15.7140483405
 21
8.998117571
 31
0.0
  0
LINE
  5
312
100
AcDbEntity
  8
0
100
AcDbLine
 62
7
  6
CONTINUOUS
 10
-15.8846068526
 20
8.9996700009
 30
0.0
 11
-15.8490610595
 21
8.8140977559
 31
0.0
  0
LINE
  5
313
100
AcDbEntity
  8
0
100
AcDbLine
 62
7
  6
CONTINUOUS
 10
-15.0350734111
 20
9.4129574192
 30
0.0
 11
-15.016974563
 21
9.2780663951
 31
0.0
  0
LINE
  5
314
100
AcDbEntity
  8
0
100
AcDbLine
 62
7
  6
CONTINUOUS
 10
-10.0228085198
 20
-21.6237555355
 30
0.0
 11
-10.042559601
 21
-20.8
 31
0.0
  0
LINE
  5
315
100
AcDbEntity
  8
0
100
AcDbLine
 62
7
  6
CONTINUOUS
 10
-11.3465640553
 20
-23.8
 30
0.0
 11
-11.3497775307
 21
-23.4456668619
 31
0.0
  0
LINE
  5
316
100
AcDbEntity
  8
0
100
AcDbLine
 62
7
  6
CONTINUOUS
 10
-11.3518000909
 20
-22.35
 30
0.0
 11
-11.3518000909
 21
-22.85711136
 31
0.0
  0
LINE
  5
317
100
AcDbEntity
  8
0
100
AcDbLine
 62
7
  6
CONTINUOUS
 10
-11.3518000909
 20
22.35
 30
0.0
 11
-11.3518000909
 21
22.85711136
 31
0.0
  0
LINE
  5
318
100
AcDbEntity
  8
0
100
AcDbLine
 62
7
  6
CONTINUOUS
 10
-11.3125298238
 20
23.4906890903
 30
0.0
 11
-11.3125298238
 21
22.8093109097
 31
0.0
  0
LINE
  5
319
100
AcDbEntity
  8
0
100
AcDbLine
 62
7
  6
CONTINUOUS
 10
-11.3125298238
 20
-23.4906890903
 30
0.0
 11
-11.3125298238
 21
-22.8093109097
 31
0.0
  0
LINE
  5
31A
100
AcDbEntity
  8
0
100
AcDbLine
 62
250
  6
CONTINUOUS
 10
-11.3120157732
 20
-22.3057951078
 30
0.0
 11
-11.3120157732
 21
-23.7562325953
 31
0.0
  0
LINE
  5
31B
100
AcDbEntity
  8
0
100
AcDbLine
 62
250
  6
CONTINUOUS
 10
-11.3120157732
 20
22.3057951078
 30
0.0
 11
-11.3120157732
 21
23.7562325953
 31
0.0
  0
LINE
  5
31C
100
AcDbEntity
  8
0
100
AcDbLine
 62
250
  6
CONTINUOUS
 10
-10.5041577657
 20
-22.3057869048
 30
0.0
 11
-10.5041577657
 21
-23.755948138
 31
0.0
  0
LINE
  5
31D
100
AcDbEntity
  8
0
100
AcDbLine
 62
250
  6
CONTINUOUS
 10
-10.5041577657
 20
22.3057869048
 30
0.0
 11
-10.5041577657
 21
23.755948138
 31
0.0
  0
LINE
  5
31E
100
AcDbEntity
  8
0
100
AcDbLine
 62
7
  6
CONTINUOUS
 10
-10.4465640553
 20
23.8
 30
0.0
 11
-10.4465640553
 21
22.3441821702
 31
0.0
  0
LINE
  5
31F
100
AcDbEntity
  8
0
100
AcDbLine
 62
7
  6
CONTINUOUS
 10
-10.4465640553
 20
-23.8
 30
0.0
 11
-10.4465640553
 21
-22.3441821702
 31
0.0
  0
LINE
  5
320
100
AcDbEntity
  8
0
100
AcDbLine
 62
7
  6
CONTINUOUS
 10
-10.1808490553
 20
17.92207
 30
0.0
 11
-10.1808490553
 21
15.122199
 31
0.0
  0
LINE
  5
321
100
AcDbEntity
  8
0
100
AcDbLine
 62
7
  6
CONTINUOUS
 10
-10.042559601
 20
-21.2859869487
 30
0.0
 11
-10.042559601
 21
-20.8
 31
0.0
  0
LINE
  5
322
100
AcDbEntity
  8
0
100
AcDbLine
 62
7
  6
CONTINUOUS
 10
-10.042559601
 20
20.8
 30
0.0
 11
-10.042559601
 21
21.2859869487
 31
0.0
  0
LINE
  5
323
100
AcDbEntity
  8
0
100
AcDbLine
 62
7
  6
CONTINUOUS
 10
-9.9465640553
 20
22.3441821702
 30
0.0
 11
-9.9465640553
 21
21.7
 31
0.0
  0
LINE
  5
324
100
AcDbEntity
  8
0
100
AcDbLine
 62
7
  6
CONTINUOUS
 10
-9.9465640553
 20
-21.7
 30
0.0
 11
-9.9465640553
 21
-22.3441821702
 31
0.0
  0
LINE
  5
325
100
AcDbEntity
  8
0
100
AcDbLine
 62
7
  6
CONTINUOUS
 10
-9.5964410553
 20
15.122199
 30
0.0
 11
-9.5964410553
 21
17.92207
 31
0.0
  0
LINE
  5
326
100
AcDbEntity
  8
0
100
AcDbLine
 62
7
  6
CONTINUOUS
 10
-11.3497775307
 20
23.4456668619
 30
0.0
 11
-11.3465640553
 21
23.8
 31
0.0
  0
LINE
  5
327
100
AcDbEntity
  8
0
100
AcDbLine
 62
7
  6
CONTINUOUS
 10
-10.042559601
 20
20.8
 30
0.0
 11
-10.0228085198
 21
21.6237555355
 31
0.0
  0
LINE
  5
328
100
AcDbEntity
  8
0
100
AcDbLine
 62
7
  6
CONTINUOUS
 10
-8.6713361975
 20
15.8674471093
 30
0.0
 11
-8.5966320553
 21
16.950353
 31
0.0
  0
LINE
  5
329
100
AcDbEntity
  8
0
100
AcDbLine
 62
7
  6
CONTINUOUS
 10
-9.0290390553
 20
17.921902
 30
0.0
 11
-9.2596842274
 21
15.3675284101
 31
0.0
  0
LINE
  5
32A
100
AcDbEntity
  8
0
100
AcDbLine
 62
7
  6
CONTINUOUS
 10
7.3208910097
 20
21.4051134101
 30
0.0
 11
8.2541419399
 21
22.3383643404
 31
0.0
  0
LINE
  5
32B
100
AcDbEntity
  8
0
100
AcDbLine
 62
7
  6
CONTINUOUS
 10
12.4661164963
 20
22.2859700255
 30
0.0
 11
12.5534359447
 21
22.3441821702
 31
0.0
  0
LINE
  5
32C
100
AcDbEntity
  8
0
100
AcDbLine
 62
7
  6
CONTINUOUS
 10
-19.2029469975
 20
-0.3877393517
 30
0.0
 11
-19.3178406008
 21
-0.4627393875
 31
0.0
  0
LINE
  5
32D
100
AcDbEntity
  8
RACCORDO
100
AcDbLine
 62
250
  6
CONTINUOUS
 10
7.3034359447
 20
-11.5702895246
 30
0.0
 11
1.3034359447
 21
-11.5702895246
 31
0.0
  0
LINE
  5
32E
100
AcDbEntity
  8
RACCORDO
100
AcDbLine
 62
250
  6
CONTINUOUS
 10
7.3034371632
 20
-11.4266155818
 30
0.0
 11
1.3034376833
 21
-11.4266155818
 31
0.0
  0
LINE
  5
32F
100
AcDbEntity
  8
0
100
AcDbLine
 62
7
  6
CONTINUOUS
 10
-15.4465640553
 20
-11.232418
 30
0.0
 11
-12.9465640553
 21
-11.232418
 31
0.0
  0
LINE
  5
330
100
AcDbEntity
  8
0
100
AcDbLine
 62
7
  6
CONTINUOUS
 10
-13.1815311488
 20
-10.695689
 30
0.0
 11
-13.9092890553
 21
-10.695689
 31
0.0
  0
LINE
  5
331
100
AcDbEntity
  8
0
100
AcDbLine
 62
7
  6
CONTINUOUS
 10
-14.3247490553
 20
-10.695689
 30
0.0
 11
-15.0311050553
 21
-10.695689
 31
0.0
  0
LINE
  5
332
100
AcDbEntity
  8
0
100
AcDbLine
 62
7
  6
CONTINUOUS
 10
-15.4465640553
 20
-6.467712
 30
0.0
 11
-15.1052839124
 21
-6.591082997
 31
0.0
  0
LINE
  5
333
100
AcDbEntity
  8
0
100
AcDbLine
 62
7
  6
CONTINUOUS
 10
-19.6625215181
 20
-0.5752393875
 30
0.0
 11
-19.5476279147
 21
-0.6502394232
 31
0.0
  0
LINE
  5
334
100
AcDbEntity
  8
0
100
AcDbLine
 62
7
  6
CONTINUOUS
 10
-19.3178406008
 20
0.4372606125
 30
0.0
 11
-19.2029469975
 21
0.3622606036
 31
0.0
  0
LINE
  5
335
100
AcDbEntity
  8
0
100
AcDbLine
 62
7
  6
CONTINUOUS
 10
12.4661164963
 20
-22.2859700255
 30
0.0
 11
12.5534359447
 21
-22.3441821702
 31
0.0
  0
LINE
  5
336
100
AcDbEntity
  8
0
100
AcDbLine
 62
7
  6
CONTINUOUS
 10
8.2541419399
 20
-22.3383643404
 30
0.0
 11
7.3208910097
 21
-21.4051134101
 31
0.0
  0
LINE
  5
337
100
AcDbEntity
  8
0
100
AcDbLine
 62
7
  6
CONTINUOUS
 10
-16.6191820481
 20
9.1579229397
 30
0.0
 11
-16.5500460271
 21
9.0394081472
 31
0.0
  0
LINE
  5
338
100
AcDbEntity
  8
0
100
AcDbLine
 62
7
  6
CONTINUOUS
 10
-14.8302727799
 20
9.3942526146
 30
0.0
 11
-14.900060689
 21
9.5969772404
 31
0.0
  0
LINE
  5
339
100
AcDbEntity
  8
RACCORDO
100
AcDbLine
 62
250
  6
CONTINUOUS
 10
-7.2668535799
 20
-3.0
 30
0.0
 11
-7.2668535799
 21
3.0
 31
0.0
  0
LINE
  5
33A
100
AcDbEntity
  8
RACCORDO
100
AcDbLine
 62
250
  6
CONTINUOUS
 10
-7.1231796371
 20
-3.0000012185
 30
0.0
 11
-7.1231796371
 21
2.9999982614
 31
0.0
  0
LINE
  5
33B
100
AcDbEntity
  8
0
100
AcDbLine
 62
7
  6
CONTINUOUS
 10
-16.5465640553
 20
-20.1990396502
 30
0.0
 11
-16.3962987371
 21
-19.7478770987
 31
0.0
  0
LINE
  5
33C
100
AcDbEntity
  8
0
100
AcDbLine
 62
7
  6
CONTINUOUS
 10
-15.6966871647
 20
-20.4503229513
 30
0.0
 11
-15.8464577177
 21
-20.9
 31
0.0
  0
LINE
  5
33D
100
AcDbEntity
  8
DRAFT
100
AcDbLine
 62
7
  6
CONTINUOUS
 10
8.2534359447
 20
20.9959955457
 30
0.0
 11
8.157440399
 21
20.9
 31
0.0
  0
LINE
  5
33E
100
AcDbEntity
  8
RACCORDO
100
AcDbLine
 62
250
  6
CONTINUOUS
 10
-5.999314582
 20
6.0601098396
 30
0.0
 11
-1.7566738949
 21
10.3027505267
 31
0.0
  0
LINE
  5
33F
100
AcDbEntity
  8
RACCORDO
100
AcDbLine
 62
250
  6
CONTINUOUS
 10
-5.8977226244
 20
5.9585161588
 30
0.0
 11
-1.655082305
 21
10.2011564781
 31
0.0
  0
LINE
  5
340
100
AcDbEntity
  8
0
100
AcDbLine
 62
7
  6
CONTINUOUS
 10
6.3899297945
 20
-6.1736559056
 30
0.0
 11
7.5034359447
 21
-5.8900275372
 31
0.0
  0
LINE
  5
341
100
AcDbEntity
  8
0
100
AcDbLine
 62
7
  6
CONTINUOUS
 10
6.9796979181
 20
-5.7873809002
 30
0.0
 11
5.3034359447
 21
-6.20471992
 31
0.0
  0
LINE
  5
342
100
AcDbEntity
  8
0
100
AcDbLine
 62
7
  6
CONTINUOUS
 10
-19.3944364436
 20
-0.4627393875
 30
0.0
 11
-19.5476279147
 21
-0.3877393517
 31
0.0
  0
LINE
  5
343
100
AcDbEntity
  8
DRAFT
100
AcDbLine
 62
7
  6
CONTINUOUS
 10
8.2534359447
 20
-20.9959955457
 30
0.0
 11
8.157440399
 21
-20.9
 31
0.0
  0
LINE
  5
344
100
AcDbEntity
  8
RACCORDO
100
AcDbLine
 62
250
  6
CONTINUOUS
 10
-1.7566738949
 20
-10.3027505267
 30
0.0
 11
-5.999314582
 21
-6.0601098396
 31
0.0
  0
LINE
  5
345
100
AcDbEntity
  8
RACCORDO
100
AcDbLine
 62
250
  6
CONTINUOUS
 10
-1.655080214
 20
-10.2011585691
 30
0.0
 11
-5.8977205334
 21
-5.9585182497
 31
0.0
  0
LINE
  5
346
100
AcDbEntity
  8
0
100
AcDbLine
 62
7
  6
CONTINUOUS
 10
-16.380139298
 20
9.1220657004
 30
0.0
 11
-16.431828374
 21
9.189899272
 31
0.0
  0
LINE
  5
347
100
AcDbEntity
  8
0
100
AcDbLine
 62
7
  6
CONTINUOUS
 10
-15.5757762503
 20
8.7610880819
 30
0.0
 11
-15.6791543544
 21
8.8967553211
 31
0.0
  0
LINE
  5
348
100
AcDbEntity
  8
0
100
AcDbLine
 62
7
  6
CONTINUOUS
 10
-15.8490610595
 20
8.8140977559
 30
0.0
 11
-15.7799249904
 21
8.6955830593
 31
0.0
  0
LINE
  5
349
100
AcDbEntity
  8
0
100
AcDbLine
 62
7
  6
CONTINUOUS
 10
-15.1042094442
 20
9.5314721878
 30
0.0
 11
-15.0350734111
 21
9.4129574192
 31
0.0
  0
LINE
  5
34A
100
AcDbEntity
  8
0
100
AcDbLine
 62
7
  6
CONTINUOUS
 10
-16.3962987371
 20
19.7478770987
 30
0.0
 11
-16.5465640553
 21
20.1990396502
 31
0.0
  0
LINE
  5
34B
100
AcDbEntity
  8
0
100
AcDbLine
 62
7
  6
CONTINUOUS
 10
-15.8464577177
 20
20.9
 30
0.0
 11
-15.6966871647
 21
20.4503229513
 31
0.0
  0
LINE
  5
34C
100
AcDbEntity
  8
0
100
AcDbLine
 62
7
  6
CONTINUOUS
 10
-6.6487245059
 20
17.3280537572
 30
0.0
 11
-6.7042560553
 21
17.921902
 31
0.0
  0
LINE
  5
34D
100
AcDbEntity
  8
0
100
AcDbLine
 62
7
  6
CONTINUOUS
 10
-6.8165640553
 20
-17.2181627662
 30
0.0
 11
-6.8165640553
 21
-17.35
 31
0.0
  0
LINE
  5
34E
100
AcDbEntity
  8
0
100
AcDbLine
 62
7
  6
CONTINUOUS
 10
12.5534359447
 20
21.7
 30
0.0
 11
12.4771914802
 21
21.6237555355
 31
0.0
  0
LINE
  5
34F
100
AcDbEntity
  8
0
100
AcDbLine
 62
7
  6
CONTINUOUS
 10
7.5034359447
 20
-4.4543247364
 30
0.0
 11
5.3034359447
 21
-4.9797136925
 31
0.0
  0
LINE
  5
350
100
AcDbEntity
  8
0
100
AcDbLine
 62
7
  6
CONTINUOUS
 10
6.0612804226
 20
-5.0242835949
 30
0.0
 11
7.5034359447
 21
-4.7230971001
 31
0.0
  0
LINE
  5
351
100
AcDbEntity
  8
0
100
AcDbLine
 62
7
  6
CONTINUOUS
 10
1.3034359447
 20
-5.1974999142
 30
0.0
 11
3.5034359447
 21
-5.1974999142
 31
0.0
  0
LINE
  5
352
100
AcDbEntity
  8
0
100
AcDbLine
 62
7
  6
CONTINUOUS
 10
3.5034359447
 20
-4.9499999142
 30
0.0
 11
1.6310955129
 21
-4.9499999142
 31
0.0
  0
LINE
  5
353
100
AcDbEntity
  8
0
100
AcDbLine
 62
7
  6
CONTINUOUS
 10
7.5034359447
 20
-6.7368622921
 30
0.0
 11
6.0897933773
 21
-6.4262212037
 31
0.0
  0
LINE
  5
354
100
AcDbEntity
  8
0
100
AcDbLine
 62
7
  6
CONTINUOUS
 10
-19.5476279147
 20
-0.6502394232
 30
0.0
 11
-19.3944364436
 21
-0.6877393875
 31
0.0
  0
LINE
  5
355
100
AcDbEntity
  8
0
100
AcDbLine
 62
7
  6
CONTINUOUS
 10
5.3034359447
 20
-6.4572852181
 30
0.0
 11
7.5034359447
 21
-7.0002313565
 31
0.0
  0
LINE
  5
356
100
AcDbEntity
  8
0
100
AcDbLine
 62
7
  6
CONTINUOUS
 10
-16.5500460271
 20
9.0394081472
 30
0.0
 11
-16.464114844
 21
8.954422117
 31
0.0
  0
LINE
  5
357
100
AcDbEntity
  8
0
100
AcDbLine
 62
7
  6
CONTINUOUS
 10
12.5534359447
 20
-21.7
 30
0.0
 11
12.4771914802
 21
-21.6237555355
 31
0.0
  0
LINE
  5
358
100
AcDbEntity
  8
0
100
AcDbLine
 62
7
  6
CONTINUOUS
 10
-12.7002320553
 20
17.921902
 30
0.0
 11
-11.8126710553
 21
15.122199
 31
0.0
  0
LINE
  5
359
100
AcDbEntity
  8
0
100
AcDbLine
 62
7
  6
CONTINUOUS
 10
-11.5317100553
 20
15.99478
 30
0.0
 11
-12.0653840553
 21
17.921902
 31
0.0
  0
LINE
  5
35A
100
AcDbEntity
  8
0
100
AcDbLine
 62
7
  6
CONTINUOUS
 10
-3.8505685096
 20
20.8
 30
0.0
 11
-3.8703195908
 21
21.6237555355
 31
0.0
  0
LINE
  5
35B
100
AcDbEntity
  8
0
100
AcDbLine
 62
7
  6
CONTINUOUS
 10
-2.5433505798
 20
23.4456668619
 30
0.0
 11
-2.5465640553
 21
23.8
 31
0.0
  0
LINE
  5
35C
100
AcDbEntity
  8
0
100
AcDbLine
 62
7
  6
CONTINUOUS
 10
-3.9465640553
 20
-22.3441821702
 30
0.0
 11
-3.9465640553
 21
-21.7
 31
0.0
  0
LINE
  5
35D
100
AcDbEntity
  8
0
100
AcDbLine
 62
7
  6
CONTINUOUS
 10
-3.9465640553
 20
21.7
 30
0.0
 11
-3.9465640553
 21
22.3441821702
 31
0.0
  0
LINE
  5
35E
100
AcDbEntity
  8
0
100
AcDbLine
 62
7
  6
CONTINUOUS
 10
-3.8505685096
 20
-21.2859869487
 30
0.0
 11
-3.8505685096
 21
-20.8
 31
0.0
  0
LINE
  5
35F
100
AcDbEntity
  8
0
100
AcDbLine
 62
7
  6
CONTINUOUS
 10
-3.8505685096
 20
20.8
 30
0.0
 11
-3.8505685096
 21
21.2859869487
 31
0.0
  0
LINE
  5
360
100
AcDbEntity
  8
0
100
AcDbLine
 62
7
  6
CONTINUOUS
 10
-3.4465640553
 20
23.8
 30
0.0
 11
-3.4465640553
 21
22.3441821702
 31
0.0
  0
LINE
  5
361
100
AcDbEntity
  8
0
100
AcDbLine
 62
7
  6
CONTINUOUS
 10
-3.4465640553
 20
-23.8
 30
0.0
 11
-3.4465640553
 21
-22.3441821702
 31
0.0
  0
LINE
  5
362
100
AcDbEntity
  8
0
100
AcDbLine
 62
250
  6
CONTINUOUS
 10
-3.3889703449
 20
-22.3057869048
 30
0.0
 11
-3.3889703449
 21
-23.755948138
 31
0.0
  0
LINE
  5
363
100
AcDbEntity
  8
0
100
AcDbLine
 62
250
  6
CONTINUOUS
 10
-3.3889703449
 20
22.3057869048
 30
0.0
 11
-3.3889703449
 21
23.755948138
 31
0.0
  0
LINE
  5
364
100
AcDbEntity
  8
0
100
AcDbLine
 62
250
  6
CONTINUOUS
 10
-2.5811123374
 20
-22.3057951078
 30
0.0
 11
-2.5811123374
 21
-23.7562325953
 31
0.0
  0
LINE
  5
365
100
AcDbEntity
  8
0
100
AcDbLine
 62
250
  6
CONTINUOUS
 10
-2.5811123374
 20
22.3057951078
 30
0.0
 11
-2.5811123374
 21
23.7562325953
 31
0.0
  0
LINE
  5
366
100
AcDbEntity
  8
0
100
AcDbLine
 62
7
  6
CONTINUOUS
 10
-2.5805982867
 20
23.4906890903
 30
0.0
 11
-2.5805982867
 21
22.8093109097
 31
0.0
  0
LINE
  5
367
100
AcDbEntity
  8
0
100
AcDbLine
 62
7
  6
CONTINUOUS
 10
-2.5805982867
 20
-23.4906890903
 30
0.0
 11
-2.5805982867
 21
-22.8093109097
 31
0.0
  0
LINE
  5
368
100
AcDbEntity
  8
0
100
AcDbLine
 62
7
  6
CONTINUOUS
 10
-2.5413280197
 20
-22.35
 30
0.0
 11
-2.5413280197
 21
-22.85711136
 31
0.0
  0
LINE
  5
369
100
AcDbEntity
  8
0
100
AcDbLine
 62
7
  6
CONTINUOUS
 10
-2.5413280197
 20
22.35
 30
0.0
 11
-2.5413280197
 21
22.85711136
 31
0.0
  0
LINE
  5
36A
100
AcDbEntity
  8
0
100
AcDbLine
 62
7
  6
CONTINUOUS
 10
-2.5465640553
 20
-23.8
 30
0.0
 11
-2.5433505798
 21
-23.4456668619
 31
0.0
  0
LINE
  5
36B
100
AcDbEntity
  8
0
100
AcDbLine
 62
7
  6
CONTINUOUS
 10
-3.8703195908
 20
-21.6237555355
 30
0.0
 11
-3.8505685096
 21
-20.8
 31
0.0
  0
LINE
  5
36C
100
AcDbEntity
  8
0
100
AcDbLine
 62
7
  6
CONTINUOUS
 10
-8.1255050103
 20
-16.2981048985
 30
0.0
 11
-8.2794229974
 21
-16.8687497854
 31
0.0
  0
LINE
  5
36D
100
AcDbEntity
  8
0
100
AcDbLine
 62
7
  6
CONTINUOUS
 10
19.9534359447
 20
23.8
 30
0.0
 11
19.919374298
 21
23.7659383532
 31
0.0
  0
LINE
  5
36E
100
AcDbEntity
  8
0
100
AcDbLine
 62
250
  6
CONTINUOUS
 10
26.1534422908
 20
22.35
 30
0.0
 11
26.144715423
 21
22.3441821702
 31
0.0
  0
LINE
  5
36F
100
AcDbEntity
  8
0
100
AcDbLine
 62
250
  6
CONTINUOUS
 10
26.6534359447
 20
21.850016923
 30
0.0
 11
26.6447090769
 21
21.8441990932
 31
0.0
  0
LINE
  5
370
100
AcDbEntity
  8
RACCORDO
100
AcDbLine
 62
250
  6
CONTINUOUS
 10
-13.1965640553
 20
-4.5
 30
0.0
 11
-12.3433328916
 21
-4.5
 31
0.0
  0
LINE
  5
371
100
AcDbEntity
  8
RACCORDO
100
AcDbLine
 62
250
  6
CONTINUOUS
 10
20.950204781
 20
-4.5
 30
0.0
 11
21.8034359447
 21
-4.5
 31
0.0
  0
LINE
  5
372
100
AcDbEntity
  8
0
100
AcDbLine
 62
7
  6
CONTINUOUS
 10
7.215304958
 20
-4.2166163872
 30
0.0
 11
7.4734223358
 21
-4.2166163872
 31
0.0
  0
LINE
  5
373
100
AcDbEntity
  8
RACCORDO
100
AcDbLine
 62
7
  6
CONTINUOUS
 10
21.8034359447
 20
-4.0
 30
0.0
 11
20.950204781
 21
-4.0
 31
0.0
  0
LINE
  5
374
100
AcDbEntity
  8
RACCORDO
100
AcDbLine
 62
7
  6
CONTINUOUS
 10
-12.3433328916
 20
-4.0
 30
0.0
 11
-13.1965640553
 21
-4.0
 31
0.0
  0
LINE
  5
375
100
AcDbEntity
  8
0
100
AcDbLine
 62
7
  6
CONTINUOUS
 10
1.3034359447
 20
-3.7949995995
 30
0.0
 11
3.2225849144
 21
-3.7949995995
 31
0.0
  0
LINE
  5
376
100
AcDbEntity
  8
0
100
AcDbLine
 62
7
  6
CONTINUOUS
 10
3.5034359447
 20
-3.5474995995
 30
0.0
 11
1.3034359447
 21
-3.5474995995
 31
0.0
  0
LINE
  5
377
100
AcDbEntity
  8
RACCORDO
100
AcDbLine
 62
250
  6
CONTINUOUS
 10
-7.1231796371
 20
-3.0
 30
0.0
 11
-13.1965640553
 21
-3.0
 31
0.0
  0
LINE
  5
378
100
AcDbEntity
  8
RACCORDO
100
AcDbLine
 62
250
  6
CONTINUOUS
 10
15.7300515266
 20
-3.0
 30
0.0
 11
21.8034359447
 21
-3.0
 31
0.0
  0
LINE
  5
379
100
AcDbEntity
  8
0
100
AcDbLine
 62
7
  6
CONTINUOUS
 10
5.3034359447
 20
-2.3743792771
 30
0.0
 11
7.5124401323
 21
-2.3743792771
 31
0.0
  0
LINE
  5
37A
100
AcDbEntity
  8
0
100
AcDbLine
 62
7
  6
CONTINUOUS
 10
7.0247183315
 20
-2.1312685727
 30
0.0
 11
5.3034359447
 21
-2.1312685727
 31
0.0
  0
LINE
  5
37B
100
AcDbEntity
  8
RACCORDO
100
AcDbLine
 62
7
  6
CONTINUOUS
 10
-16.0859756368
 20
-2.1
 30
0.0
 11
-17.925353233
 21
-2.1
 31
0.0
  0
LINE
  5
37C
100
AcDbEntity
  8
0
100
AcDbLine
 62
7
  6
CONTINUOUS
 10
-19.1646491297
 20
0.5872606103
 30
0.0
 11
-19.3178406008
 21
0.6247606114
 31
0.0
  0
LINE
  5
37D
100
AcDbEntity
  8
0
100
AcDbLine
 62
7
  6
CONTINUOUS
 10
5.3034359447
 20
-5.2471349953
 30
0.0
 11
6.9796979181
 21
-5.6671761368
 31
0.0
  0
LINE
  5
37E
100
AcDbEntity
  8
0
100
AcDbLine
 62
7
  6
CONTINUOUS
 10
7.5034359447
 20
-5.5739831494
 30
0.0
 11
6.0177606634
 21
-5.1971617936
 31
0.0
  0
LINE
  5
37F
100
AcDbEntity
  8
0
100
AcDbLine
 62
250
  6
CONTINUOUS
 10
26.144715423
 20
-22.3441821702
 30
0.0
 11
26.1534422908
 21
-22.35
 31
0.0
  0
LINE
  5
380
100
AcDbEntity
  8
0
100
AcDbLine
 62
250
  6
CONTINUOUS
 10
26.6447090769
 20
-21.8441990932
 30
0.0
 11
26.6534359447
 21
-21.850016923
 31
0.0
  0
LINE
  5
381
100
AcDbEntity
  8
0
100
AcDbLine
 62
7
  6
CONTINUOUS
 10
-15.7799249904
 20
8.6955830593
 30
0.0
 11
-15.6597517963
 21
8.5934444985
 31
0.0
  0
LINE
  5
382
100
AcDbEntity
  8
0
100
AcDbLine
 62
7
  6
CONTINUOUS
 10
-14.900060689
 20
9.5969772404
 30
0.0
 11
-15.0202339146
 21
9.6991157383
 31
0.0
  0
LINE
  5
383
100
AcDbEntity
  8
0
100
AcDbLine
 62
7
  6
CONTINUOUS
 10
19.9534359447
 20
-23.8
 30
0.0
 11
19.919374298
 21
-23.7659383532
 31
0.0
  0
LINE
  5
384
100
AcDbEntity
  8
0
100
AcDbLine
 62
7
  6
CONTINUOUS
 10
-8.5966320553
 20
16.950353
 30
0.0
 11
-8.3014121048
 21
16.1631264967
 31
0.0
  0
LINE
  5
385
100
AcDbEntity
  8
0
100
AcDbLine
 62
7
  6
CONTINUOUS
 10
-0.5111428769
 20
-19.9233020014
 30
0.0
 11
-0.5111428769
 21
-19.9354211783
 31
0.0
  0
LINE
  5
386
100
AcDbEntity
  8
RACCORDO
100
AcDbLine
 62
250
  6
CONTINUOUS
 10
-0.1965640553
 20
17.5
 30
0.0
 11
-0.1965640553
 21
16.6467688363
 31
0.0
  0
LINE
  5
387
100
AcDbEntity
  8
RACCORDO
100
AcDbLine
 62
250
  6
CONTINUOUS
 10
-0.1965640553
 20
-16.6467688363
 30
0.0
 11
-0.1965640553
 21
-17.5
 31
0.0
  0
LINE
  5
388
100
AcDbEntity
  8
RACCORDO
100
AcDbLine
 62
7
  6
CONTINUOUS
 10
0.3034359447
 20
-17.5
 30
0.0
 11
0.3034359447
 21
-16.6467688363
 31
0.0
  0
LINE
  5
389
100
AcDbEntity
  8
RACCORDO
100
AcDbLine
 62
7
  6
CONTINUOUS
 10
0.3034359447
 20
16.6467688363
 30
0.0
 11
0.3034359447
 21
17.5
 31
0.0
  0
LINE
  5
38A
100
AcDbEntity
  8
0
100
AcDbLine
 62
7
  6
CONTINUOUS
 10
19.9188876626
 20
22.3057951078
 30
0.0
 11
19.9586719803
 21
22.35
 31
0.0
  0
LINE
  5
38B
100
AcDbEntity
  8
RACCORDO
100
AcDbLine
 62
250
  6
CONTINUOUS
 10
13.4958241002
 20
15.5563491861
 30
0.0
 11
12.8924985584
 21
14.9530236443
 31
0.0
  0
LINE
  5
38C
100
AcDbEntity
  8
RACCORDO
100
AcDbLine
 62
250
  6
CONTINUOUS
 10
-10.6495876996
 20
-8.5890626137
 30
0.0
 11
-11.2529132414
 21
-9.1923881554
 31
0.0
  0
LINE
  5
38D
100
AcDbEntity
  8
RACCORDO
100
AcDbLine
 62
7
  6
CONTINUOUS
 10
-10.8993598508
 20
-9.545941546
 30
0.0
 11
-10.296034309
 21
-8.9426160042
 31
0.0
  0
LINE
  5
38E
100
AcDbEntity
  8
RACCORDO
100
AcDbLine
 62
7
  6
CONTINUOUS
 10
13.246051949
 20
14.5994702537
 30
0.0
 11
13.8493774908
 21
15.2027957955
 31
0.0
  0
LINE
  5
38F
100
AcDbEntity
  8
RACCORDO
100
AcDbLine
 62
250
  6
CONTINUOUS
 10
-10.1922530696
 20
-10.2530483272
 30
0.0
 11
-5.8977217628
 21
-5.9585170204
 31
0.0
  0
LINE
  5
390
100
AcDbEntity
  8
RACCORDO
100
AcDbLine
 62
250
  6
CONTINUOUS
 10
10.2619529651
 20
10.2011577075
 30
0.0
 11
14.5564842719
 21
14.4956890143
 31
0.0
  0
LINE
  5
391
100
AcDbEntity
  8
0
100
AcDbLine
 62
7
  6
CONTINUOUS
 10
22.7939775709
 20
22.2859700255
 30
0.0
 11
22.8592537745
 21
22.3441821702
 31
0.0
  0
LINE
  5
392
100
AcDbEntity
  8
RACCORDO
100
AcDbLine
 62
7
  6
CONTINUOUS
 10
-15.8045709465
 20
-7.7214507252
 30
0.0
 11
-21.2775680863
 21
-10.2735512045
 31
0.0
  0
LINE
  5
393
100
AcDbEntity
  8
0
100
AcDbLine
 62
7
  6
CONTINUOUS
 10
1.3034359447
 20
1.6500001645
 30
0.0
 11
3.5034359447
 21
2.3100000072
 31
0.0
  0
LINE
  5
394
100
AcDbEntity
  8
0
100
AcDbLine
 62
7
  6
CONTINUOUS
 10
1.865138071
 20
2.0625000072
 30
0.0
 11
1.3034359447
 21
1.8975001645
 31
0.0
  0
LINE
  5
395
100
AcDbEntity
  8
0
100
AcDbLine
 62
7
  6
CONTINUOUS
 10
3.3162019245
 20
2.4750000858
 30
0.0
 11
2.0523720912
 21
2.1037500858
 31
0.0
  0
LINE
  5
396
100
AcDbEntity
  8
0
100
AcDbLine
 62
7
  6
CONTINUOUS
 10
1.8183295659
 20
-0.7424999142
 30
0.0
 11
3.5034359447
 21
-0.4124997568
 31
0.0
  0
LINE
  5
397
100
AcDbEntity
  8
0
100
AcDbLine
 62
7
  6
CONTINUOUS
 10
3.0821593992
 20
-0.2474999142
 30
0.0
 11
1.3034359447
 21
-0.5775000715
 31
0.0
  0
LINE
  5
398
100
AcDbEntity
  8
0
100
AcDbLine
 62
7
  6
CONTINUOUS
 10
3.5034359447
 20
0.7425000858
 30
0.0
 11
1.3034359447
 21
0.4124999285
 31
0.0
  0
LINE
  5
399
100
AcDbEntity
  8
0
100
AcDbLine
 62
7
  6
CONTINUOUS
 10
1.8183295659
 20
0.2475000858
 30
0.0
 11
3.5034359447
 21
0.4950000858
 31
0.0
  0
LINE
  5
39A
100
AcDbEntity
  8
0
100
AcDbLine
 62
7
  6
CONTINUOUS
 10
6.9601890199
 20
-1.6450471638
 30
0.0
 11
6.6990703337
 21
-1.6450471638
 31
0.0
  0
LINE
  5
39B
100
AcDbEntity
  8
RACCORDO
100
AcDbLine
 62
7
  6
CONTINUOUS
 10
-25.1965640553
 20
-1.5
 30
0.0
 11
-19.125353233
 21
-1.5
 31
0.0
  0
LINE
  5
39C
100
AcDbEntity
  8
0
100
AcDbLine
 62
7
  6
CONTINUOUS
 10
-20.6965640553
 20
-0.6877393875
 30
0.0
 11
-20.5050746896
 21
-0.6877393875
 31
0.0
  0
LINE
  5
39D
100
AcDbEntity
  8
0
100
AcDbLine
 62
7
  6
CONTINUOUS
 10
-19.3944364436
 20
-0.6877393875
 30
0.0
 11
-19.3178406008
 21
-0.6877393875
 31
0.0
  0
LINE
  5
39E
100
AcDbEntity
  8
0
100
AcDbLine
 62
7
  6
CONTINUOUS
 10
-19.3178406008
 20
-0.4627393875
 30
0.0
 11
-19.3944364436
 21
-0.4627393875
 31
0.0
  0
LINE
  5
39F
100
AcDbEntity
  8
0
100
AcDbLine
 62
7
  6
CONTINUOUS
 10
5.3034359447
 20
-0.3970804547
 30
0.0
 11
6.3974331967
 21
-0.3970804547
 31
0.0
  0
LINE
  5
3A0
100
AcDbEntity
  8
0
100
AcDbLine
 62
7
  6
CONTINUOUS
 10
6.3073923044
 20
-0.1553203391
 30
0.0
 11
5.3034359447
 21
-0.1553203391
 31
0.0
  0
LINE
  5
3A1
100
AcDbEntity
  8
0
100
AcDbLine
 62
7
  6
CONTINUOUS
 10
3.5034359447
 20
-0.9899999142
 30
0.0
 11
1.8183295659
 21
-0.7424999142
 31
0.0
  0
LINE
  5
3A2
100
AcDbEntity
  8
0
100
AcDbLine
 62
7
  6
CONTINUOUS
 10
1.3034359447
 20
-0.9074997568
 30
0.0
 11
3.5034359447
 21
-1.2374999142
 31
0.0
  0
LINE
  5
3A3
100
AcDbEntity
  8
0
100
AcDbLine
 62
7
  6
CONTINUOUS
 10
7.4734223358
 20
-3.2320187424
 30
0.0
 11
6.3434086613
 21
-3.0402313565
 31
0.0
  0
LINE
  5
3A4
100
AcDbEntity
  8
0
100
AcDbLine
 62
7
  6
CONTINUOUS
 10
6.6240361802
 20
-3.3198084305
 30
0.0
 11
7.215304958
 21
-3.4265073059
 31
0.0
  0
LINE
  5
3A5
100
AcDbEntity
  8
0
100
AcDbLine
 62
7
  6
CONTINUOUS
 10
1.3034359447
 20
0.0825002432
 30
0.0
 11
3.0821593992
 21
-0.2474999142
 31
0.0
  0
LINE
  5
3A6
100
AcDbEntity
  8
0
100
AcDbLine
 62
7
  6
CONTINUOUS
 10
1.3034359447
 20
-1.8150000715
 30
0.0
 11
1.865138071
 21
-1.9799999142
 31
0.0
  0
LINE
  5
3A7
100
AcDbEntity
  8
0
100
AcDbLine
 62
7
  6
CONTINUOUS
 10
2.0523720912
 20
-2.0212497568
 30
0.0
 11
3.3162019245
 21
-2.3924997568
 31
0.0
  0
LINE
  5
3A8
100
AcDbEntity
  8
0
100
AcDbLine
 62
7
  6
CONTINUOUS
 10
3.5034359447
 20
-2.2274999142
 30
0.0
 11
1.3034359447
 21
-1.5675000715
 31
0.0
  0
LINE
  5
3A9
100
AcDbEntity
  8
RACCORDO
100
AcDbLine
 62
7
  6
CONTINUOUS
 10
-21.2539555914
 20
10.2625405173
 30
0.0
 11
-15.8045709465
 21
7.7214507252
 31
0.0
  0
LINE
  5
3AA
100
AcDbEntity
  8
0
100
AcDbLine
 62
7
  6
CONTINUOUS
 10
22.7939775709
 20
-22.2859700255
 30
0.0
 11
22.8592537745
 21
-22.3441821702
 31
0.0
  0
LINE
  5
3AB
100
AcDbEntity
  8
RACCORDO
100
AcDbLine
 62
250
  6
CONTINUOUS
 10
-11.2529132414
 20
9.1923881554
 30
0.0
 11
-10.6495876996
 21
8.5890626137
 31
0.0
  0
LINE
  5
3AC
100
AcDbEntity
  8
RACCORDO
100
AcDbLine
 62
250
  6
CONTINUOUS
 10
12.8924985584
 20
-14.9530236443
 30
0.0
 11
13.4958241002
 21
-15.5563491861
 31
0.0
  0
LINE
  5
3AD
100
AcDbEntity
  8
RACCORDO
100
AcDbLine
 62
7
  6
CONTINUOUS
 10
13.8493774908
 20
-15.2027957955
 30
0.0
 11
13.246051949
 21
-14.5994702537
 31
0.0
  0
LINE
  5
3AE
100
AcDbEntity
  8
RACCORDO
100
AcDbLine
 62
7
  6
CONTINUOUS
 10
-10.296034309
 20
8.9426160042
 30
0.0
 11
-10.8993598508
 21
9.545941546
 31
0.0
  0
LINE
  5
3AF
100
AcDbEntity
  8
RACCORDO
100
AcDbLine
 62
250
  6
CONTINUOUS
 10
10.2619529651
 20
-10.2011577075
 30
0.0
 11
14.5564842719
 21
-14.4956890143
 31
0.0
  0
LINE
  5
3B0
100
AcDbEntity
  8
RACCORDO
100
AcDbLine
 62
250
  6
CONTINUOUS
 10
-5.8977217628
 20
5.9585170204
 30
0.0
 11
-10.1922530696
 21
10.2530483272
 31
0.0
  0
LINE
  5
3B1
100
AcDbEntity
  8
0
100
AcDbLine
 62
7
  6
CONTINUOUS
 10
19.9586719803
 20
-22.35
 30
0.0
 11
19.9188876626
 21
-22.3057951078
 31
0.0
  0
LINE
  5
3B2
100
AcDbEntity
  8
0
100
AcDbLine
 62
7
  6
CONTINUOUS
 10
-7.9042266751
 20
16.467897913
 30
0.0
 11
-8.4451140553
 21
17.921902
 31
0.0
  0
LINE
  5
3B3
100
AcDbEntity
  8
0
100
AcDbLine
 62
7
  6
CONTINUOUS
 10
1.3586719803
 20
23.2226497308
 30
0.0
 11
1.3534359447
 21
23.8
 31
0.0
  0
LINE
  5
3B4
100
AcDbEntity
  8
0
100
AcDbLine
 62
7
  6
CONTINUOUS
 10
0.3534359447
 20
-20.9959955457
 30
0.0
 11
0.3534359447
 21
-20.625166666
 31
0.0
  0
LINE
  5
3B5
100
AcDbEntity
  8
0
100
AcDbLine
 62
7
  6
CONTINUOUS
 10
0.3534359447
 20
20.625166666
 30
0.0
 11
0.3534359447
 21
20.9959955457
 31
0.0
  0
LINE
  5
3B6
100
AcDbEntity
  8
0
100
AcDbLine
 62
7
  6
CONTINUOUS
 10
0.4180147664
 20
-20.1271238747
 30
0.0
 11
0.4180147664
 21
-20.6374296429
 31
0.0
  0
LINE
  5
3B7
100
AcDbEntity
  8
0
100
AcDbLine
 62
7
  6
CONTINUOUS
 10
0.4180147664
 20
20.1271238749
 30
0.0
 11
0.4180147664
 21
20.6374296429
 31
0.0
  0
LINE
  5
3B8
100
AcDbEntity
  8
0
100
AcDbLine
 62
250
  6
CONTINUOUS
 10
0.620081599
 20
-21.2859869487
 30
0.0
 11
0.620081599
 21
-20.9959955457
 31
0.0
  0
LINE
  5
3B9
100
AcDbEntity
  8
0
100
AcDbLine
 62
250
  6
CONTINUOUS
 10
0.620081599
 20
20.9959955457
 30
0.0
 11
0.620081599
 21
21.2859869487
 31
0.0
  0
LINE
  5
3BA
100
AcDbEntity
  8
0
100
AcDbLine
 62
250
  6
CONTINUOUS
 10
1.1200054465
 20
-21.4537354271
 30
0.0
 11
1.1200054465
 21
-20.9917082642
 31
0.0
  0
LINE
  5
3BB
100
AcDbEntity
  8
0
100
AcDbLine
 62
250
  6
CONTINUOUS
 10
1.1200054465
 20
20.9917082642
 30
0.0
 11
1.1200054465
 21
21.4537354271
 31
0.0
  0
LINE
  5
3BC
100
AcDbEntity
  8
0
100
AcDbLine
 62
7
  6
CONTINUOUS
 10
1.2859808798
 20
21.4051134101
 30
0.0
 11
1.2859808798
 21
20.9087268678
 31
0.0
  0
LINE
  5
3BD
100
AcDbEntity
  8
0
100
AcDbLine
 62
7
  6
CONTINUOUS
 10
1.2859808798
 20
-20.9087268678
 30
0.0
 11
1.2859808798
 21
-21.4051134101
 31
0.0
  0
LINE
  5
3BE
100
AcDbEntity
  8
0
100
AcDbLine
 62
7
  6
CONTINUOUS
 10
1.3034359447
 20
4.5375000662
 30
0.0
 11
1.3034359447
 21
4.2900000662
 31
0.0
  0
LINE
  5
3BF
100
AcDbEntity
  8
0
100
AcDbLine
 62
7
  6
CONTINUOUS
 10
1.3034359447
 20
3.3000001252
 30
0.0
 11
1.3034359447
 21
3.0525000072
 31
0.0
  0
LINE
  5
3C0
100
AcDbEntity
  8
0
100
AcDbLine
 62
7
  6
CONTINUOUS
 10
1.3034359447
 20
1.8975001645
 30
0.0
 11
1.3034359447
 21
1.6500001645
 31
0.0
  0
LINE
  5
3C1
100
AcDbEntity
  8
0
100
AcDbLine
 62
7
  6
CONTINUOUS
 10
1.3034359447
 20
1.3200000072
 30
0.0
 11
1.3034359447
 21
1.0725002432
 31
0.0
  0
LINE
  5
3C2
100
AcDbEntity
  8
0
100
AcDbLine
 62
7
  6
CONTINUOUS
 10
1.3034359447
 20
0.4124999285
 30
0.0
 11
1.3034359447
 21
0.0825002432
 31
0.0
  0
LINE
  5
3C3
100
AcDbEntity
  8
0
100
AcDbLine
 62
7
  6
CONTINUOUS
 10
1.3034359447
 20
-0.5775000715
 30
0.0
 11
1.3034359447
 21
-0.9074997568
 31
0.0
  0
LINE
  5
3C4
100
AcDbEntity
  8
0
100
AcDbLine
 62
7
  6
CONTINUOUS
 10
1.3034359447
 20
-1.5675000715
 30
0.0
 11
1.3034359447
 21
-1.8150000715
 31
0.0
  0
LINE
  5
3C5
100
AcDbEntity
  8
0
100
AcDbLine
 62
7
  6
CONTINUOUS
 10
1.3034359447
 20
-2.9699999142
 30
0.0
 11
1.3034359447
 21
-3.2174999142
 31
0.0
  0
LINE
  5
3C6
100
AcDbEntity
  8
0
100
AcDbLine
 62
7
  6
CONTINUOUS
 10
1.3034359447
 20
-3.5474995995
 30
0.0
 11
1.3034359447
 21
-3.7949995995
 31
0.0
  0
LINE
  5
3C7
100
AcDbEntity
  8
0
100
AcDbLine
 62
7
  6
CONTINUOUS
 10
1.3034359447
 20
-4.8262499142
 30
0.0
 11
1.3034359447
 21
-5.1974999142
 31
0.0
  0
LINE
  5
3C8
100
AcDbEntity
  8
RACCORDO
100
AcDbLine
 62
250
  6
CONTINUOUS
 10
1.3034359447
 20
-17.5
 30
0.0
 11
1.3034359447
 21
-11.4266155818
 31
0.0
  0
LINE
  5
3C9
100
AcDbEntity
  8
RACCORDO
100
AcDbLine
 62
250
  6
CONTINUOUS
 10
1.3034359447
 20
11.4266155818
 30
0.0
 11
1.3034359447
 21
17.5
 31
0.0
  0
LINE
  5
3CA
100
AcDbEntity
  8
0
100
AcDbLine
 62
7
  6
CONTINUOUS
 10
1.3534359447
 20
24.2500034269
 30
0.0
 11
1.3534359447
 21
23.8
 31
0.0
  0
LINE
  5
3CB
100
AcDbEntity
  8
0
100
AcDbLine
 62
7
  6
CONTINUOUS
 10
1.3534359447
 20
-23.8
 30
0.0
 11
1.3534359447
 21
-24.2500034269
 31
0.0
  0
LINE
  5
3CC
100
AcDbEntity
  8
0
100
AcDbLine
 62
7
  6
CONTINUOUS
 10
1.3586719803
 20
23.2226497308
 30
0.0
 11
1.3586719803
 21
22.35
 31
0.0
  0
LINE
  5
3CD
100
AcDbEntity
  8
0
100
AcDbLine
 62
7
  6
CONTINUOUS
 10
1.3586719803
 20
-22.35
 30
0.0
 11
1.3586719803
 21
-23.2226497308
 31
0.0
  0
LINE
  5
3CE
100
AcDbEntity
  8
0
100
AcDbLine
 62
7
  6
CONTINUOUS
 10
1.865138071
 20
2.8875001645
 30
0.0
 11
1.865138071
 21
2.0625000072
 31
0.0
  0
LINE
  5
3CF
100
AcDbEntity
  8
0
100
AcDbLine
 62
7
  6
CONTINUOUS
 10
1.865138071
 20
-1.9799999142
 30
0.0
 11
1.865138071
 21
-2.8049995995
 31
0.0
  0
LINE
  5
3D0
100
AcDbEntity
  8
0
100
AcDbLine
 62
7
  6
CONTINUOUS
 10
2.0523720912
 20
-2.7637502289
 30
0.0
 11
2.0523720912
 21
-2.0212497568
 31
0.0
  0
LINE
  5
3D1
100
AcDbEntity
  8
0
100
AcDbLine
 62
7
  6
CONTINUOUS
 10
2.0523720912
 20
2.1037500858
 30
0.0
 11
2.0523720912
 21
2.8462500858
 31
0.0
  0
LINE
  5
3D2
100
AcDbEntity
  8
0
100
AcDbLine
 62
7
  6
CONTINUOUS
 10
1.3534359447
 20
-23.8
 30
0.0
 11
1.3586719803
 21
-23.2226497308
 31
0.0
  0
LINE
  5
3D3
100
AcDbEntity
  8
ASSI
100
AcDbLine
 62
7
  6
CONTINUOUS
 10
-20.8620612331
 20
-11.0728373039
 30
0.0
 11
-18.5962917656
 21
-10.0162916496
 31
0.0
  0
LINE
  5
3D4
100
AcDbEntity
  8
0
100
AcDbLine
 62
7
  6
CONTINUOUS
 10
-15.2369922747
 20
-8.8911757386
 30
0.0
 11
-15.5146696183
 21
-9.0206588104
 31
0.0
  0
LINE
  5
3D5
100
AcDbEntity
  8
0
100
AcDbLine
 62
7
  6
CONTINUOUS
 10
-15.1766128216
 20
-9.111280369
 30
0.0
 11
-16.5302895919
 21
-9.7425102136
 31
0.0
  0
LINE
  5
3D6
100
AcDbEntity
  8
0
100
AcDbLine
 62
7
  6
CONTINUOUS
 10
-16.435200483
 20
-9.9464294657
 30
0.0
 11
-14.8038464664
 21
-9.1857165946
 31
0.0
  0
LINE
  5
3D7
100
AcDbEntity
  8
ASSI
100
AcDbLine
 62
7
  6
CONTINUOUS
 10
-18.0891498515
 20
-11.103860994
 30
0.0
 11
-20.3549193191
 21
-12.1604066484
 31
0.0
  0
LINE
  5
3D8
100
AcDbEntity
  8
0
100
AcDbLine
 62
7
  6
CONTINUOUS
 10
-15.3559265983
 20
-5.7990892144
 30
0.0
 11
-15.4465640553
 21
-5.830599
 31
0.0
  0
LINE
  5
3D9
100
AcDbEntity
  8
0
100
AcDbLine
 62
7
  6
CONTINUOUS
 10
5.3034359447
 20
0.4511053611
 30
0.0
 11
6.2293568425
 21
0.4511053611
 31
0.0
  0
LINE
  5
3DA
100
AcDbEntity
  8
0
100
AcDbLine
 62
7
  6
CONTINUOUS
 10
-20.5050746896
 20
0.6622606125
 30
0.0
 11
-20.6965640553
 21
0.6622606125
 31
0.0
  0
LINE
  5
3DB
100
AcDbEntity
  8
0
100
AcDbLine
 62
7
  6
CONTINUOUS
 10
6.3389066331
 20
0.6942155935
 30
0.0
 11
5.3034359447
 21
0.6942155935
 31
0.0
  0
LINE
  5
3DC
100
AcDbEntity
  8
0
100
AcDbLine
 62
7
  6
CONTINUOUS
 10
1.3034359447
 20
1.0725002432
 30
0.0
 11
3.5034359447
 21
1.0725002432
 31
0.0
  0
LINE
  5
3DD
100
AcDbEntity
  8
0
100
AcDbLine
 62
7
  6
CONTINUOUS
 10
5.3034359447
 20
1.3033424713
 30
0.0
 11
6.1303118281
 21
1.3033424713
 31
0.0
  0
LINE
  5
3DE
100
AcDbEntity
  8
0
100
AcDbLine
 62
7
  6
CONTINUOUS
 10
3.5034359447
 20
1.3200000072
 30
0.0
 11
1.3034359447
 21
1.3200000072
 31
0.0
  0
LINE
  5
3DF
100
AcDbEntity
  8
0
100
AcDbLine
 62
7
  6
CONTINUOUS
 10
6.6735586874
 20
1.3290041305
 30
0.0
 11
6.8971603624
 21
1.3290041305
 31
0.0
  0
LINE
  5
3E0
100
AcDbEntity
  8
RACCORDO
100
AcDbLine
 62
7
  6
CONTINUOUS
 10
-25.1965640553
 20
1.5
 30
0.0
 11
-19.125353233
 21
1.5
 31
0.0
  0
LINE
  5
3E1
100
AcDbEntity
  8
0
100
AcDbLine
 62
7
  6
CONTINUOUS
 10
6.8971603624
 20
1.5464531757
 30
0.0
 11
5.3034359447
 21
1.5464531757
 31
0.0
  0
LINE
  5
3E2
100
AcDbEntity
  8
0
100
AcDbLine
 62
7
  6
CONTINUOUS
 10
5.3034359447
 20
1.9165211155
 30
0.0
 11
6.3133949868
 21
1.9165211155
 31
0.0
  0
LINE
  5
3E3
100
AcDbEntity
  8
RACCORDO
100
AcDbLine
 62
7
  6
CONTINUOUS
 10
-17.925353233
 20
2.1
 30
0.0
 11
-16.0859756369
 21
2.1
 31
0.0
  0
LINE
  5
3E4
100
AcDbEntity
  8
0
100
AcDbLine
 62
7
  6
CONTINUOUS
 10
6.3133949868
 20
2.1596318199
 30
0.0
 11
5.3034359447
 21
2.1596318199
 31
0.0
  0
LINE
  5
3E5
100
AcDbEntity
  8
0
100
AcDbLine
 62
7
  6
CONTINUOUS
 10
3.5034359447
 20
-0.0825000715
 30
0.0
 11
1.8183295659
 21
0.2475000858
 31
0.0
  0
LINE
  5
3E6
100
AcDbEntity
  8
ASSI
100
AcDbLine
 62
7
  6
CONTINUOUS
 10
-18.5962917656
 20
10.0162916496
 30
0.0
 11
-20.8620612331
 21
11.0728373039
 31
0.0
  0
LINE
  5
3E7
100
AcDbEntity
  8
ASSI
100
AcDbLine
 62
7
  6
CONTINUOUS
 10
-20.3549193191
 20
12.1604066484
 30
0.0
 11
-18.0891498515
 21
11.103860994
 31
0.0
  0
LINE
  5
3E8
100
AcDbEntity
  8
0
100
AcDbLine
 62
7
  6
CONTINUOUS
 10
-16.464114844
 20
8.954422117
 30
0.0
 11
-16.3271465119
 21
8.8858123304
 31
0.0
  0
LINE
  5
3E9
100
AcDbEntity
  8
0
100
AcDbLine
 62
7
  6
CONTINUOUS
 10
-15.6597517963
 20
8.5934444985
 30
0.0
 11
-15.5912675344
 21
8.5591395571
 31
0.0
  0
LINE
  5
3EA
100
AcDbEntity
  8
0
100
AcDbLine
 62
7
  6
CONTINUOUS
 10
-16.2431709658
 20
9.0534559139
 30
0.0
 11
-16.380139298
 21
9.1220657004
 31
0.0
  0
LINE
  5
3EB
100
AcDbEntity
  8
0
100
AcDbLine
 62
7
  6
CONTINUOUS
 10
-15.5072919883
 20
8.7267831406
 30
0.0
 11
-15.5757762503
 21
8.7610880819
 31
0.0
  0
LINE
  5
3EC
100
AcDbEntity
  8
0
100
AcDbLine
 62
7
  6
CONTINUOUS
 10
-15.6145814385
 20
9.3677095833
 30
0.0
 11
-15.7515497706
 21
9.4363193698
 31
0.0
  0
LINE
  5
3ED
100
AcDbEntity
  8
DRAFT
100
AcDbLine
 62
7
  6
CONTINUOUS
 10
22.0534359447
 20
-20.0
 30
0.0
 11
21.882341554
 21
-19.8289056093
 31
0.0
  0
LINE
  5
3EE
100
AcDbEntity
  8
0
100
AcDbLine
 62
7
  6
CONTINUOUS
 10
3.6284359447
 20
-23.8
 30
0.0
 11
3.6231999091
 21
-23.2226497308
 31
0.0
  0
LINE
  5
3EF
100
AcDbEntity
  8
0
100
AcDbLine
 62
7
  6
CONTINUOUS
 10
3.2693934194
 20
5.1975000858
 30
0.0
 11
3.2693934194
 21
4.5375000662
 31
0.0
  0
LINE
  5
3F0
100
AcDbEntity
  8
0
100
AcDbLine
 62
7
  6
CONTINUOUS
 10
3.2693934194
 20
4.2900000662
 30
0.0
 11
3.2693934194
 21
3.6300000465
 31
0.0
  0
LINE
  5
3F1
100
AcDbEntity
  8
0
100
AcDbLine
 62
7
  6
CONTINUOUS
 10
3.5034359447
 20
-5.1974999142
 30
0.0
 11
3.5034359447
 21
-4.9499999142
 31
0.0
  0
LINE
  5
3F2
100
AcDbEntity
  8
0
100
AcDbLine
 62
7
  6
CONTINUOUS
 10
3.5034359447
 20
-3.9187495995
 30
0.0
 11
3.5034359447
 21
-3.5474995995
 31
0.0
  0
LINE
  5
3F3
100
AcDbEntity
  8
0
100
AcDbLine
 62
7
  6
CONTINUOUS
 10
3.5034359447
 20
-2.5575000715
 30
0.0
 11
3.5034359447
 21
-2.2274999142
 31
0.0
  0
LINE
  5
3F4
100
AcDbEntity
  8
0
100
AcDbLine
 62
7
  6
CONTINUOUS
 10
3.5034359447
 20
-1.2374999142
 30
0.0
 11
3.5034359447
 21
-0.9899999142
 31
0.0
  0
LINE
  5
3F5
100
AcDbEntity
  8
0
100
AcDbLine
 62
7
  6
CONTINUOUS
 10
3.5034359447
 20
-0.4124997568
 30
0.0
 11
3.5034359447
 21
-0.0825000715
 31
0.0
  0
LINE
  5
3F6
100
AcDbEntity
  8
0
100
AcDbLine
 62
7
  6
CONTINUOUS
 10
3.5034359447
 20
0.4950000858
 30
0.0
 11
3.5034359447
 21
0.7425000858
 31
0.0
  0
LINE
  5
3F7
100
AcDbEntity
  8
0
100
AcDbLine
 62
7
  6
CONTINUOUS
 10
3.5034359447
 20
1.0725002432
 30
0.0
 11
3.5034359447
 21
1.3200000072
 31
0.0
  0
LINE
  5
3F8
100
AcDbEntity
  8
0
100
AcDbLine
 62
7
  6
CONTINUOUS
 10
3.5034359447
 20
2.3100000072
 30
0.0
 11
3.5034359447
 21
2.6400001645
 31
0.0
  0
LINE
  5
3F9
100
AcDbEntity
  8
0
100
AcDbLine
 62
7
  6
CONTINUOUS
 10
3.5034359447
 20
3.6300000465
 30
0.0
 11
3.5034359447
 21
5.1975000858
 31
0.0
  0
LINE
  5
3FA
100
AcDbEntity
  8
0
100
AcDbLine
 62
7
  6
CONTINUOUS
 10
3.6231999091
 20
23.2226497308
 30
0.0
 11
3.6231999091
 21
22.35
 31
0.0
  0
LINE
  5
3FB
100
AcDbEntity
  8
0
100
AcDbLine
 62
7
  6
CONTINUOUS
 10
3.6231999091
 20
-22.35
 30
0.0
 11
3.6231999091
 21
-23.2226497308
 31
0.0
  0
LINE
  5
3FC
100
AcDbEntity
  8
0
100
AcDbLine
 62
7
  6
CONTINUOUS
 10
3.6284359447
 20
-24.2500034269
 30
0.0
 11
3.6284359447
 21
-23.8
 31
0.0
  0
LINE
  5
3FD
100
AcDbEntity
  8
0
100
AcDbLine
 62
7
  6
CONTINUOUS
 10
3.6284359447
 20
23.8
 30
0.0
 11
3.6284359447
 21
24.2500034269
 31
0.0
  0
LINE
  5
3FE
100
AcDbEntity
  8
0
100
AcDbLine
 62
7
  6
CONTINUOUS
 10
4.9784359447
 20
24.2500034269
 30
0.0
 11
4.9784359447
 21
23.8
 31
0.0
  0
LINE
  5
3FF
100
AcDbEntity
  8
0
100
AcDbLine
 62
7
  6
CONTINUOUS
 10
4.9784359447
 20
-23.8
 30
0.0
 11
4.9784359447
 21
-24.2500034269
 31
0.0
  0
LINE
  5
400
100
AcDbEntity
  8
0
100
AcDbLine
 62
7
  6
CONTINUOUS
 10
4.9836719803
 20
23.2226497308
 30
0.0
 11
4.9836719803
 21
22.35
 31
0.0
  0
LINE
  5
401
100
AcDbEntity
  8
0
100
AcDbLine
 62
7
  6
CONTINUOUS
 10
4.9836719803
 20
-22.35
 30
0.0
 11
4.9836719803
 21
-23.2226497308
 31
0.0
  0
LINE
  5
402
100
AcDbEntity
  8
0
100
AcDbLine
 62
7
  6
CONTINUOUS
 10
3.6231999091
 20
23.2226497308
 30
0.0
 11
3.6284359447
 21
23.8
 31
0.0
  0
LINE
  5
403
100
AcDbEntity
  8
DRAFT
100
AcDbLine
 62
7
  6
CONTINUOUS
 10
0.4494314904
 20
-20.9
 30
0.0
 11
0.5243110638
 21
-20.4503229513
 31
0.0
  0
LINE
  5
404
100
AcDbEntity
  8
DRAFT
100
AcDbLine
 62
7
  6
CONTINUOUS
 10
8.0825608257
 20
20.4503229513
 30
0.0
 11
8.157440399
 21
20.9
 31
0.0
  0
LINE
  5
405
100
AcDbEntity
  8
0
100
AcDbLine
 62
7
  6
CONTINUOUS
 10
19.5211058097
 20
13.7308119784
 30
0.0
 11
19.5638524048
 21
13.7744680703
 31
0.0
  0
LINE
  5
406
100
AcDbEntity
  8
0
100
AcDbLine
 62
7
  6
CONTINUOUS
 10
-9.2088937087
 20
-15.4129176534
 30
0.0
 11
-9.6262700553
 21
-15.830294
 31
0.0
  0
LINE
  5
407
100
AcDbEntity
  8
0
100
AcDbLine
 62
7
  6
CONTINUOUS
 10
-9.4565640553
 20
-16.0
 30
0.0
 11
-9.0282752028
 21
-15.5717111475
 31
0.0
  0
LINE
  5
408
100
AcDbEntity
  8
DRAFT
100
AcDbLine
 62
7
  6
CONTINUOUS
 10
-13.2754696645
 20
-19.8289056093
 30
0.0
 11
-13.4465640553
 21
-20.0
 31
0.0
  0
LINE
  5
409
100
AcDbEntity
  8
0
100
AcDbLine
 62
7
  6
CONTINUOUS
 10
1.6310955129
 20
-4.9499999142
 30
0.0
 11
3.5034359447
 21
-3.9187495995
 31
0.0
  0
LINE
  5
40A
100
AcDbEntity
  8
0
100
AcDbLine
 62
7
  6
CONTINUOUS
 10
3.2225849144
 20
-3.7949995995
 30
0.0
 11
1.3034359447
 21
-4.8262499142
 31
0.0
  0
LINE
  5
40B
100
AcDbEntity
  8
RACCORDO
100
AcDbLine
 62
7
  6
CONTINUOUS
 10
-20.009713301
 20
-12.9924745656
 30
0.0
 11
-14.5367161613
 21
-10.4403740863
 31
0.0
  0
LINE
  5
40C
100
AcDbEntity
  8
0
100
AcDbLine
 62
7
  6
CONTINUOUS
 10
1.3034359447
 20
-3.2174999142
 30
0.0
 11
3.5034359447
 21
-2.5575000715
 31
0.0
  0
LINE
  5
40D
100
AcDbEntity
  8
0
100
AcDbLine
 62
7
  6
CONTINUOUS
 10
1.865138071
 20
-2.8049995995
 30
0.0
 11
1.3034359447
 21
-2.9699999142
 31
0.0
  0
LINE
  5
40E
100
AcDbEntity
  8
0
100
AcDbLine
 62
7
  6
CONTINUOUS
 10
3.3162019245
 20
-2.3924997568
 30
0.0
 11
2.0523720912
 21
-2.7637502289
 31
0.0
  0
LINE
  5
40F
100
AcDbEntity
  8
0
100
AcDbLine
 62
7
  6
CONTINUOUS
 10
-19.3178406008
 20
-0.6877393875
 30
0.0
 11
-19.1646491297
 21
-0.6502394232
 31
0.0
  0
LINE
  5
410
100
AcDbEntity
  8
0
100
AcDbLine
 62
7
  6
CONTINUOUS
 10
5.3034359447
 20
2.841691909
 30
0.0
 11
6.1753322415
 21
2.841691909
 31
0.0
  0
LINE
  5
411
100
AcDbEntity
  8
0
100
AcDbLine
 62
7
  6
CONTINUOUS
 10
6.7140771381
 20
2.841691909
 30
0.0
 11
7.5034359447
 21
2.841691909
 31
0.0
  0
LINE
  5
412
100
AcDbEntity
  8
RACCORDO
100
AcDbLine
 62
250
  6
CONTINUOUS
 10
-7.1231796371
 20
3.0
 30
0.0
 11
-13.1965640553
 21
3.0
 31
0.0
  0
LINE
  5
413
100
AcDbEntity
  8
RACCORDO
100
AcDbLine
 62
250
  6
CONTINUOUS
 10
15.7300515266
 20
3.0
 30
0.0
 11
21.8034359447
 21
3.0
 31
0.0
  0
LINE
  5
414
100
AcDbEntity
  8
0
100
AcDbLine
 62
7
  6
CONTINUOUS
 10
7.5034359447
 20
3.0848021413
 30
0.0
 11
5.3034359447
 21
3.0848021413
 31
0.0
  0
LINE
  5
415
100
AcDbEntity
  8
0
100
AcDbLine
 62
7
  6
CONTINUOUS
 10
3.2693934194
 20
3.6300000465
 30
0.0
 11
3.5034359447
 21
3.6300000465
 31
0.0
  0
LINE
  5
416
100
AcDbEntity
  8
RACCORDO
100
AcDbLine
 62
7
  6
CONTINUOUS
 10
-13.1965640553
 20
4.0
 30
0.0
 11
-12.3433328916
 21
4.0
 31
0.0
  0
LINE
  5
417
100
AcDbEntity
  8
RACCORDO
100
AcDbLine
 62
7
  6
CONTINUOUS
 10
20.950204781
 20
4.0
 30
0.0
 11
21.8034359447
 21
4.0
 31
0.0
  0
LINE
  5
418
100
AcDbEntity
  8
0
100
AcDbLine
 62
7
  6
CONTINUOUS
 10
1.3034359447
 20
4.2900000662
 30
0.0
 11
3.2693934194
 21
4.2900000662
 31
0.0
  0
LINE
  5
419
100
AcDbEntity
  8
RACCORDO
100
AcDbLine
 62
250
  6
CONTINUOUS
 10
21.8034359447
 20
4.5
 30
0.0
 11
20.950204781
 21
4.5
 31
0.0
  0
LINE
  5
41A
100
AcDbEntity
  8
RACCORDO
100
AcDbLine
 62
250
  6
CONTINUOUS
 10
-12.3433328916
 20
4.5
 30
0.0
 11
-13.1965640553
 21
4.5
 31
0.0
  0
LINE
  5
41B
100
AcDbEntity
  8
0
100
AcDbLine
 62
7
  6
CONTINUOUS
 10
3.2693934194
 20
4.5375000662
 30
0.0
 11
1.3034359447
 21
4.5375000662
 31
0.0
  0
LINE
  5
41C
100
AcDbEntity
  8
0
100
AcDbLine
 62
7
  6
CONTINUOUS
 10
-15.5912675344
 20
8.5591395571
 30
0.0
 11
-15.4375040642
 21
8.5240585448
 31
0.0
  0
LINE
  5
41D
100
AcDbEntity
  8
0
100
AcDbLine
 62
7
  6
CONTINUOUS
 10
-16.3271465119
 20
8.8858123304
 30
0.0
 11
-16.1733830418
 21
8.8507311981
 31
0.0
  0
LINE
  5
41E
100
AcDbEntity
  8
0
100
AcDbLine
 62
7
  6
CONTINUOUS
 10
1.3034359447
 20
3.0525000072
 30
0.0
 11
1.865138071
 21
2.8875001645
 31
0.0
  0
LINE
  5
41F
100
AcDbEntity
  8
0
100
AcDbLine
 62
7
  6
CONTINUOUS
 10
2.0523720912
 20
2.8462500858
 30
0.0
 11
3.3162019245
 21
2.4750000858
 31
0.0
  0
LINE
  5
420
100
AcDbEntity
  8
0
100
AcDbLine
 62
7
  6
CONTINUOUS
 10
3.5034359447
 20
2.6400001645
 30
0.0
 11
1.3034359447
 21
3.3000001252
 31
0.0
  0
LINE
  5
421
100
AcDbEntity
  8
RACCORDO
100
AcDbLine
 62
7
  6
CONTINUOUS
 10
-14.5367161613
 20
10.4403740863
 30
0.0
 11
-19.9861008062
 21
12.9814638784
 31
0.0
  0
LINE
  5
422
100
AcDbEntity
  8
DRAFT
100
AcDbLine
 62
7
  6
CONTINUOUS
 10
-13.4465640553
 20
20.0
 30
0.0
 11
-13.2754696645
 21
19.8289056093
 31
0.0
  0
LINE
  5
423
100
AcDbEntity
  8
DRAFT
100
AcDbLine
 62
7
  6
CONTINUOUS
 10
0.5243110638
 20
20.4503229513
 30
0.0
 11
0.4494314904
 21
20.9
 31
0.0
  0
LINE
  5
424
100
AcDbEntity
  8
DRAFT
100
AcDbLine
 62
7
  6
CONTINUOUS
 10
8.157440399
 20
-20.9
 30
0.0
 11
8.0825608257
 21
-20.4503229513
 31
0.0
  0
LINE
  5
425
100
AcDbEntity
  8
0
100
AcDbLine
 62
7
  6
CONTINUOUS
 10
5.903708779
 20
-3.2522780465
 30
0.0
 11
5.8796978526
 21
-2.9970125149
 31
0.0
  0
LINE
  5
426
100
AcDbEntity
  8
0
100
AcDbLine
 62
7
  6
CONTINUOUS
 10
4.9784359447
 20
23.8
 30
0.0
 11
4.9836719803
 21
23.2226497308
 31
0.0
  0
LINE
  5
427
100
AcDbEntity
  8
0
100
AcDbLine
 62
7
  6
CONTINUOUS
 10
7.2481999091
 20
-23.2226497308
 30
0.0
 11
7.2534359447
 21
-23.8
 31
0.0
  0
LINE
  5
428
100
AcDbEntity
  8
0
100
AcDbLine
 62
7
  6
CONTINUOUS
 10
5.3034359447
 20
3.0848021413
 30
0.0
 11
5.3034359447
 21
2.841691909
 31
0.0
  0
LINE
  5
429
100
AcDbEntity
  8
0
100
AcDbLine
 62
7
  6
CONTINUOUS
 10
5.3034359447
 20
2.1596318199
 30
0.0
 11
5.3034359447
 21
1.9165211155
 31
0.0
  0
LINE
  5
42A
100
AcDbEntity
  8
0
100
AcDbLine
 62
7
  6
CONTINUOUS
 10
5.3034359447
 20
1.5464531757
 30
0.0
 11
5.3034359447
 21
1.3033424713
 31
0.0
  0
LINE
  5
42B
100
AcDbEntity
  8
0
100
AcDbLine
 62
7
  6
CONTINUOUS
 10
5.3034359447
 20
0.6942155935
 30
0.0
 11
5.3034359447
 21
0.4511053611
 31
0.0
  0
LINE
  5
42C
100
AcDbEntity
  8
0
100
AcDbLine
 62
7
  6
CONTINUOUS
 10
5.3034359447
 20
-0.1553203391
 30
0.0
 11
5.3034359447
 21
-0.3970804547
 31
0.0
  0
LINE
  5
42D
100
AcDbEntity
  8
0
100
AcDbLine
 62
7
  6
CONTINUOUS
 10
5.3034359447
 20
-2.1312685727
 30
0.0
 11
5.3034359447
 21
-2.3743792771
 31
0.0
  0
LINE
  5
42E
100
AcDbEntity
  8
0
100
AcDbLine
 62
7
  6
CONTINUOUS
 10
5.3034359447
 20
-4.9797136925
 30
0.0
 11
5.3034359447
 21
-5.2471349953
 31
0.0
  0
LINE
  5
42F
100
AcDbEntity
  8
0
100
AcDbLine
 62
7
  6
CONTINUOUS
 10
5.3034359447
 20
-6.20471992
 30
0.0
 11
5.3034359447
 21
-6.4572852181
 31
0.0
  0
LINE
  5
430
100
AcDbEntity
  8
0
100
AcDbLine
 62
7
  6
CONTINUOUS
 10
6.8971603624
 20
1.3290041305
 30
0.0
 11
6.8971603624
 21
1.5464531757
 31
0.0
  0
LINE
  5
431
100
AcDbEntity
  8
0
100
AcDbLine
 62
7
  6
CONTINUOUS
 10
7.215304958
 20
-3.4265073059
 30
0.0
 11
7.215304958
 21
-4.2166163872
 31
0.0
  0
LINE
  5
432
100
AcDbEntity
  8
0
100
AcDbLine
 62
7
  6
CONTINUOUS
 10
7.2481999091
 20
23.2226497308
 30
0.0
 11
7.2481999091
 21
22.35
 31
0.0
  0
LINE
  5
433
100
AcDbEntity
  8
0
100
AcDbLine
 62
7
  6
CONTINUOUS
 10
7.2481999091
 20
-22.35
 30
0.0
 11
7.2481999091
 21
-23.2226497308
 31
0.0
  0
LINE
  5
434
100
AcDbEntity
  8
0
100
AcDbLine
 62
7
  6
CONTINUOUS
 10
7.2534359447
 20
-24.2500034269
 30
0.0
 11
7.2534359447
 21
-23.8
 31
0.0
  0
LINE
  5
435
100
AcDbEntity
  8
0
100
AcDbLine
 62
7
  6
CONTINUOUS
 10
7.2534359447
 20
23.8
 30
0.0
 11
7.2534359447
 21
24.2500034269
 31
0.0
  0
LINE
  5
436
100
AcDbEntity
  8
RACCORDO
100
AcDbLine
 62
250
  6
CONTINUOUS
 10
7.3034359447
 20
-11.4266155818
 30
0.0
 11
7.3034359447
 21
-17.5
 31
0.0
  0
LINE
  5
437
100
AcDbEntity
  8
RACCORDO
100
AcDbLine
 62
250
  6
CONTINUOUS
 10
7.3034359447
 20
11.4266155818
 30
0.0
 11
7.3034359447
 21
17.5
 31
0.0
  0
LINE
  5
438
100
AcDbEntity
  8
0
100
AcDbLine
 62
7
  6
CONTINUOUS
 10
7.3208910097
 20
-21.4051134101
 30
0.0
 11
7.3208910097
 21
-20.9087268678
 31
0.0
  0
LINE
  5
439
100
AcDbEntity
  8
0
100
AcDbLine
 62
7
  6
CONTINUOUS
 10
7.3208910097
 20
20.9087268678
 30
0.0
 11
7.3208910097
 21
21.4051134101
 31
0.0
  0
LINE
  5
43A
100
AcDbEntity
  8
0
100
AcDbLine
 62
7
  6
CONTINUOUS
 10
7.4734223358
 20
-4.2166163872
 30
0.0
 11
7.4734223358
 21
-3.2320187424
 31
0.0
  0
LINE
  5
43B
100
AcDbEntity
  8
0
100
AcDbLine
 62
250
  6
CONTINUOUS
 10
7.4868664429
 20
21.4537354271
 30
0.0
 11
7.4868664429
 21
20.9917082642
 31
0.0
  0
LINE
  5
43C
100
AcDbEntity
  8
0
100
AcDbLine
 62
250
  6
CONTINUOUS
 10
7.4868664429
 20
-20.9917082642
 30
0.0
 11
7.4868664429
 21
-21.4537354271
 31
0.0
  0
LINE
  5
43D
100
AcDbEntity
  8
0
100
AcDbLine
 62
7
  6
CONTINUOUS
 10
7.5034359447
 20
-7.0002313565
 30
0.0
 11
7.5034359447
 21
-6.7368622921
 31
0.0
  0
LINE
  5
43E
100
AcDbEntity
  8
0
100
AcDbLine
 62
7
  6
CONTINUOUS
 10
7.5034359447
 20
-5.8900275372
 30
0.0
 11
7.5034359447
 21
-5.5739831494
 31
0.0
  0
LINE
  5
43F
100
AcDbEntity
  8
0
100
AcDbLine
 62
7
  6
CONTINUOUS
 10
7.5034359447
 20
-4.7230971001
 30
0.0
 11
7.5034359447
 21
-4.4543247364
 31
0.0
  0
LINE
  5
440
100
AcDbEntity
  8
0
100
AcDbLine
 62
7
  6
CONTINUOUS
 10
7.5034359447
 20
2.841691909
 30
0.0
 11
7.5034359447
 21
3.0848021413
 31
0.0
  0
LINE
  5
441
100
AcDbEntity
  8
0
100
AcDbLine
 62
7
  6
CONTINUOUS
 10
7.5124401323
 20
-2.3743792771
 30
0.0
 11
7.5124401323
 21
-2.217708144
 31
0.0
  0
LINE
  5
442
100
AcDbEntity
  8
0
100
AcDbLine
 62
7
  6
CONTINUOUS
 10
4.9836719803
 20
-23.2226497308
 30
0.0
 11
4.9784359447
 21
-23.8
 31
0.0
  0
LINE
  5
443
100
AcDbEntity
  8
0
100
AcDbLine
 62
7
  6
CONTINUOUS
 10
7.2534359447
 20
23.8
 30
0.0
 11
7.2481999091
 21
23.2226497308
 31
0.0
  0
LINE
  5
444
100
AcDbEntity
  8
0
100
AcDbLine
 62
7
  6
CONTINUOUS
 10
6.3434086613
 20
-3.0402313565
 30
0.0
 11
6.3103936784
 21
-3.268485112
 31
0.0
  0
LINE
  5
445
100
AcDbEntity
  8
0
100
AcDbLine
 62
7
  6
CONTINUOUS
 10
-11.3120157732
 20
-22.3057951078
 30
0.0
 11
-11.3518000909
 21
-22.35
 31
0.0
  0
LINE
  5
446
100
AcDbEntity
  8
RACCORDO
100
AcDbLine
 62
250
  6
CONTINUOUS
 10
-1.6550810756
 20
-10.2011577075
 30
0.0
 11
-5.9496123825
 21
-14.4956890143
 31
0.0
  0
LINE
  5
447
100
AcDbEntity
  8
RACCORDO
100
AcDbLine
 62
250
  6
CONTINUOUS
 10
14.5045936522
 20
5.9585170204
 30
0.0
 11
18.7991249591
 21
10.2530483272
 31
0.0
  0
LINE
  5
448
100
AcDbEntity
  8
RACCORDO
100
AcDbLine
 62
7
  6
CONTINUOUS
 10
19.5062317402
 20
9.545941546
 30
0.0
 11
18.9029061985
 21
8.9426160042
 31
0.0
  0
LINE
  5
449
100
AcDbEntity
  8
RACCORDO
100
AcDbLine
 62
7
  6
CONTINUOUS
 10
-4.6391800595
 20
-14.5994702537
 30
0.0
 11
-5.2425056013
 21
-15.2027957955
 31
0.0
  0
LINE
  5
44A
100
AcDbEntity
  8
RACCORDO
100
AcDbLine
 62
250
  6
CONTINUOUS
 10
-4.8889522107
 20
-15.5563491861
 30
0.0
 11
-4.2856266689
 21
-14.9530236443
 31
0.0
  0
LINE
  5
44B
100
AcDbEntity
  8
RACCORDO
100
AcDbLine
 62
250
  6
CONTINUOUS
 10
19.2564595891
 20
8.5890626137
 30
0.0
 11
19.8597851308
 21
9.1923881554
 31
0.0
  0
LINE
  5
44C
100
AcDbEntity
  8
0
100
AcDbLine
 62
7
  6
CONTINUOUS
 10
-14.1871056815
 20
-22.2859700255
 30
0.0
 11
-14.2523818851
 21
-22.3441821702
 31
0.0
  0
LINE
  5
44D
100
AcDbEntity
  8
0
100
AcDbLine
 62
7
  6
CONTINUOUS
 10
3.5034359447
 20
5.1975000858
 30
0.0
 11
3.2693934194
 21
5.1975000858
 31
0.0
  0
LINE
  5
44E
100
AcDbEntity
  8
0
100
AcDbLine
 62
7
  6
CONTINUOUS
 10
-14.1871056815
 20
22.2859700255
 30
0.0
 11
-14.2523818851
 21
22.3441821702
 31
0.0
  0
LINE
  5
44F
100
AcDbEntity
  8
RACCORDO
100
AcDbLine
 62
250
  6
CONTINUOUS
 10
14.5045936522
 20
-5.9585170204
 30
0.0
 11
18.7991249591
 21
-10.2530483272
 31
0.0
  0
LINE
  5
450
100
AcDbEntity
  8
RACCORDO
100
AcDbLine
 62
250
  6
CONTINUOUS
 10
-1.6550810756
 20
10.2011577075
 30
0.0
 11
-5.9496123825
 21
14.4956890143
 31
0.0
  0
LINE
  5
451
100
AcDbEntity
  8
RACCORDO
100
AcDbLine
 62
7
  6
CONTINUOUS
 10
-5.2425056013
 20
15.2027957955
 30
0.0
 11
-4.6391800595
 21
14.5994702537
 31
0.0
  0
LINE
  5
452
100
AcDbEntity
  8
RACCORDO
100
AcDbLine
 62
7
  6
CONTINUOUS
 10
18.9029061985
 20
-8.9426160042
 30
0.0
 11
19.5062317402
 21
-9.545941546
 31
0.0
  0
LINE
  5
453
100
AcDbEntity
  8
RACCORDO
100
AcDbLine
 62
250
  6
CONTINUOUS
 10
19.8597851308
 20
-9.1923881554
 30
0.0
 11
19.2564595891
 21
-8.5890626137
 31
0.0
  0
LINE
  5
454
100
AcDbEntity
  8
RACCORDO
100
AcDbLine
 62
250
  6
CONTINUOUS
 10
-4.2856266689
 20
14.9530236443
 30
0.0
 11
-4.8889522107
 21
15.5563491861
 31
0.0
  0
LINE
  5
455
100
AcDbEntity
  8
0
100
AcDbLine
 62
7
  6
CONTINUOUS
 10
-11.3518000909
 20
22.35
 30
0.0
 11
-11.3120157732
 21
22.3057951078
 31
0.0
  0
LINE
  5
456
100
AcDbEntity
  8
0
100
AcDbLine
 62
250
  6
CONTINUOUS
 10
7.9867902905
 20
21.2859869487
 30
0.0
 11
7.9867902905
 21
20.9959955457
 31
0.0
  0
LINE
  5
457
100
AcDbEntity
  8
0
100
AcDbLine
 62
250
  6
CONTINUOUS
 10
7.9867902905
 20
-20.9959955457
 30
0.0
 11
7.9867902905
 21
-21.2859869487
 31
0.0
  0
LINE
  5
458
100
AcDbEntity
  8
0
100
AcDbLine
 62
7
  6
CONTINUOUS
 10
8.1888571231
 20
-20.1271238749
 30
0.0
 11
8.1888571231
 21
-20.6374296429
 31
0.0
  0
LINE
  5
459
100
AcDbEntity
  8
0
100
AcDbLine
 62
7
  6
CONTINUOUS
 10
8.1888571231
 20
20.1271238747
 30
0.0
 11
8.1888571231
 21
20.6374296429
 31
0.0
  0
LINE
  5
45A
100
AcDbEntity
  8
0
100
AcDbLine
 62
7
  6
CONTINUOUS
 10
8.2534359447
 20
20.9959955457
 30
0.0
 11
8.2534359447
 21
20.625166666
 31
0.0
  0
LINE
  5
45B
100
AcDbEntity
  8
0
100
AcDbLine
 62
7
  6
CONTINUOUS
 10
8.2534359447
 20
-20.625166666
 30
0.0
 11
8.2534359447
 21
-20.9959955457
 31
0.0
  0
LINE
  5
45C
100
AcDbEntity
  8
RACCORDO
100
AcDbLine
 62
7
  6
CONTINUOUS
 10
8.3034359447
 20
17.5
 30
0.0
 11
8.3034359447
 21
16.6467688363
 31
0.0
  0
LINE
  5
45D
100
AcDbEntity
  8
RACCORDO
100
AcDbLine
 62
7
  6
CONTINUOUS
 10
8.3034359447
 20
-16.6467688363
 30
0.0
 11
8.3034359447
 21
-17.5
 31
0.0
  0
LINE
  5
45E
100
AcDbEntity
  8
RACCORDO
100
AcDbLine
 62
250
  6
CONTINUOUS
 10
8.8034359447
 20
-17.5
 30
0.0
 11
8.8034359447
 21
-16.6467688363
 31
0.0
  0
LINE
  5
45F
100
AcDbEntity
  8
RACCORDO
100
AcDbLine
 62
250
  6
CONTINUOUS
 10
8.8034359447
 20
16.6467688363
 30
0.0
 11
8.8034359447
 21
17.5
 31
0.0
  0
LINE
  5
460
100
AcDbEntity
  8
0
100
AcDbLine
 62
7
  6
CONTINUOUS
 10
9.1180147664
 20
-19.9354211783
 30
0.0
 11
9.1180147664
 21
-19.9233020016
 31
0.0
  0
LINE
  5
461
100
AcDbEntity
  8
0
100
AcDbLine
 62
7
  6
CONTINUOUS
 10
9.1180147664
 20
19.9233020014
 30
0.0
 11
9.1180147664
 21
19.9354211783
 31
0.0
  0
LINE
  5
462
100
AcDbEntity
  8
0
100
AcDbLine
 62
7
  6
CONTINUOUS
 10
19.4826024048
 20
13.9127659261
 30
0.0
 11
19.4302174175
 21
13.8325162874
 31
0.0
  0
LINE
  5
463
100
AcDbEntity
  8
0
100
AcDbLine
 62
7
  6
CONTINUOUS
 10
-5.7813792067
 20
-17.8448151514
 30
0.0
 11
-6.6965640553
 21
-18.76
 31
0.0
  0
LINE
  5
464
100
AcDbEntity
  8
0
100
AcDbLine
 62
7
  6
CONTINUOUS
 10
-6.5268580553
 20
-18.929706
 30
0.0
 11
-5.5627817783
 21
-17.9656297231
 31
0.0
  0
LINE
  5
465
100
AcDbEntity
  8
0
100
AcDbLine
 62
7
  6
CONTINUOUS
 10
-11.3465640553
 20
-23.8
 30
0.0
 11
-11.3125024085
 21
-23.7659383532
 31
0.0
  0
LINE
  5
466
100
AcDbEntity
  8
0
100
AcDbLine
 62
250
  6
CONTINUOUS
 10
-18.0465640553
 20
-21.850016923
 30
0.0
 11
-18.0378371875
 21
-21.8441990932
 31
0.0
  0
LINE
  5
467
100
AcDbEntity
  8
0
100
AcDbLine
 62
250
  6
CONTINUOUS
 10
-17.5465704014
 20
-22.35
 30
0.0
 11
-17.5378435336
 21
-22.3441821702
 31
0.0
  0
LINE
  5
468
100
AcDbEntity
  8
0
100
AcDbLine
 62
7
  6
CONTINUOUS
 10
-16.0726124058
 20
9.0519034599
 30
0.0
 11
-16.2431709658
 21
9.0534559139
 31
0.0
  0
LINE
  5
469
100
AcDbEntity
  8
0
100
AcDbLine
 62
7
  6
CONTINUOUS
 10
-16.0287458299
 20
9.9945883192
 30
0.0
 11
-15.9434665558
 21
9.9938121402
 31
0.0
  0
LINE
  5
46A
100
AcDbEntity
  8
0
100
AcDbLine
 62
7
  6
CONTINUOUS
 10
-15.8594910278
 20
10.1614556877
 30
0.0
 11
-15.9790124074
 21
10.1793843283
 31
0.0
  0
LINE
  5
46B
100
AcDbEntity
  8
0
100
AcDbLine
 62
250
  6
CONTINUOUS
 10
-18.0378371875
 20
21.8441990932
 30
0.0
 11
-18.0465640553
 21
21.850016923
 31
0.0
  0
LINE
  5
46C
100
AcDbEntity
  8
0
100
AcDbLine
 62
250
  6
CONTINUOUS
 10
-17.5378435336
 20
22.3441821702
 30
0.0
 11
-17.5465704014
 21
22.35
 31
0.0
  0
LINE
  5
46D
100
AcDbEntity
  8
0
100
AcDbLine
 62
7
  6
CONTINUOUS
 10
-11.3465640553
 20
23.8
 30
0.0
 11
-11.3125024085
 21
23.7659383532
 31
0.0
  0
LINE
  5
46E
100
AcDbEntity
  8
0
100
AcDbLine
 62
7
  6
CONTINUOUS
 10
12.4771914802
 20
-21.6237555355
 30
0.0
 11
12.457440399
 21
-20.8
 31
0.0
  0
LINE
  5
46F
100
AcDbEntity
  8
0
100
AcDbLine
 62
7
  6
CONTINUOUS
 10
11.1534359447
 20
-23.8
 30
0.0
 11
11.1502224693
 21
-23.4456668619
 31
0.0
  0
LINE
  5
470
100
AcDbEntity
  8
0
100
AcDbLine
 62
7
  6
CONTINUOUS
 10
11.1481999091
 20
-22.35
 30
0.0
 11
11.1481999091
 21
-22.85711136
 31
0.0
  0
LINE
  5
471
100
AcDbEntity
  8
0
100
AcDbLine
 62
7
  6
CONTINUOUS
 10
11.1481999091
 20
22.35
 30
0.0
 11
11.1481999091
 21
22.85711136
 31
0.0
  0
LINE
  5
472
100
AcDbEntity
  8
0
100
AcDbLine
 62
7
  6
CONTINUOUS
 10
11.1874701762
 20
23.4906890903
 30
0.0
 11
11.1874701762
 21
22.8093109097
 31
0.0
  0
LINE
  5
473
100
AcDbEntity
  8
0
100
AcDbLine
 62
7
  6
CONTINUOUS
 10
11.1874701762
 20
-23.4906890903
 30
0.0
 11
11.1874701762
 21
-22.8093109097
 31
0.0
  0
LINE
  5
474
100
AcDbEntity
  8
0
100
AcDbLine
 62
250
  6
CONTINUOUS
 10
11.1879842268
 20
-22.3057951078
 30
0.0
 11
11.1879842268
 21
-23.7562325953
 31
0.0
  0
LINE
  5
475
100
AcDbEntity
  8
0
100
AcDbLine
 62
250
  6
CONTINUOUS
 10
11.1879842268
 20
22.3057951078
 30
0.0
 11
11.1879842268
 21
23.7562325953
 31
0.0
  0
LINE
  5
476
100
AcDbEntity
  8
0
100
AcDbLine
 62
250
  6
CONTINUOUS
 10
11.9958422343
 20
-22.3057869048
 30
0.0
 11
11.9958422343
 21
-23.755948138
 31
0.0
  0
LINE
  5
477
100
AcDbEntity
  8
0
100
AcDbLine
 62
250
  6
CONTINUOUS
 10
11.9958422343
 20
22.3057869048
 30
0.0
 11
11.9958422343
 21
23.755948138
 31
0.0
  0
LINE
  5
478
100
AcDbEntity
  8
0
100
AcDbLine
 62
7
  6
CONTINUOUS
 10
12.0534359447
 20
23.8
 30
0.0
 11
12.0534359447
 21
22.3441821702
 31
0.0
  0
LINE
  5
479
100
AcDbEntity
  8
0
100
AcDbLine
 62
7
  6
CONTINUOUS
 10
12.0534359447
 20
-23.8
 30
0.0
 11
12.0534359447
 21
-22.3441821702
 31
0.0
  0
LINE
  5
47A
100
AcDbEntity
  8
0
100
AcDbLine
 62
7
  6
CONTINUOUS
 10
11.1502224693
 20
23.4456668619
 30
0.0
 11
11.1534359447
 21
23.8
 31
0.0
  0
LINE
  5
47B
100
AcDbEntity
  8
0
100
AcDbLine
 62
7
  6
CONTINUOUS
 10
12.457440399
 20
20.8
 30
0.0
 11
12.4771914802
 21
21.6237555355
 31
0.0
  0
LINE
  5
47C
100
AcDbEntity
  8
0
100
AcDbLine
 62
7
  6
CONTINUOUS
 10
19.5638524048
 20
13.7744680703
 30
0.0
 11
19.6180194847
 21
13.885106355
 31
0.0
  0
LINE
  5
47D
100
AcDbEntity
  8
0
100
AcDbLine
 62
7
  6
CONTINUOUS
 10
19.1034359447
 20
14.3
 30
0.0
 11
19.0066684113
 21
14.2802346888
 31
0.0
  0
LINE
  5
47E
100
AcDbEntity
  8
0
100
AcDbLine
 62
7
  6
CONTINUOUS
 10
-15.3709755112
 20
8.7423832533
 30
0.0
 11
-15.5072919883
 21
8.7267831406
 31
0.0
  0
LINE
  5
47F
100
AcDbEntity
  8
0
100
AcDbLine
 62
7
  6
CONTINUOUS
 10
-16.1733830418
 20
8.8507311981
 30
0.0
 11
-16.0370665647
 21
8.8663313108
 31
0.0
  0
LINE
  5
480
100
AcDbEntity
  8
0
100
AcDbLine
 62
7
  6
CONTINUOUS
 10
-15.9790124074
 20
10.1793843283
 30
0.0
 11
-16.115328868
 21
10.1637842487
 31
0.0
  0
LINE
  5
481
100
AcDbEntity
  8
RACCORDO
100
AcDbLine
 62
250
  6
CONTINUOUS
 10
1.3034347262
 20
11.4266155818
 30
0.0
 11
7.3034342062
 21
11.4266155818
 31
0.0
  0
LINE
  5
482
100
AcDbEntity
  8
RACCORDO
100
AcDbLine
 62
250
  6
CONTINUOUS
 10
1.3034359447
 20
11.5702895246
 30
0.0
 11
7.3034359447
 21
11.5702895246
 31
0.0
  0
LINE
  5
483
100
AcDbEntity
  8
0
100
AcDbLine
 62
7
  6
CONTINUOUS
 10
12.457440399
 20
-21.2859869487
 30
0.0
 11
12.457440399
 21
-20.8
 31
0.0
  0
LINE
  5
484
100
AcDbEntity
  8
0
100
AcDbLine
 62
7
  6
CONTINUOUS
 10
12.457440399
 20
20.8
 30
0.0
 11
12.457440399
 21
21.2859869487
 31
0.0
  0
LINE
  5
485
100
AcDbEntity
  8
0
100
AcDbLine
 62
7
  6
CONTINUOUS
 10
12.5534359447
 20
-22.3441821702
 30
0.0
 11
12.5534359447
 21
-21.7
 31
0.0
  0
LINE
  5
486
100
AcDbEntity
  8
0
100
AcDbLine
 62
7
  6
CONTINUOUS
 10
12.5534359447
 20
21.7
 30
0.0
 11
12.5534359447
 21
22.3441821702
 31
0.0
  0
LINE
  5
487
100
AcDbEntity
  8
0
100
AcDbLine
 62
7
  6
CONTINUOUS
 10
14.7356786043
 20
17.8726639362
 30
0.0
 11
14.7356786043
 21
18.2406538298
 31
0.0
  0
LINE
  5
488
100
AcDbEntity
  8
0
100
AcDbLine
 62
7
  6
CONTINUOUS
 10
-3.9465640553
 20
-21.7
 30
0.0
 11
-3.8703195908
 21
-21.6237555355
 31
0.0
  0
LINE
  5
489
100
AcDbEntity
  8
RACCORDO
100
AcDbLine
 62
250
  6
CONTINUOUS
 10
14.5045945138
 20
-5.9585161588
 30
0.0
 11
10.2619541945
 21
-10.2011564781
 31
0.0
  0
LINE
  5
48A
100
AcDbEntity
  8
RACCORDO
100
AcDbLine
 62
250
  6
CONTINUOUS
 10
14.6061864715
 20
-6.0601098396
 30
0.0
 11
10.3635457843
 21
-10.3027505267
 31
0.0
  0
LINE
  5
48B
100
AcDbEntity
  8
0
100
AcDbLine
 62
7
  6
CONTINUOUS
 10
16.7785152395
 20
16.7480112383
 30
0.0
 11
16.5625248723
 21
16.7132541677
 31
0.0
  0
LINE
  5
48C
100
AcDbEntity
  8
0
100
AcDbLine
 62
7
  6
CONTINUOUS
 10
17.3693854393
 20
17.2519887617
 30
0.0
 11
17.5828931585
 21
17.2817805365
 31
0.0
  0
LINE
  5
48D
100
AcDbEntity
  8
0
100
AcDbLine
 62
7
  6
CONTINUOUS
 10
19.1208485564
 20
14.1617021441
 30
0.0
 11
19.2117694847
 21
14.1617021441
 31
0.0
  0
LINE
  5
48E
100
AcDbEntity
  8
0
100
AcDbLine
 62
7
  6
CONTINUOUS
 10
19.2117694847
 20
14.3
 30
0.0
 11
19.1034359447
 21
14.3
 31
0.0
  0
LINE
  5
48F
100
AcDbEntity
  8
0
100
AcDbLine
 62
7
  6
CONTINUOUS
 10
-3.9465640553
 20
21.7
 30
0.0
 11
-3.8703195908
 21
21.6237555355
 31
0.0
  0
LINE
  5
490
100
AcDbEntity
  8
RACCORDO
100
AcDbLine
 62
250
  6
CONTINUOUS
 10
10.2619521035
 20
10.2011585691
 30
0.0
 11
14.5045924229
 21
5.9585182497
 31
0.0
  0
LINE
  5
491
100
AcDbEntity
  8
RACCORDO
100
AcDbLine
 62
250
  6
CONTINUOUS
 10
10.3635457843
 20
10.3027505267
 30
0.0
 11
14.6061864715
 21
6.0601098396
 31
0.0
  0
LINE
  5
492
100
AcDbEntity
  8
0
100
AcDbLine
 62
7
  6
CONTINUOUS
 10
15.6398837107
 20
17.8726639362
 30
0.0
 11
15.6398837107
 21
18.2406538298
 31
0.0
  0
LINE
  5
493
100
AcDbEntity
  8
RACCORDO
100
AcDbLine
 62
250
  6
CONTINUOUS
 10
15.7300515266
 20
3.0000012185
 30
0.0
 11
15.7300515266
 21
-2.9999982614
 31
0.0
  0
LINE
  5
494
100
AcDbEntity
  8
RACCORDO
100
AcDbLine
 62
250
  6
CONTINUOUS
 10
15.8737254694
 20
3.0
 30
0.0
 11
15.8737254694
 21
-3.0
 31
0.0
  0
LINE
  5
495
100
AcDbEntity
  8
0
100
AcDbLine
 62
7
  6
CONTINUOUS
 10
16.5440897745
 20
17.8726639362
 30
0.0
 11
16.5440897745
 21
18.2406538298
 31
0.0
  0
LINE
  5
496
100
AcDbEntity
  8
ASSI
100
AcDbLine
 62
7
  6
CONTINUOUS
 10
16.9358819447
 20
-19.048037
 30
0.0
 11
16.9358819447
 21
-18.29722
 31
0.0
  0
LINE
  5
497
100
AcDbEntity
  8
0
100
AcDbLine
 62
7
  6
CONTINUOUS
 10
24.3035590542
 20
20.4503229513
 30
0.0
 11
24.4533296071
 21
20.9
 31
0.0
  0
LINE
  5
498
100
AcDbEntity
  8
DRAFT
100
AcDbLine
 62
7
  6
CONTINUOUS
 10
0.3534359447
 20
-20.9959955457
 30
0.0
 11
0.4494314904
 21
-20.9
 31
0.0
  0
LINE
  5
499
100
AcDbEntity
  8
0
100
AcDbLine
 62
7
  6
CONTINUOUS
 10
1.2859808798
 20
-21.4051134101
 30
0.0
 11
0.3527299496
 21
-22.3383643404
 31
0.0
  0
LINE
  5
49A
100
AcDbEntity
  8
0
100
AcDbLine
 62
7
  6
CONTINUOUS
 10
-3.8592446068
 20
-22.2859700255
 30
0.0
 11
-3.9465640553
 21
-22.3441821702
 31
0.0
  0
LINE
  5
49B
100
AcDbEntity
  8
0
100
AcDbLine
 62
7
  6
CONTINUOUS
 10
-3.4465640553
 20
-22.3441821702
 30
0.0
 11
-3.3889703449
 21
-22.3057869048
 31
0.0
  0
LINE
  5
49C
100
AcDbEntity
  8
0
100
AcDbLine
 62
7
  6
CONTINUOUS
 10
-11.8126710553
 20
15.122199
 30
0.0
 11
-11.2976610553
 21
15.122199
 31
0.0
  0
LINE
  5
49D
100
AcDbEntity
  8
0
100
AcDbLine
 62
7
  6
CONTINUOUS
 10
-10.1808490553
 20
15.122199
 30
0.0
 11
-9.5964410553
 21
15.122199
 31
0.0
  0
LINE
  5
49E
100
AcDbEntity
  8
DRAFT
100
AcDbLine
 62
7
  6
CONTINUOUS
 10
23.025669844
 20
16.220001889
 30
0.0
 11
22.0534359447
 21
16.220001889
 31
0.0
  0
LINE
  5
49F
100
AcDbEntity
  8
DRAFT
100
AcDbLine
 62
7
  6
CONTINUOUS
 10
-13.274330156
 20
16.220001889
 30
0.0
 11
-14.4187979545
 21
16.220001889
 31
0.0
  0
LINE
  5
4A0
100
AcDbEntity
  8
RACCORDO
100
AcDbLine
 62
250
  6
CONTINUOUS
 10
8.8034359447
 20
16.6467688363
 30
0.0
 11
8.3034359447
 21
16.6467688363
 31
0.0
  0
LINE
  5
4A1
100
AcDbEntity
  8
RACCORDO
100
AcDbLine
 62
250
  6
CONTINUOUS
 10
-0.1965640553
 20
16.6467688363
 30
0.0
 11
0.3034359447
 21
16.6467688363
 31
0.0
  0
LINE
  5
4A2
100
AcDbEntity
  8
0
100
AcDbLine
 62
7
  6
CONTINUOUS
 10
-3.8592446068
 20
22.2859700255
 30
0.0
 11
-3.9465640553
 21
22.3441821702
 31
0.0
  0
LINE
  5
4A3
100
AcDbEntity
  8
0
100
AcDbLine
 62
7
  6
CONTINUOUS
 10
-3.4465640553
 20
22.3441821702
 30
0.0
 11
-3.3889703449
 21
22.3057869048
 31
0.0
  0
LINE
  5
4A4
100
AcDbEntity
  8
DRAFT
100
AcDbLine
 62
7
  6
CONTINUOUS
 10
0.3534359447
 20
20.9959955457
 30
0.0
 11
0.4494314904
 21
20.9
 31
0.0
  0
LINE
  5
4A5
100
AcDbEntity
  8
0
100
AcDbLine
 62
7
  6
CONTINUOUS
 10
0.3527299496
 20
22.3383643404
 30
0.0
 11
1.2859808798
 21
21.4051134101
 31
0.0
  0
LINE
  5
4A6
100
AcDbEntity
  8
0
100
AcDbLine
 62
7
  6
CONTINUOUS
 10
24.4533296071
 20
-20.9
 30
0.0
 11
24.3035590542
 21
-20.4503229513
 31
0.0
  0
LINE
  5
4A7
100
AcDbEntity
  8
0
100
AcDbLine
 62
7
  6
CONTINUOUS
 10
18.6494314904
 20
20.8
 30
0.0
 11
18.6296804092
 21
21.6237555355
 31
0.0
  0
LINE
  5
4A8
100
AcDbEntity
  8
0
100
AcDbLine
 62
7
  6
CONTINUOUS
 10
18.5534359447
 20
22.3441821702
 30
0.0
 11
18.5534359447
 21
21.7
 31
0.0
  0
LINE
  5
4A9
100
AcDbEntity
  8
0
100
AcDbLine
 62
7
  6
CONTINUOUS
 10
18.5534359447
 20
-21.7
 30
0.0
 11
18.5534359447
 21
-22.3441821702
 31
0.0
  0
LINE
  5
4AA
100
AcDbEntity
  8
0
100
AcDbLine
 62
7
  6
CONTINUOUS
 10
18.6494314904
 20
-21.2859869487
 30
0.0
 11
18.6494314904
 21
-20.8
 31
0.0
  0
LINE
  5
4AB
100
AcDbEntity
  8
0
100
AcDbLine
 62
7
  6
CONTINUOUS
 10
18.6494314904
 20
20.8
 30
0.0
 11
18.6494314904
 21
21.2859869487
 31
0.0
  0
LINE
  5
4AC
100
AcDbEntity
  8
0
100
AcDbLine
 62
7
  6
CONTINUOUS
 10
19.0534359447
 20
23.8
 30
0.0
 11
19.0534359447
 21
22.3441821702
 31
0.0
  0
LINE
  5
4AD
100
AcDbEntity
  8
0
100
AcDbLine
 62
7
  6
CONTINUOUS
 10
19.0534359447
 20
-23.8
 30
0.0
 11
19.0534359447
 21
-22.3441821702
 31
0.0
  0
LINE
  5
4AE
100
AcDbEntity
  8
0
100
AcDbLine
 62
250
  6
CONTINUOUS
 10
19.1110296551
 20
-22.3057869048
 30
0.0
 11
19.1110296551
 21
-23.755948138
 31
0.0
  0
LINE
  5
4AF
100
AcDbEntity
  8
0
100
AcDbLine
 62
250
  6
CONTINUOUS
 10
19.1110296551
 20
22.3057869048
 30
0.0
 11
19.1110296551
 21
23.755948138
 31
0.0
  0
LINE
  5
4B0
100
AcDbEntity
  8
0
100
AcDbLine
 62
7
  6
CONTINUOUS
 10
19.4826024048
 20
13.9680850685
 30
0.0
 11
19.4826024048
 21
13.9127659261
 31
0.0
  0
LINE
  5
4B1
100
AcDbEntity
  8
0
100
AcDbLine
 62
7
  6
CONTINUOUS
 10
19.6180194847
 20
13.885106355
 30
0.0
 11
19.6180194847
 21
13.9680850685
 31
0.0
  0
LINE
  5
4B2
100
AcDbEntity
  8
0
100
AcDbLine
 62
7
  6
CONTINUOUS
 10
18.6296804092
 20
-21.6237555355
 30
0.0
 11
18.6494314904
 21
-20.8
 31
0.0
  0
LINE
  5
4B3
100
AcDbEntity
  8
0
100
AcDbLine
 62
7
  6
CONTINUOUS
 10
25.1534359447
 20
20.1990396502
 30
0.0
 11
25.0031706266
 21
19.7478770987
 31
0.0
  0
LINE
  5
4B4
100
AcDbEntity
  8
0
100
AcDbLine
 62
7
  6
CONTINUOUS
 10
-3.4465640553
 20
-23.8
 30
0.0
 11
-3.3897937217
 21
-23.7659383532
 31
0.0
  0
LINE
  5
4B5
100
AcDbEntity
  8
0
100
AcDbLine
 62
7
  6
CONTINUOUS
 10
1.2859808798
 20
-20.9087268678
 30
0.0
 11
1.1200054465
 21
-20.9917082642
 31
0.0
  0
LINE
  5
4B6
100
AcDbEntity
  8
RACCORDO
100
AcDbLine
 62
7
  6
CONTINUOUS
 10
-0.1965640553
 20
17.5
 30
0.0
 11
8.8034359447
 21
17.5
 31
0.0
  0
LINE
  5
4B7
100
AcDbEntity
  8
0
100
AcDbLine
 62
7
  6
CONTINUOUS
 10
-6.7042560553
 20
17.921902
 30
0.0
 11
-7.2824700553
 21
17.921902
 31
0.0
  0
LINE
  5
4B8
100
AcDbEntity
  8
0
100
AcDbLine
 62
7
  6
CONTINUOUS
 10
-8.4451140553
 20
17.921902
 30
0.0
 11
-9.0290390553
 21
17.921902
 31
0.0
  0
LINE
  5
4B9
100
AcDbEntity
  8
0
100
AcDbLine
 62
7
  6
CONTINUOUS
 10
-10.3977240553
 20
17.921902
 30
0.0
 11
-10.9817330553
 21
17.921902
 31
0.0
  0
LINE
  5
4BA
100
AcDbEntity
  8
0
100
AcDbLine
 62
7
  6
CONTINUOUS
 10
-12.0653840553
 20
17.921902
 30
0.0
 11
-12.7002320553
 21
17.921902
 31
0.0
  0
LINE
  5
4BB
100
AcDbEntity
  8
0
100
AcDbLine
 62
7
  6
CONTINUOUS
 10
-9.5964410553
 20
17.92207
 30
0.0
 11
-10.1808490553
 21
17.92207
 31
0.0
  0
LINE
  5
4BC
100
AcDbEntity
  8
0
100
AcDbLine
 62
7
  6
CONTINUOUS
 10
26.6883460746
 20
18.1473460386
 30
0.0
 11
26.6359822092
 21
18.1473460386
 31
0.0
  0
LINE
  5
4BD
100
AcDbEntity
  8
0
100
AcDbLine
 62
7
  6
CONTINUOUS
 10
-18.0814741851
 20
18.1473460386
 30
0.0
 11
-18.0291103197
 21
18.1473460386
 31
0.0
  0
LINE
  5
4BE
100
AcDbEntity
  8
0
100
AcDbLine
 62
7
  6
CONTINUOUS
 10
-16.5465640553
 20
19.5
 30
0.0
 11
-17.0965640553
 21
19.5
 31
0.0
  0
LINE
  5
4BF
100
AcDbEntity
  8
0
100
AcDbLine
 62
7
  6
CONTINUOUS
 10
25.1534359447
 20
19.5
 30
0.0
 11
25.7034359447
 21
19.5
 31
0.0
  0
LINE
  5
4C0
100
AcDbEntity
  8
0
100
AcDbLine
 62
7
  6
CONTINUOUS
 10
19.3471859447
 20
14.2723404288
 30
0.0
 11
19.2117694847
 21
14.3
 31
0.0
  0
LINE
  5
4C1
100
AcDbEntity
  8
0
100
AcDbLine
 62
7
  6
CONTINUOUS
 10
19.2117694847
 20
14.1617021441
 30
0.0
 11
19.3201024048
 21
14.134042573
 31
0.0
  0
LINE
  5
4C2
100
AcDbEntity
  8
0
100
AcDbLine
 62
7
  6
CONTINUOUS
 10
1.2859808798
 20
20.9087268678
 30
0.0
 11
1.1200054465
 21
20.9917082642
 31
0.0
  0
LINE
  5
4C3
100
AcDbEntity
  8
0
100
AcDbLine
 62
7
  6
CONTINUOUS
 10
-3.4465640553
 20
23.8
 30
0.0
 11
-3.3897937217
 21
23.7659383532
 31
0.0
  0
LINE
  5
4C4
100
AcDbEntity
  8
0
100
AcDbLine
 62
7
  6
CONTINUOUS
 10
25.0031706266
 20
-19.7478770987
 30
0.0
 11
25.1534359447
 21
-20.1990396502
 31
0.0
  0
LINE
  5
4C5
100
AcDbEntity
  8
DRAFT
100
AcDbLine
 62
7
  6
CONTINUOUS
 10
22.0534359447
 20
-19.7
 30
0.0
 11
21.8812020455
 21
-16.220001889
 31
0.0
  0
LINE
  5
4C6
100
AcDbEntity
  8
0
100
AcDbLine
 62
7
  6
CONTINUOUS
 10
19.9566494202
 20
23.4456668619
 30
0.0
 11
19.9534359447
 21
23.8
 31
0.0
  0
LINE
  5
4C7
100
AcDbEntity
  8
0
100
AcDbLine
 62
250
  6
CONTINUOUS
 10
19.9188876626
 20
-22.3057951078
 30
0.0
 11
19.9188876626
 21
-23.7562325953
 31
0.0
  0
LINE
  5
4C8
100
AcDbEntity
  8
0
100
AcDbLine
 62
250
  6
CONTINUOUS
 10
19.9188876626
 20
22.3057951078
 30
0.0
 11
19.9188876626
 21
23.7562325953
 31
0.0
  0
LINE
  5
4C9
100
AcDbEntity
  8
0
100
AcDbLine
 62
7
  6
CONTINUOUS
 10
19.9194017133
 20
23.4906890903
 30
0.0
 11
19.9194017133
 21
22.8093109097
 31
0.0
  0
LINE
  5
4CA
100
AcDbEntity
  8
0
100
AcDbLine
 62
7
  6
CONTINUOUS
 10
19.9194017133
 20
-23.4906890903
 30
0.0
 11
19.9194017133
 21
-22.8093109097
 31
0.0
  0
LINE
  5
4CB
100
AcDbEntity
  8
0
100
AcDbLine
 62
7
  6
CONTINUOUS
 10
19.9586719803
 20
-22.35
 30
0.0
 11
19.9586719803
 21
-22.85711136
 31
0.0
  0
LINE
  5
4CC
100
AcDbEntity
  8
0
100
AcDbLine
 62
7
  6
CONTINUOUS
 10
19.9586719803
 20
22.35
 30
0.0
 11
19.9586719803
 21
22.85711136
 31
0.0
  0
LINE
  5
4CD
100
AcDbEntity
  8
ASSI
100
AcDbLine
 62
7
  6
CONTINUOUS
 10
20.9209919447
 20
-16.875
 30
0.0
 11
20.9209919447
 21
-16.125
 31
0.0
  0
LINE
  5
4CE
100
AcDbEntity
  8
RACCORDO
100
AcDbLine
 62
250
  6
CONTINUOUS
 10
20.950204781
 20
4.5
 30
0.0
 11
20.950204781
 21
4.0
 31
0.0
  0
LINE
  5
4CF
100
AcDbEntity
  8
RACCORDO
100
AcDbLine
 62
250
  6
CONTINUOUS
 10
20.950204781
 20
-4.5
 30
0.0
 11
20.950204781
 21
-4.0
 31
0.0
  0
LINE
  5
4D0
100
AcDbEntity
  8
ASSI
100
AcDbLine
 62
7
  6
CONTINUOUS
 10
21.3209919447
 20
-19.0480371177
 30
0.0
 11
21.3209919447
 21
-18.2972169516
 31
0.0
  0
LINE
  5
4D1
100
AcDbEntity
  8
ASSI
100
AcDbLine
 62
7
  6
CONTINUOUS
 10
21.3209919447
 20
-14.70278
 30
0.0
 11
21.3209919447
 21
-13.9519628823
 31
0.0
  0
LINE
  5
4D2
100
AcDbEntity
  8
RACCORDO
100
AcDbLine
 62
7
  6
CONTINUOUS
 10
21.8034359447
 20
-4.5
 30
0.0
 11
21.8034359447
 21
4.5
 31
0.0
  0
LINE
  5
4D3
100
AcDbEntity
  8
DRAFT
100
AcDbLine
 62
7
  6
CONTINUOUS
 10
22.0534359447
 20
-19.7
 30
0.0
 11
22.0534359447
 21
-20.0
 31
0.0
  0
LINE
  5
4D4
100
AcDbEntity
  8
DRAFT
100
AcDbLine
 62
7
  6
CONTINUOUS
 10
22.0534359447
 20
16.220001889
 30
0.0
 11
22.0534359447
 21
20.0
 31
0.0
  0
LINE
  5
4D5
100
AcDbEntity
  8
0
100
AcDbLine
 62
7
  6
CONTINUOUS
 10
19.9534359447
 20
-23.8
 30
0.0
 11
19.9566494202
 21
-23.4456668619
 31
0.0
  0
LINE
  5
4D6
100
AcDbEntity
  8
ASSI
100
AcDbLine
 62
7
  6
CONTINUOUS
 10
12.9674689447
 20
-19.490956
 30
0.0
 11
13.1351989447
 21
-19.253173
 31
0.0
  0
LINE
  5
4D7
100
AcDbEntity
  8
RACCORDO
100
AcDbLine
 62
250
  6
CONTINUOUS
 10
19.2564595891
 20
-8.5890626137
 30
0.0
 11
18.9029061985
 21
-8.9426160042
 31
0.0
  0
LINE
  5
4D8
100
AcDbEntity
  8
RACCORDO
100
AcDbLine
 62
250
  6
CONTINUOUS
 10
12.8924985584
 20
-14.9530236443
 30
0.0
 11
13.246051949
 21
-14.5994702537
 31
0.0
  0
LINE
  5
4D9
100
AcDbEntity
  8
RACCORDO
100
AcDbLine
 62
7
  6
CONTINUOUS
 10
13.4958241002
 20
-15.5563491861
 30
0.0
 11
19.8597851308
 21
-9.1923881554
 31
0.0
  0
LINE
  5
4DA
100
AcDbEntity
  8
0
100
AcDbLine
 62
7
  6
CONTINUOUS
 10
9.1341307814
 20
-19.9193051633
 30
0.0
 11
9.1180147664
 21
-19.9354211783
 31
0.0
  0
LINE
  5
4DB
100
AcDbEntity
  8
0
100
AcDbLine
 62
7
  6
CONTINUOUS
 10
1.1200054465
 20
-21.4537354271
 30
0.0
 11
1.2859808798
 21
-21.4051134101
 31
0.0
  0
LINE
  5
4DC
100
AcDbEntity
  8
DRAFT
100
AcDbLine
 62
7
  6
CONTINUOUS
 10
-14.2465640553
 20
19.7
 30
0.0
 11
-13.4465640553
 21
19.7
 31
0.0
  0
LINE
  5
4DD
100
AcDbEntity
  8
DRAFT
100
AcDbLine
 62
7
  6
CONTINUOUS
 10
22.0534359447
 20
19.7
 30
0.0
 11
22.8534359447
 21
19.7
 31
0.0
  0
LINE
  5
4DE
100
AcDbEntity
  8
DRAFT
100
AcDbLine
 62
7
  6
CONTINUOUS
 10
-13.2754696645
 20
19.8289056093
 30
0.0
 11
-0.8917671561
 21
19.8289056093
 31
0.0
  0
LINE
  5
4DF
100
AcDbEntity
  8
DRAFT
100
AcDbLine
 62
7
  6
CONTINUOUS
 10
9.4986390459
 20
19.8289056093
 30
0.0
 11
22.0534359447
 21
19.8289056093
 31
0.0
  0
LINE
  5
4E0
100
AcDbEntity
  8
0
100
AcDbLine
 62
7
  6
CONTINUOUS
 10
-0.4622760419
 20
19.9354211783
 30
0.0
 11
-2.2980019624
 21
19.9354211783
 31
0.0
  0
LINE
  5
4E1
100
AcDbEntity
  8
0
100
AcDbLine
 62
7
  6
CONTINUOUS
 10
9.1180147664
 20
19.9354211783
 30
0.0
 11
10.9048738519
 21
19.9354211783
 31
0.0
  0
LINE
  5
4E2
100
AcDbEntity
  8
0
100
AcDbLine
 62
7
  6
CONTINUOUS
 10
-13.4465640553
 20
20.0
 30
0.0
 11
-2.0996882927
 21
20.0
 31
0.0
  0
LINE
  5
4E3
100
AcDbEntity
  8
0
100
AcDbLine
 62
7
  6
CONTINUOUS
 10
10.7065601822
 20
20.0
 30
0.0
 11
22.0534359447
 21
20.0
 31
0.0
  0
LINE
  5
4E4
100
AcDbEntity
  8
DRAFT
100
AcDbLine
 62
7
  6
CONTINUOUS
 10
-15.6966871647
 20
20.4503229513
 30
0.0
 11
-14.4174391743
 21
20.4503229513
 31
0.0
  0
LINE
  5
4E5
100
AcDbEntity
  8
DRAFT
100
AcDbLine
 62
7
  6
CONTINUOUS
 10
0.5243110638
 20
20.4503229513
 30
0.0
 11
2.9076029361
 21
20.4503229513
 31
0.0
  0
LINE
  5
4E6
100
AcDbEntity
  8
DRAFT
100
AcDbLine
 62
7
  6
CONTINUOUS
 10
5.699268953
 20
20.4503229513
 30
0.0
 11
8.0825608257
 21
20.4503229513
 31
0.0
  0
LINE
  5
4E7
100
AcDbEntity
  8
DRAFT
100
AcDbLine
 62
7
  6
CONTINUOUS
 10
23.0243110638
 20
20.4503229513
 30
0.0
 11
24.3035590542
 21
20.4503229513
 31
0.0
  0
LINE
  5
4E8
100
AcDbEntity
  8
0
100
AcDbLine
 62
7
  6
CONTINUOUS
 10
18.6494314904
 20
20.8
 30
0.0
 11
12.457440399
 21
20.8
 31
0.0
  0
LINE
  5
4E9
100
AcDbEntity
  8
0
100
AcDbLine
 62
7
  6
CONTINUOUS
 10
-3.8505685096
 20
20.8
 30
0.0
 11
-10.042559601
 21
20.8
 31
0.0
  0
LINE
  5
4EA
100
AcDbEntity
  8
DRAFT
100
AcDbLine
 62
7
  6
CONTINUOUS
 10
23.8034359447
 20
20.9
 30
0.0
 11
22.9494314904
 21
20.9
 31
0.0
  0
LINE
  5
4EB
100
AcDbEntity
  8
0
100
AcDbLine
 62
7
  6
CONTINUOUS
 10
-15.8464577177
 20
20.9
 30
0.0
 11
-15.1965640553
 21
20.9
 31
0.0
  0
LINE
  5
4EC
100
AcDbEntity
  8
DRAFT
100
AcDbLine
 62
7
  6
CONTINUOUS
 10
8.157440399
 20
20.9
 30
0.0
 11
0.4494314904
 21
20.9
 31
0.0
  0
LINE
  5
4ED
100
AcDbEntity
  8
DRAFT
100
AcDbLine
 62
7
  6
CONTINUOUS
 10
-14.342559601
 20
20.9
 30
0.0
 11
-15.1965640553
 21
20.9
 31
0.0
  0
LINE
  5
4EE
100
AcDbEntity
  8
0
100
AcDbLine
 62
7
  6
CONTINUOUS
 10
23.8034359447
 20
20.9
 30
0.0
 11
24.4533296071
 21
20.9
 31
0.0
  0
LINE
  5
4EF
100
AcDbEntity
  8
0
100
AcDbLine
 62
7
  6
CONTINUOUS
 10
7.3208910097
 20
20.9087268678
 30
0.0
 11
1.2859808798
 21
20.9087268678
 31
0.0
  0
LINE
  5
4F0
100
AcDbEntity
  8
DRAFT
100
AcDbLine
 62
7
  6
CONTINUOUS
 10
23.120081599
 20
20.9959955457
 30
0.0
 11
22.8534359447
 21
20.9959955457
 31
0.0
  0
LINE
  5
4F1
100
AcDbEntity
  8
DRAFT
100
AcDbLine
 62
7
  6
CONTINUOUS
 10
-14.5132097095
 20
20.9959955457
 30
0.0
 11
-14.2465640553
 21
20.9959955457
 31
0.0
  0
LINE
  5
4F2
100
AcDbEntity
  8
DRAFT
100
AcDbLine
 62
7
  6
CONTINUOUS
 10
0.620081599
 20
20.9959955457
 30
0.0
 11
0.3534359447
 21
20.9959955457
 31
0.0
  0
LINE
  5
4F3
100
AcDbEntity
  8
DRAFT
100
AcDbLine
 62
7
  6
CONTINUOUS
 10
7.9867902905
 20
20.9959955457
 30
0.0
 11
8.2534359447
 21
20.9959955457
 31
0.0
  0
LINE
  5
4F4
100
AcDbEntity
  8
0
100
AcDbLine
 62
250
  6
CONTINUOUS
 10
23.120081599
 20
21.2859869487
 30
0.0
 11
18.6494314904
 21
21.2859869487
 31
0.0
  0
LINE
  5
4F5
100
AcDbEntity
  8
0
100
AcDbLine
 62
250
  6
CONTINUOUS
 10
12.457440399
 20
21.2859869487
 30
0.0
 11
7.9867902905
 21
21.2859869487
 31
0.0
  0
LINE
  5
4F6
100
AcDbEntity
  8
0
100
AcDbLine
 62
250
  6
CONTINUOUS
 10
0.620081599
 20
21.2859869487
 30
0.0
 11
-3.8505685096
 21
21.2859869487
 31
0.0
  0
LINE
  5
4F7
100
AcDbEntity
  8
0
100
AcDbLine
 62
250
  6
CONTINUOUS
 10
-10.042559601
 20
21.2859869487
 30
0.0
 11
-14.5132097095
 21
21.2859869487
 31
0.0
  0
LINE
  5
4F8
100
AcDbEntity
  8
0
100
AcDbLine
 62
7
  6
CONTINUOUS
 10
-10.0228085198
 20
21.6237555355
 30
0.0
 11
-3.8703195908
 21
21.6237555355
 31
0.0
  0
LINE
  5
4F9
100
AcDbEntity
  8
0
100
AcDbLine
 62
7
  6
CONTINUOUS
 10
12.4771914802
 20
21.6237555355
 30
0.0
 11
18.6296804092
 21
21.6237555355
 31
0.0
  0
LINE
  5
4FA
100
AcDbEntity
  8
0
100
AcDbLine
 62
7
  6
CONTINUOUS
 10
18.5534359447
 20
21.7
 30
0.0
 11
12.5534359447
 21
21.7
 31
0.0
  0
LINE
  5
4FB
100
AcDbEntity
  8
0
100
AcDbLine
 62
7
  6
CONTINUOUS
 10
-9.9465640553
 20
21.7
 30
0.0
 11
-3.9465640553
 21
21.7
 31
0.0
  0
LINE
  5
4FC
100
AcDbEntity
  8
0
100
AcDbLine
 62
7
  6
CONTINUOUS
 10
1.1200054465
 20
21.4537354271
 30
0.0
 11
1.2859808798
 21
21.4051134101
 31
0.0
  0
LINE
  5
4FD
100
AcDbEntity
  8
RACCORDO
100
AcDbLine
 62
250
  6
CONTINUOUS
 10
12.8924985584
 20
14.9530236443
 30
0.0
 11
13.246051949
 21
14.5994702537
 31
0.0
  0
LINE
  5
4FE
100
AcDbEntity
  8
RACCORDO
100
AcDbLine
 62
250
  6
CONTINUOUS
 10
19.2564595891
 20
8.5890626137
 30
0.0
 11
18.9029061985
 21
8.9426160042
 31
0.0
  0
LINE
  5
4FF
100
AcDbEntity
  8
RACCORDO
100
AcDbLine
 62
7
  6
CONTINUOUS
 10
19.8597851308
 20
9.1923881554
 30
0.0
 11
13.4958241002
 21
15.5563491861
 31
0.0
  0
LINE
  5
500
100
AcDbEntity
  8
0
100
AcDbLine
 62
7
  6
CONTINUOUS
 10
9.1180147664
 20
19.9354211783
 30
0.0
 11
9.1341307816
 21
19.9193051631
 31
0.0
  0
LINE
  5
501
100
AcDbEntity
  8
DRAFT
100
AcDbLine
 62
7
  6
CONTINUOUS
 10
22.8534359447
 20
19.7
 30
0.0
 11
23.025669844
 21
16.220001889
 31
0.0
  0
LINE
  5
502
100
AcDbEntity
  8
0
100
AcDbLine
 62
7
  6
CONTINUOUS
 10
23.8586719803
 20
23.2226497308
 30
0.0
 11
23.8534359447
 21
23.8
 31
0.0
  0
LINE
  5
503
100
AcDbEntity
  8
DRAFT
100
AcDbLine
 62
7
  6
CONTINUOUS
 10
22.8534359447
 20
-20.9959955457
 30
0.0
 11
22.8534359447
 21
-19.7
 31
0.0
  0
LINE
  5
504
100
AcDbEntity
  8
DRAFT
100
AcDbLine
 62
7
  6
CONTINUOUS
 10
22.8534359447
 20
19.7
 30
0.0
 11
22.8534359447
 21
20.9959955457
 31
0.0
  0
LINE
  5
505
100
AcDbEntity
  8
0
100
AcDbLine
 62
250
  6
CONTINUOUS
 10
23.120081599
 20
21.2859869487
 30
0.0
 11
23.120081599
 21
20.9959955457
 31
0.0
  0
LINE
  5
506
100
AcDbEntity
  8
0
100
AcDbLine
 62
250
  6
CONTINUOUS
 10
23.120081599
 20
-20.9959955457
 30
0.0
 11
23.120081599
 21
-21.2859869487
 31
0.0
  0
LINE
  5
507
100
AcDbEntity
  8
0
100
AcDbLine
 62
250
  6
CONTINUOUS
 10
23.6200054465
 20
21.4537354271
 30
0.0
 11
23.6200054465
 21
20.9917082642
 31
0.0
  0
LINE
  5
508
100
AcDbEntity
  8
0
100
AcDbLine
 62
250
  6
CONTINUOUS
 10
23.6200054465
 20
-20.9917082642
 30
0.0
 11
23.6200054465
 21
-21.4537354271
 31
0.0
  0
LINE
  5
509
100
AcDbEntity
  8
0
100
AcDbLine
 62
7
  6
CONTINUOUS
 10
23.8034359447
 20
21.4
 30
0.0
 11
23.8034359447
 21
20.9
 31
0.0
  0
LINE
  5
50A
100
AcDbEntity
  8
0
100
AcDbLine
 62
7
  6
CONTINUOUS
 10
23.8034359447
 20
-20.9
 30
0.0
 11
23.8034359447
 21
-21.4
 31
0.0
  0
LINE
  5
50B
100
AcDbEntity
  8
0
100
AcDbLine
 62
7
  6
CONTINUOUS
 10
23.8534359447
 20
24.2500034269
 30
0.0
 11
23.8534359447
 21
23.8
 31
0.0
  0
LINE
  5
50C
100
AcDbEntity
  8
0
100
AcDbLine
 62
7
  6
CONTINUOUS
 10
23.8534359447
 20
-23.8
 30
0.0
 11
23.8534359447
 21
-24.2500034269
 31
0.0
  0
LINE
  5
50D
100
AcDbEntity
  8
0
100
AcDbLine
 62
7
  6
CONTINUOUS
 10
23.8586719803
 20
23.2226497308
 30
0.0
 11
23.8586719803
 21
22.35
 31
0.0
  0
LINE
  5
50E
100
AcDbEntity
  8
0
100
AcDbLine
 62
7
  6
CONTINUOUS
 10
23.8586719803
 20
-22.35
 30
0.0
 11
23.8586719803
 21
-23.2226497308
 31
0.0
  0
LINE
  5
50F
100
AcDbEntity
  8
0
100
AcDbLine
 62
7
  6
CONTINUOUS
 10
23.8534359447
 20
-23.8
 30
0.0
 11
23.8586719803
 21
-23.2226497308
 31
0.0
  0
LINE
  5
510
100
AcDbEntity
  8
DRAFT
100
AcDbLine
 62
7
  6
CONTINUOUS
 10
22.8534359447
 20
-19.7
 30
0.0
 11
23.025669844
 21
-16.220001889
 31
0.0
  0
LINE
  5
511
100
AcDbEntity
  8
0
100
AcDbLine
 62
7
  6
CONTINUOUS
 10
11.1879842268
 20
-22.3057951078
 30
0.0
 11
11.1481999091
 21
-22.35
 31
0.0
  0
LINE
  5
512
100
AcDbEntity
  8
0
100
AcDbLine
 62
7
  6
CONTINUOUS
 10
8.3128943185
 20
-22.2859700255
 30
0.0
 11
8.2541419399
 21
-22.3383643404
 31
0.0
  0
LINE
  5
513
100
AcDbEntity
  8
0
100
AcDbLine
 62
250
  6
CONTINUOUS
 10
22.7939775709
 20
22.2859700255
 30
0.0
 11
18.6407553932
 21
22.2859700255
 31
0.0
  0
LINE
  5
514
100
AcDbEntity
  8
0
100
AcDbLine
 62
250
  6
CONTINUOUS
 10
12.4661164963
 20
22.2859700255
 30
0.0
 11
8.3128943185
 21
22.2859700255
 31
0.0
  0
LINE
  5
515
100
AcDbEntity
  8
0
100
AcDbLine
 62
250
  6
CONTINUOUS
 10
0.2939775709
 20
22.2859700255
 30
0.0
 11
-3.8592446068
 21
22.2859700255
 31
0.0
  0
LINE
  5
516
100
AcDbEntity
  8
0
100
AcDbLine
 62
250
  6
CONTINUOUS
 10
-10.0338835037
 20
22.2859700255
 30
0.0
 11
-14.1871056815
 21
22.2859700255
 31
0.0
  0
LINE
  5
517
100
AcDbEntity
  8
0
100
AcDbLine
 62
7
  6
CONTINUOUS
 10
0.3527299496
 20
22.3383643404
 30
0.0
 11
8.2541419399
 21
22.3383643404
 31
0.0
  0
LINE
  5
518
100
AcDbEntity
  8
0
100
AcDbLine
 62
7
  6
CONTINUOUS
 10
19.0534359447
 20
22.3441821702
 30
0.0
 11
18.5534359447
 21
22.3441821702
 31
0.0
  0
LINE
  5
519
100
AcDbEntity
  8
0
100
AcDbLine
 62
7
  6
CONTINUOUS
 10
-17.5378435336
 20
22.3441821702
 30
0.0
 11
-14.2523818851
 21
22.3441821702
 31
0.0
  0
LINE
  5
51A
100
AcDbEntity
  8
0
100
AcDbLine
 62
7
  6
CONTINUOUS
 10
12.5534359447
 20
22.3441821702
 30
0.0
 11
12.0534359447
 21
22.3441821702
 31
0.0
  0
LINE
  5
51B
100
AcDbEntity
  8
0
100
AcDbLine
 62
7
  6
CONTINUOUS
 10
-3.4465640553
 20
22.3441821702
 30
0.0
 11
-3.9465640553
 21
22.3441821702
 31
0.0
  0
LINE
  5
51C
100
AcDbEntity
  8
0
100
AcDbLine
 62
7
  6
CONTINUOUS
 10
-9.9465640553
 20
22.3441821702
 30
0.0
 11
-10.4465640553
 21
22.3441821702
 31
0.0
  0
LINE
  5
51D
100
AcDbEntity
  8
0
100
AcDbLine
 62
7
  6
CONTINUOUS
 10
22.8592537745
 20
22.3441821702
 30
0.0
 11
26.144715423
 21
22.3441821702
 31
0.0
  0
LINE
  5
51E
100
AcDbEntity
  8
0
100
AcDbLine
 62
7
  6
CONTINUOUS
 10
26.1538165445
 20
22.35
 30
0.0
 11
19.9586719803
 21
22.35
 31
0.0
  0
LINE
  5
51F
100
AcDbEntity
  8
0
100
AcDbLine
 62
7
  6
CONTINUOUS
 10
11.1481999091
 20
22.35
 30
0.0
 11
-2.5413280197
 21
22.35
 31
0.0
  0
LINE
  5
520
100
AcDbEntity
  8
0
100
AcDbLine
 62
7
  6
CONTINUOUS
 10
-11.3518000909
 20
22.35
 30
0.0
 11
-17.546944655
 21
22.35
 31
0.0
  0
LINE
  5
521
100
AcDbEntity
  8
0
100
AcDbLine
 62
7
  6
CONTINUOUS
 10
26.1231999091
 20
23.2226497308
 30
0.0
 11
23.8586719803
 21
23.2226497308
 31
0.0
  0
LINE
  5
522
100
AcDbEntity
  8
0
100
AcDbLine
 62
7
  6
CONTINUOUS
 10
-17.5163280197
 20
23.2226497308
 30
0.0
 11
-15.2518000909
 21
23.2226497308
 31
0.0
  0
LINE
  5
523
100
AcDbEntity
  8
0
100
AcDbLine
 62
7
  6
CONTINUOUS
 10
3.6231999091
 20
23.2226497308
 30
0.0
 11
1.3586719803
 21
23.2226497308
 31
0.0
  0
LINE
  5
524
100
AcDbEntity
  8
0
100
AcDbLine
 62
7
  6
CONTINUOUS
 10
4.9836719803
 20
23.2226497308
 30
0.0
 11
7.2481999091
 21
23.2226497308
 31
0.0
  0
LINE
  5
525
100
AcDbEntity
  8
0
100
AcDbLine
 62
7
  6
CONTINUOUS
 10
-11.3125024085
 20
23.7659383532
 30
0.0
 11
-10.5033343888
 21
23.7659383532
 31
0.0
  0
LINE
  5
526
100
AcDbEntity
  8
0
100
AcDbLine
 62
7
  6
CONTINUOUS
 10
-3.3897937217
 20
23.7659383532
 30
0.0
 11
-2.580625702
 21
23.7659383532
 31
0.0
  0
LINE
  5
527
100
AcDbEntity
  8
0
100
AcDbLine
 62
7
  6
CONTINUOUS
 10
11.1874975915
 20
23.7659383532
 30
0.0
 11
11.9966656112
 21
23.7659383532
 31
0.0
  0
LINE
  5
528
100
AcDbEntity
  8
0
100
AcDbLine
 62
7
  6
CONTINUOUS
 10
19.1102062783
 20
23.7659383532
 30
0.0
 11
19.919374298
 21
23.7659383532
 31
0.0
  0
LINE
  5
529
100
AcDbEntity
  8
0
100
AcDbLine
 62
7
  6
CONTINUOUS
 10
26.1284359447
 20
23.8
 30
0.0
 11
23.8534359447
 21
23.8
 31
0.0
  0
LINE
  5
52A
100
AcDbEntity
  8
0
100
AcDbLine
 62
7
  6
CONTINUOUS
 10
-17.5215640553
 20
23.8
 30
0.0
 11
-15.2465640553
 21
23.8
 31
0.0
  0
LINE
  5
52B
100
AcDbEntity
  8
0
100
AcDbLine
 62
7
  6
CONTINUOUS
 10
3.6284359447
 20
23.8
 30
0.0
 11
1.3534359447
 21
23.8
 31
0.0
  0
LINE
  5
52C
100
AcDbEntity
  8
0
100
AcDbLine
 62
7
  6
CONTINUOUS
 10
4.9784359447
 20
23.8
 30
0.0
 11
7.2534359447
 21
23.8
 31
0.0
  0
LINE
  5
52D
100
AcDbEntity
  8
0
100
AcDbLine
 62
7
  6
CONTINUOUS
 10
-2.5465640553
 20
23.8
 30
0.0
 11
-11.3465640553
 21
23.8
 31
0.0
  0
LINE
  5
52E
100
AcDbEntity
  8
0
100
AcDbLine
 62
7
  6
CONTINUOUS
 10
11.1534359447
 20
23.8
 30
0.0
 11
19.9534359447
 21
23.8
 31
0.0
  0
LINE
  5
52F
100
AcDbEntity
  8
0
100
AcDbLine
 62
7
  6
CONTINUOUS
 10
19.4826024048
 20
14.1893617153
 30
0.0
 11
19.3471859447
 21
14.2723404288
 31
0.0
  0
LINE
  5
530
100
AcDbEntity
  8
0
100
AcDbLine
 62
7
  6
CONTINUOUS
 10
19.3201024048
 20
14.134042573
 30
0.0
 11
19.4284359447
 21
14.0510638595
 31
0.0
  0
LINE
  5
531
100
AcDbEntity
  8
0
100
AcDbLine
 62
7
  6
CONTINUOUS
 10
8.3128943185
 20
22.2859700255
 30
0.0
 11
8.2541419399
 21
22.3383643404
 31
0.0
  0
LINE
  5
532
100
AcDbEntity
  8
0
100
AcDbLine
 62
7
  6
CONTINUOUS
 10
19.5638524048
 20
14.1063830018
 30
0.0
 11
19.4826024048
 21
14.1893617153
 31
0.0
  0
LINE
  5
533
100
AcDbEntity
  8
0
100
AcDbLine
 62
7
  6
CONTINUOUS
 10
11.1481999091
 20
22.35
 30
0.0
 11
11.1879842268
 21
22.3057951078
 31
0.0
  0
LINE
  5
534
100
AcDbEntity
  8
0
100
AcDbLine
 62
7
  6
CONTINUOUS
 10
19.4284359447
 20
14.0510638595
 30
0.0
 11
19.4826024048
 21
13.9680850685
 31
0.0
  0
LINE
  5
535
100
AcDbEntity
  8
0
100
AcDbLine
 62
7
  6
CONTINUOUS
 10
19.6180194847
 20
13.9680850685
 30
0.0
 11
19.5638524048
 21
14.1063830018
 31
0.0
  0
LINE
  5
536
100
AcDbEntity
  8
0
100
AcDbLine
 62
7
  6
CONTINUOUS
 10
26.6359822092
 20
-18.1473460386
 30
0.0
 11
26.6534359447
 21
-18.5
 31
0.0
  0
LINE
  5
537
100
AcDbEntity
  8
0
100
AcDbLine
 62
7
  6
CONTINUOUS
 10
26.1284359447
 20
-23.8
 30
0.0
 11
26.1231999091
 21
-23.2226497308
 31
0.0
  0
LINE
  5
538
100
AcDbEntity
  8
0
100
AcDbLine
 62
7
  6
CONTINUOUS
 10
25.1534359447
 20
20.1990396502
 30
0.0
 11
25.1534359447
 21
19.5
 31
0.0
  0
LINE
  5
539
100
AcDbEntity
  8
0
100
AcDbLine
 62
7
  6
CONTINUOUS
 10
25.1534359447
 20
-19.5
 30
0.0
 11
25.1534359447
 21
-20.1990396502
 31
0.0
  0
LINE
  5
53A
100
AcDbEntity
  8
0
100
AcDbLine
 62
7
  6
CONTINUOUS
 10
25.1708910097
 20
19.5
 30
0.0
 11
25.1708910097
 21
-19.5
 31
0.0
  0
LINE
  5
53B
100
AcDbEntity
  8
0
100
AcDbLine
 62
7
  6
CONTINUOUS
 10
26.1231999091
 20
23.2226497308
 30
0.0
 11
26.1231999091
 21
22.35
 31
0.0
  0
LINE
  5
53C
100
AcDbEntity
  8
0
100
AcDbLine
 62
7
  6
CONTINUOUS
 10
26.1231999091
 20
-22.35
 30
0.0
 11
26.1231999091
 21
-23.2226497308
 31
0.0
  0
LINE
  5
53D
100
AcDbEntity
  8
0
100
AcDbLine
 62
7
  6
CONTINUOUS
 10
26.1284359447
 20
-24.2500034269
 30
0.0
 11
26.1284359447
 21
-23.8
 31
0.0
  0
LINE
  5
53E
100
AcDbEntity
  8
0
100
AcDbLine
 62
7
  6
CONTINUOUS
 10
26.1284359447
 20
23.8
 30
0.0
 11
26.1284359447
 21
24.2500034269
 31
0.0
  0
LINE
  5
53F
100
AcDbEntity
  8
0
100
AcDbLine
 62
7
  6
CONTINUOUS
 10
26.6359822092
 20
-18.5674537356
 30
0.0
 11
26.6359822092
 21
-18.1473460386
 31
0.0
  0
LINE
  5
540
100
AcDbEntity
  8
0
100
AcDbLine
 62
7
  6
CONTINUOUS
 10
26.6359822092
 20
18.1473460386
 30
0.0
 11
26.6359822092
 21
18.5674537356
 31
0.0
  0
LINE
  5
541
100
AcDbEntity
  8
0
100
AcDbLine
 62
7
  6
CONTINUOUS
 10
26.6447090769
 20
21.8441990932
 30
0.0
 11
26.6447090769
 21
18.5587268678
 31
0.0
  0
LINE
  5
542
100
AcDbEntity
  8
0
100
AcDbLine
 62
7
  6
CONTINUOUS
 10
26.6447090769
 20
-18.5587268678
 30
0.0
 11
26.6447090769
 21
-21.8441990932
 31
0.0
  0
LINE
  5
543
100
AcDbEntity
  8
0
100
AcDbLine
 62
7
  6
CONTINUOUS
 10
26.6534359447
 20
21.850016923
 30
0.0
 11
26.6534359447
 21
18.5
 31
0.0
  0
LINE
  5
544
100
AcDbEntity
  8
0
100
AcDbLine
 62
7
  6
CONTINUOUS
 10
26.6534359447
 20
-21.850016923
 30
0.0
 11
26.6534359447
 21
-18.5
 31
0.0
  0
LINE
  5
545
100
AcDbEntity
  8
0
100
AcDbLine
 62
7
  6
CONTINUOUS
 10
26.6883460746
 20
-18.1473460386
 30
0.0
 11
26.6883460746
 21
18.1473460386
 31
0.0
  0
LINE
  5
546
100
AcDbEntity
  8
0
100
AcDbLine
 62
7
  6
CONTINUOUS
 10
26.1231999091
 20
23.2226497308
 30
0.0
 11
26.1284359447
 21
23.8
 31
0.0
  0
LINE
  5
547
100
AcDbEntity
  8
0
100
AcDbLine
 62
7
  6
CONTINUOUS
 10
26.6534359447
 20
18.5
 30
0.0
 11
26.6359822092
 21
18.1473460386
 31
0.0
  0
LINE
  5
548
100
AcDbEntity
  8
DRAFT
100
AcDbLine
 62
7
  6
CONTINUOUS
 10
22.9494314904
 20
-20.9
 30
0.0
 11
23.0243110638
 21
-20.4503229513
 31
0.0
  0
LINE
  5
549
100
AcDbEntity
  8
0
100
AcDbLine
 62
7
  6
CONTINUOUS
 10
11.1534359447
 20
-23.8
 30
0.0
 11
11.1874975915
 21
-23.7659383532
 31
0.0
  0
LINE
  5
54A
100
AcDbEntity
  8
0
100
AcDbLine
 62
7
  6
CONTINUOUS
 10
25.8784393717
 20
24.5
 30
0.0
 11
24.1034325178
 21
24.5
 31
0.0
  0
LINE
  5
54B
100
AcDbEntity
  8
0
100
AcDbLine
 62
7
  6
CONTINUOUS
 10
-17.2715674822
 20
24.5
 30
0.0
 11
-15.4965606283
 21
24.5
 31
0.0
  0
LINE
  5
54C
100
AcDbEntity
  8
0
100
AcDbLine
 62
7
  6
CONTINUOUS
 10
3.3784393717
 20
24.5
 30
0.0
 11
1.6034325178
 21
24.5
 31
0.0
  0
LINE
  5
54D
100
AcDbEntity
  8
0
100
AcDbLine
 62
7
  6
CONTINUOUS
 10
5.2284325178
 20
24.5
 30
0.0
 11
7.0034393717
 21
24.5
 31
0.0
  0
LINE
  5
54E
100
AcDbEntity
  8
0
100
AcDbLine
 62
7
  6
CONTINUOUS
 10
11.1534359447
 20
23.8
 30
0.0
 11
11.1874975915
 21
23.7659383532
 31
0.0
  0
LINE
  5
54F
100
AcDbEntity
  8
DRAFT
100
AcDbLine
 62
7
  6
CONTINUOUS
 10
23.0243110638
 20
20.4503229513
 30
0.0
 11
22.9494314904
 21
20.9
 31
0.0
  0
LINE
  5
550
100
AcDbEntity
  8
0
100
AcDbLine
 62
7
  6
CONTINUOUS
 10
26.6534359447
 20
18.5
 30
0.0
 11
26.6883460746
 21
18.1473460386
 31
0.0
  0
LINE
  5
551
100
AcDbEntity
  8
0
100
AcDbLine
 62
7
  6
CONTINUOUS
 10
26.6883460746
 20
-18.1473460386
 30
0.0
 11
26.6534359447
 21
-18.5
 31
0.0
  0
LINE
  5
552
100
AcDbEntity
  8
0
100
AcDbLine
 62
7
  6
CONTINUOUS
 10
18.5534359447
 20
-21.7
 30
0.0
 11
18.6296804092
 21
-21.6237555355
 31
0.0
  0
LINE
  5
553
100
AcDbEntity
  8
0
100
AcDbLine
 62
7
  6
CONTINUOUS
 10
18.6407553932
 20
-22.2859700255
 30
0.0
 11
18.5534359447
 21
-22.3441821702
 31
0.0
  0
LINE
  5
554
100
AcDbEntity
  8
0
100
AcDbLine
 62
7
  6
CONTINUOUS
 10
19.0534359447
 20
-22.3441821702
 30
0.0
 11
19.1110296551
 21
-22.3057869048
 31
0.0
  0
LINE
  5
555
100
AcDbEntity
  8
0
100
AcDbLine
 62
7
  6
CONTINUOUS
 10
23.6200054465
 20
-21.4537354271
 30
0.0
 11
23.8034359447
 21
-21.4
 31
0.0
  0
LINE
  5
556
100
AcDbEntity
  8
0
100
AcDbLine
 62
7
  6
CONTINUOUS
 10
23.6200054465
 20
21.4537354271
 30
0.0
 11
23.8034359447
 21
21.4
 31
0.0
  0
LINE
  5
557
100
AcDbEntity
  8
0
100
AcDbLine
 62
7
  6
CONTINUOUS
 10
18.6407553932
 20
22.2859700255
 30
0.0
 11
18.5534359447
 21
22.3441821702
 31
0.0
  0
LINE
  5
558
100
AcDbEntity
  8
0
100
AcDbLine
 62
7
  6
CONTINUOUS
 10
19.0534359447
 20
22.3441821702
 30
0.0
 11
19.1110296551
 21
22.3057869048
 31
0.0
  0
LINE
  5
559
100
AcDbEntity
  8
0
100
AcDbLine
 62
7
  6
CONTINUOUS
 10
18.5534359447
 20
21.7
 30
0.0
 11
18.6296804092
 21
21.6237555355
 31
0.0
  0
LINE
  5
55A
100
AcDbEntity
  8
DRAFT
100
AcDbLine
 62
7
  6
CONTINUOUS
 10
22.8534359447
 20
-20.9959955457
 30
0.0
 11
22.9494314904
 21
-20.9
 31
0.0
  0
LINE
  5
55B
100
AcDbEntity
  8
0
100
AcDbLine
 62
7
  6
CONTINUOUS
 10
19.1102062783
 20
-23.7659383532
 30
0.0
 11
19.0534359447
 21
-23.8
 31
0.0
  0
LINE
  5
55C
100
AcDbEntity
  8
0
100
AcDbLine
 62
7
  6
CONTINUOUS
 10
23.6200054465
 20
-20.9917082642
 30
0.0
 11
23.8034359447
 21
-20.9
 31
0.0
  0
LINE
  5
55D
100
AcDbEntity
  8
0
100
AcDbLine
 62
7
  6
CONTINUOUS
 10
23.6200054465
 20
20.9917082642
 30
0.0
 11
23.8034359447
 21
20.9
 31
0.0
  0
LINE
  5
55E
100
AcDbEntity
  8
0
100
AcDbLine
 62
7
  6
CONTINUOUS
 10
19.1102062783
 20
23.7659383532
 30
0.0
 11
19.0534359447
 21
23.8
 31
0.0
  0
LINE
  5
55F
100
AcDbEntity
  8
DRAFT
100
AcDbLine
 62
7
  6
CONTINUOUS
 10
22.8534359447
 20
20.9959955457
 30
0.0
 11
22.9494314904
 21
20.9
 31
0.0
  0
LINE
  5
560
100
AcDbEntity
  8
0
100
AcDbLine
 62
7
  6
CONTINUOUS
 10
25.1534359447
 20
-20.1990396502
 30
0.0
 11
24.4533296071
 21
-20.9
 31
0.0
  0
LINE
  5
561
100
AcDbEntity
  8
0
100
AcDbLine
 62
7
  6
CONTINUOUS
 10
22.8592537745
 20
-22.3441821702
 30
0.0
 11
23.8034359447
 21
-21.4
 31
0.0
  0
LINE
  5
562
100
AcDbEntity
  8
0
100
AcDbLine
 62
7
  6
CONTINUOUS
 10
25.7034359447
 20
-19.5
 30
0.0
 11
26.6447090769
 21
-18.5587268678
 31
0.0
  0
LINE
  5
563
100
AcDbEntity
  8
0
100
AcDbLine
 62
7
  6
CONTINUOUS
 10
22.8592537745
 20
22.3441821702
 30
0.0
 11
23.8034359447
 21
21.4
 31
0.0
  0
LINE
  5
564
100
AcDbEntity
  8
0
100
AcDbLine
 62
7
  6
CONTINUOUS
 10
26.6447090769
 20
18.5587268678
 30
0.0
 11
25.7034359447
 21
19.5
 31
0.0
  0
LINE
  5
565
100
AcDbEntity
  8
0
100
AcDbLine
 62
7
  6
CONTINUOUS
 10
25.1534359447
 20
20.1990396502
 30
0.0
 11
24.4533296071
 21
20.9
 31
0.0
  0
ARC
  5
566
100
AcDbEntity
  8
RACCORDO
100
AcDbCircle
 62
7
  6
CONTINUOUS
 10
-17.925353233
 20
-0.6
 30
0.0
 40
1.5
100
AcDbArc
 50
216.8698976458
 51
270.0
  0
ARC
  5
567
100
AcDbEntity
  8
RACCORDO
100
AcDbCircle
 62
7
  6
CONTINUOUS
 10
-14.3366451667
 20
-8.0299858195
 30
0.0
 40
1.5
100
AcDbArc
 50
118.9906970502
 51
168.1301023477
  0
ARC
  5
568
100
AcDbEntity
  8
RACCORDO
100
AcDbCircle
 62
7
  6
CONTINUOUS
 10
-13.8295032524
 20
-9.1175551639
 30
0.0
 40
1.5
100
AcDbArc
 50
241.8698976458
 51
291.1068525497
  0
ARC
  5
569
100
AcDbEntity
  8
RACCORDO
100
AcDbCircle
 62
7
  6
CONTINUOUS
 10
-20.6436406937
 20
-11.6330128851
 30
0.0
 40
1.5
100
AcDbArc
 50
115.0
 51
295.0
  0
ARC
  5
56A
100
AcDbEntity
  8
ASSI
100
AcDbCircle
 62
7
  6
CONTINUOUS
 10
-20.6084902761
 20
-11.6166219762
 30
0.0
 40
0.6
100
AcDbArc
 50
115.0
 51
295.0
  0
ARC
  5
56B
100
AcDbEntity
  8
ASSI
100
AcDbCircle
 62
7
  6
CONTINUOUS
 10
-18.3427208085
 20
-10.5600763218
 30
0.0
 40
0.6
100
AcDbArc
 50
295.0
 51
115.0
  0
ARC
  5
56C
100
AcDbEntity
  8
0
100
AcDbCircle
 62
7
  6
CONTINUOUS
 10
-10.9465640553
 20
-23.15
 30
0.0
 40
0.5
100
AcDbArc
 50
137.04856697
 51
222.95143303
  0
ARC
  5
56D
100
AcDbEntity
  8
0
100
AcDbCircle
 62
7
  6
CONTINUOUS
 10
-2.9465640553
 20
-23.15
 30
0.0
 40
0.5
100
AcDbArc
 50
317.04856697
 51
42.95143303
  0
ARC
  5
56E
100
AcDbEntity
  8
0
100
AcDbCircle
 62
7
  6
CONTINUOUS
 10
-17.5466002095
 20
-21.8500459592
 30
0.0
 40
0.4999572878
100
AcDbArc
 50
179.9966724643
 51
270.0034160795
  0
ARC
  5
56F
100
AcDbEntity
  8
0
100
AcDbCircle
 62
7
  6
CONTINUOUS
 10
-9.4565640553
 20
-16.0
 30
0.0
 40
0.2400005268
100
AcDbArc
 50
135.0
 51
225.0
  0
ARC
  5
570
100
AcDbEntity
  8
0
100
AcDbCircle
 62
7
  6
CONTINUOUS
 10
-6.6965640553
 20
-18.76
 30
0.0
 40
0.2400005268
100
AcDbArc
 50
225.0
 51
315.0
  0
ARC
  5
571
100
AcDbEntity
  8
0
100
AcDbCircle
 62
7
  6
CONTINUOUS
 10
-7.7939310553
 20
-16.42
 30
0.0
 40
0.1200004254
100
AcDbArc
 50
203.7057591675
 51
264.0398774634
  0
ARC
  5
572
100
AcDbEntity
  8
0
100
AcDbCircle
 62
7
  6
CONTINUOUS
 10
-7.9235640553
 20
-16.9
 30
0.0
 40
0.12
100
AcDbArc
 50
90.0
 51
180.0
  0
ARC
  5
573
100
AcDbEntity
  8
0
100
AcDbCircle
 62
7
  6
CONTINUOUS
 10
-7.5995640553
 20
-16.9
 30
0.0
 40
0.12
100
AcDbArc
 50
0.0
 51
90.0
  0
ARC
  5
574
100
AcDbEntity
  8
0
100
AcDbCircle
 62
7
  6
CONTINUOUS
 10
-7.3595640553
 20
-16.9
 30
0.0
 40
0.12
100
AcDbArc
 50
180.0
 51
341.9136214445
  0
ARC
  5
575
100
AcDbEntity
  8
0
100
AcDbCircle
 62
7
  6
CONTINUOUS
 10
-6.6965640553
 20
-17.35
 30
0.0
 40
0.12
100
AcDbArc
 50
179.9999999999
 51
349.1422302374
  0
ARC
  5
576
100
AcDbEntity
  8
0
100
AcDbCircle
 62
7
  6
CONTINUOUS
 10
-8.1635640553
 20
-16.9
 30
0.0
 40
0.1199994599
100
AcDbArc
 50
164.9050372332
 51
360.0
  0
ARC
  5
577
100
AcDbEntity
  8
RACCORDO
100
AcDbCircle
 62
7
  6
CONTINUOUS
 10
-20.6200281988
 20
11.6220021979
 30
0.0
 40
1.5
100
AcDbArc
 50
65.0
 51
245.0
  0
ARC
  5
578
100
AcDbEntity
  8
RACCORDO
100
AcDbCircle
 62
7
  6
CONTINUOUS
 10
-14.3366451665
 20
8.0299858194
 30
0.0
 40
1.5
100
AcDbArc
 50
191.8698976458
 51
241.0093029366
  0
ARC
  5
579
100
AcDbEntity
  8
RACCORDO
100
AcDbCircle
 62
7
  6
CONTINUOUS
 10
-13.829503252
 20
9.1175551637
 30
0.0
 40
1.5
100
AcDbArc
 50
68.8931474654
 51
118.1301023629
  0
ARC
  5
57A
100
AcDbEntity
  8
RACCORDO
100
AcDbCircle
 62
7
  6
CONTINUOUS
 10
-25.1965640553
 20
0.0
 30
0.0
 40
1.5
100
AcDbArc
 50
90.0
 51
270.0
  0
ARC
  5
57B
100
AcDbEntity
  8
RACCORDO
100
AcDbCircle
 62
7
  6
CONTINUOUS
 10
-17.9253532326
 20
0.6
 30
0.0
 40
1.5
100
AcDbArc
 50
90.0000000141
 51
143.1301023626
  0
ARC
  5
57C
100
AcDbEntity
  8
ASSI
100
AcDbCircle
 62
7
  6
CONTINUOUS
 10
-20.6084902761
 20
11.6166219762
 30
0.0
 40
0.6
100
AcDbArc
 50
65.0
 51
245.0
  0
ARC
  5
57D
100
AcDbEntity
  8
ASSI
100
AcDbCircle
 62
7
  6
CONTINUOUS
 10
-18.3427208085
 20
10.5600763218
 30
0.0
 40
0.6
100
AcDbArc
 50
245.0
 51
65.0
  0
ARC
  5
57E
100
AcDbEntity
  8
0
100
AcDbCircle
 62
7
  6
CONTINUOUS
 10
-10.9465640553
 20
23.15
 30
0.0
 40
0.5
100
AcDbArc
 50
137.04856697
 51
222.95143303
  0
ARC
  5
57F
100
AcDbEntity
  8
0
100
AcDbCircle
 62
7
  6
CONTINUOUS
 10
-2.9465640553
 20
23.15
 30
0.0
 40
0.5
100
AcDbArc
 50
317.04856697
 51
42.95143303
  0
ARC
  5
580
100
AcDbEntity
  8
0
100
AcDbCircle
 62
7
  6
CONTINUOUS
 10
-17.5466004063
 20
21.8500451396
 30
0.0
 40
0.4999576362
100
AcDbArc
 50
90.0394515498
 51
180.0313994153
  0
ARC
  5
581
100
AcDbEntity
  8
ASSI
100
AcDbCircle
 62
7
  6
CONTINUOUS
 10
21.2209919447
 20
-16.5
 30
0.0
 40
2.5499986575
100
AcDbArc
 50
87.752529198
 51
272.247470802
  0
ARC
  5
582
100
AcDbEntity
  8
ASSI
100
AcDbCircle
 62
7
  6
CONTINUOUS
 10
16.8358819447
 20
-16.5
 30
0.0
 40
2.5499985399
100
AcDbArc
 50
208.7269488221
 51
272.2474709057
  0
ARC
  5
583
100
AcDbEntity
  8
ASSI
100
AcDbCircle
 62
7
  6
CONTINUOUS
 10
11.8034359447
 20
-17.0
 30
0.0
 40
2.0240299518
100
AcDbArc
 50
292.0885283167
 51
313.2946218162
  0
ARC
  5
584
100
AcDbEntity
  8
ASSI
100
AcDbCircle
 62
7
  6
CONTINUOUS
 10
11.7422169447
 20
-20.815557
 30
0.0
 40
1.8043863978
100
AcDbArc
 50
47.231266101
 51
83.7195483237
  0
ARC
  5
585
100
AcDbEntity
  8
ASSI
100
AcDbCircle
 62
7
  6
CONTINUOUS
 10
21.2209919447
 20
-16.5
 30
0.0
 40
1.7999999246
100
AcDbArc
 50
86.8152613297
 51
167.9753003079
  0
ARC
  5
586
100
AcDbEntity
  8
ASSI
100
AcDbCircle
 62
7
  6
CONTINUOUS
 10
16.8358819447
 20
-16.5
 30
0.0
 40
1.7999999246
100
AcDbArc
 50
207.7028574317
 51
273.1847386703
  0
ARC
  5
587
100
AcDbEntity
  8
ASSI
100
AcDbCircle
 62
7
  6
CONTINUOUS
 10
21.2209919447
 20
-16.5
 30
0.0
 40
1.7999968808
100
AcDbArc
 50
192.0247203293
 51
273.1847440612
  0
ARC
  5
588
100
AcDbEntity
  8
ASSI
100
AcDbCircle
 62
7
  6
CONTINUOUS
 10
11.8842219447
 20
-20.523287
 30
0.0
 40
1.7827319001
100
AcDbArc
 50
45.4349102329
 51
67.565881117
  0
ARC
  5
589
100
AcDbEntity
  8
0
100
AcDbCircle
 62
7
  6
CONTINUOUS
 10
11.5534359447
 20
-23.15
 30
0.0
 40
0.5
100
AcDbArc
 50
137.04856697
 51
222.95143303
  0
ARC
  5
58A
100
AcDbEntity
  8
0
100
AcDbCircle
 62
7
  6
CONTINUOUS
 10
19.5534359447
 20
-23.15
 30
0.0
 40
0.5
100
AcDbArc
 50
317.04856697
 51
42.95143303
  0
ARC
  5
58B
100
AcDbEntity
  8
0
100
AcDbCircle
 62
7
  6
CONTINUOUS
 10
26.153472325
 20
-21.8500451688
 30
0.0
 40
0.4999576362
100
AcDbArc
 50
270.0394482085
 51
0.0314027551
  0
ARC
  5
58C
100
AcDbEntity
  8
0
100
AcDbCircle
 62
7
  6
CONTINUOUS
 10
4.3034359447
 20
-0.0
 30
0.0
 40
21.0
100
AcDbArc
 50
280.6623017146
 51
288.3218310064
  0
ARC
  5
58D
100
AcDbEntity
  8
0
100
AcDbCircle
 62
7
  6
CONTINUOUS
 10
4.3034359447
 20
-0.0
 30
0.0
 40
21.0
100
AcDbArc
 50
71.6781689936
 51
79.3376982854
  0
ARC
  5
58E
100
AcDbEntity
  8
0
100
AcDbCircle
 62
7
  6
CONTINUOUS
 10
4.3034359447
 20
-0.0
 30
0.0
 40
21.0
100
AcDbArc
 50
251.6781689936
 51
259.3376982854
  0
ARC
  5
58F
100
AcDbEntity
  8
0
100
AcDbCircle
 62
7
  6
CONTINUOUS
 10
4.3034359447
 20
-0.0
 30
0.0
 40
21.0
100
AcDbArc
 50
100.6623017146
 51
108.3218310064
  0
CIRCLE
  5
590
100
AcDbEntity
  8
RACCORDO
100
AcDbCircle
 62
7
  6
CONTINUOUS
 10
4.3034359447
 20
0.0
 30
0.0
 40
20.5
  0
CIRCLE
  5
591
100
AcDbEntity
  8
RACCORDO
100
AcDbCircle
 62
250
  6
CONTINUOUS
 10
4.3034359447
 20
0.0
 30
0.0
 40
19.0
  0
ARC
  5
592
100
AcDbEntity
  8
0
100
AcDbCircle
 62
7
  6
CONTINUOUS
 10
3.9214271063
 20
5.2281664554
 30
0.0
 40
10.4733807459
100
AcDbArc
 50
279.2839816209
 51
281.7893162877
  0
ARC
  5
593
100
AcDbEntity
  8
0
100
AcDbCircle
 62
7
  6
CONTINUOUS
 10
14.7356786043
 20
17.0
 30
0.0
 40
1.2406538298
100
AcDbArc
 50
90.0
 51
123.6468614823
  0
ARC
  5
594
100
AcDbEntity
  8
0
100
AcDbCircle
 62
7
  6
CONTINUOUS
 10
15.6398837107
 20
17.0
 30
0.0
 40
1.2406538298
100
AcDbArc
 50
90.0
 51
145.0143322224
  0
ARC
  5
595
100
AcDbEntity
  8
0
100
AcDbCircle
 62
7
  6
CONTINUOUS
 10
16.5440897745
 20
17.0
 30
0.0
 40
1.2406538298
100
AcDbArc
 50
90.0
 51
167.1335696118
  0
ARC
  5
596
100
AcDbEntity
  8
0
100
AcDbCircle
 62
7
  6
CONTINUOUS
 10
14.7356786043
 20
17.0
 30
0.0
 40
0.8726639362
100
AcDbArc
 50
90.0
 51
110.1704281641
  0
ARC
  5
597
100
AcDbEntity
  8
0
100
AcDbCircle
 62
7
  6
CONTINUOUS
 10
15.6398837107
 20
17.0
 30
0.0
 40
0.8726639362
100
AcDbArc
 50
90.0
 51
143.3595228058
  0
ARC
  5
598
100
AcDbEntity
  8
0
100
AcDbCircle
 62
7
  6
CONTINUOUS
 10
16.5440897745
 20
17.0
 30
0.0
 40
0.8726639362
100
AcDbArc
 50
90.0
 51
176.4107337059
  0
ARC
  5
599
100
AcDbEntity
  8
0
100
AcDbCircle
 62
7
  6
CONTINUOUS
 10
11.5534359447
 20
23.15
 30
0.0
 40
0.5
100
AcDbArc
 50
137.04856697
 51
222.95143303
  0
ARC
  5
59A
100
AcDbEntity
  8
0
100
AcDbCircle
 62
7
  6
CONTINUOUS
 10
19.5534359447
 20
23.15
 30
0.0
 40
0.5
100
AcDbArc
 50
317.04856697
 51
42.95143303
  0
ARC
  5
59B
100
AcDbEntity
  8
0
100
AcDbCircle
 62
7
  6
CONTINUOUS
 10
26.1534721285
 20
21.8500459887
 30
0.0
 40
0.4999572878
100
AcDbArc
 50
359.996669082
 51
90.0034194617
  0
SPLINE
  5
59C
100
AcDbEntity
  8
0
100
AcDbSpline
 62
7
  6
CONTINUOUS
 70
0
 71
3
 72
9
 73
5
 74
0
 42
0.0000001
 43
0.0000001
 44
0.0000000001
 40
0.0
 40
0.0
 40
0.0
 40
0.0
 40
0.2598948417
 40
1.0
 40
1.0
 40
1.0
 40
1.0
 10
17.5688506944
 20
16.502558847
 30
0.0
 10
17.5792070148
 20
16.5181974001
 30
0.0
 10
17.6153589639
 20
16.580738965
 30
0.0
 10
17.6325461165
 20
16.6542155055
 30
0.0
 10
17.6325461165
 20
16.7076294464
 30
0.0
  0
SPLINE
  5
59D
100
AcDbEntity
  8
0
100
AcDbSpline
 62
7
  6
CONTINUOUS
 70
0
 71
3
 72
11
 73
7
 74
0
 42
0.0000001
 43
0.0000001
 44
0.0000000001
 40
0.0
 40
0.0
 40
0.0
 40
0.0
 40
0.2699203166
 40
0.5129584257
 40
0.750732558
 40
1.0
 40
1.0
 40
1.0
 40
1.0
 10
17.6325461165
 20
16.7076294464
 30
0.0
 10
17.6325461165
 20
16.7419809427
 30
0.0
 10
17.6256393893
 20
16.8079401875
 30
0.0
 10
17.584776469
 20
16.8962953971
 30
0.0
 10
17.5195262605
 20
16.9644512716
 30
0.0
 10
17.4650806646
 20
16.9957698846
 30
0.0
 10
17.4359126749
 20
17.0082431979
 30
0.0
  0
SPLINE
  5
59E
100
AcDbEntity
  8
0
100
AcDbSpline
 62
7
  6
CONTINUOUS
 70
0
 71
3
 72
9
 73
5
 74
0
 42
0.0000001
 43
0.0000001
 44
0.0000000001
 40
0.0
 40
0.0
 40
0.0
 40
0.0
 40
0.3971265077
 40
1.0
 40
1.0
 40
1.0
 40
1.0
 10
17.4359126749
 20
17.0082431979
 30
0.0
 10
17.3947180774
 20
17.0258595344
 30
0.0
 10
17.2873116129
 20
17.0611815009
 30
0.0
 10
17.1787611273
 20
17.0917139045
 30
0.0
 10
17.1130520722
 20
17.1092753184
 30
0.0
  0
SPLINE
  5
59F
100
AcDbEntity
  8
0
100
AcDbSpline
 62
7
  6
CONTINUOUS
 70
0
 71
3
 72
9
 73
5
 74
0
 42
0.0000001
 43
0.0000001
 44
0.0000000001
 40
0.0
 40
0.0
 40
0.0
 40
0.0
 40
0.6631642953
 40
1.0
 40
1.0
 40
1.0
 40
1.0
 10
17.1130520722
 20
17.1092753184
 30
0.0
 10
17.0703643743
 20
17.120938165
 30
0.0
 10
17.0062160134
 20
17.1391406178
 30
0.0
 10
16.9418701176
 20
17.1571867873
 30
0.0
 10
16.920802009
 20
17.1650185392
 30
0.0
  0
SPLINE
  5
5A0
100
AcDbEntity
  8
0
100
AcDbSpline
 62
7
  6
CONTINUOUS
 70
0
 71
3
 72
15
 73
11
 74
0
 42
0.0000001
 43
0.0000001
 44
0.0000000001
 40
0.0
 40
0.0
 40
0.0
 40
0.0
 40
0.1730749468
 40
0.3186365873
 40
0.4466395683
 40
0.5095002996
 40
0.5739114623
 40
0.6748832334
 40
0.7756616325
 40
1.0
 40
1.0
 40
1.0
 40
1.0
 10
16.920802009
 20
17.1650185392
 30
0.0
 10
16.9035846716
 20
17.1719877334
 30
0.0
 10
16.8726158336
 20
17.1873471494
 30
0.0
 10
16.836784963
 20
17.2202023751
 30
0.0
 10
16.8185883397
 20
17.2522161071
 30
0.0
 10
16.8118507917
 20
17.2789116269
 30
0.0
 10
16.8099518093
 20
17.3034254765
 30
0.0
 10
16.8133995587
 20
17.3321115939
 30
0.0
 10
16.8306626508
 20
17.3749723813
 30
0.0
 10
16.8558441641
 20
17.4010744849
 30
0.0
 10
16.8748730229
 20
17.4158241459
 30
0.0
  0
SPLINE
  5
5A1
100
AcDbEntity
  8
0
100
AcDbSpline
 62
7
  6
CONTINUOUS
 70
0
 71
3
 72
9
 73
5
 74
0
 42
0.0000001
 43
0.0000001
 44
0.0000000001
 40
0.0
 40
0.0
 40
0.0
 40
0.0
 40
0.4195906576
 40
1.0
 40
1.0
 40
1.0
 40
1.0
 10
16.8748730229
 20
17.4158241459
 30
0.0
 10
16.8994547396
 20
17.4348779417
 30
0.0
 10
16.971696844
 20
17.4611778636
 30
0.0
 10
17.0458629828
 20
17.4654964809
 30
0.0
 10
17.0888850188
 20
17.4654964809
 30
0.0
  0
SPLINE
  5
5A2
100
AcDbEntity
  8
0
100
AcDbSpline
 62
7
  6
CONTINUOUS
 70
0
 71
3
 72
11
 73
7
 74
0
 42
0.0000001
 43
0.0000001
 44
0.0000000001
 40
0.0
 40
0.0
 40
0.0
 40
0.0
 40
0.2917953493
 40
0.533375891
 40
0.7584771657
 40
1.0
 40
1.0
 40
1.0
 40
1.0
 10
17.0888850188
 20
17.4654964809
 30
0.0
 10
17.1267124585
 20
17.4654964809
 30
0.0
 10
17.196627134
 20
17.4592586662
 30
0.0
 10
17.2878633315
 20
17.4157731935
 30
0.0
 10
17.347668684
 20
17.3424747936
 30
0.0
 10
17.3649173641
 20
17.2829785852
 30
0.0
 10
17.3693854393
 20
17.2519887617
 30
0.0
  0
SPLINE
  5
5A3
100
AcDbEntity
  8
0
100
AcDbSpline
 62
7
  6
CONTINUOUS
 70
0
 71
3
 72
16
 73
12
 74
0
 42
0.0000001
 43
0.0000001
 44
0.0000000001
 40
0.0
 40
0.0
 40
0.0
 40
0.0
 40
0.1674584478
 40
0.2412999435
 40
0.3099523877
 40
0.3777217205
 40
0.4493636951
 40
0.6105455023
 40
0.7005252253
 40
0.7948937944
 40
1.0
 40
1.0
 40
1.0
 40
1.0
 10
17.5828931585
 20
17.2817805365
 30
0.0
 10
17.5766012859
 20
17.3200531879
 30
0.0
 10
17.5634653006
 20
17.3748989509
 30
0.0
 10
17.5344699192
 20
17.4407419937
 30
0.0
 10
17.5090386439
 20
17.4824992745
 30
0.0
 10
17.4771322626
 20
17.5189524948
 30
0.0
 10
17.4228183262
 20
17.5629506198
 30
0.0
 10
17.354967744
 20
17.5964802569
 30
0.0
 10
17.2787097328
 20
17.6209316093
 30
0.0
 10
17.1902928655
 20
17.6395452358
 30
0.0
 10
17.1206808177
 20
17.6442471296
 30
0.0
 10
17.073174538
 20
17.6442471296
 30
0.0
  0
SPLINE
  5
5A4
100
AcDbEntity
  8
0
100
AcDbSpline
 62
7
  6
CONTINUOUS
 70
0
 71
3
 72
9
 73
5
 74
0
 42
0.0000001
 43
0.0000001
 44
0.0000000001
 40
0.0
 40
0.0
 40
0.0
 40
0.0
 40
0.7579048773
 40
1.0
 40
1.0
 40
1.0
 40
1.0
 10
17.073174538
 20
17.6442471296
 30
0.0
 10
17.0250618158
 20
17.6442471296
 30
0.0
 10
16.9612016613
 20
17.6382566189
 30
0.0
 10
16.8996356459
 20
17.6226043002
 30
0.0
 10
16.8849005944
 20
17.6182375146
 30
0.0
  0
SPLINE
  5
5A5
100
AcDbEntity
  8
0
100
AcDbSpline
 62
7
  6
CONTINUOUS
 70
0
 71
3
 72
9
 73
5
 74
0
 42
0.0000001
 43
0.0000001
 44
0.0000000001
 40
0.0
 40
0.0
 40
0.0
 40
0.0
 40
0.783676007
 40
1.0
 40
1.0
 40
1.0
 40
1.0
 10
16.8849005944
 20
17.6182375146
 30
0.0
 10
16.8465964567
 20
17.6068859455
 30
0.0
 10
16.7981581309
 20
17.5888560406
 30
0.0
 10
16.7551544667
 20
17.5612628056
 30
0.0
 10
16.7462796088
 20
17.5547166753
 30
0.0
  0
SPLINE
  5
5A6
100
AcDbEntity
  8
0
100
AcDbSpline
 62
7
  6
CONTINUOUS
 70
0
 71
3
 72
27
 73
23
 74
0
 42
0.0000001
 43
0.0000001
 44
0.0000000001
 40
0.0
 40
0.0
 40
0.0
 40
0.0
 40
0.0779036576
 40
0.1557169498
 40
0.1950059772
 40
0.2340146279
 40
0.2733641804
 40
0.313660148
 40
0.3577992713
 40
0.4007625641
 40
0.4433797709
 40
0.4865006194
 40
0.5299897325
 40
0.5738614423
 40
0.6191166774
 40
0.6425661212
 40
0.6666937734
 40
0.6932855337
 40
0.7241020291
 40
0.7985629167
 40
0.8902939897
 40
1.0
 40
1.0
 40
1.0
 40
1.0
 10
16.7462796088
 20
17.5547166753
 30
0.0
 10
16.7241298149
 20
17.5389152942
 30
0.0
 10
16.6831694438
 20
17.5022962795
 30
0.0
 10
16.6440827096
 20
17.4457414138
 30
0.0
 10
16.6211174545
 20
17.3961665896
 30
0.0
 10
16.6087332592
 20
17.3568638579
 30
0.0
 10
16.6013383209
 20
17.3159797321
 30
0.0
 10
16.5988886874
 20
17.2727197409
 30
0.0
 10
16.6016662714
 20
17.2281852222
 30
0.0
 10
16.6106678217
 20
17.1836284234
 30
0.0
 10
16.6258038601
 20
17.1411450289
 30
0.0
 10
16.6467728888
 20
17.1010151026
 30
0.0
 10
16.6735371533
 20
17.0639121524
 30
0.0
 10
16.7063223726
 20
17.0309360659
 30
0.0
 10
16.7379697617
 20
17.0073681708
 30
0.0
 10
16.7658115971
 20
16.990718384
 30
0.0
 10
16.7888756632
 20
16.9788847329
 30
0.0
 10
16.8149672453
 20
16.9674448105
 30
0.0
 10
16.8578864439
 20
16.9507129872
 30
0.0
 10
16.9231876837
 20
16.9289183439
 30
0.0
 10
17.0157030506
 20
16.9019353499
 30
0.0
 10
17.0837636139
 20
16.8840869748
 30
0.0
 10
17.1209129693
 20
16.8747057385
 30
0.0
  0
SPLINE
  5
5A7
100
AcDbEntity
  8
0
100
AcDbSpline
 62
7
  6
CONTINUOUS
 70
0
 71
3
 72
9
 73
5
 74
0
 42
0.0000001
 43
0.0000001
 44
0.0000000001
 40
0.0
 40
0.0
 40
0.0
 40
0.0
 40
0.6370641232
 40
1.0
 40
1.0
 40
1.0
 40
1.0
 10
17.1209129939
 20
16.874705836
 30
0.0
 10
17.1693117407
 20
16.8624838184
 30
0.0
 10
17.2442970007
 20
16.841402641
 30
0.0
 10
17.3197119411
 20
16.8162301407
 30
0.0
 10
17.343705575
 20
16.8009614755
 30
0.0
  0
SPLINE
  5
5A8
100
AcDbEntity
  8
0
100
AcDbSpline
 62
7
  6
CONTINUOUS
 70
0
 71
3
 72
13
 73
9
 74
0
 42
0.0000001
 43
0.0000001
 44
0.0000000001
 40
0.0
 40
0.0
 40
0.0
 40
0.0
 40
0.2305360661
 40
0.3401117505
 40
0.4557475956
 40
0.587396093
 40
0.7174921531
 40
1.0
 40
1.0
 40
1.0
 40
1.0
 10
17.343705575
 20
16.8009614755
 30
0.0
 10
17.3633533937
 20
16.7882241827
 30
0.0
 10
17.3896529984
 20
16.7630351118
 30
0.0
 10
17.4066683144
 20
16.7193700821
 30
0.0
 10
17.4104740805
 20
16.6829875268
 30
0.0
 10
17.4061552907
 20
16.6445554862
 30
0.0
 10
17.3868865964
 20
16.5922056187
 30
0.0
 10
17.3581779246
 20
16.5595256376
 30
0.0
 10
17.3361994244
 20
16.5410786625
 30
0.0
  0
SPLINE
  5
5A9
100
AcDbEntity
  8
0
100
AcDbSpline
 62
7
  6
CONTINUOUS
 70
0
 71
3
 72
19
 73
15
 74
0
 42
0.0000001
 43
0.0000001
 44
0.0000000001
 40
0.0
 40
0.0
 40
0.0
 40
0.0
 40
0.0692412301
 40
0.1458929803
 40
0.232852107
 40
0.2808726447
 40
0.3321586799
 40
0.3832672488
 40
0.4316588725
 40
0.5211602962
 40
0.6029985505
 40
0.6801409726
 40
0.831595093
 40
1.0
 40
1.0
 40
1.0
 40
1.0
 10
17.3361994244
 20
16.5410786625
 30
0.0
 10
17.3236299898
 20
16.5305288959
 30
0.0
 10
17.2941009309
 20
16.5117954399
 30
0.0
 10
17.2419017771
 20
16.4929465891
 30
0.0
 10
17.1923340978
 20
16.4840816434
 30
0.0
 10
17.1483229927
 20
16.48046618
 30
0.0
 10
17.1126677569
 20
16.4795666182
 30
0.0
 10
17.0769226275
 20
16.4805415361
 30
0.0
 10
17.0322985618
 20
16.4846905876
 30
0.0
 10
16.9810111494
 20
16.4949322423
 30
0.0
 10
16.9258185482
 20
16.5165179084
 30
0.0
 10
16.8638608409
 20
16.5571462267
 30
0.0
 10
16.8041743044
 20
16.6336607375
 30
0.0
 10
16.7840653415
 20
16.7084874631
 30
0.0
 10
16.7785152395
 20
16.7480112383
 30
0.0
  0
SPLINE
  5
5AA
100
AcDbEntity
  8
0
100
AcDbSpline
 62
7
  6
CONTINUOUS
 70
0
 71
3
 72
13
 73
9
 74
0
 42
0.0000001
 43
0.0000001
 44
0.0000000001
 40
0.0
 40
0.0
 40
0.0
 40
0.0
 40
0.2483432321
 40
0.3606785999
 40
0.4704203565
 40
0.5837477091
 40
0.7072772645
 40
1.0
 40
1.0
 40
1.0
 40
1.0
 10
16.5625248723
 20
16.7132541677
 30
0.0
 10
16.5735751705
 20
16.6512288244
 30
0.0
 10
16.6010397919
 20
16.5616043551
 30
0.0
 10
16.6680246776
 20
16.4619964273
 30
0.0
 10
16.729299456
 20
16.4020033778
 30
0.0
 10
16.8048511299
 20
16.3556171243
 30
0.0
 10
16.9321096502
 20
16.3103229301
 30
0.0
 10
17.0390630117
 20
16.3011346166
 30
0.0
 10
17.113323616
 20
16.3011346166
 30
0.0
  0
SPLINE
  5
5AB
100
AcDbEntity
  8
0
100
AcDbSpline
 62
7
  6
CONTINUOUS
 70
0
 71
3
 72
13
 73
9
 74
0
 42
0.0000001
 43
0.0000001
 44
0.0000000001
 40
0.0
 40
0.0
 40
0.0
 40
0.0
 40
0.2787913029
 40
0.4100853599
 40
0.5378526524
 40
0.6605775196
 40
0.7770415287
 40
1.0
 40
1.0
 40
1.0
 40
1.0
 10
17.113323616
 20
16.3011346166
 30
0.0
 10
17.1614408866
 20
16.3011346166
 30
0.0
 10
17.2325598618
 20
16.3070184695
 30
0.0
 10
17.3228152
 20
16.3293642858
 30
0.0
 10
17.3847588274
 20
16.3522423226
 30
0.0
 10
17.441369667
 20
16.3810485347
 30
0.0
 10
17.5071284335
 20
16.4264869935
 30
0.0
 10
17.5476039512
 20
16.4704752201
 30
0.0
 10
17.5688506944
 20
16.502558847
 30
0.0
  0
SPLINE
  5
5AC
100
AcDbEntity
  8
0
100
AcDbSpline
 62
7
  6
CONTINUOUS
 70
0
 71
3
 72
11
 73
7
 74
0
 42
0.0000001
 43
0.0000001
 44
0.0000000001
 40
0.0
 40
0.0
 40
0.0
 40
0.0
 40
0.3045487042
 40
0.6182140636
 40
0.947870617
 40
1.0
 40
1.0
 40
1.0
 40
1.0
 10
17.9950247297
 20
16.9999872024
 30
0.0
 10
17.9950235295
 20
16.8565559817
 30
0.0
 10
17.9540628076
 20
16.5639226043
 30
0.0
 10
17.7746326344
 20
16.1499589309
 30
0.0
 10
17.5732504056
 20
15.8878524482
 30
0.0
 10
17.4467223152
 20
15.75958385
 30
0.0
 10
17.4291635711
 20
15.7423610795
 30
0.0
  0
SPLINE
  5
5AD
100
AcDbEntity
  8
0
100
AcDbSpline
 62
7
  6
CONTINUOUS
 70
0
 71
3
 72
19
 73
15
 74
0
 42
0.0000001
 43
0.0000001
 44
0.0000000001
 40
0.0
 40
0.0
 40
0.0
 40
0.0
 40
0.0353256717
 40
0.1243732987
 40
0.2172737861
 40
0.3127006925
 40
0.4090053783
 40
0.5044322847
 40
0.5973327721
 40
0.6863803991
 40
0.7707868283
 40
0.8505025392
 40
0.9263513487
 40
1.0
 40
1.0
 40
1.0
 40
1.0
 10
13.3368542904
 20
18.3998338546
 30
0.0
 10
13.3902821762
 20
18.4433793436
 30
0.0
 10
13.5849738239
 20
18.5886511652
 30
0.0
 10
13.9582876778
 20
18.7930227813
 30
0.0
 10
14.4728862935
 20
18.9658135014
 30
0.0
 10
15.0226255398
 20
19.0539872451
 30
0.0
 10
15.5842463496
 20
19.0539872451
 30
0.0
 10
16.1339855959
 20
18.9658135014
 30
0.0
 10
16.6485842116
 20
18.7930227813
 30
0.0
 10
17.1062272756
 20
18.5424849253
 30
0.0
 10
17.4872696121
 20
18.2240547617
 30
0.0
 10
17.7746326344
 20
17.8500410691
 30
0.0
 10
17.9540662369
 20
17.4360694841
 30
0.0
 10
17.99502593
 20
17.1434268682
 30
0.0
 10
17.9950247297
 20
16.9999872024
 30
0.0
  0
SPLINE
  5
5AE
100
AcDbEntity
  8
0
100
AcDbSpline
 62
7
  6
CONTINUOUS
 70
0
 71
3
 72
14
 73
10
 74
0
 42
0.0000001
 43
0.0000001
 44
0.0000000001
 40
0.0
 40
0.0
 40
0.0
 40
0.0
 40
0.1614289253
 40
0.3217890903
 40
0.4800641321
 40
0.6353425736
 40
0.7868702307
 40
0.9341017523
 40
1.0
 40
1.0
 40
1.0
 40
1.0
 10
15.3034359447
 20
19.25
 30
0.0
 10
15.1779300821
 20
19.25
 30
0.0
 10
14.9275587875
 20
19.2372302888
 30
0.0
 10
14.5580917336
 20
19.1800215304
 30
0.0
 10
14.2011824133
 20
19.085729182
 30
0.0
 10
13.8629174809
 20
18.955914892
 30
0.0
 10
13.5490114014
 20
18.7927229393
 30
0.0
 10
13.3142174211
 20
18.6325524458
 30
0.0
 10
13.1864699409
 20
18.5267053566
 30
0.0
 10
13.1479946255
 20
18.4928183766
 30
0.0
  0
SPLINE
  5
5AF
100
AcDbEntity
  8
0
100
AcDbSpline
 62
7
  6
CONTINUOUS
 70
0
 71
3
 72
13
 73
9
 74
0
 42
0.0000001
 43
0.0000001
 44
0.0000000001
 40
0.0
 40
0.0
 40
0.0
 40
0.0
 40
0.0101524225
 40
0.218411024
 40
0.4202865009
 40
0.6167964792
 40
0.8094222951
 40
1.0
 40
1.0
 40
1.0
 40
1.0
 10
17.5779137374
 20
15.6191149656
 30
0.0
 10
17.5816081291
 20
15.6228269157
 30
0.0
 10
17.6608287305
 20
15.7029408233
 30
0.0
 10
17.8024989424
 20
15.8677751585
 30
0.0
 10
17.9706565919
 20
16.1327828312
 30
0.0
 10
18.0931276193
 20
16.4131210516
 30
0.0
 10
18.1675880653
 20
16.7038363177
 30
0.0
 10
18.1842765062
 20
16.9017546034
 30
0.0
 10
18.1842770662
 20
16.9999900576
 30
0.0
  0
SPLINE
  5
5B0
100
AcDbEntity
  8
0
100
AcDbSpline
 62
7
  6
CONTINUOUS
 70
0
 71
3
 72
19
 73
15
 74
0
 42
0.0000001
 43
0.0000001
 44
0.0000000001
 40
0.0
 40
0.0
 40
0.0
 40
0.0
 40
0.0729137767
 40
0.1466061749
 40
0.2217845278
 40
0.2990155467
 40
0.3786885423
 40
0.4609997881
 40
0.5459560802
 40
0.6333913506
 40
0.722990918
 40
0.8143195991
 40
0.9068514487
 40
1.0
 40
1.0
 40
1.0
 40
1.0
 10
18.1842770662
 20
16.9999900576
 30
0.0
 10
18.1842776262
 20
17.0982321138
 30
0.0
 10
18.167589717
 20
17.2961572338
 30
0.0
 10
18.0931276193
 20
17.5868789484
 30
0.0
 10
17.9706565919
 20
17.8672171688
 30
0.0
 10
17.8024989424
 20
18.1322248415
 30
0.0
 10
17.591726521
 20
18.3774601065
 30
0.0
 10
17.3420714861
 20
18.5988414107
 30
0.0
 10
17.0578604881
 20
18.7927229393
 30
0.0
 10
16.7439544086
 20
18.955914892
 30
0.0
 10
16.4056894762
 20
19.085729182
 30
0.0
 10
16.0487801559
 20
19.1800215304
 30
0.0
 10
15.6793131019
 20
19.2372302888
 30
0.0
 10
15.4289418073
 20
19.25
 30
0.0
 10
15.3034359447
 20
19.25
 30
0.0
  0
SPLINE
  5
5B1
100
AcDbEntity
  8
0
100
AcDbSpline
 62
7
  6
CONTINUOUS
 70
0
 71
3
 72
19
 73
15
 74
0
 42
0.0000001
 43
0.0000001
 44
0.0000000001
 40
0.0
 40
0.0
 40
0.0
 40
0.0
 40
0.1592140248
 40
0.3163362522
 40
0.4689739141
 40
0.6140284612
 40
0.7471536407
 40
0.8073529028
 40
0.8619733617
 40
0.9097900201
 40
0.9494577472
 40
0.9797073684
 40
0.991072105
 40
1.0
 40
1.0
 40
1.0
 40
1.0
 10
19.514953737
 20
-23.2659657686
 30
0.0
 10
19.5375672168
 20
-23.2911248197
 30
0.0
 10
19.5824974005
 20
-23.3411121061
 30
0.0
 10
19.6489546708
 20
-23.4153559955
 30
0.0
 10
19.7130801685
 20
-23.4876489739
 30
0.0
 10
19.7732608124
 20
-23.5566219791
 30
0.0
 10
19.8197761115
 20
-23.611449312
 30
0.0
 10
19.8530213116
 20
-23.6523195293
 30
0.0
 10
19.8742877876
 20
-23.679556583
 30
0.0
 10
19.8921696951
 20
-23.7039022
 30
0.0
 10
19.9059681623
 20
-23.7247613327
 30
0.0
 10
19.9143417872
 20
-23.7399518051
 30
0.0
 10
19.9180294042
 20
-23.7500540523
 30
0.0
 10
19.9188380799
 20
-23.7543363337
 30
0.0
 10
19.9188876626
 20
-23.7562325953
 30
0.0
  0
SPLINE
  5
5B2
100
AcDbEntity
  8
0
100
AcDbSpline
 62
7
  6
CONTINUOUS
 70
0
 71
3
 72
19
 73
15
 74
0
 42
0.0000001
 43
0.0000001
 44
0.0000000001
 40
0.0
 40
0.0
 40
0.0
 40
0.0
 40
0.0090447427
 40
0.0205300523
 40
0.0509934228
 40
0.090818701
 40
0.1387366362
 40
0.1934098071
 40
0.2536224535
 40
0.3866888537
 40
0.5316104954
 40
0.6840724756
 40
0.8409956155
 40
1.0
 40
1.0
 40
1.0
 40
1.0
 10
19.1110296551
 20
-23.755948138
 30
0.0
 10
19.1111120582
 20
-23.7540290228
 30
0.0
 10
19.1119786206
 20
-23.7497110689
 30
0.0
 10
19.1157633321
 20
-23.739548172
 30
0.0
 10
19.1242240299
 20
-23.7242987358
 30
0.0
 10
19.13810287
 20
-23.7033849749
 30
0.0
 10
19.1560349399
 20
-23.6790114325
 30
0.0
 10
19.1773269672
 20
-23.6517685912
 30
0.0
 10
19.2105704227
 20
-23.6109252181
 30
0.0
 10
19.2570480759
 20
-23.5561575234
 30
0.0
 10
19.3171550306
 20
-23.4872777015
 30
0.0
 10
19.3811823034
 20
-23.415099057
 30
0.0
 10
19.4475278438
 20
-23.3409810853
 30
0.0
 10
19.4923800562
 20
-23.2910805406
 30
0.0
 10
19.514953737
 20
-23.2659657686
 30
0.0
  0
SPLINE
  5
5B3
100
AcDbEntity
  8
0
100
AcDbSpline
 62
7
  6
CONTINUOUS
 70
0
 71
3
 72
19
 73
15
 74
0
 42
0.0000001
 43
0.0000001
 44
0.0000000001
 40
0.0
 40
0.0
 40
0.0
 40
0.0
 40
0.1590044352
 40
0.3159275448
 40
0.4683895023
 40
0.6133111632
 40
0.7463775753
 40
0.8065902092
 40
0.8612633647
 40
0.9091812872
 40
0.9490065649
 40
0.9794699413
 40
0.9909552541
 40
1.0
 40
1.0
 40
1.0
 40
1.0
 10
11.5919181524
 20
-23.2659657686
 30
0.0
 10
11.6144918405
 20
-23.2910805486
 30
0.0
 10
11.6593440557
 20
-23.3409810965
 30
0.0
 10
11.7256895956
 20
-23.415099068
 30
0.0
 10
11.7897168638
 20
-23.487277707
 30
0.0
 10
11.8498238194
 20
-23.5561575304
 30
0.0
 10
11.8963014754
 20
-23.610925228
 30
0.0
 10
11.9295449282
 20
-23.6517685989
 30
0.0
 10
11.9508369499
 20
-23.6790114335
 30
0.0
 10
11.9687690168
 20
-23.7033849708
 30
0.0
 10
11.9826478556
 20
-23.7242987305
 30
0.0
 10
11.9911085565
 20
-23.7395481673
 30
0.0
 10
11.9948932674
 20
-23.7497110671
 30
0.0
 10
11.9957598312
 20
-23.7540290221
 30
0.0
 10
11.9958422343
 20
-23.755948138
 30
0.0
  0
SPLINE
  5
5B4
100
AcDbEntity
  8
0
100
AcDbSpline
 62
7
  6
CONTINUOUS
 70
0
 71
3
 72
19
 73
15
 74
0
 42
0.0000001
 43
0.0000001
 44
0.0000000001
 40
0.0
 40
0.0
 40
0.0
 40
0.0
 40
0.0089278916
 40
0.0202926249
 40
0.0505422399
 40
0.0902099672
 40
0.1380266383
 40
0.1926471123
 40
0.2528463867
 40
0.3859715546
 40
0.5310260828
 40
0.683663768
 40
0.8407860255
 40
1.0
 40
1.0
 40
1.0
 40
1.0
 10
11.1879842268
 20
-23.7562325953
 30
0.0
 10
11.1880338095
 20
-23.7543363344
 30
0.0
 10
11.1888424837
 20
-23.7500540542
 30
0.0
 10
11.1925301013
 20
-23.7399518099
 30
0.0
 10
11.2009037229
 20
-23.7247613384
 30
0.0
 10
11.2147021914
 20
-23.7039022046
 30
0.0
 10
11.2325841019
 20
-23.6795565825
 30
0.0
 10
11.2538505834
 20
-23.6523195222
 30
0.0
 10
11.2870957861
 20
-23.6114493027
 30
0.0
 10
11.3336110825
 20
-23.5566219726
 30
0.0
 10
11.3937917256
 20
-23.4876489687
 30
0.0
 10
11.457917228
 20
-23.4153559847
 30
0.0
 10
11.5243744989
 20
-23.341112095
 30
0.0
 10
11.5693046798
 20
-23.2911248118
 30
0.0
 10
11.5919181524
 20
-23.2659657686
 30
0.0
  0
SPLINE
  5
5B5
100
AcDbEntity
  8
0
100
AcDbSpline
 62
7
  6
CONTINUOUS
 70
0
 71
3
 72
19
 73
15
 74
0
 42
0.0000001
 43
0.0000001
 44
0.0000000001
 40
0.0
 40
0.0
 40
0.0
 40
0.0
 40
0.1590049586
 40
0.3159281286
 40
0.4683899472
 40
0.6133114984
 40
0.746377917
 40
0.8065904802
 40
0.861263524
 40
0.9091813237
 40
0.9490065229
 40
0.9794699111
 40
0.9909552427
 40
1.0
 40
1.0
 40
1.0
 40
1.0
 10
19.514953737
 20
23.2659657686
 30
0.0
 10
19.4923799747
 20
23.2910806313
 30
0.0
 10
19.4475276768
 20
23.3409812716
 30
0.0
 10
19.3811820755
 20
23.4150993148
 30
0.0
 10
19.3171548323
 20
23.4872779225
 30
0.0
 10
19.2570479174
 20
23.5561577132
 30
0.0
 10
19.2105702826
 20
23.6109253803
 30
0.0
 10
19.1773268595
 20
23.6517687273
 30
0.0
 10
19.1560348809
 20
23.6790115131
 30
0.0
 10
19.1381028549
 20
23.7033849982
 30
0.0
 10
19.1242240394
 20
23.7242987243
 30
0.0
 10
19.1157633376
 20
23.7395481499
 30
0.0
 10
19.1119786276
 20
23.7497110591
 30
0.0
 10
19.1111120584
 20
23.7540290197
 30
0.0
 10
19.1110296551
 20
23.755948138
 30
0.0
  0
SPLINE
  5
5B6
100
AcDbEntity
  8
0
100
AcDbSpline
 62
7
  6
CONTINUOUS
 70
0
 71
3
 72
19
 73
15
 74
0
 42
0.0000001
 43
0.0000001
 44
0.0000000001
 40
0.0
 40
0.0
 40
0.0
 40
0.0
 40
0.0089279028
 40
0.0202926548
 40
0.0505422841
 40
0.0902099345
 40
0.1380264823
 40
0.1926468434
 40
0.2528460453
 40
0.385971219
 40
0.5310256377
 40
0.6836631824
 40
0.8407854999
 40
1.0
 40
1.0
 40
1.0
 40
1.0
 10
19.9188876626
 20
23.7562325953
 30
0.0
 10
19.9188380799
 20
23.754336332
 30
0.0
 10
19.9180294004
 20
23.7500540463
 30
0.0
 10
19.9143417835
 20
23.7399517922
 30
0.0
 10
19.9059681604
 20
23.7247613311
 30
0.0
 10
19.8921697147
 20
23.7039022304
 30
0.0
 10
19.874287845
 20
23.6795566606
 30
0.0
 10
19.853021407
 20
23.6523196498
 30
0.0
 10
19.8197762346
 20
23.6114494548
 30
0.0
 10
19.7732609597
 20
23.5566221555
 30
0.0
 10
19.7130803577
 20
23.4876491846
 30
0.0
 10
19.6489548805
 20
23.4153562322
 30
0.0
 10
19.5824975481
 20
23.3411122707
 30
0.0
 10
19.5375672843
 20
23.2911248948
 30
0.0
 10
19.514953737
 20
23.2659657686
 30
0.0
  0
SPLINE
  5
5B7
100
AcDbEntity
  8
0
100
AcDbSpline
 62
7
  6
CONTINUOUS
 70
0
 71
3
 72
19
 73
15
 74
0
 42
0.0000001
 43
0.0000001
 44
0.0000000001
 40
0.0
 40
0.0
 40
0.0
 40
0.0
 40
0.1592145436
 40
0.3163368316
 40
0.468974354
 40
0.6140287909
 40
0.7471539729
 40
0.8073531635
 40
0.8619735113
 40
0.909790048
 40
0.9494577007
 40
0.9797073376
 40
0.9910720935
 40
1.0
 40
1.0
 40
1.0
 40
1.0
 10
11.5919181524
 20
23.2659657686
 30
0.0
 10
11.569304599
 20
23.2911249017
 30
0.0
 10
11.5243743332
 20
23.3411122799
 30
0.0
 10
11.4579170022
 20
23.4153562402
 30
0.0
 10
11.3937915296
 20
23.4876491871
 30
0.0
 10
11.3336109271
 20
23.5566221587
 30
0.0
 10
11.2870956501
 20
23.6114494603
 30
0.0
 10
11.2538504801
 20
23.6523196529
 30
0.0
 10
11.232584047
 20
23.6795566579
 30
0.0
 10
11.2147021793
 20
23.7039022234
 30
0.0
 10
11.2009037343
 20
23.724761324
 30
0.0
 10
11.192530107
 20
23.7399517865
 30
0.0
 10
11.1888424909
 20
23.7500540441
 30
0.0
 10
11.1880338096
 20
23.7543363312
 30
0.0
 10
11.1879842268
 20
23.7562325953
 30
0.0
  0
SPLINE
  5
5B8
100
AcDbEntity
  8
0
100
AcDbSpline
 62
7
  6
CONTINUOUS
 70
0
 71
3
 72
19
 73
15
 74
0
 42
0.0000001
 43
0.0000001
 44
0.0000000001
 40
0.0
 40
0.0
 40
0.0
 40
0.0
 40
0.0090447537
 40
0.0205300816
 40
0.0509934626
 40
0.0908186598
 40
0.1387364706
 40
0.1934095279
 40
0.2536221027
 40
0.3866885127
 40
0.5316100454
 40
0.6840718856
 40
0.8409950852
 40
1.0
 40
1.0
 40
1.0
 40
1.0
 10
11.9958422343
 20
23.755948138
 30
0.0
 10
11.9957598311
 20
23.7540290204
 30
0.0
 10
11.9948932636
 20
23.7497110612
 30
0.0
 10
11.991108553
 20
23.7395481553
 30
0.0
 10
11.982647855
 20
23.724298731
 30
0.0
 10
11.9687690388
 20
23.7033850047
 30
0.0
 10
11.9508370107
 20
23.6790115153
 30
0.0
 10
11.9295450271
 20
23.6517687235
 30
0.0
 10
11.8963016015
 20
23.6109253741
 30
0.0
 10
11.8498239689
 20
23.5561577094
 30
0.0
 10
11.7897170547
 20
23.4872779197
 30
0.0
 10
11.725689807
 20
23.4150993067
 30
0.0
 10
11.6593442045
 20
23.3409812624
 30
0.0
 10
11.6144919085
 20
23.2910806244
 30
0.0
 10
11.5919181524
 20
23.2659657686
 30
0.0
  0
SPLINE
  5
5B9
100
AcDbEntity
  8
0
100
AcDbSpline
 62
7
  6
CONTINUOUS
 70
0
 71
3
 72
19
 73
15
 74
0
 42
0.0000001
 43
0.0000001
 44
0.0000000001
 40
0.0
 40
0.0
 40
0.0
 40
0.0
 40
0.1590044352
 40
0.3159275448
 40
0.4683895023
 40
0.6133111632
 40
0.7463775753
 40
0.8065902092
 40
0.8612633647
 40
0.9091812872
 40
0.9490065649
 40
0.9794699413
 40
0.9909552541
 40
1.0
 40
1.0
 40
1.0
 40
1.0
 10
-10.9080818476
 20
-23.2659657686
 30
0.0
 10
-10.8855081595
 20
-23.2910805486
 30
0.0
 10
-10.8406559443
 20
-23.3409810965
 30
0.0
 10
-10.7743104044
 20
-23.415099068
 30
0.0
 10
-10.7102831362
 20
-23.487277707
 30
0.0
 10
-10.6501761806
 20
-23.5561575304
 30
0.0
 10
-10.6036985246
 20
-23.610925228
 30
0.0
 10
-10.5704550718
 20
-23.6517685989
 30
0.0
 10
-10.5491630501
 20
-23.6790114335
 30
0.0
 10
-10.5312309832
 20
-23.7033849708
 30
0.0
 10
-10.5173521444
 20
-23.7242987305
 30
0.0
 10
-10.5088914435
 20
-23.7395481673
 30
0.0
 10
-10.5051067326
 20
-23.7497110671
 30
0.0
 10
-10.5042401688
 20
-23.7540290221
 30
0.0
 10
-10.5041577657
 20
-23.755948138
 30
0.0
  0
SPLINE
  5
5BA
100
AcDbEntity
  8
0
100
AcDbSpline
 62
7
  6
CONTINUOUS
 70
0
 71
3
 72
19
 73
15
 74
0
 42
0.0000001
 43
0.0000001
 44
0.0000000001
 40
0.0
 40
0.0
 40
0.0
 40
0.0
 40
0.0089278916
 40
0.0202926249
 40
0.0505422399
 40
0.0902099672
 40
0.1380266383
 40
0.1926471123
 40
0.2528463867
 40
0.3859715546
 40
0.5310260828
 40
0.683663768
 40
0.8407860255
 40
1.0
 40
1.0
 40
1.0
 40
1.0
 10
-11.3120157732
 20
-23.7562325953
 30
0.0
 10
-11.3119661905
 20
-23.7543363344
 30
0.0
 10
-11.3111575163
 20
-23.7500540542
 30
0.0
 10
-11.3074698987
 20
-23.7399518099
 30
0.0
 10
-11.2990962771
 20
-23.7247613384
 30
0.0
 10
-11.2852978086
 20
-23.7039022046
 30
0.0
 10
-11.2674158981
 20
-23.6795565825
 30
0.0
 10
-11.2461494166
 20
-23.6523195222
 30
0.0
 10
-11.2129042139
 20
-23.6114493027
 30
0.0
 10
-11.1663889175
 20
-23.5566219726
 30
0.0
 10
-11.1062082744
 20
-23.4876489687
 30
0.0
 10
-11.042082772
 20
-23.4153559847
 30
0.0
 10
-10.9756255011
 20
-23.341112095
 30
0.0
 10
-10.9306953202
 20
-23.2911248118
 30
0.0
 10
-10.9080818476
 20
-23.2659657686
 30
0.0
  0
SPLINE
  5
5BB
100
AcDbEntity
  8
0
100
AcDbSpline
 62
7
  6
CONTINUOUS
 70
0
 71
3
 72
19
 73
15
 74
0
 42
0.0000001
 43
0.0000001
 44
0.0000000001
 40
0.0
 40
0.0
 40
0.0
 40
0.0
 40
0.1592140248
 40
0.3163362522
 40
0.4689739141
 40
0.6140284612
 40
0.7471536407
 40
0.8073529028
 40
0.8619733617
 40
0.9097900201
 40
0.9494577472
 40
0.9797073684
 40
0.991072105
 40
1.0
 40
1.0
 40
1.0
 40
1.0
 10
-2.985046263
 20
-23.2659657686
 30
0.0
 10
-2.9624327832
 20
-23.2911248197
 30
0.0
 10
-2.9175025995
 20
-23.3411121061
 30
0.0
 10
-2.8510453292
 20
-23.4153559955
 30
0.0
 10
-2.7869198315
 20
-23.4876489739
 30
0.0
 10
-2.7267391876
 20
-23.5566219791
 30
0.0
 10
-2.6802238885
 20
-23.611449312
 30
0.0
 10
-2.6469786884
 20
-23.6523195293
 30
0.0
 10
-2.6257122124
 20
-23.679556583
 30
0.0
 10
-2.6078303049
 20
-23.7039022
 30
0.0
 10
-2.5940318377
 20
-23.7247613327
 30
0.0
 10
-2.5856582128
 20
-23.7399518051
 30
0.0
 10
-2.5819705958
 20
-23.7500540523
 30
0.0
 10
-2.5811619201
 20
-23.7543363337
 30
0.0
 10
-2.5811123374
 20
-23.7562325953
 30
0.0
  0
SPLINE
  5
5BC
100
AcDbEntity
  8
0
100
AcDbSpline
 62
7
  6
CONTINUOUS
 70
0
 71
3
 72
19
 73
15
 74
0
 42
0.0000001
 43
0.0000001
 44
0.0000000001
 40
0.0
 40
0.0
 40
0.0
 40
0.0
 40
0.0090447427
 40
0.0205300523
 40
0.0509934228
 40
0.090818701
 40
0.1387366362
 40
0.1934098071
 40
0.2536224535
 40
0.3866888537
 40
0.5316104954
 40
0.6840724756
 40
0.8409956155
 40
1.0
 40
1.0
 40
1.0
 40
1.0
 10
-3.3889703449
 20
-23.755948138
 30
0.0
 10
-3.3888879418
 20
-23.7540290228
 30
0.0
 10
-3.3880213794
 20
-23.7497110689
 30
0.0
 10
-3.3842366679
 20
-23.739548172
 30
0.0
 10
-3.3757759701
 20
-23.7242987358
 30
0.0
 10
-3.36189713
 20
-23.7033849749
 30
0.0
 10
-3.3439650601
 20
-23.6790114325
 30
0.0
 10
-3.3226730328
 20
-23.6517685912
 30
0.0
 10
-3.2894295773
 20
-23.6109252181
 30
0.0
 10
-3.2429519241
 20
-23.5561575234
 30
0.0
 10
-3.1828449694
 20
-23.4872777015
 30
0.0
 10
-3.1188176966
 20
-23.415099057
 30
0.0
 10
-3.0524721562
 20
-23.3409810853
 30
0.0
 10
-3.0076199438
 20
-23.2910805406
 30
0.0
 10
-2.985046263
 20
-23.2659657686
 30
0.0
  0
SPLINE
  5
5BD
100
AcDbEntity
  8
0
100
AcDbSpline
 62
7
  6
CONTINUOUS
 70
0
 71
3
 72
19
 73
15
 74
0
 42
0.0000001
 43
0.0000001
 44
0.0000000001
 40
0.0
 40
0.0
 40
0.0
 40
0.0
 40
0.1590049586
 40
0.3159281286
 40
0.4683899472
 40
0.6133114984
 40
0.746377917
 40
0.8065904802
 40
0.861263524
 40
0.9091813237
 40
0.9490065229
 40
0.9794699111
 40
0.9909552427
 40
1.0
 40
1.0
 40
1.0
 40
1.0
 10
-2.985046263
 20
23.2659657686
 30
0.0
 10
-3.0076200253
 20
23.2910806313
 30
0.0
 10
-3.0524723232
 20
23.3409812716
 30
0.0
 10
-3.1188179245
 20
23.4150993148
 30
0.0
 10
-3.1828451677
 20
23.4872779225
 30
0.0
 10
-3.2429520826
 20
23.5561577132
 30
0.0
 10
-3.2894297174
 20
23.6109253803
 30
0.0
 10
-3.3226731405
 20
23.6517687273
 30
0.0
 10
-3.3439651191
 20
23.6790115131
 30
0.0
 10
-3.3618971451
 20
23.7033849982
 30
0.0
 10
-3.3757759606
 20
23.7242987243
 30
0.0
 10
-3.3842366624
 20
23.7395481499
 30
0.0
 10
-3.3880213724
 20
23.7497110591
 30
0.0
 10
-3.3888879416
 20
23.7540290197
 30
0.0
 10
-3.3889703449
 20
23.755948138
 30
0.0
  0
SPLINE
  5
5BE
100
AcDbEntity
  8
0
100
AcDbSpline
 62
7
  6
CONTINUOUS
 70
0
 71
3
 72
19
 73
15
 74
0
 42
0.0000001
 43
0.0000001
 44
0.0000000001
 40
0.0
 40
0.0
 40
0.0
 40
0.0
 40
0.0089279028
 40
0.0202926548
 40
0.0505422841
 40
0.0902099345
 40
0.1380264823
 40
0.1926468434
 40
0.2528460453
 40
0.385971219
 40
0.5310256377
 40
0.6836631824
 40
0.8407854999
 40
1.0
 40
1.0
 40
1.0
 40
1.0
 10
-2.5811123374
 20
23.7562325953
 30
0.0
 10
-2.5811619201
 20
23.754336332
 30
0.0
 10
-2.5819705996
 20
23.7500540463
 30
0.0
 10
-2.5856582165
 20
23.7399517922
 30
0.0
 10
-2.5940318396
 20
23.7247613311
 30
0.0
 10
-2.6078302853
 20
23.7039022304
 30
0.0
 10
-2.625712155
 20
23.6795566606
 30
0.0
 10
-2.646978593
 20
23.6523196498
 30
0.0
 10
-2.6802237654
 20
23.6114494548
 30
0.0
 10
-2.7267390403
 20
23.5566221555
 30
0.0
 10
-2.7869196423
 20
23.4876491846
 30
0.0
 10
-2.8510451195
 20
23.4153562322
 30
0.0
 10
-2.9175024519
 20
23.3411122707
 30
0.0
 10
-2.9624327157
 20
23.2911248948
 30
0.0
 10
-2.985046263
 20
23.2659657686
 30
0.0
  0
SPLINE
  5
5BF
100
AcDbEntity
  8
0
100
AcDbSpline
 62
7
  6
CONTINUOUS
 70
0
 71
3
 72
19
 73
15
 74
0
 42
0.0000001
 43
0.0000001
 44
0.0000000001
 40
0.0
 40
0.0
 40
0.0
 40
0.0
 40
0.1592145436
 40
0.3163368316
 40
0.468974354
 40
0.6140287909
 40
0.7471539729
 40
0.8073531635
 40
0.8619735113
 40
0.909790048
 40
0.9494577007
 40
0.9797073376
 40
0.9910720935
 40
1.0
 40
1.0
 40
1.0
 40
1.0
 10
-10.9080818476
 20
23.2659657686
 30
0.0
 10
-10.930695401
 20
23.2911249017
 30
0.0
 10
-10.9756256668
 20
23.3411122799
 30
0.0
 10
-11.0420829978
 20
23.4153562402
 30
0.0
 10
-11.1062084704
 20
23.4876491871
 30
0.0
 10
-11.1663890729
 20
23.5566221587
 30
0.0
 10
-11.2129043499
 20
23.6114494603
 30
0.0
 10
-11.2461495199
 20
23.6523196529
 30
0.0
 10
-11.267415953
 20
23.6795566579
 30
0.0
 10
-11.2852978207
 20
23.7039022234
 30
0.0
 10
-11.2990962657
 20
23.724761324
 30
0.0
 10
-11.307469893
 20
23.7399517865
 30
0.0
 10
-11.3111575091
 20
23.7500540441
 30
0.0
 10
-11.3119661904
 20
23.7543363312
 30
0.0
 10
-11.3120157732
 20
23.7562325953
 30
0.0
  0
SPLINE
  5
5C0
100
AcDbEntity
  8
0
100
AcDbSpline
 62
7
  6
CONTINUOUS
 70
0
 71
3
 72
19
 73
15
 74
0
 42
0.0000001
 43
0.0000001
 44
0.0000000001
 40
0.0
 40
0.0
 40
0.0
 40
0.0
 40
0.0090447537
 40
0.0205300816
 40
0.0509934626
 40
0.0908186598
 40
0.1387364706
 40
0.1934095279
 40
0.2536221027
 40
0.3866885127
 40
0.5316100454
 40
0.6840718856
 40
0.8409950852
 40
1.0
 40
1.0
 40
1.0
 40
1.0
 10
-10.5041577657
 20
23.755948138
 30
0.0
 10
-10.5042401689
 20
23.7540290204
 30
0.0
 10
-10.5051067364
 20
23.7497110612
 30
0.0
 10
-10.508891447
 20
23.7395481553
 30
0.0
 10
-10.517352145
 20
23.724298731
 30
0.0
 10
-10.5312309612
 20
23.7033850047
 30
0.0
 10
-10.5491629893
 20
23.6790115153
 30
0.0
 10
-10.5704549729
 20
23.6517687235
 30
0.0
 10
-10.6036983985
 20
23.6109253741
 30
0.0
 10
-10.6501760311
 20
23.5561577094
 30
0.0
 10
-10.7102829453
 20
23.4872779197
 30
0.0
 10
-10.774310193
 20
23.4150993067
 30
0.0
 10
-10.8406557955
 20
23.3409812624
 30
0.0
 10
-10.8855080915
 20
23.2910806244
 30
0.0
 10
-10.9080818476
 20
23.2659657686
 30
0.0
  0
SPLINE
  5
5C1
100
AcDbEntity
  8
0
100
AcDbSpline
 62
7
  6
CONTINUOUS
 70
0
 71
3
 72
9
 73
5
 74
0
 42
0.0000001
 43
0.0000001
 44
0.0000000001
 40
0.0
 40
0.0
 40
0.0
 40
0.0
 40
0.5071592197
 40
1.0
 40
1.0
 40
1.0
 40
1.0
 10
7.9867902905
 20
21.2859869487
 30
0.0
 10
7.9403094779
 20
21.3517207442
 30
0.0
 10
7.8486593454
 20
21.4813283548
 30
0.0
 10
7.7588192844
 20
21.6122268425
 30
0.0
 10
7.7157422994
 20
21.6775335309
 30
0.0
  0
SPLINE
  5
5C2
100
AcDbEntity
  8
0
100
AcDbSpline
 62
7
  6
CONTINUOUS
 70
0
 71
3
 72
9
 73
5
 74
0
 42
0.0000001
 43
0.0000001
 44
0.0000000001
 40
0.0
 40
0.0
 40
0.0
 40
0.0
 40
0.4928407803
 40
1.0
 40
1.0
 40
1.0
 40
1.0
 10
23.3911295901
 20
21.6775335309
 30
0.0
 10
23.3480526051
 20
21.6122268425
 30
0.0
 10
23.2582125441
 20
21.4813283548
 30
0.0
 10
23.1665624115
 20
21.3517207442
 30
0.0
 10
23.120081599
 20
21.2859869487
 30
0.0
  0
SPLINE
  5
5C3
100
AcDbEntity
  8
0
100
AcDbSpline
 62
7
  6
CONTINUOUS
 70
0
 71
3
 72
9
 73
5
 74
0
 42
0.0000001
 43
0.0000001
 44
0.0000000001
 40
0.0
 40
0.0
 40
0.0
 40
0.0
 40
0.5071592197
 40
1.0
 40
1.0
 40
1.0
 40
1.0
 10
23.120081599
 20
-21.2859869487
 30
0.0
 10
23.1665624115
 20
-21.3517207442
 30
0.0
 10
23.2582125441
 20
-21.4813283548
 30
0.0
 10
23.3480526051
 20
-21.6122268425
 30
0.0
 10
23.3911295901
 20
-21.6775335309
 30
0.0
  0
SPLINE
  5
5C4
100
AcDbEntity
  8
0
100
AcDbSpline
 62
7
  6
CONTINUOUS
 70
0
 71
3
 72
9
 73
5
 74
0
 42
0.0000001
 43
0.0000001
 44
0.0000000001
 40
0.0
 40
0.0
 40
0.0
 40
0.0
 40
0.4928407803
 40
1.0
 40
1.0
 40
1.0
 40
1.0
 10
7.7157422994
 20
-21.6775335309
 30
0.0
 10
7.7588192844
 20
-21.6122268425
 30
0.0
 10
7.8486593454
 20
-21.4813283548
 30
0.0
 10
7.9403094779
 20
-21.3517207442
 30
0.0
 10
7.9867902905
 20
-21.2859869487
 30
0.0
  0
SPLINE
  5
5C5
100
AcDbEntity
  8
0
100
AcDbSpline
 62
7
  6
CONTINUOUS
 70
0
 71
3
 72
9
 73
5
 74
0
 42
0.0000001
 43
0.0000001
 44
0.0000000001
 40
0.0
 40
0.0
 40
0.0
 40
0.0
 40
0.4928407803
 40
1.0
 40
1.0
 40
1.0
 40
1.0
 10
0.8911295901
 20
21.6775335309
 30
0.0
 10
0.8480526051
 20
21.6122268425
 30
0.0
 10
0.7582125441
 20
21.4813283548
 30
0.0
 10
0.6665624115
 20
21.3517207442
 30
0.0
 10
0.620081599
 20
21.2859869487
 30
0.0
  0
SPLINE
  5
5C6
100
AcDbEntity
  8
0
100
AcDbSpline
 62
7
  6
CONTINUOUS
 70
0
 71
3
 72
9
 73
5
 74
0
 42
0.0000001
 43
0.0000001
 44
0.0000000001
 40
0.0
 40
0.0
 40
0.0
 40
0.0
 40
0.5071592197
 40
1.0
 40
1.0
 40
1.0
 40
1.0
 10
-14.5132097095
 20
21.2859869487
 30
0.0
 10
-14.5596905221
 20
21.3517207442
 30
0.0
 10
-14.6513406546
 20
21.4813283548
 30
0.0
 10
-14.7411807156
 20
21.6122268425
 30
0.0
 10
-14.7842577006
 20
21.6775335309
 30
0.0
  0
SPLINE
  5
5C7
100
AcDbEntity
  8
0
100
AcDbSpline
 62
7
  6
CONTINUOUS
 70
0
 71
3
 72
9
 73
5
 74
0
 42
0.0000001
 43
0.0000001
 44
0.0000000001
 40
0.0
 40
0.0
 40
0.0
 40
0.0
 40
0.4928407803
 40
1.0
 40
1.0
 40
1.0
 40
1.0
 10
-14.7842577006
 20
-21.6775335309
 30
0.0
 10
-14.7411807156
 20
-21.6122268425
 30
0.0
 10
-14.6513406546
 20
-21.4813283548
 30
0.0
 10
-14.5596905221
 20
-21.3517207442
 30
0.0
 10
-14.5132097095
 20
-21.2859869487
 30
0.0
  0
SPLINE
  5
5C8
100
AcDbEntity
  8
0
100
AcDbSpline
 62
7
  6
CONTINUOUS
 70
0
 71
3
 72
9
 73
5
 74
0
 42
0.0000001
 43
0.0000001
 44
0.0000000001
 40
0.0
 40
0.0
 40
0.0
 40
0.0
 40
0.5071592197
 40
1.0
 40
1.0
 40
1.0
 40
1.0
 10
0.620081599
 20
-21.2859869487
 30
0.0
 10
0.6665624115
 20
-21.3517207442
 30
0.0
 10
0.7582125441
 20
-21.4813283548
 30
0.0
 10
0.8480526051
 20
-21.6122268425
 30
0.0
 10
0.8911295901
 20
-21.6775335309
 30
0.0
  0
SPLINE
  5
5C9
100
AcDbEntity
  8
0
100
AcDbSpline
 62
7
  6
CONTINUOUS
 70
0
 71
3
 72
8
 73
4
 74
0
 42
0.0000001
 43
0.0000001
 44
0.0000000001
 40
0.0
 40
0.0
 40
0.0
 40
0.0
 40
1.0
 40
1.0
 40
1.0
 40
1.0
 10
6.4964782111
 20
6.6234107651
 30
0.0
 10
6.4604618542
 20
6.7449659993
 30
0.0
 10
6.3944318227
 20
6.8381583671
 30
0.0
 10
6.2983881823
 20
6.9029878391
 30
0.0
  0
SPLINE
  5
5CA
100
AcDbEntity
  8
0
100
AcDbSpline
 62
7
  6
CONTINUOUS
 70
0
 71
3
 72
8
 73
4
 74
0
 42
0.0000001
 43
0.0000001
 44
0.0000000001
 40
0.0
 40
0.0
 40
0.0
 40
0.0
 40
1.0
 40
1.0
 40
1.0
 40
1.0
 10
6.2983881823
 20
6.9029878391
 30
0.0
 10
6.202344542
 20
6.9678173111
 30
0.0
 10
6.0822899751
 20
7.0002320398
 30
0.0
 10
5.939725136
 20
7.0002320398
 30
0.0
  0
SPLINE
  5
5CB
100
AcDbEntity
  8
0
100
AcDbSpline
 62
7
  6
CONTINUOUS
 70
0
 71
3
 72
8
 73
4
 74
0
 42
0.0000001
 43
0.0000001
 44
0.0000000001
 40
0.0
 40
0.0
 40
0.0
 40
0.0
 40
1.0
 40
1.0
 40
1.0
 40
1.0
 10
5.939725136
 20
7.0002320398
 30
0.0
 10
5.7476378552
 20
7.0002320398
 30
0.0
 10
5.5870648704
 20
6.9408050336
 30
0.0
 10
5.4576317004
 20
6.820928844
 30
0.0
  0
SPLINE
  5
5CC
100
AcDbEntity
  8
0
100
AcDbSpline
 62
7
  6
CONTINUOUS
 70
0
 71
3
 72
8
 73
4
 74
0
 42
0.0000001
 43
0.0000001
 44
0.0000000001
 40
0.0
 40
0.0
 40
0.0
 40
0.0
 40
1.0
 40
1.0
 40
1.0
 40
1.0
 10
5.4576317004
 20
6.820928844
 30
0.0
 10
5.3289475418
 20
6.7017463611
 30
0.0
 10
5.2659188926
 20
6.5437245508
 30
0.0
 10
5.2659188926
 20
6.3478855164
 30
0.0
  0
SPLINE
  5
5CD
100
AcDbEntity
  8
0
100
AcDbSpline
 62
7
  6
CONTINUOUS
 70
0
 71
3
 72
8
 73
4
 74
0
 42
0.0000001
 43
0.0000001
 44
0.0000000001
 40
0.0
 40
0.0
 40
0.0
 40
0.0
 40
1.0
 40
1.0
 40
1.0
 40
1.0
 10
5.2659188926
 20
6.3478855164
 30
0.0
 10
5.2659188926
 20
6.1533971299
 30
0.0
 10
5.3289475418
 20
5.9953752901
 30
0.0
 10
5.4579930372
 20
5.8751592027
 30
0.0
  0
SPLINE
  5
5CE
100
AcDbEntity
  8
0
100
AcDbSpline
 62
7
  6
CONTINUOUS
 70
0
 71
3
 72
8
 73
4
 74
0
 42
0.0000001
 43
0.0000001
 44
0.0000000001
 40
0.0
 40
0.0
 40
0.0
 40
0.0
 40
1.0
 40
1.0
 40
1.0
 40
1.0
 10
5.4579930372
 20
5.8751592027
 30
0.0
 10
5.5855641834
 20
5.7563165881
 30
0.0
 10
5.7431357942
 20
5.69553903
 30
0.0
 10
5.9322217337
 20
5.69553903
 30
0.0
  0
SPLINE
  5
5CF
100
AcDbEntity
  8
0
100
AcDbSpline
 62
7
  6
CONTINUOUS
 70
0
 71
3
 72
8
 73
4
 74
0
 42
0.0000001
 43
0.0000001
 44
0.0000000001
 40
0.0
 40
0.0
 40
0.0
 40
0.0
 40
1.0
 40
1.0
 40
1.0
 40
1.0
 10
5.9322217337
 20
5.69553903
 30
0.0
 10
6.0672831706
 20
5.69553903
 30
0.0
 10
6.1843363635
 20
5.7279537512
 30
0.0
 10
6.2831257069
 20
5.7917520546
 30
0.0
  0
SPLINE
  5
5D0
100
AcDbEntity
  8
0
100
AcDbSpline
 62
7
  6
CONTINUOUS
 70
0
 71
3
 72
8
 73
4
 74
0
 42
0.0000001
 43
0.0000001
 44
0.0000000001
 40
0.0
 40
0.0
 40
0.0
 40
0.0
 40
1.0
 40
1.0
 40
1.0
 40
1.0
 10
6.2831257069
 20
5.7917520546
 30
0.0
 10
6.380925738
 20
5.8549114586
 30
0.0
 10
6.4514577977
 20
5.9467531492
 30
0.0
 10
6.4964782111
 20
6.0683083834
 30
0.0
  0
SPLINE
  5
5D1
100
AcDbEntity
  8
0
100
AcDbSpline
 62
7
  6
CONTINUOUS
 70
0
 71
3
 72
8
 73
4
 74
0
 42
0.0000001
 43
0.0000001
 44
0.0000000001
 40
0.0
 40
0.0
 40
0.0
 40
0.0
 40
1.0
 40
1.0
 40
1.0
 40
1.0
 10
6.4964782111
 20
6.0683083834
 30
0.0
 10
6.5369966618
 20
5.9710642196
 30
0.0
 10
6.5955232255
 20
5.8981311263
 30
0.0
 10
6.6705573789
 20
5.8495089854
 30
0.0
  0
SPLINE
  5
5D2
100
AcDbEntity
  8
0
100
AcDbSpline
 62
7
  6
CONTINUOUS
 70
0
 71
3
 72
8
 73
4
 74
0
 42
0.0000001
 43
0.0000001
 44
0.0000000001
 40
0.0
 40
0.0
 40
0.0
 40
0.0
 40
1.0
 40
1.0
 40
1.0
 40
1.0
 10
6.6705573789
 20
5.8495089854
 30
0.0
 10
6.7455915324
 20
5.8008868445
 30
0.0
 10
6.8356323592
 20
5.7765758921
 30
0.0
 10
6.9376788132
 20
5.7765758921
 30
0.0
  0
SPLINE
  5
5D3
100
AcDbEntity
  8
0
100
AcDbSpline
 62
7
  6
CONTINUOUS
 70
0
 71
3
 72
8
 73
4
 74
0
 42
0.0000001
 43
0.0000001
 44
0.0000000001
 40
0.0
 40
0.0
 40
0.0
 40
0.0
 40
1.0
 40
1.0
 40
1.0
 40
1.0
 10
6.9376788132
 20
5.7765758921
 30
0.0
 10
7.0967510454
 20
5.7765758921
 30
0.0
 10
7.2333132021
 20
5.8292497994
 30
0.0
 10
7.3443635831
 20
5.9345976124
 30
0.0
  0
SPLINE
  5
5D4
100
AcDbEntity
  8
0
100
AcDbSpline
 62
7
  6
CONTINUOUS
 70
0
 71
3
 72
8
 73
4
 74
0
 42
0.0000001
 43
0.0000001
 44
0.0000000001
 40
0.0
 40
0.0
 40
0.0
 40
0.0
 40
1.0
 40
1.0
 40
1.0
 40
1.0
 10
7.3443635831
 20
5.9345976124
 30
0.0
 10
7.4554140918
 20
6.0399455465
 30
0.0
 10
7.5124401323
 20
6.1790587892
 30
0.0
 10
7.5124401323
 20
6.3519373418
 30
0.0
  0
SPLINE
  5
5D5
100
AcDbEntity
  8
0
100
AcDbSpline
 62
7
  6
CONTINUOUS
 70
0
 71
3
 72
8
 73
4
 74
0
 42
0.0000001
 43
0.0000001
 44
0.0000000001
 40
0.0
 40
0.0
 40
0.0
 40
0.0
 40
1.0
 40
1.0
 40
1.0
 40
1.0
 10
7.5124401323
 20
6.3519373418
 30
0.0
 10
7.5124401323
 20
6.5248159535
 30
0.0
 10
7.456914746
 20
6.6625785778
 30
0.0
 10
7.3488450242
 20
6.7652075976
 30
0.0
  0
SPLINE
  5
5D6
100
AcDbEntity
  8
0
100
AcDbSpline
 62
7
  6
CONTINUOUS
 70
0
 71
3
 72
8
 73
4
 74
0
 42
0.0000001
 43
0.0000001
 44
0.0000000001
 40
0.0
 40
0.0
 40
0.0
 40
0.0
 40
1.0
 40
1.0
 40
1.0
 40
1.0
 10
7.3488450242
 20
6.7652075976
 30
0.0
 10
7.2393159501
 20
6.8692224996
 30
0.0
 10
7.1042544476
 20
6.9205458181
 30
0.0
 10
6.9451822154
 20
6.9205458181
 30
0.0
  0
SPLINE
  5
5D7
100
AcDbEntity
  8
0
100
AcDbSpline
 62
7
  6
CONTINUOUS
 70
0
 71
3
 72
8
 73
4
 74
0
 42
0.0000001
 43
0.0000001
 44
0.0000000001
 40
0.0
 40
0.0
 40
0.0
 40
0.0
 40
1.0
 40
1.0
 40
1.0
 40
1.0
 10
6.9451822154
 20
6.9205458181
 30
0.0
 10
6.8386337988
 20
6.9205458181
 30
0.0
 10
6.7470921866
 20
6.8962347771
 30
0.0
 10
6.6718060338
 20
6.8479323848
 30
0.0
  0
SPLINE
  5
5D8
100
AcDbEntity
  8
0
100
AcDbSpline
 62
7
  6
CONTINUOUS
 70
0
 71
3
 72
8
 73
4
 74
0
 42
0.0000001
 43
0.0000001
 44
0.0000000001
 40
0.0
 40
0.0
 40
0.0
 40
0.0
 40
1.0
 40
1.0
 40
1.0
 40
1.0
 10
6.6718060338
 20
6.8479323848
 30
0.0
 10
6.5955232255
 20
6.7989905544
 30
0.0
 10
6.5369966618
 20
6.7247068132
 30
0.0
 10
6.4964782111
 20
6.6234107651
 30
0.0
  0
SPLINE
  5
5D9
100
AcDbEntity
  8
0
100
AcDbSpline
 62
7
  6
CONTINUOUS
 70
0
 71
3
 72
8
 73
4
 74
0
 42
0.0000001
 43
0.0000001
 44
0.0000000001
 40
0.0
 40
0.0
 40
0.0
 40
0.0
 40
1.0
 40
1.0
 40
1.0
 40
1.0
 10
6.9541862718
 20
6.672032847
 30
0.0
 10
7.045727884
 20
6.672032847
 30
0.0
 10
7.1252640001
 20
6.6423193623
 30
0.0
 10
7.1916680313
 20
6.5805183466
 30
0.0
  0
SPLINE
  5
5DA
100
AcDbEntity
  8
0
100
AcDbSpline
 62
7
  6
CONTINUOUS
 70
0
 71
3
 72
8
 73
4
 74
0
 42
0.0000001
 43
0.0000001
 44
0.0000000001
 40
0.0
 40
0.0
 40
0.0
 40
0.0
 40
1.0
 40
1.0
 40
1.0
 40
1.0
 10
7.1916680313
 20
6.5805183466
 30
0.0
 10
7.257324063
 20
6.5194134803
 30
0.0
 10
7.2903391115
 20
6.4424285026
 30
0.0
 10
7.2903391115
 20
6.3492361642
 30
0.0
  0
SPLINE
  5
5DB
100
AcDbEntity
  8
0
100
AcDbSpline
 62
7
  6
CONTINUOUS
 70
0
 71
3
 72
8
 73
4
 74
0
 42
0.0000001
 43
0.0000001
 44
0.0000000001
 40
0.0
 40
0.0
 40
0.0
 40
0.0
 40
1.0
 40
1.0
 40
1.0
 40
1.0
 10
7.2903391115
 20
6.3492361642
 30
0.0
 10
7.2903391115
 20
6.2573944147
 30
0.0
 10
7.2558234088
 20
6.1817600258
 30
0.0
 10
7.1882927074
 20
6.1196317759
 30
0.0
  0
SPLINE
  5
5DC
100
AcDbEntity
  8
0
100
AcDbSpline
 62
7
  6
CONTINUOUS
 70
0
 71
3
 72
8
 73
4
 74
0
 42
0.0000001
 43
0.0000001
 44
0.0000000001
 40
0.0
 40
0.0
 40
0.0
 40
0.0
 40
1.0
 40
1.0
 40
1.0
 40
1.0
 10
7.1882927074
 20
6.1196317759
 30
0.0
 10
7.1207620375
 20
6.057503555
 30
0.0
 10
7.0382244818
 20
6.0264394225
 30
0.0
 10
6.9391794674
 20
6.0264394225
 30
0.0
  0
SPLINE
  5
5DD
100
AcDbEntity
  8
0
100
AcDbSpline
 62
7
  6
CONTINUOUS
 70
0
 71
3
 72
8
 73
4
 74
0
 42
0.0000001
 43
0.0000001
 44
0.0000000001
 40
0.0
 40
0.0
 40
0.0
 40
0.0
 40
1.0
 40
1.0
 40
1.0
 40
1.0
 10
6.9391794674
 20
6.0264394225
 30
0.0
 10
6.8431357614
 20
6.0264394225
 30
0.0
 10
6.7635996453
 20
6.057503555
 30
0.0
 10
6.697569663
 20
6.1169305095
 30
0.0
  0
SPLINE
  5
5DE
100
AcDbEntity
  8
0
100
AcDbSpline
 62
7
  6
CONTINUOUS
 70
0
 71
3
 72
8
 73
4
 74
0
 42
0.0000001
 43
0.0000001
 44
0.0000000001
 40
0.0
 40
0.0
 40
0.0
 40
0.0
 40
1.0
 40
1.0
 40
1.0
 40
1.0
 10
6.697569663
 20
6.1169305095
 30
0.0
 10
6.6315395824
 20
6.1763575526
 30
0.0
 10
6.6000253193
 20
6.2533425303
 30
0.0
 10
6.6000253193
 20
6.3465349276
 30
0.0
  0
SPLINE
  5
5DF
100
AcDbEntity
  8
0
100
AcDbSpline
 62
7
  6
CONTINUOUS
 70
0
 71
3
 72
8
 73
4
 74
0
 42
0.0000001
 43
0.0000001
 44
0.0000000001
 40
0.0
 40
0.0
 40
0.0
 40
0.0
 40
1.0
 40
1.0
 40
1.0
 40
1.0
 10
6.6000253193
 20
6.3465349276
 30
0.0
 10
6.6000253193
 20
6.4437790914
 30
0.0
 10
6.6330403678
 20
6.5221147169
 30
0.0
 10
6.6986941581
 20
6.5818746341
 30
0.0
  0
SPLINE
  5
5E0
100
AcDbEntity
  8
0
100
AcDbSpline
 62
7
  6
CONTINUOUS
 70
0
 71
3
 72
8
 73
4
 74
0
 42
0.0000001
 43
0.0000001
 44
0.0000000001
 40
0.0
 40
0.0
 40
0.0
 40
0.0
 40
1.0
 40
1.0
 40
1.0
 40
1.0
 10
6.6986941581
 20
6.5818746341
 30
0.0
 10
6.7651002995
 20
6.6423193623
 30
0.0
 10
6.8491385095
 20
6.672032847
 30
0.0
 10
6.9541862718
 20
6.672032847
 30
0.0
  0
SPLINE
  5
5E1
100
AcDbEntity
  8
0
100
AcDbSpline
 62
7
  6
CONTINUOUS
 70
0
 71
3
 72
8
 73
4
 74
0
 42
0.0000001
 43
0.0000001
 44
0.0000000001
 40
0.0
 40
0.0
 40
0.0
 40
0.0
 40
1.0
 40
1.0
 40
1.0
 40
1.0
 10
5.9382244818
 20
6.7503684725
 30
0.0
 10
6.0642817966
 20
6.7503684725
 30
0.0
 10
6.169329559
 20
6.7139018963
 30
0.0
 10
6.253367728
 20
6.6382675295
 30
0.0
  0
SPLINE
  5
5E2
100
AcDbEntity
  8
0
100
AcDbSpline
 62
7
  6
CONTINUOUS
 70
0
 71
3
 72
8
 73
4
 74
0
 42
0.0000001
 43
0.0000001
 44
0.0000000001
 40
0.0
 40
0.0
 40
0.0
 40
0.0
 40
1.0
 40
1.0
 40
1.0
 40
1.0
 10
6.253367728
 20
6.6382675295
 30
0.0
 10
6.3374059133
 20
6.562633148
 30
0.0
 10
6.3794250182
 20
6.4680901618
 30
0.0
 10
6.3794250182
 20
6.3532879896
 30
0.0
  0
SPLINE
  5
5E3
100
AcDbEntity
  8
0
100
AcDbSpline
 62
7
  6
CONTINUOUS
 70
0
 71
3
 72
8
 73
4
 74
0
 42
0.0000001
 43
0.0000001
 44
0.0000000001
 40
0.0
 40
0.0
 40
0.0
 40
0.0
 40
1.0
 40
1.0
 40
1.0
 40
1.0
 10
6.3794250182
 20
6.3532879896
 30
0.0
 10
6.3794250182
 20
6.2371351697
 30
0.0
 10
6.3359052591
 20
6.1398910059
 30
0.0
 10
6.2514828508
 20
6.0618936446
 30
0.0
  0
SPLINE
  5
5E4
100
AcDbEntity
  8
0
100
AcDbSpline
 62
7
  6
CONTINUOUS
 70
0
 71
3
 72
8
 73
4
 74
0
 42
0.0000001
 43
0.0000001
 44
0.0000000001
 40
0.0
 40
0.0
 40
0.0
 40
0.0
 40
1.0
 40
1.0
 40
1.0
 40
1.0
 10
6.2514828508
 20
6.0618936446
 30
0.0
 10
6.166328185
 20
5.9832197548
 30
0.0
 10
6.0582790486
 20
5.9440519716
 30
0.0
 10
5.9292203597
 20
5.9440519716
 30
0.0
  0
SPLINE
  5
5E5
100
AcDbEntity
  8
0
100
AcDbSpline
 62
7
  6
CONTINUOUS
 70
0
 71
3
 72
8
 73
4
 74
0
 42
0.0000001
 43
0.0000001
 44
0.0000000001
 40
0.0
 40
0.0
 40
0.0
 40
0.0
 40
1.0
 40
1.0
 40
1.0
 40
1.0
 10
5.9292203597
 20
5.9440519716
 30
0.0
 10
5.8001617364
 20
5.9440519716
 30
0.0
 10
5.695113974
 20
5.981869166
 30
0.0
 10
5.6121987437
 20
6.0571651391
 30
0.0
  0
SPLINE
  5
5E6
100
AcDbEntity
  8
0
100
AcDbSpline
 62
7
  6
CONTINUOUS
 70
0
 71
3
 72
8
 73
4
 74
0
 42
0.0000001
 43
0.0000001
 44
0.0000000001
 40
0.0
 40
0.0
 40
0.0
 40
0.0
 40
1.0
 40
1.0
 40
1.0
 40
1.0
 10
5.6121987437
 20
6.0571651391
 30
0.0
 10
5.5285382576
 20
6.1331378849
 30
0.0
 10
5.4880198396
 20
6.2290315188
 30
0.0
 10
5.4880198396
 20
6.3451842798
 30
0.0
  0
SPLINE
  5
5E7
100
AcDbEntity
  8
0
100
AcDbSpline
 62
7
  6
CONTINUOUS
 70
0
 71
3
 72
8
 73
4
 74
0
 42
0.0000001
 43
0.0000001
 44
0.0000000001
 40
0.0
 40
0.0
 40
0.0
 40
0.0
 40
1.0
 40
1.0
 40
1.0
 40
1.0
 10
5.4880198396
 20
6.3451842798
 30
0.0
 10
5.4880198396
 20
6.4208186688
 30
0.0
 10
5.5075287215
 20
6.4896999957
 30
0.0
 10
5.5465464456
 20
6.5545294415
 30
0.0
  0
SPLINE
  5
5E8
100
AcDbEntity
  8
0
100
AcDbSpline
 62
7
  6
CONTINUOUS
 70
0
 71
3
 72
8
 73
4
 74
0
 42
0.0000001
 43
0.0000001
 44
0.0000000001
 40
0.0
 40
0.0
 40
0.0
 40
0.0
 40
1.0
 40
1.0
 40
1.0
 40
1.0
 10
5.5465464456
 20
6.5545294415
 30
0.0
 10
5.5855641834
 20
6.6193589102
 30
0.0
 10
5.6425900928
 20
6.6693316399
 30
0.0
 10
5.714622833
 20
6.7017463729
 30
0.0
  0
SPLINE
  5
5E9
100
AcDbEntity
  8
0
100
AcDbSpline
 62
7
  6
CONTINUOUS
 70
0
 71
3
 72
8
 73
4
 74
0
 42
0.0000001
 43
0.0000001
 44
0.0000000001
 40
0.0
 40
0.0
 40
0.0
 40
0.0
 40
1.0
 40
1.0
 40
1.0
 40
1.0
 10
5.714622833
 20
6.7017463729
 30
0.0
 10
5.7866555862
 20
6.7341611119
 30
0.0
 10
5.8601890199
 20
6.7503684725
 30
0.0
 10
5.9382244818
 20
6.7503684725
 30
0.0
  0
SPLINE
  5
5EA
100
AcDbEntity
  8
0
100
AcDbSpline
 62
7
  6
CONTINUOUS
 70
0
 71
3
 72
8
 73
4
 74
0
 42
0.0000001
 43
0.0000001
 44
0.0000000001
 40
0.0
 40
0.0
 40
0.0
 40
0.0
 40
1.0
 40
1.0
 40
1.0
 40
1.0
 10
6.1002981536
 20
4.7136426808
 30
0.0
 10
5.8301753781
 20
4.7136426808
 30
0.0
 10
5.6245819144
 20
4.6528650047
 30
0.0
 10
5.4816563752
 20
4.5289463824
 30
0.0
  0
SPLINE
  5
5EB
100
AcDbEntity
  8
0
100
AcDbSpline
 62
7
  6
CONTINUOUS
 70
0
 71
3
 72
8
 73
4
 74
0
 42
0.0000001
 43
0.0000001
 44
0.0000000001
 40
0.0
 40
0.0
 40
0.0
 40
0.0
 40
1.0
 40
1.0
 40
1.0
 40
1.0
 10
5.4816563752
 20
4.5289463824
 30
0.0
 10
5.3379516352
 20
4.4043521811
 30
0.0
 10
5.2674195755
 20
4.2422784568
 30
0.0
 10
5.2674195755
 20
4.0410369493
 30
0.0
  0
SPLINE
  5
5EC
100
AcDbEntity
  8
0
100
AcDbSpline
 62
7
  6
CONTINUOUS
 70
0
 71
3
 72
8
 73
4
 74
0
 42
0.0000001
 43
0.0000001
 44
0.0000000001
 40
0.0
 40
0.0
 40
0.0
 40
0.0
 40
1.0
 40
1.0
 40
1.0
 40
1.0
 10
5.2674195755
 20
4.0410369493
 30
0.0
 10
5.2674195755
 20
3.9167804195
 30
0.0
 10
5.3004345805
 20
3.8006276585
 30
0.0
 10
5.3649638562
 20
3.6952798167
 30
0.0
  0
SPLINE
  5
5ED
100
AcDbEntity
  8
0
100
AcDbSpline
 62
7
  6
CONTINUOUS
 70
0
 71
3
 72
8
 73
4
 74
0
 42
0.0000001
 43
0.0000001
 44
0.0000000001
 40
0.0
 40
0.0
 40
0.0
 40
0.0
 40
1.0
 40
1.0
 40
1.0
 40
1.0
 10
5.3649638562
 20
3.6952798167
 30
0.0
 10
5.4294932432
 20
3.5899317934
 30
0.0
 10
5.5210348554
 20
3.5088950492
 30
0.0
 10
5.6380880088
 20
3.4535198689
 30
0.0
  0
SPLINE
  5
5EE
100
AcDbEntity
  8
0
100
AcDbSpline
 62
7
  6
CONTINUOUS
 70
0
 71
3
 72
8
 73
4
 74
0
 42
0.0000001
 43
0.0000001
 44
0.0000000001
 40
0.0
 40
0.0
 40
0.0
 40
0.0
 40
1.0
 40
1.0
 40
1.0
 40
1.0
 10
5.6380880088
 20
3.4535198689
 30
0.0
 10
5.7551412575
 20
3.3981446435
 30
0.0
 10
5.9172149293
 20
3.3697818066
 30
0.0
 10
6.1228083603
 20
3.3697818066
 30
0.0
  0
SPLINE
  5
5EF
100
AcDbEntity
  8
0
100
AcDbSpline
 62
7
  6
CONTINUOUS
 70
0
 71
3
 72
8
 73
4
 74
0
 42
0.0000001
 43
0.0000001
 44
0.0000000001
 40
0.0
 40
0.0
 40
0.0
 40
0.0
 40
1.0
 40
1.0
 40
1.0
 40
1.0
 10
6.1228083603
 20
3.3697818066
 30
0.0
 10
6.37492299
 20
3.3697818066
 30
0.0
 10
6.5730130188
 20
3.4332606603
 30
0.0
 10
6.7167030492
 20
3.5578668877
 30
0.0
  0
SPLINE
  5
5F0
100
AcDbEntity
  8
0
100
AcDbSpline
 62
7
  6
CONTINUOUS
 70
0
 71
3
 72
8
 73
4
 74
0
 42
0.0000001
 43
0.0000001
 44
0.0000000001
 40
0.0
 40
0.0
 40
0.0
 40
0.0
 40
1.0
 40
1.0
 40
1.0
 40
1.0
 10
6.7167030492
 20
3.5578668877
 30
0.0
 10
6.8611440055
 20
3.6831243087
 30
0.0
 10
6.9331767194
 20
3.8438472082
 30
0.0
 10
6.9331767194
 20
4.0410369493
 30
0.0
  0
SPLINE
  5
5F1
100
AcDbEntity
  8
0
100
AcDbSpline
 62
7
  6
CONTINUOUS
 70
0
 71
3
 72
8
 73
4
 74
0
 42
0.0000001
 43
0.0000001
 44
0.0000000001
 40
0.0
 40
0.0
 40
0.0
 40
0.0
 40
1.0
 40
1.0
 40
1.0
 40
1.0
 10
6.9331767194
 20
4.0410369493
 30
0.0
 10
6.9331767194
 20
4.2193179752
 30
0.0
 10
6.8731495015
 20
4.3692361642
 30
0.0
 10
6.7558176282
 20
4.4919259142
 30
0.0
  0
SPLINE
  5
5F2
100
AcDbEntity
  8
0
100
AcDbSpline
 62
7
  6
CONTINUOUS
 70
0
 71
3
 72
8
 73
4
 74
0
 42
0.0000001
 43
0.0000001
 44
0.0000000001
 40
0.0
 40
0.0
 40
0.0
 40
0.0
 40
1.0
 40
1.0
 40
1.0
 40
1.0
 10
6.7558176282
 20
4.4919259142
 30
0.0
 10
6.6135314695
 20
4.6407094695
 30
0.0
 10
6.3944318227
 20
4.7136426808
 30
0.0
 10
6.1002981536
 20
4.7136426808
 30
0.0
  0
SPLINE
  5
5F3
100
AcDbEntity
  8
0
100
AcDbSpline
 62
7
  6
CONTINUOUS
 70
0
 71
3
 72
8
 73
4
 74
0
 42
0.0000001
 43
0.0000001
 44
0.0000000001
 40
0.0
 40
0.0
 40
0.0
 40
0.0
 40
1.0
 40
1.0
 40
1.0
 40
1.0
 10
6.1002981536
 20
4.4637790324
 30
0.0
 10
6.3043909304
 20
4.4637790324
 30
0.0
 10
6.4559597604
 20
4.4246112491
 30
0.0
 10
6.5580502859
 20
4.3436195251
 30
0.0
  0
SPLINE
  5
5F4
100
AcDbEntity
  8
0
100
AcDbSpline
 62
7
  6
CONTINUOUS
 70
0
 71
3
 72
8
 73
4
 74
0
 42
0.0000001
 43
0.0000001
 44
0.0000000001
 40
0.0
 40
0.0
 40
0.0
 40
0.0
 40
1.0
 40
1.0
 40
1.0
 40
1.0
 10
6.5580502859
 20
4.3436195251
 30
0.0
 10
6.6585518829
 20
4.2638883497
 30
0.0
 10
6.7095750443
 20
4.1625923015
 30
0.0
 10
6.7095750443
 20
4.0410369493
 30
0.0
  0
SPLINE
  5
5F5
100
AcDbEntity
  8
0
100
AcDbSpline
 62
7
  6
CONTINUOUS
 70
0
 71
3
 72
8
 73
4
 74
0
 42
0.0000001
 43
0.0000001
 44
0.0000000001
 40
0.0
 40
0.0
 40
0.0
 40
0.0
 40
1.0
 40
1.0
 40
1.0
 40
1.0
 10
6.7095750443
 20
4.0410369493
 30
0.0
 10
6.7095750443
 20
3.9221830107
 30
0.0
 10
6.6585518829
 20
3.8222375514
 30
0.0
 10
6.5565054663
 20
3.7412006668
 30
0.0
  0
SPLINE
  5
5F6
100
AcDbEntity
  8
0
100
AcDbSpline
 62
7
  6
CONTINUOUS
 70
0
 71
3
 72
8
 73
4
 74
0
 42
0.0000001
 43
0.0000001
 44
0.0000000001
 40
0.0
 40
0.0
 40
0.0
 40
0.0
 40
1.0
 40
1.0
 40
1.0
 40
1.0
 10
6.5565054663
 20
3.7412006668
 30
0.0
 10
6.4544591061
 20
3.6601638271
 30
0.0
 10
6.3058915846
 20
3.619645455
 30
0.0
 10
6.1093022756
 20
3.619645455
 30
0.0
  0
SPLINE
  5
5F7
100
AcDbEntity
  8
0
100
AcDbSpline
 62
7
  6
CONTINUOUS
 70
0
 71
3
 72
8
 73
4
 74
0
 42
0.0000001
 43
0.0000001
 44
0.0000000001
 40
0.0
 40
0.0
 40
0.0
 40
0.0
 40
1.0
 40
1.0
 40
1.0
 40
1.0
 10
6.1093022756
 20
3.619645455
 30
0.0
 10
5.8992067508
 20
3.619645455
 30
0.0
 10
5.7446364812
 20
3.6601638271
 30
0.0
 10
5.6429628869
 20
3.7402318258
 30
0.0
  0
SPLINE
  5
5F8
100
AcDbEntity
  8
0
100
AcDbSpline
 62
7
  6
CONTINUOUS
 70
0
 71
3
 72
8
 73
4
 74
0
 42
0.0000001
 43
0.0000001
 44
0.0000000001
 40
0.0
 40
0.0
 40
0.0
 40
0.0
 40
1.0
 40
1.0
 40
1.0
 40
1.0
 10
5.6429628869
 20
3.7402318258
 30
0.0
 10
5.5405437208
 20
3.8208869626
 30
0.0
 10
5.4895205266
 20
3.9208324219
 30
0.0
 10
5.4895205266
 20
4.0410369493
 30
0.0
  0
SPLINE
  5
5F9
100
AcDbEntity
  8
0
100
AcDbSpline
 62
7
  6
CONTINUOUS
 70
0
 71
3
 72
8
 73
4
 74
0
 42
0.0000001
 43
0.0000001
 44
0.0000000001
 40
0.0
 40
0.0
 40
0.0
 40
0.0
 40
1.0
 40
1.0
 40
1.0
 40
1.0
 10
5.4895205266
 20
4.0410369493
 30
0.0
 10
5.4895205266
 20
4.1625923015
 30
0.0
 10
5.5390430338
 20
4.2638883497
 30
0.0
 10
5.6407167028
 20
4.3439562896
 30
0.0
  0
SPLINE
  5
5FA
100
AcDbEntity
  8
0
100
AcDbSpline
 62
7
  6
CONTINUOUS
 70
0
 71
3
 72
8
 73
4
 74
0
 42
0.0000001
 43
0.0000001
 44
0.0000000001
 40
0.0
 40
0.0
 40
0.0
 40
0.0
 40
1.0
 40
1.0
 40
1.0
 40
1.0
 10
5.6407167028
 20
4.3439562896
 30
0.0
 10
5.7431357942
 20
4.4246112491
 30
0.0
 10
5.8962053768
 20
4.4637790324
 30
0.0
 10
6.1002981536
 20
4.4637790324
 30
0.0
  0
SPLINE
  5
5FB
100
AcDbEntity
  8
0
100
AcDbSpline
 62
7
  6
CONTINUOUS
 70
0
 71
3
 72
8
 73
4
 74
0
 42
0.0000001
 43
0.0000001
 44
0.0000000001
 40
0.0
 40
0.0
 40
0.0
 40
0.0
 40
1.0
 40
1.0
 40
1.0
 40
1.0
 10
6.1753322415
 20
2.841691909
 30
0.0
 10
6.2998889021
 20
2.841691909
 30
0.0
 10
6.3974331967
 20
2.8281855489
 30
0.0
 10
6.4693524107
 20
2.8009319771
 30
0.0
  0
SPLINE
  5
5FC
100
AcDbEntity
  8
0
100
AcDbSpline
 62
7
  6
CONTINUOUS
 70
0
 71
3
 72
8
 73
4
 74
0
 42
0.0000001
 43
0.0000001
 44
0.0000000001
 40
0.0
 40
0.0
 40
0.0
 40
0.0
 40
1.0
 40
1.0
 40
1.0
 40
1.0
 10
6.4693524107
 20
2.8009319771
 30
0.0
 10
6.5399979703
 20
2.7741610529
 30
0.0
 10
6.5955232255
 20
2.7295906784
 30
0.0
 10
6.6375422151
 20
2.6661119989
 30
0.0
  0
SPLINE
  5
5FD
100
AcDbEntity
  8
0
100
AcDbSpline
 62
7
  6
CONTINUOUS
 70
0
 71
3
 72
8
 73
4
 74
0
 42
0.0000001
 43
0.0000001
 44
0.0000000001
 40
0.0
 40
0.0
 40
0.0
 40
0.0
 40
1.0
 40
1.0
 40
1.0
 40
1.0
 10
6.6375422151
 20
2.6661119989
 30
0.0
 10
6.6795614354
 20
2.602632971
 30
0.0
 10
6.7005709879
 20
2.5351025869
 30
0.0
 10
6.7005709879
 20
2.4621693756
 30
0.0
  0
SPLINE
  5
5FE
100
AcDbEntity
  8
0
100
AcDbSpline
 62
7
  6
CONTINUOUS
 70
0
 71
3
 72
8
 73
4
 74
0
 42
0.0000001
 43
0.0000001
 44
0.0000000001
 40
0.0
 40
0.0
 40
0.0
 40
0.0
 40
1.0
 40
1.0
 40
1.0
 40
1.0
 10
6.7005709879
 20
2.4621693756
 30
0.0
 10
6.7005709879
 20
2.3662756826
 30
0.0
 10
6.6690567247
 20
2.2919918825
 30
0.0
 10
6.6075287215
 20
2.2393179752
 30
0.0
  0
SPLINE
  5
5FF
100
AcDbEntity
  8
0
100
AcDbSpline
 62
7
  6
CONTINUOUS
 70
0
 71
3
 72
8
 73
4
 74
0
 42
0.0000001
 43
0.0000001
 44
0.0000000001
 40
0.0
 40
0.0
 40
0.0
 40
0.0
 40
1.0
 40
1.0
 40
1.0
 40
1.0
 10
6.6075287215
 20
2.2393179752
 30
0.0
 10
6.5460007183
 20
2.1866440679
 30
0.0
 10
6.4484563581
 20
2.1596318199
 30
0.0
 10
6.3133949868
 20
2.1596318199
 30
0.0
  0
SPLINE
  5
600
100
AcDbEntity
  8
0
100
AcDbSpline
 62
7
  6
CONTINUOUS
 70
0
 71
3
 72
8
 73
4
 74
0
 42
0.0000001
 43
0.0000001
 44
0.0000000001
 40
0.0
 40
0.0
 40
0.0
 40
0.0
 40
1.0
 40
1.0
 40
1.0
 40
1.0
 10
6.3133949868
 20
1.9165211155
 30
0.0
 10
6.4694659106
 20
1.9165211155
 30
0.0
 10
6.5880198233
 20
1.9340792419
 30
0.0
 10
6.6704263315
 20
1.9681003636
 30
0.0
  0
SPLINE
  5
601
100
AcDbEntity
  8
0
100
AcDbSpline
 62
7
  6
CONTINUOUS
 70
0
 71
3
 72
8
 73
4
 74
0
 42
0.0000001
 43
0.0000001
 44
0.0000000001
 40
0.0
 40
0.0
 40
0.0
 40
0.0
 40
1.0
 40
1.0
 40
1.0
 40
1.0
 10
6.6704263315
 20
1.9681003636
 30
0.0
 10
6.7515941493
 20
2.001610098
 30
0.0
 10
6.8161235921
 20
2.0569851829
 30
0.0
 10
6.8626447107
 20
2.1353207249
 30
0.0
  0
SPLINE
  5
602
100
AcDbEntity
  8
0
100
AcDbSpline
 62
7
  6
CONTINUOUS
 70
0
 71
3
 72
8
 73
4
 74
0
 42
0.0000001
 43
0.0000001
 44
0.0000000001
 40
0.0
 40
0.0
 40
0.0
 40
0.0
 40
1.0
 40
1.0
 40
1.0
 40
1.0
 10
6.8626447107
 20
2.1353207249
 30
0.0
 10
6.9091658584
 20
2.213656316
 30
0.0
 10
6.9331767194
 20
2.3068488313
 30
0.0
 10
6.9331767194
 20
2.4121966459
 30
0.0
  0
SPLINE
  5
603
100
AcDbEntity
  8
0
100
AcDbSpline
 62
7
  6
CONTINUOUS
 70
0
 71
3
 72
8
 73
4
 74
0
 42
0.0000001
 43
0.0000001
 44
0.0000000001
 40
0.0
 40
0.0
 40
0.0
 40
0.0
 40
1.0
 40
1.0
 40
1.0
 40
1.0
 10
6.9331767194
 20
2.4121966459
 30
0.0
 10
6.9331767194
 20
2.5850753166
 30
0.0
 10
6.8596433513
 20
2.7282400896
 30
0.0
 10
6.7140771381
 20
2.841691909
 30
0.0
  0
SPLINE
  5
604
100
AcDbEntity
  8
0
100
AcDbSpline
 62
7
  6
CONTINUOUS
 70
0
 71
3
 72
8
 73
4
 74
0
 42
0.0000001
 43
0.0000001
 44
0.0000000001
 40
0.0
 40
0.0
 40
0.0
 40
0.0
 40
1.0
 40
1.0
 40
1.0
 40
1.0
 10
6.1303118281
 20
1.3033424713
 30
0.0
 10
6.2743772559
 20
1.3033424713
 30
0.0
 10
6.3854277663
 20
1.2911871721
 30
0.0
 10
6.4636165886
 20
1.2645422517
 30
0.0
  0
SPLINE
  5
605
100
AcDbEntity
  8
0
100
AcDbSpline
 62
7
  6
CONTINUOUS
 70
0
 71
3
 72
8
 73
4
 74
0
 42
0.0000001
 43
0.0000001
 44
0.0000000001
 40
0.0
 40
0.0
 40
0.0
 40
0.0
 40
1.0
 40
1.0
 40
1.0
 40
1.0
 10
6.4636165886
 20
1.2645422517
 30
0.0
 10
6.5399979703
 20
1.2385132648
 30
0.0
 10
6.5985246651
 20
1.1966440679
 30
0.0
 10
6.6384977005
 20
1.1382682245
 30
0.0
  0
SPLINE
  5
606
100
AcDbEntity
  8
0
100
AcDbSpline
 62
7
  6
CONTINUOUS
 70
0
 71
3
 72
8
 73
4
 74
0
 42
0.0000001
 43
0.0000001
 44
0.0000000001
 40
0.0
 40
0.0
 40
0.0
 40
0.0
 40
1.0
 40
1.0
 40
1.0
 40
1.0
 10
6.6384977005
 20
1.1382682245
 30
0.0
 10
6.6780607812
 20
1.0804910709
 30
0.0
 10
6.6990703337
 20
1.0170124532
 30
0.0
 10
6.6990703337
 20
0.9481310083
 30
0.0
  0
SPLINE
  5
607
100
AcDbEntity
  8
0
100
AcDbSpline
 62
7
  6
CONTINUOUS
 70
0
 71
3
 72
8
 73
4
 74
0
 42
0.0000001
 43
0.0000001
 44
0.0000000001
 40
0.0
 40
0.0
 40
0.0
 40
0.0
 40
1.0
 40
1.0
 40
1.0
 40
1.0
 10
6.6990703337
 20
0.9481310083
 30
0.0
 10
6.6990703337
 20
0.8589907314
 30
0.0
 10
6.6690567247
 20
0.7941610529
 30
0.0
 10
6.6086730821
 20
0.754081442
 30
0.0
  0
SPLINE
  5
608
100
AcDbEntity
  8
0
100
AcDbSpline
 62
7
  6
CONTINUOUS
 70
0
 71
3
 72
8
 73
4
 74
0
 42
0.0000001
 43
0.0000001
 44
0.0000000001
 40
0.0
 40
0.0
 40
0.0
 40
0.0
 40
1.0
 40
1.0
 40
1.0
 40
1.0
 10
6.6086730821
 20
0.754081442
 30
0.0
 10
6.5490021579
 20
0.7144748975
 30
0.0
 10
6.4589611999
 20
0.6942155935
 30
0.0
 10
6.3389066331
 20
0.6942155935
 30
0.0
  0
SPLINE
  5
609
100
AcDbEntity
  8
0
100
AcDbSpline
 62
7
  6
CONTINUOUS
 70
0
 71
3
 72
8
 73
4
 74
0
 42
0.0000001
 43
0.0000001
 44
0.0000000001
 40
0.0
 40
0.0
 40
0.0
 40
0.0
 40
1.0
 40
1.0
 40
1.0
 40
1.0
 10
6.2293568425
 20
0.4511053611
 30
0.0
 10
6.3929311685
 20
0.4511053611
 30
0.0
 10
6.5114850156
 20
0.4186902858
 30
0.0
 10
6.5868932215
 20
0.3515016799
 30
0.0
  0
SPLINE
  5
60A
100
AcDbEntity
  8
0
100
AcDbSpline
 62
7
  6
CONTINUOUS
 70
0
 71
3
 72
8
 73
4
 74
0
 42
0.0000001
 43
0.0000001
 44
0.0000000001
 40
0.0
 40
0.0
 40
0.0
 40
0.0
 40
1.0
 40
1.0
 40
1.0
 40
1.0
 10
6.5868932215
 20
0.3515016799
 30
0.0
 10
6.6615533225
 20
0.2849796344
 30
0.0
 10
6.6990703337
 20
0.2012417127
 30
0.0
 10
6.6990703337
 20
0.0999456646
 30
0.0
  0
SPLINE
  5
60B
100
AcDbEntity
  8
0
100
AcDbSpline
 62
7
  6
CONTINUOUS
 70
0
 71
3
 72
8
 73
4
 74
0
 42
0.0000001
 43
0.0000001
 44
0.0000000001
 40
0.0
 40
0.0
 40
0.0
 40
0.0
 40
1.0
 40
1.0
 40
1.0
 40
1.0
 10
6.6990703337
 20
0.0999456646
 30
0.0
 10
6.6990703337
 20
0.0445705797
 30
0.0
 10
6.6840635292
 20
-0.0040515612
 30
0.0
 10
6.6546827354
 20
-0.0454107926
 30
0.0
  0
SPLINE
  5
60C
100
AcDbEntity
  8
0
100
AcDbSpline
 62
7
  6
CONTINUOUS
 70
0
 71
3
 72
8
 73
4
 74
0
 42
0.0000001
 43
0.0000001
 44
0.0000000001
 40
0.0
 40
0.0
 40
0.0
 40
0.0
 40
1.0
 40
1.0
 40
1.0
 40
1.0
 10
6.6546827354
 20
-0.0454107926
 30
0.0
 10
6.6255368344
 20
-0.0864393662
 30
0.0
 10
6.5880198233
 20
-0.114802203
 30
0.0
 10
6.5399980646
 20
-0.1310094949
 30
0.0
  0
SPLINE
  5
60D
100
AcDbEntity
  8
0
100
AcDbSpline
 62
7
  6
CONTINUOUS
 70
0
 71
3
 72
8
 73
4
 74
0
 42
0.0000001
 43
0.0000001
 44
0.0000000001
 40
0.0
 40
0.0
 40
0.0
 40
0.0
 40
1.0
 40
1.0
 40
1.0
 40
1.0
 10
6.5399980646
 20
-0.1310094949
 30
0.0
 10
6.4919762484
 20
-0.1472168063
 30
0.0
 10
6.4154414408
 20
-0.1553203391
 30
0.0
 10
6.3073923044
 20
-0.1553203391
 30
0.0
  0
SPLINE
  5
60E
100
AcDbEntity
  8
0
100
AcDbSpline
 62
7
  6
CONTINUOUS
 70
0
 71
3
 72
8
 73
4
 74
0
 42
0.0000001
 43
0.0000001
 44
0.0000000001
 40
0.0
 40
0.0
 40
0.0
 40
0.0
 40
1.0
 40
1.0
 40
1.0
 40
1.0
 10
6.3974331967
 20
-0.3970804547
 30
0.0
 10
6.5790157668
 20
-0.3970804547
 30
0.0
 10
6.7140771381
 20
-0.3579124354
 30
0.0
 10
6.800740806
 20
-0.2819323267
 30
0.0
  0
SPLINE
  5
60F
100
AcDbEntity
  8
0
100
AcDbSpline
 62
7
  6
CONTINUOUS
 70
0
 71
3
 72
8
 73
4
 74
0
 42
0.0000001
 43
0.0000001
 44
0.0000000001
 40
0.0
 40
0.0
 40
0.0
 40
0.0
 40
1.0
 40
1.0
 40
1.0
 40
1.0
 10
6.800740806
 20
-0.2819323267
 30
0.0
 10
6.888156306
 20
-0.2052930687
 30
0.0
 10
6.9331767194
 20
-0.0958934878
 30
0.0
 10
6.9331767194
 20
0.0459211685
 30
0.0
  0
SPLINE
  5
610
100
AcDbEntity
  8
0
100
AcDbSpline
 62
7
  6
CONTINUOUS
 70
0
 71
3
 72
8
 73
4
 74
0
 42
0.0000001
 43
0.0000001
 44
0.0000000001
 40
0.0
 40
0.0
 40
0.0
 40
0.0
 40
1.0
 40
1.0
 40
1.0
 40
1.0
 10
6.9331767194
 20
0.0459211685
 30
0.0
 10
6.9331767194
 20
0.2282539608
 30
0.0
 10
6.840134453
 20
0.3754709722
 30
0.0
 10
6.6540499203
 20
0.4889223196
 30
0.0
  0
SPLINE
  5
611
100
AcDbEntity
  8
0
100
AcDbSpline
 62
7
  6
CONTINUOUS
 70
0
 71
3
 72
8
 73
4
 74
0
 42
0.0000001
 43
0.0000001
 44
0.0000000001
 40
0.0
 40
0.0
 40
0.0
 40
0.0
 40
1.0
 40
1.0
 40
1.0
 40
1.0
 10
6.6540499203
 20
0.4889223196
 30
0.0
 10
6.7410894386
 20
0.5172851564
 30
0.0
 10
6.8101208441
 20
0.5659072973
 30
0.0
 10
6.8591147907
 20
0.6337449784
 30
0.0
  0
SPLINE
  5
612
100
AcDbEntity
  8
0
100
AcDbSpline
 62
7
  6
CONTINUOUS
 70
0
 71
3
 72
8
 73
4
 74
0
 42
0.0000001
 43
0.0000001
 44
0.0000000001
 40
0.0
 40
0.0
 40
0.0
 40
0.0
 40
1.0
 40
1.0
 40
1.0
 40
1.0
 10
6.8591147907
 20
0.6337449784
 30
0.0
 10
6.9076652042
 20
0.7009685375
 30
0.0
 10
6.9331767194
 20
0.7887586977
 30
0.0
 10
6.9331767194
 20
0.8941065122
 30
0.0
  0
SPLINE
  5
613
100
AcDbEntity
  8
0
100
AcDbSpline
 62
7
  6
CONTINUOUS
 70
0
 71
3
 72
8
 73
4
 74
0
 42
0.0000001
 43
0.0000001
 44
0.0000000001
 40
0.0
 40
0.0
 40
0.0
 40
0.0
 40
1.0
 40
1.0
 40
1.0
 40
1.0
 10
6.9331767194
 20
0.8941065122
 30
0.0
 10
6.9331767194
 20
0.9900002052
 30
0.0
 10
6.9091658584
 20
1.0750887157
 30
0.0
 10
6.8614690511
 20
1.1495404344
 30
0.0
  0
SPLINE
  5
614
100
AcDbEntity
  8
0
100
AcDbSpline
 62
7
  6
CONTINUOUS
 70
0
 71
3
 72
8
 73
4
 74
0
 42
0.0000001
 43
0.0000001
 44
0.0000000001
 40
0.0
 40
0.0
 40
0.0
 40
0.0
 40
1.0
 40
1.0
 40
1.0
 40
1.0
 10
6.8614690511
 20
1.1495404344
 30
0.0
 10
6.8131221525
 20
1.2250069048
 30
0.0
 10
6.7515941493
 20
1.284433756
 30
0.0
 10
6.6735586874
 20
1.3290041305
 30
0.0
  0
SPLINE
  5
615
100
AcDbEntity
  8
0
100
AcDbSpline
 62
7
  6
CONTINUOUS
 70
0
 71
3
 72
8
 73
4
 74
0
 42
0.0000001
 43
0.0000001
 44
0.0000000001
 40
0.0
 40
0.0
 40
0.0
 40
0.0
 40
1.0
 40
1.0
 40
1.0
 40
1.0
 10
7.5124401323
 20
-2.217708144
 30
0.0
 10
7.4163964264
 20
-2.1744883583
 30
0.0
 10
7.3188520662
 20
-2.1029057358
 30
0.0
 10
7.2182625724
 20
-2.0016454366
 30
0.0
  0
SPLINE
  5
616
100
AcDbEntity
  8
0
100
AcDbSpline
 62
7
  6
CONTINUOUS
 70
0
 71
3
 72
8
 73
4
 74
0
 42
0.0000001
 43
0.0000001
 44
0.0000000001
 40
0.0
 40
0.0
 40
0.0
 40
0.0
 40
1.0
 40
1.0
 40
1.0
 40
1.0
 10
7.2182625724
 20
-2.0016454366
 30
0.0
 10
7.1162599437
 20
-1.8989625786
 30
0.0
 10
7.0307210795
 20
-1.7801088761
 30
0.0
 10
6.9601890199
 20
-1.6450471638
 30
0.0
  0
SPLINE
  5
617
100
AcDbEntity
  8
0
100
AcDbSpline
 62
7
  6
CONTINUOUS
 70
0
 71
3
 72
8
 73
4
 74
0
 42
0.0000001
 43
0.0000001
 44
0.0000000001
 40
0.0
 40
0.0
 40
0.0
 40
0.0
 40
1.0
 40
1.0
 40
1.0
 40
1.0
 10
6.6990703337
 20
-1.6450471638
 30
0.0
 10
6.7290839426
 20
-1.7206820248
 30
0.0
 10
6.7756051413
 20
-1.8057705353
 30
0.0
 10
6.8380776876
 20
-1.9006085735
 30
0.0
  0
SPLINE
  5
618
100
AcDbEntity
  8
0
100
AcDbSpline
 62
7
  6
CONTINUOUS
 70
0
 71
3
 72
8
 73
4
 74
0
 42
0.0000001
 43
0.0000001
 44
0.0000000001
 40
0.0
 40
0.0
 40
0.0
 40
0.0
 40
1.0
 40
1.0
 40
1.0
 40
1.0
 10
6.8380776876
 20
-1.9006085735
 30
0.0
 10
6.9001616709
 20
-1.9948567437
 30
0.0
 10
6.9616896741
 20
-2.0718417214
 30
0.0
 10
7.0247183315
 20
-2.1312685727
 30
0.0
  0
SPLINE
  5
619
100
AcDbEntity
  8
0
100
AcDbSpline
 62
7
  6
CONTINUOUS
 70
0
 71
3
 72
8
 73
4
 74
0
 42
0.0000001
 43
0.0000001
 44
0.0000000001
 40
0.0
 40
0.0
 40
0.0
 40
0.0
 40
1.0
 40
1.0
 40
1.0
 40
1.0
 10
5.8796978526
 20
-2.9970125149
 30
0.0
 10
5.693613287
 20
-3.0132195805
 30
0.0
 10
5.5450457655
 20
-3.078048787
 30
0.0
 10
5.433576183
 20
-3.1911644793
 30
0.0
  0
SPLINE
  5
61A
100
AcDbEntity
  8
0
100
AcDbSpline
 62
7
  6
CONTINUOUS
 70
0
 71
3
 72
8
 73
4
 74
0
 42
0.0000001
 43
0.0000001
 44
0.0000000001
 40
0.0
 40
0.0
 40
0.0
 40
0.0
 40
1.0
 40
1.0
 40
1.0
 40
1.0
 10
5.433576183
 20
-3.1911644793
 30
0.0
 10
5.3214441294
 20
-3.3049524258
 30
0.0
 10
5.2659188926
 20
-3.4521689652
 30
0.0
 10
5.2659188926
 20
-3.6331516407
 30
0.0
  0
SPLINE
  5
61B
100
AcDbEntity
  8
0
100
AcDbSpline
 62
7
  6
CONTINUOUS
 70
0
 71
3
 72
8
 73
4
 74
0
 42
0.0000001
 43
0.0000001
 44
0.0000000001
 40
0.0
 40
0.0
 40
0.0
 40
0.0
 40
1.0
 40
1.0
 40
1.0
 40
1.0
 10
5.2659188926
 20
-3.6331516407
 30
0.0
 10
5.2659188926
 20
-3.8519508027
 30
0.0
 10
5.3544591389
 20
-4.0261800621
 30
0.0
 10
5.5325661816
 20
-4.1536715433
 30
0.0
  0
SPLINE
  5
61C
100
AcDbEntity
  8
0
100
AcDbSpline
 62
7
  6
CONTINUOUS
 70
0
 71
3
 72
8
 73
4
 74
0
 42
0.0000001
 43
0.0000001
 44
0.0000000001
 40
0.0
 40
0.0
 40
0.0
 40
0.0
 40
1.0
 40
1.0
 40
1.0
 40
1.0
 10
5.5325661816
 20
-4.1536715433
 30
0.0
 10
5.6771057956
 20
-4.2571349953
 30
0.0
 10
5.8496842436
 20
-4.3098084305
 30
0.0
 10
6.0492749922
 20
-4.3098084305
 30
0.0
  0
SPLINE
  5
61D
100
AcDbEntity
  8
0
100
AcDbSpline
 62
7
  6
CONTINUOUS
 70
0
 71
3
 72
8
 73
4
 74
0
 42
0.0000001
 43
0.0000001
 44
0.0000000001
 40
0.0
 40
0.0
 40
0.0
 40
0.0
 40
1.0
 40
1.0
 40
1.0
 40
1.0
 10
6.0492749922
 20
-4.3098084305
 30
0.0
 10
6.2578697972
 20
-4.3098084305
 30
0.0
 10
6.428947591
 20
-4.2503815793
 30
0.0
 10
6.5621347069
 20
-4.131190681
 30
0.0
  0
SPLINE
  5
61E
100
AcDbEntity
  8
0
100
AcDbSpline
 62
7
  6
CONTINUOUS
 70
0
 71
3
 72
8
 73
4
 74
0
 42
0.0000001
 43
0.0000001
 44
0.0000000001
 40
0.0
 40
0.0
 40
0.0
 40
0.0
 40
1.0
 40
1.0
 40
1.0
 40
1.0
 10
6.5621347069
 20
-4.131190681
 30
0.0
 10
6.6945682399
 20
-4.0126741742
 30
0.0
 10
6.7620989911
 20
-3.8668077515
 30
0.0
 10
6.7620989911
 20
-3.6939286087
 30
0.0
  0
SPLINE
  5
61F
100
AcDbEntity
  8
0
100
AcDbSpline
 62
7
  6
CONTINUOUS
 70
0
 71
3
 72
8
 73
4
 74
0
 42
0.0000001
 43
0.0000001
 44
0.0000000001
 40
0.0
 40
0.0
 40
0.0
 40
0.0
 40
1.0
 40
1.0
 40
1.0
 40
1.0
 10
6.7620989911
 20
-3.6939286087
 30
0.0
 10
6.7620989911
 20
-3.5629191349
 30
0.0
 10
6.7155777923
 20
-3.4386630772
 30
0.0
 10
6.6240361802
 20
-3.3198084305
 30
0.0
  0
SPLINE
  5
620
100
AcDbEntity
  8
0
100
AcDbSpline
 62
7
  6
CONTINUOUS
 70
0
 71
3
 72
8
 73
4
 74
0
 42
0.0000001
 43
0.0000001
 44
0.0000000001
 40
0.0
 40
0.0
 40
0.0
 40
0.0
 40
1.0
 40
1.0
 40
1.0
 40
1.0
 10
6.3103936784
 20
-3.268485112
 30
0.0
 10
6.3734222702
 20
-3.3036013649
 30
0.0
 10
6.4244454972
 20
-3.3535745667
 30
0.0
 10
6.4637821113
 20
-3.4168914054
 30
0.0
  0
SPLINE
  5
621
100
AcDbEntity
  8
0
100
AcDbSpline
 62
7
  6
CONTINUOUS
 70
0
 71
3
 72
8
 73
4
 74
0
 42
0.0000001
 43
0.0000001
 44
0.0000000001
 40
0.0
 40
0.0
 40
0.0
 40
0.0
 40
1.0
 40
1.0
 40
1.0
 40
1.0
 10
6.4637821113
 20
-3.4168914054
 30
0.0
 10
6.5024809591
 20
-3.4791816853
 30
0.0
 10
6.5234905116
 20
-3.5507643078
 30
0.0
 10
6.5234905116
 20
-3.6290994023
 30
0.0
  0
SPLINE
  5
622
100
AcDbEntity
  8
0
100
AcDbSpline
 62
7
  6
CONTINUOUS
 70
0
 71
3
 72
8
 73
4
 74
0
 42
0.0000001
 43
0.0000001
 44
0.0000000001
 40
0.0
 40
0.0
 40
0.0
 40
0.0
 40
1.0
 40
1.0
 40
1.0
 40
1.0
 10
6.5234905116
 20
-3.6290994023
 30
0.0
 10
6.5234905116
 20
-3.7547065209
 30
0.0
 10
6.4784700982
 20
-3.8560030411
 30
0.0
 10
6.3895652695
 20
-3.9340001682
 30
0.0
  0
SPLINE
  5
623
100
AcDbEntity
  8
0
100
AcDbSpline
 62
7
  6
CONTINUOUS
 70
0
 71
3
 72
8
 73
4
 74
0
 42
0.0000001
 43
0.0000001
 44
0.0000000001
 40
0.0
 40
0.0
 40
0.0
 40
0.0
 40
1.0
 40
1.0
 40
1.0
 40
1.0
 10
6.3895652695
 20
-3.9340001682
 30
0.0
 10
6.2998889021
 20
-4.0126741742
 30
0.0
 10
6.1783336155
 20
-4.0518417214
 30
0.0
 10
6.0252640657
 20
-4.0518417214
 30
0.0
  0
SPLINE
  5
624
100
AcDbEntity
  8
0
100
AcDbSpline
 62
7
  6
CONTINUOUS
 70
0
 71
3
 72
8
 73
4
 74
0
 42
0.0000001
 43
0.0000001
 44
0.0000000001
 40
0.0
 40
0.0
 40
0.0
 40
0.0
 40
1.0
 40
1.0
 40
1.0
 40
1.0
 10
6.0252640657
 20
-4.0518417214
 30
0.0
 10
5.8631903939
 20
-4.0518417214
 30
0.0
 10
5.732631018
 20
-4.0113231133
 30
0.0
 10
5.6347453075
 20
-3.930623527
 30
0.0
  0
SPLINE
  5
625
100
AcDbEntity
  8
0
100
AcDbSpline
 62
7
  6
CONTINUOUS
 70
0
 71
3
 72
8
 73
4
 74
0
 42
0.0000001
 43
0.0000001
 44
0.0000000001
 40
0.0
 40
0.0
 40
0.0
 40
0.0
 40
1.0
 40
1.0
 40
1.0
 40
1.0
 10
5.6347453075
 20
-3.930623527
 30
0.0
 10
5.5360416762
 20
-3.8492496251
 30
0.0
 10
5.4880198396
 20
-3.7493041657
 30
0.0
 10
5.4880198396
 20
-3.6331516407
 30
0.0
  0
SPLINE
  5
626
100
AcDbEntity
  8
0
100
AcDbSpline
 62
7
  6
CONTINUOUS
 70
0
 71
3
 72
8
 73
4
 74
0
 42
0.0000001
 43
0.0000001
 44
0.0000000001
 40
0.0
 40
0.0
 40
0.0
 40
0.0
 40
1.0
 40
1.0
 40
1.0
 40
1.0
 10
5.4880198396
 20
-3.6331516407
 30
0.0
 10
5.4880198396
 20
-3.535907359
 30
0.0
 10
5.5225355424
 20
-3.4521689652
 30
0.0
 10
5.5915669122
 20
-3.3832875313
 30
0.0
  0
SPLINE
  5
627
100
AcDbEntity
  8
0
100
AcDbSpline
 62
7
  6
CONTINUOUS
 70
0
 71
3
 72
8
 73
4
 74
0
 42
0.0000001
 43
0.0000001
 44
0.0000000001
 40
0.0
 40
0.0
 40
0.0
 40
0.0
 40
1.0
 40
1.0
 40
1.0
 40
1.0
 10
5.5915669122
 20
-3.3832875313
 30
0.0
 10
5.6605983041
 20
-3.3144060753
 30
0.0
 10
5.7656460337
 20
-3.2711872338
 30
0.0
 10
5.903708779
 20
-3.2522780465
 30
0.0
  0
SPLINE
  5
628
100
AcDbEntity
  8
0
100
AcDbSpline
 62
7
  6
CONTINUOUS
 70
0
 71
3
 72
8
 73
4
 74
0
 42
0.0000001
 43
0.0000001
 44
0.0000000001
 40
0.0
 40
0.0
 40
0.0
 40
0.0
 40
1.0
 40
1.0
 40
1.0
 40
1.0
 10
6.9796979181
 20
-5.6671761368
 30
0.0
 10
7.0502299778
 20
-5.6847342633
 30
0.0
 10
7.1357688419
 20
-5.7036425065
 30
0.0
 10
7.2378151647
 20
-5.7252519272
 30
0.0
  0
SPLINE
  5
629
100
AcDbEntity
  8
0
100
AcDbSpline
 62
7
  6
CONTINUOUS
 70
0
 71
3
 72
8
 73
4
 74
0
 42
0.0000001
 43
0.0000001
 44
0.0000000001
 40
0.0
 40
0.0
 40
0.0
 40
0.0
 40
1.0
 40
1.0
 40
1.0
 40
1.0
 10
7.2378151647
 20
-5.7252519272
 30
0.0
 10
7.2048002474
 20
-5.7306542824
 30
0.0
 10
7.1193672973
 20
-5.7526074085
 30
0.0
 10
6.9796979181
 20
-5.7873809002
 30
0.0
  0
SPLINE
  5
62A
100
AcDbEntity
  8
0
100
AcDbSpline
 62
7
  6
CONTINUOUS
 70
0
 71
3
 72
8
 73
4
 74
0
 42
0.0000001
 43
0.0000001
 44
0.0000000001
 40
0.0
 40
0.0
 40
0.0
 40
0.0
 40
1.0
 40
1.0
 40
1.0
 40
1.0
 10
6.0897933773
 20
-6.4262212037
 30
0.0
 10
5.909711527
 20
-6.3857025956
 30
0.0
 10
5.7491385422
 20
-6.3519374035
 30
0.0
 10
5.6110757969
 20
-6.327625861
 30
0.0
  0
SPLINE
  5
62B
100
AcDbEntity
  8
0
100
AcDbSpline
 62
7
  6
CONTINUOUS
 70
0
 71
3
 72
8
 73
4
 74
0
 42
0.0000001
 43
0.0000001
 44
0.0000000001
 40
0.0
 40
0.0
 40
0.0
 40
0.0
 40
1.0
 40
1.0
 40
1.0
 40
1.0
 10
5.6110757969
 20
-6.327625861
 30
0.0
 10
5.8541862718
 20
-6.2952117299
 30
0.0
 10
6.1138337502
 20
-6.2439821184
 30
0.0
 10
6.3899297945
 20
-6.1736559056
 30
0.0
  0
SPLINE
  5
62C
100
AcDbEntity
  8
0
100
AcDbSpline
 62
7
  6
CONTINUOUS
 70
0
 71
3
 72
8
 73
4
 74
0
 42
0.0000001
 43
0.0000001
 44
0.0000000001
 40
0.0
 40
0.0
 40
0.0
 40
0.0
 40
1.0
 40
1.0
 40
1.0
 40
1.0
 10
6.0177606634
 20
-5.1971617936
 30
0.0
 10
5.9817442409
 20
-5.187708144
 30
0.0
 10
5.8451821826
 20
-5.1579942463
 30
0.0
 10
5.6110757969
 20
-5.1080219887
 30
0.0
  0
SPLINE
  5
62D
100
AcDbEntity
  8
RACCORDO
100
AcDbSpline
 62
250
  6
CONTINUOUS
 70
0
 71
3
 72
23
 73
19
 74
0
 42
0.0000001
 43
0.0000001
 44
0.0000000001
 40
0.0
 40
0.0
 40
0.0
 40
0.0
 40
0.1250115708
 40
0.2500212199
 40
0.3750287125
 40
0.5000315382
 40
0.5625383865
 40
0.6250444473
 40
0.6875489565
 40
0.7500504323
 40
0.8125432389
 40
0.8437974534
 40
0.8750501472
 40
0.9062983052
 40
0.9375312147
 40
0.9687213489
 40
0.9843613743
 40
1.0
 40
1.0
 40
1.0
 40
1.0
 10
-4.2856266689
 20
-14.9530236443
 30
0.0
 10
-4.1179973278
 20
-14.7853941885
 30
0.0
 10
-3.7892396603
 20
-14.4435649873
 30
0.0
 10
-3.317009612
 20
-13.911535638
 30
0.0
 10
-2.8682186736
 20
-13.3595644383
 30
0.0
 10
-2.5174244299
 20
-12.8814782306
 30
0.0
 10
-2.2550123293
 20
-12.4865091281
 30
0.0
 10
-2.0690896719
 20
-12.183282834
 30
0.0
 10
-1.8965939085
 20
-11.8721695532
 30
0.0
 10
-1.7415662179
 20
-11.5519644802
 30
0.0
 10
-1.6324027403
 20
-11.2759960992
 30
0.0
 10
-1.5638690188
 20
-11.0489200287
 30
0.0
 10
-1.5249406043
 20
-10.8752416223
 30
0.0
 10
-1.5031866503
 20
-10.6984086892
 30
0.0
 10
-1.5062735159
 20
-10.5200935025
 30
0.0
 10
-1.5410076217
 20
-10.3739802588
 30
0.0
 10
-1.5964769978
 20
-10.2686149572
 30
0.0
 10
-1.6341042776
 20
-10.2221226433
 30
0.0
 10
-1.655080214
 20
-10.2011585691
 30
0.0
  0
SPLINE
  5
62E
100
AcDbEntity
  8
RACCORDO
100
AcDbSpline
 62
250
  6
CONTINUOUS
 70
0
 71
3
 72
23
 73
19
 74
0
 42
0.0000001
 43
0.0000001
 44
0.0000000001
 40
0.0
 40
0.0
 40
0.0
 40
0.0
 40
0.0156381851
 40
0.031284874
 40
0.0624970119
 40
0.0937413113
 40
0.1249923735
 40
0.1562453001
 40
0.1874986998
 40
0.2499894074
 40
0.3124879216
 40
0.3749894321
 40
0.437492196
 40
0.4999956827
 40
0.6249917222
 40
0.7499923658
 40
0.8749952309
 40
1.0
 40
1.0
 40
1.0
 40
1.0
 10
-5.8977205334
 20
-5.9585182497
 30
0.0
 10
-5.9186821367
 20
-5.9375410209
 30
0.0
 10
-5.9651841306
 20
-5.8999055011
 30
0.0
 10
-6.0706047967
 20
-5.844425725
 30
0.0
 10
-6.2167968142
 20
-5.8096854726
 30
0.0
 10
-6.3951823604
 20
-5.8066380082
 30
0.0
 10
-6.5720392003
 20
-5.8284171314
 30
0.0
 10
-6.7457174639
 20
-5.8673666181
 30
0.0
 10
-6.9727836691
 20
-5.935914994
 30
0.0
 10
-7.2487332181
 20
-6.0450953112
 30
0.0
 10
-7.5689206588
 20
-6.200123989
 30
0.0
 10
-7.8800110557
 20
-6.372625001
 30
0.0
 10
-8.1832187735
 20
-6.5585427257
 30
0.0
 10
-8.578162804
 20
-6.820946643
 30
0.0
 10
-9.056219046
 20
-7.171727102
 30
0.0
 10
-9.6081590999
 20
-7.6204950454
 30
0.0
 10
-10.1401566877
 20
-8.0927025922
 30
0.0
 10
-10.48196735
 20
-8.4214423736
 30
0.0
 10
-10.6495876996
 20
-8.5890626137
 30
0.0
  0
SPLINE
  5
62F
100
AcDbEntity
  8
RACCORDO
100
AcDbSpline
 62
250
  6
CONTINUOUS
 70
0
 71
3
 72
24
 73
20
 74
0
 42
0.0000001
 43
0.0000001
 44
0.0000000001
 40
0.0
 40
0.0
 40
0.0
 40
0.0
 40
0.1249646181
 40
0.2499291708
 40
0.3748945262
 40
0.4998610538
 40
0.6248286761
 40
0.6873197842
 40
0.7498135128
 40
0.7810643578
 40
0.8123172686
 40
0.8435729775
 40
0.8748324885
 40
0.9060966142
 40
0.937362349
 40
0.9530131799
 40
0.9686700813
 40
0.9843319033
 40
1.0
 40
1.0
 40
1.0
 40
1.0
 10
20.950204781
 20
4.0
 30
0.0
 10
20.728382618
 20
3.9999999739
 30
0.0
 10
20.2847162598
 20
3.9942955995
 30
0.0
 10
19.6196838106
 20
3.9682008171
 30
0.0
 10
18.9556294913
 20
3.9232094395
 30
0.0
 10
18.2933726977
 20
3.8565883838
 30
0.0
 10
17.7440063129
 20
3.7789877648
 30
0.0
 10
17.3076145802
 20
3.6985297259
 30
0.0
 10
17.0367524743
 20
3.6385572363
 30
0.0
 10
16.821964004
 20
3.5828144028
 30
0.0
 10
16.6621318861
 20
3.5363080334
 30
0.0
 10
16.5040689152
 20
3.4840164741
 30
0.0
 10
16.3485873499
 20
3.4242826688
 30
0.0
 10
16.1973324234
 20
3.3544397288
 30
0.0
 10
16.0772783369
 20
3.2838413359
 30
0.0
 10
15.9897560244
 20
3.2151100412
 30
0.0
 10
15.931432118
 20
3.1550317641
 30
0.0
 10
15.8863038451
 20
3.0838118786
 30
0.0
 10
15.873725338
 20
3.0278121212
 30
0.0
 10
15.8737254694
 20
3.0
 30
0.0
  0
SPLINE
  5
630
100
AcDbEntity
  8
RACCORDO
100
AcDbSpline
 62
250
  6
CONTINUOUS
 70
0
 71
3
 72
24
 73
20
 74
0
 42
0.0000001
 43
0.0000001
 44
0.0000000001
 40
0.0
 40
0.0
 40
0.0
 40
0.0
 40
0.0156705625
 40
0.0313522494
 40
0.0470192645
 40
0.0626772288
 40
0.0939482851
 40
0.1252128293
 40
0.1564714584
 40
0.1877259583
 40
0.2189775106
 40
0.2502267652
 40
0.3127173702
 40
0.3752051223
 40
0.5001660438
 40
0.6251258394
 40
0.7500843939
 40
0.8750421745
 40
1.0
 40
1.0
 40
1.0
 40
1.0
 10
15.8737254694
 20
-3.0
 30
0.0
 10
15.8737258247
 20
-3.0278165105
 30
0.0
 10
15.8863125076
 20
-3.0838584644
 30
0.0
 10
15.9315078806
 20
-3.1551060152
 30
0.0
 10
15.9898700814
 20
-3.2152363059
 30
0.0
 10
16.0774395164
 20
-3.2839760852
 30
0.0
 10
16.197535709
 20
-3.3545461955
 30
0.0
 10
16.3488047959
 20
-3.4243777004
 30
0.0
 10
16.5042891136
 20
-3.4840965436
 30
0.0
 10
16.6623496348
 20
-3.5363760382
 30
0.0
 10
16.8221776331
 20
-3.5828702598
 30
0.0
 10
17.0369565345
 20
-3.6386073281
 30
0.0
 10
17.3078071961
 20
-3.6985659209
 30
0.0
 10
17.7441765569
 20
-3.7790166854
 30
0.0
 10
18.2935148188
 20
-3.8566057253
 30
0.0
 10
18.9557366753
 20
-3.9232171562
 30
0.0
 10
19.6197553961
 20
-3.9682050129
 30
0.0
 10
20.2847521147
 20
-3.9942958492
 30
0.0
 10
20.7283945762
 20
-3.999999975
 30
0.0
 10
20.950204781
 20
-4.0
 30
0.0
  0
SPLINE
  5
631
100
AcDbEntity
  8
RACCORDO
100
AcDbSpline
 62
250
  6
CONTINUOUS
 70
0
 71
3
 72
23
 73
19
 74
0
 42
0.0000001
 43
0.0000001
 44
0.0000000001
 40
0.0
 40
0.0
 40
0.0
 40
0.0
 40
0.1250115699
 40
0.2500212189
 40
0.3750287114
 40
0.500031537
 40
0.5625383853
 40
0.625044446
 40
0.6875489552
 40
0.7500504309
 40
0.8125432376
 40
0.8437974521
 40
0.8750501459
 40
0.906298304
 40
0.9375312137
 40
0.9687213483
 40
0.9843613741
 40
1.0
 40
1.0
 40
1.0
 40
1.0
 10
-12.3433328916
 20
-4.5
 30
0.0
 10
-12.1062691245
 20
-4.499999919
 30
0.0
 10
-11.6320926041
 20
-4.4907569496
 30
0.0
 10
-10.9219739762
 20
-4.4484724574
 30
0.0
 10
-10.2143282824
 20
-4.3755129962
 30
0.0
 10
-9.6282212949
 20
-4.2855039855
 30
0.0
 10
-9.1633825885
 20
-4.1917720309
 30
0.0
 10
-8.8175020482
 20
-4.108825834
 30
0.0
 10
-8.4755388138
 20
-4.0108084476
 30
0.0
 10
-8.1394985037
 20
-3.8940104015
 30
0.0
 10
-7.8671691544
 20
-3.7760615238
 30
0.0
 10
-7.6581414657
 20
-3.6639551537
 30
0.0
 10
-7.5078057401
 20
-3.5686725212
 30
0.0
 10
-7.3673836044
 20
-3.4590151241
 30
0.0
 10
-7.2434784698
 20
-3.3307445021
 30
0.0
 10
-7.1647215229
 20
-3.2028661147
 30
0.0
 10
-7.1294397764
 20
-3.0891388211
 30
0.0
 10
-7.1231712491
 20
-3.0296572849
 30
0.0
 10
-7.1231796371
 20
-3.0000012185
 30
0.0
  0
SPLINE
  5
632
100
AcDbEntity
  8
RACCORDO
100
AcDbSpline
 62
250
  6
CONTINUOUS
 70
0
 71
3
 72
23
 73
19
 74
0
 42
0.0000001
 43
0.0000001
 44
0.0000000001
 40
0.0
 40
0.0
 40
0.0
 40
0.0
 40
0.0156381851
 40
0.031284874
 40
0.0624970119
 40
0.0937413113
 40
0.1249923735
 40
0.1562453001
 40
0.1874986998
 40
0.2499894074
 40
0.3124879216
 40
0.3749894321
 40
0.437492196
 40
0.4999956827
 40
0.6249917222
 40
0.7499923658
 40
0.8749952309
 40
1.0
 40
1.0
 40
1.0
 40
1.0
 10
-7.1231796371
 20
2.9999982614
 30
0.0
 10
-7.1231685882
 20
3.029653494
 30
0.0
 10
-7.1294381321
 20
3.0891477005
 30
0.0
 10
-7.1647516741
 20
3.2029214943
 30
0.0
 10
-7.243559973
 20
3.3308599293
 30
0.0
 10
-7.3675427196
 20
3.4591524414
 30
0.0
 10
-7.5079995561
 20
3.5688089465
 30
0.0
 10
-7.6583500802
 20
3.6640765783
 30
0.0
 10
-7.8673811552
 20
3.7761656103
 30
0.0
 10
-8.1397090952
 20
3.894089265
 30
0.0
 10
-8.4757376351
 20
4.0108741462
 30
0.0
 10
-8.8176883996
 20
4.10887164
 30
0.0
 10
-9.1635523169
 20
4.1918081895
 30
0.0
 10
-9.6283675084
 20
4.2855282024
 30
0.0
 10
-10.2144435602
 20
4.3755257716
 30
0.0
 10
-10.9220509711
 20
4.4484794706
 30
0.0
 10
-11.6321312314
 20
4.490757414
 30
0.0
 10
-12.1062819973
 20
4.4999999225
 30
0.0
 10
-12.3433328916
 20
4.5
 30
0.0
  0
SPLINE
  5
633
100
AcDbEntity
  8
RACCORDO
100
AcDbSpline
 62
250
  6
CONTINUOUS
 70
0
 71
3
 72
23
 73
19
 74
0
 42
0.0000001
 43
0.0000001
 44
0.0000000001
 40
0.0
 40
0.0
 40
0.0
 40
0.0
 40
0.1250115708
 40
0.2500212199
 40
0.3750287125
 40
0.5000315382
 40
0.5625383865
 40
0.6250444473
 40
0.6875489565
 40
0.7500504323
 40
0.8125432389
 40
0.8437974534
 40
0.8750501472
 40
0.9062983052
 40
0.9375312147
 40
0.9687213489
 40
0.9843613743
 40
1.0
 40
1.0
 40
1.0
 40
1.0
 10
-10.6495876996
 20
8.5890626137
 30
0.0
 10
-10.4819582438
 20
8.4214332725
 30
0.0
 10
-10.1401290426
 20
8.092675605
 30
0.0
 10
-9.6080996933
 20
7.6204455567
 30
0.0
 10
-9.0561284936
 20
7.1716546184
 30
0.0
 10
-8.5780422859
 20
6.8208603747
 30
0.0
 10
-8.1830731833
 20
6.558448274
 30
0.0
 10
-7.8798468893
 20
6.3725256166
 30
0.0
 10
-7.5687336085
 20
6.2000298532
 30
0.0
 10
-7.2485285355
 20
6.0450021627
 30
0.0
 10
-6.9725601544
 20
5.935838685
 30
0.0
 10
-6.745484084
 20
5.8673049635
 30
0.0
 10
-6.5718056775
 20
5.828376549
 30
0.0
 10
-6.3949727445
 20
5.806622595
 30
0.0
 10
-6.2166575578
 20
5.8097094606
 30
0.0
 10
-6.0705443141
 20
5.8444435664
 30
0.0
 10
-5.9651790125
 20
5.8999129426
 30
0.0
 10
-5.9186866986
 20
5.9375402224
 30
0.0
 10
-5.8977226244
 20
5.9585161588
 30
0.0
  0
SPLINE
  5
634
100
AcDbEntity
  8
RACCORDO
100
AcDbSpline
 62
250
  6
CONTINUOUS
 70
0
 71
3
 72
23
 73
19
 74
0
 42
0.0000001
 43
0.0000001
 44
0.0000000001
 40
0.0
 40
0.0
 40
0.0
 40
0.0
 40
0.0156381851
 40
0.031284874
 40
0.0624970119
 40
0.0937413113
 40
0.1249923735
 40
0.1562453001
 40
0.1874986998
 40
0.2499894074
 40
0.3124879216
 40
0.3749894321
 40
0.437492196
 40
0.4999956827
 40
0.6249917222
 40
0.7499923658
 40
0.8749952309
 40
1.0
 40
1.0
 40
1.0
 40
1.0
 10
-1.655082305
 20
10.2011564781
 30
0.0
 10
-1.6341050762
 20
10.2221180815
 30
0.0
 10
-1.5964695563
 20
10.2686200753
 30
0.0
 10
-1.5409897802
 20
10.3740407415
 30
0.0
 10
-1.5062495278
 20
10.520232759
 30
0.0
 10
-1.5032020634
 20
10.6986183051
 30
0.0
 10
-1.5249811866
 20
10.8754751451
 30
0.0
 10
-1.5639306733
 20
11.0491534086
 30
0.0
 10
-1.6324790493
 20
11.2762196139
 30
0.0
 10
-1.7416593665
 20
11.5521691628
 30
0.0
 10
-1.8966880443
 20
11.8723566035
 30
0.0
 10
-2.0691890563
 20
12.1834470004
 30
0.0
 10
-2.255106781
 20
12.4866547182
 30
0.0
 10
-2.5175106982
 20
12.8815987488
 30
0.0
 10
-2.8682911572
 20
13.3596549907
 30
0.0
 10
-3.3170591006
 20
13.9115950447
 30
0.0
 10
-3.7892666474
 20
14.4435926324
 30
0.0
 10
-4.1180064289
 20
14.7854032947
 30
0.0
 10
-4.2856266689
 20
14.9530236443
 30
0.0
  0
SPLINE
  5
635
100
AcDbEntity
  8
RACCORDO
100
AcDbSpline
 62
250
  6
CONTINUOUS
 70
0
 71
3
 72
24
 73
20
 74
0
 42
0.0000001
 43
0.0000001
 44
0.0000000001
 40
0.0
 40
0.0
 40
0.0
 40
0.0
 40
0.1249646187
 40
0.2499291716
 40
0.3748945271
 40
0.4998610549
 40
0.6248286773
 40
0.6873197855
 40
0.7498135142
 40
0.7810643592
 40
0.81231727
 40
0.843572979
 40
0.87483249
 40
0.9060966156
 40
0.9373623504
 40
0.9530131812
 40
0.9686700825
 40
0.9843319041
 40
1.0
 40
1.0
 40
1.0
 40
1.0
 10
18.9029061985
 20
-8.9426160042
 30
0.0
 10
18.7460542236
 20
-8.7857640663
 30
0.0
 10
18.42830113
 20
-8.4760781772
 30
0.0
 10
17.9396003773
 20
-8.0242810185
 30
0.0
 10
17.4382293555
 20
-7.5865374145
 30
0.0
 10
16.9228348851
 20
-7.1653593442
 30
0.0
 10
16.4795022642
 20
-6.8317705722
 30
0.0
 10
16.1140342852
 20
-6.5800874435
 30
0.0
 10
15.8800988991
 20
-6.4309659652
 30
0.0
 10
15.6888043792
 20
-6.3185037172
 30
0.0
 10
15.5429010352
 20
-6.2383703124
 30
0.0
 10
15.3941579202
 20
-6.1635786305
 30
0.0
 10
15.241977672
 20
-6.0958747407
 30
0.0
 10
15.0856378713
 20
-6.0383077731
 30
0.0
 10
14.9508262103
 20
-6.0033373175
 30
0.0
 10
14.8403382253
 20
-5.990050062
 30
0.0
 10
14.7566152396
 20
-5.9912905912
 30
0.0
 10
14.6743446702
 20
-6.0097401477
 30
0.0
 10
14.6258525171
 20
-6.0404436082
 30
0.0
 10
14.6061864715
 20
-6.0601098396
 30
0.0
  0
SPLINE
  5
636
100
AcDbEntity
  8
RACCORDO
100
AcDbSpline
 62
250
  6
CONTINUOUS
 70
0
 71
3
 72
24
 73
20
 74
0
 42
0.0000001
 43
0.0000001
 44
0.0000000001
 40
0.0
 40
0.0
 40
0.0
 40
0.0
 40
0.0156705625
 40
0.0313522494
 40
0.0470192645
 40
0.0626772288
 40
0.0939482851
 40
0.1252128293
 40
0.1564714584
 40
0.1877259583
 40
0.2189775106
 40
0.2502267652
 40
0.3127173702
 40
0.3752051223
 40
0.5001660438
 40
0.6251258394
 40
0.7500843939
 40
0.8750421745
 40
1.0
 40
1.0
 40
1.0
 40
1.0
 10
10.3635457843
 20
-10.3027505267
 30
0.0
 10
10.3438767924
 20
-10.3224200212
 30
0.0
 10
10.3131492756
 20
-10.3709477956
 30
0.0
 10
10.294727604
 20
-10.4532853767
 30
0.0
 10
10.2934773756
 20
-10.5370722209
 30
0.0
 10
10.3067919528
 20
-10.6475995263
 30
0.0
 10
10.3418121815
 20
-10.782420962
 30
0.0
 10
10.399397248
 20
-10.9387626899
 30
0.0
 10
10.4671136644
 20
-11.0909343043
 30
0.0
 10
10.5419121456
 20
-11.2396671558
 30
0.0
 10
10.6220512277
 20
-11.3855589966
 30
0.0
 10
10.7345107863
 20
-11.5768426732
 30
0.0
 10
10.8836339983
 20
-11.8107601402
 30
0.0
 10
11.1353064513
 20
-12.1762071555
 30
0.0
 10
11.4688835252
 20
-12.6195117019
 30
0.0
 10
11.8900436961
 20
-13.1348746618
 30
0.0
 10
12.3277646178
 20
-13.6362180206
 30
0.0
 10
12.7795392998
 20
-14.124890717
 30
0.0
 10
13.0892084667
 20
-14.4426267361
 30
0.0
 10
13.246051949
 20
-14.5994702537
 30
0.0
  0
SPLINE
  5
637
100
AcDbEntity
  8
RACCORDO
100
AcDbSpline
 62
250
  6
CONTINUOUS
 70
0
 71
3
 72
23
 73
19
 74
0
 42
0.0000001
 43
0.0000001
 44
0.0000000001
 40
0.0
 40
0.0
 40
0.0
 40
0.0
 40
0.1250115699
 40
0.2500212189
 40
0.3750287114
 40
0.500031537
 40
0.5625383853
 40
0.625044446
 40
0.6875489552
 40
0.7500504309
 40
0.8125432376
 40
0.8437974521
 40
0.8750501459
 40
0.906298304
 40
0.9375312137
 40
0.9687213483
 40
0.9843613741
 40
1.0
 40
1.0
 40
1.0
 40
1.0
 10
-0.1965640553
 20
16.6467688363
 30
0.0
 10
-0.1965639743
 20
16.4097050692
 30
0.0
 10
-0.1873210049
 20
15.9355285488
 30
0.0
 10
-0.1450365127
 20
15.2254099209
 30
0.0
 10
-0.0720770514
 20
14.5177642272
 30
0.0
 10
0.0179319592
 20
13.9316572396
 30
0.0
 10
0.1116639138
 20
13.4668185333
 30
0.0
 10
0.1946101107
 20
13.120937993
 30
0.0
 10
0.2926274971
 20
12.7789747586
 30
0.0
 10
0.4094255432
 20
12.4429344485
 30
0.0
 10
0.527374421
 20
12.1706050992
 30
0.0
 10
0.639480791
 20
11.9615774104
 30
0.0
 10
0.7347634235
 20
11.8112416849
 30
0.0
 10
0.8444208206
 20
11.6708195491
 30
0.0
 10
0.9726914426
 20
11.5469144145
 30
0.0
 10
1.1005698301
 20
11.4681574676
 30
0.0
 10
1.2142971236
 20
11.4328757211
 30
0.0
 10
1.2737786598
 20
11.4266071939
 30
0.0
 10
1.3034347262
 20
11.4266155818
 30
0.0
  0
SPLINE
  5
638
100
AcDbEntity
  8
RACCORDO
100
AcDbSpline
 62
250
  6
CONTINUOUS
 70
0
 71
3
 72
23
 73
19
 74
0
 42
0.0000001
 43
0.0000001
 44
0.0000000001
 40
0.0
 40
0.0
 40
0.0
 40
0.0
 40
0.0156381851
 40
0.031284874
 40
0.0624970119
 40
0.0937413113
 40
0.1249923735
 40
0.1562453001
 40
0.1874986998
 40
0.2499894074
 40
0.3124879216
 40
0.3749894321
 40
0.437492196
 40
0.4999956827
 40
0.6249917222
 40
0.7499923658
 40
0.8749952309
 40
1.0
 40
1.0
 40
1.0
 40
1.0
 10
7.3034342062
 20
11.4266155818
 30
0.0
 10
7.3330894387
 20
11.426604533
 30
0.0
 10
7.3925836452
 20
11.4328740768
 30
0.0
 10
7.5063574391
 20
11.4681876189
 30
0.0
 10
7.634295874
 20
11.5469959177
 30
0.0
 10
7.7625883861
 20
11.6709786644
 30
0.0
 10
7.8722448913
 20
11.8114355009
 30
0.0
 10
7.967512523
 20
11.9617860249
 30
0.0
 10
8.0796015551
 20
12.1708170999
 30
0.0
 10
8.1975252097
 20
12.4431450399
 30
0.0
 10
8.3143100909
 20
12.7791735798
 30
0.0
 10
8.4123075848
 20
13.1211243444
 30
0.0
 10
8.4952441343
 20
13.4669882616
 30
0.0
 10
8.5889641472
 20
13.9318034531
 30
0.0
 10
8.6789617164
 20
14.5178795049
 30
0.0
 10
8.7519154154
 20
15.2254869158
 30
0.0
 10
8.7941933587
 20
15.9355671761
 30
0.0
 10
8.8034358673
 20
16.409717942
 30
0.0
 10
8.8034359447
 20
16.6467688363
 30
0.0
  0
SPLINE
  5
639
100
AcDbEntity
  8
RACCORDO
100
AcDbSpline
 62
250
  6
CONTINUOUS
 70
0
 71
3
 72
24
 73
20
 74
0
 42
0.0000001
 43
0.0000001
 44
0.0000000001
 40
0.0
 40
0.0
 40
0.0
 40
0.0
 40
0.1249646181
 40
0.2499291708
 40
0.3748945262
 40
0.4998610538
 40
0.6248286761
 40
0.6873197842
 40
0.7498135128
 40
0.7810643578
 40
0.8123172686
 40
0.8435729775
 40
0.8748324885
 40
0.9060966142
 40
0.937362349
 40
0.9530131799
 40
0.9686700813
 40
0.9843319033
 40
1.0
 40
1.0
 40
1.0
 40
1.0
 10
0.3034359447
 20
16.6467688363
 30
0.0
 10
0.3034359708
 20
16.4249466733
 30
0.0
 10
0.3091403452
 20
15.9812803151
 30
0.0
 10
0.3352351276
 20
15.3162478658
 30
0.0
 10
0.3802265052
 20
14.6521935466
 30
0.0
 10
0.4468475609
 20
13.9899367529
 30
0.0
 10
0.5244481799
 20
13.4405703682
 30
0.0
 10
0.6049062188
 20
13.0041786355
 30
0.0
 10
0.6648787084
 20
12.7333165295
 30
0.0
 10
0.7206215419
 20
12.5185280592
 30
0.0
 10
0.7671279113
 20
12.3586959413
 30
0.0
 10
0.8194194706
 20
12.2006329705
 30
0.0
 10
0.8791532759
 20
12.0451514052
 30
0.0
 10
0.948996216
 20
11.8938964787
 30
0.0
 10
1.0195946088
 20
11.7738423922
 30
0.0
 10
1.0883259035
 20
11.6863200796
 30
0.0
 10
1.1484041806
 20
11.6279961733
 30
0.0
 10
1.2196240662
 20
11.5828679004
 30
0.0
 10
1.2756238235
 20
11.5702893932
 30
0.0
 10
1.3034359447
 20
11.5702895246
 30
0.0
  0
SPLINE
  5
63A
100
AcDbEntity
  8
RACCORDO
100
AcDbSpline
 62
250
  6
CONTINUOUS
 70
0
 71
3
 72
24
 73
20
 74
0
 42
0.0000001
 43
0.0000001
 44
0.0000000001
 40
0.0
 40
0.0
 40
0.0
 40
0.0
 40
0.0156705625
 40
0.0313522494
 40
0.0470192645
 40
0.0626772288
 40
0.0939482851
 40
0.1252128293
 40
0.1564714584
 40
0.1877259583
 40
0.2189775106
 40
0.2502267652
 40
0.3127173702
 40
0.3752051223
 40
0.5001660438
 40
0.6251258394
 40
0.7500843939
 40
0.8750421745
 40
1.0
 40
1.0
 40
1.0
 40
1.0
 10
7.3034359447
 20
11.5702895246
 30
0.0
 10
7.3312524553
 20
11.57028988
 30
0.0
 10
7.3872944091
 20
11.5828765628
 30
0.0
 10
7.45854196
 20
11.6280719359
 30
0.0
 10
7.5186722506
 20
11.6864341366
 30
0.0
 10
7.58741203
 20
11.7740035716
 30
0.0
 10
7.6579821402
 20
11.8940997642
 30
0.0
 10
7.7278136452
 20
12.0453688512
 30
0.0
 10
7.7875324883
 20
12.2008531689
 30
0.0
 10
7.8398119829
 20
12.3589136901
 30
0.0
 10
7.8863062045
 20
12.5187416884
 30
0.0
 10
7.9420432729
 20
12.7335205898
 30
0.0
 10
8.0020018657
 20
13.0043712513
 30
0.0
 10
8.0824526301
 20
13.4407406122
 30
0.0
 10
8.16004167
 20
13.9900788741
 30
0.0
 10
8.2266531009
 20
14.6523007305
 30
0.0
 10
8.2716409577
 20
15.3163194513
 30
0.0
 10
8.2977317939
 20
15.9813161699
 30
0.0
 10
8.3034359198
 20
16.4249586315
 30
0.0
 10
8.3034359447
 20
16.6467688363
 30
0.0
  0
SPLINE
  5
63B
100
AcDbEntity
  8
RACCORDO
100
AcDbSpline
 62
250
  6
CONTINUOUS
 70
0
 71
3
 72
24
 73
20
 74
0
 42
0.0000001
 43
0.0000001
 44
0.0000000001
 40
0.0
 40
0.0
 40
0.0
 40
0.0
 40
0.1249646181
 40
0.2499291708
 40
0.3748945262
 40
0.4998610538
 40
0.6248286761
 40
0.6873197842
 40
0.7498135128
 40
0.7810643578
 40
0.8123172686
 40
0.8435729775
 40
0.8748324885
 40
0.9060966142
 40
0.937362349
 40
0.9530131799
 40
0.9686700813
 40
0.9843319033
 40
1.0
 40
1.0
 40
1.0
 40
1.0
 10
8.3034359447
 20
-16.6467688363
 30
0.0
 10
8.3034359186
 20
-16.4249466733
 30
0.0
 10
8.2977315442
 20
-15.9812803151
 30
0.0
 10
8.2716367618
 20
-15.3162478658
 30
0.0
 10
8.2266453843
 20
-14.6521935466
 30
0.0
 10
8.1600243286
 20
-13.9899367529
 30
0.0
 10
8.0824237096
 20
-13.4405703682
 30
0.0
 10
8.0019656707
 20
-13.0041786355
 30
0.0
 10
7.9419931811
 20
-12.7333165295
 30
0.0
 10
7.8862503476
 20
-12.5185280592
 30
0.0
 10
7.8397439782
 20
-12.3586959413
 30
0.0
 10
7.7874524188
 20
-12.2006329705
 30
0.0
 10
7.7277186135
 20
-12.0451514052
 30
0.0
 10
7.6578756735
 20
-11.8938964787
 30
0.0
 10
7.5872772806
 20
-11.7738423922
 30
0.0
 10
7.518545986
 20
-11.6863200796
 30
0.0
 10
7.4584677089
 20
-11.6279961733
 30
0.0
 10
7.3872478233
 20
-11.5828679004
 30
0.0
 10
7.3312480659
 20
-11.5702893932
 30
0.0
 10
7.3034359447
 20
-11.5702895246
 30
0.0
  0
SPLINE
  5
63C
100
AcDbEntity
  8
RACCORDO
100
AcDbSpline
 62
250
  6
CONTINUOUS
 70
0
 71
3
 72
24
 73
20
 74
0
 42
0.0000001
 43
0.0000001
 44
0.0000000001
 40
0.0
 40
0.0
 40
0.0
 40
0.0
 40
0.0156705625
 40
0.0313522494
 40
0.0470192645
 40
0.0626772288
 40
0.0939482851
 40
0.1252128293
 40
0.1564714584
 40
0.1877259583
 40
0.2189775106
 40
0.2502267652
 40
0.3127173702
 40
0.3752051223
 40
0.5001660438
 40
0.6251258394
 40
0.7500843939
 40
0.8750421745
 40
1.0
 40
1.0
 40
1.0
 40
1.0
 10
1.3034359447
 20
-11.5702895246
 30
0.0
 10
1.2756194342
 20
-11.57028988
 30
0.0
 10
1.2195774804
 20
-11.5828765628
 30
0.0
 10
1.1483299295
 20
-11.6280719359
 30
0.0
 10
1.0881996389
 20
-11.6864341366
 30
0.0
 10
1.0194598595
 20
-11.7740035716
 30
0.0
 10
0.9488897492
 20
-11.8940997642
 30
0.0
 10
0.8790582443
 20
-12.0453688512
 30
0.0
 10
0.8193394011
 20
-12.2008531689
 30
0.0
 10
0.7670599065
 20
-12.3589136901
 30
0.0
 10
0.7205656849
 20
-12.5187416884
 30
0.0
 10
0.6648286166
 20
-12.7335205898
 30
0.0
 10
0.6048700238
 20
-13.0043712513
 30
0.0
 10
0.5244192594
 20
-13.4407406122
 30
0.0
 10
0.4468302194
 20
-13.9900788741
 30
0.0
 10
0.3802187885
 20
-14.6523007305
 30
0.0
 10
0.3352309318
 20
-15.3163194513
 30
0.0
 10
0.3091400956
 20
-15.9813161699
 30
0.0
 10
0.3034359697
 20
-16.4249586315
 30
0.0
 10
0.3034359447
 20
-16.6467688363
 30
0.0
  0
SPLINE
  5
63D
100
AcDbEntity
  8
RACCORDO
100
AcDbSpline
 62
250
  6
CONTINUOUS
 70
0
 71
3
 72
23
 73
19
 74
0
 42
0.0000001
 43
0.0000001
 44
0.0000000001
 40
0.0
 40
0.0
 40
0.0
 40
0.0
 40
0.1250115708
 40
0.2500212199
 40
0.3750287125
 40
0.5000315382
 40
0.5625383865
 40
0.6250444473
 40
0.6875489565
 40
0.7500504323
 40
0.8125432389
 40
0.8437974534
 40
0.8750501472
 40
0.9062983052
 40
0.9375312147
 40
0.9687213489
 40
0.9843613743
 40
1.0
 40
1.0
 40
1.0
 40
1.0
 10
12.8924985584
 20
14.9530236443
 30
0.0
 10
12.7248692172
 20
14.7853941885
 30
0.0
 10
12.3961115497
 20
14.4435649873
 30
0.0
 10
11.9238815014
 20
13.911535638
 30
0.0
 10
11.4750905631
 20
13.3595644383
 30
0.0
 10
11.1242963194
 20
12.8814782306
 30
0.0
 10
10.8618842187
 20
12.4865091281
 30
0.0
 10
10.6759615614
 20
12.183282834
 30
0.0
 10
10.503465798
 20
11.8721695532
 30
0.0
 10
10.3484381074
 20
11.5519644802
 30
0.0
 10
10.2392746297
 20
11.2759960992
 30
0.0
 10
10.1707409082
 20
11.0489200287
 30
0.0
 10
10.1318124937
 20
10.8752416223
 30
0.0
 10
10.1100585397
 20
10.6984086892
 30
0.0
 10
10.1131454053
 20
10.5200935025
 30
0.0
 10
10.1478795112
 20
10.3739802588
 30
0.0
 10
10.2033488873
 20
10.2686149572
 30
0.0
 10
10.2409761671
 20
10.2221226433
 30
0.0
 10
10.2619521035
 20
10.2011585691
 30
0.0
  0
SPLINE
  5
63E
100
AcDbEntity
  8
RACCORDO
100
AcDbSpline
 62
250
  6
CONTINUOUS
 70
0
 71
3
 72
23
 73
19
 74
0
 42
0.0000001
 43
0.0000001
 44
0.0000000001
 40
0.0
 40
0.0
 40
0.0
 40
0.0
 40
0.0156381851
 40
0.031284874
 40
0.0624970119
 40
0.0937413113
 40
0.1249923735
 40
0.1562453001
 40
0.1874986998
 40
0.2499894074
 40
0.3124879216
 40
0.3749894321
 40
0.437492196
 40
0.4999956827
 40
0.6249917222
 40
0.7499923658
 40
0.8749952309
 40
1.0
 40
1.0
 40
1.0
 40
1.0
 10
14.5045924229
 20
5.9585182497
 30
0.0
 10
14.5255540262
 20
5.9375410209
 30
0.0
 10
14.57205602
 20
5.8999055011
 30
0.0
 10
14.6774766862
 20
5.844425725
 30
0.0
 10
14.8236687037
 20
5.8096854726
 30
0.0
 10
15.0020542498
 20
5.8066380082
 30
0.0
 10
15.1789110898
 20
5.8284171314
 30
0.0
 10
15.3525893534
 20
5.8673666181
 30
0.0
 10
15.5796555586
 20
5.935914994
 30
0.0
 10
15.8556051076
 20
6.0450953112
 30
0.0
 10
16.1757925482
 20
6.200123989
 30
0.0
 10
16.4868829451
 20
6.372625001
 30
0.0
 10
16.790090663
 20
6.5585427257
 30
0.0
 10
17.1850346935
 20
6.820946643
 30
0.0
 10
17.6630909355
 20
7.171727102
 30
0.0
 10
18.2150309894
 20
7.6204950454
 30
0.0
 10
18.7470285771
 20
8.0927025922
 30
0.0
 10
19.0888392395
 20
8.4214423736
 30
0.0
 10
19.2564595891
 20
8.5890626137
 30
0.0
  0
SPLINE
  5
63F
100
AcDbEntity
  8
RACCORDO
100
AcDbSpline
 62
250
  6
CONTINUOUS
 70
0
 71
3
 72
23
 73
19
 74
0
 42
0.0000001
 43
0.0000001
 44
0.0000000001
 40
0.0
 40
0.0
 40
0.0
 40
0.0
 40
0.1250115699
 40
0.2500212189
 40
0.3750287114
 40
0.500031537
 40
0.5625383853
 40
0.625044446
 40
0.6875489552
 40
0.7500504309
 40
0.8125432376
 40
0.8437974521
 40
0.8750501459
 40
0.906298304
 40
0.9375312137
 40
0.9687213483
 40
0.9843613741
 40
1.0
 40
1.0
 40
1.0
 40
1.0
 10
20.950204781
 20
4.5
 30
0.0
 10
20.7131410139
 20
4.499999919
 30
0.0
 10
20.2389644936
 20
4.4907569496
 30
0.0
 10
19.5288458656
 20
4.4484724574
 30
0.0
 10
18.8212001719
 20
4.3755129962
 30
0.0
 10
18.2350931843
 20
4.2855039855
 30
0.0
 10
17.770254478
 20
4.1917720309
 30
0.0
 10
17.4243739377
 20
4.108825834
 30
0.0
 10
17.0824107033
 20
4.0108084476
 30
0.0
 10
16.7463703932
 20
3.8940104015
 30
0.0
 10
16.4740410439
 20
3.7760615238
 30
0.0
 10
16.2650133551
 20
3.6639551537
 30
0.0
 10
16.1146776296
 20
3.5686725212
 30
0.0
 10
15.9742554939
 20
3.4590151241
 30
0.0
 10
15.8503503593
 20
3.3307445021
 30
0.0
 10
15.7715934123
 20
3.2028661147
 30
0.0
 10
15.7363116659
 20
3.0891388211
 30
0.0
 10
15.7300431386
 20
3.0296572849
 30
0.0
 10
15.7300515266
 20
3.0000012185
 30
0.0
  0
SPLINE
  5
640
100
AcDbEntity
  8
RACCORDO
100
AcDbSpline
 62
250
  6
CONTINUOUS
 70
0
 71
3
 72
24
 73
20
 74
0
 42
0.0000001
 43
0.0000001
 44
0.0000000001
 40
0.0
 40
0.0
 40
0.0
 40
0.0
 40
0.1249646187
 40
0.2499291716
 40
0.3748945271
 40
0.4998610549
 40
0.6248286773
 40
0.6873197855
 40
0.7498135142
 40
0.7810643592
 40
0.81231727
 40
0.843572979
 40
0.87483249
 40
0.9060966156
 40
0.9373623504
 40
0.9530131812
 40
0.9686700825
 40
0.9843319041
 40
1.0
 40
1.0
 40
1.0
 40
1.0
 10
-4.6391800595
 20
-14.5994702537
 30
0.0
 10
-4.4823281216
 20
-14.4426182789
 30
0.0
 10
-4.1726422325
 20
-14.1248651853
 30
0.0
 10
-3.7208450738
 20
-13.6361644325
 30
0.0
 10
-3.2831014698
 20
-13.1347934108
 30
0.0
 10
-2.8619233995
 20
-12.6193989404
 30
0.0
 10
-2.5283346274
 20
-12.1760663194
 30
0.0
 10
-2.2766514988
 20
-11.8105983405
 30
0.0
 10
-2.1275300205
 20
-11.5766629544
 30
0.0
 10
-2.0150677725
 20
-11.3853684345
 30
0.0
 10
-1.9349343677
 20
-11.2394650905
 30
0.0
 10
-1.8601426858
 20
-11.0907219755
 30
0.0
 10
-1.792438796
 20
-10.9385417272
 30
0.0
 10
-1.7348718283
 20
-10.7822019266
 30
0.0
 10
-1.6999013728
 20
-10.6473902656
 30
0.0
 10
-1.6866141173
 20
-10.5369022806
 30
0.0
 10
-1.6878546465
 20
-10.4531792949
 30
0.0
 10
-1.706304203
 20
-10.3709087255
 30
0.0
 10
-1.7370076635
 20
-10.3224165723
 30
0.0
 10
-1.7566738949
 20
-10.3027505267
 30
0.0
  0
SPLINE
  5
641
100
AcDbEntity
  8
RACCORDO
100
AcDbSpline
 62
250
  6
CONTINUOUS
 70
0
 71
3
 72
24
 73
20
 74
0
 42
0.0000001
 43
0.0000001
 44
0.0000000001
 40
0.0
 40
0.0
 40
0.0
 40
0.0
 40
0.0156705625
 40
0.0313522494
 40
0.0470192645
 40
0.0626772288
 40
0.0939482851
 40
0.1252128293
 40
0.1564714584
 40
0.1877259583
 40
0.2189775106
 40
0.2502267652
 40
0.3127173702
 40
0.3752051223
 40
0.5001660438
 40
0.6251258394
 40
0.7500843939
 40
0.8750421745
 40
1.0
 40
1.0
 40
1.0
 40
1.0
 10
-5.999314582
 20
-6.0601098396
 30
0.0
 10
-6.0189840765
 20
-6.0404408477
 30
0.0
 10
-6.0675118509
 20
-6.0097133309
 30
0.0
 10
-6.149849432
 20
-5.9912916593
 30
0.0
 10
-6.2336362762
 20
-5.9900414309
 30
0.0
 10
-6.3441635816
 20
-6.0033560081
 30
0.0
 10
-6.4789850173
 20
-6.0383762368
 30
0.0
 10
-6.6353267451
 20
-6.0959613032
 30
0.0
 10
-6.7874983596
 20
-6.1636777197
 30
0.0
 10
-6.936231211
 20
-6.2384762009
 30
0.0
 10
-7.0821230519
 20
-6.3186152829
 30
0.0
 10
-7.2734067285
 20
-6.4310748416
 30
0.0
 10
-7.5073241955
 20
-6.5801980535
 30
0.0
 10
-7.8727712108
 20
-6.8318705066
 30
0.0
 10
-8.3160757572
 20
-7.1654475805
 30
0.0
 10
-8.831438717
 20
-7.5866077513
 30
0.0
 10
-9.3327820759
 20
-8.0243286731
 30
0.0
 10
-9.8214547723
 20
-8.476103355
 30
0.0
 10
-10.1391907914
 20
-8.7857725219
 30
0.0
 10
-10.296034309
 20
-8.9426160042
 30
0.0
  0
SPLINE
  5
642
100
AcDbEntity
  8
RACCORDO
100
AcDbSpline
 62
250
  6
CONTINUOUS
 70
0
 71
3
 72
23
 73
19
 74
0
 42
0.0000001
 43
0.0000001
 44
0.0000000001
 40
0.0
 40
0.0
 40
0.0
 40
0.0
 40
0.0156381851
 40
0.031284874
 40
0.0624970119
 40
0.0937413113
 40
0.1249923735
 40
0.1562453001
 40
0.1874986998
 40
0.2499894074
 40
0.3124879216
 40
0.3749894321
 40
0.437492196
 40
0.4999956827
 40
0.6249917222
 40
0.7499923658
 40
0.8749952309
 40
1.0
 40
1.0
 40
1.0
 40
1.0
 10
15.7300515266
 20
-2.9999982614
 30
0.0
 10
15.7300404777
 20
-3.029653494
 30
0.0
 10
15.7363100216
 20
-3.0891477005
 30
0.0
 10
15.7716235636
 20
-3.2029214943
 30
0.0
 10
15.8504318625
 20
-3.3308599293
 30
0.0
 10
15.9744146091
 20
-3.4591524414
 30
0.0
 10
16.1148714456
 20
-3.5688089465
 30
0.0
 10
16.2652219697
 20
-3.6640765783
 30
0.0
 10
16.4742530446
 20
-3.7761656103
 30
0.0
 10
16.7465809847
 20
-3.894089265
 30
0.0
 10
17.0826095246
 20
-4.0108741462
 30
0.0
 10
17.4245602891
 20
-4.10887164
 30
0.0
 10
17.7704242064
 20
-4.1918081895
 30
0.0
 10
18.2352393979
 20
-4.2855282024
 30
0.0
 10
18.8213154496
 20
-4.3755257716
 30
0.0
 10
19.5289228605
 20
-4.4484794706
 30
0.0
 10
20.2390031209
 20
-4.490757414
 30
0.0
 10
20.7131538868
 20
-4.4999999225
 30
0.0
 10
20.950204781
 20
-4.5
 30
0.0
  0
SPLINE
  5
643
100
AcDbEntity
  8
RACCORDO
100
AcDbSpline
 62
250
  6
CONTINUOUS
 70
0
 71
3
 72
23
 73
19
 74
0
 42
0.0000001
 43
0.0000001
 44
0.0000000001
 40
0.0
 40
0.0
 40
0.0
 40
0.0
 40
0.1250115708
 40
0.2500212199
 40
0.3750287125
 40
0.5000315382
 40
0.5625383865
 40
0.6250444473
 40
0.6875489565
 40
0.7500504323
 40
0.8125432389
 40
0.8437974534
 40
0.8750501472
 40
0.9062983052
 40
0.9375312147
 40
0.9687213489
 40
0.9843613743
 40
1.0
 40
1.0
 40
1.0
 40
1.0
 10
19.2564595891
 20
-8.5890626137
 30
0.0
 10
19.0888301332
 20
-8.4214332725
 30
0.0
 10
18.747000932
 20
-8.092675605
 30
0.0
 10
18.2149715828
 20
-7.6204455567
 30
0.0
 10
17.663000383
 20
-7.1716546184
 30
0.0
 10
17.1849141754
 20
-6.8208603747
 30
0.0
 10
16.7899450728
 20
-6.558448274
 30
0.0
 10
16.4867187787
 20
-6.3725256166
 30
0.0
 10
16.175605498
 20
-6.2000298532
 30
0.0
 10
15.855400425
 20
-6.0450021627
 30
0.0
 10
15.5794320439
 20
-5.935838685
 30
0.0
 10
15.3523559734
 20
-5.8673049635
 30
0.0
 10
15.178677567
 20
-5.828376549
 30
0.0
 10
15.0018446339
 20
-5.806622595
 30
0.0
 10
14.8235294472
 20
-5.8097094606
 30
0.0
 10
14.6774162035
 20
-5.8444435664
 30
0.0
 10
14.5720509019
 20
-5.8999129426
 30
0.0
 10
14.5255585881
 20
-5.9375402224
 30
0.0
 10
14.5045945138
 20
-5.9585161588
 30
0.0
  0
SPLINE
  5
644
100
AcDbEntity
  8
RACCORDO
100
AcDbSpline
 62
250
  6
CONTINUOUS
 70
0
 71
3
 72
24
 73
20
 74
0
 42
0.0000001
 43
0.0000001
 44
0.0000000001
 40
0.0
 40
0.0
 40
0.0
 40
0.0
 40
0.1249646187
 40
0.2499291716
 40
0.3748945271
 40
0.4998610549
 40
0.6248286773
 40
0.6873197855
 40
0.7498135142
 40
0.7810643592
 40
0.81231727
 40
0.843572979
 40
0.87483249
 40
0.9060966156
 40
0.9373623504
 40
0.9530131812
 40
0.9686700825
 40
0.9843319041
 40
1.0
 40
1.0
 40
1.0
 40
1.0
 10
13.246051949
 20
14.5994702537
 30
0.0
 10
13.0892000111
 20
14.4426182789
 30
0.0
 10
12.7795141219
 20
14.1248651853
 30
0.0
 10
12.3277169632
 20
13.6361644325
 30
0.0
 10
11.8899733593
 20
13.1347934108
 30
0.0
 10
11.4687952889
 20
12.6193989404
 30
0.0
 10
11.1352065169
 20
12.1760663194
 30
0.0
 10
10.8835233883
 20
11.8105983405
 30
0.0
 10
10.73440191
 20
11.5766629544
 30
0.0
 10
10.6219396619
 20
11.3853684345
 30
0.0
 10
10.5418062572
 20
11.2394650905
 30
0.0
 10
10.4670145753
 20
11.0907219755
 30
0.0
 10
10.3993106855
 20
10.9385417272
 30
0.0
 10
10.3417437178
 20
10.7822019266
 30
0.0
 10
10.3067732622
 20
10.6473902656
 30
0.0
 10
10.2934860067
 20
10.5369022806
 30
0.0
 10
10.2947265359
 20
10.4531792949
 30
0.0
 10
10.3131760925
 20
10.3709087255
 30
0.0
 10
10.343879553
 20
10.3224165723
 30
0.0
 10
10.3635457843
 20
10.3027505267
 30
0.0
  0
SPLINE
  5
645
100
AcDbEntity
  8
RACCORDO
100
AcDbSpline
 62
250
  6
CONTINUOUS
 70
0
 71
3
 72
24
 73
20
 74
0
 42
0.0000001
 43
0.0000001
 44
0.0000000001
 40
0.0
 40
0.0
 40
0.0
 40
0.0
 40
0.0156705625
 40
0.0313522494
 40
0.0470192645
 40
0.0626772288
 40
0.0939482851
 40
0.1252128293
 40
0.1564714584
 40
0.1877259583
 40
0.2189775106
 40
0.2502267652
 40
0.3127173702
 40
0.3752051223
 40
0.5001660438
 40
0.6251258394
 40
0.7500843939
 40
0.8750421745
 40
1.0
 40
1.0
 40
1.0
 40
1.0
 10
14.6061864715
 20
6.0601098396
 30
0.0
 10
14.625855966
 20
6.0404408477
 30
0.0
 10
14.6743837403
 20
6.0097133309
 30
0.0
 10
14.7567213215
 20
5.9912916593
 30
0.0
 10
14.8405081656
 20
5.9900414309
 30
0.0
 10
14.9510354711
 20
6.0033560081
 30
0.0
 10
15.0858569068
 20
6.0383762368
 30
0.0
 10
15.2421986346
 20
6.0959613032
 30
0.0
 10
15.394370249
 20
6.1636777197
 30
0.0
 10
15.5431031005
 20
6.2384762009
 30
0.0
 10
15.6889949413
 20
6.3186152829
 30
0.0
 10
15.8802786179
 20
6.4310748416
 30
0.0
 10
16.114196085
 20
6.5801980535
 30
0.0
 10
16.4796431002
 20
6.8318705066
 30
0.0
 10
16.9229476467
 20
7.1654475805
 30
0.0
 10
17.4383106065
 20
7.5866077513
 30
0.0
 10
17.9396539654
 20
8.0243286731
 30
0.0
 10
18.4283266618
 20
8.476103355
 30
0.0
 10
18.7460626809
 20
8.7857725219
 30
0.0
 10
18.9029061985
 20
8.9426160042
 30
0.0
  0
SPLINE
  5
646
100
AcDbEntity
  8
RACCORDO
100
AcDbSpline
 62
250
  6
CONTINUOUS
 70
0
 71
3
 72
24
 73
20
 74
0
 42
0.0000001
 43
0.0000001
 44
0.0000000001
 40
0.0
 40
0.0
 40
0.0
 40
0.0
 40
0.1249646181
 40
0.2499291708
 40
0.3748945262
 40
0.4998610538
 40
0.6248286761
 40
0.6873197842
 40
0.7498135128
 40
0.7810643578
 40
0.8123172686
 40
0.8435729775
 40
0.8748324885
 40
0.9060966142
 40
0.937362349
 40
0.9530131799
 40
0.9686700813
 40
0.9843319033
 40
1.0
 40
1.0
 40
1.0
 40
1.0
 10
-12.3433328916
 20
-4.0
 30
0.0
 10
-12.1215107285
 20
-3.9999999739
 30
0.0
 10
-11.6778443704
 20
-3.9942955995
 30
0.0
 10
-11.0128119211
 20
-3.9682008171
 30
0.0
 10
-10.3487576019
 20
-3.9232094395
 30
0.0
 10
-9.6865008082
 20
-3.8565883838
 30
0.0
 10
-9.1371344234
 20
-3.7789877648
 30
0.0
 10
-8.7007426908
 20
-3.6985297259
 30
0.0
 10
-8.4298805848
 20
-3.6385572363
 30
0.0
 10
-8.2150921145
 20
-3.5828144028
 30
0.0
 10
-8.0552599966
 20
-3.5363080334
 30
0.0
 10
-7.8971970258
 20
-3.4840164741
 30
0.0
 10
-7.7417154604
 20
-3.4242826688
 30
0.0
 10
-7.5904605339
 20
-3.3544397288
 30
0.0
 10
-7.4704064475
 20
-3.2838413359
 30
0.0
 10
-7.3828841349
 20
-3.2151100412
 30
0.0
 10
-7.3245602286
 20
-3.1550317641
 30
0.0
 10
-7.2794319557
 20
-3.0838118786
 30
0.0
 10
-7.2668534485
 20
-3.0278121212
 30
0.0
 10
-7.2668535799
 20
-3.0
 30
0.0
  0
SPLINE
  5
647
100
AcDbEntity
  8
RACCORDO
100
AcDbSpline
 62
250
  6
CONTINUOUS
 70
0
 71
3
 72
24
 73
20
 74
0
 42
0.0000001
 43
0.0000001
 44
0.0000000001
 40
0.0
 40
0.0
 40
0.0
 40
0.0
 40
0.0156705625
 40
0.0313522494
 40
0.0470192645
 40
0.0626772288
 40
0.0939482851
 40
0.1252128293
 40
0.1564714584
 40
0.1877259583
 40
0.2189775106
 40
0.2502267652
 40
0.3127173702
 40
0.3752051223
 40
0.5001660438
 40
0.6251258394
 40
0.7500843939
 40
0.8750421745
 40
1.0
 40
1.0
 40
1.0
 40
1.0
 10
-7.2668535799
 20
3.0
 30
0.0
 10
-7.2668539353
 20
3.0278165105
 30
0.0
 10
-7.2794406181
 20
3.0838584644
 30
0.0
 10
-7.3246359912
 20
3.1551060152
 30
0.0
 10
-7.3829981919
 20
3.2152363059
 30
0.0
 10
-7.4705676269
 20
3.2839760852
 30
0.0
 10
-7.5906638195
 20
3.3545461955
 30
0.0
 10
-7.7419329064
 20
3.4243777004
 30
0.0
 10
-7.8974172242
 20
3.4840965436
 30
0.0
 10
-8.0554777453
 20
3.5363760382
 30
0.0
 10
-8.2153057436
 20
3.5828702598
 30
0.0
 10
-8.430084645
 20
3.6386073281
 30
0.0
 10
-8.7009353066
 20
3.6985659209
 30
0.0
 10
-9.1373046675
 20
3.7790166854
 30
0.0
 10
-9.6866429294
 20
3.8566057253
 30
0.0
 10
-10.3488647858
 20
3.9232171562
 30
0.0
 10
-11.0128835066
 20
3.9682050129
 30
0.0
 10
-11.6778802252
 20
3.9942958492
 30
0.0
 10
-12.1215226867
 20
3.999999975
 30
0.0
 10
-12.3433328916
 20
4.0
 30
0.0
  0
SPLINE
  5
648
100
AcDbEntity
  8
RACCORDO
100
AcDbSpline
 62
250
  6
CONTINUOUS
 70
0
 71
3
 72
23
 73
19
 74
0
 42
0.0000001
 43
0.0000001
 44
0.0000000001
 40
0.0
 40
0.0
 40
0.0
 40
0.0
 40
0.0156381851
 40
0.031284874
 40
0.0624970119
 40
0.0937413113
 40
0.1249923735
 40
0.1562453001
 40
0.1874986998
 40
0.2499894074
 40
0.3124879216
 40
0.3749894321
 40
0.437492196
 40
0.4999956827
 40
0.6249917222
 40
0.7499923658
 40
0.8749952309
 40
1.0
 40
1.0
 40
1.0
 40
1.0
 10
10.2619541945
 20
-10.2011564781
 30
0.0
 10
10.2409769657
 20
-10.2221180815
 30
0.0
 10
10.2033414458
 20
-10.2686200753
 30
0.0
 10
10.1478616697
 20
-10.3740407415
 30
0.0
 10
10.1131214173
 20
-10.520232759
 30
0.0
 10
10.1100739529
 20
-10.6986183051
 30
0.0
 10
10.1318530761
 20
-10.8754751451
 30
0.0
 10
10.1708025628
 20
-11.0491534086
 30
0.0
 10
10.2393509387
 20
-11.2762196139
 30
0.0
 10
10.348531256
 20
-11.5521691628
 30
0.0
 10
10.5035599337
 20
-11.8723566035
 30
0.0
 10
10.6760609457
 20
-12.1834470004
 30
0.0
 10
10.8619786704
 20
-12.4866547182
 30
0.0
 10
11.1243825877
 20
-12.8815987488
 30
0.0
 10
11.4751630467
 20
-13.3596549907
 30
0.0
 10
11.9239309901
 20
-13.9115950447
 30
0.0
 10
12.3961385369
 20
-14.4435926324
 30
0.0
 10
12.7248783184
 20
-14.7854032947
 30
0.0
 10
12.8924985584
 20
-14.9530236443
 30
0.0
  0
SPLINE
  5
649
100
AcDbEntity
  8
RACCORDO
100
AcDbSpline
 62
250
  6
CONTINUOUS
 70
0
 71
3
 72
23
 73
19
 74
0
 42
0.0000001
 43
0.0000001
 44
0.0000000001
 40
0.0
 40
0.0
 40
0.0
 40
0.0
 40
0.1250115699
 40
0.2500212189
 40
0.3750287114
 40
0.500031537
 40
0.5625383853
 40
0.625044446
 40
0.6875489552
 40
0.7500504309
 40
0.8125432376
 40
0.8437974521
 40
0.8750501459
 40
0.906298304
 40
0.9375312137
 40
0.9687213483
 40
0.9843613741
 40
1.0
 40
1.0
 40
1.0
 40
1.0
 10
8.8034359447
 20
-16.6467688363
 30
0.0
 10
8.8034358637
 20
-16.4097050692
 30
0.0
 10
8.7941928943
 20
-15.9355285488
 30
0.0
 10
8.7519084021
 20
-15.2254099209
 30
0.0
 10
8.6789489409
 20
-14.5177642272
 30
0.0
 10
8.5889399303
 20
-13.9316572396
 30
0.0
 10
8.4952079757
 20
-13.4668185333
 30
0.0
 10
8.4122617787
 20
-13.120937993
 30
0.0
 10
8.3142443924
 20
-12.7789747586
 30
0.0
 10
8.1974463463
 20
-12.4429344485
 30
0.0
 10
8.0794974685
 20
-12.1706050992
 30
0.0
 10
7.9673910985
 20
-11.9615774104
 30
0.0
 10
7.872108466
 20
-11.8112416849
 30
0.0
 10
7.7624510688
 20
-11.6708195491
 30
0.0
 10
7.6341804469
 20
-11.5469144145
 30
0.0
 10
7.5063020594
 20
-11.4681574676
 30
0.0
 10
7.3925747659
 20
-11.4328757211
 30
0.0
 10
7.3330932297
 20
-11.4266071939
 30
0.0
 10
7.3034371632
 20
-11.4266155818
 30
0.0
  0
SPLINE
  5
64A
100
AcDbEntity
  8
RACCORDO
100
AcDbSpline
 62
250
  6
CONTINUOUS
 70
0
 71
3
 72
23
 73
19
 74
0
 42
0.0000001
 43
0.0000001
 44
0.0000000001
 40
0.0
 40
0.0
 40
0.0
 40
0.0
 40
0.0156381851
 40
0.031284874
 40
0.0624970119
 40
0.0937413113
 40
0.1249923735
 40
0.1562453001
 40
0.1874986998
 40
0.2499894074
 40
0.3124879216
 40
0.3749894321
 40
0.437492196
 40
0.4999956827
 40
0.6249917222
 40
0.7499923658
 40
0.8749952309
 40
1.0
 40
1.0
 40
1.0
 40
1.0
 10
1.3034376833
 20
-11.4266155818
 30
0.0
 10
1.2737824507
 20
-11.426604533
 30
0.0
 10
1.2142882442
 20
-11.4328740768
 30
0.0
 10
1.1005144504
 20
-11.4681876189
 30
0.0
 10
0.9725760154
 20
-11.5469959177
 30
0.0
 10
0.8442835033
 20
-11.6709786644
 30
0.0
 10
0.7346269982
 20
-11.8114355009
 30
0.0
 10
0.6393593665
 20
-11.9617860249
 30
0.0
 10
0.5272703344
 20
-12.1708170999
 30
0.0
 10
0.4093466798
 20
-12.4431450399
 30
0.0
 10
0.2925617986
 20
-12.7791735798
 30
0.0
 10
0.1945643047
 20
-13.1211243444
 30
0.0
 10
0.1116277552
 20
-13.4669882616
 30
0.0
 10
0.0179077423
 20
-13.9318034531
 30
0.0
 10
-0.0720898269
 20
-14.5178795049
 30
0.0
 10
-0.1450435259
 20
-15.2254869158
 30
0.0
 10
-0.1873214693
 20
-15.9355671761
 30
0.0
 10
-0.1965639778
 20
-16.409717942
 30
0.0
 10
-0.1965640553
 20
-16.6467688363
 30
0.0
  0
SPLINE
  5
64B
100
AcDbEntity
  8
RACCORDO
100
AcDbSpline
 62
250
  6
CONTINUOUS
 70
0
 71
3
 72
24
 73
20
 74
0
 42
0.0000001
 43
0.0000001
 44
0.0000000001
 40
0.0
 40
0.0
 40
0.0
 40
0.0
 40
0.1249646187
 40
0.2499291716
 40
0.3748945271
 40
0.4998610549
 40
0.6248286773
 40
0.6873197855
 40
0.7498135142
 40
0.7810643592
 40
0.81231727
 40
0.843572979
 40
0.87483249
 40
0.9060966156
 40
0.9373623504
 40
0.9530131812
 40
0.9686700825
 40
0.9843319041
 40
1.0
 40
1.0
 40
1.0
 40
1.0
 10
-10.296034309
 20
8.9426160042
 30
0.0
 10
-10.1391823341
 20
8.7857640663
 30
0.0
 10
-9.8214292406
 20
8.4760781772
 30
0.0
 10
-9.3327284878
 20
8.0242810185
 30
0.0
 10
-8.831357466
 20
7.5865374145
 30
0.0
 10
-8.3159629956
 20
7.1653593442
 30
0.0
 10
-7.8726303747
 20
6.8317705722
 30
0.0
 10
-7.5071623957
 20
6.5800874435
 30
0.0
 10
-7.2732270097
 20
6.4309659652
 30
0.0
 10
-7.0819324897
 20
6.3185037172
 30
0.0
 10
-6.9360291458
 20
6.2383703124
 30
0.0
 10
-6.7872860308
 20
6.1635786305
 30
0.0
 10
-6.6351057825
 20
6.0958747407
 30
0.0
 10
-6.4787659818
 20
6.0383077731
 30
0.0
 10
-6.3439543208
 20
6.0033373175
 30
0.0
 10
-6.2334663359
 20
5.990050062
 30
0.0
 10
-6.1497433501
 20
5.9912905912
 30
0.0
 10
-6.0674727807
 20
6.0097401477
 30
0.0
 10
-6.0189806276
 20
6.0404436082
 30
0.0
 10
-5.999314582
 20
6.0601098396
 30
0.0
  0
SPLINE
  5
64C
100
AcDbEntity
  8
RACCORDO
100
AcDbSpline
 62
250
  6
CONTINUOUS
 70
0
 71
3
 72
24
 73
20
 74
0
 42
0.0000001
 43
0.0000001
 44
0.0000000001
 40
0.0
 40
0.0
 40
0.0
 40
0.0
 40
0.0156705625
 40
0.0313522494
 40
0.0470192645
 40
0.0626772288
 40
0.0939482851
 40
0.1252128293
 40
0.1564714584
 40
0.1877259583
 40
0.2189775106
 40
0.2502267652
 40
0.3127173702
 40
0.3752051223
 40
0.5001660438
 40
0.6251258394
 40
0.7500843939
 40
0.8750421745
 40
1.0
 40
1.0
 40
1.0
 40
1.0
 10
-1.7566738949
 20
10.3027505267
 30
0.0
 10
-1.7370049029
 20
10.3224200212
 30
0.0
 10
-1.7062773861
 20
10.3709477956
 30
0.0
 10
-1.6878557145
 20
10.4532853767
 30
0.0
 10
-1.6866054862
 20
10.5370722209
 30
0.0
 10
-1.6999200634
 20
10.6475995263
 30
0.0
 10
-1.734940292
 20
10.782420962
 30
0.0
 10
-1.7925253585
 20
10.9387626899
 30
0.0
 10
-1.860241775
 20
11.0909343043
 30
0.0
 10
-1.9350402562
 20
11.2396671558
 30
0.0
 10
-2.0151793382
 20
11.3855589966
 30
0.0
 10
-2.1276388969
 20
11.5768426732
 30
0.0
 10
-2.2767621088
 20
11.8107601402
 30
0.0
 10
-2.5284345619
 20
12.1762071555
 30
0.0
 10
-2.8620116357
 20
12.6195117019
 30
0.0
 10
-3.2831718066
 20
13.1348746618
 30
0.0
 10
-3.7208927283
 20
13.6362180206
 30
0.0
 10
-4.1726674103
 20
14.124890717
 30
0.0
 10
-4.4823365772
 20
14.4426267361
 30
0.0
 10
-4.6391800595
 20
14.5994702537
 30
0.0
  0
ELLIPSE
  5
64D
100
AcDbEntity
  8
0
100
AcDbEllipse
 62
7
  6
CONTINUOUS
 10
24.1034393717
 20
24.249996573
 30
0.0
 11
0.1767815418
 21
-0.1767815418
 31
0.0
 40
0.9999725851
 41
2.3562081979
 42
3.9269771093
  0
ELLIPSE
  5
64E
100
AcDbEntity
  8
0
100
AcDbEllipse
 62
7
  6
CONTINUOUS
 10
25.8784325177
 20
24.249996573
 30
0.0
 11
-0.1767815418
 21
-0.1767815418
 31
0.0
 40
0.9999725851
 41
2.3562081979
 42
3.9269771093
  0
ELLIPSE
  5
64F
100
AcDbEntity
  8
0
100
AcDbEllipse
 62
7
  6
CONTINUOUS
 10
5.2284393717
 20
24.249996573
 30
0.0
 11
0.1767815418
 21
-0.1767815418
 31
0.0
 40
0.9999725851
 41
2.3562081979
 42
3.9269771093
  0
ELLIPSE
  5
650
100
AcDbEntity
  8
0
100
AcDbEllipse
 62
7
  6
CONTINUOUS
 10
7.0034325177
 20
24.249996573
 30
0.0
 11
-0.1767815418
 21
-0.1767815418
 31
0.0
 40
0.9999725851
 41
2.3562081979
 42
3.9269771093
  0
ELLIPSE
  5
651
100
AcDbEntity
  8
0
100
AcDbEllipse
 62
7
  6
CONTINUOUS
 10
24.1034393717
 20
-24.249996573
 30
0.0
 11
0.1767815418
 21
0.1767815418
 31
0.0
 40
0.9999725851
 41
2.3562081979
 42
3.9269771093
  0
ELLIPSE
  5
652
100
AcDbEntity
  8
0
100
AcDbEllipse
 62
7
  6
CONTINUOUS
 10
25.8784325177
 20
-24.249996573
 30
0.0
 11
-0.1767815418
 21
0.1767815418
 31
0.0
 40
0.9999725851
 41
2.3562081979
 42
3.9269771093
  0
ELLIPSE
  5
653
100
AcDbEntity
  8
0
100
AcDbEllipse
 62
7
  6
CONTINUOUS
 10
5.2284393717
 20
-24.249996573
 30
0.0
 11
0.1767815418
 21
0.1767815418
 31
0.0
 40
0.9999725851
 41
2.3562081979
 42
3.9269771093
  0
ELLIPSE
  5
654
100
AcDbEntity
  8
0
100
AcDbEllipse
 62
7
  6
CONTINUOUS
 10
7.0034325177
 20
-24.249996573
 30
0.0
 11
-0.1767815418
 21
0.1767815418
 31
0.0
 40
0.9999725851
 41
2.3562081979
 42
3.9269771093
  0
ELLIPSE
  5
655
100
AcDbEntity
  8
0
100
AcDbEllipse
 62
7
  6
CONTINUOUS
 10
-17.2715606283
 20
-24.249996573
 30
0.0
 11
0.1767815418
 21
0.1767815418
 31
0.0
 40
0.9999725851
 41
2.3562081979
 42
3.9269771093
  0
ELLIPSE
  5
656
100
AcDbEntity
  8
0
100
AcDbEllipse
 62
7
  6
CONTINUOUS
 10
-15.4965674823
 20
-24.249996573
 30
0.0
 11
-0.1767815418
 21
0.1767815418
 31
0.0
 40
0.9999725851
 41
2.3562081979
 42
3.9269771093
  0
ELLIPSE
  5
657
100
AcDbEntity
  8
0
100
AcDbEllipse
 62
7
  6
CONTINUOUS
 10
1.6034393717
 20
-24.249996573
 30
0.0
 11
0.1767815418
 21
0.1767815418
 31
0.0
 40
0.9999725851
 41
2.3562081979
 42
3.9269771093
  0
ELLIPSE
  5
658
100
AcDbEntity
  8
0
100
AcDbEllipse
 62
7
  6
CONTINUOUS
 10
3.3784325177
 20
-24.249996573
 30
0.0
 11
-0.1767815418
 21
0.1767815418
 31
0.0
 40
0.9999725851
 41
2.3562081979
 42
3.9269771093
  0
ELLIPSE
  5
659
100
AcDbEntity
  8
0
100
AcDbEllipse
 62
7
  6
CONTINUOUS
 10
-15.4965674823
 20
24.249996573
 30
0.0
 11
-0.1767815418
 21
-0.1767815418
 31
0.0
 40
0.9999725851
 41
2.3562081979
 42
3.9269771093
  0
ELLIPSE
  5
65A
100
AcDbEntity
  8
0
100
AcDbEllipse
 62
7
  6
CONTINUOUS
 10
-17.2715606283
 20
24.249996573
 30
0.0
 11
0.1767815418
 21
-0.1767815418
 31
0.0
 40
0.9999725851
 41
2.3562081979
 42
3.9269771093
  0
ELLIPSE
  5
65B
100
AcDbEntity
  8
0
100
AcDbEllipse
 62
7
  6
CONTINUOUS
 10
3.3784325177
 20
24.249996573
 30
0.0
 11
-0.1767815418
 21
-0.1767815418
 31
0.0
 40
0.9999725851
 41
2.3562081979
 42
3.9269771093
  0
ELLIPSE
  5
65C
100
AcDbEntity
  8
0
100
AcDbEllipse
 62
7
  6
CONTINUOUS
 10
1.6034393717
 20
24.249996573
 30
0.0
 11
0.1767815418
 21
-0.1767815418
 31
0.0
 40
0.9999725851
 41
2.3562081979
 42
3.9269771093
  0
ELLIPSE
  5
65D
100
AcDbEntity
  8
DRAFT
100
AcDbEllipse
 62
7
  6
CONTINUOUS
 10
-3.8223702931
 20
0.0
 30
0.0
 11
0.0
 21
498.5
 31
0.0
 40
0.0087268678
 41
-1.530367901
 42
-1.5297610942
  0
ELLIPSE
  5
65E
100
AcDbEntity
  8
0
100
AcDbEllipse
 62
7
  6
CONTINUOUS
 10
26.1446900378
 20
21.8441737085
 30
0.0
 11
-0.4160498344
 21
-0.2773626446
 31
0.0
 40
0.9999450019
 41
2.5536219432
 42
4.1243675013
  0
ELLIPSE
  5
65F
100
AcDbEntity
  8
DRAFT
100
AcDbEllipse
 62
7
  6
CONTINUOUS
 10
12.4292421826
 20
0.0
 30
0.0
 11
0.0
 21
498.5
 31
0.0
 40
0.0087268678
 41
1.5297610942
 42
1.530367901
  0
ELLIPSE
  5
660
100
AcDbEntity
  8
DRAFT
100
AcDbEllipse
 62
7
  6
CONTINUOUS
 10
18.6776297069
 20
0.0
 30
0.0
 11
0.0
 21
498.5
 31
0.0
 40
0.0087268678
 41
-1.5382529662
 42
-1.5297610942
  0
ELLIPSE
  5
661
100
AcDbEntity
  8
0
100
AcDbEllipse
 62
7
  6
CONTINUOUS
 10
79.4944734483
 20
0.0
 30
0.0
 11
498.8040429346
 21
-498.1959568395
 31
0.0
 40
0.0348994837
 41
-1.6467594301
 42
-1.6453491642
  0
ELLIPSE
  5
662
100
AcDbEntity
  8
0
100
AcDbEllipse
 62
7
  6
CONTINUOUS
 10
33.6976902271
 20
0.0
 30
0.0
 11
0.0
 21
498.5
 31
0.0
 40
0.0174550649
 41
1.5311713602
 42
1.6104212934
  0
ELLIPSE
  5
663
100
AcDbEntity
  8
0
100
AcDbEllipse
 62
7
  6
CONTINUOUS
 10
79.4944734483
 20
0.0
 30
0.0
 11
498.8040429346
 21
498.1959568395
 31
0.0
 40
0.0348994837
 41
1.6453491642
 42
1.6467594301
  0
ELLIPSE
  5
664
100
AcDbEntity
  8
DRAFT
100
AcDbEllipse
 62
7
  6
CONTINUOUS
 10
18.6776297069
 20
0.0
 30
0.0
 11
0.0
 21
498.5
 31
0.0
 40
0.0087268678
 41
-1.6118315594
 42
-1.6033396874
  0
ELLIPSE
  5
665
100
AcDbEntity
  8
DRAFT
100
AcDbEllipse
 62
7
  6
CONTINUOUS
 10
26.2292421826
 20
0.0
 30
0.0
 11
0.0
 21
498.5
 31
0.0
 40
0.0087268678
 41
-4.6798456198
 42
-4.6726013409
  0
ELLIPSE
  5
666
100
AcDbEntity
  8
DRAFT
100
AcDbEllipse
 62
7
  6
CONTINUOUS
 10
12.4292421826
 20
0.0
 30
0.0
 11
0.0
 21
498.5
 31
0.0
 40
0.0087268678
 41
-4.6719605546
 42
-4.6713537478
  0
ELLIPSE
  5
667
100
AcDbEntity
  8
DRAFT
100
AcDbEllipse
 62
7
  6
CONTINUOUS
 10
-3.8223702931
 20
0.0
 30
0.0
 11
0.0
 21
498.5
 31
0.0
 40
0.0087268678
 41
-1.6118315594
 42
-1.6112247526
  0
ELLIPSE
  5
668
100
AcDbEntity
  8
DRAFT
100
AcDbEllipse
 62
7
  6
CONTINUOUS
 10
-17.6223702931
 20
0.0
 30
0.0
 11
0.0
 21
498.5
 31
0.0
 40
0.0087268678
 41
-1.6105839663
 42
-1.6033396874
  0
ELLIPSE
  5
669
100
AcDbEntity
  8
DRAFT
100
AcDbEllipse
 62
7
  6
CONTINUOUS
 10
-10.0707578174
 20
0.0
 30
0.0
 11
0.0
 21
498.5
 31
0.0
 40
0.0087268678
 41
-4.6798456198
 42
-4.6713537478
  0
ELLIPSE
  5
66A
100
AcDbEntity
  8
0
100
AcDbEllipse
 62
7
  6
CONTINUOUS
 10
-70.8876015588
 20
0.0
 30
0.0
 11
498.8040429346
 21
-498.1959568395
 31
0.0
 40
0.0348994837
 41
1.4948332235
 42
1.4962434894
  0
ELLIPSE
  5
66B
100
AcDbEntity
  8
0
100
AcDbEllipse
 62
7
  6
CONTINUOUS
 10
-25.0908183376
 20
0.0
 30
0.0
 11
0.0
 21
498.5
 31
0.0
 40
0.0174550649
 41
-1.6104212934
 42
-1.593477103
  0
ELLIPSE
  5
66C
100
AcDbEntity
  8
0
100
AcDbEllipse
 62
7
  6
CONTINUOUS
 10
-25.0908183376
 20
0.0
 30
0.0
 11
0.0
 21
498.5
 31
0.0
 40
0.0174550649
 41
-1.5868345888
 42
-1.5750089843
  0
ELLIPSE
  5
66D
100
AcDbEntity
  8
0
100
AcDbEllipse
 62
7
  6
CONTINUOUS
 10
-25.0908183376
 20
-0.0
 30
0.0
 11
0.0
 21
498.5
 31
0.0
 40
0.0174550649
 41
-1.5665836693
 42
-1.5547580648
  0
ELLIPSE
  5
66E
100
AcDbEntity
  8
0
100
AcDbEllipse
 62
7
  6
CONTINUOUS
 10
-25.0908183376
 20
0.0
 30
0.0
 11
0.0
 21
498.5
 31
0.0
 40
0.0174550649
 41
-1.5481155506
 42
-1.5311713602
  0
ELLIPSE
  5
66F
100
AcDbEntity
  8
0
100
AcDbEllipse
 62
7
  6
CONTINUOUS
 10
-70.8876015588
 20
0.0
 30
0.0
 11
498.8040429346
 21
498.1959568395
 31
0.0
 40
0.0348994837
 41
-1.4962434894
 42
-1.4948332235
  0
ELLIPSE
  5
670
100
AcDbEntity
  8
DRAFT
100
AcDbEllipse
 62
7
  6
CONTINUOUS
 10
-10.0707578174
 20
0.0
 30
0.0
 11
0.0
 21
498.5
 31
0.0
 40
0.0087268678
 41
1.5297610942
 42
1.5382529662
  0
ELLIPSE
  5
671
100
AcDbEntity
  8
DRAFT
100
AcDbEllipse
 62
7
  6
CONTINUOUS
 10
-17.6223702931
 20
0.0
 30
0.0
 11
0.0
 21
498.5
 31
0.0
 40
0.0087268678
 41
-1.5382529662
 42
-1.5310086873
  0
ELLIPSE
  5
672
100
AcDbEntity
  8
0
100
AcDbEllipse
 62
7
  6
CONTINUOUS
 10
-10.5032886959
 20
-23.2659657686
 30
0.0
 11
-0.0
 21
0.5
 31
0.0
 40
0.0087268678
 41
-3.3421046127
 42
-3.1520646291
  0
ELLIPSE
  5
673
100
AcDbEntity
  8
0
100
AcDbEllipse
 62
7
  6
CONTINUOUS
 10
-3.3898394146
 20
-23.2659657686
 30
0.0
 11
0.0
 21
0.5
 31
0.0
 40
0.0087268678
 41
-3.1311206781
 42
-2.9410806945
  0
ELLIPSE
  5
674
100
AcDbEntity
  8
0
100
AcDbEllipse
 62
7
  6
CONTINUOUS
 10
-3.3898394146
 20
23.2659657686
 30
0.0
 11
0.0
 21
0.5
 31
0.0
 40
0.0087268678
 41
-0.2005119591
 42
-0.0104719755
  0
ELLIPSE
  5
675
100
AcDbEntity
  8
0
100
AcDbEllipse
 62
7
  6
CONTINUOUS
 10
-10.5032886959
 20
23.2659657686
 30
0.0
 11
-0.0
 21
0.5
 31
0.0
 40
0.0087268678
 41
0.0104719755
 42
0.2005119591
  0
ELLIPSE
  5
676
100
AcDbEntity
  8
0
100
AcDbEllipse
 62
7
  6
CONTINUOUS
 10
19.514953737
 20
-22.3058074126
 30
0.0
 11
0.4039394627
 21
-0.0
 31
0.0
 40
0.0058178298
 41
0.0052359878
 42
3.1328660073
  0
ELLIPSE
  5
677
100
AcDbEntity
  8
0
100
AcDbEllipse
 62
7
  6
CONTINUOUS
 10
23.120081599
 20
-21.9537669705
 30
0.0
 11
0.4999904798
 21
0.5000285596
 31
0.0
 40
0.0061705924
 41
0.0112823085
 42
0.9916959574
  0
ELLIPSE
  5
678
100
AcDbEntity
  8
0
100
AcDbEllipse
 62
7
  6
CONTINUOUS
 10
7.9867902905
 20
-21.9537669705
 30
0.0
 11
-0.4999904798
 21
0.5000285596
 31
0.0
 40
0.0061705924
 41
-0.9916959574
 42
-0.0112823085
  0
ELLIPSE
  5
679
100
AcDbEntity
  8
0
100
AcDbEllipse
 62
7
  6
CONTINUOUS
 10
7.9867902905
 20
21.9537669705
 30
0.0
 11
0.4999904798
 21
0.5000285596
 31
0.0
 40
0.0061705924
 41
-3.1303103451
 42
-2.1498966962
  0
ELLIPSE
  5
67A
100
AcDbEntity
  8
0
100
AcDbEllipse
 62
7
  6
CONTINUOUS
 10
23.120081599
 20
21.9537669705
 30
0.0
 11
-0.4999904798
 21
0.5000285596
 31
0.0
 40
0.0061705924
 41
-4.133288611
 42
-3.1528749621
  0
ELLIPSE
  5
67B
100
AcDbEntity
  8
0
100
AcDbEllipse
 62
7
  6
CONTINUOUS
 10
0.620081599
 20
-21.9537669705
 30
0.0
 11
0.4999904798
 21
0.5000285596
 31
0.0
 40
0.0061705924
 41
0.0112823085
 42
0.9916959574
  0
ELLIPSE
  5
67C
100
AcDbEntity
  8
0
100
AcDbEllipse
 62
7
  6
CONTINUOUS
 10
-14.5132097095
 20
-21.9537669705
 30
0.0
 11
-0.4999904798
 21
0.5000285596
 31
0.0
 40
0.0061705924
 41
-0.9916959574
 42
-0.0112823085
  0
ELLIPSE
  5
67D
100
AcDbEntity
  8
0
100
AcDbEllipse
 62
7
  6
CONTINUOUS
 10
-14.5132097095
 20
21.9537669705
 30
0.0
 11
0.4999904798
 21
0.5000285596
 31
0.0
 40
0.0061705924
 41
-3.1303103451
 42
-2.1498966962
  0
ELLIPSE
  5
67E
100
AcDbEntity
  8
0
100
AcDbEllipse
 62
7
  6
CONTINUOUS
 10
0.620081599
 20
21.9537669705
 30
0.0
 11
-0.4999904798
 21
0.5000285596
 31
0.0
 40
0.0061705924
 41
-4.133288611
 42
-3.1528749621
  0
ELLIPSE
  5
67F
100
AcDbEntity
  8
0
100
AcDbEllipse
 62
7
  6
CONTINUOUS
 10
23.120081599
 20
-20.9916321118
 30
0.0
 11
0.5
 21
-0.0
 31
0.0
 40
0.0087268678
 41
-1.5707963268
 42
-0.0174532925
  0
ELLIPSE
  5
680
100
AcDbEntity
  8
0
100
AcDbEllipse
 62
7
  6
CONTINUOUS
 10
7.9867902905
 20
-20.9916321118
 30
0.0
 11
0.5
 21
-0.0
 31
0.0
 40
0.0087268678
 41
-3.1241393611
 42
-1.5707963268
  0
ELLIPSE
  5
681
100
AcDbEntity
  8
0
100
AcDbEllipse
 62
7
  6
CONTINUOUS
 10
0.620081599
 20
-20.9916321118
 30
0.0
 11
0.5
 21
-0.0
 31
0.0
 40
0.0087268678
 41
-1.5707963268
 42
-0.0174532925
  0
ELLIPSE
  5
682
100
AcDbEntity
  8
0
100
AcDbEllipse
 62
7
  6
CONTINUOUS
 10
0.620081599
 20
20.9916321118
 30
0.0
 11
0.5
 21
-0.0
 31
0.0
 40
0.0087268678
 41
0.0174532925
 42
1.5707963268
  0
ELLIPSE
  5
683
100
AcDbEntity
  8
0
100
AcDbEllipse
 62
7
  6
CONTINUOUS
 10
7.9867902905
 20
20.9916321118
 30
0.0
 11
0.5
 21
-0.0
 31
0.0
 40
0.0087268678
 41
1.5707963268
 42
3.1241393611
  0
ELLIPSE
  5
684
100
AcDbEntity
  8
0
100
AcDbEllipse
 62
7
  6
CONTINUOUS
 10
23.120081599
 20
20.9916321118
 30
0.0
 11
0.5
 21
0.0
 31
0.0
 40
0.0087268678
 41
0.0174532925
 42
1.5707963268
  0
ELLIPSE
  5
685
100
AcDbEntity
  8
0
100
AcDbEllipse
 62
7
  6
CONTINUOUS
 10
-14.5132097095
 20
-20.9916321118
 30
0.0
 11
0.5
 21
-0.0
 31
0.0
 40
0.0087268678
 41
-3.1241393611
 42
-1.5707963268
  0
ELLIPSE
  5
686
100
AcDbEntity
  8
0
100
AcDbEllipse
 62
7
  6
CONTINUOUS
 10
-14.5132097095
 20
20.9916321118
 30
0.0
 11
0.5
 21
-0.0
 31
0.0
 40
0.0087268678
 41
1.5707963268
 42
3.1241393611
  0
ELLIPSE
  5
687
100
AcDbEntity
  8
0
100
AcDbEllipse
 62
7
  6
CONTINUOUS
 10
-17.5378181483
 20
21.8441737085
 30
0.0
 11
-0.4160498344
 21
0.2773626446
 31
0.0
 40
0.9999450019
 41
-0.9827748477
 42
0.5879707104
  0
ELLIPSE
  5
688
100
AcDbEntity
  8
0
100
AcDbEllipse
 62
7
  6
CONTINUOUS
 10
11.5919181524
 20
-22.3058074126
 30
0.0
 11
0.4039394627
 21
-0.0
 31
0.0
 40
0.0058178298
 41
0.0087266463
 42
3.1363566658
  0
ELLIPSE
  5
689
100
AcDbEntity
  8
0
100
AcDbEllipse
 62
7
  6
CONTINUOUS
 10
19.514953737
 20
22.3058074126
 30
0.0
 11
0.4039394627
 21
-0.0
 31
0.0
 40
0.0058178298
 41
-3.1328660073
 42
-0.0052359878
  0
ELLIPSE
  5
68A
100
AcDbEntity
  8
0
100
AcDbEllipse
 62
7
  6
CONTINUOUS
 10
11.5919181524
 20
22.3058074126
 30
0.0
 11
0.4039394627
 21
0.0
 31
0.0
 40
0.0058178298
 41
-3.1363566658
 42
-0.0087266463
  0
ELLIPSE
  5
68B
100
AcDbEntity
  8
0
100
AcDbEllipse
 62
7
  6
CONTINUOUS
 10
-10.9080818476
 20
-22.3058074126
 30
0.0
 11
0.4039394627
 21
-0.0
 31
0.0
 40
0.0058178298
 41
0.0087266463
 42
3.1363566658
  0
ELLIPSE
  5
68C
100
AcDbEntity
  8
0
100
AcDbEllipse
 62
7
  6
CONTINUOUS
 10
-17.5378181483
 20
-21.8441737085
 30
0.0
 11
0.4160498344
 21
0.2773626446
 31
0.0
 40
0.9999450019
 41
2.5536219432
 42
4.1243675013
  0
ELLIPSE
  5
68D
100
AcDbEntity
  8
0
100
AcDbEllipse
 62
7
  6
CONTINUOUS
 10
-2.985046263
 20
-22.3058074126
 30
0.0
 11
0.4039394627
 21
-0.0
 31
0.0
 40
0.0058178298
 41
0.0052359878
 42
3.1328660073
  0
ELLIPSE
  5
68E
100
AcDbEntity
  8
0
100
AcDbEllipse
 62
7
  6
CONTINUOUS
 10
-2.985046263
 20
22.3058074126
 30
0.0
 11
0.4039394627
 21
0.0
 31
0.0
 40
0.0058178298
 41
-3.1328660073
 42
-0.0052359878
  0
ELLIPSE
  5
68F
100
AcDbEntity
  8
0
100
AcDbEllipse
 62
7
  6
CONTINUOUS
 10
-10.9080818476
 20
22.3058074126
 30
0.0
 11
0.4039394627
 21
-0.0
 31
0.0
 40
0.0058178298
 41
-3.1363566658
 42
-0.0087266463
  0
ELLIPSE
  5
690
100
AcDbEntity
  8
0
100
AcDbEllipse
 62
7
  6
CONTINUOUS
 10
11.9967113041
 20
-23.2659657686
 30
0.0
 11
-0.0
 21
0.5
 31
0.0
 40
0.0087268678
 41
-3.3421046127
 42
-3.1520646291
  0
ELLIPSE
  5
691
100
AcDbEntity
  8
0
100
AcDbEllipse
 62
7
  6
CONTINUOUS
 10
19.1101605854
 20
-23.2659657686
 30
0.0
 11
0.0
 21
0.5
 31
0.0
 40
0.0087268678
 41
-3.1311206781
 42
-2.9410806945
  0
ELLIPSE
  5
692
100
AcDbEntity
  8
0
100
AcDbEllipse
 62
7
  6
CONTINUOUS
 10
26.1446900378
 20
-21.8441737085
 30
0.0
 11
0.4160498344
 21
-0.2773626446
 31
0.0
 40
0.9999450019
 41
-0.9827748477
 42
0.5879707104
  0
ELLIPSE
  5
693
100
AcDbEntity
  8
0
100
AcDbEllipse
 62
7
  6
CONTINUOUS
 10
19.1101605854
 20
23.2659657686
 30
0.0
 11
0.0
 21
0.5
 31
0.0
 40
0.0087268678
 41
-0.2005119591
 42
-0.0104719755
  0
ELLIPSE
  5
694
100
AcDbEntity
  8
0
100
AcDbEllipse
 62
7
  6
CONTINUOUS
 10
11.9967113041
 20
23.2659657686
 30
0.0
 11
0.0
 21
0.5
 31
0.0
 40
0.0087268678
 41
0.0104719755
 42
0.2005119591
  0
ELLIPSE
  5
695
100
AcDbEntity
  8
0
100
AcDbEllipse
 62
7
  6
CONTINUOUS
 10
11.1874701762
 20
23.2659657686
 30
0.0
 11
0.0
 21
0.5
 31
0.0
 40
0.0052360356
 41
-0.1976351831
 42
-0.0104719755
  0
ELLIPSE
  5
696
100
AcDbEntity
  8
0
100
AcDbEllipse
 62
7
  6
CONTINUOUS
 10
19.9194017133
 20
23.2659657686
 30
0.0
 11
0.0
 21
0.5
 31
0.0
 40
0.0052360356
 41
0.0104719755
 42
0.1976351831
  0
ELLIPSE
  5
697
100
AcDbEntity
  8
0
100
AcDbEllipse
 62
7
  6
CONTINUOUS
 10
19.9194017133
 20
-23.2659657686
 30
0.0
 11
-0.0
 21
0.5
 31
0.0
 40
0.0052360356
 41
-3.3392278367
 42
-3.1520646291
  0
ELLIPSE
  5
698
100
AcDbEntity
  8
0
100
AcDbEllipse
 62
7
  6
CONTINUOUS
 10
11.1874701762
 20
-23.2659657686
 30
0.0
 11
0.0
 21
0.5
 31
0.0
 40
0.0052360356
 41
-3.1311206781
 42
-2.9439574705
  0
ELLIPSE
  5
699
100
AcDbEntity
  8
0
100
AcDbEllipse
 62
7
  6
CONTINUOUS
 10
-11.3125298238
 20
23.2659657686
 30
0.0
 11
-0.0
 21
0.5
 31
0.0
 40
0.0052360356
 41
-0.1976351831
 42
-0.0104719755
  0
ELLIPSE
  5
69A
100
AcDbEntity
  8
0
100
AcDbEllipse
 62
7
  6
CONTINUOUS
 10
-2.5805982867
 20
23.2659657686
 30
0.0
 11
0.0
 21
0.5
 31
0.0
 40
0.0052360356
 41
0.0104719755
 42
0.1976351831
  0
ELLIPSE
  5
69B
100
AcDbEntity
  8
0
100
AcDbEllipse
 62
7
  6
CONTINUOUS
 10
-2.5805982867
 20
-23.2659657686
 30
0.0
 11
0.0
 21
0.5
 31
0.0
 40
0.0052360356
 41
-3.3392278367
 42
-3.1520646291
  0
ELLIPSE
  5
69C
100
AcDbEntity
  8
0
100
AcDbEllipse
 62
7
  6
CONTINUOUS
 10
-11.3125298238
 20
-23.2659657686
 30
0.0
 11
0.0
 21
0.5
 31
0.0
 40
0.0052360356
 41
-3.1311206781
 42
-2.9439574705
  0
ELLIPSE
  5
69D
100
AcDbEntity
  8
0
100
AcDbEllipse
 62
7
  6
CONTINUOUS
 10
12.4661672668
 20
21.2859869487
 30
0.0
 11
0.0
 21
1.0
 31
0.0
 40
0.0087268678
 41
0.0058177642
 42
1.5707963268
  0
ELLIPSE
  5
69E
100
AcDbEntity
  8
0
100
AcDbEllipse
 62
7
  6
CONTINUOUS
 10
7.3128394413
 20
21.2859869487
 30
0.0
 11
1.0000571192
 21
0.9999809595
 31
0.0
 40
0.0061705924
 41
-1.1623135715
 42
0.0003532199
  0
ELLIPSE
  5
69F
100
AcDbEntity
  8
0
100
AcDbEllipse
 62
7
  6
CONTINUOUS
 10
18.6407046226
 20
21.2859869487
 30
0.0
 11
0.0
 21
1.0
 31
0.0
 40
0.0087268678
 41
-1.5707963268
 42
-0.0058177642
  0
ELLIPSE
  5
6A0
100
AcDbEntity
  8
0
100
AcDbEllipse
 62
7
  6
CONTINUOUS
 10
23.7940324482
 20
21.2859869487
 30
0.0
 11
1.0000571192
 21
-0.9999809595
 31
0.0
 40
0.0061705924
 41
3.1412394337
 42
4.303906225
  0
ELLIPSE
  5
6A1
100
AcDbEntity
  8
0
100
AcDbEllipse
 62
7
  6
CONTINUOUS
 10
18.6407046226
 20
-21.2859869487
 30
0.0
 11
0.0
 21
1.0
 31
0.0
 40
0.0087268678
 41
-3.1357748894
 42
-1.5707963268
  0
ELLIPSE
  5
6A2
100
AcDbEntity
  8
0
100
AcDbEllipse
 62
7
  6
CONTINUOUS
 10
23.7940324482
 20
-21.2859869487
 30
0.0
 11
1.0000571192
 21
0.9999809595
 31
0.0
 40
0.0061705924
 41
1.9792790821
 42
3.1419458735
  0
ELLIPSE
  5
6A3
100
AcDbEntity
  8
0
100
AcDbEllipse
 62
7
  6
CONTINUOUS
 10
12.4661672668
 20
-21.2859869487
 30
0.0
 11
-0.0
 21
1.0
 31
0.0
 40
0.0087268678
 41
-4.7123889804
 42
-3.1474104178
  0
ELLIPSE
  5
6A4
100
AcDbEntity
  8
0
100
AcDbEllipse
 62
7
  6
CONTINUOUS
 10
7.3128394413
 20
-21.2859869487
 30
0.0
 11
1.0000571192
 21
-0.9999809595
 31
0.0
 40
0.0061705924
 41
-0.0003532199
 42
1.1623135715
  0
ELLIPSE
  5
6A5
100
AcDbEntity
  8
0
100
AcDbEllipse
 62
7
  6
CONTINUOUS
 10
-3.8592953774
 20
21.2859869487
 30
0.0
 11
0.0
 21
1.0
 31
0.0
 40
0.0087268678
 41
-1.5707963268
 42
-0.0058177642
  0
ELLIPSE
  5
6A6
100
AcDbEntity
  8
0
100
AcDbEllipse
 62
7
  6
CONTINUOUS
 10
1.2940324482
 20
21.2859869487
 30
0.0
 11
1.0000571192
 21
-0.9999809595
 31
0.0
 40
0.0061705924
 41
3.1412394337
 42
4.303906225
  0
ELLIPSE
  5
6A7
100
AcDbEntity
  8
0
100
AcDbEllipse
 62
7
  6
CONTINUOUS
 10
-15.1871605587
 20
21.2859869487
 30
0.0
 11
1.0000571192
 21
0.9999809595
 31
0.0
 40
0.0061705924
 41
-1.1623135715
 42
0.0003532199
  0
ELLIPSE
  5
6A8
100
AcDbEntity
  8
0
100
AcDbEllipse
 62
7
  6
CONTINUOUS
 10
-10.0338327332
 20
21.2859869487
 30
0.0
 11
0.0
 21
1.0
 31
0.0
 40
0.0087268678
 41
0.0058177642
 42
1.5707963268
  0
ELLIPSE
  5
6A9
100
AcDbEntity
  8
0
100
AcDbEllipse
 62
7
  6
CONTINUOUS
 10
-10.0338327332
 20
-21.2859869487
 30
0.0
 11
-0.0
 21
1.0
 31
0.0
 40
0.0087268678
 41
-4.7123889804
 42
-3.1474104178
  0
ELLIPSE
  5
6AA
100
AcDbEntity
  8
0
100
AcDbEllipse
 62
7
  6
CONTINUOUS
 10
-15.1871605587
 20
-21.2859869487
 30
0.0
 11
1.0000571192
 21
-0.9999809595
 31
0.0
 40
0.0061705924
 41
-0.0003532199
 42
1.1623135715
  0
ELLIPSE
  5
6AB
100
AcDbEntity
  8
0
100
AcDbEllipse
 62
7
  6
CONTINUOUS
 10
1.2940324482
 20
-21.2859869487
 30
0.0
 11
1.0000571192
 21
0.9999809595
 31
0.0
 40
0.0061705924
 41
1.9792790821
 42
3.1419458735
  0
ELLIPSE
  5
6AC
100
AcDbEntity
  8
0
100
AcDbEllipse
 62
7
  6
CONTINUOUS
 10
-3.8592953774
 20
-21.2859869487
 30
0.0
 11
0.0
 21
1.0
 31
0.0
 40
0.0087268678
 41
-3.1357748894
 42
-1.5707963268
  0
ENDSEC
  0
SECTION
  2
OBJECTS
  0
DICTIONARY
  5
C
100
AcDbDictionary
280
0
281
1
  3
ACAD_GROUP
350
D
  3
ACAD_MLINESTYLE
350
17
  3
ACAD_LAYOUT
350
1A
  3
ACAD_PLOTSETTINGS
350
19
  3
ACAD_PLOTSTYLENAME
350
E
  0
DICTIONARY
  5
D
102
{ACAD_REACTORS
330
C
102
}
100
AcDbDictionary
280
0
281
1
  0
ACDBDICTIONARYWDFLT
  5
E
102
{ACAD_REACTORS
330
C
102
}
100
AcDbDictionary
281
1
  3
Normal
350
F
100
AcDbDictionaryWithDefault
340
F
  0
DICTIONARY
  5
17
102
{ACAD_REACTORS
330
C
102
}
100
AcDbDictionary
280
0
281
1
  3
Standard
350
18
  0
DICTIONARY
  5
19
102
{ACAD_REACTORS
330
C
102
}
100
AcDbDictionary
281
1
  0
DICTIONARY
  5
1A
102
{ACAD_REACTORS
330
C
102
}
100
AcDbDictionary
281
1
  3
Model
350
6AD
  3
Layout1
350
6AE
  0
ACDBPLACEHOLDER
  5
F
102
{ACAD_REACTORS
330
E
102
}
  0
MLINESTYLE
  5
18
102
{ACAD_REACTORS
330
17
102
}
100
AcDbMlineStyle
  2
STANDARD
 70
0
  3

 62
256
 51
90.0
 52
90.0
 71
2
 49
0.5
 62
256
  6
BYLAYER
 49
-0.5
 62
256
  6
BYLAYER
  0
LAYOUT
  5
6AD
102
{ACAD_REACTORS
330
1A
102
}
100
AcDbPlotSettings
  1

  2
none_device
  4
ISO_A4_(297.00_x_210.00_MM)
  6

 40
0.0
 41
0.0
 42
0.0
 43
0.0
 44
297.0
 45
210.0
 46
0.0
 47
0.0
 48
0.0
 49
0.0
140
0.0
141
0.0
142
1.0
143
1.0
 70
1024
 72
1
 73
0
 74
0
  7

 75
0
147
1.0
148
0.0
149
0.0
100
AcDbLayout
  1
Model
 70
0
 71
0
 10
0.0
 20
0.0
 11
297.0
 21
210.0
 12
0.0
 22
0.0
 32
0.0
 14
0.0
 24
0.0
 34
0.0
 15
0.0
 25
0.0
 35
0.0
146
0.0
 13
0.0
 23
0.0
 33
0.0
 16
1.0
 26
0.0
 36
0.0
 17
0.0
 27
1.0
 37
0.0
 76
0
330
220
345
0
346
0
  0
LAYOUT
  5
6AE
102
{ACAD_REACTORS
330
1A
102
}
100
AcDbPlotSettings
  1

  2
none_device
  4
ISO_A4_(297.00_x_210.00_MM)
  6

 40
0.0
 41
0.0
 42
0.0
 43
0.0
 44
297.0
 45
210.0
 46
0.0
 47
0.0
 48
0.0
 49
0.0
140
0.0
141
0.0
142
1.0
143
1.0
 70
0
 72
1
 73
0
 74
0
  7

 75
0
147
1.0
148
0.0
149
0.0
100
AcDbLayout
  1
Layout1
 70
0
 71
1
 10
0.0
 20
0.0
 11
297.0
 21
210.0
 12
0.0
 22
0.0
 32
0.0
 14
0.0
 24
0.0
 34
0.0
 15
0.0
 25
0.0
 35
0.0
146
0.0
 13
0.0
 23
0.0
 33
0.0
 16
1.0
 26
0.0
 36
0.0
 17
0.0
 27
1.0
 37
0.0
 76
0
330
221
345
0
346
0
  0
ENDSEC
  0
EOF
