  0
SECTION
  2
HEADER
  9
$ACADVER
  1
AC1024
  9
$DWGCODEPAGE
  3
ANSI_1252
  9
$EXTMAX
 10
558.8
 20
431.8
 30
0.0
  9
$EXTMIN
 10
0.0
 20
0.0
 30
0.0
  9
$LIMMIN
 10
0.0
 20
0.0
  9
$LIMMAX
 10
558.8
 20
431.8
  9
$VIEWCTR
 10
279.4
 20
215.9
  9
$VIEWSIZE
 40
431.8
  9
$CLAYER
  8
0
  9
$LTSCALE
 40
30.734
  9
$CELTYPE
  6
BYLAYER
  9
$DIMSCALE
 40
1.0
  9
$DIMASZ
 40
3.0
  9
$DIMEXO
 40
0.5
  9
$DIMDLI
 40
21.2344
  9
$DIMEXE
 40
1.5
  9
$DIMCEN
 40
5.0292
  9
$DIMLFAC
 40
1.0
  9
$DIMBLK
  1
_FILLED
  9
$DIMALT
 70
0
  9
$DIMALTF
 40
0.0393700787
  9
$DIMTXT
 40
3.0
  9
$DIMTOL
 70
1
  9
$DIMLIM
 70
0
  9
$DIMTFAC
 40
1.0
  9
$DIMTP
 40
0.01
  9
$DIMTM
 40
0.01
  9
$DIMGAP
 40
0.625
  9
$DIMDSEP
 70
44
  9
$AUNITS
 70
0
  9
$PDMODE
 70
3
  9
$PDSIZE
 40
3.0
  9
$HANDSEED
  5
589
  9
$TILEMODE
 70
1
  9
$MEASUREMENT
 70
1
  9
$INSUNITS
 70
4
  0
ENDSEC
  0
SECTION
  2
CLASSES
  0
CLASS
  1
ACDBDICTIONARYWDFLT
  2
AcDbDictionaryWithDefault
  3
AutoCAD 2000
 90
0
 91
1
280
0
281
0
  0
CLASS
  1
ACDBPLACEHOLDER
  2
AcDbPlaceHolder
  3
AutoCAD 2000
 90
0
 91
1
280
0
281
0
  0
CLASS
  1
LAYOUT
  2
AcDbLayout
  3
AutoCAD 2000
 90
0
 91
0
280
0
281
0
  0
ENDSEC
  0
SECTION
  2
TABLES
  0
TABLE
  2
VPORT
  5
8
100
AcDbSymbolTable
 70
2
  0
VPORT
  5
1F4
100
AcDbSymbolTableRecord
100
AcDbViewportTableRecord
  2
*ACTIVE
 70
0
 10
0.0
 20
0.0
 11
1.0
 21
1.0
 12
279.4
 22
215.9
 13
0.0
 23
0.0
 14
1.0
 24
1.0
 15
0.0
 25
0.0
 16
0.0
 26
0.0
 36
1.0
 17
0.0
 27
0.0
 37
0.0
 40
431.8
 41
1.2941176471
 42
50.0
 43
0.0
 44
0.0
 50
0.0
 51
0.0
 71
0
 72
100
 73
1
 74
1
 75
0
 76
0
 77
0
 78
0
  0
ENDTAB
  0
TABLE
  2
LTYPE
  5
5
100
AcDbSymbolTable
 70
6
  0
LTYPE
  5
14
100
AcDbSymbolTableRecord
100
AcDbLinetypeTableRecord
  2
BYBLOCK
 70
0
  3

 72
65
 73
0
 40
0.0
  0
LTYPE
  5
15
100
AcDbSymbolTableRecord
100
AcDbLinetypeTableRecord
  2
BYLAYER
 70
0
  3

 72
65
 73
0
 40
0.0
  0
LTYPE
  5
16
100
AcDbSymbolTableRecord
100
AcDbLinetypeTableRecord
  2
CONTINUOUS
 70
64
  3
Solid line
 72
65
 73
0
 40
0.0
  0
LTYPE
  5
1F5
100
AcDbSymbolTableRecord
100
AcDbLinetypeTableRecord
  2
CENTER
 70
64
  3
____ _ ____ _ ____ _ ____ _ ____ _ ____ _ ____
 72
65
 73
4
 40
0.6
 49
0.375
 74
0
 49
-0.075
 74
0
 49
0.075
 74
0
 49
-0.075
 74
0
  0
LTYPE
  5
1F6
100
AcDbSymbolTableRecord
100
AcDbLinetypeTableRecord
  2
HIDDEN
 70
64
  3
- - - - - - - - - - - - - - - - - - - -
 72
65
 73
2
 40
0.2
 49
0.1
 74
0
 49
-0.1
 74
0
  0
LTYPE
  5
1F7
100
AcDbSymbolTableRecord
100
AcDbLinetypeTableRecord
  2
PHANTOM
 70
64
  3
_____ _ _ _____ _ _ _____ _ _ _____
 72
65
 73
6
 40
0.8
 49
0.45
 74
0
 49
-0.05
 74
0
 49
0.1
 74
0
 49
-0.05
 74
0
 49
0.1
 74
0
 49
-0.05
 74
0
  0
LTYPE
  5
1F8
100
AcDbSymbolTableRecord
100
AcDbLinetypeTableRecord
  2
DOT
 70
64
  3
. . . . . . . . . . . . . . . . . . . .
 72
65
 73
2
 40
0.2
 49
0.1
 74
0
 49
-0.1
 74
0
  0
LTYPE
  5
1F9
100
AcDbSymbolTableRecord
100
AcDbLinetypeTableRecord
  2
DASHED
 70
64
  3
- - - - - - - - - - - - - - - - - - - -
 72
65
 73
2
 40
0.2
 49
0.1
 74
0
 49
-0.1
 74
0
  0
ENDTAB
  0
TABLE
  2
LAYER
  5
2
100
AcDbSymbolTable
 70
36
  0
LAYER
  5
10
100
AcDbSymbolTableRecord
100
AcDbLayerTableRecord
  2
0
 70
0
 62
7
  6
CONTINUOUS
370
-3
390
F
  0
LAYER
  5
1FA
100
AcDbSymbolTableRecord
100
AcDbLayerTableRecord
  2
DEFAULT_1
 70
0
 62
7
  6
CENTER
370
-3
390
F
  0
LAYER
  5
1FB
100
AcDbSymbolTableRecord
100
AcDbLayerTableRecord
  2
DEFAULT_2
 70
0
 62
7
  6
HIDDEN
370
-3
390
F
  0
LAYER
  5
1FC
100
AcDbSymbolTableRecord
100
AcDbLayerTableRecord
  2
DEFAULT_3
 70
0
 62
7
  6
PHANTOM
370
-3
390
F
  0
LAYER
  5
1FD
100
AcDbSymbolTableRecord
100
AcDbLayerTableRecord
  2
ASSI
 70
0
 62
7
  6
CONTINUOUS
370
-3
390
F
  0
LAYER
  5
1FE
100
AcDbSymbolTableRecord
100
AcDbLayerTableRecord
  2
COORDINATE
 70
0
 62
7
  6
CONTINUOUS
370
-3
390
F
  0
LAYER
  5
1FF
100
AcDbSymbolTableRecord
100
AcDbLayerTableRecord
  2
COPY_PUBLISH
 70
0
 62
7
  6
CONTINUOUS
370
-3
390
F
  0
LAYER
  5
200
100
AcDbSymbolTableRecord
100
AcDbLayerTableRecord
  2
COSMETIC
 70
0
 62
7
  6
CONTINUOUS
370
-3
390
F
  0
LAYER
  5
201
100
AcDbSymbolTableRecord
100
AcDbLayerTableRecord
  2
COSMETICI
 70
0
 62
7
  6
CONTINUOUS
370
-3
390
F
  0
LAYER
  5
202
100
AcDbSymbolTableRecord
100
AcDbLayerTableRecord
  2
CURVE
 70
0
 62
7
  6
CONTINUOUS
370
-3
390
F
  0
LAYER
  5
203
100
AcDbSymbolTableRecord
100
AcDbLayerTableRecord
  2
DRAFT
 70
0
 62
7
  6
CONTINUOUS
370
-3
390
F
  0
LAYER
  5
204
100
AcDbSymbolTableRecord
100
AcDbLayerTableRecord
  2
IMPORT_IGES
 70
0
 62
7
  6
CONTINUOUS
370
-3
390
F
  0
LAYER
  5
205
100
AcDbSymbolTableRecord
100
AcDbLayerTableRecord
  2
INTFCLR_11
 70
0
 62
7
  6
CONTINUOUS
370
-3
390
F
  0
LAYER
  5
206
100
AcDbSymbolTableRecord
100
AcDbLayerTableRecord
  2
INTF_1
 70
0
 62
7
  6
CONTINUOUS
370
-3
390
F
  0
LAYER
  5
207
100
AcDbSymbolTableRecord
100
AcDbLayerTableRecord
  2
INTF_3
 70
0
 62
7
  6
CONTINUOUS
370
-3
390
F
  0
LAYER
  5
208
100
AcDbSymbolTableRecord
100
AcDbLayerTableRecord
  2
NOTE
 70
0
 62
7
  6
CONTINUOUS
370
-3
390
F
  0
LAYER
  5
209
100
AcDbSymbolTableRecord
100
AcDbLayerTableRecord
  2
PIANI
 70
0
 62
7
  6
CONTINUOUS
370
-3
390
F
  0
LAYER
  5
20A
100
AcDbSymbolTableRecord
100
AcDbLayerTableRecord
  2
PUNTI
 70
0
 62
7
  6
CONTINUOUS
370
-3
390
F
  0
LAYER
  5
20B
100
AcDbSymbolTableRecord
100
AcDbLayerTableRecord
  2
RACCORDO
 70
0
 62
7
  6
CONTINUOUS
370
-3
390
F
  0
LAYER
  5
20C
100
AcDbSymbolTableRecord
100
AcDbLayerTableRecord
  2
SIMBOLI
 70
0
 62
7
  6
CONTINUOUS
370
-3
390
F
  0
LAYER
  5
20D
100
AcDbSymbolTableRecord
100
AcDbLayerTableRecord
  2
SMUSSO
 70
0
 62
7
  6
CONTINUOUS
370
-3
390
F
  0
LAYER
  5
20E
100
AcDbSymbolTableRecord
100
AcDbLayerTableRecord
  2
SNAPLINE
 70
0
 62
7
  6
CONTINUOUS
370
-3
390
F
  0
LAYER
  5
20F
100
AcDbSymbolTableRecord
100
AcDbLayerTableRecord
  2
SUPERFICI
 70
0
 62
7
  6
CONTINUOUS
370
-3
390
F
  0
LAYER
  5
210
100
AcDbSymbolTableRecord
100
AcDbLayerTableRecord
  2
TRASH
 70
0
 62
7
  6
CONTINUOUS
370
-3
390
F
  0
LAYER
  5
211
100
AcDbSymbolTableRecord
100
AcDbLayerTableRecord
  2
___SHELL
 70
0
 62
7
  6
CONTINUOUS
370
-3
390
F
  0
ENDTAB
  0
TABLE
  2
STYLE
  5
3
100
AcDbSymbolTable
 70
1
  0
STYLE
  5
11
100
AcDbSymbolTableRecord
100
AcDbTextStyleTableRecord
  2
STANDARD
 70
0
 40
0.0
 41
0.8
 50
0.0
 71
0
 42
0.2
  3
txt
  4

  0
STYLE
  5
212
100
AcDbSymbolTableRecord
100
AcDbTextStyleTableRecord
  2
TEXTSTYLE_1
 70
0
 40
0.0
 41
0.8
 50
0.0
 71
0
 42
0.2
  3
gdt
  4

  0
ENDTAB
  0
TABLE
  2
VIEW
  5
6
100
AcDbSymbolTable
 70
0
  0
ENDTAB
  0
TABLE
  2
UCS
  5
7
100
AcDbSymbolTable
 70
0
  0
ENDTAB
  0
TABLE
  2
APPID
  5
9
100
AcDbSymbolTable
 70
1
  0
APPID
  5
213
100
AcDbSymbolTableRecord
100
AcDbRegAppTableRecord
  2
ACAD
 70
0
  0
ENDTAB
  0
TABLE
  2
BLOCK_RECORD
  5
1
100
AcDbSymbolTable
 70
0
  0
BLOCK_RECORD
  5
214
100
AcDbSymbolTableRecord
100
AcDbBlockTableRecord
  2
*Model_Space
  0
BLOCK_RECORD
  5
215
100
AcDbSymbolTableRecord
100
AcDbBlockTableRecord
  2
*Paper_Space
  0
BLOCK_RECORD
  5
216
100
AcDbSymbolTableRecord
100
AcDbBlockTableRecord
  2
_FILLED
  0
ENDTAB
  0
TABLE
  2
DIMSTYLE
  5
A
100
AcDbSymbolTable
 70
1
100
AcDbDimStyleTable
 71
0
  0
DIMSTYLE
105
217
100
AcDbSymbolTableRecord
100
AcDbDimStyleTableRecord
  2
STANDARD
 70
0
  3

  4

 40
1.0
 41
3.0
 42
0.5
 43
0.38
 44
1.5
 45
0.0
 46
0.0
 47
0.01
 48
0.01
140
3.0
141
0.09
142
0.0
143
25.4
144
1.0
145
0.0
146
1.0
147
0.625
 71
1
 72
0
 73
0
 74
0
 75
0
 76
0
 77
1
 78
8
 79
2
170
0
171
1
172
0
173
0
174
0
175
0
176
0
177
0
178
0
270
2
179
2
271
2
272
2
273
2
274
2
275
0
280
0
281
0
282
0
283
1
284
8
285
0
286
0
287
3
288
0
340
11
278
44
341
216
342
216
343
216
344
216
  0
ENDTAB
  0
ENDSEC
  0
SECTION
  2
BLOCKS
  0
BLOCK
  5
20
100
AcDbEntity
  8
0
100
AcDbBlockBegin
  2
*Model_Space
 70
0
 10
0.0
 20
0.0
 30
0.0
  3
*Model_Space
  1

  0
ENDBLK
  5
21
100
AcDbEntity
  8
0
100
AcDbBlockEnd
  0
BLOCK
  5
1C
100
AcDbEntity
  8
0
100
AcDbBlockBegin
  2
*Paper_Space
 70
0
 10
0.0
 20
0.0
 30
0.0
  3
*Paper_Space
  1

  0
ENDBLK
  5
1D
100
AcDbEntity
  8
0
100
AcDbBlockEnd
  0
BLOCK
  5
218
100
AcDbEntity
  8
0
100
AcDbBlockBegin
  2
_FILLED
 70
64
 10
0.0
 20
0.0
  3
_FILLED
  1

  0
SOLID
  5
219
100
AcDbEntity
  8
0
  6
BYBLOCK
 62
0
100
AcDbTrace
 10
0.0
 20
0.0
 11
-1.0
 21
0.3166666667
 12
-1.0
 22
-0.3166666667
 13
-1.0
 23
-0.3166666667
  0
ENDBLK
  5
21A
100
AcDbEntity
  8
0
  6
BYBLOCK
 62
0
100
AcDbBlockEnd
  0
ENDSEC
  0
SECTION
  2
ENTITIES
  0
LWPOLYLINE
  5
21B
100
AcDbEntity
  8
0
100
AcDbPolyline
 62
250
  6
CONTINUOUS
 90
37
 70
0
 10
283.6814747953
 20
173.5706015798
 10
283.7130687574
 20
173.5737452635
 10
283.7434883046
 20
173.5787011686
 10
283.7726373459
 20
173.5852774794
 10
283.8004010947
 20
173.593282388
 10
283.826763511
 20
173.6025337716
 10
283.8518007697
 20
173.6128774176
 10
283.8754893146
 20
173.6241610778
 10
283.8978084624
 20
173.6362357375
 10
283.9188487376
 20
173.648988127
 10
283.9386255664
 20
173.6623051273
 10
283.9571331628
 20
173.6760624506
 10
283.9744355644
 20
173.6901546113
 10
283.9905471889
 20
173.7044751963
 10
284.0055024785
 20
173.7189394473
 10
284.0193964264
 20
173.7334932825
 10
284.0322445076
 20
173.7480417059
 10
284.0440973605
 20
173.7625360947
 10
284.0550913708
 20
173.7770146745
 10
284.065253401
 20
173.7914220005
 10
284.0746140877
 20
173.8057172535
 10
284.0832946906
 20
173.8199828097
 10
284.0913167259
 20
173.8341845038
 10
284.0986997865
 20
173.8482935457
 10
284.1055393206
 20
173.8624171287
 10
284.1118472749
 20
173.8765328882
 10
284.1176335569
 20
173.8906218106
 10
284.1229670767
 20
173.9048079421
 10
284.127849224
 20
173.9190761417
 10
284.1322794052
 20
173.933412887
 10
284.1362994679
 20
173.9479524639
 10
284.1398993552
 20
173.9626830378
 10
284.1430669405
 20
173.9775931736
 10
284.1458158188
 20
173.9928219868
 10
284.148128702
 20
174.0084083056
 10
284.1499718734
 20
174.0242885027
 10
284.1513211057
 20
174.0404478901
  0
LWPOLYLINE
  5
21C
100
AcDbEntity
  8
0
100
AcDbPolyline
 62
250
  6
CONTINUOUS
 90
37
 70
0
 10
283.6814747953
 20
173.852509366
 10
283.6949755482
 20
173.8530793368
 10
283.7078634409
 20
173.8543032569
 10
283.7201384734
 20
173.8561811263
 10
283.7317978239
 20
173.8587828605
 10
283.7428443142
 20
173.862038544
 10
283.7532864099
 20
173.8657384308
 10
283.7631128421
 20
173.8698681959
 10
283.7723348797
 20
173.8744421644
 10
283.780994796
 20
173.8792935653
 10
283.7890903564
 20
173.8844134787
 10
283.7966237953
 20
173.8898108247
 10
283.8036440893
 20
173.8953455925
 10
283.8101438485
 20
173.9010041523
 10
283.8161304627
 20
173.906800134
 10
283.8216750779
 20
173.9126344171
 10
283.8267724511
 20
173.9184875376
 10
283.8314278254
 20
173.9243789597
 10
283.8357280759
 20
173.9302679552
 10
283.8396778392
 20
173.9361422719
 10
283.8432724787
 20
173.942014162
 10
283.8465849597
 20
173.9478796549
 10
283.849621995
 20
173.9537308564
 10
283.8523768717
 20
173.9595756605
 10
283.8549024166
 20
173.9654337792
 10
283.8572056277
 20
173.9712998934
 10
283.859279507
 20
173.9771793222
 10
283.8611558869
 20
173.9831077338
 10
283.8628419835
 20
173.9890818871
 10
283.8643305807
 20
173.9951050234
 10
283.8656318635
 20
174.0012225343
 10
283.8667534125
 20
174.0074329712
 10
283.8676876472
 20
174.0137377828
 10
283.8684220109
 20
174.0201867067
 10
283.868952318
 20
174.0267963222
 10
283.8692827542
 20
174.03355005
 10
283.8694133195
 20
174.0404478901
  0
LINE
  5
21D
100
AcDbEntity
  8
0
100
AcDbLine
 62
7
  6
CONTINUOUS
 10
262.7659240463
 20
173.4104619874
 11
283.8118412978
 21
173.4104619874
  0
LINE
  5
21E
100
AcDbEntity
  8
0
100
AcDbLine
 62
7
  6
CONTINUOUS
 10
262.7861509564
 20
173.4604619874
 11
283.7916143877
 21
173.4604619874
  0
LINE
  5
21F
100
AcDbEntity
  8
0
100
AcDbLine
 62
250
  6
CONTINUOUS
 10
262.8962905488
 20
173.5706015798
 11
283.6814747953
 21
173.5706015798
  0
LINE
  5
220
100
AcDbEntity
  8
0
100
AcDbLine
 62
250
  6
CONTINUOUS
 10
262.8962905488
 20
173.852509366
 11
283.6814747953
 21
173.852509366
  0
LINE
  5
221
100
AcDbEntity
  8
0
100
AcDbLine
 62
250
  6
CONTINUOUS
 10
262.7083520246
 20
174.0404478901
 11
262.4264442384
 21
174.0404478901
  0
LINE
  5
222
100
AcDbEntity
  8
0
100
AcDbLine
 62
250
  6
CONTINUOUS
 10
283.8694133195
 20
174.0404478901
 11
284.1513211057
 21
174.0404478901
  0
LINE
  5
223
100
AcDbEntity
  8
0
100
AcDbLine
 62
7
  6
CONTINUOUS
 10
263.5187501996
 20
212.7953876743
 11
263.4734292844
 21
212.7802929779
  0
LINE
  5
224
100
AcDbEntity
  8
0
100
AcDbLine
 62
7
  6
CONTINUOUS
 10
263.428882672
 20
174.6302929779
 11
283.148882672
 21
174.6302929779
  0
LINE
  5
225
100
AcDbEntity
  8
0
100
AcDbLine
 62
7
  6
CONTINUOUS
 10
263.5187501996
 20
178.1651982815
 11
263.4734292844
 21
178.1802929779
  0
LWPOLYLINE
  5
226
100
AcDbEntity
  8
0
100
AcDbPolyline
 62
7
  6
CONTINUOUS
 90
25
 70
0
 10
270.2081339357
 20
176.3552929779
 10
270.2459674902
 20
176.3562007484
 10
270.2833227452
 20
176.3596897104
 10
270.3201997008
 20
176.365759866
 10
270.3568582591
 20
176.3743295986
 10
270.393038518
 20
176.3854805335
 10
270.4279607709
 20
176.3994575376
 10
270.4615724488
 20
176.4165300053
 10
270.4939261206
 20
176.4364285631
 10
270.5243997867
 20
176.4585899282
 10
270.5528973506
 20
176.4830119755
 10
270.5795149089
 20
176.5096968542
 10
270.6039187512
 20
176.5380876886
 10
270.6259640531
 20
176.5681260784
 10
270.6457956391
 20
176.5998704463
 10
270.6635142721
 20
176.6329391465
 10
270.6790751715
 20
176.6673207359
 10
270.692523118
 20
176.7030266776
 10
270.7040932161
 20
176.7397096806
 10
270.7139092674
 20
176.7772294986
 10
270.7218474704
 20
176.8157263931
 10
270.727771525
 20
176.855273833
 10
270.7316359976
 20
176.8958963142
 10
270.7334863219
 20
176.9375693593
 10
270.7333224976
 20
176.9802929779
  0
LINE
  5
227
100
AcDbEntity
  8
0
100
AcDbLine
 62
7
  6
CONTINUOUS
 10
267.076101672
 20
176.3552929779
 11
267.239743672
 21
176.3552929779
  0
LINE
  5
228
100
AcDbEntity
  8
0
100
AcDbLine
 62
7
  6
CONTINUOUS
 10
267.591444672
 20
176.3552929779
 11
267.758582672
 21
176.3552929779
  0
LINE
  5
229
100
AcDbEntity
  8
0
100
AcDbLine
 62
7
  6
CONTINUOUS
 10
268.110216672
 20
176.3552929779
 11
268.273924672
 21
176.3552929779
  0
LINE
  5
22A
100
AcDbEntity
  8
0
100
AcDbLine
 62
7
  6
CONTINUOUS
 10
268.423651672
 20
176.3552929779
 11
268.597731672
 21
176.3552929779
  0
LINE
  5
22B
100
AcDbEntity
  8
0
100
AcDbLine
 62
7
  6
CONTINUOUS
 10
269.701492672
 20
176.3552929779
 11
270.2081339357
 21
176.3552929779
  0
LINE
  5
22C
100
AcDbEntity
  8
0
100
AcDbLine
 62
7
  6
CONTINUOUS
 10
269.353291672
 20
176.3552929779
 11
269.537854672
 21
176.3552929779
  0
LINE
  5
22D
100
AcDbEntity
  8
0
100
AcDbLine
 62
7
  6
CONTINUOUS
 10
270.967211672
 20
176.3552929779
 11
271.889977672
 21
176.3552929779
  0
LINE
  5
22E
100
AcDbEntity
  8
0
100
AcDbLine
 62
7
  6
CONTINUOUS
 10
272.621215672
 20
176.3552929779
 11
272.790078672
 21
176.3552929779
  0
LINE
  5
22F
100
AcDbEntity
  8
0
100
AcDbLine
 62
7
  6
CONTINUOUS
 10
273.079039672
 20
176.3552929779
 11
273.242757672
 21
176.3552929779
  0
LINE
  5
230
100
AcDbEntity
  8
0
100
AcDbLine
 62
7
  6
CONTINUOUS
 10
273.881708672
 20
176.3552929779
 11
274.071467672
 21
176.3552929779
  0
LINE
  5
231
100
AcDbEntity
  8
0
100
AcDbLine
 62
7
  6
CONTINUOUS
 10
274.846174672
 20
176.3552929779
 11
275.015088672
 21
176.3552929779
  0
LINE
  5
232
100
AcDbEntity
  8
0
100
AcDbLine
 62
7
  6
CONTINUOUS
 10
275.619223672
 20
176.3552929779
 11
275.788077672
 21
176.3552929779
  0
LINE
  5
233
100
AcDbEntity
  8
0
100
AcDbLine
 62
7
  6
CONTINUOUS
 10
276.259892672
 20
176.3552929779
 11
276.433962672
 21
176.3552929779
  0
LINE
  5
234
100
AcDbEntity
  8
0
100
AcDbLine
 62
7
  6
CONTINUOUS
 10
277.529059672
 20
176.3552929779
 11
278.331728672
 21
176.3552929779
  0
LINE
  5
235
100
AcDbEntity
  8
0
100
AcDbLine
 62
7
  6
CONTINUOUS
 10
277.189593672
 20
176.3552929779
 11
277.374187672
 21
176.3552929779
  0
LINE
  5
236
100
AcDbEntity
  8
0
100
AcDbLine
 62
7
  6
CONTINUOUS
 10
278.860944672
 20
176.3552929779
 11
279.029767672
 21
176.3552929779
  0
LINE
  5
237
100
AcDbEntity
  8
0
100
AcDbLine
 62
7
  6
CONTINUOUS
 10
270.2038295282
 20
176.4997529779
 11
269.870416672
 21
176.4997529779
  0
LINE
  5
238
100
AcDbEntity
  8
0
100
AcDbLine
 62
7
  6
CONTINUOUS
 10
278.331728672
 20
176.5050099779
 11
277.697984672
 21
176.5050099779
  0
LINE
  5
239
100
AcDbEntity
  8
0
100
AcDbLine
 62
7
  6
CONTINUOUS
 10
271.889977672
 20
176.5050099779
 11
271.136126672
 21
176.5050099779
  0
LINE
  5
23A
100
AcDbEntity
  8
0
100
AcDbLine
 62
7
  6
CONTINUOUS
 10
268.728321672
 20
176.7191219779
 11
269.229696672
 21
176.7191219779
  0
LINE
  5
23B
100
AcDbEntity
  8
0
100
AcDbLine
 62
7
  6
CONTINUOUS
 10
276.564563672
 20
176.7191219779
 11
277.065988672
 21
176.7191219779
  0
LINE
  5
23C
100
AcDbEntity
  8
0
100
AcDbLine
 62
7
  6
CONTINUOUS
 10
277.005040672
 20
176.8688389779
 11
276.616797672
 21
176.8688389779
  0
LINE
  5
23D
100
AcDbEntity
  8
0
100
AcDbLine
 62
7
  6
CONTINUOUS
 10
269.168809672
 20
176.8688389779
 11
268.780566672
 21
176.8688389779
  0
LINE
  5
23E
100
AcDbEntity
  8
0
100
AcDbLine
 62
7
  6
CONTINUOUS
 10
271.136126672
 20
176.9228219779
 11
271.820325672
 21
176.9228219779
  0
LINE
  5
23F
100
AcDbEntity
  8
0
100
AcDbLine
 62
7
  6
CONTINUOUS
 10
271.820325672
 20
177.0725389779
 11
271.136126672
 21
177.0725389779
  0
LINE
  5
240
100
AcDbEntity
  8
0
100
AcDbLine
 62
7
  6
CONTINUOUS
 10
271.136126672
 20
177.4555759779
 11
271.877775672
 21
177.4555759779
  0
LINE
  5
241
100
AcDbEntity
  8
0
100
AcDbLine
 62
7
  6
CONTINUOUS
 10
275.196154672
 20
177.4555759779
 11
275.619223672
 21
177.4555759779
  0
LINE
  5
242
100
AcDbEntity
  8
0
100
AcDbLine
 62
7
  6
CONTINUOUS
 10
275.788077672
 20
177.4555759779
 11
276.211146672
 21
177.4555759779
  0
LINE
  5
243
100
AcDbEntity
  8
0
100
AcDbLine
 62
7
  6
CONTINUOUS
 10
269.870416672
 20
177.4608329779
 11
270.2038295282
 21
177.4608329779
  0
LINE
  5
244
100
AcDbEntity
  8
0
100
AcDbLine
 62
7
  6
CONTINUOUS
 10
279.501663672
 20
177.6052929779
 11
279.303119672
 21
177.6052929779
  0
LINE
  5
245
100
AcDbEntity
  8
0
100
AcDbLine
 62
7
  6
CONTINUOUS
 10
278.585873672
 20
177.6052929779
 11
278.389148672
 21
177.6052929779
  0
LINE
  5
246
100
AcDbEntity
  8
0
100
AcDbLine
 62
7
  6
CONTINUOUS
 10
277.697984672
 20
177.6052929779
 11
277.529059672
 21
177.6052929779
  0
LINE
  5
247
100
AcDbEntity
  8
0
100
AcDbLine
 62
7
  6
CONTINUOUS
 10
276.921467672
 20
177.6052929779
 11
276.729989672
 21
177.6052929779
  0
LINE
  5
248
100
AcDbEntity
  8
0
100
AcDbLine
 62
7
  6
CONTINUOUS
 10
276.211146672
 20
177.6052929779
 11
275.196154672
 21
177.6052929779
  0
LINE
  5
249
100
AcDbEntity
  8
0
100
AcDbLine
 62
7
  6
CONTINUOUS
 10
275.015088672
 20
177.6052929779
 11
274.846174672
 21
177.6052929779
  0
LINE
  5
24A
100
AcDbEntity
  8
0
100
AcDbLine
 62
7
  6
CONTINUOUS
 10
274.071467672
 20
177.6052929779
 11
273.907830672
 21
177.6052929779
  0
LINE
  5
24B
100
AcDbEntity
  8
0
100
AcDbLine
 62
7
  6
CONTINUOUS
 10
273.279292672
 20
177.6052929779
 11
273.079039672
 21
177.6052929779
  0
LINE
  5
24C
100
AcDbEntity
  8
0
100
AcDbLine
 62
7
  6
CONTINUOUS
 10
272.790078672
 20
177.6052929779
 11
272.621215672
 21
177.6052929779
  0
LINE
  5
24D
100
AcDbEntity
  8
0
100
AcDbLine
 62
7
  6
CONTINUOUS
 10
271.877775672
 20
177.6052929779
 11
270.967211672
 21
177.6052929779
  0
LINE
  5
24E
100
AcDbEntity
  8
0
100
AcDbLine
 62
7
  6
CONTINUOUS
 10
270.2134486528
 20
177.6052929779
 11
269.701492672
 21
177.6052929779
  0
LINE
  5
24F
100
AcDbEntity
  8
0
100
AcDbLine
 62
7
  6
CONTINUOUS
 10
269.085226672
 20
177.6052929779
 11
268.893687672
 21
177.6052929779
  0
LINE
  5
250
100
AcDbEntity
  8
0
100
AcDbLine
 62
7
  6
CONTINUOUS
 10
268.273924672
 20
177.6052929779
 11
268.033639672
 21
177.6052929779
  0
LINE
  5
251
100
AcDbEntity
  8
0
100
AcDbLine
 62
7
  6
CONTINUOUS
 10
267.318103672
 20
177.6052929779
 11
267.076101672
 21
177.6052929779
  0
LWPOLYLINE
  5
252
100
AcDbEntity
  8
0
100
AcDbPolyline
 62
7
  6
CONTINUOUS
 90
25
 70
0
 10
270.2038295282
 20
177.4608329779
 10
270.2314070017
 20
177.4591861337
 10
270.2585006019
 20
177.4554765424
 10
270.2851103286
 20
177.4497042056
 10
270.311427855
 20
177.4418582561
 10
270.337261508
 20
177.4319495672
 10
270.3620362686
 20
177.4200107535
 10
270.3857543769
 20
177.4059086609
 10
270.4084135927
 20
177.3897764553
 10
270.4294321768
 20
177.3720462313
 10
270.4486515545
 20
177.3527009262
 10
270.4662303006
 20
177.3317576158
 10
270.4820623997
 20
177.3096995991
 10
270.4960439634
 20
177.2865795801
 10
270.5082788801
 20
177.2623448659
 10
270.5189728008
 20
177.2373206569
 10
270.5280203154
 20
177.2115618384
 10
270.5355268339
 20
177.185013534
 10
270.5420142372
 20
177.157836299
 10
270.547694133
 20
177.1301426803
 10
270.5523549137
 20
177.1018201383
 10
270.5558836369
 20
177.0726915993
 10
270.5582426552
 20
177.0426980429
 10
270.559469616
 20
177.0118985005
 10
270.5595645193
 20
176.9802929779
  0
LWPOLYLINE
  5
253
100
AcDbEntity
  8
0
100
AcDbPolyline
 62
7
  6
CONTINUOUS
 90
8
 70
0
 10
263.5187501996
 20
178.1651982815
 10
263.5220132875
 20
178.1646631631
 10
263.5281420143
 20
178.1641463634
 10
263.5371363798
 20
178.1636478824
 10
263.5491551344
 20
178.1631628233
 10
263.5640395279
 20
178.162696083
 10
263.5813133088
 20
178.1622623517
 10
263.623112614
 20
178.1614968918
  0
LINE
  5
254
100
AcDbEntity
  8
0
100
AcDbLine
 62
7
  6
CONTINUOUS
 10
267.288882672
 20
212.7802929779
 11
267.3089399816
 21
212.8003502875
  0
LWPOLYLINE
  5
255
100
AcDbEntity
  8
0
100
AcDbPolyline
 62
7
  6
CONTINUOUS
 90
6
 70
0
 10
276.5799876631
 20
213.9606396682
 10
276.5907506235
 20
213.9644466818
 10
276.6013764198
 20
213.9693116868
 10
276.611865052
 20
213.9752346821
 10
276.6221386099
 20
213.9824433169
 10
276.6322750036
 20
213.9907099387
  0
LWPOLYLINE
  5
256
100
AcDbEntity
  8
0
100
AcDbPolyline
 62
7
  6
CONTINUOUS
 90
7
 70
0
 10
282.9964519937
 20
178.1622623529
 10
283.0137257765
 20
178.1626960839
 10
283.0286101734
 20
178.1631628241
 10
283.0406289338
 20
178.163647883
 10
283.0496233073
 20
178.1641463638
 10
283.0557520442
 20
178.1646631633
 10
283.0590151445
 20
178.1651982815
  0
LWPOLYLINE
  5
257
100
AcDbEntity
  8
0
100
AcDbPolyline
 62
7
  6
CONTINUOUS
 90
7
 70
0
 10
263.5828315478
 20
178.9988196441
 10
263.565550485
 20
178.9983854281
 10
263.550657864
 20
178.9979181326
 10
263.5386314762
 20
178.9974324443
 10
263.5296305854
 20
178.9969332586
 10
263.5234959278
 20
178.9964156801
 10
263.5202275034
 20
178.9958797088
  0
LINE
  5
258
100
AcDbEntity
  8
0
100
AcDbLine
 62
7
  6
CONTINUOUS
 10
282.9546526896
 20
178.1614968934
 11
282.9964519937
 21
178.1622623529
  0
LINE
  5
259
100
AcDbEntity
  8
0
100
AcDbLine
 62
7
  6
CONTINUOUS
 10
263.6246424165
 20
178.9995858608
 11
263.5828315478
 21
178.9988196441
  0
LINE
  5
25A
100
AcDbEntity
  8
0
100
AcDbLine
 62
7
  6
CONTINUOUS
 10
282.9049946258
 20
178.1608949218
 11
282.9546526896
 21
178.1614968934
  0
LINE
  5
25B
100
AcDbEntity
  8
0
100
AcDbLine
 62
7
  6
CONTINUOUS
 10
263.6743042596
 20
179.0001883221
 11
263.6246424165
 21
178.9995858608
  0
LINE
  5
25C
100
AcDbEntity
  8
0
100
AcDbLine
 62
7
  6
CONTINUOUS
 10
282.8200063925
 20
178.1603437907
 11
282.9049946258
 21
178.1608949218
  0
LINE
  5
25D
100
AcDbEntity
  8
0
100
AcDbLine
 62
7
  6
CONTINUOUS
 10
263.759278062
 20
179.0007397722
 11
263.6743042596
 21
179.0001883221
  0
LINE
  5
25E
100
AcDbEntity
  8
0
100
AcDbLine
 62
7
  6
CONTINUOUS
 10
284.3201882305
 20
177.7302929779
 11
283.8694133195
 21
177.7302929779
  0
LINE
  5
25F
100
AcDbEntity
  8
0
100
AcDbLine
 62
7
  6
CONTINUOUS
 10
279.2688253625
 20
178.1602356684
 11
282.8200063925
 21
178.1603437907
  0
LINE
  5
260
100
AcDbEntity
  8
0
100
AcDbLine
 62
7
  6
CONTINUOUS
 10
263.4734292844
 20
178.1802929779
 11
267.288882672
 21
178.1802929779
  0
LINE
  5
261
100
AcDbEntity
  8
0
100
AcDbLine
 62
7
  6
CONTINUOUS
 10
279.288882672
 20
178.1802929779
 11
283.1043360596
 21
178.1802929779
  0
LINE
  5
262
100
AcDbEntity
  8
0
100
AcDbLine
 62
7
  6
CONTINUOUS
 10
283.1043360596
 20
178.9802929779
 11
279.288882672
 21
178.9802929779
  0
LINE
  5
263
100
AcDbEntity
  8
0
100
AcDbLine
 62
7
  6
CONTINUOUS
 10
267.288882672
 20
178.9802929779
 11
263.4734292844
 21
178.9802929779
  0
LINE
  5
264
100
AcDbEntity
  8
0
100
AcDbLine
 62
7
  6
CONTINUOUS
 10
263.759278062
 20
179.0007397722
 11
267.3094375983
 21
179.0008479042
  0
LINE
  5
265
100
AcDbEntity
  8
0
100
AcDbLine
 62
7
  6
CONTINUOUS
 10
263.7577589827
 20
178.1603437889
 11
267.3089399816
 21
178.1602356684
  0
LINE
  5
266
100
AcDbEntity
  8
0
100
AcDbLine
 62
7
  6
CONTINUOUS
 10
282.8184873175
 20
179.0007397701
 11
279.2683277458
 21
179.0008479042
  0
LINE
  5
267
100
AcDbEntity
  8
0
100
AcDbLine
 62
7
  6
CONTINUOUS
 10
263.6727706763
 20
178.1608949199
 11
263.7577589827
 21
178.1603437889
  0
LINE
  5
268
100
AcDbEntity
  8
0
100
AcDbLine
 62
7
  6
CONTINUOUS
 10
282.903461037
 20
179.0001883199
 11
282.8184873175
 21
179.0007397701
  0
LINE
  5
269
100
AcDbEntity
  8
0
100
AcDbLine
 62
7
  6
CONTINUOUS
 10
263.623112614
 20
178.1614968918
 11
263.6727706763
 21
178.1608949199
  0
LINE
  5
26A
100
AcDbEntity
  8
0
100
AcDbLine
 62
7
  6
CONTINUOUS
 10
282.9531228816
 20
178.999585859
 11
282.903461037
 21
179.0001883199
  0
LINE
  5
26B
100
AcDbEntity
  8
0
100
AcDbLine
 62
7
  6
CONTINUOUS
 10
267.288882672
 20
178.1802929779
 11
267.3089399816
 21
178.1602356684
  0
LWPOLYLINE
  5
26C
100
AcDbEntity
  8
0
100
AcDbPolyline
 62
7
  6
CONTINUOUS
 90
10
 70
0
 10
274.4010925509
 20
180.690388458
 10
274.4161502741
 20
180.6942199149
 10
274.4310589905
 20
180.6976942059
 10
274.4458187001
 20
180.7008113308
 10
274.4604371714
 20
180.7036142988
 10
274.4749066359
 20
180.7060601004
 10
274.4892037882
 20
180.708019707
 10
274.5033208601
 20
180.709450109
 10
274.5172656198
 20
180.7103943157
 10
274.5310380675
 20
180.710852327
  0
LINE
  5
26D
100
AcDbEntity
  8
0
100
AcDbLine
 62
7
  6
CONTINUOUS
 10
274.2220339991
 20
180.4008250406
 11
274.037859223
 21
180.3762684335
  0
LWPOLYLINE
  5
26E
100
AcDbEntity
  8
0
100
AcDbPolyline
 62
7
  6
CONTINUOUS
 90
10
 70
0
 10
274.5146669365
 20
179.9536899767
 10
274.5633644886
 20
179.9555774578
 10
274.6098494873
 20
179.9607811631
 10
274.6541219328
 20
179.9693010957
 10
274.6960580999
 20
179.9811384531
 10
274.7357817137
 20
179.9962920506
 10
274.7736639492
 20
180.0147583209
 10
274.8098285314
 20
180.0365360835
 10
274.8441517352
 20
180.0616265437
 10
274.8766335607
 20
180.0900297171
  0
LWPOLYLINE
  5
26F
100
AcDbEntity
  8
0
100
AcDbPolyline
 62
7
  6
CONTINUOUS
 90
10
 70
0
 10
274.4512291171
 20
180.850006493
 10
274.4478676485
 20
180.849988356
 10
274.4445267131
 20
180.8500272454
 10
274.4412063108
 20
180.850123161
 10
274.43791232
 20
180.8502703016
 10
274.4346388623
 20
180.8504744684
 10
274.4313683024
 20
180.8507530653
 10
274.4280947621
 20
180.8511118934
 10
274.4248241197
 20
180.8515451515
 10
274.4215563752
 20
180.8520528396
  0
LINE
  5
270
100
AcDbEntity
  8
0
100
AcDbLine
 62
7
  6
CONTINUOUS
 10
271.0501376607
 20
179.9802929779
 11
271.2343122579
 21
179.9802929779
  0
LINE
  5
271
100
AcDbEntity
  8
0
100
AcDbLine
 62
7
  6
CONTINUOUS
 10
272.2963860251
 20
179.9802929779
 11
272.4805606224
 21
179.9802929779
  0
LINE
  5
272
100
AcDbEntity
  8
0
100
AcDbLine
 62
7
  6
CONTINUOUS
 10
273.3809697844
 20
179.9802929779
 11
273.5651445605
 21
179.9802929779
  0
LINE
  5
273
100
AcDbEntity
  8
0
100
AcDbLine
 62
7
  6
CONTINUOUS
 10
275.7118019082
 20
179.9802929779
 11
275.8959766842
 21
179.9802929779
  0
LINE
  5
274
100
AcDbEntity
  8
0
100
AcDbLine
 62
7
  6
CONTINUOUS
 10
271.6456356265
 20
180.3394335007
 11
272.2963860251
 21
180.3394335007
  0
LINE
  5
275
100
AcDbEntity
  8
0
100
AcDbLine
 62
7
  6
CONTINUOUS
 10
272.4805606224
 20
180.3394335007
 11
272.6831526972
 21
180.3394335007
  0
LINE
  5
276
100
AcDbEntity
  8
0
100
AcDbLine
 62
7
  6
CONTINUOUS
 10
272.6831526972
 20
180.5082602521
 11
272.4805606224
 21
180.5082602521
  0
LINE
  5
277
100
AcDbEntity
  8
0
100
AcDbLine
 62
7
  6
CONTINUOUS
 10
272.2963860251
 20
180.5082602521
 11
271.8267407037
 21
180.5082602521
  0
LWPOLYLINE
  5
278
100
AcDbEntity
  8
0
100
AcDbPolyline
 62
7
  6
CONTINUOUS
 90
10
 70
0
 10
274.5156901099
 20
180.1061456335
 10
274.4913709176
 20
180.1070201725
 10
274.4680024531
 20
180.1095687826
 10
274.4455847163
 20
180.1137914646
 10
274.4241760152
 20
180.1196728029
 10
274.4037180419
 20
180.1272282163
 10
274.3840358723
 20
180.1365039583
 10
274.3650711984
 20
180.1475154491
 10
274.3468823283
 20
180.1602472749
 10
274.329469262
 20
180.17469944
  0
LWPOLYLINE
  5
279
100
AcDbEntity
  8
0
100
AcDbPolyline
 62
7
  6
CONTINUOUS
 90
10
 70
0
 10
274.5310380675
 20
180.710852327
 10
274.5592647625
 20
180.709731815
 10
274.5862496974
 20
180.7065930598
 10
274.6119928721
 20
180.7014360624
 10
274.6364409254
 20
180.6942659147
 10
274.6596472185
 20
180.6850775292
 10
274.681771835
 20
180.6738556398
 10
274.7028681359
 20
180.6605951606
 10
274.7228827602
 20
180.6453011863
 10
274.7418157078
 20
180.6279737224
  0
LWPOLYLINE
  5
27A
100
AcDbEntity
  8
0
100
AcDbPolyline
 62
7
  6
CONTINUOUS
 90
8
 70
0
 10
283.0575378407
 20
178.9958797088
 10
283.0542694024
 20
178.9964156799
 10
283.0481347333
 20
178.9969332583
 10
283.0391338335
 20
178.9974324437
 10
283.0271074392
 20
178.9979181318
 10
283.0122148142
 20
178.998385427
 10
282.9949337492
 20
178.9988196428
 10
282.9531228816
 20
178.999585859
  0
LWPOLYLINE
  5
27B
100
AcDbEntity
  8
0
100
AcDbPolyline
 62
7
  6
CONTINUOUS
 90
46
 70
0
 10
266.7771793467
 20
208.8328922396
 10
266.7802309331
 20
208.8357176238
 10
266.7833776788
 20
208.8384615997
 10
266.7866179978
 20
208.8411229042
 10
266.7899480391
 20
208.843698489
 10
266.7933683322
 20
208.8461890827
 10
266.7968842794
 20
208.848598822
 10
266.8004957455
 20
208.8509271864
 10
266.8042004431
 20
208.8531718201
 10
266.8080011619
 20
208.8553336312
 10
266.8118968186
 20
208.8574112019
 10
266.8158862692
 20
208.8594028792
 10
266.819972566
 20
208.8613088789
 10
266.8241548818
 20
208.8631276975
 10
266.828431971
 20
208.8648574951
 10
266.8328065326
 20
208.8664976575
 10
266.8372778683
 20
208.8680465424
 10
266.8418446267
 20
208.8695021973
 10
266.8465086982
 20
208.8708632753
 10
266.8512691254
 20
208.8721279361
 10
266.8561246983
 20
208.8732942486
 10
266.8610770234
 20
208.8743605099
 10
266.8661251057
 20
208.875324781
 10
266.871267591
 20
208.8761850636
 10
266.8765055945
 20
208.8769393712
 10
266.8818368626
 20
208.8775855794
 10
266.8872610268
 20
208.8781217868
 10
266.8927821164
 20
208.8785460223
 10
266.8983939928
 20
208.8788559878
 10
266.9040999558
 20
208.8790496638
 10
266.9099186065
 20
208.8791243423
 10
266.9158478148
 20
208.8790771732
 10
266.921887173
 20
208.8789047047
 10
266.9280584756
 20
208.8786013074
 10
266.9343610725
 20
208.8781628946
 10
266.9407929975
 20
208.8775849162
 10
266.9473744743
 20
208.8768589162
 10
266.954104458
 20
208.875979565
 10
266.9609807286
 20
208.8749412706
 10
266.9680218698
 20
208.8737331324
 10
266.9752260627
 20
208.8723486027
 10
266.9825906353
 20
208.8707810221
 10
266.9901327437
 20
208.8690172975
 10
266.9978560414
 20
208.8670474557
 10
267.0057505319
 20
208.8648657302
 10
267.0138124219
 20
208.8624642817
  0
LWPOLYLINE
  5
27C
100
AcDbEntity
  8
0
100
AcDbPolyline
 62
250
  6
CONTINUOUS
 90
16
 70
0
 10
267.9721256867
 20
207.895940874
 10
267.9735808531
 20
207.8966399603
 10
267.9749931957
 20
207.8973890657
 10
267.9763627145
 20
207.8981881902
 10
267.9776974994
 20
207.8990353338
 10
267.9789894605
 20
207.8999324964
 10
267.9802143281
 20
207.9008856779
 10
267.9813762659
 20
207.9018966714
 10
267.9824711102
 20
207.9029636836
 10
267.9834620995
 20
207.9040873346
 10
267.9843514552
 20
207.905267811
 10
267.9851369559
 20
207.9065049262
 10
267.9857751765
 20
207.9077987397
 10
267.9862516419
 20
207.9091492714
 10
267.9865808272
 20
207.9105565015
 10
267.9867627324
 20
207.9120204298
  0
LINE
  5
27D
100
AcDbEntity
  8
0
100
AcDbLine
 62
7
  6
CONTINUOUS
 10
267.880899882
 20
207.9015991851
 11
267.6861484219
 21
207.8084507056
  0
LINE
  5
27E
100
AcDbEntity
  8
0
100
AcDbLine
 62
250
  6
CONTINUOUS
 10
267.5253698948
 20
207.6876152269
 11
267.9721256867
 21
207.895940874
  0
LINE
  5
27F
100
AcDbEntity
  8
0
100
AcDbLine
 62
250
  6
CONTINUOUS
 10
267.6314360969
 20
207.5516691451
 11
268.0781917038
 21
207.7599947059
  0
LINE
  5
280
100
AcDbEntity
  8
0
100
AcDbLine
 62
7
  6
CONTINUOUS
 10
263.528812492
 20
205.8987390464
 11
263.4917720072
 21
205.8864022506
  0
LINE
  5
281
100
AcDbEntity
  8
0
100
AcDbLine
 62
7
  6
CONTINUOUS
 10
267.594994541
 20
208.9284351134
 11
267.3470293775
 21
208.8515968935
  0
LINE
  5
282
100
AcDbEntity
  8
0
100
AcDbLine
 62
7
  6
CONTINUOUS
 10
267.3470293775
 20
208.8515968935
 11
267.2750760536
 21
208.8297065328
  0
LWPOLYLINE
  5
283
100
AcDbEntity
  8
0
100
AcDbPolyline
 62
250
  6
CONTINUOUS
 90
13
 70
0
 10
279.4706281574
 20
182.1914464389
 10
279.4966517527
 20
182.193220356
 10
279.5222318006
 20
182.1983693418
 10
279.5469321514
 20
182.2068056648
 10
279.5703316471
 20
182.2183855437
 10
279.592031286
 20
182.2329115898
 10
279.6116610313
 20
182.250136163
 10
279.6288861511
 20
182.2697656172
 10
279.643412897
 20
182.2914652826
 10
279.6549935136
 20
182.3148651501
 10
279.6634305007
 20
182.339566228
 10
279.6685799673
 20
182.3651473537
 10
279.6703540708
 20
182.3911723394
  0
LINE
  5
284
100
AcDbEntity
  8
0
100
AcDbLine
 62
250
  6
CONTINUOUS
 10
279.0348213073
 20
182.2013794325
 11
278.8400698472
 21
182.1909105824
  0
LINE
  5
285
100
AcDbEntity
  8
0
100
AcDbLine
 62
250
  6
CONTINUOUS
 10
278.8916169222
 20
182.4011053395
 11
278.696865462
 21
182.3906364894
  0
LWPOLYLINE
  5
286
100
AcDbEntity
  8
0
100
AcDbPolyline
 62
7
  6
CONTINUOUS
 90
10
 70
0
 10
274.5075047232
 20
181.4864321967
 10
274.4678859983
 20
181.4849797165
 10
274.429949119
 20
181.4810227239
 10
274.3936940853
 20
181.4745612205
 10
274.359184863
 20
181.4655613128
 10
274.3263574863
 20
181.454056901
 10
274.2950200576
 20
181.4401496785
 10
274.265108611
 20
181.4238735471
 10
274.2366871123
 20
181.4051946172
 10
274.2097555615
 20
181.3841128965
  0
LINE
  5
287
100
AcDbEntity
  8
0
100
AcDbLine
 62
250
  6
CONTINUOUS
 10
267.0890240615
 20
182.3994147757
 11
267.0356030687
 21
182.3983253591
  0
LINE
  5
288
100
AcDbEntity
  8
0
100
AcDbLine
 62
7
  6
CONTINUOUS
 10
267.638882672
 20
182.1798677585
 11
267.7408963222
 21
182.1813002977
  0
LINE
  5
289
100
AcDbEntity
  8
0
100
AcDbLine
 62
250
  6
CONTINUOUS
 10
267.1541364864
 20
182.4003114561
 11
267.0890240615
 21
182.3994147757
  0
LWPOLYLINE
  5
28A
100
AcDbEntity
  8
0
100
AcDbPolyline
 62
7
  6
CONTINUOUS
 90
8
 70
0
 10
279.3380982644
 20
182.1326997138
 10
279.3318296001
 20
182.1326346468
 10
279.3252462956
 20
182.1324901033
 10
279.3187769088
 20
182.1322846874
 10
279.3132078752
 20
182.1320206833
 10
279.3088013399
 20
182.1316988527
 10
279.3052951577
 20
182.131318434
 10
279.3026893287
 20
182.1308794272
  0
LWPOLYLINE
  5
28B
100
AcDbEntity
  8
0
100
AcDbPolyline
 62
250
  6
CONTINUOUS
 90
18
 70
0
 10
267.286536012
 20
182.2013137514
 10
267.267078462
 20
182.2011616292
 10
267.2484904436
 20
182.2009230662
 10
267.2305982353
 20
182.2005857851
 10
267.2135755585
 20
182.2001620631
 10
267.1979435784
 20
182.1996887312
 10
267.1839077803
 20
182.1991689027
 10
267.1712626789
 20
182.1985994644
 10
267.1599129826
 20
182.1980079079
 10
267.1499380375
 20
182.1974051852
 10
267.1412584976
 20
182.1967803443
 10
267.1335410327
 20
182.1961280216
 10
267.1266610504
 20
182.1954530882
 10
267.120743143
 20
182.1947506729
 10
267.1158277582
 20
182.1940007981
 10
267.1119283785
 20
182.1931968046
 10
267.1090315213
 20
182.1923453515
 10
267.1071371867
 20
182.1914464389
  0
LWPOLYLINE
  5
28C
100
AcDbEntity
  8
0
100
AcDbPolyline
 62
7
  6
CONTINUOUS
 90
8
 70
0
 10
267.1599340787
 20
182.132717895
 10
267.1519873458
 20
182.1326585328
 10
267.1445159886
 20
182.1325104671
 10
267.137531701
 20
182.1322968161
 10
267.1316303191
 20
182.1320260405
 10
267.1270104551
 20
182.1317009606
 10
267.1234734968
 20
182.1313187562
 10
267.1210194443
 20
182.1308794272
  0
LINE
  5
28D
100
AcDbEntity
  8
0
100
AcDbLine
 62
250
  6
CONTINUOUS
 10
267.2276791505
 20
182.4008871937
 11
267.1541364864
 21
182.4003114561
  0
LINE
  5
28E
100
AcDbEntity
  8
0
100
AcDbLine
 62
7
  6
CONTINUOUS
 10
272.4805606224
 20
181.4802929779
 11
272.3301512815
 21
181.4802929779
  0
LINE
  5
28F
100
AcDbEntity
  8
0
100
AcDbLine
 62
7
  6
CONTINUOUS
 10
275.8959766842
 20
181.4864321967
 11
275.7772864319
 21
181.4864321967
  0
LINE
  5
290
100
AcDbEntity
  8
0
100
AcDbLine
 62
7
  6
CONTINUOUS
 10
273.5651445605
 20
181.4864321967
 11
273.4464541294
 21
181.4864321967
  0
LINE
  5
291
100
AcDbEntity
  8
0
100
AcDbLine
 62
7
  6
CONTINUOUS
 10
271.2343122579
 20
181.4864321967
 11
271.1156219609
 21
181.4864321967
  0
LINE
  5
292
100
AcDbEntity
  8
0
100
AcDbLine
 62
7
  6
CONTINUOUS
 10
284.3201882305
 20
181.7302929779
 11
283.8694133195
 21
181.7302929779
  0
LINE
  5
293
100
AcDbEntity
  8
0
100
AcDbLine
 62
7
  6
CONTINUOUS
 10
267.594994541
 20
182.0321508424
 11
267.638882672
 21
182.0321508424
  0
LINE
  5
294
100
AcDbEntity
  8
0
100
AcDbLine
 62
7
  6
CONTINUOUS
 10
278.938882672
 20
182.0321508424
 11
278.9827708031
 21
182.0321508424
  0
LINE
  5
295
100
AcDbEntity
  8
0
100
AcDbLine
 62
250
  6
CONTINUOUS
 10
267.5429440368
 20
182.2013794325
 11
267.286536012
 21
182.2013137514
  0
LINE
  5
296
100
AcDbEntity
  8
0
100
AcDbLine
 62
250
  6
CONTINUOUS
 10
278.696865462
 20
182.3906364894
 11
278.6401003081
 21
182.3906364894
  0
LINE
  5
297
100
AcDbEntity
  8
0
100
AcDbLine
 62
250
  6
CONTINUOUS
 10
267.9376650359
 20
182.3906364894
 11
267.880899882
 21
182.3906364894
  0
LINE
  5
298
100
AcDbEntity
  8
0
100
AcDbLine
 62
250
  6
CONTINUOUS
 10
267.6861484219
 20
182.4011053395
 11
267.2276791505
 21
182.4008871937
  0
LINE
  5
299
100
AcDbEntity
  8
0
100
AcDbLine
 62
7
  6
CONTINUOUS
 10
279.4183534598
 20
182.1327138908
 11
279.3380982644
 21
182.1326997138
  0
LINE
  5
29A
100
AcDbEntity
  8
0
100
AcDbLine
 62
250
  6
CONTINUOUS
 10
279.2881364765
 20
182.201327279
 11
279.0348213073
 21
182.2013794325
  0
LINE
  5
29B
100
AcDbEntity
  8
0
100
AcDbLine
 62
250
  6
CONTINUOUS
 10
279.3379571428
 20
182.4009458407
 11
278.8916169222
 21
182.4011053395
  0
LINE
  5
29C
100
AcDbEntity
  8
0
100
AcDbLine
 62
250
  6
CONTINUOUS
 10
279.3982985015
 20
182.400565763
 11
279.3379571428
 21
182.4009458407
  0
LINE
  5
29D
100
AcDbEntity
  8
0
100
AcDbLine
 62
250
  6
CONTINUOUS
 10
279.4521170841
 20
182.3999681633
 11
279.3982985015
 21
182.400565763
  0
LINE
  5
29E
100
AcDbEntity
  8
0
100
AcDbLine
 62
7
  6
CONTINUOUS
 10
278.8368690219
 20
182.1813002977
 11
278.938882672
 21
182.1798677585
  0
LWPOLYLINE
  5
29F
100
AcDbEntity
  8
0
100
AcDbPolyline
 62
250
  6
CONTINUOUS
 90
4
 70
0
 10
279.3482885514
 20
182.2005669355
 10
279.3345935439
 20
182.2008399927
 10
279.3200453405
 20
182.201058089
 10
279.2881364765
 20
182.201327279
  0
LWPOLYLINE
  5
2A0
100
AcDbEntity
  8
0
100
AcDbPolyline
 62
250
  6
CONTINUOUS
 90
3
 70
0
 10
279.5265156717
 20
182.3986860739
 10
279.502305399
 20
182.3991766433
 10
279.4521170841
 20
182.3999681633
  0
LWPOLYLINE
  5
2A1
100
AcDbEntity
  8
0
100
AcDbPolyline
 62
7
  6
CONTINUOUS
 90
10
 70
0
 10
274.5115974165
 20
181.3349996825
 10
274.5355149127
 20
181.3340714256
 10
274.5583437123
 20
181.3314961025
 10
274.5800838156
 20
181.3272737137
 10
274.6007189536
 20
181.3213810499
 10
274.6202653952
 20
181.3138413234
 10
274.6387719464
 20
181.3047241685
 10
274.6562548758
 20
181.2940527983
 10
274.6726979148
 20
181.2818040051
 10
274.6881010634
 20
181.2679777921
  0
LINE
  5
2A2
100
AcDbEntity
  8
0
100
AcDbLine
 62
250
  6
CONTINUOUS
 10
267.7376954969
 20
182.1909105824
 11
267.5429440368
 21
182.2013794325
  0
LINE
  5
2A3
100
AcDbEntity
  8
0
100
AcDbLine
 62
250
  6
CONTINUOUS
 10
267.880899882
 20
182.3906364894
 11
267.6861484219
 21
182.4011053395
  0
LWPOLYLINE
  5
2A4
100
AcDbEntity
  8
0
100
AcDbPolyline
 62
250
  6
CONTINUOUS
 90
13
 70
0
 10
267.1071371867
 20
182.1914464389
 10
267.0811128263
 20
182.1932204587
 10
267.0555322004
 20
182.1983697047
 10
267.0308314774
 20
182.2068063784
 10
267.0074318229
 20
182.2183866282
 10
266.9857322185
 20
182.2329130023
 10
266.9661026589
 20
182.2501378158
 10
266.9488778425
 20
182.2697673728
 10
266.9343514654
 20
182.2914669748
 10
266.922771214
 20
182.3148666285
 10
266.9143345405
 20
182.3395673527
 10
266.9091852962
 20
182.3651479813
 10
266.9074112797
 20
182.3911723459
  0
LWPOLYLINE
  5
2A5
100
AcDbEntity
  8
0
100
AcDbPolyline
 62
7
  6
CONTINUOUS
 90
9
 70
0
 10
267.2750759808
 20
182.1308794309
 10
267.2724573082
 20
182.1313213654
 10
267.268913457
 20
182.1317039648
 10
267.2644444273
 20
182.1320272289
 10
267.2587994412
 20
182.1322918993
 10
267.2522292766
 20
182.1324972345
 10
267.2454862669
 20
182.1326410103
 10
267.2388988804
 20
182.1327041784
 10
267.1599340787
 20
182.132717895
  0
LINE
  5
2A6
100
AcDbEntity
  8
0
100
AcDbLine
 62
7
  6
CONTINUOUS
 10
274.0562767006
 20
181.0976189991
 11
274.2404514767
 21
181.064876916
  0
LINE
  5
2A7
100
AcDbEntity
  8
0
100
AcDbLine
 62
7
  6
CONTINUOUS
 10
267.3470285274
 20
182.1089893238
 11
267.2750759808
 21
182.1308794309
  0
LINE
  5
2A8
100
AcDbEntity
  8
0
100
AcDbLine
 62
7
  6
CONTINUOUS
 10
267.594994541
 20
182.0321508424
 11
267.3470285274
 21
182.1089893238
  0
LINE
  5
2A9
100
AcDbEntity
  8
0
100
AcDbLine
 62
7
  6
CONTINUOUS
 10
263.528812492
 20
185.0618469094
 11
263.4917720072
 21
185.0741837052
  0
LWPOLYLINE
  5
2AA
100
AcDbEntity
  8
0
100
AcDbPolyline
 62
250
  6
CONTINUOUS
 90
13
 70
0
 10
267.5253698948
 20
183.2729707289
 10
267.5232081124
 20
183.2739221585
 10
267.5209334827
 20
183.2748089296
 10
267.5185460058
 20
183.275631042
 10
267.516070158
 20
183.2763883523
 10
267.513481463
 20
183.2770810039
 10
267.5107064917
 20
183.2777094274
 10
267.5077201546
 20
183.2782860768
 10
267.5045475412
 20
183.2787984981
 10
267.5011904907
 20
183.2792097589
 10
267.4976496162
 20
183.2795075485
 10
267.4939243045
 20
183.2797041777
 10
267.4900145558
 20
183.2797996464
  0
LINE
  5
2AB
100
AcDbEntity
  8
0
100
AcDbLine
 62
250
  6
CONTINUOUS
 10
267.9721256867
 20
183.0646450818
 11
267.5253698948
 21
183.2729707289
  0
LINE
  5
2AC
100
AcDbEntity
  8
0
100
AcDbLine
 62
250
  6
CONTINUOUS
 10
268.0781917038
 20
183.2005912499
 11
267.631437098
 21
183.4089163439
  0
LINE
  5
2AD
100
AcDbEntity
  8
0
100
AcDbLine
 62
7
  6
CONTINUOUS
 10
267.880899882
 20
183.0589867707
 11
267.6861484219
 21
183.1521352502
  0
LWPOLYLINE
  5
2AE
100
AcDbEntity
  8
0
100
AcDbPolyline
 62
250
  6
CONTINUOUS
 90
19
 70
0
 10
262.4264461389
 20
174.0404497906
 10
262.4315132386
 20
173.9954619386
 10
262.4405668208
 20
173.9514291326
 10
262.4534261977
 20
173.9086843139
 10
262.469997636
 20
173.8673123025
 10
262.4899821308
 20
173.8278419538
 10
262.5126938634
 20
173.7911608829
 10
262.537638278
 20
173.7575571835
 10
262.5644989527
 20
173.7269508111
 10
262.5926712988
 20
173.6994939925
 10
262.6213849278
 20
173.6754450727
 10
262.6506532705
 20
173.654379129
 10
262.6811899845
 20
173.6355288905
 10
262.7127439584
 20
173.6189743366
 10
262.7452222471
 20
173.6047620322
 10
262.7798073249
 20
173.5925100372
 10
262.8168473356
 20
173.5824249354
 10
262.8557425913
 20
173.5750106986
 10
262.8962905488
 20
173.5706015798
  0
LWPOLYLINE
  5
2AF
100
AcDbEntity
  8
0
100
AcDbPolyline
 62
250
  6
CONTINUOUS
 90
19
 70
0
 10
262.7083520246
 20
174.0404478901
 10
262.709361774
 20
174.021093672
 10
262.711955136
 20
174.0025210125
 10
262.7161321106
 20
173.9847299119
 10
262.7220641777
 20
173.9675482479
 10
262.7295798574
 20
173.9511481426
 10
262.7381647095
 20
173.9360459625
 10
262.7478385371
 20
173.922397505
 10
262.7585815371
 20
173.9100469725
 10
262.7698198606
 20
173.8990433395
 10
262.781344639
 20
173.8895084894
 10
262.7933647408
 20
173.8813205387
 10
262.8059329228
 20
173.8741628108
 10
262.8189433135
 20
173.8679189468
 10
262.8325017843
 20
173.8627053057
 10
262.8469787062
 20
173.8585542871
 10
262.862497536
 20
173.8554766909
 10
262.8789348169
 20
173.8534617172
 10
262.8962905488
 20
173.852509366
  0
LWPOLYLINE
  5
2B0
100
AcDbEntity
  8
0
100
AcDbPolyline
 62
7
  6
CONTINUOUS
 90
10
 70
0
 10
266.9074112797
 20
207.795208189
 10
266.9123574212
 20
207.804409051
 10
266.9220051216
 20
207.8130327783
 10
266.9357966365
 20
207.8203801882
 10
266.9529971685
 20
207.8258062608
 10
266.9729503916
 20
207.829012593
 10
266.9952535111
 20
207.8299097313
 10
267.0193782748
 20
207.8282581503
 10
267.0445519026
 20
207.8238053509
 10
267.0700938873
 20
207.816479477
  0
LWPOLYLINE
  5
2B1
100
AcDbEntity
  8
0
100
AcDbPolyline
 62
250
  6
CONTINUOUS
 90
16
 70
0
 10
267.1210193137
 20
208.8297064167
 10
267.1279965396
 20
208.8397723393
 10
267.1363385033
 20
208.8487960657
 10
267.1458819576
 20
208.8565875956
 10
267.1564442888
 20
208.8629663005
 10
267.1678008251
 20
208.867814151
 10
267.179713058
 20
208.8710872002
 10
267.1919611852
 20
208.8727423357
 10
267.2043228611
 20
208.8727296591
 10
267.2165668479
 20
208.8710494241
 10
267.2284767643
 20
208.8677499525
 10
267.2398264369
 20
208.8628758872
 10
267.2503621559
 20
208.856483173
 10
267.2598598878
 20
208.8487007128
 10
267.2681496066
 20
208.8397108247
 10
267.2750762485
 20
208.8297062479
  0
LINE
  5
2B2
100
AcDbEntity
  8
0
100
AcDbLine
 62
250
  6
CONTINUOUS
 10
266.9231336135
 20
205.4068946796
 11
266.7962578187
 21
205.2800188849
  0
LWPOLYLINE
  5
2B3
100
AcDbEntity
  8
0
100
AcDbPolyline
 62
7
  6
CONTINUOUS
 90
43
 70
0
 10
276.6322750036
 20
213.9907099387
 10
276.652915415
 20
214.0081066746
 10
276.6634194327
 20
214.0172367875
 10
276.6740199801
 20
214.0268438056
 10
276.6847577661
 20
214.036894003
 10
276.695592082
 20
214.0474211037
 10
276.7064007644
 20
214.0586281535
 10
276.7172012719
 20
214.0705356758
 10
276.727976146
 20
214.0831231438
 10
276.7385508481
 20
214.0965320275
 10
276.7489081639
 20
214.1107869945
 10
276.7590653077
 20
214.1258633721
 10
276.7688993832
 20
214.1418286195
 10
276.7784316965
 20
214.1587110157
 10
276.7876409416
 20
214.1764822751
 10
276.7963403041
 20
214.1951250099
 10
276.8045336489
 20
214.2146174553
 10
276.8122171111
 20
214.2349813686
 10
276.8191922816
 20
214.2562646445
 10
276.8254663981
 20
214.2784337792
 10
276.831032223
 20
214.3015222675
 10
276.8356696335
 20
214.3256785007
 10
276.8394033056
 20
214.350943248
 10
276.8422085633
 20
214.3772757281
 10
276.843791256
 20
214.4047020044
 10
276.8442169115
 20
214.4332602034
 10
276.8434200019
 20
214.4629121844
 10
276.8409097938
 20
214.4935696109
 10
276.8367327398
 20
214.5254801327
 10
276.8308423871
 20
214.558396084
 10
276.8226086441
 20
214.5914861615
 10
276.8119007614
 20
214.6247715742
 10
276.7988494882
 20
214.6582311099
 10
276.7832169808
 20
214.6909698467
 10
276.7649014542
 20
214.7229479184
 10
276.7440046933
 20
214.7542052019
 10
276.7205942085
 20
214.7839664026
 10
276.6944343915
 20
214.8123479091
 10
276.6657608506
 20
214.8392333523
 10
276.635347921
 20
214.8634983126
 10
276.6034537143
 20
214.8847679958
 10
276.5698201188
 20
214.9034172253
 10
276.5344471346
 20
214.9194460125
  0
LINE
  5
2B4
100
AcDbEntity
  8
0
100
AcDbLine
 62
7
  6
CONTINUOUS
 10
283.0575378407
 20
211.9647062471
 11
283.1043360596
 21
211.9802929779
  0
LWPOLYLINE
  5
2B5
100
AcDbEntity
  8
0
100
AcDbPolyline
 62
250
  6
CONTINUOUS
 90
13
 70
0
 10
267.7376954969
 20
182.1909105824
 10
267.7559756525
 20
182.1934737709
 10
267.7739568404
 20
182.1992584299
 10
267.7913452827
 20
182.2081698953
 10
267.8078560472
 20
182.2200617056
 10
267.8232204095
 20
182.2347398541
 10
267.83718957
 20
182.2519674123
 10
267.8495390132
 20
182.2714718227
 10
267.8600603088
 20
182.2929287949
 10
267.8685730481
 20
182.3159644553
 10
267.874941671
 20
182.3401907541
 10
267.8790710911
 20
182.3652176771
 10
267.880899882
 20
182.3906364894
  0
LWPOLYLINE
  5
2B6
100
AcDbEntity
  8
0
100
AcDbPolyline
 62
250
  6
CONTINUOUS
 90
13
 70
0
 10
267.5429440368
 20
182.2013794325
 10
267.5612324812
 20
182.2039445295
 10
267.5792206265
 20
182.209733616
 10
267.5966144133
 20
182.2186513843
 10
267.6131288456
 20
182.230550781
 10
267.6284950114
 20
182.2452370574
 10
267.6424638841
 20
182.2624722409
 10
267.6548117479
 20
182.2819840163
 10
267.6653298012
 20
182.303446643
 10
267.6738368486
 20
182.3264817979
 10
267.6801986452
 20
182.3506991973
 10
267.6843223811
 20
182.3757098281
 10
267.6861484219
 20
182.4011053395
  0
LINE
  5
2B7
100
AcDbEntity
  8
0
100
AcDbLine
 62
7
  6
CONTINUOUS
 10
267.9398137315
 20
182.938108744
 11
267.990659597
 21
182.9444617702
  0
LWPOLYLINE
  5
2B8
100
AcDbEntity
  8
0
100
AcDbPolyline
 62
250
  6
CONTINUOUS
 90
19
 70
0
 10
278.4995736402
 20
183.2005912499
 10
278.4946221435
 20
183.1999927582
 10
278.4897868083
 20
183.1993647724
 10
278.4850825897
 20
183.1987072923
 10
278.4805362047
 20
183.1980221732
 10
278.4761509068
 20
183.1973075599
 10
278.4719122868
 20
183.1965578869
 10
278.4678402088
 20
183.1957726844
 10
278.4639600329
 20
183.1949524222
 10
278.4602765712
 20
183.194092945
 10
278.4568186303
 20
183.1931936753
 10
278.4536168358
 20
183.1922551905
 10
278.4506896859
 20
183.1912750668
 10
278.4480736647
 20
183.1902526214
 10
278.4458077309
 20
183.1891885371
 10
278.4439251158
 20
183.1880824397
 10
278.4424690204
 20
183.1869342043
 10
278.4414872238
 20
183.1857439557
 10
278.4410254574
 20
183.1845116941
  0
LWPOLYLINE
  5
2B9
100
AcDbEntity
  8
0
100
AcDbPolyline
 62
250
  6
CONTINUOUS
 90
10
 70
0
 10
279.5048373004
 20
183.1693238962
 10
279.5304918077
 20
183.1718464767
 10
279.5553887762
 20
183.1783098075
 10
279.5787928305
 20
183.1885230706
 10
279.6000126855
 20
183.2021846816
 10
279.6184214994
 20
183.2188911943
 10
279.6334754214
 20
183.2381491857
 10
279.6447297427
 20
183.2593898447
 10
279.6518520056
 20
183.281985798
 10
279.6546317802
 20
183.3052696229
  0
LWPOLYLINE
  5
2BA
100
AcDbEntity
  8
0
100
AcDbPolyline
 62
250
  6
CONTINUOUS
 90
10
 70
0
 10
267.9867627324
 20
183.048565526
 10
268.0126856545
 20
183.0507848638
 10
268.0378282801
 20
183.0570294528
 10
268.0614338025
 20
183.0671113263
 10
268.0827916834
 20
183.0807270132
 10
268.1012590393
 20
183.0974666732
 10
268.1162799931
 20
183.116826433
 10
268.1274024074
 20
183.1382235528
 10
268.1342914934
 20
183.1610139672
 10
268.1367398874
 20
183.1845116726
  0
LWPOLYLINE
  5
2BB
100
AcDbEntity
  8
0
100
AcDbPolyline
 62
250
  6
CONTINUOUS
 90
13
 70
0
 10
267.7376954969
 20
182.1909105824
 10
267.7638055414
 20
182.1926442384
 10
267.7894667573
 20
182.1977674063
 10
267.8142399794
 20
182.2061916773
 10
267.8377004554
 20
182.2177716317
 10
267.8594480665
 20
182.2323087378
 10
267.8791133932
 20
182.2495559589
 10
267.8963659596
 20
182.2692269207
 10
267.910901484
 20
182.290978641
 10
267.9224596664
 20
182.3144126333
 10
267.9308499002
 20
182.3391145402
 10
267.9359438158
 20
182.3646680798
 10
267.9376650359
 20
182.3906364894
  0
LWPOLYLINE
  5
2BC
100
AcDbEntity
  8
0
100
AcDbPolyline
 62
250
  6
CONTINUOUS
 90
9
 70
0
 10
266.9931227834
 20
182.3971308508
 10
266.9757656501
 20
182.3965058982
 10
266.9602189754
 20
182.3958536204
 10
266.946571504
 20
182.3951790694
 10
266.9348664933
 20
182.3944771931
 10
266.924792416
 20
182.3937276198
 10
266.9165683689
 20
182.3929235589
 10
266.9106662983
 20
182.3920718009
 10
266.9074112797
 20
182.3911723459
  0
LINE
  5
2BD
100
AcDbEntity
  8
0
100
AcDbLine
 62
250
  6
CONTINUOUS
 10
267.0356030687
 20
182.3983253591
 11
266.9931227834
 21
182.3971308508
  0
LWPOLYLINE
  5
2BE
100
AcDbEntity
  8
0
100
AcDbPolyline
 62
250
  6
CONTINUOUS
 90
19
 70
0
 10
267.3225854274
 20
183.2797996464
 10
267.2983169025
 20
183.2791916941
 10
267.274816947
 20
183.2776145857
 10
267.2520855609
 20
183.2750683212
 10
267.2298280937
 20
183.2714302186
 10
267.2083391959
 20
183.26682296
 10
267.1885028188
 20
183.2616145915
 10
267.1706070858
 20
183.2558138528
 10
267.1543638734
 20
183.2494120043
 10
267.1397927639
 20
183.2427508737
 10
267.1270388431
 20
183.2359558306
 10
267.1159570251
 20
183.2289015054
 10
267.1061316335
 20
183.2215536172
 10
267.0974168812
 20
183.2139714429
 10
267.0899585553
 20
183.2060957055
 10
267.0837783402
 20
183.1977142933
 10
267.0788834639
 20
183.1887565024
 10
267.0752666984
 20
183.1792930367
 10
267.0729280437
 20
183.1693238962
  0
LWPOLYLINE
  5
2BF
100
AcDbEntity
  8
0
100
AcDbPolyline
 62
250
  6
CONTINUOUS
 90
15
 70
0
 10
279.0582754764
 20
183.4154911348
 10
279.0507075576
 20
183.4153435354
 10
279.0430192949
 20
183.4151552351
 10
279.0352212468
 20
183.4149268762
 10
279.0273370138
 20
183.4146578163
 10
279.0193448484
 20
183.414339648
 10
279.0112648142
 20
183.4139725769
 10
279.0031260276
 20
183.4135563974
 10
278.9949271299
 20
183.4130820839
 10
278.9866976666
 20
183.4125496084
 10
278.9784768326
 20
183.411958999
 10
278.9702856307
 20
183.411301315
 10
278.9621621829
 20
183.4105735762
 10
278.9541598625
 20
183.4097787628
 10
278.9463292248
 20
183.4089168748
  0
LWPOLYLINE
  5
2C0
100
AcDbEntity
  8
0
100
AcDbPolyline
 62
250
  6
CONTINUOUS
 90
19
 70
0
 10
267.3225854274
 20
183.4157458114
 10
267.2842752598
 20
183.4151364891
 10
267.2465647619
 20
183.4135584631
 10
267.2097858576
 20
183.4110117332
 10
267.1739679102
 20
183.4073738122
 10
267.1397085661
 20
183.4027671873
 10
267.1080534424
 20
183.3975593207
 10
267.0793386922
 20
183.3917587226
 10
267.0533512862
 20
183.3853568826
 10
267.0301173552
 20
183.3786957319
 10
267.0098159313
 20
183.371900516
 10
266.9920820858
 20
183.3648459894
 10
266.9762595384
 20
183.357498346
 10
266.9624311715
 20
183.3499174045
 10
266.9506180527
 20
183.3420433462
 10
266.9404938865
 20
183.3336629092
 10
266.9322615111
 20
183.3247050062
 10
266.9263735242
 20
183.3152407246
 10
266.9231336135
 20
183.3052700642
  0
LWPOLYLINE
  5
2C1
100
AcDbEntity
  8
0
100
AcDbPolyline
 62
250
  6
CONTINUOUS
 90
19
 70
0
 10
279.0877507883
 20
183.2797996464
 10
279.0859403803
 20
183.2797868023
 10
279.0841086107
 20
183.2797397205
 10
279.0822554793
 20
183.279658401
 10
279.0803824231
 20
183.2795449927
 10
279.0784880052
 20
183.2793973468
 10
279.0765679153
 20
183.2792090167
 10
279.0746190416
 20
183.2789806454
 10
279.072644496
 20
183.27871159
 10
279.0706493034
 20
183.2783934757
 10
279.0686303276
 20
183.2780265929
 10
279.0665907047
 20
183.2776106511
 10
279.0645448679
 20
183.2771364041
 10
279.0624892122
 20
183.2766036324
 10
279.0604273426
 20
183.2760125556
 10
279.0583845067
 20
183.2753545856
 10
279.0563691204
 20
183.2746268599
 10
279.054372768
 20
183.2738322409
 10
279.0523954492
 20
183.2729707289
  0
LWPOLYLINE
  5
2C2
100
AcDbEntity
  8
0
100
AcDbPolyline
 62
250
  6
CONTINUOUS
 90
3
 70
0
 10
279.0805284062
 20
183.4157329343
 10
279.0731977984
 20
183.4156858342
 10
279.0582754764
 20
183.4154911348
  0
LINE
  5
2C3
100
AcDbEntity
  8
0
100
AcDbLine
 62
7
  6
CONTINUOUS
 10
279.2709022505
 20
183.1802929779
 11
279.0348213073
 21
183.1802929779
  0
LINE
  5
2C4
100
AcDbEntity
  8
0
100
AcDbLine
 62
7
  6
CONTINUOUS
 10
267.5429440368
 20
183.1802929779
 11
267.3068630936
 21
183.1802929779
  0
LINE
  5
2C5
100
AcDbEntity
  8
0
100
AcDbLine
 62
250
  6
CONTINUOUS
 10
279.2551799167
 20
183.2797996464
 11
279.0877507883
 21
183.2797996464
  0
LINE
  5
2C6
100
AcDbEntity
  8
0
100
AcDbLine
 62
250
  6
CONTINUOUS
 10
267.4900145558
 20
183.2797996464
 11
267.3225854274
 21
183.2797996464
  0
LINE
  5
2C7
100
AcDbEntity
  8
0
100
AcDbLine
 62
250
  6
CONTINUOUS
 10
279.2551799167
 20
183.4157458145
 11
279.0805284062
 21
183.4157329343
  0
LINE
  5
2C8
100
AcDbEntity
  8
0
100
AcDbLine
 62
250
  6
CONTINUOUS
 10
267.4900145558
 20
183.4157458145
 11
267.3225854274
 21
183.4157458145
  0
LWPOLYLINE
  5
2C9
100
AcDbEntity
  8
0
100
AcDbPolyline
 62
250
  6
CONTINUOUS
 90
13
 70
0
 10
278.8400698472
 20
182.1909105824
 10
278.8139600006
 20
182.1926442121
 10
278.7882989779
 20
182.1977673012
 10
278.7635259335
 20
182.2061914414
 10
278.740065641
 20
182.2177711971
 10
278.7183181718
 20
182.2323080515
 10
278.698652857
 20
182.2495550528
 10
278.6814001685
 20
182.2692258991
 10
278.6668644551
 20
182.2909776105
 10
278.6553060642
 20
182.3144117002
 10
278.6469156395
 20
182.3391138107
 10
278.6418215831
 20
182.3646676647
 10
278.6401003081
 20
182.3906364894
  0
LWPOLYLINE
  5
2CA
100
AcDbEntity
  8
0
100
AcDbPolyline
 62
250
  6
CONTINUOUS
 90
10
 70
0
 10
278.5910026117
 20
183.048565526
 10
278.5650796993
 20
183.0507848641
 10
278.5399370804
 20
183.0570294513
 10
278.5163315614
 20
183.0671113222
 10
278.494973681
 20
183.080727007
 10
278.4765063228
 20
183.0974666662
 10
278.4614853642
 20
183.1168264279
 10
278.4503629442
 20
183.138223553
 10
278.4434738535
 20
183.1610139763
 10
278.4410254574
 20
183.1845116941
  0
LWPOLYLINE
  5
2CB
100
AcDbEntity
  8
0
100
AcDbPolyline
 62
250
  6
CONTINUOUS
 90
10
 70
0
 10
267.0729280437
 20
183.1693238962
 10
267.0472728832
 20
183.1718465928
 10
267.0223754938
 20
183.1783101834
 10
266.9989712663
 20
183.1885237534
 10
266.9777514857
 20
183.2021856015
 10
266.9593429202
 20
183.2188922205
 10
266.9442893087
 20
183.2381502168
 10
266.9330352904
 20
183.2593907916
 10
266.9259132711
 20
183.2819865424
 10
266.9231336135
 20
183.3052700642
  0
LWPOLYLINE
  5
2CC
100
AcDbEntity
  8
0
100
AcDbPolyline
 62
250
  6
CONTINUOUS
 90
13
 70
0
 10
267.631437098
 20
183.4089167717
 10
267.6228365451
 20
183.4098683838
 10
267.6137290201
 20
183.4107552234
 10
267.6041403603
 20
183.4115772907
 10
267.5942137403
 20
183.412334428
 10
267.583872909
 20
183.4130267929
 10
267.5727822661
 20
183.413654858
 10
267.5608454205
 20
183.414230932
 10
267.5481738997
 20
183.4147427063
 10
267.534718236
 20
183.415153727
 10
267.5204890524
 20
183.415451843
 10
267.5055643349
 20
183.4156492055
 10
267.4900145558
 20
183.4157458145
  0
LINE
  5
2CD
100
AcDbEntity
  8
0
100
AcDbLine
 62
7
  6
CONTINUOUS
 10
278.5871057471
 20
182.9444617702
 11
278.6379516126
 21
182.938108744
  0
LWPOLYLINE
  5
2CE
100
AcDbEntity
  8
0
100
AcDbPolyline
 62
250
  6
CONTINUOUS
 90
13
 70
0
 10
278.8400698472
 20
182.1909105824
 10
278.8217895828
 20
182.1934737959
 10
278.8038082919
 20
182.1992585179
 10
278.7864197577
 20
182.2081700817
 10
278.7699089019
 20
182.2200620348
 10
278.7545444709
 20
182.2347403585
 10
278.7405753061
 20
182.2519680654
 10
278.7282259257
 20
182.2714725483
 10
278.7177047265
 20
182.2929295166
 10
278.7091920925
 20
182.3159651015
 10
278.7028235662
 20
182.3401912558
 10
278.6986942195
 20
182.365217961
 10
278.696865462
 20
182.3906364894
  0
LWPOLYLINE
  5
2CF
100
AcDbEntity
  8
0
100
AcDbPolyline
 62
250
  6
CONTINUOUS
 90
13
 70
0
 10
279.0348213073
 20
182.2013794325
 10
279.0165330136
 20
182.2039444948
 10
278.9985450151
 20
182.2097334924
 10
278.9811513633
 20
182.2186511187
 10
278.9646370702
 20
182.2305503042
 10
278.9492710135
 20
182.2452363165
 10
278.935302154
 20
182.2624712719
 10
278.9229542041
 20
182.281982927
 10
278.9124360131
 20
182.3034455431
 10
278.9039288093
 20
182.3264808004
 10
278.8975668651
 20
182.350698417
 10
278.8934430154
 20
182.3757093839
 10
278.8916169222
 20
182.4011053395
  0
LWPOLYLINE
  5
2D0
100
AcDbEntity
  8
0
100
AcDbPolyline
 62
7
  6
CONTINUOUS
 90
8
 70
0
 10
263.528812492
 20
185.0618469094
 10
263.5320748686
 20
185.0613119068
 10
263.5382027212
 20
185.0607952143
 10
263.5471960498
 20
185.060296832
 10
263.5592135328
 20
185.0598118633
 10
263.5740964918
 20
185.0593452048
 10
263.5913688921
 20
185.0589115461
 10
263.6331655978
 20
185.0581462029
  0
LWPOLYLINE
  5
2D1
100
AcDbEntity
  8
0
100
AcDbPolyline
 62
7
  6
CONTINUOUS
 90
8
 70
0
 10
279.4567458648
 20
182.130879431
 10
279.4542818621
 20
182.1313169623
 10
279.4507698422
 20
182.1316977171
 10
279.4462098051
 20
182.1320216953
 10
279.4404290733
 20
182.1322915822
 10
279.4336003242
 20
182.1325046925
 10
279.4262415903
 20
182.1326529707
 10
279.4183534598
 20
182.1327138908
  0
LINE
  5
2D2
100
AcDbEntity
  8
0
100
AcDbLine
 62
7
  6
CONTINUOUS
 10
283.0575378407
 20
178.9958797088
 11
283.1043360596
 21
178.9802929779
  0
LWPOLYLINE
  5
2D3
100
AcDbEntity
  8
0
100
AcDbPolyline
 62
7
  6
CONTINUOUS
 90
10
 70
0
 10
274.7335270584
 20
181.4330203463
 10
274.7095540155
 20
181.4443107037
 10
274.6853749675
 20
181.4542456059
 10
274.6609899145
 20
181.4628250507
 10
274.6365043664
 20
181.4700269927
 10
274.6118128132
 20
181.4758734736
 10
274.5865987253
 20
181.4804306223
 10
274.5607565927
 20
181.4837204812
 10
274.5343919253
 20
181.4857210061
 10
274.5075047232
 20
181.4864321967
  0
LWPOLYLINE
  5
2D4
100
AcDbEntity
  8
0
100
AcDbPolyline
 62
250
  6
CONTINUOUS
 90
16
 70
0
 10
267.1228595204
 20
185.7534171831
 10
267.1250789497
 20
185.7523543872
 10
267.1290719694
 20
185.7513331136
 10
267.1348385797
 20
185.7503533622
 10
267.1424374386
 20
185.7494100796
 10
267.1518098881
 20
185.7485083193
 10
267.1627799536
 20
185.7476632419
 10
267.1753604279
 20
185.7468725147
 10
267.1895385181
 20
185.7461384705
 10
267.2050998711
 20
185.7454832676
 10
267.2221397902
 20
185.7449056938
 10
267.2405629719
 20
185.7444069614
 10
267.2598691529
 20
185.7440128652
 10
267.2798915785
 20
185.7437320037
 10
267.3007970034
 20
185.7435557785
 10
267.4900145558
 20
185.7434841895
  0
LINE
  5
2D5
100
AcDbEntity
  8
0
100
AcDbLine
 62
250
  6
CONTINUOUS
 10
266.7962578187
 20
185.680567071
 11
266.9231336135
 21
185.5536912762
  0
LWPOLYLINE
  5
2D6
100
AcDbEntity
  8
0
100
AcDbPolyline
 62
7
  6
CONTINUOUS
 90
7
 70
0
 10
266.7771793467
 20
182.1276937162
 10
266.7684245672
 20
182.1435794332
 10
266.7611375472
 20
182.1602223752
 10
266.7553860455
 20
182.1774884376
 10
266.7512256258
 20
182.1952372368
 10
266.7486990465
 20
182.2133232166
 10
266.7478357501
 20
182.2315968162
  0
LINE
  5
2D7
100
AcDbEntity
  8
0
100
AcDbLine
 62
7
  6
CONTINUOUS
 10
267.676731672
 20
176.5433949779
 11
267.318103672
 21
177.6052929779
  0
LINE
  5
2D8
100
AcDbEntity
  8
0
100
AcDbLine
 62
7
  6
CONTINUOUS
 10
267.239743672
 20
177.4034129779
 11
267.591444672
 21
176.3552929779
  0
LINE
  5
2D9
100
AcDbEntity
  8
0
100
AcDbLine
 62
250
  6
CONTINUOUS
 10
263.5116482262
 20
216.3302929779
 11
263.5187501996
 21
212.7953876743
  0
LINE
  5
2DA
100
AcDbEntity
  8
0
100
AcDbLine
 62
250
  6
CONTINUOUS
 10
263.5202275034
 20
211.9647062471
 11
263.528812492
 21
205.8987390464
  0
LINE
  5
2DB
100
AcDbEntity
  8
0
100
AcDbLine
 62
250
  6
CONTINUOUS
 10
263.529712484
 20
205.0423525011
 11
263.5307214121
 21
203.9802929779
  0
LINE
  5
2DC
100
AcDbEntity
  8
0
100
AcDbLine
 62
7
  6
CONTINUOUS
 10
262.266304646
 20
173.9106908395
 11
262.266304646
 21
217.0498951164
  0
LINE
  5
2DD
100
AcDbEntity
  8
0
100
AcDbLine
 62
7
  6
CONTINUOUS
 10
262.316304646
 20
217.030277658
 11
262.316304646
 21
173.9303082978
  0
LINE
  5
2DE
100
AcDbEntity
  8
0
100
AcDbLine
 62
250
  6
CONTINUOUS
 10
262.4264442384
 20
216.9201380657
 11
262.4264442384
 21
174.0404478901
  0
LINE
  5
2DF
100
AcDbEntity
  8
0
100
AcDbLine
 62
250
  6
CONTINUOUS
 10
262.7083520246
 20
216.9201380657
 11
262.7083520246
 21
174.0404478901
  0
LINE
  5
2E0
100
AcDbEntity
  8
0
100
AcDbLine
 62
250
  6
CONTINUOUS
 10
262.8962905488
 20
173.852509366
 11
262.8962905488
 21
173.5706015798
  0
LINE
  5
2E1
100
AcDbEntity
  8
0
100
AcDbLine
 62
250
  6
CONTINUOUS
 10
262.8962905488
 20
217.1080765898
 11
262.8962905488
 21
217.3899843761
  0
LINE
  5
2E2
100
AcDbEntity
  8
0
100
AcDbLine
 62
7
  6
CONTINUOUS
 10
263.428882672
 20
216.3302929779
 11
263.428882672
 21
174.6302929779
  0
LINE
  5
2E3
100
AcDbEntity
  8
0
100
AcDbLine
 62
7
  6
CONTINUOUS
 10
263.4734292844
 20
212.7802929779
 11
263.4734292844
 21
211.9802929779
  0
LINE
  5
2E4
100
AcDbEntity
  8
0
100
AcDbLine
 62
7
  6
CONTINUOUS
 10
263.4734292844
 20
178.9802929779
 11
263.4734292844
 21
178.1802929779
  0
LINE
  5
2E5
100
AcDbEntity
  8
0
100
AcDbLine
 62
7
  6
CONTINUOUS
 10
263.4917720072
 20
205.8864022506
 11
263.4917720072
 21
205.0802929779
  0
LINE
  5
2E6
100
AcDbEntity
  8
0
100
AcDbLine
 62
7
  6
CONTINUOUS
 10
263.4917720072
 20
185.8802929779
 11
263.4917720072
 21
185.0741837052
  0
LINE
  5
2E7
100
AcDbEntity
  8
0
100
AcDbLine
 62
250
  6
CONTINUOUS
 10
263.5307214135
 20
186.9802929779
 11
263.529712484
 21
185.9182334547
  0
LINE
  5
2E8
100
AcDbEntity
  8
0
100
AcDbLine
 62
250
  6
CONTINUOUS
 10
263.528812492
 20
185.0618469094
 11
263.5202275034
 21
178.9958797088
  0
LINE
  5
2E9
100
AcDbEntity
  8
0
100
AcDbLine
 62
250
  6
CONTINUOUS
 10
263.5187501996
 20
178.1651982815
 11
263.5116482278
 21
174.6302929779
  0
LINE
  5
2EA
100
AcDbEntity
  8
0
100
AcDbLine
 62
250
  6
CONTINUOUS
 10
267.1228595204
 20
205.2071687727
 11
266.9959837257
 21
205.0802929779
  0
LINE
  5
2EB
100
AcDbEntity
  8
0
100
AcDbLine
 62
7
  6
CONTINUOUS
 10
279.5639529222
 20
208.8624642817
 11
279.4914344367
 21
208.8401957812
  0
LINE
  5
2EC
100
AcDbEntity
  8
0
100
AcDbLine
 62
7
  6
CONTINUOUS
 10
279.4914344367
 20
208.8401957812
 11
279.4567459377
 21
208.8297065327
  0
LWPOLYLINE
  5
2ED
100
AcDbEntity
  8
0
100
AcDbPolyline
 62
7
  6
CONTINUOUS
 90
43
 70
0
 10
279.5639529222
 20
208.8624642817
 10
279.5729444375
 20
208.865130858
 10
279.5817129757
 20
208.867521522
 10
279.590253423
 20
208.869648074
 10
279.5985518444
 20
208.8715192127
 10
279.6066140077
 20
208.8731497864
 10
279.6144651256
 20
208.8745591124
 10
279.622101914
 20
208.8757569995
 10
279.6295224528
 20
208.8767529722
 10
279.636754196
 20
208.8775627285
 10
279.6437943415
 20
208.8781943127
 10
279.650642331
 20
208.8786552491
 10
279.6573286982
 20
208.878957203
 10
279.6638517318
 20
208.8791065183
 10
279.6702105902
 20
208.8791086249
 10
279.6764363706
 20
208.8789705152
 10
279.6825327383
 20
208.8786964373
 10
279.688493346
 20
208.8782902112
 10
279.6943335095
 20
208.8777557535
 10
279.7000551047
 20
208.8770961121
 10
279.7056536588
 20
208.8763146779
 10
279.7111346041
 20
208.8754147909
 10
279.7164968764
 20
208.8743994698
 10
279.7217393273
 20
208.873271617
 10
279.7268670776
 20
208.872033838
 10
279.7318787395
 20
208.8706890128
 10
279.7367737092
 20
208.8692396295
 10
279.741557999
 20
208.8676871243
 10
279.7462301362
 20
208.8660341857
 10
279.7507896017
 20
208.8642828664
 10
279.7552433797
 20
208.862432972
 10
279.7595906782
 20
208.8604865445
 10
279.7638299974
 20
208.8584455608
 10
279.7679667018
 20
208.8563090667
 10
279.7719995615
 20
208.8540789671
 10
279.7759271856
 20
208.8517568774
 10
279.7797541074
 20
208.8493408403
 10
279.7834781461
 20
208.8468331235
 10
279.7870984366
 20
208.844234602
 10
279.790620682
 20
208.8415406042
 10
279.7940452328
 20
208.8387502779
 10
279.7973676573
 20
208.8358670216
 10
279.8005859974
 20
208.8328922396
  0
LWPOLYLINE
  5
2EE
100
AcDbEntity
  8
0
100
AcDbPolyline
 62
7
  6
CONTINUOUS
 90
10
 70
0
 10
279.5076714568
 20
207.816479477
 10
279.533213237
 20
207.8238053014
 10
279.5583866787
 20
207.8282581001
 10
279.5825112897
 20
207.8299097232
 10
279.6048142505
 20
207.8290126585
 10
279.6247673868
 20
207.825806436
 10
279.6419680304
 20
207.820380463
 10
279.6557598073
 20
207.8130330689
 10
279.6654077718
 20
207.8044092486
 10
279.6703540644
 20
207.795208189
  0
LWPOLYLINE
  5
2EF
100
AcDbEntity
  8
0
100
AcDbPolyline
 62
250
  6
CONTINUOUS
 90
8
 70
0
 10
279.6546317306
 20
185.5536915832
 10
279.6502879117
 20
185.5525927443
 10
279.6419222596
 20
185.5515532932
 10
279.6299269528
 20
185.5505732298
 10
279.6146613811
 20
185.5496468322
 10
279.5965702705
 20
185.5487798223
 10
279.5762668636
 20
185.5479893659
 10
279.5543117431
 20
185.5472828744
  0
LWPOLYLINE
  5
2F0
100
AcDbEntity
  8
0
100
AcDbPolyline
 62
7
  6
CONTINUOUS
 90
7
 70
0
 10
282.9863964273
 20
185.0589115468
 10
283.0036688288
 20
185.0593452054
 10
283.0185517899
 20
185.0598118638
 10
283.0305692763
 20
185.0602968323
 10
283.0395626097
 20
185.0607952145
 10
283.0456904683
 20
185.0613119069
 10
283.0489528521
 20
185.0618469094
  0
LWPOLYLINE
  5
2F1
100
AcDbEntity
  8
0
100
AcDbPolyline
 62
250
  6
CONTINUOUS
 90
4
 70
0
 10
279.3565609907
 20
185.744927426
 10
279.3307446454
 20
185.7442566299
 10
279.3173198292
 20
185.743996665
 10
279.3030930486
 20
185.7437894107
  0
LINE
  5
2F2
100
AcDbEntity
  8
0
100
AcDbLine
 62
250
  6
CONTINUOUS
 10
279.5543117431
 20
185.5472828744
 11
279.5069306909
 21
185.546094484
  0
LINE
  5
2F3
100
AcDbEntity
  8
0
100
AcDbLine
 62
7
  6
CONTINUOUS
 10
282.9445997222
 20
185.0581462038
 11
282.9863964273
 21
185.0589115468
  0
LINE
  5
2F4
100
AcDbEntity
  8
0
100
AcDbLine
 62
250
  6
CONTINUOUS
 10
279.5069306909
 20
185.546094484
 11
279.457902753
 21
185.5452013314
  0
LINE
  5
2F5
100
AcDbEntity
  8
0
100
AcDbLine
 62
7
  6
CONTINUOUS
 10
278.938882672
 20
185.7807181973
 11
278.6378000814
 21
185.7764902082
  0
LINE
  5
2F6
100
AcDbEntity
  8
0
100
AcDbLine
 62
7
  6
CONTINUOUS
 10
282.8949433836
 20
185.0575443108
 11
282.9445997222
 21
185.0581462038
  0
LINE
  5
2F7
100
AcDbEntity
  8
0
100
AcDbLine
 62
250
  6
CONTINUOUS
 10
279.457902753
 20
185.5452013314
 11
279.3794648925
 21
185.5442708821
  0
LINE
  5
2F8
100
AcDbEntity
  8
0
100
AcDbLine
 62
250
  6
CONTINUOUS
 10
279.3030930486
 20
185.7437894107
 11
279.2719529251
 21
185.7435332194
  0
LINE
  5
2F9
100
AcDbEntity
  8
0
100
AcDbLine
 62
7
  6
CONTINUOUS
 10
282.8099550872
 20
185.0569932342
 11
282.8949433836
 21
185.0575443108
  0
LINE
  5
2FA
100
AcDbEntity
  8
0
100
AcDbLine
 62
250
  6
CONTINUOUS
 10
279.3794648925
 20
185.5442708821
 11
279.2885013553
 21
185.5438074492
  0
LINE
  5
2FB
100
AcDbEntity
  8
0
100
AcDbLine
 62
7
  6
CONTINUOUS
 10
279.8334455001
 20
185.0568851145
 11
282.8099550872
 21
185.0569932342
  0
LINE
  5
2FC
100
AcDbEntity
  8
0
100
AcDbLine
 62
7
  6
CONTINUOUS
 10
263.4917720072
 20
185.0741837052
 11
266.7962578187
 21
185.0741837052
  0
LINE
  5
2FD
100
AcDbEntity
  8
0
100
AcDbLine
 62
7
  6
CONTINUOUS
 10
279.7815075254
 20
185.0741837052
 11
283.0859933369
 21
185.0741837052
  0
LINE
  5
2FE
100
AcDbEntity
  8
0
100
AcDbLine
 62
250
  6
CONTINUOUS
 10
279.2885013553
 20
185.5438074492
 11
278.9463294321
 21
185.5437582826
  0
LINE
  5
2FF
100
AcDbEntity
  8
0
100
AcDbLine
 62
250
  6
CONTINUOUS
 10
278.4995736402
 20
185.5671717615
 11
278.4410254574
 21
185.5671717615
  0
LINE
  5
300
100
AcDbEntity
  8
0
100
AcDbLine
 62
250
  6
CONTINUOUS
 10
268.0781917038
 20
185.5671717615
 11
268.1367398866
 21
185.5671717615
  0
LINE
  5
301
100
AcDbEntity
  8
0
100
AcDbLine
 62
250
  6
CONTINUOUS
 10
279.2719529251
 20
185.7435332194
 11
279.0877507883
 21
185.7434841895
  0
LINE
  5
302
100
AcDbEntity
  8
0
100
AcDbLine
 62
7
  6
CONTINUOUS
 10
263.7678102753
 20
185.0569932332
 11
266.744319844
 21
185.0568851145
  0
LINE
  5
303
100
AcDbEntity
  8
0
100
AcDbLine
 62
250
  6
CONTINUOUS
 10
267.237731902
 20
185.5440066059
 11
267.631435912
 21
185.5437582826
  0
LINE
  5
304
100
AcDbEntity
  8
0
100
AcDbLine
 62
7
  6
CONTINUOUS
 10
263.6828219357
 20
185.0575443096
 11
263.7678102753
 21
185.0569932332
  0
LINE
  5
305
100
AcDbEntity
  8
0
100
AcDbLine
 62
250
  6
CONTINUOUS
 10
267.1583535416
 20
185.5446812672
 11
267.237731902
 21
185.5440066059
  0
LINE
  5
306
100
AcDbEntity
  8
0
100
AcDbLine
 62
7
  6
CONTINUOUS
 10
263.6331655978
 20
185.0581462029
 11
263.6828219357
 21
185.0575443096
  0
LINE
  5
307
100
AcDbEntity
  8
0
100
AcDbLine
 62
7
  6
CONTINUOUS
 10
267.638882672
 20
185.7807181973
 11
267.9399652627
 21
185.7764902082
  0
LWPOLYLINE
  5
308
100
AcDbEntity
  8
0
100
AcDbPolyline
 62
250
  6
CONTINUOUS
 90
13
 70
0
 10
267.9367703476
 20
185.7668976685
 10
267.9628812039
 20
185.765163905
 10
267.9885430996
 20
185.7600404439
 10
268.0133168406
 20
185.7516157397
 10
268.0367775936
 20
185.7400352977
 10
268.0585253079
 20
185.7254976783
 10
268.0781907269
 20
185.7082498091
 10
268.0954435885
 20
185.6885777099
 10
268.1099792055
 20
185.6668246377
 10
268.1215368059
 20
185.643390093
 10
268.1299260268
 20
185.6186889542
 10
268.1350190507
 20
185.5931372652
 10
268.1367398866
 20
185.5671717615
  0
LWPOLYLINE
  5
309
100
AcDbEntity
  8
0
100
AcDbPolyline
 62
250
  6
CONTINUOUS
 90
13
 70
0
 10
267.4900145558
 20
185.7434841895
 10
267.5080691619
 20
185.74090853
 10
267.525827582
 20
185.735111338
 10
267.5429997136
 20
185.7261879526
 10
267.5593043804
 20
185.7142853844
 10
267.5744762621
 20
185.6995982671
 10
267.5882696409
 20
185.6823643894
 10
267.6004635961
 20
185.6628561066
 10
267.6108522474
 20
185.6413986387
 10
267.6192570228
 20
185.6183689853
 10
267.6255451633
 20
185.5941565825
 10
267.6296245539
 20
185.5691503367
 10
267.631435912
 20
185.5437582826
  0
LWPOLYLINE
  5
30A
100
AcDbEntity
  8
0
100
AcDbPolyline
 62
250
  6
CONTINUOUS
 90
13
 70
0
 10
267.9367703476
 20
185.7668976685
 10
267.9548184551
 20
185.7643235281
 10
267.9725714924
 20
185.7585298234
 10
267.9897395684
 20
185.7496113445
 10
268.0060415112
 20
185.7377146247
 10
268.0212121603
 20
185.7230336657
 10
268.0350060257
 20
185.7058053002
 10
268.0472017014
 20
185.686301663
 10
268.057593261
 20
185.6648470975
 10
268.0660023176
 20
185.6418162155
 10
268.0722952255
 20
185.6175972616
 10
268.0763784932
 20
185.5925796676
 10
268.0781917038
 20
185.5671717615
  0
LWPOLYLINE
  5
30B
100
AcDbEntity
  8
0
100
AcDbPolyline
 62
250
  6
CONTINUOUS
 90
9
 70
0
 10
279.6703540644
 20
182.3911720308
 10
279.6662306524
 20
182.3922339421
 10
279.6582935419
 20
182.3932452166
 10
279.6468348108
 20
182.3942058546
 10
279.6320809639
 20
182.3951240128
 10
279.6144124602
 20
182.3959915344
 10
279.5945233844
 20
182.3967839484
 10
279.5730516215
 20
182.3974910263
 10
279.5265156717
 20
182.3986860739
  0
LWPOLYLINE
  5
30C
100
AcDbEntity
  8
0
100
AcDbPolyline
 62
250
  6
CONTINUOUS
 90
11
 70
0
 10
266.9231336135
 20
185.5536912762
 10
266.9272510929
 20
185.5526276861
 10
266.9352908103
 20
185.5516059851
 10
266.9470917211
 20
185.5506261732
 10
266.962390129
 20
185.549683439
 10
266.9810042285
 20
185.5487825939
 10
267.002974489
 20
185.5479380723
 10
267.0281814926
 20
185.5471470982
 10
267.0563940902
 20
185.5464124477
 10
267.0876143089
 20
185.5457568835
 10
267.1583535416
 20
185.5446812672
  0
LINE
  5
30D
100
AcDbEntity
  8
0
100
AcDbLine
 62
7
  6
CONTINUOUS
 10
279.5271697928
 20
182.1094710201
 11
279.4567458648
 21
182.130879431
  0
LINE
  5
30E
100
AcDbEntity
  8
0
100
AcDbLine
 62
7
  6
CONTINUOUS
 10
279.5639529222
 20
182.0981216741
 11
279.5271697928
 21
182.1094710201
  0
LWPOLYLINE
  5
30F
100
AcDbEntity
  8
0
100
AcDbPolyline
 62
7
  6
CONTINUOUS
 90
10
 70
0
 10
274.185967455
 20
180.0710749489
 10
274.2151790018
 20
180.0468150798
 10
274.246154461
 20
180.0253364527
 10
274.2788938328
 20
180.0066390567
 10
274.3133121276
 20
179.9906921454
 10
274.3494943349
 20
179.9775264472
 10
274.3876954227
 20
179.967234165
 10
274.4280003802
 20
179.9598460299
 10
274.4703242182
 20
179.9553313013
 10
274.5146669365
 20
179.9536899767
  0
LINE
  5
310
100
AcDbEntity
  8
0
100
AcDbLine
 62
250
  6
CONTINUOUS
 10
266.9959837257
 20
185.8802929779
 11
267.1228595204
 21
185.7534171831
  0
LWPOLYLINE
  5
311
100
AcDbEntity
  8
0
100
AcDbPolyline
 62
7
  6
CONTINUOUS
 90
10
 70
0
 10
274.329469262
 20
180.17469944
 10
274.31196233
 20
180.1925841598
 10
274.2958800496
 20
180.212413088
 10
274.2812224209
 20
180.2341862317
 10
274.268032419
 20
180.258082451
 10
274.2562670687
 20
180.2839229026
 10
274.2457974442
 20
180.3111710364
 10
274.2365805701
 20
180.339648006
 10
274.2286594217
 20
180.3695326716
 10
274.2220339991
 20
180.4008250406
  0
LINE
  5
312
100
AcDbEntity
  8
0
100
AcDbLine
 62
7
  6
CONTINUOUS
 10
273.242757672
 20
177.3704429779
 11
273.881708672
 21
176.3552929779
  0
LINE
  5
313
100
AcDbEntity
  8
0
100
AcDbLine
 62
7
  6
CONTINUOUS
 10
269.537854672
 20
176.3552929779
 11
269.085226672
 21
177.6052929779
  0
LINE
  5
314
100
AcDbEntity
  8
0
100
AcDbLine
 62
7
  6
CONTINUOUS
 10
269.229696672
 20
176.7191219779
 11
269.353291672
 21
176.3552929779
  0
LINE
  5
315
100
AcDbEntity
  8
0
100
AcDbLine
 62
7
  6
CONTINUOUS
 10
268.982578672
 20
177.4239819779
 11
269.168809672
 21
176.8688389779
  0
LINE
  5
316
100
AcDbEntity
  8
0
100
AcDbLine
 62
250
  6
CONTINUOUS
 10
263.8112643176
 20
216.3302929779
 11
263.818349005
 21
212.8003502904
  0
LINE
  5
317
100
AcDbEntity
  8
0
100
AcDbLine
 62
250
  6
CONTINUOUS
 10
263.8198421703
 20
211.9597380636
 11
263.8284027879
 21
205.903700842
  0
LINE
  5
318
100
AcDbEntity
  8
0
100
AcDbLine
 62
250
  6
CONTINUOUS
 10
263.8293221047
 20
205.0274351421
 11
263.8303148439
 21
203.9802929788
  0
LINE
  5
319
100
AcDbEntity
  8
0
100
AcDbLine
 62
250
  6
CONTINUOUS
 10
263.8303148453
 20
186.9802929772
 11
263.8293221047
 21
185.9331508156
  0
LINE
  5
31A
100
AcDbEntity
  8
0
100
AcDbLine
 62
250
  6
CONTINUOUS
 10
263.8284027879
 20
185.056885114
 11
263.8198421703
 21
179.000847896
  0
LINE
  5
31B
100
AcDbEntity
  8
0
100
AcDbLine
 62
250
  6
CONTINUOUS
 10
263.818349005
 20
178.1602356665
 11
263.811264316
 21
174.6302929779
  0
LWPOLYLINE
  5
31C
100
AcDbEntity
  8
0
100
AcDbPolyline
 62
7
  6
CONTINUOUS
 90
25
 70
0
 10
266.7771793467
 20
208.8328922396
 10
266.7861181528
 20
208.8797772506
 10
266.7996565519
 20
208.9243960602
 10
266.8177945439
 20
208.9667486842
 10
266.8408624673
 20
209.0072962961
 10
266.8685299837
 20
209.0455777505
 10
266.8998060775
 20
209.0802095931
 10
266.934824231
 20
209.1110567097
 10
266.973450962
 20
209.138254254
 10
267.0142948083
 20
209.1608241826
 10
267.0574317518
 20
209.1785963244
 10
267.1027858107
 20
209.1917408818
 10
267.1487375776
 20
209.1997903723
 10
267.1953105667
 20
209.2025618676
 10
267.2424812638
 20
209.2002383054
 10
267.2885597183
 20
209.1929009965
 10
267.3335081475
 20
209.1803665711
 10
267.3773643342
 20
209.1628183823
 10
267.4185516752
 20
209.1408878221
 10
267.4569699034
 20
209.114418728
 10
267.4927192861
 20
209.0835672271
 10
267.5245240213
 20
209.0494331484
 10
267.5519588419
 20
209.0123830914
 10
267.5754490152
 20
208.9720504202
 10
267.594994541
 20
208.9284351134
  0
LINE
  5
31D
100
AcDbEntity
  8
0
100
AcDbLine
 62
7
  6
CONTINUOUS
 10
270.519886672
 20
213.0617989779
 11
271.130572672
 21
214.9616449779
  0
LINE
  5
31E
100
AcDbEntity
  8
0
100
AcDbLine
 62
250
  6
CONTINUOUS
 10
267.7376954969
 20
208.7696753734
 11
267.7408963222
 21
208.7792856581
  0
LINE
  5
31F
100
AcDbEntity
  8
0
100
AcDbLine
 62
250
  6
CONTINUOUS
 10
267.9376650359
 20
208.5699494664
 11
267.9398137315
 21
208.5764007953
  0
LINE
  5
320
100
AcDbEntity
  8
0
100
AcDbLine
 62
250
  6
CONTINUOUS
 10
283.6814747953
 20
217.3899843761
 11
283.7916143877
 21
217.5001239684
  0
LWPOLYLINE
  5
321
100
AcDbEntity
  8
0
100
AcDbPolyline
 62
250
  6
CONTINUOUS
 90
10
 70
0
 10
278.6056396574
 20
207.895940874
 10
278.5900406096
 20
207.8886205133
 10
278.5747503568
 20
207.8787539072
 10
278.5600715811
 20
207.8665363726
 10
278.5462948601
 20
207.8522097649
 10
278.5336929143
 20
207.8360576902
 10
278.5225152089
 20
207.8183998909
 10
278.512983015
 20
207.7995859168
 10
278.5052850296
 20
207.7799882046
 10
278.4995736402
 20
207.7599947059
  0
LWPOLYLINE
  5
322
100
AcDbEntity
  8
0
100
AcDbPolyline
 62
250
  6
CONTINUOUS
 90
10
 70
0
 10
279.0523954492
 20
207.6876152269
 10
279.036796407
 20
207.6802948693
 10
279.0215061581
 20
207.6704282671
 10
279.0068273846
 20
207.6582107364
 10
278.9930506639
 20
207.6438841317
 10
278.980448717
 20
207.6277320586
 10
278.9692710093
 20
207.610074259
 10
278.9597388124
 20
207.5912602821
 10
278.9520408239
 20
207.5716625649
 10
278.9463294321
 20
207.5516690589
  0
LWPOLYLINE
  5
323
100
AcDbEntity
  8
0
100
AcDbPolyline
 62
250
  6
CONTINUOUS
 90
13
 70
0
 10
267.1228595204
 20
185.7534171831
 10
267.0968368435
 20
185.7516433892
 10
267.0712574889
 20
185.7464947157
 10
267.046557584
 20
185.7380588136
 10
267.0231582776
 20
185.7264793792
 10
267.0014585959
 20
185.7119537261
 10
266.9818286268
 20
185.6947294403
 10
266.964603142
 20
185.6751001089
 10
266.9500759533
 20
185.6534003668
 10
266.9384948996
 20
185.6300002419
 10
266.9300575393
 20
185.6052987385
 10
266.9249078098
 20
185.5797170155
 10
266.9231336061
 20
185.5536912836
  0
LINE
  5
324
100
AcDbEntity
  8
0
100
AcDbLine
 62
250
  6
CONTINUOUS
 10
267.631435912
 20
185.5437582826
 11
268.0781917038
 21
185.5671717615
  0
LINE
  5
325
100
AcDbEntity
  8
0
100
AcDbLine
 62
250
  6
CONTINUOUS
 10
267.4900145558
 20
185.7434841895
 11
267.9367703476
 21
185.7668976685
  0
LWPOLYLINE
  5
326
100
AcDbEntity
  8
0
100
AcDbPolyline
 62
7
  6
CONTINUOUS
 90
15
 70
0
 10
263.7986241261
 20
185.93306551
 10
263.7687879651
 20
185.9328265252
 10
263.7398132846
 20
185.9324338661
 10
263.7113928655
 20
185.9318796618
 10
263.6838339269
 20
185.9311717832
 10
263.6580581269
 20
185.9303338422
 10
263.6341712667
 20
185.9293635016
 10
263.612067545
 20
185.9282630987
 10
263.5923512162
 20
185.9270632575
 10
263.5750638656
 20
185.9257595118
 10
263.5601639078
 20
185.9243563277
 10
263.548130841
 20
185.9228977277
 10
263.5391244977
 20
185.921398386
 10
263.5329850454
 20
185.9198436283
 10
263.529712484
 20
185.9182334547
  0
LINE
  5
327
100
AcDbEntity
  8
0
100
AcDbLine
 62
7
  6
CONTINUOUS
 10
263.4917720072
 20
185.8802929779
 11
266.9959837257
 21
185.8802929779
  0
LINE
  5
328
100
AcDbEntity
  8
0
100
AcDbLine
 62
7
  6
CONTINUOUS
 10
279.5817816184
 20
185.8802929779
 11
283.0859933369
 21
185.8802929779
  0
LINE
  5
329
100
AcDbEntity
  8
0
100
AcDbLine
 62
7
  6
CONTINUOUS
 10
263.7986241261
 20
185.93306551
 11
267.638882672
 21
185.9331508229
  0
LINE
  5
32A
100
AcDbEntity
  8
0
100
AcDbLine
 62
7
  6
CONTINUOUS
 10
263.5089324095
 20
186.9802929779
 11
283.0688329345
 21
186.9802929779
  0
LINE
  5
32B
100
AcDbEntity
  8
0
100
AcDbLine
 62
250
  6
CONTINUOUS
 10
278.9463294321
 20
185.5437582826
 11
278.4995736402
 21
185.5671717615
  0
LINE
  5
32C
100
AcDbEntity
  8
0
100
AcDbLine
 62
250
  6
CONTINUOUS
 10
279.0877507883
 20
185.7434841895
 11
278.6409949965
 21
185.7668976685
  0
LWPOLYLINE
  5
32D
100
AcDbEntity
  8
0
100
AcDbPolyline
 62
250
  6
CONTINUOUS
 90
13
 70
0
 10
279.4706281574
 20
182.1914464389
 10
279.4683078441
 20
182.1925075376
 10
279.4643879669
 20
182.1935183185
 10
279.4588685257
 20
182.1944787815
 10
279.451507005
 20
182.1953972532
 10
279.4425459203
 20
182.1962654071
 10
279.4327128188
 20
182.1970582634
 10
279.4220778934
 20
182.1977653512
 10
279.4105709511
 20
182.1983971415
 10
279.3987089604
 20
182.1989600679
 10
279.3867038589
 20
182.1994505806
 10
279.3743437089
 20
182.1998722294
 10
279.3482885514
 20
182.2005669355
  0
LWPOLYLINE
  5
32E
100
AcDbEntity
  8
0
100
AcDbPolyline
 62
250
  6
CONTINUOUS
 90
10
 70
0
 10
278.6056396574
 20
183.0646450818
 10
278.5900406104
 20
183.0719654421
 10
278.5747503581
 20
183.0818320477
 10
278.5600715828
 20
183.0940495817
 10
278.5462948618
 20
183.108376189
 10
278.5336929159
 20
183.1245282634
 10
278.5225152102
 20
183.1421860627
 10
278.5129830158
 20
183.1610000372
 10
278.50528503
 20
183.1805977501
 10
278.4995736402
 20
183.2005912499
  0
LWPOLYLINE
  5
32F
100
AcDbEntity
  8
0
100
AcDbPolyline
 62
250
  6
CONTINUOUS
 90
10
 70
0
 10
279.0523954492
 20
183.2729707289
 10
279.0367964014
 20
183.2802910896
 10
279.0215061486
 20
183.2901576957
 10
279.006827373
 20
183.3023752303
 10
278.9930506519
 20
183.316701838
 10
278.9804487062
 20
183.3328539127
 10
278.9692710007
 20
183.3505117119
 10
278.9597388068
 20
183.3693256861
 10
278.9520408215
 20
183.3889233983
 10
278.9463294321
 20
183.4089168969
  0
LINE
  5
330
100
AcDbEntity
  8
0
100
AcDbLine
 62
250
  6
CONTINUOUS
 10
283.7916143877
 20
173.4604619874
 11
283.6814747953
 21
173.5706015798
  0
LWPOLYLINE
  5
331
100
AcDbEntity
  8
0
100
AcDbPolyline
 62
7
  6
CONTINUOUS
 90
10
 70
0
 10
274.6881010634
 20
181.2679777921
 10
274.702634074
 20
181.2525245042
 10
274.7154442155
 20
181.2363123984
 10
274.7265314879
 20
181.2193414768
 10
274.7358851951
 20
181.2016447912
 10
274.7435160332
 20
181.1831892944
 10
274.7494560904
 20
181.1638758396
 10
274.7537160629
 20
181.1436713801
 10
274.7562852546
 20
181.1226089687
 10
274.7571636654
 20
181.1006886085
  0
LWPOLYLINE
  5
332
100
AcDbEntity
  8
0
100
AcDbPolyline
 62
7
  6
CONTINUOUS
 90
10
 70
0
 10
274.7418157078
 20
180.6279737224
 10
274.759232129
 20
180.6089545475
 10
274.7745847562
 20
180.5889371065
 10
274.7878735895
 20
180.5679214031
 10
274.7990828043
 20
180.5459674928
 10
274.8082282252
 20
180.5230153279
 10
274.8153573256
 20
180.4988847579
 10
274.8204859302
 20
180.4735157368
 10
274.8235982144
 20
180.4469683217
 10
274.8246941783
 20
180.4192425182
  0
LWPOLYLINE
  5
333
100
AcDbEntity
  8
0
100
AcDbPolyline
 62
7
  6
CONTINUOUS
 90
10
 70
0
 10
274.946454195
 20
180.6648085915
 10
274.9298306358
 20
180.6850204202
 10
274.9116471358
 20
180.7037566875
 10
274.8919036948
 20
180.7210173885
 10
274.8706341993
 20
180.7368353613
 10
274.8478047629
 20
180.7511777592
 10
274.8233137268
 20
180.7639460496
 10
274.7971272047
 20
180.775107386
 10
274.7692790828
 20
180.7846946082
 10
274.7397693612
 20
180.7927077135
  0
LINE
  5
334
100
AcDbEntity
  8
0
100
AcDbLine
 62
7
  6
CONTINUOUS
 10
273.907830672
 20
176.5899379779
 11
273.279292672
 21
177.6052929779
  0
LWPOLYLINE
  5
335
100
AcDbEntity
  8
0
100
AcDbPolyline
 62
250
  6
CONTINUOUS
 90
13
 70
0
 10
268.1367398866
 20
183.1845116941
 10
268.1362334638
 20
183.1858209421
 10
268.1350789473
 20
183.1871383116
 10
268.1332454461
 20
183.1884638025
 10
268.130719646
 20
183.1897973556
 10
268.1274669454
 20
183.1911390302
 10
268.1233953435
 20
183.1924890037
 10
268.1184397311
 20
183.1938537145
 10
268.1125593341
 20
183.1952267242
 10
268.1056533687
 20
183.1965888963
 10
268.0976448486
 20
183.1979338518
 10
268.0885032161
 20
183.1992679697
 10
268.0781917038
 20
183.2005912499
  0
LINE
  5
336
100
AcDbEntity
  8
0
100
AcDbLine
 62
250
  6
CONTINUOUS
 10
267.7408963222
 20
182.1813002977
 11
267.7376954969
 21
182.1909105824
  0
LINE
  5
337
100
AcDbEntity
  8
0
100
AcDbLine
 62
250
  6
CONTINUOUS
 10
267.9398137315
 20
182.3841851605
 11
267.9376650359
 21
182.3906364894
  0
LWPOLYLINE
  5
338
100
AcDbEntity
  8
0
100
AcDbPolyline
 62
250
  6
CONTINUOUS
 90
13
 70
0
 10
267.9867627324
 20
183.048565526
 10
267.9866480736
 20
183.0498743764
 10
267.9863568685
 20
183.0511914334
 10
267.9858891172
 20
183.0525166968
 10
267.9852590404
 20
183.0538498798
 10
267.9844524172
 20
183.0551912694
 10
267.9834265857
 20
183.0565417265
 10
267.9821842585
 20
183.0579086319
 10
267.9807227229
 20
183.059284605
 10
267.978991178
 20
183.0606483646
 10
267.9769726902
 20
183.0619928171
 10
267.9746841931
 20
183.0633250562
 10
267.9721256867
 20
183.0646450818
  0
LINE
  5
339
100
AcDbEntity
  8
0
100
AcDbLine
 62
7
  6
CONTINUOUS
 10
266.7962578187
 20
205.8864022506
 11
266.7962578187
 21
205.2800188849
  0
LINE
  5
33A
100
AcDbEntity
  8
0
100
AcDbLine
 62
7
  6
CONTINUOUS
 10
266.7962578187
 20
185.0741837052
 11
266.7962578187
 21
185.680567071
  0
LINE
  5
33B
100
AcDbEntity
  8
0
100
AcDbLine
 62
250
  6
CONTINUOUS
 10
266.9074112797
 20
182.3911723459
 11
266.9074112797
 21
183.1653777668
  0
LINE
  5
33C
100
AcDbEntity
  8
0
100
AcDbLine
 62
250
  6
CONTINUOUS
 10
266.9074112797
 20
207.795208189
 11
266.9074112797
 21
208.56941361
  0
LINE
  5
33D
100
AcDbEntity
  8
0
100
AcDbLine
 62
250
  6
CONTINUOUS
 10
266.9231336135
 20
183.3052700642
 11
266.9231336135
 21
185.5536912762
  0
LINE
  5
33E
100
AcDbEntity
  8
0
100
AcDbLine
 62
250
  6
CONTINUOUS
 10
266.9231336135
 20
205.4068946796
 11
266.9231336135
 21
207.6553158916
  0
LWPOLYLINE
  5
33F
100
AcDbEntity
  8
0
100
AcDbPolyline
 62
7
  6
CONTINUOUS
 90
7
 70
0
 10
266.7478357501
 20
208.7289891396
 10
266.7486964583
 20
208.7472351565
 10
266.751217481
 20
208.7653051393
 10
266.7553724609
 20
208.7830495193
 10
266.7611216473
 20
208.8003221814
 10
266.7684123249
 20
208.8169816524
 10
266.7771793467
 20
208.8328922396
  0
LINE
  5
340
100
AcDbEntity
  8
0
100
AcDbLine
 62
7
  6
CONTINUOUS
 10
270.734271672
 20
214.9616449779
 11
270.361063672
 21
213.6539219779
  0
LINE
  5
341
100
AcDbEntity
  8
0
100
AcDbLine
 62
7
  6
CONTINUOUS
 10
273.244546672
 20
214.9616449779
 11
272.847974672
 21
213.9068449779
  0
LINE
  5
342
100
AcDbEntity
  8
0
100
AcDbLine
 62
7
  6
CONTINUOUS
 10
272.873618672
 20
213.0617989779
 11
273.345143672
 21
214.2971909779
  0
LINE
  5
343
100
AcDbEntity
  8
0
100
AcDbLine
 62
250
  6
CONTINUOUS
 10
284.1513211057
 20
216.9201380657
 11
284.2614606981
 21
217.030277658
  0
LINE
  5
344
100
AcDbEntity
  8
0
100
AcDbLine
 62
7
  6
CONTINUOUS
 10
279.288882672
 20
211.9802929779
 11
279.2683277458
 21
211.9597380516
  0
LINE
  5
345
100
AcDbEntity
  8
0
100
AcDbLine
 62
7
  6
CONTINUOUS
 10
279.8334455001
 20
205.9037008413
 11
279.7815075254
 21
205.8864022506
  0
LINE
  5
346
100
AcDbEntity
  8
0
100
AcDbLine
 62
7
  6
CONTINUOUS
 10
279.8334455001
 20
185.0568851145
 11
279.7815075254
 21
185.0741837052
  0
LINE
  5
347
100
AcDbEntity
  8
0
100
AcDbLine
 62
250
  6
CONTINUOUS
 10
284.2614606981
 20
173.9303082978
 11
284.1513211057
 21
174.0404478901
  0
LINE
  5
348
100
AcDbEntity
  8
0
100
AcDbLine
 62
7
  6
CONTINUOUS
 10
279.288882672
 20
178.9802929779
 11
279.2683277458
 21
179.0008479042
  0
LWPOLYLINE
  5
349
100
AcDbEntity
  8
0
100
AcDbPolyline
 62
7
  6
CONTINUOUS
 90
10
 70
0
 10
274.8909755673
 20
181.2898416564
 10
274.8782085703
 20
181.3095438752
 10
274.8642960707
 20
181.3282841101
 10
274.8492380686
 20
181.346062358
 10
274.833082988
 20
181.3628604538
 10
274.8157824049
 20
181.3786965568
 10
274.7971910475
 20
181.3936251511
 10
274.7772604921
 20
181.4076643966
 10
274.7560391623
 20
181.420796129
 10
274.7335270584
 20
181.4330203463
  0
LINE
  5
34A
100
AcDbEntity
  8
0
100
AcDbLine
 62
250
  6
CONTINUOUS
 10
267.990659597
 20
182.9444617702
 11
267.9867627324
 21
183.048565526
  0
LINE
  5
34B
100
AcDbEntity
  8
0
100
AcDbLine
 62
250
  6
CONTINUOUS
 10
268.138882672
 20
183.1272677225
 11
268.1367398866
 21
183.1845116941
  0
LWPOLYLINE
  5
34C
100
AcDbEntity
  8
RACCORDO
100
AcDbPolyline
 62
250
  6
CONTINUOUS
 90
64
 70
0
 10
268.0971402415
 20
195.4802929779
 10
268.1035673466
 20
195.2214851762
 10
268.1227774637
 20
194.9641961995
 10
268.1547705931
 20
194.7084261147
 10
268.1996959362
 20
194.4533991902
 10
268.2574042915
 20
194.1998912858
 10
268.327448054
 20
193.9502298433
 10
268.4099066866
 20
193.7046109538
 10
268.5047007265
 20
193.4628386128
 10
268.6111441802
 20
193.2266520927
 10
268.7293366901
 20
192.9960609929
 10
268.8591786139
 20
192.7710557455
 10
268.9996850316
 20
192.5533468402
 10
269.1509289934
 20
192.3430037711
 10
269.3128374491
 20
192.1399570127
 10
269.4842063277
 20
191.9457084924
 10
269.6651083063
 20
191.7603207795
 10
269.8554707079
 20
191.5837312173
 10
270.0538714292
 20
191.417253866
 10
270.2603692171
 20
191.2609653579
 10
270.4749053247
 20
191.1147889343
 10
270.6958814089
 20
190.9798085479
 10
270.9233450128
 20
190.8561076799
 10
271.1572485932
 20
190.7436027091
 10
271.3958511772
 20
190.6431269251
 10
271.6391868496
 20
190.5547699207
 10
271.8872215255
 20
190.4784419771
 10
272.1381119778
 20
190.4147074171
 10
272.3918791525
 20
190.3636595898
 10
272.6485021034
 20
190.3252050591
 10
272.9060747651
 20
190.2996279797
 10
273.1646039668
 20
190.2870237404
 10
273.4240828791
 20
190.2872969216
 10
273.6825849486
 20
190.3004454801
 10
273.9401030335
 20
190.3265647756
 10
274.1966442756
 20
190.36555948
 10
274.4503035458
 20
190.4171415326
 10
274.7010599914
 20
190.4814044125
 10
274.9489344651
 20
190.5582547284
 10
275.192084396
 20
190.6471241232
 10
275.4304751466
 20
190.7481020908
 10
275.6641413544
 20
190.8610992636
 10
275.89134436
 20
190.9852789936
 10
276.1120370968
 20
191.1207253219
 10
276.3262666313
 20
191.2673543474
 10
276.5324355046
 20
191.4240774977
 10
276.7304823515
 20
191.5909684532
 10
276.9204685371
 20
191.7679536594
 10
277.1009806979
 20
191.9537236714
 10
277.2719564302
 20
192.1483582623
 10
277.4334581377
 20
192.3517777458
 10
277.584259667
 20
192.5624334587
 10
277.7242642927
 20
192.7803523978
 10
277.8535687402
 20
193.0055075961
 10
277.9712370325
 20
193.2362694113
 10
278.0772137517
 20
193.4728196626
 10
278.1715543157
 20
193.7149764997
 10
278.2534890011
 20
193.9605647429
 10
278.3228504597
 20
194.2096558753
 10
278.3798060396
 20
194.4621783233
 10
278.4240880617
 20
194.7157422953
 10
278.4556072997
 20
194.9695511485
 10
278.47445298
 20
195.2244013979
 10
278.4806251025
 20
195.4802929779
  0
LINE
  5
34D
100
AcDbEntity
  8
0
100
AcDbLine
 62
7
  6
CONTINUOUS
 10
267.076101672
 20
177.6052929779
 11
267.076101672
 21
176.3552929779
  0
LINE
  5
34E
100
AcDbEntity
  8
0
100
AcDbLine
 62
7
  6
CONTINUOUS
 10
267.239743672
 20
176.3552929779
 11
267.239743672
 21
177.4034129779
  0
LINE
  5
34F
100
AcDbEntity
  8
0
100
AcDbLine
 62
7
  6
CONTINUOUS
 10
267.288882672
 20
178.1802929779
 11
267.288882672
 21
178.9802929779
  0
LINE
  5
350
100
AcDbEntity
  8
0
100
AcDbLine
 62
7
  6
CONTINUOUS
 10
267.288882672
 20
211.9802929779
 11
267.288882672
 21
212.7802929779
  0
LINE
  5
351
100
AcDbEntity
  8
0
100
AcDbLine
 62
250
  6
CONTINUOUS
 10
267.3068630936
 20
182.2013794325
 11
267.3068630936
 21
183.1802929779
  0
LINE
  5
352
100
AcDbEntity
  8
0
100
AcDbLine
 62
250
  6
CONTINUOUS
 10
267.3068630936
 20
207.7802929779
 11
267.3068630936
 21
208.7592065233
  0
LINE
  5
353
100
AcDbEntity
  8
0
100
AcDbLine
 62
250
  6
CONTINUOUS
 10
267.3225854274
 20
183.2797996464
 11
267.3225854274
 21
185.7434841895
  0
LINE
  5
354
100
AcDbEntity
  8
0
100
AcDbLine
 62
250
  6
CONTINUOUS
 10
267.3225854274
 20
205.2171017663
 11
267.3225854274
 21
207.6807863094
  0
LINE
  5
355
100
AcDbEntity
  8
0
100
AcDbLine
 62
250
  6
CONTINUOUS
 10
267.4900145558
 20
183.2797996464
 11
267.4900145558
 21
185.7434841895
  0
LINE
  5
356
100
AcDbEntity
  8
0
100
AcDbLine
 62
250
  6
CONTINUOUS
 10
267.4900145558
 20
205.2171017663
 11
267.4900145558
 21
207.6807863094
  0
LINE
  5
357
100
AcDbEntity
  8
0
100
AcDbLine
 62
250
  6
CONTINUOUS
 10
267.5429440368
 20
182.2013794325
 11
267.5429440368
 21
183.1802929779
  0
LINE
  5
358
100
AcDbEntity
  8
0
100
AcDbLine
 62
250
  6
CONTINUOUS
 10
267.5429440368
 20
207.7802929779
 11
267.5429440368
 21
208.7592065233
  0
LINE
  5
359
100
AcDbEntity
  8
0
100
AcDbLine
 62
250
  6
CONTINUOUS
 10
267.631437098
 20
183.4089163439
 11
267.631435912
 21
185.5437582826
  0
LINE
  5
35A
100
AcDbEntity
  8
0
100
AcDbLine
 62
250
  6
CONTINUOUS
 10
267.631435912
 20
205.4168276732
 11
267.6314360969
 21
207.5516691451
  0
LINE
  5
35B
100
AcDbEntity
  8
0
100
AcDbLine
 62
7
  6
CONTINUOUS
 10
267.638882672
 20
208.9284351134
 11
267.638882672
 21
208.7807181973
  0
LINE
  5
35C
100
AcDbEntity
  8
0
100
AcDbLine
 62
7
  6
CONTINUOUS
 10
267.638882672
 20
185.9331508229
 11
267.638882672
 21
185.7807181973
  0
LINE
  5
35D
100
AcDbEntity
  8
0
100
AcDbLine
 62
7
  6
CONTINUOUS
 10
267.638882672
 20
182.0321508424
 11
267.638882672
 21
182.1798677585
  0
LINE
  5
35E
100
AcDbEntity
  8
0
100
AcDbLine
 62
7
  6
CONTINUOUS
 10
267.638882672
 20
205.0274351329
 11
267.638882672
 21
205.1798677585
  0
LINE
  5
35F
100
AcDbEntity
  8
0
100
AcDbLine
 62
250
  6
CONTINUOUS
 10
267.6861484219
 20
182.4011053395
 11
267.6861484219
 21
183.1521352502
  0
LINE
  5
360
100
AcDbEntity
  8
0
100
AcDbLine
 62
250
  6
CONTINUOUS
 10
267.6861484219
 20
207.8084507056
 11
267.6861484219
 21
208.5594806164
  0
LINE
  5
361
100
AcDbEntity
  8
0
100
AcDbLine
 62
250
  6
CONTINUOUS
 10
267.880899882
 20
182.3906364894
 11
267.880899882
 21
183.0589867707
  0
LINE
  5
362
100
AcDbEntity
  8
0
100
AcDbLine
 62
250
  6
CONTINUOUS
 10
267.880899882
 20
207.9015991851
 11
267.880899882
 21
208.5699494664
  0
LINE
  5
363
100
AcDbEntity
  8
0
100
AcDbLine
 62
250
  6
CONTINUOUS
 10
267.9376650359
 20
182.3906364894
 11
267.9376650359
 21
182.9955106049
  0
LINE
  5
364
100
AcDbEntity
  8
0
100
AcDbLine
 62
250
  6
CONTINUOUS
 10
267.9376650359
 20
207.9650753509
 11
267.9376650359
 21
208.5699494664
  0
LINE
  5
365
100
AcDbEntity
  8
0
100
AcDbLine
 62
250
  6
CONTINUOUS
 10
268.0781917038
 20
183.2005912499
 11
268.0781917038
 21
185.5671717615
  0
LINE
  5
366
100
AcDbEntity
  8
0
100
AcDbLine
 62
250
  6
CONTINUOUS
 10
268.0781917038
 20
205.3934141943
 11
268.0781917038
 21
207.7599947059
  0
LINE
  5
367
100
AcDbEntity
  8
0
100
AcDbLine
 62
7
  6
CONTINUOUS
 10
268.110216672
 20
177.4051309779
 11
268.110216672
 21
176.3552929779
  0
LINE
  5
368
100
AcDbEntity
  8
0
100
AcDbLine
 62
250
  6
CONTINUOUS
 10
268.1367398866
 20
183.1845116941
 11
268.1367398866
 21
185.5671717615
  0
LINE
  5
369
100
AcDbEntity
  8
0
100
AcDbLine
 62
250
  6
CONTINUOUS
 10
268.1367398866
 20
205.3934141943
 11
268.1367398866
 21
207.7760742618
  0
LINE
  5
36A
100
AcDbEntity
  8
0
100
AcDbLine
 62
7
  6
CONTINUOUS
 10
268.273924672
 20
176.3552929779
 11
268.273924672
 21
177.6052929779
  0
LWPOLYLINE
  5
36B
100
AcDbEntity
  8
RACCORDO
100
AcDbPolyline
 62
250
  6
CONTINUOUS
 90
70
 70
0
 10
267.7400688201
 20
195.4802929779
 10
267.7438382113
 20
195.6845928783
 10
267.7548799418
 20
195.885354765
 10
267.7728126912
 20
196.0822975709
 10
267.7971621526
 20
196.2744719092
 10
267.8276116767
 20
196.4623632341
 10
267.8642237368
 20
196.6478724664
 10
267.9069606726
 20
196.8313548754
 10
267.9555539284
 20
197.0120892028
 10
268.009974015
 20
197.1903362109
 10
268.0696937031
 20
197.3648393149
 10
268.1348828616
 20
197.5365371118
 10
268.2069599356
 20
197.7088409203
 10
268.2859990463
 20
197.8811405917
 10
268.3723234431
 20
198.0533958111
 10
268.4685188049
 20
198.2294838931
 10
268.5757016218
 20
198.4095497724
 10
268.6940690087
 20
198.5920511596
 10
268.8254718857
 20
198.7778684531
 10
268.9709246014
 20
198.9662710416
 10
269.1309684819
 20
199.1558146797
 10
269.3069941589
 20
199.3459318939
 10
269.499438287
 20
199.5348688959
 10
269.7092415098
 20
199.7213613634
 10
269.9387712904
 20
199.9050228848
 10
270.1894006538
 20
200.0841661313
 10
270.4609812634
 20
200.2559072508
 10
270.7535752024
 20
200.4175646934
 10
271.0690480241
 20
200.5673084618
 10
271.4055017717
 20
200.7013220885
 10
271.7564670808
 20
200.8149608926
 10
272.1213301588
 20
200.9065692213
 10
272.4982427416
 20
200.9741925692
 10
272.8778278562
 20
201.0155836858
 10
273.2578859233
 20
201.0307408533
 10
273.6369970072
 20
201.0199001553
 10
274.0067498373
 20
200.9841815077
 10
274.36483612
 20
200.9254822313
 10
274.7107832499
 20
200.8454963278
 10
275.0394852257
 20
200.7473533314
 10
275.3489009915
 20
200.6341447294
 10
275.6401470122
 20
200.5078709192
 10
275.9134049413
 20
200.370698132
 10
276.1682796268
 20
200.2250153963
 10
276.4054237048
 20
200.0726280365
 10
276.6266591089
 20
199.9143407652
 10
276.8325613309
 20
199.7514757776
 10
277.0232410751
 20
199.5856921385
 10
277.1997388246
 20
199.4178210499
 10
277.3624476006
 20
199.249143284
 10
277.5119915741
 20
199.0806661335
 10
277.6496709508
 20
198.9125077096
 10
277.7755240073
 20
198.7461734537
 10
277.8906039617
 20
198.5818202686
 10
277.9973508101
 20
198.4171238197
 10
278.0959721305
 20
198.2526437589
 10
278.186804202
 20
198.0887186821
 10
278.2718467167
 20
197.9222406024
 10
278.3510858396
 20
197.7533092816
 10
278.4244244207
 20
197.5822416956
 10
278.4930640414
 20
197.4059182862
 10
278.5566625763
 20
197.2243346601
 10
278.6147943587
 20
197.0376971638
 10
278.6678729432
 20
196.8429873934
 10
278.7151947607
 20
196.6401616939
 10
278.755967698
 20
196.4294448505
 10
278.7897806476
 20
196.2081210664
 10
278.8155592665
 20
195.9754308701
 10
278.831945767
 20
195.7326694571
 10
278.8376965239
 20
195.4802929779
  0
LWPOLYLINE
  5
36C
100
AcDbEntity
  8
RACCORDO
100
AcDbPolyline
 62
250
  6
CONTINUOUS
 90
70
 70
0
 10
267.3829973988
 20
195.4802929063
 10
267.3876746297
 20
195.6980899295
 10
267.3992903626
 20
195.9115847058
 10
267.4178445974
 20
196.1207771994
 10
267.4435081701
 20
196.3251443994
 10
267.4761102447
 20
196.5252092596
 10
267.5151383131
 20
196.7225406946
 10
267.5605442808
 20
196.9176957122
 10
267.6123762423
 20
197.1101172587
 10
267.6702659733
 20
197.2997031572
 10
267.7335640031
 20
197.4853884799
 10
267.8029198024
 20
197.6682381277
 10
267.8799135585
 20
197.8513446556
 10
267.963857563
 20
198.0347314558
 10
268.0554395244
 20
198.2183750837
 10
268.158302755
 20
198.4052978073
 10
268.272511698
 20
198.5968246863
 10
268.3980019102
 20
198.7916305563
 10
268.5382233747
 20
198.9887623348
 10
268.6933132928
 20
199.189030968
 10
268.863134463
 20
199.3916254025
 10
269.050725264
 20
199.5931595906
 10
269.2558065651
 20
199.7939856586
 10
269.4786574968
 20
199.9937514333
 10
269.7231538292
 20
200.1880144984
 10
269.9903881483
 20
200.3779974231
 10
270.279267868
 20
200.5624776924
 10
270.5903909997
 20
200.7333454044
 10
270.9267001747
 20
200.8911140126
 10
271.2852527618
 20
201.0352703075
 10
271.6578188785
 20
201.1561645696
 10
272.0460283393
 20
201.25197004
 10
272.4482513297
 20
201.3245138206
 10
272.8513685249
 20
201.3696270495
 10
273.2550974291
 20
201.3848717678
 10
273.659720538
 20
201.3726860549
 10
274.0529660131
 20
201.3362150514
 10
274.4332112501
 20
201.2739219706
 10
274.8020788533
 20
201.1873434276
 10
275.152164797
 20
201.0842346546
 10
275.481074212
 20
200.9648111783
 10
275.7912019675
 20
200.8288572357
 10
276.0823286446
 20
200.6834812134
 10
276.3535733129
 20
200.5294943292
 10
276.6058169029
 20
200.3660852201
 10
276.8414827872
 20
200.1979285099
 10
277.0607073146
 20
200.0253464787
 10
277.2633541363
 20
199.8480167961
 10
277.4514375783
 20
199.6696472536
 10
277.6248054525
 20
199.4907360162
 10
277.783609947
 20
199.3107849492
 10
277.9303219516
 20
199.1320074502
 10
278.0646196153
 20
198.9555121107
 10
278.1868247891
 20
198.7801904087
 10
278.3003739152
 20
198.6049300806
 10
278.4056271893
 20
198.4302257926
 10
278.5022244157
 20
198.2555829247
 10
278.5925214499
 20
198.0784052604
 10
278.6770327976
 20
197.8988195803
 10
278.755243953
 20
197.7166991216
 10
278.8279672547
 20
197.5290673242
 10
278.8957295403
 20
197.3359298089
 10
278.9580039721
 20
197.1372809586
 10
279.0140223759
 20
196.9301273351
 10
279.0643602457
 20
196.7142980165
 10
279.1084420874
 20
196.489963938
 10
279.1437732439
 20
196.2546444382
 10
279.1695221629
 20
196.0075126479
 10
279.1865203967
 20
195.7493954997
 10
279.1947679453
 20
195.4802930495
  0
LINE
  5
36D
100
AcDbEntity
  8
0
100
AcDbLine
 62
250
  6
CONTINUOUS
 10
267.9867627324
 20
207.9120204298
 11
267.990659597
 21
208.0161241856
  0
LINE
  5
36E
100
AcDbEntity
  8
0
100
AcDbLine
 62
250
  6
CONTINUOUS
 10
268.1367398866
 20
207.7760742618
 11
268.138882672
 21
207.8333182334
  0
LINE
  5
36F
100
AcDbEntity
  8
0
100
AcDbLine
 62
250
  6
CONTINUOUS
 10
266.9231336135
 20
183.3052700642
 11
266.9074112797
 21
183.1653777668
  0
LINE
  5
370
100
AcDbEntity
  8
0
100
AcDbLine
 62
250
  6
CONTINUOUS
 10
267.0729280437
 20
183.1693238962
 11
267.0700938873
 21
183.1441064788
  0
LINE
  5
371
100
AcDbEntity
  8
0
100
AcDbLine
 62
7
  6
CONTINUOUS
 10
272.503370672
 20
210.2487359779
 11
272.785104672
 21
211.0672229779
  0
LINE
  5
372
100
AcDbEntity
  8
0
100
AcDbLine
 62
7
  6
CONTINUOUS
 10
272.256048672
 20
209.5302929779
 11
272.398120672
 21
209.9329869779
  0
LINE
  5
373
100
AcDbEntity
  8
0
100
AcDbLine
 62
7
  6
CONTINUOUS
 10
272.553421672
 20
211.4302929779
 11
271.866581672
 21
209.5302929779
  0
LINE
  5
374
100
AcDbEntity
  8
0
100
AcDbLine
 62
250
  6
CONTINUOUS
 10
279.4706281574
 20
208.7691395169
 11
279.5639529222
 21
208.8624642817
  0
LINE
  5
375
100
AcDbEntity
  8
0
100
AcDbLine
 62
250
  6
CONTINUOUS
 10
279.6703540644
 20
208.56941361
 11
279.829929594
 21
208.7289891396
  0
LINE
  5
376
100
AcDbEntity
  8
0
100
AcDbLine
 62
250
  6
CONTINUOUS
 10
279.5639529222
 20
182.0981216741
 11
279.4706281574
 21
182.1914464389
  0
LINE
  5
377
100
AcDbEntity
  8
0
100
AcDbLine
 62
250
  6
CONTINUOUS
 10
279.829929594
 20
182.2315968162
 11
279.6703540644
 21
182.3911723459
  0
LINE
  5
378
100
AcDbEntity
  8
0
100
AcDbLine
 62
7
  6
CONTINUOUS
 10
278.389148672
 20
177.6052929779
 11
278.860944672
 21
176.8584269779
  0
LINE
  5
379
100
AcDbEntity
  8
0
100
AcDbLine
 62
250
  6
CONTINUOUS
 10
266.9074112797
 20
207.795208189
 11
266.9231336135
 21
207.6553158916
  0
LINE
  5
37A
100
AcDbEntity
  8
0
100
AcDbLine
 62
250
  6
CONTINUOUS
 10
267.0700938873
 20
207.816479477
 11
267.0729280437
 21
207.7912620596
  0
LINE
  5
37B
100
AcDbEntity
  8
0
100
AcDbLine
 62
7
  6
CONTINUOUS
 10
268.932244672
 20
211.4302929779
 11
268.932244672
 21
209.5302929779
  0
LINE
  5
37C
100
AcDbEntity
  8
0
100
AcDbLine
 62
7
  6
CONTINUOUS
 10
269.340158672
 20
209.5302929779
 11
269.340158672
 21
210.2619639779
  0
LINE
  5
37D
100
AcDbEntity
  8
0
100
AcDbLine
 62
7
  6
CONTINUOUS
 10
269.340158672
 20
210.5777129779
 11
269.340158672
 21
211.1145439779
  0
LINE
  5
37E
100
AcDbEntity
  8
0
100
AcDbLine
 62
7
  6
CONTINUOUS
 10
269.701492672
 20
177.6052929779
 11
269.701492672
 21
176.3552929779
  0
LINE
  5
37F
100
AcDbEntity
  8
0
100
AcDbLine
 62
7
  6
CONTINUOUS
 10
269.870416672
 20
176.4997529779
 11
269.870416672
 21
177.4608329779
  0
LWPOLYLINE
  5
380
100
AcDbEntity
  8
0
100
AcDbPolyline
 62
7
  6
CONTINUOUS
 90
21
 70
0
 10
269.8612165583
 20
210.8664219704
 10
269.8612261049
 20
210.8257486721
 10
269.8600883176
 20
210.8057561884
 10
269.8578462722
 20
210.7861512593
 10
269.8545505233
 20
210.7668749197
 10
269.8501505163
 20
210.7479861373
 10
269.8444945868
 20
210.7296618142
 10
269.8375237967
 20
210.7118278364
 10
269.8292970841
 20
210.6945583214
 10
269.8198395994
 20
210.67825252
 10
269.8091471576
 20
210.6628346436
 10
269.7972239436
 20
210.6483804863
 10
269.7841076628
 20
210.6355166757
 10
269.7696251834
 20
210.6245098345
 10
269.7539496372
 20
210.6150933474
 10
269.7376381243
 20
210.6070939855
 10
269.7207049942
 20
210.6006366123
 10
269.7031358974
 20
210.5955963682
 10
269.685444886
 20
210.5914254386
 10
269.667790018
 20
210.58815777
 10
269.6500132354
 20
210.5857594172
  0
LINE
  5
381
100
AcDbEntity
  8
0
100
AcDbLine
 62
7
  6
CONTINUOUS
 10
274.459665672
 20
213.7345589779
 11
274.657125672
 21
214.4396159779
  0
LINE
  5
382
100
AcDbEntity
  8
0
100
AcDbLine
 62
7
  6
CONTINUOUS
 10
274.269115672
 20
213.0617989779
 11
274.378544672
 21
213.4410759779
  0
LINE
  5
383
100
AcDbEntity
  8
0
100
AcDbLine
 62
7
  6
CONTINUOUS
 10
274.472758672
 20
214.9616449779
 11
273.876845672
 21
213.0617989779
  0
LWPOLYLINE
  5
384
100
AcDbEntity
  8
0
100
AcDbPolyline
 62
7
  6
CONTINUOUS
 90
16
 70
0
 10
283.0480528601
 20
185.9182334547
 10
283.0447802935
 20
185.9198436281
 10
283.0386408369
 20
185.9213983856
 10
283.0296344902
 20
185.9228977271
 10
283.0176014209
 20
185.9243563268
 10
283.0027014616
 20
185.9257595106
 10
282.9854141102
 20
185.9270632561
 10
282.9656977812
 20
185.928263097
 10
282.9435940601
 20
185.9293634997
 10
282.919707201
 20
185.93033384
 10
282.8939313994
 20
185.9311717807
 10
282.8663724596
 20
185.9318796592
 10
282.8379520497
 20
185.9324338635
 10
282.808977392
 20
185.932826523
 10
282.779141264
 20
185.9330655083
 10
278.938882672
 20
185.9331508229
  0
LINE
  5
385
100
AcDbEntity
  8
0
100
AcDbLine
 62
7
  6
CONTINUOUS
 10
278.944547672
 20
177.0046059779
 11
278.585873672
 21
177.6052929779
  0
LWPOLYLINE
  5
386
100
AcDbEntity
  8
0
100
AcDbPolyline
 62
250
  6
CONTINUOUS
 90
37
 70
0
 10
267.0729280437
 20
207.7912620596
 10
267.0745511937
 20
207.7834431247
 10
267.0769692177
 20
207.7759702745
 10
267.0801821155
 20
207.768843509
 10
267.0842790617
 20
207.7620653939
 10
267.0891708819
 20
207.7556333636
 10
267.0945900529
 20
207.7495397208
 10
267.1005137472
 20
207.7437899646
 10
267.1069647925
 20
207.7383785959
 10
267.1137441481
 20
207.7332814209
 10
267.1208393796
 20
207.7284987364
 10
267.1282629214
 20
207.7240302455
 10
267.1358530368
 20
207.7198508636
 10
267.1435953137
 20
207.7159634528
 10
267.1515041642
 20
207.712365151
 10
267.159461088
 20
207.7090222874
 10
267.1674492927
 20
207.7059368072
 10
267.1754855708
 20
207.7031067651
 10
267.1835017987
 20
207.7004926544
 10
267.191484812
 20
207.6980936459
 10
267.1994477751
 20
207.6959105688
 10
267.207362058
 20
207.693906404
 10
267.215218094
 20
207.6920789835
 10
267.2230254498
 20
207.6904304752
 10
267.2307841952
 20
207.6889303651
 10
267.2384873363
 20
207.6875759383
 10
267.2461418669
 20
207.6863699095
 10
267.2537688384
 20
207.6852899086
 10
267.261363487
 20
207.6843328933
 10
267.2689305766
 20
207.6835019059
 10
267.27650545
 20
207.6827837028
 10
267.2840851999
 20
207.6821749869
 10
267.2916727337
 20
207.6816790553
 10
267.2993121168
 20
207.6812925569
 10
267.3070180377
 20
207.6810143746
 10
267.3147758079
 20
207.6808456254
 10
267.3225854274
 20
207.6807863094
  0
LWPOLYLINE
  5
387
100
AcDbEntity
  8
0
100
AcDbPolyline
 62
7
  6
CONTINUOUS
 90
37
 70
0
 10
270.2954862332
 20
210.8461287089
 10
270.2950561777
 20
210.8787030253
 10
270.2933204006
 20
210.9108419742
 10
270.2902789019
 20
210.9425455582
 10
270.2860236044
 20
210.9738686978
 10
270.2804625854
 20
211.0047564772
 10
270.273320076
 20
211.0350441453
 10
270.2645279761
 20
211.0648087375
 10
270.2541543859
 20
211.0939732247
 10
270.2421278367
 20
211.1221417627
 10
270.2284239251
 20
211.1492917265
 10
270.2130670546
 20
211.1754457514
 10
270.1960589668
 20
211.2002758877
 10
270.1772790911
 20
211.2237256982
 10
270.1568479982
 20
211.2458516323
 10
270.1351291412
 20
211.2664950716
 10
270.1121166442
 20
211.2855921337
 10
270.0878163833
 20
211.3032067124
 10
270.0626094399
 20
211.3193718536
 10
270.0364598545
 20
211.3340394094
 10
270.0094035867
 20
211.3472575364
 10
269.9819295969
 20
211.3592037353
 10
269.9541538285
 20
211.3698332538
 10
269.925960338
 20
211.3791908498
 10
269.8974902557
 20
211.3875882891
 10
269.8688598631
 20
211.3950743365
 10
269.8399528787
 20
211.40160023
 10
269.8105615881
 20
211.4073314432
 10
269.7807040788
 20
211.4122821452
 10
269.7503622633
 20
211.4164381686
 10
269.7192741651
 20
211.4199224818
 10
269.6874590333
 20
211.4226529422
 10
269.6548976187
 20
211.4247116934
 10
269.6212701974
 20
211.4264681328
 10
269.5864701948
 20
211.4280453928
 10
269.5506041854
 20
211.4293203411
 10
269.5136721694
 20
211.4302929779
  0
LINE
  5
388
100
AcDbEntity
  8
0
100
AcDbLine
 62
7
  6
CONTINUOUS
 10
270.550745672
 20
211.4302929779
 11
270.550745672
 21
209.5302929779
  0
LINE
  5
389
100
AcDbEntity
  8
0
100
AcDbLine
 62
7
  6
CONTINUOUS
 10
270.6817884214
 20
181.1098973473
 11
270.6817884214
 21
180.9318618794
  0
LINE
  5
38A
100
AcDbEntity
  8
0
100
AcDbLine
 62
7
  6
CONTINUOUS
 10
270.958659672
 20
209.8460419779
 11
270.958659672
 21
211.4302929779
  0
LINE
  5
38B
100
AcDbEntity
  8
0
100
AcDbLine
 62
7
  6
CONTINUOUS
 10
270.967211672
 20
177.6052929779
 11
270.967211672
 21
176.3552929779
  0
LINE
  5
38C
100
AcDbEntity
  8
0
100
AcDbLine
 62
7
  6
CONTINUOUS
 10
271.0501376607
 20
181.1538946053
 11
271.0501376607
 21
179.9802929779
  0
LINE
  5
38D
100
AcDbEntity
  8
0
100
AcDbLine
 62
7
  6
CONTINUOUS
 10
271.136126672
 20
176.5050099779
 11
271.136126672
 21
176.9228219779
  0
LINE
  5
38E
100
AcDbEntity
  8
0
100
AcDbLine
 62
7
  6
CONTINUOUS
 10
271.136126672
 20
177.0725389779
 11
271.136126672
 21
177.4555759779
  0
LINE
  5
38F
100
AcDbEntity
  8
0
100
AcDbLine
 62
7
  6
CONTINUOUS
 10
271.2343122579
 20
179.9802929779
 11
271.2343122579
 21
181.4864321967
  0
LINE
  5
390
100
AcDbEntity
  8
0
100
AcDbLine
 62
7
  6
CONTINUOUS
 10
271.277741672
 20
214.9617589779
 11
271.277741672
 21
213.0617989779
  0
LINE
  5
391
100
AcDbEntity
  8
0
100
AcDbLine
 62
7
  6
CONTINUOUS
 10
271.6456356265
 20
180.5082602521
 11
271.6456356265
 21
180.3394335007
  0
LINE
  5
392
100
AcDbEntity
  8
0
100
AcDbLine
 62
7
  6
CONTINUOUS
 10
271.661658672
 20
209.5302929779
 11
271.661658672
 21
209.8460419779
  0
LINE
  5
393
100
AcDbEntity
  8
0
100
AcDbLine
 62
7
  6
CONTINUOUS
 10
271.674313672
 20
213.0617989779
 11
271.674313672
 21
214.9617589779
  0
LINE
  5
394
100
AcDbEntity
  8
0
100
AcDbLine
 62
7
  6
CONTINUOUS
 10
271.820325672
 20
176.9228219779
 11
271.820325672
 21
177.0725389779
  0
LWPOLYLINE
  5
395
100
AcDbEntity
  8
0
100
AcDbPolyline
 62
7
  6
CONTINUOUS
 90
25
 70
0
 10
270.5595645193
 20
176.9802929779
 10
270.5594714512
 20
176.9484364781
 10
270.5582131329
 20
176.9173398972
 10
270.5557895644
 20
176.8870032299
 10
270.5521669553
 20
176.8574631202
 10
270.5473790959
 20
176.828682914
 10
270.5415273579
 20
176.8005526598
 10
270.5348125701
 20
176.7729526635
 10
270.5270339036
 20
176.7460026117
 10
270.5176902431
 20
176.7199516234
 10
270.5066524494
 20
176.6947695609
 10
270.4940496618
 20
176.6704865516
 10
270.4797681825
 20
176.647442109
 10
270.4637160103
 20
176.6256137675
 10
270.4459851463
 20
176.6050239802
 10
270.4267378968
 20
176.586079636
 10
270.4058575697
 20
176.5688086892
 10
270.383460857
 20
176.5531831718
 10
270.3600601409
 20
176.5395260869
 10
270.3356694376
 20
176.5279381873
 10
270.3102747308
 20
176.5183187087
 10
270.2843463532
 20
176.5106883783
 10
270.2580410823
 20
176.5050541032
 10
270.2312021407
 20
176.5014089703
 10
270.2038295282
 20
176.4997529779
  0
LWPOLYLINE
  5
396
100
AcDbEntity
  8
0
100
AcDbPolyline
 62
7
  6
CONTINUOUS
 90
25
 70
0
 10
270.7333224976
 20
176.9802929779
 10
270.7335089376
 20
177.0227992348
 10
270.7316748361
 20
177.0643329811
 10
270.727820193
 20
177.1048942075
 10
270.7219032552
 20
177.1444801515
 10
270.7139657758
 20
177.1830935578
 10
270.7041330147
 20
177.2207426777
 10
270.6925130935
 20
177.2575692453
 10
270.6789978906
 20
177.2934315111
 10
270.6633883006
 20
177.3279124981
 10
270.645631958
 20
177.36100011
 10
270.6257812283
 20
177.3927064223
 10
270.6037941031
 20
177.4226507112
 10
270.5795348152
 20
177.4508701797
 10
270.5531391318
 20
177.4773276023
 10
270.5249723464
 20
177.5015306082
 10
270.4949792837
 20
177.5234785873
 10
270.463215119
 20
177.5431721268
 10
270.4302106719
 20
177.5601206486
 10
270.3959114395
 20
177.5740825394
 10
270.3603719247
 20
177.5852993934
 10
270.3242864558
 20
177.5940054442
 10
270.2878864756
 20
177.6002787673
 10
270.2509405413
 20
177.6040412792
 10
270.2134486528
 20
177.6052929779
  0
LINE
  5
397
100
AcDbEntity
  8
0
100
AcDbLine
 62
7
  6
CONTINUOUS
 10
272.267191672
 20
213.0617989779
 11
272.352772672
 21
214.3023629779
  0
LINE
  5
398
100
AcDbEntity
  8
0
100
AcDbLine
 62
7
  6
CONTINUOUS
 10
272.059346672
 20
214.9616449779
 11
271.887801672
 21
213.0617989779
  0
LINE
  5
399
100
AcDbEntity
  8
0
100
AcDbLine
 62
250
  6
CONTINUOUS
 10
267.9367703476
 20
185.7668976685
 11
267.9399652627
 21
185.7764902082
  0
LINE
  5
39A
100
AcDbEntity
  8
0
100
AcDbLine
 62
250
  6
CONTINUOUS
 10
268.1367398866
 20
185.5671717615
 11
268.138882672
 21
185.5736053454
  0
LINE
  5
39B
100
AcDbEntity
  8
0
100
AcDbLine
 62
7
  6
CONTINUOUS
 10
276.450807672
 20
210.2487359779
 11
276.732504672
 21
211.0671159779
  0
LINE
  5
39C
100
AcDbEntity
  8
0
100
AcDbLine
 62
7
  6
CONTINUOUS
 10
276.203413672
 20
209.5302929779
 11
276.345557672
 21
209.9329869779
  0
LINE
  5
39D
100
AcDbEntity
  8
0
100
AcDbLine
 62
7
  6
CONTINUOUS
 10
276.500858672
 20
211.4302929779
 11
275.813946672
 21
209.5302929779
  0
LWPOLYLINE
  5
39E
100
AcDbEntity
  8
0
100
AcDbPolyline
 62
250
  6
CONTINUOUS
 90
16
 70
0
 10
279.302689198
 20
208.8297064167
 10
279.3096664177
 20
208.8397723318
 10
279.3180083742
 20
208.8487960533
 10
279.3275518211
 20
208.856587581
 10
279.3381141459
 20
208.8629662866
 10
279.3494706769
 20
208.8678141397
 10
279.3613829049
 20
208.8710871926
 10
279.3736310272
 20
208.8727423329
 10
279.3859926989
 20
208.8727296623
 10
279.3982366824
 20
208.8710494343
 10
279.4101465941
 20
208.8677499718
 10
279.4214962636
 20
208.862875917
 10
279.4320319884
 20
208.8564832094
 10
279.441529735
 20
208.8487007472
 10
279.4498194722
 20
208.8397108474
 10
279.4567461328
 20
208.8297062479
  0
LINE
  5
39F
100
AcDbEntity
  8
0
100
AcDbLine
 62
7
  6
CONTINUOUS
 10
277.374187672
 20
176.3552929779
 11
276.921467672
 21
177.6052929779
  0
LINE
  5
3A0
100
AcDbEntity
  8
0
100
AcDbLine
 62
7
  6
CONTINUOUS
 10
277.065988672
 20
176.7191219779
 11
277.189593672
 21
176.3552929779
  0
LINE
  5
3A1
100
AcDbEntity
  8
0
100
AcDbLine
 62
7
  6
CONTINUOUS
 10
276.818799672
 20
177.4239819779
 11
277.005040672
 21
176.8688389779
  0
LINE
  5
3A2
100
AcDbEntity
  8
0
100
AcDbLine
 62
250
  6
CONTINUOUS
 10
267.9399652627
 20
205.1840957476
 11
267.9367703476
 21
205.1936882874
  0
LINE
  5
3A3
100
AcDbEntity
  8
0
100
AcDbLine
 62
250
  6
CONTINUOUS
 10
268.138882672
 20
205.3869806104
 11
268.1367398866
 21
205.3934141943
  0
LWPOLYLINE
  5
3A4
100
AcDbEntity
  8
0
100
AcDbPolyline
 62
250
  6
CONTINUOUS
 90
37
 70
0
 10
266.9231336135
 20
207.6553158916
 10
266.9254346055
 20
207.6474962235
 10
266.929363722
 20
207.640022979
 10
266.9347400467
 20
207.6328961579
 10
266.9413719751
 20
207.6261185358
 10
266.9490940937
 20
207.6196873371
 10
266.9577929026
 20
207.6135942355
 10
266.967331572
 20
207.6078443879
 10
266.977571143
 20
207.6024326374
 10
266.9884393716
 20
207.5973351861
 10
266.9998370472
 20
207.5925525094
 10
267.0116504075
 20
207.588084132
 10
267.0238136221
 20
207.5839048306
 10
267.0362382687
 20
207.5800174071
 10
267.0488420021
 20
207.5764190596
 10
267.0615864901
 20
207.5730761598
 10
267.0743974466
 20
207.5699906706
 10
267.0872176432
 20
207.5671606291
 10
267.1000516259
 20
207.5645465183
 10
267.112846692
 20
207.5621475054
 10
267.1255602836
 20
207.5599644232
 10
267.1382280384
 20
207.5579602533
 10
267.1508135335
 20
207.5561328265
 10
267.1632862644
 20
207.5544843119
 10
267.1757034561
 20
207.5529841989
 10
267.1880394579
 20
207.5516297769
 10
267.2002733407
 20
207.5504237564
 10
267.2124788864
 20
207.549343758
 10
267.2246377658
 20
207.5483867318
 10
267.2367353262
 20
207.5475557277
 10
267.2488574626
 20
207.5468375166
 10
267.2609900409
 20
207.5462288112
 10
267.2731220677
 20
207.5457328988
 10
267.2853481311
 20
207.5453464123
 10
267.2976928127
 20
207.5450682294
 10
267.310109172
 20
207.5448994724
 10
267.3225854274
 20
207.5448401413
  0
LINE
  5
3A5
100
AcDbEntity
  8
0
100
AcDbLine
 62
7
  6
CONTINUOUS
 10
271.877775672
 20
177.4555759779
 11
271.877775672
 21
177.6052929779
  0
LINE
  5
3A6
100
AcDbEntity
  8
0
100
AcDbLine
 62
7
  6
CONTINUOUS
 10
271.889977672
 20
176.3552929779
 11
271.889977672
 21
176.5050099779
  0
LINE
  5
3A7
100
AcDbEntity
  8
0
100
AcDbLine
 62
7
  6
CONTINUOUS
 10
272.2963860251
 20
181.1845903417
 11
272.2963860251
 21
180.5082602521
  0
LINE
  5
3A8
100
AcDbEntity
  8
0
100
AcDbLine
 62
7
  6
CONTINUOUS
 10
272.2963860251
 20
180.3394335007
 11
272.2963860251
 21
179.9802929779
  0
LINE
  5
3A9
100
AcDbEntity
  8
0
100
AcDbLine
 62
7
  6
CONTINUOUS
 10
272.4805606224
 20
179.9802929779
 11
272.4805606224
 21
180.3394335007
  0
LINE
  5
3AA
100
AcDbEntity
  8
0
100
AcDbLine
 62
7
  6
CONTINUOUS
 10
272.4805606224
 20
180.5082602521
 11
272.4805606224
 21
181.4802929779
  0
LINE
  5
3AB
100
AcDbEntity
  8
0
100
AcDbLine
 62
7
  6
CONTINUOUS
 10
272.621215672
 20
177.6052929779
 11
272.621215672
 21
176.3552929779
  0
LINE
  5
3AC
100
AcDbEntity
  8
0
100
AcDbLine
 62
7
  6
CONTINUOUS
 10
272.6831526972
 20
180.3394335007
 11
272.6831526972
 21
180.5082602521
  0
LINE
  5
3AD
100
AcDbEntity
  8
0
100
AcDbLine
 62
7
  6
CONTINUOUS
 10
272.790078672
 20
176.3552929779
 11
272.790078672
 21
177.6052929779
  0
LINE
  5
3AE
100
AcDbEntity
  8
0
100
AcDbLine
 62
7
  6
CONTINUOUS
 10
273.0126205899
 20
181.1098973473
 11
273.0126205899
 21
180.9318618794
  0
LINE
  5
3AF
100
AcDbEntity
  8
0
100
AcDbLine
 62
7
  6
CONTINUOUS
 10
273.079039672
 20
177.6052929779
 11
273.079039672
 21
176.3552929779
  0
LINE
  5
3B0
100
AcDbEntity
  8
0
100
AcDbLine
 62
7
  6
CONTINUOUS
 10
273.242757672
 20
176.3552929779
 11
273.242757672
 21
177.3704429779
  0
LINE
  5
3B1
100
AcDbEntity
  8
0
100
AcDbLine
 62
7
  6
CONTINUOUS
 10
273.3809697844
 20
181.1538946053
 11
273.3809697844
 21
179.9802929779
  0
LWPOLYLINE
  5
3B2
100
AcDbEntity
  8
RACCORDO
100
AcDbPolyline
 62
250
  6
CONTINUOUS
 90
37
 70
0
 10
272.0736729401
 20
195.4802929779
 10
272.0791814338
 20
195.5963603744
 10
272.0955796084
 20
195.71078614
 10
272.1225511185
 20
195.8225752406
 10
272.1596105369
 20
195.9306006938
 10
272.2063239863
 20
196.0341721318
 10
272.2624826826
 20
196.13295739
 10
272.3277539537
 20
196.2263015496
 10
272.4014597656
 20
196.3131656129
 10
272.4828662658
 20
196.3926594788
 10
272.5711650191
 20
196.4640674747
 10
272.6656151508
 20
196.5268607334
 10
272.7654661748
 20
196.5805363581
 10
272.8698447191
 20
196.6246396513
 10
272.9778196757
 20
196.6588013046
 10
273.0885041783
 20
196.6827313022
 10
273.2009134801
 20
196.6962166705
 10
273.3140701149
 20
196.6991537237
 10
273.4270761231
 20
196.6915105142
 10
273.5392785602
 20
196.6732560113
 10
273.6493305199
 20
196.6445491166
 10
273.7553771476
 20
196.6060136081
 10
273.8570811072
 20
196.5579481727
 10
273.953131292
 20
196.5011666864
 10
274.0407765943
 20
196.4380376958
 10
274.1193966841
 20
196.3702802535
 10
274.18956331
 20
196.2987107262
 10
274.2510378847
 20
196.2249741139
 10
274.303473241
 20
196.1512882901
 10
274.3482423151
 20
196.0776027534
 10
274.387332105
 20
196.0017218399
 10
274.4206093035
 20
195.9243568191
 10
274.4482177255
 20
195.845700965
 10
274.4711802974
 20
195.7621024921
 10
274.4889176289
 20
195.6724125953
 10
274.5001691742
 20
195.5783184711
 10
274.5040924045
 20
195.4802929779
  0
LWPOLYLINE
  5
3B3
100
AcDbEntity
  8
RACCORDO
100
AcDbPolyline
 62
250
  6
CONTINUOUS
 90
37
 70
0
 10
271.8711379842
 20
195.4802929779
 10
271.8783429543
 20
195.6174003314
 10
271.8973511391
 20
195.7503766451
 10
271.9281625383
 20
195.8792219106
 10
271.9712352352
 20
196.004746785
 10
272.0261111466
 20
196.1261405994
 10
272.0914160234
 20
196.2409713617
 10
272.1674797444
 20
196.3493411779
 10
272.2539724309
 20
196.451147944
 10
272.3485301974
 20
196.5436533607
 10
272.4513061173
 20
196.6265428235
 10
272.5621471172
 20
196.7001309525
 10
272.6782300923
 20
196.7626232908
 10
272.7996901126
 20
196.8137555416
 10
272.9263921081
 20
196.8537920197
 10
273.0551077626
 20
196.881731188
 10
273.1858759959
 20
196.8972763443
 10
273.3186578882
 20
196.9007241996
 10
273.4501083649
 20
196.8919633328
 10
273.5805223683
 20
196.8704473561
 10
273.7096049561
 20
196.836722651
 10
273.8331262267
 20
196.7923169483
 10
273.9510691499
 20
196.7361254237
 10
274.0634507559
 20
196.6692528849
 10
274.1660922333
 20
196.596541515
 10
274.257550044
 20
196.5180989064
 10
274.339267726
 20
196.4338174583
 10
274.4113970826
 20
196.3482165739
 10
274.473058794
 20
196.2630694242
 10
274.5251321798
 20
196.176602842
 10
274.5704070023
 20
196.088016727
 10
274.6097479328
 20
195.9981590743
 10
274.6422902998
 20
195.9061818922
 10
274.6682298513
 20
195.8087410981
 10
274.6876318364
 20
195.7047219983
 10
274.700431006
 20
195.5952392902
 10
274.7066273599
 20
195.4802929779
  0
LWPOLYLINE
  5
3B4
100
AcDbEntity
  8
0
100
AcDbPolyline
 62
7
  6
CONTINUOUS
 90
25
 70
0
 10
278.9827708031
 20
208.9284351134
 10
279.0023163291
 20
208.9720504206
 10
279.0258065026
 20
209.0123830921
 10
279.0532413235
 20
209.0494331492
 10
279.085046059
 20
209.0835672281
 10
279.120795442
 20
209.1144187291
 10
279.1592136707
 20
209.1408878232
 10
279.2004010125
 20
209.1628183834
 10
279.2442572
 20
209.1803665721
 10
279.2892056297
 20
209.1929009974
 10
279.3352840837
 20
209.2002383059
 10
279.38245478
 20
209.2025618678
 10
279.4290277686
 20
209.199790372
 10
279.4749795355
 20
209.1917408811
 10
279.5203335948
 20
209.1785963234
 10
279.5634705384
 20
209.1608241813
 10
279.6043143844
 20
209.1382542526
 10
279.6429411148
 20
209.1110567084
 10
279.6779592678
 20
209.0802095919
 10
279.7092353612
 20
209.0455777496
 10
279.7369028771
 20
209.0072962956
 10
279.7599708003
 20
208.966748684
 10
279.7781087921
 20
208.9243960601
 10
279.7916471912
 20
208.8797772506
 10
279.8005859974
 20
208.8328922396
  0
LINE
  5
3B5
100
AcDbEntity
  8
0
100
AcDbLine
 62
7
  6
CONTINUOUS
 10
263.529712484
 20
185.9182334547
 11
263.4917720072
 21
185.8802929779
  0
LINE
  5
3B6
100
AcDbEntity
  8
0
100
AcDbLine
 62
7
  6
CONTINUOUS
 10
283.0480528601
 20
205.0423525011
 11
283.0859933369
 21
205.0802929779
  0
LINE
  5
3B7
100
AcDbEntity
  8
0
100
AcDbLine
 62
7
  6
CONTINUOUS
 10
263.529712484
 20
205.0423525011
 11
263.4917720072
 21
205.0802929779
  0
LINE
  5
3B8
100
AcDbEntity
  8
0
100
AcDbLine
 62
7
  6
CONTINUOUS
 10
283.0480528601
 20
185.9182334547
 11
283.0859933369
 21
185.8802929779
  0
LWPOLYLINE
  5
3B9
100
AcDbEntity
  8
0
100
AcDbPolyline
 62
7
  6
CONTINUOUS
 90
10
 70
0
 10
274.037859223
 20
180.3762684335
 10
274.0436194499
 20
180.3344447973
 10
274.0520459542
 20
180.2946758683
 10
274.063138736
 20
180.2569616316
 10
274.0768874174
 20
180.2214038916
 10
274.0933023763
 20
180.1879008163
 10
274.1124147461
 20
180.1561469395
 10
274.1342349048
 20
180.1260404332
 10
274.1587524744
 20
180.0976831061
 10
274.185967455
 20
180.0710749489
  0
LINE
  5
3BA
100
AcDbEntity
  8
0
100
AcDbLine
 62
7
  6
CONTINUOUS
 10
273.345143672
 20
214.2971909779
 11
273.426620672
 21
213.0617989779
  0
LWPOLYLINE
  5
3BB
100
AcDbEntity
  8
0
100
AcDbPolyline
 62
7
  6
CONTINUOUS
 90
10
 70
0
 10
274.9464543082
 20
181.0965958258
 10
274.9457856155
 20
181.1188375031
 10
274.9437644966
 20
181.1408551248
 10
274.9403909513
 20
181.1626486901
 10
274.9356936153
 20
181.184176094
 10
274.9296438529
 20
181.2054794396
 10
274.9221557577
 20
181.2266850378
 10
274.9132006939
 20
181.2478349922
 10
274.9028072971
 20
181.2688871985
 10
274.8909755673
 20
181.2898416564
  0
LWPOLYLINE
  5
3BC
100
AcDbEntity
  8
0
100
AcDbPolyline
 62
7
  6
CONTINUOUS
 90
10
 70
0
 10
275.020123861
 20
180.4233352562
 10
275.0191784398
 20
180.4551919485
 10
275.0163945099
 20
180.4858229926
 10
275.0117720711
 20
180.5152283815
 10
275.0052731441
 20
180.543449331
 10
274.9969357083
 20
180.5704446126
 10
274.9868737016
 20
180.5960905523
 10
274.9751251036
 20
180.6203459213
 10
274.9616519347
 20
180.6432519363
 10
274.946454195
 20
180.6648085915
  0
LINE
  5
3BD
100
AcDbEntity
  8
0
100
AcDbLine
 62
7
  6
CONTINUOUS
 10
273.5651445605
 20
179.9802929779
 11
273.5651445605
 21
181.4864321967
  0
LINE
  5
3BE
100
AcDbEntity
  8
0
100
AcDbLine
 62
7
  6
CONTINUOUS
 10
273.906009672
 20
211.4302929779
 11
273.906009672
 21
209.5302929779
  0
LINE
  5
3BF
100
AcDbEntity
  8
0
100
AcDbLine
 62
7
  6
CONTINUOUS
 10
273.907830672
 20
177.6052929779
 11
273.907830672
 21
176.5899379779
  0
LINE
  5
3C0
100
AcDbEntity
  8
0
100
AcDbLine
 62
7
  6
CONTINUOUS
 10
274.071467672
 20
176.3552929779
 11
274.071467672
 21
177.6052929779
  0
LINE
  5
3C1
100
AcDbEntity
  8
0
100
AcDbLine
 62
7
  6
CONTINUOUS
 10
274.287610672
 20
209.5302929779
 11
274.287610672
 21
211.1204649779
  0
LINE
  5
3C2
100
AcDbEntity
  8
0
100
AcDbLine
 62
7
  6
CONTINUOUS
 10
274.846174672
 20
177.6052929779
 11
274.846174672
 21
176.3552929779
  0
LINE
  5
3C3
100
AcDbEntity
  8
0
100
AcDbLine
 62
7
  6
CONTINUOUS
 10
275.015088672
 20
176.3552929779
 11
275.015088672
 21
177.6052929779
  0
LWPOLYLINE
  5
3C4
100
AcDbEntity
  8
RACCORDO
100
AcDbPolyline
 62
250
  6
CONTINUOUS
 90
37
 70
0
 10
274.504092404
 20
195.4802929779
 10
274.4985839103
 20
195.3642255814
 10
274.4821857357
 20
195.2497998158
 10
274.4552142256
 20
195.1380107153
 10
274.4181548072
 20
195.0299852621
 10
274.3714413578
 20
194.9264138241
 10
274.3152826615
 20
194.8276285659
 10
274.2500113905
 20
194.7342844064
 10
274.1763055786
 20
194.6474203431
 10
274.0948990785
 20
194.5679264772
 10
274.0066003252
 20
194.4965184813
 10
273.9121501935
 20
194.4337252225
 10
273.8122991695
 20
194.3800495979
 10
273.7079206253
 20
194.3359463047
 10
273.5999456687
 20
194.3017846513
 10
273.4892611662
 20
194.2778546537
 10
273.3768518645
 20
194.2643692853
 10
273.2636952297
 20
194.2614322321
 10
273.1506892215
 20
194.2690754416
 10
273.0384867844
 20
194.2873299444
 10
272.9284348248
 20
194.3160368391
 10
272.822388197
 20
194.3545723475
 10
272.7206842374
 20
194.4026377828
 10
272.6246340526
 20
194.4594192691
 10
272.5369887502
 20
194.5225482597
 10
272.4583686604
 20
194.590305702
 10
272.3882020344
 20
194.6618752293
 10
272.3267274596
 20
194.7356118416
 10
272.2742921032
 20
194.8092976654
 10
272.2295230291
 20
194.8829832022
 10
272.1904332392
 20
194.9588641156
 10
272.1571560407
 20
195.0362291365
 10
272.1295476187
 20
195.1148849906
 10
272.1065850467
 20
195.1984834635
 10
272.0888477152
 20
195.2881733604
 10
272.0775961699
 20
195.3822674846
 10
272.0736729396
 20
195.4802929779
  0
LWPOLYLINE
  5
3C5
100
AcDbEntity
  8
RACCORDO
100
AcDbPolyline
 62
250
  6
CONTINUOUS
 90
37
 70
0
 10
274.7066273599
 20
195.4802929779
 10
274.6994223897
 20
195.3431856244
 10
274.680414205
 20
195.2102093108
 10
274.6496028058
 20
195.0813640453
 10
274.6065301089
 20
194.9558391709
 10
274.5516541976
 20
194.8344453565
 10
274.4863493208
 20
194.7196145942
 10
274.4102855998
 20
194.6112447781
 10
274.3237929134
 20
194.509438012
 10
274.2292351469
 20
194.4169325953
 10
274.1264592271
 20
194.3340431325
 10
274.0156182272
 20
194.2604550036
 10
273.8995352522
 20
194.1979626652
 10
273.7780752318
 20
194.1468304144
 10
273.6513732364
 20
194.1067939362
 10
273.5226575819
 20
194.0788547679
 10
273.3918893487
 20
194.0633096115
 10
273.2591074565
 20
194.0598617562
 10
273.1276569798
 20
194.0686226229
 10
272.9972429764
 20
194.0901385996
 10
272.8681603886
 20
194.1238633046
 10
272.744639118
 20
194.1682690072
 10
272.6266961948
 20
194.2244605318
 10
272.5143145887
 20
194.2913330705
 10
272.4116731113
 20
194.3640444404
 10
272.3202153005
 20
194.4424870491
 10
272.2384976184
 20
194.5267684972
 10
272.1663682618
 20
194.6123693816
 10
272.1047065503
 20
194.6975165313
 10
272.0526331644
 20
194.7839831135
 10
272.0073583419
 20
194.8725692286
 10
271.9680174114
 20
194.9624268813
 10
271.9354750443
 20
195.0544040634
 10
271.9095354928
 20
195.1518448576
 10
271.8901335077
 20
195.2558639574
 10
271.8773343381
 20
195.3653466655
 10
271.8711379842
 20
195.4802929779
  0
LINE
  5
3C6
100
AcDbEntity
  8
0
100
AcDbLine
 62
250
  6
CONTINUOUS
 10
278.4410254574
 20
205.3934141943
 11
278.438882672
 21
205.3869806104
  0
LINE
  5
3C7
100
AcDbEntity
  8
0
100
AcDbLine
 62
7
  6
CONTINUOUS
 10
267.758582672
 20
176.3552929779
 11
268.110216672
 21
177.4051309779
  0
LINE
  5
3C8
100
AcDbEntity
  8
0
100
AcDbLine
 62
7
  6
CONTINUOUS
 10
268.033639672
 20
177.6052929779
 11
267.676731672
 21
176.5433949779
  0
LWPOLYLINE
  5
3C9
100
AcDbEntity
  8
0
100
AcDbPolyline
 62
7
  6
CONTINUOUS
 90
25
 70
0
 10
267.594994541
 20
182.0321508424
 10
267.575449015
 20
181.9885355352
 10
267.5519588415
 20
181.9482028638
 10
267.5245240206
 20
181.9111528066
 10
267.4927192851
 20
181.8770187278
 10
267.4569699021
 20
181.8461672268
 10
267.4185516733
 20
181.8196981326
 10
267.3773643316
 20
181.7977675724
 10
267.3335081441
 20
181.7802193837
 10
267.2885597144
 20
181.7676849584
 10
267.2424812603
 20
181.7603476499
 10
267.1953105641
 20
181.758024088
 10
267.1487375755
 20
181.7607955838
 10
267.1027858086
 20
181.7688450747
 10
267.0574317493
 20
181.7819896324
 10
267.0142948056
 20
181.7997617745
 10
266.9734509596
 20
181.8223317032
 10
266.9348242293
 20
181.8495292475
 10
266.8998060763
 20
181.880376364
 10
266.8685299829
 20
181.9150082062
 10
266.8408624669
 20
181.9532896602
 10
266.8177945438
 20
181.9938372718
 10
266.7996565519
 20
182.0361898957
 10
266.7861181529
 20
182.0808087052
 10
266.7771793467
 20
182.1276937162
  0
LINE
  5
3CA
100
AcDbEntity
  8
0
100
AcDbLine
 62
250
  6
CONTINUOUS
 10
278.4410254574
 20
185.5671717615
 11
278.438882672
 21
185.5736053454
  0
LINE
  5
3CB
100
AcDbEntity
  8
0
100
AcDbLine
 62
7
  6
CONTINUOUS
 10
273.814573672
 20
213.0617989779
 11
273.636916672
 21
214.9616449779
  0
LINE
  5
3CC
100
AcDbEntity
  8
0
100
AcDbLine
 62
7
  6
CONTINUOUS
 10
275.196154672
 20
177.6052929779
 11
275.196154672
 21
177.4555759779
  0
LINE
  5
3CD
100
AcDbEntity
  8
0
100
AcDbLine
 62
7
  6
CONTINUOUS
 10
275.240220672
 20
211.4302929779
 11
275.240220672
 21
209.9246329779
  0
LINE
  5
3CE
100
AcDbEntity
  8
0
100
AcDbLine
 62
7
  6
CONTINUOUS
 10
275.3434527136
 20
181.1098973473
 11
275.3434527136
 21
180.9318618794
  0
LINE
  5
3CF
100
AcDbEntity
  8
0
100
AcDbLine
 62
7
  6
CONTINUOUS
 10
275.5557672748
 20
214.9394484366
 11
275.5557672748
 21
213.0617992319
  0
LINE
  5
3D0
100
AcDbEntity
  8
0
100
AcDbLine
 62
7
  6
CONTINUOUS
 10
275.619223672
 20
177.4555759779
 11
275.619223672
 21
176.3552929779
  0
LINE
  5
3D1
100
AcDbEntity
  8
0
100
AcDbLine
 62
7
  6
CONTINUOUS
 10
275.621822672
 20
209.5302929779
 11
275.621822672
 21
211.4302929779
  0
LINE
  5
3D2
100
AcDbEntity
  8
0
100
AcDbLine
 62
7
  6
CONTINUOUS
 10
275.7118019082
 20
181.1538946053
 11
275.7118019082
 21
179.9802929779
  0
LINE
  5
3D3
100
AcDbEntity
  8
0
100
AcDbLine
 62
7
  6
CONTINUOUS
 10
275.788077672
 20
176.3552929779
 11
275.788077672
 21
177.4555759779
  0
LINE
  5
3D4
100
AcDbEntity
  8
0
100
AcDbLine
 62
7
  6
CONTINUOUS
 10
275.8959766842
 20
179.9802929779
 11
275.8959766842
 21
181.4864321967
  0
LINE
  5
3D5
100
AcDbEntity
  8
0
100
AcDbLine
 62
7
  6
CONTINUOUS
 10
275.9375941752
 20
214.1164427137
 11
275.9375941752
 21
214.6379874011
  0
LINE
  5
3D6
100
AcDbEntity
  8
0
100
AcDbLine
 62
7
  6
CONTINUOUS
 10
275.9507439169
 20
213.0617992319
 11
275.9507439169
 21
213.8052938944
  0
LINE
  5
3D7
100
AcDbEntity
  8
0
100
AcDbLine
 62
7
  6
CONTINUOUS
 10
276.211146672
 20
177.4555759779
 11
276.211146672
 21
177.6052929779
  0
LINE
  5
3D8
100
AcDbEntity
  8
0
100
AcDbLine
 62
7
  6
CONTINUOUS
 10
276.5799876631
 20
213.9467109441
 11
276.5799876631
 21
213.9606396682
  0
LWPOLYLINE
  5
3D9
100
AcDbEntity
  8
0
100
AcDbPolyline
 62
7
  6
CONTINUOUS
 90
25
 70
0
 10
276.4722886044
 20
214.4116779234
 10
276.4718907826
 20
214.3907506808
 10
276.4702898624
 20
214.3700833174
 10
276.4674858439
 20
214.3496758343
 10
276.4634865902
 20
214.329454726
 10
276.4582842383
 20
214.3094935004
 10
276.4518551985
 20
214.2900126801
 10
276.4442120926
 20
214.2709337472
 10
276.435342299
 20
214.2523352236
 10
276.4251843634
 20
214.2346731942
 10
276.4136929181
 20
214.2179339102
 10
276.4009133308
 20
214.2021311278
 10
276.3869202502
 20
214.1877621923
 10
276.371578843
 20
214.1750034122
 10
276.3550239425
 20
214.1636784883
 10
276.3377346971
 20
214.1537558552
 10
276.3197122907
 20
214.1453282529
 10
276.3009555394
 20
214.1383029473
 10
276.2819400391
 20
214.1323701613
 10
276.2627922171
 20
214.1275249379
 10
276.2433856461
 20
214.1237722368
 10
276.2238166402
 20
214.1208171538
 10
276.2041173043
 20
214.1185613879
 10
276.1842555335
 20
214.1171032411
 10
276.1642313279
 20
214.1164427137
  0
LWPOLYLINE
  5
3DA
100
AcDbEntity
  8
0
100
AcDbPolyline
 62
7
  6
CONTINUOUS
 90
10
 70
0
 10
274.8246941783
 20
180.4192425182
 10
274.8234837221
 20
180.3900013562
 10
274.8200985985
 20
180.3619184094
 10
274.8145388075
 20
180.3349936716
 10
274.8068266537
 20
180.3092950574
 10
274.7969398324
 20
180.2847546411
 10
274.7848114304
 20
180.2611686584
 10
274.7704191432
 20
180.2384691854
 10
274.7537852751
 20
180.216724138
 10
274.7349098263
 20
180.1959335126
  0
LWPOLYLINE
  5
3DB
100
AcDbEntity
  8
0
100
AcDbPolyline
 62
7
  6
CONTINUOUS
 90
10
 70
0
 10
274.7571636654
 20
181.1006886085
 10
274.7559991555
 20
181.0729682668
 10
274.7524877416
 20
181.0469185805
 10
274.7466294237
 20
181.022539542
 10
274.7383988771
 20
180.9998206414
 10
274.7278214265
 20
180.978772375
 10
274.7149730463
 20
180.9594262453
 10
274.699879061
 20
180.9417927493
 10
274.6825141462
 20
180.9258613789
 10
274.6628783016
 20
180.9116321295
  0
LINE
  5
3DC
100
AcDbEntity
  8
0
100
AcDbLine
 62
7
  6
CONTINUOUS
 10
274.4215563752
 20
180.8520528396
 11
274.4010925509
 21
180.690388458
  0
LWPOLYLINE
  5
3DD
100
AcDbEntity
  8
0
100
AcDbPolyline
 62
7
  6
CONTINUOUS
 90
10
 70
0
 10
274.2404514767
 20
181.064876916
 10
274.2451680528
 20
181.0928410989
 10
274.2512693731
 20
181.1195568838
 10
274.2587554375
 20
181.1450242646
 10
274.2676430983
 20
181.169387234
 10
274.2779155032
 20
181.1925017889
 10
274.2895220956
 20
181.2139359293
 10
274.3024460232
 20
181.2335456505
 10
274.3167041384
 20
181.2514749448
 10
274.3322964409
 20
181.2677238071
  0
LINE
  5
3DE
100
AcDbEntity
  8
0
100
AcDbLine
 62
250
  6
CONTINUOUS
 10
278.6409949965
 20
205.1936882874
 11
278.6378000814
 21
205.1840957476
  0
LINE
  5
3DF
100
AcDbEntity
  8
0
100
AcDbLine
 62
7
  6
CONTINUOUS
 10
268.597731672
 20
176.3552929779
 11
268.728321672
 21
176.7191219779
  0
LINE
  5
3E0
100
AcDbEntity
  8
0
100
AcDbLine
 62
7
  6
CONTINUOUS
 10
268.780566672
 20
176.8688389779
 11
268.982578672
 21
177.4239819779
  0
LINE
  5
3E1
100
AcDbEntity
  8
0
100
AcDbLine
 62
7
  6
CONTINUOUS
 10
268.893687672
 20
177.6052929779
 11
268.423651672
 21
176.3552929779
  0
LWPOLYLINE
  5
3E2
100
AcDbEntity
  8
0
100
AcDbPolyline
 62
250
  6
CONTINUOUS
 90
16
 70
0
 10
267.27507615
 20
182.1308795456
 10
267.2680989319
 20
182.1208136308
 10
267.2597569766
 20
182.1117899087
 10
267.2502135303
 20
182.1039983799
 10
267.2396512051
 20
182.0976196728
 10
267.2282946728
 20
182.0927718182
 10
267.2163824436
 20
182.0894987641
 10
267.2041343209
 20
182.0878436232
 10
267.191772649
 20
182.0878562933
 10
267.1795286649
 20
182.0895365208
 10
267.167618746
 20
182.0928359855
 10
267.1562690697
 20
182.0977100447
 10
267.1457333544
 20
182.1041027473
 10
267.1362356337
 20
182.1118851852
 10
267.127945927
 20
182.12087504
 10
267.1210192941
 20
182.1308795714
  0
LWPOLYLINE
  5
3E3
100
AcDbEntity
  8
0
100
AcDbPolyline
 62
250
  6
CONTINUOUS
 90
19
 70
0
 10
279.6546317306
 20
183.30526768
 10
279.6502560491
 20
183.3175236069
 10
279.6418962023
 20
183.3290525024
 10
279.630033866
 20
183.3398543667
 10
279.6151622064
 20
183.3499555513
 10
279.5977584155
 20
183.3593297046
 10
279.5782631174
 20
183.3678977716
 10
279.5571671884
 20
183.375605751
 10
279.5348340295
 20
183.3825076441
 10
279.5114122842
 20
183.3886863992
 10
279.4873881487
 20
183.3941190798
 10
279.4628776929
 20
183.3988286224
 10
279.437269407
 20
183.4029667847
 10
279.410800156
 20
183.4065972813
 10
279.3835234662
 20
183.4096563976
 10
279.3543411729
 20
183.4121047477
 10
279.3229184902
 20
183.4139292028
 10
279.2898011073
 20
183.4151428918
 10
279.2551799167
 20
183.4157458145
  0
LINE
  5
3E4
100
AcDbEntity
  8
0
100
AcDbLine
 62
250
  6
CONTINUOUS
 10
278.6409949965
 20
185.7668976685
 11
278.6378000814
 21
185.7764902082
  0
LINE
  5
3E5
100
AcDbEntity
  8
0
100
AcDbLine
 62
7
  6
CONTINUOUS
 10
269.568118672
 20
214.9616449779
 11
270.170406672
 21
213.0617989779
  0
LINE
  5
3E6
100
AcDbEntity
  8
0
100
AcDbLine
 62
7
  6
CONTINUOUS
 10
270.361063672
 20
213.6539219779
 11
269.998918672
 21
214.9616449779
  0
LWPOLYLINE
  5
3E7
100
AcDbEntity
  8
0
100
AcDbPolyline
 62
250
  6
CONTINUOUS
 90
19
 70
0
 10
279.5048373004
 20
183.1693238962
 10
279.5015996042
 20
183.1815764316
 10
279.4964749767
 20
183.1931033142
 10
279.4894634177
 20
183.2039045439
 10
279.4802850491
 20
183.2140072386
 10
279.4692197491
 20
183.2233842805
 10
279.4571071525
 20
183.2319543159
 10
279.4440468339
 20
183.2396622466
 10
279.4299392187
 20
183.2465631707
 10
279.4153252181
 20
183.2527410294
 10
279.4004196966
 20
183.2581731001
 10
279.3850077896
 20
183.2628821054
 10
279.368985814
 20
183.2670201538
 10
279.3524916248
 20
183.2706513897
 10
279.3353873669
 20
183.2737116689
 10
279.317155792
 20
183.2761606666
 10
279.2976244839
 20
183.2779849413
 10
279.2769658588
 20
183.2791979346
 10
279.2551799167
 20
183.2797996464
  0
LINE
  5
3E8
100
AcDbEntity
  8
0
100
AcDbLine
 62
7
  6
CONTINUOUS
 10
277.529059672
 20
177.6052929779
 11
277.529059672
 21
176.3552929779
  0
LINE
  5
3E9
100
AcDbEntity
  8
0
100
AcDbLine
 62
7
  6
CONTINUOUS
 10
277.697984672
 20
176.5050099779
 11
277.697984672
 21
177.6052929779
  0
LINE
  5
3EA
100
AcDbEntity
  8
0
100
AcDbLine
 62
7
  6
CONTINUOUS
 10
278.331728672
 20
176.3552929779
 11
278.331728672
 21
176.5050099779
  0
LINE
  5
3EB
100
AcDbEntity
  8
0
100
AcDbLine
 62
250
  6
CONTINUOUS
 10
278.4410254574
 20
183.1845116941
 11
278.4410254574
 21
185.5671717615
  0
LINE
  5
3EC
100
AcDbEntity
  8
0
100
AcDbLine
 62
250
  6
CONTINUOUS
 10
278.4410254574
 20
205.3934141943
 11
278.4410254574
 21
207.7760742618
  0
LINE
  5
3ED
100
AcDbEntity
  8
0
100
AcDbLine
 62
250
  6
CONTINUOUS
 10
279.5048373004
 20
207.7912620596
 11
279.5076714568
 21
207.816479477
  0
LINE
  5
3EE
100
AcDbEntity
  8
0
100
AcDbLine
 62
250
  6
CONTINUOUS
 10
279.6546317306
 20
207.6553158916
 11
279.6703540644
 21
207.795208189
  0
LWPOLYLINE
  5
3EF
100
AcDbEntity
  8
0
100
AcDbPolyline
 62
7
  6
CONTINUOUS
 90
10
 70
0
 10
271.1156219609
 20
181.4864321967
 10
271.102951493
 20
181.4631120394
 10
271.088842
 20
181.4400474976
 10
271.073293482
 20
181.4172385705
 10
271.0562261129
 20
181.3946814253
 10
271.0377197188
 20
181.3723798929
 10
271.0180137778
 20
181.3503454677
 10
270.9971881157
 20
181.3285819807
 10
270.9751629067
 20
181.3070855991
 10
270.9519381507
 20
181.2858563219
  0
LINE
  5
3F0
100
AcDbEntity
  8
0
100
AcDbLine
 62
250
  6
CONTINUOUS
 10
266.9074112797
 20
182.3911723459
 11
266.7478357501
 21
182.2315968162
  0
LINE
  5
3F1
100
AcDbEntity
  8
0
100
AcDbLine
 62
250
  6
CONTINUOUS
 10
267.1071371867
 20
182.1914464389
 11
267.0138124219
 21
182.0981216741
  0
LWPOLYLINE
  5
3F2
100
AcDbEntity
  8
0
100
AcDbPolyline
 62
7
  6
CONTINUOUS
 90
16
 70
0
 10
263.529712484
 20
205.0423525011
 10
263.5329850504
 20
205.0407423277
 10
263.5391245068
 20
205.0391875702
 10
263.5481308533
 20
205.0376882287
 10
263.5601639224
 20
205.036229629
 10
263.5750638817
 20
205.0348264452
 10
263.5923512331
 20
205.0335226997
 10
263.612067562
 20
205.0323228587
 10
263.6341712831
 20
205.0312224561
 10
263.6580581423
 20
205.0302521157
 10
263.6838339439
 20
205.029414175
 10
263.7113928836
 20
205.0287062965
 10
263.739813294
 20
205.0281520922
 10
263.7687879527
 20
205.0277594327
 10
263.7986240822
 20
205.0275204474
 10
267.638882672
 20
205.0274351329
  0
LINE
  5
3F3
100
AcDbEntity
  8
0
100
AcDbLine
 62
250
  6
CONTINUOUS
 10
266.7478357501
 20
208.7289891396
 11
266.9074112797
 21
208.56941361
  0
LINE
  5
3F4
100
AcDbEntity
  8
0
100
AcDbLine
 62
250
  6
CONTINUOUS
 10
267.0138124219
 20
208.8624642817
 11
267.1071371867
 21
208.7691395169
  0
LINE
  5
3F5
100
AcDbEntity
  8
0
100
AcDbLine
 62
7
  6
CONTINUOUS
 10
273.698155672
 20
209.5302929779
 11
273.037627672
 21
211.4302929779
  0
LINE
  5
3F6
100
AcDbEntity
  8
0
100
AcDbLine
 62
7
  6
CONTINUOUS
 10
273.150742672
 20
209.9329869779
 11
273.287595672
 21
209.5302929779
  0
LINE
  5
3F7
100
AcDbEntity
  8
0
100
AcDbLine
 62
7
  6
CONTINUOUS
 10
272.785104672
 20
211.0672229779
 11
273.048138672
 21
210.2487359779
  0
LINE
  5
3F8
100
AcDbEntity
  8
0
100
AcDbLine
 62
250
  6
CONTINUOUS
 10
279.5076714568
 20
183.1441064788
 11
279.5048373004
 21
183.1693238962
  0
LINE
  5
3F9
100
AcDbEntity
  8
0
100
AcDbLine
 62
250
  6
CONTINUOUS
 10
279.6703540644
 20
183.1653777668
 11
279.6546317306
 21
183.3052700642
  0
LWPOLYLINE
  5
3FA
100
AcDbEntity
  8
0
100
AcDbPolyline
 62
250
  6
CONTINUOUS
 90
13
 70
0
 10
278.5910026117
 20
207.9120204298
 10
278.5911046843
 20
207.9107527837
 10
278.5913835674
 20
207.9094662567
 10
278.5918392612
 20
207.9081608488
 10
278.5924559491
 20
207.9068346932
 10
278.5932494476
 20
207.9054896568
 10
278.594267206
 20
207.9041313395
 10
278.5955079469
 20
207.9027531956
 10
278.5969729477
 20
207.9013617709
 10
278.5987134909
 20
207.8999823027
 10
278.6007466707
 20
207.8986232033
 10
278.6030553928
 20
207.8972760604
 10
278.6056396574
 20
207.895940874
  0
LWPOLYLINE
  5
3FB
100
AcDbEntity
  8
0
100
AcDbPolyline
 62
250
  6
CONTINUOUS
 90
13
 70
0
 10
279.6546317306
 20
185.5536912762
 10
279.6528575572
 20
185.5797168055
 10
279.647707902
 20
185.6052983662
 10
279.6392706458
 20
185.629999754
 10
279.6276897127
 20
185.6533998089
 10
279.6131626455
 20
185.67509953
 10
279.5959372608
 20
185.6947288952
 10
279.5763073534
 20
185.7119532605
 10
279.5546076835
 20
185.726479022
 10
279.5312083249
 20
185.7380585785
 10
279.5065082969
 20
185.7464945955
 10
279.480928751
 20
185.7516433537
 10
279.4549058206
 20
185.75341718
  0
LINE
  5
3FC
100
AcDbEntity
  8
0
100
AcDbLine
 62
250
  6
CONTINUOUS
 10
278.438882672
 20
207.8333182334
 11
278.4410254574
 21
207.7760742618
  0
LINE
  5
3FD
100
AcDbEntity
  8
0
100
AcDbLine
 62
250
  6
CONTINUOUS
 10
278.5871057471
 20
208.0161241856
 11
278.5910026117
 21
207.9120204298
  0
LWPOLYLINE
  5
3FE
100
AcDbEntity
  8
RACCORDO
100
AcDbPolyline
 62
250
  6
CONTINUOUS
 90
64
 70
0
 10
278.4806251025
 20
195.4802929779
 10
278.4741979976
 20
195.7391007788
 10
278.4549878805
 20
195.9963897549
 10
278.4229947513
 20
196.2521598393
 10
278.3780694083
 20
196.5071867635
 10
278.3203610531
 20
196.7606946679
 10
278.2503172907
 20
197.0103561105
 10
278.1678586581
 20
197.2559750001
 10
278.0730646183
 20
197.4977473413
 10
277.9666211646
 20
197.7339338616
 10
277.8484286547
 20
197.9645249616
 10
277.7185867309
 20
198.1895302091
 10
277.5780803132
 20
198.4072391145
 10
277.4268363514
 20
198.6175821837
 10
277.2649278956
 20
198.8206289423
 10
277.0935590171
 20
199.0148774627
 10
276.9126570383
 20
199.2002651757
 10
276.7222946368
 20
199.376854738
 10
276.5238939154
 20
199.5433320894
 10
276.3173961274
 20
199.6996205977
 10
276.1028600196
 20
199.8457970214
 10
275.8818839353
 20
199.9807774078
 10
275.6544203314
 20
200.1044782759
 10
275.4205167509
 20
200.2169832467
 10
275.1819141668
 20
200.3174590307
 10
274.9385784943
 20
200.4058160352
 10
274.6905438182
 20
200.4821439788
 10
274.4396533658
 20
200.5458785388
 10
274.185886191
 20
200.5969263661
 10
273.9292632399
 20
200.6353808968
 10
273.6716905781
 20
200.6609579762
 10
273.4131613763
 20
200.6735622155
 10
273.1536824638
 20
200.6732890342
 10
272.8951803943
 20
200.6601404756
 10
272.6376623092
 20
200.63402118
 10
272.381121067
 20
200.5950264756
 10
272.1274617968
 20
200.5434444229
 10
271.876705351
 20
200.4791815428
 10
271.6288308772
 20
200.4023312268
 10
271.3856809463
 20
200.3134618319
 10
271.1472901955
 20
200.2124838642
 10
270.9136239877
 20
200.0994866912
 10
270.686420982
 20
199.9753069611
 10
270.4657282452
 20
199.8398606325
 10
270.2514987106
 20
199.6932316069
 10
270.0453298373
 20
199.5365084564
 10
269.8472829904
 20
199.3696175007
 10
269.6572968048
 20
199.1926322943
 10
269.4767846441
 20
199.0068622821
 10
269.3058089118
 20
198.8122276911
 10
269.1443072044
 20
198.6088082074
 10
268.9935056752
 20
198.3981524943
 10
268.8535010496
 20
198.180233555
 10
268.7241966021
 20
197.9550783564
 10
268.6065283099
 20
197.724316541
 10
268.5005515909
 20
197.4877662897
 10
268.4062110271
 20
197.2456094526
 10
268.3242763419
 20
197.0000212095
 10
268.2549148836
 20
196.7509300775
 10
268.197959304
 20
196.49840763
 10
268.1536772821
 20
196.2448436585
 10
268.1221580442
 20
195.9910348059
 10
268.103312364
 20
195.7361845572
 10
268.0971402415
 20
195.4802929779
  0
LINE
  5
3FF
100
AcDbEntity
  8
0
100
AcDbLine
 62
250
  6
CONTINUOUS
 10
278.4995736402
 20
183.2005912499
 11
278.4995736402
 21
185.5671717615
  0
LINE
  5
400
100
AcDbEntity
  8
0
100
AcDbLine
 62
250
  6
CONTINUOUS
 10
278.4995736402
 20
205.3934141943
 11
278.4995736402
 21
207.7599947059
  0
LINE
  5
401
100
AcDbEntity
  8
0
100
AcDbLine
 62
250
  6
CONTINUOUS
 10
278.6401003081
 20
182.3906364894
 11
278.6401003081
 21
182.9955106049
  0
LINE
  5
402
100
AcDbEntity
  8
0
100
AcDbLine
 62
250
  6
CONTINUOUS
 10
278.6401003081
 20
207.9650753509
 11
278.6401003081
 21
208.5699494664
  0
LINE
  5
403
100
AcDbEntity
  8
0
100
AcDbLine
 62
250
  6
CONTINUOUS
 10
278.696865462
 20
182.3906364894
 11
278.696865462
 21
183.0589867707
  0
LINE
  5
404
100
AcDbEntity
  8
0
100
AcDbLine
 62
250
  6
CONTINUOUS
 10
278.696865462
 20
207.9015991851
 11
278.696865462
 21
208.5699494664
  0
LINE
  5
405
100
AcDbEntity
  8
0
100
AcDbLine
 62
7
  6
CONTINUOUS
 10
278.860944672
 20
176.8584269779
 11
278.860944672
 21
176.3552929779
  0
LINE
  5
406
100
AcDbEntity
  8
0
100
AcDbLine
 62
250
  6
CONTINUOUS
 10
278.8916169222
 20
182.4011053395
 11
278.8916169222
 21
183.1521352502
  0
LINE
  5
407
100
AcDbEntity
  8
0
100
AcDbLine
 62
250
  6
CONTINUOUS
 10
278.8916169222
 20
207.8084507056
 11
278.8916169222
 21
208.5594806164
  0
LINE
  5
408
100
AcDbEntity
  8
0
100
AcDbLine
 62
7
  6
CONTINUOUS
 10
278.938882672
 20
205.1798677585
 11
278.938882672
 21
205.0274351329
  0
LINE
  5
409
100
AcDbEntity
  8
0
100
AcDbLine
 62
7
  6
CONTINUOUS
 10
278.938882672
 20
182.1798677585
 11
278.938882672
 21
182.0321508424
  0
LINE
  5
40A
100
AcDbEntity
  8
0
100
AcDbLine
 62
7
  6
CONTINUOUS
 10
278.938882672
 20
185.7807181973
 11
278.938882672
 21
185.9331508229
  0
LINE
  5
40B
100
AcDbEntity
  8
0
100
AcDbLine
 62
7
  6
CONTINUOUS
 10
278.938882672
 20
208.7807181973
 11
278.938882672
 21
208.9284351134
  0
LINE
  5
40C
100
AcDbEntity
  8
0
100
AcDbLine
 62
250
  6
CONTINUOUS
 10
278.9463294321
 20
205.4168276732
 11
278.9463294321
 21
207.5516690589
  0
LINE
  5
40D
100
AcDbEntity
  8
0
100
AcDbLine
 62
250
  6
CONTINUOUS
 10
278.9463292248
 20
183.4089168003
 11
278.9463294321
 21
185.5437582826
  0
LINE
  5
40E
100
AcDbEntity
  8
0
100
AcDbLine
 62
7
  6
CONTINUOUS
 10
279.029767672
 20
176.3552929779
 11
279.029767672
 21
176.8584269779
  0
LINE
  5
40F
100
AcDbEntity
  8
0
100
AcDbLine
 62
250
  6
CONTINUOUS
 10
279.0348213073
 20
182.2013794325
 11
279.0348213073
 21
183.1802929779
  0
LINE
  5
410
100
AcDbEntity
  8
0
100
AcDbLine
 62
250
  6
CONTINUOUS
 10
279.0348213073
 20
207.7802929779
 11
279.0348213073
 21
208.7592065233
  0
LINE
  5
411
100
AcDbEntity
  8
0
100
AcDbLine
 62
250
  6
CONTINUOUS
 10
279.0877507883
 20
183.2797996464
 11
279.0877507883
 21
185.7434841895
  0
LINE
  5
412
100
AcDbEntity
  8
0
100
AcDbLine
 62
250
  6
CONTINUOUS
 10
279.0877507883
 20
205.2171017663
 11
279.0877507883
 21
207.6807863094
  0
LINE
  5
413
100
AcDbEntity
  8
0
100
AcDbLine
 62
250
  6
CONTINUOUS
 10
279.2551799167
 20
183.2797996464
 11
279.2551799167
 21
185.7434841895
  0
LINE
  5
414
100
AcDbEntity
  8
0
100
AcDbLine
 62
250
  6
CONTINUOUS
 10
279.2551799167
 20
205.2171017663
 11
279.2551799167
 21
207.6807863094
  0
LINE
  5
415
100
AcDbEntity
  8
0
100
AcDbLine
 62
250
  6
CONTINUOUS
 10
279.2709022505
 20
182.2013794325
 11
279.2709022505
 21
183.1802929779
  0
LINE
  5
416
100
AcDbEntity
  8
0
100
AcDbLine
 62
250
  6
CONTINUOUS
 10
279.2709022505
 20
207.7802929779
 11
279.2709022505
 21
208.7592065233
  0
LINE
  5
417
100
AcDbEntity
  8
0
100
AcDbLine
 62
7
  6
CONTINUOUS
 10
279.288882672
 20
212.7802929779
 11
279.288882672
 21
211.9802929779
  0
LINE
  5
418
100
AcDbEntity
  8
0
100
AcDbLine
 62
7
  6
CONTINUOUS
 10
279.288882672
 20
178.9802929779
 11
279.288882672
 21
178.1802929779
  0
LINE
  5
419
100
AcDbEntity
  8
0
100
AcDbLine
 62
250
  6
CONTINUOUS
 10
279.6546317306
 20
183.3052700642
 11
279.6546317306
 21
185.5536912762
  0
LINE
  5
41A
100
AcDbEntity
  8
0
100
AcDbLine
 62
250
  6
CONTINUOUS
 10
279.6546317306
 20
205.4068946796
 11
279.6546317306
 21
207.6553158916
  0
LINE
  5
41B
100
AcDbEntity
  8
0
100
AcDbLine
 62
250
  6
CONTINUOUS
 10
279.6703540644
 20
208.56941361
 11
279.6703540644
 21
207.795208189
  0
LINE
  5
41C
100
AcDbEntity
  8
0
100
AcDbLine
 62
250
  6
CONTINUOUS
 10
279.6703540644
 20
183.1653777668
 11
279.6703540644
 21
182.3911723459
  0
LINE
  5
41D
100
AcDbEntity
  8
0
100
AcDbLine
 62
7
  6
CONTINUOUS
 10
279.7815075254
 20
205.8864022506
 11
279.7815075254
 21
205.2800188849
  0
LINE
  5
41E
100
AcDbEntity
  8
0
100
AcDbLine
 62
7
  6
CONTINUOUS
 10
279.7815075254
 20
185.0741837052
 11
279.7815075254
 21
185.680567071
  0
LWPOLYLINE
  5
41F
100
AcDbEntity
  8
RACCORDO
100
AcDbPolyline
 62
250
  6
CONTINUOUS
 90
70
 70
0
 10
278.8376965239
 20
195.4802929779
 10
278.8339365057
 20
195.276247462
 10
278.8229204738
 20
195.0757109145
 10
278.8050262203
 20
194.8789635845
 10
278.7807243541
 20
194.6869530872
 10
278.7503283362
 20
194.4991950997
 10
278.7137736183
 20
194.3137925734
 10
278.6710935894
 20
194.1303832468
 10
278.6225554721
 20
193.9496959392
 10
278.5681943246
 20
193.7714949267
 10
278.5085387792
 20
193.5970415735
 10
278.4434177877
 20
193.4253919794
 10
278.3714180153
 20
193.2531435334
 10
278.292468299
 20
193.0809096743
 10
278.2062447193
 20
192.9087255778
 10
278.1101622159
 20
192.7327091936
 10
278.0031091232
 20
192.5527200384
 10
277.8848856904
 20
192.370292812
 10
277.7536278392
 20
192.1845254324
 10
277.6083138469
 20
191.9961415476
 10
277.4484053341
 20
191.806592881
 10
277.272511421
 20
191.6164484624
 10
277.0801944975
 20
191.4274642713
 10
276.8705105961
 20
191.2409034344
 10
276.641087489
 20
191.0571497609
 10
276.3905717823
 20
190.8779074291
 10
276.1190879825
 20
190.7060446189
 10
275.8264948548
 20
190.5442061
 10
275.5108624773
 20
190.3942147741
 10
275.1741322805
 20
190.2599387086
 10
274.8228577745
 20
190.1460735992
 10
274.4576882989
 20
190.0542866581
 10
274.0804441239
 20
189.9865261734
 10
273.7005004477
 20
189.945044129
 10
273.3200560452
 20
189.9298460921
 10
272.9405418176
 20
189.9407000455
 10
272.5703858123
 20
189.9764866771
 10
272.2118666176
 20
190.0353139025
 10
271.8654976422
 20
190.1154835511
 10
271.536501099
 20
190.2138245782
 10
271.2269781461
 20
190.3271960472
 10
270.9357392858
 20
190.4535948142
 10
270.6625167648
 20
190.5908782458
 10
270.4076825867
 20
190.7366660268
 10
270.1706031795
 20
190.8891389264
 10
269.9494414345
 20
191.0474995879
 10
269.7436151153
 20
191.210429825
 10
269.5530178124
 20
191.3762655029
 10
269.3766117974
 20
191.5441713522
 10
269.214005551
 20
191.7128623459
 10
269.0645696277
 20
191.8813336679
 10
268.9269970341
 20
192.0494738006
 10
268.8012492035
 20
192.2157766918
 10
268.686271863
 20
192.3800867159
 10
268.5796189452
 20
192.5447389086
 10
268.4810808175
 20
192.7091785817
 10
268.3903244128
 20
192.8730639075
 10
268.3053525851
 20
193.0395014423
 10
268.2261777687
 20
193.2083952084
 10
268.1528989477
 20
193.3794251564
 10
268.0843203316
 20
193.555698172
 10
268.0207843015
 20
193.7372139869
 10
267.9627134465
 20
193.9237703329
 10
267.9096932637
 20
194.1183853756
 10
267.8624262226
 20
194.3211002321
 10
267.8217020044
 20
194.5316924968
 10
267.7879291543
 20
194.7528852438
 10
267.7621805266
 20
194.9854406236
 10
267.7458129679
 20
195.2280616539
 10
267.7400688201
 20
195.4802929779
  0
LWPOLYLINE
  5
420
100
AcDbEntity
  8
RACCORDO
100
AcDbPolyline
 62
250
  6
CONTINUOUS
 90
70
 70
0
 10
279.1947679453
 20
195.4802930495
 10
279.1901067751
 20
195.2627675405
 10
279.1785171405
 20
195.0495122102
 10
279.1599990414
 20
194.8405270942
 10
279.1343844926
 20
194.6363338816
 10
279.1018414794
 20
194.4364109404
 10
279.062873958
 20
194.2391933214
 10
279.0175261465
 20
194.0441164799
 10
278.9657538269
 20
193.8517450066
 10
278.9079283014
 20
193.6622076558
 10
278.8446979047
 20
193.4765755267
 10
278.7754143021
 20
193.2937775471
 10
278.6985037921
 20
193.1107292244
 10
278.6146553671
 20
192.9274123368
 10
278.5231800347
 20
192.7438451585
 10
278.420437116
 20
192.5569979734
 10
278.3063681112
 20
192.3655513801
 10
278.18103152
 20
192.1708248846
 10
278.0409621635
 20
191.9737471469
 10
277.8860193485
 20
191.7734982916
 10
277.716343768
 20
191.5708983018
 10
277.5288923218
 20
191.369335591
 10
277.3239460866
 20
191.1684588189
 10
277.1012239857
 20
190.9686193731
 10
276.8568396886
 20
190.7742596792
 10
276.5897291901
 20
190.5841626951
 10
276.3009564955
 20
190.3995454092
 10
275.9898272893
 20
190.2285011513
 10
275.6533390442
 20
190.0704847783
 10
275.2944942876
 20
189.9260411899
 10
274.9216062861
 20
189.804898603
 10
274.5330708523
 20
189.7089053141
 10
274.1304921736
 20
189.6362126821
 10
273.7269960793
 20
189.5910034487
 10
273.3228577847
 20
189.5757193191
 10
272.9178020746
 20
189.5879184671
 10
272.5241291324
 20
189.6244583915
 10
272.1434299665
 20
189.6868996375
 10
271.7741135686
 20
189.7736818325
 10
271.4237070975
 20
189.8769811094
 10
271.0946796226
 20
189.9965599812
 10
270.7845620745
 20
190.1326561712
 10
270.4934744041
 20
190.2781585387
 10
270.222271175
 20
190.4322540597
 10
269.9700978235
 20
190.5957559029
 10
269.7345106093
 20
190.763992109
 10
269.5153665535
 20
190.936643294
 10
269.3128086349
 20
191.1140288918
 10
269.124822051
 20
191.2924350859
 10
268.9515621001
 20
191.471359529
 10
268.7928734838
 20
191.6513045379
 10
268.6462755035
 20
191.8300632369
 10
268.5120889704
 20
192.0065250329
 10
268.3899930732
 20
192.1818004494
 10
268.2765446794
 20
192.3570142772
 10
268.1713802626
 20
192.5316761596
 10
268.0748633493
 20
192.7062764071
 10
267.9846413855
 20
192.8834108356
 10
267.90019935
 20
193.0629569713
 10
267.8220522641
 20
193.2450372702
 10
267.7493926379
 20
193.4326149713
 10
267.6816966256
 20
193.6256802062
 10
267.619488073
 20
193.8242428394
 10
267.5635310277
 20
194.0312957313
 10
267.5132505837
 20
194.2470068985
 10
267.469221647
 20
194.4712083112
 10
267.4339329836
 20
194.7063887683
 10
267.4082141821
 20
194.9533778517
 10
267.3912356538
 20
195.2113459163
 10
267.3829973988
 20
195.4802929063
  0
LINE
  5
421
100
AcDbEntity
  8
0
100
AcDbLine
 62
250
  6
CONTINUOUS
 10
278.4410254574
 20
183.1845116941
 11
278.438882672
 21
183.1272677225
  0
LINE
  5
422
100
AcDbEntity
  8
0
100
AcDbLine
 62
250
  6
CONTINUOUS
 10
278.5910026117
 20
183.048565526
 11
278.5871057471
 21
182.9444617702
  0
LWPOLYLINE
  5
423
100
AcDbEntity
  8
0
100
AcDbPolyline
 62
250
  6
CONTINUOUS
 90
13
 70
0
 10
278.4410254574
 20
185.5671717615
 10
278.4427462934
 20
185.5931372652
 10
278.4478393173
 20
185.6186889542
 10
278.4562285381
 20
185.643390093
 10
278.4677861386
 20
185.6668246377
 10
278.4823217555
 20
185.6885777098
 10
278.4995746172
 20
185.7082498091
 10
278.5192400362
 20
185.7254976783
 10
278.5409877505
 20
185.7400352977
 10
278.5644485035
 20
185.7516157397
 10
278.5892222445
 20
185.7600404439
 10
278.6148841401
 20
185.765163905
 10
278.6409949965
 20
185.7668976685
  0
LWPOLYLINE
  5
424
100
AcDbEntity
  8
0
100
AcDbPolyline
 62
250
  6
CONTINUOUS
 90
13
 70
0
 10
278.4995736402
 20
185.5671717615
 10
278.5013868508
 20
185.5925796675
 10
278.5054701185
 20
185.6175972614
 10
278.5117630264
 20
185.6418162152
 10
278.5201720829
 20
185.6648470973
 10
278.5305636426
 20
185.6863016628
 10
278.5427593182
 20
185.7058053
 10
278.5565531837
 20
185.7230336655
 10
278.5717238328
 20
185.7377146246
 10
278.5880257755
 20
185.7496113444
 10
278.6051938516
 20
185.7585298233
 10
278.622946889
 20
185.7643235281
 10
278.6409949965
 20
185.7668976685
  0
LWPOLYLINE
  5
425
100
AcDbEntity
  8
0
100
AcDbPolyline
 62
250
  6
CONTINUOUS
 90
13
 70
0
 10
278.9463294321
 20
185.5437582826
 10
278.9481407901
 20
185.5691503367
 10
278.9522201808
 20
185.5941565825
 10
278.9585083213
 20
185.6183689853
 10
278.9669130966
 20
185.6413986387
 10
278.9773017479
 20
185.6628561066
 10
278.9894957032
 20
185.6823643894
 10
279.003289082
 20
185.6995982671
 10
279.0184609636
 20
185.7142853844
 10
279.0347656305
 20
185.7261879526
 10
279.0519377621
 20
185.735111338
 10
279.0696961822
 20
185.74090853
 10
279.0877507883
 20
185.7434841895
  0
LINE
  5
426
100
AcDbEntity
  8
0
100
AcDbLine
 62
7
  6
CONTINUOUS
 10
272.352772672
 20
214.3023629779
 11
272.817999672
 21
213.0617989779
  0
LINE
  5
427
100
AcDbEntity
  8
0
100
AcDbLine
 62
7
  6
CONTINUOUS
 10
272.847974672
 20
213.9068449779
 11
272.455590672
 21
214.9616449779
  0
LINE
  5
428
100
AcDbEntity
  8
0
100
AcDbLine
 62
7
  6
CONTINUOUS
 10
274.918610672
 20
213.4410759779
 11
275.021343672
 21
213.0617989779
  0
LINE
  5
429
100
AcDbEntity
  8
0
100
AcDbLine
 62
7
  6
CONTINUOUS
 10
274.657125672
 20
214.4396159779
 11
274.839355672
 21
213.7345589779
  0
LWPOLYLINE
  5
42A
100
AcDbEntity
  8
0
100
AcDbPolyline
 62
7
  6
CONTINUOUS
 90
7
 70
0
 10
279.829929594
 20
182.2315968162
 10
279.8290688858
 20
182.2133507993
 10
279.8265478631
 20
182.1952808165
 10
279.8223928832
 20
182.1775364365
 10
279.8166436967
 20
182.1602637744
 10
279.8093530192
 20
182.1436043034
 10
279.8005859974
 20
182.1276937162
  0
LWPOLYLINE
  5
42B
100
AcDbEntity
  8
0
100
AcDbPolyline
 62
7
  6
CONTINUOUS
 90
10
 70
0
 10
273.4464541294
 20
181.4864321967
 10
273.4337836713
 20
181.4631120393
 10
273.4196741851
 20
181.4400474979
 10
273.4041256709
 20
181.4172385714
 10
273.3870583017
 20
181.3946814274
 10
273.3685519044
 20
181.3723798966
 10
273.3488459595
 20
181.3503454721
 10
273.3280202937
 20
181.3285819846
 10
273.3059950803
 20
181.3070856014
 10
273.2827703192
 20
181.2858563219
  0
LINE
  5
42C
100
AcDbEntity
  8
0
100
AcDbLine
 62
7
  6
CONTINUOUS
 10
271.8267407037
 20
180.5082602521
 11
272.2963860251
 21
181.1845903417
  0
LINE
  5
42D
100
AcDbEntity
  8
0
100
AcDbLine
 62
7
  6
CONTINUOUS
 10
272.3301512815
 20
181.4802929779
 11
271.6456356265
 21
180.5082602521
  0
LINE
  5
42E
100
AcDbEntity
  8
0
100
AcDbLine
 62
7
  6
CONTINUOUS
 10
267.288882672
 20
178.9802929779
 11
267.3094375983
 21
179.0008479042
  0
LINE
  5
42F
100
AcDbEntity
  8
0
100
AcDbLine
 62
250
  6
CONTINUOUS
 10
262.4264442384
 20
174.0404478901
 11
262.316304646
 21
173.9303082978
  0
LINE
  5
430
100
AcDbEntity
  8
0
100
AcDbLine
 62
250
  6
CONTINUOUS
 10
262.8962905488
 20
173.5706015798
 11
262.7861509564
 21
173.4604619874
  0
LINE
  5
431
100
AcDbEntity
  8
0
100
AcDbLine
 62
7
  6
CONTINUOUS
 10
266.744319844
 20
185.0568851145
 11
266.7962578187
 21
185.0741837052
  0
LINE
  5
432
100
AcDbEntity
  8
0
100
AcDbLine
 62
7
  6
CONTINUOUS
 10
266.744319844
 20
205.9037008413
 11
266.7962578187
 21
205.8864022506
  0
LINE
  5
433
100
AcDbEntity
  8
0
100
AcDbLine
 62
7
  6
CONTINUOUS
 10
267.288882672
 20
211.9802929779
 11
267.3094375983
 21
211.9597380516
  0
LINE
  5
434
100
AcDbEntity
  8
0
100
AcDbLine
 62
250
  6
CONTINUOUS
 10
262.316304646
 20
217.030277658
 11
262.4264442384
 21
216.9201380657
  0
LINE
  5
435
100
AcDbEntity
  8
0
100
AcDbLine
 62
250
  6
CONTINUOUS
 10
262.7861509564
 20
217.5001239684
 11
262.8962905488
 21
217.3899843761
  0
LINE
  5
436
100
AcDbEntity
  8
0
100
AcDbLine
 62
7
  6
CONTINUOUS
 10
275.240220672
 20
209.9246329779
 11
274.511266672
 21
211.4302929779
  0
LINE
  5
437
100
AcDbEntity
  8
0
100
AcDbLine
 62
7
  6
CONTINUOUS
 10
274.287610672
 20
211.1204649779
 11
275.042877672
 21
209.5302929779
  0
LINE
  5
438
100
AcDbEntity
  8
0
100
AcDbLine
 62
7
  6
CONTINUOUS
 10
277.098178672
 20
209.9329869779
 11
277.235103672
 21
209.5302929779
  0
LINE
  5
439
100
AcDbEntity
  8
0
100
AcDbLine
 62
7
  6
CONTINUOUS
 10
276.732504672
 20
211.0671159779
 11
276.995503672
 21
210.2487359779
  0
LINE
  5
43A
100
AcDbEntity
  8
0
100
AcDbLine
 62
7
  6
CONTINUOUS
 10
275.439314672
 20
213.0617989779
 11
274.856394672
 21
214.9616449779
  0
LINE
  5
43B
100
AcDbEntity
  8
0
100
AcDbLine
 62
7
  6
CONTINUOUS
 10
276.4994024221
 20
213.262550757
 11
276.5580397373
 21
213.0617992319
  0
LINE
  5
43C
100
AcDbEntity
  8
0
100
AcDbLine
 62
7
  6
CONTINUOUS
 10
276.8503537199
 20
213.4019852205
 11
276.8039353115
 21
213.5759661981
  0
LWPOLYLINE
  5
43D
100
AcDbEntity
  8
0
100
AcDbPolyline
 62
7
  6
CONTINUOUS
 90
25
 70
0
 10
276.8039353115
 20
213.5759661981
 10
276.7982406088
 20
213.5976684945
 10
276.7924780794
 20
213.6187249644
 10
276.7866477234
 20
213.6391356107
 10
276.780811103
 20
213.6588644667
 10
276.774906656
 20
213.6779475048
 10
276.7687496953
 20
213.6964926364
 10
276.7623062752
 20
213.7144996999
 10
276.7556103415
 20
213.7319688611
 10
276.7485790443
 20
213.7490085226
 10
276.74122797
 20
213.7656303372
 10
276.7335415322
 20
213.781822655
 10
276.7253901219
 20
213.7976589241
 10
276.7167750805
 20
213.8131914286
 10
276.7076950666
 20
213.8283678866
 10
276.6980164474
 20
213.8431048962
 10
276.6877361786
 20
213.8574471691
 10
276.6768573045
 20
213.8713499962
 10
276.6652553249
 20
213.8845958456
 10
276.6528969457
 20
213.897228079
 10
276.6398154611
 20
213.9092033384
 10
276.6259862523
 20
213.9201740134
 10
276.6114011133
 20
213.9300242359
 10
276.5960682503
 20
213.9388698788
 10
276.5799876631
 20
213.9467109441
  0
LINE
  5
43E
100
AcDbEntity
  8
0
100
AcDbLine
 62
7
  6
CONTINUOUS
 10
276.9394962225
 20
213.0617992319
 11
276.8503537199
 21
213.4019852205
  0
LINE
  5
43F
100
AcDbEntity
  8
0
100
AcDbLine
 62
250
  6
CONTINUOUS
 10
282.7665010265
 20
174.6302929779
 11
282.7594163391
 21
178.1602356654
  0
LINE
  5
440
100
AcDbEntity
  8
0
100
AcDbLine
 62
250
  6
CONTINUOUS
 10
283.0661171179
 20
174.6302929779
 11
283.0590151445
 21
178.1651982815
  0
LINE
  5
441
100
AcDbEntity
  8
0
100
AcDbLine
 62
250
  6
CONTINUOUS
 10
282.7579231738
 20
179.0008478923
 11
282.7493625562
 21
185.0568851138
  0
LINE
  5
442
100
AcDbEntity
  8
0
100
AcDbLine
 62
250
  6
CONTINUOUS
 10
283.0575378407
 20
178.9958797088
 11
283.0489528521
 21
185.0618469094
  0
LINE
  5
443
100
AcDbEntity
  8
0
100
AcDbLine
 62
250
  6
CONTINUOUS
 10
282.7484432394
 20
185.9331508137
 11
282.7474505003
 21
186.980292977
  0
LINE
  5
444
100
AcDbEntity
  8
0
100
AcDbLine
 62
250
  6
CONTINUOUS
 10
283.0480528601
 20
185.9182334547
 11
283.0470439321
 21
186.9802929779
  0
LINE
  5
445
100
AcDbEntity
  8
0
100
AcDbLine
 62
7
  6
CONTINUOUS
 10
283.0859933369
 20
205.8864022506
 11
283.0859933369
 21
205.0802929779
  0
LINE
  5
446
100
AcDbEntity
  8
0
100
AcDbLine
 62
7
  6
CONTINUOUS
 10
283.0859933369
 20
185.8802929779
 11
283.0859933369
 21
185.0741837052
  0
LINE
  5
447
100
AcDbEntity
  8
0
100
AcDbLine
 62
7
  6
CONTINUOUS
 10
283.1043360596
 20
212.7802929779
 11
283.1043360596
 21
211.9802929779
  0
LINE
  5
448
100
AcDbEntity
  8
0
100
AcDbLine
 62
7
  6
CONTINUOUS
 10
283.1043360596
 20
178.9802929779
 11
283.1043360596
 21
178.1802929779
  0
LINE
  5
449
100
AcDbEntity
  8
0
100
AcDbLine
 62
7
  6
CONTINUOUS
 10
283.148882672
 20
216.3302929779
 11
283.148882672
 21
174.6302929779
  0
LINE
  5
44A
100
AcDbEntity
  8
0
100
AcDbLine
 62
250
  6
CONTINUOUS
 10
282.7474504987
 20
203.9802929786
 11
282.7484432394
 21
205.0274351401
  0
LINE
  5
44B
100
AcDbEntity
  8
0
100
AcDbLine
 62
250
  6
CONTINUOUS
 10
283.0470439304
 20
203.9802929779
 11
283.0480528601
 21
205.0423525011
  0
LINE
  5
44C
100
AcDbEntity
  8
0
100
AcDbLine
 62
250
  6
CONTINUOUS
 10
282.7493625562
 20
205.9037008418
 11
282.7579231738
 21
211.9597380598
  0
LINE
  5
44D
100
AcDbEntity
  8
0
100
AcDbLine
 62
250
  6
CONTINUOUS
 10
283.0489528521
 20
205.8987390464
 11
283.0575378407
 21
211.9647062471
  0
LINE
  5
44E
100
AcDbEntity
  8
0
100
AcDbLine
 62
250
  6
CONTINUOUS
 10
282.7594163391
 20
212.8003502893
 11
282.7665010279
 21
216.3302929779
  0
LINE
  5
44F
100
AcDbEntity
  8
0
100
AcDbLine
 62
250
  6
CONTINUOUS
 10
283.0590151445
 20
212.7953876743
 11
283.0661171163
 21
216.3302929779
  0
LWPOLYLINE
  5
450
100
AcDbEntity
  8
0
100
AcDbPolyline
 62
7
  6
CONTINUOUS
 90
25
 70
0
 10
279.8005859974
 20
182.1276937162
 10
279.7916471913
 20
182.0808087052
 10
279.7781087922
 20
182.0361898957
 10
279.7599708002
 20
181.9938372716
 10
279.7369028767
 20
181.9532896597
 10
279.7092353604
 20
181.9150082053
 10
279.6779592666
 20
181.8803763628
 10
279.6429411131
 20
181.8495292461
 10
279.6043143821
 20
181.8223317019
 10
279.5634705358
 20
181.7997617732
 10
279.5203335922
 20
181.7819896314
 10
279.4749795333
 20
181.768845074
 10
279.4290277665
 20
181.7607955835
 10
279.3824547773
 20
181.7580240882
 10
279.3352840803
 20
181.7603476505
 10
279.2892056258
 20
181.7676849593
 10
279.2442571965
 20
181.7802193848
 10
279.2004010099
 20
181.7977675735
 10
279.1592136689
 20
181.8196981337
 10
279.1207954407
 20
181.8461672278
 10
279.085046058
 20
181.8770187287
 10
279.0532413228
 20
181.9111528074
 10
279.0258065021
 20
181.9482028644
 10
279.0023163289
 20
181.9885355356
 10
278.9827708031
 20
182.0321508424
  0
LINE
  5
451
100
AcDbEntity
  8
0
100
AcDbLine
 62
250
  6
CONTINUOUS
 10
278.6401003081
 20
182.3906364894
 11
278.6379516126
 21
182.3841851605
  0
LINE
  5
452
100
AcDbEntity
  8
0
100
AcDbLine
 62
250
  6
CONTINUOUS
 10
278.8400698472
 20
182.1909105824
 11
278.8368690219
 21
182.1813002977
  0
LINE
  5
453
100
AcDbEntity
  8
0
100
AcDbLine
 62
7
  6
CONTINUOUS
 10
276.433962672
 20
176.3552929779
 11
276.564563672
 21
176.7191219779
  0
LINE
  5
454
100
AcDbEntity
  8
0
100
AcDbLine
 62
7
  6
CONTINUOUS
 10
276.616797672
 20
176.8688389779
 11
276.818799672
 21
177.4239819779
  0
LINE
  5
455
100
AcDbEntity
  8
0
100
AcDbLine
 62
7
  6
CONTINUOUS
 10
276.729989672
 20
177.6052929779
 11
276.259892672
 21
176.3552929779
  0
LWPOLYLINE
  5
456
100
AcDbEntity
  8
0
100
AcDbPolyline
 62
7
  6
CONTINUOUS
 90
10
 70
0
 10
275.7772864319
 20
181.4864321967
 10
275.7646159225
 20
181.4631120413
 10
275.7505063939
 20
181.440047501
 10
275.7349578463
 20
181.4172385749
 10
275.7178904542
 20
181.3946814301
 10
275.699384043
 20
181.3723798976
 10
275.6796780887
 20
181.350345472
 10
275.6588524166
 20
181.328581984
 10
275.6368272013
 20
181.307085601
 10
275.6136024429
 20
181.2858563219
  0
LWPOLYLINE
  5
457
100
AcDbEntity
  8
0
100
AcDbPolyline
 62
7
  6
CONTINUOUS
 90
10
 70
0
 10
274.8942713954
 20
180.9195835312
 10
274.9053171441
 20
180.9377199401
 10
274.9150355102
 20
180.9561837245
 10
274.9234264937
 20
180.9749748856
 10
274.9304694669
 20
180.9940193877
 10
274.9361850575
 20
181.0133912685
 10
274.9406351486
 20
181.0333126396
 10
274.9438403679
 20
181.05385754
 10
274.9457800878
 20
181.0749519347
 10
274.9464543082
 20
181.0965958258
  0
LWPOLYLINE
  5
458
100
AcDbEntity
  8
0
100
AcDbPolyline
 62
7
  6
CONTINUOUS
 90
10
 70
0
 10
270.9519381507
 20
181.2858563219
 10
270.9264955708
 20
181.2638157818
 10
270.8999047438
 20
181.2423764893
 10
270.8721656695
 20
181.2215384419
 10
270.8432720375
 20
181.2012734467
 10
270.8132301583
 20
181.1816096927
 10
270.7820589638
 20
181.1626317506
 10
270.7497647649
 20
181.1443678093
 10
270.7163412507
 20
181.1267896756
 10
270.6817884214
 20
181.1098973473
  0
LWPOLYLINE
  5
459
100
AcDbEntity
  8
0
100
AcDbPolyline
 62
250
  6
CONTINUOUS
 90
10
 70
0
 10
267.5253698948
 20
183.2729707289
 10
267.5409689425
 20
183.2802910895
 10
267.5562591953
 20
183.2901576956
 10
267.5709379709
 20
183.3023752301
 10
267.5847146919
 20
183.3167018377
 10
267.5973166377
 20
183.3328539124
 10
267.6084943432
 20
183.3505117116
 10
267.6180265371
 20
183.3693256858
 10
267.6257245226
 20
183.3889233981
 10
267.631435912
 20
183.4089168969
  0
LWPOLYLINE
  5
45A
100
AcDbEntity
  8
0
100
AcDbPolyline
 62
250
  6
CONTINUOUS
 90
10
 70
0
 10
267.9721256867
 20
183.0646450818
 10
267.9877247345
 20
183.0719654425
 10
268.0030149873
 20
183.0818320486
 10
268.0176937629
 20
183.0940495832
 10
268.031470484
 20
183.1083761909
 10
268.0440724298
 20
183.1245282657
 10
268.0552501352
 20
183.1421860649
 10
268.0647823291
 20
183.161000039
 10
268.0724803144
 20
183.1805977512
 10
268.0781917038
 20
183.2005912499
  0
LWPOLYLINE
  5
45B
100
AcDbEntity
  8
0
100
AcDbPolyline
 62
250
  6
CONTINUOUS
 90
13
 70
0
 10
279.4549058236
 20
205.2071687727
 10
279.4809294189
 20
205.2089426898
 10
279.5065094668
 20
205.2140916756
 10
279.5312098176
 20
205.2225279985
 10
279.5546093133
 20
205.2341078775
 10
279.5763089522
 20
205.2486339235
 10
279.5959386975
 20
205.2658584968
 10
279.6131638173
 20
205.2854879509
 10
279.6276905632
 20
205.3071876163
 10
279.6392711799
 20
205.3305874839
 10
279.6477081669
 20
205.3552885618
 10
279.6528576335
 20
205.3808696875
 10
279.654631737
 20
205.4068946732
  0
LWPOLYLINE
  5
45C
100
AcDbEntity
  8
0
100
AcDbPolyline
 62
250
  6
CONTINUOUS
 90
13
 70
0
 10
267.9367703476
 20
205.1936882874
 10
267.9628814138
 20
205.1954220786
 10
267.9885435144
 20
205.2005456233
 10
268.0133174442
 20
205.2089704665
 10
268.0367783923
 20
205.2205511196
 10
268.0585262577
 20
205.2350890065
 10
268.0781916899
 20
205.2523371097
 10
268.0954444227
 20
205.272009333
 10
268.1099798396
 20
205.2937624165
 10
268.1215372186
 20
205.3171968588
 10
268.1299262358
 20
205.341897781
 10
268.1350191094
 20
205.3674491343
 10
268.1367398866
 20
205.3934141943
  0
LINE
  5
45D
100
AcDbEntity
  8
0
100
AcDbLine
 62
250
  6
CONTINUOUS
 10
279.0877507883
 20
205.2171017663
 11
278.6409949965
 21
205.1936882874
  0
LINE
  5
45E
100
AcDbEntity
  8
0
100
AcDbLine
 62
250
  6
CONTINUOUS
 10
278.9463294321
 20
205.4168276732
 11
278.4995736402
 21
205.3934141943
  0
LINE
  5
45F
100
AcDbEntity
  8
0
100
AcDbLine
 62
250
  6
CONTINUOUS
 10
267.1047463953
 20
205.4151371095
 11
267.0513254025
 21
205.4140476929
  0
LINE
  5
460
100
AcDbEntity
  8
0
100
AcDbLine
 62
7
  6
CONTINUOUS
 10
267.9399652627
 20
205.1840957476
 11
267.638882672
 21
205.1798677585
  0
LINE
  5
461
100
AcDbEntity
  8
0
100
AcDbLine
 62
250
  6
CONTINUOUS
 10
267.1698588201
 20
205.4160337899
 11
267.1047463953
 21
205.4151371095
  0
LWPOLYLINE
  5
462
100
AcDbEntity
  8
0
100
AcDbPolyline
 62
7
  6
CONTINUOUS
 90
15
 70
0
 10
282.779141216
 20
205.0275204458
 10
282.8089773784
 20
205.0277594305
 10
282.8379520598
 20
205.0281520896
 10
282.8663724794
 20
205.0287062939
 10
282.8939314179
 20
205.0294141726
 10
282.9197072179
 20
205.0302521136
 10
282.9435940781
 20
205.0312224541
 10
282.9656977998
 20
205.032322857
 10
282.9854141286
 20
205.0335226982
 10
283.0027014792
 20
205.034826444
 10
283.0176014369
 20
205.0362296281
 10
283.0296345036
 20
205.0376882281
 10
283.0386408467
 20
205.0391875698
 10
283.0447802989
 20
205.0407423275
 10
283.0480528601
 20
205.0423525011
  0
LWPOLYLINE
  5
463
100
AcDbEntity
  8
0
100
AcDbPolyline
 62
250
  6
CONTINUOUS
 90
18
 70
0
 10
267.3022583458
 20
205.2170360851
 10
267.2828007958
 20
205.216883963
 10
267.2642127774
 20
205.2166454
 10
267.246320569
 20
205.2163081189
 10
267.2292978923
 20
205.2158843969
 10
267.2136659122
 20
205.215411065
 10
267.1996301141
 20
205.2148912365
 10
267.1869850127
 20
205.2143217982
 10
267.1756353163
 20
205.2137302417
 10
267.1656603713
 20
205.213127519
 10
267.1569808314
 20
205.2125026781
 10
267.1492633665
 20
205.2118503554
 10
267.1423833841
 20
205.211175422
 10
267.1364654768
 20
205.2104730067
 10
267.131550092
 20
205.2097231319
 10
267.1276507122
 20
205.2089191383
 10
267.1247538551
 20
205.2080676853
 10
267.1228595204
 20
205.2071687727
  0
LINE
  5
464
100
AcDbEntity
  8
0
100
AcDbLine
 62
250
  6
CONTINUOUS
 10
267.2434014843
 20
205.4166095275
 11
267.1698588201
 21
205.4160337899
  0
LINE
  5
465
100
AcDbEntity
  8
0
100
AcDbLine
 62
7
  6
CONTINUOUS
 10
263.5089324095
 20
203.9802929779
 11
283.0688329345
 21
203.9802929779
  0
LINE
  5
466
100
AcDbEntity
  8
0
100
AcDbLine
 62
7
  6
CONTINUOUS
 10
282.779141216
 20
205.0275204458
 11
278.938882672
 21
205.0274351329
  0
LINE
  5
467
100
AcDbEntity
  8
0
100
AcDbLine
 62
7
  6
CONTINUOUS
 10
283.0859933369
 20
205.0802929779
 11
279.5817816184
 21
205.0802929779
  0
LINE
  5
468
100
AcDbEntity
  8
0
100
AcDbLine
 62
7
  6
CONTINUOUS
 10
266.9959837257
 20
205.0802929779
 11
263.4917720072
 21
205.0802929779
  0
LINE
  5
469
100
AcDbEntity
  8
0
100
AcDbLine
 62
250
  6
CONTINUOUS
 10
267.4900145558
 20
205.2171017663
 11
267.3022583458
 21
205.2170360851
  0
LINE
  5
46A
100
AcDbEntity
  8
0
100
AcDbLine
 62
250
  6
CONTINUOUS
 10
278.4995736402
 20
205.3934141943
 11
278.4410254574
 21
205.3934141943
  0
LINE
  5
46B
100
AcDbEntity
  8
0
100
AcDbLine
 62
250
  6
CONTINUOUS
 10
268.1367398866
 20
205.3934141943
 11
268.0781917038
 21
205.3934141943
  0
LINE
  5
46C
100
AcDbEntity
  8
0
100
AcDbLine
 62
250
  6
CONTINUOUS
 10
267.631435912
 20
205.4168276732
 11
267.2434014843
 21
205.4166095275
  0
LINE
  5
46D
100
AcDbEntity
  8
0
100
AcDbLine
 62
250
  6
CONTINUOUS
 10
279.2724141427
 20
205.2170496128
 11
279.0877507883
 21
205.2171017663
  0
LINE
  5
46E
100
AcDbEntity
  8
0
100
AcDbLine
 62
250
  6
CONTINUOUS
 10
279.322234809
 20
205.4166681745
 11
278.9463294321
 21
205.4168276732
  0
LINE
  5
46F
100
AcDbEntity
  8
0
100
AcDbLine
 62
250
  6
CONTINUOUS
 10
279.3825761677
 20
205.4162880968
 11
279.322234809
 21
205.4166681745
  0
LINE
  5
470
100
AcDbEntity
  8
0
100
AcDbLine
 62
250
  6
CONTINUOUS
 10
279.4363947503
 20
205.4156904971
 11
279.3825761677
 21
205.4162880968
  0
LINE
  5
471
100
AcDbEntity
  8
0
100
AcDbLine
 62
7
  6
CONTINUOUS
 10
278.938882672
 20
205.1798677585
 11
278.6378000814
 21
205.1840957476
  0
LINE
  5
472
100
AcDbEntity
  8
0
100
AcDbLine
 62
250
  6
CONTINUOUS
 10
279.4865830652
 20
205.414898977
 11
279.4363947503
 21
205.4156904971
  0
LWPOLYLINE
  5
473
100
AcDbEntity
  8
0
100
AcDbPolyline
 62
250
  6
CONTINUOUS
 90
4
 70
0
 10
279.3325662176
 20
205.2162892693
 10
279.3188712102
 20
205.2165623265
 10
279.3043230067
 20
205.2167804228
 10
279.2724141427
 20
205.2170496128
  0
LINE
  5
474
100
AcDbEntity
  8
0
100
AcDbLine
 62
250
  6
CONTINUOUS
 10
267.9367703476
 20
205.1936882874
 11
267.4900145558
 21
205.2171017663
  0
LINE
  5
475
100
AcDbEntity
  8
0
100
AcDbLine
 62
250
  6
CONTINUOUS
 10
268.0781917038
 20
205.3934141943
 11
267.631435912
 21
205.4168276732
  0
LWPOLYLINE
  5
476
100
AcDbEntity
  8
0
100
AcDbPolyline
 62
250
  6
CONTINUOUS
 90
13
 70
0
 10
278.6409949965
 20
205.1936882874
 10
278.6148841401
 20
205.1954220508
 10
278.5892222445
 20
205.2005455119
 10
278.5644485035
 20
205.2089702161
 10
278.5409877505
 20
205.2205506581
 10
278.5192400362
 20
205.2350882775
 10
278.4995746172
 20
205.2523361467
 10
278.4823217555
 20
205.272008246
 10
278.4677861386
 20
205.2937613182
 10
278.4562285381
 20
205.3171958628
 10
278.4478393173
 20
205.3418970016
 10
278.4427462934
 20
205.3674486906
 10
278.4410254574
 20
205.3934141943
  0
LWPOLYLINE
  5
477
100
AcDbEntity
  8
0
100
AcDbPolyline
 62
250
  6
CONTINUOUS
 90
13
 70
0
 10
267.1228595204
 20
205.2071687727
 10
267.0968351601
 20
205.2089427924
 10
267.0712545342
 20
205.2140920384
 10
267.0465538112
 20
205.2225287122
 10
267.0231541567
 20
205.234108962
 10
267.0014545523
 20
205.2486353361
 10
266.9818249927
 20
205.2658601496
 10
266.9646001763
 20
205.2854897066
 10
266.9500737992
 20
205.3071893086
 10
266.9384935478
 20
205.3305889623
 10
266.9300568743
 20
205.3552896864
 10
266.92490763
 20
205.3808703151
 10
266.9231336135
 20
205.4068946796
  0
LWPOLYLINE
  5
478
100
AcDbEntity
  8
0
100
AcDbPolyline
 62
250
  6
CONTINUOUS
 90
10
 70
0
 10
267.5253698948
 20
207.6876152269
 10
267.5409689426
 20
207.6802948662
 10
267.5562591954
 20
207.6704282601
 10
267.5709379711
 20
207.6582107255
 10
267.5847146922
 20
207.6438841178
 10
267.5973166379
 20
207.6277320431
 10
267.6084943433
 20
207.6100742439
 10
267.6180265372
 20
207.5912602697
 10
267.6257245226
 20
207.5716625576
 10
267.631435912
 20
207.5516690589
  0
LWPOLYLINE
  5
479
100
AcDbEntity
  8
0
100
AcDbPolyline
 62
250
  6
CONTINUOUS
 90
10
 70
0
 10
267.9721256867
 20
207.895940874
 10
267.9877247317
 20
207.8886205148
 10
268.0030149826
 20
207.8787539107
 10
268.0176937572
 20
207.866536378
 10
268.0314704779
 20
207.8522097719
 10
268.0440724242
 20
207.8360576981
 10
268.0552501307
 20
207.8183998987
 10
268.0647823262
 20
207.7995859232
 10
268.0724803132
 20
207.7799882084
 10
268.0781917038
 20
207.7599947059
  0
LWPOLYLINE
  5
47A
100
AcDbEntity
  8
0
100
AcDbPolyline
 62
250
  6
CONTINUOUS
 90
16
 70
0
 10
267.1071371867
 20
208.7691395169
 10
267.1093566159
 20
208.768076721
 10
267.1133496356
 20
208.7670554473
 10
267.1191162459
 20
208.766075696
 10
267.1267151049
 20
208.7651324134
 10
267.1360875543
 20
208.7642306531
 10
267.1470576198
 20
208.7633855756
 10
267.1596380941
 20
208.7625948485
 10
267.1738161844
 20
208.7618608043
 10
267.1893775373
 20
208.7612056014
 10
267.2064174564
 20
208.7606280276
 10
267.2248406381
 20
208.7601292952
 10
267.2441468191
 20
208.759735199
 10
267.2641692447
 20
208.7594543375
 10
267.2850746696
 20
208.7592781123
 10
267.5429440368
 20
208.7592065233
  0
LWPOLYLINE
  5
47B
100
AcDbEntity
  8
0
100
AcDbPolyline
 62
250
  6
CONTINUOUS
 90
13
 70
0
 10
278.4410254574
 20
207.7760742618
 10
278.4415061844
 20
207.7748063134
 10
278.4426066715
 20
207.7735195209
 10
278.4443720386
 20
207.7722138843
 10
278.4468347455
 20
207.7708872683
 10
278.4500423369
 20
207.7695418081
 10
278.4540837855
 20
207.7681839098
 10
278.4590279831
 20
207.7668080577
 10
278.4649253347
 20
207.7654197676
 10
278.471869286
 20
207.7640419921
 10
278.4799338329
 20
207.7626823821
 10
278.4891558365
 20
207.7613332867
 10
278.4995736402
 20
207.7599947059
  0
LINE
  5
47C
100
AcDbEntity
  8
0
100
AcDbLine
 62
7
  6
CONTINUOUS
 10
277.645520672
 20
209.5302929779
 11
276.985063672
 21
211.4302929779
  0
LWPOLYLINE
  5
47D
100
AcDbEntity
  8
0
100
AcDbPolyline
 62
7
  6
CONTINUOUS
 90
6
 70
0
 10
276.3845385514
 20
213.638133816
 10
276.4049116069
 20
213.5784148062
 10
276.4247930316
 20
213.5175445491
 10
276.4441828255
 20
213.4555230302
 10
276.4627905294
 20
213.3922545842
 10
276.4994024221
 20
213.262550757
  0
LINE
  5
47E
100
AcDbEntity
  8
0
100
AcDbLine
 62
250
  6
CONTINUOUS
 10
278.6379516126
 20
208.5764007953
 11
278.6401003081
 21
208.5699494664
  0
LINE
  5
47F
100
AcDbEntity
  8
0
100
AcDbLine
 62
250
  6
CONTINUOUS
 10
278.8368690219
 20
208.7792856581
 11
278.8400698472
 21
208.7696753734
  0
LWPOLYLINE
  5
480
100
AcDbEntity
  8
0
100
AcDbPolyline
 62
250
  6
CONTINUOUS
 90
19
 70
0
 10
283.8694133195
 20
216.9201380657
 10
283.86840357
 20
216.9394922839
 10
283.865810208
 20
216.9580649433
 10
283.8616332335
 20
216.9758560439
 10
283.8557011664
 20
216.9930377079
 10
283.8481854867
 20
217.0094378132
 10
283.8396006346
 20
217.0245399933
 10
283.829926807
 20
217.0381884509
 10
283.819183807
 20
217.0505389833
 10
283.8079454835
 20
217.0615426164
 10
283.7964207051
 20
217.0710774664
 10
283.7844006033
 20
217.0792654171
 10
283.7718324213
 20
217.0864231451
 10
283.7588220306
 20
217.092667009
 10
283.7452635597
 20
217.0978806501
 10
283.7307866379
 20
217.1020316688
 10
283.715267808
 20
217.105109265
 10
283.6988305272
 20
217.1071242386
 10
283.6814747953
 20
217.1080765898
  0
LINE
  5
481
100
AcDbEntity
  8
0
100
AcDbLine
 62
250
  6
CONTINUOUS
 10
283.6814747953
 20
173.852509366
 11
283.6814747953
 21
173.5706015798
  0
LINE
  5
482
100
AcDbEntity
  8
0
100
AcDbLine
 62
250
  6
CONTINUOUS
 10
283.6814747953
 20
217.1080765898
 11
283.6814747953
 21
217.3899843761
  0
LINE
  5
483
100
AcDbEntity
  8
0
100
AcDbLine
 62
250
  6
CONTINUOUS
 10
283.8694133195
 20
174.0404478901
 11
283.8694133195
 21
177.7302929779
  0
LINE
  5
484
100
AcDbEntity
  8
0
100
AcDbLine
 62
250
  6
CONTINUOUS
 10
283.8694133195
 20
181.7302929779
 11
283.8694133195
 21
216.9201380657
  0
LINE
  5
485
100
AcDbEntity
  8
0
100
AcDbLine
 62
250
  6
CONTINUOUS
 10
284.1513211057
 20
174.0404478901
 11
284.1513211057
 21
177.7302929779
  0
LINE
  5
486
100
AcDbEntity
  8
0
100
AcDbLine
 62
250
  6
CONTINUOUS
 10
284.1513211057
 20
181.7302929779
 11
284.1513211057
 21
216.9201380657
  0
LINE
  5
487
100
AcDbEntity
  8
0
100
AcDbLine
 62
7
  6
CONTINUOUS
 10
284.2614606981
 20
217.030277658
 11
284.2614606981
 21
181.7302929779
  0
LINE
  5
488
100
AcDbEntity
  8
0
100
AcDbLine
 62
7
  6
CONTINUOUS
 10
284.2614606981
 20
177.7302929779
 11
284.2614606981
 21
173.9303082978
  0
LINE
  5
489
100
AcDbEntity
  8
0
100
AcDbLine
 62
7
  6
CONTINUOUS
 10
284.3114606981
 20
217.0498951164
 11
284.3114606981
 21
181.7302929779
  0
LINE
  5
48A
100
AcDbEntity
  8
0
100
AcDbLine
 62
7
  6
CONTINUOUS
 10
284.3114606981
 20
177.7302929779
 11
284.3114606981
 21
173.9106908395
  0
LINE
  5
48B
100
AcDbEntity
  8
0
100
AcDbLine
 62
7
  6
CONTINUOUS
 10
284.3201882305
 20
181.7302929779
 11
284.3201882305
 21
177.7302929779
  0
LWPOLYLINE
  5
48C
100
AcDbEntity
  8
0
100
AcDbPolyline
 62
7
  6
CONTINUOUS
 90
10
 70
0
 10
279.6703540644
 20
183.1653777668
 10
279.6654077718
 20
183.1561767072
 10
279.6557598073
 20
183.1475528869
 10
279.6419680304
 20
183.1402054928
 10
279.6247673868
 20
183.1347795198
 10
279.6048142505
 20
183.1315732973
 10
279.5825112897
 20
183.1306762326
 10
279.5583866787
 20
183.1323278557
 10
279.533213237
 20
183.1367806544
 10
279.5076714568
 20
183.1441064788
  0
LINE
  5
48D
100
AcDbEntity
  8
0
100
AcDbLine
 62
250
  6
CONTINUOUS
 10
279.5817816184
 20
185.8802929779
 11
279.4549058236
 21
185.7534171831
  0
LINE
  5
48E
100
AcDbEntity
  8
0
100
AcDbLine
 62
250
  6
CONTINUOUS
 10
279.7815075254
 20
185.680567071
 11
279.6546317306
 21
185.5536912762
  0
LWPOLYLINE
  5
48F
100
AcDbEntity
  8
0
100
AcDbPolyline
 62
7
  6
CONTINUOUS
 90
10
 70
0
 10
274.2097555615
 20
181.3841128965
 10
274.1847909282
 20
181.3612628501
 10
274.1617565322
 20
181.3361402449
 10
274.1406523732
 20
181.3087450906
 10
274.1214149589
 20
181.2790415571
 10
274.1041077817
 20
181.247065497
 10
274.0889213195
 20
181.2129244456
 10
274.0759190649
 20
181.1766542567
 10
274.0650375253
 20
181.138219103
 10
274.0562767006
 20
181.0976189991
  0
LWPOLYLINE
  5
490
100
AcDbEntity
  8
0
100
AcDbPolyline
 62
7
  6
CONTINUOUS
 90
10
 70
0
 10
274.3322964409
 20
181.2677238071
 10
274.3482966431
 20
181.2816406662
 10
274.3652587245
 20
181.2939594268
 10
274.3831826852
 20
181.3046800857
 10
274.4020436545
 20
181.3138190874
 10
274.421866503
 20
181.3213599819
 10
274.4427258423
 20
181.3272534244
 10
274.464646543
 20
181.3314829656
 10
274.4876037344
 20
181.3340650519
 10
274.5115974165
 20
181.3349996825
  0
LWPOLYLINE
  5
491
100
AcDbEntity
  8
0
100
AcDbPolyline
 62
7
  6
CONTINUOUS
 90
10
 70
0
 10
273.2827703192
 20
181.2858563219
 10
273.2573277108
 20
181.2638157569
 10
273.230736865
 20
181.2423764472
 10
273.202997782
 20
181.2215383908
 10
273.1741041546
 20
181.2012733965
 10
273.1440622898
 20
181.1816096513
 10
273.1128911089
 20
181.1626317194
 10
273.0805969188
 20
181.1443677872
 10
273.0471734124
 20
181.1267896639
 10
273.0126205899
 20
181.1098973473
  0
LWPOLYLINE
  5
492
100
AcDbEntity
  8
0
100
AcDbPolyline
 62
7
  6
CONTINUOUS
 90
10
 70
0
 10
270.8753951954
 20
181.0266396161
 10
270.8972217591
 20
181.0397530074
 10
270.9184760506
 20
181.0531062843
 10
270.93915807
 20
181.0666994472
 10
270.9593083658
 20
181.0805103286
 10
270.9788863895
 20
181.0945610971
 10
270.9977704954
 20
181.1089182578
 10
271.0159201349
 20
181.1236039797
 10
271.0333758567
 20
181.1385960952
 10
271.0501376607
 20
181.1538946053
  0
LWPOLYLINE
  5
493
100
AcDbEntity
  8
0
100
AcDbPolyline
 62
250
  6
CONTINUOUS
 90
12
 70
0
 10
279.4549058236
 20
185.7534171831
 10
279.4523969856
 20
185.7523192768
 10
279.4482795207
 20
185.7512803854
 10
279.4425534289
 20
185.7503005089
 10
279.4349727994
 20
185.7493737226
 10
279.4257835431
 20
185.7485059513
 10
279.415723392
 20
185.7477149686
 10
279.4048442074
 20
185.7470084828
 10
279.3930941281
 20
185.7463787856
 10
279.3810553029
 20
185.7458205265
 10
279.3689525198
 20
185.7453382573
 10
279.3565609907
 20
185.744927426
  0
LINE
  5
494
100
AcDbEntity
  8
0
100
AcDbLine
 62
7
  6
CONTINUOUS
 10
267.0138124219
 20
182.0981216741
 11
267.0863312583
 21
182.1203902804
  0
LINE
  5
495
100
AcDbEntity
  8
0
100
AcDbLine
 62
7
  6
CONTINUOUS
 10
267.0863312583
 20
182.1203902804
 11
267.1210194443
 21
182.1308794272
  0
LWPOLYLINE
  5
496
100
AcDbEntity
  8
0
100
AcDbPolyline
 62
7
  6
CONTINUOUS
 90
43
 70
0
 10
267.0138124219
 20
182.0981216741
 10
267.0048209066
 20
182.0954550978
 10
266.9960523684
 20
182.0930644338
 10
266.987511921
 20
182.0909378818
 10
266.9792134997
 20
182.0890667431
 10
266.9711513364
 20
182.0874361694
 10
266.9633002185
 20
182.0860268434
 10
266.9556634301
 20
182.0848289564
 10
266.9482428913
 20
182.0838329836
 10
266.9410111481
 20
182.0830232273
 10
266.9339710025
 20
182.0823916431
 10
266.9271230131
 20
182.0819307067
 10
266.9204366459
 20
182.0816287528
 10
266.9139136123
 20
182.0814794376
 10
266.9075547539
 20
182.0814773309
 10
266.9013289735
 20
182.0816154406
 10
266.8952326058
 20
182.0818895185
 10
266.8892719981
 20
182.0822957446
 10
266.8834318345
 20
182.0828302024
 10
266.8777102394
 20
182.0834898437
 10
266.8721116853
 20
182.0842712779
 10
266.86663074
 20
182.0851711649
 10
266.8612684677
 20
182.086186486
 10
266.8560260168
 20
182.0873143388
 10
266.8508982665
 20
182.0885521178
 10
266.8458866045
 20
182.089896943
 10
266.8409916349
 20
182.0913463263
 10
266.8362073451
 20
182.0928988315
 10
266.8315352078
 20
182.0945517701
 10
266.8269757424
 20
182.0963030894
 10
266.8225219644
 20
182.0981529838
 10
266.8181746658
 20
182.1000994113
 10
266.8139353466
 20
182.102140395
 10
266.8097986423
 20
182.1042768891
 10
266.8057657826
 20
182.1065069887
 10
266.8018381585
 20
182.1088290785
 10
266.7980112367
 20
182.1112451155
 10
266.794287198
 20
182.1137528324
 10
266.7906669075
 20
182.1163513538
 10
266.7871446621
 20
182.1190453516
 10
266.7837201113
 20
182.1218356779
 10
266.7803976868
 20
182.1247189342
 10
266.7771793467
 20
182.1276937162
  0
LWPOLYLINE
  5
497
100
AcDbEntity
  8
0
100
AcDbPolyline
 62
7
  6
CONTINUOUS
 90
10
 70
0
 10
267.0700938873
 20
183.1441064788
 10
267.0445519026
 20
183.1367806049
 10
267.0193782748
 20
183.1323278055
 10
266.9952535111
 20
183.1306762245
 10
266.9729503915
 20
183.1315733628
 10
266.9529971685
 20
183.134779695
 10
266.9357966365
 20
183.1402057676
 10
266.9220051216
 20
183.1475531776
 10
266.9123574212
 20
183.1561769049
 10
266.9074112797
 20
183.1653777668
  0
LWPOLYLINE
  5
498
100
AcDbEntity
  8
0
100
AcDbPolyline
 62
250
  6
CONTINUOUS
 90
13
 70
0
 10
267.4900145558
 20
205.2171017663
 10
267.508069302
 20
205.2196774586
 10
267.5258278582
 20
205.2254747342
 10
267.5430001149
 20
205.234398253
 10
267.5593049107
 20
205.2463010194
 10
267.5744768932
 20
205.2609883842
 10
267.5882702838
 20
205.2782224754
 10
267.6004641586
 20
205.2977308696
 10
267.6108526818
 20
205.3191883455
 10
267.6192573124
 20
205.3422179017
 10
267.6255453166
 20
205.3664301012
 10
267.6296246023
 20
205.3914360332
 10
267.631435912
 20
205.4168276732
  0
LWPOLYLINE
  5
499
100
AcDbEntity
  8
0
100
AcDbPolyline
 62
250
  6
CONTINUOUS
 90
13
 70
0
 10
267.9367703476
 20
205.1936882874
 10
267.9548183397
 20
205.1962624008
 10
267.9725712678
 20
205.2020560378
 10
267.9897392462
 20
205.2109744109
 10
268.006041092
 20
205.2228709772
 10
268.0212116681
 20
205.2375517479
 10
268.0350055286
 20
205.2547799531
 10
268.0472012701
 20
205.2742835107
 10
268.0575929313
 20
205.2957380779
 10
268.0660020995
 20
205.3187690395
 10
268.0722951107
 20
205.3429881492
 10
268.0763784571
 20
205.3680059794
 10
268.0781917038
 20
205.3934141943
  0
LWPOLYLINE
  5
49A
100
AcDbEntity
  8
0
100
AcDbPolyline
 62
250
  6
CONTINUOUS
 90
9
 70
0
 10
267.0088451172
 20
205.4128531846
 10
266.9914879839
 20
205.412228232
 10
266.9759413092
 20
205.4115759542
 10
266.9622938378
 20
205.4109014032
 10
266.9505888271
 20
205.4101995269
 10
266.9405147498
 20
205.4094499536
 10
266.9322907026
 20
205.4086458926
 10
266.9263886321
 20
205.4077941347
 10
266.9231336135
 20
205.4068946796
  0
LINE
  5
49B
100
AcDbEntity
  8
0
100
AcDbLine
 62
250
  6
CONTINUOUS
 10
267.0513254025
 20
205.4140476929
 11
267.0088451172
 21
205.4128531846
  0
LWPOLYLINE
  5
49C
100
AcDbEntity
  8
0
100
AcDbPolyline
 62
7
  6
CONTINUOUS
 90
7
 70
0
 10
263.591368916
 20
205.901674409
 10
263.5740965146
 20
205.9012407504
 10
263.5592135535
 20
205.9007740921
 10
263.5471960672
 20
205.9002891235
 10
263.538202734
 20
205.8997907413
 10
263.5320748756
 20
205.8992740489
 10
263.528812492
 20
205.8987390464
  0
LINE
  5
49D
100
AcDbEntity
  8
0
100
AcDbLine
 62
7
  6
CONTINUOUS
 10
263.6331656211
 20
205.902439752
 11
263.591368916
 21
205.901674409
  0
LINE
  5
49E
100
AcDbEntity
  8
0
100
AcDbLine
 62
7
  6
CONTINUOUS
 10
263.6828219597
 20
205.9030416451
 11
263.6331656211
 21
205.902439752
  0
LINE
  5
49F
100
AcDbEntity
  8
0
100
AcDbLine
 62
7
  6
CONTINUOUS
 10
263.7678102575
 20
205.9035927216
 11
263.6828219597
 21
205.9030416451
  0
LINE
  5
4A0
100
AcDbEntity
  8
0
100
AcDbLine
 62
7
  6
CONTINUOUS
 10
283.0859933369
 20
205.8864022506
 11
279.7815075254
 21
205.8864022506
  0
LINE
  5
4A1
100
AcDbEntity
  8
0
100
AcDbLine
 62
7
  6
CONTINUOUS
 10
266.7962578187
 20
205.8864022506
 11
263.4917720072
 21
205.8864022506
  0
LINE
  5
4A2
100
AcDbEntity
  8
0
100
AcDbLine
 62
7
  6
CONTINUOUS
 10
263.7678102575
 20
205.9035927216
 11
266.744319844
 21
205.9037008413
  0
LINE
  5
4A3
100
AcDbEntity
  8
0
100
AcDbLine
 62
7
  6
CONTINUOUS
 10
282.8099550682
 20
205.9035927227
 11
279.8334455001
 21
205.9037008413
  0
LINE
  5
4A4
100
AcDbEntity
  8
0
100
AcDbLine
 62
7
  6
CONTINUOUS
 10
282.8949434092
 20
205.9030416462
 11
282.8099550682
 21
205.9035927227
  0
LINE
  5
4A5
100
AcDbEntity
  8
0
100
AcDbLine
 62
7
  6
CONTINUOUS
 10
282.944599747
 20
205.9024397529
 11
282.8949434092
 21
205.9030416462
  0
LWPOLYLINE
  5
4A6
100
AcDbEntity
  8
0
100
AcDbPolyline
 62
250
  6
CONTINUOUS
 90
13
 70
0
 10
278.6409949965
 20
205.1936882874
 10
278.622946889
 20
205.1962624277
 10
278.6051938517
 20
205.2020561324
 10
278.5880257756
 20
205.2109746114
 10
278.5717238329
 20
205.2228713312
 10
278.5565531837
 20
205.2375522902
 10
278.5427593183
 20
205.2547806557
 10
278.5305636426
 20
205.2742842929
 10
278.520172083
 20
205.2957388584
 10
278.5117630265
 20
205.3187697405
 10
278.5054701185
 20
205.3429886943
 10
278.5013868508
 20
205.3680062883
 10
278.4995736402
 20
205.3934141943
  0
LWPOLYLINE
  5
4A7
100
AcDbEntity
  8
0
100
AcDbPolyline
 62
250
  6
CONTINUOUS
 90
13
 70
0
 10
279.0877507883
 20
205.2171017663
 10
279.0696961822
 20
205.2196774258
 10
279.0519377621
 20
205.2254746178
 10
279.0347656305
 20
205.2343980033
 10
279.0184609636
 20
205.2463005715
 10
279.003289082
 20
205.2609876887
 10
278.9894957032
 20
205.2782215664
 10
278.9773017479
 20
205.2977298492
 10
278.9669130966
 20
205.3191873171
 10
278.9585083213
 20
205.3422169705
 10
278.9522201808
 20
205.3664293734
 10
278.9481407901
 20
205.3914356191
 10
278.9463294321
 20
205.4168276732
  0
LWPOLYLINE
  5
4A8
100
AcDbEntity
  8
0
100
AcDbPolyline
 62
250
  6
CONTINUOUS
 90
10
 70
0
 10
279.6546317306
 20
205.4068943646
 10
279.6505083187
 20
205.4079562758
 10
279.6425712081
 20
205.4089675504
 10
279.631112477
 20
205.4099281884
 10
279.6163586301
 20
205.4108463466
 10
279.5986901264
 20
205.4117138682
 10
279.5788010506
 20
205.4125062822
 10
279.5573292877
 20
205.41321336
 10
279.5345731202
 20
205.4138453303
 10
279.4865830652
 20
205.414898977
  0
LWPOLYLINE
  5
4A9
100
AcDbEntity
  8
0
100
AcDbPolyline
 62
250
  6
CONTINUOUS
 90
11
 70
0
 10
266.9074112797
 20
208.56941361
 10
266.9115287591
 20
208.5683500198
 10
266.9195684765
 20
208.5673283188
 10
266.9313693873
 20
208.566348507
 10
266.9466677952
 20
208.5654057727
 10
266.9652818947
 20
208.5645049276
 10
266.9872521552
 20
208.5636604061
 10
267.0124591588
 20
208.562869432
 10
267.0406717564
 20
208.5621347815
 10
267.0718919751
 20
208.5614792173
 10
267.1426312079
 20
208.5604036009
  0
LINE
  5
4AA
100
AcDbEntity
  8
0
100
AcDbLine
 62
7
  6
CONTINUOUS
 10
267.0505955675
 20
208.8511149307
 11
267.1210194809
 21
208.8297065247
  0
LINE
  5
4AB
100
AcDbEntity
  8
0
100
AcDbLine
 62
7
  6
CONTINUOUS
 10
267.0138124219
 20
208.8624642817
 11
267.0505955675
 21
208.8511149307
  0
LWPOLYLINE
  5
4AC
100
AcDbEntity
  8
0
100
AcDbPolyline
 62
250
  6
CONTINUOUS
 90
13
 70
0
 10
279.4549058236
 20
205.2071687727
 10
279.4525855103
 20
205.2082298714
 10
279.4486656331
 20
205.2092406523
 10
279.4431461919
 20
205.2102011153
 10
279.4357846712
 20
205.211119587
 10
279.4268235865
 20
205.2119877408
 10
279.416990485
 20
205.2127805972
 10
279.4063555596
 20
205.213487685
 10
279.3948486173
 20
205.2141194753
 10
279.3829866267
 20
205.2146824016
 10
279.3709815251
 20
205.2151729144
 10
279.3586213751
 20
205.2155945632
 10
279.3325662176
 20
205.2162892693
  0
LINE
  5
4AD
100
AcDbEntity
  8
0
100
AcDbLine
 62
250
  6
CONTINUOUS
 10
279.5817816184
 20
205.0802929779
 11
279.4549058236
 21
205.2071687727
  0
LINE
  5
4AE
100
AcDbEntity
  8
0
100
AcDbLine
 62
250
  6
CONTINUOUS
 10
279.7815075254
 20
205.2800188849
 11
279.6546317306
 21
205.4068946796
  0
LWPOLYLINE
  5
4AF
100
AcDbEntity
  8
0
100
AcDbPolyline
 62
250
  6
CONTINUOUS
 90
16
 70
0
 10
279.4567460343
 20
182.1308795456
 10
279.4497688059
 20
182.1208136183
 10
279.4414268403
 20
182.1117898897
 10
279.4318833859
 20
182.1039983598
 10
279.4213210574
 20
182.0976196564
 10
279.4099645269
 20
182.0927718075
 10
279.3980523003
 20
182.0894987585
 10
279.3858041794
 20
182.0878436215
 10
279.3734425099
 20
182.0878562949
 10
279.3611985285
 20
182.0895365251
 10
279.3492886123
 20
182.0928359919
 10
279.337938939
 20
182.0977100524
 10
279.3274032272
 20
182.1041027554
 10
279.3179055106
 20
182.1118851921
 10
279.3096158078
 20
182.1208750442
 10
279.3026891784
 20
182.1308795714
  0
LWPOLYLINE
  5
4B0
100
AcDbEntity
  8
0
100
AcDbPolyline
 62
7
  6
CONTINUOUS
 90
10
 70
0
 10
274.8766335607
 20
180.0900297171
 10
274.9069282174
 20
180.1215056147
 10
274.9335943217
 20
180.1542787831
 10
274.9566318737
 20
180.1883492301
 10
274.975986567
 20
180.2235940012
 10
274.991712708
 20
180.2601360667
 10
275.003973216
 20
180.2983443241
 10
275.0128223973
 20
180.3383417481
 10
275.0182059457
 20
180.380005388
 10
275.020123861
 20
180.4233352562
  0
LWPOLYLINE
  5
4B1
100
AcDbEntity
  8
0
100
AcDbPolyline
 62
7
  6
CONTINUOUS
 90
10
 70
0
 10
274.7349098263
 20
180.1959335126
 10
274.714476621
 20
180.1770479444
 10
274.6931088389
 20
180.1604060025
 10
274.6708064802
 20
180.1460076801
 10
274.6476316228
 20
180.1338747435
 10
274.6235221888
 20
180.1239854154
 10
274.598291944
 20
180.1162743747
 10
274.5718788101
 20
180.110719846
 10
274.5443448654
 20
180.1073435994
 10
274.5156901099
 20
180.1061456335
  0
LWPOLYLINE
  5
4B2
100
AcDbEntity
  8
0
100
AcDbPolyline
 62
7
  6
CONTINUOUS
 90
10
 70
0
 10
275.6136024429
 20
181.2858563219
 10
275.5881597584
 20
181.2638156903
 10
275.5615688628
 20
181.2423763351
 10
275.5338297562
 20
181.2215382542
 10
275.5049361412
 20
181.2012732626
 10
275.4748943152
 20
181.181609541
 10
275.4437231702
 20
181.1626316361
 10
275.4114290036
 20
181.1443677283
 10
275.3780055181
 20
181.1267896328
 10
275.3434527136
 20
181.1098973473
  0
LWPOLYLINE
  5
4B3
100
AcDbEntity
  8
0
100
AcDbPolyline
 62
7
  6
CONTINUOUS
 90
10
 70
0
 10
274.6628783016
 20
180.9116321295
 10
274.641503243
 20
180.8986990154
 10
274.6196512548
 20
180.8872971054
 10
274.5973223369
 20
180.8774263965
 10
274.5745944223
 20
180.8690998769
 10
274.551389578
 20
180.8623045535
 10
274.5274740052
 20
180.8570014518
 10
274.5027697709
 20
180.8531775797
 10
274.4773548082
 20
180.8508459269
 10
274.4512291171
 20
180.850006493
  0
LWPOLYLINE
  5
4B4
100
AcDbEntity
  8
0
100
AcDbPolyline
 62
7
  6
CONTINUOUS
 90
10
 70
0
 10
273.206227384
 20
181.0266395817
 10
273.2280539546
 20
181.0397529737
 10
273.2493082502
 20
181.0531062514
 10
273.2699902708
 20
181.0666994156
 10
273.2901405658
 20
181.0805102979
 10
273.3097185857
 20
181.0945610677
 10
273.3286026823
 20
181.1089182319
 10
273.3467523063
 20
181.1236039601
 10
273.364208007
 20
181.1385960843
 10
273.3809697844
 20
181.1538946053
  0
LINE
  5
4B5
100
AcDbEntity
  8
0
100
AcDbLine
 62
250
  6
CONTINUOUS
 10
278.9463292248
 20
183.4089168003
 11
278.4995736402
 21
183.2005912499
  0
LWPOLYLINE
  5
4B6
100
AcDbEntity
  8
0
100
AcDbPolyline
 62
7
  6
CONTINUOUS
 90
10
 70
0
 10
270.6817884214
 20
180.9318618794
 10
270.7030608336
 20
180.9399327289
 10
270.7243902136
 20
180.9486476588
 10
270.7457765614
 20
180.95800667
 10
270.7672160169
 20
180.9680485375
 10
270.7887124402
 20
180.9787344887
 10
270.8102774117
 20
180.9899482032
 10
270.8319147914
 20
181.0016509084
 10
270.8536207193
 20
181.013881379
 10
270.8753951954
 20
181.0266396161
  0
LINE
  5
4B7
100
AcDbEntity
  8
0
100
AcDbLine
 62
7
  6
CONTINUOUS
 10
263.5202275034
 20
178.9958797088
 11
263.4734292844
 21
178.9802929779
  0
LINE
  5
4B8
100
AcDbEntity
  8
0
100
AcDbLine
 62
7
  6
CONTINUOUS
 10
283.0489528521
 20
185.0618469094
 11
283.0859933369
 21
185.0741837052
  0
LWPOLYLINE
  5
4B9
100
AcDbEntity
  8
0
100
AcDbPolyline
 62
250
  6
CONTINUOUS
 90
13
 70
0
 10
279.0348213073
 20
208.7592065233
 10
279.0165328629
 20
208.7566414263
 10
278.9985447177
 20
208.7508523398
 10
278.9811509308
 20
208.7419345716
 10
278.9646364985
 20
208.7300351748
 10
278.9492703328
 20
208.7153488985
 10
278.9353014601
 20
208.6981137151
 10
278.9229535963
 20
208.6786019396
 10
278.912435543
 20
208.657139313
 10
278.9039284956
 20
208.634104158
 10
278.897566699
 20
208.6098867587
 10
278.893442963
 20
208.5848761278
 10
278.8916169222
 20
208.5594806164
  0
LWPOLYLINE
  5
4BA
100
AcDbEntity
  8
0
100
AcDbPolyline
 62
250
  6
CONTINUOUS
 90
13
 70
0
 10
278.8400698472
 20
208.7696753734
 10
278.8217896916
 20
208.7671121849
 10
278.8038085037
 20
208.7613275259
 10
278.7864200614
 20
208.7524160605
 10
278.7699092969
 20
208.7405242503
 10
278.7545449346
 20
208.7258461018
 10
278.7405757741
 20
208.7086185435
 10
278.7282263309
 20
208.6891141332
 10
278.7177050353
 20
208.667657161
 10
278.7091922959
 20
208.6446215006
 10
278.7028236731
 20
208.6203952017
 10
278.698694253
 20
208.5953682788
 10
278.696865462
 20
208.5699494664
  0
LINE
  5
4BB
100
AcDbEntity
  8
0
100
AcDbLine
 62
7
  6
CONTINUOUS
 10
278.5871057471
 20
208.0161241856
 11
278.6379516126
 21
208.0224772118
  0
LWPOLYLINE
  5
4BC
100
AcDbEntity
  8
0
100
AcDbPolyline
 62
250
  6
CONTINUOUS
 90
16
 70
0
 10
268.0781917038
 20
207.7599947059
 10
268.0839539469
 20
207.7606943628
 10
268.0896143771
 20
207.7614437763
 10
268.0951397629
 20
207.7622429462
 10
268.100485396
 20
207.7630896556
 10
268.10562539
 20
207.7639861216
 10
268.1105462954
 20
207.7649389951
 10
268.1152059973
 20
207.7659506287
 10
268.1195506467
 20
207.7670186698
 10
268.1235372949
 20
207.7681427122
 10
268.1271068363
 20
207.7693221729
 10
268.1302067786
 20
207.7705576347
 10
268.1327897116
 20
207.7718504403
 10
268.134789037
 20
207.7732010371
 10
268.1361294519
 20
207.7746089776
 10
268.1367398866
 20
207.7760742618
  0
LWPOLYLINE
  5
4BD
100
AcDbEntity
  8
0
100
AcDbPolyline
 62
250
  6
CONTINUOUS
 90
10
 70
0
 10
267.0729280437
 20
207.7912620596
 10
267.0472739539
 20
207.7887395534
 10
267.0223772507
 20
207.7822763789
 10
266.9989733004
 20
207.7720632905
 10
266.9777533846
 20
207.7584017952
 10
266.959344402
 20
207.7416952985
 10
266.9442902897
 20
207.7224372483
 10
266.9330357978
 20
207.701196471
 10
266.9259134046
 20
207.6786003223
 10
266.9231335748
 20
207.655316236
  0
LWPOLYLINE
  5
4BE
100
AcDbEntity
  8
0
100
AcDbPolyline
 62
250
  6
CONTINUOUS
 90
10
 70
0
 10
278.5910026117
 20
207.9120204298
 10
278.565079698
 20
207.9098010926
 10
278.5399370781
 20
207.9035565061
 10
278.5163315585
 20
207.8934746358
 10
278.4949736777
 20
207.8798589517
 10
278.4765063195
 20
207.8631192933
 10
278.4614853616
 20
207.8437595329
 10
278.4503629425
 20
207.8223624101
 10
278.4434738526
 20
207.7995719898
 10
278.4410254569
 20
207.7760742759
  0
LWPOLYLINE
  5
4BF
100
AcDbEntity
  8
0
100
AcDbPolyline
 62
250
  6
CONTINUOUS
 90
13
 70
0
 10
278.8400698472
 20
208.7696753734
 10
278.8139598027
 20
208.7679417175
 10
278.7882985868
 20
208.7628185495
 10
278.7635253647
 20
208.7543942785
 10
278.7400648888
 20
208.7428143242
 10
278.7183172776
 20
208.7282772181
 10
278.6986519509
 20
208.711029997
 10
278.6813993846
 20
208.6913590352
 10
278.6668638601
 20
208.6696073149
 10
278.6553056777
 20
208.6461733226
 10
278.6469154439
 20
208.6214714157
 10
278.6418215283
 20
208.5959178761
 10
278.6401003081
 20
208.5699494664
  0
LINE
  5
4C0
100
AcDbEntity
  8
0
100
AcDbLine
 62
250
  6
CONTINUOUS
 10
267.6861484219
 20
208.5594806164
 11
267.880899882
 21
208.5699494664
  0
LWPOLYLINE
  5
4C1
100
AcDbEntity
  8
0
100
AcDbPolyline
 62
250
  6
CONTINUOUS
 90
16
 70
0
 10
279.2551799167
 20
207.6807863094
 10
279.2800187827
 20
207.681398758
 10
279.3041349757
 20
207.6830615345
 10
279.3275284957
 20
207.6857746389
 10
279.350344869
 20
207.6895566722
 10
279.3724385693
 20
207.6943890333
 10
279.3933730171
 20
207.7002159191
 10
279.4132187553
 20
207.7070610273
 10
279.431905241
 20
207.71490066
 10
279.4487842663
 20
207.7236079211
 10
279.4638608004
 20
207.7332351721
 10
279.4771298741
 20
207.7437300514
 10
279.4879283724
 20
207.7548085779
 10
279.4960352571
 20
207.7663760912
 10
279.5016715664
 20
207.7785272518
 10
279.5048373004
 20
207.7912620596
  0
LWPOLYLINE
  5
4C2
100
AcDbEntity
  8
0
100
AcDbPolyline
 62
250
  6
CONTINUOUS
 90
9
 70
0
 10
279.5258756634
 20
208.5618848707
 10
279.5550999435
 20
208.562589079
 10
279.5818499844
 20
208.563369464
 10
279.6058081229
 20
208.5642304742
 10
279.626525773
 20
208.5651676611
 10
279.6436346552
 20
208.5661569995
 10
279.6568184311
 20
208.567190481
 10
279.6658050058
 20
208.5682761139
 10
279.6703540644
 20
208.5694138984
  0
LWPOLYLINE
  5
4C3
100
AcDbEntity
  8
0
100
AcDbPolyline
 62
250
  6
CONTINUOUS
 90
16
 70
0
 10
279.2551799167
 20
207.5448401413
 10
279.2943295546
 20
207.5454543724
 10
279.3330379016
 20
207.5471182395
 10
279.3709373794
 20
207.5498317427
 10
279.4075410052
 20
207.5536129476
 10
279.4426480369
 20
207.5584437887
 10
279.4762888347
 20
207.5642700688
 10
279.5081600103
 20
207.5711168822
 10
279.5378045122
 20
207.5789591347
 10
279.5649460791
 20
207.5876673463
 10
279.5892317937
 20
207.5972918595
 10
279.6102358552
 20
207.6077823318
 10
279.6275778557
 20
207.6188582565
 10
279.6409355385
 20
207.6304261311
 10
279.6500344327
 20
207.642579458
 10
279.6546317306
 20
207.6553182373
  0
LINE
  5
4C4
100
AcDbEntity
  8
0
100
AcDbLine
 62
250
  6
CONTINUOUS
 10
279.4608360303
 20
208.5607379263
 11
279.5258756634
 21
208.5618848707
  0
LINE
  5
4C5
100
AcDbEntity
  8
0
100
AcDbLine
 62
7
  6
CONTINUOUS
 10
278.8368690219
 20
208.7792856581
 11
278.938882672
 21
208.7807181973
  0
LWPOLYLINE
  5
4C6
100
AcDbEntity
  8
0
100
AcDbPolyline
 62
7
  6
CONTINUOUS
 90
8
 70
0
 10
279.4211213923
 20
208.8278886073
 10
279.4278775396
 20
208.8279553248
 10
279.4345569579
 20
208.828102387
 10
279.4409339827
 20
208.8283105664
 10
279.4464020494
 20
208.8285755064
 10
279.4507589701
 20
208.8288957546
 10
279.4542069329
 20
208.8292727634
 10
279.4567459377
 20
208.8297065327
  0
LINE
  5
4C7
100
AcDbEntity
  8
0
100
AcDbLine
 62
250
  6
CONTINUOUS
 10
279.3888786348
 20
208.559947293
 11
279.4608360303
 21
208.5607379263
  0
LWPOLYLINE
  5
4C8
100
AcDbEntity
  8
0
100
AcDbPolyline
 62
250
  6
CONTINUOUS
 90
19
 70
0
 10
267.4900145558
 20
207.6807863094
 10
267.49196127
 20
207.6808038587
 10
267.4939020097
 20
207.6808567285
 10
267.4958367747
 20
207.6809449189
 10
267.497759996
 20
207.6810670405
 10
267.4996772426
 20
207.6812244826
 10
267.5016052223
 20
207.6814214137
 10
267.5035490908
 20
207.6816568652
 10
267.5055036923
 20
207.6819318056
 10
267.5074702672
 20
207.6822533092
 10
267.5094512432
 20
207.6826205096
 10
267.5114441927
 20
207.683034273
 10
267.5134430732
 20
207.6835042725
 10
267.5154524979
 20
207.6840303747
 10
267.5174678538
 20
207.6846127129
 10
267.5194692595
 20
207.68526136
 10
267.5214500881
 20
207.6859796735
 10
267.5234169665
 20
207.6867642958
 10
267.5253698948
 20
207.6876152269
  0
LWPOLYLINE
  5
4C9
100
AcDbEntity
  8
0
100
AcDbPolyline
 62
250
  6
CONTINUOUS
 90
15
 70
0
 10
279.2912612632
 20
208.7592669599
 10
279.3109239944
 20
208.7594223823
 10
279.3298904442
 20
208.7596727903
 10
279.3482602833
 20
208.7600209702
 10
279.365933841
 20
208.7604641358
 10
279.3826121049
 20
208.7609939289
 10
279.398340369
 20
208.7616109245
 10
279.4130733393
 20
208.7623145475
 10
279.4263761216
 20
208.7630947149
 10
279.4382763779
 20
208.7639563423
 10
279.4487464461
 20
208.764894514
 10
279.4572684462
 20
208.7658844003
 10
279.4636697514
 20
208.7669177246
 10
279.4681229885
 20
208.7680027635
 10
279.4706281574
 20
208.7691395169
  0
LWPOLYLINE
  5
4CA
100
AcDbEntity
  8
0
100
AcDbPolyline
 62
250
  6
CONTINUOUS
 90
18
 70
0
 10
267.4977815871
 20
207.5448577501
 10
267.5055484894
 20
207.5449106518
 10
267.5133034303
 20
207.5449988463
 10
267.5209984383
 20
207.5451209263
 10
267.5286581248
 20
207.5452782992
 10
267.5363772233
 20
207.5454751874
 10
267.5441550369
 20
207.545710636
 10
267.551960661
 20
207.5459855999
 10
267.5598374006
 20
207.5463071658
 10
267.567764234
 20
207.5466745388
 10
267.5757176071
 20
207.5470885137
 10
267.5837286036
 20
207.5475585623
 10
267.5917717057
 20
207.5480843701
 10
267.599807058
 20
207.5486662515
 10
267.6078334024
 20
207.5493146216
 10
267.6158185494
 20
207.550032952
 10
267.6237030304
 20
207.550817771
 10
267.6314360969
 20
207.5516690787
  0
LINE
  5
4CB
100
AcDbEntity
  8
0
100
AcDbLine
 62
250
  6
CONTINUOUS
 10
279.3110272213
 20
208.5595413363
 11
279.3888786348
 21
208.559947293
  0
LINE
  5
4CC
100
AcDbEntity
  8
0
100
AcDbLine
 62
250
  6
CONTINUOUS
 10
267.3225854274
 20
207.5448401413
 11
267.4977815871
 21
207.5448577501
  0
LINE
  5
4CD
100
AcDbEntity
  8
0
100
AcDbLine
 62
250
  6
CONTINUOUS
 10
267.3225854274
 20
207.6807863094
 11
267.4900145558
 21
207.6807863094
  0
LINE
  5
4CE
100
AcDbEntity
  8
0
100
AcDbLine
 62
250
  6
CONTINUOUS
 10
279.0877507883
 20
207.6807863094
 11
279.2551799167
 21
207.6807863094
  0
LINE
  5
4CF
100
AcDbEntity
  8
0
100
AcDbLine
 62
7
  6
CONTINUOUS
 10
279.2709022505
 20
207.7802929779
 11
279.0348213073
 21
207.7802929779
  0
LINE
  5
4D0
100
AcDbEntity
  8
0
100
AcDbLine
 62
7
  6
CONTINUOUS
 10
267.5429440368
 20
207.7802929779
 11
267.3068630936
 21
207.7802929779
  0
LINE
  5
4D1
100
AcDbEntity
  8
0
100
AcDbLine
 62
250
  6
CONTINUOUS
 10
278.8916169222
 20
208.5594806164
 11
279.3110272213
 21
208.5595413363
  0
LINE
  5
4D2
100
AcDbEntity
  8
0
100
AcDbLine
 62
250
  6
CONTINUOUS
 10
267.880899882
 20
208.5699494664
 11
267.9376650359
 21
208.5699494664
  0
LINE
  5
4D3
100
AcDbEntity
  8
0
100
AcDbLine
 62
250
  6
CONTINUOUS
 10
278.6401003081
 20
208.5699494664
 11
278.696865462
 21
208.5699494664
  0
LINE
  5
4D4
100
AcDbEntity
  8
0
100
AcDbLine
 62
250
  6
CONTINUOUS
 10
279.0348213073
 20
208.7592065233
 11
279.2912612632
 21
208.7592669599
  0
LINE
  5
4D5
100
AcDbEntity
  8
0
100
AcDbLine
 62
7
  6
CONTINUOUS
 10
279.3403939163
 20
208.8278770862
 11
279.4211213923
 21
208.8278886073
  0
LINE
  5
4D6
100
AcDbEntity
  8
0
100
AcDbLine
 62
250
  6
CONTINUOUS
 10
267.2220095682
 20
208.5597289397
 11
267.6861484219
 21
208.5594806164
  0
LINE
  5
4D7
100
AcDbEntity
  8
0
100
AcDbLine
 62
250
  6
CONTINUOUS
 10
267.1426312079
 20
208.5604036009
 11
267.2220095682
 21
208.5597289397
  0
LINE
  5
4D8
100
AcDbEntity
  8
0
100
AcDbLine
 62
7
  6
CONTINUOUS
 10
267.638882672
 20
208.7807181973
 11
267.7408963222
 21
208.7792856581
  0
LINE
  5
4D9
100
AcDbEntity
  8
0
100
AcDbLine
 62
250
  6
CONTINUOUS
 10
278.696865462
 20
208.5699494664
 11
278.8916169222
 21
208.5594806164
  0
LWPOLYLINE
  5
4DA
100
AcDbEntity
  8
0
100
AcDbPolyline
 62
250
  6
CONTINUOUS
 90
13
 70
0
 10
267.7376954969
 20
208.7696753734
 10
267.7638053435
 20
208.7679417437
 10
267.7894663662
 20
208.7628186546
 10
267.8142394105
 20
208.7543945144
 10
267.8376997031
 20
208.7428147588
 10
267.8594471723
 20
208.7282779043
 10
267.879112487
 20
208.7110309031
 10
267.8963651756
 20
208.6913600568
 10
267.910900889
 20
208.6696083453
 10
267.9224592798
 20
208.6461742556
 10
267.9308497046
 20
208.6214721451
 10
267.935943761
 20
208.5959182911
 10
267.9376650359
 20
208.5699494664
  0
LWPOLYLINE
  5
4DB
100
AcDbEntity
  8
0
100
AcDbPolyline
 62
250
  6
CONTINUOUS
 90
10
 70
0
 10
267.9867627324
 20
207.9120204298
 10
268.0126856448
 20
207.9098010913
 10
268.0378282636
 20
207.9035565036
 10
268.0614337826
 20
207.8934746321
 10
268.082791663
 20
207.8798589465
 10
268.1012590212
 20
207.8631192864
 10
268.1162799797
 20
207.8437595244
 10
268.1274023998
 20
207.8223623999
 10
268.1342914905
 20
207.7995719777
 10
268.1367398866
 20
207.7760742618
  0
LWPOLYLINE
  5
4DC
100
AcDbEntity
  8
0
100
AcDbPolyline
 62
250
  6
CONTINUOUS
 90
10
 70
0
 10
279.5048373004
 20
207.7912620596
 10
279.530492461
 20
207.788739363
 10
279.5553898511
 20
207.7822757772
 10
279.5787940797
 20
207.7720622169
 10
279.6000138627
 20
207.7584003901
 10
279.6184224311
 20
207.7416937971
 10
279.6334760437
 20
207.7224358123
 10
279.6447300609
 20
207.7011952278
 10
279.6518520774
 20
207.6785994525
 10
279.6546317306
 20
207.6553158916
  0
LWPOLYLINE
  5
4DD
100
AcDbEntity
  8
0
100
AcDbPolyline
 62
250
  6
CONTINUOUS
 90
19
 70
0
 10
278.9463294321
 20
207.5516690589
 10
278.951812222
 20
207.5510516507
 10
278.9575172506
 20
207.5504589148
 10
278.9634387376
 20
207.5498908511
 10
278.9695434212
 20
207.5493479991
 10
278.9758500346
 20
207.5488298192
 10
278.9824367421
 20
207.5483346933
 10
278.98931201
 20
207.5478604206
 10
278.9964634557
 20
207.5474092018
 10
279.0039466722
 20
207.5469860207
 10
279.0117582441
 20
207.5465893936
 10
279.0198954595
 20
207.5462208043
 10
279.0284191401
 20
207.545889688
 10
279.0373287084
 20
207.5455943253
 10
279.0466103267
 20
207.5453364358
 10
279.0563052518
 20
207.5451306132
 10
279.0664165485
 20
207.5449817222
 10
279.0769067201
 20
207.5448848983
 10
279.2551799167
 20
207.5448401413
  0
LINE
  5
4DE
100
AcDbEntity
  8
0
100
AcDbLine
 62
7
  6
CONTINUOUS
 10
267.9398137315
 20
208.0224772118
 11
267.990659597
 21
208.0161241856
  0
LWPOLYLINE
  5
4DF
100
AcDbEntity
  8
0
100
AcDbPolyline
 62
250
  6
CONTINUOUS
 90
13
 70
0
 10
267.7376954969
 20
208.7696753734
 10
267.7559757613
 20
208.7671121599
 10
267.7739570521
 20
208.761327438
 10
267.7913455863
 20
208.7524158742
 10
267.8078564422
 20
208.740523921
 10
267.8232208732
 20
208.7258455974
 10
267.837190038
 20
208.7086178905
 10
267.8495394183
 20
208.6891134076
 10
267.8600606175
 20
208.6676564393
 10
267.8685732516
 20
208.6446208544
 10
267.8749417779
 20
208.6203947001
 10
267.8790711246
 20
208.5953679948
 10
267.880899882
 20
208.5699494664
  0
LWPOLYLINE
  5
4E0
100
AcDbEntity
  8
0
100
AcDbPolyline
 62
250
  6
CONTINUOUS
 90
13
 70
0
 10
267.5429440368
 20
208.7592065233
 10
267.5612323305
 20
208.756641461
 10
267.579220329
 20
208.7508524634
 10
267.5966139808
 20
208.7419348371
 10
267.6131282738
 20
208.7300356516
 10
267.6284943306
 20
208.7153496393
 10
267.6424631901
 20
208.698114684
 10
267.65481114
 20
208.6786030288
 10
267.665329331
 20
208.6571404127
 10
267.6738365347
 20
208.6341051554
 10
267.680198479
 20
208.6098875388
 10
267.6843223287
 20
208.584876572
 10
267.6861484219
 20
208.5594806164
  0
LWPOLYLINE
  5
4E1
100
AcDbEntity
  8
0
100
AcDbPolyline
 62
7
  6
CONTINUOUS
 90
8
 70
0
 10
283.0489528521
 20
205.8987390464
 10
283.0456904757
 20
205.899274049
 10
283.0395626233
 20
205.8997907415
 10
283.0305692948
 20
205.9002891238
 10
283.0185518119
 20
205.9007740925
 10
283.0036688529
 20
205.901240751
 10
282.9863964527
 20
205.9016744097
 10
282.944599747
 20
205.9024397529
  0
LWPOLYLINE
  5
4E2
100
AcDbEntity
  8
0
100
AcDbPolyline
 62
7
  6
CONTINUOUS
 90
9
 70
0
 10
267.1210194809
 20
208.8297065247
 10
267.1236376789
 20
208.8292646366
 10
267.1271809864
 20
208.8288820687
 10
267.1316494033
 20
208.828558821
 10
267.1372936417
 20
208.8282941476
 10
267.1438629895
 20
208.8280887944
 10
267.1506053103
 20
208.8279449992
 10
267.1571922524
 20
208.8278818122
 10
267.2361577316
 20
208.8278680296
  0
LINE
  5
4E3
100
AcDbEntity
  8
0
100
AcDbLine
 62
7
  6
CONTINUOUS
 10
263.5202275034
 20
211.9647062471
 11
263.4734292844
 21
211.9802929779
  0
LINE
  5
4E4
100
AcDbEntity
  8
0
100
AcDbLine
 62
7
  6
CONTINUOUS
 10
283.0489528521
 20
205.8987390464
 11
283.0859933369
 21
205.8864022506
  0
LINE
  5
4E5
100
AcDbEntity
  8
0
100
AcDbLine
 62
250
  6
CONTINUOUS
 10
278.4995736402
 20
207.7599947059
 11
278.9463294321
 21
207.5516690589
  0
LWPOLYLINE
  5
4E6
100
AcDbEntity
  8
0
100
AcDbPolyline
 62
7
  6
CONTINUOUS
 90
7
 70
0
 10
279.8005859974
 20
208.8328922396
 10
279.8093407769
 20
208.8170065227
 10
279.8166277968
 20
208.8003635807
 10
279.8223792985
 20
208.7830975182
 10
279.8265397183
 20
208.7653487191
 10
279.8290662976
 20
208.7472627392
 10
279.829929594
 20
208.7289891396
  0
LWPOLYLINE
  5
4E7
100
AcDbEntity
  8
0
100
AcDbPolyline
 62
250
  6
CONTINUOUS
 90
19
 70
0
 10
284.1513192052
 20
216.9201361652
 10
284.1462521054
 20
216.9651240172
 10
284.1371985232
 20
217.0091568233
 10
284.1243391464
 20
217.0519016419
 10
284.107767708
 20
217.0932736533
 10
284.0877832132
 20
217.132744002
 10
284.0650714807
 20
217.169425073
 10
284.0401270661
 20
217.2030287723
 10
284.0132663914
 20
217.2336351447
 10
283.9850940453
 20
217.2610919633
 10
283.9563804163
 20
217.2851408831
 10
283.9271120735
 20
217.3062068268
 10
283.8965753596
 20
217.3250570653
 10
283.8650213857
 20
217.3416116192
 10
283.832543097
 20
217.3558239236
 10
283.7979580191
 20
217.3680759186
 10
283.7609180085
 20
217.3781610204
 10
283.7220227527
 20
217.3855752572
 10
283.6814747953
 20
217.3899843761
  0
LINE
  5
4E8
100
AcDbEntity
  8
0
100
AcDbLine
 62
7
  6
CONTINUOUS
 10
279.303119672
 20
177.6052929779
 11
278.944547672
 21
177.0046059779
  0
LINE
  5
4E9
100
AcDbEntity
  8
0
100
AcDbLine
 62
7
  6
CONTINUOUS
 10
279.029767672
 20
176.8584269779
 11
279.501663672
 21
177.6052929779
  0
LWPOLYLINE
  5
4EA
100
AcDbEntity
  8
0
100
AcDbPolyline
 62
7
  6
CONTINUOUS
 90
46
 70
0
 10
279.8005859974
 20
182.1276937162
 10
279.797534411
 20
182.124868332
 10
279.7943876653
 20
182.1221243561
 10
279.7911473462
 20
182.1194630517
 10
279.7878173049
 20
182.1168874668
 10
279.7843970119
 20
182.1143968731
 10
279.7808810646
 20
182.1119871339
 10
279.7772695985
 20
182.1096587694
 10
279.773564901
 20
182.1074141357
 10
279.7697641822
 20
182.1052523247
 10
279.7658685255
 20
182.1031747539
 10
279.7618790749
 20
182.1011830766
 10
279.7577927781
 20
182.0992770769
 10
279.7536104623
 20
182.0974582583
 10
279.749333373
 20
182.0957284607
 10
279.7449588115
 20
182.0940882983
 10
279.7404874758
 20
182.0925394134
 10
279.7359207174
 20
182.0910837585
 10
279.7312566459
 20
182.0897226805
 10
279.7264962186
 20
182.0884580197
 10
279.7216406457
 20
182.0872917072
 10
279.7166883207
 20
182.086225446
 10
279.7116402384
 20
182.0852611748
 10
279.7064977531
 20
182.0844008922
 10
279.7012597496
 20
182.0836465846
 10
279.6959284815
 20
182.0830003764
 10
279.6905043173
 20
182.0824641691
 10
279.6849832277
 20
182.0820399335
 10
279.6793713513
 20
182.081729968
 10
279.6736653883
 20
182.081536292
 10
279.6678467376
 20
182.0814616135
 10
279.6619175293
 20
182.0815087826
 10
279.655878171
 20
182.0816812512
 10
279.6497068684
 20
182.0819846484
 10
279.6434042715
 20
182.0824230612
 10
279.6369723466
 20
182.0830010397
 10
279.6303908698
 20
182.0837270396
 10
279.623660886
 20
182.0846063908
 10
279.6167846155
 20
182.0856446852
 10
279.6097434743
 20
182.0868528235
 10
279.6025392814
 20
182.0882373531
 10
279.5951747087
 20
182.0898049337
 10
279.5876326003
 20
182.0915686583
 10
279.5799093027
 20
182.0935385001
 10
279.5720148122
 20
182.0957202256
 10
279.5639529222
 20
182.0981216741
  0
LWPOLYLINE
  5
4EB
100
AcDbEntity
  8
0
100
AcDbPolyline
 62
7
  6
CONTINUOUS
 90
10
 70
0
 10
275.5370595309
 20
181.0266395426
 10
275.5588860939
 20
181.0397529443
 10
275.5801403833
 20
181.0531062303
 10
275.6008223991
 20
181.0666994011
 10
275.6209726908
 20
181.0805102883
 10
275.6405507088
 20
181.0945610614
 10
275.6594348045
 20
181.1089182282
 10
275.6775844281
 20
181.1236039584
 10
275.6950401294
 20
181.1385960838
 10
275.7118019082
 20
181.1538946053
  0
LWPOLYLINE
  5
4EC
100
AcDbEntity
  8
0
100
AcDbPolyline
 62
7
  6
CONTINUOUS
 90
10
 70
0
 10
274.7397693612
 20
180.7927077135
 10
274.7620918645
 20
180.8036267606
 10
274.7831481849
 20
180.8153856083
 10
274.8029383222
 20
180.8279842582
 10
274.8214925693
 20
180.8414830302
 10
274.8387806335
 20
180.8558216083
 10
274.854711636
 20
180.8708190412
 10
274.869255284
 20
180.8864150125
 10
274.8824418705
 20
180.9026698419
 10
274.8942713954
 20
180.9195835312
  0
LWPOLYLINE
  5
4ED
100
AcDbEntity
  8
0
100
AcDbPolyline
 62
250
  6
CONTINUOUS
 90
19
 70
0
 10
278.6056396574
 20
183.0646450818
 10
278.6043953784
 20
183.0640468733
 10
278.6031877885
 20
183.0634190528
 10
278.6020168877
 20
183.0627616201
 10
278.6008806969
 20
183.0620763675
 10
278.5997811952
 20
183.0613615028
 10
278.59872432
 20
183.0606116496
 10
278.5977072886
 20
183.0598264001
 10
278.5967328837
 20
183.0590061621
 10
278.5958153901
 20
183.0581467825
 10
278.5949524067
 20
183.0572478103
 10
278.5941463348
 20
183.0563096965
 10
278.5934186625
 20
183.0553296406
 10
278.5927669005
 20
183.0543066128
 10
278.5921935382
 20
183.0532416429
 10
278.5917275324
 20
183.0521350203
 10
278.5913785356
 20
183.0509868416
 10
278.5911368954
 20
183.0497970101
 10
278.5910026117
 20
183.048565526
  0
LINE
  5
4EE
100
AcDbEntity
  8
0
100
AcDbLine
 62
7
  6
CONTINUOUS
 10
278.8916169222
 20
183.1521352502
 11
278.696865462
 21
183.0589867707
  0
LINE
  5
4EF
100
AcDbEntity
  8
0
100
AcDbLine
 62
250
  6
CONTINUOUS
 10
279.0523954492
 20
183.2729707289
 11
278.6056396574
 21
183.0646450818
  0
LWPOLYLINE
  5
4F0
100
AcDbEntity
  8
0
100
AcDbPolyline
 62
7
  6
CONTINUOUS
 90
10
 70
0
 10
273.0126205899
 20
180.9318618794
 10
273.0338930046
 20
180.939932728
 10
273.0552223872
 20
180.9486476559
 10
273.0766087378
 20
180.9580066642
 10
273.0980481965
 20
180.9680485271
 10
273.1195446232
 20
180.9787344726
 10
273.1411095973
 20
180.9899481818
 10
273.1627469787
 20
181.0016508823
 10
273.1844529076
 20
181.0138813486
 10
273.206227384
 20
181.0266395817
  0
LWPOLYLINE
  5
4F1
100
AcDbEntity
  8
0
100
AcDbPolyline
 62
7
  6
CONTINUOUS
 90
10
 70
0
 10
275.3434527136
 20
180.9318618794
 10
275.364725134
 20
180.9399327245
 10
275.3860545223
 20
180.9486476476
 10
275.4074408785
 20
180.9580066497
 10
275.4288803438
 20
180.9680485036
 10
275.450376777
 20
180.9787344388
 10
275.4719417547
 20
180.9899481409
 10
275.4935791357
 20
181.0016508388
 10
275.5152850611
 20
181.0138813057
 10
275.5370595309
 20
181.0266395426
  0
LINE
  5
4F2
100
AcDbEntity
  8
0
100
AcDbLine
 62
7
  6
CONTINUOUS
 10
278.9827708031
 20
182.0321508424
 11
279.255250883
 21
182.1164863025
  0
LINE
  5
4F3
100
AcDbEntity
  8
0
100
AcDbLine
 62
7
  6
CONTINUOUS
 10
279.255250883
 20
182.1164863025
 11
279.3026893287
 21
182.1308794272
  0
LWPOLYLINE
  5
4F4
100
AcDbEntity
  8
0
100
AcDbPolyline
 62
250
  6
CONTINUOUS
 90
13
 70
0
 10
267.1071371867
 20
208.7691395169
 10
267.0811145097
 20
208.767365723
 10
267.0555351552
 20
208.7622170495
 10
267.0308352502
 20
208.7537811474
 10
267.0074359438
 20
208.742201713
 10
266.9857362621
 20
208.7276760599
 10
266.966106293
 20
208.7104517741
 10
266.9488808082
 20
208.6908224427
 10
266.9343536195
 20
208.6691227006
 10
266.9227725658
 20
208.6457225757
 10
266.9143352055
 20
208.6210210723
 10
266.909185476
 20
208.5954393493
 10
266.9074112723
 20
208.5694136174
  0
LINE
  5
4F5
100
AcDbEntity
  8
0
100
AcDbLine
 62
250
  6
CONTINUOUS
 10
267.5429440368
 20
208.7592065233
 11
267.7376954969
 21
208.7696753734
  0
LWPOLYLINE
  5
4F6
100
AcDbEntity
  8
0
100
AcDbPolyline
 62
7
  6
CONTINUOUS
 90
37
 70
0
 10
269.5136597025
 20
210.2619639779
 10
269.5513355853
 20
210.2629382211
 10
269.587977229
 20
210.2642470557
 10
269.6235846335
 20
210.2658904815
 10
269.6580721298
 20
210.2677393822
 10
269.6915253869
 20
210.2699228739
 10
269.7242014121
 20
210.2728283051
 10
269.7561219001
 20
210.2765504898
 10
269.787265156
 20
210.280994613
 10
269.8178231026
 20
210.2862635795
 10
269.8478083853
 20
210.2923454235
 10
269.8772083585
 20
210.299252109
 10
269.9061770084
 20
210.3071224347
 10
269.9348052588
 20
210.3159047581
 10
269.9630021857
 20
210.3256507189
 10
269.9906490038
 20
210.3366540378
 10
270.0178240682
 20
210.3489427307
 10
270.0444490238
 20
210.3624887764
 10
270.0701700198
 20
210.377501839
 10
270.0950146871
 20
210.3940581357
 10
270.1189553947
 20
210.4120814408
 10
270.1415553986
 20
210.4315527539
 10
270.1627873513
 20
210.4525575266
 10
270.1826786002
 20
210.4750102965
 10
270.2008744434
 20
210.4986356928
 10
270.2172313931
 20
210.523453199
 10
270.2318929369
 20
210.5494433212
 10
270.2449348365
 20
210.5762722252
 10
270.2563391394
 20
210.6039241614
 10
270.2661237979
 20
210.6324148708
 10
270.2744184309
 20
210.6614577581
 10
270.2811799
 20
210.6909798369
 10
270.2864513435
 20
210.7210540876
 10
270.2904917951
 20
210.751612867
 10
270.2933875996
 20
210.7826336256
 10
270.2950524123
 20
210.8141389072
 10
270.2954862332
 20
210.8461287089
  0
LWPOLYLINE
  5
4F7
100
AcDbEntity
  8
0
100
AcDbPolyline
 62
7
  6
CONTINUOUS
 90
8
 70
0
 10
267.2361577316
 20
208.8278680296
 10
267.2441057204
 20
208.8279273952
 10
267.251578769
 20
208.8280755103
 10
267.2585649109
 20
208.8282892312
 10
267.2644673864
 20
208.8285600452
 10
267.2690872753
 20
208.8288851147
 10
267.2726234977
 20
208.8292672772
 10
267.2750760536
 20
208.8297065328
  0
LINE
  5
4F8
100
AcDbEntity
  8
0
100
AcDbLine
 62
7
  6
CONTINUOUS
 10
267.594994541
 20
208.9284351134
 11
267.638882672
 21
208.9284351134
  0
LINE
  5
4F9
100
AcDbEntity
  8
0
100
AcDbLine
 62
7
  6
CONTINUOUS
 10
278.938882672
 20
208.9284351134
 11
278.9827708031
 21
208.9284351134
  0
LINE
  5
4FA
100
AcDbEntity
  8
0
100
AcDbLine
 62
7
  6
CONTINUOUS
 10
268.932244672
 20
209.5302929779
 11
269.340158672
 21
209.5302929779
  0
LINE
  5
4FB
100
AcDbEntity
  8
0
100
AcDbLine
 62
7
  6
CONTINUOUS
 10
270.550745672
 20
209.5302929779
 11
271.661658672
 21
209.5302929779
  0
LINE
  5
4FC
100
AcDbEntity
  8
0
100
AcDbLine
 62
7
  6
CONTINUOUS
 10
271.866581672
 20
209.5302929779
 11
272.256048672
 21
209.5302929779
  0
LINE
  5
4FD
100
AcDbEntity
  8
0
100
AcDbLine
 62
7
  6
CONTINUOUS
 10
273.287595672
 20
209.5302929779
 11
273.698155672
 21
209.5302929779
  0
LINE
  5
4FE
100
AcDbEntity
  8
0
100
AcDbLine
 62
7
  6
CONTINUOUS
 10
273.906009672
 20
209.5302929779
 11
274.287610672
 21
209.5302929779
  0
LINE
  5
4FF
100
AcDbEntity
  8
0
100
AcDbLine
 62
7
  6
CONTINUOUS
 10
275.042877672
 20
209.5302929779
 11
275.621822672
 21
209.5302929779
  0
LINE
  5
500
100
AcDbEntity
  8
0
100
AcDbLine
 62
7
  6
CONTINUOUS
 10
275.813946672
 20
209.5302929779
 11
276.203413672
 21
209.5302929779
  0
LINE
  5
501
100
AcDbEntity
  8
0
100
AcDbLine
 62
7
  6
CONTINUOUS
 10
277.235103672
 20
209.5302929779
 11
277.645520672
 21
209.5302929779
  0
LINE
  5
502
100
AcDbEntity
  8
0
100
AcDbLine
 62
7
  6
CONTINUOUS
 10
271.661658672
 20
209.8460419779
 11
270.958659672
 21
209.8460419779
  0
LINE
  5
503
100
AcDbEntity
  8
0
100
AcDbLine
 62
7
  6
CONTINUOUS
 10
272.398120672
 20
209.9329869779
 11
273.150742672
 21
209.9329869779
  0
LINE
  5
504
100
AcDbEntity
  8
0
100
AcDbLine
 62
7
  6
CONTINUOUS
 10
276.345557672
 20
209.9329869779
 11
277.098178672
 21
209.9329869779
  0
LINE
  5
505
100
AcDbEntity
  8
0
100
AcDbLine
 62
7
  6
CONTINUOUS
 10
276.995503672
 20
210.2487359779
 11
276.450807672
 21
210.2487359779
  0
LINE
  5
506
100
AcDbEntity
  8
0
100
AcDbLine
 62
7
  6
CONTINUOUS
 10
273.048138672
 20
210.2487359779
 11
272.503370672
 21
210.2487359779
  0
LINE
  5
507
100
AcDbEntity
  8
0
100
AcDbLine
 62
7
  6
CONTINUOUS
 10
269.340158672
 20
210.2619639779
 11
269.5136597025
 21
210.2619639779
  0
LINE
  5
508
100
AcDbEntity
  8
0
100
AcDbLine
 62
250
  6
CONTINUOUS
 10
278.8400698472
 20
208.7696753734
 11
279.0348213073
 21
208.7592065233
  0
LWPOLYLINE
  5
509
100
AcDbEntity
  8
0
100
AcDbPolyline
 62
250
  6
CONTINUOUS
 90
13
 70
0
 10
279.4706281574
 20
208.7691395169
 10
279.4966525179
 20
208.7673654971
 10
279.522233144
 20
208.762216251
 10
279.5469338671
 20
208.7537795771
 10
279.5703335217
 20
208.742199327
 10
279.5920331261
 20
208.7276729524
 10
279.6116626855
 20
208.7104481385
 10
279.6288875017
 20
208.6908185813
 10
279.6434138785
 20
208.669118979
 10
279.6549941297
 20
208.6457193254
 10
279.6634308031
 20
208.6210186016
 10
279.6685800475
 20
208.5954379736
 10
279.6703540644
 20
208.56941361
  0
LWPOLYLINE
  5
50A
100
AcDbEntity
  8
0
100
AcDbPolyline
 62
7
  6
CONTINUOUS
 90
8
 70
0
 10
263.5202275034
 20
211.9647062471
 10
263.5234959419
 20
211.9641702759
 10
263.5296306111
 20
211.9636526976
 10
263.5386315111
 20
211.9631535121
 10
263.5506579055
 20
211.962667824
 10
263.5655505306
 20
211.9622005288
 10
263.5828315956
 20
211.961766313
 10
263.6246424632
 20
211.9610000968
  0
LWPOLYLINE
  5
50B
100
AcDbEntity
  8
0
100
AcDbPolyline
 62
7
  6
CONTINUOUS
 90
8
 70
0
 10
279.3026893658
 20
208.8297065245
 10
279.3051158891
 20
208.8292741541
 10
279.3085664818
 20
208.8288969947
 10
279.3130411437
 20
208.8285750464
 10
279.3186987374
 20
208.8283052571
 10
279.3253804003
 20
208.8280906788
 10
279.3326095456
 20
208.8279404681
 10
279.3403939163
 20
208.8278770862
  0
LINE
  5
50C
100
AcDbEntity
  8
0
100
AcDbLine
 62
7
  6
CONTINUOUS
 10
279.2307368616
 20
208.8515966182
 11
279.3026893658
 21
208.8297065245
  0
LINE
  5
50D
100
AcDbEntity
  8
0
100
AcDbLine
 62
7
  6
CONTINUOUS
 10
278.9827708031
 20
208.9284351134
 11
279.2307368616
 21
208.8515966182
  0
LWPOLYLINE
  5
50E
100
AcDbEntity
  8
0
100
AcDbPolyline
 62
250
  6
CONTINUOUS
 90
19
 70
0
 10
279.0523954492
 20
207.6876152269
 10
279.0537687628
 20
207.6869979566
 10
279.0551945391
 20
207.6864052825
 10
279.0566727783
 20
207.6858372047
 10
279.058197709
 20
207.6852942192
 10
279.0597751026
 20
207.6847758299
 10
279.0614222727
 20
207.684280549
 10
279.0631408183
 20
207.683806224
 10
279.0649291404
 20
207.6833550073
 10
279.0667997557
 20
207.6829318678
 10
279.0687526596
 20
207.6825353615
 10
279.0707878567
 20
207.6821669324
 10
279.0729178765
 20
207.6818358814
 10
279.0751455453
 20
207.6815403756
 10
279.0774680369
 20
207.6812822478
 10
279.0798894019
 20
207.6810762974
 10
279.0824109906
 20
207.6809274574
 10
279.0850314527
 20
207.6808307947
 10
279.0877507883
 20
207.6807863094
  0
LINE
  5
50F
100
AcDbEntity
  8
0
100
AcDbLine
 62
250
  6
CONTINUOUS
 10
278.6056396574
 20
207.895940874
 11
279.0523954492
 21
207.6876152269
  0
LINE
  5
510
100
AcDbEntity
  8
0
100
AcDbLine
 62
7
  6
CONTINUOUS
 10
278.8916169222
 20
207.8084507056
 11
278.696865462
 21
207.9015991851
  0
LINE
  5
511
100
AcDbEntity
  8
0
100
AcDbLine
 62
7
  6
CONTINUOUS
 10
279.288882672
 20
178.1802929779
 11
279.2688253625
 21
178.1602356684
  0
LWPOLYLINE
  5
512
100
AcDbEntity
  8
0
100
AcDbPolyline
 62
7
  6
CONTINUOUS
 90
4
 70
0
 10
269.6500132354
 20
210.5857594172
 10
269.6142268552
 20
210.5814051479
 10
269.5962172574
 20
210.5794492316
 10
269.5781256237
 20
210.5777129779
  0
LWPOLYLINE
  5
513
100
AcDbEntity
  8
0
100
AcDbPolyline
 62
7
  6
CONTINUOUS
 90
7
 70
0
 10
282.9949337958
 20
211.9617663117
 10
283.0122148586
 20
211.9622005277
 10
283.0271074796
 20
211.9626678232
 10
283.0391338674
 20
211.9631535115
 10
283.0481347583
 20
211.9636526972
 10
283.0542694161
 20
211.9641702757
 10
283.0575378407
 20
211.9647062471
  0
LINE
  5
514
100
AcDbEntity
  8
0
100
AcDbLine
 62
7
  6
CONTINUOUS
 10
282.9531229271
 20
211.961000095
 11
282.9949337958
 21
211.9617663117
  0
LINE
  5
515
100
AcDbEntity
  8
0
100
AcDbLine
 62
7
  6
CONTINUOUS
 10
282.903461084
 20
211.9603976337
 11
282.9531229271
 21
211.961000095
  0
LINE
  5
516
100
AcDbEntity
  8
0
100
AcDbLine
 62
7
  6
CONTINUOUS
 10
282.8184872825
 20
211.9598461837
 11
282.903461084
 21
211.9603976337
  0
LINE
  5
517
100
AcDbEntity
  8
0
100
AcDbLine
 62
7
  6
CONTINUOUS
 10
269.5781256237
 20
210.5777129779
 11
269.340158672
 21
210.5777129779
  0
LINE
  5
518
100
AcDbEntity
  8
0
100
AcDbLine
 62
7
  6
CONTINUOUS
 10
269.340158672
 20
211.1145439779
 11
269.5781292944
 21
211.1145439779
  0
LINE
  5
519
100
AcDbEntity
  8
0
100
AcDbLine
 62
7
  6
CONTINUOUS
 10
276.985063672
 20
211.4302929779
 11
276.500858672
 21
211.4302929779
  0
LINE
  5
51A
100
AcDbEntity
  8
0
100
AcDbLine
 62
7
  6
CONTINUOUS
 10
275.621822672
 20
211.4302929779
 11
275.240220672
 21
211.4302929779
  0
LINE
  5
51B
100
AcDbEntity
  8
0
100
AcDbLine
 62
7
  6
CONTINUOUS
 10
274.511266672
 20
211.4302929779
 11
273.906009672
 21
211.4302929779
  0
LINE
  5
51C
100
AcDbEntity
  8
0
100
AcDbLine
 62
7
  6
CONTINUOUS
 10
273.037627672
 20
211.4302929779
 11
272.553421672
 21
211.4302929779
  0
LINE
  5
51D
100
AcDbEntity
  8
0
100
AcDbLine
 62
7
  6
CONTINUOUS
 10
270.958659672
 20
211.4302929779
 11
270.550745672
 21
211.4302929779
  0
LINE
  5
51E
100
AcDbEntity
  8
0
100
AcDbLine
 62
7
  6
CONTINUOUS
 10
269.5136721694
 20
211.4302929779
 11
268.932244672
 21
211.4302929779
  0
LINE
  5
51F
100
AcDbEntity
  8
0
100
AcDbLine
 62
7
  6
CONTINUOUS
 10
279.2683277458
 20
211.9597380516
 11
282.8184872825
 21
211.9598461837
  0
LINE
  5
520
100
AcDbEntity
  8
0
100
AcDbLine
 62
7
  6
CONTINUOUS
 10
263.4734292844
 20
211.9802929779
 11
267.288882672
 21
211.9802929779
  0
LINE
  5
521
100
AcDbEntity
  8
0
100
AcDbLine
 62
7
  6
CONTINUOUS
 10
279.288882672
 20
211.9802929779
 11
283.1043360596
 21
211.9802929779
  0
LINE
  5
522
100
AcDbEntity
  8
0
100
AcDbLine
 62
7
  6
CONTINUOUS
 10
263.759278026
 20
211.9598461857
 11
267.3094375983
 21
211.9597380516
  0
LINE
  5
523
100
AcDbEntity
  8
0
100
AcDbLine
 62
7
  6
CONTINUOUS
 10
263.6743043078
 20
211.9603976359
 11
263.759278026
 21
211.9598461857
  0
LINE
  5
524
100
AcDbEntity
  8
0
100
AcDbLine
 62
7
  6
CONTINUOUS
 10
263.6246424632
 20
211.9610000968
 11
263.6743043078
 21
211.9603976359
  0
LWPOLYLINE
  5
525
100
AcDbEntity
  8
0
100
AcDbPolyline
 62
7
  6
CONTINUOUS
 90
3
 70
0
 10
269.5781292944
 20
211.1145439779
 10
269.5962857639
 20
211.1128100201
 10
269.6143932115
 20
211.110843379
  0
LWPOLYLINE
  5
526
100
AcDbEntity
  8
0
100
AcDbPolyline
 62
7
  6
CONTINUOUS
 90
21
 70
0
 10
269.6143932115
 20
211.110843379
 10
269.6504883369
 20
211.1064340564
 10
269.6684760147
 20
211.1039913749
 10
269.6863327821
 20
211.1006499794
 10
269.7042217029
 20
211.096366267
 10
269.7219797133
 20
211.0911838393
 10
269.7390357335
 20
211.0845674718
 10
269.7553789595
 20
211.076374524
 10
269.7710201953
 20
211.0667476323
 10
269.7854207734
 20
211.0555794852
 10
269.7983972772
 20
211.0426217349
 10
269.8101331233
 20
211.028122722
 10
269.8206398938
 20
211.0127201693
 10
269.8299215776
 20
210.9965092137
 10
269.8379741859
 20
210.9793947132
 10
269.8447973345
 20
210.9617289751
 10
269.8503411609
 20
210.9435825595
 10
269.8546555275
 20
210.9248849029
 10
269.8578896378
 20
210.9057766283
 10
269.8600932262
 20
210.8863046097
 10
269.8612165583
 20
210.8664219704
  0
LINE
  5
527
100
AcDbEntity
  8
0
100
AcDbLine
 62
7
  6
CONTINUOUS
 10
279.288882672
 20
212.7802929779
 11
279.2688253625
 21
212.8003502875
  0
LWPOLYLINE
  5
528
100
AcDbEntity
  8
0
100
AcDbPolyline
 62
7
  6
CONTINUOUS
 90
7
 70
0
 10
263.5813133512
 20
212.7983236029
 10
263.5640395683
 20
212.7978898719
 10
263.5491551713
 20
212.7974231317
 10
263.5371364109
 20
212.7969380729
 10
263.5281420373
 20
212.7964395921
 10
263.5220133001
 20
212.7959227925
 10
263.5187501996
 20
212.7953876743
  0
LINE
  5
529
100
AcDbEntity
  8
0
100
AcDbLine
 62
7
  6
CONTINUOUS
 10
263.6231126553
 20
212.7990890624
 11
263.5813133512
 21
212.7983236029
  0
LINE
  5
52A
100
AcDbEntity
  8
0
100
AcDbLine
 62
7
  6
CONTINUOUS
 10
263.6727707191
 20
212.7996910339
 11
263.6231126553
 21
212.7990890624
  0
LINE
  5
52B
100
AcDbEntity
  8
0
100
AcDbLine
 62
7
  6
CONTINUOUS
 10
263.757758951
 20
212.8002421651
 11
263.6727707191
 21
212.7996910339
  0
LINE
  5
52C
100
AcDbEntity
  8
0
100
AcDbLine
 62
7
  6
CONTINUOUS
 10
283.1043360596
 20
212.7802929779
 11
279.288882672
 21
212.7802929779
  0
LINE
  5
52D
100
AcDbEntity
  8
0
100
AcDbLine
 62
7
  6
CONTINUOUS
 10
267.288882672
 20
212.7802929779
 11
263.4734292844
 21
212.7802929779
  0
LINE
  5
52E
100
AcDbEntity
  8
0
100
AcDbLine
 62
7
  6
CONTINUOUS
 10
263.757758951
 20
212.8002421651
 11
267.3089399816
 21
212.8003502875
  0
LINE
  5
52F
100
AcDbEntity
  8
0
100
AcDbLine
 62
7
  6
CONTINUOUS
 10
270.170406672
 20
213.0617989779
 11
270.519886672
 21
213.0617989779
  0
LINE
  5
530
100
AcDbEntity
  8
0
100
AcDbLine
 62
7
  6
CONTINUOUS
 10
271.277741672
 20
213.0617989779
 11
271.674313672
 21
213.0617989779
  0
LINE
  5
531
100
AcDbEntity
  8
0
100
AcDbLine
 62
7
  6
CONTINUOUS
 10
271.887801672
 20
213.0617989779
 11
272.267191672
 21
213.0617989779
  0
LINE
  5
532
100
AcDbEntity
  8
0
100
AcDbLine
 62
7
  6
CONTINUOUS
 10
272.817999672
 20
213.0617989779
 11
272.873618672
 21
213.0617989779
  0
LINE
  5
533
100
AcDbEntity
  8
0
100
AcDbLine
 62
7
  6
CONTINUOUS
 10
273.426620672
 20
213.0617989779
 11
273.814573672
 21
213.0617989779
  0
LINE
  5
534
100
AcDbEntity
  8
0
100
AcDbLine
 62
7
  6
CONTINUOUS
 10
273.876845672
 20
213.0617989779
 11
274.269115672
 21
213.0617989779
  0
LINE
  5
535
100
AcDbEntity
  8
0
100
AcDbLine
 62
7
  6
CONTINUOUS
 10
275.021343672
 20
213.0617989779
 11
275.439314672
 21
213.0617989779
  0
LINE
  5
536
100
AcDbEntity
  8
0
100
AcDbLine
 62
7
  6
CONTINUOUS
 10
275.5557672748
 20
213.0617992319
 11
275.9507439169
 21
213.0617992319
  0
LINE
  5
537
100
AcDbEntity
  8
0
100
AcDbLine
 62
7
  6
CONTINUOUS
 10
276.5580397373
 20
213.0617992319
 11
276.9394962225
 21
213.0617992319
  0
LINE
  5
538
100
AcDbEntity
  8
0
100
AcDbLine
 62
7
  6
CONTINUOUS
 10
274.378544672
 20
213.4410759779
 11
274.918610672
 21
213.4410759779
  0
LINE
  5
539
100
AcDbEntity
  8
0
100
AcDbLine
 62
7
  6
CONTINUOUS
 10
274.839355672
 20
213.7345589779
 11
274.459665672
 21
213.7345589779
  0
LINE
  5
53A
100
AcDbEntity
  8
0
100
AcDbLine
 62
7
  6
CONTINUOUS
 10
282.8200063618
 20
212.8002421669
 11
279.2688253625
 21
212.8003502875
  0
LINE
  5
53B
100
AcDbEntity
  8
0
100
AcDbLine
 62
7
  6
CONTINUOUS
 10
282.9049946671
 20
212.7996910359
 11
282.8200063618
 21
212.8002421669
  0
LINE
  5
53C
100
AcDbEntity
  8
0
100
AcDbLine
 62
7
  6
CONTINUOUS
 10
282.9546527294
 20
212.799089064
 11
282.9049946671
 21
212.7996910359
  0
LINE
  5
53D
100
AcDbEntity
  8
0
100
AcDbLine
 62
7
  6
CONTINUOUS
 10
283.0590151445
 20
178.1651982815
 11
283.1043360596
 21
178.1802929779
  0
LWPOLYLINE
  5
53E
100
AcDbEntity
  8
0
100
AcDbPolyline
 62
7
  6
CONTINUOUS
 90
10
 70
0
 10
275.9375941752
 20
214.6379874011
 10
275.9725309482
 20
214.6438026915
 10
276.0073525718
 20
214.6484806261
 10
276.042059046
 20
214.6520212063
 10
276.0766361847
 20
214.6544321372
 10
276.111098174
 20
214.6557057152
 10
276.1454875726
 20
214.655818828
 10
276.1798185666
 20
214.6547637715
 10
276.2140769699
 20
214.6525482495
 10
276.2482627824
 20
214.6491722615
  0
LINE
  5
53F
100
AcDbEntity
  8
0
100
AcDbLine
 62
7
  6
CONTINUOUS
 10
275.9507439169
 20
213.8052938944
 11
276.1633765235
 21
213.8052938944
  0
LINE
  5
540
100
AcDbEntity
  8
0
100
AcDbLine
 62
7
  6
CONTINUOUS
 10
276.1642313279
 20
214.1164427137
 11
275.9375941752
 21
214.1164427137
  0
LINE
  5
541
100
AcDbEntity
  8
0
100
AcDbLine
 62
7
  6
CONTINUOUS
 10
274.856394672
 20
214.9616449779
 11
274.472758672
 21
214.9616449779
  0
LINE
  5
542
100
AcDbEntity
  8
0
100
AcDbLine
 62
7
  6
CONTINUOUS
 10
273.636916672
 20
214.9616449779
 11
273.244546672
 21
214.9616449779
  0
LINE
  5
543
100
AcDbEntity
  8
0
100
AcDbLine
 62
7
  6
CONTINUOUS
 10
272.455590672
 20
214.9616449779
 11
272.059346672
 21
214.9616449779
  0
LINE
  5
544
100
AcDbEntity
  8
0
100
AcDbLine
 62
7
  6
CONTINUOUS
 10
271.130572672
 20
214.9616449779
 11
270.734271672
 21
214.9616449779
  0
LINE
  5
545
100
AcDbEntity
  8
0
100
AcDbLine
 62
7
  6
CONTINUOUS
 10
269.998918672
 20
214.9616449779
 11
269.568118672
 21
214.9616449779
  0
LINE
  5
546
100
AcDbEntity
  8
0
100
AcDbLine
 62
7
  6
CONTINUOUS
 10
271.674313672
 20
214.9617589779
 11
271.277741672
 21
214.9617589779
  0
LWPOLYLINE
  5
547
100
AcDbEntity
  8
0
100
AcDbPolyline
 62
7
  6
CONTINUOUS
 90
13
 70
0
 10
276.1633765235
 20
213.8052938944
 10
276.1877726309
 20
213.804057764
 10
276.211145498
 20
213.8004950746
 10
276.2334951249
 20
213.7946058244
 10
276.2548555771
 20
213.7863725398
 10
276.275192789
 20
213.7758126872
 10
276.294404564
 20
213.7629786726
 10
276.3125049141
 20
213.7478949139
 10
276.3294798273
 20
213.7305369794
 10
276.3451850709
 20
213.710883999
 10
276.3595725673
 20
213.688929009
 10
276.3726903942
 20
213.664678952
 10
276.3845385514
 20
213.638133816
  0
LWPOLYLINE
  5
548
100
AcDbEntity
  8
0
100
AcDbPolyline
 62
7
  6
CONTINUOUS
 90
25
 70
0
 10
276.2482627824
 20
214.6491722615
 10
276.2636507652
 20
214.6469238414
 10
276.2787443734
 20
214.6438888301
 10
276.2935436067
 20
214.6400672269
 10
276.3080902782
 20
214.6354482094
 10
276.3223425749
 20
214.6300425985
 10
276.3361750584
 20
214.6238828586
 10
276.3496059864
 20
214.6169666504
 10
276.3626171012
 20
214.6092963108
 10
276.375028191
 20
214.6009113184
 10
276.3868295487
 20
214.5917944783
 10
276.3980308815
 20
214.5819629825
 10
276.4084810987
 20
214.5715078901
 10
276.4181382262
 20
214.5604038643
 10
276.427044238
 20
214.5486762388
 10
276.4351739653
 20
214.5364920793
 10
276.4425253165
 20
214.5238592059
 10
276.449100383
 20
214.510769796
 10
276.4548802708
 20
214.4973674513
 10
276.4598784761
 20
214.4836626677
 10
276.4640815026
 20
214.4696449475
 10
276.4674299671
 20
214.4554264022
 10
276.469904075
 20
214.4410444024
 10
276.4715236207
 20
214.4264615763
 10
276.4722886044
 20
214.4116779234
  0
LWPOLYLINE
  5
549
100
AcDbEntity
  8
0
100
AcDbPolyline
 62
7
  6
CONTINUOUS
 90
8
 70
0
 10
283.0590151445
 20
212.7953876743
 10
283.0557520564
 20
212.7959227927
 10
283.0496233295
 20
212.7964395924
 10
283.0406289639
 20
212.7969380734
 10
283.0286102091
 20
212.7974231325
 10
283.0137258157
 20
212.7978898728
 10
282.9964520346
 20
212.7983236041
 10
282.9546527294
 20
212.799089064
  0
LWPOLYLINE
  5
54A
100
AcDbEntity
  8
0
100
AcDbPolyline
 62
7
  6
CONTINUOUS
 90
13
 70
0
 10
276.5344471346
 20
214.9194460125
 10
276.468659216
 20
214.9399010104
 10
276.3997394519
 20
214.9567099124
 10
276.3276878422
 20
214.9698727329
 10
276.2523200701
 20
214.9792983997
 10
276.1738204524
 20
214.9850780046
 10
276.0927419404
 20
214.9874848029
 10
276.0091745075
 20
214.9863207936
 10
275.9230281803
 20
214.9817839787
 10
275.8345859903
 20
214.9747416142
 10
275.7439422813
 20
214.9654827828
 10
275.6510027094
 20
214.9537183926
 10
275.5557672748
 20
214.9394484366
  0
LINE
  5
54B
100
AcDbEntity
  8
0
100
AcDbLine
 62
7
  6
CONTINUOUS
 10
283.0590151445
 20
212.7953876743
 11
283.1043360596
 21
212.7802929779
  0
LINE
  5
54C
100
AcDbEntity
  8
0
100
AcDbLine
 62
7
  6
CONTINUOUS
 10
263.428882672
 20
216.3302929779
 11
283.148882672
 21
216.3302929779
  0
LINE
  5
54D
100
AcDbEntity
  8
0
100
AcDbLine
 62
250
  6
CONTINUOUS
 10
262.7083520246
 20
216.9201380657
 11
262.4264442384
 21
216.9201380657
  0
LINE
  5
54E
100
AcDbEntity
  8
0
100
AcDbLine
 62
250
  6
CONTINUOUS
 10
283.8694133195
 20
216.9201380657
 11
284.1513211057
 21
216.9201380657
  0
LWPOLYLINE
  5
54F
100
AcDbEntity
  8
0
100
AcDbPolyline
 62
250
  6
CONTINUOUS
 90
37
 70
0
 10
262.8962905488
 20
217.3899843761
 10
262.8646965867
 20
217.3868406923
 10
262.8342770395
 20
217.3818847872
 10
262.8051279982
 20
217.3753084764
 10
262.7773642493
 20
217.3673035678
 10
262.7510018331
 20
217.3580521842
 10
262.7259645744
 20
217.3477085382
 10
262.7022760295
 20
217.336424878
 10
262.6799568816
 20
217.3243502183
 10
262.6589166065
 20
217.3115978288
 10
262.6391397777
 20
217.2982808285
 10
262.6206321813
 20
217.2845235052
 10
262.6033297797
 20
217.2704313445
 10
262.5872181552
 20
217.2561107595
 10
262.5722628656
 20
217.2416465085
 10
262.5583689176
 20
217.2270926733
 10
262.5455208365
 20
217.21254425
 10
262.5336679836
 20
217.1980498611
 10
262.5226739732
 20
217.1835712813
 10
262.512511943
 20
217.1691639553
 10
262.5031512564
 20
217.1548687023
 10
262.4944706535
 20
217.1406031461
 10
262.4864486182
 20
217.1264014521
 10
262.4790655576
 20
217.1122924101
 10
262.4722260235
 20
217.0981688271
 10
262.4659180691
 20
217.0840530677
 10
262.4601317871
 20
217.0699641452
 10
262.4547982674
 20
217.0557780137
 10
262.4499161201
 20
217.0415098142
 10
262.4454859389
 20
217.0271730688
 10
262.4414658762
 20
217.012633492
 10
262.4378659889
 20
216.9979029181
 10
262.4346984036
 20
216.9829927822
 10
262.4319495253
 20
216.967763969
 10
262.429636642
 20
216.9521776502
 10
262.4277934707
 20
216.9362974531
 10
262.4264442384
 20
216.9201380657
  0
LWPOLYLINE
  5
550
100
AcDbEntity
  8
0
100
AcDbPolyline
 62
250
  6
CONTINUOUS
 90
37
 70
0
 10
262.8962905488
 20
217.1080765898
 10
262.8827897959
 20
217.107506619
 10
262.8699019032
 20
217.1062826989
 10
262.8576268706
 20
217.1044048295
 10
262.8459675202
 20
217.1018030953
 10
262.8349210299
 20
217.0985474118
 10
262.8244789341
 20
217.094847525
 10
262.814652502
 20
217.0907177599
 10
262.8054304643
 20
217.0861437915
 10
262.7967705481
 20
217.0812923905
 10
262.7886749877
 20
217.0761724771
 10
262.7811415487
 20
217.0707751311
 10
262.7741212547
 20
217.0652403633
 10
262.7676214956
 20
217.0595818035
 10
262.7616348814
 20
217.0537858219
 10
262.7560902662
 20
217.0479515387
 10
262.7509928929
 20
217.0420984182
 10
262.7463375187
 20
217.0362069962
 10
262.7420372682
 20
217.0303180006
 10
262.7380875049
 20
217.024443684
 10
262.7344928653
 20
217.0185717938
 10
262.7311803844
 20
217.0127063009
 10
262.7281433491
 20
217.0068550994
 10
262.7253884724
 20
217.0010102953
 10
262.7228629275
 20
216.9951521766
 10
262.7205597164
 20
216.9892860624
 10
262.7184858371
 20
216.9834066337
 10
262.7166094571
 20
216.9774782221
 10
262.7149233606
 20
216.9715040687
 10
262.7134347634
 20
216.9654809324
 10
262.7121334806
 20
216.9593634215
 10
262.7110119316
 20
216.9531529846
 10
262.7100776969
 20
216.946848173
 10
262.7093433332
 20
216.9403992491
 10
262.7088130261
 20
216.9337896336
 10
262.7084825898
 20
216.9270359058
 10
262.7083520246
 20
216.9201380657
  0
LINE
  5
551
100
AcDbEntity
  8
0
100
AcDbLine
 62
250
  6
CONTINUOUS
 10
283.6814747953
 20
217.1080765898
 11
262.8962905488
 21
217.1080765898
  0
LINE
  5
552
100
AcDbEntity
  8
0
100
AcDbLine
 62
250
  6
CONTINUOUS
 10
283.6814747953
 20
217.3899843761
 11
262.8962905488
 21
217.3899843761
  0
LINE
  5
553
100
AcDbEntity
  8
0
100
AcDbLine
 62
7
  6
CONTINUOUS
 10
262.7861509564
 20
217.5001239684
 11
283.7916143877
 21
217.5001239684
  0
LINE
  5
554
100
AcDbEntity
  8
0
100
AcDbLine
 62
7
  6
CONTINUOUS
 10
262.7659240463
 20
217.5501239684
 11
283.8118412978
 21
217.5501239684
  0
CIRCLE
  5
555
100
AcDbEntity
  8
ASSI
100
AcDbCircle
 62
7
  6
CONTINUOUS
 10
269.538882672
 20
188.9802929779
 40
0.5
  0
CIRCLE
  5
556
100
AcDbEntity
  8
ASSI
100
AcDbCircle
 62
7
  6
CONTINUOUS
 10
269.538882672
 20
201.9802929779
 40
0.5
  0
CIRCLE
  5
557
100
AcDbEntity
  8
ASSI
100
AcDbCircle
 62
7
  6
CONTINUOUS
 10
277.038882672
 20
188.9802929779
 40
0.5
  0
CIRCLE
  5
558
100
AcDbEntity
  8
ASSI
100
AcDbCircle
 62
7
  6
CONTINUOUS
 10
277.038882672
 20
201.9802929779
 40
0.5
  0
ELLIPSE
  5
559
100
AcDbEntity
  8
0
100
AcDbEllipse
 62
7
  6
CONTINUOUS
 10
237.4189018139
 20
195.4802929779
 30
0.0
 11
0.0
 21
497.9
 31
0.0
 40
0.0524077793
 41
-1.5878688573
 42
-1.5537237963
  0
ELLIPSE
  5
55A
100
AcDbEntity
  8
0
100
AcDbEllipse
 62
7
  6
CONTINUOUS
 10
309.1588635302
 20
195.4802929779
 30
0.0
 11
-0.0
 21
497.9
 31
0.0
 40
0.0524077793
 41
1.5537237963
 42
1.5878688573
  0
ELLIPSE
  5
55B
100
AcDbEntity
  8
0
100
AcDbEllipse
 62
7
  6
CONTINUOUS
 10
283.811384534
 20
173.9111481604
 30
0.0
 11
-0.1582391023
 21
0.4751033573
 31
0.0
 40
0.9984778551
 41
-3.4626430041
 42
-1.8927600658
  0
ELLIPSE
  5
55C
100
AcDbEntity
  8
0
100
AcDbEllipse
 62
7
  6
CONTINUOUS
 10
262.76638081
 20
173.9111481604
 30
0.0
 11
0.1582391023
 21
0.4751033573
 31
0.0
 40
0.9984778551
 41
-4.3904252414
 42
-2.8205423031
  0
ELLIPSE
  5
55D
100
AcDbEntity
  8
0
100
AcDbEllipse
 62
7
  6
CONTINUOUS
 10
262.76638081
 20
217.0494377954
 30
0.0
 11
-0.1582391023
 21
0.4751033573
 31
0.0
 40
0.9984778551
 41
-0.3210503505
 42
1.2488325878
  0
ELLIPSE
  5
55E
100
AcDbEntity
  8
0
100
AcDbEllipse
 62
7
  6
CONTINUOUS
 10
283.811384534
 20
217.0494377954
 30
0.0
 11
0.1582391023
 21
0.4751033573
 31
0.0
 40
0.9984778551
 41
-1.2488325878
 42
0.3210503505
  0
ELLIPSE
  5
55F
100
AcDbEntity
  8
0
100
AcDbEllipse
 62
7
  6
CONTINUOUS
 10
267.9397834077
 20
205.3843676631
 30
0.0
 11
0.1086702276
 21
0.1692379683
 31
0.0
 40
0.9857548738
 41
-2.5633246127
 42
-0.9934416744
  0
ELLIPSE
  5
560
100
AcDbEntity
  8
0
100
AcDbEllipse
 62
7
  6
CONTINUOUS
 10
267.9895582238
 20
207.8507551108
 30
0.0
 11
-0.063479388
 21
0.157215491
 31
0.0
 40
0.8597101312
 41
-2.0098802682
 42
-0.446459714
  0
ELLIPSE
  5
561
100
AcDbEntity
  8
0
100
AcDbEllipse
 62
7
  6
CONTINUOUS
 10
267.7407144672
 20
208.5790137426
 30
0.0
 11
0.1086702276
 21
-0.1692379683
 31
0.0
 40
0.9857548738
 41
0.9934416744
 42
2.5633246127
  0
ELLIPSE
  5
562
100
AcDbEntity
  8
0
100
AcDbEllipse
 62
7
  6
CONTINUOUS
 10
278.8370508769
 20
208.5790137426
 30
0.0
 11
0.1086702276
 21
0.1692379683
 31
0.0
 40
0.9857548738
 41
0.5782680409
 42
2.1481509792
  0
ELLIPSE
  5
563
100
AcDbEntity
  8
0
100
AcDbEllipse
 62
7
  6
CONTINUOUS
 10
278.5882071203
 20
207.8507551108
 30
0.0
 11
0.063479388
 21
0.157215491
 31
0.0
 40
0.8597101312
 41
0.446459714
 42
2.0098802682
  0
ELLIPSE
  5
564
100
AcDbEntity
  8
0
100
AcDbEllipse
 62
7
  6
CONTINUOUS
 10
278.6379819363
 20
205.3843676631
 30
0.0
 11
0.1086702276
 21
-0.1692379683
 31
0.0
 40
0.9857548738
 41
-2.1481509792
 42
-0.5782680409
  0
ELLIPSE
  5
565
100
AcDbEntity
  8
0
100
AcDbEllipse
 62
7
  6
CONTINUOUS
 10
267.7407144672
 20
182.3815722132
 30
0.0
 11
0.1086702276
 21
0.1692379683
 31
0.0
 40
0.9857548738
 41
-2.5633246127
 42
-0.9934416744
  0
ELLIPSE
  5
566
100
AcDbEntity
  8
0
100
AcDbEllipse
 62
7
  6
CONTINUOUS
 10
267.9895582238
 20
183.109830845
 30
0.0
 11
0.063479388
 21
0.157215491
 31
0.0
 40
0.8597101312
 41
-2.6951329396
 42
-1.1317123854
  0
ELLIPSE
  5
567
100
AcDbEntity
  8
0
100
AcDbEllipse
 62
7
  6
CONTINUOUS
 10
267.9397834077
 20
185.5762182927
 30
0.0
 11
0.1086702276
 21
-0.1692379683
 31
0.0
 40
0.9857548738
 41
0.9934416744
 42
2.5633246127
  0
ELLIPSE
  5
568
100
AcDbEntity
  8
0
100
AcDbEllipse
 62
7
  6
CONTINUOUS
 10
278.8370508769
 20
182.3815722132
 30
0.0
 11
0.1086702276
 21
-0.1692379683
 31
0.0
 40
0.9857548738
 41
-2.1481509792
 42
-0.5782680409
  0
ELLIPSE
  5
569
100
AcDbEntity
  8
0
100
AcDbEllipse
 62
7
  6
CONTINUOUS
 10
278.6379819363
 20
185.5762182927
 30
0.0
 11
0.1086702276
 21
0.1692379683
 31
0.0
 40
0.9857548738
 41
0.5782680409
 42
2.1481509792
  0
ELLIPSE
  5
56A
100
AcDbEntity
  8
0
100
AcDbEllipse
 62
7
  6
CONTINUOUS
 10
278.5882071203
 20
183.109830845
 30
0.0
 11
-0.063479388
 21
0.157215491
 31
0.0
 40
0.8597101312
 41
1.1317123854
 42
2.6951329396
  0
ELLIPSE
  5
56B
100
AcDbEntity
  8
0
100
AcDbEllipse
 62
7
  6
CONTINUOUS
 10
283.7293718118
 20
216.9680350822
 30
0.0
 11
0.3976412741
 21
0.3976412741
 31
0.0
 40
0.8891264907
 41
-0.7267750543
 42
0.7267750543
  0
ELLIPSE
  5
56C
100
AcDbEntity
  8
0
100
AcDbEllipse
 62
7
  6
CONTINUOUS
 10
262.8483935323
 20
216.9680350822
 30
0.0
 11
-0.3976412741
 21
0.3976412741
 31
0.0
 40
0.8891264907
 41
-0.7267750543
 42
0.7267750543
  0
ELLIPSE
  5
56D
100
AcDbEntity
  8
0
100
AcDbEllipse
 62
7
  6
CONTINUOUS
 10
262.8483935323
 20
173.9925508736
 30
0.0
 11
0.3976412741
 21
0.3976412741
 31
0.0
 40
0.8891264907
 41
-3.8683677079
 42
-2.4148175993
  0
ELLIPSE
  5
56E
100
AcDbEntity
  8
0
100
AcDbEllipse
 62
7
  6
CONTINUOUS
 10
283.7293718118
 20
173.9925508736
 30
0.0
 11
0.3976412741
 21
-0.3976412741
 31
0.0
 40
0.8891264907
 41
-0.7267750543
 42
0.7267750543
  0
ELLIPSE
  5
56F
100
AcDbEntity
  8
0
100
AcDbEllipse
 62
7
  6
CONTINUOUS
 10
292.869128012
 20
195.4802929779
 30
0.0
 11
-0.0
 21
498.6
 31
0.0
 40
0.0524077793
 41
1.5442214056
 42
1.5498894531
  0
ELLIPSE
  5
570
100
AcDbEntity
  8
0
100
AcDbEllipse
 62
7
  6
CONTINUOUS
 10
258.611097143
 20
195.4802929779
 30
0.0
 11
0.0
 21
498.6
 31
0.0
 40
0.0174550649
 41
-1.5377388721
 42
-1.5360519575
  0
ELLIPSE
  5
571
100
AcDbEntity
  8
0
100
AcDbEllipse
 62
7
  6
CONTINUOUS
 10
287.9666682011
 20
195.4802929779
 30
0.0
 11
-0.0
 21
498.6
 31
0.0
 40
0.0174550649
 41
1.5360519575
 42
1.5377388721
  0
ELLIPSE
  5
572
100
AcDbEntity
  8
0
100
AcDbEllipse
 62
7
  6
CONTINUOUS
 10
253.7086373321
 20
195.4802929779
 30
0.0
 11
0.0
 21
498.6
 31
0.0
 40
0.0524077793
 41
-1.5498894531
 42
-1.5442214056
  0
ELLIPSE
  5
573
100
AcDbEntity
  8
0
100
AcDbEllipse
 62
7
  6
CONTINUOUS
 10
253.7086373321
 20
195.4802929779
 30
0.0
 11
0.0
 21
498.6
 31
0.0
 40
0.0524077793
 41
-1.597371248
 42
-1.5917032005
  0
ELLIPSE
  5
574
100
AcDbEntity
  8
0
100
AcDbEllipse
 62
7
  6
CONTINUOUS
 10
287.9666682011
 20
195.4802929779
 30
0.0
 11
-0.0
 21
498.6
 31
0.0
 40
0.0174550649
 41
-4.6793315257
 42
-4.6776446111
  0
ELLIPSE
  5
575
100
AcDbEntity
  8
0
100
AcDbEllipse
 62
7
  6
CONTINUOUS
 10
258.611097143
 20
195.4802929779
 30
0.0
 11
0.0
 21
498.6
 31
0.0
 40
0.0174550649
 41
-1.6055406961
 42
-1.6038537815
  0
ELLIPSE
  5
576
100
AcDbEntity
  8
0
100
AcDbEllipse
 62
7
  6
CONTINUOUS
 10
292.869128012
 20
195.4802929779
 30
0.0
 11
-0.0
 21
498.6
 31
0.0
 40
0.0524077793
 41
-4.6914821067
 42
-4.6858140592
  0
ELLIPSE
  5
577
100
AcDbEntity
  8
0
100
AcDbEllipse
 62
7
  6
CONTINUOUS
 10
279.5812330562
 20
185.6800185087
 30
0.0
 11
0.1418092487
 21
0.1418092487
 31
0.0
 40
0.9972646886
 41
-0.7840286355
 42
0.7840286355
  0
ELLIPSE
  5
578
100
AcDbEntity
  8
0
100
AcDbEllipse
 62
7
  6
CONTINUOUS
 10
266.9965322879
 20
185.6800185087
 30
0.0
 11
0.1418092487
 21
-0.1418092487
 31
0.0
 40
0.9972646886
 41
2.3575640181
 42
3.9256212891
  0
ELLIPSE
  5
579
100
AcDbEntity
  8
0
100
AcDbEllipse
 62
7
  6
CONTINUOUS
 10
279.5812330562
 20
205.2805674471
 30
0.0
 11
0.1418092487
 21
-0.1418092487
 31
0.0
 40
0.9972646886
 41
-0.7840286355
 42
0.7840286355
  0
ELLIPSE
  5
57A
100
AcDbEntity
  8
0
100
AcDbEllipse
 62
7
  6
CONTINUOUS
 10
266.9965322879
 20
205.2805674471
 30
0.0
 11
0.1418092487
 21
0.1418092487
 31
0.0
 40
0.9972646886
 41
-3.9256212891
 42
-2.3575640181
  0
ELLIPSE
  5
57B
100
AcDbEntity
  8
0
100
AcDbEllipse
 62
7
  6
CONTINUOUS
 10
267.3068630936
 20
207.9668160412
 30
0.0
 11
0.4
 21
0.0
 31
0.0
 40
0.4663076582
 41
-2.2042389752
 42
-1.5707963268
  0
ELLIPSE
  5
57C
100
AcDbEntity
  8
0
100
AcDbEllipse
 62
7
  6
CONTINUOUS
 10
279.2709022505
 20
207.9668160412
 30
0.0
 11
0.4
 21
0.0
 31
0.0
 40
0.4663076582
 41
-1.5707963268
 42
-0.9373536784
  0
ELLIPSE
  5
57D
100
AcDbEntity
  8
0
100
AcDbEllipse
 62
7
  6
CONTINUOUS
 10
267.7376954969
 20
207.9667029891
 30
0.0
 11
0.2
 21
0.0
 31
0.0
 40
0.4663076582
 41
-0.7727094034
 42
-0.0174532925
  0
ELLIPSE
  5
57E
100
AcDbEntity
  8
0
100
AcDbEllipse
 62
7
  6
CONTINUOUS
 10
267.5429440368
 20
207.8735545095
 30
0.0
 11
0.2
 21
0.0
 31
0.0
 40
0.4663076582
 41
-1.5707963268
 42
-0.7727094034
  0
ELLIPSE
  5
57F
100
AcDbEntity
  8
0
100
AcDbEllipse
 62
7
  6
CONTINUOUS
 10
278.8400698472
 20
207.9667029891
 30
0.0
 11
0.2
 21
0.0
 31
0.0
 40
0.4663076582
 41
-3.1241393611
 42
-2.3688832501
  0
ELLIPSE
  5
580
100
AcDbEntity
  8
0
100
AcDbEllipse
 62
7
  6
CONTINUOUS
 10
279.0348213073
 20
207.8735545095
 30
0.0
 11
0.2
 21
-0.0
 31
0.0
 40
0.4663076582
 41
-2.3688832501
 42
-1.5707963268
  0
ELLIPSE
  5
581
100
AcDbEntity
  8
0
100
AcDbEllipse
 62
7
  6
CONTINUOUS
 10
279.2709022505
 20
182.9937699146
 30
0.0
 11
0.4
 21
-0.0
 31
0.0
 40
0.4663076582
 41
0.9373536784
 42
1.5707963268
  0
ELLIPSE
  5
582
100
AcDbEntity
  8
0
100
AcDbEllipse
 62
7
  6
CONTINUOUS
 10
267.3068630936
 20
182.9937699146
 30
0.0
 11
0.4
 21
-0.0
 31
0.0
 40
0.4663076582
 41
1.5707963268
 42
2.2042389752
  0
ELLIPSE
  5
583
100
AcDbEntity
  8
0
100
AcDbEllipse
 62
7
  6
CONTINUOUS
 10
267.5429440368
 20
183.0870314463
 30
0.0
 11
0.2
 21
-0.0
 31
0.0
 40
0.4663076582
 41
0.7727094034
 42
1.5707963268
  0
ELLIPSE
  5
584
100
AcDbEntity
  8
0
100
AcDbEllipse
 62
7
  6
CONTINUOUS
 10
267.7376954969
 20
182.9938829667
 30
0.0
 11
0.2
 21
0.0
 31
0.0
 40
0.4663076582
 41
0.0174532925
 42
0.7727094034
  0
ELLIPSE
  5
585
100
AcDbEntity
  8
0
100
AcDbEllipse
 62
7
  6
CONTINUOUS
 10
278.8400698472
 20
182.9938829667
 30
0.0
 11
0.2
 21
-0.0
 31
0.0
 40
0.4663076582
 41
2.3688832501
 42
3.1241393611
  0
ELLIPSE
  5
586
100
AcDbEntity
  8
0
100
AcDbEllipse
 62
7
  6
CONTINUOUS
 10
279.0348213073
 20
183.0870314463
 30
0.0
 11
0.2
 21
0.0
 31
0.0
 40
0.4663076582
 41
1.5707963268
 42
2.3688832501
  0
ENDSEC
  0
SECTION
  2
OBJECTS
  0
DICTIONARY
  5
C
100
AcDbDictionary
280
0
281
1
  3
ACAD_GROUP
350
D
  3
ACAD_MLINESTYLE
350
17
  3
ACAD_LAYOUT
350
1A
  3
ACAD_PLOTSETTINGS
350
19
  3
ACAD_PLOTSTYLENAME
350
E
  0
DICTIONARY
  5
D
102
{ACAD_REACTORS
330
C
102
}
100
AcDbDictionary
280
0
281
1
  0
ACDBDICTIONARYWDFLT
  5
E
102
{ACAD_REACTORS
330
C
102
}
100
AcDbDictionary
281
1
  3
Normal
350
F
100
AcDbDictionaryWithDefault
340
F
  0
DICTIONARY
  5
17
102
{ACAD_REACTORS
330
C
102
}
100
AcDbDictionary
280
0
281
1
  3
Standard
350
18
  0
DICTIONARY
  5
19
102
{ACAD_REACTORS
330
C
102
}
100
AcDbDictionary
281
1
  0
DICTIONARY
  5
1A
102
{ACAD_REACTORS
330
C
102
}
100
AcDbDictionary
281
1
  3
Model
350
587
  3
Layout1
350
588
  0
ACDBPLACEHOLDER
  5
F
102
{ACAD_REACTORS
330
E
102
}
  0
MLINESTYLE
  5
18
102
{ACAD_REACTORS
330
17
102
}
100
AcDbMlineStyle
  2
STANDARD
 70
0
  3

 62
256
 51
90.0
 52
90.0
 71
2
 49
0.5
 62
256
  6
BYLAYER
 49
-0.5
 62
256
  6
BYLAYER
  0
LAYOUT
  5
587
102
{ACAD_REACTORS
330
1A
102
}
100
AcDbPlotSettings
  1

  2
none_device
  4
ANSI_C_(22.00_x_17.00_Inches)
  6

 40
0.0
 41
0.0
 42
0.0
 43
0.0
 44
558.8
 45
431.8
 46
0.0
 47
0.0
 48
0.0
 49
0.0
140
0.0
141
0.0
142
1.0
143
1.0
 70
1024
 72
1
 73
0
 74
0
  7

 75
0
147
1.0
148
0.0
149
0.0
100
AcDbLayout
  1
Model
 70
0
 71
0
 10
0.0
 20
0.0
 11
558.8
 21
431.8
 12
0.0
 22
0.0
 32
0.0
 14
0.0
 24
0.0
 34
0.0
 15
0.0
 25
0.0
 35
0.0
146
0.0
 13
0.0
 23
0.0
 33
0.0
 16
1.0
 26
0.0
 36
0.0
 17
0.0
 27
1.0
 37
0.0
 76
0
330
214
345
0
346
0
  0
LAYOUT
  5
588
102
{ACAD_REACTORS
330
1A
102
}
100
AcDbPlotSettings
  1

  2
none_device
  4
ANSI_C_(22.00_x_17.00_Inches)
  6

 40
0.0
 41
0.0
 42
0.0
 43
0.0
 44
558.8
 45
431.8
 46
0.0
 47
0.0
 48
0.0
 49
0.0
140
0.0
141
0.0
142
1.0
143
1.0
 70
0
 72
1
 73
0
 74
0
  7

 75
0
147
1.0
148
0.0
149
0.0
100
AcDbLayout
  1
Layout1
 70
0
 71
1
 10
0.0
 20
0.0
 11
558.8
 21
431.8
 12
0.0
 22
0.0
 32
0.0
 14
0.0
 24
0.0
 34
0.0
 15
0.0
 25
0.0
 35
0.0
146
0.0
 13
0.0
 23
0.0
 33
0.0
 16
1.0
 26
0.0
 36
0.0
 17
0.0
 27
1.0
 37
0.0
 76
0
330
215
345
0
346
0
  0
ENDSEC
  0
EOF
