  0
SECTION
  2
HEADER
  9
$ACADVER
  1
AC1024
  9
$DWGCODEPAGE
  3
ANSI_1252
  9
$EXTMAX
 10
558.8
 20
431.8
 30
0.0
  9
$EXTMIN
 10
0.0
 20
0.0
 30
0.0
  9
$LIMMIN
 10
0.0
 20
0.0
  9
$LIMMAX
 10
558.8
 20
431.8
  9
$VIEWCTR
 10
279.4
 20
215.9
  9
$VIEWSIZE
 40
431.8
  9
$CLAYER
  8
0
  9
$LTSCALE
 40
30.734
  9
$CELTYPE
  6
BYLAYER
  9
$DIMSCALE
 40
1.0
  9
$DIMASZ
 40
3.0
  9
$DIMEXO
 40
0.5
  9
$DIMDLI
 40
21.2344
  9
$DIMEXE
 40
1.5
  9
$DIMCEN
 40
5.0292
  9
$DIMLFAC
 40
1.0
  9
$DIMBLK
  1
_FILLED
  9
$DIMALT
 70
0
  9
$DIMALTF
 40
0.0393700787
  9
$DIMTXT
 40
3.0
  9
$DIMTOL
 70
1
  9
$DIMLIM
 70
0
  9
$DIMTFAC
 40
1.0
  9
$DIMTP
 40
0.01
  9
$DIMTM
 40
0.01
  9
$DIMGAP
 40
0.625
  9
$DIMDSEP
 70
44
  9
$AUNITS
 70
0
  9
$PDMODE
 70
3
  9
$PDSIZE
 40
3.0
  9
$HANDSEED
  5
5C0
  9
$TILEMODE
 70
1
  9
$MEASUREMENT
 70
1
  9
$INSUNITS
 70
4
  0
ENDSEC
  0
SECTION
  2
CLASSES
  0
CLASS
  1
ACDBDICTIONARYWDFLT
  2
AcDbDictionaryWithDefault
  3
AutoCAD 2000
 90
0
 91
1
280
0
281
0
  0
CLASS
  1
ACDBPLACEHOLDER
  2
AcDbPlaceHolder
  3
AutoCAD 2000
 90
0
 91
1
280
0
281
0
  0
CLASS
  1
LAYOUT
  2
AcDbLayout
  3
AutoCAD 2000
 90
0
 91
0
280
0
281
0
  0
ENDSEC
  0
SECTION
  2
TABLES
  0
TABLE
  2
VPORT
  5
8
100
AcDbSymbolTable
 70
2
  0
VPORT
  5
1F4
100
AcDbSymbolTableRecord
100
AcDbViewportTableRecord
  2
*ACTIVE
 70
0
 10
0.0
 20
0.0
 11
1.0
 21
1.0
 12
279.4
 22
215.9
 13
0.0
 23
0.0
 14
1.0
 24
1.0
 15
0.0
 25
0.0
 16
0.0
 26
0.0
 36
1.0
 17
0.0
 27
0.0
 37
0.0
 40
431.8
 41
1.2941176471
 42
50.0
 43
0.0
 44
0.0
 50
0.0
 51
0.0
 71
0
 72
100
 73
1
 74
1
 75
0
 76
0
 77
0
 78
0
  0
ENDTAB
  0
TABLE
  2
LTYPE
  5
5
100
AcDbSymbolTable
 70
6
  0
LTYPE
  5
14
100
AcDbSymbolTableRecord
100
AcDbLinetypeTableRecord
  2
BYBLOCK
 70
0
  3

 72
65
 73
0
 40
0.0
  0
LTYPE
  5
15
100
AcDbSymbolTableRecord
100
AcDbLinetypeTableRecord
  2
BYLAYER
 70
0
  3

 72
65
 73
0
 40
0.0
  0
LTYPE
  5
16
100
AcDbSymbolTableRecord
100
AcDbLinetypeTableRecord
  2
CONTINUOUS
 70
64
  3
Solid line
 72
65
 73
0
 40
0.0
  0
LTYPE
  5
1F5
100
AcDbSymbolTableRecord
100
AcDbLinetypeTableRecord
  2
CENTER
 70
64
  3
____ _ ____ _ ____ _ ____ _ ____ _ ____ _ ____
 72
65
 73
4
 40
0.6
 49
0.375
 74
0
 49
-0.075
 74
0
 49
0.075
 74
0
 49
-0.075
 74
0
  0
LTYPE
  5
1F6
100
AcDbSymbolTableRecord
100
AcDbLinetypeTableRecord
  2
HIDDEN
 70
64
  3
- - - - - - - - - - - - - - - - - - - -
 72
65
 73
2
 40
0.2
 49
0.1
 74
0
 49
-0.1
 74
0
  0
LTYPE
  5
1F7
100
AcDbSymbolTableRecord
100
AcDbLinetypeTableRecord
  2
PHANTOM
 70
64
  3
_____ _ _ _____ _ _ _____ _ _ _____
 72
65
 73
6
 40
0.8
 49
0.45
 74
0
 49
-0.05
 74
0
 49
0.1
 74
0
 49
-0.05
 74
0
 49
0.1
 74
0
 49
-0.05
 74
0
  0
LTYPE
  5
1F8
100
AcDbSymbolTableRecord
100
AcDbLinetypeTableRecord
  2
DOT
 70
64
  3
. . . . . . . . . . . . . . . . . . . .
 72
65
 73
2
 40
0.2
 49
0.1
 74
0
 49
-0.1
 74
0
  0
LTYPE
  5
1F9
100
AcDbSymbolTableRecord
100
AcDbLinetypeTableRecord
  2
DASHED
 70
64
  3
- - - - - - - - - - - - - - - - - - - -
 72
65
 73
2
 40
0.2
 49
0.1
 74
0
 49
-0.1
 74
0
  0
ENDTAB
  0
TABLE
  2
LAYER
  5
2
100
AcDbSymbolTable
 70
36
  0
LAYER
  5
10
100
AcDbSymbolTableRecord
100
AcDbLayerTableRecord
  2
0
 70
0
 62
7
  6
CONTINUOUS
370
-3
390
F
  0
LAYER
  5
1FA
100
AcDbSymbolTableRecord
100
AcDbLayerTableRecord
  2
DEFAULT_1
 70
0
 62
7
  6
CENTER
370
-3
390
F
  0
LAYER
  5
1FB
100
AcDbSymbolTableRecord
100
AcDbLayerTableRecord
  2
DEFAULT_2
 70
0
 62
7
  6
HIDDEN
370
-3
390
F
  0
LAYER
  5
1FC
100
AcDbSymbolTableRecord
100
AcDbLayerTableRecord
  2
DEFAULT_3
 70
0
 62
7
  6
PHANTOM
370
-3
390
F
  0
LAYER
  5
1FD
100
AcDbSymbolTableRecord
100
AcDbLayerTableRecord
  2
ASSI
 70
0
 62
7
  6
CONTINUOUS
370
-3
390
F
  0
LAYER
  5
1FE
100
AcDbSymbolTableRecord
100
AcDbLayerTableRecord
  2
COORDINATE
 70
0
 62
7
  6
CONTINUOUS
370
-3
390
F
  0
LAYER
  5
1FF
100
AcDbSymbolTableRecord
100
AcDbLayerTableRecord
  2
COPY_PUBLISH
 70
0
 62
7
  6
CONTINUOUS
370
-3
390
F
  0
LAYER
  5
200
100
AcDbSymbolTableRecord
100
AcDbLayerTableRecord
  2
COSMETIC
 70
0
 62
7
  6
CONTINUOUS
370
-3
390
F
  0
LAYER
  5
201
100
AcDbSymbolTableRecord
100
AcDbLayerTableRecord
  2
COSMETICI
 70
0
 62
7
  6
CONTINUOUS
370
-3
390
F
  0
LAYER
  5
202
100
AcDbSymbolTableRecord
100
AcDbLayerTableRecord
  2
CURVE
 70
0
 62
7
  6
CONTINUOUS
370
-3
390
F
  0
LAYER
  5
203
100
AcDbSymbolTableRecord
100
AcDbLayerTableRecord
  2
DRAFT
 70
0
 62
7
  6
CONTINUOUS
370
-3
390
F
  0
LAYER
  5
204
100
AcDbSymbolTableRecord
100
AcDbLayerTableRecord
  2
IMPORT_IGES
 70
0
 62
7
  6
CONTINUOUS
370
-3
390
F
  0
LAYER
  5
205
100
AcDbSymbolTableRecord
100
AcDbLayerTableRecord
  2
INTFCLR_11
 70
0
 62
7
  6
CONTINUOUS
370
-3
390
F
  0
LAYER
  5
206
100
AcDbSymbolTableRecord
100
AcDbLayerTableRecord
  2
INTF_1
 70
0
 62
7
  6
CONTINUOUS
370
-3
390
F
  0
LAYER
  5
207
100
AcDbSymbolTableRecord
100
AcDbLayerTableRecord
  2
INTF_3
 70
0
 62
7
  6
CONTINUOUS
370
-3
390
F
  0
LAYER
  5
208
100
AcDbSymbolTableRecord
100
AcDbLayerTableRecord
  2
NOTE
 70
0
 62
7
  6
CONTINUOUS
370
-3
390
F
  0
LAYER
  5
209
100
AcDbSymbolTableRecord
100
AcDbLayerTableRecord
  2
PIANI
 70
0
 62
7
  6
CONTINUOUS
370
-3
390
F
  0
LAYER
  5
20A
100
AcDbSymbolTableRecord
100
AcDbLayerTableRecord
  2
PUNTI
 70
0
 62
7
  6
CONTINUOUS
370
-3
390
F
  0
LAYER
  5
20B
100
AcDbSymbolTableRecord
100
AcDbLayerTableRecord
  2
RACCORDO
 70
0
 62
7
  6
CONTINUOUS
370
-3
390
F
  0
LAYER
  5
20C
100
AcDbSymbolTableRecord
100
AcDbLayerTableRecord
  2
SIMBOLI
 70
0
 62
7
  6
CONTINUOUS
370
-3
390
F
  0
LAYER
  5
20D
100
AcDbSymbolTableRecord
100
AcDbLayerTableRecord
  2
SMUSSO
 70
0
 62
7
  6
CONTINUOUS
370
-3
390
F
  0
LAYER
  5
20E
100
AcDbSymbolTableRecord
100
AcDbLayerTableRecord
  2
SNAPLINE
 70
0
 62
7
  6
CONTINUOUS
370
-3
390
F
  0
LAYER
  5
20F
100
AcDbSymbolTableRecord
100
AcDbLayerTableRecord
  2
SUPERFICI
 70
0
 62
7
  6
CONTINUOUS
370
-3
390
F
  0
LAYER
  5
210
100
AcDbSymbolTableRecord
100
AcDbLayerTableRecord
  2
TRASH
 70
0
 62
7
  6
CONTINUOUS
370
-3
390
F
  0
LAYER
  5
211
100
AcDbSymbolTableRecord
100
AcDbLayerTableRecord
  2
___SHELL
 70
0
 62
7
  6
CONTINUOUS
370
-3
390
F
  0
ENDTAB
  0
TABLE
  2
STYLE
  5
3
100
AcDbSymbolTable
 70
1
  0
STYLE
  5
11
100
AcDbSymbolTableRecord
100
AcDbTextStyleTableRecord
  2
STANDARD
 70
0
 40
0.0
 41
0.8
 50
0.0
 71
0
 42
0.2
  3
txt
  4

  0
STYLE
  5
212
100
AcDbSymbolTableRecord
100
AcDbTextStyleTableRecord
  2
TEXTSTYLE_1
 70
0
 40
0.0
 41
0.8
 50
0.0
 71
0
 42
0.2
  3
gdt
  4

  0
ENDTAB
  0
TABLE
  2
VIEW
  5
6
100
AcDbSymbolTable
 70
0
  0
ENDTAB
  0
TABLE
  2
UCS
  5
7
100
AcDbSymbolTable
 70
0
  0
ENDTAB
  0
TABLE
  2
APPID
  5
9
100
AcDbSymbolTable
 70
1
  0
APPID
  5
213
100
AcDbSymbolTableRecord
100
AcDbRegAppTableRecord
  2
ACAD
 70
0
  0
ENDTAB
  0
TABLE
  2
BLOCK_RECORD
  5
1
100
AcDbSymbolTable
 70
0
  0
BLOCK_RECORD
  5
214
100
AcDbSymbolTableRecord
100
AcDbBlockTableRecord
  2
*Model_Space
  0
BLOCK_RECORD
  5
215
100
AcDbSymbolTableRecord
100
AcDbBlockTableRecord
  2
*Paper_Space
  0
BLOCK_RECORD
  5
216
100
AcDbSymbolTableRecord
100
AcDbBlockTableRecord
  2
_FILLED
  0
ENDTAB
  0
TABLE
  2
DIMSTYLE
  5
A
100
AcDbSymbolTable
 70
1
100
AcDbDimStyleTable
 71
0
  0
DIMSTYLE
105
217
100
AcDbSymbolTableRecord
100
AcDbDimStyleTableRecord
  2
STANDARD
 70
0
  3

  4

 40
1.0
 41
3.0
 42
0.5
 43
0.38
 44
1.5
 45
0.0
 46
0.0
 47
0.01
 48
0.01
140
3.0
141
0.09
142
0.0
143
25.4
144
1.0
145
0.0
146
1.0
147
0.625
 71
1
 72
0
 73
0
 74
0
 75
0
 76
0
 77
1
 78
8
 79
2
170
0
171
1
172
0
173
0
174
0
175
0
176
0
177
0
178
0
270
2
179
2
271
2
272
2
273
2
274
2
275
0
280
0
281
0
282
0
283
1
284
8
285
0
286
0
287
3
288
0
340
11
278
44
341
216
342
216
343
216
344
216
  0
ENDTAB
  0
ENDSEC
  0
SECTION
  2
BLOCKS
  0
BLOCK
  5
20
100
AcDbEntity
  8
0
100
AcDbBlockBegin
  2
*Model_Space
 70
0
 10
0.0
 20
0.0
 30
0.0
  3
*Model_Space
  1

  0
ENDBLK
  5
21
100
AcDbEntity
  8
0
100
AcDbBlockEnd
  0
BLOCK
  5
1C
100
AcDbEntity
  8
0
100
AcDbBlockBegin
  2
*Paper_Space
 70
0
 10
0.0
 20
0.0
 30
0.0
  3
*Paper_Space
  1

  0
ENDBLK
  5
1D
100
AcDbEntity
  8
0
100
AcDbBlockEnd
  0
BLOCK
  5
218
100
AcDbEntity
  8
0
100
AcDbBlockBegin
  2
_FILLED
 70
64
 10
0.0
 20
0.0
  3
_FILLED
  1

  0
SOLID
  5
219
100
AcDbEntity
  8
0
  6
BYBLOCK
 62
0
100
AcDbTrace
 10
0.0
 20
0.0
 11
-1.0
 21
0.3166666667
 12
-1.0
 22
-0.3166666667
 13
-1.0
 23
-0.3166666667
  0
ENDBLK
  5
21A
100
AcDbEntity
  8
0
  6
BYBLOCK
 62
0
100
AcDbBlockEnd
  0
ENDSEC
  0
SECTION
  2
ENTITIES
  0
LWPOLYLINE
  5
21B
100
AcDbEntity
  8
0
100
AcDbPolyline
 62
250
  6
CONTINUOUS
 90
37
 70
0
 10
330.4841337053
 20
136.8515748341
 10
330.5157276674
 20
136.8547185179
 10
330.5461472146
 20
136.859674423
 10
330.5752962559
 20
136.8662507338
 10
330.6030600047
 20
136.8742556424
 10
330.629422421
 20
136.883507026
 10
330.6544596796
 20
136.893850672
 10
330.6781482246
 20
136.9051343322
 10
330.7004673724
 20
136.9172089919
 10
330.7215076476
 20
136.9299613814
 10
330.7412844764
 20
136.9432783817
 10
330.7597920728
 20
136.957035705
 10
330.7770944744
 20
136.9711278657
 10
330.7932060989
 20
136.9854484507
 10
330.8081613885
 20
136.9999127017
 10
330.8220553364
 20
137.0144665369
 10
330.8349034176
 20
137.0290149602
 10
330.8467562705
 20
137.0435093491
 10
330.8577502808
 20
137.0579879289
 10
330.867912311
 20
137.0723952549
 10
330.8772729977
 20
137.0866905079
 10
330.8859536006
 20
137.100956064
 10
330.8939756359
 20
137.1151577581
 10
330.9013586965
 20
137.1292668001
 10
330.9081982305
 20
137.1433903831
 10
330.9145061849
 20
137.1575061425
 10
330.9202924669
 20
137.171595065
 10
330.9256259867
 20
137.1857811965
 10
330.930508134
 20
137.200049396
 10
330.9349383152
 20
137.2143861414
 10
330.9389583779
 20
137.2289257182
 10
330.9425582651
 20
137.2436562921
 10
330.9457258505
 20
137.258566428
 10
330.9484747288
 20
137.2737952412
 10
330.950787612
 20
137.28938156
 10
330.9526307834
 20
137.3052617571
 10
330.9539800157
 20
137.3214211445
  0
LWPOLYLINE
  5
21C
100
AcDbEntity
  8
0
100
AcDbPolyline
 62
250
  6
CONTINUOUS
 90
37
 70
0
 10
330.4841337053
 20
137.1334826204
 10
330.4976344582
 20
137.1340525911
 10
330.5105223509
 20
137.1352765113
 10
330.5227973834
 20
137.1371543807
 10
330.5344567339
 20
137.1397561149
 10
330.5455032242
 20
137.1430117983
 10
330.5559453199
 20
137.1467116852
 10
330.5657717521
 20
137.1508414503
 10
330.5749937897
 20
137.1554154187
 10
330.583653706
 20
137.1602668197
 10
330.5917492664
 20
137.1653867331
 10
330.5992827053
 20
137.1707840791
 10
330.6063029993
 20
137.1763188469
 10
330.6128027585
 20
137.1819774067
 10
330.6187893727
 20
137.1877733883
 10
330.6243339879
 20
137.1936076715
 10
330.6294313611
 20
137.199460792
 10
330.6340867354
 20
137.205352214
 10
330.6383869859
 20
137.2112412096
 10
330.6423367492
 20
137.2171155262
 10
330.6459313887
 20
137.2229874164
 10
330.6492438697
 20
137.2288529093
 10
330.652280905
 20
137.2347041108
 10
330.6550357817
 20
137.2405489149
 10
330.6575613266
 20
137.2464070336
 10
330.6598645377
 20
137.2522731478
 10
330.661938417
 20
137.2581525765
 10
330.6638147969
 20
137.2640809881
 10
330.6655008934
 20
137.2700551415
 10
330.6669894907
 20
137.2760782778
 10
330.6682907735
 20
137.2821957887
 10
330.6694123225
 20
137.2884062256
 10
330.6703465572
 20
137.2947110372
 10
330.6710809208
 20
137.3011599611
 10
330.671611228
 20
137.3077695765
 10
330.6719416642
 20
137.3145233044
 10
330.6720722295
 20
137.3214211445
  0
LINE
  5
21D
100
AcDbEntity
  8
0
100
AcDbLine
 62
7
  6
CONTINUOUS
 10
309.5685829563
 20
136.6914352418
 11
330.6145002078
 21
136.6914352418
  0
LINE
  5
21E
100
AcDbEntity
  8
0
100
AcDbLine
 62
7
  6
CONTINUOUS
 10
309.5888098664
 20
136.7414352418
 11
330.5942732977
 21
136.7414352418
  0
LINE
  5
21F
100
AcDbEntity
  8
0
100
AcDbLine
 62
250
  6
CONTINUOUS
 10
309.6989494588
 20
136.8515748341
 11
330.4841337053
 21
136.8515748341
  0
LINE
  5
220
100
AcDbEntity
  8
0
100
AcDbLine
 62
250
  6
CONTINUOUS
 10
309.6989494588
 20
137.1334826204
 11
330.4841337053
 21
137.1334826204
  0
LINE
  5
221
100
AcDbEntity
  8
0
100
AcDbLine
 62
250
  6
CONTINUOUS
 10
309.5110109346
 20
137.3214211445
 11
309.2291031484
 21
137.3214211445
  0
LINE
  5
222
100
AcDbEntity
  8
0
100
AcDbLine
 62
250
  6
CONTINUOUS
 10
330.6720722295
 20
137.3214211445
 11
330.9539800157
 21
137.3214211445
  0
LINE
  5
223
100
AcDbEntity
  8
0
100
AcDbLine
 62
7
  6
CONTINUOUS
 10
310.3214091096
 20
176.0763609287
 11
310.2760881944
 21
176.0612662323
  0
LINE
  5
224
100
AcDbEntity
  8
0
100
AcDbLine
 62
7
  6
CONTINUOUS
 10
310.231541582
 20
137.9112662323
 11
329.951541582
 21
137.9112662323
  0
LINE
  5
225
100
AcDbEntity
  8
0
100
AcDbLine
 62
7
  6
CONTINUOUS
 10
310.3214091096
 20
141.4461715359
 11
310.2760881944
 21
141.4612662323
  0
LWPOLYLINE
  5
226
100
AcDbEntity
  8
0
100
AcDbPolyline
 62
250
  6
CONTINUOUS
 90
10
 70
0
 10
329.9529128704
 20
141.1717958824
 10
329.9480225674
 20
141.1707237801
 10
329.9436881358
 20
141.1696397447
 10
329.9399095759
 20
141.1685437763
 10
329.9366841382
 20
141.1674346283
 10
329.934014572
 20
141.1663135472
 10
329.9319091249
 20
141.1651842728
 10
329.9303705461
 20
141.1640480518
 10
329.9293960863
 20
141.1629036376
 10
329.9289857456
 20
141.16175103
  0
LWPOLYLINE
  5
227
100
AcDbEntity
  8
0
100
AcDbPolyline
 62
250
  6
CONTINUOUS
 90
10
 70
0
 10
329.7688719023
 20
141.371034822
 10
329.7607354217
 20
141.3699625896
 10
329.753507952
 20
141.3688784893
 10
329.7471997474
 20
141.3677825212
 10
329.7418231722
 20
141.3666734824
 10
329.7373793509
 20
141.3655525758
 10
329.7338656584
 20
141.3644234103
 10
329.7312901357
 20
141.3632871889
 10
329.7296639715
 20
141.3621427087
 10
329.728993361
 20
141.3609899697
  0
LWPOLYLINE
  5
228
100
AcDbEntity
  8
0
100
AcDbPolyline
 62
250
  6
CONTINUOUS
 90
13
 70
0
 10
330.698251511
 20
141.1717958824
 10
330.7243442812
 20
141.1735186607
 10
330.7499908298
 20
141.1786179679
 10
330.7747527432
 20
141.1870065679
 10
330.7982067636
 20
141.1985410102
 10
330.8199519624
 20
141.2130240543
 10
330.8396166086
 20
141.23020802
 10
330.8568646076
 20
141.2497990861
 10
330.8714012054
 20
141.2714623164
 10
330.8829779863
 20
141.294827333
 10
330.8913971582
 20
141.3194947005
 10
330.8965149187
 20
141.3450427636
 10
330.8982438952
 20
141.3710348262
  0
LWPOLYLINE
  5
229
100
AcDbEntity
  8
0
100
AcDbPolyline
 62
7
  6
CONTINUOUS
 90
25
 70
0
 10
317.0107928457
 20
139.6362662323
 10
317.0486264084
 20
139.6371740034
 10
317.0859816709
 20
139.6406629668
 10
317.1228586334
 20
139.6467331248
 10
317.1595171979
 20
139.6553028608
 10
317.1956974624
 20
139.6664538
 10
317.2306197198
 20
139.6804308093
 10
317.2642314009
 20
139.697503283
 10
317.2965850751
 20
139.7174018477
 10
317.3270587436
 20
139.7395632207
 10
317.355556311
 20
139.7639852772
 10
317.3821738729
 20
139.7906701663
 10
317.4065777168
 20
139.8190610111
 10
317.4286230174
 20
139.8490994118
 10
317.4484546
 20
139.8808437907
 10
317.466173229
 20
139.9139124999
 10
317.4817341246
 20
139.9482940961
 10
317.4951820666
 20
139.9840000425
 10
317.5067521592
 20
140.020683046
 10
317.516568203
 20
140.0582028605
 10
317.5245063975
 20
140.0966997472
 10
317.5304304449
 20
140.1362471727
 10
317.5342949128
 20
140.1768696321
 10
317.5361452337
 20
140.2185426488
 10
317.5359814076
 20
140.2612662323
  0
LINE
  5
22A
100
AcDbEntity
  8
0
100
AcDbLine
 62
7
  6
CONTINUOUS
 10
313.878760582
 20
139.6362662323
 11
314.042402582
 21
139.6362662323
  0
LINE
  5
22B
100
AcDbEntity
  8
0
100
AcDbLine
 62
7
  6
CONTINUOUS
 10
314.394103582
 20
139.6362662323
 11
314.561241582
 21
139.6362662323
  0
LINE
  5
22C
100
AcDbEntity
  8
0
100
AcDbLine
 62
7
  6
CONTINUOUS
 10
314.912875582
 20
139.6362662323
 11
315.076583582
 21
139.6362662323
  0
LINE
  5
22D
100
AcDbEntity
  8
0
100
AcDbLine
 62
7
  6
CONTINUOUS
 10
315.226310582
 20
139.6362662323
 11
315.400390582
 21
139.6362662323
  0
LINE
  5
22E
100
AcDbEntity
  8
0
100
AcDbLine
 62
7
  6
CONTINUOUS
 10
316.155950582
 20
139.6362662323
 11
316.340513582
 21
139.6362662323
  0
LINE
  5
22F
100
AcDbEntity
  8
0
100
AcDbLine
 62
7
  6
CONTINUOUS
 10
316.504151582
 20
139.6362662323
 11
317.0107928457
 21
139.6362662323
  0
LINE
  5
230
100
AcDbEntity
  8
0
100
AcDbLine
 62
7
  6
CONTINUOUS
 10
317.769870582
 20
139.6362662323
 11
318.692636582
 21
139.6362662323
  0
LINE
  5
231
100
AcDbEntity
  8
0
100
AcDbLine
 62
7
  6
CONTINUOUS
 10
319.423874582
 20
139.6362662323
 11
319.592737582
 21
139.6362662323
  0
LINE
  5
232
100
AcDbEntity
  8
0
100
AcDbLine
 62
7
  6
CONTINUOUS
 10
319.881698582
 20
139.6362662323
 11
320.045416582
 21
139.6362662323
  0
LINE
  5
233
100
AcDbEntity
  8
0
100
AcDbLine
 62
7
  6
CONTINUOUS
 10
320.684367582
 20
139.6362662323
 11
320.874126582
 21
139.6362662323
  0
LINE
  5
234
100
AcDbEntity
  8
0
100
AcDbLine
 62
7
  6
CONTINUOUS
 10
321.648833582
 20
139.6362662323
 11
321.817747582
 21
139.6362662323
  0
LINE
  5
235
100
AcDbEntity
  8
0
100
AcDbLine
 62
7
  6
CONTINUOUS
 10
322.421882582
 20
139.6362662323
 11
322.590736582
 21
139.6362662323
  0
LINE
  5
236
100
AcDbEntity
  8
0
100
AcDbLine
 62
7
  6
CONTINUOUS
 10
323.062551582
 20
139.6362662323
 11
323.236621582
 21
139.6362662323
  0
LINE
  5
237
100
AcDbEntity
  8
0
100
AcDbLine
 62
7
  6
CONTINUOUS
 10
323.992252582
 20
139.6362662323
 11
324.176846582
 21
139.6362662323
  0
LINE
  5
238
100
AcDbEntity
  8
0
100
AcDbLine
 62
7
  6
CONTINUOUS
 10
324.331718582
 20
139.6362662323
 11
325.134387582
 21
139.6362662323
  0
LINE
  5
239
100
AcDbEntity
  8
0
100
AcDbLine
 62
7
  6
CONTINUOUS
 10
325.663603582
 20
139.6362662323
 11
325.832426582
 21
139.6362662323
  0
LINE
  5
23A
100
AcDbEntity
  8
0
100
AcDbLine
 62
7
  6
CONTINUOUS
 10
317.0064884382
 20
139.7807262323
 11
316.673075582
 21
139.7807262323
  0
LINE
  5
23B
100
AcDbEntity
  8
0
100
AcDbLine
 62
7
  6
CONTINUOUS
 10
325.134387582
 20
139.7859832323
 11
324.500643582
 21
139.7859832323
  0
LINE
  5
23C
100
AcDbEntity
  8
0
100
AcDbLine
 62
7
  6
CONTINUOUS
 10
318.692636582
 20
139.7859832323
 11
317.938785582
 21
139.7859832323
  0
LINE
  5
23D
100
AcDbEntity
  8
0
100
AcDbLine
 62
7
  6
CONTINUOUS
 10
315.530980582
 20
140.0000952323
 11
316.032355582
 21
140.0000952323
  0
LINE
  5
23E
100
AcDbEntity
  8
0
100
AcDbLine
 62
7
  6
CONTINUOUS
 10
323.367222582
 20
140.0000952323
 11
323.868647582
 21
140.0000952323
  0
LINE
  5
23F
100
AcDbEntity
  8
0
100
AcDbLine
 62
7
  6
CONTINUOUS
 10
323.807699582
 20
140.1498122323
 11
323.419456582
 21
140.1498122323
  0
LINE
  5
240
100
AcDbEntity
  8
0
100
AcDbLine
 62
7
  6
CONTINUOUS
 10
315.971468582
 20
140.1498122323
 11
315.583225582
 21
140.1498122323
  0
LINE
  5
241
100
AcDbEntity
  8
0
100
AcDbLine
 62
7
  6
CONTINUOUS
 10
317.938785582
 20
140.2037952323
 11
318.622984582
 21
140.2037952323
  0
LINE
  5
242
100
AcDbEntity
  8
0
100
AcDbLine
 62
7
  6
CONTINUOUS
 10
318.622984582
 20
140.3535122323
 11
317.938785582
 21
140.3535122323
  0
LINE
  5
243
100
AcDbEntity
  8
0
100
AcDbLine
 62
7
  6
CONTINUOUS
 10
317.938785582
 20
140.7365492323
 11
318.680434582
 21
140.7365492323
  0
LINE
  5
244
100
AcDbEntity
  8
0
100
AcDbLine
 62
7
  6
CONTINUOUS
 10
321.998813582
 20
140.7365492323
 11
322.421882582
 21
140.7365492323
  0
LINE
  5
245
100
AcDbEntity
  8
0
100
AcDbLine
 62
7
  6
CONTINUOUS
 10
322.590736582
 20
140.7365492323
 11
323.013805582
 21
140.7365492323
  0
LINE
  5
246
100
AcDbEntity
  8
0
100
AcDbLine
 62
7
  6
CONTINUOUS
 10
316.673075582
 20
140.7418062323
 11
317.0064884382
 21
140.7418062323
  0
LINE
  5
247
100
AcDbEntity
  8
0
100
AcDbLine
 62
7
  6
CONTINUOUS
 10
326.304322582
 20
140.8862662323
 11
326.105778582
 21
140.8862662323
  0
LINE
  5
248
100
AcDbEntity
  8
0
100
AcDbLine
 62
7
  6
CONTINUOUS
 10
325.388532582
 20
140.8862662323
 11
325.191807582
 21
140.8862662323
  0
LINE
  5
249
100
AcDbEntity
  8
0
100
AcDbLine
 62
7
  6
CONTINUOUS
 10
324.500643582
 20
140.8862662323
 11
324.331718582
 21
140.8862662323
  0
LINE
  5
24A
100
AcDbEntity
  8
0
100
AcDbLine
 62
7
  6
CONTINUOUS
 10
323.724126582
 20
140.8862662323
 11
323.532648582
 21
140.8862662323
  0
LINE
  5
24B
100
AcDbEntity
  8
0
100
AcDbLine
 62
7
  6
CONTINUOUS
 10
323.013805582
 20
140.8862662323
 11
321.998813582
 21
140.8862662323
  0
LINE
  5
24C
100
AcDbEntity
  8
0
100
AcDbLine
 62
7
  6
CONTINUOUS
 10
321.817747582
 20
140.8862662323
 11
321.648833582
 21
140.8862662323
  0
LINE
  5
24D
100
AcDbEntity
  8
0
100
AcDbLine
 62
7
  6
CONTINUOUS
 10
320.874126582
 20
140.8862662323
 11
320.710489582
 21
140.8862662323
  0
LINE
  5
24E
100
AcDbEntity
  8
0
100
AcDbLine
 62
7
  6
CONTINUOUS
 10
320.081951582
 20
140.8862662323
 11
319.881698582
 21
140.8862662323
  0
LINE
  5
24F
100
AcDbEntity
  8
0
100
AcDbLine
 62
7
  6
CONTINUOUS
 10
319.592737582
 20
140.8862662323
 11
319.423874582
 21
140.8862662323
  0
LINE
  5
250
100
AcDbEntity
  8
0
100
AcDbLine
 62
7
  6
CONTINUOUS
 10
318.680434582
 20
140.8862662323
 11
317.769870582
 21
140.8862662323
  0
LINE
  5
251
100
AcDbEntity
  8
0
100
AcDbLine
 62
7
  6
CONTINUOUS
 10
317.0161075628
 20
140.8862662323
 11
316.504151582
 21
140.8862662323
  0
LINE
  5
252
100
AcDbEntity
  8
0
100
AcDbLine
 62
7
  6
CONTINUOUS
 10
315.887885582
 20
140.8862662323
 11
315.696346582
 21
140.8862662323
  0
LINE
  5
253
100
AcDbEntity
  8
0
100
AcDbLine
 62
7
  6
CONTINUOUS
 10
315.076583582
 20
140.8862662323
 11
314.836298582
 21
140.8862662323
  0
LINE
  5
254
100
AcDbEntity
  8
0
100
AcDbLine
 62
7
  6
CONTINUOUS
 10
314.120762582
 20
140.8862662323
 11
313.878760582
 21
140.8862662323
  0
LWPOLYLINE
  5
255
100
AcDbEntity
  8
0
100
AcDbPolyline
 62
7
  6
CONTINUOUS
 90
25
 70
0
 10
317.0064884382
 20
140.7418062323
 10
317.0340659163
 20
140.7401593874
 10
317.0611595202
 20
140.7364497951
 10
317.0877692501
 20
140.7306774571
 10
317.1140867787
 20
140.7228315059
 10
317.1399204332
 20
140.7129228151
 10
317.164695195
 20
140.7009839991
 10
317.1884133042
 20
140.6868819042
 10
317.2110725207
 20
140.6707496959
 10
317.2320911058
 20
140.6530194682
 10
317.2513104851
 20
140.6336741578
 10
317.268889233
 20
140.612730841
 10
317.2847213332
 20
140.5906728178
 10
317.2987028967
 20
140.567552792
 10
317.3109378126
 20
140.5433180707
 10
317.321631732
 20
140.5182938557
 10
317.3306792448
 20
140.492535032
 10
317.3381857611
 20
140.4659867232
 10
317.3446731619
 20
140.4388094867
 10
317.3503530548
 20
140.4111158692
 10
317.3550138321
 20
140.3827933312
 10
317.3585425524
 20
140.3536648007
 10
317.3609015685
 20
140.3236712575
 10
317.3621285274
 20
140.2928717329
 10
317.3622234293
 20
140.2612662323
  0
LWPOLYLINE
  5
256
100
AcDbEntity
  8
0
100
AcDbPolyline
 62
7
  6
CONTINUOUS
 90
8
 70
0
 10
310.3214091096
 20
141.4461715359
 10
310.3246721975
 20
141.4456364175
 10
310.3308009243
 20
141.4451196178
 10
310.3397952898
 20
141.4446211368
 10
310.3518140444
 20
141.4441360777
 10
310.3666984378
 20
141.4436693373
 10
310.3839722188
 20
141.4432356061
 10
310.425771524
 20
141.4424701462
  0
LINE
  5
257
100
AcDbEntity
  8
0
100
AcDbLine
 62
7
  6
CONTINUOUS
 10
314.091541582
 20
176.0612662323
 11
314.1115988916
 21
176.0813235418
  0
LWPOLYLINE
  5
258
100
AcDbEntity
  8
0
100
AcDbPolyline
 62
7
  6
CONTINUOUS
 90
6
 70
0
 10
323.3826465731
 20
177.2416129226
 10
323.3934095886
 20
177.2454199683
 10
323.404035438
 20
177.2502850094
 10
323.4145241213
 20
177.2562080446
 10
323.4247977281
 20
177.2634167248
 10
323.4349341688
 20
177.2716833959
  0
LWPOLYLINE
  5
259
100
AcDbEntity
  8
0
100
AcDbPolyline
 62
7
  6
CONTINUOUS
 90
7
 70
0
 10
310.3854904578
 20
142.2797928985
 10
310.368209395
 20
142.2793586825
 10
310.353316774
 20
142.278891387
 10
310.3412903862
 20
142.2784056987
 10
310.3322894954
 20
142.277906513
 10
310.3261548378
 20
142.2773889345
 10
310.3228864134
 20
142.2768529631
  0
LINE
  5
25A
100
AcDbEntity
  8
0
100
AcDbLine
 62
7
  6
CONTINUOUS
 10
310.4273013264
 20
142.2805591152
 11
310.3854904578
 21
142.2797928985
  0
LINE
  5
25B
100
AcDbEntity
  8
0
100
AcDbLine
 62
7
  6
CONTINUOUS
 10
310.4769631696
 20
142.2811615765
 11
310.4273013264
 21
142.2805591152
  0
LINE
  5
25C
100
AcDbEntity
  8
0
100
AcDbLine
 62
7
  6
CONTINUOUS
 10
310.561936972
 20
142.2817130265
 11
310.4769631696
 21
142.2811615765
  0
LINE
  5
25D
100
AcDbEntity
  8
0
100
AcDbLine
 62
7
  6
CONTINUOUS
 10
329.623791059
 20
141.4413209885
 11
329.6969533983
 21
141.4417680031
  0
LINE
  5
25E
100
AcDbEntity
  8
0
100
AcDbLine
 62
7
  6
CONTINUOUS
 10
330.6720722295
 20
141.0112662323
 11
329.951541582
 21
141.0112662323
  0
LINE
  5
25F
100
AcDbEntity
  8
0
100
AcDbLine
 62
250
  6
CONTINUOUS
 10
329.9529128704
 20
141.1717958824
 11
330.698251511
 21
141.1717958824
  0
LINE
  5
260
100
AcDbEntity
  8
0
100
AcDbLine
 62
7
  6
CONTINUOUS
 10
326.0714842725
 20
141.4412089227
 11
329.623791059
 21
141.4413209885
  0
LINE
  5
261
100
AcDbEntity
  8
0
100
AcDbLine
 62
7
  6
CONTINUOUS
 10
310.2760881944
 20
141.4612662323
 11
314.091541582
 21
141.4612662323
  0
LINE
  5
262
100
AcDbEntity
  8
0
100
AcDbLine
 62
7
  6
CONTINUOUS
 10
326.091541582
 20
141.4612662323
 11
329.7067017704
 21
141.4612662323
  0
LINE
  5
263
100
AcDbEntity
  8
0
100
AcDbLine
 62
250
  6
CONTINUOUS
 10
330.2289743225
 20
141.5702737617
 11
330.8966506414
 21
141.5702737617
  0
LINE
  5
264
100
AcDbEntity
  8
0
100
AcDbLine
 62
7
  6
CONTINUOUS
 10
329.7067017704
 20
142.2612662323
 11
326.091541582
 21
142.2612662323
  0
LINE
  5
265
100
AcDbEntity
  8
0
100
AcDbLine
 62
7
  6
CONTINUOUS
 10
314.091541582
 20
142.2612662323
 11
310.2760881944
 21
142.2612662323
  0
LINE
  5
266
100
AcDbEntity
  8
0
100
AcDbLine
 62
7
  6
CONTINUOUS
 10
310.561936972
 20
142.2817130265
 11
314.1120965083
 21
142.2818211586
  0
LINE
  5
267
100
AcDbEntity
  8
0
100
AcDbLine
 62
7
  6
CONTINUOUS
 10
310.5604178927
 20
141.4413170433
 11
314.1115988916
 21
141.4412089227
  0
LINE
  5
268
100
AcDbEntity
  8
0
100
AcDbLine
 62
7
  6
CONTINUOUS
 10
329.638192388
 20
142.281642631
 11
326.0709866558
 21
142.2818211586
  0
LINE
  5
269
100
AcDbEntity
  8
0
100
AcDbLine
 62
7
  6
CONTINUOUS
 10
329.6967104467
 20
142.2812504018
 11
329.638192388
 21
142.281642631
  0
LINE
  5
26A
100
AcDbEntity
  8
0
100
AcDbLine
 62
7
  6
CONTINUOUS
 10
310.4754295863
 20
141.4418681743
 11
310.5604178927
 21
141.4413170433
  0
LINE
  5
26B
100
AcDbEntity
  8
0
100
AcDbLine
 62
7
  6
CONTINUOUS
 10
310.425771524
 20
141.4424701462
 11
310.4754295863
 21
141.4418681743
  0
LWPOLYLINE
  5
26C
100
AcDbEntity
  8
0
100
AcDbPolyline
 62
250
  6
CONTINUOUS
 90
13
 70
0
 10
329.9289857456
 20
141.16175103
 10
329.9028940612
 20
141.1634736697
 10
329.8772483811
 20
141.1685725997
 10
329.8524870856
 20
141.1769606602
 10
329.8290334379
 20
141.1884944674
 10
329.8072883484
 20
141.202976866
 10
329.7876235219
 20
141.2201602991
 10
329.7703751038
 20
141.2397510373
 10
329.7558379339
 20
141.261414202
 10
329.7442605072
 20
141.2847794909
 10
329.7358407251
 20
141.3094475045
 10
329.7307225132
 20
141.3349965737
 10
329.728993361
 20
141.3609899697
  0
LWPOLYLINE
  5
26D
100
AcDbEntity
  8
0
100
AcDbPolyline
 62
250
  6
CONTINUOUS
 90
13
 70
0
 10
329.9529128621
 20
141.1717958807
 10
329.9293959209
 20
141.1742958104
 10
329.906264101
 20
141.1800175418
 10
329.8838962091
 20
141.1888673728
 10
329.8626585412
 20
141.2007003754
 10
329.8428988838
 20
141.2153227698
 10
329.8249408188
 20
141.232495098
 10
329.8090784257
 20
141.2519361441
 10
329.7955714644
 20
141.2733275406
 10
329.7846411218
 20
141.296318983
 10
329.7764663909
 20
141.3205339643
 10
329.7711811392
 20
141.34557594
 10
329.768871916
 20
141.3710348237
  0
LINE
  5
26E
100
AcDbEntity
  8
0
100
AcDbLine
 62
7
  6
CONTINUOUS
 10
314.091541582
 20
141.4612662323
 11
314.1115988916
 21
141.4412089227
  0
LWPOLYLINE
  5
26F
100
AcDbEntity
  8
0
100
AcDbPolyline
 62
7
  6
CONTINUOUS
 90
10
 70
0
 10
321.2037514609
 20
143.9713617124
 10
321.2188091727
 20
143.9751931667
 10
321.2337178806
 20
143.978667456
 10
321.2484775845
 20
143.9817845799
 10
321.2630960528
 20
143.9845875481
 10
321.2775655171
 20
143.9870333505
 10
321.2918626723
 20
143.9889929582
 10
321.3059797499
 20
143.9904233611
 10
321.3199245183
 20
143.9913675688
 10
321.3336969775
 20
143.9918255813
  0
LINE
  5
270
100
AcDbEntity
  8
0
100
AcDbLine
 62
7
  6
CONTINUOUS
 10
321.0246929091
 20
143.6817982949
 11
320.840518133
 21
143.6572416879
  0
LWPOLYLINE
  5
271
100
AcDbEntity
  8
0
100
AcDbPolyline
 62
7
  6
CONTINUOUS
 90
10
 70
0
 10
321.3173258465
 20
143.2346632311
 10
321.3660233696
 20
143.2365507061
 10
321.4125083494
 20
143.2417544068
 10
321.4567807857
 20
143.2502743364
 10
321.4987169574
 20
143.2621116925
 10
321.5384405856
 20
143.2772652901
 10
321.5763228346
 20
143.295731562
 10
321.6124874259
 20
143.3175093275
 10
321.6468106379
 20
143.3425997922
 10
321.6792924707
 20
143.3710029715
  0
LWPOLYLINE
  5
272
100
AcDbEntity
  8
0
100
AcDbPolyline
 62
7
  6
CONTINUOUS
 90
10
 70
0
 10
321.2538880271
 20
144.1309797473
 10
321.2505265592
 20
144.1309616104
 10
321.2471856241
 20
144.1310004997
 10
321.243865222
 20
144.1310964153
 10
321.240571231
 20
144.1312435559
 10
321.237297773
 20
144.1314477228
 10
321.2340272128
 20
144.1317263196
 10
321.2307536723
 20
144.1320851477
 10
321.2274830298
 20
144.1325184059
 10
321.2242152852
 20
144.133026094
  0
LINE
  5
273
100
AcDbEntity
  8
0
100
AcDbLine
 62
7
  6
CONTINUOUS
 10
317.8527965706
 20
143.2612662323
 11
318.0369711679
 21
143.2612662323
  0
LINE
  5
274
100
AcDbEntity
  8
0
100
AcDbLine
 62
7
  6
CONTINUOUS
 10
319.0990449351
 20
143.2612662323
 11
319.2832195324
 21
143.2612662323
  0
LINE
  5
275
100
AcDbEntity
  8
0
100
AcDbLine
 62
7
  6
CONTINUOUS
 10
320.1836286944
 20
143.2612662323
 11
320.3678034705
 21
143.2612662323
  0
LINE
  5
276
100
AcDbEntity
  8
0
100
AcDbLine
 62
7
  6
CONTINUOUS
 10
322.5144608182
 20
143.2612662323
 11
322.6986355942
 21
143.2612662323
  0
LINE
  5
277
100
AcDbEntity
  8
0
100
AcDbLine
 62
7
  6
CONTINUOUS
 10
318.4482945365
 20
143.6204067551
 11
319.0990449351
 21
143.6204067551
  0
LINE
  5
278
100
AcDbEntity
  8
0
100
AcDbLine
 62
7
  6
CONTINUOUS
 10
319.2832195324
 20
143.6204067551
 11
319.4858116072
 21
143.6204067551
  0
LINE
  5
279
100
AcDbEntity
  8
0
100
AcDbLine
 62
7
  6
CONTINUOUS
 10
319.4858116072
 20
143.7892335065
 11
319.2832195324
 21
143.7892335065
  0
LINE
  5
27A
100
AcDbEntity
  8
0
100
AcDbLine
 62
7
  6
CONTINUOUS
 10
319.0990449351
 20
143.7892335065
 11
318.6293996137
 21
143.7892335065
  0
LWPOLYLINE
  5
27B
100
AcDbEntity
  8
0
100
AcDbPolyline
 62
7
  6
CONTINUOUS
 90
10
 70
0
 10
321.3183490199
 20
143.3871188879
 10
321.2940298357
 20
143.3879934246
 10
321.2706613753
 20
143.3905420338
 10
321.2482436387
 20
143.3947647161
 10
321.2268349313
 20
143.4006460569
 10
321.2063769476
 20
143.4082014741
 10
321.1866947715
 20
143.4174772183
 10
321.1677300975
 20
143.4284887088
 10
321.149541231
 20
143.4412205328
 10
321.132128172
 20
143.4556726944
  0
LWPOLYLINE
  5
27C
100
AcDbEntity
  8
0
100
AcDbPolyline
 62
7
  6
CONTINUOUS
 90
10
 70
0
 10
321.3336969775
 20
143.9918255813
 10
321.3619236572
 20
143.9907050727
 10
321.388908582
 20
143.98756632
 10
321.4146517518
 20
143.9824093243
 10
321.4390998075
 20
143.9752391773
 10
321.4623061083
 20
143.9660507919
 10
321.4844307319
 20
143.9548289016
 10
321.5055270377
 20
143.9415684207
 10
321.5255416663
 20
143.9262744439
 10
321.5444746178
 20
143.9089469768
  0
LWPOLYLINE
  5
27D
100
AcDbEntity
  8
0
100
AcDbPolyline
 62
7
  6
CONTINUOUS
 90
46
 70
0
 10
313.5798382566
 20
172.113865494
 10
313.5828898431
 20
172.1166908782
 10
313.5860365888
 20
172.119434854
 10
313.5892769078
 20
172.1220961585
 10
313.5926069491
 20
172.1246717434
 10
313.5960272421
 20
172.1271623371
 10
313.5995431894
 20
172.1295720763
 10
313.6031546555
 20
172.1319004408
 10
313.6068593531
 20
172.1341450745
 10
313.6106600719
 20
172.1363068855
 10
313.6145557286
 20
172.1383844563
 10
313.6185451792
 20
172.1403761336
 10
313.622631476
 20
172.1422821333
 10
313.6268137918
 20
172.1441009519
 10
313.631090881
 20
172.1458307495
 10
313.6354654426
 20
172.1474709119
 10
313.6399367783
 20
172.1490197968
 10
313.6445035367
 20
172.1504754517
 10
313.6491676082
 20
172.1518365297
 10
313.6539280354
 20
172.1531011905
 10
313.6587836083
 20
172.154267503
 10
313.6637359334
 20
172.1553337642
 10
313.6687840157
 20
172.1562980354
 10
313.673926501
 20
172.157158318
 10
313.6791645045
 20
172.1579126256
 10
313.6844957726
 20
172.1585588338
 10
313.6899199368
 20
172.1590950411
 10
313.6954410264
 20
172.1595192767
 10
313.7010529028
 20
172.1598292422
 10
313.7067588658
 20
172.1600229182
 10
313.7125775165
 20
172.1600975967
 10
313.7185067248
 20
172.1600504276
 10
313.724546083
 20
172.159877959
 10
313.7307173856
 20
172.1595745618
 10
313.7370199825
 20
172.159136149
 10
313.7434519075
 20
172.1585581705
 10
313.7500333842
 20
172.1578321706
 10
313.756763368
 20
172.1569528194
 10
313.7636396386
 20
172.155914525
 10
313.7706807798
 20
172.1547063867
 10
313.7778849727
 20
172.1533218571
 10
313.7852495453
 20
172.1517542765
 10
313.7927916537
 20
172.1499905519
 10
313.8005149514
 20
172.1480207101
 10
313.8084094419
 20
172.1458389846
 10
313.8164713318
 20
172.1434375361
  0
LWPOLYLINE
  5
27E
100
AcDbEntity
  8
0
100
AcDbPolyline
 62
250
  6
CONTINUOUS
 90
16
 70
0
 10
314.7747845967
 20
171.1769141284
 10
314.7762397631
 20
171.1776132147
 10
314.7776521057
 20
171.1783623201
 10
314.7790216245
 20
171.1791614445
 10
314.7803564094
 20
171.1800085881
 10
314.7816483705
 20
171.1809057508
 10
314.7828732381
 20
171.1818589323
 10
314.7840351759
 20
171.1828699258
 10
314.7851300202
 20
171.183936938
 10
314.7861210095
 20
171.185060589
 10
314.7870103652
 20
171.1862410654
 10
314.7877958659
 20
171.1874781806
 10
314.7884340865
 20
171.1887719941
 10
314.7889105519
 20
171.1901225258
 10
314.7892397372
 20
171.1915297558
 10
314.7894216424
 20
171.1929936842
  0
LINE
  5
27F
100
AcDbEntity
  8
0
100
AcDbLine
 62
7
  6
CONTINUOUS
 10
314.683558792
 20
171.1825724395
 11
314.4888073319
 21
171.08942396
  0
LINE
  5
280
100
AcDbEntity
  8
0
100
AcDbLine
 62
250
  6
CONTINUOUS
 10
314.3280288048
 20
170.9685884813
 11
314.7747845967
 21
171.1769141284
  0
LINE
  5
281
100
AcDbEntity
  8
0
100
AcDbLine
 62
250
  6
CONTINUOUS
 10
314.4340950069
 20
170.8326423995
 11
314.8808506138
 21
171.0409679603
  0
LINE
  5
282
100
AcDbEntity
  8
0
100
AcDbLine
 62
7
  6
CONTINUOUS
 10
310.331471402
 20
169.1797123007
 11
310.2944309172
 21
169.167375505
  0
LINE
  5
283
100
AcDbEntity
  8
0
100
AcDbLine
 62
7
  6
CONTINUOUS
 10
314.397653451
 20
172.2094083678
 11
314.1496882875
 21
172.1325701479
  0
LINE
  5
284
100
AcDbEntity
  8
0
100
AcDbLine
 62
7
  6
CONTINUOUS
 10
314.1496882875
 20
172.1325701479
 11
314.0777349636
 21
172.1106797871
  0
LWPOLYLINE
  5
285
100
AcDbEntity
  8
0
100
AcDbPolyline
 62
250
  6
CONTINUOUS
 90
13
 70
0
 10
326.2732870674
 20
145.4724196933
 10
326.2993106626
 20
145.4741936104
 10
326.3248907106
 20
145.4793425962
 10
326.3495910614
 20
145.4877789191
 10
326.3729905571
 20
145.4993587981
 10
326.394690196
 20
145.5138848441
 10
326.4143199413
 20
145.5311094174
 10
326.4315450611
 20
145.5507388715
 10
326.446071807
 20
145.5724385369
 10
326.4576524236
 20
145.5958384045
 10
326.4660894107
 20
145.6205394824
 10
326.4712388773
 20
145.6461206081
 10
326.4730129808
 20
145.6721455938
  0
LINE
  5
286
100
AcDbEntity
  8
0
100
AcDbLine
 62
250
  6
CONTINUOUS
 10
325.8374802173
 20
145.4823526869
 11
325.6427287572
 21
145.4718838368
  0
LINE
  5
287
100
AcDbEntity
  8
0
100
AcDbLine
 62
250
  6
CONTINUOUS
 10
325.6942758322
 20
145.6820785938
 11
325.499524372
 21
145.6716097438
  0
LWPOLYLINE
  5
288
100
AcDbEntity
  8
0
100
AcDbPolyline
 62
7
  6
CONTINUOUS
 90
10
 70
0
 10
321.3101636332
 20
144.7674054511
 10
321.2705449299
 20
144.7659529751
 10
321.2326080648
 20
144.7619959856
 10
321.1963530379
 20
144.7555344843
 10
321.1618438124
 20
144.7465345776
 10
321.129016425
 20
144.7350301657
 10
321.0976789862
 20
144.721122942
 10
321.0677675327
 20
144.7048468085
 10
321.0393460278
 20
144.6861678756
 10
321.0124144715
 20
144.6650861509
  0
LINE
  5
289
100
AcDbEntity
  8
0
100
AcDbLine
 62
250
  6
CONTINUOUS
 10
313.8916829715
 20
145.6803880301
 11
313.8382619787
 21
145.6792986135
  0
LINE
  5
28A
100
AcDbEntity
  8
0
100
AcDbLine
 62
7
  6
CONTINUOUS
 10
314.441541582
 20
145.4608410129
 11
314.5435552322
 21
145.4622735521
  0
LINE
  5
28B
100
AcDbEntity
  8
0
100
AcDbLine
 62
250
  6
CONTINUOUS
 10
313.9567953964
 20
145.6812847105
 11
313.8916829715
 21
145.6803880301
  0
LWPOLYLINE
  5
28C
100
AcDbEntity
  8
0
100
AcDbPolyline
 62
7
  6
CONTINUOUS
 90
8
 70
0
 10
326.1407571744
 20
145.4136729682
 10
326.1344885101
 20
145.4136079011
 10
326.1279052056
 20
145.4134633577
 10
326.1214358188
 20
145.4132579417
 10
326.1158667852
 20
145.4129939377
 10
326.1114602499
 20
145.4126721071
 10
326.1079540677
 20
145.4122916884
 10
326.1053482387
 20
145.4118526816
  0
LWPOLYLINE
  5
28D
100
AcDbEntity
  8
0
100
AcDbPolyline
 62
250
  6
CONTINUOUS
 90
18
 70
0
 10
314.089194922
 20
145.4822870057
 10
314.069737372
 20
145.4821348836
 10
314.0511493536
 20
145.4818963206
 10
314.0332571453
 20
145.4815590395
 10
314.0162344685
 20
145.4811353175
 10
314.0006024884
 20
145.4806619856
 10
313.9865666903
 20
145.4801421571
 10
313.9739215889
 20
145.4795727188
 10
313.9625718925
 20
145.4789811623
 10
313.9525969475
 20
145.4783784396
 10
313.9439174076
 20
145.4777535987
 10
313.9361999427
 20
145.477101276
 10
313.9293199604
 20
145.4764263426
 10
313.923402053
 20
145.4757239273
 10
313.9184866682
 20
145.4749740525
 10
313.9145872885
 20
145.4741700589
 10
313.9116904313
 20
145.4733186059
 10
313.9097960966
 20
145.4724196933
  0
LWPOLYLINE
  5
28E
100
AcDbEntity
  8
0
100
AcDbPolyline
 62
7
  6
CONTINUOUS
 90
8
 70
0
 10
313.9625929887
 20
145.4136911494
 10
313.9546462558
 20
145.4136317872
 10
313.9471748986
 20
145.4134837215
 10
313.940190611
 20
145.4132700704
 10
313.9342892291
 20
145.4129992949
 10
313.9296693651
 20
145.412674215
 10
313.9261324068
 20
145.4122920105
 10
313.9236783543
 20
145.4118526816
  0
LINE
  5
28F
100
AcDbEntity
  8
0
100
AcDbLine
 62
250
  6
CONTINUOUS
 10
314.0303380605
 20
145.6818604481
 11
313.9567953964
 21
145.6812847105
  0
LINE
  5
290
100
AcDbEntity
  8
0
100
AcDbLine
 62
250
  6
CONTINUOUS
 10
330.2289743225
 20
144.4522587029
 11
330.8966506414
 21
144.4522587029
  0
LINE
  5
291
100
AcDbEntity
  8
0
100
AcDbLine
 62
7
  6
CONTINUOUS
 10
319.2832195324
 20
144.7612662323
 11
319.1328101915
 21
144.7612662323
  0
LINE
  5
292
100
AcDbEntity
  8
0
100
AcDbLine
 62
7
  6
CONTINUOUS
 10
322.6986355942
 20
144.7674054511
 11
322.5799453419
 21
144.7674054511
  0
LINE
  5
293
100
AcDbEntity
  8
0
100
AcDbLine
 62
7
  6
CONTINUOUS
 10
320.3678034705
 20
144.7674054511
 11
320.2491130394
 21
144.7674054511
  0
LINE
  5
294
100
AcDbEntity
  8
0
100
AcDbLine
 62
7
  6
CONTINUOUS
 10
318.0369711679
 20
144.7674054511
 11
317.9182808709
 21
144.7674054511
  0
LINE
  5
295
100
AcDbEntity
  8
0
100
AcDbLine
 62
250
  6
CONTINUOUS
 10
330.698251511
 20
144.8507365822
 11
329.9529128704
 21
144.8507365822
  0
LINE
  5
296
100
AcDbEntity
  8
0
100
AcDbLine
 62
7
  6
CONTINUOUS
 10
330.6720722295
 20
145.0112662323
 11
329.951541582
 21
145.0112662323
  0
LINE
  5
297
100
AcDbEntity
  8
0
100
AcDbLine
 62
7
  6
CONTINUOUS
 10
314.397653451
 20
145.3131240968
 11
314.441541582
 21
145.3131240968
  0
LINE
  5
298
100
AcDbEntity
  8
0
100
AcDbLine
 62
7
  6
CONTINUOUS
 10
325.741541582
 20
145.3131240968
 11
325.785429713
 21
145.3131240968
  0
LINE
  5
299
100
AcDbEntity
  8
0
100
AcDbLine
 62
250
  6
CONTINUOUS
 10
314.3456029468
 20
145.4823526869
 11
314.089194922
 21
145.4822870057
  0
LINE
  5
29A
100
AcDbEntity
  8
0
100
AcDbLine
 62
250
  6
CONTINUOUS
 10
325.499524372
 20
145.6716097438
 11
325.4427592181
 21
145.6716097438
  0
LINE
  5
29B
100
AcDbEntity
  8
0
100
AcDbLine
 62
250
  6
CONTINUOUS
 10
314.7403239459
 20
145.6716097438
 11
314.683558792
 21
145.6716097438
  0
LINE
  5
29C
100
AcDbEntity
  8
0
100
AcDbLine
 62
250
  6
CONTINUOUS
 10
314.4888073319
 20
145.6820785938
 11
314.0303380605
 21
145.6818604481
  0
LINE
  5
29D
100
AcDbEntity
  8
0
100
AcDbLine
 62
7
  6
CONTINUOUS
 10
326.2210123698
 20
145.4136871452
 11
326.1407571744
 21
145.4136729682
  0
LINE
  5
29E
100
AcDbEntity
  8
0
100
AcDbLine
 62
250
  6
CONTINUOUS
 10
326.0907953865
 20
145.4823005334
 11
325.8374802173
 21
145.4823526869
  0
LINE
  5
29F
100
AcDbEntity
  8
0
100
AcDbLine
 62
250
  6
CONTINUOUS
 10
326.1406160528
 20
145.6819190951
 11
325.6942758322
 21
145.6820785938
  0
LINE
  5
2A0
100
AcDbEntity
  8
0
100
AcDbLine
 62
250
  6
CONTINUOUS
 10
326.2009574115
 20
145.6815390174
 11
326.1406160528
 21
145.6819190951
  0
LINE
  5
2A1
100
AcDbEntity
  8
0
100
AcDbLine
 62
250
  6
CONTINUOUS
 10
326.2547759941
 20
145.6809414177
 11
326.2009574115
 21
145.6815390174
  0
LINE
  5
2A2
100
AcDbEntity
  8
0
100
AcDbLine
 62
7
  6
CONTINUOUS
 10
325.6395279319
 20
145.4622735521
 11
325.741541582
 21
145.4608410129
  0
LWPOLYLINE
  5
2A3
100
AcDbEntity
  8
0
100
AcDbPolyline
 62
250
  6
CONTINUOUS
 90
4
 70
0
 10
326.1509474614
 20
145.4815401898
 10
326.1372524539
 20
145.4818132471
 10
326.1227042505
 20
145.4820313434
 10
326.0907953865
 20
145.4823005334
  0
LWPOLYLINE
  5
2A4
100
AcDbEntity
  8
0
100
AcDbPolyline
 62
250
  6
CONTINUOUS
 90
3
 70
0
 10
326.3291745817
 20
145.6796593282
 10
326.304964309
 20
145.6801498976
 10
326.2547759941
 20
145.6809414177
  0
LWPOLYLINE
  5
2A5
100
AcDbEntity
  8
0
100
AcDbPolyline
 62
7
  6
CONTINUOUS
 90
19
 70
0
 10
330.7142901653
 20
145.0115274249
 10
330.7343282529
 20
145.01084542
 10
330.7539809205
 20
145.0082977951
 10
330.7730639881
 20
145.0039712455
 10
330.7914917956
 20
144.9979517248
 10
330.8090200131
 20
144.9903561636
 10
330.8252830925
 20
144.9814072415
 10
330.840099881
 20
144.9713858548
 10
330.8535396617
 20
144.9604211075
 10
330.8656610606
 20
144.9485456408
 10
330.8764636605
 20
144.9358778368
 10
330.8858983823
 20
144.9226010251
 10
330.893955542
 20
144.9088134478
 10
330.9006452965
 20
144.894670237
 10
330.9060126029
 20
144.8802872341
 10
330.9101090621
 20
144.8656878723
 10
330.9129757242
 20
144.8509471713
 10
330.9146559115
 20
144.8361962985
 10
330.9152039486
 20
144.8215256984
  0
LWPOLYLINE
  5
2A6
100
AcDbEntity
  8
0
100
AcDbPolyline
 62
7
  6
CONTINUOUS
 90
10
 70
0
 10
321.3142563265
 20
144.6159729369
 10
321.3381737924
 20
144.6150446858
 10
321.3610025711
 20
144.6124693677
 10
321.3827426625
 20
144.6082469833
 10
321.4033778002
 20
144.602354324
 10
321.4229242506
 20
144.5948146014
 10
321.4414308132
 20
144.5856974467
 10
321.4589137544
 20
144.5750260722
 10
321.4753568078
 20
144.562777271
 10
321.4907599733
 20
144.5489510465
  0
LINE
  5
2A7
100
AcDbEntity
  8
0
100
AcDbLine
 62
250
  6
CONTINUOUS
 10
314.5403544069
 20
145.4718838368
 11
314.3456029468
 21
145.4823526869
  0
LINE
  5
2A8
100
AcDbEntity
  8
0
100
AcDbLine
 62
250
  6
CONTINUOUS
 10
314.683558792
 20
145.6716097438
 11
314.4888073319
 21
145.6820785938
  0
LWPOLYLINE
  5
2A9
100
AcDbEntity
  8
0
100
AcDbPolyline
 62
250
  6
CONTINUOUS
 90
13
 70
0
 10
330.698251511
 20
144.8507365822
 10
330.7243431965
 20
144.849013947
 10
330.7499888774
 20
144.8439150192
 10
330.7747501732
 20
144.8355269586
 10
330.7982038209
 20
144.8239931483
 10
330.81994891
 20
144.8095107445
 10
330.839613736
 20
144.7923273065
 10
330.8568621534
 20
144.7727365637
 10
330.8713993224
 20
144.7510733947
 10
330.8829767486
 20
144.7277081046
 10
330.8913965305
 20
144.7030400936
 10
330.8965147427
 20
144.6774910299
 10
330.8982438956
 20
144.6514976425
  0
LWPOLYLINE
  5
2AA
100
AcDbEntity
  8
0
100
AcDbPolyline
 62
250
  6
CONTINUOUS
 90
13
 70
0
 10
313.9097960966
 20
145.4724196933
 10
313.8837717363
 20
145.474193713
 10
313.8581911104
 20
145.479342959
 10
313.8334903874
 20
145.4877796328
 10
313.8100907329
 20
145.4993598826
 10
313.7883911285
 20
145.5138862567
 10
313.7687615689
 20
145.5311110702
 10
313.7515367525
 20
145.5507406272
 10
313.7370103754
 20
145.5724402292
 10
313.725430124
 20
145.5958398829
 10
313.7169934505
 20
145.620540607
 10
313.7118442062
 20
145.6461212357
 10
313.7100701897
 20
145.6721456002
  0
LWPOLYLINE
  5
2AB
100
AcDbEntity
  8
0
100
AcDbPolyline
 62
7
  6
CONTINUOUS
 90
9
 70
0
 10
314.0777348908
 20
145.4118526853
 10
314.0751162182
 20
145.4122946198
 10
314.071572367
 20
145.4126772191
 10
314.0671033373
 20
145.4130004833
 10
314.0614583512
 20
145.4132651537
 10
314.0548881866
 20
145.4134704889
 10
314.0481451769
 20
145.4136142647
 10
314.0415577904
 20
145.4136774328
 10
313.9625929887
 20
145.4136911494
  0
LINE
  5
2AC
100
AcDbEntity
  8
0
100
AcDbLine
 62
7
  6
CONTINUOUS
 10
320.8589356106
 20
144.3785922535
 11
321.0431103867
 21
144.3458501704
  0
LINE
  5
2AD
100
AcDbEntity
  8
0
100
AcDbLine
 62
7
  6
CONTINUOUS
 10
314.1496874374
 20
145.3899625782
 11
314.0777348908
 21
145.4118526853
  0
LINE
  5
2AE
100
AcDbEntity
  8
0
100
AcDbLine
 62
7
  6
CONTINUOUS
 10
314.397653451
 20
145.3131240968
 11
314.1496874374
 21
145.3899625782
  0
LINE
  5
2AF
100
AcDbEntity
  8
0
100
AcDbLine
 62
7
  6
CONTINUOUS
 10
310.331471402
 20
148.3428201638
 11
310.2944309172
 21
148.3551569596
  0
LWPOLYLINE
  5
2B0
100
AcDbEntity
  8
0
100
AcDbPolyline
 62
250
  6
CONTINUOUS
 90
13
 70
0
 10
314.3280288048
 20
146.5539439833
 10
314.3258670224
 20
146.5548954129
 10
314.3235923927
 20
146.555782184
 10
314.3212049158
 20
146.5566042964
 10
314.318729068
 20
146.5573616066
 10
314.316140373
 20
146.5580542583
 10
314.3133654017
 20
146.5586826818
 10
314.3103790646
 20
146.5592593312
 10
314.3072064512
 20
146.5597717525
 10
314.3038494007
 20
146.5601830133
 10
314.3003085261
 20
146.5604808029
 10
314.2965832145
 20
146.5606774321
 10
314.2926734658
 20
146.5607729008
  0
LINE
  5
2B1
100
AcDbEntity
  8
0
100
AcDbLine
 62
250
  6
CONTINUOUS
 10
314.7747845967
 20
146.3456183362
 11
314.3280288048
 21
146.5539439833
  0
LINE
  5
2B2
100
AcDbEntity
  8
0
100
AcDbLine
 62
250
  6
CONTINUOUS
 10
314.8808506138
 20
146.4815645043
 11
314.434096008
 21
146.6898895983
  0
LINE
  5
2B3
100
AcDbEntity
  8
0
100
AcDbLine
 62
7
  6
CONTINUOUS
 10
314.683558792
 20
146.3399600251
 11
314.4888073319
 21
146.4331085046
  0
LWPOLYLINE
  5
2B4
100
AcDbEntity
  8
0
100
AcDbPolyline
 62
250
  6
CONTINUOUS
 90
19
 70
0
 10
309.2291050489
 20
137.321423045
 10
309.2341721486
 20
137.276435193
 10
309.2432257308
 20
137.2324023869
 10
309.2560851077
 20
137.1896575683
 10
309.272656546
 20
137.1482855569
 10
309.2926410408
 20
137.1088152082
 10
309.3153527734
 20
137.0721341372
 10
309.340297188
 20
137.0385304379
 10
309.3671578627
 20
137.0079240655
 10
309.3953302088
 20
136.9804672469
 10
309.4240438378
 20
136.9564183271
 10
309.4533121805
 20
136.9353523834
 10
309.4838488945
 20
136.9165021449
 10
309.5154028684
 20
136.899947591
 10
309.5478811571
 20
136.8857352866
 10
309.5824662349
 20
136.8734832916
 10
309.6195062456
 20
136.8633981898
 10
309.6584015013
 20
136.855983953
 10
309.6989494588
 20
136.8515748341
  0
LWPOLYLINE
  5
2B5
100
AcDbEntity
  8
0
100
AcDbPolyline
 62
250
  6
CONTINUOUS
 90
19
 70
0
 10
309.5110109346
 20
137.3214211445
 10
309.512020684
 20
137.3020669263
 10
309.514614046
 20
137.2834942669
 10
309.5187910206
 20
137.2657031663
 10
309.5247230877
 20
137.2485215023
 10
309.5322387674
 20
137.232121397
 10
309.5408236195
 20
137.2170192169
 10
309.5504974471
 20
137.2033707593
 10
309.5612404471
 20
137.1910202269
 10
309.5724787706
 20
137.1800165938
 10
309.584003549
 20
137.1704817438
 10
309.5960236508
 20
137.1622937931
 10
309.6085918328
 20
137.1551360651
 10
309.6216022235
 20
137.1488922012
 10
309.6351606943
 20
137.1436785601
 10
309.6496376162
 20
137.1395275414
 10
309.665156446
 20
137.1364499452
 10
309.6815937269
 20
137.1344349715
 10
309.6989494588
 20
137.1334826204
  0
LWPOLYLINE
  5
2B6
100
AcDbEntity
  8
0
100
AcDbPolyline
 62
7
  6
CONTINUOUS
 90
10
 70
0
 10
313.7100701897
 20
171.0761814434
 10
313.7150163312
 20
171.0853823053
 10
313.7246640316
 20
171.0940060326
 10
313.7384555465
 20
171.1013534426
 10
313.7556560785
 20
171.1067795152
 10
313.7756093016
 20
171.1099858474
 10
313.7979124211
 20
171.1108829856
 10
313.8220371848
 20
171.1092314047
 10
313.8472108126
 20
171.1047786053
 10
313.8727527973
 20
171.0974527314
  0
LWPOLYLINE
  5
2B7
100
AcDbEntity
  8
0
100
AcDbPolyline
 62
250
  6
CONTINUOUS
 90
16
 70
0
 10
313.9236782237
 20
172.1106796711
 10
313.9306554496
 20
172.1207455937
 10
313.9389974133
 20
172.1297693201
 10
313.9485408676
 20
172.1375608499
 10
313.9591031988
 20
172.1439395549
 10
313.9704597351
 20
172.1487874054
 10
313.982371968
 20
172.1520604546
 10
313.9946200952
 20
172.15371559
 10
314.0069817711
 20
172.1537029135
 10
314.0192257579
 20
172.1520226785
 10
314.0311356743
 20
172.1487232069
 10
314.0424853468
 20
172.1438491415
 10
314.0530210659
 20
172.1374564274
 10
314.0625187977
 20
172.1296739672
 10
314.0708085166
 20
172.1206840791
 10
314.0777351585
 20
172.1106795023
  0
LINE
  5
2B8
100
AcDbEntity
  8
0
100
AcDbLine
 62
250
  6
CONTINUOUS
 10
313.7257925235
 20
168.687867934
 11
313.5989167287
 21
168.5609921392
  0
LWPOLYLINE
  5
2B9
100
AcDbEntity
  8
0
100
AcDbPolyline
 62
7
  6
CONTINUOUS
 90
43
 70
0
 10
323.4349341688
 20
177.2716833959
 10
323.4555746705
 20
177.289080227
 10
323.4660787316
 20
177.2982103859
 10
323.476679318
 20
177.3078174517
 10
323.4874171384
 20
177.3178676994
 10
323.4982514841
 20
177.3283948518
 10
323.50906019
 20
177.3396019552
 10
323.5198607135
 20
177.3515095339
 10
323.5306355971
 20
177.3640970599
 10
323.5412103023
 20
177.377506
 10
323.5515676146
 20
177.3917610209
 10
323.5617247486
 20
177.4068374506
 10
323.5715588094
 20
177.4228027469
 10
323.5810911033
 20
177.4396851886
 10
323.5903003241
 20
177.4574564901
 10
323.598999658
 20
177.4760992631
 10
323.60719297
 20
177.4955917431
 10
323.6148763952
 20
177.5159556869
 10
323.6218515253
 20
177.5372389875
 10
323.6281255977
 20
177.5594081429
 10
323.6336913751
 20
177.5824966461
 10
323.6383287365
 20
177.6066528813
 10
323.6420623569
 20
177.6319176177
 10
323.6448675613
 20
177.6582500738
 10
323.6464502047
 20
177.6856763066
 10
323.6468758145
 20
177.7142344393
 10
323.6460788632
 20
177.7438863344
 10
323.6435686236
 20
177.7745436572
 10
323.6393915488
 20
177.8064540519
 10
323.6335011856
 20
177.8393698586
 10
323.6252674483
 20
177.8724597926
 10
323.614559592
 20
177.905745063
 10
323.6015083616
 20
177.9392044577
 10
323.5858759047
 20
177.9719430745
 10
323.5675604408
 20
178.0039210512
 10
323.5466637506
 20
178.0351782608
 10
323.5232533238
 20
178.0649394151
 10
323.4970935543
 20
178.0933209078
 10
323.4684200483
 20
178.1202063648
 10
323.4380071135
 20
178.1444713584
 10
323.4061128526
 20
178.1657410917
 10
323.372479163
 20
178.1843903907
 10
323.3371060446
 20
178.2004192669
  0
LINE
  5
2BA
100
AcDbEntity
  8
0
100
AcDbLine
 62
7
  6
CONTINUOUS
 10
329.8601967507
 20
175.2456795014
 11
329.9069949696
 21
175.2612662323
  0
LWPOLYLINE
  5
2BB
100
AcDbEntity
  8
0
100
AcDbPolyline
 62
250
  6
CONTINUOUS
 90
13
 70
0
 10
314.5403544069
 20
145.4718838368
 10
314.5586345625
 20
145.4744470253
 10
314.5766157504
 20
145.4802316842
 10
314.5940041926
 20
145.4891431497
 10
314.6105149572
 20
145.5010349599
 10
314.6258793195
 20
145.5157131084
 10
314.63984848
 20
145.5329406667
 10
314.6521979232
 20
145.552445077
 10
314.6627192188
 20
145.5739020492
 10
314.6712319581
 20
145.5969377096
 10
314.677600581
 20
145.6211640085
 10
314.681730001
 20
145.6461909314
 10
314.683558792
 20
145.6716097438
  0
LWPOLYLINE
  5
2BC
100
AcDbEntity
  8
0
100
AcDbPolyline
 62
250
  6
CONTINUOUS
 90
13
 70
0
 10
314.3456029468
 20
145.4823526869
 10
314.3638913912
 20
145.4849177839
 10
314.3818795365
 20
145.4907068704
 10
314.3992733233
 20
145.4996246386
 10
314.4157877556
 20
145.5115240354
 10
314.4311539214
 20
145.5262103118
 10
314.4451227941
 20
145.5434454953
 10
314.4574706579
 20
145.5629572707
 10
314.4679887112
 20
145.5844198974
 10
314.4764957585
 20
145.6074550523
 10
314.4828575551
 20
145.6316724516
 10
314.4869812911
 20
145.6566830825
 10
314.4888073319
 20
145.6820785938
  0
LINE
  5
2BD
100
AcDbEntity
  8
0
100
AcDbLine
 62
7
  6
CONTINUOUS
 10
314.7424726415
 20
146.2190819984
 11
314.793318507
 21
146.2254350246
  0
LWPOLYLINE
  5
2BE
100
AcDbEntity
  8
0
100
AcDbPolyline
 62
250
  6
CONTINUOUS
 90
19
 70
0
 10
325.3022325502
 20
146.4815645043
 10
325.2972810535
 20
146.4809660126
 10
325.2924457183
 20
146.4803380268
 10
325.2877414997
 20
146.4796805467
 10
325.2831951147
 20
146.4789954276
 10
325.2788098167
 20
146.4782808143
 10
325.2745711968
 20
146.4775311413
 10
325.2704991188
 20
146.4767459388
 10
325.2666189429
 20
146.4759256766
 10
325.2629354812
 20
146.4750661993
 10
325.2594775403
 20
146.4741669296
 10
325.2562757458
 20
146.4732284448
 10
325.2533485959
 20
146.4722483212
 10
325.2507325747
 20
146.4712258757
 10
325.2484666409
 20
146.4701617915
 10
325.2465840258
 20
146.469055694
 10
325.2451279304
 20
146.4679074587
 10
325.2441461338
 20
146.4667172101
 10
325.2436843674
 20
146.4654849484
  0
LWPOLYLINE
  5
2BF
100
AcDbEntity
  8
0
100
AcDbPolyline
 62
250
  6
CONTINUOUS
 90
10
 70
0
 10
326.3074962104
 20
146.4502971506
 10
326.3331507177
 20
146.4528197311
 10
326.3580476862
 20
146.4592830619
 10
326.3814517405
 20
146.469496325
 10
326.4026715955
 20
146.483157936
 10
326.4210804094
 20
146.4998644487
 10
326.4361343314
 20
146.5191224401
 10
326.4473886527
 20
146.5403630991
 10
326.4545109156
 20
146.5629590524
 10
326.4572906902
 20
146.5862428773
  0
LWPOLYLINE
  5
2C0
100
AcDbEntity
  8
0
100
AcDbPolyline
 62
250
  6
CONTINUOUS
 90
10
 70
0
 10
314.7894216424
 20
146.3295387804
 10
314.8153445645
 20
146.3317581182
 10
314.8404871901
 20
146.3380027072
 10
314.8640927125
 20
146.3480845807
 10
314.8854505934
 20
146.3617002676
 10
314.9039179493
 20
146.3784399276
 10
314.9189389031
 20
146.3977996874
 10
314.9300613174
 20
146.4191968072
 10
314.9369504034
 20
146.4419872216
 10
314.9393987974
 20
146.4654849269
  0
LWPOLYLINE
  5
2C1
100
AcDbEntity
  8
0
100
AcDbPolyline
 62
250
  6
CONTINUOUS
 90
13
 70
0
 10
314.5403544069
 20
145.4718838368
 10
314.5664644514
 20
145.4736174927
 10
314.5921256673
 20
145.4787406607
 10
314.6168988894
 20
145.4871649317
 10
314.6403593654
 20
145.498744886
 10
314.6621069765
 20
145.5132819922
 10
314.6817723032
 20
145.5305292133
 10
314.6990248696
 20
145.550200175
 10
314.713560394
 20
145.5719518954
 10
314.7251185764
 20
145.5953858877
 10
314.7335088102
 20
145.6200877946
 10
314.7386027258
 20
145.6456413341
 10
314.7403239459
 20
145.6716097438
  0
LWPOLYLINE
  5
2C2
100
AcDbEntity
  8
0
100
AcDbPolyline
 62
250
  6
CONTINUOUS
 90
9
 70
0
 10
313.7957816934
 20
145.6781041052
 10
313.7784245601
 20
145.6774791526
 10
313.7628778854
 20
145.6768268748
 10
313.749230414
 20
145.6761523238
 10
313.7375254033
 20
145.6754504475
 10
313.727451326
 20
145.6747008742
 10
313.7192272788
 20
145.6738968132
 10
313.7133252083
 20
145.6730450553
 10
313.7100701897
 20
145.6721456002
  0
LINE
  5
2C3
100
AcDbEntity
  8
0
100
AcDbLine
 62
250
  6
CONTINUOUS
 10
313.8382619787
 20
145.6792986135
 11
313.7957816934
 21
145.6781041052
  0
LWPOLYLINE
  5
2C4
100
AcDbEntity
  8
0
100
AcDbPolyline
 62
250
  6
CONTINUOUS
 90
19
 70
0
 10
314.1252443374
 20
146.5607729008
 10
314.1009758125
 20
146.5601649485
 10
314.077475857
 20
146.5585878401
 10
314.0547444709
 20
146.5560415756
 10
314.0324870037
 20
146.552403473
 10
314.0109981059
 20
146.5477962143
 10
313.9911617288
 20
146.5425878459
 10
313.9732659958
 20
146.5367871072
 10
313.9570227834
 20
146.5303852586
 10
313.9424516739
 20
146.523724128
 10
313.9296977531
 20
146.516929085
 10
313.9186159351
 20
146.5098747598
 10
313.9087905434
 20
146.5025268716
 10
313.9000757912
 20
146.4949446972
 10
313.8926174653
 20
146.4870689598
 10
313.8864372502
 20
146.4786875476
 10
313.8815423739
 20
146.4697297567
 10
313.8779256084
 20
146.460266291
 10
313.8755869537
 20
146.4502971506
  0
LWPOLYLINE
  5
2C5
100
AcDbEntity
  8
0
100
AcDbPolyline
 62
250
  6
CONTINUOUS
 90
15
 70
0
 10
325.8609343864
 20
146.6964643891
 10
325.8533664675
 20
146.6963167898
 10
325.8456782049
 20
146.6961284895
 10
325.8378801568
 20
146.6959001305
 10
325.8299959238
 20
146.6956310707
 10
325.8220037584
 20
146.6953129023
 10
325.8139237242
 20
146.6949458313
 10
325.8057849376
 20
146.6945296518
 10
325.7975860399
 20
146.6940553383
 10
325.7893565766
 20
146.6935228628
 10
325.7811357426
 20
146.6929322534
 10
325.7729445407
 20
146.6922745694
 10
325.7648210929
 20
146.6915468305
 10
325.7568187725
 20
146.6907520171
 10
325.7489881348
 20
146.6898901291
  0
LWPOLYLINE
  5
2C6
100
AcDbEntity
  8
0
100
AcDbPolyline
 62
250
  6
CONTINUOUS
 90
19
 70
0
 10
314.1252443374
 20
146.6967190658
 10
314.0869341698
 20
146.6961097435
 10
314.0492236719
 20
146.6945317174
 10
314.0124447676
 20
146.6919849876
 10
313.9766268201
 20
146.6883470665
 10
313.9423674761
 20
146.6837404417
 10
313.9107123524
 20
146.6785325751
 10
313.8819976022
 20
146.6727319769
 10
313.8560101961
 20
146.666330137
 10
313.8327762652
 20
146.6596689862
 10
313.8124748413
 20
146.6528737704
 10
313.7947409958
 20
146.6458192438
 10
313.7789184484
 20
146.6384716004
 10
313.7650900815
 20
146.6308906589
 10
313.7532769627
 20
146.6230166005
 10
313.7431527965
 20
146.6146361636
 10
313.7349204211
 20
146.6056782606
 10
313.7290324342
 20
146.5962139789
 10
313.7257925235
 20
146.5862433186
  0
LWPOLYLINE
  5
2C7
100
AcDbEntity
  8
0
100
AcDbPolyline
 62
250
  6
CONTINUOUS
 90
19
 70
0
 10
325.8904096983
 20
146.5607729008
 10
325.8885992903
 20
146.5607600567
 10
325.8867675207
 20
146.5607129749
 10
325.8849143893
 20
146.5606316554
 10
325.8830413331
 20
146.5605182471
 10
325.8811469152
 20
146.5603706011
 10
325.8792268253
 20
146.5601822711
 10
325.8772779516
 20
146.5599538998
 10
325.875303406
 20
146.5596848444
 10
325.8733082134
 20
146.5593667301
 10
325.8712892376
 20
146.5589998472
 10
325.8692496147
 20
146.5585839054
 10
325.8672037779
 20
146.5581096584
 10
325.8651481222
 20
146.5575768868
 10
325.8630862526
 20
146.55698581
 10
325.8610434167
 20
146.55632784
 10
325.8590280304
 20
146.5556001143
 10
325.857031678
 20
146.5548054953
 10
325.8550543592
 20
146.5539439833
  0
LWPOLYLINE
  5
2C8
100
AcDbEntity
  8
0
100
AcDbPolyline
 62
250
  6
CONTINUOUS
 90
3
 70
0
 10
325.8831873162
 20
146.6967061887
 10
325.8758567084
 20
146.6966590886
 10
325.8609343864
 20
146.6964643891
  0
LINE
  5
2C9
100
AcDbEntity
  8
0
100
AcDbLine
 62
7
  6
CONTINUOUS
 10
326.0735611605
 20
146.4612662323
 11
325.8374802173
 21
146.4612662323
  0
LINE
  5
2CA
100
AcDbEntity
  8
0
100
AcDbLine
 62
7
  6
CONTINUOUS
 10
314.3456029468
 20
146.4612662323
 11
314.1095220036
 21
146.4612662323
  0
LINE
  5
2CB
100
AcDbEntity
  8
0
100
AcDbLine
 62
250
  6
CONTINUOUS
 10
326.0578388267
 20
146.5607729008
 11
325.8904096983
 21
146.5607729008
  0
LINE
  5
2CC
100
AcDbEntity
  8
0
100
AcDbLine
 62
250
  6
CONTINUOUS
 10
314.2926734658
 20
146.5607729008
 11
314.1252443374
 21
146.5607729008
  0
LINE
  5
2CD
100
AcDbEntity
  8
0
100
AcDbLine
 62
250
  6
CONTINUOUS
 10
326.0578388267
 20
146.6967190689
 11
325.8831873162
 21
146.6967061887
  0
LINE
  5
2CE
100
AcDbEntity
  8
0
100
AcDbLine
 62
250
  6
CONTINUOUS
 10
314.2926734658
 20
146.6967190689
 11
314.1252443374
 21
146.6967190689
  0
LWPOLYLINE
  5
2CF
100
AcDbEntity
  8
0
100
AcDbPolyline
 62
250
  6
CONTINUOUS
 90
13
 70
0
 10
325.6427287572
 20
145.4718838368
 10
325.6166189106
 20
145.4736174665
 10
325.5909578879
 20
145.4787405556
 10
325.5661848435
 20
145.4871646958
 10
325.542724551
 20
145.4987444514
 10
325.5209770818
 20
145.5132813059
 10
325.501311767
 20
145.5305283071
 10
325.4840590785
 20
145.5501991534
 10
325.4695233651
 20
145.5719508649
 10
325.4579649742
 20
145.5953849546
 10
325.4495745495
 20
145.6200870651
 10
325.4444804931
 20
145.6456409191
 10
325.4427592181
 20
145.6716097438
  0
LWPOLYLINE
  5
2D0
100
AcDbEntity
  8
0
100
AcDbPolyline
 62
250
  6
CONTINUOUS
 90
10
 70
0
 10
325.3936615217
 20
146.3295387804
 10
325.3677386093
 20
146.3317581185
 10
325.3425959904
 20
146.3380027057
 10
325.3189904714
 20
146.3480845766
 10
325.297632591
 20
146.3617002613
 10
325.2791652328
 20
146.3784399206
 10
325.2641442742
 20
146.3977996823
 10
325.2530218542
 20
146.4191968073
 10
325.2461327635
 20
146.4419872307
 10
325.2436843674
 20
146.4654849484
  0
LWPOLYLINE
  5
2D1
100
AcDbEntity
  8
0
100
AcDbPolyline
 62
250
  6
CONTINUOUS
 90
10
 70
0
 10
313.8755869537
 20
146.4502971506
 10
313.8499317932
 20
146.4528198472
 10
313.8250344038
 20
146.4592834378
 10
313.8016301763
 20
146.4694970078
 10
313.7804103957
 20
146.4831588559
 10
313.7620018301
 20
146.4998654749
 10
313.7469482187
 20
146.5191234712
 10
313.7356942003
 20
146.540364046
 10
313.7285721811
 20
146.5629597968
 10
313.7257925235
 20
146.5862433186
  0
LWPOLYLINE
  5
2D2
100
AcDbEntity
  8
0
100
AcDbPolyline
 62
250
  6
CONTINUOUS
 90
13
 70
0
 10
314.434096008
 20
146.6898900261
 10
314.4254954551
 20
146.6908416381
 10
314.4163879301
 20
146.6917284778
 10
314.4067992703
 20
146.6925505451
 10
314.3968726503
 20
146.6933076824
 10
314.386531819
 20
146.6940000473
 10
314.3754411761
 20
146.6946281124
 10
314.3635043305
 20
146.6952041864
 10
314.3508328097
 20
146.6957159606
 10
314.337377146
 20
146.6961269814
 10
314.3231479624
 20
146.6964250974
 10
314.3082232449
 20
146.6966224599
 10
314.2926734658
 20
146.6967190689
  0
LINE
  5
2D3
100
AcDbEntity
  8
0
100
AcDbLine
 62
7
  6
CONTINUOUS
 10
325.3897646571
 20
146.2254350246
 11
325.4406105226
 21
146.2190819984
  0
LWPOLYLINE
  5
2D4
100
AcDbEntity
  8
0
100
AcDbPolyline
 62
250
  6
CONTINUOUS
 90
16
 70
0
 10
329.7688719023
 20
144.6514976425
 10
329.7629400685
 20
144.6522649761
 10
329.7575974624
 20
144.6530202426
 10
329.7528160794
 20
144.653763442
 10
329.7485687882
 20
144.6544953866
 10
329.7448257899
 20
144.6552152642
 10
329.7415558795
 20
144.6559206379
 10
329.7387312781
 20
144.6566113499
 10
329.7363253408
 20
144.657287558
 10
329.7343102729
 20
144.6579472994
 10
329.7326596926
 20
144.658590421
 10
329.7313481165
 20
144.659217076
 10
329.7303501734
 20
144.6598257612
 10
329.7296410862
 20
144.6604159755
 10
329.7291966763
 20
144.6609882201
 10
329.728993361
 20
144.6615424949
  0
LWPOLYLINE
  5
2D5
100
AcDbEntity
  8
0
100
AcDbPolyline
 62
250
  6
CONTINUOUS
 90
13
 70
0
 10
325.6427287572
 20
145.4718838368
 10
325.6244484928
 20
145.4744470503
 10
325.6064672019
 20
145.4802317722
 10
325.5890786677
 20
145.4891433361
 10
325.5725678119
 20
145.5010352892
 10
325.5572033809
 20
145.5157136128
 10
325.5432342161
 20
145.5329413198
 10
325.5308848357
 20
145.5524458026
 10
325.5203636365
 20
145.5739027709
 10
325.5118510025
 20
145.5969383559
 10
325.5054824762
 20
145.6211645102
 10
325.5013531295
 20
145.6461912154
 10
325.499524372
 20
145.6716097438
  0
LWPOLYLINE
  5
2D6
100
AcDbEntity
  8
0
100
AcDbPolyline
 62
250
  6
CONTINUOUS
 90
13
 70
0
 10
325.8374802173
 20
145.4823526869
 10
325.8191919236
 20
145.4849177492
 10
325.8012039251
 20
145.4907067467
 10
325.7838102733
 20
145.4996243731
 10
325.7672959802
 20
145.5115235586
 10
325.7519299235
 20
145.5262095709
 10
325.737961064
 20
145.5434445262
 10
325.7256131141
 20
145.5629561814
 10
325.7150949231
 20
145.5844187975
 10
325.7065877193
 20
145.6074540548
 10
325.7002257751
 20
145.6316716714
 10
325.6961019254
 20
145.6566826383
 10
325.6942758322
 20
145.6820785938
  0
LWPOLYLINE
  5
2D7
100
AcDbEntity
  8
0
100
AcDbPolyline
 62
7
  6
CONTINUOUS
 90
8
 70
0
 10
310.331471402
 20
148.3428201638
 10
310.3347337786
 20
148.3422851612
 10
310.3408616312
 20
148.3417684687
 10
310.3498549598
 20
148.3412700864
 10
310.3618724428
 20
148.3407851177
 10
310.3767554018
 20
148.3403184592
 10
310.3940278021
 20
148.3398848005
 10
310.4358245078
 20
148.3391194573
  0
LWPOLYLINE
  5
2D8
100
AcDbEntity
  8
0
100
AcDbPolyline
 62
7
  6
CONTINUOUS
 90
8
 70
0
 10
326.2594047748
 20
145.4118526854
 10
326.2569407721
 20
145.4122902167
 10
326.2534287522
 20
145.4126709715
 10
326.2488687151
 20
145.4129949497
 10
326.2430879833
 20
145.4132648366
 10
326.2362592342
 20
145.4134779469
 10
326.2289005003
 20
145.4136262251
 10
326.2210123698
 20
145.4136871452
  0
LWPOLYLINE
  5
2D9
100
AcDbEntity
  8
0
100
AcDbPolyline
 62
250
  6
CONTINUOUS
 90
16
 70
0
 10
329.9529128704
 20
144.8507365822
 10
329.9493819973
 20
144.8515038817
 10
329.9461708325
 20
144.8522591294
 10
329.9432793761
 20
144.8530023252
 10
329.9407249843
 20
144.8537342909
 10
329.9384903009
 20
144.8544542047
 10
329.9365232569
 20
144.855159601
 10
329.9348226979
 20
144.8558503047
 10
329.9333897784
 20
144.8565264908
 10
329.9321758927
 20
144.8571862189
 10
329.9311799994
 20
144.8578293477
 10
329.93040314
 20
144.8584560185
 10
329.9297998331
 20
144.8590647142
 10
329.9293549181
 20
144.8596549293
 10
329.9290835556
 20
144.8602271694
 10
329.9289857456
 20
144.8607814345
  0
LWPOLYLINE
  5
2DA
100
AcDbEntity
  8
0
100
AcDbPolyline
 62
7
  6
CONTINUOUS
 90
10
 70
0
 10
321.5361859684
 20
144.7139936006
 10
321.512212922
 20
144.7252839596
 10
321.4880338705
 20
144.7352188629
 10
321.4636488139
 20
144.7437983085
 10
321.4391632608
 20
144.7510002509
 10
321.4144717026
 20
144.7568467318
 10
321.3892576133
 20
144.7614038801
 10
321.3634154843
 20
144.7646937382
 10
321.3370508243
 20
144.766694262
 10
321.3101636332
 20
144.7674054511
  0
LWPOLYLINE
  5
2DB
100
AcDbEntity
  8
0
100
AcDbPolyline
 62
250
  6
CONTINUOUS
 90
16
 70
0
 10
313.9255184304
 20
149.0343904375
 10
313.9277378597
 20
149.0333276416
 10
313.9317308794
 20
149.0323063679
 10
313.9374974897
 20
149.0313266166
 10
313.9450963486
 20
149.030383334
 10
313.9544687981
 20
149.0294815737
 10
313.9654388635
 20
149.0286364962
 10
313.9780193379
 20
149.0278457691
 10
313.9921974281
 20
149.0271117249
 10
314.0077587811
 20
149.026456522
 10
314.0247987002
 20
149.0258789482
 10
314.0432218819
 20
149.0253802158
 10
314.0625280629
 20
149.0249861196
 10
314.0825504885
 20
149.0247052581
 10
314.1034559133
 20
149.0245290329
 10
314.2926734658
 20
149.0244574439
  0
LINE
  5
2DC
100
AcDbEntity
  8
0
100
AcDbLine
 62
250
  6
CONTINUOUS
 10
313.5989167287
 20
148.9615403253
 11
313.7257925235
 21
148.8346645306
  0
LWPOLYLINE
  5
2DD
100
AcDbEntity
  8
0
100
AcDbPolyline
 62
7
  6
CONTINUOUS
 90
7
 70
0
 10
313.5798382566
 20
145.4086669706
 10
313.5710834772
 20
145.4245526875
 10
313.5637964572
 20
145.4411956295
 10
313.5580449555
 20
145.458461692
 10
313.5538845358
 20
145.4762104911
 10
313.5513579565
 20
145.494296471
 10
313.5504946601
 20
145.5125700706
  0
LINE
  5
2DE
100
AcDbEntity
  8
0
100
AcDbLine
 62
7
  6
CONTINUOUS
 10
314.479390582
 20
139.8243682323
 11
314.120762582
 21
140.8862662323
  0
LINE
  5
2DF
100
AcDbEntity
  8
0
100
AcDbLine
 62
7
  6
CONTINUOUS
 10
314.042402582
 20
140.6843862323
 11
314.394103582
 21
139.6362662323
  0
LINE
  5
2E0
100
AcDbEntity
  8
0
100
AcDbLine
 62
250
  6
CONTINUOUS
 10
310.3143071362
 20
179.6112662323
 11
310.3214091096
 21
176.0763609287
  0
LINE
  5
2E1
100
AcDbEntity
  8
0
100
AcDbLine
 62
250
  6
CONTINUOUS
 10
310.3228864134
 20
175.2456795014
 11
310.331471402
 21
169.1797123007
  0
LINE
  5
2E2
100
AcDbEntity
  8
0
100
AcDbLine
 62
250
  6
CONTINUOUS
 10
310.332371394
 20
168.3233257555
 11
310.3333803221
 21
167.2612662323
  0
LINE
  5
2E3
100
AcDbEntity
  8
0
100
AcDbLine
 62
7
  6
CONTINUOUS
 10
309.068963556
 20
137.1916640938
 11
309.068963556
 21
180.3308683707
  0
LINE
  5
2E4
100
AcDbEntity
  8
0
100
AcDbLine
 62
7
  6
CONTINUOUS
 10
309.118963556
 20
180.3112509124
 11
309.118963556
 21
137.2112815522
  0
LINE
  5
2E5
100
AcDbEntity
  8
0
100
AcDbLine
 62
250
  6
CONTINUOUS
 10
309.2291031484
 20
180.20111132
 11
309.2291031484
 21
137.3214211445
  0
LINE
  5
2E6
100
AcDbEntity
  8
0
100
AcDbLine
 62
250
  6
CONTINUOUS
 10
309.5110109346
 20
180.20111132
 11
309.5110109346
 21
137.3214211445
  0
LINE
  5
2E7
100
AcDbEntity
  8
0
100
AcDbLine
 62
250
  6
CONTINUOUS
 10
309.6989494588
 20
137.1334826204
 11
309.6989494588
 21
136.8515748341
  0
LINE
  5
2E8
100
AcDbEntity
  8
0
100
AcDbLine
 62
250
  6
CONTINUOUS
 10
309.6989494588
 20
180.3890498442
 11
309.6989494588
 21
180.6709576304
  0
LINE
  5
2E9
100
AcDbEntity
  8
0
100
AcDbLine
 62
7
  6
CONTINUOUS
 10
310.231541582
 20
179.6112662323
 11
310.231541582
 21
137.9112662323
  0
LINE
  5
2EA
100
AcDbEntity
  8
0
100
AcDbLine
 62
7
  6
CONTINUOUS
 10
310.2760881944
 20
176.0612662323
 11
310.2760881944
 21
175.2612662323
  0
LINE
  5
2EB
100
AcDbEntity
  8
0
100
AcDbLine
 62
7
  6
CONTINUOUS
 10
310.2760881944
 20
142.2612662323
 11
310.2760881944
 21
141.4612662323
  0
LINE
  5
2EC
100
AcDbEntity
  8
0
100
AcDbLine
 62
7
  6
CONTINUOUS
 10
310.2944309172
 20
169.167375505
 11
310.2944309172
 21
168.3612662323
  0
LINE
  5
2ED
100
AcDbEntity
  8
0
100
AcDbLine
 62
7
  6
CONTINUOUS
 10
310.2944309172
 20
149.1612662323
 11
310.2944309172
 21
148.3551569596
  0
LINE
  5
2EE
100
AcDbEntity
  8
0
100
AcDbLine
 62
250
  6
CONTINUOUS
 10
310.3333803235
 20
150.2612662323
 11
310.332371394
 21
149.1992067091
  0
LINE
  5
2EF
100
AcDbEntity
  8
0
100
AcDbLine
 62
250
  6
CONTINUOUS
 10
310.331471402
 20
148.3428201638
 11
310.3228864134
 21
142.2768529631
  0
LINE
  5
2F0
100
AcDbEntity
  8
0
100
AcDbLine
 62
250
  6
CONTINUOUS
 10
310.3214091096
 20
141.4461715359
 11
310.3143071378
 21
137.9112662323
  0
LINE
  5
2F1
100
AcDbEntity
  8
0
100
AcDbLine
 62
250
  6
CONTINUOUS
 10
313.9255184304
 20
168.4881420271
 11
313.7986426357
 21
168.3612662323
  0
LINE
  5
2F2
100
AcDbEntity
  8
0
100
AcDbLine
 62
7
  6
CONTINUOUS
 10
326.3666118322
 20
172.1434375361
 11
326.2940933467
 21
172.1211690356
  0
LINE
  5
2F3
100
AcDbEntity
  8
0
100
AcDbLine
 62
7
  6
CONTINUOUS
 10
326.2940933467
 20
172.1211690356
 11
326.2594048477
 21
172.1106797871
  0
LWPOLYLINE
  5
2F4
100
AcDbEntity
  8
0
100
AcDbPolyline
 62
7
  6
CONTINUOUS
 90
43
 70
0
 10
326.3666118322
 20
172.1434375361
 10
326.3756033475
 20
172.1461041124
 10
326.3843718857
 20
172.1484947764
 10
326.392912333
 20
172.1506213284
 10
326.4012107544
 20
172.1524924671
 10
326.4092729177
 20
172.1541230408
 10
326.4171240356
 20
172.1555323667
 10
326.424760824
 20
172.1567302538
 10
326.4321813628
 20
172.1577262266
 10
326.439413106
 20
172.1585359829
 10
326.4464532515
 20
172.1591675671
 10
326.4533012409
 20
172.1596285035
 10
326.4599876082
 20
172.1599304573
 10
326.4665106417
 20
172.1600797726
 10
326.4728695002
 20
172.1600818793
 10
326.4790952806
 20
172.1599437696
 10
326.4851916483
 20
172.1596696917
 10
326.491152256
 20
172.1592634656
 10
326.4969924195
 20
172.1587290078
 10
326.5027140147
 20
172.1580693665
 10
326.5083125688
 20
172.1572879323
 10
326.5137935141
 20
172.1563880453
 10
326.5191557864
 20
172.1553727241
 10
326.5243982373
 20
172.1542448714
 10
326.5295259875
 20
172.1530070924
 10
326.5345376495
 20
172.1516622672
 10
326.5394326192
 20
172.1502128838
 10
326.544216909
 20
172.1486603787
 10
326.5488890462
 20
172.1470074401
 10
326.5534485117
 20
172.1452561208
 10
326.5579022897
 20
172.1434062264
 10
326.5622495882
 20
172.1414597989
 10
326.5664889074
 20
172.1394188152
 10
326.5706256118
 20
172.1372823211
 10
326.5746584715
 20
172.1350522215
 10
326.5785860956
 20
172.1327301317
 10
326.5824130174
 20
172.1303140946
 10
326.5861370561
 20
172.1278063778
 10
326.5897573466
 20
172.1252078564
 10
326.593279592
 20
172.1225138586
 10
326.5967041428
 20
172.1197235323
 10
326.6000265673
 20
172.116840276
 10
326.6032449074
 20
172.113865494
  0
LWPOLYLINE
  5
2F5
100
AcDbEntity
  8
0
100
AcDbPolyline
 62
7
  6
CONTINUOUS
 90
10
 70
0
 10
326.3103303668
 20
171.0974527314
 10
326.335872147
 20
171.1047785558
 10
326.3610455887
 20
171.1092313545
 10
326.3851701997
 20
171.1108829776
 10
326.4074731605
 20
171.1099859129
 10
326.4274262968
 20
171.1067796904
 10
326.4446269404
 20
171.1013537174
 10
326.4584187173
 20
171.0940063233
 10
326.4680666818
 20
171.085382503
 10
326.4730129744
 20
171.0761814434
  0
LWPOLYLINE
  5
2F6
100
AcDbEntity
  8
0
100
AcDbPolyline
 62
250
  6
CONTINUOUS
 90
8
 70
0
 10
326.4572906406
 20
148.8346648375
 10
326.4529468217
 20
148.8335659987
 10
326.4445811696
 20
148.8325265476
 10
326.4325858628
 20
148.8315464842
 10
326.4173202911
 20
148.8306200865
 10
326.3992291805
 20
148.8297530766
 10
326.3789257735
 20
148.8289626203
 10
326.3569706531
 20
148.8282561288
  0
LWPOLYLINE
  5
2F7
100
AcDbEntity
  8
0
100
AcDbPolyline
 62
7
  6
CONTINUOUS
 90
7
 70
0
 10
329.7890553373
 20
148.3398848012
 10
329.8063277387
 20
148.3403184598
 10
329.8212106999
 20
148.3407851182
 10
329.8332281863
 20
148.3412700867
 10
329.8422215197
 20
148.3417684689
 10
329.8483493783
 20
148.3422851613
 10
329.8516117621
 20
148.3428201638
  0
LWPOLYLINE
  5
2F8
100
AcDbEntity
  8
0
100
AcDbPolyline
 62
250
  6
CONTINUOUS
 90
4
 70
0
 10
326.1592199007
 20
149.0259006804
 10
326.1334035554
 20
149.0252298843
 10
326.1199787392
 20
149.0249699194
 10
326.1057519586
 20
149.0247626651
  0
LINE
  5
2F9
100
AcDbEntity
  8
0
100
AcDbLine
 62
250
  6
CONTINUOUS
 10
326.3569706531
 20
148.8282561288
 11
326.3095896009
 21
148.8270677384
  0
LINE
  5
2FA
100
AcDbEntity
  8
0
100
AcDbLine
 62
7
  6
CONTINUOUS
 10
329.7472586322
 20
148.3391194582
 11
329.7890553373
 21
148.3398848012
  0
LINE
  5
2FB
100
AcDbEntity
  8
0
100
AcDbLine
 62
250
  6
CONTINUOUS
 10
326.3095896009
 20
148.8270677384
 11
326.260561663
 21
148.8261745858
  0
LINE
  5
2FC
100
AcDbEntity
  8
0
100
AcDbLine
 62
7
  6
CONTINUOUS
 10
325.741541582
 20
149.0616914516
 11
325.4404589914
 21
149.0574634626
  0
LINE
  5
2FD
100
AcDbEntity
  8
0
100
AcDbLine
 62
7
  6
CONTINUOUS
 10
329.6976022936
 20
148.3385175651
 11
329.7472586322
 21
148.3391194582
  0
LINE
  5
2FE
100
AcDbEntity
  8
0
100
AcDbLine
 62
250
  6
CONTINUOUS
 10
326.260561663
 20
148.8261745858
 11
326.1821238025
 21
148.8252441365
  0
LINE
  5
2FF
100
AcDbEntity
  8
0
100
AcDbLine
 62
250
  6
CONTINUOUS
 10
326.1057519586
 20
149.0247626651
 11
326.0746118351
 21
149.0245064738
  0
LINE
  5
300
100
AcDbEntity
  8
0
100
AcDbLine
 62
7
  6
CONTINUOUS
 10
329.6126139972
 20
148.3379664886
 11
329.6976022936
 21
148.3385175651
  0
LINE
  5
301
100
AcDbEntity
  8
0
100
AcDbLine
 62
250
  6
CONTINUOUS
 10
326.1821238025
 20
148.8252441365
 11
326.0911602653
 21
148.8247807036
  0
LINE
  5
302
100
AcDbEntity
  8
0
100
AcDbLine
 62
7
  6
CONTINUOUS
 10
326.6361044101
 20
148.3378583689
 11
329.6126139972
 21
148.3379664886
  0
LINE
  5
303
100
AcDbEntity
  8
0
100
AcDbLine
 62
7
  6
CONTINUOUS
 10
310.2944309172
 20
148.3551569596
 11
313.5989167287
 21
148.3551569596
  0
LINE
  5
304
100
AcDbEntity
  8
0
100
AcDbLine
 62
7
  6
CONTINUOUS
 10
326.5841664354
 20
148.3551569596
 11
329.8886522469
 21
148.3551569596
  0
LINE
  5
305
100
AcDbEntity
  8
0
100
AcDbLine
 62
250
  6
CONTINUOUS
 10
326.0911602653
 20
148.8247807036
 11
325.7489883421
 21
148.824731537
  0
LINE
  5
306
100
AcDbEntity
  8
0
100
AcDbLine
 62
250
  6
CONTINUOUS
 10
325.3022325502
 20
148.8481450159
 11
325.2436843674
 21
148.8481450159
  0
LINE
  5
307
100
AcDbEntity
  8
0
100
AcDbLine
 62
250
  6
CONTINUOUS
 10
314.8808506138
 20
148.8481450159
 11
314.9393987966
 21
148.8481450159
  0
LINE
  5
308
100
AcDbEntity
  8
0
100
AcDbLine
 62
250
  6
CONTINUOUS
 10
326.0746118351
 20
149.0245064738
 11
325.8904096983
 21
149.0244574439
  0
LINE
  5
309
100
AcDbEntity
  8
0
100
AcDbLine
 62
7
  6
CONTINUOUS
 10
310.5704691853
 20
148.3379664876
 11
313.546978754
 21
148.3378583689
  0
LINE
  5
30A
100
AcDbEntity
  8
0
100
AcDbLine
 62
250
  6
CONTINUOUS
 10
314.040390812
 20
148.8249798602
 11
314.434094822
 21
148.824731537
  0
LINE
  5
30B
100
AcDbEntity
  8
0
100
AcDbLine
 62
7
  6
CONTINUOUS
 10
310.4854808456
 20
148.338517564
 11
310.5704691853
 21
148.3379664876
  0
LINE
  5
30C
100
AcDbEntity
  8
0
100
AcDbLine
 62
250
  6
CONTINUOUS
 10
313.9610124516
 20
148.8256545215
 11
314.040390812
 21
148.8249798602
  0
LINE
  5
30D
100
AcDbEntity
  8
0
100
AcDbLine
 62
7
  6
CONTINUOUS
 10
310.4358245078
 20
148.3391194573
 11
310.4854808456
 21
148.338517564
  0
LINE
  5
30E
100
AcDbEntity
  8
0
100
AcDbLine
 62
7
  6
CONTINUOUS
 10
314.441541582
 20
149.0616914516
 11
314.7426241727
 21
149.0574634626
  0
LWPOLYLINE
  5
30F
100
AcDbEntity
  8
0
100
AcDbPolyline
 62
250
  6
CONTINUOUS
 90
13
 70
0
 10
314.7394292576
 20
149.0478709228
 10
314.7655401139
 20
149.0461371594
 10
314.7912020096
 20
149.0410136983
 10
314.8159757505
 20
149.0325889941
 10
314.8394365036
 20
149.0210085521
 10
314.8611842179
 20
149.0064709327
 10
314.8808496369
 20
148.9892230635
 10
314.8981024985
 20
148.9695509642
 10
314.9126381155
 20
148.9477978921
 10
314.9241957159
 20
148.9243633474
 10
314.9325849368
 20
148.8996622086
 10
314.9376779607
 20
148.8741105196
 10
314.9393987966
 20
148.8481450159
  0
LWPOLYLINE
  5
310
100
AcDbEntity
  8
0
100
AcDbPolyline
 62
250
  6
CONTINUOUS
 90
13
 70
0
 10
314.2926734658
 20
149.0244574439
 10
314.3107280719
 20
149.0218817844
 10
314.328486492
 20
149.0160845924
 10
314.3456586235
 20
149.0071612069
 10
314.3619632904
 20
148.9952586387
 10
314.3771351721
 20
148.9805715215
 10
314.3909285509
 20
148.9633376438
 10
314.4031225061
 20
148.943829361
 10
314.4135111574
 20
148.9223718931
 10
314.4219159328
 20
148.8993422397
 10
314.4282040733
 20
148.8751298368
 10
314.4322834639
 20
148.8501235911
 10
314.434094822
 20
148.824731537
  0
LWPOLYLINE
  5
311
100
AcDbEntity
  8
0
100
AcDbPolyline
 62
250
  6
CONTINUOUS
 90
13
 70
0
 10
314.7394292576
 20
149.0478709228
 10
314.7574773651
 20
149.0452967825
 10
314.7752304024
 20
149.0395030778
 10
314.7923984784
 20
149.0305845989
 10
314.8087004212
 20
149.0186878791
 10
314.8238710703
 20
149.0040069201
 10
314.8376649357
 20
148.9867785546
 10
314.8498606114
 20
148.9672749174
 10
314.860252171
 20
148.9458203519
 10
314.8686612276
 20
148.9227894698
 10
314.8749541355
 20
148.898570516
 10
314.8790374032
 20
148.873552922
 10
314.8808506138
 20
148.8481450159
  0
LWPOLYLINE
  5
312
100
AcDbEntity
  8
0
100
AcDbPolyline
 62
250
  6
CONTINUOUS
 90
9
 70
0
 10
326.4730129744
 20
145.6721452852
 10
326.4688895624
 20
145.6732071964
 10
326.4609524519
 20
145.674218471
 10
326.4494937208
 20
145.6751791089
 10
326.4347398739
 20
145.6760972672
 10
326.4170713702
 20
145.6769647888
 10
326.3971822944
 20
145.6777572028
 10
326.3757105315
 20
145.6784642806
 10
326.3291745817
 20
145.6796593282
  0
LWPOLYLINE
  5
313
100
AcDbEntity
  8
0
100
AcDbPolyline
 62
250
  6
CONTINUOUS
 90
11
 70
0
 10
313.7257925235
 20
148.8346645306
 10
313.7299100029
 20
148.8336009404
 10
313.7379497203
 20
148.8325792394
 10
313.7497506311
 20
148.8315994276
 10
313.765049039
 20
148.8306566933
 10
313.7836631385
 20
148.8297558482
 10
313.805633399
 20
148.8289113267
 10
313.8308404026
 20
148.8281203526
 10
313.8590530002
 20
148.8273857021
 10
313.8902732189
 20
148.8267301379
 10
313.9610124516
 20
148.8256545215
  0
LINE
  5
314
100
AcDbEntity
  8
0
100
AcDbLine
 62
7
  6
CONTINUOUS
 10
326.3298287028
 20
145.3904442745
 11
326.2594047748
 21
145.4118526854
  0
LINE
  5
315
100
AcDbEntity
  8
0
100
AcDbLine
 62
7
  6
CONTINUOUS
 10
326.3666118322
 20
145.3790949285
 11
326.3298287028
 21
145.3904442745
  0
LWPOLYLINE
  5
316
100
AcDbEntity
  8
0
100
AcDbPolyline
 62
7
  6
CONTINUOUS
 90
10
 70
0
 10
320.988626365
 20
143.3520482033
 10
321.017837918
 20
143.3277883293
 10
321.0488133843
 20
143.3063096987
 10
321.0815527639
 20
143.2876123002
 10
321.1159710704
 20
143.2716653876
 10
321.1521532902
 20
143.2584996892
 10
321.1903543819
 20
143.2482074082
 10
321.2306593316
 20
143.2408192755
 10
321.2729831531
 20
143.2363045506
 10
321.3173258465
 20
143.2346632311
  0
LINE
  5
317
100
AcDbEntity
  8
0
100
AcDbLine
 62
250
  6
CONTINUOUS
 10
313.7986426357
 20
149.1612662323
 11
313.9255184304
 21
149.0343904375
  0
LWPOLYLINE
  5
318
100
AcDbEntity
  8
0
100
AcDbPolyline
 62
7
  6
CONTINUOUS
 90
10
 70
0
 10
321.132128172
 20
143.4556726944
 10
321.1146212155
 20
143.4735574502
 10
321.0985389182
 20
143.4933864064
 10
321.0838812801
 20
143.5151595701
 10
321.0706912783
 20
143.5390558027
 10
321.0589259358
 20
143.5648962595
 10
321.0484563207
 20
143.5921443867
 10
321.039239456
 20
143.6206213363
 10
321.0313183188
 20
143.6505059699
 10
321.0246929091
 20
143.6817982949
  0
LINE
  5
319
100
AcDbEntity
  8
0
100
AcDbLine
 62
7
  6
CONTINUOUS
 10
320.045416582
 20
140.6514162323
 11
320.684367582
 21
139.6362662323
  0
LINE
  5
31A
100
AcDbEntity
  8
0
100
AcDbLine
 62
7
  6
CONTINUOUS
 10
316.340513582
 20
139.6362662323
 11
315.887885582
 21
140.8862662323
  0
LINE
  5
31B
100
AcDbEntity
  8
0
100
AcDbLine
 62
7
  6
CONTINUOUS
 10
316.032355582
 20
140.0000952323
 11
316.155950582
 21
139.6362662323
  0
LINE
  5
31C
100
AcDbEntity
  8
0
100
AcDbLine
 62
7
  6
CONTINUOUS
 10
315.785237582
 20
140.7049552323
 11
315.971468582
 21
140.1498122323
  0
LINE
  5
31D
100
AcDbEntity
  8
0
100
AcDbLine
 62
250
  6
CONTINUOUS
 10
310.6139232276
 20
179.6112662323
 11
310.621007915
 21
176.0813235448
  0
LINE
  5
31E
100
AcDbEntity
  8
0
100
AcDbLine
 62
250
  6
CONTINUOUS
 10
310.6225010802
 20
175.2407113179
 11
310.6310616979
 21
169.1846740963
  0
LINE
  5
31F
100
AcDbEntity
  8
0
100
AcDbLine
 62
250
  6
CONTINUOUS
 10
310.6319810147
 20
168.3084083964
 11
310.6329737539
 21
167.2612662332
  0
LINE
  5
320
100
AcDbEntity
  8
0
100
AcDbLine
 62
250
  6
CONTINUOUS
 10
310.6329737553
 20
150.2612662316
 11
310.6319810147
 21
149.21412407
  0
LINE
  5
321
100
AcDbEntity
  8
0
100
AcDbLine
 62
250
  6
CONTINUOUS
 10
310.6310616979
 20
148.3378583684
 11
310.6225010803
 21
142.2818211504
  0
LINE
  5
322
100
AcDbEntity
  8
0
100
AcDbLine
 62
250
  6
CONTINUOUS
 10
310.621007915
 20
141.4412089209
 11
310.613923226
 21
137.9112662323
  0
LWPOLYLINE
  5
323
100
AcDbEntity
  8
0
100
AcDbPolyline
 62
7
  6
CONTINUOUS
 90
25
 70
0
 10
313.5798382566
 20
172.113865494
 10
313.5887770628
 20
172.160750505
 10
313.6023154619
 20
172.2053693145
 10
313.6204534539
 20
172.2477219386
 10
313.6435213773
 20
172.2882695505
 10
313.6711888937
 20
172.3265510049
 10
313.7024649875
 20
172.3611828474
 10
313.737483141
 20
172.3920299641
 10
313.776109872
 20
172.4192275083
 10
313.8169537183
 20
172.441797437
 10
313.8600906618
 20
172.4595695788
 10
313.9054447207
 20
172.4727141362
 10
313.9513964876
 20
172.4807636267
 10
313.9979694767
 20
172.483535122
 10
314.0451401738
 20
172.4812115597
 10
314.0912186283
 20
172.4738742509
 10
314.1361670575
 20
172.4613398254
 10
314.1800232442
 20
172.4437916367
 10
314.2212105851
 20
172.4218610765
 10
314.2596288134
 20
172.3953919824
 10
314.2953781961
 20
172.3645404814
 10
314.3271829313
 20
172.3304064027
 10
314.3546177519
 20
172.2933563458
 10
314.3781079252
 20
172.2530236746
 10
314.397653451
 20
172.2094083678
  0
LINE
  5
324
100
AcDbEntity
  8
0
100
AcDbLine
 62
7
  6
CONTINUOUS
 10
317.322545582
 20
176.3427722323
 11
317.933231582
 21
178.2426182323
  0
LINE
  5
325
100
AcDbEntity
  8
0
100
AcDbLine
 62
250
  6
CONTINUOUS
 10
314.5403544069
 20
172.0506486278
 11
314.5435552322
 21
172.0602589125
  0
LINE
  5
326
100
AcDbEntity
  8
0
100
AcDbLine
 62
250
  6
CONTINUOUS
 10
314.7403239459
 20
171.8509227208
 11
314.7424726415
 21
171.8573740497
  0
LINE
  5
327
100
AcDbEntity
  8
0
100
AcDbLine
 62
250
  6
CONTINUOUS
 10
330.4841337053
 20
180.6709576304
 11
330.5942732977
 21
180.7810972228
  0
LWPOLYLINE
  5
328
100
AcDbEntity
  8
0
100
AcDbPolyline
 62
250
  6
CONTINUOUS
 90
10
 70
0
 10
325.4082985674
 20
171.1769141284
 10
325.3926995196
 20
171.1695937677
 10
325.3774092668
 20
171.1597271616
 10
325.3627304911
 20
171.147509627
 10
325.3489537701
 20
171.1331830193
 10
325.3363518243
 20
171.1170309445
 10
325.3251741189
 20
171.0993731453
 10
325.315641925
 20
171.0805591712
 10
325.3079439396
 20
171.060961459
 10
325.3022325502
 20
171.0409679603
  0
LWPOLYLINE
  5
329
100
AcDbEntity
  8
0
100
AcDbPolyline
 62
250
  6
CONTINUOUS
 90
10
 70
0
 10
325.8550543592
 20
170.9685884813
 10
325.839455317
 20
170.9612681237
 10
325.8241650681
 20
170.9514015215
 10
325.8094862945
 20
170.9391839907
 10
325.7957095739
 20
170.9248573861
 10
325.783107627
 20
170.9087053129
 10
325.7719299193
 20
170.8910475134
 10
325.7623977224
 20
170.8722335365
 10
325.7546997339
 20
170.8526358192
 10
325.7489883421
 20
170.8326423133
  0
LWPOLYLINE
  5
32A
100
AcDbEntity
  8
0
100
AcDbPolyline
 62
250
  6
CONTINUOUS
 90
13
 70
0
 10
313.9255184304
 20
149.0343904375
 10
313.8994957535
 20
149.0326166436
 10
313.8739163989
 20
149.0274679701
 10
313.849216494
 20
149.019032068
 10
313.8258171876
 20
149.0074526336
 10
313.8041175059
 20
148.9929269805
 10
313.7844875368
 20
148.9757026947
 10
313.767262052
 20
148.9560733633
 10
313.7527348633
 20
148.9343736212
 10
313.7411538096
 20
148.9109734963
 10
313.7327164493
 20
148.8862719928
 10
313.7275667198
 20
148.8606902699
 10
313.7257925161
 20
148.834664538
  0
LINE
  5
32B
100
AcDbEntity
  8
0
100
AcDbLine
 62
250
  6
CONTINUOUS
 10
314.434094822
 20
148.824731537
 11
314.8808506138
 21
148.8481450159
  0
LINE
  5
32C
100
AcDbEntity
  8
0
100
AcDbLine
 62
250
  6
CONTINUOUS
 10
314.2926734658
 20
149.0244574439
 11
314.7394292576
 21
149.0478709228
  0
LWPOLYLINE
  5
32D
100
AcDbEntity
  8
0
100
AcDbPolyline
 62
7
  6
CONTINUOUS
 90
15
 70
0
 10
310.6012830361
 20
149.2140387643
 10
310.5714468751
 20
149.2137997796
 10
310.5424721946
 20
149.2134071205
 10
310.5140517755
 20
149.2128529162
 10
310.4864928369
 20
149.2121450375
 10
310.4607170369
 20
149.2113070965
 10
310.4368301767
 20
149.210336756
 10
310.414726455
 20
149.2092363531
 10
310.3950101262
 20
149.2080365119
 10
310.3777227756
 20
149.2067327662
 10
310.3628228178
 20
149.2053295821
 10
310.350789751
 20
149.2038709821
 10
310.3417834077
 20
149.2023716403
 10
310.3356439554
 20
149.2008168827
 10
310.332371394
 20
149.1992067091
  0
LINE
  5
32E
100
AcDbEntity
  8
0
100
AcDbLine
 62
7
  6
CONTINUOUS
 10
310.2944309172
 20
149.1612662323
 11
313.7986426357
 21
149.1612662323
  0
LINE
  5
32F
100
AcDbEntity
  8
0
100
AcDbLine
 62
7
  6
CONTINUOUS
 10
326.3844405284
 20
149.1612662323
 11
329.8886522469
 21
149.1612662323
  0
LINE
  5
330
100
AcDbEntity
  8
0
100
AcDbLine
 62
7
  6
CONTINUOUS
 10
310.6012830361
 20
149.2140387643
 11
314.441541582
 21
149.2141240773
  0
LINE
  5
331
100
AcDbEntity
  8
0
100
AcDbLine
 62
7
  6
CONTINUOUS
 10
310.3115913195
 20
150.2612662323
 11
329.8714918445
 21
150.2612662323
  0
LINE
  5
332
100
AcDbEntity
  8
0
100
AcDbLine
 62
250
  6
CONTINUOUS
 10
325.7489883421
 20
148.824731537
 11
325.3022325502
 21
148.8481450159
  0
LINE
  5
333
100
AcDbEntity
  8
0
100
AcDbLine
 62
250
  6
CONTINUOUS
 10
325.8904096983
 20
149.0244574439
 11
325.4436539065
 21
149.0478709228
  0
LWPOLYLINE
  5
334
100
AcDbEntity
  8
0
100
AcDbPolyline
 62
250
  6
CONTINUOUS
 90
13
 70
0
 10
326.2732870674
 20
145.4724196933
 10
326.2709667541
 20
145.473480792
 10
326.2670468769
 20
145.4744915729
 10
326.2615274357
 20
145.4754520359
 10
326.254165915
 20
145.4763705076
 10
326.2452048303
 20
145.4772386614
 10
326.2353717288
 20
145.4780315178
 10
326.2247368034
 20
145.4787386056
 10
326.2132298611
 20
145.4793703959
 10
326.2013678704
 20
145.4799333222
 10
326.1893627689
 20
145.480423835
 10
326.1770026189
 20
145.4808454838
 10
326.1509474614
 20
145.4815401898
  0
LWPOLYLINE
  5
335
100
AcDbEntity
  8
0
100
AcDbPolyline
 62
250
  6
CONTINUOUS
 90
14
 70
0
 10
329.985911193
 20
144.5693035567
 10
329.9623475961
 20
144.5801230462
 10
329.9403647258
 20
144.5900366829
 10
329.9198743505
 20
144.5990838663
 10
329.900599005
 20
144.6073878906
 10
329.8825920374
 20
144.6149533784
 10
329.8657812406
 20
144.6217757071
 10
329.8497790955
 20
144.627964303
 10
329.8347082845
 20
144.6335744823
 10
329.8205132327
 20
144.6385509289
 10
329.8067069655
 20
144.6428371204
 10
329.793288171
 20
144.6464142161
 10
329.7806158952
 20
144.6493010568
 10
329.7688719023
 20
144.6514976425
  0
LWPOLYLINE
  5
336
100
AcDbEntity
  8
0
100
AcDbPolyline
 62
250
  6
CONTINUOUS
 90
10
 70
0
 10
325.4082985674
 20
146.3456183362
 10
325.3926995204
 20
146.3529386965
 10
325.3774092681
 20
146.362805302
 10
325.3627304927
 20
146.3750228361
 10
325.3489537718
 20
146.3893494433
 10
325.3363518259
 20
146.4055015178
 10
325.3251741202
 20
146.423159317
 10
325.3156419258
 20
146.4419732916
 10
325.30794394
 20
146.4615710045
 10
325.3022325502
 20
146.4815645043
  0
LWPOLYLINE
  5
337
100
AcDbEntity
  8
0
100
AcDbPolyline
 62
250
  6
CONTINUOUS
 90
10
 70
0
 10
325.8550543592
 20
146.5539439833
 10
325.8394553114
 20
146.5612643439
 10
325.8241650586
 20
146.5711309501
 10
325.809486283
 20
146.5833484847
 10
325.7957095619
 20
146.5976750924
 10
325.7831076161
 20
146.6138271671
 10
325.7719299107
 20
146.6314849663
 10
325.7623977168
 20
146.6502989404
 10
325.7546997315
 20
146.6698966526
 10
325.7489883421
 20
146.6898901513
  0
LINE
  5
338
100
AcDbEntity
  8
0
100
AcDbLine
 62
250
  6
CONTINUOUS
 10
330.0376470316
 20
144.5450601215
 11
329.985911193
 21
144.5693035567
  0
LINE
  5
339
100
AcDbEntity
  8
0
100
AcDbLine
 62
250
  6
CONTINUOUS
 10
330.0955878648
 20
144.5172667644
 11
330.0376470316
 21
144.5450601215
  0
LWPOLYLINE
  5
33A
100
AcDbEntity
  8
0
100
AcDbPolyline
 62
250
  6
CONTINUOUS
 90
3
 70
0
 10
330.2289743225
 20
144.4522168377
 10
330.1936811013
 20
144.469643369
 10
330.0955878648
 20
144.5172667644
  0
LINE
  5
33B
100
AcDbEntity
  8
0
100
AcDbLine
 62
250
  6
CONTINUOUS
 10
330.5942732977
 20
136.7414352418
 11
330.4841337053
 21
136.8515748341
  0
LWPOLYLINE
  5
33C
100
AcDbEntity
  8
0
100
AcDbPolyline
 62
7
  6
CONTINUOUS
 90
10
 70
0
 10
321.4907599733
 20
144.5489510465
 10
321.5052929803
 20
144.5334977655
 10
321.5181031199
 20
144.5172856631
 10
321.5291903919
 20
144.5003147412
 10
321.5385441015
 20
144.4826180495
 10
321.5461749435
 20
144.464162543
 10
321.5521150035
 20
144.4448490822
 10
321.5563749763
 20
144.4246446229
 10
321.5589441669
 20
144.4035822154
 10
321.5598225754
 20
144.3816618629
  0
LWPOLYLINE
  5
33D
100
AcDbEntity
  8
0
100
AcDbPolyline
 62
7
  6
CONTINUOUS
 90
10
 70
0
 10
321.5444746178
 20
143.9089469768
 10
321.5618910346
 20
143.8899278105
 10
321.5772436594
 20
143.8699103738
 10
321.5905324924
 20
143.8488946701
 10
321.60174171
 20
143.8269407518
 10
321.6108871358
 20
143.8039885744
 10
321.6180162395
 20
143.7798579968
 10
321.6231448444
 20
143.754488976
 10
321.6262571274
 20
143.727941566
 10
321.6273530882
 20
143.7002157725
  0
LWPOLYLINE
  5
33E
100
AcDbEntity
  8
0
100
AcDbPolyline
 62
7
  6
CONTINUOUS
 90
10
 70
0
 10
321.749113105
 20
143.9457818458
 10
321.7324895426
 20
143.9659936782
 10
321.7143060386
 20
143.9847299487
 10
321.6945625932
 20
144.0019906522
 10
321.6732930908
 20
144.0178086275
 10
321.6504636469
 20
144.0321510273
 10
321.6259726082
 20
144.0449193175
 10
321.5997860906
 20
144.0560806514
 10
321.5719379782
 20
144.0656678691
 10
321.5424282712
 20
144.0736809678
  0
LINE
  5
33F
100
AcDbEntity
  8
0
100
AcDbLine
 62
7
  6
CONTINUOUS
 10
320.710489582
 20
139.8709112323
 11
320.081951582
 21
140.8862662323
  0
LWPOLYLINE
  5
340
100
AcDbEntity
  8
0
100
AcDbPolyline
 62
250
  6
CONTINUOUS
 90
13
 70
0
 10
314.9393987966
 20
146.4654849484
 10
314.9388923738
 20
146.4667941965
 10
314.9377378573
 20
146.4681115659
 10
314.9359043561
 20
146.4694370569
 10
314.933378556
 20
146.47077061
 10
314.9301258554
 20
146.4721122845
 10
314.9260542535
 20
146.4734622581
 10
314.9210986411
 20
146.4748269688
 10
314.9152182441
 20
146.4761999786
 10
314.9083122787
 20
146.4775621506
 10
314.9003037586
 20
146.4789071062
 10
314.8911621261
 20
146.480241224
 10
314.8808506138
 20
146.4815645043
  0
LINE
  5
341
100
AcDbEntity
  8
0
100
AcDbLine
 62
250
  6
CONTINUOUS
 10
314.5435552322
 20
145.4622735521
 11
314.5403544069
 21
145.4718838368
  0
LINE
  5
342
100
AcDbEntity
  8
0
100
AcDbLine
 62
250
  6
CONTINUOUS
 10
314.7424726415
 20
145.6651584149
 11
314.7403239459
 21
145.6716097438
  0
LWPOLYLINE
  5
343
100
AcDbEntity
  8
0
100
AcDbPolyline
 62
250
  6
CONTINUOUS
 90
13
 70
0
 10
314.7894216424
 20
146.3295387804
 10
314.7893069836
 20
146.3308476308
 10
314.7890157785
 20
146.3321646877
 10
314.7885480272
 20
146.3334899512
 10
314.7879179503
 20
146.3348231342
 10
314.7871113272
 20
146.3361645237
 10
314.7860854957
 20
146.3375149809
 10
314.7848431685
 20
146.3388818863
 10
314.7833816329
 20
146.3402578594
 10
314.781650088
 20
146.341621619
 10
314.7796316002
 20
146.3429660715
 10
314.7773431031
 20
146.3442983106
 10
314.7747845967
 20
146.3456183362
  0
LINE
  5
344
100
AcDbEntity
  8
0
100
AcDbLine
 62
7
  6
CONTINUOUS
 10
313.5989167287
 20
169.167375505
 11
313.5989167287
 21
168.5609921392
  0
LINE
  5
345
100
AcDbEntity
  8
0
100
AcDbLine
 62
7
  6
CONTINUOUS
 10
313.5989167287
 20
148.3551569596
 11
313.5989167287
 21
148.9615403253
  0
LINE
  5
346
100
AcDbEntity
  8
0
100
AcDbLine
 62
250
  6
CONTINUOUS
 10
313.7100701897
 20
145.6721456002
 11
313.7100701897
 21
146.4463510212
  0
LINE
  5
347
100
AcDbEntity
  8
0
100
AcDbLine
 62
250
  6
CONTINUOUS
 10
313.7100701897
 20
171.0761814434
 11
313.7100701897
 21
171.8503868643
  0
LINE
  5
348
100
AcDbEntity
  8
0
100
AcDbLine
 62
250
  6
CONTINUOUS
 10
313.7257925235
 20
146.5862433186
 11
313.7257925235
 21
148.8346645306
  0
LINE
  5
349
100
AcDbEntity
  8
0
100
AcDbLine
 62
250
  6
CONTINUOUS
 10
313.7257925235
 20
168.687867934
 11
313.7257925235
 21
170.936289146
  0
LWPOLYLINE
  5
34A
100
AcDbEntity
  8
0
100
AcDbPolyline
 62
7
  6
CONTINUOUS
 90
7
 70
0
 10
313.5504946601
 20
172.009962394
 10
313.5513553683
 20
172.0282084109
 10
313.553876391
 20
172.0462783937
 10
313.5580313709
 20
172.0640227737
 10
313.5637805573
 20
172.0812954358
 10
313.5710712349
 20
172.0979549068
 10
313.5798382566
 20
172.113865494
  0
LINE
  5
34B
100
AcDbEntity
  8
0
100
AcDbLine
 62
7
  6
CONTINUOUS
 10
317.536930582
 20
178.2426182323
 11
317.163722582
 21
176.9348952323
  0
LINE
  5
34C
100
AcDbEntity
  8
0
100
AcDbLine
 62
7
  6
CONTINUOUS
 10
320.047205582
 20
178.2426182323
 11
319.650633582
 21
177.1878182323
  0
LINE
  5
34D
100
AcDbEntity
  8
0
100
AcDbLine
 62
7
  6
CONTINUOUS
 10
319.676277582
 20
176.3427722323
 11
320.147802582
 21
177.5781642323
  0
LINE
  5
34E
100
AcDbEntity
  8
0
100
AcDbLine
 62
250
  6
CONTINUOUS
 10
330.9539800157
 20
180.20111132
 11
331.0641196081
 21
180.3112509124
  0
LINE
  5
34F
100
AcDbEntity
  8
0
100
AcDbLine
 62
7
  6
CONTINUOUS
 10
326.091541582
 20
175.2612662323
 11
326.0709866558
 21
175.240711306
  0
LINE
  5
350
100
AcDbEntity
  8
0
100
AcDbLine
 62
7
  6
CONTINUOUS
 10
326.6361044101
 20
169.1846740957
 11
326.5841664354
 21
169.167375505
  0
LINE
  5
351
100
AcDbEntity
  8
0
100
AcDbLine
 62
7
  6
CONTINUOUS
 10
326.6361044101
 20
148.3378583689
 11
326.5841664354
 21
148.3551569596
  0
LINE
  5
352
100
AcDbEntity
  8
0
100
AcDbLine
 62
250
  6
CONTINUOUS
 10
331.0641196081
 20
137.2112815522
 11
330.9539800157
 21
137.3214211445
  0
LINE
  5
353
100
AcDbEntity
  8
0
100
AcDbLine
 62
7
  6
CONTINUOUS
 10
326.091541582
 20
142.2612662323
 11
326.0709866558
 21
142.2818211586
  0
LWPOLYLINE
  5
354
100
AcDbEntity
  8
0
100
AcDbPolyline
 62
7
  6
CONTINUOUS
 90
10
 70
0
 10
321.6936344773
 20
144.5708149107
 10
321.6808674781
 20
144.5905171327
 10
321.666954976
 20
144.6092573704
 10
321.651896971
 20
144.6270356208
 10
321.6357418859
 20
144.6438337194
 10
321.6184412979
 20
144.6596698248
 10
321.599849939
 20
144.6745984194
 10
321.5799193864
 20
144.6886376625
 10
321.5586980629
 20
144.7017693902
 10
321.5361859684
 20
144.7139936006
  0
LINE
  5
355
100
AcDbEntity
  8
0
100
AcDbLine
 62
250
  6
CONTINUOUS
 10
314.793318507
 20
146.2254350246
 11
314.7894216424
 21
146.3295387804
  0
LINE
  5
356
100
AcDbEntity
  8
0
100
AcDbLine
 62
250
  6
CONTINUOUS
 10
314.941541582
 20
146.4082409768
 11
314.9393987966
 21
146.4654849484
  0
LWPOLYLINE
  5
357
100
AcDbEntity
  8
RACCORDO
100
AcDbPolyline
 62
250
  6
CONTINUOUS
 90
64
 70
0
 10
314.8997991515
 20
158.7612662323
 10
314.9062265962
 20
158.5024517264
 10
314.9254376982
 20
158.2451561921
 10
314.9574324573
 20
157.989379696
 10
315.0023605839
 20
157.7343454331
 10
315.0600723676
 20
157.4808303367
 10
315.1301186779
 20
157.23116507
 10
315.2125782909
 20
156.9855479549
 10
315.3073724303
 20
156.7437807561
 10
315.4138156368
 20
156.5075992747
 10
315.5320077222
 20
156.2770119718
 10
315.6618488745
 20
156.0520104178
 10
315.8023541986
 20
155.8343050462
 10
315.9535967365
 20
155.6239653558
 10
316.1155034461
 20
155.4209218163
 10
316.286870306
 20
155.2266762847
 10
316.4677699909
 20
155.0412913245
 10
316.658129826
 20
154.8647042847
 10
316.8565277653
 20
154.6982291722
 10
317.0630225519
 20
154.5419426154
 10
317.2775554427
 20
154.3957678594
 10
317.4985281624
 20
154.2607888147
 10
317.7259882516
 20
154.1370889575
 10
317.9598881696
 20
154.0245846714
 10
318.1984870197
 20
153.9241092177
 10
318.4418188859
 20
153.835752184
 10
318.6898496841
 20
153.7594238567
 10
318.9407362649
 20
153.6956885464
 10
319.1944995731
 20
153.6446395971
 10
319.451118664
 20
153.6061835779
 10
319.7086875542
 20
153.5806046463
 10
319.9672130737
 20
153.5679981856
 10
320.2266883925
 20
153.5682687817
 10
320.4851870368
 20
153.5814144108
 10
320.7427018674
 20
153.6075304277
 10
320.9992400235
 20
153.646521509
 10
321.2528964496
 20
153.6980996285
 10
321.5036502936
 20
153.7623582597
 10
321.7515224077
 20
153.8392040166
 10
321.9946702924
 20
153.928068593
 10
322.2330593163
 20
154.029041479
 10
322.4667241108
 20
154.1420333107
 10
322.6939260718
 20
154.2662075009
 10
322.9146181343
 20
154.4016480855
 10
323.1288473632
 20
154.5482711686
 10
323.3350163491
 20
154.7049882543
 10
323.5330637338
 20
154.8718730216
 10
323.7230508755
 20
155.0488519174
 10
323.9035644395
 20
155.2346155766
 10
324.0745420223
 20
155.4292437606
 10
324.2360460274
 20
155.6326567949
 10
324.3868503301
 20
155.8433061313
 10
324.5268576194
 20
156.0612168146
 10
324.6561652063
 20
156.2863638297
 10
324.7738388996
 20
156.5171235053
 10
324.8798249752
 20
156.7536807095
 10
324.9741771571
 20
156.995850543
 10
325.0561224266
 20
157.2414546506
 10
325.125492697
 20
157.4905658903
 10
325.1824560549
 20
157.7431113133
 10
325.2267437413
 20
157.996693827
 10
325.2582661699
 20
158.2505143546
 10
325.2771129269
 20
158.5053718449
 10
325.2832840125
 20
158.7612662323
  0
LINE
  5
358
100
AcDbEntity
  8
0
100
AcDbLine
 62
7
  6
CONTINUOUS
 10
313.878760582
 20
140.8862662323
 11
313.878760582
 21
139.6362662323
  0
LINE
  5
359
100
AcDbEntity
  8
0
100
AcDbLine
 62
7
  6
CONTINUOUS
 10
314.042402582
 20
139.6362662323
 11
314.042402582
 21
140.6843862323
  0
LINE
  5
35A
100
AcDbEntity
  8
0
100
AcDbLine
 62
7
  6
CONTINUOUS
 10
314.091541582
 20
141.4612662323
 11
314.091541582
 21
142.2612662323
  0
LINE
  5
35B
100
AcDbEntity
  8
0
100
AcDbLine
 62
7
  6
CONTINUOUS
 10
314.091541582
 20
175.2612662323
 11
314.091541582
 21
176.0612662323
  0
LINE
  5
35C
100
AcDbEntity
  8
0
100
AcDbLine
 62
250
  6
CONTINUOUS
 10
314.1095220036
 20
145.4823526869
 11
314.1095220036
 21
146.4612662323
  0
LINE
  5
35D
100
AcDbEntity
  8
0
100
AcDbLine
 62
250
  6
CONTINUOUS
 10
314.1095220036
 20
171.0612662323
 11
314.1095220036
 21
172.0401797777
  0
LINE
  5
35E
100
AcDbEntity
  8
0
100
AcDbLine
 62
250
  6
CONTINUOUS
 10
314.1252443374
 20
146.5607729008
 11
314.1252443374
 21
149.0244574439
  0
LINE
  5
35F
100
AcDbEntity
  8
0
100
AcDbLine
 62
250
  6
CONTINUOUS
 10
314.1252443374
 20
168.4980750207
 11
314.1252443374
 21
170.9617595638
  0
LINE
  5
360
100
AcDbEntity
  8
0
100
AcDbLine
 62
250
  6
CONTINUOUS
 10
314.2926734658
 20
146.5607729008
 11
314.2926734658
 21
149.0244574439
  0
LINE
  5
361
100
AcDbEntity
  8
0
100
AcDbLine
 62
250
  6
CONTINUOUS
 10
314.2926734658
 20
168.4980750207
 11
314.2926734658
 21
170.9617595638
  0
LINE
  5
362
100
AcDbEntity
  8
0
100
AcDbLine
 62
250
  6
CONTINUOUS
 10
314.3456029468
 20
145.4823526869
 11
314.3456029468
 21
146.4612662323
  0
LINE
  5
363
100
AcDbEntity
  8
0
100
AcDbLine
 62
250
  6
CONTINUOUS
 10
314.3456029468
 20
171.0612662323
 11
314.3456029468
 21
172.0401797777
  0
LINE
  5
364
100
AcDbEntity
  8
0
100
AcDbLine
 62
250
  6
CONTINUOUS
 10
314.434096008
 20
146.6898895983
 11
314.434094822
 21
148.824731537
  0
LINE
  5
365
100
AcDbEntity
  8
0
100
AcDbLine
 62
250
  6
CONTINUOUS
 10
314.434094822
 20
168.6978009276
 11
314.4340950069
 21
170.8326423995
  0
LINE
  5
366
100
AcDbEntity
  8
0
100
AcDbLine
 62
7
  6
CONTINUOUS
 10
314.441541582
 20
172.2094083678
 11
314.441541582
 21
172.0616914516
  0
LINE
  5
367
100
AcDbEntity
  8
0
100
AcDbLine
 62
7
  6
CONTINUOUS
 10
314.441541582
 20
149.2141240773
 11
314.441541582
 21
149.0616914516
  0
LINE
  5
368
100
AcDbEntity
  8
0
100
AcDbLine
 62
7
  6
CONTINUOUS
 10
314.441541582
 20
145.3131240968
 11
314.441541582
 21
145.4608410129
  0
LINE
  5
369
100
AcDbEntity
  8
0
100
AcDbLine
 62
7
  6
CONTINUOUS
 10
314.441541582
 20
168.3084083872
 11
314.441541582
 21
168.4608410129
  0
LINE
  5
36A
100
AcDbEntity
  8
0
100
AcDbLine
 62
250
  6
CONTINUOUS
 10
314.4888073319
 20
145.6820785938
 11
314.4888073319
 21
146.4331085046
  0
LINE
  5
36B
100
AcDbEntity
  8
0
100
AcDbLine
 62
250
  6
CONTINUOUS
 10
314.4888073319
 20
171.08942396
 11
314.4888073319
 21
171.8404538707
  0
LINE
  5
36C
100
AcDbEntity
  8
0
100
AcDbLine
 62
250
  6
CONTINUOUS
 10
314.683558792
 20
145.6716097438
 11
314.683558792
 21
146.3399600251
  0
LINE
  5
36D
100
AcDbEntity
  8
0
100
AcDbLine
 62
250
  6
CONTINUOUS
 10
314.683558792
 20
171.1825724395
 11
314.683558792
 21
171.8509227208
  0
LINE
  5
36E
100
AcDbEntity
  8
0
100
AcDbLine
 62
250
  6
CONTINUOUS
 10
314.7403239459
 20
145.6716097438
 11
314.7403239459
 21
146.2764838593
  0
LINE
  5
36F
100
AcDbEntity
  8
0
100
AcDbLine
 62
250
  6
CONTINUOUS
 10
314.7403239459
 20
171.2460486053
 11
314.7403239459
 21
171.8509227208
  0
LINE
  5
370
100
AcDbEntity
  8
0
100
AcDbLine
 62
250
  6
CONTINUOUS
 10
314.8808506138
 20
146.4815645043
 11
314.8808506138
 21
148.8481450159
  0
LINE
  5
371
100
AcDbEntity
  8
0
100
AcDbLine
 62
250
  6
CONTINUOUS
 10
314.8808506138
 20
168.6743874487
 11
314.8808506138
 21
171.0409679603
  0
LINE
  5
372
100
AcDbEntity
  8
0
100
AcDbLine
 62
7
  6
CONTINUOUS
 10
314.912875582
 20
140.6861042323
 11
314.912875582
 21
139.6362662323
  0
LINE
  5
373
100
AcDbEntity
  8
0
100
AcDbLine
 62
250
  6
CONTINUOUS
 10
314.9393987966
 20
146.4654849484
 11
314.9393987966
 21
148.8481450159
  0
LINE
  5
374
100
AcDbEntity
  8
0
100
AcDbLine
 62
250
  6
CONTINUOUS
 10
314.9393987966
 20
168.6743874487
 11
314.9393987966
 21
171.0570475161
  0
LINE
  5
375
100
AcDbEntity
  8
0
100
AcDbLine
 62
7
  6
CONTINUOUS
 10
315.076583582
 20
139.6362662323
 11
315.076583582
 21
140.8862662323
  0
LWPOLYLINE
  5
376
100
AcDbEntity
  8
RACCORDO
100
AcDbPolyline
 62
250
  6
CONTINUOUS
 90
70
 70
0
 10
314.5427277301
 20
158.7612662323
 10
314.5464971226
 20
158.9655661537
 10
314.557538855
 20
159.1663280536
 10
314.5754716071
 20
159.3632708699
 10
314.5998210714
 20
159.5554452186
 10
314.6302706
 20
159.7433365566
 10
314.6668826673
 20
159.9288458048
 10
314.7096196104
 20
160.1123282291
 10
314.7582128712
 20
160.2930625683
 10
314.8126329613
 20
160.4713095865
 10
314.8723526593
 20
160.6458126988
 10
314.9375418306
 20
160.8175105023
 10
315.0096189158
 20
160.9898143182
 10
315.0886580307
 20
161.1621139989
 10
315.1749824307
 20
161.3343692238
 10
315.2711778022
 20
161.5104573056
 10
315.3783606323
 20
161.6905231854
 10
315.4967280298
 20
161.8730245783
 10
315.6281309176
 20
162.0588418779
 10
315.7735836501
 20
162.2472444665
 10
315.9336275467
 20
162.4367881052
 10
316.1096532342
 20
162.6269053244
 10
316.3020973806
 20
162.8158423239
 10
316.511900624
 20
163.0023347871
 10
316.7414304199
 20
163.185996309
 10
316.9920598047
 20
163.3651395473
 10
317.2636404351
 20
163.5368806584
 10
317.5562343884
 20
163.6985380921
 10
317.8717072218
 20
163.8482818394
 10
318.208160973
 20
163.9822954504
 10
318.5591262875
 20
164.0959342311
 10
318.9239893719
 20
164.1875425423
 10
319.3009019606
 20
164.255165868
 10
319.6804870777
 20
164.2965569635
 10
320.0605451427
 20
164.31171411
 10
320.4396562212
 20
164.3008733898
 10
320.80940904
 20
164.265154725
 10
321.1674953028
 20
164.2064554308
 10
321.5134424086
 20
164.1264695174
 10
321.8421443595
 20
164.0283265112
 10
322.1515601033
 20
163.9151179034
 10
322.4428061026
 20
163.7888440899
 10
322.7160640111
 20
163.6516713003
 10
322.9709386784
 20
163.5059885652
 10
323.2080827392
 20
163.3536012069
 10
323.4293181273
 20
163.1953139379
 10
323.6352203352
 20
163.0324489539
 10
323.8259000667
 20
162.8666653191
 10
324.0023978047
 20
162.6987942351
 10
324.1651065702
 20
162.530116474
 10
324.3146505348
 20
162.3616393286
 10
324.4523299038
 20
162.1934809104
 10
324.5781829533
 20
162.0271466599
 10
324.6932629008
 20
161.8627934794
 10
324.8000097439
 20
161.6980970347
 10
324.8986310603
 20
161.5336169787
 10
324.9894631284
 20
161.3696919067
 10
325.0745056396
 20
161.2032138306
 10
325.1537447601
 20
161.0342825113
 10
325.2270833412
 20
160.8632149264
 10
325.2957229614
 20
160.68689152
 10
325.3593214941
 20
160.5053078974
 10
325.4174532727
 20
160.3186704023
 10
325.4705318556
 20
160.1239606317
 10
325.5178536728
 20
159.921134934
 10
325.5586266098
 20
159.7104180933
 10
325.5924395578
 20
159.4890943091
 10
325.6182181758
 20
159.2564041137
 10
325.6346046763
 20
159.0136427048
 10
325.6403554339
 20
158.7612662323
  0
LWPOLYLINE
  5
377
100
AcDbEntity
  8
RACCORDO
100
AcDbPolyline
 62
250
  6
CONTINUOUS
 90
70
 70
0
 10
314.1856563088
 20
158.7612661609
 10
314.1903335407
 20
158.9790632004
 10
314.2019492756
 20
159.1925579924
 10
314.2205035136
 20
159.4017505015
 10
314.2461670909
 20
159.6061177167
 10
314.2787691712
 20
159.8061825918
 10
314.3177972453
 20
160.0035140408
 10
314.3632032177
 20
160.1986690713
 10
314.4150351838
 20
160.3910906297
 10
314.4729249216
 20
160.5806765389
 10
314.5362229622
 20
160.7663618706
 10
314.6055787745
 20
160.949211526
 10
314.6825725422
 20
161.1323180615
 10
314.766516555
 20
161.31570487
 10
314.8580985232
 20
161.4993485063
 10
314.9609617619
 20
161.6862712366
 10
315.0751707153
 20
161.8777981197
 10
315.2006609393
 20
162.0726039923
 10
315.3408824162
 20
162.2697357725
 10
315.4959723472
 20
162.470004407
 10
315.6657935313
 20
162.6725988418
 10
315.8533843478
 20
162.8741330295
 10
316.058465667
 20
163.074959097
 10
316.2813166187
 20
163.2747248705
 10
316.5258129716
 20
163.4689879322
 10
316.7930473133
 20
163.6589708517
 10
317.0819270563
 20
163.8434511135
 10
317.3930502066
 20
164.0143188136
 10
317.7293593928
 20
164.1720874034
 10
318.0879119864
 20
164.3162436756
 10
318.4604781078
 20
164.4371379146
 10
318.8486875724
 20
164.532943363
 10
319.2509105647
 20
164.6054871214
 10
319.6540277599
 20
164.6506003282
 10
320.0577566638
 20
164.6658450241
 10
320.4623797705
 20
164.653659289
 10
320.8556252364
 20
164.6171882659
 10
321.2358704533
 20
164.554895169
 10
321.6047380296
 20
164.4683166124
 10
321.9548239467
 20
164.3652078291
 10
322.2837333378
 20
164.2457843461
 10
322.5938610697
 20
164.1098304
 10
322.884987725
 20
163.9644543761
 10
323.1562323735
 20
163.8104674918
 10
323.4084759453
 20
163.6470583846
 10
323.6441418129
 20
163.4789016772
 10
323.8633663252
 20
163.3063196496
 10
324.0660131333
 20
163.1289899716
 10
324.254096563
 20
162.9506204342
 10
324.4274644262
 20
162.7717092024
 10
324.586268911
 20
162.5917581414
 10
324.7329809069
 20
162.4129806481
 10
324.8672785628
 20
162.236485314
 10
324.9894837299
 20
162.061163617
 10
325.1030328503
 20
161.8859032935
 10
325.20828612
 20
161.7111990097
 10
325.3048833431
 20
161.5365561457
 10
325.3951803746
 20
161.359378485
 10
325.4796917203
 20
161.1797928084
 10
325.5579028744
 20
160.997672353
 10
325.6306261745
 20
160.8100405583
 10
325.6983884577
 20
160.6169030445
 10
325.7606628869
 20
160.4182541952
 10
325.8166812885
 20
160.2111005726
 10
325.8670191572
 20
159.9952712546
 10
325.9111009983
 20
159.7709371765
 10
325.9464321544
 20
159.5356176785
 10
325.972181073
 20
159.2884858916
 10
325.9891793067
 20
159.030368748
 10
325.9974268553
 20
158.7612663036
  0
LINE
  5
378
100
AcDbEntity
  8
0
100
AcDbLine
 62
250
  6
CONTINUOUS
 10
314.7894216424
 20
171.1929936842
 11
314.793318507
 21
171.29709744
  0
LINE
  5
379
100
AcDbEntity
  8
0
100
AcDbLine
 62
250
  6
CONTINUOUS
 10
314.9393987966
 20
171.0570475161
 11
314.941541582
 21
171.1142914877
  0
LINE
  5
37A
100
AcDbEntity
  8
0
100
AcDbLine
 62
250
  6
CONTINUOUS
 10
313.7257925235
 20
146.5862433186
 11
313.7100701897
 21
146.4463510212
  0
LINE
  5
37B
100
AcDbEntity
  8
0
100
AcDbLine
 62
250
  6
CONTINUOUS
 10
313.8755869537
 20
146.4502971506
 11
313.8727527973
 21
146.4250797332
  0
LINE
  5
37C
100
AcDbEntity
  8
0
100
AcDbLine
 62
7
  6
CONTINUOUS
 10
319.306029582
 20
173.5297092323
 11
319.587763582
 21
174.3481962323
  0
LINE
  5
37D
100
AcDbEntity
  8
0
100
AcDbLine
 62
7
  6
CONTINUOUS
 10
319.058707582
 20
172.8112662323
 11
319.200779582
 21
173.2139602323
  0
LINE
  5
37E
100
AcDbEntity
  8
0
100
AcDbLine
 62
7
  6
CONTINUOUS
 10
319.356080582
 20
174.7112662323
 11
318.669240582
 21
172.8112662323
  0
LINE
  5
37F
100
AcDbEntity
  8
0
100
AcDbLine
 62
250
  6
CONTINUOUS
 10
326.2732870674
 20
172.0501127713
 11
326.3666118322
 21
172.1434375361
  0
LINE
  5
380
100
AcDbEntity
  8
0
100
AcDbLine
 62
250
  6
CONTINUOUS
 10
326.4730129744
 20
171.8503868643
 11
326.632588504
 21
172.009962394
  0
LINE
  5
381
100
AcDbEntity
  8
0
100
AcDbLine
 62
250
  6
CONTINUOUS
 10
326.3666118322
 20
145.3790949285
 11
326.2732870674
 21
145.4724196933
  0
LINE
  5
382
100
AcDbEntity
  8
0
100
AcDbLine
 62
250
  6
CONTINUOUS
 10
326.632588504
 20
145.5125700706
 11
326.4730129744
 21
145.6721456002
  0
LINE
  5
383
100
AcDbEntity
  8
0
100
AcDbLine
 62
7
  6
CONTINUOUS
 10
325.191807582
 20
140.8862662323
 11
325.663603582
 21
140.1394002323
  0
LINE
  5
384
100
AcDbEntity
  8
0
100
AcDbLine
 62
250
  6
CONTINUOUS
 10
313.7100701897
 20
171.0761814434
 11
313.7257925235
 21
170.936289146
  0
LINE
  5
385
100
AcDbEntity
  8
0
100
AcDbLine
 62
250
  6
CONTINUOUS
 10
313.8727527973
 20
171.0974527314
 11
313.8755869537
 21
171.072235314
  0
LINE
  5
386
100
AcDbEntity
  8
0
100
AcDbLine
 62
7
  6
CONTINUOUS
 10
315.734903582
 20
174.7112662323
 11
315.734903582
 21
172.8112662323
  0
LINE
  5
387
100
AcDbEntity
  8
0
100
AcDbLine
 62
7
  6
CONTINUOUS
 10
316.142817582
 20
172.8112662323
 11
316.142817582
 21
173.5429372323
  0
LINE
  5
388
100
AcDbEntity
  8
0
100
AcDbLine
 62
7
  6
CONTINUOUS
 10
316.142817582
 20
173.8586862323
 11
316.142817582
 21
174.3955172323
  0
LINE
  5
389
100
AcDbEntity
  8
0
100
AcDbLine
 62
7
  6
CONTINUOUS
 10
316.504151582
 20
140.8862662323
 11
316.504151582
 21
139.6362662323
  0
LINE
  5
38A
100
AcDbEntity
  8
0
100
AcDbLine
 62
7
  6
CONTINUOUS
 10
316.673075582
 20
139.7807262323
 11
316.673075582
 21
140.7418062323
  0
LWPOLYLINE
  5
38B
100
AcDbEntity
  8
0
100
AcDbPolyline
 62
7
  6
CONTINUOUS
 90
21
 70
0
 10
316.6638754691
 20
174.1473952064
 10
316.6638850161
 20
174.1067219423
 10
316.6627472304
 20
174.0867294707
 10
316.660505187
 20
174.06712455
 10
316.657209441
 20
174.0478482142
 10
316.6528094373
 20
174.028959432
 10
316.6471535104
 20
174.0106351071
 10
316.6401827215
 20
173.9928011256
 10
316.6319560093
 20
173.9755316052
 10
316.6224985244
 20
173.9592257983
 10
316.6118060818
 20
173.9438079169
 10
316.5998828664
 20
173.9293537547
 10
316.586766584
 20
173.9164899399
 10
316.5722841027
 20
173.9054830955
 10
316.5566085545
 20
173.896066606
 10
316.5402970402
 20
173.8880672423
 10
316.5233639095
 20
173.8816098682
 10
316.5057948129
 20
173.8765696239
 10
316.4881038018
 20
173.8723986942
 10
316.4704489343
 20
173.8691310254
 10
316.4526721525
 20
173.8667326725
  0
LINE
  5
38C
100
AcDbEntity
  8
0
100
AcDbLine
 62
7
  6
CONTINUOUS
 10
321.262324582
 20
177.0155322323
 11
321.459784582
 21
177.7205892323
  0
LINE
  5
38D
100
AcDbEntity
  8
0
100
AcDbLine
 62
7
  6
CONTINUOUS
 10
321.071774582
 20
176.3427722323
 11
321.181203582
 21
176.7220492323
  0
LINE
  5
38E
100
AcDbEntity
  8
0
100
AcDbLine
 62
7
  6
CONTINUOUS
 10
321.275417582
 20
178.2426182323
 11
320.679504582
 21
176.3427722323
  0
LWPOLYLINE
  5
38F
100
AcDbEntity
  8
0
100
AcDbPolyline
 62
7
  6
CONTINUOUS
 90
16
 70
0
 10
329.8507117701
 20
149.1992067091
 10
329.8474392035
 20
149.2008168825
 10
329.8412997468
 20
149.2023716399
 10
329.8322934002
 20
149.2038709815
 10
329.8202603309
 20
149.2053295812
 10
329.8053603716
 20
149.206732765
 10
329.7880730202
 20
149.2080365104
 10
329.7683566912
 20
149.2092363514
 10
329.7462529701
 20
149.210336754
 10
329.722366111
 20
149.2113070944
 10
329.6965903093
 20
149.2121450351
 10
329.6690313696
 20
149.2128529136
 10
329.6406109597
 20
149.2134071178
 10
329.611636302
 20
149.2137997774
 10
329.581800174
 20
149.2140387627
 10
325.741541582
 20
149.2141240773
  0
LINE
  5
390
100
AcDbEntity
  8
0
100
AcDbLine
 62
7
  6
CONTINUOUS
 10
325.747206582
 20
140.2855792323
 11
325.388532582
 21
140.8862662323
  0
LWPOLYLINE
  5
391
100
AcDbEntity
  8
0
100
AcDbPolyline
 62
250
  6
CONTINUOUS
 90
37
 70
0
 10
313.8755869537
 20
171.072235314
 10
313.8772101037
 20
171.0644163791
 10
313.8796281276
 20
171.0569435289
 10
313.8828410255
 20
171.0498167634
 10
313.8869379717
 20
171.0430386483
 10
313.8918297919
 20
171.036606618
 10
313.8972489629
 20
171.0305129752
 10
313.9031726572
 20
171.024763219
 10
313.9096237025
 20
171.0193518503
 10
313.9164030581
 20
171.0142546753
 10
313.9234982895
 20
171.0094719908
 10
313.9309218314
 20
171.0050034999
 10
313.9385119468
 20
171.000824118
 10
313.9462542237
 20
170.9969367072
 10
313.9541630742
 20
170.9933384054
 10
313.962119998
 20
170.9899955418
 10
313.9701082027
 20
170.9869100616
 10
313.9781444808
 20
170.9840800194
 10
313.9861607087
 20
170.9814659088
 10
313.994143722
 20
170.9790669002
 10
314.0021066851
 20
170.9768838231
 10
314.010020968
 20
170.9748796584
 10
314.017877004
 20
170.9730522378
 10
314.0256843598
 20
170.9714037296
 10
314.0334431052
 20
170.9699036195
 10
314.0411462463
 20
170.9685491927
 10
314.0488007769
 20
170.9673431639
 10
314.0564277484
 20
170.966263163
 10
314.064022397
 20
170.9653061477
 10
314.0715894865
 20
170.9644751603
 10
314.07916436
 20
170.9637569572
 10
314.0867441099
 20
170.9631482412
 10
314.0943316437
 20
170.9626523097
 10
314.1019710268
 20
170.9622658113
 10
314.1096769477
 20
170.9619876289
 10
314.1174347179
 20
170.9618188798
 10
314.1252443374
 20
170.9617595638
  0
LWPOLYLINE
  5
392
100
AcDbEntity
  8
0
100
AcDbPolyline
 62
7
  6
CONTINUOUS
 90
37
 70
0
 10
317.0981451432
 20
174.1271019633
 10
317.0977150882
 20
174.159676288
 10
317.0959793099
 20
174.1918152479
 10
317.0929378081
 20
174.2235188454
 10
317.0886825062
 20
174.2548420019
 10
317.083121481
 20
174.2857298008
 10
317.0759789627
 20
174.3160174883
 10
317.0671868508
 20
174.3457820997
 10
317.0568132458
 20
174.374946606
 10
317.0447866803
 20
174.4031151601
 10
317.0310827502
 20
174.430265136
 10
317.0157258594
 20
174.4564191698
 10
316.9987177521
 20
174.4812493108
 10
316.9799378582
 20
174.5046991205
 10
316.9595067477
 20
174.5268250495
 10
316.9377878746
 20
174.5474684822
 10
316.914775363
 20
174.5665655366
 10
316.8904750888
 20
174.5841801062
 10
316.8652681326
 20
174.6003452381
 10
316.8391185349
 20
174.6150127847
 10
316.8120622552
 20
174.6282309022
 10
316.7845882526
 20
174.6401770926
 10
316.7568124689
 20
174.6508066041
 10
316.7286189622
 20
174.660164194
 10
316.7001488659
 20
174.6685616265
 10
316.6715184615
 20
174.6760476664
 10
316.6426114674
 20
174.6825735518
 10
316.6132201725
 20
174.6883047564
 10
316.5833626639
 20
174.6932554488
 10
316.5530208545
 20
174.697411462
 10
316.5219327708
 20
174.700895766
 10
316.4901176623
 20
174.7036262185
 10
316.4575562796
 20
174.7056849625
 10
316.423928902
 20
174.707441396
 10
316.389128956
 20
174.7090186517
 10
316.3532630152
 20
174.7102935971
 10
316.3163310794
 20
174.7112662323
  0
LINE
  5
393
100
AcDbEntity
  8
0
100
AcDbLine
 62
7
  6
CONTINUOUS
 10
317.353404582
 20
174.7112662323
 11
317.353404582
 21
172.8112662323
  0
LINE
  5
394
100
AcDbEntity
  8
0
100
AcDbLine
 62
7
  6
CONTINUOUS
 10
317.4844473314
 20
144.3908706017
 11
317.4844473314
 21
144.2128351338
  0
LINE
  5
395
100
AcDbEntity
  8
0
100
AcDbLine
 62
7
  6
CONTINUOUS
 10
317.761318582
 20
173.1270152323
 11
317.761318582
 21
174.7112662323
  0
LINE
  5
396
100
AcDbEntity
  8
0
100
AcDbLine
 62
7
  6
CONTINUOUS
 10
317.769870582
 20
140.8862662323
 11
317.769870582
 21
139.6362662323
  0
LINE
  5
397
100
AcDbEntity
  8
0
100
AcDbLine
 62
7
  6
CONTINUOUS
 10
317.8527965706
 20
144.4348678596
 11
317.8527965706
 21
143.2612662323
  0
LINE
  5
398
100
AcDbEntity
  8
0
100
AcDbLine
 62
7
  6
CONTINUOUS
 10
317.938785582
 20
139.7859832323
 11
317.938785582
 21
140.2037952323
  0
LINE
  5
399
100
AcDbEntity
  8
0
100
AcDbLine
 62
7
  6
CONTINUOUS
 10
317.938785582
 20
140.3535122323
 11
317.938785582
 21
140.7365492323
  0
LINE
  5
39A
100
AcDbEntity
  8
0
100
AcDbLine
 62
7
  6
CONTINUOUS
 10
318.0369711679
 20
143.2612662323
 11
318.0369711679
 21
144.7674054511
  0
LINE
  5
39B
100
AcDbEntity
  8
0
100
AcDbLine
 62
7
  6
CONTINUOUS
 10
318.080400582
 20
178.2427322323
 11
318.080400582
 21
176.3427722323
  0
LINE
  5
39C
100
AcDbEntity
  8
0
100
AcDbLine
 62
7
  6
CONTINUOUS
 10
318.4482945365
 20
143.7892335065
 11
318.4482945365
 21
143.6204067551
  0
LINE
  5
39D
100
AcDbEntity
  8
0
100
AcDbLine
 62
7
  6
CONTINUOUS
 10
318.464317582
 20
172.8112662323
 11
318.464317582
 21
173.1270152323
  0
LINE
  5
39E
100
AcDbEntity
  8
0
100
AcDbLine
 62
7
  6
CONTINUOUS
 10
318.476972582
 20
176.3427722323
 11
318.476972582
 21
178.2427322323
  0
LINE
  5
39F
100
AcDbEntity
  8
0
100
AcDbLine
 62
7
  6
CONTINUOUS
 10
318.622984582
 20
140.2037952323
 11
318.622984582
 21
140.3535122323
  0
LWPOLYLINE
  5
3A0
100
AcDbEntity
  8
0
100
AcDbPolyline
 62
7
  6
CONTINUOUS
 90
25
 70
0
 10
317.3622234293
 20
140.2612662323
 10
317.3621303627
 20
140.2294097516
 10
317.3608720459
 20
140.1983131846
 10
317.3584484789
 20
140.1679765261
 10
317.3548258714
 20
140.1384364193
 10
317.3500380136
 20
140.1096562109
 10
317.3441862763
 20
140.081525952
 10
317.337471488
 20
140.0539259483
 10
317.3296928201
 20
140.0269758867
 10
317.3203491575
 20
140.0009248891
 10
317.3093113607
 20
139.9757428185
 10
317.296708569
 20
139.9514598018
 10
317.282427086
 20
139.9284153537
 10
317.26637491
 20
139.906587009
 10
317.2486440426
 20
139.8859972205
 10
317.2293967915
 20
139.8670528766
 10
317.2085164657
 20
139.8497819322
 10
317.1861197561
 20
139.8341564188
 10
317.1627190432
 20
139.8204993373
 10
317.1383283437
 20
139.8089114398
 10
317.112933641
 20
139.7992919628
 10
317.087005266
 20
139.7916616334
 10
317.0606999957
 20
139.7860273587
 10
317.0338610531
 20
139.7823822255
 10
317.0064884382
 20
139.7807262323
  0
LWPOLYLINE
  5
3A1
100
AcDbEntity
  8
0
100
AcDbPolyline
 62
7
  6
CONTINUOUS
 90
25
 70
0
 10
317.5359814076
 20
140.2612662323
 10
317.5361678499
 20
140.3037724595
 10
317.5343337509
 20
140.345306184
 10
317.5304791106
 20
140.3858673965
 10
317.5245621766
 20
140.4254533363
 10
317.5166247012
 20
140.4640667462
 10
317.5067919421
 20
140.5017158734
 10
317.4951720199
 20
140.5385424521
 10
317.4816568138
 20
140.5744047327
 10
317.4660472196
 20
140.6088857335
 10
317.4482908714
 20
140.6419733571
 10
317.428440135
 20
140.67367968
 10
317.4064530038
 20
140.7036239769
 10
317.3821937103
 20
140.7318434501
 10
317.3557980221
 20
140.7583008747
 10
317.3276312346
 20
140.7825038803
 10
317.2976381741
 20
140.804451856
 10
317.2658740145
 20
140.82414539
 10
317.2328695726
 20
140.8410939071
 10
317.1985703457
 20
140.8550557953
 10
317.1630308366
 20
140.8662726476
 10
317.1269453712
 20
140.8749786975
 10
317.0905453914
 20
140.8812520203
 10
317.0535994553
 20
140.8850145325
 10
317.0161075628
 20
140.8862662323
  0
LINE
  5
3A2
100
AcDbEntity
  8
0
100
AcDbLine
 62
7
  6
CONTINUOUS
 10
319.069850582
 20
176.3427722323
 11
319.155431582
 21
177.5833362323
  0
LINE
  5
3A3
100
AcDbEntity
  8
0
100
AcDbLine
 62
7
  6
CONTINUOUS
 10
318.862005582
 20
178.2426182323
 11
318.690460582
 21
176.3427722323
  0
LINE
  5
3A4
100
AcDbEntity
  8
0
100
AcDbLine
 62
250
  6
CONTINUOUS
 10
314.7394292576
 20
149.0478709228
 11
314.7426241727
 21
149.0574634626
  0
LINE
  5
3A5
100
AcDbEntity
  8
0
100
AcDbLine
 62
250
  6
CONTINUOUS
 10
314.9393987966
 20
148.8481450159
 11
314.941541582
 21
148.8545785998
  0
LINE
  5
3A6
100
AcDbEntity
  8
0
100
AcDbLine
 62
7
  6
CONTINUOUS
 10
323.253466582
 20
173.5297092323
 11
323.535163582
 21
174.3480892323
  0
LINE
  5
3A7
100
AcDbEntity
  8
0
100
AcDbLine
 62
7
  6
CONTINUOUS
 10
323.006072582
 20
172.8112662323
 11
323.148216582
 21
173.2139602323
  0
LINE
  5
3A8
100
AcDbEntity
  8
0
100
AcDbLine
 62
7
  6
CONTINUOUS
 10
323.303517582
 20
174.7112662323
 11
322.616605582
 21
172.8112662323
  0
LWPOLYLINE
  5
3A9
100
AcDbEntity
  8
0
100
AcDbPolyline
 62
250
  6
CONTINUOUS
 90
16
 70
0
 10
326.105348108
 20
172.1106796711
 10
326.1123253277
 20
172.1207455861
 10
326.1206672842
 20
172.1297693077
 10
326.1302107311
 20
172.1375608354
 10
326.1407730559
 20
172.1439395409
 10
326.1521295869
 20
172.148787394
 10
326.1640418149
 20
172.152060447
 10
326.1762899372
 20
172.1537155872
 10
326.1886516089
 20
172.1537029167
 10
326.2008955924
 20
172.1520226887
 10
326.2128055041
 20
172.1487232262
 10
326.2241551735
 20
172.1438491713
 10
326.2346908984
 20
172.1374564638
 10
326.244188645
 20
172.1296740016
 10
326.2524783822
 20
172.1206841017
 10
326.2594050428
 20
172.1106795023
  0
LINE
  5
3AA
100
AcDbEntity
  8
0
100
AcDbLine
 62
7
  6
CONTINUOUS
 10
324.176846582
 20
139.6362662323
 11
323.724126582
 21
140.8862662323
  0
LINE
  5
3AB
100
AcDbEntity
  8
0
100
AcDbLine
 62
7
  6
CONTINUOUS
 10
323.868647582
 20
140.0000952323
 11
323.992252582
 21
139.6362662323
  0
LINE
  5
3AC
100
AcDbEntity
  8
0
100
AcDbLine
 62
7
  6
CONTINUOUS
 10
323.621458582
 20
140.7049552323
 11
323.807699582
 21
140.1498122323
  0
LINE
  5
3AD
100
AcDbEntity
  8
0
100
AcDbLine
 62
250
  6
CONTINUOUS
 10
314.7426241727
 20
168.465069002
 11
314.7394292576
 21
168.4746615417
  0
LINE
  5
3AE
100
AcDbEntity
  8
0
100
AcDbLine
 62
250
  6
CONTINUOUS
 10
314.941541582
 20
168.6679538648
 11
314.9393987966
 21
168.6743874487
  0
LWPOLYLINE
  5
3AF
100
AcDbEntity
  8
0
100
AcDbPolyline
 62
250
  6
CONTINUOUS
 90
37
 70
0
 10
313.7257925235
 20
170.936289146
 10
313.7280935155
 20
170.9284694779
 10
313.732022632
 20
170.9209962334
 10
313.7373989567
 20
170.9138694123
 10
313.7440308851
 20
170.9070917902
 10
313.7517530037
 20
170.9006605915
 10
313.7604518126
 20
170.8945674899
 10
313.769990482
 20
170.8888176423
 10
313.780230053
 20
170.8834058918
 10
313.7910982816
 20
170.8783084405
 10
313.8024959572
 20
170.8735257638
 10
313.8143093175
 20
170.8690573864
 10
313.8264725321
 20
170.864878085
 10
313.8388971787
 20
170.8609906615
 10
313.8515009121
 20
170.857392314
 10
313.8642454001
 20
170.8540494142
 10
313.8770563566
 20
170.850963925
 10
313.8898765532
 20
170.8481338835
 10
313.9027105359
 20
170.8455197727
 10
313.915505602
 20
170.8431207598
 10
313.9282191936
 20
170.8409376776
 10
313.9408869484
 20
170.8389335077
 10
313.9534724435
 20
170.8371060809
 10
313.9659451744
 20
170.8354575663
 10
313.9783623661
 20
170.8339574533
 10
313.9906983679
 20
170.8326030312
 10
314.0029322507
 20
170.8313970107
 10
314.0151377964
 20
170.8303170124
 10
314.0272966758
 20
170.8293599862
 10
314.0393942362
 20
170.8285289821
 10
314.0515163726
 20
170.827810771
 10
314.0636489509
 20
170.8272020656
 10
314.0757809777
 20
170.8267061532
 10
314.0880070411
 20
170.8263196667
 10
314.1003517227
 20
170.8260414838
 10
314.112768082
 20
170.8258727268
 10
314.1252443374
 20
170.8258133957
  0
LINE
  5
3B0
100
AcDbEntity
  8
0
100
AcDbLine
 62
7
  6
CONTINUOUS
 10
318.680434582
 20
140.7365492323
 11
318.680434582
 21
140.8862662323
  0
LINE
  5
3B1
100
AcDbEntity
  8
0
100
AcDbLine
 62
7
  6
CONTINUOUS
 10
318.692636582
 20
139.6362662323
 11
318.692636582
 21
139.7859832323
  0
LINE
  5
3B2
100
AcDbEntity
  8
0
100
AcDbLine
 62
7
  6
CONTINUOUS
 10
319.0990449351
 20
144.465563596
 11
319.0990449351
 21
143.7892335065
  0
LINE
  5
3B3
100
AcDbEntity
  8
0
100
AcDbLine
 62
7
  6
CONTINUOUS
 10
319.0990449351
 20
143.6204067551
 11
319.0990449351
 21
143.2612662323
  0
LINE
  5
3B4
100
AcDbEntity
  8
0
100
AcDbLine
 62
7
  6
CONTINUOUS
 10
319.2832195324
 20
143.2612662323
 11
319.2832195324
 21
143.6204067551
  0
LINE
  5
3B5
100
AcDbEntity
  8
0
100
AcDbLine
 62
7
  6
CONTINUOUS
 10
319.2832195324
 20
143.7892335065
 11
319.2832195324
 21
144.7612662323
  0
LINE
  5
3B6
100
AcDbEntity
  8
0
100
AcDbLine
 62
7
  6
CONTINUOUS
 10
319.423874582
 20
140.8862662323
 11
319.423874582
 21
139.6362662323
  0
LINE
  5
3B7
100
AcDbEntity
  8
0
100
AcDbLine
 62
7
  6
CONTINUOUS
 10
319.4858116072
 20
143.6204067551
 11
319.4858116072
 21
143.7892335065
  0
LINE
  5
3B8
100
AcDbEntity
  8
0
100
AcDbLine
 62
7
  6
CONTINUOUS
 10
319.592737582
 20
139.6362662323
 11
319.592737582
 21
140.8862662323
  0
LINE
  5
3B9
100
AcDbEntity
  8
0
100
AcDbLine
 62
7
  6
CONTINUOUS
 10
319.8152794999
 20
144.3908706017
 11
319.8152794999
 21
144.2128351338
  0
LINE
  5
3BA
100
AcDbEntity
  8
0
100
AcDbLine
 62
7
  6
CONTINUOUS
 10
319.881698582
 20
140.8862662323
 11
319.881698582
 21
139.6362662323
  0
LINE
  5
3BB
100
AcDbEntity
  8
0
100
AcDbLine
 62
7
  6
CONTINUOUS
 10
320.045416582
 20
139.6362662323
 11
320.045416582
 21
140.6514162323
  0
LINE
  5
3BC
100
AcDbEntity
  8
0
100
AcDbLine
 62
7
  6
CONTINUOUS
 10
320.1836286944
 20
144.4348678596
 11
320.1836286944
 21
143.2612662323
  0
LWPOLYLINE
  5
3BD
100
AcDbEntity
  8
0
100
AcDbPolyline
 62
7
  6
CONTINUOUS
 90
25
 70
0
 10
325.785429713
 20
172.2094083678
 10
325.8049752391
 20
172.253023675
 10
325.8284654126
 20
172.2933563464
 10
325.8559002335
 20
172.3304064036
 10
325.887704969
 20
172.3645404824
 10
325.923454352
 20
172.3953919834
 10
325.9618725807
 20
172.4218610776
 10
326.0030599225
 20
172.4437916378
 10
326.04691611
 20
172.4613398265
 10
326.0918645397
 20
172.4738742517
 10
326.1379429937
 20
172.4812115603
 10
326.18511369
 20
172.4835351222
 10
326.2316866786
 20
172.4807636264
 10
326.2776384455
 20
172.4727141355
 10
326.3229925048
 20
172.4595695778
 10
326.3661294484
 20
172.4417974357
 10
326.4069732944
 20
172.419227507
 10
326.4456000248
 20
172.3920299627
 10
326.4806181778
 20
172.3611828462
 10
326.5118942712
 20
172.326551004
 10
326.5395617871
 20
172.28826955
 10
326.5626297103
 20
172.2477219384
 10
326.5807677021
 20
172.2053693145
 10
326.5943061012
 20
172.160750505
 10
326.6032449074
 20
172.113865494
  0
LINE
  5
3BE
100
AcDbEntity
  8
0
100
AcDbLine
 62
7
  6
CONTINUOUS
 10
310.332371394
 20
149.1992067091
 11
310.2944309172
 21
149.1612662323
  0
LINE
  5
3BF
100
AcDbEntity
  8
0
100
AcDbLine
 62
7
  6
CONTINUOUS
 10
329.8507117701
 20
168.3233257555
 11
329.8886522469
 21
168.3612662323
  0
LINE
  5
3C0
100
AcDbEntity
  8
0
100
AcDbLine
 62
7
  6
CONTINUOUS
 10
310.332371394
 20
168.3233257555
 11
310.2944309172
 21
168.3612662323
  0
LINE
  5
3C1
100
AcDbEntity
  8
0
100
AcDbLine
 62
7
  6
CONTINUOUS
 10
329.8507117701
 20
149.1992067091
 11
329.8886522469
 21
149.1612662323
  0
LWPOLYLINE
  5
3C2
100
AcDbEntity
  8
0
100
AcDbPolyline
 62
7
  6
CONTINUOUS
 90
10
 70
0
 10
320.840518133
 20
143.6572416879
 10
320.8462783525
 20
143.6154180754
 10
320.8547048514
 20
143.5756491619
 10
320.86579763
 20
143.5379349326
 10
320.8795463106
 20
143.5023771889
 10
320.8959612708
 20
143.4688741016
 10
320.9150736431
 20
143.4371202136
 10
320.9368938049
 20
143.4070137
 10
320.9614113789
 20
143.3786563663
 10
320.988626365
 20
143.3520482033
  0
LINE
  5
3C3
100
AcDbEntity
  8
0
100
AcDbLine
 62
7
  6
CONTINUOUS
 10
320.147802582
 20
177.5781642323
 11
320.229279582
 21
176.3427722323
  0
LWPOLYLINE
  5
3C4
100
AcDbEntity
  8
0
100
AcDbPolyline
 62
7
  6
CONTINUOUS
 90
10
 70
0
 10
321.7491132182
 20
144.3775690801
 10
321.7484445253
 20
144.399810761
 10
321.7464234057
 20
144.4218283861
 10
321.7430498594
 20
144.4436219546
 10
321.7383525212
 20
144.4651493629
 10
321.7323027564
 20
144.4864527128
 10
321.72481466
 20
144.5076583119
 10
321.7158595973
 20
144.528808263
 10
321.705466203
 20
144.5498604627
 10
321.6936344773
 20
144.5708149107
  0
LWPOLYLINE
  5
3C5
100
AcDbEntity
  8
0
100
AcDbPolyline
 62
7
  6
CONTINUOUS
 90
10
 70
0
 10
321.822782771
 20
143.7043085106
 10
321.8218373558
 20
143.7361651637
 10
321.8190534311
 20
143.7667961804
 10
321.8144309969
 20
143.7962015538
 10
321.8079320748
 20
143.8244225023
 10
321.7995946433
 20
143.8514177947
 10
321.789532637
 20
143.8770637489
 10
321.7777840344
 20
143.9013191335
 10
321.764310857
 20
143.9242251677
 10
321.749113105
 20
143.9457818458
  0
LINE
  5
3C6
100
AcDbEntity
  8
0
100
AcDbLine
 62
7
  6
CONTINUOUS
 10
320.3678034705
 20
143.2612662323
 11
320.3678034705
 21
144.7674054511
  0
LINE
  5
3C7
100
AcDbEntity
  8
0
100
AcDbLine
 62
7
  6
CONTINUOUS
 10
320.708668582
 20
174.7112662323
 11
320.708668582
 21
172.8112662323
  0
LINE
  5
3C8
100
AcDbEntity
  8
0
100
AcDbLine
 62
7
  6
CONTINUOUS
 10
320.710489582
 20
140.8862662323
 11
320.710489582
 21
139.8709112323
  0
LINE
  5
3C9
100
AcDbEntity
  8
0
100
AcDbLine
 62
7
  6
CONTINUOUS
 10
320.874126582
 20
139.6362662323
 11
320.874126582
 21
140.8862662323
  0
LINE
  5
3CA
100
AcDbEntity
  8
0
100
AcDbLine
 62
7
  6
CONTINUOUS
 10
321.090269582
 20
172.8112662323
 11
321.090269582
 21
174.4014382323
  0
LINE
  5
3CB
100
AcDbEntity
  8
0
100
AcDbLine
 62
7
  6
CONTINUOUS
 10
321.648833582
 20
140.8862662323
 11
321.648833582
 21
139.6362662323
  0
LINE
  5
3CC
100
AcDbEntity
  8
0
100
AcDbLine
 62
7
  6
CONTINUOUS
 10
321.817747582
 20
139.6362662323
 11
321.817747582
 21
140.8862662323
  0
LINE
  5
3CD
100
AcDbEntity
  8
0
100
AcDbLine
 62
250
  6
CONTINUOUS
 10
325.2436843674
 20
168.6743874487
 11
325.241541582
 21
168.6679538648
  0
LINE
  5
3CE
100
AcDbEntity
  8
0
100
AcDbLine
 62
7
  6
CONTINUOUS
 10
314.561241582
 20
139.6362662323
 11
314.912875582
 21
140.6861042323
  0
LINE
  5
3CF
100
AcDbEntity
  8
0
100
AcDbLine
 62
7
  6
CONTINUOUS
 10
314.836298582
 20
140.8862662323
 11
314.479390582
 21
139.8243682323
  0
LWPOLYLINE
  5
3D0
100
AcDbEntity
  8
0
100
AcDbPolyline
 62
7
  6
CONTINUOUS
 90
25
 70
0
 10
314.397653451
 20
145.3131240968
 10
314.378107925
 20
145.2695087896
 10
314.3546177515
 20
145.2291761181
 10
314.3271829306
 20
145.192126061
 10
314.2953781951
 20
145.1579919821
 10
314.2596288121
 20
145.1271404811
 10
314.2212105833
 20
145.100671387
 10
314.1800232416
 20
145.0787408268
 10
314.1361670541
 20
145.0611926381
 10
314.0912186244
 20
145.0486582128
 10
314.0451401703
 20
145.0413209043
 10
313.9979694741
 20
145.0389973424
 10
313.9513964855
 20
145.0417688381
 10
313.9054447186
 20
145.049818329
 10
313.8600906593
 20
145.0629628868
 10
313.8169537156
 20
145.0807350288
 10
313.7761098696
 20
145.1033049576
 10
313.7374831392
 20
145.1305025018
 10
313.7024649863
 20
145.1613496183
 10
313.6711888929
 20
145.1959814606
 10
313.6435213769
 20
145.2342629146
 10
313.6204534538
 20
145.2748105262
 10
313.6023154619
 20
145.3171631501
 10
313.5887770629
 20
145.3617819595
 10
313.5798382566
 20
145.4086669706
  0
LWPOLYLINE
  5
3D1
100
AcDbEntity
  8
0
100
AcDbPolyline
 62
250
  6
CONTINUOUS
 90
15
 70
0
 10
330.0981961948
 20
144.6630114645
 10
330.0831468491
 20
144.6863695735
 10
330.0690003673
 20
144.7079906487
 10
330.0558066856
 20
144.7278073573
 10
330.0435158678
 20
144.74590041
 10
330.03195254
 20
144.7625199279
 10
330.0211271943
 20
144.7776040344
 10
330.0110293385
 20
144.7912164759
 10
330.0014521221
 20
144.8036669694
 10
329.992385694
 20
144.814798851
 10
329.9838399052
 20
144.824626517
 10
329.9756374582
 20
144.8334249375
 10
329.9677192538
 20
144.8409918227
 10
329.9601443912
 20
144.8468717606
 10
329.9529128704
 20
144.8507365822
  0
LWPOLYLINE
  5
3D2
100
AcDbEntity
  8
0
100
AcDbPolyline
 62
250
  6
CONTINUOUS
 90
3
 70
0
 10
330.148971994
 20
144.5823522599
 10
330.1311087672
 20
144.6109487248
 10
330.0981961948
 20
144.6630114645
  0
LINE
  5
3D3
100
AcDbEntity
  8
0
100
AcDbLine
 62
250
  6
CONTINUOUS
 10
330.2290468409
 20
144.4522587029
 11
330.148971994
 21
144.5823522599
  0
LWPOLYLINE
  5
3D4
100
AcDbEntity
  8
0
100
AcDbPolyline
 62
7
  6
CONTINUOUS
 90
9
 70
0
 10
329.9002219663
 20
145.0968553261
 10
329.8941266417
 20
145.1068361655
 10
329.8881838457
 20
145.1164507911
 10
329.8823975393
 20
145.1256850081
 10
329.8767637615
 20
145.1345530114
 10
329.8712706294
 20
145.1430973854
 10
329.8659141819
 20
145.1513323248
 10
329.8606983801
 20
145.1592436349
 10
329.8556232239
 20
145.1668313156
  0
LINE
  5
3D5
100
AcDbEntity
  8
0
100
AcDbLine
 62
7
  6
CONTINUOUS
 10
329.951541582
 20
145.0112662323
 11
329.9002219663
 21
145.0968553261
  0
LINE
  5
3D6
100
AcDbEntity
  8
0
100
AcDbLine
 62
7
  6
CONTINUOUS
 10
329.6967104467
 20
142.2812504018
 11
329.7067017704
 21
142.2612662323
  0
LINE
  5
3D7
100
AcDbEntity
  8
0
100
AcDbLine
 62
250
  6
CONTINUOUS
 10
325.2436843674
 20
148.8481450159
 11
325.241541582
 21
148.8545785998
  0
LINE
  5
3D8
100
AcDbEntity
  8
0
100
AcDbLine
 62
7
  6
CONTINUOUS
 10
320.617232582
 20
176.3427722323
 11
320.439575582
 21
178.2426182323
  0
LINE
  5
3D9
100
AcDbEntity
  8
0
100
AcDbLine
 62
7
  6
CONTINUOUS
 10
321.998813582
 20
140.8862662323
 11
321.998813582
 21
140.7365492323
  0
LINE
  5
3DA
100
AcDbEntity
  8
0
100
AcDbLine
 62
7
  6
CONTINUOUS
 10
322.042879582
 20
174.7112662323
 11
322.042879582
 21
173.2056062323
  0
LINE
  5
3DB
100
AcDbEntity
  8
0
100
AcDbLine
 62
7
  6
CONTINUOUS
 10
322.1461116236
 20
144.3908706017
 11
322.1461116236
 21
144.2128351338
  0
LINE
  5
3DC
100
AcDbEntity
  8
0
100
AcDbLine
 62
7
  6
CONTINUOUS
 10
322.3584261848
 20
178.220421691
 11
322.3584261848
 21
176.3427724863
  0
LINE
  5
3DD
100
AcDbEntity
  8
0
100
AcDbLine
 62
7
  6
CONTINUOUS
 10
322.421882582
 20
140.7365492323
 11
322.421882582
 21
139.6362662323
  0
LINE
  5
3DE
100
AcDbEntity
  8
0
100
AcDbLine
 62
7
  6
CONTINUOUS
 10
322.424481582
 20
172.8112662323
 11
322.424481582
 21
174.7112662323
  0
LINE
  5
3DF
100
AcDbEntity
  8
0
100
AcDbLine
 62
7
  6
CONTINUOUS
 10
322.5144608182
 20
144.4348678596
 11
322.5144608182
 21
143.2612662323
  0
LINE
  5
3E0
100
AcDbEntity
  8
0
100
AcDbLine
 62
7
  6
CONTINUOUS
 10
322.590736582
 20
139.6362662323
 11
322.590736582
 21
140.7365492323
  0
LINE
  5
3E1
100
AcDbEntity
  8
0
100
AcDbLine
 62
7
  6
CONTINUOUS
 10
322.6986355942
 20
143.2612662323
 11
322.6986355942
 21
144.7674054511
  0
LINE
  5
3E2
100
AcDbEntity
  8
0
100
AcDbLine
 62
7
  6
CONTINUOUS
 10
322.7402530852
 20
177.397415968
 11
322.7402530852
 21
177.9189606555
  0
LINE
  5
3E3
100
AcDbEntity
  8
0
100
AcDbLine
 62
7
  6
CONTINUOUS
 10
322.7534028269
 20
176.3427724863
 11
322.7534028269
 21
177.0862671488
  0
LINE
  5
3E4
100
AcDbEntity
  8
0
100
AcDbLine
 62
7
  6
CONTINUOUS
 10
323.013805582
 20
140.7365492323
 11
323.013805582
 21
140.8862662323
  0
LINE
  5
3E5
100
AcDbEntity
  8
0
100
AcDbLine
 62
7
  6
CONTINUOUS
 10
323.3826465731
 20
177.2276841985
 11
323.3826465731
 21
177.2416129226
  0
LWPOLYLINE
  5
3E6
100
AcDbEntity
  8
0
100
AcDbPolyline
 62
7
  6
CONTINUOUS
 90
25
 70
0
 10
323.2749475144
 20
177.6926511778
 10
323.274549692
 20
177.6717239281
 10
323.2729487708
 20
177.6510565586
 10
323.2701447508
 20
177.6306490704
 10
323.2661454951
 20
177.6104279579
 10
323.2609431407
 20
177.590466729
 10
323.2545140983
 20
177.5709859064
 10
323.2468709897
 20
177.551906972
 10
323.2380011932
 20
177.5333084479
 10
323.2278432548
 20
177.5156464189
 10
323.216351807
 20
177.4989071364
 10
323.2035722174
 20
177.4831043562
 10
323.1895791353
 20
177.4687354236
 10
323.1742377277
 20
177.455976647
 10
323.1576828277
 20
177.444651727
 10
323.1403935834
 20
177.4347290975
 10
323.122371179
 20
177.4263014981
 10
323.1036144305
 20
177.4192761951
 10
323.0845989331
 20
177.4133434112
 10
323.065451114
 20
177.4084981894
 10
323.0460445462
 20
177.4047454894
 10
323.0264755433
 20
177.4017904073
 10
323.0067762099
 20
177.399534642
 10
322.9869144414
 20
177.3980764955
 10
322.9668902379
 20
177.397415968
  0
LWPOLYLINE
  5
3E7
100
AcDbEntity
  8
0
100
AcDbPolyline
 62
7
  6
CONTINUOUS
 90
10
 70
0
 10
321.6273530882
 20
143.7002157725
 10
321.6261426353
 20
143.6709746214
 10
321.6227575131
 20
143.64289168
 10
321.6171977218
 20
143.6159669427
 10
321.6094855644
 20
143.5902683202
 10
321.5995987378
 20
143.5657278905
 10
321.5874703327
 20
143.5421418992
 10
321.5730780458
 20
143.5194424258
 10
321.5564441804
 20
143.497697383
 10
321.5375687363
 20
143.476906767
  0
LWPOLYLINE
  5
3E8
100
AcDbEntity
  8
0
100
AcDbPolyline
 62
7
  6
CONTINUOUS
 90
10
 70
0
 10
321.5598225754
 20
144.3816618629
 10
321.5586580692
 20
144.3539415313
 10
321.5551466568
 20
144.3278918501
 10
321.5492883383
 20
144.3035128119
 10
321.5410577873
 20
144.2807939034
 10
321.5304803302
 20
144.2597456241
 10
321.5176319461
 20
144.2403994862
 10
321.5025379615
 20
144.22276599
 10
321.48517305
 20
144.2068346242
 10
321.4655372116
 20
144.1926053839
  0
LINE
  5
3E9
100
AcDbEntity
  8
0
100
AcDbLine
 62
7
  6
CONTINUOUS
 10
321.2242152852
 20
144.133026094
 11
321.2037514609
 21
143.9713617124
  0
LWPOLYLINE
  5
3EA
100
AcDbEntity
  8
0
100
AcDbPolyline
 62
7
  6
CONTINUOUS
 90
10
 70
0
 10
321.0431103867
 20
144.3458501704
 10
321.0478269528
 20
144.3738143156
 10
321.0539282641
 20
144.4005300731
 10
321.0614143209
 20
144.425997437
 10
321.0703019733
 20
144.4503604008
 10
321.0805743712
 20
144.4734749606
 10
321.092180963
 20
144.4949091125
 10
321.1051048983
 20
144.5145188507
 10
321.1193630276
 20
144.5324481688
 10
321.1349553509
 20
144.5486970615
  0
LINE
  5
3EB
100
AcDbEntity
  8
0
100
AcDbLine
 62
250
  6
CONTINUOUS
 10
325.4436539065
 20
168.4746615417
 11
325.4404589914
 21
168.465069002
  0
LINE
  5
3EC
100
AcDbEntity
  8
0
100
AcDbLine
 62
7
  6
CONTINUOUS
 10
315.400390582
 20
139.6362662323
 11
315.530980582
 21
140.0000952323
  0
LINE
  5
3ED
100
AcDbEntity
  8
0
100
AcDbLine
 62
7
  6
CONTINUOUS
 10
315.583225582
 20
140.1498122323
 11
315.785237582
 21
140.7049552323
  0
LINE
  5
3EE
100
AcDbEntity
  8
0
100
AcDbLine
 62
7
  6
CONTINUOUS
 10
315.696346582
 20
140.8862662323
 11
315.226310582
 21
139.6362662323
  0
LWPOLYLINE
  5
3EF
100
AcDbEntity
  8
0
100
AcDbPolyline
 62
250
  6
CONTINUOUS
 90
16
 70
0
 10
314.07773506
 20
145.4118528
 10
314.0707578419
 20
145.4017868852
 10
314.0624158866
 20
145.3927631631
 10
314.0528724403
 20
145.3849716343
 10
314.0423101151
 20
145.3785929272
 10
314.0309535828
 20
145.3737450725
 10
314.0190413536
 20
145.3704720185
 10
314.0067932309
 20
145.3688168776
 10
313.994431559
 20
145.3688295476
 10
313.9821875748
 20
145.3705097752
 10
313.970277656
 20
145.3738092399
 10
313.9589279797
 20
145.378683299
 10
313.9483922644
 20
145.3850760017
 10
313.9388945437
 20
145.3928584396
 10
313.930604837
 20
145.4018482944
 10
313.9236782041
 20
145.4118528258
  0
LWPOLYLINE
  5
3F0
100
AcDbEntity
  8
0
100
AcDbPolyline
 62
250
  6
CONTINUOUS
 90
19
 70
0
 10
326.4572906406
 20
146.5862409344
 10
326.4529149591
 20
146.5984968612
 10
326.4445551123
 20
146.6100257568
 10
326.432692776
 20
146.6208276211
 10
326.4178211164
 20
146.6309288057
 10
326.4004173255
 20
146.640302959
 10
326.3809220274
 20
146.6488710259
 10
326.3598260984
 20
146.6565790054
 10
326.3374929395
 20
146.6634808985
 10
326.3140711942
 20
146.6696596535
 10
326.2900470587
 20
146.6750923342
 10
326.2655366029
 20
146.6798018768
 10
326.239928317
 20
146.6839400391
 10
326.213459066
 20
146.6875705357
 10
326.1861823762
 20
146.690629652
 10
326.1570000829
 20
146.693078002
 10
326.1255774002
 20
146.6949024572
 10
326.0924600173
 20
146.6961161462
 10
326.0578388267
 20
146.6967190689
  0
LINE
  5
3F1
100
AcDbEntity
  8
0
100
AcDbLine
 62
250
  6
CONTINUOUS
 10
325.4436539065
 20
149.0478709228
 11
325.4404589914
 21
149.0574634626
  0
LINE
  5
3F2
100
AcDbEntity
  8
0
100
AcDbLine
 62
7
  6
CONTINUOUS
 10
316.370777582
 20
178.2426182323
 11
316.973065582
 21
176.3427722323
  0
LINE
  5
3F3
100
AcDbEntity
  8
0
100
AcDbLine
 62
7
  6
CONTINUOUS
 10
317.163722582
 20
176.9348952323
 11
316.801577582
 21
178.2426182323
  0
LWPOLYLINE
  5
3F4
100
AcDbEntity
  8
0
100
AcDbPolyline
 62
250
  6
CONTINUOUS
 90
19
 70
0
 10
326.3074962104
 20
146.4502971506
 10
326.3042585142
 20
146.462549686
 10
326.2991338867
 20
146.4740765686
 10
326.2921223277
 20
146.4848777983
 10
326.2829439591
 20
146.494980493
 10
326.2718786591
 20
146.5043575349
 10
326.2597660625
 20
146.5129275703
 10
326.2467057439
 20
146.5206355009
 10
326.2325981287
 20
146.5275364251
 10
326.2179841281
 20
146.5337142838
 10
326.2030786066
 20
146.5391463545
 10
326.1876666996
 20
146.5438553597
 10
326.171644724
 20
146.5479934081
 10
326.1551505348
 20
146.5516246441
 10
326.1380462769
 20
146.5546849233
 10
326.119814702
 20
146.557133921
 10
326.1002833939
 20
146.5589581957
 10
326.0796247688
 20
146.560171189
 10
326.0578388267
 20
146.5607729008
  0
LINE
  5
3F5
100
AcDbEntity
  8
0
100
AcDbLine
 62
7
  6
CONTINUOUS
 10
324.331718582
 20
140.8862662323
 11
324.331718582
 21
139.6362662323
  0
LINE
  5
3F6
100
AcDbEntity
  8
0
100
AcDbLine
 62
7
  6
CONTINUOUS
 10
324.500643582
 20
139.7859832323
 11
324.500643582
 21
140.8862662323
  0
LINE
  5
3F7
100
AcDbEntity
  8
0
100
AcDbLine
 62
7
  6
CONTINUOUS
 10
325.134387582
 20
139.6362662323
 11
325.134387582
 21
139.7859832323
  0
LINE
  5
3F8
100
AcDbEntity
  8
0
100
AcDbLine
 62
250
  6
CONTINUOUS
 10
325.2436843674
 20
146.4654849484
 11
325.2436843674
 21
148.8481450159
  0
LINE
  5
3F9
100
AcDbEntity
  8
0
100
AcDbLine
 62
250
  6
CONTINUOUS
 10
325.2436843674
 20
168.6743874487
 11
325.2436843674
 21
171.0570475161
  0
LINE
  5
3FA
100
AcDbEntity
  8
0
100
AcDbLine
 62
250
  6
CONTINUOUS
 10
326.3074962104
 20
171.072235314
 11
326.3103303668
 21
171.0974527314
  0
LINE
  5
3FB
100
AcDbEntity
  8
0
100
AcDbLine
 62
250
  6
CONTINUOUS
 10
326.4572906406
 20
170.936289146
 11
326.4730129744
 21
171.0761814434
  0
LWPOLYLINE
  5
3FC
100
AcDbEntity
  8
0
100
AcDbPolyline
 62
7
  6
CONTINUOUS
 90
10
 70
0
 10
317.9182808709
 20
144.7674054511
 10
317.9056103853
 20
144.7440852676
 10
317.8915008784
 20
144.7210207066
 10
317.8759523502
 20
144.6982117671
 10
317.8588849739
 20
144.675654617
 10
317.8403785763
 20
144.6533530865
 10
317.8206726382
 20
144.6313186688
 10
317.7998469863
 20
144.6095551941
 10
317.7778217938
 20
144.5880588302
 10
317.7545970607
 20
144.5668295763
  0
LINE
  5
3FD
100
AcDbEntity
  8
0
100
AcDbLine
 62
250
  6
CONTINUOUS
 10
313.7100701897
 20
145.6721456002
 11
313.5504946601
 21
145.5125700706
  0
LINE
  5
3FE
100
AcDbEntity
  8
0
100
AcDbLine
 62
250
  6
CONTINUOUS
 10
313.9097960966
 20
145.4724196933
 11
313.8164713318
 21
145.3790949285
  0
LWPOLYLINE
  5
3FF
100
AcDbEntity
  8
0
100
AcDbPolyline
 62
7
  6
CONTINUOUS
 90
16
 70
0
 10
310.332371394
 20
168.3233257555
 10
310.3356439604
 20
168.3217155821
 10
310.3417834168
 20
168.3201608246
 10
310.3507897633
 20
168.3186614831
 10
310.3628228324
 20
168.3172028834
 10
310.3777227917
 20
168.3157996995
 10
310.3950101431
 20
168.3144959541
 10
310.414726472
 20
168.3132961131
 10
310.4368301931
 20
168.3121957105
 10
310.4607170523
 20
168.3112253701
 10
310.4864928539
 20
168.3103874294
 10
310.5140517936
 20
168.3096795509
 10
310.542472204
 20
168.3091253466
 10
310.5714468627
 20
168.3087326871
 10
310.6012829922
 20
168.3084937018
 10
314.441541582
 20
168.3084083872
  0
LINE
  5
400
100
AcDbEntity
  8
0
100
AcDbLine
 62
250
  6
CONTINUOUS
 10
313.5504946601
 20
172.009962394
 11
313.7100701897
 21
171.8503868643
  0
LINE
  5
401
100
AcDbEntity
  8
0
100
AcDbLine
 62
250
  6
CONTINUOUS
 10
313.8164713318
 20
172.1434375361
 11
313.9097960966
 21
172.0501127713
  0
LINE
  5
402
100
AcDbEntity
  8
0
100
AcDbLine
 62
7
  6
CONTINUOUS
 10
320.500814582
 20
172.8112662323
 11
319.840286582
 21
174.7112662323
  0
LINE
  5
403
100
AcDbEntity
  8
0
100
AcDbLine
 62
7
  6
CONTINUOUS
 10
319.953401582
 20
173.2139602323
 11
320.090254582
 21
172.8112662323
  0
LINE
  5
404
100
AcDbEntity
  8
0
100
AcDbLine
 62
7
  6
CONTINUOUS
 10
319.587763582
 20
174.3481962323
 11
319.850797582
 21
173.5297092323
  0
LINE
  5
405
100
AcDbEntity
  8
0
100
AcDbLine
 62
250
  6
CONTINUOUS
 10
326.3103303668
 20
146.4250797332
 11
326.3074962104
 21
146.4502971506
  0
LINE
  5
406
100
AcDbEntity
  8
0
100
AcDbLine
 62
250
  6
CONTINUOUS
 10
326.4730129744
 20
146.4463510212
 11
326.4572906406
 21
146.5862433186
  0
LWPOLYLINE
  5
407
100
AcDbEntity
  8
0
100
AcDbPolyline
 62
250
  6
CONTINUOUS
 90
13
 70
0
 10
325.3936615217
 20
171.1929936842
 10
325.3937635943
 20
171.1917260381
 10
325.3940424774
 20
171.1904395111
 10
325.3944981712
 20
171.1891341031
 10
325.3951148591
 20
171.1878079476
 10
325.3959083575
 20
171.1864629112
 10
325.396926116
 20
171.1851045939
 10
325.3981668569
 20
171.18372645
 10
325.3996318577
 20
171.1823350253
 10
325.4013724009
 20
171.180955557
 10
325.4034055807
 20
171.1795964577
 10
325.4057143028
 20
171.1782493148
 10
325.4082985674
 20
171.1769141284
  0
LWPOLYLINE
  5
408
100
AcDbEntity
  8
0
100
AcDbPolyline
 62
250
  6
CONTINUOUS
 90
13
 70
0
 10
326.4572906406
 20
148.8346645306
 10
326.4555164671
 20
148.8606900599
 10
326.450366812
 20
148.8862716205
 10
326.4419295558
 20
148.9109730084
 10
326.4303486227
 20
148.9343730633
 10
326.4158215555
 20
148.9560727844
 10
326.3985961708
 20
148.9757021496
 10
326.3789662633
 20
148.9929265149
 10
326.3572665935
 20
149.0074522764
 10
326.3338672349
 20
149.0190318329
 10
326.3091672068
 20
149.0274678499
 10
326.283587661
 20
149.0326166081
 10
326.2575647305
 20
149.0343904344
  0
LINE
  5
409
100
AcDbEntity
  8
0
100
AcDbLine
 62
250
  6
CONTINUOUS
 10
325.241541582
 20
171.1142914877
 11
325.2436843674
 21
171.0570475161
  0
LINE
  5
40A
100
AcDbEntity
  8
0
100
AcDbLine
 62
250
  6
CONTINUOUS
 10
325.3897646571
 20
171.29709744
 11
325.3936615217
 21
171.1929936842
  0
LWPOLYLINE
  5
40B
100
AcDbEntity
  8
RACCORDO
100
AcDbPolyline
 62
250
  6
CONTINUOUS
 90
64
 70
0
 10
325.2832840125
 20
158.7612662323
 10
325.2768565677
 20
159.0200807388
 10
325.2576454658
 20
159.2773762736
 10
325.2256507066
 20
159.5331527699
 10
325.18072258
 20
159.7881870329
 10
325.1230107961
 20
160.0417021291
 10
325.0529644859
 20
160.2913673956
 10
324.9705048728
 20
160.5369845106
 10
324.8757107334
 20
160.7787517092
 10
324.7692675269
 20
161.0149331906
 10
324.6510754416
 20
161.2455204934
 10
324.5212342892
 20
161.4705220474
 10
324.3807289651
 20
161.6882274188
 10
324.2294864273
 20
161.8985671092
 10
324.0675797177
 20
162.1016106486
 10
323.8962128579
 20
162.2958561801
 10
323.715313173
 20
162.4812411402
 10
323.524953338
 20
162.6578281799
 10
323.3265553987
 20
162.8243032925
 10
323.1200606122
 20
162.9805898492
 10
322.9055277215
 20
163.1267646051
 10
322.6845550018
 20
163.2617436498
 10
322.4570949128
 20
163.385443507
 10
322.2231949948
 20
163.497947793
 10
321.9845961448
 20
163.5984232467
 10
321.7412642787
 20
163.6867802804
 10
321.4932334806
 20
163.7631086077
 10
321.2423468999
 20
163.826843918
 10
320.9885835917
 20
163.8778928673
 10
320.731964501
 20
163.9163488865
 10
320.4743956109
 20
163.9419278182
 10
320.2158700915
 20
163.954534279
 10
319.9563947728
 20
163.9542636829
 10
319.6978961285
 20
163.9411180538
 10
319.440381298
 20
163.9150020371
 10
319.183843142
 20
163.8760109558
 10
318.9301867159
 20
163.8244328364
 10
318.679432872
 20
163.7601742053
 10
318.431560758
 20
163.6833284485
 10
318.1884128733
 20
163.5944638723
 10
317.9500238495
 20
163.4934909863
 10
317.716359055
 20
163.3804991547
 10
317.489157094
 20
163.2563249647
 10
317.2684650316
 20
163.1208843802
 10
317.0542358027
 20
162.9742612972
 10
316.8480668168
 20
162.8175442117
 10
316.6500194321
 20
162.6506594445
 10
316.4600322903
 20
162.4736805489
 10
316.2795187263
 20
162.2879168899
 10
316.1085411434
 20
162.093288706
 10
315.9470371383
 20
161.8898756718
 10
315.7962328355
 20
161.6792263356
 10
315.6562255462
 20
161.4613156525
 10
315.5269179592
 20
161.2361686375
 10
315.4092442658
 20
161.0054089621
 10
315.3032581901
 20
160.768851758
 10
315.208906008
 20
160.5266819245
 10
315.1269607384
 20
160.2810778169
 10
315.0575904678
 20
160.031966577
 10
315.0006271097
 20
159.7794211536
 10
314.9563394231
 20
159.5258386395
 10
314.9248169944
 20
159.2720181113
 10
314.9059702372
 20
159.0171606204
 10
314.8997991515
 20
158.7612662323
  0
LINE
  5
40C
100
AcDbEntity
  8
0
100
AcDbLine
 62
250
  6
CONTINUOUS
 10
325.3022325502
 20
146.4815645043
 11
325.3022325502
 21
148.8481450159
  0
LINE
  5
40D
100
AcDbEntity
  8
0
100
AcDbLine
 62
250
  6
CONTINUOUS
 10
325.3022325502
 20
168.6743874487
 11
325.3022325502
 21
171.0409679603
  0
LINE
  5
40E
100
AcDbEntity
  8
0
100
AcDbLine
 62
250
  6
CONTINUOUS
 10
325.4427592181
 20
145.6716097438
 11
325.4427592181
 21
146.2764838593
  0
LINE
  5
40F
100
AcDbEntity
  8
0
100
AcDbLine
 62
250
  6
CONTINUOUS
 10
325.4427592181
 20
171.2460486053
 11
325.4427592181
 21
171.8509227208
  0
LINE
  5
410
100
AcDbEntity
  8
0
100
AcDbLine
 62
250
  6
CONTINUOUS
 10
325.499524372
 20
145.6716097438
 11
325.499524372
 21
146.3399600251
  0
LINE
  5
411
100
AcDbEntity
  8
0
100
AcDbLine
 62
250
  6
CONTINUOUS
 10
325.499524372
 20
171.1825724395
 11
325.499524372
 21
171.8509227208
  0
LINE
  5
412
100
AcDbEntity
  8
0
100
AcDbLine
 62
7
  6
CONTINUOUS
 10
325.663603582
 20
140.1394002323
 11
325.663603582
 21
139.6362662323
  0
LINE
  5
413
100
AcDbEntity
  8
0
100
AcDbLine
 62
250
  6
CONTINUOUS
 10
325.6942758322
 20
145.6820785938
 11
325.6942758322
 21
146.4331085046
  0
LINE
  5
414
100
AcDbEntity
  8
0
100
AcDbLine
 62
250
  6
CONTINUOUS
 10
325.6942758322
 20
171.08942396
 11
325.6942758322
 21
171.8404538707
  0
LINE
  5
415
100
AcDbEntity
  8
0
100
AcDbLine
 62
7
  6
CONTINUOUS
 10
325.741541582
 20
168.4608410129
 11
325.741541582
 21
168.3084083872
  0
LINE
  5
416
100
AcDbEntity
  8
0
100
AcDbLine
 62
7
  6
CONTINUOUS
 10
325.741541582
 20
145.4608410129
 11
325.741541582
 21
145.3131240968
  0
LINE
  5
417
100
AcDbEntity
  8
0
100
AcDbLine
 62
7
  6
CONTINUOUS
 10
325.741541582
 20
149.0616914516
 11
325.741541582
 21
149.2141240773
  0
LINE
  5
418
100
AcDbEntity
  8
0
100
AcDbLine
 62
7
  6
CONTINUOUS
 10
325.741541582
 20
172.0616914516
 11
325.741541582
 21
172.2094083678
  0
LINE
  5
419
100
AcDbEntity
  8
0
100
AcDbLine
 62
250
  6
CONTINUOUS
 10
325.7489883421
 20
168.6978009276
 11
325.7489883421
 21
170.8326423133
  0
LINE
  5
41A
100
AcDbEntity
  8
0
100
AcDbLine
 62
250
  6
CONTINUOUS
 10
325.7489881348
 20
146.6898900547
 11
325.7489883421
 21
148.824731537
  0
LINE
  5
41B
100
AcDbEntity
  8
0
100
AcDbLine
 62
7
  6
CONTINUOUS
 10
325.832426582
 20
139.6362662323
 11
325.832426582
 21
140.1394002323
  0
LINE
  5
41C
100
AcDbEntity
  8
0
100
AcDbLine
 62
250
  6
CONTINUOUS
 10
325.8374802173
 20
145.4823526869
 11
325.8374802173
 21
146.4612662323
  0
LINE
  5
41D
100
AcDbEntity
  8
0
100
AcDbLine
 62
250
  6
CONTINUOUS
 10
325.8374802173
 20
171.0612662323
 11
325.8374802173
 21
172.0401797777
  0
LINE
  5
41E
100
AcDbEntity
  8
0
100
AcDbLine
 62
250
  6
CONTINUOUS
 10
325.8904096983
 20
146.5607729008
 11
325.8904096983
 21
149.0244574439
  0
LINE
  5
41F
100
AcDbEntity
  8
0
100
AcDbLine
 62
250
  6
CONTINUOUS
 10
325.8904096983
 20
168.4980750207
 11
325.8904096983
 21
170.9617595638
  0
LINE
  5
420
100
AcDbEntity
  8
0
100
AcDbLine
 62
250
  6
CONTINUOUS
 10
326.0578388267
 20
146.5607729008
 11
326.0578388267
 21
149.0244574439
  0
LINE
  5
421
100
AcDbEntity
  8
0
100
AcDbLine
 62
250
  6
CONTINUOUS
 10
326.0578388267
 20
168.4980750207
 11
326.0578388267
 21
170.9617595638
  0
LINE
  5
422
100
AcDbEntity
  8
0
100
AcDbLine
 62
250
  6
CONTINUOUS
 10
326.0735611605
 20
145.4823526869
 11
326.0735611605
 21
146.4612662323
  0
LINE
  5
423
100
AcDbEntity
  8
0
100
AcDbLine
 62
250
  6
CONTINUOUS
 10
326.0735611605
 20
171.0612662323
 11
326.0735611605
 21
172.0401797777
  0
LINE
  5
424
100
AcDbEntity
  8
0
100
AcDbLine
 62
7
  6
CONTINUOUS
 10
326.091541582
 20
176.0612662323
 11
326.091541582
 21
175.2612662323
  0
LINE
  5
425
100
AcDbEntity
  8
0
100
AcDbLine
 62
7
  6
CONTINUOUS
 10
326.091541582
 20
142.2612662323
 11
326.091541582
 21
141.4612662323
  0
LINE
  5
426
100
AcDbEntity
  8
0
100
AcDbLine
 62
250
  6
CONTINUOUS
 10
326.4572906406
 20
146.5862433186
 11
326.4572906406
 21
148.8346645306
  0
LINE
  5
427
100
AcDbEntity
  8
0
100
AcDbLine
 62
250
  6
CONTINUOUS
 10
326.4572906406
 20
168.687867934
 11
326.4572906406
 21
170.936289146
  0
LINE
  5
428
100
AcDbEntity
  8
0
100
AcDbLine
 62
250
  6
CONTINUOUS
 10
326.4730129744
 20
171.8503868643
 11
326.4730129744
 21
171.0761814434
  0
LINE
  5
429
100
AcDbEntity
  8
0
100
AcDbLine
 62
250
  6
CONTINUOUS
 10
326.4730129744
 20
146.4463510212
 11
326.4730129744
 21
145.6721456002
  0
LINE
  5
42A
100
AcDbEntity
  8
0
100
AcDbLine
 62
7
  6
CONTINUOUS
 10
326.5841664354
 20
169.167375505
 11
326.5841664354
 21
168.5609921392
  0
LINE
  5
42B
100
AcDbEntity
  8
0
100
AcDbLine
 62
7
  6
CONTINUOUS
 10
326.5841664354
 20
148.3551569596
 11
326.5841664354
 21
148.9615403253
  0
LWPOLYLINE
  5
42C
100
AcDbEntity
  8
RACCORDO
100
AcDbPolyline
 62
250
  6
CONTINUOUS
 90
70
 70
0
 10
325.6403554339
 20
158.7612662323
 10
325.6365954144
 20
158.5572206953
 10
325.6255793806
 20
158.3566841346
 10
325.6076851244
 20
158.1599367943
 10
325.5833832554
 20
157.9679262866
 10
325.5529872329
 20
157.7801682859
 10
325.5164325078
 20
157.5947657438
 10
325.4737524715
 20
157.4113564018
 10
325.4252143492
 20
157.2306690824
 10
325.3708531982
 20
157.0524680597
 10
325.311197643
 20
156.8780146982
 10
325.2460766387
 20
156.7063650975
 10
325.1740768551
 20
156.5341166442
 10
325.0951271345
 20
156.3618827758
 10
325.0089035516
 20
156.1896986736
 10
324.9128210385
 20
156.0136822894
 10
324.8057679326
 20
155.8336931338
 10
324.6875444889
 20
155.6512659016
 10
324.5562866271
 20
155.4654985159
 10
324.4109726179
 20
155.277114631
 10
324.2510640889
 20
155.0875659637
 10
324.0751701652
 20
154.8974215402
 10
323.8828532235
 20
154.7084373514
 10
323.6731693014
 20
154.5218765189
 10
323.4437461789
 20
154.3381228449
 10
323.1932304508
 20
154.1588805212
 10
322.9217466301
 20
153.9870177195
 10
322.6291534881
 20
153.8251792096
 10
322.3135210989
 20
153.6751879047
 10
321.9767908984
 20
153.540911855
 10
321.6255163869
 20
153.4270467691
 10
321.2603469047
 20
153.3352598455
 10
320.8831027236
 20
153.2674993831
 10
320.5031590447
 20
153.2260173599
 10
320.1227146443
 20
153.2108193441
 10
319.7432004222
 20
153.2216733199
 10
319.3730444285
 20
153.2574599688
 10
319.0145252537
 20
153.316287212
 10
318.6681563027
 20
153.3964568705
 10
318.3391597845
 20
153.4947979075
 10
318.0296368537
 20
153.6081693823
 10
317.738398015
 20
153.7345681526
 10
317.4651755146
 20
153.8718515865
 10
317.2103413548
 20
154.0176393669
 10
316.9732619648
 20
154.170112265
 10
316.7521002358
 20
154.3284729242
 10
316.5462739308
 20
154.4914031577
 10
316.3556766406
 20
154.6572388313
 10
316.1792706372
 20
154.8251446759
 10
316.0166644013
 20
154.9938356649
 10
315.867228487
 20
155.1623069817
 10
315.7296559009
 20
155.3304471087
 10
315.6039080774
 20
155.4967499944
 10
315.4889307438
 20
155.661060014
 10
315.3822778314
 20
155.8257122024
 10
315.2837397077
 20
155.9901518707
 10
315.1929833064
 20
156.1540371917
 10
315.1080114822
 20
156.3204747228
 10
315.0288366681
 20
156.4893684875
 10
314.9555578472
 20
156.6603984344
 10
314.8869792316
 20
156.8366714471
 10
314.8234432037
 20
157.0181872584
 10
314.7653723524
 20
157.2047436032
 10
314.7123521713
 20
157.3993586461
 10
314.6650851305
 20
157.6020735007
 10
314.6243609126
 20
157.8126657628
 10
314.5905880641
 20
158.0338585098
 10
314.5648394373
 20
158.2664138888
 10
314.5484718785
 20
158.509034915
 10
314.5427277301
 20
158.7612662323
  0
LWPOLYLINE
  5
42D
100
AcDbEntity
  8
RACCORDO
100
AcDbPolyline
 62
250
  6
CONTINUOUS
 90
70
 70
0
 10
325.9974268553
 20
158.7612663036
 10
325.9927656841
 20
158.5437407784
 10
325.9811760474
 20
158.3304854323
 10
325.9626579452
 20
158.1215003008
 10
325.9370433918
 20
157.917307073
 10
325.9045003729
 20
157.7173841169
 10
325.8655328458
 20
157.520166484
 10
325.8201850297
 20
157.3250896295
 10
325.7684127054
 20
157.1327181443
 10
325.7105871731
 20
156.9431807828
 10
325.6473567655
 20
156.7575486447
 10
325.5780731499
 20
156.5747506573
 10
325.5011626283
 20
156.391702327
 10
325.4173141951
 20
156.208385431
 10
325.3258388558
 20
156.0248182443
 10
325.223095929
 20
155.8379710525
 10
325.1090269137
 20
155.646524455
 10
324.9836903109
 20
155.4517979569
 10
324.8436209417
 20
155.2547202175
 10
324.6886781137
 20
155.054471361
 10
324.5190025195
 20
154.8518713708
 10
324.3315510577
 20
154.6503086603
 10
324.1266048043
 20
154.4494318887
 10
323.9038826834
 20
154.2495924441
 10
323.6594983656
 20
154.0552327535
 10
323.3923878446
 20
153.8651357747
 10
323.1036151266
 20
153.6805184964
 10
322.7924859018
 20
153.5094742504
 10
322.4559976454
 20
153.3514578957
 10
322.0971528821
 20
153.2070143302
 10
321.7242648758
 20
153.0858717663
 10
321.335729438
 20
152.9898784995
 10
320.9331507572
 20
152.9171858899
 10
320.5296546628
 20
152.8719766786
 10
320.1255163686
 20
152.8566925716
 10
319.7204606607
 20
152.8688917418
 10
319.3267877278
 20
152.9054316859
 10
318.9460885822
 20
152.9678729482
 10
318.5767722114
 20
153.0546551567
 10
318.226365767
 20
153.157954444
 10
317.8973383163
 20
153.2775333224
 10
317.5872207918
 20
153.413629516
 10
317.2961331433
 20
153.5591318852
 10
317.0249299341
 20
153.7132274061
 10
316.7727566008
 20
153.8767292475
 10
316.5371694034
 20
154.0449654507
 10
316.3180253626
 20
154.217616632
 10
316.1154674577
 20
154.3950022252
 10
315.9274808861
 20
154.5734084143
 10
315.7542209463
 20
154.7523328518
 10
315.5955323398
 20
154.9322778546
 10
315.4489343681
 20
155.1110365479
 10
315.3147478428
 20
155.2874983385
 10
315.1926519524
 20
155.4627737499
 10
315.0792035642
 20
155.6379875731
 10
314.9740391519
 20
155.8126494513
 10
314.8775222419
 20
155.987249695
 10
314.7873002808
 20
156.1643841199
 10
314.7028582473
 20
156.343930252
 10
314.6247111627
 20
156.5260105476
 10
314.5520515381
 20
156.7135882461
 10
314.4843555282
 20
156.9066534793
 10
314.4221469782
 20
157.1052161116
 10
314.3661899351
 20
157.3122690026
 10
314.3159094922
 20
157.5279801693
 10
314.2718805561
 20
157.7521815814
 10
314.2365918931
 20
157.9873620367
 10
314.2108730919
 20
158.2343511167
 10
314.1938945638
 20
158.4923191767
 10
314.1856563088
 20
158.7612661609
  0
LINE
  5
42E
100
AcDbEntity
  8
0
100
AcDbLine
 62
250
  6
CONTINUOUS
 10
325.2436843674
 20
146.4654849484
 11
325.241541582
 21
146.4082409768
  0
LINE
  5
42F
100
AcDbEntity
  8
0
100
AcDbLine
 62
250
  6
CONTINUOUS
 10
325.3936615217
 20
146.3295387804
 11
325.3897646571
 21
146.2254350246
  0
LWPOLYLINE
  5
430
100
AcDbEntity
  8
0
100
AcDbPolyline
 62
250
  6
CONTINUOUS
 90
13
 70
0
 10
325.2436843674
 20
148.8481450159
 10
325.2454052034
 20
148.8741105196
 10
325.2504982273
 20
148.8996622086
 10
325.2588874481
 20
148.9243633474
 10
325.2704450486
 20
148.947797892
 10
325.2849806655
 20
148.9695509642
 10
325.3022335272
 20
148.9892230635
 10
325.3218989462
 20
149.0064709327
 10
325.3436466605
 20
149.0210085521
 10
325.3671074135
 20
149.0325889941
 10
325.3918811545
 20
149.0410136983
 10
325.4175430501
 20
149.0461371594
 10
325.4436539065
 20
149.0478709228
  0
LWPOLYLINE
  5
431
100
AcDbEntity
  8
0
100
AcDbPolyline
 62
250
  6
CONTINUOUS
 90
13
 70
0
 10
325.3022325502
 20
148.8481450159
 10
325.3040457608
 20
148.8735529219
 10
325.3081290285
 20
148.8985705158
 10
325.3144219364
 20
148.9227894696
 10
325.3228309929
 20
148.9458203517
 10
325.3332225526
 20
148.9672749172
 10
325.3454182282
 20
148.9867785544
 10
325.3592120936
 20
149.0040069199
 10
325.3743827428
 20
149.018687879
 10
325.3906846855
 20
149.0305845988
 10
325.4078527616
 20
149.0395030777
 10
325.425605799
 20
149.0452967825
 10
325.4436539065
 20
149.0478709228
  0
LWPOLYLINE
  5
432
100
AcDbEntity
  8
0
100
AcDbPolyline
 62
250
  6
CONTINUOUS
 90
13
 70
0
 10
325.7489883421
 20
148.824731537
 10
325.7507997001
 20
148.8501235911
 10
325.7548790908
 20
148.8751298368
 10
325.7611672312
 20
148.8993422397
 10
325.7695720066
 20
148.9223718931
 10
325.7799606579
 20
148.943829361
 10
325.7921546132
 20
148.9633376438
 10
325.8059479919
 20
148.9805715215
 10
325.8211198736
 20
148.9952586387
 10
325.8374245405
 20
149.0071612069
 10
325.8545966721
 20
149.0160845924
 10
325.8723550921
 20
149.0218817844
 10
325.8904096983
 20
149.0244574439
  0
LINE
  5
433
100
AcDbEntity
  8
0
100
AcDbLine
 62
7
  6
CONTINUOUS
 10
319.155431582
 20
177.5833362323
 11
319.620658582
 21
176.3427722323
  0
LINE
  5
434
100
AcDbEntity
  8
0
100
AcDbLine
 62
7
  6
CONTINUOUS
 10
319.650633582
 20
177.1878182323
 11
319.258249582
 21
178.2426182323
  0
LINE
  5
435
100
AcDbEntity
  8
0
100
AcDbLine
 62
7
  6
CONTINUOUS
 10
321.721269582
 20
176.7220492323
 11
321.824002582
 21
176.3427722323
  0
LINE
  5
436
100
AcDbEntity
  8
0
100
AcDbLine
 62
7
  6
CONTINUOUS
 10
321.459784582
 20
177.7205892323
 11
321.642014582
 21
177.0155322323
  0
LINE
  5
437
100
AcDbEntity
  8
0
100
AcDbLine
 62
250
  6
CONTINUOUS
 10
329.728993361
 20
144.6615424949
 11
329.6960087263
 21
144.9922203133
  0
LINE
  5
438
100
AcDbEntity
  8
0
100
AcDbLine
 62
250
  6
CONTINUOUS
 10
329.9289857456
 20
144.8607814345
 11
329.9064698195
 21
145.086508273
  0
LWPOLYLINE
  5
439
100
AcDbEntity
  8
0
100
AcDbPolyline
 62
7
  6
CONTINUOUS
 90
7
 70
0
 10
326.632588504
 20
145.5125700706
 10
326.6317277958
 20
145.4943240537
 10
326.6292067731
 20
145.4762540708
 10
326.6250517932
 20
145.4585096909
 10
326.6193026067
 20
145.4412370288
 10
326.6120119292
 20
145.4245775578
 10
326.6032449074
 20
145.4086669706
  0
LWPOLYLINE
  5
43A
100
AcDbEntity
  8
0
100
AcDbPolyline
 62
7
  6
CONTINUOUS
 90
10
 70
0
 10
320.2491130394
 20
144.7674054511
 10
320.2364425636
 20
144.7440852675
 10
320.2223330635
 20
144.7210207068
 10
320.2067845391
 20
144.6982117679
 10
320.1897171627
 20
144.6756546191
 10
320.1712107619
 20
144.6533530902
 10
320.1515048199
 20
144.6313186731
 10
320.1306791643
 20
144.6095551979
 10
320.1086539673
 20
144.5880588326
 10
320.0854292292
 20
144.5668295763
  0
LINE
  5
43B
100
AcDbEntity
  8
0
100
AcDbLine
 62
7
  6
CONTINUOUS
 10
318.6293996137
 20
143.7892335065
 11
319.0990449351
 21
144.465563596
  0
LINE
  5
43C
100
AcDbEntity
  8
0
100
AcDbLine
 62
7
  6
CONTINUOUS
 10
319.1328101915
 20
144.7612662323
 11
318.4482945365
 21
143.7892335065
  0
LINE
  5
43D
100
AcDbEntity
  8
0
100
AcDbLine
 62
7
  6
CONTINUOUS
 10
314.091541582
 20
142.2612662323
 11
314.1120965083
 21
142.2818211586
  0
LINE
  5
43E
100
AcDbEntity
  8
0
100
AcDbLine
 62
250
  6
CONTINUOUS
 10
309.2291031484
 20
137.3214211445
 11
309.118963556
 21
137.2112815522
  0
LINE
  5
43F
100
AcDbEntity
  8
0
100
AcDbLine
 62
250
  6
CONTINUOUS
 10
309.6989494588
 20
136.8515748341
 11
309.5888098664
 21
136.7414352418
  0
LINE
  5
440
100
AcDbEntity
  8
0
100
AcDbLine
 62
7
  6
CONTINUOUS
 10
313.546978754
 20
148.3378583689
 11
313.5989167287
 21
148.3551569596
  0
LINE
  5
441
100
AcDbEntity
  8
0
100
AcDbLine
 62
7
  6
CONTINUOUS
 10
313.546978754
 20
169.1846740957
 11
313.5989167287
 21
169.167375505
  0
LINE
  5
442
100
AcDbEntity
  8
0
100
AcDbLine
 62
7
  6
CONTINUOUS
 10
314.091541582
 20
175.2612662323
 11
314.1120965083
 21
175.240711306
  0
LINE
  5
443
100
AcDbEntity
  8
0
100
AcDbLine
 62
250
  6
CONTINUOUS
 10
309.118963556
 20
180.3112509124
 11
309.2291031484
 21
180.20111132
  0
LINE
  5
444
100
AcDbEntity
  8
0
100
AcDbLine
 62
250
  6
CONTINUOUS
 10
309.5888098664
 20
180.7810972228
 11
309.6989494588
 21
180.6709576304
  0
LINE
  5
445
100
AcDbEntity
  8
0
100
AcDbLine
 62
7
  6
CONTINUOUS
 10
322.042879582
 20
173.2056062323
 11
321.313925582
 21
174.7112662323
  0
LINE
  5
446
100
AcDbEntity
  8
0
100
AcDbLine
 62
7
  6
CONTINUOUS
 10
321.090269582
 20
174.4014382323
 11
321.845536582
 21
172.8112662323
  0
LINE
  5
447
100
AcDbEntity
  8
0
100
AcDbLine
 62
7
  6
CONTINUOUS
 10
323.900837582
 20
173.2139602323
 11
324.037762582
 21
172.8112662323
  0
LINE
  5
448
100
AcDbEntity
  8
0
100
AcDbLine
 62
7
  6
CONTINUOUS
 10
323.535163582
 20
174.3480892323
 11
323.798162582
 21
173.5297092323
  0
LINE
  5
449
100
AcDbEntity
  8
0
100
AcDbLine
 62
7
  6
CONTINUOUS
 10
322.241973582
 20
176.3427722323
 11
321.659053582
 21
178.2426182323
  0
LINE
  5
44A
100
AcDbEntity
  8
0
100
AcDbLine
 62
7
  6
CONTINUOUS
 10
323.3020613637
 20
176.5435239029
 11
323.3606986473
 21
176.3427724863
  0
LINE
  5
44B
100
AcDbEntity
  8
0
100
AcDbLine
 62
7
  6
CONTINUOUS
 10
323.6530126214
 20
176.6829585071
 11
323.6065942215
 21
176.8569394525
  0
LWPOLYLINE
  5
44C
100
AcDbEntity
  8
0
100
AcDbPolyline
 62
7
  6
CONTINUOUS
 90
25
 70
0
 10
323.6065942215
 20
176.8569394525
 10
323.6008995282
 20
176.8786417133
 10
323.595137007
 20
176.8996981544
 10
323.589306658
 20
176.9201087788
 10
323.5834700434
 20
176.9398376205
 10
323.5775656009
 20
176.9589206512
 10
323.5714086436
 20
176.9774657798
 10
323.5649652257
 20
176.9954728445
 10
323.5582692928
 20
177.0129420115
 10
323.5512379956
 20
177.0299816803
 10
323.5438869201
 20
177.0466035038
 10
323.5362004802
 20
177.0627958322
 10
323.5280490676
 20
177.0786321114
 10
323.5194340238
 20
177.0941646251
 10
323.5103540073
 20
177.1093410918
 10
323.5006753859
 20
177.1240781089
 10
323.4903951158
 20
177.1384203874
 10
323.4795162409
 20
177.1523232189
 10
323.4679142599
 20
177.1655690727
 10
323.4555558791
 20
177.1782013108
 10
323.4424743923
 20
177.1901765749
 10
323.4286451803
 20
177.2011472545
 10
323.4140600365
 20
177.2109974815
 10
323.3987271675
 20
177.2198431288
 10
323.3826465731
 20
177.2276841985
  0
LINE
  5
44D
100
AcDbEntity
  8
0
100
AcDbLine
 62
7
  6
CONTINUOUS
 10
323.7421551325
 20
176.3427724863
 11
323.6530126214
 21
176.6829585071
  0
LINE
  5
44E
100
AcDbEntity
  8
0
100
AcDbLine
 62
250
  6
CONTINUOUS
 10
330.7142901653
 20
141.0110050397
 11
330.698251511
 21
141.1717958824
  0
LINE
  5
44F
100
AcDbEntity
  8
0
100
AcDbLine
 62
250
  6
CONTINUOUS
 10
330.9152039486
 20
141.2010067661
 11
330.8982438956
 21
141.371034822
  0
LWPOLYLINE
  5
450
100
AcDbEntity
  8
0
100
AcDbPolyline
 62
250
  6
CONTINUOUS
 90
5
 70
0
 10
330.8982438956
 20
141.371034822
 10
330.8981196211
 20
141.3729763323
 10
330.8980016579
 20
141.375585809
 10
330.8978900059
 20
141.378863252
 10
330.8977847681
 20
141.3828965318
  0
LWPOLYLINE
  5
451
100
AcDbEntity
  8
0
100
AcDbPolyline
 62
250
  6
CONTINUOUS
 90
3
 70
0
 10
330.698251511
 20
141.1717958824
 10
330.6981271872
 20
141.1753044041
 10
330.698009196
 20
141.1806004222
  0
LINE
  5
452
100
AcDbEntity
  8
0
100
AcDbLine
 62
250
  6
CONTINUOUS
 10
329.5691599365
 20
137.9112662323
 11
329.5620752491
 21
141.4412089198
  0
LINE
  5
453
100
AcDbEntity
  8
0
100
AcDbLine
 62
250
  6
CONTINUOUS
 10
329.86877487
 20
137.9112662323
 11
329.8627480537
 21
140.8663967532
  0
LINE
  5
454
100
AcDbEntity
  8
0
100
AcDbLine
 62
250
  6
CONTINUOUS
 10
329.5605820838
 20
142.2818211467
 11
329.5520214662
 21
148.3378583682
  0
LINE
  5
455
100
AcDbEntity
  8
0
100
AcDbLine
 62
250
  6
CONTINUOUS
 10
329.8556232239
 20
145.1668313156
 11
329.8516117621
 21
148.3428201638
  0
LINE
  5
456
100
AcDbEntity
  8
0
100
AcDbLine
 62
250
  6
CONTINUOUS
 10
329.5511021493
 20
149.2141240681
 11
329.5501094103
 21
150.2612662314
  0
LINE
  5
457
100
AcDbEntity
  8
0
100
AcDbLine
 62
250
  6
CONTINUOUS
 10
329.8507117701
 20
149.1992067091
 11
329.8497028421
 21
150.2612662323
  0
LINE
  5
458
100
AcDbEntity
  8
0
100
AcDbLine
 62
7
  6
CONTINUOUS
 10
329.6969533983
 20
141.4417680031
 11
329.6970736712
 21
141.0409884456
  0
LINE
  5
459
100
AcDbEntity
  8
0
100
AcDbLine
 62
7
  6
CONTINUOUS
 10
329.6960087263
 20
144.9922203133
 11
329.6967104467
 21
142.2812504018
  0
LINE
  5
45A
100
AcDbEntity
  8
0
100
AcDbLine
 62
7
  6
CONTINUOUS
 10
329.7067017704
 20
141.4612662323
 11
329.7067017704
 21
142.2612662323
  0
LINE
  5
45B
100
AcDbEntity
  8
0
100
AcDbLine
 62
7
  6
CONTINUOUS
 10
329.728993361
 20
144.6615424949
 11
329.728993361
 21
141.3609899697
  0
LINE
  5
45C
100
AcDbEntity
  8
0
100
AcDbLine
 62
7
  6
CONTINUOUS
 10
329.8886522469
 20
169.167375505
 11
329.8886522469
 21
168.3612662323
  0
LINE
  5
45D
100
AcDbEntity
  8
0
100
AcDbLine
 62
7
  6
CONTINUOUS
 10
329.8886522469
 20
149.1612662323
 11
329.8886522469
 21
148.3551569596
  0
LINE
  5
45E
100
AcDbEntity
  8
0
100
AcDbLine
 62
7
  6
CONTINUOUS
 10
329.9069949696
 20
176.0612662323
 11
329.9069949696
 21
175.2612662323
  0
LINE
  5
45F
100
AcDbEntity
  8
0
100
AcDbLine
 62
7
  6
CONTINUOUS
 10
329.951541582
 20
179.6112662323
 11
329.951541582
 21
145.0112662323
  0
LINE
  5
460
100
AcDbEntity
  8
0
100
AcDbLine
 62
7
  6
CONTINUOUS
 10
329.951541582
 20
141.0112662323
 11
329.951541582
 21
137.9112662323
  0
LINE
  5
461
100
AcDbEntity
  8
0
100
AcDbLine
 62
250
  6
CONTINUOUS
 10
329.5501094086
 20
167.2612662329
 11
329.5511021493
 21
168.3084083945
  0
LINE
  5
462
100
AcDbEntity
  8
0
100
AcDbLine
 62
250
  6
CONTINUOUS
 10
329.8497028404
 20
167.2612662323
 11
329.8507117701
 21
168.3233257555
  0
LINE
  5
463
100
AcDbEntity
  8
0
100
AcDbLine
 62
250
  6
CONTINUOUS
 10
329.5520214662
 20
169.1846740962
 11
329.5605820838
 21
175.2407113142
  0
LINE
  5
464
100
AcDbEntity
  8
0
100
AcDbLine
 62
250
  6
CONTINUOUS
 10
329.8516117621
 20
169.1797123007
 11
329.8601967507
 21
175.2456795014
  0
LINE
  5
465
100
AcDbEntity
  8
0
100
AcDbLine
 62
250
  6
CONTINUOUS
 10
329.5620752491
 20
176.0813235437
 11
329.5691599378
 21
179.6112662323
  0
LINE
  5
466
100
AcDbEntity
  8
0
100
AcDbLine
 62
250
  6
CONTINUOUS
 10
329.8616740545
 20
176.0763609287
 11
329.8687760263
 21
179.6112662323
  0
LWPOLYLINE
  5
467
100
AcDbEntity
  8
0
100
AcDbPolyline
 62
7
  6
CONTINUOUS
 90
25
 70
0
 10
326.6032449074
 20
145.4086669706
 10
326.5943061013
 20
145.3617819596
 10
326.5807677022
 20
145.31716315
 10
326.5626297102
 20
145.274810526
 10
326.5395617867
 20
145.2342629141
 10
326.5118942704
 20
145.1959814597
 10
326.4806181765
 20
145.1613496171
 10
326.4456000231
 20
145.1305025005
 10
326.4069732921
 20
145.1033049562
 10
326.3661294458
 20
145.0807350276
 10
326.3229925022
 20
145.0629628858
 10
326.2776384433
 20
145.0498183284
 10
326.2316866765
 20
145.0417688379
 10
326.1851136873
 20
145.0389973426
 10
326.1379429902
 20
145.0413209048
 10
326.0918645358
 20
145.0486582137
 10
326.0469161065
 20
145.0611926391
 10
326.0030599199
 20
145.0787408279
 10
325.9618725789
 20
145.1006713881
 10
325.9234543506
 20
145.1271404822
 10
325.887704968
 20
145.1579919831
 10
325.8559002328
 20
145.1921260618
 10
325.8284654121
 20
145.2291761188
 10
325.8049752389
 20
145.26950879
 10
325.785429713
 20
145.3131240968
  0
LINE
  5
468
100
AcDbEntity
  8
0
100
AcDbLine
 62
250
  6
CONTINUOUS
 10
325.4427592181
 20
145.6716097438
 11
325.4406105226
 21
145.6651584149
  0
LINE
  5
469
100
AcDbEntity
  8
0
100
AcDbLine
 62
250
  6
CONTINUOUS
 10
325.6427287572
 20
145.4718838368
 11
325.6395279319
 21
145.4622735521
  0
LINE
  5
46A
100
AcDbEntity
  8
0
100
AcDbLine
 62
7
  6
CONTINUOUS
 10
323.236621582
 20
139.6362662323
 11
323.367222582
 21
140.0000952323
  0
LINE
  5
46B
100
AcDbEntity
  8
0
100
AcDbLine
 62
7
  6
CONTINUOUS
 10
323.419456582
 20
140.1498122323
 11
323.621458582
 21
140.7049552323
  0
LINE
  5
46C
100
AcDbEntity
  8
0
100
AcDbLine
 62
7
  6
CONTINUOUS
 10
323.532648582
 20
140.8862662323
 11
323.062551582
 21
139.6362662323
  0
LWPOLYLINE
  5
46D
100
AcDbEntity
  8
0
100
AcDbPolyline
 62
7
  6
CONTINUOUS
 90
10
 70
0
 10
322.5799453419
 20
144.7674054511
 10
322.5672748148
 20
144.7440852695
 10
322.5531652723
 20
144.72102071
 10
322.5376167145
 20
144.6982117715
 10
322.5205493152
 20
144.6756546217
 10
322.5020429006
 20
144.6533530912
 10
322.4823369492
 20
144.631318673
 10
322.4615112872
 20
144.6095551974
 10
322.4394860884
 20
144.5880588321
 10
322.4162613529
 20
144.5668295763
  0
LWPOLYLINE
  5
46E
100
AcDbEntity
  8
0
100
AcDbPolyline
 62
7
  6
CONTINUOUS
 90
10
 70
0
 10
321.6969303053
 20
144.2005567856
 10
321.7079760519
 20
144.2186931885
 10
321.7176944168
 20
144.23715697
 10
321.7260854001
 20
144.2559481312
 10
321.7331283747
 20
144.2749926385
 10
321.7388439677
 20
144.2943645275
 10
321.7432940604
 20
144.3142859037
 10
321.74649928
 20
144.334830804
 10
321.7484389992
 20
144.3559251955
 10
321.7491132182
 20
144.3775690801
  0
LWPOLYLINE
  5
46F
100
AcDbEntity
  8
0
100
AcDbPolyline
 62
7
  6
CONTINUOUS
 90
10
 70
0
 10
317.7545970607
 20
144.5668295763
 10
317.7291544652
 20
144.544789024
 10
317.7025636252
 20
144.523349722
 10
317.6748245406
 20
144.502511668
 10
317.645930899
 20
144.4822466684
 10
317.6158890129
 20
144.4625829128
 10
317.5847178194
 20
144.4436049731
 10
317.5524236308
 20
144.4253410384
 10
317.5190001348
 20
144.4077629153
 10
317.4844473314
 20
144.3908706017
  0
LWPOLYLINE
  5
470
100
AcDbEntity
  8
0
100
AcDbPolyline
 62
250
  6
CONTINUOUS
 90
10
 70
0
 10
314.3280288048
 20
146.5539439833
 10
314.3436278525
 20
146.5612643439
 10
314.3589181053
 20
146.57113095
 10
314.3735968809
 20
146.5833484845
 10
314.3873736019
 20
146.5976750921
 10
314.3999755477
 20
146.6138271668
 10
314.4111532532
 20
146.631484966
 10
314.4206854471
 20
146.6502989402
 10
314.4283834326
 20
146.6698966525
 10
314.434094822
 20
146.6898901513
  0
LWPOLYLINE
  5
471
100
AcDbEntity
  8
0
100
AcDbPolyline
 62
250
  6
CONTINUOUS
 90
10
 70
0
 10
314.7747845967
 20
146.3456183362
 10
314.7903836445
 20
146.3529386969
 10
314.8056738973
 20
146.362805303
 10
314.8203526729
 20
146.3750228376
 10
314.834129394
 20
146.3893494453
 10
314.8467313397
 20
146.40550152
 10
314.8579090452
 20
146.4231593192
 10
314.8674412391
 20
146.4419732934
 10
314.8751392244
 20
146.4615710056
 10
314.8808506138
 20
146.4815645043
  0
LWPOLYLINE
  5
472
100
AcDbEntity
  8
0
100
AcDbPolyline
 62
250
  6
CONTINUOUS
 90
13
 70
0
 10
326.2575647336
 20
168.4881420271
 10
326.2835883289
 20
168.4899159442
 10
326.3091683768
 20
168.49506493
 10
326.3338687276
 20
168.5035012529
 10
326.3572682233
 20
168.5150811319
 10
326.3789678622
 20
168.5296071779
 10
326.3985976075
 20
168.5468317512
 10
326.4158227273
 20
168.5664612053
 10
326.4303494732
 20
168.5881608707
 10
326.4419300899
 20
168.6115607383
 10
326.4503670769
 20
168.6362618162
 10
326.4555165435
 20
168.6618429419
 10
326.457290647
 20
168.6878679276
  0
LWPOLYLINE
  5
473
100
AcDbEntity
  8
0
100
AcDbPolyline
 62
250
  6
CONTINUOUS
 90
13
 70
0
 10
314.7394292576
 20
168.4746615417
 10
314.7655403238
 20
168.476395333
 10
314.7912024244
 20
168.4815188777
 10
314.8159763542
 20
168.4899437208
 10
314.8394373023
 20
168.5015243739
 10
314.8611851677
 20
168.5160622609
 10
314.8808505999
 20
168.5333103641
 10
314.8981033327
 20
168.5529825874
 10
314.9126387496
 20
168.5747356709
 10
314.9241961286
 20
168.5981701132
 10
314.9325851458
 20
168.6228710354
 10
314.9376780193
 20
168.6484223887
 10
314.9393987966
 20
168.6743874487
  0
LINE
  5
474
100
AcDbEntity
  8
0
100
AcDbLine
 62
250
  6
CONTINUOUS
 10
325.8904096983
 20
168.4980750207
 11
325.4436539065
 21
168.4746615417
  0
LINE
  5
475
100
AcDbEntity
  8
0
100
AcDbLine
 62
250
  6
CONTINUOUS
 10
325.7489883421
 20
168.6978009276
 11
325.3022325502
 21
168.6743874487
  0
LINE
  5
476
100
AcDbEntity
  8
0
100
AcDbLine
 62
250
  6
CONTINUOUS
 10
313.9074053053
 20
168.6961103639
 11
313.8539843125
 21
168.6950209473
  0
LINE
  5
477
100
AcDbEntity
  8
0
100
AcDbLine
 62
7
  6
CONTINUOUS
 10
314.7426241727
 20
168.465069002
 11
314.441541582
 21
168.4608410129
  0
LINE
  5
478
100
AcDbEntity
  8
0
100
AcDbLine
 62
250
  6
CONTINUOUS
 10
313.9725177301
 20
168.6970070442
 11
313.9074053053
 21
168.6961103639
  0
LWPOLYLINE
  5
479
100
AcDbEntity
  8
0
100
AcDbPolyline
 62
7
  6
CONTINUOUS
 90
15
 70
0
 10
329.581800126
 20
168.3084937002
 10
329.6116362884
 20
168.3087326849
 10
329.6406109698
 20
168.309125344
 10
329.6690313894
 20
168.3096795482
 10
329.6965903279
 20
168.3103874269
 10
329.7223661279
 20
168.3112253679
 10
329.7462529881
 20
168.3121957085
 10
329.7683567098
 20
168.3132961114
 10
329.7880730386
 20
168.3144959526
 10
329.8053603892
 20
168.3157996983
 10
329.8202603469
 20
168.3172028824
 10
329.8322934136
 20
168.3186614824
 10
329.8412997567
 20
168.3201608242
 10
329.8474392089
 20
168.3217155819
 10
329.8507117701
 20
168.3233257555
  0
LWPOLYLINE
  5
47A
100
AcDbEntity
  8
0
100
AcDbPolyline
 62
250
  6
CONTINUOUS
 90
18
 70
0
 10
314.1049172558
 20
168.4980093395
 10
314.0854597058
 20
168.4978572174
 10
314.0668716874
 20
168.4976186543
 10
314.048979479
 20
168.4972813733
 10
314.0319568023
 20
168.4968576512
 10
314.0163248222
 20
168.4963843194
 10
314.0022890241
 20
168.4958644909
 10
313.9896439227
 20
168.4952950526
 10
313.9782942263
 20
168.4947034961
 10
313.9683192813
 20
168.4941007734
 10
313.9596397414
 20
168.4934759325
 10
313.9519222765
 20
168.4928236097
 10
313.9450422941
 20
168.4921486764
 10
313.9391243868
 20
168.4914462611
 10
313.934209002
 20
168.4906963863
 10
313.9303096222
 20
168.4898923927
 10
313.9274127651
 20
168.4890409397
 10
313.9255184304
 20
168.4881420271
  0
LINE
  5
47B
100
AcDbEntity
  8
0
100
AcDbLine
 62
250
  6
CONTINUOUS
 10
314.0460603943
 20
168.6975827819
 11
313.9725177301
 21
168.6970070442
  0
LINE
  5
47C
100
AcDbEntity
  8
0
100
AcDbLine
 62
7
  6
CONTINUOUS
 10
310.3115913195
 20
167.2612662323
 11
329.8714918445
 21
167.2612662323
  0
LINE
  5
47D
100
AcDbEntity
  8
0
100
AcDbLine
 62
7
  6
CONTINUOUS
 10
329.581800126
 20
168.3084937002
 11
325.741541582
 21
168.3084083872
  0
LINE
  5
47E
100
AcDbEntity
  8
0
100
AcDbLine
 62
7
  6
CONTINUOUS
 10
329.8886522469
 20
168.3612662323
 11
326.3844405284
 21
168.3612662323
  0
LINE
  5
47F
100
AcDbEntity
  8
0
100
AcDbLine
 62
7
  6
CONTINUOUS
 10
313.7986426357
 20
168.3612662323
 11
310.2944309172
 21
168.3612662323
  0
LINE
  5
480
100
AcDbEntity
  8
0
100
AcDbLine
 62
250
  6
CONTINUOUS
 10
314.2926734658
 20
168.4980750207
 11
314.1049172558
 21
168.4980093395
  0
LINE
  5
481
100
AcDbEntity
  8
0
100
AcDbLine
 62
250
  6
CONTINUOUS
 10
325.3022325502
 20
168.6743874487
 11
325.2436843674
 21
168.6743874487
  0
LINE
  5
482
100
AcDbEntity
  8
0
100
AcDbLine
 62
250
  6
CONTINUOUS
 10
314.9393987966
 20
168.6743874487
 11
314.8808506138
 21
168.6743874487
  0
LINE
  5
483
100
AcDbEntity
  8
0
100
AcDbLine
 62
250
  6
CONTINUOUS
 10
314.434094822
 20
168.6978009276
 11
314.0460603943
 21
168.6975827819
  0
LINE
  5
484
100
AcDbEntity
  8
0
100
AcDbLine
 62
250
  6
CONTINUOUS
 10
326.0750730527
 20
168.4980228672
 11
325.8904096983
 21
168.4980750207
  0
LINE
  5
485
100
AcDbEntity
  8
0
100
AcDbLine
 62
250
  6
CONTINUOUS
 10
326.124893719
 20
168.6976414289
 11
325.7489883421
 21
168.6978009276
  0
LINE
  5
486
100
AcDbEntity
  8
0
100
AcDbLine
 62
250
  6
CONTINUOUS
 10
326.1852350777
 20
168.6972613511
 11
326.124893719
 21
168.6976414289
  0
LINE
  5
487
100
AcDbEntity
  8
0
100
AcDbLine
 62
250
  6
CONTINUOUS
 10
326.2390536603
 20
168.6966637515
 11
326.1852350777
 21
168.6972613511
  0
LINE
  5
488
100
AcDbEntity
  8
0
100
AcDbLine
 62
7
  6
CONTINUOUS
 10
325.741541582
 20
168.4608410129
 11
325.4404589914
 21
168.465069002
  0
LINE
  5
489
100
AcDbEntity
  8
0
100
AcDbLine
 62
250
  6
CONTINUOUS
 10
326.2892419752
 20
168.6958722314
 11
326.2390536603
 21
168.6966637515
  0
LWPOLYLINE
  5
48A
100
AcDbEntity
  8
0
100
AcDbPolyline
 62
250
  6
CONTINUOUS
 90
4
 70
0
 10
326.1352251276
 20
168.4972625236
 10
326.1215301202
 20
168.4975355809
 10
326.1069819167
 20
168.4977536772
 10
326.0750730527
 20
168.4980228672
  0
LINE
  5
48B
100
AcDbEntity
  8
0
100
AcDbLine
 62
250
  6
CONTINUOUS
 10
314.7394292576
 20
168.4746615417
 11
314.2926734658
 21
168.4980750207
  0
LINE
  5
48C
100
AcDbEntity
  8
0
100
AcDbLine
 62
250
  6
CONTINUOUS
 10
314.8808506138
 20
168.6743874487
 11
314.434094822
 21
168.6978009276
  0
LWPOLYLINE
  5
48D
100
AcDbEntity
  8
0
100
AcDbPolyline
 62
250
  6
CONTINUOUS
 90
13
 70
0
 10
325.4436539065
 20
168.4746615417
 10
325.4175430501
 20
168.4763953052
 10
325.3918811545
 20
168.4815187662
 10
325.3671074135
 20
168.4899434705
 10
325.3436466605
 20
168.5015239125
 10
325.3218989462
 20
168.5160615319
 10
325.3022335272
 20
168.5333094011
 10
325.2849806655
 20
168.5529815004
 10
325.2704450486
 20
168.5747345725
 10
325.2588874481
 20
168.5981691172
 10
325.2504982273
 20
168.622870256
 10
325.2454052034
 20
168.648421945
 10
325.2436843674
 20
168.6743874487
  0
LWPOLYLINE
  5
48E
100
AcDbEntity
  8
0
100
AcDbPolyline
 62
250
  6
CONTINUOUS
 90
13
 70
0
 10
313.9255184304
 20
168.4881420271
 10
313.8994940701
 20
168.4899160468
 10
313.8739134441
 20
168.4950652928
 10
313.8492127212
 20
168.5035019666
 10
313.8258130667
 20
168.5150822164
 10
313.8041134623
 20
168.5296085905
 10
313.7844839027
 20
168.546833404
 10
313.7672590863
 20
168.566462961
 10
313.7527327092
 20
168.588162563
 10
313.7411524578
 20
168.6115622167
 10
313.7327157843
 20
168.6362629408
 10
313.72756654
 20
168.6618435695
 10
313.7257925235
 20
168.687867934
  0
LWPOLYLINE
  5
48F
100
AcDbEntity
  8
0
100
AcDbPolyline
 62
250
  6
CONTINUOUS
 90
10
 70
0
 10
314.3280288048
 20
170.9685884813
 10
314.3436278526
 20
170.9612681206
 10
314.3589181054
 20
170.9514015145
 10
314.3735968811
 20
170.9391839799
 10
314.3873736022
 20
170.9248573722
 10
314.3999755479
 20
170.9087052975
 10
314.4111532533
 20
170.8910474983
 10
314.4206854472
 20
170.8722335241
 10
314.4283834326
 20
170.8526358119
 10
314.434094822
 20
170.8326423133
  0
LWPOLYLINE
  5
490
100
AcDbEntity
  8
0
100
AcDbPolyline
 62
250
  6
CONTINUOUS
 90
10
 70
0
 10
314.7747845967
 20
171.1769141284
 10
314.7903836417
 20
171.1695937692
 10
314.8056738926
 20
171.159727165
 10
314.8203526672
 20
171.1475096324
 10
314.8341293879
 20
171.1331830263
 10
314.8467313342
 20
171.1170309524
 10
314.8579090407
 20
171.0993731531
 10
314.8674412362
 20
171.0805591776
 10
314.8751392231
 20
171.0609614628
 10
314.8808506138
 20
171.0409679603
  0
LWPOLYLINE
  5
491
100
AcDbEntity
  8
0
100
AcDbPolyline
 62
250
  6
CONTINUOUS
 90
16
 70
0
 10
313.9097960966
 20
172.0501127713
 10
313.9120155259
 20
172.0490499754
 10
313.9160085456
 20
172.0480287017
 10
313.9217751559
 20
172.0470489504
 10
313.9293740149
 20
172.0461056678
 10
313.9387464643
 20
172.0452039074
 10
313.9497165298
 20
172.04435883
 10
313.9622970041
 20
172.0435681029
 10
313.9764750943
 20
172.0428340587
 10
313.9920364473
 20
172.0421788557
 10
314.0090763664
 20
172.041601282
 10
314.0274995481
 20
172.0411025495
 10
314.0468057291
 20
172.0407084534
 10
314.0668281547
 20
172.0404275919
 10
314.0877335796
 20
172.0402513666
 10
314.3456029468
 20
172.0401797777
  0
LWPOLYLINE
  5
492
100
AcDbEntity
  8
0
100
AcDbPolyline
 62
250
  6
CONTINUOUS
 90
13
 70
0
 10
325.2436843674
 20
171.0570475161
 10
325.2441650944
 20
171.0557795678
 10
325.2452655815
 20
171.0544927753
 10
325.2470309486
 20
171.0531871387
 10
325.2494936555
 20
171.0518605226
 10
325.2527012468
 20
171.0505150625
 10
325.2567426955
 20
171.0491571641
 10
325.2616868931
 20
171.0477813121
 10
325.2675842447
 20
171.046393022
 10
325.274528196
 20
171.0450152464
 10
325.2825927429
 20
171.0436556364
 10
325.2918147465
 20
171.0423065411
 10
325.3022325502
 20
171.0409679603
  0
LINE
  5
493
100
AcDbEntity
  8
0
100
AcDbLine
 62
7
  6
CONTINUOUS
 10
324.448179582
 20
172.8112662323
 11
323.787722582
 21
174.7112662323
  0
LWPOLYLINE
  5
494
100
AcDbEntity
  8
0
100
AcDbPolyline
 62
7
  6
CONTINUOUS
 90
6
 70
0
 10
323.1871974614
 20
176.9191070704
 10
323.2075705309
 20
176.8593880127
 10
323.2274519661
 20
176.7985177196
 10
323.246841767
 20
176.7364961768
 10
323.2654494744
 20
176.6732277185
 10
323.3020613637
 20
176.5435239029
  0
LINE
  5
495
100
AcDbEntity
  8
0
100
AcDbLine
 62
250
  6
CONTINUOUS
 10
325.4406105226
 20
171.8573740497
 11
325.4427592181
 21
171.8509227208
  0
LINE
  5
496
100
AcDbEntity
  8
0
100
AcDbLine
 62
250
  6
CONTINUOUS
 10
325.6395279319
 20
172.0602589125
 11
325.6427287572
 21
172.0506486278
  0
LWPOLYLINE
  5
497
100
AcDbEntity
  8
0
100
AcDbPolyline
 62
250
  6
CONTINUOUS
 90
19
 70
0
 10
330.6720722295
 20
180.20111132
 10
330.67106248
 20
180.2204655382
 10
330.668469118
 20
180.2390381976
 10
330.6642921435
 20
180.2568292983
 10
330.6583600764
 20
180.2740109623
 10
330.6508443967
 20
180.2904110676
 10
330.6422595446
 20
180.3055132477
 10
330.632585717
 20
180.3191617052
 10
330.621842717
 20
180.3315122377
 10
330.6106043935
 20
180.3425158707
 10
330.5990796151
 20
180.3520507208
 10
330.5870595133
 20
180.3602386715
 10
330.5744913313
 20
180.3673963994
 10
330.5614809406
 20
180.3736402634
 10
330.5479224697
 20
180.3788539045
 10
330.5334455479
 20
180.3830049231
 10
330.517926718
 20
180.3860825193
 10
330.5014894372
 20
180.388097493
 10
330.4841337053
 20
180.3890498442
  0
LINE
  5
498
100
AcDbEntity
  8
0
100
AcDbLine
 62
250
  6
CONTINUOUS
 10
330.8977847681
 20
141.3828965318
 11
330.8975929174
 21
141.3927033794
  0
LINE
  5
499
100
AcDbEntity
  8
0
100
AcDbLine
 62
250
  6
CONTINUOUS
 10
330.698009196
 20
141.1806004222
 11
330.6977923269
 21
141.1956177694
  0
LINE
  5
49A
100
AcDbEntity
  8
0
100
AcDbLine
 62
250
  6
CONTINUOUS
 10
330.8975929174
 20
141.3927033794
 11
330.8973498512
 21
141.410182704
  0
LINE
  5
49B
100
AcDbEntity
  8
0
100
AcDbLine
 62
250
  6
CONTINUOUS
 10
330.6977923269
 20
141.1956177694
 11
330.6974328501
 21
141.2378666418
  0
LINE
  5
49C
100
AcDbEntity
  8
0
100
AcDbLine
 62
250
  6
CONTINUOUS
 10
330.8973498512
 20
141.410182704
 11
330.8970050924
 21
141.4494567123
  0
LINE
  5
49D
100
AcDbEntity
  8
0
100
AcDbLine
 62
250
  6
CONTINUOUS
 10
330.8970050924
 20
141.4494567123
 11
330.8966899986
 21
141.528040893
  0
LINE
  5
49E
100
AcDbEntity
  8
0
100
AcDbLine
 62
250
  6
CONTINUOUS
 10
330.6974328501
 20
141.2378666418
 11
330.6967853867
 21
141.4203761094
  0
LINE
  5
49F
100
AcDbEntity
  8
0
100
AcDbLine
 62
250
  6
CONTINUOUS
 10
330.8966899986
 20
141.528040893
 11
330.8966506414
 21
141.5702737617
  0
LINE
  5
4A0
100
AcDbEntity
  8
0
100
AcDbLine
 62
250
  6
CONTINUOUS
 10
330.2289743225
 20
144.4522587029
 11
330.2289743225
 21
141.5702737617
  0
LINE
  5
4A1
100
AcDbEntity
  8
0
100
AcDbLine
 62
250
  6
CONTINUOUS
 10
330.4841337053
 20
137.1334826204
 11
330.4841337053
 21
136.8515748341
  0
LINE
  5
4A2
100
AcDbEntity
  8
0
100
AcDbLine
 62
250
  6
CONTINUOUS
 10
330.4841337053
 20
180.3890498442
 11
330.4841337053
 21
180.6709576304
  0
LINE
  5
4A3
100
AcDbEntity
  8
0
100
AcDbLine
 62
250
  6
CONTINUOUS
 10
330.6720722295
 20
137.3214211445
 11
330.6720722295
 21
141.0112662323
  0
LINE
  5
4A4
100
AcDbEntity
  8
0
100
AcDbLine
 62
250
  6
CONTINUOUS
 10
330.6720722295
 20
145.0112662323
 11
330.6720722295
 21
180.20111132
  0
LINE
  5
4A5
100
AcDbEntity
  8
0
100
AcDbLine
 62
7
  6
CONTINUOUS
 10
330.8966506414
 20
141.5702737617
 11
330.8966506414
 21
144.4522587029
  0
LINE
  5
4A6
100
AcDbEntity
  8
0
100
AcDbLine
 62
7
  6
CONTINUOUS
 10
330.9152039486
 20
141.2010067661
 11
330.9152039486
 21
144.8215256984
  0
LINE
  5
4A7
100
AcDbEntity
  8
0
100
AcDbLine
 62
250
  6
CONTINUOUS
 10
330.9539800157
 20
137.3214211445
 11
330.9539800157
 21
180.20111132
  0
LINE
  5
4A8
100
AcDbEntity
  8
0
100
AcDbLine
 62
7
  6
CONTINUOUS
 10
331.0641196081
 20
180.3112509124
 11
331.0641196081
 21
137.2112815522
  0
LINE
  5
4A9
100
AcDbEntity
  8
0
100
AcDbLine
 62
7
  6
CONTINUOUS
 10
331.1141196081
 20
180.3308683707
 11
331.1141196081
 21
137.1916640938
  0
LINE
  5
4AA
100
AcDbEntity
  8
0
100
AcDbLine
 62
250
  6
CONTINUOUS
 10
330.6967853867
 20
141.4203761094
 11
330.6966690471
 21
144.4919076499
  0
LINE
  5
4AB
100
AcDbEntity
  8
0
100
AcDbLine
 62
250
  6
CONTINUOUS
 10
330.8966506414
 20
144.4522587029
 11
330.8968469769
 21
144.5441808207
  0
LINE
  5
4AC
100
AcDbEntity
  8
0
100
AcDbLine
 62
250
  6
CONTINUOUS
 10
330.6966690471
 20
144.4919076499
 11
330.6973001345
 21
144.7623305861
  0
LINE
  5
4AD
100
AcDbEntity
  8
0
100
AcDbLine
 62
250
  6
CONTINUOUS
 10
330.8968469769
 20
144.5441808207
 11
330.8971954298
 21
144.5974260174
  0
LINE
  5
4AE
100
AcDbEntity
  8
0
100
AcDbLine
 62
250
  6
CONTINUOUS
 10
330.6973001345
 20
144.7623305861
 11
330.697724365
 21
144.8207372577
  0
LINE
  5
4AF
100
AcDbEntity
  8
0
100
AcDbLine
 62
250
  6
CONTINUOUS
 10
330.8971954298
 20
144.5974260174
 11
330.8974973093
 21
144.6237078677
  0
LWPOLYLINE
  5
4B0
100
AcDbEntity
  8
0
100
AcDbPolyline
 62
250
  6
CONTINUOUS
 90
4
 70
0
 10
330.697724365
 20
144.8207372577
 10
330.6979720254
 20
144.8398754369
 10
330.6981079384
 20
144.846509767
 10
330.698251511
 20
144.8507365822
  0
LWPOLYLINE
  5
4B1
100
AcDbEntity
  8
0
100
AcDbPolyline
 62
250
  6
CONTINUOUS
 90
6
 70
0
 10
330.8974973093
 20
144.6237078677
 10
330.8977168413
 20
144.6366132385
 10
330.897836293
 20
144.6416956159
 10
330.8979645362
 20
144.6458724827
 10
330.8981004037
 20
144.6491398249
 10
330.8982438956
 20
144.6514976425
  0
LWPOLYLINE
  5
4B2
100
AcDbEntity
  8
0
100
AcDbPolyline
 62
7
  6
CONTINUOUS
 90
19
 70
0
 10
330.9152039486
 20
141.2010067661
 10
330.9146483692
 20
141.1862390213
 10
330.9129500851
 20
141.1714205409
 10
330.9100610495
 20
141.1566423035
 10
330.9059477709
 20
141.1420456117
 10
330.9005740274
 20
141.1276928992
 10
330.8938796329
 20
141.1135751944
 10
330.8858106735
 20
141.0997956575
 10
330.8763617602
 20
141.0865238924
 10
330.8655497537
 20
141.0738676897
 10
330.8534300993
 20
141.0620133741
 10
330.8400005484
 20
141.0510726678
 10
330.8251970787
 20
141.041072632
 10
330.8089484353
 20
141.0321412337
 10
330.7914368732
 20
141.0245599436
 10
330.7730254302
 20
141.0185505912
 10
330.753957021
 20
141.0142304147
 10
330.734317368
 20
141.0116861289
 10
330.7142901653
 20
141.0110050397
  0
LWPOLYLINE
  5
4B3
100
AcDbEntity
  8
0
100
AcDbPolyline
 62
7
  6
CONTINUOUS
 90
16
 70
0
 10
329.6960087263
 20
144.9922203133
 10
329.697659578
 20
145.0179828797
 10
329.7024737357
 20
145.042621394
 10
329.7101819045
 20
145.0657823584
 10
329.7205981095
 20
145.087392955
 10
329.7333365443
 20
145.1069624932
 10
329.7475793875
 20
145.1237315421
 10
329.7627486028
 20
145.1376687527
 10
329.7784468163
 20
145.1489631655
 10
329.793904801
 20
145.1575285852
 10
329.8088982827
 20
145.1637252105
 10
329.8229723335
 20
145.1677784529
 10
329.8349587426
 20
145.1697263271
 10
329.8443235268
 20
145.1699408874
 10
329.8512376754
 20
145.1688885659
 10
329.8556234799
 20
145.1668309273
  0
LWPOLYLINE
  5
4B4
100
AcDbEntity
  8
0
100
AcDbPolyline
 62
250
  6
CONTINUOUS
 90
13
 70
0
 10
329.728993361
 20
144.6615424949
 10
329.7307225136
 20
144.6875358859
 10
329.7358407257
 20
144.7130849517
 10
329.7442605077
 20
144.7377529635
 10
329.7558379342
 20
144.7611182525
 10
329.7703751038
 20
144.7827814189
 10
329.7876235216
 20
144.8023721592
 10
329.8072883479
 20
144.8195555944
 10
329.8290334374
 20
144.8340379954
 10
329.8524870851
 20
144.8455718043
 10
329.8772483806
 20
144.8539598655
 10
329.9028940609
 20
144.8590587955
 10
329.9289857456
 20
144.8607814345
  0
LWPOLYLINE
  5
4B5
100
AcDbEntity
  8
0
100
AcDbPolyline
 62
250
  6
CONTINUOUS
 90
13
 70
0
 10
329.7688718991
 20
144.6514976429
 10
329.7711811325
 20
144.6769565932
 10
329.7764664074
 20
144.701998622
 10
329.7846411705
 20
144.726213641
 10
329.7955715503
 20
144.7492051062
 10
329.809078549
 20
144.7705965095
 10
329.8249409733
 20
144.7900375449
 10
329.8428990581
 20
144.807209848
 10
329.862658721
 20
144.8218322078
 10
329.883896376
 20
144.8336651709
 10
329.9062642349
 20
144.8425149638
 10
329.9293960019
 20
144.8482366659
 10
329.9529128722
 20
144.8507365818
  0
LINE
  5
4B6
100
AcDbEntity
  8
0
100
AcDbLine
 62
250
  6
CONTINUOUS
 10
329.728993361
 20
141.3609899697
 11
329.6970736712
 21
141.0409884456
  0
LINE
  5
4B7
100
AcDbEntity
  8
0
100
AcDbLine
 62
250
  6
CONTINUOUS
 10
329.9289857456
 20
141.16175103
 11
329.9064698195
 21
140.9360241916
  0
LWPOLYLINE
  5
4B8
100
AcDbEntity
  8
0
100
AcDbPolyline
 62
7
  6
CONTINUOUS
 90
10
 70
0
 10
326.4730129744
 20
146.4463510212
 10
326.4680666818
 20
146.4371499616
 10
326.4584187173
 20
146.4285261413
 10
326.4446269404
 20
146.4211787472
 10
326.4274262968
 20
146.4157527742
 10
326.4074731605
 20
146.4125465517
 10
326.3851701997
 20
146.411649487
 10
326.3610455887
 20
146.4133011101
 10
326.335872147
 20
146.4177539087
 10
326.3103303668
 20
146.4250797332
  0
LINE
  5
4B9
100
AcDbEntity
  8
0
100
AcDbLine
 62
250
  6
CONTINUOUS
 10
326.3844405284
 20
149.1612662323
 11
326.2575647336
 21
149.0343904375
  0
LINE
  5
4BA
100
AcDbEntity
  8
0
100
AcDbLine
 62
250
  6
CONTINUOUS
 10
326.5841664354
 20
148.9615403253
 11
326.4572906406
 21
148.8346645306
  0
LWPOLYLINE
  5
4BB
100
AcDbEntity
  8
0
100
AcDbPolyline
 62
7
  6
CONTINUOUS
 90
10
 70
0
 10
321.0124144715
 20
144.6650861509
 10
320.9874498146
 20
144.6422360765
 10
320.9644154013
 20
144.6171134471
 10
320.9433112318
 20
144.5897182726
 10
320.9240738142
 20
144.5600147184
 10
320.9067666403
 20
144.5280386416
 10
320.8915801854
 20
144.49389759
 10
320.8785779414
 20
144.4576274213
 10
320.8676964165
 20
144.4191923043
 10
320.8589356106
 20
144.3785922535
  0
LWPOLYLINE
  5
4BC
100
AcDbEntity
  8
0
100
AcDbPolyline
 62
7
  6
CONTINUOUS
 90
10
 70
0
 10
321.1349553509
 20
144.5486970615
 10
321.1509555562
 20
144.562613923
 10
321.1679176411
 20
144.5749326856
 10
321.1858416056
 20
144.5856533457
 10
321.2047025807
 20
144.5947923481
 10
321.2245254354
 20
144.6023332427
 10
321.2453847766
 20
144.6082266846
 10
321.2673054734
 20
144.6124562245
 10
321.2902626567
 20
144.6150383088
 10
321.3142563265
 20
144.6159729369
  0
LWPOLYLINE
  5
4BD
100
AcDbEntity
  8
0
100
AcDbPolyline
 62
7
  6
CONTINUOUS
 90
10
 70
0
 10
320.0854292292
 20
144.5668295763
 10
320.0599866052
 20
144.5447889991
 10
320.0333957464
 20
144.52334968
 10
320.005656653
 20
144.5025116168
 10
319.9767630161
 20
144.4822466182
 10
319.9467211445
 20
144.4625828714
 10
319.9155499645
 20
144.4436049418
 10
319.8832557847
 20
144.4253410164
 10
319.8498322965
 20
144.4077629037
 10
319.8152794999
 20
144.3908706017
  0
LWPOLYLINE
  5
4BE
100
AcDbEntity
  8
0
100
AcDbPolyline
 62
7
  6
CONTINUOUS
 90
10
 70
0
 10
317.6780541054
 20
144.3076128705
 10
317.6998806535
 20
144.3207262519
 10
317.7211349336
 20
144.334079521
 10
317.7418169456
 20
144.3476726785
 10
317.7619672382
 20
144.3614835566
 10
317.7815452628
 20
144.3755343241
 10
317.8004293729
 20
144.3898914869
 10
317.8185790199
 20
144.4045772141
 10
317.8360347525
 20
144.419569338
 10
317.8527965706
 20
144.4348678596
  0
LWPOLYLINE
  5
4BF
100
AcDbEntity
  8
0
100
AcDbPolyline
 62
250
  6
CONTINUOUS
 90
12
 70
0
 10
326.2575647336
 20
149.0343904375
 10
326.2550558956
 20
149.0332925312
 10
326.2509384307
 20
149.0322536398
 10
326.2452123389
 20
149.0312737633
 10
326.2376317094
 20
149.030346977
 10
326.2284424531
 20
149.0294792056
 10
326.218382302
 20
149.0286882229
 10
326.2075031174
 20
149.0279817371
 10
326.1957530381
 20
149.02735204
 10
326.1837142129
 20
149.0267937809
 10
326.1716114298
 20
149.0263115116
 10
326.1592199007
 20
149.0259006804
  0
LINE
  5
4C0
100
AcDbEntity
  8
0
100
AcDbLine
 62
7
  6
CONTINUOUS
 10
313.8164713318
 20
145.3790949285
 11
313.8889901683
 21
145.4013635348
  0
LINE
  5
4C1
100
AcDbEntity
  8
0
100
AcDbLine
 62
7
  6
CONTINUOUS
 10
313.8889901683
 20
145.4013635348
 11
313.9236783543
 21
145.4118526816
  0
LWPOLYLINE
  5
4C2
100
AcDbEntity
  8
0
100
AcDbPolyline
 62
7
  6
CONTINUOUS
 90
43
 70
0
 10
313.8164713318
 20
145.3790949285
 10
313.8074798166
 20
145.3764283521
 10
313.7987112784
 20
145.3740376882
 10
313.790170831
 20
145.3719111362
 10
313.7818724097
 20
145.3700399975
 10
313.7738102464
 20
145.3684094238
 10
313.7659591285
 20
145.3670000978
 10
313.7583223401
 20
145.3658022107
 10
313.7509018013
 20
145.364806238
 10
313.7436700581
 20
145.3639964817
 10
313.7366299125
 20
145.3633648975
 10
313.7297819231
 20
145.3629039611
 10
313.7230955559
 20
145.3626020072
 10
313.7165725223
 20
145.3624526919
 10
313.7102136639
 20
145.3624505853
 10
313.7039878835
 20
145.362588695
 10
313.6978915158
 20
145.3628627729
 10
313.6919309081
 20
145.363268999
 10
313.6860907445
 20
145.3638034567
 10
313.6803691494
 20
145.3644630981
 10
313.6747705953
 20
145.3652445323
 10
313.66928965
 20
145.3661444193
 10
313.6639273777
 20
145.3671597404
 10
313.6586849268
 20
145.3682875932
 10
313.6535571765
 20
145.3695253722
 10
313.6485455145
 20
145.3708701974
 10
313.6436505449
 20
145.3723195807
 10
313.6388662551
 20
145.3738720859
 10
313.6341941178
 20
145.3755250245
 10
313.6296346524
 20
145.3772763438
 10
313.6251808743
 20
145.3791262382
 10
313.6208335758
 20
145.3810726657
 10
313.6165942566
 20
145.3831136494
 10
313.6124575523
 20
145.3852501435
 10
313.6084246926
 20
145.3874802431
 10
313.6044970685
 20
145.3898023328
 10
313.6006701467
 20
145.3922183699
 10
313.596946108
 20
145.3947260867
 10
313.5933258175
 20
145.3973246081
 10
313.5898035721
 20
145.400018606
 10
313.5863790213
 20
145.4028089323
 10
313.5830565968
 20
145.4056921886
 10
313.5798382566
 20
145.4086669706
  0
LWPOLYLINE
  5
4C3
100
AcDbEntity
  8
0
100
AcDbPolyline
 62
7
  6
CONTINUOUS
 90
10
 70
0
 10
313.8727527973
 20
146.4250797332
 10
313.8472108126
 20
146.4177538593
 10
313.8220371848
 20
146.4133010599
 10
313.7979124211
 20
146.4116494789
 10
313.7756093015
 20
146.4125466172
 10
313.7556560785
 20
146.4157529494
 10
313.7384555465
 20
146.421179022
 10
313.7246640316
 20
146.428526432
 10
313.7150163312
 20
146.4371501593
 10
313.7100701897
 20
146.4463510212
  0
LWPOLYLINE
  5
4C4
100
AcDbEntity
  8
0
100
AcDbPolyline
 62
250
  6
CONTINUOUS
 90
13
 70
0
 10
314.2926734658
 20
168.4980750207
 10
314.310728212
 20
168.500650713
 10
314.3284867682
 20
168.5064479886
 10
314.3456590249
 20
168.5153715073
 10
314.3619638207
 20
168.5272742738
 10
314.3771358032
 20
168.5419616385
 10
314.3909291938
 20
168.5591957298
 10
314.4031230686
 20
168.578704124
 10
314.4135115918
 20
168.6001615999
 10
314.4219162224
 20
168.6231911561
 10
314.4282042266
 20
168.6474033555
 10
314.4322835123
 20
168.6724092876
 10
314.434094822
 20
168.6978009276
  0
LWPOLYLINE
  5
4C5
100
AcDbEntity
  8
0
100
AcDbPolyline
 62
250
  6
CONTINUOUS
 90
13
 70
0
 10
314.7394292576
 20
168.4746615417
 10
314.7574772497
 20
168.4772356551
 10
314.7752301778
 20
168.4830292922
 10
314.7923981562
 20
168.4919476653
 10
314.808700002
 20
168.5038442316
 10
314.8238705781
 20
168.5185250023
 10
314.8376644386
 20
168.5357532075
 10
314.8498601801
 20
168.5552567651
 10
314.8602518412
 20
168.5767113322
 10
314.8686610095
 20
168.5997422939
 10
314.8749540207
 20
168.6239614036
 10
314.8790373671
 20
168.6489792338
 10
314.8808506138
 20
168.6743874487
  0
LWPOLYLINE
  5
4C6
100
AcDbEntity
  8
0
100
AcDbPolyline
 62
250
  6
CONTINUOUS
 90
9
 70
0
 10
313.8115040272
 20
168.693826439
 10
313.7941468939
 20
168.6932014864
 10
313.7786002192
 20
168.6925492085
 10
313.7649527478
 20
168.6918746576
 10
313.7532477371
 20
168.6911727813
 10
313.7431736598
 20
168.690423208
 10
313.7349496126
 20
168.689619147
 10
313.7290475421
 20
168.688767389
 10
313.7257925235
 20
168.687867934
  0
LINE
  5
4C7
100
AcDbEntity
  8
0
100
AcDbLine
 62
250
  6
CONTINUOUS
 10
313.8539843125
 20
168.6950209473
 11
313.8115040272
 21
168.693826439
  0
LWPOLYLINE
  5
4C8
100
AcDbEntity
  8
0
100
AcDbPolyline
 62
7
  6
CONTINUOUS
 90
7
 70
0
 10
310.394027826
 20
169.1826476634
 10
310.3767554246
 20
169.1822140048
 10
310.3618724635
 20
169.1817473464
 10
310.3498549772
 20
169.1812623779
 10
310.340861644
 20
169.1807639957
 10
310.3347337856
 20
169.1802473033
 10
310.331471402
 20
169.1797123007
  0
LINE
  5
4C9
100
AcDbEntity
  8
0
100
AcDbLine
 62
7
  6
CONTINUOUS
 10
310.4358245311
 20
169.1834130064
 11
310.394027826
 21
169.1826476634
  0
LINE
  5
4CA
100
AcDbEntity
  8
0
100
AcDbLine
 62
7
  6
CONTINUOUS
 10
310.4854808697
 20
169.1840148995
 11
310.4358245311
 21
169.1834130064
  0
LINE
  5
4CB
100
AcDbEntity
  8
0
100
AcDbLine
 62
7
  6
CONTINUOUS
 10
310.5704691675
 20
169.184565976
 11
310.4854808697
 21
169.1840148995
  0
LINE
  5
4CC
100
AcDbEntity
  8
0
100
AcDbLine
 62
7
  6
CONTINUOUS
 10
329.8886522469
 20
169.167375505
 11
326.5841664354
 21
169.167375505
  0
LINE
  5
4CD
100
AcDbEntity
  8
0
100
AcDbLine
 62
7
  6
CONTINUOUS
 10
313.5989167287
 20
169.167375505
 11
310.2944309172
 21
169.167375505
  0
LINE
  5
4CE
100
AcDbEntity
  8
0
100
AcDbLine
 62
7
  6
CONTINUOUS
 10
310.5704691675
 20
169.184565976
 11
313.546978754
 21
169.1846740957
  0
LINE
  5
4CF
100
AcDbEntity
  8
0
100
AcDbLine
 62
7
  6
CONTINUOUS
 10
329.6126139782
 20
169.184565977
 11
326.6361044101
 21
169.1846740957
  0
LINE
  5
4D0
100
AcDbEntity
  8
0
100
AcDbLine
 62
7
  6
CONTINUOUS
 10
329.6976023192
 20
169.1840149006
 11
329.6126139782
 21
169.184565977
  0
LINE
  5
4D1
100
AcDbEntity
  8
0
100
AcDbLine
 62
7
  6
CONTINUOUS
 10
329.747258657
 20
169.1834130073
 11
329.6976023192
 21
169.1840149006
  0
LWPOLYLINE
  5
4D2
100
AcDbEntity
  8
0
100
AcDbPolyline
 62
250
  6
CONTINUOUS
 90
13
 70
0
 10
325.4436539065
 20
168.4746615417
 10
325.425605799
 20
168.4772356821
 10
325.4078527617
 20
168.4830293868
 10
325.3906846856
 20
168.4919478657
 10
325.3743827429
 20
168.5038445855
 10
325.3592120937
 20
168.5185255446
 10
325.3454182283
 20
168.5357539101
 10
325.3332225526
 20
168.5552575473
 10
325.322830993
 20
168.5767121128
 10
325.3144219365
 20
168.5997429949
 10
325.3081290285
 20
168.6239619487
 10
325.3040457608
 20
168.6489795427
 10
325.3022325502
 20
168.6743874487
  0
LWPOLYLINE
  5
4D3
100
AcDbEntity
  8
0
100
AcDbPolyline
 62
250
  6
CONTINUOUS
 90
13
 70
0
 10
325.8904096983
 20
168.4980750207
 10
325.8723550921
 20
168.5006506802
 10
325.8545966721
 20
168.5064478722
 10
325.8374245405
 20
168.5153712576
 10
325.8211198736
 20
168.5272738258
 10
325.8059479919
 20
168.5419609431
 10
325.7921546132
 20
168.5591948208
 10
325.7799606579
 20
168.5787031036
 10
325.7695720066
 20
168.6001605715
 10
325.7611672312
 20
168.6231902249
 10
325.7548790908
 20
168.6474026277
 10
325.7507997001
 20
168.6724088735
 10
325.7489883421
 20
168.6978009276
  0
LWPOLYLINE
  5
4D4
100
AcDbEntity
  8
0
100
AcDbPolyline
 62
250
  6
CONTINUOUS
 90
10
 70
0
 10
326.4572906406
 20
168.687867619
 10
326.4531672286
 20
168.6889295302
 10
326.4452301181
 20
168.6899408048
 10
326.433771387
 20
168.6909014427
 10
326.4190175401
 20
168.691819601
 10
326.4013490364
 20
168.6926871226
 10
326.3814599606
 20
168.6934795366
 10
326.3599881977
 20
168.6941866144
 10
326.3372320302
 20
168.6948185847
 10
326.2892419752
 20
168.6958722314
  0
LWPOLYLINE
  5
4D5
100
AcDbEntity
  8
0
100
AcDbPolyline
 62
250
  6
CONTINUOUS
 90
11
 70
0
 10
313.7100701897
 20
171.8503868643
 10
313.7141876691
 20
171.8493232742
 10
313.7222273865
 20
171.8483015732
 10
313.7340282973
 20
171.8473217613
 10
313.7493267052
 20
171.8463790271
 10
313.7679408047
 20
171.845478182
 10
313.7899110652
 20
171.8446336605
 10
313.8151180688
 20
171.8438426864
 10
313.8433306664
 20
171.8431080359
 10
313.8745508851
 20
171.8424524717
 10
313.9452901178
 20
171.8413768553
  0
LINE
  5
4D6
100
AcDbEntity
  8
0
100
AcDbLine
 62
7
  6
CONTINUOUS
 10
313.8532544775
 20
172.1320881851
 11
313.9236783908
 21
172.1106797791
  0
LINE
  5
4D7
100
AcDbEntity
  8
0
100
AcDbLine
 62
7
  6
CONTINUOUS
 10
313.8164713318
 20
172.1434375361
 11
313.8532544775
 21
172.1320881851
  0
LWPOLYLINE
  5
4D8
100
AcDbEntity
  8
0
100
AcDbPolyline
 62
250
  6
CONTINUOUS
 90
13
 70
0
 10
326.2575647336
 20
168.4881420271
 10
326.2552444203
 20
168.4892031258
 10
326.2513245431
 20
168.4902139067
 10
326.2458051019
 20
168.4911743697
 10
326.2384435812
 20
168.4920928414
 10
326.2294824965
 20
168.4929609952
 10
326.219649395
 20
168.4937538516
 10
326.2090144696
 20
168.4944609394
 10
326.1975075273
 20
168.4950927297
 10
326.1856455367
 20
168.495655656
 10
326.1736404351
 20
168.4961461688
 10
326.1612802851
 20
168.4965678176
 10
326.1352251276
 20
168.4972625236
  0
LINE
  5
4D9
100
AcDbEntity
  8
0
100
AcDbLine
 62
250
  6
CONTINUOUS
 10
326.3844405284
 20
168.3612662323
 11
326.2575647336
 21
168.4881420271
  0
LINE
  5
4DA
100
AcDbEntity
  8
0
100
AcDbLine
 62
250
  6
CONTINUOUS
 10
326.5841664354
 20
168.5609921392
 11
326.4572906406
 21
168.687867934
  0
LINE
  5
4DB
100
AcDbEntity
  8
0
100
AcDbLine
 62
250
  6
CONTINUOUS
 10
330.698251511
 20
144.8507365822
 11
330.7142901653
 21
145.0115274249
  0
LINE
  5
4DC
100
AcDbEntity
  8
0
100
AcDbLine
 62
250
  6
CONTINUOUS
 10
330.8982438956
 20
144.6514976425
 11
330.9152039486
 21
144.8215256984
  0
LWPOLYLINE
  5
4DD
100
AcDbEntity
  8
0
100
AcDbPolyline
 62
250
  6
CONTINUOUS
 90
16
 70
0
 10
326.2594049443
 20
145.4118528
 10
326.2524277159
 20
145.4017868726
 10
326.2440857503
 20
145.3927631441
 10
326.2345422959
 20
145.3849716142
 10
326.2239799674
 20
145.3785929108
 10
326.2126234368
 20
145.3737450619
 10
326.2007112103
 20
145.3704720128
 10
326.1884630894
 20
145.3688168759
 10
326.1761014199
 20
145.3688295493
 10
326.1638574385
 20
145.3705097795
 10
326.1519475223
 20
145.3738092462
 10
326.140597849
 20
145.3786833068
 10
326.1300621372
 20
145.3850760097
 10
326.1205644206
 20
145.3928584465
 10
326.1122747178
 20
145.4018482986
 10
326.1053480884
 20
145.4118528258
  0
LWPOLYLINE
  5
4DE
100
AcDbEntity
  8
0
100
AcDbPolyline
 62
7
  6
CONTINUOUS
 90
10
 70
0
 10
321.6792924707
 20
143.3710029715
 10
321.7095871185
 20
143.4024788529
 10
321.736253218
 20
143.4352520134
 10
321.7592907692
 20
143.4693224606
 10
321.7786454682
 20
143.5045672459
 10
321.7943716188
 20
143.5411093337
 10
321.8066321332
 20
143.5793176049
 10
321.8154813153
 20
143.6193150286
 10
321.8208648613
 20
143.6609786597
 10
321.822782771
 20
143.7043085106
  0
LWPOLYLINE
  5
4DF
100
AcDbEntity
  8
0
100
AcDbPolyline
 62
7
  6
CONTINUOUS
 90
10
 70
0
 10
321.5375687363
 20
143.476906767
 10
321.5171355403
 20
143.4580212036
 10
321.4957677628
 20
143.4413792644
 10
321.4734654037
 20
143.4269809424
 10
321.4502905378
 20
143.4148480026
 10
321.4261810904
 20
143.404958669
 10
321.4009508374
 20
143.3972476247
 10
321.3745377039
 20
143.3916930957
 10
321.3470037647
 20
143.3883168505
 10
321.3183490199
 20
143.3871188879
  0
LWPOLYLINE
  5
4E0
100
AcDbEntity
  8
0
100
AcDbPolyline
 62
7
  6
CONTINUOUS
 90
10
 70
0
 10
322.4162613529
 20
144.5668295763
 10
322.3908186528
 20
144.5447889325
 10
322.3642277442
 20
144.5233495679
 10
322.3364886273
 20
144.5025114803
 10
322.3075950028
 20
144.4822464843
 10
322.2775531699
 20
144.4625827611
 10
322.2463820258
 20
144.4436048585
 10
322.2140878696
 20
144.4253409575
 10
322.1806644022
 20
144.4077628725
 10
322.1461116236
 20
144.3908706017
  0
LWPOLYLINE
  5
4E1
100
AcDbEntity
  8
0
100
AcDbPolyline
 62
7
  6
CONTINUOUS
 90
10
 70
0
 10
321.4655372116
 20
144.1926053839
 10
321.4441621495
 20
144.1796722678
 10
321.4223101575
 20
144.1682703563
 10
321.3999812357
 20
144.1583996464
 10
321.3772533156
 20
144.1500731263
 10
321.3540484656
 20
144.1432778028
 10
321.3301328912
 20
144.1379747016
 10
321.3054286609
 20
144.1341508305
 10
321.2800137062
 20
144.1318191793
 10
321.2538880271
 20
144.1309797473
  0
LWPOLYLINE
  5
4E2
100
AcDbEntity
  8
0
100
AcDbPolyline
 62
7
  6
CONTINUOUS
 90
10
 70
0
 10
320.008886294
 20
144.3076128361
 10
320.0307128491
 20
144.3207262181
 10
320.0519671332
 20
144.3340794882
 10
320.0726491464
 20
144.347672647
 10
320.0927994382
 20
144.3614835259
 10
320.1123774589
 20
144.3755342947
 10
320.1312615598
 20
144.3898914609
 10
320.1494111912
 20
144.4045771945
 10
320.1668669028
 20
144.4195693271
 10
320.1836286944
 20
144.4348678596
  0
LINE
  5
4E3
100
AcDbEntity
  8
0
100
AcDbLine
 62
250
  6
CONTINUOUS
 10
325.7489881348
 20
146.6898900547
 11
325.3022325502
 21
146.4815645043
  0
LWPOLYLINE
  5
4E4
100
AcDbEntity
  8
0
100
AcDbPolyline
 62
7
  6
CONTINUOUS
 90
10
 70
0
 10
317.4844473314
 20
144.2128351338
 10
317.5057197579
 20
144.2209059895
 10
317.5270491484
 20
144.2296209242
 10
317.5484355028
 20
144.2389799387
 10
317.5698749609
 20
144.2490218081
 10
317.591371383
 20
144.2597077597
 10
317.6129363503
 20
144.2709214728
 10
317.6345737234
 20
144.2826241747
 10
317.6562796417
 20
144.2948546402
 10
317.6780541054
 20
144.3076128705
  0
LINE
  5
4E5
100
AcDbEntity
  8
0
100
AcDbLine
 62
7
  6
CONTINUOUS
 10
310.3228864134
 20
142.2768529631
 11
310.2760881944
 21
142.2612662323
  0
LINE
  5
4E6
100
AcDbEntity
  8
0
100
AcDbLine
 62
7
  6
CONTINUOUS
 10
329.8516117621
 20
148.3428201638
 11
329.8886522469
 21
148.3551569596
  0
LWPOLYLINE
  5
4E7
100
AcDbEntity
  8
0
100
AcDbPolyline
 62
250
  6
CONTINUOUS
 90
13
 70
0
 10
325.8374802173
 20
172.0401797777
 10
325.8191917729
 20
172.0376146807
 10
325.8012036276
 20
172.0318255942
 10
325.7838098408
 20
172.022907826
 10
325.7672954085
 20
172.0110084292
 10
325.7519292428
 20
171.9963221529
 10
325.73796037
 20
171.9790869694
 10
325.7256125063
 20
171.959575194
 10
325.715094453
 20
171.9381125674
 10
325.7065874056
 20
171.9150774124
 10
325.700225609
 20
171.8908600131
 10
325.696101873
 20
171.8658493821
 10
325.6942758322
 20
171.8404538707
  0
LWPOLYLINE
  5
4E8
100
AcDbEntity
  8
0
100
AcDbPolyline
 62
250
  6
CONTINUOUS
 90
13
 70
0
 10
325.6427287572
 20
172.0506486278
 10
325.6244486016
 20
172.0480854393
 10
325.6064674137
 20
172.0423007803
 10
325.5890789714
 20
172.0333893149
 10
325.5725682069
 20
172.0214975046
 10
325.5572038446
 20
172.0068193561
 10
325.5432346841
 20
171.9895917979
 10
325.5308852409
 20
171.9700873875
 10
325.5203639452
 20
171.9486304153
 10
325.5118512059
 20
171.9255947549
 10
325.5054825831
 20
171.9013684561
 10
325.501353163
 20
171.8763415331
 10
325.499524372
 20
171.8509227208
  0
LINE
  5
4E9
100
AcDbEntity
  8
0
100
AcDbLine
 62
7
  6
CONTINUOUS
 10
325.3897646571
 20
171.29709744
 11
325.4406105226
 21
171.3034504662
  0
LWPOLYLINE
  5
4EA
100
AcDbEntity
  8
0
100
AcDbPolyline
 62
250
  6
CONTINUOUS
 90
16
 70
0
 10
314.8808506138
 20
171.0409679603
 10
314.8866128568
 20
171.0416676172
 10
314.8922732871
 20
171.0424170306
 10
314.8977986729
 20
171.0432162006
 10
314.903144306
 20
171.04406291
 10
314.9082843
 20
171.044959376
 10
314.9132052054
 20
171.0459122495
 10
314.9178649073
 20
171.0469238831
 10
314.9222095567
 20
171.0479919242
 10
314.9261962049
 20
171.0491159666
 10
314.9297657463
 20
171.0502954272
 10
314.9328656886
 20
171.0515308891
 10
314.9354486216
 20
171.0528236947
 10
314.937447947
 20
171.0541742915
 10
314.9387883619
 20
171.055582232
 10
314.9393987966
 20
171.0570475161
  0
LWPOLYLINE
  5
4EB
100
AcDbEntity
  8
0
100
AcDbPolyline
 62
250
  6
CONTINUOUS
 90
10
 70
0
 10
313.8755869537
 20
171.072235314
 10
313.8499328639
 20
171.0697128077
 10
313.8250361607
 20
171.0632496333
 10
313.8016322104
 20
171.0530365448
 10
313.7804122946
 20
171.0393750496
 10
313.7620033119
 20
171.0226685529
 10
313.7469491997
 20
171.0034105027
 10
313.7356947078
 20
170.9821697254
 10
313.7285723146
 20
170.9595735767
 10
313.7257924848
 20
170.9362894904
  0
LWPOLYLINE
  5
4EC
100
AcDbEntity
  8
0
100
AcDbPolyline
 62
250
  6
CONTINUOUS
 90
10
 70
0
 10
325.3936615217
 20
171.1929936842
 10
325.367738608
 20
171.190774347
 10
325.3425959881
 20
171.1845297605
 10
325.3189904685
 20
171.1744478902
 10
325.2976325877
 20
171.1608322061
 10
325.2791652295
 20
171.1440925476
 10
325.2641442716
 20
171.1247327873
 10
325.2530218525
 20
171.1033356645
 10
325.2461327626
 20
171.0805452442
 10
325.2436843669
 20
171.0570475303
  0
LWPOLYLINE
  5
4ED
100
AcDbEntity
  8
0
100
AcDbPolyline
 62
250
  6
CONTINUOUS
 90
13
 70
0
 10
325.6427287572
 20
172.0506486278
 10
325.6166187126
 20
172.0489149718
 10
325.5909574968
 20
172.0437918039
 10
325.5661842747
 20
172.0353675329
 10
325.5427237988
 20
172.0237875786
 10
325.5209761876
 20
172.0092504725
 10
325.5013108609
 20
171.9920032514
 10
325.4840582946
 20
171.9723322896
 10
325.4695227701
 20
171.9505805693
 10
325.4579645877
 20
171.927146577
 10
325.4495743538
 20
171.9024446701
 10
325.4444804383
 20
171.8768911305
 10
325.4427592181
 20
171.8509227208
  0
LINE
  5
4EE
100
AcDbEntity
  8
0
100
AcDbLine
 62
250
  6
CONTINUOUS
 10
314.4888073319
 20
171.8404538707
 11
314.683558792
 21
171.8509227208
  0
LWPOLYLINE
  5
4EF
100
AcDbEntity
  8
0
100
AcDbPolyline
 62
250
  6
CONTINUOUS
 90
16
 70
0
 10
326.0578388267
 20
170.9617595638
 10
326.0826776927
 20
170.9623720124
 10
326.1067938857
 20
170.9640347889
 10
326.1301874057
 20
170.9667478932
 10
326.153003779
 20
170.9705299265
 10
326.1750974793
 20
170.9753622877
 10
326.1960319271
 20
170.9811891735
 10
326.2158776653
 20
170.9880342816
 10
326.234564151
 20
170.9958739144
 10
326.2514431763
 20
171.0045811755
 10
326.2665197104
 20
171.0142084265
 10
326.2797887841
 20
171.0247033057
 10
326.2905872824
 20
171.0357818322
 10
326.2986941671
 20
171.0473493456
 10
326.3043304764
 20
171.0595005062
 10
326.3074962104
 20
171.072235314
  0
LWPOLYLINE
  5
4F0
100
AcDbEntity
  8
0
100
AcDbPolyline
 62
250
  6
CONTINUOUS
 90
9
 70
0
 10
326.3285345734
 20
171.8428581251
 10
326.3577588535
 20
171.8435623333
 10
326.3845088944
 20
171.8443427184
 10
326.4084670329
 20
171.8452037286
 10
326.429184683
 20
171.8461409155
 10
326.4462935652
 20
171.8471302539
 10
326.4594773411
 20
171.8481637354
 10
326.4684639158
 20
171.8492493683
 10
326.4730129744
 20
171.8503871527
  0
LWPOLYLINE
  5
4F1
100
AcDbEntity
  8
0
100
AcDbPolyline
 62
250
  6
CONTINUOUS
 90
16
 70
0
 10
326.0578388267
 20
170.8258133957
 10
326.0969884646
 20
170.8264276267
 10
326.1356968116
 20
170.8280914938
 10
326.1735962894
 20
170.830804997
 10
326.2101999152
 20
170.834586202
 10
326.2453069469
 20
170.8394170431
 10
326.2789477447
 20
170.8452433232
 10
326.3108189203
 20
170.8520901366
 10
326.3404634222
 20
170.8599323891
 10
326.3676049891
 20
170.8686406007
 10
326.3918907036
 20
170.8782651139
 10
326.4128947652
 20
170.8887555862
 10
326.4302367657
 20
170.8998315109
 10
326.4435944485
 20
170.9113993855
 10
326.4526933427
 20
170.9235527124
 10
326.4572906406
 20
170.9362914916
  0
LINE
  5
4F2
100
AcDbEntity
  8
0
100
AcDbLine
 62
250
  6
CONTINUOUS
 10
326.2634949403
 20
171.8417111807
 11
326.3285345734
 21
171.8428581251
  0
LINE
  5
4F3
100
AcDbEntity
  8
0
100
AcDbLine
 62
7
  6
CONTINUOUS
 10
325.6395279319
 20
172.0602589125
 11
325.741541582
 21
172.0616914516
  0
LWPOLYLINE
  5
4F4
100
AcDbEntity
  8
0
100
AcDbPolyline
 62
7
  6
CONTINUOUS
 90
8
 70
0
 10
326.2237803023
 20
172.1088618617
 10
326.2305364496
 20
172.1089285792
 10
326.2372158679
 20
172.1090756414
 10
326.2435928927
 20
172.1092838208
 10
326.2490609594
 20
172.1095487608
 10
326.2534178801
 20
172.109869009
 10
326.2568658429
 20
172.1102460178
 10
326.2594048477
 20
172.1106797871
  0
LINE
  5
4F5
100
AcDbEntity
  8
0
100
AcDbLine
 62
250
  6
CONTINUOUS
 10
326.1915375448
 20
171.8409205473
 11
326.2634949403
 21
171.8417111807
  0
LWPOLYLINE
  5
4F6
100
AcDbEntity
  8
0
100
AcDbPolyline
 62
250
  6
CONTINUOUS
 90
19
 70
0
 10
314.2926734658
 20
170.9617595638
 10
314.29462018
 20
170.961777113
 10
314.2965609197
 20
170.9618299829
 10
314.2984956847
 20
170.9619181733
 10
314.300418906
 20
170.9620402949
 10
314.3023361526
 20
170.962197737
 10
314.3042641323
 20
170.9623946681
 10
314.3062080007
 20
170.9626301196
 10
314.3081626023
 20
170.96290506
 10
314.3101291772
 20
170.9632265636
 10
314.3121101532
 20
170.9635937639
 10
314.3141031026
 20
170.9640075274
 10
314.3161019832
 20
170.9644775269
 10
314.3181114079
 20
170.9650036291
 10
314.3201267638
 20
170.9655859673
 10
314.3221281695
 20
170.9662346144
 10
314.3241089981
 20
170.9669529279
 10
314.3260758765
 20
170.9677375502
 10
314.3280288048
 20
170.9685884813
  0
LWPOLYLINE
  5
4F7
100
AcDbEntity
  8
0
100
AcDbPolyline
 62
250
  6
CONTINUOUS
 90
15
 70
0
 10
326.0939201731
 20
172.0402402143
 10
326.1135829044
 20
172.0403956366
 10
326.1325493542
 20
172.0406460447
 10
326.1509191933
 20
172.0409942246
 10
326.168592751
 20
172.0414373902
 10
326.1852710149
 20
172.0419671833
 10
326.200999279
 20
172.0425841789
 10
326.2157322493
 20
172.0432878019
 10
326.2290350316
 20
172.0440679693
 10
326.2409352879
 20
172.0449295966
 10
326.2514053561
 20
172.0458677684
 10
326.2599273562
 20
172.0468576547
 10
326.2663286614
 20
172.047890979
 10
326.2707818985
 20
172.0489760178
 10
326.2732870674
 20
172.0501127713
  0
LWPOLYLINE
  5
4F8
100
AcDbEntity
  8
0
100
AcDbPolyline
 62
250
  6
CONTINUOUS
 90
18
 70
0
 10
314.3004404971
 20
170.8258310045
 10
314.3082073994
 20
170.8258839062
 10
314.3159623403
 20
170.8259721007
 10
314.3236573482
 20
170.8260941807
 10
314.3313170348
 20
170.8262515536
 10
314.3390361333
 20
170.8264484418
 10
314.3468139469
 20
170.8266838904
 10
314.354619571
 20
170.8269588543
 10
314.3624963106
 20
170.8272804202
 10
314.370423144
 20
170.8276477931
 10
314.3783765171
 20
170.8280617681
 10
314.3863875136
 20
170.8285318167
 10
314.3944306157
 20
170.8290576245
 10
314.402465968
 20
170.8296395059
 10
314.4104923124
 20
170.830287876
 10
314.4184774594
 20
170.8310062064
 10
314.4263619404
 20
170.8317910254
 10
314.4340950069
 20
170.8326423331
  0
LINE
  5
4F9
100
AcDbEntity
  8
0
100
AcDbLine
 62
250
  6
CONTINUOUS
 10
326.1136861313
 20
171.8405145907
 11
326.1915375448
 21
171.8409205473
  0
LINE
  5
4FA
100
AcDbEntity
  8
0
100
AcDbLine
 62
250
  6
CONTINUOUS
 10
314.1252443374
 20
170.8258133957
 11
314.3004404971
 21
170.8258310045
  0
LINE
  5
4FB
100
AcDbEntity
  8
0
100
AcDbLine
 62
250
  6
CONTINUOUS
 10
314.1252443374
 20
170.9617595638
 11
314.2926734658
 21
170.9617595638
  0
LINE
  5
4FC
100
AcDbEntity
  8
0
100
AcDbLine
 62
250
  6
CONTINUOUS
 10
325.8904096983
 20
170.9617595638
 11
326.0578388267
 21
170.9617595638
  0
LINE
  5
4FD
100
AcDbEntity
  8
0
100
AcDbLine
 62
7
  6
CONTINUOUS
 10
326.0735611605
 20
171.0612662323
 11
325.8374802173
 21
171.0612662323
  0
LINE
  5
4FE
100
AcDbEntity
  8
0
100
AcDbLine
 62
7
  6
CONTINUOUS
 10
314.3456029468
 20
171.0612662323
 11
314.1095220036
 21
171.0612662323
  0
LINE
  5
4FF
100
AcDbEntity
  8
0
100
AcDbLine
 62
250
  6
CONTINUOUS
 10
325.6942758322
 20
171.8404538707
 11
326.1136861313
 21
171.8405145907
  0
LINE
  5
500
100
AcDbEntity
  8
0
100
AcDbLine
 62
250
  6
CONTINUOUS
 10
314.683558792
 20
171.8509227208
 11
314.7403239459
 21
171.8509227208
  0
LINE
  5
501
100
AcDbEntity
  8
0
100
AcDbLine
 62
250
  6
CONTINUOUS
 10
325.4427592181
 20
171.8509227208
 11
325.499524372
 21
171.8509227208
  0
LINE
  5
502
100
AcDbEntity
  8
0
100
AcDbLine
 62
250
  6
CONTINUOUS
 10
325.8374802173
 20
172.0401797777
 11
326.0939201731
 21
172.0402402143
  0
LINE
  5
503
100
AcDbEntity
  8
0
100
AcDbLine
 62
7
  6
CONTINUOUS
 10
326.1430528263
 20
172.1088503405
 11
326.2237803023
 21
172.1088618617
  0
LINE
  5
504
100
AcDbEntity
  8
0
100
AcDbLine
 62
250
  6
CONTINUOUS
 10
314.0246684782
 20
171.840702194
 11
314.4888073319
 21
171.8404538707
  0
LINE
  5
505
100
AcDbEntity
  8
0
100
AcDbLine
 62
250
  6
CONTINUOUS
 10
313.9452901178
 20
171.8413768553
 11
314.0246684782
 21
171.840702194
  0
LINE
  5
506
100
AcDbEntity
  8
0
100
AcDbLine
 62
7
  6
CONTINUOUS
 10
314.441541582
 20
172.0616914516
 11
314.5435552322
 21
172.0602589125
  0
LINE
  5
507
100
AcDbEntity
  8
0
100
AcDbLine
 62
250
  6
CONTINUOUS
 10
325.499524372
 20
171.8509227208
 11
325.6942758322
 21
171.8404538707
  0
LWPOLYLINE
  5
508
100
AcDbEntity
  8
0
100
AcDbPolyline
 62
250
  6
CONTINUOUS
 90
13
 70
0
 10
314.5403544069
 20
172.0506486278
 10
314.5664642535
 20
172.0489149981
 10
314.5921252762
 20
172.043791909
 10
314.6168983205
 20
172.0353677688
 10
314.6403586131
 20
172.0237880131
 10
314.6621060823
 20
172.0092511587
 10
314.681771397
 20
171.9920041574
 10
314.6990240856
 20
171.9723333111
 10
314.713559799
 20
171.9505815997
 10
314.7251181898
 20
171.92714751
 10
314.7335086145
 20
171.9024453995
 10
314.7386026709
 20
171.8768915455
 10
314.7403239459
 20
171.8509227208
  0
LWPOLYLINE
  5
509
100
AcDbEntity
  8
0
100
AcDbPolyline
 62
250
  6
CONTINUOUS
 90
10
 70
0
 10
314.7894216424
 20
171.1929936842
 10
314.8153445548
 20
171.1907743457
 10
314.8404871736
 20
171.1845297579
 10
314.8640926926
 20
171.1744478865
 10
314.885450573
 20
171.1608322009
 10
314.9039179312
 20
171.1440925407
 10
314.9189388897
 20
171.1247327788
 10
314.9300613098
 20
171.1033356543
 10
314.9369504005
 20
171.0805452321
 10
314.9393987966
 20
171.0570475161
  0
LWPOLYLINE
  5
50A
100
AcDbEntity
  8
0
100
AcDbPolyline
 62
250
  6
CONTINUOUS
 90
10
 70
0
 10
326.3074962104
 20
171.072235314
 10
326.333151371
 20
171.0697126174
 10
326.3580487611
 20
171.0632490316
 10
326.3814529897
 20
171.0530354713
 10
326.4026727727
 20
171.0393736444
 10
326.4210813411
 20
171.0226670515
 10
326.4361349537
 20
171.0034090667
 10
326.4473889709
 20
170.9821684822
 10
326.4545109874
 20
170.9595727069
 10
326.4572906406
 20
170.936289146
  0
LWPOLYLINE
  5
50B
100
AcDbEntity
  8
0
100
AcDbPolyline
 62
250
  6
CONTINUOUS
 90
19
 70
0
 10
325.7489883421
 20
170.8326423133
 10
325.754471132
 20
170.8320249051
 10
325.7601761606
 20
170.8314321692
 10
325.7660976476
 20
170.8308641055
 10
325.7722023311
 20
170.8303212535
 10
325.7785089446
 20
170.8298030736
 10
325.7850956521
 20
170.8293079477
 10
325.79197092
 20
170.828833675
 10
325.7991223657
 20
170.8283824561
 10
325.8066055822
 20
170.8279592751
 10
325.814417154
 20
170.827562648
 10
325.8225543695
 20
170.8271940586
 10
325.8310780501
 20
170.8268629424
 10
325.8399876184
 20
170.8265675797
 10
325.8492692367
 20
170.8263096901
 10
325.8589641618
 20
170.8261038676
 10
325.8690754585
 20
170.8259549766
 10
325.8795656301
 20
170.8258581527
 10
326.0578388267
 20
170.8258133957
  0
LINE
  5
50C
100
AcDbEntity
  8
0
100
AcDbLine
 62
7
  6
CONTINUOUS
 10
314.7424726415
 20
171.3034504662
 11
314.793318507
 21
171.29709744
  0
LWPOLYLINE
  5
50D
100
AcDbEntity
  8
0
100
AcDbPolyline
 62
250
  6
CONTINUOUS
 90
13
 70
0
 10
314.5403544069
 20
172.0506486278
 10
314.5586346713
 20
172.0480854142
 10
314.5766159621
 20
172.0423006923
 10
314.5940044963
 20
172.0333891285
 10
314.6105153522
 20
172.0214971754
 10
314.6258797831
 20
172.0068188518
 10
314.6398489479
 20
171.9895911448
 10
314.6521983283
 20
171.970086662
 10
314.6627195275
 20
171.9486296937
 10
314.6712321616
 20
171.9255941088
 10
314.6776006879
 20
171.9013679544
 10
314.6817300346
 20
171.8763412492
 10
314.683558792
 20
171.8509227208
  0
LWPOLYLINE
  5
50E
100
AcDbEntity
  8
0
100
AcDbPolyline
 62
250
  6
CONTINUOUS
 90
13
 70
0
 10
314.3456029468
 20
172.0401797777
 10
314.3638912405
 20
172.0376147154
 10
314.381879239
 20
172.0318257178
 10
314.3992728907
 20
172.0229080915
 10
314.4157871838
 20
172.011008906
 10
314.4311532406
 20
171.9963228937
 10
314.4451221001
 20
171.9790879384
 10
314.45747005
 20
171.9595762832
 10
314.467988241
 20
171.9381136671
 10
314.4764954447
 20
171.9150784098
 10
314.482857389
 20
171.8908607932
 10
314.4869812387
 20
171.8658498263
 10
314.4888073319
 20
171.8404538707
  0
LWPOLYLINE
  5
50F
100
AcDbEntity
  8
0
100
AcDbPolyline
 62
7
  6
CONTINUOUS
 90
8
 70
0
 10
329.8516117621
 20
169.1797123007
 10
329.8483493857
 20
169.1802473034
 10
329.8422215333
 20
169.1807639959
 10
329.8332282048
 20
169.1812623782
 10
329.8212107219
 20
169.1817473469
 10
329.8063277629
 20
169.1822140054
 10
329.7890553627
 20
169.1826476641
 10
329.747258657
 20
169.1834130073
  0
LWPOLYLINE
  5
510
100
AcDbEntity
  8
0
100
AcDbPolyline
 62
7
  6
CONTINUOUS
 90
9
 70
0
 10
313.9236783908
 20
172.1106797791
 10
313.9262965889
 20
172.110237891
 10
313.9298398964
 20
172.1098553231
 10
313.9343083133
 20
172.1095320754
 10
313.9399525517
 20
172.109267402
 10
313.9465218995
 20
172.1090620488
 10
313.9532642203
 20
172.1089182535
 10
313.9598511624
 20
172.1088550666
 10
314.0388166415
 20
172.108841284
  0
LINE
  5
511
100
AcDbEntity
  8
0
100
AcDbLine
 62
7
  6
CONTINUOUS
 10
310.3228864134
 20
175.2456795014
 11
310.2760881944
 21
175.2612662323
  0
LINE
  5
512
100
AcDbEntity
  8
0
100
AcDbLine
 62
7
  6
CONTINUOUS
 10
329.8516117621
 20
169.1797123007
 11
329.8886522469
 21
169.167375505
  0
LINE
  5
513
100
AcDbEntity
  8
0
100
AcDbLine
 62
250
  6
CONTINUOUS
 10
325.3022325502
 20
171.0409679603
 11
325.7489883421
 21
170.8326423133
  0
LWPOLYLINE
  5
514
100
AcDbEntity
  8
0
100
AcDbPolyline
 62
7
  6
CONTINUOUS
 90
7
 70
0
 10
326.6032449074
 20
172.113865494
 10
326.6119996868
 20
172.097979777
 10
326.6192867068
 20
172.081336835
 10
326.6250382085
 20
172.0640707726
 10
326.6291986283
 20
172.0463219734
 10
326.6317252076
 20
172.0282359936
 10
326.632588504
 20
172.009962394
  0
LWPOLYLINE
  5
515
100
AcDbEntity
  8
0
100
AcDbPolyline
 62
250
  6
CONTINUOUS
 90
19
 70
0
 10
330.9539781152
 20
180.2011094196
 10
330.9489110154
 20
180.2460972716
 10
330.9398574332
 20
180.2901300776
 10
330.9269980564
 20
180.3328748963
 10
330.910426618
 20
180.3742469077
 10
330.8904421232
 20
180.4137172564
 10
330.8677303907
 20
180.4503983273
 10
330.8427859761
 20
180.4840020267
 10
330.8159253014
 20
180.5146083991
 10
330.7877529553
 20
180.5420652177
 10
330.7590393263
 20
180.5661141375
 10
330.7297709835
 20
180.5871800812
 10
330.6992342695
 20
180.6060303197
 10
330.6676802957
 20
180.6225848736
 10
330.635202007
 20
180.636797178
 10
330.6006169291
 20
180.649049173
 10
330.5635769185
 20
180.6591342748
 10
330.5246816627
 20
180.6665485116
 10
330.4841337053
 20
180.6709576304
  0
LINE
  5
516
100
AcDbEntity
  8
0
100
AcDbLine
 62
7
  6
CONTINUOUS
 10
326.105778582
 20
140.8862662323
 11
325.747206582
 21
140.2855792323
  0
LINE
  5
517
100
AcDbEntity
  8
0
100
AcDbLine
 62
7
  6
CONTINUOUS
 10
325.832426582
 20
140.1394002323
 11
326.304322582
 21
140.8862662323
  0
LWPOLYLINE
  5
518
100
AcDbEntity
  8
0
100
AcDbPolyline
 62
7
  6
CONTINUOUS
 90
46
 70
0
 10
326.6032449074
 20
145.4086669706
 10
326.600193321
 20
145.4058415864
 10
326.5970465753
 20
145.4030976105
 10
326.5938062562
 20
145.400436306
 10
326.5904762149
 20
145.3978607212
 10
326.5870559219
 20
145.3953701275
 10
326.5835399746
 20
145.3929603882
 10
326.5799285085
 20
145.3906320238
 10
326.576223811
 20
145.3883873901
 10
326.5724230922
 20
145.386225579
 10
326.5685274355
 20
145.3841480083
 10
326.5645379849
 20
145.382156331
 10
326.5604516881
 20
145.3802503313
 10
326.5562693723
 20
145.3784315127
 10
326.551992283
 20
145.3767017151
 10
326.5476177215
 20
145.3750615526
 10
326.5431463858
 20
145.3735126678
 10
326.5385796274
 20
145.3720570129
 10
326.5339155559
 20
145.3706959349
 10
326.5291551286
 20
145.3694312741
 10
326.5242995557
 20
145.3682649616
 10
326.5193472307
 20
145.3671987003
 10
326.5142991484
 20
145.3662344292
 10
326.5091566631
 20
145.3653741466
 10
326.5039186596
 20
145.364619839
 10
326.4985873915
 20
145.3639736308
 10
326.4931632272
 20
145.3634374234
 10
326.4876421377
 20
145.3630131879
 10
326.4820302613
 20
145.3627032224
 10
326.4763242983
 20
145.3625095464
 10
326.4705056476
 20
145.3624348679
 10
326.4645764393
 20
145.3624820369
 10
326.458537081
 20
145.3626545055
 10
326.4523657784
 20
145.3629579028
 10
326.4460631815
 20
145.3633963156
 10
326.4396312566
 20
145.363974294
 10
326.4330497798
 20
145.364700294
 10
326.426319796
 20
145.3655796452
 10
326.4194435255
 20
145.3666179396
 10
326.4124023843
 20
145.3678260778
 10
326.4051981914
 20
145.3692106075
 10
326.3978336187
 20
145.3707781881
 10
326.3902915103
 20
145.3725419127
 10
326.3825682127
 20
145.3745117545
 10
326.3746737221
 20
145.37669348
 10
326.3666118322
 20
145.3790949285
  0
LWPOLYLINE
  5
519
100
AcDbEntity
  8
0
100
AcDbPolyline
 62
7
  6
CONTINUOUS
 90
10
 70
0
 10
322.3397184409
 20
144.307612797
 10
322.3615449884
 20
144.3207261887
 10
322.3827992663
 20
144.334079467
 10
322.4034812746
 20
144.3476726325
 10
322.4236315632
 20
144.3614835163
 10
322.4432095821
 20
144.3755342884
 10
322.462093682
 20
144.3898914572
 10
322.4802433131
 20
144.4045771928
 10
322.4976990251
 20
144.4195693267
 10
322.5144608182
 20
144.4348678596
  0
LWPOLYLINE
  5
51A
100
AcDbEntity
  8
0
100
AcDbPolyline
 62
7
  6
CONTINUOUS
 90
10
 70
0
 10
321.5424282712
 20
144.0736809678
 10
321.5647507517
 20
144.0846000005
 10
321.5858070564
 20
144.0963588375
 10
321.6055971851
 20
144.1089574806
 10
321.6241514327
 20
144.1224562495
 10
321.6414395043
 20
144.1367948284
 10
321.6573705158
 20
144.1517922652
 10
321.6719141725
 20
144.1673882434
 10
321.685100769
 20
144.1836430829
 10
321.6969303053
 20
144.2005567856
  0
LWPOLYLINE
  5
51B
100
AcDbEntity
  8
0
100
AcDbPolyline
 62
250
  6
CONTINUOUS
 90
19
 70
0
 10
325.4082985674
 20
146.3456183362
 10
325.4070542884
 20
146.3450201277
 10
325.4058466985
 20
146.3443923072
 10
325.4046757977
 20
146.3437348745
 10
325.4035396069
 20
146.3430496219
 10
325.4024401052
 20
146.3423347572
 10
325.40138323
 20
146.3415849039
 10
325.4003661986
 20
146.3407996545
 10
325.3993917937
 20
146.3399794165
 10
325.3984743001
 20
146.3391200368
 10
325.3976113167
 20
146.3382210647
 10
325.3968052448
 20
146.3372829508
 10
325.3960775725
 20
146.336302895
 10
325.3954258105
 20
146.3352798671
 10
325.3948524482
 20
146.3342148973
 10
325.3943864424
 20
146.3331082747
 10
325.3940374456
 20
146.331960096
 10
325.3937958054
 20
146.3307702645
 10
325.3936615217
 20
146.3295387804
  0
LINE
  5
51C
100
AcDbEntity
  8
0
100
AcDbLine
 62
7
  6
CONTINUOUS
 10
325.6942758322
 20
146.4331085046
 11
325.499524372
 21
146.3399600251
  0
LINE
  5
51D
100
AcDbEntity
  8
0
100
AcDbLine
 62
250
  6
CONTINUOUS
 10
325.8550543592
 20
146.5539439833
 11
325.4082985674
 21
146.3456183362
  0
LWPOLYLINE
  5
51E
100
AcDbEntity
  8
0
100
AcDbPolyline
 62
7
  6
CONTINUOUS
 90
10
 70
0
 10
319.8152794999
 20
144.2128351338
 10
319.8365519288
 20
144.2209059887
 10
319.857881322
 20
144.2296209213
 10
319.8792676792
 20
144.2389799329
 10
319.9007071405
 20
144.2490217977
 10
319.9222035659
 20
144.2597077436
 10
319.943768536
 20
144.2709214514
 10
319.9654059107
 20
144.2826241487
 10
319.98711183
 20
144.2948546098
 10
320.008886294
 20
144.3076128361
  0
LWPOLYLINE
  5
51F
100
AcDbEntity
  8
0
100
AcDbPolyline
 62
7
  6
CONTINUOUS
 90
10
 70
0
 10
322.1461116236
 20
144.2128351338
 10
322.1673840582
 20
144.2209059851
 10
322.188713457
 20
144.229620913
 10
322.2100998199
 20
144.2389799184
 10
322.2315392878
 20
144.2490217742
 10
322.2530357198
 20
144.2597077098
 10
322.2746006934
 20
144.2709214105
 10
322.2962380677
 20
144.2826241052
 10
322.3179439835
 20
144.294854567
 10
322.3397184409
 20
144.307612797
  0
LINE
  5
520
100
AcDbEntity
  8
0
100
AcDbLine
 62
7
  6
CONTINUOUS
 10
325.785429713
 20
145.3131240968
 11
326.0579097929
 21
145.3974595568
  0
LINE
  5
521
100
AcDbEntity
  8
0
100
AcDbLine
 62
7
  6
CONTINUOUS
 10
326.0579097929
 20
145.3974595568
 11
326.1053482387
 21
145.4118526816
  0
LWPOLYLINE
  5
522
100
AcDbEntity
  8
0
100
AcDbPolyline
 62
250
  6
CONTINUOUS
 90
13
 70
0
 10
313.9097960966
 20
172.0501127713
 10
313.8837734197
 20
172.0483389774
 10
313.8581940652
 20
172.0431903039
 10
313.8334941602
 20
172.0347544018
 10
313.8100948538
 20
172.0231749674
 10
313.7883951721
 20
172.0086493143
 10
313.768765203
 20
171.9914250284
 10
313.7515397182
 20
171.971795697
 10
313.7370125295
 20
171.950095955
 10
313.7254314758
 20
171.92669583
 10
313.7169941155
 20
171.9019943266
 10
313.711844386
 20
171.8764126037
 10
313.7100701823
 20
171.8503868718
  0
LINE
  5
523
100
AcDbEntity
  8
0
100
AcDbLine
 62
250
  6
CONTINUOUS
 10
314.3456029468
 20
172.0401797777
 11
314.5403544069
 21
172.0506486278
  0
LWPOLYLINE
  5
524
100
AcDbEntity
  8
0
100
AcDbPolyline
 62
7
  6
CONTINUOUS
 90
37
 70
0
 10
316.3163186125
 20
173.5429372323
 10
316.3539944224
 20
173.5439114739
 10
316.3906360062
 20
173.5452203058
 10
316.426243364
 20
173.5468637279
 10
316.4607308282
 20
173.5487126237
 10
316.4941840663
 20
173.5508961096
 10
316.5268600809
 20
173.5538015348
 10
316.558780567
 20
173.5575237133
 10
316.5899238294
 20
173.5619678302
 10
316.6204817861
 20
173.5672367913
 10
316.6504670822
 20
173.5733186315
 10
316.6798670725
 20
173.5802253141
 10
316.708835739
 20
173.5880956374
 10
316.7374640048
 20
173.596877959
 10
316.7656609469
 20
173.6066239183
 10
316.7933077781
 20
173.617627235
 10
316.8204828518
 20
173.629915924
 10
316.8471078145
 20
173.643461965
 10
316.8728288184
 20
173.6584750241
 10
316.8976734961
 20
173.6750313188
 10
316.9216142151
 20
173.693054623
 10
316.94421423
 20
173.7125259361
 10
316.9654461933
 20
173.7335307093
 10
316.9853374525
 20
173.7559834804
 10
317.0035333056
 20
173.7796088797
 10
317.0198902648
 20
173.8044263913
 10
317.0345518177
 20
173.8304165205
 10
317.0475937252
 20
173.857245432
 10
317.0589980343
 20
173.8848973759
 10
317.0687826979
 20
173.9133880934
 10
317.0770773348
 20
173.9424309884
 10
317.0838388066
 20
173.9719530742
 10
317.0891102517
 20
174.0020273315
 10
317.0931507045
 20
174.032586116
 10
317.0960465097
 20
174.0636068778
 10
317.0977113226
 20
174.0951121613
 10
317.0981451432
 20
174.1271019633
  0
LWPOLYLINE
  5
525
100
AcDbEntity
  8
0
100
AcDbPolyline
 62
7
  6
CONTINUOUS
 90
8
 70
0
 10
314.0388166415
 20
172.108841284
 10
314.0467646304
 20
172.1089006496
 10
314.054237679
 20
172.1090487646
 10
314.0612238209
 20
172.1092624856
 10
314.0671262964
 20
172.1095332996
 10
314.0717461853
 20
172.109858369
 10
314.0752824077
 20
172.1102405316
 10
314.0777349636
 20
172.1106797871
  0
LINE
  5
526
100
AcDbEntity
  8
0
100
AcDbLine
 62
7
  6
CONTINUOUS
 10
314.397653451
 20
172.2094083678
 11
314.441541582
 21
172.2094083678
  0
LINE
  5
527
100
AcDbEntity
  8
0
100
AcDbLine
 62
7
  6
CONTINUOUS
 10
325.741541582
 20
172.2094083678
 11
325.785429713
 21
172.2094083678
  0
LINE
  5
528
100
AcDbEntity
  8
0
100
AcDbLine
 62
7
  6
CONTINUOUS
 10
315.734903582
 20
172.8112662323
 11
316.142817582
 21
172.8112662323
  0
LINE
  5
529
100
AcDbEntity
  8
0
100
AcDbLine
 62
7
  6
CONTINUOUS
 10
317.353404582
 20
172.8112662323
 11
318.464317582
 21
172.8112662323
  0
LINE
  5
52A
100
AcDbEntity
  8
0
100
AcDbLine
 62
7
  6
CONTINUOUS
 10
318.669240582
 20
172.8112662323
 11
319.058707582
 21
172.8112662323
  0
LINE
  5
52B
100
AcDbEntity
  8
0
100
AcDbLine
 62
7
  6
CONTINUOUS
 10
320.090254582
 20
172.8112662323
 11
320.500814582
 21
172.8112662323
  0
LINE
  5
52C
100
AcDbEntity
  8
0
100
AcDbLine
 62
7
  6
CONTINUOUS
 10
320.708668582
 20
172.8112662323
 11
321.090269582
 21
172.8112662323
  0
LINE
  5
52D
100
AcDbEntity
  8
0
100
AcDbLine
 62
7
  6
CONTINUOUS
 10
321.845536582
 20
172.8112662323
 11
322.424481582
 21
172.8112662323
  0
LINE
  5
52E
100
AcDbEntity
  8
0
100
AcDbLine
 62
7
  6
CONTINUOUS
 10
322.616605582
 20
172.8112662323
 11
323.006072582
 21
172.8112662323
  0
LINE
  5
52F
100
AcDbEntity
  8
0
100
AcDbLine
 62
7
  6
CONTINUOUS
 10
324.037762582
 20
172.8112662323
 11
324.448179582
 21
172.8112662323
  0
LINE
  5
530
100
AcDbEntity
  8
0
100
AcDbLine
 62
7
  6
CONTINUOUS
 10
318.464317582
 20
173.1270152323
 11
317.761318582
 21
173.1270152323
  0
LINE
  5
531
100
AcDbEntity
  8
0
100
AcDbLine
 62
7
  6
CONTINUOUS
 10
319.200779582
 20
173.2139602323
 11
319.953401582
 21
173.2139602323
  0
LINE
  5
532
100
AcDbEntity
  8
0
100
AcDbLine
 62
7
  6
CONTINUOUS
 10
323.148216582
 20
173.2139602323
 11
323.900837582
 21
173.2139602323
  0
LINE
  5
533
100
AcDbEntity
  8
0
100
AcDbLine
 62
7
  6
CONTINUOUS
 10
323.798162582
 20
173.5297092323
 11
323.253466582
 21
173.5297092323
  0
LINE
  5
534
100
AcDbEntity
  8
0
100
AcDbLine
 62
7
  6
CONTINUOUS
 10
319.850797582
 20
173.5297092323
 11
319.306029582
 21
173.5297092323
  0
LINE
  5
535
100
AcDbEntity
  8
0
100
AcDbLine
 62
7
  6
CONTINUOUS
 10
316.142817582
 20
173.5429372323
 11
316.3163186125
 21
173.5429372323
  0
LINE
  5
536
100
AcDbEntity
  8
0
100
AcDbLine
 62
250
  6
CONTINUOUS
 10
325.6427287572
 20
172.0506486278
 11
325.8374802173
 21
172.0401797777
  0
LWPOLYLINE
  5
537
100
AcDbEntity
  8
0
100
AcDbPolyline
 62
250
  6
CONTINUOUS
 90
13
 70
0
 10
326.2732870674
 20
172.0501127713
 10
326.2993114279
 20
172.0483387515
 10
326.324892054
 20
172.0431895054
 10
326.3495927771
 20
172.0347528314
 10
326.3729924317
 20
172.0231725813
 10
326.3946920361
 20
172.0086462068
 10
326.4143215955
 20
171.9914213929
 10
326.4315464117
 20
171.9717918356
 10
326.4460727885
 20
171.9500922334
 10
326.4576530397
 20
171.9266925798
 10
326.4660897131
 20
171.901991856
 10
326.4712389575
 20
171.876411228
 10
326.4730129744
 20
171.8503868643
  0
LWPOLYLINE
  5
538
100
AcDbEntity
  8
0
100
AcDbPolyline
 62
7
  6
CONTINUOUS
 90
8
 70
0
 10
310.3228864134
 20
175.2456795014
 10
310.3261548519
 20
175.2451435303
 10
310.3322895211
 20
175.2446259519
 10
310.3412904211
 20
175.2441267665
 10
310.3533168155
 20
175.2436410784
 10
310.3682094406
 20
175.2431737832
 10
310.3854905056
 20
175.2427395674
 10
310.4273013732
 20
175.2419733512
  0
LWPOLYLINE
  5
539
100
AcDbEntity
  8
0
100
AcDbPolyline
 62
7
  6
CONTINUOUS
 90
8
 70
0
 10
326.1053482758
 20
172.1106797789
 10
326.1077747991
 20
172.1102474084
 10
326.1112253918
 20
172.1098702491
 10
326.1157000537
 20
172.1095483008
 10
326.1213576473
 20
172.1092785114
 10
326.1280393103
 20
172.1090639331
 10
326.1352684556
 20
172.1089137225
 10
326.1430528263
 20
172.1088503405
  0
LINE
  5
53A
100
AcDbEntity
  8
0
100
AcDbLine
 62
7
  6
CONTINUOUS
 10
326.0333957716
 20
172.1325698726
 11
326.1053482758
 21
172.1106797789
  0
LINE
  5
53B
100
AcDbEntity
  8
0
100
AcDbLine
 62
7
  6
CONTINUOUS
 10
325.785429713
 20
172.2094083678
 11
326.0333957716
 21
172.1325698726
  0
LWPOLYLINE
  5
53C
100
AcDbEntity
  8
0
100
AcDbPolyline
 62
250
  6
CONTINUOUS
 90
19
 70
0
 10
325.8550543592
 20
170.9685884813
 10
325.8564276728
 20
170.967971211
 10
325.8578534491
 20
170.9673785369
 10
325.8593316883
 20
170.9668104591
 10
325.860856619
 20
170.9662674736
 10
325.8624340126
 20
170.9657490843
 10
325.8640811826
 20
170.9652538033
 10
325.8657997283
 20
170.9647794784
 10
325.8675880504
 20
170.9643282617
 10
325.8694586657
 20
170.9639051222
 10
325.8714115696
 20
170.9635086159
 10
325.8734467667
 20
170.9631401868
 10
325.8755767865
 20
170.9628091358
 10
325.8778044553
 20
170.96251363
 10
325.8801269469
 20
170.9622555022
 10
325.8825483119
 20
170.9620495518
 10
325.8850699006
 20
170.9619007118
 10
325.8876903627
 20
170.9618040491
 10
325.8904096983
 20
170.9617595638
  0
LINE
  5
53D
100
AcDbEntity
  8
0
100
AcDbLine
 62
250
  6
CONTINUOUS
 10
325.4082985674
 20
171.1769141284
 11
325.8550543592
 21
170.9685884813
  0
LINE
  5
53E
100
AcDbEntity
  8
0
100
AcDbLine
 62
7
  6
CONTINUOUS
 10
325.6942758322
 20
171.08942396
 11
325.499524372
 21
171.1825724395
  0
LINE
  5
53F
100
AcDbEntity
  8
0
100
AcDbLine
 62
7
  6
CONTINUOUS
 10
329.6969533983
 20
141.4417680031
 11
329.7067017704
 21
141.4612662323
  0
LINE
  5
540
100
AcDbEntity
  8
0
100
AcDbLine
 62
7
  6
CONTINUOUS
 10
326.091541582
 20
141.4612662323
 11
326.0714842725
 21
141.4412089227
  0
LWPOLYLINE
  5
541
100
AcDbEntity
  8
0
100
AcDbPolyline
 62
7
  6
CONTINUOUS
 90
4
 70
0
 10
316.4526721525
 20
173.8667326725
 10
316.4168857706
 20
173.8623784028
 10
316.3988761706
 20
173.8604224862
 10
316.3807845336
 20
173.8586862323
  0
LWPOLYLINE
  5
542
100
AcDbEntity
  8
0
100
AcDbPolyline
 62
7
  6
CONTINUOUS
 90
7
 70
0
 10
329.7975927058
 20
175.2427395661
 10
329.8148737686
 20
175.2431737821
 10
329.8297663896
 20
175.2436410776
 10
329.8417927774
 20
175.2441267659
 10
329.8507936683
 20
175.2446259516
 10
329.8569283261
 20
175.2451435301
 10
329.8601967507
 20
175.2456795014
  0
LINE
  5
543
100
AcDbEntity
  8
0
100
AcDbLine
 62
7
  6
CONTINUOUS
 10
329.7557818371
 20
175.2419733494
 11
329.7975927058
 21
175.2427395661
  0
LINE
  5
544
100
AcDbEntity
  8
0
100
AcDbLine
 62
7
  6
CONTINUOUS
 10
329.7061199939
 20
175.2413708881
 11
329.7557818371
 21
175.2419733494
  0
LINE
  5
545
100
AcDbEntity
  8
0
100
AcDbLine
 62
7
  6
CONTINUOUS
 10
329.6211461925
 20
175.2408194381
 11
329.7061199939
 21
175.2413708881
  0
LINE
  5
546
100
AcDbEntity
  8
0
100
AcDbLine
 62
7
  6
CONTINUOUS
 10
316.3807845336
 20
173.8586862323
 11
316.142817582
 21
173.8586862323
  0
LINE
  5
547
100
AcDbEntity
  8
0
100
AcDbLine
 62
7
  6
CONTINUOUS
 10
316.142817582
 20
174.3955172323
 11
316.3807882044
 21
174.3955172323
  0
LINE
  5
548
100
AcDbEntity
  8
0
100
AcDbLine
 62
7
  6
CONTINUOUS
 10
323.787722582
 20
174.7112662323
 11
323.303517582
 21
174.7112662323
  0
LINE
  5
549
100
AcDbEntity
  8
0
100
AcDbLine
 62
7
  6
CONTINUOUS
 10
322.424481582
 20
174.7112662323
 11
322.042879582
 21
174.7112662323
  0
LINE
  5
54A
100
AcDbEntity
  8
0
100
AcDbLine
 62
7
  6
CONTINUOUS
 10
321.313925582
 20
174.7112662323
 11
320.708668582
 21
174.7112662323
  0
LINE
  5
54B
100
AcDbEntity
  8
0
100
AcDbLine
 62
7
  6
CONTINUOUS
 10
319.840286582
 20
174.7112662323
 11
319.356080582
 21
174.7112662323
  0
LINE
  5
54C
100
AcDbEntity
  8
0
100
AcDbLine
 62
7
  6
CONTINUOUS
 10
317.761318582
 20
174.7112662323
 11
317.353404582
 21
174.7112662323
  0
LINE
  5
54D
100
AcDbEntity
  8
0
100
AcDbLine
 62
7
  6
CONTINUOUS
 10
316.3163310794
 20
174.7112662323
 11
315.734903582
 21
174.7112662323
  0
LINE
  5
54E
100
AcDbEntity
  8
0
100
AcDbLine
 62
7
  6
CONTINUOUS
 10
326.0709866558
 20
175.240711306
 11
329.6211461925
 21
175.2408194381
  0
LINE
  5
54F
100
AcDbEntity
  8
0
100
AcDbLine
 62
7
  6
CONTINUOUS
 10
310.2760881944
 20
175.2612662323
 11
314.091541582
 21
175.2612662323
  0
LINE
  5
550
100
AcDbEntity
  8
0
100
AcDbLine
 62
7
  6
CONTINUOUS
 10
326.091541582
 20
175.2612662323
 11
329.9069949696
 21
175.2612662323
  0
LINE
  5
551
100
AcDbEntity
  8
0
100
AcDbLine
 62
7
  6
CONTINUOUS
 10
310.561936936
 20
175.2408194401
 11
314.1120965083
 21
175.240711306
  0
LINE
  5
552
100
AcDbEntity
  8
0
100
AcDbLine
 62
7
  6
CONTINUOUS
 10
310.4769632178
 20
175.2413708903
 11
310.561936936
 21
175.2408194401
  0
LINE
  5
553
100
AcDbEntity
  8
0
100
AcDbLine
 62
7
  6
CONTINUOUS
 10
310.4273013732
 20
175.2419733512
 11
310.4769632178
 21
175.2413708903
  0
LWPOLYLINE
  5
554
100
AcDbEntity
  8
0
100
AcDbPolyline
 62
7
  6
CONTINUOUS
 90
3
 70
0
 10
316.3807882044
 20
174.3955172323
 10
316.3989446788
 20
174.3937832743
 10
316.4170521315
 20
174.3918166326
  0
LWPOLYLINE
  5
555
100
AcDbEntity
  8
0
100
AcDbPolyline
 62
7
  6
CONTINUOUS
 90
21
 70
0
 10
316.4170521315
 20
174.3918166326
 10
316.4531472676
 20
174.3874073081
 10
316.471134951
 20
174.3849646251
 10
316.488991724
 20
174.3816232272
 10
316.5068806505
 20
174.3773395112
 10
316.5246386666
 20
174.372157079
 10
316.5416946911
 20
174.3655407056
 10
316.5580379196
 20
174.3573477502
 10
316.5736791565
 20
174.3477208495
 10
316.588079734
 20
174.3365526944
 10
316.6010562352
 20
174.323594937
 10
316.6127920771
 20
174.3090959177
 10
316.6232988428
 20
174.2936933606
 10
316.6325805215
 20
174.2774824025
 10
316.6406331241
 20
174.2603679014
 10
316.647456267
 20
174.2427021649
 10
316.6530000874
 20
174.224555753
 10
316.6573144482
 20
174.2058581023
 10
316.6605485538
 20
174.1867498368
 10
316.662752139
 20
174.1672778304
 10
316.6638754691
 20
174.1473952064
  0
LINE
  5
556
100
AcDbEntity
  8
0
100
AcDbLine
 62
7
  6
CONTINUOUS
 10
326.091541582
 20
176.0612662323
 11
326.0714842725
 21
176.0813235418
  0
LWPOLYLINE
  5
557
100
AcDbEntity
  8
0
100
AcDbPolyline
 62
7
  6
CONTINUOUS
 90
10
 70
0
 10
329.951541582
 20
141.0112662323
 10
329.9011795701
 20
140.9272507731
 10
329.8959990818
 20
140.9187430592
 10
329.8909283546
 20
140.9105010501
 10
329.8859696449
 20
140.9025333398
 10
329.8811206964
 20
140.8948313341
 10
329.8763747399
 20
140.8873692509
 10
329.8717295191
 20
140.8801384959
 10
329.8671872904
 20
140.8731476634
 10
329.8627480537
 20
140.8663967532
  0
LINE
  5
558
100
AcDbEntity
  8
0
100
AcDbLine
 62
250
  6
CONTINUOUS
 10
330.2290907522
 20
141.5702737617
 11
330.1598655144
 21
141.4577984484
  0
LWPOLYLINE
  5
559
100
AcDbEntity
  8
0
100
AcDbPolyline
 62
250
  6
CONTINUOUS
 90
16
 70
0
 10
330.1598655144
 20
141.4577984484
 10
330.1389937626
 20
141.4241309648
 10
330.1192381608
 20
141.3926806198
 10
330.1006856251
 20
141.3634508559
 10
330.0834172208
 20
141.3365795827
 10
330.0673518828
 20
141.3120321117
 10
330.0523333314
 20
141.2895541686
 10
330.0384184932
 20
141.2692948817
 10
330.0255504415
 20
141.2511027788
 10
330.0134021171
 20
141.2344454372
 10
330.0019406981
 20
141.2195480042
 10
329.9911990064
 20
141.2064097664
 10
329.980948448
 20
141.1946137807
 10
329.971112825
 20
141.1844754732
 10
329.9617683354
 20
141.1766987347
 10
329.9529149792
 20
141.1717958824
  0
LWPOLYLINE
  5
55A
100
AcDbEntity
  8
0
100
AcDbPolyline
 62
7
  6
CONTINUOUS
 90
7
 70
0
 10
310.3839722612
 20
176.0792968573
 10
310.3666984783
 20
176.0788631262
 10
310.3518140813
 20
176.0783963861
 10
310.3397953209
 20
176.0779113272
 10
310.3308009472
 20
176.0774128464
 10
310.3246722101
 20
176.0768960469
 10
310.3214091096
 20
176.0763609287
  0
LINE
  5
55B
100
AcDbEntity
  8
0
100
AcDbLine
 62
7
  6
CONTINUOUS
 10
310.4257715653
 20
176.0800623168
 11
310.3839722612
 21
176.0792968573
  0
LINE
  5
55C
100
AcDbEntity
  8
0
100
AcDbLine
 62
7
  6
CONTINUOUS
 10
310.4754296291
 20
176.0806642883
 11
310.4257715653
 21
176.0800623168
  0
LINE
  5
55D
100
AcDbEntity
  8
0
100
AcDbLine
 62
7
  6
CONTINUOUS
 10
310.560417861
 20
176.0812154194
 11
310.4754296291
 21
176.0806642883
  0
LINE
  5
55E
100
AcDbEntity
  8
0
100
AcDbLine
 62
7
  6
CONTINUOUS
 10
329.9069949696
 20
176.0612662323
 11
326.091541582
 21
176.0612662323
  0
LINE
  5
55F
100
AcDbEntity
  8
0
100
AcDbLine
 62
7
  6
CONTINUOUS
 10
314.091541582
 20
176.0612662323
 11
310.2760881944
 21
176.0612662323
  0
LINE
  5
560
100
AcDbEntity
  8
0
100
AcDbLine
 62
7
  6
CONTINUOUS
 10
310.560417861
 20
176.0812154194
 11
314.1115988916
 21
176.0813235418
  0
LINE
  5
561
100
AcDbEntity
  8
0
100
AcDbLine
 62
7
  6
CONTINUOUS
 10
316.973065582
 20
176.3427722323
 11
317.322545582
 21
176.3427722323
  0
LINE
  5
562
100
AcDbEntity
  8
0
100
AcDbLine
 62
7
  6
CONTINUOUS
 10
318.080400582
 20
176.3427722323
 11
318.476972582
 21
176.3427722323
  0
LINE
  5
563
100
AcDbEntity
  8
0
100
AcDbLine
 62
7
  6
CONTINUOUS
 10
318.690460582
 20
176.3427722323
 11
319.069850582
 21
176.3427722323
  0
LINE
  5
564
100
AcDbEntity
  8
0
100
AcDbLine
 62
7
  6
CONTINUOUS
 10
319.620658582
 20
176.3427722323
 11
319.676277582
 21
176.3427722323
  0
LINE
  5
565
100
AcDbEntity
  8
0
100
AcDbLine
 62
7
  6
CONTINUOUS
 10
320.679504582
 20
176.3427722323
 11
321.071774582
 21
176.3427722323
  0
LINE
  5
566
100
AcDbEntity
  8
0
100
AcDbLine
 62
7
  6
CONTINUOUS
 10
320.229279582
 20
176.3427722323
 11
320.617232582
 21
176.3427722323
  0
LINE
  5
567
100
AcDbEntity
  8
0
100
AcDbLine
 62
7
  6
CONTINUOUS
 10
321.824002582
 20
176.3427722323
 11
322.241973582
 21
176.3427722323
  0
LINE
  5
568
100
AcDbEntity
  8
0
100
AcDbLine
 62
7
  6
CONTINUOUS
 10
322.3584261848
 20
176.3427724863
 11
322.7534028269
 21
176.3427724863
  0
LINE
  5
569
100
AcDbEntity
  8
0
100
AcDbLine
 62
7
  6
CONTINUOUS
 10
323.3606986473
 20
176.3427724863
 11
323.7421551325
 21
176.3427724863
  0
LINE
  5
56A
100
AcDbEntity
  8
0
100
AcDbLine
 62
7
  6
CONTINUOUS
 10
321.181203582
 20
176.7220492323
 11
321.721269582
 21
176.7220492323
  0
LINE
  5
56B
100
AcDbEntity
  8
0
100
AcDbLine
 62
7
  6
CONTINUOUS
 10
321.642014582
 20
177.0155322323
 11
321.262324582
 21
177.0155322323
  0
LINE
  5
56C
100
AcDbEntity
  8
0
100
AcDbLine
 62
7
  6
CONTINUOUS
 10
329.6226652718
 20
176.0812154213
 11
326.0714842725
 21
176.0813235418
  0
LINE
  5
56D
100
AcDbEntity
  8
0
100
AcDbLine
 62
7
  6
CONTINUOUS
 10
329.7076535771
 20
176.0806642903
 11
329.6226652718
 21
176.0812154213
  0
LINE
  5
56E
100
AcDbEntity
  8
0
100
AcDbLine
 62
7
  6
CONTINUOUS
 10
329.7573116394
 20
176.0800623184
 11
329.7076535771
 21
176.0806642903
  0
LINE
  5
56F
100
AcDbEntity
  8
0
100
AcDbLine
 62
250
  6
CONTINUOUS
 10
330.2289743225
 20
141.5703409134
 11
330.1889910443
 21
141.5505601244
  0
LINE
  5
570
100
AcDbEntity
  8
0
100
AcDbLine
 62
250
  6
CONTINUOUS
 10
330.1889910443
 20
141.5505601244
 11
330.1137872424
 21
141.5140388957
  0
LWPOLYLINE
  5
571
100
AcDbEntity
  8
0
100
AcDbPolyline
 62
250
  6
CONTINUOUS
 90
15
 70
0
 10
330.1137872424
 20
141.5140388957
 10
330.0460686257
 20
141.4814884151
 10
330.0151714135
 20
141.466857926
 10
329.9863638288
 20
141.4534391008
 10
329.9595842453
 20
141.441158302
 10
329.9345569292
 20
141.4299191931
 10
329.9114218496
 20
141.4197531402
 10
329.8900149833
 20
141.4106287771
 10
329.8697084372
 20
141.4023556692
 10
329.850661512
 20
141.394839882
 10
329.832826454
 20
141.3881753499
 10
329.8155271691
 20
141.382453441
 10
329.7987876062
 20
141.3777046115
 10
329.7831405346
 20
141.3738984051
 10
329.7688719023
 20
141.371034822
  0
LWPOLYLINE
  5
572
100
AcDbEntity
  8
0
100
AcDbPolyline
 62
7
  6
CONTINUOUS
 90
10
 70
0
 10
322.7402530852
 20
177.9189606555
 10
322.7751898483
 20
177.9247759449
 10
322.8100114653
 20
177.9294538789
 10
322.8447179362
 20
177.9329944589
 10
322.879295076
 20
177.9354053902
 10
322.9137570697
 20
177.9366789691
 10
322.9481464727
 20
177.9367920825
 10
322.98247747
 20
177.9357370262
 10
323.0167358766
 20
177.9335215042
 10
323.0509216924
 20
177.9301455159
  0
LINE
  5
573
100
AcDbEntity
  8
0
100
AcDbLine
 62
7
  6
CONTINUOUS
 10
322.7534028269
 20
177.0862671488
 11
322.9660354335
 21
177.0862671488
  0
LINE
  5
574
100
AcDbEntity
  8
0
100
AcDbLine
 62
7
  6
CONTINUOUS
 10
322.9668902379
 20
177.397415968
 11
322.7402530852
 21
177.397415968
  0
LINE
  5
575
100
AcDbEntity
  8
0
100
AcDbLine
 62
7
  6
CONTINUOUS
 10
321.659053582
 20
178.2426182323
 11
321.275417582
 21
178.2426182323
  0
LINE
  5
576
100
AcDbEntity
  8
0
100
AcDbLine
 62
7
  6
CONTINUOUS
 10
320.439575582
 20
178.2426182323
 11
320.047205582
 21
178.2426182323
  0
LINE
  5
577
100
AcDbEntity
  8
0
100
AcDbLine
 62
7
  6
CONTINUOUS
 10
319.258249582
 20
178.2426182323
 11
318.862005582
 21
178.2426182323
  0
LINE
  5
578
100
AcDbEntity
  8
0
100
AcDbLine
 62
7
  6
CONTINUOUS
 10
317.933231582
 20
178.2426182323
 11
317.536930582
 21
178.2426182323
  0
LINE
  5
579
100
AcDbEntity
  8
0
100
AcDbLine
 62
7
  6
CONTINUOUS
 10
316.801577582
 20
178.2426182323
 11
316.370777582
 21
178.2426182323
  0
LINE
  5
57A
100
AcDbEntity
  8
0
100
AcDbLine
 62
7
  6
CONTINUOUS
 10
318.476972582
 20
178.2427322323
 11
318.080400582
 21
178.2427322323
  0
LWPOLYLINE
  5
57B
100
AcDbEntity
  8
0
100
AcDbPolyline
 62
7
  6
CONTINUOUS
 90
13
 70
0
 10
322.9660354335
 20
177.0862671488
 10
322.9904315749
 20
177.0850310133
 10
323.0138044705
 20
177.0814683149
 10
323.0361541201
 20
177.0755790516
 10
323.0575145903
 20
177.0673457469
 10
323.0778518146
 20
177.0567858701
 10
323.0970635938
 20
177.0439518363
 10
323.1151639378
 20
177.0288680634
 10
323.1321388368
 20
177.0115101195
 10
323.1478440615
 20
176.9918571439
 10
323.1622315356
 20
176.9699021761
 10
323.1753493356
 20
176.9456521556
 10
323.1871974614
 20
176.9191070704
  0
LWPOLYLINE
  5
57C
100
AcDbEntity
  8
0
100
AcDbPolyline
 62
7
  6
CONTINUOUS
 90
25
 70
0
 10
323.0509216924
 20
177.9301455159
 10
323.066309665
 20
177.9278970979
 10
323.0814032642
 20
177.9248620891
 10
323.0962024901
 20
177.9210404889
 10
323.1107491555
 20
177.9164214751
 10
323.1250014476
 20
177.9110158683
 10
323.1388339278
 20
177.9048561324
 10
323.1522648538
 20
177.8979399282
 10
323.1652759679
 20
177.8902695926
 10
323.1776870581
 20
177.8818846037
 10
323.1894884176
 20
177.8727677665
 10
323.2006897532
 20
177.8629362731
 10
323.2111399738
 20
177.852481182
 10
323.2207971054
 20
177.8413771562
 10
323.229703122
 20
177.8296495296
 10
323.2378328538
 20
177.8174653682
 10
323.2451842092
 20
177.804832492
 10
323.2517592799
 20
177.7917430784
 10
323.2575391713
 20
177.7783407296
 10
323.2625373796
 20
177.7646359416
 10
323.2667404086
 20
177.7506182167
 10
323.2700888749
 20
177.7363996671
 10
323.2725629841
 20
177.7220176634
 10
323.2741825306
 20
177.7074348338
 10
323.2749475144
 20
177.6926511778
  0
LWPOLYLINE
  5
57D
100
AcDbEntity
  8
0
100
AcDbPolyline
 62
7
  6
CONTINUOUS
 90
8
 70
0
 10
329.8616740545
 20
176.0763609287
 10
329.8584109663
 20
176.0768960471
 10
329.8522822395
 20
176.0774128468
 10
329.8432878739
 20
176.0779113278
 10
329.8312691191
 20
176.0783963868
 10
329.8163847256
 20
176.0788631272
 10
329.7991109446
 20
176.0792968585
 10
329.7573116394
 20
176.0800623184
  0
LWPOLYLINE
  5
57E
100
AcDbEntity
  8
0
100
AcDbPolyline
 62
7
  6
CONTINUOUS
 90
13
 70
0
 10
323.3371060446
 20
178.2004192669
 10
323.2713179707
 20
178.220874297
 10
323.2023980786
 20
178.2376832186
 10
323.1303463683
 20
178.250846046
 10
323.0549785218
 20
178.2602717023
 10
322.976478857
 20
178.266051284
 10
322.8954003277
 20
178.2684580607
 10
322.8118329079
 20
178.2672940337
 10
322.7256866236
 20
178.2627572026
 10
322.6372445061
 20
178.2557148307
 10
322.5466008989
 20
178.2464560032
 10
322.4536614585
 20
178.2346916256
 10
322.3584261848
 20
178.220421691
  0
LINE
  5
57F
100
AcDbEntity
  8
0
100
AcDbLine
 62
7
  6
CONTINUOUS
 10
329.8616740545
 20
176.0763609287
 11
329.9069949696
 21
176.0612662323
  0
LWPOLYLINE
  5
580
100
AcDbEntity
  8
0
100
AcDbPolyline
 62
7
  6
CONTINUOUS
 90
16
 70
0
 10
329.8627482323
 20
140.8663970281
 10
329.8582796675
 20
140.8641819477
 10
329.8511080529
 20
140.8629268505
 10
329.8413098405
 20
140.8629195169
 10
329.8286113329
 20
140.8646888899
 10
329.813669227
 20
140.8686531022
 10
329.7979727001
 20
140.8747857665
 10
329.7821469302
 20
140.8831831196
 10
329.766197271
 20
140.8942433453
 10
329.750648039
 20
140.9080506477
 10
329.7358257109
 20
140.9249624862
 10
329.7225075041
 20
140.9448723924
 10
329.7116738454
 20
140.9668356136
 10
329.7037198032
 20
140.9902572759
 10
329.6987718494
 20
141.0150998992
 10
329.6970736712
 20
141.0409884456
  0
LINE
  5
581
100
AcDbEntity
  8
0
100
AcDbLine
 62
7
  6
CONTINUOUS
 10
310.231541582
 20
179.6112662323
 11
329.951541582
 21
179.6112662323
  0
LINE
  5
582
100
AcDbEntity
  8
0
100
AcDbLine
 62
250
  6
CONTINUOUS
 10
309.5110109346
 20
180.20111132
 11
309.2291031484
 21
180.20111132
  0
LINE
  5
583
100
AcDbEntity
  8
0
100
AcDbLine
 62
250
  6
CONTINUOUS
 10
330.6720722295
 20
180.20111132
 11
330.9539800157
 21
180.20111132
  0
LWPOLYLINE
  5
584
100
AcDbEntity
  8
0
100
AcDbPolyline
 62
250
  6
CONTINUOUS
 90
37
 70
0
 10
309.6989494588
 20
180.6709576304
 10
309.6673554967
 20
180.6678139467
 10
309.6369359495
 20
180.6628580416
 10
309.6077869082
 20
180.6562817308
 10
309.5800231593
 20
180.6482768222
 10
309.5536607431
 20
180.6390254386
 10
309.5286234844
 20
180.6286817925
 10
309.5049349395
 20
180.6173981324
 10
309.4826157916
 20
180.6053234727
 10
309.4615755165
 20
180.5925710831
 10
309.4417986876
 20
180.5792540829
 10
309.4232910913
 20
180.5654967596
 10
309.4059886897
 20
180.5514045989
 10
309.3898770652
 20
180.5370840139
 10
309.3749217756
 20
180.5226197629
 10
309.3610278276
 20
180.5080659277
 10
309.3481797465
 20
180.4935175043
 10
309.3363268936
 20
180.4790231155
 10
309.3253328832
 20
180.4645445357
 10
309.315170853
 20
180.4501372097
 10
309.3058101664
 20
180.4358419567
 10
309.2971295634
 20
180.4215764005
 10
309.2891075282
 20
180.4073747064
 10
309.2817244676
 20
180.3932656645
 10
309.2748849335
 20
180.3791420815
 10
309.2685769791
 20
180.365026322
 10
309.2627906971
 20
180.3509373996
 10
309.2574571774
 20
180.3367512681
 10
309.2525750301
 20
180.3224830685
 10
309.2481448489
 20
180.3081463232
 10
309.2441247862
 20
180.2936067463
 10
309.2405248989
 20
180.2788761724
 10
309.2373573136
 20
180.2639660366
 10
309.2346084353
 20
180.2487372234
 10
309.232295552
 20
180.2331509046
 10
309.2304523807
 20
180.2172707075
 10
309.2291031484
 20
180.20111132
  0
LWPOLYLINE
  5
585
100
AcDbEntity
  8
0
100
AcDbPolyline
 62
250
  6
CONTINUOUS
 90
37
 70
0
 10
309.6989494588
 20
180.3890498442
 10
309.6854487059
 20
180.3884798734
 10
309.6725608132
 20
180.3872559533
 10
309.6602857806
 20
180.3853780838
 10
309.6486264302
 20
180.3827763497
 10
309.6375799399
 20
180.3795206662
 10
309.6271378441
 20
180.3758207794
 10
309.617311412
 20
180.3716910143
 10
309.6080893743
 20
180.3671170458
 10
309.5994294581
 20
180.3622656449
 10
309.5913338977
 20
180.3571457315
 10
309.5838004587
 20
180.3517483855
 10
309.5767801647
 20
180.3462136177
 10
309.5702804056
 20
180.3405550579
 10
309.5642937914
 20
180.3347590762
 10
309.5587491762
 20
180.3289247931
 10
309.5536518029
 20
180.3230716725
 10
309.5489964287
 20
180.3171802505
 10
309.5446961782
 20
180.311291255
 10
309.5407464149
 20
180.3054169383
 10
309.5371517753
 20
180.2995450482
 10
309.5338392944
 20
180.2936795553
 10
309.5308022591
 20
180.2878283538
 10
309.5280473823
 20
180.2819835496
 10
309.5255218375
 20
180.276125431
 10
309.5232186264
 20
180.2702593168
 10
309.5211447471
 20
180.264379888
 10
309.5192683671
 20
180.2584514764
 10
309.5175822706
 20
180.252477323
 10
309.5160936734
 20
180.2464541868
 10
309.5147923906
 20
180.2403366759
 10
309.5136708416
 20
180.2341262389
 10
309.5127366069
 20
180.2278214274
 10
309.5120022432
 20
180.2213725035
 10
309.511471936
 20
180.214762888
 10
309.5111414998
 20
180.2080091602
 10
309.5110109346
 20
180.20111132
  0
LINE
  5
586
100
AcDbEntity
  8
0
100
AcDbLine
 62
250
  6
CONTINUOUS
 10
330.4841337053
 20
180.3890498442
 11
309.6989494588
 21
180.3890498442
  0
LINE
  5
587
100
AcDbEntity
  8
0
100
AcDbLine
 62
250
  6
CONTINUOUS
 10
330.4841337053
 20
180.6709576304
 11
309.6989494588
 21
180.6709576304
  0
LINE
  5
588
100
AcDbEntity
  8
0
100
AcDbLine
 62
7
  6
CONTINUOUS
 10
309.5888098664
 20
180.7810972228
 11
330.5942732977
 21
180.7810972228
  0
LINE
  5
589
100
AcDbEntity
  8
0
100
AcDbLine
 62
7
  6
CONTINUOUS
 10
309.5685829563
 20
180.8310972228
 11
330.6145002078
 21
180.8310972228
  0
CIRCLE
  5
58A
100
AcDbEntity
  8
ASSI
100
AcDbCircle
 62
7
  6
CONTINUOUS
 10
316.341541582
 20
152.2612662323
 40
0.5
  0
CIRCLE
  5
58B
100
AcDbEntity
  8
ASSI
100
AcDbCircle
 62
7
  6
CONTINUOUS
 10
316.341541582
 20
165.2612662323
 40
0.5
  0
CIRCLE
  5
58C
100
AcDbEntity
  8
ASSI
100
AcDbCircle
 62
7
  6
CONTINUOUS
 10
323.841541582
 20
152.2612662323
 40
0.5
  0
CIRCLE
  5
58D
100
AcDbEntity
  8
ASSI
100
AcDbCircle
 62
7
  6
CONTINUOUS
 10
323.841541582
 20
165.2612662323
 40
0.5
  0
ELLIPSE
  5
58E
100
AcDbEntity
  8
0
100
AcDbEllipse
 62
7
  6
CONTINUOUS
 10
355.9615224402
 20
158.7612662323
 30
0.0
 11
0.0
 21
497.9
 31
0.0
 40
0.0524077793
 41
1.5537237963
 42
1.5878688573
  0
ELLIPSE
  5
58F
100
AcDbEntity
  8
0
100
AcDbEllipse
 62
7
  6
CONTINUOUS
 10
284.2215607239
 20
158.7612662323
 30
0.0
 11
0.0
 21
497.9
 31
0.0
 40
0.0524077793
 41
-1.5878688573
 42
-1.5537237963
  0
ELLIPSE
  5
590
100
AcDbEntity
  8
0
100
AcDbEllipse
 62
7
  6
CONTINUOUS
 10
309.56903972
 20
137.1921214148
 30
0.0
 11
0.1582391023
 21
0.4751033573
 31
0.0
 40
0.9984778551
 41
-4.3904252414
 42
-2.8205423031
  0
ELLIPSE
  5
591
100
AcDbEntity
  8
0
100
AcDbEllipse
 62
7
  6
CONTINUOUS
 10
309.56903972
 20
180.3304110498
 30
0.0
 11
-0.1582391023
 21
0.4751033573
 31
0.0
 40
0.9984778551
 41
-0.3210503505
 42
1.2488325878
  0
ELLIPSE
  5
592
100
AcDbEntity
  8
0
100
AcDbEllipse
 62
7
  6
CONTINUOUS
 10
330.614043444
 20
180.3304110498
 30
0.0
 11
0.1582391023
 21
0.4751033573
 31
0.0
 40
0.9984778551
 41
-1.2488325878
 42
0.3210503505
  0
ELLIPSE
  5
593
100
AcDbEntity
  8
0
100
AcDbEllipse
 62
7
  6
CONTINUOUS
 10
330.614043444
 20
137.1921214148
 30
0.0
 11
-0.1582391023
 21
0.4751033573
 31
0.0
 40
0.9984778551
 41
-3.4626430041
 42
-1.8927600658
  0
ELLIPSE
  5
594
100
AcDbEntity
  8
0
100
AcDbEllipse
 62
7
  6
CONTINUOUS
 10
314.7424423177
 20
168.6653409175
 30
0.0
 11
0.1086702276
 21
0.1692379683
 31
0.0
 40
0.9857548738
 41
-2.5633246127
 42
-0.9934416744
  0
ELLIPSE
  5
595
100
AcDbEntity
  8
0
100
AcDbEllipse
 62
7
  6
CONTINUOUS
 10
314.7922171338
 20
171.1317283652
 30
0.0
 11
-0.063479388
 21
0.157215491
 31
0.0
 40
0.8597101312
 41
-2.0098802682
 42
-0.446459714
  0
ELLIPSE
  5
596
100
AcDbEntity
  8
0
100
AcDbEllipse
 62
7
  6
CONTINUOUS
 10
314.5433733772
 20
171.859986997
 30
0.0
 11
0.1086702276
 21
-0.1692379683
 31
0.0
 40
0.9857548738
 41
0.9934416744
 42
2.5633246127
  0
ELLIPSE
  5
597
100
AcDbEntity
  8
0
100
AcDbEllipse
 62
7
  6
CONTINUOUS
 10
325.6397097869
 20
171.859986997
 30
0.0
 11
0.1086702276
 21
0.1692379683
 31
0.0
 40
0.9857548738
 41
0.5782680409
 42
2.1481509792
  0
ELLIPSE
  5
598
100
AcDbEntity
  8
0
100
AcDbEllipse
 62
7
  6
CONTINUOUS
 10
325.3908660303
 20
171.1317283652
 30
0.0
 11
0.063479388
 21
0.157215491
 31
0.0
 40
0.8597101312
 41
0.446459714
 42
2.0098802682
  0
ELLIPSE
  5
599
100
AcDbEntity
  8
0
100
AcDbEllipse
 62
7
  6
CONTINUOUS
 10
325.4406408463
 20
168.6653409175
 30
0.0
 11
0.1086702276
 21
-0.1692379683
 31
0.0
 40
0.9857548738
 41
-2.1481509792
 42
-0.5782680409
  0
ELLIPSE
  5
59A
100
AcDbEntity
  8
0
100
AcDbEllipse
 62
7
  6
CONTINUOUS
 10
314.5433733772
 20
145.6625454675
 30
0.0
 11
0.1086702276
 21
0.1692379683
 31
0.0
 40
0.9857548738
 41
-2.5633246127
 42
-0.9934416744
  0
ELLIPSE
  5
59B
100
AcDbEntity
  8
0
100
AcDbEllipse
 62
7
  6
CONTINUOUS
 10
314.7922171338
 20
146.3908040994
 30
0.0
 11
0.063479388
 21
0.157215491
 31
0.0
 40
0.8597101312
 41
-2.6951329396
 42
-1.1317123854
  0
ELLIPSE
  5
59C
100
AcDbEntity
  8
0
100
AcDbEllipse
 62
7
  6
CONTINUOUS
 10
314.7424423177
 20
148.8571915471
 30
0.0
 11
0.1086702276
 21
-0.1692379683
 31
0.0
 40
0.9857548738
 41
0.9934416744
 42
2.5633246127
  0
ELLIPSE
  5
59D
100
AcDbEntity
  8
0
100
AcDbEllipse
 62
7
  6
CONTINUOUS
 10
325.6397097869
 20
145.6625454675
 30
0.0
 11
0.1086702276
 21
-0.1692379683
 31
0.0
 40
0.9857548738
 41
-2.1481509792
 42
-0.5782680409
  0
ELLIPSE
  5
59E
100
AcDbEntity
  8
0
100
AcDbEllipse
 62
7
  6
CONTINUOUS
 10
325.4406408463
 20
148.8571915471
 30
0.0
 11
0.1086702276
 21
0.1692379683
 31
0.0
 40
0.9857548738
 41
0.5782680409
 42
2.1481509792
  0
ELLIPSE
  5
59F
100
AcDbEntity
  8
0
100
AcDbEllipse
 62
7
  6
CONTINUOUS
 10
325.3908660303
 20
146.3908040994
 30
0.0
 11
-0.063479388
 21
0.157215491
 31
0.0
 40
0.8597101312
 41
1.1317123854
 42
2.6951329396
  0
ELLIPSE
  5
5A0
100
AcDbEntity
  8
0
100
AcDbEllipse
 62
7
  6
CONTINUOUS
 10
339.671786922
 20
158.7612662323
 30
0.0
 11
-0.0
 21
498.6
 31
0.0
 40
0.0524077793
 41
-4.6914821067
 42
-4.6858140592
  0
ELLIPSE
  5
5A1
100
AcDbEntity
  8
0
100
AcDbEllipse
 62
7
  6
CONTINUOUS
 10
309.6510524422
 20
137.273524128
 30
0.0
 11
0.3976412741
 21
0.3976412741
 31
0.0
 40
0.8891264907
 41
-3.8683677079
 42
-2.4148175993
  0
ELLIPSE
  5
5A2
100
AcDbEntity
  8
0
100
AcDbEllipse
 62
7
  6
CONTINUOUS
 10
330.5320307218
 20
137.273524128
 30
0.0
 11
0.3976412741
 21
-0.3976412741
 31
0.0
 40
0.8891264907
 41
-0.7267750543
 42
0.7267750543
  0
ELLIPSE
  5
5A3
100
AcDbEntity
  8
0
100
AcDbEllipse
 62
7
  6
CONTINUOUS
 10
330.5320307218
 20
180.2490083366
 30
0.0
 11
0.3976412741
 21
0.3976412741
 31
0.0
 40
0.8891264907
 41
-0.7267750543
 42
0.7267750543
  0
ELLIPSE
  5
5A4
100
AcDbEntity
  8
0
100
AcDbEllipse
 62
7
  6
CONTINUOUS
 10
309.6510524422
 20
180.2490083366
 30
0.0
 11
-0.3976412741
 21
0.3976412741
 31
0.0
 40
0.8891264907
 41
-0.7267750543
 42
0.7267750543
  0
ELLIPSE
  5
5A5
100
AcDbEntity
  8
0
100
AcDbEllipse
 62
7
  6
CONTINUOUS
 10
330.6720722295
 20
145.0375128313
 30
0.0
 11
0.3
 21
0.0
 31
0.0
 40
0.0874886635
 41
-1.5707963268
 42
-1.4296011956
  0
ELLIPSE
  5
5A6
100
AcDbEntity
  8
0
100
AcDbEllipse
 62
7
  6
CONTINUOUS
 10
330.6720722295
 20
140.9850196332
 30
0.0
 11
0.3
 21
0.0
 31
0.0
 40
0.0874886635
 41
1.4296011956
 42
1.5707963268
  0
ELLIPSE
  5
5A7
100
AcDbEntity
  8
0
100
AcDbEllipse
 62
7
  6
CONTINUOUS
 10
339.671786922
 20
158.7612662323
 30
0.0
 11
-0.0
 21
498.6
 31
0.0
 40
0.0524077793
 41
1.5442214056
 42
1.5498894531
  0
ELLIPSE
  5
5A8
100
AcDbEntity
  8
0
100
AcDbEllipse
 62
7
  6
CONTINUOUS
 10
326.3838919662
 20
148.9609917631
 30
0.0
 11
0.1418092487
 21
0.1418092487
 31
0.0
 40
0.9972646886
 41
-0.7840286355
 42
0.7840286355
  0
ELLIPSE
  5
5A9
100
AcDbEntity
  8
0
100
AcDbEllipse
 62
7
  6
CONTINUOUS
 10
313.7991911979
 20
148.9609917631
 30
0.0
 11
0.1418092487
 21
-0.1418092487
 31
0.0
 40
0.9972646886
 41
2.3575640181
 42
3.9256212891
  0
ELLIPSE
  5
5AA
100
AcDbEntity
  8
0
100
AcDbEllipse
 62
7
  6
CONTINUOUS
 10
326.3838919662
 20
168.5615407015
 30
0.0
 11
0.1418092487
 21
-0.1418092487
 31
0.0
 40
0.9972646886
 41
-0.7840286355
 42
0.7840286355
  0
ELLIPSE
  5
5AB
100
AcDbEntity
  8
0
100
AcDbEllipse
 62
7
  6
CONTINUOUS
 10
313.7991911979
 20
168.5615407015
 30
0.0
 11
0.1418092487
 21
0.1418092487
 31
0.0
 40
0.9972646886
 41
2.3575640181
 42
3.9256212891
  0
ELLIPSE
  5
5AC
100
AcDbEntity
  8
0
100
AcDbEllipse
 62
7
  6
CONTINUOUS
 10
305.413756053
 20
158.7612662323
 30
0.0
 11
0.0
 21
498.6
 31
0.0
 40
0.0174550649
 41
-1.5377388721
 42
-1.5360519575
  0
ELLIPSE
  5
5AD
100
AcDbEntity
  8
0
100
AcDbEllipse
 62
7
  6
CONTINUOUS
 10
334.7693271111
 20
158.7612662323
 30
0.0
 11
-0.0
 21
498.6
 31
0.0
 40
0.0174550649
 41
1.5360519575
 42
1.5377388721
  0
ELLIPSE
  5
5AE
100
AcDbEntity
  8
0
100
AcDbEllipse
 62
7
  6
CONTINUOUS
 10
300.511296242
 20
158.7612662323
 30
0.0
 11
0.0
 21
498.6
 31
0.0
 40
0.0524077793
 41
-1.5498894531
 42
-1.5442214056
  0
ELLIPSE
  5
5AF
100
AcDbEntity
  8
0
100
AcDbEllipse
 62
7
  6
CONTINUOUS
 10
300.511296242
 20
158.7612662323
 30
0.0
 11
0.0
 21
498.6
 31
0.0
 40
0.0524077793
 41
-1.597371248
 42
-1.5917032005
  0
ELLIPSE
  5
5B0
100
AcDbEntity
  8
0
100
AcDbEllipse
 62
7
  6
CONTINUOUS
 10
314.1095220036
 20
171.2477892955
 30
0.0
 11
0.4
 21
0.0
 31
0.0
 40
0.4663076582
 41
-2.2042389752
 42
-1.5707963268
  0
ELLIPSE
  5
5B1
100
AcDbEntity
  8
0
100
AcDbEllipse
 62
7
  6
CONTINUOUS
 10
326.0735611605
 20
171.2477892955
 30
0.0
 11
0.4
 21
-0.0
 31
0.0
 40
0.4663076582
 41
-1.5707963268
 42
-0.9373536784
  0
ELLIPSE
  5
5B2
100
AcDbEntity
  8
0
100
AcDbEllipse
 62
7
  6
CONTINUOUS
 10
314.5403544069
 20
171.2476762435
 30
0.0
 11
0.2
 21
0.0
 31
0.0
 40
0.4663076582
 41
-0.7727094034
 42
-0.0174532925
  0
ELLIPSE
  5
5B3
100
AcDbEntity
  8
0
100
AcDbEllipse
 62
7
  6
CONTINUOUS
 10
314.3456029468
 20
171.1545277639
 30
0.0
 11
0.2
 21
0.0
 31
0.0
 40
0.4663076582
 41
-1.5707963268
 42
-0.7727094034
  0
ELLIPSE
  5
5B4
100
AcDbEntity
  8
0
100
AcDbEllipse
 62
7
  6
CONTINUOUS
 10
325.6427287572
 20
171.2476762435
 30
0.0
 11
0.2
 21
0.0
 31
0.0
 40
0.4663076582
 41
-3.1241393611
 42
-2.3688832501
  0
ELLIPSE
  5
5B5
100
AcDbEntity
  8
0
100
AcDbEllipse
 62
7
  6
CONTINUOUS
 10
325.8374802173
 20
171.1545277639
 30
0.0
 11
0.2
 21
-0.0
 31
0.0
 40
0.4663076582
 41
-2.3688832501
 42
-1.5707963268
  0
ELLIPSE
  5
5B6
100
AcDbEntity
  8
0
100
AcDbEllipse
 62
7
  6
CONTINUOUS
 10
326.0735611605
 20
146.274743169
 30
0.0
 11
0.4
 21
-0.0
 31
0.0
 40
0.4663076582
 41
0.9373536784
 42
1.5707963268
  0
ELLIPSE
  5
5B7
100
AcDbEntity
  8
0
100
AcDbEllipse
 62
7
  6
CONTINUOUS
 10
314.1095220036
 20
146.274743169
 30
0.0
 11
0.4
 21
0.0
 31
0.0
 40
0.4663076582
 41
1.5707963268
 42
2.2042389752
  0
ELLIPSE
  5
5B8
100
AcDbEntity
  8
0
100
AcDbEllipse
 62
7
  6
CONTINUOUS
 10
314.3456029468
 20
146.3680047007
 30
0.0
 11
0.2
 21
-0.0
 31
0.0
 40
0.4663076582
 41
0.7727094034
 42
1.5707963268
  0
ELLIPSE
  5
5B9
100
AcDbEntity
  8
0
100
AcDbEllipse
 62
7
  6
CONTINUOUS
 10
314.5403544069
 20
146.2748562211
 30
0.0
 11
0.2
 21
0.0
 31
0.0
 40
0.4663076582
 41
0.0174532925
 42
0.7727094034
  0
ELLIPSE
  5
5BA
100
AcDbEntity
  8
0
100
AcDbEllipse
 62
7
  6
CONTINUOUS
 10
325.6427287572
 20
146.2748562211
 30
0.0
 11
0.2
 21
0.0
 31
0.0
 40
0.4663076582
 41
2.3688832501
 42
3.1241393611
  0
ELLIPSE
  5
5BB
100
AcDbEntity
  8
0
100
AcDbEllipse
 62
7
  6
CONTINUOUS
 10
325.8374802173
 20
146.3680047007
 30
0.0
 11
0.2
 21
0.0
 31
0.0
 40
0.4663076582
 41
1.5707963268
 42
2.3688832501
  0
ELLIPSE
  5
5BC
100
AcDbEntity
  8
0
100
AcDbEllipse
 62
7
  6
CONTINUOUS
 10
334.7693271111
 20
158.7612662323
 30
0.0
 11
-0.0
 21
498.6
 31
0.0
 40
0.0174550649
 41
-4.6793315257
 42
-4.6776446111
  0
ELLIPSE
  5
5BD
100
AcDbEntity
  8
0
100
AcDbEllipse
 62
7
  6
CONTINUOUS
 10
305.413756053
 20
158.7612662323
 30
0.0
 11
0.0
 21
498.6
 31
0.0
 40
0.0174550649
 41
-1.6055406961
 42
-1.6038537815
  0
ENDSEC
  0
SECTION
  2
OBJECTS
  0
DICTIONARY
  5
C
100
AcDbDictionary
280
0
281
1
  3
ACAD_GROUP
350
D
  3
ACAD_MLINESTYLE
350
17
  3
ACAD_LAYOUT
350
1A
  3
ACAD_PLOTSETTINGS
350
19
  3
ACAD_PLOTSTYLENAME
350
E
  0
DICTIONARY
  5
D
102
{ACAD_REACTORS
330
C
102
}
100
AcDbDictionary
280
0
281
1
  0
ACDBDICTIONARYWDFLT
  5
E
102
{ACAD_REACTORS
330
C
102
}
100
AcDbDictionary
281
1
  3
Normal
350
F
100
AcDbDictionaryWithDefault
340
F
  0
DICTIONARY
  5
17
102
{ACAD_REACTORS
330
C
102
}
100
AcDbDictionary
280
0
281
1
  3
Standard
350
18
  0
DICTIONARY
  5
19
102
{ACAD_REACTORS
330
C
102
}
100
AcDbDictionary
281
1
  0
DICTIONARY
  5
1A
102
{ACAD_REACTORS
330
C
102
}
100
AcDbDictionary
281
1
  3
Model
350
5BE
  3
Layout1
350
5BF
  0
ACDBPLACEHOLDER
  5
F
102
{ACAD_REACTORS
330
E
102
}
  0
MLINESTYLE
  5
18
102
{ACAD_REACTORS
330
17
102
}
100
AcDbMlineStyle
  2
STANDARD
 70
0
  3

 62
256
 51
90.0
 52
90.0
 71
2
 49
0.5
 62
256
  6
BYLAYER
 49
-0.5
 62
256
  6
BYLAYER
  0
LAYOUT
  5
5BE
102
{ACAD_REACTORS
330
1A
102
}
100
AcDbPlotSettings
  1

  2
none_device
  4
ANSI_C_(22.00_x_17.00_Inches)
  6

 40
0.0
 41
0.0
 42
0.0
 43
0.0
 44
558.8
 45
431.8
 46
0.0
 47
0.0
 48
0.0
 49
0.0
140
0.0
141
0.0
142
1.0
143
1.0
 70
1024
 72
1
 73
0
 74
0
  7

 75
0
147
1.0
148
0.0
149
0.0
100
AcDbLayout
  1
Model
 70
0
 71
0
 10
0.0
 20
0.0
 11
558.8
 21
431.8
 12
0.0
 22
0.0
 32
0.0
 14
0.0
 24
0.0
 34
0.0
 15
0.0
 25
0.0
 35
0.0
146
0.0
 13
0.0
 23
0.0
 33
0.0
 16
1.0
 26
0.0
 36
0.0
 17
0.0
 27
1.0
 37
0.0
 76
0
330
214
345
0
346
0
  0
LAYOUT
  5
5BF
102
{ACAD_REACTORS
330
1A
102
}
100
AcDbPlotSettings
  1

  2
none_device
  4
ANSI_C_(22.00_x_17.00_Inches)
  6

 40
0.0
 41
0.0
 42
0.0
 43
0.0
 44
558.8
 45
431.8
 46
0.0
 47
0.0
 48
0.0
 49
0.0
140
0.0
141
0.0
142
1.0
143
1.0
 70
0
 72
1
 73
0
 74
0
  7

 75
0
147
1.0
148
0.0
149
0.0
100
AcDbLayout
  1
Layout1
 70
0
 71
1
 10
0.0
 20
0.0
 11
558.8
 21
431.8
 12
0.0
 22
0.0
 32
0.0
 14
0.0
 24
0.0
 34
0.0
 15
0.0
 25
0.0
 35
0.0
146
0.0
 13
0.0
 23
0.0
 33
0.0
 16
1.0
 26
0.0
 36
0.0
 17
0.0
 27
1.0
 37
0.0
 76
0
330
215
345
0
346
0
  0
ENDSEC
  0
EOF
