  0
SECTION
  2
HEADER
  9
$ACADVER
  1
AC1024
  9
$DWGCODEPAGE
  3
ANSI_1252
  9
$EXTMAX
 10
558.8
 20
431.8
 30
0.0
  9
$EXTMIN
 10
0.0
 20
0.0
 30
0.0
  9
$LIMMIN
 10
0.0
 20
0.0
  9
$LIMMAX
 10
558.8
 20
431.8
  9
$VIEWCTR
 10
279.4
 20
215.9
  9
$VIEWSIZE
 40
431.8
  9
$CLAYER
  8
0
  9
$LTSCALE
 40
30.734
  9
$CELTYPE
  6
BYLAYER
  9
$DIMSCALE
 40
1.0
  9
$DIMASZ
 40
3.0
  9
$DIMEXO
 40
0.5
  9
$DIMDLI
 40
21.2344
  9
$DIMEXE
 40
1.5
  9
$DIMCEN
 40
5.0292
  9
$DIMLFAC
 40
1.0
  9
$DIMBLK
  1
_FILLED
  9
$DIMALT
 70
0
  9
$DIMALTF
 40
0.0393700787
  9
$DIMTXT
 40
3.0
  9
$DIMTOL
 70
1
  9
$DIMLIM
 70
0
  9
$DIMTFAC
 40
1.0
  9
$DIMTP
 40
0.01
  9
$DIMTM
 40
0.01
  9
$DIMGAP
 40
0.625
  9
$DIMDSEP
 70
44
  9
$AUNITS
 70
0
  9
$PDMODE
 70
3
  9
$PDSIZE
 40
3.0
  9
$HANDSEED
  5
5C0
  9
$TILEMODE
 70
1
  9
$MEASUREMENT
 70
1
  9
$INSUNITS
 70
4
  0
ENDSEC
  0
SECTION
  2
CLASSES
  0
CLASS
  1
ACDBDICTIONARYWDFLT
  2
AcDbDictionaryWithDefault
  3
AutoCAD 2000
 90
0
 91
1
280
0
281
0
  0
CLASS
  1
ACDBPLACEHOLDER
  2
AcDbPlaceHolder
  3
AutoCAD 2000
 90
0
 91
1
280
0
281
0
  0
CLASS
  1
LAYOUT
  2
AcDbLayout
  3
AutoCAD 2000
 90
0
 91
0
280
0
281
0
  0
ENDSEC
  0
SECTION
  2
TABLES
  0
TABLE
  2
VPORT
  5
8
100
AcDbSymbolTable
 70
2
  0
VPORT
  5
1F4
100
AcDbSymbolTableRecord
100
AcDbViewportTableRecord
  2
*ACTIVE
 70
0
 10
0.0
 20
0.0
 11
1.0
 21
1.0
 12
279.4
 22
215.9
 13
0.0
 23
0.0
 14
1.0
 24
1.0
 15
0.0
 25
0.0
 16
0.0
 26
0.0
 36
1.0
 17
0.0
 27
0.0
 37
0.0
 40
431.8
 41
1.2941176471
 42
50.0
 43
0.0
 44
0.0
 50
0.0
 51
0.0
 71
0
 72
100
 73
1
 74
1
 75
0
 76
0
 77
0
 78
0
  0
ENDTAB
  0
TABLE
  2
LTYPE
  5
5
100
AcDbSymbolTable
 70
6
  0
LTYPE
  5
14
100
AcDbSymbolTableRecord
100
AcDbLinetypeTableRecord
  2
BYBLOCK
 70
0
  3

 72
65
 73
0
 40
0.0
  0
LTYPE
  5
15
100
AcDbSymbolTableRecord
100
AcDbLinetypeTableRecord
  2
BYLAYER
 70
0
  3

 72
65
 73
0
 40
0.0
  0
LTYPE
  5
16
100
AcDbSymbolTableRecord
100
AcDbLinetypeTableRecord
  2
CONTINUOUS
 70
64
  3
Solid line
 72
65
 73
0
 40
0.0
  0
LTYPE
  5
1F5
100
AcDbSymbolTableRecord
100
AcDbLinetypeTableRecord
  2
CENTER
 70
64
  3
____ _ ____ _ ____ _ ____ _ ____ _ ____ _ ____
 72
65
 73
4
 40
0.6
 49
0.375
 74
0
 49
-0.075
 74
0
 49
0.075
 74
0
 49
-0.075
 74
0
  0
LTYPE
  5
1F6
100
AcDbSymbolTableRecord
100
AcDbLinetypeTableRecord
  2
HIDDEN
 70
64
  3
- - - - - - - - - - - - - - - - - - - -
 72
65
 73
2
 40
0.2
 49
0.1
 74
0
 49
-0.1
 74
0
  0
LTYPE
  5
1F7
100
AcDbSymbolTableRecord
100
AcDbLinetypeTableRecord
  2
PHANTOM
 70
64
  3
_____ _ _ _____ _ _ _____ _ _ _____
 72
65
 73
6
 40
0.8
 49
0.45
 74
0
 49
-0.05
 74
0
 49
0.1
 74
0
 49
-0.05
 74
0
 49
0.1
 74
0
 49
-0.05
 74
0
  0
LTYPE
  5
1F8
100
AcDbSymbolTableRecord
100
AcDbLinetypeTableRecord
  2
DOT
 70
64
  3
. . . . . . . . . . . . . . . . . . . .
 72
65
 73
2
 40
0.2
 49
0.1
 74
0
 49
-0.1
 74
0
  0
LTYPE
  5
1F9
100
AcDbSymbolTableRecord
100
AcDbLinetypeTableRecord
  2
DASHED
 70
64
  3
- - - - - - - - - - - - - - - - - - - -
 72
65
 73
2
 40
0.2
 49
0.1
 74
0
 49
-0.1
 74
0
  0
ENDTAB
  0
TABLE
  2
LAYER
  5
2
100
AcDbSymbolTable
 70
36
  0
LAYER
  5
10
100
AcDbSymbolTableRecord
100
AcDbLayerTableRecord
  2
0
 70
0
 62
7
  6
CONTINUOUS
370
-3
390
F
  0
LAYER
  5
1FA
100
AcDbSymbolTableRecord
100
AcDbLayerTableRecord
  2
DEFAULT_1
 70
0
 62
7
  6
CENTER
370
-3
390
F
  0
LAYER
  5
1FB
100
AcDbSymbolTableRecord
100
AcDbLayerTableRecord
  2
DEFAULT_2
 70
0
 62
7
  6
HIDDEN
370
-3
390
F
  0
LAYER
  5
1FC
100
AcDbSymbolTableRecord
100
AcDbLayerTableRecord
  2
DEFAULT_3
 70
0
 62
7
  6
PHANTOM
370
-3
390
F
  0
LAYER
  5
1FD
100
AcDbSymbolTableRecord
100
AcDbLayerTableRecord
  2
ASSI
 70
0
 62
7
  6
CONTINUOUS
370
-3
390
F
  0
LAYER
  5
1FE
100
AcDbSymbolTableRecord
100
AcDbLayerTableRecord
  2
COORDINATE
 70
0
 62
7
  6
CONTINUOUS
370
-3
390
F
  0
LAYER
  5
1FF
100
AcDbSymbolTableRecord
100
AcDbLayerTableRecord
  2
COPY_PUBLISH
 70
0
 62
7
  6
CONTINUOUS
370
-3
390
F
  0
LAYER
  5
200
100
AcDbSymbolTableRecord
100
AcDbLayerTableRecord
  2
COSMETIC
 70
0
 62
7
  6
CONTINUOUS
370
-3
390
F
  0
LAYER
  5
201
100
AcDbSymbolTableRecord
100
AcDbLayerTableRecord
  2
COSMETICI
 70
0
 62
7
  6
CONTINUOUS
370
-3
390
F
  0
LAYER
  5
202
100
AcDbSymbolTableRecord
100
AcDbLayerTableRecord
  2
CURVE
 70
0
 62
7
  6
CONTINUOUS
370
-3
390
F
  0
LAYER
  5
203
100
AcDbSymbolTableRecord
100
AcDbLayerTableRecord
  2
DRAFT
 70
0
 62
7
  6
CONTINUOUS
370
-3
390
F
  0
LAYER
  5
204
100
AcDbSymbolTableRecord
100
AcDbLayerTableRecord
  2
IMPORT_IGES
 70
0
 62
7
  6
CONTINUOUS
370
-3
390
F
  0
LAYER
  5
205
100
AcDbSymbolTableRecord
100
AcDbLayerTableRecord
  2
INTFCLR_11
 70
0
 62
7
  6
CONTINUOUS
370
-3
390
F
  0
LAYER
  5
206
100
AcDbSymbolTableRecord
100
AcDbLayerTableRecord
  2
INTF_1
 70
0
 62
7
  6
CONTINUOUS
370
-3
390
F
  0
LAYER
  5
207
100
AcDbSymbolTableRecord
100
AcDbLayerTableRecord
  2
INTF_3
 70
0
 62
7
  6
CONTINUOUS
370
-3
390
F
  0
LAYER
  5
208
100
AcDbSymbolTableRecord
100
AcDbLayerTableRecord
  2
NOTE
 70
0
 62
7
  6
CONTINUOUS
370
-3
390
F
  0
LAYER
  5
209
100
AcDbSymbolTableRecord
100
AcDbLayerTableRecord
  2
PIANI
 70
0
 62
7
  6
CONTINUOUS
370
-3
390
F
  0
LAYER
  5
20A
100
AcDbSymbolTableRecord
100
AcDbLayerTableRecord
  2
PUNTI
 70
0
 62
7
  6
CONTINUOUS
370
-3
390
F
  0
LAYER
  5
20B
100
AcDbSymbolTableRecord
100
AcDbLayerTableRecord
  2
RACCORDO
 70
0
 62
7
  6
CONTINUOUS
370
-3
390
F
  0
LAYER
  5
20C
100
AcDbSymbolTableRecord
100
AcDbLayerTableRecord
  2
SIMBOLI
 70
0
 62
7
  6
CONTINUOUS
370
-3
390
F
  0
LAYER
  5
20D
100
AcDbSymbolTableRecord
100
AcDbLayerTableRecord
  2
SMUSSO
 70
0
 62
7
  6
CONTINUOUS
370
-3
390
F
  0
LAYER
  5
20E
100
AcDbSymbolTableRecord
100
AcDbLayerTableRecord
  2
SNAPLINE
 70
0
 62
7
  6
CONTINUOUS
370
-3
390
F
  0
LAYER
  5
20F
100
AcDbSymbolTableRecord
100
AcDbLayerTableRecord
  2
SUPERFICI
 70
0
 62
7
  6
CONTINUOUS
370
-3
390
F
  0
LAYER
  5
210
100
AcDbSymbolTableRecord
100
AcDbLayerTableRecord
  2
TRASH
 70
0
 62
7
  6
CONTINUOUS
370
-3
390
F
  0
LAYER
  5
211
100
AcDbSymbolTableRecord
100
AcDbLayerTableRecord
  2
___SHELL
 70
0
 62
7
  6
CONTINUOUS
370
-3
390
F
  0
ENDTAB
  0
TABLE
  2
STYLE
  5
3
100
AcDbSymbolTable
 70
1
  0
STYLE
  5
11
100
AcDbSymbolTableRecord
100
AcDbTextStyleTableRecord
  2
STANDARD
 70
0
 40
0.0
 41
0.8
 50
0.0
 71
0
 42
0.2
  3
txt
  4

  0
STYLE
  5
212
100
AcDbSymbolTableRecord
100
AcDbTextStyleTableRecord
  2
TEXTSTYLE_1
 70
0
 40
0.0
 41
0.8
 50
0.0
 71
0
 42
0.2
  3
gdt
  4

  0
ENDTAB
  0
TABLE
  2
VIEW
  5
6
100
AcDbSymbolTable
 70
0
  0
ENDTAB
  0
TABLE
  2
UCS
  5
7
100
AcDbSymbolTable
 70
0
  0
ENDTAB
  0
TABLE
  2
APPID
  5
9
100
AcDbSymbolTable
 70
1
  0
APPID
  5
213
100
AcDbSymbolTableRecord
100
AcDbRegAppTableRecord
  2
ACAD
 70
0
  0
ENDTAB
  0
TABLE
  2
BLOCK_RECORD
  5
1
100
AcDbSymbolTable
 70
0
  0
BLOCK_RECORD
  5
214
100
AcDbSymbolTableRecord
100
AcDbBlockTableRecord
  2
*Model_Space
  0
BLOCK_RECORD
  5
215
100
AcDbSymbolTableRecord
100
AcDbBlockTableRecord
  2
*Paper_Space
  0
BLOCK_RECORD
  5
216
100
AcDbSymbolTableRecord
100
AcDbBlockTableRecord
  2
_FILLED
  0
ENDTAB
  0
TABLE
  2
DIMSTYLE
  5
A
100
AcDbSymbolTable
 70
1
100
AcDbDimStyleTable
 71
0
  0
DIMSTYLE
105
217
100
AcDbSymbolTableRecord
100
AcDbDimStyleTableRecord
  2
STANDARD
 70
0
  3

  4

 40
1.0
 41
3.0
 42
0.5
 43
0.38
 44
1.5
 45
0.0
 46
0.0
 47
0.01
 48
0.01
140
3.0
141
0.09
142
0.0
143
25.4
144
1.0
145
0.0
146
1.0
147
0.625
 71
1
 72
0
 73
0
 74
0
 75
0
 76
0
 77
1
 78
8
 79
2
170
0
171
1
172
0
173
0
174
0
175
0
176
0
177
0
178
0
270
2
179
2
271
2
272
2
273
2
274
2
275
0
280
0
281
0
282
0
283
1
284
8
285
0
286
0
287
3
288
0
340
11
278
44
341
216
342
216
343
216
344
216
  0
ENDTAB
  0
ENDSEC
  0
SECTION
  2
BLOCKS
  0
BLOCK
  5
20
100
AcDbEntity
  8
0
100
AcDbBlockBegin
  2
*Model_Space
 70
0
 10
0.0
 20
0.0
 30
0.0
  3
*Model_Space
  1

  0
ENDBLK
  5
21
100
AcDbEntity
  8
0
100
AcDbBlockEnd
  0
BLOCK
  5
1C
100
AcDbEntity
  8
0
100
AcDbBlockBegin
  2
*Paper_Space
 70
0
 10
0.0
 20
0.0
 30
0.0
  3
*Paper_Space
  1

  0
ENDBLK
  5
1D
100
AcDbEntity
  8
0
100
AcDbBlockEnd
  0
BLOCK
  5
218
100
AcDbEntity
  8
0
100
AcDbBlockBegin
  2
_FILLED
 70
64
 10
0.0
 20
0.0
  3
_FILLED
  1

  0
SOLID
  5
219
100
AcDbEntity
  8
0
  6
BYBLOCK
 62
0
100
AcDbTrace
 10
0.0
 20
0.0
 11
-1.0
 21
0.3166666667
 12
-1.0
 22
-0.3166666667
 13
-1.0
 23
-0.3166666667
  0
ENDBLK
  5
21A
100
AcDbEntity
  8
0
  6
BYBLOCK
 62
0
100
AcDbBlockEnd
  0
ENDSEC
  0
SECTION
  2
ENTITIES
  0
LWPOLYLINE
  5
21B
100
AcDbEntity
  8
0
100
AcDbPolyline
 62
250
  6
CONTINUOUS
 90
37
 70
0
 10
408.9994544384
 20
221.3794138033
 10
409.0310484005
 20
221.382557487
 10
409.0614679477
 20
221.3875133921
 10
409.090616989
 20
221.3940897029
 10
409.1183807379
 20
221.4020946115
 10
409.1447431541
 20
221.4113459951
 10
409.1697804128
 20
221.4216896412
 10
409.1934689577
 20
221.4329733014
 10
409.2157881056
 20
221.4450479611
 10
409.2368283807
 20
221.4578003506
 10
409.2566052096
 20
221.4711173508
 10
409.2751128059
 20
221.4848746742
 10
409.2924152075
 20
221.4989668349
 10
409.308526832
 20
221.5132874198
 10
409.3234821216
 20
221.5277516708
 10
409.3373760696
 20
221.542305506
 10
409.3502241507
 20
221.5568539294
 10
409.3620770036
 20
221.5713483182
 10
409.373071014
 20
221.585826898
 10
409.3832330442
 20
221.600234224
 10
409.3925937308
 20
221.614529477
 10
409.4012743338
 20
221.6287950332
 10
409.409296369
 20
221.6429967273
 10
409.4166794296
 20
221.6571057693
 10
409.4235189637
 20
221.6712293523
 10
409.4298269181
 20
221.6853451117
 10
409.4356132001
 20
221.6994340342
 10
409.4409467198
 20
221.7136201656
 10
409.4458288671
 20
221.7278883652
 10
409.4502590483
 20
221.7422251105
 10
409.454279111
 20
221.7567646874
 10
409.4578789983
 20
221.7714952613
 10
409.4610465836
 20
221.7864053971
 10
409.4637954619
 20
221.8016342103
 10
409.4661083452
 20
221.8172205292
 10
409.4679515165
 20
221.8331007262
 10
409.4693007488
 20
221.8492601137
  0
LWPOLYLINE
  5
21C
100
AcDbEntity
  8
0
100
AcDbPolyline
 62
250
  6
CONTINUOUS
 90
37
 70
0
 10
408.9994544384
 20
221.6613215895
 10
409.0129551913
 20
221.6618915603
 10
409.025843084
 20
221.6631154804
 10
409.0381181166
 20
221.6649933499
 10
409.049777467
 20
221.667595084
 10
409.0608239573
 20
221.6708507675
 10
409.0712660531
 20
221.6745506543
 10
409.0810924852
 20
221.6786804194
 10
409.0903145229
 20
221.6832543879
 10
409.0989744391
 20
221.6881057888
 10
409.1070699995
 20
221.6932257023
 10
409.1146034385
 20
221.6986230482
 10
409.1216237325
 20
221.7041578161
 10
409.1281234916
 20
221.7098163758
 10
409.1341101058
 20
221.7156123575
 10
409.139654721
 20
221.7214466407
 10
409.1447520943
 20
221.7272997612
 10
409.1494074685
 20
221.7331911832
 10
409.153707719
 20
221.7390801787
 10
409.1576574823
 20
221.7449544954
 10
409.1612521219
 20
221.7508263856
 10
409.1645646028
 20
221.7566918785
 10
409.1676016381
 20
221.7625430799
 10
409.1703565149
 20
221.7683878841
 10
409.1728820597
 20
221.7742460027
 10
409.1751852708
 20
221.780112117
 10
409.1772591501
 20
221.7859915457
 10
409.1791355301
 20
221.7919199573
 10
409.1808216266
 20
221.7978941107
 10
409.1823102238
 20
221.803917247
 10
409.1836115066
 20
221.8100347579
 10
409.1847330557
 20
221.8162451948
 10
409.1856672903
 20
221.8225500063
 10
409.186401654
 20
221.8289989302
 10
409.1869319612
 20
221.8356085457
 10
409.1872623974
 20
221.8423622735
 10
409.1873929626
 20
221.8492601137
  0
LINE
  5
21D
100
AcDbEntity
  8
0
100
AcDbLine
 62
7
  6
CONTINUOUS
 10
388.0839036894
 20
221.2192742109
 11
409.1298209409
 21
221.2192742109
  0
LINE
  5
21E
100
AcDbEntity
  8
0
100
AcDbLine
 62
7
  6
CONTINUOUS
 10
388.1041305995
 20
221.2692742109
 11
409.1095940308
 21
221.2692742109
  0
LINE
  5
21F
100
AcDbEntity
  8
0
100
AcDbLine
 62
250
  6
CONTINUOUS
 10
388.2142701919
 20
221.3794138033
 11
408.9994544384
 21
221.3794138033
  0
LINE
  5
220
100
AcDbEntity
  8
0
100
AcDbLine
 62
250
  6
CONTINUOUS
 10
388.2142701919
 20
221.6613215895
 11
408.9994544384
 21
221.6613215895
  0
LINE
  5
221
100
AcDbEntity
  8
0
100
AcDbLine
 62
250
  6
CONTINUOUS
 10
388.0263316677
 20
221.8492601137
 11
387.7444238815
 21
221.8492601137
  0
LINE
  5
222
100
AcDbEntity
  8
0
100
AcDbLine
 62
250
  6
CONTINUOUS
 10
409.1873929626
 20
221.8492601137
 11
409.4693007488
 21
221.8492601137
  0
LINE
  5
223
100
AcDbEntity
  8
0
100
AcDbLine
 62
7
  6
CONTINUOUS
 10
388.8367298427
 20
260.6041998978
 11
388.7914089276
 21
260.5891052014
  0
LINE
  5
224
100
AcDbEntity
  8
0
100
AcDbLine
 62
7
  6
CONTINUOUS
 10
388.7468623152
 20
222.4391052014
 11
408.4668623152
 21
222.4391052014
  0
LINE
  5
225
100
AcDbEntity
  8
0
100
AcDbLine
 62
7
  6
CONTINUOUS
 10
388.8367298427
 20
225.974010505
 11
388.7914089276
 21
225.9891052014
  0
LWPOLYLINE
  5
226
100
AcDbEntity
  8
0
100
AcDbPolyline
 62
250
  6
CONTINUOUS
 90
10
 70
0
 10
408.4682336035
 20
225.6996348516
 10
408.4633433005
 20
225.6985627493
 10
408.459008869
 20
225.6974787139
 10
408.455230309
 20
225.6963827455
 10
408.4520048713
 20
225.6952735974
 10
408.4493353052
 20
225.6941525163
 10
408.4472298581
 20
225.693023242
 10
408.4456912792
 20
225.691887021
 10
408.4447168194
 20
225.6907426067
 10
408.4443064787
 20
225.6895899992
  0
LWPOLYLINE
  5
227
100
AcDbEntity
  8
0
100
AcDbPolyline
 62
250
  6
CONTINUOUS
 90
10
 70
0
 10
408.2841926354
 20
225.8988737912
 10
408.2760561549
 20
225.8978015587
 10
408.2688286851
 20
225.8967174585
 10
408.2625204805
 20
225.8956214904
 10
408.2571439054
 20
225.8945124515
 10
408.2527000841
 20
225.8933915449
 10
408.2491863916
 20
225.8922623794
 10
408.2466108689
 20
225.8911261581
 10
408.2449847047
 20
225.8899816779
 10
408.2443140941
 20
225.8888289388
  0
LWPOLYLINE
  5
228
100
AcDbEntity
  8
0
100
AcDbPolyline
 62
250
  6
CONTINUOUS
 90
13
 70
0
 10
409.2135722442
 20
225.6996348516
 10
409.2396650143
 20
225.7013576298
 10
409.2653115629
 20
225.706456937
 10
409.2900734763
 20
225.7148455371
 10
409.3135274967
 20
225.7263799793
 10
409.3352726955
 20
225.7408630234
 10
409.3549373418
 20
225.7580469891
 10
409.3721853407
 20
225.7776380553
 10
409.3867219386
 20
225.7993012856
 10
409.3982987194
 20
225.8226663021
 10
409.4067178913
 20
225.8473336696
 10
409.4118356518
 20
225.8728817327
 10
409.4135646284
 20
225.8988737953
  0
LWPOLYLINE
  5
229
100
AcDbEntity
  8
0
100
AcDbPolyline
 62
7
  6
CONTINUOUS
 90
25
 70
0
 10
395.5261135788
 20
224.1641052014
 10
395.5639471484
 20
224.165012973
 10
395.6013024173
 20
224.1685019377
 10
395.6381793854
 20
224.1745720976
 10
395.6748379552
 20
224.1831418365
 10
395.7110182243
 20
224.1942927793
 10
395.7459404856
 20
224.208269793
 10
395.7795521694
 20
224.2253422716
 10
395.8119058454
 20
224.2452408421
 10
395.842379516
 20
224.2674022217
 10
395.8708770864
 20
224.2918242861
 10
395.8974946512
 20
224.3185091837
 10
395.9218984966
 20
224.3469000373
 10
395.9439437959
 20
224.3769384471
 10
395.9637753757
 20
224.4086828353
 10
395.9814940014
 20
224.4417515519
 10
395.9970548937
 20
224.4761331538
 10
396.010502832
 20
224.5118391042
 10
396.02207292
 20
224.5485221081
 10
396.0318889576
 20
224.5860419196
 10
396.0398271449
 20
224.6245387999
 10
396.0457511864
 20
224.6640862133
 10
396.0496156503
 20
224.7047086545
 10
396.0514659684
 20
224.7463816473
 10
396.0513021407
 20
224.7891052014
  0
LINE
  5
22A
100
AcDbEntity
  8
0
100
AcDbLine
 62
7
  6
CONTINUOUS
 10
392.3940813152
 20
224.1641052014
 11
392.5577233152
 21
224.1641052014
  0
LINE
  5
22B
100
AcDbEntity
  8
0
100
AcDbLine
 62
7
  6
CONTINUOUS
 10
392.9094243152
 20
224.1641052014
 11
393.0765623152
 21
224.1641052014
  0
LINE
  5
22C
100
AcDbEntity
  8
0
100
AcDbLine
 62
7
  6
CONTINUOUS
 10
393.7416313152
 20
224.1641052014
 11
393.9157113152
 21
224.1641052014
  0
LINE
  5
22D
100
AcDbEntity
  8
0
100
AcDbLine
 62
7
  6
CONTINUOUS
 10
393.4281963152
 20
224.1641052014
 11
393.5919043152
 21
224.1641052014
  0
LINE
  5
22E
100
AcDbEntity
  8
0
100
AcDbLine
 62
7
  6
CONTINUOUS
 10
395.0194723152
 20
224.1641052014
 11
395.5261135788
 21
224.1641052014
  0
LINE
  5
22F
100
AcDbEntity
  8
0
100
AcDbLine
 62
7
  6
CONTINUOUS
 10
394.6712713152
 20
224.1641052014
 11
394.8558343152
 21
224.1641052014
  0
LINE
  5
230
100
AcDbEntity
  8
0
100
AcDbLine
 62
7
  6
CONTINUOUS
 10
396.2851913152
 20
224.1641052014
 11
397.2079573152
 21
224.1641052014
  0
LINE
  5
231
100
AcDbEntity
  8
0
100
AcDbLine
 62
7
  6
CONTINUOUS
 10
398.3970193152
 20
224.1641052014
 11
398.5607373152
 21
224.1641052014
  0
LINE
  5
232
100
AcDbEntity
  8
0
100
AcDbLine
 62
7
  6
CONTINUOUS
 10
397.9391953152
 20
224.1641052014
 11
398.1080583152
 21
224.1641052014
  0
LINE
  5
233
100
AcDbEntity
  8
0
100
AcDbLine
 62
7
  6
CONTINUOUS
 10
399.1996883152
 20
224.1641052014
 11
399.3894473152
 21
224.1641052014
  0
LINE
  5
234
100
AcDbEntity
  8
0
100
AcDbLine
 62
7
  6
CONTINUOUS
 10
400.1641543152
 20
224.1641052014
 11
400.3330683152
 21
224.1641052014
  0
LINE
  5
235
100
AcDbEntity
  8
0
100
AcDbLine
 62
7
  6
CONTINUOUS
 10
400.9372033152
 20
224.1641052014
 11
401.1060573152
 21
224.1641052014
  0
LINE
  5
236
100
AcDbEntity
  8
0
100
AcDbLine
 62
7
  6
CONTINUOUS
 10
401.5778723152
 20
224.1641052014
 11
401.7519423152
 21
224.1641052014
  0
LINE
  5
237
100
AcDbEntity
  8
0
100
AcDbLine
 62
7
  6
CONTINUOUS
 10
402.8470393152
 20
224.1641052014
 11
403.6497083152
 21
224.1641052014
  0
LINE
  5
238
100
AcDbEntity
  8
0
100
AcDbLine
 62
7
  6
CONTINUOUS
 10
402.5075733152
 20
224.1641052014
 11
402.6921673152
 21
224.1641052014
  0
LINE
  5
239
100
AcDbEntity
  8
0
100
AcDbLine
 62
7
  6
CONTINUOUS
 10
404.1789243152
 20
224.1641052014
 11
404.3477473152
 21
224.1641052014
  0
LINE
  5
23A
100
AcDbEntity
  8
0
100
AcDbLine
 62
7
  6
CONTINUOUS
 10
395.5218091714
 20
224.3085652014
 11
395.1883963152
 21
224.3085652014
  0
LINE
  5
23B
100
AcDbEntity
  8
0
100
AcDbLine
 62
7
  6
CONTINUOUS
 10
403.6497083152
 20
224.3138222014
 11
403.0159643152
 21
224.3138222014
  0
LINE
  5
23C
100
AcDbEntity
  8
0
100
AcDbLine
 62
7
  6
CONTINUOUS
 10
397.2079573152
 20
224.3138222014
 11
396.4541063152
 21
224.3138222014
  0
LINE
  5
23D
100
AcDbEntity
  8
0
100
AcDbLine
 62
7
  6
CONTINUOUS
 10
394.0463013152
 20
224.5279342014
 11
394.5476763152
 21
224.5279342014
  0
LINE
  5
23E
100
AcDbEntity
  8
0
100
AcDbLine
 62
7
  6
CONTINUOUS
 10
401.8825433152
 20
224.5279342014
 11
402.3839683152
 21
224.5279342014
  0
LINE
  5
23F
100
AcDbEntity
  8
0
100
AcDbLine
 62
7
  6
CONTINUOUS
 10
402.3230203152
 20
224.6776512014
 11
401.9347773152
 21
224.6776512014
  0
LINE
  5
240
100
AcDbEntity
  8
0
100
AcDbLine
 62
7
  6
CONTINUOUS
 10
394.4867893152
 20
224.6776512014
 11
394.0985463152
 21
224.6776512014
  0
LINE
  5
241
100
AcDbEntity
  8
0
100
AcDbLine
 62
7
  6
CONTINUOUS
 10
396.4541063152
 20
224.7316342014
 11
397.1383053152
 21
224.7316342014
  0
LINE
  5
242
100
AcDbEntity
  8
0
100
AcDbLine
 62
7
  6
CONTINUOUS
 10
397.1383053152
 20
224.8813512014
 11
396.4541063152
 21
224.8813512014
  0
LINE
  5
243
100
AcDbEntity
  8
0
100
AcDbLine
 62
7
  6
CONTINUOUS
 10
396.4541063152
 20
225.2643882014
 11
397.1957553152
 21
225.2643882014
  0
LINE
  5
244
100
AcDbEntity
  8
0
100
AcDbLine
 62
7
  6
CONTINUOUS
 10
400.5141343152
 20
225.2643882014
 11
400.9372033152
 21
225.2643882014
  0
LINE
  5
245
100
AcDbEntity
  8
0
100
AcDbLine
 62
7
  6
CONTINUOUS
 10
401.1060573152
 20
225.2643882014
 11
401.5291263152
 21
225.2643882014
  0
LINE
  5
246
100
AcDbEntity
  8
0
100
AcDbLine
 62
7
  6
CONTINUOUS
 10
395.1883963152
 20
225.2696452014
 11
395.5218091714
 21
225.2696452014
  0
LINE
  5
247
100
AcDbEntity
  8
0
100
AcDbLine
 62
7
  6
CONTINUOUS
 10
404.8196433152
 20
225.4141052014
 11
404.6210993152
 21
225.4141052014
  0
LINE
  5
248
100
AcDbEntity
  8
0
100
AcDbLine
 62
7
  6
CONTINUOUS
 10
403.9038533152
 20
225.4141052014
 11
403.7071283152
 21
225.4141052014
  0
LINE
  5
249
100
AcDbEntity
  8
0
100
AcDbLine
 62
7
  6
CONTINUOUS
 10
403.0159643152
 20
225.4141052014
 11
402.8470393152
 21
225.4141052014
  0
LINE
  5
24A
100
AcDbEntity
  8
0
100
AcDbLine
 62
7
  6
CONTINUOUS
 10
402.2394473152
 20
225.4141052014
 11
402.0479693152
 21
225.4141052014
  0
LINE
  5
24B
100
AcDbEntity
  8
0
100
AcDbLine
 62
7
  6
CONTINUOUS
 10
401.5291263152
 20
225.4141052014
 11
400.5141343152
 21
225.4141052014
  0
LINE
  5
24C
100
AcDbEntity
  8
0
100
AcDbLine
 62
7
  6
CONTINUOUS
 10
400.3330683152
 20
225.4141052014
 11
400.1641543152
 21
225.4141052014
  0
LINE
  5
24D
100
AcDbEntity
  8
0
100
AcDbLine
 62
7
  6
CONTINUOUS
 10
399.3894473152
 20
225.4141052014
 11
399.2258103152
 21
225.4141052014
  0
LINE
  5
24E
100
AcDbEntity
  8
0
100
AcDbLine
 62
7
  6
CONTINUOUS
 10
398.5972723152
 20
225.4141052014
 11
398.3970193152
 21
225.4141052014
  0
LINE
  5
24F
100
AcDbEntity
  8
0
100
AcDbLine
 62
7
  6
CONTINUOUS
 10
398.1080583152
 20
225.4141052014
 11
397.9391953152
 21
225.4141052014
  0
LINE
  5
250
100
AcDbEntity
  8
0
100
AcDbLine
 62
7
  6
CONTINUOUS
 10
397.1957553152
 20
225.4141052014
 11
396.2851913152
 21
225.4141052014
  0
LINE
  5
251
100
AcDbEntity
  8
0
100
AcDbLine
 62
7
  6
CONTINUOUS
 10
395.5314282959
 20
225.4141052014
 11
395.0194723152
 21
225.4141052014
  0
LINE
  5
252
100
AcDbEntity
  8
0
100
AcDbLine
 62
7
  6
CONTINUOUS
 10
394.4032063152
 20
225.4141052014
 11
394.2116673152
 21
225.4141052014
  0
LINE
  5
253
100
AcDbEntity
  8
0
100
AcDbLine
 62
7
  6
CONTINUOUS
 10
393.5919043152
 20
225.4141052014
 11
393.3516193152
 21
225.4141052014
  0
LINE
  5
254
100
AcDbEntity
  8
0
100
AcDbLine
 62
7
  6
CONTINUOUS
 10
392.6360833152
 20
225.4141052014
 11
392.3940813152
 21
225.4141052014
  0
LWPOLYLINE
  5
255
100
AcDbEntity
  8
0
100
AcDbPolyline
 62
7
  6
CONTINUOUS
 90
25
 70
0
 10
395.5218091714
 20
225.2696452014
 10
395.5493866532
 20
225.267998356
 10
395.5764802603
 20
225.2642887629
 10
395.6030899928
 20
225.2585164238
 10
395.6294075233
 20
225.2506704712
 10
395.6552411791
 20
225.2407617788
 10
395.6800159419
 20
225.2288229609
 10
395.7037340519
 20
225.214720864
 10
395.726393269
 20
225.1985886535
 10
395.7474118548
 20
225.1808584227
 10
395.7666312355
 20
225.1615131079
 10
395.7842099848
 20
225.1405697858
 10
395.800042086
 20
225.1185117571
 10
395.8140236494
 20
225.0953917256
 10
395.8262585647
 20
225.0711569984
 10
395.8369524829
 20
225.0461327783
 10
395.8459999943
 20
225.0203739501
 10
395.8535065087
 20
224.9938256378
 10
395.8599939073
 20
224.9666483999
 10
395.8656737977
 20
224.9389547835
 10
395.8703345723
 20
224.910632249
 10
395.8738632902
 20
224.8815037254
 10
395.8762223044
 20
224.8515101934
 10
395.8774492618
 20
224.8207106836
 10
395.8775441625
 20
224.7891052014
  0
LWPOLYLINE
  5
256
100
AcDbEntity
  8
0
100
AcDbPolyline
 62
7
  6
CONTINUOUS
 90
8
 70
0
 10
388.8367298427
 20
225.974010505
 10
388.8399929307
 20
225.9734753866
 10
388.8461216574
 20
225.972958587
 10
388.8551160229
 20
225.972460106
 10
388.8671347776
 20
225.9719750469
 10
388.882019171
 20
225.9715083065
 10
388.899292952
 20
225.9710745752
 10
388.9410922572
 20
225.9703091153
  0
LINE
  5
257
100
AcDbEntity
  8
0
100
AcDbLine
 62
7
  6
CONTINUOUS
 10
392.6068623152
 20
260.5891052014
 11
392.6269196247
 21
260.609162511
  0
LWPOLYLINE
  5
258
100
AcDbEntity
  8
0
100
AcDbPolyline
 62
7
  6
CONTINUOUS
 90
6
 70
0
 10
401.8979673063
 20
261.7694518918
 10
401.9087303679
 20
261.7732589644
 10
401.9193562618
 20
261.7781240357
 10
401.9298449879
 20
261.7840471044
 10
401.9401186356
 20
261.7912558226
 10
401.9502551156
 20
261.7995225349
  0
LWPOLYLINE
  5
259
100
AcDbEntity
  8
0
100
AcDbPolyline
 62
7
  6
CONTINUOUS
 90
7
 70
0
 10
388.9008111909
 20
226.8076318677
 10
388.8835301281
 20
226.8071976516
 10
388.8686375072
 20
226.8067303562
 10
388.8566111194
 20
226.8062446678
 10
388.8476102286
 20
226.8057454822
 10
388.841475571
 20
226.8052279037
 10
388.8382071465
 20
226.8046919323
  0
LINE
  5
25A
100
AcDbEntity
  8
0
100
AcDbLine
 62
7
  6
CONTINUOUS
 10
388.9426220596
 20
226.8083980843
 11
388.9008111909
 21
226.8076318677
  0
LINE
  5
25B
100
AcDbEntity
  8
0
100
AcDbLine
 62
7
  6
CONTINUOUS
 10
388.9922839027
 20
226.8090005457
 11
388.9426220596
 21
226.8083980843
  0
LINE
  5
25C
100
AcDbEntity
  8
0
100
AcDbLine
 62
7
  6
CONTINUOUS
 10
389.0772577051
 20
226.8095519957
 11
388.9922839027
 21
226.8090005457
  0
LINE
  5
25D
100
AcDbEntity
  8
0
100
AcDbLine
 62
7
  6
CONTINUOUS
 10
408.1391117921
 20
225.9691599577
 11
408.2122741314
 21
225.9696069722
  0
LINE
  5
25E
100
AcDbEntity
  8
0
100
AcDbLine
 62
7
  6
CONTINUOUS
 10
409.1873929626
 20
225.5391052014
 11
408.4668623152
 21
225.5391052014
  0
LINE
  5
25F
100
AcDbEntity
  8
0
100
AcDbLine
 62
250
  6
CONTINUOUS
 10
408.4682336035
 20
225.6996348516
 11
409.2135722442
 21
225.6996348516
  0
LINE
  5
260
100
AcDbEntity
  8
0
100
AcDbLine
 62
7
  6
CONTINUOUS
 10
404.5868050056
 20
225.9690478919
 11
408.1391117921
 21
225.9691599577
  0
LINE
  5
261
100
AcDbEntity
  8
0
100
AcDbLine
 62
7
  6
CONTINUOUS
 10
388.7914089276
 20
225.9891052014
 11
392.6068623152
 21
225.9891052014
  0
LINE
  5
262
100
AcDbEntity
  8
0
100
AcDbLine
 62
7
  6
CONTINUOUS
 10
404.6068623152
 20
225.9891052014
 11
408.2220225036
 21
225.9891052014
  0
LINE
  5
263
100
AcDbEntity
  8
0
100
AcDbLine
 62
250
  6
CONTINUOUS
 10
408.7442950556
 20
226.0981127308
 11
409.4119713745
 21
226.0981127308
  0
LINE
  5
264
100
AcDbEntity
  8
0
100
AcDbLine
 62
7
  6
CONTINUOUS
 10
408.2220225036
 20
226.7891052014
 11
404.6068623152
 21
226.7891052014
  0
LINE
  5
265
100
AcDbEntity
  8
0
100
AcDbLine
 62
7
  6
CONTINUOUS
 10
392.6068623152
 20
226.7891052014
 11
388.7914089276
 21
226.7891052014
  0
LINE
  5
266
100
AcDbEntity
  8
0
100
AcDbLine
 62
7
  6
CONTINUOUS
 10
389.0772577051
 20
226.8095519957
 11
392.6274172415
 21
226.8096601277
  0
LINE
  5
267
100
AcDbEntity
  8
0
100
AcDbLine
 62
7
  6
CONTINUOUS
 10
389.0757386258
 20
225.9691560124
 11
392.6269196247
 21
225.9690478919
  0
LINE
  5
268
100
AcDbEntity
  8
0
100
AcDbLine
 62
7
  6
CONTINUOUS
 10
408.1535131211
 20
226.8094816001
 11
404.5863073889
 21
226.8096601277
  0
LINE
  5
269
100
AcDbEntity
  8
0
100
AcDbLine
 62
7
  6
CONTINUOUS
 10
408.2120311798
 20
226.8090893709
 11
408.1535131211
 21
226.8094816001
  0
LINE
  5
26A
100
AcDbEntity
  8
0
100
AcDbLine
 62
7
  6
CONTINUOUS
 10
388.9907503195
 20
225.9697071434
 11
389.0757386258
 21
225.9691560124
  0
LINE
  5
26B
100
AcDbEntity
  8
0
100
AcDbLine
 62
7
  6
CONTINUOUS
 10
388.9410922572
 20
225.9703091153
 11
388.9907503195
 21
225.9697071434
  0
LWPOLYLINE
  5
26C
100
AcDbEntity
  8
0
100
AcDbPolyline
 62
250
  6
CONTINUOUS
 90
13
 70
0
 10
408.4443064787
 20
225.6895899992
 10
408.4182147943
 20
225.6913126389
 10
408.3925691142
 20
225.6964115688
 10
408.3678078188
 20
225.7047996293
 10
408.3443541711
 20
225.7163334366
 10
408.3226090815
 20
225.7308158352
 10
408.3029442551
 20
225.7479992682
 10
408.2856958369
 20
225.7675900065
 10
408.2711586671
 20
225.7892531712
 10
408.2595812403
 20
225.81261846
 10
408.2511614583
 20
225.8372864736
 10
408.2460432464
 20
225.8628355429
 10
408.2443140941
 20
225.8888289388
  0
LWPOLYLINE
  5
26D
100
AcDbEntity
  8
0
100
AcDbPolyline
 62
250
  6
CONTINUOUS
 90
13
 70
0
 10
408.4682335952
 20
225.6996348499
 10
408.444716654
 20
225.7021347795
 10
408.4215848341
 20
225.707856511
 10
408.3992169422
 20
225.716706342
 10
408.3779792743
 20
225.7285393446
 10
408.3582196169
 20
225.743161739
 10
408.3402615519
 20
225.7603340672
 10
408.3243991588
 20
225.7797751133
 10
408.3108921975
 20
225.8011665097
 10
408.2999618549
 20
225.8241579521
 10
408.291787124
 20
225.8483729334
 10
408.2865018724
 20
225.8734149091
 10
408.2841926492
 20
225.8988737928
  0
LINE
  5
26E
100
AcDbEntity
  8
0
100
AcDbLine
 62
7
  6
CONTINUOUS
 10
392.6068623152
 20
225.9891052014
 11
392.6269196247
 21
225.9690478919
  0
LWPOLYLINE
  5
26F
100
AcDbEntity
  8
0
100
AcDbPolyline
 62
7
  6
CONTINUOUS
 90
10
 70
0
 10
399.719072194
 20
228.4992006815
 10
399.7341298963
 20
228.5030321337
 10
399.749038597
 20
228.5065064215
 10
399.7637982961
 20
228.5096235447
 10
399.778416762
 20
228.5124265129
 10
399.7928862262
 20
228.5148723161
 10
399.8071833837
 20
228.5168319246
 10
399.8213004661
 20
228.5182623283
 10
399.8352452417
 20
228.519206537
 10
399.8490177106
 20
228.5196645505
  0
LINE
  5
270
100
AcDbEntity
  8
0
100
AcDbLine
 62
7
  6
CONTINUOUS
 10
399.5400136422
 20
228.2096372641
 11
399.3558388662
 21
228.1850806571
  0
LWPOLYLINE
  5
271
100
AcDbEntity
  8
0
100
AcDbPolyline
 62
7
  6
CONTINUOUS
 90
10
 70
0
 10
399.8326465797
 20
227.7625022003
 10
399.8813440785
 20
227.7643896702
 10
399.9278290424
 20
227.7695933671
 10
399.9721014711
 20
227.7781132942
 10
400.0140376465
 20
227.789950649
 10
400.0537612868
 20
227.8051042467
 10
400.0916435472
 20
227.82357052
 10
400.127808146
 20
227.845348288
 10
400.1621313649
 20
227.8704387564
 10
400.1946132039
 20
227.8988419407
  0
LWPOLYLINE
  5
272
100
AcDbEntity
  8
0
100
AcDbPolyline
 62
7
  6
CONTINUOUS
 90
10
 70
0
 10
399.7692087602
 20
228.6588187165
 10
399.7658472928
 20
228.6588005795
 10
399.7625063581
 20
228.6588394688
 10
399.7591859561
 20
228.6589353844
 10
399.7558919651
 20
228.659082525
 10
399.7526185067
 20
228.6592866919
 10
399.7493479463
 20
228.6595652887
 10
399.7460744056
 20
228.6599241169
 10
399.742803763
 20
228.660357375
 10
399.7395360183
 20
228.6608650631
  0
LINE
  5
273
100
AcDbEntity
  8
0
100
AcDbLine
 62
7
  6
CONTINUOUS
 10
396.3681173038
 20
227.7891052014
 11
396.552291901
 21
227.7891052014
  0
LINE
  5
274
100
AcDbEntity
  8
0
100
AcDbLine
 62
7
  6
CONTINUOUS
 10
397.6143656682
 20
227.7891052014
 11
397.7985402655
 21
227.7891052014
  0
LINE
  5
275
100
AcDbEntity
  8
0
100
AcDbLine
 62
7
  6
CONTINUOUS
 10
398.6989494275
 20
227.7891052014
 11
398.8831242036
 21
227.7891052014
  0
LINE
  5
276
100
AcDbEntity
  8
0
100
AcDbLine
 62
7
  6
CONTINUOUS
 10
401.0297815513
 20
227.7891052014
 11
401.2139563274
 21
227.7891052014
  0
LINE
  5
277
100
AcDbEntity
  8
0
100
AcDbLine
 62
7
  6
CONTINUOUS
 10
396.9636152696
 20
228.1482457242
 11
397.6143656682
 21
228.1482457242
  0
LINE
  5
278
100
AcDbEntity
  8
0
100
AcDbLine
 62
7
  6
CONTINUOUS
 10
397.7985402655
 20
228.1482457242
 11
398.0011323404
 21
228.1482457242
  0
LINE
  5
279
100
AcDbEntity
  8
0
100
AcDbLine
 62
7
  6
CONTINUOUS
 10
398.0011323404
 20
228.3170724756
 11
397.7985402655
 21
228.3170724756
  0
LINE
  5
27A
100
AcDbEntity
  8
0
100
AcDbLine
 62
7
  6
CONTINUOUS
 10
397.6143656682
 20
228.3170724756
 11
397.1447203469
 21
228.3170724756
  0
LWPOLYLINE
  5
27B
100
AcDbEntity
  8
0
100
AcDbPolyline
 62
7
  6
CONTINUOUS
 90
10
 70
0
 10
399.833669753
 20
227.9149578571
 10
399.8093505756
 20
227.9158323919
 10
399.7859821187
 20
227.9183810002
 10
399.7635643823
 20
227.9226036829
 10
399.7421556695
 20
227.9284850258
 10
399.7216976772
 20
227.9360404461
 10
399.7020154956
 20
227.9453161922
 10
399.6830508214
 20
227.9563276824
 10
399.6648619579
 20
227.9690595048
 10
399.6474489051
 20
227.9835116635
  0
LWPOLYLINE
  5
27C
100
AcDbEntity
  8
0
100
AcDbPolyline
 62
7
  6
CONTINUOUS
 90
10
 70
0
 10
399.8490177106
 20
228.5196645505
 10
399.8772443775
 20
228.5185440447
 10
399.9042292938
 20
228.515405294
 10
399.9299724596
 20
228.5102482997
 10
399.9544205173
 20
228.5030781534
 10
399.9776268245
 20
228.4938897679
 10
399.9997514541
 20
228.4826678769
 10
400.0208477639
 20
228.4694073946
 10
400.0408623962
 20
228.4541134158
 10
400.059795351
 20
228.436785946
  0
LWPOLYLINE
  5
27D
100
AcDbEntity
  8
0
100
AcDbPolyline
 62
7
  6
CONTINUOUS
 90
46
 70
0
 10
392.0951589898
 20
256.6417044631
 10
392.0982105762
 20
256.6445298473
 10
392.1013573219
 20
256.6472738232
 10
392.104597641
 20
256.6499351277
 10
392.1079276823
 20
256.6525107125
 10
392.1113479753
 20
256.6550013062
 10
392.1148639226
 20
256.6574110455
 10
392.1184753887
 20
256.6597394099
 10
392.1221800862
 20
256.6619840437
 10
392.125980805
 20
256.6641458547
 10
392.1298764617
 20
256.6662234254
 10
392.1338659123
 20
256.6682151028
 10
392.1379522091
 20
256.6701211025
 10
392.1421345249
 20
256.671939921
 10
392.1464116142
 20
256.6736697186
 10
392.1507861757
 20
256.6753098811
 10
392.1552575114
 20
256.6768587659
 10
392.1598242698
 20
256.6783144209
 10
392.1644883413
 20
256.6796754989
 10
392.1692487686
 20
256.6809401596
 10
392.1741043415
 20
256.6821064722
 10
392.1790566665
 20
256.6831727334
 10
392.1841047488
 20
256.6841370045
 10
392.1892472341
 20
256.6849972871
 10
392.1944852376
 20
256.6857515947
 10
392.1998165057
 20
256.6863978029
 10
392.20524067
 20
256.6869340103
 10
392.2107617595
 20
256.6873582458
 10
392.2163736359
 20
256.6876682114
 10
392.2220795989
 20
256.6878618873
 10
392.2278982497
 20
256.6879365659
 10
392.2338274579
 20
256.6878893968
 10
392.2398668162
 20
256.6877169282
 10
392.2460381188
 20
256.6874135309
 10
392.2523407157
 20
256.6869751181
 10
392.2587726407
 20
256.6863971397
 10
392.2653541174
 20
256.6856711397
 10
392.2720841012
 20
256.6847917885
 10
392.2789603717
 20
256.6837534942
 10
392.2860015129
 20
256.6825453559
 10
392.2932057058
 20
256.6811608262
 10
392.3005702785
 20
256.6795932456
 10
392.3081123869
 20
256.677829521
 10
392.3158356845
 20
256.6758596792
 10
392.3237301751
 20
256.6736779537
 10
392.331792065
 20
256.6712765052
  0
LWPOLYLINE
  5
27E
100
AcDbEntity
  8
0
100
AcDbPolyline
 62
250
  6
CONTINUOUS
 90
16
 70
0
 10
393.2901053298
 20
255.7047530975
 10
393.2915604962
 20
255.7054521838
 10
393.2929728388
 20
255.7062012892
 10
393.2943423576
 20
255.7070004137
 10
393.2956771425
 20
255.7078475573
 10
393.2969691037
 20
255.70874472
 10
393.2981939712
 20
255.7096979014
 10
393.2993559091
 20
255.7107088949
 10
393.3004507533
 20
255.7117759071
 10
393.3014417426
 20
255.7128995581
 10
393.3023310983
 20
255.7140800346
 10
393.303116599
 20
255.7153171497
 10
393.3037548196
 20
255.7166109632
 10
393.304231285
 20
255.7179614949
 10
393.3045604703
 20
255.719368725
 10
393.3047423755
 20
255.7208326533
  0
LINE
  5
27F
100
AcDbEntity
  8
0
100
AcDbLine
 62
7
  6
CONTINUOUS
 10
393.1988795252
 20
255.7104114087
 11
393.004128065
 21
255.6172629291
  0
LINE
  5
280
100
AcDbEntity
  8
0
100
AcDbLine
 62
250
  6
CONTINUOUS
 10
392.843349538
 20
255.4964274505
 11
393.2901053298
 21
255.7047530975
  0
LINE
  5
281
100
AcDbEntity
  8
0
100
AcDbLine
 62
250
  6
CONTINUOUS
 10
392.94941574
 20
255.3604813686
 11
393.396171347
 21
255.5688069295
  0
LINE
  5
282
100
AcDbEntity
  8
0
100
AcDbLine
 62
7
  6
CONTINUOUS
 10
388.8467921352
 20
253.7075512699
 11
388.8097516503
 21
253.6952144742
  0
LINE
  5
283
100
AcDbEntity
  8
0
100
AcDbLine
 62
7
  6
CONTINUOUS
 10
392.9129741842
 20
256.737247337
 11
392.6650090207
 21
256.660409117
  0
LINE
  5
284
100
AcDbEntity
  8
0
100
AcDbLine
 62
7
  6
CONTINUOUS
 10
392.6650090207
 20
256.660409117
 11
392.5930556967
 21
256.6385187563
  0
LWPOLYLINE
  5
285
100
AcDbEntity
  8
0
100
AcDbPolyline
 62
250
  6
CONTINUOUS
 90
13
 70
0
 10
404.7886078006
 20
230.0002586624
 10
404.8146313958
 20
230.0020325795
 10
404.8402114437
 20
230.0071815653
 10
404.8649117945
 20
230.0156178883
 10
404.8883112902
 20
230.0271977673
 10
404.9100109291
 20
230.0417238133
 10
404.9296406744
 20
230.0589483865
 10
404.9468657943
 20
230.0785778407
 10
404.9613925401
 20
230.1002775061
 10
404.9729731568
 20
230.1236773736
 10
404.9814101438
 20
230.1483784516
 10
404.9865596104
 20
230.1739595772
 10
404.988333714
 20
230.1999845629
  0
LINE
  5
286
100
AcDbEntity
  8
0
100
AcDbLine
 62
250
  6
CONTINUOUS
 10
404.3528009504
 20
230.010191656
 11
404.1580494903
 21
229.999722806
  0
LINE
  5
287
100
AcDbEntity
  8
0
100
AcDbLine
 62
250
  6
CONTINUOUS
 10
404.2095965653
 20
230.209917563
 11
404.0148451052
 21
230.1994487129
  0
LWPOLYLINE
  5
288
100
AcDbEntity
  8
0
100
AcDbPolyline
 62
7
  6
CONTINUOUS
 90
10
 70
0
 10
399.8254843663
 20
229.2952444202
 10
399.7858656812
 20
229.2937919478
 10
399.747928828
 20
229.2898349609
 10
399.7116738068
 20
229.2833734613
 10
399.6771645785
 20
229.2743735554
 10
399.6443371821
 20
229.2628691434
 10
399.6129997349
 20
229.2489619188
 10
399.5830882757
 20
229.2326857836
 10
399.5546667656
 20
229.2140068482
 10
399.5277352046
 20
229.1929251201
  0
LINE
  5
289
100
AcDbEntity
  8
0
100
AcDbLine
 62
250
  6
CONTINUOUS
 10
392.4070037046
 20
230.2082269992
 11
392.3535827118
 21
230.2071375826
  0
LINE
  5
28A
100
AcDbEntity
  8
0
100
AcDbLine
 62
7
  6
CONTINUOUS
 10
392.9568623152
 20
229.9886799821
 11
393.0588759653
 21
229.9901125212
  0
LINE
  5
28B
100
AcDbEntity
  8
0
100
AcDbLine
 62
250
  6
CONTINUOUS
 10
392.4721161295
 20
230.2091236796
 11
392.4070037046
 21
230.2082269992
  0
LWPOLYLINE
  5
28C
100
AcDbEntity
  8
0
100
AcDbPolyline
 62
7
  6
CONTINUOUS
 90
8
 70
0
 10
404.6560779075
 20
229.9415119373
 10
404.6498092432
 20
229.9414468703
 10
404.6432259388
 20
229.9413023269
 10
404.636756552
 20
229.9410969109
 10
404.6311875183
 20
229.9408329068
 10
404.626780983
 20
229.9405110762
 10
404.6232748009
 20
229.9401306575
 10
404.6206689719
 20
229.9396916507
  0
LWPOLYLINE
  5
28D
100
AcDbEntity
  8
0
100
AcDbPolyline
 62
250
  6
CONTINUOUS
 90
18
 70
0
 10
392.6045156551
 20
230.0101259749
 10
392.5850581051
 20
230.0099738528
 10
392.5664700868
 20
230.0097352897
 10
392.5485778784
 20
230.0093980086
 10
392.5315552016
 20
230.0089742866
 10
392.5159232215
 20
230.0085009548
 10
392.5018874235
 20
230.0079811263
 10
392.489242322
 20
230.0074116879
 10
392.4778926257
 20
230.0068201315
 10
392.4679176807
 20
230.0062174087
 10
392.4592381408
 20
230.0055925679
 10
392.4515206759
 20
230.0049402451
 10
392.4446406935
 20
230.0042653117
 10
392.4387227861
 20
230.0035628964
 10
392.4338074013
 20
230.0028130216
 10
392.4299080216
 20
230.0020090281
 10
392.4270111644
 20
230.001157575
 10
392.4251168298
 20
230.0002586624
  0
LWPOLYLINE
  5
28E
100
AcDbEntity
  8
0
100
AcDbPolyline
 62
7
  6
CONTINUOUS
 90
8
 70
0
 10
392.4779137218
 20
229.9415301186
 10
392.4699669889
 20
229.9414707563
 10
392.4624956318
 20
229.9413226906
 10
392.4555113441
 20
229.9411090396
 10
392.4496099622
 20
229.940838264
 10
392.4449900982
 20
229.9405131841
 10
392.44145314
 20
229.9401309797
 10
392.4389990875
 20
229.9396916507
  0
LINE
  5
28F
100
AcDbEntity
  8
0
100
AcDbLine
 62
250
  6
CONTINUOUS
 10
392.5456587937
 20
230.2096994172
 11
392.4721161295
 21
230.2091236796
  0
LINE
  5
290
100
AcDbEntity
  8
0
100
AcDbLine
 62
250
  6
CONTINUOUS
 10
408.7442950556
 20
228.9800976721
 11
409.4119713745
 21
228.9800976721
  0
LINE
  5
291
100
AcDbEntity
  8
0
100
AcDbLine
 62
7
  6
CONTINUOUS
 10
397.7985402655
 20
229.2891052014
 11
397.6481309246
 21
229.2891052014
  0
LINE
  5
292
100
AcDbEntity
  8
0
100
AcDbLine
 62
7
  6
CONTINUOUS
 10
401.2139563274
 20
229.2952444202
 11
401.0952660751
 21
229.2952444202
  0
LINE
  5
293
100
AcDbEntity
  8
0
100
AcDbLine
 62
7
  6
CONTINUOUS
 10
398.8831242036
 20
229.2952444202
 11
398.7644337725
 21
229.2952444202
  0
LINE
  5
294
100
AcDbEntity
  8
0
100
AcDbLine
 62
7
  6
CONTINUOUS
 10
396.552291901
 20
229.2952444202
 11
396.433601604
 21
229.2952444202
  0
LINE
  5
295
100
AcDbEntity
  8
0
100
AcDbLine
 62
250
  6
CONTINUOUS
 10
409.2135722442
 20
229.3785755513
 11
408.4682336035
 21
229.3785755513
  0
LINE
  5
296
100
AcDbEntity
  8
0
100
AcDbLine
 62
7
  6
CONTINUOUS
 10
409.1873929626
 20
229.5391052014
 11
408.4668623152
 21
229.5391052014
  0
LINE
  5
297
100
AcDbEntity
  8
0
100
AcDbLine
 62
7
  6
CONTINUOUS
 10
392.9129741842
 20
229.8409630659
 11
392.9568623152
 21
229.8409630659
  0
LINE
  5
298
100
AcDbEntity
  8
0
100
AcDbLine
 62
7
  6
CONTINUOUS
 10
404.2568623152
 20
229.8409630659
 11
404.3007504462
 21
229.8409630659
  0
LINE
  5
299
100
AcDbEntity
  8
0
100
AcDbLine
 62
250
  6
CONTINUOUS
 10
392.8609236799
 20
230.010191656
 11
392.6045156551
 21
230.0101259749
  0
LINE
  5
29A
100
AcDbEntity
  8
0
100
AcDbLine
 62
250
  6
CONTINUOUS
 10
404.0148451052
 20
230.1994487129
 11
403.9580799513
 21
230.1994487129
  0
LINE
  5
29B
100
AcDbEntity
  8
0
100
AcDbLine
 62
250
  6
CONTINUOUS
 10
393.2556446791
 20
230.1994487129
 11
393.1988795252
 21
230.1994487129
  0
LINE
  5
29C
100
AcDbEntity
  8
0
100
AcDbLine
 62
250
  6
CONTINUOUS
 10
393.004128065
 20
230.209917563
 11
392.5456587937
 21
230.2096994172
  0
LINE
  5
29D
100
AcDbEntity
  8
0
100
AcDbLine
 62
7
  6
CONTINUOUS
 10
404.736333103
 20
229.9415261143
 11
404.6560779075
 21
229.9415119373
  0
LINE
  5
29E
100
AcDbEntity
  8
0
100
AcDbLine
 62
250
  6
CONTINUOUS
 10
404.6061161196
 20
230.0101395025
 11
404.3528009504
 21
230.010191656
  0
LINE
  5
29F
100
AcDbEntity
  8
0
100
AcDbLine
 62
250
  6
CONTINUOUS
 10
404.6559367859
 20
230.2097580642
 11
404.2095965653
 21
230.209917563
  0
LINE
  5
2A0
100
AcDbEntity
  8
0
100
AcDbLine
 62
250
  6
CONTINUOUS
 10
404.7162781446
 20
230.2093779865
 11
404.6559367859
 21
230.2097580642
  0
LINE
  5
2A1
100
AcDbEntity
  8
0
100
AcDbLine
 62
250
  6
CONTINUOUS
 10
404.7700967272
 20
230.2087803868
 11
404.7162781446
 21
230.2093779865
  0
LINE
  5
2A2
100
AcDbEntity
  8
0
100
AcDbLine
 62
7
  6
CONTINUOUS
 10
404.154848665
 20
229.9901125212
 11
404.2568623152
 21
229.9886799821
  0
LWPOLYLINE
  5
2A3
100
AcDbEntity
  8
0
100
AcDbPolyline
 62
250
  6
CONTINUOUS
 90
4
 70
0
 10
404.6662681945
 20
230.009379159
 10
404.6525731871
 20
230.0096522163
 10
404.6380249836
 20
230.0098703125
 10
404.6061161196
 20
230.0101395025
  0
LWPOLYLINE
  5
2A4
100
AcDbEntity
  8
0
100
AcDbPolyline
 62
250
  6
CONTINUOUS
 90
3
 70
0
 10
404.8444953148
 20
230.2074982974
 10
404.8202850421
 20
230.2079888668
 10
404.7700967272
 20
230.2087803868
  0
LWPOLYLINE
  5
2A5
100
AcDbEntity
  8
0
100
AcDbPolyline
 62
7
  6
CONTINUOUS
 90
19
 70
0
 10
409.2296108984
 20
229.539366394
 10
409.249649006
 20
229.5386843877
 10
409.2693016854
 20
229.5361367587
 10
409.2883847571
 20
229.5318102047
 10
409.3068125604
 20
229.5257906819
 10
409.3243407669
 20
229.5181951226
 10
409.3406038321
 20
229.5092462068
 10
409.3554206018
 20
229.4992248331
 10
409.3688603629
 20
229.4882601051
 10
409.3809817498
 20
229.476384657
 10
409.3917843463
 20
229.4637168666
 10
409.40121907
 20
229.4504400648
 10
409.4092762353
 20
229.4366524924
 10
409.4159659983
 20
229.4225092804
 10
409.4213333143
 20
229.4081262702
 10
409.4254297821
 20
229.3935268969
 10
409.428296451
 20
229.3787861811
 10
409.4299766429
 20
229.3640352897
 10
409.4305246817
 20
229.3493646676
  0
LWPOLYLINE
  5
2A6
100
AcDbEntity
  8
0
100
AcDbPolyline
 62
7
  6
CONTINUOUS
 90
10
 70
0
 10
399.8295770597
 20
229.1438119061
 10
399.8534945003
 20
229.1428836598
 10
399.8763232613
 20
229.1403083459
 10
399.8980633428
 20
229.1360859652
 10
399.9186984802
 20
229.1301933097
 10
399.938244938
 20
229.1226535902
 10
399.9567515102
 20
229.1135364357
 10
399.9742344613
 20
229.1028650576
 10
399.9906775267
 20
229.0906162498
 10
400.0060807065
 20
229.0767900156
  0
LINE
  5
2A7
100
AcDbEntity
  8
0
100
AcDbLine
 62
250
  6
CONTINUOUS
 10
393.05567514
 20
229.999722806
 11
392.8609236799
 21
230.010191656
  0
LINE
  5
2A8
100
AcDbEntity
  8
0
100
AcDbLine
 62
250
  6
CONTINUOUS
 10
393.1988795252
 20
230.1994487129
 11
393.004128065
 21
230.209917563
  0
LWPOLYLINE
  5
2A9
100
AcDbEntity
  8
0
100
AcDbPolyline
 62
250
  6
CONTINUOUS
 90
13
 70
0
 10
409.2135722442
 20
229.3785755513
 10
409.2396639296
 20
229.3768529161
 10
409.2653096105
 20
229.3717539883
 10
409.2900709063
 20
229.3633659278
 10
409.313524554
 20
229.3518321175
 10
409.3352696432
 20
229.3373497137
 10
409.3549344691
 20
229.3201662757
 10
409.3721828865
 20
229.3005755328
 10
409.3867200555
 20
229.2789123639
 10
409.3982974817
 20
229.2555470738
 10
409.4067172637
 20
229.2308790628
 10
409.4118354758
 20
229.2053299991
 10
409.4135646288
 20
229.1793366117
  0
LWPOLYLINE
  5
2AA
100
AcDbEntity
  8
0
100
AcDbPolyline
 62
250
  6
CONTINUOUS
 90
13
 70
0
 10
392.4251168298
 20
230.0002586624
 10
392.3990924695
 20
230.0020326822
 10
392.3735118435
 20
230.0071819282
 10
392.3488111205
 20
230.0156186019
 10
392.325411466
 20
230.0271988517
 10
392.3037118616
 20
230.0417252258
 10
392.284082302
 20
230.0589500394
 10
392.2668574856
 20
230.0785795963
 10
392.2523311085
 20
230.1002791984
 10
392.2407508571
 20
230.123678852
 10
392.2323141836
 20
230.1483795762
 10
392.2271649393
 20
230.1739602049
 10
392.2253909228
 20
230.1999845694
  0
LWPOLYLINE
  5
2AB
100
AcDbEntity
  8
0
100
AcDbPolyline
 62
7
  6
CONTINUOUS
 90
9
 70
0
 10
392.5930556239
 20
229.9396916544
 10
392.5904369513
 20
229.9401335889
 10
392.5868931001
 20
229.9405161883
 10
392.5824240704
 20
229.9408394524
 10
392.5767790843
 20
229.9411041228
 10
392.5702089197
 20
229.941309458
 10
392.56346591
 20
229.9414532338
 10
392.5568785235
 20
229.9415164019
 10
392.4779137218
 20
229.9415301186
  0
LINE
  5
2AC
100
AcDbEntity
  8
0
100
AcDbLine
 62
7
  6
CONTINUOUS
 10
399.3742563438
 20
228.9064312226
 11
399.5584311199
 21
228.8736891396
  0
LINE
  5
2AD
100
AcDbEntity
  8
0
100
AcDbLine
 62
7
  6
CONTINUOUS
 10
392.6650081706
 20
229.9178015473
 11
392.5930556239
 21
229.9396916544
  0
LINE
  5
2AE
100
AcDbEntity
  8
0
100
AcDbLine
 62
7
  6
CONTINUOUS
 10
392.9129741842
 20
229.8409630659
 11
392.6650081706
 21
229.9178015473
  0
LINE
  5
2AF
100
AcDbEntity
  8
0
100
AcDbLine
 62
7
  6
CONTINUOUS
 10
388.8467921352
 20
232.870659133
 11
388.8097516503
 21
232.8829959287
  0
LWPOLYLINE
  5
2B0
100
AcDbEntity
  8
0
100
AcDbPolyline
 62
250
  6
CONTINUOUS
 90
13
 70
0
 10
392.843349538
 20
231.0817829524
 10
392.8411877555
 20
231.0827343821
 10
392.8389131258
 20
231.0836211531
 10
392.8365256489
 20
231.0844432655
 10
392.8340498011
 20
231.0852005758
 10
392.8314611061
 20
231.0858932275
 10
392.8286861348
 20
231.0865216509
 10
392.8256997977
 20
231.0870983004
 10
392.8225271843
 20
231.0876107216
 10
392.8191701338
 20
231.0880219824
 10
392.8156292593
 20
231.088319772
 10
392.8119039476
 20
231.0885164012
 10
392.8079941989
 20
231.0886118699
  0
LINE
  5
2B1
100
AcDbEntity
  8
0
100
AcDbLine
 62
250
  6
CONTINUOUS
 10
393.2901053298
 20
230.8734573053
 11
392.843349538
 21
231.0817829524
  0
LINE
  5
2B2
100
AcDbEntity
  8
0
100
AcDbLine
 62
250
  6
CONTINUOUS
 10
393.396171347
 20
231.0094034734
 11
392.9494167411
 21
231.2177285674
  0
LINE
  5
2B3
100
AcDbEntity
  8
0
100
AcDbLine
 62
7
  6
CONTINUOUS
 10
393.1988795252
 20
230.8677989942
 11
393.004128065
 21
230.9609474738
  0
LWPOLYLINE
  5
2B4
100
AcDbEntity
  8
0
100
AcDbPolyline
 62
250
  6
CONTINUOUS
 90
19
 70
0
 10
387.744425782
 20
221.8492620142
 10
387.7494928818
 20
221.8042741622
 10
387.758546464
 20
221.7602413561
 10
387.7714058408
 20
221.7174965374
 10
387.7879772792
 20
221.6761245261
 10
387.807961774
 20
221.6366541773
 10
387.8306735065
 20
221.5999731064
 10
387.8556179211
 20
221.566369407
 10
387.8824785958
 20
221.5357630346
 10
387.9106509419
 20
221.5083062161
 10
387.9393645709
 20
221.4842572962
 10
387.9686329137
 20
221.4631913525
 10
387.9991696277
 20
221.444341114
 10
388.0307236015
 20
221.4277865601
 10
388.0632018902
 20
221.4135742558
 10
388.0977869681
 20
221.4013222608
 10
388.1348269787
 20
221.3912371589
 10
388.1737222345
 20
221.3838229221
 10
388.2142701919
 20
221.3794138033
  0
LWPOLYLINE
  5
2B5
100
AcDbEntity
  8
0
100
AcDbPolyline
 62
250
  6
CONTINUOUS
 90
19
 70
0
 10
388.0263316677
 20
221.8492601137
 10
388.0273414172
 20
221.8299058955
 10
388.0299347792
 20
221.8113332361
 10
388.0341117537
 20
221.7935421354
 10
388.0400438208
 20
221.7763604714
 10
388.0475595005
 20
221.7599603662
 10
388.0561443526
 20
221.7448581861
 10
388.0658181802
 20
221.7312097285
 10
388.0765611802
 20
221.718859196
 10
388.0877995037
 20
221.707855563
 10
388.0993242821
 20
221.6983207129
 10
388.1113443839
 20
221.6901327622
 10
388.1239125659
 20
221.6829750343
 10
388.1369229566
 20
221.6767311704
 10
388.1504814275
 20
221.6715175292
 10
388.1649583493
 20
221.6673665106
 10
388.1804771792
 20
221.6642889144
 10
388.19691446
 20
221.6622739407
 10
388.2142701919
 20
221.6613215895
  0
LWPOLYLINE
  5
2B6
100
AcDbEntity
  8
0
100
AcDbPolyline
 62
7
  6
CONTINUOUS
 90
10
 70
0
 10
392.2253909228
 20
255.6040204126
 10
392.2303370644
 20
255.6132212745
 10
392.2399847648
 20
255.6218450018
 10
392.2537762797
 20
255.6291924118
 10
392.2709768117
 20
255.6346184843
 10
392.2909300347
 20
255.6378248165
 10
392.3132331542
 20
255.6387219548
 10
392.3373579179
 20
255.6370703738
 10
392.3625315457
 20
255.6326175744
 10
392.3880735304
 20
255.6252917005
  0
LWPOLYLINE
  5
2B7
100
AcDbEntity
  8
0
100
AcDbPolyline
 62
250
  6
CONTINUOUS
 90
16
 70
0
 10
392.4389989569
 20
256.6385186403
 10
392.4459761827
 20
256.6485845629
 10
392.4543181464
 20
256.6576082892
 10
392.4638616007
 20
256.6653998191
 10
392.474423932
 20
256.671778524
 10
392.4857804682
 20
256.6766263745
 10
392.4976927011
 20
256.6798994238
 10
392.5099408283
 20
256.6815545592
 10
392.5223025042
 20
256.6815418826
 10
392.534546491
 20
256.6798616476
 10
392.5464564074
 20
256.6765621761
 10
392.55780608
 20
256.6716881107
 10
392.568341799
 20
256.6652953965
 10
392.5778395309
 20
256.6575129364
 10
392.5861292498
 20
256.6485230482
 10
392.5930558916
 20
256.6385184715
  0
LINE
  5
2B8
100
AcDbEntity
  8
0
100
AcDbLine
 62
250
  6
CONTINUOUS
 10
392.2411132566
 20
253.2157069032
 11
392.1142374618
 21
253.0888311084
  0
LWPOLYLINE
  5
2B9
100
AcDbEntity
  8
0
100
AcDbPolyline
 62
7
  6
CONTINUOUS
 90
43
 70
0
 10
401.9502551156
 20
261.7995225349
 10
401.970895693
 20
261.8169194458
 10
401.9813997904
 20
261.8260496432
 10
401.9920004095
 20
261.835656749
 10
402.0027382586
 20
261.8457070386
 10
402.0135726294
 20
261.8562342345
 10
402.0243813548
 20
261.8674413827
 10
402.0351818918
 20
261.8793490086
 10
402.0459567833
 20
261.8919365832
 10
402.0565314912
 20
261.9053455705
 10
402.0668888006
 20
261.9196006365
 10
402.0770459263
 20
261.9346771099
 10
402.0868799748
 20
261.9506424472
 10
402.0964122525
 20
261.9675249268
 10
402.1056214529
 20
261.9852962637
 10
402.1143207629
 20
262.0039390687
 10
402.1225140475
 20
262.0234315775
 10
402.1301974417
 20
262.043795547
 10
402.1371725379
 20
262.0650788683
 10
402.1434465734
 20
262.0872480411
 10
402.1490123109
 20
262.1103365567
 10
402.1536496313
 20
262.1344927936
 10
402.1573832083
 20
262.1597575208
 10
402.1601883682
 20
262.1860899569
 10
402.1617709703
 20
262.2135161532
 10
402.1621965418
 20
262.2420742304
 10
402.1613995555
 20
262.2717260535
 10
402.1588892897
 20
262.3023832895
 10
402.1547121973
 20
262.3342935778
 10
402.1488218254
 20
262.3672092633
 10
402.1405880928
 20
262.4002990773
 10
402.1298802587
 20
262.4335842285
 10
402.116829064
 20
262.4670435052
 10
402.1011966495
 20
262.4997820213
 10
402.0828812382
 20
262.5317599186
 10
402.0619846071
 20
262.5630170662
 10
402.0385742289
 20
262.5927781817
 10
402.0124144992
 20
262.6211596628
 10
401.9837410223
 20
262.6480451315
 10
401.9533280832
 20
262.672310153
 10
401.9214337769
 20
262.6935799281
 10
401.8878000084
 20
262.7122292853
 10
401.8524267777
 20
262.7282582361
  0
LINE
  5
2BA
100
AcDbEntity
  8
0
100
AcDbLine
 62
7
  6
CONTINUOUS
 10
408.3755174838
 20
259.7735184706
 11
408.4223157028
 21
259.7891052014
  0
LWPOLYLINE
  5
2BB
100
AcDbEntity
  8
0
100
AcDbPolyline
 62
250
  6
CONTINUOUS
 90
13
 70
0
 10
393.05567514
 20
229.999722806
 10
393.0739552956
 20
230.0022859944
 10
393.0919364835
 20
230.0080706534
 10
393.1093249258
 20
230.0169821188
 10
393.1258356903
 20
230.0288739291
 10
393.1412000526
 20
230.0435520776
 10
393.1551692131
 20
230.0607796358
 10
393.1675186563
 20
230.0802840462
 10
393.178039952
 20
230.1017410184
 10
393.1865526913
 20
230.1247766788
 10
393.1929213141
 20
230.1490029776
 10
393.1970507342
 20
230.1740299006
 10
393.1988795252
 20
230.1994487129
  0
LWPOLYLINE
  5
2BC
100
AcDbEntity
  8
0
100
AcDbPolyline
 62
250
  6
CONTINUOUS
 90
13
 70
0
 10
392.8609236799
 20
230.010191656
 10
392.8792121244
 20
230.0127567531
 10
392.8972002696
 20
230.0185458396
 10
392.9145940565
 20
230.0274636078
 10
392.9311084888
 20
230.0393630046
 10
392.9464746545
 20
230.0540492809
 10
392.9604435273
 20
230.0712844644
 10
392.972791391
 20
230.0907962399
 10
392.9833094443
 20
230.1122588665
 10
392.9918164917
 20
230.1352940215
 10
392.9981782883
 20
230.1595114208
 10
393.0023020243
 20
230.1845220517
 10
393.004128065
 20
230.209917563
  0
LINE
  5
2BD
100
AcDbEntity
  8
0
100
AcDbLine
 62
7
  6
CONTINUOUS
 10
393.2577933746
 20
230.7469209675
 11
393.3086392401
 21
230.7532739937
  0
LWPOLYLINE
  5
2BE
100
AcDbEntity
  8
0
100
AcDbPolyline
 62
250
  6
CONTINUOUS
 90
19
 70
0
 10
403.8175532834
 20
231.0094034734
 10
403.8126017866
 20
231.0088049818
 10
403.8077664515
 20
231.0081769959
 10
403.8030622329
 20
231.0075195159
 10
403.7985158478
 20
231.0068343967
 10
403.7941305499
 20
231.0061197834
 10
403.78989193
 20
231.0053701105
 10
403.7858198519
 20
231.0045849079
 10
403.781939676
 20
231.0037646458
 10
403.7782562143
 20
231.0029051685
 10
403.7747982734
 20
231.0020058988
 10
403.7715964789
 20
231.001067414
 10
403.7686693291
 20
231.0000872904
 10
403.7660533078
 20
230.9990648449
 10
403.763787374
 20
230.9980007606
 10
403.7619047589
 20
230.9968946632
 10
403.7604486635
 20
230.9957464278
 10
403.7594668669
 20
230.9945561793
 10
403.7590051006
 20
230.9933239176
  0
LWPOLYLINE
  5
2BF
100
AcDbEntity
  8
0
100
AcDbPolyline
 62
250
  6
CONTINUOUS
 90
10
 70
0
 10
404.8228169435
 20
230.9781361197
 10
404.8484714509
 20
230.9806587002
 10
404.8733684193
 20
230.987122031
 10
404.8967724736
 20
230.9973352941
 10
404.9179923286
 20
231.0109969051
 10
404.9364011426
 20
231.0277034178
 10
404.9514550645
 20
231.0469614092
 10
404.9627093858
 20
231.0682020683
 10
404.9698316487
 20
231.0907980216
 10
404.9726114233
 20
231.1140818465
  0
LWPOLYLINE
  5
2C0
100
AcDbEntity
  8
0
100
AcDbPolyline
 62
250
  6
CONTINUOUS
 90
10
 70
0
 10
393.3047423755
 20
230.8573777495
 10
393.3306652976
 20
230.8595970873
 10
393.3558079232
 20
230.8658416763
 10
393.3794134457
 20
230.8759235498
 10
393.4007713266
 20
230.8895392367
 10
393.4192386824
 20
230.9062788967
 10
393.4342596363
 20
230.9256386566
 10
393.4453820506
 20
230.9470357763
 10
393.4522711365
 20
230.9698261907
 10
393.4547195306
 20
230.9933238961
  0
LWPOLYLINE
  5
2C1
100
AcDbEntity
  8
0
100
AcDbPolyline
 62
250
  6
CONTINUOUS
 90
13
 70
0
 10
393.05567514
 20
229.999722806
 10
393.0817851846
 20
230.0014564619
 10
393.1074464005
 20
230.0065796298
 10
393.1322196225
 20
230.0150039009
 10
393.1556800985
 20
230.0265838552
 10
393.1774277097
 20
230.0411209613
 10
393.1970930363
 20
230.0583681824
 10
393.2143456027
 20
230.0780391442
 10
393.2288811271
 20
230.0997908645
 10
393.2404393096
 20
230.1232248568
 10
393.2488295434
 20
230.1479267637
 10
393.253923459
 20
230.1734803033
 10
393.2556446791
 20
230.1994487129
  0
LWPOLYLINE
  5
2C2
100
AcDbEntity
  8
0
100
AcDbPolyline
 62
250
  6
CONTINUOUS
 90
9
 70
0
 10
392.3111024265
 20
230.2059430743
 10
392.2937452932
 20
230.2053181218
 10
392.2781986185
 20
230.2046658439
 10
392.2645511472
 20
230.2039912929
 10
392.2528461365
 20
230.2032894166
 10
392.2427720591
 20
230.2025398433
 10
392.234548012
 20
230.2017357824
 10
392.2286459414
 20
230.2008840244
 10
392.2253909228
 20
230.1999845694
  0
LINE
  5
2C3
100
AcDbEntity
  8
0
100
AcDbLine
 62
250
  6
CONTINUOUS
 10
392.3535827118
 20
230.2071375826
 11
392.3111024265
 21
230.2059430743
  0
LWPOLYLINE
  5
2C4
100
AcDbEntity
  8
0
100
AcDbPolyline
 62
250
  6
CONTINUOUS
 90
19
 70
0
 10
392.6405650705
 20
231.0886118699
 10
392.6162965456
 20
231.0880039176
 10
392.5927965901
 20
231.0864268092
 10
392.570065204
 20
231.0838805448
 10
392.5478077368
 20
231.0802424422
 10
392.526318839
 20
231.0756351835
 10
392.506482462
 20
231.070426815
 10
392.4885867289
 20
231.0646260763
 10
392.4723435166
 20
231.0582242278
 10
392.457772407
 20
231.0515630972
 10
392.4450184863
 20
231.0447680541
 10
392.4339366682
 20
231.0377137289
 10
392.4241112766
 20
231.0303658407
 10
392.4153965243
 20
231.0227836664
 10
392.4079381984
 20
231.014907929
 10
392.4017579833
 20
231.0065265168
 10
392.3968631071
 20
230.9975687259
 10
392.3932463416
 20
230.9881052602
 10
392.3909076868
 20
230.9781361197
  0
LWPOLYLINE
  5
2C5
100
AcDbEntity
  8
0
100
AcDbPolyline
 62
250
  6
CONTINUOUS
 90
15
 70
0
 10
404.3762551196
 20
231.2243033583
 10
404.3686872007
 20
231.2241557589
 10
404.360998938
 20
231.2239674586
 10
404.35320089
 20
231.2237390997
 10
404.3453166569
 20
231.2234700399
 10
404.3373244915
 20
231.2231518715
 10
404.3292444573
 20
231.2227848005
 10
404.3211056708
 20
231.2223686209
 10
404.3129067731
 20
231.2218943075
 10
404.3046773097
 20
231.2213618319
 10
404.2964564758
 20
231.2207712225
 10
404.2882652738
 20
231.2201135385
 10
404.2801418261
 20
231.2193857997
 10
404.2721395056
 20
231.2185909863
 10
404.2643088679
 20
231.2177290983
  0
LWPOLYLINE
  5
2C6
100
AcDbEntity
  8
0
100
AcDbPolyline
 62
250
  6
CONTINUOUS
 90
19
 70
0
 10
392.6405650705
 20
231.2245580349
 10
392.6022549029
 20
231.2239487127
 10
392.5645444051
 20
231.2223706866
 10
392.5277655008
 20
231.2198239567
 10
392.4919475533
 20
231.2161860357
 10
392.4576882093
 20
231.2115794109
 10
392.4260330855
 20
231.2063715442
 10
392.3973183354
 20
231.2005709461
 10
392.3713309293
 20
231.1941691061
 10
392.3480969983
 20
231.1875079554
 10
392.3277955745
 20
231.1807127396
 10
392.310061729
 20
231.1736582129
 10
392.2942391815
 20
231.1663105695
 10
392.2804108146
 20
231.158729628
 10
392.2685976958
 20
231.1508555697
 10
392.2584735296
 20
231.1424751327
 10
392.2502411542
 20
231.1335172297
 10
392.2443531673
 20
231.1240529481
 10
392.2411132566
 20
231.1140822878
  0
LWPOLYLINE
  5
2C7
100
AcDbEntity
  8
0
100
AcDbPolyline
 62
250
  6
CONTINUOUS
 90
19
 70
0
 10
404.4057304314
 20
231.0886118699
 10
404.4039200235
 20
231.0885990258
 10
404.4020882538
 20
231.088551944
 10
404.4002351225
 20
231.0884706246
 10
404.3983620662
 20
231.0883572163
 10
404.3964676483
 20
231.0882095703
 10
404.3945475584
 20
231.0880212402
 10
404.3925986848
 20
231.0877928689
 10
404.3906241392
 20
231.0875238136
 10
404.3886289465
 20
231.0872056992
 10
404.3866099707
 20
231.0868388164
 10
404.3845703478
 20
231.0864228746
 10
404.382524511
 20
231.0859486276
 10
404.3804688553
 20
231.085415856
 10
404.3784069857
 20
231.0848247791
 10
404.3763641498
 20
231.0841668092
 10
404.3743487636
 20
231.0834390834
 10
404.3723524111
 20
231.0826444645
 10
404.3703750924
 20
231.0817829524
  0
LWPOLYLINE
  5
2C8
100
AcDbEntity
  8
0
100
AcDbPolyline
 62
250
  6
CONTINUOUS
 90
3
 70
0
 10
404.3985080493
 20
231.2245451578
 10
404.3911774415
 20
231.2244980577
 10
404.3762551196
 20
231.2243033583
  0
LINE
  5
2C9
100
AcDbEntity
  8
0
100
AcDbLine
 62
7
  6
CONTINUOUS
 10
404.5888818936
 20
230.9891052014
 11
404.3528009504
 21
230.9891052014
  0
LINE
  5
2CA
100
AcDbEntity
  8
0
100
AcDbLine
 62
7
  6
CONTINUOUS
 10
392.8609236799
 20
230.9891052014
 11
392.6248427367
 21
230.9891052014
  0
LINE
  5
2CB
100
AcDbEntity
  8
0
100
AcDbLine
 62
250
  6
CONTINUOUS
 10
404.5731595598
 20
231.0886118699
 11
404.4057304314
 21
231.0886118699
  0
LINE
  5
2CC
100
AcDbEntity
  8
0
100
AcDbLine
 62
250
  6
CONTINUOUS
 10
392.8079941989
 20
231.0886118699
 11
392.6405650705
 21
231.0886118699
  0
LINE
  5
2CD
100
AcDbEntity
  8
0
100
AcDbLine
 62
250
  6
CONTINUOUS
 10
404.5731595598
 20
231.224558038
 11
404.3985080493
 21
231.2245451578
  0
LINE
  5
2CE
100
AcDbEntity
  8
0
100
AcDbLine
 62
250
  6
CONTINUOUS
 10
392.8079941989
 20
231.224558038
 11
392.6405650705
 21
231.224558038
  0
LWPOLYLINE
  5
2CF
100
AcDbEntity
  8
0
100
AcDbPolyline
 62
250
  6
CONTINUOUS
 90
13
 70
0
 10
404.1580494903
 20
229.999722806
 10
404.1319396437
 20
230.0014564357
 10
404.106278621
 20
230.0065795248
 10
404.0815055767
 20
230.0150036649
 10
404.0580452841
 20
230.0265834206
 10
404.0362978149
 20
230.041120275
 10
404.0166325002
 20
230.0583672763
 10
403.9993798116
 20
230.0780381226
 10
403.9848440982
 20
230.0997898341
 10
403.9732857074
 20
230.1232239238
 10
403.9648952827
 20
230.1479260342
 10
403.9598012263
 20
230.1734798883
 10
403.9580799513
 20
230.1994487129
  0
LWPOLYLINE
  5
2D0
100
AcDbEntity
  8
0
100
AcDbPolyline
 62
250
  6
CONTINUOUS
 90
10
 70
0
 10
403.9089822548
 20
230.8573777495
 10
403.8830593424
 20
230.8595970876
 10
403.8579167236
 20
230.8658416748
 10
403.8343112045
 20
230.8759235458
 10
403.8129533241
 20
230.8895392305
 10
403.7944859659
 20
230.9062788898
 10
403.7794650073
 20
230.9256386514
 10
403.7683425873
 20
230.9470357765
 10
403.7614534966
 20
230.9698261998
 10
403.7590051006
 20
230.9933239176
  0
LWPOLYLINE
  5
2D1
100
AcDbEntity
  8
0
100
AcDbPolyline
 62
250
  6
CONTINUOUS
 90
10
 70
0
 10
392.3909076868
 20
230.9781361197
 10
392.3652525263
 20
230.9806588163
 10
392.3403551369
 20
230.987122407
 10
392.3169509095
 20
230.997335977
 10
392.2957311288
 20
231.010997825
 10
392.2773225633
 20
231.0277044441
 10
392.2622689518
 20
231.0469624403
 10
392.2510149335
 20
231.0682030151
 10
392.2438929143
 20
231.090798766
 10
392.2411132566
 20
231.1140822878
  0
LWPOLYLINE
  5
2D2
100
AcDbEntity
  8
0
100
AcDbPolyline
 62
250
  6
CONTINUOUS
 90
13
 70
0
 10
392.9494167411
 20
231.2177289952
 10
392.9408161882
 20
231.2186806073
 10
392.9317086632
 20
231.219567447
 10
392.9221200034
 20
231.2203895142
 10
392.9121933834
 20
231.2211466515
 10
392.9018525522
 20
231.2218390164
 10
392.8907619092
 20
231.2224670815
 10
392.8788250636
 20
231.2230431555
 10
392.8661535429
 20
231.2235549298
 10
392.8526978791
 20
231.2239659505
 10
392.8384686956
 20
231.2242640665
 10
392.8235439781
 20
231.224461429
 10
392.8079941989
 20
231.224558038
  0
LINE
  5
2D3
100
AcDbEntity
  8
0
100
AcDbLine
 62
7
  6
CONTINUOUS
 10
403.9050853902
 20
230.7532739937
 11
403.9559312557
 21
230.7469209675
  0
LWPOLYLINE
  5
2D4
100
AcDbEntity
  8
0
100
AcDbPolyline
 62
250
  6
CONTINUOUS
 90
16
 70
0
 10
408.2841926354
 20
229.1793366117
 10
408.2782608041
 20
229.1801039449
 10
408.2729181997
 20
229.1808592111
 10
408.2681368178
 20
229.1816024103
 10
408.2638895272
 20
229.1823343547
 10
408.260146529
 20
229.1830542321
 10
408.2568766185
 20
229.1837596057
 10
408.2540520165
 20
229.1844503176
 10
408.2516460786
 20
229.1851265257
 10
408.2496310099
 20
229.1857862672
 10
408.2479804287
 20
229.1864293889
 10
408.2466688518
 20
229.187056044
 10
408.2456709078
 20
229.1876647294
 10
408.2449618199
 20
229.188254944
 10
408.2445174097
 20
229.1888271889
 10
408.2443140941
 20
229.1893814641
  0
LWPOLYLINE
  5
2D5
100
AcDbEntity
  8
0
100
AcDbPolyline
 62
250
  6
CONTINUOUS
 90
13
 70
0
 10
404.1580494903
 20
229.999722806
 10
404.1397692259
 20
230.0022860195
 10
404.1217879351
 20
230.0080707414
 10
404.1043994008
 20
230.0169823052
 10
404.087888545
 20
230.0288742584
 10
404.072524114
 20
230.043552582
 10
404.0585549492
 20
230.060780289
 10
404.0462055689
 20
230.0802847718
 10
404.0356843697
 20
230.1017417401
 10
404.0271717356
 20
230.1247773251
 10
404.0208032093
 20
230.1490034794
 10
404.0166738626
 20
230.1740301846
 10
404.0148451052
 20
230.1994487129
  0
LWPOLYLINE
  5
2D6
100
AcDbEntity
  8
0
100
AcDbPolyline
 62
250
  6
CONTINUOUS
 90
13
 70
0
 10
404.3528009504
 20
230.010191656
 10
404.3345126567
 20
230.0127567183
 10
404.3165246582
 20
230.0185457159
 10
404.2991310065
 20
230.0274633422
 10
404.2826167134
 20
230.0393625277
 10
404.2672506566
 20
230.0540485401
 10
404.2532817971
 20
230.0712834954
 10
404.2409338472
 20
230.0907951506
 10
404.2304156562
 20
230.1122577666
 10
404.2219084525
 20
230.135293024
 10
404.2155465082
 20
230.1595106405
 10
404.2114226585
 20
230.1845216074
 10
404.2095965653
 20
230.209917563
  0
LWPOLYLINE
  5
2D7
100
AcDbEntity
  8
0
100
AcDbPolyline
 62
7
  6
CONTINUOUS
 90
8
 70
0
 10
388.8467921352
 20
232.870659133
 10
388.8500545117
 20
232.8701241303
 10
388.8561823643
 20
232.8696074379
 10
388.865175693
 20
232.8691090556
 10
388.8771931759
 20
232.8686240869
 10
388.892076135
 20
232.8681574284
 10
388.9093485353
 20
232.8677237696
 10
388.9511452409
 20
232.8669584264
  0
LWPOLYLINE
  5
2D8
100
AcDbEntity
  8
0
100
AcDbPolyline
 62
7
  6
CONTINUOUS
 90
8
 70
0
 10
404.774725508
 20
229.9396916545
 10
404.7722615053
 20
229.9401291859
 10
404.7687494853
 20
229.9405099406
 10
404.7641894482
 20
229.9408339189
 10
404.7584087164
 20
229.9411038057
 10
404.7515799674
 20
229.941316916
 10
404.7442212334
 20
229.9414651942
 10
404.736333103
 20
229.9415261143
  0
LWPOLYLINE
  5
2D9
100
AcDbEntity
  8
0
100
AcDbPolyline
 62
250
  6
CONTINUOUS
 90
16
 70
0
 10
408.4682336035
 20
229.3785755513
 10
408.4647027318
 20
229.3793428506
 10
408.4614915681
 20
229.3800980979
 10
408.4586001124
 20
229.3808412935
 10
408.456045721
 20
229.381573259
 10
408.4538110376
 20
229.3822931727
 10
408.4518439935
 20
229.3829985688
 10
408.4501434342
 20
229.3836892724
 10
408.4487105143
 20
229.3843654585
 10
408.4474966281
 20
229.3850251867
 10
408.4465007343
 20
229.3856683156
 10
408.4457238744
 20
229.3862949865
 10
408.445120567
 20
229.3869036824
 10
408.4446756517
 20
229.3874938978
 10
408.4444042889
 20
229.3880661382
 10
408.4443064787
 20
229.3886204037
  0
LWPOLYLINE
  5
2DA
100
AcDbEntity
  8
0
100
AcDbPolyline
 62
7
  6
CONTINUOUS
 90
10
 70
0
 10
400.0515067015
 20
229.2418325698
 10
400.0275336523
 20
229.25312293
 10
400.0033545979
 20
229.2630578343
 10
399.9789695382
 20
229.2716372805
 10
399.9544839809
 20
229.2788392232
 10
399.9297924185
 20
229.2846857041
 10
399.904578328
 20
229.2892428521
 10
399.8787362021
 20
229.2925327096
 10
399.8523715482
 20
229.2945332324
 10
399.8254843663
 20
229.2952444202
  0
LWPOLYLINE
  5
2DB
100
AcDbEntity
  8
0
100
AcDbPolyline
 62
250
  6
CONTINUOUS
 90
16
 70
0
 10
392.4408391636
 20
233.5622294067
 10
392.4430585928
 20
233.5611666107
 10
392.4470516126
 20
233.5601453371
 10
392.4528182228
 20
233.5591655857
 10
392.4604170818
 20
233.5582223031
 10
392.4697895312
 20
233.5573205428
 10
392.4807595967
 20
233.5564754654
 10
392.493340071
 20
233.5556847383
 10
392.5075181613
 20
233.554950694
 10
392.5230795142
 20
233.5542954911
 10
392.5401194333
 20
233.5537179173
 10
392.5585426151
 20
233.5532191849
 10
392.577848796
 20
233.5528250888
 10
392.5978712216
 20
233.5525442272
 10
392.6187766465
 20
233.552368002
 10
392.8079941989
 20
233.552296413
  0
LINE
  5
2DC
100
AcDbEntity
  8
0
100
AcDbLine
 62
250
  6
CONTINUOUS
 10
392.1142374618
 20
233.4893792945
 11
392.2411132566
 21
233.3625034997
  0
LWPOLYLINE
  5
2DD
100
AcDbEntity
  8
0
100
AcDbPolyline
 62
7
  6
CONTINUOUS
 90
7
 70
0
 10
392.0951589898
 20
229.9365059397
 10
392.0864042104
 20
229.9523916567
 10
392.0791171904
 20
229.9690345987
 10
392.0733656887
 20
229.9863006611
 10
392.0692052689
 20
230.0040494603
 10
392.0666786896
 20
230.0221354402
 10
392.0658153932
 20
230.0404090397
  0
LINE
  5
2DE
100
AcDbEntity
  8
0
100
AcDbLine
 62
7
  6
CONTINUOUS
 10
392.9947113152
 20
224.3522072014
 11
392.6360833152
 21
225.4141052014
  0
LINE
  5
2DF
100
AcDbEntity
  8
0
100
AcDbLine
 62
7
  6
CONTINUOUS
 10
392.5577233152
 20
225.2122252014
 11
392.9094243152
 21
224.1641052014
  0
LINE
  5
2E0
100
AcDbEntity
  8
0
100
AcDbLine
 62
250
  6
CONTINUOUS
 10
388.8296278693
 20
264.1391052014
 11
388.8367298427
 21
260.6041998978
  0
LINE
  5
2E1
100
AcDbEntity
  8
0
100
AcDbLine
 62
250
  6
CONTINUOUS
 10
388.8382071465
 20
259.7735184706
 11
388.8467921352
 21
253.7075512699
  0
LINE
  5
2E2
100
AcDbEntity
  8
0
100
AcDbLine
 62
250
  6
CONTINUOUS
 10
388.8476921271
 20
252.8511647246
 11
388.8487010552
 21
251.7891052014
  0
LINE
  5
2E3
100
AcDbEntity
  8
0
100
AcDbLine
 62
7
  6
CONTINUOUS
 10
387.5842842891
 20
221.719503063
 11
387.5842842891
 21
264.8587073399
  0
LINE
  5
2E4
100
AcDbEntity
  8
0
100
AcDbLine
 62
7
  6
CONTINUOUS
 10
387.6342842891
 20
264.8390898816
 11
387.6342842891
 21
221.7391205213
  0
LINE
  5
2E5
100
AcDbEntity
  8
0
100
AcDbLine
 62
250
  6
CONTINUOUS
 10
387.7444238815
 20
264.7289502892
 11
387.7444238815
 21
221.8492601137
  0
LINE
  5
2E6
100
AcDbEntity
  8
0
100
AcDbLine
 62
250
  6
CONTINUOUS
 10
388.0263316677
 20
264.7289502892
 11
388.0263316677
 21
221.8492601137
  0
LINE
  5
2E7
100
AcDbEntity
  8
0
100
AcDbLine
 62
250
  6
CONTINUOUS
 10
388.2142701919
 20
221.6613215895
 11
388.2142701919
 21
221.3794138033
  0
LINE
  5
2E8
100
AcDbEntity
  8
0
100
AcDbLine
 62
250
  6
CONTINUOUS
 10
388.2142701919
 20
264.9168888134
 11
388.2142701919
 21
265.1987965996
  0
LINE
  5
2E9
100
AcDbEntity
  8
0
100
AcDbLine
 62
7
  6
CONTINUOUS
 10
388.7468623152
 20
264.1391052014
 11
388.7468623152
 21
222.4391052014
  0
LINE
  5
2EA
100
AcDbEntity
  8
0
100
AcDbLine
 62
7
  6
CONTINUOUS
 10
388.7914089276
 20
260.5891052014
 11
388.7914089276
 21
259.7891052014
  0
LINE
  5
2EB
100
AcDbEntity
  8
0
100
AcDbLine
 62
7
  6
CONTINUOUS
 10
388.7914089276
 20
226.7891052014
 11
388.7914089276
 21
225.9891052014
  0
LINE
  5
2EC
100
AcDbEntity
  8
0
100
AcDbLine
 62
7
  6
CONTINUOUS
 10
388.8097516503
 20
253.6952144742
 11
388.8097516503
 21
252.8891052014
  0
LINE
  5
2ED
100
AcDbEntity
  8
0
100
AcDbLine
 62
7
  6
CONTINUOUS
 10
388.8097516503
 20
233.6891052014
 11
388.8097516503
 21
232.8829959287
  0
LINE
  5
2EE
100
AcDbEntity
  8
0
100
AcDbLine
 62
250
  6
CONTINUOUS
 10
388.8487010567
 20
234.7891052014
 11
388.8476921271
 21
233.7270456783
  0
LINE
  5
2EF
100
AcDbEntity
  8
0
100
AcDbLine
 62
250
  6
CONTINUOUS
 10
388.8467921352
 20
232.870659133
 11
388.8382071465
 21
226.8046919323
  0
LINE
  5
2F0
100
AcDbEntity
  8
0
100
AcDbLine
 62
250
  6
CONTINUOUS
 10
388.8367298427
 20
225.974010505
 11
388.829627871
 21
222.4391052014
  0
LINE
  5
2F1
100
AcDbEntity
  8
0
100
AcDbLine
 62
250
  6
CONTINUOUS
 10
392.4408391636
 20
253.0159809962
 11
392.3139633688
 21
252.8891052014
  0
LINE
  5
2F2
100
AcDbEntity
  8
0
100
AcDbLine
 62
7
  6
CONTINUOUS
 10
404.8819325654
 20
256.6712765052
 11
404.8094140798
 21
256.6490080047
  0
LINE
  5
2F3
100
AcDbEntity
  8
0
100
AcDbLine
 62
7
  6
CONTINUOUS
 10
404.8094140798
 20
256.6490080047
 11
404.7747255808
 21
256.6385187562
  0
LWPOLYLINE
  5
2F4
100
AcDbEntity
  8
0
100
AcDbPolyline
 62
7
  6
CONTINUOUS
 90
43
 70
0
 10
404.8819325654
 20
256.6712765052
 10
404.8909240806
 20
256.6739430816
 10
404.8996926188
 20
256.6763337455
 10
404.9082330662
 20
256.6784602975
 10
404.9165314875
 20
256.6803314362
 10
404.9245936508
 20
256.68196201
 10
404.9324447687
 20
256.6833713359
 10
404.9400815572
 20
256.684569223
 10
404.9475020959
 20
256.6855651957
 10
404.9547338391
 20
256.686374952
 10
404.9617739847
 20
256.6870065363
 10
404.9686219741
 20
256.6874674726
 10
404.9753083413
 20
256.6877694265
 10
404.9818313749
 20
256.6879187418
 10
404.9881902333
 20
256.6879208484
 10
404.9944160137
 20
256.6877827387
 10
405.0005123814
 20
256.6875086608
 10
405.0064729891
 20
256.6871024347
 10
405.0123131527
 20
256.686567977
 10
405.0180347478
 20
256.6859083357
 10
405.0236333019
 20
256.6851269014
 10
405.0291142472
 20
256.6842270145
 10
405.0344765195
 20
256.6832116933
 10
405.0397189705
 20
256.6820838405
 10
405.0448467207
 20
256.6808460615
 10
405.0498583827
 20
256.6795012363
 10
405.0547533523
 20
256.678051853
 10
405.0595376421
 20
256.6764993479
 10
405.0642097794
 20
256.6748464092
 10
405.0687692448
 20
256.67309509
 10
405.0732230229
 20
256.6712451956
 10
405.0775703214
 20
256.6692987681
 10
405.0818096406
 20
256.6672577843
 10
405.0859463449
 20
256.6651212902
 10
405.0899792046
 20
256.6628911907
 10
405.0939068287
 20
256.6605691009
 10
405.0977337505
 20
256.6581530638
 10
405.1014577892
 20
256.655645347
 10
405.1050780797
 20
256.6530468256
 10
405.1086003251
 20
256.6503528278
 10
405.1120248759
 20
256.6475625014
 10
405.1153473004
 20
256.6446792452
 10
405.1185656406
 20
256.6417044631
  0
LWPOLYLINE
  5
2F5
100
AcDbEntity
  8
0
100
AcDbPolyline
 62
7
  6
CONTINUOUS
 90
10
 70
0
 10
404.8256510999
 20
255.6252917005
 10
404.8511928801
 20
255.632617525
 10
404.8763663218
 20
255.6370703236
 10
404.9004909328
 20
255.6387219467
 10
404.9227938936
 20
255.6378248821
 10
404.9427470299
 20
255.6346186595
 10
404.9599476736
 20
255.6291926865
 10
404.9737394505
 20
255.6218452924
 10
404.9833874149
 20
255.6132214721
 10
404.9883337075
 20
255.6040204126
  0
LWPOLYLINE
  5
2F6
100
AcDbEntity
  8
0
100
AcDbPolyline
 62
250
  6
CONTINUOUS
 90
8
 70
0
 10
404.9726113737
 20
233.3625038067
 10
404.9682675549
 20
233.3614049678
 10
404.9599019027
 20
233.3603655167
 10
404.947906596
 20
233.3593854533
 10
404.9326410242
 20
233.3584590557
 10
404.9145499137
 20
233.3575920458
 10
404.8942465067
 20
233.3568015894
 10
404.8722913862
 20
233.356095098
  0
LWPOLYLINE
  5
2F7
100
AcDbEntity
  8
0
100
AcDbPolyline
 62
7
  6
CONTINUOUS
 90
7
 70
0
 10
408.3043760704
 20
232.8677237703
 10
408.3216484719
 20
232.8681574289
 10
408.3365314331
 20
232.8686240873
 10
408.3485489194
 20
232.8691090559
 10
408.3575422528
 20
232.8696074381
 10
408.3636701114
 20
232.8701241304
 10
408.3669324952
 20
232.870659133
  0
LWPOLYLINE
  5
2F8
100
AcDbEntity
  8
0
100
AcDbPolyline
 62
250
  6
CONTINUOUS
 90
4
 70
0
 10
404.6745406338
 20
233.5537396495
 10
404.6487242885
 20
233.5530688534
 10
404.6352994723
 20
233.5528088886
 10
404.6210726917
 20
233.5526016342
  0
LINE
  5
2F9
100
AcDbEntity
  8
0
100
AcDbLine
 62
250
  6
CONTINUOUS
 10
404.8722913862
 20
233.356095098
 11
404.824910334
 21
233.3549067076
  0
LINE
  5
2FA
100
AcDbEntity
  8
0
100
AcDbLine
 62
7
  6
CONTINUOUS
 10
408.2625793654
 20
232.8669584274
 11
408.3043760704
 21
232.8677237703
  0
LINE
  5
2FB
100
AcDbEntity
  8
0
100
AcDbLine
 62
250
  6
CONTINUOUS
 10
404.824910334
 20
233.3549067076
 11
404.7758823961
 21
233.3540135549
  0
LINE
  5
2FC
100
AcDbEntity
  8
0
100
AcDbLine
 62
7
  6
CONTINUOUS
 10
404.2568623152
 20
233.5895304208
 11
403.9557797245
 21
233.5853024317
  0
LINE
  5
2FD
100
AcDbEntity
  8
0
100
AcDbLine
 62
7
  6
CONTINUOUS
 10
408.2129230267
 20
232.8663565343
 11
408.2625793654
 21
232.8669584274
  0
LINE
  5
2FE
100
AcDbEntity
  8
0
100
AcDbLine
 62
250
  6
CONTINUOUS
 10
404.7758823961
 20
233.3540135549
 11
404.6974445356
 21
233.3530831057
  0
LINE
  5
2FF
100
AcDbEntity
  8
0
100
AcDbLine
 62
250
  6
CONTINUOUS
 10
404.6210726917
 20
233.5526016342
 11
404.5899325682
 21
233.5523454429
  0
LINE
  5
300
100
AcDbEntity
  8
0
100
AcDbLine
 62
7
  6
CONTINUOUS
 10
408.1279347303
 20
232.8658054578
 11
408.2129230267
 21
232.8663565343
  0
LINE
  5
301
100
AcDbEntity
  8
0
100
AcDbLine
 62
250
  6
CONTINUOUS
 10
404.6974445356
 20
233.3530831057
 11
404.6064809984
 21
233.3526196727
  0
LINE
  5
302
100
AcDbEntity
  8
0
100
AcDbLine
 62
7
  6
CONTINUOUS
 10
405.1514251432
 20
232.8656973381
 11
408.1279347303
 21
232.8658054578
  0
LINE
  5
303
100
AcDbEntity
  8
0
100
AcDbLine
 62
7
  6
CONTINUOUS
 10
388.8097516503
 20
232.8829959287
 11
392.1142374618
 21
232.8829959287
  0
LINE
  5
304
100
AcDbEntity
  8
0
100
AcDbLine
 62
7
  6
CONTINUOUS
 10
405.0994871685
 20
232.8829959287
 11
408.40397298
 21
232.8829959287
  0
LINE
  5
305
100
AcDbEntity
  8
0
100
AcDbLine
 62
250
  6
CONTINUOUS
 10
404.6064809984
 20
233.3526196727
 11
404.2643090752
 21
233.3525705061
  0
LINE
  5
306
100
AcDbEntity
  8
0
100
AcDbLine
 62
250
  6
CONTINUOUS
 10
403.8175532834
 20
233.375983985
 11
403.7590051006
 21
233.375983985
  0
LINE
  5
307
100
AcDbEntity
  8
0
100
AcDbLine
 62
250
  6
CONTINUOUS
 10
393.396171347
 20
233.375983985
 11
393.4547195298
 21
233.375983985
  0
LINE
  5
308
100
AcDbEntity
  8
0
100
AcDbLine
 62
250
  6
CONTINUOUS
 10
404.5899325682
 20
233.5523454429
 11
404.4057304314
 21
233.552296413
  0
LINE
  5
309
100
AcDbEntity
  8
0
100
AcDbLine
 62
7
  6
CONTINUOUS
 10
389.0857899184
 20
232.8658054567
 11
392.0622994871
 21
232.8656973381
  0
LINE
  5
30A
100
AcDbEntity
  8
0
100
AcDbLine
 62
250
  6
CONTINUOUS
 10
392.5557115451
 20
233.3528188294
 11
392.9494155551
 21
233.3525705061
  0
LINE
  5
30B
100
AcDbEntity
  8
0
100
AcDbLine
 62
7
  6
CONTINUOUS
 10
389.0008015788
 20
232.8663565331
 11
389.0857899184
 21
232.8658054567
  0
LINE
  5
30C
100
AcDbEntity
  8
0
100
AcDbLine
 62
250
  6
CONTINUOUS
 10
392.4763331848
 20
233.3534934907
 11
392.5557115451
 21
233.3528188294
  0
LINE
  5
30D
100
AcDbEntity
  8
0
100
AcDbLine
 62
7
  6
CONTINUOUS
 10
388.9511452409
 20
232.8669584264
 11
389.0008015788
 21
232.8663565331
  0
LINE
  5
30E
100
AcDbEntity
  8
0
100
AcDbLine
 62
7
  6
CONTINUOUS
 10
392.9568623152
 20
233.5895304208
 11
393.2579449058
 21
233.5853024317
  0
LWPOLYLINE
  5
30F
100
AcDbEntity
  8
0
100
AcDbPolyline
 62
250
  6
CONTINUOUS
 90
13
 70
0
 10
393.2547499907
 20
233.575709892
 10
393.2808608471
 20
233.5739761285
 10
393.3065227427
 20
233.5688526675
 10
393.3312964837
 20
233.5604279632
 10
393.3547572367
 20
233.5488475212
 10
393.376504951
 20
233.5343099018
 10
393.39617037
 20
233.5170620327
 10
393.4134232317
 20
233.4973899334
 10
393.4279588486
 20
233.4756368612
 10
393.4395164491
 20
233.4522023165
 10
393.4479056699
 20
233.4275011777
 10
393.4529986938
 20
233.4019494888
 10
393.4547195298
 20
233.375983985
  0
LWPOLYLINE
  5
310
100
AcDbEntity
  8
0
100
AcDbPolyline
 62
250
  6
CONTINUOUS
 90
13
 70
0
 10
392.8079941989
 20
233.552296413
 10
392.8260488051
 20
233.5497207535
 10
392.8438072251
 20
233.5439235615
 10
392.8609793567
 20
233.5350001761
 10
392.8772840236
 20
233.5230976079
 10
392.8924559053
 20
233.5084104906
 10
392.906249284
 20
233.4911766129
 10
392.9184432393
 20
233.4716683302
 10
392.9288318906
 20
233.4502108623
 10
392.937236666
 20
233.4271812089
 10
392.9435248064
 20
233.402968806
 10
392.9476041971
 20
233.3779625603
 10
392.9494155551
 20
233.3525705061
  0
LWPOLYLINE
  5
311
100
AcDbEntity
  8
0
100
AcDbPolyline
 62
250
  6
CONTINUOUS
 90
13
 70
0
 10
393.2547499907
 20
233.575709892
 10
393.2727980982
 20
233.5731357516
 10
393.2905511355
 20
233.5673420469
 10
393.3077192116
 20
233.558423568
 10
393.3240211543
 20
233.5465268482
 10
393.3391918034
 20
233.5318458892
 10
393.3529856688
 20
233.5146175237
 10
393.3651813445
 20
233.4951138865
 10
393.3755729042
 20
233.4736593211
 10
393.3839819607
 20
233.450628439
 10
393.3902748687
 20
233.4264094851
 10
393.3943581364
 20
233.4013918911
 10
393.396171347
 20
233.375983985
  0
LWPOLYLINE
  5
312
100
AcDbEntity
  8
0
100
AcDbPolyline
 62
250
  6
CONTINUOUS
 90
9
 70
0
 10
404.9883337075
 20
230.1999842544
 10
404.9842102956
 20
230.2010461656
 10
404.976273185
 20
230.2020574402
 10
404.9648144539
 20
230.2030180781
 10
404.950060607
 20
230.2039362363
 10
404.9323921033
 20
230.2048037579
 10
404.9125030275
 20
230.2055961719
 10
404.8910312646
 20
230.2063032498
 10
404.8444953148
 20
230.2074982974
  0
LWPOLYLINE
  5
313
100
AcDbEntity
  8
0
100
AcDbPolyline
 62
250
  6
CONTINUOUS
 90
11
 70
0
 10
392.2411132566
 20
233.3625034997
 10
392.245230736
 20
233.3614399096
 10
392.2532704534
 20
233.3604182086
 10
392.2650713642
 20
233.3594383967
 10
392.2803697721
 20
233.3584956625
 10
392.2989838716
 20
233.3575948174
 10
392.3209541321
 20
233.3567502958
 10
392.3461611357
 20
233.3559593218
 10
392.3743737333
 20
233.3552246712
 10
392.405593952
 20
233.354569107
 10
392.4763331848
 20
233.3534934907
  0
LINE
  5
314
100
AcDbEntity
  8
0
100
AcDbLine
 62
7
  6
CONTINUOUS
 10
404.8451494359
 20
229.9182832436
 11
404.774725508
 21
229.9396916545
  0
LINE
  5
315
100
AcDbEntity
  8
0
100
AcDbLine
 62
7
  6
CONTINUOUS
 10
404.8819325654
 20
229.9069338976
 11
404.8451494359
 21
229.9182832436
  0
LWPOLYLINE
  5
316
100
AcDbEntity
  8
0
100
AcDbPolyline
 62
7
  6
CONTINUOUS
 90
10
 70
0
 10
399.5039470981
 20
227.8798871724
 10
399.5331586564
 20
227.8556272944
 10
399.5641341286
 20
227.8341486607
 10
399.5968735147
 20
227.8154512602
 10
399.631291831
 20
227.7995043465
 10
399.6674740613
 20
227.786338648
 10
399.7056751562
 20
227.7760463679
 10
399.7459800994
 20
227.7686582373
 10
399.7883039072
 20
227.7641435156
 10
399.8326465797
 20
227.7625022003
  0
LINE
  5
317
100
AcDbEntity
  8
0
100
AcDbLine
 62
250
  6
CONTINUOUS
 10
392.3139633688
 20
233.6891052014
 11
392.4408391636
 21
233.5622294067
  0
LWPOLYLINE
  5
318
100
AcDbEntity
  8
0
100
AcDbPolyline
 62
7
  6
CONTINUOUS
 90
10
 70
0
 10
399.6474489051
 20
227.9835116635
 10
399.6299419281
 20
228.0013964495
 10
399.6138596166
 20
228.0212254292
 10
399.5992019707
 20
228.0429986096
 10
399.5860119691
 20
228.0668948533
 10
399.574246633
 20
228.0927353146
 10
399.5637770259
 20
228.1199834361
 10
399.554560169
 20
228.1484603691
 10
399.5466390411
 20
228.1783449759
 10
399.5400136422
 20
228.2096372641
  0
LINE
  5
319
100
AcDbEntity
  8
0
100
AcDbLine
 62
7
  6
CONTINUOUS
 10
398.5607373152
 20
225.1792552014
 11
399.1996883152
 21
224.1641052014
  0
LINE
  5
31A
100
AcDbEntity
  8
0
100
AcDbLine
 62
7
  6
CONTINUOUS
 10
394.8558343152
 20
224.1641052014
 11
394.4032063152
 21
225.4141052014
  0
LINE
  5
31B
100
AcDbEntity
  8
0
100
AcDbLine
 62
7
  6
CONTINUOUS
 10
394.5476763152
 20
224.5279342014
 11
394.6712713152
 21
224.1641052014
  0
LINE
  5
31C
100
AcDbEntity
  8
0
100
AcDbLine
 62
7
  6
CONTINUOUS
 10
394.3005583152
 20
225.2327942014
 11
394.4867893152
 21
224.6776512014
  0
LINE
  5
31D
100
AcDbEntity
  8
0
100
AcDbLine
 62
250
  6
CONTINUOUS
 10
389.1292439608
 20
264.1391052014
 11
389.1363286481
 21
260.609162514
  0
LINE
  5
31E
100
AcDbEntity
  8
0
100
AcDbLine
 62
250
  6
CONTINUOUS
 10
389.1378218134
 20
259.7685502871
 11
389.146382431
 21
253.7125130655
  0
LINE
  5
31F
100
AcDbEntity
  8
0
100
AcDbLine
 62
250
  6
CONTINUOUS
 10
389.1473017479
 20
252.8362473656
 11
389.148294487
 21
251.7891052023
  0
LINE
  5
320
100
AcDbEntity
  8
0
100
AcDbLine
 62
250
  6
CONTINUOUS
 10
389.1482944885
 20
234.7891052008
 11
389.1473017479
 21
233.7419630391
  0
LINE
  5
321
100
AcDbEntity
  8
0
100
AcDbLine
 62
250
  6
CONTINUOUS
 10
389.146382431
 20
232.8656973375
 11
389.1378218134
 21
226.8096601195
  0
LINE
  5
322
100
AcDbEntity
  8
0
100
AcDbLine
 62
250
  6
CONTINUOUS
 10
389.1363286481
 20
225.96904789
 11
389.1292439591
 21
222.4391052014
  0
LWPOLYLINE
  5
323
100
AcDbEntity
  8
0
100
AcDbPolyline
 62
7
  6
CONTINUOUS
 90
25
 70
0
 10
392.0951589898
 20
256.6417044631
 10
392.1040977959
 20
256.6885894742
 10
392.117636195
 20
256.7332082837
 10
392.135774187
 20
256.7755609078
 10
392.1588421105
 20
256.8161085197
 10
392.1865096268
 20
256.854389974
 10
392.2177857207
 20
256.8890218166
 10
392.2528038741
 20
256.9198689332
 10
392.2914306051
 20
256.9470664775
 10
392.3322744514
 20
256.9696364062
 10
392.375411395
 20
256.987408548
 10
392.4207654539
 20
257.0005531053
 10
392.4667172207
 20
257.0086025958
 10
392.5132902099
 20
257.0113740912
 10
392.560460907
 20
257.0090505289
 10
392.6065393614
 20
257.00171322
 10
392.6514877907
 20
256.9891787946
 10
392.6953439773
 20
256.9716306059
 10
392.7365313183
 20
256.9497000457
 10
392.7749495466
 20
256.9232309515
 10
392.8106989292
 20
256.8923794506
 10
392.8425036645
 20
256.8582453719
 10
392.8699384851
 20
256.821195315
 10
392.8934286583
 20
256.7808626438
 10
392.9129741842
 20
256.737247337
  0
LINE
  5
324
100
AcDbEntity
  8
0
100
AcDbLine
 62
7
  6
CONTINUOUS
 10
395.8378663152
 20
260.8706112014
 11
396.4485523152
 21
262.7704572014
  0
LINE
  5
325
100
AcDbEntity
  8
0
100
AcDbLine
 62
250
  6
CONTINUOUS
 10
393.05567514
 20
256.5784875969
 11
393.0588759653
 21
256.5880978817
  0
LINE
  5
326
100
AcDbEntity
  8
0
100
AcDbLine
 62
250
  6
CONTINUOUS
 10
393.2556446791
 20
256.3787616899
 11
393.2577933746
 21
256.3852130188
  0
LINE
  5
327
100
AcDbEntity
  8
0
100
AcDbLine
 62
250
  6
CONTINUOUS
 10
408.9994544384
 20
265.1987965996
 11
409.1095940308
 21
265.308936192
  0
LWPOLYLINE
  5
328
100
AcDbEntity
  8
0
100
AcDbPolyline
 62
250
  6
CONTINUOUS
 90
10
 70
0
 10
403.9236193005
 20
255.7047530975
 10
403.9080202527
 20
255.6974327368
 10
403.8927299999
 20
255.6875661307
 10
403.8780512243
 20
255.6753485961
 10
403.8642745032
 20
255.6610219884
 10
403.8516725575
 20
255.6448699137
 10
403.840494852
 20
255.6272121145
 10
403.8309626581
 20
255.6083981403
 10
403.8232646728
 20
255.5888004281
 10
403.8175532834
 20
255.5688069295
  0
LWPOLYLINE
  5
329
100
AcDbEntity
  8
0
100
AcDbPolyline
 62
250
  6
CONTINUOUS
 90
10
 70
0
 10
404.3703750924
 20
255.4964274505
 10
404.3547760501
 20
255.4891070929
 10
404.3394858012
 20
255.4792404906
 10
404.3248070277
 20
255.4670229599
 10
404.311030307
 20
255.4526963552
 10
404.2984283602
 20
255.4365442821
 10
404.2872506524
 20
255.4188864825
 10
404.2777184555
 20
255.4000725057
 10
404.2700204671
 20
255.3804747884
 10
404.2643090752
 20
255.3604812824
  0
LWPOLYLINE
  5
32A
100
AcDbEntity
  8
0
100
AcDbPolyline
 62
250
  6
CONTINUOUS
 90
13
 70
0
 10
392.4408391636
 20
233.5622294067
 10
392.4148164866
 20
233.5604556127
 10
392.3892371321
 20
233.5553069393
 10
392.3645372271
 20
233.5468710372
 10
392.3411379207
 20
233.5352916028
 10
392.319438239
 20
233.5207659497
 10
392.29980827
 20
233.5035416638
 10
392.2825827852
 20
233.4839123324
 10
392.2680555964
 20
233.4622125904
 10
392.2564745427
 20
233.4388124654
 10
392.2480371825
 20
233.414110962
 10
392.2428874529
 20
233.3885292391
 10
392.2411132492
 20
233.3625035071
  0
LINE
  5
32B
100
AcDbEntity
  8
0
100
AcDbLine
 62
250
  6
CONTINUOUS
 10
392.9494155551
 20
233.3525705061
 11
393.396171347
 21
233.375983985
  0
LINE
  5
32C
100
AcDbEntity
  8
0
100
AcDbLine
 62
250
  6
CONTINUOUS
 10
392.8079941989
 20
233.552296413
 11
393.2547499907
 21
233.575709892
  0
LWPOLYLINE
  5
32D
100
AcDbEntity
  8
0
100
AcDbPolyline
 62
7
  6
CONTINUOUS
 90
15
 70
0
 10
389.1166037693
 20
233.7418777335
 10
389.0867676082
 20
233.7416387488
 10
389.0577929278
 20
233.7412460896
 10
389.0293725086
 20
233.7406918854
 10
389.00181357
 20
233.7399840067
 10
388.97603777
 20
233.7391460657
 10
388.9521509098
 20
233.7381757251
 10
388.9300471882
 20
233.7370753223
 10
388.9103308593
 20
233.7358754811
 10
388.8930435087
 20
233.7345717353
 10
388.878143551
 20
233.7331685512
 10
388.8661104841
 20
233.7317099512
 10
388.8571041409
 20
233.7302106095
 10
388.8509646886
 20
233.7286558518
 10
388.8476921271
 20
233.7270456783
  0
LINE
  5
32E
100
AcDbEntity
  8
0
100
AcDbLine
 62
7
  6
CONTINUOUS
 10
388.8097516503
 20
233.6891052014
 11
392.3139633688
 21
233.6891052014
  0
LINE
  5
32F
100
AcDbEntity
  8
0
100
AcDbLine
 62
7
  6
CONTINUOUS
 10
404.8997612615
 20
233.6891052014
 11
408.40397298
 21
233.6891052014
  0
LINE
  5
330
100
AcDbEntity
  8
0
100
AcDbLine
 62
7
  6
CONTINUOUS
 10
389.1166037693
 20
233.7418777335
 11
392.9568623152
 21
233.7419630465
  0
LINE
  5
331
100
AcDbEntity
  8
0
100
AcDbLine
 62
7
  6
CONTINUOUS
 10
388.8269104675
 20
234.7873338956
 11
408.3868141628
 21
234.7873338956
  0
LINE
  5
332
100
AcDbEntity
  8
0
100
AcDbLine
 62
250
  6
CONTINUOUS
 10
404.2643090752
 20
233.3525705061
 11
403.8175532834
 21
233.375983985
  0
LINE
  5
333
100
AcDbEntity
  8
0
100
AcDbLine
 62
250
  6
CONTINUOUS
 10
404.4057304314
 20
233.552296413
 11
403.9589746396
 21
233.575709892
  0
LWPOLYLINE
  5
334
100
AcDbEntity
  8
0
100
AcDbPolyline
 62
250
  6
CONTINUOUS
 90
13
 70
0
 10
404.7886078006
 20
230.0002586624
 10
404.7862874872
 20
230.0013197611
 10
404.78236761
 20
230.002330542
 10
404.7768481689
 20
230.003291005
 10
404.7694866481
 20
230.0042094767
 10
404.7605255634
 20
230.0050776306
 10
404.7506924619
 20
230.0058704869
 10
404.7400575365
 20
230.0065775748
 10
404.7285505942
 20
230.0072093651
 10
404.7166886036
 20
230.0077722914
 10
404.704683502
 20
230.0082628042
 10
404.692323352
 20
230.0086844529
 10
404.6662681945
 20
230.009379159
  0
LWPOLYLINE
  5
335
100
AcDbEntity
  8
0
100
AcDbPolyline
 62
250
  6
CONTINUOUS
 90
14
 70
0
 10
408.5012319275
 20
229.0971425252
 10
408.4776683245
 20
229.1079620175
 10
408.455685449
 20
229.1178756565
 10
408.4351950692
 20
229.1269228418
 10
408.41591972
 20
229.1352268674
 10
408.3979127498
 20
229.1427923561
 10
408.3811019511
 20
229.1496146852
 10
408.3650998053
 20
229.155803281
 10
408.3500289939
 20
229.1614134598
 10
408.3358339425
 20
229.1663899054
 10
408.3220276784
 20
229.1706760956
 10
408.3086088896
 20
229.1742531897
 10
408.2959366208
 20
229.1771400284
 10
408.2841926354
 20
229.1793366117
  0
LWPOLYLINE
  5
336
100
AcDbEntity
  8
0
100
AcDbPolyline
 62
250
  6
CONTINUOUS
 90
10
 70
0
 10
403.9236193005
 20
230.8734573053
 10
403.9080202535
 20
230.8807776656
 10
403.8927300013
 20
230.8906442712
 10
403.8780512259
 20
230.9028618052
 10
403.8642745049
 20
230.9171884125
 10
403.851672559
 20
230.933340487
 10
403.8404948533
 20
230.9509982862
 10
403.830962659
 20
230.9698122607
 10
403.8232646731
 20
230.9894099737
 10
403.8175532834
 20
231.0094034734
  0
LWPOLYLINE
  5
337
100
AcDbEntity
  8
0
100
AcDbPolyline
 62
250
  6
CONTINUOUS
 90
10
 70
0
 10
404.3703750924
 20
231.0817829524
 10
404.3547760446
 20
231.0891033131
 10
404.3394857918
 20
231.0989699192
 10
404.3248070161
 20
231.1111874538
 10
404.311030295
 20
231.1255140615
 10
404.2984283493
 20
231.1416661362
 10
404.2872506439
 20
231.1593239354
 10
404.27771845
 20
231.1781379096
 10
404.2700204646
 20
231.1977356218
 10
404.2643090752
 20
231.2177291205
  0
LINE
  5
338
100
AcDbEntity
  8
0
100
AcDbLine
 62
250
  6
CONTINUOUS
 10
408.5529677784
 20
229.0728990841
 11
408.5012319275
 21
229.0971425252
  0
LINE
  5
339
100
AcDbEntity
  8
0
100
AcDbLine
 62
250
  6
CONTINUOUS
 10
408.6109086194
 20
229.0451057231
 11
408.5529677784
 21
229.0728990841
  0
LWPOLYLINE
  5
33A
100
AcDbEntity
  8
0
100
AcDbPolyline
 62
250
  6
CONTINUOUS
 90
3
 70
0
 10
408.7442950556
 20
228.9800558069
 10
408.709001845
 20
228.9974823331
 10
408.6109086194
 20
229.0451057231
  0
LINE
  5
33B
100
AcDbEntity
  8
0
100
AcDbLine
 62
250
  6
CONTINUOUS
 10
409.1095940308
 20
221.2692742109
 11
408.9994544384
 21
221.3794138033
  0
LWPOLYLINE
  5
33C
100
AcDbEntity
  8
0
100
AcDbPolyline
 62
7
  6
CONTINUOUS
 90
10
 70
0
 10
400.0060807065
 20
229.0767900156
 10
400.0206137104
 20
229.0613367405
 10
400.0334238483
 20
229.0451246408
 10
400.0445111201
 20
229.0281537188
 10
400.0538648316
 20
229.010457022
 10
400.061495677
 20
228.9920015073
 10
400.0674357391
 20
228.9726880415
 10
400.0716957122
 20
228.9524835824
 10
400.0742649021
 20
228.9314211782
 10
400.0751433086
 20
228.909500832
  0
LWPOLYLINE
  5
33D
100
AcDbEntity
  8
0
100
AcDbPolyline
 62
7
  6
CONTINUOUS
 90
10
 70
0
 10
400.059795351
 20
228.436785946
 10
400.0772117641
 20
228.417766787
 10
400.0925643869
 20
228.3977493537
 10
400.1058532195
 20
228.3767336498
 10
400.1170624396
 20
228.3547797249
 10
400.1262078694
 20
228.331827537
 10
400.1333369758
 20
228.307696953
 10
400.1384655811
 20
228.2823279325
 10
400.141577863
 20
228.2557805268
 10
400.1426738214
 20
228.2280547417
  0
LWPOLYLINE
  5
33E
100
AcDbEntity
  8
0
100
AcDbPolyline
 62
7
  6
CONTINUOUS
 90
10
 70
0
 10
400.2644338382
 20
228.473620815
 10
400.247810273
 20
228.4938326505
 10
400.2296267658
 20
228.5125689236
 10
400.2098833167
 20
228.5298296292
 10
400.1886138084
 20
228.5456476066
 10
400.1657843582
 20
228.5599900079
 10
400.1412933175
 20
228.572758298
 10
400.1151068035
 20
228.5839196298
 10
400.0872586991
 20
228.5935068436
 10
400.0577490043
 20
228.601519937
  0
LINE
  5
33F
100
AcDbEntity
  8
0
100
AcDbLine
 62
7
  6
CONTINUOUS
 10
399.2258103152
 20
224.3987502014
 11
398.5972723152
 21
225.4141052014
  0
LWPOLYLINE
  5
340
100
AcDbEntity
  8
0
100
AcDbPolyline
 62
250
  6
CONTINUOUS
 90
13
 70
0
 10
393.4547195298
 20
230.9933239176
 10
393.4542131069
 20
230.9946331656
 10
393.4530585904
 20
230.9959505351
 10
393.4512250892
 20
230.997276026
 10
393.4486992891
 20
230.9986095791
 10
393.4454465885
 20
230.9999512537
 10
393.4413749866
 20
231.0013012273
 10
393.4364193743
 20
231.002665938
 10
393.4305389772
 20
231.0040389477
 10
393.4236330118
 20
231.0054011198
 10
393.4156244917
 20
231.0067460753
 10
393.4064828593
 20
231.0080801932
 10
393.396171347
 20
231.0094034734
  0
LINE
  5
341
100
AcDbEntity
  8
0
100
AcDbLine
 62
250
  6
CONTINUOUS
 10
393.0588759653
 20
229.9901125212
 11
393.05567514
 21
229.999722806
  0
LINE
  5
342
100
AcDbEntity
  8
0
100
AcDbLine
 62
250
  6
CONTINUOUS
 10
393.2577933746
 20
230.1929973841
 11
393.2556446791
 21
230.1994487129
  0
LWPOLYLINE
  5
343
100
AcDbEntity
  8
0
100
AcDbPolyline
 62
250
  6
CONTINUOUS
 90
13
 70
0
 10
393.3047423755
 20
230.8573777495
 10
393.3046277167
 20
230.8586865999
 10
393.3043365116
 20
230.8600036569
 10
393.3038687603
 20
230.8613289204
 10
393.3032386835
 20
230.8626621034
 10
393.3024320604
 20
230.8640034929
 10
393.3014062288
 20
230.86535395
 10
393.3001639017
 20
230.8667208555
 10
393.298702366
 20
230.8680968285
 10
393.2969708211
 20
230.8694605882
 10
393.2949523333
 20
230.8708050407
 10
393.2926638362
 20
230.8721372797
 10
393.2901053298
 20
230.8734573053
  0
LINE
  5
344
100
AcDbEntity
  8
0
100
AcDbLine
 62
7
  6
CONTINUOUS
 10
392.1142374618
 20
253.6952144742
 11
392.1142374618
 21
253.0888311084
  0
LINE
  5
345
100
AcDbEntity
  8
0
100
AcDbLine
 62
7
  6
CONTINUOUS
 10
392.1142374618
 20
232.8829959287
 11
392.1142374618
 21
233.4893792945
  0
LINE
  5
346
100
AcDbEntity
  8
0
100
AcDbLine
 62
250
  6
CONTINUOUS
 10
392.2253909228
 20
230.1999845694
 11
392.2253909228
 21
230.9741899903
  0
LINE
  5
347
100
AcDbEntity
  8
0
100
AcDbLine
 62
250
  6
CONTINUOUS
 10
392.2253909228
 20
255.6040204126
 11
392.2253909228
 21
256.3782258335
  0
LINE
  5
348
100
AcDbEntity
  8
0
100
AcDbLine
 62
250
  6
CONTINUOUS
 10
392.2411132566
 20
231.1140822878
 11
392.2411132566
 21
233.3625034997
  0
LINE
  5
349
100
AcDbEntity
  8
0
100
AcDbLine
 62
250
  6
CONTINUOUS
 10
392.2411132566
 20
253.2157069032
 11
392.2411132566
 21
255.4641281151
  0
LWPOLYLINE
  5
34A
100
AcDbEntity
  8
0
100
AcDbPolyline
 62
7
  6
CONTINUOUS
 90
7
 70
0
 10
392.0658153932
 20
256.5378013631
 10
392.0666761014
 20
256.55604738
 10
392.0691971241
 20
256.5741173629
 10
392.073352104
 20
256.5918617429
 10
392.0791012905
 20
256.6091344049
 10
392.0863919681
 20
256.6257938759
 10
392.0951589898
 20
256.6417044631
  0
LINE
  5
34B
100
AcDbEntity
  8
0
100
AcDbLine
 62
7
  6
CONTINUOUS
 10
396.0522513152
 20
262.7704572014
 11
395.6790433152
 21
261.4627342014
  0
LINE
  5
34C
100
AcDbEntity
  8
0
100
AcDbLine
 62
7
  6
CONTINUOUS
 10
398.5625263152
 20
262.7704572014
 11
398.1659543152
 21
261.7156572014
  0
LINE
  5
34D
100
AcDbEntity
  8
0
100
AcDbLine
 62
7
  6
CONTINUOUS
 10
398.1915983152
 20
260.8706112014
 11
398.6631233152
 21
262.1060032014
  0
LINE
  5
34E
100
AcDbEntity
  8
0
100
AcDbLine
 62
250
  6
CONTINUOUS
 10
409.4693007488
 20
264.7289502892
 11
409.5794403412
 21
264.8390898816
  0
LINE
  5
34F
100
AcDbEntity
  8
0
100
AcDbLine
 62
7
  6
CONTINUOUS
 10
404.6068623152
 20
259.7891052014
 11
404.5863073889
 21
259.7685502752
  0
LINE
  5
350
100
AcDbEntity
  8
0
100
AcDbLine
 62
7
  6
CONTINUOUS
 10
405.1514251432
 20
253.7125130648
 11
405.0994871685
 21
253.6952144742
  0
LINE
  5
351
100
AcDbEntity
  8
0
100
AcDbLine
 62
7
  6
CONTINUOUS
 10
405.1514251432
 20
232.8656973381
 11
405.0994871685
 21
232.8829959287
  0
LINE
  5
352
100
AcDbEntity
  8
0
100
AcDbLine
 62
250
  6
CONTINUOUS
 10
409.5794403412
 20
221.7391205213
 11
409.4693007488
 21
221.8492601137
  0
LINE
  5
353
100
AcDbEntity
  8
0
100
AcDbLine
 62
7
  6
CONTINUOUS
 10
404.6068623152
 20
226.7891052014
 11
404.5863073889
 21
226.8096601277
  0
LWPOLYLINE
  5
354
100
AcDbEntity
  8
0
100
AcDbPolyline
 62
7
  6
CONTINUOUS
 90
10
 70
0
 10
400.2089552105
 20
229.0986538799
 10
400.1961882094
 20
229.1183561045
 10
400.1822757052
 20
229.1370963445
 10
400.1672176978
 20
229.154874597
 10
400.1510626089
 20
229.1716726979
 10
400.1337620169
 20
229.1875088054
 10
400.1151706566
 20
229.2024374003
 10
400.0952401065
 20
229.2164766413
 10
400.0740187881
 20
229.2296083651
 10
400.0515067015
 20
229.2418325698
  0
LINE
  5
355
100
AcDbEntity
  8
0
100
AcDbLine
 62
250
  6
CONTINUOUS
 10
393.3086392401
 20
230.7532739937
 11
393.3047423755
 21
230.8573777495
  0
LINE
  5
356
100
AcDbEntity
  8
0
100
AcDbLine
 62
250
  6
CONTINUOUS
 10
393.4568623152
 20
230.936079946
 11
393.4547195298
 21
230.9933239176
  0
LWPOLYLINE
  5
357
100
AcDbEntity
  8
RACCORDO
100
AcDbPolyline
 62
250
  6
CONTINUOUS
 90
64
 70
0
 10
393.4151198847
 20
243.2891052014
 10
393.4215473294
 20
243.0302906956
 10
393.4407584313
 20
242.7729951613
 10
393.4727531904
 20
242.5172186652
 10
393.517681317
 20
242.2621844023
 10
393.5753931008
 20
242.0086693059
 10
393.645439411
 20
241.7590040392
 10
393.727899024
 20
241.5133869242
 10
393.8226931635
 20
241.2716197254
 10
393.9291363699
 20
241.0354382439
 10
394.0473284553
 20
240.804850941
 10
394.1771696076
 20
240.579849387
 10
394.3176749317
 20
240.3621440154
 10
394.4689174696
 20
240.151804325
 10
394.6308241793
 20
239.9487607854
 10
394.8021910391
 20
239.7545152539
 10
394.983090724
 20
239.5691302937
 10
395.1734505591
 20
239.3925432539
 10
395.3718484984
 20
239.2260681413
 10
395.578343285
 20
239.0697815846
 10
395.7928761758
 20
238.9236068286
 10
396.0138488955
 20
238.7886277839
 10
396.2413089847
 20
238.6649279266
 10
396.4752089027
 20
238.5524236406
 10
396.7138077528
 20
238.4519481869
 10
396.957139619
 20
238.3635911531
 10
397.2051704172
 20
238.2872628258
 10
397.456056998
 20
238.2235275155
 10
397.7098203062
 20
238.1724785663
 10
397.9664393971
 20
238.1340225471
 10
398.2240082873
 20
238.1084436155
 10
398.4825338068
 20
238.0958371547
 10
398.7420091256
 20
238.0961077509
 10
399.0005077699
 20
238.10925338
 10
399.2580226005
 20
238.1353693968
 10
399.5145607566
 20
238.1743604781
 10
399.7682171827
 20
238.2259385976
 10
400.0189710268
 20
238.2901972288
 10
400.2668431408
 20
238.3670429858
 10
400.5099910255
 20
238.4559075621
 10
400.7483800494
 20
238.5568804481
 10
400.9820448439
 20
238.6698722799
 10
401.2092468049
 20
238.79404647
 10
401.4299388674
 20
238.9294870547
 10
401.6441680963
 20
239.0761101378
 10
401.8503370822
 20
239.2328272235
 10
402.0483844669
 20
239.3997119908
 10
402.2383716087
 20
239.5766908866
 10
402.4188851726
 20
239.7624545457
 10
402.5898627555
 20
239.9570827297
 10
402.7513667605
 20
240.1604957641
 10
402.9021710632
 20
240.3711451004
 10
403.0421783525
 20
240.5890557837
 10
403.1714859394
 20
240.8142027988
 10
403.2891596327
 20
241.0449624745
 10
403.3951457083
 20
241.2815196786
 10
403.4894978903
 20
241.5236895122
 10
403.5714431597
 20
241.7692936198
 10
403.6408134301
 20
242.0184048594
 10
403.697776788
 20
242.2709502825
 10
403.7420644744
 20
242.5245327962
 10
403.773586903
 20
242.7783533238
 10
403.7924336601
 20
243.033210814
 10
403.7986047457
 20
243.2891052014
  0
LINE
  5
358
100
AcDbEntity
  8
0
100
AcDbLine
 62
7
  6
CONTINUOUS
 10
392.3940813152
 20
225.4141052014
 11
392.3940813152
 21
224.1641052014
  0
LINE
  5
359
100
AcDbEntity
  8
0
100
AcDbLine
 62
7
  6
CONTINUOUS
 10
392.5577233152
 20
224.1641052014
 11
392.5577233152
 21
225.2122252014
  0
LINE
  5
35A
100
AcDbEntity
  8
0
100
AcDbLine
 62
7
  6
CONTINUOUS
 10
392.6068623152
 20
225.9891052014
 11
392.6068623152
 21
226.7891052014
  0
LINE
  5
35B
100
AcDbEntity
  8
0
100
AcDbLine
 62
7
  6
CONTINUOUS
 10
392.6068623152
 20
259.7891052014
 11
392.6068623152
 21
260.5891052014
  0
LINE
  5
35C
100
AcDbEntity
  8
0
100
AcDbLine
 62
250
  6
CONTINUOUS
 10
392.6248427367
 20
230.010191656
 11
392.6248427367
 21
230.9891052014
  0
LINE
  5
35D
100
AcDbEntity
  8
0
100
AcDbLine
 62
250
  6
CONTINUOUS
 10
392.6248427367
 20
255.5891052014
 11
392.6248427367
 21
256.5680187468
  0
LINE
  5
35E
100
AcDbEntity
  8
0
100
AcDbLine
 62
250
  6
CONTINUOUS
 10
392.6405650705
 20
231.0886118699
 11
392.6405650705
 21
233.552296413
  0
LINE
  5
35F
100
AcDbEntity
  8
0
100
AcDbLine
 62
250
  6
CONTINUOUS
 10
392.6405650705
 20
253.0259139898
 11
392.6405650705
 21
255.4895985329
  0
LINE
  5
360
100
AcDbEntity
  8
0
100
AcDbLine
 62
250
  6
CONTINUOUS
 10
392.8079941989
 20
231.0886118699
 11
392.8079941989
 21
233.552296413
  0
LINE
  5
361
100
AcDbEntity
  8
0
100
AcDbLine
 62
250
  6
CONTINUOUS
 10
392.8079941989
 20
253.0259139898
 11
392.8079941989
 21
255.4895985329
  0
LINE
  5
362
100
AcDbEntity
  8
0
100
AcDbLine
 62
250
  6
CONTINUOUS
 10
392.8609236799
 20
230.010191656
 11
392.8609236799
 21
230.9891052014
  0
LINE
  5
363
100
AcDbEntity
  8
0
100
AcDbLine
 62
250
  6
CONTINUOUS
 10
392.8609236799
 20
255.5891052014
 11
392.8609236799
 21
256.5680187468
  0
LINE
  5
364
100
AcDbEntity
  8
0
100
AcDbLine
 62
250
  6
CONTINUOUS
 10
392.9494167411
 20
231.2177285674
 11
392.9494155551
 21
233.3525705061
  0
LINE
  5
365
100
AcDbEntity
  8
0
100
AcDbLine
 62
250
  6
CONTINUOUS
 10
392.9494155551
 20
253.2256398968
 11
392.94941574
 21
255.3604813686
  0
LINE
  5
366
100
AcDbEntity
  8
0
100
AcDbLine
 62
7
  6
CONTINUOUS
 10
392.9568623152
 20
256.737247337
 11
392.9568623152
 21
256.5895304208
  0
LINE
  5
367
100
AcDbEntity
  8
0
100
AcDbLine
 62
7
  6
CONTINUOUS
 10
392.9568623152
 20
233.7419630465
 11
392.9568623152
 21
233.5895304208
  0
LINE
  5
368
100
AcDbEntity
  8
0
100
AcDbLine
 62
7
  6
CONTINUOUS
 10
392.9568623152
 20
229.8409630659
 11
392.9568623152
 21
229.9886799821
  0
LINE
  5
369
100
AcDbEntity
  8
0
100
AcDbLine
 62
7
  6
CONTINUOUS
 10
392.9568623152
 20
252.8362473564
 11
392.9568623152
 21
252.9886799821
  0
LINE
  5
36A
100
AcDbEntity
  8
0
100
AcDbLine
 62
250
  6
CONTINUOUS
 10
393.004128065
 20
230.209917563
 11
393.004128065
 21
230.9609474738
  0
LINE
  5
36B
100
AcDbEntity
  8
0
100
AcDbLine
 62
250
  6
CONTINUOUS
 10
393.004128065
 20
255.6172629291
 11
393.004128065
 21
256.3682928399
  0
LINE
  5
36C
100
AcDbEntity
  8
0
100
AcDbLine
 62
250
  6
CONTINUOUS
 10
393.1988795252
 20
230.1994487129
 11
393.1988795252
 21
230.8677989942
  0
LINE
  5
36D
100
AcDbEntity
  8
0
100
AcDbLine
 62
250
  6
CONTINUOUS
 10
393.1988795252
 20
255.7104114087
 11
393.1988795252
 21
256.3787616899
  0
LINE
  5
36E
100
AcDbEntity
  8
0
100
AcDbLine
 62
250
  6
CONTINUOUS
 10
393.2556446791
 20
230.1994487129
 11
393.2556446791
 21
230.8043228284
  0
LINE
  5
36F
100
AcDbEntity
  8
0
100
AcDbLine
 62
250
  6
CONTINUOUS
 10
393.2556446791
 20
255.7738875745
 11
393.2556446791
 21
256.3787616899
  0
LINE
  5
370
100
AcDbEntity
  8
0
100
AcDbLine
 62
250
  6
CONTINUOUS
 10
393.396171347
 20
231.0094034734
 11
393.396171347
 21
233.375983985
  0
LINE
  5
371
100
AcDbEntity
  8
0
100
AcDbLine
 62
250
  6
CONTINUOUS
 10
393.396171347
 20
253.2022264178
 11
393.396171347
 21
255.5688069295
  0
LINE
  5
372
100
AcDbEntity
  8
0
100
AcDbLine
 62
7
  6
CONTINUOUS
 10
393.4281963152
 20
225.2139432014
 11
393.4281963152
 21
224.1641052014
  0
LINE
  5
373
100
AcDbEntity
  8
0
100
AcDbLine
 62
250
  6
CONTINUOUS
 10
393.4547195298
 20
230.9933239176
 11
393.4547195298
 21
233.375983985
  0
LINE
  5
374
100
AcDbEntity
  8
0
100
AcDbLine
 62
250
  6
CONTINUOUS
 10
393.4547195298
 20
253.2022264178
 11
393.4547195298
 21
255.5848864853
  0
LINE
  5
375
100
AcDbEntity
  8
0
100
AcDbLine
 62
7
  6
CONTINUOUS
 10
393.5919043152
 20
224.1641052014
 11
393.5919043152
 21
225.4141052014
  0
LWPOLYLINE
  5
376
100
AcDbEntity
  8
RACCORDO
100
AcDbPolyline
 62
250
  6
CONTINUOUS
 90
70
 70
0
 10
393.0580484633
 20
243.2891052014
 10
393.0618178714
 20
243.4934055469
 10
393.0728596476
 20
243.6941678349
 10
393.090792467
 20
243.8911110018
 10
393.1151420167
 20
244.0832856562
 10
393.145591645
 20
244.2711772611
 10
393.1822038267
 20
244.4566867557
 10
393.224940897
 20
244.6401694042
 10
393.2735342958
 20
244.8209039463
 10
393.3279545403
 20
244.9991511681
 10
393.3876744038
 20
245.1736544703
 10
393.4528637564
 20
245.3453524627
 10
393.524941068
 20
245.5176565257
 10
393.6039804701
 20
245.6899565258
 10
393.6903052172
 20
245.8622121187
 10
393.7865010092
 20
246.0383006149
 10
393.8936843398
 20
246.2183669435
 10
394.0120523278
 20
246.4008688145
 10
394.1434559169
 20
246.5866866247
 10
394.2889094269
 20
246.775089687
 10
394.4489542265
 20
246.964633806
 10
394.6249811139
 20
247.1547516591
 10
394.8174268908
 20
247.3436895012
 10
395.0272321308
 20
247.5301828558
 10
395.2567641637
 20
247.7138451346
 10
395.5073964133
 20
247.8929892112
 10
395.7789801775
 20
248.0647308913
 10
396.0715761108
 20
248.2263878454
 10
396.387049251
 20
248.376130108
 10
396.7235018597
 20
248.5101416934
 10
397.0744641303
 20
248.6237781184
 10
397.4393213508
 20
248.7153839325
 10
397.816226052
 20
248.7830053208
 10
398.1958035246
 20
248.8243956142
 10
398.5758546223
 20
248.8395530163
 10
398.9549591997
 20
248.828713475
 10
399.3247073413
 20
248.7929966221
 10
399.6827914269
 20
248.7342992649
 10
400.0287381606
 20
248.6543151119
 10
400.3574407887
 20
248.5561735626
 10
400.666858294
 20
248.4429658887
 10
400.9581069521
 20
248.3166923641
 10
401.2313674082
 20
248.1795195783
 10
401.486244246
 20
248.033836744
 10
401.723390353
 20
247.8814490849
 10
401.9446275266
 20
247.7231614436
 10
402.1505311966
 20
247.5602961188
 10
402.3412121564
 20
247.3945121555
 10
402.5177109899
 20
247.2266407053
 10
402.6804207506
 20
247.0579625301
 10
402.8299655872
 20
246.8894849656
 10
402.9676457141
 20
246.721326138
 10
403.0934994141
 20
246.5549915017
 10
403.2085799147
 20
246.3906379703
 10
403.3153272266
 20
246.2259412186
 10
403.4139489262
 20
246.0614609224
 10
403.5047813099
 20
245.8975356697
 10
403.5898241051
 20
245.7310574297
 10
403.6690634809
 20
245.5621259654
 10
403.7424022905
 20
245.3910582567
 10
403.8110421378
 20
245.2147346985
 10
403.8746408955
 20
245.0331508912
 10
403.932772892
 20
244.8465131827
 10
403.985851695
 20
244.651803131
 10
404.0331737271
 20
244.4489770809
 10
404.0739468648
 20
244.238259818
 10
404.1077599963
 20
244.0169355077
 10
404.1335387668
 20
243.7842446707
 10
404.149925371
 20
243.5414825174
 10
404.1556761671
 20
243.2891052014
  0
LWPOLYLINE
  5
377
100
AcDbEntity
  8
RACCORDO
100
AcDbPolyline
 62
250
  6
CONTINUOUS
 90
70
 70
0
 10
392.7009770419
 20
243.2891051301
 10
392.7056542984
 20
243.5069026225
 10
392.7172700783
 20
243.7203978269
 10
392.7358243816
 20
243.9295907077
 10
392.7614880468
 20
244.1339582478
 10
392.7940902355
 20
244.3340234072
 10
392.8331184322
 20
244.5313551183
 10
392.8785245378
 20
244.7265103876
 10
392.9303566515
 20
244.9189321626
 10
392.988246555
 20
245.1085182877
 10
393.0515447679
 20
245.2942038229
 10
393.1209007706
 20
245.4770536813
 10
393.1978947857
 20
245.6601604761
 10
393.2818391056
 20
245.8435476246
 10
393.3734214379
 20
246.0271916571
 10
393.4762851279
 20
246.2141148233
 10
393.5904946161
 20
246.4056421839
 10
393.7159854621
 20
246.6004485736
 10
393.8562076899
 20
246.7975808888
 10
394.0112984394
 20
246.997850039
 10
394.1811205707
 20
247.2004450075
 10
394.3687126874
 20
247.4019798356
 10
394.5737957686
 20
247.602806777
 10
394.7966488351
 20
247.8025735311
 10
395.0411475529
 20
247.9968373885
 10
395.3083850258
 20
248.1868210278
 10
395.5972681498
 20
248.3713018245
 10
395.908393279
 20
248.5421692565
 10
396.2447027142
 20
248.6999362765
 10
396.6032541544
 20
248.8440901759
 10
396.9758170511
 20
248.9649821164
 10
397.3640201775
 20
249.0607853237
 10
397.7662347603
 20
249.1333269154
 10
398.1693439304
 20
249.1784389584
 10
398.5730654991
 20
249.1936840619
 10
398.9776816551
 20
249.1814997373
 10
399.3709220948
 20
249.1450303502
 10
399.7511650162
 20
249.0827390857
 10
400.1200322213
 20
248.9961625871
 10
400.4701188126
 20
248.8930553974
 10
400.7990300166
 20
248.7736327379
 10
401.1091606069
 20
248.6376791509
 10
401.4002900063
 20
248.4923032497
 10
401.6715369477
 20
248.3383162595
 10
401.9237826983
 20
248.17490681
 10
402.1594504827
 20
248.0067497291
 10
402.3786765588
 20
247.8341673631
 10
402.5813246686
 20
247.6568373156
 10
402.7694092627
 20
247.4784673841
 10
402.9427781864
 20
247.29955572
 10
403.1015835944
 20
247.1196042022
 10
403.2482964007
 20
246.9408262757
 10
403.3825947523
 20
246.7643305376
 10
403.5048005022
 20
246.5890084603
 10
403.618350124
 20
246.4137478108
 10
403.7236038073
 20
246.2390432772
 10
403.8202013625
 20
246.0644002176
 10
403.9104986941
 20
245.8872223806
 10
403.9950103154
 20
245.707636552
 10
404.073221713
 20
245.5255159638
 10
404.1459452509
 20
245.3378840057
 10
404.2137077756
 20
245.1447462959
 10
404.2759824406
 20
244.9460972201
 10
404.3320010704
 20
244.7389432975
 10
404.3823391687
 20
244.5231136039
 10
404.4264212318
 20
244.2987790768
 10
404.4617525739
 20
244.0634590198
 10
404.4875016331
 20
243.816326552
 10
404.5044999713
 20
243.5582086177
 10
404.5127475884
 20
243.2891052728
  0
LINE
  5
378
100
AcDbEntity
  8
0
100
AcDbLine
 62
250
  6
CONTINUOUS
 10
393.3047423755
 20
255.7208326533
 11
393.3086392401
 21
255.8249364092
  0
LINE
  5
379
100
AcDbEntity
  8
0
100
AcDbLine
 62
250
  6
CONTINUOUS
 10
393.4547195298
 20
255.5848864853
 11
393.4568623152
 21
255.6421304569
  0
LINE
  5
37A
100
AcDbEntity
  8
0
100
AcDbLine
 62
250
  6
CONTINUOUS
 10
392.2411132566
 20
231.1140822878
 11
392.2253909228
 21
230.9741899903
  0
LINE
  5
37B
100
AcDbEntity
  8
0
100
AcDbLine
 62
250
  6
CONTINUOUS
 10
392.3909076868
 20
230.9781361197
 11
392.3880735304
 21
230.9529187024
  0
LINE
  5
37C
100
AcDbEntity
  8
0
100
AcDbLine
 62
7
  6
CONTINUOUS
 10
397.8213503152
 20
258.0575482014
 11
398.1030843152
 21
258.8760352014
  0
LINE
  5
37D
100
AcDbEntity
  8
0
100
AcDbLine
 62
7
  6
CONTINUOUS
 10
397.5740283152
 20
257.3391052014
 11
397.7161003152
 21
257.7417992014
  0
LINE
  5
37E
100
AcDbEntity
  8
0
100
AcDbLine
 62
7
  6
CONTINUOUS
 10
397.8714013152
 20
259.2391052014
 11
397.1845613152
 21
257.3391052014
  0
LINE
  5
37F
100
AcDbEntity
  8
0
100
AcDbLine
 62
250
  6
CONTINUOUS
 10
404.7886078006
 20
256.5779517404
 11
404.8819325654
 21
256.6712765052
  0
LINE
  5
380
100
AcDbEntity
  8
0
100
AcDbLine
 62
250
  6
CONTINUOUS
 10
404.9883337075
 20
256.3782258335
 11
405.1479092371
 21
256.5378013631
  0
LINE
  5
381
100
AcDbEntity
  8
0
100
AcDbLine
 62
250
  6
CONTINUOUS
 10
404.8819325654
 20
229.9069338976
 11
404.7886078006
 21
230.0002586624
  0
LINE
  5
382
100
AcDbEntity
  8
0
100
AcDbLine
 62
250
  6
CONTINUOUS
 10
405.1479092371
 20
230.0404090397
 11
404.9883337075
 21
230.1999845694
  0
LINE
  5
383
100
AcDbEntity
  8
0
100
AcDbLine
 62
7
  6
CONTINUOUS
 10
403.7071283152
 20
225.4141052014
 11
404.1789243152
 21
224.6672392014
  0
LINE
  5
384
100
AcDbEntity
  8
0
100
AcDbLine
 62
250
  6
CONTINUOUS
 10
392.2253909228
 20
255.6040204126
 11
392.2411132566
 21
255.4641281151
  0
LINE
  5
385
100
AcDbEntity
  8
0
100
AcDbLine
 62
250
  6
CONTINUOUS
 10
392.3880735304
 20
255.6252917005
 11
392.3909076868
 21
255.6000742832
  0
LINE
  5
386
100
AcDbEntity
  8
0
100
AcDbLine
 62
7
  6
CONTINUOUS
 10
394.2502243152
 20
259.2391052014
 11
394.2502243152
 21
257.3391052014
  0
LINE
  5
387
100
AcDbEntity
  8
0
100
AcDbLine
 62
7
  6
CONTINUOUS
 10
394.6581383152
 20
257.3391052014
 11
394.6581383152
 21
258.0707762014
  0
LINE
  5
388
100
AcDbEntity
  8
0
100
AcDbLine
 62
7
  6
CONTINUOUS
 10
394.6581383152
 20
258.3865252014
 11
394.6581383152
 21
258.9233562014
  0
LINE
  5
389
100
AcDbEntity
  8
0
100
AcDbLine
 62
7
  6
CONTINUOUS
 10
395.0194723152
 20
225.4141052014
 11
395.0194723152
 21
224.1641052014
  0
LINE
  5
38A
100
AcDbEntity
  8
0
100
AcDbLine
 62
7
  6
CONTINUOUS
 10
395.1883963152
 20
224.3085652014
 11
395.1883963152
 21
225.2696452014
  0
LWPOLYLINE
  5
38B
100
AcDbEntity
  8
0
100
AcDbPolyline
 62
7
  6
CONTINUOUS
 90
21
 70
0
 10
395.179196203
 20
258.6752341602
 10
395.1792057502
 20
258.6345609248
 10
395.1780679658
 20
258.6145684633
 10
395.1758259241
 20
258.5949635496
 10
395.1725301806
 20
258.575687217
 10
395.1681301797
 20
258.5567984348
 10
395.1624742548
 20
258.5384741084
 10
395.155503467
 20
258.5206401239
 10
395.1472767552
 20
258.5033705989
 10
395.1378192702
 20
258.4870647876
 10
395.1271268268
 20
258.471646902
 10
395.1152036102
 20
258.4571927356
 10
395.1020873265
 20
258.4443289173
 10
395.0876048437
 20
258.4333220702
 10
395.0719292937
 20
258.4239055786
 10
395.0556177782
 20
258.4159062135
 10
395.0386846472
 20
258.4094488386
 10
395.0211155506
 20
258.4044085941
 10
395.0034245398
 20
258.4002376643
 10
394.9857696728
 20
258.3969699954
 10
394.9679928915
 20
258.3945716424
  0
LINE
  5
38C
100
AcDbEntity
  8
0
100
AcDbLine
 62
7
  6
CONTINUOUS
 10
399.7776453152
 20
261.5433712014
 11
399.9751053152
 21
262.2484282014
  0
LINE
  5
38D
100
AcDbEntity
  8
0
100
AcDbLine
 62
7
  6
CONTINUOUS
 10
399.5870953152
 20
260.8706112014
 11
399.6965243152
 21
261.2498882014
  0
LINE
  5
38E
100
AcDbEntity
  8
0
100
AcDbLine
 62
7
  6
CONTINUOUS
 10
399.7907383152
 20
262.7704572014
 11
399.1948253152
 21
260.8706112014
  0
LWPOLYLINE
  5
38F
100
AcDbEntity
  8
0
100
AcDbPolyline
 62
7
  6
CONTINUOUS
 90
16
 70
0
 10
408.3660325032
 20
233.7270456783
 10
408.3627599366
 20
233.7286558516
 10
408.35662048
 20
233.7302106091
 10
408.3476141333
 20
233.7317099506
 10
408.3355810641
 20
233.7331685503
 10
408.3206811048
 20
233.7345717341
 10
408.3033937533
 20
233.7358754796
 10
408.2836774244
 20
233.7370753206
 10
408.2615737033
 20
233.7381757232
 10
408.2376868442
 20
233.7391460635
 10
408.2119110425
 20
233.7399840042
 10
408.1843521028
 20
233.7406918827
 10
408.1559316928
 20
233.741246087
 10
408.1269570351
 20
233.7416387465
 10
408.0971209071
 20
233.7418777319
 10
404.2568623152
 20
233.7419630465
  0
LINE
  5
390
100
AcDbEntity
  8
0
100
AcDbLine
 62
7
  6
CONTINUOUS
 10
404.2625273152
 20
224.8134182014
 11
403.9038533152
 21
225.4141052014
  0
LWPOLYLINE
  5
391
100
AcDbEntity
  8
0
100
AcDbPolyline
 62
250
  6
CONTINUOUS
 90
37
 70
0
 10
392.3909076868
 20
255.6000742832
 10
392.3925308368
 20
255.5922553482
 10
392.3949488608
 20
255.584782498
 10
392.3981617587
 20
255.5776557325
 10
392.4022587049
 20
255.5708776175
 10
392.407150525
 20
255.5644455871
 10
392.412569696
 20
255.5583519443
 10
392.4184933904
 20
255.5526021881
 10
392.4249444356
 20
255.5471908195
 10
392.4317237912
 20
255.5420936444
 10
392.4388190227
 20
255.5373109599
 10
392.4462425645
 20
255.532842469
 10
392.45383268
 20
255.5286630871
 10
392.4615749568
 20
255.5247756763
 10
392.4694838073
 20
255.5211773746
 10
392.4774407311
 20
255.5178345109
 10
392.4854289359
 20
255.5147490307
 10
392.493465214
 20
255.5119189886
 10
392.5014814419
 20
255.5093048779
 10
392.5094644551
 20
255.5069058694
 10
392.5174274182
 20
255.5047227923
 10
392.5253417011
 20
255.5027186276
 10
392.5331977371
 20
255.500891207
 10
392.541005093
 20
255.4992426988
 10
392.5487638383
 20
255.4977425886
 10
392.5564669794
 20
255.4963881618
 10
392.56412151
 20
255.4951821331
 10
392.5717484816
 20
255.4941021322
 10
392.5793431302
 20
255.4931451169
 10
392.5869102197
 20
255.4923141294
 10
392.5944850931
 20
255.4915959264
 10
392.602064843
 20
255.4909872104
 10
392.6096523768
 20
255.4904912788
 10
392.6172917599
 20
255.4901047804
 10
392.6249976808
 20
255.4898265981
 10
392.632755451
 20
255.4896578489
 10
392.6405650705
 20
255.4895985329
  0
LWPOLYLINE
  5
392
100
AcDbEntity
  8
0
100
AcDbPolyline
 62
7
  6
CONTINUOUS
 90
37
 70
0
 10
395.6134658763
 20
258.6549409325
 10
395.6130358218
 20
258.6875152642
 10
395.6113000424
 20
258.7196542332
 10
395.6082585382
 20
258.751357842
 10
395.6040032325
 20
258.7826810127
 10
395.598442202
 20
258.8135688279
 10
395.5912996763
 20
258.8438565316
 10
395.5825075543
 20
258.8736211592
 10
395.5721339371
 20
258.9027856815
 10
395.5601073578
 20
258.9309542489
 10
395.5464034122
 20
258.958104235
 10
395.5310465045
 20
258.9842582764
 10
395.5140383808
 20
259.0090884213
 10
395.4952584717
 20
259.0325382303
 10
395.4748273465
 20
259.0546641549
 10
395.4531084598
 20
259.0753075821
 10
395.4300959361
 20
259.0944046302
 10
395.4057956508
 20
259.112019192
 10
395.3805886838
 20
259.1281843162
 10
395.3544390758
 20
259.142851855
 10
395.3273827862
 20
259.1560699647
 10
395.2999087728
 20
259.1680161479
 10
395.2721329763
 20
259.1786456535
 10
395.243939456
 20
259.1880032382
 10
395.2154693479
 20
259.1964006652
 10
395.1868389337
 20
259.2038866987
 10
395.1579319316
 20
259.2104125773
 10
395.128540633
 20
259.2161437748
 10
395.098683125
 20
259.2210944591
 10
395.0683413206
 20
259.2252504639
 10
395.0372532492
 20
259.2287347602
 10
395.0054381601
 20
259.2314652059
 10
394.9728768041
 20
259.2335239439
 10
394.9392494632
 20
259.2352803726
 10
394.9044495646
 20
259.2368576247
 10
394.8685836811
 20
259.2381325676
 10
394.8316518126
 20
259.2391052014
  0
LINE
  5
393
100
AcDbEntity
  8
0
100
AcDbLine
 62
7
  6
CONTINUOUS
 10
395.8687253152
 20
259.2391052014
 11
395.8687253152
 21
257.3391052014
  0
LINE
  5
394
100
AcDbEntity
  8
0
100
AcDbLine
 62
7
  6
CONTINUOUS
 10
395.9997680646
 20
228.9187095708
 11
395.9997680646
 21
228.740674103
  0
LINE
  5
395
100
AcDbEntity
  8
0
100
AcDbLine
 62
7
  6
CONTINUOUS
 10
396.2766393152
 20
257.6548542014
 11
396.2766393152
 21
259.2391052014
  0
LINE
  5
396
100
AcDbEntity
  8
0
100
AcDbLine
 62
7
  6
CONTINUOUS
 10
396.2851913152
 20
225.4141052014
 11
396.2851913152
 21
224.1641052014
  0
LINE
  5
397
100
AcDbEntity
  8
0
100
AcDbLine
 62
7
  6
CONTINUOUS
 10
396.3681173038
 20
228.9627068288
 11
396.3681173038
 21
227.7891052014
  0
LINE
  5
398
100
AcDbEntity
  8
0
100
AcDbLine
 62
7
  6
CONTINUOUS
 10
396.4541063152
 20
224.3138222014
 11
396.4541063152
 21
224.7316342014
  0
LINE
  5
399
100
AcDbEntity
  8
0
100
AcDbLine
 62
7
  6
CONTINUOUS
 10
396.4541063152
 20
224.8813512014
 11
396.4541063152
 21
225.2643882014
  0
LINE
  5
39A
100
AcDbEntity
  8
0
100
AcDbLine
 62
7
  6
CONTINUOUS
 10
396.552291901
 20
227.7891052014
 11
396.552291901
 21
229.2952444202
  0
LINE
  5
39B
100
AcDbEntity
  8
0
100
AcDbLine
 62
7
  6
CONTINUOUS
 10
396.5957213152
 20
262.7705712014
 11
396.5957213152
 21
260.8706112014
  0
LINE
  5
39C
100
AcDbEntity
  8
0
100
AcDbLine
 62
7
  6
CONTINUOUS
 10
396.9636152696
 20
228.3170724756
 11
396.9636152696
 21
228.1482457242
  0
LINE
  5
39D
100
AcDbEntity
  8
0
100
AcDbLine
 62
7
  6
CONTINUOUS
 10
396.9796383152
 20
257.3391052014
 11
396.9796383152
 21
257.6548542014
  0
LINE
  5
39E
100
AcDbEntity
  8
0
100
AcDbLine
 62
7
  6
CONTINUOUS
 10
396.9922933152
 20
260.8706112014
 11
396.9922933152
 21
262.7705712014
  0
LINE
  5
39F
100
AcDbEntity
  8
0
100
AcDbLine
 62
7
  6
CONTINUOUS
 10
397.1383053152
 20
224.7316342014
 11
397.1383053152
 21
224.8813512014
  0
LWPOLYLINE
  5
3A0
100
AcDbEntity
  8
0
100
AcDbPolyline
 62
7
  6
CONTINUOUS
 90
25
 70
0
 10
395.8775441625
 20
224.7891052014
 10
395.8774510972
 20
224.7572487367
 10
395.8761927816
 20
224.7261521814
 10
395.8737692157
 20
224.6958155303
 10
395.8701466096
 20
224.6662754259
 10
395.8653587532
 20
224.6374952156
 10
395.8595070165
 20
224.6093649527
 10
395.8527922278
 20
224.5817649429
 10
395.8450135588
 20
224.5548148731
 10
395.8356698944
 20
224.5287638678
 10
395.8246320948
 20
224.5035817904
 10
395.8120292998
 20
224.4792987675
 10
395.7977478136
 20
224.4562543147
 10
395.7816956346
 20
224.4344259674
 10
395.7639647643
 20
224.4138361779
 10
395.7447175119
 20
224.3948918342
 10
395.723837187
 20
224.3776208918
 10
395.70144048
 20
224.3619953817
 10
395.67803977
 20
224.348338303
 10
395.6536490736
 20
224.3367504074
 10
395.6282543743
 20
224.3271309317
 10
395.6023260015
 20
224.3195006031
 10
395.5760207316
 20
224.3138663287
 10
395.5491817882
 20
224.3102211954
 10
395.5218091714
 20
224.3085652014
  0
LWPOLYLINE
  5
3A1
100
AcDbEntity
  8
0
100
AcDbPolyline
 62
7
  6
CONTINUOUS
 90
25
 70
0
 10
396.0513021407
 20
224.7891052014
 10
396.0514885849
 20
224.8316114037
 10
396.049654488
 20
224.87314511
 10
396.0457998501
 20
224.913706311
 10
396.0398829192
 20
224.9532922471
 10
396.0319454473
 20
224.9919056601
 10
396.0221126899
 20
225.0295547934
 10
396.0104927667
 20
225.0663813815
 10
395.996977558
 20
225.1022436744
 10
395.9813679603
 20
225.1367246867
 10
395.9636116074
 20
225.1698123201
 10
395.9437608654
 20
225.201518652
 10
395.9217737291
 20
225.2314629556
 10
395.897514431
 20
225.2596824326
 10
395.8711187387
 20
225.2861398589
 10
395.8429519495
 20
225.3103428643
 10
395.8129588909
 20
225.3322908372
 10
395.7811947354
 20
225.3519843666
 10
395.748190298
 20
225.3689328798
 10
395.7138910756
 20
225.3828947658
 10
395.6783515713
 20
225.3941116167
 10
395.6422661088
 20
225.4028176657
 10
395.6058661294
 20
225.4090909882
 10
395.5689201917
 20
225.4128535008
 10
395.5314282959
 20
225.4141052014
  0
LINE
  5
3A2
100
AcDbEntity
  8
0
100
AcDbLine
 62
7
  6
CONTINUOUS
 10
397.5851713152
 20
260.8706112014
 11
397.6707523152
 21
262.1111752014
  0
LINE
  5
3A3
100
AcDbEntity
  8
0
100
AcDbLine
 62
7
  6
CONTINUOUS
 10
397.3773263152
 20
262.7704572014
 11
397.2057813152
 21
260.8706112014
  0
LINE
  5
3A4
100
AcDbEntity
  8
0
100
AcDbLine
 62
250
  6
CONTINUOUS
 10
393.2547499907
 20
233.575709892
 11
393.2579449058
 21
233.5853024317
  0
LINE
  5
3A5
100
AcDbEntity
  8
0
100
AcDbLine
 62
250
  6
CONTINUOUS
 10
393.4547195298
 20
233.375983985
 11
393.4568623152
 21
233.3824175689
  0
LINE
  5
3A6
100
AcDbEntity
  8
0
100
AcDbLine
 62
7
  6
CONTINUOUS
 10
401.7687873152
 20
258.0575482014
 11
402.0504843152
 21
258.8759282014
  0
LINE
  5
3A7
100
AcDbEntity
  8
0
100
AcDbLine
 62
7
  6
CONTINUOUS
 10
401.5213933152
 20
257.3391052014
 11
401.6635373152
 21
257.7417992014
  0
LINE
  5
3A8
100
AcDbEntity
  8
0
100
AcDbLine
 62
7
  6
CONTINUOUS
 10
401.8188383152
 20
259.2391052014
 11
401.1319263152
 21
257.3391052014
  0
LWPOLYLINE
  5
3A9
100
AcDbEntity
  8
0
100
AcDbPolyline
 62
250
  6
CONTINUOUS
 90
16
 70
0
 10
404.6206688411
 20
256.6385186403
 10
404.6276460608
 20
256.6485845553
 10
404.6359880174
 20
256.6576082769
 10
404.6455314642
 20
256.6653998045
 10
404.6560937891
 20
256.6717785101
 10
404.6674503201
 20
256.6766263632
 10
404.6793625481
 20
256.6798994162
 10
404.6916106703
 20
256.6815545564
 10
404.703972342
 20
256.6815418858
 10
404.7162163255
 20
256.6798616579
 10
404.7281262372
 20
256.6765621954
 10
404.7394759067
 20
256.6716881405
 10
404.7500116315
 20
256.665295433
 10
404.7595093781
 20
256.6575129707
 10
404.7677991153
 20
256.6485230709
 10
404.7747257759
 20
256.6385184715
  0
LINE
  5
3AA
100
AcDbEntity
  8
0
100
AcDbLine
 62
7
  6
CONTINUOUS
 10
402.6921673152
 20
224.1641052014
 11
402.2394473152
 21
225.4141052014
  0
LINE
  5
3AB
100
AcDbEntity
  8
0
100
AcDbLine
 62
7
  6
CONTINUOUS
 10
402.3839683152
 20
224.5279342014
 11
402.5075733152
 21
224.1641052014
  0
LINE
  5
3AC
100
AcDbEntity
  8
0
100
AcDbLine
 62
7
  6
CONTINUOUS
 10
402.1367793152
 20
225.2327942014
 11
402.3230203152
 21
224.6776512014
  0
LINE
  5
3AD
100
AcDbEntity
  8
0
100
AcDbLine
 62
250
  6
CONTINUOUS
 10
393.2579449058
 20
252.9929079711
 11
393.2547499907
 21
253.0025005109
  0
LINE
  5
3AE
100
AcDbEntity
  8
0
100
AcDbLine
 62
250
  6
CONTINUOUS
 10
393.4568623152
 20
253.195792834
 11
393.4547195298
 21
253.2022264178
  0
LWPOLYLINE
  5
3AF
100
AcDbEntity
  8
0
100
AcDbPolyline
 62
250
  6
CONTINUOUS
 90
37
 70
0
 10
392.2411132566
 20
255.4641281151
 10
392.2434142486
 20
255.4563084471
 10
392.2473433651
 20
255.4488352025
 10
392.2527196899
 20
255.4417083814
 10
392.2593516182
 20
255.4349307593
 10
392.2670737368
 20
255.4284995607
 10
392.2757725457
 20
255.422406459
 10
392.2853112151
 20
255.4166566115
 10
392.2955507861
 20
255.4112448609
 10
392.3064190147
 20
255.4061474097
 10
392.3178166904
 20
255.4013647329
 10
392.3296300506
 20
255.3968963555
 10
392.3417932652
 20
255.3927170542
 10
392.3542179118
 20
255.3888296306
 10
392.3668216453
 20
255.3852312831
 10
392.3795661333
 20
255.3818883834
 10
392.3923770897
 20
255.3788028941
 10
392.4051972863
 20
255.3759728526
 10
392.418031269
 20
255.3733587418
 10
392.4308263351
 20
255.3709597289
 10
392.4435399267
 20
255.3687766467
 10
392.4562076815
 20
255.3667724768
 10
392.4687931766
 20
255.36494505
 10
392.4812659075
 20
255.3632965354
 10
392.4936830992
 20
255.3617964224
 10
392.506019101
 20
255.3604420004
 10
392.5182529839
 20
255.3592359799
 10
392.5304585295
 20
255.3581559815
 10
392.542617409
 20
255.3571989553
 10
392.5547149694
 20
255.3563679512
 10
392.5668371057
 20
255.3556497402
 10
392.578969684
 20
255.3550410347
 10
392.5911017108
 20
255.3545451223
 10
392.6033277742
 20
255.3541586359
 10
392.6156724558
 20
255.3538804529
 10
392.6280888152
 20
255.3537116959
 10
392.6405650705
 20
255.3536523649
  0
LINE
  5
3B0
100
AcDbEntity
  8
0
100
AcDbLine
 62
7
  6
CONTINUOUS
 10
397.1957553152
 20
225.2643882014
 11
397.1957553152
 21
225.4141052014
  0
LINE
  5
3B1
100
AcDbEntity
  8
0
100
AcDbLine
 62
7
  6
CONTINUOUS
 10
397.2079573152
 20
224.1641052014
 11
397.2079573152
 21
224.3138222014
  0
LINE
  5
3B2
100
AcDbEntity
  8
0
100
AcDbLine
 62
7
  6
CONTINUOUS
 10
397.6143656682
 20
228.9934025652
 11
397.6143656682
 21
228.3170724756
  0
LINE
  5
3B3
100
AcDbEntity
  8
0
100
AcDbLine
 62
7
  6
CONTINUOUS
 10
397.6143656682
 20
228.1482457242
 11
397.6143656682
 21
227.7891052014
  0
LINE
  5
3B4
100
AcDbEntity
  8
0
100
AcDbLine
 62
7
  6
CONTINUOUS
 10
397.7985402655
 20
227.7891052014
 11
397.7985402655
 21
228.1482457242
  0
LINE
  5
3B5
100
AcDbEntity
  8
0
100
AcDbLine
 62
7
  6
CONTINUOUS
 10
397.7985402655
 20
228.3170724756
 11
397.7985402655
 21
229.2891052014
  0
LINE
  5
3B6
100
AcDbEntity
  8
0
100
AcDbLine
 62
7
  6
CONTINUOUS
 10
397.9391953152
 20
225.4141052014
 11
397.9391953152
 21
224.1641052014
  0
LINE
  5
3B7
100
AcDbEntity
  8
0
100
AcDbLine
 62
7
  6
CONTINUOUS
 10
398.0011323404
 20
228.1482457242
 11
398.0011323404
 21
228.3170724756
  0
LINE
  5
3B8
100
AcDbEntity
  8
0
100
AcDbLine
 62
7
  6
CONTINUOUS
 10
398.1080583152
 20
224.1641052014
 11
398.1080583152
 21
225.4141052014
  0
LINE
  5
3B9
100
AcDbEntity
  8
0
100
AcDbLine
 62
7
  6
CONTINUOUS
 10
398.330600233
 20
228.9187095708
 11
398.330600233
 21
228.740674103
  0
LINE
  5
3BA
100
AcDbEntity
  8
0
100
AcDbLine
 62
7
  6
CONTINUOUS
 10
398.3970193152
 20
225.4141052014
 11
398.3970193152
 21
224.1641052014
  0
LINE
  5
3BB
100
AcDbEntity
  8
0
100
AcDbLine
 62
7
  6
CONTINUOUS
 10
398.5607373152
 20
224.1641052014
 11
398.5607373152
 21
225.1792552014
  0
LINE
  5
3BC
100
AcDbEntity
  8
0
100
AcDbLine
 62
7
  6
CONTINUOUS
 10
398.6989494275
 20
228.9627068288
 11
398.6989494275
 21
227.7891052014
  0
LWPOLYLINE
  5
3BD
100
AcDbEntity
  8
0
100
AcDbPolyline
 62
7
  6
CONTINUOUS
 90
25
 70
0
 10
404.3007504462
 20
256.737247337
 10
404.3202959722
 20
256.7808626441
 10
404.3437861457
 20
256.8211953156
 10
404.3712209666
 20
256.8582453727
 10
404.4030257021
 20
256.8923794516
 10
404.4387750851
 20
256.9232309526
 10
404.4771933139
 20
256.9497000468
 10
404.5183806556
 20
256.971630607
 10
404.5622368431
 20
256.9891787956
 10
404.6071852728
 20
257.0017132209
 10
404.6532637269
 20
257.0090505294
 10
404.7004344231
 20
257.0113740913
 10
404.7470074117
 20
257.0086025956
 10
404.7929591786
 20
257.0005531047
 10
404.8383132379
 20
256.9874085469
 10
404.8814501816
 20
256.9696364049
 10
404.9222940276
 20
256.9470664761
 10
404.960920758
 20
256.9198689319
 10
404.9959389109
 20
256.8890218154
 10
405.0272150043
 20
256.8543899731
 10
405.0548825203
 20
256.8161085191
 10
405.0779504434
 20
256.7755609076
 10
405.0960884353
 20
256.7332082836
 10
405.1096268343
 20
256.6885894742
 10
405.1185656406
 20
256.6417044631
  0
LINE
  5
3BE
100
AcDbEntity
  8
0
100
AcDbLine
 62
7
  6
CONTINUOUS
 10
388.8476921271
 20
233.7270456783
 11
388.8097516503
 21
233.6891052014
  0
LINE
  5
3BF
100
AcDbEntity
  8
0
100
AcDbLine
 62
7
  6
CONTINUOUS
 10
408.3660325032
 20
252.8511647246
 11
408.40397298
 21
252.8891052014
  0
LINE
  5
3C0
100
AcDbEntity
  8
0
100
AcDbLine
 62
7
  6
CONTINUOUS
 10
388.8476921271
 20
252.8511647246
 11
388.8097516503
 21
252.8891052014
  0
LINE
  5
3C1
100
AcDbEntity
  8
0
100
AcDbLine
 62
7
  6
CONTINUOUS
 10
408.3660325032
 20
233.7270456783
 11
408.40397298
 21
233.6891052014
  0
LWPOLYLINE
  5
3C2
100
AcDbEntity
  8
0
100
AcDbPolyline
 62
7
  6
CONTINUOUS
 90
10
 70
0
 10
399.3558388662
 20
228.1850806571
 10
399.3615990794
 20
228.1432570644
 10
399.3700255739
 20
228.1034881639
 10
399.3811183498
 20
228.0657739408
 10
399.3948670297
 20
228.0302161939
 10
399.411281991
 20
227.9967130966
 10
399.4303943653
 20
227.9649591993
 10
399.4522145298
 20
227.9348526795
 10
399.4767321074
 20
227.9064953403
 10
399.5039470981
 20
227.8798871724
  0
LINE
  5
3C3
100
AcDbEntity
  8
0
100
AcDbLine
 62
7
  6
CONTINUOUS
 10
398.6631233152
 20
262.1060032014
 11
398.7446003152
 21
260.8706112014
  0
LWPOLYLINE
  5
3C4
100
AcDbEntity
  8
0
100
AcDbPolyline
 62
7
  6
CONTINUOUS
 90
10
 70
0
 10
400.2644339513
 20
228.9054080493
 10
400.2637652583
 20
228.927649733
 10
400.2617441381
 20
228.949667361
 10
400.2583705909
 20
228.9714609323
 10
400.253673251
 20
228.9929883442
 10
400.247623484
 20
229.0142916976
 10
400.2401353868
 20
229.0354972976
 10
400.2311803249
 20
229.0566472459
 10
400.2207869328
 20
229.0776994401
 10
400.2089552105
 20
229.0986538799
  0
LWPOLYLINE
  5
3C5
100
AcDbEntity
  8
0
100
AcDbPolyline
 62
7
  6
CONTINUOUS
 90
10
 70
0
 10
400.3381035041
 20
228.2321474797
 10
400.337158094
 20
228.2640041
 10
400.3343741737
 20
228.2946350938
 10
400.3297517433
 20
228.3240404542
 10
400.3232528254
 20
228.3522614019
 10
400.3149153973
 20
228.3792567033
 10
400.3048533914
 20
228.4049026697
 10
400.2931047849
 20
228.4291580673
 10
400.2796316005
 20
228.4520641176
 10
400.2644338382
 20
228.473620815
  0
LINE
  5
3C6
100
AcDbEntity
  8
0
100
AcDbLine
 62
7
  6
CONTINUOUS
 10
398.8831242036
 20
227.7891052014
 11
398.8831242036
 21
229.2952444202
  0
LINE
  5
3C7
100
AcDbEntity
  8
0
100
AcDbLine
 62
7
  6
CONTINUOUS
 10
399.2239893152
 20
259.2391052014
 11
399.2239893152
 21
257.3391052014
  0
LINE
  5
3C8
100
AcDbEntity
  8
0
100
AcDbLine
 62
7
  6
CONTINUOUS
 10
399.2258103152
 20
225.4141052014
 11
399.2258103152
 21
224.3987502014
  0
LINE
  5
3C9
100
AcDbEntity
  8
0
100
AcDbLine
 62
7
  6
CONTINUOUS
 10
399.3894473152
 20
224.1641052014
 11
399.3894473152
 21
225.4141052014
  0
LINE
  5
3CA
100
AcDbEntity
  8
0
100
AcDbLine
 62
7
  6
CONTINUOUS
 10
399.6055903152
 20
257.3391052014
 11
399.6055903152
 21
258.9292772014
  0
LINE
  5
3CB
100
AcDbEntity
  8
0
100
AcDbLine
 62
7
  6
CONTINUOUS
 10
400.1641543152
 20
225.4141052014
 11
400.1641543152
 21
224.1641052014
  0
LINE
  5
3CC
100
AcDbEntity
  8
0
100
AcDbLine
 62
7
  6
CONTINUOUS
 10
400.3330683152
 20
224.1641052014
 11
400.3330683152
 21
225.4141052014
  0
LINE
  5
3CD
100
AcDbEntity
  8
0
100
AcDbLine
 62
250
  6
CONTINUOUS
 10
403.7590051006
 20
253.2022264178
 11
403.7568623152
 21
253.195792834
  0
LINE
  5
3CE
100
AcDbEntity
  8
0
100
AcDbLine
 62
7
  6
CONTINUOUS
 10
393.0765623152
 20
224.1641052014
 11
393.4281963152
 21
225.2139432014
  0
LINE
  5
3CF
100
AcDbEntity
  8
0
100
AcDbLine
 62
7
  6
CONTINUOUS
 10
393.3516193152
 20
225.4141052014
 11
392.9947113152
 21
224.3522072014
  0
LWPOLYLINE
  5
3D0
100
AcDbEntity
  8
0
100
AcDbPolyline
 62
7
  6
CONTINUOUS
 90
25
 70
0
 10
392.9129741842
 20
229.8409630659
 10
392.8934286581
 20
229.7973477588
 10
392.8699384846
 20
229.7570150873
 10
392.8425036638
 20
229.7199650301
 10
392.8106989282
 20
229.6858309513
 10
392.7749495452
 20
229.6549794503
 10
392.7365313165
 20
229.6285103561
 10
392.6953439747
 20
229.6065797959
 10
392.6514877872
 20
229.5890316073
 10
392.6065393575
 20
229.576497182
 10
392.5604609035
 20
229.5691598734
 10
392.5132902072
 20
229.5668363116
 10
392.4667172186
 20
229.5696078073
 10
392.4207654517
 20
229.5776572982
 10
392.3754113924
 20
229.5908018559
 10
392.3322744488
 20
229.608573998
 10
392.2914306028
 20
229.6311439268
 10
392.2528038724
 20
229.658341471
 10
392.2177857194
 20
229.6891885875
 10
392.186509626
 20
229.7238204297
 10
392.1588421101
 20
229.7621018837
 10
392.1357741869
 20
229.8026494953
 10
392.1176361951
 20
229.8450021192
 10
392.104097796
 20
229.8896209287
 10
392.0951589898
 20
229.9365059397
  0
LWPOLYLINE
  5
3D1
100
AcDbEntity
  8
0
100
AcDbPolyline
 62
250
  6
CONTINUOUS
 90
15
 70
0
 10
408.6135169328
 20
229.1908504262
 10
408.598467583
 20
229.2142085415
 10
408.5843210976
 20
229.2358296221
 10
408.5711274128
 20
229.2556463353
 10
408.5588365923
 20
229.2737393918
 10
408.5472732623
 20
229.2903589124
 10
408.536447915
 20
229.3054430207
 10
408.5263500582
 20
229.3190554629
 10
408.5167728412
 20
229.3315059562
 10
408.507706413
 20
229.3426378372
 10
408.4991606246
 20
229.3524655017
 10
408.4909581792
 20
229.3612639189
 10
408.4830399777
 20
229.3688307993
 10
408.4754651191
 20
229.3747107327
 10
408.4682336035
 20
229.3785755513
  0
LWPOLYLINE
  5
3D2
100
AcDbEntity
  8
0
100
AcDbPolyline
 62
250
  6
CONTINUOUS
 90
3
 70
0
 10
408.6642927401
 20
229.1101912082
 10
408.6464295113
 20
229.1387876765
 10
408.6135169328
 20
229.1908504262
  0
LINE
  5
3D3
100
AcDbEntity
  8
0
100
AcDbLine
 62
250
  6
CONTINUOUS
 10
408.7443675739
 20
228.9800976721
 11
408.6642927401
 21
229.1101912082
  0
LWPOLYLINE
  5
3D4
100
AcDbEntity
  8
0
100
AcDbPolyline
 62
7
  6
CONTINUOUS
 90
9
 70
0
 10
408.4155426996
 20
229.624694295
 10
408.4094473751
 20
229.6346751342
 10
408.4035045791
 20
229.6442897597
 10
408.3977182728
 20
229.6535239767
 10
408.392084495
 20
229.6623919801
 10
408.3865913628
 20
229.6709363541
 10
408.3812349153
 20
229.6791712936
 10
408.3760191134
 20
229.6870826038
 10
408.3709439571
 20
229.6946702847
  0
LINE
  5
3D5
100
AcDbEntity
  8
0
100
AcDbLine
 62
7
  6
CONTINUOUS
 10
408.4668623152
 20
229.5391052014
 11
408.4155426996
 21
229.624694295
  0
LINE
  5
3D6
100
AcDbEntity
  8
0
100
AcDbLine
 62
7
  6
CONTINUOUS
 10
408.2120311798
 20
226.8090893709
 11
408.2220225036
 21
226.7891052014
  0
LINE
  5
3D7
100
AcDbEntity
  8
0
100
AcDbLine
 62
250
  6
CONTINUOUS
 10
403.7590051006
 20
233.375983985
 11
403.7568623152
 21
233.3824175689
  0
LINE
  5
3D8
100
AcDbEntity
  8
0
100
AcDbLine
 62
7
  6
CONTINUOUS
 10
399.1325533152
 20
260.8706112014
 11
398.9548963152
 21
262.7704572014
  0
LINE
  5
3D9
100
AcDbEntity
  8
0
100
AcDbLine
 62
7
  6
CONTINUOUS
 10
400.5141343152
 20
225.4141052014
 11
400.5141343152
 21
225.2643882014
  0
LINE
  5
3DA
100
AcDbEntity
  8
0
100
AcDbLine
 62
7
  6
CONTINUOUS
 10
400.5582003152
 20
259.2391052014
 11
400.5582003152
 21
257.7334452014
  0
LINE
  5
3DB
100
AcDbEntity
  8
0
100
AcDbLine
 62
7
  6
CONTINUOUS
 10
400.6614323568
 20
228.9187095708
 11
400.6614323568
 21
228.740674103
  0
LINE
  5
3DC
100
AcDbEntity
  8
0
100
AcDbLine
 62
7
  6
CONTINUOUS
 10
400.8737469179
 20
262.7482606602
 11
400.8737469179
 21
260.8706114554
  0
LINE
  5
3DD
100
AcDbEntity
  8
0
100
AcDbLine
 62
7
  6
CONTINUOUS
 10
400.9372033152
 20
225.2643882014
 11
400.9372033152
 21
224.1641052014
  0
LINE
  5
3DE
100
AcDbEntity
  8
0
100
AcDbLine
 62
7
  6
CONTINUOUS
 10
400.9398023152
 20
257.3391052014
 11
400.9398023152
 21
259.2391052014
  0
LINE
  5
3DF
100
AcDbEntity
  8
0
100
AcDbLine
 62
7
  6
CONTINUOUS
 10
401.0297815513
 20
228.9627068288
 11
401.0297815513
 21
227.7891052014
  0
LINE
  5
3E0
100
AcDbEntity
  8
0
100
AcDbLine
 62
7
  6
CONTINUOUS
 10
401.1060573152
 20
224.1641052014
 11
401.1060573152
 21
225.2643882014
  0
LINE
  5
3E1
100
AcDbEntity
  8
0
100
AcDbLine
 62
7
  6
CONTINUOUS
 10
401.2139563274
 20
227.7891052014
 11
401.2139563274
 21
229.2952444202
  0
LINE
  5
3E2
100
AcDbEntity
  8
0
100
AcDbLine
 62
7
  6
CONTINUOUS
 10
401.2555738183
 20
261.9252549372
 11
401.2555738183
 21
262.4467996247
  0
LINE
  5
3E3
100
AcDbEntity
  8
0
100
AcDbLine
 62
7
  6
CONTINUOUS
 10
401.2687235601
 20
260.8706114554
 11
401.2687235601
 21
261.6141061179
  0
LINE
  5
3E4
100
AcDbEntity
  8
0
100
AcDbLine
 62
7
  6
CONTINUOUS
 10
401.5291263152
 20
225.2643882014
 11
401.5291263152
 21
225.4141052014
  0
LINE
  5
3E5
100
AcDbEntity
  8
0
100
AcDbLine
 62
7
  6
CONTINUOUS
 10
401.8979673063
 20
261.7555231676
 11
401.8979673063
 21
261.7694518918
  0
LWPOLYLINE
  5
3E6
100
AcDbEntity
  8
0
100
AcDbPolyline
 62
7
  6
CONTINUOUS
 90
25
 70
0
 10
401.7902682476
 20
262.2204901469
 10
401.7898704246
 20
262.1995628913
 10
401.7882695025
 20
262.1788955166
 10
401.7854654813
 20
262.1584880241
 10
401.781466224
 20
262.1382669081
 10
401.7762638675
 20
262.1183056766
 10
401.7698348229
 20
262.098824852
 10
401.762191712
 20
262.0797459164
 10
401.753321913
 20
262.0611473919
 10
401.7431639725
 20
262.0434853632
 10
401.7316725225
 20
262.0267460819
 10
401.718892931
 20
262.0109433037
 10
401.7048998476
 20
261.9965743733
 10
401.6895584397
 20
261.9838155996
 10
401.67300354
 20
261.972490683
 10
401.6557142966
 20
261.9625680565
 10
401.637691894
 20
261.9541404595
 10
401.6189351477
 20
261.9471151587
 10
401.5999196527
 20
261.9411823766
 10
401.5807718362
 20
261.9363371562
 10
401.5613652711
 20
261.9325844571
 10
401.5417962706
 20
261.9296293757
 10
401.5220969394
 20
261.9273736109
 10
401.5022351728
 20
261.9259154646
 10
401.4822109711
 20
261.9252549372
  0
LWPOLYLINE
  5
3E7
100
AcDbEntity
  8
0
100
AcDbPolyline
 62
7
  6
CONTINUOUS
 90
10
 70
0
 10
400.1426738214
 20
228.2280547417
 10
400.1414633711
 20
228.1988135996
 10
400.1380782501
 20
228.1707306629
 10
400.1325184585
 20
228.1438059258
 10
400.1248062981
 20
228.1181072964
 10
400.1149194671
 20
228.0935668555
 10
400.1027910593
 20
228.069980857
 10
400.0883987728
 20
228.0472813833
 10
400.0717649095
 20
228.0255363443
 10
400.0528894695
 20
228.0047457361
  0
LWPOLYLINE
  5
3E8
100
AcDbEntity
  8
0
100
AcDbPolyline
 62
7
  6
CONTINUOUS
 90
10
 70
0
 10
400.0751433086
 20
228.909500832
 10
400.0739788054
 20
228.8817805089
 10
400.0704673943
 20
228.8557308321
 10
400.0646090753
 20
228.831351794
 10
400.0563785206
 20
228.8086328788
 10
400.045801058
 20
228.7875845889
 10
400.0329526707
 20
228.7682384442
 10
400.0178586866
 20
228.7506049478
 10
400.000493778
 20
228.7346735856
 10
399.9808579447
 20
228.720444353
  0
LINE
  5
3E9
100
AcDbEntity
  8
0
100
AcDbLine
 62
7
  6
CONTINUOUS
 10
399.7395360183
 20
228.6608650631
 11
399.719072194
 21
228.4992006815
  0
LWPOLYLINE
  5
3EA
100
AcDbEntity
  8
0
100
AcDbPolyline
 62
7
  6
CONTINUOUS
 90
10
 70
0
 10
399.5584311199
 20
228.8736891396
 10
399.5631476775
 20
228.9016532532
 10
399.5692489814
 20
228.9283689878
 10
399.5767350317
 20
228.9538363374
 10
399.5856226772
 20
228.9781992966
 10
399.5958950691
 20
229.0013138605
 10
399.6075016604
 20
229.0227480221
 10
399.6204256022
 20
229.0423577745
 10
399.6346837434
 20
229.0602871124
 10
399.6502760841
 20
229.0765360307
  0
LINE
  5
3EB
100
AcDbEntity
  8
0
100
AcDbLine
 62
250
  6
CONTINUOUS
 10
403.9589746396
 20
253.0025005109
 11
403.9557797245
 21
252.9929079711
  0
LINE
  5
3EC
100
AcDbEntity
  8
0
100
AcDbLine
 62
7
  6
CONTINUOUS
 10
393.9157113152
 20
224.1641052014
 11
394.0463013152
 21
224.5279342014
  0
LINE
  5
3ED
100
AcDbEntity
  8
0
100
AcDbLine
 62
7
  6
CONTINUOUS
 10
394.0985463152
 20
224.6776512014
 11
394.3005583152
 21
225.2327942014
  0
LINE
  5
3EE
100
AcDbEntity
  8
0
100
AcDbLine
 62
7
  6
CONTINUOUS
 10
394.2116673152
 20
225.4141052014
 11
393.7416313152
 21
224.1641052014
  0
LWPOLYLINE
  5
3EF
100
AcDbEntity
  8
0
100
AcDbPolyline
 62
250
  6
CONTINUOUS
 90
16
 70
0
 10
392.5930557932
 20
229.9396917692
 10
392.5860785751
 20
229.9296258543
 10
392.5777366197
 20
229.9206021322
 10
392.5681931734
 20
229.9128106035
 10
392.5576308482
 20
229.9064318963
 10
392.5462743159
 20
229.9015840417
 10
392.5343620867
 20
229.8983109876
 10
392.522113964
 20
229.8966558467
 10
392.5097522921
 20
229.8966685168
 10
392.497508308
 20
229.8983487444
 10
392.4855983891
 20
229.901648209
 10
392.4742487129
 20
229.9065222682
 10
392.4637129975
 20
229.9129149708
 10
392.4542152769
 20
229.9206974087
 10
392.4459255701
 20
229.9296872636
 10
392.4389989372
 20
229.9396917949
  0
LWPOLYLINE
  5
3F0
100
AcDbEntity
  8
0
100
AcDbPolyline
 62
250
  6
CONTINUOUS
 90
19
 70
0
 10
404.9726113737
 20
231.1140799035
 10
404.9682356922
 20
231.1263358304
 10
404.9598758454
 20
231.137864726
 10
404.9480135091
 20
231.1486665902
 10
404.9331418495
 20
231.1587677748
 10
404.9157380587
 20
231.1681419281
 10
404.8962427605
 20
231.1767099951
 10
404.8751468315
 20
231.1844179745
 10
404.8528136726
 20
231.1913198676
 10
404.8293919273
 20
231.1974986227
 10
404.8053677919
 20
231.2029313033
 10
404.7808573361
 20
231.2076408459
 10
404.7552490502
 20
231.2117790082
 10
404.7287797991
 20
231.2154095048
 10
404.7015031093
 20
231.2184686211
 10
404.6723208161
 20
231.2209169712
 10
404.6408981333
 20
231.2227414264
 10
404.6077807504
 20
231.2239551153
 10
404.5731595598
 20
231.224558038
  0
LINE
  5
3F1
100
AcDbEntity
  8
0
100
AcDbLine
 62
250
  6
CONTINUOUS
 10
403.9589746396
 20
233.575709892
 11
403.9557797245
 21
233.5853024317
  0
LINE
  5
3F2
100
AcDbEntity
  8
0
100
AcDbLine
 62
7
  6
CONTINUOUS
 10
394.8860983152
 20
262.7704572014
 11
395.4883863152
 21
260.8706112014
  0
LINE
  5
3F3
100
AcDbEntity
  8
0
100
AcDbLine
 62
7
  6
CONTINUOUS
 10
395.6790433152
 20
261.4627342014
 11
395.3168983152
 21
262.7704572014
  0
LWPOLYLINE
  5
3F4
100
AcDbEntity
  8
0
100
AcDbPolyline
 62
250
  6
CONTINUOUS
 90
19
 70
0
 10
404.8228169435
 20
230.9781361197
 10
404.8195792474
 20
230.9903886551
 10
404.8144546198
 20
231.0019155377
 10
404.8074430609
 20
231.0127167674
 10
404.7982646922
 20
231.0228194622
 10
404.7871993922
 20
231.032196504
 10
404.7750867956
 20
231.0407665394
 10
404.762026477
 20
231.0484744701
 10
404.7479188619
 20
231.0553753942
 10
404.7333048612
 20
231.0615532529
 10
404.7183993397
 20
231.0669853236
 10
404.7029874328
 20
231.0716943289
 10
404.6869654571
 20
231.0758323773
 10
404.6704712679
 20
231.0794636133
 10
404.6533670101
 20
231.0825238924
 10
404.6351354351
 20
231.0849728901
 10
404.6156041271
 20
231.0867971649
 10
404.594945502
 20
231.0880101581
 10
404.5731595598
 20
231.0886118699
  0
LINE
  5
3F5
100
AcDbEntity
  8
0
100
AcDbLine
 62
7
  6
CONTINUOUS
 10
402.8470393152
 20
225.4141052014
 11
402.8470393152
 21
224.1641052014
  0
LINE
  5
3F6
100
AcDbEntity
  8
0
100
AcDbLine
 62
7
  6
CONTINUOUS
 10
403.0159643152
 20
224.3138222014
 11
403.0159643152
 21
225.4141052014
  0
LINE
  5
3F7
100
AcDbEntity
  8
0
100
AcDbLine
 62
7
  6
CONTINUOUS
 10
403.6497083152
 20
224.1641052014
 11
403.6497083152
 21
224.3138222014
  0
LINE
  5
3F8
100
AcDbEntity
  8
0
100
AcDbLine
 62
250
  6
CONTINUOUS
 10
403.7590051006
 20
230.9933239176
 11
403.7590051006
 21
233.375983985
  0
LINE
  5
3F9
100
AcDbEntity
  8
0
100
AcDbLine
 62
250
  6
CONTINUOUS
 10
403.7590051006
 20
253.2022264178
 11
403.7590051006
 21
255.5848864853
  0
LINE
  5
3FA
100
AcDbEntity
  8
0
100
AcDbLine
 62
250
  6
CONTINUOUS
 10
404.8228169435
 20
255.6000742832
 11
404.8256510999
 21
255.6252917005
  0
LINE
  5
3FB
100
AcDbEntity
  8
0
100
AcDbLine
 62
250
  6
CONTINUOUS
 10
404.9726113737
 20
255.4641281151
 11
404.9883337075
 21
255.6040204126
  0
LWPOLYLINE
  5
3FC
100
AcDbEntity
  8
0
100
AcDbPolyline
 62
7
  6
CONTINUOUS
 90
10
 70
0
 10
396.433601604
 20
229.2952444202
 10
396.4209311036
 20
229.2719242148
 10
396.4068215851
 20
229.2488596377
 10
396.3912730484
 20
229.2260506879
 10
396.374205666
 20
229.2034935336
 10
396.3556992655
 20
229.1811920047
 10
396.3359933298
 20
229.1591575932
 10
396.3151676864
 20
229.1373941289
 10
396.2931425077
 20
229.1158977799
 10
396.2699177938
 20
229.0946685454
  0
LINE
  5
3FD
100
AcDbEntity
  8
0
100
AcDbLine
 62
250
  6
CONTINUOUS
 10
392.2253909228
 20
230.1999845694
 11
392.0658153932
 21
230.0404090397
  0
LINE
  5
3FE
100
AcDbEntity
  8
0
100
AcDbLine
 62
250
  6
CONTINUOUS
 10
392.4251168298
 20
230.0002586624
 11
392.331792065
 21
229.9069338976
  0
LWPOLYLINE
  5
3FF
100
AcDbEntity
  8
0
100
AcDbPolyline
 62
7
  6
CONTINUOUS
 90
16
 70
0
 10
388.8476921271
 20
252.8511647246
 10
388.8509646935
 20
252.8495545512
 10
388.8571041499
 20
252.8479997938
 10
388.8661104964
 20
252.8465004522
 10
388.8781435656
 20
252.8450418525
 10
388.8930435248
 20
252.8436386687
 10
388.9103308762
 20
252.8423349232
 10
388.9300472052
 20
252.8411350822
 10
388.9521509263
 20
252.8400346796
 10
388.9760377854
 20
252.8390643392
 10
389.001813587
 20
252.8382263985
 10
389.0293725267
 20
252.83751852
 10
389.0577929371
 20
252.8369643158
 10
389.0867675958
 20
252.8365716563
 10
389.1166037253
 20
252.8363326709
 10
392.9568623152
 20
252.8362473564
  0
LINE
  5
400
100
AcDbEntity
  8
0
100
AcDbLine
 62
250
  6
CONTINUOUS
 10
392.0658153932
 20
256.5378013631
 11
392.2253909228
 21
256.3782258335
  0
LINE
  5
401
100
AcDbEntity
  8
0
100
AcDbLine
 62
250
  6
CONTINUOUS
 10
392.331792065
 20
256.6712765052
 11
392.4251168298
 21
256.5779517404
  0
LINE
  5
402
100
AcDbEntity
  8
0
100
AcDbLine
 62
7
  6
CONTINUOUS
 10
399.0161353152
 20
257.3391052014
 11
398.3556073152
 21
259.2391052014
  0
LINE
  5
403
100
AcDbEntity
  8
0
100
AcDbLine
 62
7
  6
CONTINUOUS
 10
398.4687223152
 20
257.7417992014
 11
398.6055753152
 21
257.3391052014
  0
LINE
  5
404
100
AcDbEntity
  8
0
100
AcDbLine
 62
7
  6
CONTINUOUS
 10
398.1030843152
 20
258.8760352014
 11
398.3661183152
 21
258.0575482014
  0
LINE
  5
405
100
AcDbEntity
  8
0
100
AcDbLine
 62
250
  6
CONTINUOUS
 10
404.8256510999
 20
230.9529187024
 11
404.8228169435
 21
230.9781361197
  0
LINE
  5
406
100
AcDbEntity
  8
0
100
AcDbLine
 62
250
  6
CONTINUOUS
 10
404.9883337075
 20
230.9741899903
 11
404.9726113737
 21
231.1140822878
  0
LWPOLYLINE
  5
407
100
AcDbEntity
  8
0
100
AcDbPolyline
 62
250
  6
CONTINUOUS
 90
13
 70
0
 10
403.9089822548
 20
255.7208326533
 10
403.9090843274
 20
255.7195650072
 10
403.9093632106
 20
255.7182784802
 10
403.9098189043
 20
255.7169730723
 10
403.9104355922
 20
255.7156469168
 10
403.9112290907
 20
255.7143018803
 10
403.9122468492
 20
255.712943563
 10
403.91348759
 20
255.7115654191
 10
403.9149525908
 20
255.7101739944
 10
403.9166931341
 20
255.7087945262
 10
403.9187263138
 20
255.7074354268
 10
403.921035036
 20
255.7060882839
 10
403.9236193005
 20
255.7047530975
  0
LWPOLYLINE
  5
408
100
AcDbEntity
  8
0
100
AcDbPolyline
 62
250
  6
CONTINUOUS
 90
13
 70
0
 10
404.9726113737
 20
233.3625034997
 10
404.9708372003
 20
233.388529029
 10
404.9656875451
 20
233.4141105897
 10
404.9572502889
 20
233.4388119776
 10
404.9456693558
 20
233.4622120325
 10
404.9311422886
 20
233.4839117536
 10
404.9139169039
 20
233.5035411188
 10
404.8942869965
 20
233.520765484
 10
404.8725873266
 20
233.5352912455
 10
404.849187968
 20
233.546870802
 10
404.82448794
 20
233.5553068191
 10
404.7989083941
 20
233.5604555772
 10
404.7728854637
 20
233.5622294036
  0
LINE
  5
409
100
AcDbEntity
  8
0
100
AcDbLine
 62
250
  6
CONTINUOUS
 10
403.7568623152
 20
255.6421304569
 11
403.7590051006
 21
255.5848864853
  0
LINE
  5
40A
100
AcDbEntity
  8
0
100
AcDbLine
 62
250
  6
CONTINUOUS
 10
403.9050853902
 20
255.8249364092
 11
403.9089822548
 21
255.7208326533
  0
LWPOLYLINE
  5
40B
100
AcDbEntity
  8
RACCORDO
100
AcDbPolyline
 62
250
  6
CONTINUOUS
 90
64
 70
0
 10
403.7986047457
 20
243.2891052014
 10
403.7921773009
 20
243.5479197079
 10
403.7729661989
 20
243.8052152427
 10
403.7409714397
 20
244.060991739
 10
403.6960433131
 20
244.316026002
 10
403.6383315293
 20
244.5695410982
 10
403.568285219
 20
244.8192063647
 10
403.485825606
 20
245.0648234797
 10
403.3910314665
 20
245.3065906783
 10
403.2845882601
 20
245.5427721597
 10
403.1663961747
 20
245.7733594625
 10
403.0365550224
 20
245.9983610165
 10
402.8960496983
 20
246.2160663879
 10
402.7448071604
 20
246.4264060783
 10
402.5829004508
 20
246.6294496177
 10
402.411533591
 20
246.8236951492
 10
402.2306339062
 20
247.0090801094
 10
402.0402740711
 20
247.185667149
 10
401.8418761319
 20
247.3521422616
 10
401.6353813454
 20
247.5084288183
 10
401.4208484546
 20
247.6546035742
 10
401.199875735
 20
247.7895826189
 10
400.9724156459
 20
247.9132824761
 10
400.738515728
 20
248.0257867621
 10
400.499916878
 20
248.1262622158
 10
400.2565850119
 20
248.2146192495
 10
400.0085542138
 20
248.2909475768
 10
399.757667633
 20
248.3546828872
 10
399.5039043249
 20
248.4057318364
 10
399.2472852341
 20
248.4441878557
 10
398.9897163441
 20
248.4697667873
 10
398.7311908247
 20
248.4823732481
 10
398.471715506
 20
248.482102652
 10
398.2132168617
 20
248.468957023
 10
397.9557020312
 20
248.4428410062
 10
397.6991638751
 20
248.403849925
 10
397.4455074491
 20
248.3522718056
 10
397.1947536051
 20
248.2880131745
 10
396.9468814912
 20
248.2111674176
 10
396.7037336065
 20
248.1223028414
 10
396.4653445827
 20
248.0213299555
 10
396.2316797881
 20
247.9083381239
 10
396.0044778272
 20
247.7841639339
 10
395.7837857647
 20
247.6487233493
 10
395.5695565358
 20
247.5021002664
 10
395.3633875499
 20
247.3453831808
 10
395.1653401652
 20
247.1784984137
 10
394.9753530235
 20
247.0015195181
 10
394.7948394595
 20
246.815755859
 10
394.6238618766
 20
246.6211276752
 10
394.4623578714
 20
246.4177146409
 10
394.3115535686
 20
246.2070653047
 10
394.1715462793
 20
245.9891546216
 10
394.0422386924
 20
245.7640076067
 10
393.924564999
 20
245.5332479312
 10
393.8185789233
 20
245.2966907272
 10
393.7242267411
 20
245.0545208937
 10
393.6422814715
 20
244.808916786
 10
393.5729112009
 20
244.5598055462
 10
393.5159478428
 20
244.3072601228
 10
393.4716601562
 20
244.0536776086
 10
393.4401377275
 20
243.7998570805
 10
393.4212909703
 20
243.5449995896
 10
393.4151198847
 20
243.2891052014
  0
LINE
  5
40C
100
AcDbEntity
  8
0
100
AcDbLine
 62
250
  6
CONTINUOUS
 10
403.8175532834
 20
231.0094034734
 11
403.8175532834
 21
233.375983985
  0
LINE
  5
40D
100
AcDbEntity
  8
0
100
AcDbLine
 62
250
  6
CONTINUOUS
 10
403.8175532834
 20
253.2022264178
 11
403.8175532834
 21
255.5688069295
  0
LINE
  5
40E
100
AcDbEntity
  8
0
100
AcDbLine
 62
250
  6
CONTINUOUS
 10
403.9580799513
 20
230.1994487129
 11
403.9580799513
 21
230.8043228284
  0
LINE
  5
40F
100
AcDbEntity
  8
0
100
AcDbLine
 62
250
  6
CONTINUOUS
 10
403.9580799513
 20
255.7738875745
 11
403.9580799513
 21
256.3787616899
  0
LINE
  5
410
100
AcDbEntity
  8
0
100
AcDbLine
 62
250
  6
CONTINUOUS
 10
404.0148451052
 20
230.1994487129
 11
404.0148451052
 21
230.8677989942
  0
LINE
  5
411
100
AcDbEntity
  8
0
100
AcDbLine
 62
250
  6
CONTINUOUS
 10
404.0148451052
 20
255.7104114087
 11
404.0148451052
 21
256.3787616899
  0
LINE
  5
412
100
AcDbEntity
  8
0
100
AcDbLine
 62
7
  6
CONTINUOUS
 10
404.1789243152
 20
224.6672392014
 11
404.1789243152
 21
224.1641052014
  0
LINE
  5
413
100
AcDbEntity
  8
0
100
AcDbLine
 62
250
  6
CONTINUOUS
 10
404.2095965653
 20
230.209917563
 11
404.2095965653
 21
230.9609474738
  0
LINE
  5
414
100
AcDbEntity
  8
0
100
AcDbLine
 62
250
  6
CONTINUOUS
 10
404.2095965653
 20
255.6172629291
 11
404.2095965653
 21
256.3682928399
  0
LINE
  5
415
100
AcDbEntity
  8
0
100
AcDbLine
 62
7
  6
CONTINUOUS
 10
404.2568623152
 20
252.9886799821
 11
404.2568623152
 21
252.8362473564
  0
LINE
  5
416
100
AcDbEntity
  8
0
100
AcDbLine
 62
7
  6
CONTINUOUS
 10
404.2568623152
 20
229.9886799821
 11
404.2568623152
 21
229.8409630659
  0
LINE
  5
417
100
AcDbEntity
  8
0
100
AcDbLine
 62
7
  6
CONTINUOUS
 10
404.2568623152
 20
233.5895304208
 11
404.2568623152
 21
233.7419630465
  0
LINE
  5
418
100
AcDbEntity
  8
0
100
AcDbLine
 62
7
  6
CONTINUOUS
 10
404.2568623152
 20
256.5895304208
 11
404.2568623152
 21
256.737247337
  0
LINE
  5
419
100
AcDbEntity
  8
0
100
AcDbLine
 62
250
  6
CONTINUOUS
 10
404.2643090752
 20
253.2256398968
 11
404.2643090752
 21
255.3604812824
  0
LINE
  5
41A
100
AcDbEntity
  8
0
100
AcDbLine
 62
250
  6
CONTINUOUS
 10
404.2643088679
 20
231.2177290238
 11
404.2643090752
 21
233.3525705061
  0
LINE
  5
41B
100
AcDbEntity
  8
0
100
AcDbLine
 62
7
  6
CONTINUOUS
 10
404.3477473152
 20
224.1641052014
 11
404.3477473152
 21
224.6672392014
  0
LINE
  5
41C
100
AcDbEntity
  8
0
100
AcDbLine
 62
250
  6
CONTINUOUS
 10
404.3528009504
 20
230.010191656
 11
404.3528009504
 21
230.9891052014
  0
LINE
  5
41D
100
AcDbEntity
  8
0
100
AcDbLine
 62
250
  6
CONTINUOUS
 10
404.3528009504
 20
255.5891052014
 11
404.3528009504
 21
256.5680187468
  0
LINE
  5
41E
100
AcDbEntity
  8
0
100
AcDbLine
 62
250
  6
CONTINUOUS
 10
404.4057304314
 20
231.0886118699
 11
404.4057304314
 21
233.552296413
  0
LINE
  5
41F
100
AcDbEntity
  8
0
100
AcDbLine
 62
250
  6
CONTINUOUS
 10
404.4057304314
 20
253.0259139898
 11
404.4057304314
 21
255.4895985329
  0
LINE
  5
420
100
AcDbEntity
  8
0
100
AcDbLine
 62
250
  6
CONTINUOUS
 10
404.5731595598
 20
231.0886118699
 11
404.5731595598
 21
233.552296413
  0
LINE
  5
421
100
AcDbEntity
  8
0
100
AcDbLine
 62
250
  6
CONTINUOUS
 10
404.5731595598
 20
253.0259139898
 11
404.5731595598
 21
255.4895985329
  0
LINE
  5
422
100
AcDbEntity
  8
0
100
AcDbLine
 62
250
  6
CONTINUOUS
 10
404.5888818936
 20
230.010191656
 11
404.5888818936
 21
230.9891052014
  0
LINE
  5
423
100
AcDbEntity
  8
0
100
AcDbLine
 62
250
  6
CONTINUOUS
 10
404.5888818936
 20
255.5891052014
 11
404.5888818936
 21
256.5680187468
  0
LINE
  5
424
100
AcDbEntity
  8
0
100
AcDbLine
 62
7
  6
CONTINUOUS
 10
404.6068623152
 20
260.5891052014
 11
404.6068623152
 21
259.7891052014
  0
LINE
  5
425
100
AcDbEntity
  8
0
100
AcDbLine
 62
7
  6
CONTINUOUS
 10
404.6068623152
 20
226.7891052014
 11
404.6068623152
 21
225.9891052014
  0
LINE
  5
426
100
AcDbEntity
  8
0
100
AcDbLine
 62
250
  6
CONTINUOUS
 10
404.9726113737
 20
231.1140822878
 11
404.9726113737
 21
233.3625034997
  0
LINE
  5
427
100
AcDbEntity
  8
0
100
AcDbLine
 62
250
  6
CONTINUOUS
 10
404.9726113737
 20
253.2157069032
 11
404.9726113737
 21
255.4641281151
  0
LINE
  5
428
100
AcDbEntity
  8
0
100
AcDbLine
 62
250
  6
CONTINUOUS
 10
404.9883337075
 20
256.3782258335
 11
404.9883337075
 21
255.6040204126
  0
LINE
  5
429
100
AcDbEntity
  8
0
100
AcDbLine
 62
250
  6
CONTINUOUS
 10
404.9883337075
 20
230.9741899903
 11
404.9883337075
 21
230.1999845694
  0
LINE
  5
42A
100
AcDbEntity
  8
0
100
AcDbLine
 62
7
  6
CONTINUOUS
 10
405.0994871685
 20
253.6952144742
 11
405.0994871685
 21
253.0888311084
  0
LINE
  5
42B
100
AcDbEntity
  8
0
100
AcDbLine
 62
7
  6
CONTINUOUS
 10
405.0994871685
 20
232.8829959287
 11
405.0994871685
 21
233.4893792945
  0
LWPOLYLINE
  5
42C
100
AcDbEntity
  8
RACCORDO
100
AcDbPolyline
 62
250
  6
CONTINUOUS
 90
70
 70
0
 10
404.1556761671
 20
243.2891052014
 10
404.151916132
 20
243.0850592423
 10
404.1409000546
 20
242.8845222951
 10
404.1230057315
 20
242.6877746055
 10
404.0987037774
 20
242.4957637929
 10
404.0683076556
 20
242.308005526
 10
404.0317528165
 20
242.1226027379
 10
403.9890726535
 20
241.9391931719
 10
403.9405343935
 20
241.7585056496
 10
403.8861730885
 20
241.5803044235
 10
403.8265173683
 20
241.4058508724
 10
403.7613961833
 20
241.2342010833
 10
403.689396174
 20
241.0619523835
 10
403.6104461672
 20
240.8897181967
 10
403.5242222385
 20
240.7175337276
 10
403.4281393066
 20
240.5415169304
 10
403.321085702
 20
240.3615273274
 10
403.2028616703
 20
240.1790996186
 10
403.0716031096
 20
239.9933317236
 10
402.9262883255
 20
239.8049473658
 10
402.7663788963
 20
239.6153982189
 10
402.5904837761
 20
239.4252531621
 10
402.3981652079
 20
239.2362681313
 10
402.1884792939
 20
239.0497064077
 10
401.9590539402
 20
238.8659519774
 10
401.7085353554
 20
238.6867088163
 10
401.4370484103
 20
238.5148454459
 10
401.1444532944
 20
238.3530074143
 10
400.8288205989
 20
238.2030175913
 10
400.492091538
 20
238.0687435639
 10
400.1408200677
 20
237.9548808311
 10
399.7756564486
 20
237.8630964031
 10
399.3984201549
 20
237.7953378762
 10
399.0184841192
 20
237.753856652
 10
398.638046684
 20
237.7386583768
 10
398.2585389593
 20
237.7495111691
 10
397.8883876341
 20
237.7852960021
 10
397.5298706189
 20
237.8441213067
 10
397.1835020181
 20
237.9242892066
 10
396.8545048056
 20
238.0226287906
 10
396.544980105
 20
238.1359993354
 10
396.2537386041
 20
238.2623978206
 10
395.9805135552
 20
238.3996812538
 10
395.7256772261
 20
238.5454691351
 10
395.4885957933
 20
238.6979423344
 10
395.267432282
 20
238.8563033659
 10
395.0616045167
 20
239.0192339406
 10
394.8710059999
 20
239.1850699431
 10
394.6945989026
 20
239.3529761541
 10
394.5319916731
 20
239.5216675573
 10
394.3825548882
 20
239.6901392934
 10
394.2449815457
 20
239.8582798296
 10
394.119233073
 20
240.0245831008
 10
394.0042551876
 20
240.1888934707
 10
393.8976018075
 20
240.3535459655
 10
393.7990633016
 20
240.5179858734
 10
393.7083065856
 20
240.6818713746
 10
393.623334478
 20
240.8483090693
 10
393.5441594093
 20
241.0172029787
 10
393.4708803602
 20
241.1882330494
 10
393.4023015179
 20
241.3645062138
 10
393.3387652656
 20
241.5460222096
 10
393.2806941968
 20
241.7325787675
 10
393.2276737961
 20
241.9271940911
 10
393.1804065409
 20
242.1299092975
 10
393.1396821228
 20
242.340501981
 10
393.1059090912
 20
242.561695253
 10
393.0801603122
 20
242.7942512726
 10
393.06379265
 20
243.036873042
 10
393.0580484633
 20
243.2891052014
  0
LWPOLYLINE
  5
42D
100
AcDbEntity
  8
RACCORDO
100
AcDbPolyline
 62
250
  6
CONTINUOUS
 90
70
 70
0
 10
404.5127475884
 20
243.2891052728
 10
404.5080863929
 20
243.0715792966
 10
404.4964967115
 20
242.8583235398
 10
404.4779785442
 20
242.649338038
 10
404.4523639032
 20
242.4451444862
 10
404.4198207764
 20
242.2452212465
 10
404.3808531272
 20
242.0480033519
 10
404.3355051781
 20
241.8529262588
 10
404.2837327066
 20
241.6605545571
 10
404.2259070091
 20
241.4710169798
 10
404.1626764298
 20
241.2853846385
 10
404.0933926244
 20
241.1025864486
 10
404.0164818562
 20
240.9195378598
 10
403.932633117
 20
240.7362206249
 10
403.8411574151
 20
240.5526530433
 10
403.7384140387
 20
240.3658054169
 10
403.6243444906
 20
240.1743583435
 10
403.4990072682
 20
239.9796313298
 10
403.3589371509
 20
239.7825530568
 10
403.2039935071
 20
239.5823036854
 10
403.0343169684
 20
239.3797031622
 10
402.8468642101
 20
239.1781398121
 10
402.6419161991
 20
238.9772621671
 10
402.4191919684
 20
238.7774217425
 10
402.1748052919
 20
238.5830612565
 10
401.9076916485
 20
238.3929635584
 10
401.6189155594
 20
238.2083457454
 10
401.3077843622
 20
238.0373017667
 10
400.9712958571
 20
237.8792869794
 10
400.612452244
 20
237.7348457832
 10
400.2395674598
 20
237.6137055145
 10
399.8510383596
 20
237.5177144866
 10
399.4484680882
 20
237.4450240416
 10
399.0449800173
 20
237.3998159915
 10
398.6408490557
 20
237.3845314722
 10
398.2358002945
 20
237.3967292268
 10
397.8421323789
 20
237.4332675315
 10
397.4614355103
 20
237.4957069612
 10
397.0921194872
 20
237.5824871137
 10
396.7417123504
 20
237.6857848099
 10
396.4126830779
 20
237.8053628686
 10
396.1025626916
 20
237.9414587074
 10
395.8114722978
 20
238.0869609572
 10
395.5402667969
 20
238.2410565856
 10
395.2880912884
 20
238.4045587697
 10
395.0525021776
 20
238.5727953468
 10
394.8333565752
 20
238.745446867
 10
394.6307973704
 20
238.9228328301
 10
394.442809636
 20
239.1012394135
 10
394.2695486374
 20
239.2801642834
 10
394.1108591092
 20
239.4601097431
 10
393.9642603285
 20
239.6388688695
 10
393.830073109
 20
239.8153310636
 10
393.7079766371
 20
239.9906068548
 10
393.5945277489
 20
240.1658210034
 10
393.489362924
 20
240.3404831308
 10
393.3928456827
 20
240.5150835695
 10
393.3026234224
 20
240.6922181703
 10
393.2181811138
 20
240.8717644543
 10
393.1400337861
 20
241.0538448826
 10
393.0673739242
 20
241.2414227443
 10
392.9996776733
 20
241.4344881734
 10
392.9374688881
 20
241.6330510318
 10
392.8815116172
 20
241.8401042224
 10
392.8312309453
 20
242.055815764
 10
392.7872017878
 20
242.2800176243
 10
392.7519129392
 20
242.5151986376
 10
392.7261939978
 20
242.7621883973
 10
392.7092153653
 20
243.0201572467
 10
392.7009770419
 20
243.2891051301
  0
LINE
  5
42E
100
AcDbEntity
  8
0
100
AcDbLine
 62
250
  6
CONTINUOUS
 10
403.7590051006
 20
230.9933239176
 11
403.7568623152
 21
230.936079946
  0
LINE
  5
42F
100
AcDbEntity
  8
0
100
AcDbLine
 62
250
  6
CONTINUOUS
 10
403.9089822548
 20
230.8573777495
 11
403.9050853902
 21
230.7532739937
  0
LWPOLYLINE
  5
430
100
AcDbEntity
  8
0
100
AcDbPolyline
 62
250
  6
CONTINUOUS
 90
13
 70
0
 10
403.7590051006
 20
233.375983985
 10
403.7607259365
 20
233.4019494887
 10
403.7658189604
 20
233.4275011777
 10
403.7742081813
 20
233.4522023165
 10
403.7857657817
 20
233.4756368612
 10
403.8003013987
 20
233.4973899334
 10
403.8175542603
 20
233.5170620326
 10
403.8372196793
 20
233.5343099018
 10
403.8589673936
 20
233.5488475212
 10
403.8824281466
 20
233.5604279632
 10
403.9072018876
 20
233.5688526675
 10
403.9328637833
 20
233.5739761285
 10
403.9589746396
 20
233.575709892
  0
LWPOLYLINE
  5
431
100
AcDbEntity
  8
0
100
AcDbPolyline
 62
250
  6
CONTINUOUS
 90
13
 70
0
 10
403.8175532834
 20
233.375983985
 10
403.819366494
 20
233.401391891
 10
403.8234497616
 20
233.4264094849
 10
403.8297426696
 20
233.4506284387
 10
403.8381517261
 20
233.4736593208
 10
403.8485432857
 20
233.4951138863
 10
403.8607389614
 20
233.5146175235
 10
403.8745328268
 20
233.5318458891
 10
403.8897034759
 20
233.5465268481
 10
403.9060054187
 20
233.5584235679
 10
403.9231734947
 20
233.5673420469
 10
403.9409265321
 20
233.5731357516
 10
403.9589746396
 20
233.575709892
  0
LWPOLYLINE
  5
432
100
AcDbEntity
  8
0
100
AcDbPolyline
 62
250
  6
CONTINUOUS
 90
13
 70
0
 10
404.2643090752
 20
233.3525705061
 10
404.2661204333
 20
233.3779625602
 10
404.2701998239
 20
233.402968806
 10
404.2764879644
 20
233.4271812088
 10
404.2848927398
 20
233.4502108623
 10
404.2952813911
 20
233.4716683301
 10
404.3074753463
 20
233.4911766129
 10
404.3212687251
 20
233.5084104906
 10
404.3364406068
 20
233.5230976079
 10
404.3527452736
 20
233.5350001761
 10
404.3699174052
 20
233.5439235615
 10
404.3876758253
 20
233.5497207535
 10
404.4057304314
 20
233.552296413
  0
LINE
  5
433
100
AcDbEntity
  8
0
100
AcDbLine
 62
7
  6
CONTINUOUS
 10
397.6707523152
 20
262.1111752014
 11
398.1359793152
 21
260.8706112014
  0
LINE
  5
434
100
AcDbEntity
  8
0
100
AcDbLine
 62
7
  6
CONTINUOUS
 10
398.1659543152
 20
261.7156572014
 11
397.7735703152
 21
262.7704572014
  0
LINE
  5
435
100
AcDbEntity
  8
0
100
AcDbLine
 62
7
  6
CONTINUOUS
 10
400.2365903152
 20
261.2498882014
 11
400.3393233152
 21
260.8706112014
  0
LINE
  5
436
100
AcDbEntity
  8
0
100
AcDbLine
 62
7
  6
CONTINUOUS
 10
399.9751053152
 20
262.2484282014
 11
400.1573353152
 21
261.5433712014
  0
LINE
  5
437
100
AcDbEntity
  8
0
100
AcDbLine
 62
250
  6
CONTINUOUS
 10
408.2443140941
 20
229.1893814641
 11
408.2113294594
 21
229.5200592824
  0
LINE
  5
438
100
AcDbEntity
  8
0
100
AcDbLine
 62
250
  6
CONTINUOUS
 10
408.4443064787
 20
229.3886204037
 11
408.4217905527
 21
229.6143472422
  0
LWPOLYLINE
  5
439
100
AcDbEntity
  8
0
100
AcDbPolyline
 62
7
  6
CONTINUOUS
 90
7
 70
0
 10
405.1479092371
 20
230.0404090397
 10
405.1470485289
 20
230.0221630228
 10
405.1445275062
 20
230.00409304
 10
405.1403725263
 20
229.98634866
 10
405.1346233399
 20
229.969075998
 10
405.1273326623
 20
229.952416527
 10
405.1185656406
 20
229.9365059397
  0
LWPOLYLINE
  5
43A
100
AcDbEntity
  8
0
100
AcDbPolyline
 62
7
  6
CONTINUOUS
 90
10
 70
0
 10
398.7644337725
 20
229.2952444202
 10
398.7517632819
 20
229.2719242148
 10
398.7376537702
 20
229.2488596379
 10
398.7221052373
 20
229.2260506887
 10
398.7050378548
 20
229.2034935357
 10
398.6865314511
 20
229.1811920084
 10
398.6668255115
 20
229.1591575976
 10
398.6459998644
 20
229.1373941327
 10
398.6239746813
 20
229.1158977823
 10
398.6007499623
 20
229.0946685454
  0
LINE
  5
43B
100
AcDbEntity
  8
0
100
AcDbLine
 62
7
  6
CONTINUOUS
 10
397.1447203469
 20
228.3170724756
 11
397.6143656682
 21
228.9934025652
  0
LINE
  5
43C
100
AcDbEntity
  8
0
100
AcDbLine
 62
7
  6
CONTINUOUS
 10
397.6481309246
 20
229.2891052014
 11
396.9636152696
 21
228.3170724756
  0
LINE
  5
43D
100
AcDbEntity
  8
0
100
AcDbLine
 62
7
  6
CONTINUOUS
 10
392.6068623152
 20
226.7891052014
 11
392.6274172415
 21
226.8096601277
  0
LINE
  5
43E
100
AcDbEntity
  8
0
100
AcDbLine
 62
250
  6
CONTINUOUS
 10
387.7444238815
 20
221.8492601137
 11
387.6342842891
 21
221.7391205213
  0
LINE
  5
43F
100
AcDbEntity
  8
0
100
AcDbLine
 62
250
  6
CONTINUOUS
 10
388.2142701919
 20
221.3794138033
 11
388.1041305995
 21
221.2692742109
  0
LINE
  5
440
100
AcDbEntity
  8
0
100
AcDbLine
 62
7
  6
CONTINUOUS
 10
392.0622994871
 20
232.8656973381
 11
392.1142374618
 21
232.8829959287
  0
LINE
  5
441
100
AcDbEntity
  8
0
100
AcDbLine
 62
7
  6
CONTINUOUS
 10
392.0622994871
 20
253.7125130648
 11
392.1142374618
 21
253.6952144742
  0
LINE
  5
442
100
AcDbEntity
  8
0
100
AcDbLine
 62
7
  6
CONTINUOUS
 10
392.6068623152
 20
259.7891052014
 11
392.6274172415
 21
259.7685502752
  0
LINE
  5
443
100
AcDbEntity
  8
0
100
AcDbLine
 62
250
  6
CONTINUOUS
 10
387.6342842891
 20
264.8390898816
 11
387.7444238815
 21
264.7289502892
  0
LINE
  5
444
100
AcDbEntity
  8
0
100
AcDbLine
 62
250
  6
CONTINUOUS
 10
388.1041305995
 20
265.308936192
 11
388.2142701919
 21
265.1987965996
  0
LINE
  5
445
100
AcDbEntity
  8
0
100
AcDbLine
 62
7
  6
CONTINUOUS
 10
400.5582003152
 20
257.7334452014
 11
399.8292463152
 21
259.2391052014
  0
LINE
  5
446
100
AcDbEntity
  8
0
100
AcDbLine
 62
7
  6
CONTINUOUS
 10
399.6055903152
 20
258.9292772014
 11
400.3608573152
 21
257.3391052014
  0
LINE
  5
447
100
AcDbEntity
  8
0
100
AcDbLine
 62
7
  6
CONTINUOUS
 10
402.4161583152
 20
257.7417992014
 11
402.5530833152
 21
257.3391052014
  0
LINE
  5
448
100
AcDbEntity
  8
0
100
AcDbLine
 62
7
  6
CONTINUOUS
 10
402.0504843152
 20
258.8759282014
 11
402.3134833152
 21
258.0575482014
  0
LINE
  5
449
100
AcDbEntity
  8
0
100
AcDbLine
 62
7
  6
CONTINUOUS
 10
400.7572943152
 20
260.8706112014
 11
400.1743743152
 21
262.7704572014
  0
LINE
  5
44A
100
AcDbEntity
  8
0
100
AcDbLine
 62
7
  6
CONTINUOUS
 10
401.8173821232
 20
261.0713627813
 11
401.8760193805
 21
260.8706114554
  0
LINE
  5
44B
100
AcDbEntity
  8
0
100
AcDbLine
 62
7
  6
CONTINUOUS
 10
402.1683333475
 20
261.2107975032
 11
402.1219149547
 21
261.3847784216
  0
LWPOLYLINE
  5
44C
100
AcDbEntity
  8
0
100
AcDbPolyline
 62
7
  6
CONTINUOUS
 90
25
 70
0
 10
402.1219149547
 20
261.3847784216
 10
402.1162202692
 20
261.4064806526
 10
402.1104577549
 20
261.4275370696
 10
402.1046274117
 20
261.4479476757
 10
402.098790802
 20
261.4676765054
 10
402.0928863634
 20
261.4867595299
 10
402.0867294089
 20
261.5053046559
 10
402.0802859927
 20
261.5233117218
 10
402.0735900606
 20
261.5407808935
 10
402.0665587633
 20
261.5578205685
 10
402.0592076868
 20
261.5744423994
 10
402.0515212452
 20
261.5906347368
 10
402.0433698307
 20
261.6064710244
 10
402.0347547848
 20
261.6220035458
 10
402.0256747661
 20
261.6371800198
 10
402.0159961429
 20
261.6519170431
 10
402.0057158718
 20
261.6662593263
 10
401.9948369961
 20
261.6801621616
 10
401.9832350141
 20
261.693408019
 10
401.9708766318
 20
261.7060402611
 10
401.9577951433
 20
261.7180155291
 10
401.9439659285
 20
261.7289862125
 10
401.9293807807
 20
261.7388364432
 10
401.9140479066
 20
261.7476820943
 10
401.8979673063
 20
261.7555231676
  0
LINE
  5
44D
100
AcDbEntity
  8
0
100
AcDbLine
 62
7
  6
CONTINUOUS
 10
402.2574758656
 20
260.8706114554
 11
402.1683333475
 21
261.2107975032
  0
LINE
  5
44E
100
AcDbEntity
  8
0
100
AcDbLine
 62
250
  6
CONTINUOUS
 10
409.2296108984
 20
225.5388440088
 11
409.2135722442
 21
225.6996348516
  0
LINE
  5
44F
100
AcDbEntity
  8
0
100
AcDbLine
 62
250
  6
CONTINUOUS
 10
409.4305246817
 20
225.7288457353
 11
409.4135646288
 21
225.8988737912
  0
LWPOLYLINE
  5
450
100
AcDbEntity
  8
0
100
AcDbPolyline
 62
250
  6
CONTINUOUS
 90
5
 70
0
 10
409.4135646288
 20
225.8988737912
 10
409.4134403547
 20
225.9008152913
 10
409.4133223918
 20
225.9034247559
 10
409.41321074
 20
225.906702185
 10
409.4131055024
 20
225.910735448
  0
LWPOLYLINE
  5
451
100
AcDbEntity
  8
0
100
AcDbPolyline
 62
250
  6
CONTINUOUS
 90
3
 70
0
 10
409.2135722442
 20
225.6996348516
 10
409.2134479207
 20
225.7031433581
 10
409.2133299299
 20
225.708439351
  0
LINE
  5
452
100
AcDbEntity
  8
0
100
AcDbLine
 62
250
  6
CONTINUOUS
 10
408.0844806696
 20
222.4391052014
 11
408.0773959822
 21
225.9690478889
  0
LINE
  5
453
100
AcDbEntity
  8
0
100
AcDbLine
 62
250
  6
CONTINUOUS
 10
408.3840956032
 20
222.4391052014
 11
408.3780687868
 21
225.3942357224
  0
LINE
  5
454
100
AcDbEntity
  8
0
100
AcDbLine
 62
250
  6
CONTINUOUS
 10
408.075902817
 20
226.8096601158
 11
408.0673421993
 21
232.8656973374
  0
LINE
  5
455
100
AcDbEntity
  8
0
100
AcDbLine
 62
250
  6
CONTINUOUS
 10
408.3709439571
 20
229.6946702847
 11
408.3669324952
 21
232.870659133
  0
LINE
  5
456
100
AcDbEntity
  8
0
100
AcDbLine
 62
250
  6
CONTINUOUS
 10
408.0664228825
 20
233.7419630372
 11
408.0654301434
 21
234.7891052005
  0
LINE
  5
457
100
AcDbEntity
  8
0
100
AcDbLine
 62
250
  6
CONTINUOUS
 10
408.3660325032
 20
233.7270456783
 11
408.3650235752
 21
234.7891052014
  0
LINE
  5
458
100
AcDbEntity
  8
0
100
AcDbLine
 62
7
  6
CONTINUOUS
 10
408.2122741314
 20
225.9696069722
 11
408.2123944044
 21
225.5688274148
  0
LINE
  5
459
100
AcDbEntity
  8
0
100
AcDbLine
 62
7
  6
CONTINUOUS
 10
408.2113294594
 20
229.5200592824
 11
408.2120311798
 21
226.8090893709
  0
LINE
  5
45A
100
AcDbEntity
  8
0
100
AcDbLine
 62
7
  6
CONTINUOUS
 10
408.2220225036
 20
225.9891052014
 11
408.2220225036
 21
226.7891052014
  0
LINE
  5
45B
100
AcDbEntity
  8
0
100
AcDbLine
 62
7
  6
CONTINUOUS
 10
408.2443140941
 20
229.1893814641
 11
408.2443140941
 21
225.8888289388
  0
LINE
  5
45C
100
AcDbEntity
  8
0
100
AcDbLine
 62
7
  6
CONTINUOUS
 10
408.40397298
 20
253.6952144742
 11
408.40397298
 21
252.8891052014
  0
LINE
  5
45D
100
AcDbEntity
  8
0
100
AcDbLine
 62
7
  6
CONTINUOUS
 10
408.40397298
 20
233.6891052014
 11
408.40397298
 21
232.8829959287
  0
LINE
  5
45E
100
AcDbEntity
  8
0
100
AcDbLine
 62
7
  6
CONTINUOUS
 10
408.4223157028
 20
260.5891052014
 11
408.4223157028
 21
259.7891052014
  0
LINE
  5
45F
100
AcDbEntity
  8
0
100
AcDbLine
 62
7
  6
CONTINUOUS
 10
408.4668623152
 20
264.1391052014
 11
408.4668623152
 21
229.5391052014
  0
LINE
  5
460
100
AcDbEntity
  8
0
100
AcDbLine
 62
7
  6
CONTINUOUS
 10
408.4668623152
 20
225.5391052014
 11
408.4668623152
 21
222.4391052014
  0
LINE
  5
461
100
AcDbEntity
  8
0
100
AcDbLine
 62
250
  6
CONTINUOUS
 10
408.0654301418
 20
251.7891052021
 11
408.0664228825
 21
252.8362473636
  0
LINE
  5
462
100
AcDbEntity
  8
0
100
AcDbLine
 62
250
  6
CONTINUOUS
 10
408.3650235736
 20
251.7891052014
 11
408.3660325032
 21
252.8511647246
  0
LINE
  5
463
100
AcDbEntity
  8
0
100
AcDbLine
 62
250
  6
CONTINUOUS
 10
408.0673421993
 20
253.7125130654
 11
408.0759028169
 21
259.7685502834
  0
LINE
  5
464
100
AcDbEntity
  8
0
100
AcDbLine
 62
250
  6
CONTINUOUS
 10
408.3669324952
 20
253.7075512699
 11
408.3755174838
 21
259.7735184706
  0
LINE
  5
465
100
AcDbEntity
  8
0
100
AcDbLine
 62
250
  6
CONTINUOUS
 10
408.0773959822
 20
260.6091625128
 11
408.084480671
 21
264.1391052014
  0
LINE
  5
466
100
AcDbEntity
  8
0
100
AcDbLine
 62
250
  6
CONTINUOUS
 10
408.3769947876
 20
260.6041998978
 11
408.3840967594
 21
264.1391052014
  0
LWPOLYLINE
  5
467
100
AcDbEntity
  8
0
100
AcDbPolyline
 62
7
  6
CONTINUOUS
 90
25
 70
0
 10
405.1185656406
 20
229.9365059397
 10
405.1096268344
 20
229.8896209287
 10
405.0960884353
 20
229.8450021192
 10
405.0779504433
 20
229.8026494951
 10
405.0548825199
 20
229.7621018832
 10
405.0272150035
 20
229.7238204288
 10
404.9959389097
 20
229.6891885863
 10
404.9609207562
 20
229.6583414696
 10
404.9222940252
 20
229.6311439254
 10
404.8814501789
 20
229.6085739967
 10
404.8383132354
 20
229.5908018549
 10
404.7929591765
 20
229.5776572976
 10
404.7470074096
 20
229.5696078071
 10
404.7004344205
 20
229.5668363117
 10
404.6532637234
 20
229.569159874
 10
404.6071852689
 20
229.5764971828
 10
404.5622368397
 20
229.5890316083
 10
404.518380653
 20
229.606579797
 10
404.4771933121
 20
229.6285103572
 10
404.4387750838
 20
229.6549794514
 10
404.4030257011
 20
229.6858309523
 10
404.3712209659
 20
229.719965031
 10
404.3437861453
 20
229.7570150879
 10
404.320295972
 20
229.7973477591
 10
404.3007504462
 20
229.8409630659
  0
LINE
  5
468
100
AcDbEntity
  8
0
100
AcDbLine
 62
250
  6
CONTINUOUS
 10
403.9580799513
 20
230.1994487129
 11
403.9559312557
 21
230.1929973841
  0
LINE
  5
469
100
AcDbEntity
  8
0
100
AcDbLine
 62
250
  6
CONTINUOUS
 10
404.1580494903
 20
229.999722806
 11
404.154848665
 21
229.9901125212
  0
LINE
  5
46A
100
AcDbEntity
  8
0
100
AcDbLine
 62
7
  6
CONTINUOUS
 10
401.7519423152
 20
224.1641052014
 11
401.8825433152
 21
224.5279342014
  0
LINE
  5
46B
100
AcDbEntity
  8
0
100
AcDbLine
 62
7
  6
CONTINUOUS
 10
401.9347773152
 20
224.6776512014
 11
402.1367793152
 21
225.2327942014
  0
LINE
  5
46C
100
AcDbEntity
  8
0
100
AcDbLine
 62
7
  6
CONTINUOUS
 10
402.0479693152
 20
225.4141052014
 11
401.5778723152
 21
224.1641052014
  0
LWPOLYLINE
  5
46D
100
AcDbEntity
  8
0
100
AcDbPolyline
 62
7
  6
CONTINUOUS
 90
10
 70
0
 10
401.0952660751
 20
229.2952444202
 10
401.0825955331
 20
229.2719242167
 10
401.068485979
 20
229.248859641
 10
401.0529374127
 20
229.2260506922
 10
401.0358700073
 20
229.2034935384
 10
401.0173635898
 20
229.1811920095
 10
400.9976576408
 20
229.1591575975
 10
400.9768319873
 20
229.1373941322
 10
400.9548068024
 20
229.1158977818
 10
400.9315820861
 20
229.0946685454
  0
LWPOLYLINE
  5
46E
100
AcDbEntity
  8
0
100
AcDbPolyline
 62
7
  6
CONTINUOUS
 90
10
 70
0
 10
400.2122510385
 20
228.7283957548
 10
400.2232967832
 20
228.7465321526
 10
400.2330151471
 20
228.7649959317
 10
400.2414061302
 20
228.783787093
 10
400.248449106
 20
228.8028316047
 10
400.2541647011
 20
228.8222035005
 10
400.2586147951
 20
228.842124881
 10
400.2618200148
 20
228.8626697812
 10
400.2637597335
 20
228.8837641699
 10
400.2644339513
 20
228.9054080493
  0
LWPOLYLINE
  5
46F
100
AcDbEntity
  8
0
100
AcDbPolyline
 62
7
  6
CONTINUOUS
 90
10
 70
0
 10
396.2699177938
 20
229.0946685454
 10
396.2444751853
 20
229.072627983
 10
396.2178843344
 20
229.051188673
 10
396.1901452411
 20
229.0303506134
 10
396.1612515916
 20
229.0100856102
 10
396.1312096997
 20
228.9904218532
 10
396.100038507
 20
228.9714439155
 10
396.0677443271
 20
228.9531799864
 10
396.0343208463
 20
228.9356018722
 10
395.9997680646
 20
228.9187095708
  0
LWPOLYLINE
  5
470
100
AcDbEntity
  8
0
100
AcDbPolyline
 62
250
  6
CONTINUOUS
 90
10
 70
0
 10
392.843349538
 20
231.0817829524
 10
392.8589485857
 20
231.089103313
 10
392.8742388384
 20
231.0989699191
 10
392.888917614
 20
231.1111874536
 10
392.9026943351
 20
231.1255140613
 10
392.9152962809
 20
231.141666136
 10
392.9264739863
 20
231.1593239352
 10
392.9360061803
 20
231.1781379094
 10
392.9437041657
 20
231.1977356217
 10
392.9494155551
 20
231.2177291205
  0
LWPOLYLINE
  5
471
100
AcDbEntity
  8
0
100
AcDbPolyline
 62
250
  6
CONTINUOUS
 90
10
 70
0
 10
393.2901053298
 20
230.8734573053
 10
393.3057043776
 20
230.880777666
 10
393.3209946304
 20
230.8906442722
 10
393.3356734061
 20
230.9028618068
 10
393.3494501271
 20
230.9171884145
 10
393.3620520729
 20
230.9333404892
 10
393.3732297783
 20
230.9509982884
 10
393.3827619722
 20
230.9698122625
 10
393.3904599576
 20
230.9894099747
 10
393.396171347
 20
231.0094034734
  0
LWPOLYLINE
  5
472
100
AcDbEntity
  8
0
100
AcDbPolyline
 62
250
  6
CONTINUOUS
 90
13
 70
0
 10
404.7728854668
 20
253.0159809962
 10
404.798909062
 20
253.0177549133
 10
404.8244891099
 20
253.0229038991
 10
404.8491894607
 20
253.0313402221
 10
404.8725889564
 20
253.042920101
 10
404.8942885953
 20
253.0574461471
 10
404.9139183406
 20
253.0746707203
 10
404.9311434605
 20
253.0943001745
 10
404.9456702063
 20
253.1159998399
 10
404.957250823
 20
253.1393997074
 10
404.96568781
 20
253.1641007854
 10
404.9708372766
 20
253.189681911
 10
404.9726113802
 20
253.2157068967
  0
LWPOLYLINE
  5
473
100
AcDbEntity
  8
0
100
AcDbPolyline
 62
250
  6
CONTINUOUS
 90
13
 70
0
 10
393.2547499907
 20
253.0025005109
 10
393.2808610569
 20
253.0042343021
 10
393.3065231575
 20
253.0093578468
 10
393.3312970873
 20
253.01778269
 10
393.3547580354
 20
253.0293633431
 10
393.3765059008
 20
253.04390123
 10
393.396171333
 20
253.0611493332
 10
393.4134240658
 20
253.0808215565
 10
393.4279594828
 20
253.1025746401
 10
393.4395168617
 20
253.1260090823
 10
393.4479058789
 20
253.1507100045
 10
393.4529987525
 20
253.1762613578
 10
393.4547195298
 20
253.2022264178
  0
LINE
  5
474
100
AcDbEntity
  8
0
100
AcDbLine
 62
250
  6
CONTINUOUS
 10
404.4057304314
 20
253.0259139898
 11
403.9589746396
 21
253.0025005109
  0
LINE
  5
475
100
AcDbEntity
  8
0
100
AcDbLine
 62
250
  6
CONTINUOUS
 10
404.2643090752
 20
253.2256398968
 11
403.8175532834
 21
253.2022264178
  0
LINE
  5
476
100
AcDbEntity
  8
0
100
AcDbLine
 62
250
  6
CONTINUOUS
 10
392.4227260384
 20
253.223949333
 11
392.3693050456
 21
253.2228599164
  0
LINE
  5
477
100
AcDbEntity
  8
0
100
AcDbLine
 62
7
  6
CONTINUOUS
 10
393.2579449058
 20
252.9929079711
 11
392.9568623152
 21
252.9886799821
  0
LINE
  5
478
100
AcDbEntity
  8
0
100
AcDbLine
 62
250
  6
CONTINUOUS
 10
392.4878384633
 20
253.2248460134
 11
392.4227260384
 21
253.223949333
  0
LWPOLYLINE
  5
479
100
AcDbEntity
  8
0
100
AcDbPolyline
 62
7
  6
CONTINUOUS
 90
15
 70
0
 10
408.0971208591
 20
252.8363326693
 10
408.1269570216
 20
252.836571654
 10
408.155931703
 20
252.8369643131
 10
408.1843521225
 20
252.8375185174
 10
408.2119110611
 20
252.8382263961
 10
408.237686861
 20
252.8390643371
 10
408.2615737213
 20
252.8400346777
 10
408.2836774429
 20
252.8411350805
 10
408.3033937717
 20
252.8423349217
 10
408.3206811223
 20
252.8436386675
 10
408.33558108
 20
252.8450418516
 10
408.3476141468
 20
252.8465004516
 10
408.3566204899
 20
252.8479997934
 10
408.362759942
 20
252.849554551
 10
408.3660325032
 20
252.8511647246
  0
LWPOLYLINE
  5
47A
100
AcDbEntity
  8
0
100
AcDbPolyline
 62
250
  6
CONTINUOUS
 90
18
 70
0
 10
392.6202379889
 20
253.0258483087
 10
392.6007804389
 20
253.0256961866
 10
392.5821924206
 20
253.0254576235
 10
392.5643002122
 20
253.0251203424
 10
392.5472775354
 20
253.0246966204
 10
392.5316455553
 20
253.0242232886
 10
392.5176097572
 20
253.02370346
 10
392.5049646558
 20
253.0231340217
 10
392.4936149595
 20
253.0225424653
 10
392.4836400144
 20
253.0219397425
 10
392.4749604745
 20
253.0213149017
 10
392.4672430097
 20
253.0206625789
 10
392.4603630273
 20
253.0199876455
 10
392.4544451199
 20
253.0192852302
 10
392.4495297351
 20
253.0185353554
 10
392.4456303554
 20
253.0177313619
 10
392.4427334982
 20
253.0168799088
 10
392.4408391636
 20
253.0159809962
  0
LINE
  5
47B
100
AcDbEntity
  8
0
100
AcDbLine
 62
250
  6
CONTINUOUS
 10
392.5613811275
 20
253.225421751
 11
392.4878384633
 21
253.2248460134
  0
LINE
  5
47C
100
AcDbEntity
  8
0
100
AcDbLine
 62
7
  6
CONTINUOUS
 10
388.8269104675
 20
251.7908765073
 11
408.3868141628
 21
251.7908765073
  0
LINE
  5
47D
100
AcDbEntity
  8
0
100
AcDbLine
 62
7
  6
CONTINUOUS
 10
408.0971208591
 20
252.8363326693
 11
404.2568623152
 21
252.8362473564
  0
LINE
  5
47E
100
AcDbEntity
  8
0
100
AcDbLine
 62
7
  6
CONTINUOUS
 10
408.40397298
 20
252.8891052014
 11
404.8997612615
 21
252.8891052014
  0
LINE
  5
47F
100
AcDbEntity
  8
0
100
AcDbLine
 62
7
  6
CONTINUOUS
 10
392.3139633688
 20
252.8891052014
 11
388.8097516503
 21
252.8891052014
  0
LINE
  5
480
100
AcDbEntity
  8
0
100
AcDbLine
 62
250
  6
CONTINUOUS
 10
392.8079941989
 20
253.0259139898
 11
392.6202379889
 21
253.0258483087
  0
LINE
  5
481
100
AcDbEntity
  8
0
100
AcDbLine
 62
250
  6
CONTINUOUS
 10
403.8175532834
 20
253.2022264178
 11
403.7590051006
 21
253.2022264178
  0
LINE
  5
482
100
AcDbEntity
  8
0
100
AcDbLine
 62
250
  6
CONTINUOUS
 10
393.4547195298
 20
253.2022264178
 11
393.396171347
 21
253.2022264178
  0
LINE
  5
483
100
AcDbEntity
  8
0
100
AcDbLine
 62
250
  6
CONTINUOUS
 10
392.9494155551
 20
253.2256398968
 11
392.5613811275
 21
253.225421751
  0
LINE
  5
484
100
AcDbEntity
  8
0
100
AcDbLine
 62
250
  6
CONTINUOUS
 10
404.5903937858
 20
253.0258618363
 11
404.4057304314
 21
253.0259139898
  0
LINE
  5
485
100
AcDbEntity
  8
0
100
AcDbLine
 62
250
  6
CONTINUOUS
 10
404.6402144521
 20
253.225480398
 11
404.2643090752
 21
253.2256398968
  0
LINE
  5
486
100
AcDbEntity
  8
0
100
AcDbLine
 62
250
  6
CONTINUOUS
 10
404.7005558109
 20
253.2251003203
 11
404.6402144521
 21
253.225480398
  0
LINE
  5
487
100
AcDbEntity
  8
0
100
AcDbLine
 62
250
  6
CONTINUOUS
 10
404.7543743934
 20
253.2245027206
 11
404.7005558109
 21
253.2251003203
  0
LINE
  5
488
100
AcDbEntity
  8
0
100
AcDbLine
 62
7
  6
CONTINUOUS
 10
404.2568623152
 20
252.9886799821
 11
403.9557797245
 21
252.9929079711
  0
LINE
  5
489
100
AcDbEntity
  8
0
100
AcDbLine
 62
250
  6
CONTINUOUS
 10
404.8045627083
 20
253.2237112006
 11
404.7543743934
 21
253.2245027206
  0
LWPOLYLINE
  5
48A
100
AcDbEntity
  8
0
100
AcDbPolyline
 62
250
  6
CONTINUOUS
 90
4
 70
0
 10
404.6505458607
 20
253.0251014928
 10
404.6368508533
 20
253.02537455
 10
404.6223026498
 20
253.0255926463
 10
404.5903937858
 20
253.0258618363
  0
LINE
  5
48B
100
AcDbEntity
  8
0
100
AcDbLine
 62
250
  6
CONTINUOUS
 10
393.2547499907
 20
253.0025005109
 11
392.8079941989
 21
253.0259139898
  0
LINE
  5
48C
100
AcDbEntity
  8
0
100
AcDbLine
 62
250
  6
CONTINUOUS
 10
393.396171347
 20
253.2022264178
 11
392.9494155551
 21
253.2256398968
  0
LWPOLYLINE
  5
48D
100
AcDbEntity
  8
0
100
AcDbPolyline
 62
250
  6
CONTINUOUS
 90
13
 70
0
 10
403.9589746396
 20
253.0025005109
 10
403.9328637833
 20
253.0042342743
 10
403.9072018876
 20
253.0093577354
 10
403.8824281466
 20
253.0177824396
 10
403.8589673936
 20
253.0293628817
 10
403.8372196793
 20
253.0439005011
 10
403.8175542603
 20
253.0611483702
 10
403.8003013987
 20
253.0808204695
 10
403.7857657817
 20
253.1025735417
 10
403.7742081813
 20
253.1260080863
 10
403.7658189604
 20
253.1507092252
 10
403.7607259365
 20
253.1762609141
 10
403.7590051006
 20
253.2022264178
  0
LWPOLYLINE
  5
48E
100
AcDbEntity
  8
0
100
AcDbPolyline
 62
250
  6
CONTINUOUS
 90
13
 70
0
 10
392.4408391636
 20
253.0159809962
 10
392.4148148033
 20
253.017755016
 10
392.3892341773
 20
253.022904262
 10
392.3645334543
 20
253.0313409357
 10
392.3411337998
 20
253.0429211855
 10
392.3194341954
 20
253.0574475596
 10
392.2998046358
 20
253.0746723731
 10
392.2825798194
 20
253.0943019301
 10
392.2680534423
 20
253.1160015321
 10
392.2564731909
 20
253.1394011858
 10
392.2480365174
 20
253.16410191
 10
392.2428872731
 20
253.1896825386
 10
392.2411132566
 20
253.2157069032
  0
LWPOLYLINE
  5
48F
100
AcDbEntity
  8
0
100
AcDbPolyline
 62
250
  6
CONTINUOUS
 90
10
 70
0
 10
392.843349538
 20
255.4964274505
 10
392.8589485858
 20
255.4891070898
 10
392.8742388386
 20
255.4792404837
 10
392.8889176143
 20
255.4670229491
 10
392.9026943353
 20
255.4526963414
 10
392.9152962811
 20
255.4365442666
 10
392.9264739865
 20
255.4188864674
 10
392.9360061804
 20
255.4000724933
 10
392.9437041657
 20
255.3804747811
 10
392.9494155551
 20
255.3604812824
  0
LWPOLYLINE
  5
490
100
AcDbEntity
  8
0
100
AcDbPolyline
 62
250
  6
CONTINUOUS
 90
10
 70
0
 10
393.2901053298
 20
255.7047530975
 10
393.3057043748
 20
255.6974327384
 10
393.3209946257
 20
255.6875661342
 10
393.3356734003
 20
255.6753486015
 10
393.3494501211
 20
255.6610219954
 10
393.3620520673
 20
255.6448699216
 10
393.3732297739
 20
255.6272121223
 10
393.3827619693
 20
255.6083981468
 10
393.3904599563
 20
255.5888004319
 10
393.396171347
 20
255.5688069295
  0
LWPOLYLINE
  5
491
100
AcDbEntity
  8
0
100
AcDbPolyline
 62
250
  6
CONTINUOUS
 90
16
 70
0
 10
392.4251168298
 20
256.5779517404
 10
392.427336259
 20
256.5768889445
 10
392.4313292788
 20
256.5758676709
 10
392.437095889
 20
256.5748879195
 10
392.444694748
 20
256.5739446369
 10
392.4540671975
 20
256.5730428766
 10
392.4650372629
 20
256.5721977992
 10
392.4776177372
 20
256.571407072
 10
392.4917958275
 20
256.5706730278
 10
392.5073571804
 20
256.5700178249
 10
392.5243970995
 20
256.5694402511
 10
392.5428202813
 20
256.5689415187
 10
392.5621264622
 20
256.5685474226
 10
392.5821488879
 20
256.568266561
 10
392.6030543127
 20
256.5680903358
 10
392.8609236799
 20
256.5680187468
  0
LWPOLYLINE
  5
492
100
AcDbEntity
  8
0
100
AcDbPolyline
 62
250
  6
CONTINUOUS
 90
13
 70
0
 10
403.7590051006
 20
255.5848864853
 10
403.7594858275
 20
255.5836185369
 10
403.7605863147
 20
255.5823317445
 10
403.7623516818
 20
255.5810261079
 10
403.7648143887
 20
255.5796994918
 10
403.76802198
 20
255.5783540316
 10
403.7720634287
 20
255.5769961333
 10
403.7770076263
 20
255.5756202813
 10
403.7829049778
 20
255.5742319911
 10
403.7898489292
 20
255.5728542156
 10
403.7979134761
 20
255.5714946056
 10
403.8071354797
 20
255.5701455102
 10
403.8175532834
 20
255.5688069295
  0
LINE
  5
493
100
AcDbEntity
  8
0
100
AcDbLine
 62
7
  6
CONTINUOUS
 10
402.9635003152
 20
257.3391052014
 11
402.3030433152
 21
259.2391052014
  0
LWPOLYLINE
  5
494
100
AcDbEntity
  8
0
100
AcDbPolyline
 62
7
  6
CONTINUOUS
 90
6
 70
0
 10
401.7025181945
 20
261.4469460395
 10
401.7228912758
 20
261.3872269418
 10
401.7427727198
 20
261.3263566186
 10
401.7621625265
 20
261.2643350557
 10
401.7807702369
 20
261.2010665872
 10
401.8173821232
 20
261.0713627813
  0
LINE
  5
495
100
AcDbEntity
  8
0
100
AcDbLine
 62
250
  6
CONTINUOUS
 10
403.9559312557
 20
256.3852130188
 11
403.9580799513
 21
256.3787616899
  0
LINE
  5
496
100
AcDbEntity
  8
0
100
AcDbLine
 62
250
  6
CONTINUOUS
 10
404.154848665
 20
256.5880978817
 11
404.1580494903
 21
256.5784875969
  0
LWPOLYLINE
  5
497
100
AcDbEntity
  8
0
100
AcDbPolyline
 62
250
  6
CONTINUOUS
 90
19
 70
0
 10
409.1873929626
 20
264.7289502892
 10
409.1863832132
 20
264.7483045074
 10
409.1837898512
 20
264.7668771668
 10
409.1796128766
 20
264.7846682674
 10
409.1736808095
 20
264.8018499315
 10
409.1661651298
 20
264.8182500367
 10
409.1575802777
 20
264.8333522168
 10
409.1479064501
 20
264.8470006744
 10
409.1371634501
 20
264.8593512068
 10
409.1259251266
 20
264.8703548399
 10
409.1144003482
 20
264.87988969
 10
409.1023802464
 20
264.8880776407
 10
409.0898120644
 20
264.8952353686
 10
409.0768016737
 20
264.9014792325
 10
409.0632432029
 20
264.9066928737
 10
409.048766281
 20
264.9108438923
 10
409.0332474512
 20
264.9139214885
 10
409.0168101703
 20
264.9159364622
 10
408.9994544384
 20
264.9168888134
  0
LINE
  5
498
100
AcDbEntity
  8
0
100
AcDbLine
 62
250
  6
CONTINUOUS
 10
409.4131055024
 20
225.910735448
 11
409.4129136521
 21
225.9205422588
  0
LINE
  5
499
100
AcDbEntity
  8
0
100
AcDbLine
 62
250
  6
CONTINUOUS
 10
409.2133299299
 20
225.708439351
 11
409.2131130613
 21
225.7234566309
  0
LINE
  5
49A
100
AcDbEntity
  8
0
100
AcDbLine
 62
250
  6
CONTINUOUS
 10
409.4129136521
 20
225.9205422588
 11
409.4126705859
 21
225.9380215359
  0
LINE
  5
49B
100
AcDbEntity
  8
0
100
AcDbLine
 62
250
  6
CONTINUOUS
 10
409.2131130613
 20
225.7234566309
 11
409.2127535849
 21
225.7657053649
  0
LINE
  5
49C
100
AcDbEntity
  8
0
100
AcDbLine
 62
250
  6
CONTINUOUS
 10
409.4126705859
 20
225.9380215359
 11
409.4123258267
 21
225.9772955084
  0
LINE
  5
49D
100
AcDbEntity
  8
0
100
AcDbLine
 62
250
  6
CONTINUOUS
 10
409.4123258267
 20
225.9772955084
 11
409.4120107318
 21
226.0558798088
  0
LINE
  5
49E
100
AcDbEntity
  8
0
100
AcDbLine
 62
250
  6
CONTINUOUS
 10
409.2127535849
 20
225.7657053649
 11
409.2121061203
 21
225.9482148418
  0
LINE
  5
49F
100
AcDbEntity
  8
0
100
AcDbLine
 62
250
  6
CONTINUOUS
 10
409.4120107318
 20
226.0558798088
 11
409.4119713745
 21
226.0981127308
  0
LINE
  5
4A0
100
AcDbEntity
  8
0
100
AcDbLine
 62
250
  6
CONTINUOUS
 10
408.7442950556
 20
228.9800976721
 11
408.7442950556
 21
226.0981127308
  0
LINE
  5
4A1
100
AcDbEntity
  8
0
100
AcDbLine
 62
250
  6
CONTINUOUS
 10
408.9994544384
 20
221.6613215895
 11
408.9994544384
 21
221.3794138033
  0
LINE
  5
4A2
100
AcDbEntity
  8
0
100
AcDbLine
 62
250
  6
CONTINUOUS
 10
408.9994544384
 20
264.9168888134
 11
408.9994544384
 21
265.1987965996
  0
LINE
  5
4A3
100
AcDbEntity
  8
0
100
AcDbLine
 62
250
  6
CONTINUOUS
 10
409.1873929626
 20
221.8492601137
 11
409.1873929626
 21
225.5391052014
  0
LINE
  5
4A4
100
AcDbEntity
  8
0
100
AcDbLine
 62
250
  6
CONTINUOUS
 10
409.1873929626
 20
229.5391052014
 11
409.1873929626
 21
264.7289502892
  0
LINE
  5
4A5
100
AcDbEntity
  8
0
100
AcDbLine
 62
7
  6
CONTINUOUS
 10
409.4119713745
 20
226.0981127308
 11
409.4119713745
 21
228.9800976721
  0
LINE
  5
4A6
100
AcDbEntity
  8
0
100
AcDbLine
 62
7
  6
CONTINUOUS
 10
409.4305246817
 20
225.7288457353
 11
409.4305246817
 21
229.3493646676
  0
LINE
  5
4A7
100
AcDbEntity
  8
0
100
AcDbLine
 62
250
  6
CONTINUOUS
 10
409.4693007488
 20
221.8492601137
 11
409.4693007488
 21
264.7289502892
  0
LINE
  5
4A8
100
AcDbEntity
  8
0
100
AcDbLine
 62
7
  6
CONTINUOUS
 10
409.5794403412
 20
264.8390898816
 11
409.5794403412
 21
221.7391205213
  0
LINE
  5
4A9
100
AcDbEntity
  8
0
100
AcDbLine
 62
7
  6
CONTINUOUS
 10
409.6294403412
 20
264.8587073399
 11
409.6294403412
 21
221.719503063
  0
LINE
  5
4AA
100
AcDbEntity
  8
0
100
AcDbLine
 62
250
  6
CONTINUOUS
 10
409.2121061203
 20
225.9482148418
 11
409.2119897802
 21
229.0197466222
  0
LINE
  5
4AB
100
AcDbEntity
  8
0
100
AcDbLine
 62
250
  6
CONTINUOUS
 10
409.4119713745
 20
228.9800976721
 11
409.4121677101
 21
229.0720198005
  0
LINE
  5
4AC
100
AcDbEntity
  8
0
100
AcDbLine
 62
250
  6
CONTINUOUS
 10
409.2119897802
 20
229.0197466222
 11
409.2126208678
 21
229.2901695843
  0
LINE
  5
4AD
100
AcDbEntity
  8
0
100
AcDbLine
 62
250
  6
CONTINUOUS
 10
409.4121677101
 20
229.0720198005
 11
409.412516163
 21
229.1252650009
  0
LINE
  5
4AE
100
AcDbEntity
  8
0
100
AcDbLine
 62
250
  6
CONTINUOUS
 10
409.2126208678
 20
229.2901695843
 11
409.2130450983
 21
229.3485762485
  0
LINE
  5
4AF
100
AcDbEntity
  8
0
100
AcDbLine
 62
250
  6
CONTINUOUS
 10
409.412516163
 20
229.1252650009
 11
409.4128180426
 21
229.1515468504
  0
LWPOLYLINE
  5
4B0
100
AcDbEntity
  8
0
100
AcDbPolyline
 62
250
  6
CONTINUOUS
 90
4
 70
0
 10
409.2130450983
 20
229.3485762485
 10
409.2132927587
 20
229.3677144158
 10
409.2134286716
 20
229.3743487399
 10
409.2135722442
 20
229.3785755513
  0
LWPOLYLINE
  5
4B1
100
AcDbEntity
  8
0
100
AcDbPolyline
 62
250
  6
CONTINUOUS
 90
6
 70
0
 10
409.4128180426
 20
229.1515468504
 10
409.4130375746
 20
229.164452218
 10
409.4131570263
 20
229.1695345932
 10
409.4132852695
 20
229.1737114576
 10
409.413421137
 20
229.1769787971
 10
409.4135646288
 20
229.1793366117
  0
LWPOLYLINE
  5
4B2
100
AcDbEntity
  8
0
100
AcDbPolyline
 62
7
  6
CONTINUOUS
 90
19
 70
0
 10
409.4305246817
 20
225.7288457353
 10
409.4299691005
 20
225.7140779671
 10
409.4282708116
 20
225.6992594671
 10
409.4253817686
 20
225.6844812139
 10
409.4212684808
 20
225.6698845097
 10
409.415894727
 20
225.655531789
 10
409.4092003233
 20
225.6414140826
 10
409.401131358
 20
225.6276345511
 10
409.3916824428
 20
225.6143627967
 10
409.38087044
 20
225.6017066088
 10
409.3687507987
 20
225.5898523131
 10
409.355321269
 20
225.5789116277
 10
409.3405178195
 20
225.5689116058
 10
409.3242691914
 20
225.5599802142
 10
409.3067576412
 20
225.552398926
 10
409.2883462027
 20
225.5463895712
 10
409.269277789
 20
225.5420693899
 10
409.2496381229
 20
225.5395250996
 10
409.2296108984
 20
225.5388440088
  0
LWPOLYLINE
  5
4B3
100
AcDbEntity
  8
0
100
AcDbPolyline
 62
7
  6
CONTINUOUS
 90
16
 70
0
 10
408.2113294594
 20
229.5200592824
 10
408.2129803154
 20
229.5458218819
 10
408.2177944849
 20
229.5704604246
 10
408.2255026716
 20
229.5936214113
 10
408.2359188995
 20
229.6152320249
 10
408.2486573601
 20
229.6348015728
 10
408.2629002269
 20
229.6515706214
 10
408.27806946
 20
229.6655078225
 10
408.2937676844
 20
229.6768022195
 10
408.3092256704
 20
229.6853676198
 10
408.3242191397
 20
229.6915642227
 10
408.3382931672
 20
229.6956174439
 10
408.3502795505
 20
229.6975653038
 10
408.3596443104
 20
229.6977798572
 10
408.3665584338
 20
229.6967275335
 10
408.370944213
 20
229.6946698965
  0
LWPOLYLINE
  5
4B4
100
AcDbEntity
  8
0
100
AcDbPolyline
 62
250
  6
CONTINUOUS
 90
13
 70
0
 10
408.2443140941
 20
229.1893814641
 10
408.2460432468
 20
229.215374855
 10
408.2511614588
 20
229.2409239209
 10
408.2595812408
 20
229.2655919327
 10
408.2711586674
 20
229.2889572217
 10
408.2856958369
 20
229.3106203881
 10
408.3029442548
 20
229.3302111283
 10
408.3226090811
 20
229.3473945635
 10
408.3443541705
 20
229.3618769645
 10
408.3678078182
 20
229.3734107735
 10
408.3925691138
 20
229.3817988347
 10
408.4182147941
 20
229.3868977647
 10
408.4443064787
 20
229.3886204037
  0
LWPOLYLINE
  5
4B5
100
AcDbEntity
  8
0
100
AcDbPolyline
 62
250
  6
CONTINUOUS
 90
13
 70
0
 10
408.2841926323
 20
229.1793366121
 10
408.2865018656
 20
229.2047955623
 10
408.2917871406
 20
229.2298375911
 10
408.2999619037
 20
229.2540526102
 10
408.3108922834
 20
229.2770440754
 10
408.3243992821
 20
229.2984354786
 10
408.3402617064
 20
229.3178765141
 10
408.3582197913
 20
229.3350488172
 10
408.3779794541
 20
229.349671177
 10
408.3992171092
 20
229.3615041401
 10
408.421584968
 20
229.370353933
 10
408.444716735
 20
229.376075635
 10
408.4682336054
 20
229.3785755509
  0
LINE
  5
4B6
100
AcDbEntity
  8
0
100
AcDbLine
 62
250
  6
CONTINUOUS
 10
408.2443140941
 20
225.8888289388
 11
408.2123944044
 21
225.5688274148
  0
LINE
  5
4B7
100
AcDbEntity
  8
0
100
AcDbLine
 62
250
  6
CONTINUOUS
 10
408.4443064787
 20
225.6895899992
 11
408.4217905527
 21
225.4638631607
  0
LWPOLYLINE
  5
4B8
100
AcDbEntity
  8
0
100
AcDbPolyline
 62
7
  6
CONTINUOUS
 90
10
 70
0
 10
404.9883337075
 20
230.9741899903
 10
404.9833874149
 20
230.9649889308
 10
404.9737394505
 20
230.9563651105
 10
404.9599476736
 20
230.9490177164
 10
404.9427470299
 20
230.9435917433
 10
404.9227938936
 20
230.9403855208
 10
404.9004909328
 20
230.9394884561
 10
404.8763663218
 20
230.9411400792
 10
404.8511928802
 20
230.9455928779
 10
404.8256510999
 20
230.9529187024
  0
LINE
  5
4B9
100
AcDbEntity
  8
0
100
AcDbLine
 62
250
  6
CONTINUOUS
 10
404.8997612615
 20
233.6891052014
 11
404.7728854668
 21
233.5622294067
  0
LINE
  5
4BA
100
AcDbEntity
  8
0
100
AcDbLine
 62
250
  6
CONTINUOUS
 10
405.0994871685
 20
233.4893792945
 11
404.9726113737
 21
233.3625034997
  0
LWPOLYLINE
  5
4BB
100
AcDbEntity
  8
0
100
AcDbPolyline
 62
7
  6
CONTINUOUS
 90
10
 70
0
 10
399.5277352046
 20
229.1929251201
 10
399.5027705279
 20
229.1700750222
 10
399.4797361003
 20
229.1449523725
 10
399.4586319219
 20
229.117557181
 10
399.4393945015
 20
229.0878536097
 10
399.4220873304
 20
229.0558775189
 10
399.4069008817
 20
229.021736467
 10
399.3938986466
 20
228.9854663153
 10
399.3830171339
 20
228.947031229
 10
399.3742563438
 20
228.9064312226
  0
LWPOLYLINE
  5
4BC
100
AcDbEntity
  8
0
100
AcDbPolyline
 62
7
  6
CONTINUOUS
 90
10
 70
0
 10
399.6502760841
 20
229.0765360307
 10
399.666276292
 20
229.0904528943
 10
399.6832383798
 20
229.1027716584
 10
399.7011623475
 20
229.1134923196
 10
399.7200233274
 20
229.1226313225
 10
399.7398461872
 20
229.1301722172
 10
399.76070553
 20
229.1360656586
 10
399.7826262236
 20
229.1402951974
 10
399.8055834001
 20
229.1428772802
 10
399.8295770597
 20
229.1438119061
  0
LWPOLYLINE
  5
4BD
100
AcDbEntity
  8
0
100
AcDbPolyline
 62
7
  6
CONTINUOUS
 90
10
 70
0
 10
398.6007499623
 20
229.0946685454
 10
398.5753073252
 20
229.072627958
 10
398.5487164556
 20
229.051188631
 10
398.5209773535
 20
229.0303505622
 10
398.4920837087
 20
229.01008556
 10
398.4620418313
 20
228.9904218118
 10
398.430870652
 20
228.9714438842
 10
398.398576481
 20
228.9531799643
 10
398.365153008
 20
228.9356018606
 10
398.330600233
 20
228.9187095708
  0
LWPOLYLINE
  5
4BE
100
AcDbEntity
  8
0
100
AcDbPolyline
 62
7
  6
CONTINUOUS
 90
10
 70
0
 10
396.1933748385
 20
228.8354518397
 10
396.2152013737
 20
228.8485652126
 10
396.2364556442
 20
228.8619184754
 10
396.2571376499
 20
228.8755116284
 10
396.2772879399
 20
228.8893225036
 10
396.2968659651
 20
228.9033732703
 10
396.3157500788
 20
228.9177304348
 10
396.333899732
 20
228.9324161665
 10
396.3513554737
 20
228.9474082975
 10
396.3681173038
 20
228.9627068288
  0
LWPOLYLINE
  5
4BF
100
AcDbEntity
  8
0
100
AcDbPolyline
 62
250
  6
CONTINUOUS
 90
12
 70
0
 10
404.7728854668
 20
233.5622294067
 10
404.7703766287
 20
233.5611315004
 10
404.7662591638
 20
233.560092609
 10
404.760533072
 20
233.5591127324
 10
404.7529524425
 20
233.5581859462
 10
404.7437631862
 20
233.5573181748
 10
404.7337030352
 20
233.5565271921
 10
404.7228238506
 20
233.5558207063
 10
404.7110737713
 20
233.5551910092
 10
404.699034946
 20
233.55463275
 10
404.6869321629
 20
233.5541504808
 10
404.6745406338
 20
233.5537396495
  0
LINE
  5
4C0
100
AcDbEntity
  8
0
100
AcDbLine
 62
7
  6
CONTINUOUS
 10
392.331792065
 20
229.9069338976
 11
392.4043109014
 21
229.9292025039
  0
LINE
  5
4C1
100
AcDbEntity
  8
0
100
AcDbLine
 62
7
  6
CONTINUOUS
 10
392.4043109014
 20
229.9292025039
 11
392.4389990875
 21
229.9396916507
  0
LWPOLYLINE
  5
4C2
100
AcDbEntity
  8
0
100
AcDbPolyline
 62
7
  6
CONTINUOUS
 90
43
 70
0
 10
392.331792065
 20
229.9069338976
 10
392.3228005497
 20
229.9042673213
 10
392.3140320115
 20
229.9018766573
 10
392.3054915642
 20
229.8997501053
 10
392.2971931428
 20
229.8978789667
 10
392.2891309795
 20
229.8962483929
 10
392.2812798616
 20
229.894839067
 10
392.2736430732
 20
229.8936411799
 10
392.2662225344
 20
229.8926452071
 10
392.2589907912
 20
229.8918354509
 10
392.2519506457
 20
229.8912038666
 10
392.2451026563
 20
229.8907429302
 10
392.2384162891
 20
229.8904409764
 10
392.2318932555
 20
229.8902916611
 10
392.225534397
 20
229.8902895545
 10
392.2193086166
 20
229.8904276641
 10
392.2132122489
 20
229.890701742
 10
392.2072516412
 20
229.8911079682
 10
392.2014114777
 20
229.8916424259
 10
392.1956898825
 20
229.8923020672
 10
392.1900913284
 20
229.8930835015
 10
392.1846103831
 20
229.8939833884
 10
392.1792481108
 20
229.8949987096
 10
392.1740056599
 20
229.8961265624
 10
392.1688779097
 20
229.8973643414
 10
392.1638662477
 20
229.8987091665
 10
392.158971278
 20
229.9001585499
 10
392.1541869882
 20
229.901711055
 10
392.149514851
 20
229.9033639936
 10
392.1449553855
 20
229.9051153129
 10
392.1405016075
 20
229.9069652073
 10
392.136154309
 20
229.9089116348
 10
392.1319149898
 20
229.9109526186
 10
392.1277782854
 20
229.9130891127
 10
392.1237454257
 20
229.9153192122
 10
392.1198178016
 20
229.917641302
 10
392.1159908798
 20
229.9200573391
 10
392.1122668411
 20
229.9225650559
 10
392.1086465506
 20
229.9251635773
 10
392.1051243052
 20
229.9278575751
 10
392.1016997544
 20
229.9306479015
 10
392.09837733
 20
229.9335311577
 10
392.0951589898
 20
229.9365059397
  0
LWPOLYLINE
  5
4C3
100
AcDbEntity
  8
0
100
AcDbPolyline
 62
7
  6
CONTINUOUS
 90
10
 70
0
 10
392.3880735304
 20
230.9529187024
 10
392.3625315457
 20
230.9455928284
 10
392.3373579179
 20
230.941140029
 10
392.3132331542
 20
230.9394884481
 10
392.2909300347
 20
230.9403855864
 10
392.2709768116
 20
230.9435919185
 10
392.2537762796
 20
230.9490179911
 10
392.2399847647
 20
230.9563654011
 10
392.2303370644
 20
230.9649891284
 10
392.2253909228
 20
230.9741899903
  0
LWPOLYLINE
  5
4C4
100
AcDbEntity
  8
0
100
AcDbPolyline
 62
250
  6
CONTINUOUS
 90
13
 70
0
 10
392.8079941989
 20
253.0259139898
 10
392.8260489451
 20
253.0284896821
 10
392.8438075014
 20
253.0342869577
 10
392.8609797581
 20
253.0432104765
 10
392.8772845538
 20
253.0551132429
 10
392.8924565363
 20
253.0698006077
 10
392.906249927
 20
253.0870346989
 10
392.9184438018
 20
253.1065430931
 10
392.928832325
 20
253.128000569
 10
392.9372369555
 20
253.1510301253
 10
392.9435249597
 20
253.1752423247
 10
392.9476042454
 20
253.2002482567
 10
392.9494155551
 20
253.2256398968
  0
LWPOLYLINE
  5
4C5
100
AcDbEntity
  8
0
100
AcDbPolyline
 62
250
  6
CONTINUOUS
 90
13
 70
0
 10
393.2547499907
 20
253.0025005109
 10
393.2727979828
 20
253.0050746243
 10
393.2905509109
 20
253.0108682613
 10
393.3077188893
 20
253.0197866345
 10
393.3240207352
 20
253.0316832007
 10
393.3391913112
 20
253.0463639715
 10
393.3529851717
 20
253.0635921766
 10
393.3651809132
 20
253.0830957342
 10
393.3755725744
 20
253.1045503014
 10
393.3839817427
 20
253.1275812631
 10
393.3902747538
 20
253.1518003728
 10
393.3943581003
 20
253.1768182029
 10
393.396171347
 20
253.2022264178
  0
LWPOLYLINE
  5
4C6
100
AcDbEntity
  8
0
100
AcDbPolyline
 62
250
  6
CONTINUOUS
 90
9
 70
0
 10
392.3268247603
 20
253.2216654081
 10
392.309467627
 20
253.2210404556
 10
392.2939209523
 20
253.2203881777
 10
392.2802734809
 20
253.2197136267
 10
392.2685684703
 20
253.2190117504
 10
392.2584943929
 20
253.2182621771
 10
392.2502703458
 20
253.2174581162
 10
392.2443682752
 20
253.2166063582
 10
392.2411132566
 20
253.2157069032
  0
LINE
  5
4C7
100
AcDbEntity
  8
0
100
AcDbLine
 62
250
  6
CONTINUOUS
 10
392.3693050456
 20
253.2228599164
 11
392.3268247603
 21
253.2216654081
  0
LWPOLYLINE
  5
4C8
100
AcDbEntity
  8
0
100
AcDbPolyline
 62
7
  6
CONTINUOUS
 90
7
 70
0
 10
388.9093485591
 20
253.7104866326
 10
388.8920761577
 20
253.710052974
 10
388.8771931966
 20
253.7095863156
 10
388.8651757103
 20
253.709101347
 10
388.8561823771
 20
253.7086029648
 10
388.8500545187
 20
253.7080862724
 10
388.8467921352
 20
253.7075512699
  0
LINE
  5
4C9
100
AcDbEntity
  8
0
100
AcDbLine
 62
7
  6
CONTINUOUS
 10
388.9511452642
 20
253.7112519755
 11
388.9093485591
 21
253.7104866326
  0
LINE
  5
4CA
100
AcDbEntity
  8
0
100
AcDbLine
 62
7
  6
CONTINUOUS
 10
389.0008016028
 20
253.7118538686
 11
388.9511452642
 21
253.7112519755
  0
LINE
  5
4CB
100
AcDbEntity
  8
0
100
AcDbLine
 62
7
  6
CONTINUOUS
 10
389.0857899006
 20
253.7124049451
 11
389.0008016028
 21
253.7118538686
  0
LINE
  5
4CC
100
AcDbEntity
  8
0
100
AcDbLine
 62
7
  6
CONTINUOUS
 10
408.40397298
 20
253.6952144742
 11
405.0994871685
 21
253.6952144742
  0
LINE
  5
4CD
100
AcDbEntity
  8
0
100
AcDbLine
 62
7
  6
CONTINUOUS
 10
392.1142374618
 20
253.6952144742
 11
388.8097516503
 21
253.6952144742
  0
LINE
  5
4CE
100
AcDbEntity
  8
0
100
AcDbLine
 62
7
  6
CONTINUOUS
 10
389.0857899006
 20
253.7124049451
 11
392.0622994871
 21
253.7125130648
  0
LINE
  5
4CF
100
AcDbEntity
  8
0
100
AcDbLine
 62
7
  6
CONTINUOUS
 10
408.1279347114
 20
253.7124049462
 11
405.1514251432
 21
253.7125130648
  0
LINE
  5
4D0
100
AcDbEntity
  8
0
100
AcDbLine
 62
7
  6
CONTINUOUS
 10
408.2129230523
 20
253.7118538698
 11
408.1279347114
 21
253.7124049462
  0
LINE
  5
4D1
100
AcDbEntity
  8
0
100
AcDbLine
 62
7
  6
CONTINUOUS
 10
408.2625793902
 20
253.7112519765
 11
408.2129230523
 21
253.7118538698
  0
LWPOLYLINE
  5
4D2
100
AcDbEntity
  8
0
100
AcDbPolyline
 62
250
  6
CONTINUOUS
 90
13
 70
0
 10
403.9589746396
 20
253.0025005109
 10
403.9409265321
 20
253.0050746513
 10
403.9231734948
 20
253.010868356
 10
403.9060054187
 20
253.0197868349
 10
403.889703476
 20
253.0316835547
 10
403.8745328269
 20
253.0463645137
 10
403.8607389614
 20
253.0635928792
 10
403.8485432858
 20
253.0830965164
 10
403.8381517261
 20
253.1045510819
 10
403.8297426696
 20
253.127581964
 10
403.8234497617
 20
253.1518009178
 10
403.819366494
 20
253.1768185118
 10
403.8175532834
 20
253.2022264178
  0
LWPOLYLINE
  5
4D3
100
AcDbEntity
  8
0
100
AcDbPolyline
 62
250
  6
CONTINUOUS
 90
13
 70
0
 10
404.4057304314
 20
253.0259139898
 10
404.3876758253
 20
253.0284896494
 10
404.3699174052
 20
253.0342868413
 10
404.3527452736
 20
253.0432102268
 10
404.3364406068
 20
253.055112795
 10
404.3212687251
 20
253.0697999123
 10
404.3074753463
 20
253.0870337899
 10
404.2952813911
 20
253.1065420727
 10
404.2848927398
 20
253.1279995406
 10
404.2764879644
 20
253.151029194
 10
404.2701998239
 20
253.1752415969
 10
404.2661204333
 20
253.2002478426
 10
404.2643090752
 20
253.2256398968
  0
LWPOLYLINE
  5
4D4
100
AcDbEntity
  8
0
100
AcDbPolyline
 62
250
  6
CONTINUOUS
 90
10
 70
0
 10
404.9726113737
 20
253.2157065881
 10
404.9684879618
 20
253.2167684994
 10
404.9605508512
 20
253.217779774
 10
404.9490921201
 20
253.2187404119
 10
404.9343382733
 20
253.2196585701
 10
404.9166697695
 20
253.2205260917
 10
404.8967806937
 20
253.2213185057
 10
404.8753089309
 20
253.2220255836
 10
404.8525527633
 20
253.2226575538
 10
404.8045627083
 20
253.2237112006
  0
LWPOLYLINE
  5
4D5
100
AcDbEntity
  8
0
100
AcDbPolyline
 62
250
  6
CONTINUOUS
 90
11
 70
0
 10
392.2253909228
 20
256.3782258335
 10
392.2295084022
 20
256.3771622434
 10
392.2375481196
 20
256.3761405424
 10
392.2493490305
 20
256.3751607305
 10
392.2646474383
 20
256.3742179963
 10
392.2832615379
 20
256.3733171512
 10
392.3052317983
 20
256.3724726296
 10
392.3304388019
 20
256.3716816556
 10
392.3586513995
 20
256.370947005
 10
392.3898716182
 20
256.3702914408
 10
392.460610851
 20
256.3692158245
  0
LINE
  5
4D6
100
AcDbEntity
  8
0
100
AcDbLine
 62
7
  6
CONTINUOUS
 10
392.3685752106
 20
256.6599271542
 11
392.438999124
 21
256.6385187482
  0
LINE
  5
4D7
100
AcDbEntity
  8
0
100
AcDbLine
 62
7
  6
CONTINUOUS
 10
392.331792065
 20
256.6712765052
 11
392.3685752106
 21
256.6599271542
  0
LWPOLYLINE
  5
4D8
100
AcDbEntity
  8
0
100
AcDbPolyline
 62
250
  6
CONTINUOUS
 90
13
 70
0
 10
404.7728854668
 20
253.0159809962
 10
404.7705651535
 20
253.0170420949
 10
404.7666452762
 20
253.0180528758
 10
404.7611258351
 20
253.0190133388
 10
404.7537643143
 20
253.0199318105
 10
404.7448032296
 20
253.0207999644
 10
404.7349701281
 20
253.0215928207
 10
404.7243352027
 20
253.0222999085
 10
404.7128282605
 20
253.0229316988
 10
404.7009662698
 20
253.0234946252
 10
404.6889611682
 20
253.0239851379
 10
404.6766010182
 20
253.0244067867
 10
404.6505458607
 20
253.0251014928
  0
LINE
  5
4D9
100
AcDbEntity
  8
0
100
AcDbLine
 62
250
  6
CONTINUOUS
 10
404.8997612615
 20
252.8891052014
 11
404.7728854668
 21
253.0159809962
  0
LINE
  5
4DA
100
AcDbEntity
  8
0
100
AcDbLine
 62
250
  6
CONTINUOUS
 10
405.0994871685
 20
253.0888311084
 11
404.9726113737
 21
253.2157069032
  0
LINE
  5
4DB
100
AcDbEntity
  8
0
100
AcDbLine
 62
250
  6
CONTINUOUS
 10
409.2135722442
 20
229.3785755513
 11
409.2296108984
 21
229.539366394
  0
LINE
  5
4DC
100
AcDbEntity
  8
0
100
AcDbLine
 62
250
  6
CONTINUOUS
 10
409.4135646288
 20
229.1793366117
 11
409.4305246817
 21
229.3493646676
  0
LWPOLYLINE
  5
4DD
100
AcDbEntity
  8
0
100
AcDbPolyline
 62
250
  6
CONTINUOUS
 90
16
 70
0
 10
404.7747256775
 20
229.9396917692
 10
404.767748449
 20
229.9296258418
 10
404.7594064834
 20
229.9206021133
 10
404.749863029
 20
229.9128105833
 10
404.7393007006
 20
229.9064318799
 10
404.72794417
 20
229.901584031
 10
404.7160319434
 20
229.898310982
 10
404.7037838225
 20
229.8966558451
 10
404.691422153
 20
229.8966685184
 10
404.6791781716
 20
229.8983487486
 10
404.6672682555
 20
229.9016482154
 10
404.6559185821
 20
229.906522276
 10
404.6453828704
 20
229.9129149789
 10
404.6358851538
 20
229.9206974156
 10
404.6275954509
 20
229.9296872678
 10
404.6206688215
 20
229.9396917949
  0
LWPOLYLINE
  5
4DE
100
AcDbEntity
  8
0
100
AcDbPolyline
 62
7
  6
CONTINUOUS
 90
10
 70
0
 10
400.1946132039
 20
227.8988419407
 10
400.2249078443
 20
227.9303178085
 10
400.2515739397
 20
227.9630909623
 10
400.2746114903
 20
227.9971614099
 10
400.2939661939
 20
228.0324062069
 10
400.3096923526
 20
228.0689483134
 10
400.3219528723
 20
228.1071565962
 10
400.3308020552
 20
228.1471540197
 10
400.3361855991
 20
228.1888176434
 10
400.3381035041
 20
228.2321474797
  0
LWPOLYLINE
  5
4DF
100
AcDbEntity
  8
0
100
AcDbPolyline
 62
7
  6
CONTINUOUS
 90
10
 70
0
 10
400.0528894695
 20
228.0047457361
 10
400.0324562813
 20
227.9858601768
 10
400.0110885076
 20
227.9692182398
 10
399.9887861482
 20
227.9548199181
 10
399.9656112752
 20
227.9426869757
 10
399.9415018166
 20
227.9327976376
 10
399.9162715566
 20
227.9250865903
 10
399.8898584234
 20
227.9195320609
 10
399.8623244889
 20
227.9161558169
 10
399.833669753
 20
227.9149578571
  0
LWPOLYLINE
  5
4E0
100
AcDbEntity
  8
0
100
AcDbPolyline
 62
7
  6
CONTINUOUS
 90
10
 70
0
 10
400.9315820861
 20
229.0946685454
 10
400.9061393729
 20
229.0726278914
 10
400.8795484534
 20
229.0511885189
 10
400.8518093278
 20
229.0303504257
 10
400.8229156953
 20
229.010085426
 10
400.7928738567
 20
228.9904217015
 10
400.7617027133
 20
228.9714438009
 10
400.7294085658
 20
228.9531799054
 10
400.6959851136
 20
228.9356018295
 10
400.6614323568
 20
228.9187095708
  0
LWPOLYLINE
  5
4E1
100
AcDbEntity
  8
0
100
AcDbPolyline
 62
7
  6
CONTINUOUS
 90
10
 70
0
 10
399.9808579447
 20
228.720444353
 10
399.9594828796
 20
228.7075112353
 10
399.9376308846
 20
228.6961093225
 10
399.9153019595
 20
228.6862386118
 10
399.8925740348
 20
228.6779120912
 10
399.86936918
 20
228.6711167677
 10
399.8454536043
 20
228.665813667
 10
399.8207493773
 20
228.6619897967
 10
399.7953344292
 20
228.6596581467
 10
399.7692087602
 20
228.6588187165
  0
LWPOLYLINE
  5
4E2
100
AcDbEntity
  8
0
100
AcDbPolyline
 62
7
  6
CONTINUOUS
 90
10
 70
0
 10
398.5242070271
 20
228.8354518052
 10
398.5460335692
 20
228.8485651789
 10
398.5672878438
 20
228.8619184425
 10
398.5879698507
 20
228.8755115968
 10
398.6081201398
 20
228.889322473
 10
398.6276981613
 20
228.9033732409
 10
398.6465822658
 20
228.9177304088
 10
398.6647319034
 20
228.9324161469
 10
398.682187624
 20
228.9474082866
 10
398.6989494275
 20
228.9627068288
  0
LINE
  5
4E3
100
AcDbEntity
  8
0
100
AcDbLine
 62
250
  6
CONTINUOUS
 10
404.2643088679
 20
231.2177290238
 11
403.8175532834
 21
231.0094034734
  0
LWPOLYLINE
  5
4E4
100
AcDbEntity
  8
0
100
AcDbPolyline
 62
7
  6
CONTINUOUS
 90
10
 70
0
 10
395.9997680646
 20
228.740674103
 10
396.021040503
 20
228.7487449639
 10
396.0423699022
 20
228.7574599025
 10
396.0637562623
 20
228.7668189199
 10
396.0851957225
 20
228.7768607908
 10
396.1066921436
 20
228.7875467427
 10
396.1282571075
 20
228.7987604547
 10
396.149894475
 20
228.8104631539
 10
396.1716003853
 20
228.8226936151
 10
396.1933748385
 20
228.8354518397
  0
LINE
  5
4E5
100
AcDbEntity
  8
0
100
AcDbLine
 62
7
  6
CONTINUOUS
 10
388.8382071465
 20
226.8046919323
 11
388.7914089276
 21
226.7891052014
  0
LINE
  5
4E6
100
AcDbEntity
  8
0
100
AcDbLine
 62
7
  6
CONTINUOUS
 10
408.3669324952
 20
232.870659133
 11
408.40397298
 21
232.8829959287
  0
LWPOLYLINE
  5
4E7
100
AcDbEntity
  8
0
100
AcDbPolyline
 62
250
  6
CONTINUOUS
 90
13
 70
0
 10
404.3528009504
 20
256.5680187468
 10
404.334512506
 20
256.5654536498
 10
404.3165243608
 20
256.5596645633
 10
404.2991305739
 20
256.5507467951
 10
404.2826161417
 20
256.5388473984
 10
404.2672499759
 20
256.5241611221
 10
404.2532811032
 20
256.5069259386
 10
404.2409332394
 20
256.4874141632
 10
404.2304151861
 20
256.4659515365
 10
404.2219081387
 20
256.4429163816
 10
404.2155463421
 20
256.4186989822
 10
404.2114226061
 20
256.3936883513
 10
404.2095965653
 20
256.3682928399
  0
LWPOLYLINE
  5
4E8
100
AcDbEntity
  8
0
100
AcDbPolyline
 62
250
  6
CONTINUOUS
 90
13
 70
0
 10
404.1580494903
 20
256.5784875969
 10
404.1397693347
 20
256.5759244084
 10
404.1217881468
 20
256.5701397495
 10
404.1043997046
 20
256.5612282841
 10
404.08788894
 20
256.5493364738
 10
404.0725245778
 20
256.5346583253
 10
404.0585554172
 20
256.5174307671
 10
404.046205974
 20
256.4979263567
 10
404.0356846784
 20
256.4764693845
 10
404.0271719391
 20
256.4534337241
 10
404.0208033162
 20
256.4292074253
 10
404.0166738962
 20
256.4041805023
 10
404.0148451052
 20
256.3787616899
  0
LINE
  5
4E9
100
AcDbEntity
  8
0
100
AcDbLine
 62
7
  6
CONTINUOUS
 10
403.9050853902
 20
255.8249364092
 11
403.9559312557
 21
255.8312894353
  0
LWPOLYLINE
  5
4EA
100
AcDbEntity
  8
0
100
AcDbPolyline
 62
250
  6
CONTINUOUS
 90
16
 70
0
 10
393.396171347
 20
255.5688069295
 10
393.40193359
 20
255.5695065864
 10
393.4075940202
 20
255.5702559998
 10
393.413119406
 20
255.5710551697
 10
393.4184650391
 20
255.5719018791
 10
393.4236050331
 20
255.5727983451
 10
393.4285259385
 20
255.5737512186
 10
393.4331856404
 20
255.5747628522
 10
393.4375302898
 20
255.5758308934
 10
393.441516938
 20
255.5769549357
 10
393.4450864794
 20
255.5781343964
 10
393.4481864217
 20
255.5793698583
 10
393.4507693547
 20
255.5806626638
 10
393.4527686801
 20
255.5820132606
 10
393.454109095
 20
255.5834212011
 10
393.4547195298
 20
255.5848864853
  0
LWPOLYLINE
  5
4EB
100
AcDbEntity
  8
0
100
AcDbPolyline
 62
250
  6
CONTINUOUS
 90
10
 70
0
 10
392.3909076868
 20
255.6000742832
 10
392.365253597
 20
255.5975517769
 10
392.3403568938
 20
255.5910886024
 10
392.3169529435
 20
255.580875514
 10
392.2957330278
 20
255.5672140188
 10
392.2773240451
 20
255.5505075221
 10
392.2622699328
 20
255.5312494718
 10
392.251015441
 20
255.5100086945
 10
392.2438930478
 20
255.4874125459
 10
392.2411132179
 20
255.4641284595
  0
LWPOLYLINE
  5
4EC
100
AcDbEntity
  8
0
100
AcDbPolyline
 62
250
  6
CONTINUOUS
 90
10
 70
0
 10
403.9089822548
 20
255.7208326533
 10
403.8830593411
 20
255.7186133161
 10
403.8579167213
 20
255.7123687296
 10
403.8343112016
 20
255.7022868593
 10
403.8129533208
 20
255.6886711752
 10
403.7944859627
 20
255.6719315168
 10
403.7794650047
 20
255.6525717565
 10
403.7683425856
 20
255.6311746336
 10
403.7614534958
 20
255.6083842133
 10
403.7590051
 20
255.5848864994
  0
LWPOLYLINE
  5
4ED
100
AcDbEntity
  8
0
100
AcDbPolyline
 62
250
  6
CONTINUOUS
 90
13
 70
0
 10
404.1580494903
 20
256.5784875969
 10
404.1319394458
 20
256.576753941
 10
404.1062782299
 20
256.5716307731
 10
404.0815050079
 20
256.563206502
 10
404.0580445319
 20
256.5516265477
 10
404.0362969207
 20
256.5370894416
 10
404.0166315941
 20
256.5198422205
 10
403.9993790277
 20
256.5001712588
 10
403.9848435033
 20
256.4784195384
 10
403.9732853208
 20
256.4549855461
 10
403.964895087
 20
256.4302836392
 10
403.9598011714
 20
256.4047300996
 10
403.9580799513
 20
256.3787616899
  0
LINE
  5
4EE
100
AcDbEntity
  8
0
100
AcDbLine
 62
250
  6
CONTINUOUS
 10
393.004128065
 20
256.3682928399
 11
393.1988795252
 21
256.3787616899
  0
LWPOLYLINE
  5
4EF
100
AcDbEntity
  8
0
100
AcDbPolyline
 62
250
  6
CONTINUOUS
 90
16
 70
0
 10
404.5731595598
 20
255.4895985329
 10
404.5979984259
 20
255.4902109815
 10
404.6221146189
 20
255.491873758
 10
404.6455081388
 20
255.4945868624
 10
404.6683245121
 20
255.4983688957
 10
404.6904182124
 20
255.5032012569
 10
404.7113526602
 20
255.5090281427
 10
404.7311983984
 20
255.5158732508
 10
404.7498848841
 20
255.5237128836
 10
404.7667639095
 20
255.5324201446
 10
404.7818404435
 20
255.5420473956
 10
404.7951095172
 20
255.5525422749
 10
404.8059080156
 20
255.5636208014
 10
404.8140149002
 20
255.5751883148
 10
404.8196512095
 20
255.5873394753
 10
404.8228169435
 20
255.6000742832
  0
LWPOLYLINE
  5
4F0
100
AcDbEntity
  8
0
100
AcDbPolyline
 62
250
  6
CONTINUOUS
 90
9
 70
0
 10
404.8438553065
 20
256.3706970942
 10
404.8730795866
 20
256.3714013025
 10
404.8998296275
 20
256.3721816876
 10
404.9237877661
 20
256.3730426977
 10
404.9445054161
 20
256.3739798846
 10
404.9616142983
 20
256.3749692231
 10
404.9747980742
 20
256.3760027045
 10
404.9837846489
 20
256.3770883375
 10
404.9883337075
 20
256.3782261219
  0
LWPOLYLINE
  5
4F1
100
AcDbEntity
  8
0
100
AcDbPolyline
 62
250
  6
CONTINUOUS
 90
16
 70
0
 10
404.5731595598
 20
255.3536523649
 10
404.6123091977
 20
255.3542665959
 10
404.6510175448
 20
255.355930463
 10
404.6889170225
 20
255.3586439662
 10
404.7255206484
 20
255.3624251712
 10
404.7606276801
 20
255.3672560122
 10
404.7942684778
 20
255.3730822923
 10
404.8261396534
 20
255.3799291058
 10
404.8557841553
 20
255.3877713582
 10
404.8829257222
 20
255.3964795699
 10
404.9072114368
 20
255.406104083
 10
404.9282154984
 20
255.4165945554
 10
404.9455574989
 20
255.42767048
 10
404.9589151817
 20
255.4392383546
 10
404.9680140758
 20
255.4513916816
 10
404.9726113737
 20
255.4641304608
  0
LINE
  5
4F2
100
AcDbEntity
  8
0
100
AcDbLine
 62
250
  6
CONTINUOUS
 10
404.7788156735
 20
256.3695501498
 11
404.8438553065
 21
256.3706970942
  0
LINE
  5
4F3
100
AcDbEntity
  8
0
100
AcDbLine
 62
7
  6
CONTINUOUS
 10
404.154848665
 20
256.5880978817
 11
404.2568623152
 21
256.5895304208
  0
LWPOLYLINE
  5
4F4
100
AcDbEntity
  8
0
100
AcDbPolyline
 62
7
  6
CONTINUOUS
 90
8
 70
0
 10
404.7391010354
 20
256.6367008309
 10
404.7458571828
 20
256.6367675484
 10
404.7525366011
 20
256.6369146105
 10
404.7589136258
 20
256.63712279
 10
404.7643816926
 20
256.6373877299
 10
404.7687386133
 20
256.6377079782
 10
404.772186576
 20
256.6380849869
 10
404.7747255808
 20
256.6385187562
  0
LINE
  5
4F5
100
AcDbEntity
  8
0
100
AcDbLine
 62
250
  6
CONTINUOUS
 10
404.706858278
 20
256.3687595165
 11
404.7788156735
 21
256.3695501498
  0
LWPOLYLINE
  5
4F6
100
AcDbEntity
  8
0
100
AcDbPolyline
 62
250
  6
CONTINUOUS
 90
19
 70
0
 10
392.8079941989
 20
255.4895985329
 10
392.8099409132
 20
255.4896160822
 10
392.8118816528
 20
255.489668952
 10
392.8138164179
 20
255.4897571425
 10
392.8157396391
 20
255.489879264
 10
392.8176568857
 20
255.4900367061
 10
392.8195848654
 20
255.4902336372
 10
392.8215287339
 20
255.4904690887
 10
392.8234833354
 20
255.4907440292
 10
392.8254499103
 20
255.4910655327
 10
392.8274308863
 20
255.4914327331
 10
392.8294238358
 20
255.4918464965
 10
392.8314227164
 20
255.492316496
 10
392.8334321411
 20
255.4928425982
 10
392.8354474969
 20
255.4934249365
 10
392.8374489027
 20
255.4940735835
 10
392.8394297312
 20
255.494791897
 10
392.8413966096
 20
255.4955765193
 10
392.843349538
 20
255.4964274505
  0
LWPOLYLINE
  5
4F7
100
AcDbEntity
  8
0
100
AcDbPolyline
 62
250
  6
CONTINUOUS
 90
15
 70
0
 10
404.6092409063
 20
256.5680791834
 10
404.6289036375
 20
256.5682346058
 10
404.6478700873
 20
256.5684850139
 10
404.6662399264
 20
256.5688331937
 10
404.6839134841
 20
256.5692763594
 10
404.700591748
 20
256.5698061525
 10
404.7163200121
 20
256.570423148
 10
404.7310529824
 20
256.571126771
 10
404.7443557648
 20
256.5719069384
 10
404.756256021
 20
256.5727685658
 10
404.7667260893
 20
256.5737067375
 10
404.7752480893
 20
256.5746966238
 10
404.7816493946
 20
256.5757299481
 10
404.7861026316
 20
256.576814987
 10
404.7886078006
 20
256.5779517404
  0
LWPOLYLINE
  5
4F8
100
AcDbEntity
  8
0
100
AcDbPolyline
 62
250
  6
CONTINUOUS
 90
18
 70
0
 10
392.8157612302
 20
255.3536699736
 10
392.8235281325
 20
255.3537228753
 10
392.8312830735
 20
255.3538110699
 10
392.8389780814
 20
255.3539331499
 10
392.8466377679
 20
255.3540905228
 10
392.8543568665
 20
255.3542874109
 10
392.86213468
 20
255.3545228595
 10
392.8699403041
 20
255.3547978234
 10
392.8778170437
 20
255.3551193893
 10
392.8857438772
 20
255.3554867623
 10
392.8936972502
 20
255.3559007372
 10
392.9017082467
 20
255.3563707858
 10
392.9097513488
 20
255.3568965936
 10
392.9177867012
 20
255.3574784751
 10
392.9258130455
 20
255.3581268451
 10
392.9337981925
 20
255.3588451755
 10
392.9416826735
 20
255.3596299945
 10
392.94941574
 20
255.3604813022
  0
LINE
  5
4F9
100
AcDbEntity
  8
0
100
AcDbLine
 62
250
  6
CONTINUOUS
 10
404.6290068645
 20
256.3683535598
 11
404.706858278
 21
256.3687595165
  0
LINE
  5
4FA
100
AcDbEntity
  8
0
100
AcDbLine
 62
250
  6
CONTINUOUS
 10
392.6405650705
 20
255.3536523649
 11
392.8157612302
 21
255.3536699736
  0
LINE
  5
4FB
100
AcDbEntity
  8
0
100
AcDbLine
 62
250
  6
CONTINUOUS
 10
392.6405650705
 20
255.4895985329
 11
392.8079941989
 21
255.4895985329
  0
LINE
  5
4FC
100
AcDbEntity
  8
0
100
AcDbLine
 62
250
  6
CONTINUOUS
 10
404.4057304314
 20
255.4895985329
 11
404.5731595598
 21
255.4895985329
  0
LINE
  5
4FD
100
AcDbEntity
  8
0
100
AcDbLine
 62
7
  6
CONTINUOUS
 10
404.5888818936
 20
255.5891052014
 11
404.3528009504
 21
255.5891052014
  0
LINE
  5
4FE
100
AcDbEntity
  8
0
100
AcDbLine
 62
7
  6
CONTINUOUS
 10
392.8609236799
 20
255.5891052014
 11
392.6248427367
 21
255.5891052014
  0
LINE
  5
4FF
100
AcDbEntity
  8
0
100
AcDbLine
 62
250
  6
CONTINUOUS
 10
404.2095965653
 20
256.3682928399
 11
404.6290068645
 21
256.3683535598
  0
LINE
  5
500
100
AcDbEntity
  8
0
100
AcDbLine
 62
250
  6
CONTINUOUS
 10
393.1988795252
 20
256.3787616899
 11
393.2556446791
 21
256.3787616899
  0
LINE
  5
501
100
AcDbEntity
  8
0
100
AcDbLine
 62
250
  6
CONTINUOUS
 10
403.9580799513
 20
256.3787616899
 11
404.0148451052
 21
256.3787616899
  0
LINE
  5
502
100
AcDbEntity
  8
0
100
AcDbLine
 62
250
  6
CONTINUOUS
 10
404.3528009504
 20
256.5680187468
 11
404.6092409063
 21
256.5680791834
  0
LINE
  5
503
100
AcDbEntity
  8
0
100
AcDbLine
 62
7
  6
CONTINUOUS
 10
404.6583735594
 20
256.6366893097
 11
404.7391010354
 21
256.6367008309
  0
LINE
  5
504
100
AcDbEntity
  8
0
100
AcDbLine
 62
250
  6
CONTINUOUS
 10
392.5399892113
 20
256.3685411632
 11
393.004128065
 21
256.3682928399
  0
LINE
  5
505
100
AcDbEntity
  8
0
100
AcDbLine
 62
250
  6
CONTINUOUS
 10
392.460610851
 20
256.3692158245
 11
392.5399892113
 21
256.3685411632
  0
LINE
  5
506
100
AcDbEntity
  8
0
100
AcDbLine
 62
7
  6
CONTINUOUS
 10
392.9568623152
 20
256.5895304208
 11
393.0588759653
 21
256.5880978817
  0
LINE
  5
507
100
AcDbEntity
  8
0
100
AcDbLine
 62
250
  6
CONTINUOUS
 10
404.0148451052
 20
256.3787616899
 11
404.2095965653
 21
256.3682928399
  0
LWPOLYLINE
  5
508
100
AcDbEntity
  8
0
100
AcDbPolyline
 62
250
  6
CONTINUOUS
 90
13
 70
0
 10
393.05567514
 20
256.5784875969
 10
393.0817849866
 20
256.5767539672
 10
393.1074460093
 20
256.5716308781
 10
393.1322190537
 20
256.5632067379
 10
393.1556793462
 20
256.5516269823
 10
393.1774268154
 20
256.5370901279
 10
393.1970921302
 20
256.5198431266
 10
393.2143448187
 20
256.5001722803
 10
393.2288805321
 20
256.4784205688
 10
393.240438923
 20
256.4549864791
 10
393.2488293477
 20
256.4302843687
 10
393.2539234041
 20
256.4047305146
 10
393.2556446791
 20
256.3787616899
  0
LWPOLYLINE
  5
509
100
AcDbEntity
  8
0
100
AcDbPolyline
 62
250
  6
CONTINUOUS
 90
10
 70
0
 10
393.3047423755
 20
255.7208326533
 10
393.3306652879
 20
255.7186133148
 10
393.3558079067
 20
255.7123687271
 10
393.3794134258
 20
255.7022868556
 10
393.4007713062
 20
255.6886711701
 10
393.4192386643
 20
255.6719315099
 10
393.4342596229
 20
255.6525717479
 10
393.4453820429
 20
255.6311746234
 10
393.4522711337
 20
255.6083842012
 10
393.4547195298
 20
255.5848864853
  0
LWPOLYLINE
  5
50A
100
AcDbEntity
  8
0
100
AcDbPolyline
 62
250
  6
CONTINUOUS
 90
10
 70
0
 10
404.8228169435
 20
255.6000742832
 10
404.8484721042
 20
255.5975515865
 10
404.8733694942
 20
255.5910880007
 10
404.8967737228
 20
255.5808744404
 10
404.9179935058
 20
255.5672126136
 10
404.9364020742
 20
255.5505060207
 10
404.9514556869
 20
255.5312480359
 10
404.9627097041
 20
255.5100074513
 10
404.9698317205
 20
255.487411676
 10
404.9726113737
 20
255.4641281151
  0
LWPOLYLINE
  5
50B
100
AcDbEntity
  8
0
100
AcDbPolyline
 62
250
  6
CONTINUOUS
 90
19
 70
0
 10
404.2643090752
 20
255.3604812824
 10
404.2697918651
 20
255.3598638743
 10
404.2754968938
 20
255.3592711384
 10
404.2814183807
 20
255.3587030746
 10
404.2875230643
 20
255.3581602226
 10
404.2938296778
 20
255.3576420428
 10
404.3004163853
 20
255.3571469168
 10
404.3072916531
 20
255.3566726441
 10
404.3144430988
 20
255.3562214253
 10
404.3219263153
 20
255.3557982442
 10
404.3297378872
 20
255.3554016171
 10
404.3378751026
 20
255.3550330278
 10
404.3463987832
 20
255.3547019115
 10
404.3553083516
 20
255.3544065489
 10
404.3645899698
 20
255.3541486593
 10
404.3742848949
 20
255.3539428367
 10
404.3843961917
 20
255.3537939458
 10
404.3948863632
 20
255.3536971218
 10
404.5731595598
 20
255.3536523649
  0
LINE
  5
50C
100
AcDbEntity
  8
0
100
AcDbLine
 62
7
  6
CONTINUOUS
 10
393.2577933746
 20
255.8312894353
 11
393.3086392401
 21
255.8249364092
  0
LWPOLYLINE
  5
50D
100
AcDbEntity
  8
0
100
AcDbPolyline
 62
250
  6
CONTINUOUS
 90
13
 70
0
 10
393.05567514
 20
256.5784875969
 10
393.0739554044
 20
256.5759243834
 10
393.0919366952
 20
256.5701396615
 10
393.1093252295
 20
256.5612280977
 10
393.1258360853
 20
256.5493361446
 10
393.1412005163
 20
256.5346578209
 10
393.1551696811
 20
256.517430114
 10
393.1675190614
 20
256.4979256312
 10
393.1780402606
 20
256.4764686629
 10
393.1865528947
 20
256.4534330779
 10
393.192921421
 20
256.4292069236
 10
393.1970507677
 20
256.4041802184
 10
393.1988795252
 20
256.3787616899
  0
LWPOLYLINE
  5
50E
100
AcDbEntity
  8
0
100
AcDbPolyline
 62
250
  6
CONTINUOUS
 90
13
 70
0
 10
392.8609236799
 20
256.5680187468
 10
392.8792119736
 20
256.5654536845
 10
392.8971999721
 20
256.559664687
 10
392.9145936239
 20
256.5507470607
 10
392.931107917
 20
256.5388478751
 10
392.9464739737
 20
256.5241618628
 10
392.9604428332
 20
256.5069269075
 10
392.9727907831
 20
256.4874152523
 10
392.9833089741
 20
256.4659526363
 10
392.9918161779
 20
256.4429173789
 10
392.9981781221
 20
256.4186997623
 10
393.0023019718
 20
256.3936887955
 10
393.004128065
 20
256.3682928399
  0
LWPOLYLINE
  5
50F
100
AcDbEntity
  8
0
100
AcDbPolyline
 62
7
  6
CONTINUOUS
 90
8
 70
0
 10
408.3669324952
 20
253.7075512699
 10
408.3636701189
 20
253.7080862725
 10
408.3575422664
 20
253.708602965
 10
408.3485489379
 20
253.7091013473
 10
408.336531455
 20
253.709586316
 10
408.3216484961
 20
253.7100529745
 10
408.3043760958
 20
253.7104866332
 10
408.2625793902
 20
253.7112519765
  0
LWPOLYLINE
  5
510
100
AcDbEntity
  8
0
100
AcDbPolyline
 62
7
  6
CONTINUOUS
 90
9
 70
0
 10
392.438999124
 20
256.6385187482
 10
392.4416173221
 20
256.6380768601
 10
392.4451606296
 20
256.6376942922
 10
392.4496290464
 20
256.6373710445
 10
392.4552732849
 20
256.6371063711
 10
392.4618426327
 20
256.6369010179
 10
392.4685849534
 20
256.6367572227
 10
392.4751718956
 20
256.6366940357
 10
392.5541373747
 20
256.6366802531
  0
LINE
  5
511
100
AcDbEntity
  8
0
100
AcDbLine
 62
7
  6
CONTINUOUS
 10
388.8382071465
 20
259.7735184706
 11
388.7914089276
 21
259.7891052014
  0
LINE
  5
512
100
AcDbEntity
  8
0
100
AcDbLine
 62
7
  6
CONTINUOUS
 10
408.3669324952
 20
253.7075512699
 11
408.40397298
 21
253.6952144742
  0
LINE
  5
513
100
AcDbEntity
  8
0
100
AcDbLine
 62
250
  6
CONTINUOUS
 10
403.8175532834
 20
255.5688069295
 11
404.2643090752
 21
255.3604812824
  0
LWPOLYLINE
  5
514
100
AcDbEntity
  8
0
100
AcDbPolyline
 62
7
  6
CONTINUOUS
 90
7
 70
0
 10
405.1185656406
 20
256.6417044631
 10
405.12732042
 20
256.6258187462
 10
405.13460744
 20
256.6091758042
 10
405.1403589417
 20
256.5919097417
 10
405.1445193614
 20
256.5741609426
 10
405.1470459407
 20
256.5560749627
 10
405.1479092371
 20
256.5378013631
  0
LWPOLYLINE
  5
515
100
AcDbEntity
  8
0
100
AcDbPolyline
 62
250
  6
CONTINUOUS
 90
19
 70
0
 10
409.4692988483
 20
264.7289483887
 10
409.4642317486
 20
264.7739362407
 10
409.4551781664
 20
264.8179690468
 10
409.4423187895
 20
264.8607138655
 10
409.4257473512
 20
264.9020858768
 10
409.4057628564
 20
264.9415562255
 10
409.3830511238
 20
264.9782372965
 10
409.3581067092
 20
265.0118409958
 10
409.3312460346
 20
265.0424473682
 10
409.3030736884
 20
265.0699041868
 10
409.2743600594
 20
265.0939531066
 10
409.2450917167
 20
265.1150190503
 10
409.2145550027
 20
265.1338692888
 10
409.1830010288
 20
265.1504238428
 10
409.1505227401
 20
265.1646361471
 10
409.1159376623
 20
265.1768881421
 10
409.0788976516
 20
265.186973244
 10
409.0400023959
 20
265.1943874807
 10
408.9994544384
 20
265.1987965996
  0
LINE
  5
516
100
AcDbEntity
  8
0
100
AcDbLine
 62
7
  6
CONTINUOUS
 10
404.6210993152
 20
225.4141052014
 11
404.2625273152
 21
224.8134182014
  0
LINE
  5
517
100
AcDbEntity
  8
0
100
AcDbLine
 62
7
  6
CONTINUOUS
 10
404.3477473152
 20
224.6672392014
 11
404.8196433152
 21
225.4141052014
  0
LWPOLYLINE
  5
518
100
AcDbEntity
  8
0
100
AcDbPolyline
 62
7
  6
CONTINUOUS
 90
46
 70
0
 10
405.1185656406
 20
229.9365059397
 10
405.1155140541
 20
229.9336805555
 10
405.1123673084
 20
229.9309365797
 10
405.1091269894
 20
229.9282752752
 10
405.1057969481
 20
229.9256996903
 10
405.1023766551
 20
229.9232090966
 10
405.0988607078
 20
229.9207993574
 10
405.0952492417
 20
229.9184709929
 10
405.0915445441
 20
229.9162263592
 10
405.0877438253
 20
229.9140645482
 10
405.0838481686
 20
229.9119869775
 10
405.079858718
 20
229.9099953001
 10
405.0757724212
 20
229.9080893004
 10
405.0715901054
 20
229.9062704818
 10
405.0673130162
 20
229.9045406842
 10
405.0629384546
 20
229.9029005218
 10
405.0584671189
 20
229.9013516369
 10
405.0539003605
 20
229.899895982
 10
405.0492362891
 20
229.898534904
 10
405.0444758618
 20
229.8972702433
 10
405.0396202889
 20
229.8961039307
 10
405.0346679638
 20
229.8950376695
 10
405.0296198815
 20
229.8940733983
 10
405.0244773962
 20
229.8932131157
 10
405.0192393927
 20
229.8924588081
 10
405.0139081246
 20
229.8918125999
 10
405.0084839604
 20
229.8912763926
 10
405.0029628708
 20
229.890852157
 10
404.9973509944
 20
229.8905421915
 10
404.9916450314
 20
229.8903485155
 10
404.9858263807
 20
229.890273837
 10
404.9798971725
 20
229.8903210061
 10
404.9738578142
 20
229.8904934747
 10
404.9676865116
 20
229.8907968719
 10
404.9613839147
 20
229.8912352847
 10
404.9549519897
 20
229.8918132632
 10
404.948370513
 20
229.8925392631
 10
404.9416405292
 20
229.8934186143
 10
404.9347642586
 20
229.8944569087
 10
404.9277231174
 20
229.895665047
 10
404.9205189245
 20
229.8970495766
 10
404.9131543519
 20
229.8986171572
 10
404.9056122435
 20
229.9003808819
 10
404.8978889458
 20
229.9023507236
 10
404.8899944553
 20
229.9045324491
 10
404.8819325654
 20
229.9069338976
  0
LWPOLYLINE
  5
519
100
AcDbEntity
  8
0
100
AcDbPolyline
 62
7
  6
CONTINUOUS
 90
10
 70
0
 10
400.855039174
 20
228.8354517661
 10
400.8768657086
 20
228.8485651495
 10
400.8981199769
 20
228.8619184214
 10
400.918801979
 20
228.8755115823
 10
400.9389522648
 20
228.8893224634
 10
400.9585302845
 20
228.9033732346
 10
400.9774143879
 20
228.9177304051
 10
400.9955640252
 20
228.9324161452
 10
401.0130197464
 20
228.9474082862
 10
401.0297815513
 20
228.9627068288
  0
LWPOLYLINE
  5
51A
100
AcDbEntity
  8
0
100
AcDbPolyline
 62
7
  6
CONTINUOUS
 90
10
 70
0
 10
400.0577490043
 20
228.601519937
 10
400.0800714658
 20
228.6124389576
 10
400.1011277573
 20
228.6241977856
 10
400.1209178788
 20
228.6367964229
 10
400.1394721267
 20
228.6502951893
 10
400.1567602047
 20
228.6646337688
 10
400.1726912237
 20
228.6796312089
 10
400.1872348875
 20
228.6952271929
 10
400.2004214925
 20
228.7114820409
 10
400.2122510385
 20
228.7283957548
  0
LWPOLYLINE
  5
51B
100
AcDbEntity
  8
0
100
AcDbPolyline
 62
250
  6
CONTINUOUS
 90
19
 70
0
 10
403.9236193005
 20
230.8734573053
 10
403.9223750215
 20
230.8728590969
 10
403.9211674316
 20
230.8722312763
 10
403.9199965309
 20
230.8715738436
 10
403.9188603401
 20
230.870888591
 10
403.9177608384
 20
230.8701737263
 10
403.9167039631
 20
230.8694238731
 10
403.9156869317
 20
230.8686386236
 10
403.9147125268
 20
230.8678183856
 10
403.9137950332
 20
230.866959006
 10
403.9129320499
 20
230.8660600338
 10
403.9121259779
 20
230.86512192
 10
403.9113983056
 20
230.8641418641
 10
403.9107465436
 20
230.8631188363
 10
403.9101731813
 20
230.8620538664
 10
403.9097071756
 20
230.8609472439
 10
403.9093581787
 20
230.8597990651
 10
403.9091165385
 20
230.8586092336
 10
403.9089822548
 20
230.8573777495
  0
LINE
  5
51C
100
AcDbEntity
  8
0
100
AcDbLine
 62
7
  6
CONTINUOUS
 10
404.2095965653
 20
230.9609474738
 11
404.0148451052
 21
230.8677989942
  0
LINE
  5
51D
100
AcDbEntity
  8
0
100
AcDbLine
 62
250
  6
CONTINUOUS
 10
404.3703750924
 20
231.0817829524
 11
403.9236193005
 21
230.8734573053
  0
LWPOLYLINE
  5
51E
100
AcDbEntity
  8
0
100
AcDbPolyline
 62
7
  6
CONTINUOUS
 90
10
 70
0
 10
398.330600233
 20
228.740674103
 10
398.3518726739
 20
228.748744963
 10
398.3732020758
 20
228.7574598997
 10
398.3945884387
 20
228.766818914
 10
398.4160279021
 20
228.7768607804
 10
398.4375243265
 20
228.7875467267
 10
398.4590892931
 20
228.7987604334
 10
398.4807266623
 20
228.8104631278
 10
398.5024325736
 20
228.8226935847
 10
398.5242070271
 20
228.8354518052
  0
LWPOLYLINE
  5
51F
100
AcDbEntity
  8
0
100
AcDbPolyline
 62
7
  6
CONTINUOUS
 90
10
 70
0
 10
400.6614323568
 20
228.740674103
 10
400.6827048033
 20
228.7487449595
 10
400.7040342109
 20
228.7574598914
 10
400.7254205793
 20
228.7668188995
 10
400.7468600494
 20
228.776860757
 10
400.7683564804
 20
228.7875466929
 10
400.7899214505
 20
228.7987603924
 10
400.8115588192
 20
228.8104630843
 10
400.8332647271
 20
228.8226935419
 10
400.855039174
 20
228.8354517661
  0
LINE
  5
520
100
AcDbEntity
  8
0
100
AcDbLine
 62
7
  6
CONTINUOUS
 10
404.3007504462
 20
229.8409630659
 11
404.5732305261
 21
229.925298526
  0
LINE
  5
521
100
AcDbEntity
  8
0
100
AcDbLine
 62
7
  6
CONTINUOUS
 10
404.5732305261
 20
229.925298526
 11
404.6206689719
 21
229.9396916507
  0
LWPOLYLINE
  5
522
100
AcDbEntity
  8
0
100
AcDbPolyline
 62
250
  6
CONTINUOUS
 90
13
 70
0
 10
392.4251168298
 20
256.5779517404
 10
392.3990941528
 20
256.5761779465
 10
392.3735147983
 20
256.571029273
 10
392.3488148933
 20
256.5625933709
 10
392.325415587
 20
256.5510139366
 10
392.3037159052
 20
256.5364882834
 10
392.2840859362
 20
256.5192639976
 10
392.2668604514
 20
256.4996346662
 10
392.2523332627
 20
256.4779349242
 10
392.240752209
 20
256.4545347992
 10
392.2323148487
 20
256.4298332958
 10
392.2271651191
 20
256.4042515729
 10
392.2253909154
 20
256.3782258409
  0
LINE
  5
523
100
AcDbEntity
  8
0
100
AcDbLine
 62
250
  6
CONTINUOUS
 10
392.8609236799
 20
256.5680187468
 11
393.05567514
 21
256.5784875969
  0
LWPOLYLINE
  5
524
100
AcDbEntity
  8
0
100
AcDbPolyline
 62
7
  6
CONTINUOUS
 90
37
 70
0
 10
394.8316393457
 20
258.0707762014
 10
394.8693150945
 20
258.0717504416
 10
394.9059566282
 20
258.0730592713
 10
394.9415639468
 20
258.0747026905
 10
394.9760513841
 20
258.0765515822
 10
395.0095046063
 20
258.0787350632
 10
395.0421806121
 20
258.0816404834
 10
395.0741010965
 20
258.0853626566
 10
395.1052443645
 20
258.0898067682
 10
395.1358023296
 20
258.0950757248
 10
395.1657876369
 20
258.1011575618
 10
395.1951876414
 20
258.1080642421
 10
395.2241563218
 20
258.1159345633
 10
395.2527846007
 20
258.1247168833
 10
395.2809815555
 20
258.1344628414
 10
395.3086283976
 20
258.1454661563
 10
395.335803479
 20
258.157754842
 10
395.3624284477
 20
258.1713008791
 10
395.3881494584
 20
258.1863139352
 10
395.4129941447
 20
258.2028702283
 10
395.4369348732
 20
258.2208935318
 10
395.4595348974
 20
258.2403648449
 10
395.4807668695
 20
258.2613696184
 10
395.5006581374
 20
258.2838223905
 10
395.5188539986
 20
258.3074477923
 10
395.5352109658
 20
258.3322653084
 10
395.5498725265
 20
258.3582554436
 10
395.5629144405
 20
258.3850843612
 10
395.5743187548
 20
258.4127363116
 10
395.5841034226
 20
258.441227036
 10
395.5923980628
 20
258.4702699373
 10
395.5991595369
 20
258.499792029
 10
395.6044309834
 20
258.5298662918
 10
395.6084714372
 20
258.5604250806
 10
395.611367243
 20
258.5914458452
 10
395.6130320561
 20
258.6229511301
 10
395.6134658763
 20
258.6549409325
  0
LWPOLYLINE
  5
525
100
AcDbEntity
  8
0
100
AcDbPolyline
 62
7
  6
CONTINUOUS
 90
8
 70
0
 10
392.5541373747
 20
256.6366802531
 10
392.5620853635
 20
256.6367396188
 10
392.5695584121
 20
256.6368877338
 10
392.5765445541
 20
256.6371014547
 10
392.5824470295
 20
256.6373722687
 10
392.5870669184
 20
256.6376973382
 10
392.5906031408
 20
256.6380795007
 10
392.5930556967
 20
256.6385187563
  0
LINE
  5
526
100
AcDbEntity
  8
0
100
AcDbLine
 62
7
  6
CONTINUOUS
 10
392.9129741842
 20
256.737247337
 11
392.9568623152
 21
256.737247337
  0
LINE
  5
527
100
AcDbEntity
  8
0
100
AcDbLine
 62
7
  6
CONTINUOUS
 10
404.2568623152
 20
256.737247337
 11
404.3007504462
 21
256.737247337
  0
LINE
  5
528
100
AcDbEntity
  8
0
100
AcDbLine
 62
7
  6
CONTINUOUS
 10
394.2502243152
 20
257.3391052014
 11
394.6581383152
 21
257.3391052014
  0
LINE
  5
529
100
AcDbEntity
  8
0
100
AcDbLine
 62
7
  6
CONTINUOUS
 10
395.8687253152
 20
257.3391052014
 11
396.9796383152
 21
257.3391052014
  0
LINE
  5
52A
100
AcDbEntity
  8
0
100
AcDbLine
 62
7
  6
CONTINUOUS
 10
397.1845613152
 20
257.3391052014
 11
397.5740283152
 21
257.3391052014
  0
LINE
  5
52B
100
AcDbEntity
  8
0
100
AcDbLine
 62
7
  6
CONTINUOUS
 10
398.6055753152
 20
257.3391052014
 11
399.0161353152
 21
257.3391052014
  0
LINE
  5
52C
100
AcDbEntity
  8
0
100
AcDbLine
 62
7
  6
CONTINUOUS
 10
399.2239893152
 20
257.3391052014
 11
399.6055903152
 21
257.3391052014
  0
LINE
  5
52D
100
AcDbEntity
  8
0
100
AcDbLine
 62
7
  6
CONTINUOUS
 10
400.3608573152
 20
257.3391052014
 11
400.9398023152
 21
257.3391052014
  0
LINE
  5
52E
100
AcDbEntity
  8
0
100
AcDbLine
 62
7
  6
CONTINUOUS
 10
401.1319263152
 20
257.3391052014
 11
401.5213933152
 21
257.3391052014
  0
LINE
  5
52F
100
AcDbEntity
  8
0
100
AcDbLine
 62
7
  6
CONTINUOUS
 10
402.5530833152
 20
257.3391052014
 11
402.9635003152
 21
257.3391052014
  0
LINE
  5
530
100
AcDbEntity
  8
0
100
AcDbLine
 62
7
  6
CONTINUOUS
 10
396.9796383152
 20
257.6548542014
 11
396.2766393152
 21
257.6548542014
  0
LINE
  5
531
100
AcDbEntity
  8
0
100
AcDbLine
 62
7
  6
CONTINUOUS
 10
397.7161003152
 20
257.7417992014
 11
398.4687223152
 21
257.7417992014
  0
LINE
  5
532
100
AcDbEntity
  8
0
100
AcDbLine
 62
7
  6
CONTINUOUS
 10
401.6635373152
 20
257.7417992014
 11
402.4161583152
 21
257.7417992014
  0
LINE
  5
533
100
AcDbEntity
  8
0
100
AcDbLine
 62
7
  6
CONTINUOUS
 10
402.3134833152
 20
258.0575482014
 11
401.7687873152
 21
258.0575482014
  0
LINE
  5
534
100
AcDbEntity
  8
0
100
AcDbLine
 62
7
  6
CONTINUOUS
 10
398.3661183152
 20
258.0575482014
 11
397.8213503152
 21
258.0575482014
  0
LINE
  5
535
100
AcDbEntity
  8
0
100
AcDbLine
 62
7
  6
CONTINUOUS
 10
394.6581383152
 20
258.0707762014
 11
394.8316393457
 21
258.0707762014
  0
LINE
  5
536
100
AcDbEntity
  8
0
100
AcDbLine
 62
250
  6
CONTINUOUS
 10
404.1580494903
 20
256.5784875969
 11
404.3528009504
 21
256.5680187468
  0
LWPOLYLINE
  5
537
100
AcDbEntity
  8
0
100
AcDbPolyline
 62
250
  6
CONTINUOUS
 90
13
 70
0
 10
404.7886078006
 20
256.5779517404
 10
404.814632161
 20
256.5761777207
 10
404.8402127872
 20
256.5710284746
 10
404.8649135103
 20
256.5625918006
 10
404.8883131648
 20
256.5510115505
 10
404.9100127692
 20
256.536485176
 10
404.9296423287
 20
256.5192603621
 10
404.9468671448
 20
256.4996308048
 10
404.9613935216
 20
256.4779312026
 10
404.9729737728
 20
256.4545315489
 10
404.9814104463
 20
256.4298308252
 10
404.9865596907
 20
256.4042501971
 10
404.9883337075
 20
256.3782258335
  0
LWPOLYLINE
  5
538
100
AcDbEntity
  8
0
100
AcDbPolyline
 62
7
  6
CONTINUOUS
 90
8
 70
0
 10
388.8382071465
 20
259.7735184706
 10
388.841475585
 20
259.7729824994
 10
388.8476102543
 20
259.7724649211
 10
388.8566111543
 20
259.7719657356
 10
388.8686375486
 20
259.7714800476
 10
388.8835301737
 20
259.7710127523
 10
388.9008112388
 20
259.7705785365
 10
388.9426221063
 20
259.7698123203
  0
LWPOLYLINE
  5
539
100
AcDbEntity
  8
0
100
AcDbPolyline
 62
7
  6
CONTINUOUS
 90
8
 70
0
 10
404.6206690089
 20
256.638518748
 10
404.6230955322
 20
256.6380863776
 10
404.6265461249
 20
256.6377092182
 10
404.6310207869
 20
256.63738727
 10
404.6366783805
 20
256.6371174806
 10
404.6433600434
 20
256.6369029023
 10
404.6505891888
 20
256.6367526916
 10
404.6583735594
 20
256.6366893097
  0
LINE
  5
53A
100
AcDbEntity
  8
0
100
AcDbLine
 62
7
  6
CONTINUOUS
 10
404.5487165047
 20
256.6604088418
 11
404.6206690089
 21
256.638518748
  0
LINE
  5
53B
100
AcDbEntity
  8
0
100
AcDbLine
 62
7
  6
CONTINUOUS
 10
404.3007504462
 20
256.737247337
 11
404.5487165047
 21
256.6604088418
  0
LWPOLYLINE
  5
53C
100
AcDbEntity
  8
0
100
AcDbPolyline
 62
250
  6
CONTINUOUS
 90
19
 70
0
 10
404.3703750924
 20
255.4964274505
 10
404.3717484059
 20
255.4958101801
 10
404.3731741822
 20
255.4952175061
 10
404.3746524214
 20
255.4946494283
 10
404.3761773521
 20
255.4941064427
 10
404.3777547457
 20
255.4935880535
 10
404.3794019158
 20
255.4930927725
 10
404.3811204614
 20
255.4926184475
 10
404.3829087836
 20
255.4921672308
 10
404.3847793988
 20
255.4917440913
 10
404.3867323028
 20
255.491347585
 10
404.3887674998
 20
255.490979156
 10
404.3908975196
 20
255.4906481049
 10
404.3931251884
 20
255.4903525991
 10
404.39544768
 20
255.4900944714
 10
404.397869045
 20
255.4898885209
 10
404.4003906337
 20
255.4897396809
 10
404.4030110958
 20
255.4896430183
 10
404.4057304314
 20
255.4895985329
  0
LINE
  5
53D
100
AcDbEntity
  8
0
100
AcDbLine
 62
250
  6
CONTINUOUS
 10
403.9236193005
 20
255.7047530975
 11
404.3703750924
 21
255.4964274505
  0
LINE
  5
53E
100
AcDbEntity
  8
0
100
AcDbLine
 62
7
  6
CONTINUOUS
 10
404.2095965653
 20
255.6172629291
 11
404.0148451052
 21
255.7104114087
  0
LINE
  5
53F
100
AcDbEntity
  8
0
100
AcDbLine
 62
7
  6
CONTINUOUS
 10
408.2122741314
 20
225.9696069722
 11
408.2220225036
 21
225.9891052014
  0
LINE
  5
540
100
AcDbEntity
  8
0
100
AcDbLine
 62
7
  6
CONTINUOUS
 10
404.6068623152
 20
225.9891052014
 11
404.5868050056
 21
225.9690478919
  0
LWPOLYLINE
  5
541
100
AcDbEntity
  8
0
100
AcDbPolyline
 62
7
  6
CONTINUOUS
 90
4
 70
0
 10
394.9679928915
 20
258.3945716424
 10
394.9322065083
 20
258.3902173724
 10
394.9141969064
 20
258.3882614556
 10
394.8961052668
 20
258.3865252014
  0
LWPOLYLINE
  5
542
100
AcDbEntity
  8
0
100
AcDbPolyline
 62
7
  6
CONTINUOUS
 90
7
 70
0
 10
408.3129134389
 20
259.7705785352
 10
408.3301945017
 20
259.7710127512
 10
408.3450871227
 20
259.7714800467
 10
408.3571135106
 20
259.7719657351
 10
408.3661144015
 20
259.7724649207
 10
408.3722490592
 20
259.7729824992
 10
408.3755174838
 20
259.7735184706
  0
LINE
  5
543
100
AcDbEntity
  8
0
100
AcDbLine
 62
7
  6
CONTINUOUS
 10
408.2711025702
 20
259.7698123186
 11
408.3129134389
 21
259.7705785352
  0
LINE
  5
544
100
AcDbEntity
  8
0
100
AcDbLine
 62
7
  6
CONTINUOUS
 10
408.2214407271
 20
259.7692098572
 11
408.2711025702
 21
259.7698123186
  0
LINE
  5
545
100
AcDbEntity
  8
0
100
AcDbLine
 62
7
  6
CONTINUOUS
 10
408.1364669257
 20
259.7686584072
 11
408.2214407271
 21
259.7692098572
  0
LINE
  5
546
100
AcDbEntity
  8
0
100
AcDbLine
 62
7
  6
CONTINUOUS
 10
394.8961052668
 20
258.3865252014
 11
394.6581383152
 21
258.3865252014
  0
LINE
  5
547
100
AcDbEntity
  8
0
100
AcDbLine
 62
7
  6
CONTINUOUS
 10
394.6581383152
 20
258.9233562014
 11
394.8961089375
 21
258.9233562014
  0
LINE
  5
548
100
AcDbEntity
  8
0
100
AcDbLine
 62
7
  6
CONTINUOUS
 10
402.3030433152
 20
259.2391052014
 11
401.8188383152
 21
259.2391052014
  0
LINE
  5
549
100
AcDbEntity
  8
0
100
AcDbLine
 62
7
  6
CONTINUOUS
 10
400.9398023152
 20
259.2391052014
 11
400.5582003152
 21
259.2391052014
  0
LINE
  5
54A
100
AcDbEntity
  8
0
100
AcDbLine
 62
7
  6
CONTINUOUS
 10
399.8292463152
 20
259.2391052014
 11
399.2239893152
 21
259.2391052014
  0
LINE
  5
54B
100
AcDbEntity
  8
0
100
AcDbLine
 62
7
  6
CONTINUOUS
 10
398.3556073152
 20
259.2391052014
 11
397.8714013152
 21
259.2391052014
  0
LINE
  5
54C
100
AcDbEntity
  8
0
100
AcDbLine
 62
7
  6
CONTINUOUS
 10
396.2766393152
 20
259.2391052014
 11
395.8687253152
 21
259.2391052014
  0
LINE
  5
54D
100
AcDbEntity
  8
0
100
AcDbLine
 62
7
  6
CONTINUOUS
 10
394.8316518126
 20
259.2391052014
 11
394.2502243152
 21
259.2391052014
  0
LINE
  5
54E
100
AcDbEntity
  8
0
100
AcDbLine
 62
7
  6
CONTINUOUS
 10
404.5863073889
 20
259.7685502752
 11
408.1364669257
 21
259.7686584072
  0
LINE
  5
54F
100
AcDbEntity
  8
0
100
AcDbLine
 62
7
  6
CONTINUOUS
 10
388.7914089276
 20
259.7891052014
 11
392.6068623152
 21
259.7891052014
  0
LINE
  5
550
100
AcDbEntity
  8
0
100
AcDbLine
 62
7
  6
CONTINUOUS
 10
404.6068623152
 20
259.7891052014
 11
408.4223157028
 21
259.7891052014
  0
LINE
  5
551
100
AcDbEntity
  8
0
100
AcDbLine
 62
7
  6
CONTINUOUS
 10
389.0772576692
 20
259.7686584093
 11
392.6274172415
 21
259.7685502752
  0
LINE
  5
552
100
AcDbEntity
  8
0
100
AcDbLine
 62
7
  6
CONTINUOUS
 10
388.992283951
 20
259.7692098594
 11
389.0772576692
 21
259.7686584093
  0
LINE
  5
553
100
AcDbEntity
  8
0
100
AcDbLine
 62
7
  6
CONTINUOUS
 10
388.9426221063
 20
259.7698123203
 11
388.992283951
 21
259.7692098594
  0
LWPOLYLINE
  5
554
100
AcDbEntity
  8
0
100
AcDbPolyline
 62
7
  6
CONTINUOUS
 90
3
 70
0
 10
394.8961089375
 20
258.9233562014
 10
394.9142654161
 20
258.9216222432
 10
394.9323728731
 20
258.9196556011
  0
LWPOLYLINE
  5
555
100
AcDbEntity
  8
0
100
AcDbPolyline
 62
7
  6
CONTINUOUS
 90
21
 70
0
 10
394.9323728731
 20
258.9196556011
 10
394.9684680181
 20
258.9152462749
 10
394.9864557063
 20
258.9128035908
 10
395.0043124838
 20
258.9094621908
 10
395.0222014152
 20
258.9051784719
 10
395.0399594361
 20
258.8999960358
 10
395.0570154641
 20
258.8933796576
 10
395.0733586947
 20
258.8851866957
 10
395.0889999325
 20
258.8755597876
 10
395.1034005095
 20
258.8643916256
 10
395.1163770085
 20
258.8514338623
 10
395.1281128469
 20
258.8369348378
 10
395.1386196087
 20
258.8215322769
 10
395.147901283
 20
258.8053213167
 10
395.1559538808
 20
258.7882068151
 10
395.1627770189
 20
258.7705410799
 10
395.1683208344
 20
258.7523946712
 10
395.1726351903
 20
258.7336970255
 10
395.175869292
 20
258.7145887675
 10
395.1780728746
 20
258.6951167714
 10
395.179196203
 20
258.6752341602
  0
LINE
  5
556
100
AcDbEntity
  8
0
100
AcDbLine
 62
7
  6
CONTINUOUS
 10
404.6068623152
 20
260.5891052014
 11
404.5868050056
 21
260.609162511
  0
LWPOLYLINE
  5
557
100
AcDbEntity
  8
0
100
AcDbPolyline
 62
7
  6
CONTINUOUS
 90
10
 70
0
 10
408.4668623152
 20
225.5391052014
 10
408.4165003033
 20
225.4550897423
 10
408.411319815
 20
225.4465820286
 10
408.4062490879
 20
225.4383400195
 10
408.4012903783
 20
225.4303723092
 10
408.3964414297
 20
225.4226703036
 10
408.3916954732
 20
225.4152082203
 10
408.3870502524
 20
225.4079774653
 10
408.3825080236
 20
225.4009866327
 10
408.3780687868
 20
225.3942357224
  0
LINE
  5
558
100
AcDbEntity
  8
0
100
AcDbLine
 62
250
  6
CONTINUOUS
 10
408.7444114852
 20
226.0981127308
 11
408.6751862575
 21
225.9856374337
  0
LWPOLYLINE
  5
559
100
AcDbEntity
  8
0
100
AcDbPolyline
 62
250
  6
CONTINUOUS
 90
16
 70
0
 10
408.6751862575
 20
225.9856374337
 10
408.654314504
 20
225.9519699469
 10
408.634558898
 20
225.9205195955
 10
408.616006358
 20
225.8912898247
 10
408.5987379496
 20
225.864418545
 10
408.5826726071
 20
225.8398710673
 10
408.567654052
 20
225.8173931192
 10
408.5537392111
 20
225.7971338289
 10
408.5408711575
 20
225.7789417239
 10
408.528722832
 20
225.7622843818
 10
408.5172614124
 20
225.7473869491
 10
408.5065197209
 20
225.7342487129
 10
408.4962691644
 20
225.722452732
 10
408.4864335453
 20
225.7123144314
 10
408.4770890613
 20
225.7045376996
 10
408.4682357123
 20
225.6996348516
  0
LWPOLYLINE
  5
55A
100
AcDbEntity
  8
0
100
AcDbPolyline
 62
7
  6
CONTINUOUS
 90
7
 70
0
 10
388.8992929943
 20
260.6071358264
 10
388.8820192115
 20
260.6067020954
 10
388.8671348145
 20
260.6062353552
 10
388.855116054
 20
260.6057502964
 10
388.8461216804
 20
260.6052518156
 10
388.8399929433
 20
260.6047350161
 10
388.8367298427
 20
260.6041998978
  0
LINE
  5
55B
100
AcDbEntity
  8
0
100
AcDbLine
 62
7
  6
CONTINUOUS
 10
388.9410922984
 20
260.6079012859
 11
388.8992929943
 21
260.6071358264
  0
LINE
  5
55C
100
AcDbEntity
  8
0
100
AcDbLine
 62
7
  6
CONTINUOUS
 10
388.9907503622
 20
260.6085032575
 11
388.9410922984
 21
260.6079012859
  0
LINE
  5
55D
100
AcDbEntity
  8
0
100
AcDbLine
 62
7
  6
CONTINUOUS
 10
389.0757385941
 20
260.6090543886
 11
388.9907503622
 21
260.6085032575
  0
LINE
  5
55E
100
AcDbEntity
  8
0
100
AcDbLine
 62
7
  6
CONTINUOUS
 10
408.4223157028
 20
260.5891052014
 11
404.6068623152
 21
260.5891052014
  0
LINE
  5
55F
100
AcDbEntity
  8
0
100
AcDbLine
 62
7
  6
CONTINUOUS
 10
392.6068623152
 20
260.5891052014
 11
388.7914089276
 21
260.5891052014
  0
LINE
  5
560
100
AcDbEntity
  8
0
100
AcDbLine
 62
7
  6
CONTINUOUS
 10
389.0757385941
 20
260.6090543886
 11
392.6269196247
 21
260.609162511
  0
LINE
  5
561
100
AcDbEntity
  8
0
100
AcDbLine
 62
7
  6
CONTINUOUS
 10
395.4883863152
 20
260.8706112014
 11
395.8378663152
 21
260.8706112014
  0
LINE
  5
562
100
AcDbEntity
  8
0
100
AcDbLine
 62
7
  6
CONTINUOUS
 10
396.5957213152
 20
260.8706112014
 11
396.9922933152
 21
260.8706112014
  0
LINE
  5
563
100
AcDbEntity
  8
0
100
AcDbLine
 62
7
  6
CONTINUOUS
 10
397.2057813152
 20
260.8706112014
 11
397.5851713152
 21
260.8706112014
  0
LINE
  5
564
100
AcDbEntity
  8
0
100
AcDbLine
 62
7
  6
CONTINUOUS
 10
398.1359793152
 20
260.8706112014
 11
398.1915983152
 21
260.8706112014
  0
LINE
  5
565
100
AcDbEntity
  8
0
100
AcDbLine
 62
7
  6
CONTINUOUS
 10
398.7446003152
 20
260.8706112014
 11
399.1325533152
 21
260.8706112014
  0
LINE
  5
566
100
AcDbEntity
  8
0
100
AcDbLine
 62
7
  6
CONTINUOUS
 10
399.1948253152
 20
260.8706112014
 11
399.5870953152
 21
260.8706112014
  0
LINE
  5
567
100
AcDbEntity
  8
0
100
AcDbLine
 62
7
  6
CONTINUOUS
 10
400.3393233152
 20
260.8706112014
 11
400.7572943152
 21
260.8706112014
  0
LINE
  5
568
100
AcDbEntity
  8
0
100
AcDbLine
 62
7
  6
CONTINUOUS
 10
400.8737469179
 20
260.8706114554
 11
401.2687235601
 21
260.8706114554
  0
LINE
  5
569
100
AcDbEntity
  8
0
100
AcDbLine
 62
7
  6
CONTINUOUS
 10
401.8760193805
 20
260.8706114554
 11
402.2574758656
 21
260.8706114554
  0
LINE
  5
56A
100
AcDbEntity
  8
0
100
AcDbLine
 62
7
  6
CONTINUOUS
 10
399.6965243152
 20
261.2498882014
 11
400.2365903152
 21
261.2498882014
  0
LINE
  5
56B
100
AcDbEntity
  8
0
100
AcDbLine
 62
7
  6
CONTINUOUS
 10
400.1573353152
 20
261.5433712014
 11
399.7776453152
 21
261.5433712014
  0
LINE
  5
56C
100
AcDbEntity
  8
0
100
AcDbLine
 62
7
  6
CONTINUOUS
 10
408.137986005
 20
260.6090543904
 11
404.5868050056
 21
260.609162511
  0
LINE
  5
56D
100
AcDbEntity
  8
0
100
AcDbLine
 62
7
  6
CONTINUOUS
 10
408.2229743103
 20
260.6085032594
 11
408.137986005
 21
260.6090543904
  0
LINE
  5
56E
100
AcDbEntity
  8
0
100
AcDbLine
 62
7
  6
CONTINUOUS
 10
408.2726323726
 20
260.6079012875
 11
408.2229743103
 21
260.6085032594
  0
LINE
  5
56F
100
AcDbEntity
  8
0
100
AcDbLine
 62
250
  6
CONTINUOUS
 10
408.7442950556
 20
226.0981798825
 11
408.704311787
 21
226.078399098
  0
LINE
  5
570
100
AcDbEntity
  8
0
100
AcDbLine
 62
250
  6
CONTINUOUS
 10
408.704311787
 20
226.078399098
 11
408.6291079922
 21
226.0418778729
  0
LWPOLYLINE
  5
571
100
AcDbEntity
  8
0
100
AcDbPolyline
 62
250
  6
CONTINUOUS
 90
15
 70
0
 10
408.6291079922
 20
226.0418778729
 10
408.5613893657
 20
226.0093273875
 10
408.5304921464
 20
225.994696895
 10
408.5016845545
 20
225.9812780666
 10
408.4749049636
 20
225.9689972645
 10
408.4498776414
 20
225.9577581529
 10
408.4267425573
 20
225.9475920983
 10
408.4053356877
 20
225.9384677343
 10
408.3850291398
 20
225.9301946261
 10
408.3659822133
 20
225.9226788393
 10
408.3481471554
 20
225.9160143084
 10
408.3308478746
 20
225.9102924012
 10
408.3141083195
 20
225.905543574
 10
408.2984612576
 20
225.9017373707
 10
408.2841926354
 20
225.8988737912
  0
LWPOLYLINE
  5
572
100
AcDbEntity
  8
0
100
AcDbPolyline
 62
7
  6
CONTINUOUS
 90
10
 70
0
 10
401.2555738183
 20
262.4467996247
 10
401.2905105731
 20
262.4526149132
 10
401.3253321846
 20
262.4572928467
 10
401.3600386528
 20
262.4608334266
 10
401.3946157935
 20
262.4632443583
 10
401.4290777908
 20
262.4645179378
 10
401.4634671974
 20
262.4646310518
 10
401.4977981975
 20
262.4635759956
 10
401.5320566069
 20
262.4613604735
 10
401.5662424255
 20
262.457984485
  0
LINE
  5
573
100
AcDbEntity
  8
0
100
AcDbLine
 62
7
  6
CONTINUOUS
 10
401.2687235601
 20
261.6141061179
 11
401.4813561666
 21
261.6141061179
  0
LINE
  5
574
100
AcDbEntity
  8
0
100
AcDbLine
 62
7
  6
CONTINUOUS
 10
401.4822109711
 20
261.9252549372
 11
401.2555738183
 21
261.9252549372
  0
LINE
  5
575
100
AcDbEntity
  8
0
100
AcDbLine
 62
7
  6
CONTINUOUS
 10
400.1743743152
 20
262.7704572014
 11
399.7907383152
 21
262.7704572014
  0
LINE
  5
576
100
AcDbEntity
  8
0
100
AcDbLine
 62
7
  6
CONTINUOUS
 10
398.9548963152
 20
262.7704572014
 11
398.5625263152
 21
262.7704572014
  0
LINE
  5
577
100
AcDbEntity
  8
0
100
AcDbLine
 62
7
  6
CONTINUOUS
 10
397.7735703152
 20
262.7704572014
 11
397.3773263152
 21
262.7704572014
  0
LINE
  5
578
100
AcDbEntity
  8
0
100
AcDbLine
 62
7
  6
CONTINUOUS
 10
396.4485523152
 20
262.7704572014
 11
396.0522513152
 21
262.7704572014
  0
LINE
  5
579
100
AcDbEntity
  8
0
100
AcDbLine
 62
7
  6
CONTINUOUS
 10
395.3168983152
 20
262.7704572014
 11
394.8860983152
 21
262.7704572014
  0
LINE
  5
57A
100
AcDbEntity
  8
0
100
AcDbLine
 62
7
  6
CONTINUOUS
 10
396.9922933152
 20
262.7705712014
 11
396.5957213152
 21
262.7705712014
  0
LWPOLYLINE
  5
57B
100
AcDbEntity
  8
0
100
AcDbPolyline
 62
7
  6
CONTINUOUS
 90
13
 70
0
 10
401.4813561666
 20
261.6141061179
 10
401.5057523365
 20
261.6128699783
 10
401.5291252559
 20
261.6093072722
 10
401.5514749246
 20
261.603417998
 10
401.5728354099
 20
261.5951846765
 10
401.5931726446
 20
261.5846247795
 10
401.6123844273
 20
261.5717907296
 10
401.6304847662
 20
261.5567069446
 10
401.6474596532
 20
261.5393489929
 10
401.6631648621
 20
261.5196960214
 10
401.6775523176
 20
261.4977410722
 10
401.6906700951
 20
261.4734910823
 10
401.7025181945
 20
261.4469460395
  0
LWPOLYLINE
  5
57C
100
AcDbEntity
  8
0
100
AcDbPolyline
 62
7
  6
CONTINUOUS
 90
25
 70
0
 10
401.5662424255
 20
262.457984485
 10
401.5816303895
 20
262.4557360688
 10
401.5967239813
 20
262.4527010622
 10
401.6115232009
 20
262.4488794645
 10
401.6260698613
 20
262.4442604537
 10
401.6403221496
 20
262.4388548503
 10
401.654154627
 20
262.4326951178
 10
401.6675855513
 20
262.425778917
 10
401.6805966648
 20
262.4181085847
 10
401.6930077554
 20
262.4097235987
 10
401.7048091163
 20
262.4006067639
 10
401.7160104543
 20
262.3907752725
 10
401.7264606777
 20
262.3803201825
 10
401.7361178128
 20
262.3692161567
 10
401.7450238333
 20
262.3574885293
 10
401.753153569
 20
262.3453043663
 10
401.7605049279
 20
262.3326714877
 10
401.7670800021
 20
262.3195820709
 10
401.7728598964
 20
262.3061797188
 10
401.7778581073
 20
262.2924749271
 10
401.7820611384
 20
262.2784571982
 10
401.7854096063
 20
262.2642386449
 10
401.7878837165
 20
262.249856638
 10
401.7895032636
 20
262.2352738056
 10
401.7902682476
 20
262.2204901469
  0
LWPOLYLINE
  5
57D
100
AcDbEntity
  8
0
100
AcDbPolyline
 62
7
  6
CONTINUOUS
 90
8
 70
0
 10
408.3769947876
 20
260.6041998978
 10
408.3737316995
 20
260.6047350162
 10
408.3676029726
 20
260.6052518159
 10
408.358608607
 20
260.6057502969
 10
408.3465898523
 20
260.606235356
 10
408.3317054588
 20
260.6067020964
 10
408.3144316778
 20
260.6071358276
 10
408.2726323726
 20
260.6079012875
  0
LWPOLYLINE
  5
57E
100
AcDbEntity
  8
0
100
AcDbPolyline
 62
7
  6
CONTINUOUS
 90
13
 70
0
 10
401.8524267777
 20
262.7282582361
 10
401.7866385739
 20
262.7487132932
 10
401.7177185746
 20
262.7655222312
 10
401.6456667799
 20
262.7786850643
 10
401.5702988712
 20
262.7881107118
 10
401.4917991669
 20
262.7938902741
 10
401.410720623
 20
262.7962970327
 10
401.3271532144
 20
262.7951329908
 10
401.241006966
 20
262.7905961462
 10
401.1525649091
 20
262.7835537682
 10
401.0619213873
 20
262.7742949438
 10
400.9689820569
 20
262.7625305768
 10
400.8737469179
 20
262.7482606602
  0
LINE
  5
57F
100
AcDbEntity
  8
0
100
AcDbLine
 62
7
  6
CONTINUOUS
 10
408.3769947876
 20
260.6041998978
 11
408.4223157028
 21
260.5891052014
  0
LWPOLYLINE
  5
580
100
AcDbEntity
  8
0
100
AcDbPolyline
 62
7
  6
CONTINUOUS
 90
16
 70
0
 10
408.3780689655
 20
225.3942359973
 10
408.3736004255
 20
225.3920209186
 10
408.3664288333
 20
225.3907658199
 10
408.3566306407
 20
225.390758481
 10
408.3439321515
 20
225.3925278428
 10
408.3289900601
 20
225.3964920389
 10
408.3132935383
 20
225.4026246873
 10
408.2974677617
 20
225.4110220293
 10
408.2815180885
 20
225.4220822486
 10
408.2659688406
 20
225.4358895482
 10
408.2511464969
 20
225.4528013867
 10
408.2378282744
 20
225.4727112974
 10
408.2269946012
 20
225.494674528
 10
408.2190405473
 20
225.5180962044
 10
408.2140925854
 20
225.5429388462
 10
408.2123944044
 20
225.5688274148
  0
LINE
  5
581
100
AcDbEntity
  8
0
100
AcDbLine
 62
7
  6
CONTINUOUS
 10
388.7468623152
 20
264.1391052014
 11
408.4668623152
 21
264.1391052014
  0
LINE
  5
582
100
AcDbEntity
  8
0
100
AcDbLine
 62
250
  6
CONTINUOUS
 10
388.0263316677
 20
264.7289502892
 11
387.7444238815
 21
264.7289502892
  0
LINE
  5
583
100
AcDbEntity
  8
0
100
AcDbLine
 62
250
  6
CONTINUOUS
 10
409.1873929626
 20
264.7289502892
 11
409.4693007488
 21
264.7289502892
  0
LWPOLYLINE
  5
584
100
AcDbEntity
  8
0
100
AcDbPolyline
 62
250
  6
CONTINUOUS
 90
37
 70
0
 10
388.2142701919
 20
265.1987965996
 10
388.1826762298
 20
265.1956529159
 10
388.1522566826
 20
265.1906970107
 10
388.1231076413
 20
265.1841206999
 10
388.0953438925
 20
265.1761157913
 10
388.0689814762
 20
265.1668644077
 10
388.0439442176
 20
265.1565207617
 10
388.0202556726
 20
265.1452371015
 10
387.9979365248
 20
265.1331624418
 10
387.9768962496
 20
265.1204100523
 10
387.9571194208
 20
265.107093052
 10
387.9386118244
 20
265.0933357287
 10
387.9213094228
 20
265.079243568
 10
387.9051977983
 20
265.064922983
 10
387.8902425087
 20
265.050458732
 10
387.8763485608
 20
265.0359048968
 10
387.8635004796
 20
265.0213564735
 10
387.8516476267
 20
265.0068620846
 10
387.8406536164
 20
264.9923835048
 10
387.8304915862
 20
264.9779761788
 10
387.8211308995
 20
264.9636809258
 10
387.8124502966
 20
264.9494153697
 10
387.8044282613
 20
264.9352136756
 10
387.7970452007
 20
264.9211046336
 10
387.7902056667
 20
264.9069810506
 10
387.7838977123
 20
264.8928652912
 10
387.7781114303
 20
264.8787763687
 10
387.7727779105
 20
264.8645902372
 10
387.7678957632
 20
264.8503220377
 10
387.763465582
 20
264.8359852923
 10
387.7594455193
 20
264.8214457155
 10
387.7558456321
 20
264.8067151416
 10
387.7526780467
 20
264.7918050058
 10
387.7499291684
 20
264.7765761926
 10
387.7476162852
 20
264.7609898737
 10
387.7457731138
 20
264.7451096766
 10
387.7444238815
 20
264.7289502892
  0
LWPOLYLINE
  5
585
100
AcDbEntity
  8
0
100
AcDbPolyline
 62
250
  6
CONTINUOUS
 90
37
 70
0
 10
388.2142701919
 20
264.9168888134
 10
388.200769439
 20
264.9163188426
 10
388.1878815463
 20
264.9150949225
 10
388.1756065138
 20
264.913217053
 10
388.1639471633
 20
264.9106153189
 10
388.152900673
 20
264.9073596354
 10
388.1424585773
 20
264.9036597485
 10
388.1326321451
 20
264.8995299834
 10
388.1234101075
 20
264.894956015
 10
388.1147501912
 20
264.890104614
 10
388.1066546308
 20
264.8849847006
 10
388.0991211919
 20
264.8795873547
 10
388.0921008979
 20
264.8740525868
 10
388.0856011387
 20
264.8683940271
 10
388.0796145245
 20
264.8625980454
 10
388.0740699093
 20
264.8567637622
 10
388.0689725361
 20
264.8509106417
 10
388.0643171618
 20
264.8450192197
 10
388.0600169113
 20
264.8391302241
 10
388.056067148
 20
264.8332559075
 10
388.0524725085
 20
264.8273840173
 10
388.0491600275
 20
264.8215185244
 10
388.0461229922
 20
264.815667323
 10
388.0433681155
 20
264.8098225188
 10
388.0408425706
 20
264.8039644001
 10
388.0385393595
 20
264.7980982859
 10
388.0364654802
 20
264.7922188572
 10
388.0345891003
 20
264.7862904456
 10
388.0329030038
 20
264.7803162922
 10
388.0314144065
 20
264.7742931559
 10
388.0301131237
 20
264.768175645
 10
388.0289915747
 20
264.7619652081
 10
388.02805734
 20
264.7556603965
 10
388.0273229764
 20
264.7492114726
 10
388.0267926692
 20
264.7426018572
 10
388.026462233
 20
264.7358481294
 10
388.0263316677
 20
264.7289502892
  0
LINE
  5
586
100
AcDbEntity
  8
0
100
AcDbLine
 62
250
  6
CONTINUOUS
 10
408.9994544384
 20
264.9168888134
 11
388.2142701919
 21
264.9168888134
  0
LINE
  5
587
100
AcDbEntity
  8
0
100
AcDbLine
 62
250
  6
CONTINUOUS
 10
408.9994544384
 20
265.1987965996
 11
388.2142701919
 21
265.1987965996
  0
LINE
  5
588
100
AcDbEntity
  8
0
100
AcDbLine
 62
7
  6
CONTINUOUS
 10
388.1041305995
 20
265.308936192
 11
409.1095940308
 21
265.308936192
  0
LINE
  5
589
100
AcDbEntity
  8
0
100
AcDbLine
 62
7
  6
CONTINUOUS
 10
388.0839036894
 20
265.358936192
 11
409.1298209409
 21
265.358936192
  0
CIRCLE
  5
58A
100
AcDbEntity
  8
ASSI
100
AcDbCircle
 62
7
  6
CONTINUOUS
 10
402.3568623152
 20
249.7891052014
 40
0.5
  0
CIRCLE
  5
58B
100
AcDbEntity
  8
ASSI
100
AcDbCircle
 62
7
  6
CONTINUOUS
 10
402.3568623152
 20
236.7891052014
 40
0.5
  0
CIRCLE
  5
58C
100
AcDbEntity
  8
ASSI
100
AcDbCircle
 62
7
  6
CONTINUOUS
 10
394.8568623152
 20
249.7891052014
 40
0.5
  0
CIRCLE
  5
58D
100
AcDbEntity
  8
ASSI
100
AcDbCircle
 62
7
  6
CONTINUOUS
 10
394.8568623152
 20
236.7891052014
 40
0.5
  0
ELLIPSE
  5
58E
100
AcDbEntity
  8
0
100
AcDbEllipse
 62
7
  6
CONTINUOUS
 10
362.736881457
 20
243.2891052014
 30
0.0
 11
0.0
 21
497.9
 31
0.0
 40
0.0524077793
 41
-1.5878724154
 42
-1.5537202382
  0
ELLIPSE
  5
58F
100
AcDbEntity
  8
0
100
AcDbEllipse
 62
7
  6
CONTINUOUS
 10
434.4768431733
 20
243.2891052014
 30
0.0
 11
-0.0
 21
497.9
 31
0.0
 40
0.0524077793
 41
1.5537202382
 42
1.5878724154
  0
ELLIPSE
  5
590
100
AcDbEntity
  8
0
100
AcDbEllipse
 62
7
  6
CONTINUOUS
 10
388.0843604532
 20
221.7199603839
 30
0.0
 11
0.1582391023
 21
0.4751033573
 31
0.0
 40
0.9984778551
 41
-4.3904252414
 42
-2.8205423031
  0
ELLIPSE
  5
591
100
AcDbEntity
  8
0
100
AcDbEllipse
 62
7
  6
CONTINUOUS
 10
388.0843604532
 20
264.858250019
 30
0.0
 11
-0.1582391023
 21
0.4751033573
 31
0.0
 40
0.9984778551
 41
-0.3210503505
 42
1.2488325878
  0
ELLIPSE
  5
592
100
AcDbEntity
  8
0
100
AcDbEllipse
 62
7
  6
CONTINUOUS
 10
409.1293641772
 20
264.858250019
 30
0.0
 11
0.1582391023
 21
0.4751033573
 31
0.0
 40
0.9984778551
 41
-1.2488325878
 42
0.3210503505
  0
ELLIPSE
  5
593
100
AcDbEntity
  8
0
100
AcDbEllipse
 62
7
  6
CONTINUOUS
 10
409.1293641772
 20
221.7199603839
 30
0.0
 11
-0.1582391023
 21
0.4751033573
 31
0.0
 40
0.9984778551
 41
-3.4626430041
 42
-1.8927600658
  0
ELLIPSE
  5
594
100
AcDbEntity
  8
0
100
AcDbEllipse
 62
7
  6
CONTINUOUS
 10
393.2577630509
 20
253.1931798866
 30
0.0
 11
0.1086702276
 21
0.1692379683
 31
0.0
 40
0.9857548738
 41
-2.5633246127
 42
-0.9934416744
  0
ELLIPSE
  5
595
100
AcDbEntity
  8
0
100
AcDbEllipse
 62
7
  6
CONTINUOUS
 10
393.3075378669
 20
255.6595673343
 30
0.0
 11
-0.063479388
 21
0.157215491
 31
0.0
 40
0.8597101312
 41
-2.0098802682
 42
-0.446459714
  0
ELLIPSE
  5
596
100
AcDbEntity
  8
0
100
AcDbEllipse
 62
7
  6
CONTINUOUS
 10
393.0586941103
 20
256.3878259662
 30
0.0
 11
0.1086702276
 21
-0.1692379683
 31
0.0
 40
0.9857548738
 41
0.9934416744
 42
2.5633246127
  0
ELLIPSE
  5
597
100
AcDbEntity
  8
0
100
AcDbEllipse
 62
7
  6
CONTINUOUS
 10
404.15503052
 20
256.3878259662
 30
0.0
 11
0.1086702276
 21
0.1692379683
 31
0.0
 40
0.9857548738
 41
0.5782680409
 42
2.1481509792
  0
ELLIPSE
  5
598
100
AcDbEntity
  8
0
100
AcDbEllipse
 62
7
  6
CONTINUOUS
 10
403.9061867634
 20
255.6595673343
 30
0.0
 11
0.063479388
 21
0.157215491
 31
0.0
 40
0.8597101312
 41
0.446459714
 42
2.0098802682
  0
ELLIPSE
  5
599
100
AcDbEntity
  8
0
100
AcDbEllipse
 62
7
  6
CONTINUOUS
 10
403.9559615795
 20
253.1931798866
 30
0.0
 11
0.1086702276
 21
-0.1692379683
 31
0.0
 40
0.9857548738
 41
-2.1481509792
 42
-0.5782680409
  0
ELLIPSE
  5
59A
100
AcDbEntity
  8
0
100
AcDbEllipse
 62
7
  6
CONTINUOUS
 10
393.0586941103
 20
230.1903844367
 30
0.0
 11
0.1086702276
 21
0.1692379683
 31
0.0
 40
0.9857548738
 41
-2.5633246127
 42
-0.9934416744
  0
ELLIPSE
  5
59B
100
AcDbEntity
  8
0
100
AcDbEllipse
 62
7
  6
CONTINUOUS
 10
393.3075378669
 20
230.9186430685
 30
0.0
 11
0.063479388
 21
0.157215491
 31
0.0
 40
0.8597101312
 41
-2.6951329396
 42
-1.1317123854
  0
ELLIPSE
  5
59C
100
AcDbEntity
  8
0
100
AcDbEllipse
 62
7
  6
CONTINUOUS
 10
393.2577630509
 20
233.3850305163
 30
0.0
 11
0.1086702276
 21
-0.1692379683
 31
0.0
 40
0.9857548738
 41
0.9934416744
 42
2.5633246127
  0
ELLIPSE
  5
59D
100
AcDbEntity
  8
0
100
AcDbEllipse
 62
7
  6
CONTINUOUS
 10
404.15503052
 20
230.1903844367
 30
0.0
 11
0.1086702276
 21
-0.1692379683
 31
0.0
 40
0.9857548738
 41
-2.1481509792
 42
-0.5782680409
  0
ELLIPSE
  5
59E
100
AcDbEntity
  8
0
100
AcDbEllipse
 62
7
  6
CONTINUOUS
 10
403.9559615795
 20
233.3850305163
 30
0.0
 11
0.1086702276
 21
0.1692379683
 31
0.0
 40
0.9857548738
 41
0.5782680409
 42
2.1481509792
  0
ELLIPSE
  5
59F
100
AcDbEntity
  8
0
100
AcDbEllipse
 62
7
  6
CONTINUOUS
 10
403.9061867634
 20
230.9186430685
 30
0.0
 11
-0.063479388
 21
0.157215491
 31
0.0
 40
0.8597101312
 41
1.1317123854
 42
2.6951329396
  0
ELLIPSE
  5
5A0
100
AcDbEntity
  8
0
100
AcDbEllipse
 62
7
  6
CONTINUOUS
 10
388.1663731754
 20
221.8013630972
 30
0.0
 11
0.3976412741
 21
0.3976412741
 31
0.0
 40
0.8891264907
 41
2.4148175993
 42
3.8683677079
  0
ELLIPSE
  5
5A1
100
AcDbEntity
  8
0
100
AcDbEllipse
 62
7
  6
CONTINUOUS
 10
409.047351455
 20
221.8013630972
 30
0.0
 11
0.3976412741
 21
-0.3976412741
 31
0.0
 40
0.8891264907
 41
-0.7267750543
 42
0.7267750543
  0
ELLIPSE
  5
5A2
100
AcDbEntity
  8
0
100
AcDbEllipse
 62
7
  6
CONTINUOUS
 10
409.047351455
 20
264.7768473057
 30
0.0
 11
0.3976412741
 21
0.3976412741
 31
0.0
 40
0.8891264907
 41
-0.7267750543
 42
0.7267750543
  0
ELLIPSE
  5
5A3
100
AcDbEntity
  8
0
100
AcDbEllipse
 62
7
  6
CONTINUOUS
 10
388.1663731754
 20
264.7768473057
 30
0.0
 11
0.3976412741
 21
-0.3976412741
 31
0.0
 40
0.8891264907
 41
2.4148175993
 42
3.8683677079
  0
ELLIPSE
  5
5A4
100
AcDbEntity
  8
0
100
AcDbEllipse
 62
7
  6
CONTINUOUS
 10
409.1873929626
 20
229.5653518005
 30
0.0
 11
0.3
 21
0.0
 31
0.0
 40
0.0874886635
 41
-1.5707963268
 42
-1.4296011956
  0
ELLIPSE
  5
5A5
100
AcDbEntity
  8
0
100
AcDbEllipse
 62
7
  6
CONTINUOUS
 10
409.1873929626
 20
225.5128586024
 30
0.0
 11
0.3
 21
-0.0
 31
0.0
 40
0.0874886635
 41
1.4296011956
 42
1.5707963268
  0
ELLIPSE
  5
5A6
100
AcDbEntity
  8
0
100
AcDbEllipse
 62
7
  6
CONTINUOUS
 10
418.1871076552
 20
243.2891052014
 30
0.0
 11
-0.0
 21
498.6
 31
0.0
 40
0.0524077793
 41
1.5442214056
 42
1.5498894531
  0
ELLIPSE
  5
5A7
100
AcDbEntity
  8
0
100
AcDbEllipse
 62
7
  6
CONTINUOUS
 10
404.8992126993
 20
233.4888307322
 30
0.0
 11
0.1418092487
 21
0.1418092487
 31
0.0
 40
0.9972646886
 41
-0.7840286355
 42
0.7840286355
  0
ELLIPSE
  5
5A8
100
AcDbEntity
  8
0
100
AcDbEllipse
 62
7
  6
CONTINUOUS
 10
392.314511931
 20
233.4888307322
 30
0.0
 11
0.1418092487
 21
-0.1418092487
 31
0.0
 40
0.9972646886
 41
2.3575640181
 42
3.9256212891
  0
ELLIPSE
  5
5A9
100
AcDbEntity
  8
0
100
AcDbEllipse
 62
7
  6
CONTINUOUS
 10
404.8992126993
 20
253.0893796706
 30
0.0
 11
0.1418092487
 21
-0.1418092487
 31
0.0
 40
0.9972646886
 41
-0.7840286355
 42
0.7840286355
  0
ELLIPSE
  5
5AA
100
AcDbEntity
  8
0
100
AcDbEllipse
 62
7
  6
CONTINUOUS
 10
392.314511931
 20
253.0893796706
 30
0.0
 11
0.1418092487
 21
0.1418092487
 31
0.0
 40
0.9972646886
 41
-3.9256212891
 42
-2.3575640181
  0
ELLIPSE
  5
5AB
100
AcDbEntity
  8
0
100
AcDbEllipse
 62
7
  6
CONTINUOUS
 10
383.9290767861
 20
243.2891052014
 30
0.0
 11
0.0
 21
498.6
 31
0.0
 40
0.0174550649
 41
-1.5377388721
 42
-1.5360519575
  0
ELLIPSE
  5
5AC
100
AcDbEntity
  8
0
100
AcDbEllipse
 62
7
  6
CONTINUOUS
 10
413.2846478442
 20
243.2891052014
 30
0.0
 11
-0.0
 21
498.6
 31
0.0
 40
0.0174550649
 41
1.5360519575
 42
1.5377388721
  0
ELLIPSE
  5
5AD
100
AcDbEntity
  8
0
100
AcDbEllipse
 62
7
  6
CONTINUOUS
 10
379.0266169752
 20
243.2891052014
 30
0.0
 11
0.0
 21
498.6
 31
0.0
 40
0.0524077793
 41
-1.5498894531
 42
-1.5442214056
  0
ELLIPSE
  5
5AE
100
AcDbEntity
  8
0
100
AcDbEllipse
 62
7
  6
CONTINUOUS
 10
392.6248427367
 20
255.7756282647
 30
0.0
 11
0.4
 21
0.0
 31
0.0
 40
0.4663076582
 41
-2.2042389752
 42
-1.5707963268
  0
ELLIPSE
  5
5AF
100
AcDbEntity
  8
0
100
AcDbEllipse
 62
7
  6
CONTINUOUS
 10
404.5888818936
 20
255.7756282647
 30
0.0
 11
0.4
 21
0.0
 31
0.0
 40
0.4663076582
 41
-1.5707963268
 42
-0.9373536784
  0
ELLIPSE
  5
5B0
100
AcDbEntity
  8
0
100
AcDbEllipse
 62
7
  6
CONTINUOUS
 10
393.05567514
 20
255.7755152126
 30
0.0
 11
0.2
 21
-0.0
 31
0.0
 40
0.4663076582
 41
-0.7727094034
 42
-0.0174532925
  0
ELLIPSE
  5
5B1
100
AcDbEntity
  8
0
100
AcDbEllipse
 62
7
  6
CONTINUOUS
 10
392.8609236799
 20
255.6823667331
 30
0.0
 11
0.2
 21
-0.0
 31
0.0
 40
0.4663076582
 41
-1.5707963268
 42
-0.7727094034
  0
ELLIPSE
  5
5B2
100
AcDbEntity
  8
0
100
AcDbEllipse
 62
7
  6
CONTINUOUS
 10
404.1580494903
 20
255.7755152126
 30
0.0
 11
0.2
 21
0.0
 31
0.0
 40
0.4663076582
 41
-3.1241393611
 42
-2.3688832501
  0
ELLIPSE
  5
5B3
100
AcDbEntity
  8
0
100
AcDbEllipse
 62
7
  6
CONTINUOUS
 10
404.3528009504
 20
255.6823667331
 30
0.0
 11
0.2
 21
-0.0
 31
0.0
 40
0.4663076582
 41
-2.3688832501
 42
-1.5707963268
  0
ELLIPSE
  5
5B4
100
AcDbEntity
  8
0
100
AcDbEllipse
 62
7
  6
CONTINUOUS
 10
379.0266169752
 20
243.2891052014
 30
0.0
 11
0.0
 21
498.6
 31
0.0
 40
0.0524077793
 41
-1.597371248
 42
-1.5917032005
  0
ELLIPSE
  5
5B5
100
AcDbEntity
  8
0
100
AcDbEllipse
 62
7
  6
CONTINUOUS
 10
404.5888818936
 20
230.8025821382
 30
0.0
 11
0.4
 21
0.0
 31
0.0
 40
0.4663076582
 41
0.9373536784
 42
1.5707963268
  0
ELLIPSE
  5
5B6
100
AcDbEntity
  8
0
100
AcDbEllipse
 62
7
  6
CONTINUOUS
 10
392.6248427367
 20
230.8025821382
 30
0.0
 11
0.4
 21
-0.0
 31
0.0
 40
0.4663076582
 41
1.5707963268
 42
2.2042389752
  0
ELLIPSE
  5
5B7
100
AcDbEntity
  8
0
100
AcDbEllipse
 62
7
  6
CONTINUOUS
 10
392.8609236799
 20
230.8958436698
 30
0.0
 11
0.2
 21
0.0
 31
0.0
 40
0.4663076582
 41
0.7727094034
 42
1.5707963268
  0
ELLIPSE
  5
5B8
100
AcDbEntity
  8
0
100
AcDbEllipse
 62
7
  6
CONTINUOUS
 10
393.05567514
 20
230.8026951902
 30
0.0
 11
0.2
 21
0.0
 31
0.0
 40
0.4663076582
 41
0.0174532925
 42
0.7727094034
  0
ELLIPSE
  5
5B9
100
AcDbEntity
  8
0
100
AcDbEllipse
 62
7
  6
CONTINUOUS
 10
404.1580494903
 20
230.8026951902
 30
0.0
 11
0.2
 21
0.0
 31
0.0
 40
0.4663076582
 41
2.3688832501
 42
3.1241393611
  0
ELLIPSE
  5
5BA
100
AcDbEntity
  8
0
100
AcDbEllipse
 62
7
  6
CONTINUOUS
 10
404.3528009504
 20
230.8958436698
 30
0.0
 11
0.2
 21
-0.0
 31
0.0
 40
0.4663076582
 41
1.5707963268
 42
2.3688832501
  0
ELLIPSE
  5
5BB
100
AcDbEntity
  8
0
100
AcDbEllipse
 62
7
  6
CONTINUOUS
 10
413.2846478442
 20
243.2891052014
 30
0.0
 11
-0.0
 21
498.6
 31
0.0
 40
0.0174550649
 41
-4.6793315257
 42
-4.6776446111
  0
ELLIPSE
  5
5BC
100
AcDbEntity
  8
0
100
AcDbEllipse
 62
7
  6
CONTINUOUS
 10
383.9290767861
 20
243.2891052014
 30
0.0
 11
0.0
 21
498.6
 31
0.0
 40
0.0174550649
 41
-1.6055406961
 42
-1.6038537815
  0
ELLIPSE
  5
5BD
100
AcDbEntity
  8
0
100
AcDbEllipse
 62
7
  6
CONTINUOUS
 10
418.1871076552
 20
243.2891052014
 30
0.0
 11
-0.0
 21
498.6
 31
0.0
 40
0.0524077793
 41
-4.6914821067
 42
-4.6858140592
  0
ENDSEC
  0
SECTION
  2
OBJECTS
  0
DICTIONARY
  5
C
100
AcDbDictionary
280
0
281
1
  3
ACAD_GROUP
350
D
  3
ACAD_MLINESTYLE
350
17
  3
ACAD_LAYOUT
350
1A
  3
ACAD_PLOTSETTINGS
350
19
  3
ACAD_PLOTSTYLENAME
350
E
  0
DICTIONARY
  5
D
102
{ACAD_REACTORS
330
C
102
}
100
AcDbDictionary
280
0
281
1
  0
ACDBDICTIONARYWDFLT
  5
E
102
{ACAD_REACTORS
330
C
102
}
100
AcDbDictionary
281
1
  3
Normal
350
F
100
AcDbDictionaryWithDefault
340
F
  0
DICTIONARY
  5
17
102
{ACAD_REACTORS
330
C
102
}
100
AcDbDictionary
280
0
281
1
  3
Standard
350
18
  0
DICTIONARY
  5
19
102
{ACAD_REACTORS
330
C
102
}
100
AcDbDictionary
281
1
  0
DICTIONARY
  5
1A
102
{ACAD_REACTORS
330
C
102
}
100
AcDbDictionary
281
1
  3
Model
350
5BE
  3
Layout1
350
5BF
  0
ACDBPLACEHOLDER
  5
F
102
{ACAD_REACTORS
330
E
102
}
  0
MLINESTYLE
  5
18
102
{ACAD_REACTORS
330
17
102
}
100
AcDbMlineStyle
  2
STANDARD
 70
0
  3

 62
256
 51
90.0
 52
90.0
 71
2
 49
0.5
 62
256
  6
BYLAYER
 49
-0.5
 62
256
  6
BYLAYER
  0
LAYOUT
  5
5BE
102
{ACAD_REACTORS
330
1A
102
}
100
AcDbPlotSettings
  1

  2
none_device
  4
ANSI_C_(22.00_x_17.00_Inches)
  6

 40
0.0
 41
0.0
 42
0.0
 43
0.0
 44
558.8
 45
431.8
 46
0.0
 47
0.0
 48
0.0
 49
0.0
140
0.0
141
0.0
142
1.0
143
1.0
 70
1024
 72
1
 73
0
 74
0
  7

 75
0
147
1.0
148
0.0
149
0.0
100
AcDbLayout
  1
Model
 70
0
 71
0
 10
0.0
 20
0.0
 11
558.8
 21
431.8
 12
0.0
 22
0.0
 32
0.0
 14
0.0
 24
0.0
 34
0.0
 15
0.0
 25
0.0
 35
0.0
146
0.0
 13
0.0
 23
0.0
 33
0.0
 16
1.0
 26
0.0
 36
0.0
 17
0.0
 27
1.0
 37
0.0
 76
0
330
214
345
0
346
0
  0
LAYOUT
  5
5BF
102
{ACAD_REACTORS
330
1A
102
}
100
AcDbPlotSettings
  1

  2
none_device
  4
ANSI_C_(22.00_x_17.00_Inches)
  6

 40
0.0
 41
0.0
 42
0.0
 43
0.0
 44
558.8
 45
431.8
 46
0.0
 47
0.0
 48
0.0
 49
0.0
140
0.0
141
0.0
142
1.0
143
1.0
 70
0
 72
1
 73
0
 74
0
  7

 75
0
147
1.0
148
0.0
149
0.0
100
AcDbLayout
  1
Layout1
 70
0
 71
1
 10
0.0
 20
0.0
 11
558.8
 21
431.8
 12
0.0
 22
0.0
 32
0.0
 14
0.0
 24
0.0
 34
0.0
 15
0.0
 25
0.0
 35
0.0
146
0.0
 13
0.0
 23
0.0
 33
0.0
 16
1.0
 26
0.0
 36
0.0
 17
0.0
 27
1.0
 37
0.0
 76
0
330
215
345
0
346
0
  0
ENDSEC
  0
EOF
