  0
SECTION
  2
HEADER
  9
$ACADVER
  1
AC1024
  9
$DWGCODEPAGE
  3
ANSI_1252
  9
$EXTMAX
 10
558.8
 20
431.8
 30
0.0
  9
$EXTMIN
 10
0.0
 20
0.0
 30
0.0
  9
$LIMMIN
 10
0.0
 20
0.0
  9
$LIMMAX
 10
558.8
 20
431.8
  9
$VIEWCTR
 10
279.4
 20
215.9
  9
$VIEWSIZE
 40
431.8
  9
$CLAYER
  8
0
  9
$LTSCALE
 40
30.734
  9
$CELTYPE
  6
BYLAYER
  9
$DIMSCALE
 40
1.0
  9
$DIMASZ
 40
3.0
  9
$DIMEXO
 40
0.5
  9
$DIMDLI
 40
21.2344
  9
$DIMEXE
 40
1.5
  9
$DIMCEN
 40
5.0292
  9
$DIMLFAC
 40
1.0
  9
$DIMBLK
  1
_FILLED
  9
$DIMALT
 70
0
  9
$DIMALTF
 40
0.0393700787
  9
$DIMTXT
 40
3.0
  9
$DIMTOL
 70
1
  9
$DIMLIM
 70
0
  9
$DIMTFAC
 40
1.0
  9
$DIMTP
 40
0.01
  9
$DIMTM
 40
0.01
  9
$DIMGAP
 40
0.625
  9
$DIMDSEP
 70
44
  9
$AUNITS
 70
0
  9
$PDMODE
 70
3
  9
$PDSIZE
 40
3.0
  9
$HANDSEED
  5
5C0
  9
$TILEMODE
 70
1
  9
$MEASUREMENT
 70
1
  9
$INSUNITS
 70
4
  0
ENDSEC
  0
SECTION
  2
CLASSES
  0
CLASS
  1
ACDBDICTIONARYWDFLT
  2
AcDbDictionaryWithDefault
  3
AutoCAD 2000
 90
0
 91
1
280
0
281
0
  0
CLASS
  1
ACDBPLACEHOLDER
  2
AcDbPlaceHolder
  3
AutoCAD 2000
 90
0
 91
1
280
0
281
0
  0
CLASS
  1
LAYOUT
  2
AcDbLayout
  3
AutoCAD 2000
 90
0
 91
0
280
0
281
0
  0
ENDSEC
  0
SECTION
  2
TABLES
  0
TABLE
  2
VPORT
  5
8
100
AcDbSymbolTable
 70
2
  0
VPORT
  5
1F4
100
AcDbSymbolTableRecord
100
AcDbViewportTableRecord
  2
*ACTIVE
 70
0
 10
0.0
 20
0.0
 11
1.0
 21
1.0
 12
279.4
 22
215.9
 13
0.0
 23
0.0
 14
1.0
 24
1.0
 15
0.0
 25
0.0
 16
0.0
 26
0.0
 36
1.0
 17
0.0
 27
0.0
 37
0.0
 40
431.8
 41
1.2941176471
 42
50.0
 43
0.0
 44
0.0
 50
0.0
 51
0.0
 71
0
 72
100
 73
1
 74
1
 75
0
 76
0
 77
0
 78
0
  0
ENDTAB
  0
TABLE
  2
LTYPE
  5
5
100
AcDbSymbolTable
 70
6
  0
LTYPE
  5
14
100
AcDbSymbolTableRecord
100
AcDbLinetypeTableRecord
  2
BYBLOCK
 70
0
  3

 72
65
 73
0
 40
0.0
  0
LTYPE
  5
15
100
AcDbSymbolTableRecord
100
AcDbLinetypeTableRecord
  2
BYLAYER
 70
0
  3

 72
65
 73
0
 40
0.0
  0
LTYPE
  5
16
100
AcDbSymbolTableRecord
100
AcDbLinetypeTableRecord
  2
CONTINUOUS
 70
64
  3
Solid line
 72
65
 73
0
 40
0.0
  0
LTYPE
  5
1F5
100
AcDbSymbolTableRecord
100
AcDbLinetypeTableRecord
  2
CENTER
 70
64
  3
____ _ ____ _ ____ _ ____ _ ____ _ ____ _ ____
 72
65
 73
4
 40
0.6
 49
0.375
 74
0
 49
-0.075
 74
0
 49
0.075
 74
0
 49
-0.075
 74
0
  0
LTYPE
  5
1F6
100
AcDbSymbolTableRecord
100
AcDbLinetypeTableRecord
  2
HIDDEN
 70
64
  3
- - - - - - - - - - - - - - - - - - - -
 72
65
 73
2
 40
0.2
 49
0.1
 74
0
 49
-0.1
 74
0
  0
LTYPE
  5
1F7
100
AcDbSymbolTableRecord
100
AcDbLinetypeTableRecord
  2
PHANTOM
 70
64
  3
_____ _ _ _____ _ _ _____ _ _ _____
 72
65
 73
6
 40
0.8
 49
0.45
 74
0
 49
-0.05
 74
0
 49
0.1
 74
0
 49
-0.05
 74
0
 49
0.1
 74
0
 49
-0.05
 74
0
  0
LTYPE
  5
1F8
100
AcDbSymbolTableRecord
100
AcDbLinetypeTableRecord
  2
DOT
 70
64
  3
. . . . . . . . . . . . . . . . . . . .
 72
65
 73
2
 40
0.2
 49
0.1
 74
0
 49
-0.1
 74
0
  0
LTYPE
  5
1F9
100
AcDbSymbolTableRecord
100
AcDbLinetypeTableRecord
  2
DASHED
 70
64
  3
- - - - - - - - - - - - - - - - - - - -
 72
65
 73
2
 40
0.2
 49
0.1
 74
0
 49
-0.1
 74
0
  0
ENDTAB
  0
TABLE
  2
LAYER
  5
2
100
AcDbSymbolTable
 70
36
  0
LAYER
  5
10
100
AcDbSymbolTableRecord
100
AcDbLayerTableRecord
  2
0
 70
0
 62
7
  6
CONTINUOUS
370
-3
390
F
  0
LAYER
  5
1FA
100
AcDbSymbolTableRecord
100
AcDbLayerTableRecord
  2
DEFAULT_1
 70
0
 62
7
  6
CENTER
370
-3
390
F
  0
LAYER
  5
1FB
100
AcDbSymbolTableRecord
100
AcDbLayerTableRecord
  2
DEFAULT_2
 70
0
 62
7
  6
HIDDEN
370
-3
390
F
  0
LAYER
  5
1FC
100
AcDbSymbolTableRecord
100
AcDbLayerTableRecord
  2
DEFAULT_3
 70
0
 62
7
  6
PHANTOM
370
-3
390
F
  0
LAYER
  5
1FD
100
AcDbSymbolTableRecord
100
AcDbLayerTableRecord
  2
ASSI
 70
0
 62
7
  6
CONTINUOUS
370
-3
390
F
  0
LAYER
  5
1FE
100
AcDbSymbolTableRecord
100
AcDbLayerTableRecord
  2
COORDINATE
 70
0
 62
7
  6
CONTINUOUS
370
-3
390
F
  0
LAYER
  5
1FF
100
AcDbSymbolTableRecord
100
AcDbLayerTableRecord
  2
COPY_PUBLISH
 70
0
 62
7
  6
CONTINUOUS
370
-3
390
F
  0
LAYER
  5
200
100
AcDbSymbolTableRecord
100
AcDbLayerTableRecord
  2
COSMETIC
 70
0
 62
7
  6
CONTINUOUS
370
-3
390
F
  0
LAYER
  5
201
100
AcDbSymbolTableRecord
100
AcDbLayerTableRecord
  2
COSMETICI
 70
0
 62
7
  6
CONTINUOUS
370
-3
390
F
  0
LAYER
  5
202
100
AcDbSymbolTableRecord
100
AcDbLayerTableRecord
  2
CURVE
 70
0
 62
7
  6
CONTINUOUS
370
-3
390
F
  0
LAYER
  5
203
100
AcDbSymbolTableRecord
100
AcDbLayerTableRecord
  2
DRAFT
 70
0
 62
7
  6
CONTINUOUS
370
-3
390
F
  0
LAYER
  5
204
100
AcDbSymbolTableRecord
100
AcDbLayerTableRecord
  2
IMPORT_IGES
 70
0
 62
7
  6
CONTINUOUS
370
-3
390
F
  0
LAYER
  5
205
100
AcDbSymbolTableRecord
100
AcDbLayerTableRecord
  2
INTFCLR_11
 70
0
 62
7
  6
CONTINUOUS
370
-3
390
F
  0
LAYER
  5
206
100
AcDbSymbolTableRecord
100
AcDbLayerTableRecord
  2
INTF_1
 70
0
 62
7
  6
CONTINUOUS
370
-3
390
F
  0
LAYER
  5
207
100
AcDbSymbolTableRecord
100
AcDbLayerTableRecord
  2
INTF_3
 70
0
 62
7
  6
CONTINUOUS
370
-3
390
F
  0
LAYER
  5
208
100
AcDbSymbolTableRecord
100
AcDbLayerTableRecord
  2
NOTE
 70
0
 62
7
  6
CONTINUOUS
370
-3
390
F
  0
LAYER
  5
209
100
AcDbSymbolTableRecord
100
AcDbLayerTableRecord
  2
PIANI
 70
0
 62
7
  6
CONTINUOUS
370
-3
390
F
  0
LAYER
  5
20A
100
AcDbSymbolTableRecord
100
AcDbLayerTableRecord
  2
PUNTI
 70
0
 62
7
  6
CONTINUOUS
370
-3
390
F
  0
LAYER
  5
20B
100
AcDbSymbolTableRecord
100
AcDbLayerTableRecord
  2
RACCORDO
 70
0
 62
7
  6
CONTINUOUS
370
-3
390
F
  0
LAYER
  5
20C
100
AcDbSymbolTableRecord
100
AcDbLayerTableRecord
  2
SIMBOLI
 70
0
 62
7
  6
CONTINUOUS
370
-3
390
F
  0
LAYER
  5
20D
100
AcDbSymbolTableRecord
100
AcDbLayerTableRecord
  2
SMUSSO
 70
0
 62
7
  6
CONTINUOUS
370
-3
390
F
  0
LAYER
  5
20E
100
AcDbSymbolTableRecord
100
AcDbLayerTableRecord
  2
SNAPLINE
 70
0
 62
7
  6
CONTINUOUS
370
-3
390
F
  0
LAYER
  5
20F
100
AcDbSymbolTableRecord
100
AcDbLayerTableRecord
  2
SUPERFICI
 70
0
 62
7
  6
CONTINUOUS
370
-3
390
F
  0
LAYER
  5
210
100
AcDbSymbolTableRecord
100
AcDbLayerTableRecord
  2
TRASH
 70
0
 62
7
  6
CONTINUOUS
370
-3
390
F
  0
LAYER
  5
211
100
AcDbSymbolTableRecord
100
AcDbLayerTableRecord
  2
___SHELL
 70
0
 62
7
  6
CONTINUOUS
370
-3
390
F
  0
ENDTAB
  0
TABLE
  2
STYLE
  5
3
100
AcDbSymbolTable
 70
1
  0
STYLE
  5
11
100
AcDbSymbolTableRecord
100
AcDbTextStyleTableRecord
  2
STANDARD
 70
0
 40
0.0
 41
0.8
 50
0.0
 71
0
 42
0.2
  3
txt
  4

  0
STYLE
  5
212
100
AcDbSymbolTableRecord
100
AcDbTextStyleTableRecord
  2
TEXTSTYLE_1
 70
0
 40
0.0
 41
0.8
 50
0.0
 71
0
 42
0.2
  3
gdt
  4

  0
ENDTAB
  0
TABLE
  2
VIEW
  5
6
100
AcDbSymbolTable
 70
0
  0
ENDTAB
  0
TABLE
  2
UCS
  5
7
100
AcDbSymbolTable
 70
0
  0
ENDTAB
  0
TABLE
  2
APPID
  5
9
100
AcDbSymbolTable
 70
1
  0
APPID
  5
213
100
AcDbSymbolTableRecord
100
AcDbRegAppTableRecord
  2
ACAD
 70
0
  0
ENDTAB
  0
TABLE
  2
BLOCK_RECORD
  5
1
100
AcDbSymbolTable
 70
0
  0
BLOCK_RECORD
  5
214
100
AcDbSymbolTableRecord
100
AcDbBlockTableRecord
  2
*Model_Space
  0
BLOCK_RECORD
  5
215
100
AcDbSymbolTableRecord
100
AcDbBlockTableRecord
  2
*Paper_Space
  0
BLOCK_RECORD
  5
216
100
AcDbSymbolTableRecord
100
AcDbBlockTableRecord
  2
_FILLED
  0
ENDTAB
  0
TABLE
  2
DIMSTYLE
  5
A
100
AcDbSymbolTable
 70
1
100
AcDbDimStyleTable
 71
0
  0
DIMSTYLE
105
217
100
AcDbSymbolTableRecord
100
AcDbDimStyleTableRecord
  2
STANDARD
 70
0
  3

  4

 40
1.0
 41
3.0
 42
0.5
 43
0.38
 44
1.5
 45
0.0
 46
0.0
 47
0.01
 48
0.01
140
3.0
141
0.09
142
0.0
143
25.4
144
1.0
145
0.0
146
1.0
147
0.625
 71
1
 72
0
 73
0
 74
0
 75
0
 76
0
 77
1
 78
8
 79
2
170
0
171
1
172
0
173
0
174
0
175
0
176
0
177
0
178
0
270
2
179
2
271
2
272
2
273
2
274
2
275
0
280
0
281
0
282
0
283
1
284
8
285
0
286
0
287
3
288
0
340
11
278
44
341
216
342
216
343
216
344
216
  0
ENDTAB
  0
ENDSEC
  0
SECTION
  2
BLOCKS
  0
BLOCK
  5
20
100
AcDbEntity
  8
0
100
AcDbBlockBegin
  2
*Model_Space
 70
0
 10
0.0
 20
0.0
 30
0.0
  3
*Model_Space
  1

  0
ENDBLK
  5
21
100
AcDbEntity
  8
0
100
AcDbBlockEnd
  0
BLOCK
  5
1C
100
AcDbEntity
  8
0
100
AcDbBlockBegin
  2
*Paper_Space
 70
0
 10
0.0
 20
0.0
 30
0.0
  3
*Paper_Space
  1

  0
ENDBLK
  5
1D
100
AcDbEntity
  8
0
100
AcDbBlockEnd
  0
BLOCK
  5
218
100
AcDbEntity
  8
0
100
AcDbBlockBegin
  2
_FILLED
 70
64
 10
0.0
 20
0.0
  3
_FILLED
  1

  0
SOLID
  5
219
100
AcDbEntity
  8
0
  6
BYBLOCK
 62
0
100
AcDbTrace
 10
0.0
 20
0.0
 11
-1.0
 21
0.3166666667
 12
-1.0
 22
-0.3166666667
 13
-1.0
 23
-0.3166666667
  0
ENDBLK
  5
21A
100
AcDbEntity
  8
0
  6
BYBLOCK
 62
0
100
AcDbBlockEnd
  0
ENDSEC
  0
SECTION
  2
ENTITIES
  0
LWPOLYLINE
  5
21B
100
AcDbEntity
  8
0
100
AcDbPolyline
 62
250
  6
CONTINUOUS
 90
37
 70
0
 10
217.6302084034
 20
178.917502827
 10
217.6618023655
 20
178.9206465107
 10
217.6922219126
 20
178.9256024158
 10
217.7213709539
 20
178.9321787266
 10
217.7491347028
 20
178.9401836352
 10
217.7754971191
 20
178.9494350188
 10
217.8005343777
 20
178.9597786649
 10
217.8242229227
 20
178.9710623251
 10
217.8465420705
 20
178.9831369848
 10
217.8675823456
 20
178.9958893743
 10
217.8873591745
 20
179.0092063745
 10
217.9058667708
 20
179.0229636979
 10
217.9231691725
 20
179.0370558586
 10
217.9392807969
 20
179.0513764435
 10
217.9542360865
 20
179.0658406945
 10
217.9681300345
 20
179.0803945297
 10
217.9809781157
 20
179.0949429531
 10
217.9928309686
 20
179.1094373419
 10
218.0038249789
 20
179.1239159217
 10
218.0139870091
 20
179.1383232477
 10
218.0233476958
 20
179.1526185007
 10
218.0320282987
 20
179.1668840569
 10
218.040050334
 20
179.181085751
 10
218.0474333946
 20
179.195194793
 10
218.0542729286
 20
179.209318376
 10
218.060580883
 20
179.2234341354
 10
218.066367165
 20
179.2375230579
 10
218.0717006847
 20
179.2517091893
 10
218.0765828321
 20
179.2659773889
 10
218.0810130133
 20
179.2803141342
 10
218.085033076
 20
179.2948537111
 10
218.0886329632
 20
179.309584285
 10
218.0918005486
 20
179.3244944208
 10
218.0945494269
 20
179.339723234
 10
218.0968623101
 20
179.3553095529
 10
218.0987054814
 20
179.3711897499
 10
218.1000547138
 20
179.3873491374
  0
LWPOLYLINE
  5
21C
100
AcDbEntity
  8
0
100
AcDbPolyline
 62
250
  6
CONTINUOUS
 90
37
 70
0
 10
217.6302084034
 20
179.1994106132
 10
217.6437091563
 20
179.199980584
 10
217.656597049
 20
179.2012045041
 10
217.6688720815
 20
179.2030823736
 10
217.680531432
 20
179.2056841077
 10
217.6915779222
 20
179.2089397912
 10
217.702020018
 20
179.212639678
 10
217.7118464502
 20
179.2167694431
 10
217.7210684878
 20
179.2213434116
 10
217.729728404
 20
179.2261948126
 10
217.7378239644
 20
179.231314726
 10
217.7453574034
 20
179.2367120719
 10
217.7523776974
 20
179.2422468398
 10
217.7588774566
 20
179.2479053995
 10
217.7648640707
 20
179.2537013812
 10
217.770408686
 20
179.2595356644
 10
217.7755060592
 20
179.2653887849
 10
217.7801614335
 20
179.2712802069
 10
217.784461684
 20
179.2771692024
 10
217.7884114473
 20
179.2830435191
 10
217.7920060868
 20
179.2889154093
 10
217.7953185678
 20
179.2947809022
 10
217.7983556031
 20
179.3006321036
 10
217.8011104798
 20
179.3064769078
 10
217.8036360247
 20
179.3123350264
 10
217.8059392358
 20
179.3182011407
 10
217.808013115
 20
179.3240805694
 10
217.809889495
 20
179.330008981
 10
217.8115755915
 20
179.3359831344
 10
217.8130641887
 20
179.3420062707
 10
217.8143654716
 20
179.3481237816
 10
217.8154870206
 20
179.3543342185
 10
217.8164212552
 20
179.36063903
 10
217.8171556189
 20
179.3670879539
 10
217.8176859261
 20
179.3736975694
 10
217.8180163623
 20
179.3804512972
 10
217.8181469275
 20
179.3873491374
  0
LINE
  5
21D
100
AcDbEntity
  8
0
100
AcDbLine
 62
7
  6
CONTINUOUS
 10
196.7146576543
 20
178.7573632346
 11
217.7605749059
 21
178.7573632346
  0
LINE
  5
21E
100
AcDbEntity
  8
0
100
AcDbLine
 62
7
  6
CONTINUOUS
 10
196.7348845645
 20
178.8073632346
 11
217.7403479957
 21
178.8073632346
  0
LINE
  5
21F
100
AcDbEntity
  8
0
100
AcDbLine
 62
250
  6
CONTINUOUS
 10
196.8450241568
 20
178.917502827
 11
217.6302084034
 21
178.917502827
  0
LINE
  5
220
100
AcDbEntity
  8
0
100
AcDbLine
 62
250
  6
CONTINUOUS
 10
196.8450241568
 20
179.1994106132
 11
217.6302084034
 21
179.1994106132
  0
LINE
  5
221
100
AcDbEntity
  8
0
100
AcDbLine
 62
250
  6
CONTINUOUS
 10
196.6570856327
 20
179.3873491374
 11
196.3751778464
 21
179.3873491374
  0
LINE
  5
222
100
AcDbEntity
  8
0
100
AcDbLine
 62
250
  6
CONTINUOUS
 10
217.8181469275
 20
179.3873491374
 11
218.1000547138
 21
179.3873491374
  0
LINE
  5
223
100
AcDbEntity
  8
0
100
AcDbLine
 62
7
  6
CONTINUOUS
 10
197.4674838076
 20
218.1422889215
 11
197.4221628925
 21
218.1271942251
  0
LINE
  5
224
100
AcDbEntity
  8
0
100
AcDbLine
 62
7
  6
CONTINUOUS
 10
197.3776162801
 20
179.9771942251
 11
217.0976162801
 21
179.9771942251
  0
LINE
  5
225
100
AcDbEntity
  8
0
100
AcDbLine
 62
7
  6
CONTINUOUS
 10
197.4674838076
 20
183.5120995287
 11
197.4221628925
 21
183.5271942251
  0
LWPOLYLINE
  5
226
100
AcDbEntity
  8
0
100
AcDbPolyline
 62
250
  6
CONTINUOUS
 90
10
 70
0
 10
217.0989875684
 20
183.2377238753
 10
217.0940972654
 20
183.236651773
 10
217.0897628339
 20
183.2355677376
 10
217.0859842739
 20
183.2344717692
 10
217.0827588363
 20
183.2333626211
 10
217.0800892701
 20
183.23224154
 10
217.077983823
 20
183.2311122657
 10
217.0764452441
 20
183.2299760447
 10
217.0754707844
 20
183.2288316304
 10
217.0750604436
 20
183.2276790229
  0
LWPOLYLINE
  5
227
100
AcDbEntity
  8
0
100
AcDbPolyline
 62
250
  6
CONTINUOUS
 90
10
 70
0
 10
216.9149466004
 20
183.4369628149
 10
216.9068101198
 20
183.4358905824
 10
216.89958265
 20
183.4348064822
 10
216.8932744455
 20
183.4337105141
 10
216.8878978703
 20
183.4326014752
 10
216.883454049
 20
183.4314805686
 10
216.8799403565
 20
183.4303514031
 10
216.8773648338
 20
183.4292151818
 10
216.8757386696
 20
183.4280707016
 10
216.875068059
 20
183.4269179625
  0
LWPOLYLINE
  5
228
100
AcDbEntity
  8
0
100
AcDbPolyline
 62
250
  6
CONTINUOUS
 90
13
 70
0
 10
217.8443262091
 20
183.2377238753
 10
217.8704189793
 20
183.2394466535
 10
217.8960655279
 20
183.2445459607
 10
217.9208274412
 20
183.2529345608
 10
217.9442814617
 20
183.264469003
 10
217.9660266605
 20
183.2789520471
 10
217.9856913067
 20
183.2961360128
 10
218.0029393056
 20
183.315727079
 10
218.0174759035
 20
183.3373903093
 10
218.0290526843
 20
183.3607553258
 10
218.0374718563
 20
183.3854226933
 10
218.0425896168
 20
183.4109707564
 10
218.0443185933
 20
183.436962819
  0
LWPOLYLINE
  5
229
100
AcDbEntity
  8
0
100
AcDbPolyline
 62
7
  6
CONTINUOUS
 90
25
 70
0
 10
204.1568675438
 20
181.7021942251
 10
204.1947011117
 20
181.7031019966
 10
204.2320563792
 20
181.706590961
 10
204.268933346
 20
181.7126611205
 10
204.3055919145
 20
181.7212308587
 10
204.3417721825
 20
181.7323818006
 10
204.3766944429
 20
181.7463588133
 10
204.4103061261
 20
181.7634312908
 10
204.4426598017
 20
181.7833298599
 10
204.4731334718
 20
181.805491238
 10
204.5016310415
 20
181.8299133005
 10
204.5282486056
 20
181.8565981962
 10
204.5526524507
 20
181.8849890478
 10
204.5746977503
 20
181.9150274554
 10
204.5945293307
 20
181.9467718414
 10
204.6122479572
 20
181.9798405563
 10
204.6278088503
 20
182.0142221569
 10
204.6412567894
 20
182.0499281063
 10
204.6528268785
 20
182.0866111102
 10
204.6626429175
 20
182.1241309224
 10
204.6705811065
 20
182.1626278042
 10
204.6765051494
 20
182.2021752204
 10
204.6803696142
 20
182.2427976658
 10
204.682219933
 20
182.2844706642
 10
204.6820561056
 20
182.3271942251
  0
LINE
  5
22A
100
AcDbEntity
  8
0
100
AcDbLine
 62
7
  6
CONTINUOUS
 10
201.0248352801
 20
181.7021942251
 11
201.1884772801
 21
181.7021942251
  0
LINE
  5
22B
100
AcDbEntity
  8
0
100
AcDbLine
 62
7
  6
CONTINUOUS
 10
201.5401782801
 20
181.7021942251
 11
201.7073162801
 21
181.7021942251
  0
LINE
  5
22C
100
AcDbEntity
  8
0
100
AcDbLine
 62
7
  6
CONTINUOUS
 10
202.0589502801
 20
181.7021942251
 11
202.2226582801
 21
181.7021942251
  0
LINE
  5
22D
100
AcDbEntity
  8
0
100
AcDbLine
 62
7
  6
CONTINUOUS
 10
202.3723852801
 20
181.7021942251
 11
202.5464652801
 21
181.7021942251
  0
LINE
  5
22E
100
AcDbEntity
  8
0
100
AcDbLine
 62
7
  6
CONTINUOUS
 10
203.3020252801
 20
181.7021942251
 11
203.4865882801
 21
181.7021942251
  0
LINE
  5
22F
100
AcDbEntity
  8
0
100
AcDbLine
 62
7
  6
CONTINUOUS
 10
203.6502262801
 20
181.7021942251
 11
204.1568675438
 21
181.7021942251
  0
LINE
  5
230
100
AcDbEntity
  8
0
100
AcDbLine
 62
7
  6
CONTINUOUS
 10
204.9159452801
 20
181.7021942251
 11
205.8387112801
 21
181.7021942251
  0
LINE
  5
231
100
AcDbEntity
  8
0
100
AcDbLine
 62
7
  6
CONTINUOUS
 10
206.5699492801
 20
181.7021942251
 11
206.7388122801
 21
181.7021942251
  0
LINE
  5
232
100
AcDbEntity
  8
0
100
AcDbLine
 62
7
  6
CONTINUOUS
 10
207.0277732801
 20
181.7021942251
 11
207.1914912801
 21
181.7021942251
  0
LINE
  5
233
100
AcDbEntity
  8
0
100
AcDbLine
 62
7
  6
CONTINUOUS
 10
207.8304422801
 20
181.7021942251
 11
208.0202012801
 21
181.7021942251
  0
LINE
  5
234
100
AcDbEntity
  8
0
100
AcDbLine
 62
7
  6
CONTINUOUS
 10
208.7949082801
 20
181.7021942251
 11
208.9638222801
 21
181.7021942251
  0
LINE
  5
235
100
AcDbEntity
  8
0
100
AcDbLine
 62
7
  6
CONTINUOUS
 10
209.5679572801
 20
181.7021942251
 11
209.7368112801
 21
181.7021942251
  0
LINE
  5
236
100
AcDbEntity
  8
0
100
AcDbLine
 62
7
  6
CONTINUOUS
 10
210.2086262801
 20
181.7021942251
 11
210.3826962801
 21
181.7021942251
  0
LINE
  5
237
100
AcDbEntity
  8
0
100
AcDbLine
 62
7
  6
CONTINUOUS
 10
211.1383272801
 20
181.7021942251
 11
211.3229212801
 21
181.7021942251
  0
LINE
  5
238
100
AcDbEntity
  8
0
100
AcDbLine
 62
7
  6
CONTINUOUS
 10
211.4777932801
 20
181.7021942251
 11
212.2804622801
 21
181.7021942251
  0
LINE
  5
239
100
AcDbEntity
  8
0
100
AcDbLine
 62
7
  6
CONTINUOUS
 10
212.8096782801
 20
181.7021942251
 11
212.9785012801
 21
181.7021942251
  0
LINE
  5
23A
100
AcDbEntity
  8
0
100
AcDbLine
 62
7
  6
CONTINUOUS
 10
204.1525631363
 20
181.8466542251
 11
203.8191502801
 21
181.8466542251
  0
LINE
  5
23B
100
AcDbEntity
  8
0
100
AcDbLine
 62
7
  6
CONTINUOUS
 10
212.2804622801
 20
181.8519112251
 11
211.6467182801
 21
181.8519112251
  0
LINE
  5
23C
100
AcDbEntity
  8
0
100
AcDbLine
 62
7
  6
CONTINUOUS
 10
205.8387112801
 20
181.8519112251
 11
205.0848602801
 21
181.8519112251
  0
LINE
  5
23D
100
AcDbEntity
  8
0
100
AcDbLine
 62
7
  6
CONTINUOUS
 10
202.6770552801
 20
182.0660232251
 11
203.1784302801
 21
182.0660232251
  0
LINE
  5
23E
100
AcDbEntity
  8
0
100
AcDbLine
 62
7
  6
CONTINUOUS
 10
210.5132972801
 20
182.0660232251
 11
211.0147222801
 21
182.0660232251
  0
LINE
  5
23F
100
AcDbEntity
  8
0
100
AcDbLine
 62
7
  6
CONTINUOUS
 10
210.9537742801
 20
182.2157402251
 11
210.5655312801
 21
182.2157402251
  0
LINE
  5
240
100
AcDbEntity
  8
0
100
AcDbLine
 62
7
  6
CONTINUOUS
 10
203.1175432801
 20
182.2157402251
 11
202.7293002801
 21
182.2157402251
  0
LINE
  5
241
100
AcDbEntity
  8
0
100
AcDbLine
 62
7
  6
CONTINUOUS
 10
205.0848602801
 20
182.2697232251
 11
205.7690592801
 21
182.2697232251
  0
LINE
  5
242
100
AcDbEntity
  8
0
100
AcDbLine
 62
7
  6
CONTINUOUS
 10
205.7690592801
 20
182.4194402251
 11
205.0848602801
 21
182.4194402251
  0
LINE
  5
243
100
AcDbEntity
  8
0
100
AcDbLine
 62
7
  6
CONTINUOUS
 10
205.0848602801
 20
182.8024772251
 11
205.8265092801
 21
182.8024772251
  0
LINE
  5
244
100
AcDbEntity
  8
0
100
AcDbLine
 62
7
  6
CONTINUOUS
 10
209.1448882801
 20
182.8024772251
 11
209.5679572801
 21
182.8024772251
  0
LINE
  5
245
100
AcDbEntity
  8
0
100
AcDbLine
 62
7
  6
CONTINUOUS
 10
209.7368112801
 20
182.8024772251
 11
210.1598802801
 21
182.8024772251
  0
LINE
  5
246
100
AcDbEntity
  8
0
100
AcDbLine
 62
7
  6
CONTINUOUS
 10
203.8191502801
 20
182.8077342251
 11
204.1525631363
 21
182.8077342251
  0
LINE
  5
247
100
AcDbEntity
  8
0
100
AcDbLine
 62
7
  6
CONTINUOUS
 10
213.4503972801
 20
182.9521942251
 11
213.2518532801
 21
182.9521942251
  0
LINE
  5
248
100
AcDbEntity
  8
0
100
AcDbLine
 62
7
  6
CONTINUOUS
 10
212.5346072801
 20
182.9521942251
 11
212.3378822801
 21
182.9521942251
  0
LINE
  5
249
100
AcDbEntity
  8
0
100
AcDbLine
 62
7
  6
CONTINUOUS
 10
211.6467182801
 20
182.9521942251
 11
211.4777932801
 21
182.9521942251
  0
LINE
  5
24A
100
AcDbEntity
  8
0
100
AcDbLine
 62
7
  6
CONTINUOUS
 10
210.8702012801
 20
182.9521942251
 11
210.6787232801
 21
182.9521942251
  0
LINE
  5
24B
100
AcDbEntity
  8
0
100
AcDbLine
 62
7
  6
CONTINUOUS
 10
210.1598802801
 20
182.9521942251
 11
209.1448882801
 21
182.9521942251
  0
LINE
  5
24C
100
AcDbEntity
  8
0
100
AcDbLine
 62
7
  6
CONTINUOUS
 10
208.9638222801
 20
182.9521942251
 11
208.7949082801
 21
182.9521942251
  0
LINE
  5
24D
100
AcDbEntity
  8
0
100
AcDbLine
 62
7
  6
CONTINUOUS
 10
208.0202012801
 20
182.9521942251
 11
207.8565642801
 21
182.9521942251
  0
LINE
  5
24E
100
AcDbEntity
  8
0
100
AcDbLine
 62
7
  6
CONTINUOUS
 10
207.2280262801
 20
182.9521942251
 11
207.0277732801
 21
182.9521942251
  0
LINE
  5
24F
100
AcDbEntity
  8
0
100
AcDbLine
 62
7
  6
CONTINUOUS
 10
206.7388122801
 20
182.9521942251
 11
206.5699492801
 21
182.9521942251
  0
LINE
  5
250
100
AcDbEntity
  8
0
100
AcDbLine
 62
7
  6
CONTINUOUS
 10
205.8265092801
 20
182.9521942251
 11
204.9159452801
 21
182.9521942251
  0
LINE
  5
251
100
AcDbEntity
  8
0
100
AcDbLine
 62
7
  6
CONTINUOUS
 10
204.1621822609
 20
182.9521942251
 11
203.6502262801
 21
182.9521942251
  0
LINE
  5
252
100
AcDbEntity
  8
0
100
AcDbLine
 62
7
  6
CONTINUOUS
 10
203.0339602801
 20
182.9521942251
 11
202.8424212801
 21
182.9521942251
  0
LINE
  5
253
100
AcDbEntity
  8
0
100
AcDbLine
 62
7
  6
CONTINUOUS
 10
202.2226582801
 20
182.9521942251
 11
201.9823732801
 21
182.9521942251
  0
LINE
  5
254
100
AcDbEntity
  8
0
100
AcDbLine
 62
7
  6
CONTINUOUS
 10
201.2668372801
 20
182.9521942251
 11
201.0248352801
 21
182.9521942251
  0
LWPOLYLINE
  5
255
100
AcDbEntity
  8
0
100
AcDbPolyline
 62
7
  6
CONTINUOUS
 90
25
 70
0
 10
204.1525631363
 20
182.8077342251
 10
204.1801406172
 20
182.8060873799
 10
204.2072342236
 20
182.802377787
 10
204.2338439555
 20
182.7966054481
 10
204.2601614855
 20
182.7887594958
 10
204.285995141
 20
182.7788508037
 10
204.3107699037
 20
182.7669119863
 10
204.3344880135
 20
182.7528098899
 10
204.3571472304
 20
182.7366776799
 10
204.378165816
 20
182.7189474498
 10
204.3973851964
 20
182.699602136
 10
204.4149639454
 20
182.6786588152
 10
204.4307960463
 20
182.6566007878
 10
204.4447776098
 20
182.6334807576
 10
204.4570125252
 20
182.6092460318
 10
204.4677064437
 20
182.5842218129
 10
204.4767539554
 20
182.5584629857
 10
204.4842604702
 20
182.5319146742
 10
204.4907478694
 20
182.5047374366
 10
204.4964277603
 20
182.47704382
 10
204.5010885356
 20
182.4487212846
 10
204.5046172541
 20
182.4195927595
 10
204.5069762687
 20
182.3895992249
 10
204.5082032264
 20
182.3587997116
 10
204.5082981274
 20
182.3271942251
  0
LWPOLYLINE
  5
256
100
AcDbEntity
  8
0
100
AcDbPolyline
 62
7
  6
CONTINUOUS
 90
8
 70
0
 10
197.4674838076
 20
183.5120995287
 10
197.4707468956
 20
183.5115644103
 10
197.4768756223
 20
183.5110476107
 10
197.4858699878
 20
183.5105491297
 10
197.4978887425
 20
183.5100640706
 10
197.5127731359
 20
183.5095973302
 10
197.5300469169
 20
183.5091635989
 10
197.5718462221
 20
183.508398139
  0
LINE
  5
257
100
AcDbEntity
  8
0
100
AcDbLine
 62
7
  6
CONTINUOUS
 10
201.2376162801
 20
218.1271942251
 11
201.2576735897
 21
218.1472515347
  0
LWPOLYLINE
  5
258
100
AcDbEntity
  8
0
100
AcDbPolyline
 62
7
  6
CONTINUOUS
 90
6
 70
0
 10
210.5287212712
 20
219.3075409155
 10
210.5394843221
 20
219.3113479818
 10
210.5501102056
 20
219.3162130461
 10
210.5605989218
 20
219.322136107
 10
210.57087256
 20
219.3293448163
 10
210.5810090308
 20
219.3376115191
  0
LWPOLYLINE
  5
259
100
AcDbEntity
  8
0
100
AcDbPolyline
 62
7
  6
CONTINUOUS
 90
7
 70
0
 10
197.5315651558
 20
184.3457208914
 10
197.514284093
 20
184.3452866753
 10
197.4993914721
 20
184.3448193799
 10
197.4873650843
 20
184.3443336915
 10
197.4783641935
 20
184.3438345059
 10
197.4722295359
 20
184.3433169274
 10
197.4689611114
 20
184.342780956
  0
LINE
  5
25A
100
AcDbEntity
  8
0
100
AcDbLine
 62
7
  6
CONTINUOUS
 10
197.5733760245
 20
184.346487108
 11
197.5315651558
 21
184.3457208914
  0
LINE
  5
25B
100
AcDbEntity
  8
0
100
AcDbLine
 62
7
  6
CONTINUOUS
 10
197.6230378676
 20
184.3470895694
 11
197.5733760245
 21
184.346487108
  0
LINE
  5
25C
100
AcDbEntity
  8
0
100
AcDbLine
 62
7
  6
CONTINUOUS
 10
197.70801167
 20
184.3476410194
 11
197.6230378676
 21
184.3470895694
  0
LINE
  5
25D
100
AcDbEntity
  8
0
100
AcDbLine
 62
7
  6
CONTINUOUS
 10
216.7698657571
 20
183.5072489814
 11
216.8430280964
 21
183.5076959959
  0
LINE
  5
25E
100
AcDbEntity
  8
0
100
AcDbLine
 62
7
  6
CONTINUOUS
 10
217.8181469275
 20
183.0771942251
 11
217.0976162801
 21
183.0771942251
  0
LINE
  5
25F
100
AcDbEntity
  8
0
100
AcDbLine
 62
250
  6
CONTINUOUS
 10
217.0989875684
 20
183.2377238753
 11
217.8443262091
 21
183.2377238753
  0
LINE
  5
260
100
AcDbEntity
  8
0
100
AcDbLine
 62
7
  6
CONTINUOUS
 10
213.2175589706
 20
183.5071369156
 11
216.7698657571
 21
183.5072489814
  0
LINE
  5
261
100
AcDbEntity
  8
0
100
AcDbLine
 62
7
  6
CONTINUOUS
 10
197.4221628925
 20
183.5271942251
 11
201.2376162801
 21
183.5271942251
  0
LINE
  5
262
100
AcDbEntity
  8
0
100
AcDbLine
 62
7
  6
CONTINUOUS
 10
213.2376162801
 20
183.5271942251
 11
216.8527764685
 21
183.5271942251
  0
LINE
  5
263
100
AcDbEntity
  8
0
100
AcDbLine
 62
250
  6
CONTINUOUS
 10
217.3750490206
 20
183.6362017545
 11
218.0427253395
 21
183.6362017545
  0
LINE
  5
264
100
AcDbEntity
  8
0
100
AcDbLine
 62
7
  6
CONTINUOUS
 10
216.8527764685
 20
184.3271942251
 11
213.2376162801
 21
184.3271942251
  0
LINE
  5
265
100
AcDbEntity
  8
0
100
AcDbLine
 62
7
  6
CONTINUOUS
 10
201.2376162801
 20
184.3271942251
 11
197.4221628925
 21
184.3271942251
  0
LINE
  5
266
100
AcDbEntity
  8
0
100
AcDbLine
 62
7
  6
CONTINUOUS
 10
197.70801167
 20
184.3476410194
 11
201.2581712064
 21
184.3477491514
  0
LINE
  5
267
100
AcDbEntity
  8
0
100
AcDbLine
 62
7
  6
CONTINUOUS
 10
197.7064925908
 20
183.5072450361
 11
201.2576735897
 21
183.5071369156
  0
LINE
  5
268
100
AcDbEntity
  8
0
100
AcDbLine
 62
7
  6
CONTINUOUS
 10
216.7842670861
 20
184.3475706238
 11
213.2170613538
 21
184.3477491514
  0
LINE
  5
269
100
AcDbEntity
  8
0
100
AcDbLine
 62
7
  6
CONTINUOUS
 10
216.8427851447
 20
184.3471783946
 11
216.7842670861
 21
184.3475706238
  0
LINE
  5
26A
100
AcDbEntity
  8
0
100
AcDbLine
 62
7
  6
CONTINUOUS
 10
197.6215042844
 20
183.5077961671
 11
197.7064925908
 21
183.5072450361
  0
LINE
  5
26B
100
AcDbEntity
  8
0
100
AcDbLine
 62
7
  6
CONTINUOUS
 10
197.5718462221
 20
183.508398139
 11
197.6215042844
 21
183.5077961671
  0
LWPOLYLINE
  5
26C
100
AcDbEntity
  8
0
100
AcDbPolyline
 62
250
  6
CONTINUOUS
 90
13
 70
0
 10
217.0750604436
 20
183.2276790229
 10
217.0489687593
 20
183.2294016626
 10
217.0233230791
 20
183.2345005925
 10
216.9985617837
 20
183.242888653
 10
216.975108136
 20
183.2544224603
 10
216.9533630465
 20
183.2689048589
 10
216.93369822
 20
183.2860882919
 10
216.9164498018
 20
183.3056790302
 10
216.901912632
 20
183.3273421949
 10
216.8903352053
 20
183.3507074837
 10
216.8819154232
 20
183.3753754973
 10
216.8767972113
 20
183.4009245666
 10
216.875068059
 20
183.4269179625
  0
LWPOLYLINE
  5
26D
100
AcDbEntity
  8
0
100
AcDbPolyline
 62
250
  6
CONTINUOUS
 90
13
 70
0
 10
217.0989875602
 20
183.2377238736
 10
217.0754706189
 20
183.2402238032
 10
217.0523387991
 20
183.2459455347
 10
217.0299709071
 20
183.2547953657
 10
217.0087332392
 20
183.2666283683
 10
216.9889735819
 20
183.2812507627
 10
216.9710155169
 20
183.2984230909
 10
216.9551531237
 20
183.317864137
 10
216.9416461625
 20
183.3392555334
 10
216.9307158198
 20
183.3622469758
 10
216.9225410889
 20
183.3864619571
 10
216.9172558373
 20
183.4115039328
 10
216.9149466141
 20
183.4369628166
  0
LINE
  5
26E
100
AcDbEntity
  8
0
100
AcDbLine
 62
7
  6
CONTINUOUS
 10
201.2376162801
 20
183.5271942251
 11
201.2576735897
 21
183.5071369156
  0
LWPOLYLINE
  5
26F
100
AcDbEntity
  8
0
100
AcDbPolyline
 62
7
  6
CONTINUOUS
 90
10
 70
0
 10
208.349826159
 20
186.0372897052
 10
208.3648838635
 20
186.0411211579
 10
208.3797925659
 20
186.0445954461
 10
208.394552266
 20
186.0477125694
 10
208.4091707325
 20
186.0505155376
 10
208.4236401967
 20
186.0529613407
 10
208.4379373537
 20
186.0549209489
 10
208.4520544349
 20
186.0563513525
 10
208.4659992089
 20
186.0572955609
 10
208.4797716756
 20
186.0577535742
  0
LINE
  5
270
100
AcDbEntity
  8
0
100
AcDbLine
 62
7
  6
CONTINUOUS
 10
208.1707676072
 20
185.7477262878
 11
207.9865928311
 21
185.7231696808
  0
LWPOLYLINE
  5
271
100
AcDbEntity
  8
0
100
AcDbPolyline
 62
7
  6
CONTINUOUS
 90
10
 70
0
 10
208.4634005446
 20
185.300591224
 10
208.5120980491
 20
185.3024786951
 10
208.5585830166
 20
185.3076823929
 10
208.6028554472
 20
185.3162023205
 10
208.6447916217
 20
185.3280396757
 10
208.6845152592
 20
185.3431932733
 10
208.7223975169
 20
185.3616595463
 10
208.758562114
 20
185.3834373137
 10
208.7928853313
 20
185.4085277813
 10
208.8253671688
 20
185.4369309644
  0
LWPOLYLINE
  5
272
100
AcDbEntity
  8
0
100
AcDbPolyline
 62
7
  6
CONTINUOUS
 90
10
 70
0
 10
208.3999627251
 20
186.1969077402
 10
208.3966012576
 20
186.1968896032
 10
208.3932603229
 20
186.1969284925
 10
208.3899399208
 20
186.1970244081
 10
208.3866459298
 20
186.1971715487
 10
208.3833724715
 20
186.1973757156
 10
208.3801019111
 20
186.1976543124
 10
208.3768283705
 20
186.1980131406
 10
208.3735577279
 20
186.1984463987
 10
208.3702899832
 20
186.1989540868
  0
LINE
  5
273
100
AcDbEntity
  8
0
100
AcDbLine
 62
7
  6
CONTINUOUS
 10
204.9988712687
 20
185.3271942251
 11
205.183045866
 21
185.3271942251
  0
LINE
  5
274
100
AcDbEntity
  8
0
100
AcDbLine
 62
7
  6
CONTINUOUS
 10
206.2451196332
 20
185.3271942251
 11
206.4292942304
 21
185.3271942251
  0
LINE
  5
275
100
AcDbEntity
  8
0
100
AcDbLine
 62
7
  6
CONTINUOUS
 10
207.3297033925
 20
185.3271942251
 11
207.5138781685
 21
185.3271942251
  0
LINE
  5
276
100
AcDbEntity
  8
0
100
AcDbLine
 62
7
  6
CONTINUOUS
 10
209.6605355162
 20
185.3271942251
 11
209.8447102923
 21
185.3271942251
  0
LINE
  5
277
100
AcDbEntity
  8
0
100
AcDbLine
 62
7
  6
CONTINUOUS
 10
205.5943692345
 20
185.6863347479
 11
206.2451196332
 21
185.6863347479
  0
LINE
  5
278
100
AcDbEntity
  8
0
100
AcDbLine
 62
7
  6
CONTINUOUS
 10
206.4292942304
 20
185.6863347479
 11
206.6318863053
 21
185.6863347479
  0
LINE
  5
279
100
AcDbEntity
  8
0
100
AcDbLine
 62
7
  6
CONTINUOUS
 10
206.6318863053
 20
185.8551614993
 11
206.4292942304
 21
185.8551614993
  0
LINE
  5
27A
100
AcDbEntity
  8
0
100
AcDbLine
 62
7
  6
CONTINUOUS
 10
206.2451196332
 20
185.8551614993
 11
205.7754743118
 21
185.8551614993
  0
LWPOLYLINE
  5
27B
100
AcDbEntity
  8
0
100
AcDbPolyline
 62
7
  6
CONTINUOUS
 90
10
 70
0
 10
208.4644237179
 20
185.4530468808
 10
208.440104539
 20
185.453921416
 10
208.4167360813
 20
185.4564700246
 10
208.3943183448
 20
185.4606927071
 10
208.3729096333
 20
185.4665740496
 10
208.352451643
 20
185.4741294691
 10
208.3327694627
 20
185.4834052148
 10
208.3138047885
 20
185.494416705
 10
208.2956159243
 20
185.5071485278
 10
208.27820287
 20
185.5216006872
  0
LWPOLYLINE
  5
27C
100
AcDbEntity
  8
0
100
AcDbPolyline
 62
7
  6
CONTINUOUS
 90
10
 70
0
 10
208.4797716756
 20
186.0577535742
 10
208.5079983454
 20
186.0566330677
 10
208.5349832637
 20
186.0534943166
 10
208.5607264305
 20
186.0483373219
 10
208.5851744877
 20
186.0411671755
 10
208.6083807934
 20
186.03197879
 10
208.6305054216
 20
186.0207568991
 10
208.6516017305
 20
186.0074964172
 10
208.6716163619
 20
185.9922024388
 10
208.6905493159
 20
185.9748749697
  0
LWPOLYLINE
  5
27D
100
AcDbEntity
  8
0
100
AcDbPolyline
 62
7
  6
CONTINUOUS
 90
46
 70
0
 10
200.7259129547
 20
214.1797934868
 10
200.7289645411
 20
214.182618871
 10
200.7321112869
 20
214.1853628469
 10
200.7353516059
 20
214.1880241514
 10
200.7386816472
 20
214.1905997362
 10
200.7421019402
 20
214.1930903299
 10
200.7456178875
 20
214.1955000692
 10
200.7492293536
 20
214.1978284337
 10
200.7529340512
 20
214.2000730674
 10
200.7567347699
 20
214.2022348784
 10
200.7606304267
 20
214.2043124491
 10
200.7646198772
 20
214.2063041265
 10
200.768706174
 20
214.2082101262
 10
200.7728884899
 20
214.2100289447
 10
200.7771655791
 20
214.2117587423
 10
200.7815401406
 20
214.2133989048
 10
200.7860114763
 20
214.2149477896
 10
200.7905782347
 20
214.2164034446
 10
200.7952423062
 20
214.2177645226
 10
200.8000027335
 20
214.2190291833
 10
200.8048583064
 20
214.2201954959
 10
200.8098106314
 20
214.2212617571
 10
200.8148587137
 20
214.2222260282
 10
200.8200011991
 20
214.2230863108
 10
200.8252392026
 20
214.2238406184
 10
200.8305704707
 20
214.2244868266
 10
200.8359946349
 20
214.225023034
 10
200.8415157244
 20
214.2254472695
 10
200.8471276008
 20
214.2257572351
 10
200.8528335638
 20
214.225950911
 10
200.8586522146
 20
214.2260255896
 10
200.8645814228
 20
214.2259784205
 10
200.8706207811
 20
214.2258059519
 10
200.8767920837
 20
214.2255025546
 10
200.8830946806
 20
214.2250641418
 10
200.8895266056
 20
214.2244861634
 10
200.8961080823
 20
214.2237601634
 10
200.9028380661
 20
214.2228808122
 10
200.9097143367
 20
214.2218425179
 10
200.9167554779
 20
214.2206343796
 10
200.9239596708
 20
214.2192498499
 10
200.9313242434
 20
214.2176822693
 10
200.9388663518
 20
214.2159185447
 10
200.9465896494
 20
214.2139487029
 10
200.95448414
 20
214.2117669774
 10
200.9625460299
 20
214.2093655289
  0
LWPOLYLINE
  5
27E
100
AcDbEntity
  8
0
100
AcDbPolyline
 62
250
  6
CONTINUOUS
 90
16
 70
0
 10
201.9208592947
 20
213.2428421212
 10
201.9223144611
 20
213.2435412075
 10
201.9237268037
 20
213.2442903129
 10
201.9250963225
 20
213.2450894374
 10
201.9264311075
 20
213.245936581
 10
201.9277230686
 20
213.2468337437
 10
201.9289479362
 20
213.2477869251
 10
201.930109874
 20
213.2487979186
 10
201.9312047182
 20
213.2498649308
 10
201.9321957076
 20
213.2509885818
 10
201.9330850632
 20
213.2521690583
 10
201.933870564
 20
213.2534061734
 10
201.9345087846
 20
213.2546999869
 10
201.93498525
 20
213.2560505186
 10
201.9353144353
 20
213.2574577487
 10
201.9354963404
 20
213.258921677
  0
LINE
  5
27F
100
AcDbEntity
  8
0
100
AcDbLine
 62
7
  6
CONTINUOUS
 10
201.8296334901
 20
213.2485004324
 11
201.63488203
 21
213.1553519528
  0
LINE
  5
280
100
AcDbEntity
  8
0
100
AcDbLine
 62
250
  6
CONTINUOUS
 10
201.4741035029
 20
213.0345164742
 11
201.9208592947
 21
213.2428421212
  0
LINE
  5
281
100
AcDbEntity
  8
0
100
AcDbLine
 62
250
  6
CONTINUOUS
 10
201.5801697049
 20
212.8985703923
 11
202.0269253119
 21
213.1068959532
  0
LINE
  5
282
100
AcDbEntity
  8
0
100
AcDbLine
 62
7
  6
CONTINUOUS
 10
197.4775461001
 20
211.2456402936
 11
197.4405056152
 21
211.2333034979
  0
LINE
  5
283
100
AcDbEntity
  8
0
100
AcDbLine
 62
7
  6
CONTINUOUS
 10
201.5437281491
 20
214.2753363607
 11
201.2957629856
 21
214.1984981407
  0
LINE
  5
284
100
AcDbEntity
  8
0
100
AcDbLine
 62
7
  6
CONTINUOUS
 10
201.2957629856
 20
214.1984981407
 11
201.2238096616
 21
214.17660778
  0
LWPOLYLINE
  5
285
100
AcDbEntity
  8
0
100
AcDbPolyline
 62
250
  6
CONTINUOUS
 90
13
 70
0
 10
213.4193617655
 20
187.5383476861
 10
213.4453853607
 20
187.5401216032
 10
213.4709654086
 20
187.545270589
 10
213.4956657595
 20
187.553706912
 10
213.5190652552
 20
187.565286791
 10
213.5407648941
 20
187.579812837
 10
213.5603946393
 20
187.5970374102
 10
213.5776197592
 20
187.6166668644
 10
213.592146505
 20
187.6383665298
 10
213.6037271217
 20
187.6617663973
 10
213.6121641087
 20
187.6864674753
 10
213.6173135753
 20
187.7120486009
 10
213.6190876789
 20
187.7380735866
  0
LINE
  5
286
100
AcDbEntity
  8
0
100
AcDbLine
 62
250
  6
CONTINUOUS
 10
212.9835549154
 20
187.5482806797
 11
212.7888034552
 21
187.5378118297
  0
LINE
  5
287
100
AcDbEntity
  8
0
100
AcDbLine
 62
250
  6
CONTINUOUS
 10
212.8403505302
 20
187.7480065867
 11
212.6455990701
 21
187.7375377366
  0
LWPOLYLINE
  5
288
100
AcDbEntity
  8
0
100
AcDbPolyline
 62
7
  6
CONTINUOUS
 90
10
 70
0
 10
208.4562383313
 20
186.8333334439
 10
208.4166196419
 20
186.8318809707
 10
208.378682786
 20
186.8279239832
 10
208.3424277634
 20
186.8214624832
 10
208.3079185357
 20
186.8124625771
 10
208.2750911415
 20
186.8009581651
 10
208.2437536962
 20
186.7870509408
 10
208.2138422384
 20
186.7707748059
 10
208.1854207295
 20
186.7520958711
 10
208.1584891696
 20
186.7310141438
  0
LINE
  5
289
100
AcDbEntity
  8
0
100
AcDbLine
 62
250
  6
CONTINUOUS
 10
201.0377576696
 20
187.7463160229
 11
200.9843366768
 21
187.7452266063
  0
LINE
  5
28A
100
AcDbEntity
  8
0
100
AcDbLine
 62
7
  6
CONTINUOUS
 10
201.5876162801
 20
187.5267690058
 11
201.6896299302
 21
187.5282015449
  0
LINE
  5
28B
100
AcDbEntity
  8
0
100
AcDbLine
 62
250
  6
CONTINUOUS
 10
201.1028700944
 20
187.7472127033
 11
201.0377576696
 21
187.7463160229
  0
LWPOLYLINE
  5
28C
100
AcDbEntity
  8
0
100
AcDbPolyline
 62
7
  6
CONTINUOUS
 90
8
 70
0
 10
213.2868318724
 20
187.479600961
 10
213.2805632082
 20
187.479535894
 10
213.2739799037
 20
187.4793913506
 10
213.2675105169
 20
187.4791859346
 10
213.2619414833
 20
187.4789219305
 10
213.257534948
 20
187.4786000999
 10
213.2540287658
 20
187.4782196812
 10
213.2514229368
 20
187.4777806744
  0
LWPOLYLINE
  5
28D
100
AcDbEntity
  8
0
100
AcDbPolyline
 62
250
  6
CONTINUOUS
 90
18
 70
0
 10
201.23526962
 20
187.5482149986
 10
201.2158120701
 20
187.5480628765
 10
201.1972240517
 20
187.5478243134
 10
201.1793318433
 20
187.5474870323
 10
201.1623091666
 20
187.5470633103
 10
201.1466771864
 20
187.5465899785
 10
201.1326413884
 20
187.54607015
 10
201.119996287
 20
187.5455007116
 10
201.1086465906
 20
187.5449091552
 10
201.0986716456
 20
187.5443064324
 10
201.0899921057
 20
187.5436815916
 10
201.0822746408
 20
187.5430292688
 10
201.0753946584
 20
187.5423543354
 10
201.0694767511
 20
187.5416519201
 10
201.0645613663
 20
187.5409020453
 10
201.0606619865
 20
187.5400980518
 10
201.0577651293
 20
187.5392465987
 10
201.0558707947
 20
187.5383476861
  0
LWPOLYLINE
  5
28E
100
AcDbEntity
  8
0
100
AcDbPolyline
 62
7
  6
CONTINUOUS
 90
8
 70
0
 10
201.1086676867
 20
187.4796191423
 10
201.1007209539
 20
187.47955978
 10
201.0932495967
 20
187.4794117143
 10
201.0862653091
 20
187.4791980633
 10
201.0803639272
 20
187.4789272877
 10
201.0757440631
 20
187.4786022078
 10
201.0722071049
 20
187.4782200034
 10
201.0697530524
 20
187.4777806744
  0
LINE
  5
28F
100
AcDbEntity
  8
0
100
AcDbLine
 62
250
  6
CONTINUOUS
 10
201.1764127586
 20
187.7477884409
 11
201.1028700944
 21
187.7472127033
  0
LINE
  5
290
100
AcDbEntity
  8
0
100
AcDbLine
 62
250
  6
CONTINUOUS
 10
217.3750490206
 20
186.5181866958
 11
218.0427253395
 21
186.5181866958
  0
LINE
  5
291
100
AcDbEntity
  8
0
100
AcDbLine
 62
7
  6
CONTINUOUS
 10
206.4292942304
 20
186.8271942251
 11
206.2788848896
 21
186.8271942251
  0
LINE
  5
292
100
AcDbEntity
  8
0
100
AcDbLine
 62
7
  6
CONTINUOUS
 10
209.8447102923
 20
186.8333334439
 11
209.72602004
 21
186.8333334439
  0
LINE
  5
293
100
AcDbEntity
  8
0
100
AcDbLine
 62
7
  6
CONTINUOUS
 10
207.5138781685
 20
186.8333334439
 11
207.3951877374
 21
186.8333334439
  0
LINE
  5
294
100
AcDbEntity
  8
0
100
AcDbLine
 62
7
  6
CONTINUOUS
 10
205.183045866
 20
186.8333334439
 11
205.064355569
 21
186.8333334439
  0
LINE
  5
295
100
AcDbEntity
  8
0
100
AcDbLine
 62
250
  6
CONTINUOUS
 10
217.8443262091
 20
186.916664575
 11
217.0989875684
 21
186.916664575
  0
LINE
  5
296
100
AcDbEntity
  8
0
100
AcDbLine
 62
7
  6
CONTINUOUS
 10
217.8181469275
 20
187.0771942251
 11
217.0976162801
 21
187.0771942251
  0
LINE
  5
297
100
AcDbEntity
  8
0
100
AcDbLine
 62
7
  6
CONTINUOUS
 10
201.5437281491
 20
187.3790520896
 11
201.5876162801
 21
187.3790520896
  0
LINE
  5
298
100
AcDbEntity
  8
0
100
AcDbLine
 62
7
  6
CONTINUOUS
 10
212.8876162801
 20
187.3790520896
 11
212.9315044111
 21
187.3790520896
  0
LINE
  5
299
100
AcDbEntity
  8
0
100
AcDbLine
 62
250
  6
CONTINUOUS
 10
201.4916776448
 20
187.5482806797
 11
201.23526962
 21
187.5482149986
  0
LINE
  5
29A
100
AcDbEntity
  8
0
100
AcDbLine
 62
250
  6
CONTINUOUS
 10
212.6455990701
 20
187.7375377366
 11
212.5888339162
 21
187.7375377366
  0
LINE
  5
29B
100
AcDbEntity
  8
0
100
AcDbLine
 62
250
  6
CONTINUOUS
 10
201.886398644
 20
187.7375377366
 11
201.8296334901
 21
187.7375377366
  0
LINE
  5
29C
100
AcDbEntity
  8
0
100
AcDbLine
 62
250
  6
CONTINUOUS
 10
201.63488203
 20
187.7480065867
 11
201.1764127586
 21
187.7477884409
  0
LINE
  5
29D
100
AcDbEntity
  8
0
100
AcDbLine
 62
7
  6
CONTINUOUS
 10
213.3670870679
 20
187.479615138
 11
213.2868318724
 21
187.479600961
  0
LINE
  5
29E
100
AcDbEntity
  8
0
100
AcDbLine
 62
250
  6
CONTINUOUS
 10
213.2368700845
 20
187.5482285262
 11
212.9835549154
 21
187.5482806797
  0
LINE
  5
29F
100
AcDbEntity
  8
0
100
AcDbLine
 62
250
  6
CONTINUOUS
 10
213.2866907508
 20
187.7478470879
 11
212.8403505302
 21
187.7480065867
  0
LINE
  5
2A0
100
AcDbEntity
  8
0
100
AcDbLine
 62
250
  6
CONTINUOUS
 10
213.3470321096
 20
187.7474670102
 11
213.2866907508
 21
187.7478470879
  0
LINE
  5
2A1
100
AcDbEntity
  8
0
100
AcDbLine
 62
250
  6
CONTINUOUS
 10
213.4008506921
 20
187.7468694105
 11
213.3470321096
 21
187.7474670102
  0
LINE
  5
2A2
100
AcDbEntity
  8
0
100
AcDbLine
 62
7
  6
CONTINUOUS
 10
212.78560263
 20
187.5282015449
 11
212.8876162801
 21
187.5267690058
  0
LWPOLYLINE
  5
2A3
100
AcDbEntity
  8
0
100
AcDbPolyline
 62
250
  6
CONTINUOUS
 90
4
 70
0
 10
213.2970221595
 20
187.5474681827
 10
213.283327152
 20
187.54774124
 10
213.2687789485
 20
187.5479593362
 10
213.2368700845
 20
187.5482285262
  0
LWPOLYLINE
  5
2A4
100
AcDbEntity
  8
0
100
AcDbPolyline
 62
250
  6
CONTINUOUS
 90
3
 70
0
 10
213.4752492798
 20
187.7455873211
 10
213.4510390071
 20
187.7460778905
 10
213.4008506921
 20
187.7468694105
  0
LWPOLYLINE
  5
2A5
100
AcDbEntity
  8
0
100
AcDbPolyline
 62
7
  6
CONTINUOUS
 90
19
 70
0
 10
217.8603648634
 20
187.0774554177
 10
217.8804029663
 20
187.0767734117
 10
217.900055643
 20
187.0742257837
 10
217.9191387137
 20
187.0698992307
 10
217.9375665179
 20
187.0638797084
 10
217.955094727
 20
187.0562841487
 10
217.9713577955
 20
187.0473352314
 10
217.9861745696
 20
187.0373138547
 10
217.9996143353
 20
187.0263491222
 10
218.011735725
 20
187.0144736698
 10
218.0225383223
 20
187.0018058762
 10
218.0319730455
 20
186.988529072
 10
218.0400302095
 20
186.9747414985
 10
218.0467199706
 20
186.9605982868
 10
218.0520872843
 20
186.9462152783
 10
218.0561837501
 20
186.9316159077
 10
218.0590504174
 20
186.9168751954
 10
218.0607306082
 20
186.9021243083
 10
218.0612786466
 20
186.8874536913
  0
LWPOLYLINE
  5
2A6
100
AcDbEntity
  8
0
100
AcDbPolyline
 62
7
  6
CONTINUOUS
 90
10
 70
0
 10
208.4603310246
 20
186.6819009298
 10
208.4842484711
 20
186.6809726824
 10
208.5070772362
 20
186.6783973675
 10
208.52881732
 20
186.6741749859
 10
208.5494524575
 20
186.6682823296
 10
208.5689989136
 20
186.6607426094
 10
208.5875054835
 20
186.6516254548
 10
208.6049884323
 20
186.6409540775
 10
208.621431495
 20
186.6287052713
 10
208.6368346714
 20
186.6148790393
  0
LINE
  5
2A7
100
AcDbEntity
  8
0
100
AcDbLine
 62
250
  6
CONTINUOUS
 10
201.686429105
 20
187.5378118297
 11
201.4916776448
 21
187.5482806797
  0
LINE
  5
2A8
100
AcDbEntity
  8
0
100
AcDbLine
 62
250
  6
CONTINUOUS
 10
201.8296334901
 20
187.7375377366
 11
201.63488203
 21
187.7480065867
  0
LWPOLYLINE
  5
2A9
100
AcDbEntity
  8
0
100
AcDbPolyline
 62
250
  6
CONTINUOUS
 90
13
 70
0
 10
217.8443262091
 20
186.916664575
 10
217.8704178946
 20
186.9149419398
 10
217.8960635754
 20
186.9098430121
 10
217.9208248713
 20
186.9014549515
 10
217.944278519
 20
186.8899211412
 10
217.9660236081
 20
186.8754387374
 10
217.985688434
 20
186.8582552994
 10
218.0029368514
 20
186.8386645565
 10
218.0174740204
 20
186.8170013876
 10
218.0290514466
 20
186.7936360975
 10
218.0374712286
 20
186.7689680865
 10
218.0425894407
 20
186.7434190228
 10
218.0443185937
 20
186.7174256354
  0
LWPOLYLINE
  5
2AA
100
AcDbEntity
  8
0
100
AcDbPolyline
 62
250
  6
CONTINUOUS
 90
13
 70
0
 10
201.0558707947
 20
187.5383476861
 10
201.0298464344
 20
187.5401217059
 10
201.0042658084
 20
187.5452709519
 10
200.9795650854
 20
187.5537076257
 10
200.956165431
 20
187.5652878754
 10
200.9344658265
 20
187.5798142495
 10
200.9148362669
 20
187.5970390631
 10
200.8976114506
 20
187.61666862
 10
200.8830850735
 20
187.6383682221
 10
200.8715048221
 20
187.6617678757
 10
200.8630681485
 20
187.6864685999
 10
200.8579189043
 20
187.7120492286
 10
200.8561448878
 20
187.7380735931
  0
LWPOLYLINE
  5
2AB
100
AcDbEntity
  8
0
100
AcDbPolyline
 62
7
  6
CONTINUOUS
 90
9
 70
0
 10
201.2238095889
 20
187.4777806781
 10
201.2211909162
 20
187.4782226127
 10
201.217647065
 20
187.478605212
 10
201.2131780353
 20
187.4789284761
 10
201.2075330493
 20
187.4791931465
 10
201.2009628847
 20
187.4793984817
 10
201.1942198749
 20
187.4795422575
 10
201.1876324884
 20
187.4796054256
 10
201.1086676867
 20
187.4796191423
  0
LINE
  5
2AC
100
AcDbEntity
  8
0
100
AcDbLine
 62
7
  6
CONTINUOUS
 10
208.0050103087
 20
186.4445202463
 11
208.1891850848
 21
186.4117781633
  0
LINE
  5
2AD
100
AcDbEntity
  8
0
100
AcDbLine
 62
7
  6
CONTINUOUS
 10
201.2957621355
 20
187.455890571
 11
201.2238095889
 21
187.4777806781
  0
LINE
  5
2AE
100
AcDbEntity
  8
0
100
AcDbLine
 62
7
  6
CONTINUOUS
 10
201.5437281491
 20
187.3790520896
 11
201.2957621355
 21
187.455890571
  0
LINE
  5
2AF
100
AcDbEntity
  8
0
100
AcDbLine
 62
7
  6
CONTINUOUS
 10
197.4775461001
 20
190.4087481567
 11
197.4405056152
 21
190.4210849524
  0
LWPOLYLINE
  5
2B0
100
AcDbEntity
  8
0
100
AcDbPolyline
 62
250
  6
CONTINUOUS
 90
13
 70
0
 10
201.4741035029
 20
188.6198719761
 10
201.4719417204
 20
188.6208234058
 10
201.4696670908
 20
188.6217101768
 10
201.4672796139
 20
188.6225322892
 10
201.4648037661
 20
188.6232895995
 10
201.4622150711
 20
188.6239822512
 10
201.4594400998
 20
188.6246106746
 10
201.4564537627
 20
188.6251873241
 10
201.4532811493
 20
188.6256997453
 10
201.4499240988
 20
188.6261110061
 10
201.4463832242
 20
188.6264087957
 10
201.4426579126
 20
188.6266054249
 10
201.4387481638
 20
188.6267008936
  0
LINE
  5
2B1
100
AcDbEntity
  8
0
100
AcDbLine
 62
250
  6
CONTINUOUS
 10
201.9208592947
 20
188.411546329
 11
201.4741035029
 21
188.6198719761
  0
LINE
  5
2B2
100
AcDbEntity
  8
0
100
AcDbLine
 62
250
  6
CONTINUOUS
 10
202.0269253119
 20
188.5474924971
 11
201.580170706
 21
188.7558175911
  0
LINE
  5
2B3
100
AcDbEntity
  8
0
100
AcDbLine
 62
7
  6
CONTINUOUS
 10
201.8296334901
 20
188.4058880179
 11
201.63488203
 21
188.4990364975
  0
LWPOLYLINE
  5
2B4
100
AcDbEntity
  8
0
100
AcDbPolyline
 62
250
  6
CONTINUOUS
 90
19
 70
0
 10
196.3751797469
 20
179.3873510379
 10
196.3802468467
 20
179.3423631859
 10
196.3893004289
 20
179.2983303798
 10
196.4021598057
 20
179.2555855611
 10
196.4187312441
 20
179.2142135498
 10
196.4387157389
 20
179.174743201
 10
196.4614274715
 20
179.1380621301
 10
196.486371886
 20
179.1044584307
 10
196.5132325607
 20
179.0738520583
 10
196.5414049069
 20
179.0463952398
 10
196.5701185359
 20
179.0223463199
 10
196.5993868786
 20
179.0012803762
 10
196.6299235926
 20
178.9824301377
 10
196.6614775664
 20
178.9658755838
 10
196.6939558551
 20
178.9516632795
 10
196.728540933
 20
178.9394112845
 10
196.7655809436
 20
178.9293261826
 10
196.8044761994
 20
178.9219119458
 10
196.8450241568
 20
178.917502827
  0
LWPOLYLINE
  5
2B5
100
AcDbEntity
  8
0
100
AcDbPolyline
 62
250
  6
CONTINUOUS
 90
19
 70
0
 10
196.6570856327
 20
179.3873491374
 10
196.6580953821
 20
179.3679949192
 10
196.6606887441
 20
179.3494222598
 10
196.6648657186
 20
179.3316311591
 10
196.6707977858
 20
179.3144494951
 10
196.6783134654
 20
179.2980493899
 10
196.6868983176
 20
179.2829472098
 10
196.6965721451
 20
179.2692987522
 10
196.7073151452
 20
179.2569482198
 10
196.7185534687
 20
179.2459445867
 10
196.730078247
 20
179.2364097366
 10
196.7420983489
 20
179.2282217859
 10
196.7546665309
 20
179.221064058
 10
196.7676769216
 20
179.2148201941
 10
196.7812353924
 20
179.2096065529
 10
196.7957123143
 20
179.2054555343
 10
196.8112311441
 20
179.2023779381
 10
196.827668425
 20
179.2003629644
 10
196.8450241568
 20
179.1994106132
  0
LWPOLYLINE
  5
2B6
100
AcDbEntity
  8
0
100
AcDbPolyline
 62
7
  6
CONTINUOUS
 90
10
 70
0
 10
200.8561448878
 20
213.1421094363
 10
200.8610910293
 20
213.1513102982
 10
200.8707387297
 20
213.1599340255
 10
200.8845302446
 20
213.1672814355
 10
200.9017307766
 20
213.172707508
 10
200.9216839996
 20
213.1759138402
 10
200.9439871191
 20
213.1768109785
 10
200.9681118828
 20
213.1751593975
 10
200.9932855106
 20
213.1707065981
 10
201.0188274953
 20
213.1633807242
  0
LWPOLYLINE
  5
2B7
100
AcDbEntity
  8
0
100
AcDbPolyline
 62
250
  6
CONTINUOUS
 90
16
 70
0
 10
201.0697529218
 20
214.176607664
 10
201.0767301476
 20
214.1866735866
 10
201.0850721114
 20
214.1956973129
 10
201.0946155656
 20
214.2034888428
 10
201.1051778969
 20
214.2098675478
 10
201.1165344331
 20
214.2147153982
 10
201.1284466661
 20
214.2179884475
 10
201.1406947933
 20
214.2196435829
 10
201.1530564692
 20
214.2196309063
 10
201.165300456
 20
214.2179506713
 10
201.1772103724
 20
214.2146511998
 10
201.1885600449
 20
214.2097771344
 10
201.199095764
 20
214.2033844202
 10
201.2085934958
 20
214.1956019601
 10
201.2168832147
 20
214.1866120719
 10
201.2238098566
 20
214.1766074952
  0
LINE
  5
2B8
100
AcDbEntity
  8
0
100
AcDbLine
 62
250
  6
CONTINUOUS
 10
200.8718672216
 20
210.7537959269
 11
200.7449914268
 21
210.6269201321
  0
LWPOLYLINE
  5
2B9
100
AcDbEntity
  8
0
100
AcDbPolyline
 62
7
  6
CONTINUOUS
 90
43
 70
0
 10
210.5810090308
 20
219.3376115191
 10
210.6016495906
 20
219.3550084114
 10
210.6121536795
 20
219.3641385999
 10
210.6227542911
 20
219.3737456963
 10
210.6334921335
 20
219.3837959762
 10
210.6443264984
 20
219.3943231619
 10
210.6551352193
 20
219.4055302997
 10
210.6659357531
 20
219.4174379146
 10
210.6767106428
 20
219.430025478
 10
210.68728535
 20
219.4434344542
 10
210.6976426601
 20
219.4576895097
 10
210.7077997878
 20
219.4727659729
 10
210.7176338391
 20
219.4887313007
 10
210.7271661206
 20
219.5056137715
 10
210.7363753257
 20
219.5233851002
 10
210.7450746414
 20
219.5420278977
 10
210.7532679323
 20
219.5615203999
 10
210.7609513337
 20
219.5818843633
 10
210.7679264378
 20
219.6031676799
 10
210.7742004819
 20
219.6253368486
 10
210.7797662287
 20
219.6484253613
 10
210.7844035586
 20
219.6725815978
 10
210.7881371457
 20
219.6978463271
 10
210.790942316
 20
219.7241787679
 10
210.7925249277
 20
219.7516049727
 10
210.7929505081
 20
219.7801630628
 10
210.7921535299
 20
219.8098149026
 10
210.7896432702
 20
219.8404721588
 10
210.7854661819
 20
219.872382472
 10
210.7795758121
 20
219.9052981856
 10
210.7713420783
 20
219.9383880276
 10
210.7606342391
 20
219.9716732065
 10
210.747583036
 20
220.0051325106
 10
210.7319506117
 20
220.0378710502
 10
210.7136351882
 20
220.069848966
 10
210.6927385434
 20
220.101106128
 10
210.6693281538
 20
220.1308672525
 10
210.6431684149
 20
220.1592487364
 10
210.6144949312
 20
220.1861342023
 10
210.5840819931
 20
220.2103992173
 10
210.5521876974
 20
220.2316689827
 10
210.5185539472
 20
220.2503183264
 10
210.4831807426
 20
220.2663472598
  0
LINE
  5
2BA
100
AcDbEntity
  8
0
100
AcDbLine
 62
7
  6
CONTINUOUS
 10
217.0062714488
 20
217.3116074943
 11
217.0530696677
 21
217.3271942251
  0
LWPOLYLINE
  5
2BB
100
AcDbEntity
  8
0
100
AcDbPolyline
 62
250
  6
CONTINUOUS
 90
13
 70
0
 10
201.686429105
 20
187.5378118297
 10
201.7047092606
 20
187.5403750181
 10
201.7226904484
 20
187.5461596771
 10
201.7400788907
 20
187.5550711425
 10
201.7565896553
 20
187.5669629528
 10
201.7719540175
 20
187.5816411013
 10
201.7859231781
 20
187.5988686595
 10
201.7982726213
 20
187.6183730699
 10
201.8087939169
 20
187.6398300421
 10
201.8173066562
 20
187.6628657025
 10
201.823675279
 20
187.6870920013
 10
201.8278046991
 20
187.7121189243
 10
201.8296334901
 20
187.7375377366
  0
LWPOLYLINE
  5
2BC
100
AcDbEntity
  8
0
100
AcDbPolyline
 62
250
  6
CONTINUOUS
 90
13
 70
0
 10
201.4916776448
 20
187.5482806797
 10
201.5099660893
 20
187.5508457768
 10
201.5279542345
 20
187.5566348633
 10
201.5453480214
 20
187.5655526315
 10
201.5618624537
 20
187.5774520283
 10
201.5772286195
 20
187.5921383046
 10
201.5911974922
 20
187.6093734881
 10
201.6035453559
 20
187.6288852636
 10
201.6140634093
 20
187.6503478902
 10
201.6225704566
 20
187.6733830452
 10
201.6289322532
 20
187.6976004445
 10
201.6330559892
 20
187.7226110754
 10
201.63488203
 20
187.7480065867
  0
LINE
  5
2BD
100
AcDbEntity
  8
0
100
AcDbLine
 62
7
  6
CONTINUOUS
 10
201.8885473396
 20
188.2850099912
 11
201.9393932051
 21
188.2913630174
  0
LWPOLYLINE
  5
2BE
100
AcDbEntity
  8
0
100
AcDbPolyline
 62
250
  6
CONTINUOUS
 90
19
 70
0
 10
212.4483072483
 20
188.5474924971
 10
212.4433557516
 20
188.5468940055
 10
212.4385204164
 20
188.5462660196
 10
212.4338161978
 20
188.5456085396
 10
212.4292698128
 20
188.5449234205
 10
212.4248845148
 20
188.5442088071
 10
212.4206458949
 20
188.5434591342
 10
212.4165738168
 20
188.5426739316
 10
212.4126936409
 20
188.5418536695
 10
212.4090101793
 20
188.5409941922
 10
212.4055522383
 20
188.5400949225
 10
212.4023504438
 20
188.5391564377
 10
212.399423294
 20
188.5381763141
 10
212.3968072727
 20
188.5371538686
 10
212.3945413389
 20
188.5360897843
 10
212.3926587239
 20
188.5349836869
 10
212.3912026285
 20
188.5338354515
 10
212.3902208319
 20
188.532645203
 10
212.3897590655
 20
188.5314129413
  0
LWPOLYLINE
  5
2BF
100
AcDbEntity
  8
0
100
AcDbPolyline
 62
250
  6
CONTINUOUS
 90
10
 70
0
 10
213.4535709084
 20
188.5162251434
 10
213.4792254158
 20
188.5187477239
 10
213.5041223842
 20
188.5252110547
 10
213.5275264386
 20
188.5354243178
 10
213.5487462936
 20
188.5490859288
 10
213.5671551075
 20
188.5657924415
 10
213.5822090294
 20
188.5850504329
 10
213.5934633507
 20
188.606291092
 10
213.6005856136
 20
188.6288870453
 10
213.6033653882
 20
188.6521708702
  0
LWPOLYLINE
  5
2C0
100
AcDbEntity
  8
0
100
AcDbPolyline
 62
250
  6
CONTINUOUS
 90
10
 70
0
 10
201.9354963404
 20
188.3954667732
 10
201.9614192625
 20
188.397686111
 10
201.9865618881
 20
188.4039307
 10
202.0101674106
 20
188.4140125735
 10
202.0315252915
 20
188.4276282604
 10
202.0499926473
 20
188.4443679204
 10
202.0650136012
 20
188.4637276803
 10
202.0761360155
 20
188.4851248
 10
202.0830251015
 20
188.5079152144
 10
202.0854734955
 20
188.5314129198
  0
LWPOLYLINE
  5
2C1
100
AcDbEntity
  8
0
100
AcDbPolyline
 62
250
  6
CONTINUOUS
 90
13
 70
0
 10
201.686429105
 20
187.5378118297
 10
201.7125391495
 20
187.5395454856
 10
201.7382003654
 20
187.5446686535
 10
201.7629735875
 20
187.5530929246
 10
201.7864340634
 20
187.5646728789
 10
201.8081816746
 20
187.579209985
 10
201.8278470013
 20
187.5964572061
 10
201.8450995676
 20
187.6161281679
 10
201.859635092
 20
187.6378798882
 10
201.8711932745
 20
187.6613138805
 10
201.8795835083
 20
187.6860157874
 10
201.8846774239
 20
187.711569327
 10
201.886398644
 20
187.7375377366
  0
LWPOLYLINE
  5
2C2
100
AcDbEntity
  8
0
100
AcDbPolyline
 62
250
  6
CONTINUOUS
 90
9
 70
0
 10
200.9418563915
 20
187.744032098
 10
200.9244992582
 20
187.7434071455
 10
200.9089525834
 20
187.7427548676
 10
200.8953051121
 20
187.7420803166
 10
200.8836001014
 20
187.7413784403
 10
200.8735260241
 20
187.740628867
 10
200.8653019769
 20
187.7398248061
 10
200.8593999063
 20
187.7389730481
 10
200.8561448878
 20
187.7380735931
  0
LINE
  5
2C3
100
AcDbEntity
  8
0
100
AcDbLine
 62
250
  6
CONTINUOUS
 10
200.9843366768
 20
187.7452266063
 11
200.9418563915
 21
187.744032098
  0
LWPOLYLINE
  5
2C4
100
AcDbEntity
  8
0
100
AcDbPolyline
 62
250
  6
CONTINUOUS
 90
19
 70
0
 10
201.2713190355
 20
188.6267008936
 10
201.2470505106
 20
188.6260929413
 10
201.2235505551
 20
188.6245158329
 10
201.2008191689
 20
188.6219695685
 10
201.1785617017
 20
188.6183314659
 10
201.1570728039
 20
188.6137242072
 10
201.1372364269
 20
188.6085158387
 10
201.1193406938
 20
188.6027151
 10
201.1030974815
 20
188.5963132515
 10
201.0885263719
 20
188.5896521209
 10
201.0757724512
 20
188.5828570778
 10
201.0646906332
 20
188.5758027526
 10
201.0548652415
 20
188.5684548644
 10
201.0461504893
 20
188.5608726901
 10
201.0386921634
 20
188.5529969527
 10
201.0325119482
 20
188.5446155405
 10
201.027617072
 20
188.5356577496
 10
201.0240003065
 20
188.5261942839
 10
201.0216616518
 20
188.5162251434
  0
LWPOLYLINE
  5
2C5
100
AcDbEntity
  8
0
100
AcDbPolyline
 62
250
  6
CONTINUOUS
 90
15
 70
0
 10
213.0070090845
 20
188.762392382
 10
212.9994411656
 20
188.7622447826
 10
212.991752903
 20
188.7620564823
 10
212.9839548549
 20
188.7618281234
 10
212.9760706219
 20
188.7615590636
 10
212.9680784564
 20
188.7612408952
 10
212.9599984223
 20
188.7608738242
 10
212.9518596357
 20
188.7604576446
 10
212.943660738
 20
188.7599833312
 10
212.9354312746
 20
188.7594508556
 10
212.9272104407
 20
188.7588602462
 10
212.9190192388
 20
188.7582025622
 10
212.910895791
 20
188.7574748234
 10
212.9028934705
 20
188.75668001
 10
212.8950628329
 20
188.755818122
  0
LWPOLYLINE
  5
2C6
100
AcDbEntity
  8
0
100
AcDbPolyline
 62
250
  6
CONTINUOUS
 90
19
 70
0
 10
201.2713190355
 20
188.7626470586
 10
201.2330088679
 20
188.7620377364
 10
201.19529837
 20
188.7604597103
 10
201.1585194657
 20
188.7579129804
 10
201.1227015182
 20
188.7542750594
 10
201.0884421742
 20
188.7496684346
 10
201.0567870505
 20
188.7444605679
 10
201.0280723003
 20
188.7386599698
 10
201.0020848942
 20
188.7322581298
 10
200.9788509633
 20
188.7255969791
 10
200.9585495394
 20
188.7188017633
 10
200.9408156939
 20
188.7117472366
 10
200.9249931465
 20
188.7043995932
 10
200.9111647795
 20
188.6968186517
 10
200.8993516608
 20
188.6889445934
 10
200.8892274946
 20
188.6805641564
 10
200.8809951192
 20
188.6716062534
 10
200.8751071323
 20
188.6621419718
 10
200.8718672216
 20
188.6521713115
  0
LWPOLYLINE
  5
2C7
100
AcDbEntity
  8
0
100
AcDbPolyline
 62
250
  6
CONTINUOUS
 90
19
 70
0
 10
213.0364843964
 20
188.6267008936
 10
213.0346739884
 20
188.6266880495
 10
213.0328422187
 20
188.6266409677
 10
213.0309890874
 20
188.6265596483
 10
213.0291160312
 20
188.62644624
 10
213.0272216132
 20
188.626298594
 10
213.0253015233
 20
188.6261102639
 10
213.0233526497
 20
188.6258818926
 10
213.0213781041
 20
188.6256128373
 10
213.0193829114
 20
188.6252947229
 10
213.0173639356
 20
188.6249278401
 10
213.0153243128
 20
188.6245118983
 10
213.0132784759
 20
188.6240376513
 10
213.0112228203
 20
188.6235048797
 10
213.0091609506
 20
188.6229138028
 10
213.0071181147
 20
188.6222558329
 10
213.0051027285
 20
188.6215281071
 10
213.003106376
 20
188.6207334882
 10
213.0011290573
 20
188.6198719761
  0
LWPOLYLINE
  5
2C8
100
AcDbEntity
  8
0
100
AcDbPolyline
 62
250
  6
CONTINUOUS
 90
3
 70
0
 10
213.0292620143
 20
188.7626341815
 10
213.0219314065
 20
188.7625870814
 10
213.0070090845
 20
188.762392382
  0
LINE
  5
2C9
100
AcDbEntity
  8
0
100
AcDbLine
 62
7
  6
CONTINUOUS
 10
213.2196358585
 20
188.5271942251
 11
212.9835549154
 21
188.5271942251
  0
LINE
  5
2CA
100
AcDbEntity
  8
0
100
AcDbLine
 62
7
  6
CONTINUOUS
 10
201.4916776448
 20
188.5271942251
 11
201.2555967017
 21
188.5271942251
  0
LINE
  5
2CB
100
AcDbEntity
  8
0
100
AcDbLine
 62
250
  6
CONTINUOUS
 10
213.2039135248
 20
188.6267008936
 11
213.0364843964
 21
188.6267008936
  0
LINE
  5
2CC
100
AcDbEntity
  8
0
100
AcDbLine
 62
250
  6
CONTINUOUS
 10
201.4387481638
 20
188.6267008936
 11
201.2713190355
 21
188.6267008936
  0
LINE
  5
2CD
100
AcDbEntity
  8
0
100
AcDbLine
 62
250
  6
CONTINUOUS
 10
213.2039135248
 20
188.7626470617
 11
213.0292620143
 21
188.7626341815
  0
LINE
  5
2CE
100
AcDbEntity
  8
0
100
AcDbLine
 62
250
  6
CONTINUOUS
 10
201.4387481638
 20
188.7626470617
 11
201.2713190355
 21
188.7626470617
  0
LWPOLYLINE
  5
2CF
100
AcDbEntity
  8
0
100
AcDbPolyline
 62
250
  6
CONTINUOUS
 90
13
 70
0
 10
212.7888034552
 20
187.5378118297
 10
212.7626936087
 20
187.5395454594
 10
212.7370325859
 20
187.5446685485
 10
212.7122595416
 20
187.5530926886
 10
212.6887992491
 20
187.5646724443
 10
212.6670517799
 20
187.5792092987
 10
212.6473864651
 20
187.5964563
 10
212.6301337766
 20
187.6161271463
 10
212.6155980631
 20
187.6378788578
 10
212.6040396723
 20
187.6613129475
 10
212.5956492476
 20
187.6860150579
 10
212.5905551912
 20
187.711568912
 10
212.5888339162
 20
187.7375377366
  0
LWPOLYLINE
  5
2D0
100
AcDbEntity
  8
0
100
AcDbPolyline
 62
250
  6
CONTINUOUS
 90
10
 70
0
 10
212.5397362198
 20
188.3954667732
 10
212.5138133074
 20
188.3976861113
 10
212.4886706885
 20
188.4039306985
 10
212.4650651695
 20
188.4140125695
 10
212.443707289
 20
188.4276282542
 10
212.4252399308
 20
188.4443679135
 10
212.4102189723
 20
188.4637276751
 10
212.3990965522
 20
188.4851248002
 10
212.3922074615
 20
188.5079152235
 10
212.3897590655
 20
188.5314129413
  0
LWPOLYLINE
  5
2D1
100
AcDbEntity
  8
0
100
AcDbPolyline
 62
250
  6
CONTINUOUS
 90
10
 70
0
 10
201.0216616518
 20
188.5162251434
 10
200.9960064913
 20
188.51874784
 10
200.9711091019
 20
188.5252114307
 10
200.9477048744
 20
188.5354250007
 10
200.9264850938
 20
188.5490868487
 10
200.9080765282
 20
188.5657934678
 10
200.8930229167
 20
188.585051464
 10
200.8817688984
 20
188.6062920388
 10
200.8746468792
 20
188.6288877897
 10
200.8718672216
 20
188.6521713115
  0
LWPOLYLINE
  5
2D2
100
AcDbEntity
  8
0
100
AcDbPolyline
 62
250
  6
CONTINUOUS
 90
13
 70
0
 10
201.580170706
 20
188.7558180189
 10
201.5715701532
 20
188.756769631
 10
201.5624626282
 20
188.7576564707
 10
201.5528739683
 20
188.7584785379
 10
201.5429473484
 20
188.7592356752
 10
201.5326065171
 20
188.7599280401
 10
201.5215158741
 20
188.7605561052
 10
201.5095790286
 20
188.7611321792
 10
201.4969075078
 20
188.7616439535
 10
201.483451844
 20
188.7620549742
 10
201.4692226605
 20
188.7623530902
 10
201.454297943
 20
188.7625504527
 10
201.4387481638
 20
188.7626470617
  0
LINE
  5
2D3
100
AcDbEntity
  8
0
100
AcDbLine
 62
7
  6
CONTINUOUS
 10
212.5358393552
 20
188.2913630174
 11
212.5866852206
 21
188.2850099912
  0
LWPOLYLINE
  5
2D4
100
AcDbEntity
  8
0
100
AcDbPolyline
 62
250
  6
CONTINUOUS
 90
16
 70
0
 10
216.9149466004
 20
186.7174256354
 10
216.9090147685
 20
186.7181929687
 10
216.9036721636
 20
186.718948235
 10
216.8988907815
 20
186.7196914342
 10
216.8946434908
 20
186.7204233787
 10
216.8909004926
 20
186.7211432561
 10
216.887630582
 20
186.7218486297
 10
216.8848059802
 20
186.7225393416
 10
216.8824000424
 20
186.7232155497
 10
216.8803849739
 20
186.7238752913
 10
216.8787343929
 20
186.7245184129
 10
216.8774228162
 20
186.725145068
 10
216.8764248725
 20
186.7257537533
 10
216.8757157847
 20
186.7263439678
 10
216.8752713746
 20
186.7269162127
 10
216.875068059
 20
186.7274704878
  0
LWPOLYLINE
  5
2D5
100
AcDbEntity
  8
0
100
AcDbPolyline
 62
250
  6
CONTINUOUS
 90
13
 70
0
 10
212.7888034552
 20
187.5378118297
 10
212.7705231908
 20
187.5403750432
 10
212.7525419
 20
187.5461597651
 10
212.7351533658
 20
187.5550713289
 10
212.7186425099
 20
187.5669632821
 10
212.7032780789
 20
187.5816416057
 10
212.6893089141
 20
187.5988693127
 10
212.6769595338
 20
187.6183737955
 10
212.6664383346
 20
187.6398307638
 10
212.6579257006
 20
187.6628663488
 10
212.6515571742
 20
187.6870925031
 10
212.6474278276
 20
187.7121192083
 10
212.6455990701
 20
187.7375377366
  0
LWPOLYLINE
  5
2D6
100
AcDbEntity
  8
0
100
AcDbPolyline
 62
250
  6
CONTINUOUS
 90
13
 70
0
 10
212.9835549154
 20
187.5482806797
 10
212.9652666217
 20
187.550845742
 10
212.9472786232
 20
187.5566347396
 10
212.9298849714
 20
187.5655523659
 10
212.9133706783
 20
187.5774515514
 10
212.8980046216
 20
187.5921375638
 10
212.8840357621
 20
187.6093725191
 10
212.8716878122
 20
187.6288841743
 10
212.8611696211
 20
187.6503467903
 10
212.8526624174
 20
187.6733820477
 10
212.8463004731
 20
187.6975996642
 10
212.8421766234
 20
187.7226106311
 10
212.8403505302
 20
187.7480065867
  0
LWPOLYLINE
  5
2D7
100
AcDbEntity
  8
0
100
AcDbPolyline
 62
7
  6
CONTINUOUS
 90
8
 70
0
 10
197.4775461001
 20
190.4087481567
 10
197.4808084766
 20
190.408213154
 10
197.4869363292
 20
190.4076964616
 10
197.4959296579
 20
190.4071980793
 10
197.5079471409
 20
190.4067131106
 10
197.5228300999
 20
190.4062464521
 10
197.5401025002
 20
190.4058127933
 10
197.5818992058
 20
190.4050474501
  0
LWPOLYLINE
  5
2D8
100
AcDbEntity
  8
0
100
AcDbPolyline
 62
7
  6
CONTINUOUS
 90
8
 70
0
 10
213.4054794729
 20
187.4777806782
 10
213.4030154702
 20
187.4782182096
 10
213.3995034503
 20
187.4785989643
 10
213.3949434131
 20
187.4789229426
 10
213.3891626813
 20
187.4791928294
 10
213.3823339323
 20
187.4794059397
 10
213.3749751984
 20
187.4795542179
 10
213.3670870679
 20
187.479615138
  0
LWPOLYLINE
  5
2D9
100
AcDbEntity
  8
0
100
AcDbPolyline
 62
250
  6
CONTINUOUS
 90
16
 70
0
 10
217.0989875684
 20
186.916664575
 10
217.0954566964
 20
186.9174318743
 10
217.0922455324
 20
186.9181871218
 10
217.0893540766
 20
186.9189303174
 10
217.0867996851
 20
186.9196622829
 10
217.0845650017
 20
186.9203821966
 10
217.0825979576
 20
186.9210875928
 10
217.0808973984
 20
186.9217782965
 10
217.0794644785
 20
186.9224544826
 10
217.0782505925
 20
186.9231142107
 10
217.0772546989
 20
186.9237573396
 10
217.076477839
 20
186.9243840104
 10
217.0758745317
 20
186.9249927064
 10
217.0754296165
 20
186.9255829217
 10
217.0751582538
 20
186.926155162
 10
217.0750604436
 20
186.9267094274
  0
LWPOLYLINE
  5
2DA
100
AcDbEntity
  8
0
100
AcDbPolyline
 62
7
  6
CONTINUOUS
 90
10
 70
0
 10
208.6822606665
 20
186.7799215935
 10
208.6582876179
 20
186.7912119534
 10
208.6341085642
 20
186.8011468575
 10
208.6097235052
 20
186.8097263035
 10
208.5852379489
 20
186.8169282462
 10
208.5605463874
 20
186.8227747271
 10
208.5353322972
 20
186.8273318751
 10
208.5094901706
 20
186.8306217328
 10
208.4831255153
 20
186.8326222559
 10
208.4562383313
 20
186.8333334439
  0
LWPOLYLINE
  5
2DB
100
AcDbEntity
  8
0
100
AcDbPolyline
 62
250
  6
CONTINUOUS
 90
16
 70
0
 10
201.0715931285
 20
191.1003184304
 10
201.0738125577
 20
191.0992556344
 10
201.0778055775
 20
191.0982343608
 10
201.0835721877
 20
191.0972546094
 10
201.0911710467
 20
191.0963113268
 10
201.1005434962
 20
191.0954095665
 10
201.1115135616
 20
191.0945644891
 10
201.1240940359
 20
191.093773762
 10
201.1382721262
 20
191.0930397177
 10
201.1538334792
 20
191.0923845148
 10
201.1708733982
 20
191.091806941
 10
201.18929658
 20
191.0913082086
 10
201.2086027609
 20
191.0909141125
 10
201.2286251866
 20
191.0906332509
 10
201.2495306114
 20
191.0904570257
 10
201.4387481638
 20
191.0903854368
  0
LINE
  5
2DC
100
AcDbEntity
  8
0
100
AcDbLine
 62
250
  6
CONTINUOUS
 10
200.7449914268
 20
191.0274683182
 11
200.8718672216
 21
190.9005925234
  0
LWPOLYLINE
  5
2DD
100
AcDbEntity
  8
0
100
AcDbPolyline
 62
7
  6
CONTINUOUS
 90
7
 70
0
 10
200.7259129547
 20
187.4745949634
 10
200.7171581753
 20
187.4904806804
 10
200.7098711553
 20
187.5071236224
 10
200.7041196536
 20
187.5243896848
 10
200.6999592339
 20
187.542138484
 10
200.6974326546
 20
187.5602244639
 10
200.6965693581
 20
187.5784980634
  0
LINE
  5
2DE
100
AcDbEntity
  8
0
100
AcDbLine
 62
7
  6
CONTINUOUS
 10
201.6254652801
 20
181.8902962251
 11
201.2668372801
 21
182.9521942251
  0
LINE
  5
2DF
100
AcDbEntity
  8
0
100
AcDbLine
 62
7
  6
CONTINUOUS
 10
201.1884772801
 20
182.7503142251
 11
201.5401782801
 21
181.7021942251
  0
LINE
  5
2E0
100
AcDbEntity
  8
0
100
AcDbLine
 62
250
  6
CONTINUOUS
 10
197.4603818343
 20
221.6771942251
 11
197.4674838076
 21
218.1422889215
  0
LINE
  5
2E1
100
AcDbEntity
  8
0
100
AcDbLine
 62
250
  6
CONTINUOUS
 10
197.4689611114
 20
217.3116074943
 11
197.4775461001
 21
211.2456402936
  0
LINE
  5
2E2
100
AcDbEntity
  8
0
100
AcDbLine
 62
250
  6
CONTINUOUS
 10
197.4784460921
 20
210.3892537483
 11
197.4794550202
 21
209.3271942251
  0
LINE
  5
2E3
100
AcDbEntity
  8
0
100
AcDbLine
 62
7
  6
CONTINUOUS
 10
196.2150382541
 20
179.2575920867
 11
196.2150382541
 21
222.3967963636
  0
LINE
  5
2E4
100
AcDbEntity
  8
0
100
AcDbLine
 62
7
  6
CONTINUOUS
 10
196.2650382541
 20
222.3771789053
 11
196.2650382541
 21
179.277209545
  0
LINE
  5
2E5
100
AcDbEntity
  8
0
100
AcDbLine
 62
250
  6
CONTINUOUS
 10
196.3751778464
 20
222.2670393129
 11
196.3751778464
 21
179.3873491374
  0
LINE
  5
2E6
100
AcDbEntity
  8
0
100
AcDbLine
 62
250
  6
CONTINUOUS
 10
196.6570856327
 20
222.2670393129
 11
196.6570856327
 21
179.3873491374
  0
LINE
  5
2E7
100
AcDbEntity
  8
0
100
AcDbLine
 62
250
  6
CONTINUOUS
 10
196.8450241568
 20
179.1994106132
 11
196.8450241568
 21
178.917502827
  0
LINE
  5
2E8
100
AcDbEntity
  8
0
100
AcDbLine
 62
250
  6
CONTINUOUS
 10
196.8450241568
 20
222.4549778371
 11
196.8450241568
 21
222.7368856233
  0
LINE
  5
2E9
100
AcDbEntity
  8
0
100
AcDbLine
 62
7
  6
CONTINUOUS
 10
197.3776162801
 20
221.6771942251
 11
197.3776162801
 21
179.9771942251
  0
LINE
  5
2EA
100
AcDbEntity
  8
0
100
AcDbLine
 62
7
  6
CONTINUOUS
 10
197.4221628925
 20
218.1271942251
 11
197.4221628925
 21
217.3271942251
  0
LINE
  5
2EB
100
AcDbEntity
  8
0
100
AcDbLine
 62
7
  6
CONTINUOUS
 10
197.4221628925
 20
184.3271942251
 11
197.4221628925
 21
183.5271942251
  0
LINE
  5
2EC
100
AcDbEntity
  8
0
100
AcDbLine
 62
7
  6
CONTINUOUS
 10
197.4405056152
 20
211.2333034979
 11
197.4405056152
 21
210.4271942251
  0
LINE
  5
2ED
100
AcDbEntity
  8
0
100
AcDbLine
 62
7
  6
CONTINUOUS
 10
197.4405056152
 20
191.2271942251
 11
197.4405056152
 21
190.4210849524
  0
LINE
  5
2EE
100
AcDbEntity
  8
0
100
AcDbLine
 62
250
  6
CONTINUOUS
 10
197.4794550216
 20
192.3271942251
 11
197.4784460921
 21
191.265134702
  0
LINE
  5
2EF
100
AcDbEntity
  8
0
100
AcDbLine
 62
250
  6
CONTINUOUS
 10
197.4775461001
 20
190.4087481567
 11
197.4689611114
 21
184.342780956
  0
LINE
  5
2F0
100
AcDbEntity
  8
0
100
AcDbLine
 62
250
  6
CONTINUOUS
 10
197.4674838076
 20
183.5120995287
 11
197.4603818359
 21
179.9771942251
  0
LINE
  5
2F1
100
AcDbEntity
  8
0
100
AcDbLine
 62
250
  6
CONTINUOUS
 10
201.0715931285
 20
210.5540700199
 11
200.9447173337
 21
210.4271942251
  0
LINE
  5
2F2
100
AcDbEntity
  8
0
100
AcDbLine
 62
7
  6
CONTINUOUS
 10
213.5126865303
 20
214.2093655289
 11
213.4401680448
 21
214.1870970284
  0
LINE
  5
2F3
100
AcDbEntity
  8
0
100
AcDbLine
 62
7
  6
CONTINUOUS
 10
213.4401680448
 20
214.1870970284
 11
213.4054795458
 21
214.1766077799
  0
LWPOLYLINE
  5
2F4
100
AcDbEntity
  8
0
100
AcDbPolyline
 62
7
  6
CONTINUOUS
 90
43
 70
0
 10
213.5126865303
 20
214.2093655289
 10
213.5216780456
 20
214.2120321053
 10
213.5304465837
 20
214.2144227692
 10
213.5389870311
 20
214.2165493212
 10
213.5472854525
 20
214.2184204599
 10
213.5553476158
 20
214.2200510337
 10
213.5631987337
 20
214.2214603596
 10
213.5708355221
 20
214.2226582467
 10
213.5782560609
 20
214.2236542194
 10
213.585487804
 20
214.2244639757
 10
213.5925279496
 20
214.22509556
 10
213.599375939
 20
214.2255564963
 10
213.6060623062
 20
214.2258584502
 10
213.6125853398
 20
214.2260077655
 10
213.6189441983
 20
214.2260098721
 10
213.6251699786
 20
214.2258717624
 10
213.6312663464
 20
214.2255976845
 10
213.637226954
 20
214.2251914584
 10
213.6430671176
 20
214.2246570007
 10
213.6487887127
 20
214.2239973594
 10
213.6543872668
 20
214.2232159251
 10
213.6598682122
 20
214.2223160382
 10
213.6652304845
 20
214.221300717
 10
213.6704729354
 20
214.2201728642
 10
213.6756006856
 20
214.2189350852
 10
213.6806123476
 20
214.21759026
 10
213.6855073173
 20
214.2161408767
 10
213.690291607
 20
214.2145883716
 10
213.6949637443
 20
214.2129354329
 10
213.6995232098
 20
214.2111841137
 10
213.7039769878
 20
214.2093342193
 10
213.7083242863
 20
214.2073877918
 10
213.7125636055
 20
214.205346808
 10
213.7167003099
 20
214.2032103139
 10
213.7207331696
 20
214.2009802144
 10
213.7246607936
 20
214.1986581246
 10
213.7284877155
 20
214.1962420875
 10
213.7322117541
 20
214.1937343707
 10
213.7358320446
 20
214.1911358493
 10
213.7393542901
 20
214.1884418515
 10
213.7427788409
 20
214.1856515251
 10
213.7461012653
 20
214.1827682689
 10
213.7493196055
 20
214.1797934868
  0
LWPOLYLINE
  5
2F5
100
AcDbEntity
  8
0
100
AcDbPolyline
 62
7
  6
CONTINUOUS
 90
10
 70
0
 10
213.4564050649
 20
213.1633807242
 10
213.4819468451
 20
213.1707065487
 10
213.5071202868
 20
213.1751593473
 10
213.5312448977
 20
213.1768109704
 10
213.5535478585
 20
213.1759139058
 10
213.5735009949
 20
213.1727076832
 10
213.5907016385
 20
213.1672817102
 10
213.6044934154
 20
213.1599343161
 10
213.6141413799
 20
213.1513104958
 10
213.6190876724
 20
213.1421094363
  0
LWPOLYLINE
  5
2F6
100
AcDbEntity
  8
0
100
AcDbPolyline
 62
250
  6
CONTINUOUS
 90
8
 70
0
 10
213.6033653387
 20
190.9005928304
 10
213.5990215198
 20
190.8994939915
 10
213.5906558676
 20
190.8984545404
 10
213.5786605609
 20
190.897474477
 10
213.5633949892
 20
190.8965480794
 10
213.5453038786
 20
190.8956810695
 10
213.5250004716
 20
190.8948906131
 10
213.5030453511
 20
190.8941841217
  0
LWPOLYLINE
  5
2F7
100
AcDbEntity
  8
0
100
AcDbPolyline
 62
7
  6
CONTINUOUS
 90
7
 70
0
 10
216.9351300353
 20
190.405812794
 10
216.9524024368
 20
190.4062464526
 10
216.967285398
 20
190.406713111
 10
216.9793028844
 20
190.4071980796
 10
216.9882962178
 20
190.4076964618
 10
216.9944240763
 20
190.4082131541
 10
216.9976864601
 20
190.4087481567
  0
LWPOLYLINE
  5
2F8
100
AcDbEntity
  8
0
100
AcDbPolyline
 62
250
  6
CONTINUOUS
 90
4
 70
0
 10
213.3052945987
 20
191.0918286732
 10
213.2794782535
 20
191.0911578771
 10
213.2660534373
 20
191.0908979123
 10
213.2518266566
 20
191.0906906579
  0
LINE
  5
2F9
100
AcDbEntity
  8
0
100
AcDbLine
 62
250
  6
CONTINUOUS
 10
213.5030453511
 20
190.8941841217
 11
213.4556642989
 21
190.8929957313
  0
LINE
  5
2FA
100
AcDbEntity
  8
0
100
AcDbLine
 62
7
  6
CONTINUOUS
 10
216.8933333303
 20
190.4050474511
 11
216.9351300353
 21
190.405812794
  0
LINE
  5
2FB
100
AcDbEntity
  8
0
100
AcDbLine
 62
250
  6
CONTINUOUS
 10
213.4556642989
 20
190.8929957313
 11
213.4066363611
 21
190.8921025786
  0
LINE
  5
2FC
100
AcDbEntity
  8
0
100
AcDbLine
 62
7
  6
CONTINUOUS
 10
212.8876162801
 20
191.1276194445
 11
212.5865336895
 21
191.1233914554
  0
LINE
  5
2FD
100
AcDbEntity
  8
0
100
AcDbLine
 62
7
  6
CONTINUOUS
 10
216.8436769917
 20
190.404445558
 11
216.8933333303
 21
190.4050474511
  0
LINE
  5
2FE
100
AcDbEntity
  8
0
100
AcDbLine
 62
250
  6
CONTINUOUS
 10
213.4066363611
 20
190.8921025786
 11
213.3281985006
 21
190.8911721294
  0
LINE
  5
2FF
100
AcDbEntity
  8
0
100
AcDbLine
 62
250
  6
CONTINUOUS
 10
213.2518266566
 20
191.0906906579
 11
213.2206865332
 21
191.0904344666
  0
LINE
  5
300
100
AcDbEntity
  8
0
100
AcDbLine
 62
7
  6
CONTINUOUS
 10
216.7586886952
 20
190.4038944815
 11
216.8436769917
 21
190.404445558
  0
LINE
  5
301
100
AcDbEntity
  8
0
100
AcDbLine
 62
250
  6
CONTINUOUS
 10
213.3281985006
 20
190.8911721294
 11
213.2372349633
 21
190.8907086964
  0
LINE
  5
302
100
AcDbEntity
  8
0
100
AcDbLine
 62
7
  6
CONTINUOUS
 10
213.7821791082
 20
190.4037863618
 11
216.7586886952
 21
190.4038944815
  0
LINE
  5
303
100
AcDbEntity
  8
0
100
AcDbLine
 62
7
  6
CONTINUOUS
 10
197.4405056152
 20
190.4210849524
 11
200.7449914268
 21
190.4210849524
  0
LINE
  5
304
100
AcDbEntity
  8
0
100
AcDbLine
 62
7
  6
CONTINUOUS
 10
213.7302411334
 20
190.4210849524
 11
217.034726945
 21
190.4210849524
  0
LINE
  5
305
100
AcDbEntity
  8
0
100
AcDbLine
 62
250
  6
CONTINUOUS
 10
213.2372349633
 20
190.8907086964
 11
212.8950630401
 21
190.8906595298
  0
LINE
  5
306
100
AcDbEntity
  8
0
100
AcDbLine
 62
250
  6
CONTINUOUS
 10
212.4483072483
 20
190.9140730087
 11
212.3897590655
 21
190.9140730087
  0
LINE
  5
307
100
AcDbEntity
  8
0
100
AcDbLine
 62
250
  6
CONTINUOUS
 10
202.0269253119
 20
190.9140730087
 11
202.0854734947
 21
190.9140730087
  0
LINE
  5
308
100
AcDbEntity
  8
0
100
AcDbLine
 62
250
  6
CONTINUOUS
 10
213.2206865332
 20
191.0904344666
 11
213.0364843964
 21
191.0903854368
  0
LINE
  5
309
100
AcDbEntity
  8
0
100
AcDbLine
 62
7
  6
CONTINUOUS
 10
197.7165438834
 20
190.4038944804
 11
200.6930534521
 21
190.4037863618
  0
LINE
  5
30A
100
AcDbEntity
  8
0
100
AcDbLine
 62
250
  6
CONTINUOUS
 10
201.1864655101
 20
190.8909078531
 11
201.5801695201
 21
190.8906595298
  0
LINE
  5
30B
100
AcDbEntity
  8
0
100
AcDbLine
 62
7
  6
CONTINUOUS
 10
197.6315555437
 20
190.4044455568
 11
197.7165438834
 21
190.4038944804
  0
LINE
  5
30C
100
AcDbEntity
  8
0
100
AcDbLine
 62
250
  6
CONTINUOUS
 10
201.1070871497
 20
190.8915825144
 11
201.1864655101
 21
190.8909078531
  0
LINE
  5
30D
100
AcDbEntity
  8
0
100
AcDbLine
 62
7
  6
CONTINUOUS
 10
197.5818992058
 20
190.4050474501
 11
197.6315555437
 21
190.4044455568
  0
LINE
  5
30E
100
AcDbEntity
  8
0
100
AcDbLine
 62
7
  6
CONTINUOUS
 10
201.5876162801
 20
191.1276194445
 11
201.8886988708
 21
191.1233914554
  0
LWPOLYLINE
  5
30F
100
AcDbEntity
  8
0
100
AcDbPolyline
 62
250
  6
CONTINUOUS
 90
13
 70
0
 10
201.8855039557
 20
191.1137989157
 10
201.911614812
 20
191.1120651522
 10
201.9372767076
 20
191.1069416912
 10
201.9620504486
 20
191.0985169869
 10
201.9855112017
 20
191.0869365449
 10
202.0072589159
 20
191.0723989255
 10
202.026924335
 20
191.0551510564
 10
202.0441771966
 20
191.0354789571
 10
202.0587128136
 20
191.0137258849
 10
202.070270414
 20
190.9902913403
 10
202.0786596348
 20
190.9655902014
 10
202.0837526588
 20
190.9400385125
 10
202.0854734947
 20
190.9140730087
  0
LWPOLYLINE
  5
310
100
AcDbEntity
  8
0
100
AcDbPolyline
 62
250
  6
CONTINUOUS
 90
13
 70
0
 10
201.4387481638
 20
191.0903854368
 10
201.45680277
 20
191.0878097772
 10
201.4745611901
 20
191.0820125852
 10
201.4917333216
 20
191.0730891998
 10
201.5080379885
 20
191.0611866316
 10
201.5232098702
 20
191.0464995143
 10
201.537003249
 20
191.0292656366
 10
201.5491972042
 20
191.0097573539
 10
201.5595858555
 20
190.988299886
 10
201.5679906309
 20
190.9652702326
 10
201.5742787714
 20
190.9410578297
 10
201.578358162
 20
190.916051584
 10
201.5801695201
 20
190.8906595298
  0
LWPOLYLINE
  5
311
100
AcDbEntity
  8
0
100
AcDbPolyline
 62
250
  6
CONTINUOUS
 90
13
 70
0
 10
201.8855039557
 20
191.1137989157
 10
201.9035520631
 20
191.1112247753
 10
201.9213051005
 20
191.1054310706
 10
201.9384731765
 20
191.0965125917
 10
201.9547751192
 20
191.0846158719
 10
201.9699457683
 20
191.0699349129
 10
201.9837396338
 20
191.0527065474
 10
201.9959353094
 20
191.0332029102
 10
202.0063268691
 20
191.0117483448
 10
202.0147359256
 20
190.9887174627
 10
202.0210288336
 20
190.9644985088
 10
202.0251121013
 20
190.9394809148
 10
202.0269253119
 20
190.9140730087
  0
LWPOLYLINE
  5
312
100
AcDbEntity
  8
0
100
AcDbPolyline
 62
250
  6
CONTINUOUS
 90
9
 70
0
 10
213.6190876724
 20
187.7380732781
 10
213.6149642605
 20
187.7391351893
 10
213.60702715
 20
187.7401464639
 10
213.5955684189
 20
187.7411071018
 10
213.580814572
 20
187.74202526
 10
213.5631460682
 20
187.7428927816
 10
213.5432569924
 20
187.7436851956
 10
213.5217852296
 20
187.7443922735
 10
213.4752492798
 20
187.7455873211
  0
LWPOLYLINE
  5
313
100
AcDbEntity
  8
0
100
AcDbPolyline
 62
250
  6
CONTINUOUS
 90
11
 70
0
 10
200.8718672216
 20
190.9005925234
 10
200.8759847009
 20
190.8995289333
 10
200.8840244184
 20
190.8985072323
 10
200.8958253292
 20
190.8975274204
 10
200.911123737
 20
190.8965846862
 10
200.9297378366
 20
190.8956838411
 10
200.9517080971
 20
190.8948393195
 10
200.9769151006
 20
190.8940483455
 10
201.0051276982
 20
190.8933136949
 10
201.0363479169
 20
190.8926581307
 10
201.1070871497
 20
190.8915825144
  0
LINE
  5
314
100
AcDbEntity
  8
0
100
AcDbLine
 62
7
  6
CONTINUOUS
 10
213.4759034009
 20
187.4563722673
 11
213.4054794729
 21
187.4777806782
  0
LINE
  5
315
100
AcDbEntity
  8
0
100
AcDbLine
 62
7
  6
CONTINUOUS
 10
213.5126865303
 20
187.4450229213
 11
213.4759034009
 21
187.4563722673
  0
LWPOLYLINE
  5
316
100
AcDbEntity
  8
0
100
AcDbPolyline
 62
7
  6
CONTINUOUS
 90
10
 70
0
 10
208.134701063
 20
185.4179761961
 10
208.1639126201
 20
185.3937163191
 10
208.1948880909
 20
185.3722376861
 10
208.2276274755
 20
185.3535402861
 10
208.2620457896
 20
185.3375933726
 10
208.2982280174
 20
185.3244276741
 10
208.3364291116
 20
185.3141353938
 10
208.3767340563
 20
185.3067472627
 10
208.4190578673
 20
185.3022325403
 10
208.4634005446
 20
185.300591224
  0
LINE
  5
317
100
AcDbEntity
  8
0
100
AcDbLine
 62
250
  6
CONTINUOUS
 10
200.9447173337
 20
191.2271942251
 11
201.0715931285
 21
191.1003184304
  0
LWPOLYLINE
  5
318
100
AcDbEntity
  8
0
100
AcDbPolyline
 62
7
  6
CONTINUOUS
 90
10
 70
0
 10
208.27820287
 20
185.5216006872
 10
208.2606958978
 20
185.5394854662
 10
208.2446135896
 20
185.5593144404
 10
208.2299559455
 20
185.5810876169
 10
208.2167659439
 20
185.6049838581
 10
208.2050006063
 20
185.6308243183
 10
208.1945309973
 20
185.6580724411
 10
208.1853141386
 20
185.686549378
 10
208.1773930086
 20
185.716433991
 10
208.1707676072
 20
185.7477262878
  0
LINE
  5
319
100
AcDbEntity
  8
0
100
AcDbLine
 62
7
  6
CONTINUOUS
 10
207.1914912801
 20
182.7173442251
 11
207.8304422801
 21
181.7021942251
  0
LINE
  5
31A
100
AcDbEntity
  8
0
100
AcDbLine
 62
7
  6
CONTINUOUS
 10
203.4865882801
 20
181.7021942251
 11
203.0339602801
 21
182.9521942251
  0
LINE
  5
31B
100
AcDbEntity
  8
0
100
AcDbLine
 62
7
  6
CONTINUOUS
 10
203.1784302801
 20
182.0660232251
 11
203.3020252801
 21
181.7021942251
  0
LINE
  5
31C
100
AcDbEntity
  8
0
100
AcDbLine
 62
7
  6
CONTINUOUS
 10
202.9313122801
 20
182.7708832251
 11
203.1175432801
 21
182.2157402251
  0
LINE
  5
31D
100
AcDbEntity
  8
0
100
AcDbLine
 62
250
  6
CONTINUOUS
 10
197.7599979257
 20
221.6771942251
 11
197.7670826131
 21
218.1472515377
  0
LINE
  5
31E
100
AcDbEntity
  8
0
100
AcDbLine
 62
250
  6
CONTINUOUS
 10
197.7685757783
 20
217.3066393108
 11
197.7771363959
 21
211.2506020892
  0
LINE
  5
31F
100
AcDbEntity
  8
0
100
AcDbLine
 62
250
  6
CONTINUOUS
 10
197.7780557128
 20
210.3743363893
 11
197.779048452
 21
209.327194226
  0
LINE
  5
320
100
AcDbEntity
  8
0
100
AcDbLine
 62
250
  6
CONTINUOUS
 10
197.7790484534
 20
192.3271942245
 11
197.7780557128
 21
191.2800520628
  0
LINE
  5
321
100
AcDbEntity
  8
0
100
AcDbLine
 62
250
  6
CONTINUOUS
 10
197.7771363959
 20
190.4037863612
 11
197.7685757783
 21
184.3477491432
  0
LINE
  5
322
100
AcDbEntity
  8
0
100
AcDbLine
 62
250
  6
CONTINUOUS
 10
197.7670826131
 20
183.5071369137
 11
197.759997924
 21
179.9771942251
  0
LWPOLYLINE
  5
323
100
AcDbEntity
  8
0
100
AcDbPolyline
 62
7
  6
CONTINUOUS
 90
25
 70
0
 10
200.7259129547
 20
214.1797934868
 10
200.7348517609
 20
214.2266784979
 10
200.7483901599
 20
214.2712973074
 10
200.766528152
 20
214.3136499315
 10
200.7895960754
 20
214.3541975434
 10
200.8172635918
 20
214.3924789977
 10
200.8485396856
 20
214.4271108403
 10
200.8835578391
 20
214.4579579569
 10
200.92218457
 20
214.4851555012
 10
200.9630284164
 20
214.5077254299
 10
201.0061653599
 20
214.5254975717
 10
201.0515194188
 20
214.538642129
 10
201.0974711856
 20
214.5466916195
 10
201.1440441748
 20
214.5494631149
 10
201.1912148719
 20
214.5471395526
 10
201.2372933263
 20
214.5398022437
 10
201.2822417556
 20
214.5272678183
 10
201.3260979422
 20
214.5097196296
 10
201.3672852832
 20
214.4877890694
 10
201.4057035115
 20
214.4613199752
 10
201.4414528941
 20
214.4304684743
 10
201.4732576294
 20
214.3963343956
 10
201.50069245
 20
214.3592843387
 10
201.5241826232
 20
214.3189516675
 10
201.5437281491
 20
214.2753363607
  0
LINE
  5
324
100
AcDbEntity
  8
0
100
AcDbLine
 62
7
  6
CONTINUOUS
 10
204.4686202801
 20
218.4087002251
 11
205.0793062801
 21
220.3085462251
  0
LINE
  5
325
100
AcDbEntity
  8
0
100
AcDbLine
 62
250
  6
CONTINUOUS
 10
201.686429105
 20
214.1165766206
 11
201.6896299302
 21
214.1261869054
  0
LINE
  5
326
100
AcDbEntity
  8
0
100
AcDbLine
 62
250
  6
CONTINUOUS
 10
201.886398644
 20
213.9168507136
 11
201.8885473396
 21
213.9233020425
  0
LINE
  5
327
100
AcDbEntity
  8
0
100
AcDbLine
 62
250
  6
CONTINUOUS
 10
217.6302084034
 20
222.7368856233
 11
217.7403479957
 21
222.8470252157
  0
LWPOLYLINE
  5
328
100
AcDbEntity
  8
0
100
AcDbPolyline
 62
250
  6
CONTINUOUS
 90
10
 70
0
 10
212.5543732655
 20
213.2428421212
 10
212.5387742177
 20
213.2355217605
 10
212.5234839649
 20
213.2256551544
 10
212.5088051892
 20
213.2134376198
 10
212.4950284682
 20
213.1991110121
 10
212.4824265224
 20
213.1829589374
 10
212.471248817
 20
213.1653011382
 10
212.4617166231
 20
213.146487164
 10
212.4540186377
 20
213.1268894518
 10
212.4483072483
 20
213.1068959532
  0
LWPOLYLINE
  5
329
100
AcDbEntity
  8
0
100
AcDbPolyline
 62
250
  6
CONTINUOUS
 90
10
 70
0
 10
213.0011290573
 20
213.0345164742
 10
212.9855300151
 20
213.0271961166
 10
212.9702397662
 20
213.0173295143
 10
212.9555609926
 20
213.0051119836
 10
212.941784272
 20
212.9907853789
 10
212.9291823251
 20
212.9746333058
 10
212.9180046174
 20
212.9569755062
 10
212.9084724205
 20
212.9381615294
 10
212.900774432
 20
212.9185638121
 10
212.8950630401
 20
212.8985703061
  0
LWPOLYLINE
  5
32A
100
AcDbEntity
  8
0
100
AcDbPolyline
 62
250
  6
CONTINUOUS
 90
13
 70
0
 10
201.0715931285
 20
191.1003184304
 10
201.0455704515
 20
191.0985446364
 10
201.019991097
 20
191.093395963
 10
200.9952911921
 20
191.0849600609
 10
200.9718918857
 20
191.0733806265
 10
200.9501922039
 20
191.0588549734
 10
200.9305622349
 20
191.0416306875
 10
200.9133367501
 20
191.0220013561
 10
200.8988095614
 20
191.0003016141
 10
200.8872285077
 20
190.9769014891
 10
200.8787911474
 20
190.9521999857
 10
200.8736414178
 20
190.9266182628
 10
200.8718672142
 20
190.9005925308
  0
LINE
  5
32B
100
AcDbEntity
  8
0
100
AcDbLine
 62
250
  6
CONTINUOUS
 10
201.5801695201
 20
190.8906595298
 11
202.0269253119
 21
190.9140730087
  0
LINE
  5
32C
100
AcDbEntity
  8
0
100
AcDbLine
 62
250
  6
CONTINUOUS
 10
201.4387481638
 20
191.0903854368
 11
201.8855039557
 21
191.1137989157
  0
LWPOLYLINE
  5
32D
100
AcDbEntity
  8
0
100
AcDbPolyline
 62
7
  6
CONTINUOUS
 90
15
 70
0
 10
197.7473577342
 20
191.2799667572
 10
197.7175215732
 20
191.2797277725
 10
197.6885468927
 20
191.2793351133
 10
197.6601264735
 20
191.2787809091
 10
197.632567535
 20
191.2780730304
 10
197.6067917349
 20
191.2772350894
 10
197.5829048747
 20
191.2762647488
 10
197.5608011531
 20
191.275164346
 10
197.5410848243
 20
191.2739645048
 10
197.5237974737
 20
191.272660759
 10
197.5088975159
 20
191.2712575749
 10
197.496864449
 20
191.2697989749
 10
197.4878581058
 20
191.2682996332
 10
197.4817186535
 20
191.2667448755
 10
197.4784460921
 20
191.265134702
  0
LINE
  5
32E
100
AcDbEntity
  8
0
100
AcDbLine
 62
7
  6
CONTINUOUS
 10
197.4405056152
 20
191.2271942251
 11
200.9447173337
 21
191.2271942251
  0
LINE
  5
32F
100
AcDbEntity
  8
0
100
AcDbLine
 62
7
  6
CONTINUOUS
 10
213.5305152265
 20
191.2271942251
 11
217.034726945
 21
191.2271942251
  0
LINE
  5
330
100
AcDbEntity
  8
0
100
AcDbLine
 62
7
  6
CONTINUOUS
 10
197.7473577342
 20
191.2799667572
 11
201.5876162801
 21
191.2800520702
  0
LINE
  5
331
100
AcDbEntity
  8
0
100
AcDbLine
 62
7
  6
CONTINUOUS
 10
197.4576660176
 20
192.3271942251
 11
217.0175665426
 21
192.3271942251
  0
LINE
  5
332
100
AcDbEntity
  8
0
100
AcDbLine
 62
250
  6
CONTINUOUS
 10
212.8950630401
 20
190.8906595298
 11
212.4483072483
 21
190.9140730087
  0
LINE
  5
333
100
AcDbEntity
  8
0
100
AcDbLine
 62
250
  6
CONTINUOUS
 10
213.0364843964
 20
191.0903854368
 11
212.5897286045
 21
191.1137989157
  0
LWPOLYLINE
  5
334
100
AcDbEntity
  8
0
100
AcDbPolyline
 62
250
  6
CONTINUOUS
 90
13
 70
0
 10
213.4193617655
 20
187.5383476861
 10
213.4170414522
 20
187.5394087848
 10
213.4131215749
 20
187.5404195657
 10
213.4076021338
 20
187.5413800287
 10
213.400240613
 20
187.5422985004
 10
213.3912795284
 20
187.5431666543
 10
213.3814464269
 20
187.5439595106
 10
213.3708115014
 20
187.5446665985
 10
213.3593045592
 20
187.5452983888
 10
213.3474425685
 20
187.5458613151
 10
213.3354374669
 20
187.5463518279
 10
213.3230773169
 20
187.5467734766
 10
213.2970221595
 20
187.5474681827
  0
LWPOLYLINE
  5
335
100
AcDbEntity
  8
0
100
AcDbPolyline
 62
250
  6
CONTINUOUS
 90
14
 70
0
 10
217.1319858921
 20
186.635231549
 10
217.1084222905
 20
186.6460510407
 10
217.0864394162
 20
186.6559646791
 10
217.0659490375
 20
186.665011864
 10
217.0466736892
 20
186.6733158894
 10
217.0286667196
 20
186.6808813778
 10
217.0118559213
 20
186.6877037068
 10
216.9958537757
 20
186.6938923027
 10
216.9807829644
 20
186.6995024816
 10
216.9665879128
 20
186.7044789274
 10
216.952781648
 20
186.7087651179
 10
216.9393628579
 20
186.7123422124
 10
216.9266905875
 20
186.7152290515
 10
216.9149466004
 20
186.7174256354
  0
LWPOLYLINE
  5
336
100
AcDbEntity
  8
0
100
AcDbPolyline
 62
250
  6
CONTINUOUS
 90
10
 70
0
 10
212.5543732655
 20
188.411546329
 10
212.5387742185
 20
188.4188666893
 10
212.5234839662
 20
188.4287332949
 10
212.5088051908
 20
188.4409508289
 10
212.4950284699
 20
188.4552774362
 10
212.482426524
 20
188.4714295107
 10
212.4712488182
 20
188.4890873099
 10
212.4617166239
 20
188.5079012844
 10
212.4540186381
 20
188.5274989974
 10
212.4483072483
 20
188.5474924971
  0
LWPOLYLINE
  5
337
100
AcDbEntity
  8
0
100
AcDbPolyline
 62
250
  6
CONTINUOUS
 90
10
 70
0
 10
213.0011290573
 20
188.6198719761
 10
212.9855300095
 20
188.6271923368
 10
212.9702397567
 20
188.6370589429
 10
212.955560981
 20
188.6492764775
 10
212.94178426
 20
188.6636030852
 10
212.9291823142
 20
188.6797551599
 10
212.9180046088
 20
188.6974129592
 10
212.9084724149
 20
188.7162269333
 10
212.9007744295
 20
188.7358246455
 10
212.8950630401
 20
188.7558181442
  0
LINE
  5
338
100
AcDbEntity
  8
0
100
AcDbLine
 62
250
  6
CONTINUOUS
 10
217.1837217401
 20
186.6109881094
 11
217.1319858921
 21
186.635231549
  0
LINE
  5
339
100
AcDbEntity
  8
0
100
AcDbLine
 62
250
  6
CONTINUOUS
 10
217.2416625793
 20
186.5831947492
 11
217.1837217401
 21
186.6109881094
  0
LWPOLYLINE
  5
33A
100
AcDbEntity
  8
0
100
AcDbPolyline
 62
250
  6
CONTINUOUS
 90
3
 70
0
 10
217.3750490206
 20
186.5181448306
 10
217.3397558075
 20
186.5355713579
 10
217.2416625793
 20
186.5831947492
  0
LINE
  5
33B
100
AcDbEntity
  8
0
100
AcDbLine
 62
250
  6
CONTINUOUS
 10
217.7403479957
 20
178.8073632346
 11
217.6302084034
 21
178.917502827
  0
LWPOLYLINE
  5
33C
100
AcDbEntity
  8
0
100
AcDbPolyline
 62
7
  6
CONTINUOUS
 90
10
 70
0
 10
208.6368346714
 20
186.6148790393
 10
208.6513676761
 20
186.5994257628
 10
208.6641778143
 20
186.5832136625
 10
208.6752650862
 20
186.5662427406
 10
208.6846187972
 20
186.5485460449
 10
208.6922496419
 20
186.5300905321
 10
208.6981897035
 20
186.5107770675
 10
208.7024496765
 20
186.4905726084
 10
208.7050188665
 20
186.4695102034
 10
208.7058972735
 20
186.4475898557
  0
LWPOLYLINE
  5
33D
100
AcDbEntity
  8
0
100
AcDbPolyline
 62
7
  6
CONTINUOUS
 90
10
 70
0
 10
208.6905493159
 20
185.9748749697
 10
208.7079657298
 20
185.955855809
 10
208.7233183532
 20
185.9358383749
 10
208.7366071858
 20
185.914822671
 10
208.7478164054
 20
185.8928687477
 10
208.7569618342
 20
185.8699165622
 10
208.76409094
 20
185.8457859797
 10
208.7692195452
 20
185.8204169592
 10
208.7723318273
 20
185.7938695525
 10
208.7734277863
 20
185.7661437654
  0
LWPOLYLINE
  5
33E
100
AcDbEntity
  8
0
100
AcDbPolyline
 62
7
  6
CONTINUOUS
 90
10
 70
0
 10
208.8951878031
 20
186.0117098387
 10
208.8785642385
 20
186.0319216735
 10
208.8603807321
 20
186.0506579459
 10
208.8406372839
 20
186.0679186511
 10
208.8193677769
 20
186.083736628
 10
208.7965383282
 20
186.0980790289
 10
208.772047288
 20
186.1108473191
 10
208.7458607732
 20
186.1220086513
 10
208.7180126669
 20
186.1315958661
 10
208.6885029692
 20
186.1396089607
  0
LINE
  5
33F
100
AcDbEntity
  8
0
100
AcDbLine
 62
7
  6
CONTINUOUS
 10
207.8565642801
 20
181.9368392251
 11
207.2280262801
 21
182.9521942251
  0
LWPOLYLINE
  5
340
100
AcDbEntity
  8
0
100
AcDbPolyline
 62
250
  6
CONTINUOUS
 90
13
 70
0
 10
202.0854734947
 20
188.5314129413
 10
202.0849670719
 20
188.5327221893
 10
202.0838125554
 20
188.5340395588
 10
202.0819790542
 20
188.5353650497
 10
202.079453254
 20
188.5366986028
 10
202.0762005535
 20
188.5380402774
 10
202.0721289516
 20
188.539390251
 10
202.0671733392
 20
188.5407549617
 10
202.0612929422
 20
188.5421279714
 10
202.0543869767
 20
188.5434901435
 10
202.0463784567
 20
188.544835099
 10
202.0372368242
 20
188.5461692169
 10
202.0269253119
 20
188.5474924971
  0
LINE
  5
341
100
AcDbEntity
  8
0
100
AcDbLine
 62
250
  6
CONTINUOUS
 10
201.6896299302
 20
187.5282015449
 11
201.686429105
 21
187.5378118297
  0
LINE
  5
342
100
AcDbEntity
  8
0
100
AcDbLine
 62
250
  6
CONTINUOUS
 10
201.8885473396
 20
187.7310864078
 11
201.886398644
 21
187.7375377366
  0
LWPOLYLINE
  5
343
100
AcDbEntity
  8
0
100
AcDbPolyline
 62
250
  6
CONTINUOUS
 90
13
 70
0
 10
201.9354963404
 20
188.3954667732
 10
201.9353816816
 20
188.3967756236
 10
201.9350904766
 20
188.3980926806
 10
201.9346227253
 20
188.3994179441
 10
201.9339926484
 20
188.4007511271
 10
201.9331860253
 20
188.4020925166
 10
201.9321601937
 20
188.4034429737
 10
201.9309178666
 20
188.4048098792
 10
201.929456331
 20
188.4061858522
 10
201.9277247861
 20
188.4075496119
 10
201.9257062983
 20
188.4088940644
 10
201.9234178011
 20
188.4102263034
 10
201.9208592947
 20
188.411546329
  0
LINE
  5
344
100
AcDbEntity
  8
0
100
AcDbLine
 62
7
  6
CONTINUOUS
 10
200.7449914268
 20
211.2333034979
 11
200.7449914268
 21
210.6269201321
  0
LINE
  5
345
100
AcDbEntity
  8
0
100
AcDbLine
 62
7
  6
CONTINUOUS
 10
200.7449914268
 20
190.4210849524
 11
200.7449914268
 21
191.0274683182
  0
LINE
  5
346
100
AcDbEntity
  8
0
100
AcDbLine
 62
250
  6
CONTINUOUS
 10
200.8561448878
 20
187.7380735931
 11
200.8561448878
 21
188.512279014
  0
LINE
  5
347
100
AcDbEntity
  8
0
100
AcDbLine
 62
250
  6
CONTINUOUS
 10
200.8561448878
 20
213.1421094363
 11
200.8561448878
 21
213.9163148572
  0
LINE
  5
348
100
AcDbEntity
  8
0
100
AcDbLine
 62
250
  6
CONTINUOUS
 10
200.8718672216
 20
188.6521713115
 11
200.8718672216
 21
190.9005925234
  0
LINE
  5
349
100
AcDbEntity
  8
0
100
AcDbLine
 62
250
  6
CONTINUOUS
 10
200.8718672216
 20
210.7537959269
 11
200.8718672216
 21
213.0022171388
  0
LWPOLYLINE
  5
34A
100
AcDbEntity
  8
0
100
AcDbPolyline
 62
7
  6
CONTINUOUS
 90
7
 70
0
 10
200.6965693581
 20
214.0758903868
 10
200.6974300664
 20
214.0941364037
 10
200.699951089
 20
214.1122063866
 10
200.704106069
 20
214.1299507666
 10
200.7098552554
 20
214.1472234286
 10
200.717145933
 20
214.1638828996
 10
200.7259129547
 20
214.1797934868
  0
LINE
  5
34B
100
AcDbEntity
  8
0
100
AcDbLine
 62
7
  6
CONTINUOUS
 10
204.6830052801
 20
220.3085462251
 11
204.3097972801
 21
219.0008232251
  0
LINE
  5
34C
100
AcDbEntity
  8
0
100
AcDbLine
 62
7
  6
CONTINUOUS
 10
207.1932802801
 20
220.3085462251
 11
206.7967082801
 21
219.2537462251
  0
LINE
  5
34D
100
AcDbEntity
  8
0
100
AcDbLine
 62
7
  6
CONTINUOUS
 10
206.8223522801
 20
218.4087002251
 11
207.2938772801
 21
219.6440922251
  0
LINE
  5
34E
100
AcDbEntity
  8
0
100
AcDbLine
 62
250
  6
CONTINUOUS
 10
218.1000547138
 20
222.2670393129
 11
218.2101943061
 21
222.3771789053
  0
LINE
  5
34F
100
AcDbEntity
  8
0
100
AcDbLine
 62
7
  6
CONTINUOUS
 10
213.2376162801
 20
217.3271942251
 11
213.2170613538
 21
217.3066392989
  0
LINE
  5
350
100
AcDbEntity
  8
0
100
AcDbLine
 62
7
  6
CONTINUOUS
 10
213.7821791082
 20
211.2506020885
 11
213.7302411334
 21
211.2333034979
  0
LINE
  5
351
100
AcDbEntity
  8
0
100
AcDbLine
 62
7
  6
CONTINUOUS
 10
213.7821791082
 20
190.4037863618
 11
213.7302411334
 21
190.4210849524
  0
LINE
  5
352
100
AcDbEntity
  8
0
100
AcDbLine
 62
250
  6
CONTINUOUS
 10
218.2101943061
 20
179.277209545
 11
218.1000547138
 21
179.3873491374
  0
LINE
  5
353
100
AcDbEntity
  8
0
100
AcDbLine
 62
7
  6
CONTINUOUS
 10
213.2376162801
 20
184.3271942251
 11
213.2170613538
 21
184.3477491514
  0
LWPOLYLINE
  5
354
100
AcDbEntity
  8
0
100
AcDbPolyline
 62
7
  6
CONTINUOUS
 90
10
 70
0
 10
208.8397091754
 20
186.6367429036
 10
208.8269421748
 20
186.6564451275
 10
208.813029671
 20
186.6751853671
 10
208.7979716642
 20
186.6929636191
 10
208.7818165762
 20
186.7097617194
 10
208.7645159851
 20
186.7255978265
 10
208.7459246252
 20
186.7405264213
 10
208.7259940745
 20
186.7545656627
 10
208.7047727549
 20
186.7676973875
 10
208.6822606665
 20
186.7799215935
  0
LINE
  5
355
100
AcDbEntity
  8
0
100
AcDbLine
 62
250
  6
CONTINUOUS
 10
201.9393932051
 20
188.2913630174
 11
201.9354963404
 21
188.3954667732
  0
LINE
  5
356
100
AcDbEntity
  8
0
100
AcDbLine
 62
250
  6
CONTINUOUS
 10
202.0876162801
 20
188.4741689697
 11
202.0854734947
 21
188.5314129413
  0
LWPOLYLINE
  5
357
100
AcDbEntity
  8
RACCORDO
100
AcDbPolyline
 62
250
  6
CONTINUOUS
 90
64
 70
0
 10
202.0458738496
 20
200.8271942251
 10
202.0523012943
 20
200.5683797193
 10
202.0715123962
 20
200.3110841849
 10
202.1035071554
 20
200.0553076889
 10
202.1484352819
 20
199.800273426
 10
202.2061470657
 20
199.5467583296
 10
202.276193376
 20
199.2970930629
 10
202.3586529889
 20
199.0514759478
 10
202.4534471284
 20
198.809708749
 10
202.5598903349
 20
198.5735272675
 10
202.6780824202
 20
198.3429399646
 10
202.8079235726
 20
198.1179384106
 10
202.9484288967
 20
197.9002330391
 10
203.0996714346
 20
197.6898933486
 10
203.2615781442
 20
197.4868498091
 10
203.4329450041
 20
197.2926042776
 10
203.613844689
 20
197.1072193173
 10
203.8042045241
 20
196.9306322776
 10
204.0026024634
 20
196.764157165
 10
204.20909725
 20
196.6078706082
 10
204.4236301408
 20
196.4616958523
 10
204.6446028605
 20
196.3267168076
 10
204.8720629496
 20
196.2030169503
 10
205.1059628677
 20
196.0905126643
 10
205.3445617178
 20
195.9900372106
 10
205.5878935839
 20
195.9016801768
 10
205.8359243821
 20
195.8253518495
 10
206.086810963
 20
195.7616165392
 10
206.3405742712
 20
195.71056759
 10
206.5971933621
 20
195.6721115708
 10
206.8547622522
 20
195.6465326392
 10
207.1132877717
 20
195.6339261784
 10
207.3727630905
 20
195.6341967746
 10
207.6312617349
 20
195.6473424037
 10
207.8887765654
 20
195.6734584205
 10
208.1453147216
 20
195.7124495018
 10
208.3989711477
 20
195.7640276213
 10
208.6497249917
 20
195.8282862525
 10
208.8975971057
 20
195.9051320095
 10
209.1407449905
 20
195.9939965858
 10
209.3791340143
 20
196.0949694719
 10
209.6127988089
 20
196.2079613036
 10
209.8400007699
 20
196.3321354937
 10
210.0606928324
 20
196.4675760784
 10
210.2749220613
 20
196.6141991615
 10
210.4810910472
 20
196.7709162472
 10
210.6791384319
 20
196.9378010145
 10
210.8691255736
 20
197.1147799103
 10
211.0496391376
 20
197.3005435694
 10
211.2206167204
 20
197.4951717534
 10
211.3821207255
 20
197.6985847878
 10
211.5329250282
 20
197.9092341241
 10
211.6729323174
 20
198.1271448074
 10
211.8022399043
 20
198.3522918226
 10
211.9199135976
 20
198.5830514982
 10
212.0258996732
 20
198.8196087023
 10
212.1202518552
 20
199.0617785359
 10
212.2021971247
 20
199.3073826435
 10
212.2715673951
 20
199.5564938831
 10
212.3285307529
 20
199.8090393062
 10
212.3728184393
 20
200.0626218199
 10
212.4043408679
 20
200.3164423475
 10
212.423187625
 20
200.5712998377
 10
212.4293587106
 20
200.8271942251
  0
LINE
  5
358
100
AcDbEntity
  8
0
100
AcDbLine
 62
7
  6
CONTINUOUS
 10
201.0248352801
 20
182.9521942251
 11
201.0248352801
 21
181.7021942251
  0
LINE
  5
359
100
AcDbEntity
  8
0
100
AcDbLine
 62
7
  6
CONTINUOUS
 10
201.1884772801
 20
181.7021942251
 11
201.1884772801
 21
182.7503142251
  0
LINE
  5
35A
100
AcDbEntity
  8
0
100
AcDbLine
 62
7
  6
CONTINUOUS
 10
201.2376162801
 20
183.5271942251
 11
201.2376162801
 21
184.3271942251
  0
LINE
  5
35B
100
AcDbEntity
  8
0
100
AcDbLine
 62
7
  6
CONTINUOUS
 10
201.2376162801
 20
217.3271942251
 11
201.2376162801
 21
218.1271942251
  0
LINE
  5
35C
100
AcDbEntity
  8
0
100
AcDbLine
 62
250
  6
CONTINUOUS
 10
201.2555967017
 20
187.5482806797
 11
201.2555967017
 21
188.5271942251
  0
LINE
  5
35D
100
AcDbEntity
  8
0
100
AcDbLine
 62
250
  6
CONTINUOUS
 10
201.2555967017
 20
213.1271942251
 11
201.2555967017
 21
214.1061077705
  0
LINE
  5
35E
100
AcDbEntity
  8
0
100
AcDbLine
 62
250
  6
CONTINUOUS
 10
201.2713190355
 20
188.6267008936
 11
201.2713190355
 21
191.0903854368
  0
LINE
  5
35F
100
AcDbEntity
  8
0
100
AcDbLine
 62
250
  6
CONTINUOUS
 10
201.2713190355
 20
210.5640030135
 11
201.2713190355
 21
213.0276875566
  0
LINE
  5
360
100
AcDbEntity
  8
0
100
AcDbLine
 62
250
  6
CONTINUOUS
 10
201.4387481638
 20
188.6267008936
 11
201.4387481638
 21
191.0903854368
  0
LINE
  5
361
100
AcDbEntity
  8
0
100
AcDbLine
 62
250
  6
CONTINUOUS
 10
201.4387481638
 20
210.5640030135
 11
201.4387481638
 21
213.0276875566
  0
LINE
  5
362
100
AcDbEntity
  8
0
100
AcDbLine
 62
250
  6
CONTINUOUS
 10
201.4916776448
 20
187.5482806797
 11
201.4916776448
 21
188.5271942251
  0
LINE
  5
363
100
AcDbEntity
  8
0
100
AcDbLine
 62
250
  6
CONTINUOUS
 10
201.4916776448
 20
213.1271942251
 11
201.4916776448
 21
214.1061077705
  0
LINE
  5
364
100
AcDbEntity
  8
0
100
AcDbLine
 62
250
  6
CONTINUOUS
 10
201.580170706
 20
188.7558175911
 11
201.5801695201
 21
190.8906595298
  0
LINE
  5
365
100
AcDbEntity
  8
0
100
AcDbLine
 62
250
  6
CONTINUOUS
 10
201.5801695201
 20
210.7637289205
 11
201.5801697049
 21
212.8985703923
  0
LINE
  5
366
100
AcDbEntity
  8
0
100
AcDbLine
 62
7
  6
CONTINUOUS
 10
201.5876162801
 20
214.2753363607
 11
201.5876162801
 21
214.1276194445
  0
LINE
  5
367
100
AcDbEntity
  8
0
100
AcDbLine
 62
7
  6
CONTINUOUS
 10
201.5876162801
 20
191.2800520702
 11
201.5876162801
 21
191.1276194445
  0
LINE
  5
368
100
AcDbEntity
  8
0
100
AcDbLine
 62
7
  6
CONTINUOUS
 10
201.5876162801
 20
187.3790520896
 11
201.5876162801
 21
187.5267690058
  0
LINE
  5
369
100
AcDbEntity
  8
0
100
AcDbLine
 62
7
  6
CONTINUOUS
 10
201.5876162801
 20
210.3743363801
 11
201.5876162801
 21
210.5267690058
  0
LINE
  5
36A
100
AcDbEntity
  8
0
100
AcDbLine
 62
250
  6
CONTINUOUS
 10
201.63488203
 20
187.7480065867
 11
201.63488203
 21
188.4990364975
  0
LINE
  5
36B
100
AcDbEntity
  8
0
100
AcDbLine
 62
250
  6
CONTINUOUS
 10
201.63488203
 20
213.1553519528
 11
201.63488203
 21
213.9063818636
  0
LINE
  5
36C
100
AcDbEntity
  8
0
100
AcDbLine
 62
250
  6
CONTINUOUS
 10
201.8296334901
 20
187.7375377366
 11
201.8296334901
 21
188.4058880179
  0
LINE
  5
36D
100
AcDbEntity
  8
0
100
AcDbLine
 62
250
  6
CONTINUOUS
 10
201.8296334901
 20
213.2485004324
 11
201.8296334901
 21
213.9168507136
  0
LINE
  5
36E
100
AcDbEntity
  8
0
100
AcDbLine
 62
250
  6
CONTINUOUS
 10
201.886398644
 20
187.7375377366
 11
201.886398644
 21
188.3424118521
  0
LINE
  5
36F
100
AcDbEntity
  8
0
100
AcDbLine
 62
250
  6
CONTINUOUS
 10
201.886398644
 20
213.3119765982
 11
201.886398644
 21
213.9168507136
  0
LINE
  5
370
100
AcDbEntity
  8
0
100
AcDbLine
 62
250
  6
CONTINUOUS
 10
202.0269253119
 20
188.5474924971
 11
202.0269253119
 21
190.9140730087
  0
LINE
  5
371
100
AcDbEntity
  8
0
100
AcDbLine
 62
250
  6
CONTINUOUS
 10
202.0269253119
 20
210.7403154415
 11
202.0269253119
 21
213.1068959532
  0
LINE
  5
372
100
AcDbEntity
  8
0
100
AcDbLine
 62
7
  6
CONTINUOUS
 10
202.0589502801
 20
182.7520322251
 11
202.0589502801
 21
181.7021942251
  0
LINE
  5
373
100
AcDbEntity
  8
0
100
AcDbLine
 62
250
  6
CONTINUOUS
 10
202.0854734947
 20
188.5314129413
 11
202.0854734947
 21
190.9140730087
  0
LINE
  5
374
100
AcDbEntity
  8
0
100
AcDbLine
 62
250
  6
CONTINUOUS
 10
202.0854734947
 20
210.7403154415
 11
202.0854734947
 21
213.122975509
  0
LINE
  5
375
100
AcDbEntity
  8
0
100
AcDbLine
 62
7
  6
CONTINUOUS
 10
202.2226582801
 20
181.7021942251
 11
202.2226582801
 21
182.9521942251
  0
LWPOLYLINE
  5
376
100
AcDbEntity
  8
RACCORDO
100
AcDbPolyline
 62
250
  6
CONTINUOUS
 90
70
 70
0
 10
201.6888024282
 20
200.8271942251
 10
201.6925718207
 20
201.0314941465
 10
201.7036135531
 20
201.2322560465
 10
201.7215463051
 20
201.4291988627
 10
201.7458957694
 20
201.6213732114
 10
201.776345298
 20
201.8092645495
 10
201.8129573653
 20
201.9947737976
 10
201.8556943085
 20
202.1782562219
 10
201.9042875693
 20
202.3589905611
 10
201.9587076594
 20
202.5372375793
 10
202.0184273574
 20
202.7117406917
 10
202.0836165287
 20
202.8834384952
 10
202.1556936139
 20
203.055742311
 10
202.2347327287
 20
203.2280419917
 10
202.3210571288
 20
203.4002972166
 10
202.4172525003
 20
203.5763852984
 10
202.5244353303
 20
203.7564511782
 10
202.6428027279
 20
203.9389525711
 10
202.7742056157
 20
204.1247698707
 10
202.9196583481
 20
204.3131724593
 10
203.0797022448
 20
204.502716098
 10
203.2557279323
 20
204.6928333172
 10
203.4481720787
 20
204.8817703168
 10
203.657975322
 20
205.0682627799
 10
203.8875051179
 20
205.2519243018
 10
204.1381345028
 20
205.4310675402
 10
204.4097151332
 20
205.6028086513
 10
204.7023090865
 20
205.7644660849
 10
205.0177819199
 20
205.9142098323
 10
205.354235671
 20
206.0482234432
 10
205.7052009856
 20
206.1618622239
 10
206.0700640699
 20
206.2534705351
 10
206.4469766587
 20
206.3210938608
 10
206.8265617758
 20
206.3624849564
 10
207.2066198408
 20
206.3776421029
 10
207.5857309193
 20
206.3668013826
 10
207.955483738
 20
206.3310827179
 10
208.3135700009
 20
206.2723834237
 10
208.6595171067
 20
206.1923975103
 10
208.9882190576
 20
206.094254504
 10
209.2976348014
 20
205.9810458963
 10
209.5888808007
 20
205.8547720827
 10
209.8621387092
 20
205.7175992931
 10
210.1170133764
 20
205.5719165581
 10
210.3541574372
 20
205.4195291998
 10
210.5753928254
 20
205.2612419307
 10
210.7812950333
 20
205.0983769467
 10
210.9719747647
 20
204.932593312
 10
211.1484725027
 20
204.764722228
 10
211.3111812683
 20
204.5960444668
 10
211.4607252329
 20
204.4275673215
 10
211.5984046019
 20
204.2594089032
 10
211.7242576513
 20
204.0930746528
 10
211.8393375989
 20
203.9287214723
 10
211.9460844419
 20
203.7640250276
 10
212.0447057583
 20
203.5995449715
 10
212.1355378264
 20
203.4356198995
 10
212.2205803376
 20
203.2691418235
 10
212.2998194582
 20
203.1002105041
 10
212.3731580392
 20
202.9291429193
 10
212.4417976594
 20
202.7528195128
 10
212.5053961922
 20
202.5712358902
 10
212.5635279708
 20
202.3845983951
 10
212.6166065537
 20
202.1898886246
 10
212.6639283709
 20
201.9870629268
 10
212.7047013079
 20
201.7763460862
 10
212.7385142559
 20
201.5550223019
 10
212.7642928739
 20
201.3223321065
 10
212.7806793744
 20
201.0795706976
 10
212.786430132
 20
200.8271942251
  0
LWPOLYLINE
  5
377
100
AcDbEntity
  8
RACCORDO
100
AcDbPolyline
 62
250
  6
CONTINUOUS
 90
70
 70
0
 10
201.3317310068
 20
200.8271941538
 10
201.3364082388
 20
201.0449911932
 10
201.3480239737
 20
201.2584859853
 10
201.3665782116
 20
201.4676784944
 10
201.3922417889
 20
201.6720457096
 10
201.4248438692
 20
201.8721105846
 10
201.4638719434
 20
202.0694420336
 10
201.5092779157
 20
202.2645970641
 10
201.5611098819
 20
202.4570186226
 10
201.6189996197
 20
202.6466045317
 10
201.6822976603
 20
202.8322898634
 10
201.7516534726
 20
203.0151395188
 10
201.8286472403
 20
203.1982460543
 10
201.912591253
 20
203.3816328629
 10
202.0041732213
 20
203.5652764991
 10
202.10703646
 20
203.7521992295
 10
202.2212454134
 20
203.9437261126
 10
202.3467356373
 20
204.1385319852
 10
202.4869571143
 20
204.3356637654
 10
202.6420470453
 20
204.5359323998
 10
202.8118682293
 20
204.7385268346
 10
202.9994590458
 20
204.9400610224
 10
203.204540365
 20
205.1408870899
 10
203.4273913167
 20
205.3406528634
 10
203.6718876697
 20
205.5349159251
 10
203.9391220114
 20
205.7248988446
 10
204.2280017544
 20
205.9093791063
 10
204.5391249047
 20
206.0802468064
 10
204.8754340909
 20
206.2380153962
 10
205.2339866845
 20
206.3821716684
 10
205.6065528059
 20
206.5030659074
 10
205.9947622704
 20
206.5988713558
 10
206.3969852628
 20
206.6714151142
 10
206.8001024579
 20
206.716528321
 10
207.2038313619
 20
206.7317730169
 10
207.6084544685
 20
206.7195872818
 10
208.0016999345
 20
206.6831162588
 10
208.3819451514
 20
206.6208231618
 10
208.7508127276
 20
206.5342446053
 10
209.1008986448
 20
206.4311358219
 10
209.4298080358
 20
206.311712339
 10
209.7399357678
 20
206.1757583929
 10
210.0310624231
 20
206.0303823689
 10
210.3023070716
 20
205.8763954847
 10
210.5545506434
 20
205.7129863775
 10
210.7902165109
 20
205.54482967
 10
211.0094410233
 20
205.3722476425
 10
211.2120878314
 20
205.1949179645
 10
211.4001712611
 20
205.0165484271
 10
211.5735391243
 20
204.8376371953
 10
211.7323436091
 20
204.6576861343
 10
211.8790556049
 20
204.478908641
 10
212.0133532609
 20
204.3024133068
 10
212.1355584279
 20
204.1270916098
 10
212.2491075484
 20
203.9518312864
 10
212.3543608181
 20
203.7771270026
 10
212.4509580412
 20
203.6024841385
 10
212.5412550726
 20
203.4253064778
 10
212.6257664183
 20
203.2457208013
 10
212.7039775724
 20
203.0636003459
 10
212.7767008725
 20
202.8759685511
 10
212.8444631557
 20
202.6828310374
 10
212.9067375849
 20
202.484182188
 10
212.9627559866
 20
202.2770285654
 10
213.0130938552
 20
202.0611992474
 10
213.0571756964
 20
201.8368651694
 10
213.0925068525
 20
201.6015456714
 10
213.1182557711
 20
201.3544138845
 10
213.1352540047
 20
201.0962967409
 10
213.1435015534
 20
200.8271942965
  0
LINE
  5
378
100
AcDbEntity
  8
0
100
AcDbLine
 62
250
  6
CONTINUOUS
 10
201.9354963404
 20
213.258921677
 11
201.9393932051
 21
213.3630254329
  0
LINE
  5
379
100
AcDbEntity
  8
0
100
AcDbLine
 62
250
  6
CONTINUOUS
 10
202.0854734947
 20
213.122975509
 11
202.0876162801
 21
213.1802194806
  0
LINE
  5
37A
100
AcDbEntity
  8
0
100
AcDbLine
 62
250
  6
CONTINUOUS
 10
200.8718672216
 20
188.6521713115
 11
200.8561448878
 21
188.512279014
  0
LINE
  5
37B
100
AcDbEntity
  8
0
100
AcDbLine
 62
250
  6
CONTINUOUS
 10
201.0216616518
 20
188.5162251434
 11
201.0188274953
 21
188.4910077261
  0
LINE
  5
37C
100
AcDbEntity
  8
0
100
AcDbLine
 62
7
  6
CONTINUOUS
 10
206.4521042801
 20
215.5956372251
 11
206.7338382801
 21
216.4141242251
  0
LINE
  5
37D
100
AcDbEntity
  8
0
100
AcDbLine
 62
7
  6
CONTINUOUS
 10
206.2047822801
 20
214.8771942251
 11
206.3468542801
 21
215.2798882251
  0
LINE
  5
37E
100
AcDbEntity
  8
0
100
AcDbLine
 62
7
  6
CONTINUOUS
 10
206.5021552801
 20
216.7771942251
 11
205.8153152801
 21
214.8771942251
  0
LINE
  5
37F
100
AcDbEntity
  8
0
100
AcDbLine
 62
250
  6
CONTINUOUS
 10
213.4193617655
 20
214.1160407641
 11
213.5126865303
 21
214.2093655289
  0
LINE
  5
380
100
AcDbEntity
  8
0
100
AcDbLine
 62
250
  6
CONTINUOUS
 10
213.6190876724
 20
213.9163148572
 11
213.7786632021
 21
214.0758903868
  0
LINE
  5
381
100
AcDbEntity
  8
0
100
AcDbLine
 62
250
  6
CONTINUOUS
 10
213.5126865303
 20
187.4450229213
 11
213.4193617655
 21
187.5383476861
  0
LINE
  5
382
100
AcDbEntity
  8
0
100
AcDbLine
 62
250
  6
CONTINUOUS
 10
213.7786632021
 20
187.5784980634
 11
213.6190876724
 21
187.7380735931
  0
LINE
  5
383
100
AcDbEntity
  8
0
100
AcDbLine
 62
7
  6
CONTINUOUS
 10
212.3378822801
 20
182.9521942251
 11
212.8096782801
 21
182.2053282251
  0
LINE
  5
384
100
AcDbEntity
  8
0
100
AcDbLine
 62
250
  6
CONTINUOUS
 10
200.8561448878
 20
213.1421094363
 11
200.8718672216
 21
213.0022171388
  0
LINE
  5
385
100
AcDbEntity
  8
0
100
AcDbLine
 62
250
  6
CONTINUOUS
 10
201.0188274953
 20
213.1633807242
 11
201.0216616518
 21
213.1381633069
  0
LINE
  5
386
100
AcDbEntity
  8
0
100
AcDbLine
 62
7
  6
CONTINUOUS
 10
202.8809782801
 20
216.7771942251
 11
202.8809782801
 21
214.8771942251
  0
LINE
  5
387
100
AcDbEntity
  8
0
100
AcDbLine
 62
7
  6
CONTINUOUS
 10
203.2888922801
 20
214.8771942251
 11
203.2888922801
 21
215.6088652251
  0
LINE
  5
388
100
AcDbEntity
  8
0
100
AcDbLine
 62
7
  6
CONTINUOUS
 10
203.2888922801
 20
215.9246142251
 11
203.2888922801
 21
216.4614452251
  0
LINE
  5
389
100
AcDbEntity
  8
0
100
AcDbLine
 62
7
  6
CONTINUOUS
 10
203.6502262801
 20
182.9521942251
 11
203.6502262801
 21
181.7021942251
  0
LINE
  5
38A
100
AcDbEntity
  8
0
100
AcDbLine
 62
7
  6
CONTINUOUS
 10
203.8191502801
 20
181.8466542251
 11
203.8191502801
 21
182.8077342251
  0
LWPOLYLINE
  5
38B
100
AcDbEntity
  8
0
100
AcDbPolyline
 62
7
  6
CONTINUOUS
 90
21
 70
0
 10
203.8099501677
 20
216.2133231875
 10
203.8099597149
 20
216.1726499454
 10
203.8088219302
 20
216.1526574816
 10
203.8065798881
 20
216.1330525662
 10
203.803284144
 20
216.1137762329
 10
203.7988841424
 20
216.0948874507
 10
203.7932282171
 20
216.0765631246
 10
203.786257429
 20
216.0587291409
 10
203.7780307172
 20
216.0414596169
 10
203.7685732322
 20
216.0251538066
 10
203.757880789
 20
216.009735922
 10
203.7459575727
 20
215.9952817565
 10
203.7328412892
 20
215.982417939
 10
203.7183588068
 20
215.9714110926
 10
203.7026832572
 20
215.9619946015
 10
203.686371742
 20
215.9539952368
 10
203.6694386111
 20
215.947537862
 10
203.6518695145
 20
215.9424976176
 10
203.6341785036
 20
215.9383266878
 10
203.6165236365
 20
215.9350590189
 10
203.5987468551
 20
215.9326606659
  0
LINE
  5
38C
100
AcDbEntity
  8
0
100
AcDbLine
 62
7
  6
CONTINUOUS
 10
208.4083992801
 20
219.0814602251
 11
208.6058592801
 21
219.7865172251
  0
LINE
  5
38D
100
AcDbEntity
  8
0
100
AcDbLine
 62
7
  6
CONTINUOUS
 10
208.2178492801
 20
218.4087002251
 11
208.3272782801
 21
218.7879772251
  0
LINE
  5
38E
100
AcDbEntity
  8
0
100
AcDbLine
 62
7
  6
CONTINUOUS
 10
208.4214922801
 20
220.3085462251
 11
207.8255792801
 21
218.4087002251
  0
LWPOLYLINE
  5
38F
100
AcDbEntity
  8
0
100
AcDbPolyline
 62
7
  6
CONTINUOUS
 90
16
 70
0
 10
216.9967864681
 20
191.265134702
 10
216.9935139015
 20
191.2667448753
 10
216.9873744449
 20
191.2682996328
 10
216.9783680983
 20
191.2697989743
 10
216.966335029
 20
191.271257574
 10
216.9514350697
 20
191.2726607578
 10
216.9341477183
 20
191.2739645033
 10
216.9144313893
 20
191.2751643443
 10
216.8923276682
 20
191.2762647469
 10
216.8684408091
 20
191.2772350872
 10
216.8426650074
 20
191.278073028
 10
216.8151060677
 20
191.2787809064
 10
216.7866856577
 20
191.2793351107
 10
216.757711
 20
191.2797277702
 10
216.7278748721
 20
191.2799667556
 10
212.8876162801
 20
191.2800520702
  0
LINE
  5
390
100
AcDbEntity
  8
0
100
AcDbLine
 62
7
  6
CONTINUOUS
 10
212.8932812801
 20
182.3515072251
 11
212.5346072801
 21
182.9521942251
  0
LWPOLYLINE
  5
391
100
AcDbEntity
  8
0
100
AcDbPolyline
 62
250
  6
CONTINUOUS
 90
37
 70
0
 10
201.0216616518
 20
213.1381633069
 10
201.0232848018
 20
213.1303443719
 10
201.0257028257
 20
213.1228715217
 10
201.0289157236
 20
213.1157447562
 10
201.0330126698
 20
213.1089666412
 10
201.0379044899
 20
213.1025346108
 10
201.0433236609
 20
213.096440968
 10
201.0492473553
 20
213.0906912118
 10
201.0556984005
 20
213.0852798432
 10
201.0624777562
 20
213.0801826681
 10
201.0695729876
 20
213.0753999836
 10
201.0769965295
 20
213.0709314927
 10
201.0845866449
 20
213.0667521108
 10
201.0923289218
 20
213.0628647
 10
201.1002377723
 20
213.0592663983
 10
201.108194696
 20
213.0559235346
 10
201.1161829008
 20
213.0528380544
 10
201.1242191789
 20
213.0500080123
 10
201.1322354068
 20
213.0473939016
 10
201.1402184201
 20
213.0449948931
 10
201.1481813832
 20
213.042811816
 10
201.156095666
 20
213.0408076513
 10
201.1639517021
 20
213.0389802307
 10
201.1717590579
 20
213.0373317225
 10
201.1795178033
 20
213.0358316123
 10
201.1872209443
 20
213.0344771855
 10
201.1948754749
 20
213.0332711568
 10
201.2025024465
 20
213.0321911559
 10
201.2100970951
 20
213.0312341406
 10
201.2176641846
 20
213.0304031531
 10
201.2252390581
 20
213.0296849501
 10
201.2328188079
 20
213.0290762341
 10
201.2404063418
 20
213.0285803025
 10
201.2480457249
 20
213.0281938041
 10
201.2557516458
 20
213.0279156218
 10
201.263509416
 20
213.0277468726
 10
201.2713190355
 20
213.0276875566
  0
LWPOLYLINE
  5
392
100
AcDbEntity
  8
0
100
AcDbPolyline
 62
7
  6
CONTINUOUS
 90
37
 70
0
 10
204.2442198412
 20
216.1930299562
 10
204.2437897866
 20
216.2256042862
 10
204.2420540075
 20
216.2577432531
 10
204.2390125038
 20
216.2894468593
 10
204.234757199
 20
216.3207700267
 10
204.2291961698
 20
216.3516578381
 10
204.2220536458
 20
216.381945538
 10
204.2132615261
 20
216.4117101619
 10
204.2028879118
 20
216.4408746805
 10
204.1908613357
 20
216.4690432447
 10
204.1771573937
 20
216.4961932284
 10
204.1618004899
 20
216.5223472681
 10
204.14479237
 20
216.5471774121
 10
204.1260124645
 20
216.5706272212
 10
204.1055813427
 20
216.5927531469
 10
204.0838624591
 20
216.6133965754
 10
204.0608499383
 20
216.6324936249
 10
204.0365496555
 20
216.6501081886
 10
204.011342691
 20
216.6662733145
 10
203.9851930855
 20
216.6809408551
 10
203.9581367982
 20
216.6941589667
 10
203.9306627873
 20
216.7061051516
 10
203.9028869937
 20
216.7167346585
 10
203.8746934766
 20
216.7260922444
 10
203.8462233713
 20
216.7344896727
 10
203.8175929593
 20
216.7419757077
 10
203.7886859591
 20
216.7485015879
 10
203.7592946614
 20
216.754232787
 10
203.7294371533
 20
216.7591834733
 10
203.6990953476
 20
216.76333948
 10
203.6680072734
 20
216.7668237781
 10
203.6361921798
 20
216.7695542253
 10
203.6036308176
 20
216.7716129648
 10
203.5700034682
 20
216.7733693946
 10
203.5352035585
 20
216.7749466475
 10
203.4993376617
 20
216.776221591
 10
203.4624057775
 20
216.7771942251
  0
LINE
  5
393
100
AcDbEntity
  8
0
100
AcDbLine
 62
7
  6
CONTINUOUS
 10
204.4994792801
 20
216.7771942251
 11
204.4994792801
 21
214.8771942251
  0
LINE
  5
394
100
AcDbEntity
  8
0
100
AcDbLine
 62
7
  6
CONTINUOUS
 10
204.6305220295
 20
186.4567985945
 11
204.6305220295
 21
186.2787631267
  0
LINE
  5
395
100
AcDbEntity
  8
0
100
AcDbLine
 62
7
  6
CONTINUOUS
 10
204.9073932801
 20
215.1929432251
 11
204.9073932801
 21
216.7771942251
  0
LINE
  5
396
100
AcDbEntity
  8
0
100
AcDbLine
 62
7
  6
CONTINUOUS
 10
204.9159452801
 20
182.9521942251
 11
204.9159452801
 21
181.7021942251
  0
LINE
  5
397
100
AcDbEntity
  8
0
100
AcDbLine
 62
7
  6
CONTINUOUS
 10
204.9988712687
 20
186.5007958525
 11
204.9988712687
 21
185.3271942251
  0
LINE
  5
398
100
AcDbEntity
  8
0
100
AcDbLine
 62
7
  6
CONTINUOUS
 10
205.0848602801
 20
181.8519112251
 11
205.0848602801
 21
182.2697232251
  0
LINE
  5
399
100
AcDbEntity
  8
0
100
AcDbLine
 62
7
  6
CONTINUOUS
 10
205.0848602801
 20
182.4194402251
 11
205.0848602801
 21
182.8024772251
  0
LINE
  5
39A
100
AcDbEntity
  8
0
100
AcDbLine
 62
7
  6
CONTINUOUS
 10
205.183045866
 20
185.3271942251
 11
205.183045866
 21
186.8333334439
  0
LINE
  5
39B
100
AcDbEntity
  8
0
100
AcDbLine
 62
7
  6
CONTINUOUS
 10
205.2264752801
 20
220.3086602251
 11
205.2264752801
 21
218.4087002251
  0
LINE
  5
39C
100
AcDbEntity
  8
0
100
AcDbLine
 62
7
  6
CONTINUOUS
 10
205.5943692345
 20
185.8551614993
 11
205.5943692345
 21
185.6863347479
  0
LINE
  5
39D
100
AcDbEntity
  8
0
100
AcDbLine
 62
7
  6
CONTINUOUS
 10
205.6103922801
 20
214.8771942251
 11
205.6103922801
 21
215.1929432251
  0
LINE
  5
39E
100
AcDbEntity
  8
0
100
AcDbLine
 62
7
  6
CONTINUOUS
 10
205.6230472801
 20
218.4087002251
 11
205.6230472801
 21
220.3086602251
  0
LINE
  5
39F
100
AcDbEntity
  8
0
100
AcDbLine
 62
7
  6
CONTINUOUS
 10
205.7690592801
 20
182.2697232251
 11
205.7690592801
 21
182.4194402251
  0
LWPOLYLINE
  5
3A0
100
AcDbEntity
  8
0
100
AcDbPolyline
 62
7
  6
CONTINUOUS
 90
25
 70
0
 10
204.5082981274
 20
182.3271942251
 10
204.5082050618
 20
182.2953377567
 10
204.5069467459
 20
182.2642411986
 10
204.5045231798
 20
182.2339045459
 10
204.5009005734
 20
182.2043644409
 10
204.4961127166
 20
182.175584231
 10
204.4902609798
 20
182.1474539691
 10
204.4835461912
 20
182.1198539607
 10
204.4757675224
 20
182.0929038928
 10
204.4664238584
 20
182.0668528892
 10
204.4553860595
 20
182.0416708135
 10
204.4427832653
 20
182.017387792
 10
204.4285017798
 20
181.9943433403
 10
204.4124496015
 20
181.9725149936
 10
204.3947187319
 20
181.9519252043
 10
204.3754714798
 20
181.9329808606
 10
204.3545911547
 20
181.9157099178
 10
204.3321944471
 20
181.9000844069
 10
204.3087937364
 20
181.8864273275
 10
204.2844030393
 20
181.8748394315
 10
204.2590083392
 20
181.8652199555
 10
204.2330799658
 20
181.8575896267
 10
204.2067746959
 20
181.8519553522
 10
204.1799357527
 20
181.8483102189
 10
204.1525631363
 20
181.8466542251
  0
LWPOLYLINE
  5
3A1
100
AcDbEntity
  8
0
100
AcDbPolyline
 62
7
  6
CONTINUOUS
 90
25
 70
0
 10
204.6820561056
 20
182.3271942251
 10
204.6822425494
 20
182.3697004332
 10
204.680408452
 20
182.4112341437
 10
204.6765538136
 20
182.4517953474
 10
204.670636882
 20
182.4913812844
 10
204.6626994092
 20
182.5299946966
 10
204.6528666514
 20
182.5676438286
 10
204.6412467285
 20
182.6044704144
 10
204.6277315204
 20
182.6403327045
 10
204.6121219235
 20
182.6748137141
 10
204.5943655716
 20
182.7079013452
 10
204.574514831
 20
182.7396076751
 10
204.5525276959
 20
182.7695519771
 10
204.5282683989
 20
182.7977714532
 10
204.5018727075
 20
182.8242288791
 10
204.4737059187
 20
182.8484318846
 10
204.4437128596
 20
182.8703798581
 10
204.4119487032
 20
182.8900733886
 10
204.3789442647
 20
182.9070219027
 10
204.3446450413
 20
182.9209837892
 10
204.3091055359
 20
182.9322006404
 10
204.2730200727
 20
182.9409066897
 10
204.2366200932
 20
182.9471800122
 10
204.1996741559
 20
182.9509425247
 10
204.1621822609
 20
182.9521942251
  0
LINE
  5
3A2
100
AcDbEntity
  8
0
100
AcDbLine
 62
7
  6
CONTINUOUS
 10
206.2159252801
 20
218.4087002251
 11
206.3015062801
 21
219.6492642251
  0
LINE
  5
3A3
100
AcDbEntity
  8
0
100
AcDbLine
 62
7
  6
CONTINUOUS
 10
206.0080802801
 20
220.3085462251
 11
205.8365352801
 21
218.4087002251
  0
LINE
  5
3A4
100
AcDbEntity
  8
0
100
AcDbLine
 62
250
  6
CONTINUOUS
 10
201.8855039557
 20
191.1137989157
 11
201.8886988708
 21
191.1233914554
  0
LINE
  5
3A5
100
AcDbEntity
  8
0
100
AcDbLine
 62
250
  6
CONTINUOUS
 10
202.0854734947
 20
190.9140730087
 11
202.0876162801
 21
190.9205065926
  0
LINE
  5
3A6
100
AcDbEntity
  8
0
100
AcDbLine
 62
7
  6
CONTINUOUS
 10
210.3995412801
 20
215.5956372251
 11
210.6812382801
 21
216.4140172251
  0
LINE
  5
3A7
100
AcDbEntity
  8
0
100
AcDbLine
 62
7
  6
CONTINUOUS
 10
210.1521472801
 20
214.8771942251
 11
210.2942912801
 21
215.2798882251
  0
LINE
  5
3A8
100
AcDbEntity
  8
0
100
AcDbLine
 62
7
  6
CONTINUOUS
 10
210.4495922801
 20
216.7771942251
 11
209.7626802801
 21
214.8771942251
  0
LWPOLYLINE
  5
3A9
100
AcDbEntity
  8
0
100
AcDbPolyline
 62
250
  6
CONTINUOUS
 90
16
 70
0
 10
213.2514228061
 20
214.176607664
 10
213.2584000257
 20
214.186673579
 10
213.2667419823
 20
214.1956973006
 10
213.2762854292
 20
214.2034888282
 10
213.286847754
 20
214.2098675338
 10
213.298204285
 20
214.2147153869
 10
213.310116513
 20
214.2179884399
 10
213.3223646353
 20
214.2196435801
 10
213.3347263069
 20
214.2196309095
 10
213.3469702905
 20
214.2179506816
 10
213.3588802021
 20
214.2146512191
 10
213.3702298716
 20
214.2097771642
 10
213.3807655965
 20
214.2033844567
 10
213.390263343
 20
214.1956019944
 10
213.3985530803
 20
214.1866120946
 10
213.4054797409
 20
214.1766074952
  0
LINE
  5
3AA
100
AcDbEntity
  8
0
100
AcDbLine
 62
7
  6
CONTINUOUS
 10
211.3229212801
 20
181.7021942251
 11
210.8702012801
 21
182.9521942251
  0
LINE
  5
3AB
100
AcDbEntity
  8
0
100
AcDbLine
 62
7
  6
CONTINUOUS
 10
211.0147222801
 20
182.0660232251
 11
211.1383272801
 21
181.7021942251
  0
LINE
  5
3AC
100
AcDbEntity
  8
0
100
AcDbLine
 62
7
  6
CONTINUOUS
 10
210.7675332801
 20
182.7708832251
 11
210.9537742801
 21
182.2157402251
  0
LINE
  5
3AD
100
AcDbEntity
  8
0
100
AcDbLine
 62
250
  6
CONTINUOUS
 10
201.8886988708
 20
210.5309969948
 11
201.8855039557
 21
210.5405895346
  0
LINE
  5
3AE
100
AcDbEntity
  8
0
100
AcDbLine
 62
250
  6
CONTINUOUS
 10
202.0876162801
 20
210.7338818577
 11
202.0854734947
 21
210.7403154415
  0
LWPOLYLINE
  5
3AF
100
AcDbEntity
  8
0
100
AcDbPolyline
 62
250
  6
CONTINUOUS
 90
37
 70
0
 10
200.8718672216
 20
213.0022171388
 10
200.8741682135
 20
212.9943974708
 10
200.87809733
 20
212.9869242262
 10
200.8834736548
 20
212.9797974051
 10
200.8901055831
 20
212.973019783
 10
200.8978277018
 20
212.9665885844
 10
200.9065265106
 20
212.9604954827
 10
200.9160651801
 20
212.9547456352
 10
200.9263047511
 20
212.9493338846
 10
200.9371729797
 20
212.9442364334
 10
200.9485706553
 20
212.9394537566
 10
200.9603840156
 20
212.9349853792
 10
200.9725472302
 20
212.9308060779
 10
200.9849718767
 20
212.9269186543
 10
200.9975756102
 20
212.9233203068
 10
201.0103200982
 20
212.9199774071
 10
201.0231310547
 20
212.9168919178
 10
201.0359512513
 20
212.9140618763
 10
201.0487852339
 20
212.9114477655
 10
201.0615803001
 20
212.9090487526
 10
201.0742938917
 20
212.9068656704
 10
201.0869616464
 20
212.9048615005
 10
201.0995471416
 20
212.9030340737
 10
201.1120198724
 20
212.9013855591
 10
201.1244370641
 20
212.8998854461
 10
201.136773066
 20
212.8985310241
 10
201.1490069488
 20
212.8973250036
 10
201.1612124945
 20
212.8962450052
 10
201.1733713739
 20
212.895287979
 10
201.1854689343
 20
212.8944569749
 10
201.1975910707
 20
212.8937387639
 10
201.2097236489
 20
212.8931300584
 10
201.2218556757
 20
212.892634146
 10
201.2340817392
 20
212.8922476596
 10
201.2464264208
 20
212.8919694767
 10
201.2588427801
 20
212.8918007196
 10
201.2713190355
 20
212.8917413886
  0
LINE
  5
3B0
100
AcDbEntity
  8
0
100
AcDbLine
 62
7
  6
CONTINUOUS
 10
205.8265092801
 20
182.8024772251
 11
205.8265092801
 21
182.9521942251
  0
LINE
  5
3B1
100
AcDbEntity
  8
0
100
AcDbLine
 62
7
  6
CONTINUOUS
 10
205.8387112801
 20
181.7021942251
 11
205.8387112801
 21
181.8519112251
  0
LINE
  5
3B2
100
AcDbEntity
  8
0
100
AcDbLine
 62
7
  6
CONTINUOUS
 10
206.2451196332
 20
186.5314915889
 11
206.2451196332
 21
185.8551614993
  0
LINE
  5
3B3
100
AcDbEntity
  8
0
100
AcDbLine
 62
7
  6
CONTINUOUS
 10
206.2451196332
 20
185.6863347479
 11
206.2451196332
 21
185.3271942251
  0
LINE
  5
3B4
100
AcDbEntity
  8
0
100
AcDbLine
 62
7
  6
CONTINUOUS
 10
206.4292942304
 20
185.3271942251
 11
206.4292942304
 21
185.6863347479
  0
LINE
  5
3B5
100
AcDbEntity
  8
0
100
AcDbLine
 62
7
  6
CONTINUOUS
 10
206.4292942304
 20
185.8551614993
 11
206.4292942304
 21
186.8271942251
  0
LINE
  5
3B6
100
AcDbEntity
  8
0
100
AcDbLine
 62
7
  6
CONTINUOUS
 10
206.5699492801
 20
182.9521942251
 11
206.5699492801
 21
181.7021942251
  0
LINE
  5
3B7
100
AcDbEntity
  8
0
100
AcDbLine
 62
7
  6
CONTINUOUS
 10
206.6318863053
 20
185.6863347479
 11
206.6318863053
 21
185.8551614993
  0
LINE
  5
3B8
100
AcDbEntity
  8
0
100
AcDbLine
 62
7
  6
CONTINUOUS
 10
206.7388122801
 20
181.7021942251
 11
206.7388122801
 21
182.9521942251
  0
LINE
  5
3B9
100
AcDbEntity
  8
0
100
AcDbLine
 62
7
  6
CONTINUOUS
 10
206.9613541979
 20
186.4567985945
 11
206.9613541979
 21
186.2787631267
  0
LINE
  5
3BA
100
AcDbEntity
  8
0
100
AcDbLine
 62
7
  6
CONTINUOUS
 10
207.0277732801
 20
182.9521942251
 11
207.0277732801
 21
181.7021942251
  0
LINE
  5
3BB
100
AcDbEntity
  8
0
100
AcDbLine
 62
7
  6
CONTINUOUS
 10
207.1914912801
 20
181.7021942251
 11
207.1914912801
 21
182.7173442251
  0
LINE
  5
3BC
100
AcDbEntity
  8
0
100
AcDbLine
 62
7
  6
CONTINUOUS
 10
207.3297033925
 20
186.5007958525
 11
207.3297033925
 21
185.3271942251
  0
LWPOLYLINE
  5
3BD
100
AcDbEntity
  8
0
100
AcDbPolyline
 62
7
  6
CONTINUOUS
 90
25
 70
0
 10
212.9315044111
 20
214.2753363607
 10
212.9510499372
 20
214.3189516678
 10
212.9745401106
 20
214.3592843393
 10
213.0019749315
 20
214.3963343964
 10
213.0337796671
 20
214.4304684753
 10
213.0695290501
 20
214.4613199763
 10
213.1079472788
 20
214.4877890705
 10
213.1491346206
 20
214.5097196307
 10
213.1929908081
 20
214.5272678193
 10
213.2379392378
 20
214.5398022446
 10
213.2840176918
 20
214.5471395531
 10
213.3311883881
 20
214.549463115
 10
213.3777613766
 20
214.5466916193
 10
213.4237131436
 20
214.5386421284
 10
213.4690672029
 20
214.5254975706
 10
213.5122041465
 20
214.5077254286
 10
213.5530479925
 20
214.4851554998
 10
213.5916747229
 20
214.4579579556
 10
213.6266928758
 20
214.4271108391
 10
213.6579689692
 20
214.3924789968
 10
213.6856364852
 20
214.3541975428
 10
213.7087044083
 20
214.3136499313
 10
213.7268424002
 20
214.2712973073
 10
213.7403807993
 20
214.2266784979
 10
213.7493196055
 20
214.1797934868
  0
LINE
  5
3BE
100
AcDbEntity
  8
0
100
AcDbLine
 62
7
  6
CONTINUOUS
 10
197.4784460921
 20
191.265134702
 11
197.4405056152
 21
191.2271942251
  0
LINE
  5
3BF
100
AcDbEntity
  8
0
100
AcDbLine
 62
7
  6
CONTINUOUS
 10
216.9967864681
 20
210.3892537483
 11
217.034726945
 21
210.4271942251
  0
LINE
  5
3C0
100
AcDbEntity
  8
0
100
AcDbLine
 62
7
  6
CONTINUOUS
 10
197.4784460921
 20
210.3892537483
 11
197.4405056152
 21
210.4271942251
  0
LINE
  5
3C1
100
AcDbEntity
  8
0
100
AcDbLine
 62
7
  6
CONTINUOUS
 10
216.9967864681
 20
191.265134702
 11
217.034726945
 21
191.2271942251
  0
LWPOLYLINE
  5
3C2
100
AcDbEntity
  8
0
100
AcDbPolyline
 62
7
  6
CONTINUOUS
 90
10
 70
0
 10
207.9865928311
 20
185.7231696808
 10
207.9923530458
 20
185.6813460835
 10
208.0007795413
 20
185.64157718
 10
208.0118723178
 20
185.6038629554
 10
208.0256209979
 20
185.5683052092
 10
208.0420359589
 20
185.5348021143
 10
208.0611483328
 20
185.5030482191
 10
208.0829684967
 20
185.4729417008
 10
208.1074860734
 20
185.4445843628
 10
208.134701063
 20
185.4179761961
  0
LINE
  5
3C3
100
AcDbEntity
  8
0
100
AcDbLine
 62
7
  6
CONTINUOUS
 10
207.2938772801
 20
219.6440922251
 11
207.3753542801
 21
218.4087002251
  0
LWPOLYLINE
  5
3C4
100
AcDbEntity
  8
0
100
AcDbPolyline
 62
7
  6
CONTINUOUS
 90
10
 70
0
 10
208.8951879162
 20
186.443497073
 10
208.8945192232
 20
186.465738756
 10
208.8924981032
 20
186.4877563834
 10
208.8891245562
 20
186.509549954
 10
208.8844272167
 20
186.5310773651
 10
208.8783774502
 20
186.5523807177
 10
208.8708893532
 20
186.5735863175
 10
208.8619342911
 20
186.5947362664
 10
208.8515408985
 20
186.6157884619
 10
208.8397091754
 20
186.6367429036
  0
LWPOLYLINE
  5
3C5
100
AcDbEntity
  8
0
100
AcDbPolyline
 62
7
  6
CONTINUOUS
 90
10
 70
0
 10
208.968857469
 20
185.7702365034
 10
208.9679120577
 20
185.8020931314
 10
208.9651281364
 20
185.8327241305
 10
208.9605057051
 20
185.8621294939
 10
208.9540067863
 20
185.8903504418
 10
208.9456693574
 20
185.9173457411
 10
208.9356073514
 20
185.9429917047
 10
208.9238587458
 20
185.9672470993
 10
208.910385563
 20
185.9901531458
 10
208.8951878031
 20
186.0117098387
  0
LINE
  5
3C6
100
AcDbEntity
  8
0
100
AcDbLine
 62
7
  6
CONTINUOUS
 10
207.5138781685
 20
185.3271942251
 11
207.5138781685
 21
186.8333334439
  0
LINE
  5
3C7
100
AcDbEntity
  8
0
100
AcDbLine
 62
7
  6
CONTINUOUS
 10
207.8547432801
 20
216.7771942251
 11
207.8547432801
 21
214.8771942251
  0
LINE
  5
3C8
100
AcDbEntity
  8
0
100
AcDbLine
 62
7
  6
CONTINUOUS
 10
207.8565642801
 20
182.9521942251
 11
207.8565642801
 21
181.9368392251
  0
LINE
  5
3C9
100
AcDbEntity
  8
0
100
AcDbLine
 62
7
  6
CONTINUOUS
 10
208.0202012801
 20
181.7021942251
 11
208.0202012801
 21
182.9521942251
  0
LINE
  5
3CA
100
AcDbEntity
  8
0
100
AcDbLine
 62
7
  6
CONTINUOUS
 10
208.2363442801
 20
214.8771942251
 11
208.2363442801
 21
216.4673662251
  0
LINE
  5
3CB
100
AcDbEntity
  8
0
100
AcDbLine
 62
7
  6
CONTINUOUS
 10
208.7949082801
 20
182.9521942251
 11
208.7949082801
 21
181.7021942251
  0
LINE
  5
3CC
100
AcDbEntity
  8
0
100
AcDbLine
 62
7
  6
CONTINUOUS
 10
208.9638222801
 20
181.7021942251
 11
208.9638222801
 21
182.9521942251
  0
LINE
  5
3CD
100
AcDbEntity
  8
0
100
AcDbLine
 62
250
  6
CONTINUOUS
 10
212.3897590655
 20
210.7403154415
 11
212.3876162801
 21
210.7338818577
  0
LINE
  5
3CE
100
AcDbEntity
  8
0
100
AcDbLine
 62
7
  6
CONTINUOUS
 10
201.7073162801
 20
181.7021942251
 11
202.0589502801
 21
182.7520322251
  0
LINE
  5
3CF
100
AcDbEntity
  8
0
100
AcDbLine
 62
7
  6
CONTINUOUS
 10
201.9823732801
 20
182.9521942251
 11
201.6254652801
 21
181.8902962251
  0
LWPOLYLINE
  5
3D0
100
AcDbEntity
  8
0
100
AcDbPolyline
 62
7
  6
CONTINUOUS
 90
25
 70
0
 10
201.5437281491
 20
187.3790520896
 10
201.5241826231
 20
187.3354367825
 10
201.5006924496
 20
187.295104111
 10
201.4732576287
 20
187.2580540538
 10
201.4414528931
 20
187.223919975
 10
201.4057035101
 20
187.193068474
 10
201.3672852814
 20
187.1665993798
 10
201.3260979397
 20
187.1446688196
 10
201.2822417522
 20
187.127120631
 10
201.2372933224
 20
187.1145862057
 10
201.1912148684
 20
187.1072488971
 10
201.1440441722
 20
187.1049253353
 10
201.0974711836
 20
187.107696831
 10
201.0515194166
 20
187.1157463219
 10
201.0061653574
 20
187.1288908796
 10
200.9630284137
 20
187.1466630217
 10
200.9221845677
 20
187.1692329505
 10
200.8835578373
 20
187.1964304947
 10
200.8485396844
 20
187.2272776112
 10
200.817263591
 20
187.2619094534
 10
200.789596075
 20
187.3001909074
 10
200.7665281519
 20
187.340738519
 10
200.74839016
 20
187.3830911429
 10
200.7348517609
 20
187.4277099524
 10
200.7259129547
 20
187.4745949634
  0
LWPOLYLINE
  5
3D1
100
AcDbEntity
  8
0
100
AcDbPolyline
 62
250
  6
CONTINUOUS
 90
15
 70
0
 10
217.2442708966
 20
186.7289394516
 10
217.2292215478
 20
186.7522975654
 10
217.2150750632
 20
186.7739186448
 10
217.2018813791
 20
186.7937353569
 10
217.1895905593
 20
186.8118284126
 10
217.1780272297
 20
186.8284479325
 10
217.1672018828
 20
186.8435320404
 10
217.1571040262
 20
186.8571444825
 10
217.1475268094
 20
186.8695949758
 10
217.1384603812
 20
186.8807268569
 10
217.1299145927
 20
186.8905545218
 10
217.1217121469
 20
186.8993529398
 10
217.1137939448
 20
186.9069198212
 10
217.1062190853
 20
186.9127997557
 10
217.0989875684
 20
186.916664575
  0
LWPOLYLINE
  5
3D2
100
AcDbEntity
  8
0
100
AcDbPolyline
 62
250
  6
CONTINUOUS
 90
3
 70
0
 10
217.295046702
 20
186.6482802368
 10
217.2771834737
 20
186.6768767043
 10
217.2442708966
 20
186.7289394516
  0
LINE
  5
3D3
100
AcDbEntity
  8
0
100
AcDbLine
 62
250
  6
CONTINUOUS
 10
217.3751215389
 20
186.5181866958
 11
217.295046702
 21
186.6482802368
  0
LWPOLYLINE
  5
3D4
100
AcDbEntity
  8
0
100
AcDbPolyline
 62
7
  6
CONTINUOUS
 90
9
 70
0
 10
217.0462966645
 20
187.1627833188
 10
217.0402013399
 20
187.172764158
 10
217.034258544
 20
187.1823787836
 10
217.0284722376
 20
187.1916130006
 10
217.0228384598
 20
187.2004810039
 10
217.0173453277
 20
187.2090253779
 10
217.0119888802
 20
187.2172603174
 10
217.0067730783
 20
187.2251716276
 10
217.001697922
 20
187.2327593084
  0
LINE
  5
3D5
100
AcDbEntity
  8
0
100
AcDbLine
 62
7
  6
CONTINUOUS
 10
217.0976162801
 20
187.0771942251
 11
217.0462966645
 21
187.1627833188
  0
LINE
  5
3D6
100
AcDbEntity
  8
0
100
AcDbLine
 62
7
  6
CONTINUOUS
 10
216.8427851447
 20
184.3471783946
 11
216.8527764685
 21
184.3271942251
  0
LINE
  5
3D7
100
AcDbEntity
  8
0
100
AcDbLine
 62
250
  6
CONTINUOUS
 10
212.3897590655
 20
190.9140730087
 11
212.3876162801
 21
190.9205065926
  0
LINE
  5
3D8
100
AcDbEntity
  8
0
100
AcDbLine
 62
7
  6
CONTINUOUS
 10
207.7633072801
 20
218.4087002251
 11
207.5856502801
 21
220.3085462251
  0
LINE
  5
3D9
100
AcDbEntity
  8
0
100
AcDbLine
 62
7
  6
CONTINUOUS
 10
209.1448882801
 20
182.9521942251
 11
209.1448882801
 21
182.8024772251
  0
LINE
  5
3DA
100
AcDbEntity
  8
0
100
AcDbLine
 62
7
  6
CONTINUOUS
 10
209.1889542801
 20
216.7771942251
 11
209.1889542801
 21
215.2715342251
  0
LINE
  5
3DB
100
AcDbEntity
  8
0
100
AcDbLine
 62
7
  6
CONTINUOUS
 10
209.2921863217
 20
186.4567985945
 11
209.2921863217
 21
186.2787631267
  0
LINE
  5
3DC
100
AcDbEntity
  8
0
100
AcDbLine
 62
7
  6
CONTINUOUS
 10
209.5045008828
 20
220.2863496839
 11
209.5045008828
 21
218.4087004791
  0
LINE
  5
3DD
100
AcDbEntity
  8
0
100
AcDbLine
 62
7
  6
CONTINUOUS
 10
209.5679572801
 20
182.8024772251
 11
209.5679572801
 21
181.7021942251
  0
LINE
  5
3DE
100
AcDbEntity
  8
0
100
AcDbLine
 62
7
  6
CONTINUOUS
 10
209.5705562801
 20
214.8771942251
 11
209.5705562801
 21
216.7771942251
  0
LINE
  5
3DF
100
AcDbEntity
  8
0
100
AcDbLine
 62
7
  6
CONTINUOUS
 10
209.6605355162
 20
186.5007958525
 11
209.6605355162
 21
185.3271942251
  0
LINE
  5
3E0
100
AcDbEntity
  8
0
100
AcDbLine
 62
7
  6
CONTINUOUS
 10
209.7368112801
 20
181.7021942251
 11
209.7368112801
 21
182.8024772251
  0
LINE
  5
3E1
100
AcDbEntity
  8
0
100
AcDbLine
 62
7
  6
CONTINUOUS
 10
209.8447102923
 20
185.3271942251
 11
209.8447102923
 21
186.8333334439
  0
LINE
  5
3E2
100
AcDbEntity
  8
0
100
AcDbLine
 62
7
  6
CONTINUOUS
 10
209.8863277832
 20
219.4633439609
 11
209.8863277832
 21
219.9848886484
  0
LINE
  5
3E3
100
AcDbEntity
  8
0
100
AcDbLine
 62
7
  6
CONTINUOUS
 10
209.899477525
 20
218.4087004791
 11
209.899477525
 21
219.1521951416
  0
LINE
  5
3E4
100
AcDbEntity
  8
0
100
AcDbLine
 62
7
  6
CONTINUOUS
 10
210.1598802801
 20
182.8024772251
 11
210.1598802801
 21
182.9521942251
  0
LINE
  5
3E5
100
AcDbEntity
  8
0
100
AcDbLine
 62
7
  6
CONTINUOUS
 10
210.5287212712
 20
219.2936121914
 11
210.5287212712
 21
219.3075409155
  0
LWPOLYLINE
  5
3E6
100
AcDbEntity
  8
0
100
AcDbPolyline
 62
7
  6
CONTINUOUS
 90
25
 70
0
 10
210.4210222125
 20
219.7585791706
 10
210.4206243897
 20
219.7376519164
 10
210.4190234678
 20
219.7169845429
 10
210.4162194469
 20
219.6965770514
 10
210.4122201899
 20
219.6763559362
 10
210.4070178339
 20
219.6563947053
 10
210.4005887899
 20
219.6369138811
 10
210.3929456794
 20
219.6178349459
 10
210.3840758811
 20
219.5992364215
 10
210.373917941
 20
219.5815743927
 10
210.3624264916
 20
219.5648351111
 10
210.3496469005
 20
219.5490323324
 10
210.3356538174
 20
219.5346634016
 10
210.3203124096
 20
219.5219046272
 10
210.3037575098
 20
219.5105797097
 10
210.2864682662
 20
219.5006570825
 10
210.2684458632
 20
219.492229485
 10
210.2496891163
 20
219.4852041837
 10
210.2306736208
 20
219.4792714012
 10
210.2115258037
 20
219.4744261804
 10
210.1921192379
 20
219.4706734812
 10
210.1725502369
 20
219.4677183996
 10
210.1528509051
 20
219.4654626347
 10
210.1329891382
 20
219.4640044883
 10
210.112964936
 20
219.4633439609
  0
LWPOLYLINE
  5
3E7
100
AcDbEntity
  8
0
100
AcDbPolyline
 62
7
  6
CONTINUOUS
 90
10
 70
0
 10
208.7734277863
 20
185.7661437654
 10
208.7722173354
 20
185.7369026212
 10
208.7688322142
 20
185.7088196834
 10
208.7632724226
 20
185.6818949462
 10
208.7555602629
 20
185.6561963185
 10
208.7456734329
 20
185.6316558801
 10
208.7335450258
 20
185.6080698833
 10
208.7191527392
 20
185.5853704097
 10
208.7025188754
 20
185.5636253698
 10
208.6836434344
 20
185.5428347598
  0
LWPOLYLINE
  5
3E8
100
AcDbEntity
  8
0
100
AcDbPolyline
 62
7
  6
CONTINUOUS
 90
10
 70
0
 10
208.7058972735
 20
186.4475898557
 10
208.7047327696
 20
186.4198695306
 10
208.7012213583
 20
186.3938198528
 10
208.6953630394
 20
186.3694408147
 10
208.6871324855
 20
186.3467219011
 10
208.6765550241
 20
186.3256736136
 10
208.6637066376
 20
186.3063274705
 10
208.6486126534
 20
186.2886939741
 10
208.6312477441
 20
186.2727626111
 10
208.6116119096
 20
186.2585333767
  0
LINE
  5
3E9
100
AcDbEntity
  8
0
100
AcDbLine
 62
7
  6
CONTINUOUS
 10
208.3702899832
 20
186.1989540868
 11
208.349826159
 21
186.0372897052
  0
LWPOLYLINE
  5
3EA
100
AcDbEntity
  8
0
100
AcDbPolyline
 62
7
  6
CONTINUOUS
 90
10
 70
0
 10
208.1891850848
 20
186.4117781633
 10
208.1939016444
 20
186.4397422843
 10
208.2000029501
 20
186.4664580242
 10
208.2074890018
 20
186.4919253771
 10
208.216376649
 20
186.5162883374
 10
208.2266490422
 20
186.5394029003
 10
208.2382556336
 20
186.5608370596
 10
208.2511795739
 20
186.5804468088
 10
208.2654377124
 20
186.5983761421
 10
208.281030049
 20
186.6146250544
  0
LINE
  5
3EB
100
AcDbEntity
  8
0
100
AcDbLine
 62
250
  6
CONTINUOUS
 10
212.5897286045
 20
210.5405895346
 11
212.5865336895
 21
210.5309969948
  0
LINE
  5
3EC
100
AcDbEntity
  8
0
100
AcDbLine
 62
7
  6
CONTINUOUS
 10
202.5464652801
 20
181.7021942251
 11
202.6770552801
 21
182.0660232251
  0
LINE
  5
3ED
100
AcDbEntity
  8
0
100
AcDbLine
 62
7
  6
CONTINUOUS
 10
202.7293002801
 20
182.2157402251
 11
202.9313122801
 21
182.7708832251
  0
LINE
  5
3EE
100
AcDbEntity
  8
0
100
AcDbLine
 62
7
  6
CONTINUOUS
 10
202.8424212801
 20
182.9521942251
 11
202.3723852801
 21
181.7021942251
  0
LWPOLYLINE
  5
3EF
100
AcDbEntity
  8
0
100
AcDbPolyline
 62
250
  6
CONTINUOUS
 90
16
 70
0
 10
201.2238097581
 20
187.4777807929
 10
201.21683254
 20
187.467714878
 10
201.2084905846
 20
187.4586911559
 10
201.1989471384
 20
187.4508996272
 10
201.1883848131
 20
187.44452092
 10
201.1770282809
 20
187.4396730654
 10
201.1651160517
 20
187.4364000113
 10
201.152867929
 20
187.4347448705
 10
201.1405062571
 20
187.4347575405
 10
201.1282622729
 20
187.4364377681
 10
201.1163523541
 20
187.4397372328
 10
201.1050026778
 20
187.4446112919
 10
201.0944669625
 20
187.4510039945
 10
201.0849692418
 20
187.4587864324
 10
201.076679535
 20
187.4677762873
 10
201.0697529022
 20
187.4777808186
  0
LWPOLYLINE
  5
3F0
100
AcDbEntity
  8
0
100
AcDbPolyline
 62
250
  6
CONTINUOUS
 90
19
 70
0
 10
213.6033653387
 20
188.6521689272
 10
213.5989896572
 20
188.6644248541
 10
213.5906298104
 20
188.6759537497
 10
213.5787674741
 20
188.6867556139
 10
213.5638958144
 20
188.6968567985
 10
213.5464920236
 20
188.7062309518
 10
213.5269967255
 20
188.7147990188
 10
213.5059007965
 20
188.7225069982
 10
213.4835676376
 20
188.7294088913
 10
213.4601458923
 20
188.7355876464
 10
213.4361217568
 20
188.741020327
 10
213.411611301
 20
188.7457298696
 10
213.3860030151
 20
188.7498680319
 10
213.359533764
 20
188.7534985285
 10
213.3322570743
 20
188.7565576448
 10
213.303074781
 20
188.7590059949
 10
213.2716520983
 20
188.7608304501
 10
213.2385347154
 20
188.762044139
 10
213.2039135248
 20
188.7626470617
  0
LINE
  5
3F1
100
AcDbEntity
  8
0
100
AcDbLine
 62
250
  6
CONTINUOUS
 10
212.5897286045
 20
191.1137989157
 11
212.5865336895
 21
191.1233914554
  0
LINE
  5
3F2
100
AcDbEntity
  8
0
100
AcDbLine
 62
7
  6
CONTINUOUS
 10
203.5168522801
 20
220.3085462251
 11
204.1191402801
 21
218.4087002251
  0
LINE
  5
3F3
100
AcDbEntity
  8
0
100
AcDbLine
 62
7
  6
CONTINUOUS
 10
204.3097972801
 20
219.0008232251
 11
203.9476522801
 21
220.3085462251
  0
LWPOLYLINE
  5
3F4
100
AcDbEntity
  8
0
100
AcDbPolyline
 62
250
  6
CONTINUOUS
 90
19
 70
0
 10
213.4535709084
 20
188.5162251434
 10
213.4503332123
 20
188.5284776788
 10
213.4452085847
 20
188.5400045614
 10
213.4381970258
 20
188.5508057911
 10
213.4290186572
 20
188.5609084859
 10
213.4179533572
 20
188.5702855277
 10
213.4058407606
 20
188.5788555631
 10
213.392780442
 20
188.5865634938
 10
213.3786728268
 20
188.593464418
 10
213.3640588261
 20
188.5996422766
 10
213.3491533047
 20
188.6050743473
 10
213.3337413977
 20
188.6097833526
 10
213.3177194221
 20
188.613921401
 10
213.3012252329
 20
188.617552637
 10
213.284120975
 20
188.6206129161
 10
213.2658894001
 20
188.6230619138
 10
213.246358092
 20
188.6248861886
 10
213.2256994669
 20
188.6260991818
 10
213.2039135248
 20
188.6267008936
  0
LINE
  5
3F5
100
AcDbEntity
  8
0
100
AcDbLine
 62
7
  6
CONTINUOUS
 10
211.4777932801
 20
182.9521942251
 11
211.4777932801
 21
181.7021942251
  0
LINE
  5
3F6
100
AcDbEntity
  8
0
100
AcDbLine
 62
7
  6
CONTINUOUS
 10
211.6467182801
 20
181.8519112251
 11
211.6467182801
 21
182.9521942251
  0
LINE
  5
3F7
100
AcDbEntity
  8
0
100
AcDbLine
 62
7
  6
CONTINUOUS
 10
212.2804622801
 20
181.7021942251
 11
212.2804622801
 21
181.8519112251
  0
LINE
  5
3F8
100
AcDbEntity
  8
0
100
AcDbLine
 62
250
  6
CONTINUOUS
 10
212.3897590655
 20
188.5314129413
 11
212.3897590655
 21
190.9140730087
  0
LINE
  5
3F9
100
AcDbEntity
  8
0
100
AcDbLine
 62
250
  6
CONTINUOUS
 10
212.3897590655
 20
210.7403154415
 11
212.3897590655
 21
213.122975509
  0
LINE
  5
3FA
100
AcDbEntity
  8
0
100
AcDbLine
 62
250
  6
CONTINUOUS
 10
213.4535709084
 20
213.1381633069
 11
213.4564050649
 21
213.1633807242
  0
LINE
  5
3FB
100
AcDbEntity
  8
0
100
AcDbLine
 62
250
  6
CONTINUOUS
 10
213.6033653387
 20
213.0022171388
 11
213.6190876724
 21
213.1421094363
  0
LWPOLYLINE
  5
3FC
100
AcDbEntity
  8
0
100
AcDbPolyline
 62
7
  6
CONTINUOUS
 90
10
 70
0
 10
205.064355569
 20
186.8333334439
 10
205.051685072
 20
186.8100132436
 10
205.0375755562
 20
186.7869486702
 10
205.0220270215
 20
186.7641397228
 10
205.0049596405
 20
186.7415825695
 10
204.9864532407
 20
186.7192810403
 10
204.9667473044
 20
186.6972466273
 10
204.945921659
 20
186.6754831606
 10
204.9238964771
 20
186.6539868082
 10
204.9006717588
 20
186.6327575691
  0
LINE
  5
3FD
100
AcDbEntity
  8
0
100
AcDbLine
 62
250
  6
CONTINUOUS
 10
200.8561448878
 20
187.7380735931
 11
200.6965693581
 21
187.5784980634
  0
LINE
  5
3FE
100
AcDbEntity
  8
0
100
AcDbLine
 62
250
  6
CONTINUOUS
 10
201.0558707947
 20
187.5383476861
 11
200.9625460299
 21
187.4450229213
  0
LWPOLYLINE
  5
3FF
100
AcDbEntity
  8
0
100
AcDbPolyline
 62
7
  6
CONTINUOUS
 90
16
 70
0
 10
197.4784460921
 20
210.3892537483
 10
197.4817186584
 20
210.3876435749
 10
197.4878581149
 20
210.3860888175
 10
197.4968644613
 20
210.3845894759
 10
197.5088975305
 20
210.3831308762
 10
197.5237974897
 20
210.3817276924
 10
197.5410848411
 20
210.3804239469
 10
197.5608011701
 20
210.3792241059
 10
197.5829048912
 20
210.3781237033
 10
197.6067917504
 20
210.3771533629
 10
197.632567552
 20
210.3763154222
 10
197.6601264916
 20
210.3756075437
 10
197.688546902
 20
210.3750533395
 10
197.7175215608
 20
210.37466068
 10
197.7473576903
 20
210.3744216946
 10
201.5876162801
 20
210.3743363801
  0
LINE
  5
400
100
AcDbEntity
  8
0
100
AcDbLine
 62
250
  6
CONTINUOUS
 10
200.6965693581
 20
214.0758903868
 11
200.8561448878
 21
213.9163148572
  0
LINE
  5
401
100
AcDbEntity
  8
0
100
AcDbLine
 62
250
  6
CONTINUOUS
 10
200.9625460299
 20
214.2093655289
 11
201.0558707947
 21
214.1160407641
  0
LINE
  5
402
100
AcDbEntity
  8
0
100
AcDbLine
 62
7
  6
CONTINUOUS
 10
207.6468892801
 20
214.8771942251
 11
206.9863612801
 21
216.7771942251
  0
LINE
  5
403
100
AcDbEntity
  8
0
100
AcDbLine
 62
7
  6
CONTINUOUS
 10
207.0994762801
 20
215.2798882251
 11
207.2363292801
 21
214.8771942251
  0
LINE
  5
404
100
AcDbEntity
  8
0
100
AcDbLine
 62
7
  6
CONTINUOUS
 10
206.7338382801
 20
216.4141242251
 11
206.9968722801
 21
215.5956372251
  0
LINE
  5
405
100
AcDbEntity
  8
0
100
AcDbLine
 62
250
  6
CONTINUOUS
 10
213.4564050649
 20
188.4910077261
 11
213.4535709084
 21
188.5162251434
  0
LINE
  5
406
100
AcDbEntity
  8
0
100
AcDbLine
 62
250
  6
CONTINUOUS
 10
213.6190876724
 20
188.512279014
 11
213.6033653387
 21
188.6521713115
  0
LWPOLYLINE
  5
407
100
AcDbEntity
  8
0
100
AcDbPolyline
 62
250
  6
CONTINUOUS
 90
13
 70
0
 10
212.5397362198
 20
213.258921677
 10
212.5398382923
 20
213.2576540309
 10
212.5401171755
 20
213.2563675039
 10
212.5405728693
 20
213.255062096
 10
212.5411895571
 20
213.2537359405
 10
212.5419830556
 20
213.252390904
 10
212.5430008141
 20
213.2510325867
 10
212.5442415549
 20
213.2496544428
 10
212.5457065558
 20
213.2482630181
 10
212.547447099
 20
213.2468835499
 10
212.5494802788
 20
213.2455244505
 10
212.5517890009
 20
213.2441773076
 10
212.5543732655
 20
213.2428421212
  0
LWPOLYLINE
  5
408
100
AcDbEntity
  8
0
100
AcDbPolyline
 62
250
  6
CONTINUOUS
 90
13
 70
0
 10
213.6033653387
 20
190.9005925234
 10
213.6015911652
 20
190.9266180527
 10
213.5964415101
 20
190.9521996134
 10
213.5880042538
 20
190.9769010013
 10
213.5764233208
 20
191.0003010562
 10
213.5618962536
 20
191.0220007773
 10
213.5446708688
 20
191.0416301425
 10
213.5250409614
 20
191.0588545077
 10
213.5033412916
 20
191.0733802692
 10
213.479941933
 20
191.0849598257
 10
213.4552419049
 20
191.0933958428
 10
213.429662359
 20
191.0985446009
 10
213.4036394286
 20
191.1003184273
  0
LINE
  5
409
100
AcDbEntity
  8
0
100
AcDbLine
 62
250
  6
CONTINUOUS
 10
212.3876162801
 20
213.1802194806
 11
212.3897590655
 21
213.122975509
  0
LINE
  5
40A
100
AcDbEntity
  8
0
100
AcDbLine
 62
250
  6
CONTINUOUS
 10
212.5358393552
 20
213.3630254329
 11
212.5397362198
 21
213.258921677
  0
LWPOLYLINE
  5
40B
100
AcDbEntity
  8
RACCORDO
100
AcDbPolyline
 62
250
  6
CONTINUOUS
 90
64
 70
0
 10
212.4293587106
 20
200.8271942251
 10
212.4229312658
 20
201.0860087316
 10
212.4037201638
 20
201.3433042664
 10
212.3717254046
 20
201.5990807627
 10
212.326797278
 20
201.8541150257
 10
212.2690854942
 20
202.1076301219
 10
212.1990391839
 20
202.3572953885
 10
212.1165795709
 20
202.6029125034
 10
212.0217854314
 20
202.8446797021
 10
211.915342225
 20
203.0808611834
 10
211.7971501396
 20
203.3114484863
 10
211.6673089873
 20
203.5364500402
 10
211.5268036632
 20
203.7541554117
 10
211.3755611253
 20
203.964495102
 10
211.2136544157
 20
204.1675386415
 10
211.0422875559
 20
204.3617841729
 10
210.8613878711
 20
204.5471691331
 10
210.671028036
 20
204.7237561728
 10
210.4726300968
 20
204.8902312853
 10
210.2661353103
 20
205.046517842
 10
210.0516024195
 20
205.1926925979
 10
209.8306296999
 20
205.3276716426
 10
209.6031696108
 20
205.4513714998
 10
209.3692696929
 20
205.5638757859
 10
209.1306708429
 20
205.6643512395
 10
208.8873389768
 20
205.7527082733
 10
208.6393081787
 20
205.8290366006
 10
208.3884215979
 20
205.8927719109
 10
208.1346582898
 20
205.9438208601
 10
207.878039199
 20
205.9822768794
 10
207.620470309
 20
206.007855811
 10
207.3619447896
 20
206.0204622718
 10
207.1024694709
 20
206.0201916757
 10
206.8439708266
 20
206.0070460467
 10
206.5864559961
 20
205.9809300299
 10
206.3299178401
 20
205.9419389487
 10
206.076261414
 20
205.8903608293
 10
205.82550757
 20
205.8261021982
 10
205.5776354561
 20
205.7492564413
 10
205.3344875714
 20
205.6603918651
 10
205.0960985476
 20
205.5594189792
 10
204.8624337531
 20
205.4464271476
 10
204.6352317921
 20
205.3222529576
 10
204.4145397296
 20
205.186812373
 10
204.2003105008
 20
205.0401892901
 10
203.9941415148
 20
204.8834722045
 10
203.7960941301
 20
204.7165874374
 10
203.6061069884
 20
204.5396085418
 10
203.4255934244
 20
204.3538448827
 10
203.2546158415
 20
204.1592166989
 10
203.0931118364
 20
203.9558036646
 10
202.9423075336
 20
203.7451543284
 10
202.8023002443
 20
203.5272436453
 10
202.6729926573
 20
203.3020966304
 10
202.5553189639
 20
203.0713369549
 10
202.4493328882
 20
202.8347797509
 10
202.3549807061
 20
202.5926099174
 10
202.2730354364
 20
202.3470058097
 10
202.2036651658
 20
202.0978945699
 10
202.1467018077
 20
201.8453491465
 10
202.1024141211
 20
201.5917666323
 10
202.0708916924
 20
201.3379461042
 10
202.0520449353
 20
201.0830886133
 10
202.0458738496
 20
200.8271942251
  0
LINE
  5
40C
100
AcDbEntity
  8
0
100
AcDbLine
 62
250
  6
CONTINUOUS
 10
212.4483072483
 20
188.5474924971
 11
212.4483072483
 21
190.9140730087
  0
LINE
  5
40D
100
AcDbEntity
  8
0
100
AcDbLine
 62
250
  6
CONTINUOUS
 10
212.4483072483
 20
210.7403154415
 11
212.4483072483
 21
213.1068959532
  0
LINE
  5
40E
100
AcDbEntity
  8
0
100
AcDbLine
 62
250
  6
CONTINUOUS
 10
212.5888339162
 20
187.7375377366
 11
212.5888339162
 21
188.3424118521
  0
LINE
  5
40F
100
AcDbEntity
  8
0
100
AcDbLine
 62
250
  6
CONTINUOUS
 10
212.5888339162
 20
213.3119765982
 11
212.5888339162
 21
213.9168507136
  0
LINE
  5
410
100
AcDbEntity
  8
0
100
AcDbLine
 62
250
  6
CONTINUOUS
 10
212.6455990701
 20
187.7375377366
 11
212.6455990701
 21
188.4058880179
  0
LINE
  5
411
100
AcDbEntity
  8
0
100
AcDbLine
 62
250
  6
CONTINUOUS
 10
212.6455990701
 20
213.2485004324
 11
212.6455990701
 21
213.9168507136
  0
LINE
  5
412
100
AcDbEntity
  8
0
100
AcDbLine
 62
7
  6
CONTINUOUS
 10
212.8096782801
 20
182.2053282251
 11
212.8096782801
 21
181.7021942251
  0
LINE
  5
413
100
AcDbEntity
  8
0
100
AcDbLine
 62
250
  6
CONTINUOUS
 10
212.8403505302
 20
187.7480065867
 11
212.8403505302
 21
188.4990364975
  0
LINE
  5
414
100
AcDbEntity
  8
0
100
AcDbLine
 62
250
  6
CONTINUOUS
 10
212.8403505302
 20
213.1553519528
 11
212.8403505302
 21
213.9063818636
  0
LINE
  5
415
100
AcDbEntity
  8
0
100
AcDbLine
 62
7
  6
CONTINUOUS
 10
212.8876162801
 20
210.5267690058
 11
212.8876162801
 21
210.3743363801
  0
LINE
  5
416
100
AcDbEntity
  8
0
100
AcDbLine
 62
7
  6
CONTINUOUS
 10
212.8876162801
 20
187.5267690058
 11
212.8876162801
 21
187.3790520896
  0
LINE
  5
417
100
AcDbEntity
  8
0
100
AcDbLine
 62
7
  6
CONTINUOUS
 10
212.8876162801
 20
191.1276194445
 11
212.8876162801
 21
191.2800520702
  0
LINE
  5
418
100
AcDbEntity
  8
0
100
AcDbLine
 62
7
  6
CONTINUOUS
 10
212.8876162801
 20
214.1276194445
 11
212.8876162801
 21
214.2753363607
  0
LINE
  5
419
100
AcDbEntity
  8
0
100
AcDbLine
 62
250
  6
CONTINUOUS
 10
212.8950630401
 20
210.7637289205
 11
212.8950630401
 21
212.8985703061
  0
LINE
  5
41A
100
AcDbEntity
  8
0
100
AcDbLine
 62
250
  6
CONTINUOUS
 10
212.8950628329
 20
188.7558180475
 11
212.8950630401
 21
190.8906595298
  0
LINE
  5
41B
100
AcDbEntity
  8
0
100
AcDbLine
 62
7
  6
CONTINUOUS
 10
212.9785012801
 20
181.7021942251
 11
212.9785012801
 21
182.2053282251
  0
LINE
  5
41C
100
AcDbEntity
  8
0
100
AcDbLine
 62
250
  6
CONTINUOUS
 10
212.9835549154
 20
187.5482806797
 11
212.9835549154
 21
188.5271942251
  0
LINE
  5
41D
100
AcDbEntity
  8
0
100
AcDbLine
 62
250
  6
CONTINUOUS
 10
212.9835549154
 20
213.1271942251
 11
212.9835549154
 21
214.1061077705
  0
LINE
  5
41E
100
AcDbEntity
  8
0
100
AcDbLine
 62
250
  6
CONTINUOUS
 10
213.0364843964
 20
188.6267008936
 11
213.0364843964
 21
191.0903854368
  0
LINE
  5
41F
100
AcDbEntity
  8
0
100
AcDbLine
 62
250
  6
CONTINUOUS
 10
213.0364843964
 20
210.5640030135
 11
213.0364843964
 21
213.0276875566
  0
LINE
  5
420
100
AcDbEntity
  8
0
100
AcDbLine
 62
250
  6
CONTINUOUS
 10
213.2039135248
 20
188.6267008936
 11
213.2039135248
 21
191.0903854368
  0
LINE
  5
421
100
AcDbEntity
  8
0
100
AcDbLine
 62
250
  6
CONTINUOUS
 10
213.2039135248
 20
210.5640030135
 11
213.2039135248
 21
213.0276875566
  0
LINE
  5
422
100
AcDbEntity
  8
0
100
AcDbLine
 62
250
  6
CONTINUOUS
 10
213.2196358585
 20
187.5482806797
 11
213.2196358585
 21
188.5271942251
  0
LINE
  5
423
100
AcDbEntity
  8
0
100
AcDbLine
 62
250
  6
CONTINUOUS
 10
213.2196358585
 20
213.1271942251
 11
213.2196358585
 21
214.1061077705
  0
LINE
  5
424
100
AcDbEntity
  8
0
100
AcDbLine
 62
7
  6
CONTINUOUS
 10
213.2376162801
 20
218.1271942251
 11
213.2376162801
 21
217.3271942251
  0
LINE
  5
425
100
AcDbEntity
  8
0
100
AcDbLine
 62
7
  6
CONTINUOUS
 10
213.2376162801
 20
184.3271942251
 11
213.2376162801
 21
183.5271942251
  0
LINE
  5
426
100
AcDbEntity
  8
0
100
AcDbLine
 62
250
  6
CONTINUOUS
 10
213.6033653387
 20
188.6521713115
 11
213.6033653387
 21
190.9005925234
  0
LINE
  5
427
100
AcDbEntity
  8
0
100
AcDbLine
 62
250
  6
CONTINUOUS
 10
213.6033653387
 20
210.7537959269
 11
213.6033653387
 21
213.0022171388
  0
LINE
  5
428
100
AcDbEntity
  8
0
100
AcDbLine
 62
250
  6
CONTINUOUS
 10
213.6190876724
 20
213.9163148572
 11
213.6190876724
 21
213.1421094363
  0
LINE
  5
429
100
AcDbEntity
  8
0
100
AcDbLine
 62
250
  6
CONTINUOUS
 10
213.6190876724
 20
188.512279014
 11
213.6190876724
 21
187.7380735931
  0
LINE
  5
42A
100
AcDbEntity
  8
0
100
AcDbLine
 62
7
  6
CONTINUOUS
 10
213.7302411334
 20
211.2333034979
 11
213.7302411334
 21
210.6269201321
  0
LINE
  5
42B
100
AcDbEntity
  8
0
100
AcDbLine
 62
7
  6
CONTINUOUS
 10
213.7302411334
 20
190.4210849524
 11
213.7302411334
 21
191.0274683182
  0
LWPOLYLINE
  5
42C
100
AcDbEntity
  8
RACCORDO
100
AcDbPolyline
 62
250
  6
CONTINUOUS
 90
70
 70
0
 10
212.786430132
 20
200.8271942251
 10
212.7826701125
 20
200.6231486881
 10
212.7716540786
 20
200.4226121274
 10
212.7537598225
 20
200.2258647872
 10
212.7294579534
 20
200.0338542795
 10
212.6990619309
 20
199.8460962788
 10
212.6625072058
 20
199.6606937366
 10
212.6198271696
 20
199.4772843946
 10
212.5712890473
 20
199.2965970753
 10
212.5169278963
 20
199.1183960526
 10
212.4572723411
 20
198.943942691
 10
212.3921513368
 20
198.7722930903
 10
212.3201515532
 20
198.600044637
 10
212.2412018326
 20
198.4278107686
 10
212.1549782497
 20
198.2556266664
 10
212.0588957366
 20
198.0796102823
 10
211.9518426306
 20
197.8996211267
 10
211.833619187
 20
197.7171938945
 10
211.7023613251
 20
197.5314265088
 10
211.557047316
 20
197.3430426238
 10
211.397138787
 20
197.1534939565
 10
211.2212448633
 20
196.963349533
 10
211.0289279216
 20
196.7743653442
 10
210.8192439995
 20
196.5878045117
 10
210.589820877
 20
196.4040508378
 10
210.3393051489
 20
196.2248085141
 10
210.0678213282
 20
196.0529457124
 10
209.7752281862
 20
195.8911072024
 10
209.4595957969
 20
195.7411158976
 10
209.1228655965
 20
195.6068398479
 10
208.7715910849
 20
195.4929747619
 10
208.4064216027
 20
195.4011878384
 10
208.0291774217
 20
195.333427376
 10
207.6492337428
 20
195.2919453527
 10
207.2687893424
 20
195.276747337
 10
206.8892751202
 20
195.2876013128
 10
206.5191191266
 20
195.3233879617
 10
206.1605999518
 20
195.3822152049
 10
205.8142310008
 20
195.4623848633
 10
205.4852344826
 20
195.5607259004
 10
205.1757115517
 20
195.6740973751
 10
204.884472713
 20
195.8004961454
 10
204.6112502127
 20
195.9377795794
 10
204.3564160528
 20
196.0835673597
 10
204.1193366629
 20
196.2360402579
 10
203.8981749339
 20
196.394400917
 10
203.6923486288
 20
196.5573311506
 10
203.5017513387
 20
196.7231668241
 10
203.3253453353
 20
196.8910726687
 10
203.1627390994
 20
197.0597636577
 10
203.013303185
 20
197.2282349745
 10
202.875730599
 20
197.3963751016
 10
202.7499827755
 20
197.5626779873
 10
202.6350054419
 20
197.7269880068
 10
202.5283525295
 20
197.8916401952
 10
202.4298144057
 20
198.0560798635
 10
202.3390580045
 20
198.2199651846
 10
202.2540861803
 20
198.3864027157
 10
202.1749113662
 20
198.5552964803
 10
202.1016325453
 20
198.7263264272
 10
202.0330539297
 20
198.9025994399
 10
201.9695179018
 20
199.0841152513
 10
201.9114470505
 20
199.2706715961
 10
201.8584268694
 20
199.4652866389
 10
201.8111598285
 20
199.6680014936
 10
201.7704356107
 20
199.8785937556
 10
201.7366627621
 20
200.0997865026
 10
201.7109141353
 20
200.3323418817
 10
201.6945465766
 20
200.5749629078
 10
201.6888024282
 20
200.8271942251
  0
LWPOLYLINE
  5
42D
100
AcDbEntity
  8
RACCORDO
100
AcDbPolyline
 62
250
  6
CONTINUOUS
 90
70
 70
0
 10
213.1435015534
 20
200.8271942965
 10
213.1388403822
 20
200.6096687713
 10
213.1272507455
 20
200.3964134251
 10
213.1087326433
 20
200.1874282937
 10
213.0831180899
 20
199.9832350659
 10
213.050575071
 20
199.7833121098
 10
213.0116075439
 20
199.5860944769
 10
212.9662597277
 20
199.3910176224
 10
212.9144874034
 20
199.1986461371
 10
212.8566618711
 20
199.0091087756
 10
212.7934314636
 20
198.8234766376
 10
212.724147848
 20
198.6406786502
 10
212.6472373264
 20
198.4576303199
 10
212.5633888932
 20
198.2743134238
 10
212.4719135539
 20
198.0907462372
 10
212.3691706271
 20
197.9038990453
 10
212.2551016118
 20
197.7124524479
 10
212.1297650089
 20
197.5177259497
 10
211.9896956398
 20
197.3206482103
 10
211.8347528118
 20
197.1203993538
 10
211.6650772176
 20
196.9177993636
 10
211.4776257558
 20
196.7162366532
 10
211.2726795024
 20
196.5153598815
 10
211.0499573815
 20
196.3155204369
 10
210.8055730637
 20
196.1211607463
 10
210.5384625426
 20
195.9310637676
 10
210.2496898247
 20
195.7464464892
 10
209.9385605999
 20
195.5754022432
 10
209.6020723435
 20
195.4173858886
 10
209.2432275801
 20
195.2729423231
 10
208.8703395738
 20
195.1517997591
 10
208.481804136
 20
195.0558064924
 10
208.0792254553
 20
194.9831138827
 10
207.6757293609
 20
194.9379046714
 10
207.2715910666
 20
194.9226205644
 10
206.8665353588
 20
194.9348197347
 10
206.4728624259
 20
194.9713596787
 10
206.0921632802
 20
195.033800941
 10
205.7228469095
 20
195.1205831496
 10
205.3724404651
 20
195.2238824368
 10
205.0434130143
 20
195.3434613153
 10
204.7332954899
 20
195.4795575088
 10
204.4422078414
 20
195.625059878
 10
204.1710046321
 20
195.779155399
 10
203.9188312989
 20
195.9426572403
 10
203.6832441015
 20
196.1108934436
 10
203.4641000607
 20
196.2835446249
 10
203.2615421558
 20
196.460930218
 10
203.0735555842
 20
196.6393364071
 10
202.9002956444
 20
196.8182608446
 10
202.7416070378
 20
196.9982058474
 10
202.5950090662
 20
197.1769645407
 10
202.4608225409
 20
197.3534263313
 10
202.3387266504
 20
197.5287017428
 10
202.2252782623
 20
197.703915566
 10
202.12011385
 20
197.8785774441
 10
202.02359694
 20
198.0531776878
 10
201.9333749789
 20
198.2303121128
 10
201.8489329453
 20
198.4098582449
 10
201.7707858608
 20
198.5919385404
 10
201.6981262361
 20
198.7795162389
 10
201.6304302262
 20
198.9725814722
 10
201.5682216763
 20
199.1711441044
 10
201.5122646331
 20
199.3781969955
 10
201.4619841903
 20
199.5939081621
 10
201.4179552542
 20
199.8181095743
 10
201.3826665912
 20
200.0532900296
 10
201.35694779
 20
200.3002791096
 10
201.3399692619
 20
200.5582471696
 10
201.3317310068
 20
200.8271941538
  0
LINE
  5
42E
100
AcDbEntity
  8
0
100
AcDbLine
 62
250
  6
CONTINUOUS
 10
212.3897590655
 20
188.5314129413
 11
212.3876162801
 21
188.4741689697
  0
LINE
  5
42F
100
AcDbEntity
  8
0
100
AcDbLine
 62
250
  6
CONTINUOUS
 10
212.5397362198
 20
188.3954667732
 11
212.5358393552
 21
188.2913630174
  0
LWPOLYLINE
  5
430
100
AcDbEntity
  8
0
100
AcDbPolyline
 62
250
  6
CONTINUOUS
 90
13
 70
0
 10
212.3897590655
 20
190.9140730087
 10
212.3914799014
 20
190.9400385124
 10
212.3965729254
 20
190.9655902014
 10
212.4049621462
 20
190.9902913402
 10
212.4165197466
 20
191.0137258849
 10
212.4310553636
 20
191.0354789571
 10
212.4483082252
 20
191.0551510563
 10
212.4679736443
 20
191.0723989255
 10
212.4897213585
 20
191.0869365449
 10
212.5131821116
 20
191.0985169869
 10
212.5379558526
 20
191.1069416912
 10
212.5636177482
 20
191.1120651522
 10
212.5897286045
 20
191.1137989157
  0
LWPOLYLINE
  5
431
100
AcDbEntity
  8
0
100
AcDbPolyline
 62
250
  6
CONTINUOUS
 90
13
 70
0
 10
212.4483072483
 20
190.9140730087
 10
212.4501204589
 20
190.9394809147
 10
212.4542037266
 20
190.9644985086
 10
212.4604966345
 20
190.9887174624
 10
212.468905691
 20
191.0117483445
 10
212.4792972506
 20
191.03320291
 10
212.4914929263
 20
191.0527065472
 10
212.5052867917
 20
191.0699349128
 10
212.5204574409
 20
191.0846158718
 10
212.5367593836
 20
191.0965125916
 10
212.5539274597
 20
191.1054310706
 10
212.571680497
 20
191.1112247753
 10
212.5897286045
 20
191.1137989157
  0
LWPOLYLINE
  5
432
100
AcDbEntity
  8
0
100
AcDbPolyline
 62
250
  6
CONTINUOUS
 90
13
 70
0
 10
212.8950630401
 20
190.8906595298
 10
212.8968743982
 20
190.9160515839
 10
212.9009537888
 20
190.9410578297
 10
212.9072419293
 20
190.9652702325
 10
212.9156467047
 20
190.988299886
 10
212.926035356
 20
191.0097573538
 10
212.9382293112
 20
191.0292656366
 10
212.95202269
 20
191.0464995143
 10
212.9671945717
 20
191.0611866316
 10
212.9834992386
 20
191.0730891998
 10
213.0006713701
 20
191.0820125852
 10
213.0184297902
 20
191.0878097772
 10
213.0364843964
 20
191.0903854368
  0
LINE
  5
433
100
AcDbEntity
  8
0
100
AcDbLine
 62
7
  6
CONTINUOUS
 10
206.3015062801
 20
219.6492642251
 11
206.7667332801
 21
218.4087002251
  0
LINE
  5
434
100
AcDbEntity
  8
0
100
AcDbLine
 62
7
  6
CONTINUOUS
 10
206.7967082801
 20
219.2537462251
 11
206.4043242801
 21
220.3085462251
  0
LINE
  5
435
100
AcDbEntity
  8
0
100
AcDbLine
 62
7
  6
CONTINUOUS
 10
208.8673442801
 20
218.7879772251
 11
208.9700772801
 21
218.4087002251
  0
LINE
  5
436
100
AcDbEntity
  8
0
100
AcDbLine
 62
7
  6
CONTINUOUS
 10
208.6058592801
 20
219.7865172251
 11
208.7880892801
 21
219.0814602251
  0
LINE
  5
437
100
AcDbEntity
  8
0
100
AcDbLine
 62
250
  6
CONTINUOUS
 10
216.875068059
 20
186.7274704878
 11
216.8420834244
 21
187.0581483061
  0
LINE
  5
438
100
AcDbEntity
  8
0
100
AcDbLine
 62
250
  6
CONTINUOUS
 10
217.0750604436
 20
186.9267094274
 11
217.0525445176
 21
187.1524362659
  0
LWPOLYLINE
  5
439
100
AcDbEntity
  8
0
100
AcDbPolyline
 62
7
  6
CONTINUOUS
 90
7
 70
0
 10
213.7786632021
 20
187.5784980634
 10
213.7778024938
 20
187.5602520465
 10
213.7752814712
 20
187.5421820637
 10
213.7711264912
 20
187.5244376837
 10
213.7653773048
 20
187.5071650217
 10
213.7580866272
 20
187.4905055507
 10
213.7493196055
 20
187.4745949634
  0
LWPOLYLINE
  5
43A
100
AcDbEntity
  8
0
100
AcDbPolyline
 62
7
  6
CONTINUOUS
 90
10
 70
0
 10
207.3951877374
 20
186.8333334439
 10
207.3825172503
 20
186.8100132436
 10
207.3684077413
 20
186.7869486705
 10
207.3528592104
 20
186.7641397237
 10
207.3357918293
 20
186.7415825716
 10
207.3172854263
 20
186.719281044
 10
207.2975794861
 20
186.6972466317
 10
207.276753837
 20
186.6754831644
 10
207.2547286507
 20
186.6539868105
 10
207.2315039272
 20
186.6327575691
  0
LINE
  5
43B
100
AcDbEntity
  8
0
100
AcDbLine
 62
7
  6
CONTINUOUS
 10
205.7754743118
 20
185.8551614993
 11
206.2451196332
 21
186.5314915889
  0
LINE
  5
43C
100
AcDbEntity
  8
0
100
AcDbLine
 62
7
  6
CONTINUOUS
 10
206.2788848896
 20
186.8271942251
 11
205.5943692345
 21
185.8551614993
  0
LINE
  5
43D
100
AcDbEntity
  8
0
100
AcDbLine
 62
7
  6
CONTINUOUS
 10
201.2376162801
 20
184.3271942251
 11
201.2581712064
 21
184.3477491514
  0
LINE
  5
43E
100
AcDbEntity
  8
0
100
AcDbLine
 62
250
  6
CONTINUOUS
 10
196.3751778464
 20
179.3873491374
 11
196.2650382541
 21
179.277209545
  0
LINE
  5
43F
100
AcDbEntity
  8
0
100
AcDbLine
 62
250
  6
CONTINUOUS
 10
196.8450241568
 20
178.917502827
 11
196.7348845645
 21
178.8073632346
  0
LINE
  5
440
100
AcDbEntity
  8
0
100
AcDbLine
 62
7
  6
CONTINUOUS
 10
200.6930534521
 20
190.4037863618
 11
200.7449914268
 21
190.4210849524
  0
LINE
  5
441
100
AcDbEntity
  8
0
100
AcDbLine
 62
7
  6
CONTINUOUS
 10
200.6930534521
 20
211.2506020885
 11
200.7449914268
 21
211.2333034979
  0
LINE
  5
442
100
AcDbEntity
  8
0
100
AcDbLine
 62
7
  6
CONTINUOUS
 10
201.2376162801
 20
217.3271942251
 11
201.2581712064
 21
217.3066392989
  0
LINE
  5
443
100
AcDbEntity
  8
0
100
AcDbLine
 62
250
  6
CONTINUOUS
 10
196.2650382541
 20
222.3771789053
 11
196.3751778464
 21
222.2670393129
  0
LINE
  5
444
100
AcDbEntity
  8
0
100
AcDbLine
 62
250
  6
CONTINUOUS
 10
196.7348845645
 20
222.8470252157
 11
196.8450241568
 21
222.7368856233
  0
LINE
  5
445
100
AcDbEntity
  8
0
100
AcDbLine
 62
7
  6
CONTINUOUS
 10
209.1889542801
 20
215.2715342251
 11
208.4600002801
 21
216.7771942251
  0
LINE
  5
446
100
AcDbEntity
  8
0
100
AcDbLine
 62
7
  6
CONTINUOUS
 10
208.2363442801
 20
216.4673662251
 11
208.9916112801
 21
214.8771942251
  0
LINE
  5
447
100
AcDbEntity
  8
0
100
AcDbLine
 62
7
  6
CONTINUOUS
 10
211.0469122801
 20
215.2798882251
 11
211.1838372801
 21
214.8771942251
  0
LINE
  5
448
100
AcDbEntity
  8
0
100
AcDbLine
 62
7
  6
CONTINUOUS
 10
210.6812382801
 20
216.4140172251
 11
210.9442372801
 21
215.5956372251
  0
LINE
  5
449
100
AcDbEntity
  8
0
100
AcDbLine
 62
7
  6
CONTINUOUS
 10
209.3880482801
 20
218.4087002251
 11
208.8051282801
 21
220.3085462251
  0
LINE
  5
44A
100
AcDbEntity
  8
0
100
AcDbLine
 62
7
  6
CONTINUOUS
 10
210.448136082
 20
218.6094518261
 11
210.5067733454
 21
218.4087004791
  0
LINE
  5
44B
100
AcDbEntity
  8
0
100
AcDbLine
 62
7
  6
CONTINUOUS
 10
210.799087314
 20
218.7488865206
 11
210.7526689196
 21
218.9228674453
  0
LWPOLYLINE
  5
44C
100
AcDbEntity
  8
0
100
AcDbPolyline
 62
7
  6
CONTINUOUS
 90
25
 70
0
 10
210.7526689196
 20
218.9228674453
 10
210.7469742323
 20
218.9445696832
 10
210.7412117164
 20
218.9656261059
 10
210.7353813719
 20
218.9860367162
 10
210.729544761
 20
219.0057655487
 10
210.7236403215
 20
219.0248485746
 10
210.7174833664
 20
219.0433937013
 10
210.7110399497
 20
219.0614007669
 10
210.7043440175
 20
219.0788699375
 10
210.6973127202
 20
219.095909611
 10
210.689961644
 20
219.1125314402
 10
210.6822752027
 20
219.1287237755
 10
210.6741237887
 20
219.1445600612
 10
210.6655087433
 20
219.1600925808
 10
210.6564287251
 20
219.1752690531
 10
210.6467501023
 20
219.190006075
 10
210.6364698314
 20
219.2043483571
 10
210.6255909559
 20
219.2182511914
 10
210.6139889741
 20
219.231497048
 10
210.6016305922
 20
219.2441292892
 10
210.5885491041
 20
219.2561045562
 10
210.5747198899
 20
219.2670752388
 10
210.5601347431
 20
219.2769254687
 10
210.5448018702
 20
219.2857711189
 10
210.5287212712
 20
219.2936121914
  0
LINE
  5
44D
100
AcDbEntity
  8
0
100
AcDbLine
 62
7
  6
CONTINUOUS
 10
210.8882298305
 20
218.4087004791
 11
210.799087314
 21
218.7488865206
  0
LINE
  5
44E
100
AcDbEntity
  8
0
100
AcDbLine
 62
250
  6
CONTINUOUS
 10
217.8603648634
 20
183.0769330325
 11
217.8443262091
 21
183.2377238753
  0
LINE
  5
44F
100
AcDbEntity
  8
0
100
AcDbLine
 62
250
  6
CONTINUOUS
 10
218.0612786466
 20
183.266934759
 11
218.0443185937
 21
183.4369628149
  0
LWPOLYLINE
  5
450
100
AcDbEntity
  8
0
100
AcDbPolyline
 62
250
  6
CONTINUOUS
 90
5
 70
0
 10
218.0443185937
 20
183.4369628149
 10
218.0441943195
 20
183.4389043174
 10
218.0440763565
 20
183.4415137848
 10
218.0439647047
 20
183.4447912171
 10
218.0438594671
 20
183.448824484
  0
LWPOLYLINE
  5
451
100
AcDbEntity
  8
0
100
AcDbPolyline
 62
250
  6
CONTINUOUS
 90
3
 70
0
 10
217.8443262091
 20
183.2377238753
 10
217.8442018856
 20
183.2412323853
 10
217.8440838946
 20
183.2465283841
  0
LINE
  5
452
100
AcDbEntity
  8
0
100
AcDbLine
 62
250
  6
CONTINUOUS
 10
216.7152346345
 20
179.9771942251
 11
216.7081499471
 21
183.5071369126
  0
LINE
  5
453
100
AcDbEntity
  8
0
100
AcDbLine
 62
250
  6
CONTINUOUS
 10
217.0148495681
 20
179.9771942251
 11
217.0088227518
 21
182.9323247461
  0
LINE
  5
454
100
AcDbEntity
  8
0
100
AcDbLine
 62
250
  6
CONTINUOUS
 10
216.7066567819
 20
184.3477491395
 11
216.6980961643
 21
190.4037863611
  0
LINE
  5
455
100
AcDbEntity
  8
0
100
AcDbLine
 62
250
  6
CONTINUOUS
 10
217.001697922
 20
187.2327593084
 11
216.9976864601
 21
190.4087481567
  0
LINE
  5
456
100
AcDbEntity
  8
0
100
AcDbLine
 62
250
  6
CONTINUOUS
 10
216.6971768474
 20
191.2800520609
 11
216.6961841084
 21
192.3271942242
  0
LINE
  5
457
100
AcDbEntity
  8
0
100
AcDbLine
 62
250
  6
CONTINUOUS
 10
216.9967864681
 20
191.265134702
 11
216.9957775402
 21
192.3271942251
  0
LINE
  5
458
100
AcDbEntity
  8
0
100
AcDbLine
 62
7
  6
CONTINUOUS
 10
216.8430280964
 20
183.5076959959
 11
216.8431483693
 21
183.1069164385
  0
LINE
  5
459
100
AcDbEntity
  8
0
100
AcDbLine
 62
7
  6
CONTINUOUS
 10
216.8420834244
 20
187.0581483061
 11
216.8427851447
 21
184.3471783946
  0
LINE
  5
45A
100
AcDbEntity
  8
0
100
AcDbLine
 62
7
  6
CONTINUOUS
 10
216.8527764685
 20
183.5271942251
 11
216.8527764685
 21
184.3271942251
  0
LINE
  5
45B
100
AcDbEntity
  8
0
100
AcDbLine
 62
7
  6
CONTINUOUS
 10
216.875068059
 20
186.7274704878
 11
216.875068059
 21
183.4269179625
  0
LINE
  5
45C
100
AcDbEntity
  8
0
100
AcDbLine
 62
7
  6
CONTINUOUS
 10
217.034726945
 20
211.2333034979
 11
217.034726945
 21
210.4271942251
  0
LINE
  5
45D
100
AcDbEntity
  8
0
100
AcDbLine
 62
7
  6
CONTINUOUS
 10
217.034726945
 20
191.2271942251
 11
217.034726945
 21
190.4210849524
  0
LINE
  5
45E
100
AcDbEntity
  8
0
100
AcDbLine
 62
7
  6
CONTINUOUS
 10
217.0530696677
 20
218.1271942251
 11
217.0530696677
 21
217.3271942251
  0
LINE
  5
45F
100
AcDbEntity
  8
0
100
AcDbLine
 62
7
  6
CONTINUOUS
 10
217.0976162801
 20
221.6771942251
 11
217.0976162801
 21
187.0771942251
  0
LINE
  5
460
100
AcDbEntity
  8
0
100
AcDbLine
 62
7
  6
CONTINUOUS
 10
217.0976162801
 20
183.0771942251
 11
217.0976162801
 21
179.9771942251
  0
LINE
  5
461
100
AcDbEntity
  8
0
100
AcDbLine
 62
250
  6
CONTINUOUS
 10
216.6961841067
 20
209.3271942258
 11
216.6971768474
 21
210.3743363873
  0
LINE
  5
462
100
AcDbEntity
  8
0
100
AcDbLine
 62
250
  6
CONTINUOUS
 10
216.9957775385
 20
209.3271942251
 11
216.9967864681
 21
210.3892537483
  0
LINE
  5
463
100
AcDbEntity
  8
0
100
AcDbLine
 62
250
  6
CONTINUOUS
 10
216.6980961643
 20
211.2506020891
 11
216.7066567819
 21
217.3066393071
  0
LINE
  5
464
100
AcDbEntity
  8
0
100
AcDbLine
 62
250
  6
CONTINUOUS
 10
216.9976864601
 20
211.2456402936
 11
217.0062714488
 21
217.3116074943
  0
LINE
  5
465
100
AcDbEntity
  8
0
100
AcDbLine
 62
250
  6
CONTINUOUS
 10
216.7081499471
 20
218.1472515365
 11
216.7152346359
 21
221.6771942251
  0
LINE
  5
466
100
AcDbEntity
  8
0
100
AcDbLine
 62
250
  6
CONTINUOUS
 10
217.0077487526
 20
218.1422889215
 11
217.0148507243
 21
221.6771942251
  0
LWPOLYLINE
  5
467
100
AcDbEntity
  8
0
100
AcDbPolyline
 62
7
  6
CONTINUOUS
 90
25
 70
0
 10
213.7493196055
 20
187.4745949634
 10
213.7403807993
 20
187.4277099524
 10
213.7268424003
 20
187.3830911429
 10
213.7087044082
 20
187.3407385188
 10
213.6856364848
 20
187.3001909069
 10
213.6579689684
 20
187.2619094525
 10
213.6266928746
 20
187.22727761
 10
213.5916747211
 20
187.1964304933
 10
213.5530479902
 20
187.1692329491
 10
213.5122041438
 20
187.1466630204
 10
213.4690672003
 20
187.1288908786
 10
213.4237131414
 20
187.1157463213
 10
213.3777613746
 20
187.1076968308
 10
213.3311883854
 20
187.1049253354
 10
213.2840176883
 20
187.1072488977
 10
213.2379392339
 20
187.1145862065
 10
213.1929908046
 20
187.127120632
 10
213.149134618
 20
187.1446688207
 10
213.107947277
 20
187.1665993809
 10
213.0695290487
 20
187.1930684751
 10
213.0337796661
 20
187.223919976
 10
213.0019749308
 20
187.2580540547
 10
212.9745401102
 20
187.2951041116
 10
212.951049937
 20
187.3354367828
 10
212.9315044111
 20
187.3790520896
  0
LINE
  5
468
100
AcDbEntity
  8
0
100
AcDbLine
 62
250
  6
CONTINUOUS
 10
212.5888339162
 20
187.7375377366
 11
212.5866852206
 21
187.7310864078
  0
LINE
  5
469
100
AcDbEntity
  8
0
100
AcDbLine
 62
250
  6
CONTINUOUS
 10
212.7888034552
 20
187.5378118297
 11
212.78560263
 21
187.5282015449
  0
LINE
  5
46A
100
AcDbEntity
  8
0
100
AcDbLine
 62
7
  6
CONTINUOUS
 10
210.3826962801
 20
181.7021942251
 11
210.5132972801
 21
182.0660232251
  0
LINE
  5
46B
100
AcDbEntity
  8
0
100
AcDbLine
 62
7
  6
CONTINUOUS
 10
210.5655312801
 20
182.2157402251
 11
210.7675332801
 21
182.7708832251
  0
LINE
  5
46C
100
AcDbEntity
  8
0
100
AcDbLine
 62
7
  6
CONTINUOUS
 10
210.6787232801
 20
182.9521942251
 11
210.2086262801
 21
181.7021942251
  0
LWPOLYLINE
  5
46D
100
AcDbEntity
  8
0
100
AcDbPolyline
 62
7
  6
CONTINUOUS
 90
10
 70
0
 10
209.72602004
 20
186.8333334439
 10
209.7133495015
 20
186.8100132455
 10
209.6992399501
 20
186.7869486736
 10
209.6836913858
 20
186.7641397272
 10
209.6666239818
 20
186.7415825743
 10
209.6481175649
 20
186.719281045
 10
209.6284116154
 20
186.6972466316
 10
209.6075859599
 20
186.6754831639
 10
209.5855607718
 20
186.65398681
 10
209.562336051
 20
186.6327575691
  0
LWPOLYLINE
  5
46E
100
AcDbEntity
  8
0
100
AcDbPolyline
 62
7
  6
CONTINUOUS
 90
10
 70
0
 10
208.8430050034
 20
186.2664847785
 10
208.8540507485
 20
186.2846211775
 10
208.8637691127
 20
186.3030849571
 10
208.8721600959
 20
186.3218761184
 10
208.8792030714
 20
186.3409206291
 10
208.8849186659
 20
186.3602925233
 10
208.8893687597
 20
186.3802139028
 10
208.8925739793
 20
186.400758803
 10
208.8945136982
 20
186.4218531924
 10
208.8951879162
 20
186.443497073
  0
LWPOLYLINE
  5
46F
100
AcDbEntity
  8
0
100
AcDbPolyline
 62
7
  6
CONTINUOUS
 90
10
 70
0
 10
204.9006717588
 20
186.6327575691
 10
204.8752291533
 20
186.610717009
 10
204.8486383049
 20
186.5892777009
 10
204.8208992136
 20
186.5684396426
 10
204.792005566
 20
186.5481746403
 10
204.7619636755
 20
186.5285108836
 10
204.7307924825
 20
186.5095329454
 10
204.6984983006
 20
186.4912690151
 10
204.6650748163
 20
186.4736908988
 10
204.6305220295
 20
186.4567985945
  0
LWPOLYLINE
  5
470
100
AcDbEntity
  8
0
100
AcDbPolyline
 62
250
  6
CONTINUOUS
 90
10
 70
0
 10
201.4741035029
 20
188.6198719761
 10
201.4897025506
 20
188.6271923367
 10
201.5049928033
 20
188.6370589428
 10
201.519671579
 20
188.6492764773
 10
201.5334483
 20
188.663603085
 10
201.5460502458
 20
188.6797551597
 10
201.5572279512
 20
188.6974129589
 10
201.5667601452
 20
188.7162269331
 10
201.5744581306
 20
188.7358246454
 10
201.5801695201
 20
188.7558181442
  0
LWPOLYLINE
  5
471
100
AcDbEntity
  8
0
100
AcDbPolyline
 62
250
  6
CONTINUOUS
 90
10
 70
0
 10
201.9208592947
 20
188.411546329
 10
201.9364583425
 20
188.4188666897
 10
201.9517485953
 20
188.4287332959
 10
201.966427371
 20
188.4409508305
 10
201.9802040921
 20
188.4552774382
 10
201.9928060378
 20
188.4714295129
 10
202.0039837432
 20
188.4890873121
 10
202.0135159371
 20
188.5079012862
 10
202.0212139225
 20
188.5274989984
 10
202.0269253119
 20
188.5474924971
  0
LWPOLYLINE
  5
472
100
AcDbEntity
  8
0
100
AcDbPolyline
 62
250
  6
CONTINUOUS
 90
13
 70
0
 10
213.4036394317
 20
210.5540700199
 10
213.4296630269
 20
210.555843937
 10
213.4552430748
 20
210.5609929228
 10
213.4799434257
 20
210.5694292458
 10
213.5033429214
 20
210.5810091247
 10
213.5250425603
 20
210.5955351708
 10
213.5446723055
 20
210.612759744
 10
213.5618974254
 20
210.6323891982
 10
213.5764241713
 20
210.6540888636
 10
213.5880047879
 20
210.6774887311
 10
213.596441775
 20
210.7021898091
 10
213.6015912416
 20
210.7277709347
 10
213.6033653451
 20
210.7537959204
  0
LWPOLYLINE
  5
473
100
AcDbEntity
  8
0
100
AcDbPolyline
 62
250
  6
CONTINUOUS
 90
13
 70
0
 10
201.8855039557
 20
210.5405895346
 10
201.9116150218
 20
210.5423233258
 10
201.9372771225
 20
210.5474468705
 10
201.9620510523
 20
210.5558717137
 10
201.9855120003
 20
210.5674523668
 10
202.0072598657
 20
210.5819902537
 10
202.026925298
 20
210.5992383569
 10
202.0441780308
 20
210.6189105802
 10
202.0587134477
 20
210.6406636638
 10
202.0702708266
 20
210.664098106
 10
202.0786598439
 20
210.6887990282
 10
202.0837527174
 20
210.7143503815
 10
202.0854734947
 20
210.7403154415
  0
LINE
  5
474
100
AcDbEntity
  8
0
100
AcDbLine
 62
250
  6
CONTINUOUS
 10
213.0364843964
 20
210.5640030135
 11
212.5897286045
 21
210.5405895346
  0
LINE
  5
475
100
AcDbEntity
  8
0
100
AcDbLine
 62
250
  6
CONTINUOUS
 10
212.8950630401
 20
210.7637289205
 11
212.4483072483
 21
210.7403154415
  0
LINE
  5
476
100
AcDbEntity
  8
0
100
AcDbLine
 62
250
  6
CONTINUOUS
 10
201.0534800034
 20
210.7620383567
 11
201.0000590106
 21
210.7609489401
  0
LINE
  5
477
100
AcDbEntity
  8
0
100
AcDbLine
 62
7
  6
CONTINUOUS
 10
201.8886988708
 20
210.5309969948
 11
201.5876162801
 21
210.5267690058
  0
LINE
  5
478
100
AcDbEntity
  8
0
100
AcDbLine
 62
250
  6
CONTINUOUS
 10
201.1185924282
 20
210.7629350371
 11
201.0534800034
 21
210.7620383567
  0
LWPOLYLINE
  5
479
100
AcDbEntity
  8
0
100
AcDbPolyline
 62
7
  6
CONTINUOUS
 90
15
 70
0
 10
216.7278748241
 20
210.374421693
 10
216.7577109865
 20
210.3746606777
 10
216.7866856679
 20
210.3750533368
 10
216.8151060875
 20
210.3756075411
 10
216.842665026
 20
210.3763154198
 10
216.8684408259
 20
210.3771533608
 10
216.8923276862
 20
210.3781237014
 10
216.9144314079
 20
210.3792241042
 10
216.9341477367
 20
210.3804239454
 10
216.9514350872
 20
210.3817276912
 10
216.9663350449
 20
210.3831308753
 10
216.9783681117
 20
210.3845894753
 10
216.9873744548
 20
210.3860888171
 10
216.9935139069
 20
210.3876435747
 10
216.9967864681
 20
210.3892537483
  0
LWPOLYLINE
  5
47A
100
AcDbEntity
  8
0
100
AcDbPolyline
 62
250
  6
CONTINUOUS
 90
18
 70
0
 10
201.2509919538
 20
210.5639373324
 10
201.2315344038
 20
210.5637852103
 10
201.2129463855
 20
210.5635466472
 10
201.1950541771
 20
210.5632093661
 10
201.1780315004
 20
210.5627856441
 10
201.1623995202
 20
210.5623123123
 10
201.1483637222
 20
210.5617924837
 10
201.1357186207
 20
210.5612230454
 10
201.1243689244
 20
210.560631489
 10
201.1143939794
 20
210.5600287662
 10
201.1057144395
 20
210.5594039254
 10
201.0979969746
 20
210.5587516026
 10
201.0911169922
 20
210.5580766692
 10
201.0851990848
 20
210.5573742539
 10
201.0802837
 20
210.5566243791
 10
201.0763843203
 20
210.5558203856
 10
201.0734874631
 20
210.5549689325
 10
201.0715931285
 20
210.5540700199
  0
LINE
  5
47B
100
AcDbEntity
  8
0
100
AcDbLine
 62
250
  6
CONTINUOUS
 10
201.1921350924
 20
210.7635107747
 11
201.1185924282
 21
210.7629350371
  0
LINE
  5
47C
100
AcDbEntity
  8
0
100
AcDbLine
 62
7
  6
CONTINUOUS
 10
197.4576660176
 20
209.3271942251
 11
217.0175665426
 21
209.3271942251
  0
LINE
  5
47D
100
AcDbEntity
  8
0
100
AcDbLine
 62
7
  6
CONTINUOUS
 10
216.7278748241
 20
210.374421693
 11
212.8876162801
 21
210.3743363801
  0
LINE
  5
47E
100
AcDbEntity
  8
0
100
AcDbLine
 62
7
  6
CONTINUOUS
 10
217.034726945
 20
210.4271942251
 11
213.5305152265
 21
210.4271942251
  0
LINE
  5
47F
100
AcDbEntity
  8
0
100
AcDbLine
 62
7
  6
CONTINUOUS
 10
200.9447173337
 20
210.4271942251
 11
197.4405056152
 21
210.4271942251
  0
LINE
  5
480
100
AcDbEntity
  8
0
100
AcDbLine
 62
250
  6
CONTINUOUS
 10
201.4387481638
 20
210.5640030135
 11
201.2509919538
 21
210.5639373324
  0
LINE
  5
481
100
AcDbEntity
  8
0
100
AcDbLine
 62
250
  6
CONTINUOUS
 10
212.4483072483
 20
210.7403154415
 11
212.3897590655
 21
210.7403154415
  0
LINE
  5
482
100
AcDbEntity
  8
0
100
AcDbLine
 62
250
  6
CONTINUOUS
 10
202.0854734947
 20
210.7403154415
 11
202.0269253119
 21
210.7403154415
  0
LINE
  5
483
100
AcDbEntity
  8
0
100
AcDbLine
 62
250
  6
CONTINUOUS
 10
201.5801695201
 20
210.7637289205
 11
201.1921350924
 21
210.7635107747
  0
LINE
  5
484
100
AcDbEntity
  8
0
100
AcDbLine
 62
250
  6
CONTINUOUS
 10
213.2211477508
 20
210.56395086
 11
213.0364843964
 21
210.5640030135
  0
LINE
  5
485
100
AcDbEntity
  8
0
100
AcDbLine
 62
250
  6
CONTINUOUS
 10
213.2709684171
 20
210.7635694217
 11
212.8950630401
 21
210.7637289205
  0
LINE
  5
486
100
AcDbEntity
  8
0
100
AcDbLine
 62
250
  6
CONTINUOUS
 10
213.3313097758
 20
210.763189344
 11
213.2709684171
 21
210.7635694217
  0
LINE
  5
487
100
AcDbEntity
  8
0
100
AcDbLine
 62
250
  6
CONTINUOUS
 10
213.3851283583
 20
210.7625917443
 11
213.3313097758
 21
210.763189344
  0
LINE
  5
488
100
AcDbEntity
  8
0
100
AcDbLine
 62
7
  6
CONTINUOUS
 10
212.8876162801
 20
210.5267690058
 11
212.5865336895
 21
210.5309969948
  0
LINE
  5
489
100
AcDbEntity
  8
0
100
AcDbLine
 62
250
  6
CONTINUOUS
 10
213.4353166733
 20
210.7618002243
 11
213.3851283583
 21
210.7625917443
  0
LWPOLYLINE
  5
48A
100
AcDbEntity
  8
0
100
AcDbPolyline
 62
250
  6
CONTINUOUS
 90
4
 70
0
 10
213.2812998257
 20
210.5631905165
 10
213.2676048182
 20
210.5634635737
 10
213.2530566148
 20
210.56368167
 10
213.2211477508
 20
210.56395086
  0
LINE
  5
48B
100
AcDbEntity
  8
0
100
AcDbLine
 62
250
  6
CONTINUOUS
 10
201.8855039557
 20
210.5405895346
 11
201.4387481638
 21
210.5640030135
  0
LINE
  5
48C
100
AcDbEntity
  8
0
100
AcDbLine
 62
250
  6
CONTINUOUS
 10
202.0269253119
 20
210.7403154415
 11
201.5801695201
 21
210.7637289205
  0
LWPOLYLINE
  5
48D
100
AcDbEntity
  8
0
100
AcDbPolyline
 62
250
  6
CONTINUOUS
 90
13
 70
0
 10
212.5897286045
 20
210.5405895346
 10
212.5636177482
 20
210.542323298
 10
212.5379558526
 20
210.5474467591
 10
212.5131821116
 20
210.5558714633
 10
212.4897213585
 20
210.5674519054
 10
212.4679736443
 20
210.5819895248
 10
212.4483082252
 20
210.5992373939
 10
212.4310553636
 20
210.6189094932
 10
212.4165197466
 20
210.6406625654
 10
212.4049621462
 20
210.66409711
 10
212.3965729254
 20
210.6887982489
 10
212.3914799014
 20
210.7143499378
 10
212.3897590655
 20
210.7403154415
  0
LWPOLYLINE
  5
48E
100
AcDbEntity
  8
0
100
AcDbPolyline
 62
250
  6
CONTINUOUS
 90
13
 70
0
 10
201.0715931285
 20
210.5540700199
 10
201.0455687682
 20
210.5558440397
 10
201.0199881422
 20
210.5609932857
 10
200.9952874192
 20
210.5694299594
 10
200.9718877647
 20
210.5810102092
 10
200.9501881603
 20
210.5955365833
 10
200.9305586007
 20
210.6127613968
 10
200.9133337843
 20
210.6323909538
 10
200.8988074073
 20
210.6540905559
 10
200.8872271558
 20
210.6774902095
 10
200.8787904823
 20
210.7021909337
 10
200.873641238
 20
210.7277715623
 10
200.8718672216
 20
210.7537959269
  0
LWPOLYLINE
  5
48F
100
AcDbEntity
  8
0
100
AcDbPolyline
 62
250
  6
CONTINUOUS
 90
10
 70
0
 10
201.4741035029
 20
213.0345164742
 10
201.4897025507
 20
213.0271961135
 10
201.5049928035
 20
213.0173295074
 10
201.5196715792
 20
213.0051119728
 10
201.5334483002
 20
212.9907853651
 10
201.546050246
 20
212.9746332903
 10
201.5572279514
 20
212.9569754911
 10
201.5667601453
 20
212.938161517
 10
201.5744581307
 20
212.9185638048
 10
201.5801695201
 20
212.8985703061
  0
LWPOLYLINE
  5
490
100
AcDbEntity
  8
0
100
AcDbPolyline
 62
250
  6
CONTINUOUS
 90
10
 70
0
 10
201.9208592947
 20
213.2428421212
 10
201.9364583398
 20
213.2355217621
 10
201.9517485906
 20
213.2256551579
 10
201.9664273652
 20
213.2134376252
 10
201.980204086
 20
213.1991110191
 10
201.9928060323
 20
213.1829589453
 10
202.0039837388
 20
213.165301146
 10
202.0135159342
 20
213.1464871705
 10
202.0212139212
 20
213.1268894556
 10
202.0269253119
 20
213.1068959532
  0
LWPOLYLINE
  5
491
100
AcDbEntity
  8
0
100
AcDbPolyline
 62
250
  6
CONTINUOUS
 90
16
 70
0
 10
201.0558707947
 20
214.1160407641
 10
201.058090224
 20
214.1149779682
 10
201.0620832437
 20
214.1139566946
 10
201.067849854
 20
214.1129769432
 10
201.0754487129
 20
214.1120336606
 10
201.0848211624
 20
214.1111319003
 10
201.0957912278
 20
214.1102868229
 10
201.1083717021
 20
214.1094960957
 10
201.1225497924
 20
214.1087620515
 10
201.1381111454
 20
214.1081068486
 10
201.1551510644
 20
214.1075292748
 10
201.1735742462
 20
214.1070305424
 10
201.1928804271
 20
214.1066364463
 10
201.2129028528
 20
214.1063555847
 10
201.2338082776
 20
214.1061793595
 10
201.4916776448
 20
214.1061077705
  0
LWPOLYLINE
  5
492
100
AcDbEntity
  8
0
100
AcDbPolyline
 62
250
  6
CONTINUOUS
 90
13
 70
0
 10
212.3897590655
 20
213.122975509
 10
212.3902397925
 20
213.1217075606
 10
212.3913402796
 20
213.1204207682
 10
212.3931056467
 20
213.1191151316
 10
212.3955683536
 20
213.1177885155
 10
212.3987759449
 20
213.1164430553
 10
212.4028173936
 20
213.115085157
 10
212.4077615912
 20
213.113709305
 10
212.4136589427
 20
213.1123210148
 10
212.4206028941
 20
213.1109432393
 10
212.428667441
 20
213.1095836293
 10
212.4378894446
 20
213.1082345339
 10
212.4483072483
 20
213.1068959532
  0
LINE
  5
493
100
AcDbEntity
  8
0
100
AcDbLine
 62
7
  6
CONTINUOUS
 10
211.5942542801
 20
214.8771942251
 11
210.9337972801
 21
216.7771942251
  0
LWPOLYLINE
  5
494
100
AcDbEntity
  8
0
100
AcDbPolyline
 62
7
  6
CONTINUOUS
 90
6
 70
0
 10
210.3332721595
 20
218.9850350632
 10
210.353645238
 20
218.9253159748
 10
210.3735266799
 20
218.8644456586
 10
210.3929164853
 20
218.8024241004
 10
210.411524195
 20
218.7391556343
 10
210.448136082
 20
218.6094518261
  0
LINE
  5
495
100
AcDbEntity
  8
0
100
AcDbLine
 62
250
  6
CONTINUOUS
 10
212.5866852206
 20
213.9233020425
 11
212.5888339162
 21
213.9168507136
  0
LINE
  5
496
100
AcDbEntity
  8
0
100
AcDbLine
 62
250
  6
CONTINUOUS
 10
212.78560263
 20
214.1261869054
 11
212.7888034552
 21
214.1165766206
  0
LWPOLYLINE
  5
497
100
AcDbEntity
  8
0
100
AcDbPolyline
 62
250
  6
CONTINUOUS
 90
19
 70
0
 10
217.8181469275
 20
222.2670393129
 10
217.8171371781
 20
222.2863935311
 10
217.8145438161
 20
222.3049661905
 10
217.8103668416
 20
222.3227572911
 10
217.8044347744
 20
222.3399389552
 10
217.7969190948
 20
222.3563390604
 10
217.7883342426
 20
222.3714412405
 10
217.7786604151
 20
222.3850896981
 10
217.767917415
 20
222.3974402305
 10
217.7566790915
 20
222.4084438636
 10
217.7451543132
 20
222.4179787137
 10
217.7331342113
 20
222.4261666644
 10
217.7205660294
 20
222.4333243923
 10
217.7075556386
 20
222.4395682562
 10
217.6939971678
 20
222.4447818974
 10
217.6795202459
 20
222.448932916
 10
217.6640014161
 20
222.4520105122
 10
217.6475641352
 20
222.4540254859
 10
217.6302084034
 20
222.4549778371
  0
LINE
  5
498
100
AcDbEntity
  8
0
100
AcDbLine
 62
250
  6
CONTINUOUS
 10
218.0438594671
 20
183.448824484
 11
218.0436676167
 21
183.4586313034
  0
LINE
  5
499
100
AcDbEntity
  8
0
100
AcDbLine
 62
250
  6
CONTINUOUS
 10
217.8440838946
 20
183.2465283841
 11
217.8438670259
 21
183.2615456797
  0
LINE
  5
49A
100
AcDbEntity
  8
0
100
AcDbLine
 62
250
  6
CONTINUOUS
 10
218.0436676167
 20
183.4586313034
 11
218.0434245505
 21
183.4761105915
  0
LINE
  5
49B
100
AcDbEntity
  8
0
100
AcDbLine
 62
250
  6
CONTINUOUS
 10
217.8438670259
 20
183.2615456797
 11
217.8435075494
 21
183.3037944458
  0
LINE
  5
49C
100
AcDbEntity
  8
0
100
AcDbLine
 62
250
  6
CONTINUOUS
 10
218.0434245505
 20
183.4761105915
 11
218.0430797913
 21
183.5153845724
  0
LINE
  5
49D
100
AcDbEntity
  8
0
100
AcDbLine
 62
250
  6
CONTINUOUS
 10
218.0430797913
 20
183.5153845724
 11
218.0427646967
 21
183.5939688449
  0
LINE
  5
49E
100
AcDbEntity
  8
0
100
AcDbLine
 62
250
  6
CONTINUOUS
 10
217.8435075494
 20
183.3037944458
 11
217.8428600851
 21
183.4863039206
  0
LINE
  5
49F
100
AcDbEntity
  8
0
100
AcDbLine
 62
250
  6
CONTINUOUS
 10
218.0427646967
 20
183.5939688449
 11
218.0427253395
 21
183.6362017545
  0
LINE
  5
4A0
100
AcDbEntity
  8
0
100
AcDbLine
 62
250
  6
CONTINUOUS
 10
217.3750490206
 20
186.5181866958
 11
217.3750490206
 21
183.6362017545
  0
LINE
  5
4A1
100
AcDbEntity
  8
0
100
AcDbLine
 62
250
  6
CONTINUOUS
 10
217.6302084034
 20
179.1994106132
 11
217.6302084034
 21
178.917502827
  0
LINE
  5
4A2
100
AcDbEntity
  8
0
100
AcDbLine
 62
250
  6
CONTINUOUS
 10
217.6302084034
 20
222.4549778371
 11
217.6302084034
 21
222.7368856233
  0
LINE
  5
4A3
100
AcDbEntity
  8
0
100
AcDbLine
 62
250
  6
CONTINUOUS
 10
217.8181469275
 20
179.3873491374
 11
217.8181469275
 21
183.0771942251
  0
LINE
  5
4A4
100
AcDbEntity
  8
0
100
AcDbLine
 62
250
  6
CONTINUOUS
 10
217.8181469275
 20
187.0771942251
 11
217.8181469275
 21
222.2670393129
  0
LINE
  5
4A5
100
AcDbEntity
  8
0
100
AcDbLine
 62
7
  6
CONTINUOUS
 10
218.0427253395
 20
183.6362017545
 11
218.0427253395
 21
186.5181866958
  0
LINE
  5
4A6
100
AcDbEntity
  8
0
100
AcDbLine
 62
7
  6
CONTINUOUS
 10
218.0612786466
 20
183.266934759
 11
218.0612786466
 21
186.8874536913
  0
LINE
  5
4A7
100
AcDbEntity
  8
0
100
AcDbLine
 62
250
  6
CONTINUOUS
 10
218.1000547138
 20
179.3873491374
 11
218.1000547138
 21
222.2670393129
  0
LINE
  5
4A8
100
AcDbEntity
  8
0
100
AcDbLine
 62
7
  6
CONTINUOUS
 10
218.2101943061
 20
222.3771789053
 11
218.2101943061
 21
179.277209545
  0
LINE
  5
4A9
100
AcDbEntity
  8
0
100
AcDbLine
 62
7
  6
CONTINUOUS
 10
218.2601943061
 20
222.3967963636
 11
218.2601943061
 21
179.2575920867
  0
LINE
  5
4AA
100
AcDbEntity
  8
0
100
AcDbLine
 62
250
  6
CONTINUOUS
 10
217.8428600851
 20
183.4863039206
 11
217.8427437452
 21
186.5578356452
  0
LINE
  5
4AB
100
AcDbEntity
  8
0
100
AcDbLine
 62
250
  6
CONTINUOUS
 10
218.0427253395
 20
186.5181866958
 11
218.042921675
 21
186.6101088217
  0
LINE
  5
4AC
100
AcDbEntity
  8
0
100
AcDbLine
 62
250
  6
CONTINUOUS
 10
217.8427437452
 20
186.5578356452
 11
217.8433748327
 21
186.8282586012
  0
LINE
  5
4AD
100
AcDbEntity
  8
0
100
AcDbLine
 62
250
  6
CONTINUOUS
 10
218.042921675
 20
186.6101088217
 11
218.0432701279
 21
186.6633540213
  0
LINE
  5
4AE
100
AcDbEntity
  8
0
100
AcDbLine
 62
250
  6
CONTINUOUS
 10
217.8433748327
 20
186.8282586012
 11
217.8437990632
 21
186.8866652672
  0
LINE
  5
4AF
100
AcDbEntity
  8
0
100
AcDbLine
 62
250
  6
CONTINUOUS
 10
218.0432701279
 20
186.6633540213
 11
218.0435720075
 21
186.6896358709
  0
LWPOLYLINE
  5
4B0
100
AcDbEntity
  8
0
100
AcDbPolyline
 62
250
  6
CONTINUOUS
 90
4
 70
0
 10
217.8437990632
 20
186.8866652672
 10
217.8440467236
 20
186.9058034372
 10
217.8441826365
 20
186.9124377627
 10
217.8443262091
 20
186.916664575
  0
LWPOLYLINE
  5
4B1
100
AcDbEntity
  8
0
100
AcDbPolyline
 62
250
  6
CONTINUOUS
 90
6
 70
0
 10
218.0435720075
 20
186.6896358709
 10
218.0437915395
 20
186.7025412393
 10
218.0439109912
 20
186.707623615
 10
218.0440392344
 20
186.71180048
 10
218.0441751019
 20
186.7150678201
 10
218.0443185937
 20
186.7174256354
  0
LWPOLYLINE
  5
4B2
100
AcDbEntity
  8
0
100
AcDbPolyline
 62
7
  6
CONTINUOUS
 90
19
 70
0
 10
218.0612786466
 20
183.266934759
 10
218.0607230659
 20
183.2521669963
 10
218.0590247781
 20
183.2373485008
 10
218.0561357368
 20
183.2225702513
 10
218.0520224511
 20
183.20797355
 10
218.0466486998
 20
183.1936208311
 10
218.0399542982
 20
183.1795031252
 10
218.0318853342
 20
183.1657235924
 10
218.0224364195
 20
183.1524518355
 10
218.0116244158
 20
183.1397956441
 10
217.9995047715
 20
183.1279413438
 10
217.9860752369
 20
183.1170006536
 10
217.9712717826
 20
183.1070006284
 10
217.955023151
 20
183.0980692352
 10
217.937511598
 20
183.0904879466
 10
217.9191001585
 20
183.0844785924
 10
217.9000317458
 20
183.0801584122
 10
217.8803920827
 20
183.0776141229
 10
217.8603648634
 20
183.0769330325
  0
LWPOLYLINE
  5
4B3
100
AcDbEntity
  8
0
100
AcDbPolyline
 62
7
  6
CONTINUOUS
 90
16
 70
0
 10
216.8420834244
 20
187.0581483061
 10
216.8437342794
 20
187.0839108979
 10
216.8485484461
 20
187.108549434
 10
216.8562566286
 20
187.1317104155
 10
216.8666728512
 20
187.1533210251
 10
216.8794113058
 20
187.1728905708
 10
216.8936541671
 20
187.1896596195
 10
216.9088233961
 20
187.2035968228
 10
216.924521618
 20
187.2148912234
 10
216.9399796036
 20
187.2234566283
 10
216.9549730758
 20
187.2296532364
 10
216.9690471087
 20
187.2337064625
 10
216.981033498
 20
187.2356543257
 10
216.9903982636
 20
187.2358688807
 10
216.9973123929
 20
187.2348165576
 10
217.001698178
 20
187.2327589202
  0
LWPOLYLINE
  5
4B4
100
AcDbEntity
  8
0
100
AcDbPolyline
 62
250
  6
CONTINUOUS
 90
13
 70
0
 10
216.875068059
 20
186.7274704878
 10
216.8767972117
 20
186.7534638787
 10
216.8819154237
 20
186.7790129446
 10
216.8903352058
 20
186.8036809564
 10
216.9019126323
 20
186.8270462454
 10
216.9164498018
 20
186.8487094118
 10
216.9336982197
 20
186.868300152
 10
216.953363046
 20
186.8854835872
 10
216.9751081355
 20
186.8999659882
 10
216.9985617832
 20
186.9114997972
 10
217.0233230787
 20
186.9198878584
 10
217.048968759
 20
186.9249867884
 10
217.0750604436
 20
186.9267094274
  0
LWPOLYLINE
  5
4B5
100
AcDbEntity
  8
0
100
AcDbPolyline
 62
250
  6
CONTINUOUS
 90
13
 70
0
 10
216.9149465972
 20
186.7174256358
 10
216.9172558305
 20
186.742884586
 10
216.9225411055
 20
186.7679266148
 10
216.9307158686
 20
186.7921416339
 10
216.9416462484
 20
186.8151330991
 10
216.9551532471
 20
186.8365245023
 10
216.9710156713
 20
186.8559655378
 10
216.9889737562
 20
186.8731378409
 10
217.008733419
 20
186.8877602007
 10
217.0299710741
 20
186.8995931638
 10
217.0523389329
 20
186.9084429567
 10
217.0754707
 20
186.9141646587
 10
217.0989875703
 20
186.9166645746
  0
LINE
  5
4B6
100
AcDbEntity
  8
0
100
AcDbLine
 62
250
  6
CONTINUOUS
 10
216.875068059
 20
183.4269179625
 11
216.8431483693
 21
183.1069164385
  0
LINE
  5
4B7
100
AcDbEntity
  8
0
100
AcDbLine
 62
250
  6
CONTINUOUS
 10
217.0750604436
 20
183.2276790229
 11
217.0525445176
 21
183.0019521844
  0
LWPOLYLINE
  5
4B8
100
AcDbEntity
  8
0
100
AcDbPolyline
 62
7
  6
CONTINUOUS
 90
10
 70
0
 10
213.6190876724
 20
188.512279014
 10
213.6141413799
 20
188.5030779545
 10
213.6044934154
 20
188.4944541342
 10
213.5907016385
 20
188.4871067401
 10
213.5735009949
 20
188.481680767
 10
213.5535478585
 20
188.4784745445
 10
213.5312448977
 20
188.4775774798
 10
213.5071202868
 20
188.4792291029
 10
213.4819468451
 20
188.4836819016
 10
213.4564050649
 20
188.4910077261
  0
LINE
  5
4B9
100
AcDbEntity
  8
0
100
AcDbLine
 62
250
  6
CONTINUOUS
 10
213.5305152265
 20
191.2271942251
 11
213.4036394317
 21
191.1003184304
  0
LINE
  5
4BA
100
AcDbEntity
  8
0
100
AcDbLine
 62
250
  6
CONTINUOUS
 10
213.7302411334
 20
191.0274683182
 11
213.6033653387
 21
190.9005925234
  0
LWPOLYLINE
  5
4BB
100
AcDbEntity
  8
0
100
AcDbPolyline
 62
7
  6
CONTINUOUS
 90
10
 70
0
 10
208.1584891696
 20
186.7310141438
 10
208.1335244974
 20
186.7081640513
 10
208.1104900732
 20
186.6830414064
 10
208.0893858968
 20
186.6556462188
 10
208.0701484771
 20
186.6259426515
 10
208.0528413053
 20
186.593966564
 10
208.0376548552
 20
186.5598255121
 10
208.024652618
 20
186.5235553565
 10
208.0137711025
 20
186.485120263
 10
208.0050103087
 20
186.4445202463
  0
LWPOLYLINE
  5
4BC
100
AcDbEntity
  8
0
100
AcDbPolyline
 62
7
  6
CONTINUOUS
 90
10
 70
0
 10
208.281030049
 20
186.6146250544
 10
208.2970302563
 20
186.6285419175
 10
208.3139923434
 20
186.6408606812
 10
208.3319163104
 20
186.6515813422
 10
208.3507772892
 20
186.660720345
 10
208.3706001478
 20
186.6682612396
 10
208.3914594902
 20
186.6741546812
 10
208.4133801845
 20
186.6783842203
 10
208.4363373627
 20
186.6809663034
 10
208.4603310246
 20
186.6819009298
  0
LWPOLYLINE
  5
4BD
100
AcDbEntity
  8
0
100
AcDbPolyline
 62
7
  6
CONTINUOUS
 90
10
 70
0
 10
207.2315039272
 20
186.6327575691
 10
207.2060612932
 20
186.6107169841
 10
207.1794704261
 20
186.5892776589
 10
207.151731326
 20
186.5684395914
 10
207.1228376831
 20
186.5481745901
 10
207.092795807
 20
186.5285108422
 10
207.0616246276
 20
186.5095329141
 10
207.0293304545
 20
186.491268993
 10
206.9959069779
 20
186.4736908871
 10
206.9613541979
 20
186.4567985945
  0
LWPOLYLINE
  5
4BE
100
AcDbEntity
  8
0
100
AcDbPolyline
 62
7
  6
CONTINUOUS
 90
10
 70
0
 10
204.8241288034
 20
186.3735408634
 10
204.8459553416
 20
186.3866542383
 10
204.8672096144
 20
186.4000075025
 10
204.8878916216
 20
186.4136006566
 10
204.9080419121
 20
186.4274115325
 10
204.9276199372
 20
186.4414622993
 10
204.9465040501
 20
186.4558194634
 10
204.9646537019
 20
186.4705051941
 10
204.9821094414
 20
186.4854973235
 10
204.9988712687
 20
186.5007958525
  0
LWPOLYLINE
  5
4BF
100
AcDbEntity
  8
0
100
AcDbPolyline
 62
250
  6
CONTINUOUS
 90
12
 70
0
 10
213.4036394317
 20
191.1003184304
 10
213.4011305937
 20
191.0992205241
 10
213.3970131287
 20
191.0981816327
 10
213.3912870369
 20
191.0972017561
 10
213.3837064075
 20
191.0962749699
 10
213.3745171511
 20
191.0954071985
 10
213.3644570001
 20
191.0946162158
 10
213.3535778155
 20
191.09390973
 10
213.3418277362
 20
191.0932800329
 10
213.329788911
 20
191.0927217737
 10
213.3176861278
 20
191.0922395045
 10
213.3052945987
 20
191.0918286732
  0
LINE
  5
4C0
100
AcDbEntity
  8
0
100
AcDbLine
 62
7
  6
CONTINUOUS
 10
200.9625460299
 20
187.4450229213
 11
201.0350648663
 21
187.4672915277
  0
LINE
  5
4C1
100
AcDbEntity
  8
0
100
AcDbLine
 62
7
  6
CONTINUOUS
 10
201.0350648663
 20
187.4672915277
 11
201.0697530524
 21
187.4777806744
  0
LWPOLYLINE
  5
4C2
100
AcDbEntity
  8
0
100
AcDbPolyline
 62
7
  6
CONTINUOUS
 90
43
 70
0
 10
200.9625460299
 20
187.4450229213
 10
200.9535545146
 20
187.442356345
 10
200.9447859765
 20
187.439965681
 10
200.9362455291
 20
187.437839129
 10
200.9279471077
 20
187.4359679904
 10
200.9198849445
 20
187.4343374166
 10
200.9120338265
 20
187.4329280907
 10
200.9043970381
 20
187.4317302036
 10
200.8969764994
 20
187.4307342308
 10
200.8897447562
 20
187.4299244746
 10
200.8827046106
 20
187.4292928903
 10
200.8758566212
 20
187.4288319539
 10
200.869170254
 20
187.4285300001
 10
200.8626472204
 20
187.4283806848
 10
200.856288362
 20
187.4283785782
 10
200.8500625816
 20
187.4285166878
 10
200.8439662138
 20
187.4287907657
 10
200.8380056062
 20
187.4291969919
 10
200.8321654426
 20
187.4297314496
 10
200.8264438475
 20
187.4303910909
 10
200.8208452934
 20
187.4311725252
 10
200.815364348
 20
187.4320724121
 10
200.8100020758
 20
187.4330877333
 10
200.8047596248
 20
187.4342155861
 10
200.7996318746
 20
187.4354533651
 10
200.7946202126
 20
187.4367981902
 10
200.7897252429
 20
187.4382475736
 10
200.7849409532
 20
187.4398000787
 10
200.7802688159
 20
187.4414530173
 10
200.7757093504
 20
187.4432043366
 10
200.7712555724
 20
187.445054231
 10
200.7669082739
 20
187.4470006585
 10
200.7626689547
 20
187.4490416423
 10
200.7585322503
 20
187.4511781364
 10
200.7544993907
 20
187.4534082359
 10
200.7505717666
 20
187.4557303257
 10
200.7467448447
 20
187.4581463628
 10
200.7430208061
 20
187.4606540796
 10
200.7394005156
 20
187.463252601
 10
200.7358782701
 20
187.4659465988
 10
200.7324537193
 20
187.4687369252
 10
200.7291312949
 20
187.4716201814
 10
200.7259129547
 20
187.4745949634
  0
LWPOLYLINE
  5
4C3
100
AcDbEntity
  8
0
100
AcDbPolyline
 62
7
  6
CONTINUOUS
 90
10
 70
0
 10
201.0188274953
 20
188.4910077261
 10
200.9932855106
 20
188.4836818521
 10
200.9681118828
 20
188.4792290527
 10
200.9439871191
 20
188.4775774718
 10
200.9216839996
 20
188.4784746101
 10
200.9017307766
 20
188.4816809423
 10
200.8845302446
 20
188.4871070148
 10
200.8707387297
 20
188.4944544248
 10
200.8610910293
 20
188.5030781521
 10
200.8561448878
 20
188.512279014
  0
LWPOLYLINE
  5
4C4
100
AcDbEntity
  8
0
100
AcDbPolyline
 62
250
  6
CONTINUOUS
 90
13
 70
0
 10
201.4387481638
 20
210.5640030135
 10
201.4568029101
 20
210.5665787058
 10
201.4745614663
 20
210.5723759814
 10
201.491733723
 20
210.5812995002
 10
201.5080385187
 20
210.5932022666
 10
201.5232105012
 20
210.6078896314
 10
201.5370038919
 20
210.6251237226
 10
201.5491977667
 20
210.6446321168
 10
201.5595862899
 20
210.6660895927
 10
201.5679909205
 20
210.689119149
 10
201.5742789246
 20
210.7133313484
 10
201.5783582104
 20
210.7383372804
 10
201.5801695201
 20
210.7637289205
  0
LWPOLYLINE
  5
4C5
100
AcDbEntity
  8
0
100
AcDbPolyline
 62
250
  6
CONTINUOUS
 90
13
 70
0
 10
201.8855039557
 20
210.5405895346
 10
201.9035519478
 20
210.543163648
 10
201.9213048758
 20
210.548957285
 10
201.9384728543
 20
210.5578756582
 10
201.9547747001
 20
210.5697722244
 10
201.9699452762
 20
210.5844529952
 10
201.9837391367
 20
210.6016812003
 10
201.9959348781
 20
210.6211847579
 10
202.0063265393
 20
210.6426393251
 10
202.0147357076
 20
210.6656702868
 10
202.0210287188
 20
210.6898893965
 10
202.0251120652
 20
210.7149072266
 10
202.0269253119
 20
210.7403154415
  0
LWPOLYLINE
  5
4C6
100
AcDbEntity
  8
0
100
AcDbPolyline
 62
250
  6
CONTINUOUS
 90
9
 70
0
 10
200.9575787252
 20
210.7597544318
 10
200.940221592
 20
210.7591294793
 10
200.9246749172
 20
210.7584772014
 10
200.9110274459
 20
210.7578026504
 10
200.8993224352
 20
210.7571007741
 10
200.8892483579
 20
210.7563512008
 10
200.8810243107
 20
210.7555471399
 10
200.8751222401
 20
210.7546953819
 10
200.8718672216
 20
210.7537959269
  0
LINE
  5
4C7
100
AcDbEntity
  8
0
100
AcDbLine
 62
250
  6
CONTINUOUS
 10
201.0000590106
 20
210.7609489401
 11
200.9575787252
 21
210.7597544318
  0
LWPOLYLINE
  5
4C8
100
AcDbEntity
  8
0
100
AcDbPolyline
 62
7
  6
CONTINUOUS
 90
7
 70
0
 10
197.5401025241
 20
211.2485756563
 10
197.5228301226
 20
211.2481419977
 10
197.5079471615
 20
211.2476753393
 10
197.4959296753
 20
211.2471903707
 10
197.486936342
 20
211.2466919885
 10
197.4808084836
 20
211.2461752961
 10
197.4775461001
 20
211.2456402936
  0
LINE
  5
4C9
100
AcDbEntity
  8
0
100
AcDbLine
 62
7
  6
CONTINUOUS
 10
197.5818992292
 20
211.2493409992
 11
197.5401025241
 21
211.2485756563
  0
LINE
  5
4CA
100
AcDbEntity
  8
0
100
AcDbLine
 62
7
  6
CONTINUOUS
 10
197.6315555678
 20
211.2499428923
 11
197.5818992292
 21
211.2493409992
  0
LINE
  5
4CB
100
AcDbEntity
  8
0
100
AcDbLine
 62
7
  6
CONTINUOUS
 10
197.7165438656
 20
211.2504939688
 11
197.6315555678
 21
211.2499428923
  0
LINE
  5
4CC
100
AcDbEntity
  8
0
100
AcDbLine
 62
7
  6
CONTINUOUS
 10
217.034726945
 20
211.2333034979
 11
213.7302411334
 21
211.2333034979
  0
LINE
  5
4CD
100
AcDbEntity
  8
0
100
AcDbLine
 62
7
  6
CONTINUOUS
 10
200.7449914268
 20
211.2333034979
 11
197.4405056152
 21
211.2333034979
  0
LINE
  5
4CE
100
AcDbEntity
  8
0
100
AcDbLine
 62
7
  6
CONTINUOUS
 10
197.7165438656
 20
211.2504939688
 11
200.6930534521
 21
211.2506020885
  0
LINE
  5
4CF
100
AcDbEntity
  8
0
100
AcDbLine
 62
7
  6
CONTINUOUS
 10
216.7586886763
 20
211.2504939699
 11
213.7821791082
 21
211.2506020885
  0
LINE
  5
4D0
100
AcDbEntity
  8
0
100
AcDbLine
 62
7
  6
CONTINUOUS
 10
216.8436770172
 20
211.2499428935
 11
216.7586886763
 21
211.2504939699
  0
LINE
  5
4D1
100
AcDbEntity
  8
0
100
AcDbLine
 62
7
  6
CONTINUOUS
 10
216.8933333551
 20
211.2493410002
 11
216.8436770172
 21
211.2499428935
  0
LWPOLYLINE
  5
4D2
100
AcDbEntity
  8
0
100
AcDbPolyline
 62
250
  6
CONTINUOUS
 90
13
 70
0
 10
212.5897286045
 20
210.5405895346
 10
212.5716804971
 20
210.543163675
 10
212.5539274597
 20
210.5489573797
 10
212.5367593836
 20
210.5578758586
 10
212.5204574409
 20
210.5697725784
 10
212.5052867918
 20
210.5844535374
 10
212.4914929264
 20
210.6016819029
 10
212.4792972507
 20
210.6211855401
 10
212.4689056911
 20
210.6426401056
 10
212.4604966345
 20
210.6656709877
 10
212.4542037266
 20
210.6898899415
 10
212.4501204589
 20
210.7149075355
 10
212.4483072483
 20
210.7403154415
  0
LWPOLYLINE
  5
4D3
100
AcDbEntity
  8
0
100
AcDbPolyline
 62
250
  6
CONTINUOUS
 90
13
 70
0
 10
213.0364843964
 20
210.5640030135
 10
213.0184297902
 20
210.5665786731
 10
213.0006713701
 20
210.572375865
 10
212.9834992386
 20
210.5812992505
 10
212.9671945717
 20
210.5932018187
 10
212.95202269
 20
210.607888936
 10
212.9382293112
 20
210.6251228136
 10
212.926035356
 20
210.6446310964
 10
212.9156467047
 20
210.6660885643
 10
212.9072419293
 20
210.6891182177
 10
212.9009537888
 20
210.7133306206
 10
212.8968743982
 20
210.7383368663
 10
212.8950630401
 20
210.7637289205
  0
LWPOLYLINE
  5
4D4
100
AcDbEntity
  8
0
100
AcDbPolyline
 62
250
  6
CONTINUOUS
 90
10
 70
0
 10
213.6033653387
 20
210.7537956118
 10
213.5992419267
 20
210.7548575231
 10
213.5913048162
 20
210.7558687977
 10
213.5798460851
 20
210.7568294356
 10
213.5650922382
 20
210.7577475938
 10
213.5474237344
 20
210.7586151154
 10
213.5275346586
 20
210.7594075294
 10
213.5060628958
 20
210.7601146073
 10
213.4833067282
 20
210.7607465775
 10
213.4353166733
 20
210.7618002243
  0
LWPOLYLINE
  5
4D5
100
AcDbEntity
  8
0
100
AcDbPolyline
 62
250
  6
CONTINUOUS
 90
11
 70
0
 10
200.8561448878
 20
213.9163148572
 10
200.8602623672
 20
213.9152512671
 10
200.8683020846
 20
213.9142295661
 10
200.8801029954
 20
213.9132497542
 10
200.8954014032
 20
213.91230702
 10
200.9140155028
 20
213.9114061749
 10
200.9359857633
 20
213.9105616533
 10
200.9611927669
 20
213.9097706793
 10
200.9894053644
 20
213.9090360287
 10
201.0206255831
 20
213.9083804645
 10
201.0913648159
 20
213.9073048482
  0
LINE
  5
4D6
100
AcDbEntity
  8
0
100
AcDbLine
 62
7
  6
CONTINUOUS
 10
200.9993291756
 20
214.1980161779
 11
201.0697530889
 21
214.1766077719
  0
LINE
  5
4D7
100
AcDbEntity
  8
0
100
AcDbLine
 62
7
  6
CONTINUOUS
 10
200.9625460299
 20
214.2093655289
 11
200.9993291756
 21
214.1980161779
  0
LWPOLYLINE
  5
4D8
100
AcDbEntity
  8
0
100
AcDbPolyline
 62
250
  6
CONTINUOUS
 90
13
 70
0
 10
213.4036394317
 20
210.5540700199
 10
213.4013191184
 20
210.5551311186
 10
213.3973992412
 20
210.5561418995
 10
213.3918798
 20
210.5571023625
 10
213.3845182792
 20
210.5580208342
 10
213.3755571946
 20
210.5588889881
 10
213.3657240931
 20
210.5596818444
 10
213.3550891677
 20
210.5603889322
 10
213.3435822254
 20
210.5610207225
 10
213.3317202347
 20
210.5615836489
 10
213.3197151331
 20
210.5620741616
 10
213.3073549831
 20
210.5624958104
 10
213.2812998257
 20
210.5631905165
  0
LINE
  5
4D9
100
AcDbEntity
  8
0
100
AcDbLine
 62
250
  6
CONTINUOUS
 10
213.5305152265
 20
210.4271942251
 11
213.4036394317
 21
210.5540700199
  0
LINE
  5
4DA
100
AcDbEntity
  8
0
100
AcDbLine
 62
250
  6
CONTINUOUS
 10
213.7302411334
 20
210.6269201321
 11
213.6033653387
 21
210.7537959269
  0
LINE
  5
4DB
100
AcDbEntity
  8
0
100
AcDbLine
 62
250
  6
CONTINUOUS
 10
217.8443262091
 20
186.916664575
 11
217.8603648634
 21
187.0774554177
  0
LINE
  5
4DC
100
AcDbEntity
  8
0
100
AcDbLine
 62
250
  6
CONTINUOUS
 10
218.0443185937
 20
186.7174256354
 11
218.0612786466
 21
186.8874536913
  0
LWPOLYLINE
  5
4DD
100
AcDbEntity
  8
0
100
AcDbPolyline
 62
250
  6
CONTINUOUS
 90
16
 70
0
 10
213.4054796424
 20
187.4777807929
 10
213.3985024139
 20
187.4677148655
 10
213.3901604484
 20
187.458691137
 10
213.3806169939
 20
187.450899607
 10
213.3700546655
 20
187.4445209036
 10
213.3586981349
 20
187.4396730548
 10
213.3467859084
 20
187.4364000057
 10
213.3345377875
 20
187.4347448688
 10
213.322176118
 20
187.4347575421
 10
213.3099321365
 20
187.4364377723
 10
213.2980222204
 20
187.4397372391
 10
213.2866725471
 20
187.4446112997
 10
213.2761368353
 20
187.4510040026
 10
213.2666391187
 20
187.4587864393
 10
213.2583494159
 20
187.4677762915
 10
213.2514227865
 20
187.4777808186
  0
LWPOLYLINE
  5
4DE
100
AcDbEntity
  8
0
100
AcDbPolyline
 62
7
  6
CONTINUOUS
 90
10
 70
0
 10
208.8253671688
 20
185.4369309644
 10
208.8556618109
 20
185.4684068354
 10
208.8823279073
 20
185.5011799907
 10
208.905365458
 20
185.5352504382
 10
208.9247201605
 20
185.5704952325
 10
208.9404463173
 20
185.6070373347
 10
208.9527068359
 20
185.6452456147
 10
208.9615560185
 20
185.6852430383
 10
208.9669395629
 20
185.7269066637
 10
208.968857469
 20
185.7702365034
  0
LWPOLYLINE
  5
4DF
100
AcDbEntity
  8
0
100
AcDbPolyline
 62
7
  6
CONTINUOUS
 90
10
 70
0
 10
208.6836434344
 20
185.5428347598
 10
208.6632102444
 20
185.5239491996
 10
208.6418424698
 20
185.507307262
 10
208.6195401105
 20
185.4929089403
 10
208.5963652391
 20
185.4807759985
 10
208.5722557831
 20
185.4708866614
 10
208.5470255248
 20
185.4631756148
 10
208.5206123915
 20
185.4576210855
 10
208.4930784559
 20
185.4542448413
 10
208.4644237179
 20
185.4530468808
  0
LWPOLYLINE
  5
4E0
100
AcDbEntity
  8
0
100
AcDbPolyline
 62
7
  6
CONTINUOUS
 90
10
 70
0
 10
209.562336051
 20
186.6327575691
 10
209.5368933408
 20
186.6107169175
 10
209.5103024239
 20
186.5892775468
 10
209.4825633003
 20
186.5684394549
 10
209.4536696697
 20
186.5481744561
 10
209.4236278324
 20
186.5285107319
 10
209.3924566889
 20
186.5095328308
 10
209.3601625393
 20
186.4912689341
 10
209.3267390836
 20
186.473690856
 10
209.2921863217
 20
186.4567985945
  0
LWPOLYLINE
  5
4E1
100
AcDbEntity
  8
0
100
AcDbPolyline
 62
7
  6
CONTINUOUS
 90
10
 70
0
 10
208.6116119096
 20
186.2585333767
 10
208.5902368453
 20
186.2456002593
 10
208.5683848509
 20
186.2341983469
 10
208.5460559266
 20
186.2243276364
 10
208.523328003
 20
186.2160011159
 10
208.5001231493
 20
186.2092057924
 10
208.4762075739
 20
186.2039026916
 10
208.4515033461
 20
186.2000788211
 10
208.4260883965
 20
186.1977471708
 10
208.3999627251
 20
186.1969077402
  0
LWPOLYLINE
  5
4E2
100
AcDbEntity
  8
0
100
AcDbPolyline
 62
7
  6
CONTINUOUS
 90
10
 70
0
 10
207.154960992
 20
186.3735408289
 10
207.1767875372
 20
186.3866542045
 10
207.198041814
 20
186.4000074697
 10
207.2187238223
 20
186.413600625
 10
207.2388741121
 20
186.4274115018
 10
207.2584521334
 20
186.4414622699
 10
207.277336237
 20
186.4558194375
 10
207.2954858732
 20
186.4705051745
 10
207.3129415917
 20
186.4854973126
 10
207.3297033925
 20
186.5007958525
  0
LINE
  5
4E3
100
AcDbEntity
  8
0
100
AcDbLine
 62
250
  6
CONTINUOUS
 10
212.8950628329
 20
188.7558180475
 11
212.4483072483
 21
188.5474924971
  0
LWPOLYLINE
  5
4E4
100
AcDbEntity
  8
0
100
AcDbPolyline
 62
7
  6
CONTINUOUS
 90
10
 70
0
 10
204.6305220295
 20
186.2787631267
 10
204.6517944651
 20
186.2868339864
 10
204.6731238623
 20
186.2955489241
 10
204.6945102211
 20
186.3049079408
 10
204.7159496808
 20
186.3149498114
 10
204.7374461021
 20
186.3256357632
 10
204.7590110668
 20
186.3368494755
 10
204.7806484356
 20
186.3485521752
 10
204.8023543478
 20
186.3607826375
 10
204.8241288034
 20
186.3735408634
  0
LINE
  5
4E5
100
AcDbEntity
  8
0
100
AcDbLine
 62
7
  6
CONTINUOUS
 10
197.4689611114
 20
184.342780956
 11
197.4221628925
 21
184.3271942251
  0
LINE
  5
4E6
100
AcDbEntity
  8
0
100
AcDbLine
 62
7
  6
CONTINUOUS
 10
216.9976864601
 20
190.4087481567
 11
217.034726945
 21
190.4210849524
  0
LWPOLYLINE
  5
4E7
100
AcDbEntity
  8
0
100
AcDbPolyline
 62
250
  6
CONTINUOUS
 90
13
 70
0
 10
212.9835549154
 20
214.1061077705
 10
212.9652664709
 20
214.1035426735
 10
212.9472783257
 20
214.097753587
 10
212.9298845389
 20
214.0888358188
 10
212.9133701066
 20
214.0769364221
 10
212.8980039408
 20
214.0622501458
 10
212.8840350681
 20
214.0450149623
 10
212.8716872044
 20
214.0255031869
 10
212.861169151
 20
214.0040405602
 10
212.8526621036
 20
213.9810054053
 10
212.846300307
 20
213.9567880059
 10
212.842176571
 20
213.931777375
 10
212.8403505302
 20
213.9063818636
  0
LWPOLYLINE
  5
4E8
100
AcDbEntity
  8
0
100
AcDbPolyline
 62
250
  6
CONTINUOUS
 90
13
 70
0
 10
212.7888034552
 20
214.1165766206
 10
212.7705232997
 20
214.1140134321
 10
212.7525421118
 20
214.1082287732
 10
212.7351536695
 20
214.0993173078
 10
212.7186429049
 20
214.0874254975
 10
212.7032785427
 20
214.072747349
 10
212.6893093822
 20
214.0555197908
 10
212.676959939
 20
214.0360153804
 10
212.6664386433
 20
214.0145584082
 10
212.657925904
 20
213.9915227478
 10
212.6515572812
 20
213.967296449
 10
212.6474278611
 20
213.942269526
 10
212.6455990701
 20
213.9168507136
  0
LINE
  5
4E9
100
AcDbEntity
  8
0
100
AcDbLine
 62
7
  6
CONTINUOUS
 10
212.5358393552
 20
213.3630254329
 11
212.5866852206
 21
213.369378459
  0
LWPOLYLINE
  5
4EA
100
AcDbEntity
  8
0
100
AcDbPolyline
 62
250
  6
CONTINUOUS
 90
16
 70
0
 10
202.0269253119
 20
213.1068959532
 10
202.0326875549
 20
213.1075956101
 10
202.0383479851
 20
213.1083450235
 10
202.043873371
 20
213.1091441934
 10
202.049219004
 20
213.1099909028
 10
202.054358998
 20
213.1108873688
 10
202.0592799035
 20
213.1118402423
 10
202.0639396054
 20
213.1128518759
 10
202.0682842547
 20
213.1139199171
 10
202.0722709029
 20
213.1150439594
 10
202.0758404443
 20
213.1162234201
 10
202.0789403866
 20
213.117458882
 10
202.0815233197
 20
213.1187516875
 10
202.0835226451
 20
213.1201022843
 10
202.08486306
 20
213.1215102248
 10
202.0854734947
 20
213.122975509
  0
LWPOLYLINE
  5
4EB
100
AcDbEntity
  8
0
100
AcDbPolyline
 62
250
  6
CONTINUOUS
 90
10
 70
0
 10
201.0216616518
 20
213.1381633069
 10
200.9960075619
 20
213.1356408006
 10
200.9711108587
 20
213.1291776261
 10
200.9477069084
 20
213.1189645377
 10
200.9264869927
 20
213.1053030425
 10
200.90807801
 20
213.0885965458
 10
200.8930238978
 20
213.0693384955
 10
200.8817694059
 20
213.0480977182
 10
200.8746470127
 20
213.0255015696
 10
200.8718671828
 20
213.0022174832
  0
LWPOLYLINE
  5
4EC
100
AcDbEntity
  8
0
100
AcDbPolyline
 62
250
  6
CONTINUOUS
 90
10
 70
0
 10
212.5397362198
 20
213.258921677
 10
212.5138133061
 20
213.2567023398
 10
212.4886706862
 20
213.2504577533
 10
212.4650651665
 20
213.240375883
 10
212.4437072857
 20
213.2267601989
 10
212.4252399276
 20
213.2100205405
 10
212.4102189696
 20
213.1906607802
 10
212.3990965506
 20
213.1692636573
 10
212.3922074607
 20
213.146473237
 10
212.389759065
 20
213.1229755231
  0
LWPOLYLINE
  5
4ED
100
AcDbEntity
  8
0
100
AcDbPolyline
 62
250
  6
CONTINUOUS
 90
13
 70
0
 10
212.7888034552
 20
214.1165766206
 10
212.7626934107
 20
214.1148429647
 10
212.7370321948
 20
214.1097197968
 10
212.7122589728
 20
214.1012955257
 10
212.6887984968
 20
214.0897155714
 10
212.6670508857
 20
214.0751784653
 10
212.647385559
 20
214.0579312442
 10
212.6301329926
 20
214.0382602825
 10
212.6155974682
 20
214.0165085621
 10
212.6040392858
 20
213.9930745698
 10
212.5956490519
 20
213.9683726629
 10
212.5905551363
 20
213.9428191233
 10
212.5888339162
 20
213.9168507136
  0
LINE
  5
4EE
100
AcDbEntity
  8
0
100
AcDbLine
 62
250
  6
CONTINUOUS
 10
201.63488203
 20
213.9063818636
 11
201.8296334901
 21
213.9168507136
  0
LWPOLYLINE
  5
4EF
100
AcDbEntity
  8
0
100
AcDbPolyline
 62
250
  6
CONTINUOUS
 90
16
 70
0
 10
213.2039135248
 20
213.0276875566
 10
213.2287523908
 20
213.0283000052
 10
213.2528685838
 20
213.0299627817
 10
213.2762621037
 20
213.0326758861
 10
213.2990784771
 20
213.0364579194
 10
213.3211721774
 20
213.0412902806
 10
213.3421066252
 20
213.0471171664
 10
213.3619523633
 20
213.0539622745
 10
213.380638849
 20
213.0618019073
 10
213.3975178744
 20
213.0705091683
 10
213.4125944085
 20
213.0801364193
 10
213.4258634821
 20
213.0906312986
 10
213.4366619805
 20
213.1017098251
 10
213.4447688652
 20
213.1132773385
 10
213.4504051745
 20
213.125428499
 10
213.4535709084
 20
213.1381633069
  0
LWPOLYLINE
  5
4F0
100
AcDbEntity
  8
0
100
AcDbPolyline
 62
250
  6
CONTINUOUS
 90
9
 70
0
 10
213.4746092715
 20
213.9087861179
 10
213.5038335515
 20
213.9094903262
 10
213.5305835924
 20
213.9102707113
 10
213.554541731
 20
213.9111317214
 10
213.575259381
 20
213.9120689083
 10
213.5923682633
 20
213.9130582468
 10
213.6055520391
 20
213.9140917282
 10
213.6145386139
 20
213.9151773612
 10
213.6190876724
 20
213.9163151456
  0
LWPOLYLINE
  5
4F1
100
AcDbEntity
  8
0
100
AcDbPolyline
 62
250
  6
CONTINUOUS
 90
16
 70
0
 10
213.2039135248
 20
212.8917413886
 10
213.2430631627
 20
212.8923556196
 10
213.2817715097
 20
212.8940194867
 10
213.3196709874
 20
212.8967329899
 10
213.3562746133
 20
212.9005141949
 10
213.391381645
 20
212.9053450359
 10
213.4250224428
 20
212.911171316
 10
213.4568936183
 20
212.9180181295
 10
213.4865381203
 20
212.9258603819
 10
213.5136796872
 20
212.9345685936
 10
213.5379654017
 20
212.9441931067
 10
213.5589694633
 20
212.9546835791
 10
213.5763114638
 20
212.9657595037
 10
213.5896691466
 20
212.9773273783
 10
213.5987680408
 20
212.9894807053
 10
213.6033653387
 20
213.0022194845
  0
LINE
  5
4F2
100
AcDbEntity
  8
0
100
AcDbLine
 62
250
  6
CONTINUOUS
 10
213.4095696384
 20
213.9076391735
 11
213.4746092715
 21
213.9087861179
  0
LINE
  5
4F3
100
AcDbEntity
  8
0
100
AcDbLine
 62
7
  6
CONTINUOUS
 10
212.78560263
 20
214.1261869054
 11
212.8876162801
 21
214.1276194445
  0
LWPOLYLINE
  5
4F4
100
AcDbEntity
  8
0
100
AcDbPolyline
 62
7
  6
CONTINUOUS
 90
8
 70
0
 10
213.3698550004
 20
214.1747898546
 10
213.3766111477
 20
214.1748565721
 10
213.383290566
 20
214.1750036342
 10
213.3896675907
 20
214.1752118137
 10
213.3951356575
 20
214.1754767536
 10
213.3994925782
 20
214.1757970019
 10
213.402940541
 20
214.1761740106
 10
213.4054795458
 20
214.1766077799
  0
LINE
  5
4F5
100
AcDbEntity
  8
0
100
AcDbLine
 62
250
  6
CONTINUOUS
 10
213.3376122429
 20
213.9068485402
 11
213.4095696384
 21
213.9076391735
  0
LWPOLYLINE
  5
4F6
100
AcDbEntity
  8
0
100
AcDbPolyline
 62
250
  6
CONTINUOUS
 90
19
 70
0
 10
201.4387481638
 20
213.0276875566
 10
201.4406948781
 20
213.0277051059
 10
201.4426356178
 20
213.0277579757
 10
201.4445703828
 20
213.0278461662
 10
201.446493604
 20
213.0279682877
 10
201.4484108507
 20
213.0281257298
 10
201.4503388304
 20
213.0283226609
 10
201.4522826988
 20
213.0285581124
 10
201.4542373003
 20
213.0288330529
 10
201.4562038753
 20
213.0291545564
 10
201.4581848513
 20
213.0295217568
 10
201.4601778007
 20
213.0299355202
 10
201.4621766813
 20
213.0304055197
 10
201.464186106
 20
213.0309316219
 10
201.4662014619
 20
213.0315139602
 10
201.4682028676
 20
213.0321626072
 10
201.4701836961
 20
213.0328809207
 10
201.4721505746
 20
213.033665543
 10
201.4741035029
 20
213.0345164742
  0
LWPOLYLINE
  5
4F7
100
AcDbEntity
  8
0
100
AcDbPolyline
 62
250
  6
CONTINUOUS
 90
15
 70
0
 10
213.2399948712
 20
214.1061682071
 10
213.2596576024
 20
214.1063236295
 10
213.2786240522
 20
214.1065740376
 10
213.2969938914
 20
214.1069222174
 10
213.314667449
 20
214.1073653831
 10
213.3313457129
 20
214.1078951762
 10
213.347073977
 20
214.1085121717
 10
213.3618069474
 20
214.1092157947
 10
213.3751097297
 20
214.1099959621
 10
213.3870099859
 20
214.1108575895
 10
213.3974800542
 20
214.1117957612
 10
213.4060020543
 20
214.1127856475
 10
213.4124033595
 20
214.1138189718
 10
213.4168565966
 20
214.1149040107
 10
213.4193617655
 20
214.1160407641
  0
LWPOLYLINE
  5
4F8
100
AcDbEntity
  8
0
100
AcDbPolyline
 62
250
  6
CONTINUOUS
 90
18
 70
0
 10
201.4465151952
 20
212.8917589973
 10
201.4542820975
 20
212.891811899
 10
201.4620370384
 20
212.8919000936
 10
201.4697320463
 20
212.8920221736
 10
201.4773917329
 20
212.8921795465
 10
201.4851108314
 20
212.8923764346
 10
201.492888645
 20
212.8926118832
 10
201.500694269
 20
212.8928868471
 10
201.5085710087
 20
212.893208413
 10
201.5164978421
 20
212.893575786
 10
201.5244512152
 20
212.8939897609
 10
201.5324622117
 20
212.8944598095
 10
201.5405053137
 20
212.8949856173
 10
201.5485406661
 20
212.8955674988
 10
201.5565670105
 20
212.8962158688
 10
201.5645521574
 20
212.8969341992
 10
201.5724366385
 20
212.8977190182
 10
201.5801697049
 20
212.8985703259
  0
LINE
  5
4F9
100
AcDbEntity
  8
0
100
AcDbLine
 62
250
  6
CONTINUOUS
 10
213.2597608294
 20
213.9064425835
 11
213.3376122429
 21
213.9068485402
  0
LINE
  5
4FA
100
AcDbEntity
  8
0
100
AcDbLine
 62
250
  6
CONTINUOUS
 10
201.2713190355
 20
212.8917413886
 11
201.4465151952
 21
212.8917589973
  0
LINE
  5
4FB
100
AcDbEntity
  8
0
100
AcDbLine
 62
250
  6
CONTINUOUS
 10
201.2713190355
 20
213.0276875566
 11
201.4387481638
 21
213.0276875566
  0
LINE
  5
4FC
100
AcDbEntity
  8
0
100
AcDbLine
 62
250
  6
CONTINUOUS
 10
213.0364843964
 20
213.0276875566
 11
213.2039135248
 21
213.0276875566
  0
LINE
  5
4FD
100
AcDbEntity
  8
0
100
AcDbLine
 62
7
  6
CONTINUOUS
 10
213.2196358585
 20
213.1271942251
 11
212.9835549154
 21
213.1271942251
  0
LINE
  5
4FE
100
AcDbEntity
  8
0
100
AcDbLine
 62
7
  6
CONTINUOUS
 10
201.4916776448
 20
213.1271942251
 11
201.2555967017
 21
213.1271942251
  0
LINE
  5
4FF
100
AcDbEntity
  8
0
100
AcDbLine
 62
250
  6
CONTINUOUS
 10
212.8403505302
 20
213.9063818636
 11
213.2597608294
 21
213.9064425835
  0
LINE
  5
500
100
AcDbEntity
  8
0
100
AcDbLine
 62
250
  6
CONTINUOUS
 10
201.8296334901
 20
213.9168507136
 11
201.886398644
 21
213.9168507136
  0
LINE
  5
501
100
AcDbEntity
  8
0
100
AcDbLine
 62
250
  6
CONTINUOUS
 10
212.5888339162
 20
213.9168507136
 11
212.6455990701
 21
213.9168507136
  0
LINE
  5
502
100
AcDbEntity
  8
0
100
AcDbLine
 62
250
  6
CONTINUOUS
 10
212.9835549154
 20
214.1061077705
 11
213.2399948712
 21
214.1061682071
  0
LINE
  5
503
100
AcDbEntity
  8
0
100
AcDbLine
 62
7
  6
CONTINUOUS
 10
213.2891275244
 20
214.1747783334
 11
213.3698550004
 21
214.1747898546
  0
LINE
  5
504
100
AcDbEntity
  8
0
100
AcDbLine
 62
250
  6
CONTINUOUS
 10
201.1707431763
 20
213.9066301869
 11
201.63488203
 21
213.9063818636
  0
LINE
  5
505
100
AcDbEntity
  8
0
100
AcDbLine
 62
250
  6
CONTINUOUS
 10
201.0913648159
 20
213.9073048482
 11
201.1707431763
 21
213.9066301869
  0
LINE
  5
506
100
AcDbEntity
  8
0
100
AcDbLine
 62
7
  6
CONTINUOUS
 10
201.5876162801
 20
214.1276194445
 11
201.6896299302
 21
214.1261869054
  0
LINE
  5
507
100
AcDbEntity
  8
0
100
AcDbLine
 62
250
  6
CONTINUOUS
 10
212.6455990701
 20
213.9168507136
 11
212.8403505302
 21
213.9063818636
  0
LWPOLYLINE
  5
508
100
AcDbEntity
  8
0
100
AcDbPolyline
 62
250
  6
CONTINUOUS
 90
13
 70
0
 10
201.686429105
 20
214.1165766206
 10
201.7125389515
 20
214.1148429909
 10
201.7381999743
 20
214.1097199018
 10
201.7629730186
 20
214.1012957616
 10
201.7864333111
 20
214.089716006
 10
201.8081807803
 20
214.0751791516
 10
201.8278460951
 20
214.0579321503
 10
201.8450987836
 20
214.038261304
 10
201.8596344971
 20
214.0165095925
 10
201.8711928879
 20
213.9930755028
 10
201.8795833126
 20
213.9683733924
 10
201.884677369
 20
213.9428195383
 10
201.886398644
 20
213.9168507136
  0
LWPOLYLINE
  5
509
100
AcDbEntity
  8
0
100
AcDbPolyline
 62
250
  6
CONTINUOUS
 90
10
 70
0
 10
201.9354963404
 20
213.258921677
 10
201.9614192528
 20
213.2567023385
 10
201.9865618717
 20
213.2504577508
 10
202.0101673907
 20
213.2403758793
 10
202.0315252711
 20
213.2267601938
 10
202.0499926293
 20
213.2100205336
 10
202.0650135878
 20
213.1906607716
 10
202.0761360079
 20
213.1692636471
 10
202.0830250986
 20
213.1464732249
 10
202.0854734947
 20
213.122975509
  0
LWPOLYLINE
  5
50A
100
AcDbEntity
  8
0
100
AcDbPolyline
 62
250
  6
CONTINUOUS
 90
10
 70
0
 10
213.4535709084
 20
213.1381633069
 10
213.4792260691
 20
213.1356406102
 10
213.5041234592
 20
213.1291770244
 10
213.5275276877
 20
213.1189634641
 10
213.5487474707
 20
213.1053016373
 10
213.5671560391
 20
213.0885950444
 10
213.5822096518
 20
213.0693370596
 10
213.593463669
 20
213.048096475
 10
213.6005856854
 20
213.0255006997
 10
213.6033653387
 20
213.0022171388
  0
LWPOLYLINE
  5
50B
100
AcDbEntity
  8
0
100
AcDbPolyline
 62
250
  6
CONTINUOUS
 90
19
 70
0
 10
212.8950630401
 20
212.8985703061
 10
212.9005458301
 20
212.897952898
 10
212.9062508587
 20
212.8973601621
 10
212.9121723457
 20
212.8967920983
 10
212.9182770292
 20
212.8962492463
 10
212.9245836427
 20
212.8957310665
 10
212.9311703502
 20
212.8952359405
 10
212.9380456181
 20
212.8947616678
 10
212.9451970638
 20
212.894310449
 10
212.9526802802
 20
212.8938872679
 10
212.9604918521
 20
212.8934906408
 10
212.9686290676
 20
212.8931220515
 10
212.9771527482
 20
212.8927909352
 10
212.9860623165
 20
212.8924955726
 10
212.9953439348
 20
212.892237683
 10
213.0050388598
 20
212.8920318604
 10
213.0151501566
 20
212.8918829695
 10
213.0256403281
 20
212.8917861455
 10
213.2039135248
 20
212.8917413886
  0
LINE
  5
50C
100
AcDbEntity
  8
0
100
AcDbLine
 62
7
  6
CONTINUOUS
 10
201.8885473396
 20
213.369378459
 11
201.9393932051
 21
213.3630254329
  0
LWPOLYLINE
  5
50D
100
AcDbEntity
  8
0
100
AcDbPolyline
 62
250
  6
CONTINUOUS
 90
13
 70
0
 10
201.686429105
 20
214.1165766206
 10
201.7047093694
 20
214.1140134071
 10
201.7226906602
 20
214.1082286852
 10
201.7400791944
 20
214.0993171214
 10
201.7565900502
 20
214.0874251683
 10
201.7719544812
 20
214.0727468446
 10
201.785923646
 20
214.0555191377
 10
201.7982730264
 20
214.0360146549
 10
201.8087942256
 20
214.0145576866
 10
201.8173068596
 20
213.9915221016
 10
201.8236753859
 20
213.9672959473
 10
201.8278047326
 20
213.9422692421
 10
201.8296334901
 20
213.9168507136
  0
LWPOLYLINE
  5
50E
100
AcDbEntity
  8
0
100
AcDbPolyline
 62
250
  6
CONTINUOUS
 90
13
 70
0
 10
201.4916776448
 20
214.1061077705
 10
201.5099659385
 20
214.1035427082
 10
201.527953937
 20
214.0977537107
 10
201.5453475888
 20
214.0888360844
 10
201.5618618819
 20
214.0769368988
 10
201.5772279386
 20
214.0622508865
 10
201.5911967981
 20
214.0450159312
 10
201.603544748
 20
214.025504276
 10
201.6140629391
 20
214.00404166
 10
201.6225701428
 20
213.9810064026
 10
201.6289320871
 20
213.9567887861
 10
201.6330559368
 20
213.9317778192
 10
201.63488203
 20
213.9063818636
  0
LWPOLYLINE
  5
50F
100
AcDbEntity
  8
0
100
AcDbPolyline
 62
7
  6
CONTINUOUS
 90
8
 70
0
 10
216.9976864601
 20
211.2456402936
 10
216.9944240838
 20
211.2461752962
 10
216.9882962314
 20
211.2466919887
 10
216.9793029029
 20
211.247190371
 10
216.96728542
 20
211.2476753397
 10
216.952402461
 20
211.2481419982
 10
216.9351300607
 20
211.2485756569
 10
216.8933333551
 20
211.2493410002
  0
LWPOLYLINE
  5
510
100
AcDbEntity
  8
0
100
AcDbPolyline
 62
7
  6
CONTINUOUS
 90
9
 70
0
 10
201.0697530889
 20
214.1766077719
 10
201.072371287
 20
214.1761658838
 10
201.0759145945
 20
214.1757833159
 10
201.0803830114
 20
214.1754600682
 10
201.0860272498
 20
214.1751953948
 10
201.0925965976
 20
214.1749900416
 10
201.0993389183
 20
214.1748462464
 10
201.1059258605
 20
214.1747830594
 10
201.1848913396
 20
214.1747692768
  0
LINE
  5
511
100
AcDbEntity
  8
0
100
AcDbLine
 62
7
  6
CONTINUOUS
 10
197.4689611114
 20
217.3116074943
 11
197.4221628925
 21
217.3271942251
  0
LINE
  5
512
100
AcDbEntity
  8
0
100
AcDbLine
 62
7
  6
CONTINUOUS
 10
216.9976864601
 20
211.2456402936
 11
217.034726945
 21
211.2333034979
  0
LINE
  5
513
100
AcDbEntity
  8
0
100
AcDbLine
 62
250
  6
CONTINUOUS
 10
212.4483072483
 20
213.1068959532
 11
212.8950630401
 21
212.8985703061
  0
LWPOLYLINE
  5
514
100
AcDbEntity
  8
0
100
AcDbPolyline
 62
7
  6
CONTINUOUS
 90
7
 70
0
 10
213.7493196055
 20
214.1797934868
 10
213.7580743849
 20
214.1639077699
 10
213.7653614049
 20
214.1472648279
 10
213.7711129066
 20
214.1299987654
 10
213.7752733263
 20
214.1122499663
 10
213.7777999056
 20
214.0941639864
 10
213.7786632021
 20
214.0758903868
  0
LWPOLYLINE
  5
515
100
AcDbEntity
  8
0
100
AcDbPolyline
 62
250
  6
CONTINUOUS
 90
19
 70
0
 10
218.1000528133
 20
222.2670374124
 10
218.0949857135
 20
222.3120252644
 10
218.0859321313
 20
222.3560580705
 10
218.0730727545
 20
222.3988028892
 10
218.0565013161
 20
222.4401749005
 10
218.0365168213
 20
222.4796452492
 10
218.0138050887
 20
222.5163263202
 10
217.9888606742
 20
222.5499300195
 10
217.9619999995
 20
222.5805363919
 10
217.9338276533
 20
222.6079932105
 10
217.9051140243
 20
222.6320421303
 10
217.8758456816
 20
222.653108074
 10
217.8453089676
 20
222.6719583125
 10
217.8137549938
 20
222.6885128665
 10
217.7812767051
 20
222.7027251708
 10
217.7466916272
 20
222.7149771658
 10
217.7096516166
 20
222.7250622677
 10
217.6707563608
 20
222.7324765044
 10
217.6302084034
 20
222.7368856233
  0
LINE
  5
516
100
AcDbEntity
  8
0
100
AcDbLine
 62
7
  6
CONTINUOUS
 10
213.2518532801
 20
182.9521942251
 11
212.8932812801
 21
182.3515072251
  0
LINE
  5
517
100
AcDbEntity
  8
0
100
AcDbLine
 62
7
  6
CONTINUOUS
 10
212.9785012801
 20
182.2053282251
 11
213.4503972801
 21
182.9521942251
  0
LWPOLYLINE
  5
518
100
AcDbEntity
  8
0
100
AcDbPolyline
 62
7
  6
CONTINUOUS
 90
46
 70
0
 10
213.7493196055
 20
187.4745949634
 10
213.7462680191
 20
187.4717695792
 10
213.7431212733
 20
187.4690256034
 10
213.7398809543
 20
187.4663642989
 10
213.736550913
 20
187.463788714
 10
213.73313062
 20
187.4612981203
 10
213.7296146727
 20
187.4588883811
 10
213.7260032066
 20
187.4565600166
 10
213.722298509
 20
187.4543153829
 10
213.7184977903
 20
187.4521535719
 10
213.7146021335
 20
187.4500760012
 10
213.710612683
 20
187.4480843238
 10
213.7065263862
 20
187.4461783241
 10
213.7023440703
 20
187.4443595055
 10
213.6980669811
 20
187.4426297079
 10
213.6936924196
 20
187.4409895455
 10
213.6892210839
 20
187.4394406606
 10
213.6846543255
 20
187.4379850057
 10
213.679990254
 20
187.4366239277
 10
213.6752298267
 20
187.435359267
 10
213.6703742538
 20
187.4341929544
 10
213.6654219288
 20
187.4331266932
 10
213.6603738465
 20
187.432162422
 10
213.6552313611
 20
187.4313021394
 10
213.6499933576
 20
187.4305478318
 10
213.6446620896
 20
187.4299016236
 10
213.6392379253
 20
187.4293654163
 10
213.6337168358
 20
187.4289411807
 10
213.6281049594
 20
187.4286312152
 10
213.6223989964
 20
187.4284375392
 10
213.6165803456
 20
187.4283628607
 10
213.6106511374
 20
187.4284100298
 10
213.6046117791
 20
187.4285824984
 10
213.5984404765
 20
187.4288858956
 10
213.5921378796
 20
187.4293243084
 10
213.5857059546
 20
187.4299022869
 10
213.5791244779
 20
187.4306282868
 10
213.5723944941
 20
187.431507638
 10
213.5655182235
 20
187.4325459324
 10
213.5584770823
 20
187.4337540707
 10
213.5512728894
 20
187.4351386003
 10
213.5439083168
 20
187.4367061809
 10
213.5363662084
 20
187.4384699056
 10
213.5286429108
 20
187.4404397473
 10
213.5207484202
 20
187.4426214728
 10
213.5126865303
 20
187.4450229213
  0
LWPOLYLINE
  5
519
100
AcDbEntity
  8
0
100
AcDbPolyline
 62
7
  6
CONTINUOUS
 90
10
 70
0
 10
209.485793139
 20
186.3735407898
 10
209.5076196765
 20
186.3866541752
 10
209.5288739471
 20
186.4000074485
 10
209.5495559506
 20
186.4136006105
 10
209.5697062371
 20
186.4274114922
 10
209.5892842566
 20
186.4414622636
 10
209.6081683592
 20
186.4558194337
 10
209.626317995
 20
186.4705051728
 10
209.6437737141
 20
186.4854973121
 10
209.6605355162
 20
186.5007958525
  0
LWPOLYLINE
  5
51A
100
AcDbEntity
  8
0
100
AcDbPolyline
 62
7
  6
CONTINUOUS
 90
10
 70
0
 10
208.6885029692
 20
186.1396089607
 10
208.7108254351
 20
186.1505279841
 10
208.7318817297
 20
186.1622868142
 10
208.7516718529
 20
186.1748854528
 10
208.7702261007
 20
186.1883842198
 10
208.7875141772
 20
186.2027227992
 10
208.8034451945
 20
186.2177202385
 10
208.8179888567
 20
186.2333162212
 10
208.8311754596
 20
186.2495710672
 10
208.8430050034
 20
186.2664847785
  0
LWPOLYLINE
  5
51B
100
AcDbEntity
  8
0
100
AcDbPolyline
 62
250
  6
CONTINUOUS
 90
19
 70
0
 10
212.5543732655
 20
188.411546329
 10
212.5531289865
 20
188.4109481206
 10
212.5519213966
 20
188.4103203
 10
212.5507504958
 20
188.4096628673
 10
212.549614305
 20
188.4089776147
 10
212.5485148033
 20
188.40826275
 10
212.547457928
 20
188.4075128968
 10
212.5464408967
 20
188.4067276473
 10
212.5454664917
 20
188.4059074093
 10
212.5445489982
 20
188.4050480297
 10
212.5436860148
 20
188.4041490575
 10
212.5428799428
 20
188.4032109437
 10
212.5421522706
 20
188.4022308878
 10
212.5415005085
 20
188.40120786
 10
212.5409271462
 20
188.4001428901
 10
212.5404611405
 20
188.3990362676
 10
212.5401121437
 20
188.3978880888
 10
212.5398705034
 20
188.3966982574
 10
212.5397362198
 20
188.3954667732
  0
LINE
  5
51C
100
AcDbEntity
  8
0
100
AcDbLine
 62
7
  6
CONTINUOUS
 10
212.8403505302
 20
188.4990364975
 11
212.6455990701
 21
188.4058880179
  0
LINE
  5
51D
100
AcDbEntity
  8
0
100
AcDbLine
 62
250
  6
CONTINUOUS
 10
213.0011290573
 20
188.6198719761
 11
212.5543732655
 21
188.411546329
  0
LWPOLYLINE
  5
51E
100
AcDbEntity
  8
0
100
AcDbPolyline
 62
7
  6
CONTINUOUS
 90
10
 70
0
 10
206.9613541979
 20
186.2787631267
 10
206.9826266361
 20
186.2868339855
 10
207.0039560359
 20
186.2955489213
 10
207.0253423975
 20
186.3049079349
 10
207.0467818604
 20
186.314949801
 10
207.0682782851
 20
186.3256357472
 10
207.0898432524
 20
186.3368494541
 10
207.1114806229
 20
186.3485521492
 10
207.1331865361
 20
186.3607826071
 10
207.154960992
 20
186.3735408289
  0
LWPOLYLINE
  5
51F
100
AcDbEntity
  8
0
100
AcDbPolyline
 62
7
  6
CONTINUOUS
 90
10
 70
0
 10
209.2921863217
 20
186.2787631267
 10
209.3134587655
 20
186.286833982
 10
209.334788171
 20
186.2955489129
 10
209.3561745382
 20
186.3049079204
 10
209.3776140077
 20
186.3149497775
 10
209.3991104389
 20
186.3256357134
 10
209.4206754099
 20
186.3368494131
 10
209.4423127799
 20
186.3485521057
 10
209.4640186896
 20
186.3607825642
 10
209.485793139
 20
186.3735407898
  0
LINE
  5
520
100
AcDbEntity
  8
0
100
AcDbLine
 62
7
  6
CONTINUOUS
 10
212.9315044111
 20
187.3790520896
 11
213.203984491
 21
187.4633875497
  0
LINE
  5
521
100
AcDbEntity
  8
0
100
AcDbLine
 62
7
  6
CONTINUOUS
 10
213.203984491
 20
187.4633875497
 11
213.2514229368
 21
187.4777806744
  0
LWPOLYLINE
  5
522
100
AcDbEntity
  8
0
100
AcDbPolyline
 62
250
  6
CONTINUOUS
 90
13
 70
0
 10
201.0558707947
 20
214.1160407641
 10
201.0298481177
 20
214.1142669702
 10
201.0042687632
 20
214.1091182967
 10
200.9795688583
 20
214.1006823946
 10
200.9561695519
 20
214.0891029603
 10
200.9344698701
 20
214.0745773071
 10
200.9148399011
 20
214.0573530213
 10
200.8976144163
 20
214.0377236899
 10
200.8830872276
 20
214.0160239479
 10
200.8715061739
 20
213.9926238229
 10
200.8630688136
 20
213.9679223195
 10
200.8579190841
 20
213.9423405966
 10
200.8561448804
 20
213.9163148646
  0
LINE
  5
523
100
AcDbEntity
  8
0
100
AcDbLine
 62
250
  6
CONTINUOUS
 10
201.4916776448
 20
214.1061077705
 11
201.686429105
 21
214.1165766206
  0
LWPOLYLINE
  5
524
100
AcDbEntity
  8
0
100
AcDbPolyline
 62
7
  6
CONTINUOUS
 90
37
 70
0
 10
203.4623933106
 20
215.6088652251
 10
203.5000690736
 20
215.6098394656
 10
203.536710619
 20
215.6111482959
 10
203.5723179467
 20
215.6127917157
 10
203.6068053903
 20
215.6146406084
 10
203.6402586162
 20
215.6168240905
 10
203.6729346241
 20
215.6197295119
 10
203.7048551088
 20
215.6234516863
 10
203.7359983755
 20
215.6278957992
 10
203.7665563387
 20
215.6331647568
 10
203.7965416434
 20
215.6392465945
 10
203.8259416445
 20
215.6461532754
 10
203.8549103217
 20
215.6540235971
 10
203.8835385976
 20
215.6628059174
 10
203.9117355495
 20
215.6725518758
 10
203.939382389
 20
215.6835551911
 10
203.9665574686
 20
215.6958438776
 10
203.9931824359
 20
215.7093899157
 10
204.018903445
 20
215.7244029724
 10
204.0437481294
 20
215.7409592659
 10
204.0676888556
 20
215.7589825696
 10
204.0902888776
 20
215.7784538826
 10
204.1115208477
 20
215.799458656
 10
204.1314121135
 20
215.821911428
 10
204.1496079729
 20
215.8455368292
 10
204.1659649382
 20
215.8703543442
 10
204.1806264971
 20
215.896344478
 10
204.1936684095
 20
215.9231733942
 10
204.2050727227
 20
215.9508253431
 10
204.2148573895
 20
215.9793160659
 10
204.2231520289
 20
216.0083589657
 10
204.2299135025
 20
216.0378810561
 10
204.2351849487
 20
216.0679553176
 10
204.2392254022
 20
216.0985141053
 10
204.2421212079
 20
216.1295348693
 10
204.2437860209
 20
216.1610401539
 10
204.2442198412
 20
216.1930299562
  0
LWPOLYLINE
  5
525
100
AcDbEntity
  8
0
100
AcDbPolyline
 62
7
  6
CONTINUOUS
 90
8
 70
0
 10
201.1848913396
 20
214.1747692768
 10
201.1928393284
 20
214.1748286425
 10
201.200312377
 20
214.1749767575
 10
201.207298519
 20
214.1751904784
 10
201.2132009944
 20
214.1754612924
 10
201.2178208834
 20
214.1757863619
 10
201.2213571058
 20
214.1761685244
 10
201.2238096616
 20
214.17660778
  0
LINE
  5
526
100
AcDbEntity
  8
0
100
AcDbLine
 62
7
  6
CONTINUOUS
 10
201.5437281491
 20
214.2753363607
 11
201.5876162801
 21
214.2753363607
  0
LINE
  5
527
100
AcDbEntity
  8
0
100
AcDbLine
 62
7
  6
CONTINUOUS
 10
212.8876162801
 20
214.2753363607
 11
212.9315044111
 21
214.2753363607
  0
LINE
  5
528
100
AcDbEntity
  8
0
100
AcDbLine
 62
7
  6
CONTINUOUS
 10
202.8809782801
 20
214.8771942251
 11
203.2888922801
 21
214.8771942251
  0
LINE
  5
529
100
AcDbEntity
  8
0
100
AcDbLine
 62
7
  6
CONTINUOUS
 10
204.4994792801
 20
214.8771942251
 11
205.6103922801
 21
214.8771942251
  0
LINE
  5
52A
100
AcDbEntity
  8
0
100
AcDbLine
 62
7
  6
CONTINUOUS
 10
205.8153152801
 20
214.8771942251
 11
206.2047822801
 21
214.8771942251
  0
LINE
  5
52B
100
AcDbEntity
  8
0
100
AcDbLine
 62
7
  6
CONTINUOUS
 10
207.2363292801
 20
214.8771942251
 11
207.6468892801
 21
214.8771942251
  0
LINE
  5
52C
100
AcDbEntity
  8
0
100
AcDbLine
 62
7
  6
CONTINUOUS
 10
207.8547432801
 20
214.8771942251
 11
208.2363442801
 21
214.8771942251
  0
LINE
  5
52D
100
AcDbEntity
  8
0
100
AcDbLine
 62
7
  6
CONTINUOUS
 10
208.9916112801
 20
214.8771942251
 11
209.5705562801
 21
214.8771942251
  0
LINE
  5
52E
100
AcDbEntity
  8
0
100
AcDbLine
 62
7
  6
CONTINUOUS
 10
209.7626802801
 20
214.8771942251
 11
210.1521472801
 21
214.8771942251
  0
LINE
  5
52F
100
AcDbEntity
  8
0
100
AcDbLine
 62
7
  6
CONTINUOUS
 10
211.1838372801
 20
214.8771942251
 11
211.5942542801
 21
214.8771942251
  0
LINE
  5
530
100
AcDbEntity
  8
0
100
AcDbLine
 62
7
  6
CONTINUOUS
 10
205.6103922801
 20
215.1929432251
 11
204.9073932801
 21
215.1929432251
  0
LINE
  5
531
100
AcDbEntity
  8
0
100
AcDbLine
 62
7
  6
CONTINUOUS
 10
206.3468542801
 20
215.2798882251
 11
207.0994762801
 21
215.2798882251
  0
LINE
  5
532
100
AcDbEntity
  8
0
100
AcDbLine
 62
7
  6
CONTINUOUS
 10
210.2942912801
 20
215.2798882251
 11
211.0469122801
 21
215.2798882251
  0
LINE
  5
533
100
AcDbEntity
  8
0
100
AcDbLine
 62
7
  6
CONTINUOUS
 10
210.9442372801
 20
215.5956372251
 11
210.3995412801
 21
215.5956372251
  0
LINE
  5
534
100
AcDbEntity
  8
0
100
AcDbLine
 62
7
  6
CONTINUOUS
 10
206.9968722801
 20
215.5956372251
 11
206.4521042801
 21
215.5956372251
  0
LINE
  5
535
100
AcDbEntity
  8
0
100
AcDbLine
 62
7
  6
CONTINUOUS
 10
203.2888922801
 20
215.6088652251
 11
203.4623933106
 21
215.6088652251
  0
LINE
  5
536
100
AcDbEntity
  8
0
100
AcDbLine
 62
250
  6
CONTINUOUS
 10
212.7888034552
 20
214.1165766206
 11
212.9835549154
 21
214.1061077705
  0
LWPOLYLINE
  5
537
100
AcDbEntity
  8
0
100
AcDbPolyline
 62
250
  6
CONTINUOUS
 90
13
 70
0
 10
213.4193617655
 20
214.1160407641
 10
213.445386126
 20
214.1142667444
 10
213.4709667521
 20
214.1091174983
 10
213.4956674752
 20
214.1006808243
 10
213.5190671297
 20
214.0891005742
 10
213.5407667341
 20
214.0745741997
 10
213.5603962936
 20
214.0573493858
 10
213.5776211097
 20
214.0377198285
 10
213.5921474865
 20
214.0160202263
 10
213.6037277377
 20
213.9926205726
 10
213.6121644112
 20
213.9679198489
 10
213.6173136556
 20
213.9423392208
 10
213.6190876724
 20
213.9163148572
  0
LWPOLYLINE
  5
538
100
AcDbEntity
  8
0
100
AcDbPolyline
 62
7
  6
CONTINUOUS
 90
8
 70
0
 10
197.4689611114
 20
217.3116074943
 10
197.4722295499
 20
217.3110715231
 10
197.4783642192
 20
217.3105539448
 10
197.4873651192
 20
217.3100547593
 10
197.4993915136
 20
217.3095690713
 10
197.5142841387
 20
217.309101776
 10
197.5315652037
 20
217.3086675602
 10
197.5733760713
 20
217.307901344
  0
LWPOLYLINE
  5
539
100
AcDbEntity
  8
0
100
AcDbPolyline
 62
7
  6
CONTINUOUS
 90
8
 70
0
 10
213.2514229738
 20
214.1766077717
 10
213.2538494972
 20
214.1761754013
 10
213.2573000898
 20
214.1757982419
 10
213.2617747518
 20
214.1754762937
 10
213.2674323454
 20
214.1752065043
 10
213.2741140084
 20
214.174991926
 10
213.2813431537
 20
214.1748417153
 10
213.2891275244
 20
214.1747783334
  0
LINE
  5
53A
100
AcDbEntity
  8
0
100
AcDbLine
 62
7
  6
CONTINUOUS
 10
213.1794704696
 20
214.1984978655
 11
213.2514229738
 21
214.1766077717
  0
LINE
  5
53B
100
AcDbEntity
  8
0
100
AcDbLine
 62
7
  6
CONTINUOUS
 10
212.9315044111
 20
214.2753363607
 11
213.1794704696
 21
214.1984978655
  0
LWPOLYLINE
  5
53C
100
AcDbEntity
  8
0
100
AcDbPolyline
 62
250
  6
CONTINUOUS
 90
19
 70
0
 10
213.0011290573
 20
213.0345164742
 10
213.0025023708
 20
213.0338992038
 10
213.0039281472
 20
213.0333065298
 10
213.0054063863
 20
213.032738452
 10
213.0069313171
 20
213.0321954664
 10
213.0085087106
 20
213.0316770772
 10
213.0101558807
 20
213.0311817962
 10
213.0118744263
 20
213.0307074712
 10
213.0136627485
 20
213.0302562545
 10
213.0155333637
 20
213.029833115
 10
213.0174862677
 20
213.0294366087
 10
213.0195214647
 20
213.0290681797
 10
213.0216514845
 20
213.0287371286
 10
213.0238791534
 20
213.0284416228
 10
213.0262016449
 20
213.0281834951
 10
213.0286230099
 20
213.0279775446
 10
213.0311445986
 20
213.0278287046
 10
213.0337650608
 20
213.027732042
 10
213.0364843964
 20
213.0276875566
  0
LINE
  5
53D
100
AcDbEntity
  8
0
100
AcDbLine
 62
250
  6
CONTINUOUS
 10
212.5543732655
 20
213.2428421212
 11
213.0011290573
 21
213.0345164742
  0
LINE
  5
53E
100
AcDbEntity
  8
0
100
AcDbLine
 62
7
  6
CONTINUOUS
 10
212.8403505302
 20
213.1553519528
 11
212.6455990701
 21
213.2485004324
  0
LINE
  5
53F
100
AcDbEntity
  8
0
100
AcDbLine
 62
7
  6
CONTINUOUS
 10
216.8430280964
 20
183.5076959959
 11
216.8527764685
 21
183.5271942251
  0
LINE
  5
540
100
AcDbEntity
  8
0
100
AcDbLine
 62
7
  6
CONTINUOUS
 10
213.2376162801
 20
183.5271942251
 11
213.2175589706
 21
183.5071369156
  0
LWPOLYLINE
  5
541
100
AcDbEntity
  8
0
100
AcDbPolyline
 62
7
  6
CONTINUOUS
 90
4
 70
0
 10
203.5987468551
 20
215.9326606659
 10
203.5629604722
 20
215.928306396
 10
203.5449508707
 20
215.9263504793
 10
203.5268592317
 20
215.9246142251
  0
LWPOLYLINE
  5
542
100
AcDbEntity
  8
0
100
AcDbPolyline
 62
7
  6
CONTINUOUS
 90
7
 70
0
 10
216.9436674038
 20
217.3086675589
 10
216.9609484666
 20
217.3091017749
 10
216.9758410876
 20
217.3095690704
 10
216.9878674755
 20
217.3100547588
 10
216.9968683664
 20
217.3105539444
 10
217.0030030242
 20
217.3110715229
 10
217.0062714488
 20
217.3116074943
  0
LINE
  5
543
100
AcDbEntity
  8
0
100
AcDbLine
 62
7
  6
CONTINUOUS
 10
216.9018565351
 20
217.3079013423
 11
216.9436674038
 21
217.3086675589
  0
LINE
  5
544
100
AcDbEntity
  8
0
100
AcDbLine
 62
7
  6
CONTINUOUS
 10
216.852194692
 20
217.3072988809
 11
216.9018565351
 21
217.3079013423
  0
LINE
  5
545
100
AcDbEntity
  8
0
100
AcDbLine
 62
7
  6
CONTINUOUS
 10
216.7672208906
 20
217.3067474309
 11
216.852194692
 21
217.3072988809
  0
LINE
  5
546
100
AcDbEntity
  8
0
100
AcDbLine
 62
7
  6
CONTINUOUS
 10
203.5268592317
 20
215.9246142251
 11
203.2888922801
 21
215.9246142251
  0
LINE
  5
547
100
AcDbEntity
  8
0
100
AcDbLine
 62
7
  6
CONTINUOUS
 10
203.2888922801
 20
216.4614452251
 11
203.5268629024
 21
216.4614452251
  0
LINE
  5
548
100
AcDbEntity
  8
0
100
AcDbLine
 62
7
  6
CONTINUOUS
 10
210.9337972801
 20
216.7771942251
 11
210.4495922801
 21
216.7771942251
  0
LINE
  5
549
100
AcDbEntity
  8
0
100
AcDbLine
 62
7
  6
CONTINUOUS
 10
209.5705562801
 20
216.7771942251
 11
209.1889542801
 21
216.7771942251
  0
LINE
  5
54A
100
AcDbEntity
  8
0
100
AcDbLine
 62
7
  6
CONTINUOUS
 10
208.4600002801
 20
216.7771942251
 11
207.8547432801
 21
216.7771942251
  0
LINE
  5
54B
100
AcDbEntity
  8
0
100
AcDbLine
 62
7
  6
CONTINUOUS
 10
206.9863612801
 20
216.7771942251
 11
206.5021552801
 21
216.7771942251
  0
LINE
  5
54C
100
AcDbEntity
  8
0
100
AcDbLine
 62
7
  6
CONTINUOUS
 10
204.9073932801
 20
216.7771942251
 11
204.4994792801
 21
216.7771942251
  0
LINE
  5
54D
100
AcDbEntity
  8
0
100
AcDbLine
 62
7
  6
CONTINUOUS
 10
203.4624057775
 20
216.7771942251
 11
202.8809782801
 21
216.7771942251
  0
LINE
  5
54E
100
AcDbEntity
  8
0
100
AcDbLine
 62
7
  6
CONTINUOUS
 10
213.2170613538
 20
217.3066392989
 11
216.7672208906
 21
217.3067474309
  0
LINE
  5
54F
100
AcDbEntity
  8
0
100
AcDbLine
 62
7
  6
CONTINUOUS
 10
197.4221628925
 20
217.3271942251
 11
201.2376162801
 21
217.3271942251
  0
LINE
  5
550
100
AcDbEntity
  8
0
100
AcDbLine
 62
7
  6
CONTINUOUS
 10
213.2376162801
 20
217.3271942251
 11
217.0530696677
 21
217.3271942251
  0
LINE
  5
551
100
AcDbEntity
  8
0
100
AcDbLine
 62
7
  6
CONTINUOUS
 10
197.7080116341
 20
217.306747433
 11
201.2581712064
 21
217.3066392989
  0
LINE
  5
552
100
AcDbEntity
  8
0
100
AcDbLine
 62
7
  6
CONTINUOUS
 10
197.6230379159
 20
217.3072988831
 11
197.7080116341
 21
217.306747433
  0
LINE
  5
553
100
AcDbEntity
  8
0
100
AcDbLine
 62
7
  6
CONTINUOUS
 10
197.5733760713
 20
217.307901344
 11
197.6230379159
 21
217.3072988831
  0
LWPOLYLINE
  5
554
100
AcDbEntity
  8
0
100
AcDbPolyline
 62
7
  6
CONTINUOUS
 90
3
 70
0
 10
203.5268629024
 20
216.4614452251
 10
203.5450193801
 20
216.459711267
 10
203.563126836
 20
216.4577446249
  0
LWPOLYLINE
  5
555
100
AcDbEntity
  8
0
100
AcDbPolyline
 62
7
  6
CONTINUOUS
 90
21
 70
0
 10
203.563126836
 20
216.4577446249
 10
203.599221979
 20
216.4533352992
 10
203.6172096661
 20
216.4508926153
 10
203.6350664425
 20
216.4475512158
 10
203.6529553728
 20
216.4432674975
 10
203.6707133926
 20
216.4380850624
 10
203.6877694198
 20
216.4314686853
 10
203.7041126499
 20
216.4232757249
 10
203.7197538874
 20
216.4136488185
 10
203.7341544646
 20
216.4024806581
 10
203.7471309641
 20
216.3895228962
 10
203.7588668033
 20
216.3750238729
 10
203.769373566
 20
216.3596213129
 10
203.7786552413
 20
216.3434103532
 10
203.7867078402
 20
216.3262958517
 10
203.7935309795
 20
216.3086301162
 10
203.7990747962
 20
216.2904837068
 10
203.8033891532
 20
216.2717860599
 10
203.8066232557
 20
216.2526778002
 10
203.8088268389
 20
216.2332058017
 10
203.8099501677
 20
216.2133231875
  0
LINE
  5
556
100
AcDbEntity
  8
0
100
AcDbLine
 62
7
  6
CONTINUOUS
 10
213.2376162801
 20
218.1271942251
 11
213.2175589706
 21
218.1472515347
  0
LWPOLYLINE
  5
557
100
AcDbEntity
  8
0
100
AcDbPolyline
 62
7
  6
CONTINUOUS
 90
10
 70
0
 10
217.0976162801
 20
183.0771942251
 10
217.0472542682
 20
182.993178766
 10
217.0420737799
 20
182.9846710522
 10
217.0370030528
 20
182.9764290431
 10
217.0320443431
 20
182.9684613328
 10
217.0271953946
 20
182.9607593272
 10
217.0224494381
 20
182.953297244
 10
217.0178042173
 20
182.946066489
 10
217.0132619885
 20
182.9390756563
 10
217.0088227518
 20
182.9323247461
  0
LINE
  5
558
100
AcDbEntity
  8
0
100
AcDbLine
 62
250
  6
CONTINUOUS
 10
217.3751654502
 20
183.6362017545
 11
217.3059402201
 21
183.5237264536
  0
LWPOLYLINE
  5
559
100
AcDbEntity
  8
0
100
AcDbPolyline
 62
250
  6
CONTINUOUS
 90
16
 70
0
 10
217.3059402201
 20
183.5237264536
 10
217.285068467
 20
183.4900589676
 10
217.265312862
 20
183.4586086177
 10
217.246760323
 20
183.4293788485
 10
217.2294919156
 20
183.4025075703
 10
217.2134265741
 20
183.3779600942
 10
217.1984080198
 20
183.3554821472
 10
217.1844931795
 20
183.3352228577
 10
217.1716251264
 20
183.3170307532
 10
217.1594768012
 20
183.3003734113
 10
217.1480153817
 20
183.2854759784
 10
217.1372736902
 20
183.2723377419
 10
217.1270231332
 20
183.2605417598
 10
217.1171875133
 20
183.2504034577
 10
217.1078430279
 20
183.2426267242
 10
217.0989896773
 20
183.2377238753
  0
LWPOLYLINE
  5
55A
100
AcDbEntity
  8
0
100
AcDbPolyline
 62
7
  6
CONTINUOUS
 90
7
 70
0
 10
197.5300469593
 20
218.1452248501
 10
197.5127731764
 20
218.1447911191
 10
197.4978887794
 20
218.1443243789
 10
197.485870019
 20
218.1438393201
 10
197.4768756453
 20
218.1433408393
 10
197.4707469082
 20
218.1428240398
 10
197.4674838076
 20
218.1422889215
  0
LINE
  5
55B
100
AcDbEntity
  8
0
100
AcDbLine
 62
7
  6
CONTINUOUS
 10
197.5718462633
 20
218.1459903096
 11
197.5300469593
 21
218.1452248501
  0
LINE
  5
55C
100
AcDbEntity
  8
0
100
AcDbLine
 62
7
  6
CONTINUOUS
 10
197.6215043272
 20
218.1465922812
 11
197.5718462633
 21
218.1459903096
  0
LINE
  5
55D
100
AcDbEntity
  8
0
100
AcDbLine
 62
7
  6
CONTINUOUS
 10
197.7064925591
 20
218.1471434123
 11
197.6215043272
 21
218.1465922812
  0
LINE
  5
55E
100
AcDbEntity
  8
0
100
AcDbLine
 62
7
  6
CONTINUOUS
 10
217.0530696677
 20
218.1271942251
 11
213.2376162801
 21
218.1271942251
  0
LINE
  5
55F
100
AcDbEntity
  8
0
100
AcDbLine
 62
7
  6
CONTINUOUS
 10
201.2376162801
 20
218.1271942251
 11
197.4221628925
 21
218.1271942251
  0
LINE
  5
560
100
AcDbEntity
  8
0
100
AcDbLine
 62
7
  6
CONTINUOUS
 10
197.7064925591
 20
218.1471434123
 11
201.2576735897
 21
218.1472515347
  0
LINE
  5
561
100
AcDbEntity
  8
0
100
AcDbLine
 62
7
  6
CONTINUOUS
 10
204.1191402801
 20
218.4087002251
 11
204.4686202801
 21
218.4087002251
  0
LINE
  5
562
100
AcDbEntity
  8
0
100
AcDbLine
 62
7
  6
CONTINUOUS
 10
205.2264752801
 20
218.4087002251
 11
205.6230472801
 21
218.4087002251
  0
LINE
  5
563
100
AcDbEntity
  8
0
100
AcDbLine
 62
7
  6
CONTINUOUS
 10
205.8365352801
 20
218.4087002251
 11
206.2159252801
 21
218.4087002251
  0
LINE
  5
564
100
AcDbEntity
  8
0
100
AcDbLine
 62
7
  6
CONTINUOUS
 10
206.7667332801
 20
218.4087002251
 11
206.8223522801
 21
218.4087002251
  0
LINE
  5
565
100
AcDbEntity
  8
0
100
AcDbLine
 62
7
  6
CONTINUOUS
 10
207.8255792801
 20
218.4087002251
 11
208.2178492801
 21
218.4087002251
  0
LINE
  5
566
100
AcDbEntity
  8
0
100
AcDbLine
 62
7
  6
CONTINUOUS
 10
207.3753542801
 20
218.4087002251
 11
207.7633072801
 21
218.4087002251
  0
LINE
  5
567
100
AcDbEntity
  8
0
100
AcDbLine
 62
7
  6
CONTINUOUS
 10
208.9700772801
 20
218.4087002251
 11
209.3880482801
 21
218.4087002251
  0
LINE
  5
568
100
AcDbEntity
  8
0
100
AcDbLine
 62
7
  6
CONTINUOUS
 10
209.5045008828
 20
218.4087004791
 11
209.899477525
 21
218.4087004791
  0
LINE
  5
569
100
AcDbEntity
  8
0
100
AcDbLine
 62
7
  6
CONTINUOUS
 10
210.5067733454
 20
218.4087004791
 11
210.8882298305
 21
218.4087004791
  0
LINE
  5
56A
100
AcDbEntity
  8
0
100
AcDbLine
 62
7
  6
CONTINUOUS
 10
208.3272782801
 20
218.7879772251
 11
208.8673442801
 21
218.7879772251
  0
LINE
  5
56B
100
AcDbEntity
  8
0
100
AcDbLine
 62
7
  6
CONTINUOUS
 10
208.7880892801
 20
219.0814602251
 11
208.4083992801
 21
219.0814602251
  0
LINE
  5
56C
100
AcDbEntity
  8
0
100
AcDbLine
 62
7
  6
CONTINUOUS
 10
216.7687399699
 20
218.1471434141
 11
213.2175589706
 21
218.1472515347
  0
LINE
  5
56D
100
AcDbEntity
  8
0
100
AcDbLine
 62
7
  6
CONTINUOUS
 10
216.8537282752
 20
218.1465922831
 11
216.7687399699
 21
218.1471434141
  0
LINE
  5
56E
100
AcDbEntity
  8
0
100
AcDbLine
 62
7
  6
CONTINUOUS
 10
216.9033863375
 20
218.1459903112
 11
216.8537282752
 21
218.1465922831
  0
LINE
  5
56F
100
AcDbEntity
  8
0
100
AcDbLine
 62
250
  6
CONTINUOUS
 10
217.3750490206
 20
183.6362689062
 11
217.3350657497
 21
183.6164881207
  0
LINE
  5
570
100
AcDbEntity
  8
0
100
AcDbLine
 62
250
  6
CONTINUOUS
 10
217.3350657497
 20
183.6164881207
 11
217.2598619532
 21
183.5799668948
  0
LWPOLYLINE
  5
571
100
AcDbEntity
  8
0
100
AcDbPolyline
 62
250
  6
CONTINUOUS
 90
15
 70
0
 10
217.2598619532
 20
183.5799668948
 10
217.1921433291
 20
183.5474164105
 10
217.1612461114
 20
183.5327859187
 10
217.1324385212
 20
183.5193670911
 10
217.105658932
 20
183.5070862897
 10
217.0806316112
 20
183.4958471788
 10
217.0574965281
 20
183.4856811246
 10
217.0360896593
 20
183.4765567608
 10
217.0157831118
 20
183.4682836526
 10
216.9967361857
 20
183.4607678658
 10
216.9789011277
 20
183.4541033345
 10
216.961601846
 20
183.448381427
 10
216.9448622891
 20
183.4436325993
 10
216.9292152249
 20
183.4398263952
 10
216.9149466004
 20
183.4369628149
  0
LWPOLYLINE
  5
572
100
AcDbEntity
  8
0
100
AcDbPolyline
 62
7
  6
CONTINUOUS
 90
10
 70
0
 10
209.8863277832
 20
219.9848886484
 10
209.92126454
 20
219.9907039371
 10
209.9560861528
 20
219.9953818708
 10
209.9907926216
 20
219.9989224507
 10
210.025369762
 20
220.0013333823
 10
210.0598317585
 20
220.0026069616
 10
210.0942211643
 20
220.0027200755
 10
210.1285521638
 20
220.0016650192
 10
210.1628105725
 20
219.9994494972
 10
210.1969963905
 20
219.9960735087
  0
LINE
  5
573
100
AcDbEntity
  8
0
100
AcDbLine
 62
7
  6
CONTINUOUS
 10
209.899477525
 20
219.1521951416
 11
210.1121101316
 21
219.1521951416
  0
LINE
  5
574
100
AcDbEntity
  8
0
100
AcDbLine
 62
7
  6
CONTINUOUS
 10
210.112964936
 20
219.4633439609
 11
209.8863277832
 21
219.4633439609
  0
LINE
  5
575
100
AcDbEntity
  8
0
100
AcDbLine
 62
7
  6
CONTINUOUS
 10
208.8051282801
 20
220.3085462251
 11
208.4214922801
 21
220.3085462251
  0
LINE
  5
576
100
AcDbEntity
  8
0
100
AcDbLine
 62
7
  6
CONTINUOUS
 10
207.5856502801
 20
220.3085462251
 11
207.1932802801
 21
220.3085462251
  0
LINE
  5
577
100
AcDbEntity
  8
0
100
AcDbLine
 62
7
  6
CONTINUOUS
 10
206.4043242801
 20
220.3085462251
 11
206.0080802801
 21
220.3085462251
  0
LINE
  5
578
100
AcDbEntity
  8
0
100
AcDbLine
 62
7
  6
CONTINUOUS
 10
205.0793062801
 20
220.3085462251
 11
204.6830052801
 21
220.3085462251
  0
LINE
  5
579
100
AcDbEntity
  8
0
100
AcDbLine
 62
7
  6
CONTINUOUS
 10
203.9476522801
 20
220.3085462251
 11
203.5168522801
 21
220.3085462251
  0
LINE
  5
57A
100
AcDbEntity
  8
0
100
AcDbLine
 62
7
  6
CONTINUOUS
 10
205.6230472801
 20
220.3086602251
 11
205.2264752801
 21
220.3086602251
  0
LWPOLYLINE
  5
57B
100
AcDbEntity
  8
0
100
AcDbPolyline
 62
7
  6
CONTINUOUS
 90
13
 70
0
 10
210.1121101316
 20
219.1521951416
 10
210.1365062948
 20
219.150959003
 10
210.1598792086
 20
219.1473962987
 10
210.1822288729
 20
219.141507027
 10
210.2035893547
 20
219.1332737094
 10
210.223926587
 20
219.1227138171
 10
210.2431383689
 20
219.109879771
 10
210.261238709
 20
219.0947959888
 10
210.2782135987
 20
219.0774380388
 10
210.2939188113
 20
219.0577850664
 10
210.3083062712
 20
219.0358301129
 10
210.3214240539
 20
219.0115801159
 10
210.3332721595
 20
218.9850350632
  0
LWPOLYLINE
  5
57C
100
AcDbEntity
  8
0
100
AcDbPolyline
 62
7
  6
CONTINUOUS
 90
25
 70
0
 10
210.1969963905
 20
219.9960735087
 10
210.2123843564
 20
219.9938250921
 10
210.22747795
 20
219.990790085
 10
210.2422771711
 20
219.9869684867
 10
210.2568238326
 20
219.9823494752
 10
210.2710761218
 20
219.976943871
 10
210.2849085998
 20
219.9707841377
 10
210.2983395245
 20
219.9638679361
 10
210.3113506382
 20
219.9561976031
 10
210.3237617287
 20
219.9478126164
 10
210.3355630893
 20
219.938695781
 10
210.3467644267
 20
219.9288642891
 10
210.3572146494
 20
219.9184091989
 10
210.3668717837
 20
219.9073051731
 10
210.3757778033
 20
219.8955775459
 10
210.3839075381
 20
219.8833933832
 10
210.3912588962
 20
219.8707605052
 10
210.3978339696
 20
219.8576710892
 10
210.4036138632
 20
219.8442687378
 10
210.4086120735
 20
219.830563947
 10
210.4128151041
 20
219.816546219
 10
210.4161635716
 20
219.8023276666
 10
210.4186376816
 20
219.7879456604
 10
210.4202572286
 20
219.7733628287
 10
210.4210222125
 20
219.7585791706
  0
LWPOLYLINE
  5
57D
100
AcDbEntity
  8
0
100
AcDbPolyline
 62
7
  6
CONTINUOUS
 90
8
 70
0
 10
217.0077487526
 20
218.1422889215
 10
217.0044856644
 20
218.1428240399
 10
216.9983569375
 20
218.1433408396
 10
216.9893625719
 20
218.1438393206
 10
216.9773438172
 20
218.1443243797
 10
216.9624594237
 20
218.1447911201
 10
216.9451856427
 20
218.1452248513
 10
216.9033863375
 20
218.1459903112
  0
LWPOLYLINE
  5
57E
100
AcDbEntity
  8
0
100
AcDbPolyline
 62
7
  6
CONTINUOUS
 90
13
 70
0
 10
210.4831807426
 20
220.2663472598
 10
210.4173925691
 20
220.2868023106
 10
210.3484725948
 20
220.3036112447
 10
210.2764208197
 20
220.3167740766
 10
210.2010529254
 20
220.3261997261
 10
210.1225532304
 20
220.3319792929
 10
210.0414746899
 20
220.3343860557
 10
209.9579072786
 20
220.3332220173
 10
209.8717610219
 20
220.3286851759
 10
209.7833189509
 20
220.3216427993
 10
209.6926754092
 20
220.3123839742
 10
209.5997360532
 20
220.3006196047
 10
209.5045008828
 20
220.2863496839
  0
LINE
  5
57F
100
AcDbEntity
  8
0
100
AcDbLine
 62
7
  6
CONTINUOUS
 10
217.0077487526
 20
218.1422889215
 11
217.0530696677
 21
218.1271942251
  0
LWPOLYLINE
  5
580
100
AcDbEntity
  8
0
100
AcDbPolyline
 62
7
  6
CONTINUOUS
 90
16
 70
0
 10
217.0088229304
 20
182.932325021
 10
217.0043543846
 20
182.9301099419
 10
216.9971827872
 20
182.9288548435
 10
216.98738459
 20
182.9288475059
 10
216.9746860965
 20
182.9306168703
 10
216.9597440017
 20
182.9345810702
 10
216.9440474788
 20
182.9407137223
 10
216.9282217037
 20
182.9491110668
 10
216.9122720338
 20
182.9601712877
 10
216.8967227896
 20
182.9739785879
 10
216.8819004495
 20
182.9908904264
 10
216.8685822307
 20
183.010800336
 10
216.8577485608
 20
183.0327635644
 10
216.8497945097
 20
183.0561852376
 10
216.8448465497
 20
183.0810278751
 10
216.8431483693
 20
183.1069164385
  0
LINE
  5
581
100
AcDbEntity
  8
0
100
AcDbLine
 62
7
  6
CONTINUOUS
 10
197.3776162801
 20
221.6771942251
 11
217.0976162801
 21
221.6771942251
  0
LINE
  5
582
100
AcDbEntity
  8
0
100
AcDbLine
 62
250
  6
CONTINUOUS
 10
196.6570856327
 20
222.2670393129
 11
196.3751778464
 21
222.2670393129
  0
LINE
  5
583
100
AcDbEntity
  8
0
100
AcDbLine
 62
250
  6
CONTINUOUS
 10
217.8181469275
 20
222.2670393129
 11
218.1000547138
 21
222.2670393129
  0
LWPOLYLINE
  5
584
100
AcDbEntity
  8
0
100
AcDbPolyline
 62
250
  6
CONTINUOUS
 90
37
 70
0
 10
196.8450241568
 20
222.7368856233
 10
196.8134301947
 20
222.7337419396
 10
196.7830106476
 20
222.7287860344
 10
196.7538616063
 20
222.7222097236
 10
196.7260978574
 20
222.714204815
 10
196.6997354412
 20
222.7049534314
 10
196.6746981825
 20
222.6946097854
 10
196.6510096375
 20
222.6833261252
 10
196.6286904897
 20
222.6712514655
 10
196.6076502146
 20
222.658499076
 10
196.5878733857
 20
222.6451820757
 10
196.5693657894
 20
222.6314247524
 10
196.5520633877
 20
222.6173325917
 10
196.5359517633
 20
222.6030120067
 10
196.5209964737
 20
222.5885477557
 10
196.5071025257
 20
222.5739939205
 10
196.4942544446
 20
222.5594454972
 10
196.4824015916
 20
222.5449511083
 10
196.4714075813
 20
222.5304725285
 10
196.4612455511
 20
222.5160652025
 10
196.4518848644
 20
222.5017699495
 10
196.4432042615
 20
222.4875043934
 10
196.4351822262
 20
222.4733026993
 10
196.4277991656
 20
222.4591936573
 10
196.4209596316
 20
222.4450700743
 10
196.4146516772
 20
222.4309543149
 10
196.4088653952
 20
222.4168653924
 10
196.4035318755
 20
222.4026792609
 10
196.3986497281
 20
222.3884110614
 10
196.3942195469
 20
222.374074316
 10
196.3901994842
 20
222.3595347392
 10
196.386599597
 20
222.3448041653
 10
196.3834320116
 20
222.3298940295
 10
196.3806831333
 20
222.3146652163
 10
196.3783702501
 20
222.2990788974
 10
196.3765270788
 20
222.2831987003
 10
196.3751778464
 20
222.2670393129
  0
LWPOLYLINE
  5
585
100
AcDbEntity
  8
0
100
AcDbPolyline
 62
250
  6
CONTINUOUS
 90
37
 70
0
 10
196.8450241568
 20
222.4549778371
 10
196.8315234039
 20
222.4544078663
 10
196.8186355112
 20
222.4531839462
 10
196.8063604787
 20
222.4513060767
 10
196.7947011283
 20
222.4487043426
 10
196.783654638
 20
222.4454486591
 10
196.7732125422
 20
222.4417487722
 10
196.7633861101
 20
222.4376190071
 10
196.7541640724
 20
222.4330450387
 10
196.7455041562
 20
222.4281936377
 10
196.7374085958
 20
222.4230737243
 10
196.7298751568
 20
222.4176763784
 10
196.7228548628
 20
222.4121416105
 10
196.7163551036
 20
222.4064830508
 10
196.7103684895
 20
222.4006870691
 10
196.7048238742
 20
222.3948527859
 10
196.699726501
 20
222.3889996654
 10
196.6950711267
 20
222.3831082434
 10
196.6907708763
 20
222.3772192478
 10
196.6868211129
 20
222.3713449312
 10
196.6832264734
 20
222.365473041
 10
196.6799139924
 20
222.3596075481
 10
196.6768769571
 20
222.3537563467
 10
196.6741220804
 20
222.3479115425
 10
196.6715965355
 20
222.3420534238
 10
196.6692933244
 20
222.3361873096
 10
196.6672194452
 20
222.3303078809
 10
196.6653430652
 20
222.3243794693
 10
196.6636569687
 20
222.3184053159
 10
196.6621683715
 20
222.3123821796
 10
196.6608670886
 20
222.3062646687
 10
196.6597455396
 20
222.3000542318
 10
196.658811305
 20
222.2937494202
 10
196.6580769413
 20
222.2873004963
 10
196.6575466341
 20
222.2806908809
 10
196.6572161979
 20
222.2739371531
 10
196.6570856327
 20
222.2670393129
  0
LINE
  5
586
100
AcDbEntity
  8
0
100
AcDbLine
 62
250
  6
CONTINUOUS
 10
217.6302084034
 20
222.4549778371
 11
196.8450241568
 21
222.4549778371
  0
LINE
  5
587
100
AcDbEntity
  8
0
100
AcDbLine
 62
250
  6
CONTINUOUS
 10
217.6302084034
 20
222.7368856233
 11
196.8450241568
 21
222.7368856233
  0
LINE
  5
588
100
AcDbEntity
  8
0
100
AcDbLine
 62
7
  6
CONTINUOUS
 10
196.7348845645
 20
222.8470252157
 11
217.7403479957
 21
222.8470252157
  0
LINE
  5
589
100
AcDbEntity
  8
0
100
AcDbLine
 62
7
  6
CONTINUOUS
 10
196.7146576543
 20
222.8970252157
 11
217.7605749059
 21
222.8970252157
  0
CIRCLE
  5
58A
100
AcDbEntity
  8
ASSI
100
AcDbCircle
 62
7
  6
CONTINUOUS
 10
203.4876162801
 20
194.3271942251
 40
0.5
  0
CIRCLE
  5
58B
100
AcDbEntity
  8
ASSI
100
AcDbCircle
 62
7
  6
CONTINUOUS
 10
203.4876162801
 20
207.3271942251
 40
0.5
  0
CIRCLE
  5
58C
100
AcDbEntity
  8
ASSI
100
AcDbCircle
 62
7
  6
CONTINUOUS
 10
210.9876162801
 20
194.3271942251
 40
0.5
  0
CIRCLE
  5
58D
100
AcDbEntity
  8
ASSI
100
AcDbCircle
 62
7
  6
CONTINUOUS
 10
210.9876162801
 20
207.3271942251
 40
0.5
  0
ELLIPSE
  5
58E
100
AcDbEntity
  8
0
100
AcDbEllipse
 62
7
  6
CONTINUOUS
 10
243.1075971383
 20
200.8271942251
 30
0.0
 11
-0.0
 21
497.9
 31
0.0
 40
0.0524077793
 41
1.5537237963
 42
1.5878688573
  0
ELLIPSE
  5
58F
100
AcDbEntity
  8
0
100
AcDbEllipse
 62
7
  6
CONTINUOUS
 10
171.3676354219
 20
200.8271942251
 30
0.0
 11
0.0
 21
497.9
 31
0.0
 40
0.0524077793
 41
-1.5878688573
 42
-1.5537237963
  0
ELLIPSE
  5
590
100
AcDbEntity
  8
0
100
AcDbEllipse
 62
7
  6
CONTINUOUS
 10
196.7151144181
 20
179.2580494076
 30
0.0
 11
0.1582391023
 21
0.4751033573
 31
0.0
 40
0.9984778551
 41
-4.3904252414
 42
-2.8205423031
  0
ELLIPSE
  5
591
100
AcDbEntity
  8
0
100
AcDbEllipse
 62
7
  6
CONTINUOUS
 10
196.7151144181
 20
222.3963390427
 30
0.0
 11
-0.1582391023
 21
0.4751033573
 31
0.0
 40
0.9984778551
 41
-0.3210503505
 42
1.2488325878
  0
ELLIPSE
  5
592
100
AcDbEntity
  8
0
100
AcDbEllipse
 62
7
  6
CONTINUOUS
 10
217.7601181421
 20
222.3963390427
 30
0.0
 11
0.1582391023
 21
0.4751033573
 31
0.0
 40
0.9984778551
 41
-1.2488325878
 42
0.3210503505
  0
ELLIPSE
  5
593
100
AcDbEntity
  8
0
100
AcDbEllipse
 62
7
  6
CONTINUOUS
 10
217.7601181421
 20
179.2580494076
 30
0.0
 11
-0.1582391023
 21
0.4751033573
 31
0.0
 40
0.9984778551
 41
-3.4626430041
 42
-1.8927600658
  0
ELLIPSE
  5
594
100
AcDbEntity
  8
0
100
AcDbEllipse
 62
7
  6
CONTINUOUS
 10
201.8885170158
 20
210.7312689103
 30
0.0
 11
0.1086702276
 21
0.1692379683
 31
0.0
 40
0.9857548738
 41
-2.5633246127
 42
-0.9934416744
  0
ELLIPSE
  5
595
100
AcDbEntity
  8
0
100
AcDbEllipse
 62
7
  6
CONTINUOUS
 10
201.9382918319
 20
213.197656358
 30
0.0
 11
-0.063479388
 21
0.157215491
 31
0.0
 40
0.8597101312
 41
-2.0098802682
 42
-0.446459714
  0
ELLIPSE
  5
596
100
AcDbEntity
  8
0
100
AcDbEllipse
 62
7
  6
CONTINUOUS
 10
201.6894480753
 20
213.9259149899
 30
0.0
 11
0.1086702276
 21
-0.1692379683
 31
0.0
 40
0.9857548738
 41
0.9934416744
 42
2.5633246127
  0
ELLIPSE
  5
597
100
AcDbEntity
  8
0
100
AcDbEllipse
 62
7
  6
CONTINUOUS
 10
212.7857844849
 20
213.9259149899
 30
0.0
 11
0.1086702276
 21
0.1692379683
 31
0.0
 40
0.9857548738
 41
0.5782680409
 42
2.1481509792
  0
ELLIPSE
  5
598
100
AcDbEntity
  8
0
100
AcDbEllipse
 62
7
  6
CONTINUOUS
 10
212.5369407283
 20
213.197656358
 30
0.0
 11
0.063479388
 21
0.157215491
 31
0.0
 40
0.8597101312
 41
0.446459714
 42
2.0098802682
  0
ELLIPSE
  5
599
100
AcDbEntity
  8
0
100
AcDbEllipse
 62
7
  6
CONTINUOUS
 10
212.5867155444
 20
210.7312689103
 30
0.0
 11
0.1086702276
 21
-0.1692379683
 31
0.0
 40
0.9857548738
 41
-2.1481509792
 42
-0.5782680409
  0
ELLIPSE
  5
59A
100
AcDbEntity
  8
0
100
AcDbEllipse
 62
7
  6
CONTINUOUS
 10
201.6894480753
 20
187.7284734604
 30
0.0
 11
0.1086702276
 21
0.1692379683
 31
0.0
 40
0.9857548738
 41
-2.5633246127
 42
-0.9934416744
  0
ELLIPSE
  5
59B
100
AcDbEntity
  8
0
100
AcDbEllipse
 62
7
  6
CONTINUOUS
 10
201.9382918319
 20
188.4567320922
 30
0.0
 11
0.063479388
 21
0.157215491
 31
0.0
 40
0.8597101312
 41
-2.6951329396
 42
-1.1317123854
  0
ELLIPSE
  5
59C
100
AcDbEntity
  8
0
100
AcDbEllipse
 62
7
  6
CONTINUOUS
 10
201.8885170158
 20
190.92311954
 30
0.0
 11
0.1086702276
 21
-0.1692379683
 31
0.0
 40
0.9857548738
 41
0.9934416744
 42
2.5633246127
  0
ELLIPSE
  5
59D
100
AcDbEntity
  8
0
100
AcDbEllipse
 62
7
  6
CONTINUOUS
 10
212.7857844849
 20
187.7284734604
 30
0.0
 11
0.1086702276
 21
-0.1692379683
 31
0.0
 40
0.9857548738
 41
-2.1481509792
 42
-0.5782680409
  0
ELLIPSE
  5
59E
100
AcDbEntity
  8
0
100
AcDbEllipse
 62
7
  6
CONTINUOUS
 10
212.5867155444
 20
190.92311954
 30
0.0
 11
0.1086702276
 21
0.1692379683
 31
0.0
 40
0.9857548738
 41
0.5782680409
 42
2.1481509792
  0
ELLIPSE
  5
59F
100
AcDbEntity
  8
0
100
AcDbEllipse
 62
7
  6
CONTINUOUS
 10
212.5369407283
 20
188.4567320922
 30
0.0
 11
-0.063479388
 21
0.157215491
 31
0.0
 40
0.8597101312
 41
1.1317123854
 42
2.6951329396
  0
ELLIPSE
  5
5A0
100
AcDbEntity
  8
0
100
AcDbEllipse
 62
7
  6
CONTINUOUS
 10
226.8178616201
 20
200.8271942251
 30
0.0
 11
-0.0
 21
498.6
 31
0.0
 40
0.0524077793
 41
-4.6914821067
 42
-4.6858140592
  0
ELLIPSE
  5
5A1
100
AcDbEntity
  8
0
100
AcDbEllipse
 62
7
  6
CONTINUOUS
 10
196.7971271403
 20
179.3394521209
 30
0.0
 11
0.3976412741
 21
0.3976412741
 31
0.0
 40
0.8891264907
 41
-3.8683677079
 42
-2.4148175993
  0
ELLIPSE
  5
5A2
100
AcDbEntity
  8
0
100
AcDbEllipse
 62
7
  6
CONTINUOUS
 10
217.6781054199
 20
179.3394521209
 30
0.0
 11
-0.3976412741
 21
0.3976412741
 31
0.0
 40
0.8891264907
 41
-3.8683677079
 42
-2.4148175993
  0
ELLIPSE
  5
5A3
100
AcDbEntity
  8
0
100
AcDbEllipse
 62
7
  6
CONTINUOUS
 10
217.6781054199
 20
222.3149363294
 30
0.0
 11
0.3976412741
 21
0.3976412741
 31
0.0
 40
0.8891264907
 41
-0.7267750543
 42
0.7267750543
  0
ELLIPSE
  5
5A4
100
AcDbEntity
  8
0
100
AcDbEllipse
 62
7
  6
CONTINUOUS
 10
196.7971271403
 20
222.3149363294
 30
0.0
 11
0.3976412741
 21
-0.3976412741
 31
0.0
 40
0.8891264907
 41
2.4148175993
 42
3.8683677079
  0
ELLIPSE
  5
5A5
100
AcDbEntity
  8
0
100
AcDbEllipse
 62
7
  6
CONTINUOUS
 10
217.8181469275
 20
187.1034408242
 30
0.0
 11
0.3
 21
-0.0
 31
0.0
 40
0.0874886635
 41
-1.5707963268
 42
-1.4296011956
  0
ELLIPSE
  5
5A6
100
AcDbEntity
  8
0
100
AcDbEllipse
 62
7
  6
CONTINUOUS
 10
217.8181469275
 20
183.0509476261
 30
0.0
 11
0.3
 21
0.0
 31
0.0
 40
0.0874886635
 41
1.4296011956
 42
1.5707963268
  0
ELLIPSE
  5
5A7
100
AcDbEntity
  8
0
100
AcDbEllipse
 62
7
  6
CONTINUOUS
 10
226.8178616201
 20
200.8271942251
 30
0.0
 11
-0.0
 21
498.6
 31
0.0
 40
0.0524077793
 41
1.5442214056
 42
1.5498894531
  0
ELLIPSE
  5
5A8
100
AcDbEntity
  8
0
100
AcDbEllipse
 62
7
  6
CONTINUOUS
 10
213.5299666642
 20
191.0269197559
 30
0.0
 11
0.1418092487
 21
0.1418092487
 31
0.0
 40
0.9972646886
 41
-0.7840286355
 42
0.7840286355
  0
ELLIPSE
  5
5A9
100
AcDbEntity
  8
0
100
AcDbEllipse
 62
7
  6
CONTINUOUS
 10
200.945265896
 20
191.0269197559
 30
0.0
 11
0.1418092487
 21
-0.1418092487
 31
0.0
 40
0.9972646886
 41
2.3575640181
 42
3.9256212891
  0
ELLIPSE
  5
5AA
100
AcDbEntity
  8
0
100
AcDbEllipse
 62
7
  6
CONTINUOUS
 10
213.5299666642
 20
210.6274686943
 30
0.0
 11
0.1418092487
 21
-0.1418092487
 31
0.0
 40
0.9972646886
 41
-0.7840286355
 42
0.7840286355
  0
ELLIPSE
  5
5AB
100
AcDbEntity
  8
0
100
AcDbEllipse
 62
7
  6
CONTINUOUS
 10
200.945265896
 20
210.6274686943
 30
0.0
 11
0.1418092487
 21
0.1418092487
 31
0.0
 40
0.9972646886
 41
2.3575640181
 42
3.9256212891
  0
ELLIPSE
  5
5AC
100
AcDbEntity
  8
0
100
AcDbEllipse
 62
7
  6
CONTINUOUS
 10
192.559830751
 20
200.8271942251
 30
0.0
 11
0.0
 21
498.6
 31
0.0
 40
0.0174550649
 41
-1.5377388721
 42
-1.5360519575
  0
ELLIPSE
  5
5AD
100
AcDbEntity
  8
0
100
AcDbEllipse
 62
7
  6
CONTINUOUS
 10
221.9154018092
 20
200.8271942251
 30
0.0
 11
-0.0
 21
498.6
 31
0.0
 40
0.0174550649
 41
1.5360519575
 42
1.5377388721
  0
ELLIPSE
  5
5AE
100
AcDbEntity
  8
0
100
AcDbEllipse
 62
7
  6
CONTINUOUS
 10
187.6573709401
 20
200.8271942251
 30
0.0
 11
0.0
 21
498.6
 31
0.0
 40
0.0524077793
 41
-1.5498894531
 42
-1.5442214056
  0
ELLIPSE
  5
5AF
100
AcDbEntity
  8
0
100
AcDbEllipse
 62
7
  6
CONTINUOUS
 10
187.6573709401
 20
200.8271942251
 30
0.0
 11
0.0
 21
498.6
 31
0.0
 40
0.0524077793
 41
-1.597371248
 42
-1.5917032005
  0
ELLIPSE
  5
5B0
100
AcDbEntity
  8
0
100
AcDbEllipse
 62
7
  6
CONTINUOUS
 10
201.2555967017
 20
213.3137172884
 30
0.0
 11
0.4
 21
-0.0
 31
0.0
 40
0.4663076582
 41
-2.2042389752
 42
-1.5707963268
  0
ELLIPSE
  5
5B1
100
AcDbEntity
  8
0
100
AcDbEllipse
 62
7
  6
CONTINUOUS
 10
213.2196358585
 20
213.3137172884
 30
0.0
 11
0.4
 21
0.0
 31
0.0
 40
0.4663076582
 41
-1.5707963268
 42
-0.9373536784
  0
ELLIPSE
  5
5B2
100
AcDbEntity
  8
0
100
AcDbEllipse
 62
7
  6
CONTINUOUS
 10
201.686429105
 20
213.3136042363
 30
0.0
 11
0.2
 21
0.0
 31
0.0
 40
0.4663076582
 41
-0.7727094034
 42
-0.0174532925
  0
ELLIPSE
  5
5B3
100
AcDbEntity
  8
0
100
AcDbEllipse
 62
7
  6
CONTINUOUS
 10
201.4916776448
 20
213.2204557568
 30
0.0
 11
0.2
 21
-0.0
 31
0.0
 40
0.4663076582
 41
-1.5707963268
 42
-0.7727094034
  0
ELLIPSE
  5
5B4
100
AcDbEntity
  8
0
100
AcDbEllipse
 62
7
  6
CONTINUOUS
 10
212.7888034552
 20
213.3136042363
 30
0.0
 11
0.2
 21
0.0
 31
0.0
 40
0.4663076582
 41
-3.1241393611
 42
-2.3688832501
  0
ELLIPSE
  5
5B5
100
AcDbEntity
  8
0
100
AcDbEllipse
 62
7
  6
CONTINUOUS
 10
212.9835549154
 20
213.2204557568
 30
0.0
 11
0.2
 21
-0.0
 31
0.0
 40
0.4663076582
 41
-2.3688832501
 42
-1.5707963268
  0
ELLIPSE
  5
5B6
100
AcDbEntity
  8
0
100
AcDbEllipse
 62
7
  6
CONTINUOUS
 10
213.2196358585
 20
188.3406711619
 30
0.0
 11
0.4
 21
-0.0
 31
0.0
 40
0.4663076582
 41
0.9373536784
 42
1.5707963268
  0
ELLIPSE
  5
5B7
100
AcDbEntity
  8
0
100
AcDbEllipse
 62
7
  6
CONTINUOUS
 10
201.2555967017
 20
188.3406711619
 30
0.0
 11
0.4
 21
-0.0
 31
0.0
 40
0.4663076582
 41
1.5707963268
 42
2.2042389752
  0
ELLIPSE
  5
5B8
100
AcDbEntity
  8
0
100
AcDbEllipse
 62
7
  6
CONTINUOUS
 10
201.4916776448
 20
188.4339326935
 30
0.0
 11
0.2
 21
-0.0
 31
0.0
 40
0.4663076582
 41
0.7727094034
 42
1.5707963268
  0
ELLIPSE
  5
5B9
100
AcDbEntity
  8
0
100
AcDbEllipse
 62
7
  6
CONTINUOUS
 10
201.686429105
 20
188.340784214
 30
0.0
 11
0.2
 21
-0.0
 31
0.0
 40
0.4663076582
 41
0.0174532925
 42
0.7727094034
  0
ELLIPSE
  5
5BA
100
AcDbEntity
  8
0
100
AcDbEllipse
 62
7
  6
CONTINUOUS
 10
212.7888034552
 20
188.340784214
 30
0.0
 11
0.2
 21
0.0
 31
0.0
 40
0.4663076582
 41
2.3688832501
 42
3.1241393611
  0
ELLIPSE
  5
5BB
100
AcDbEntity
  8
0
100
AcDbEllipse
 62
7
  6
CONTINUOUS
 10
212.9835549154
 20
188.4339326935
 30
0.0
 11
0.2
 21
0.0
 31
0.0
 40
0.4663076582
 41
1.5707963268
 42
2.3688832501
  0
ELLIPSE
  5
5BC
100
AcDbEntity
  8
0
100
AcDbEllipse
 62
7
  6
CONTINUOUS
 10
221.9154018092
 20
200.8271942251
 30
0.0
 11
-0.0
 21
498.6
 31
0.0
 40
0.0174550649
 41
-4.6793315257
 42
-4.6776446111
  0
ELLIPSE
  5
5BD
100
AcDbEntity
  8
0
100
AcDbEllipse
 62
7
  6
CONTINUOUS
 10
192.559830751
 20
200.8271942251
 30
0.0
 11
0.0
 21
498.6
 31
0.0
 40
0.0174550649
 41
-1.6055406961
 42
-1.6038537815
  0
ENDSEC
  0
SECTION
  2
OBJECTS
  0
DICTIONARY
  5
C
100
AcDbDictionary
280
0
281
1
  3
ACAD_GROUP
350
D
  3
ACAD_MLINESTYLE
350
17
  3
ACAD_LAYOUT
350
1A
  3
ACAD_PLOTSETTINGS
350
19
  3
ACAD_PLOTSTYLENAME
350
E
  0
DICTIONARY
  5
D
102
{ACAD_REACTORS
330
C
102
}
100
AcDbDictionary
280
0
281
1
  0
ACDBDICTIONARYWDFLT
  5
E
102
{ACAD_REACTORS
330
C
102
}
100
AcDbDictionary
281
1
  3
Normal
350
F
100
AcDbDictionaryWithDefault
340
F
  0
DICTIONARY
  5
17
102
{ACAD_REACTORS
330
C
102
}
100
AcDbDictionary
280
0
281
1
  3
Standard
350
18
  0
DICTIONARY
  5
19
102
{ACAD_REACTORS
330
C
102
}
100
AcDbDictionary
281
1
  0
DICTIONARY
  5
1A
102
{ACAD_REACTORS
330
C
102
}
100
AcDbDictionary
281
1
  3
Model
350
5BE
  3
Layout1
350
5BF
  0
ACDBPLACEHOLDER
  5
F
102
{ACAD_REACTORS
330
E
102
}
  0
MLINESTYLE
  5
18
102
{ACAD_REACTORS
330
17
102
}
100
AcDbMlineStyle
  2
STANDARD
 70
0
  3

 62
256
 51
90.0
 52
90.0
 71
2
 49
0.5
 62
256
  6
BYLAYER
 49
-0.5
 62
256
  6
BYLAYER
  0
LAYOUT
  5
5BE
102
{ACAD_REACTORS
330
1A
102
}
100
AcDbPlotSettings
  1

  2
none_device
  4
ANSI_C_(22.00_x_17.00_Inches)
  6

 40
0.0
 41
0.0
 42
0.0
 43
0.0
 44
558.8
 45
431.8
 46
0.0
 47
0.0
 48
0.0
 49
0.0
140
0.0
141
0.0
142
1.0
143
1.0
 70
1024
 72
1
 73
0
 74
0
  7

 75
0
147
1.0
148
0.0
149
0.0
100
AcDbLayout
  1
Model
 70
0
 71
0
 10
0.0
 20
0.0
 11
558.8
 21
431.8
 12
0.0
 22
0.0
 32
0.0
 14
0.0
 24
0.0
 34
0.0
 15
0.0
 25
0.0
 35
0.0
146
0.0
 13
0.0
 23
0.0
 33
0.0
 16
1.0
 26
0.0
 36
0.0
 17
0.0
 27
1.0
 37
0.0
 76
0
330
214
345
0
346
0
  0
LAYOUT
  5
5BF
102
{ACAD_REACTORS
330
1A
102
}
100
AcDbPlotSettings
  1

  2
none_device
  4
ANSI_C_(22.00_x_17.00_Inches)
  6

 40
0.0
 41
0.0
 42
0.0
 43
0.0
 44
558.8
 45
431.8
 46
0.0
 47
0.0
 48
0.0
 49
0.0
140
0.0
141
0.0
142
1.0
143
1.0
 70
0
 72
1
 73
0
 74
0
  7

 75
0
147
1.0
148
0.0
149
0.0
100
AcDbLayout
  1
Layout1
 70
0
 71
1
 10
0.0
 20
0.0
 11
558.8
 21
431.8
 12
0.0
 22
0.0
 32
0.0
 14
0.0
 24
0.0
 34
0.0
 15
0.0
 25
0.0
 35
0.0
146
0.0
 13
0.0
 23
0.0
 33
0.0
 16
1.0
 26
0.0
 36
0.0
 17
0.0
 27
1.0
 37
0.0
 76
0
330
215
345
0
346
0
  0
ENDSEC
  0
EOF
