  0
SECTION
  2
HEADER
  9
$ACADVER
  1
AC1024
  9
$DWGCODEPAGE
  3
ANSI_1252
  9
$EXTMAX
 10
558.8
 20
431.8
 30
0.0
  9
$EXTMIN
 10
0.0
 20
0.0
 30
0.0
  9
$LIMMIN
 10
0.0
 20
0.0
  9
$LIMMAX
 10
558.8
 20
431.8
  9
$VIEWCTR
 10
279.4
 20
215.9
  9
$VIEWSIZE
 40
431.8
  9
$CLAYER
  8
0
  9
$LTSCALE
 40
30.734
  9
$CELTYPE
  6
BYLAYER
  9
$DIMSCALE
 40
1.0
  9
$DIMASZ
 40
3.0
  9
$DIMEXO
 40
0.5
  9
$DIMDLI
 40
21.2344
  9
$DIMEXE
 40
1.5
  9
$DIMCEN
 40
5.0292
  9
$DIMLFAC
 40
1.0
  9
$DIMBLK
  1
_FILLED
  9
$DIMALT
 70
0
  9
$DIMALTF
 40
0.0393700787
  9
$DIMTXT
 40
3.0
  9
$DIMTOL
 70
1
  9
$DIMLIM
 70
0
  9
$DIMTFAC
 40
1.0
  9
$DIMTP
 40
0.01
  9
$DIMTM
 40
0.01
  9
$DIMGAP
 40
0.625
  9
$DIMDSEP
 70
44
  9
$AUNITS
 70
0
  9
$PDMODE
 70
3
  9
$PDSIZE
 40
3.0
  9
$HANDSEED
  5
54B
  9
$TILEMODE
 70
1
  9
$MEASUREMENT
 70
1
  9
$INSUNITS
 70
4
  0
ENDSEC
  0
SECTION
  2
CLASSES
  0
CLASS
  1
ACDBDICTIONARYWDFLT
  2
AcDbDictionaryWithDefault
  3
AutoCAD 2000
 90
0
 91
1
280
0
281
0
  0
CLASS
  1
ACDBPLACEHOLDER
  2
AcDbPlaceHolder
  3
AutoCAD 2000
 90
0
 91
1
280
0
281
0
  0
CLASS
  1
LAYOUT
  2
AcDbLayout
  3
AutoCAD 2000
 90
0
 91
0
280
0
281
0
  0
ENDSEC
  0
SECTION
  2
TABLES
  0
TABLE
  2
VPORT
  5
8
100
AcDbSymbolTable
 70
2
  0
VPORT
  5
1F4
100
AcDbSymbolTableRecord
100
AcDbViewportTableRecord
  2
*ACTIVE
 70
0
 10
0.0
 20
0.0
 11
1.0
 21
1.0
 12
279.4
 22
215.9
 13
0.0
 23
0.0
 14
1.0
 24
1.0
 15
0.0
 25
0.0
 16
0.0
 26
0.0
 36
1.0
 17
0.0
 27
0.0
 37
0.0
 40
431.8
 41
1.2941176471
 42
50.0
 43
0.0
 44
0.0
 50
0.0
 51
0.0
 71
0
 72
100
 73
1
 74
1
 75
0
 76
0
 77
0
 78
0
  0
ENDTAB
  0
TABLE
  2
LTYPE
  5
5
100
AcDbSymbolTable
 70
6
  0
LTYPE
  5
14
100
AcDbSymbolTableRecord
100
AcDbLinetypeTableRecord
  2
BYBLOCK
 70
0
  3

 72
65
 73
0
 40
0.0
  0
LTYPE
  5
15
100
AcDbSymbolTableRecord
100
AcDbLinetypeTableRecord
  2
BYLAYER
 70
0
  3

 72
65
 73
0
 40
0.0
  0
LTYPE
  5
16
100
AcDbSymbolTableRecord
100
AcDbLinetypeTableRecord
  2
CONTINUOUS
 70
64
  3
Solid line
 72
65
 73
0
 40
0.0
  0
LTYPE
  5
1F5
100
AcDbSymbolTableRecord
100
AcDbLinetypeTableRecord
  2
CENTER
 70
64
  3
____ _ ____ _ ____ _ ____ _ ____ _ ____ _ ____
 72
65
 73
4
 40
0.6
 49
0.375
 74
0
 49
-0.075
 74
0
 49
0.075
 74
0
 49
-0.075
 74
0
  0
LTYPE
  5
1F6
100
AcDbSymbolTableRecord
100
AcDbLinetypeTableRecord
  2
HIDDEN
 70
64
  3
- - - - - - - - - - - - - - - - - - - -
 72
65
 73
2
 40
0.2
 49
0.1
 74
0
 49
-0.1
 74
0
  0
LTYPE
  5
1F7
100
AcDbSymbolTableRecord
100
AcDbLinetypeTableRecord
  2
PHANTOM
 70
64
  3
_____ _ _ _____ _ _ _____ _ _ _____
 72
65
 73
6
 40
0.8
 49
0.45
 74
0
 49
-0.05
 74
0
 49
0.1
 74
0
 49
-0.05
 74
0
 49
0.1
 74
0
 49
-0.05
 74
0
  0
LTYPE
  5
1F8
100
AcDbSymbolTableRecord
100
AcDbLinetypeTableRecord
  2
DOT
 70
64
  3
. . . . . . . . . . . . . . . . . . . .
 72
65
 73
2
 40
0.2
 49
0.1
 74
0
 49
-0.1
 74
0
  0
LTYPE
  5
1F9
100
AcDbSymbolTableRecord
100
AcDbLinetypeTableRecord
  2
DASHED
 70
64
  3
- - - - - - - - - - - - - - - - - - - -
 72
65
 73
2
 40
0.2
 49
0.1
 74
0
 49
-0.1
 74
0
  0
ENDTAB
  0
TABLE
  2
LAYER
  5
2
100
AcDbSymbolTable
 70
36
  0
LAYER
  5
10
100
AcDbSymbolTableRecord
100
AcDbLayerTableRecord
  2
0
 70
0
 62
7
  6
CONTINUOUS
370
-3
390
F
  0
LAYER
  5
1FA
100
AcDbSymbolTableRecord
100
AcDbLayerTableRecord
  2
DEFAULT_1
 70
0
 62
7
  6
CENTER
370
-3
390
F
  0
LAYER
  5
1FB
100
AcDbSymbolTableRecord
100
AcDbLayerTableRecord
  2
DEFAULT_2
 70
0
 62
7
  6
HIDDEN
370
-3
390
F
  0
LAYER
  5
1FC
100
AcDbSymbolTableRecord
100
AcDbLayerTableRecord
  2
DEFAULT_3
 70
0
 62
7
  6
PHANTOM
370
-3
390
F
  0
LAYER
  5
1FD
100
AcDbSymbolTableRecord
100
AcDbLayerTableRecord
  2
ASSI
 70
0
 62
7
  6
CONTINUOUS
370
-3
390
F
  0
LAYER
  5
1FE
100
AcDbSymbolTableRecord
100
AcDbLayerTableRecord
  2
COORDINATE
 70
0
 62
7
  6
CONTINUOUS
370
-3
390
F
  0
LAYER
  5
1FF
100
AcDbSymbolTableRecord
100
AcDbLayerTableRecord
  2
COPY_PUBLISH
 70
0
 62
7
  6
CONTINUOUS
370
-3
390
F
  0
LAYER
  5
200
100
AcDbSymbolTableRecord
100
AcDbLayerTableRecord
  2
COSMETIC
 70
0
 62
7
  6
CONTINUOUS
370
-3
390
F
  0
LAYER
  5
201
100
AcDbSymbolTableRecord
100
AcDbLayerTableRecord
  2
COSMETICI
 70
0
 62
7
  6
CONTINUOUS
370
-3
390
F
  0
LAYER
  5
202
100
AcDbSymbolTableRecord
100
AcDbLayerTableRecord
  2
CURVE
 70
0
 62
7
  6
CONTINUOUS
370
-3
390
F
  0
LAYER
  5
203
100
AcDbSymbolTableRecord
100
AcDbLayerTableRecord
  2
DRAFT
 70
0
 62
7
  6
CONTINUOUS
370
-3
390
F
  0
LAYER
  5
204
100
AcDbSymbolTableRecord
100
AcDbLayerTableRecord
  2
IMPORT_IGES
 70
0
 62
7
  6
CONTINUOUS
370
-3
390
F
  0
LAYER
  5
205
100
AcDbSymbolTableRecord
100
AcDbLayerTableRecord
  2
INTFCLR_11
 70
0
 62
7
  6
CONTINUOUS
370
-3
390
F
  0
LAYER
  5
206
100
AcDbSymbolTableRecord
100
AcDbLayerTableRecord
  2
INTF_1
 70
0
 62
7
  6
CONTINUOUS
370
-3
390
F
  0
LAYER
  5
207
100
AcDbSymbolTableRecord
100
AcDbLayerTableRecord
  2
INTF_3
 70
0
 62
7
  6
CONTINUOUS
370
-3
390
F
  0
LAYER
  5
208
100
AcDbSymbolTableRecord
100
AcDbLayerTableRecord
  2
NOTE
 70
0
 62
7
  6
CONTINUOUS
370
-3
390
F
  0
LAYER
  5
209
100
AcDbSymbolTableRecord
100
AcDbLayerTableRecord
  2
PIANI
 70
0
 62
7
  6
CONTINUOUS
370
-3
390
F
  0
LAYER
  5
20A
100
AcDbSymbolTableRecord
100
AcDbLayerTableRecord
  2
PUNTI
 70
0
 62
7
  6
CONTINUOUS
370
-3
390
F
  0
LAYER
  5
20B
100
AcDbSymbolTableRecord
100
AcDbLayerTableRecord
  2
RACCORDO
 70
0
 62
7
  6
CONTINUOUS
370
-3
390
F
  0
LAYER
  5
20C
100
AcDbSymbolTableRecord
100
AcDbLayerTableRecord
  2
SIMBOLI
 70
0
 62
7
  6
CONTINUOUS
370
-3
390
F
  0
LAYER
  5
20D
100
AcDbSymbolTableRecord
100
AcDbLayerTableRecord
  2
SMUSSO
 70
0
 62
7
  6
CONTINUOUS
370
-3
390
F
  0
LAYER
  5
20E
100
AcDbSymbolTableRecord
100
AcDbLayerTableRecord
  2
SNAPLINE
 70
0
 62
7
  6
CONTINUOUS
370
-3
390
F
  0
LAYER
  5
20F
100
AcDbSymbolTableRecord
100
AcDbLayerTableRecord
  2
SUPERFICI
 70
0
 62
7
  6
CONTINUOUS
370
-3
390
F
  0
LAYER
  5
210
100
AcDbSymbolTableRecord
100
AcDbLayerTableRecord
  2
TRASH
 70
0
 62
7
  6
CONTINUOUS
370
-3
390
F
  0
LAYER
  5
211
100
AcDbSymbolTableRecord
100
AcDbLayerTableRecord
  2
___SHELL
 70
0
 62
7
  6
CONTINUOUS
370
-3
390
F
  0
ENDTAB
  0
TABLE
  2
STYLE
  5
3
100
AcDbSymbolTable
 70
1
  0
STYLE
  5
11
100
AcDbSymbolTableRecord
100
AcDbTextStyleTableRecord
  2
STANDARD
 70
0
 40
0.0
 41
0.8
 50
0.0
 71
0
 42
0.2
  3
txt
  4

  0
STYLE
  5
212
100
AcDbSymbolTableRecord
100
AcDbTextStyleTableRecord
  2
TEXTSTYLE_1
 70
0
 40
0.0
 41
0.8
 50
0.0
 71
0
 42
0.2
  3
gdt
  4

  0
ENDTAB
  0
TABLE
  2
VIEW
  5
6
100
AcDbSymbolTable
 70
0
  0
ENDTAB
  0
TABLE
  2
UCS
  5
7
100
AcDbSymbolTable
 70
0
  0
ENDTAB
  0
TABLE
  2
APPID
  5
9
100
AcDbSymbolTable
 70
1
  0
APPID
  5
213
100
AcDbSymbolTableRecord
100
AcDbRegAppTableRecord
  2
ACAD
 70
0
  0
ENDTAB
  0
TABLE
  2
BLOCK_RECORD
  5
1
100
AcDbSymbolTable
 70
0
  0
BLOCK_RECORD
  5
214
100
AcDbSymbolTableRecord
100
AcDbBlockTableRecord
  2
*Model_Space
  0
BLOCK_RECORD
  5
215
100
AcDbSymbolTableRecord
100
AcDbBlockTableRecord
  2
*Paper_Space
  0
BLOCK_RECORD
  5
216
100
AcDbSymbolTableRecord
100
AcDbBlockTableRecord
  2
_FILLED
  0
ENDTAB
  0
TABLE
  2
DIMSTYLE
  5
A
100
AcDbSymbolTable
 70
1
100
AcDbDimStyleTable
 71
0
  0
DIMSTYLE
105
217
100
AcDbSymbolTableRecord
100
AcDbDimStyleTableRecord
  2
STANDARD
 70
0
  3

  4

 40
1.0
 41
3.0
 42
0.5
 43
0.38
 44
1.5
 45
0.0
 46
0.0
 47
0.01
 48
0.01
140
3.0
141
0.09
142
0.0
143
25.4
144
1.0
145
0.0
146
1.0
147
0.625
 71
1
 72
0
 73
0
 74
0
 75
0
 76
0
 77
1
 78
8
 79
2
170
0
171
1
172
0
173
0
174
0
175
0
176
0
177
0
178
0
270
2
179
2
271
2
272
2
273
2
274
2
275
0
280
0
281
0
282
0
283
1
284
8
285
0
286
0
287
3
288
0
340
11
278
44
341
216
342
216
343
216
344
216
  0
ENDTAB
  0
ENDSEC
  0
SECTION
  2
BLOCKS
  0
BLOCK
  5
20
100
AcDbEntity
  8
0
100
AcDbBlockBegin
  2
*Model_Space
 70
0
 10
0.0
 20
0.0
 30
0.0
  3
*Model_Space
  1

  0
ENDBLK
  5
21
100
AcDbEntity
  8
0
100
AcDbBlockEnd
  0
BLOCK
  5
1C
100
AcDbEntity
  8
0
100
AcDbBlockBegin
  2
*Paper_Space
 70
0
 10
0.0
 20
0.0
 30
0.0
  3
*Paper_Space
  1

  0
ENDBLK
  5
1D
100
AcDbEntity
  8
0
100
AcDbBlockEnd
  0
BLOCK
  5
218
100
AcDbEntity
  8
0
100
AcDbBlockBegin
  2
_FILLED
 70
64
 10
0.0
 20
0.0
  3
_FILLED
  1

  0
SOLID
  5
219
100
AcDbEntity
  8
0
  6
BYBLOCK
 62
0
100
AcDbTrace
 10
0.0
 20
0.0
 11
-1.0
 21
0.3166666667
 12
-1.0
 22
-0.3166666667
 13
-1.0
 23
-0.3166666667
  0
ENDBLK
  5
21A
100
AcDbEntity
  8
0
  6
BYBLOCK
 62
0
100
AcDbBlockEnd
  0
ENDSEC
  0
SECTION
  2
ENTITIES
  0
LWPOLYLINE
  5
21B
100
AcDbEntity
  8
0
100
AcDbPolyline
 62
250
  6
CONTINUOUS
 90
19
 70
0
 10
397.6327713894
 20
189.7594773519
 10
397.6337827994
 20
189.7401272705
 10
397.6363740367
 20
189.7215619526
 10
397.6405451012
 20
189.7037813985
 10
397.646466496
 20
189.6866160139
 10
397.653967718
 20
189.670235393
 10
397.6625372585
 20
189.6551483177
 10
397.6721953161
 20
189.641507528
 10
397.6829216922
 20
189.6291602838
 10
397.6941442816
 20
189.6181571475
 10
397.7056537452
 20
189.6086204127
 10
397.717659422
 20
189.6004277857
 10
397.7302172244
 20
189.5932629469
 10
397.7432184045
 20
189.587008827
 10
397.7567717103
 20
189.5817824955
 10
397.7712592984
 20
189.5776188409
 10
397.7868085544
 20
189.5745294928
 10
397.8032920928
 20
189.5725028218
 10
397.8207099136
 20
189.5715388278
  0
LINE
  5
21C
100
AcDbEntity
  8
0
100
AcDbLine
 62
7
  6
CONTINUOUS
 10
398.4431695644
 20
228.5144171361
 11
398.3978486492
 21
228.4993224397
  0
LWPOLYLINE
  5
21D
100
AcDbEntity
  8
0
100
AcDbPolyline
 62
250
  6
CONTINUOUS
 90
19
 70
0
 10
441.1058920573
 20
189.2896331443
 10
441.1562941267
 20
189.2956229306
 10
441.2045558095
 20
189.3063208744
 10
441.250278807
 20
189.3212160255
 10
441.2932117685
 20
189.3398520202
 10
441.3330455294
 20
189.3616691609
 10
441.369441665
 20
189.385944922
 10
441.4022407817
 20
189.4120787541
 10
441.4315555292
 20
189.4396363725
 10
441.4575724385
 20
189.468150117
 10
441.4801748993
 20
189.4969131815
 10
441.499743446
 20
189.525860015
 10
441.5170645571
 20
189.5556803649
 10
441.5320953553
 20
189.5860601198
 10
441.5448791787
 20
189.6169598691
 10
441.5558908179
 20
189.6497100237
 10
441.5649832911
 20
189.6847196323
 10
441.5716934209
 20
189.7213654952
 10
441.5757404705
 20
189.7594773519
  0
LWPOLYLINE
  5
21E
100
AcDbEntity
  8
0
100
AcDbPolyline
 62
250
  6
CONTINUOUS
 90
19
 70
0
 10
441.1058941601
 20
189.5715388278
 10
441.1275338177
 20
189.5730096576
 10
441.1478660555
 20
189.5761400147
 10
441.1668908733
 20
189.5809298992
 10
441.1846838449
 20
189.5876219337
 10
441.2011693965
 20
189.5959734955
 10
441.2161208071
 20
189.6052567167
 10
441.2294115508
 20
189.6154244844
 10
441.2411681533
 20
189.6265239116
 10
441.2515434706
 20
189.6379684692
 10
441.260463147
 20
189.6495524531
 10
441.2680015382
 20
189.6614815675
 10
441.2745345666
 20
189.6737863961
 10
441.2801704759
 20
189.6863322883
 10
441.2848010225
 20
189.6992538946
 10
441.2884773975
 20
189.7129857506
 10
441.2912166647
 20
189.7276727013
 10
441.2930017603
 20
189.7431699018
 10
441.2938326843
 20
189.7594773519
  0
LINE
  5
21F
100
AcDbEntity
  8
0
100
AcDbLine
 62
7
  6
CONTINUOUS
 10
398.4431695644
 20
193.8842277433
 11
398.3978486492
 21
193.8993224397
  0
LWPOLYLINE
  5
220
100
AcDbEntity
  8
0
100
AcDbPolyline
 62
250
  6
CONTINUOUS
 90
19
 70
0
 10
397.350865491
 20
189.7594792397
 10
397.3559317998
 20
189.71449869
 10
397.3649801465
 20
189.6704836896
 10
397.3778271465
 20
189.6277663642
 10
397.3943741497
 20
189.5864356845
 10
397.4143216031
 20
189.5470129093
 10
397.4369920967
 20
189.5103684853
 10
397.4618972742
 20
189.4767852653
 10
397.4887195028
 20
189.4461895545
 10
397.5168549659
 20
189.4187359813
 10
397.5455327496
 20
189.39468531
 10
397.5747687175
 20
189.3736115356
 10
397.6052818061
 20
189.3547451522
 10
397.6368158388
 20
189.3381705353
 10
397.66928466
 20
189.3239325954
 10
397.7038960286
 20
189.3116434913
 10
397.7410081976
 20
189.301515197
 10
397.7800139697
 20
189.2940632484
 10
397.8207099136
 20
189.2896310415
  0
LINE
  5
221
100
AcDbEntity
  8
0
100
AcDbLine
 62
250
  6
CONTINUOUS
 10
398.735463863
 20
232.1493224397
 11
398.7427683698
 21
228.5193797522
  0
LINE
  5
222
100
AcDbEntity
  8
0
100
AcDbLine
 62
250
  6
CONTINUOUS
 10
398.4358475183
 20
232.1493224397
 11
398.4431695644
 21
228.5144171361
  0
LINE
  5
223
100
AcDbEntity
  8
0
100
AcDbLine
 62
250
  6
CONTINUOUS
 10
398.744261535
 20
227.6787675255
 11
398.7528221527
 21
221.6227303038
  0
LINE
  5
224
100
AcDbEntity
  8
0
100
AcDbLine
 62
250
  6
CONTINUOUS
 10
398.4446468682
 20
227.6837357088
 11
398.4532318568
 21
221.6177685081
  0
LINE
  5
225
100
AcDbEntity
  8
0
100
AcDbLine
 62
250
  6
CONTINUOUS
 10
398.4541318488
 20
220.7613819628
 11
398.4551407764
 21
219.6993224397
  0
LINE
  5
226
100
AcDbEntity
  8
0
100
AcDbLine
 62
250
  6
CONTINUOUS
 10
398.7537414695
 20
220.7464646043
 11
398.7547342082
 21
219.6993224406
  0
LINE
  5
227
100
AcDbEntity
  8
0
100
AcDbLine
 62
7
  6
CONTINUOUS
 10
397.1907240108
 20
189.6297203012
 11
397.1907240108
 21
232.7689245781
  0
LINE
  5
228
100
AcDbEntity
  8
0
100
AcDbLine
 62
7
  6
CONTINUOUS
 10
397.2407240108
 20
232.7493071198
 11
397.2407240108
 21
189.6493377595
  0
LINE
  5
229
100
AcDbEntity
  8
0
100
AcDbLine
 62
250
  6
CONTINUOUS
 10
397.3508636032
 20
232.6391675274
 11
397.3508636032
 21
189.7594773519
  0
LINE
  5
22A
100
AcDbEntity
  8
0
100
AcDbLine
 62
250
  6
CONTINUOUS
 10
397.6327713894
 20
232.6391675274
 11
397.6327713894
 21
189.7594773519
  0
LINE
  5
22B
100
AcDbEntity
  8
0
100
AcDbLine
 62
250
  6
CONTINUOUS
 10
397.8207099136
 20
189.5715388278
 11
397.8207099136
 21
189.2896310415
  0
LINE
  5
22C
100
AcDbEntity
  8
0
100
AcDbLine
 62
250
  6
CONTINUOUS
 10
397.8207099136
 20
232.8271060516
 11
397.8207099136
 21
233.1090138378
  0
LINE
  5
22D
100
AcDbEntity
  8
0
100
AcDbLine
 62
7
  6
CONTINUOUS
 10
398.3533020368
 20
232.1493224397
 11
398.3533020368
 21
190.2493224397
  0
LINE
  5
22E
100
AcDbEntity
  8
0
100
AcDbLine
 62
7
  6
CONTINUOUS
 10
398.3978486492
 20
228.4993224397
 11
398.3978486492
 21
227.6993224397
  0
LINE
  5
22F
100
AcDbEntity
  8
0
100
AcDbLine
 62
7
  6
CONTINUOUS
 10
398.3978486492
 20
194.6993224397
 11
398.3978486492
 21
193.8993224397
  0
LINE
  5
230
100
AcDbEntity
  8
0
100
AcDbLine
 62
7
  6
CONTINUOUS
 10
398.416191372
 20
221.6054317124
 11
398.416191372
 21
220.7993224397
  0
LINE
  5
231
100
AcDbEntity
  8
0
100
AcDbLine
 62
7
  6
CONTINUOUS
 10
398.416191372
 20
201.5993224397
 11
398.416191372
 21
200.7932131669
  0
LINE
  5
232
100
AcDbEntity
  8
0
100
AcDbLine
 62
250
  6
CONTINUOUS
 10
398.4551407789
 20
202.6993224397
 11
398.4541318488
 21
201.6372629165
  0
LINE
  5
233
100
AcDbEntity
  8
0
100
AcDbLine
 62
250
  6
CONTINUOUS
 10
398.7547342107
 20
202.6993224391
 11
398.7537414695
 21
201.6521802779
  0
LINE
  5
234
100
AcDbEntity
  8
0
100
AcDbLine
 62
250
  6
CONTINUOUS
 10
398.7528221527
 20
200.7759145758
 11
398.744261535
 21
194.7198773575
  0
LINE
  5
235
100
AcDbEntity
  8
0
100
AcDbLine
 62
250
  6
CONTINUOUS
 10
398.4532318568
 20
200.7808763712
 11
398.4446468682
 21
194.7149091705
  0
LINE
  5
236
100
AcDbEntity
  8
0
100
AcDbLine
 62
250
  6
CONTINUOUS
 10
398.7427683698
 20
193.8792651282
 11
398.735463864
 21
190.2493224397
  0
LINE
  5
237
100
AcDbEntity
  8
0
100
AcDbLine
 62
250
  6
CONTINUOUS
 10
398.4431695644
 20
193.8842277433
 11
398.43584752
 21
190.2493224397
  0
LWPOLYLINE
  5
238
100
AcDbEntity
  8
0
100
AcDbPolyline
 62
250
  6
CONTINUOUS
 90
13
 70
0
 10
440.5746733252
 20
192.8598520898
 10
440.5703752053
 20
192.8589034845
 10
440.5665455291
 20
192.8579730424
 10
440.5631842968
 20
192.8570607635
 10
440.560322376
 20
192.8561652656
 10
440.5579288989
 20
192.855287931
 10
440.5559112622
 20
192.8544329059
 10
440.5542669935
 20
192.8536005471
 10
440.5529985651
 20
192.852790498
 10
440.5520207902
 20
192.8520058348
 10
440.5513052734
 20
192.8512475831
 10
440.5508804101
 20
192.8505147173
 10
440.5507462004
 20
192.8498072374
  0
LWPOLYLINE
  5
239
100
AcDbEntity
  8
0
100
AcDbPolyline
 62
250
  6
CONTINUOUS
 90
13
 70
0
 10
440.3906323571
 20
193.0590910294
 10
440.3833842722
 20
193.0581423662
 10
440.3770182305
 20
193.0572118906
 10
440.3714839778
 20
193.0562996027
 10
440.3667324306
 20
193.055404133
 10
440.3627101922
 20
193.0545268509
 10
440.359362252
 20
193.0536718644
 10
440.3566392342
 20
193.0528395131
 10
440.3544939291
 20
193.0520294575
 10
440.3528781321
 20
193.0512447871
 10
440.3517457601
 20
193.0504865318
 10
440.3510522288
 20
193.0497536618
 10
440.3507538158
 20
193.0490461771
  0
LINE
  5
23A
100
AcDbEntity
  8
0
100
AcDbLine
 62
7
  6
CONTINUOUS
 10
397.6903434111
 20
189.1294914492
 11
441.2362606626
 21
189.1294914492
  0
LINE
  5
23B
100
AcDbEntity
  8
0
100
AcDbLine
 62
7
  6
CONTINUOUS
 10
397.7105703212
 20
189.1794914492
 11
441.2160337525
 21
189.1794914492
  0
LINE
  5
23C
100
AcDbEntity
  8
0
100
AcDbLine
 62
250
  6
CONTINUOUS
 10
397.8207099136
 20
189.2896310415
 11
441.1058941601
 21
189.2896310415
  0
LINE
  5
23D
100
AcDbEntity
  8
0
100
AcDbLine
 62
250
  6
CONTINUOUS
 10
397.8207099136
 20
189.5715388278
 11
441.1058941601
 21
189.5715388278
  0
LINE
  5
23E
100
AcDbEntity
  8
0
100
AcDbLine
 62
250
  6
CONTINUOUS
 10
397.6327713894
 20
189.7594773519
 11
397.3508636032
 21
189.7594773519
  0
LINE
  5
23F
100
AcDbEntity
  8
0
100
AcDbLine
 62
250
  6
CONTINUOUS
 10
441.2938326843
 20
189.7594773519
 11
441.5757404705
 21
189.7594773519
  0
LINE
  5
240
100
AcDbEntity
  8
0
100
AcDbLine
 62
7
  6
CONTINUOUS
 10
398.3533020368
 20
190.2493224397
 11
440.5733020368
 21
190.2493224397
  0
LWPOLYLINE
  5
241
100
AcDbEntity
  8
0
100
AcDbPolyline
 62
250
  6
CONTINUOUS
 90
16
 70
0
 10
405.795438701
 20
224.5487359156
 10
405.8024159078
 20
224.5588018057
 10
405.8107578508
 20
224.5678255116
 10
405.8203012863
 20
224.575617032
 10
405.8308636065
 20
224.581995738
 10
405.8422201398
 20
224.5868435952
 10
405.8541323707
 20
224.5901166514
 10
405.8663804939
 20
224.5917717937
 10
405.8787421669
 20
224.5917591249
 10
405.8909861519
 20
224.5900788984
 10
405.9028960672
 20
224.5867794362
 10
405.9142457402
 20
224.5819053806
 10
405.9247814628
 20
224.5755126755
 10
405.9342792014
 20
224.5677302222
 10
405.942568929
 20
224.5587403385
 10
405.9494955809
 20
224.5487357631
  0
LWPOLYLINE
  5
242
100
AcDbEntity
  8
0
100
AcDbPolyline
 62
7
  6
CONTINUOUS
 90
46
 70
0
 10
405.4515987114
 20
224.5519217014
 10
405.4546014352
 20
224.5547035663
 10
405.4577016035
 20
224.5574105461
 10
405.4608980469
 20
224.5600412011
 10
405.4641882671
 20
224.562593153
 10
405.467572287
 20
224.5650660254
 10
405.4710529227
 20
224.5674612415
 10
405.4746292101
 20
224.5697774724
 10
405.4783000099
 20
224.5720130303
 10
405.4820682754
 20
224.5741684727
 10
405.485933213
 20
224.5762423427
 10
405.4898937093
 20
224.5782328286
 10
405.4939525487
 20
224.5801396422
 10
405.4981088953
 20
224.5819611266
 10
405.5023617484
 20
224.5836954238
 10
405.5067138811
 20
224.5853416467
 10
405.5111647832
 20
224.5868980816
 10
405.5157131233
 20
224.5883626562
 10
405.5203605869
 20
224.5897336968
 10
405.5251062538
 20
224.5910092568
 10
405.5299490313
 20
224.5921873374
 10
405.5348904126
 20
224.593265994
 10
405.5399293789
 20
224.5942431846
 10
405.545064717
 20
224.5951168468
 10
405.5502976633
 20
224.5958848202
 10
405.5556262463
 20
224.5965449052
 10
405.5610499173
 20
224.5970950822
 10
405.5665721106
 20
224.5975331716
 10
405.5721863568
 20
224.5978567762
 10
405.5778963269
 20
224.5980638536
 10
405.5837210718
 20
224.5981516124
 10
405.5896580928
 20
224.5981171318
 10
405.5957073969
 20
224.5979568574
 10
405.6018924389
 20
224.5976649264
 10
405.6082127511
 20
224.5972370834
 10
405.6146662659
 20
224.5966685727
 10
405.6212744804
 20
224.595950501
 10
405.6280364154
 20
224.5950772874
 10
405.6349498435
 20
224.5940430564
 10
405.6420345268
 20
224.5928362911
 10
405.6492886743
 20
224.5914501001
 10
405.6567095803
 20
224.5898774584
 10
405.6643154805
 20
224.5881044932
 10
405.6721103515
 20
224.5861206475
 10
405.6800837524
 20
224.5839198319
 10
405.6882317866
 20
224.5814937435
  0
LWPOLYLINE
  5
243
100
AcDbEntity
  8
0
100
AcDbPolyline
 62
250
  6
CONTINUOUS
 90
13
 70
0
 10
441.3200119658
 20
192.8598520898
 10
441.3461047346
 20
192.8615748678
 10
441.3717512822
 20
192.8666741745
 10
441.3965131948
 20
192.8750627739
 10
441.4199672147
 20
192.8865972154
 10
441.4417124134
 20
192.9010802587
 10
441.4613770599
 20
192.9182642238
 10
441.4786250593
 20
192.9378552895
 10
441.4931616579
 20
192.9595185198
 10
441.5047384395
 20
192.9828835367
 10
441.5131576122
 20
193.007550905
 10
441.5182753733
 20
193.0330989694
 10
441.52000435
 20
193.0590910336
  0
LWPOLYLINE
  5
244
100
AcDbEntity
  8
0
100
AcDbPolyline
 62
7
  6
CONTINUOUS
 90
34
 70
0
 10
416.3825533005
 20
192.0743224397
 10
416.4065236767
 20
192.0746675176
 10
416.4303887404
 20
192.0760280506
 10
416.4541484915
 20
192.0784040389
 10
416.4778563645
 20
192.0817778459
 10
416.5014589249
 20
192.0861671097
 10
416.5247958695
 20
192.0916247428
 10
416.547892413
 20
192.0981503419
 10
416.5707233406
 20
192.1057443133
 10
416.5930527044
 20
192.1144607854
 10
416.6148647983
 20
192.1243062698
 10
416.6361753284
 20
192.1352742598
 10
416.656795465
 20
192.1473993566
 10
416.6766067062
 20
192.1607171266
 10
416.695727554
 20
192.1751920103
 10
416.7143246849
 20
192.1907519206
 10
416.7324923311
 20
192.2073408597
 10
416.7501362605
 20
192.2250148332
 10
416.767140453
 20
192.2438697597
 10
416.7835959713
 20
192.2638664961
 10
416.7994117527
 20
192.2850441958
 10
416.8141985889
 20
192.3076162242
 10
416.8277450141
 20
192.3316261989
 10
416.8402624941
 20
192.3570305172
 10
416.8519962175
 20
192.3839117162
 10
416.8631665977
 20
192.4122132408
 10
416.8735532212
 20
192.4419916643
 10
416.8827400359
 20
192.4734992197
 10
416.8907398753
 20
192.5068214406
 10
416.897539906
 20
192.541872819
 10
416.9026855752
 20
192.5786490278
 10
416.9060253656
 20
192.6171486342
 10
416.9077107947
 20
192.6573730997
 10
416.9077164319
 20
192.7409711101
  0
LINE
  5
245
100
AcDbEntity
  8
0
100
AcDbLine
 62
7
  6
CONTINUOUS
 10
413.2505210368
 20
192.0743224397
 11
413.4141630368
 21
192.0743224397
  0
LINE
  5
246
100
AcDbEntity
  8
0
100
AcDbLine
 62
7
  6
CONTINUOUS
 10
413.7658640368
 20
192.0743224397
 11
413.9330020368
 21
192.0743224397
  0
LINE
  5
247
100
AcDbEntity
  8
0
100
AcDbLine
 62
7
  6
CONTINUOUS
 10
414.5980710368
 20
192.0743224397
 11
414.7721510368
 21
192.0743224397
  0
LINE
  5
248
100
AcDbEntity
  8
0
100
AcDbLine
 62
7
  6
CONTINUOUS
 10
414.2846360368
 20
192.0743224397
 11
414.4483440368
 21
192.0743224397
  0
LINE
  5
249
100
AcDbEntity
  8
0
100
AcDbLine
 62
7
  6
CONTINUOUS
 10
415.5277110368
 20
192.0743224397
 11
415.7122740368
 21
192.0743224397
  0
LINE
  5
24A
100
AcDbEntity
  8
0
100
AcDbLine
 62
7
  6
CONTINUOUS
 10
415.8759120368
 20
192.0743224397
 11
416.3825533005
 21
192.0743224397
  0
LINE
  5
24B
100
AcDbEntity
  8
0
100
AcDbLine
 62
7
  6
CONTINUOUS
 10
417.1416310368
 20
192.0743224397
 11
418.0643970368
 21
192.0743224397
  0
LINE
  5
24C
100
AcDbEntity
  8
0
100
AcDbLine
 62
7
  6
CONTINUOUS
 10
418.7956350368
 20
192.0743224397
 11
418.9644980368
 21
192.0743224397
  0
LINE
  5
24D
100
AcDbEntity
  8
0
100
AcDbLine
 62
7
  6
CONTINUOUS
 10
419.2534590368
 20
192.0743224397
 11
419.4171770368
 21
192.0743224397
  0
LINE
  5
24E
100
AcDbEntity
  8
0
100
AcDbLine
 62
7
  6
CONTINUOUS
 10
420.0561280368
 20
192.0743224397
 11
420.2458870368
 21
192.0743224397
  0
LINE
  5
24F
100
AcDbEntity
  8
0
100
AcDbLine
 62
7
  6
CONTINUOUS
 10
421.0205940368
 20
192.0743224397
 11
421.1895080368
 21
192.0743224397
  0
LINE
  5
250
100
AcDbEntity
  8
0
100
AcDbLine
 62
7
  6
CONTINUOUS
 10
421.7936430368
 20
192.0743224397
 11
421.9624970368
 21
192.0743224397
  0
LINE
  5
251
100
AcDbEntity
  8
0
100
AcDbLine
 62
7
  6
CONTINUOUS
 10
422.4343120368
 20
192.0743224397
 11
422.6083820368
 21
192.0743224397
  0
LINE
  5
252
100
AcDbEntity
  8
0
100
AcDbLine
 62
7
  6
CONTINUOUS
 10
423.3640130368
 20
192.0743224397
 11
423.5486070368
 21
192.0743224397
  0
LINE
  5
253
100
AcDbEntity
  8
0
100
AcDbLine
 62
7
  6
CONTINUOUS
 10
423.7034790368
 20
192.0743224397
 11
424.5061480368
 21
192.0743224397
  0
LINE
  5
254
100
AcDbEntity
  8
0
100
AcDbLine
 62
7
  6
CONTINUOUS
 10
425.0353640368
 20
192.0743224397
 11
425.2041870368
 21
192.0743224397
  0
LINE
  5
255
100
AcDbEntity
  8
0
100
AcDbLine
 62
7
  6
CONTINUOUS
 10
416.378248893
 20
192.2187824397
 11
416.0448360368
 21
192.2187824397
  0
LINE
  5
256
100
AcDbEntity
  8
0
100
AcDbLine
 62
7
  6
CONTINUOUS
 10
424.5061480368
 20
192.2240394397
 11
423.8724040368
 21
192.2240394397
  0
LINE
  5
257
100
AcDbEntity
  8
0
100
AcDbLine
 62
7
  6
CONTINUOUS
 10
418.0643970368
 20
192.2240394397
 11
417.3105460368
 21
192.2240394397
  0
LINE
  5
258
100
AcDbEntity
  8
0
100
AcDbLine
 62
7
  6
CONTINUOUS
 10
414.9027410368
 20
192.4381514397
 11
415.4041160368
 21
192.4381514397
  0
LINE
  5
259
100
AcDbEntity
  8
0
100
AcDbLine
 62
7
  6
CONTINUOUS
 10
422.7389830368
 20
192.4381514397
 11
423.2404080368
 21
192.4381514397
  0
LINE
  5
25A
100
AcDbEntity
  8
0
100
AcDbLine
 62
7
  6
CONTINUOUS
 10
423.1794600368
 20
192.5878684397
 11
422.7912170368
 21
192.5878684397
  0
LINE
  5
25B
100
AcDbEntity
  8
0
100
AcDbLine
 62
7
  6
CONTINUOUS
 10
415.3432290368
 20
192.5878684397
 11
414.9549860368
 21
192.5878684397
  0
LINE
  5
25C
100
AcDbEntity
  8
0
100
AcDbLine
 62
7
  6
CONTINUOUS
 10
417.3105460368
 20
192.6418514397
 11
417.9947450368
 21
192.6418514397
  0
LWPOLYLINE
  5
25D
100
AcDbEntity
  8
0
100
AcDbPolyline
 62
7
  6
CONTINUOUS
 90
8
 70
0
 10
398.4431695644
 20
193.8842277433
 10
398.4464326534
 20
193.8836926249
 10
398.452561381
 20
193.8831758252
 10
398.4615557473
 20
193.8826773442
 10
398.4735745027
 20
193.8821922852
 10
398.4884588968
 20
193.8817255448
 10
398.5057326782
 20
193.8812918135
 10
398.5475319837
 20
193.8805263537
  0
LWPOLYLINE
  5
25E
100
AcDbEntity
  8
0
100
AcDbPolyline
 62
7
  6
CONTINUOUS
 90
7
 70
0
 10
405.4515987114
 20
197.846723178
 10
405.442843932
 20
197.8626088949
 10
405.435556912
 20
197.8792518369
 10
405.4298054103
 20
197.8965178994
 10
405.4256449906
 20
197.9142666985
 10
405.4231184113
 20
197.9323526784
 10
405.4222551149
 20
197.950626278
  0
LINE
  5
25F
100
AcDbEntity
  8
0
100
AcDbLine
 62
250
  6
CONTINUOUS
 10
405.5975529783
 20
221.1259241414
 11
405.4706771835
 21
220.9990483466
  0
LINE
  5
260
100
AcDbEntity
  8
0
100
AcDbLine
 62
250
  6
CONTINUOUS
 10
405.7972788852
 20
220.9261982344
 11
405.6704030904
 21
220.7993224397
  0
LINE
  5
261
100
AcDbEntity
  8
0
100
AcDbLine
 62
7
  6
CONTINUOUS
 10
413.4633020368
 20
228.4993224397
 11
413.4833593464
 21
228.5193797492
  0
LINE
  5
262
100
AcDbEntity
  8
0
100
AcDbLine
 62
7
  6
CONTINUOUS
 10
398.4532318568
 20
221.6177685081
 11
398.416191372
 21
221.6054317124
  0
LINE
  5
263
100
AcDbEntity
  8
0
100
AcDbLine
 62
7
  6
CONTINUOUS
 10
406.2694139058
 20
224.6474645752
 11
406.0063589833
 21
224.5659915702
  0
LINE
  5
264
100
AcDbEntity
  8
0
100
AcDbLine
 62
7
  6
CONTINUOUS
 10
406.0063589833
 20
224.5659915702
 11
405.9494954039
 21
224.5487359929
  0
LINE
  5
265
100
AcDbEntity
  8
0
100
AcDbLine
 62
7
  6
CONTINUOUS
 10
440.2455515176
 20
193.879377196
 11
440.3187138531
 21
193.8798242106
  0
LINE
  5
266
100
AcDbEntity
  8
0
100
AcDbLine
 62
7
  6
CONTINUOUS
 10
441.2938326843
 20
192.6993224397
 11
440.5733020368
 21
192.6993224397
  0
LINE
  5
267
100
AcDbEntity
  8
0
100
AcDbLine
 62
7
  6
CONTINUOUS
 10
417.9947450368
 20
192.7915684397
 11
417.3105460368
 21
192.7915684397
  0
LINE
  5
268
100
AcDbEntity
  8
0
100
AcDbLine
 62
250
  6
CONTINUOUS
 10
440.5746733252
 20
192.8598520898
 11
441.3200119658
 21
192.8598520898
  0
LINE
  5
269
100
AcDbEntity
  8
0
100
AcDbLine
 62
7
  6
CONTINUOUS
 10
417.3105460368
 20
193.1746054397
 11
418.0521950368
 21
193.1746054397
  0
LINE
  5
26A
100
AcDbEntity
  8
0
100
AcDbLine
 62
7
  6
CONTINUOUS
 10
421.3705740368
 20
193.1746054397
 11
421.7936430368
 21
193.1746054397
  0
LINE
  5
26B
100
AcDbEntity
  8
0
100
AcDbLine
 62
7
  6
CONTINUOUS
 10
421.9624970368
 20
193.1746054397
 11
422.3855660368
 21
193.1746054397
  0
LINE
  5
26C
100
AcDbEntity
  8
0
100
AcDbLine
 62
7
  6
CONTINUOUS
 10
416.0448360368
 20
193.1798624397
 11
416.378248893
 21
193.1798624397
  0
LINE
  5
26D
100
AcDbEntity
  8
0
100
AcDbLine
 62
250
  6
CONTINUOUS
 10
440.8507347773
 20
193.258329969
 11
441.5184110962
 21
193.258329969
  0
LINE
  5
26E
100
AcDbEntity
  8
0
100
AcDbLine
 62
7
  6
CONTINUOUS
 10
425.6760830368
 20
193.3243224397
 11
425.4775390368
 21
193.3243224397
  0
LINE
  5
26F
100
AcDbEntity
  8
0
100
AcDbLine
 62
7
  6
CONTINUOUS
 10
424.7602930368
 20
193.3243224397
 11
424.5635680368
 21
193.3243224397
  0
LINE
  5
270
100
AcDbEntity
  8
0
100
AcDbLine
 62
7
  6
CONTINUOUS
 10
423.8724040368
 20
193.3243224397
 11
423.7034790368
 21
193.3243224397
  0
LINE
  5
271
100
AcDbEntity
  8
0
100
AcDbLine
 62
7
  6
CONTINUOUS
 10
423.0958870368
 20
193.3243224397
 11
422.9044090368
 21
193.3243224397
  0
LINE
  5
272
100
AcDbEntity
  8
0
100
AcDbLine
 62
7
  6
CONTINUOUS
 10
422.3855660368
 20
193.3243224397
 11
421.3705740368
 21
193.3243224397
  0
LINE
  5
273
100
AcDbEntity
  8
0
100
AcDbLine
 62
7
  6
CONTINUOUS
 10
421.1895080368
 20
193.3243224397
 11
421.0205940368
 21
193.3243224397
  0
LINE
  5
274
100
AcDbEntity
  8
0
100
AcDbLine
 62
7
  6
CONTINUOUS
 10
420.2458870368
 20
193.3243224397
 11
420.0822500368
 21
193.3243224397
  0
LINE
  5
275
100
AcDbEntity
  8
0
100
AcDbLine
 62
7
  6
CONTINUOUS
 10
419.4537120368
 20
193.3243224397
 11
419.2534590368
 21
193.3243224397
  0
LINE
  5
276
100
AcDbEntity
  8
0
100
AcDbLine
 62
7
  6
CONTINUOUS
 10
418.9644980368
 20
193.3243224397
 11
418.7956350368
 21
193.3243224397
  0
LINE
  5
277
100
AcDbEntity
  8
0
100
AcDbLine
 62
7
  6
CONTINUOUS
 10
418.0521950368
 20
193.3243224397
 11
417.1416310368
 21
193.3243224397
  0
LINE
  5
278
100
AcDbEntity
  8
0
100
AcDbLine
 62
7
  6
CONTINUOUS
 10
416.3878680176
 20
193.3243224397
 11
415.8759120368
 21
193.3243224397
  0
LINE
  5
279
100
AcDbEntity
  8
0
100
AcDbLine
 62
7
  6
CONTINUOUS
 10
415.2596460368
 20
193.3243224397
 11
415.0681070368
 21
193.3243224397
  0
LINE
  5
27A
100
AcDbEntity
  8
0
100
AcDbLine
 62
7
  6
CONTINUOUS
 10
414.4483440368
 20
193.3243224397
 11
414.2080590368
 21
193.3243224397
  0
LINE
  5
27B
100
AcDbEntity
  8
0
100
AcDbLine
 62
7
  6
CONTINUOUS
 10
413.4925230368
 20
193.3243224397
 11
413.2505210368
 21
193.3243224397
  0
LINE
  5
27C
100
AcDbEntity
  8
0
100
AcDbLine
 62
7
  6
CONTINUOUS
 10
425.4432447273
 20
193.8792651301
 11
440.2455515176
 21
193.879377196
  0
LINE
  5
27D
100
AcDbEntity
  8
0
100
AcDbLine
 62
7
  6
CONTINUOUS
 10
398.3978486492
 20
193.8993224397
 11
413.4633020368
 21
193.8993224397
  0
LINE
  5
27E
100
AcDbEntity
  8
0
100
AcDbLine
 62
7
  6
CONTINUOUS
 10
425.4633020368
 20
193.8993224397
 11
440.3284622252
 21
193.8993224397
  0
LINE
  5
27F
100
AcDbEntity
  8
0
100
AcDbLine
 62
7
  6
CONTINUOUS
 10
440.3284622252
 20
194.6993224397
 11
425.4633020368
 21
194.6993224397
  0
LINE
  5
280
100
AcDbEntity
  8
0
100
AcDbLine
 62
7
  6
CONTINUOUS
 10
413.4633020368
 20
194.6993224397
 11
398.3978486492
 21
194.6993224397
  0
LINE
  5
281
100
AcDbEntity
  8
0
100
AcDbLine
 62
7
  6
CONTINUOUS
 10
398.7135468448
 20
194.7198488984
 11
413.4838569631
 21
194.719877366
  0
LINE
  5
282
100
AcDbEntity
  8
0
100
AcDbLine
 62
7
  6
CONTINUOUS
 10
440.2137372222
 20
194.7198485363
 11
425.4427471105
 21
194.719877366
  0
LINE
  5
283
100
AcDbEntity
  8
0
100
AcDbLine
 62
7
  6
CONTINUOUS
 10
398.682178343
 20
193.8793732508
 11
413.4833593464
 21
193.8792651301
  0
LINE
  5
284
100
AcDbEntity
  8
0
100
AcDbLine
 62
7
  6
CONTINUOUS
 10
398.597190045
 20
193.8799243818
 11
398.682178343
 21
193.8793732508
  0
LINE
  5
285
100
AcDbEntity
  8
0
100
AcDbLine
 62
7
  6
CONTINUOUS
 10
398.5475319837
 20
193.8805263537
 11
398.597190045
 21
193.8799243818
  0
LWPOLYLINE
  5
286
100
AcDbEntity
  8
0
100
AcDbPolyline
 62
7
  6
CONTINUOUS
 90
25
 70
0
 10
416.378248893
 20
193.1798624397
 10
416.4057992926
 20
193.1782190417
 10
416.4328693098
 20
193.1745154446
 10
416.4594589448
 20
193.1687516503
 10
416.4857603498
 20
193.1609168618
 10
416.5115813725
 20
193.1510218821
 10
416.5363455559
 20
193.1390991137
 10
416.5600553528
 20
193.1250143294
 10
416.5827083104
 20
193.1089017682
 10
416.6037206135
 20
193.0911965315
 10
416.6229313878
 20
193.071884396
 10
416.6405015076
 20
193.050979598
 10
416.6563297807
 20
193.0289599255
 10
416.6703147222
 20
193.0058783284
 10
416.682557817
 20
192.9816818676
 10
416.6932623276
 20
192.9566894939
 10
416.7023224653
 20
192.9309570324
 10
416.7098440187
 20
192.9044286667
 10
416.7163476158
 20
192.8772558839
 10
416.7220456691
 20
192.8495509295
 10
416.7267257662
 20
192.8212015653
 10
416.7302712971
 20
192.7920225529
 10
416.7326433922
 20
192.7619521501
 10
416.7338809212
 20
192.7310521104
 10
416.7339838841
 20
192.6993224397
  0
LWPOLYLINE
  5
287
100
AcDbEntity
  8
0
100
AcDbPolyline
 62
250
  6
CONTINUOUS
 90
13
 70
0
 10
440.5507462004
 20
192.8498072374
 10
440.5246545157
 20
192.8515298764
 10
440.4990088354
 20
192.8566288065
 10
440.4742475398
 20
192.8650168677
 10
440.4507938921
 20
192.8765506767
 10
440.4290488027
 20
192.8910330778
 10
440.4093839763
 20
192.9082165131
 10
440.3921355585
 20
192.9278072534
 10
440.377598389
 20
192.9494704199
 10
440.3660209625
 20
192.9728357089
 10
440.3576011805
 20
192.9975037206
 10
440.3524829684
 20
193.0230527863
 10
440.3507538158
 20
193.0490461771
  0
LINE
  5
288
100
AcDbEntity
  8
0
100
AcDbLine
 62
7
  6
CONTINUOUS
 10
406.0063580859
 20
197.8326535844
 11
405.9494953351
 21
197.8499088938
  0
LINE
  5
289
100
AcDbEntity
  8
0
100
AcDbLine
 62
7
  6
CONTINUOUS
 10
406.2694139058
 20
197.7511803042
 11
406.0063580859
 21
197.8326535844
  0
LINE
  5
28A
100
AcDbEntity
  8
0
100
AcDbLine
 62
7
  6
CONTINUOUS
 10
398.4532318568
 20
200.7808763712
 11
398.416191372
 21
200.7932131669
  0
LINE
  5
28B
100
AcDbEntity
  8
0
100
AcDbLine
 62
250
  6
CONTINUOUS
 10
405.4706771835
 20
201.3995965327
 11
405.5975529783
 21
201.2727207379
  0
LINE
  5
28C
100
AcDbEntity
  8
0
100
AcDbLine
 62
250
  6
CONTINUOUS
 10
405.6704030904
 20
201.5993224397
 11
405.7972788852
 21
201.4724466449
  0
LINE
  5
28D
100
AcDbEntity
  8
0
100
AcDbLine
 62
7
  6
CONTINUOUS
 10
413.4633020368
 20
193.8993224397
 11
413.4833593464
 21
193.8792651301
  0
LWPOLYLINE
  5
28E
100
AcDbEntity
  8
0
100
AcDbPolyline
 62
7
  6
CONTINUOUS
 90
7
 70
0
 10
405.4222551149
 20
224.4480186014
 10
405.4231158231
 20
224.4662646183
 10
405.4256368457
 20
224.4843346011
 10
405.4297918257
 20
224.5020789811
 10
405.4355410121
 20
224.5193516431
 10
405.4428316897
 20
224.5360111141
 10
405.4515987114
 20
224.5519217014
  0
LWPOLYLINE
  5
28F
100
AcDbEntity
  8
0
100
AcDbPolyline
 62
7
  6
CONTINUOUS
 90
25
 70
0
 10
405.4515987114
 20
224.5519217014
 10
405.460495986
 20
224.5987096085
 10
405.4740017484
 20
224.6432625302
 10
405.4921159986
 20
224.6855804823
 10
405.5151716369
 20
224.7261360747
 10
405.542835763
 20
224.764456725
 10
405.5741096765
 20
224.7991246675
 10
405.6091225056
 20
224.8299924929
 10
405.6477451222
 20
224.8572076501
 10
405.6885914405
 20
224.8797946712
 10
405.7317419532
 20
224.8975853828
 10
405.7771161676
 20
224.9107479895
 10
405.8230865201
 20
224.9188115905
 10
405.8696739983
 20
224.9215913303
 10
405.9168576145
 20
224.9192720736
 10
405.9629468415
 20
224.9119374947
 10
406.0079027468
 20
224.899405364
 10
406.0517642629
 20
224.8818578945
 10
406.0929576599
 20
224.8599254194
 10
406.1313852563
 20
224.8334491723
 10
406.1671447335
 20
224.8025878844
 10
406.1989554057
 20
224.7684481386
 10
406.2263903774
 20
224.7313987856
 10
406.2498765442
 20
224.6910709383
 10
406.2694139058
 20
224.6474645752
  0
LINE
  5
290
100
AcDbEntity
  8
0
100
AcDbLine
 62
250
  6
CONTINUOUS
 10
406.6111897124
 20
224.4859271302
 11
406.6143846275
 21
224.49551967
  0
LINE
  5
291
100
AcDbEntity
  8
0
100
AcDbLine
 62
250
  6
CONTINUOUS
 10
406.8111592514
 20
224.2862012233
 11
406.8133020368
 21
224.2926348071
  0
LWPOLYLINE
  5
292
100
AcDbEntity
  8
0
100
AcDbPolyline
 62
7
  6
CONTINUOUS
 90
6
 70
0
 10
422.7544070279
 20
229.67966913
 10
422.7648481238
 20
229.6832891594
 10
422.7751698544
 20
229.6879492185
 10
422.7853722198
 20
229.6936493064
 10
422.7953873594
 20
229.700616115
 10
422.8052831337
 20
229.7086229492
  0
LWPOLYLINE
  5
293
100
AcDbEntity
  8
0
100
AcDbPolyline
 62
7
  6
CONTINUOUS
 90
10
 70
0
 10
420.438404305
 20
196.4094179198
 10
420.4535121162
 20
196.4132605491
 10
420.4684584917
 20
196.4167424846
 10
420.4832434315
 20
196.419863726
 10
420.4978748282
 20
196.4226663027
 10
420.5123447892
 20
196.425108185
 10
420.5266296368
 20
196.4270632838
 10
420.5407214785
 20
196.4284895693
 10
420.5546282067
 20
196.429429071
 10
420.5683498216
 20
196.4298817887
  0
LINE
  5
294
100
AcDbEntity
  8
0
100
AcDbLine
 62
7
  6
CONTINUOUS
 10
420.2593457532
 20
196.1198545023
 11
420.0751709771
 21
196.0952978953
  0
LWPOLYLINE
  5
295
100
AcDbEntity
  8
0
100
AcDbPolyline
 62
7
  6
CONTINUOUS
 90
10
 70
0
 10
420.5519786906
 20
195.6727194385
 10
420.6008036063
 20
195.6746337207
 10
420.6473722278
 20
195.6798574179
 10
420.6916845551
 20
195.6883905335
 10
420.7336009967
 20
195.7002341198
 10
420.7732611441
 20
195.7153871371
 10
420.8110837721
 20
195.7338464534
 10
420.8472084724
 20
195.7556110329
 10
420.8814956533
 20
195.7806819363
 10
420.9139453148
 20
195.8090591789
  0
LWPOLYLINE
  5
296
100
AcDbEntity
  8
0
100
AcDbPolyline
 62
7
  6
CONTINUOUS
 90
7
 70
0
 10
398.5072509159
 20
194.7178491058
 10
398.4899698529
 20
194.7174148898
 10
398.4750772317
 20
194.7169475943
 10
398.4630508434
 20
194.716461906
 10
398.454049952
 20
194.7159627204
 10
398.4479152936
 20
194.7154451419
 10
398.4446468682
 20
194.7149091705
  0
LINE
  5
297
100
AcDbEntity
  8
0
100
AcDbLine
 62
7
  6
CONTINUOUS
 10
398.5490617845
 20
194.7186153224
 11
398.5072509159
 21
194.7178491058
  0
LINE
  5
298
100
AcDbEntity
  8
0
100
AcDbLine
 62
7
  6
CONTINUOUS
 10
398.5987236277
 20
194.7192177837
 11
398.5490617845
 21
194.7186153224
  0
LWPOLYLINE
  5
299
100
AcDbEntity
  8
0
100
AcDbPolyline
 62
7
  6
CONTINUOUS
 90
10
 70
0
 10
420.4885408711
 20
196.5690359547
 10
420.4851766709
 20
196.5690178949
 10
420.4818339835
 20
196.5690568415
 10
420.4785128089
 20
196.5691527946
 10
420.4752194213
 20
196.5692999522
 10
420.4719475465
 20
196.5695041162
 10
420.4686783622
 20
196.5697826926
 10
420.4654055941
 20
196.5701414832
 10
420.4621355165
 20
196.5705746862
 10
420.4588681293
 20
196.5710823014
  0
LWPOLYLINE
  5
29A
100
AcDbEntity
  8
0
100
AcDbPolyline
 62
7
  6
CONTINUOUS
 90
3
 70
0
 10
398.7135468448
 20
194.7198488984
 10
398.6836974243
 20
194.7197692338
 10
398.5987236277
 20
194.7192177837
  0
LINE
  5
29B
100
AcDbEntity
  8
0
100
AcDbLine
 62
7
  6
CONTINUOUS
 10
417.0874494147
 20
195.6993224397
 11
417.271624012
 21
195.6993224397
  0
LINE
  5
29C
100
AcDbEntity
  8
0
100
AcDbLine
 62
7
  6
CONTINUOUS
 10
418.3336977792
 20
195.6993224397
 11
418.5178723764
 21
195.6993224397
  0
LINE
  5
29D
100
AcDbEntity
  8
0
100
AcDbLine
 62
7
  6
CONTINUOUS
 10
419.4182815385
 20
195.6993224397
 11
419.6024563146
 21
195.6993224397
  0
LINE
  5
29E
100
AcDbEntity
  8
0
100
AcDbLine
 62
7
  6
CONTINUOUS
 10
421.2160307002
 20
195.6993224397
 11
422.2075038981
 21
195.6993224397
  0
LINE
  5
29F
100
AcDbEntity
  8
0
100
AcDbLine
 62
7
  6
CONTINUOUS
 10
422.2075038981
 20
195.876334723
 11
421.4718286824
 21
195.876334723
  0
LINE
  5
2A0
100
AcDbEntity
  8
0
100
AcDbLine
 62
7
  6
CONTINUOUS
 10
417.6829473805
 20
196.0584629624
 11
418.3336977792
 21
196.0584629624
  0
LINE
  5
2A1
100
AcDbEntity
  8
0
100
AcDbLine
 62
7
  6
CONTINUOUS
 10
418.5178723764
 20
196.0584629624
 11
418.7204644513
 21
196.0584629624
  0
LINE
  5
2A2
100
AcDbEntity
  8
0
100
AcDbLine
 62
250
  6
CONTINUOUS
 10
440.8507347773
 20
196.1403149103
 11
441.5184110962
 21
196.1403149103
  0
LINE
  5
2A3
100
AcDbEntity
  8
0
100
AcDbLine
 62
7
  6
CONTINUOUS
 10
418.7204644513
 20
196.2272897139
 11
418.5178723764
 21
196.2272897139
  0
LINE
  5
2A4
100
AcDbEntity
  8
0
100
AcDbLine
 62
7
  6
CONTINUOUS
 10
418.3336977792
 20
196.2272897139
 11
417.8640524578
 21
196.2272897139
  0
LINE
  5
2A5
100
AcDbEntity
  8
0
100
AcDbLine
 62
250
  6
CONTINUOUS
 10
441.3200119658
 20
196.5387927895
 11
440.5746733252
 21
196.5387927895
  0
LINE
  5
2A6
100
AcDbEntity
  8
0
100
AcDbLine
 62
7
  6
CONTINUOUS
 10
441.2938326843
 20
196.6993224397
 11
440.5733020368
 21
196.6993224397
  0
LINE
  5
2A7
100
AcDbEntity
  8
0
100
AcDbLine
 62
7
  6
CONTINUOUS
 10
440.2897371363
 20
194.7195299026
 11
440.2137372222
 21
194.7198485363
  0
LINE
  5
2A8
100
AcDbEntity
  8
0
100
AcDbLine
 62
7
  6
CONTINUOUS
 10
440.3184709015
 20
194.719306609
 11
440.2897371363
 21
194.7195299026
  0
LWPOLYLINE
  5
2A9
100
AcDbEntity
  8
0
100
AcDbPolyline
 62
7
  6
CONTINUOUS
 90
10
 70
0
 10
420.553001864
 20
195.8251750953
 10
420.52864689
 20
195.8260594602
 10
420.505260092
 20
195.8286123236
 10
420.4828414699
 20
195.8328336864
 10
420.4614606689
 20
195.8387039778
 10
420.4410480439
 20
195.8462427717
 10
420.4213946596
 20
195.8555087862
 10
420.402430871
 20
195.8665215962
 10
420.3842263232
 20
195.8792616334
 10
420.366781016
 20
195.8937289018
  0
LWPOLYLINE
  5
2AA
100
AcDbEntity
  8
0
100
AcDbPolyline
 62
7
  6
CONTINUOUS
 90
10
 70
0
 10
420.5683498216
 20
196.4298817887
 10
420.5966441107
 20
196.4287465323
 10
420.6236734288
 20
196.4255967673
 10
420.649437776
 20
196.4204324948
 10
420.6738753746
 20
196.4132588712
 10
420.6970480023
 20
196.4040707446
 10
420.7191409916
 20
196.3928526545
 10
420.74021612
 20
196.3795994505
 10
420.7602116102
 20
196.3643162918
 10
420.7791274619
 20
196.3470031842
  0
LWPOLYLINE
  5
2AB
100
AcDbEntity
  8
0
100
AcDbPolyline
 62
250
  6
CONTINUOUS
 90
13
 70
0
 10
440.5746733146
 20
192.8598520876
 10
440.5511567442
 20
192.8623519522
 10
440.5280252053
 20
192.8680735407
 10
440.5056574958
 20
192.8769231855
 10
440.4844199078
 20
192.8887559948
 10
440.4646602375
 20
192.9033782206
 10
440.4467020867
 20
192.9205504273
 10
440.4308395503
 20
192.9399914237
 10
440.4173324127
 20
192.9613828569
 10
440.4064018938
 20
192.9843744142
 10
440.3982270098
 20
193.0085895831
 10
440.3929416465
 20
193.0336318209
 10
440.3906323742
 20
193.0590910315
  0
LWPOLYLINE
  5
2AC
100
AcDbEntity
  8
0
100
AcDbPolyline
 62
7
  6
CONTINUOUS
 90
8
 70
0
 10
405.9494953351
 20
197.8499088938
 10
405.9468839553
 20
197.8503501451
 10
405.9433480508
 20
197.8507322849
 10
405.9388876217
 20
197.8510553133
 10
405.9332574111
 20
197.8513200423
 10
405.9267026759
 20
197.8515256598
 10
405.9199591869
 20
197.8516697298
 10
405.9133446863
 20
197.8517331649
  0
LWPOLYLINE
  5
2AD
100
AcDbEntity
  8
0
100
AcDbPolyline
 62
250
  6
CONTINUOUS
 90
16
 70
0
 10
405.7972788852
 20
201.4724466449
 10
405.7994779207
 20
201.471375202
 10
405.8035533574
 20
201.4703422281
 10
405.8095051953
 20
201.4693477232
 10
405.8174234021
 20
201.4683833808
 10
405.8272180102
 20
201.4674575075
 10
405.8386191163
 20
201.4665950225
 10
405.8516701634
 20
201.4657967623
 10
405.8663277086
 20
201.4650618905
 10
405.8821915206
 20
201.4644128172
 10
405.8993096979
 20
201.4638515058
 10
405.917634142
 20
201.4633759929
 10
405.9366203261
 20
201.463002799
 10
405.9560867414
 20
201.4627374308
 10
405.9762148967
 20
201.4625743816
 10
406.1644339206
 20
201.4625136513
  0
LINE
  5
2AE
100
AcDbEntity
  8
0
100
AcDbLine
 62
250
  6
CONTINUOUS
 10
406.6143846275
 20
197.9031252094
 11
406.6111897124
 21
197.9127177491
  0
LINE
  5
2AF
100
AcDbEntity
  8
0
100
AcDbLine
 62
250
  6
CONTINUOUS
 10
406.8133020368
 20
198.1060100722
 11
406.8111592514
 21
198.1124436561
  0
LINE
  5
2B0
100
AcDbEntity
  8
0
100
AcDbLine
 62
7
  6
CONTINUOUS
 10
405.4706771835
 20
221.6054317124
 11
405.4706771835
 21
220.9990483466
  0
LINE
  5
2B1
100
AcDbEntity
  8
0
100
AcDbLine
 62
7
  6
CONTINUOUS
 10
405.4706771835
 20
200.7932131669
 11
405.4706771835
 21
201.3995965327
  0
LINE
  5
2B2
100
AcDbEntity
  8
0
100
AcDbLine
 62
250
  6
CONTINUOUS
 10
405.5975529783
 20
224.2727207379
 11
405.5975529783
 21
221.1259241414
  0
LINE
  5
2B3
100
AcDbEntity
  8
0
100
AcDbLine
 62
250
  6
CONTINUOUS
 10
405.5975529783
 20
201.2727207379
 11
405.5975529783
 21
198.1259241414
  0
LINE
  5
2B4
100
AcDbEntity
  8
0
100
AcDbLine
 62
250
  6
CONTINUOUS
 10
405.9970047922
 20
197.9361312281
 11
405.9970047922
 21
201.4625136513
  0
LINE
  5
2B5
100
AcDbEntity
  8
0
100
AcDbLine
 62
250
  6
CONTINUOUS
 10
405.9970047922
 20
220.9361312281
 11
405.9970047922
 21
224.4625136513
  0
LINE
  5
2B6
100
AcDbEntity
  8
0
100
AcDbLine
 62
250
  6
CONTINUOUS
 10
406.1644339206
 20
197.9361312281
 11
406.1644339206
 21
201.4625136513
  0
LINE
  5
2B7
100
AcDbEntity
  8
0
100
AcDbLine
 62
250
  6
CONTINUOUS
 10
406.1644339206
 20
220.9361312281
 11
406.1644339206
 21
224.4625136513
  0
LINE
  5
2B8
100
AcDbEntity
  8
0
100
AcDbLine
 62
250
  6
CONTINUOUS
 10
406.3058552768
 20
224.2627877443
 11
406.3058552768
 21
221.135857135
  0
LINE
  5
2B9
100
AcDbEntity
  8
0
100
AcDbLine
 62
250
  6
CONTINUOUS
 10
406.3058552768
 20
201.2627877443
 11
406.3058552768
 21
198.135857135
  0
LINE
  5
2BA
100
AcDbEntity
  8
0
100
AcDbLine
 62
7
  6
CONTINUOUS
 10
406.3133020368
 20
224.6474645752
 11
406.3133020368
 21
224.499747659
  0
LINE
  5
2BB
100
AcDbEntity
  8
0
100
AcDbLine
 62
7
  6
CONTINUOUS
 10
406.3133020368
 20
201.6521802847
 11
406.3133020368
 21
201.499747659
  0
LINE
  5
2BC
100
AcDbEntity
  8
0
100
AcDbLine
 62
7
  6
CONTINUOUS
 10
406.3133020368
 20
197.7511803042
 11
406.3133020368
 21
197.8988972203
  0
LINE
  5
2BD
100
AcDbEntity
  8
0
100
AcDbLine
 62
7
  6
CONTINUOUS
 10
406.3133020368
 20
220.7464645946
 11
406.3133020368
 21
220.8988972203
  0
LINE
  5
2BE
100
AcDbEntity
  8
0
100
AcDbLine
 62
250
  6
CONTINUOUS
 10
406.7526110686
 20
224.2862012233
 11
406.7526110686
 21
221.1124436561
  0
LINE
  5
2BF
100
AcDbEntity
  8
0
100
AcDbLine
 62
250
  6
CONTINUOUS
 10
406.7526110686
 20
201.2862012233
 11
406.7526110686
 21
198.1124436561
  0
LINE
  5
2C0
100
AcDbEntity
  8
0
100
AcDbLine
 62
250
  6
CONTINUOUS
 10
406.8111592514
 20
224.2862012233
 11
406.8111592514
 21
221.1124436561
  0
LINE
  5
2C1
100
AcDbEntity
  8
0
100
AcDbLine
 62
250
  6
CONTINUOUS
 10
406.8111592514
 20
201.2862012233
 11
406.8111592514
 21
198.1124436561
  0
LWPOLYLINE
  5
2C2
100
AcDbEntity
  8
0
100
AcDbPolyline
 62
250
  6
CONTINUOUS
 90
8
 70
0
 10
433.3290510954
 20
201.2727210438
 10
433.324707599
 20
201.2716223011
 10
433.3163444879
 20
201.2705830742
 10
433.304355913
 20
201.2696033631
 10
433.2891044811
 20
201.2686775372
 10
433.2710354314
 20
201.267811227
 10
433.2507569416
 20
201.2670213242
 10
433.2288254095
 20
201.2663151273
  0
LWPOLYLINE
  5
2C3
100
AcDbEntity
  8
0
100
AcDbPolyline
 62
250
  6
CONTINUOUS
 90
13
 70
0
 10
433.1293251884
 20
197.9261982344
 10
433.1553487837
 20
197.9279721516
 10
433.1809288316
 20
197.9331211373
 10
433.2056291824
 20
197.9415574603
 10
433.2290286781
 20
197.9531373393
 10
433.250728317
 20
197.9676633853
 10
433.2703580623
 20
197.9848879586
 10
433.2875831821
 20
198.0045174127
 10
433.302109928
 20
198.0262170781
 10
433.3136905446
 20
198.0496169457
 10
433.3221275317
 20
198.0743180236
 10
433.3272769983
 20
198.0998991493
 10
433.3290511018
 20
198.1259241349
  0
LWPOLYLINE
  5
2C4
100
AcDbEntity
  8
0
100
AcDbPolyline
 62
250
  6
CONTINUOUS
 90
13
 70
0
 10
406.6111897124
 20
197.9127177491
 10
406.6373007785
 20
197.9144515403
 10
406.6629628791
 20
197.9195750851
 10
406.6877368089
 20
197.9279999282
 10
406.711197757
 20
197.9395805813
 10
406.7329456223
 20
197.9541184682
 10
406.7526110546
 20
197.9713665714
 10
406.7698637874
 20
197.9910387946
 10
406.7843992044
 20
198.0127918782
 10
406.7959565833
 20
198.0362263204
 10
406.8043456006
 20
198.0609272427
 10
406.8094384741
 20
198.086478596
 10
406.8111592514
 20
198.1124436561
  0
LINE
  5
2C5
100
AcDbEntity
  8
0
100
AcDbLine
 62
250
  6
CONTINUOUS
 10
432.7621701531
 20
197.9361312281
 11
432.3154143613
 21
197.9127177491
  0
LINE
  5
2C6
100
AcDbEntity
  8
0
100
AcDbLine
 62
250
  6
CONTINUOUS
 10
432.6207487968
 20
198.135857135
 11
432.173993005
 21
198.1124436561
  0
LWPOLYLINE
  5
2C7
100
AcDbEntity
  8
0
100
AcDbPolyline
 62
7
  6
CONTINUOUS
 90
10
 70
0
 10
420.5448164773
 20
197.2054616585
 10
420.5051024737
 20
197.2039905896
 10
420.467102978
 20
197.2000197532
 10
420.43081799
 20
197.1935491509
 10
420.3963232659
 20
197.1845450196
 10
420.3635430495
 20
197.1730411291
 10
420.3322500731
 20
197.1591387818
 10
420.3023685806
 20
197.1428717493
 10
420.2739743281
 20
197.1242062722
 10
420.2470673156
 20
197.1031423583
  0
LWPOLYLINE
  5
2C8
100
AcDbEntity
  8
0
100
AcDbPolyline
 62
250
  6
CONTINUOUS
 90
9
 70
0
 10
405.6834354263
 20
198.1318883066
 10
405.6660710742
 20
198.1312640278
 10
405.6505107646
 20
198.1306122359
 10
405.6368470299
 20
198.1299381366
 10
405.6251214697
 20
198.1292365243
 10
405.6150168745
 20
198.1284864168
 10
405.6067571576
 20
198.1276808202
 10
405.6008247626
 20
198.1268267284
 10
405.5975529783
 20
198.1259241414
  0
LWPOLYLINE
  5
2C9
100
AcDbEntity
  8
0
100
AcDbPolyline
 62
7
  6
CONTINUOUS
 90
10
 70
0
 10
421.7378587556
 20
197.2054616585
 10
421.691231214
 20
197.204065313
 10
421.6467225437
 20
197.1998763362
 10
421.6043327447
 20
197.1928947302
 10
421.563972019
 20
197.1830528225
 10
421.5257301645
 20
197.1704182936
 10
421.4898765752
 20
197.1551941762
 10
421.4565010491
 20
197.1374481525
 10
421.4255137881
 20
197.1171125547
 10
421.3969147924
 20
197.0941873918
  0
LINE
  5
2CA
100
AcDbEntity
  8
0
100
AcDbLine
 62
250
  6
CONTINUOUS
 10
405.7259184354
 20
198.1330813718
 11
405.6834354263
 21
198.1318883066
  0
LINE
  5
2CB
100
AcDbEntity
  8
0
100
AcDbLine
 62
250
  6
CONTINUOUS
 10
405.7793275425
 20
198.1341693192
 11
405.7259184354
 21
198.1330813718
  0
LINE
  5
2CC
100
AcDbEntity
  8
0
100
AcDbLine
 62
7
  6
CONTINUOUS
 10
406.6143846275
 20
197.9031252094
 11
406.3133020368
 21
197.8988972203
  0
LINE
  5
2CD
100
AcDbEntity
  8
0
100
AcDbLine
 62
250
  6
CONTINUOUS
 10
405.8444387775
 20
198.1350648963
 11
405.7793275425
 21
198.1341693192
  0
LWPOLYLINE
  5
2CE
100
AcDbEntity
  8
0
100
AcDbPolyline
 62
7
  6
CONTINUOUS
 90
8
 70
0
 10
433.0125856928
 20
197.8517254207
 10
433.0058394801
 20
197.8516580149
 10
432.9991834353
 20
197.851510395
 10
432.9928395109
 20
197.8513017799
 10
432.9874007693
 20
197.8510368534
 10
432.983064898
 20
197.8507171769
 10
432.9796342095
 20
197.8503411892
 10
432.9771087038
 20
197.8499088902
  0
LWPOLYLINE
  5
2CF
100
AcDbEntity
  8
0
100
AcDbPolyline
 62
250
  6
CONTINUOUS
 90
18
 70
0
 10
405.9767093645
 20
197.9360658907
 10
405.9572761996
 20
197.9359141583
 10
405.9387052975
 20
197.9356760308
 10
405.9208205667
 20
197.9353392239
 10
405.9037980987
 20
197.9349160218
 10
405.8881661682
 20
197.9344432781
 10
405.8741332611
 20
197.9339241477
 10
405.8614908915
 20
197.9333554755
 10
405.8501418766
 20
197.9327646501
 10
405.8401650453
 20
197.9321626403
 10
405.8314815687
 20
197.9315384772
 10
405.8237577766
 20
197.9308866417
 10
405.8168684519
 20
197.9302121549
 10
405.8109388117
 20
197.9295099957
 10
405.8060108368
 20
197.9287595822
 10
405.8020985209
 20
197.9279540539
 10
405.7991878704
 20
197.9271002713
 10
405.7972788852
 20
197.9261982344
  0
LWPOLYLINE
  5
2D0
100
AcDbEntity
  8
0
100
AcDbPolyline
 62
7
  6
CONTINUOUS
 90
8
 70
0
 10
405.8344364902
 20
197.8517455402
 10
405.8260948753
 20
197.8516842993
 10
405.8186972824
 20
197.8515359833
 10
405.8118154566
 20
197.8513225461
 10
405.8059942156
 20
197.851052288
 10
405.8014151653
 20
197.8507279761
 10
405.7978966998
 20
197.8503468435
 10
405.7954388191
 20
197.84990889
  0
LINE
  5
2D1
100
AcDbEntity
  8
0
100
AcDbLine
 62
250
  6
CONTINUOUS
 10
405.9179331223
 20
198.1356397262
 11
405.8444387775
 21
198.1350648963
  0
LINE
  5
2D2
100
AcDbEntity
  8
0
100
AcDbLine
 62
7
  6
CONTINUOUS
 10
418.5178723764
 20
197.1993224397
 11
418.3674630356
 21
197.1993224397
  0
LINE
  5
2D3
100
AcDbEntity
  8
0
100
AcDbLine
 62
7
  6
CONTINUOUS
 10
419.6024563146
 20
197.2054616585
 11
419.4837658834
 21
197.2054616585
  0
LINE
  5
2D4
100
AcDbEntity
  8
0
100
AcDbLine
 62
7
  6
CONTINUOUS
 10
417.271624012
 20
197.2054616585
 11
417.152933715
 21
197.2054616585
  0
LINE
  5
2D5
100
AcDbEntity
  8
0
100
AcDbLine
 62
7
  6
CONTINUOUS
 10
406.2694139058
 20
197.7511803042
 11
406.3133020368
 21
197.7511803042
  0
LINE
  5
2D6
100
AcDbEntity
  8
0
100
AcDbLine
 62
7
  6
CONTINUOUS
 10
432.6133020368
 20
197.7511803042
 11
432.6571901678
 21
197.7511803042
  0
LINE
  5
2D7
100
AcDbEntity
  8
0
100
AcDbLine
 62
250
  6
CONTINUOUS
 10
406.1644339206
 20
197.9361312281
 11
405.9767093645
 21
197.9360658907
  0
LINE
  5
2D8
100
AcDbEntity
  8
0
100
AcDbLine
 62
250
  6
CONTINUOUS
 10
432.173993005
 20
198.1124436561
 11
432.1154448222
 21
198.1124436561
  0
LINE
  5
2D9
100
AcDbEntity
  8
0
100
AcDbLine
 62
250
  6
CONTINUOUS
 10
406.8111592514
 20
198.1124436561
 11
406.7526110686
 21
198.1124436561
  0
LINE
  5
2DA
100
AcDbEntity
  8
0
100
AcDbLine
 62
250
  6
CONTINUOUS
 10
406.3058552768
 20
198.135857135
 11
405.9179331223
 21
198.1356397262
  0
LINE
  5
2DB
100
AcDbEntity
  8
0
100
AcDbLine
 62
7
  6
CONTINUOUS
 10
433.092127879
 20
197.8517402531
 11
433.0125856928
 21
197.8517254207
  0
LINE
  5
2DC
100
AcDbEntity
  8
0
100
AcDbLine
 62
7
  6
CONTINUOUS
 10
405.9133446863
 20
197.8517331649
 11
405.8344364902
 21
197.8517455402
  0
LINE
  5
2DD
100
AcDbEntity
  8
0
100
AcDbLine
 62
250
  6
CONTINUOUS
 10
432.9468937692
 20
197.9360784712
 11
432.7621701531
 21
197.9361312281
  0
LINE
  5
2DE
100
AcDbEntity
  8
0
100
AcDbLine
 62
250
  6
CONTINUOUS
 10
432.9968657897
 20
198.1356964293
 11
432.6207487968
 21
198.135857135
  0
LINE
  5
2DF
100
AcDbEntity
  8
0
100
AcDbLine
 62
250
  6
CONTINUOUS
 10
433.0572869834
 20
198.1353151282
 11
432.9968657897
 21
198.1356964293
  0
LINE
  5
2E0
100
AcDbEntity
  8
0
100
AcDbLine
 62
250
  6
CONTINUOUS
 10
433.111081472
 20
198.1347163981
 11
433.0572869834
 21
198.1353151282
  0
LINE
  5
2E1
100
AcDbEntity
  8
0
100
AcDbLine
 62
7
  6
CONTINUOUS
 10
432.6133020368
 20
197.8988972203
 11
432.3122194462
 21
197.9031252094
  0
LINE
  5
2E2
100
AcDbEntity
  8
0
100
AcDbLine
 62
250
  6
CONTINUOUS
 10
433.1612262373
 20
198.1339242839
 11
433.111081472
 21
198.1347163981
  0
LWPOLYLINE
  5
2E3
100
AcDbEntity
  8
0
100
AcDbPolyline
 62
250
  6
CONTINUOUS
 90
4
 70
0
 10
433.0071273362
 20
197.9353156773
 10
432.9934366516
 20
197.9355893601
 10
432.9788775782
 20
197.9358080857
 10
432.9468937692
 20
197.9360784712
  0
LWPOLYLINE
  5
2E4
100
AcDbEntity
  8
0
100
AcDbPolyline
 62
7
  6
CONTINUOUS
 90
19
 70
0
 10
441.3360506201
 20
196.6995836323
 10
441.3561590548
 20
196.6988962286
 10
441.3758685241
 20
196.6963317053
 10
441.3949937143
 20
196.6919807016
 10
441.4134891408
 20
196.6859182388
 10
441.4310666113
 20
196.6782722386
 10
441.447251
 20
196.6693363597
 10
441.4617793055
 20
196.6595013716
 10
441.4748665055
 20
196.6488633209
 10
441.4867802643
 20
196.6372853609
 10
441.4975641303
 20
196.6247777007
 10
441.507068436
 20
196.6115679907
 10
441.515234984
 20
196.5977757947
 10
441.5220617468
 20
196.5835353171
 10
441.5275675965
 20
196.5689697222
 10
441.5317646013
 20
196.5541848182
 10
441.5346920139
 20
196.5392891474
 10
441.5364059505
 20
196.5243903227
 10
441.5369644034
 20
196.5095819058
  0
LWPOLYLINE
  5
2E5
100
AcDbEntity
  8
0
100
AcDbPolyline
 62
7
  6
CONTINUOUS
 90
10
 70
0
 10
421.7337660623
 20
197.053005971
 10
421.7614794729
 20
197.0519771017
 10
421.7878912907
 20
197.049089034
 10
421.8130015156
 20
197.0443417686
 10
421.836771193
 20
197.0377177284
 10
421.8592392776
 20
197.0292344943
 10
421.8805226336
 20
197.0189448052
 10
421.9006602159
 20
197.0068662433
 10
421.9196130698
 20
196.9929812335
 10
421.9373811952
 20
196.97728978
  0
LWPOLYLINE
  5
2E6
100
AcDbEntity
  8
0
100
AcDbPolyline
 62
7
  6
CONTINUOUS
 90
10
 70
0
 10
420.5489091706
 20
197.0540291443
 10
420.5729055705
 20
197.0530850055
 10
420.5957877642
 20
197.050496818
 10
420.6175557517
 20
197.0462645824
 10
420.6381855524
 20
197.0403638187
 10
420.657701147
 20
197.0328190098
 10
420.6761744766
 20
197.0237036018
 10
420.6936295218
 20
197.0130420785
 10
420.7100423021
 20
197.0008099614
 10
420.7254128174
 20
196.9870072538
  0
LINE
  5
2E7
100
AcDbEntity
  8
0
100
AcDbLine
 62
250
  6
CONTINUOUS
 10
406.6111897124
 20
197.9127177491
 11
406.1644339206
 21
197.9361312281
  0
LINE
  5
2E8
100
AcDbEntity
  8
0
100
AcDbLine
 62
250
  6
CONTINUOUS
 10
406.7526110686
 20
198.1124436561
 11
406.3058552768
 21
198.135857135
  0
LWPOLYLINE
  5
2E9
100
AcDbEntity
  8
0
100
AcDbPolyline
 62
250
  6
CONTINUOUS
 90
13
 70
0
 10
441.3200119658
 20
196.5387927895
 10
441.3461036513
 20
196.5370701543
 10
441.3717493322
 20
196.5319712266
 10
441.396510628
 20
196.523583166
 10
441.4199642757
 20
196.5120493557
 10
441.4417093648
 20
196.4975669519
 10
441.4613741908
 20
196.4803835139
 10
441.4786226082
 20
196.460792771
 10
441.4931597772
 20
196.4391296021
 10
441.5047372034
 20
196.415764312
 10
441.5131569853
 20
196.391096301
 10
441.5182751975
 20
196.3655472373
 10
441.5200043504
 20
196.3395538499
  0
LWPOLYLINE
  5
2EA
100
AcDbEntity
  8
0
100
AcDbPolyline
 62
250
  6
CONTINUOUS
 90
13
 70
0
 10
432.3154143613
 20
197.9127177491
 10
432.2893035049
 20
197.9144515126
 10
432.2636416093
 20
197.9195749736
 10
432.2388678683
 20
197.9279996779
 10
432.2154071152
 20
197.9395801199
 10
432.193659401
 20
197.9541177393
 10
432.173993982
 20
197.9713656085
 10
432.1567411203
 20
197.9910377077
 10
432.1422055034
 20
198.0127907799
 10
432.1306479029
 20
198.0362253246
 10
432.1222586821
 20
198.0609264634
 10
432.1171656582
 20
198.0864781524
 10
432.1154448222
 20
198.1124436561
  0
LWPOLYLINE
  5
2EB
100
AcDbEntity
  8
0
100
AcDbPolyline
 62
250
  6
CONTINUOUS
 90
13
 70
0
 10
405.7972788852
 20
197.9261982344
 10
405.7712545249
 20
197.9279722542
 10
405.7456738989
 20
197.9331215002
 10
405.7209731759
 20
197.941558174
 10
405.6975735215
 20
197.9531384238
 10
405.6758739171
 20
197.9676647979
 10
405.6562443574
 20
197.9848896114
 10
405.6390195411
 20
198.0045191684
 10
405.624493164
 20
198.0262187704
 10
405.6129129126
 20
198.0496184241
 10
405.604476239
 20
198.0743191482
 10
405.5993269948
 20
198.0998997769
 10
405.5975529783
 20
198.1259241414
  0
LINE
  5
2EC
100
AcDbEntity
  8
0
100
AcDbLine
 62
7
  6
CONTINUOUS
 10
421.2508193088
 20
196.7716280296
 11
421.4401095939
 21
196.7521873786
  0
LWPOLYLINE
  5
2ED
100
AcDbEntity
  8
0
100
AcDbPolyline
 62
7
  6
CONTINUOUS
 90
8
 70
0
 10
398.4532318568
 20
200.7808763712
 10
398.4564942319
 20
200.7803413686
 10
398.4626220833
 20
200.7798246761
 10
398.4716154111
 20
200.7793262937
 10
398.4836328934
 20
200.778841325
 10
398.498515852
 20
200.7783746665
 10
398.5157882521
 20
200.7779410077
 10
398.5575849578
 20
200.7771756645
  0
LINE
  5
2EE
100
AcDbEntity
  8
0
100
AcDbLine
 62
7
  6
CONTINUOUS
 10
420.0935884547
 20
196.8166484609
 11
420.2777632308
 21
196.7839063778
  0
LWPOLYLINE
  5
2EF
100
AcDbEntity
  8
0
100
AcDbPolyline
 62
250
  6
CONTINUOUS
 90
11
 70
0
 10
405.5975529783
 20
201.2727209789
 10
405.6017120629
 20
201.2716486698
 10
405.6098980196
 20
201.2706152061
 10
405.622005588
 20
201.269620588
 10
405.637872653
 20
201.2686567484
 10
405.6573288213
 20
201.2677317543
 10
405.6802334493
 20
201.2668698064
 10
405.7063834297
 20
201.2660713118
 10
405.735512705
 20
201.2653358633
 10
405.7673782433
 20
201.2646864405
 10
405.8381035222
 20
201.2636502248
  0
LWPOLYLINE
  5
2F0
100
AcDbEntity
  8
0
100
AcDbPolyline
 62
7
  6
CONTINUOUS
 90
43
 70
0
 10
422.8052831337
 20
229.7086229492
 10
422.8253804523
 20
229.7254526473
 10
422.8355819965
 20
229.7342755102
 10
422.845911976
 20
229.7435696482
 10
422.8564290388
 20
229.7533137256
 10
422.8670745369
 20
229.763529076
 10
422.8777167457
 20
229.7743910341
 10
422.8883635306
 20
229.78589982
 10
422.8990070262
 20
229.7980552103
 10
422.9094919116
 20
229.8110318726
 10
422.91981164
 20
229.8248672587
 10
422.9299727583
 20
229.8395239118
 10
422.9398395864
 20
229.8550641368
 10
422.949417906
 20
229.8714834579
 10
422.9587019355
 20
229.8887863446
 10
422.9675386503
 20
229.907048519
 10
422.9759576395
 20
229.9262982431
 10
422.9839293139
 20
229.9465072467
 10
422.9912118814
 20
229.9676664531
 10
422.9978044225
 20
229.9897746719
 10
423.0037078566
 20
230.0128330841
 10
423.0086831499
 20
230.0368361698
 10
423.0127350966
 20
230.0617211211
 10
423.0158589026
 20
230.0875507355
 10
423.0178011518
 20
230.1145079
 10
423.0186440775
 20
230.1426312884
 10
423.0183054463
 20
230.1718822123
 10
423.0162851422
 20
230.2023275133
 10
423.0127064036
 20
230.23416817
 10
423.007445992
 20
230.2672031856
 10
422.999634076
 20
230.3008964421
 10
422.9890594401
 20
230.3355569024
 10
422.9759332997
 20
230.3708755913
 10
422.9600194707
 20
230.4053894995
 10
422.9411346582
 20
230.4389470357
 10
422.919462157
 20
230.4716998043
 10
422.895315667
 20
230.5026396092
 10
422.8684384166
 20
230.5317902152
 10
422.8390871774
 20
230.5591278825
 10
422.8083459646
 20
230.5835731712
 10
422.7765761165
 20
230.6047662812
 10
422.7434162947
 20
230.6230670448
 10
422.7088664993
 20
230.6384754743
  0
LWPOLYLINE
  5
2F1
100
AcDbEntity
  8
0
100
AcDbPolyline
 62
250
  6
CONTINUOUS
 90
13
 70
0
 10
406.1644339206
 20
197.9361312281
 10
406.1824886668
 20
197.9387069203
 10
406.200247223
 20
197.944504196
 10
406.2174194797
 20
197.9534277147
 10
406.2337242755
 20
197.9653304812
 10
406.248896258
 20
197.9800178459
 10
406.2626896486
 20
197.9972519372
 10
406.2748835234
 20
198.0167603314
 10
406.2852720466
 20
198.0382178073
 10
406.2936766772
 20
198.0612473635
 10
406.2999646814
 20
198.0854595629
 10
406.3040439671
 20
198.110465495
 10
406.3058552768
 20
198.135857135
  0
LWPOLYLINE
  5
2F2
100
AcDbEntity
  8
0
100
AcDbPolyline
 62
250
  6
CONTINUOUS
 90
13
 70
0
 10
406.6111897124
 20
197.9127177491
 10
406.6292377045
 20
197.9152918625
 10
406.6469906326
 20
197.9210854996
 10
406.664158611
 20
197.9300038727
 10
406.6804604568
 20
197.9419004389
 10
406.6956310329
 20
197.9565812097
 10
406.7094248934
 20
197.9738094149
 10
406.7216206349
 20
197.9933129725
 10
406.732012296
 20
198.0147675396
 10
406.7404214643
 20
198.0377985013
 10
406.7467144755
 20
198.062017611
 10
406.7507978219
 20
198.0870354412
 10
406.7526110686
 20
198.1124436561
  0
LWPOLYLINE
  5
2F3
100
AcDbEntity
  8
0
100
AcDbPolyline
 62
7
  6
CONTINUOUS
 90
7
 70
0
 10
440.4108157872
 20
200.7779410087
 10
440.4280881889
 20
200.7783746673
 10
440.4429711505
 20
200.7788413256
 10
440.4549886375
 20
200.7793262942
 10
440.4639819719
 20
200.7798246763
 10
440.4701098316
 20
200.7803413687
 10
440.4733722168
 20
200.7808763712
  0
LWPOLYLINE
  5
2F4
100
AcDbEntity
  8
0
100
AcDbPolyline
 62
250
  6
CONTINUOUS
 90
3
 70
0
 10
433.2288254095
 20
201.2663151273
 10
433.1814916247
 20
201.2651269521
 10
433.1571024295
 20
201.2646446519
  0
LINE
  5
2F5
100
AcDbEntity
  8
0
100
AcDbLine
 62
7
  6
CONTINUOUS
 10
440.3690190822
 20
200.7771756658
 11
440.4108157872
 21
200.7779410087
  0
LINE
  5
2F6
100
AcDbEntity
  8
0
100
AcDbLine
 62
7
  6
CONTINUOUS
 10
440.3193627434
 20
200.7765737727
 11
440.3690190822
 21
200.7771756658
  0
LINE
  5
2F7
100
AcDbEntity
  8
0
100
AcDbLine
 62
7
  6
CONTINUOUS
 10
440.2343744556
 20
200.7760226962
 11
440.3193627434
 21
200.7765737727
  0
LINE
  5
2F8
100
AcDbEntity
  8
0
100
AcDbLine
 62
7
  6
CONTINUOUS
 10
433.5078648649
 20
200.7759145763
 11
440.2343744556
 21
200.7760226962
  0
LINE
  5
2F9
100
AcDbEntity
  8
0
100
AcDbLine
 62
7
  6
CONTINUOUS
 10
398.416191372
 20
200.7932131669
 11
405.4706771835
 21
200.7932131669
  0
LINE
  5
2FA
100
AcDbEntity
  8
0
100
AcDbLine
 62
7
  6
CONTINUOUS
 10
433.4559268902
 20
200.7932131669
 11
440.5104127017
 21
200.7932131669
  0
LINE
  5
2FB
100
AcDbEntity
  8
0
100
AcDbLine
 62
7
  6
CONTINUOUS
 10
398.6922296437
 20
200.7760226947
 11
405.4187392088
 21
200.7759145763
  0
LINE
  5
2FC
100
AcDbEntity
  8
0
100
AcDbLine
 62
7
  6
CONTINUOUS
 10
398.6072412955
 20
200.7765737712
 11
398.6922296437
 21
200.7760226947
  0
LINE
  5
2FD
100
AcDbEntity
  8
0
100
AcDbLine
 62
7
  6
CONTINUOUS
 10
398.5575849578
 20
200.7771756645
 11
398.6072412955
 21
200.7765737712
  0
LWPOLYLINE
  5
2FE
100
AcDbEntity
  8
0
100
AcDbPolyline
 62
250
  6
CONTINUOUS
 90
13
 70
0
 10
406.6111897124
 20
201.4859271302
 10
406.6373005687
 20
201.4841933668
 10
406.6629624644
 20
201.4790699057
 10
406.6877362053
 20
201.4706452015
 10
406.7111969584
 20
201.4590647594
 10
406.7329446727
 20
201.44452714
 10
406.7526100917
 20
201.4272792709
 10
406.7698629533
 20
201.4076071716
 10
406.7843985703
 20
201.3858540994
 10
406.7959561707
 20
201.3624195548
 10
406.8043453916
 20
201.337718416
 10
406.8094384155
 20
201.312166727
 10
406.8111592514
 20
201.2862012233
  0
LWPOLYLINE
  5
2FF
100
AcDbEntity
  8
0
100
AcDbPolyline
 62
250
  6
CONTINUOUS
 90
16
 70
0
 10
440.3906348691
 20
196.3395535343
 10
440.3846902588
 20
196.3403225869
 10
440.3793386306
 20
196.3410793269
 10
440.3745514897
 20
196.3418237543
 10
440.3703012882
 20
196.3425566768
 10
440.3665576768
 20
196.3432772868
 10
440.3632888368
 20
196.343983161
 10
440.360466554
 20
196.3446741506
 10
440.3580638793
 20
196.3453504045
 10
440.3560526762
 20
196.3460099464
 10
440.3544062201
 20
196.3466526209
 10
440.3530987062
 20
196.3472785833
 10
440.3521044678
 20
196.3478863237
 10
440.3513984382
 20
196.3484753387
 10
440.3509561648
 20
196.3490461315
 10
440.3507538158
 20
196.3495987023
  0
LWPOLYLINE
  5
300
100
AcDbEntity
  8
0
100
AcDbPolyline
 62
250
  6
CONTINUOUS
 90
13
 70
0
 10
406.1644339206
 20
201.4625136513
 10
406.1824885267
 20
201.4599379918
 10
406.2002469468
 20
201.4541407998
 10
406.2174190783
 20
201.4452174143
 10
406.2337237452
 20
201.4333148461
 10
406.2488956269
 20
201.4186277289
 10
406.2626890057
 20
201.4013938512
 10
406.2748829609
 20
201.3818855684
 10
406.2852716122
 20
201.3604281005
 10
406.2936763876
 20
201.3373984471
 10
406.2999645281
 20
201.3131860442
 10
406.3040439187
 20
201.2881797985
 10
406.3058552768
 20
201.2627877443
  0
LWPOLYLINE
  5
301
100
AcDbEntity
  8
0
100
AcDbPolyline
 62
250
  6
CONTINUOUS
 90
13
 70
0
 10
406.6111897124
 20
201.4859271302
 10
406.6292378198
 20
201.4833529899
 10
406.6469908572
 20
201.4775592852
 10
406.6641589332
 20
201.4686408063
 10
406.6804608759
 20
201.4567440865
 10
406.695631525
 20
201.4420631275
 10
406.7094253905
 20
201.424834762
 10
406.7216210661
 20
201.4053311248
 10
406.7320126258
 20
201.3838765594
 10
406.7404216823
 20
201.3608456773
 10
406.7467145903
 20
201.3366267234
 10
406.750797858
 20
201.3116091294
 10
406.7526110686
 20
201.2862012233
  0
LWPOLYLINE
  5
302
100
AcDbEntity
  8
0
100
AcDbPolyline
 62
250
  6
CONTINUOUS
 90
13
 70
0
 10
432.3154143613
 20
197.9127177491
 10
432.2973662538
 20
197.9152918895
 10
432.2796132165
 20
197.9210855942
 10
432.2624451404
 20
197.9300040731
 10
432.2461431977
 20
197.9419007929
 10
432.2309725486
 20
197.9565817519
 10
432.2171786832
 20
197.9738101174
 10
432.2049830075
 20
197.9933137546
 10
432.1945914478
 20
198.01476832
 10
432.1861823913
 20
198.0377992021
 10
432.1798894833
 20
198.062018156
 10
432.1758062156
 20
198.08703575
 10
432.173993005
 20
198.1124436561
  0
LWPOLYLINE
  5
303
100
AcDbEntity
  8
0
100
AcDbPolyline
 62
250
  6
CONTINUOUS
 90
13
 70
0
 10
432.7621701531
 20
197.9361312281
 10
432.7441155469
 20
197.9387068876
 10
432.7263571268
 20
197.9445040796
 10
432.7091849953
 20
197.953427465
 10
432.6928803284
 20
197.9653300332
 10
432.6777084467
 20
197.9800171505
 10
432.663915068
 20
197.9972510282
 10
432.6517211127
 20
198.016759311
 10
432.6413324614
 20
198.0382167789
 10
432.632927686
 20
198.0612464323
 10
432.6266395456
 20
198.0854588351
 10
432.6225601549
 20
198.1104650809
 10
432.6207487968
 20
198.135857135
  0
LWPOLYLINE
  5
304
100
AcDbEntity
  8
0
100
AcDbPolyline
 62
7
  6
CONTINUOUS
 90
8
 70
0
 10
433.1311652186
 20
197.8499088941
 10
433.1287560682
 20
197.850339604
 10
433.1253242394
 20
197.8507156554
 10
433.1208697322
 20
197.8510370483
 10
433.1152377592
 20
197.851307018
 10
433.1085831077
 20
197.8515223291
 10
433.1013701406
 20
197.8516732754
 10
433.0935868723
 20
197.8517372755
  0
LWPOLYLINE
  5
305
100
AcDbEntity
  8
0
100
AcDbPolyline
 62
7
  6
CONTINUOUS
 90
10
 70
0
 10
420.7708388125
 20
197.152049808
 10
420.7468807894
 20
197.1633335516
 10
420.7227171983
 20
197.1732634842
 10
420.6983480394
 20
197.1818396035
 10
420.6738844119
 20
197.1890398519
 10
420.6492152165
 20
197.1948862833
 10
420.6240071552
 20
197.1994450638
 10
420.5981491285
 20
197.2027382482
 10
420.5717522359
 20
197.2047437799
 10
420.5448164773
 20
197.2054616585
  0
LWPOLYLINE
  5
306
100
AcDbEntity
  8
0
100
AcDbPolyline
 62
7
  6
CONTINUOUS
 90
10
 70
0
 10
420.223279209
 20
195.7901044106
 10
420.252463223
 20
195.7658657258
 10
420.2834077239
 20
195.7444030984
 10
420.3161127117
 20
195.7257165173
 10
420.350479452
 20
195.7097753848
 10
420.3866066791
 20
195.6966102808
 10
420.4247905963
 20
195.6863129625
 10
420.4651299377
 20
195.6789140124
 10
420.5075259692
 20
195.6743828386
 10
420.5519786906
 20
195.6727194385
  0
LINE
  5
307
100
AcDbEntity
  8
0
100
AcDbLine
 62
7
  6
CONTINUOUS
 10
413.8511510368
 20
192.2624244397
 11
413.4925230368
 21
193.3243224397
  0
LINE
  5
308
100
AcDbEntity
  8
0
100
AcDbLine
 62
7
  6
CONTINUOUS
 10
413.4141630368
 20
193.1224424397
 11
413.7658640368
 21
192.0743224397
  0
LINE
  5
309
100
AcDbEntity
  8
0
100
AcDbLine
 62
250
  6
CONTINUOUS
 10
406.6111897124
 20
201.4859271302
 11
406.6143846275
 21
201.49551967
  0
LINE
  5
30A
100
AcDbEntity
  8
0
100
AcDbLine
 62
250
  6
CONTINUOUS
 10
406.8111592514
 20
201.2862012233
 11
406.8133020368
 21
201.2926348071
  0
LINE
  5
30B
100
AcDbEntity
  8
0
100
AcDbLine
 62
7
  6
CONTINUOUS
 10
398.4541318488
 20
201.6372629165
 11
398.416191372
 21
201.5993224397
  0
LINE
  5
30C
100
AcDbEntity
  8
0
100
AcDbLine
 62
7
  6
CONTINUOUS
 10
440.4819572055
 20
227.6837357088
 11
440.5287554244
 21
227.6993224397
  0
LINE
  5
30D
100
AcDbEntity
  8
0
100
AcDbLine
 62
7
  6
CONTINUOUS
 10
433.238372287
 20
224.5814937435
 11
433.1657880753
 21
224.5592051067
  0
LINE
  5
30E
100
AcDbEntity
  8
0
100
AcDbLine
 62
7
  6
CONTINUOUS
 10
433.1657880753
 20
224.5592051067
 11
433.1311652879
 21
224.5487359929
  0
LWPOLYLINE
  5
30F
100
AcDbEntity
  8
0
100
AcDbPolyline
 62
7
  6
CONTINUOUS
 90
46
 70
0
 10
433.238372287
 20
224.5814937435
 10
433.2473385811
 20
224.5841528246
 10
433.256062271
 20
224.5865324519
 10
433.2645383839
 20
224.5886456517
 10
433.2727561024
 20
224.5905026381
 10
433.2807185236
 20
224.5921188659
 10
433.2884424841
 20
224.5935140089
 10
433.2959252748
 20
224.5946992771
 10
433.3031653649
 20
224.595685746
 10
433.3101818626
 20
224.5964907604
 10
433.3169732305
 20
224.5971240617
 10
433.3235392342
 20
224.597594999
 10
433.3299010946
 20
224.5979182131
 10
433.3360579048
 20
224.5981019914
 10
433.342010399
 20
224.5981540005
 10
433.3477820916
 20
224.5980858011
 10
433.3533723669
 20
224.5979042822
 10
433.358782513
 20
224.5976154577
 10
433.3640384045
 20
224.5972273534
 10
433.3691393713
 20
224.5967455341
 10
433.3740869388
 20
224.5961743993
 10
433.3789094377
 20
224.5955178963
 10
433.3836058051
 20
224.5947803568
 10
433.3881775332
 20
224.5939645794
 10
433.3926555659
 20
224.5930697255
 10
433.3970380604
 20
224.5920990007
 10
433.4013262452
 20
224.5910535468
 10
433.4055539816
 20
224.5899267029
 10
433.4097175774
 20
224.5887208696
 10
433.413818343
 20
224.5874351582
 10
433.4178952441
 20
224.5860547893
 10
433.4219478842
 20
224.5845791249
 10
433.4259711802
 20
224.5830068805
 10
433.4299941535
 20
224.5813190512
 10
433.4340253408
 20
224.5795080389
 10
433.438046835
 20
224.5775765032
 10
433.4420464713
 20
224.5755195424
 10
433.4460306916
 20
224.5733281698
 10
433.4499828237
 20
224.571007384
 10
433.4538580377
 20
224.5685754404
 10
433.4576503956
 20
224.5660328743
 10
433.4613596899
 20
224.5633799946
 10
433.4649536866
 20
224.5606381773
 10
433.4684217424
 20
224.5578165535
 10
433.4717726555
 20
224.5549103753
 10
433.4750053622
 20
224.5519217014
  0
LWPOLYLINE
  5
310
100
AcDbEntity
  8
0
100
AcDbPolyline
 62
250
  6
CONTINUOUS
 90
13
 70
0
 10
405.7972788852
 20
201.4724466449
 10
405.7712562082
 20
201.470672851
 10
405.7456768537
 20
201.4655241775
 10
405.7209769488
 20
201.4570882754
 10
405.6975776424
 20
201.445508841
 10
405.6758779606
 20
201.4309831879
 10
405.6562479916
 20
201.413758902
 10
405.6390225068
 20
201.3941295706
 10
405.6244953181
 20
201.3724298286
 10
405.6129142644
 20
201.3490297036
 10
405.6044769041
 20
201.3243282002
 10
405.5993271746
 20
201.2987464773
 10
405.5975529709
 20
201.2727207454
  0
LINE
  5
311
100
AcDbEntity
  8
0
100
AcDbLine
 62
250
  6
CONTINUOUS
 10
406.3058552768
 20
201.2627877443
 11
406.7526110686
 21
201.2862012233
  0
LINE
  5
312
100
AcDbEntity
  8
0
100
AcDbLine
 62
250
  6
CONTINUOUS
 10
406.1644339206
 20
201.4625136513
 11
406.6111897124
 21
201.4859271302
  0
LWPOLYLINE
  5
313
100
AcDbEntity
  8
0
100
AcDbPolyline
 62
250
  6
CONTINUOUS
 90
4
 70
0
 10
433.0310776358
 20
201.4639598518
 10
433.0052806924
 20
201.4632885311
 10
432.9918619646
 20
201.4630281034
 10
432.9776276065
 20
201.462820364
  0
LINE
  5
314
100
AcDbEntity
  8
0
100
AcDbLine
 62
250
  6
CONTINUOUS
 10
433.1571024295
 20
201.2646446519
 11
433.1070312365
 21
201.2638752148
  0
LINE
  5
315
100
AcDbEntity
  8
0
100
AcDbLine
 62
7
  6
CONTINUOUS
 10
432.6133020368
 20
201.499747659
 11
432.3122194462
 21
201.49551967
  0
LINE
  5
316
100
AcDbEntity
  8
0
100
AcDbLine
 62
250
  6
CONTINUOUS
 10
433.1070312365
 20
201.2638752148
 11
433.0541291777
 21
201.2633023224
  0
LWPOLYLINE
  5
317
100
AcDbEntity
  8
0
100
AcDbPolyline
 62
7
  6
CONTINUOUS
 90
15
 70
0
 10
398.7230435036
 20
201.6520949722
 10
398.6932073335
 20
201.6518559876
 10
398.6642326468
 20
201.6514633286
 10
398.6358122251
 20
201.6509091243
 10
398.6082532868
 20
201.6502012456
 10
398.5824774872
 20
201.6493633045
 10
398.5585906267
 20
201.6483929639
 10
398.5364869049
 20
201.647292561
 10
398.5167705762
 20
201.6460927197
 10
398.4994832258
 20
201.6447889739
 10
398.4845832684
 20
201.6433857897
 10
398.4725502023
 20
201.6419271897
 10
398.4635438599
 20
201.6404278478
 10
398.4574044088
 20
201.6388730901
 10
398.4541318488
 20
201.6372629165
  0
LINE
  5
318
100
AcDbEntity
  8
0
100
AcDbLine
 62
250
  6
CONTINUOUS
 10
432.9776276065
 20
201.462820364
 11
432.9464243535
 21
201.4625632005
  0
LINE
  5
319
100
AcDbEntity
  8
0
100
AcDbLine
 62
250
  6
CONTINUOUS
 10
433.0541291777
 20
201.2633023224
 11
432.9630255699
 21
201.2628374323
  0
LINE
  5
31A
100
AcDbEntity
  8
0
100
AcDbLine
 62
250
  6
CONTINUOUS
 10
432.9630255699
 20
201.2628374323
 11
432.6207487968
 21
201.2627877443
  0
LINE
  5
31B
100
AcDbEntity
  8
0
100
AcDbLine
 62
250
  6
CONTINUOUS
 10
432.173993005
 20
201.2862012233
 11
432.1154448222
 21
201.2862012233
  0
LINE
  5
31C
100
AcDbEntity
  8
0
100
AcDbLine
 62
250
  6
CONTINUOUS
 10
406.7526110686
 20
201.2862012233
 11
406.8111592514
 21
201.2862012233
  0
LINE
  5
31D
100
AcDbEntity
  8
0
100
AcDbLine
 62
250
  6
CONTINUOUS
 10
432.9464243535
 20
201.4625632005
 11
432.7621701531
 21
201.4625136513
  0
LINE
  5
31E
100
AcDbEntity
  8
0
100
AcDbLine
 62
7
  6
CONTINUOUS
 10
398.416191372
 20
201.5993224397
 11
405.6704030904
 21
201.5993224397
  0
LINE
  5
31F
100
AcDbEntity
  8
0
100
AcDbLine
 62
7
  6
CONTINUOUS
 10
433.2562009832
 20
201.5993224397
 11
440.5104127017
 21
201.5993224397
  0
LINE
  5
320
100
AcDbEntity
  8
0
100
AcDbLine
 62
7
  6
CONTINUOUS
 10
398.7230435036
 20
201.6520949722
 11
406.3133020368
 21
201.6521802847
  0
LINE
  5
321
100
AcDbEntity
  8
0
100
AcDbLine
 62
7
  6
CONTINUOUS
 10
398.4333517743
 20
202.6993224397
 11
440.4932522993
 21
202.6993224397
  0
LINE
  5
322
100
AcDbEntity
  8
0
100
AcDbLine
 62
250
  6
CONTINUOUS
 10
405.9156995958
 20
201.263011943
 11
406.3058552768
 21
201.2627877443
  0
LINE
  5
323
100
AcDbEntity
  8
0
100
AcDbLine
 62
250
  6
CONTINUOUS
 10
405.8381035222
 20
201.2636502248
 11
405.9156995958
 21
201.263011943
  0
LINE
  5
324
100
AcDbEntity
  8
0
100
AcDbLine
 62
7
  6
CONTINUOUS
 10
406.3133020368
 20
201.499747659
 11
406.6143846275
 21
201.49551967
  0
LINE
  5
325
100
AcDbEntity
  8
0
100
AcDbLine
 62
250
  6
CONTINUOUS
 10
432.6207487968
 20
201.2627877443
 11
432.173993005
 21
201.2862012233
  0
LINE
  5
326
100
AcDbEntity
  8
0
100
AcDbLine
 62
250
  6
CONTINUOUS
 10
432.7621701531
 20
201.4625136513
 11
432.3154143613
 21
201.4859271302
  0
LWPOLYLINE
  5
327
100
AcDbEntity
  8
0
100
AcDbPolyline
 62
250
  6
CONTINUOUS
 90
16
 70
0
 10
440.5746733252
 20
196.5387927895
 10
440.5711359371
 20
196.5395616676
 10
440.5679197634
 20
196.5403182835
 10
440.5650248042
 20
196.5410626371
 10
440.5624686533
 20
196.5417955574
 10
440.5602337169
 20
196.5425162155
 10
440.5582672132
 20
196.5432221242
 10
440.5565679602
 20
196.5439131055
 10
440.55513714
 20
196.5445893374
 10
440.5539255166
 20
196.5452488658
 10
440.5529320202
 20
196.5458915475
 10
440.5521577207
 20
196.5465175257
 10
440.5515565916
 20
196.5471252766
 10
440.5511132908
 20
196.5477142923
 10
440.5508431604
 20
196.5482850807
 10
440.5507462004
 20
196.5488376419
  0
LWPOLYLINE
  5
328
100
AcDbEntity
  8
0
100
AcDbPolyline
 62
250
  6
CONTINUOUS
 90
10
 70
0
 10
433.3290510954
 20
198.1259238258
 10
433.3249371717
 20
198.1269841244
 10
433.3170185718
 20
198.1279941606
 10
433.3055832315
 20
198.1289539344
 10
433.2908516739
 20
198.1298717229
 10
433.2732018928
 20
198.1307392489
 10
433.2533331247
 20
198.1315316809
 10
433.2318876856
 20
198.1322386392
 10
433.2091607218
 20
198.1328705034
 10
433.1612262373
 20
198.1339242839
  0
LINE
  5
329
100
AcDbEntity
  8
0
100
AcDbLine
 62
7
  6
CONTINUOUS
 10
433.183516288
 20
197.834036571
 11
433.1311652186
 21
197.8499088941
  0
LINE
  5
32A
100
AcDbEntity
  8
0
100
AcDbLine
 62
7
  6
CONTINUOUS
 10
433.238372287
 20
197.8171511359
 11
433.183516288
 21
197.834036571
  0
LWPOLYLINE
  5
32B
100
AcDbEntity
  8
0
100
AcDbPolyline
 62
7
  6
CONTINUOUS
 90
10
 70
0
 10
422.0796050232
 20
197.0857479882
 10
422.0513083955
 20
197.1103968708
 10
422.0205524153
 20
197.1322593909
 10
421.9873370827
 20
197.151335538
 10
421.951608321
 20
197.1676925814
 10
421.9134202068
 20
197.1812632352
 10
421.8729349702
 20
197.1918456579
 10
421.8302066878
 20
197.1993725658
 10
421.7851812829
 20
197.2039112334
 10
421.7378587556
 20
197.2054616585
  0
LINE
  5
32C
100
AcDbEntity
  8
0
100
AcDbLine
 62
7
  6
CONTINUOUS
 10
398.4541318488
 20
220.7613819628
 11
398.416191372
 21
220.7993224397
  0
LWPOLYLINE
  5
32D
100
AcDbEntity
  8
0
100
AcDbPolyline
 62
7
  6
CONTINUOUS
 90
10
 70
0
 10
420.366781016
 20
195.8937289018
 10
420.349381514
 20
195.9114560297
 10
420.3333734878
 20
195.9311623374
 10
420.3187569374
 20
195.9528478322
 10
420.3055664137
 20
195.9766854727
 10
420.2937673659
 20
196.0025023172
 10
420.2832561412
 20
196.0297795208
 10
420.2739981888
 20
196.0583441388
 10
420.2660280594
 20
196.08836913
 10
420.2593457532
 20
196.1198545023
  0
LWPOLYLINE
  5
32E
100
AcDbEntity
  8
0
100
AcDbPolyline
 62
7
  6
CONTINUOUS
 90
10
 70
0
 10
420.7254128174
 20
196.9870072538
 10
420.7399617196
 20
196.9715237336
 10
420.7527804989
 20
196.9552969473
 10
420.7638691554
 20
196.938326897
 10
420.7732126185
 20
196.9206572932
 10
420.7808259589
 20
196.9022444298
 10
420.786754388
 20
196.8829571851
 10
420.7910129764
 20
196.8627518542
 10
420.7935866536
 20
196.8416721482
 10
420.7944754195
 20
196.8197180703
  0
LWPOLYLINE
  5
32F
100
AcDbEntity
  8
0
100
AcDbPolyline
 62
7
  6
CONTINUOUS
 90
10
 70
0
 10
420.7791274619
 20
196.3470031842
 10
420.7965631109
 20
196.3279459034
 10
420.8119261352
 20
196.3079101617
 10
420.8252165348
 20
196.2868959627
 10
420.83641312
 20
196.2649770665
 10
420.8455370804
 20
196.2420797204
 10
420.852651985
 20
196.2179826601
 10
420.8577790233
 20
196.1926121346
 10
420.8608970058
 20
196.166041906
 10
420.8620059323
 20
196.1382719799
  0
LWPOLYLINE
  5
330
100
AcDbEntity
  8
0
100
AcDbPolyline
 62
7
  6
CONTINUOUS
 90
10
 70
0
 10
420.9837659491
 20
196.3838380532
 10
420.9671567908
 20
196.4040335785
 10
420.9489903111
 20
196.4227560828
 10
420.9292665101
 20
196.440005561
 10
420.9080275671
 20
196.4558128042
 10
420.8852313028
 20
196.4701470127
 10
420.8607511793
 20
196.4829157961
 10
420.8345450172
 20
196.4940883552
 10
420.8066549958
 20
196.5036954825
 10
420.7770811152
 20
196.5117371752
  0
LINE
  5
331
100
AcDbEntity
  8
0
100
AcDbLine
 62
7
  6
CONTINUOUS
 10
419.4171770368
 20
193.0894724397
 11
420.0561280368
 21
192.0743224397
  0
LINE
  5
332
100
AcDbEntity
  8
0
100
AcDbLine
 62
7
  6
CONTINUOUS
 10
420.0822500368
 20
192.3089674397
 11
419.4537120368
 21
193.3243224397
  0
LINE
  5
333
100
AcDbEntity
  8
0
100
AcDbLine
 62
7
  6
CONTINUOUS
 10
415.7122740368
 20
192.0743224397
 11
415.2596460368
 21
193.3243224397
  0
LINE
  5
334
100
AcDbEntity
  8
0
100
AcDbLine
 62
7
  6
CONTINUOUS
 10
415.4041160368
 20
192.4381514397
 11
415.5277110368
 21
192.0743224397
  0
LINE
  5
335
100
AcDbEntity
  8
0
100
AcDbLine
 62
7
  6
CONTINUOUS
 10
415.1569980368
 20
193.1430114397
 11
415.3432290368
 21
192.5878684397
  0
LINE
  5
336
100
AcDbEntity
  8
0
100
AcDbLine
 62
250
  6
CONTINUOUS
 10
406.6143846275
 20
220.9031252094
 11
406.6111897124
 21
220.9127177491
  0
LINE
  5
337
100
AcDbEntity
  8
0
100
AcDbLine
 62
250
  6
CONTINUOUS
 10
406.8133020368
 20
221.1060100722
 11
406.8111592514
 21
221.1124436561
  0
LINE
  5
338
100
AcDbEntity
  8
0
100
AcDbLine
 62
7
  6
CONTINUOUS
 10
413.2505210368
 20
193.3243224397
 11
413.2505210368
 21
192.0743224397
  0
LINE
  5
339
100
AcDbEntity
  8
0
100
AcDbLine
 62
7
  6
CONTINUOUS
 10
413.4141630368
 20
192.0743224397
 11
413.4141630368
 21
193.1224424397
  0
LINE
  5
33A
100
AcDbEntity
  8
0
100
AcDbLine
 62
7
  6
CONTINUOUS
 10
413.4633020368
 20
193.8993224397
 11
413.4633020368
 21
194.6993224397
  0
LINE
  5
33B
100
AcDbEntity
  8
0
100
AcDbLine
 62
7
  6
CONTINUOUS
 10
413.4633020368
 20
227.6993224397
 11
413.4633020368
 21
228.4993224397
  0
LINE
  5
33C
100
AcDbEntity
  8
0
100
AcDbLine
 62
7
  6
CONTINUOUS
 10
416.9086910368
 20
230.6806744397
 11
416.5354830368
 21
229.3729514397
  0
LINE
  5
33D
100
AcDbEntity
  8
0
100
AcDbLine
 62
7
  6
CONTINUOUS
 10
416.6943060368
 20
228.7808284397
 11
417.3049920368
 21
230.6806744397
  0
LINE
  5
33E
100
AcDbEntity
  8
0
100
AcDbLine
 62
7
  6
CONTINUOUS
 10
418.7278410368
 20
227.1493224397
 11
418.0410010368
 21
225.2493224397
  0
LINE
  5
33F
100
AcDbEntity
  8
0
100
AcDbLine
 62
7
  6
CONTINUOUS
 10
419.4189660368
 20
230.6806744397
 11
419.0223940368
 21
229.6258744397
  0
LINE
  5
340
100
AcDbEntity
  8
0
100
AcDbLine
 62
7
  6
CONTINUOUS
 10
419.0480380368
 20
228.7808284397
 11
419.5195630368
 21
230.0162204397
  0
LWPOLYLINE
  5
341
100
AcDbEntity
  8
0
100
AcDbPolyline
 62
7
  6
CONTINUOUS
 90
25
 70
0
 10
406.2694139058
 20
197.7511803042
 10
406.2498765442
 20
197.7075739411
 10
406.2263903774
 20
197.6672460937
 10
406.1989554056
 20
197.6301967408
 10
406.1671447335
 20
197.5960569949
 10
406.1313852563
 20
197.565195707
 10
406.0929576599
 20
197.53871946
 10
406.0517642629
 20
197.5167869849
 10
406.0079027468
 20
197.4992395153
 10
405.9629468414
 20
197.4867073846
 10
405.9168576144
 20
197.4793728057
 10
405.8696739983
 20
197.4770535491
 10
405.82308652
 20
197.4798332888
 10
405.7771161676
 20
197.4878968898
 10
405.7317419532
 20
197.5010594965
 10
405.6885914405
 20
197.5188502081
 10
405.6477451222
 20
197.5414372293
 10
405.6091225056
 20
197.5686523865
 10
405.5741096764
 20
197.5995202119
 10
405.542835763
 20
197.6341881544
 10
405.5151716369
 20
197.6725088046
 10
405.4921159986
 20
197.7130643971
 10
405.4740017484
 20
197.7553823491
 10
405.460495986
 20
197.7999352708
 10
405.4515987114
 20
197.846723178
  0
LINE
  5
342
100
AcDbEntity
  8
0
100
AcDbLine
 62
7
  6
CONTINUOUS
 10
425.4633020368
 20
227.6993224397
 11
425.4427471105
 21
227.6787675134
  0
LWPOLYLINE
  5
343
100
AcDbEntity
  8
0
100
AcDbPolyline
 62
250
  6
CONTINUOUS
 90
13
 70
0
 10
433.1293251884
 20
197.9261982344
 10
433.1270128884
 20
197.9272577259
 10
433.1231015762
 20
197.9282672712
 10
433.1175912516
 20
197.9292268704
 10
433.1102391622
 20
197.9301449687
 10
433.1012880605
 20
197.9310131209
 10
433.0914662045
 20
197.9318059914
 10
433.0808446938
 20
197.9325129609
 10
433.0693524288
 20
197.9331446488
 10
433.0575043686
 20
197.9337075772
 10
433.0455127828
 20
197.9341982226
 10
433.0331654018
 20
197.9346201085
 10
433.0071273362
 20
197.9353156773
  0
LINE
  5
344
100
AcDbEntity
  8
0
100
AcDbLine
 62
7
  6
CONTINUOUS
 10
425.4633020368
 20
194.6993224397
 11
425.4427471105
 21
194.719877366
  0
LWPOLYLINE
  5
345
100
AcDbEntity
  8
0
100
AcDbPolyline
 62
7
  6
CONTINUOUS
 90
10
 70
0
 10
421.9373811952
 20
196.97728978
 10
421.9539940256
 20
196.9599082055
 10
421.9686255915
 20
196.94179344
 10
421.9812758928
 20
196.9229454858
 10
421.9919228642
 20
196.9034141909
 10
422.000588571
 20
196.883149712
 10
422.0073392093
 20
196.8620025155
 10
422.0121968444
 20
196.8399227589
 10
422.0151394108
 20
196.8169602915
 10
422.0161669087
 20
196.7931151166
  0
LWPOLYLINE
  5
346
100
AcDbEntity
  8
0
100
AcDbPolyline
 62
7
  6
CONTINUOUS
 90
10
 70
0
 10
420.9282873214
 20
197.0088711181
 10
420.9155298571
 20
197.028559589
 10
420.9016285049
 20
197.0472874778
 10
420.8865832648
 20
197.0650547813
 10
420.870447891
 20
197.0818406207
 10
420.8531686293
 20
197.0976658692
 10
420.8345842169
 20
197.1125931516
 10
420.8146408994
 20
197.1266433415
 10
420.7933924313
 20
197.139795561
 10
420.7708388125
 20
197.152049808
  0
LWPOLYLINE
  5
347
100
AcDbEntity
  8
RACCORDO
100
AcDbPolyline
 62
250
  6
CONTINUOUS
 90
73
 70
0
 10
414.2715596063
 20
211.1993224397
 10
414.2764846847
 20
210.9728271228
 10
414.2912189794
 20
210.7473497044
 10
414.3157624903
 20
210.5228902299
 10
414.3502027061
 20
210.2989265042
 10
414.3944521381
 20
210.07598081
 10
414.4482483207
 20
209.8556199028
 10
414.5116385726
 20
209.6379706387
 10
414.584575575
 20
209.4229062275
 10
414.6666549063
 20
209.211612941
 10
414.7579362535
 20
209.0040907962
 10
414.8583599296
 20
208.8003398121
 10
414.9673424508
 20
208.601546246
 10
415.0849289363
 20
208.4077486369
 10
415.211074267
 20
208.2189084456
 10
415.3450596028
 20
208.036096292
 10
415.4869310935
 20
207.8593443794
 10
415.6366425892
 20
207.6886204685
 10
415.7933368
 20
207.5248984966
 10
415.9570529551
 20
207.3682193733
 10
416.1277518252
 20
207.2185421225
 10
416.3044584326
 20
207.0767178373
 10
416.487206911
 20
206.9427914191
 10
416.6759631267
 20
206.8167178797
 10
416.8696497004
 20
206.6992134655
 10
417.0682942201
 20
206.5903272464
 10
417.2718690978
 20
206.4900100588
 10
417.4792141895
 20
206.3988307924
 10
417.6903506921
 20
206.3168414563
 10
417.9052574086
 20
206.2439899549
 10
418.1227106045
 20
206.1806890216
 10
418.3427244816
 20
206.1269929202
 10
418.5652848381
 20
206.0828473208
 10
418.7891253332
 20
206.0485020712
 10
419.0142529137
 20
206.0240127531
 10
419.2406606329
 20
206.0093237493
 10
419.4670613098
 20
206.0045181165
 10
419.6934550201
 20
206.0096518522
 10
419.9198416882
 20
206.0246689591
 10
420.1449339067
 20
206.0494845116
 10
420.3687244701
 20
206.0841541087
 10
420.5912205839
 20
206.1286221874
 10
420.8111564568
 20
206.1826370865
 10
421.0285178686
 20
206.2462531124
 10
421.2433190394
 20
206.3194160252
 10
421.4543368383
 20
206.4017113489
 10
421.6615500531
 20
206.4931911886
 10
421.8649798959
 20
206.5938035258
 10
422.0634668731
 20
206.7029776995
 10
422.2569831754
 20
206.8207627313
 10
422.4455566121
 20
206.9471096933
 10
422.6281111163
 20
207.0813009939
 10
422.8046128659
 20
207.2233819637
 10
422.9750956832
 20
207.3733073587
 10
423.1385849682
 20
207.530223713
 10
423.2950399245
 20
207.6941697752
 10
423.4445013486
 20
207.8651068628
 10
423.5861170305
 20
208.0420653471
 10
423.7198470388
 20
208.2250895513
 10
423.845731305
 20
208.4141351878
 10
423.9630374127
 20
208.6080996921
 10
424.0717062393
 20
208.8069923893
 10
424.1717969074
 20
209.0108039537
 10
424.2627543698
 20
209.2184038246
 10
424.3445450294
 20
209.4299093273
 10
424.4172024832
 20
209.6452031007
 10
424.4802724752
 20
209.8628025369
 10
424.5336555405
 20
210.0827514968
 10
424.577451144
 20
210.3050060515
 10
424.6115034246
 20
210.5279518937
 10
424.6357604285
 20
210.7510508905
 10
424.6502741094
 20
210.9748410873
 10
424.6550444673
 20
211.1993224397
  0
LINE
  5
348
100
AcDbEntity
  8
0
100
AcDbLine
 62
7
  6
CONTINUOUS
 10
414.2846360368
 20
193.1241604397
 11
414.2846360368
 21
192.0743224397
  0
LINE
  5
349
100
AcDbEntity
  8
0
100
AcDbLine
 62
7
  6
CONTINUOUS
 10
414.4483440368
 20
192.0743224397
 11
414.4483440368
 21
193.3243224397
  0
LINE
  5
34A
100
AcDbEntity
  8
0
100
AcDbLine
 62
7
  6
CONTINUOUS
 10
415.1066640368
 20
227.1493224397
 11
415.1066640368
 21
225.2493224397
  0
LINE
  5
34B
100
AcDbEntity
  8
0
100
AcDbLine
 62
7
  6
CONTINUOUS
 10
415.5145780368
 20
225.2493224397
 11
415.5145780368
 21
225.9809934397
  0
LINE
  5
34C
100
AcDbEntity
  8
0
100
AcDbLine
 62
7
  6
CONTINUOUS
 10
415.5145780368
 20
226.2967424397
 11
415.5145780368
 21
226.8335734397
  0
LWPOLYLINE
  5
34D
100
AcDbEntity
  8
RACCORDO
100
AcDbPolyline
 62
250
  6
CONTINUOUS
 90
103
 70
0
 10
413.9144881849
 20
211.1993224397
 10
413.9173423049
 20
211.3771540626
 10
413.9257070752
 20
211.5519556681
 10
413.9392975582
 20
211.723541689
 10
413.9577374969
 20
211.890974164
 10
413.9808019307
 20
212.0548855485
 10
414.0086371207
 20
212.2174587839
 10
414.041296184
 20
212.3791710576
 10
414.078604989
 20
212.5392811686
 10
414.1206124722
 20
212.6981166163
 10
414.1672660531
 20
212.8555192087
 10
414.2185173323
 20
213.0113778932
 10
414.2745042896
 20
213.1660667957
 10
414.3352857675
 20
213.3195996619
 10
414.400789869
 20
213.4716544659
 10
414.4709934528
 20
213.6220883339
 10
414.5458705203
 20
213.7707576095
 10
414.6253879656
 20
213.9175036963
 10
414.709506402
 20
214.0621602354
 10
414.7981920592
 20
214.2045929534
 10
414.8913840362
 20
214.3446368971
 10
414.9889874552
 20
214.4820843619
 10
415.0909663724
 20
214.6168169625
 10
415.1972323655
 20
214.748657335
 10
415.3075850196
 20
214.8773260926
 10
415.4219318374
 20
215.002693184
 10
415.5401806363
 20
215.1246288402
 10
415.6621015606
 20
215.242878796
 10
415.7875378338
 20
215.3573019616
 10
415.9164061779
 20
215.4678305789
 10
416.0485645221
 20
215.5743428259
 10
416.1838714037
 20
215.6767235967
 10
416.3222150514
 20
215.7748972377
 10
416.4634978178
 20
215.868801261
 10
416.6075980465
 20
215.9583528049
 10
416.7543745242
 20
216.0434568647
 10
416.9036981112
 20
216.1240370503
 10
417.0554325641
 20
216.2000238621
 10
417.2094310864
 20
216.2713428871
 10
417.3655436023
 20
216.3379190756
 10
417.5236238296
 20
216.3996861873
 10
417.6835239886
 20
216.4565916122
 10
417.8450908721
 20
216.5085826763
 10
418.0081720924
 20
216.5556073649
 10
418.1726185053
 20
216.5976173994
 10
418.3382784874
 20
216.6345776692
 10
418.504996514
 20
216.6664565491
 10
418.6726164724
 20
216.6932223063
 10
418.8409846321
 20
216.7148443528
 10
419.0099450428
 20
216.7313032523
 10
419.1793375211
 20
216.7425873744
 10
419.3490009369
 20
216.748685419
 10
419.5187760081
 20
216.7495865187
 10
419.6885044891
 20
216.7452877908
 10
419.8580267418
 20
216.7357981634
 10
420.0271833074
 20
216.7211275911
 10
420.1958159446
 20
216.7012859564
 10
420.3637673464
 20
216.6762872455
 10
420.5308812419
 20
216.6461591173
 10
420.6970010389
 20
216.6109321143
 10
420.8619704974
 20
216.5706367575
 10
421.0256335797
 20
216.5253052617
 10
421.1878379466
 20
216.4749824175
 10
421.3484331601
 20
216.4197187104
 10
421.5072682733
 20
216.3595647296
 10
421.6641923616
 20
216.2945715664
 10
421.8190587708
 20
216.2247995968
 10
421.9717253385
 20
216.1503177748
 10
422.1220477698
 20
216.0711964967
 10
422.2698800148
 20
215.9875074879
 10
422.4150818772
 20
215.8993267142
 10
422.5575202991
 20
215.8067409062
 10
422.69706092
 20
215.7098396652
 10
422.8335661719
 20
215.6087152717
 10
422.9669106214
 20
215.5034550534
 10
423.0969847867
 20
215.3941499201
 10
423.223671678
 20
215.2809001359
 10
423.3468462651
 20
215.1638129198
 10
423.4663890543
 20
215.0429923208
 10
423.5822012117
 20
214.9185372037
 10
423.6941622335
 20
214.7905799452
 10
423.8021298635
 20
214.6592843269
 10
423.9060232313
 20
214.5247440177
 10
424.0057238158
 20
214.3871139352
 10
424.1010549647
 20
214.246666167
 10
424.1919516762
 20
214.1035306613
 10
424.2783331485
 20
213.9578613638
 10
424.3600334011
 20
213.8099863006
 10
424.4369998581
 20
213.660091551
 10
424.5092131816
 20
213.5083053832
 10
424.5765951228
 20
213.3548860957
 10
424.6388352741
 20
213.2007355839
 10
424.6962565609
 20
213.0452850486
 10
424.7495502436
 20
212.8865165902
 10
424.7984064538
 20
212.7249111304
 10
424.8427551319
 20
212.5601936458
 10
424.8831456989
 20
212.3890701393
 10
424.9190884292
 20
212.2114290056
 10
424.9500013513
 20
212.0275130279
 10
424.9756649516
 20
211.8344673418
 10
424.9952665199
 20
211.6314323796
 10
425.0077369455
 20
211.4196168341
 10
425.0121158887
 20
211.1993224397
  0
LWPOLYLINE
  5
34E
100
AcDbEntity
  8
RACCORDO
100
AcDbPolyline
 62
250
  6
CONTINUOUS
 90
103
 70
0
 10
413.5574167635
 20
211.1993224017
 10
413.5609514975
 20
211.3888118803
 10
413.5697526559
 20
211.5747220598
 10
413.5838202386
 20
211.7570529167
 10
413.6032290624
 20
211.9351340939
 10
413.6279043105
 20
212.1096359104
 10
413.6576215324
 20
212.2825693568
 10
413.6923344955
 20
212.4545834262
 10
413.7320894323
 20
212.6250290903
 10
413.7768005901
 20
212.7939703051
 10
413.8264119613
 20
212.9613959953
 10
413.8809795535
 20
213.1273172077
 10
413.9405856367
 20
213.2918310828
 10
414.0052805816
 20
213.4551295216
 10
414.0750140176
 20
213.6170205988
 10
414.1497171033
 20
213.7770257189
 10
414.2294088288
 20
213.9351511256
 10
414.3140702041
 20
214.0913905614
 10
414.4035754175
 20
214.2452466846
 10
414.4979547768
 20
214.3967313089
 10
414.5971779743
 20
214.5458326187
 10
414.7010282749
 20
214.6920178352
 10
414.8095597112
 20
214.8353071835
 10
414.9227182507
 20
214.9756804496
 10
415.0401250616
 20
215.1125442051
 10
415.1618110266
 20
215.245874517
 10
415.287745263
 20
215.3756953433
 10
415.4174562916
 20
215.5014850997
 10
415.5509232849
 20
215.6231842448
 10
415.6881670704
 20
215.7408523569
 10
415.8287786516
 20
215.8541465369
 10
415.9727478342
 20
215.963039962
 10
416.1200848126
 20
216.0675594987
 10
416.270411173
 20
216.1674427874
 10
416.4237442373
 20
216.2626868059
 10
416.5800666837
 20
216.3532946231
 10
416.7389481329
 20
216.439013018
 10
416.9004004774
 20
216.5198309401
 10
417.0644118246
 20
216.5957594868
 10
417.2305161182
 20
216.6665786603
 10
417.398717288
 20
216.7322721056
 10
417.5690114041
 20
216.7928562214
 10
417.74092062
 20
216.8481601403
 10
417.9144488651
 20
216.8981689726
 10
418.08959221
 20
216.942897645
 10
418.2658610193
 20
216.9822200139
 10
418.4432584548
 20
217.0161214844
 10
418.6217813547
 20
217.0446166786
 10
418.8009305985
 20
217.067623277
 10
418.9807082051
 20
217.0851257062
 10
419.1611121556
 20
217.0971395552
 10
419.3416372721
 20
217.1036292444
 10
419.5222849513
 20
217.1045789011
 10
419.7030537965
 20
217.1000044009
 10
419.8834344399
 20
217.0899177831
 10
420.0634254753
 20
217.0743037963
 10
420.2430283088
 20
217.0531776819
 10
420.4217377916
 20
217.0265972144
 10
420.5995503729
 20
216.9945473697
 10
420.7764696035
 20
216.9570431497
 10
420.9520009868
 20
216.9141873654
 10
421.1261410923
 20
216.8659644926
 10
421.2988933505
 20
216.8123900225
 10
421.469773556
 20
216.753613288
 10
421.6387774346
 20
216.6896195583
 10
421.8059092605
 20
216.6204235231
 10
421.9706976498
 20
216.5462186455
 10
422.1331365601
 20
216.4669905827
 10
422.2932320338
 20
216.3827536315
 10
422.4505308154
 20
216.2937442159
 10
422.6050236362
 20
216.1999489001
 10
422.7567197649
 20
216.1013810723
 10
422.9051937512
 20
215.9983173951
 10
423.0504330147
 20
215.8907489993
 10
423.1924501359
 20
215.7786847085
 10
423.3308574068
 20
215.6624277285
 10
423.4656497872
 20
215.5419636878
 10
423.5968323173
 20
215.4173069178
 10
423.724032409
 20
215.2888036833
 10
423.8472493146
 20
215.1564268338
 10
423.9664837817
 20
215.0202034882
 10
424.0813654655
 20
214.880561322
 10
424.1918946731
 20
214.7374515498
 10
424.2980710973
 20
214.5909229367
 10
424.3995234717
 20
214.4415494916
 10
424.4962256971
 20
214.2892996
 10
424.5882038726
 20
214.1342048704
 10
424.6751650292
 20
213.9769341559
 10
424.7570580268
 20
213.8175080576
 10
424.8339340054
 20
213.6559059833
 10
424.9056534161
 20
213.4927350046
 10
424.9720023505
 20
213.3288206577
 10
425.033194717
 20
213.1633374298
 10
425.0897326919
 20
212.9944158155
 10
425.1418514057
 20
212.8225389858
 10
425.1893157279
 20
212.6472237854
 10
425.2319224425
 20
212.465151204
 10
425.2701948935
 20
212.2761353014
 10
425.3036097371
 20
212.0803620308
 10
425.3303937253
 20
211.8750702115
 10
425.3499557755
 20
211.6593394611
 10
425.3628869705
 20
211.4340902041
 10
425.3691873101
 20
211.1993224776
  0
LINE
  5
34F
100
AcDbEntity
  8
0
100
AcDbLine
 62
7
  6
CONTINUOUS
 10
420.4435350368
 20
228.7808284397
 11
420.5529640368
 21
229.1601054397
  0
LINE
  5
350
100
AcDbEntity
  8
0
100
AcDbLine
 62
7
  6
CONTINUOUS
 10
420.6471780368
 20
230.6806744397
 11
420.0512650368
 21
228.7808284397
  0
LINE
  5
351
100
AcDbEntity
  8
0
100
AcDbLine
 62
7
  6
CONTINUOUS
 10
418.6777900368
 20
225.9677654397
 11
418.9595240368
 21
226.7862524397
  0
LINE
  5
352
100
AcDbEntity
  8
0
100
AcDbLine
 62
7
  6
CONTINUOUS
 10
418.4304680368
 20
225.2493224397
 11
418.5725400368
 21
225.6520164397
  0
LINE
  5
353
100
AcDbEntity
  8
0
100
AcDbLine
 62
7
  6
CONTINUOUS
 10
433.5078648649
 20
221.6227303031
 11
433.4559268902
 21
221.6054317124
  0
LINE
  5
354
100
AcDbEntity
  8
0
100
AcDbLine
 62
7
  6
CONTINUOUS
 10
433.5078648649
 20
200.7759145763
 11
433.4559268902
 21
200.7932131669
  0
LWPOLYLINE
  5
355
100
AcDbEntity
  8
0
100
AcDbPolyline
 62
250
  6
CONTINUOUS
 90
11
 70
0
 10
440.6509666508
 20
196.2371283129
 10
440.6167378568
 20
196.25316897
 10
440.5846755752
 20
196.2679431775
 10
440.554662098
 20
196.2815110504
 10
440.5259251243
 20
196.2939242297
 10
440.4984245836
 20
196.3053741695
 10
440.4726499807
 20
196.3156694156
 10
440.4487703221
 20
196.3242872472
 10
440.4269919046
 20
196.3310534241
 10
440.4075439149
 20
196.3361421864
 10
440.3906348691
 20
196.3395535343
  0
LWPOLYLINE
  5
356
100
AcDbEntity
  8
0
100
AcDbPolyline
 62
250
  6
CONTINUOUS
 90
4
 70
0
 10
440.8507347773
 20
196.1402457579
 10
440.8073504648
 20
196.1617603686
 10
440.7654180332
 20
196.1821973491
 10
440.6509666508
 20
196.2371283129
  0
LINE
  5
357
100
AcDbEntity
  8
0
100
AcDbLine
 62
7
  6
CONTINUOUS
 10
424.5635680368
 20
193.3243224397
 11
425.0353640368
 21
192.5774564397
  0
LINE
  5
358
100
AcDbEntity
  8
0
100
AcDbLine
 62
7
  6
CONTINUOUS
 10
425.1189670368
 20
192.7236354397
 11
424.7602930368
 21
193.3243224397
  0
LWPOLYLINE
  5
359
100
AcDbEntity
  8
0
100
AcDbPolyline
 62
7
  6
CONTINUOUS
 90
33
 70
0
 10
416.9077164319
 20
192.7409711101
 10
416.906062107
 20
192.7809138245
 10
416.9027788876
 20
192.8191505672
 10
416.8977204942
 20
192.855682594
 10
416.8910332063
 20
192.8905086204
 10
416.8831558625
 20
192.9236248224
 10
416.8740938972
 20
192.9549437637
 10
416.8638418761
 20
192.9845528556
 10
416.8528223347
 20
193.0127105476
 10
416.841259112
 20
193.0394762953
 10
416.8289283691
 20
193.0647906258
 10
416.8155811249
 20
193.0887335986
 10
416.8010118587
 20
193.1112652779
 10
416.7854260912
 20
193.1324255855
 10
416.769191404
 20
193.1524143694
 10
416.7523863895
 20
193.1712606272
 10
416.7349324553
 20
193.1889353515
 10
416.7169614051
 20
193.2055513849
 10
416.698575601
 20
193.2211727899
 10
416.6796726809
 20
193.2357354967
 10
416.6600773622
 20
193.2491601498
 10
416.6396708223
 20
193.2614127489
 10
416.6185718839
 20
193.2725272879
 10
416.5969617328
 20
193.2825264027
 10
416.5748215541
 20
193.2913998117
 10
416.5521701628
 20
193.2991577919
 10
416.5292451894
 20
193.3058538186
 10
416.5060724133
 20
193.3114876937
 10
416.4826260552
 20
193.3160596123
 10
416.4590664074
 20
193.3196236402
 10
416.4354469005
 20
193.3221977988
 10
416.4117141039
 20
193.3237640655
 10
416.3878680176
 20
193.3243224397
  0
LWPOLYLINE
  5
35A
100
AcDbEntity
  8
0
100
AcDbPolyline
 62
7
  6
CONTINUOUS
 90
37
 70
0
 10
416.469905598
 20
226.5651581707
 10
416.469513801
 20
226.5969463087
 10
416.467853365
 20
226.6284120296
 10
416.4649242897
 20
226.6595553351
 10
416.4608246423
 20
226.6904415868
 10
416.4554563558
 20
226.7210054264
 10
416.448525229
 20
226.7510507768
 10
416.4399630327
 20
226.7806532946
 10
416.4298379962
 20
226.8097373286
 10
416.4180606068
 20
226.8378798438
 10
416.4046066817
 20
226.8650547782
 10
416.3895004037
 20
226.8912882036
 10
416.3727248084
 20
226.9162352888
 10
416.3541538266
 20
226.9398458473
 10
416.3339135275
 20
226.9621700775
 10
416.3123651551
 20
226.9830137271
 10
416.289501324
 20
227.0023031861
 10
416.2653294195
 20
227.020112076
 10
416.240232842
 20
227.0364669914
 10
416.2141696867
 20
227.0513221688
 10
416.1871818584
 20
227.0647233806
 10
416.1597784718
 20
227.0768345244
 10
416.1320935206
 20
227.0876005879
 10
416.1039930111
 20
227.0970765891
 10
416.0755840763
 20
227.1055914707
 10
416.0469777206
 20
227.1131998998
 10
416.0180629396
 20
227.1198472122
 10
415.9886138542
 20
227.1256983519
 10
415.9586501888
 20
227.1307714449
 10
415.9281522189
 20
227.1350483669
 10
415.8968348922
 20
227.1386396857
 10
415.8647166284
 20
227.1414596146
 10
415.8317790077
 20
227.1435939411
 10
415.7976817191
 20
227.145410594
 10
415.7623113255
 20
227.147032216
 10
415.7257812638
 20
227.1483361646
 10
415.6880915342
 20
227.1493224397
  0
LINE
  5
35B
100
AcDbEntity
  8
0
100
AcDbLine
 62
7
  6
CONTINUOUS
 10
415.8759120368
 20
193.3243224397
 11
415.8759120368
 21
192.0743224397
  0
LINE
  5
35C
100
AcDbEntity
  8
0
100
AcDbLine
 62
7
  6
CONTINUOUS
 10
416.0448360368
 20
192.2187824397
 11
416.0448360368
 21
193.1798624397
  0
LINE
  5
35D
100
AcDbEntity
  8
0
100
AcDbLine
 62
7
  6
CONTINUOUS
 10
416.7191001755
 20
196.8289268091
 11
416.7191001755
 21
196.6508913412
  0
LINE
  5
35E
100
AcDbEntity
  8
0
100
AcDbLine
 62
7
  6
CONTINUOUS
 10
416.7251650368
 20
227.1493224397
 11
416.7251650368
 21
225.2493224397
  0
LINE
  5
35F
100
AcDbEntity
  8
0
100
AcDbLine
 62
7
  6
CONTINUOUS
 10
417.0874494147
 20
196.872924067
 11
417.0874494147
 21
195.6993224397
  0
LINE
  5
360
100
AcDbEntity
  8
0
100
AcDbLine
 62
7
  6
CONTINUOUS
 10
417.1330790368
 20
225.5650714397
 11
417.1330790368
 21
227.1493224397
  0
LINE
  5
361
100
AcDbEntity
  8
0
100
AcDbLine
 62
7
  6
CONTINUOUS
 10
417.1416310368
 20
193.3243224397
 11
417.1416310368
 21
192.0743224397
  0
LINE
  5
362
100
AcDbEntity
  8
0
100
AcDbLine
 62
7
  6
CONTINUOUS
 10
417.271624012
 20
195.6993224397
 11
417.271624012
 21
197.2054616585
  0
LINE
  5
363
100
AcDbEntity
  8
0
100
AcDbLine
 62
7
  6
CONTINUOUS
 10
417.3105460368
 20
192.2240394397
 11
417.3105460368
 21
192.6418514397
  0
LINE
  5
364
100
AcDbEntity
  8
0
100
AcDbLine
 62
7
  6
CONTINUOUS
 10
417.3105460368
 20
192.7915684397
 11
417.3105460368
 21
193.1746054397
  0
LINE
  5
365
100
AcDbEntity
  8
0
100
AcDbLine
 62
7
  6
CONTINUOUS
 10
417.4521610368
 20
230.6807884397
 11
417.4521610368
 21
228.7808284397
  0
LWPOLYLINE
  5
366
100
AcDbEntity
  8
0
100
AcDbPolyline
 62
7
  6
CONTINUOUS
 90
21
 70
0
 10
416.0356333597
 20
226.5855092078
 10
416.0356415952
 20
226.5447313465
 10
416.0344992564
 20
226.5247044544
 10
416.0322519823
 20
226.505077496
 10
416.0289490308
 20
226.4857938459
 10
416.024541144
 20
226.4669101323
 10
416.0188805483
 20
226.4485962377
 10
416.0119100445
 20
226.4307780922
 10
416.0036868317
 20
226.4135297693
 10
415.9942347336
 20
226.397243368
 10
415.9835500272
 20
226.3818413502
 10
415.9716364355
 20
226.3674012594
 10
415.9585289513
 20
226.3545478199
 10
415.944054478
 20
226.3435463219
 10
415.928386112
 20
226.3341314824
 10
415.912078136
 20
226.3261321665
 10
415.895142955
 20
226.3196732312
 10
415.877568164
 20
226.3146298232
 10
415.8598708296
 20
226.3104562405
 10
415.8422085874
 20
226.3071871475
 10
415.824423802
 20
226.304787881
  0
LWPOLYLINE
  5
367
100
AcDbEntity
  8
0
100
AcDbPolyline
 62
7
  6
CONTINUOUS
 90
25
 70
0
 10
416.7339838841
 20
192.6993224397
 10
416.7338823624
 20
192.6673544574
 10
416.7326150723
 20
192.6361735193
 10
416.7301820137
 20
192.60577962
 10
416.7265479541
 20
192.5762136772
 10
416.7217481259
 20
192.5474347626
 10
416.7158882273
 20
192.5193201025
 10
416.7091705335
 20
192.4917507045
 10
416.7013927692
 20
192.4648455534
 10
416.6920538057
 20
192.4388388402
 10
416.6810256433
 20
192.4136977222
 10
416.6684362816
 20
192.389455032
 10
416.6541685915
 20
192.3664434707
 10
416.6381319449
 20
192.3446383453
 10
416.6204169699
 20
192.3240643364
 10
416.6011784213
 20
192.305128203
 10
416.58029487
 20
192.2878547979
 10
416.5578877452
 20
192.2722192546
 10
416.5344760892
 20
192.2585537499
 10
416.5100736642
 20
192.2469620859
 10
416.4846667081
 20
192.237340449
 10
416.4587329772
 20
192.2297095931
 10
416.4324317238
 20
192.2240764342
 10
416.4056036958
 20
192.2204340503
 10
416.378248893
 20
192.2187824397
  0
LINE
  5
368
100
AcDbEntity
  8
0
100
AcDbLine
 62
7
  6
CONTINUOUS
 10
418.4416110368
 20
228.7808284397
 11
418.5271920368
 21
230.0213924397
  0
LINE
  5
369
100
AcDbEntity
  8
0
100
AcDbLine
 62
7
  6
CONTINUOUS
 10
418.2337660368
 20
230.6806744397
 11
418.0622210368
 21
228.7808284397
  0
LINE
  5
36A
100
AcDbEntity
  8
0
100
AcDbLine
 62
7
  6
CONTINUOUS
 10
420.6340850368
 20
229.4535884397
 11
420.8315450368
 21
230.1586454397
  0
LINE
  5
36B
100
AcDbEntity
  8
0
100
AcDbLine
 62
7
  6
CONTINUOUS
 10
422.6252270368
 20
225.9677654397
 11
422.9069240368
 21
226.7861454397
  0
LINE
  5
36C
100
AcDbEntity
  8
0
100
AcDbLine
 62
7
  6
CONTINUOUS
 10
422.3778330368
 20
225.2493224397
 11
422.5199770368
 21
225.6520164397
  0
LINE
  5
36D
100
AcDbEntity
  8
0
100
AcDbLine
 62
7
  6
CONTINUOUS
 10
422.6752780368
 20
227.1493224397
 11
421.9883660368
 21
225.2493224397
  0
LWPOLYLINE
  5
36E
100
AcDbEntity
  8
0
100
AcDbPolyline
 62
250
  6
CONTINUOUS
 90
16
 70
0
 10
405.9494954918
 20
197.8499089695
 10
405.9425182776
 20
197.839843069
 10
405.934176327
 20
197.8308193571
 10
405.9246328851
 20
197.8230278347
 10
405.9140705617
 20
197.8166491304
 10
405.9027140287
 20
197.8118012768
 10
405.8908017988
 20
197.8085282239
 10
405.8785536768
 20
197.8068730844
 10
405.8661920057
 20
197.8068857556
 10
405.8539480225
 20
197.8085659841
 10
405.8420381031
 20
197.81186545
 10
405.8306884265
 20
197.8167395106
 10
405.8201527152
 20
197.8231322118
 10
405.8106550029
 20
197.8309146428
 10
405.8023653054
 20
197.8399044848
 10
405.7954386809
 20
197.8499089968
  0
LINE
  5
36F
100
AcDbEntity
  8
0
100
AcDbLine
 62
7
  6
CONTINUOUS
 10
423.5486070368
 20
192.0743224397
 11
423.0958870368
 21
193.3243224397
  0
LINE
  5
370
100
AcDbEntity
  8
0
100
AcDbLine
 62
7
  6
CONTINUOUS
 10
423.2404080368
 20
192.4381514397
 11
423.3640130368
 21
192.0743224397
  0
LINE
  5
371
100
AcDbEntity
  8
0
100
AcDbLine
 62
7
  6
CONTINUOUS
 10
422.9932190368
 20
193.1430114397
 11
423.1794600368
 21
192.5878684397
  0
LINE
  5
372
100
AcDbEntity
  8
0
100
AcDbLine
 62
7
  6
CONTINUOUS
 10
417.6829473805
 20
196.2272897139
 11
417.6829473805
 21
196.0584629624
  0
LINE
  5
373
100
AcDbEntity
  8
0
100
AcDbLine
 62
7
  6
CONTINUOUS
 10
417.8360780368
 20
225.2493224397
 11
417.8360780368
 21
225.5650714397
  0
LINE
  5
374
100
AcDbEntity
  8
0
100
AcDbLine
 62
7
  6
CONTINUOUS
 10
417.8487330368
 20
228.7808284397
 11
417.8487330368
 21
230.6807884397
  0
LINE
  5
375
100
AcDbEntity
  8
0
100
AcDbLine
 62
7
  6
CONTINUOUS
 10
417.9947450368
 20
192.6418514397
 11
417.9947450368
 21
192.7915684397
  0
LINE
  5
376
100
AcDbEntity
  8
0
100
AcDbLine
 62
7
  6
CONTINUOUS
 10
418.0521950368
 20
193.1746054397
 11
418.0521950368
 21
193.3243224397
  0
LINE
  5
377
100
AcDbEntity
  8
0
100
AcDbLine
 62
7
  6
CONTINUOUS
 10
418.0643970368
 20
192.0743224397
 11
418.0643970368
 21
192.2240394397
  0
LINE
  5
378
100
AcDbEntity
  8
0
100
AcDbLine
 62
7
  6
CONTINUOUS
 10
418.3336977792
 20
196.9036198034
 11
418.3336977792
 21
196.2272897139
  0
LINE
  5
379
100
AcDbEntity
  8
0
100
AcDbLine
 62
7
  6
CONTINUOUS
 10
418.3336977792
 20
196.0584629624
 11
418.3336977792
 21
195.6993224397
  0
LINE
  5
37A
100
AcDbEntity
  8
0
100
AcDbLine
 62
7
  6
CONTINUOUS
 10
418.5178723764
 20
195.6993224397
 11
418.5178723764
 21
196.0584629624
  0
LINE
  5
37B
100
AcDbEntity
  8
0
100
AcDbLine
 62
7
  6
CONTINUOUS
 10
418.5178723764
 20
196.2272897139
 11
418.5178723764
 21
197.1993224397
  0
LINE
  5
37C
100
AcDbEntity
  8
0
100
AcDbLine
 62
7
  6
CONTINUOUS
 10
418.7204644513
 20
196.0584629624
 11
418.7204644513
 21
196.2272897139
  0
LINE
  5
37D
100
AcDbEntity
  8
0
100
AcDbLine
 62
7
  6
CONTINUOUS
 10
418.7956350368
 20
193.3243224397
 11
418.7956350368
 21
192.0743224397
  0
LINE
  5
37E
100
AcDbEntity
  8
0
100
AcDbLine
 62
7
  6
CONTINUOUS
 10
418.9644980368
 20
192.0743224397
 11
418.9644980368
 21
193.3243224397
  0
LINE
  5
37F
100
AcDbEntity
  8
0
100
AcDbLine
 62
7
  6
CONTINUOUS
 10
419.049932344
 20
196.8289268091
 11
419.049932344
 21
196.6508913412
  0
LINE
  5
380
100
AcDbEntity
  8
0
100
AcDbLine
 62
7
  6
CONTINUOUS
 10
419.2534590368
 20
193.3243224397
 11
419.2534590368
 21
192.0743224397
  0
LINE
  5
381
100
AcDbEntity
  8
0
100
AcDbLine
 62
7
  6
CONTINUOUS
 10
419.4171770368
 20
192.0743224397
 11
419.4171770368
 21
193.0894724397
  0
LINE
  5
382
100
AcDbEntity
  8
0
100
AcDbLine
 62
7
  6
CONTINUOUS
 10
419.4182815385
 20
196.872924067
 11
419.4182815385
 21
195.6993224397
  0
LINE
  5
383
100
AcDbEntity
  8
0
100
AcDbLine
 62
7
  6
CONTINUOUS
 10
419.6024563146
 20
195.6993224397
 11
419.6024563146
 21
197.2054616585
  0
LINE
  5
384
100
AcDbEntity
  8
0
100
AcDbLine
 62
250
  6
CONTINUOUS
 10
405.4222551149
 20
197.950626278
 11
405.5975529783
 21
198.1259241414
  0
LINE
  5
385
100
AcDbEntity
  8
0
100
AcDbLine
 62
250
  6
CONTINUOUS
 10
397.3508636032
 20
189.7594773519
 11
397.2407240108
 21
189.6493377595
  0
LINE
  5
386
100
AcDbEntity
  8
0
100
AcDbLine
 62
250
  6
CONTINUOUS
 10
405.7972788852
 20
197.9261982344
 11
405.6882317866
 21
197.8171511359
  0
LINE
  5
387
100
AcDbEntity
  8
0
100
AcDbLine
 62
250
  6
CONTINUOUS
 10
441.1058941601
 20
233.1090138378
 11
441.2160337525
 21
233.2191534302
  0
LINE
  5
388
100
AcDbEntity
  8
0
100
AcDbLine
 62
250
  6
CONTINUOUS
 10
397.8207099136
 20
189.2896310415
 11
397.7105703212
 21
189.1794914492
  0
LINE
  5
389
100
AcDbEntity
  8
0
100
AcDbLine
 62
250
  6
CONTINUOUS
 10
433.1293251884
 20
224.4724466449
 11
433.238372287
 21
224.5814937435
  0
LWPOLYLINE
  5
38A
100
AcDbEntity
  8
0
100
AcDbPolyline
 62
7
  6
CONTINUOUS
 90
16
 70
0
 10
398.4541318488
 20
220.7613819628
 10
398.4574044164
 20
220.7597717895
 10
398.4635438739
 20
220.7582170321
 10
398.4725502212
 20
220.7567176906
 10
398.484583291
 20
220.755259091
 10
398.4994832506
 20
220.7538559072
 10
398.5167706022
 20
220.7525521618
 10
398.5364869312
 20
220.7513523209
 10
398.5585906521
 20
220.7502519183
 10
398.582477511
 20
220.749281578
 10
398.608253313
 20
220.7484436373
 10
398.635812253
 20
220.7477357589
 10
398.6642326611
 20
220.7471815546
 10
398.6932073143
 20
220.7467888951
 10
398.7230434357
 20
220.7465499096
 10
406.3133020368
 20
220.7464645946
  0
LINE
  5
38B
100
AcDbEntity
  8
0
100
AcDbLine
 62
250
  6
CONTINUOUS
 10
405.5975529783
 20
224.2727207379
 11
405.4222551149
 21
224.4480186014
  0
LINE
  5
38C
100
AcDbEntity
  8
0
100
AcDbLine
 62
250
  6
CONTINUOUS
 10
397.2407240108
 20
232.7493071198
 11
397.3508636032
 21
232.6391675274
  0
LINE
  5
38D
100
AcDbEntity
  8
0
100
AcDbLine
 62
250
  6
CONTINUOUS
 10
405.6882317866
 20
224.5814937435
 11
405.7972788852
 21
224.4724466449
  0
LINE
  5
38E
100
AcDbEntity
  8
0
100
AcDbLine
 62
250
  6
CONTINUOUS
 10
441.2160337525
 20
189.1794914492
 11
441.1058941601
 21
189.2896310415
  0
LINE
  5
38F
100
AcDbEntity
  8
0
100
AcDbLine
 62
250
  6
CONTINUOUS
 10
397.7105703212
 20
233.2191534302
 11
397.8207099136
 21
233.1090138378
  0
LINE
  5
390
100
AcDbEntity
  8
0
100
AcDbLine
 62
250
  6
CONTINUOUS
 10
433.238372287
 20
197.8171511359
 11
433.1293251884
 21
197.9261982344
  0
LWPOLYLINE
  5
391
100
AcDbEntity
  8
0
100
AcDbPolyline
 62
7
  6
CONTINUOUS
 90
10
 70
0
 10
420.0751709771
 20
196.0952978953
 10
420.0809638291
 20
196.0533699126
 10
420.0894137382
 20
196.0135325794
 10
420.1005207044
 20
195.9757858808
 10
420.1142729311
 20
195.9402447609
 10
420.130682215
 20
195.9067942473
 10
420.1497839457
 20
195.8750894525
 10
420.1715899199
 20
195.8450154086
 10
420.196088341
 20
195.8166870644
 10
420.223279209
 20
195.7901044106
  0
LINE
  5
392
100
AcDbEntity
  8
0
100
AcDbLine
 62
7
  6
CONTINUOUS
 10
419.9889930368
 20
228.7808284397
 11
419.8113360368
 21
230.6806744397
  0
LINE
  5
393
100
AcDbEntity
  8
0
100
AcDbLine
 62
7
  6
CONTINUOUS
 10
419.5195630368
 20
230.0162204397
 11
419.6010400368
 21
228.7808284397
  0
LWPOLYLINE
  5
394
100
AcDbEntity
  8
0
100
AcDbPolyline
 62
7
  6
CONTINUOUS
 90
10
 70
0
 10
422.2054575515
 20
196.7890223339
 10
422.203759526
 20
196.8280653231
 10
422.1990263008
 20
196.8654986197
 10
422.191257876
 20
196.9013222129
 10
422.180502515
 20
196.9354142965
 10
422.1667119544
 20
196.9678966565
 10
422.1497414039
 20
196.9991346732
 10
422.1295426002
 20
197.0292501365
 10
422.1061638067
 20
197.0581212436
 10
422.0796050232
 20
197.0857479882
  0
LWPOLYLINE
  5
395
100
AcDbEntity
  8
0
100
AcDbPolyline
 62
7
  6
CONTINUOUS
 90
10
 70
0
 10
421.0574356151
 20
196.142364718
 10
421.0564637783
 20
196.1743939152
 10
421.0536565716
 20
196.2051453489
 10
421.049013995
 20
196.2346190117
 10
421.0424934493
 20
196.2628441329
 10
421.0341375336
 20
196.2897914698
 10
421.024074046
 20
196.3153733073
 10
421.0123455857
 20
196.3395604029
 10
420.9989095534
 20
196.3623819868
 10
420.9837659491
 20
196.3838380532
  0
LWPOLYLINE
  5
396
100
AcDbEntity
  8
0
100
AcDbPolyline
 62
7
  6
CONTINUOUS
 90
10
 70
0
 10
420.9837660623
 20
196.8156252875
 10
420.9830982901
 20
196.8378517109
 10
420.9810799574
 20
196.8598543954
 10
420.977711064
 20
196.8816333401
 10
420.9730230399
 20
196.903141778
 10
420.9669844553
 20
196.9244264742
 10
420.9595010201
 20
196.9456277267
 10
420.9505413044
 20
196.9667923015
 10
420.9401367382
 20
196.9878734321
 10
420.9282873214
 20
197.0088711181
  0
LINE
  5
397
100
AcDbEntity
  8
0
100
AcDbLine
 62
7
  6
CONTINUOUS
 10
420.0804290368
 20
227.1493224397
 11
420.0804290368
 21
225.2493224397
  0
LINE
  5
398
100
AcDbEntity
  8
0
100
AcDbLine
 62
7
  6
CONTINUOUS
 10
420.0822500368
 20
193.3243224397
 11
420.0822500368
 21
192.3089674397
  0
LINE
  5
399
100
AcDbEntity
  8
0
100
AcDbLine
 62
7
  6
CONTINUOUS
 10
420.2458870368
 20
192.0743224397
 11
420.2458870368
 21
193.3243224397
  0
LINE
  5
39A
100
AcDbEntity
  8
0
100
AcDbLine
 62
7
  6
CONTINUOUS
 10
420.4620300368
 20
225.2493224397
 11
420.4620300368
 21
226.8394944397
  0
LINE
  5
39B
100
AcDbEntity
  8
0
100
AcDbLine
 62
7
  6
CONTINUOUS
 10
421.0205940368
 20
193.3243224397
 11
421.0205940368
 21
192.0743224397
  0
LINE
  5
39C
100
AcDbEntity
  8
0
100
AcDbLine
 62
7
  6
CONTINUOUS
 10
421.1895080368
 20
192.0743224397
 11
421.1895080368
 21
193.3243224397
  0
LINE
  5
39D
100
AcDbEntity
  8
0
100
AcDbLine
 62
7
  6
CONTINUOUS
 10
421.3705740368
 20
193.3243224397
 11
421.3705740368
 21
193.1746054397
  0
LINE
  5
39E
100
AcDbEntity
  8
0
100
AcDbLine
 62
7
  6
CONTINUOUS
 10
421.4146400368
 20
227.1493224397
 11
421.4146400368
 21
225.6436624397
  0
LINE
  5
39F
100
AcDbEntity
  8
0
100
AcDbLine
 62
7
  6
CONTINUOUS
 10
421.7301866396
 20
230.6584778984
 11
421.7301866396
 21
228.7808286937
  0
LINE
  5
3A0
100
AcDbEntity
  8
0
100
AcDbLine
 62
7
  6
CONTINUOUS
 10
421.7936430368
 20
193.1746054397
 11
421.7936430368
 21
192.0743224397
  0
LINE
  5
3A1
100
AcDbEntity
  8
0
100
AcDbLine
 62
7
  6
CONTINUOUS
 10
421.7962420368
 20
225.2493224397
 11
421.7962420368
 21
227.1493224397
  0
LWPOLYLINE
  5
3A2
100
AcDbEntity
  8
0
100
AcDbPolyline
 62
7
  6
CONTINUOUS
 90
10
 70
0
 10
420.8620059323
 20
196.1382719799
 10
420.8607813462
 20
196.1089835619
 10
420.8573900104
 20
196.0808762357
 10
420.8518319248
 20
196.0539499952
 10
420.8441352407
 20
196.0282875049
 10
420.8342718069
 20
196.0038060888
 10
420.8221571694
 20
195.9802577325
 10
420.8077631768
 20
195.9575597622
 10
420.7911179805
 20
195.9357948441
 10
420.7722215804
 20
195.9149629744
  0
LWPOLYLINE
  5
3A3
100
AcDbEntity
  8
0
100
AcDbPolyline
 62
7
  6
CONTINUOUS
 90
10
 70
0
 10
420.7944754195
 20
196.8197180703
 10
420.7932946257
 20
196.7919532143
 10
420.7897763944
 20
196.7658807122
 10
420.7839207257
 20
196.7415005565
 10
420.7757094889
 20
196.7188163301
 10
420.7651608147
 20
196.6978244361
 10
420.752329095
 20
196.6785140977
 10
420.7372324607
 20
196.6608817191
 10
420.7198527809
 20
196.6449308852
 10
420.7001900556
 20
196.6306615913
  0
LINE
  5
3A4
100
AcDbEntity
  8
0
100
AcDbLine
 62
7
  6
CONTINUOUS
 10
413.9330020368
 20
192.0743224397
 11
414.2846360368
 21
193.1241604397
  0
LINE
  5
3A5
100
AcDbEntity
  8
0
100
AcDbLine
 62
7
  6
CONTINUOUS
 10
414.2080590368
 20
193.3243224397
 11
413.8511510368
 21
192.2624244397
  0
LINE
  5
3A6
100
AcDbEntity
  8
0
100
AcDbLine
 62
7
  6
CONTINUOUS
 10
414.7721510368
 20
192.0743224397
 11
414.9027410368
 21
192.4381514397
  0
LINE
  5
3A7
100
AcDbEntity
  8
0
100
AcDbLine
 62
7
  6
CONTINUOUS
 10
414.9549860368
 20
192.5878684397
 11
415.1569980368
 21
193.1430114397
  0
LINE
  5
3A8
100
AcDbEntity
  8
0
100
AcDbLine
 62
7
  6
CONTINUOUS
 10
415.0681070368
 20
193.3243224397
 11
414.5980710368
 21
192.0743224397
  0
LINE
  5
3A9
100
AcDbEntity
  8
0
100
AcDbLine
 62
250
  6
CONTINUOUS
 10
441.5757404705
 20
232.6391675274
 11
441.6858800628
 21
232.7493071198
  0
LINE
  5
3AA
100
AcDbEntity
  8
0
100
AcDbLine
 62
250
  6
CONTINUOUS
 10
433.5043489588
 20
224.4480186014
 11
433.3290510954
 21
224.2727207379
  0
LWPOLYLINE
  5
3AB
100
AcDbEntity
  8
0
100
AcDbPolyline
 62
7
  6
CONTINUOUS
 90
16
 70
0
 10
440.4724722249
 20
201.6372629165
 10
440.469199657
 20
201.6388730898
 10
440.4630601993
 20
201.6404278472
 10
440.4540538518
 20
201.6419271887
 10
440.442020782
 20
201.6433857883
 10
440.4271208223
 20
201.6447889721
 10
440.4098334707
 20
201.6460927175
 10
440.3901171417
 20
201.6472925584
 10
440.3680134207
 20
201.6483929609
 10
440.3441265619
 20
201.6493633012
 10
440.3183507598
 20
201.6502012419
 10
440.2907918198
 20
201.6509091203
 10
440.2623714121
 20
201.6514633246
 10
440.23339676
 20
201.6518559842
 10
440.2035606402
 20
201.6520949697
 10
432.6133020368
 20
201.6521802847
  0
LINE
  5
3AC
100
AcDbEntity
  8
0
100
AcDbLine
 62
250
  6
CONTINUOUS
 10
441.6858800628
 20
189.6493377595
 11
441.5757404705
 21
189.7594773519
  0
LINE
  5
3AD
100
AcDbEntity
  8
0
100
AcDbLine
 62
250
  6
CONTINUOUS
 10
433.3290510954
 20
198.1259241414
 11
433.5043489588
 21
197.950626278
  0
LINE
  5
3AE
100
AcDbEntity
  8
0
100
AcDbLine
 62
7
  6
CONTINUOUS
 10
415.7425380368
 20
230.6806744397
 11
416.3448260368
 21
228.7808284397
  0
LINE
  5
3AF
100
AcDbEntity
  8
0
100
AcDbLine
 62
7
  6
CONTINUOUS
 10
416.5354830368
 20
229.3729514397
 11
416.1733380368
 21
230.6806744397
  0
LINE
  5
3B0
100
AcDbEntity
  8
0
100
AcDbLine
 62
7
  6
CONTINUOUS
 10
421.9624970368
 20
192.0743224397
 11
421.9624970368
 21
193.1746054397
  0
LINE
  5
3B1
100
AcDbEntity
  8
0
100
AcDbLine
 62
7
  6
CONTINUOUS
 10
422.11201354
 20
229.8354721754
 11
422.11201354
 21
230.3570168629
  0
LINE
  5
3B2
100
AcDbEntity
  8
0
100
AcDbLine
 62
7
  6
CONTINUOUS
 10
422.1251632817
 20
228.7808286937
 11
422.1251632817
 21
229.5243233562
  0
LINE
  5
3B3
100
AcDbEntity
  8
0
100
AcDbLine
 62
7
  6
CONTINUOUS
 10
422.2075038981
 20
195.6993224397
 11
422.2075038981
 21
195.876334723
  0
LINE
  5
3B4
100
AcDbEntity
  8
0
100
AcDbLine
 62
7
  6
CONTINUOUS
 10
422.3855660368
 20
193.1746054397
 11
422.3855660368
 21
193.3243224397
  0
LINE
  5
3B5
100
AcDbEntity
  8
0
100
AcDbLine
 62
7
  6
CONTINUOUS
 10
422.7544070279
 20
229.6657404059
 11
422.7544070279
 21
229.67966913
  0
LINE
  5
3B6
100
AcDbEntity
  8
0
100
AcDbLine
 62
7
  6
CONTINUOUS
 10
423.7034790368
 20
193.3243224397
 11
423.7034790368
 21
192.0743224397
  0
LINE
  5
3B7
100
AcDbEntity
  8
0
100
AcDbLine
 62
7
  6
CONTINUOUS
 10
423.8724040368
 20
192.2240394397
 11
423.8724040368
 21
193.3243224397
  0
LWPOLYLINE
  5
3B8
100
AcDbEntity
  8
0
100
AcDbPolyline
 62
7
  6
CONTINUOUS
 90
25
 70
0
 10
422.6467079692
 20
230.1307073852
 10
422.6463127132
 20
230.109811043
 10
422.6447162991
 20
230.0891704065
 10
422.6419187269
 20
230.0687854768
 10
422.6379283059
 20
230.048582678
 10
422.6327367269
 20
230.0286355883
 10
422.6263190622
 20
230.0091649409
 10
422.6186880062
 20
229.9900922866
 10
422.6098308645
 20
229.9714960786
 10
422.5996846258
 20
229.9538324074
 10
422.5882043013
 20
229.9370869251
 10
422.5754348798
 20
229.9212739867
 10
422.5614483164
 20
229.9068927404
 10
422.5461087163
 20
229.894118838
 10
422.5295519743
 20
229.8827766368
 10
422.5122577302
 20
229.872838344
 10
422.4942265176
 20
229.8643978331
 10
422.4754578029
 20
229.8573612365
 10
422.456429624
 20
229.8514191493
 10
422.4372686303
 20
229.8465669702
 10
422.4178481724
 20
229.8428093031
 10
422.3982663406
 20
229.8398505495
 10
422.3785558318
 20
229.8375921769
 10
422.3586839492
 20
229.8361327188
 10
422.3386506927
 20
229.8354721754
  0
LWPOLYLINE
  5
3B9
100
AcDbEntity
  8
0
100
AcDbPolyline
 62
7
  6
CONTINUOUS
 90
10
 70
0
 10
421.4401095939
 20
196.7521873786
 10
421.4411190812
 20
196.7826578225
 10
421.4441454457
 20
196.8116823347
 10
421.4491886871
 20
196.8392609078
 10
421.4562806784
 20
196.8654368769
 10
421.4653895468
 20
196.8901668934
 10
421.4764196736
 20
196.9133209248
 10
421.4893391859
 20
196.9348556227
 10
421.5041799567
 20
196.9548143231
 10
421.5209419858
 20
196.9731970205
  0
LWPOLYLINE
  5
3BA
100
AcDbEntity
  8
0
100
AcDbPolyline
 62
7
  6
CONTINUOUS
 90
10
 70
0
 10
422.0161669087
 20
196.7931151166
 10
422.0150488276
 20
196.7692902343
 10
422.0117645836
 20
196.7451728328
 10
422.0063141768
 20
196.7207629134
 10
421.998619956
 20
196.6959522648
 10
421.9887595725
 20
196.6708491013
 10
421.9769659795
 20
196.6457780612
 10
421.9633168281
 20
196.6208473568
 10
421.9477344673
 20
196.5959487755
 10
421.930218897
 20
196.5710823171
  0
LINE
  5
3BB
100
AcDbEntity
  8
0
100
AcDbLine
 62
7
  6
CONTINUOUS
 10
420.4588681293
 20
196.5710823014
 11
420.438404305
 21
196.4094179198
  0
LWPOLYLINE
  5
3BC
100
AcDbEntity
  8
0
100
AcDbPolyline
 62
7
  6
CONTINUOUS
 90
10
 70
0
 10
420.2777632308
 20
196.7839063778
 10
420.2825240886
 20
196.8120361768
 10
420.2886644486
 20
196.8388721237
 10
420.296184311
 20
196.8644142125
 10
420.3051082992
 20
196.8888010347
 10
420.3154117898
 20
196.9118939878
 10
420.3270209118
 20
196.9332772733
 10
420.3399110415
 20
196.952812287
 10
420.3541068026
 20
196.9706376206
 10
420.369608195
 20
196.9867532689
  0
LWPOLYLINE
  5
3BD
100
AcDbEntity
  8
0
100
AcDbPolyline
 62
250
  6
CONTINUOUS
 90
16
 70
0
 10
432.9771085853
 20
224.5487359156
 10
432.9840857921
 20
224.5588018057
 10
432.9924277351
 20
224.5678255116
 10
433.0019711706
 20
224.575617032
 10
433.0125334908
 20
224.581995738
 10
433.0238900241
 20
224.5868435952
 10
433.035802255
 20
224.5901166514
 10
433.0480503782
 20
224.5917717937
 10
433.0604120512
 20
224.5917591249
 10
433.0726560361
 20
224.5900788984
 10
433.0845659515
 20
224.5867794362
 10
433.0959156244
 20
224.5819053806
 10
433.1064513471
 20
224.5755126755
 10
433.1159490857
 20
224.5677302222
 10
433.1242388133
 20
224.5587403385
 10
433.1311654652
 20
224.5487357631
  0
LINE
  5
3BE
100
AcDbEntity
  8
0
100
AcDbLine
 62
7
  6
CONTINUOUS
 10
418.9595240368
 20
226.7862524397
 11
419.2225580368
 21
225.9677654397
  0
LWPOLYLINE
  5
3BF
100
AcDbEntity
  8
RACCORDO
100
AcDbPolyline
 62
250
  6
CONTINUOUS
 90
73
 70
0
 10
424.6550444673
 20
211.1993224397
 10
424.6501193889
 20
211.4258177566
 10
424.6353850942
 20
211.651295175
 10
424.6108415833
 20
211.8757546496
 10
424.5764013676
 20
212.0997183752
 10
424.5321519356
 20
212.3226640694
 10
424.478355753
 20
212.5430249766
 10
424.4149655011
 20
212.7606742407
 10
424.3420284986
 20
212.9757386518
 10
424.2599491673
 20
213.1870319384
 10
424.1686678201
 20
213.3945540832
 10
424.0682441441
 20
213.5983050673
 10
423.9592616228
 20
213.7970986334
 10
423.8416751373
 20
213.9908962424
 10
423.7155298066
 20
214.1797364337
 10
423.5815444709
 20
214.3625485873
 10
423.4396729802
 20
214.5393004999
 10
423.2899614844
 20
214.7100244108
 10
423.1332672736
 20
214.8737463827
 10
422.9695511185
 20
215.030425506
 10
422.7988522484
 20
215.1801027568
 10
422.6221456411
 20
215.3219270421
 10
422.4393971626
 20
215.4558534602
 10
422.2506409469
 20
215.5819269996
 10
422.0569543733
 20
215.6994314138
 10
421.8583098535
 20
215.8083176329
 10
421.6547349758
 20
215.9086348206
 10
421.4473898842
 20
215.9998140869
 10
421.2362533816
 20
216.0818034231
 10
421.0213466651
 20
216.1546549244
 10
420.8038934692
 20
216.2179558577
 10
420.5838795921
 20
216.2716519591
 10
420.3613192356
 20
216.3157975586
 10
420.1374787405
 20
216.3501428082
 10
419.91235116
 20
216.3746321262
 10
419.6859434409
 20
216.3893211301
 10
419.4595427639
 20
216.3941267628
 10
419.2331490536
 20
216.3889930272
 10
419.0067623855
 20
216.3739759203
 10
418.7816701671
 20
216.3491603678
 10
418.5578796036
 20
216.3144907707
 10
418.3353834898
 20
216.270022692
 10
418.115447617
 20
216.2160077929
 10
417.8980862052
 20
216.152391767
 10
417.6832850344
 20
216.0792288542
 10
417.4722672354
 20
215.9969335305
 10
417.2650540207
 20
215.9054536908
 10
417.0616241778
 20
215.8048413536
 10
416.8631372007
 20
215.6956671799
 10
416.6696208984
 20
215.5778821481
 10
416.4810474617
 20
215.4515351861
 10
416.2984929574
 20
215.3173438856
 10
416.1219912078
 20
215.1752629157
 10
415.9515083906
 20
215.0253375207
 10
415.7880191055
 20
214.8684211665
 10
415.6315641492
 20
214.7044751043
 10
415.4821027251
 20
214.5335380166
 10
415.3404870433
 20
214.3565795324
 10
415.2067570349
 20
214.1735553282
 10
415.0808727688
 20
213.9845096917
 10
414.963566661
 20
213.7905451874
 10
414.8548978345
 20
213.5916524902
 10
414.7548071663
 20
213.3878409259
 10
414.6638497039
 20
213.1802410549
 10
414.5820590443
 20
212.9687355523
 10
414.5094015905
 20
212.7534417788
 10
414.4463315985
 20
212.5358423426
 10
414.3929485332
 20
212.3158933827
 10
414.3491529296
 20
212.093638828
 10
414.3151006491
 20
211.8706929857
 10
414.2908436452
 20
211.6475939889
 10
414.2763299643
 20
211.4238037921
 10
414.2715596063
 20
211.1993224397
  0
LINE
  5
3C0
100
AcDbEntity
  8
0
100
AcDbLine
 62
7
  6
CONTINUOUS
 10
424.5061480368
 20
192.0743224397
 11
424.5061480368
 21
192.2240394397
  0
LINE
  5
3C1
100
AcDbEntity
  8
0
100
AcDbLine
 62
7
  6
CONTINUOUS
 10
425.0353640368
 20
192.5774564397
 11
425.0353640368
 21
192.0743224397
  0
LINE
  5
3C2
100
AcDbEntity
  8
0
100
AcDbLine
 62
7
  6
CONTINUOUS
 10
425.2041870368
 20
192.0743224397
 11
425.2041870368
 21
192.5774564397
  0
LINE
  5
3C3
100
AcDbEntity
  8
0
100
AcDbLine
 62
7
  6
CONTINUOUS
 10
425.4633020368
 20
228.4993224397
 11
425.4633020368
 21
227.6993224397
  0
LINE
  5
3C4
100
AcDbEntity
  8
0
100
AcDbLine
 62
7
  6
CONTINUOUS
 10
425.4633020368
 20
194.6993224397
 11
425.4633020368
 21
193.8993224397
  0
LWPOLYLINE
  5
3C5
100
AcDbEntity
  8
RACCORDO
100
AcDbPolyline
 62
250
  6
CONTINUOUS
 90
58
 70
0
 10
425.0121158887
 20
211.1993224397
 10
425.002133665
 20
210.8666850945
 10
424.9725094659
 20
210.5373374091
 10
424.9237247509
 20
210.2125508072
 10
424.8565309786
 20
209.894150704
 10
424.7714422304
 20
209.5823620119
 10
424.6683355916
 20
209.2759882264
 10
424.5472433262
 20
208.975376089
 10
424.4087871049
 20
208.6822982496
 10
424.2534553913
 20
208.3977800438
 10
424.0817715558
 20
208.1228138818
 10
423.8943223184
 20
207.858315416
 10
423.6917143369
 20
207.6051815456
 10
423.4746177047
 20
207.3642465009
 10
423.2437816992
 20
207.1363753045
 10
423.00005626
 20
206.9224020234
 10
422.7442997755
 20
206.7230702852
 10
422.4773652606
 20
206.5390406958
 10
422.2001754234
 20
206.3709313595
 10
421.9136877029
 20
206.219329617
 10
421.6188752239
 20
206.0847240174
 10
421.3166926204
 20
205.9675666443
 10
421.0081596169
 20
205.868241326
 10
420.6943403187
 20
205.7871066912
 10
420.3763042129
 20
205.7244349331
 10
420.0551252248
 20
205.6804436701
 10
419.7319097863
 20
205.6552915285
 10
419.4077970592
 20
205.6490586669
 10
419.0839092243
 20
205.661774367
 10
418.7613350262
 20
205.6933758281
 10
418.4411616008
 20
205.7437706245
 10
418.1244885572
 20
205.8127685261
 10
417.812389935
 20
205.9001464758
 10
417.505884984
 20
206.005613227
 10
417.2060103731
 20
206.1288246032
 10
416.9138065948
 20
206.2693639909
 10
416.6302722951
 20
206.4267506439
 10
416.3563447272
 20
206.6004900217
 10
416.0929982743
 20
206.7899600336
 10
415.8412538881
 20
206.9944385403
 10
415.6012239748
 20
207.2139048307
 10
415.374533271
 20
207.4469874683
 10
415.1639451509
 20
207.690406188
 10
414.9690528828
 20
207.9439233451
 10
414.7908489675
 20
208.2054878836
 10
414.6327370218
 20
208.4680940023
 10
414.494669344
 20
208.7283356186
 10
414.3745624762
 20
208.9863833198
 10
414.2716387503
 20
209.2401605791
 10
414.1848215416
 20
209.4879673354
 10
414.1126577172
 20
209.7291944544
 10
414.0537475641
 20
209.9636050111
 10
414.0069180445
 20
210.1904446193
 10
413.9710135358
 20
210.4090706438
 10
413.9448380446
 20
210.6196302919
 10
413.9273416418
 20
210.8218878295
 10
413.9175472574
 20
211.0152219354
 10
413.9144881849
 20
211.1993224397
  0
LWPOLYLINE
  5
3C6
100
AcDbEntity
  8
RACCORDO
100
AcDbPolyline
 62
250
  6
CONTINUOUS
 90
58
 70
0
 10
425.3691873101
 20
211.1993224776
 10
425.3575767897
 20
210.8434269179
 10
425.3262178768
 20
210.4934678483
 10
425.2751105716
 20
210.1494454285
 10
425.2039594604
 20
209.8110402062
 10
425.1130599568
 20
209.4785719039
 10
425.0032983016
 20
209.1529994133
 10
424.8744716764
 20
208.83356736
 10
424.7267828996
 20
208.5210312833
 10
424.5617266672
 20
208.2186163843
 10
424.379133302
 20
207.926443819
 10
424.1791724812
 20
207.6443924264
 10
423.9638479324
 20
207.3753238411
 10
423.7329733112
 20
207.1193455705
 10
423.4867349621
 20
206.8763499382
 10
423.2276956466
 20
206.6488757172
 10
422.9557382653
 20
206.4371062232
 10
422.6709799175
 20
206.2408578507
 10
422.3763346631
 20
206.0621189292
 10
422.0717214333
 20
205.9010741124
 10
421.7572212969
 20
205.7575384166
 10
421.4359915191
 20
205.6329456881
 10
421.1079506303
 20
205.5274773092
 10
420.7731801002
 20
205.4409516167
 10
420.4350816027
 20
205.3742578968
 10
420.0936054804
 20
205.327600386
 10
419.7488013907
 20
205.3007746909
 10
419.4042199797
 20
205.2940571856
 10
419.0598824058
 20
205.3076567621
 10
418.7157675106
 20
205.3413645382
 10
418.3753624652
 20
205.3948302682
 10
418.0387146807
 20
205.4682458947
 10
417.7057767459
 20
205.5614196489
 10
417.3798935987
 20
205.6734257491
 10
417.0611174687
 20
205.8044586706
 10
416.7493961263
 20
205.9543242294
 10
416.4479178193
 20
206.1215136598
 10
416.1567556287
 20
206.306244329
 10
415.8758364736
 20
206.5082992004
 10
415.608129359
 20
206.7255178709
 10
415.3532689424
 20
206.9590144176
 10
415.1116205663
 20
207.2076750485
 10
414.8872492624
 20
207.4659974544
 10
414.6805631593
 20
207.7355898731
 10
414.4911541284
 20
208.0148441608
 10
414.3218628162
 20
208.2934332345
 10
414.1746966935
 20
208.5696091827
 10
414.0476482895
 20
208.8451197203
 10
413.9375358381
 20
209.1148810482
 10
413.8446482224
 20
209.3779380365
 10
413.7686965595
 20
209.6352455807
 10
413.7056324337
 20
209.8845848821
 10
413.6553053498
 20
210.1255689851
 10
413.6178658031
 20
210.3585846627
 10
413.589716864
 20
210.5825737139
 10
413.5696595562
 20
210.7971833658
 10
413.558892856
 20
211.0027662757
 10
413.5574167635
 20
211.1993224017
  0
LWPOLYLINE
  5
3C7
100
AcDbEntity
  8
0
100
AcDbPolyline
 62
7
  6
CONTINUOUS
 90
25
 70
0
 10
432.6571901678
 20
224.6474645752
 10
432.6767275295
 20
224.6910709383
 10
432.7002136962
 20
224.7313987856
 10
432.727648668
 20
224.7684481386
 10
432.7594593402
 20
224.8025878844
 10
432.7952188174
 20
224.8334491723
 10
432.8336464138
 20
224.8599254194
 10
432.8748398107
 20
224.8818578945
 10
432.9187013269
 20
224.899405364
 10
432.9636572322
 20
224.9119374947
 10
433.0097464592
 20
224.9192720736
 10
433.0569300754
 20
224.9215913303
 10
433.1035175536
 20
224.9188115905
 10
433.149487906
 20
224.9107479895
 10
433.1948621205
 20
224.8975853828
 10
433.2380126332
 20
224.8797946712
 10
433.2788589515
 20
224.8572076501
 10
433.317481568
 20
224.8299924929
 10
433.3524943972
 20
224.7991246675
 10
433.3837683107
 20
224.7644567249
 10
433.4114324368
 20
224.7261360747
 10
433.434488075
 20
224.6855804823
 10
433.4526023253
 20
224.6432625302
 10
433.4661080877
 20
224.5987096085
 10
433.4750053622
 20
224.5519217014
  0
LWPOLYLINE
  5
3C8
100
AcDbEntity
  8
0
100
AcDbPolyline
 62
7
  6
CONTINUOUS
 90
10
 70
0
 10
417.152933715
 20
197.2054616585
 10
417.1403408135
 20
197.1822564228
 10
417.1262923927
 20
197.1592764836
 10
417.1107884525
 20
197.1365218398
 10
417.0937530302
 20
197.113986541
 10
417.0752620885
 20
197.091676536
 10
417.0555435162
 20
197.0696096737
 10
417.0346732763
 20
197.0477919031
 10
417.0125754058
 20
197.0262172733
 10
416.9892499048
 20
197.0048857836
  0
LINE
  5
3C9
100
AcDbEntity
  8
0
100
AcDbLine
 62
7
  6
CONTINUOUS
 10
405.4187392088
 20
200.7759145763
 11
405.4706771835
 21
200.7932131669
  0
LINE
  5
3CA
100
AcDbEntity
  8
0
100
AcDbLine
 62
7
  6
CONTINUOUS
 10
405.4187392088
 20
221.6227303031
 11
405.4706771835
 21
221.6054317124
  0
LWPOLYLINE
  5
3CB
100
AcDbEntity
  8
0
100
AcDbPolyline
 62
250
  6
CONTINUOUS
 90
16
 70
0
 10
405.7972788852
 20
224.4724466449
 10
405.7994779207
 20
224.471375202
 10
405.8035533574
 20
224.4703422281
 10
405.8095051953
 20
224.4693477232
 10
405.8174234021
 20
224.4683833808
 10
405.8272180102
 20
224.4674575075
 10
405.8386191163
 20
224.4665950225
 10
405.8516701634
 20
224.4657967623
 10
405.8663277086
 20
224.4650618905
 10
405.8821915206
 20
224.4644128172
 10
405.8993096979
 20
224.4638515058
 10
405.917634142
 20
224.4633759929
 10
405.9366203261
 20
224.463002799
 10
405.9560867414
 20
224.4627374308
 10
405.9762148967
 20
224.4625743816
 10
406.1644339206
 20
224.4625136513
  0
LINE
  5
3CC
100
AcDbEntity
  8
0
100
AcDbLine
 62
7
  6
CONTINUOUS
 10
418.5271920368
 20
230.0213924397
 11
418.9924190368
 21
228.7808284397
  0
LINE
  5
3CD
100
AcDbEntity
  8
0
100
AcDbLine
 62
7
  6
CONTINUOUS
 10
419.0223940368
 20
229.6258744397
 11
418.6300100368
 21
230.6806744397
  0
LINE
  5
3CE
100
AcDbEntity
  8
0
100
AcDbLine
 62
7
  6
CONTINUOUS
 10
419.8725750368
 20
225.2493224397
 11
419.2120470368
 21
227.1493224397
  0
LINE
  5
3CF
100
AcDbEntity
  8
0
100
AcDbLine
 62
7
  6
CONTINUOUS
 10
419.3251620368
 20
225.6520164397
 11
419.4620150368
 21
225.2493224397
  0
LINE
  5
3D0
100
AcDbEntity
  8
0
100
AcDbLine
 62
7
  6
CONTINUOUS
 10
421.0930300368
 20
229.1601054397
 11
421.1957630368
 21
228.7808284397
  0
LINE
  5
3D1
100
AcDbEntity
  8
0
100
AcDbLine
 62
7
  6
CONTINUOUS
 10
420.8315450368
 20
230.1586454397
 11
421.0137750368
 21
229.4535884397
  0
LWPOLYLINE
  5
3D2
100
AcDbEntity
  8
0
100
AcDbPolyline
 62
7
  6
CONTINUOUS
 90
10
 70
0
 10
421.2367094903
 20
195.8275355855
 10
421.2317110425
 20
195.8132808115
 10
421.227395205
 20
195.799040939
 10
421.2237619777
 20
195.7848159682
 10
421.2208212396
 20
195.7706228115
 10
421.2185631117
 20
195.7564445562
 10
421.2169579575
 20
195.742230465
 10
421.2159958981
 20
195.7279636256
 10
421.2156868123
 20
195.7136609504
 10
421.2160307002
 20
195.6993224397
  0
LWPOLYLINE
  5
3D3
100
AcDbEntity
  8
0
100
AcDbPolyline
 62
7
  6
CONTINUOUS
 90
10
 70
0
 10
422.1688067163
 20
196.6119314796
 10
422.1766155395
 20
196.6315772265
 10
422.1834774554
 20
196.6512125167
 10
422.1893924639
 20
196.67083735
 10
422.1943435246
 20
196.6904274457
 10
422.1983476779
 20
196.7100070844
 10
422.2014560452
 20
196.7296491081
 10
422.2036856667
 20
196.7493777978
 10
422.2050195021
 20
196.769168873
 10
422.2054575515
 20
196.7890223339
  0
LWPOLYLINE
  5
3D4
100
AcDbEntity
  8
0
100
AcDbPolyline
 62
7
  6
CONTINUOUS
 90
10
 70
0
 10
419.4837658834
 20
197.2054616585
 10
419.471172992
 20
197.182256423
 10
419.4571245781
 20
197.1592764842
 10
419.4416206418
 20
197.1365218411
 10
419.4245852193
 20
197.1139865436
 10
419.4060942745
 20
197.0916765402
 10
419.3863756984
 20
197.0696096785
 10
419.3655054546
 20
197.0477919072
 10
419.3434075796
 20
197.0262172759
 10
419.3200820733
 20
197.0048857836
  0
LINE
  5
3D5
100
AcDbEntity
  8
0
100
AcDbLine
 62
7
  6
CONTINUOUS
 10
417.8640524578
 20
196.2272897139
 11
418.3336977792
 21
196.9036198034
  0
LINE
  5
3D6
100
AcDbEntity
  8
0
100
AcDbLine
 62
7
  6
CONTINUOUS
 10
418.3674630356
 20
197.1993224397
 11
417.6829473805
 21
196.2272897139
  0
LINE
  5
3D7
100
AcDbEntity
  8
0
100
AcDbLine
 62
7
  6
CONTINUOUS
 10
413.4633020368
 20
194.6993224397
 11
413.4838569631
 21
194.719877366
  0
LINE
  5
3D8
100
AcDbEntity
  8
0
100
AcDbLine
 62
7
  6
CONTINUOUS
 10
440.4724722249
 20
220.7613819628
 11
440.5104127017
 21
220.7993224397
  0
LINE
  5
3D9
100
AcDbEntity
  8
0
100
AcDbLine
 62
7
  6
CONTINUOUS
 10
398.4333517743
 20
219.6993224397
 11
440.4932522993
 21
219.6993224397
  0
LINE
  5
3DA
100
AcDbEntity
  8
0
100
AcDbLine
 62
7
  6
CONTINUOUS
 10
413.4633020368
 20
227.6993224397
 11
413.4838569631
 21
227.6787675134
  0
LINE
  5
3DB
100
AcDbEntity
  8
0
100
AcDbLine
 62
7
  6
CONTINUOUS
 10
440.4724722249
 20
201.6372629165
 11
440.5104127017
 21
201.5993224397
  0
LINE
  5
3DC
100
AcDbEntity
  8
0
100
AcDbLine
 62
7
  6
CONTINUOUS
 10
421.4146400368
 20
225.6436624397
 11
420.6856860368
 21
227.1493224397
  0
LINE
  5
3DD
100
AcDbEntity
  8
0
100
AcDbLine
 62
7
  6
CONTINUOUS
 10
420.4620300368
 20
226.8394944397
 11
421.2172970368
 21
225.2493224397
  0
LINE
  5
3DE
100
AcDbEntity
  8
0
100
AcDbLine
 62
7
  6
CONTINUOUS
 10
423.2725980368
 20
225.6520164397
 11
423.4095230368
 21
225.2493224397
  0
LINE
  5
3DF
100
AcDbEntity
  8
0
100
AcDbLine
 62
7
  6
CONTINUOUS
 10
422.9069240368
 20
226.7861454397
 11
423.1699230368
 21
225.9677654397
  0
LINE
  5
3E0
100
AcDbEntity
  8
0
100
AcDbLine
 62
7
  6
CONTINUOUS
 10
421.6137340368
 20
228.7808284397
 11
421.0308140368
 21
230.6806744397
  0
LINE
  5
3E1
100
AcDbEntity
  8
0
100
AcDbLine
 62
7
  6
CONTINUOUS
 10
422.6736829607
 20
228.9820576158
 11
422.7324591021
 21
228.7808286937
  0
LINE
  5
3E2
100
AcDbEntity
  8
0
100
AcDbLine
 62
7
  6
CONTINUOUS
 10
423.0248103688
 20
229.1208726256
 11
422.9783546763
 21
229.2949956599
  0
LWPOLYLINE
  5
3E3
100
AcDbEntity
  8
0
100
AcDbPolyline
 62
7
  6
CONTINUOUS
 90
25
 70
0
 10
422.9783546763
 20
229.2949956599
 10
422.9726126938
 20
229.3168771531
 10
422.9668086996
 20
229.3380790098
 10
422.9609426939
 20
229.358601233
 10
422.9550762032
 20
229.3784038581
 10
422.949147701
 20
229.3975268558
 10
422.9429726075
 20
229.4160901316
 10
422.9365173918
 20
229.434093258
 10
422.9298155849
 20
229.451536667
 10
422.9227832002
 20
229.4685415517
 10
422.9154366032
 20
229.4851202985
 10
422.9077594284
 20
229.5012605242
 10
422.899618593
 20
229.5170462672
 10
422.8910152979
 20
229.5325319691
 10
422.8819483423
 20
229.5476631906
 10
422.8722810407
 20
229.5623606487
 10
422.8620079976
 20
229.5766721831
 10
422.8511346084
 20
229.5905499569
 10
422.8395403735
 20
229.6037711723
 10
422.827192133
 20
229.6163773003
 10
422.8141230467
 20
229.6283268736
 10
422.800312095
 20
229.6392726889
 10
422.7857522713
 20
229.6490990137
 10
422.7704505823
 20
229.6579215854
 10
422.7544070279
 20
229.6657404059
  0
LINE
  5
3E4
100
AcDbEntity
  8
0
100
AcDbLine
 62
7
  6
CONTINUOUS
 10
423.1139155873
 20
228.7808286937
 11
423.0248103688
 21
229.1208726256
  0
LINE
  5
3E5
100
AcDbEntity
  8
0
100
AcDbLine
 62
250
  6
CONTINUOUS
 10
432.1154448222
 20
221.1124436561
 11
432.1133020368
 21
221.1060100722
  0
LINE
  5
3E6
100
AcDbEntity
  8
0
100
AcDbLine
 62
250
  6
CONTINUOUS
 10
432.3154143613
 20
220.9127177491
 11
432.3122194462
 21
220.9031252094
  0
LINE
  5
3E7
100
AcDbEntity
  8
0
100
AcDbLine
 62
7
  6
CONTINUOUS
 10
422.6083820368
 20
192.0743224397
 11
422.7389830368
 21
192.4381514397
  0
LINE
  5
3E8
100
AcDbEntity
  8
0
100
AcDbLine
 62
7
  6
CONTINUOUS
 10
422.7912170368
 20
192.5878684397
 11
422.9932190368
 21
193.1430114397
  0
LINE
  5
3E9
100
AcDbEntity
  8
0
100
AcDbLine
 62
7
  6
CONTINUOUS
 10
422.9044090368
 20
193.3243224397
 11
422.4343120368
 21
192.0743224397
  0
LWPOLYLINE
  5
3EA
100
AcDbEntity
  8
0
100
AcDbPolyline
 62
7
  6
CONTINUOUS
 90
10
 70
0
 10
420.9315831494
 20
196.638612993
 10
420.9426385118
 20
196.6567755852
 10
420.9523621023
 20
196.675252229
 10
420.9607539211
 20
196.6940429255
 10
420.9677906926
 20
196.7130646014
 10
420.9734956924
 20
196.7324003318
 10
420.9779387466
 20
196.7522993412
 10
420.9811431307
 20
196.7728447061
 10
420.9830855692
 20
196.7939533542
 10
420.9837660623
 20
196.8156252875
  0
LWPOLYLINE
  5
3EB
100
AcDbEntity
  8
0
100
AcDbPolyline
 62
7
  6
CONTINUOUS
 90
10
 70
0
 10
421.4718286824
 20
195.876334723
 10
421.4791408286
 20
195.8877552762
 10
421.4867811815
 20
195.8990948663
 10
421.4947497412
 20
195.9103534929
 10
421.5030513695
 20
195.9215447205
 10
421.5116812046
 20
195.9326549843
 10
421.5206246607
 20
195.9436435911
 10
421.5298768758
 20
195.9544969762
 10
421.5394427118
 20
195.9652287036
 10
421.5493221689
 20
195.9758387732
  0
LWPOLYLINE
  5
3EC
100
AcDbEntity
  8
0
100
AcDbPolyline
 62
7
  6
CONTINUOUS
 90
10
 70
0
 10
416.9892499048
 20
197.0048857836
 10
416.963875911
 20
196.9828988435
 10
416.937342215
 20
196.9615010968
 10
416.9096488167
 20
196.9406925414
 10
416.8807969941
 20
196.9204467789
 10
416.8507854692
 20
196.9007902035
 10
416.8196104083
 20
196.8818020022
 10
416.7872705334
 20
196.8635085688
 10
416.7537671225
 20
196.8458835051
 10
416.7191001755
 20
196.8289268091
  0
LWPOLYLINE
  5
3ED
100
AcDbEntity
  8
0
100
AcDbPolyline
 62
7
  6
CONTINUOUS
 90
10
 70
0
 10
419.3200820733
 20
197.0048857836
 10
419.294708051
 20
196.9828988186
 10
419.2681743363
 20
196.9615010548
 10
419.2404809291
 20
196.9406924902
 10
419.2116291112
 20
196.9204467286
 10
419.1816176008
 20
196.9007901622
 10
419.1504425533
 20
196.8818019709
 10
419.1181026873
 20
196.8635085467
 10
419.0845992841
 20
196.8458834935
 10
419.049932344
 20
196.8289268091
  0
LINE
  5
3EE
100
AcDbEntity
  8
0
100
AcDbLine
 62
7
  6
CONTINUOUS
 10
398.4446468682
 20
194.7149091705
 11
398.3978486492
 21
194.6993224397
  0
LINE
  5
3EF
100
AcDbEntity
  8
0
100
AcDbLine
 62
7
  6
CONTINUOUS
 10
405.6882317866
 20
197.8171511359
 11
405.760816505
 21
197.8394399264
  0
LINE
  5
3F0
100
AcDbEntity
  8
0
100
AcDbLine
 62
7
  6
CONTINUOUS
 10
405.760816505
 20
197.8394399264
 11
405.7954388191
 21
197.84990889
  0
LWPOLYLINE
  5
3F1
100
AcDbEntity
  8
0
100
AcDbPolyline
 62
7
  6
CONTINUOUS
 90
46
 70
0
 10
405.6882317866
 20
197.8171511359
 10
405.6792654926
 20
197.8144920548
 10
405.6705418027
 20
197.8121124274
 10
405.6620656897
 20
197.8099992276
 10
405.6538479713
 20
197.8081422413
 10
405.64588555
 20
197.8065260134
 10
405.6381615896
 20
197.8051308705
 10
405.6306787989
 20
197.8039456022
 10
405.6234387087
 20
197.8029591333
 10
405.6164222111
 20
197.8021541189
 10
405.6096308431
 20
197.8015208177
 10
405.6030648394
 20
197.8010498804
 10
405.596702979
 20
197.8007266663
 10
405.5905461688
 20
197.8005428879
 10
405.5845936746
 20
197.8004908788
 10
405.578821982
 20
197.8005590783
 10
405.5732317067
 20
197.8007405971
 10
405.5678215607
 20
197.8010294216
 10
405.5625656692
 20
197.801417526
 10
405.5574647023
 20
197.8018993452
 10
405.5525171349
 20
197.80247048
 10
405.547694636
 20
197.803126983
 10
405.5429982685
 20
197.8038645225
 10
405.5384265405
 20
197.8046802999
 10
405.5339485077
 20
197.8055751539
 10
405.5295660132
 20
197.8065458787
 10
405.5252778284
 20
197.8075913325
 10
405.521050092
 20
197.8087181764
 10
405.5168864962
 20
197.8099240097
 10
405.5127857306
 20
197.8112097211
 10
405.5087088296
 20
197.81259009
 10
405.5046561895
 20
197.8140657545
 10
405.5006328935
 20
197.8156379989
 10
405.4966099202
 20
197.8173258281
 10
405.4925787328
 20
197.8191368404
 10
405.4885572387
 20
197.8210683762
 10
405.4845576023
 20
197.823125337
 10
405.480573382
 20
197.8253167096
 10
405.47662125
 20
197.8276374953
 10
405.472746036
 20
197.830069439
 10
405.4689536781
 20
197.8326120051
 10
405.4652443838
 20
197.8352648848
 10
405.461650387
 20
197.838006702
 10
405.4581823313
 20
197.8408283259
 10
405.4548314181
 20
197.8437345041
 10
405.4515987114
 20
197.846723178
  0
LWPOLYLINE
  5
3F2
100
AcDbEntity
  8
0
100
AcDbPolyline
 62
250
  6
CONTINUOUS
 90
13
 70
0
 10
433.1293251884
 20
220.9261982344
 10
433.1553487837
 20
220.9279721516
 10
433.1809288316
 20
220.9331211373
 10
433.2056291824
 20
220.9415574603
 10
433.2290286781
 20
220.9531373393
 10
433.250728317
 20
220.9676633853
 10
433.2703580623
 20
220.9848879586
 10
433.2875831821
 20
221.0045174127
 10
433.302109928
 20
221.0262170781
 10
433.3136905446
 20
221.0496169457
 10
433.3221275317
 20
221.0743180236
 10
433.3272769983
 20
221.0998991493
 10
433.3290511018
 20
221.1259241349
  0
LWPOLYLINE
  5
3F3
100
AcDbEntity
  8
0
100
AcDbPolyline
 62
250
  6
CONTINUOUS
 90
13
 70
0
 10
406.6111897124
 20
220.9127177491
 10
406.6373007785
 20
220.9144515403
 10
406.6629628791
 20
220.9195750851
 10
406.6877368089
 20
220.9279999282
 10
406.711197757
 20
220.9395805813
 10
406.7329456223
 20
220.9541184682
 10
406.7526110546
 20
220.9713665714
 10
406.7698637874
 20
220.9910387946
 10
406.7843992044
 20
221.0127918782
 10
406.7959565833
 20
221.0362263204
 10
406.8043456006
 20
221.0609272427
 10
406.8094384741
 20
221.086478596
 10
406.8111592514
 20
221.1124436561
  0
LINE
  5
3F4
100
AcDbEntity
  8
0
100
AcDbLine
 62
250
  6
CONTINUOUS
 10
432.7621701531
 20
220.9361312281
 11
432.3154143613
 21
220.9127177491
  0
LINE
  5
3F5
100
AcDbEntity
  8
0
100
AcDbLine
 62
250
  6
CONTINUOUS
 10
432.6207487968
 20
221.135857135
 11
432.173993005
 21
221.1124436561
  0
LWPOLYLINE
  5
3F6
100
AcDbEntity
  8
0
100
AcDbPolyline
 62
250
  6
CONTINUOUS
 90
9
 70
0
 10
405.6834354263
 20
221.1318883066
 10
405.6660710742
 20
221.1312640278
 10
405.6505107646
 20
221.1306122359
 10
405.6368470299
 20
221.1299381366
 10
405.6251214697
 20
221.1292365243
 10
405.6150168745
 20
221.1284864168
 10
405.6067571576
 20
221.1276808202
 10
405.6008247626
 20
221.1268267284
 10
405.5975529783
 20
221.1259241414
  0
LINE
  5
3F7
100
AcDbEntity
  8
0
100
AcDbLine
 62
250
  6
CONTINUOUS
 10
405.7259184354
 20
221.1330813718
 11
405.6834354263
 21
221.1318883066
  0
LINE
  5
3F8
100
AcDbEntity
  8
0
100
AcDbLine
 62
250
  6
CONTINUOUS
 10
405.7793275425
 20
221.1341693192
 11
405.7259184354
 21
221.1330813718
  0
LINE
  5
3F9
100
AcDbEntity
  8
0
100
AcDbLine
 62
7
  6
CONTINUOUS
 10
406.6143846275
 20
220.9031252094
 11
406.3133020368
 21
220.8988972203
  0
LINE
  5
3FA
100
AcDbEntity
  8
0
100
AcDbLine
 62
250
  6
CONTINUOUS
 10
405.8444387775
 20
221.1350648963
 11
405.7793275425
 21
221.1341693192
  0
LINE
  5
3FB
100
AcDbEntity
  8
0
100
AcDbLine
 62
7
  6
CONTINUOUS
 10
398.6072413294
 20
221.6220711066
 11
398.5575849907
 21
221.6214692136
  0
LWPOLYLINE
  5
3FC
100
AcDbEntity
  8
0
100
AcDbPolyline
 62
7
  6
CONTINUOUS
 90
15
 70
0
 10
440.2035605681
 20
220.7465499071
 10
440.2333967396
 20
220.7467888916
 10
440.2623714273
 20
220.7471815506
 10
440.2907918494
 20
220.7477357549
 10
440.3183507876
 20
220.7484436337
 10
440.3441265871
 20
220.7492815747
 10
440.3680134476
 20
220.7502519154
 10
440.3901171695
 20
220.7513523183
 10
440.4098334982
 20
220.7525521596
 10
440.4271208486
 20
220.7538559054
 10
440.4420208058
 20
220.7552590896
 10
440.4540538719
 20
220.7567176896
 10
440.4630602141
 20
220.7582170315
 10
440.4691996651
 20
220.7597717892
 10
440.4724722249
 20
220.7613819628
  0
LWPOLYLINE
  5
3FD
100
AcDbEntity
  8
0
100
AcDbPolyline
 62
250
  6
CONTINUOUS
 90
18
 70
0
 10
405.9767093645
 20
220.9360658907
 10
405.9572761996
 20
220.9359141583
 10
405.9387052975
 20
220.9356760308
 10
405.9208205667
 20
220.9353392239
 10
405.9037980987
 20
220.9349160218
 10
405.8881661682
 20
220.9344432781
 10
405.8741332611
 20
220.9339241477
 10
405.8614908915
 20
220.9333554755
 10
405.8501418766
 20
220.9327646501
 10
405.8401650453
 20
220.9321626403
 10
405.8314815687
 20
220.9315384772
 10
405.8237577766
 20
220.9308866417
 10
405.8168684519
 20
220.9302121549
 10
405.8109388117
 20
220.9295099957
 10
405.8060108368
 20
220.9287595822
 10
405.8020985209
 20
220.9279540539
 10
405.7991878704
 20
220.9271002713
 10
405.7972788852
 20
220.9261982344
  0
LINE
  5
3FE
100
AcDbEntity
  8
0
100
AcDbLine
 62
250
  6
CONTINUOUS
 10
405.9179331223
 20
221.1356397262
 11
405.8444387775
 21
221.1350648963
  0
LINE
  5
3FF
100
AcDbEntity
  8
0
100
AcDbLine
 62
7
  6
CONTINUOUS
 10
398.6922296186
 20
221.6226221832
 11
398.6072413294
 21
221.6220711066
  0
LINE
  5
400
100
AcDbEntity
  8
0
100
AcDbLine
 62
7
  6
CONTINUOUS
 10
440.2035605681
 20
220.7465499071
 11
432.6133020368
 21
220.7464645946
  0
LINE
  5
401
100
AcDbEntity
  8
0
100
AcDbLine
 62
7
  6
CONTINUOUS
 10
440.5104127017
 20
220.7993224397
 11
433.2562009832
 21
220.7993224397
  0
LINE
  5
402
100
AcDbEntity
  8
0
100
AcDbLine
 62
7
  6
CONTINUOUS
 10
405.6704030904
 20
220.7993224397
 11
398.416191372
 21
220.7993224397
  0
LINE
  5
403
100
AcDbEntity
  8
0
100
AcDbLine
 62
250
  6
CONTINUOUS
 10
406.1644339206
 20
220.9361312281
 11
405.9767093645
 21
220.9360658907
  0
LINE
  5
404
100
AcDbEntity
  8
0
100
AcDbLine
 62
250
  6
CONTINUOUS
 10
432.173993005
 20
221.1124436561
 11
432.1154448222
 21
221.1124436561
  0
LINE
  5
405
100
AcDbEntity
  8
0
100
AcDbLine
 62
250
  6
CONTINUOUS
 10
406.8111592514
 20
221.1124436561
 11
406.7526110686
 21
221.1124436561
  0
LINE
  5
406
100
AcDbEntity
  8
0
100
AcDbLine
 62
250
  6
CONTINUOUS
 10
406.3058552768
 20
221.135857135
 11
405.9179331223
 21
221.1356397262
  0
LINE
  5
407
100
AcDbEntity
  8
0
100
AcDbLine
 62
7
  6
CONTINUOUS
 10
440.5104127017
 20
221.6054317124
 11
433.4559268902
 21
221.6054317124
  0
LINE
  5
408
100
AcDbEntity
  8
0
100
AcDbLine
 62
7
  6
CONTINUOUS
 10
405.4706771835
 20
221.6054317124
 11
398.416191372
 21
221.6054317124
  0
LINE
  5
409
100
AcDbEntity
  8
0
100
AcDbLine
 62
7
  6
CONTINUOUS
 10
398.6922296186
 20
221.6226221832
 11
405.4187392088
 21
221.6227303031
  0
LINE
  5
40A
100
AcDbEntity
  8
0
100
AcDbLine
 62
7
  6
CONTINUOUS
 10
440.2343744294
 20
221.6226221846
 11
433.5078648649
 21
221.6227303031
  0
LINE
  5
40B
100
AcDbEntity
  8
0
100
AcDbLine
 62
250
  6
CONTINUOUS
 10
432.9468937692
 20
220.9360784712
 11
432.7621701531
 21
220.9361312281
  0
LINE
  5
40C
100
AcDbEntity
  8
0
100
AcDbLine
 62
250
  6
CONTINUOUS
 10
432.9968657897
 20
221.1356964293
 11
432.6207487968
 21
221.135857135
  0
LINE
  5
40D
100
AcDbEntity
  8
0
100
AcDbLine
 62
250
  6
CONTINUOUS
 10
433.0572869834
 20
221.1353151282
 11
432.9968657897
 21
221.1356964293
  0
LINE
  5
40E
100
AcDbEntity
  8
0
100
AcDbLine
 62
7
  6
CONTINUOUS
 10
440.3193627789
 20
221.6220711082
 11
440.2343744294
 21
221.6226221846
  0
LINE
  5
40F
100
AcDbEntity
  8
0
100
AcDbLine
 62
250
  6
CONTINUOUS
 10
433.111081472
 20
221.1347163981
 11
433.0572869834
 21
221.1353151282
  0
LINE
  5
410
100
AcDbEntity
  8
0
100
AcDbLine
 62
7
  6
CONTINUOUS
 10
440.3690191165
 20
221.6214692149
 11
440.3193627789
 21
221.6220711082
  0
LINE
  5
411
100
AcDbEntity
  8
0
100
AcDbLine
 62
7
  6
CONTINUOUS
 10
432.6133020368
 20
220.8988972203
 11
432.3122194462
 21
220.9031252094
  0
LINE
  5
412
100
AcDbEntity
  8
0
100
AcDbLine
 62
250
  6
CONTINUOUS
 10
433.1612262373
 20
221.1339242839
 11
433.111081472
 21
221.1347163981
  0
LWPOLYLINE
  5
413
100
AcDbEntity
  8
0
100
AcDbPolyline
 62
250
  6
CONTINUOUS
 90
4
 70
0
 10
433.0071273362
 20
220.9353156773
 10
432.9934366516
 20
220.9355893601
 10
432.9788775782
 20
220.9358080857
 10
432.9468937692
 20
220.9360784712
  0
LINE
  5
414
100
AcDbEntity
  8
0
100
AcDbLine
 62
250
  6
CONTINUOUS
 10
406.6111897124
 20
220.9127177491
 11
406.1644339206
 21
220.9361312281
  0
LINE
  5
415
100
AcDbEntity
  8
0
100
AcDbLine
 62
250
  6
CONTINUOUS
 10
406.7526110686
 20
221.1124436561
 11
406.3058552768
 21
221.135857135
  0
LWPOLYLINE
  5
416
100
AcDbEntity
  8
0
100
AcDbPolyline
 62
250
  6
CONTINUOUS
 90
13
 70
0
 10
432.3154143613
 20
220.9127177491
 10
432.2893035049
 20
220.9144515126
 10
432.2636416093
 20
220.9195749736
 10
432.2388678683
 20
220.9279996779
 10
432.2154071152
 20
220.9395801199
 10
432.193659401
 20
220.9541177393
 10
432.173993982
 20
220.9713656085
 10
432.1567411203
 20
220.9910377077
 10
432.1422055034
 20
221.0127907799
 10
432.1306479029
 20
221.0362253246
 10
432.1222586821
 20
221.0609264634
 10
432.1171656582
 20
221.0864781524
 10
432.1154448222
 20
221.1124436561
  0
LWPOLYLINE
  5
417
100
AcDbEntity
  8
0
100
AcDbPolyline
 62
250
  6
CONTINUOUS
 90
13
 70
0
 10
405.7972788852
 20
220.9261982344
 10
405.7712545249
 20
220.9279722542
 10
405.7456738989
 20
220.9331215002
 10
405.7209731759
 20
220.941558174
 10
405.6975735215
 20
220.9531384238
 10
405.6758739171
 20
220.9676647979
 10
405.6562443574
 20
220.9848896114
 10
405.6390195411
 20
221.0045191684
 10
405.624493164
 20
221.0262187704
 10
405.6129129126
 20
221.0496184241
 10
405.604476239
 20
221.0743191482
 10
405.5993269948
 20
221.0998997769
 10
405.5975529783
 20
221.1259241414
  0
LWPOLYLINE
  5
418
100
AcDbEntity
  8
0
100
AcDbPolyline
 62
250
  6
CONTINUOUS
 90
11
 70
0
 10
405.5975529783
 20
224.2727209789
 10
405.6017120629
 20
224.2716486698
 10
405.6098980196
 20
224.2706152061
 10
405.622005588
 20
224.269620588
 10
405.637872653
 20
224.2686567484
 10
405.6573288213
 20
224.2677317543
 10
405.6802334493
 20
224.2668698064
 10
405.7063834297
 20
224.2660713118
 10
405.735512705
 20
224.2653358633
 10
405.7673782433
 20
224.2646864405
 10
405.8381035222
 20
224.2636502248
  0
LINE
  5
419
100
AcDbEntity
  8
0
100
AcDbLine
 62
7
  6
CONTINUOUS
 10
405.7430878126
 20
224.5646083001
 11
405.7954388559
 21
224.5487359853
  0
LINE
  5
41A
100
AcDbEntity
  8
0
100
AcDbLine
 62
7
  6
CONTINUOUS
 10
405.6882317866
 20
224.5814937435
 11
405.7430878126
 21
224.5646083001
  0
LINE
  5
41B
100
AcDbEntity
  8
0
100
AcDbLine
 62
7
  6
CONTINUOUS
 10
398.4446468682
 20
227.6837357088
 11
398.3978486492
 21
227.6993224397
  0
LWPOLYLINE
  5
41C
100
AcDbEntity
  8
0
100
AcDbPolyline
 62
250
  6
CONTINUOUS
 90
14
 70
0
 10
440.85085484
 20
196.1403149103
 10
440.7754243742
 20
196.262813972
 10
440.7525688545
 20
196.2995717172
 10
440.7308620291
 20
196.3339010924
 10
440.7103321568
 20
196.3660174947
 10
440.6910735533
 20
196.395519734
 10
440.6729919029
 20
196.4224663375
 10
440.6558325174
 20
196.4475301164
 10
440.6394015477
 20
196.4705219795
 10
440.6238928429
 20
196.4908560516
 10
440.6096332624
 20
196.5082952293
 10
440.5967317592
 20
196.5224200819
 10
440.5850793803
 20
196.5327295454
 10
440.5746761256
 20
196.5387927895
  0
LWPOLYLINE
  5
41D
100
AcDbEntity
  8
0
100
AcDbPolyline
 62
7
  6
CONTINUOUS
 90
9
 70
0
 10
440.5221321166
 20
196.7846658469
 10
440.516179553
 20
196.7944173848
 10
440.5103725835
 20
196.803819094
 10
440.5047149037
 20
196.8128576986
 10
440.499202818
 20
196.8215464746
 10
440.4938252392
 20
196.8299252497
 10
440.4885784717
 20
196.8380072997
 10
440.4834662111
 20
196.8457793487
 10
440.4784884574
 20
196.8532413968
  0
LINE
  5
41E
100
AcDbEntity
  8
0
100
AcDbLine
 62
7
  6
CONTINUOUS
 10
440.5733020368
 20
196.6993224397
 11
440.5221321166
 21
196.7846658469
  0
LINE
  5
41F
100
AcDbEntity
  8
0
100
AcDbLine
 62
7
  6
CONTINUOUS
 10
423.8199400368
 20
225.2493224397
 11
423.1594830368
 21
227.1493224397
  0
LWPOLYLINE
  5
420
100
AcDbEntity
  8
0
100
AcDbPolyline
 62
7
  6
CONTINUOUS
 90
6
 70
0
 10
422.5589579162
 20
229.3571632778
 10
422.5792693111
 20
229.2976547048
 10
422.5991044843
 20
229.2369425372
 10
422.6184634358
 20
229.1750267599
 10
422.6370556987
 20
229.1118120535
 10
422.6736829607
 20
228.9820576158
  0
LINE
  5
421
100
AcDbEntity
  8
0
100
AcDbLine
 62
250
  6
CONTINUOUS
 10
432.1154448222
 20
201.2862012233
 11
432.1133020368
 21
201.2926348071
  0
LINE
  5
422
100
AcDbEntity
  8
0
100
AcDbLine
 62
250
  6
CONTINUOUS
 10
432.3154143613
 20
201.4859271302
 11
432.3122194462
 21
201.49551967
  0
LINE
  5
423
100
AcDbEntity
  8
0
100
AcDbLine
 62
250
  6
CONTINUOUS
 10
432.1154448222
 20
224.2862012233
 11
432.1154448222
 21
221.1124436561
  0
LINE
  5
424
100
AcDbEntity
  8
0
100
AcDbLine
 62
250
  6
CONTINUOUS
 10
432.1154448222
 20
201.2862012233
 11
432.1154448222
 21
198.1124436561
  0
LINE
  5
425
100
AcDbEntity
  8
0
100
AcDbLine
 62
250
  6
CONTINUOUS
 10
432.173993005
 20
224.2862012233
 11
432.173993005
 21
221.1124436561
  0
LINE
  5
426
100
AcDbEntity
  8
0
100
AcDbLine
 62
250
  6
CONTINUOUS
 10
432.173993005
 20
201.2862012233
 11
432.173993005
 21
198.1124436561
  0
LWPOLYLINE
  5
427
100
AcDbEntity
  8
0
100
AcDbPolyline
 62
7
  6
CONTINUOUS
 90
10
 70
0
 10
421.930218897
 20
196.5710823171
 10
421.901551001
 20
196.5360202006
 10
421.8707657594
 20
196.5010083812
 10
421.8378631721
 20
196.4660468589
 10
421.802706966
 20
196.4312601345
 10
421.7654334143
 20
196.3965237064
 10
421.7264513362
 20
196.3614640727
 10
421.6858970051
 20
196.3259567355
 10
421.6436341476
 20
196.2901261976
 10
421.569190871
 20
196.2289036067
  0
LWPOLYLINE
  5
428
100
AcDbEntity
  8
0
100
AcDbPolyline
 62
7
  6
CONTINUOUS
 90
10
 70
0
 10
421.3582542968
 20
196.0267439857
 10
421.3404188317
 20
196.0049718827
 10
421.3236470302
 20
195.9830901927
 10
421.3079388923
 20
195.9610989162
 10
421.2932691404
 20
195.9389726601
 10
421.279663052
 20
195.9167368184
 10
421.2671964596
 20
195.894467572
 10
421.2558946406
 20
195.8721903143
 10
421.2457323175
 20
195.849879652
 10
421.2367094903
 20
195.8275355855
  0
LWPOLYLINE
  5
429
100
AcDbEntity
  8
0
100
AcDbPolyline
 62
7
  6
CONTINUOUS
 90
10
 70
0
 10
422.0460934434
 20
196.4286302571
 10
422.0636091756
 20
196.4486325466
 10
422.0801894615
 20
196.4687327947
 10
422.0958343011
 20
196.4889310018
 10
422.1105900739
 20
196.5092362761
 10
422.1244104003
 20
196.52963951
 10
422.1371561417
 20
196.5501133795
 10
422.1487809183
 20
196.5706487767
 10
422.1593311099
 20
196.59125481
 10
422.1688067163
 20
196.6119314796
  0
LWPOLYLINE
  5
42A
100
AcDbEntity
  8
0
100
AcDbPolyline
 62
7
  6
CONTINUOUS
 90
10
 70
0
 10
420.9139453148
 20
195.8090591789
 10
420.944278733
 20
195.8406059416
 10
420.9709659873
 20
195.8734139066
 10
420.9940070778
 20
195.9074830816
 10
421.0133371365
 20
195.9426660419
 10
421.0290210313
 20
195.9791102273
 10
421.0412533662
 20
196.0172579454
 10
421.0500990091
 20
196.0572566413
 10
421.0554930921
 20
196.0989588946
 10
421.0574356151
 20
196.142364718
  0
LWPOLYLINE
  5
42B
100
AcDbEntity
  8
0
100
AcDbPolyline
 62
7
  6
CONTINUOUS
 90
6
 70
0
 10
421.5493221689
 20
195.9758387732
 10
421.5696227217
 20
195.995569789
 10
421.5907965099
 20
196.0155805619
 10
421.6128435334
 20
196.035871093
 10
421.6358052216
 20
196.0563869794
 10
421.6596401451
 20
196.0771826259
  0
LWPOLYLINE
  5
42C
100
AcDbEntity
  8
0
100
AcDbPolyline
 62
7
  6
CONTINUOUS
 90
10
 70
0
 10
421.3969147924
 20
197.0941873918
 10
421.3703026444
 20
197.0687849837
 10
421.3462397307
 20
197.0407356616
 10
421.3247260512
 20
197.0100394384
 10
421.305700813
 20
196.9766463282
 10
421.2892248089
 20
196.9406063464
 10
421.2754804186
 20
196.9020695084
 10
421.264528435
 20
196.8610858306
 10
421.2563080651
 20
196.8176053313
 10
421.2508193088
 20
196.7716280296
  0
LWPOLYLINE
  5
42D
100
AcDbEntity
  8
0
100
AcDbPolyline
 62
7
  6
CONTINUOUS
 90
10
 70
0
 10
420.7722215804
 20
195.9149629744
 10
420.7517473556
 20
195.896056146
 10
420.7303597386
 20
195.8794026866
 10
420.7080587294
 20
195.8650025891
 10
420.6849209788
 20
195.8528835232
 10
420.660869836
 20
195.8430178082
 10
420.6356753483
 20
195.8353224133
 10
420.609260865
 20
195.8297696597
 10
420.5817030369
 20
195.8263872208
 10
420.553001864
 20
195.8251750953
  0
LWPOLYLINE
  5
42E
100
AcDbEntity
  8
0
100
AcDbPolyline
 62
7
  6
CONTINUOUS
 90
10
 70
0
 10
421.5209419858
 20
196.9731970205
 10
421.5391292747
 20
196.9898314171
 10
421.558669379
 20
197.0045338896
 10
421.5795622987
 20
197.0173044329
 10
421.6017918442
 20
197.0281560437
 10
421.6253742051
 20
197.0370757176
 10
421.6503579504
 20
197.0440244495
 10
421.6767592699
 20
197.0489892363
 10
421.7045619739
 20
197.0519830772
 10
421.7337660623
 20
197.053005971
  0
LWPOLYLINE
  5
42F
100
AcDbEntity
  8
0
100
AcDbPolyline
 62
7
  6
CONTINUOUS
 90
10
 70
0
 10
420.2470673156
 20
197.1031423583
 10
420.2222065017
 20
197.0804150489
 10
420.1992473283
 20
197.0553983271
 10
420.1781897954
 20
197.0280922027
 10
420.1589668879
 20
196.9984792868
 10
420.1416456209
 20
196.9665769909
 10
420.1264270396
 20
196.9324375268
 10
420.113378159
 20
196.8960783072
 10
420.102431964
 20
196.8574819469
 10
420.0935884547
 20
196.8166484609
  0
LWPOLYLINE
  5
430
100
AcDbEntity
  8
0
100
AcDbPolyline
 62
7
  6
CONTINUOUS
 90
10
 70
0
 10
420.369608195
 20
196.9867532689
 10
420.3855947158
 20
197.0006591618
 10
420.4025414704
 20
197.0129696418
 10
420.4204484587
 20
197.0236847057
 10
420.4392840558
 20
197.0328207234
 10
420.4590798867
 20
197.0403613195
 10
420.4799308262
 20
197.0462573729
 10
420.5018684991
 20
197.0504925091
 10
420.5248612806
 20
197.0530830998
 10
420.5489091706
 20
197.0540291443
  0
LWPOLYLINE
  5
431
100
AcDbEntity
  8
0
100
AcDbPolyline
 62
7
  6
CONTINUOUS
 90
9
 70
0
 10
421.569190871
 20
196.2289036067
 10
421.5395857079
 20
196.2038266529
 10
421.5108472747
 20
196.1787416003
 10
421.4829149679
 20
196.1536972358
 10
421.455849391
 20
196.1286447724
 10
421.4298323543
 20
196.1034378509
 10
421.4049244615
 20
196.0780276854
 10
421.381065109
 20
196.0524630634
 10
421.3582542968
 20
196.0267439857
  0
LWPOLYLINE
  5
432
100
AcDbEntity
  8
0
100
AcDbPolyline
 62
7
  6
CONTINUOUS
 90
10
 70
0
 10
416.9127069494
 20
196.7456690779
 10
416.9346018046
 20
196.7588263992
 10
416.9559065953
 20
196.7722134723
 10
416.9766213216
 20
196.7858302977
 10
416.9967855728
 20
196.7996558395
 10
417.0163597597
 20
196.8137111348
 10
417.0352251141
 20
196.8280592935
 10
417.0533420467
 20
196.8427213528
 10
417.0707501469
 20
196.8576762771
 10
417.0874494147
 20
196.872924067
  0
LWPOLYLINE
  5
433
100
AcDbEntity
  8
0
100
AcDbPolyline
 62
7
  6
CONTINUOUS
 90
10
 70
0
 10
419.2435391381
 20
196.7456690434
 10
419.2654340006
 20
196.7588263656
 10
419.2867387956
 20
196.7722134399
 10
419.3074535233
 20
196.7858302668
 10
419.3276177738
 20
196.7996558097
 10
419.3471919568
 20
196.8137111062
 10
419.3660573019
 20
196.8280592683
 10
419.3841742188
 20
196.8427213339
 10
419.4015822976
 20
196.8576762665
 10
419.4182815385
 20
196.872924067
  0
LWPOLYLINE
  5
434
100
AcDbEntity
  8
0
100
AcDbPolyline
 62
7
  6
CONTINUOUS
 90
10
 70
0
 10
416.7191001755
 20
196.6508913412
 10
416.7403098165
 20
196.6589346758
 10
416.7615931203
 20
196.667628623
 10
416.782950087
 20
196.6769731835
 10
416.8043781927
 20
196.6870066702
 10
416.8258799613
 20
196.6976907725
 10
416.8474629641
 20
196.7089105569
 10
416.869129725
 20
196.7206277127
 10
416.8908777201
 20
196.7328805527
 10
416.9127069494
 20
196.7456690779
  0
LWPOLYLINE
  5
435
100
AcDbEntity
  8
0
100
AcDbPolyline
 62
250
  6
CONTINUOUS
 90
13
 70
0
 10
432.7621701531
 20
224.4625136513
 10
432.7441154069
 20
224.459937959
 10
432.7263568507
 20
224.4541406834
 10
432.709184594
 20
224.4452171646
 10
432.6928797982
 20
224.4333143982
 10
432.6777078158
 20
224.4186270335
 10
432.6639144251
 20
224.4013929423
 10
432.6517205503
 20
224.3818845481
 10
432.6413320271
 20
224.3604270722
 10
432.6329273965
 20
224.3373975159
 10
432.6266393923
 20
224.3131853165
 10
432.6225601066
 20
224.2881793844
 10
432.6207487968
 20
224.2627877443
  0
LWPOLYLINE
  5
436
100
AcDbEntity
  8
0
100
AcDbPolyline
 62
250
  6
CONTINUOUS
 90
13
 70
0
 10
406.1644339206
 20
220.9361312281
 10
406.1824886668
 20
220.9387069203
 10
406.200247223
 20
220.944504196
 10
406.2174194797
 20
220.9534277147
 10
406.2337242755
 20
220.9653304812
 10
406.248896258
 20
220.9800178459
 10
406.2626896486
 20
220.9972519372
 10
406.2748835234
 20
221.0167603314
 10
406.2852720466
 20
221.0382178073
 10
406.2936766772
 20
221.0612473635
 10
406.2999646814
 20
221.0854595629
 10
406.3040439671
 20
221.110465495
 10
406.3058552768
 20
221.135857135
  0
LWPOLYLINE
  5
437
100
AcDbEntity
  8
0
100
AcDbPolyline
 62
250
  6
CONTINUOUS
 90
13
 70
0
 10
432.3154143613
 20
224.4859271302
 10
432.2973663692
 20
224.4833530168
 10
432.2796134411
 20
224.4775593798
 10
432.2624454627
 20
224.4686410067
 10
432.2461436168
 20
224.4567444404
 10
432.2309730408
 20
224.4420636697
 10
432.2171791803
 20
224.4248354645
 10
432.2049834388
 20
224.4053319069
 10
432.1945917776
 20
224.3838773397
 10
432.1861826093
 20
224.3608463781
 10
432.1798895982
 20
224.3366272684
 10
432.1758062517
 20
224.3116094382
 10
432.173993005
 20
224.2862012233
  0
LWPOLYLINE
  5
438
100
AcDbEntity
  8
0
100
AcDbPolyline
 62
250
  6
CONTINUOUS
 90
13
 70
0
 10
406.6111897124
 20
220.9127177491
 10
406.6292377045
 20
220.9152918625
 10
406.6469906326
 20
220.9210854996
 10
406.664158611
 20
220.9300038727
 10
406.6804604568
 20
220.9419004389
 10
406.6956310329
 20
220.9565812097
 10
406.7094248934
 20
220.9738094149
 10
406.7216206349
 20
220.9933129725
 10
406.732012296
 20
221.0147675396
 10
406.7404214643
 20
221.0377985013
 10
406.7467144755
 20
221.062017611
 10
406.7507978219
 20
221.0870354412
 10
406.7526110686
 20
221.1124436561
  0
LWPOLYLINE
  5
439
100
AcDbEntity
  8
0
100
AcDbPolyline
 62
250
  6
CONTINUOUS
 90
13
 70
0
 10
432.3154143613
 20
224.4859271302
 10
432.2893032951
 20
224.484193339
 10
432.2636411945
 20
224.4790697943
 10
432.2388672648
 20
224.4706449512
 10
432.2154063167
 20
224.4590642981
 10
432.1936584513
 20
224.4445264112
 10
432.1739930191
 20
224.427278308
 10
432.1567402863
 20
224.4076060848
 10
432.1422048693
 20
224.3858530012
 10
432.1306474904
 20
224.3624185589
 10
432.1222584731
 20
224.3377176367
 10
432.1171655995
 20
224.3121662834
 10
432.1154448222
 20
224.2862012233
  0
LWPOLYLINE
  5
43A
100
AcDbEntity
  8
0
100
AcDbPolyline
 62
7
  6
CONTINUOUS
 90
7
 70
0
 10
398.5157882857
 20
221.6207038707
 10
398.498515884
 20
221.6202702121
 10
398.4836329225
 20
221.6198035537
 10
398.4716154356
 20
221.6193185852
 10
398.4626221014
 20
221.618820203
 10
398.4564942418
 20
221.6183035107
 10
398.4532318568
 20
221.6177685081
  0
LWPOLYLINE
  5
43B
100
AcDbEntity
  8
0
100
AcDbPolyline
 62
250
  6
CONTINUOUS
 90
10
 70
0
 10
433.1568892044
 20
224.264643828
 10
433.1888202093
 20
224.2652854033
 10
433.2181609585
 20
224.2660146448
 10
433.2446339327
 20
224.2668111932
 10
433.2679573451
 20
224.2676772332
 10
433.287852284
 20
224.2686105803
 10
433.3040822384
 20
224.2695843216
 10
433.3164536132
 20
224.2705894863
 10
433.3248143691
 20
224.2716350454
 10
433.3290510954
 20
224.2727209987
  0
LINE
  5
43C
100
AcDbEntity
  8
0
100
AcDbLine
 62
7
  6
CONTINUOUS
 10
398.5575849907
 20
221.6214692136
 11
398.5157882857
 21
221.6207038707
  0
LWPOLYLINE
  5
43D
100
AcDbEntity
  8
0
100
AcDbPolyline
 62
250
  6
CONTINUOUS
 90
13
 70
0
 10
406.6111897124
 20
224.4859271302
 10
406.6373005687
 20
224.4841933668
 10
406.6629624644
 20
224.4790699057
 10
406.6877362053
 20
224.4706452015
 10
406.7111969584
 20
224.4590647594
 10
406.7329446727
 20
224.44452714
 10
406.7526100917
 20
224.4272792709
 10
406.7698629533
 20
224.4076071716
 10
406.7843985703
 20
224.3858540994
 10
406.7959561707
 20
224.3624195548
 10
406.8043453916
 20
224.337718416
 10
406.8094384155
 20
224.312166727
 10
406.8111592514
 20
224.2862012233
  0
LWPOLYLINE
  5
43E
100
AcDbEntity
  8
0
100
AcDbPolyline
 62
250
  6
CONTINUOUS
 90
13
 70
0
 10
406.1644339206
 20
224.4625136513
 10
406.1824885267
 20
224.4599379918
 10
406.2002469468
 20
224.4541407998
 10
406.2174190783
 20
224.4452174143
 10
406.2337237452
 20
224.4333148461
 10
406.2488956269
 20
224.4186277289
 10
406.2626890057
 20
224.4013938512
 10
406.2748829609
 20
224.3818855684
 10
406.2852716122
 20
224.3604281005
 10
406.2936763876
 20
224.3373984471
 10
406.2999645281
 20
224.3131860442
 10
406.3040439187
 20
224.2881797985
 10
406.3058552768
 20
224.2627877443
  0
LWPOLYLINE
  5
43F
100
AcDbEntity
  8
0
100
AcDbPolyline
 62
250
  6
CONTINUOUS
 90
13
 70
0
 10
406.6111897124
 20
224.4859271302
 10
406.6292378198
 20
224.4833529899
 10
406.6469908572
 20
224.4775592852
 10
406.6641589332
 20
224.4686408063
 10
406.6804608759
 20
224.4567440865
 10
406.695631525
 20
224.4420631275
 10
406.7094253905
 20
224.424834762
 10
406.7216210661
 20
224.4053311248
 10
406.7320126258
 20
224.3838765594
 10
406.7404216823
 20
224.3608456773
 10
406.7467145903
 20
224.3366267234
 10
406.750797858
 20
224.3116091294
 10
406.7526110686
 20
224.2862012233
  0
LWPOLYLINE
  5
440
100
AcDbEntity
  8
0
100
AcDbPolyline
 62
250
  6
CONTINUOUS
 90
13
 70
0
 10
432.3154143613
 20
220.9127177491
 10
432.2973662538
 20
220.9152918895
 10
432.2796132165
 20
220.9210855942
 10
432.2624451404
 20
220.9300040731
 10
432.2461431977
 20
220.9419007929
 10
432.2309725486
 20
220.9565817519
 10
432.2171786832
 20
220.9738101174
 10
432.2049830075
 20
220.9933137546
 10
432.1945914478
 20
221.01476832
 10
432.1861823913
 20
221.0377992021
 10
432.1798894833
 20
221.062018156
 10
432.1758062156
 20
221.08703575
 10
432.173993005
 20
221.1124436561
  0
LWPOLYLINE
  5
441
100
AcDbEntity
  8
0
100
AcDbPolyline
 62
250
  6
CONTINUOUS
 90
13
 70
0
 10
432.7621701531
 20
220.9361312281
 10
432.7441155469
 20
220.9387068876
 10
432.7263571268
 20
220.9445040796
 10
432.7091849953
 20
220.953427465
 10
432.6928803284
 20
220.9653300332
 10
432.6777084467
 20
220.9800171505
 10
432.663915068
 20
220.9972510282
 10
432.6517211127
 20
221.016759311
 10
432.6413324614
 20
221.0382167789
 10
432.632927686
 20
221.0612464323
 10
432.6266395456
 20
221.0854588351
 10
432.6225601549
 20
221.1104650809
 10
432.6207487968
 20
221.135857135
  0
LWPOLYLINE
  5
442
100
AcDbEntity
  8
0
100
AcDbPolyline
 62
7
  6
CONTINUOUS
 90
8
 70
0
 10
405.7954388559
 20
224.5487359853
 10
405.7980461868
 20
224.5482951538
 10
405.8015771308
 20
224.5479133011
 10
405.8060316876
 20
224.5475904272
 10
405.8116550086
 20
224.5473256832
 10
405.8182019425
 20
224.5471199181
 10
405.8249370359
 20
224.5469756785
 10
405.8315419079
 20
224.5469120621
  0
LINE
  5
443
100
AcDbEntity
  8
0
100
AcDbLine
 62
7
  6
CONTINUOUS
 10
440.3184709015
 20
194.719306609
 11
440.3284622252
 21
194.6993224397
  0
LWPOLYLINE
  5
444
100
AcDbEntity
  8
0
100
AcDbPolyline
 62
250
  6
CONTINUOUS
 90
13
 70
0
 10
433.3290510954
 20
201.2727207379
 10
433.3272769222
 20
201.2987462657
 10
433.3221272675
 20
201.3243278252
 10
433.3136900121
 20
201.3490292122
 10
433.3021090799
 20
201.3724292666
 10
433.2875820136
 20
201.3941289876
 10
433.2703566296
 20
201.413758353
 10
433.2507267226
 20
201.4309827189
 10
433.2290270528
 20
201.4455084812
 10
433.2056276938
 20
201.4570880385
 10
433.1809276649
 20
201.4655240564
 10
433.1553481176
 20
201.4706728152
 10
433.1293251853
 20
201.4724466418
  0
LINE
  5
445
100
AcDbEntity
  8
0
100
AcDbLine
 62
7
  6
CONTINUOUS
 10
432.6133020368
 20
220.8988972203
 11
432.6133020368
 21
220.7464645946
  0
LINE
  5
446
100
AcDbEntity
  8
0
100
AcDbLine
 62
7
  6
CONTINUOUS
 10
432.6133020368
 20
197.8988972203
 11
432.6133020368
 21
197.7511803042
  0
LINE
  5
447
100
AcDbEntity
  8
0
100
AcDbLine
 62
7
  6
CONTINUOUS
 10
432.6133020368
 20
201.499747659
 11
432.6133020368
 21
201.6521802847
  0
LINE
  5
448
100
AcDbEntity
  8
0
100
AcDbLine
 62
7
  6
CONTINUOUS
 10
432.6133020368
 20
224.499747659
 11
432.6133020368
 21
224.6474645752
  0
LINE
  5
449
100
AcDbEntity
  8
0
100
AcDbLine
 62
250
  6
CONTINUOUS
 10
432.6207487968
 20
224.2627877443
 11
432.6207487968
 21
221.135857135
  0
LINE
  5
44A
100
AcDbEntity
  8
0
100
AcDbLine
 62
250
  6
CONTINUOUS
 10
432.6207487968
 20
201.2627877443
 11
432.6207487968
 21
198.135857135
  0
LINE
  5
44B
100
AcDbEntity
  8
0
100
AcDbLine
 62
250
  6
CONTINUOUS
 10
432.7621701531
 20
197.9361312281
 11
432.7621701531
 21
201.4625136513
  0
LINE
  5
44C
100
AcDbEntity
  8
0
100
AcDbLine
 62
250
  6
CONTINUOUS
 10
432.7621701531
 20
220.9361312281
 11
432.7621701531
 21
224.4625136513
  0
LINE
  5
44D
100
AcDbEntity
  8
0
100
AcDbLine
 62
250
  6
CONTINUOUS
 10
432.9295992815
 20
197.9361312281
 11
432.9295992815
 21
201.4625136513
  0
LINE
  5
44E
100
AcDbEntity
  8
0
100
AcDbLine
 62
250
  6
CONTINUOUS
 10
432.9295992815
 20
220.9361312281
 11
432.9295992815
 21
224.4625136513
  0
LINE
  5
44F
100
AcDbEntity
  8
0
100
AcDbLine
 62
250
  6
CONTINUOUS
 10
433.3290510954
 20
224.2727207379
 11
433.3290510954
 21
221.1259241414
  0
LINE
  5
450
100
AcDbEntity
  8
0
100
AcDbLine
 62
250
  6
CONTINUOUS
 10
433.3290510954
 20
201.2727207379
 11
433.3290510954
 21
198.1259241414
  0
LINE
  5
451
100
AcDbEntity
  8
0
100
AcDbLine
 62
7
  6
CONTINUOUS
 10
433.4559268902
 20
221.6054317124
 11
433.4559268902
 21
220.9990483466
  0
LINE
  5
452
100
AcDbEntity
  8
0
100
AcDbLine
 62
7
  6
CONTINUOUS
 10
433.4559268902
 20
200.7932131669
 11
433.4559268902
 21
201.3995965327
  0
LWPOLYLINE
  5
453
100
AcDbEntity
  8
0
100
AcDbPolyline
 62
7
  6
CONTINUOUS
 90
7
 70
0
 10
433.5043489588
 20
197.950626278
 10
433.5034882506
 20
197.9323802611
 10
433.5009672279
 20
197.9143102782
 10
433.496812248
 20
197.8965658983
 10
433.4910630615
 20
197.8792932362
 10
433.4837723839
 20
197.8626337652
 10
433.4750053622
 20
197.846723178
  0
LWPOLYLINE
  5
454
100
AcDbEntity
  8
0
100
AcDbPolyline
 62
250
  6
CONTINUOUS
 90
13
 70
0
 10
432.1154448222
 20
201.2862012233
 10
432.1171656582
 20
201.312166727
 10
432.1222586821
 20
201.3377184159
 10
432.1306479029
 20
201.3624195548
 10
432.1422055034
 20
201.3858540994
 10
432.1567411203
 20
201.4076071716
 10
432.173993982
 20
201.4272792709
 10
432.193659401
 20
201.44452714
 10
432.2154071152
 20
201.4590647594
 10
432.2388678683
 20
201.4706452015
 10
432.2636416093
 20
201.4790699057
 10
432.2893035049
 20
201.4841933668
 10
432.3154143613
 20
201.4859271302
  0
LWPOLYLINE
  5
455
100
AcDbEntity
  8
0
100
AcDbPolyline
 62
250
  6
CONTINUOUS
 90
13
 70
0
 10
432.173993005
 20
201.2862012233
 10
432.1758062156
 20
201.3116091294
 10
432.1798894833
 20
201.3366267234
 10
432.1861823913
 20
201.3608456773
 10
432.1945914479
 20
201.3838765594
 10
432.2049830075
 20
201.4053311248
 10
432.2171786832
 20
201.424834762
 10
432.2309725486
 20
201.4420631275
 10
432.2461431977
 20
201.4567440865
 10
432.2624451404
 20
201.4686408063
 10
432.2796132165
 20
201.4775592852
 10
432.2973662538
 20
201.4833529899
 10
432.3154143613
 20
201.4859271302
  0
LWPOLYLINE
  5
456
100
AcDbEntity
  8
0
100
AcDbPolyline
 62
250
  6
CONTINUOUS
 90
13
 70
0
 10
432.6207487968
 20
201.2627877443
 10
432.6225601549
 20
201.2881797985
 10
432.6266395456
 20
201.3131860442
 10
432.632927686
 20
201.3373984471
 10
432.6413324614
 20
201.3604281005
 10
432.6517211127
 20
201.3818855684
 10
432.663915068
 20
201.4013938512
 10
432.6777084467
 20
201.4186277288
 10
432.6928803284
 20
201.4333148461
 10
432.7091849953
 20
201.4452174143
 10
432.7263571268
 20
201.4541407998
 10
432.7441155469
 20
201.4599379918
 10
432.7621701531
 20
201.4625136513
  0
LINE
  5
457
100
AcDbEntity
  8
0
100
AcDbLine
 62
7
  6
CONTINUOUS
 10
425.4775390368
 20
193.3243224397
 11
425.1189670368
 21
192.7236354397
  0
LINE
  5
458
100
AcDbEntity
  8
0
100
AcDbLine
 62
7
  6
CONTINUOUS
 10
425.2041870368
 20
192.5774564397
 11
425.6760830368
 21
193.3243224397
  0
LWPOLYLINE
  5
459
100
AcDbEntity
  8
0
100
AcDbPolyline
 62
7
  6
CONTINUOUS
 90
9
 70
0
 10
421.7979496275
 20
196.1951315914
 10
421.8325806343
 20
196.2250426495
 10
421.8662380424
 20
196.2546913457
 10
421.8989827212
 20
196.2840200338
 10
421.9307538014
 20
196.3130863567
 10
421.9613686746
 20
196.3420632476
 10
421.9907664712
 20
196.3710083507
 10
422.0190080608
 20
196.3998640207
 10
422.0460934434
 20
196.4286302571
  0
LINE
  5
45A
100
AcDbEntity
  8
0
100
AcDbLine
 62
7
  6
CONTINUOUS
 10
421.6596401451
 20
196.0771826259
 11
421.709515404
 21
196.1201572441
  0
LINE
  5
45B
100
AcDbEntity
  8
0
100
AcDbLine
 62
7
  6
CONTINUOUS
 10
421.709515404
 20
196.1201572441
 11
421.7979496275
 21
196.1951315914
  0
LWPOLYLINE
  5
45C
100
AcDbEntity
  8
0
100
AcDbPolyline
 62
7
  6
CONTINUOUS
 90
10
 70
0
 10
420.7001900556
 20
196.6306615913
 10
420.6788306261
 20
196.6177372557
 10
420.6569950312
 20
196.606341945
 10
420.6346832707
 20
196.5964756559
 10
420.6119795065
 20
196.588151397
 10
420.5887995767
 20
196.5813561549
 10
420.5648909968
 20
196.5760508942
 10
420.5401696051
 20
196.5722226022
 10
420.5147195632
 20
196.5698842893
 10
420.4885408711
 20
196.5690359547
  0
LWPOLYLINE
  5
45D
100
AcDbEntity
  8
0
100
AcDbPolyline
 62
7
  6
CONTINUOUS
 90
10
 70
0
 10
420.7770811152
 20
196.5117371752
 10
420.7995039866
 20
196.5227198193
 10
420.8206293535
 20
196.5345257293
 10
420.840457216
 20
196.5471549068
 10
420.8590095611
 20
196.560666824
 10
420.8762644018
 20
196.5750020128
 10
420.8921557771
 20
196.5899820635
 10
420.9066617
 20
196.6055475074
 10
420.9198041574
 20
196.6217578166
 10
420.9315831494
 20
196.638612993
  0
LWPOLYLINE
  5
45E
100
AcDbEntity
  8
0
100
AcDbPolyline
 62
250
  6
CONTINUOUS
 90
12
 70
0
 10
433.1293251884
 20
201.4724466449
 10
433.1268150873
 20
201.4713488357
 10
433.1226992216
 20
201.4703101688
 10
433.1169775913
 20
201.4693306444
 10
433.1094050596
 20
201.4684044287
 10
433.1002267634
 20
201.4675373554
 10
433.0901781135
 20
201.4667469252
 10
433.0793103338
 20
201.466040734
 10
433.0675722004
 20
201.4654111858
 10
433.0555454522
 20
201.4648529941
 10
433.0434558514
 20
201.4643707447
 10
433.0310776358
 20
201.4639598518
  0
LWPOLYLINE
  5
45F
100
AcDbEntity
  8
0
100
AcDbPolyline
 62
7
  6
CONTINUOUS
 90
10
 70
0
 10
419.049932344
 20
196.6508913412
 10
419.0711419875
 20
196.658934675
 10
419.092425294
 20
196.6676286202
 10
419.1137822635
 20
196.6769731778
 10
419.1352103725
 20
196.6870066599
 10
419.1567121444
 20
196.6976907566
 10
419.1782951498
 20
196.7089105356
 10
419.1999619124
 20
196.7206276868
 10
419.2217099084
 20
196.7328805224
 10
419.2435391381
 20
196.7456690434
  0
LWPOLYLINE
  5
460
100
AcDbEntity
  8
0
100
AcDbPolyline
 62
250
  6
CONTINUOUS
 90
13
 70
0
 10
405.7972788852
 20
224.4724466449
 10
405.7712562082
 20
224.470672851
 10
405.7456768537
 20
224.4655241775
 10
405.7209769488
 20
224.4570882754
 10
405.6975776424
 20
224.445508841
 10
405.6758779606
 20
224.4309831879
 10
405.6562479916
 20
224.413758902
 10
405.6390225068
 20
224.3941295706
 10
405.6244953181
 20
224.3724298286
 10
405.6129142644
 20
224.3490297036
 10
405.6044769041
 20
224.3243282002
 10
405.5993271746
 20
224.2987464773
 10
405.5975529709
 20
224.2727207454
  0
LINE
  5
461
100
AcDbEntity
  8
0
100
AcDbLine
 62
250
  6
CONTINUOUS
 10
406.3058552768
 20
224.2627877443
 11
406.7526110686
 21
224.2862012233
  0
LINE
  5
462
100
AcDbEntity
  8
0
100
AcDbLine
 62
250
  6
CONTINUOUS
 10
406.1644339206
 20
224.4625136513
 11
406.6111897124
 21
224.4859271302
  0
LWPOLYLINE
  5
463
100
AcDbEntity
  8
0
100
AcDbPolyline
 62
7
  6
CONTINUOUS
 90
37
 70
0
 10
415.6880790673
 20
225.9809934397
 10
415.7264879399
 20
225.9819815385
 10
415.7637598471
 20
225.9833183668
 10
415.799894789
 20
225.9850039244
 10
415.8347970413
 20
225.9869103149
 10
415.8685623283
 20
225.9891654345
 10
415.9014778222
 20
225.9921529717
 10
415.9335643277
 20
225.9959700245
 10
415.9648010401
 20
226.000519494
 10
415.995412718
 20
226.0058937728
 10
416.0254150619
 20
226.0120760847
 10
416.0547923712
 20
226.0190832041
 10
416.0837223021
 20
226.02705785
 10
416.1122965291
 20
226.0359447841
 10
416.1404233778
 20
226.0457992418
 10
416.168005481
 20
226.0569296507
 10
416.195138284
 20
226.0693754138
 10
416.2217263415
 20
226.0830971227
 10
416.247385951
 20
226.0982849869
 10
416.2721306774
 20
226.1150068499
 10
416.2959469556
 20
226.1331948596
 10
416.318410388
 20
226.1528356816
 10
416.3394991405
 20
226.1740293863
 10
416.3592350471
 20
226.1966758923
 10
416.3772592128
 20
226.220461637
 10
416.3934220054
 20
226.245399123
 10
416.4078730572
 20
226.2714758375
 10
416.4207023692
 20
226.2983406981
 10
416.4318911575
 20
226.3259817944
 10
416.441458206
 20
226.3544110287
 10
416.4495498682
 20
226.3833130405
 10
416.4561224778
 20
226.4126147241
 10
416.4612197009
 20
226.4423891802
 10
416.4651188894
 20
226.4725403597
 10
416.4679124936
 20
226.503036245
 10
416.4695080632
 20
226.5339088495
 10
416.469905598
 20
226.5651581707
  0
LINE
  5
464
100
AcDbEntity
  8
0
100
AcDbLine
 62
7
  6
CONTINUOUS
 10
432.3122194462
 20
224.49551967
 11
432.6133020368
 21
224.499747659
  0
LINE
  5
465
100
AcDbEntity
  8
0
100
AcDbLine
 62
250
  6
CONTINUOUS
 10
433.0866501672
 20
224.2636289772
 11
433.1568892044
 21
224.264643828
  0
LWPOLYLINE
  5
466
100
AcDbEntity
  8
0
100
AcDbPolyline
 62
7
  6
CONTINUOUS
 90
8
 70
0
 10
433.0956647676
 20
224.5469192582
 10
433.102414515
 20
224.546986561
 10
433.1090744396
 20
224.5471340882
 10
433.1154225549
 20
224.5473426248
 10
433.1208650758
 20
224.5476075461
 10
433.1252040741
 20
224.5479273104
 10
433.1286374782
 20
224.5483034593
 10
433.1311652879
 20
224.5487359929
  0
LWPOLYLINE
  5
467
100
AcDbEntity
  8
0
100
AcDbPolyline
 62
250
  6
CONTINUOUS
 90
15
 70
0
 10
432.9501203588
 20
224.4625725422
 10
432.9700093357
 20
224.4627316475
 10
432.9892662123
 20
224.4629909674
 10
433.008054572
 20
224.4633547595
 10
433.0262108313
 20
224.4638187661
 10
433.04324424
 20
224.4643702139
 10
433.0591409393
 20
224.4650114428
 10
433.073914788
 20
224.4657401129
 10
433.0871166113
 20
224.4665364313
 10
433.0987111837
 20
224.4674030127
 10
433.1087337307
 20
224.4683372425
 10
433.1168407545
 20
224.4693114842
 10
433.1229177557
 20
224.4703165258
 10
433.1270792337
 20
224.4713615794
 10
433.1293251884
 20
224.4724466449
  0
LWPOLYLINE
  5
468
100
AcDbEntity
  8
0
100
AcDbPolyline
 62
7
  6
CONTINUOUS
 90
8
 70
0
 10
405.9105071559
 20
224.5468987733
 10
405.9187423088
 20
224.5469594138
 10
405.9261579618
 20
224.5471074149
 10
405.9330665064
 20
224.5473206051
 10
405.9389102884
 20
224.5475908696
 10
405.9435034229
 20
224.5479155032
 10
405.9470317947
 20
224.548297211
 10
405.9494954039
 20
224.5487359929
  0
LINE
  5
469
100
AcDbEntity
  8
0
100
AcDbLine
 62
250
  6
CONTINUOUS
 10
433.0099045494
 20
224.2630061471
 11
433.0866501672
 21
224.2636289772
  0
LINE
  5
46A
100
AcDbEntity
  8
0
100
AcDbLine
 62
250
  6
CONTINUOUS
 10
432.6207487968
 20
224.2627877443
 11
433.0099045494
 21
224.2630061471
  0
LINE
  5
46B
100
AcDbEntity
  8
0
100
AcDbLine
 62
250
  6
CONTINUOUS
 10
406.7526110686
 20
224.2862012233
 11
406.8111592514
 21
224.2862012233
  0
LINE
  5
46C
100
AcDbEntity
  8
0
100
AcDbLine
 62
250
  6
CONTINUOUS
 10
432.1154448222
 20
224.2862012233
 11
432.173993005
 21
224.2862012233
  0
LINE
  5
46D
100
AcDbEntity
  8
0
100
AcDbLine
 62
250
  6
CONTINUOUS
 10
432.7621701531
 20
224.4625136513
 11
432.9501203588
 21
224.4625725422
  0
LINE
  5
46E
100
AcDbEntity
  8
0
100
AcDbLine
 62
7
  6
CONTINUOUS
 10
406.2694139058
 20
224.6474645752
 11
406.3133020368
 21
224.6474645752
  0
LINE
  5
46F
100
AcDbEntity
  8
0
100
AcDbLine
 62
7
  6
CONTINUOUS
 10
432.6133020368
 20
224.6474645752
 11
432.6571901678
 21
224.6474645752
  0
LINE
  5
470
100
AcDbEntity
  8
0
100
AcDbLine
 62
7
  6
CONTINUOUS
 10
415.1066640368
 20
225.2493224397
 11
415.5145780368
 21
225.2493224397
  0
LINE
  5
471
100
AcDbEntity
  8
0
100
AcDbLine
 62
7
  6
CONTINUOUS
 10
416.7251650368
 20
225.2493224397
 11
417.8360780368
 21
225.2493224397
  0
LINE
  5
472
100
AcDbEntity
  8
0
100
AcDbLine
 62
7
  6
CONTINUOUS
 10
418.0410010368
 20
225.2493224397
 11
418.4304680368
 21
225.2493224397
  0
LINE
  5
473
100
AcDbEntity
  8
0
100
AcDbLine
 62
7
  6
CONTINUOUS
 10
419.4620150368
 20
225.2493224397
 11
419.8725750368
 21
225.2493224397
  0
LINE
  5
474
100
AcDbEntity
  8
0
100
AcDbLine
 62
7
  6
CONTINUOUS
 10
420.0804290368
 20
225.2493224397
 11
420.4620300368
 21
225.2493224397
  0
LINE
  5
475
100
AcDbEntity
  8
0
100
AcDbLine
 62
7
  6
CONTINUOUS
 10
421.2172970368
 20
225.2493224397
 11
421.7962420368
 21
225.2493224397
  0
LINE
  5
476
100
AcDbEntity
  8
0
100
AcDbLine
 62
7
  6
CONTINUOUS
 10
421.9883660368
 20
225.2493224397
 11
422.3778330368
 21
225.2493224397
  0
LINE
  5
477
100
AcDbEntity
  8
0
100
AcDbLine
 62
7
  6
CONTINUOUS
 10
423.4095230368
 20
225.2493224397
 11
423.8199400368
 21
225.2493224397
  0
LINE
  5
478
100
AcDbEntity
  8
0
100
AcDbLine
 62
7
  6
CONTINUOUS
 10
417.8360780368
 20
225.5650714397
 11
417.1330790368
 21
225.5650714397
  0
LINE
  5
479
100
AcDbEntity
  8
0
100
AcDbLine
 62
7
  6
CONTINUOUS
 10
418.5725400368
 20
225.6520164397
 11
419.3251620368
 21
225.6520164397
  0
LINE
  5
47A
100
AcDbEntity
  8
0
100
AcDbLine
 62
7
  6
CONTINUOUS
 10
422.5199770368
 20
225.6520164397
 11
423.2725980368
 21
225.6520164397
  0
LINE
  5
47B
100
AcDbEntity
  8
0
100
AcDbLine
 62
7
  6
CONTINUOUS
 10
423.1699230368
 20
225.9677654397
 11
422.6252270368
 21
225.9677654397
  0
LINE
  5
47C
100
AcDbEntity
  8
0
100
AcDbLine
 62
7
  6
CONTINUOUS
 10
419.2225580368
 20
225.9677654397
 11
418.6777900368
 21
225.9677654397
  0
LINE
  5
47D
100
AcDbEntity
  8
0
100
AcDbLine
 62
7
  6
CONTINUOUS
 10
415.5145780368
 20
225.9809934397
 11
415.6880790673
 21
225.9809934397
  0
LINE
  5
47E
100
AcDbEntity
  8
0
100
AcDbLine
 62
7
  6
CONTINUOUS
 10
433.0161456587
 20
224.5469046509
 11
433.0956647676
 21
224.5469192582
  0
LINE
  5
47F
100
AcDbEntity
  8
0
100
AcDbLine
 62
7
  6
CONTINUOUS
 10
405.8315419079
 20
224.5469120621
 11
405.9105071559
 21
224.5468987733
  0
LINE
  5
480
100
AcDbEntity
  8
0
100
AcDbLine
 62
250
  6
CONTINUOUS
 10
405.9156995958
 20
224.263011943
 11
406.3058552768
 21
224.2627877443
  0
LINE
  5
481
100
AcDbEntity
  8
0
100
AcDbLine
 62
250
  6
CONTINUOUS
 10
405.8381035222
 20
224.2636502248
 11
405.9156995958
 21
224.263011943
  0
LINE
  5
482
100
AcDbEntity
  8
0
100
AcDbLine
 62
7
  6
CONTINUOUS
 10
406.3133020368
 20
224.499747659
 11
406.6143846275
 21
224.49551967
  0
LINE
  5
483
100
AcDbEntity
  8
0
100
AcDbLine
 62
250
  6
CONTINUOUS
 10
432.173993005
 20
224.2862012233
 11
432.6207487968
 21
224.2627877443
  0
LINE
  5
484
100
AcDbEntity
  8
0
100
AcDbLine
 62
250
  6
CONTINUOUS
 10
432.3154143613
 20
224.4859271302
 11
432.7621701531
 21
224.4625136513
  0
LWPOLYLINE
  5
485
100
AcDbEntity
  8
0
100
AcDbPolyline
 62
250
  6
CONTINUOUS
 90
13
 70
0
 10
433.1293251884
 20
224.4724466449
 10
433.1553495489
 20
224.4706726251
 10
433.180930175
 20
224.465523379
 10
433.2056308981
 20
224.457086705
 10
433.2290305527
 20
224.4455064549
 10
433.2507301571
 20
224.4309800804
 10
433.2703597165
 20
224.4137552665
 10
433.2875845327
 20
224.3941257092
 10
433.3021109095
 20
224.372426107
 10
433.3136911607
 20
224.3490264534
 10
433.3221278341
 20
224.3243257296
 10
433.3272770785
 20
224.2987451016
 10
433.3290510954
 20
224.2727207379
  0
LWPOLYLINE
  5
486
100
AcDbEntity
  8
0
100
AcDbPolyline
 62
7
  6
CONTINUOUS
 90
8
 70
0
 10
398.4446468682
 20
227.6837357088
 10
398.4479153073
 20
227.6831997376
 10
398.4540499771
 20
227.6826821593
 10
398.4630508775
 20
227.6821829739
 10
398.4750772721
 20
227.6816972858
 10
398.4899698974
 20
227.6812299906
 10
398.5072509626
 20
227.6807957748
 10
398.5490618301
 20
227.6800295586
  0
LWPOLYLINE
  5
487
100
AcDbEntity
  8
0
100
AcDbPolyline
 62
7
  6
CONTINUOUS
 90
8
 70
0
 10
440.4733722168
 20
221.6177685081
 10
440.4701098419
 20
221.6183035108
 10
440.4639819907
 20
221.6188202033
 10
440.4549886631
 20
221.6193185856
 10
440.4429711809
 20
221.6198035543
 10
440.4280882224
 20
221.6202702129
 10
440.4108158223
 20
221.6207038716
 10
440.3690191165
 20
221.6214692149
  0
LWPOLYLINE
  5
488
100
AcDbEntity
  8
0
100
AcDbPolyline
 62
250
  6
CONTINUOUS
 90
10
 70
0
 10
433.3290510954
 20
221.1259238258
 10
433.3249371717
 20
221.1269841244
 10
433.3170185718
 20
221.1279941606
 10
433.3055832315
 20
221.1289539344
 10
433.2908516739
 20
221.1298717229
 10
433.2732018928
 20
221.1307392489
 10
433.2533331247
 20
221.1315316809
 10
433.2318876856
 20
221.1322386392
 10
433.2091607218
 20
221.1328705034
 10
433.1612262373
 20
221.1339242839
  0
LWPOLYLINE
  5
489
100
AcDbEntity
  8
0
100
AcDbPolyline
 62
250
  6
CONTINUOUS
 90
13
 70
0
 10
433.1293251884
 20
220.9261982344
 10
433.1270128884
 20
220.9272577259
 10
433.1231015762
 20
220.9282672712
 10
433.1175912516
 20
220.9292268704
 10
433.1102391622
 20
220.9301449687
 10
433.1012880605
 20
220.9310131209
 10
433.0914662045
 20
220.9318059914
 10
433.0808446938
 20
220.9325129609
 10
433.0693524288
 20
220.9331446488
 10
433.0575043686
 20
220.9337075772
 10
433.0455127828
 20
220.9341982226
 10
433.0331654018
 20
220.9346201085
 10
433.0071273362
 20
220.9353156773
  0
LWPOLYLINE
  5
48A
100
AcDbEntity
  8
0
100
AcDbPolyline
 62
7
  6
CONTINUOUS
 90
25
 70
0
 10
433.4750053622
 20
197.846723178
 10
433.4661080877
 20
197.7999352708
 10
433.4526023253
 20
197.7553823491
 10
433.434488075
 20
197.7130643971
 10
433.4114324368
 20
197.6725088046
 10
433.3837683107
 20
197.6341881544
 10
433.3524943972
 20
197.5995202119
 10
433.317481568
 20
197.5686523865
 10
433.2788589515
 20
197.5414372293
 10
433.2380126332
 20
197.5188502081
 10
433.1948621205
 20
197.5010594965
 10
433.149487906
 20
197.4878968898
 10
433.1035175536
 20
197.4798332888
 10
433.0569300754
 20
197.4770535491
 10
433.0097464592
 20
197.4793728057
 10
432.9636572322
 20
197.4867073846
 10
432.9187013268
 20
197.4992395153
 10
432.8748398107
 20
197.5167869849
 10
432.8336464138
 20
197.53871946
 10
432.7952188174
 20
197.565195707
 10
432.7594593401
 20
197.5960569949
 10
432.727648668
 20
197.6301967408
 10
432.7002136962
 20
197.6672460937
 10
432.6767275295
 20
197.7075739411
 10
432.6571901678
 20
197.7511803042
  0
LINE
  5
48B
100
AcDbEntity
  8
0
100
AcDbLine
 62
250
  6
CONTINUOUS
 10
432.1154448222
 20
198.1124436561
 11
432.1133020368
 21
198.1060100722
  0
LINE
  5
48C
100
AcDbEntity
  8
0
100
AcDbLine
 62
250
  6
CONTINUOUS
 10
432.3154143613
 20
197.9127177491
 11
432.3122194462
 21
197.9031252094
  0
LINE
  5
48D
100
AcDbEntity
  8
0
100
AcDbLine
 62
7
  6
CONTINUOUS
 10
425.4633020368
 20
193.8993224397
 11
425.4432447273
 21
193.8792651301
  0
LINE
  5
48E
100
AcDbEntity
  8
0
100
AcDbLine
 62
250
  6
CONTINUOUS
 10
433.2562009832
 20
201.5993224397
 11
433.1293251884
 21
201.4724466449
  0
LINE
  5
48F
100
AcDbEntity
  8
0
100
AcDbLine
 62
250
  6
CONTINUOUS
 10
433.4559268902
 20
201.3995965327
 11
433.3290510954
 21
201.2727207379
  0
LINE
  5
490
100
AcDbEntity
  8
0
100
AcDbLine
 62
7
  6
CONTINUOUS
 10
440.4733722168
 20
200.7808763712
 11
440.5104127017
 21
200.7932131669
  0
LINE
  5
491
100
AcDbEntity
  8
0
100
AcDbLine
 62
7
  6
CONTINUOUS
 10
432.6571901678
 20
197.7511803042
 11
432.9202460787
 21
197.8326536123
  0
LINE
  5
492
100
AcDbEntity
  8
0
100
AcDbLine
 62
7
  6
CONTINUOUS
 10
432.9202460787
 20
197.8326536123
 11
432.9771087038
 21
197.8499088902
  0
LWPOLYLINE
  5
493
100
AcDbEntity
  8
0
100
AcDbPolyline
 62
7
  6
CONTINUOUS
 90
4
 70
0
 10
415.824423802
 20
226.304787881
 10
415.7886338015
 20
226.3004331787
 10
415.7706285866
 20
226.2984777431
 10
415.7525449884
 20
226.2967424397
  0
LWPOLYLINE
  5
494
100
AcDbEntity
  8
0
100
AcDbPolyline
 62
7
  6
CONTINUOUS
 90
7
 70
0
 10
440.4193531572
 20
227.6807957735
 10
440.4366342202
 20
227.6812299895
 10
440.4515268415
 20
227.681697285
 10
440.4635532298
 20
227.6821829733
 10
440.4725541213
 20
227.682682159
 10
440.4786887799
 20
227.6831997375
 10
440.4819572055
 20
227.6837357088
  0
LINE
  5
495
100
AcDbEntity
  8
0
100
AcDbLine
 62
7
  6
CONTINUOUS
 10
440.3775422886
 20
227.6800295569
 11
440.4193531572
 21
227.6807957735
  0
LINE
  5
496
100
AcDbEntity
  8
0
100
AcDbLine
 62
7
  6
CONTINUOUS
 10
440.3278804454
 20
227.6794270956
 11
440.3775422886
 21
227.6800295569
  0
LINE
  5
497
100
AcDbEntity
  8
0
100
AcDbLine
 62
7
  6
CONTINUOUS
 10
440.2429066498
 20
227.6788756456
 11
440.3278804454
 21
227.6794270956
  0
LINE
  5
498
100
AcDbEntity
  8
0
100
AcDbLine
 62
7
  6
CONTINUOUS
 10
415.7525449884
 20
226.2967424397
 11
415.5145780368
 21
226.2967424397
  0
LINE
  5
499
100
AcDbEntity
  8
0
100
AcDbLine
 62
7
  6
CONTINUOUS
 10
415.5145780368
 20
226.8335734397
 11
415.7525486592
 21
226.8335734397
  0
LINE
  5
49A
100
AcDbEntity
  8
0
100
AcDbLine
 62
7
  6
CONTINUOUS
 10
423.1594830368
 20
227.1493224397
 11
422.6752780368
 21
227.1493224397
  0
LINE
  5
49B
100
AcDbEntity
  8
0
100
AcDbLine
 62
7
  6
CONTINUOUS
 10
421.7962420368
 20
227.1493224397
 11
421.4146400368
 21
227.1493224397
  0
LINE
  5
49C
100
AcDbEntity
  8
0
100
AcDbLine
 62
7
  6
CONTINUOUS
 10
420.6856860368
 20
227.1493224397
 11
420.0804290368
 21
227.1493224397
  0
LINE
  5
49D
100
AcDbEntity
  8
0
100
AcDbLine
 62
7
  6
CONTINUOUS
 10
419.2120470368
 20
227.1493224397
 11
418.7278410368
 21
227.1493224397
  0
LINE
  5
49E
100
AcDbEntity
  8
0
100
AcDbLine
 62
7
  6
CONTINUOUS
 10
417.1330790368
 20
227.1493224397
 11
416.7251650368
 21
227.1493224397
  0
LINE
  5
49F
100
AcDbEntity
  8
0
100
AcDbLine
 62
7
  6
CONTINUOUS
 10
415.6880915342
 20
227.1493224397
 11
415.1066640368
 21
227.1493224397
  0
LINE
  5
4A0
100
AcDbEntity
  8
0
100
AcDbLine
 62
7
  6
CONTINUOUS
 10
425.4427471105
 20
227.6787675134
 11
440.2429066498
 21
227.6788756456
  0
LINE
  5
4A1
100
AcDbEntity
  8
0
100
AcDbLine
 62
7
  6
CONTINUOUS
 10
398.3978486492
 20
227.6993224397
 11
413.4633020368
 21
227.6993224397
  0
LINE
  5
4A2
100
AcDbEntity
  8
0
100
AcDbLine
 62
7
  6
CONTINUOUS
 10
425.4633020368
 20
227.6993224397
 11
440.5287554244
 21
227.6993224397
  0
LINE
  5
4A3
100
AcDbEntity
  8
0
100
AcDbLine
 62
7
  6
CONTINUOUS
 10
398.6836973892
 20
227.6788756476
 11
413.4838569631
 21
227.6787675134
  0
LINE
  5
4A4
100
AcDbEntity
  8
0
100
AcDbLine
 62
7
  6
CONTINUOUS
 10
398.5987236748
 20
227.6794270978
 11
398.6836973892
 21
227.6788756476
  0
LINE
  5
4A5
100
AcDbEntity
  8
0
100
AcDbLine
 62
7
  6
CONTINUOUS
 10
398.5490618301
 20
227.6800295586
 11
398.5987236748
 21
227.6794270978
  0
LWPOLYLINE
  5
4A6
100
AcDbEntity
  8
0
100
AcDbPolyline
 62
7
  6
CONTINUOUS
 90
3
 70
0
 10
415.7525486592
 20
226.8335734397
 10
415.7706891264
 20
226.8318400929
 10
415.7887798164
 20
226.8298752934
  0
LWPOLYLINE
  5
4A7
100
AcDbEntity
  8
0
100
AcDbPolyline
 62
7
  6
CONTINUOUS
 90
21
 70
0
 10
415.7887798164
 20
226.8298752934
 10
415.8248387743
 20
226.8254726286
 10
415.8428070423
 20
226.8230347632
 10
415.860644804
 20
226.8197015652
 10
415.8785139771
 20
226.8154299831
 10
415.8962526439
 20
226.8102630672
 10
415.9132943227
 20
226.8036660882
 10
415.9296295954
 20
226.7954987999
 10
415.94526788
 20
226.7859014446
 10
415.9596709487
 20
226.7747600254
 10
415.9726567733
 20
226.7618250894
 10
415.9844073821
 20
226.7473460822
 10
415.9949306317
 20
226.7319573545
 10
416.0042299347
 20
226.7157532299
 10
416.0123018785
 20
226.6986393796
 10
416.0191440816
 20
226.6809671789
 10
416.024707194
 20
226.6628075708
 10
416.0290405656
 20
226.6440896087
 10
416.032289865
 20
226.6249518347
 10
416.0345036485
 20
226.6054404287
 10
416.0356333597
 20
226.5855092078
  0
LWPOLYLINE
  5
4A8
100
AcDbEntity
  8
0
100
AcDbPolyline
 62
7
  6
CONTINUOUS
 90
8
 70
0
 10
432.9771087409
 20
224.5487359851
 10
432.9795234061
 20
224.5483049417
 10
432.9829586407
 20
224.5479286889
 10
432.9874144446
 20
224.5476072268
 10
432.9930451544
 20
224.5473373848
 10
432.9996964335
 20
224.5471223336
 10
433.0069052727
 20
224.5469715843
 10
433.0146838571
 20
224.5469076334
  0
LINE
  5
4A9
100
AcDbEntity
  8
0
100
AcDbLine
 62
7
  6
CONTINUOUS
 10
432.9202460352
 20
224.5659912804
 11
432.9771087409
 21
224.5487359851
  0
LINE
  5
4AA
100
AcDbEntity
  8
0
100
AcDbLine
 62
7
  6
CONTINUOUS
 10
432.6571901678
 20
224.6474645752
 11
432.9202460352
 21
224.5659912804
  0
LINE
  5
4AB
100
AcDbEntity
  8
0
100
AcDbLine
 62
7
  6
CONTINUOUS
 10
440.4733722168
 20
221.6177685081
 11
440.5104127017
 21
221.6054317124
  0
LINE
  5
4AC
100
AcDbEntity
  8
0
100
AcDbLine
 62
7
  6
CONTINUOUS
 10
425.4633020368
 20
228.4993224397
 11
425.4432447273
 21
228.5193797492
  0
LINE
  5
4AD
100
AcDbEntity
  8
0
100
AcDbLine
 62
250
  6
CONTINUOUS
 10
433.2562009832
 20
220.7993224397
 11
433.1293251884
 21
220.9261982344
  0
LINE
  5
4AE
100
AcDbEntity
  8
0
100
AcDbLine
 62
250
  6
CONTINUOUS
 10
433.4559268902
 20
220.9990483466
 11
433.3290510954
 21
221.1259241414
  0
LINE
  5
4AF
100
AcDbEntity
  8
0
100
AcDbLine
 62
250
  6
CONTINUOUS
 10
432.1133020368
 20
224.2926348071
 11
432.1154448222
 21
224.2862012233
  0
LINE
  5
4B0
100
AcDbEntity
  8
0
100
AcDbLine
 62
250
  6
CONTINUOUS
 10
432.3122194462
 20
224.49551967
 11
432.3154143613
 21
224.4859271302
  0
LWPOLYLINE
  5
4B1
100
AcDbEntity
  8
0
100
AcDbPolyline
 62
250
  6
CONTINUOUS
 90
16
 70
0
 10
433.1311653761
 20
197.8499089695
 10
433.1241881676
 20
197.8398430759
 10
433.1158462222
 20
197.8308193671
 10
433.1063027838
 20
197.8230278448
 10
433.0957404603
 20
197.8166491378
 10
433.0843839238
 20
197.8118012806
 10
433.0724716898
 20
197.8085282253
 10
433.0602235643
 20
197.8068730846
 10
433.0478618897
 20
197.8068857556
 10
433.035617903
 20
197.8085659848
 10
433.0237079795
 20
197.8118654528
 10
433.0123582994
 20
197.8167395166
 10
433.0018225876
 20
197.8231322202
 10
432.992324878
 20
197.8309146513
 10
432.9840351849
 20
197.8399044907
 10
432.9771085652
 20
197.8499089969
  0
LWPOLYLINE
  5
4B2
100
AcDbEntity
  8
0
100
AcDbPolyline
 62
7
  6
CONTINUOUS
 90
10
 70
0
 10
422.11201354
 20
230.3570168629
 10
422.1469939084
 20
230.3628364702
 10
422.1818446179
 20
230.3675169541
 10
422.2165656684
 20
230.3710583159
 10
422.2511380594
 20
230.3734673426
 10
422.2855807915
 20
230.3747372488
 10
422.3199508661
 20
230.3748476759
 10
422.3542672839
 20
230.3737918378
 10
422.3885110442
 20
230.3715765205
 10
422.4226821472
 20
230.3682017233
  0
LWPOLYLINE
  5
4B3
100
AcDbEntity
  8
0
100
AcDbPolyline
 62
7
  6
CONTINUOUS
 90
7
 70
0
 10
398.5057327184
 20
228.5173530647
 10
398.4884589352
 20
228.5169193336
 10
398.4735745377
 20
228.5164525935
 10
398.4615557768
 20
228.5159675346
 10
398.4525614028
 20
228.5154690538
 10
398.4464326653
 20
228.5149522543
 10
398.4431695644
 20
228.5144171361
  0
LINE
  5
4B4
100
AcDbEntity
  8
0
100
AcDbLine
 62
7
  6
CONTINUOUS
 10
398.5475320228
 20
228.5181185241
 11
398.5057327184
 21
228.5173530647
  0
LINE
  5
4B5
100
AcDbEntity
  8
0
100
AcDbLine
 62
7
  6
CONTINUOUS
 10
398.5971900855
 20
228.5187204956
 11
398.5475320228
 21
228.5181185241
  0
LINE
  5
4B6
100
AcDbEntity
  8
0
100
AcDbLine
 62
7
  6
CONTINUOUS
 10
398.6821783129
 20
228.5192716268
 11
398.5971900855
 21
228.5187204956
  0
LINE
  5
4B7
100
AcDbEntity
  8
0
100
AcDbLine
 62
7
  6
CONTINUOUS
 10
440.5287554244
 20
228.4993224397
 11
425.4633020368
 21
228.4993224397
  0
LINE
  5
4B8
100
AcDbEntity
  8
0
100
AcDbLine
 62
7
  6
CONTINUOUS
 10
413.4633020368
 20
228.4993224397
 11
398.3978486492
 21
228.4993224397
  0
LINE
  5
4B9
100
AcDbEntity
  8
0
100
AcDbLine
 62
7
  6
CONTINUOUS
 10
398.6821783129
 20
228.5192716268
 11
413.4833593464
 21
228.5193797492
  0
LINE
  5
4BA
100
AcDbEntity
  8
0
100
AcDbLine
 62
7
  6
CONTINUOUS
 10
416.3448260368
 20
228.7808284397
 11
416.6943060368
 21
228.7808284397
  0
LINE
  5
4BB
100
AcDbEntity
  8
0
100
AcDbLine
 62
7
  6
CONTINUOUS
 10
417.4521610368
 20
228.7808284397
 11
417.8487330368
 21
228.7808284397
  0
LINE
  5
4BC
100
AcDbEntity
  8
0
100
AcDbLine
 62
7
  6
CONTINUOUS
 10
418.0622210368
 20
228.7808284397
 11
418.4416110368
 21
228.7808284397
  0
LINE
  5
4BD
100
AcDbEntity
  8
0
100
AcDbLine
 62
7
  6
CONTINUOUS
 10
418.9924190368
 20
228.7808284397
 11
419.0480380368
 21
228.7808284397
  0
LINE
  5
4BE
100
AcDbEntity
  8
0
100
AcDbLine
 62
7
  6
CONTINUOUS
 10
419.6010400368
 20
228.7808284397
 11
419.9889930368
 21
228.7808284397
  0
LINE
  5
4BF
100
AcDbEntity
  8
0
100
AcDbLine
 62
7
  6
CONTINUOUS
 10
420.0512650368
 20
228.7808284397
 11
420.4435350368
 21
228.7808284397
  0
LINE
  5
4C0
100
AcDbEntity
  8
0
100
AcDbLine
 62
7
  6
CONTINUOUS
 10
421.1957630368
 20
228.7808284397
 11
421.6137340368
 21
228.7808284397
  0
LINE
  5
4C1
100
AcDbEntity
  8
0
100
AcDbLine
 62
7
  6
CONTINUOUS
 10
421.7301866396
 20
228.7808286937
 11
422.1251632817
 21
228.7808286937
  0
LINE
  5
4C2
100
AcDbEntity
  8
0
100
AcDbLine
 62
7
  6
CONTINUOUS
 10
422.7324591021
 20
228.7808286937
 11
423.1139155873
 21
228.7808286937
  0
LINE
  5
4C3
100
AcDbEntity
  8
0
100
AcDbLine
 62
7
  6
CONTINUOUS
 10
420.5529640368
 20
229.1601054397
 11
421.0930300368
 21
229.1601054397
  0
LINE
  5
4C4
100
AcDbEntity
  8
0
100
AcDbLine
 62
7
  6
CONTINUOUS
 10
421.0137750368
 20
229.4535884397
 11
420.6340850368
 21
229.4535884397
  0
LINE
  5
4C5
100
AcDbEntity
  8
0
100
AcDbLine
 62
7
  6
CONTINUOUS
 10
422.1251632817
 20
229.5243233562
 11
422.3377958883
 21
229.5243233562
  0
LINE
  5
4C6
100
AcDbEntity
  8
0
100
AcDbLine
 62
7
  6
CONTINUOUS
 10
422.3386506927
 20
229.8354721754
 11
422.11201354
 21
229.8354721754
  0
LINE
  5
4C7
100
AcDbEntity
  8
0
100
AcDbLine
 62
7
  6
CONTINUOUS
 10
440.2444257311
 20
228.5192716285
 11
425.4432447273
 21
228.5193797492
  0
LINE
  5
4C8
100
AcDbEntity
  8
0
100
AcDbLine
 62
7
  6
CONTINUOUS
 10
440.3294140281
 20
228.5187204975
 11
440.2444257311
 21
228.5192716285
  0
LINE
  5
4C9
100
AcDbEntity
  8
0
100
AcDbLine
 62
7
  6
CONTINUOUS
 10
440.3790720893
 20
228.5181185256
 11
440.3294140281
 21
228.5187204975
  0
LWPOLYLINE
  5
4CA
100
AcDbEntity
  8
0
100
AcDbPolyline
 62
7
  6
CONTINUOUS
 90
13
 70
0
 10
422.3377958883
 20
229.5243233562
 10
422.362043497
 20
229.5231090014
 10
422.3852921807
 20
229.5195858136
 10
422.4075419394
 20
229.5137537911
 10
422.4288228964
 20
229.5056085423
 10
422.4491049284
 20
229.4951544517
 10
422.4682976656
 20
229.4824046792
 10
422.4864243272
 20
229.467384323
 10
422.503461694
 20
229.450068271
 10
422.519249739
 20
229.4303943661
 10
422.5337351199
 20
229.408341882
 10
422.546971179
 20
229.3839315234
 10
422.5589579162
 20
229.3571632778
  0
LWPOLYLINE
  5
4CB
100
AcDbEntity
  8
0
100
AcDbPolyline
 62
7
  6
CONTINUOUS
 90
7
 70
0
 10
433.4750053622
 20
224.5519217014
 10
433.4837601416
 20
224.5360359844
 10
433.4910471616
 20
224.5193930424
 10
433.4967986633
 20
224.50212698
 10
433.5009590831
 20
224.4843781808
 10
433.5034856624
 20
224.4662922009
 10
433.5043489588
 20
224.4480186014
  0
LINE
  5
4CC
100
AcDbEntity
  8
0
100
AcDbLine
 62
250
  6
CONTINUOUS
 10
440.3507538158
 20
196.3495987023
 11
440.3179511202
 21
196.6784525431
  0
LINE
  5
4CD
100
AcDbEntity
  8
0
100
AcDbLine
 62
250
  6
CONTINUOUS
 10
440.5507462004
 20
196.5488376419
 11
440.5282302743
 21
196.7745644804
  0
LINE
  5
4CE
100
AcDbEntity
  8
0
100
AcDbLine
 62
250
  6
CONTINUOUS
 10
441.3360506201
 20
192.6990612471
 11
441.3200119658
 21
192.8598520898
  0
LINE
  5
4CF
100
AcDbEntity
  8
0
100
AcDbLine
 62
250
  6
CONTINUOUS
 10
441.5369644034
 20
192.8890629735
 11
441.5200043504
 21
193.0590910294
  0
LWPOLYLINE
  5
4D0
100
AcDbEntity
  8
0
100
AcDbPolyline
 62
250
  6
CONTINUOUS
 90
4
 70
0
 10
441.5200043504
 20
193.0590910294
 10
441.5198256772
 20
193.0622561456
 10
441.5196571201
 20
193.0669182276
 10
441.5194986793
 20
193.0730772754
  0
LINE
  5
4D1
100
AcDbEntity
  8
0
100
AcDbLine
 62
250
  6
CONTINUOUS
 10
440.1911402107
 20
190.2493224397
 11
440.1838357039
 21
193.8792651271
  0
LINE
  5
4D2
100
AcDbEntity
  8
0
100
AcDbLine
 62
250
  6
CONTINUOUS
 10
440.4907550157
 20
190.2493224397
 11
440.485946365
 21
192.5566341266
  0
LINE
  5
4D3
100
AcDbEntity
  8
0
100
AcDbLine
 62
250
  6
CONTINUOUS
 10
440.1823425386
 20
194.7198773539
 11
440.173781921
 21
200.7759145756
  0
LINE
  5
4D4
100
AcDbEntity
  8
0
100
AcDbLine
 62
250
  6
CONTINUOUS
 10
440.4784884574
 20
196.8532413968
 11
440.4733722168
 21
200.7808763712
  0
LINE
  5
4D5
100
AcDbEntity
  8
0
100
AcDbLine
 62
250
  6
CONTINUOUS
 10
440.1728626041
 20
201.652180275
 11
440.1718698656
 21
202.6993224387
  0
LINE
  5
4D6
100
AcDbEntity
  8
0
100
AcDbLine
 62
250
  6
CONTINUOUS
 10
440.4724722249
 20
201.6372629165
 11
440.4714632974
 21
202.6993224397
  0
LINE
  5
4D7
100
AcDbEntity
  8
0
100
AcDbLine
 62
7
  6
CONTINUOUS
 10
440.3187138531
 20
193.8798242106
 11
440.3190659091
 21
192.7313683267
  0
LINE
  5
4D8
100
AcDbEntity
  8
0
100
AcDbLine
 62
7
  6
CONTINUOUS
 10
440.3179511202
 20
196.6784525431
 11
440.3184709015
 21
194.719306609
  0
LINE
  5
4D9
100
AcDbEntity
  8
0
100
AcDbLine
 62
7
  6
CONTINUOUS
 10
440.3284622252
 20
193.8993224397
 11
440.3284622252
 21
194.6993224397
  0
LINE
  5
4DA
100
AcDbEntity
  8
0
100
AcDbLine
 62
7
  6
CONTINUOUS
 10
440.3507538158
 20
196.3495987023
 11
440.3507538158
 21
193.0490461771
  0
LINE
  5
4DB
100
AcDbEntity
  8
0
100
AcDbLine
 62
7
  6
CONTINUOUS
 10
440.5104127017
 20
221.6054317124
 11
440.5104127017
 21
220.7993224397
  0
LINE
  5
4DC
100
AcDbEntity
  8
0
100
AcDbLine
 62
7
  6
CONTINUOUS
 10
440.5104127017
 20
201.5993224397
 11
440.5104127017
 21
200.7932131669
  0
LINE
  5
4DD
100
AcDbEntity
  8
0
100
AcDbLine
 62
7
  6
CONTINUOUS
 10
440.5287554244
 20
228.4993224397
 11
440.5287554244
 21
227.6993224397
  0
LINE
  5
4DE
100
AcDbEntity
  8
0
100
AcDbLine
 62
7
  6
CONTINUOUS
 10
440.5733020368
 20
232.1493224397
 11
440.5733020368
 21
196.6993224397
  0
LINE
  5
4DF
100
AcDbEntity
  8
0
100
AcDbLine
 62
7
  6
CONTINUOUS
 10
440.5733020368
 20
192.6993224397
 11
440.5733020368
 21
190.2493224397
  0
LINE
  5
4E0
100
AcDbEntity
  8
0
100
AcDbLine
 62
250
  6
CONTINUOUS
 10
440.1718698628
 20
219.6993224402
 11
440.1728626041
 21
220.7464646013
  0
LINE
  5
4E1
100
AcDbEntity
  8
0
100
AcDbLine
 62
250
  6
CONTINUOUS
 10
440.4714632946
 20
219.6993224397
 11
440.4724722249
 21
220.7613819628
  0
LINE
  5
4E2
100
AcDbEntity
  8
0
100
AcDbLine
 62
250
  6
CONTINUOUS
 10
440.173781921
 20
221.6227303036
 11
440.1823425386
 21
227.6787675219
  0
LINE
  5
4E3
100
AcDbEntity
  8
0
100
AcDbLine
 62
250
  6
CONTINUOUS
 10
440.4733722168
 20
221.6177685081
 11
440.4819572055
 21
227.6837357088
  0
LINE
  5
4E4
100
AcDbEntity
  8
0
100
AcDbLine
 62
250
  6
CONTINUOUS
 10
440.1838357039
 20
228.5193797512
 11
440.1911402094
 21
232.1493224397
  0
LINE
  5
4E5
100
AcDbEntity
  8
0
100
AcDbLine
 62
250
  6
CONTINUOUS
 10
440.4834345093
 20
228.5144171361
 11
440.4907565537
 21
232.1493224397
  0
LWPOLYLINE
  5
4E6
100
AcDbEntity
  8
0
100
AcDbPolyline
 62
7
  6
CONTINUOUS
 90
46
 70
0
 10
433.4750053622
 20
197.846723178
 10
433.4720026385
 20
197.843941313
 10
433.4689024701
 20
197.8412343332
 10
433.4657060268
 20
197.8386036782
 10
433.4624158066
 20
197.8360517264
 10
433.4590317866
 20
197.833578854
 10
433.455551151
 20
197.8311836378
 10
433.4519748636
 20
197.8288674069
 10
433.4483040637
 20
197.826631849
 10
433.4445357982
 20
197.8244764067
 10
433.4406708606
 20
197.8224025367
 10
433.4367103643
 20
197.8204120508
 10
433.4326515249
 20
197.8185052371
 10
433.4284951784
 20
197.8166837528
 10
433.4242423252
 20
197.8149494555
 10
433.4198901926
 20
197.8133032327
 10
433.4154392905
 20
197.8117467977
 10
433.4108909503
 20
197.8102822232
 10
433.4062434867
 20
197.8089111825
 10
433.4014978198
 20
197.8076356226
 10
433.3966550424
 20
197.8064575419
 10
433.391713661
 20
197.8053788854
 10
433.3866746948
 20
197.8044016947
 10
433.3815393566
 20
197.8035280326
 10
433.3763064104
 20
197.8027600592
 10
433.3709778273
 20
197.8020999742
 10
433.3655541563
 20
197.8015497972
 10
433.360031963
 20
197.8011117078
 10
433.3544177169
 20
197.8007881032
 10
433.3487077468
 20
197.8005810258
 10
433.3428830019
 20
197.8004932669
 10
433.3369459808
 20
197.8005277475
 10
433.3308966767
 20
197.8006880219
 10
433.3247116347
 20
197.800979953
 10
433.3183913226
 20
197.8014077959
 10
433.3119378078
 20
197.8019763067
 10
433.3053295932
 20
197.8026943784
 10
433.2985676582
 20
197.8035675919
 10
433.2916542302
 20
197.8046018229
 10
433.2845695469
 20
197.8058085883
 10
433.2773153993
 20
197.8071947793
 10
433.2698944934
 20
197.808767421
 10
433.2622885932
 20
197.8105403862
 10
433.2544937222
 20
197.8125242318
 10
433.2465203213
 20
197.8147250474
 10
433.238372287
 20
197.8171511359
  0
LINE
  5
4E7
100
AcDbEntity
  8
0
100
AcDbLine
 62
7
  6
CONTINUOUS
 10
421.0308140368
 20
230.6806744397
 11
420.6471780368
 21
230.6806744397
  0
LINE
  5
4E8
100
AcDbEntity
  8
0
100
AcDbLine
 62
7
  6
CONTINUOUS
 10
419.8113360368
 20
230.6806744397
 11
419.4189660368
 21
230.6806744397
  0
LINE
  5
4E9
100
AcDbEntity
  8
0
100
AcDbLine
 62
7
  6
CONTINUOUS
 10
418.6300100368
 20
230.6806744397
 11
418.2337660368
 21
230.6806744397
  0
LINE
  5
4EA
100
AcDbEntity
  8
0
100
AcDbLine
 62
7
  6
CONTINUOUS
 10
417.3049920368
 20
230.6806744397
 11
416.9086910368
 21
230.6806744397
  0
LINE
  5
4EB
100
AcDbEntity
  8
0
100
AcDbLine
 62
7
  6
CONTINUOUS
 10
416.1733380368
 20
230.6806744397
 11
415.7425380368
 21
230.6806744397
  0
LINE
  5
4EC
100
AcDbEntity
  8
0
100
AcDbLine
 62
7
  6
CONTINUOUS
 10
417.8487330368
 20
230.6807884397
 11
417.4521610368
 21
230.6807884397
  0
LINE
  5
4ED
100
AcDbEntity
  8
0
100
AcDbLine
 62
7
  6
CONTINUOUS
 10
398.3533020368
 20
232.1493224397
 11
440.5733020368
 21
232.1493224397
  0
LWPOLYLINE
  5
4EE
100
AcDbEntity
  8
0
100
AcDbPolyline
 62
7
  6
CONTINUOUS
 90
25
 70
0
 10
422.4226821472
 20
230.3682017233
 10
422.4382100775
 20
230.3659233563
 10
422.4534206293
 20
230.3628545495
 10
422.4683138027
 20
230.3589953024
 10
422.4829295227
 20
230.3543325891
 10
422.4972278642
 20
230.3488794339
 10
422.5110890519
 20
230.3426749107
 10
422.524531095
 20
230.3357176073
 10
422.5375359842
 20
230.3280089336
 10
422.5499299166
 20
230.319592197
 10
422.5617030621
 20
230.3104502694
 10
422.5728652509
 20
230.3006002761
 10
422.5832721699
 20
230.2901369043
 10
422.5928817504
 20
230.2790370759
 10
422.6017360612
 20
230.2673238658
 10
422.6098169962
 20
230.2551611912
 10
422.6171241238
 20
230.2425570036
 10
422.6236578757
 20
230.2295033489
 10
422.6294014398
 20
230.2161402872
 10
422.6343687416
 20
230.2024788403
 10
422.6385458558
 20
230.1885079846
 10
422.6418741944
 20
230.1743347125
 10
422.6443342282
 20
230.1599946879
 10
422.6459454865
 20
230.1454522457
 10
422.6467079692
 20
230.1307073852
  0
LWPOLYLINE
  5
4EF
100
AcDbEntity
  8
0
100
AcDbPolyline
 62
7
  6
CONTINUOUS
 90
8
 70
0
 10
440.4834345093
 20
228.5144171361
 10
440.4801714201
 20
228.5149522544
 10
440.4740426923
 20
228.5154690541
 10
440.4650483259
 20
228.5159675351
 10
440.4530295704
 20
228.5164525942
 10
440.4381451763
 20
228.5169193345
 10
440.4208713948
 20
228.5173530658
 10
440.3790720893
 20
228.5181185256
  0
LWPOLYLINE
  5
4F0
100
AcDbEntity
  8
0
100
AcDbPolyline
 62
7
  6
CONTINUOUS
 90
13
 70
0
 10
422.7088664993
 20
230.6384754743
 10
422.6437560067
 20
230.6587891134
 10
422.5753951866
 20
230.6755121275
 10
422.5037840389
 20
230.6886445307
 10
422.428742086
 20
230.6981159676
 10
422.3504498056
 20
230.703996813
 10
422.2694486309
 20
230.7064981705
 10
422.1858246332
 20
230.7054119392
 10
422.0994917411
 20
230.7009462212
 10
422.0107331738
 20
230.693936422
 10
421.9196433376
 20
230.6846610071
 10
421.8261278262
 20
230.6728415016
 10
421.7301866396
 20
230.6584778984
  0
LWPOLYLINE
  5
4F1
100
AcDbEntity
  8
0
100
AcDbPolyline
 62
250
  6
CONTINUOUS
 90
19
 70
0
 10
441.2938326843
 20
232.6391675274
 10
441.2928212742
 20
232.6585176089
 10
441.290230037
 20
232.6770829267
 10
441.2860589724
 20
232.6948634809
 10
441.2801375777
 20
232.7120288654
 10
441.2726363556
 20
232.7284094863
 10
441.2640668152
 20
232.7434965616
 10
441.2544087575
 20
232.7571373514
 10
441.2436823814
 20
232.7694845955
 10
441.232459792
 20
232.7804877319
 10
441.2209503285
 20
232.7900244667
 10
441.2089446517
 20
232.7982170937
 10
441.1963868492
 20
232.8053819324
 10
441.1833856691
 20
232.8116360523
 10
441.1698323634
 20
232.8168623839
 10
441.1553447753
 20
232.8210260385
 10
441.1397955193
 20
232.8241153865
 10
441.1233119809
 20
232.8261420575
 10
441.1058941601
 20
232.8271060516
  0
LWPOLYLINE
  5
4F2
100
AcDbEntity
  8
0
100
AcDbPolyline
 62
250
  6
CONTINUOUS
 90
3
 70
0
 10
441.3200120128
 20
192.8598520898
 10
441.319833192
 20
192.8655012271
 10
441.3196645464
 20
192.874959307
  0
LINE
  5
4F3
100
AcDbEntity
  8
0
100
AcDbLine
 62
250
  6
CONTINUOUS
 10
441.5194986793
 20
193.0730772754
 11
441.5192105341
 21
193.0903631307
  0
LINE
  5
4F4
100
AcDbEntity
  8
0
100
AcDbLine
 62
250
  6
CONTINUOUS
 10
441.3196645464
 20
192.874959307
 11
441.3193570068
 21
192.9037294137
  0
LINE
  5
4F5
100
AcDbEntity
  8
0
100
AcDbLine
 62
250
  6
CONTINUOUS
 10
441.5192105341
 20
193.0903631307
 11
441.5188710454
 21
193.1231101549
  0
LINE
  5
4F6
100
AcDbEntity
  8
0
100
AcDbLine
 62
250
  6
CONTINUOUS
 10
441.3193570068
 20
192.9037294137
 11
441.3187131101
 21
193.0358199485
  0
LINE
  5
4F7
100
AcDbEntity
  8
0
100
AcDbLine
 62
250
  6
CONTINUOUS
 10
441.5188710454
 20
193.1231101549
 11
441.5184924567
 21
193.1976150251
  0
LINE
  5
4F8
100
AcDbEntity
  8
0
100
AcDbLine
 62
250
  6
CONTINUOUS
 10
441.5184924567
 20
193.1976150251
 11
441.5184110962
 21
193.258329969
  0
LINE
  5
4F9
100
AcDbEntity
  8
0
100
AcDbLine
 62
250
  6
CONTINUOUS
 10
440.8507347773
 20
196.1403149103
 11
440.8507347773
 21
193.258329969
  0
LINE
  5
4FA
100
AcDbEntity
  8
0
100
AcDbLine
 62
250
  6
CONTINUOUS
 10
441.1058941601
 20
189.5715388278
 11
441.1058941601
 21
189.2896310415
  0
LINE
  5
4FB
100
AcDbEntity
  8
0
100
AcDbLine
 62
250
  6
CONTINUOUS
 10
441.1058941601
 20
232.8271060516
 11
441.1058941601
 21
233.1090138378
  0
LINE
  5
4FC
100
AcDbEntity
  8
0
100
AcDbLine
 62
250
  6
CONTINUOUS
 10
441.2938326843
 20
189.7594773519
 11
441.2938326843
 21
192.6993224397
  0
LINE
  5
4FD
100
AcDbEntity
  8
0
100
AcDbLine
 62
250
  6
CONTINUOUS
 10
441.2938326843
 20
196.6993224397
 11
441.2938326843
 21
232.6391675274
  0
LINE
  5
4FE
100
AcDbEntity
  8
0
100
AcDbLine
 62
7
  6
CONTINUOUS
 10
441.5184110962
 20
193.258329969
 11
441.5184110962
 21
196.1403149103
  0
LINE
  5
4FF
100
AcDbEntity
  8
0
100
AcDbLine
 62
7
  6
CONTINUOUS
 10
441.5369644034
 20
192.8890629735
 11
441.5369644034
 21
196.5095819058
  0
LINE
  5
500
100
AcDbEntity
  8
0
100
AcDbLine
 62
250
  6
CONTINUOUS
 10
441.5757404705
 20
189.7594773519
 11
441.5757404705
 21
232.6391675274
  0
LINE
  5
501
100
AcDbEntity
  8
0
100
AcDbLine
 62
7
  6
CONTINUOUS
 10
441.6858800628
 20
232.7493071198
 11
441.6858800628
 21
189.6493377595
  0
LINE
  5
502
100
AcDbEntity
  8
0
100
AcDbLine
 62
7
  6
CONTINUOUS
 10
441.7358800628
 20
232.7689245781
 11
441.7358800628
 21
189.6297203012
  0
LINE
  5
503
100
AcDbEntity
  8
0
100
AcDbLine
 62
250
  6
CONTINUOUS
 10
441.3187131101
 20
193.0358199485
 11
441.3184295079
 21
196.179956569
  0
LINE
  5
504
100
AcDbEntity
  8
0
100
AcDbLine
 62
250
  6
CONTINUOUS
 10
441.5184110962
 20
196.1403149103
 11
441.5186072302
 21
196.2321943074
  0
LINE
  5
505
100
AcDbEntity
  8
0
100
AcDbLine
 62
250
  6
CONTINUOUS
 10
441.3184295079
 20
196.179956569
 11
441.3190598765
 21
196.4502537048
  0
LINE
  5
506
100
AcDbEntity
  8
0
100
AcDbLine
 62
250
  6
CONTINUOUS
 10
441.5186072302
 20
196.2321943074
 11
441.5189552857
 21
196.2854171618
  0
LINE
  5
507
100
AcDbEntity
  8
0
100
AcDbLine
 62
250
  6
CONTINUOUS
 10
441.3190598765
 20
196.4502537048
 11
441.3194837657
 21
196.5086918735
  0
LINE
  5
508
100
AcDbEntity
  8
0
100
AcDbLine
 62
250
  6
CONTINUOUS
 10
441.5189552857
 20
196.2854171618
 11
441.5192568472
 21
196.3117009285
  0
LWPOLYLINE
  5
509
100
AcDbEntity
  8
0
100
AcDbPolyline
 62
250
  6
CONTINUOUS
 90
4
 70
0
 10
441.3194837657
 20
196.5086918735
 10
441.3197317012
 20
196.5278857931
 10
441.3198679445
 20
196.5345480962
 10
441.3200119658
 20
196.5387927895
  0
LWPOLYLINE
  5
50A
100
AcDbEntity
  8
0
100
AcDbPolyline
 62
250
  6
CONTINUOUS
 90
6
 70
0
 10
441.5192568472
 20
196.3117009285
 10
441.5194762432
 20
196.3246209271
 10
441.5195957585
 20
196.3297134065
 10
441.5197242135
 20
196.3339015581
 10
441.5198604108
 20
196.337181706
 10
441.5200043504
 20
196.3395538499
  0
LWPOLYLINE
  5
50B
100
AcDbEntity
  8
0
100
AcDbPolyline
 62
7
  6
CONTINUOUS
 90
19
 70
0
 10
441.5369644034
 20
192.8890629735
 10
441.536405777
 20
192.8742523229
 10
441.5346913928
 20
192.8593517611
 10
441.531763359
 20
192.8444548706
 10
441.5275656677
 20
192.8296692941
 10
441.5220591738
 20
192.8151035394
 10
441.5152319021
 20
192.8008633186
 10
441.5070651069
 20
192.7870717882
 10
441.4975608856
 20
192.7738630556
 10
441.4867773823
 20
192.7613564619
 10
441.4748643232
 20
192.7497796192
 10
441.4617781598
 20
192.7391426555
 10
441.4472509852
 20
192.7293085105
 10
441.4310678925
 20
192.7203732801
 10
441.4134917505
 20
192.712727645
 10
441.3949969998
 20
192.7066650866
 10
441.3758715204
 20
192.7023136928
 10
441.3561609566
 20
192.6997487884
 10
441.3360506201
 20
192.6990612471
  0
LWPOLYLINE
  5
50C
100
AcDbEntity
  8
0
100
AcDbPolyline
 62
7
  6
CONTINUOUS
 90
19
 70
0
 10
440.3179511202
 20
196.6784525431
 10
440.319095754
 20
196.6999346523
 10
440.3224781879
 20
196.7207890602
 10
440.3279801068
 20
196.7407958153
 10
440.3355513366
 20
196.7599576934
 10
440.3449899946
 20
196.7778777432
 10
440.3557497696
 20
196.7938598366
 10
440.3673448008
 20
196.8077112708
 10
440.379600471
 20
196.8196645821
 10
440.3923115277
 20
196.8298011528
 10
440.405415867
 20
196.8382997878
 10
440.418563704
 20
196.845128759
 10
440.4311082306
 20
196.8501712697
 10
440.442901375
 20
196.8536529106
 10
440.4537465368
 20
196.8557702848
 10
440.4628828754
 20
196.8565629842
 10
440.4699864303
 20
196.8562466592
 10
440.4752018598
 20
196.8550896675
 10
440.47848876
 20
196.8532409367
  0
LWPOLYLINE
  5
50D
100
AcDbEntity
  8
0
100
AcDbPolyline
 62
250
  6
CONTINUOUS
 90
13
 70
0
 10
440.3507538158
 20
196.3495987023
 10
440.3524829684
 20
196.3755920933
 10
440.3576011805
 20
196.4011411591
 10
440.3660209625
 20
196.4258091709
 10
440.377598389
 20
196.4491744599
 10
440.3921355585
 20
196.4708376263
 10
440.4093839764
 20
196.4904283666
 10
440.4290488027
 20
196.5076118018
 10
440.4507938922
 20
196.5220942028
 10
440.4742475399
 20
196.5336280117
 10
440.4990088354
 20
196.5420160729
 10
440.5246545157
 20
196.5471150029
 10
440.5507462004
 20
196.5488376419
  0
LWPOLYLINE
  5
50E
100
AcDbEntity
  8
0
100
AcDbPolyline
 62
250
  6
CONTINUOUS
 90
13
 70
0
 10
440.3906323539
 20
196.3395538503
 10
440.3929415873
 20
196.3650128006
 10
440.3982268622
 20
196.3900548293
 10
440.4064016253
 20
196.4142698484
 10
440.4173320051
 20
196.4372613136
 10
440.4308390038
 20
196.4586527168
 10
440.4467014281
 20
196.4780937523
 10
440.4646595129
 20
196.4952660554
 10
440.4844191758
 20
196.5098884152
 10
440.5056568308
 20
196.5217213783
 10
440.5280246896
 20
196.5305711712
 10
440.5511564567
 20
196.5362928732
 10
440.574673327
 20
196.5387927892
  0
LINE
  5
50F
100
AcDbEntity
  8
0
100
AcDbLine
 62
250
  6
CONTINUOUS
 10
440.3507538158
 20
193.0490461771
 11
440.3190659091
 21
192.7313683267
  0
LINE
  5
510
100
AcDbEntity
  8
0
100
AcDbLine
 62
250
  6
CONTINUOUS
 10
440.5507462004
 20
192.8498072374
 11
440.5282302743
 21
192.624080399
  0
LINE
  5
511
100
AcDbEntity
  8
0
100
AcDbLine
 62
250
  6
CONTINUOUS
 10
441.3200119658
 20
196.5387927895
 11
441.3360506201
 21
196.6995836323
  0
LWPOLYLINE
  5
512
100
AcDbEntity
  8
0
100
AcDbPolyline
 62
250
  6
CONTINUOUS
 90
19
 70
0
 10
397.8207099136
 20
232.8271060516
 10
397.7990702559
 20
232.8256352218
 10
397.7787380182
 20
232.8225048646
 10
397.7597132004
 20
232.8177149801
 10
397.7419202288
 20
232.8110229457
 10
397.7254346771
 20
232.8026713839
 10
397.7104832666
 20
232.7933881627
 10
397.6971925229
 20
232.783220395
 10
397.6854359203
 20
232.7721209678
 10
397.6750606031
 20
232.7606764101
 10
397.6661409266
 20
232.7490924262
 10
397.6586025355
 20
232.7371633118
 10
397.6520695071
 20
232.7248584832
 10
397.6464335977
 20
232.7123125911
 10
397.6418030511
 20
232.6993909848
 10
397.6381266761
 20
232.6856591288
 10
397.635387409
 20
232.670972178
 10
397.6336023134
 20
232.6554749775
 10
397.6327713894
 20
232.6391675274
  0
LINE
  5
513
100
AcDbEntity
  8
0
100
AcDbLine
 62
250
  6
CONTINUOUS
 10
397.6327713894
 20
232.6391675274
 11
397.3508636032
 21
232.6391675274
  0
LINE
  5
514
100
AcDbEntity
  8
0
100
AcDbLine
 62
250
  6
CONTINUOUS
 10
441.2938326843
 20
232.6391675274
 11
441.5757404705
 21
232.6391675274
  0
LINE
  5
515
100
AcDbEntity
  8
0
100
AcDbLine
 62
250
  6
CONTINUOUS
 10
441.1058941601
 20
232.8271060516
 11
397.8207099136
 21
232.8271060516
  0
LINE
  5
516
100
AcDbEntity
  8
0
100
AcDbLine
 62
250
  6
CONTINUOUS
 10
441.1058941601
 20
233.1090138378
 11
397.8207099136
 21
233.1090138378
  0
LINE
  5
517
100
AcDbEntity
  8
0
100
AcDbLine
 62
7
  6
CONTINUOUS
 10
397.7105703212
 20
233.2191534302
 11
441.2160337525
 21
233.2191534302
  0
LINE
  5
518
100
AcDbEntity
  8
0
100
AcDbLine
 62
7
  6
CONTINUOUS
 10
397.6903434111
 20
233.2691534302
 11
441.2362606626
 21
233.2691534302
  0
LINE
  5
519
100
AcDbEntity
  8
0
100
AcDbLine
 62
7
  6
CONTINUOUS
 10
440.4834345093
 20
228.5144171361
 11
440.5287554244
 21
228.4993224397
  0
LINE
  5
51A
100
AcDbEntity
  8
0
100
AcDbLine
 62
250
  6
CONTINUOUS
 10
441.5200043504
 20
196.3395538499
 11
441.5369644034
 21
196.5095819058
  0
LWPOLYLINE
  5
51B
100
AcDbEntity
  8
0
100
AcDbPolyline
 62
250
  6
CONTINUOUS
 90
19
 70
0
 10
397.8207120164
 20
233.109011735
 10
397.770309947
 20
233.1030219488
 10
397.7220482641
 20
233.0923240049
 10
397.6763252667
 20
233.0774288538
 10
397.6333923051
 20
233.0587928592
 10
397.5935585442
 20
233.0369757185
 10
397.5571624087
 20
233.0126999573
 10
397.524363292
 20
232.9865661253
 10
397.4950485444
 20
232.9590085069
 10
397.4690316351
 20
232.9304947624
 10
397.4464291743
 20
232.9017316979
 10
397.4268606277
 20
232.8727848644
 10
397.4095395166
 20
232.8429645144
 10
397.3945087184
 20
232.8125847595
 10
397.381724895
 20
232.7816850103
 10
397.3707132557
 20
232.7489348556
 10
397.3616207826
 20
232.713925247
 10
397.3549106528
 20
232.6772793841
 10
397.3508636032
 20
232.6391675274
  0
LWPOLYLINE
  5
51C
100
AcDbEntity
  8
0
100
AcDbPolyline
 62
250
  6
CONTINUOUS
 90
19
 70
0
 10
441.5757385826
 20
232.6391656396
 10
441.5706722739
 20
232.6841461893
 10
441.5616239271
 20
232.7281611897
 10
441.5487769271
 20
232.7708785152
 10
441.5322299239
 20
232.8122091948
 10
441.5122824706
 20
232.8516319701
 10
441.4896119769
 20
232.8882763941
 10
441.4647067994
 20
232.921859614
 10
441.4378845709
 20
232.9524553248
 10
441.4097491077
 20
232.979908898
 10
441.381071324
 20
233.0039595693
 10
441.3518353561
 20
233.0250333437
 10
441.3213222675
 20
233.0438997271
 10
441.2897882349
 20
233.0604743441
 10
441.2573194137
 20
233.0747122839
 10
441.222708045
 20
233.087001388
 10
441.185595876
 20
233.0971296823
 10
441.1465901039
 20
233.1045816309
 10
441.1058941601
 20
233.1090138378
  0
LINE
  5
51D
100
AcDbEntity
  8
0
100
AcDbLine
 62
7
  6
CONTINUOUS
 10
440.3187138531
 20
193.8798242106
 11
440.3284622252
 21
193.8993224397
  0
LWPOLYLINE
  5
51E
100
AcDbEntity
  8
0
100
AcDbPolyline
 62
7
  6
CONTINUOUS
 90
19
 70
0
 10
440.4859464964
 20
192.5566343294
 10
440.4825550078
 20
192.5546548884
 10
440.4771118353
 20
192.5533302712
 10
440.4696562514
 20
192.5528246933
 10
440.4599900742
 20
192.5534356459
 10
440.4484964697
 20
192.5554083246
 10
440.4361008681
 20
192.5587746593
 10
440.4230756726
 20
192.5637021272
 10
440.4094890482
 20
192.5704339323
 10
440.3959205957
 20
192.5788939264
 10
440.3827034708
 20
192.5890847438
 10
440.369949134
 20
192.6011732579
 10
440.3579029216
 20
192.6152171909
 10
440.3467352289
 20
192.631471552
 10
440.3369687303
 20
192.6497156397
 10
440.329204899
 20
192.6691217626
 10
440.3236227105
 20
192.6892253655
 10
440.3202169723
 20
192.7100506022
 10
440.3190659091
 20
192.7313683267
  0
LINE
  5
51F
100
AcDbEntity
  8
0
100
AcDbLine
 62
250
  6
CONTINUOUS
 10
440.8507347773
 20
193.258397449
 11
440.810684664
 21
193.2385843136
  0
LINE
  5
520
100
AcDbEntity
  8
0
100
AcDbLine
 62
250
  6
CONTINUOUS
 10
440.810684664
 20
193.2385843136
 11
440.7354092163
 21
193.2020279577
  0
LWPOLYLINE
  5
521
100
AcDbEntity
  8
0
100
AcDbPolyline
 62
250
  6
CONTINUOUS
 90
15
 70
0
 10
440.7354092163
 20
193.2020279577
 10
440.6677077701
 20
193.1694869319
 10
440.6368341404
 20
193.1548682105
 10
440.608052648
 20
193.1414618091
 10
440.5813031724
 20
193.1291955466
 10
440.5563045468
 20
193.1179697145
 10
440.5331958521
 20
193.1078149906
 10
440.5118134754
 20
193.098700697
 10
440.4915268717
 20
193.090435091
 10
440.4724998706
 20
193.0829242354
 10
440.4546798636
 20
193.0762620673
 10
440.437377262
 20
193.0705386558
 10
440.4206155511
 20
193.0657840238
 10
440.4049368804
 20
193.0619681484
 10
440.3906323571
 20
193.0590910294
  0
LWPOLYLINE
  5
522
100
AcDbEntity
  8
0
100
AcDbPolyline
 62
7
  6
CONTINUOUS
 90
10
 70
0
 10
440.5733020368
 20
192.6993224397
 10
440.5231293137
 20
192.6156186228
 10
440.5181305104
 20
192.6074045186
 10
440.5132338645
 20
192.5994380864
 10
440.5084413363
 20
192.5917269737
 10
440.5037509656
 20
192.584263533
 10
440.4991568712
 20
192.5770248222
 10
440.4946570927
 20
192.5700031938
 10
440.4902535907
 20
192.5632062953
 10
440.485946365
 20
192.5566341266
  0
LINE
  5
523
100
AcDbEntity
  8
0
100
AcDbLine
 62
250
  6
CONTINUOUS
 10
440.8508517719
 20
193.258329969
 11
440.7815428604
 21
193.1457203965
  0
LWPOLYLINE
  5
524
100
AcDbEntity
  8
0
100
AcDbPolyline
 62
250
  6
CONTINUOUS
 90
16
 70
0
 10
440.7815428604
 20
193.1457203965
 10
440.7606702707
 20
193.1120531449
 10
440.7409258461
 20
193.0806213364
 10
440.7223874346
 20
193.0514152333
 10
440.7051343824
 20
193.0245695741
 10
440.6890873433
 20
193.0000506125
 10
440.6740861262
 20
192.9775989724
 10
440.6601868837
 20
192.9573628225
 10
440.6473334633
 20
192.9391908075
 10
440.6351972166
 20
192.9225481832
 10
440.6237466561
 20
192.9076638082
 10
440.6130132693
 20
192.8945324835
 10
440.602762871
 20
192.8827278398
 10
440.5929173997
 20
192.8725687042
 10
440.5835549169
 20
192.8647699446
 10
440.5746754227
 20
192.8598520898
  0
CIRCLE
  5
525
100
AcDbEntity
  8
ASSI
100
AcDbCircle
 62
7
  6
CONTINUOUS
 10
415.7133020368
 20
204.6993224397
 40
0.5
  0
CIRCLE
  5
526
100
AcDbEntity
  8
ASSI
100
AcDbCircle
 62
7
  6
CONTINUOUS
 10
415.7133020368
 20
217.6993224397
 40
0.5
  0
CIRCLE
  5
527
100
AcDbEntity
  8
ASSI
100
AcDbCircle
 62
7
  6
CONTINUOUS
 10
423.2133020368
 20
204.6993224397
 40
0.5
  0
CIRCLE
  5
528
100
AcDbEntity
  8
ASSI
100
AcDbCircle
 62
7
  6
CONTINUOUS
 10
423.2133020368
 20
217.6993224397
 40
0.5
  0
ELLIPSE
  5
529
100
AcDbEntity
  8
0
100
AcDbEllipse
 62
7
  6
CONTINUOUS
 10
466.583282895
 20
211.1993224397
 30
0.0
 11
-0.0
 21
497.9
 31
0.0
 40
0.0524077793
 41
1.5537237963
 42
1.5878688573
  0
ELLIPSE
  5
52A
100
AcDbEntity
  8
0
100
AcDbEllipse
 62
7
  6
CONTINUOUS
 10
372.3433211787
 20
211.1993224397
 30
0.0
 11
-0.0
 21
497.9
 31
0.0
 40
0.0524077793
 41
-1.5878688573
 42
-1.5537237963
  0
ELLIPSE
  5
52B
100
AcDbEntity
  8
0
100
AcDbEllipse
 62
7
  6
CONTINUOUS
 10
397.6908001748
 20
189.6301776222
 30
0.0
 11
0.1582391023
 21
0.4751033573
 31
0.0
 40
0.9984778551
 41
-4.3904252414
 42
-2.8205423031
  0
ELLIPSE
  5
52C
100
AcDbEntity
  8
0
100
AcDbEllipse
 62
7
  6
CONTINUOUS
 10
397.6908001748
 20
232.7684672572
 30
0.0
 11
-0.1582391023
 21
0.4751033573
 31
0.0
 40
0.9984778551
 41
-0.3210503505
 42
1.2488325878
  0
ELLIPSE
  5
52D
100
AcDbEntity
  8
0
100
AcDbEllipse
 62
7
  6
CONTINUOUS
 10
441.2358038988
 20
232.7684672572
 30
0.0
 11
0.1582391023
 21
0.4751033573
 31
0.0
 40
0.9984778551
 41
-1.2488325878
 42
0.3210503505
  0
ELLIPSE
  5
52E
100
AcDbEntity
  8
0
100
AcDbEllipse
 62
7
  6
CONTINUOUS
 10
441.2358038988
 20
189.6301776222
 30
0.0
 11
-0.1582391023
 21
0.4751033573
 31
0.0
 40
0.9984778551
 41
-3.4626430041
 42
-1.8927600658
  0
ELLIPSE
  5
52F
100
AcDbEntity
  8
0
100
AcDbEllipse
 62
7
  6
CONTINUOUS
 10
406.6142027725
 20
198.1033971248
 30
0.0
 11
0.1086702276
 21
0.1692379683
 31
0.0
 40
0.9857548738
 41
-2.5633246127
 42
-0.9934416744
  0
ELLIPSE
  5
530
100
AcDbEntity
  8
0
100
AcDbEllipse
 62
7
  6
CONTINUOUS
 10
406.6142027725
 20
201.2952477545
 30
0.0
 11
0.1086702276
 21
-0.1692379683
 31
0.0
 40
0.9857548738
 41
0.9934416744
 42
2.5633246127
  0
ELLIPSE
  5
531
100
AcDbEntity
  8
0
100
AcDbEllipse
 62
7
  6
CONTINUOUS
 10
432.3124013011
 20
198.1033971248
 30
0.0
 11
0.1086702276
 21
-0.1692379683
 31
0.0
 40
0.9857548738
 41
-2.1481509791
 42
-0.5782680409
  0
ELLIPSE
  5
532
100
AcDbEntity
  8
0
100
AcDbEllipse
 62
7
  6
CONTINUOUS
 10
432.3124013011
 20
201.2952477545
 30
0.0
 11
0.1086702276
 21
0.1692379683
 31
0.0
 40
0.9857548738
 41
0.5782680409
 42
2.1481509792
  0
ELLIPSE
  5
533
100
AcDbEntity
  8
0
100
AcDbEllipse
 62
7
  6
CONTINUOUS
 10
406.6142027725
 20
224.2952477545
 30
0.0
 11
0.1086702276
 21
-0.1692379683
 31
0.0
 40
0.9857548738
 41
0.9934416744
 42
2.5633246127
  0
ELLIPSE
  5
534
100
AcDbEntity
  8
0
100
AcDbEllipse
 62
7
  6
CONTINUOUS
 10
406.6142027725
 20
221.1033971248
 30
0.0
 11
0.1086702276
 21
0.1692379683
 31
0.0
 40
0.9857548738
 41
-2.5633246127
 42
-0.9934416744
  0
ELLIPSE
  5
535
100
AcDbEntity
  8
0
100
AcDbEllipse
 62
7
  6
CONTINUOUS
 10
432.3124013011
 20
224.2952477545
 30
0.0
 11
0.1086702276
 21
0.1692379683
 31
0.0
 40
0.9857548738
 41
0.5782680409
 42
2.1481509791
  0
ELLIPSE
  5
536
100
AcDbEntity
  8
0
100
AcDbEllipse
 62
7
  6
CONTINUOUS
 10
432.3124013011
 20
221.1033971248
 30
0.0
 11
0.1086702276
 21
-0.1692379683
 31
0.0
 40
0.9857548738
 41
-2.1481509792
 42
-0.5782680409
  0
ELLIPSE
  5
537
100
AcDbEntity
  8
0
100
AcDbEllipse
 62
7
  6
CONTINUOUS
 10
434.1410875659
 20
211.1993224397
 30
0.0
 11
-0.0
 21
498.6
 31
0.0
 40
0.0174550649
 41
-4.6793315257
 42
-4.6776446111
  0
ELLIPSE
  5
538
100
AcDbEntity
  8
0
100
AcDbEllipse
 62
7
  6
CONTINUOUS
 10
404.7855165078
 20
211.1993224397
 30
0.0
 11
0.0
 21
498.6
 31
0.0
 40
0.0174550649
 41
-1.6055406961
 42
-1.6038537815
  0
ELLIPSE
  5
539
100
AcDbEntity
  8
0
100
AcDbEllipse
 62
7
  6
CONTINUOUS
 10
431.5435473768
 20
211.1993224397
 30
0.0
 11
-0.0
 21
498.6
 31
0.0
 40
0.0524077793
 41
-4.6914821067
 42
-4.6858140592
  0
ELLIPSE
  5
53A
100
AcDbEntity
  8
0
100
AcDbEllipse
 62
7
  6
CONTINUOUS
 10
397.772812897
 20
189.7115803354
 30
0.0
 11
0.3976412741
 21
0.3976412741
 31
0.0
 40
0.8891264907
 41
-3.8683677079
 42
-2.4148175993
  0
ELLIPSE
  5
53B
100
AcDbEntity
  8
0
100
AcDbEllipse
 62
7
  6
CONTINUOUS
 10
441.1537911766
 20
189.7115803354
 30
0.0
 11
-0.3976412741
 21
0.3976412741
 31
0.0
 40
0.8891264907
 41
-3.8683677079
 42
-2.4148175993
  0
ELLIPSE
  5
53C
100
AcDbEntity
  8
0
100
AcDbEllipse
 62
7
  6
CONTINUOUS
 10
441.1537911766
 20
232.687064544
 30
0.0
 11
0.3976412741
 21
0.3976412741
 31
0.0
 40
0.8891264907
 41
-0.7267750543
 42
0.7267750543
  0
ELLIPSE
  5
53D
100
AcDbEntity
  8
0
100
AcDbEllipse
 62
7
  6
CONTINUOUS
 10
397.772812897
 20
232.687064544
 30
0.0
 11
0.3976412741
 21
-0.3976412741
 31
0.0
 40
0.8891264907
 41
2.4148175993
 42
3.8683677079
  0
ELLIPSE
  5
53E
100
AcDbEntity
  8
0
100
AcDbEllipse
 62
7
  6
CONTINUOUS
 10
441.2938326843
 20
196.7255690387
 30
0.0
 11
0.3
 21
-0.0
 31
0.0
 40
0.0874886635
 41
-1.5707963268
 42
-1.4296011956
  0
ELLIPSE
  5
53F
100
AcDbEntity
  8
0
100
AcDbEllipse
 62
7
  6
CONTINUOUS
 10
441.2938326843
 20
192.6730758406
 30
0.0
 11
0.3
 21
0.0
 31
0.0
 40
0.0874886635
 41
1.4296011956
 42
1.5707963268
  0
ELLIPSE
  5
540
100
AcDbEntity
  8
0
100
AcDbEllipse
 62
7
  6
CONTINUOUS
 10
431.5435473768
 20
211.1993224397
 30
0.0
 11
-0.0
 21
498.6
 31
0.0
 40
0.0524077793
 41
1.5442214056
 42
1.5498894531
  0
ELLIPSE
  5
541
100
AcDbEntity
  8
0
100
AcDbEllipse
 62
7
  6
CONTINUOUS
 10
433.255652421
 20
201.3990479705
 30
0.0
 11
0.1418092487
 21
0.1418092487
 31
0.0
 40
0.9972646886
 41
-0.7840286355
 42
0.7840286355
  0
ELLIPSE
  5
542
100
AcDbEntity
  8
0
100
AcDbEllipse
 62
7
  6
CONTINUOUS
 10
405.6709516527
 20
201.3990479705
 30
0.0
 11
0.1418092487
 21
-0.1418092487
 31
0.0
 40
0.9972646886
 41
2.3575640181
 42
3.9256212891
  0
ELLIPSE
  5
543
100
AcDbEntity
  8
0
100
AcDbEllipse
 62
7
  6
CONTINUOUS
 10
433.255652421
 20
220.9995969089
 30
0.0
 11
-0.1418092487
 21
0.1418092487
 31
0.0
 40
0.9972646886
 41
-3.9256212891
 42
-2.3575640181
  0
ELLIPSE
  5
544
100
AcDbEntity
  8
0
100
AcDbEllipse
 62
7
  6
CONTINUOUS
 10
405.6709516527
 20
220.9995969089
 30
0.0
 11
0.1418092487
 21
0.1418092487
 31
0.0
 40
0.9972646886
 41
-3.9256212891
 42
-2.3575640181
  0
ELLIPSE
  5
545
100
AcDbEntity
  8
0
100
AcDbEllipse
 62
7
  6
CONTINUOUS
 10
404.7855165078
 20
211.1993224397
 30
0.0
 11
0.0
 21
498.6
 31
0.0
 40
0.0174550649
 41
-1.5377388721
 42
-1.5360519575
  0
ELLIPSE
  5
546
100
AcDbEntity
  8
0
100
AcDbEllipse
 62
7
  6
CONTINUOUS
 10
434.1410875659
 20
211.1993224397
 30
0.0
 11
-0.0
 21
498.6
 31
0.0
 40
0.0174550649
 41
1.5360519575
 42
1.5377388721
  0
ELLIPSE
  5
547
100
AcDbEntity
  8
0
100
AcDbEllipse
 62
7
  6
CONTINUOUS
 10
407.3830566968
 20
211.1993224397
 30
0.0
 11
0.0
 21
498.6
 31
0.0
 40
0.0524077793
 41
-1.5498894531
 42
-1.5442214056
  0
ELLIPSE
  5
548
100
AcDbEntity
  8
0
100
AcDbEllipse
 62
7
  6
CONTINUOUS
 10
407.3830566968
 20
211.1993224397
 30
0.0
 11
0.0
 21
498.6
 31
0.0
 40
0.0524077793
 41
-1.597371248
 42
-1.5917032005
  0
ENDSEC
  0
SECTION
  2
OBJECTS
  0
DICTIONARY
  5
C
100
AcDbDictionary
280
0
281
1
  3
ACAD_GROUP
350
D
  3
ACAD_MLINESTYLE
350
17
  3
ACAD_LAYOUT
350
1A
  3
ACAD_PLOTSETTINGS
350
19
  3
ACAD_PLOTSTYLENAME
350
E
  0
DICTIONARY
  5
D
102
{ACAD_REACTORS
330
C
102
}
100
AcDbDictionary
280
0
281
1
  0
ACDBDICTIONARYWDFLT
  5
E
102
{ACAD_REACTORS
330
C
102
}
100
AcDbDictionary
281
1
  3
Normal
350
F
100
AcDbDictionaryWithDefault
340
F
  0
DICTIONARY
  5
17
102
{ACAD_REACTORS
330
C
102
}
100
AcDbDictionary
280
0
281
1
  3
Standard
350
18
  0
DICTIONARY
  5
19
102
{ACAD_REACTORS
330
C
102
}
100
AcDbDictionary
281
1
  0
DICTIONARY
  5
1A
102
{ACAD_REACTORS
330
C
102
}
100
AcDbDictionary
281
1
  3
Model
350
549
  3
Layout1
350
54A
  0
ACDBPLACEHOLDER
  5
F
102
{ACAD_REACTORS
330
E
102
}
  0
MLINESTYLE
  5
18
102
{ACAD_REACTORS
330
17
102
}
100
AcDbMlineStyle
  2
STANDARD
 70
0
  3

 62
256
 51
90.0
 52
90.0
 71
2
 49
0.5
 62
256
  6
BYLAYER
 49
-0.5
 62
256
  6
BYLAYER
  0
LAYOUT
  5
549
102
{ACAD_REACTORS
330
1A
102
}
100
AcDbPlotSettings
  1

  2
none_device
  4
ANSI_C_(22.00_x_17.00_Inches)
  6

 40
0.0
 41
0.0
 42
0.0
 43
0.0
 44
558.8
 45
431.8
 46
0.0
 47
0.0
 48
0.0
 49
0.0
140
0.0
141
0.0
142
1.0
143
1.0
 70
1024
 72
1
 73
0
 74
0
  7

 75
0
147
1.0
148
0.0
149
0.0
100
AcDbLayout
  1
Model
 70
0
 71
0
 10
0.0
 20
0.0
 11
558.8
 21
431.8
 12
0.0
 22
0.0
 32
0.0
 14
0.0
 24
0.0
 34
0.0
 15
0.0
 25
0.0
 35
0.0
146
0.0
 13
0.0
 23
0.0
 33
0.0
 16
1.0
 26
0.0
 36
0.0
 17
0.0
 27
1.0
 37
0.0
 76
0
330
214
345
0
346
0
  0
LAYOUT
  5
54A
102
{ACAD_REACTORS
330
1A
102
}
100
AcDbPlotSettings
  1

  2
none_device
  4
ANSI_C_(22.00_x_17.00_Inches)
  6

 40
0.0
 41
0.0
 42
0.0
 43
0.0
 44
558.8
 45
431.8
 46
0.0
 47
0.0
 48
0.0
 49
0.0
140
0.0
141
0.0
142
1.0
143
1.0
 70
0
 72
1
 73
0
 74
0
  7

 75
0
147
1.0
148
0.0
149
0.0
100
AcDbLayout
  1
Layout1
 70
0
 71
1
 10
0.0
 20
0.0
 11
558.8
 21
431.8
 12
0.0
 22
0.0
 32
0.0
 14
0.0
 24
0.0
 34
0.0
 15
0.0
 25
0.0
 35
0.0
146
0.0
 13
0.0
 23
0.0
 33
0.0
 16
1.0
 26
0.0
 36
0.0
 17
0.0
 27
1.0
 37
0.0
 76
0
330
215
345
0
346
0
  0
ENDSEC
  0
EOF
