  0
SECTION
  2
HEADER
  9
$ACADVER
  1
AC1024
  9
$DWGCODEPAGE
  3
ANSI_1252
  9
$EXTMAX
 10
558.8
 20
431.8
 30
0.0
  9
$EXTMIN
 10
0.0
 20
0.0
 30
0.0
  9
$LIMMIN
 10
0.0
 20
0.0
  9
$LIMMAX
 10
558.8
 20
431.8
  9
$VIEWCTR
 10
279.4
 20
215.9
  9
$VIEWSIZE
 40
431.8
  9
$CLAYER
  8
0
  9
$LTSCALE
 40
30.734
  9
$CELTYPE
  6
BYLAYER
  9
$DIMSCALE
 40
1.0
  9
$DIMASZ
 40
3.0
  9
$DIMEXO
 40
0.5
  9
$DIMDLI
 40
21.2344
  9
$DIMEXE
 40
1.5
  9
$DIMCEN
 40
5.0292
  9
$DIMLFAC
 40
1.0
  9
$DIMBLK
  1
_FILLED
  9
$DIMALT
 70
0
  9
$DIMALTF
 40
0.0393700787
  9
$DIMTXT
 40
3.0
  9
$DIMTOL
 70
1
  9
$DIMLIM
 70
0
  9
$DIMTFAC
 40
1.0
  9
$DIMTP
 40
0.01
  9
$DIMTM
 40
0.01
  9
$DIMGAP
 40
0.625
  9
$DIMDSEP
 70
44
  9
$AUNITS
 70
0
  9
$PDMODE
 70
3
  9
$PDSIZE
 40
3.0
  9
$HANDSEED
  5
54B
  9
$TILEMODE
 70
1
  9
$MEASUREMENT
 70
1
  9
$INSUNITS
 70
4
  0
ENDSEC
  0
SECTION
  2
CLASSES
  0
CLASS
  1
ACDBDICTIONARYWDFLT
  2
AcDbDictionaryWithDefault
  3
AutoCAD 2000
 90
0
 91
1
280
0
281
0
  0
CLASS
  1
ACDBPLACEHOLDER
  2
AcDbPlaceHolder
  3
AutoCAD 2000
 90
0
 91
1
280
0
281
0
  0
CLASS
  1
LAYOUT
  2
AcDbLayout
  3
AutoCAD 2000
 90
0
 91
0
280
0
281
0
  0
ENDSEC
  0
SECTION
  2
TABLES
  0
TABLE
  2
VPORT
  5
8
100
AcDbSymbolTable
 70
2
  0
VPORT
  5
1F4
100
AcDbSymbolTableRecord
100
AcDbViewportTableRecord
  2
*ACTIVE
 70
0
 10
0.0
 20
0.0
 11
1.0
 21
1.0
 12
279.4
 22
215.9
 13
0.0
 23
0.0
 14
1.0
 24
1.0
 15
0.0
 25
0.0
 16
0.0
 26
0.0
 36
1.0
 17
0.0
 27
0.0
 37
0.0
 40
431.8
 41
1.2941176471
 42
50.0
 43
0.0
 44
0.0
 50
0.0
 51
0.0
 71
0
 72
100
 73
1
 74
1
 75
0
 76
0
 77
0
 78
0
  0
ENDTAB
  0
TABLE
  2
LTYPE
  5
5
100
AcDbSymbolTable
 70
6
  0
LTYPE
  5
14
100
AcDbSymbolTableRecord
100
AcDbLinetypeTableRecord
  2
BYBLOCK
 70
0
  3

 72
65
 73
0
 40
0.0
  0
LTYPE
  5
15
100
AcDbSymbolTableRecord
100
AcDbLinetypeTableRecord
  2
BYLAYER
 70
0
  3

 72
65
 73
0
 40
0.0
  0
LTYPE
  5
16
100
AcDbSymbolTableRecord
100
AcDbLinetypeTableRecord
  2
CONTINUOUS
 70
64
  3
Solid line
 72
65
 73
0
 40
0.0
  0
LTYPE
  5
1F5
100
AcDbSymbolTableRecord
100
AcDbLinetypeTableRecord
  2
CENTER
 70
64
  3
____ _ ____ _ ____ _ ____ _ ____ _ ____ _ ____
 72
65
 73
4
 40
0.6
 49
0.375
 74
0
 49
-0.075
 74
0
 49
0.075
 74
0
 49
-0.075
 74
0
  0
LTYPE
  5
1F6
100
AcDbSymbolTableRecord
100
AcDbLinetypeTableRecord
  2
HIDDEN
 70
64
  3
- - - - - - - - - - - - - - - - - - - -
 72
65
 73
2
 40
0.2
 49
0.1
 74
0
 49
-0.1
 74
0
  0
LTYPE
  5
1F7
100
AcDbSymbolTableRecord
100
AcDbLinetypeTableRecord
  2
PHANTOM
 70
64
  3
_____ _ _ _____ _ _ _____ _ _ _____
 72
65
 73
6
 40
0.8
 49
0.45
 74
0
 49
-0.05
 74
0
 49
0.1
 74
0
 49
-0.05
 74
0
 49
0.1
 74
0
 49
-0.05
 74
0
  0
LTYPE
  5
1F8
100
AcDbSymbolTableRecord
100
AcDbLinetypeTableRecord
  2
DOT
 70
64
  3
. . . . . . . . . . . . . . . . . . . .
 72
65
 73
2
 40
0.2
 49
0.1
 74
0
 49
-0.1
 74
0
  0
LTYPE
  5
1F9
100
AcDbSymbolTableRecord
100
AcDbLinetypeTableRecord
  2
DASHED
 70
64
  3
- - - - - - - - - - - - - - - - - - - -
 72
65
 73
2
 40
0.2
 49
0.1
 74
0
 49
-0.1
 74
0
  0
ENDTAB
  0
TABLE
  2
LAYER
  5
2
100
AcDbSymbolTable
 70
36
  0
LAYER
  5
10
100
AcDbSymbolTableRecord
100
AcDbLayerTableRecord
  2
0
 70
0
 62
7
  6
CONTINUOUS
370
-3
390
F
  0
LAYER
  5
1FA
100
AcDbSymbolTableRecord
100
AcDbLayerTableRecord
  2
DEFAULT_1
 70
0
 62
7
  6
CENTER
370
-3
390
F
  0
LAYER
  5
1FB
100
AcDbSymbolTableRecord
100
AcDbLayerTableRecord
  2
DEFAULT_2
 70
0
 62
7
  6
HIDDEN
370
-3
390
F
  0
LAYER
  5
1FC
100
AcDbSymbolTableRecord
100
AcDbLayerTableRecord
  2
DEFAULT_3
 70
0
 62
7
  6
PHANTOM
370
-3
390
F
  0
LAYER
  5
1FD
100
AcDbSymbolTableRecord
100
AcDbLayerTableRecord
  2
ASSI
 70
0
 62
7
  6
CONTINUOUS
370
-3
390
F
  0
LAYER
  5
1FE
100
AcDbSymbolTableRecord
100
AcDbLayerTableRecord
  2
COORDINATE
 70
0
 62
7
  6
CONTINUOUS
370
-3
390
F
  0
LAYER
  5
1FF
100
AcDbSymbolTableRecord
100
AcDbLayerTableRecord
  2
COPY_PUBLISH
 70
0
 62
7
  6
CONTINUOUS
370
-3
390
F
  0
LAYER
  5
200
100
AcDbSymbolTableRecord
100
AcDbLayerTableRecord
  2
COSMETIC
 70
0
 62
7
  6
CONTINUOUS
370
-3
390
F
  0
LAYER
  5
201
100
AcDbSymbolTableRecord
100
AcDbLayerTableRecord
  2
COSMETICI
 70
0
 62
7
  6
CONTINUOUS
370
-3
390
F
  0
LAYER
  5
202
100
AcDbSymbolTableRecord
100
AcDbLayerTableRecord
  2
CURVE
 70
0
 62
7
  6
CONTINUOUS
370
-3
390
F
  0
LAYER
  5
203
100
AcDbSymbolTableRecord
100
AcDbLayerTableRecord
  2
DRAFT
 70
0
 62
7
  6
CONTINUOUS
370
-3
390
F
  0
LAYER
  5
204
100
AcDbSymbolTableRecord
100
AcDbLayerTableRecord
  2
IMPORT_IGES
 70
0
 62
7
  6
CONTINUOUS
370
-3
390
F
  0
LAYER
  5
205
100
AcDbSymbolTableRecord
100
AcDbLayerTableRecord
  2
INTFCLR_11
 70
0
 62
7
  6
CONTINUOUS
370
-3
390
F
  0
LAYER
  5
206
100
AcDbSymbolTableRecord
100
AcDbLayerTableRecord
  2
INTF_1
 70
0
 62
7
  6
CONTINUOUS
370
-3
390
F
  0
LAYER
  5
207
100
AcDbSymbolTableRecord
100
AcDbLayerTableRecord
  2
INTF_3
 70
0
 62
7
  6
CONTINUOUS
370
-3
390
F
  0
LAYER
  5
208
100
AcDbSymbolTableRecord
100
AcDbLayerTableRecord
  2
NOTE
 70
0
 62
7
  6
CONTINUOUS
370
-3
390
F
  0
LAYER
  5
209
100
AcDbSymbolTableRecord
100
AcDbLayerTableRecord
  2
PIANI
 70
0
 62
7
  6
CONTINUOUS
370
-3
390
F
  0
LAYER
  5
20A
100
AcDbSymbolTableRecord
100
AcDbLayerTableRecord
  2
PUNTI
 70
0
 62
7
  6
CONTINUOUS
370
-3
390
F
  0
LAYER
  5
20B
100
AcDbSymbolTableRecord
100
AcDbLayerTableRecord
  2
RACCORDO
 70
0
 62
7
  6
CONTINUOUS
370
-3
390
F
  0
LAYER
  5
20C
100
AcDbSymbolTableRecord
100
AcDbLayerTableRecord
  2
SIMBOLI
 70
0
 62
7
  6
CONTINUOUS
370
-3
390
F
  0
LAYER
  5
20D
100
AcDbSymbolTableRecord
100
AcDbLayerTableRecord
  2
SMUSSO
 70
0
 62
7
  6
CONTINUOUS
370
-3
390
F
  0
LAYER
  5
20E
100
AcDbSymbolTableRecord
100
AcDbLayerTableRecord
  2
SNAPLINE
 70
0
 62
7
  6
CONTINUOUS
370
-3
390
F
  0
LAYER
  5
20F
100
AcDbSymbolTableRecord
100
AcDbLayerTableRecord
  2
SUPERFICI
 70
0
 62
7
  6
CONTINUOUS
370
-3
390
F
  0
LAYER
  5
210
100
AcDbSymbolTableRecord
100
AcDbLayerTableRecord
  2
TRASH
 70
0
 62
7
  6
CONTINUOUS
370
-3
390
F
  0
LAYER
  5
211
100
AcDbSymbolTableRecord
100
AcDbLayerTableRecord
  2
___SHELL
 70
0
 62
7
  6
CONTINUOUS
370
-3
390
F
  0
ENDTAB
  0
TABLE
  2
STYLE
  5
3
100
AcDbSymbolTable
 70
1
  0
STYLE
  5
11
100
AcDbSymbolTableRecord
100
AcDbTextStyleTableRecord
  2
STANDARD
 70
0
 40
0.0
 41
0.8
 50
0.0
 71
0
 42
0.2
  3
txt
  4

  0
STYLE
  5
212
100
AcDbSymbolTableRecord
100
AcDbTextStyleTableRecord
  2
TEXTSTYLE_1
 70
0
 40
0.0
 41
0.8
 50
0.0
 71
0
 42
0.2
  3
gdt
  4

  0
ENDTAB
  0
TABLE
  2
VIEW
  5
6
100
AcDbSymbolTable
 70
0
  0
ENDTAB
  0
TABLE
  2
UCS
  5
7
100
AcDbSymbolTable
 70
0
  0
ENDTAB
  0
TABLE
  2
APPID
  5
9
100
AcDbSymbolTable
 70
1
  0
APPID
  5
213
100
AcDbSymbolTableRecord
100
AcDbRegAppTableRecord
  2
ACAD
 70
0
  0
ENDTAB
  0
TABLE
  2
BLOCK_RECORD
  5
1
100
AcDbSymbolTable
 70
0
  0
BLOCK_RECORD
  5
214
100
AcDbSymbolTableRecord
100
AcDbBlockTableRecord
  2
*Model_Space
  0
BLOCK_RECORD
  5
215
100
AcDbSymbolTableRecord
100
AcDbBlockTableRecord
  2
*Paper_Space
  0
BLOCK_RECORD
  5
216
100
AcDbSymbolTableRecord
100
AcDbBlockTableRecord
  2
_FILLED
  0
ENDTAB
  0
TABLE
  2
DIMSTYLE
  5
A
100
AcDbSymbolTable
 70
1
100
AcDbDimStyleTable
 71
0
  0
DIMSTYLE
105
217
100
AcDbSymbolTableRecord
100
AcDbDimStyleTableRecord
  2
STANDARD
 70
0
  3

  4

 40
1.0
 41
3.0
 42
0.5
 43
0.38
 44
1.5
 45
0.0
 46
0.0
 47
0.01
 48
0.01
140
3.0
141
0.09
142
0.0
143
25.4
144
1.0
145
0.0
146
1.0
147
0.625
 71
1
 72
0
 73
0
 74
0
 75
0
 76
0
 77
1
 78
8
 79
2
170
0
171
1
172
0
173
0
174
0
175
0
176
0
177
0
178
0
270
2
179
2
271
2
272
2
273
2
274
2
275
0
280
0
281
0
282
0
283
1
284
8
285
0
286
0
287
3
288
0
340
11
278
44
341
216
342
216
343
216
344
216
  0
ENDTAB
  0
ENDSEC
  0
SECTION
  2
BLOCKS
  0
BLOCK
  5
20
100
AcDbEntity
  8
0
100
AcDbBlockBegin
  2
*Model_Space
 70
0
 10
0.0
 20
0.0
 30
0.0
  3
*Model_Space
  1

  0
ENDBLK
  5
21
100
AcDbEntity
  8
0
100
AcDbBlockEnd
  0
BLOCK
  5
1C
100
AcDbEntity
  8
0
100
AcDbBlockBegin
  2
*Paper_Space
 70
0
 10
0.0
 20
0.0
 30
0.0
  3
*Paper_Space
  1

  0
ENDBLK
  5
1D
100
AcDbEntity
  8
0
100
AcDbBlockEnd
  0
BLOCK
  5
218
100
AcDbEntity
  8
0
100
AcDbBlockBegin
  2
_FILLED
 70
64
 10
0.0
 20
0.0
  3
_FILLED
  1

  0
SOLID
  5
219
100
AcDbEntity
  8
0
  6
BYBLOCK
 62
0
100
AcDbTrace
 10
0.0
 20
0.0
 11
-1.0
 21
0.3166666667
 12
-1.0
 22
-0.3166666667
 13
-1.0
 23
-0.3166666667
  0
ENDBLK
  5
21A
100
AcDbEntity
  8
0
  6
BYBLOCK
 62
0
100
AcDbBlockEnd
  0
ENDSEC
  0
SECTION
  2
ENTITIES
  0
LWPOLYLINE
  5
21B
100
AcDbEntity
  8
0
100
AcDbPolyline
 62
250
  6
CONTINUOUS
 90
19
 70
0
 10
288.037656363
 20
182.1497763222
 10
288.038667773
 20
182.1304262407
 10
288.0412590103
 20
182.1118609229
 10
288.0454300748
 20
182.0940803687
 10
288.0513514696
 20
182.0769149842
 10
288.0588526916
 20
182.0605343633
 10
288.0674222321
 20
182.045447288
 10
288.0770802898
 20
182.0318064982
 10
288.0878066659
 20
182.0194592541
 10
288.0990292553
 20
182.0084561177
 10
288.1105387188
 20
181.9989193829
 10
288.1225443956
 20
181.9907267559
 10
288.1351021981
 20
181.9835619172
 10
288.1481033781
 20
181.9773077973
 10
288.1616566839
 20
181.9720814657
 10
288.176144272
 20
181.9679178111
 10
288.191693528
 20
181.9648284631
 10
288.2081770664
 20
181.962801792
 10
288.2255948872
 20
181.961837798
  0
LINE
  5
21C
100
AcDbEntity
  8
0
100
AcDbLine
 62
7
  6
CONTINUOUS
 10
288.848054538
 20
220.9047161063
 11
288.8027336228
 21
220.8896214099
  0
LWPOLYLINE
  5
21D
100
AcDbEntity
  8
0
100
AcDbPolyline
 62
250
  6
CONTINUOUS
 90
19
 70
0
 10
331.5107770309
 20
181.6799321146
 10
331.5611791003
 20
181.6859219008
 10
331.6094407831
 20
181.6966198447
 10
331.6551637806
 20
181.7115149958
 10
331.6980967421
 20
181.7301509904
 10
331.737930503
 20
181.7519681311
 10
331.7743266386
 20
181.7762438923
 10
331.8071257553
 20
181.8023777243
 10
331.8364405029
 20
181.8299353427
 10
331.8624574122
 20
181.8584490872
 10
331.8850598729
 20
181.8872121517
 10
331.9046284196
 20
181.9161589852
 10
331.9219495307
 20
181.9459793352
 10
331.9369803289
 20
181.9763590901
 10
331.9497641523
 20
182.0072588393
 10
331.9607757915
 20
182.040008994
 10
331.9698682647
 20
182.0750186026
 10
331.9765783945
 20
182.1116644655
 10
331.9806254441
 20
182.1497763222
  0
LWPOLYLINE
  5
21E
100
AcDbEntity
  8
0
100
AcDbPolyline
 62
250
  6
CONTINUOUS
 90
19
 70
0
 10
331.5107791337
 20
181.961837798
 10
331.5324187914
 20
181.9633086278
 10
331.5527510291
 20
181.966438985
 10
331.5717758469
 20
181.9712288695
 10
331.5895688185
 20
181.9779209039
 10
331.6060543702
 20
181.9862724657
 10
331.6210057807
 20
181.9955556869
 10
331.6342965244
 20
182.0057234546
 10
331.6460531269
 20
182.0168228818
 10
331.6564284442
 20
182.0282674394
 10
331.6653481206
 20
182.0398514234
 10
331.6728865118
 20
182.0517805378
 10
331.6794195402
 20
182.0640853663
 10
331.6850554495
 20
182.0766312585
 10
331.6896859961
 20
182.0895528648
 10
331.6933623711
 20
182.1032847208
 10
331.6961016383
 20
182.1179716716
 10
331.6978867339
 20
182.1334688721
 10
331.6987176579
 20
182.1497763222
  0
LINE
  5
21F
100
AcDbEntity
  8
0
100
AcDbLine
 62
7
  6
CONTINUOUS
 10
288.848054538
 20
186.2745267135
 11
288.8027336228
 21
186.2896214099
  0
LWPOLYLINE
  5
220
100
AcDbEntity
  8
0
100
AcDbPolyline
 62
250
  6
CONTINUOUS
 90
19
 70
0
 10
287.7557504646
 20
182.14977821
 10
287.7608167734
 20
182.1047976603
 10
287.7698651202
 20
182.0607826598
 10
287.7827121201
 20
182.0180653344
 10
287.7992591234
 20
181.9767346548
 10
287.8192065767
 20
181.9373118795
 10
287.8418770703
 20
181.9006674555
 10
287.8667822479
 20
181.8670842356
 10
287.8936044764
 20
181.8364885248
 10
287.9217399396
 20
181.8090349516
 10
287.9504177233
 20
181.7849842802
 10
287.9796536912
 20
181.7639105059
 10
288.0101667798
 20
181.7450441224
 10
288.0417008124
 20
181.7284695055
 10
288.0741696336
 20
181.7142315657
 10
288.1087810022
 20
181.7019424616
 10
288.1458931712
 20
181.6918141673
 10
288.1848989434
 20
181.6843622187
 10
288.2255948872
 20
181.6799300118
  0
LINE
  5
221
100
AcDbEntity
  8
0
100
AcDbLine
 62
250
  6
CONTINUOUS
 10
289.1403488366
 20
224.5396214099
 11
289.1476533434
 21
220.9096787225
  0
LINE
  5
222
100
AcDbEntity
  8
0
100
AcDbLine
 62
250
  6
CONTINUOUS
 10
288.840732492
 20
224.5396214099
 11
288.848054538
 21
220.9047161063
  0
LINE
  5
223
100
AcDbEntity
  8
0
100
AcDbLine
 62
250
  6
CONTINUOUS
 10
289.1491465087
 20
220.0690664958
 11
289.1577071263
 21
214.013029274
  0
LINE
  5
224
100
AcDbEntity
  8
0
100
AcDbLine
 62
250
  6
CONTINUOUS
 10
288.8495318418
 20
220.0740346791
 11
288.8581168304
 21
214.0080674784
  0
LINE
  5
225
100
AcDbEntity
  8
0
100
AcDbLine
 62
250
  6
CONTINUOUS
 10
288.8590168224
 20
213.1516809331
 11
288.86002575
 21
212.0896214099
  0
LINE
  5
226
100
AcDbEntity
  8
0
100
AcDbLine
 62
250
  6
CONTINUOUS
 10
289.1586264431
 20
213.1367635745
 11
289.1596191818
 21
212.0896214109
  0
LINE
  5
227
100
AcDbEntity
  8
0
100
AcDbLine
 62
7
  6
CONTINUOUS
 10
287.5956089844
 20
182.0200192715
 11
287.5956089844
 21
225.1592235484
  0
LINE
  5
228
100
AcDbEntity
  8
0
100
AcDbLine
 62
7
  6
CONTINUOUS
 10
287.6456089844
 20
225.13960609
 11
287.6456089844
 21
182.0396367298
  0
LINE
  5
229
100
AcDbEntity
  8
0
100
AcDbLine
 62
250
  6
CONTINUOUS
 10
287.7557485768
 20
225.0294664977
 11
287.7557485768
 21
182.1497763222
  0
LINE
  5
22A
100
AcDbEntity
  8
0
100
AcDbLine
 62
250
  6
CONTINUOUS
 10
288.037656363
 20
225.0294664977
 11
288.037656363
 21
182.1497763222
  0
LINE
  5
22B
100
AcDbEntity
  8
0
100
AcDbLine
 62
250
  6
CONTINUOUS
 10
288.2255948872
 20
181.961837798
 11
288.2255948872
 21
181.6799300118
  0
LINE
  5
22C
100
AcDbEntity
  8
0
100
AcDbLine
 62
250
  6
CONTINUOUS
 10
288.2255948872
 20
225.2174050218
 11
288.2255948872
 21
225.4993128081
  0
LINE
  5
22D
100
AcDbEntity
  8
0
100
AcDbLine
 62
7
  6
CONTINUOUS
 10
288.7581870104
 20
224.5396214099
 11
288.7581870104
 21
182.6396214099
  0
LINE
  5
22E
100
AcDbEntity
  8
0
100
AcDbLine
 62
7
  6
CONTINUOUS
 10
288.8027336228
 20
220.8896214099
 11
288.8027336228
 21
220.0896214099
  0
LINE
  5
22F
100
AcDbEntity
  8
0
100
AcDbLine
 62
7
  6
CONTINUOUS
 10
288.8027336228
 20
187.0896214099
 11
288.8027336228
 21
186.2896214099
  0
LINE
  5
230
100
AcDbEntity
  8
0
100
AcDbLine
 62
7
  6
CONTINUOUS
 10
288.8210763456
 20
213.9957306826
 11
288.8210763456
 21
213.1896214099
  0
LINE
  5
231
100
AcDbEntity
  8
0
100
AcDbLine
 62
7
  6
CONTINUOUS
 10
288.8210763456
 20
193.9896214099
 11
288.8210763456
 21
193.1835121372
  0
LINE
  5
232
100
AcDbEntity
  8
0
100
AcDbLine
 62
250
  6
CONTINUOUS
 10
288.8600257525
 20
195.0896214099
 11
288.8590168224
 21
194.0275618868
  0
LINE
  5
233
100
AcDbEntity
  8
0
100
AcDbLine
 62
250
  6
CONTINUOUS
 10
289.1596191843
 20
195.0896214094
 11
289.1586264431
 21
194.0424792482
  0
LINE
  5
234
100
AcDbEntity
  8
0
100
AcDbLine
 62
250
  6
CONTINUOUS
 10
289.1577071263
 20
193.166213546
 11
289.1491465087
 21
187.1101763278
  0
LINE
  5
235
100
AcDbEntity
  8
0
100
AcDbLine
 62
250
  6
CONTINUOUS
 10
288.8581168304
 20
193.1711753415
 11
288.8495318418
 21
187.1052081408
  0
LINE
  5
236
100
AcDbEntity
  8
0
100
AcDbLine
 62
250
  6
CONTINUOUS
 10
289.1476533434
 20
186.2695640984
 11
289.1403488376
 21
182.6396214099
  0
LINE
  5
237
100
AcDbEntity
  8
0
100
AcDbLine
 62
250
  6
CONTINUOUS
 10
288.848054538
 20
186.2745267135
 11
288.8407324936
 21
182.6396214099
  0
LWPOLYLINE
  5
238
100
AcDbEntity
  8
0
100
AcDbPolyline
 62
250
  6
CONTINUOUS
 90
13
 70
0
 10
330.9795582988
 20
185.25015106
 10
330.9752601799
 20
185.249202455
 10
330.9714305045
 20
185.2482720132
 10
330.9680692726
 20
185.2473597344
 10
330.965207352
 20
185.2464642367
 10
330.9628138748
 20
185.2455869021
 10
330.9607962378
 20
185.2447318771
 10
330.9591519687
 20
185.2438995183
 10
330.9578835398
 20
185.2430894691
 10
330.9569057646
 20
185.2423048058
 10
330.9561902474
 20
185.2415465538
 10
330.9557653839
 20
185.2408136878
 10
330.955631174
 20
185.2401062077
  0
LWPOLYLINE
  5
239
100
AcDbEntity
  8
0
100
AcDbPolyline
 62
250
  6
CONTINUOUS
 90
13
 70
0
 10
330.7955173307
 20
185.4493899997
 10
330.7882692478
 20
185.4484413367
 10
330.7819032073
 20
185.4475108614
 10
330.7763689552
 20
185.4465985736
 10
330.7716174081
 20
185.445703104
 10
330.7675951695
 20
185.444825822
 10
330.7642472288
 20
185.4439708356
 10
330.7615242105
 20
185.4431384843
 10
330.7593789047
 20
185.4423284285
 10
330.757763107
 20
185.441543758
 10
330.7566307343
 20
185.4407855026
 10
330.7559372026
 20
185.4400526323
 10
330.7556387894
 20
185.4393451473
  0
LINE
  5
23A
100
AcDbEntity
  8
0
100
AcDbLine
 62
7
  6
CONTINUOUS
 10
288.0952283847
 20
181.5197904194
 11
331.6411456362
 21
181.5197904194
  0
LINE
  5
23B
100
AcDbEntity
  8
0
100
AcDbLine
 62
7
  6
CONTINUOUS
 10
288.1154552948
 20
181.5697904194
 11
331.6209187261
 21
181.5697904194
  0
LINE
  5
23C
100
AcDbEntity
  8
0
100
AcDbLine
 62
250
  6
CONTINUOUS
 10
288.2255948872
 20
181.6799300118
 11
331.5107791337
 21
181.6799300118
  0
LINE
  5
23D
100
AcDbEntity
  8
0
100
AcDbLine
 62
250
  6
CONTINUOUS
 10
288.2255948872
 20
181.961837798
 11
331.5107791337
 21
181.961837798
  0
LINE
  5
23E
100
AcDbEntity
  8
0
100
AcDbLine
 62
250
  6
CONTINUOUS
 10
288.037656363
 20
182.1497763222
 11
287.7557485768
 21
182.1497763222
  0
LINE
  5
23F
100
AcDbEntity
  8
0
100
AcDbLine
 62
250
  6
CONTINUOUS
 10
331.6987176579
 20
182.1497763222
 11
331.9806254441
 21
182.1497763222
  0
LINE
  5
240
100
AcDbEntity
  8
0
100
AcDbLine
 62
7
  6
CONTINUOUS
 10
288.7581870104
 20
182.6396214099
 11
330.9781870104
 21
182.6396214099
  0
LWPOLYLINE
  5
241
100
AcDbEntity
  8
0
100
AcDbPolyline
 62
250
  6
CONTINUOUS
 90
16
 70
0
 10
296.2003236746
 20
216.9390348858
 10
296.2073008814
 20
216.9491007759
 10
296.2156428244
 20
216.9581244819
 10
296.2251862599
 20
216.9659160023
 10
296.2357485802
 20
216.9722947083
 10
296.2471051134
 20
216.9771425654
 10
296.2590173443
 20
216.9804156216
 10
296.2712654676
 20
216.982070764
 10
296.2836271405
 20
216.9820580952
 10
296.2958711255
 20
216.9803778686
 10
296.3077810408
 20
216.9770784064
 10
296.3191307138
 20
216.9722043509
 10
296.3296664364
 20
216.9658116457
 10
296.339164175
 20
216.9580291925
 10
296.3474539026
 20
216.9490393087
 10
296.3543805545
 20
216.9390347333
  0
LWPOLYLINE
  5
242
100
AcDbEntity
  8
0
100
AcDbPolyline
 62
7
  6
CONTINUOUS
 90
46
 70
0
 10
295.8564836851
 20
216.9422206716
 10
295.8594864088
 20
216.9450025366
 10
295.8625865771
 20
216.9477095164
 10
295.8657830205
 20
216.9503401713
 10
295.8690732407
 20
216.9528921232
 10
295.8724572607
 20
216.9553649956
 10
295.8759378963
 20
216.9577602118
 10
295.8795141837
 20
216.9600764427
 10
295.8831849835
 20
216.9623120006
 10
295.886953249
 20
216.9644674429
 10
295.8908181866
 20
216.9665413129
 10
295.894778683
 20
216.9685317988
 10
295.8988375223
 20
216.9704386125
 10
295.9029938689
 20
216.9722600968
 10
295.9072467221
 20
216.9739943941
 10
295.9115988547
 20
216.9756406169
 10
295.9160497568
 20
216.9771970519
 10
295.9205980969
 20
216.9786616264
 10
295.9252455606
 20
216.9800326671
 10
295.9299912275
 20
216.981308227
 10
295.9348340049
 20
216.9824863076
 10
295.9397753862
 20
216.9835649642
 10
295.9448143525
 20
216.9845421549
 10
295.9499496906
 20
216.985415817
 10
295.9551826369
 20
216.9861837904
 10
295.9605112199
 20
216.9868438754
 10
295.9659348909
 20
216.9873940524
 10
295.9714570842
 20
216.9878321418
 10
295.9770713304
 20
216.9881557464
 10
295.9827813005
 20
216.9883628238
 10
295.9886060454
 20
216.9884505826
 10
295.9945430664
 20
216.9884161021
 10
296.0005923705
 20
216.9882558277
 10
296.0067774125
 20
216.9879638966
 10
296.0130977247
 20
216.9875360537
 10
296.0195512395
 20
216.9869675429
 10
296.026159454
 20
216.9862494712
 10
296.0329213891
 20
216.9853762577
 10
296.0398348171
 20
216.9843420267
 10
296.0469195004
 20
216.9831352613
 10
296.054173648
 20
216.9817490703
 10
296.0615945539
 20
216.9801764286
 10
296.0692004541
 20
216.9784034634
 10
296.0769953251
 20
216.9764196178
 10
296.084968726
 20
216.9742188022
 10
296.0931167603
 20
216.9717927137
  0
LWPOLYLINE
  5
243
100
AcDbEntity
  8
0
100
AcDbPolyline
 62
250
  6
CONTINUOUS
 90
13
 70
0
 10
331.7248969394
 20
185.25015106
 10
331.7509897083
 20
185.2518738381
 10
331.7766362558
 20
185.2569731448
 10
331.8013981684
 20
185.2653617442
 10
331.8248521884
 20
185.2768961856
 10
331.846597387
 20
185.291379229
 10
331.8662620335
 20
185.3085631941
 10
331.883510033
 20
185.3281542598
 10
331.8980466315
 20
185.3498174901
 10
331.9096234132
 20
185.3731825069
 10
331.9180425858
 20
185.3978498753
 10
331.9231603469
 20
185.4233979396
 10
331.9248893236
 20
185.4493900038
  0
LWPOLYLINE
  5
244
100
AcDbEntity
  8
0
100
AcDbPolyline
 62
7
  6
CONTINUOUS
 90
34
 70
0
 10
306.7874382741
 20
184.4646214099
 10
306.8114086571
 20
184.4649664881
 10
306.8352737273
 20
184.4663270218
 10
306.8590334847
 20
184.4687030115
 10
306.8827413637
 20
184.4720768204
 10
306.90634393
 20
184.4764660865
 10
306.9296808801
 20
184.4819237226
 10
306.9527774291
 20
184.4884493252
 10
306.975608362
 20
184.4960433007
 10
306.9979377306
 20
184.5047597777
 10
307.0197498289
 20
184.5146052676
 10
307.041060363
 20
184.5255732638
 10
307.0616805033
 20
184.5376983675
 10
307.0814917479
 20
184.5510161452
 10
307.1006125988
 20
184.5654910373
 10
307.1192097323
 20
184.581050956
 10
307.137377381
 20
184.5976399034
 10
307.1550213124
 20
184.6153138852
 10
307.1720255053
 20
184.63416882
 10
307.1884810219
 20
184.6541655651
 10
307.2042968
 20
184.6753432734
 10
307.2190836319
 20
184.6979153089
 10
307.2326300518
 20
184.7219252889
 10
307.2451475255
 20
184.747329611
 10
307.2568812422
 20
184.7742108111
 10
307.2680516157
 20
184.8025123337
 10
307.2784382323
 20
184.8322907526
 10
307.2876250399
 20
184.8637983005
 10
307.2956248714
 20
184.8971205113
 10
307.3024248939
 20
184.9321718766
 10
307.3075705567
 20
184.9689480688
 10
307.3109103429
 20
185.0074476551
 10
307.3125957693
 20
185.047672097
 10
307.3126014065
 20
185.1312700538
  0
LINE
  5
245
100
AcDbEntity
  8
0
100
AcDbLine
 62
7
  6
CONTINUOUS
 10
303.6554060104
 20
184.4646214099
 11
303.8190480104
 21
184.4646214099
  0
LINE
  5
246
100
AcDbEntity
  8
0
100
AcDbLine
 62
7
  6
CONTINUOUS
 10
304.1707490104
 20
184.4646214099
 11
304.3378870104
 21
184.4646214099
  0
LINE
  5
247
100
AcDbEntity
  8
0
100
AcDbLine
 62
7
  6
CONTINUOUS
 10
305.0029560104
 20
184.4646214099
 11
305.1770360104
 21
184.4646214099
  0
LINE
  5
248
100
AcDbEntity
  8
0
100
AcDbLine
 62
7
  6
CONTINUOUS
 10
304.6895210104
 20
184.4646214099
 11
304.8532290104
 21
184.4646214099
  0
LINE
  5
249
100
AcDbEntity
  8
0
100
AcDbLine
 62
7
  6
CONTINUOUS
 10
305.9325960104
 20
184.4646214099
 11
306.1171590104
 21
184.4646214099
  0
LINE
  5
24A
100
AcDbEntity
  8
0
100
AcDbLine
 62
7
  6
CONTINUOUS
 10
306.2807970104
 20
184.4646214099
 11
306.7874382741
 21
184.4646214099
  0
LINE
  5
24B
100
AcDbEntity
  8
0
100
AcDbLine
 62
7
  6
CONTINUOUS
 10
307.5465160104
 20
184.4646214099
 11
308.4692820104
 21
184.4646214099
  0
LINE
  5
24C
100
AcDbEntity
  8
0
100
AcDbLine
 62
7
  6
CONTINUOUS
 10
309.2005200104
 20
184.4646214099
 11
309.3693830104
 21
184.4646214099
  0
LINE
  5
24D
100
AcDbEntity
  8
0
100
AcDbLine
 62
7
  6
CONTINUOUS
 10
309.6583440104
 20
184.4646214099
 11
309.8220620104
 21
184.4646214099
  0
LINE
  5
24E
100
AcDbEntity
  8
0
100
AcDbLine
 62
7
  6
CONTINUOUS
 10
310.4610130104
 20
184.4646214099
 11
310.6507720104
 21
184.4646214099
  0
LINE
  5
24F
100
AcDbEntity
  8
0
100
AcDbLine
 62
7
  6
CONTINUOUS
 10
311.4254790104
 20
184.4646214099
 11
311.5943930104
 21
184.4646214099
  0
LINE
  5
250
100
AcDbEntity
  8
0
100
AcDbLine
 62
7
  6
CONTINUOUS
 10
312.1985280104
 20
184.4646214099
 11
312.3673820104
 21
184.4646214099
  0
LINE
  5
251
100
AcDbEntity
  8
0
100
AcDbLine
 62
7
  6
CONTINUOUS
 10
312.8391970104
 20
184.4646214099
 11
313.0132670104
 21
184.4646214099
  0
LINE
  5
252
100
AcDbEntity
  8
0
100
AcDbLine
 62
7
  6
CONTINUOUS
 10
313.7688980104
 20
184.4646214099
 11
313.9534920104
 21
184.4646214099
  0
LINE
  5
253
100
AcDbEntity
  8
0
100
AcDbLine
 62
7
  6
CONTINUOUS
 10
314.1083640104
 20
184.4646214099
 11
314.9110330104
 21
184.4646214099
  0
LINE
  5
254
100
AcDbEntity
  8
0
100
AcDbLine
 62
7
  6
CONTINUOUS
 10
315.4402490104
 20
184.4646214099
 11
315.6090720104
 21
184.4646214099
  0
LINE
  5
255
100
AcDbEntity
  8
0
100
AcDbLine
 62
7
  6
CONTINUOUS
 10
306.7831338666
 20
184.6090814099
 11
306.4497210104
 21
184.6090814099
  0
LINE
  5
256
100
AcDbEntity
  8
0
100
AcDbLine
 62
7
  6
CONTINUOUS
 10
314.9110330104
 20
184.6143384099
 11
314.2772890104
 21
184.6143384099
  0
LINE
  5
257
100
AcDbEntity
  8
0
100
AcDbLine
 62
7
  6
CONTINUOUS
 10
308.4692820104
 20
184.6143384099
 11
307.7154310104
 21
184.6143384099
  0
LINE
  5
258
100
AcDbEntity
  8
0
100
AcDbLine
 62
7
  6
CONTINUOUS
 10
305.3076260104
 20
184.8284504099
 11
305.8090010104
 21
184.8284504099
  0
LINE
  5
259
100
AcDbEntity
  8
0
100
AcDbLine
 62
7
  6
CONTINUOUS
 10
313.1438680104
 20
184.8284504099
 11
313.6452930104
 21
184.8284504099
  0
LINE
  5
25A
100
AcDbEntity
  8
0
100
AcDbLine
 62
7
  6
CONTINUOUS
 10
313.5843450104
 20
184.9781674099
 11
313.1961020104
 21
184.9781674099
  0
LINE
  5
25B
100
AcDbEntity
  8
0
100
AcDbLine
 62
7
  6
CONTINUOUS
 10
305.7481140104
 20
184.9781674099
 11
305.3598710104
 21
184.9781674099
  0
LINE
  5
25C
100
AcDbEntity
  8
0
100
AcDbLine
 62
7
  6
CONTINUOUS
 10
307.7154310104
 20
185.0321504099
 11
308.3996300104
 21
185.0321504099
  0
LWPOLYLINE
  5
25D
100
AcDbEntity
  8
0
100
AcDbPolyline
 62
7
  6
CONTINUOUS
 90
8
 70
0
 10
288.848054538
 20
186.2745267135
 10
288.851317627
 20
186.2739915951
 10
288.8574463546
 20
186.2734747955
 10
288.8664407209
 20
186.2729763145
 10
288.8784594764
 20
186.2724912554
 10
288.8933438704
 20
186.272024515
 10
288.9106176518
 20
186.2715907838
 10
288.9524169573
 20
186.2708253239
  0
LWPOLYLINE
  5
25E
100
AcDbEntity
  8
0
100
AcDbPolyline
 62
7
  6
CONTINUOUS
 90
7
 70
0
 10
295.8564836851
 20
190.2370221482
 10
295.8477289056
 20
190.2529078652
 10
295.8404418856
 20
190.2695508072
 10
295.8346903839
 20
190.2868168696
 10
295.8305299642
 20
190.3045656688
 10
295.8280033849
 20
190.3226516486
 10
295.8271400885
 20
190.3409252482
  0
LINE
  5
25F
100
AcDbEntity
  8
0
100
AcDbLine
 62
250
  6
CONTINUOUS
 10
296.0024379519
 20
213.5162231116
 11
295.8755621571
 21
213.3893473169
  0
LINE
  5
260
100
AcDbEntity
  8
0
100
AcDbLine
 62
250
  6
CONTINUOUS
 10
296.2021638588
 20
213.3164972047
 11
296.0752880641
 21
213.1896214099
  0
LINE
  5
261
100
AcDbEntity
  8
0
100
AcDbLine
 62
7
  6
CONTINUOUS
 10
303.8681870104
 20
220.8896214099
 11
303.88824432
 21
220.9096787195
  0
LINE
  5
262
100
AcDbEntity
  8
0
100
AcDbLine
 62
7
  6
CONTINUOUS
 10
288.8581168304
 20
214.0080674784
 11
288.8210763456
 21
213.9957306826
  0
LINE
  5
263
100
AcDbEntity
  8
0
100
AcDbLine
 62
7
  6
CONTINUOUS
 10
296.6742988794
 20
217.0377635454
 11
296.411243957
 21
216.9562905405
  0
LINE
  5
264
100
AcDbEntity
  8
0
100
AcDbLine
 62
7
  6
CONTINUOUS
 10
296.411243957
 20
216.9562905405
 11
296.3543803775
 21
216.9390349632
  0
LINE
  5
265
100
AcDbEntity
  8
0
100
AcDbLine
 62
7
  6
CONTINUOUS
 10
330.6504364912
 20
186.2696761663
 11
330.7235988268
 21
186.2701231808
  0
LINE
  5
266
100
AcDbEntity
  8
0
100
AcDbLine
 62
7
  6
CONTINUOUS
 10
331.6987176579
 20
185.0896214099
 11
330.9781870104
 21
185.0896214099
  0
LINE
  5
267
100
AcDbEntity
  8
0
100
AcDbLine
 62
7
  6
CONTINUOUS
 10
308.3996300104
 20
185.1818674099
 11
307.7154310104
 21
185.1818674099
  0
LINE
  5
268
100
AcDbEntity
  8
0
100
AcDbLine
 62
250
  6
CONTINUOUS
 10
330.9795582988
 20
185.25015106
 11
331.7248969394
 21
185.25015106
  0
LINE
  5
269
100
AcDbEntity
  8
0
100
AcDbLine
 62
7
  6
CONTINUOUS
 10
307.7154310104
 20
185.5649044099
 11
308.4570800104
 21
185.5649044099
  0
LINE
  5
26A
100
AcDbEntity
  8
0
100
AcDbLine
 62
7
  6
CONTINUOUS
 10
311.7754590104
 20
185.5649044099
 11
312.1985280104
 21
185.5649044099
  0
LINE
  5
26B
100
AcDbEntity
  8
0
100
AcDbLine
 62
7
  6
CONTINUOUS
 10
312.3673820104
 20
185.5649044099
 11
312.7904510104
 21
185.5649044099
  0
LINE
  5
26C
100
AcDbEntity
  8
0
100
AcDbLine
 62
7
  6
CONTINUOUS
 10
306.4497210104
 20
185.5701614099
 11
306.7831338666
 21
185.5701614099
  0
LINE
  5
26D
100
AcDbEntity
  8
0
100
AcDbLine
 62
250
  6
CONTINUOUS
 10
331.2556197509
 20
185.6486289393
 11
331.9232960698
 21
185.6486289393
  0
LINE
  5
26E
100
AcDbEntity
  8
0
100
AcDbLine
 62
7
  6
CONTINUOUS
 10
316.0809680104
 20
185.7146214099
 11
315.8824240104
 21
185.7146214099
  0
LINE
  5
26F
100
AcDbEntity
  8
0
100
AcDbLine
 62
7
  6
CONTINUOUS
 10
315.1651780104
 20
185.7146214099
 11
314.9684530104
 21
185.7146214099
  0
LINE
  5
270
100
AcDbEntity
  8
0
100
AcDbLine
 62
7
  6
CONTINUOUS
 10
314.2772890104
 20
185.7146214099
 11
314.1083640104
 21
185.7146214099
  0
LINE
  5
271
100
AcDbEntity
  8
0
100
AcDbLine
 62
7
  6
CONTINUOUS
 10
313.5007720104
 20
185.7146214099
 11
313.3092940104
 21
185.7146214099
  0
LINE
  5
272
100
AcDbEntity
  8
0
100
AcDbLine
 62
7
  6
CONTINUOUS
 10
312.7904510104
 20
185.7146214099
 11
311.7754590104
 21
185.7146214099
  0
LINE
  5
273
100
AcDbEntity
  8
0
100
AcDbLine
 62
7
  6
CONTINUOUS
 10
311.5943930104
 20
185.7146214099
 11
311.4254790104
 21
185.7146214099
  0
LINE
  5
274
100
AcDbEntity
  8
0
100
AcDbLine
 62
7
  6
CONTINUOUS
 10
310.6507720104
 20
185.7146214099
 11
310.4871350104
 21
185.7146214099
  0
LINE
  5
275
100
AcDbEntity
  8
0
100
AcDbLine
 62
7
  6
CONTINUOUS
 10
309.8585970104
 20
185.7146214099
 11
309.6583440104
 21
185.7146214099
  0
LINE
  5
276
100
AcDbEntity
  8
0
100
AcDbLine
 62
7
  6
CONTINUOUS
 10
309.3693830104
 20
185.7146214099
 11
309.2005200104
 21
185.7146214099
  0
LINE
  5
277
100
AcDbEntity
  8
0
100
AcDbLine
 62
7
  6
CONTINUOUS
 10
308.4570800104
 20
185.7146214099
 11
307.5465160104
 21
185.7146214099
  0
LINE
  5
278
100
AcDbEntity
  8
0
100
AcDbLine
 62
7
  6
CONTINUOUS
 10
306.7927529912
 20
185.7146214099
 11
306.2807970104
 21
185.7146214099
  0
LINE
  5
279
100
AcDbEntity
  8
0
100
AcDbLine
 62
7
  6
CONTINUOUS
 10
305.6645310104
 20
185.7146214099
 11
305.4729920104
 21
185.7146214099
  0
LINE
  5
27A
100
AcDbEntity
  8
0
100
AcDbLine
 62
7
  6
CONTINUOUS
 10
304.8532290104
 20
185.7146214099
 11
304.6129440104
 21
185.7146214099
  0
LINE
  5
27B
100
AcDbEntity
  8
0
100
AcDbLine
 62
7
  6
CONTINUOUS
 10
303.8974080104
 20
185.7146214099
 11
303.6554060104
 21
185.7146214099
  0
LINE
  5
27C
100
AcDbEntity
  8
0
100
AcDbLine
 62
7
  6
CONTINUOUS
 10
315.8481297009
 20
186.2695641004
 11
330.6504364912
 21
186.2696761663
  0
LINE
  5
27D
100
AcDbEntity
  8
0
100
AcDbLine
 62
7
  6
CONTINUOUS
 10
288.8027336228
 20
186.2896214099
 11
303.8681870104
 21
186.2896214099
  0
LINE
  5
27E
100
AcDbEntity
  8
0
100
AcDbLine
 62
7
  6
CONTINUOUS
 10
315.8681870104
 20
186.2896214099
 11
330.7333471988
 21
186.2896214099
  0
LINE
  5
27F
100
AcDbEntity
  8
0
100
AcDbLine
 62
7
  6
CONTINUOUS
 10
330.7333471988
 20
187.0896214099
 11
315.8681870104
 21
187.0896214099
  0
LINE
  5
280
100
AcDbEntity
  8
0
100
AcDbLine
 62
7
  6
CONTINUOUS
 10
303.8681870104
 20
187.0896214099
 11
288.8027336228
 21
187.0896214099
  0
LINE
  5
281
100
AcDbEntity
  8
0
100
AcDbLine
 62
7
  6
CONTINUOUS
 10
289.1184318184
 20
187.1101478686
 11
303.8887419367
 21
187.1101763362
  0
LINE
  5
282
100
AcDbEntity
  8
0
100
AcDbLine
 62
7
  6
CONTINUOUS
 10
330.6186221958
 20
187.1101475066
 11
315.8476320842
 21
187.1101763362
  0
LINE
  5
283
100
AcDbEntity
  8
0
100
AcDbLine
 62
7
  6
CONTINUOUS
 10
289.0870633166
 20
186.2696722211
 11
303.88824432
 21
186.2695641004
  0
LINE
  5
284
100
AcDbEntity
  8
0
100
AcDbLine
 62
7
  6
CONTINUOUS
 10
289.0020750186
 20
186.2702233521
 11
289.0870633166
 21
186.2696722211
  0
LINE
  5
285
100
AcDbEntity
  8
0
100
AcDbLine
 62
7
  6
CONTINUOUS
 10
288.9524169573
 20
186.2708253239
 11
289.0020750186
 21
186.2702233521
  0
LWPOLYLINE
  5
286
100
AcDbEntity
  8
0
100
AcDbPolyline
 62
7
  6
CONTINUOUS
 90
25
 70
0
 10
306.7831338666
 20
185.5701614099
 10
306.8106842686
 20
185.5685180116
 10
306.8377542878
 20
185.564814414
 10
306.8643439244
 20
185.559050619
 10
306.8906453306
 20
185.5512158297
 10
306.9164663541
 20
185.5413208489
 10
306.9412305382
 20
185.5293980793
 10
306.9649403355
 20
185.5153132938
 10
306.9875932935
 20
185.4992007312
 10
307.0086055971
 20
185.4814954925
 10
307.0278163722
 20
185.4621833543
 10
307.045386493
 20
185.441278553
 10
307.0612147667
 20
185.4192588769
 10
307.0751997082
 20
185.3961772762
 10
307.0874428026
 20
185.3719808117
 10
307.0981473124
 20
185.3469884348
 10
307.1072074492
 20
185.3212559704
 10
307.1147290014
 20
185.2947276025
 10
307.1212325972
 20
185.2675548188
 10
307.126930649
 20
185.239849865
 10
307.1316107443
 20
185.211500503
 10
307.1351562737
 20
185.182321495
 10
307.1375283676
 20
185.1522510993
 10
307.1387658956
 20
185.121351069
 10
307.1388688577
 20
185.0896214099
  0
LWPOLYLINE
  5
287
100
AcDbEntity
  8
0
100
AcDbPolyline
 62
250
  6
CONTINUOUS
 90
13
 70
0
 10
330.955631174
 20
185.2401062077
 10
330.9295394893
 20
185.2418288467
 10
330.903893809
 20
185.2469277767
 10
330.8791325134
 20
185.255315838
 10
330.8556788657
 20
185.266849647
 10
330.8339337763
 20
185.2813320481
 10
330.81426895
 20
185.2985154833
 10
330.7970205321
 20
185.3181062236
 10
330.7824833626
 20
185.3397693901
 10
330.7709059361
 20
185.3631346791
 10
330.7624861541
 20
185.3878026908
 10
330.757367942
 20
185.4133517565
 10
330.7556387894
 20
185.4393451473
  0
LINE
  5
288
100
AcDbEntity
  8
0
100
AcDbLine
 62
7
  6
CONTINUOUS
 10
296.4112430595
 20
190.2229525546
 11
296.3543803087
 21
190.2402078641
  0
LINE
  5
289
100
AcDbEntity
  8
0
100
AcDbLine
 62
7
  6
CONTINUOUS
 10
296.6742988794
 20
190.1414792744
 11
296.4112430595
 21
190.2229525546
  0
LINE
  5
28A
100
AcDbEntity
  8
0
100
AcDbLine
 62
7
  6
CONTINUOUS
 10
288.8581168304
 20
193.1711753415
 11
288.8210763456
 21
193.1835121372
  0
LINE
  5
28B
100
AcDbEntity
  8
0
100
AcDbLine
 62
250
  6
CONTINUOUS
 10
295.8755621571
 20
193.789895503
 11
296.0024379519
 21
193.6630197082
  0
LINE
  5
28C
100
AcDbEntity
  8
0
100
AcDbLine
 62
250
  6
CONTINUOUS
 10
296.0752880641
 20
193.9896214099
 11
296.2021638588
 21
193.8627456151
  0
LINE
  5
28D
100
AcDbEntity
  8
0
100
AcDbLine
 62
7
  6
CONTINUOUS
 10
303.8681870104
 20
186.2896214099
 11
303.88824432
 21
186.2695641004
  0
LWPOLYLINE
  5
28E
100
AcDbEntity
  8
0
100
AcDbPolyline
 62
7
  6
CONTINUOUS
 90
7
 70
0
 10
295.8271400885
 20
216.8383175716
 10
295.8280007967
 20
216.8565635885
 10
295.8305218194
 20
216.8746335714
 10
295.8346767993
 20
216.8923779513
 10
295.8404259857
 20
216.9096506134
 10
295.8477166633
 20
216.9263100844
 10
295.8564836851
 20
216.9422206716
  0
LWPOLYLINE
  5
28F
100
AcDbEntity
  8
0
100
AcDbPolyline
 62
7
  6
CONTINUOUS
 90
25
 70
0
 10
295.8564836851
 20
216.9422206716
 10
295.8653809596
 20
216.9890085788
 10
295.878886722
 20
217.0335615005
 10
295.8970009723
 20
217.0758794525
 10
295.9200566105
 20
217.116435045
 10
295.9477207366
 20
217.1547556952
 10
295.9789946501
 20
217.1894236377
 10
296.0140074793
 20
217.2202914631
 10
296.0526300958
 20
217.2475066203
 10
296.0934764141
 20
217.2700936415
 10
296.1366269268
 20
217.2878843531
 10
296.1820011413
 20
217.3010469598
 10
296.2279714937
 20
217.3091105608
 10
296.2745589719
 20
217.3118903005
 10
296.3217425881
 20
217.3095710439
 10
296.3678318151
 20
217.302236465
 10
296.4127877204
 20
217.2897043343
 10
296.4566492366
 20
217.2721568647
 10
296.4978426335
 20
217.2502243896
 10
296.5362702299
 20
217.2237481425
 10
296.5720297071
 20
217.1928868547
 10
296.6038403793
 20
217.1587471088
 10
296.6312753511
 20
217.1216977559
 10
296.6547615178
 20
217.0813699085
 10
296.6742988794
 20
217.0377635454
  0
LINE
  5
290
100
AcDbEntity
  8
0
100
AcDbLine
 62
250
  6
CONTINUOUS
 10
297.016074686
 20
216.8762261005
 11
297.0192696011
 21
216.8858186402
  0
LINE
  5
291
100
AcDbEntity
  8
0
100
AcDbLine
 62
250
  6
CONTINUOUS
 10
297.216044225
 20
216.6765001935
 11
297.2181870104
 21
216.6829337774
  0
LWPOLYLINE
  5
292
100
AcDbEntity
  8
0
100
AcDbPolyline
 62
7
  6
CONTINUOUS
 90
6
 70
0
 10
313.1592920015
 20
222.0699681002
 10
313.1697331279
 20
222.073588147
 10
313.1800548877
 20
222.0782482257
 10
313.1902572809
 20
222.0839483352
 10
313.2002724467
 20
222.0909151683
 10
313.2101682459
 20
222.098922029
  0
LWPOLYLINE
  5
293
100
AcDbEntity
  8
0
100
AcDbPolyline
 62
7
  6
CONTINUOUS
 90
10
 70
0
 10
310.8432892786
 20
188.79971689
 10
310.8583970836
 20
188.803559518
 10
310.8733434544
 20
188.8070414525
 10
310.8881283911
 20
188.8101626934
 10
310.9027597861
 20
188.8129652702
 10
310.9172297471
 20
188.8154071529
 10
310.9315145962
 20
188.8173622523
 10
310.945606441
 20
188.8187885383
 10
310.959513174
 20
188.8197280405
 10
310.9732347952
 20
188.820180759
  0
LINE
  5
294
100
AcDbEntity
  8
0
100
AcDbLine
 62
7
  6
CONTINUOUS
 10
310.6642307268
 20
188.5101534726
 11
310.4800559507
 21
188.4855968656
  0
LWPOLYLINE
  5
295
100
AcDbEntity
  8
0
100
AcDbPolyline
 62
7
  6
CONTINUOUS
 90
10
 70
0
 10
310.9568636642
 20
188.0630184088
 10
311.005688564
 20
188.0649326876
 10
311.0522571751
 20
188.0701563823
 10
311.0965694974
 20
188.0786894962
 10
311.1384859414
 20
188.0905330818
 10
311.1781460968
 20
188.1056860991
 10
311.2159687322
 20
188.1241454163
 10
311.2520934375
 20
188.1459099975
 10
311.2863806229
 20
188.1709809033
 10
311.3188302884
 20
188.1993581492
  0
LWPOLYLINE
  5
296
100
AcDbEntity
  8
0
100
AcDbPolyline
 62
7
  6
CONTINUOUS
 90
7
 70
0
 10
288.9121358895
 20
187.1081480761
 10
288.8948548265
 20
187.1077138601
 10
288.8799622053
 20
187.1072465646
 10
288.8679358171
 20
187.1067608763
 10
288.8589349256
 20
187.1062616906
 10
288.8528002672
 20
187.1057441121
 10
288.8495318418
 20
187.1052081408
  0
LINE
  5
297
100
AcDbEntity
  8
0
100
AcDbLine
 62
7
  6
CONTINUOUS
 10
288.9539467581
 20
187.1089142927
 11
288.9121358895
 21
187.1081480761
  0
LINE
  5
298
100
AcDbEntity
  8
0
100
AcDbLine
 62
7
  6
CONTINUOUS
 10
289.0036086013
 20
187.109516754
 11
288.9539467581
 21
187.1089142927
  0
LWPOLYLINE
  5
299
100
AcDbEntity
  8
0
100
AcDbPolyline
 62
7
  6
CONTINUOUS
 90
10
 70
0
 10
310.8934258448
 20
188.959334925
 10
310.8900616449
 20
188.9593168651
 10
310.8867189577
 20
188.9593558117
 10
310.8833977832
 20
188.9594517648
 10
310.8801043955
 20
188.9595989224
 10
310.8768325205
 20
188.9598030865
 10
310.873563336
 20
188.9600816628
 10
310.8702905678
 20
188.9604404535
 10
310.8670204901
 20
188.9608736564
 10
310.8637531029
 20
188.9613812716
  0
LWPOLYLINE
  5
29A
100
AcDbEntity
  8
0
100
AcDbPolyline
 62
7
  6
CONTINUOUS
 90
3
 70
0
 10
289.1184318184
 20
187.1101478686
 10
289.0885823979
 20
187.110068204
 10
289.0036086013
 20
187.109516754
  0
LINE
  5
29B
100
AcDbEntity
  8
0
100
AcDbLine
 62
7
  6
CONTINUOUS
 10
307.4923343884
 20
188.0896214099
 11
307.6765089856
 21
188.0896214099
  0
LINE
  5
29C
100
AcDbEntity
  8
0
100
AcDbLine
 62
7
  6
CONTINUOUS
 10
308.7385827528
 20
188.0896214099
 11
308.9227573501
 21
188.0896214099
  0
LINE
  5
29D
100
AcDbEntity
  8
0
100
AcDbLine
 62
7
  6
CONTINUOUS
 10
309.8231665121
 20
188.0896214099
 11
310.0073412882
 21
188.0896214099
  0
LINE
  5
29E
100
AcDbEntity
  8
0
100
AcDbLine
 62
7
  6
CONTINUOUS
 10
311.6209156738
 20
188.0896214099
 11
312.6123888718
 21
188.0896214099
  0
LINE
  5
29F
100
AcDbEntity
  8
0
100
AcDbLine
 62
7
  6
CONTINUOUS
 10
312.6123888718
 20
188.2666336933
 11
311.876713656
 21
188.2666336933
  0
LINE
  5
2A0
100
AcDbEntity
  8
0
100
AcDbLine
 62
7
  6
CONTINUOUS
 10
308.0878323542
 20
188.4487619327
 11
308.7385827528
 21
188.4487619327
  0
LINE
  5
2A1
100
AcDbEntity
  8
0
100
AcDbLine
 62
7
  6
CONTINUOUS
 10
308.9227573501
 20
188.4487619327
 11
309.1253494249
 21
188.4487619327
  0
LINE
  5
2A2
100
AcDbEntity
  8
0
100
AcDbLine
 62
250
  6
CONTINUOUS
 10
331.2556197509
 20
188.5306138806
 11
331.9232960698
 21
188.5306138806
  0
LINE
  5
2A3
100
AcDbEntity
  8
0
100
AcDbLine
 62
7
  6
CONTINUOUS
 10
309.1253494249
 20
188.6175886841
 11
308.9227573501
 21
188.6175886841
  0
LINE
  5
2A4
100
AcDbEntity
  8
0
100
AcDbLine
 62
7
  6
CONTINUOUS
 10
308.7385827528
 20
188.6175886841
 11
308.2689374314
 21
188.6175886841
  0
LINE
  5
2A5
100
AcDbEntity
  8
0
100
AcDbLine
 62
250
  6
CONTINUOUS
 10
331.7248969394
 20
188.9290917598
 11
330.9795582988
 21
188.9290917598
  0
LINE
  5
2A6
100
AcDbEntity
  8
0
100
AcDbLine
 62
7
  6
CONTINUOUS
 10
331.6987176579
 20
189.0896214099
 11
330.9781870104
 21
189.0896214099
  0
LINE
  5
2A7
100
AcDbEntity
  8
0
100
AcDbLine
 62
7
  6
CONTINUOUS
 10
330.6946221099
 20
187.1098288728
 11
330.6186221958
 21
187.1101475066
  0
LINE
  5
2A8
100
AcDbEntity
  8
0
100
AcDbLine
 62
7
  6
CONTINUOUS
 10
330.7233558751
 20
187.1096055793
 11
330.6946221099
 21
187.1098288728
  0
LWPOLYLINE
  5
2A9
100
AcDbEntity
  8
0
100
AcDbPolyline
 62
7
  6
CONTINUOUS
 90
10
 70
0
 10
310.9578868376
 20
188.2154740655
 10
310.9335318681
 20
188.2163584292
 10
310.9101450724
 20
188.2189112921
 10
310.8877264504
 20
188.223132655
 10
310.866345646
 20
188.2290029478
 10
310.8459330153
 20
188.2365417438
 10
310.8262796274
 20
188.2458077595
 10
310.8073158387
 20
188.2568205694
 10
310.7891112928
 20
188.2695606055
 10
310.7716659897
 20
188.284027872
  0
LWPOLYLINE
  5
2AA
100
AcDbEntity
  8
0
100
AcDbPolyline
 62
7
  6
CONTINUOUS
 90
10
 70
0
 10
310.9732347952
 20
188.820180759
 10
311.0015290759
 20
188.8190455044
 10
311.0285583885
 20
188.8158957408
 10
311.054322733
 20
188.8107314692
 10
311.0787603329
 20
188.803557846
 10
311.1019329648
 20
188.7943697194
 10
311.124025958
 20
188.7831516288
 10
311.1451010891
 20
188.7698984238
 10
311.1650965816
 20
188.7546152639
 10
311.1840124355
 20
188.7373021545
  0
LWPOLYLINE
  5
2AB
100
AcDbEntity
  8
0
100
AcDbPolyline
 62
250
  6
CONTINUOUS
 90
13
 70
0
 10
330.9795582882
 20
185.2501510579
 10
330.9560417178
 20
185.2526509225
 10
330.932910179
 20
185.258372511
 10
330.9105424694
 20
185.2672221558
 10
330.8893048814
 20
185.2790549651
 10
330.8695452111
 20
185.2936771909
 10
330.8515870603
 20
185.3108493975
 10
330.8357245239
 20
185.330290394
 10
330.8222173863
 20
185.3516818272
 10
330.8112868674
 20
185.3746733845
 10
330.8031119834
 20
185.3988885534
 10
330.7978266202
 20
185.4239307911
 10
330.7955173478
 20
185.4493900018
  0
LWPOLYLINE
  5
2AC
100
AcDbEntity
  8
0
100
AcDbPolyline
 62
7
  6
CONTINUOUS
 90
8
 70
0
 10
296.3543803087
 20
190.2402078641
 10
296.3517689289
 20
190.2406491154
 10
296.3482330244
 20
190.2410312552
 10
296.3437725953
 20
190.2413542836
 10
296.3381423847
 20
190.2416190126
 10
296.3315876495
 20
190.2418246301
 10
296.3248441606
 20
190.2419687001
 10
296.3182296599
 20
190.2420321351
  0
LWPOLYLINE
  5
2AD
100
AcDbEntity
  8
0
100
AcDbPolyline
 62
250
  6
CONTINUOUS
 90
16
 70
0
 10
296.2021638588
 20
193.8627456151
 10
296.2043628943
 20
193.8616741722
 10
296.208438331
 20
193.8606411983
 10
296.2143901689
 20
193.8596466934
 10
296.2223083758
 20
193.8586823511
 10
296.2321029838
 20
193.8577564777
 10
296.24350409
 20
193.8568939928
 10
296.256555137
 20
193.8560957326
 10
296.2712126822
 20
193.8553608607
 10
296.2870764942
 20
193.8547117874
 10
296.3041946715
 20
193.854150476
 10
296.3225191156
 20
193.8536749632
 10
296.3415052997
 20
193.8533017693
 10
296.360971715
 20
193.8530364011
 10
296.3810998704
 20
193.8528733518
 10
296.5693188942
 20
193.8528126215
  0
LINE
  5
2AE
100
AcDbEntity
  8
0
100
AcDbLine
 62
250
  6
CONTINUOUS
 10
297.0192696011
 20
190.2934241796
 11
297.016074686
 21
190.3030167194
  0
LINE
  5
2AF
100
AcDbEntity
  8
0
100
AcDbLine
 62
250
  6
CONTINUOUS
 10
297.2181870104
 20
190.4963090425
 11
297.216044225
 21
190.5027426263
  0
LINE
  5
2B0
100
AcDbEntity
  8
0
100
AcDbLine
 62
7
  6
CONTINUOUS
 10
295.8755621571
 20
213.9957306826
 11
295.8755621571
 21
213.3893473169
  0
LINE
  5
2B1
100
AcDbEntity
  8
0
100
AcDbLine
 62
7
  6
CONTINUOUS
 10
295.8755621571
 20
193.1835121372
 11
295.8755621571
 21
193.789895503
  0
LINE
  5
2B2
100
AcDbEntity
  8
0
100
AcDbLine
 62
250
  6
CONTINUOUS
 10
296.0024379519
 20
216.6630197082
 11
296.0024379519
 21
213.5162231116
  0
LINE
  5
2B3
100
AcDbEntity
  8
0
100
AcDbLine
 62
250
  6
CONTINUOUS
 10
296.0024379519
 20
193.6630197082
 11
296.0024379519
 21
190.5162231116
  0
LINE
  5
2B4
100
AcDbEntity
  8
0
100
AcDbLine
 62
250
  6
CONTINUOUS
 10
296.4018897658
 20
190.3264301983
 11
296.4018897658
 21
193.8528126215
  0
LINE
  5
2B5
100
AcDbEntity
  8
0
100
AcDbLine
 62
250
  6
CONTINUOUS
 10
296.4018897658
 20
213.3264301983
 11
296.4018897658
 21
216.8528126215
  0
LINE
  5
2B6
100
AcDbEntity
  8
0
100
AcDbLine
 62
250
  6
CONTINUOUS
 10
296.5693188942
 20
190.3264301983
 11
296.5693188942
 21
193.8528126215
  0
LINE
  5
2B7
100
AcDbEntity
  8
0
100
AcDbLine
 62
250
  6
CONTINUOUS
 10
296.5693188942
 20
213.3264301983
 11
296.5693188942
 21
216.8528126215
  0
LINE
  5
2B8
100
AcDbEntity
  8
0
100
AcDbLine
 62
250
  6
CONTINUOUS
 10
296.7107402504
 20
216.6530867146
 11
296.7107402504
 21
213.5261561053
  0
LINE
  5
2B9
100
AcDbEntity
  8
0
100
AcDbLine
 62
250
  6
CONTINUOUS
 10
296.7107402504
 20
193.6530867146
 11
296.7107402504
 21
190.5261561053
  0
LINE
  5
2BA
100
AcDbEntity
  8
0
100
AcDbLine
 62
7
  6
CONTINUOUS
 10
296.7181870104
 20
217.0377635454
 11
296.7181870104
 21
216.8900466293
  0
LINE
  5
2BB
100
AcDbEntity
  8
0
100
AcDbLine
 62
7
  6
CONTINUOUS
 10
296.7181870104
 20
194.042479255
 11
296.7181870104
 21
193.8900466293
  0
LINE
  5
2BC
100
AcDbEntity
  8
0
100
AcDbLine
 62
7
  6
CONTINUOUS
 10
296.7181870104
 20
190.1414792744
 11
296.7181870104
 21
190.2891961906
  0
LINE
  5
2BD
100
AcDbEntity
  8
0
100
AcDbLine
 62
7
  6
CONTINUOUS
 10
296.7181870104
 20
213.1367635649
 11
296.7181870104
 21
213.2891961906
  0
LINE
  5
2BE
100
AcDbEntity
  8
0
100
AcDbLine
 62
250
  6
CONTINUOUS
 10
297.1574960423
 20
216.6765001935
 11
297.1574960423
 21
213.5027426263
  0
LINE
  5
2BF
100
AcDbEntity
  8
0
100
AcDbLine
 62
250
  6
CONTINUOUS
 10
297.1574960423
 20
193.6765001935
 11
297.1574960423
 21
190.5027426263
  0
LINE
  5
2C0
100
AcDbEntity
  8
0
100
AcDbLine
 62
250
  6
CONTINUOUS
 10
297.216044225
 20
216.6765001935
 11
297.216044225
 21
213.5027426263
  0
LINE
  5
2C1
100
AcDbEntity
  8
0
100
AcDbLine
 62
250
  6
CONTINUOUS
 10
297.216044225
 20
193.6765001935
 11
297.216044225
 21
190.5027426263
  0
LWPOLYLINE
  5
2C2
100
AcDbEntity
  8
0
100
AcDbPolyline
 62
250
  6
CONTINUOUS
 90
8
 70
0
 10
323.733936069
 20
193.663020014
 10
323.7295925726
 20
193.6619212714
 10
323.7212294615
 20
193.6608820445
 10
323.7092408866
 20
193.6599023334
 10
323.6939894547
 20
193.6589765074
 10
323.6759204051
 20
193.6581101972
 10
323.6556419153
 20
193.6573202944
 10
323.6337103831
 20
193.6566140975
  0
LWPOLYLINE
  5
2C3
100
AcDbEntity
  8
0
100
AcDbPolyline
 62
250
  6
CONTINUOUS
 90
13
 70
0
 10
323.534210162
 20
190.3164972047
 10
323.5602337573
 20
190.3182711218
 10
323.5858138052
 20
190.3234201076
 10
323.610514156
 20
190.3318564306
 10
323.6339136517
 20
190.3434363095
 10
323.6556132906
 20
190.3579623556
 10
323.6752430359
 20
190.3751869288
 10
323.6924681557
 20
190.394816383
 10
323.7069949016
 20
190.4165160484
 10
323.7185755183
 20
190.4399159159
 10
323.7270125053
 20
190.4646169938
 10
323.7321619719
 20
190.4901981195
 10
323.7339360754
 20
190.5162231052
  0
LWPOLYLINE
  5
2C4
100
AcDbEntity
  8
0
100
AcDbPolyline
 62
250
  6
CONTINUOUS
 90
13
 70
0
 10
297.016074686
 20
190.3030167194
 10
297.0421857522
 20
190.3047505106
 10
297.0678478528
 20
190.3098740553
 10
297.0926217825
 20
190.3182988984
 10
297.1160827306
 20
190.3298795515
 10
297.137830596
 20
190.3444174384
 10
297.1574960282
 20
190.3616655416
 10
297.174748761
 20
190.3813377649
 10
297.189284178
 20
190.4030908484
 10
297.2008415569
 20
190.4265252907
 10
297.2092305742
 20
190.4512262129
 10
297.2143234477
 20
190.4767775662
 10
297.216044225
 20
190.5027426263
  0
LINE
  5
2C5
100
AcDbEntity
  8
0
100
AcDbLine
 62
250
  6
CONTINUOUS
 10
323.1670551267
 20
190.3264301983
 11
322.7202993349
 21
190.3030167194
  0
LINE
  5
2C6
100
AcDbEntity
  8
0
100
AcDbLine
 62
250
  6
CONTINUOUS
 10
323.0256337705
 20
190.5261561053
 11
322.5788779786
 21
190.5027426263
  0
LWPOLYLINE
  5
2C7
100
AcDbEntity
  8
0
100
AcDbPolyline
 62
7
  6
CONTINUOUS
 90
10
 70
0
 10
310.9497014509
 20
189.5957606287
 10
310.9099874593
 20
189.5942895622
 10
310.8719879713
 20
189.5903187275
 10
310.8357029871
 20
189.5838481264
 10
310.8012082611
 20
189.5748439956
 10
310.7684280389
 20
189.563340105
 10
310.7371350569
 20
189.5494377571
 10
310.7072535607
 20
189.5331707234
 10
310.6788593048
 20
189.5145052447
 10
310.6519522892
 20
189.4934413286
  0
LWPOLYLINE
  5
2C8
100
AcDbEntity
  8
0
100
AcDbPolyline
 62
250
  6
CONTINUOUS
 90
9
 70
0
 10
296.0883203999
 20
190.5221872769
 10
296.0709560479
 20
190.521562998
 10
296.0553957382
 20
190.5209112062
 10
296.0417320036
 20
190.5202371068
 10
296.0300064433
 20
190.5195354945
 10
296.0199018481
 20
190.5187853871
 10
296.0116421312
 20
190.5179797904
 10
296.0057097362
 20
190.5171256986
 10
296.0024379519
 20
190.5162231116
  0
LWPOLYLINE
  5
2C9
100
AcDbEntity
  8
0
100
AcDbPolyline
 62
7
  6
CONTINUOUS
 90
10
 70
0
 10
312.1427437292
 20
189.5957606287
 10
312.0961162236
 20
189.5943642889
 10
312.0516075783
 20
189.5901753173
 10
312.0092177933
 20
189.5831937157
 10
311.968857068
 20
189.5733518128
 10
311.930615203
 20
189.5607172881
 10
311.8947616002
 20
189.545493171
 10
311.86138606
 20
189.5277471429
 10
311.8303987819
 20
189.5074115369
 10
311.801799766
 20
189.484486362
  0
LINE
  5
2CA
100
AcDbEntity
  8
0
100
AcDbLine
 62
250
  6
CONTINUOUS
 10
296.130803409
 20
190.5233803421
 11
296.0883203999
 21
190.5221872769
  0
LINE
  5
2CB
100
AcDbEntity
  8
0
100
AcDbLine
 62
250
  6
CONTINUOUS
 10
296.1842125162
 20
190.5244682895
 11
296.130803409
 21
190.5233803421
  0
LINE
  5
2CC
100
AcDbEntity
  8
0
100
AcDbLine
 62
7
  6
CONTINUOUS
 10
297.0192696011
 20
190.2934241796
 11
296.7181870104
 21
190.2891961906
  0
LINE
  5
2CD
100
AcDbEntity
  8
0
100
AcDbLine
 62
250
  6
CONTINUOUS
 10
296.2493237511
 20
190.5253638666
 11
296.1842125162
 21
190.5244682895
  0
LWPOLYLINE
  5
2CE
100
AcDbEntity
  8
0
100
AcDbPolyline
 62
7
  6
CONTINUOUS
 90
8
 70
0
 10
323.4174706664
 20
190.2420243909
 10
323.4107244538
 20
190.2419569852
 10
323.4040684089
 20
190.2418093653
 10
323.3977244845
 20
190.2416007501
 10
323.3922857429
 20
190.2413358236
 10
323.3879498716
 20
190.2410161472
 10
323.3845191831
 20
190.2406401595
 10
323.3819936775
 20
190.2402078604
  0
LWPOLYLINE
  5
2CF
100
AcDbEntity
  8
0
100
AcDbPolyline
 62
250
  6
CONTINUOUS
 90
18
 70
0
 10
296.3815943381
 20
190.326364861
 10
296.3621611732
 20
190.3262131286
 10
296.3435902711
 20
190.3259750011
 10
296.3257055403
 20
190.3256381941
 10
296.3086830723
 20
190.3252149921
 10
296.2930511418
 20
190.3247422483
 10
296.2790182347
 20
190.3242231179
 10
296.2663758651
 20
190.3236544458
 10
296.2550268502
 20
190.3230636203
 10
296.245050019
 20
190.3224616106
 10
296.2363665424
 20
190.3218374475
 10
296.2286427502
 20
190.321185612
 10
296.2217534255
 20
190.3205111251
 10
296.2158237853
 20
190.3198089659
 10
296.2108958104
 20
190.3190585525
 10
296.2069834945
 20
190.3182530241
 10
296.204072844
 20
190.3173992415
 10
296.2021638588
 20
190.3164972047
  0
LWPOLYLINE
  5
2D0
100
AcDbEntity
  8
0
100
AcDbPolyline
 62
7
  6
CONTINUOUS
 90
8
 70
0
 10
296.2393214564
 20
190.2420445104
 10
296.2309798489
 20
190.2419832696
 10
296.223582256
 20
190.2418349536
 10
296.2167004302
 20
190.2416215163
 10
296.2108791892
 20
190.2413512583
 10
296.2063001389
 20
190.2410269464
 10
296.2027816734
 20
190.2406458137
 10
296.2003237927
 20
190.2402078603
  0
LINE
  5
2D1
100
AcDbEntity
  8
0
100
AcDbLine
 62
250
  6
CONTINUOUS
 10
296.3228180959
 20
190.5259386965
 11
296.2493237511
 21
190.5253638666
  0
LINE
  5
2D2
100
AcDbEntity
  8
0
100
AcDbLine
 62
7
  6
CONTINUOUS
 10
308.9227573501
 20
189.5896214099
 11
308.7723480092
 21
189.5896214099
  0
LINE
  5
2D3
100
AcDbEntity
  8
0
100
AcDbLine
 62
7
  6
CONTINUOUS
 10
310.0073412882
 20
189.5957606287
 11
309.8886508571
 21
189.5957606287
  0
LINE
  5
2D4
100
AcDbEntity
  8
0
100
AcDbLine
 62
7
  6
CONTINUOUS
 10
307.6765089856
 20
189.5957606287
 11
307.5578186886
 21
189.5957606287
  0
LINE
  5
2D5
100
AcDbEntity
  8
0
100
AcDbLine
 62
7
  6
CONTINUOUS
 10
296.6742988794
 20
190.1414792744
 11
296.7181870104
 21
190.1414792744
  0
LINE
  5
2D6
100
AcDbEntity
  8
0
100
AcDbLine
 62
7
  6
CONTINUOUS
 10
323.0181870104
 20
190.1414792744
 11
323.0620751415
 21
190.1414792744
  0
LINE
  5
2D7
100
AcDbEntity
  8
0
100
AcDbLine
 62
250
  6
CONTINUOUS
 10
296.5693188942
 20
190.3264301983
 11
296.3815943381
 21
190.326364861
  0
LINE
  5
2D8
100
AcDbEntity
  8
0
100
AcDbLine
 62
250
  6
CONTINUOUS
 10
322.5788779786
 20
190.5027426263
 11
322.5203297958
 21
190.5027426263
  0
LINE
  5
2D9
100
AcDbEntity
  8
0
100
AcDbLine
 62
250
  6
CONTINUOUS
 10
297.216044225
 20
190.5027426263
 11
297.1574960423
 21
190.5027426263
  0
LINE
  5
2DA
100
AcDbEntity
  8
0
100
AcDbLine
 62
250
  6
CONTINUOUS
 10
296.7107402504
 20
190.5261561053
 11
296.3228180959
 21
190.5259386965
  0
LINE
  5
2DB
100
AcDbEntity
  8
0
100
AcDbLine
 62
7
  6
CONTINUOUS
 10
323.4970128541
 20
190.2420392233
 11
323.4174706664
 21
190.2420243909
  0
LINE
  5
2DC
100
AcDbEntity
  8
0
100
AcDbLine
 62
7
  6
CONTINUOUS
 10
296.3182296599
 20
190.2420321351
 11
296.2393214564
 21
190.2420445104
  0
LINE
  5
2DD
100
AcDbEntity
  8
0
100
AcDbLine
 62
250
  6
CONTINUOUS
 10
323.3517787428
 20
190.3263774414
 11
323.1670551267
 21
190.3264301983
  0
LINE
  5
2DE
100
AcDbEntity
  8
0
100
AcDbLine
 62
250
  6
CONTINUOUS
 10
323.4017507633
 20
190.5259953996
 11
323.0256337705
 21
190.5261561053
  0
LINE
  5
2DF
100
AcDbEntity
  8
0
100
AcDbLine
 62
250
  6
CONTINUOUS
 10
323.4621719571
 20
190.5256140984
 11
323.4017507633
 21
190.5259953996
  0
LINE
  5
2E0
100
AcDbEntity
  8
0
100
AcDbLine
 62
250
  6
CONTINUOUS
 10
323.5159664456
 20
190.5250153683
 11
323.4621719571
 21
190.5256140984
  0
LINE
  5
2E1
100
AcDbEntity
  8
0
100
AcDbLine
 62
7
  6
CONTINUOUS
 10
323.0181870104
 20
190.2891961906
 11
322.7171044198
 21
190.2934241796
  0
LINE
  5
2E2
100
AcDbEntity
  8
0
100
AcDbLine
 62
250
  6
CONTINUOUS
 10
323.5661112109
 20
190.5242232542
 11
323.5159664456
 21
190.5250153683
  0
LWPOLYLINE
  5
2E3
100
AcDbEntity
  8
0
100
AcDbPolyline
 62
250
  6
CONTINUOUS
 90
4
 70
0
 10
323.4120123099
 20
190.3256146475
 10
323.3983216252
 20
190.3258883304
 10
323.3837625518
 20
190.326107056
 10
323.3517787428
 20
190.3263774414
  0
LWPOLYLINE
  5
2E4
100
AcDbEntity
  8
0
100
AcDbPolyline
 62
7
  6
CONTINUOUS
 90
19
 70
0
 10
331.7409355937
 20
189.0898826025
 10
331.7610440372
 20
189.0891951983
 10
331.7807535116
 20
189.0866306732
 10
331.799878703
 20
189.0822796677
 10
331.8183741262
 20
189.0762172046
 10
331.8359515903
 20
189.0685712061
 10
331.8521359729
 20
189.0596353304
 10
331.8666642729
 20
189.0498003464
 10
331.8797514681
 20
189.039162301
 10
331.8916652236
 20
189.0275843463
 10
331.9024490879
 20
189.0150766913
 10
331.9119533931
 20
189.0018669862
 10
331.9201199423
 20
188.9880747935
 10
331.9269467075
 20
188.9738343174
 10
331.9324525603
 20
188.9592687221
 10
331.9366495686
 20
188.944483815
 10
331.9395769843
 20
188.929588138
 10
331.9412909232
 20
188.9146893045
 10
331.941849377
 20
188.8998808761
  0
LWPOLYLINE
  5
2E5
100
AcDbEntity
  8
0
100
AcDbPolyline
 62
7
  6
CONTINUOUS
 90
10
 70
0
 10
312.1386510359
 20
189.4433049412
 10
312.1663644269
 20
189.4422760756
 10
312.1927762311
 20
189.4393880111
 10
312.2178864484
 20
189.4346407485
 10
312.2416561255
 20
189.4280167112
 10
312.2641242158
 20
189.4195334795
 10
312.2854075792
 20
189.4092437906
 10
312.3055451692
 20
189.397165226
 10
312.3244980324
 20
189.3832802111
 10
312.3422661688
 20
189.3675887502
  0
LWPOLYLINE
  5
2E6
100
AcDbEntity
  8
0
100
AcDbPolyline
 62
7
  6
CONTINUOUS
 90
10
 70
0
 10
310.9537941442
 20
189.4443281145
 10
310.9777905374
 20
189.4433839772
 10
311.0006727267
 20
189.4407957907
 10
311.022440712
 20
189.4365635558
 10
311.0430705139
 20
189.4306627924
 10
311.0625861118
 20
189.4231179835
 10
311.0810594446
 20
189.4140025752
 10
311.0985144919
 20
189.4033410512
 10
311.114927274
 20
189.391108933
 10
311.1302977911
 20
189.3773062241
  0
LINE
  5
2E7
100
AcDbEntity
  8
0
100
AcDbLine
 62
250
  6
CONTINUOUS
 10
297.016074686
 20
190.3030167194
 11
296.5693188942
 21
190.3264301983
  0
LINE
  5
2E8
100
AcDbEntity
  8
0
100
AcDbLine
 62
250
  6
CONTINUOUS
 10
297.1574960423
 20
190.5027426263
 11
296.7107402504
 21
190.5261561053
  0
LWPOLYLINE
  5
2E9
100
AcDbEntity
  8
0
100
AcDbPolyline
 62
250
  6
CONTINUOUS
 90
13
 70
0
 10
331.7248969394
 20
188.9290917598
 10
331.7509886249
 20
188.9273691246
 10
331.7766343058
 20
188.9222701968
 10
331.8013956016
 20
188.9138821362
 10
331.8248492493
 20
188.9023483259
 10
331.8465943384
 20
188.8878659221
 10
331.8662591644
 20
188.8706824842
 10
331.8835075818
 20
188.8510917413
 10
331.8980447508
 20
188.8294285723
 10
331.909622177
 20
188.8060632823
 10
331.9180419589
 20
188.7813952712
 10
331.9231601711
 20
188.7558462076
 10
331.9248893241
 20
188.7298528202
  0
LWPOLYLINE
  5
2EA
100
AcDbEntity
  8
0
100
AcDbPolyline
 62
250
  6
CONTINUOUS
 90
13
 70
0
 10
322.7202993349
 20
190.3030167194
 10
322.6941884786
 20
190.3047504828
 10
322.6685265829
 20
190.3098739439
 10
322.6437528419
 20
190.3182986481
 10
322.6202920889
 20
190.3298790902
 10
322.5985443746
 20
190.3444167096
 10
322.5788789556
 20
190.3616645787
 10
322.5616260939
 20
190.381336678
 10
322.547090477
 20
190.4030897502
 10
322.5355328765
 20
190.4265242948
 10
322.5271436557
 20
190.4512254336
 10
322.5220506318
 20
190.4767771226
 10
322.5203297958
 20
190.5027426263
  0
LWPOLYLINE
  5
2EB
100
AcDbEntity
  8
0
100
AcDbPolyline
 62
250
  6
CONTINUOUS
 90
13
 70
0
 10
296.2021638588
 20
190.3164972047
 10
296.1761394985
 20
190.3182712245
 10
296.1505588726
 20
190.3234204705
 10
296.1258581496
 20
190.3318571442
 10
296.1024584951
 20
190.343437394
 10
296.0807588907
 20
190.3579637681
 10
296.0611293311
 20
190.3751885816
 10
296.0439045147
 20
190.3948181386
 10
296.0293781376
 20
190.4165177406
 10
296.0177978862
 20
190.4399173943
 10
296.0093612127
 20
190.4646181185
 10
296.0042119684
 20
190.4901987471
 10
296.0024379519
 20
190.5162231116
  0
LINE
  5
2EC
100
AcDbEntity
  8
0
100
AcDbLine
 62
7
  6
CONTINUOUS
 10
311.6557042824
 20
189.1619269998
 11
311.8449945675
 21
189.1424863489
  0
LWPOLYLINE
  5
2ED
100
AcDbEntity
  8
0
100
AcDbPolyline
 62
7
  6
CONTINUOUS
 90
8
 70
0
 10
288.8581168304
 20
193.1711753415
 10
288.8613792055
 20
193.1706403388
 10
288.867507057
 20
193.1701236463
 10
288.8765003847
 20
193.169625264
 10
288.888517867
 20
193.1691402953
 10
288.9034008256
 20
193.1686736367
 10
288.9206732257
 20
193.168239978
 10
288.9624699314
 20
193.1674746347
  0
LINE
  5
2EE
100
AcDbEntity
  8
0
100
AcDbLine
 62
7
  6
CONTINUOUS
 10
310.4984734283
 20
189.2069474311
 11
310.6826482044
 21
189.174205348
  0
LWPOLYLINE
  5
2EF
100
AcDbEntity
  8
0
100
AcDbPolyline
 62
250
  6
CONTINUOUS
 90
11
 70
0
 10
296.0024379519
 20
193.6630199491
 10
296.0065970365
 20
193.66194764
 10
296.0147829932
 20
193.6609141764
 10
296.0268905616
 20
193.6599195582
 10
296.0427576267
 20
193.6589557187
 10
296.0622137949
 20
193.6580307246
 10
296.0851184229
 20
193.6571687767
 10
296.1112684033
 20
193.6563702821
 10
296.1403976786
 20
193.6556348336
 10
296.1722632169
 20
193.6549854107
 10
296.2429884959
 20
193.6539491951
  0
LWPOLYLINE
  5
2F0
100
AcDbEntity
  8
0
100
AcDbPolyline
 62
7
  6
CONTINUOUS
 90
43
 70
0
 10
313.2101682459
 20
222.098922029
 10
313.2302656128
 20
222.115751778
 10
313.2404671804
 20
222.1245746653
 10
313.2507971814
 20
222.1338688287
 10
313.2613142636
 20
222.1436129332
 10
313.271959779
 20
222.1538283118
 10
313.282602002
 20
222.1646902994
 10
313.2932487975
 20
222.1761991167
 10
313.3038923006
 20
222.1883545397
 10
313.3143771903
 20
222.2013312349
 10
313.3246969195
 20
222.2151666538
 10
313.3348580354
 20
222.2298233398
 10
313.3447248582
 20
222.245363596
 10
313.3543031693
 20
222.2617829462
 10
313.3635871872
 20
222.2790858603
 10
313.3724238874
 20
222.2973480594
 10
313.3808428589
 20
222.3165978053
 10
313.3888145127
 20
222.336806828
 10
313.3960970574
 20
222.3579660504
 10
313.4026895733
 20
222.3800742819
 10
313.4085929801
 20
222.4031327038
 10
313.4135682453
 20
222.4271357956
 10
313.4176201631
 20
222.4520207509
 10
313.4207439393
 20
222.4778503659
 10
313.4226861593
 20
222.5048075227
 10
313.4235290558
 20
222.5329308955
 10
313.423190396
 20
222.5621817956
 10
313.4211700669
 20
222.5926270598
 10
313.4175913054
 20
222.6244676635
 10
313.4123308745
 20
222.657502613
 10
313.40451895
 20
222.6911957943
 10
313.393944319
 20
222.7258561655
 10
313.3808181944
 20
222.7611747561
 10
313.3649043906
 20
222.7956885749
 10
313.3460196175
 20
222.8292460331
 10
313.3243471652
 20
222.8619987327
 10
313.3002007183
 20
222.8929384878
 10
313.2733235066
 20
222.9220890683
 10
313.2439723003
 20
222.9494267293
 10
313.2132310943
 20
222.973872027
 10
313.1814612202
 20
222.99506516
 10
313.1483013464
 20
223.0133659617
 10
313.113751473
 20
223.0287744446
  0
LWPOLYLINE
  5
2F1
100
AcDbEntity
  8
0
100
AcDbPolyline
 62
250
  6
CONTINUOUS
 90
13
 70
0
 10
296.5693188942
 20
190.3264301983
 10
296.5873736404
 20
190.3290058906
 10
296.6051321966
 20
190.3348031662
 10
296.6223044533
 20
190.343726685
 10
296.6386092491
 20
190.3556294514
 10
296.6537812316
 20
190.3703168162
 10
296.6675746223
 20
190.3875509074
 10
296.6797684971
 20
190.4070593016
 10
296.6901570202
 20
190.4285167776
 10
296.6985616508
 20
190.4515463338
 10
296.704849655
 20
190.4757585332
 10
296.7089289407
 20
190.5007644652
 10
296.7107402504
 20
190.5261561053
  0
LWPOLYLINE
  5
2F2
100
AcDbEntity
  8
0
100
AcDbPolyline
 62
250
  6
CONTINUOUS
 90
13
 70
0
 10
297.016074686
 20
190.3030167194
 10
297.0341226781
 20
190.3055908328
 10
297.0518756062
 20
190.3113844698
 10
297.0690435846
 20
190.3203028429
 10
297.0853454304
 20
190.3321994092
 10
297.1005160065
 20
190.3468801799
 10
297.114309867
 20
190.3641083851
 10
297.1265056085
 20
190.3836119427
 10
297.1368972697
 20
190.4050665099
 10
297.1453064379
 20
190.4280974715
 10
297.1515994491
 20
190.4523165812
 10
297.1556827955
 20
190.4773344114
 10
297.1574960423
 20
190.5027426263
  0
LWPOLYLINE
  5
2F3
100
AcDbEntity
  8
0
100
AcDbPolyline
 62
7
  6
CONTINUOUS
 90
7
 70
0
 10
330.8157007608
 20
193.168239979
 10
330.8329731625
 20
193.1686736375
 10
330.8478561241
 20
193.1691402959
 10
330.8598736111
 20
193.1696252644
 10
330.8688669455
 20
193.1701236466
 10
330.8749948052
 20
193.1706403389
 10
330.8782571905
 20
193.1711753415
  0
LWPOLYLINE
  5
2F4
100
AcDbEntity
  8
0
100
AcDbPolyline
 62
250
  6
CONTINUOUS
 90
3
 70
0
 10
323.6337103831
 20
193.6566140975
 10
323.5863765983
 20
193.6554259223
 10
323.5619874031
 20
193.6549436222
  0
LINE
  5
2F5
100
AcDbEntity
  8
0
100
AcDbLine
 62
7
  6
CONTINUOUS
 10
330.7739040558
 20
193.167474636
 11
330.8157007608
 21
193.168239979
  0
LINE
  5
2F6
100
AcDbEntity
  8
0
100
AcDbLine
 62
7
  6
CONTINUOUS
 10
330.724247717
 20
193.166872743
 11
330.7739040558
 21
193.167474636
  0
LINE
  5
2F7
100
AcDbEntity
  8
0
100
AcDbLine
 62
7
  6
CONTINUOUS
 10
330.6392594292
 20
193.1663216665
 11
330.724247717
 21
193.166872743
  0
LINE
  5
2F8
100
AcDbEntity
  8
0
100
AcDbLine
 62
7
  6
CONTINUOUS
 10
323.9127498385
 20
193.1662135465
 11
330.6392594292
 21
193.1663216665
  0
LINE
  5
2F9
100
AcDbEntity
  8
0
100
AcDbLine
 62
7
  6
CONTINUOUS
 10
288.8210763456
 20
193.1835121372
 11
295.8755621571
 21
193.1835121372
  0
LINE
  5
2FA
100
AcDbEntity
  8
0
100
AcDbLine
 62
7
  6
CONTINUOUS
 10
323.8608118638
 20
193.1835121372
 11
330.9152976753
 21
193.1835121372
  0
LINE
  5
2FB
100
AcDbEntity
  8
0
100
AcDbLine
 62
7
  6
CONTINUOUS
 10
289.0971146173
 20
193.166321665
 11
295.8236241824
 21
193.1662135465
  0
LINE
  5
2FC
100
AcDbEntity
  8
0
100
AcDbLine
 62
7
  6
CONTINUOUS
 10
289.0121262692
 20
193.1668727414
 11
289.0971146173
 21
193.166321665
  0
LINE
  5
2FD
100
AcDbEntity
  8
0
100
AcDbLine
 62
7
  6
CONTINUOUS
 10
288.9624699314
 20
193.1674746347
 11
289.0121262692
 21
193.1668727414
  0
LWPOLYLINE
  5
2FE
100
AcDbEntity
  8
0
100
AcDbPolyline
 62
250
  6
CONTINUOUS
 90
13
 70
0
 10
297.016074686
 20
193.8762261005
 10
297.0421855423
 20
193.874492337
 10
297.067847438
 20
193.869368876
 10
297.092621179
 20
193.8609441717
 10
297.116081932
 20
193.8493637297
 10
297.1378296463
 20
193.8348261103
 10
297.1574950653
 20
193.8175782411
 10
297.174747927
 20
193.7979061419
 10
297.1892835439
 20
193.7761530697
 10
297.2008411443
 20
193.752718525
 10
297.2092303652
 20
193.7280173862
 10
297.2143233891
 20
193.7024656972
 10
297.216044225
 20
193.6765001935
  0
LWPOLYLINE
  5
2FF
100
AcDbEntity
  8
0
100
AcDbPolyline
 62
250
  6
CONTINUOUS
 90
16
 70
0
 10
330.7955198427
 20
188.7298525045
 10
330.789575234
 20
188.7306215569
 10
330.784223607
 20
188.7313782967
 10
330.7794364668
 20
188.732122724
 10
330.7751862657
 20
188.7328556464
 10
330.7714426544
 20
188.7335762562
 10
330.7681738143
 20
188.7342821304
 10
330.7653515312
 20
188.73497312
 10
330.762948856
 20
188.7356493738
 10
330.7609376524
 20
188.7363089157
 10
330.7592911956
 20
188.7369515903
 10
330.7579836812
 20
188.7375775529
 10
330.7569894423
 20
188.7381852934
 10
330.7562834122
 20
188.7387743085
 10
330.7558411386
 20
188.7393451015
 10
330.7556387894
 20
188.7398976725
  0
LWPOLYLINE
  5
300
100
AcDbEntity
  8
0
100
AcDbPolyline
 62
250
  6
CONTINUOUS
 90
13
 70
0
 10
296.5693188942
 20
193.8528126215
 10
296.5873735003
 20
193.850236962
 10
296.6051319204
 20
193.84443977
 10
296.622304052
 20
193.8355163846
 10
296.6386087188
 20
193.8236138164
 10
296.6537806005
 20
193.8089266991
 10
296.6675739793
 20
193.7916928214
 10
296.6797679345
 20
193.7721845386
 10
296.6901565858
 20
193.7507270707
 10
296.6985613612
 20
193.7276974173
 10
296.7048495017
 20
193.7034850145
 10
296.7089288923
 20
193.6784787687
 10
296.7107402504
 20
193.6530867146
  0
LWPOLYLINE
  5
301
100
AcDbEntity
  8
0
100
AcDbPolyline
 62
250
  6
CONTINUOUS
 90
13
 70
0
 10
297.016074686
 20
193.8762261005
 10
297.0341227935
 20
193.8736519601
 10
297.0518758308
 20
193.8678582554
 10
297.0690439068
 20
193.8589397765
 10
297.0853458495
 20
193.8470430567
 10
297.1005164987
 20
193.8323620977
 10
297.1143103641
 20
193.8151337323
 10
297.1265060398
 20
193.7956300951
 10
297.1368975994
 20
193.7741755296
 10
297.1453066559
 20
193.7511446475
 10
297.1515995639
 20
193.7269256937
 10
297.1556828316
 20
193.7019080996
 10
297.1574960423
 20
193.6765001935
  0
LWPOLYLINE
  5
302
100
AcDbEntity
  8
0
100
AcDbPolyline
 62
250
  6
CONTINUOUS
 90
13
 70
0
 10
322.7202993349
 20
190.3030167194
 10
322.7022512274
 20
190.3055908597
 10
322.6844981901
 20
190.3113845644
 10
322.667330114
 20
190.3203030433
 10
322.6510281713
 20
190.3321997631
 10
322.6358575222
 20
190.3468807221
 10
322.6220636568
 20
190.3641090876
 10
322.6098679811
 20
190.3836127248
 10
322.5994764215
 20
190.4050672903
 10
322.5910673649
 20
190.4280981724
 10
322.584774457
 20
190.4523171262
 10
322.5806911893
 20
190.4773347202
 10
322.5788779786
 20
190.5027426263
  0
LWPOLYLINE
  5
303
100
AcDbEntity
  8
0
100
AcDbPolyline
 62
250
  6
CONTINUOUS
 90
13
 70
0
 10
323.1670551267
 20
190.3264301983
 10
323.1490005206
 20
190.3290058578
 10
323.1312421005
 20
190.3348030498
 10
323.1140699689
 20
190.3437264353
 10
323.0977653021
 20
190.3556290035
 10
323.0825934204
 20
190.3703161207
 10
323.0688000416
 20
190.3875499984
 10
323.0566060863
 20
190.4070582812
 10
323.0462174351
 20
190.4285157491
 10
323.0378126597
 20
190.4515454025
 10
323.0315245192
 20
190.4757578054
 10
323.0274451285
 20
190.5007640511
 10
323.0256337705
 20
190.5261561053
  0
LWPOLYLINE
  5
304
100
AcDbEntity
  8
0
100
AcDbPolyline
 62
7
  6
CONTINUOUS
 90
8
 70
0
 10
323.5360501922
 20
190.2402078643
 10
323.5336410418
 20
190.2406385743
 10
323.530209213
 20
190.2410146257
 10
323.5257547058
 20
190.2413360185
 10
323.5201227328
 20
190.2416059882
 10
323.5134680814
 20
190.2418212993
 10
323.5062551143
 20
190.2419722456
 10
323.4984718459
 20
190.2420362457
  0
LWPOLYLINE
  5
305
100
AcDbEntity
  8
0
100
AcDbPolyline
 62
7
  6
CONTINUOUS
 90
10
 70
0
 10
311.1757237861
 20
189.5423487783
 10
311.1517657611
 20
189.5536325227
 10
311.1276021682
 20
189.5635624559
 10
311.1032330072
 20
189.5721385756
 10
311.078769377
 20
189.5793388242
 10
311.0541001788
 20
189.5851852556
 10
311.0288921167
 20
189.5897440359
 10
311.0030340921
 20
189.5930372199
 10
310.9766372035
 20
189.5950427509
 10
310.9497014509
 20
189.5957606287
  0
LWPOLYLINE
  5
306
100
AcDbEntity
  8
0
100
AcDbPolyline
 62
7
  6
CONTINUOUS
 90
10
 70
0
 10
310.6281641827
 20
188.1804033809
 10
310.6573482001
 20
188.1561646934
 10
310.6882927049
 20
188.134702064
 10
310.7209976969
 20
188.1160154815
 10
310.7553644436
 20
188.1000743483
 10
310.7914916777
 20
188.0869092442
 10
310.8296755969
 20
188.0766119266
 10
310.8700149341
 20
188.0692129779
 10
310.9124109566
 20
188.0646818061
 10
310.9568636642
 20
188.0630184088
  0
LINE
  5
307
100
AcDbEntity
  8
0
100
AcDbLine
 62
7
  6
CONTINUOUS
 10
304.2560360104
 20
184.6527234099
 11
303.8974080104
 21
185.7146214099
  0
LINE
  5
308
100
AcDbEntity
  8
0
100
AcDbLine
 62
7
  6
CONTINUOUS
 10
303.8190480104
 20
185.5127414099
 11
304.1707490104
 21
184.4646214099
  0
LINE
  5
309
100
AcDbEntity
  8
0
100
AcDbLine
 62
250
  6
CONTINUOUS
 10
297.016074686
 20
193.8762261005
 11
297.0192696011
 21
193.8858186402
  0
LINE
  5
30A
100
AcDbEntity
  8
0
100
AcDbLine
 62
250
  6
CONTINUOUS
 10
297.216044225
 20
193.6765001935
 11
297.2181870104
 21
193.6829337774
  0
LINE
  5
30B
100
AcDbEntity
  8
0
100
AcDbLine
 62
7
  6
CONTINUOUS
 10
288.8590168224
 20
194.0275618868
 11
288.8210763456
 21
193.9896214099
  0
LINE
  5
30C
100
AcDbEntity
  8
0
100
AcDbLine
 62
7
  6
CONTINUOUS
 10
330.8868421791
 20
220.0740346791
 11
330.9336403981
 21
220.0896214099
  0
LINE
  5
30D
100
AcDbEntity
  8
0
100
AcDbLine
 62
7
  6
CONTINUOUS
 10
323.6432572606
 20
216.9717927137
 11
323.5706730489
 21
216.949504077
  0
LINE
  5
30E
100
AcDbEntity
  8
0
100
AcDbLine
 62
7
  6
CONTINUOUS
 10
323.5706730489
 20
216.949504077
 11
323.5360502615
 21
216.9390349631
  0
LWPOLYLINE
  5
30F
100
AcDbEntity
  8
0
100
AcDbPolyline
 62
7
  6
CONTINUOUS
 90
46
 70
0
 10
323.6432572606
 20
216.9717927137
 10
323.6522235547
 20
216.9744517948
 10
323.6609472446
 20
216.9768314222
 10
323.6694233576
 20
216.978944622
 10
323.677641076
 20
216.9808016083
 10
323.6856034972
 20
216.9824178362
 10
323.6933274577
 20
216.9838129791
 10
323.7008102484
 20
216.9849982474
 10
323.7080503385
 20
216.9859847163
 10
323.7150668362
 20
216.9867897307
 10
323.7218582041
 20
216.9874230319
 10
323.7284242079
 20
216.9878939692
 10
323.7347860682
 20
216.9882171833
 10
323.7409428784
 20
216.9884009617
 10
323.7468953727
 20
216.9884529708
 10
323.7526670652
 20
216.9883847713
 10
323.7582573405
 20
216.9882032525
 10
323.7636674866
 20
216.987914428
 10
323.7689233781
 20
216.9875263236
 10
323.7740243449
 20
216.9870445044
 10
323.7789719124
 20
216.9864733696
 10
323.7837944113
 20
216.9858168666
 10
323.7884907788
 20
216.985079327
 10
323.7930625068
 20
216.9842635497
 10
323.7975405396
 20
216.9833686957
 10
323.8019230341
 20
216.9823979709
 10
323.8062112189
 20
216.9813525171
 10
323.8104389552
 20
216.9802256732
 10
323.814602551
 20
216.9790198398
 10
323.8187033166
 20
216.9777341284
 10
323.8227802177
 20
216.9763537596
 10
323.8268328578
 20
216.9748780951
 10
323.8308561538
 20
216.9733058507
 10
323.8348791271
 20
216.9716180215
 10
323.8389103144
 20
216.9698070092
 10
323.8429318086
 20
216.9678754734
 10
323.8469314449
 20
216.9658185126
 10
323.8509156653
 20
216.96362714
 10
323.8548677973
 20
216.9613063542
 10
323.8587430113
 20
216.9588744106
 10
323.8625353692
 20
216.9563318445
 10
323.8662446635
 20
216.9536789648
 10
323.8698386602
 20
216.9509371476
 10
323.873306716
 20
216.9481155237
 10
323.8766576292
 20
216.9452093455
 10
323.8798903358
 20
216.9422206716
  0
LWPOLYLINE
  5
310
100
AcDbEntity
  8
0
100
AcDbPolyline
 62
250
  6
CONTINUOUS
 90
13
 70
0
 10
296.2021638588
 20
193.8627456151
 10
296.1761411819
 20
193.8609718212
 10
296.1505618273
 20
193.8558231477
 10
296.1258619224
 20
193.8473872456
 10
296.102462616
 20
193.8358078113
 10
296.0807629343
 20
193.8212821581
 10
296.0611329652
 20
193.8040578723
 10
296.0439074804
 20
193.7844285409
 10
296.0293802917
 20
193.7627287989
 10
296.017799238
 20
193.7393286739
 10
296.0093618777
 20
193.7146271705
 10
296.0042121482
 20
193.6890454476
 10
296.0024379445
 20
193.6630197156
  0
LINE
  5
311
100
AcDbEntity
  8
0
100
AcDbLine
 62
250
  6
CONTINUOUS
 10
296.7107402504
 20
193.6530867146
 11
297.1574960423
 21
193.6765001935
  0
LINE
  5
312
100
AcDbEntity
  8
0
100
AcDbLine
 62
250
  6
CONTINUOUS
 10
296.5693188942
 20
193.8528126215
 11
297.016074686
 21
193.8762261005
  0
LWPOLYLINE
  5
313
100
AcDbEntity
  8
0
100
AcDbPolyline
 62
250
  6
CONTINUOUS
 90
4
 70
0
 10
323.4359626094
 20
193.854258822
 10
323.410165666
 20
193.8535875014
 10
323.3967469383
 20
193.8533270737
 10
323.3825125801
 20
193.8531193343
  0
LINE
  5
314
100
AcDbEntity
  8
0
100
AcDbLine
 62
250
  6
CONTINUOUS
 10
323.5619874031
 20
193.6549436222
 11
323.5119162101
 21
193.6541741851
  0
LINE
  5
315
100
AcDbEntity
  8
0
100
AcDbLine
 62
7
  6
CONTINUOUS
 10
323.0181870104
 20
193.8900466293
 11
322.7171044198
 21
193.8858186402
  0
LINE
  5
316
100
AcDbEntity
  8
0
100
AcDbLine
 62
250
  6
CONTINUOUS
 10
323.5119162101
 20
193.6541741851
 11
323.4590141513
 21
193.6536012927
  0
LWPOLYLINE
  5
317
100
AcDbEntity
  8
0
100
AcDbPolyline
 62
7
  6
CONTINUOUS
 90
15
 70
0
 10
289.1279284773
 20
194.0423939424
 10
289.0980923071
 20
194.0421549579
 10
289.0691176204
 20
194.0417622989
 10
289.0406971987
 20
194.0412080946
 10
289.0131382604
 20
194.0405002158
 10
288.9873624609
 20
194.0396622748
 10
288.9634756004
 20
194.0386919342
 10
288.9413718786
 20
194.0375915312
 10
288.9216555498
 20
194.03639169
 10
288.9043681994
 20
194.0350879442
 10
288.8894682421
 20
194.03368476
 10
288.8774351759
 20
194.0322261599
 10
288.8684288336
 20
194.0307268181
 10
288.8622893824
 20
194.0291720604
 10
288.8590168224
 20
194.0275618868
  0
LINE
  5
318
100
AcDbEntity
  8
0
100
AcDbLine
 62
250
  6
CONTINUOUS
 10
323.3825125801
 20
193.8531193343
 11
323.3513093271
 21
193.8528621708
  0
LINE
  5
319
100
AcDbEntity
  8
0
100
AcDbLine
 62
250
  6
CONTINUOUS
 10
323.4590141513
 20
193.6536012927
 11
323.3679105435
 21
193.6531364026
  0
LINE
  5
31A
100
AcDbEntity
  8
0
100
AcDbLine
 62
250
  6
CONTINUOUS
 10
323.3679105435
 20
193.6531364026
 11
323.0256337705
 21
193.6530867146
  0
LINE
  5
31B
100
AcDbEntity
  8
0
100
AcDbLine
 62
250
  6
CONTINUOUS
 10
322.5788779786
 20
193.6765001935
 11
322.5203297958
 21
193.6765001935
  0
LINE
  5
31C
100
AcDbEntity
  8
0
100
AcDbLine
 62
250
  6
CONTINUOUS
 10
297.1574960423
 20
193.6765001935
 11
297.216044225
 21
193.6765001935
  0
LINE
  5
31D
100
AcDbEntity
  8
0
100
AcDbLine
 62
250
  6
CONTINUOUS
 10
323.3513093271
 20
193.8528621708
 11
323.1670551267
 21
193.8528126215
  0
LINE
  5
31E
100
AcDbEntity
  8
0
100
AcDbLine
 62
7
  6
CONTINUOUS
 10
288.8210763456
 20
193.9896214099
 11
296.0752880641
 21
193.9896214099
  0
LINE
  5
31F
100
AcDbEntity
  8
0
100
AcDbLine
 62
7
  6
CONTINUOUS
 10
323.6610859568
 20
193.9896214099
 11
330.9152976753
 21
193.9896214099
  0
LINE
  5
320
100
AcDbEntity
  8
0
100
AcDbLine
 62
7
  6
CONTINUOUS
 10
289.1279284773
 20
194.0423939424
 11
296.7181870104
 21
194.042479255
  0
LINE
  5
321
100
AcDbEntity
  8
0
100
AcDbLine
 62
7
  6
CONTINUOUS
 10
288.8382367479
 20
195.0896214099
 11
330.8981372729
 21
195.0896214099
  0
LINE
  5
322
100
AcDbEntity
  8
0
100
AcDbLine
 62
250
  6
CONTINUOUS
 10
296.3205845694
 20
193.6533109132
 11
296.7107402504
 21
193.6530867146
  0
LINE
  5
323
100
AcDbEntity
  8
0
100
AcDbLine
 62
250
  6
CONTINUOUS
 10
296.2429884959
 20
193.6539491951
 11
296.3205845694
 21
193.6533109132
  0
LINE
  5
324
100
AcDbEntity
  8
0
100
AcDbLine
 62
7
  6
CONTINUOUS
 10
296.7181870104
 20
193.8900466293
 11
297.0192696011
 21
193.8858186402
  0
LINE
  5
325
100
AcDbEntity
  8
0
100
AcDbLine
 62
250
  6
CONTINUOUS
 10
323.0256337705
 20
193.6530867146
 11
322.5788779786
 21
193.6765001935
  0
LINE
  5
326
100
AcDbEntity
  8
0
100
AcDbLine
 62
250
  6
CONTINUOUS
 10
323.1670551267
 20
193.8528126215
 11
322.7202993349
 21
193.8762261005
  0
LWPOLYLINE
  5
327
100
AcDbEntity
  8
0
100
AcDbPolyline
 62
250
  6
CONTINUOUS
 90
16
 70
0
 10
330.9795582988
 20
188.9290917598
 10
330.9760209116
 20
188.9298606377
 10
330.9728047387
 20
188.9306172533
 10
330.9699097799
 20
188.9313616067
 10
330.9673536293
 20
188.932094527
 10
330.9651186929
 20
188.932815185
 10
330.9631521891
 20
188.9335210935
 10
330.9614529359
 20
188.9342120749
 10
330.9600221154
 20
188.9348883067
 10
330.9588104917
 20
188.9355478352
 10
330.957816995
 20
188.9361905169
 10
330.9570426951
 20
188.9368164952
 10
330.9564415657
 20
188.9374242462
 10
330.9559982647
 20
188.9380132621
 10
330.9557281341
 20
188.9385840508
 10
330.955631174
 20
188.9391366122
  0
LWPOLYLINE
  5
328
100
AcDbEntity
  8
0
100
AcDbPolyline
 62
250
  6
CONTINUOUS
 90
10
 70
0
 10
323.733936069
 20
190.516222796
 10
323.7298221453
 20
190.5172830947
 10
323.7219035454
 20
190.5182931309
 10
323.7104682051
 20
190.5192529046
 10
323.6957366475
 20
190.5201706931
 10
323.6780868664
 20
190.5210382192
 10
323.6582180984
 20
190.5218306512
 10
323.6367726592
 20
190.5225376095
 10
323.6140456955
 20
190.5231694737
 10
323.5661112109
 20
190.5242232542
  0
LINE
  5
329
100
AcDbEntity
  8
0
100
AcDbLine
 62
7
  6
CONTINUOUS
 10
323.5884012616
 20
190.2243355413
 11
323.5360501922
 21
190.2402078643
  0
LINE
  5
32A
100
AcDbEntity
  8
0
100
AcDbLine
 62
7
  6
CONTINUOUS
 10
323.6432572606
 20
190.2074501061
 11
323.5884012616
 21
190.2243355413
  0
LWPOLYLINE
  5
32B
100
AcDbEntity
  8
0
100
AcDbPolyline
 62
7
  6
CONTINUOUS
 90
10
 70
0
 10
312.4844899969
 20
189.4760469585
 10
312.4561933484
 20
189.5006958544
 10
312.4254373506
 20
189.5225583836
 10
312.3922220034
 20
189.5416345357
 10
312.3564932274
 20
189.5579915786
 10
312.318305102
 20
189.5715622278
 10
312.2778198656
 20
189.5821446451
 10
312.2350915978
 20
189.5896715481
 10
312.190066219
 20
189.5942102101
 10
312.1427437292
 20
189.5957606287
  0
LINE
  5
32C
100
AcDbEntity
  8
0
100
AcDbLine
 62
7
  6
CONTINUOUS
 10
288.8590168224
 20
213.1516809331
 11
288.8210763456
 21
213.1896214099
  0
LWPOLYLINE
  5
32D
100
AcDbEntity
  8
0
100
AcDbPolyline
 62
7
  6
CONTINUOUS
 90
10
 70
0
 10
310.7716659897
 20
188.284027872
 10
310.7542664742
 20
188.3017550195
 10
310.7382584388
 20
188.3214613424
 10
310.7236418833
 20
188.3431468481
 10
310.7104513597
 20
188.366984496
 10
310.698652316
 20
188.3928013435
 10
310.6881410965
 20
188.4200785435
 10
310.6788831492
 20
188.4486431506
 10
310.6709130259
 20
188.4786681243
 10
310.6642307268
 20
188.5101534726
  0
LWPOLYLINE
  5
32E
100
AcDbEntity
  8
0
100
AcDbPolyline
 62
7
  6
CONTINUOUS
 90
10
 70
0
 10
311.1302977911
 20
189.3773062241
 10
311.1448466912
 20
189.3618227076
 10
311.1576654695
 20
189.3455959231
 10
311.1687541258
 20
189.3286258727
 10
311.1780975902
 20
189.3109562655
 10
311.1857109327
 20
189.2925433968
 10
311.1916393633
 20
189.2732561489
 10
311.1958979518
 20
189.2530508181
 10
311.1984716285
 20
189.2319711142
 10
311.1993603931
 20
189.2100170405
  0
LWPOLYLINE
  5
32F
100
AcDbEntity
  8
0
100
AcDbPolyline
 62
7
  6
CONTINUOUS
 90
10
 70
0
 10
311.1840124355
 20
188.7373021545
 10
311.2014480822
 20
188.7182448783
 10
311.2168111052
 20
188.6982091389
 10
311.2301015045
 20
188.6771949397
 10
311.2412980913
 20
188.6552760391
 10
311.2504220544
 20
188.6323786863
 10
311.2575369608
 20
188.6082816217
 10
311.2626639993
 20
188.5829110965
 10
311.265781981
 20
188.5563408707
 10
311.266890906
 20
188.5285709502
  0
LWPOLYLINE
  5
330
100
AcDbEntity
  8
0
100
AcDbPolyline
 62
7
  6
CONTINUOUS
 90
10
 70
0
 10
311.3886509227
 20
188.7741370235
 10
311.3720417626
 20
188.7943325508
 10
311.3538752808
 20
188.8130550568
 10
311.3341514774
 20
188.8303045364
 10
311.3129125306
 20
188.8461117809
 10
311.2901162621
 20
188.8604459905
 10
311.2656361372
 20
188.8732147738
 10
311.2394299775
 20
188.8843873315
 10
311.2115399614
 20
188.8939944563
 10
311.1819660889
 20
188.9020361455
  0
LINE
  5
331
100
AcDbEntity
  8
0
100
AcDbLine
 62
7
  6
CONTINUOUS
 10
309.8220620104
 20
185.4797714099
 11
310.4610130104
 21
184.4646214099
  0
LINE
  5
332
100
AcDbEntity
  8
0
100
AcDbLine
 62
7
  6
CONTINUOUS
 10
310.4871350104
 20
184.6992664099
 11
309.8585970104
 21
185.7146214099
  0
LINE
  5
333
100
AcDbEntity
  8
0
100
AcDbLine
 62
7
  6
CONTINUOUS
 10
306.1171590104
 20
184.4646214099
 11
305.6645310104
 21
185.7146214099
  0
LINE
  5
334
100
AcDbEntity
  8
0
100
AcDbLine
 62
7
  6
CONTINUOUS
 10
305.8090010104
 20
184.8284504099
 11
305.9325960104
 21
184.4646214099
  0
LINE
  5
335
100
AcDbEntity
  8
0
100
AcDbLine
 62
7
  6
CONTINUOUS
 10
305.5618830104
 20
185.5333104099
 11
305.7481140104
 21
184.9781674099
  0
LINE
  5
336
100
AcDbEntity
  8
0
100
AcDbLine
 62
250
  6
CONTINUOUS
 10
297.0192696011
 20
213.2934241796
 11
297.016074686
 21
213.3030167194
  0
LINE
  5
337
100
AcDbEntity
  8
0
100
AcDbLine
 62
250
  6
CONTINUOUS
 10
297.2181870104
 20
213.4963090425
 11
297.216044225
 21
213.5027426263
  0
LINE
  5
338
100
AcDbEntity
  8
0
100
AcDbLine
 62
7
  6
CONTINUOUS
 10
303.6554060104
 20
185.7146214099
 11
303.6554060104
 21
184.4646214099
  0
LINE
  5
339
100
AcDbEntity
  8
0
100
AcDbLine
 62
7
  6
CONTINUOUS
 10
303.8190480104
 20
184.4646214099
 11
303.8190480104
 21
185.5127414099
  0
LINE
  5
33A
100
AcDbEntity
  8
0
100
AcDbLine
 62
7
  6
CONTINUOUS
 10
303.8681870104
 20
186.2896214099
 11
303.8681870104
 21
187.0896214099
  0
LINE
  5
33B
100
AcDbEntity
  8
0
100
AcDbLine
 62
7
  6
CONTINUOUS
 10
303.8681870104
 20
220.0896214099
 11
303.8681870104
 21
220.8896214099
  0
LINE
  5
33C
100
AcDbEntity
  8
0
100
AcDbLine
 62
7
  6
CONTINUOUS
 10
307.3135760104
 20
223.0709734099
 11
306.9403680104
 21
221.7632504099
  0
LINE
  5
33D
100
AcDbEntity
  8
0
100
AcDbLine
 62
7
  6
CONTINUOUS
 10
307.0991910104
 20
221.1711274099
 11
307.7098770104
 21
223.0709734099
  0
LINE
  5
33E
100
AcDbEntity
  8
0
100
AcDbLine
 62
7
  6
CONTINUOUS
 10
309.1327260104
 20
219.5396214099
 11
308.4458860104
 21
217.6396214099
  0
LINE
  5
33F
100
AcDbEntity
  8
0
100
AcDbLine
 62
7
  6
CONTINUOUS
 10
309.8238510104
 20
223.0709734099
 11
309.4272790104
 21
222.0161734099
  0
LINE
  5
340
100
AcDbEntity
  8
0
100
AcDbLine
 62
7
  6
CONTINUOUS
 10
309.4529230104
 20
221.1711274099
 11
309.9244480104
 21
222.4065194099
  0
LWPOLYLINE
  5
341
100
AcDbEntity
  8
0
100
AcDbPolyline
 62
7
  6
CONTINUOUS
 90
25
 70
0
 10
296.6742988794
 20
190.1414792744
 10
296.6547615178
 20
190.0978729113
 10
296.6312753511
 20
190.057545064
 10
296.6038403793
 20
190.020495711
 10
296.5720297071
 20
189.9863559652
 10
296.5362702299
 20
189.9554946773
 10
296.4978426335
 20
189.9290184302
 10
296.4566492365
 20
189.9070859551
 10
296.4127877204
 20
189.8895384855
 10
296.367831815
 20
189.8770063549
 10
296.3217425881
 20
189.869671776
 10
296.2745589719
 20
189.8673525193
 10
296.2279714937
 20
189.8701322591
 10
296.1820011412
 20
189.8781958601
 10
296.1366269268
 20
189.8913584668
 10
296.0934764141
 20
189.9091491784
 10
296.0526300958
 20
189.9317361995
 10
296.0140074793
 20
189.9589513567
 10
295.9789946501
 20
189.9898191821
 10
295.9477207366
 20
190.0244871246
 10
295.9200566105
 20
190.0628077749
 10
295.8970009723
 20
190.1033633673
 10
295.878886722
 20
190.1456813194
 10
295.8653809596
 20
190.1902342411
 10
295.8564836851
 20
190.2370221482
  0
LINE
  5
342
100
AcDbEntity
  8
0
100
AcDbLine
 62
7
  6
CONTINUOUS
 10
315.8681870104
 20
220.0896214099
 11
315.8476320842
 21
220.0690664836
  0
LWPOLYLINE
  5
343
100
AcDbEntity
  8
0
100
AcDbPolyline
 62
250
  6
CONTINUOUS
 90
13
 70
0
 10
323.534210162
 20
190.3164972047
 10
323.531897862
 20
190.3175566961
 10
323.5279865498
 20
190.3185662415
 10
323.5224762252
 20
190.3195258407
 10
323.5151241358
 20
190.3204439389
 10
323.5061730341
 20
190.3213120911
 10
323.4963511781
 20
190.3221049616
 10
323.4857296674
 20
190.3228119312
 10
323.4742374024
 20
190.323443619
 10
323.4623893422
 20
190.3240065475
 10
323.4503977564
 20
190.3244971928
 10
323.4380503755
 20
190.3249190788
 10
323.4120123099
 20
190.3256146475
  0
LINE
  5
344
100
AcDbEntity
  8
0
100
AcDbLine
 62
7
  6
CONTINUOUS
 10
315.8681870104
 20
187.0896214099
 11
315.8476320842
 21
187.1101763362
  0
LWPOLYLINE
  5
345
100
AcDbEntity
  8
0
100
AcDbPolyline
 62
7
  6
CONTINUOUS
 90
10
 70
0
 10
312.3422661688
 20
189.3675887502
 10
312.3588789969
 20
189.35020718
 10
312.3735105615
 20
189.3320924167
 10
312.3861608625
 20
189.3132444624
 10
312.3968078354
 20
189.2937131637
 10
312.4054735448
 20
189.2734486789
 10
312.4122241848
 20
189.2523014787
 10
312.4170818201
 20
189.2302217222
 10
312.4200243859
 20
189.2072592571
 10
312.4210518824
 20
189.1834140868
  0
LWPOLYLINE
  5
346
100
AcDbEntity
  8
0
100
AcDbPolyline
 62
7
  6
CONTINUOUS
 90
10
 70
0
 10
311.333172295
 20
189.3991700884
 10
311.3204148296
 20
189.418858561
 10
311.306513476
 20
189.4375864513
 10
311.2914682342
 20
189.4553537561
 10
311.275332858
 20
189.4721395971
 10
311.2580535936
 20
189.4879648469
 10
311.2394691803
 20
189.5028921295
 10
311.2195258645
 20
189.5169423181
 10
311.1982773998
 20
189.530094535
 10
311.1757237861
 20
189.5423487783
  0
LWPOLYLINE
  5
347
100
AcDbEntity
  8
RACCORDO
100
AcDbPolyline
 62
250
  6
CONTINUOUS
 90
73
 70
0
 10
304.6764445799
 20
203.5896214099
 10
304.6813696584
 20
203.363126093
 10
304.696103953
 20
203.1376486747
 10
304.720647464
 20
202.9131892001
 10
304.7550876797
 20
202.6892254744
 10
304.7993371117
 20
202.4662797803
 10
304.8531332943
 20
202.245918873
 10
304.9165235462
 20
202.028269609
 10
304.9894605487
 20
201.8132051978
 10
305.0715398799
 20
201.6019119112
 10
305.1628212272
 20
201.3943897664
 10
305.2632449032
 20
201.1906387824
 10
305.3722274245
 20
200.9918452162
 10
305.4898139099
 20
200.7980476072
 10
305.6159592406
 20
200.6092074159
 10
305.7499445764
 20
200.4263952623
 10
305.8918160671
 20
200.2496433497
 10
306.0415275629
 20
200.0789194388
 10
306.1982217736
 20
199.9151974669
 10
306.3619379287
 20
199.7585183436
 10
306.5326367988
 20
199.6088410928
 10
306.7093434062
 20
199.4670168075
 10
306.8920918846
 20
199.3330903894
 10
307.0808481004
 20
199.20701685
 10
307.274534674
 20
199.0895124358
 10
307.4731791938
 20
198.9806262167
 10
307.6767540715
 20
198.880309029
 10
307.8840991631
 20
198.7891297627
 10
308.0952356657
 20
198.7071404265
 10
308.3101423823
 20
198.6342889251
 10
308.5275955781
 20
198.5709879919
 10
308.7476094553
 20
198.5172918904
 10
308.9701698117
 20
198.473146291
 10
309.1940103068
 20
198.4388010414
 10
309.4191378873
 20
198.4143117234
 10
309.6455456065
 20
198.3996227195
 10
309.8719462834
 20
198.3948170868
 10
310.0983399937
 20
198.3999508224
 10
310.3247266618
 20
198.4149679293
 10
310.5498188803
 20
198.4397834818
 10
310.7736094437
 20
198.4744530789
 10
310.9961055575
 20
198.5189211576
 10
311.2160414304
 20
198.5729360567
 10
311.4334028422
 20
198.6365520827
 10
311.648204013
 20
198.7097149955
 10
311.859221812
 20
198.7920103192
 10
312.0664350267
 20
198.8834901588
 10
312.2698648695
 20
198.9841024961
 10
312.4683518467
 20
199.0932766697
 10
312.661868149
 20
199.2110617016
 10
312.8504415857
 20
199.3374086636
 10
313.03299609
 20
199.4715999641
 10
313.2094978396
 20
199.613680934
 10
313.3799806568
 20
199.763606329
 10
313.5434699419
 20
199.9205226832
 10
313.6999248981
 20
200.0844687454
 10
313.8493863222
 20
200.2554058331
 10
313.9910020041
 20
200.4323643173
 10
314.1247320125
 20
200.6153885215
 10
314.2506162786
 20
200.804434158
 10
314.3679223864
 20
200.9983986623
 10
314.4765912129
 20
201.1972913596
 10
314.576681881
 20
201.4011029239
 10
314.6676393434
 20
201.6087027948
 10
314.749430003
 20
201.8202082975
 10
314.8220874568
 20
202.0355020709
 10
314.8851574488
 20
202.2531015072
 10
314.9385405141
 20
202.473050467
 10
314.9823361177
 20
202.6953050217
 10
315.0163883982
 20
202.918250864
 10
315.0406454021
 20
203.1413498607
 10
315.055159083
 20
203.3651400575
 10
315.0599294409
 20
203.5896214099
  0
LINE
  5
348
100
AcDbEntity
  8
0
100
AcDbLine
 62
7
  6
CONTINUOUS
 10
304.6895210104
 20
185.5144594099
 11
304.6895210104
 21
184.4646214099
  0
LINE
  5
349
100
AcDbEntity
  8
0
100
AcDbLine
 62
7
  6
CONTINUOUS
 10
304.8532290104
 20
184.4646214099
 11
304.8532290104
 21
185.7146214099
  0
LINE
  5
34A
100
AcDbEntity
  8
0
100
AcDbLine
 62
7
  6
CONTINUOUS
 10
305.5115490104
 20
219.5396214099
 11
305.5115490104
 21
217.6396214099
  0
LINE
  5
34B
100
AcDbEntity
  8
0
100
AcDbLine
 62
7
  6
CONTINUOUS
 10
305.9194630104
 20
217.6396214099
 11
305.9194630104
 21
218.3712924099
  0
LINE
  5
34C
100
AcDbEntity
  8
0
100
AcDbLine
 62
7
  6
CONTINUOUS
 10
305.9194630104
 20
218.6870414099
 11
305.9194630104
 21
219.2238724099
  0
LWPOLYLINE
  5
34D
100
AcDbEntity
  8
RACCORDO
100
AcDbPolyline
 62
250
  6
CONTINUOUS
 90
103
 70
0
 10
304.3193731585
 20
203.5896214099
 10
304.3222272785
 20
203.7674530329
 10
304.3305920488
 20
203.9422546384
 10
304.3441825319
 20
204.1138406593
 10
304.3626224706
 20
204.2812731342
 10
304.3856869043
 20
204.4451845188
 10
304.4135220943
 20
204.6077577541
 10
304.4461811576
 20
204.7694700278
 10
304.4834899626
 20
204.9295801388
 10
304.5254974459
 20
205.0884155866
 10
304.5721510267
 20
205.245818179
 10
304.6234023059
 20
205.4016768635
 10
304.6793892632
 20
205.5563657659
 10
304.7401707411
 20
205.7098986321
 10
304.8056748426
 20
205.8619534361
 10
304.8758784264
 20
206.0123873041
 10
304.9507554939
 20
206.1610565797
 10
305.0302729392
 20
206.3078026666
 10
305.1143913756
 20
206.4524592057
 10
305.2030770329
 20
206.5948919236
 10
305.2962690098
 20
206.7349358673
 10
305.3938724289
 20
206.8723833322
 10
305.495851346
 20
207.0071159328
 10
305.6021173392
 20
207.1389563053
 10
305.7124699932
 20
207.2676250629
 10
305.826816811
 20
207.3929921542
 10
305.9450656099
 20
207.5149278105
 10
306.0669865342
 20
207.6331777663
 10
306.1924228074
 20
207.7476009318
 10
306.3212911516
 20
207.8581295491
 10
306.4534494957
 20
207.9646417961
 10
306.5887563774
 20
208.0670225669
 10
306.7271000251
 20
208.165196208
 10
306.8683827914
 20
208.2591002313
 10
307.0124830201
 20
208.3486517751
 10
307.1592594979
 20
208.433755835
 10
307.3085830848
 20
208.5143360206
 10
307.4603175378
 20
208.5903228323
 10
307.61431606
 20
208.6616418574
 10
307.770428576
 20
208.7282180459
 10
307.9285088032
 20
208.7899851576
 10
308.0884089623
 20
208.8468905824
 10
308.2499758457
 20
208.8988816466
 10
308.413057066
 20
208.9459063351
 10
308.5775034789
 20
208.9879163696
 10
308.743163461
 20
209.0248766395
 10
308.9098814876
 20
209.0567555194
 10
309.077501446
 20
209.0835212765
 10
309.2458696058
 20
209.1051433231
 10
309.4148300164
 20
209.1216022225
 10
309.5842224947
 20
209.1328863447
 10
309.7538859105
 20
209.1389843893
 10
309.9236609817
 20
209.139885489
 10
310.0933894628
 20
209.135586761
 10
310.2629117154
 20
209.1260971337
 10
310.432068281
 20
209.1114265614
 10
310.6007009182
 20
209.0915849267
 10
310.76865232
 20
209.0665862158
 10
310.9357662156
 20
209.0364580876
 10
311.1018860125
 20
209.0012310845
 10
311.266855471
 20
208.9609357278
 10
311.4305185534
 20
208.915604232
 10
311.5927229202
 20
208.8652813878
 10
311.7533181338
 20
208.8100176807
 10
311.9121532469
 20
208.7498636999
 10
312.0690773353
 20
208.6848705367
 10
312.2239437444
 20
208.6150985671
 10
312.3766103122
 20
208.540616745
 10
312.5269327435
 20
208.4614954669
 10
312.6747649884
 20
208.3778064581
 10
312.8199668508
 20
208.2896256844
 10
312.9624052727
 20
208.1970398765
 10
313.1019458936
 20
208.1001386354
 10
313.2384511455
 20
207.9990142419
 10
313.371795595
 20
207.8937540237
 10
313.5018697603
 20
207.7844488903
 10
313.6285566516
 20
207.6711991061
 10
313.7517312387
 20
207.5541118901
 10
313.871274028
 20
207.433291291
 10
313.9870861853
 20
207.3088361739
 10
314.0990472071
 20
207.1808789155
 10
314.2070148371
 20
207.0495832972
 10
314.3109082049
 20
206.915042988
 10
314.4106087895
 20
206.7774129054
 10
314.5059399383
 20
206.6369651373
 10
314.5968366498
 20
206.4938296315
 10
314.6832181221
 20
206.3481603341
 10
314.7649183748
 20
206.2002852709
 10
314.8418848317
 20
206.0503905212
 10
314.9140981552
 20
205.8986043535
 10
314.9814800965
 20
205.7451850659
 10
315.0437202477
 20
205.5910345541
 10
315.1011415346
 20
205.4355840189
 10
315.1544352172
 20
205.2768155605
 10
315.2032914274
 20
205.1152101007
 10
315.2476401055
 20
204.950492616
 10
315.2880306725
 20
204.7793691096
 10
315.3239734029
 20
204.6017279759
 10
315.3548863249
 20
204.4178119981
 10
315.3805499253
 20
204.224766312
 10
315.4001514935
 20
204.0217313498
 10
315.4126219191
 20
203.8099158043
 10
315.4170008624
 20
203.5896214099
  0
LWPOLYLINE
  5
34E
100
AcDbEntity
  8
RACCORDO
100
AcDbPolyline
 62
250
  6
CONTINUOUS
 90
103
 70
0
 10
303.9623017371
 20
203.5896213719
 10
303.9658364712
 20
203.7791108505
 10
303.9746376295
 20
203.9650210301
 10
303.9887052122
 20
204.1473518869
 10
304.008114036
 20
204.3254330642
 10
304.0327892841
 20
204.4999348806
 10
304.062506506
 20
204.672868327
 10
304.0972194691
 20
204.8448823965
 10
304.1369744059
 20
205.0153280605
 10
304.1816855638
 20
205.1842692754
 10
304.2312969349
 20
205.3516949656
 10
304.2858645271
 20
205.5176161779
 10
304.3454706103
 20
205.6821300531
 10
304.4101655552
 20
205.8454284919
 10
304.4798989912
 20
206.0073195691
 10
304.5546020769
 20
206.1673246891
 10
304.6342938024
 20
206.3254500959
 10
304.7189551777
 20
206.4816895317
 10
304.8084603911
 20
206.6355456548
 10
304.9028397504
 20
206.7870302792
 10
305.0020629479
 20
206.9361315889
 10
305.1059132486
 20
207.0823168054
 10
305.2144446848
 20
207.2256061537
 10
305.3276032243
 20
207.3659794199
 10
305.4450100352
 20
207.5028431753
 10
305.5666960002
 20
207.6361734873
 10
305.6926302366
 20
207.7659943136
 10
305.8223412652
 20
207.8917840699
 10
305.9558082585
 20
208.0134832151
 10
306.093052044
 20
208.1311513271
 10
306.2336636252
 20
208.2444455072
 10
306.3776328079
 20
208.3533389322
 10
306.5249697862
 20
208.457858469
 10
306.6752961466
 20
208.5577417576
 10
306.8286292109
 20
208.6529857762
 10
306.9849516573
 20
208.7435935934
 10
307.1438331065
 20
208.8293119883
 10
307.305285451
 20
208.9101299104
 10
307.4692967982
 20
208.986058457
 10
307.6354010918
 20
209.0568776306
 10
307.8036022616
 20
209.1225710759
 10
307.9738963777
 20
209.1831551916
 10
308.1458055936
 20
209.2384591106
 10
308.3193338387
 20
209.2884679429
 10
308.4944771836
 20
209.3331966153
 10
308.6707459929
 20
209.3725189842
 10
308.8481434284
 20
209.4064204546
 10
309.0266663284
 20
209.4349156489
 10
309.2058155721
 20
209.4579222472
 10
309.3855931787
 20
209.4754246765
 10
309.5659971292
 20
209.4874385255
 10
309.7465222457
 20
209.4939282147
 10
309.9271699249
 20
209.4948778714
 10
310.1079387701
 20
209.4903033712
 10
310.2883194135
 20
209.4802167533
 10
310.4683104489
 20
209.4646027666
 10
310.6479132824
 20
209.4434766521
 10
310.8266227652
 20
209.4168961846
 10
311.0044353465
 20
209.38484634
 10
311.1813545771
 20
209.34734212
 10
311.3568859604
 20
209.3044863357
 10
311.5310260659
 20
209.2562634628
 10
311.7037783242
 20
209.2026889928
 10
311.8746585296
 20
209.1439122583
 10
312.0436624082
 20
209.0799185285
 10
312.2107942341
 20
209.0107224933
 10
312.3755826234
 20
208.9365176158
 10
312.5380215337
 20
208.8572895529
 10
312.6981170074
 20
208.7730526017
 10
312.855415789
 20
208.6840431862
 10
313.0099086098
 20
208.5902478703
 10
313.1616047385
 20
208.4916800425
 10
313.3100787248
 20
208.3886163654
 10
313.4553179883
 20
208.2810479695
 10
313.5973351095
 20
208.1689836787
 10
313.7357423804
 20
208.0527266988
 10
313.8705347608
 20
207.9322626581
 10
314.0017172909
 20
207.807605888
 10
314.1289173826
 20
207.6791026536
 10
314.2521342882
 20
207.5467258041
 10
314.3713687553
 20
207.4105024584
 10
314.4862504391
 20
207.2708602922
 10
314.5967796467
 20
207.12775052
 10
314.7029560709
 20
206.9812219069
 10
314.8044084453
 20
206.8318484618
 10
314.9011106707
 20
206.6795985702
 10
314.9930888462
 20
206.5245038406
 10
315.0800500028
 20
206.3672331261
 10
315.1619430004
 20
206.2078070278
 10
315.238818979
 20
206.0462049536
 10
315.3105383897
 20
205.8830339748
 10
315.3768873241
 20
205.7191196279
 10
315.4380796906
 20
205.5536364
 10
315.4946176655
 20
205.3847147857
 10
315.5467363793
 20
205.2128379561
 10
315.5942007015
 20
205.0375227557
 10
315.6368074161
 20
204.8554501742
 10
315.6750798672
 20
204.6664342717
 10
315.7084947107
 20
204.4706610011
 10
315.7352786989
 20
204.2653691817
 10
315.7548407492
 20
204.0496384314
 10
315.7677719441
 20
203.8243891744
 10
315.7740722838
 20
203.5896214479
  0
LINE
  5
34F
100
AcDbEntity
  8
0
100
AcDbLine
 62
7
  6
CONTINUOUS
 10
310.8484200104
 20
221.1711274099
 11
310.9578490104
 21
221.5504044099
  0
LINE
  5
350
100
AcDbEntity
  8
0
100
AcDbLine
 62
7
  6
CONTINUOUS
 10
311.0520630104
 20
223.0709734099
 11
310.4561500104
 21
221.1711274099
  0
LINE
  5
351
100
AcDbEntity
  8
0
100
AcDbLine
 62
7
  6
CONTINUOUS
 10
309.0826750104
 20
218.3580644099
 11
309.3644090104
 21
219.1765514099
  0
LINE
  5
352
100
AcDbEntity
  8
0
100
AcDbLine
 62
7
  6
CONTINUOUS
 10
308.8353530104
 20
217.6396214099
 11
308.9774250104
 21
218.0423154099
  0
LINE
  5
353
100
AcDbEntity
  8
0
100
AcDbLine
 62
7
  6
CONTINUOUS
 10
323.9127498385
 20
214.0130292733
 11
323.8608118638
 21
213.9957306826
  0
LINE
  5
354
100
AcDbEntity
  8
0
100
AcDbLine
 62
7
  6
CONTINUOUS
 10
323.9127498385
 20
193.1662135465
 11
323.8608118638
 21
193.1835121372
  0
LWPOLYLINE
  5
355
100
AcDbEntity
  8
0
100
AcDbPolyline
 62
250
  6
CONTINUOUS
 90
11
 70
0
 10
331.055852017
 20
188.627427097
 10
331.0216232722
 20
188.6434677349
 10
330.9895610504
 20
188.658241922
 10
330.9595476263
 20
188.6718097785
 10
330.9308106657
 20
188.6842229575
 10
330.9033100983
 20
188.6956729212
 10
330.877535439
 20
188.7059682074
 10
330.8536556859
 20
188.7145860822
 10
330.8318771438
 20
188.721352301
 10
330.8124290188
 20
188.7264411085
 10
330.7955198427
 20
188.7298525045
  0
LWPOLYLINE
  5
356
100
AcDbEntity
  8
0
100
AcDbPolyline
 62
250
  6
CONTINUOUS
 90
4
 70
0
 10
331.2556197509
 20
188.5305447289
 10
331.2122355405
 20
188.552059288
 10
331.1703032012
 20
188.5724962239
 10
331.055852017
 20
188.627427097
  0
LINE
  5
357
100
AcDbEntity
  8
0
100
AcDbLine
 62
7
  6
CONTINUOUS
 10
314.9684530104
 20
185.7146214099
 11
315.4402490104
 21
184.9677554099
  0
LINE
  5
358
100
AcDbEntity
  8
0
100
AcDbLine
 62
7
  6
CONTINUOUS
 10
315.5238520104
 20
185.1139344099
 11
315.1651780104
 21
185.7146214099
  0
LWPOLYLINE
  5
359
100
AcDbEntity
  8
0
100
AcDbPolyline
 62
7
  6
CONTINUOUS
 90
33
 70
0
 10
307.3126014065
 20
185.1312700538
 10
307.3109470842
 20
185.171212745
 10
307.3076638689
 20
185.209449468
 10
307.3026054818
 20
185.2459814786
 10
307.2959182018
 20
185.2808074921
 10
307.2880408657
 20
185.3139236841
 10
307.2789789074
 20
185.3452426181
 10
307.268726893
 20
185.3748517054
 10
307.2577073581
 20
185.4030093955
 10
307.2461441418
 20
185.4297751442
 10
307.2338134049
 20
185.4550894783
 10
307.2204661659
 20
185.4790324563
 10
307.2058969038
 20
185.5015641426
 10
307.1903111397
 20
185.5227244586
 10
307.1740764541
 20
185.542713251
 10
307.1572714393
 20
185.561559517
 10
307.1398175032
 20
185.5792342494
 10
307.1218464505
 20
185.5958502909
 10
307.1034606438
 20
185.6114717041
 10
307.0845577207
 20
185.6260344191
 10
307.0649623987
 20
185.6394590797
 10
307.0445558552
 20
185.6517116856
 10
307.0234569129
 20
185.6628262307
 10
307.0018467576
 20
185.672825351
 10
306.9797065742
 20
185.6816987647
 10
306.9570551778
 20
185.689456749
 10
306.9341301991
 20
185.6961527793
 10
306.9109574176
 20
185.7017866572
 10
306.8875110539
 20
185.7063585782
 10
306.8639514001
 20
185.709922608
 10
306.8403318871
 20
185.712496768
 10
306.8165990842
 20
185.7140630354
 10
306.7927529912
 20
185.7146214099
  0
LWPOLYLINE
  5
35A
100
AcDbEntity
  8
0
100
AcDbPolyline
 62
7
  6
CONTINUOUS
 90
37
 70
0
 10
306.8747905716
 20
218.9554571409
 10
306.874398776
 20
218.9872452638
 10
306.8727383411
 20
219.0187109744
 10
306.8698092668
 20
219.0498542744
 10
306.8657096204
 20
219.0807405263
 10
306.8603413346
 20
219.111304371
 10
306.8534102074
 20
219.1413497286
 10
306.8448480089
 20
219.1709522556
 10
306.8347229688
 20
219.200036301
 10
306.8229455747
 20
219.2281788267
 10
306.8094916434
 20
219.2553537704
 10
306.794385358
 20
219.2815872043
 10
306.7776097552
 20
219.3065342959
 10
306.759038766
 20
219.3301448584
 10
306.7387984595
 20
219.3524690907
 10
306.7172500799
 20
219.3733127412
 10
306.6943862421
 20
219.3926022003
 10
306.6702143311
 20
219.4104110893
 10
306.6451177469
 20
219.4267660036
 10
306.6190545844
 20
219.4416211797
 10
306.5920667486
 20
219.4550223899
 10
306.5646633539
 20
219.4671335323
 10
306.5369783936
 20
219.4778995945
 10
306.5088778745
 20
219.4873755945
 10
306.4804689311
 20
219.4958904744
 10
306.4518625676
 20
219.5034989013
 10
306.4229477797
 20
219.510146211
 10
306.39349869
 20
219.5159973475
 10
306.3635350227
 20
219.5210704368
 10
306.3330370534
 20
219.5253473546
 10
306.3017197315
 20
219.5289386694
 10
306.2696014766
 20
219.5317585948
 10
306.2366638691
 20
219.5338929181
 10
306.2025665995
 20
219.5357095683
 10
306.1671962311
 20
219.5373311884
 10
306.1306662006
 20
219.5386351356
 10
306.0929765078
 20
219.5396214099
  0
LINE
  5
35B
100
AcDbEntity
  8
0
100
AcDbLine
 62
7
  6
CONTINUOUS
 10
306.2807970104
 20
185.7146214099
 11
306.2807970104
 21
184.4646214099
  0
LINE
  5
35C
100
AcDbEntity
  8
0
100
AcDbLine
 62
7
  6
CONTINUOUS
 10
306.4497210104
 20
184.6090814099
 11
306.4497210104
 21
185.5701614099
  0
LINE
  5
35D
100
AcDbEntity
  8
0
100
AcDbLine
 62
7
  6
CONTINUOUS
 10
307.1239851491
 20
189.2192257793
 11
307.1239851491
 21
189.0411903115
  0
LINE
  5
35E
100
AcDbEntity
  8
0
100
AcDbLine
 62
7
  6
CONTINUOUS
 10
307.1300500104
 20
219.5396214099
 11
307.1300500104
 21
217.6396214099
  0
LINE
  5
35F
100
AcDbEntity
  8
0
100
AcDbLine
 62
7
  6
CONTINUOUS
 10
307.4923343884
 20
189.2632230373
 11
307.4923343884
 21
188.0896214099
  0
LINE
  5
360
100
AcDbEntity
  8
0
100
AcDbLine
 62
7
  6
CONTINUOUS
 10
307.5379640104
 20
217.9553704099
 11
307.5379640104
 21
219.5396214099
  0
LINE
  5
361
100
AcDbEntity
  8
0
100
AcDbLine
 62
7
  6
CONTINUOUS
 10
307.5465160104
 20
185.7146214099
 11
307.5465160104
 21
184.4646214099
  0
LINE
  5
362
100
AcDbEntity
  8
0
100
AcDbLine
 62
7
  6
CONTINUOUS
 10
307.6765089856
 20
188.0896214099
 11
307.6765089856
 21
189.5957606287
  0
LINE
  5
363
100
AcDbEntity
  8
0
100
AcDbLine
 62
7
  6
CONTINUOUS
 10
307.7154310104
 20
184.6143384099
 11
307.7154310104
 21
185.0321504099
  0
LINE
  5
364
100
AcDbEntity
  8
0
100
AcDbLine
 62
7
  6
CONTINUOUS
 10
307.7154310104
 20
185.1818674099
 11
307.7154310104
 21
185.5649044099
  0
LINE
  5
365
100
AcDbEntity
  8
0
100
AcDbLine
 62
7
  6
CONTINUOUS
 10
307.8570460104
 20
223.0710874099
 11
307.8570460104
 21
221.1711274099
  0
LWPOLYLINE
  5
366
100
AcDbEntity
  8
0
100
AcDbPolyline
 62
7
  6
CONTINUOUS
 90
21
 70
0
 10
306.4405183333
 20
218.9758081783
 10
306.4405265689
 20
218.9350303151
 10
306.4393842298
 20
218.9150034212
 10
306.4371369552
 20
218.8953764608
 10
306.4338340028
 20
218.8760928085
 10
306.4294261148
 20
218.8572090925
 10
306.4237655176
 20
218.8388951956
 10
306.4167950118
 20
218.8210770481
 10
306.4085717968
 20
218.8038287235
 10
306.3991196965
 20
218.7875423212
 10
306.3884349878
 20
218.7721403034
 10
306.3765213938
 20
218.7577002135
 10
306.3634139079
 20
218.7448467753
 10
306.3489394336
 20
218.7338452794
 10
306.3332710674
 20
218.7244304427
 10
306.3169630918
 20
218.7164311292
 10
306.3000279125
 20
218.7099721959
 10
306.2824531238
 20
218.7049287898
 10
306.2647557919
 20
218.7007552085
 10
306.2470935523
 20
218.6974861164
 10
306.2293087694
 20
218.6950868504
  0
LWPOLYLINE
  5
367
100
AcDbEntity
  8
0
100
AcDbPolyline
 62
7
  6
CONTINUOUS
 90
25
 70
0
 10
307.1388688577
 20
185.0896214099
 10
307.1387673369
 20
185.0576534377
 10
307.1375000475
 20
185.0264725068
 10
307.1350669897
 20
184.9960786121
 10
307.1314329309
 20
184.9665126707
 10
307.1266331036
 20
184.9377337548
 10
307.1207732052
 20
184.9096190921
 10
307.1140555111
 20
184.8820496901
 10
307.106277746
 20
184.8551445337
 10
307.0969387813
 20
184.8291378155
 10
307.0859106171
 20
184.8039966932
 10
307.0733212532
 20
184.779753999
 10
307.059053561
 20
184.7567424348
 10
307.0430169123
 20
184.7349373077
 10
307.0253019354
 20
184.7143632983
 10
307.006063386
 20
184.6954271651
 10
306.9851798353
 20
184.6781537614
 10
306.9627727121
 20
184.6625182204
 10
306.9393610581
 20
184.6488527177
 10
306.9149586351
 20
184.6372610549
 10
306.8895516813
 20
184.6276394189
 10
306.863617952
 20
184.6200085636
 10
306.837316699
 20
184.614375405
 10
306.8104886706
 20
184.610733021
 10
306.7831338666
 20
184.6090814099
  0
LINE
  5
368
100
AcDbEntity
  8
0
100
AcDbLine
 62
7
  6
CONTINUOUS
 10
308.8464960104
 20
221.1711274099
 11
308.9320770104
 21
222.4116914099
  0
LINE
  5
369
100
AcDbEntity
  8
0
100
AcDbLine
 62
7
  6
CONTINUOUS
 10
308.6386510104
 20
223.0709734099
 11
308.4671060104
 21
221.1711274099
  0
LINE
  5
36A
100
AcDbEntity
  8
0
100
AcDbLine
 62
7
  6
CONTINUOUS
 10
311.0389700104
 20
221.8438874099
 11
311.2364300104
 21
222.5489444099
  0
LINE
  5
36B
100
AcDbEntity
  8
0
100
AcDbLine
 62
7
  6
CONTINUOUS
 10
313.0301120104
 20
218.3580644099
 11
313.3118090104
 21
219.1764444099
  0
LINE
  5
36C
100
AcDbEntity
  8
0
100
AcDbLine
 62
7
  6
CONTINUOUS
 10
312.7827180104
 20
217.6396214099
 11
312.9248620104
 21
218.0423154099
  0
LINE
  5
36D
100
AcDbEntity
  8
0
100
AcDbLine
 62
7
  6
CONTINUOUS
 10
313.0801630104
 20
219.5396214099
 11
312.3932510104
 21
217.6396214099
  0
LWPOLYLINE
  5
36E
100
AcDbEntity
  8
0
100
AcDbPolyline
 62
250
  6
CONTINUOUS
 90
16
 70
0
 10
296.3543804655
 20
190.2402079398
 10
296.3474032512
 20
190.2301420392
 10
296.3390613006
 20
190.2211183273
 10
296.3295178588
 20
190.213326805
 10
296.3189555353
 20
190.2069481007
 10
296.3075990023
 20
190.2021002471
 10
296.2956867724
 20
190.1988271942
 10
296.2834386504
 20
190.1971720546
 10
296.2710769793
 20
190.1971847258
 10
296.2588329961
 20
190.1988649543
 10
296.2469230767
 20
190.2021644203
 10
296.2355734001
 20
190.2070384809
 10
296.2250376888
 20
190.2134311821
 10
296.2155399765
 20
190.2212136131
 10
296.2072502791
 20
190.2302034551
 10
296.2003236546
 20
190.2402079671
  0
LINE
  5
36F
100
AcDbEntity
  8
0
100
AcDbLine
 62
7
  6
CONTINUOUS
 10
313.9534920104
 20
184.4646214099
 11
313.5007720104
 21
185.7146214099
  0
LINE
  5
370
100
AcDbEntity
  8
0
100
AcDbLine
 62
7
  6
CONTINUOUS
 10
313.6452930104
 20
184.8284504099
 11
313.7688980104
 21
184.4646214099
  0
LINE
  5
371
100
AcDbEntity
  8
0
100
AcDbLine
 62
7
  6
CONTINUOUS
 10
313.3981040104
 20
185.5333104099
 11
313.5843450104
 21
184.9781674099
  0
LINE
  5
372
100
AcDbEntity
  8
0
100
AcDbLine
 62
7
  6
CONTINUOUS
 10
308.0878323542
 20
188.6175886841
 11
308.0878323542
 21
188.4487619327
  0
LINE
  5
373
100
AcDbEntity
  8
0
100
AcDbLine
 62
7
  6
CONTINUOUS
 10
308.2409630104
 20
217.6396214099
 11
308.2409630104
 21
217.9553704099
  0
LINE
  5
374
100
AcDbEntity
  8
0
100
AcDbLine
 62
7
  6
CONTINUOUS
 10
308.2536180104
 20
221.1711274099
 11
308.2536180104
 21
223.0710874099
  0
LINE
  5
375
100
AcDbEntity
  8
0
100
AcDbLine
 62
7
  6
CONTINUOUS
 10
308.3996300104
 20
185.0321504099
 11
308.3996300104
 21
185.1818674099
  0
LINE
  5
376
100
AcDbEntity
  8
0
100
AcDbLine
 62
7
  6
CONTINUOUS
 10
308.4570800104
 20
185.5649044099
 11
308.4570800104
 21
185.7146214099
  0
LINE
  5
377
100
AcDbEntity
  8
0
100
AcDbLine
 62
7
  6
CONTINUOUS
 10
308.4692820104
 20
184.4646214099
 11
308.4692820104
 21
184.6143384099
  0
LINE
  5
378
100
AcDbEntity
  8
0
100
AcDbLine
 62
7
  6
CONTINUOUS
 10
308.7385827528
 20
189.2939187737
 11
308.7385827528
 21
188.6175886841
  0
LINE
  5
379
100
AcDbEntity
  8
0
100
AcDbLine
 62
7
  6
CONTINUOUS
 10
308.7385827528
 20
188.4487619327
 11
308.7385827528
 21
188.0896214099
  0
LINE
  5
37A
100
AcDbEntity
  8
0
100
AcDbLine
 62
7
  6
CONTINUOUS
 10
308.9227573501
 20
188.0896214099
 11
308.9227573501
 21
188.4487619327
  0
LINE
  5
37B
100
AcDbEntity
  8
0
100
AcDbLine
 62
7
  6
CONTINUOUS
 10
308.9227573501
 20
188.6175886841
 11
308.9227573501
 21
189.5896214099
  0
LINE
  5
37C
100
AcDbEntity
  8
0
100
AcDbLine
 62
7
  6
CONTINUOUS
 10
309.1253494249
 20
188.4487619327
 11
309.1253494249
 21
188.6175886841
  0
LINE
  5
37D
100
AcDbEntity
  8
0
100
AcDbLine
 62
7
  6
CONTINUOUS
 10
309.2005200104
 20
185.7146214099
 11
309.2005200104
 21
184.4646214099
  0
LINE
  5
37E
100
AcDbEntity
  8
0
100
AcDbLine
 62
7
  6
CONTINUOUS
 10
309.3693830104
 20
184.4646214099
 11
309.3693830104
 21
185.7146214099
  0
LINE
  5
37F
100
AcDbEntity
  8
0
100
AcDbLine
 62
7
  6
CONTINUOUS
 10
309.4548173176
 20
189.2192257793
 11
309.4548173176
 21
189.0411903115
  0
LINE
  5
380
100
AcDbEntity
  8
0
100
AcDbLine
 62
7
  6
CONTINUOUS
 10
309.6583440104
 20
185.7146214099
 11
309.6583440104
 21
184.4646214099
  0
LINE
  5
381
100
AcDbEntity
  8
0
100
AcDbLine
 62
7
  6
CONTINUOUS
 10
309.8220620104
 20
184.4646214099
 11
309.8220620104
 21
185.4797714099
  0
LINE
  5
382
100
AcDbEntity
  8
0
100
AcDbLine
 62
7
  6
CONTINUOUS
 10
309.8231665121
 20
189.2632230373
 11
309.8231665121
 21
188.0896214099
  0
LINE
  5
383
100
AcDbEntity
  8
0
100
AcDbLine
 62
7
  6
CONTINUOUS
 10
310.0073412882
 20
188.0896214099
 11
310.0073412882
 21
189.5957606287
  0
LINE
  5
384
100
AcDbEntity
  8
0
100
AcDbLine
 62
250
  6
CONTINUOUS
 10
295.8271400885
 20
190.3409252482
 11
296.0024379519
 21
190.5162231116
  0
LINE
  5
385
100
AcDbEntity
  8
0
100
AcDbLine
 62
250
  6
CONTINUOUS
 10
287.7557485768
 20
182.1497763222
 11
287.6456089844
 21
182.0396367298
  0
LINE
  5
386
100
AcDbEntity
  8
0
100
AcDbLine
 62
250
  6
CONTINUOUS
 10
296.2021638588
 20
190.3164972047
 11
296.0931167603
 21
190.2074501061
  0
LINE
  5
387
100
AcDbEntity
  8
0
100
AcDbLine
 62
250
  6
CONTINUOUS
 10
331.5107791337
 20
225.4993128081
 11
331.6209187261
 21
225.6094524004
  0
LINE
  5
388
100
AcDbEntity
  8
0
100
AcDbLine
 62
250
  6
CONTINUOUS
 10
288.2255948872
 20
181.6799300118
 11
288.1154552948
 21
181.5697904194
  0
LINE
  5
389
100
AcDbEntity
  8
0
100
AcDbLine
 62
250
  6
CONTINUOUS
 10
323.534210162
 20
216.8627456151
 11
323.6432572606
 21
216.9717927137
  0
LWPOLYLINE
  5
38A
100
AcDbEntity
  8
0
100
AcDbPolyline
 62
7
  6
CONTINUOUS
 90
16
 70
0
 10
288.8590168224
 20
213.1516809331
 10
288.86228939
 20
213.1500707598
 10
288.8684288475
 20
213.1485160024
 10
288.8774351948
 20
213.1470166609
 10
288.8894682646
 20
213.1455580612
 10
288.9043682242
 20
213.1441548775
 10
288.9216555758
 20
213.1428511321
 10
288.9413719048
 20
213.1416512911
 10
288.9634756258
 20
213.1405508886
 10
288.9873624846
 20
213.1395805483
 10
289.0131382867
 20
213.1387426076
 10
289.0406972266
 20
213.1380347292
 10
289.0691176347
 20
213.1374805249
 10
289.0980922879
 20
213.1370878653
 10
289.1279284093
 20
213.1368488798
 10
296.7181870104
 20
213.1367635649
  0
LINE
  5
38B
100
AcDbEntity
  8
0
100
AcDbLine
 62
250
  6
CONTINUOUS
 10
296.0024379519
 20
216.6630197082
 11
295.8271400885
 21
216.8383175716
  0
LINE
  5
38C
100
AcDbEntity
  8
0
100
AcDbLine
 62
250
  6
CONTINUOUS
 10
287.6456089844
 20
225.13960609
 11
287.7557485768
 21
225.0294664977
  0
LINE
  5
38D
100
AcDbEntity
  8
0
100
AcDbLine
 62
250
  6
CONTINUOUS
 10
296.0931167603
 20
216.9717927137
 11
296.2021638588
 21
216.8627456151
  0
LINE
  5
38E
100
AcDbEntity
  8
0
100
AcDbLine
 62
250
  6
CONTINUOUS
 10
331.6209187261
 20
181.5697904194
 11
331.5107791337
 21
181.6799300118
  0
LINE
  5
38F
100
AcDbEntity
  8
0
100
AcDbLine
 62
250
  6
CONTINUOUS
 10
288.1154552948
 20
225.6094524004
 11
288.2255948872
 21
225.4993128081
  0
LINE
  5
390
100
AcDbEntity
  8
0
100
AcDbLine
 62
250
  6
CONTINUOUS
 10
323.6432572606
 20
190.2074501061
 11
323.534210162
 21
190.3164972047
  0
LWPOLYLINE
  5
391
100
AcDbEntity
  8
0
100
AcDbPolyline
 62
7
  6
CONTINUOUS
 90
10
 70
0
 10
310.4800559507
 20
188.4855968656
 10
310.4858487986
 20
188.4436688959
 10
310.4942987048
 20
188.4038315713
 10
310.5054056692
 20
188.3660848766
 10
310.5191578955
 20
188.3305437547
 10
310.5355671801
 20
188.2970932345
 10
310.5546689122
 20
188.2653884336
 10
310.5764748881
 20
188.2353143857
 10
310.6009733116
 20
188.2069860378
 10
310.6281641827
 20
188.1804033809
  0
LINE
  5
392
100
AcDbEntity
  8
0
100
AcDbLine
 62
7
  6
CONTINUOUS
 10
310.3938780104
 20
221.1711274099
 11
310.2162210104
 21
223.0709734099
  0
LINE
  5
393
100
AcDbEntity
  8
0
100
AcDbLine
 62
7
  6
CONTINUOUS
 10
309.9244480104
 20
222.4065194099
 11
310.0059250104
 21
221.1711274099
  0
LWPOLYLINE
  5
394
100
AcDbEntity
  8
0
100
AcDbPolyline
 62
7
  6
CONTINUOUS
 90
10
 70
0
 10
312.6103425251
 20
189.1793213041
 10
312.6086445022
 20
189.218364285
 10
312.6039112782
 20
189.2557975772
 10
312.5961428531
 20
189.2916211702
 10
312.5853874892
 20
189.3257132604
 10
312.5715969241
 20
189.358195631
 10
312.554626371
 20
189.3894336544
 10
312.5344275676
 20
189.4195491179
 10
312.5110487762
 20
189.4484202214
 10
312.4844899969
 20
189.4760469585
  0
LWPOLYLINE
  5
395
100
AcDbEntity
  8
0
100
AcDbPolyline
 62
7
  6
CONTINUOUS
 90
10
 70
0
 10
311.4623205887
 20
188.5326636882
 10
311.4613487552
 20
188.5646928639
 10
311.4585415515
 20
188.5954442826
 10
311.4538989774
 20
188.6249179369
 10
311.4473784343
 20
188.6531430575
 10
311.4390225209
 20
188.6800904005
 10
311.4289590335
 20
188.7056722461
 10
311.4172305706
 20
188.7298593502
 10
311.4037945337
 20
188.7526809445
 10
311.3886509227
 20
188.7741370235
  0
LWPOLYLINE
  5
396
100
AcDbEntity
  8
0
100
AcDbPolyline
 62
7
  6
CONTINUOUS
 90
10
 70
0
 10
311.3886510359
 20
189.2059242578
 10
311.3879832636
 20
189.2281506831
 10
311.3859649305
 20
189.2501533694
 10
311.3825960366
 20
189.271932316
 10
311.3779080114
 20
189.2934407562
 10
311.3718694253
 20
189.3147254547
 10
311.3643859895
 20
189.3359267078
 10
311.3554262744
 20
189.3570912808
 10
311.3450217096
 20
189.3781724078
 10
311.333172295
 20
189.3991700884
  0
LINE
  5
397
100
AcDbEntity
  8
0
100
AcDbLine
 62
7
  6
CONTINUOUS
 10
310.4853140104
 20
219.5396214099
 11
310.4853140104
 21
217.6396214099
  0
LINE
  5
398
100
AcDbEntity
  8
0
100
AcDbLine
 62
7
  6
CONTINUOUS
 10
310.4871350104
 20
185.7146214099
 11
310.4871350104
 21
184.6992664099
  0
LINE
  5
399
100
AcDbEntity
  8
0
100
AcDbLine
 62
7
  6
CONTINUOUS
 10
310.6507720104
 20
184.4646214099
 11
310.6507720104
 21
185.7146214099
  0
LINE
  5
39A
100
AcDbEntity
  8
0
100
AcDbLine
 62
7
  6
CONTINUOUS
 10
310.8669150104
 20
217.6396214099
 11
310.8669150104
 21
219.2297934099
  0
LINE
  5
39B
100
AcDbEntity
  8
0
100
AcDbLine
 62
7
  6
CONTINUOUS
 10
311.4254790104
 20
185.7146214099
 11
311.4254790104
 21
184.4646214099
  0
LINE
  5
39C
100
AcDbEntity
  8
0
100
AcDbLine
 62
7
  6
CONTINUOUS
 10
311.5943930104
 20
184.4646214099
 11
311.5943930104
 21
185.7146214099
  0
LINE
  5
39D
100
AcDbEntity
  8
0
100
AcDbLine
 62
7
  6
CONTINUOUS
 10
311.7754590104
 20
185.7146214099
 11
311.7754590104
 21
185.5649044099
  0
LINE
  5
39E
100
AcDbEntity
  8
0
100
AcDbLine
 62
7
  6
CONTINUOUS
 10
311.8195250104
 20
219.5396214099
 11
311.8195250104
 21
218.0339614099
  0
LINE
  5
39F
100
AcDbEntity
  8
0
100
AcDbLine
 62
7
  6
CONTINUOUS
 10
312.1350716132
 20
223.0487768687
 11
312.1350716132
 21
221.1711276639
  0
LINE
  5
3A0
100
AcDbEntity
  8
0
100
AcDbLine
 62
7
  6
CONTINUOUS
 10
312.1985280104
 20
185.5649044099
 11
312.1985280104
 21
184.4646214099
  0
LINE
  5
3A1
100
AcDbEntity
  8
0
100
AcDbLine
 62
7
  6
CONTINUOUS
 10
312.2011270104
 20
217.6396214099
 11
312.2011270104
 21
219.5396214099
  0
LWPOLYLINE
  5
3A2
100
AcDbEntity
  8
0
100
AcDbPolyline
 62
7
  6
CONTINUOUS
 90
10
 70
0
 10
311.266890906
 20
188.5285709502
 10
311.2656663216
 20
188.4992825381
 10
311.2622749865
 20
188.4711752148
 10
311.2567169007
 20
188.4442489746
 10
311.2490202147
 20
188.4185864797
 10
311.239156778
 20
188.3941050563
 10
311.2270421388
 20
188.3705566953
 10
311.2126481464
 20
188.3478587249
 10
311.1960029515
 20
188.3260938092
 10
311.1771065541
 20
188.3052619446
  0
LWPOLYLINE
  5
3A3
100
AcDbEntity
  8
0
100
AcDbPolyline
 62
7
  6
CONTINUOUS
 90
10
 70
0
 10
311.1993603931
 20
189.2100170405
 10
311.1981796013
 20
189.1822521901
 10
311.1946613709
 20
189.1561796909
 10
311.1888057018
 20
189.1317995353
 10
311.1805944627
 20
189.1091153046
 10
311.1700457849
 20
189.0881234036
 10
311.1572140632
 20
189.0688130608
 10
311.1421174291
 20
189.051180682
 10
311.1247377512
 20
189.0352298504
 10
311.1050750293
 20
189.0209605615
  0
LINE
  5
3A4
100
AcDbEntity
  8
0
100
AcDbLine
 62
7
  6
CONTINUOUS
 10
304.3378870104
 20
184.4646214099
 11
304.6895210104
 21
185.5144594099
  0
LINE
  5
3A5
100
AcDbEntity
  8
0
100
AcDbLine
 62
7
  6
CONTINUOUS
 10
304.6129440104
 20
185.7146214099
 11
304.2560360104
 21
184.6527234099
  0
LINE
  5
3A6
100
AcDbEntity
  8
0
100
AcDbLine
 62
7
  6
CONTINUOUS
 10
305.1770360104
 20
184.4646214099
 11
305.3076260104
 21
184.8284504099
  0
LINE
  5
3A7
100
AcDbEntity
  8
0
100
AcDbLine
 62
7
  6
CONTINUOUS
 10
305.3598710104
 20
184.9781674099
 11
305.5618830104
 21
185.5333104099
  0
LINE
  5
3A8
100
AcDbEntity
  8
0
100
AcDbLine
 62
7
  6
CONTINUOUS
 10
305.4729920104
 20
185.7146214099
 11
305.0029560104
 21
184.4646214099
  0
LINE
  5
3A9
100
AcDbEntity
  8
0
100
AcDbLine
 62
250
  6
CONTINUOUS
 10
331.9806254441
 20
225.0294664977
 11
332.0907650365
 21
225.13960609
  0
LINE
  5
3AA
100
AcDbEntity
  8
0
100
AcDbLine
 62
250
  6
CONTINUOUS
 10
323.9092339324
 20
216.8383175716
 11
323.733936069
 21
216.6630197082
  0
LWPOLYLINE
  5
3AB
100
AcDbEntity
  8
0
100
AcDbPolyline
 62
7
  6
CONTINUOUS
 90
16
 70
0
 10
330.8773571985
 20
194.0275618868
 10
330.8740846306
 20
194.0291720601
 10
330.8679451729
 20
194.0307268175
 10
330.8589388255
 20
194.0322261589
 10
330.8469057556
 20
194.0336847586
 10
330.8320057959
 20
194.0350879423
 10
330.8147184443
 20
194.0363916877
 10
330.7950021153
 20
194.0375915286
 10
330.7728983943
 20
194.0386919312
 10
330.7490115355
 20
194.0396622715
 10
330.7232357334
 20
194.0405002121
 10
330.6956767934
 20
194.0412080905
 10
330.6672563857
 20
194.0417622948
 10
330.6382817336
 20
194.0421549544
 10
330.6084456138
 20
194.0423939399
 10
323.0181870104
 20
194.042479255
  0
LINE
  5
3AC
100
AcDbEntity
  8
0
100
AcDbLine
 62
250
  6
CONTINUOUS
 10
332.0907650365
 20
182.0396367298
 11
331.9806254441
 21
182.1497763222
  0
LINE
  5
3AD
100
AcDbEntity
  8
0
100
AcDbLine
 62
250
  6
CONTINUOUS
 10
323.733936069
 20
190.5162231116
 11
323.9092339324
 21
190.3409252482
  0
LINE
  5
3AE
100
AcDbEntity
  8
0
100
AcDbLine
 62
7
  6
CONTINUOUS
 10
306.1474230104
 20
223.0709734099
 11
306.7497110104
 21
221.1711274099
  0
LINE
  5
3AF
100
AcDbEntity
  8
0
100
AcDbLine
 62
7
  6
CONTINUOUS
 10
306.9403680104
 20
221.7632504099
 11
306.5782230104
 21
223.0709734099
  0
LINE
  5
3B0
100
AcDbEntity
  8
0
100
AcDbLine
 62
7
  6
CONTINUOUS
 10
312.3673820104
 20
184.4646214099
 11
312.3673820104
 21
185.5649044099
  0
LINE
  5
3B1
100
AcDbEntity
  8
0
100
AcDbLine
 62
7
  6
CONTINUOUS
 10
312.5168985136
 20
222.2257711457
 11
312.5168985136
 21
222.7473158332
  0
LINE
  5
3B2
100
AcDbEntity
  8
0
100
AcDbLine
 62
7
  6
CONTINUOUS
 10
312.5300482553
 20
221.1711276639
 11
312.5300482553
 21
221.9146223264
  0
LINE
  5
3B3
100
AcDbEntity
  8
0
100
AcDbLine
 62
7
  6
CONTINUOUS
 10
312.6123888718
 20
188.0896214099
 11
312.6123888718
 21
188.2666336933
  0
LINE
  5
3B4
100
AcDbEntity
  8
0
100
AcDbLine
 62
7
  6
CONTINUOUS
 10
312.7904510104
 20
185.5649044099
 11
312.7904510104
 21
185.7146214099
  0
LINE
  5
3B5
100
AcDbEntity
  8
0
100
AcDbLine
 62
7
  6
CONTINUOUS
 10
313.1592920015
 20
222.0560393761
 11
313.1592920015
 21
222.0699681002
  0
LINE
  5
3B6
100
AcDbEntity
  8
0
100
AcDbLine
 62
7
  6
CONTINUOUS
 10
314.1083640104
 20
185.7146214099
 11
314.1083640104
 21
184.4646214099
  0
LINE
  5
3B7
100
AcDbEntity
  8
0
100
AcDbLine
 62
7
  6
CONTINUOUS
 10
314.2772890104
 20
184.6143384099
 11
314.2772890104
 21
185.7146214099
  0
LWPOLYLINE
  5
3B8
100
AcDbEntity
  8
0
100
AcDbPolyline
 62
7
  6
CONTINUOUS
 90
25
 70
0
 10
313.0515929428
 20
222.5210063554
 10
313.0511976865
 20
222.5001100094
 10
313.0496012718
 20
222.4794693696
 10
313.0468036989
 20
222.4590844371
 10
313.0428132768
 20
222.438881636
 10
313.0376216964
 20
222.4189345446
 10
313.0312040303
 20
222.399463896
 10
313.0235729728
 20
222.3803912408
 10
313.0147158295
 20
222.3617950326
 10
313.0045695894
 20
222.3441313615
 10
312.9930892635
 20
222.32738588
 10
312.9803198407
 20
222.3115729429
 10
312.9663332765
 20
222.2971916981
 10
312.9509936762
 20
222.2844177976
 10
312.9344369345
 20
222.2730755985
 10
312.9171426909
 20
222.2631373077
 10
312.8991114795
 20
222.2546967983
 10
312.8803427662
 20
222.2476602032
 10
312.8613145889
 20
222.2417181171
 10
312.8421535968
 20
222.2368659389
 10
312.8227331406
 20
222.2331082724
 10
312.8031513105
 20
222.2301495193
 10
312.7834408031
 20
222.227891147
 10
312.7635689217
 20
222.2264316891
 10
312.7435356663
 20
222.2257711457
  0
LWPOLYLINE
  5
3B9
100
AcDbEntity
  8
0
100
AcDbPolyline
 62
7
  6
CONTINUOUS
 90
10
 70
0
 10
311.8449945675
 20
189.1424863489
 10
311.8460040509
 20
189.1729567702
 10
311.8490304118
 20
189.2019812667
 10
311.8540736501
 20
189.2295598311
 10
311.8611656381
 20
189.2557357999
 10
311.8702745035
 20
189.2804658231
 10
311.88130463
 20
189.3036198631
 10
311.8942241454
 20
189.3251545697
 10
311.9090649219
 20
189.3451132808
 10
311.9258269595
 20
189.3634959908
  0
LWPOLYLINE
  5
3BA
100
AcDbEntity
  8
0
100
AcDbPolyline
 62
7
  6
CONTINUOUS
 90
10
 70
0
 10
312.4210518824
 20
189.1834140868
 10
312.4199337969
 20
189.1595891838
 10
312.4166495488
 20
189.1354717669
 10
312.4111991381
 20
189.1110618374
 10
312.4035049125
 20
189.0862511842
 10
312.3936445242
 20
189.0611480214
 10
312.3818509303
 20
189.0360769869
 10
312.3682017828
 20
189.0111462926
 10
312.3526194296
 20
188.9862477261
 10
312.3351038706
 20
188.9613812874
  0
LINE
  5
3BB
100
AcDbEntity
  8
0
100
AcDbLine
 62
7
  6
CONTINUOUS
 10
310.8637531029
 20
188.9613812716
 11
310.8432892786
 21
188.79971689
  0
LWPOLYLINE
  5
3BC
100
AcDbEntity
  8
0
100
AcDbPolyline
 62
7
  6
CONTINUOUS
 90
10
 70
0
 10
310.6826482044
 20
189.174205348
 10
310.6874090566
 20
189.2023351264
 10
310.6935494118
 20
189.2291710584
 10
310.70106927
 20
189.2547131378
 10
310.7099932537
 20
189.2790999571
 10
310.7202967404
 20
189.3021929129
 10
310.7319058621
 20
189.3235762048
 10
310.744795996
 20
189.3431112277
 10
310.7589917649
 20
189.3609365743
 10
310.7744931686
 20
189.3770522392
  0
LWPOLYLINE
  5
3BD
100
AcDbEntity
  8
0
100
AcDbPolyline
 62
250
  6
CONTINUOUS
 90
16
 70
0
 10
323.3819935589
 20
216.9390348858
 10
323.3889707657
 20
216.9491007759
 10
323.3973127087
 20
216.9581244819
 10
323.4068561442
 20
216.9659160023
 10
323.4174184644
 20
216.9722947083
 10
323.4287749977
 20
216.9771425654
 10
323.4406872286
 20
216.9804156216
 10
323.4529353518
 20
216.982070764
 10
323.4652970248
 20
216.9820580952
 10
323.4775410098
 20
216.9803778686
 10
323.4894509251
 20
216.9770784064
 10
323.5008005981
 20
216.9722043509
 10
323.5113363207
 20
216.9658116458
 10
323.5208340593
 20
216.9580291925
 10
323.5291237869
 20
216.9490393087
 10
323.5360504388
 20
216.9390347333
  0
LINE
  5
3BE
100
AcDbEntity
  8
0
100
AcDbLine
 62
7
  6
CONTINUOUS
 10
309.3644090104
 20
219.1765514099
 11
309.6274430104
 21
218.3580644099
  0
LWPOLYLINE
  5
3BF
100
AcDbEntity
  8
RACCORDO
100
AcDbPolyline
 62
250
  6
CONTINUOUS
 90
73
 70
0
 10
315.0599294409
 20
203.5896214099
 10
315.0550043625
 20
203.8161167268
 10
315.0402700679
 20
204.0415941452
 10
315.0157265569
 20
204.2660536198
 10
314.9812863412
 20
204.4900173455
 10
314.9370369092
 20
204.7129630396
 10
314.8832407266
 20
204.9333239469
 10
314.8198504747
 20
205.1509732109
 10
314.7469134722
 20
205.3660376221
 10
314.664834141
 20
205.5773309086
 10
314.5735527937
 20
205.7848530535
 10
314.4731291177
 20
205.9886040375
 10
314.3641465964
 20
206.1873976036
 10
314.246560111
 20
206.3811952127
 10
314.1204147803
 20
206.570035404
 10
313.9864294445
 20
206.7528475576
 10
313.8445579538
 20
206.9295994702
 10
313.694846458
 20
207.1003233811
 10
313.5381522472
 20
207.264045353
 10
313.3744360922
 20
207.4207244763
 10
313.2037372221
 20
207.570401727
 10
313.0270306147
 20
207.7122260123
 10
312.8442821363
 20
207.8461524305
 10
312.6555259205
 20
207.9722259699
 10
312.4618393469
 20
208.0897303841
 10
312.2631948271
 20
208.1986166031
 10
312.0596199494
 20
208.2989337908
 10
311.8522748578
 20
208.3901130571
 10
311.6411383552
 20
208.4721023933
 10
311.4262316387
 20
208.5449538947
 10
311.2087784428
 20
208.6082548279
 10
310.9887645657
 20
208.6619509294
 10
310.7662042092
 20
208.7060965288
 10
310.5423637141
 20
208.7404417784
 10
310.3172361336
 20
208.7649310964
 10
310.0908284145
 20
208.7796201003
 10
309.8644277375
 20
208.7844257331
 10
309.6380340272
 20
208.7792919974
 10
309.4116473591
 20
208.7642748905
 10
309.1865551407
 20
208.739459338
 10
308.9627645772
 20
208.7047897409
 10
308.7402684634
 20
208.6603216623
 10
308.5203325906
 20
208.6063067631
 10
308.3029711788
 20
208.5426907372
 10
308.088170008
 20
208.4695278244
 10
307.877152209
 20
208.3872325007
 10
307.6699389943
 20
208.2957526611
 10
307.4665091515
 20
208.1951403238
 10
307.2680221743
 20
208.0859661502
 10
307.074505872
 20
207.9681811184
 10
306.8859324353
 20
207.8418341564
 10
306.7033779311
 20
207.7076428558
 10
306.5268761814
 20
207.565561886
 10
306.3563933642
 20
207.415636491
 10
306.1929040791
 20
207.2587201367
 10
306.0364491229
 20
207.0947740745
 10
305.8869876988
 20
206.9238369869
 10
305.7453720169
 20
206.7468785027
 10
305.6116420085
 20
206.5638542985
 10
305.4857577424
 20
206.374808662
 10
305.3684516346
 20
206.1808441577
 10
305.2597828081
 20
205.9819514605
 10
305.1596921399
 20
205.7781398961
 10
305.0687346775
 20
205.5705400252
 10
304.986944018
 20
205.3590345225
 10
304.9142865641
 20
205.1437407491
 10
304.8512165721
 20
204.9261413129
 10
304.7978335068
 20
204.706192353
 10
304.7540379033
 20
204.4839377983
 10
304.7199856227
 20
204.260991956
 10
304.6957286188
 20
204.0378929592
 10
304.6812149379
 20
203.8141027623
 10
304.6764445799
 20
203.5896214099
  0
LINE
  5
3C0
100
AcDbEntity
  8
0
100
AcDbLine
 62
7
  6
CONTINUOUS
 10
314.9110330104
 20
184.4646214099
 11
314.9110330104
 21
184.6143384099
  0
LINE
  5
3C1
100
AcDbEntity
  8
0
100
AcDbLine
 62
7
  6
CONTINUOUS
 10
315.4402490104
 20
184.9677554099
 11
315.4402490104
 21
184.4646214099
  0
LINE
  5
3C2
100
AcDbEntity
  8
0
100
AcDbLine
 62
7
  6
CONTINUOUS
 10
315.6090720104
 20
184.4646214099
 11
315.6090720104
 21
184.9677554099
  0
LINE
  5
3C3
100
AcDbEntity
  8
0
100
AcDbLine
 62
7
  6
CONTINUOUS
 10
315.8681870104
 20
220.8896214099
 11
315.8681870104
 21
220.0896214099
  0
LINE
  5
3C4
100
AcDbEntity
  8
0
100
AcDbLine
 62
7
  6
CONTINUOUS
 10
315.8681870104
 20
187.0896214099
 11
315.8681870104
 21
186.2896214099
  0
LWPOLYLINE
  5
3C5
100
AcDbEntity
  8
RACCORDO
100
AcDbPolyline
 62
250
  6
CONTINUOUS
 90
58
 70
0
 10
315.4170008624
 20
203.5896214099
 10
315.4070186386
 20
203.2569840648
 10
315.3773944396
 20
202.9276363794
 10
315.3286097246
 20
202.6028497775
 10
315.2614159522
 20
202.2844496743
 10
315.176327204
 20
201.9726609821
 10
315.0732205653
 20
201.6662871967
 10
314.9521282998
 20
201.3656750592
 10
314.8136720785
 20
201.0725972199
 10
314.658340365
 20
200.788079014
 10
314.4866565294
 20
200.513112852
 10
314.299207292
 20
200.2486143862
 10
314.0965993105
 20
199.9954805158
 10
313.8795026783
 20
199.7545454712
 10
313.6486666728
 20
199.5266742747
 10
313.4049412336
 20
199.3127009936
 10
313.1491847492
 20
199.1133692555
 10
312.8822502342
 20
198.9293396661
 10
312.605060397
 20
198.7612303298
 10
312.3185726765
 20
198.6096285872
 10
312.0237601975
 20
198.4750229877
 10
311.721577594
 20
198.3578656146
 10
311.4130445905
 20
198.2585402962
 10
311.0992252923
 20
198.1774056615
 10
310.7811891865
 20
198.1147339034
 10
310.4600101984
 20
198.0707426403
 10
310.1367947599
 20
198.0455904988
 10
309.8126820328
 20
198.0393576372
 10
309.4887941979
 20
198.0520733372
 10
309.1662199998
 20
198.0836747983
 10
308.8460465745
 20
198.1340695947
 10
308.5293735308
 20
198.2030674964
 10
308.2172749086
 20
198.290445446
 10
307.9107699576
 20
198.3959121973
 10
307.6108953467
 20
198.5191235735
 10
307.3186915684
 20
198.6596629611
 10
307.0351572687
 20
198.8170496142
 10
306.7612297008
 20
198.990788992
 10
306.4978832479
 20
199.1802590039
 10
306.2461388617
 20
199.3847375106
 10
306.0061089484
 20
199.6042038009
 10
305.7794182446
 20
199.8372864386
 10
305.5688301245
 20
200.0807051583
 10
305.3739378564
 20
200.3342223153
 10
305.1957339411
 20
200.5957868538
 10
305.0376219954
 20
200.8583929726
 10
304.8995543176
 20
201.1186345888
 10
304.7794474499
 20
201.37668229
 10
304.6765237239
 20
201.6304595493
 10
304.5897065152
 20
201.8782663056
 10
304.5175426908
 20
202.1194934246
 10
304.4586325377
 20
202.3539039813
 10
304.4118030181
 20
202.5807435895
 10
304.3758985094
 20
202.7993696141
 10
304.3497230183
 20
203.0099292622
 10
304.3322266154
 20
203.2121867997
 10
304.322432231
 20
203.4055209057
 10
304.3193731585
 20
203.5896214099
  0
LWPOLYLINE
  5
3C6
100
AcDbEntity
  8
RACCORDO
100
AcDbPolyline
 62
250
  6
CONTINUOUS
 90
58
 70
0
 10
315.7740722838
 20
203.5896214479
 10
315.7624617633
 20
203.2337258881
 10
315.7311028504
 20
202.8837668186
 10
315.6799955452
 20
202.5397443988
 10
315.608844434
 20
202.2013391764
 10
315.5179449304
 20
201.8688708742
 10
315.4081832752
 20
201.5432983836
 10
315.27935665
 20
201.2238663303
 10
315.1316678732
 20
200.9113302536
 10
314.9666116409
 20
200.6089153546
 10
314.7840182756
 20
200.3167427893
 10
314.5840574548
 20
200.0346913967
 10
314.3687329061
 20
199.7656228113
 10
314.1378582848
 20
199.5096445407
 10
313.8916199357
 20
199.2666489084
 10
313.6325806202
 20
199.0391746874
 10
313.3606232389
 20
198.8274051935
 10
313.0758648911
 20
198.631156821
 10
312.7812196367
 20
198.4524178994
 10
312.476606407
 20
198.2913730827
 10
312.1621062705
 20
198.1478373868
 10
311.8408764927
 20
198.0232446584
 10
311.5128356039
 20
197.9177762795
 10
311.1780650738
 20
197.831250587
 10
310.8399665763
 20
197.764556867
 10
310.498490454
 20
197.7178993562
 10
310.1536863643
 20
197.6910736611
 10
309.8091049533
 20
197.6843561558
 10
309.4647673794
 20
197.6979557323
 10
309.1206524843
 20
197.7316635084
 10
308.7802474389
 20
197.7851292384
 10
308.4435996543
 20
197.8585448649
 10
308.1106617196
 20
197.9517186191
 10
307.7847785723
 20
198.0637247194
 10
307.4660024424
 20
198.1947576408
 10
307.1542810999
 20
198.3446231996
 10
306.8528027929
 20
198.51181263
 10
306.5616406024
 20
198.6965432992
 10
306.2807214473
 20
198.8985981706
 10
306.0130143326
 20
199.1158168411
 10
305.7581539161
 20
199.3493133878
 10
305.5165055399
 20
199.5979740187
 10
305.2921342361
 20
199.8562964246
 10
305.0854481329
 20
200.1258888434
 10
304.896039102
 20
200.4051431311
 10
304.7267477898
 20
200.6837322048
 10
304.5795816671
 20
200.959908153
 10
304.4525332631
 20
201.2354186906
 10
304.3424208117
 20
201.5051800185
 10
304.2495331961
 20
201.7682370068
 10
304.1735815331
 20
202.025544551
 10
304.1105174073
 20
202.2748838524
 10
304.0601903234
 20
202.5158679553
 10
304.0227507767
 20
202.748883633
 10
303.9946018376
 20
202.9728726842
 10
303.9745445298
 20
203.1874823361
 10
303.9637778296
 20
203.3930652459
 10
303.9623017371
 20
203.5896213719
  0
LWPOLYLINE
  5
3C7
100
AcDbEntity
  8
0
100
AcDbPolyline
 62
7
  6
CONTINUOUS
 90
25
 70
0
 10
323.0620751415
 20
217.0377635454
 10
323.0816125031
 20
217.0813699085
 10
323.1050986698
 20
217.1216977559
 10
323.1325336416
 20
217.1587471088
 10
323.1643443138
 20
217.1928868547
 10
323.200103791
 20
217.2237481426
 10
323.2385313874
 20
217.2502243896
 10
323.2797247843
 20
217.2721568647
 10
323.3235863005
 20
217.2897043343
 10
323.3685422058
 20
217.302236465
 10
323.4146314328
 20
217.3095710439
 10
323.461815049
 20
217.3118903005
 10
323.5084025272
 20
217.3091105608
 10
323.5543728797
 20
217.3010469598
 10
323.5997470941
 20
217.2878843531
 10
323.6428976068
 20
217.2700936415
 10
323.6837439251
 20
217.2475066203
 10
323.7223665416
 20
217.2202914631
 10
323.7573793708
 20
217.1894236377
 10
323.7886532843
 20
217.1547556952
 10
323.8163174104
 20
217.116435045
 10
323.8393730486
 20
217.0758794525
 10
323.8574872989
 20
217.0335615005
 10
323.8709930613
 20
216.9890085788
 10
323.8798903358
 20
216.9422206716
  0
LWPOLYLINE
  5
3C8
100
AcDbEntity
  8
0
100
AcDbPolyline
 62
7
  6
CONTINUOUS
 90
10
 70
0
 10
307.5578186886
 20
189.5957606287
 10
307.5452257775
 20
189.5725553788
 10
307.531177349
 20
189.549575429
 10
307.5156734033
 20
189.5268207785
 10
307.498637977
 20
189.5042854769
 10
307.4801470333
 20
189.481975473
 10
307.4604284626
 20
189.4599086147
 10
307.4395582283
 20
189.4380908508
 10
307.4174603669
 20
189.4165162308
 10
307.3941348784
 20
189.3951847539
  0
LINE
  5
3C9
100
AcDbEntity
  8
0
100
AcDbLine
 62
7
  6
CONTINUOUS
 10
295.8236241824
 20
193.1662135465
 11
295.8755621571
 21
193.1835121372
  0
LINE
  5
3CA
100
AcDbEntity
  8
0
100
AcDbLine
 62
7
  6
CONTINUOUS
 10
295.8236241824
 20
214.0130292733
 11
295.8755621571
 21
213.9957306826
  0
LWPOLYLINE
  5
3CB
100
AcDbEntity
  8
0
100
AcDbPolyline
 62
250
  6
CONTINUOUS
 90
16
 70
0
 10
296.2021638588
 20
216.8627456151
 10
296.2043628943
 20
216.8616741722
 10
296.208438331
 20
216.8606411983
 10
296.2143901689
 20
216.8596466934
 10
296.2223083758
 20
216.8586823511
 10
296.2321029838
 20
216.8577564777
 10
296.24350409
 20
216.8568939928
 10
296.256555137
 20
216.8560957326
 10
296.2712126822
 20
216.8553608607
 10
296.2870764942
 20
216.8547117874
 10
296.3041946715
 20
216.854150476
 10
296.3225191156
 20
216.8536749632
 10
296.3415052997
 20
216.8533017693
 10
296.360971715
 20
216.8530364011
 10
296.3810998704
 20
216.8528733518
 10
296.5693188942
 20
216.8528126215
  0
LINE
  5
3CC
100
AcDbEntity
  8
0
100
AcDbLine
 62
7
  6
CONTINUOUS
 10
308.9320770104
 20
222.4116914099
 11
309.3973040104
 21
221.1711274099
  0
LINE
  5
3CD
100
AcDbEntity
  8
0
100
AcDbLine
 62
7
  6
CONTINUOUS
 10
309.4272790104
 20
222.0161734099
 11
309.0348950104
 21
223.0709734099
  0
LINE
  5
3CE
100
AcDbEntity
  8
0
100
AcDbLine
 62
7
  6
CONTINUOUS
 10
310.2774600104
 20
217.6396214099
 11
309.6169320104
 21
219.5396214099
  0
LINE
  5
3CF
100
AcDbEntity
  8
0
100
AcDbLine
 62
7
  6
CONTINUOUS
 10
309.7300470104
 20
218.0423154099
 11
309.8669000104
 21
217.6396214099
  0
LINE
  5
3D0
100
AcDbEntity
  8
0
100
AcDbLine
 62
7
  6
CONTINUOUS
 10
311.4979150104
 20
221.5504044099
 11
311.6006480104
 21
221.1711274099
  0
LINE
  5
3D1
100
AcDbEntity
  8
0
100
AcDbLine
 62
7
  6
CONTINUOUS
 10
311.2364300104
 20
222.5489444099
 11
311.4186600104
 21
221.8438874099
  0
LWPOLYLINE
  5
3D2
100
AcDbEntity
  8
0
100
AcDbPolyline
 62
7
  6
CONTINUOUS
 90
10
 70
0
 10
311.6415944639
 20
188.2178345557
 10
311.6365960161
 20
188.2035797817
 10
311.6322801786
 20
188.1893399093
 10
311.6286469513
 20
188.1751149385
 10
311.6257062132
 20
188.1609217817
 10
311.6234480853
 20
188.1467435264
 10
311.6218429311
 20
188.1325294353
 10
311.6208808717
 20
188.1182625958
 10
311.6205717859
 20
188.1039599207
 10
311.6209156738
 20
188.0896214099
  0
LWPOLYLINE
  5
3D3
100
AcDbEntity
  8
0
100
AcDbPolyline
 62
7
  6
CONTINUOUS
 90
10
 70
0
 10
312.5736916899
 20
189.0022304498
 10
312.5815005132
 20
189.0218761968
 10
312.588362429
 20
189.041511487
 10
312.5942774375
 20
189.0611363203
 10
312.5992284982
 20
189.080726416
 10
312.6032326515
 20
189.1003060547
 10
312.6063410188
 20
189.1199480784
 10
312.6085706403
 20
189.1396767681
 10
312.6099044758
 20
189.1594678433
 10
312.6103425251
 20
189.1793213041
  0
LWPOLYLINE
  5
3D4
100
AcDbEntity
  8
0
100
AcDbPolyline
 62
7
  6
CONTINUOUS
 90
10
 70
0
 10
309.8886508571
 20
189.5957606287
 10
309.8760579559
 20
189.572555379
 10
309.8620095344
 20
189.5495754296
 10
309.8465055926
 20
189.5268207798
 10
309.8294701662
 20
189.5042854795
 10
309.8109792194
 20
189.4819754771
 10
309.7912606448
 20
189.4599086195
 10
309.7703904066
 20
189.4380908549
 10
309.7482925406
 20
189.4165162334
 10
309.7249670469
 20
189.3951847539
  0
LINE
  5
3D5
100
AcDbEntity
  8
0
100
AcDbLine
 62
7
  6
CONTINUOUS
 10
308.2689374314
 20
188.6175886841
 11
308.7385827528
 21
189.2939187737
  0
LINE
  5
3D6
100
AcDbEntity
  8
0
100
AcDbLine
 62
7
  6
CONTINUOUS
 10
308.7723480092
 20
189.5896214099
 11
308.0878323542
 21
188.6175886841
  0
LINE
  5
3D7
100
AcDbEntity
  8
0
100
AcDbLine
 62
7
  6
CONTINUOUS
 10
303.8681870104
 20
187.0896214099
 11
303.8887419367
 21
187.1101763362
  0
LINE
  5
3D8
100
AcDbEntity
  8
0
100
AcDbLine
 62
7
  6
CONTINUOUS
 10
330.8773571985
 20
213.1516809331
 11
330.9152976753
 21
213.1896214099
  0
LINE
  5
3D9
100
AcDbEntity
  8
0
100
AcDbLine
 62
7
  6
CONTINUOUS
 10
288.8382367479
 20
212.0896214099
 11
330.8981372729
 21
212.0896214099
  0
LINE
  5
3DA
100
AcDbEntity
  8
0
100
AcDbLine
 62
7
  6
CONTINUOUS
 10
303.8681870104
 20
220.0896214099
 11
303.8887419367
 21
220.0690664836
  0
LINE
  5
3DB
100
AcDbEntity
  8
0
100
AcDbLine
 62
7
  6
CONTINUOUS
 10
330.8773571985
 20
194.0275618868
 11
330.9152976753
 21
193.9896214099
  0
LINE
  5
3DC
100
AcDbEntity
  8
0
100
AcDbLine
 62
7
  6
CONTINUOUS
 10
311.8195250104
 20
218.0339614099
 11
311.0905710104
 21
219.5396214099
  0
LINE
  5
3DD
100
AcDbEntity
  8
0
100
AcDbLine
 62
7
  6
CONTINUOUS
 10
310.8669150104
 20
219.2297934099
 11
311.6221820104
 21
217.6396214099
  0
LINE
  5
3DE
100
AcDbEntity
  8
0
100
AcDbLine
 62
7
  6
CONTINUOUS
 10
313.6774830104
 20
218.0423154099
 11
313.8144080104
 21
217.6396214099
  0
LINE
  5
3DF
100
AcDbEntity
  8
0
100
AcDbLine
 62
7
  6
CONTINUOUS
 10
313.3118090104
 20
219.1764444099
 11
313.5748080104
 21
218.3580644099
  0
LINE
  5
3E0
100
AcDbEntity
  8
0
100
AcDbLine
 62
7
  6
CONTINUOUS
 10
312.0186190104
 20
221.1711274099
 11
311.4356990104
 21
223.0709734099
  0
LINE
  5
3E1
100
AcDbEntity
  8
0
100
AcDbLine
 62
7
  6
CONTINUOUS
 10
313.0785679517
 20
221.3723565265
 11
313.1373440757
 21
221.1711276639
  0
LINE
  5
3E2
100
AcDbEntity
  8
0
100
AcDbLine
 62
7
  6
CONTINUOUS
 10
313.4296953378
 20
221.5111716137
 11
313.3832396499
 21
221.6852946301
  0
LWPOLYLINE
  5
3E3
100
AcDbEntity
  8
0
100
AcDbPolyline
 62
7
  6
CONTINUOUS
 90
25
 70
0
 10
313.3832396499
 20
221.6852946301
 10
313.3774976725
 20
221.7071761039
 10
313.3716936829
 20
221.7283779448
 10
313.3658276811
 20
221.748900156
 10
313.3599611936
 20
221.7687027732
 10
313.3540326938
 20
221.7878257667
 10
313.3478576023
 20
221.8063890407
 10
313.3414023878
 20
221.8243921678
 10
313.3347005814
 20
221.8418355797
 10
313.3276681967
 20
221.8588404684
 10
313.3203215991
 20
221.87541922
 10
313.3126444231
 20
221.8915594516
 10
313.3045035865
 20
221.9073452002
 10
313.2959002901
 20
221.9228309072
 10
313.286833333
 20
221.9379621335
 10
313.2771660301
 20
221.9526595958
 10
313.2668929863
 20
221.9669711334
 10
313.2560195966
 20
221.9808489097
 10
313.244425361
 20
221.9940701275
 10
313.2320771195
 20
222.0066762581
 10
313.219008032
 20
222.018625834
 10
313.2051970785
 20
222.0295716518
 10
313.1906372522
 20
222.0393979791
 10
313.1753355599
 20
222.0482205533
 10
313.1592920015
 20
222.0560393761
  0
LINE
  5
3E4
100
AcDbEntity
  8
0
100
AcDbLine
 62
7
  6
CONTINUOUS
 10
313.5188005609
 20
221.1711276639
 11
313.4296953378
 21
221.5111716137
  0
LINE
  5
3E5
100
AcDbEntity
  8
0
100
AcDbLine
 62
250
  6
CONTINUOUS
 10
322.5203297958
 20
213.5027426263
 11
322.5181870104
 21
213.4963090425
  0
LINE
  5
3E6
100
AcDbEntity
  8
0
100
AcDbLine
 62
250
  6
CONTINUOUS
 10
322.7202993349
 20
213.3030167194
 11
322.7171044198
 21
213.2934241796
  0
LINE
  5
3E7
100
AcDbEntity
  8
0
100
AcDbLine
 62
7
  6
CONTINUOUS
 10
313.0132670104
 20
184.4646214099
 11
313.1438680104
 21
184.8284504099
  0
LINE
  5
3E8
100
AcDbEntity
  8
0
100
AcDbLine
 62
7
  6
CONTINUOUS
 10
313.1961020104
 20
184.9781674099
 11
313.3981040104
 21
185.5333104099
  0
LINE
  5
3E9
100
AcDbEntity
  8
0
100
AcDbLine
 62
7
  6
CONTINUOUS
 10
313.3092940104
 20
185.7146214099
 11
312.8391970104
 21
184.4646214099
  0
LWPOLYLINE
  5
3EA
100
AcDbEntity
  8
0
100
AcDbPolyline
 62
7
  6
CONTINUOUS
 90
10
 70
0
 10
311.3364681231
 20
189.0289119633
 10
311.3475234842
 20
189.0470745522
 10
311.3572470741
 20
189.0655511944
 10
311.3656388928
 20
189.084341891
 10
311.3726756651
 20
189.1033635697
 10
311.3783806661
 20
189.1226993046
 10
311.3828237212
 20
189.1425983167
 10
311.3860281054
 20
189.1631436817
 10
311.3879705436
 20
189.184252328
 10
311.3886510359
 20
189.2059242578
  0
LWPOLYLINE
  5
3EB
100
AcDbEntity
  8
0
100
AcDbPolyline
 62
7
  6
CONTINUOUS
 90
10
 70
0
 10
311.876713656
 20
188.2666336933
 10
311.8840258022
 20
188.2780542465
 10
311.8916661552
 20
188.2893938365
 10
311.8996347148
 20
188.3006524632
 10
311.9079363432
 20
188.3118436907
 10
311.9165661782
 20
188.3229539546
 10
311.9255096343
 20
188.3339425614
 10
311.9347618494
 20
188.3447959464
 10
311.9443276855
 20
188.3555276739
 10
311.9542071425
 20
188.3661377435
  0
LWPOLYLINE
  5
3EC
100
AcDbEntity
  8
0
100
AcDbPolyline
 62
7
  6
CONTINUOUS
 90
10
 70
0
 10
307.3941348784
 20
189.3951847539
 10
307.3687608761
 20
189.3731978071
 10
307.3422271729
 20
189.3518000552
 10
307.3145337689
 20
189.3309914961
 10
307.2856819411
 20
189.3107457311
 10
307.2556704124
 20
189.2910891549
 10
307.224495352
 20
189.2721009548
 10
307.1921554828
 20
189.2538075252
 10
307.1586520818
 20
189.2361824673
 10
307.1239851491
 20
189.2192257793
  0
LWPOLYLINE
  5
3ED
100
AcDbEntity
  8
0
100
AcDbPolyline
 62
7
  6
CONTINUOUS
 90
10
 70
0
 10
309.7249670469
 20
189.3951847539
 10
309.699593016
 20
189.3731977822
 10
309.6730592942
 20
189.3518000132
 10
309.6453658814
 20
189.3309914449
 10
309.6165140582
 20
189.3107456809
 10
309.586502544
 20
189.2910891135
 10
309.555327497
 20
189.2721009236
 10
309.5229876366
 20
189.2538075031
 10
309.4894842435
 20
189.2361824557
 10
309.4548173176
 20
189.2192257793
  0
LINE
  5
3EE
100
AcDbEntity
  8
0
100
AcDbLine
 62
7
  6
CONTINUOUS
 10
288.8495318418
 20
187.1052081408
 11
288.8027336228
 21
187.0896214099
  0
LINE
  5
3EF
100
AcDbEntity
  8
0
100
AcDbLine
 62
7
  6
CONTINUOUS
 10
296.0931167603
 20
190.2074501061
 11
296.1657014786
 21
190.2297388966
  0
LINE
  5
3F0
100
AcDbEntity
  8
0
100
AcDbLine
 62
7
  6
CONTINUOUS
 10
296.1657014786
 20
190.2297388966
 11
296.2003237927
 21
190.2402078603
  0
LWPOLYLINE
  5
3F1
100
AcDbEntity
  8
0
100
AcDbPolyline
 62
7
  6
CONTINUOUS
 90
46
 70
0
 10
296.0931167603
 20
190.2074501061
 10
296.0841504662
 20
190.204791025
 10
296.0754267763
 20
190.2024113977
 10
296.0669506633
 20
190.2002981979
 10
296.0587329449
 20
190.1984412115
 10
296.0507705237
 20
190.1968249837
 10
296.0430465632
 20
190.1954298407
 10
296.0355637725
 20
190.1942445724
 10
296.0283236823
 20
190.1932581035
 10
296.0213071847
 20
190.1924530891
 10
296.0145158167
 20
190.1918197879
 10
296.007949813
 20
190.1913488506
 10
296.0015879527
 20
190.1910256365
 10
295.9954311425
 20
190.1908418581
 10
295.9894786482
 20
190.1907898491
 10
295.9837069557
 20
190.1908580485
 10
295.9781166804
 20
190.1910395674
 10
295.9727065343
 20
190.1913283919
 10
295.9674506428
 20
190.1917164962
 10
295.9623496759
 20
190.1921983155
 10
295.9574021085
 20
190.1927694503
 10
295.9525796096
 20
190.1934259533
 10
295.9478832421
 20
190.1941634928
 10
295.9433115141
 20
190.1949792702
 10
295.9388334813
 20
190.1958741241
 10
295.9344509868
 20
190.1968448489
 10
295.930162802
 20
190.1978903028
 10
295.9259350657
 20
190.1990171467
 10
295.9217714699
 20
190.20022298
 10
295.9176707043
 20
190.2015086914
 10
295.9135938032
 20
190.2028890603
 10
295.9095411631
 20
190.2043647247
 10
295.9055178671
 20
190.2059369691
 10
295.9014948938
 20
190.2076247983
 10
295.8974637065
 20
190.2094358107
 10
295.8934422123
 20
190.2113673464
 10
295.8894425759
 20
190.2134243072
 10
295.8854583556
 20
190.2156156798
 10
295.8815062236
 20
190.2179364656
 10
295.8776310096
 20
190.2203684092
 10
295.8738386517
 20
190.2229109753
 10
295.8701293574
 20
190.225563855
 10
295.8665353607
 20
190.2283056723
 10
295.8630673049
 20
190.2311272961
 10
295.8597163917
 20
190.2340334743
 10
295.8564836851
 20
190.2370221482
  0
LWPOLYLINE
  5
3F2
100
AcDbEntity
  8
0
100
AcDbPolyline
 62
250
  6
CONTINUOUS
 90
13
 70
0
 10
323.534210162
 20
213.3164972047
 10
323.5602337573
 20
213.3182711218
 10
323.5858138052
 20
213.3234201076
 10
323.610514156
 20
213.3318564306
 10
323.6339136517
 20
213.3434363095
 10
323.6556132906
 20
213.3579623556
 10
323.6752430359
 20
213.3751869288
 10
323.6924681557
 20
213.394816383
 10
323.7069949016
 20
213.4165160484
 10
323.7185755183
 20
213.4399159159
 10
323.7270125053
 20
213.4646169938
 10
323.7321619719
 20
213.4901981195
 10
323.7339360754
 20
213.5162231052
  0
LWPOLYLINE
  5
3F3
100
AcDbEntity
  8
0
100
AcDbPolyline
 62
250
  6
CONTINUOUS
 90
13
 70
0
 10
297.016074686
 20
213.3030167194
 10
297.0421857522
 20
213.3047505106
 10
297.0678478528
 20
213.3098740553
 10
297.0926217825
 20
213.3182988984
 10
297.1160827306
 20
213.3298795515
 10
297.137830596
 20
213.3444174384
 10
297.1574960282
 20
213.3616655416
 10
297.174748761
 20
213.3813377649
 10
297.189284178
 20
213.4030908484
 10
297.2008415569
 20
213.4265252907
 10
297.2092305742
 20
213.4512262129
 10
297.2143234477
 20
213.4767775662
 10
297.216044225
 20
213.5027426263
  0
LINE
  5
3F4
100
AcDbEntity
  8
0
100
AcDbLine
 62
250
  6
CONTINUOUS
 10
323.1670551267
 20
213.3264301983
 11
322.7202993349
 21
213.3030167194
  0
LINE
  5
3F5
100
AcDbEntity
  8
0
100
AcDbLine
 62
250
  6
CONTINUOUS
 10
323.0256337705
 20
213.5261561053
 11
322.5788779786
 21
213.5027426263
  0
LWPOLYLINE
  5
3F6
100
AcDbEntity
  8
0
100
AcDbPolyline
 62
250
  6
CONTINUOUS
 90
9
 70
0
 10
296.0883203999
 20
213.5221872769
 10
296.0709560479
 20
213.521562998
 10
296.0553957382
 20
213.5209112062
 10
296.0417320036
 20
213.5202371068
 10
296.0300064433
 20
213.5195354945
 10
296.0199018481
 20
213.5187853871
 10
296.0116421312
 20
213.5179797904
 10
296.0057097362
 20
213.5171256986
 10
296.0024379519
 20
213.5162231116
  0
LINE
  5
3F7
100
AcDbEntity
  8
0
100
AcDbLine
 62
250
  6
CONTINUOUS
 10
296.130803409
 20
213.5233803421
 11
296.0883203999
 21
213.5221872769
  0
LINE
  5
3F8
100
AcDbEntity
  8
0
100
AcDbLine
 62
250
  6
CONTINUOUS
 10
296.1842125162
 20
213.5244682895
 11
296.130803409
 21
213.5233803421
  0
LINE
  5
3F9
100
AcDbEntity
  8
0
100
AcDbLine
 62
7
  6
CONTINUOUS
 10
297.0192696011
 20
213.2934241796
 11
296.7181870104
 21
213.2891961906
  0
LINE
  5
3FA
100
AcDbEntity
  8
0
100
AcDbLine
 62
250
  6
CONTINUOUS
 10
296.2493237511
 20
213.5253638666
 11
296.1842125162
 21
213.5244682895
  0
LINE
  5
3FB
100
AcDbEntity
  8
0
100
AcDbLine
 62
7
  6
CONTINUOUS
 10
289.012126303
 20
214.0123700769
 11
288.9624699643
 21
214.0117681839
  0
LWPOLYLINE
  5
3FC
100
AcDbEntity
  8
0
100
AcDbPolyline
 62
7
  6
CONTINUOUS
 90
15
 70
0
 10
330.6084455417
 20
213.1368488774
 10
330.6382817132
 20
213.1370878619
 10
330.6672564009
 20
213.1374805209
 10
330.695676823
 20
213.1380347251
 10
330.7232357612
 20
213.1387426039
 10
330.7490115607
 20
213.139580545
 10
330.7728984213
 20
213.1405508856
 10
330.7950021431
 20
213.1416512885
 10
330.8147184718
 20
213.1428511298
 10
330.8320058222
 20
213.1441548756
 10
330.8469057795
 20
213.1455580598
 10
330.8589388455
 20
213.1470166599
 10
330.8679451877
 20
213.1485160017
 10
330.8740846387
 20
213.1500707595
 10
330.8773571985
 20
213.1516809331
  0
LWPOLYLINE
  5
3FD
100
AcDbEntity
  8
0
100
AcDbPolyline
 62
250
  6
CONTINUOUS
 90
18
 70
0
 10
296.3815943381
 20
213.326364861
 10
296.3621611732
 20
213.3262131286
 10
296.3435902711
 20
213.3259750011
 10
296.3257055403
 20
213.3256381941
 10
296.3086830723
 20
213.3252149921
 10
296.2930511418
 20
213.3247422483
 10
296.2790182347
 20
213.3242231179
 10
296.2663758651
 20
213.3236544458
 10
296.2550268502
 20
213.3230636203
 10
296.245050019
 20
213.3224616106
 10
296.2363665424
 20
213.3218374475
 10
296.2286427502
 20
213.321185612
 10
296.2217534255
 20
213.3205111251
 10
296.2158237853
 20
213.3198089659
 10
296.2108958104
 20
213.3190585525
 10
296.2069834945
 20
213.3182530241
 10
296.204072844
 20
213.3173992415
 10
296.2021638588
 20
213.3164972047
  0
LINE
  5
3FE
100
AcDbEntity
  8
0
100
AcDbLine
 62
250
  6
CONTINUOUS
 10
296.3228180959
 20
213.5259386965
 11
296.2493237511
 21
213.5253638666
  0
LINE
  5
3FF
100
AcDbEntity
  8
0
100
AcDbLine
 62
7
  6
CONTINUOUS
 10
289.0971145923
 20
214.0129211534
 11
289.012126303
 21
214.0123700769
  0
LINE
  5
400
100
AcDbEntity
  8
0
100
AcDbLine
 62
7
  6
CONTINUOUS
 10
330.6084455417
 20
213.1368488774
 11
323.0181870104
 21
213.1367635649
  0
LINE
  5
401
100
AcDbEntity
  8
0
100
AcDbLine
 62
7
  6
CONTINUOUS
 10
330.9152976753
 20
213.1896214099
 11
323.6610859568
 21
213.1896214099
  0
LINE
  5
402
100
AcDbEntity
  8
0
100
AcDbLine
 62
7
  6
CONTINUOUS
 10
296.0752880641
 20
213.1896214099
 11
288.8210763456
 21
213.1896214099
  0
LINE
  5
403
100
AcDbEntity
  8
0
100
AcDbLine
 62
250
  6
CONTINUOUS
 10
296.5693188942
 20
213.3264301983
 11
296.3815943381
 21
213.326364861
  0
LINE
  5
404
100
AcDbEntity
  8
0
100
AcDbLine
 62
250
  6
CONTINUOUS
 10
322.5788779786
 20
213.5027426263
 11
322.5203297958
 21
213.5027426263
  0
LINE
  5
405
100
AcDbEntity
  8
0
100
AcDbLine
 62
250
  6
CONTINUOUS
 10
297.216044225
 20
213.5027426263
 11
297.1574960423
 21
213.5027426263
  0
LINE
  5
406
100
AcDbEntity
  8
0
100
AcDbLine
 62
250
  6
CONTINUOUS
 10
296.7107402504
 20
213.5261561053
 11
296.3228180959
 21
213.5259386965
  0
LINE
  5
407
100
AcDbEntity
  8
0
100
AcDbLine
 62
7
  6
CONTINUOUS
 10
330.9152976753
 20
213.9957306826
 11
323.8608118638
 21
213.9957306826
  0
LINE
  5
408
100
AcDbEntity
  8
0
100
AcDbLine
 62
7
  6
CONTINUOUS
 10
295.8755621571
 20
213.9957306826
 11
288.8210763456
 21
213.9957306826
  0
LINE
  5
409
100
AcDbEntity
  8
0
100
AcDbLine
 62
7
  6
CONTINUOUS
 10
289.0971145923
 20
214.0129211534
 11
295.8236241824
 21
214.0130292733
  0
LINE
  5
40A
100
AcDbEntity
  8
0
100
AcDbLine
 62
7
  6
CONTINUOUS
 10
330.639259403
 20
214.0129211549
 11
323.9127498385
 21
214.0130292733
  0
LINE
  5
40B
100
AcDbEntity
  8
0
100
AcDbLine
 62
250
  6
CONTINUOUS
 10
323.3517787428
 20
213.3263774414
 11
323.1670551267
 21
213.3264301983
  0
LINE
  5
40C
100
AcDbEntity
  8
0
100
AcDbLine
 62
250
  6
CONTINUOUS
 10
323.4017507633
 20
213.5259953996
 11
323.0256337705
 21
213.5261561053
  0
LINE
  5
40D
100
AcDbEntity
  8
0
100
AcDbLine
 62
250
  6
CONTINUOUS
 10
323.4621719571
 20
213.5256140984
 11
323.4017507633
 21
213.5259953996
  0
LINE
  5
40E
100
AcDbEntity
  8
0
100
AcDbLine
 62
7
  6
CONTINUOUS
 10
330.7242477525
 20
214.0123700785
 11
330.639259403
 21
214.0129211549
  0
LINE
  5
40F
100
AcDbEntity
  8
0
100
AcDbLine
 62
250
  6
CONTINUOUS
 10
323.5159664456
 20
213.5250153683
 11
323.4621719571
 21
213.5256140984
  0
LINE
  5
410
100
AcDbEntity
  8
0
100
AcDbLine
 62
7
  6
CONTINUOUS
 10
330.7739040902
 20
214.0117681851
 11
330.7242477525
 21
214.0123700785
  0
LINE
  5
411
100
AcDbEntity
  8
0
100
AcDbLine
 62
7
  6
CONTINUOUS
 10
323.0181870104
 20
213.2891961906
 11
322.7171044198
 21
213.2934241796
  0
LINE
  5
412
100
AcDbEntity
  8
0
100
AcDbLine
 62
250
  6
CONTINUOUS
 10
323.5661112109
 20
213.5242232542
 11
323.5159664456
 21
213.5250153683
  0
LWPOLYLINE
  5
413
100
AcDbEntity
  8
0
100
AcDbPolyline
 62
250
  6
CONTINUOUS
 90
4
 70
0
 10
323.4120123099
 20
213.3256146475
 10
323.3983216252
 20
213.3258883304
 10
323.3837625518
 20
213.326107056
 10
323.3517787428
 20
213.3263774414
  0
LINE
  5
414
100
AcDbEntity
  8
0
100
AcDbLine
 62
250
  6
CONTINUOUS
 10
297.016074686
 20
213.3030167194
 11
296.5693188942
 21
213.3264301983
  0
LINE
  5
415
100
AcDbEntity
  8
0
100
AcDbLine
 62
250
  6
CONTINUOUS
 10
297.1574960423
 20
213.5027426263
 11
296.7107402504
 21
213.5261561053
  0
LWPOLYLINE
  5
416
100
AcDbEntity
  8
0
100
AcDbPolyline
 62
250
  6
CONTINUOUS
 90
13
 70
0
 10
322.7202993349
 20
213.3030167194
 10
322.6941884786
 20
213.3047504828
 10
322.6685265829
 20
213.3098739439
 10
322.6437528419
 20
213.3182986481
 10
322.6202920889
 20
213.3298790902
 10
322.5985443746
 20
213.3444167096
 10
322.5788789556
 20
213.3616645787
 10
322.5616260939
 20
213.381336678
 10
322.547090477
 20
213.4030897502
 10
322.5355328765
 20
213.4265242948
 10
322.5271436557
 20
213.4512254336
 10
322.5220506318
 20
213.4767771226
 10
322.5203297958
 20
213.5027426263
  0
LWPOLYLINE
  5
417
100
AcDbEntity
  8
0
100
AcDbPolyline
 62
250
  6
CONTINUOUS
 90
13
 70
0
 10
296.2021638588
 20
213.3164972047
 10
296.1761394985
 20
213.3182712245
 10
296.1505588726
 20
213.3234204705
 10
296.1258581496
 20
213.3318571442
 10
296.1024584951
 20
213.343437394
 10
296.0807588907
 20
213.3579637681
 10
296.0611293311
 20
213.3751885816
 10
296.0439045147
 20
213.3948181386
 10
296.0293781376
 20
213.4165177406
 10
296.0177978862
 20
213.4399173943
 10
296.0093612127
 20
213.4646181185
 10
296.0042119684
 20
213.4901987471
 10
296.0024379519
 20
213.5162231116
  0
LWPOLYLINE
  5
418
100
AcDbEntity
  8
0
100
AcDbPolyline
 62
250
  6
CONTINUOUS
 90
11
 70
0
 10
296.0024379519
 20
216.6630199491
 10
296.0065970365
 20
216.66194764
 10
296.0147829932
 20
216.6609141764
 10
296.0268905616
 20
216.6599195582
 10
296.0427576267
 20
216.6589557187
 10
296.0622137949
 20
216.6580307246
 10
296.0851184229
 20
216.6571687767
 10
296.1112684033
 20
216.6563702821
 10
296.1403976786
 20
216.6556348336
 10
296.1722632169
 20
216.6549854107
 10
296.2429884959
 20
216.6539491951
  0
LINE
  5
419
100
AcDbEntity
  8
0
100
AcDbLine
 62
7
  6
CONTINUOUS
 10
296.1479727862
 20
216.9549072703
 11
296.2003238295
 21
216.9390349556
  0
LINE
  5
41A
100
AcDbEntity
  8
0
100
AcDbLine
 62
7
  6
CONTINUOUS
 10
296.0931167603
 20
216.9717927137
 11
296.1479727862
 21
216.9549072703
  0
LINE
  5
41B
100
AcDbEntity
  8
0
100
AcDbLine
 62
7
  6
CONTINUOUS
 10
288.8495318418
 20
220.0740346791
 11
288.8027336228
 21
220.0896214099
  0
LWPOLYLINE
  5
41C
100
AcDbEntity
  8
0
100
AcDbPolyline
 62
250
  6
CONTINUOUS
 90
14
 70
0
 10
331.2557398123
 20
188.5306138806
 10
331.180309513
 20
188.653112676
 10
331.1574540325
 20
188.6898703615
 10
331.1357472389
 20
188.7241996917
 10
331.1152173956
 20
188.7563160543
 10
331.0959588255
 20
188.7858182473
 10
331.0778772057
 20
188.8127648157
 10
331.060717831
 20
188.8378286011
 10
331.0442868445
 20
188.8608205084
 10
331.028778103
 20
188.8811546513
 10
331.0145184713
 20
188.89859393
 10
331.0016169042
 20
188.9127188963
 10
330.9899644468
 20
188.923028458
 10
330.9795610992
 20
188.9290917598
  0
LWPOLYLINE
  5
41D
100
AcDbEntity
  8
0
100
AcDbPolyline
 62
7
  6
CONTINUOUS
 90
9
 70
0
 10
330.9270170903
 20
189.1749648171
 10
330.9210645267
 20
189.1847163548
 10
330.9152575572
 20
189.194118064
 10
330.9095998775
 20
189.2031566686
 10
330.9040877918
 20
189.2118454446
 10
330.898710213
 20
189.2202242197
 10
330.8934634454
 20
189.2283062697
 10
330.8883511847
 20
189.2360783189
 10
330.883373431
 20
189.2435403671
  0
LINE
  5
41E
100
AcDbEntity
  8
0
100
AcDbLine
 62
7
  6
CONTINUOUS
 10
330.9781870104
 20
189.0896214099
 11
330.9270170903
 21
189.1749648171
  0
LINE
  5
41F
100
AcDbEntity
  8
0
100
AcDbLine
 62
7
  6
CONTINUOUS
 10
314.2248250104
 20
217.6396214099
 11
313.5643680104
 21
219.5396214099
  0
LWPOLYLINE
  5
420
100
AcDbEntity
  8
0
100
AcDbPolyline
 62
7
  6
CONTINUOUS
 90
6
 70
0
 10
312.9638428898
 20
221.747462248
 10
312.9841542924
 20
221.6879536488
 10
313.0039894714
 20
221.6272414615
 10
313.0233484268
 20
221.5653256709
 10
313.0419406915
 20
221.5021109578
 10
313.0785679517
 20
221.3723565265
  0
LINE
  5
421
100
AcDbEntity
  8
0
100
AcDbLine
 62
250
  6
CONTINUOUS
 10
322.5203297958
 20
193.6765001935
 11
322.5181870104
 21
193.6829337774
  0
LINE
  5
422
100
AcDbEntity
  8
0
100
AcDbLine
 62
250
  6
CONTINUOUS
 10
322.7202993349
 20
193.8762261005
 11
322.7171044198
 21
193.8858186402
  0
LINE
  5
423
100
AcDbEntity
  8
0
100
AcDbLine
 62
250
  6
CONTINUOUS
 10
322.5203297958
 20
216.6765001935
 11
322.5203297958
 21
213.5027426263
  0
LINE
  5
424
100
AcDbEntity
  8
0
100
AcDbLine
 62
250
  6
CONTINUOUS
 10
322.5203297958
 20
193.6765001935
 11
322.5203297958
 21
190.5027426263
  0
LINE
  5
425
100
AcDbEntity
  8
0
100
AcDbLine
 62
250
  6
CONTINUOUS
 10
322.5788779786
 20
216.6765001935
 11
322.5788779786
 21
213.5027426263
  0
LINE
  5
426
100
AcDbEntity
  8
0
100
AcDbLine
 62
250
  6
CONTINUOUS
 10
322.5788779786
 20
193.6765001935
 11
322.5788779786
 21
190.5027426263
  0
LWPOLYLINE
  5
427
100
AcDbEntity
  8
0
100
AcDbPolyline
 62
7
  6
CONTINUOUS
 90
10
 70
0
 10
312.3351038706
 20
188.9613812874
 10
312.3064359575
 20
188.9263191529
 10
312.2756507026
 20
188.8913073202
 10
312.2427481059
 20
188.8563457889
 10
312.2075918936
 20
188.8215590601
 10
312.1703183394
 20
188.7868226321
 10
312.1313362647
 20
188.751763003
 10
312.090781943
 20
188.7162556746
 10
312.0485191006
 20
188.6804251501
 10
311.974075853
 20
188.6192025842
  0
LWPOLYLINE
  5
428
100
AcDbEntity
  8
0
100
AcDbPolyline
 62
7
  6
CONTINUOUS
 90
10
 70
0
 10
311.7631392704
 20
188.4170429559
 10
311.7453038137
 20
188.3952708644
 10
311.7285320181
 20
188.373389183
 10
311.7128238838
 20
188.3513979124
 10
311.6981541327
 20
188.3292716595
 10
311.6845480428
 20
188.3070358183
 10
311.6720814476
 20
188.2847665692
 10
311.660779625
 20
188.2624893056
 10
311.6506172971
 20
188.2401786344
 10
311.6415944639
 20
188.2178345557
  0
LWPOLYLINE
  5
429
100
AcDbEntity
  8
0
100
AcDbPolyline
 62
7
  6
CONTINUOUS
 90
10
 70
0
 10
312.450978417
 20
188.8189292274
 10
312.468494141
 20
188.8389315065
 10
312.4850744209
 20
188.8590317466
 10
312.5007192568
 20
188.8792299482
 10
312.5154750286
 20
188.8995352195
 10
312.5292953564
 20
188.9199384529
 10
312.5420411004
 20
188.9404123248
 10
312.5536658807
 20
188.9609477274
 10
312.5642160772
 20
188.9815537691
 10
312.5736916899
 20
189.0022304498
  0
LWPOLYLINE
  5
42A
100
AcDbEntity
  8
0
100
AcDbPolyline
 62
7
  6
CONTINUOUS
 90
10
 70
0
 10
311.3188302884
 20
188.1993581492
 10
311.3491637018
 20
188.230904903
 10
311.3758509535
 20
188.2637128637
 10
311.3988920435
 20
188.2977820389
 10
311.4182221053
 20
188.3329650069
 10
311.4339060054
 20
188.3694092044
 10
311.4461383438
 20
188.40755693
 10
311.4549839871
 20
188.4475556258
 10
311.4603780688
 20
188.4892578743
 10
311.4623205887
 20
188.5326636882
  0
LWPOLYLINE
  5
42B
100
AcDbEntity
  8
0
100
AcDbPolyline
 62
7
  6
CONTINUOUS
 90
6
 70
0
 10
311.9542071425
 20
188.3661377435
 10
311.9745076953
 20
188.3858687592
 10
311.9956814835
 20
188.4058795322
 10
312.017728507
 20
188.4261700633
 10
312.0406901952
 20
188.4466859497
 10
312.0645251187
 20
188.4674815962
  0
LWPOLYLINE
  5
42C
100
AcDbEntity
  8
0
100
AcDbPolyline
 62
7
  6
CONTINUOUS
 90
10
 70
0
 10
311.801799766
 20
189.484486362
 10
311.7751876031
 20
189.4590839348
 10
311.751124679
 20
189.4310345963
 10
311.7296109935
 20
189.4003383593
 10
311.7105857544
 20
189.3669452352
 10
311.6941097541
 20
189.330905242
 10
311.680365369
 20
189.2923684039
 10
311.6694133915
 20
189.2513847399
 10
311.6611930293
 20
189.2079042655
 10
311.6557042824
 20
189.1619269998
  0
LWPOLYLINE
  5
42D
100
AcDbEntity
  8
0
100
AcDbPolyline
 62
7
  6
CONTINUOUS
 90
10
 70
0
 10
311.1771065541
 20
188.3052619446
 10
311.1566323344
 20
188.2863551189
 10
311.1352447198
 20
188.2697016609
 10
311.1129437104
 20
188.2553015637
 10
311.0898059552
 20
188.2431824961
 10
311.0657548052
 20
188.2333167781
 10
311.0405603131
 20
188.2256213812
 10
311.0141458299
 20
188.2200686274
 10
310.9865880048
 20
188.2166861893
 10
310.9578868376
 20
188.2154740655
  0
LWPOLYLINE
  5
42E
100
AcDbEntity
  8
0
100
AcDbPolyline
 62
7
  6
CONTINUOUS
 90
10
 70
0
 10
311.9258269595
 20
189.3634959908
 10
311.9440142602
 20
189.3801303955
 10
311.9635543746
 20
189.3948328734
 10
311.9844473026
 20
189.4076034198
 10
312.0066768561
 20
189.4184550303
 10
312.0302592232
 20
189.4273747014
 10
312.0552429683
 20
189.43432343
 10
312.0816442795
 20
189.4392882139
 10
312.1094469687
 20
189.4422820513
 10
312.1386510359
 20
189.4433049412
  0
LWPOLYLINE
  5
42F
100
AcDbEntity
  8
0
100
AcDbPolyline
 62
7
  6
CONTINUOUS
 90
10
 70
0
 10
310.6519522892
 20
189.4934413286
 10
310.6270914624
 20
189.4707140039
 10
310.6041322796
 20
189.4456972689
 10
310.5830747409
 20
189.4183911335
 10
310.5638518316
 20
189.3887782062
 10
310.5465305663
 20
189.3568759011
 10
310.531311989
 20
189.3227364367
 10
310.5182631142
 20
189.2863772283
 10
310.5073169273
 20
189.247780888
 10
310.4984734283
 20
189.2069474311
  0
LWPOLYLINE
  5
430
100
AcDbEntity
  8
0
100
AcDbPolyline
 62
7
  6
CONTINUOUS
 90
10
 70
0
 10
310.7744931686
 20
189.3770522392
 10
310.7904796911
 20
189.3909581334
 10
310.8074264476
 20
189.4032686145
 10
310.825333438
 20
189.413983679
 10
310.8441690384
 20
189.4231196971
 10
310.8639648726
 20
189.4306602932
 10
310.8848158131
 20
189.4365563464
 10
310.9067534839
 20
189.4407914819
 10
310.929746261
 20
189.4433820715
 10
310.9537941442
 20
189.4443281145
  0
LWPOLYLINE
  5
431
100
AcDbEntity
  8
0
100
AcDbPolyline
 62
7
  6
CONTINUOUS
 90
9
 70
0
 10
311.974075853
 20
188.6192025842
 10
311.9444706962
 20
188.5941256359
 10
311.9157322669
 20
188.569040587
 10
311.8877999616
 20
188.5439962243
 10
311.860734384
 20
188.5189437611
 10
311.8347173449
 20
188.4937368378
 10
311.8098094481
 20
188.4683266687
 10
311.78595009
 20
188.4427620411
 10
311.7631392704
 20
188.4170429559
  0
LWPOLYLINE
  5
432
100
AcDbEntity
  8
0
100
AcDbPolyline
 62
7
  6
CONTINUOUS
 90
10
 70
0
 10
307.3175919231
 20
189.1359680482
 10
307.3394867697
 20
189.1491253639
 10
307.3607915541
 20
189.1625124328
 10
307.3815062763
 20
189.1761292553
 10
307.4016705258
 20
189.1899547953
 10
307.4212447131
 20
189.20401009
 10
307.4401100699
 20
189.2183582498
 10
307.4582270066
 20
189.2330203121
 10
307.4756351128
 20
189.247975241
 10
307.4923343884
 20
189.2632230373
  0
LWPOLYLINE
  5
433
100
AcDbEntity
  8
0
100
AcDbPolyline
 62
7
  6
CONTINUOUS
 90
10
 70
0
 10
309.6484241117
 20
189.1359680137
 10
309.6703189656
 20
189.1491253304
 10
309.6916237544
 20
189.1625124004
 10
309.712338478
 20
189.1761292243
 10
309.7325027267
 20
189.1899547654
 10
309.7520769103
 20
189.2040100614
 10
309.7709422577
 20
189.2183582246
 10
309.7890591786
 20
189.2330202932
 10
309.8064672634
 20
189.2479752305
 10
309.8231665121
 20
189.2632230373
  0
LWPOLYLINE
  5
434
100
AcDbEntity
  8
0
100
AcDbPolyline
 62
7
  6
CONTINUOUS
 90
10
 70
0
 10
307.1239851491
 20
189.0411903115
 10
307.1451947979
 20
189.0492336495
 10
307.1664781075
 20
189.0579275993
 10
307.1878350778
 20
189.0672721616
 10
307.209263185
 20
189.0773056493
 10
307.2307649529
 20
189.0879897519
 10
307.2523479535
 20
189.0992095355
 10
307.2740147107
 20
189.1109266896
 10
307.2957627005
 20
189.1231795267
 10
307.3175919231
 20
189.1359680482
  0
LWPOLYLINE
  5
435
100
AcDbEntity
  8
0
100
AcDbPolyline
 62
250
  6
CONTINUOUS
 90
13
 70
0
 10
323.1670551267
 20
216.8528126215
 10
323.1490003805
 20
216.8502369293
 10
323.1312418243
 20
216.8444396536
 10
323.1140695676
 20
216.8355161349
 10
323.0977647719
 20
216.8236133685
 10
323.0825927894
 20
216.8089260037
 10
323.0687993987
 20
216.7916919125
 10
323.0566055239
 20
216.7721835183
 10
323.0462170007
 20
216.7507260424
 10
323.0378123701
 20
216.7276964862
 10
323.0315243659
 20
216.7034842867
 10
323.0274450802
 20
216.6784783547
 10
323.0256337705
 20
216.6530867146
  0
LWPOLYLINE
  5
436
100
AcDbEntity
  8
0
100
AcDbPolyline
 62
250
  6
CONTINUOUS
 90
13
 70
0
 10
296.5693188942
 20
213.3264301983
 10
296.5873736404
 20
213.3290058906
 10
296.6051321966
 20
213.3348031662
 10
296.6223044533
 20
213.343726685
 10
296.6386092491
 20
213.3556294514
 10
296.6537812316
 20
213.3703168162
 10
296.6675746223
 20
213.3875509074
 10
296.6797684971
 20
213.4070593016
 10
296.6901570202
 20
213.4285167776
 10
296.6985616508
 20
213.4515463338
 10
296.704849655
 20
213.4757585332
 10
296.7089289407
 20
213.5007644652
 10
296.7107402504
 20
213.5261561053
  0
LWPOLYLINE
  5
437
100
AcDbEntity
  8
0
100
AcDbPolyline
 62
250
  6
CONTINUOUS
 90
13
 70
0
 10
322.7202993349
 20
216.8762261005
 10
322.7022513428
 20
216.8736519871
 10
322.6844984147
 20
216.86785835
 10
322.6673304363
 20
216.8589399769
 10
322.6510285905
 20
216.8470434107
 10
322.6358580144
 20
216.8323626399
 10
322.6220641539
 20
216.8151344347
 10
322.6098684124
 20
216.7956308771
 10
322.5994767512
 20
216.77417631
 10
322.591067583
 20
216.7511453483
 10
322.5847745718
 20
216.7269262386
 10
322.5806912254
 20
216.7019084085
 10
322.5788779786
 20
216.6765001935
  0
LWPOLYLINE
  5
438
100
AcDbEntity
  8
0
100
AcDbPolyline
 62
250
  6
CONTINUOUS
 90
13
 70
0
 10
297.016074686
 20
213.3030167194
 10
297.0341226781
 20
213.3055908328
 10
297.0518756062
 20
213.3113844698
 10
297.0690435846
 20
213.3203028429
 10
297.0853454304
 20
213.3321994092
 10
297.1005160065
 20
213.3468801799
 10
297.114309867
 20
213.3641083851
 10
297.1265056085
 20
213.3836119427
 10
297.1368972697
 20
213.4050665099
 10
297.1453064379
 20
213.4280974715
 10
297.1515994491
 20
213.4523165812
 10
297.1556827955
 20
213.4773344114
 10
297.1574960423
 20
213.5027426263
  0
LWPOLYLINE
  5
439
100
AcDbEntity
  8
0
100
AcDbPolyline
 62
250
  6
CONTINUOUS
 90
13
 70
0
 10
322.7202993349
 20
216.8762261005
 10
322.6941882687
 20
216.8744923092
 10
322.6685261682
 20
216.8693687645
 10
322.6437522384
 20
216.8609439214
 10
322.6202912903
 20
216.8493632683
 10
322.598543425
 20
216.8348253814
 10
322.5788779927
 20
216.8175772783
 10
322.5616252599
 20
216.797905055
 10
322.5470898429
 20
216.7761519715
 10
322.535532464
 20
216.7527175292
 10
322.5271434467
 20
216.728016607
 10
322.5220505731
 20
216.7024652536
 10
322.5203297958
 20
216.6765001935
  0
LWPOLYLINE
  5
43A
100
AcDbEntity
  8
0
100
AcDbPolyline
 62
7
  6
CONTINUOUS
 90
7
 70
0
 10
288.9206732593
 20
214.0110028409
 10
288.9034008577
 20
214.0105691823
 10
288.8885178961
 20
214.010102524
 10
288.8765004092
 20
214.0096175554
 10
288.867507075
 20
214.0091191733
 10
288.8613792154
 20
214.0086024809
 10
288.8581168304
 20
214.0080674784
  0
LWPOLYLINE
  5
43B
100
AcDbEntity
  8
0
100
AcDbPolyline
 62
250
  6
CONTINUOUS
 90
10
 70
0
 10
323.561774178
 20
216.6549427982
 10
323.5937051829
 20
216.6555843736
 10
323.6230459321
 20
216.656313615
 10
323.6495189063
 20
216.6571101635
 10
323.6728423187
 20
216.6579762035
 10
323.6927372576
 20
216.6589095505
 10
323.708967212
 20
216.6598832918
 10
323.7213385868
 20
216.6608884566
 10
323.7296993427
 20
216.6619340156
 10
323.733936069
 20
216.6630199689
  0
LINE
  5
43C
100
AcDbEntity
  8
0
100
AcDbLine
 62
7
  6
CONTINUOUS
 10
288.9624699643
 20
214.0117681839
 11
288.9206732593
 21
214.0110028409
  0
LWPOLYLINE
  5
43D
100
AcDbEntity
  8
0
100
AcDbPolyline
 62
250
  6
CONTINUOUS
 90
13
 70
0
 10
297.016074686
 20
216.8762261005
 10
297.0421855423
 20
216.874492337
 10
297.067847438
 20
216.869368876
 10
297.092621179
 20
216.8609441717
 10
297.116081932
 20
216.8493637297
 10
297.1378296463
 20
216.8348261103
 10
297.1574950653
 20
216.8175782411
 10
297.174747927
 20
216.7979061419
 10
297.1892835439
 20
216.7761530697
 10
297.2008411443
 20
216.752718525
 10
297.2092303652
 20
216.7280173862
 10
297.2143233891
 20
216.7024656972
 10
297.216044225
 20
216.6765001935
  0
LWPOLYLINE
  5
43E
100
AcDbEntity
  8
0
100
AcDbPolyline
 62
250
  6
CONTINUOUS
 90
13
 70
0
 10
296.5693188942
 20
216.8528126215
 10
296.5873735003
 20
216.850236962
 10
296.6051319204
 20
216.84443977
 10
296.622304052
 20
216.8355163846
 10
296.6386087188
 20
216.8236138164
 10
296.6537806005
 20
216.8089266991
 10
296.6675739793
 20
216.7916928214
 10
296.6797679345
 20
216.7721845386
 10
296.6901565858
 20
216.7507270707
 10
296.6985613612
 20
216.7276974173
 10
296.7048495017
 20
216.7034850145
 10
296.7089288923
 20
216.6784787687
 10
296.7107402504
 20
216.6530867146
  0
LWPOLYLINE
  5
43F
100
AcDbEntity
  8
0
100
AcDbPolyline
 62
250
  6
CONTINUOUS
 90
13
 70
0
 10
297.016074686
 20
216.8762261005
 10
297.0341227935
 20
216.8736519601
 10
297.0518758308
 20
216.8678582554
 10
297.0690439068
 20
216.8589397765
 10
297.0853458495
 20
216.8470430567
 10
297.1005164987
 20
216.8323620977
 10
297.1143103641
 20
216.8151337323
 10
297.1265060398
 20
216.7956300951
 10
297.1368975994
 20
216.7741755296
 10
297.1453066559
 20
216.7511446475
 10
297.1515995639
 20
216.7269256937
 10
297.1556828316
 20
216.7019080996
 10
297.1574960423
 20
216.6765001935
  0
LWPOLYLINE
  5
440
100
AcDbEntity
  8
0
100
AcDbPolyline
 62
250
  6
CONTINUOUS
 90
13
 70
0
 10
322.7202993349
 20
213.3030167194
 10
322.7022512274
 20
213.3055908597
 10
322.6844981901
 20
213.3113845644
 10
322.667330114
 20
213.3203030433
 10
322.6510281713
 20
213.3321997631
 10
322.6358575222
 20
213.3468807221
 10
322.6220636568
 20
213.3641090876
 10
322.6098679811
 20
213.3836127248
 10
322.5994764215
 20
213.4050672903
 10
322.5910673649
 20
213.4280981724
 10
322.584774457
 20
213.4523171262
 10
322.5806911893
 20
213.4773347202
 10
322.5788779786
 20
213.5027426263
  0
LWPOLYLINE
  5
441
100
AcDbEntity
  8
0
100
AcDbPolyline
 62
250
  6
CONTINUOUS
 90
13
 70
0
 10
323.1670551267
 20
213.3264301983
 10
323.1490005206
 20
213.3290058578
 10
323.1312421005
 20
213.3348030498
 10
323.1140699689
 20
213.3437264353
 10
323.0977653021
 20
213.3556290035
 10
323.0825934204
 20
213.3703161207
 10
323.0688000416
 20
213.3875499984
 10
323.0566060863
 20
213.4070582812
 10
323.0462174351
 20
213.4285157491
 10
323.0378126597
 20
213.4515454025
 10
323.0315245192
 20
213.4757578054
 10
323.0274451285
 20
213.5007640511
 10
323.0256337705
 20
213.5261561053
  0
LWPOLYLINE
  5
442
100
AcDbEntity
  8
0
100
AcDbPolyline
 62
7
  6
CONTINUOUS
 90
8
 70
0
 10
296.2003238295
 20
216.9390349556
 10
296.2029311605
 20
216.9385941241
 10
296.2064621044
 20
216.9382122714
 10
296.2109166612
 20
216.9378893975
 10
296.2165399822
 20
216.9376246535
 10
296.2230869161
 20
216.9374188883
 10
296.2298220095
 20
216.9372746487
 10
296.2364268815
 20
216.9372110324
  0
LINE
  5
443
100
AcDbEntity
  8
0
100
AcDbLine
 62
7
  6
CONTINUOUS
 10
330.7233558751
 20
187.1096055793
 11
330.7333471988
 21
187.0896214099
  0
LWPOLYLINE
  5
444
100
AcDbEntity
  8
0
100
AcDbPolyline
 62
250
  6
CONTINUOUS
 90
13
 70
0
 10
323.733936069
 20
193.6630197082
 10
323.7321618958
 20
193.689045236
 10
323.7270122412
 20
193.7146267955
 10
323.7185749857
 20
193.7393281825
 10
323.7069940535
 20
193.7627282369
 10
323.6924669872
 20
193.7844279578
 10
323.6752416032
 20
193.8040573233
 10
323.6556116962
 20
193.8212816891
 10
323.6339120264
 20
193.8358074514
 10
323.6105126674
 20
193.8473870088
 10
323.5858126385
 20
193.8558230267
 10
323.5602330912
 20
193.8609717855
 10
323.5342101589
 20
193.862745612
  0
LINE
  5
445
100
AcDbEntity
  8
0
100
AcDbLine
 62
7
  6
CONTINUOUS
 10
323.0181870104
 20
213.2891961906
 11
323.0181870104
 21
213.1367635649
  0
LINE
  5
446
100
AcDbEntity
  8
0
100
AcDbLine
 62
7
  6
CONTINUOUS
 10
323.0181870104
 20
190.2891961906
 11
323.0181870104
 21
190.1414792744
  0
LINE
  5
447
100
AcDbEntity
  8
0
100
AcDbLine
 62
7
  6
CONTINUOUS
 10
323.0181870104
 20
193.8900466293
 11
323.0181870104
 21
194.042479255
  0
LINE
  5
448
100
AcDbEntity
  8
0
100
AcDbLine
 62
7
  6
CONTINUOUS
 10
323.0181870104
 20
216.8900466293
 11
323.0181870104
 21
217.0377635454
  0
LINE
  5
449
100
AcDbEntity
  8
0
100
AcDbLine
 62
250
  6
CONTINUOUS
 10
323.0256337705
 20
216.6530867146
 11
323.0256337705
 21
213.5261561053
  0
LINE
  5
44A
100
AcDbEntity
  8
0
100
AcDbLine
 62
250
  6
CONTINUOUS
 10
323.0256337705
 20
193.6530867146
 11
323.0256337705
 21
190.5261561053
  0
LINE
  5
44B
100
AcDbEntity
  8
0
100
AcDbLine
 62
250
  6
CONTINUOUS
 10
323.1670551267
 20
190.3264301983
 11
323.1670551267
 21
193.8528126215
  0
LINE
  5
44C
100
AcDbEntity
  8
0
100
AcDbLine
 62
250
  6
CONTINUOUS
 10
323.1670551267
 20
213.3264301983
 11
323.1670551267
 21
216.8528126215
  0
LINE
  5
44D
100
AcDbEntity
  8
0
100
AcDbLine
 62
250
  6
CONTINUOUS
 10
323.3344842551
 20
190.3264301983
 11
323.3344842551
 21
193.8528126215
  0
LINE
  5
44E
100
AcDbEntity
  8
0
100
AcDbLine
 62
250
  6
CONTINUOUS
 10
323.3344842551
 20
213.3264301983
 11
323.3344842551
 21
216.8528126215
  0
LINE
  5
44F
100
AcDbEntity
  8
0
100
AcDbLine
 62
250
  6
CONTINUOUS
 10
323.733936069
 20
216.6630197082
 11
323.733936069
 21
213.5162231116
  0
LINE
  5
450
100
AcDbEntity
  8
0
100
AcDbLine
 62
250
  6
CONTINUOUS
 10
323.733936069
 20
193.6630197082
 11
323.733936069
 21
190.5162231116
  0
LINE
  5
451
100
AcDbEntity
  8
0
100
AcDbLine
 62
7
  6
CONTINUOUS
 10
323.8608118638
 20
213.9957306826
 11
323.8608118638
 21
213.3893473169
  0
LINE
  5
452
100
AcDbEntity
  8
0
100
AcDbLine
 62
7
  6
CONTINUOUS
 10
323.8608118638
 20
193.1835121372
 11
323.8608118638
 21
193.789895503
  0
LWPOLYLINE
  5
453
100
AcDbEntity
  8
0
100
AcDbPolyline
 62
7
  6
CONTINUOUS
 90
7
 70
0
 10
323.9092339324
 20
190.3409252482
 10
323.9083732242
 20
190.3226792313
 10
323.9058522015
 20
190.3046092485
 10
323.9016972216
 20
190.2868648685
 10
323.8959480352
 20
190.2695922065
 10
323.8886573576
 20
190.2529327354
 10
323.8798903358
 20
190.2370221482
  0
LWPOLYLINE
  5
454
100
AcDbEntity
  8
0
100
AcDbPolyline
 62
250
  6
CONTINUOUS
 90
13
 70
0
 10
322.5203297958
 20
193.6765001935
 10
322.5220506318
 20
193.7024656972
 10
322.5271436557
 20
193.7280173862
 10
322.5355328765
 20
193.752718525
 10
322.547090477
 20
193.7761530697
 10
322.5616260939
 20
193.7979061419
 10
322.5788789556
 20
193.8175782411
 10
322.5985443746
 20
193.8348261103
 10
322.6202920889
 20
193.8493637297
 10
322.6437528419
 20
193.8609441717
 10
322.6685265829
 20
193.869368876
 10
322.6941884786
 20
193.874492337
 10
322.7202993349
 20
193.8762261005
  0
LWPOLYLINE
  5
455
100
AcDbEntity
  8
0
100
AcDbPolyline
 62
250
  6
CONTINUOUS
 90
13
 70
0
 10
322.5788779786
 20
193.6765001935
 10
322.5806911893
 20
193.7019080996
 10
322.584774457
 20
193.7269256937
 10
322.5910673649
 20
193.7511446475
 10
322.5994764215
 20
193.7741755296
 10
322.6098679811
 20
193.7956300951
 10
322.6220636568
 20
193.8151337323
 10
322.6358575222
 20
193.8323620977
 10
322.6510281714
 20
193.8470430567
 10
322.6673301141
 20
193.8589397765
 10
322.6844981901
 20
193.8678582554
 10
322.7022512274
 20
193.8736519601
 10
322.7202993349
 20
193.8762261005
  0
LWPOLYLINE
  5
456
100
AcDbEntity
  8
0
100
AcDbPolyline
 62
250
  6
CONTINUOUS
 90
13
 70
0
 10
323.0256337705
 20
193.6530867146
 10
323.0274451285
 20
193.6784787687
 10
323.0315245192
 20
193.7034850145
 10
323.0378126597
 20
193.7276974173
 10
323.0462174351
 20
193.7507270707
 10
323.0566060863
 20
193.7721845386
 10
323.0688000416
 20
193.7916928214
 10
323.0825934204
 20
193.8089266991
 10
323.0977653021
 20
193.8236138164
 10
323.1140699689
 20
193.8355163846
 10
323.1312421005
 20
193.84443977
 10
323.1490005206
 20
193.850236962
 10
323.1670551267
 20
193.8528126215
  0
LINE
  5
457
100
AcDbEntity
  8
0
100
AcDbLine
 62
7
  6
CONTINUOUS
 10
315.8824240104
 20
185.7146214099
 11
315.5238520104
 21
185.1139344099
  0
LINE
  5
458
100
AcDbEntity
  8
0
100
AcDbLine
 62
7
  6
CONTINUOUS
 10
315.6090720104
 20
184.9677554099
 11
316.0809680104
 21
185.7146214099
  0
LWPOLYLINE
  5
459
100
AcDbEntity
  8
0
100
AcDbPolyline
 62
7
  6
CONTINUOUS
 90
9
 70
0
 10
312.2028346011
 20
188.5854305616
 10
312.2374656079
 20
188.6153416197
 10
312.271123016
 20
188.6449903159
 10
312.3038676949
 20
188.674319004
 10
312.3356387751
 20
188.703385327
 10
312.3662536482
 20
188.7323622178
 10
312.3956514448
 20
188.7613073209
 10
312.4238930344
 20
188.790162991
 10
312.450978417
 20
188.8189292274
  0
LINE
  5
45A
100
AcDbEntity
  8
0
100
AcDbLine
 62
7
  6
CONTINUOUS
 10
312.0645251187
 20
188.4674815962
 11
312.1144003776
 21
188.5104562143
  0
LINE
  5
45B
100
AcDbEntity
  8
0
100
AcDbLine
 62
7
  6
CONTINUOUS
 10
312.1144003776
 20
188.5104562143
 11
312.2028346011
 21
188.5854305616
  0
LWPOLYLINE
  5
45C
100
AcDbEntity
  8
0
100
AcDbPolyline
 62
7
  6
CONTINUOUS
 90
10
 70
0
 10
311.1050750293
 20
189.0209605615
 10
311.0837155978
 20
189.0080362249
 10
311.0618800008
 20
188.9966409133
 10
311.0395682382
 20
188.9867746236
 10
311.0168644709
 20
188.9784503645
 10
310.9936845381
 20
188.9716551224
 10
310.9697759573
 20
188.9663498619
 10
310.9450545677
 20
188.9625215706
 10
310.9196045302
 20
188.9601832584
 10
310.8934258448
 20
188.959334925
  0
LWPOLYLINE
  5
45D
100
AcDbEntity
  8
0
100
AcDbPolyline
 62
7
  6
CONTINUOUS
 90
10
 70
0
 10
311.1819660889
 20
188.9020361455
 10
311.2043889477
 20
188.9130187816
 10
311.225514306
 20
188.9248246857
 10
311.2453421638
 20
188.9374538594
 10
311.2638945091
 20
188.950965775
 10
311.281149354
 20
188.9653009642
 10
311.2970407343
 20
188.9802810171
 10
311.3115466618
 20
188.9958464648
 10
311.3246891248
 20
189.0120567796
 10
311.3364681231
 20
189.0289119633
  0
LWPOLYLINE
  5
45E
100
AcDbEntity
  8
0
100
AcDbPolyline
 62
250
  6
CONTINUOUS
 90
12
 70
0
 10
323.534210162
 20
193.8627456151
 10
323.5317000609
 20
193.8616478059
 10
323.5275841952
 20
193.8606091391
 10
323.521862565
 20
193.8596296146
 10
323.5142900333
 20
193.858703399
 10
323.505111737
 20
193.8578363257
 10
323.4950630871
 20
193.8570458955
 10
323.4841953074
 20
193.8563397042
 10
323.472457174
 20
193.8557101561
 10
323.4604304259
 20
193.8551519644
 10
323.448340825
 20
193.854669715
 10
323.4359626094
 20
193.854258822
  0
LWPOLYLINE
  5
45F
100
AcDbEntity
  8
0
100
AcDbPolyline
 62
7
  6
CONTINUOUS
 90
10
 70
0
 10
309.4548173176
 20
189.0411903115
 10
309.476026969
 20
189.0492336487
 10
309.4973102812
 20
189.0579275965
 10
309.5186672544
 20
189.0672721559
 10
309.5400953648
 20
189.077305639
 10
309.561597136
 20
189.087989736
 10
309.5831801392
 20
189.0992095143
 10
309.6048468981
 20
189.1109266636
 10
309.6265948889
 20
189.1231794964
 10
309.6484241117
 20
189.1359680137
  0
LWPOLYLINE
  5
460
100
AcDbEntity
  8
0
100
AcDbPolyline
 62
250
  6
CONTINUOUS
 90
13
 70
0
 10
296.2021638588
 20
216.8627456151
 10
296.1761411819
 20
216.8609718212
 10
296.1505618273
 20
216.8558231477
 10
296.1258619224
 20
216.8473872456
 10
296.102462616
 20
216.8358078113
 10
296.0807629343
 20
216.8212821581
 10
296.0611329652
 20
216.8040578723
 10
296.0439074804
 20
216.7844285409
 10
296.0293802917
 20
216.7627287989
 10
296.017799238
 20
216.7393286739
 10
296.0093618777
 20
216.7146271705
 10
296.0042121482
 20
216.6890454476
 10
296.0024379445
 20
216.6630197156
  0
LINE
  5
461
100
AcDbEntity
  8
0
100
AcDbLine
 62
250
  6
CONTINUOUS
 10
296.7107402504
 20
216.6530867146
 11
297.1574960423
 21
216.6765001935
  0
LINE
  5
462
100
AcDbEntity
  8
0
100
AcDbLine
 62
250
  6
CONTINUOUS
 10
296.5693188942
 20
216.8528126215
 11
297.016074686
 21
216.8762261005
  0
LWPOLYLINE
  5
463
100
AcDbEntity
  8
0
100
AcDbPolyline
 62
7
  6
CONTINUOUS
 90
37
 70
0
 10
306.0929640409
 20
218.3712924099
 10
306.1313728811
 20
218.372280508
 10
306.1686447622
 20
218.3736173351
 10
306.2047796843
 20
218.3753028911
 10
306.239681924
 20
218.3772092795
 10
306.2734472047
 20
218.3794643967
 10
306.3063626964
 20
218.3824519316
 10
306.3384492039
 20
218.3862689822
 10
306.3696859224
 20
218.3908184496
 10
306.400297608
 20
218.3961927271
 10
306.4302999613
 20
218.4023750385
 10
306.4596772817
 20
218.4093821583
 10
306.4886072234
 20
218.417356805
 10
306.5171814604
 20
218.4262437404
 10
306.5453083186
 20
218.4360981998
 10
306.5728904301
 20
218.4472286105
 10
306.6000232393
 20
218.459674375
 10
306.6266113016
 20
218.4733960853
 10
306.6522709157
 20
218.4885839516
 10
306.6770156471
 20
218.5053058174
 10
306.7008319302
 20
218.5234938307
 10
306.7232953671
 20
218.5431346569
 10
306.7443841235
 20
218.5643283669
 10
306.7641200337
 20
218.5869748789
 10
306.7821442022
 20
218.61076063
 10
306.7983069968
 20
218.635698123
 10
306.8127580497
 20
218.6617748449
 10
306.825587362
 20
218.6886397118
 10
306.8367761492
 20
218.7162808136
 10
306.8463431959
 20
218.7447100525
 10
306.8544348557
 20
218.7736120664
 10
306.8610074624
 20
218.8029137496
 10
306.8661046823
 20
218.8326882027
 10
306.8700038679
 20
218.8628393754
 10
306.8727974701
 20
218.8933352495
 10
306.874393038
 20
218.9242078388
 10
306.8747905716
 20
218.9554571409
  0
LINE
  5
464
100
AcDbEntity
  8
0
100
AcDbLine
 62
7
  6
CONTINUOUS
 10
322.7171044198
 20
216.8858186402
 11
323.0181870104
 21
216.8900466293
  0
LINE
  5
465
100
AcDbEntity
  8
0
100
AcDbLine
 62
250
  6
CONTINUOUS
 10
323.4915351409
 20
216.6539279475
 11
323.561774178
 21
216.6549427982
  0
LWPOLYLINE
  5
466
100
AcDbEntity
  8
0
100
AcDbPolyline
 62
7
  6
CONTINUOUS
 90
8
 70
0
 10
323.5005497412
 20
216.9372182285
 10
323.5072994886
 20
216.9372855312
 10
323.5139594132
 20
216.9374330585
 10
323.5203075285
 20
216.9376415951
 10
323.5257500494
 20
216.9379065163
 10
323.5300890478
 20
216.9382262806
 10
323.5335224518
 20
216.9386024295
 10
323.5360502615
 20
216.9390349631
  0
LWPOLYLINE
  5
467
100
AcDbEntity
  8
0
100
AcDbPolyline
 62
250
  6
CONTINUOUS
 90
15
 70
0
 10
323.3550053324
 20
216.8528715124
 10
323.3748943094
 20
216.8530306178
 10
323.3941511859
 20
216.8532899376
 10
323.4129395456
 20
216.8536537298
 10
323.431095805
 20
216.8541177364
 10
323.4481292136
 20
216.8546691842
 10
323.464025913
 20
216.8553104131
 10
323.4787997616
 20
216.8560390831
 10
323.4920015849
 20
216.8568354016
 10
323.5035961573
 20
216.857701983
 10
323.5136187044
 20
216.8586362127
 10
323.5217257281
 20
216.8596104545
 10
323.5278027294
 20
216.860615496
 10
323.5319642073
 20
216.8616605496
 10
323.534210162
 20
216.8627456151
  0
LWPOLYLINE
  5
468
100
AcDbEntity
  8
0
100
AcDbPolyline
 62
7
  6
CONTINUOUS
 90
8
 70
0
 10
296.315392132
 20
216.9371977435
 10
296.3236272824
 20
216.9372583841
 10
296.3310429354
 20
216.9374063852
 10
296.33795148
 20
216.9376195754
 10
296.343795262
 20
216.9378898398
 10
296.3483883965
 20
216.9382144734
 10
296.3519167683
 20
216.9385961812
 10
296.3543803775
 20
216.9390349632
  0
LINE
  5
469
100
AcDbEntity
  8
0
100
AcDbLine
 62
250
  6
CONTINUOUS
 10
323.414789523
 20
216.6533051173
 11
323.4915351409
 21
216.6539279475
  0
LINE
  5
46A
100
AcDbEntity
  8
0
100
AcDbLine
 62
250
  6
CONTINUOUS
 10
323.0256337705
 20
216.6530867146
 11
323.414789523
 21
216.6533051173
  0
LINE
  5
46B
100
AcDbEntity
  8
0
100
AcDbLine
 62
250
  6
CONTINUOUS
 10
297.1574960423
 20
216.6765001935
 11
297.216044225
 21
216.6765001935
  0
LINE
  5
46C
100
AcDbEntity
  8
0
100
AcDbLine
 62
250
  6
CONTINUOUS
 10
322.5203297958
 20
216.6765001935
 11
322.5788779786
 21
216.6765001935
  0
LINE
  5
46D
100
AcDbEntity
  8
0
100
AcDbLine
 62
250
  6
CONTINUOUS
 10
323.1670551267
 20
216.8528126215
 11
323.3550053324
 21
216.8528715124
  0
LINE
  5
46E
100
AcDbEntity
  8
0
100
AcDbLine
 62
7
  6
CONTINUOUS
 10
296.6742988794
 20
217.0377635454
 11
296.7181870104
 21
217.0377635454
  0
LINE
  5
46F
100
AcDbEntity
  8
0
100
AcDbLine
 62
7
  6
CONTINUOUS
 10
323.0181870104
 20
217.0377635454
 11
323.0620751415
 21
217.0377635454
  0
LINE
  5
470
100
AcDbEntity
  8
0
100
AcDbLine
 62
7
  6
CONTINUOUS
 10
305.5115490104
 20
217.6396214099
 11
305.9194630104
 21
217.6396214099
  0
LINE
  5
471
100
AcDbEntity
  8
0
100
AcDbLine
 62
7
  6
CONTINUOUS
 10
307.1300500104
 20
217.6396214099
 11
308.2409630104
 21
217.6396214099
  0
LINE
  5
472
100
AcDbEntity
  8
0
100
AcDbLine
 62
7
  6
CONTINUOUS
 10
308.4458860104
 20
217.6396214099
 11
308.8353530104
 21
217.6396214099
  0
LINE
  5
473
100
AcDbEntity
  8
0
100
AcDbLine
 62
7
  6
CONTINUOUS
 10
309.8669000104
 20
217.6396214099
 11
310.2774600104
 21
217.6396214099
  0
LINE
  5
474
100
AcDbEntity
  8
0
100
AcDbLine
 62
7
  6
CONTINUOUS
 10
310.4853140104
 20
217.6396214099
 11
310.8669150104
 21
217.6396214099
  0
LINE
  5
475
100
AcDbEntity
  8
0
100
AcDbLine
 62
7
  6
CONTINUOUS
 10
311.6221820104
 20
217.6396214099
 11
312.2011270104
 21
217.6396214099
  0
LINE
  5
476
100
AcDbEntity
  8
0
100
AcDbLine
 62
7
  6
CONTINUOUS
 10
312.3932510104
 20
217.6396214099
 11
312.7827180104
 21
217.6396214099
  0
LINE
  5
477
100
AcDbEntity
  8
0
100
AcDbLine
 62
7
  6
CONTINUOUS
 10
313.8144080104
 20
217.6396214099
 11
314.2248250104
 21
217.6396214099
  0
LINE
  5
478
100
AcDbEntity
  8
0
100
AcDbLine
 62
7
  6
CONTINUOUS
 10
308.2409630104
 20
217.9553704099
 11
307.5379640104
 21
217.9553704099
  0
LINE
  5
479
100
AcDbEntity
  8
0
100
AcDbLine
 62
7
  6
CONTINUOUS
 10
308.9774250104
 20
218.0423154099
 11
309.7300470104
 21
218.0423154099
  0
LINE
  5
47A
100
AcDbEntity
  8
0
100
AcDbLine
 62
7
  6
CONTINUOUS
 10
312.9248620104
 20
218.0423154099
 11
313.6774830104
 21
218.0423154099
  0
LINE
  5
47B
100
AcDbEntity
  8
0
100
AcDbLine
 62
7
  6
CONTINUOUS
 10
313.5748080104
 20
218.3580644099
 11
313.0301120104
 21
218.3580644099
  0
LINE
  5
47C
100
AcDbEntity
  8
0
100
AcDbLine
 62
7
  6
CONTINUOUS
 10
309.6274430104
 20
218.3580644099
 11
309.0826750104
 21
218.3580644099
  0
LINE
  5
47D
100
AcDbEntity
  8
0
100
AcDbLine
 62
7
  6
CONTINUOUS
 10
305.9194630104
 20
218.3712924099
 11
306.0929640409
 21
218.3712924099
  0
LINE
  5
47E
100
AcDbEntity
  8
0
100
AcDbLine
 62
7
  6
CONTINUOUS
 10
323.4210306303
 20
216.9372036212
 11
323.5005497412
 21
216.9372182285
  0
LINE
  5
47F
100
AcDbEntity
  8
0
100
AcDbLine
 62
7
  6
CONTINUOUS
 10
296.2364268815
 20
216.9372110324
 11
296.315392132
 21
216.9371977435
  0
LINE
  5
480
100
AcDbEntity
  8
0
100
AcDbLine
 62
250
  6
CONTINUOUS
 10
296.3205845694
 20
216.6533109132
 11
296.7107402504
 21
216.6530867146
  0
LINE
  5
481
100
AcDbEntity
  8
0
100
AcDbLine
 62
250
  6
CONTINUOUS
 10
296.2429884959
 20
216.6539491951
 11
296.3205845694
 21
216.6533109132
  0
LINE
  5
482
100
AcDbEntity
  8
0
100
AcDbLine
 62
7
  6
CONTINUOUS
 10
296.7181870104
 20
216.8900466293
 11
297.0192696011
 21
216.8858186402
  0
LINE
  5
483
100
AcDbEntity
  8
0
100
AcDbLine
 62
250
  6
CONTINUOUS
 10
322.5788779786
 20
216.6765001935
 11
323.0256337705
 21
216.6530867146
  0
LINE
  5
484
100
AcDbEntity
  8
0
100
AcDbLine
 62
250
  6
CONTINUOUS
 10
322.7202993349
 20
216.8762261005
 11
323.1670551267
 21
216.8528126215
  0
LWPOLYLINE
  5
485
100
AcDbEntity
  8
0
100
AcDbPolyline
 62
250
  6
CONTINUOUS
 90
13
 70
0
 10
323.534210162
 20
216.8627456151
 10
323.5602345225
 20
216.8609715954
 10
323.5858151487
 20
216.8558223493
 10
323.6105158718
 20
216.8473856753
 10
323.6339155263
 20
216.8358054252
 10
323.6556151307
 20
216.8212790507
 10
323.6752446902
 20
216.8040542368
 10
323.6924695063
 20
216.7844246795
 10
323.7069958831
 20
216.7627250773
 10
323.7185761343
 20
216.7393254236
 10
323.7270128078
 20
216.7146246999
 10
323.7321620522
 20
216.6890440718
 10
323.733936069
 20
216.6630197082
  0
LWPOLYLINE
  5
486
100
AcDbEntity
  8
0
100
AcDbPolyline
 62
7
  6
CONTINUOUS
 90
8
 70
0
 10
288.8495318418
 20
220.0740346791
 10
288.8528002809
 20
220.0734987079
 10
288.8589349507
 20
220.0729811296
 10
288.8679358511
 20
220.0724819442
 10
288.8799622458
 20
220.0719962561
 10
288.8948548711
 20
220.0715289609
 10
288.9121359362
 20
220.0710947451
 10
288.9539468037
 20
220.0703285289
  0
LWPOLYLINE
  5
487
100
AcDbEntity
  8
0
100
AcDbPolyline
 62
7
  6
CONTINUOUS
 90
8
 70
0
 10
330.8782571905
 20
214.0080674784
 10
330.8749948156
 20
214.008602481
 10
330.8688669643
 20
214.0091191735
 10
330.8598736367
 20
214.0096175559
 10
330.8478561545
 20
214.0101025246
 10
330.832973196
 20
214.0105691831
 10
330.8157007959
 20
214.0110028419
 10
330.7739040902
 20
214.0117681851
  0
LWPOLYLINE
  5
488
100
AcDbEntity
  8
0
100
AcDbPolyline
 62
250
  6
CONTINUOUS
 90
10
 70
0
 10
323.733936069
 20
213.516222796
 10
323.7298221453
 20
213.5172830947
 10
323.7219035454
 20
213.5182931309
 10
323.7104682051
 20
213.5192529046
 10
323.6957366475
 20
213.5201706931
 10
323.6780868664
 20
213.5210382192
 10
323.6582180984
 20
213.5218306512
 10
323.6367726592
 20
213.5225376095
 10
323.6140456955
 20
213.5231694737
 10
323.5661112109
 20
213.5242232542
  0
LWPOLYLINE
  5
489
100
AcDbEntity
  8
0
100
AcDbPolyline
 62
250
  6
CONTINUOUS
 90
13
 70
0
 10
323.534210162
 20
213.3164972047
 10
323.531897862
 20
213.3175566961
 10
323.5279865498
 20
213.3185662415
 10
323.5224762252
 20
213.3195258407
 10
323.5151241358
 20
213.3204439389
 10
323.5061730341
 20
213.3213120911
 10
323.4963511781
 20
213.3221049616
 10
323.4857296674
 20
213.3228119312
 10
323.4742374024
 20
213.323443619
 10
323.4623893422
 20
213.3240065475
 10
323.4503977564
 20
213.3244971928
 10
323.4380503755
 20
213.3249190788
 10
323.4120123099
 20
213.3256146475
  0
LWPOLYLINE
  5
48A
100
AcDbEntity
  8
0
100
AcDbPolyline
 62
7
  6
CONTINUOUS
 90
25
 70
0
 10
323.8798903358
 20
190.2370221482
 10
323.8709930613
 20
190.1902342411
 10
323.8574872989
 20
190.1456813194
 10
323.8393730486
 20
190.1033633673
 10
323.8163174104
 20
190.0628077749
 10
323.7886532843
 20
190.0244871246
 10
323.7573793708
 20
189.9898191821
 10
323.7223665416
 20
189.9589513567
 10
323.6837439251
 20
189.9317361995
 10
323.6428976068
 20
189.9091491784
 10
323.5997470941
 20
189.8913584668
 10
323.5543728796
 20
189.8781958601
 10
323.5084025272
 20
189.8701322591
 10
323.461815049
 20
189.8673525193
 10
323.4146314328
 20
189.869671776
 10
323.3685422058
 20
189.8770063549
 10
323.3235863005
 20
189.8895384856
 10
323.2797247843
 20
189.9070859551
 10
323.2385313874
 20
189.9290184302
 10
323.200103791
 20
189.9554946773
 10
323.1643443138
 20
189.9863559652
 10
323.1325336416
 20
190.020495711
 10
323.1050986698
 20
190.057545064
 10
323.0816125031
 20
190.0978729113
 10
323.0620751415
 20
190.1414792744
  0
LINE
  5
48B
100
AcDbEntity
  8
0
100
AcDbLine
 62
250
  6
CONTINUOUS
 10
322.5203297958
 20
190.5027426263
 11
322.5181870104
 21
190.4963090425
  0
LINE
  5
48C
100
AcDbEntity
  8
0
100
AcDbLine
 62
250
  6
CONTINUOUS
 10
322.7202993349
 20
190.3030167194
 11
322.7171044198
 21
190.2934241796
  0
LINE
  5
48D
100
AcDbEntity
  8
0
100
AcDbLine
 62
7
  6
CONTINUOUS
 10
315.8681870104
 20
186.2896214099
 11
315.8481297009
 21
186.2695641004
  0
LINE
  5
48E
100
AcDbEntity
  8
0
100
AcDbLine
 62
250
  6
CONTINUOUS
 10
323.6610859568
 20
193.9896214099
 11
323.534210162
 21
193.8627456151
  0
LINE
  5
48F
100
AcDbEntity
  8
0
100
AcDbLine
 62
250
  6
CONTINUOUS
 10
323.8608118638
 20
193.789895503
 11
323.733936069
 21
193.6630197082
  0
LINE
  5
490
100
AcDbEntity
  8
0
100
AcDbLine
 62
7
  6
CONTINUOUS
 10
330.8782571905
 20
193.1711753415
 11
330.9152976753
 21
193.1835121372
  0
LINE
  5
491
100
AcDbEntity
  8
0
100
AcDbLine
 62
7
  6
CONTINUOUS
 10
323.0620751415
 20
190.1414792744
 11
323.3251310524
 21
190.2229525825
  0
LINE
  5
492
100
AcDbEntity
  8
0
100
AcDbLine
 62
7
  6
CONTINUOUS
 10
323.3251310524
 20
190.2229525825
 11
323.3819936775
 21
190.2402078604
  0
LWPOLYLINE
  5
493
100
AcDbEntity
  8
0
100
AcDbPolyline
 62
7
  6
CONTINUOUS
 90
4
 70
0
 10
306.2293087694
 20
218.6950868504
 10
306.1935187729
 20
218.6907321489
 10
306.1755135593
 20
218.6887767134
 10
306.1574299621
 20
218.6870414099
  0
LWPOLYLINE
  5
494
100
AcDbEntity
  8
0
100
AcDbPolyline
 62
7
  6
CONTINUOUS
 90
7
 70
0
 10
330.8242381309
 20
220.0710947438
 10
330.8415191938
 20
220.0715289598
 10
330.8564118151
 20
220.0719962553
 10
330.8684382034
 20
220.0724819436
 10
330.877439095
 20
220.0729811292
 10
330.8835737535
 20
220.0734987077
 10
330.8868421791
 20
220.0740346791
  0
LINE
  5
495
100
AcDbEntity
  8
0
100
AcDbLine
 62
7
  6
CONTINUOUS
 10
330.7824272623
 20
220.0703285272
 11
330.8242381309
 21
220.0710947438
  0
LINE
  5
496
100
AcDbEntity
  8
0
100
AcDbLine
 62
7
  6
CONTINUOUS
 10
330.732765419
 20
220.0697260659
 11
330.7824272623
 21
220.0703285272
  0
LINE
  5
497
100
AcDbEntity
  8
0
100
AcDbLine
 62
7
  6
CONTINUOUS
 10
330.6477916234
 20
220.0691746158
 11
330.732765419
 21
220.0697260659
  0
LINE
  5
498
100
AcDbEntity
  8
0
100
AcDbLine
 62
7
  6
CONTINUOUS
 10
306.1574299621
 20
218.6870414099
 11
305.9194630104
 21
218.6870414099
  0
LINE
  5
499
100
AcDbEntity
  8
0
100
AcDbLine
 62
7
  6
CONTINUOUS
 10
305.9194630104
 20
219.2238724099
 11
306.1574336328
 21
219.2238724099
  0
LINE
  5
49A
100
AcDbEntity
  8
0
100
AcDbLine
 62
7
  6
CONTINUOUS
 10
313.5643680104
 20
219.5396214099
 11
313.0801630104
 21
219.5396214099
  0
LINE
  5
49B
100
AcDbEntity
  8
0
100
AcDbLine
 62
7
  6
CONTINUOUS
 10
312.2011270104
 20
219.5396214099
 11
311.8195250104
 21
219.5396214099
  0
LINE
  5
49C
100
AcDbEntity
  8
0
100
AcDbLine
 62
7
  6
CONTINUOUS
 10
311.0905710104
 20
219.5396214099
 11
310.4853140104
 21
219.5396214099
  0
LINE
  5
49D
100
AcDbEntity
  8
0
100
AcDbLine
 62
7
  6
CONTINUOUS
 10
309.6169320104
 20
219.5396214099
 11
309.1327260104
 21
219.5396214099
  0
LINE
  5
49E
100
AcDbEntity
  8
0
100
AcDbLine
 62
7
  6
CONTINUOUS
 10
307.5379640104
 20
219.5396214099
 11
307.1300500104
 21
219.5396214099
  0
LINE
  5
49F
100
AcDbEntity
  8
0
100
AcDbLine
 62
7
  6
CONTINUOUS
 10
306.0929765078
 20
219.5396214099
 11
305.5115490104
 21
219.5396214099
  0
LINE
  5
4A0
100
AcDbEntity
  8
0
100
AcDbLine
 62
7
  6
CONTINUOUS
 10
315.8476320842
 20
220.0690664836
 11
330.6477916234
 21
220.0691746158
  0
LINE
  5
4A1
100
AcDbEntity
  8
0
100
AcDbLine
 62
7
  6
CONTINUOUS
 10
288.8027336228
 20
220.0896214099
 11
303.8681870104
 21
220.0896214099
  0
LINE
  5
4A2
100
AcDbEntity
  8
0
100
AcDbLine
 62
7
  6
CONTINUOUS
 10
315.8681870104
 20
220.0896214099
 11
330.9336403981
 21
220.0896214099
  0
LINE
  5
4A3
100
AcDbEntity
  8
0
100
AcDbLine
 62
7
  6
CONTINUOUS
 10
289.0885823628
 20
220.0691746178
 11
303.8887419367
 21
220.0690664836
  0
LINE
  5
4A4
100
AcDbEntity
  8
0
100
AcDbLine
 62
7
  6
CONTINUOUS
 10
289.0036086484
 20
220.069726068
 11
289.0885823628
 21
220.0691746178
  0
LINE
  5
4A5
100
AcDbEntity
  8
0
100
AcDbLine
 62
7
  6
CONTINUOUS
 10
288.9539468037
 20
220.0703285289
 11
289.0036086484
 21
220.069726068
  0
LWPOLYLINE
  5
4A6
100
AcDbEntity
  8
0
100
AcDbPolyline
 62
7
  6
CONTINUOUS
 90
3
 70
0
 10
306.1574336328
 20
219.2238724099
 10
306.1755741001
 20
219.2221390632
 10
306.1936647903
 20
219.2201742636
  0
LWPOLYLINE
  5
4A7
100
AcDbEntity
  8
0
100
AcDbPolyline
 62
7
  6
CONTINUOUS
 90
21
 70
0
 10
306.1936647903
 20
219.2201742636
 10
306.2297237492
 20
219.2157715987
 10
306.2476920178
 20
219.2133337332
 10
306.2655297801
 20
219.2100005349
 10
306.2833989538
 20
219.2057289526
 10
306.3011376212
 20
219.2005620361
 10
306.3181793003
 20
219.1939650568
 10
306.334514573
 20
219.185797768
 10
306.3501528574
 20
219.1762004122
 10
306.3645559258
 20
219.1650589925
 10
306.37754175
 20
219.1521240564
 10
306.3892923582
 20
219.1376450492
 10
306.3998156072
 20
219.1222563217
 10
306.4091149097
 20
219.1060521975
 10
306.417186853
 20
219.0889383479
 10
306.4240290557
 20
219.0712661477
 10
306.4295921678
 20
219.0531065402
 10
306.4339255393
 20
219.0343885787
 10
306.4371748386
 20
219.0152508051
 10
306.439388622
 20
218.9957393992
 10
306.4405183333
 20
218.9758081783
  0
LWPOLYLINE
  5
4A8
100
AcDbEntity
  8
0
100
AcDbPolyline
 62
7
  6
CONTINUOUS
 90
8
 70
0
 10
323.3819937145
 20
216.9390349554
 10
323.3844083797
 20
216.9386039119
 10
323.3878436143
 20
216.9382276591
 10
323.3922994183
 20
216.937906197
 10
323.397930128
 20
216.9376363551
 10
323.4045814071
 20
216.9374213038
 10
323.4117902463
 20
216.9372705546
 10
323.4195688307
 20
216.9372066036
  0
LINE
  5
4A9
100
AcDbEntity
  8
0
100
AcDbLine
 62
7
  6
CONTINUOUS
 10
323.3251310089
 20
216.9562902507
 11
323.3819937145
 21
216.9390349554
  0
LINE
  5
4AA
100
AcDbEntity
  8
0
100
AcDbLine
 62
7
  6
CONTINUOUS
 10
323.0620751415
 20
217.0377635454
 11
323.3251310089
 21
216.9562902507
  0
LINE
  5
4AB
100
AcDbEntity
  8
0
100
AcDbLine
 62
7
  6
CONTINUOUS
 10
330.8782571905
 20
214.0080674784
 11
330.9152976753
 21
213.9957306826
  0
LINE
  5
4AC
100
AcDbEntity
  8
0
100
AcDbLine
 62
7
  6
CONTINUOUS
 10
315.8681870104
 20
220.8896214099
 11
315.8481297009
 21
220.9096787195
  0
LINE
  5
4AD
100
AcDbEntity
  8
0
100
AcDbLine
 62
250
  6
CONTINUOUS
 10
323.6610859568
 20
213.1896214099
 11
323.534210162
 21
213.3164972047
  0
LINE
  5
4AE
100
AcDbEntity
  8
0
100
AcDbLine
 62
250
  6
CONTINUOUS
 10
323.8608118638
 20
213.3893473169
 11
323.733936069
 21
213.5162231116
  0
LINE
  5
4AF
100
AcDbEntity
  8
0
100
AcDbLine
 62
250
  6
CONTINUOUS
 10
322.5181870104
 20
216.6829337774
 11
322.5203297958
 21
216.6765001935
  0
LINE
  5
4B0
100
AcDbEntity
  8
0
100
AcDbLine
 62
250
  6
CONTINUOUS
 10
322.7171044198
 20
216.8858186402
 11
322.7202993349
 21
216.8762261005
  0
LWPOLYLINE
  5
4B1
100
AcDbEntity
  8
0
100
AcDbPolyline
 62
250
  6
CONTINUOUS
 90
16
 70
0
 10
323.5360503497
 20
190.2402079398
 10
323.5290731412
 20
190.2301420461
 10
323.5207311958
 20
190.2211183374
 10
323.5111877574
 20
190.213326815
 10
323.5006254339
 20
190.2069481081
 10
323.4892688974
 20
190.2021002509
 10
323.4773566635
 20
190.1988271955
 10
323.4651085379
 20
190.1971720549
 10
323.4527468633
 20
190.1971847258
 10
323.4405028766
 20
190.1988649551
 10
323.4285929531
 20
190.2021644231
 10
323.417243273
 20
190.2070384868
 10
323.4067075612
 20
190.2134311905
 10
323.3972098516
 20
190.2212136215
 10
323.3889201585
 20
190.2302034609
 10
323.3819935389
 20
190.2402079671
  0
LWPOLYLINE
  5
4B2
100
AcDbEntity
  8
0
100
AcDbPolyline
 62
7
  6
CONTINUOUS
 90
10
 70
0
 10
312.5168985136
 20
222.7473158332
 10
312.5518788766
 20
222.7531354399
 10
312.5867295824
 20
222.7578159235
 10
312.6214506311
 20
222.7613572852
 10
312.6560230227
 20
222.7637663121
 10
312.6904657572
 20
222.7650362188
 10
312.7248358342
 20
222.7651466462
 10
312.7591522538
 20
222.7640908082
 10
312.793396016
 20
222.7618754909
 10
312.8275671208
 20
222.7585006935
  0
LWPOLYLINE
  5
4B3
100
AcDbEntity
  8
0
100
AcDbPolyline
 62
7
  6
CONTINUOUS
 90
7
 70
0
 10
288.910617692
 20
220.9076520349
 10
288.8933439088
 20
220.9072183039
 10
288.8784595114
 20
220.9067515637
 10
288.8664407505
 20
220.9062665049
 10
288.8574463764
 20
220.9057680241
 10
288.8513176389
 20
220.9052512245
 10
288.848054538
 20
220.9047161063
  0
LINE
  5
4B4
100
AcDbEntity
  8
0
100
AcDbLine
 62
7
  6
CONTINUOUS
 10
288.9524169965
 20
220.9084174944
 11
288.910617692
 21
220.9076520349
  0
LINE
  5
4B5
100
AcDbEntity
  8
0
100
AcDbLine
 62
7
  6
CONTINUOUS
 10
289.0020750592
 20
220.9090194659
 11
288.9524169965
 21
220.9084174944
  0
LINE
  5
4B6
100
AcDbEntity
  8
0
100
AcDbLine
 62
7
  6
CONTINUOUS
 10
289.0870632865
 20
220.909570597
 11
289.0020750592
 21
220.9090194659
  0
LINE
  5
4B7
100
AcDbEntity
  8
0
100
AcDbLine
 62
7
  6
CONTINUOUS
 10
330.9336403981
 20
220.8896214099
 11
315.8681870104
 21
220.8896214099
  0
LINE
  5
4B8
100
AcDbEntity
  8
0
100
AcDbLine
 62
7
  6
CONTINUOUS
 10
303.8681870104
 20
220.8896214099
 11
288.8027336228
 21
220.8896214099
  0
LINE
  5
4B9
100
AcDbEntity
  8
0
100
AcDbLine
 62
7
  6
CONTINUOUS
 10
289.0870632865
 20
220.909570597
 11
303.88824432
 21
220.9096787195
  0
LINE
  5
4BA
100
AcDbEntity
  8
0
100
AcDbLine
 62
7
  6
CONTINUOUS
 10
306.7497110104
 20
221.1711274099
 11
307.0991910104
 21
221.1711274099
  0
LINE
  5
4BB
100
AcDbEntity
  8
0
100
AcDbLine
 62
7
  6
CONTINUOUS
 10
307.8570460104
 20
221.1711274099
 11
308.2536180104
 21
221.1711274099
  0
LINE
  5
4BC
100
AcDbEntity
  8
0
100
AcDbLine
 62
7
  6
CONTINUOUS
 10
308.4671060104
 20
221.1711274099
 11
308.8464960104
 21
221.1711274099
  0
LINE
  5
4BD
100
AcDbEntity
  8
0
100
AcDbLine
 62
7
  6
CONTINUOUS
 10
309.3973040104
 20
221.1711274099
 11
309.4529230104
 21
221.1711274099
  0
LINE
  5
4BE
100
AcDbEntity
  8
0
100
AcDbLine
 62
7
  6
CONTINUOUS
 10
310.0059250104
 20
221.1711274099
 11
310.3938780104
 21
221.1711274099
  0
LINE
  5
4BF
100
AcDbEntity
  8
0
100
AcDbLine
 62
7
  6
CONTINUOUS
 10
310.4561500104
 20
221.1711274099
 11
310.8484200104
 21
221.1711274099
  0
LINE
  5
4C0
100
AcDbEntity
  8
0
100
AcDbLine
 62
7
  6
CONTINUOUS
 10
311.6006480104
 20
221.1711274099
 11
312.0186190104
 21
221.1711274099
  0
LINE
  5
4C1
100
AcDbEntity
  8
0
100
AcDbLine
 62
7
  6
CONTINUOUS
 10
312.1350716132
 20
221.1711276639
 11
312.5300482553
 21
221.1711276639
  0
LINE
  5
4C2
100
AcDbEntity
  8
0
100
AcDbLine
 62
7
  6
CONTINUOUS
 10
313.1373440757
 20
221.1711276639
 11
313.5188005609
 21
221.1711276639
  0
LINE
  5
4C3
100
AcDbEntity
  8
0
100
AcDbLine
 62
7
  6
CONTINUOUS
 10
310.9578490104
 20
221.5504044099
 11
311.4979150104
 21
221.5504044099
  0
LINE
  5
4C4
100
AcDbEntity
  8
0
100
AcDbLine
 62
7
  6
CONTINUOUS
 10
311.4186600104
 20
221.8438874099
 11
311.0389700104
 21
221.8438874099
  0
LINE
  5
4C5
100
AcDbEntity
  8
0
100
AcDbLine
 62
7
  6
CONTINUOUS
 10
312.5300482553
 20
221.9146223264
 11
312.7426808619
 21
221.9146223264
  0
LINE
  5
4C6
100
AcDbEntity
  8
0
100
AcDbLine
 62
7
  6
CONTINUOUS
 10
312.7435356663
 20
222.2257711457
 11
312.5168985136
 21
222.2257711457
  0
LINE
  5
4C7
100
AcDbEntity
  8
0
100
AcDbLine
 62
7
  6
CONTINUOUS
 10
330.6493107047
 20
220.9095705987
 11
315.8481297009
 21
220.9096787195
  0
LINE
  5
4C8
100
AcDbEntity
  8
0
100
AcDbLine
 62
7
  6
CONTINUOUS
 10
330.7342990017
 20
220.9090194677
 11
330.6493107047
 21
220.9095705987
  0
LINE
  5
4C9
100
AcDbEntity
  8
0
100
AcDbLine
 62
7
  6
CONTINUOUS
 10
330.783957063
 20
220.9084174959
 11
330.7342990017
 21
220.9090194677
  0
LWPOLYLINE
  5
4CA
100
AcDbEntity
  8
0
100
AcDbPolyline
 62
7
  6
CONTINUOUS
 90
13
 70
0
 10
312.7426808619
 20
221.9146223264
 10
312.766928489
 20
221.913407969
 10
312.7901771881
 20
221.9098847763
 10
312.8124269592
 20
221.9040527467
 10
312.8337079261
 20
221.895907487
 10
312.8539899651
 20
221.8854533832
 10
312.8731827048
 20
221.8727036002
 10
312.8913093631
 20
221.857683236
 10
312.9083467222
 20
221.8403671787
 10
312.924134757
 20
221.8206932764
 10
312.9386201256
 20
221.7986408045
 10
312.9518561699
 20
221.7742304659
 10
312.9638428898
 20
221.747462248
  0
LWPOLYLINE
  5
4CB
100
AcDbEntity
  8
0
100
AcDbPolyline
 62
7
  6
CONTINUOUS
 90
7
 70
0
 10
323.8798903358
 20
216.9422206716
 10
323.8886451153
 20
216.9263349547
 10
323.8959321352
 20
216.9096920127
 10
323.901683637
 20
216.8924259502
 10
323.9058440567
 20
216.8746771511
 10
323.908370636
 20
216.8565911712
 10
323.9092339324
 20
216.8383175716
  0
LINE
  5
4CC
100
AcDbEntity
  8
0
100
AcDbLine
 62
250
  6
CONTINUOUS
 10
330.7556387894
 20
188.7398976725
 11
330.7228360939
 21
189.0687515133
  0
LINE
  5
4CD
100
AcDbEntity
  8
0
100
AcDbLine
 62
250
  6
CONTINUOUS
 10
330.955631174
 20
188.9391366122
 11
330.933115248
 21
189.1648634506
  0
LINE
  5
4CE
100
AcDbEntity
  8
0
100
AcDbLine
 62
250
  6
CONTINUOUS
 10
331.7409355937
 20
185.0893602173
 11
331.7248969394
 21
185.25015106
  0
LINE
  5
4CF
100
AcDbEntity
  8
0
100
AcDbLine
 62
250
  6
CONTINUOUS
 10
331.941849377
 20
185.2793619438
 11
331.9248893241
 21
185.4493899997
  0
LWPOLYLINE
  5
4D0
100
AcDbEntity
  8
0
100
AcDbPolyline
 62
250
  6
CONTINUOUS
 90
4
 70
0
 10
331.9248893241
 20
185.4493899997
 10
331.9247106508
 20
185.4525551159
 10
331.9245420937
 20
185.4572171983
 10
331.9243836529
 20
185.4633762468
  0
LINE
  5
4D1
100
AcDbEntity
  8
0
100
AcDbLine
 62
250
  6
CONTINUOUS
 10
330.5960251843
 20
182.6396214099
 11
330.5887206775
 21
186.2695640974
  0
LINE
  5
4D2
100
AcDbEntity
  8
0
100
AcDbLine
 62
250
  6
CONTINUOUS
 10
330.8956399893
 20
182.6396214099
 11
330.8908313386
 21
184.9469330969
  0
LINE
  5
4D3
100
AcDbEntity
  8
0
100
AcDbLine
 62
250
  6
CONTINUOUS
 10
330.5872275122
 20
187.1101763242
 11
330.5786668946
 21
193.1662135458
  0
LINE
  5
4D4
100
AcDbEntity
  8
0
100
AcDbLine
 62
250
  6
CONTINUOUS
 10
330.883373431
 20
189.2435403671
 11
330.8782571905
 21
193.1711753415
  0
LINE
  5
4D5
100
AcDbEntity
  8
0
100
AcDbLine
 62
250
  6
CONTINUOUS
 10
330.5777475778
 20
194.0424792452
 11
330.5767548392
 21
195.0896214089
  0
LINE
  5
4D6
100
AcDbEntity
  8
0
100
AcDbLine
 62
250
  6
CONTINUOUS
 10
330.8773571985
 20
194.0275618868
 11
330.876348271
 21
195.0896214099
  0
LINE
  5
4D7
100
AcDbEntity
  8
0
100
AcDbLine
 62
7
  6
CONTINUOUS
 10
330.7235988268
 20
186.2701231808
 11
330.7239508827
 21
185.1216672969
  0
LINE
  5
4D8
100
AcDbEntity
  8
0
100
AcDbLine
 62
7
  6
CONTINUOUS
 10
330.7228360939
 20
189.0687515133
 11
330.7233558751
 21
187.1096055793
  0
LINE
  5
4D9
100
AcDbEntity
  8
0
100
AcDbLine
 62
7
  6
CONTINUOUS
 10
330.7333471988
 20
186.2896214099
 11
330.7333471988
 21
187.0896214099
  0
LINE
  5
4DA
100
AcDbEntity
  8
0
100
AcDbLine
 62
7
  6
CONTINUOUS
 10
330.7556387894
 20
188.7398976725
 11
330.7556387894
 21
185.4393451473
  0
LINE
  5
4DB
100
AcDbEntity
  8
0
100
AcDbLine
 62
7
  6
CONTINUOUS
 10
330.9152976753
 20
213.9957306826
 11
330.9152976753
 21
213.1896214099
  0
LINE
  5
4DC
100
AcDbEntity
  8
0
100
AcDbLine
 62
7
  6
CONTINUOUS
 10
330.9152976753
 20
193.9896214099
 11
330.9152976753
 21
193.1835121372
  0
LINE
  5
4DD
100
AcDbEntity
  8
0
100
AcDbLine
 62
7
  6
CONTINUOUS
 10
330.9336403981
 20
220.8896214099
 11
330.9336403981
 21
220.0896214099
  0
LINE
  5
4DE
100
AcDbEntity
  8
0
100
AcDbLine
 62
7
  6
CONTINUOUS
 10
330.9781870104
 20
224.5396214099
 11
330.9781870104
 21
189.0896214099
  0
LINE
  5
4DF
100
AcDbEntity
  8
0
100
AcDbLine
 62
7
  6
CONTINUOUS
 10
330.9781870104
 20
185.0896214099
 11
330.9781870104
 21
182.6396214099
  0
LINE
  5
4E0
100
AcDbEntity
  8
0
100
AcDbLine
 62
250
  6
CONTINUOUS
 10
330.5767548365
 20
212.0896214105
 11
330.5777475778
 21
213.1367635716
  0
LINE
  5
4E1
100
AcDbEntity
  8
0
100
AcDbLine
 62
250
  6
CONTINUOUS
 10
330.8763482683
 20
212.0896214099
 11
330.8773571985
 21
213.1516809331
  0
LINE
  5
4E2
100
AcDbEntity
  8
0
100
AcDbLine
 62
250
  6
CONTINUOUS
 10
330.5786668946
 20
214.0130292738
 11
330.5872275122
 21
220.0690664921
  0
LINE
  5
4E3
100
AcDbEntity
  8
0
100
AcDbLine
 62
250
  6
CONTINUOUS
 10
330.8782571905
 20
214.0080674784
 11
330.8868421791
 21
220.0740346791
  0
LINE
  5
4E4
100
AcDbEntity
  8
0
100
AcDbLine
 62
250
  6
CONTINUOUS
 10
330.5887206775
 20
220.9096787214
 11
330.596025183
 21
224.5396214099
  0
LINE
  5
4E5
100
AcDbEntity
  8
0
100
AcDbLine
 62
250
  6
CONTINUOUS
 10
330.8883194829
 20
220.9047161063
 11
330.8956415273
 21
224.5396214099
  0
LWPOLYLINE
  5
4E6
100
AcDbEntity
  8
0
100
AcDbPolyline
 62
7
  6
CONTINUOUS
 90
46
 70
0
 10
323.8798903358
 20
190.2370221482
 10
323.8768876121
 20
190.2342402833
 10
323.8737874438
 20
190.2315333035
 10
323.8705910004
 20
190.2289026485
 10
323.8673007802
 20
190.2263506966
 10
323.8639167602
 20
190.2238778242
 10
323.8604361246
 20
190.2214826081
 10
323.8568598372
 20
190.2191663772
 10
323.8531890374
 20
190.2169308192
 10
323.8494207719
 20
190.2147753769
 10
323.8455558342
 20
190.2127015069
 10
323.8415953379
 20
190.210711021
 10
323.8375364985
 20
190.2088042074
 10
323.833380152
 20
190.206982723
 10
323.8291272988
 20
190.2052484258
 10
323.8247751662
 20
190.2036022029
 10
323.8203242641
 20
190.2020457679
 10
323.8157759239
 20
190.2005811934
 10
323.8111284603
 20
190.1992101528
 10
323.8063827934
 20
190.1979345928
 10
323.801540016
 20
190.1967565122
 10
323.7965986347
 20
190.1956778556
 10
323.7915596684
 20
190.194700665
 10
323.7864243303
 20
190.1938270028
 10
323.781191384
 20
190.1930590294
 10
323.7758628009
 20
190.1923989444
 10
323.77043913
 20
190.1918487674
 10
323.7649169367
 20
190.191410678
 10
323.7593026905
 20
190.1910870734
 10
323.7535927204
 20
190.190879996
 10
323.7477679755
 20
190.1907922372
 10
323.7418309545
 20
190.1908267178
 10
323.7357816504
 20
190.1909869922
 10
323.7295966084
 20
190.1912789232
 10
323.7232762962
 20
190.1917067661
 10
323.7168227814
 20
190.1922752769
 10
323.7102145668
 20
190.1929933486
 10
323.7034526318
 20
190.1938665622
 10
323.6965392038
 20
190.1949007932
 10
323.6894545205
 20
190.1961075585
 10
323.6822003729
 20
190.1974937495
 10
323.674779467
 20
190.1990663912
 10
323.6671735668
 20
190.2008393564
 10
323.6593786958
 20
190.2028232021
 10
323.6514052949
 20
190.2050240176
 10
323.6432572606
 20
190.2074501061
  0
LINE
  5
4E7
100
AcDbEntity
  8
0
100
AcDbLine
 62
7
  6
CONTINUOUS
 10
311.4356990104
 20
223.0709734099
 11
311.0520630104
 21
223.0709734099
  0
LINE
  5
4E8
100
AcDbEntity
  8
0
100
AcDbLine
 62
7
  6
CONTINUOUS
 10
310.2162210104
 20
223.0709734099
 11
309.8238510104
 21
223.0709734099
  0
LINE
  5
4E9
100
AcDbEntity
  8
0
100
AcDbLine
 62
7
  6
CONTINUOUS
 10
309.0348950104
 20
223.0709734099
 11
308.6386510104
 21
223.0709734099
  0
LINE
  5
4EA
100
AcDbEntity
  8
0
100
AcDbLine
 62
7
  6
CONTINUOUS
 10
307.7098770104
 20
223.0709734099
 11
307.3135760104
 21
223.0709734099
  0
LINE
  5
4EB
100
AcDbEntity
  8
0
100
AcDbLine
 62
7
  6
CONTINUOUS
 10
306.5782230104
 20
223.0709734099
 11
306.1474230104
 21
223.0709734099
  0
LINE
  5
4EC
100
AcDbEntity
  8
0
100
AcDbLine
 62
7
  6
CONTINUOUS
 10
308.2536180104
 20
223.0710874099
 11
307.8570460104
 21
223.0710874099
  0
LINE
  5
4ED
100
AcDbEntity
  8
0
100
AcDbLine
 62
7
  6
CONTINUOUS
 10
288.7581870104
 20
224.5396214099
 11
330.9781870104
 21
224.5396214099
  0
LWPOLYLINE
  5
4EE
100
AcDbEntity
  8
0
100
AcDbPolyline
 62
7
  6
CONTINUOUS
 90
25
 70
0
 10
312.8275671208
 20
222.7585006935
 10
312.8430950486
 20
222.7562223272
 10
312.8583055989
 20
222.7531535209
 10
312.8731987715
 20
222.749294274
 10
312.8878144919
 20
222.7446315608
 10
312.9021128347
 20
222.7391784054
 10
312.9159740239
 20
222.7329738818
 10
312.9294160686
 20
222.7260165774
 10
312.9424209598
 20
222.7183079024
 10
312.9548148939
 20
222.7098911645
 10
312.9665880406
 20
222.7007492356
 10
312.9777502302
 20
222.6908992409
 10
312.9881571496
 20
222.680435868
 10
312.9977667299
 20
222.669336039
 10
313.0066210401
 20
222.6576228287
 10
313.0147019742
 20
222.6454601543
 10
313.022009101
 20
222.6328559674
 10
313.0285428518
 20
222.6198023139
 10
313.034286415
 20
222.6064392534
 10
313.0392537162
 20
222.5927778078
 10
313.0434308298
 20
222.5788069534
 10
313.0467591681
 20
222.5646336822
 10
313.0492192017
 20
222.5502936581
 10
313.05083046
 20
222.5357512161
 10
313.0515929428
 20
222.5210063554
  0
LWPOLYLINE
  5
4EF
100
AcDbEntity
  8
0
100
AcDbPolyline
 62
7
  6
CONTINUOUS
 90
8
 70
0
 10
330.8883194829
 20
220.9047161063
 10
330.8850563937
 20
220.9052512247
 10
330.8789276659
 20
220.9057680244
 10
330.8699332995
 20
220.9062665053
 10
330.857914544
 20
220.9067515644
 10
330.8430301499
 20
220.9072183048
 10
330.8257563684
 20
220.907652036
 10
330.783957063
 20
220.9084174959
  0
LWPOLYLINE
  5
4F0
100
AcDbEntity
  8
0
100
AcDbPolyline
 62
7
  6
CONTINUOUS
 90
13
 70
0
 10
313.113751473
 20
223.0287744446
 10
313.0486408965
 20
223.0490881012
 10
312.9802800071
 20
223.065811126
 10
312.9086688048
 20
223.078943533
 10
312.8336268114
 20
223.0884149643
 10
312.7553345051
 20
223.0942957971
 10
312.6743333206
 20
223.0967971429
 10
312.5907093297
 20
223.0957109019
 10
312.5043764607
 20
223.091245175
 10
312.4156179326
 20
223.0842353717
 10
312.3245281518
 20
223.0749599589
 10
312.231012712
 20
223.0631404602
 10
312.1350716132
 20
223.0487768687
  0
LWPOLYLINE
  5
4F1
100
AcDbEntity
  8
0
100
AcDbPolyline
 62
250
  6
CONTINUOUS
 90
19
 70
0
 10
331.6987176579
 20
225.0294664977
 10
331.6977062479
 20
225.0488165791
 10
331.6951150106
 20
225.0673818969
 10
331.690943946
 20
225.0851624511
 10
331.6850225513
 20
225.1023278357
 10
331.6775213293
 20
225.1187084566
 10
331.6689517888
 20
225.1337955319
 10
331.6592937311
 20
225.1474363216
 10
331.648567355
 20
225.1597835658
 10
331.6373447656
 20
225.1707867021
 10
331.6258353021
 20
225.1803234369
 10
331.6138296253
 20
225.1885160639
 10
331.6012718228
 20
225.1956809027
 10
331.5882706428
 20
225.2019350226
 10
331.574717337
 20
225.2071613541
 10
331.5602297489
 20
225.2113250087
 10
331.5446804929
 20
225.2144143568
 10
331.5281969545
 20
225.2164410278
 10
331.5107791337
 20
225.2174050218
  0
LWPOLYLINE
  5
4F2
100
AcDbEntity
  8
0
100
AcDbPolyline
 62
250
  6
CONTINUOUS
 90
3
 70
0
 10
331.7248969865
 20
185.25015106
 10
331.7247181656
 20
185.2558001976
 10
331.72454952
 20
185.2652582782
  0
LINE
  5
4F3
100
AcDbEntity
  8
0
100
AcDbLine
 62
250
  6
CONTINUOUS
 10
331.9243836529
 20
185.4633762468
 11
331.9240955077
 21
185.4806621048
  0
LINE
  5
4F4
100
AcDbEntity
  8
0
100
AcDbLine
 62
250
  6
CONTINUOUS
 10
331.72454952
 20
185.2652582782
 11
331.7242419804
 21
185.2940283885
  0
LINE
  5
4F5
100
AcDbEntity
  8
0
100
AcDbLine
 62
250
  6
CONTINUOUS
 10
331.9240955077
 20
185.4806621048
 11
331.923756019
 21
185.5134091335
  0
LINE
  5
4F6
100
AcDbEntity
  8
0
100
AcDbLine
 62
250
  6
CONTINUOUS
 10
331.7242419804
 20
185.2940283885
 11
331.7235980836
 21
185.4261189418
  0
LINE
  5
4F7
100
AcDbEntity
  8
0
100
AcDbLine
 62
250
  6
CONTINUOUS
 10
331.923756019
 20
185.5134091335
 11
331.9233774303
 21
185.5879140118
  0
LINE
  5
4F8
100
AcDbEntity
  8
0
100
AcDbLine
 62
250
  6
CONTINUOUS
 10
331.9233774303
 20
185.5879140118
 11
331.9232960698
 21
185.6486289393
  0
LINE
  5
4F9
100
AcDbEntity
  8
0
100
AcDbLine
 62
250
  6
CONTINUOUS
 10
331.2556197509
 20
188.5306138806
 11
331.2556197509
 21
185.6486289393
  0
LINE
  5
4FA
100
AcDbEntity
  8
0
100
AcDbLine
 62
250
  6
CONTINUOUS
 10
331.5107791337
 20
181.961837798
 11
331.5107791337
 21
181.6799300118
  0
LINE
  5
4FB
100
AcDbEntity
  8
0
100
AcDbLine
 62
250
  6
CONTINUOUS
 10
331.5107791337
 20
225.2174050218
 11
331.5107791337
 21
225.4993128081
  0
LINE
  5
4FC
100
AcDbEntity
  8
0
100
AcDbLine
 62
250
  6
CONTINUOUS
 10
331.6987176579
 20
182.1497763222
 11
331.6987176579
 21
185.0896214099
  0
LINE
  5
4FD
100
AcDbEntity
  8
0
100
AcDbLine
 62
250
  6
CONTINUOUS
 10
331.6987176579
 20
189.0896214099
 11
331.6987176579
 21
225.0294664977
  0
LINE
  5
4FE
100
AcDbEntity
  8
0
100
AcDbLine
 62
7
  6
CONTINUOUS
 10
331.9232960698
 20
185.6486289393
 11
331.9232960698
 21
188.5306138806
  0
LINE
  5
4FF
100
AcDbEntity
  8
0
100
AcDbLine
 62
7
  6
CONTINUOUS
 10
331.941849377
 20
185.2793619438
 11
331.941849377
 21
188.8998808761
  0
LINE
  5
500
100
AcDbEntity
  8
0
100
AcDbLine
 62
250
  6
CONTINUOUS
 10
331.9806254441
 20
182.1497763222
 11
331.9806254441
 21
225.0294664977
  0
LINE
  5
501
100
AcDbEntity
  8
0
100
AcDbLine
 62
7
  6
CONTINUOUS
 10
332.0907650365
 20
225.13960609
 11
332.0907650365
 21
182.0396367298
  0
LINE
  5
502
100
AcDbEntity
  8
0
100
AcDbLine
 62
7
  6
CONTINUOUS
 10
332.1407650365
 20
225.1592235484
 11
332.1407650365
 21
182.0200192715
  0
LINE
  5
503
100
AcDbEntity
  8
0
100
AcDbLine
 62
250
  6
CONTINUOUS
 10
331.7235980836
 20
185.4261189418
 11
331.7233144816
 21
188.5702555413
  0
LINE
  5
504
100
AcDbEntity
  8
0
100
AcDbLine
 62
250
  6
CONTINUOUS
 10
331.9232960698
 20
188.5306138806
 11
331.9234922039
 21
188.6224932846
  0
LINE
  5
505
100
AcDbEntity
  8
0
100
AcDbLine
 62
250
  6
CONTINUOUS
 10
331.7233144816
 20
188.5702555413
 11
331.7239448503
 21
188.8405526941
  0
LINE
  5
506
100
AcDbEntity
  8
0
100
AcDbLine
 62
250
  6
CONTINUOUS
 10
331.9234922039
 20
188.6224932846
 11
331.9238402594
 21
188.6757161415
  0
LINE
  5
507
100
AcDbEntity
  8
0
100
AcDbLine
 62
250
  6
CONTINUOUS
 10
331.7239448503
 20
188.8405526941
 11
331.7243687395
 21
188.898990858
  0
LINE
  5
508
100
AcDbEntity
  8
0
100
AcDbLine
 62
250
  6
CONTINUOUS
 10
331.9238402594
 20
188.6757161415
 11
331.924141821
 21
188.7019999077
  0
LWPOLYLINE
  5
509
100
AcDbEntity
  8
0
100
AcDbPolyline
 62
250
  6
CONTINUOUS
 90
4
 70
0
 10
331.7243687395
 20
188.898990858
 10
331.7246166749
 20
188.9181847698
 10
331.7247529182
 20
188.924847069
 10
331.7248969394
 20
188.9290917598
  0
LWPOLYLINE
  5
50A
100
AcDbEntity
  8
0
100
AcDbPolyline
 62
250
  6
CONTINUOUS
 90
6
 70
0
 10
331.924141821
 20
188.7019999077
 10
331.924361217
 20
188.7149199042
 10
331.9244807323
 20
188.7200123821
 10
331.9246091873
 20
188.7242005322
 10
331.9247453845
 20
188.7274806782
 10
331.9248893241
 20
188.7298528202
  0
LWPOLYLINE
  5
50B
100
AcDbEntity
  8
0
100
AcDbPolyline
 62
7
  6
CONTINUOUS
 90
19
 70
0
 10
331.941849377
 20
185.2793619438
 10
331.9412907497
 20
185.2645512807
 10
331.939576363
 20
185.2496507093
 10
331.9366483257
 20
185.2347538122
 10
331.9324506307
 20
185.2199682323
 10
331.9269441335
 20
185.2054024771
 10
331.9201168592
 20
185.1911622579
 10
331.9119500627
 20
185.1773707311
 10
331.9024458418
 20
185.1641620037
 10
331.8916623404
 20
185.1516554157
 10
331.8797492849
 20
185.1400785788
 10
331.8666631268
 20
185.1294416208
 10
331.852135958
 20
185.1196074803
 10
331.8359528721
 20
185.1106722533
 10
331.8183767369
 20
185.1030266202
 10
331.7998819898
 20
185.0969640614
 10
331.7807565091
 20
185.0926126657
 10
331.7610459398
 20
185.0900477593
 10
331.7409355937
 20
185.0893602173
  0
LWPOLYLINE
  5
50C
100
AcDbEntity
  8
0
100
AcDbPolyline
 62
7
  6
CONTINUOUS
 90
19
 70
0
 10
330.7228360939
 20
189.0687515133
 10
330.7239807292
 20
189.0902336371
 10
330.7273631675
 20
189.1110880579
 10
330.7328650933
 20
189.1310948242
 10
330.7404363323
 20
189.1502567115
 10
330.749875001
 20
189.1681767682
 10
330.7606347875
 20
189.1841588656
 10
330.7722298309
 20
189.1980103018
 10
330.7844855132
 20
189.2099636127
 10
330.7971965791
 20
189.2201001791
 10
330.8103009228
 20
189.2285988059
 10
330.8234487599
 20
189.2354277667
 10
330.8359932821
 20
189.2404702671
 10
330.8477864164
 20
189.2439518974
 10
330.8586315635
 20
189.2460692622
 10
330.8677678874
 20
189.2468619556
 10
330.874871429
 20
189.2465456281
 10
330.8800868457
 20
189.2453886361
 10
330.8833737337
 20
189.2435399069
  0
LWPOLYLINE
  5
50D
100
AcDbEntity
  8
0
100
AcDbPolyline
 62
250
  6
CONTINUOUS
 90
13
 70
0
 10
330.7556387894
 20
188.7398976725
 10
330.757367942
 20
188.7658910635
 10
330.7624861541
 20
188.7914401294
 10
330.7709059361
 20
188.8161081412
 10
330.7824833627
 20
188.8394734302
 10
330.7970205322
 20
188.8611365966
 10
330.81426895
 20
188.8807273368
 10
330.8339337764
 20
188.897910772
 10
330.8556788658
 20
188.912393173
 10
330.8791325135
 20
188.923926982
 10
330.903893809
 20
188.9323150432
 10
330.9295394894
 20
188.9374139732
 10
330.955631174
 20
188.9391366122
  0
LWPOLYLINE
  5
50E
100
AcDbEntity
  8
0
100
AcDbPolyline
 62
250
  6
CONTINUOUS
 90
13
 70
0
 10
330.7955173275
 20
188.7298528206
 10
330.7978265609
 20
188.7553117708
 10
330.8031118359
 20
188.7803537996
 10
330.811286599
 20
188.8045688187
 10
330.8222169787
 20
188.8275602839
 10
330.8357239774
 20
188.8489516871
 10
330.8515864017
 20
188.8683927225
 10
330.8695444866
 20
188.8855650257
 10
330.8893041494
 20
188.9001873855
 10
330.9105418044
 20
188.9120203486
 10
330.9329096633
 20
188.9208701415
 10
330.9560414303
 20
188.9265918435
 10
330.9795583007
 20
188.9290917594
  0
LINE
  5
50F
100
AcDbEntity
  8
0
100
AcDbLine
 62
250
  6
CONTINUOUS
 10
330.7556387894
 20
185.4393451473
 11
330.7239508827
 21
185.1216672969
  0
LINE
  5
510
100
AcDbEntity
  8
0
100
AcDbLine
 62
250
  6
CONTINUOUS
 10
330.955631174
 20
185.2401062077
 11
330.933115248
 21
185.0143793692
  0
LINE
  5
511
100
AcDbEntity
  8
0
100
AcDbLine
 62
250
  6
CONTINUOUS
 10
331.7248969394
 20
188.9290917598
 11
331.7409355937
 21
189.0898826025
  0
LWPOLYLINE
  5
512
100
AcDbEntity
  8
0
100
AcDbPolyline
 62
250
  6
CONTINUOUS
 90
19
 70
0
 10
288.2255948872
 20
225.2174050218
 10
288.2039552295
 20
225.215934192
 10
288.1836229918
 20
225.2128038348
 10
288.164598174
 20
225.2080139504
 10
288.1468052024
 20
225.2013219159
 10
288.1303196507
 20
225.1929703541
 10
288.1153682402
 20
225.1836871329
 10
288.1020774965
 20
225.1735193652
 10
288.090320894
 20
225.162419938
 10
288.0799455767
 20
225.1509753804
 10
288.0710259003
 20
225.1393913965
 10
288.0634875091
 20
225.1274622821
 10
288.0569544807
 20
225.1151574535
 10
288.0513185713
 20
225.1026115613
 10
288.0466880248
 20
225.089689955
 10
288.0430116498
 20
225.075958099
 10
288.0402723826
 20
225.0612711482
 10
288.038487287
 20
225.0457739478
 10
288.037656363
 20
225.0294664977
  0
LINE
  5
513
100
AcDbEntity
  8
0
100
AcDbLine
 62
250
  6
CONTINUOUS
 10
288.037656363
 20
225.0294664977
 11
287.7557485768
 21
225.0294664977
  0
LINE
  5
514
100
AcDbEntity
  8
0
100
AcDbLine
 62
250
  6
CONTINUOUS
 10
331.6987176579
 20
225.0294664977
 11
331.9806254441
 21
225.0294664977
  0
LINE
  5
515
100
AcDbEntity
  8
0
100
AcDbLine
 62
250
  6
CONTINUOUS
 10
331.5107791337
 20
225.2174050218
 11
288.2255948872
 21
225.2174050218
  0
LINE
  5
516
100
AcDbEntity
  8
0
100
AcDbLine
 62
250
  6
CONTINUOUS
 10
331.5107791337
 20
225.4993128081
 11
288.2255948872
 21
225.4993128081
  0
LINE
  5
517
100
AcDbEntity
  8
0
100
AcDbLine
 62
7
  6
CONTINUOUS
 10
288.1154552948
 20
225.6094524004
 11
331.6209187261
 21
225.6094524004
  0
LINE
  5
518
100
AcDbEntity
  8
0
100
AcDbLine
 62
7
  6
CONTINUOUS
 10
288.0952283847
 20
225.6594524004
 11
331.6411456362
 21
225.6594524004
  0
LINE
  5
519
100
AcDbEntity
  8
0
100
AcDbLine
 62
7
  6
CONTINUOUS
 10
330.8883194829
 20
220.9047161063
 11
330.9336403981
 21
220.8896214099
  0
LINE
  5
51A
100
AcDbEntity
  8
0
100
AcDbLine
 62
250
  6
CONTINUOUS
 10
331.9248893241
 20
188.7298528202
 11
331.941849377
 21
188.8998808761
  0
LWPOLYLINE
  5
51B
100
AcDbEntity
  8
0
100
AcDbPolyline
 62
250
  6
CONTINUOUS
 90
19
 70
0
 10
288.22559699
 20
225.4993107053
 10
288.1751949206
 20
225.493320919
 10
288.1269332378
 20
225.4826229752
 10
288.0812102403
 20
225.467727824
 10
288.0382772788
 20
225.4490918294
 10
287.9984435179
 20
225.4272746887
 10
287.9620473823
 20
225.4029989276
 10
287.9292482656
 20
225.3768650955
 10
287.899933518
 20
225.3493074771
 10
287.8739166087
 20
225.3207937326
 10
287.851314148
 20
225.2920306681
 10
287.8317456013
 20
225.2630838346
 10
287.8144244902
 20
225.2332634847
 10
287.799393692
 20
225.2028837298
 10
287.7866098686
 20
225.1719839805
 10
287.7755982294
 20
225.1392338259
 10
287.7665057562
 20
225.1042242173
 10
287.7597956264
 20
225.0675783544
 10
287.7557485768
 20
225.0294664977
  0
LWPOLYLINE
  5
51C
100
AcDbEntity
  8
0
100
AcDbPolyline
 62
250
  6
CONTINUOUS
 90
19
 70
0
 10
331.9806235563
 20
225.0294646098
 10
331.9755572475
 20
225.0744451596
 10
331.9665089007
 20
225.11846016
 10
331.9536619008
 20
225.1611774854
 10
331.9371148975
 20
225.2025081651
 10
331.9171674442
 20
225.2419309403
 10
331.8944969505
 20
225.2785753643
 10
331.869591773
 20
225.3121585842
 10
331.8427695445
 20
225.3427542951
 10
331.8146340813
 20
225.3702078683
 10
331.7859562976
 20
225.3942585396
 10
331.7567203297
 20
225.4153323139
 10
331.7262072411
 20
225.4341986974
 10
331.6946732085
 20
225.4507733143
 10
331.6622043873
 20
225.4650112542
 10
331.6275930187
 20
225.4773003583
 10
331.5904808497
 20
225.4874286526
 10
331.5514750775
 20
225.4948806012
 10
331.5107791337
 20
225.4993128081
  0
LINE
  5
51D
100
AcDbEntity
  8
0
100
AcDbLine
 62
7
  6
CONTINUOUS
 10
330.7235988268
 20
186.2701231808
 11
330.7333471988
 21
186.2896214099
  0
LWPOLYLINE
  5
51E
100
AcDbEntity
  8
0
100
AcDbPolyline
 62
7
  6
CONTINUOUS
 90
19
 70
0
 10
330.89083147
 20
184.9469332997
 10
330.887439993
 20
184.9449538603
 10
330.881996832
 20
184.9436292432
 10
330.8745412595
 20
184.9431236633
 10
330.8648750948
 20
184.943734611
 10
330.8533815022
 20
184.9457072819
 10
330.8409859079
 20
184.9490736081
 10
330.8279607135
 20
184.9540010684
 10
330.814374086
 20
184.9607328669
 10
330.800805628
 20
184.9691928559
 10
330.7875884958
 20
184.9793836702
 10
330.7748341501
 20
184.9914721837
 10
330.7627879287
 20
185.0055161177
 10
330.7516202273
 20
185.0217704816
 10
330.7418537207
 20
185.0400145739
 10
330.7340898826
 20
185.0594207035
 10
330.7285076887
 20
185.0795243147
 10
330.7251019472
 20
185.1003495613
 10
330.7239508827
 20
185.1216672969
  0
LINE
  5
51F
100
AcDbEntity
  8
0
100
AcDbLine
 62
250
  6
CONTINUOUS
 10
331.2556197509
 20
185.6486964192
 11
331.215569644
 21
185.6288832868
  0
LINE
  5
520
100
AcDbEntity
  8
0
100
AcDbLine
 62
250
  6
CONTINUOUS
 10
331.215569644
 20
185.6288832868
 11
331.1402942011
 21
185.5923269333
  0
LWPOLYLINE
  5
521
100
AcDbEntity
  8
0
100
AcDbPolyline
 62
250
  6
CONTINUOUS
 90
15
 70
0
 10
331.1402942011
 20
185.5923269333
 10
331.0725927485
 20
185.5597859045
 10
331.0417191141
 20
185.5451671808
 10
331.012937617
 20
185.5317607773
 10
330.9861881365
 20
185.5194945126
 10
330.9611895069
 20
185.5082686787
 10
330.9380808092
 20
185.4981139537
 10
330.9166984303
 20
185.4889996595
 10
330.8964118254
 20
185.4807340533
 10
330.8773848234
 20
185.4732231979
 10
330.8595648165
 20
185.4665610306
 10
330.8422622175
 20
185.4608376202
 10
330.8255005117
 20
185.4560829897
 10
330.8098218473
 20
185.4522671162
 10
330.7955173307
 20
185.4493899997
  0
LWPOLYLINE
  5
522
100
AcDbEntity
  8
0
100
AcDbPolyline
 62
7
  6
CONTINUOUS
 90
10
 70
0
 10
330.9781870104
 20
185.0896214099
 10
330.9280142873
 20
185.005917593
 10
330.923015484
 20
184.9977034889
 10
330.9181188382
 20
184.9897370568
 10
330.91332631
 20
184.9820259441
 10
330.9086359393
 20
184.9745625034
 10
330.9040418449
 20
184.9673237926
 10
330.8995420664
 20
184.9603021642
 10
330.8951385644
 20
184.9535052656
 10
330.8908313386
 20
184.9469330969
  0
LINE
  5
523
100
AcDbEntity
  8
0
100
AcDbLine
 62
250
  6
CONTINUOUS
 10
331.2557367455
 20
185.6486289393
 11
331.1864278407
 21
185.5360193776
  0
LWPOLYLINE
  5
524
100
AcDbEntity
  8
0
100
AcDbPolyline
 62
250
  6
CONTINUOUS
 90
16
 70
0
 10
331.1864278407
 20
185.5360193776
 10
331.1655552499
 20
185.5023521239
 10
331.1458108226
 20
185.4709203112
 10
331.1272724083
 20
185.4417142037
 10
331.1100193533
 20
185.4148685401
 10
331.0939723112
 20
185.3903495742
 10
331.0789710917
 20
185.3678979307
 10
331.0650718475
 20
185.3476617785
 10
331.0522184257
 20
185.3294897621
 10
331.0400821784
 20
185.3128471374
 10
331.0286316174
 20
185.2979627626
 10
331.0178982307
 20
185.2848314389
 10
331.0076478337
 20
185.2730267983
 10
330.9978023649
 20
185.2628676673
 10
330.9884398858
 20
185.255068912
 10
330.9795603963
 20
185.25015106
  0
CIRCLE
  5
525
100
AcDbEntity
  8
ASSI
100
AcDbCircle
 62
7
  6
CONTINUOUS
 10
306.1181870104
 20
197.0896214099
 40
0.5
  0
CIRCLE
  5
526
100
AcDbEntity
  8
ASSI
100
AcDbCircle
 62
7
  6
CONTINUOUS
 10
306.1181870104
 20
210.0896214099
 40
0.5
  0
CIRCLE
  5
527
100
AcDbEntity
  8
ASSI
100
AcDbCircle
 62
7
  6
CONTINUOUS
 10
313.6181870104
 20
197.0896214099
 40
0.5
  0
CIRCLE
  5
528
100
AcDbEntity
  8
ASSI
100
AcDbCircle
 62
7
  6
CONTINUOUS
 10
313.6181870104
 20
210.0896214099
 40
0.5
  0
ELLIPSE
  5
529
100
AcDbEntity
  8
0
100
AcDbEllipse
 62
7
  6
CONTINUOUS
 10
356.9881678686
 20
203.5896214099
 30
0.0
 11
0.0
 21
497.9
 31
0.0
 40
0.0524077793
 41
1.5537237963
 42
1.5878688573
  0
ELLIPSE
  5
52A
100
AcDbEntity
  8
0
100
AcDbEllipse
 62
7
  6
CONTINUOUS
 10
262.7482061523
 20
203.5896214099
 30
0.0
 11
0.0
 21
497.9
 31
0.0
 40
0.0524077793
 41
-1.5878688573
 42
-1.5537237963
  0
ELLIPSE
  5
52B
100
AcDbEntity
  8
0
100
AcDbEllipse
 62
7
  6
CONTINUOUS
 10
288.0956851484
 20
182.0204765924
 30
0.0
 11
0.1582391023
 21
0.4751033573
 31
0.0
 40
0.9984778551
 41
-4.3904252414
 42
-2.8205423031
  0
ELLIPSE
  5
52C
100
AcDbEntity
  8
0
100
AcDbEllipse
 62
7
  6
CONTINUOUS
 10
288.0956851484
 20
225.1587662274
 30
0.0
 11
-0.1582391023
 21
0.4751033573
 31
0.0
 40
0.9984778551
 41
-0.3210503505
 42
1.2488325878
  0
ELLIPSE
  5
52D
100
AcDbEntity
  8
0
100
AcDbEllipse
 62
7
  6
CONTINUOUS
 10
331.6406888724
 20
225.1587662274
 30
0.0
 11
0.1582391023
 21
0.4751033573
 31
0.0
 40
0.9984778551
 41
-1.2488325878
 42
0.3210503505
  0
ELLIPSE
  5
52E
100
AcDbEntity
  8
0
100
AcDbEllipse
 62
7
  6
CONTINUOUS
 10
331.6406888724
 20
182.0204765924
 30
0.0
 11
-0.1582391023
 21
0.4751033573
 31
0.0
 40
0.9984778551
 41
-3.4626430041
 42
-1.8927600658
  0
ELLIPSE
  5
52F
100
AcDbEntity
  8
0
100
AcDbEllipse
 62
7
  6
CONTINUOUS
 10
297.0190877461
 20
190.4936960951
 30
0.0
 11
0.1086702276
 21
0.1692379683
 31
0.0
 40
0.9857548738
 41
-2.5633246127
 42
-0.9934416744
  0
ELLIPSE
  5
530
100
AcDbEntity
  8
0
100
AcDbEllipse
 62
7
  6
CONTINUOUS
 10
297.0190877461
 20
193.6855467248
 30
0.0
 11
0.1086702276
 21
-0.1692379683
 31
0.0
 40
0.9857548738
 41
0.9934416744
 42
2.5633246127
  0
ELLIPSE
  5
531
100
AcDbEntity
  8
0
100
AcDbEllipse
 62
7
  6
CONTINUOUS
 10
322.7172862747
 20
190.4936960951
 30
0.0
 11
0.1086702276
 21
-0.1692379683
 31
0.0
 40
0.9857548738
 41
-2.1481509792
 42
-0.5782680409
  0
ELLIPSE
  5
532
100
AcDbEntity
  8
0
100
AcDbEllipse
 62
7
  6
CONTINUOUS
 10
322.7172862747
 20
193.6855467248
 30
0.0
 11
0.1086702276
 21
0.1692379683
 31
0.0
 40
0.9857548738
 41
0.5782680409
 42
2.1481509792
  0
ELLIPSE
  5
533
100
AcDbEntity
  8
0
100
AcDbEllipse
 62
7
  6
CONTINUOUS
 10
297.0190877461
 20
216.6855467248
 30
0.0
 11
0.1086702276
 21
-0.1692379683
 31
0.0
 40
0.9857548738
 41
0.9934416744
 42
2.5633246127
  0
ELLIPSE
  5
534
100
AcDbEntity
  8
0
100
AcDbEllipse
 62
7
  6
CONTINUOUS
 10
297.0190877461
 20
213.4936960951
 30
0.0
 11
0.1086702276
 21
0.1692379683
 31
0.0
 40
0.9857548738
 41
-2.5633246127
 42
-0.9934416744
  0
ELLIPSE
  5
535
100
AcDbEntity
  8
0
100
AcDbEllipse
 62
7
  6
CONTINUOUS
 10
322.7172862747
 20
216.6855467248
 30
0.0
 11
0.1086702276
 21
0.1692379683
 31
0.0
 40
0.9857548738
 41
0.5782680409
 42
2.1481509792
  0
ELLIPSE
  5
536
100
AcDbEntity
  8
0
100
AcDbEllipse
 62
7
  6
CONTINUOUS
 10
322.7172862747
 20
213.4936960951
 30
0.0
 11
0.1086702276
 21
-0.1692379683
 31
0.0
 40
0.9857548738
 41
-2.1481509792
 42
-0.5782680409
  0
ELLIPSE
  5
537
100
AcDbEntity
  8
0
100
AcDbEllipse
 62
7
  6
CONTINUOUS
 10
288.1776978707
 20
182.1018793056
 30
0.0
 11
0.3976412741
 21
0.3976412741
 31
0.0
 40
0.8891264907
 41
-3.8683677079
 42
-2.4148175993
  0
ELLIPSE
  5
538
100
AcDbEntity
  8
0
100
AcDbEllipse
 62
7
  6
CONTINUOUS
 10
331.5586761502
 20
182.1018793056
 30
0.0
 11
-0.3976412741
 21
0.3976412741
 31
0.0
 40
0.8891264907
 41
-3.8683677079
 42
-2.4148175993
  0
ELLIPSE
  5
539
100
AcDbEntity
  8
0
100
AcDbEllipse
 62
7
  6
CONTINUOUS
 10
331.5586761502
 20
225.0773635142
 30
0.0
 11
0.3976412741
 21
0.3976412741
 31
0.0
 40
0.8891264907
 41
-0.7267750543
 42
0.7267750543
  0
ELLIPSE
  5
53A
100
AcDbEntity
  8
0
100
AcDbEllipse
 62
7
  6
CONTINUOUS
 10
288.1776978707
 20
225.0773635142
 30
0.0
 11
0.3976412741
 21
-0.3976412741
 31
0.0
 40
0.8891264907
 41
2.4148175993
 42
3.8683677079
  0
ELLIPSE
  5
53B
100
AcDbEntity
  8
0
100
AcDbEllipse
 62
7
  6
CONTINUOUS
 10
331.6987176579
 20
189.115868009
 30
0.0
 11
0.3
 21
0.0
 31
0.0
 40
0.0874886635
 41
-1.5707963268
 42
-1.4296011956
  0
ELLIPSE
  5
53C
100
AcDbEntity
  8
0
100
AcDbEllipse
 62
7
  6
CONTINUOUS
 10
331.6987176579
 20
185.0633748109
 30
0.0
 11
0.3
 21
-0.0
 31
0.0
 40
0.0874886635
 41
1.4296011956
 42
1.5707963268
  0
ELLIPSE
  5
53D
100
AcDbEntity
  8
0
100
AcDbEllipse
 62
7
  6
CONTINUOUS
 10
321.9484323504
 20
203.5896214099
 30
0.0
 11
-0.0
 21
498.6
 31
0.0
 40
0.0524077793
 41
1.5442214056
 42
1.5498894531
  0
ELLIPSE
  5
53E
100
AcDbEntity
  8
0
100
AcDbEllipse
 62
7
  6
CONTINUOUS
 10
323.6605373946
 20
193.7893469407
 30
0.0
 11
0.1418092487
 21
0.1418092487
 31
0.0
 40
0.9972646886
 41
-0.7840286355
 42
0.7840286355
  0
ELLIPSE
  5
53F
100
AcDbEntity
  8
0
100
AcDbEllipse
 62
7
  6
CONTINUOUS
 10
296.0758366263
 20
193.7893469407
 30
0.0
 11
0.1418092487
 21
-0.1418092487
 31
0.0
 40
0.9972646886
 41
2.3575640181
 42
3.9256212891
  0
ELLIPSE
  5
540
100
AcDbEntity
  8
0
100
AcDbEllipse
 62
7
  6
CONTINUOUS
 10
323.6605373946
 20
213.3898958791
 30
0.0
 11
0.1418092487
 21
-0.1418092487
 31
0.0
 40
0.9972646886
 41
-0.7840286355
 42
0.7840286355
  0
ELLIPSE
  5
541
100
AcDbEntity
  8
0
100
AcDbEllipse
 62
7
  6
CONTINUOUS
 10
296.0758366263
 20
213.3898958791
 30
0.0
 11
0.1418092487
 21
0.1418092487
 31
0.0
 40
0.9972646886
 41
-3.9256212891
 42
-2.3575640181
  0
ELLIPSE
  5
542
100
AcDbEntity
  8
0
100
AcDbEllipse
 62
7
  6
CONTINUOUS
 10
295.1904014814
 20
203.5896214099
 30
0.0
 11
0.0
 21
498.6
 31
0.0
 40
0.0174550649
 41
-1.5377388721
 42
-1.5360519575
  0
ELLIPSE
  5
543
100
AcDbEntity
  8
0
100
AcDbEllipse
 62
7
  6
CONTINUOUS
 10
324.5459725395
 20
203.5896214099
 30
0.0
 11
-0.0
 21
498.6
 31
0.0
 40
0.0174550649
 41
1.5360519575
 42
1.5377388721
  0
ELLIPSE
  5
544
100
AcDbEntity
  8
0
100
AcDbEllipse
 62
7
  6
CONTINUOUS
 10
297.7879416705
 20
203.5896214099
 30
0.0
 11
0.0
 21
498.6
 31
0.0
 40
0.0524077793
 41
-1.5498894531
 42
-1.5442214056
  0
ELLIPSE
  5
545
100
AcDbEntity
  8
0
100
AcDbEllipse
 62
7
  6
CONTINUOUS
 10
297.7879416705
 20
203.5896214099
 30
0.0
 11
0.0
 21
498.6
 31
0.0
 40
0.0524077793
 41
-1.597371248
 42
-1.5917032005
  0
ELLIPSE
  5
546
100
AcDbEntity
  8
0
100
AcDbEllipse
 62
7
  6
CONTINUOUS
 10
324.5459725395
 20
203.5896214099
 30
0.0
 11
-0.0
 21
498.6
 31
0.0
 40
0.0174550649
 41
-4.6793315257
 42
-4.6776446111
  0
ELLIPSE
  5
547
100
AcDbEntity
  8
0
100
AcDbEllipse
 62
7
  6
CONTINUOUS
 10
295.1904014814
 20
203.5896214099
 30
0.0
 11
0.0
 21
498.6
 31
0.0
 40
0.0174550649
 41
-1.6055406961
 42
-1.6038537815
  0
ELLIPSE
  5
548
100
AcDbEntity
  8
0
100
AcDbEllipse
 62
7
  6
CONTINUOUS
 10
321.9484323504
 20
203.5896214099
 30
0.0
 11
-0.0
 21
498.6
 31
0.0
 40
0.0524077793
 41
-4.6914821067
 42
-4.6858140592
  0
ENDSEC
  0
SECTION
  2
OBJECTS
  0
DICTIONARY
  5
C
100
AcDbDictionary
280
0
281
1
  3
ACAD_GROUP
350
D
  3
ACAD_MLINESTYLE
350
17
  3
ACAD_LAYOUT
350
1A
  3
ACAD_PLOTSETTINGS
350
19
  3
ACAD_PLOTSTYLENAME
350
E
  0
DICTIONARY
  5
D
102
{ACAD_REACTORS
330
C
102
}
100
AcDbDictionary
280
0
281
1
  0
ACDBDICTIONARYWDFLT
  5
E
102
{ACAD_REACTORS
330
C
102
}
100
AcDbDictionary
281
1
  3
Normal
350
F
100
AcDbDictionaryWithDefault
340
F
  0
DICTIONARY
  5
17
102
{ACAD_REACTORS
330
C
102
}
100
AcDbDictionary
280
0
281
1
  3
Standard
350
18
  0
DICTIONARY
  5
19
102
{ACAD_REACTORS
330
C
102
}
100
AcDbDictionary
281
1
  0
DICTIONARY
  5
1A
102
{ACAD_REACTORS
330
C
102
}
100
AcDbDictionary
281
1
  3
Model
350
549
  3
Layout1
350
54A
  0
ACDBPLACEHOLDER
  5
F
102
{ACAD_REACTORS
330
E
102
}
  0
MLINESTYLE
  5
18
102
{ACAD_REACTORS
330
17
102
}
100
AcDbMlineStyle
  2
STANDARD
 70
0
  3

 62
256
 51
90.0
 52
90.0
 71
2
 49
0.5
 62
256
  6
BYLAYER
 49
-0.5
 62
256
  6
BYLAYER
  0
LAYOUT
  5
549
102
{ACAD_REACTORS
330
1A
102
}
100
AcDbPlotSettings
  1

  2
none_device
  4
ANSI_C_(22.00_x_17.00_Inches)
  6

 40
0.0
 41
0.0
 42
0.0
 43
0.0
 44
558.8
 45
431.8
 46
0.0
 47
0.0
 48
0.0
 49
0.0
140
0.0
141
0.0
142
1.0
143
1.0
 70
1024
 72
1
 73
0
 74
0
  7

 75
0
147
1.0
148
0.0
149
0.0
100
AcDbLayout
  1
Model
 70
0
 71
0
 10
0.0
 20
0.0
 11
558.8
 21
431.8
 12
0.0
 22
0.0
 32
0.0
 14
0.0
 24
0.0
 34
0.0
 15
0.0
 25
0.0
 35
0.0
146
0.0
 13
0.0
 23
0.0
 33
0.0
 16
1.0
 26
0.0
 36
0.0
 17
0.0
 27
1.0
 37
0.0
 76
0
330
214
345
0
346
0
  0
LAYOUT
  5
54A
102
{ACAD_REACTORS
330
1A
102
}
100
AcDbPlotSettings
  1

  2
none_device
  4
ANSI_C_(22.00_x_17.00_Inches)
  6

 40
0.0
 41
0.0
 42
0.0
 43
0.0
 44
558.8
 45
431.8
 46
0.0
 47
0.0
 48
0.0
 49
0.0
140
0.0
141
0.0
142
1.0
143
1.0
 70
0
 72
1
 73
0
 74
0
  7

 75
0
147
1.0
148
0.0
149
0.0
100
AcDbLayout
  1
Layout1
 70
0
 71
1
 10
0.0
 20
0.0
 11
558.8
 21
431.8
 12
0.0
 22
0.0
 32
0.0
 14
0.0
 24
0.0
 34
0.0
 15
0.0
 25
0.0
 35
0.0
146
0.0
 13
0.0
 23
0.0
 33
0.0
 16
1.0
 26
0.0
 36
0.0
 17
0.0
 27
1.0
 37
0.0
 76
0
330
215
345
0
346
0
  0
ENDSEC
  0
EOF
