  0
SECTION
  2
HEADER
  9
$ACADVER
  1
AC1024
  9
$DWGCODEPAGE
  3
ANSI_1252
  9
$EXTMAX
 10
558.8
 20
431.8
 30
0.0
  9
$EXTMIN
 10
0.0
 20
0.0
 30
0.0
  9
$LIMMIN
 10
0.0
 20
0.0
  9
$LIMMAX
 10
558.8
 20
431.8
  9
$VIEWCTR
 10
279.4
 20
215.9
  9
$VIEWSIZE
 40
431.8
  9
$CLAYER
  8
0
  9
$LTSCALE
 40
30.734
  9
$CELTYPE
  6
BYLAYER
  9
$DIMSCALE
 40
1.0
  9
$DIMASZ
 40
3.0
  9
$DIMEXO
 40
0.5
  9
$DIMDLI
 40
21.2344
  9
$DIMEXE
 40
1.5
  9
$DIMCEN
 40
5.0292
  9
$DIMLFAC
 40
1.0
  9
$DIMBLK
  1
_FILLED
  9
$DIMALT
 70
0
  9
$DIMALTF
 40
0.0393700787
  9
$DIMTXT
 40
3.0
  9
$DIMTOL
 70
1
  9
$DIMLIM
 70
0
  9
$DIMTFAC
 40
1.0
  9
$DIMTP
 40
0.01
  9
$DIMTM
 40
0.01
  9
$DIMGAP
 40
0.625
  9
$DIMDSEP
 70
44
  9
$AUNITS
 70
0
  9
$PDMODE
 70
3
  9
$PDSIZE
 40
3.0
  9
$HANDSEED
  5
54B
  9
$TILEMODE
 70
1
  9
$MEASUREMENT
 70
1
  9
$INSUNITS
 70
4
  0
ENDSEC
  0
SECTION
  2
CLASSES
  0
CLASS
  1
ACDBDICTIONARYWDFLT
  2
AcDbDictionaryWithDefault
  3
AutoCAD 2000
 90
0
 91
1
280
0
281
0
  0
CLASS
  1
ACDBPLACEHOLDER
  2
AcDbPlaceHolder
  3
AutoCAD 2000
 90
0
 91
1
280
0
281
0
  0
CLASS
  1
LAYOUT
  2
AcDbLayout
  3
AutoCAD 2000
 90
0
 91
0
280
0
281
0
  0
ENDSEC
  0
SECTION
  2
TABLES
  0
TABLE
  2
VPORT
  5
8
100
AcDbSymbolTable
 70
2
  0
VPORT
  5
1F4
100
AcDbSymbolTableRecord
100
AcDbViewportTableRecord
  2
*ACTIVE
 70
0
 10
0.0
 20
0.0
 11
1.0
 21
1.0
 12
279.4
 22
215.9
 13
0.0
 23
0.0
 14
1.0
 24
1.0
 15
0.0
 25
0.0
 16
0.0
 26
0.0
 36
1.0
 17
0.0
 27
0.0
 37
0.0
 40
431.8
 41
1.2941176471
 42
50.0
 43
0.0
 44
0.0
 50
0.0
 51
0.0
 71
0
 72
100
 73
1
 74
1
 75
0
 76
0
 77
0
 78
0
  0
ENDTAB
  0
TABLE
  2
LTYPE
  5
5
100
AcDbSymbolTable
 70
6
  0
LTYPE
  5
14
100
AcDbSymbolTableRecord
100
AcDbLinetypeTableRecord
  2
BYBLOCK
 70
0
  3

 72
65
 73
0
 40
0.0
  0
LTYPE
  5
15
100
AcDbSymbolTableRecord
100
AcDbLinetypeTableRecord
  2
BYLAYER
 70
0
  3

 72
65
 73
0
 40
0.0
  0
LTYPE
  5
16
100
AcDbSymbolTableRecord
100
AcDbLinetypeTableRecord
  2
CONTINUOUS
 70
64
  3
Solid line
 72
65
 73
0
 40
0.0
  0
LTYPE
  5
1F5
100
AcDbSymbolTableRecord
100
AcDbLinetypeTableRecord
  2
CENTER
 70
64
  3
____ _ ____ _ ____ _ ____ _ ____ _ ____ _ ____
 72
65
 73
4
 40
0.6
 49
0.375
 74
0
 49
-0.075
 74
0
 49
0.075
 74
0
 49
-0.075
 74
0
  0
LTYPE
  5
1F6
100
AcDbSymbolTableRecord
100
AcDbLinetypeTableRecord
  2
HIDDEN
 70
64
  3
- - - - - - - - - - - - - - - - - - - -
 72
65
 73
2
 40
0.2
 49
0.1
 74
0
 49
-0.1
 74
0
  0
LTYPE
  5
1F7
100
AcDbSymbolTableRecord
100
AcDbLinetypeTableRecord
  2
PHANTOM
 70
64
  3
_____ _ _ _____ _ _ _____ _ _ _____
 72
65
 73
6
 40
0.8
 49
0.45
 74
0
 49
-0.05
 74
0
 49
0.1
 74
0
 49
-0.05
 74
0
 49
0.1
 74
0
 49
-0.05
 74
0
  0
LTYPE
  5
1F8
100
AcDbSymbolTableRecord
100
AcDbLinetypeTableRecord
  2
DOT
 70
64
  3
. . . . . . . . . . . . . . . . . . . .
 72
65
 73
2
 40
0.2
 49
0.1
 74
0
 49
-0.1
 74
0
  0
LTYPE
  5
1F9
100
AcDbSymbolTableRecord
100
AcDbLinetypeTableRecord
  2
DASHED
 70
64
  3
- - - - - - - - - - - - - - - - - - - -
 72
65
 73
2
 40
0.2
 49
0.1
 74
0
 49
-0.1
 74
0
  0
ENDTAB
  0
TABLE
  2
LAYER
  5
2
100
AcDbSymbolTable
 70
36
  0
LAYER
  5
10
100
AcDbSymbolTableRecord
100
AcDbLayerTableRecord
  2
0
 70
0
 62
7
  6
CONTINUOUS
370
-3
390
F
  0
LAYER
  5
1FA
100
AcDbSymbolTableRecord
100
AcDbLayerTableRecord
  2
DEFAULT_1
 70
0
 62
7
  6
CENTER
370
-3
390
F
  0
LAYER
  5
1FB
100
AcDbSymbolTableRecord
100
AcDbLayerTableRecord
  2
DEFAULT_2
 70
0
 62
7
  6
HIDDEN
370
-3
390
F
  0
LAYER
  5
1FC
100
AcDbSymbolTableRecord
100
AcDbLayerTableRecord
  2
DEFAULT_3
 70
0
 62
7
  6
PHANTOM
370
-3
390
F
  0
LAYER
  5
1FD
100
AcDbSymbolTableRecord
100
AcDbLayerTableRecord
  2
ASSI
 70
0
 62
7
  6
CONTINUOUS
370
-3
390
F
  0
LAYER
  5
1FE
100
AcDbSymbolTableRecord
100
AcDbLayerTableRecord
  2
COORDINATE
 70
0
 62
7
  6
CONTINUOUS
370
-3
390
F
  0
LAYER
  5
1FF
100
AcDbSymbolTableRecord
100
AcDbLayerTableRecord
  2
COPY_PUBLISH
 70
0
 62
7
  6
CONTINUOUS
370
-3
390
F
  0
LAYER
  5
200
100
AcDbSymbolTableRecord
100
AcDbLayerTableRecord
  2
COSMETIC
 70
0
 62
7
  6
CONTINUOUS
370
-3
390
F
  0
LAYER
  5
201
100
AcDbSymbolTableRecord
100
AcDbLayerTableRecord
  2
COSMETICI
 70
0
 62
7
  6
CONTINUOUS
370
-3
390
F
  0
LAYER
  5
202
100
AcDbSymbolTableRecord
100
AcDbLayerTableRecord
  2
CURVE
 70
0
 62
7
  6
CONTINUOUS
370
-3
390
F
  0
LAYER
  5
203
100
AcDbSymbolTableRecord
100
AcDbLayerTableRecord
  2
DRAFT
 70
0
 62
7
  6
CONTINUOUS
370
-3
390
F
  0
LAYER
  5
204
100
AcDbSymbolTableRecord
100
AcDbLayerTableRecord
  2
IMPORT_IGES
 70
0
 62
7
  6
CONTINUOUS
370
-3
390
F
  0
LAYER
  5
205
100
AcDbSymbolTableRecord
100
AcDbLayerTableRecord
  2
INTFCLR_11
 70
0
 62
7
  6
CONTINUOUS
370
-3
390
F
  0
LAYER
  5
206
100
AcDbSymbolTableRecord
100
AcDbLayerTableRecord
  2
INTF_1
 70
0
 62
7
  6
CONTINUOUS
370
-3
390
F
  0
LAYER
  5
207
100
AcDbSymbolTableRecord
100
AcDbLayerTableRecord
  2
INTF_3
 70
0
 62
7
  6
CONTINUOUS
370
-3
390
F
  0
LAYER
  5
208
100
AcDbSymbolTableRecord
100
AcDbLayerTableRecord
  2
NOTE
 70
0
 62
7
  6
CONTINUOUS
370
-3
390
F
  0
LAYER
  5
209
100
AcDbSymbolTableRecord
100
AcDbLayerTableRecord
  2
PIANI
 70
0
 62
7
  6
CONTINUOUS
370
-3
390
F
  0
LAYER
  5
20A
100
AcDbSymbolTableRecord
100
AcDbLayerTableRecord
  2
PUNTI
 70
0
 62
7
  6
CONTINUOUS
370
-3
390
F
  0
LAYER
  5
20B
100
AcDbSymbolTableRecord
100
AcDbLayerTableRecord
  2
RACCORDO
 70
0
 62
7
  6
CONTINUOUS
370
-3
390
F
  0
LAYER
  5
20C
100
AcDbSymbolTableRecord
100
AcDbLayerTableRecord
  2
SIMBOLI
 70
0
 62
7
  6
CONTINUOUS
370
-3
390
F
  0
LAYER
  5
20D
100
AcDbSymbolTableRecord
100
AcDbLayerTableRecord
  2
SMUSSO
 70
0
 62
7
  6
CONTINUOUS
370
-3
390
F
  0
LAYER
  5
20E
100
AcDbSymbolTableRecord
100
AcDbLayerTableRecord
  2
SNAPLINE
 70
0
 62
7
  6
CONTINUOUS
370
-3
390
F
  0
LAYER
  5
20F
100
AcDbSymbolTableRecord
100
AcDbLayerTableRecord
  2
SUPERFICI
 70
0
 62
7
  6
CONTINUOUS
370
-3
390
F
  0
LAYER
  5
210
100
AcDbSymbolTableRecord
100
AcDbLayerTableRecord
  2
TRASH
 70
0
 62
7
  6
CONTINUOUS
370
-3
390
F
  0
LAYER
  5
211
100
AcDbSymbolTableRecord
100
AcDbLayerTableRecord
  2
___SHELL
 70
0
 62
7
  6
CONTINUOUS
370
-3
390
F
  0
ENDTAB
  0
TABLE
  2
STYLE
  5
3
100
AcDbSymbolTable
 70
1
  0
STYLE
  5
11
100
AcDbSymbolTableRecord
100
AcDbTextStyleTableRecord
  2
STANDARD
 70
0
 40
0.0
 41
0.8
 50
0.0
 71
0
 42
0.2
  3
txt
  4

  0
STYLE
  5
212
100
AcDbSymbolTableRecord
100
AcDbTextStyleTableRecord
  2
TEXTSTYLE_1
 70
0
 40
0.0
 41
0.8
 50
0.0
 71
0
 42
0.2
  3
gdt
  4

  0
ENDTAB
  0
TABLE
  2
VIEW
  5
6
100
AcDbSymbolTable
 70
0
  0
ENDTAB
  0
TABLE
  2
UCS
  5
7
100
AcDbSymbolTable
 70
0
  0
ENDTAB
  0
TABLE
  2
APPID
  5
9
100
AcDbSymbolTable
 70
1
  0
APPID
  5
213
100
AcDbSymbolTableRecord
100
AcDbRegAppTableRecord
  2
ACAD
 70
0
  0
ENDTAB
  0
TABLE
  2
BLOCK_RECORD
  5
1
100
AcDbSymbolTable
 70
0
  0
BLOCK_RECORD
  5
214
100
AcDbSymbolTableRecord
100
AcDbBlockTableRecord
  2
*Model_Space
  0
BLOCK_RECORD
  5
215
100
AcDbSymbolTableRecord
100
AcDbBlockTableRecord
  2
*Paper_Space
  0
BLOCK_RECORD
  5
216
100
AcDbSymbolTableRecord
100
AcDbBlockTableRecord
  2
_FILLED
  0
ENDTAB
  0
TABLE
  2
DIMSTYLE
  5
A
100
AcDbSymbolTable
 70
1
100
AcDbDimStyleTable
 71
0
  0
DIMSTYLE
105
217
100
AcDbSymbolTableRecord
100
AcDbDimStyleTableRecord
  2
STANDARD
 70
0
  3

  4

 40
1.0
 41
3.0
 42
0.5
 43
0.38
 44
1.5
 45
0.0
 46
0.0
 47
0.01
 48
0.01
140
3.0
141
0.09
142
0.0
143
25.4
144
1.0
145
0.0
146
1.0
147
0.625
 71
1
 72
0
 73
0
 74
0
 75
0
 76
0
 77
1
 78
8
 79
2
170
0
171
1
172
0
173
0
174
0
175
0
176
0
177
0
178
0
270
2
179
2
271
2
272
2
273
2
274
2
275
0
280
0
281
0
282
0
283
1
284
8
285
0
286
0
287
3
288
0
340
11
278
44
341
216
342
216
343
216
344
216
  0
ENDTAB
  0
ENDSEC
  0
SECTION
  2
BLOCKS
  0
BLOCK
  5
20
100
AcDbEntity
  8
0
100
AcDbBlockBegin
  2
*Model_Space
 70
0
 10
0.0
 20
0.0
 30
0.0
  3
*Model_Space
  1

  0
ENDBLK
  5
21
100
AcDbEntity
  8
0
100
AcDbBlockEnd
  0
BLOCK
  5
1C
100
AcDbEntity
  8
0
100
AcDbBlockBegin
  2
*Paper_Space
 70
0
 10
0.0
 20
0.0
 30
0.0
  3
*Paper_Space
  1

  0
ENDBLK
  5
1D
100
AcDbEntity
  8
0
100
AcDbBlockEnd
  0
BLOCK
  5
218
100
AcDbEntity
  8
0
100
AcDbBlockBegin
  2
_FILLED
 70
64
 10
0.0
 20
0.0
  3
_FILLED
  1

  0
SOLID
  5
219
100
AcDbEntity
  8
0
  6
BYBLOCK
 62
0
100
AcDbTrace
 10
0.0
 20
0.0
 11
-1.0
 21
0.3166666667
 12
-1.0
 22
-0.3166666667
 13
-1.0
 23
-0.3166666667
  0
ENDBLK
  5
21A
100
AcDbEntity
  8
0
  6
BYBLOCK
 62
0
100
AcDbBlockEnd
  0
ENDSEC
  0
SECTION
  2
ENTITIES
  0
LWPOLYLINE
  5
21B
100
AcDbEntity
  8
0
100
AcDbPolyline
 62
250
  6
CONTINUOUS
 90
19
 70
0
 10
469.2289367322
 20
100.8056822789
 10
469.2299481422
 20
100.7863321975
 10
469.2325393795
 20
100.7677668796
 10
469.236710444
 20
100.7499863255
 10
469.2426318388
 20
100.7328209409
 10
469.2501330608
 20
100.71644032
 10
469.2587026013
 20
100.7013532447
 10
469.2683606589
 20
100.687712455
 10
469.279087035
 20
100.6753652108
 10
469.2903096244
 20
100.6643620744
 10
469.301819088
 20
100.6548253397
 10
469.3138247648
 20
100.6466327126
 10
469.3263825672
 20
100.6394678739
 10
469.3393837473
 20
100.633213754
 10
469.3529370531
 20
100.6279874224
 10
469.3674246412
 20
100.6238237678
 10
469.3829738972
 20
100.6207344198
 10
469.3994574356
 20
100.6187077488
 10
469.4168752564
 20
100.6177437547
  0
LINE
  5
21C
100
AcDbEntity
  8
0
100
AcDbLine
 62
7
  6
CONTINUOUS
 10
470.0393349072
 20
139.560622063
 11
469.994013992
 21
139.5455273667
  0
LWPOLYLINE
  5
21D
100
AcDbEntity
  8
0
100
AcDbPolyline
 62
250
  6
CONTINUOUS
 90
19
 70
0
 10
512.7020574001
 20
100.3358380713
 10
512.7524594695
 20
100.3418278576
 10
512.8007211523
 20
100.3525258014
 10
512.8464441498
 20
100.3674209525
 10
512.8893771113
 20
100.3860569471
 10
512.9292108722
 20
100.4078740879
 10
512.9656070078
 20
100.432149849
 10
512.9984061245
 20
100.458283681
 10
513.027720872
 20
100.4858412995
 10
513.0537377813
 20
100.514355044
 10
513.0763402421
 20
100.5431181085
 10
513.0959087888
 20
100.572064942
 10
513.1132298999
 20
100.6018852919
 10
513.1282606981
 20
100.6322650468
 10
513.1410445215
 20
100.663164796
 10
513.1520561607
 20
100.6959149507
 10
513.1611486339
 20
100.7309245593
 10
513.1678587636
 20
100.7675704222
 10
513.1719058133
 20
100.8056822789
  0
LWPOLYLINE
  5
21E
100
AcDbEntity
  8
0
100
AcDbPolyline
 62
250
  6
CONTINUOUS
 90
19
 70
0
 10
512.7020595029
 20
100.6177437547
 10
512.7236991605
 20
100.6192145846
 10
512.7440313983
 20
100.6223449417
 10
512.763056216
 20
100.6271348262
 10
512.7808491877
 20
100.6338268607
 10
512.7973347393
 20
100.6421784224
 10
512.8122861499
 20
100.6514616437
 10
512.8255768936
 20
100.6616294114
 10
512.8373334961
 20
100.6727288385
 10
512.8477088134
 20
100.6841733962
 10
512.8566284898
 20
100.6957573801
 10
512.864166881
 20
100.7076864945
 10
512.8706999094
 20
100.7199913231
 10
512.8763358187
 20
100.7325372152
 10
512.8809663653
 20
100.7454588216
 10
512.8846427403
 20
100.7591906775
 10
512.8873820075
 20
100.7738776283
 10
512.8891671031
 20
100.7893748288
 10
512.8899980271
 20
100.8056822789
  0
LINE
  5
21F
100
AcDbEntity
  8
0
100
AcDbLine
 62
7
  6
CONTINUOUS
 10
470.0393349072
 20
104.9304326703
 11
469.994013992
 21
104.9455273667
  0
LWPOLYLINE
  5
220
100
AcDbEntity
  8
0
100
AcDbPolyline
 62
250
  6
CONTINUOUS
 90
19
 70
0
 10
468.9470308338
 20
100.8056841667
 10
468.9520971426
 20
100.760703617
 10
468.9611454893
 20
100.7166886166
 10
468.9739924893
 20
100.6739712911
 10
468.9905394925
 20
100.6326406115
 10
469.0104869459
 20
100.5932178363
 10
469.0331574395
 20
100.5565734123
 10
469.058062617
 20
100.5229901923
 10
469.0848848456
 20
100.4923944815
 10
469.1130203087
 20
100.4649409083
 10
469.1416980924
 20
100.440890237
 10
469.1709340603
 20
100.4198164626
 10
469.2014471489
 20
100.4009500792
 10
469.2329811816
 20
100.3843754622
 10
469.2654500028
 20
100.3701375224
 10
469.3000613714
 20
100.3578484183
 10
469.3371735404
 20
100.347720124
 10
469.3761793125
 20
100.3402681754
 10
469.4168752564
 20
100.3358359685
  0
LINE
  5
221
100
AcDbEntity
  8
0
100
AcDbLine
 62
250
  6
CONTINUOUS
 10
470.3316292058
 20
143.1955273667
 11
470.3389337126
 21
139.5655846792
  0
LINE
  5
222
100
AcDbEntity
  8
0
100
AcDbLine
 62
250
  6
CONTINUOUS
 10
470.0320128611
 20
143.1955273667
 11
470.0393349072
 21
139.560622063
  0
LINE
  5
223
100
AcDbEntity
  8
0
100
AcDbLine
 62
250
  6
CONTINUOUS
 10
470.3404268778
 20
138.7249724525
 11
470.3489874955
 21
132.6689352307
  0
LINE
  5
224
100
AcDbEntity
  8
0
100
AcDbLine
 62
250
  6
CONTINUOUS
 10
470.040812211
 20
138.7299406358
 11
470.0493971996
 21
132.6639734351
  0
LINE
  5
225
100
AcDbEntity
  8
0
100
AcDbLine
 62
250
  6
CONTINUOUS
 10
470.0502971916
 20
131.8075868898
 11
470.0513061192
 21
130.7455273667
  0
LINE
  5
226
100
AcDbEntity
  8
0
100
AcDbLine
 62
250
  6
CONTINUOUS
 10
470.3499068123
 20
131.7926695313
 11
470.350899551
 21
130.7455273676
  0
LINE
  5
227
100
AcDbEntity
  8
0
100
AcDbLine
 62
7
  6
CONTINUOUS
 10
468.7868893536
 20
100.6759252282
 11
468.7868893536
 21
143.8151295051
  0
LINE
  5
228
100
AcDbEntity
  8
0
100
AcDbLine
 62
7
  6
CONTINUOUS
 10
468.8368893536
 20
143.7955120468
 11
468.8368893536
 21
100.6955426865
  0
LINE
  5
229
100
AcDbEntity
  8
0
100
AcDbLine
 62
250
  6
CONTINUOUS
 10
468.947028946
 20
143.6853724544
 11
468.947028946
 21
100.8056822789
  0
LINE
  5
22A
100
AcDbEntity
  8
0
100
AcDbLine
 62
250
  6
CONTINUOUS
 10
469.2289367322
 20
143.6853724544
 11
469.2289367322
 21
100.8056822789
  0
LINE
  5
22B
100
AcDbEntity
  8
0
100
AcDbLine
 62
250
  6
CONTINUOUS
 10
469.4168752564
 20
100.6177437547
 11
469.4168752564
 21
100.3358359685
  0
LINE
  5
22C
100
AcDbEntity
  8
0
100
AcDbLine
 62
250
  6
CONTINUOUS
 10
469.4168752564
 20
143.8733109786
 11
469.4168752564
 21
144.1552187648
  0
LINE
  5
22D
100
AcDbEntity
  8
0
100
AcDbLine
 62
7
  6
CONTINUOUS
 10
469.9494673796
 20
143.1955273667
 11
469.9494673796
 21
101.2955273667
  0
LINE
  5
22E
100
AcDbEntity
  8
0
100
AcDbLine
 62
7
  6
CONTINUOUS
 10
469.994013992
 20
139.5455273667
 11
469.994013992
 21
138.7455273667
  0
LINE
  5
22F
100
AcDbEntity
  8
0
100
AcDbLine
 62
7
  6
CONTINUOUS
 10
469.994013992
 20
105.7455273667
 11
469.994013992
 21
104.9455273667
  0
LINE
  5
230
100
AcDbEntity
  8
0
100
AcDbLine
 62
7
  6
CONTINUOUS
 10
470.0123567148
 20
132.6516366394
 11
470.0123567148
 21
131.8455273667
  0
LINE
  5
231
100
AcDbEntity
  8
0
100
AcDbLine
 62
7
  6
CONTINUOUS
 10
470.0123567148
 20
112.6455273667
 11
470.0123567148
 21
111.8394180939
  0
LINE
  5
232
100
AcDbEntity
  8
0
100
AcDbLine
 62
250
  6
CONTINUOUS
 10
470.0513061217
 20
113.7455273667
 11
470.0502971916
 21
112.6834678435
  0
LINE
  5
233
100
AcDbEntity
  8
0
100
AcDbLine
 62
250
  6
CONTINUOUS
 10
470.3508995535
 20
113.7455273661
 11
470.3499068123
 21
112.6983852049
  0
LINE
  5
234
100
AcDbEntity
  8
0
100
AcDbLine
 62
250
  6
CONTINUOUS
 10
470.3489874955
 20
111.8221195028
 11
470.3404268778
 21
105.7660822845
  0
LINE
  5
235
100
AcDbEntity
  8
0
100
AcDbLine
 62
250
  6
CONTINUOUS
 10
470.0493971996
 20
111.8270812982
 11
470.040812211
 21
105.7611140975
  0
LINE
  5
236
100
AcDbEntity
  8
0
100
AcDbLine
 62
250
  6
CONTINUOUS
 10
470.3389337126
 20
104.9254700552
 11
470.3316292068
 21
101.2955273667
  0
LINE
  5
237
100
AcDbEntity
  8
0
100
AcDbLine
 62
250
  6
CONTINUOUS
 10
470.0393349072
 20
104.9304326703
 11
470.0320128628
 21
101.2955273667
  0
LWPOLYLINE
  5
238
100
AcDbEntity
  8
0
100
AcDbPolyline
 62
250
  6
CONTINUOUS
 90
13
 70
0
 10
512.170838668
 20
103.9060570168
 10
512.1665405489
 20
103.9051084117
 10
512.1627108733
 20
103.9041779698
 10
512.1593496413
 20
103.903265691
 10
512.1564877206
 20
103.9023701932
 10
512.1540942434
 20
103.9014928586
 10
512.1520766065
 20
103.9006378336
 10
512.1504323375
 20
103.8998054748
 10
512.1491639087
 20
103.8989954256
 10
512.1481861336
 20
103.8982107623
 10
512.1474706165
 20
103.8974525104
 10
512.147045753
 20
103.8967196445
 10
512.1469115432
 20
103.8960121644
  0
LWPOLYLINE
  5
239
100
AcDbEntity
  8
0
100
AcDbPolyline
 62
250
  6
CONTINUOUS
 90
13
 70
0
 10
511.9867976999
 20
104.1052959564
 10
511.9795496165
 20
104.1043472934
 10
511.9731835757
 20
104.103416818
 10
511.9676493235
 20
104.1025045302
 10
511.9628977764
 20
104.1016090606
 10
511.9588755378
 20
104.1007317785
 10
511.9555275973
 20
104.0998767921
 10
511.952804579
 20
104.0990444408
 10
511.9506592734
 20
104.0982343851
 10
511.9490434759
 20
104.0974497146
 10
511.9479111034
 20
104.0966914592
 10
511.9472175717
 20
104.095958589
 10
511.9469191586
 20
104.095251104
  0
LINE
  5
23A
100
AcDbEntity
  8
0
100
AcDbLine
 62
7
  6
CONTINUOUS
 10
469.2865087539
 20
100.1756963761
 11
512.8324260054
 21
100.1756963761
  0
LINE
  5
23B
100
AcDbEntity
  8
0
100
AcDbLine
 62
7
  6
CONTINUOUS
 10
469.306735664
 20
100.2256963761
 11
512.8121990953
 21
100.2256963761
  0
LINE
  5
23C
100
AcDbEntity
  8
0
100
AcDbLine
 62
250
  6
CONTINUOUS
 10
469.4168752564
 20
100.3358359685
 11
512.7020595029
 21
100.3358359685
  0
LINE
  5
23D
100
AcDbEntity
  8
0
100
AcDbLine
 62
250
  6
CONTINUOUS
 10
469.4168752564
 20
100.6177437547
 11
512.7020595029
 21
100.6177437547
  0
LINE
  5
23E
100
AcDbEntity
  8
0
100
AcDbLine
 62
250
  6
CONTINUOUS
 10
469.2289367322
 20
100.8056822789
 11
468.947028946
 21
100.8056822789
  0
LINE
  5
23F
100
AcDbEntity
  8
0
100
AcDbLine
 62
250
  6
CONTINUOUS
 10
512.8899980271
 20
100.8056822789
 11
513.1719058133
 21
100.8056822789
  0
LINE
  5
240
100
AcDbEntity
  8
0
100
AcDbLine
 62
7
  6
CONTINUOUS
 10
469.9494673796
 20
101.2955273667
 11
512.1694673796
 21
101.2955273667
  0
LWPOLYLINE
  5
241
100
AcDbEntity
  8
0
100
AcDbPolyline
 62
250
  6
CONTINUOUS
 90
16
 70
0
 10
477.3916040438
 20
135.5949408425
 10
477.3985812506
 20
135.6050067326
 10
477.4069231936
 20
135.6140304386
 10
477.4164666291
 20
135.621821959
 10
477.4270289493
 20
135.628200665
 10
477.4383854826
 20
135.6330485222
 10
477.4502977135
 20
135.6363215784
 10
477.4625458367
 20
135.6379767207
 10
477.4749075097
 20
135.6379640519
 10
477.4871514947
 20
135.6362838254
 10
477.49906141
 20
135.6329843632
 10
477.5104110829
 20
135.6281103076
 10
477.5209468056
 20
135.6217176025
 10
477.5304445442
 20
135.6139351492
 10
477.5387342718
 20
135.6049452655
 10
477.5456609237
 20
135.5949406901
  0
LWPOLYLINE
  5
242
100
AcDbEntity
  8
0
100
AcDbPolyline
 62
7
  6
CONTINUOUS
 90
46
 70
0
 10
477.0477640542
 20
135.5981266284
 10
477.050766778
 20
135.6009084933
 10
477.0538669463
 20
135.6036154731
 10
477.0570633897
 20
135.6062461281
 10
477.0603536099
 20
135.60879808
 10
477.0637376298
 20
135.6112709524
 10
477.0672182655
 20
135.6136661685
 10
477.0707945529
 20
135.6159823994
 10
477.0744653527
 20
135.6182179573
 10
477.0782336182
 20
135.6203733997
 10
477.0820985558
 20
135.6224472696
 10
477.0860590521
 20
135.6244377556
 10
477.0901178915
 20
135.6263445692
 10
477.0942742381
 20
135.6281660536
 10
477.0985270912
 20
135.6299003508
 10
477.1028792239
 20
135.6315465736
 10
477.107330126
 20
135.6331030086
 10
477.1118784661
 20
135.6345675832
 10
477.1165259297
 20
135.6359386238
 10
477.1212715966
 20
135.6372141837
 10
477.1261143741
 20
135.6383922644
 10
477.1310557554
 20
135.6394709209
 10
477.1360947217
 20
135.6404481116
 10
477.1412300598
 20
135.6413217738
 10
477.1464630061
 20
135.6420897472
 10
477.1517915891
 20
135.6427498322
 10
477.1572152601
 20
135.6433000092
 10
477.1627374534
 20
135.6437380985
 10
477.1683516996
 20
135.6440617032
 10
477.1740616697
 20
135.6442687806
 10
477.1798864146
 20
135.6443565394
 10
477.1858234356
 20
135.6443220588
 10
477.1918727397
 20
135.6441617844
 10
477.1980577817
 20
135.6438698534
 10
477.2043780939
 20
135.6434420104
 10
477.2108316087
 20
135.6428734996
 10
477.2174398232
 20
135.642155428
 10
477.2242017582
 20
135.6412822144
 10
477.2311151863
 20
135.6402479834
 10
477.2381998696
 20
135.639041218
 10
477.2454540171
 20
135.6376550271
 10
477.2528749231
 20
135.6360823854
 10
477.2604808233
 20
135.6343094201
 10
477.2682756943
 20
135.6323255745
 10
477.2762490952
 20
135.6301247589
 10
477.2843971294
 20
135.6276986705
  0
LWPOLYLINE
  5
243
100
AcDbEntity
  8
0
100
AcDbPolyline
 62
250
  6
CONTINUOUS
 90
13
 70
0
 10
512.9161773086
 20
103.9060570168
 10
512.9422700774
 20
103.9077797948
 10
512.967916625
 20
103.9128791015
 10
512.9926785376
 20
103.9212677009
 10
513.0161325575
 20
103.9328021424
 10
513.0378777562
 20
103.9472851857
 10
513.0575424027
 20
103.9644691508
 10
513.0747904021
 20
103.9840602165
 10
513.0893270007
 20
104.0057234468
 10
513.1009037823
 20
104.0290884637
 10
513.109322955
 20
104.053755832
 10
513.1144407161
 20
104.0793038963
 10
513.1161696928
 20
104.1052959606
  0
LWPOLYLINE
  5
244
100
AcDbEntity
  8
0
100
AcDbPolyline
 62
7
  6
CONTINUOUS
 90
34
 70
0
 10
487.9787186433
 20
103.1205273667
 10
488.0026890247
 20
103.1208724448
 10
488.0265540933
 20
103.1222329783
 10
488.0503138493
 20
103.1246089677
 10
488.0740217269
 20
103.1279827761
 10
488.0976242918
 20
103.1323720417
 10
488.1209612407
 20
103.1378296771
 10
488.1440577884
 20
103.1443552789
 10
488.16688872
 20
103.1519492535
 10
488.1892180876
 20
103.1606657293
 10
488.2110301848
 20
103.170511218
 10
488.232340718
 20
103.1814792127
 10
488.2529608574
 20
103.1936043148
 10
488.2727721013
 20
103.2069220907
 10
488.2918929514
 20
103.2213969808
 10
488.3104900843
 20
103.2369568976
 10
488.3286577325
 20
103.253545843
 10
488.3463016634
 20
103.2712198229
 10
488.3633058562
 20
103.2900747558
 10
488.3797613732
 20
103.3100714988
 10
488.3955771521
 20
103.3312492052
 10
488.4103639849
 20
103.353821239
 10
488.4239104061
 20
103.3778312178
 10
488.4364278812
 20
103.4032355389
 10
488.4481615995
 20
103.4301167388
 10
488.4593319746
 20
103.4584182619
 10
488.4697185928
 20
103.4881966819
 10
488.478905402
 20
103.5197042315
 10
488.4869052354
 20
103.5530264446
 10
488.4937052598
 20
103.588077813
 10
488.4988509241
 20
103.6248540091
 10
488.5021907112
 20
103.6633536
 10
488.5038761382
 20
103.7035780474
 10
488.5038817755
 20
103.7871760168
  0
LINE
  5
245
100
AcDbEntity
  8
0
100
AcDbLine
 62
7
  6
CONTINUOUS
 10
484.8466863796
 20
103.1205273667
 11
485.0103283796
 21
103.1205273667
  0
LINE
  5
246
100
AcDbEntity
  8
0
100
AcDbLine
 62
7
  6
CONTINUOUS
 10
485.3620293796
 20
103.1205273667
 11
485.5291673796
 21
103.1205273667
  0
LINE
  5
247
100
AcDbEntity
  8
0
100
AcDbLine
 62
7
  6
CONTINUOUS
 10
485.8808013796
 20
103.1205273667
 11
486.0445093796
 21
103.1205273667
  0
LINE
  5
248
100
AcDbEntity
  8
0
100
AcDbLine
 62
7
  6
CONTINUOUS
 10
486.1942363796
 20
103.1205273667
 11
486.3683163796
 21
103.1205273667
  0
LINE
  5
249
100
AcDbEntity
  8
0
100
AcDbLine
 62
7
  6
CONTINUOUS
 10
487.1238763796
 20
103.1205273667
 11
487.3084393796
 21
103.1205273667
  0
LINE
  5
24A
100
AcDbEntity
  8
0
100
AcDbLine
 62
7
  6
CONTINUOUS
 10
487.4720773796
 20
103.1205273667
 11
487.9787186433
 21
103.1205273667
  0
LINE
  5
24B
100
AcDbEntity
  8
0
100
AcDbLine
 62
7
  6
CONTINUOUS
 10
488.7377963796
 20
103.1205273667
 11
489.6605623796
 21
103.1205273667
  0
LINE
  5
24C
100
AcDbEntity
  8
0
100
AcDbLine
 62
7
  6
CONTINUOUS
 10
490.3918003796
 20
103.1205273667
 11
490.5606633796
 21
103.1205273667
  0
LINE
  5
24D
100
AcDbEntity
  8
0
100
AcDbLine
 62
7
  6
CONTINUOUS
 10
490.8496243796
 20
103.1205273667
 11
491.0133423796
 21
103.1205273667
  0
LINE
  5
24E
100
AcDbEntity
  8
0
100
AcDbLine
 62
7
  6
CONTINUOUS
 10
491.6522933796
 20
103.1205273667
 11
491.8420523796
 21
103.1205273667
  0
LINE
  5
24F
100
AcDbEntity
  8
0
100
AcDbLine
 62
7
  6
CONTINUOUS
 10
492.6167593796
 20
103.1205273667
 11
492.7856733796
 21
103.1205273667
  0
LINE
  5
250
100
AcDbEntity
  8
0
100
AcDbLine
 62
7
  6
CONTINUOUS
 10
493.3898083796
 20
103.1205273667
 11
493.5586623796
 21
103.1205273667
  0
LINE
  5
251
100
AcDbEntity
  8
0
100
AcDbLine
 62
7
  6
CONTINUOUS
 10
494.0304773796
 20
103.1205273667
 11
494.2045473796
 21
103.1205273667
  0
LINE
  5
252
100
AcDbEntity
  8
0
100
AcDbLine
 62
7
  6
CONTINUOUS
 10
494.9601783796
 20
103.1205273667
 11
495.1447723796
 21
103.1205273667
  0
LINE
  5
253
100
AcDbEntity
  8
0
100
AcDbLine
 62
7
  6
CONTINUOUS
 10
495.2996443796
 20
103.1205273667
 11
496.1023133796
 21
103.1205273667
  0
LINE
  5
254
100
AcDbEntity
  8
0
100
AcDbLine
 62
7
  6
CONTINUOUS
 10
496.6315293796
 20
103.1205273667
 11
496.8003523796
 21
103.1205273667
  0
LINE
  5
255
100
AcDbEntity
  8
0
100
AcDbLine
 62
7
  6
CONTINUOUS
 10
487.9744142358
 20
103.2649873667
 11
487.6410013796
 21
103.2649873667
  0
LINE
  5
256
100
AcDbEntity
  8
0
100
AcDbLine
 62
7
  6
CONTINUOUS
 10
496.1023133796
 20
103.2702443667
 11
495.4685693796
 21
103.2702443667
  0
LINE
  5
257
100
AcDbEntity
  8
0
100
AcDbLine
 62
7
  6
CONTINUOUS
 10
489.6605623796
 20
103.2702443667
 11
488.9067113796
 21
103.2702443667
  0
LINE
  5
258
100
AcDbEntity
  8
0
100
AcDbLine
 62
7
  6
CONTINUOUS
 10
486.4989063796
 20
103.4843563667
 11
487.0002813796
 21
103.4843563667
  0
LINE
  5
259
100
AcDbEntity
  8
0
100
AcDbLine
 62
7
  6
CONTINUOUS
 10
494.3351483796
 20
103.4843563667
 11
494.8365733796
 21
103.4843563667
  0
LINE
  5
25A
100
AcDbEntity
  8
0
100
AcDbLine
 62
7
  6
CONTINUOUS
 10
494.7756253796
 20
103.6340733667
 11
494.3873823796
 21
103.6340733667
  0
LINE
  5
25B
100
AcDbEntity
  8
0
100
AcDbLine
 62
7
  6
CONTINUOUS
 10
486.9393943796
 20
103.6340733667
 11
486.5511513796
 21
103.6340733667
  0
LINE
  5
25C
100
AcDbEntity
  8
0
100
AcDbLine
 62
7
  6
CONTINUOUS
 10
488.9067113796
 20
103.6880563667
 11
489.5909103796
 21
103.6880563667
  0
LWPOLYLINE
  5
25D
100
AcDbEntity
  8
0
100
AcDbPolyline
 62
7
  6
CONTINUOUS
 90
8
 70
0
 10
470.0393349072
 20
104.9304326703
 10
470.0425979962
 20
104.9298975519
 10
470.0487267238
 20
104.9293807522
 10
470.0577210901
 20
104.9288822712
 10
470.0697398455
 20
104.9283972122
 10
470.0846242396
 20
104.9279304718
 10
470.101898021
 20
104.9274967405
 10
470.1436973265
 20
104.9267312807
  0
LWPOLYLINE
  5
25E
100
AcDbEntity
  8
0
100
AcDbPolyline
 62
7
  6
CONTINUOUS
 90
7
 70
0
 10
477.0477640542
 20
108.892928105
 10
477.0390092748
 20
108.9088138219
 10
477.0317222548
 20
108.9254567639
 10
477.0259707531
 20
108.9427228263
 10
477.0218103334
 20
108.9604716255
 10
477.0192837541
 20
108.9785576054
 10
477.0184204577
 20
108.996831205
  0
LINE
  5
25F
100
AcDbEntity
  8
0
100
AcDbLine
 62
250
  6
CONTINUOUS
 10
477.1937183211
 20
132.1721290684
 11
477.0668425263
 21
132.0452532736
  0
LINE
  5
260
100
AcDbEntity
  8
0
100
AcDbLine
 62
250
  6
CONTINUOUS
 10
477.393444228
 20
131.9724031614
 11
477.2665684332
 21
131.8455273667
  0
LINE
  5
261
100
AcDbEntity
  8
0
100
AcDbLine
 62
7
  6
CONTINUOUS
 10
485.0594673796
 20
139.5455273667
 11
485.0795246892
 21
139.5655846762
  0
LINE
  5
262
100
AcDbEntity
  8
0
100
AcDbLine
 62
7
  6
CONTINUOUS
 10
470.0493971996
 20
132.6639734351
 11
470.0123567148
 21
132.6516366394
  0
LINE
  5
263
100
AcDbEntity
  8
0
100
AcDbLine
 62
7
  6
CONTINUOUS
 10
477.8655792486
 20
135.6936695022
 11
477.6025243261
 21
135.6121964972
  0
LINE
  5
264
100
AcDbEntity
  8
0
100
AcDbLine
 62
7
  6
CONTINUOUS
 10
477.6025243261
 20
135.6121964972
 11
477.5456607466
 21
135.5949409199
  0
LINE
  5
265
100
AcDbEntity
  8
0
100
AcDbLine
 62
7
  6
CONTINUOUS
 10
511.8417168604
 20
104.925582123
 11
511.9148791959
 21
104.9260291375
  0
LINE
  5
266
100
AcDbEntity
  8
0
100
AcDbLine
 62
7
  6
CONTINUOUS
 10
512.8899980271
 20
103.7455273667
 11
512.1694673796
 21
103.7455273667
  0
LINE
  5
267
100
AcDbEntity
  8
0
100
AcDbLine
 62
7
  6
CONTINUOUS
 10
489.5909103796
 20
103.8377733667
 11
488.9067113796
 21
103.8377733667
  0
LINE
  5
268
100
AcDbEntity
  8
0
100
AcDbLine
 62
250
  6
CONTINUOUS
 10
512.170838668
 20
103.9060570168
 11
512.9161773086
 21
103.9060570168
  0
LINE
  5
269
100
AcDbEntity
  8
0
100
AcDbLine
 62
7
  6
CONTINUOUS
 10
488.9067113796
 20
104.2208103667
 11
489.6483603796
 21
104.2208103667
  0
LINE
  5
26A
100
AcDbEntity
  8
0
100
AcDbLine
 62
7
  6
CONTINUOUS
 10
492.9667393796
 20
104.2208103667
 11
493.3898083796
 21
104.2208103667
  0
LINE
  5
26B
100
AcDbEntity
  8
0
100
AcDbLine
 62
7
  6
CONTINUOUS
 10
493.5586623796
 20
104.2208103667
 11
493.9817313796
 21
104.2208103667
  0
LINE
  5
26C
100
AcDbEntity
  8
0
100
AcDbLine
 62
7
  6
CONTINUOUS
 10
487.6410013796
 20
104.2260673667
 11
487.9744142358
 21
104.2260673667
  0
LINE
  5
26D
100
AcDbEntity
  8
0
100
AcDbLine
 62
250
  6
CONTINUOUS
 10
512.4469001201
 20
104.304534896
 11
513.114576439
 21
104.304534896
  0
LINE
  5
26E
100
AcDbEntity
  8
0
100
AcDbLine
 62
7
  6
CONTINUOUS
 10
497.2722483796
 20
104.3705273667
 11
497.0737043796
 21
104.3705273667
  0
LINE
  5
26F
100
AcDbEntity
  8
0
100
AcDbLine
 62
7
  6
CONTINUOUS
 10
496.3564583796
 20
104.3705273667
 11
496.1597333796
 21
104.3705273667
  0
LINE
  5
270
100
AcDbEntity
  8
0
100
AcDbLine
 62
7
  6
CONTINUOUS
 10
495.4685693796
 20
104.3705273667
 11
495.2996443796
 21
104.3705273667
  0
LINE
  5
271
100
AcDbEntity
  8
0
100
AcDbLine
 62
7
  6
CONTINUOUS
 10
494.6920523796
 20
104.3705273667
 11
494.5005743796
 21
104.3705273667
  0
LINE
  5
272
100
AcDbEntity
  8
0
100
AcDbLine
 62
7
  6
CONTINUOUS
 10
493.9817313796
 20
104.3705273667
 11
492.9667393796
 21
104.3705273667
  0
LINE
  5
273
100
AcDbEntity
  8
0
100
AcDbLine
 62
7
  6
CONTINUOUS
 10
492.7856733796
 20
104.3705273667
 11
492.6167593796
 21
104.3705273667
  0
LINE
  5
274
100
AcDbEntity
  8
0
100
AcDbLine
 62
7
  6
CONTINUOUS
 10
491.8420523796
 20
104.3705273667
 11
491.6784153796
 21
104.3705273667
  0
LINE
  5
275
100
AcDbEntity
  8
0
100
AcDbLine
 62
7
  6
CONTINUOUS
 10
491.0498773796
 20
104.3705273667
 11
490.8496243796
 21
104.3705273667
  0
LINE
  5
276
100
AcDbEntity
  8
0
100
AcDbLine
 62
7
  6
CONTINUOUS
 10
490.5606633796
 20
104.3705273667
 11
490.3918003796
 21
104.3705273667
  0
LINE
  5
277
100
AcDbEntity
  8
0
100
AcDbLine
 62
7
  6
CONTINUOUS
 10
489.6483603796
 20
104.3705273667
 11
488.7377963796
 21
104.3705273667
  0
LINE
  5
278
100
AcDbEntity
  8
0
100
AcDbLine
 62
7
  6
CONTINUOUS
 10
487.9840333604
 20
104.3705273667
 11
487.4720773796
 21
104.3705273667
  0
LINE
  5
279
100
AcDbEntity
  8
0
100
AcDbLine
 62
7
  6
CONTINUOUS
 10
486.8558113796
 20
104.3705273667
 11
486.6642723796
 21
104.3705273667
  0
LINE
  5
27A
100
AcDbEntity
  8
0
100
AcDbLine
 62
7
  6
CONTINUOUS
 10
486.0445093796
 20
104.3705273667
 11
485.8042243796
 21
104.3705273667
  0
LINE
  5
27B
100
AcDbEntity
  8
0
100
AcDbLine
 62
7
  6
CONTINUOUS
 10
485.0886883796
 20
104.3705273667
 11
484.8466863796
 21
104.3705273667
  0
LINE
  5
27C
100
AcDbEntity
  8
0
100
AcDbLine
 62
7
  6
CONTINUOUS
 10
497.0394100701
 20
104.9254700571
 11
511.8417168604
 21
104.925582123
  0
LINE
  5
27D
100
AcDbEntity
  8
0
100
AcDbLine
 62
7
  6
CONTINUOUS
 10
469.994013992
 20
104.9455273667
 11
485.0594673796
 21
104.9455273667
  0
LINE
  5
27E
100
AcDbEntity
  8
0
100
AcDbLine
 62
7
  6
CONTINUOUS
 10
497.0594673796
 20
104.9455273667
 11
511.924627568
 21
104.9455273667
  0
LINE
  5
27F
100
AcDbEntity
  8
0
100
AcDbLine
 62
7
  6
CONTINUOUS
 10
511.924627568
 20
105.7455273667
 11
497.0594673796
 21
105.7455273667
  0
LINE
  5
280
100
AcDbEntity
  8
0
100
AcDbLine
 62
7
  6
CONTINUOUS
 10
485.0594673796
 20
105.7455273667
 11
469.994013992
 21
105.7455273667
  0
LINE
  5
281
100
AcDbEntity
  8
0
100
AcDbLine
 62
7
  6
CONTINUOUS
 10
470.3097121876
 20
105.7660538254
 11
485.0800223059
 21
105.7660822929
  0
LINE
  5
282
100
AcDbEntity
  8
0
100
AcDbLine
 62
7
  6
CONTINUOUS
 10
511.809902565
 20
105.7660534633
 11
497.0389124533
 21
105.7660822929
  0
LINE
  5
283
100
AcDbEntity
  8
0
100
AcDbLine
 62
7
  6
CONTINUOUS
 10
470.2783436858
 20
104.9255781778
 11
485.0795246892
 21
104.9254700571
  0
LINE
  5
284
100
AcDbEntity
  8
0
100
AcDbLine
 62
7
  6
CONTINUOUS
 10
470.1933553878
 20
104.9261293088
 11
470.2783436858
 21
104.9255781778
  0
LINE
  5
285
100
AcDbEntity
  8
0
100
AcDbLine
 62
7
  6
CONTINUOUS
 10
470.1436973265
 20
104.9267312807
 11
470.1933553878
 21
104.9261293088
  0
LWPOLYLINE
  5
286
100
AcDbEntity
  8
0
100
AcDbPolyline
 62
7
  6
CONTINUOUS
 90
25
 70
0
 10
487.9744142358
 20
104.2260673667
 10
488.0019646372
 20
104.2244239684
 10
488.029034656
 20
104.220720371
 10
488.0556242922
 20
104.2149565761
 10
488.0819256981
 20
104.207121787
 10
488.1077467214
 20
104.1972268065
 10
488.1325109053
 20
104.1853040371
 10
488.1562207026
 20
104.1712192519
 10
488.1788736605
 20
104.1551066896
 10
488.1998859639
 20
104.1374014514
 10
488.2190967389
 20
104.1180893138
 10
488.2366668594
 20
104.0971845133
 10
488.252495133
 20
104.075164838
 10
488.2664800745
 20
104.0520832381
 10
488.278723169
 20
104.0278867745
 10
488.289427679
 20
104.0028943984
 10
488.298487816
 20
103.9771619346
 10
488.3060093685
 20
103.9506335672
 10
488.3125129645
 20
103.9234607837
 10
488.3182110167
 20
103.8957558298
 10
488.3228911124
 20
103.8674064674
 10
488.3264366422
 20
103.8382274583
 10
488.3288087363
 20
103.808157061
 10
488.3300462646
 20
103.7772570285
 10
488.3301492269
 20
103.7455273667
  0
LWPOLYLINE
  5
287
100
AcDbEntity
  8
0
100
AcDbPolyline
 62
250
  6
CONTINUOUS
 90
13
 70
0
 10
512.1469115432
 20
103.8960121644
 10
512.1208198585
 20
103.8977348034
 10
512.0951741782
 20
103.9028337335
 10
512.0704128826
 20
103.9112217947
 10
512.0469592349
 20
103.9227556037
 10
512.0252141455
 20
103.9372380048
 10
512.0055493191
 20
103.9544214401
 10
511.9883009013
 20
103.9740121804
 10
511.9737637318
 20
103.9956753469
 10
511.9621863053
 20
104.0190406359
 10
511.9537665233
 20
104.0437086476
 10
511.9486483112
 20
104.0692577133
 10
511.9469191586
 20
104.095251104
  0
LINE
  5
288
100
AcDbEntity
  8
0
100
AcDbLine
 62
7
  6
CONTINUOUS
 10
477.6025234287
 20
108.8788585113
 11
477.5456606779
 21
108.8961138208
  0
LINE
  5
289
100
AcDbEntity
  8
0
100
AcDbLine
 62
7
  6
CONTINUOUS
 10
477.8655792486
 20
108.7973852311
 11
477.6025234287
 21
108.8788585113
  0
LINE
  5
28A
100
AcDbEntity
  8
0
100
AcDbLine
 62
7
  6
CONTINUOUS
 10
470.0493971996
 20
111.8270812982
 11
470.0123567148
 21
111.8394180939
  0
LINE
  5
28B
100
AcDbEntity
  8
0
100
AcDbLine
 62
250
  6
CONTINUOUS
 10
477.0668425263
 20
112.4458014597
 11
477.1937183211
 21
112.3189256649
  0
LINE
  5
28C
100
AcDbEntity
  8
0
100
AcDbLine
 62
250
  6
CONTINUOUS
 10
477.2665684332
 20
112.6455273667
 11
477.393444228
 21
112.5186515719
  0
LINE
  5
28D
100
AcDbEntity
  8
0
100
AcDbLine
 62
7
  6
CONTINUOUS
 10
485.0594673796
 20
104.9455273667
 11
485.0795246892
 21
104.9254700571
  0
LWPOLYLINE
  5
28E
100
AcDbEntity
  8
0
100
AcDbPolyline
 62
7
  6
CONTINUOUS
 90
7
 70
0
 10
477.0184204577
 20
135.4942235283
 10
477.0192811659
 20
135.5124695453
 10
477.0218021885
 20
135.5305395281
 10
477.0259571685
 20
135.5482839081
 10
477.0317063549
 20
135.5655565701
 10
477.0389970325
 20
135.5822160411
 10
477.0477640542
 20
135.5981266284
  0
LWPOLYLINE
  5
28F
100
AcDbEntity
  8
0
100
AcDbPolyline
 62
7
  6
CONTINUOUS
 90
25
 70
0
 10
477.0477640542
 20
135.5981266284
 10
477.0566613288
 20
135.6449145355
 10
477.0701670912
 20
135.6894674572
 10
477.0882813414
 20
135.7317854092
 10
477.1113369797
 20
135.7723410017
 10
477.1390011058
 20
135.8106616519
 10
477.1702750192
 20
135.8453295945
 10
477.2052878484
 20
135.8761974199
 10
477.243910465
 20
135.9034125771
 10
477.2847567833
 20
135.9259995982
 10
477.327907296
 20
135.9437903098
 10
477.3732815104
 20
135.9569529165
 10
477.4192518629
 20
135.9650165175
 10
477.4658393411
 20
135.9677962573
 10
477.5130229573
 20
135.9654770006
 10
477.5591121842
 20
135.9581424217
 10
477.6040680896
 20
135.945610291
 10
477.6479296057
 20
135.9280628214
 10
477.6891230027
 20
135.9061303464
 10
477.7275505991
 20
135.8796540993
 10
477.7633100763
 20
135.8487928114
 10
477.7951207485
 20
135.8146530656
 10
477.8225557202
 20
135.7776037126
 10
477.846041887
 20
135.7372758652
 10
477.8655792486
 20
135.6936695022
  0
LINE
  5
290
100
AcDbEntity
  8
0
100
AcDbLine
 62
250
  6
CONTINUOUS
 10
478.2073550552
 20
135.5321320572
 11
478.2105499703
 21
135.541724597
  0
LINE
  5
291
100
AcDbEntity
  8
0
100
AcDbLine
 62
250
  6
CONTINUOUS
 10
478.4073245942
 20
135.3324061503
 11
478.4094673796
 21
135.3388397341
  0
LWPOLYLINE
  5
292
100
AcDbEntity
  8
0
100
AcDbPolyline
 62
7
  6
CONTINUOUS
 90
6
 70
0
 10
494.3505723707
 20
140.725874057
 10
494.36101349
 20
140.7294940997
 10
494.371335243
 20
140.7341541739
 10
494.3815376297
 20
140.7398542783
 10
494.3915527894
 20
140.7468211057
 10
494.4014485829
 20
140.7548279603
  0
LWPOLYLINE
  5
293
100
AcDbEntity
  8
0
100
AcDbPolyline
 62
7
  6
CONTINUOUS
 90
10
 70
0
 10
492.0345696478
 20
107.4556228467
 10
492.0496774542
 20
107.459465475
 10
492.0646238261
 20
107.4629474098
 10
492.0794087635
 20
107.4660686508
 10
492.094040159
 20
107.4688712276
 10
492.1085101199
 20
107.4713131102
 10
492.1227949687
 20
107.4732682094
 10
492.1368868127
 20
107.4746944953
 10
492.1507935446
 20
107.4756339974
 10
492.1645151644
 20
107.4760867157
  0
LINE
  5
294
100
AcDbEntity
  8
0
100
AcDbLine
 62
7
  6
CONTINUOUS
 10
491.855511096
 20
107.1660594293
 11
491.6713363199
 21
107.1415028223
  0
LWPOLYLINE
  5
295
100
AcDbEntity
  8
0
100
AcDbPolyline
 62
7
  6
CONTINUOUS
 90
10
 70
0
 10
492.1481440334
 20
106.7189243655
 10
492.1969689369
 20
106.7208386451
 10
492.2435375504
 20
106.7260623404
 10
492.2878498739
 20
106.7345954547
 10
492.3297663173
 20
106.7464390404
 10
492.3694264708
 20
106.7615920578
 10
492.4072491046
 20
106.7800513747
 10
492.4433738086
 20
106.8018159556
 10
492.477660993
 20
106.8268868608
 10
492.5101106576
 20
106.8552641059
  0
LWPOLYLINE
  5
296
100
AcDbEntity
  8
0
100
AcDbPolyline
 62
7
  6
CONTINUOUS
 90
7
 70
0
 10
470.1034162587
 20
105.7640540328
 10
470.0861351957
 20
105.7636198168
 10
470.0712425745
 20
105.7631525213
 10
470.0592161862
 20
105.762666833
 10
470.0502152948
 20
105.7621676474
 10
470.0440806364
 20
105.7616500689
 10
470.040812211
 20
105.7611140975
  0
LINE
  5
297
100
AcDbEntity
  8
0
100
AcDbLine
 62
7
  6
CONTINUOUS
 10
470.1452271273
 20
105.7648202494
 11
470.1034162587
 21
105.7640540328
  0
LINE
  5
298
100
AcDbEntity
  8
0
100
AcDbLine
 62
7
  6
CONTINUOUS
 10
470.1948889705
 20
105.7654227107
 11
470.1452271273
 21
105.7648202494
  0
LWPOLYLINE
  5
299
100
AcDbEntity
  8
0
100
AcDbPolyline
 62
7
  6
CONTINUOUS
 90
10
 70
0
 10
492.0847062139
 20
107.6152408817
 10
492.081342014
 20
107.6152228218
 10
492.0779993267
 20
107.6152617684
 10
492.0746781522
 20
107.6153577215
 10
492.0713847646
 20
107.6155048791
 10
492.0681128896
 20
107.6157090432
 10
492.0648437051
 20
107.6159876196
 10
492.061570937
 20
107.6163464102
 10
492.0583008593
 20
107.6167796131
 10
492.0550334721
 20
107.6172872284
  0
LWPOLYLINE
  5
29A
100
AcDbEntity
  8
0
100
AcDbPolyline
 62
7
  6
CONTINUOUS
 90
3
 70
0
 10
470.3097121876
 20
105.7660538254
 10
470.2798627671
 20
105.7659741608
 10
470.1948889705
 20
105.7654227107
  0
LINE
  5
29B
100
AcDbEntity
  8
0
100
AcDbLine
 62
7
  6
CONTINUOUS
 10
488.6836147575
 20
106.7455273667
 11
488.8677893548
 21
106.7455273667
  0
LINE
  5
29C
100
AcDbEntity
  8
0
100
AcDbLine
 62
7
  6
CONTINUOUS
 10
489.929863122
 20
106.7455273667
 11
490.1140377192
 21
106.7455273667
  0
LINE
  5
29D
100
AcDbEntity
  8
0
100
AcDbLine
 62
7
  6
CONTINUOUS
 10
491.0144468813
 20
106.7455273667
 11
491.1986216574
 21
106.7455273667
  0
LINE
  5
29E
100
AcDbEntity
  8
0
100
AcDbLine
 62
7
  6
CONTINUOUS
 10
492.812196043
 20
106.7455273667
 11
493.8036692409
 21
106.7455273667
  0
LINE
  5
29F
100
AcDbEntity
  8
0
100
AcDbLine
 62
7
  6
CONTINUOUS
 10
493.8036692409
 20
106.92253965
 11
493.0679940252
 21
106.92253965
  0
LINE
  5
2A0
100
AcDbEntity
  8
0
100
AcDbLine
 62
7
  6
CONTINUOUS
 10
489.2791127233
 20
107.1046678894
 11
489.929863122
 21
107.1046678894
  0
LINE
  5
2A1
100
AcDbEntity
  8
0
100
AcDbLine
 62
7
  6
CONTINUOUS
 10
490.1140377192
 20
107.1046678894
 11
490.3166297941
 21
107.1046678894
  0
LINE
  5
2A2
100
AcDbEntity
  8
0
100
AcDbLine
 62
250
  6
CONTINUOUS
 10
512.4469001201
 20
107.1865198373
 11
513.114576439
 21
107.1865198373
  0
LINE
  5
2A3
100
AcDbEntity
  8
0
100
AcDbLine
 62
7
  6
CONTINUOUS
 10
490.3166297941
 20
107.2734946408
 11
490.1140377192
 21
107.2734946408
  0
LINE
  5
2A4
100
AcDbEntity
  8
0
100
AcDbLine
 62
7
  6
CONTINUOUS
 10
489.929863122
 20
107.2734946408
 11
489.4602178006
 21
107.2734946408
  0
LINE
  5
2A5
100
AcDbEntity
  8
0
100
AcDbLine
 62
250
  6
CONTINUOUS
 10
512.9161773086
 20
107.5849977165
 11
512.170838668
 21
107.5849977165
  0
LINE
  5
2A6
100
AcDbEntity
  8
0
100
AcDbLine
 62
7
  6
CONTINUOUS
 10
512.8899980271
 20
107.7455273667
 11
512.1694673796
 21
107.7455273667
  0
LINE
  5
2A7
100
AcDbEntity
  8
0
100
AcDbLine
 62
7
  6
CONTINUOUS
 10
511.885902479
 20
105.7657348296
 11
511.809902565
 21
105.7660534633
  0
LINE
  5
2A8
100
AcDbEntity
  8
0
100
AcDbLine
 62
7
  6
CONTINUOUS
 10
511.9146362443
 20
105.765511536
 11
511.885902479
 21
105.7657348296
  0
LWPOLYLINE
  5
2A9
100
AcDbEntity
  8
0
100
AcDbPolyline
 62
7
  6
CONTINUOUS
 90
10
 70
0
 10
492.1491672068
 20
106.8713800223
 10
492.1248122362
 20
106.8722643862
 10
492.10142544
 20
106.8748172493
 10
492.079006818
 20
106.8790386121
 10
492.0576260143
 20
106.8849089046
 10
492.037213385
 20
106.8924477001
 10
492.0175599979
 20
106.9017137155
 10
491.9985962092
 20
106.9127265254
 10
491.9803916629
 20
106.9254665618
 10
491.9629463588
 20
106.9399338288
  0
LWPOLYLINE
  5
2AA
100
AcDbEntity
  8
0
100
AcDbPolyline
 62
7
  6
CONTINUOUS
 90
10
 70
0
 10
492.1645151644
 20
107.4760867157
 10
492.192809447
 20
107.4749514607
 10
492.2198387609
 20
107.4718016968
 10
492.245603106
 20
107.4666374249
 10
492.2700407057
 20
107.4594638017
 10
492.2932133365
 20
107.4502756751
 10
492.3153063289
 20
107.4390575846
 10
492.3363814594
 20
107.4258043799
 10
492.3563769513
 20
107.4105212202
 10
492.3752928047
 20
107.3932081112
  0
LWPOLYLINE
  5
2AB
100
AcDbEntity
  8
0
100
AcDbPolyline
 62
250
  6
CONTINUOUS
 90
13
 70
0
 10
512.1708386574
 20
103.9060570146
 10
512.147322087
 20
103.9085568792
 10
512.1241905481
 20
103.9142784677
 10
512.1018228386
 20
103.9231281125
 10
512.0805852506
 20
103.9349609218
 10
512.0608255803
 20
103.9495831476
 10
512.0428674295
 20
103.9667553542
 10
512.0270048931
 20
103.9861963507
 10
512.0134977555
 20
104.0075877839
 10
512.0025672366
 20
104.0305793412
 10
511.9943923526
 20
104.0547945101
 10
511.9891069893
 20
104.0798367478
 10
511.986797717
 20
104.1052959585
  0
LWPOLYLINE
  5
2AC
100
AcDbEntity
  8
0
100
AcDbPolyline
 62
7
  6
CONTINUOUS
 90
8
 70
0
 10
477.5456606779
 20
108.8961138208
 10
477.5430492981
 20
108.8965550721
 10
477.5395133936
 20
108.8969372119
 10
477.5350529645
 20
108.8972602403
 10
477.5294227539
 20
108.8975249693
 10
477.5228680187
 20
108.8977305868
 10
477.5161245297
 20
108.8978746568
 10
477.5095100291
 20
108.8979380919
  0
LWPOLYLINE
  5
2AD
100
AcDbEntity
  8
0
100
AcDbPolyline
 62
250
  6
CONTINUOUS
 90
16
 70
0
 10
477.393444228
 20
112.5186515719
 10
477.3956432635
 20
112.517580129
 10
477.3997187002
 20
112.516547155
 10
477.4056705381
 20
112.5155526501
 10
477.4135887449
 20
112.5145883078
 10
477.423383353
 20
112.5136624345
 10
477.4347844591
 20
112.5127999495
 10
477.4478355062
 20
112.5120016893
 10
477.4624930514
 20
112.5112668174
 10
477.4783568634
 20
112.5106177442
 10
477.4954750407
 20
112.5100564328
 10
477.5137994848
 20
112.5095809199
 10
477.5327856689
 20
112.509207726
 10
477.5522520842
 20
112.5089423578
 10
477.5723802395
 20
112.5087793086
 10
477.7605992634
 20
112.5087185783
  0
LINE
  5
2AE
100
AcDbEntity
  8
0
100
AcDbLine
 62
250
  6
CONTINUOUS
 10
478.2105499703
 20
108.9493301363
 11
478.2073550552
 21
108.9589226761
  0
LINE
  5
2AF
100
AcDbEntity
  8
0
100
AcDbLine
 62
250
  6
CONTINUOUS
 10
478.4094673796
 20
109.1522149992
 11
478.4073245942
 21
109.1586485831
  0
LINE
  5
2B0
100
AcDbEntity
  8
0
100
AcDbLine
 62
7
  6
CONTINUOUS
 10
477.0668425263
 20
132.6516366394
 11
477.0668425263
 21
132.0452532736
  0
LINE
  5
2B1
100
AcDbEntity
  8
0
100
AcDbLine
 62
7
  6
CONTINUOUS
 10
477.0668425263
 20
111.8394180939
 11
477.0668425263
 21
112.4458014597
  0
LINE
  5
2B2
100
AcDbEntity
  8
0
100
AcDbLine
 62
250
  6
CONTINUOUS
 10
477.1937183211
 20
135.3189256649
 11
477.1937183211
 21
132.1721290684
  0
LINE
  5
2B3
100
AcDbEntity
  8
0
100
AcDbLine
 62
250
  6
CONTINUOUS
 10
477.1937183211
 20
112.3189256649
 11
477.1937183211
 21
109.1721290684
  0
LINE
  5
2B4
100
AcDbEntity
  8
0
100
AcDbLine
 62
250
  6
CONTINUOUS
 10
477.593170135
 20
108.982336155
 11
477.593170135
 21
112.5087185783
  0
LINE
  5
2B5
100
AcDbEntity
  8
0
100
AcDbLine
 62
250
  6
CONTINUOUS
 10
477.593170135
 20
131.982336155
 11
477.593170135
 21
135.5087185783
  0
LINE
  5
2B6
100
AcDbEntity
  8
0
100
AcDbLine
 62
250
  6
CONTINUOUS
 10
477.7605992634
 20
108.982336155
 11
477.7605992634
 21
112.5087185783
  0
LINE
  5
2B7
100
AcDbEntity
  8
0
100
AcDbLine
 62
250
  6
CONTINUOUS
 10
477.7605992634
 20
131.982336155
 11
477.7605992634
 21
135.5087185783
  0
LINE
  5
2B8
100
AcDbEntity
  8
0
100
AcDbLine
 62
250
  6
CONTINUOUS
 10
477.9020206196
 20
135.3089926713
 11
477.9020206196
 21
132.182062062
  0
LINE
  5
2B9
100
AcDbEntity
  8
0
100
AcDbLine
 62
250
  6
CONTINUOUS
 10
477.9020206196
 20
112.3089926713
 11
477.9020206196
 21
109.182062062
  0
LINE
  5
2BA
100
AcDbEntity
  8
0
100
AcDbLine
 62
7
  6
CONTINUOUS
 10
477.9094673796
 20
135.6936695022
 11
477.9094673796
 21
135.545952586
  0
LINE
  5
2BB
100
AcDbEntity
  8
0
100
AcDbLine
 62
7
  6
CONTINUOUS
 10
477.9094673796
 20
112.6983852117
 11
477.9094673796
 21
112.545952586
  0
LINE
  5
2BC
100
AcDbEntity
  8
0
100
AcDbLine
 62
7
  6
CONTINUOUS
 10
477.9094673796
 20
108.7973852311
 11
477.9094673796
 21
108.9451021473
  0
LINE
  5
2BD
100
AcDbEntity
  8
0
100
AcDbLine
 62
7
  6
CONTINUOUS
 10
477.9094673796
 20
131.7926695216
 11
477.9094673796
 21
131.9451021473
  0
LINE
  5
2BE
100
AcDbEntity
  8
0
100
AcDbLine
 62
250
  6
CONTINUOUS
 10
478.3487764114
 20
135.3324061503
 11
478.3487764114
 21
132.1586485831
  0
LINE
  5
2BF
100
AcDbEntity
  8
0
100
AcDbLine
 62
250
  6
CONTINUOUS
 10
478.3487764114
 20
112.3324061503
 11
478.3487764114
 21
109.1586485831
  0
LINE
  5
2C0
100
AcDbEntity
  8
0
100
AcDbLine
 62
250
  6
CONTINUOUS
 10
478.4073245942
 20
135.3324061503
 11
478.4073245942
 21
132.1586485831
  0
LINE
  5
2C1
100
AcDbEntity
  8
0
100
AcDbLine
 62
250
  6
CONTINUOUS
 10
478.4073245942
 20
112.3324061503
 11
478.4073245942
 21
109.1586485831
  0
LWPOLYLINE
  5
2C2
100
AcDbEntity
  8
0
100
AcDbPolyline
 62
250
  6
CONTINUOUS
 90
8
 70
0
 10
504.9252164382
 20
112.3189259707
 10
504.9208729418
 20
112.3178272281
 10
504.9125098307
 20
112.3167880012
 10
504.9005212558
 20
112.3158082901
 10
504.8852698239
 20
112.3148824642
 10
504.8672007742
 20
112.314016154
 10
504.8469222844
 20
112.3132262512
 10
504.8249907523
 20
112.3125200542
  0
LWPOLYLINE
  5
2C3
100
AcDbEntity
  8
0
100
AcDbPolyline
 62
250
  6
CONTINUOUS
 90
13
 70
0
 10
504.7254905312
 20
108.9724031614
 10
504.7515141265
 20
108.9741770785
 10
504.7770941744
 20
108.9793260643
 10
504.8017945252
 20
108.9877623873
 10
504.8251940209
 20
108.9993422663
 10
504.8468936598
 20
109.0138683123
 10
504.8665234051
 20
109.0310928856
 10
504.8837485249
 20
109.0507223397
 10
504.8982752708
 20
109.0724220051
 10
504.9098558874
 20
109.0958218726
 10
504.9182928745
 20
109.1205229506
 10
504.9234423411
 20
109.1461040762
 10
504.9252164446
 20
109.1721290619
  0
LWPOLYLINE
  5
2C4
100
AcDbEntity
  8
0
100
AcDbPolyline
 62
250
  6
CONTINUOUS
 90
13
 70
0
 10
478.2073550552
 20
108.9589226761
 10
478.2334661213
 20
108.9606564673
 10
478.2591282219
 20
108.965780012
 10
478.2839021517
 20
108.9742048552
 10
478.3073630998
 20
108.9857855083
 10
478.3291109651
 20
109.0003233952
 10
478.3487763974
 20
109.0175714983
 10
478.3660291302
 20
109.0372437216
 10
478.3805645471
 20
109.0589968051
 10
478.3921219261
 20
109.0824312474
 10
478.4005109434
 20
109.1071321696
 10
478.4056038169
 20
109.132683523
 10
478.4073245942
 20
109.1586485831
  0
LINE
  5
2C5
100
AcDbEntity
  8
0
100
AcDbLine
 62
250
  6
CONTINUOUS
 10
504.3583354959
 20
108.982336155
 11
503.9115797041
 21
108.9589226761
  0
LINE
  5
2C6
100
AcDbEntity
  8
0
100
AcDbLine
 62
250
  6
CONTINUOUS
 10
504.2169141396
 20
109.182062062
 11
503.7701583478
 21
109.1586485831
  0
LWPOLYLINE
  5
2C7
100
AcDbEntity
  8
0
100
AcDbPolyline
 62
7
  6
CONTINUOUS
 90
10
 70
0
 10
492.1409818201
 20
108.2516665855
 10
492.1012678257
 20
108.2501955184
 10
492.0632683359
 20
108.2462246833
 10
492.0269833508
 20
108.2397540819
 10
491.9924886253
 20
108.230749951
 10
491.9597084044
 20
108.2192460604
 10
491.9284154237
 20
108.2053437127
 10
491.8985339284
 20
108.1890766792
 10
491.8701396733
 20
108.1704112009
 10
491.8432326584
 20
108.1493472853
  0
LWPOLYLINE
  5
2C8
100
AcDbEntity
  8
0
100
AcDbPolyline
 62
250
  6
CONTINUOUS
 90
9
 70
0
 10
477.2796007691
 20
109.1780932336
 10
477.262236417
 20
109.1774689547
 10
477.2466761074
 20
109.1768171629
 10
477.2330123727
 20
109.1761430636
 10
477.2212868125
 20
109.1754414513
 10
477.2111822173
 20
109.1746913438
 10
477.2029225004
 20
109.1738857471
 10
477.1969901054
 20
109.1730316553
 10
477.1937183211
 20
109.1721290684
  0
LWPOLYLINE
  5
2C9
100
AcDbEntity
  8
0
100
AcDbPolyline
 62
7
  6
CONTINUOUS
 90
10
 70
0
 10
493.3340240984
 20
108.2516665855
 10
493.2873965844
 20
108.2502702444
 10
493.2428879333
 20
108.2460812715
 10
493.200498145
 20
108.2390996689
 10
493.1601374196
 20
108.2292577649
 10
493.1218955571
 20
108.2166232392
 10
493.0860419574
 20
108.2013991221
 10
493.0526664205
 20
108.183653095
 10
493.0216791464
 20
108.1633174909
 10
492.9930801352
 20
108.1403923188
  0
LINE
  5
2CA
100
AcDbEntity
  8
0
100
AcDbLine
 62
250
  6
CONTINUOUS
 10
477.3220837782
 20
109.1792862988
 11
477.2796007691
 21
109.1780932336
  0
LINE
  5
2CB
100
AcDbEntity
  8
0
100
AcDbLine
 62
250
  6
CONTINUOUS
 10
477.3754928853
 20
109.1803742462
 11
477.3220837782
 21
109.1792862988
  0
LINE
  5
2CC
100
AcDbEntity
  8
0
100
AcDbLine
 62
7
  6
CONTINUOUS
 10
478.2105499703
 20
108.9493301363
 11
477.9094673796
 21
108.9451021473
  0
LINE
  5
2CD
100
AcDbEntity
  8
0
100
AcDbLine
 62
250
  6
CONTINUOUS
 10
477.4406041203
 20
109.1812698233
 11
477.3754928853
 21
109.1803742462
  0
LWPOLYLINE
  5
2CE
100
AcDbEntity
  8
0
100
AcDbPolyline
 62
7
  6
CONTINUOUS
 90
8
 70
0
 10
504.6087510356
 20
108.8979303477
 10
504.6020048229
 20
108.8978629419
 10
504.5953487781
 20
108.897715322
 10
504.5890048537
 20
108.8975067069
 10
504.5835661121
 20
108.8972417804
 10
504.5792302408
 20
108.8969221039
 10
504.5757995523
 20
108.8965461162
 10
504.5732740466
 20
108.8961138172
  0
LWPOLYLINE
  5
2CF
100
AcDbEntity
  8
0
100
AcDbPolyline
 62
250
  6
CONTINUOUS
 90
18
 70
0
 10
477.5728747073
 20
108.9822708177
 10
477.5534415424
 20
108.9821190853
 10
477.5348706403
 20
108.9818809578
 10
477.5169859095
 20
108.9815441509
 10
477.4999634415
 20
108.9811209488
 10
477.484331511
 20
108.9806482051
 10
477.4702986039
 20
108.9801290747
 10
477.4576562343
 20
108.9795604025
 10
477.4463072194
 20
108.978969577
 10
477.4363303881
 20
108.9783675673
 10
477.4276469115
 20
108.9777434042
 10
477.4199231194
 20
108.9770915687
 10
477.4130337947
 20
108.9764170819
 10
477.4071041545
 20
108.9757149227
 10
477.4021761796
 20
108.9749645092
 10
477.3982638637
 20
108.9741589809
 10
477.3953532132
 20
108.9733051983
 10
477.393444228
 20
108.9724031614
  0
LWPOLYLINE
  5
2D0
100
AcDbEntity
  8
0
100
AcDbPolyline
 62
7
  6
CONTINUOUS
 90
8
 70
0
 10
477.4306018253
 20
108.8979504672
 10
477.4222602181
 20
108.8978892263
 10
477.4148626252
 20
108.8977409103
 10
477.4079807994
 20
108.897527473
 10
477.4021595584
 20
108.897257215
 10
477.3975805081
 20
108.8969329031
 10
477.3940620426
 20
108.8965517704
 10
477.3916041619
 20
108.896113817
  0
LINE
  5
2D1
100
AcDbEntity
  8
0
100
AcDbLine
 62
250
  6
CONTINUOUS
 10
477.5140984651
 20
109.1818446532
 11
477.4406041203
 21
109.1812698233
  0
LINE
  5
2D2
100
AcDbEntity
  8
0
100
AcDbLine
 62
7
  6
CONTINUOUS
 10
490.1140377192
 20
108.2455273667
 11
489.9636283784
 21
108.2455273667
  0
LINE
  5
2D3
100
AcDbEntity
  8
0
100
AcDbLine
 62
7
  6
CONTINUOUS
 10
491.1986216574
 20
108.2516665855
 11
491.0799312262
 21
108.2516665855
  0
LINE
  5
2D4
100
AcDbEntity
  8
0
100
AcDbLine
 62
7
  6
CONTINUOUS
 10
488.8677893548
 20
108.2516665855
 11
488.7490990578
 21
108.2516665855
  0
LINE
  5
2D5
100
AcDbEntity
  8
0
100
AcDbLine
 62
7
  6
CONTINUOUS
 10
477.8655792486
 20
108.7973852311
 11
477.9094673796
 21
108.7973852311
  0
LINE
  5
2D6
100
AcDbEntity
  8
0
100
AcDbLine
 62
7
  6
CONTINUOUS
 10
504.2094673796
 20
108.7973852311
 11
504.2533555106
 21
108.7973852311
  0
LINE
  5
2D7
100
AcDbEntity
  8
0
100
AcDbLine
 62
250
  6
CONTINUOUS
 10
477.7605992634
 20
108.982336155
 11
477.5728747073
 21
108.9822708177
  0
LINE
  5
2D8
100
AcDbEntity
  8
0
100
AcDbLine
 62
250
  6
CONTINUOUS
 10
503.7701583478
 20
109.1586485831
 11
503.711610165
 21
109.1586485831
  0
LINE
  5
2D9
100
AcDbEntity
  8
0
100
AcDbLine
 62
250
  6
CONTINUOUS
 10
478.4073245942
 20
109.1586485831
 11
478.3487764114
 21
109.1586485831
  0
LINE
  5
2DA
100
AcDbEntity
  8
0
100
AcDbLine
 62
250
  6
CONTINUOUS
 10
477.9020206196
 20
109.182062062
 11
477.5140984651
 21
109.1818446532
  0
LINE
  5
2DB
100
AcDbEntity
  8
0
100
AcDbLine
 62
7
  6
CONTINUOUS
 10
504.6882932229
 20
108.8979451801
 11
504.6087510356
 21
108.8979303477
  0
LINE
  5
2DC
100
AcDbEntity
  8
0
100
AcDbLine
 62
7
  6
CONTINUOUS
 10
477.5095100291
 20
108.8979380919
 11
477.4306018253
 21
108.8979504672
  0
LINE
  5
2DD
100
AcDbEntity
  8
0
100
AcDbLine
 62
250
  6
CONTINUOUS
 10
504.543059112
 20
108.9822833982
 11
504.3583354959
 21
108.982336155
  0
LINE
  5
2DE
100
AcDbEntity
  8
0
100
AcDbLine
 62
250
  6
CONTINUOUS
 10
504.5930311325
 20
109.1819013563
 11
504.2169141396
 21
109.182062062
  0
LINE
  5
2DF
100
AcDbEntity
  8
0
100
AcDbLine
 62
250
  6
CONTINUOUS
 10
504.6534523262
 20
109.1815200552
 11
504.5930311325
 21
109.1819013563
  0
LINE
  5
2E0
100
AcDbEntity
  8
0
100
AcDbLine
 62
250
  6
CONTINUOUS
 10
504.7072468148
 20
109.1809213251
 11
504.6534523262
 21
109.1815200552
  0
LINE
  5
2E1
100
AcDbEntity
  8
0
100
AcDbLine
 62
7
  6
CONTINUOUS
 10
504.2094673796
 20
108.9451021473
 11
503.908384789
 21
108.9493301363
  0
LINE
  5
2E2
100
AcDbEntity
  8
0
100
AcDbLine
 62
250
  6
CONTINUOUS
 10
504.7573915801
 20
109.1801292109
 11
504.7072468148
 21
109.1809213251
  0
LWPOLYLINE
  5
2E3
100
AcDbEntity
  8
0
100
AcDbPolyline
 62
250
  6
CONTINUOUS
 90
4
 70
0
 10
504.603292679
 20
108.9815206043
 10
504.5896019944
 20
108.9817942871
 10
504.575042921
 20
108.9820130127
 10
504.543059112
 20
108.9822833982
  0
LWPOLYLINE
  5
2E4
100
AcDbEntity
  8
0
100
AcDbPolyline
 62
7
  6
CONTINUOUS
 90
19
 70
0
 10
512.9322159629
 20
107.7457885593
 10
512.9523244044
 20
107.7451011551
 10
512.9720338775
 20
107.7425366305
 10
512.9911590687
 20
107.7381856254
 10
513.0096544926
 20
107.7321231624
 10
513.0272319582
 20
107.7244771635
 10
513.0434163422
 20
107.7155412871
 10
513.0579446436
 20
107.7057063021
 10
513.0710318399
 20
107.6950682554
 10
513.0829455961
 20
107.6834902995
 10
513.0937294608
 20
107.6709826433
 10
513.1032337661
 20
107.657772937
 10
513.1114003151
 20
107.6439807436
 10
513.1182270797
 20
107.6297402672
 10
513.1237329318
 20
107.6151746719
 10
513.1279299393
 20
107.6003897656
 10
513.1308573543
 20
107.58549409
 10
513.1325712926
 20
107.5705952585
 10
513.1331297462
 20
107.5557868328
  0
LWPOLYLINE
  5
2E5
100
AcDbEntity
  8
0
100
AcDbPolyline
 62
7
  6
CONTINUOUS
 90
10
 70
0
 10
493.3299314051
 20
108.0992108979
 10
493.3576448006
 20
108.0981820315
 10
493.384056608
 20
108.0952939662
 10
493.4091668271
 20
108.090546703
 10
493.4329365043
 20
108.083922665
 10
493.4554045932
 20
108.0754394327
 10
493.4766879549
 20
108.0651497439
 10
493.4968255431
 20
108.0530711798
 10
493.5157784041
 20
108.0391861661
 10
493.5335465379
 20
108.0234947069
  0
LWPOLYLINE
  5
2E6
100
AcDbEntity
  8
0
100
AcDbPolyline
 62
7
  6
CONTINUOUS
 90
10
 70
0
 10
492.1450745134
 20
108.1002340713
 10
492.1690709082
 20
108.0992899336
 10
492.1919530985
 20
108.0967017469
 10
492.2137210843
 20
108.0924695118
 10
492.2343508859
 20
108.0865687484
 10
492.253866483
 20
108.0790239394
 10
492.2723398151
 20
108.0699085312
 10
492.2897948619
 20
108.0592470073
 10
492.3062076436
 20
108.0470148895
 10
492.3215781602
 20
108.0332121808
  0
LINE
  5
2E7
100
AcDbEntity
  8
0
100
AcDbLine
 62
250
  6
CONTINUOUS
 10
478.2073550552
 20
108.9589226761
 11
477.7605992634
 21
108.982336155
  0
LINE
  5
2E8
100
AcDbEntity
  8
0
100
AcDbLine
 62
250
  6
CONTINUOUS
 10
478.3487764114
 20
109.1586485831
 11
477.9020206196
 21
109.182062062
  0
LWPOLYLINE
  5
2E9
100
AcDbEntity
  8
0
100
AcDbPolyline
 62
250
  6
CONTINUOUS
 90
13
 70
0
 10
512.9161773086
 20
107.5849977165
 10
512.9422689941
 20
107.5832750813
 10
512.967914675
 20
107.5781761535
 10
512.9926759708
 20
107.569788093
 10
513.0161296185
 20
107.5582542827
 10
513.0378747076
 20
107.5437718789
 10
513.0575395336
 20
107.5265884409
 10
513.074787951
 20
107.506997698
 10
513.08932512
 20
107.4853345291
 10
513.1009025462
 20
107.461969239
 10
513.1093223281
 20
107.437301228
 10
513.1144405403
 20
107.4117521643
 10
513.1161696932
 20
107.3857587769
  0
LWPOLYLINE
  5
2EA
100
AcDbEntity
  8
0
100
AcDbPolyline
 62
250
  6
CONTINUOUS
 90
13
 70
0
 10
503.9115797041
 20
108.9589226761
 10
503.8854688477
 20
108.9606564395
 10
503.8598069521
 20
108.9657799006
 10
503.8350332111
 20
108.9742046049
 10
503.811572458
 20
108.9857850469
 10
503.7898247438
 20
109.0003226663
 10
503.7701593248
 20
109.0175705355
 10
503.7529064631
 20
109.0372426347
 10
503.7383708462
 20
109.0589957069
 10
503.7268132457
 20
109.0824302516
 10
503.7184240249
 20
109.1071313904
 10
503.713331001
 20
109.1326830793
 10
503.711610165
 20
109.1586485831
  0
LWPOLYLINE
  5
2EB
100
AcDbEntity
  8
0
100
AcDbPolyline
 62
250
  6
CONTINUOUS
 90
13
 70
0
 10
477.393444228
 20
108.9724031614
 10
477.3674198677
 20
108.9741771812
 10
477.3418392417
 20
108.9793264272
 10
477.3171385187
 20
108.987763101
 10
477.2937388643
 20
108.9993433507
 10
477.2720392599
 20
109.0138697249
 10
477.2524097002
 20
109.0310945384
 10
477.2351848839
 20
109.0507240953
 10
477.2206585068
 20
109.0724236974
 10
477.2090782554
 20
109.095823351
 10
477.2006415818
 20
109.1205240752
 10
477.1954923376
 20
109.1461047039
 10
477.1937183211
 20
109.1721290684
  0
LINE
  5
2EC
100
AcDbEntity
  8
0
100
AcDbLine
 62
7
  6
CONTINUOUS
 10
492.8469846516
 20
107.8178329566
 11
493.0362749367
 21
107.7983923056
  0
LWPOLYLINE
  5
2ED
100
AcDbEntity
  8
0
100
AcDbPolyline
 62
7
  6
CONTINUOUS
 90
8
 70
0
 10
470.0493971996
 20
111.8270812982
 10
470.0526595747
 20
111.8265462955
 10
470.0587874261
 20
111.826029603
 10
470.0677807539
 20
111.8255312207
 10
470.0797982362
 20
111.825046252
 10
470.0946811948
 20
111.8245795935
 10
470.1119535949
 20
111.8241459347
 10
470.1537503006
 20
111.8233805915
  0
LINE
  5
2EE
100
AcDbEntity
  8
0
100
AcDbLine
 62
7
  6
CONTINUOUS
 10
491.6897537975
 20
107.8628533879
 11
491.8739285736
 21
107.8301113048
  0
LWPOLYLINE
  5
2EF
100
AcDbEntity
  8
0
100
AcDbPolyline
 62
250
  6
CONTINUOUS
 90
11
 70
0
 10
477.1937183211
 20
112.3189259059
 10
477.1978774057
 20
112.3178535968
 10
477.2060633624
 20
112.3168201331
 10
477.2181709308
 20
112.315825515
 10
477.2340379958
 20
112.3148616754
 10
477.2534941641
 20
112.3139366813
 10
477.276398792
 20
112.3130747334
 10
477.3025487725
 20
112.3122762388
 10
477.3316780478
 20
112.3115407903
 10
477.3635435861
 20
112.3108913675
 10
477.434268865
 20
112.3098551518
  0
LWPOLYLINE
  5
2F0
100
AcDbEntity
  8
0
100
AcDbPolyline
 62
7
  6
CONTINUOUS
 90
43
 70
0
 10
494.4014485829
 20
140.7548279603
 10
494.4215459385
 20
140.7716576974
 10
494.4317475007
 20
140.780480579
 10
494.4420774967
 20
140.7897747365
 10
494.4525945743
 20
140.7995188347
 10
494.4632400857
 20
140.8097342068
 10
494.4738823054
 20
140.8205961875
 10
494.4845290984
 20
140.8321049975
 10
494.4951725998
 20
140.8442604129
 10
494.5056574885
 20
140.8572371004
 10
494.5159772175
 20
140.8710725116
 10
494.526138334
 20
140.88572919
 10
494.536005158
 20
140.9012694389
 10
494.5455834711
 20
140.9176887824
 10
494.5548674917
 20
140.9349916901
 10
494.5637041953
 20
140.9532538835
 10
494.5721231709
 20
140.9725036243
 10
494.5800948295
 20
140.9927126425
 10
494.5873773795
 20
141.0138718612
 10
494.5939699012
 20
141.0359800898
 10
494.5998733144
 20
141.0590385094
 10
494.6048485862
 20
141.0830415998
 10
494.6089005107
 20
141.1079265542
 10
494.6120242938
 20
141.133756169
 10
494.6139665206
 20
141.1607133276
 10
494.6148094239
 20
141.188836704
 10
494.6144707708
 20
141.2180876097
 10
494.6124504475
 20
141.2485328825
 10
494.6088716913
 20
141.2803734985
 10
494.6036112649
 20
141.3134084634
 10
494.5957993424
 20
141.3471016621
 10
494.5852247102
 20
141.3817620541
 10
494.5720985819
 20
141.4170806676
 10
494.5561847723
 20
141.4515945072
 10
494.53729999
 20
141.4851519835
 10
494.5156275263
 20
141.5179046992
 10
494.4914810694
 20
141.5488444659
 10
494.4646038487
 20
141.5779950523
 10
494.4352526347
 20
141.6053327148
 10
494.4045114271
 20
141.6297780104
 10
494.3727415591
 20
141.650971138
 10
494.3395816974
 20
141.6692719308
 10
494.3050318422
 20
141.6846804013
  0
LWPOLYLINE
  5
2F1
100
AcDbEntity
  8
0
100
AcDbPolyline
 62
250
  6
CONTINUOUS
 90
13
 70
0
 10
477.7605992634
 20
108.982336155
 10
477.7786540096
 20
108.9849118473
 10
477.7964125658
 20
108.990709123
 10
477.8135848225
 20
108.9996326417
 10
477.8298896183
 20
109.0115354082
 10
477.8450616008
 20
109.0262227729
 10
477.8588549914
 20
109.0434568642
 10
477.8710488662
 20
109.0629652584
 10
477.8814373894
 20
109.0844227343
 10
477.88984202
 20
109.1074522905
 10
477.8961300242
 20
109.1316644899
 10
477.9002093099
 20
109.156670422
 10
477.9020206196
 20
109.182062062
  0
LWPOLYLINE
  5
2F2
100
AcDbEntity
  8
0
100
AcDbPolyline
 62
250
  6
CONTINUOUS
 90
13
 70
0
 10
478.2073550552
 20
108.9589226761
 10
478.2254030473
 20
108.9614967895
 10
478.2431559754
 20
108.9672904266
 10
478.2603239538
 20
108.9762087997
 10
478.2766257996
 20
108.9881053659
 10
478.2917963757
 20
109.0027861367
 10
478.3055902362
 20
109.0200143418
 10
478.3177859777
 20
109.0395178995
 10
478.3281776388
 20
109.0609724666
 10
478.3365868071
 20
109.0840034283
 10
478.3428798183
 20
109.108222538
 10
478.3469631647
 20
109.1332403681
 10
478.3487764114
 20
109.1586485831
  0
LWPOLYLINE
  5
2F3
100
AcDbEntity
  8
0
100
AcDbPolyline
 62
7
  6
CONTINUOUS
 90
7
 70
0
 10
512.00698113
 20
111.8241459357
 10
512.0242535317
 20
111.8245795943
 10
512.0391364933
 20
111.8250462526
 10
512.0511539803
 20
111.8255312211
 10
512.0601473146
 20
111.8260296033
 10
512.0662751744
 20
111.8265462957
 10
512.0695375596
 20
111.8270812982
  0
LWPOLYLINE
  5
2F4
100
AcDbEntity
  8
0
100
AcDbPolyline
 62
250
  6
CONTINUOUS
 90
3
 70
0
 10
504.8249907523
 20
112.3125200542
 10
504.7776569675
 20
112.3113318791
 10
504.7532677723
 20
112.3108495789
  0
LINE
  5
2F5
100
AcDbEntity
  8
0
100
AcDbLine
 62
7
  6
CONTINUOUS
 10
511.965184425
 20
111.8233805928
 11
512.00698113
 21
111.8241459357
  0
LINE
  5
2F6
100
AcDbEntity
  8
0
100
AcDbLine
 62
7
  6
CONTINUOUS
 10
511.9155280862
 20
111.8227786997
 11
511.965184425
 21
111.8233805928
  0
LINE
  5
2F7
100
AcDbEntity
  8
0
100
AcDbLine
 62
7
  6
CONTINUOUS
 10
511.8305397984
 20
111.8222276232
 11
511.9155280862
 21
111.8227786997
  0
LINE
  5
2F8
100
AcDbEntity
  8
0
100
AcDbLine
 62
7
  6
CONTINUOUS
 10
505.1040302077
 20
111.8221195033
 11
511.8305397984
 21
111.8222276232
  0
LINE
  5
2F9
100
AcDbEntity
  8
0
100
AcDbLine
 62
7
  6
CONTINUOUS
 10
470.0123567148
 20
111.8394180939
 11
477.0668425263
 21
111.8394180939
  0
LINE
  5
2FA
100
AcDbEntity
  8
0
100
AcDbLine
 62
7
  6
CONTINUOUS
 10
505.052092233
 20
111.8394180939
 11
512.1065780445
 21
111.8394180939
  0
LINE
  5
2FB
100
AcDbEntity
  8
0
100
AcDbLine
 62
7
  6
CONTINUOUS
 10
470.2883949865
 20
111.8222276217
 11
477.0149045516
 21
111.8221195033
  0
LINE
  5
2FC
100
AcDbEntity
  8
0
100
AcDbLine
 62
7
  6
CONTINUOUS
 10
470.2034066383
 20
111.8227786981
 11
470.2883949865
 21
111.8222276217
  0
LINE
  5
2FD
100
AcDbEntity
  8
0
100
AcDbLine
 62
7
  6
CONTINUOUS
 10
470.1537503006
 20
111.8233805915
 11
470.2034066383
 21
111.8227786981
  0
LWPOLYLINE
  5
2FE
100
AcDbEntity
  8
0
100
AcDbPolyline
 62
250
  6
CONTINUOUS
 90
13
 70
0
 10
478.2073550552
 20
112.5321320572
 10
478.2334659115
 20
112.5303982938
 10
478.2591278072
 20
112.5252748327
 10
478.2839015481
 20
112.5168501285
 10
478.3073623012
 20
112.5052696864
 10
478.3291100155
 20
112.490732067
 10
478.3487754345
 20
112.4734841979
 10
478.3660282961
 20
112.4538120986
 10
478.3805639131
 20
112.4320590264
 10
478.3921215135
 20
112.4086244818
 10
478.4005107344
 20
112.3839233429
 10
478.4056037583
 20
112.358371654
 10
478.4073245942
 20
112.3324061503
  0
LWPOLYLINE
  5
2FF
100
AcDbEntity
  8
0
100
AcDbPolyline
 62
250
  6
CONTINUOUS
 90
16
 70
0
 10
511.9868002119
 20
107.3857584613
 10
511.9808556029
 20
107.3865275137
 10
511.9755039755
 20
107.3872842535
 10
511.9707168352
 20
107.3880286808
 10
511.966466634
 20
107.3887616033
 10
511.9627230227
 20
107.3894822131
 10
511.9594541825
 20
107.3901880873
 10
511.9566318995
 20
107.3908790769
 10
511.9542292244
 20
107.3915553308
 10
511.9522180209
 20
107.3922148727
 10
511.9505715644
 20
107.3928575472
 10
511.9492640501
 20
107.3934835098
 10
511.9482698112
 20
107.3940912503
 10
511.9475637813
 20
107.3946802653
 10
511.9471215077
 20
107.3952510583
 10
511.9469191586
 20
107.3958036293
  0
LWPOLYLINE
  5
300
100
AcDbEntity
  8
0
100
AcDbPolyline
 62
250
  6
CONTINUOUS
 90
13
 70
0
 10
477.7605992634
 20
112.5087185783
 10
477.7786538695
 20
112.5061429187
 10
477.7964122896
 20
112.5003457268
 10
477.8135844211
 20
112.4914223413
 10
477.829889088
 20
112.4795197731
 10
477.8450609697
 20
112.4648326558
 10
477.8588543485
 20
112.4475987782
 10
477.8710483037
 20
112.4280904954
 10
477.881436955
 20
112.4066330275
 10
477.8898417304
 20
112.3836033741
 10
477.8961298709
 20
112.3593909712
 10
477.9002092615
 20
112.3343847255
 10
477.9020206196
 20
112.3089926713
  0
LWPOLYLINE
  5
301
100
AcDbEntity
  8
0
100
AcDbPolyline
 62
250
  6
CONTINUOUS
 90
13
 70
0
 10
478.2073550552
 20
112.5321320572
 10
478.2254031626
 20
112.5295579168
 10
478.2431562
 20
112.5237642121
 10
478.260324276
 20
112.5148457332
 10
478.2766262187
 20
112.5029490135
 10
478.2917968678
 20
112.4882680545
 10
478.3055907333
 20
112.471039689
 10
478.3177864089
 20
112.4515360518
 10
478.3281779686
 20
112.4300814864
 10
478.3365870251
 20
112.4070506043
 10
478.3428799331
 20
112.3828316504
 10
478.3469632008
 20
112.3578140564
 10
478.3487764114
 20
112.3324061503
  0
LWPOLYLINE
  5
302
100
AcDbEntity
  8
0
100
AcDbPolyline
 62
250
  6
CONTINUOUS
 90
13
 70
0
 10
503.9115797041
 20
108.9589226761
 10
503.8935315966
 20
108.9614968165
 10
503.8757785593
 20
108.9672905212
 10
503.8586104832
 20
108.9762090001
 10
503.8423085405
 20
108.9881057199
 10
503.8271378914
 20
109.0027866789
 10
503.813344026
 20
109.0200150443
 10
503.8011483503
 20
109.0395186815
 10
503.7907567906
 20
109.060973247
 10
503.7823477341
 20
109.0840041291
 10
503.7760548261
 20
109.1082230829
 10
503.7719715584
 20
109.133240677
 10
503.7701583478
 20
109.1586485831
  0
LWPOLYLINE
  5
303
100
AcDbEntity
  8
0
100
AcDbPolyline
 62
250
  6
CONTINUOUS
 90
13
 70
0
 10
504.3583354959
 20
108.982336155
 10
504.3402808897
 20
108.9849118146
 10
504.3225224696
 20
108.9907090065
 10
504.3053503381
 20
108.999632392
 10
504.2890456712
 20
109.0115349602
 10
504.2738737895
 20
109.0262220775
 10
504.2600804108
 20
109.0434559552
 10
504.2478864555
 20
109.062964238
 10
504.2374978042
 20
109.0844217058
 10
504.2290930288
 20
109.1074513592
 10
504.2228048884
 20
109.1316637621
 10
504.2187254977
 20
109.1566700078
 10
504.2169141396
 20
109.182062062
  0
LWPOLYLINE
  5
304
100
AcDbEntity
  8
0
100
AcDbPolyline
 62
7
  6
CONTINUOUS
 90
8
 70
0
 10
504.7273305614
 20
108.8961138211
 10
504.724921411
 20
108.896544531
 10
504.7214895822
 20
108.8969205824
 10
504.717035075
 20
108.8972419753
 10
504.711403102
 20
108.897511945
 10
504.7047484505
 20
108.8977272561
 10
504.6975354834
 20
108.8978782024
 10
504.6897522151
 20
108.8979422025
  0
LWPOLYLINE
  5
305
100
AcDbEntity
  8
0
100
AcDbPolyline
 62
7
  6
CONTINUOUS
 90
10
 70
0
 10
492.3670041553
 20
108.198254735
 10
492.3430461307
 20
108.2095384792
 10
492.3188825382
 20
108.2194684123
 10
492.2945133778
 20
108.2280445319
 10
492.2700497482
 20
108.2352447804
 10
492.2453805507
 20
108.2410912119
 10
492.2201724887
 20
108.2456499922
 10
492.1943144636
 20
108.2489431763
 10
492.167917574
 20
108.2509487075
 10
492.1409818201
 20
108.2516665855
  0
LWPOLYLINE
  5
306
100
AcDbEntity
  8
0
100
AcDbPolyline
 62
7
  6
CONTINUOUS
 90
10
 70
0
 10
491.8194445518
 20
106.8363093376
 10
491.8486285685
 20
106.8120706507
 10
491.8795730723
 20
106.7906080218
 10
491.9122780634
 20
106.7719214397
 10
491.9466448086
 20
106.7559803066
 10
491.982772041
 20
106.7428152025
 10
492.0209559598
 20
106.7325178847
 10
492.061295298
 20
106.7251189357
 10
492.1036913225
 20
106.7205877635
 10
492.1481440334
 20
106.7189243655
  0
LINE
  5
307
100
AcDbEntity
  8
0
100
AcDbLine
 62
7
  6
CONTINUOUS
 10
485.4473163796
 20
103.3086293667
 11
485.0886883796
 21
104.3705273667
  0
LINE
  5
308
100
AcDbEntity
  8
0
100
AcDbLine
 62
7
  6
CONTINUOUS
 10
485.0103283796
 20
104.1686473667
 11
485.3620293796
 21
103.1205273667
  0
LINE
  5
309
100
AcDbEntity
  8
0
100
AcDbLine
 62
250
  6
CONTINUOUS
 10
478.2073550552
 20
112.5321320572
 11
478.2105499703
 21
112.541724597
  0
LINE
  5
30A
100
AcDbEntity
  8
0
100
AcDbLine
 62
250
  6
CONTINUOUS
 10
478.4073245942
 20
112.3324061503
 11
478.4094673796
 21
112.3388397341
  0
LINE
  5
30B
100
AcDbEntity
  8
0
100
AcDbLine
 62
7
  6
CONTINUOUS
 10
470.0502971916
 20
112.6834678435
 11
470.0123567148
 21
112.6455273667
  0
LINE
  5
30C
100
AcDbEntity
  8
0
100
AcDbLine
 62
7
  6
CONTINUOUS
 10
512.0781225483
 20
138.7299406358
 11
512.1249207672
 21
138.7455273667
  0
LINE
  5
30D
100
AcDbEntity
  8
0
100
AcDbLine
 62
7
  6
CONTINUOUS
 10
504.8345376298
 20
135.6276986705
 11
504.7619534181
 21
135.6054100337
  0
LINE
  5
30E
100
AcDbEntity
  8
0
100
AcDbLine
 62
7
  6
CONTINUOUS
 10
504.7619534181
 20
135.6054100337
 11
504.7273306307
 21
135.5949409199
  0
LWPOLYLINE
  5
30F
100
AcDbEntity
  8
0
100
AcDbPolyline
 62
7
  6
CONTINUOUS
 90
46
 70
0
 10
504.8345376298
 20
135.6276986705
 10
504.8435039239
 20
135.6303577516
 10
504.8522276138
 20
135.6327373789
 10
504.8607037267
 20
135.6348505787
 10
504.8689214452
 20
135.636707565
 10
504.8768838664
 20
135.6383237929
 10
504.8846078269
 20
135.6397189359
 10
504.8920906176
 20
135.6409042041
 10
504.8993307077
 20
135.641890673
 10
504.9063472054
 20
135.6426956874
 10
504.9131385733
 20
135.6433289887
 10
504.919704577
 20
135.6437999259
 10
504.9260664374
 20
135.6441231401
 10
504.9322232476
 20
135.6443069184
 10
504.9381757418
 20
135.6443589275
 10
504.9439474344
 20
135.6442907281
 10
504.9495377097
 20
135.6441092092
 10
504.9549478558
 20
135.6438203847
 10
504.9602037473
 20
135.6434322803
 10
504.9653047141
 20
135.6429504611
 10
504.9702522816
 20
135.6423793263
 10
504.9750747805
 20
135.6417228233
 10
504.9797711479
 20
135.6409852838
 10
504.984342876
 20
135.6401695064
 10
504.9888209087
 20
135.6392746524
 10
504.9932034032
 20
135.6383039277
 10
504.997491588
 20
135.6372584738
 10
505.0017193244
 20
135.6361316299
 10
505.0058829202
 20
135.6349257966
 10
505.0099836858
 20
135.6336400852
 10
505.0140605868
 20
135.6322597163
 10
505.018113227
 20
135.6307840518
 10
505.022136523
 20
135.6292118075
 10
505.0261594963
 20
135.6275239782
 10
505.0301906836
 20
135.6257129659
 10
505.0342121778
 20
135.6237814302
 10
505.0382118141
 20
135.6217244693
 10
505.0421960344
 20
135.6195330968
 10
505.0461481665
 20
135.617212311
 10
505.0500233805
 20
135.6147803674
 10
505.0538157383
 20
135.6122378013
 10
505.0575250327
 20
135.6095849216
 10
505.0611190294
 20
135.6068431043
 10
505.0645870852
 20
135.6040214805
 10
505.0679379983
 20
135.6011153023
 10
505.071170705
 20
135.5981266284
  0
LWPOLYLINE
  5
310
100
AcDbEntity
  8
0
100
AcDbPolyline
 62
250
  6
CONTINUOUS
 90
13
 70
0
 10
477.393444228
 20
112.5186515719
 10
477.367421551
 20
112.516877778
 10
477.3418421965
 20
112.5117291045
 10
477.3171422916
 20
112.5032932024
 10
477.2937429852
 20
112.491713768
 10
477.2720433034
 20
112.4771881149
 10
477.2524133344
 20
112.459963829
 10
477.2351878496
 20
112.4403344976
 10
477.2206606609
 20
112.4186347556
 10
477.2090796072
 20
112.3952346306
 10
477.2006422469
 20
112.3705331272
 10
477.1954925174
 20
112.3449514043
 10
477.1937183137
 20
112.3189256723
  0
LINE
  5
311
100
AcDbEntity
  8
0
100
AcDbLine
 62
250
  6
CONTINUOUS
 10
477.9020206196
 20
112.3089926713
 11
478.3487764114
 21
112.3324061503
  0
LINE
  5
312
100
AcDbEntity
  8
0
100
AcDbLine
 62
250
  6
CONTINUOUS
 10
477.7605992634
 20
112.5087185783
 11
478.2073550552
 21
112.5321320572
  0
LWPOLYLINE
  5
313
100
AcDbEntity
  8
0
100
AcDbPolyline
 62
250
  6
CONTINUOUS
 90
4
 70
0
 10
504.6272429786
 20
112.5101647788
 10
504.6014460352
 20
112.5094934581
 10
504.5880273074
 20
112.5092330304
 10
504.5737929493
 20
112.509025291
  0
LINE
  5
314
100
AcDbEntity
  8
0
100
AcDbLine
 62
250
  6
CONTINUOUS
 10
504.7532677723
 20
112.3108495789
 11
504.7031965793
 21
112.3100801418
  0
LINE
  5
315
100
AcDbEntity
  8
0
100
AcDbLine
 62
7
  6
CONTINUOUS
 10
504.2094673796
 20
112.545952586
 11
503.908384789
 21
112.541724597
  0
LINE
  5
316
100
AcDbEntity
  8
0
100
AcDbLine
 62
250
  6
CONTINUOUS
 10
504.7031965793
 20
112.3100801418
 11
504.6502945205
 21
112.3095072494
  0
LWPOLYLINE
  5
317
100
AcDbEntity
  8
0
100
AcDbPolyline
 62
7
  6
CONTINUOUS
 90
15
 70
0
 10
470.3192088464
 20
112.6982998992
 10
470.2893726763
 20
112.6980609146
 10
470.2603979896
 20
112.6976682556
 10
470.2319775679
 20
112.6971140513
 10
470.2044186296
 20
112.6964061726
 10
470.17864283
 20
112.6955682315
 10
470.1547559695
 20
112.6945978909
 10
470.1326522477
 20
112.693497488
 10
470.112935919
 20
112.6922976467
 10
470.0956485686
 20
112.6909939009
 10
470.0807486112
 20
112.6895907167
 10
470.0687155451
 20
112.6881321167
 10
470.0597092027
 20
112.6866327748
 10
470.0535697516
 20
112.6850780171
 10
470.0502971916
 20
112.6834678435
  0
LINE
  5
318
100
AcDbEntity
  8
0
100
AcDbLine
 62
250
  6
CONTINUOUS
 10
504.5737929493
 20
112.509025291
 11
504.5425896963
 21
112.5087681275
  0
LINE
  5
319
100
AcDbEntity
  8
0
100
AcDbLine
 62
250
  6
CONTINUOUS
 10
504.6502945205
 20
112.3095072494
 11
504.5591909127
 21
112.3090423593
  0
LINE
  5
31A
100
AcDbEntity
  8
0
100
AcDbLine
 62
250
  6
CONTINUOUS
 10
504.5591909127
 20
112.3090423593
 11
504.2169141396
 21
112.3089926713
  0
LINE
  5
31B
100
AcDbEntity
  8
0
100
AcDbLine
 62
250
  6
CONTINUOUS
 10
503.7701583478
 20
112.3324061503
 11
503.711610165
 21
112.3324061503
  0
LINE
  5
31C
100
AcDbEntity
  8
0
100
AcDbLine
 62
250
  6
CONTINUOUS
 10
478.3487764114
 20
112.3324061503
 11
478.4073245942
 21
112.3324061503
  0
LINE
  5
31D
100
AcDbEntity
  8
0
100
AcDbLine
 62
250
  6
CONTINUOUS
 10
504.5425896963
 20
112.5087681275
 11
504.3583354959
 21
112.5087185783
  0
LINE
  5
31E
100
AcDbEntity
  8
0
100
AcDbLine
 62
7
  6
CONTINUOUS
 10
470.0123567148
 20
112.6455273667
 11
477.2665684332
 21
112.6455273667
  0
LINE
  5
31F
100
AcDbEntity
  8
0
100
AcDbLine
 62
7
  6
CONTINUOUS
 10
504.852366326
 20
112.6455273667
 11
512.1065780445
 21
112.6455273667
  0
LINE
  5
320
100
AcDbEntity
  8
0
100
AcDbLine
 62
7
  6
CONTINUOUS
 10
470.3192088464
 20
112.6982998992
 11
477.9094673796
 21
112.6983852117
  0
LINE
  5
321
100
AcDbEntity
  8
0
100
AcDbLine
 62
7
  6
CONTINUOUS
 10
470.0295171171
 20
113.7455273667
 11
512.0894176421
 21
113.7455273667
  0
LINE
  5
322
100
AcDbEntity
  8
0
100
AcDbLine
 62
250
  6
CONTINUOUS
 10
477.5118649386
 20
112.30921687
 11
477.9020206196
 21
112.3089926713
  0
LINE
  5
323
100
AcDbEntity
  8
0
100
AcDbLine
 62
250
  6
CONTINUOUS
 10
477.434268865
 20
112.3098551518
 11
477.5118649386
 21
112.30921687
  0
LINE
  5
324
100
AcDbEntity
  8
0
100
AcDbLine
 62
7
  6
CONTINUOUS
 10
477.9094673796
 20
112.545952586
 11
478.2105499703
 21
112.541724597
  0
LINE
  5
325
100
AcDbEntity
  8
0
100
AcDbLine
 62
250
  6
CONTINUOUS
 10
504.2169141396
 20
112.3089926713
 11
503.7701583478
 21
112.3324061503
  0
LINE
  5
326
100
AcDbEntity
  8
0
100
AcDbLine
 62
250
  6
CONTINUOUS
 10
504.3583354959
 20
112.5087185783
 11
503.9115797041
 21
112.5321320572
  0
LWPOLYLINE
  5
327
100
AcDbEntity
  8
0
100
AcDbPolyline
 62
250
  6
CONTINUOUS
 90
16
 70
0
 10
512.170838668
 20
107.5849977165
 10
512.1673012806
 20
107.5857665945
 10
512.1640851075
 20
107.5865232102
 10
512.1611901486
 20
107.5872675636
 10
512.1586339979
 20
107.5880004839
 10
512.1563990615
 20
107.5887211419
 10
512.1544325577
 20
107.5894270505
 10
512.1527333046
 20
107.5901180318
 10
512.1513024841
 20
107.5907942637
 10
512.1500908605
 20
107.5914537921
 10
512.1490973639
 20
107.5920964738
 10
512.1483230641
 20
107.5927224521
 10
512.1477219348
 20
107.5933302031
 10
512.1472786338
 20
107.593919219
 10
512.1470085033
 20
107.5944900076
 10
512.1469115432
 20
107.5950425689
  0
LWPOLYLINE
  5
328
100
AcDbEntity
  8
0
100
AcDbPolyline
 62
250
  6
CONTINUOUS
 90
10
 70
0
 10
504.9252164382
 20
109.1721287528
 10
504.9211025145
 20
109.1731890514
 10
504.9131839146
 20
109.1741990876
 10
504.9017485743
 20
109.1751588614
 10
504.8870170167
 20
109.1760766499
 10
504.8693672356
 20
109.1769441759
 10
504.8494984675
 20
109.1777366079
 10
504.8280530284
 20
109.1784435662
 10
504.8053260646
 20
109.1790754304
 10
504.7573915801
 20
109.1801292109
  0
LINE
  5
329
100
AcDbEntity
  8
0
100
AcDbLine
 62
7
  6
CONTINUOUS
 10
504.7796816308
 20
108.880241498
 11
504.7273305614
 21
108.8961138211
  0
LINE
  5
32A
100
AcDbEntity
  8
0
100
AcDbLine
 62
7
  6
CONTINUOUS
 10
504.8345376298
 20
108.8633560628
 11
504.7796816308
 21
108.880241498
  0
LWPOLYLINE
  5
32B
100
AcDbEntity
  8
0
100
AcDbPolyline
 62
7
  6
CONTINUOUS
 90
10
 70
0
 10
493.675770366
 20
108.1319529152
 10
493.6474737224
 20
108.156601808
 10
493.6167177287
 20
108.1784643351
 10
493.5835023849
 20
108.197540486
 10
493.5477736122
 20
108.2138975291
 10
493.5095854894
 20
108.2274681793
 10
493.469100253
 20
108.2380505979
 10
493.4263719818
 20
108.245577502
 10
493.3813465969
 20
108.2501161653
 10
493.3340240984
 20
108.2516665855
  0
LINE
  5
32C
100
AcDbEntity
  8
0
100
AcDbLine
 62
7
  6
CONTINUOUS
 10
470.0502971916
 20
131.8075868898
 11
470.0123567148
 21
131.8455273667
  0
LWPOLYLINE
  5
32D
100
AcDbEntity
  8
0
100
AcDbPolyline
 62
7
  6
CONTINUOUS
 90
10
 70
0
 10
491.9629463588
 20
106.9399338288
 10
491.9455468465
 20
106.9576609717
 10
491.9295388132
 20
106.9773672911
 10
491.9149222589
 20
106.9990527942
 10
491.9017317353
 20
107.0228904404
 10
491.8899326907
 20
107.0487072872
 10
491.87942147
 20
107.075984488
 10
491.8701635214
 20
107.1045490977
 10
491.8621933968
 20
107.1345740755
 10
491.855511096
 20
107.1660594293
  0
LWPOLYLINE
  5
32E
100
AcDbEntity
  8
0
100
AcDbPolyline
 62
7
  6
CONTINUOUS
 90
10
 70
0
 10
492.3215781602
 20
108.0332121808
 10
492.3361270608
 20
108.0177286634
 10
492.3489458393
 20
108.0015018785
 10
492.3600344957
 20
107.9845318282
 10
492.3693779598
 20
107.9668622218
 10
492.3769913018
 20
107.9484493543
 10
492.3829197321
 20
107.9291621071
 10
492.3871783206
 20
107.9089567763
 10
492.3897519974
 20
107.8878770719
 10
492.3906407623
 20
107.8659229973
  0
LWPOLYLINE
  5
32F
100
AcDbEntity
  8
0
100
AcDbPolyline
 62
7
  6
CONTINUOUS
 90
10
 70
0
 10
492.3752928047
 20
107.3932081112
 10
492.3927284519
 20
107.374150834
 10
492.4080914752
 20
107.354115094
 10
492.4213818746
 20
107.3331008949
 10
492.432578461
 20
107.3111819953
 10
492.4417024235
 20
107.288284644
 10
492.4488173295
 20
107.2641875805
 10
492.4539443679
 20
107.2388170552
 10
492.4570623498
 20
107.2122468287
 10
492.4581712751
 20
107.1844769069
  0
LWPOLYLINE
  5
330
100
AcDbEntity
  8
0
100
AcDbPolyline
 62
7
  6
CONTINUOUS
 90
10
 70
0
 10
492.5799312919
 20
107.4300429802
 10
492.5633221322
 20
107.4502385071
 10
492.5451556509
 20
107.4689610126
 10
492.525431848
 20
107.486210492
 10
492.5041929021
 20
107.5020177362
 10
492.4813966346
 20
107.5163519455
 10
492.45691651
 20
107.5291207288
 10
492.4307103498
 20
107.5402932869
 10
492.4028203325
 20
107.5499004122
 10
492.373246458
 20
107.5579421022
  0
LINE
  5
331
100
AcDbEntity
  8
0
100
AcDbLine
 62
7
  6
CONTINUOUS
 10
491.0133423796
 20
104.1356773667
 11
491.6522933796
 21
103.1205273667
  0
LINE
  5
332
100
AcDbEntity
  8
0
100
AcDbLine
 62
7
  6
CONTINUOUS
 10
491.6784153796
 20
103.3551723667
 11
491.0498773796
 21
104.3705273667
  0
LINE
  5
333
100
AcDbEntity
  8
0
100
AcDbLine
 62
7
  6
CONTINUOUS
 10
487.3084393796
 20
103.1205273667
 11
486.8558113796
 21
104.3705273667
  0
LINE
  5
334
100
AcDbEntity
  8
0
100
AcDbLine
 62
7
  6
CONTINUOUS
 10
487.0002813796
 20
103.4843563667
 11
487.1238763796
 21
103.1205273667
  0
LINE
  5
335
100
AcDbEntity
  8
0
100
AcDbLine
 62
7
  6
CONTINUOUS
 10
486.7531633796
 20
104.1892163667
 11
486.9393943796
 21
103.6340733667
  0
LINE
  5
336
100
AcDbEntity
  8
0
100
AcDbLine
 62
250
  6
CONTINUOUS
 10
478.2105499703
 20
131.9493301363
 11
478.2073550552
 21
131.9589226761
  0
LINE
  5
337
100
AcDbEntity
  8
0
100
AcDbLine
 62
250
  6
CONTINUOUS
 10
478.4094673796
 20
132.1522149992
 11
478.4073245942
 21
132.1586485831
  0
LINE
  5
338
100
AcDbEntity
  8
0
100
AcDbLine
 62
7
  6
CONTINUOUS
 10
484.8466863796
 20
104.3705273667
 11
484.8466863796
 21
103.1205273667
  0
LINE
  5
339
100
AcDbEntity
  8
0
100
AcDbLine
 62
7
  6
CONTINUOUS
 10
485.0103283796
 20
103.1205273667
 11
485.0103283796
 21
104.1686473667
  0
LINE
  5
33A
100
AcDbEntity
  8
0
100
AcDbLine
 62
7
  6
CONTINUOUS
 10
485.0594673796
 20
104.9455273667
 11
485.0594673796
 21
105.7455273667
  0
LINE
  5
33B
100
AcDbEntity
  8
0
100
AcDbLine
 62
7
  6
CONTINUOUS
 10
485.0594673796
 20
138.7455273667
 11
485.0594673796
 21
139.5455273667
  0
LINE
  5
33C
100
AcDbEntity
  8
0
100
AcDbLine
 62
7
  6
CONTINUOUS
 10
488.5048563796
 20
141.7268793667
 11
488.1316483796
 21
140.4191563667
  0
LINE
  5
33D
100
AcDbEntity
  8
0
100
AcDbLine
 62
7
  6
CONTINUOUS
 10
488.2904713796
 20
139.8270333667
 11
488.9011573796
 21
141.7268793667
  0
LINE
  5
33E
100
AcDbEntity
  8
0
100
AcDbLine
 62
7
  6
CONTINUOUS
 10
490.3240063796
 20
138.1955273667
 11
489.6371663796
 21
136.2955273667
  0
LINE
  5
33F
100
AcDbEntity
  8
0
100
AcDbLine
 62
7
  6
CONTINUOUS
 10
491.0151313796
 20
141.7268793667
 11
490.6185593796
 21
140.6720793667
  0
LINE
  5
340
100
AcDbEntity
  8
0
100
AcDbLine
 62
7
  6
CONTINUOUS
 10
490.6442033796
 20
139.8270333667
 11
491.1157283796
 21
141.0624253667
  0
LWPOLYLINE
  5
341
100
AcDbEntity
  8
0
100
AcDbPolyline
 62
7
  6
CONTINUOUS
 90
25
 70
0
 10
477.8655792486
 20
108.7973852311
 10
477.846041887
 20
108.7537788681
 10
477.8225557202
 20
108.7134510207
 10
477.7951207484
 20
108.6764016678
 10
477.7633100763
 20
108.6422619219
 10
477.7275505991
 20
108.611400634
 10
477.6891230027
 20
108.5849243869
 10
477.6479296057
 20
108.5629919119
 10
477.6040680896
 20
108.5454444423
 10
477.5591121842
 20
108.5329123116
 10
477.5130229572
 20
108.5255777327
 10
477.465839341
 20
108.5232584761
 10
477.4192518628
 20
108.5260382158
 10
477.3732815104
 20
108.5341018168
 10
477.327907296
 20
108.5472644235
 10
477.2847567833
 20
108.5650551351
 10
477.243910465
 20
108.5876421562
 10
477.2052878484
 20
108.6148573135
 10
477.1702750192
 20
108.6457251389
 10
477.1390011058
 20
108.6803930814
 10
477.1113369797
 20
108.7187137316
 10
477.0882813414
 20
108.7592693241
 10
477.0701670912
 20
108.8015872761
 10
477.0566613288
 20
108.8461401978
 10
477.0477640542
 20
108.892928105
  0
LINE
  5
342
100
AcDbEntity
  8
0
100
AcDbLine
 62
7
  6
CONTINUOUS
 10
497.0594673796
 20
138.7455273667
 11
497.0389124533
 21
138.7249724404
  0
LWPOLYLINE
  5
343
100
AcDbEntity
  8
0
100
AcDbPolyline
 62
250
  6
CONTINUOUS
 90
13
 70
0
 10
504.7254905312
 20
108.9724031614
 10
504.7231782312
 20
108.9734626529
 10
504.719266919
 20
108.9744721982
 10
504.7137565944
 20
108.9754317974
 10
504.706404505
 20
108.9763498957
 10
504.6974534033
 20
108.9772180478
 10
504.6876315473
 20
108.9780109183
 10
504.6770100366
 20
108.9787178879
 10
504.6655177716
 20
108.9793495758
 10
504.6536697114
 20
108.9799125042
 10
504.6416781256
 20
108.9804031496
 10
504.6293307446
 20
108.9808250355
 10
504.603292679
 20
108.9815206043
  0
LINE
  5
344
100
AcDbEntity
  8
0
100
AcDbLine
 62
7
  6
CONTINUOUS
 10
497.0594673796
 20
105.7455273667
 11
497.0389124533
 21
105.7660822929
  0
LWPOLYLINE
  5
345
100
AcDbEntity
  8
0
100
AcDbPolyline
 62
7
  6
CONTINUOUS
 90
10
 70
0
 10
493.5335465379
 20
108.0234947069
 10
493.5501593666
 20
108.0061131358
 10
493.5647909315
 20
107.9879983719
 10
493.5774412326
 20
107.9691504176
 10
493.5880882052
 20
107.9496191198
 10
493.596753914
 20
107.9293546365
 10
493.6035045536
 20
107.908207437
 10
493.6083621888
 20
107.8861276806
 10
493.6113047548
 20
107.8631652149
 10
493.6123322515
 20
107.8393200436
  0
LWPOLYLINE
  5
346
100
AcDbEntity
  8
0
100
AcDbPolyline
 62
7
  6
CONTINUOUS
 90
10
 70
0
 10
492.5244526642
 20
108.0550760451
 10
492.511695199
 20
108.0747645173
 10
492.4977938457
 20
108.0934924073
 10
492.4827486044
 20
108.1112597118
 10
492.4666132287
 20
108.1280455524
 10
492.449333965
 20
108.1438708019
 10
492.4307495519
 20
108.1587980844
 10
492.4108062357
 20
108.1728482733
 10
492.3895577701
 20
108.1860004909
 10
492.3670041553
 20
108.198254735
  0
LWPOLYLINE
  5
347
100
AcDbEntity
  8
RACCORDO
100
AcDbPolyline
 62
250
  6
CONTINUOUS
 90
73
 70
0
 10
485.8677249491
 20
122.2455273667
 10
485.8726500275
 20
122.0190320498
 10
485.8873843222
 20
121.7935546314
 10
485.9119278331
 20
121.5690951568
 10
485.9463680489
 20
121.3451314312
 10
485.9906174809
 20
121.122185737
 10
486.0444136635
 20
120.9018248298
 10
486.1078039154
 20
120.6841755657
 10
486.1807409178
 20
120.4691111545
 10
486.2628202491
 20
120.257817868
 10
486.3541015963
 20
120.0502957232
 10
486.4545252724
 20
119.8465447391
 10
486.5635077936
 20
119.647751173
 10
486.6810942791
 20
119.4539535639
 10
486.8072396098
 20
119.2651133726
 10
486.9412249456
 20
119.082301219
 10
487.0830964363
 20
118.9055493064
 10
487.232807932
 20
118.7348253955
 10
487.3895021428
 20
118.5711034236
 10
487.5532182979
 20
118.4144243003
 10
487.723917168
 20
118.2647470495
 10
487.9006237754
 20
118.1229227643
 10
488.0833722538
 20
117.9889963461
 10
488.2721284695
 20
117.8629228067
 10
488.4658150432
 20
117.7454183925
 10
488.6644595629
 20
117.6365321734
 10
488.8680344406
 20
117.5362149858
 10
489.0753795323
 20
117.4450357194
 10
489.2865160349
 20
117.3630463833
 10
489.5014227514
 20
117.2901948819
 10
489.7188759473
 20
117.2268939486
 10
489.9388898244
 20
117.1731978472
 10
490.1614501809
 20
117.1290522477
 10
490.385290676
 20
117.0947069981
 10
490.6104182565
 20
117.0702176801
 10
490.8368259757
 20
117.0555286763
 10
491.0632266526
 20
117.0507230435
 10
491.2896203629
 20
117.0558567791
 10
491.516007031
 20
117.0708738861
 10
491.7410992495
 20
117.0956894386
 10
491.9648898129
 20
117.1303590357
 10
492.1873859267
 20
117.1748271143
 10
492.4073217996
 20
117.2288420135
 10
492.6246832114
 20
117.2924580394
 10
492.8394843822
 20
117.3656209522
 10
493.0505021811
 20
117.4479162759
 10
493.2577153959
 20
117.5393961155
 10
493.4611452387
 20
117.6400084528
 10
493.6596322159
 20
117.7491826265
 10
493.8531485182
 20
117.8669676583
 10
494.0417219549
 20
117.9933146203
 10
494.2242764591
 20
118.1275059208
 10
494.4007782087
 20
118.2695868907
 10
494.571261026
 20
118.4195122857
 10
494.734750311
 20
118.57642864
 10
494.8912052673
 20
118.7403747022
 10
495.0406666914
 20
118.9113117898
 10
495.1822823733
 20
119.088270274
 10
495.3160123816
 20
119.2712944782
 10
495.4418966478
 20
119.4603401148
 10
495.5592027555
 20
119.654304619
 10
495.667871582
 20
119.8531973163
 10
495.7679622502
 20
120.0570088806
 10
495.8589197126
 20
120.2646087516
 10
495.9407103722
 20
120.4761142542
 10
496.013367826
 20
120.6914080277
 10
496.076437818
 20
120.9090074639
 10
496.1298208833
 20
121.1289564238
 10
496.1736164868
 20
121.3512109784
 10
496.2076687674
 20
121.5741568207
 10
496.2319257713
 20
121.7972558175
 10
496.2464394522
 20
122.0210460143
 10
496.2512098101
 20
122.2455273667
  0
LINE
  5
348
100
AcDbEntity
  8
0
100
AcDbLine
 62
7
  6
CONTINUOUS
 10
485.8808013796
 20
104.1703653667
 11
485.8808013796
 21
103.1205273667
  0
LINE
  5
349
100
AcDbEntity
  8
0
100
AcDbLine
 62
7
  6
CONTINUOUS
 10
486.0445093796
 20
103.1205273667
 11
486.0445093796
 21
104.3705273667
  0
LINE
  5
34A
100
AcDbEntity
  8
0
100
AcDbLine
 62
7
  6
CONTINUOUS
 10
486.7028293796
 20
138.1955273667
 11
486.7028293796
 21
136.2955273667
  0
LINE
  5
34B
100
AcDbEntity
  8
0
100
AcDbLine
 62
7
  6
CONTINUOUS
 10
487.1107433796
 20
136.2955273667
 11
487.1107433796
 21
137.0271983667
  0
LINE
  5
34C
100
AcDbEntity
  8
0
100
AcDbLine
 62
7
  6
CONTINUOUS
 10
487.1107433796
 20
137.3429473667
 11
487.1107433796
 21
137.8797783667
  0
LWPOLYLINE
  5
34D
100
AcDbEntity
  8
RACCORDO
100
AcDbPolyline
 62
250
  6
CONTINUOUS
 90
103
 70
0
 10
485.5106535277
 20
122.2455273667
 10
485.5135076477
 20
122.4233589896
 10
485.521872418
 20
122.5981605951
 10
485.535462901
 20
122.769746616
 10
485.5539028397
 20
122.937179091
 10
485.5769672735
 20
123.1010904755
 10
485.6048024635
 20
123.2636637109
 10
485.6374615268
 20
123.4253759846
 10
485.6747703318
 20
123.5854860955
 10
485.716777815
 20
123.7443215433
 10
485.7634313959
 20
123.9017241357
 10
485.8146826751
 20
124.0575828202
 10
485.8706696324
 20
124.2122717226
 10
485.9314511103
 20
124.3658045889
 10
485.9969552118
 20
124.5178593928
 10
486.0671587956
 20
124.6682932609
 10
486.1420358631
 20
124.8169625364
 10
486.2215533084
 20
124.9637086233
 10
486.3056717448
 20
125.1083651624
 10
486.394357402
 20
125.2507978804
 10
486.487549379
 20
125.390841824
 10
486.585152798
 20
125.5282892889
 10
486.6871317152
 20
125.6630218895
 10
486.7933977083
 20
125.794862262
 10
486.9037503624
 20
125.9235310196
 10
487.0180971802
 20
126.048898111
 10
487.1363459791
 20
126.1708337672
 10
487.2582669034
 20
126.289083723
 10
487.3837031766
 20
126.4035068886
 10
487.5125715207
 20
126.5140355059
 10
487.6447298649
 20
126.6205477529
 10
487.7800367465
 20
126.7229285237
 10
487.9183803942
 20
126.8211021647
 10
488.0596631606
 20
126.915006188
 10
488.2037633893
 20
127.0045577318
 10
488.350539867
 20
127.0896617917
 10
488.499863454
 20
127.1702419773
 10
488.6515979069
 20
127.2462287891
 10
488.8055964292
 20
127.3175478141
 10
488.9617089451
 20
127.3841240026
 10
489.1197891724
 20
127.4458911143
 10
489.2796893314
 20
127.5027965392
 10
489.4412562149
 20
127.5547876033
 10
489.6043374352
 20
127.6018122918
 10
489.7687838481
 20
127.6438223264
 10
489.9344438302
 20
127.6807825962
 10
490.1011618568
 20
127.7126614761
 10
490.2687818152
 20
127.7394272333
 10
490.4371499749
 20
127.7610492798
 10
490.6061103856
 20
127.7775081793
 10
490.7755028639
 20
127.7887923014
 10
490.9451662797
 20
127.794890346
 10
491.1149413509
 20
127.7957914457
 10
491.2846698319
 20
127.7914927177
 10
491.4541920846
 20
127.7820030904
 10
491.6233486502
 20
127.7673325181
 10
491.7919812874
 20
127.7474908834
 10
491.9599326892
 20
127.7224921725
 10
492.1270465847
 20
127.6923640443
 10
492.2931663817
 20
127.6571370413
 10
492.4581358402
 20
127.6168416845
 10
492.6217989225
 20
127.5715101887
 10
492.7840032894
 20
127.5211873445
 10
492.9445985029
 20
127.4659236374
 10
493.1034336161
 20
127.4057696566
 10
493.2603577044
 20
127.3407764934
 10
493.4152241136
 20
127.2710045238
 10
493.5678906813
 20
127.1965227018
 10
493.7182131126
 20
127.1174014237
 10
493.8660453576
 20
127.0337124148
 10
494.01124722
 20
126.9455316412
 10
494.1536856419
 20
126.8529458332
 10
494.2932262628
 20
126.7560445921
 10
494.4297315147
 20
126.6549201987
 10
494.5630759642
 20
126.5496599804
 10
494.6931501295
 20
126.440354847
 10
494.8198370208
 20
126.3271050629
 10
494.9430116079
 20
126.2100178468
 10
495.0625543971
 20
126.0891972477
 10
495.1783665545
 20
125.9647421307
 10
495.2903275763
 20
125.8367848722
 10
495.3982952062
 20
125.7054892539
 10
495.5021885741
 20
125.5709489447
 10
495.6018891586
 20
125.4333188622
 10
495.6972203075
 20
125.292871094
 10
495.788117019
 20
125.1497355883
 10
495.8744984913
 20
125.0040662908
 10
495.9561987439
 20
124.8561912276
 10
496.0331652009
 20
124.7062964779
 10
496.1053785244
 20
124.5545103102
 10
496.1727604656
 20
124.4010910227
 10
496.2350006169
 20
124.2469405109
 10
496.2924219037
 20
124.0914899756
 10
496.3457155864
 20
123.9327215172
 10
496.3945717966
 20
123.7711160574
 10
496.4389204747
 20
123.6063985728
 10
496.4793110417
 20
123.4352750663
 10
496.515253772
 20
123.2576339326
 10
496.5461666941
 20
123.0737179549
 10
496.5718302944
 20
122.8806722687
 10
496.5914318627
 20
122.6776373066
 10
496.6039022883
 20
122.465821761
 10
496.6082812315
 20
122.2455273667
  0
LWPOLYLINE
  5
34E
100
AcDbEntity
  8
RACCORDO
100
AcDbPolyline
 62
250
  6
CONTINUOUS
 90
103
 70
0
 10
485.1535821063
 20
122.2455273287
 10
485.1571168403
 20
122.4350168073
 10
485.1659179987
 20
122.6209269868
 10
485.1799855814
 20
122.8032578437
 10
485.1993944052
 20
122.9813390209
 10
485.2240696533
 20
123.1558408374
 10
485.2537868752
 20
123.3287742838
 10
485.2884998383
 20
123.5007883532
 10
485.3282547751
 20
123.6712340173
 10
485.3729659329
 20
123.8401752321
 10
485.4225773041
 20
124.0076009223
 10
485.4771448963
 20
124.1735221347
 10
485.5367509795
 20
124.3380360098
 10
485.6014459244
 20
124.5013344486
 10
485.6711793604
 20
124.6632255258
 10
485.7458824461
 20
124.8232306458
 10
485.8255741716
 20
124.9813560526
 10
485.9102355469
 20
125.1375954884
 10
485.9997407603
 20
125.2914516116
 10
486.0941201196
 20
125.4429362359
 10
486.193343317
 20
125.5920375457
 10
486.2971936177
 20
125.7382227622
 10
486.405725054
 20
125.8815121105
 10
486.5188835935
 20
126.0218853766
 10
486.6362904044
 20
126.1587491321
 10
486.7579763694
 20
126.292079444
 10
486.8839106058
 20
126.4219002703
 10
487.0136216344
 20
126.5476900266
 10
487.1470886277
 20
126.6693891718
 10
487.2843324132
 20
126.7870572838
 10
487.4249439944
 20
126.9003514639
 10
487.568913177
 20
127.0092448889
 10
487.7162501554
 20
127.1137644257
 10
487.8665765158
 20
127.2136477144
 10
488.0199095801
 20
127.3088917329
 10
488.1762320265
 20
127.3994995501
 10
488.3351134757
 20
127.485217945
 10
488.4965658201
 20
127.5660358671
 10
488.6605771674
 20
127.6419644138
 10
488.826681461
 20
127.7127835873
 10
488.9948826308
 20
127.7784770326
 10
489.1651767469
 20
127.8390611483
 10
489.3370859628
 20
127.8943650673
 10
489.5106142079
 20
127.9443738996
 10
489.6857575528
 20
127.989102572
 10
489.8620263621
 20
128.0284249409
 10
490.0394237976
 20
128.0623264114
 10
490.2179466975
 20
128.0908216056
 10
490.3970959413
 20
128.1138282039
 10
490.5768735479
 20
128.1313306332
 10
490.7572774984
 20
128.1433444822
 10
490.9378026149
 20
128.1498341714
 10
491.1184502941
 20
128.1507838281
 10
491.2992191393
 20
128.1462093279
 10
491.4795997827
 20
128.1361227101
 10
491.6595908181
 20
128.1205087233
 10
491.8391936516
 20
128.0993826089
 10
492.0179031344
 20
128.0728021414
 10
492.1957157157
 20
128.0407522967
 10
492.3726349463
 20
128.0032480767
 10
492.5481663296
 20
127.9603922924
 10
492.7223064351
 20
127.9121694196
 10
492.8950586933
 20
127.8585949495
 10
493.0659388988
 20
127.799818215
 10
493.2349427774
 20
127.7358244853
 10
493.4020746033
 20
127.66662845
 10
493.5668629926
 20
127.5924235725
 10
493.7293019029
 20
127.5131955097
 10
493.8893973766
 20
127.4289585585
 10
494.0466961582
 20
127.3399491429
 10
494.201188979
 20
127.2461538271
 10
494.3528851077
 20
127.1475859993
 10
494.501359094
 20
127.0445223221
 10
494.6465983575
 20
126.9369539262
 10
494.7886154787
 20
126.8248896355
 10
494.9270227496
 20
126.7086326555
 10
495.06181513
 20
126.5881686148
 10
495.1929976601
 20
126.4635118448
 10
495.3201977518
 20
126.3350086103
 10
495.4434146574
 20
126.2026317608
 10
495.5626491245
 20
126.0664084152
 10
495.6775308083
 20
125.9267662489
 10
495.7880600159
 20
125.7836564768
 10
495.8942364401
 20
125.6371278636
 10
495.9956888145
 20
125.4877544186
 10
496.0923910399
 20
125.335504527
 10
496.1843692154
 20
125.1804097974
 10
496.271330372
 20
125.0231390829
 10
496.3532233695
 20
124.8637129846
 10
496.4300993482
 20
124.7021109103
 10
496.5018187589
 20
124.5389399316
 10
496.5681676933
 20
124.3750255847
 10
496.6293600598
 20
124.2095423568
 10
496.6858980347
 20
124.0406207425
 10
496.7380167485
 20
123.8687439128
 10
496.7854810707
 20
123.6934287124
 10
496.8280877853
 20
123.511356131
 10
496.8663602363
 20
123.3223402284
 10
496.8997750799
 20
123.1265669578
 10
496.926559068
 20
122.9212751385
 10
496.9461211183
 20
122.7055443881
 10
496.9590523133
 20
122.4802951311
 10
496.9653526529
 20
122.2455274046
  0
LINE
  5
34F
100
AcDbEntity
  8
0
100
AcDbLine
 62
7
  6
CONTINUOUS
 10
492.0397003796
 20
139.8270333667
 11
492.1491293796
 21
140.2063103667
  0
LINE
  5
350
100
AcDbEntity
  8
0
100
AcDbLine
 62
7
  6
CONTINUOUS
 10
492.2433433796
 20
141.7268793667
 11
491.6474303796
 21
139.8270333667
  0
LINE
  5
351
100
AcDbEntity
  8
0
100
AcDbLine
 62
7
  6
CONTINUOUS
 10
490.2739553796
 20
137.0139703667
 11
490.5556893796
 21
137.8324573667
  0
LINE
  5
352
100
AcDbEntity
  8
0
100
AcDbLine
 62
7
  6
CONTINUOUS
 10
490.0266333796
 20
136.2955273667
 11
490.1687053796
 21
136.6982213667
  0
LINE
  5
353
100
AcDbEntity
  8
0
100
AcDbLine
 62
7
  6
CONTINUOUS
 10
505.1040302077
 20
132.66893523
 11
505.052092233
 21
132.6516366394
  0
LINE
  5
354
100
AcDbEntity
  8
0
100
AcDbLine
 62
7
  6
CONTINUOUS
 10
505.1040302077
 20
111.8221195033
 11
505.052092233
 21
111.8394180939
  0
LWPOLYLINE
  5
355
100
AcDbEntity
  8
0
100
AcDbPolyline
 62
250
  6
CONTINUOUS
 90
11
 70
0
 10
512.2471322948
 20
107.2833330971
 10
512.2129035385
 20
107.2993737394
 10
512.1808413028
 20
107.3141479313
 10
512.1508278664
 20
107.3277157916
 10
512.1220909027
 20
107.3401289707
 10
512.0945903415
 20
107.3515789288
 10
512.0688156954
 20
107.3618742057
 10
512.0449359643
 20
107.3704920704
 10
512.0231574512
 20
107.3772582795
 10
512.0037093576
 20
107.3823470764
 10
511.9868002119
 20
107.3857584613
  0
LWPOLYLINE
  5
356
100
AcDbEntity
  8
0
100
AcDbPolyline
 62
250
  6
CONTINUOUS
 90
4
 70
0
 10
512.4469001201
 20
107.1864506854
 10
512.4035158859
 20
107.2079652566
 10
512.3615835251
 20
107.2284022029
 10
512.2471322948
 20
107.2833330971
  0
LINE
  5
357
100
AcDbEntity
  8
0
100
AcDbLine
 62
7
  6
CONTINUOUS
 10
496.1597333796
 20
104.3705273667
 11
496.6315293796
 21
103.6236613667
  0
LINE
  5
358
100
AcDbEntity
  8
0
100
AcDbLine
 62
7
  6
CONTINUOUS
 10
496.7151323796
 20
103.7698403667
 11
496.3564583796
 21
104.3705273667
  0
LWPOLYLINE
  5
359
100
AcDbEntity
  8
0
100
AcDbPolyline
 62
7
  6
CONTINUOUS
 90
33
 70
0
 10
488.5038817755
 20
103.7871760168
 10
488.5022274525
 20
103.8271187133
 10
488.4989442363
 20
103.8653554409
 10
488.4938858477
 20
103.9018874552
 10
488.4871985659
 20
103.9367134718
 10
488.479321228
 20
103.9698296661
 10
488.470259268
 20
104.0011486018
 10
488.4600072521
 20
104.0307576902
 10
488.4489877157
 20
104.0589153807
 10
488.4374244979
 20
104.0856811292
 10
488.4250937596
 20
104.1109954624
 10
488.4117465194
 20
104.1349384392
 10
488.3971772564
 20
104.1574701239
 10
488.3815914914
 20
104.1786304379
 10
488.3653568055
 20
104.1986192284
 10
488.3485517908
 20
104.2174654924
 10
488.3310978551
 20
104.235140223
 10
488.313126803
 20
104.2517562626
 10
488.2947409969
 20
104.2673776739
 10
488.2758380744
 20
104.281940387
 10
488.2562427533
 20
104.2953650459
 10
488.2358362106
 20
104.3076176501
 10
488.2147372692
 20
104.3187321938
 10
488.1931271149
 20
104.3287313128
 10
488.1709869326
 20
104.3376047254
 10
488.1483355374
 20
104.3453627088
 10
488.1254105599
 20
104.3520587382
 10
488.1022377797
 20
104.3576926155
 10
488.0787914172
 20
104.362264536
 10
488.0552317648
 20
104.3658285653
 10
488.0316122533
 20
104.368402725
 10
488.0078794518
 20
104.3699689922
 10
487.9840333604
 20
104.3705273667
  0
LWPOLYLINE
  5
35A
100
AcDbEntity
  8
0
100
AcDbPolyline
 62
7
  6
CONTINUOUS
 90
37
 70
0
 10
488.0660709408
 20
137.6113630977
 10
488.0656791449
 20
137.6431512241
 10
488.0640187097
 20
137.6746169371
 10
488.0610896351
 20
137.7057602383
 10
488.0569899885
 20
137.7366464902
 10
488.0516217026
 20
137.7672103337
 10
488.0446905755
 20
137.7972556896
 10
488.0361283775
 20
137.8268582145
 10
488.0260033382
 20
137.8559422572
 10
488.0142259452
 20
137.8840847805
 10
488.0007720153
 20
137.911259722
 10
487.9856657316
 20
137.9374931539
 10
487.9688901307
 20
137.9624402441
 10
487.9503191432
 20
137.9860508057
 10
487.9300788384
 20
138.0083750374
 10
487.9085304605
 20
138.0292186878
 10
487.8856666242
 20
138.0485081468
 10
487.8614947147
 20
138.066317036
 10
487.836398132
 20
138.0826719506
 10
487.8103349712
 20
138.097527127
 10
487.7833471372
 20
138.1109283376
 10
487.7559437444
 20
138.1230394803
 10
487.7282587862
 20
138.1338055427
 10
487.7001582693
 20
138.1432815431
 10
487.671749328
 20
138.1517964234
 10
487.6431429662
 20
138.1594048508
 10
487.61422818
 20
138.1660521611
 10
487.5847790912
 20
138.1719032984
 10
487.5548154243
 20
138.1769763885
 10
487.5243174549
 20
138.1812533073
 10
487.4930001319
 20
138.184844623
 10
487.460881875
 20
138.1876645492
 10
487.4279442644
 20
138.1897988733
 10
487.3938469903
 20
138.1916155241
 10
487.3584766161
 20
138.1932371447
 10
487.3219465783
 20
138.1945410921
 10
487.284256877
 20
138.1955273667
  0
LINE
  5
35B
100
AcDbEntity
  8
0
100
AcDbLine
 62
7
  6
CONTINUOUS
 10
487.4720773796
 20
104.3705273667
 11
487.4720773796
 21
103.1205273667
  0
LINE
  5
35C
100
AcDbEntity
  8
0
100
AcDbLine
 62
7
  6
CONTINUOUS
 10
487.6410013796
 20
103.2649873667
 11
487.6410013796
 21
104.2260673667
  0
LINE
  5
35D
100
AcDbEntity
  8
0
100
AcDbLine
 62
7
  6
CONTINUOUS
 10
488.3152655183
 20
107.8751317361
 11
488.3152655183
 21
107.6970962682
  0
LINE
  5
35E
100
AcDbEntity
  8
0
100
AcDbLine
 62
7
  6
CONTINUOUS
 10
488.3213303796
 20
138.1955273667
 11
488.3213303796
 21
136.2955273667
  0
LINE
  5
35F
100
AcDbEntity
  8
0
100
AcDbLine
 62
7
  6
CONTINUOUS
 10
488.6836147575
 20
107.919128994
 11
488.6836147575
 21
106.7455273667
  0
LINE
  5
360
100
AcDbEntity
  8
0
100
AcDbLine
 62
7
  6
CONTINUOUS
 10
488.7292443796
 20
136.6112763667
 11
488.7292443796
 21
138.1955273667
  0
LINE
  5
361
100
AcDbEntity
  8
0
100
AcDbLine
 62
7
  6
CONTINUOUS
 10
488.7377963796
 20
104.3705273667
 11
488.7377963796
 21
103.1205273667
  0
LINE
  5
362
100
AcDbEntity
  8
0
100
AcDbLine
 62
7
  6
CONTINUOUS
 10
488.8677893548
 20
106.7455273667
 11
488.8677893548
 21
108.2516665855
  0
LINE
  5
363
100
AcDbEntity
  8
0
100
AcDbLine
 62
7
  6
CONTINUOUS
 10
488.9067113796
 20
103.2702443667
 11
488.9067113796
 21
103.6880563667
  0
LINE
  5
364
100
AcDbEntity
  8
0
100
AcDbLine
 62
7
  6
CONTINUOUS
 10
488.9067113796
 20
103.8377733667
 11
488.9067113796
 21
104.2208103667
  0
LINE
  5
365
100
AcDbEntity
  8
0
100
AcDbLine
 62
7
  6
CONTINUOUS
 10
489.0483263796
 20
141.7269933667
 11
489.0483263796
 21
139.8270333667
  0
LWPOLYLINE
  5
366
100
AcDbEntity
  8
0
100
AcDbPolyline
 62
7
  6
CONTINUOUS
 90
21
 70
0
 10
487.6317987025
 20
137.631714135
 10
487.6318069381
 20
137.5909362722
 10
487.6306645991
 20
137.5709093787
 10
487.6284173245
 20
137.5512824188
 10
487.6251143723
 20
137.531998767
 10
487.6207064847
 20
137.5131150516
 10
487.6150458878
 20
137.4948011552
 10
487.6080753825
 20
137.4769830082
 10
487.599852168
 20
137.459734684
 10
487.5904000682
 20
137.4434482819
 10
487.57971536
 20
137.4280462641
 10
487.5678017666
 20
137.413606174
 10
487.5546942811
 20
137.4007527355
 10
487.540219807
 20
137.3897512391
 10
487.5245514408
 20
137.3803364018
 10
487.5082434651
 20
137.3723370877
 10
487.4913082854
 20
137.365878154
 10
487.4737334962
 20
137.3608347474
 10
487.4560361637
 20
137.3566611658
 10
487.4383739235
 20
137.3533920735
 10
487.42058914
 20
137.3509928073
  0
LWPOLYLINE
  5
367
100
AcDbEntity
  8
0
100
AcDbPolyline
 62
7
  6
CONTINUOUS
 90
25
 70
0
 10
488.3301492269
 20
103.7455273667
 10
488.3300477059
 20
103.7135593921
 10
488.3287804163
 20
103.6823784595
 10
488.3263473583
 20
103.6519845637
 10
488.3227132993
 20
103.622418622
 10
488.3179134718
 20
103.5936397064
 10
488.3120535734
 20
103.5655250443
 10
488.3053358794
 20
103.5379556433
 10
488.2975581145
 20
103.5110504881
 10
488.28821915
 20
103.4850437711
 10
488.2771909862
 20
103.4599026498
 10
488.2646016228
 20
103.4356599565
 10
488.2503339311
 20
103.4126483929
 10
488.234297283
 20
103.3908432663
 10
488.2165823065
 20
103.370269257
 10
488.1973437572
 20
103.3513331237
 10
488.1764602064
 20
103.3340597197
 10
488.1540530829
 20
103.3184241781
 10
488.1306414284
 20
103.304758675
 10
488.1062390049
 20
103.2931670119
 10
488.0808320506
 20
103.2835453757
 10
488.0548983209
 20
103.2759145203
 10
488.0285970678
 20
103.2702813616
 10
488.0017690395
 20
103.2666389776
 10
487.9744142358
 20
103.2649873667
  0
LINE
  5
368
100
AcDbEntity
  8
0
100
AcDbLine
 62
7
  6
CONTINUOUS
 10
490.0377763796
 20
139.8270333667
 11
490.1233573796
 21
141.0675973667
  0
LINE
  5
369
100
AcDbEntity
  8
0
100
AcDbLine
 62
7
  6
CONTINUOUS
 10
489.8299313796
 20
141.7268793667
 11
489.6583863796
 21
139.8270333667
  0
LINE
  5
36A
100
AcDbEntity
  8
0
100
AcDbLine
 62
7
  6
CONTINUOUS
 10
492.2302503796
 20
140.4997933667
 11
492.4277103796
 21
141.2048503667
  0
LINE
  5
36B
100
AcDbEntity
  8
0
100
AcDbLine
 62
7
  6
CONTINUOUS
 10
494.2213923796
 20
137.0139703667
 11
494.5030893796
 21
137.8323503667
  0
LINE
  5
36C
100
AcDbEntity
  8
0
100
AcDbLine
 62
7
  6
CONTINUOUS
 10
493.9739983796
 20
136.2955273667
 11
494.1161423796
 21
136.6982213667
  0
LINE
  5
36D
100
AcDbEntity
  8
0
100
AcDbLine
 62
7
  6
CONTINUOUS
 10
494.2714433796
 20
138.1955273667
 11
493.5845313796
 21
136.2955273667
  0
LWPOLYLINE
  5
36E
100
AcDbEntity
  8
0
100
AcDbPolyline
 62
250
  6
CONTINUOUS
 90
16
 70
0
 10
477.5456608346
 20
108.8961138965
 10
477.5386836204
 20
108.886047996
 10
477.5303416698
 20
108.8770242841
 10
477.5207982279
 20
108.8692327617
 10
477.5102359045
 20
108.8628540574
 10
477.4988793715
 20
108.8580062038
 10
477.4869671416
 20
108.8547331509
 10
477.4747190195
 20
108.8530780114
 10
477.4623573485
 20
108.8530906826
 10
477.4501133653
 20
108.854770911
 10
477.4382034459
 20
108.858070377
 10
477.4268537693
 20
108.8629444376
 10
477.416318058
 20
108.8693371388
 10
477.4068203457
 20
108.8771195698
 10
477.3985306482
 20
108.8861094118
 10
477.3916040237
 20
108.8961139238
  0
LINE
  5
36F
100
AcDbEntity
  8
0
100
AcDbLine
 62
7
  6
CONTINUOUS
 10
495.1447723796
 20
103.1205273667
 11
494.6920523796
 21
104.3705273667
  0
LINE
  5
370
100
AcDbEntity
  8
0
100
AcDbLine
 62
7
  6
CONTINUOUS
 10
494.8365733796
 20
103.4843563667
 11
494.9601783796
 21
103.1205273667
  0
LINE
  5
371
100
AcDbEntity
  8
0
100
AcDbLine
 62
7
  6
CONTINUOUS
 10
494.5893843796
 20
104.1892163667
 11
494.7756253796
 21
103.6340733667
  0
LINE
  5
372
100
AcDbEntity
  8
0
100
AcDbLine
 62
7
  6
CONTINUOUS
 10
489.2791127233
 20
107.2734946408
 11
489.2791127233
 21
107.1046678894
  0
LINE
  5
373
100
AcDbEntity
  8
0
100
AcDbLine
 62
7
  6
CONTINUOUS
 10
489.4322433796
 20
136.2955273667
 11
489.4322433796
 21
136.6112763667
  0
LINE
  5
374
100
AcDbEntity
  8
0
100
AcDbLine
 62
7
  6
CONTINUOUS
 10
489.4448983796
 20
139.8270333667
 11
489.4448983796
 21
141.7269933667
  0
LINE
  5
375
100
AcDbEntity
  8
0
100
AcDbLine
 62
7
  6
CONTINUOUS
 10
489.5909103796
 20
103.6880563667
 11
489.5909103796
 21
103.8377733667
  0
LINE
  5
376
100
AcDbEntity
  8
0
100
AcDbLine
 62
7
  6
CONTINUOUS
 10
489.6483603796
 20
104.2208103667
 11
489.6483603796
 21
104.3705273667
  0
LINE
  5
377
100
AcDbEntity
  8
0
100
AcDbLine
 62
7
  6
CONTINUOUS
 10
489.6605623796
 20
103.1205273667
 11
489.6605623796
 21
103.2702443667
  0
LINE
  5
378
100
AcDbEntity
  8
0
100
AcDbLine
 62
7
  6
CONTINUOUS
 10
489.929863122
 20
107.9498247304
 11
489.929863122
 21
107.2734946408
  0
LINE
  5
379
100
AcDbEntity
  8
0
100
AcDbLine
 62
7
  6
CONTINUOUS
 10
489.929863122
 20
107.1046678894
 11
489.929863122
 21
106.7455273667
  0
LINE
  5
37A
100
AcDbEntity
  8
0
100
AcDbLine
 62
7
  6
CONTINUOUS
 10
490.1140377192
 20
106.7455273667
 11
490.1140377192
 21
107.1046678894
  0
LINE
  5
37B
100
AcDbEntity
  8
0
100
AcDbLine
 62
7
  6
CONTINUOUS
 10
490.1140377192
 20
107.2734946408
 11
490.1140377192
 21
108.2455273667
  0
LINE
  5
37C
100
AcDbEntity
  8
0
100
AcDbLine
 62
7
  6
CONTINUOUS
 10
490.3166297941
 20
107.1046678894
 11
490.3166297941
 21
107.2734946408
  0
LINE
  5
37D
100
AcDbEntity
  8
0
100
AcDbLine
 62
7
  6
CONTINUOUS
 10
490.3918003796
 20
104.3705273667
 11
490.3918003796
 21
103.1205273667
  0
LINE
  5
37E
100
AcDbEntity
  8
0
100
AcDbLine
 62
7
  6
CONTINUOUS
 10
490.5606633796
 20
103.1205273667
 11
490.5606633796
 21
104.3705273667
  0
LINE
  5
37F
100
AcDbEntity
  8
0
100
AcDbLine
 62
7
  6
CONTINUOUS
 10
490.6460976868
 20
107.8751317361
 11
490.6460976868
 21
107.6970962682
  0
LINE
  5
380
100
AcDbEntity
  8
0
100
AcDbLine
 62
7
  6
CONTINUOUS
 10
490.8496243796
 20
104.3705273667
 11
490.8496243796
 21
103.1205273667
  0
LINE
  5
381
100
AcDbEntity
  8
0
100
AcDbLine
 62
7
  6
CONTINUOUS
 10
491.0133423796
 20
103.1205273667
 11
491.0133423796
 21
104.1356773667
  0
LINE
  5
382
100
AcDbEntity
  8
0
100
AcDbLine
 62
7
  6
CONTINUOUS
 10
491.0144468813
 20
107.919128994
 11
491.0144468813
 21
106.7455273667
  0
LINE
  5
383
100
AcDbEntity
  8
0
100
AcDbLine
 62
7
  6
CONTINUOUS
 10
491.1986216574
 20
106.7455273667
 11
491.1986216574
 21
108.2516665855
  0
LINE
  5
384
100
AcDbEntity
  8
0
100
AcDbLine
 62
250
  6
CONTINUOUS
 10
477.0184204577
 20
108.996831205
 11
477.1937183211
 21
109.1721290684
  0
LINE
  5
385
100
AcDbEntity
  8
0
100
AcDbLine
 62
250
  6
CONTINUOUS
 10
468.947028946
 20
100.8056822789
 11
468.8368893536
 21
100.6955426865
  0
LINE
  5
386
100
AcDbEntity
  8
0
100
AcDbLine
 62
250
  6
CONTINUOUS
 10
477.393444228
 20
108.9724031614
 11
477.2843971294
 21
108.8633560628
  0
LINE
  5
387
100
AcDbEntity
  8
0
100
AcDbLine
 62
250
  6
CONTINUOUS
 10
512.7020595029
 20
144.1552187648
 11
512.8121990953
 21
144.2653583572
  0
LINE
  5
388
100
AcDbEntity
  8
0
100
AcDbLine
 62
250
  6
CONTINUOUS
 10
469.4168752564
 20
100.3358359685
 11
469.306735664
 21
100.2256963761
  0
LINE
  5
389
100
AcDbEntity
  8
0
100
AcDbLine
 62
250
  6
CONTINUOUS
 10
504.7254905312
 20
135.5186515719
 11
504.8345376298
 21
135.6276986705
  0
LWPOLYLINE
  5
38A
100
AcDbEntity
  8
0
100
AcDbPolyline
 62
7
  6
CONTINUOUS
 90
16
 70
0
 10
470.0502971916
 20
131.8075868898
 10
470.0535697592
 20
131.8059767165
 10
470.0597092167
 20
131.8044219591
 10
470.068715564
 20
131.8029226176
 10
470.0807486338
 20
131.8014640179
 10
470.0956485934
 20
131.8000608342
 10
470.112935945
 20
131.7987570888
 10
470.132652274
 20
131.7975572479
 10
470.1547559949
 20
131.7964568453
 10
470.1786428538
 20
131.795486505
 10
470.2044186558
 20
131.7946485643
 10
470.2319775958
 20
131.7939406859
 10
470.2603980039
 20
131.7933864816
 10
470.2893726571
 20
131.792993822
 10
470.3192087785
 20
131.7927548366
 10
477.9094673796
 20
131.7926695216
  0
LINE
  5
38B
100
AcDbEntity
  8
0
100
AcDbLine
 62
250
  6
CONTINUOUS
 10
477.1937183211
 20
135.3189256649
 11
477.0184204577
 21
135.4942235283
  0
LINE
  5
38C
100
AcDbEntity
  8
0
100
AcDbLine
 62
250
  6
CONTINUOUS
 10
468.8368893536
 20
143.7955120468
 11
468.947028946
 21
143.6853724544
  0
LINE
  5
38D
100
AcDbEntity
  8
0
100
AcDbLine
 62
250
  6
CONTINUOUS
 10
477.2843971294
 20
135.6276986705
 11
477.393444228
 21
135.5186515719
  0
LINE
  5
38E
100
AcDbEntity
  8
0
100
AcDbLine
 62
250
  6
CONTINUOUS
 10
512.8121990953
 20
100.2256963761
 11
512.7020595029
 21
100.3358359685
  0
LINE
  5
38F
100
AcDbEntity
  8
0
100
AcDbLine
 62
250
  6
CONTINUOUS
 10
469.306735664
 20
144.2653583572
 11
469.4168752564
 21
144.1552187648
  0
LINE
  5
390
100
AcDbEntity
  8
0
100
AcDbLine
 62
250
  6
CONTINUOUS
 10
504.8345376298
 20
108.8633560628
 11
504.7254905312
 21
108.9724031614
  0
LWPOLYLINE
  5
391
100
AcDbEntity
  8
0
100
AcDbPolyline
 62
7
  6
CONTINUOUS
 90
10
 70
0
 10
491.6713363199
 20
107.1415028223
 10
491.6771291688
 20
107.0995748496
 10
491.6855790756
 20
107.059737523
 10
491.6966860405
 20
107.0219908274
 10
491.7104382669
 20
106.986449706
 10
491.7268475512
 20
106.9529991873
 10
491.745949283
 20
106.9212943878
 10
491.7677552586
 20
106.8912203408
 10
491.7922536815
 20
106.8628919938
 10
491.8194445518
 20
106.8363093376
  0
LINE
  5
392
100
AcDbEntity
  8
0
100
AcDbLine
 62
7
  6
CONTINUOUS
 10
491.5851583796
 20
139.8270333667
 11
491.4075013796
 21
141.7268793667
  0
LINE
  5
393
100
AcDbEntity
  8
0
100
AcDbLine
 62
7
  6
CONTINUOUS
 10
491.1157283796
 20
141.0624253667
 11
491.1972053796
 21
139.8270333667
  0
LWPOLYLINE
  5
394
100
AcDbEntity
  8
0
100
AcDbPolyline
 62
7
  6
CONTINUOUS
 90
10
 70
0
 10
493.8016228943
 20
107.8352272608
 10
493.7999248708
 20
107.8742702437
 10
493.7951916465
 20
107.9117035369
 10
493.7874232215
 20
107.94752713
 10
493.7766678582
 20
107.9816192186
 10
493.7628772942
 20
108.0141015868
 10
493.7459067417
 20
108.0453396086
 10
493.7257079382
 20
108.0754550721
 10
493.7023291463
 20
108.1043261763
 10
493.675770366
 20
108.1319529152
  0
LWPOLYLINE
  5
395
100
AcDbEntity
  8
0
100
AcDbPolyline
 62
7
  6
CONTINUOUS
 90
10
 70
0
 10
492.6536009579
 20
107.1885696449
 10
492.6526291236
 20
107.2205988257
 10
492.6498219192
 20
107.2513502478
 10
492.6451793445
 20
107.2808239041
 10
492.6386588008
 20
107.3090490249
 10
492.6303028869
 20
107.3359963664
 10
492.6202393994
 20
107.3615782101
 10
492.6085109372
 20
107.3857653123
 10
492.5950749013
 20
107.4085869042
 10
492.5799312919
 20
107.4300429802
  0
LWPOLYLINE
  5
396
100
AcDbEntity
  8
0
100
AcDbPolyline
 62
7
  6
CONTINUOUS
 90
10
 70
0
 10
492.5799314051
 20
107.8618302145
 10
492.5792636328
 20
107.8840566394
 10
492.5772452998
 20
107.9060593253
 10
492.573876406
 20
107.9278382714
 10
492.5691883811
 20
107.9493467111
 10
492.5631497953
 20
107.970631409
 10
492.5556663596
 20
107.991832662
 10
492.5467066444
 20
108.0129972354
 10
492.5363020793
 20
108.0340783632
 10
492.5244526642
 20
108.0550760451
  0
LINE
  5
397
100
AcDbEntity
  8
0
100
AcDbLine
 62
7
  6
CONTINUOUS
 10
491.6765943796
 20
138.1955273667
 11
491.6765943796
 21
136.2955273667
  0
LINE
  5
398
100
AcDbEntity
  8
0
100
AcDbLine
 62
7
  6
CONTINUOUS
 10
491.6784153796
 20
104.3705273667
 11
491.6784153796
 21
103.3551723667
  0
LINE
  5
399
100
AcDbEntity
  8
0
100
AcDbLine
 62
7
  6
CONTINUOUS
 10
491.8420523796
 20
103.1205273667
 11
491.8420523796
 21
104.3705273667
  0
LINE
  5
39A
100
AcDbEntity
  8
0
100
AcDbLine
 62
7
  6
CONTINUOUS
 10
492.0581953796
 20
136.2955273667
 11
492.0581953796
 21
137.8856993667
  0
LINE
  5
39B
100
AcDbEntity
  8
0
100
AcDbLine
 62
7
  6
CONTINUOUS
 10
492.6167593796
 20
104.3705273667
 11
492.6167593796
 21
103.1205273667
  0
LINE
  5
39C
100
AcDbEntity
  8
0
100
AcDbLine
 62
7
  6
CONTINUOUS
 10
492.7856733796
 20
103.1205273667
 11
492.7856733796
 21
104.3705273667
  0
LINE
  5
39D
100
AcDbEntity
  8
0
100
AcDbLine
 62
7
  6
CONTINUOUS
 10
492.9667393796
 20
104.3705273667
 11
492.9667393796
 21
104.2208103667
  0
LINE
  5
39E
100
AcDbEntity
  8
0
100
AcDbLine
 62
7
  6
CONTINUOUS
 10
493.0108053796
 20
138.1955273667
 11
493.0108053796
 21
136.6898673667
  0
LINE
  5
39F
100
AcDbEntity
  8
0
100
AcDbLine
 62
7
  6
CONTINUOUS
 10
493.3263519824
 20
141.7046828254
 11
493.3263519824
 21
139.8270336206
  0
LINE
  5
3A0
100
AcDbEntity
  8
0
100
AcDbLine
 62
7
  6
CONTINUOUS
 10
493.3898083796
 20
104.2208103667
 11
493.3898083796
 21
103.1205273667
  0
LINE
  5
3A1
100
AcDbEntity
  8
0
100
AcDbLine
 62
7
  6
CONTINUOUS
 10
493.3924073796
 20
136.2955273667
 11
493.3924073796
 21
138.1955273667
  0
LWPOLYLINE
  5
3A2
100
AcDbEntity
  8
0
100
AcDbPolyline
 62
7
  6
CONTINUOUS
 90
10
 70
0
 10
492.4581712751
 20
107.1844769069
 10
492.4569466904
 20
107.1551884934
 10
492.4535553551
 20
107.1270811695
 10
492.4479972694
 20
107.1001549292
 10
492.4403005838
 20
107.0744924354
 10
492.4304371478
 20
107.0500110137
 10
492.4183225089
 20
107.0264626538
 10
492.4039285165
 20
107.0037646834
 10
492.3872833213
 20
106.9819997671
 10
492.3683869232
 20
106.9611679014
  0
LWPOLYLINE
  5
3A3
100
AcDbEntity
  8
0
100
AcDbPolyline
 62
7
  6
CONTINUOUS
 90
10
 70
0
 10
492.3906407623
 20
107.8659229973
 10
492.38945997
 20
107.8381581456
 10
492.3859417394
 20
107.8120856457
 10
492.3800860704
 20
107.78770549
 10
492.3718748318
 20
107.7650212603
 10
492.3613261549
 20
107.744029361
 10
492.3484944336
 20
107.7247190192
 10
492.3333977995
 20
107.7070866404
 10
492.3160181211
 20
107.6911358083
 10
492.2963553984
 20
107.6768665183
  0
LINE
  5
3A4
100
AcDbEntity
  8
0
100
AcDbLine
 62
7
  6
CONTINUOUS
 10
485.5291673796
 20
103.1205273667
 11
485.8808013796
 21
104.1703653667
  0
LINE
  5
3A5
100
AcDbEntity
  8
0
100
AcDbLine
 62
7
  6
CONTINUOUS
 10
485.8042243796
 20
104.3705273667
 11
485.4473163796
 21
103.3086293667
  0
LINE
  5
3A6
100
AcDbEntity
  8
0
100
AcDbLine
 62
7
  6
CONTINUOUS
 10
486.3683163796
 20
103.1205273667
 11
486.4989063796
 21
103.4843563667
  0
LINE
  5
3A7
100
AcDbEntity
  8
0
100
AcDbLine
 62
7
  6
CONTINUOUS
 10
486.5511513796
 20
103.6340733667
 11
486.7531633796
 21
104.1892163667
  0
LINE
  5
3A8
100
AcDbEntity
  8
0
100
AcDbLine
 62
7
  6
CONTINUOUS
 10
486.6642723796
 20
104.3705273667
 11
486.1942363796
 21
103.1205273667
  0
LINE
  5
3A9
100
AcDbEntity
  8
0
100
AcDbLine
 62
250
  6
CONTINUOUS
 10
513.1719058133
 20
143.6853724544
 11
513.2820454056
 21
143.7955120468
  0
LINE
  5
3AA
100
AcDbEntity
  8
0
100
AcDbLine
 62
250
  6
CONTINUOUS
 10
505.1005143016
 20
135.4942235283
 11
504.9252164382
 21
135.3189256649
  0
LWPOLYLINE
  5
3AB
100
AcDbEntity
  8
0
100
AcDbPolyline
 62
7
  6
CONTINUOUS
 90
16
 70
0
 10
512.0686375677
 20
112.6834678435
 10
512.0653649998
 20
112.6850780168
 10
512.0592255421
 20
112.6866327742
 10
512.0502191946
 20
112.6881321157
 10
512.0381861248
 20
112.6895907153
 10
512.0232861651
 20
112.6909938991
 10
512.0059988135
 20
112.6922976445
 10
511.9862824845
 20
112.6934974854
 10
511.9641787635
 20
112.6945978879
 10
511.9402919047
 20
112.6955682282
 10
511.9145161026
 20
112.6964061689
 10
511.8869571626
 20
112.6971140473
 10
511.8585367549
 20
112.6976682516
 10
511.8295621028
 20
112.6980609112
 10
511.799725983
 20
112.6982998967
 10
504.2094673796
 20
112.6983852117
  0
LINE
  5
3AC
100
AcDbEntity
  8
0
100
AcDbLine
 62
250
  6
CONTINUOUS
 10
513.2820454056
 20
100.6955426865
 11
513.1719058133
 21
100.8056822789
  0
LINE
  5
3AD
100
AcDbEntity
  8
0
100
AcDbLine
 62
250
  6
CONTINUOUS
 10
504.9252164382
 20
109.1721290684
 11
505.1005143016
 21
108.996831205
  0
LINE
  5
3AE
100
AcDbEntity
  8
0
100
AcDbLine
 62
7
  6
CONTINUOUS
 10
487.3387033796
 20
141.7268793667
 11
487.9409913796
 21
139.8270333667
  0
LINE
  5
3AF
100
AcDbEntity
  8
0
100
AcDbLine
 62
7
  6
CONTINUOUS
 10
488.1316483796
 20
140.4191563667
 11
487.7695033796
 21
141.7268793667
  0
LINE
  5
3B0
100
AcDbEntity
  8
0
100
AcDbLine
 62
7
  6
CONTINUOUS
 10
493.5586623796
 20
103.1205273667
 11
493.5586623796
 21
104.2208103667
  0
LINE
  5
3B1
100
AcDbEntity
  8
0
100
AcDbLine
 62
7
  6
CONTINUOUS
 10
493.7081788828
 20
140.8816771024
 11
493.7081788828
 21
141.4032217899
  0
LINE
  5
3B2
100
AcDbEntity
  8
0
100
AcDbLine
 62
7
  6
CONTINUOUS
 10
493.7213286245
 20
139.8270336206
 11
493.7213286245
 21
140.5705282832
  0
LINE
  5
3B3
100
AcDbEntity
  8
0
100
AcDbLine
 62
7
  6
CONTINUOUS
 10
493.8036692409
 20
106.7455273667
 11
493.8036692409
 21
106.92253965
  0
LINE
  5
3B4
100
AcDbEntity
  8
0
100
AcDbLine
 62
7
  6
CONTINUOUS
 10
493.9817313796
 20
104.2208103667
 11
493.9817313796
 21
104.3705273667
  0
LINE
  5
3B5
100
AcDbEntity
  8
0
100
AcDbLine
 62
7
  6
CONTINUOUS
 10
494.3505723707
 20
140.7119453329
 11
494.3505723707
 21
140.725874057
  0
LINE
  5
3B6
100
AcDbEntity
  8
0
100
AcDbLine
 62
7
  6
CONTINUOUS
 10
495.2996443796
 20
104.3705273667
 11
495.2996443796
 21
103.1205273667
  0
LINE
  5
3B7
100
AcDbEntity
  8
0
100
AcDbLine
 62
7
  6
CONTINUOUS
 10
495.4685693796
 20
103.2702443667
 11
495.4685693796
 21
104.3705273667
  0
LWPOLYLINE
  5
3B8
100
AcDbEntity
  8
0
100
AcDbPolyline
 62
7
  6
CONTINUOUS
 90
25
 70
0
 10
494.242873312
 20
141.1769123122
 10
494.2424780557
 20
141.1560159671
 10
494.2408816412
 20
141.135375328
 10
494.2380840684
 20
141.1149903961
 10
494.2340936466
 20
141.0947875956
 10
494.2289020666
 20
141.0748405046
 10
494.2224844007
 20
141.0553698563
 10
494.2148533436
 20
141.0362972013
 10
494.2059962007
 20
141.0177009931
 10
494.1958499609
 20
141.000037322
 10
494.1843696353
 20
140.9832918403
 10
494.1716002128
 20
140.9674789029
 10
494.1576136488
 20
140.9530976578
 10
494.1422740486
 20
140.9403237568
 10
494.1257173068
 20
140.9289815572
 10
494.1084230631
 20
140.919043266
 10
494.0903918514
 20
140.9106027562
 10
494.0716231378
 20
140.9035661608
 10
494.0525949601
 20
140.8976240744
 10
494.0334339676
 20
140.892771896
 10
494.0140135111
 20
140.8890142293
 10
493.9944316806
 20
140.8860554761
 10
493.9747211728
 20
140.8837971038
 10
493.9548492911
 20
140.8823376458
 10
493.9348160355
 20
140.8816771024
  0
LWPOLYLINE
  5
3B9
100
AcDbEntity
  8
0
100
AcDbPolyline
 62
7
  6
CONTINUOUS
 90
10
 70
0
 10
493.0362749367
 20
107.7983923056
 10
493.037284421
 20
107.8288627322
 10
493.0403107827
 20
107.8578872323
 10
493.0453540218
 20
107.8854657988
 10
493.0524460105
 20
107.9116417677
 10
493.0615548766
 20
107.9363717893
 10
493.0725850032
 20
107.9595258273
 10
493.0855045179
 20
107.9810605319
 10
493.1003452931
 20
108.0010192404
 10
493.1171073286
 20
108.0194019475
  0
LWPOLYLINE
  5
3BA
100
AcDbEntity
  8
0
100
AcDbPolyline
 62
7
  6
CONTINUOUS
 90
10
 70
0
 10
493.6123322515
 20
107.8393200436
 10
493.6112141671
 20
107.8154951454
 10
493.6079299199
 20
107.791377732
 10
493.6024795101
 20
107.7669678049
 10
493.5947852856
 20
107.7421571528
 10
493.5849248985
 20
107.7170539898
 10
493.5731313048
 20
107.691982954
 10
493.5594821564
 20
107.6670522573
 10
493.5438998014
 20
107.6421536874
 10
493.5263842398
 20
107.6172872441
  0
LINE
  5
3BB
100
AcDbEntity
  8
0
100
AcDbLine
 62
7
  6
CONTINUOUS
 10
492.0550334721
 20
107.6172872284
 11
492.0345696478
 21
107.4556228467
  0
LWPOLYLINE
  5
3BC
100
AcDbEntity
  8
0
100
AcDbPolyline
 62
7
  6
CONTINUOUS
 90
10
 70
0
 10
491.8739285736
 20
107.8301113048
 10
491.8786894271
 20
107.8582410879
 10
491.8848297834
 20
107.8850770234
 10
491.8923496425
 20
107.910619105
 10
491.9012736274
 20
107.935005925
 10
491.911577115
 20
107.9580988801
 10
491.9231862367
 20
107.9794821705
 10
491.9360763696
 20
107.9990171913
 10
491.9502721367
 20
108.0168425349
 10
491.9657735378
 20
108.0329581959
  0
LWPOLYLINE
  5
3BD
100
AcDbEntity
  8
0
100
AcDbPolyline
 62
250
  6
CONTINUOUS
 90
16
 70
0
 10
504.5732739281
 20
135.5949408425
 10
504.5802511349
 20
135.6050067326
 10
504.5885930779
 20
135.6140304386
 10
504.5981365134
 20
135.621821959
 10
504.6086988336
 20
135.628200665
 10
504.6200553669
 20
135.6330485222
 10
504.6319675978
 20
135.6363215784
 10
504.644215721
 20
135.6379767207
 10
504.656577394
 20
135.6379640519
 10
504.6688213789
 20
135.6362838254
 10
504.6807312943
 20
135.6329843632
 10
504.6920809672
 20
135.6281103076
 10
504.7026166899
 20
135.6217176025
 10
504.7121144285
 20
135.6139351492
 10
504.7204041561
 20
135.6049452655
 10
504.727330808
 20
135.5949406901
  0
LINE
  5
3BE
100
AcDbEntity
  8
0
100
AcDbLine
 62
7
  6
CONTINUOUS
 10
490.5556893796
 20
137.8324573667
 11
490.8187233796
 21
137.0139703667
  0
LWPOLYLINE
  5
3BF
100
AcDbEntity
  8
RACCORDO
100
AcDbPolyline
 62
250
  6
CONTINUOUS
 90
73
 70
0
 10
496.2512098101
 20
122.2455273667
 10
496.2462847317
 20
122.4720226836
 10
496.231550437
 20
122.697500102
 10
496.2070069261
 20
122.9219595765
 10
496.1725667104
 20
123.1459233022
 10
496.1283172784
 20
123.3688689964
 10
496.0745210958
 20
123.5892299036
 10
496.0111308439
 20
123.8068791677
 10
495.9381938414
 20
124.0219435788
 10
495.8561145101
 20
124.2332368654
 10
495.7648331629
 20
124.4407590102
 10
495.6644094869
 20
124.6445099943
 10
495.5554269656
 20
124.8433035604
 10
495.4378404801
 20
125.0371011694
 10
495.3116951494
 20
125.2259413607
 10
495.1777098137
 20
125.4087535143
 10
495.035838323
 20
125.5855054269
 10
494.8861268272
 20
125.7562293378
 10
494.7294326164
 20
125.9199513097
 10
494.5657164613
 20
126.076630433
 10
494.3950175912
 20
126.2263076838
 10
494.2183109839
 20
126.3681319691
 10
494.0355625054
 20
126.5020583872
 10
493.8468062897
 20
126.6281319266
 10
493.6531197161
 20
126.7456363408
 10
493.4544751963
 20
126.8545225599
 10
493.2509003186
 20
126.9548397475
 10
493.043555227
 20
127.0460190139
 10
492.8324187244
 20
127.12800835
 10
492.6175120079
 20
127.2008598514
 10
492.400058812
 20
127.2641607847
 10
492.1800449349
 20
127.3178568861
 10
491.9574845784
 20
127.3620024856
 10
491.7336440833
 20
127.3963477352
 10
491.5085165028
 20
127.4208370532
 10
491.2821087837
 20
127.435526057
 10
491.0557081067
 20
127.4403316898
 10
490.8293143964
 20
127.4351979542
 10
490.6029277283
 20
127.4201808472
 10
490.3778355099
 20
127.3953652948
 10
490.1540449464
 20
127.3606956977
 10
489.9315488326
 20
127.316227619
 10
489.7116129598
 20
127.2622127199
 10
489.494251548
 20
127.198596694
 10
489.2794503772
 20
127.1254337812
 10
489.0684325782
 20
127.0431384574
 10
488.8612193635
 20
126.9516586178
 10
488.6577895206
 20
126.8510462806
 10
488.4593025435
 20
126.7418721069
 10
488.2657862411
 20
126.6240870751
 10
488.0772128045
 20
126.4977401131
 10
487.8946583002
 20
126.3635488126
 10
487.7181565506
 20
126.2214678427
 10
487.5476737334
 20
126.0715424477
 10
487.3841844483
 20
125.9146260935
 10
487.227729492
 20
125.7506800313
 10
487.0782680679
 20
125.5797429436
 10
486.9366523861
 20
125.4027844594
 10
486.8029223777
 20
125.2197602552
 10
486.6770381116
 20
125.0307146187
 10
486.5597320038
 20
124.8367501144
 10
486.4510631773
 20
124.6378574172
 10
486.3509725091
 20
124.4340458529
 10
486.2600150467
 20
124.2264459819
 10
486.1782243871
 20
124.0149404793
 10
486.1055669333
 20
123.7996467058
 10
486.0424969413
 20
123.5820472696
 10
485.989113876
 20
123.3620983097
 10
485.9453182724
 20
123.139843755
 10
485.9112659919
 20
122.9168979127
 10
485.887008988
 20
122.6937989159
 10
485.8724953071
 20
122.4700087191
 10
485.8677249491
 20
122.2455273667
  0
LINE
  5
3C0
100
AcDbEntity
  8
0
100
AcDbLine
 62
7
  6
CONTINUOUS
 10
496.1023133796
 20
103.1205273667
 11
496.1023133796
 21
103.2702443667
  0
LINE
  5
3C1
100
AcDbEntity
  8
0
100
AcDbLine
 62
7
  6
CONTINUOUS
 10
496.6315293796
 20
103.6236613667
 11
496.6315293796
 21
103.1205273667
  0
LINE
  5
3C2
100
AcDbEntity
  8
0
100
AcDbLine
 62
7
  6
CONTINUOUS
 10
496.8003523796
 20
103.1205273667
 11
496.8003523796
 21
103.6236613667
  0
LINE
  5
3C3
100
AcDbEntity
  8
0
100
AcDbLine
 62
7
  6
CONTINUOUS
 10
497.0594673796
 20
139.5455273667
 11
497.0594673796
 21
138.7455273667
  0
LINE
  5
3C4
100
AcDbEntity
  8
0
100
AcDbLine
 62
7
  6
CONTINUOUS
 10
497.0594673796
 20
105.7455273667
 11
497.0594673796
 21
104.9455273667
  0
LWPOLYLINE
  5
3C5
100
AcDbEntity
  8
RACCORDO
100
AcDbPolyline
 62
250
  6
CONTINUOUS
 90
58
 70
0
 10
496.6082812315
 20
122.2455273667
 10
496.5982990078
 20
121.9128900215
 10
496.5686748087
 20
121.5835423361
 10
496.5198900937
 20
121.2587557341
 10
496.4526963213
 20
120.9403556309
 10
496.3676075731
 20
120.6285669387
 10
496.2645009344
 20
120.3221931533
 10
496.1434086689
 20
120.0215810158
 10
496.0049524476
 20
119.7285031764
 10
495.849620734
 20
119.4439849705
 10
495.6779368984
 20
119.1690188085
 10
495.490487661
 20
118.9045203427
 10
495.2878796794
 20
118.6513864723
 10
495.0707830472
 20
118.4104514276
 10
494.8399470417
 20
118.1825802312
 10
494.5962216025
 20
117.9686069501
 10
494.340465118
 20
117.7692752119
 10
494.073530603
 20
117.5852456225
 10
493.7963407657
 20
117.4171362862
 10
493.5098530452
 20
117.2655345437
 10
493.2150405662
 20
117.1309289442
 10
492.9128579626
 20
117.0137715711
 10
492.6043249591
 20
116.9144462528
 10
492.2905056608
 20
116.8333116181
 10
491.972469555
 20
116.77063986
 10
491.6512905669
 20
116.726648597
 10
491.3280751283
 20
116.7014964555
 10
491.0039624012
 20
116.6952635939
 10
490.6800745663
 20
116.707979294
 10
490.3575003682
 20
116.7395807552
 10
490.0373269428
 20
116.7899755516
 10
489.7206538991
 20
116.8589734533
 10
489.4085552769
 20
116.946351403
 10
489.1020503259
 20
117.0518181544
 10
488.802175715
 20
117.1750295306
 10
488.5099719367
 20
117.3155689183
 10
488.226437637
 20
117.4729555715
 10
487.9525100691
 20
117.6466949493
 10
487.6891636162
 20
117.8361649613
 10
487.43741923
 20
118.040643468
 10
487.1973893168
 20
118.2601097585
 10
486.970698613
 20
118.4931923962
 10
486.7601104929
 20
118.736611116
 10
486.5652182249
 20
118.990128273
 10
486.3870143097
 20
119.2516928115
 10
486.2289023641
 20
119.5142989302
 10
486.0908346864
 20
119.7745405465
 10
485.9707278187
 20
120.0325882476
 10
485.8678040928
 20
120.2863655068
 10
485.7809868842
 20
120.5341722629
 10
485.7088230599
 20
120.7753993819
 10
485.6499129068
 20
121.0098099384
 10
485.6030833873
 20
121.2366495466
 10
485.5671788785
 20
121.455275571
 10
485.5410033874
 20
121.6658352191
 10
485.5235069846
 20
121.8680927565
 10
485.5137126002
 20
122.0614268625
 10
485.5106535277
 20
122.2455273667
  0
LWPOLYLINE
  5
3C6
100
AcDbEntity
  8
RACCORDO
100
AcDbPolyline
 62
250
  6
CONTINUOUS
 90
58
 70
0
 10
496.9653526529
 20
122.2455274046
 10
496.9537421325
 20
121.8896318449
 10
496.9223832196
 20
121.5396727752
 10
496.8712759143
 20
121.1956503554
 10
496.8001248031
 20
120.8572451331
 10
496.7092252995
 20
120.5247768308
 10
496.5994636443
 20
120.1992043402
 10
496.4706370191
 20
119.8797722869
 10
496.3229482423
 20
119.5672362101
 10
496.1578920099
 20
119.2648213111
 10
495.9752986447
 20
118.9726487458
 10
495.7753378238
 20
118.6905973532
 10
495.560013275
 20
118.4215287678
 10
495.3291386538
 20
118.1655504972
 10
495.0829003046
 20
117.9225548649
 10
494.823860989
 20
117.6950806439
 10
494.5519036077
 20
117.4833111499
 10
494.2671452599
 20
117.2870627774
 10
493.9725000054
 20
117.1083238559
 10
493.6678867756
 20
116.9472790392
 10
493.3533866391
 20
116.8037433433
 10
493.0321568613
 20
116.6791506149
 10
492.7041159725
 20
116.573682236
 10
492.3693454423
 20
116.4871565435
 10
492.0312469448
 20
116.4204628236
 10
491.6897708224
 20
116.3738053129
 10
491.3449667327
 20
116.3469796178
 10
491.0003853217
 20
116.3402621126
 10
490.6560477477
 20
116.3538616891
 10
490.3119328525
 20
116.3875694653
 10
489.9715278071
 20
116.4410351954
 10
489.6348800226
 20
116.5144508219
 10
489.3019420878
 20
116.6076245762
 10
488.9760589405
 20
116.7196306765
 10
488.6572828106
 20
116.850663598
 10
488.3455614681
 20
117.0005291569
 10
488.0440831611
 20
117.1677185874
 10
487.7529209706
 20
117.3524492566
 10
487.4720018155
 20
117.5545041281
 10
487.2042947008
 20
117.7717227986
 10
486.9494342843
 20
118.0052193454
 10
486.7077859082
 20
118.2538799764
 10
486.4834146044
 20
118.5122023824
 10
486.2767285014
 20
118.7817948011
 10
486.0873194706
 20
119.0610490888
 10
485.9180281585
 20
119.3396381625
 10
485.7708620358
 20
119.6158141106
 10
485.6438136319
 20
119.8913246482
 10
485.5337011806
 20
120.161085976
 10
485.440813565
 20
120.4241429642
 10
485.3648619021
 20
120.6814505083
 10
485.3017977764
 20
120.9307898096
 10
485.2514706925
 20
121.1717739124
 10
485.2140311458
 20
121.4047895899
 10
485.1858822068
 20
121.6287786411
 10
485.165824899
 20
121.8433882929
 10
485.1550581988
 20
122.0489712027
 10
485.1535821063
 20
122.2455273287
  0
LWPOLYLINE
  5
3C7
100
AcDbEntity
  8
0
100
AcDbPolyline
 62
7
  6
CONTINUOUS
 90
25
 70
0
 10
504.2533555106
 20
135.6936695022
 10
504.2728928723
 20
135.7372758652
 10
504.296379039
 20
135.7776037126
 10
504.3238140108
 20
135.8146530656
 10
504.3556246829
 20
135.8487928114
 10
504.3913841602
 20
135.8796540993
 10
504.4298117566
 20
135.9061303464
 10
504.4710051535
 20
135.9280628214
 10
504.5148666697
 20
135.945610291
 10
504.559822575
 20
135.9581424217
 10
504.605911802
 20
135.9654770006
 10
504.6530954182
 20
135.9677962573
 10
504.6996828964
 20
135.9650165175
 10
504.7456532488
 20
135.9569529165
 10
504.7910274633
 20
135.9437903098
 10
504.834177976
 20
135.9259995982
 10
504.8750242943
 20
135.9034125771
 10
504.9136469108
 20
135.8761974199
 10
504.94865974
 20
135.8453295945
 10
504.9799336535
 20
135.8106616519
 10
505.0075977796
 20
135.7723410017
 10
505.0306534178
 20
135.7317854092
 10
505.0487676681
 20
135.6894674572
 10
505.0622734305
 20
135.6449145355
 10
505.071170705
 20
135.5981266284
  0
LWPOLYLINE
  5
3C8
100
AcDbEntity
  8
0
100
AcDbPolyline
 62
7
  6
CONTINUOUS
 90
10
 70
0
 10
488.7490990578
 20
108.2516665855
 10
488.7365061489
 20
108.2284613388
 10
488.7224577222
 20
108.2054813915
 10
488.7069537778
 20
108.1827267426
 10
488.6899183524
 20
108.1601914416
 10
488.6714274092
 20
108.1378814374
 10
488.6517088382
 20
108.1158145783
 10
488.6308386025
 20
108.0939968128
 10
488.608740739
 20
108.0724221905
 10
488.5854152476
 20
108.0510907106
  0
LINE
  5
3C9
100
AcDbEntity
  8
0
100
AcDbLine
 62
7
  6
CONTINUOUS
 10
477.0149045516
 20
111.8221195033
 11
477.0668425263
 21
111.8394180939
  0
LINE
  5
3CA
100
AcDbEntity
  8
0
100
AcDbLine
 62
7
  6
CONTINUOUS
 10
477.0149045516
 20
132.66893523
 11
477.0668425263
 21
132.6516366394
  0
LWPOLYLINE
  5
3CB
100
AcDbEntity
  8
0
100
AcDbPolyline
 62
250
  6
CONTINUOUS
 90
16
 70
0
 10
477.393444228
 20
135.5186515719
 10
477.3956432635
 20
135.517580129
 10
477.3997187002
 20
135.516547155
 10
477.4056705381
 20
135.5155526501
 10
477.4135887449
 20
135.5145883078
 10
477.423383353
 20
135.5136624345
 10
477.4347844591
 20
135.5127999495
 10
477.4478355062
 20
135.5120016893
 10
477.4624930514
 20
135.5112668174
 10
477.4783568634
 20
135.5106177442
 10
477.4954750407
 20
135.5100564328
 10
477.5137994848
 20
135.5095809199
 10
477.5327856689
 20
135.509207726
 10
477.5522520842
 20
135.5089423578
 10
477.5723802395
 20
135.5087793086
 10
477.7605992634
 20
135.5087185783
  0
LINE
  5
3CC
100
AcDbEntity
  8
0
100
AcDbLine
 62
7
  6
CONTINUOUS
 10
490.1233573796
 20
141.0675973667
 11
490.5885843796
 21
139.8270333667
  0
LINE
  5
3CD
100
AcDbEntity
  8
0
100
AcDbLine
 62
7
  6
CONTINUOUS
 10
490.6185593796
 20
140.6720793667
 11
490.2261753796
 21
141.7268793667
  0
LINE
  5
3CE
100
AcDbEntity
  8
0
100
AcDbLine
 62
7
  6
CONTINUOUS
 10
491.4687403796
 20
136.2955273667
 11
490.8082123796
 21
138.1955273667
  0
LINE
  5
3CF
100
AcDbEntity
  8
0
100
AcDbLine
 62
7
  6
CONTINUOUS
 10
490.9213273796
 20
136.6982213667
 11
491.0581803796
 21
136.2955273667
  0
LINE
  5
3D0
100
AcDbEntity
  8
0
100
AcDbLine
 62
7
  6
CONTINUOUS
 10
492.6891953796
 20
140.2063103667
 11
492.7919283796
 21
139.8270333667
  0
LINE
  5
3D1
100
AcDbEntity
  8
0
100
AcDbLine
 62
7
  6
CONTINUOUS
 10
492.4277103796
 20
141.2048503667
 11
492.6099403796
 21
140.4997933667
  0
LWPOLYLINE
  5
3D2
100
AcDbEntity
  8
0
100
AcDbPolyline
 62
7
  6
CONTINUOUS
 90
10
 70
0
 10
492.8328748331
 20
106.8737405125
 10
492.8278763853
 20
106.8594857384
 10
492.8235605478
 20
106.845245866
 10
492.8199273205
 20
106.8310208952
 10
492.8169865824
 20
106.8168277384
 10
492.8147284545
 20
106.8026494832
 10
492.8131233003
 20
106.788435392
 10
492.8121612409
 20
106.7741685525
 10
492.8118521551
 20
106.7598658774
 10
492.812196043
 20
106.7455273667
  0
LWPOLYLINE
  5
3D3
100
AcDbEntity
  8
0
100
AcDbPolyline
 62
7
  6
CONTINUOUS
 90
10
 70
0
 10
493.7649720591
 20
107.6581364066
 10
493.7727808823
 20
107.6777821535
 10
493.7796427982
 20
107.6974174437
 10
493.7855578067
 20
107.717042277
 10
493.7905088674
 20
107.7366323727
 10
493.7945130207
 20
107.7562120114
 10
493.797621388
 20
107.7758540351
 10
493.7998510095
 20
107.7955827248
 10
493.8011848449
 20
107.8153738
 10
493.8016228943
 20
107.8352272608
  0
LWPOLYLINE
  5
3D4
100
AcDbEntity
  8
0
100
AcDbPolyline
 62
7
  6
CONTINUOUS
 90
10
 70
0
 10
491.0799312262
 20
108.2516665855
 10
491.0673383274
 20
108.228461339
 10
491.0532899076
 20
108.2054813921
 10
491.0377859671
 20
108.1827267439
 10
491.0207505416
 20
108.1601914442
 10
491.0022595952
 20
108.1378814416
 10
490.9825410203
 20
108.1158145831
 10
490.9616707808
 20
108.0939968169
 10
490.9395729127
 20
108.0724221931
 10
490.9162474161
 20
108.0510907106
  0
LINE
  5
3D5
100
AcDbEntity
  8
0
100
AcDbLine
 62
7
  6
CONTINUOUS
 10
489.4602178006
 20
107.2734946408
 11
489.929863122
 21
107.9498247304
  0
LINE
  5
3D6
100
AcDbEntity
  8
0
100
AcDbLine
 62
7
  6
CONTINUOUS
 10
489.9636283784
 20
108.2455273667
 11
489.2791127233
 21
107.2734946408
  0
LINE
  5
3D7
100
AcDbEntity
  8
0
100
AcDbLine
 62
7
  6
CONTINUOUS
 10
485.0594673796
 20
105.7455273667
 11
485.0800223059
 21
105.7660822929
  0
LINE
  5
3D8
100
AcDbEntity
  8
0
100
AcDbLine
 62
7
  6
CONTINUOUS
 10
512.0686375677
 20
131.8075868898
 11
512.1065780445
 21
131.8455273667
  0
LINE
  5
3D9
100
AcDbEntity
  8
0
100
AcDbLine
 62
7
  6
CONTINUOUS
 10
470.0295171171
 20
130.7455273667
 11
512.0894176421
 21
130.7455273667
  0
LINE
  5
3DA
100
AcDbEntity
  8
0
100
AcDbLine
 62
7
  6
CONTINUOUS
 10
485.0594673796
 20
138.7455273667
 11
485.0800223059
 21
138.7249724404
  0
LINE
  5
3DB
100
AcDbEntity
  8
0
100
AcDbLine
 62
7
  6
CONTINUOUS
 10
512.0686375677
 20
112.6834678435
 11
512.1065780445
 21
112.6455273667
  0
LINE
  5
3DC
100
AcDbEntity
  8
0
100
AcDbLine
 62
7
  6
CONTINUOUS
 10
493.0108053796
 20
136.6898673667
 11
492.2818513796
 21
138.1955273667
  0
LINE
  5
3DD
100
AcDbEntity
  8
0
100
AcDbLine
 62
7
  6
CONTINUOUS
 10
492.0581953796
 20
137.8856993667
 11
492.8134623796
 21
136.2955273667
  0
LINE
  5
3DE
100
AcDbEntity
  8
0
100
AcDbLine
 62
7
  6
CONTINUOUS
 10
494.8687633796
 20
136.6982213667
 11
495.0056883796
 21
136.2955273667
  0
LINE
  5
3DF
100
AcDbEntity
  8
0
100
AcDbLine
 62
7
  6
CONTINUOUS
 10
494.5030893796
 20
137.8323503667
 11
494.7660883796
 21
137.0139703667
  0
LINE
  5
3E0
100
AcDbEntity
  8
0
100
AcDbLine
 62
7
  6
CONTINUOUS
 10
493.2098993796
 20
139.8270333667
 11
492.6269793796
 21
141.7268793667
  0
LINE
  5
3E1
100
AcDbEntity
  8
0
100
AcDbLine
 62
7
  6
CONTINUOUS
 10
494.2698483168
 20
140.0282624971
 11
494.3286244449
 21
139.8270336206
  0
LINE
  5
3E2
100
AcDbEntity
  8
0
100
AcDbLine
 62
7
  6
CONTINUOUS
 10
494.6209757081
 20
140.1670775663
 11
494.5745200191
 21
140.3412005868
  0
LWPOLYLINE
  5
3E3
100
AcDbEntity
  8
0
100
AcDbPolyline
 62
7
  6
CONTINUOUS
 90
25
 70
0
 10
494.5745200191
 20
140.3412005868
 10
494.5687780405
 20
140.3630820652
 10
494.5629740498
 20
140.3842839097
 10
494.5571080471
 20
140.4048061237
 10
494.5512415588
 20
140.4246087428
 10
494.5453130585
 20
140.4437317373
 10
494.5391379665
 20
140.4622950117
 10
494.5326827517
 20
140.4802981386
 10
494.5259809453
 20
140.4977415498
 10
494.5189485606
 20
140.5147464376
 10
494.5116019631
 20
140.5313251881
 10
494.5039247874
 20
140.5474654183
 10
494.4957839511
 20
140.5632511656
 10
494.487180655
 20
140.5787368714
 10
494.4781136982
 20
140.5938680966
 10
494.4684463956
 20
140.6085655579
 10
494.4581733519
 20
140.6228770948
 10
494.4472999624
 20
140.6367548705
 10
494.435705727
 20
140.6499760878
 10
494.4233574856
 20
140.6625822177
 10
494.4102883984
 20
140.674531793
 10
494.3964774453
 20
140.6854776103
 10
494.3819176197
 20
140.695303937
 10
494.3666159282
 20
140.7041265106
 10
494.3505723707
 20
140.7119453329
  0
LINE
  5
3E4
100
AcDbEntity
  8
0
100
AcDbLine
 62
7
  6
CONTINUOUS
 10
494.7100809301
 20
139.8270336206
 11
494.6209757081
 21
140.1670775663
  0
LINE
  5
3E5
100
AcDbEntity
  8
0
100
AcDbLine
 62
250
  6
CONTINUOUS
 10
503.711610165
 20
132.1586485831
 11
503.7094673796
 21
132.1522149992
  0
LINE
  5
3E6
100
AcDbEntity
  8
0
100
AcDbLine
 62
250
  6
CONTINUOUS
 10
503.9115797041
 20
131.9589226761
 11
503.908384789
 21
131.9493301363
  0
LINE
  5
3E7
100
AcDbEntity
  8
0
100
AcDbLine
 62
7
  6
CONTINUOUS
 10
494.2045473796
 20
103.1205273667
 11
494.3351483796
 21
103.4843563667
  0
LINE
  5
3E8
100
AcDbEntity
  8
0
100
AcDbLine
 62
7
  6
CONTINUOUS
 10
494.3873823796
 20
103.6340733667
 11
494.5893843796
 21
104.1892163667
  0
LINE
  5
3E9
100
AcDbEntity
  8
0
100
AcDbLine
 62
7
  6
CONTINUOUS
 10
494.5005743796
 20
104.3705273667
 11
494.0304773796
 21
103.1205273667
  0
LWPOLYLINE
  5
3EA
100
AcDbEntity
  8
0
100
AcDbPolyline
 62
7
  6
CONTINUOUS
 90
10
 70
0
 10
492.5277484922
 20
107.68481792
 10
492.5388038537
 20
107.7029805097
 10
492.5485274437
 20
107.7214571523
 10
492.5569192624
 20
107.7402478488
 10
492.5639560345
 20
107.7592695269
 10
492.5696610353
 20
107.7786052607
 10
492.5741040901
 20
107.7985042722
 10
492.5773084743
 20
107.8190496372
 10
492.5792509126
 20
107.8401582839
 10
492.5799314051
 20
107.8618302145
  0
LWPOLYLINE
  5
3EB
100
AcDbEntity
  8
0
100
AcDbPolyline
 62
7
  6
CONTINUOUS
 90
10
 70
0
 10
493.0679940252
 20
106.92253965
 10
493.0753061714
 20
106.9339602032
 10
493.0829465243
 20
106.9452997932
 10
493.090915084
 20
106.9565584199
 10
493.0992167123
 20
106.9677496475
 10
493.1078465474
 20
106.9788599113
 10
493.1167900035
 20
106.9898485181
 10
493.1260422186
 20
107.0007019031
 10
493.1356080546
 20
107.0114336306
 10
493.1454875117
 20
107.0220437002
  0
LWPOLYLINE
  5
3EC
100
AcDbEntity
  8
0
100
AcDbPolyline
 62
7
  6
CONTINUOUS
 90
10
 70
0
 10
488.5854152476
 20
108.0510907106
 10
488.5600412473
 20
108.0291037654
 10
488.5335075458
 20
108.0077060147
 10
488.5058141431
 20
107.9868974565
 10
488.4769623165
 20
107.9666516921
 10
488.4469507887
 20
107.9469951161
 10
488.4157757281
 20
107.9280069157
 10
488.3834358576
 20
107.9097134852
 10
488.3499324543
 20
107.892088426
 10
488.3152655183
 20
107.8751317361
  0
LWPOLYLINE
  5
3ED
100
AcDbEntity
  8
0
100
AcDbPolyline
 62
7
  6
CONTINUOUS
 90
10
 70
0
 10
490.9162474161
 20
108.0510907106
 10
490.8908733872
 20
108.0291037405
 10
490.864339667
 20
108.0077059727
 10
490.8366462555
 20
107.9868974053
 10
490.8077944335
 20
107.9666516418
 10
490.7777829202
 20
107.9469950747
 10
490.7466078731
 20
107.9280068844
 10
490.7142680115
 20
107.909713463
 10
490.680764616
 20
107.8920884143
 10
490.6460976868
 20
107.8751317361
  0
LINE
  5
3EE
100
AcDbEntity
  8
0
100
AcDbLine
 62
7
  6
CONTINUOUS
 10
470.040812211
 20
105.7611140975
 11
469.994013992
 21
105.7455273667
  0
LINE
  5
3EF
100
AcDbEntity
  8
0
100
AcDbLine
 62
7
  6
CONTINUOUS
 10
477.2843971294
 20
108.8633560628
 11
477.3569818478
 21
108.8856448533
  0
LINE
  5
3F0
100
AcDbEntity
  8
0
100
AcDbLine
 62
7
  6
CONTINUOUS
 10
477.3569818478
 20
108.8856448533
 11
477.3916041619
 21
108.896113817
  0
LWPOLYLINE
  5
3F1
100
AcDbEntity
  8
0
100
AcDbPolyline
 62
7
  6
CONTINUOUS
 90
46
 70
0
 10
477.2843971294
 20
108.8633560628
 10
477.2754308354
 20
108.8606969817
 10
477.2667071455
 20
108.8583173544
 10
477.2582310325
 20
108.8562041546
 10
477.2500133141
 20
108.8543471683
 10
477.2420508928
 20
108.8527309404
 10
477.2343269324
 20
108.8513357974
 10
477.2268441417
 20
108.8501505292
 10
477.2196040515
 20
108.8491640603
 10
477.2125875539
 20
108.8483590459
 10
477.2057961859
 20
108.8477257447
 10
477.1992301822
 20
108.8472548074
 10
477.1928683218
 20
108.8469315932
 10
477.1867115116
 20
108.8467478149
 10
477.1807590174
 20
108.8466958058
 10
477.1749873248
 20
108.8467640052
 10
477.1693970495
 20
108.8469455241
 10
477.1639869034
 20
108.8472343486
 10
477.158731012
 20
108.847622453
 10
477.1536300451
 20
108.8481042722
 10
477.1486824777
 20
108.848675407
 10
477.1438599788
 20
108.84933191
 10
477.1391636113
 20
108.8500694495
 10
477.1345918832
 20
108.8508852269
 10
477.1301138505
 20
108.8517800809
 10
477.125731356
 20
108.8527508057
 10
477.1214431712
 20
108.8537962595
 10
477.1172154348
 20
108.8549231034
 10
477.113051839
 20
108.8561289367
 10
477.1089510734
 20
108.8574146481
 10
477.1048741724
 20
108.858795017
 10
477.1008215323
 20
108.8602706815
 10
477.0967982363
 20
108.8618429259
 10
477.092775263
 20
108.8635307551
 10
477.0887440756
 20
108.8653417674
 10
477.0847225815
 20
108.8672733031
 10
477.0807229451
 20
108.869330264
 10
477.0767387248
 20
108.8715216366
 10
477.0727865928
 20
108.8738424223
 10
477.0689113788
 20
108.876274366
 10
477.0651190209
 20
108.878816932
 10
477.0614097266
 20
108.8814698118
 10
477.0578157298
 20
108.884211629
 10
477.0543476741
 20
108.8870332529
 10
477.0509967609
 20
108.889939431
 10
477.0477640542
 20
108.892928105
  0
LWPOLYLINE
  5
3F2
100
AcDbEntity
  8
0
100
AcDbPolyline
 62
250
  6
CONTINUOUS
 90
13
 70
0
 10
504.7254905312
 20
131.9724031614
 10
504.7515141265
 20
131.9741770785
 10
504.7770941744
 20
131.9793260643
 10
504.8017945252
 20
131.9877623873
 10
504.8251940209
 20
131.9993422663
 10
504.8468936598
 20
132.0138683123
 10
504.8665234051
 20
132.0310928856
 10
504.8837485249
 20
132.0507223397
 10
504.8982752708
 20
132.0724220051
 10
504.9098558874
 20
132.0958218726
 10
504.9182928745
 20
132.1205229506
 10
504.9234423411
 20
132.1461040762
 10
504.9252164446
 20
132.1721290619
  0
LWPOLYLINE
  5
3F3
100
AcDbEntity
  8
0
100
AcDbPolyline
 62
250
  6
CONTINUOUS
 90
13
 70
0
 10
478.2073550552
 20
131.9589226761
 10
478.2334661213
 20
131.9606564673
 10
478.2591282219
 20
131.965780012
 10
478.2839021517
 20
131.9742048552
 10
478.3073630998
 20
131.9857855083
 10
478.3291109651
 20
132.0003233952
 10
478.3487763974
 20
132.0175714983
 10
478.3660291302
 20
132.0372437216
 10
478.3805645471
 20
132.0589968051
 10
478.3921219261
 20
132.0824312474
 10
478.4005109434
 20
132.1071321696
 10
478.4056038169
 20
132.132683523
 10
478.4073245942
 20
132.1586485831
  0
LINE
  5
3F4
100
AcDbEntity
  8
0
100
AcDbLine
 62
250
  6
CONTINUOUS
 10
504.3583354959
 20
131.982336155
 11
503.9115797041
 21
131.9589226761
  0
LINE
  5
3F5
100
AcDbEntity
  8
0
100
AcDbLine
 62
250
  6
CONTINUOUS
 10
504.2169141396
 20
132.182062062
 11
503.7701583478
 21
132.1586485831
  0
LWPOLYLINE
  5
3F6
100
AcDbEntity
  8
0
100
AcDbPolyline
 62
250
  6
CONTINUOUS
 90
9
 70
0
 10
477.2796007691
 20
132.1780932336
 10
477.262236417
 20
132.1774689547
 10
477.2466761074
 20
132.1768171629
 10
477.2330123727
 20
132.1761430636
 10
477.2212868125
 20
132.1754414513
 10
477.2111822173
 20
132.1746913438
 10
477.2029225004
 20
132.1738857471
 10
477.1969901054
 20
132.1730316553
 10
477.1937183211
 20
132.1721290684
  0
LINE
  5
3F7
100
AcDbEntity
  8
0
100
AcDbLine
 62
250
  6
CONTINUOUS
 10
477.3220837782
 20
132.1792862988
 11
477.2796007691
 21
132.1780932336
  0
LINE
  5
3F8
100
AcDbEntity
  8
0
100
AcDbLine
 62
250
  6
CONTINUOUS
 10
477.3754928853
 20
132.1803742462
 11
477.3220837782
 21
132.1792862988
  0
LINE
  5
3F9
100
AcDbEntity
  8
0
100
AcDbLine
 62
7
  6
CONTINUOUS
 10
478.2105499703
 20
131.9493301363
 11
477.9094673796
 21
131.9451021473
  0
LINE
  5
3FA
100
AcDbEntity
  8
0
100
AcDbLine
 62
250
  6
CONTINUOUS
 10
477.4406041203
 20
132.1812698233
 11
477.3754928853
 21
132.1803742462
  0
LINE
  5
3FB
100
AcDbEntity
  8
0
100
AcDbLine
 62
7
  6
CONTINUOUS
 10
470.2034066722
 20
132.6682760336
 11
470.1537503335
 21
132.6676741406
  0
LWPOLYLINE
  5
3FC
100
AcDbEntity
  8
0
100
AcDbPolyline
 62
7
  6
CONTINUOUS
 90
15
 70
0
 10
511.7997259109
 20
131.7927548341
 10
511.8295620824
 20
131.7929938186
 10
511.8585367701
 20
131.7933864776
 10
511.8869571922
 20
131.7939406819
 10
511.9145161304
 20
131.7946485606
 10
511.9402919299
 20
131.7954865017
 10
511.9641787904
 20
131.7964568423
 10
511.9862825123
 20
131.7975572453
 10
512.005998841
 20
131.7987570866
 10
512.0232861914
 20
131.8000608324
 10
512.0381861486
 20
131.8014640166
 10
512.0502192147
 20
131.8029226166
 10
512.0592255569
 20
131.8044219585
 10
512.0653650079
 20
131.8059767162
 10
512.0686375677
 20
131.8075868898
  0
LWPOLYLINE
  5
3FD
100
AcDbEntity
  8
0
100
AcDbPolyline
 62
250
  6
CONTINUOUS
 90
18
 70
0
 10
477.5728747073
 20
131.9822708177
 10
477.5534415424
 20
131.9821190853
 10
477.5348706403
 20
131.9818809578
 10
477.5169859095
 20
131.9815441509
 10
477.4999634415
 20
131.9811209488
 10
477.484331511
 20
131.9806482051
 10
477.4702986039
 20
131.9801290747
 10
477.4576562343
 20
131.9795604025
 10
477.4463072194
 20
131.978969577
 10
477.4363303881
 20
131.9783675673
 10
477.4276469115
 20
131.9777434042
 10
477.4199231194
 20
131.9770915687
 10
477.4130337947
 20
131.9764170819
 10
477.4071041545
 20
131.9757149227
 10
477.4021761796
 20
131.9749645092
 10
477.3982638637
 20
131.9741589809
 10
477.3953532132
 20
131.9733051983
 10
477.393444228
 20
131.9724031614
  0
LINE
  5
3FE
100
AcDbEntity
  8
0
100
AcDbLine
 62
250
  6
CONTINUOUS
 10
477.5140984651
 20
132.1818446532
 11
477.4406041203
 21
132.1812698233
  0
LINE
  5
3FF
100
AcDbEntity
  8
0
100
AcDbLine
 62
7
  6
CONTINUOUS
 10
470.2883949614
 20
132.6688271101
 11
470.2034066722
 21
132.6682760336
  0
LINE
  5
400
100
AcDbEntity
  8
0
100
AcDbLine
 62
7
  6
CONTINUOUS
 10
511.7997259109
 20
131.7927548341
 11
504.2094673796
 21
131.7926695216
  0
LINE
  5
401
100
AcDbEntity
  8
0
100
AcDbLine
 62
7
  6
CONTINUOUS
 10
512.1065780445
 20
131.8455273667
 11
504.852366326
 21
131.8455273667
  0
LINE
  5
402
100
AcDbEntity
  8
0
100
AcDbLine
 62
7
  6
CONTINUOUS
 10
477.2665684332
 20
131.8455273667
 11
470.0123567148
 21
131.8455273667
  0
LINE
  5
403
100
AcDbEntity
  8
0
100
AcDbLine
 62
250
  6
CONTINUOUS
 10
477.7605992634
 20
131.982336155
 11
477.5728747073
 21
131.9822708177
  0
LINE
  5
404
100
AcDbEntity
  8
0
100
AcDbLine
 62
250
  6
CONTINUOUS
 10
503.7701583478
 20
132.1586485831
 11
503.711610165
 21
132.1586485831
  0
LINE
  5
405
100
AcDbEntity
  8
0
100
AcDbLine
 62
250
  6
CONTINUOUS
 10
478.4073245942
 20
132.1586485831
 11
478.3487764114
 21
132.1586485831
  0
LINE
  5
406
100
AcDbEntity
  8
0
100
AcDbLine
 62
250
  6
CONTINUOUS
 10
477.9020206196
 20
132.182062062
 11
477.5140984651
 21
132.1818446532
  0
LINE
  5
407
100
AcDbEntity
  8
0
100
AcDbLine
 62
7
  6
CONTINUOUS
 10
512.1065780445
 20
132.6516366394
 11
505.052092233
 21
132.6516366394
  0
LINE
  5
408
100
AcDbEntity
  8
0
100
AcDbLine
 62
7
  6
CONTINUOUS
 10
477.0668425263
 20
132.6516366394
 11
470.0123567148
 21
132.6516366394
  0
LINE
  5
409
100
AcDbEntity
  8
0
100
AcDbLine
 62
7
  6
CONTINUOUS
 10
470.2883949614
 20
132.6688271101
 11
477.0149045516
 21
132.66893523
  0
LINE
  5
40A
100
AcDbEntity
  8
0
100
AcDbLine
 62
7
  6
CONTINUOUS
 10
511.8305397722
 20
132.6688271116
 11
505.1040302077
 21
132.66893523
  0
LINE
  5
40B
100
AcDbEntity
  8
0
100
AcDbLine
 62
250
  6
CONTINUOUS
 10
504.543059112
 20
131.9822833982
 11
504.3583354959
 21
131.982336155
  0
LINE
  5
40C
100
AcDbEntity
  8
0
100
AcDbLine
 62
250
  6
CONTINUOUS
 10
504.5930311325
 20
132.1819013563
 11
504.2169141396
 21
132.182062062
  0
LINE
  5
40D
100
AcDbEntity
  8
0
100
AcDbLine
 62
250
  6
CONTINUOUS
 10
504.6534523262
 20
132.1815200552
 11
504.5930311325
 21
132.1819013563
  0
LINE
  5
40E
100
AcDbEntity
  8
0
100
AcDbLine
 62
7
  6
CONTINUOUS
 10
511.9155281216
 20
132.6682760352
 11
511.8305397722
 21
132.6688271116
  0
LINE
  5
40F
100
AcDbEntity
  8
0
100
AcDbLine
 62
250
  6
CONTINUOUS
 10
504.7072468148
 20
132.1809213251
 11
504.6534523262
 21
132.1815200552
  0
LINE
  5
410
100
AcDbEntity
  8
0
100
AcDbLine
 62
7
  6
CONTINUOUS
 10
511.9651844593
 20
132.6676741419
 11
511.9155281216
 21
132.6682760352
  0
LINE
  5
411
100
AcDbEntity
  8
0
100
AcDbLine
 62
7
  6
CONTINUOUS
 10
504.2094673796
 20
131.9451021473
 11
503.908384789
 21
131.9493301363
  0
LINE
  5
412
100
AcDbEntity
  8
0
100
AcDbLine
 62
250
  6
CONTINUOUS
 10
504.7573915801
 20
132.1801292109
 11
504.7072468148
 21
132.1809213251
  0
LWPOLYLINE
  5
413
100
AcDbEntity
  8
0
100
AcDbPolyline
 62
250
  6
CONTINUOUS
 90
4
 70
0
 10
504.603292679
 20
131.9815206043
 10
504.5896019944
 20
131.9817942871
 10
504.575042921
 20
131.9820130127
 10
504.543059112
 20
131.9822833982
  0
LINE
  5
414
100
AcDbEntity
  8
0
100
AcDbLine
 62
250
  6
CONTINUOUS
 10
478.2073550552
 20
131.9589226761
 11
477.7605992634
 21
131.982336155
  0
LINE
  5
415
100
AcDbEntity
  8
0
100
AcDbLine
 62
250
  6
CONTINUOUS
 10
478.3487764114
 20
132.1586485831
 11
477.9020206196
 21
132.182062062
  0
LWPOLYLINE
  5
416
100
AcDbEntity
  8
0
100
AcDbPolyline
 62
250
  6
CONTINUOUS
 90
13
 70
0
 10
503.9115797041
 20
131.9589226761
 10
503.8854688477
 20
131.9606564395
 10
503.8598069521
 20
131.9657799006
 10
503.8350332111
 20
131.9742046049
 10
503.811572458
 20
131.9857850469
 10
503.7898247438
 20
132.0003226663
 10
503.7701593248
 20
132.0175705355
 10
503.7529064631
 20
132.0372426347
 10
503.7383708462
 20
132.0589957069
 10
503.7268132457
 20
132.0824302516
 10
503.7184240249
 20
132.1071313904
 10
503.713331001
 20
132.1326830793
 10
503.711610165
 20
132.1586485831
  0
LWPOLYLINE
  5
417
100
AcDbEntity
  8
0
100
AcDbPolyline
 62
250
  6
CONTINUOUS
 90
13
 70
0
 10
477.393444228
 20
131.9724031614
 10
477.3674198677
 20
131.9741771812
 10
477.3418392417
 20
131.9793264272
 10
477.3171385187
 20
131.987763101
 10
477.2937388643
 20
131.9993433507
 10
477.2720392599
 20
132.0138697249
 10
477.2524097002
 20
132.0310945384
 10
477.2351848839
 20
132.0507240953
 10
477.2206585068
 20
132.0724236974
 10
477.2090782554
 20
132.095823351
 10
477.2006415818
 20
132.1205240752
 10
477.1954923376
 20
132.1461047039
 10
477.1937183211
 20
132.1721290684
  0
LWPOLYLINE
  5
418
100
AcDbEntity
  8
0
100
AcDbPolyline
 62
250
  6
CONTINUOUS
 90
11
 70
0
 10
477.1937183211
 20
135.3189259059
 10
477.1978774057
 20
135.3178535968
 10
477.2060633624
 20
135.3168201331
 10
477.2181709308
 20
135.315825515
 10
477.2340379958
 20
135.3148616754
 10
477.2534941641
 20
135.3139366813
 10
477.276398792
 20
135.3130747334
 10
477.3025487725
 20
135.3122762388
 10
477.3316780478
 20
135.3115407903
 10
477.3635435861
 20
135.3108913675
 10
477.434268865
 20
135.3098551518
  0
LINE
  5
419
100
AcDbEntity
  8
0
100
AcDbLine
 62
7
  6
CONTINUOUS
 10
477.3392531554
 20
135.6108132271
 11
477.3916041987
 21
135.5949409123
  0
LINE
  5
41A
100
AcDbEntity
  8
0
100
AcDbLine
 62
7
  6
CONTINUOUS
 10
477.2843971294
 20
135.6276986705
 11
477.3392531554
 21
135.6108132271
  0
LINE
  5
41B
100
AcDbEntity
  8
0
100
AcDbLine
 62
7
  6
CONTINUOUS
 10
470.040812211
 20
138.7299406358
 11
469.994013992
 21
138.7455273667
  0
LWPOLYLINE
  5
41C
100
AcDbEntity
  8
0
100
AcDbPolyline
 62
250
  6
CONTINUOUS
 90
14
 70
0
 10
512.4470201818
 20
107.1865198373
 10
512.3715898437
 20
107.3090186947
 10
512.3487343541
 20
107.3457763941
 10
512.3270275531
 20
107.3801057348
 10
512.3064977031
 20
107.4122221066
 10
512.2872391252
 20
107.4417243104
 10
512.2691574983
 20
107.4686708869
 10
512.251998121
 20
107.4937346708
 10
512.2355671385
 20
107.5167265678
 10
512.2200584055
 20
107.5370606943
 10
512.2057987857
 20
107.5544999495
 10
512.1928972335
 20
107.5686248893
 10
512.1812447944
 20
107.5789344281
 10
512.1708414683
 20
107.5849977165
  0
LWPOLYLINE
  5
41D
100
AcDbEntity
  8
0
100
AcDbPolyline
 62
7
  6
CONTINUOUS
 90
9
 70
0
 10
512.1182974595
 20
107.8308707738
 10
512.1123448959
 20
107.8406223116
 10
512.1065379264
 20
107.8500240208
 10
512.1008802466
 20
107.8590626254
 10
512.0953681609
 20
107.8677514014
 10
512.0899905821
 20
107.8761301765
 10
512.0847438146
 20
107.8842122265
 10
512.0796315539
 20
107.8919842756
 10
512.0746538002
 20
107.8994463238
  0
LINE
  5
41E
100
AcDbEntity
  8
0
100
AcDbLine
 62
7
  6
CONTINUOUS
 10
512.1694673796
 20
107.7455273667
 11
512.1182974595
 21
107.8308707738
  0
LINE
  5
41F
100
AcDbEntity
  8
0
100
AcDbLine
 62
7
  6
CONTINUOUS
 10
495.4161053796
 20
136.2955273667
 11
494.7556483796
 21
138.1955273667
  0
LWPOLYLINE
  5
420
100
AcDbEntity
  8
0
100
AcDbPolyline
 62
7
  6
CONTINUOUS
 90
6
 70
0
 10
494.155123259
 20
140.4033682048
 10
494.1754346597
 20
140.3438596117
 10
494.1952698374
 20
140.2831474289
 10
494.2146287919
 20
140.2212316415
 10
494.2332210562
 20
140.1580169299
 10
494.2698483168
 20
140.0282624971
  0
LINE
  5
421
100
AcDbEntity
  8
0
100
AcDbLine
 62
250
  6
CONTINUOUS
 10
503.711610165
 20
112.3324061503
 11
503.7094673796
 21
112.3388397341
  0
LINE
  5
422
100
AcDbEntity
  8
0
100
AcDbLine
 62
250
  6
CONTINUOUS
 10
503.9115797041
 20
112.5321320572
 11
503.908384789
 21
112.541724597
  0
LINE
  5
423
100
AcDbEntity
  8
0
100
AcDbLine
 62
250
  6
CONTINUOUS
 10
503.711610165
 20
135.3324061503
 11
503.711610165
 21
132.1586485831
  0
LINE
  5
424
100
AcDbEntity
  8
0
100
AcDbLine
 62
250
  6
CONTINUOUS
 10
503.711610165
 20
112.3324061503
 11
503.711610165
 21
109.1586485831
  0
LINE
  5
425
100
AcDbEntity
  8
0
100
AcDbLine
 62
250
  6
CONTINUOUS
 10
503.7701583478
 20
135.3324061503
 11
503.7701583478
 21
132.1586485831
  0
LINE
  5
426
100
AcDbEntity
  8
0
100
AcDbLine
 62
250
  6
CONTINUOUS
 10
503.7701583478
 20
112.3324061503
 11
503.7701583478
 21
109.1586485831
  0
LWPOLYLINE
  5
427
100
AcDbEntity
  8
0
100
AcDbPolyline
 62
7
  6
CONTINUOUS
 90
10
 70
0
 10
493.5263842398
 20
107.6172872441
 10
493.4977163307
 20
107.5822251138
 10
493.4669310788
 20
107.5472132842
 10
493.4340284843
 20
107.512251755
 10
493.3988722735
 20
107.4774650273
 10
493.3615987199
 20
107.4427285992
 10
493.3226166444
 20
107.407668969
 10
493.2820623205
 20
107.3721616386
 10
493.2397994746
 20
107.336331111
 10
493.1653562203
 20
107.2751085392
  0
LWPOLYLINE
  5
428
100
AcDbEntity
  8
0
100
AcDbPolyline
 62
7
  6
CONTINUOUS
 90
10
 70
0
 10
492.9544196396
 20
107.0729489126
 10
492.9365841809
 20
107.0511768185
 10
492.919812384
 20
107.0292951351
 10
492.9041042488
 20
107.0073038631
 10
492.8894344975
 20
106.9851776094
 10
492.875828408
 20
106.9629417681
 10
492.8633618135
 20
106.9406725196
 10
492.8520599917
 20
106.9183952574
 10
492.8418976649
 20
106.8960845883
 10
492.8328748331
 20
106.8737405125
  0
LWPOLYLINE
  5
429
100
AcDbEntity
  8
0
100
AcDbPolyline
 62
7
  6
CONTINUOUS
 90
10
 70
0
 10
493.6422587862
 20
107.4748351841
 10
493.6597745121
 20
107.4948374656
 10
493.6763547934
 20
107.5149377077
 10
493.6919996302
 20
107.5351359105
 10
493.7067554022
 20
107.5554411825
 10
493.7205757297
 20
107.575844416
 10
493.7333214731
 20
107.5963182873
 10
493.7449462525
 20
107.6168536887
 10
493.7554964479
 20
107.6374597284
 10
493.7649720591
 20
107.6581364066
  0
LWPOLYLINE
  5
42A
100
AcDbEntity
  8
0
100
AcDbPolyline
 62
7
  6
CONTINUOUS
 90
10
 70
0
 10
492.5101106576
 20
106.8552641059
 10
492.5404440721
 20
106.8868108618
 10
492.5671313244
 20
106.9196188235
 10
492.5901724146
 20
106.9536879987
 10
492.6095024756
 20
106.9888709648
 10
492.6251863745
 20
107.0253151596
 10
492.6374187121
 20
107.0634628834
 10
492.6462643553
 20
107.1034615792
 10
492.6516584372
 20
107.1451638289
 10
492.6536009579
 20
107.1885696449
  0
LWPOLYLINE
  5
42B
100
AcDbEntity
  8
0
100
AcDbPolyline
 62
7
  6
CONTINUOUS
 90
6
 70
0
 10
493.1454875117
 20
107.0220437002
 10
493.1657880645
 20
107.041774716
 10
493.1869618527
 20
107.0617854889
 10
493.2090088762
 20
107.08207602
 10
493.2319705644
 20
107.1025919064
 10
493.2558054879
 20
107.1233875529
  0
LWPOLYLINE
  5
42C
100
AcDbEntity
  8
0
100
AcDbPolyline
 62
7
  6
CONTINUOUS
 90
10
 70
0
 10
492.9930801352
 20
108.1403923188
 10
492.9664679758
 20
108.114989896
 10
492.942405054
 20
108.0869405614
 10
492.92089137
 20
108.0562443276
 10
492.9018661311
 20
108.0228512066
 10
492.8853901299
 20
107.9868112161
 10
492.8716457436
 20
107.948274378
 10
492.8606937646
 20
107.9072907108
 10
492.8524734006
 20
107.8638102306
 10
492.8469846516
 20
107.8178329566
  0
LWPOLYLINE
  5
42D
100
AcDbEntity
  8
0
100
AcDbPolyline
 62
7
  6
CONTINUOUS
 90
10
 70
0
 10
492.3683869232
 20
106.9611679014
 10
492.3479127024
 20
106.9422610751
 10
492.3265250872
 20
106.9256076167
 10
492.3042240779
 20
106.9112075194
 10
492.2810863237
 20
106.8990884522
 10
492.2570351754
 20
106.8892227349
 10
492.2318406843
 20
106.8815273385
 10
492.2054262011
 20
106.8759745847
 10
492.1778683753
 20
106.8725921464
 10
492.1491672068
 20
106.8713800223
  0
LWPOLYLINE
  5
42E
100
AcDbEntity
  8
0
100
AcDbPolyline
 62
7
  6
CONTINUOUS
 90
10
 70
0
 10
493.1171073286
 20
108.0194019475
 10
493.1352946266
 20
108.0360363503
 10
493.1548347386
 20
108.050738827
 10
493.1757276647
 20
108.0635093727
 10
493.1979572163
 20
108.0743609832
 10
493.221539582
 20
108.083280655
 10
493.2465233272
 20
108.0902293844
 10
493.2729246403
 20
108.0951941689
 10
493.300727333
 20
108.0981880071
 10
493.3299314051
 20
108.0992108979
  0
LWPOLYLINE
  5
42F
100
AcDbEntity
  8
0
100
AcDbPolyline
 62
7
  6
CONTINUOUS
 90
10
 70
0
 10
491.8432326584
 20
108.1493472853
 10
491.8183718346
 20
108.1266199642
 10
491.795412654
 20
108.1016032323
 10
491.7743551166
 20
108.0742970994
 10
491.7551322077
 20
108.0446841748
 10
491.7378109421
 20
108.0127818718
 10
491.7225923638
 20
107.9786424075
 10
491.7095434876
 20
107.9422831964
 10
491.6985972989
 20
107.9036868515
 10
491.6897537975
 20
107.8628533879
  0
LWPOLYLINE
  5
430
100
AcDbEntity
  8
0
100
AcDbPolyline
 62
7
  6
CONTINUOUS
 90
10
 70
0
 10
491.9657735378
 20
108.0329581959
 10
491.9817600599
 20
108.0468640898
 10
491.9987068159
 20
108.0591745707
 10
492.0166138059
 20
108.0698896351
 10
492.0354494055
 20
108.079025653
 10
492.0552452389
 20
108.0865662492
 10
492.0760961792
 20
108.0924623024
 10
492.0980338505
 20
108.096697438
 10
492.1210266286
 20
108.0992880279
 10
492.1450745134
 20
108.1002340713
  0
LWPOLYLINE
  5
431
100
AcDbEntity
  8
0
100
AcDbPolyline
 62
7
  6
CONTINUOUS
 90
9
 70
0
 10
493.1653562203
 20
107.2751085392
 10
493.1357510619
 20
107.2500315896
 10
493.1070126318
 20
107.2249465399
 10
493.0790803261
 20
107.1999021768
 10
493.0520147486
 20
107.1748497136
 10
493.0259977101
 20
107.1496427907
 10
493.0010898143
 20
107.1242326224
 10
492.9772304574
 20
107.0986679961
 10
492.9544196396
 20
107.0729489126
  0
LWPOLYLINE
  5
432
100
AcDbEntity
  8
0
100
AcDbPolyline
 62
7
  6
CONTINUOUS
 90
10
 70
0
 10
488.5088722922
 20
107.7918740049
 10
488.5307671408
 20
107.8050313219
 10
488.5520719267
 20
107.8184183918
 10
488.5727866499
 20
107.832035215
 10
488.5929508998
 20
107.8458607554
 10
488.612525087
 20
107.8599160502
 10
488.6313904432
 20
107.8742642098
 10
488.649507379
 20
107.8889262714
 10
488.6669154838
 20
107.9038811992
 10
488.6836147575
 20
107.919128994
  0
LWPOLYLINE
  5
433
100
AcDbEntity
  8
0
100
AcDbPolyline
 62
7
  6
CONTINUOUS
 90
10
 70
0
 10
490.8397044809
 20
107.7918739704
 10
490.8615993368
 20
107.8050312884
 10
490.8829041271
 20
107.8184183594
 10
490.9036188516
 20
107.832035184
 10
490.9237831007
 20
107.8458607255
 10
490.9433572842
 20
107.8599160216
 10
490.962222631
 20
107.8742641846
 10
490.980339551
 20
107.8889262524
 10
490.9977476344
 20
107.9038811887
 10
491.0144468813
 20
107.919128994
  0
LWPOLYLINE
  5
434
100
AcDbEntity
  8
0
100
AcDbPolyline
 62
7
  6
CONTINUOUS
 90
10
 70
0
 10
488.3152655183
 20
107.6970962682
 10
488.3364751653
 20
107.7051396055
 10
488.3577584735
 20
107.7138335546
 10
488.379115443
 20
107.7231781165
 10
488.4005435498
 20
107.733211604
 10
488.4220453179
 20
107.7438957065
 10
488.443628319
 20
107.7551154903
 10
488.465295077
 20
107.7668326448
 10
488.4870430681
 20
107.7790854826
 10
488.5088722922
 20
107.7918740049
  0
LWPOLYLINE
  5
435
100
AcDbEntity
  8
0
100
AcDbPolyline
 62
250
  6
CONTINUOUS
 90
13
 70
0
 10
504.3583354959
 20
135.5087185783
 10
504.3402807497
 20
135.506142886
 10
504.3225221935
 20
135.5003456104
 10
504.3053499368
 20
135.4914220916
 10
504.289045141
 20
135.4795193252
 10
504.2738731585
 20
135.4648319605
 10
504.2600797679
 20
135.4475978693
 10
504.2478858931
 20
135.4280894751
 10
504.2374973699
 20
135.4066319991
 10
504.2290927393
 20
135.3836024429
 10
504.2228047351
 20
135.3593902435
 10
504.2187254493
 20
135.3343843114
 10
504.2169141396
 20
135.3089926713
  0
LWPOLYLINE
  5
436
100
AcDbEntity
  8
0
100
AcDbPolyline
 62
250
  6
CONTINUOUS
 90
13
 70
0
 10
477.7605992634
 20
131.982336155
 10
477.7786540096
 20
131.9849118473
 10
477.7964125658
 20
131.990709123
 10
477.8135848225
 20
131.9996326417
 10
477.8298896183
 20
132.0115354082
 10
477.8450616008
 20
132.0262227729
 10
477.8588549914
 20
132.0434568642
 10
477.8710488662
 20
132.0629652584
 10
477.8814373894
 20
132.0844227343
 10
477.88984202
 20
132.1074522905
 10
477.8961300242
 20
132.1316644899
 10
477.9002093099
 20
132.156670422
 10
477.9020206196
 20
132.182062062
  0
LWPOLYLINE
  5
437
100
AcDbEntity
  8
0
100
AcDbPolyline
 62
250
  6
CONTINUOUS
 90
13
 70
0
 10
503.9115797041
 20
135.5321320572
 10
503.893531712
 20
135.5295579438
 10
503.8757787839
 20
135.5237643068
 10
503.8586108055
 20
135.5148459336
 10
503.8423089596
 20
135.5029493674
 10
503.8271383836
 20
135.4882685966
 10
503.8133445231
 20
135.4710403915
 10
503.8011487816
 20
135.4515368339
 10
503.7907571204
 20
135.4300822667
 10
503.7823479521
 20
135.4070513051
 10
503.776054941
 20
135.3828321953
 10
503.7719715945
 20
135.3578143652
 10
503.7701583478
 20
135.3324061503
  0
LWPOLYLINE
  5
438
100
AcDbEntity
  8
0
100
AcDbPolyline
 62
250
  6
CONTINUOUS
 90
13
 70
0
 10
478.2073550552
 20
131.9589226761
 10
478.2254030473
 20
131.9614967895
 10
478.2431559754
 20
131.9672904266
 10
478.2603239538
 20
131.9762087997
 10
478.2766257996
 20
131.9881053659
 10
478.2917963757
 20
132.0027861367
 10
478.3055902362
 20
132.0200143418
 10
478.3177859777
 20
132.0395178995
 10
478.3281776388
 20
132.0609724666
 10
478.3365868071
 20
132.0840034283
 10
478.3428798183
 20
132.108222538
 10
478.3469631647
 20
132.1332403681
 10
478.3487764114
 20
132.1586485831
  0
LWPOLYLINE
  5
439
100
AcDbEntity
  8
0
100
AcDbPolyline
 62
250
  6
CONTINUOUS
 90
13
 70
0
 10
503.9115797041
 20
135.5321320572
 10
503.8854686379
 20
135.530398266
 10
503.8598065373
 20
135.5252747213
 10
503.8350326076
 20
135.5168498781
 10
503.8115716595
 20
135.5052692251
 10
503.7898237941
 20
135.4907313382
 10
503.7701583619
 20
135.473483235
 10
503.7529056291
 20
135.4538110117
 10
503.7383702121
 20
135.4320579282
 10
503.7268128332
 20
135.4086234859
 10
503.7184238159
 20
135.3839225637
 10
503.7133309423
 20
135.3583712104
 10
503.711610165
 20
135.3324061503
  0
LWPOLYLINE
  5
43A
100
AcDbEntity
  8
0
100
AcDbPolyline
 62
7
  6
CONTINUOUS
 90
7
 70
0
 10
470.1119536285
 20
132.6669087976
 10
470.0946812268
 20
132.6664751391
 10
470.0797982653
 20
132.6660084807
 10
470.0677807784
 20
132.6655235122
 10
470.0587874442
 20
132.66502513
 10
470.0526595846
 20
132.6645084377
 10
470.0493971996
 20
132.6639734351
  0
LWPOLYLINE
  5
43B
100
AcDbEntity
  8
0
100
AcDbPolyline
 62
250
  6
CONTINUOUS
 90
10
 70
0
 10
504.7530545472
 20
135.310848755
 10
504.7849855521
 20
135.3114903303
 10
504.8143263013
 20
135.3122195717
 10
504.8407992755
 20
135.3130161202
 10
504.8641226879
 20
135.3138821602
 10
504.8840176268
 20
135.3148155073
 10
504.9002475812
 20
135.3157892486
 10
504.912618956
 20
135.3167944133
 10
504.9209797119
 20
135.3178399723
 10
504.9252164382
 20
135.3189259257
  0
LINE
  5
43C
100
AcDbEntity
  8
0
100
AcDbLine
 62
7
  6
CONTINUOUS
 10
470.1537503335
 20
132.6676741406
 11
470.1119536285
 21
132.6669087976
  0
LWPOLYLINE
  5
43D
100
AcDbEntity
  8
0
100
AcDbPolyline
 62
250
  6
CONTINUOUS
 90
13
 70
0
 10
478.2073550552
 20
135.5321320572
 10
478.2334659115
 20
135.5303982938
 10
478.2591278072
 20
135.5252748327
 10
478.2839015481
 20
135.5168501285
 10
478.3073623012
 20
135.5052696864
 10
478.3291100155
 20
135.490732067
 10
478.3487754345
 20
135.4734841979
 10
478.3660282961
 20
135.4538120986
 10
478.3805639131
 20
135.4320590264
 10
478.3921215135
 20
135.4086244818
 10
478.4005107344
 20
135.3839233429
 10
478.4056037583
 20
135.358371654
 10
478.4073245942
 20
135.3324061503
  0
LWPOLYLINE
  5
43E
100
AcDbEntity
  8
0
100
AcDbPolyline
 62
250
  6
CONTINUOUS
 90
13
 70
0
 10
477.7605992634
 20
135.5087185783
 10
477.7786538695
 20
135.5061429187
 10
477.7964122896
 20
135.5003457268
 10
477.8135844211
 20
135.4914223413
 10
477.829889088
 20
135.4795197731
 10
477.8450609697
 20
135.4648326558
 10
477.8588543485
 20
135.4475987782
 10
477.8710483037
 20
135.4280904954
 10
477.881436955
 20
135.4066330275
 10
477.8898417304
 20
135.3836033741
 10
477.8961298709
 20
135.3593909712
 10
477.9002092615
 20
135.3343847255
 10
477.9020206196
 20
135.3089926713
  0
LWPOLYLINE
  5
43F
100
AcDbEntity
  8
0
100
AcDbPolyline
 62
250
  6
CONTINUOUS
 90
13
 70
0
 10
478.2073550552
 20
135.5321320572
 10
478.2254031626
 20
135.5295579168
 10
478.2431562
 20
135.5237642121
 10
478.260324276
 20
135.5148457332
 10
478.2766262187
 20
135.5029490135
 10
478.2917968678
 20
135.4882680545
 10
478.3055907333
 20
135.471039689
 10
478.3177864089
 20
135.4515360518
 10
478.3281779686
 20
135.4300814864
 10
478.3365870251
 20
135.4070506043
 10
478.3428799331
 20
135.3828316504
 10
478.3469632008
 20
135.3578140564
 10
478.3487764114
 20
135.3324061503
  0
LWPOLYLINE
  5
440
100
AcDbEntity
  8
0
100
AcDbPolyline
 62
250
  6
CONTINUOUS
 90
13
 70
0
 10
503.9115797041
 20
131.9589226761
 10
503.8935315966
 20
131.9614968165
 10
503.8757785593
 20
131.9672905212
 10
503.8586104832
 20
131.9762090001
 10
503.8423085405
 20
131.9881057199
 10
503.8271378914
 20
132.0027866789
 10
503.813344026
 20
132.0200150443
 10
503.8011483503
 20
132.0395186815
 10
503.7907567906
 20
132.060973247
 10
503.7823477341
 20
132.0840041291
 10
503.7760548261
 20
132.1082230829
 10
503.7719715584
 20
132.133240677
 10
503.7701583478
 20
132.1586485831
  0
LWPOLYLINE
  5
441
100
AcDbEntity
  8
0
100
AcDbPolyline
 62
250
  6
CONTINUOUS
 90
13
 70
0
 10
504.3583354959
 20
131.982336155
 10
504.3402808897
 20
131.9849118146
 10
504.3225224696
 20
131.9907090065
 10
504.3053503381
 20
131.999632392
 10
504.2890456712
 20
132.0115349602
 10
504.2738737895
 20
132.0262220775
 10
504.2600804108
 20
132.0434559552
 10
504.2478864555
 20
132.062964238
 10
504.2374978042
 20
132.0844217058
 10
504.2290930288
 20
132.1074513592
 10
504.2228048884
 20
132.1316637621
 10
504.2187254977
 20
132.1566700078
 10
504.2169141396
 20
132.182062062
  0
LWPOLYLINE
  5
442
100
AcDbEntity
  8
0
100
AcDbPolyline
 62
7
  6
CONTINUOUS
 90
8
 70
0
 10
477.3916041987
 20
135.5949409123
 10
477.3942115296
 20
135.5945000808
 10
477.3977424736
 20
135.5941182281
 10
477.4021970304
 20
135.5937953542
 10
477.4078203514
 20
135.5935306102
 10
477.4143672853
 20
135.593324845
 10
477.4211023787
 20
135.5931806055
 10
477.4277072507
 20
135.5931169891
  0
LINE
  5
443
100
AcDbEntity
  8
0
100
AcDbLine
 62
7
  6
CONTINUOUS
 10
511.9146362443
 20
105.765511536
 11
511.924627568
 21
105.7455273667
  0
LWPOLYLINE
  5
444
100
AcDbEntity
  8
0
100
AcDbPolyline
 62
250
  6
CONTINUOUS
 90
13
 70
0
 10
504.9252164382
 20
112.3189256649
 10
504.923442265
 20
112.3449511927
 10
504.9182926103
 20
112.3705327522
 10
504.9098553549
 20
112.3952341392
 10
504.8982744227
 20
112.4186341936
 10
504.8837473564
 20
112.4403339146
 10
504.8665219724
 20
112.45996328
 10
504.8468920654
 20
112.4771876459
 10
504.8251923956
 20
112.4917134082
 10
504.8017930366
 20
112.5032929655
 10
504.7770930077
 20
112.5117289834
 10
504.7515134604
 20
112.5168777422
 10
504.7254905281
 20
112.5186515688
  0
LINE
  5
445
100
AcDbEntity
  8
0
100
AcDbLine
 62
7
  6
CONTINUOUS
 10
504.2094673796
 20
131.9451021473
 11
504.2094673796
 21
131.7926695216
  0
LINE
  5
446
100
AcDbEntity
  8
0
100
AcDbLine
 62
7
  6
CONTINUOUS
 10
504.2094673796
 20
108.9451021473
 11
504.2094673796
 21
108.7973852311
  0
LINE
  5
447
100
AcDbEntity
  8
0
100
AcDbLine
 62
7
  6
CONTINUOUS
 10
504.2094673796
 20
112.545952586
 11
504.2094673796
 21
112.6983852117
  0
LINE
  5
448
100
AcDbEntity
  8
0
100
AcDbLine
 62
7
  6
CONTINUOUS
 10
504.2094673796
 20
135.545952586
 11
504.2094673796
 21
135.6936695022
  0
LINE
  5
449
100
AcDbEntity
  8
0
100
AcDbLine
 62
250
  6
CONTINUOUS
 10
504.2169141396
 20
135.3089926713
 11
504.2169141396
 21
132.182062062
  0
LINE
  5
44A
100
AcDbEntity
  8
0
100
AcDbLine
 62
250
  6
CONTINUOUS
 10
504.2169141396
 20
112.3089926713
 11
504.2169141396
 21
109.182062062
  0
LINE
  5
44B
100
AcDbEntity
  8
0
100
AcDbLine
 62
250
  6
CONTINUOUS
 10
504.3583354959
 20
108.982336155
 11
504.3583354959
 21
112.5087185783
  0
LINE
  5
44C
100
AcDbEntity
  8
0
100
AcDbLine
 62
250
  6
CONTINUOUS
 10
504.3583354959
 20
131.982336155
 11
504.3583354959
 21
135.5087185783
  0
LINE
  5
44D
100
AcDbEntity
  8
0
100
AcDbLine
 62
250
  6
CONTINUOUS
 10
504.5257646243
 20
108.982336155
 11
504.5257646243
 21
112.5087185783
  0
LINE
  5
44E
100
AcDbEntity
  8
0
100
AcDbLine
 62
250
  6
CONTINUOUS
 10
504.5257646243
 20
131.982336155
 11
504.5257646243
 21
135.5087185783
  0
LINE
  5
44F
100
AcDbEntity
  8
0
100
AcDbLine
 62
250
  6
CONTINUOUS
 10
504.9252164382
 20
135.3189256649
 11
504.9252164382
 21
132.1721290684
  0
LINE
  5
450
100
AcDbEntity
  8
0
100
AcDbLine
 62
250
  6
CONTINUOUS
 10
504.9252164382
 20
112.3189256649
 11
504.9252164382
 21
109.1721290684
  0
LINE
  5
451
100
AcDbEntity
  8
0
100
AcDbLine
 62
7
  6
CONTINUOUS
 10
505.052092233
 20
132.6516366394
 11
505.052092233
 21
132.0452532736
  0
LINE
  5
452
100
AcDbEntity
  8
0
100
AcDbLine
 62
7
  6
CONTINUOUS
 10
505.052092233
 20
111.8394180939
 11
505.052092233
 21
112.4458014597
  0
LWPOLYLINE
  5
453
100
AcDbEntity
  8
0
100
AcDbPolyline
 62
7
  6
CONTINUOUS
 90
7
 70
0
 10
505.1005143016
 20
108.996831205
 10
505.0996535933
 20
108.9785851881
 10
505.0971325707
 20
108.9605152052
 10
505.0929775908
 20
108.9427708252
 10
505.0872284043
 20
108.9254981632
 10
505.0799377267
 20
108.9088386922
 10
505.071170705
 20
108.892928105
  0
LWPOLYLINE
  5
454
100
AcDbEntity
  8
0
100
AcDbPolyline
 62
250
  6
CONTINUOUS
 90
13
 70
0
 10
503.711610165
 20
112.3324061503
 10
503.713331001
 20
112.358371654
 10
503.7184240249
 20
112.3839233429
 10
503.7268132457
 20
112.4086244818
 10
503.7383708462
 20
112.4320590264
 10
503.7529064631
 20
112.4538120986
 10
503.7701593248
 20
112.4734841979
 10
503.7898247438
 20
112.490732067
 10
503.811572458
 20
112.5052696864
 10
503.8350332111
 20
112.5168501285
 10
503.8598069521
 20
112.5252748327
 10
503.8854688477
 20
112.5303982938
 10
503.9115797041
 20
112.5321320572
  0
LWPOLYLINE
  5
455
100
AcDbEntity
  8
0
100
AcDbPolyline
 62
250
  6
CONTINUOUS
 90
13
 70
0
 10
503.7701583478
 20
112.3324061503
 10
503.7719715584
 20
112.3578140564
 10
503.7760548261
 20
112.3828316504
 10
503.7823477341
 20
112.4070506043
 10
503.7907567907
 20
112.4300814864
 10
503.8011483503
 20
112.4515360518
 10
503.813344026
 20
112.471039689
 10
503.8271378914
 20
112.4882680545
 10
503.8423085405
 20
112.5029490135
 10
503.8586104832
 20
112.5148457332
 10
503.8757785593
 20
112.5237642121
 10
503.8935315966
 20
112.5295579168
 10
503.9115797041
 20
112.5321320572
  0
LWPOLYLINE
  5
456
100
AcDbEntity
  8
0
100
AcDbPolyline
 62
250
  6
CONTINUOUS
 90
13
 70
0
 10
504.2169141396
 20
112.3089926713
 10
504.2187254977
 20
112.3343847255
 10
504.2228048884
 20
112.3593909712
 10
504.2290930288
 20
112.3836033741
 10
504.2374978042
 20
112.4066330275
 10
504.2478864555
 20
112.4280904954
 10
504.2600804108
 20
112.4475987782
 10
504.2738737895
 20
112.4648326558
 10
504.2890456712
 20
112.4795197731
 10
504.3053503381
 20
112.4914223413
 10
504.3225224696
 20
112.5003457268
 10
504.3402808897
 20
112.5061429187
 10
504.3583354959
 20
112.5087185783
  0
LINE
  5
457
100
AcDbEntity
  8
0
100
AcDbLine
 62
7
  6
CONTINUOUS
 10
497.0737043796
 20
104.3705273667
 11
496.7151323796
 21
103.7698403667
  0
LINE
  5
458
100
AcDbEntity
  8
0
100
AcDbLine
 62
7
  6
CONTINUOUS
 10
496.8003523796
 20
103.6236613667
 11
497.2722483796
 21
104.3705273667
  0
LWPOLYLINE
  5
459
100
AcDbEntity
  8
0
100
AcDbPolyline
 62
7
  6
CONTINUOUS
 90
9
 70
0
 10
493.3941149703
 20
107.2413365184
 10
493.4287459771
 20
107.2712475765
 10
493.4624033852
 20
107.3008962727
 10
493.495148064
 20
107.3302249608
 10
493.5269191442
 20
107.3592912837
 10
493.5575340174
 20
107.3882681746
 10
493.586931814
 20
107.4172132777
 10
493.6151734036
 20
107.4460689477
 10
493.6422587862
 20
107.4748351841
  0
LINE
  5
45A
100
AcDbEntity
  8
0
100
AcDbLine
 62
7
  6
CONTINUOUS
 10
493.2558054879
 20
107.1233875529
 11
493.3056807468
 21
107.166362171
  0
LINE
  5
45B
100
AcDbEntity
  8
0
100
AcDbLine
 62
7
  6
CONTINUOUS
 10
493.3056807468
 20
107.166362171
 11
493.3941149703
 21
107.2413365184
  0
LWPOLYLINE
  5
45C
100
AcDbEntity
  8
0
100
AcDbPolyline
 62
7
  6
CONTINUOUS
 90
10
 70
0
 10
492.2963553984
 20
107.6768665183
 10
492.2749959674
 20
107.6639421819
 10
492.2531603709
 20
107.6525468705
 10
492.2308486088
 20
107.642680581
 10
492.2081448422
 20
107.6343563219
 10
492.1849649101
 20
107.6275610798
 10
492.1610563295
 20
107.6222558192
 10
492.1363349395
 20
107.6184275277
 10
492.1108849009
 20
107.6160892154
 10
492.0847062139
 20
107.6152408817
  0
LWPOLYLINE
  5
45D
100
AcDbEntity
  8
0
100
AcDbPolyline
 62
7
  6
CONTINUOUS
 90
10
 70
0
 10
492.373246458
 20
107.5579421022
 10
492.3956693198
 20
107.5689247402
 10
492.4167946801
 20
107.5807306456
 10
492.436622539
 20
107.5933598202
 10
492.4551748843
 20
107.6068717363
 10
492.4724297282
 20
107.6212069253
 10
492.4883211073
 20
107.6361869777
 10
492.5028270337
 20
107.6517524245
 10
492.5159694954
 20
107.667962738
 10
492.5277484922
 20
107.68481792
  0
LWPOLYLINE
  5
45E
100
AcDbEntity
  8
0
100
AcDbPolyline
 62
250
  6
CONTINUOUS
 90
12
 70
0
 10
504.7254905312
 20
112.5186515719
 10
504.7229804301
 20
112.5175537627
 10
504.7188645644
 20
112.5165150958
 10
504.7131429341
 20
112.5155355714
 10
504.7055704024
 20
112.5146093557
 10
504.6963921062
 20
112.5137422824
 10
504.6863434563
 20
112.5129518522
 10
504.6754756766
 20
112.512245661
 10
504.6637375432
 20
112.5116161128
 10
504.651710795
 20
112.5110579211
 10
504.6396211942
 20
112.5105756717
 10
504.6272429786
 20
112.5101647788
  0
LWPOLYLINE
  5
45F
100
AcDbEntity
  8
0
100
AcDbPolyline
 62
7
  6
CONTINUOUS
 90
10
 70
0
 10
490.6460976868
 20
107.6970962682
 10
490.6673073363
 20
107.7051396046
 10
490.6885906473
 20
107.7138335518
 10
490.7099476196
 20
107.7231781108
 10
490.7313757296
 20
107.7332115937
 10
490.752877501
 20
107.7438956906
 10
490.7744605047
 20
107.7551154691
 10
490.7961272645
 20
107.7668326188
 10
490.8178752565
 20
107.7790854523
 10
490.8397044809
 20
107.7918739704
  0
LWPOLYLINE
  5
460
100
AcDbEntity
  8
0
100
AcDbPolyline
 62
250
  6
CONTINUOUS
 90
13
 70
0
 10
477.393444228
 20
135.5186515719
 10
477.367421551
 20
135.516877778
 10
477.3418421965
 20
135.5117291045
 10
477.3171422916
 20
135.5032932024
 10
477.2937429852
 20
135.491713768
 10
477.2720433034
 20
135.4771881149
 10
477.2524133344
 20
135.459963829
 10
477.2351878496
 20
135.4403344976
 10
477.2206606609
 20
135.4186347556
 10
477.2090796072
 20
135.3952346306
 10
477.2006422469
 20
135.3705331272
 10
477.1954925174
 20
135.3449514043
 10
477.1937183137
 20
135.3189256723
  0
LINE
  5
461
100
AcDbEntity
  8
0
100
AcDbLine
 62
250
  6
CONTINUOUS
 10
477.9020206196
 20
135.3089926713
 11
478.3487764114
 21
135.3324061503
  0
LINE
  5
462
100
AcDbEntity
  8
0
100
AcDbLine
 62
250
  6
CONTINUOUS
 10
477.7605992634
 20
135.5087185783
 11
478.2073550552
 21
135.5321320572
  0
LWPOLYLINE
  5
463
100
AcDbEntity
  8
0
100
AcDbPolyline
 62
7
  6
CONTINUOUS
 90
37
 70
0
 10
487.2842444101
 20
137.0271983667
 10
487.3226532578
 20
137.0281864649
 10
487.359925145
 20
137.0295232923
 10
487.3960600717
 20
137.0312088487
 10
487.4309623143
 20
137.0331152376
 10
487.4647275965
 20
137.0353703553
 10
487.4976430887
 20
137.0383578908
 10
487.5297295957
 20
137.0421749419
 10
487.5609663129
 20
137.0467244098
 10
487.5915779967
 20
137.0520986876
 10
487.6215803478
 20
137.0582809991
 10
487.6509576656
 20
137.0652881188
 10
487.6798876047
 20
137.0732627653
 10
487.7084618394
 20
137.0821497004
 10
487.7365886954
 20
137.0920041594
 10
487.764170805
 20
137.1031345697
 10
487.7913036127
 20
137.1155803338
 10
487.817891674
 20
137.1293020438
 10
487.843551287
 20
137.1444899096
 10
487.8682960172
 20
137.1612117748
 10
487.8921122992
 20
137.1793997872
 10
487.914575735
 20
137.1990406124
 10
487.9356644905
 20
137.2202343212
 10
487.9554003999
 20
137.2428808318
 10
487.9734245677
 20
137.2666665814
 10
487.9895873619
 20
137.2916040728
 10
488.0040384145
 20
137.317680793
 10
488.0168677267
 20
137.3445456585
 10
488.0280565142
 20
137.372186759
 10
488.0376235613
 20
137.4006159968
 10
488.0457152216
 20
137.4295180102
 10
488.052287829
 20
137.4588196935
 10
488.0573850497
 20
137.4885941473
 10
488.0612842359
 20
137.5187453216
 10
488.0640778386
 20
137.5492411983
 10
488.0656734069
 20
137.5801137911
 10
488.0660709408
 20
137.6113630977
  0
LINE
  5
464
100
AcDbEntity
  8
0
100
AcDbLine
 62
7
  6
CONTINUOUS
 10
503.908384789
 20
135.541724597
 11
504.2094673796
 21
135.545952586
  0
LINE
  5
465
100
AcDbEntity
  8
0
100
AcDbLine
 62
250
  6
CONTINUOUS
 10
504.68281551
 20
135.3098339042
 11
504.7530545472
 21
135.310848755
  0
LWPOLYLINE
  5
466
100
AcDbEntity
  8
0
100
AcDbPolyline
 62
7
  6
CONTINUOUS
 90
8
 70
0
 10
504.6918301104
 20
135.5931241852
 10
504.6985798578
 20
135.593191488
 10
504.7052397824
 20
135.5933390152
 10
504.7115878977
 20
135.5935475518
 10
504.7170304186
 20
135.593812473
 10
504.7213694169
 20
135.5941322373
 10
504.724802821
 20
135.5945083863
 10
504.7273306307
 20
135.5949409199
  0
LWPOLYLINE
  5
467
100
AcDbEntity
  8
0
100
AcDbPolyline
 62
250
  6
CONTINUOUS
 90
15
 70
0
 10
504.5462857016
 20
135.5087774691
 10
504.5661746785
 20
135.5089365745
 10
504.5854315551
 20
135.5091958944
 10
504.6042199148
 20
135.5095596865
 10
504.6223761741
 20
135.5100236931
 10
504.6394095828
 20
135.5105751409
 10
504.6553062821
 20
135.5112163698
 10
504.6700801308
 20
135.5119450399
 10
504.6832819541
 20
135.5127413583
 10
504.6948765265
 20
135.5136079397
 10
504.7048990735
 20
135.5145421695
 10
504.7130060973
 20
135.5155164112
 10
504.7190830985
 20
135.5165214528
 10
504.7232445765
 20
135.5175665063
 10
504.7254905312
 20
135.5186515719
  0
LWPOLYLINE
  5
468
100
AcDbEntity
  8
0
100
AcDbPolyline
 62
7
  6
CONTINUOUS
 90
8
 70
0
 10
477.5066725006
 20
135.5931037003
 10
477.5149076516
 20
135.5931643408
 10
477.5223233046
 20
135.5933123419
 10
477.5292318492
 20
135.5935255321
 10
477.5350756312
 20
135.5937957965
 10
477.5396687657
 20
135.5941204302
 10
477.5431971375
 20
135.594502138
 10
477.5456607466
 20
135.5949409199
  0
LINE
  5
469
100
AcDbEntity
  8
0
100
AcDbLine
 62
250
  6
CONTINUOUS
 10
504.6060698922
 20
135.309211074
 11
504.68281551
 21
135.3098339042
  0
LINE
  5
46A
100
AcDbEntity
  8
0
100
AcDbLine
 62
250
  6
CONTINUOUS
 10
504.2169141396
 20
135.3089926713
 11
504.6060698922
 21
135.309211074
  0
LINE
  5
46B
100
AcDbEntity
  8
0
100
AcDbLine
 62
250
  6
CONTINUOUS
 10
478.3487764114
 20
135.3324061503
 11
478.4073245942
 21
135.3324061503
  0
LINE
  5
46C
100
AcDbEntity
  8
0
100
AcDbLine
 62
250
  6
CONTINUOUS
 10
503.711610165
 20
135.3324061503
 11
503.7701583478
 21
135.3324061503
  0
LINE
  5
46D
100
AcDbEntity
  8
0
100
AcDbLine
 62
250
  6
CONTINUOUS
 10
504.3583354959
 20
135.5087185783
 11
504.5462857016
 21
135.5087774691
  0
LINE
  5
46E
100
AcDbEntity
  8
0
100
AcDbLine
 62
7
  6
CONTINUOUS
 10
477.8655792486
 20
135.6936695022
 11
477.9094673796
 21
135.6936695022
  0
LINE
  5
46F
100
AcDbEntity
  8
0
100
AcDbLine
 62
7
  6
CONTINUOUS
 10
504.2094673796
 20
135.6936695022
 11
504.2533555106
 21
135.6936695022
  0
LINE
  5
470
100
AcDbEntity
  8
0
100
AcDbLine
 62
7
  6
CONTINUOUS
 10
486.7028293796
 20
136.2955273667
 11
487.1107433796
 21
136.2955273667
  0
LINE
  5
471
100
AcDbEntity
  8
0
100
AcDbLine
 62
7
  6
CONTINUOUS
 10
488.3213303796
 20
136.2955273667
 11
489.4322433796
 21
136.2955273667
  0
LINE
  5
472
100
AcDbEntity
  8
0
100
AcDbLine
 62
7
  6
CONTINUOUS
 10
489.6371663796
 20
136.2955273667
 11
490.0266333796
 21
136.2955273667
  0
LINE
  5
473
100
AcDbEntity
  8
0
100
AcDbLine
 62
7
  6
CONTINUOUS
 10
491.0581803796
 20
136.2955273667
 11
491.4687403796
 21
136.2955273667
  0
LINE
  5
474
100
AcDbEntity
  8
0
100
AcDbLine
 62
7
  6
CONTINUOUS
 10
491.6765943796
 20
136.2955273667
 11
492.0581953796
 21
136.2955273667
  0
LINE
  5
475
100
AcDbEntity
  8
0
100
AcDbLine
 62
7
  6
CONTINUOUS
 10
492.8134623796
 20
136.2955273667
 11
493.3924073796
 21
136.2955273667
  0
LINE
  5
476
100
AcDbEntity
  8
0
100
AcDbLine
 62
7
  6
CONTINUOUS
 10
493.5845313796
 20
136.2955273667
 11
493.9739983796
 21
136.2955273667
  0
LINE
  5
477
100
AcDbEntity
  8
0
100
AcDbLine
 62
7
  6
CONTINUOUS
 10
495.0056883796
 20
136.2955273667
 11
495.4161053796
 21
136.2955273667
  0
LINE
  5
478
100
AcDbEntity
  8
0
100
AcDbLine
 62
7
  6
CONTINUOUS
 10
489.4322433796
 20
136.6112763667
 11
488.7292443796
 21
136.6112763667
  0
LINE
  5
479
100
AcDbEntity
  8
0
100
AcDbLine
 62
7
  6
CONTINUOUS
 10
490.1687053796
 20
136.6982213667
 11
490.9213273796
 21
136.6982213667
  0
LINE
  5
47A
100
AcDbEntity
  8
0
100
AcDbLine
 62
7
  6
CONTINUOUS
 10
494.1161423796
 20
136.6982213667
 11
494.8687633796
 21
136.6982213667
  0
LINE
  5
47B
100
AcDbEntity
  8
0
100
AcDbLine
 62
7
  6
CONTINUOUS
 10
494.7660883796
 20
137.0139703667
 11
494.2213923796
 21
137.0139703667
  0
LINE
  5
47C
100
AcDbEntity
  8
0
100
AcDbLine
 62
7
  6
CONTINUOUS
 10
490.8187233796
 20
137.0139703667
 11
490.2739553796
 21
137.0139703667
  0
LINE
  5
47D
100
AcDbEntity
  8
0
100
AcDbLine
 62
7
  6
CONTINUOUS
 10
487.1107433796
 20
137.0271983667
 11
487.2842444101
 21
137.0271983667
  0
LINE
  5
47E
100
AcDbEntity
  8
0
100
AcDbLine
 62
7
  6
CONTINUOUS
 10
504.6123109999
 20
135.5931095779
 11
504.6918301104
 21
135.5931241852
  0
LINE
  5
47F
100
AcDbEntity
  8
0
100
AcDbLine
 62
7
  6
CONTINUOUS
 10
477.4277072507
 20
135.5931169891
 11
477.5066725006
 21
135.5931037003
  0
LINE
  5
480
100
AcDbEntity
  8
0
100
AcDbLine
 62
250
  6
CONTINUOUS
 10
477.5118649386
 20
135.30921687
 11
477.9020206196
 21
135.3089926713
  0
LINE
  5
481
100
AcDbEntity
  8
0
100
AcDbLine
 62
250
  6
CONTINUOUS
 10
477.434268865
 20
135.3098551518
 11
477.5118649386
 21
135.30921687
  0
LINE
  5
482
100
AcDbEntity
  8
0
100
AcDbLine
 62
7
  6
CONTINUOUS
 10
477.9094673796
 20
135.545952586
 11
478.2105499703
 21
135.541724597
  0
LINE
  5
483
100
AcDbEntity
  8
0
100
AcDbLine
 62
250
  6
CONTINUOUS
 10
503.7701583478
 20
135.3324061503
 11
504.2169141396
 21
135.3089926713
  0
LINE
  5
484
100
AcDbEntity
  8
0
100
AcDbLine
 62
250
  6
CONTINUOUS
 10
503.9115797041
 20
135.5321320572
 11
504.3583354959
 21
135.5087185783
  0
LWPOLYLINE
  5
485
100
AcDbEntity
  8
0
100
AcDbPolyline
 62
250
  6
CONTINUOUS
 90
13
 70
0
 10
504.7254905312
 20
135.5186515719
 10
504.7515148917
 20
135.5168775521
 10
504.7770955178
 20
135.511728306
 10
504.8017962409
 20
135.503291632
 10
504.8251958955
 20
135.4917113819
 10
504.8468954999
 20
135.4771850074
 10
504.8665250593
 20
135.4599601935
 10
504.8837498755
 20
135.4403306362
 10
504.8982762523
 20
135.418631034
 10
504.9098565035
 20
135.3952313804
 10
504.9182931769
 20
135.3705306566
 10
504.9234424213
 20
135.3449500286
 10
504.9252164382
 20
135.3189256649
  0
LWPOLYLINE
  5
486
100
AcDbEntity
  8
0
100
AcDbPolyline
 62
7
  6
CONTINUOUS
 90
8
 70
0
 10
470.040812211
 20
138.7299406358
 10
470.0440806501
 20
138.7294046646
 10
470.0502153199
 20
138.7288870863
 10
470.0592162203
 20
138.7283879009
 10
470.0712426149
 20
138.7279022128
 10
470.0861352402
 20
138.7274349176
 10
470.1034163054
 20
138.7270007018
 10
470.1452271729
 20
138.7262344856
  0
LWPOLYLINE
  5
487
100
AcDbEntity
  8
0
100
AcDbPolyline
 62
7
  6
CONTINUOUS
 90
8
 70
0
 10
512.0695375596
 20
132.6639734351
 10
512.0662751847
 20
132.6645084378
 10
512.0601473335
 20
132.6650251303
 10
512.0511540059
 20
132.6655235126
 10
512.0391365237
 20
132.6660084813
 10
512.0242535652
 20
132.6664751399
 10
512.0069811651
 20
132.6669087986
 10
511.9651844593
 20
132.6676741419
  0
LWPOLYLINE
  5
488
100
AcDbEntity
  8
0
100
AcDbPolyline
 62
250
  6
CONTINUOUS
 90
10
 70
0
 10
504.9252164382
 20
132.1721287528
 10
504.9211025145
 20
132.1731890514
 10
504.9131839146
 20
132.1741990876
 10
504.9017485743
 20
132.1751588614
 10
504.8870170167
 20
132.1760766499
 10
504.8693672356
 20
132.1769441759
 10
504.8494984675
 20
132.1777366079
 10
504.8280530284
 20
132.1784435662
 10
504.8053260646
 20
132.1790754304
 10
504.7573915801
 20
132.1801292109
  0
LWPOLYLINE
  5
489
100
AcDbEntity
  8
0
100
AcDbPolyline
 62
250
  6
CONTINUOUS
 90
13
 70
0
 10
504.7254905312
 20
131.9724031614
 10
504.7231782312
 20
131.9734626529
 10
504.719266919
 20
131.9744721982
 10
504.7137565944
 20
131.9754317974
 10
504.706404505
 20
131.9763498957
 10
504.6974534033
 20
131.9772180478
 10
504.6876315473
 20
131.9780109183
 10
504.6770100366
 20
131.9787178879
 10
504.6655177716
 20
131.9793495758
 10
504.6536697114
 20
131.9799125042
 10
504.6416781256
 20
131.9804031496
 10
504.6293307446
 20
131.9808250355
 10
504.603292679
 20
131.9815206043
  0
LWPOLYLINE
  5
48A
100
AcDbEntity
  8
0
100
AcDbPolyline
 62
7
  6
CONTINUOUS
 90
25
 70
0
 10
505.071170705
 20
108.892928105
 10
505.0622734305
 20
108.8461401978
 10
505.0487676681
 20
108.8015872761
 10
505.0306534178
 20
108.7592693241
 10
505.0075977796
 20
108.7187137316
 10
504.9799336535
 20
108.6803930814
 10
504.94865974
 20
108.6457251389
 10
504.9136469108
 20
108.6148573135
 10
504.8750242943
 20
108.5876421562
 10
504.834177976
 20
108.5650551351
 10
504.7910274633
 20
108.5472644235
 10
504.7456532488
 20
108.5341018168
 10
504.6996828964
 20
108.5260382158
 10
504.6530954182
 20
108.523258476
 10
504.605911802
 20
108.5255777327
 10
504.559822575
 20
108.5329123116
 10
504.5148666696
 20
108.5454444423
 10
504.4710051535
 20
108.5629919119
 10
504.4298117566
 20
108.5849243869
 10
504.3913841602
 20
108.611400634
 10
504.3556246829
 20
108.6422619219
 10
504.3238140108
 20
108.6764016678
 10
504.296379039
 20
108.7134510207
 10
504.2728928723
 20
108.7537788681
 10
504.2533555106
 20
108.7973852311
  0
LINE
  5
48B
100
AcDbEntity
  8
0
100
AcDbLine
 62
250
  6
CONTINUOUS
 10
503.711610165
 20
109.1586485831
 11
503.7094673796
 21
109.1522149992
  0
LINE
  5
48C
100
AcDbEntity
  8
0
100
AcDbLine
 62
250
  6
CONTINUOUS
 10
503.9115797041
 20
108.9589226761
 11
503.908384789
 21
108.9493301363
  0
LINE
  5
48D
100
AcDbEntity
  8
0
100
AcDbLine
 62
7
  6
CONTINUOUS
 10
497.0594673796
 20
104.9455273667
 11
497.0394100701
 21
104.9254700571
  0
LINE
  5
48E
100
AcDbEntity
  8
0
100
AcDbLine
 62
250
  6
CONTINUOUS
 10
504.852366326
 20
112.6455273667
 11
504.7254905312
 21
112.5186515719
  0
LINE
  5
48F
100
AcDbEntity
  8
0
100
AcDbLine
 62
250
  6
CONTINUOUS
 10
505.052092233
 20
112.4458014597
 11
504.9252164382
 21
112.3189256649
  0
LINE
  5
490
100
AcDbEntity
  8
0
100
AcDbLine
 62
7
  6
CONTINUOUS
 10
512.0695375596
 20
111.8270812982
 11
512.1065780445
 21
111.8394180939
  0
LINE
  5
491
100
AcDbEntity
  8
0
100
AcDbLine
 62
7
  6
CONTINUOUS
 10
504.2533555106
 20
108.7973852311
 11
504.5164114215
 21
108.8788585392
  0
LINE
  5
492
100
AcDbEntity
  8
0
100
AcDbLine
 62
7
  6
CONTINUOUS
 10
504.5164114215
 20
108.8788585392
 11
504.5732740466
 21
108.8961138172
  0
LWPOLYLINE
  5
493
100
AcDbEntity
  8
0
100
AcDbPolyline
 62
7
  6
CONTINUOUS
 90
4
 70
0
 10
487.42058914
 20
137.3509928073
 10
487.3847991426
 20
137.3466381056
 10
487.3667939287
 20
137.3446826701
 10
487.3487103312
 20
137.3429473667
  0
LWPOLYLINE
  5
494
100
AcDbEntity
  8
0
100
AcDbPolyline
 62
7
  6
CONTINUOUS
 90
7
 70
0
 10
512.0155185
 20
138.7270007005
 10
512.032799563
 20
138.7274349165
 10
512.0476921843
 20
138.727902212
 10
512.0597185726
 20
138.7283879003
 10
512.0687194641
 20
138.728887086
 10
512.0748541227
 20
138.7294046645
 10
512.0781225483
 20
138.7299406358
  0
LINE
  5
495
100
AcDbEntity
  8
0
100
AcDbLine
 62
7
  6
CONTINUOUS
 10
511.9737076314
 20
138.7262344839
 11
512.0155185
 21
138.7270007005
  0
LINE
  5
496
100
AcDbEntity
  8
0
100
AcDbLine
 62
7
  6
CONTINUOUS
 10
511.9240457882
 20
138.7256320226
 11
511.9737076314
 21
138.7262344839
  0
LINE
  5
497
100
AcDbEntity
  8
0
100
AcDbLine
 62
7
  6
CONTINUOUS
 10
511.8390719926
 20
138.7250805726
 11
511.9240457882
 21
138.7256320226
  0
LINE
  5
498
100
AcDbEntity
  8
0
100
AcDbLine
 62
7
  6
CONTINUOUS
 10
487.3487103312
 20
137.3429473667
 11
487.1107433796
 21
137.3429473667
  0
LINE
  5
499
100
AcDbEntity
  8
0
100
AcDbLine
 62
7
  6
CONTINUOUS
 10
487.1107433796
 20
137.8797783667
 11
487.348714002
 21
137.8797783667
  0
LINE
  5
49A
100
AcDbEntity
  8
0
100
AcDbLine
 62
7
  6
CONTINUOUS
 10
494.7556483796
 20
138.1955273667
 11
494.2714433796
 21
138.1955273667
  0
LINE
  5
49B
100
AcDbEntity
  8
0
100
AcDbLine
 62
7
  6
CONTINUOUS
 10
493.3924073796
 20
138.1955273667
 11
493.0108053796
 21
138.1955273667
  0
LINE
  5
49C
100
AcDbEntity
  8
0
100
AcDbLine
 62
7
  6
CONTINUOUS
 10
492.2818513796
 20
138.1955273667
 11
491.6765943796
 21
138.1955273667
  0
LINE
  5
49D
100
AcDbEntity
  8
0
100
AcDbLine
 62
7
  6
CONTINUOUS
 10
490.8082123796
 20
138.1955273667
 11
490.3240063796
 21
138.1955273667
  0
LINE
  5
49E
100
AcDbEntity
  8
0
100
AcDbLine
 62
7
  6
CONTINUOUS
 10
488.7292443796
 20
138.1955273667
 11
488.3213303796
 21
138.1955273667
  0
LINE
  5
49F
100
AcDbEntity
  8
0
100
AcDbLine
 62
7
  6
CONTINUOUS
 10
487.284256877
 20
138.1955273667
 11
486.7028293796
 21
138.1955273667
  0
LINE
  5
4A0
100
AcDbEntity
  8
0
100
AcDbLine
 62
7
  6
CONTINUOUS
 10
497.0389124533
 20
138.7249724404
 11
511.8390719926
 21
138.7250805726
  0
LINE
  5
4A1
100
AcDbEntity
  8
0
100
AcDbLine
 62
7
  6
CONTINUOUS
 10
469.994013992
 20
138.7455273667
 11
485.0594673796
 21
138.7455273667
  0
LINE
  5
4A2
100
AcDbEntity
  8
0
100
AcDbLine
 62
7
  6
CONTINUOUS
 10
497.0594673796
 20
138.7455273667
 11
512.1249207672
 21
138.7455273667
  0
LINE
  5
4A3
100
AcDbEntity
  8
0
100
AcDbLine
 62
7
  6
CONTINUOUS
 10
470.279862732
 20
138.7250805746
 11
485.0800223059
 21
138.7249724404
  0
LINE
  5
4A4
100
AcDbEntity
  8
0
100
AcDbLine
 62
7
  6
CONTINUOUS
 10
470.1948890176
 20
138.7256320248
 11
470.279862732
 21
138.7250805746
  0
LINE
  5
4A5
100
AcDbEntity
  8
0
100
AcDbLine
 62
7
  6
CONTINUOUS
 10
470.1452271729
 20
138.7262344856
 11
470.1948890176
 21
138.7256320248
  0
LWPOLYLINE
  5
4A6
100
AcDbEntity
  8
0
100
AcDbPolyline
 62
7
  6
CONTINUOUS
 90
3
 70
0
 10
487.348714002
 20
137.8797783667
 10
487.3668544693
 20
137.8780450199
 10
487.3849451594
 20
137.8760802204
  0
LWPOLYLINE
  5
4A7
100
AcDbEntity
  8
0
100
AcDbPolyline
 62
7
  6
CONTINUOUS
 90
21
 70
0
 10
487.3849451594
 20
137.8760802204
 10
487.4210041181
 20
137.8716775555
 10
487.4389723865
 20
137.86923969
 10
487.4568101487
 20
137.8659064917
 10
487.4746793223
 20
137.8616349095
 10
487.4924179895
 20
137.8564679932
 10
487.5094596685
 20
137.8498710139
 10
487.5257949412
 20
137.8417037252
 10
487.5414332257
 20
137.8321063695
 10
487.5558362941
 20
137.82096495
 10
487.5688221184
 20
137.8080300139
 10
487.5805727268
 20
137.7935510067
 10
487.5910959759
 20
137.7781622792
 10
487.6003952785
 20
137.7619581549
 10
487.608467222
 20
137.7448443051
 10
487.6153094248
 20
137.7271721048
 10
487.6208725369
 20
137.7090124972
 10
487.6252059084
 20
137.6902945355
 10
487.6284552078
 20
137.6711567618
 10
487.6306689912
 20
137.6516453559
 10
487.6317987025
 20
137.631714135
  0
LWPOLYLINE
  5
4A8
100
AcDbEntity
  8
0
100
AcDbPolyline
 62
7
  6
CONTINUOUS
 90
8
 70
0
 10
504.5732740837
 20
135.5949409121
 10
504.5756887489
 20
135.5945098686
 10
504.5791239835
 20
135.5941336159
 10
504.5835797874
 20
135.5938121537
 10
504.5892104972
 20
135.5935423118
 10
504.5958617762
 20
135.5933272605
 10
504.6030706155
 20
135.5931765113
 10
504.6108491999
 20
135.5931125603
  0
LINE
  5
4A9
100
AcDbEntity
  8
0
100
AcDbLine
 62
7
  6
CONTINUOUS
 10
504.516411378
 20
135.6121962074
 11
504.5732740837
 21
135.5949409121
  0
LINE
  5
4AA
100
AcDbEntity
  8
0
100
AcDbLine
 62
7
  6
CONTINUOUS
 10
504.2533555106
 20
135.6936695022
 11
504.516411378
 21
135.6121962074
  0
LINE
  5
4AB
100
AcDbEntity
  8
0
100
AcDbLine
 62
7
  6
CONTINUOUS
 10
512.0695375596
 20
132.6639734351
 11
512.1065780445
 21
132.6516366394
  0
LINE
  5
4AC
100
AcDbEntity
  8
0
100
AcDbLine
 62
7
  6
CONTINUOUS
 10
497.0594673796
 20
139.5455273667
 11
497.0394100701
 21
139.5655846762
  0
LINE
  5
4AD
100
AcDbEntity
  8
0
100
AcDbLine
 62
250
  6
CONTINUOUS
 10
504.852366326
 20
131.8455273667
 11
504.7254905312
 21
131.9724031614
  0
LINE
  5
4AE
100
AcDbEntity
  8
0
100
AcDbLine
 62
250
  6
CONTINUOUS
 10
505.052092233
 20
132.0452532736
 11
504.9252164382
 21
132.1721290684
  0
LINE
  5
4AF
100
AcDbEntity
  8
0
100
AcDbLine
 62
250
  6
CONTINUOUS
 10
503.7094673796
 20
135.3388397341
 11
503.711610165
 21
135.3324061503
  0
LINE
  5
4B0
100
AcDbEntity
  8
0
100
AcDbLine
 62
250
  6
CONTINUOUS
 10
503.908384789
 20
135.541724597
 11
503.9115797041
 21
135.5321320572
  0
LWPOLYLINE
  5
4B1
100
AcDbEntity
  8
0
100
AcDbPolyline
 62
250
  6
CONTINUOUS
 90
16
 70
0
 10
504.7273307189
 20
108.8961138965
 10
504.7203535104
 20
108.8860480028
 10
504.712011565
 20
108.8770242941
 10
504.7024681266
 20
108.8692327718
 10
504.6919058031
 20
108.8628540648
 10
504.6805492666
 20
108.8580062076
 10
504.6686370326
 20
108.8547331523
 10
504.6563889071
 20
108.8530780116
 10
504.6440272325
 20
108.8530906826
 10
504.6317832458
 20
108.8547709118
 10
504.6198733223
 20
108.8580703798
 10
504.6085236422
 20
108.8629444435
 10
504.5979879304
 20
108.8693371472
 10
504.5884902208
 20
108.8771195783
 10
504.5802005277
 20
108.8861094177
 10
504.573273908
 20
108.8961139238
  0
LWPOLYLINE
  5
4B2
100
AcDbEntity
  8
0
100
AcDbPolyline
 62
7
  6
CONTINUOUS
 90
10
 70
0
 10
493.7081788828
 20
141.4032217899
 10
493.743159247
 20
141.4090413968
 10
493.7780099537
 20
141.4137218805
 10
493.8127310028
 20
141.4172632421
 10
493.8473033943
 20
141.4196722691
 10
493.8817461282
 20
141.4209421755
 10
493.9161162047
 20
141.4210526029
 10
493.9504326239
 20
141.4199967649
 10
493.9846763856
 20
141.4177814476
 10
494.01884749
 20
141.4144066503
  0
LWPOLYLINE
  5
4B3
100
AcDbEntity
  8
0
100
AcDbPolyline
 62
7
  6
CONTINUOUS
 90
7
 70
0
 10
470.1018980612
 20
139.5635579916
 10
470.084624278
 20
139.5631242606
 10
470.0697398805
 20
139.5626575205
 10
470.0577211196
 20
139.5621724616
 10
470.0487267456
 20
139.5616739808
 10
470.0425980081
 20
139.5611571813
 10
470.0393349072
 20
139.560622063
  0
LINE
  5
4B4
100
AcDbEntity
  8
0
100
AcDbLine
 62
7
  6
CONTINUOUS
 10
470.1436973656
 20
139.5643234511
 11
470.1018980612
 21
139.5635579916
  0
LINE
  5
4B5
100
AcDbEntity
  8
0
100
AcDbLine
 62
7
  6
CONTINUOUS
 10
470.1933554283
 20
139.5649254226
 11
470.1436973656
 21
139.5643234511
  0
LINE
  5
4B6
100
AcDbEntity
  8
0
100
AcDbLine
 62
7
  6
CONTINUOUS
 10
470.2783436557
 20
139.5654765537
 11
470.1933554283
 21
139.5649254226
  0
LINE
  5
4B7
100
AcDbEntity
  8
0
100
AcDbLine
 62
7
  6
CONTINUOUS
 10
512.1249207672
 20
139.5455273667
 11
497.0594673796
 21
139.5455273667
  0
LINE
  5
4B8
100
AcDbEntity
  8
0
100
AcDbLine
 62
7
  6
CONTINUOUS
 10
485.0594673796
 20
139.5455273667
 11
469.994013992
 21
139.5455273667
  0
LINE
  5
4B9
100
AcDbEntity
  8
0
100
AcDbLine
 62
7
  6
CONTINUOUS
 10
470.2783436557
 20
139.5654765537
 11
485.0795246892
 21
139.5655846762
  0
LINE
  5
4BA
100
AcDbEntity
  8
0
100
AcDbLine
 62
7
  6
CONTINUOUS
 10
487.9409913796
 20
139.8270333667
 11
488.2904713796
 21
139.8270333667
  0
LINE
  5
4BB
100
AcDbEntity
  8
0
100
AcDbLine
 62
7
  6
CONTINUOUS
 10
489.0483263796
 20
139.8270333667
 11
489.4448983796
 21
139.8270333667
  0
LINE
  5
4BC
100
AcDbEntity
  8
0
100
AcDbLine
 62
7
  6
CONTINUOUS
 10
489.6583863796
 20
139.8270333667
 11
490.0377763796
 21
139.8270333667
  0
LINE
  5
4BD
100
AcDbEntity
  8
0
100
AcDbLine
 62
7
  6
CONTINUOUS
 10
490.5885843796
 20
139.8270333667
 11
490.6442033796
 21
139.8270333667
  0
LINE
  5
4BE
100
AcDbEntity
  8
0
100
AcDbLine
 62
7
  6
CONTINUOUS
 10
491.6474303796
 20
139.8270333667
 11
492.0397003796
 21
139.8270333667
  0
LINE
  5
4BF
100
AcDbEntity
  8
0
100
AcDbLine
 62
7
  6
CONTINUOUS
 10
491.1972053796
 20
139.8270333667
 11
491.5851583796
 21
139.8270333667
  0
LINE
  5
4C0
100
AcDbEntity
  8
0
100
AcDbLine
 62
7
  6
CONTINUOUS
 10
492.7919283796
 20
139.8270333667
 11
493.2098993796
 21
139.8270333667
  0
LINE
  5
4C1
100
AcDbEntity
  8
0
100
AcDbLine
 62
7
  6
CONTINUOUS
 10
493.3263519824
 20
139.8270336206
 11
493.7213286245
 21
139.8270336206
  0
LINE
  5
4C2
100
AcDbEntity
  8
0
100
AcDbLine
 62
7
  6
CONTINUOUS
 10
494.3286244449
 20
139.8270336206
 11
494.7100809301
 21
139.8270336206
  0
LINE
  5
4C3
100
AcDbEntity
  8
0
100
AcDbLine
 62
7
  6
CONTINUOUS
 10
492.1491293796
 20
140.2063103667
 11
492.6891953796
 21
140.2063103667
  0
LINE
  5
4C4
100
AcDbEntity
  8
0
100
AcDbLine
 62
7
  6
CONTINUOUS
 10
492.6099403796
 20
140.4997933667
 11
492.2302503796
 21
140.4997933667
  0
LINE
  5
4C5
100
AcDbEntity
  8
0
100
AcDbLine
 62
7
  6
CONTINUOUS
 10
493.7213286245
 20
140.5705282832
 11
493.9339612311
 21
140.5705282832
  0
LINE
  5
4C6
100
AcDbEntity
  8
0
100
AcDbLine
 62
7
  6
CONTINUOUS
 10
493.9348160355
 20
140.8816771024
 11
493.7081788828
 21
140.8816771024
  0
LINE
  5
4C7
100
AcDbEntity
  8
0
100
AcDbLine
 62
7
  6
CONTINUOUS
 10
511.8405910739
 20
139.5654765555
 11
497.0394100701
 21
139.5655846762
  0
LINE
  5
4C8
100
AcDbEntity
  8
0
100
AcDbLine
 62
7
  6
CONTINUOUS
 10
511.9255793709
 20
139.5649254245
 11
511.8405910739
 21
139.5654765555
  0
LINE
  5
4C9
100
AcDbEntity
  8
0
100
AcDbLine
 62
7
  6
CONTINUOUS
 10
511.9752374321
 20
139.5643234526
 11
511.9255793709
 21
139.5649254245
  0
LWPOLYLINE
  5
4CA
100
AcDbEntity
  8
0
100
AcDbPolyline
 62
7
  6
CONTINUOUS
 90
13
 70
0
 10
493.9339612311
 20
140.5705282832
 10
493.9582088539
 20
140.5693139263
 10
493.9814575494
 20
140.5657907348
 10
494.0037073176
 20
140.5599587068
 10
494.0249882822
 20
140.5518134497
 10
494.0452703196
 20
140.5413593489
 10
494.0644630587
 20
140.5286095684
 10
494.0825897178
 20
140.5135892061
 10
494.0996270787
 20
140.49627315
 10
494.1154151158
 20
140.4765992471
 10
494.1299004873
 20
140.4545467723
 10
494.143136535
 20
140.4301364291
 10
494.155123259
 20
140.4033682048
  0
LWPOLYLINE
  5
4CB
100
AcDbEntity
  8
0
100
AcDbPolyline
 62
7
  6
CONTINUOUS
 90
7
 70
0
 10
505.071170705
 20
135.5981266284
 10
505.0799254844
 20
135.5822409114
 10
505.0872125044
 20
135.5655979694
 10
505.0929640061
 20
135.548331907
 10
505.0971244259
 20
135.5305831078
 10
505.0996510052
 20
135.5124971279
 10
505.1005143016
 20
135.4942235283
  0
LINE
  5
4CC
100
AcDbEntity
  8
0
100
AcDbLine
 62
250
  6
CONTINUOUS
 10
511.9469191586
 20
107.3958036293
 11
511.914116463
 21
107.7246574701
  0
LINE
  5
4CD
100
AcDbEntity
  8
0
100
AcDbLine
 62
250
  6
CONTINUOUS
 10
512.1469115432
 20
107.5950425689
 11
512.1243956171
 21
107.8207694074
  0
LINE
  5
4CE
100
AcDbEntity
  8
0
100
AcDbLine
 62
250
  6
CONTINUOUS
 10
512.9322159629
 20
103.7452661741
 11
512.9161773086
 21
103.9060570168
  0
LINE
  5
4CF
100
AcDbEntity
  8
0
100
AcDbLine
 62
250
  6
CONTINUOUS
 10
513.1331297462
 20
103.9352679005
 11
513.1161696932
 21
104.1052959564
  0
LWPOLYLINE
  5
4D0
100
AcDbEntity
  8
0
100
AcDbPolyline
 62
250
  6
CONTINUOUS
 90
4
 70
0
 10
513.1161696932
 20
104.1052959564
 10
513.1159910199
 20
104.1084610726
 10
513.1158224629
 20
104.1131231549
 10
513.1156640221
 20
104.1192822032
  0
LINE
  5
4D1
100
AcDbEntity
  8
0
100
AcDbLine
 62
250
  6
CONTINUOUS
 10
511.7873055535
 20
101.2955273667
 11
511.7800010467
 21
104.9254700541
  0
LINE
  5
4D2
100
AcDbEntity
  8
0
100
AcDbLine
 62
250
  6
CONTINUOUS
 10
512.0869203585
 20
101.2955273667
 11
512.0821117078
 21
103.6028390536
  0
LINE
  5
4D3
100
AcDbEntity
  8
0
100
AcDbLine
 62
250
  6
CONTINUOUS
 10
511.7785078814
 20
105.7660822809
 11
511.7699472638
 21
111.8221195026
  0
LINE
  5
4D4
100
AcDbEntity
  8
0
100
AcDbLine
 62
250
  6
CONTINUOUS
 10
512.0746538002
 20
107.8994463238
 11
512.0695375596
 21
111.8270812982
  0
LINE
  5
4D5
100
AcDbEntity
  8
0
100
AcDbLine
 62
250
  6
CONTINUOUS
 10
511.7690279469
 20
112.6983852019
 11
511.7680352084
 21
113.7455273657
  0
LINE
  5
4D6
100
AcDbEntity
  8
0
100
AcDbLine
 62
250
  6
CONTINUOUS
 10
512.0686375677
 20
112.6834678435
 11
512.0676286402
 21
113.7455273667
  0
LINE
  5
4D7
100
AcDbEntity
  8
0
100
AcDbLine
 62
7
  6
CONTINUOUS
 10
511.9148791959
 20
104.9260291375
 11
511.9152312519
 21
103.7775732537
  0
LINE
  5
4D8
100
AcDbEntity
  8
0
100
AcDbLine
 62
7
  6
CONTINUOUS
 10
511.914116463
 20
107.7246574701
 11
511.9146362443
 21
105.765511536
  0
LINE
  5
4D9
100
AcDbEntity
  8
0
100
AcDbLine
 62
7
  6
CONTINUOUS
 10
511.924627568
 20
104.9455273667
 11
511.924627568
 21
105.7455273667
  0
LINE
  5
4DA
100
AcDbEntity
  8
0
100
AcDbLine
 62
7
  6
CONTINUOUS
 10
511.9469191586
 20
107.3958036293
 11
511.9469191586
 21
104.095251104
  0
LINE
  5
4DB
100
AcDbEntity
  8
0
100
AcDbLine
 62
7
  6
CONTINUOUS
 10
512.1065780445
 20
132.6516366394
 11
512.1065780445
 21
131.8455273667
  0
LINE
  5
4DC
100
AcDbEntity
  8
0
100
AcDbLine
 62
7
  6
CONTINUOUS
 10
512.1065780445
 20
112.6455273667
 11
512.1065780445
 21
111.8394180939
  0
LINE
  5
4DD
100
AcDbEntity
  8
0
100
AcDbLine
 62
7
  6
CONTINUOUS
 10
512.1249207672
 20
139.5455273667
 11
512.1249207672
 21
138.7455273667
  0
LINE
  5
4DE
100
AcDbEntity
  8
0
100
AcDbLine
 62
7
  6
CONTINUOUS
 10
512.1694673796
 20
143.1955273667
 11
512.1694673796
 21
107.7455273667
  0
LINE
  5
4DF
100
AcDbEntity
  8
0
100
AcDbLine
 62
7
  6
CONTINUOUS
 10
512.1694673796
 20
103.7455273667
 11
512.1694673796
 21
101.2955273667
  0
LINE
  5
4E0
100
AcDbEntity
  8
0
100
AcDbLine
 62
250
  6
CONTINUOUS
 10
511.7680352056
 20
130.7455273672
 11
511.7690279469
 21
131.7926695283
  0
LINE
  5
4E1
100
AcDbEntity
  8
0
100
AcDbLine
 62
250
  6
CONTINUOUS
 10
512.0676286374
 20
130.7455273667
 11
512.0686375677
 21
131.8075868898
  0
LINE
  5
4E2
100
AcDbEntity
  8
0
100
AcDbLine
 62
250
  6
CONTINUOUS
 10
511.7699472638
 20
132.6689352306
 11
511.7785078814
 21
138.7249724489
  0
LINE
  5
4E3
100
AcDbEntity
  8
0
100
AcDbLine
 62
250
  6
CONTINUOUS
 10
512.0695375596
 20
132.6639734351
 11
512.0781225483
 21
138.7299406358
  0
LINE
  5
4E4
100
AcDbEntity
  8
0
100
AcDbLine
 62
250
  6
CONTINUOUS
 10
511.7800010467
 20
139.5655846782
 11
511.7873055522
 21
143.1955273667
  0
LINE
  5
4E5
100
AcDbEntity
  8
0
100
AcDbLine
 62
250
  6
CONTINUOUS
 10
512.0795998521
 20
139.560622063
 11
512.0869218965
 21
143.1955273667
  0
LWPOLYLINE
  5
4E6
100
AcDbEntity
  8
0
100
AcDbPolyline
 62
7
  6
CONTINUOUS
 90
46
 70
0
 10
505.071170705
 20
108.892928105
 10
505.0681679813
 20
108.89014624
 10
505.0650678129
 20
108.8874392602
 10
505.0618713696
 20
108.8848086052
 10
505.0585811494
 20
108.8822566534
 10
505.0551971294
 20
108.8797837809
 10
505.0517164938
 20
108.8773885648
 10
505.0481402064
 20
108.8750723339
 10
505.0444694065
 20
108.872836776
 10
505.040701141
 20
108.8706813336
 10
505.0368362034
 20
108.8686074637
 10
505.0328757071
 20
108.8666169778
 10
505.0288168677
 20
108.8647101641
 10
505.0246605211
 20
108.8628886797
 10
505.020407668
 20
108.8611543825
 10
505.0160555354
 20
108.8595081597
 10
505.0116046333
 20
108.8579517247
 10
505.0070562931
 20
108.8564871501
 10
505.0024088295
 20
108.8551161095
 10
504.9976631626
 20
108.8538405496
 10
504.9928203852
 20
108.8526624689
 10
504.9878790038
 20
108.8515838124
 10
504.9828400376
 20
108.8506066217
 10
504.9777046994
 20
108.8497329595
 10
504.9724717532
 20
108.8489649862
 10
504.9671431701
 20
108.8483049011
 10
504.9617194991
 20
108.8477547242
 10
504.9561973058
 20
108.8473166348
 10
504.9505830597
 20
108.8469930302
 10
504.9448730896
 20
108.8467859527
 10
504.9390483446
 20
108.8466981939
 10
504.9331113236
 20
108.8467326745
 10
504.9270620195
 20
108.8468929489
 10
504.9208769775
 20
108.84718488
 10
504.9145566654
 20
108.8476127229
 10
504.9081031506
 20
108.8481812337
 10
504.901494936
 20
108.8488993054
 10
504.894733001
 20
108.8497725189
 10
504.887819573
 20
108.8508067499
 10
504.8807348897
 20
108.8520135153
 10
504.8734807421
 20
108.8533997063
 10
504.8660598362
 20
108.854972348
 10
504.858453936
 20
108.8567453132
 10
504.850659065
 20
108.8587291588
 10
504.8426856641
 20
108.8609299744
 10
504.8345376298
 20
108.8633560628
  0
LINE
  5
4E7
100
AcDbEntity
  8
0
100
AcDbLine
 62
7
  6
CONTINUOUS
 10
492.6269793796
 20
141.7268793667
 11
492.2433433796
 21
141.7268793667
  0
LINE
  5
4E8
100
AcDbEntity
  8
0
100
AcDbLine
 62
7
  6
CONTINUOUS
 10
491.4075013796
 20
141.7268793667
 11
491.0151313796
 21
141.7268793667
  0
LINE
  5
4E9
100
AcDbEntity
  8
0
100
AcDbLine
 62
7
  6
CONTINUOUS
 10
490.2261753796
 20
141.7268793667
 11
489.8299313796
 21
141.7268793667
  0
LINE
  5
4EA
100
AcDbEntity
  8
0
100
AcDbLine
 62
7
  6
CONTINUOUS
 10
488.9011573796
 20
141.7268793667
 11
488.5048563796
 21
141.7268793667
  0
LINE
  5
4EB
100
AcDbEntity
  8
0
100
AcDbLine
 62
7
  6
CONTINUOUS
 10
487.7695033796
 20
141.7268793667
 11
487.3387033796
 21
141.7268793667
  0
LINE
  5
4EC
100
AcDbEntity
  8
0
100
AcDbLine
 62
7
  6
CONTINUOUS
 10
489.4448983796
 20
141.7269933667
 11
489.0483263796
 21
141.7269933667
  0
LINE
  5
4ED
100
AcDbEntity
  8
0
100
AcDbLine
 62
7
  6
CONTINUOUS
 10
469.9494673796
 20
143.1955273667
 11
512.1694673796
 21
143.1955273667
  0
LWPOLYLINE
  5
4EE
100
AcDbEntity
  8
0
100
AcDbPolyline
 62
7
  6
CONTINUOUS
 90
25
 70
0
 10
494.01884749
 20
141.4144066503
 10
494.0343754184
 20
141.4121282838
 10
494.049585969
 20
141.4090594774
 10
494.0644791418
 20
141.4052002304
 10
494.0790948621
 20
141.4005375172
 10
494.0933932046
 20
141.3950843619
 10
494.1072543934
 20
141.3888798383
 10
494.1206964378
 20
141.3819225342
 10
494.1337013285
 20
141.3742138595
 10
494.1460952622
 20
141.3657971219
 10
494.1578684086
 20
141.3566551933
 10
494.169030598
 20
141.346805199
 10
494.1794375174
 20
141.3363418263
 10
494.1890470977
 20
141.3252419974
 10
494.197901408
 20
141.3135287871
 10
494.2059823424
 20
141.3013661127
 10
494.2132894693
 20
141.2887619256
 10
494.2198232204
 20
141.2757082719
 10
494.2255667838
 20
141.2623452111
 10
494.2305340852
 20
141.2486837652
 10
494.2347111989
 20
141.2347129105
 10
494.2380395373
 20
141.2205396391
 10
494.2404995709
 20
141.2061996149
 10
494.2421108292
 20
141.1916571728
 10
494.242873312
 20
141.1769123122
  0
LWPOLYLINE
  5
4EF
100
AcDbEntity
  8
0
100
AcDbPolyline
 62
7
  6
CONTINUOUS
 90
8
 70
0
 10
512.0795998521
 20
139.560622063
 10
512.0763367629
 20
139.5611571814
 10
512.0702080351
 20
139.5616739811
 10
512.0612136687
 20
139.5621724621
 10
512.0491949132
 20
139.5626575212
 10
512.0343105191
 20
139.5631242615
 10
512.0170367376
 20
139.5635579928
 10
511.9752374321
 20
139.5643234526
  0
LWPOLYLINE
  5
4F0
100
AcDbEntity
  8
0
100
AcDbPolyline
 62
7
  6
CONTINUOUS
 90
13
 70
0
 10
494.3050318422
 20
141.6846804013
 10
494.2399212852
 20
141.7049940539
 10
494.1715604119
 20
141.7217170762
 10
494.0999492223
 20
141.7348494822
 10
494.0249072383
 20
141.7443209149
 10
493.9466149381
 20
141.7502017506
 10
493.8656137558
 20
141.7527030991
 10
493.7819897634
 20
141.7516168604
 10
493.695656889
 20
141.7471511356
 10
493.6068983517
 20
141.7401413332
 10
493.5158085581
 20
141.7308659199
 10
493.4222931016
 20
141.7190464197
 10
493.3263519824
 20
141.7046828254
  0
LWPOLYLINE
  5
4F1
100
AcDbEntity
  8
0
100
AcDbPolyline
 62
250
  6
CONTINUOUS
 90
19
 70
0
 10
512.8899980271
 20
143.6853724544
 10
512.888986617
 20
143.7047225359
 10
512.8863953798
 20
143.7232878537
 10
512.8822243152
 20
143.7410684079
 10
512.8763029205
 20
143.7582337924
 10
512.8688016984
 20
143.7746144133
 10
512.860232158
 20
143.7897014886
 10
512.8505741003
 20
143.8033422784
 10
512.8398477242
 20
143.8156895225
 10
512.8286251348
 20
143.8266926589
 10
512.8171156713
 20
143.8362293936
 10
512.8051099945
 20
143.8444220207
 10
512.792552192
 20
143.8515868594
 10
512.7795510119
 20
143.8578409793
 10
512.7659977062
 20
143.8630673109
 10
512.7515101181
 20
143.8672309655
 10
512.7359608621
 20
143.8703203135
 10
512.7194773237
 20
143.8723469845
 10
512.7020595029
 20
143.8733109786
  0
LWPOLYLINE
  5
4F2
100
AcDbEntity
  8
0
100
AcDbPolyline
 62
250
  6
CONTINUOUS
 90
3
 70
0
 10
512.9161773556
 20
103.9060570168
 10
512.9159985348
 20
103.9117061542
 10
512.9158298892
 20
103.9211642348
  0
LINE
  5
4F3
100
AcDbEntity
  8
0
100
AcDbLine
 62
250
  6
CONTINUOUS
 10
513.1156640221
 20
104.1192822032
 11
513.1153758769
 21
104.1365680606
  0
LINE
  5
4F4
100
AcDbEntity
  8
0
100
AcDbLine
 62
250
  6
CONTINUOUS
 10
512.9158298892
 20
103.9211642348
 11
512.9155223495
 21
103.9499343442
  0
LINE
  5
4F5
100
AcDbEntity
  8
0
100
AcDbLine
 62
250
  6
CONTINUOUS
 10
513.1153758769
 20
104.1365680606
 11
513.1150363882
 21
104.1693150883
  0
LINE
  5
4F6
100
AcDbEntity
  8
0
100
AcDbLine
 62
250
  6
CONTINUOUS
 10
512.9155223495
 20
103.9499343442
 11
512.9148784528
 21
104.0820248932
  0
LINE
  5
4F7
100
AcDbEntity
  8
0
100
AcDbLine
 62
250
  6
CONTINUOUS
 10
513.1150363882
 20
104.1693150883
 11
513.1146577995
 21
104.2438199647
  0
LINE
  5
4F8
100
AcDbEntity
  8
0
100
AcDbLine
 62
250
  6
CONTINUOUS
 10
513.1146577995
 20
104.2438199647
 11
513.114576439
 21
104.304534896
  0
LINE
  5
4F9
100
AcDbEntity
  8
0
100
AcDbLine
 62
250
  6
CONTINUOUS
 10
512.4469001201
 20
107.1865198373
 11
512.4469001201
 21
104.304534896
  0
LINE
  5
4FA
100
AcDbEntity
  8
0
100
AcDbLine
 62
250
  6
CONTINUOUS
 10
512.7020595029
 20
100.6177437547
 11
512.7020595029
 21
100.3358359685
  0
LINE
  5
4FB
100
AcDbEntity
  8
0
100
AcDbLine
 62
250
  6
CONTINUOUS
 10
512.7020595029
 20
143.8733109786
 11
512.7020595029
 21
144.1552187648
  0
LINE
  5
4FC
100
AcDbEntity
  8
0
100
AcDbLine
 62
250
  6
CONTINUOUS
 10
512.8899980271
 20
100.8056822789
 11
512.8899980271
 21
103.7455273667
  0
LINE
  5
4FD
100
AcDbEntity
  8
0
100
AcDbLine
 62
250
  6
CONTINUOUS
 10
512.8899980271
 20
107.7455273667
 11
512.8899980271
 21
143.6853724544
  0
LINE
  5
4FE
100
AcDbEntity
  8
0
100
AcDbLine
 62
7
  6
CONTINUOUS
 10
513.114576439
 20
104.304534896
 11
513.114576439
 21
107.1865198373
  0
LINE
  5
4FF
100
AcDbEntity
  8
0
100
AcDbLine
 62
7
  6
CONTINUOUS
 10
513.1331297462
 20
103.9352679005
 11
513.1331297462
 21
107.5557868328
  0
LINE
  5
500
100
AcDbEntity
  8
0
100
AcDbLine
 62
250
  6
CONTINUOUS
 10
513.1719058133
 20
100.8056822789
 11
513.1719058133
 21
143.6853724544
  0
LINE
  5
501
100
AcDbEntity
  8
0
100
AcDbLine
 62
7
  6
CONTINUOUS
 10
513.2820454056
 20
143.7955120468
 11
513.2820454056
 21
100.6955426865
  0
LINE
  5
502
100
AcDbEntity
  8
0
100
AcDbLine
 62
7
  6
CONTINUOUS
 10
513.3320454056
 20
143.8151295051
 11
513.3320454056
 21
100.6759252282
  0
LINE
  5
503
100
AcDbEntity
  8
0
100
AcDbLine
 62
250
  6
CONTINUOUS
 10
512.9148784528
 20
104.0820248932
 11
512.9145948507
 21
107.2261614976
  0
LINE
  5
504
100
AcDbEntity
  8
0
100
AcDbLine
 62
250
  6
CONTINUOUS
 10
513.114576439
 20
107.1865198373
 11
513.1147725731
 21
107.2783992398
  0
LINE
  5
505
100
AcDbEntity
  8
0
100
AcDbLine
 62
250
  6
CONTINUOUS
 10
512.9145948507
 20
107.2261614976
 11
512.9152252194
 21
107.4964586464
  0
LINE
  5
506
100
AcDbEntity
  8
0
100
AcDbLine
 62
250
  6
CONTINUOUS
 10
513.1147725731
 20
107.2783992398
 11
513.1151206286
 21
107.331622096
  0
LINE
  5
507
100
AcDbEntity
  8
0
100
AcDbLine
 62
250
  6
CONTINUOUS
 10
512.9152252194
 20
107.4964586464
 11
512.9156491087
 21
107.5548968114
  0
LINE
  5
508
100
AcDbEntity
  8
0
100
AcDbLine
 62
250
  6
CONTINUOUS
 10
513.1151206286
 20
107.331622096
 11
513.1154221901
 21
107.3579058623
  0
LWPOLYLINE
  5
509
100
AcDbEntity
  8
0
100
AcDbPolyline
 62
250
  6
CONTINUOUS
 90
4
 70
0
 10
512.9156491087
 20
107.5548968114
 10
512.9158970441
 20
107.574090725
 10
512.9160332873
 20
107.5807530251
 10
512.9161773086
 20
107.5849977165
  0
LWPOLYLINE
  5
50A
100
AcDbEntity
  8
0
100
AcDbPolyline
 62
250
  6
CONTINUOUS
 90
6
 70
0
 10
513.1154221901
 20
107.3579058623
 10
513.1156415861
 20
107.3708258593
 10
513.1157611014
 20
107.3759183376
 10
513.1158895564
 20
107.3801064881
 10
513.1160257537
 20
107.3833866345
 10
513.1161696932
 20
107.3857587769
  0
LWPOLYLINE
  5
50B
100
AcDbEntity
  8
0
100
AcDbPolyline
 62
7
  6
CONTINUOUS
 90
19
 70
0
 10
513.1331297462
 20
103.9352679005
 10
513.1325711191
 20
103.9204572404
 10
513.130856733
 20
103.9055566711
 10
513.1279286965
 20
103.8906597756
 10
513.1237310024
 20
103.8758741965
 10
513.1182245059
 20
103.8613084414
 10
513.1113972322
 20
103.8470682218
 10
513.103230436
 20
103.8332766942
 10
513.093726215
 20
103.8200679656
 10
513.0829427132
 20
103.8075613763
 10
513.0710296568
 20
103.795984538
 10
513.0579434975
 20
103.7853475787
 10
513.0434163274
 20
103.7755134371
 10
513.0272332399
 20
103.7665782093
 10
513.0096571031
 20
103.7589325758
 10
512.9911623552
 20
103.7528700171
 10
512.9720368748
 20
103.7485186218
 10
512.9523263068
 20
103.7459537159
 10
512.9322159629
 20
103.7452661741
  0
LWPOLYLINE
  5
50C
100
AcDbEntity
  8
0
100
AcDbPolyline
 62
7
  6
CONTINUOUS
 90
19
 70
0
 10
511.914116463
 20
107.7246574701
 10
511.915261098
 20
107.7461395904
 10
511.9186435353
 20
107.7669940083
 10
511.9241454595
 20
107.787000772
 10
511.9317166963
 20
107.8061626571
 10
511.9411553626
 20
107.8240827122
 10
511.9519151464
 20
107.8400648087
 10
511.9635101869
 20
107.8539162444
 10
511.9757658664
 20
107.8658695554
 10
511.9884769301
 20
107.8760061228
 10
512.0015812728
 20
107.8845047515
 10
512.0147291099
 20
107.8913337147
 10
512.0272736332
 20
107.8963762175
 10
512.0390667698
 20
107.8998578503
 10
512.0499119204
 20
107.9019752173
 10
512.0590482476
 20
107.9027679121
 10
512.0661517923
 20
107.9024515851
 10
512.071367212
 20
107.9012945932
 10
512.0746541028
 20
107.8994458636
  0
LWPOLYLINE
  5
50D
100
AcDbEntity
  8
0
100
AcDbPolyline
 62
250
  6
CONTINUOUS
 90
13
 70
0
 10
511.9469191586
 20
107.3958036293
 10
511.9486483112
 20
107.4217970202
 10
511.9537665233
 20
107.4473460861
 10
511.9621863053
 20
107.4720140979
 10
511.9737637318
 20
107.4953793869
 10
511.9883009013
 20
107.5170425533
 10
512.0055493192
 20
107.5366332936
 10
512.0252141455
 20
107.5538167288
 10
512.046959235
 20
107.5682991297
 10
512.0704128827
 20
107.5798329387
 10
512.0951741782
 20
107.5882209999
 10
512.1208198585
 20
107.5933199299
 10
512.1469115432
 20
107.5950425689
  0
LWPOLYLINE
  5
50E
100
AcDbEntity
  8
0
100
AcDbPolyline
 62
250
  6
CONTINUOUS
 90
13
 70
0
 10
511.9867976967
 20
107.3857587773
 10
511.98910693
 20
107.4112177275
 10
511.994392205
 20
107.4362597563
 10
512.0025669681
 20
107.4604747754
 10
512.0134973479
 20
107.4834662406
 10
512.0270043466
 20
107.5048576438
 10
512.0428667709
 20
107.5242986793
 10
512.0608248557
 20
107.5414709824
 10
512.0805845186
 20
107.5560933422
 10
512.1018221736
 20
107.5679263053
 10
512.1241900324
 20
107.5767760982
 10
512.1473217995
 20
107.5824978002
 10
512.1708386698
 20
107.5849977161
  0
LINE
  5
50F
100
AcDbEntity
  8
0
100
AcDbLine
 62
250
  6
CONTINUOUS
 10
511.9469191586
 20
104.095251104
 11
511.9152312519
 21
103.7775732537
  0
LINE
  5
510
100
AcDbEntity
  8
0
100
AcDbLine
 62
250
  6
CONTINUOUS
 10
512.1469115432
 20
103.8960121644
 11
512.1243956171
 21
103.6702853259
  0
LINE
  5
511
100
AcDbEntity
  8
0
100
AcDbLine
 62
250
  6
CONTINUOUS
 10
512.9161773086
 20
107.5849977165
 11
512.9322159629
 21
107.7457885593
  0
LWPOLYLINE
  5
512
100
AcDbEntity
  8
0
100
AcDbPolyline
 62
250
  6
CONTINUOUS
 90
19
 70
0
 10
469.4168752564
 20
143.8733109786
 10
469.3952355987
 20
143.8718401487
 10
469.374903361
 20
143.8687097916
 10
469.3558785432
 20
143.8639199071
 10
469.3380855716
 20
143.8572278726
 10
469.3216000199
 20
143.8488763109
 10
469.3066486094
 20
143.8395930896
 10
469.2933578657
 20
143.8294253219
 10
469.2816012631
 20
143.8183258948
 10
469.2712259459
 20
143.8068813371
 10
469.2623062694
 20
143.7952973532
 10
469.2547678783
 20
143.7833682388
 10
469.2482348499
 20
143.7710634102
 10
469.2425989405
 20
143.7585175181
 10
469.2379683939
 20
143.7455959118
 10
469.2342920189
 20
143.7318640558
 10
469.2315527518
 20
143.717177105
 10
469.2297676562
 20
143.7016799045
 10
469.2289367322
 20
143.6853724544
  0
LINE
  5
513
100
AcDbEntity
  8
0
100
AcDbLine
 62
250
  6
CONTINUOUS
 10
469.2289367322
 20
143.6853724544
 11
468.947028946
 21
143.6853724544
  0
LINE
  5
514
100
AcDbEntity
  8
0
100
AcDbLine
 62
250
  6
CONTINUOUS
 10
512.8899980271
 20
143.6853724544
 11
513.1719058133
 21
143.6853724544
  0
LINE
  5
515
100
AcDbEntity
  8
0
100
AcDbLine
 62
250
  6
CONTINUOUS
 10
512.7020595029
 20
143.8733109786
 11
469.4168752564
 21
143.8733109786
  0
LINE
  5
516
100
AcDbEntity
  8
0
100
AcDbLine
 62
250
  6
CONTINUOUS
 10
512.7020595029
 20
144.1552187648
 11
469.4168752564
 21
144.1552187648
  0
LINE
  5
517
100
AcDbEntity
  8
0
100
AcDbLine
 62
7
  6
CONTINUOUS
 10
469.306735664
 20
144.2653583572
 11
512.8121990953
 21
144.2653583572
  0
LINE
  5
518
100
AcDbEntity
  8
0
100
AcDbLine
 62
7
  6
CONTINUOUS
 10
469.2865087539
 20
144.3153583572
 11
512.8324260054
 21
144.3153583572
  0
LINE
  5
519
100
AcDbEntity
  8
0
100
AcDbLine
 62
7
  6
CONTINUOUS
 10
512.0795998521
 20
139.560622063
 11
512.1249207672
 21
139.5455273667
  0
LINE
  5
51A
100
AcDbEntity
  8
0
100
AcDbLine
 62
250
  6
CONTINUOUS
 10
513.1161696932
 20
107.3857587769
 11
513.1331297462
 21
107.5557868328
  0
LWPOLYLINE
  5
51B
100
AcDbEntity
  8
0
100
AcDbPolyline
 62
250
  6
CONTINUOUS
 90
19
 70
0
 10
469.4168773592
 20
144.155216662
 10
469.3664752898
 20
144.1492268758
 10
469.3182136069
 20
144.1385289319
 10
469.2724906095
 20
144.1236337808
 10
469.2295576479
 20
144.1049977862
 10
469.189723887
 20
144.0831806455
 10
469.1533277515
 20
144.0589048843
 10
469.1205286348
 20
144.0327710523
 10
469.0912138872
 20
144.0052134338
 10
469.0651969779
 20
143.9766996894
 10
469.0425945171
 20
143.9479366248
 10
469.0230259705
 20
143.9189897914
 10
469.0057048594
 20
143.8891694414
 10
468.9906740612
 20
143.8587896865
 10
468.9778902378
 20
143.8278899373
 10
468.9668785985
 20
143.7951397826
 10
468.9577861254
 20
143.760130174
 10
468.9510759956
 20
143.7234843111
 10
468.947028946
 20
143.6853724544
  0
LWPOLYLINE
  5
51C
100
AcDbEntity
  8
0
100
AcDbPolyline
 62
250
  6
CONTINUOUS
 90
19
 70
0
 10
513.1719039254
 20
143.6853705666
 10
513.1668376167
 20
143.7303511163
 10
513.1577892699
 20
143.7743661167
 10
513.1449422699
 20
143.8170834422
 10
513.1283952667
 20
143.8584141218
 10
513.1084478134
 20
143.897836897
 10
513.0857773197
 20
143.9344813211
 10
513.0608721422
 20
143.968064541
 10
513.0340499137
 20
143.9986602518
 10
513.0059144505
 20
144.026113825
 10
512.9772366668
 20
144.0501644963
 10
512.9480006989
 20
144.0712382707
 10
512.9174876103
 20
144.0901046541
 10
512.8859535777
 20
144.1066792711
 10
512.8534847565
 20
144.1209172109
 10
512.8188733878
 20
144.133206315
 10
512.7817612188
 20
144.1433346093
 10
512.7427554467
 20
144.1507865579
 10
512.7020595029
 20
144.1552187648
  0
LINE
  5
51D
100
AcDbEntity
  8
0
100
AcDbLine
 62
7
  6
CONTINUOUS
 10
511.9148791959
 20
104.9260291375
 11
511.924627568
 21
104.9455273667
  0
LWPOLYLINE
  5
51E
100
AcDbEntity
  8
0
100
AcDbPolyline
 62
7
  6
CONTINUOUS
 90
19
 70
0
 10
512.0821118392
 20
103.6028392564
 10
512.0787203595
 20
103.6008598167
 10
512.0732771958
 20
103.5995351996
 10
512.0658216207
 20
103.5990296201
 10
512.056155453
 20
103.5996405689
 10
512.0446618577
 20
103.6016132416
 10
512.0322662617
 20
103.6049795698
 10
512.019241067
 20
103.6099070319
 10
512.0056544402
 20
103.616638832
 10
511.9920859835
 20
103.6250988221
 10
511.978868853
 20
103.6352896372
 10
511.9661145094
 20
103.6473781508
 10
511.9540682901
 20
103.6614220845
 10
511.9429005907
 20
103.6776764478
 10
511.933134086
 20
103.695920539
 10
511.9253702494
 20
103.7153266671
 10
511.9197880568
 20
103.7354302763
 10
511.9163823161
 20
103.7562555206
 10
511.9152312519
 20
103.7775732537
  0
LINE
  5
51F
100
AcDbEntity
  8
0
100
AcDbLine
 62
250
  6
CONTINUOUS
 10
512.4469001201
 20
104.3046023759
 11
512.4068500117
 21
104.2847892429
  0
LINE
  5
520
100
AcDbEntity
  8
0
100
AcDbLine
 62
250
  6
CONTINUOUS
 10
512.4068500117
 20
104.2847892429
 11
512.3315745677
 21
104.2482328888
  0
LWPOLYLINE
  5
521
100
AcDbEntity
  8
0
100
AcDbPolyline
 62
250
  6
CONTINUOUS
 90
15
 70
0
 10
512.3315745677
 20
104.2482328888
 10
512.2638731166
 20
104.2156918607
 10
512.2329994833
 20
104.2010731376
 10
512.2042179873
 20
104.1876667345
 10
512.1774685079
 20
104.1754004703
 10
512.1524698792
 20
104.1641746368
 10
512.1293611822
 20
104.1540199121
 10
512.1079788038
 20
104.144905618
 10
512.0876921993
 20
104.1366400118
 10
512.0686651974
 20
104.1291291564
 10
512.0508451905
 20
104.1224669889
 10
512.0335425909
 20
104.1167435783
 10
512.0167808839
 20
104.1119889475
 10
512.001102218
 20
104.1081730735
 10
511.9867976999
 20
104.1052959564
  0
LWPOLYLINE
  5
522
100
AcDbEntity
  8
0
100
AcDbPolyline
 62
7
  6
CONTINUOUS
 90
10
 70
0
 10
512.1694673796
 20
103.7455273667
 10
512.1192946565
 20
103.6618235498
 10
512.1142958532
 20
103.6536094456
 10
512.1093992073
 20
103.6456430135
 10
512.1046066792
 20
103.6379319008
 10
512.0999163084
 20
103.6304684601
 10
512.095322214
 20
103.6232297493
 10
512.0908224356
 20
103.6162081209
 10
512.0864189335
 20
103.6094112223
 10
512.0821117078
 20
103.6028390536
  0
LINE
  5
523
100
AcDbEntity
  8
0
100
AcDbLine
 62
250
  6
CONTINUOUS
 10
512.4470171147
 20
104.304534896
 11
512.3777082084
 21
104.1919253318
  0
LWPOLYLINE
  5
524
100
AcDbEntity
  8
0
100
AcDbPolyline
 62
250
  6
CONTINUOUS
 90
16
 70
0
 10
512.3777082084
 20
104.1919253318
 10
512.3568356178
 20
104.1582580786
 10
512.3370911911
 20
104.1268262669
 10
512.3185527774
 20
104.0976201604
 10
512.3012997231
 20
104.0707744978
 10
512.2852526817
 20
104.0462555329
 10
512.2702514628
 20
104.0238038902
 10
512.2563522189
 20
104.0035677385
 10
512.2434987975
 20
103.9853957225
 10
512.2313625503
 20
103.9687530979
 10
512.2199119894
 20
103.9538687231
 10
512.2091786027
 20
103.9407373991
 10
512.1989282055
 20
103.9289327578
 10
512.189082736
 20
103.9187736257
 10
512.179720256
 20
103.9109748694
 10
512.1708407655
 20
103.9060570168
  0
CIRCLE
  5
525
100
AcDbEntity
  8
ASSI
100
AcDbCircle
 62
7
  6
CONTINUOUS
 10
494.8094673796
 20
128.7455273667
 40
0.5
  0
CIRCLE
  5
526
100
AcDbEntity
  8
ASSI
100
AcDbCircle
 62
7
  6
CONTINUOUS
 10
494.8094673796
 20
115.7455273667
 40
0.5
  0
CIRCLE
  5
527
100
AcDbEntity
  8
ASSI
100
AcDbCircle
 62
7
  6
CONTINUOUS
 10
487.3094673796
 20
128.7455273667
 40
0.5
  0
CIRCLE
  5
528
100
AcDbEntity
  8
ASSI
100
AcDbCircle
 62
7
  6
CONTINUOUS
 10
487.3094673796
 20
115.7455273667
 40
0.5
  0
ELLIPSE
  5
529
100
AcDbEntity
  8
0
100
AcDbEllipse
 62
7
  6
CONTINUOUS
 10
443.9394865214
 20
122.2455273667
 30
0.0
 11
0.0
 21
497.9
 31
0.0
 40
0.0524077793
 41
-1.5878688573
 42
-1.5537237963
  0
ELLIPSE
  5
52A
100
AcDbEntity
  8
0
100
AcDbEllipse
 62
7
  6
CONTINUOUS
 10
538.1794482378
 20
122.2455273667
 30
0.0
 11
-0.0
 21
497.9
 31
0.0
 40
0.0524077793
 41
1.5537237963
 42
1.5878688573
  0
ELLIPSE
  5
52B
100
AcDbEntity
  8
0
100
AcDbEllipse
 62
7
  6
CONTINUOUS
 10
469.2869655176
 20
100.6763825491
 30
0.0
 11
0.1582391023
 21
0.4751033573
 31
0.0
 40
0.9984778551
 41
-4.3904252414
 42
-2.8205423031
  0
ELLIPSE
  5
52C
100
AcDbEntity
  8
0
100
AcDbEllipse
 62
7
  6
CONTINUOUS
 10
469.2869655176
 20
143.8146721842
 30
0.0
 11
-0.1582391023
 21
0.4751033573
 31
0.0
 40
0.9984778551
 41
-0.3210503505
 42
1.2488325878
  0
ELLIPSE
  5
52D
100
AcDbEntity
  8
0
100
AcDbEllipse
 62
7
  6
CONTINUOUS
 10
512.8319692416
 20
143.8146721842
 30
0.0
 11
0.1582391023
 21
0.4751033573
 31
0.0
 40
0.9984778551
 41
-1.2488325878
 42
0.3210503505
  0
ELLIPSE
  5
52E
100
AcDbEntity
  8
0
100
AcDbEllipse
 62
7
  6
CONTINUOUS
 10
512.8319692416
 20
100.6763825491
 30
0.0
 11
-0.1582391023
 21
0.4751033573
 31
0.0
 40
0.9984778551
 41
-3.4626430041
 42
-1.8927600658
  0
ELLIPSE
  5
52F
100
AcDbEntity
  8
0
100
AcDbEllipse
 62
7
  6
CONTINUOUS
 10
478.2103681153
 20
109.1496020518
 30
0.0
 11
0.1086702276
 21
0.1692379683
 31
0.0
 40
0.9857548738
 41
-2.5633246127
 42
-0.9934416744
  0
ELLIPSE
  5
530
100
AcDbEntity
  8
0
100
AcDbEllipse
 62
7
  6
CONTINUOUS
 10
478.2103681153
 20
112.3414526815
 30
0.0
 11
0.1086702276
 21
-0.1692379683
 31
0.0
 40
0.9857548738
 41
0.9934416744
 42
2.5633246127
  0
ELLIPSE
  5
531
100
AcDbEntity
  8
0
100
AcDbEllipse
 62
7
  6
CONTINUOUS
 10
503.9085666439
 20
109.1496020518
 30
0.0
 11
0.1086702276
 21
-0.1692379683
 31
0.0
 40
0.9857548738
 41
-2.1481509792
 42
-0.5782680409
  0
ELLIPSE
  5
532
100
AcDbEntity
  8
0
100
AcDbEllipse
 62
7
  6
CONTINUOUS
 10
503.9085666439
 20
112.3414526815
 30
0.0
 11
0.1086702276
 21
0.1692379683
 31
0.0
 40
0.9857548738
 41
0.5782680409
 42
2.1481509792
  0
ELLIPSE
  5
533
100
AcDbEntity
  8
0
100
AcDbEllipse
 62
7
  6
CONTINUOUS
 10
478.2103681153
 20
135.3414526815
 30
0.0
 11
0.1086702276
 21
-0.1692379683
 31
0.0
 40
0.9857548738
 41
0.9934416744
 42
2.5633246127
  0
ELLIPSE
  5
534
100
AcDbEntity
  8
0
100
AcDbEllipse
 62
7
  6
CONTINUOUS
 10
478.2103681153
 20
132.1496020518
 30
0.0
 11
0.1086702276
 21
0.1692379683
 31
0.0
 40
0.9857548738
 41
-2.5633246127
 42
-0.9934416744
  0
ELLIPSE
  5
535
100
AcDbEntity
  8
0
100
AcDbEllipse
 62
7
  6
CONTINUOUS
 10
503.9085666439
 20
135.3414526815
 30
0.0
 11
0.1086702276
 21
0.1692379683
 31
0.0
 40
0.9857548738
 41
0.5782680409
 42
2.1481509792
  0
ELLIPSE
  5
536
100
AcDbEntity
  8
0
100
AcDbEllipse
 62
7
  6
CONTINUOUS
 10
503.9085666439
 20
132.1496020518
 30
0.0
 11
0.1086702276
 21
-0.1692379683
 31
0.0
 40
0.9857548738
 41
-2.1481509792
 42
-0.5782680409
  0
ELLIPSE
  5
537
100
AcDbEntity
  8
0
100
AcDbEllipse
 62
7
  6
CONTINUOUS
 10
476.3816818506
 20
122.2455273667
 30
0.0
 11
0.0
 21
498.6
 31
0.0
 40
0.0174550649
 41
-1.6055406961
 42
-1.6038537815
  0
ELLIPSE
  5
538
100
AcDbEntity
  8
0
100
AcDbEllipse
 62
7
  6
CONTINUOUS
 10
503.1397127196
 20
122.2455273667
 30
0.0
 11
-0.0
 21
498.6
 31
0.0
 40
0.0524077793
 41
-4.6914821067
 42
-4.6858140592
  0
ELLIPSE
  5
539
100
AcDbEntity
  8
0
100
AcDbEllipse
 62
7
  6
CONTINUOUS
 10
469.3689782398
 20
100.7577852624
 30
0.0
 11
0.3976412741
 21
0.3976412741
 31
0.0
 40
0.8891264907
 41
-3.8683677079
 42
-2.4148175993
  0
ELLIPSE
  5
53A
100
AcDbEntity
  8
0
100
AcDbEllipse
 62
7
  6
CONTINUOUS
 10
512.7499565194
 20
100.7577852624
 30
0.0
 11
0.3976412741
 21
-0.3976412741
 31
0.0
 40
0.8891264907
 41
-0.7267750543
 42
0.7267750543
  0
ELLIPSE
  5
53B
100
AcDbEntity
  8
0
100
AcDbEllipse
 62
7
  6
CONTINUOUS
 10
512.7499565194
 20
143.7332694709
 30
0.0
 11
0.3976412741
 21
0.3976412741
 31
0.0
 40
0.8891264907
 41
-0.7267750543
 42
0.7267750543
  0
ELLIPSE
  5
53C
100
AcDbEntity
  8
0
100
AcDbEllipse
 62
7
  6
CONTINUOUS
 10
469.3689782398
 20
143.7332694709
 30
0.0
 11
-0.3976412741
 21
0.3976412741
 31
0.0
 40
0.8891264907
 41
-0.7267750543
 42
0.7267750543
  0
ELLIPSE
  5
53D
100
AcDbEntity
  8
0
100
AcDbEllipse
 62
7
  6
CONTINUOUS
 10
512.8899980271
 20
107.7717739657
 30
0.0
 11
0.3
 21
-0.0
 31
0.0
 40
0.0874886635
 41
-1.5707963268
 42
-1.4296011956
  0
ELLIPSE
  5
53E
100
AcDbEntity
  8
0
100
AcDbEllipse
 62
7
  6
CONTINUOUS
 10
512.8899980271
 20
103.7192807676
 30
0.0
 11
0.3
 21
0.0
 31
0.0
 40
0.0874886635
 41
1.4296011956
 42
1.5707963268
  0
ELLIPSE
  5
53F
100
AcDbEntity
  8
0
100
AcDbEllipse
 62
7
  6
CONTINUOUS
 10
503.1397127196
 20
122.2455273667
 30
0.0
 11
-0.0
 21
498.6
 31
0.0
 40
0.0524077793
 41
1.5442214056
 42
1.5498894531
  0
ELLIPSE
  5
540
100
AcDbEntity
  8
0
100
AcDbEllipse
 62
7
  6
CONTINUOUS
 10
504.8518177638
 20
112.4452528975
 30
0.0
 11
0.1418092487
 21
0.1418092487
 31
0.0
 40
0.9972646886
 41
-0.7840286355
 42
0.7840286355
  0
ELLIPSE
  5
541
100
AcDbEntity
  8
0
100
AcDbEllipse
 62
7
  6
CONTINUOUS
 10
477.2671169955
 20
112.4452528975
 30
0.0
 11
-0.1418092487
 21
0.1418092487
 31
0.0
 40
0.9972646886
 41
-0.7840286355
 42
0.7840286355
  0
ELLIPSE
  5
542
100
AcDbEntity
  8
0
100
AcDbEllipse
 62
7
  6
CONTINUOUS
 10
504.8518177638
 20
132.0458018359
 30
0.0
 11
-0.1418092487
 21
0.1418092487
 31
0.0
 40
0.9972646886
 41
-3.9256212891
 42
-2.3575640181
  0
ELLIPSE
  5
543
100
AcDbEntity
  8
0
100
AcDbEllipse
 62
7
  6
CONTINUOUS
 10
477.2671169955
 20
132.0458018359
 30
0.0
 11
0.1418092487
 21
0.1418092487
 31
0.0
 40
0.9972646886
 41
-3.9256212891
 42
-2.3575640181
  0
ELLIPSE
  5
544
100
AcDbEntity
  8
0
100
AcDbEllipse
 62
7
  6
CONTINUOUS
 10
476.3816818506
 20
122.2455273667
 30
0.0
 11
0.0
 21
498.6
 31
0.0
 40
0.0174550649
 41
-1.5377388721
 42
-1.5360519575
  0
ELLIPSE
  5
545
100
AcDbEntity
  8
0
100
AcDbEllipse
 62
7
  6
CONTINUOUS
 10
505.7372529087
 20
122.2455273667
 30
0.0
 11
-0.0
 21
498.6
 31
0.0
 40
0.0174550649
 41
1.5360519575
 42
1.5377388721
  0
ELLIPSE
  5
546
100
AcDbEntity
  8
0
100
AcDbEllipse
 62
7
  6
CONTINUOUS
 10
478.9792220396
 20
122.2455273667
 30
0.0
 11
0.0
 21
498.6
 31
0.0
 40
0.0524077793
 41
-1.5498894531
 42
-1.5442214056
  0
ELLIPSE
  5
547
100
AcDbEntity
  8
0
100
AcDbEllipse
 62
7
  6
CONTINUOUS
 10
478.9792220396
 20
122.2455273667
 30
0.0
 11
0.0
 21
498.6
 31
0.0
 40
0.0524077793
 41
-1.597371248
 42
-1.5917032005
  0
ELLIPSE
  5
548
100
AcDbEntity
  8
0
100
AcDbEllipse
 62
7
  6
CONTINUOUS
 10
505.7372529087
 20
122.2455273667
 30
0.0
 11
-0.0
 21
498.6
 31
0.0
 40
0.0174550649
 41
-4.6793315257
 42
-4.6776446111
  0
ENDSEC
  0
SECTION
  2
OBJECTS
  0
DICTIONARY
  5
C
100
AcDbDictionary
280
0
281
1
  3
ACAD_GROUP
350
D
  3
ACAD_MLINESTYLE
350
17
  3
ACAD_LAYOUT
350
1A
  3
ACAD_PLOTSETTINGS
350
19
  3
ACAD_PLOTSTYLENAME
350
E
  0
DICTIONARY
  5
D
102
{ACAD_REACTORS
330
C
102
}
100
AcDbDictionary
280
0
281
1
  0
ACDBDICTIONARYWDFLT
  5
E
102
{ACAD_REACTORS
330
C
102
}
100
AcDbDictionary
281
1
  3
Normal
350
F
100
AcDbDictionaryWithDefault
340
F
  0
DICTIONARY
  5
17
102
{ACAD_REACTORS
330
C
102
}
100
AcDbDictionary
280
0
281
1
  3
Standard
350
18
  0
DICTIONARY
  5
19
102
{ACAD_REACTORS
330
C
102
}
100
AcDbDictionary
281
1
  0
DICTIONARY
  5
1A
102
{ACAD_REACTORS
330
C
102
}
100
AcDbDictionary
281
1
  3
Model
350
549
  3
Layout1
350
54A
  0
ACDBPLACEHOLDER
  5
F
102
{ACAD_REACTORS
330
E
102
}
  0
MLINESTYLE
  5
18
102
{ACAD_REACTORS
330
17
102
}
100
AcDbMlineStyle
  2
STANDARD
 70
0
  3

 62
256
 51
90.0
 52
90.0
 71
2
 49
0.5
 62
256
  6
BYLAYER
 49
-0.5
 62
256
  6
BYLAYER
  0
LAYOUT
  5
549
102
{ACAD_REACTORS
330
1A
102
}
100
AcDbPlotSettings
  1

  2
none_device
  4
ANSI_C_(22.00_x_17.00_Inches)
  6

 40
0.0
 41
0.0
 42
0.0
 43
0.0
 44
558.8
 45
431.8
 46
0.0
 47
0.0
 48
0.0
 49
0.0
140
0.0
141
0.0
142
1.0
143
1.0
 70
1024
 72
1
 73
0
 74
0
  7

 75
0
147
1.0
148
0.0
149
0.0
100
AcDbLayout
  1
Model
 70
0
 71
0
 10
0.0
 20
0.0
 11
558.8
 21
431.8
 12
0.0
 22
0.0
 32
0.0
 14
0.0
 24
0.0
 34
0.0
 15
0.0
 25
0.0
 35
0.0
146
0.0
 13
0.0
 23
0.0
 33
0.0
 16
1.0
 26
0.0
 36
0.0
 17
0.0
 27
1.0
 37
0.0
 76
0
330
214
345
0
346
0
  0
LAYOUT
  5
54A
102
{ACAD_REACTORS
330
1A
102
}
100
AcDbPlotSettings
  1

  2
none_device
  4
ANSI_C_(22.00_x_17.00_Inches)
  6

 40
0.0
 41
0.0
 42
0.0
 43
0.0
 44
558.8
 45
431.8
 46
0.0
 47
0.0
 48
0.0
 49
0.0
140
0.0
141
0.0
142
1.0
143
1.0
 70
0
 72
1
 73
0
 74
0
  7

 75
0
147
1.0
148
0.0
149
0.0
100
AcDbLayout
  1
Layout1
 70
0
 71
1
 10
0.0
 20
0.0
 11
558.8
 21
431.8
 12
0.0
 22
0.0
 32
0.0
 14
0.0
 24
0.0
 34
0.0
 15
0.0
 25
0.0
 35
0.0
146
0.0
 13
0.0
 23
0.0
 33
0.0
 16
1.0
 26
0.0
 36
0.0
 17
0.0
 27
1.0
 37
0.0
 76
0
330
215
345
0
346
0
  0
ENDSEC
  0
EOF
