  0
SECTION
  2
HEADER
  9
$ACADVER
  1
AC1015
  9
$DWGCODEPAGE
  3
ANSI_1252
  9
$EXTMAX
 10
297.0
 20
210.0
 30
0.0
  9
$EXTMIN
 10
0.0
 20
0.0
 30
0.0
  9
$LIMMIN
 10
0.0
 20
0.0
  9
$LIMMAX
 10
297.0
 20
210.0
  9
$VIEWCTR
 10
148.5
 20
105.0
  9
$VIEWSIZE
 40
210.0
  9
$CLAYER
  8
0
  9
$LTSCALE
 40
16.335
  9
$CELTYPE
  6
BYLAYER
  9
$DIMSCALE
 40
1.0
  9
$DIMASZ
 40
3.0
  9
$DIMEXO
 40
0.5
  9
$DIMDLI
 40
11.286
  9
$DIMEXE
 40
1.5
  9
$DIMCEN
 40
2.673
  9
$DIMLFAC
 40
1.0
  9
$DIMBLK
  1
_FILLED
  9
$DIMTXT
 40
3.0
  9
$DIMTOL
 70
1
  9
$DIMLIM
 70
0
  9
$DIMTFAC
 40
1.0
  9
$DIMTP
 40
0.01
  9
$DIMTM
 40
0.01
  9
$DIMGAP
 40
0.625
  9
$DIMDSEP
 70
44
  9
$PDMODE
 70
3
  9
$PDSIZE
 40
3.0
  9
$HANDSEED
  5
911
  9
$TILEMODE
 70
1
  9
$MEASUREMENT
 70
1
  9
$INSUNITS
 70
4
  0
ENDSEC
  0
SECTION
  2
CLASSES
  0
CLASS
  1
ACDBDICTIONARYWDFLT
  2
AcDbDictionaryWithDefault
  3
AutoCAD 2000
 90
0
280
0
281
0
  0
CLASS
  1
ACDBPLACEHOLDER
  2
AcDbPlaceHolder
  3
AutoCAD 2000
 90
0
280
0
281
0
  0
CLASS
  1
LAYOUT
  2
AcDbLayout
  3
AutoCAD 2000
 90
0
280
0
281
0
  0
ENDSEC
  0
SECTION
  2
TABLES
  0
TABLE
  2
VPORT
  5
8
100
AcDbSymbolTable
 70
2
  0
VPORT
  5
1F4
100
AcDbSymbolTableRecord
100
AcDbViewportTableRecord
  2
*ACTIVE
 70
0
 10
0.0
 20
0.0
 11
1.0
 21
1.0
 12
148.5
 22
105.0
 13
0.0
 23
0.0
 14
1.0
 24
1.0
 15
0.0
 25
0.0
 16
0.0
 26
0.0
 36
1.0
 17
0.0
 27
0.0
 37
0.0
 40
210.0
 41
1.4142857143
 42
50.0
 43
0.0
 44
0.0
 50
0.0
 51
0.0
 71
0
 72
100
 73
1
 74
1
 75
0
 76
0
 77
0
 78
0
  0
ENDTAB
  0
TABLE
  2
LTYPE
  5
5
100
AcDbSymbolTable
 70
6
  0
LTYPE
  5
14
100
AcDbSymbolTableRecord
100
AcDbLinetypeTableRecord
  2
BYBLOCK
 70
0
  3

 72
65
 73
0
 40
0.0
  0
LTYPE
  5
15
100
AcDbSymbolTableRecord
100
AcDbLinetypeTableRecord
  2
BYLAYER
 70
0
  3

 72
65
 73
0
 40
0.0
  0
LTYPE
  5
16
100
AcDbSymbolTableRecord
100
AcDbLinetypeTableRecord
  2
CONTINUOUS
 70
64
  3
Solid line
 72
65
 73
0
 40
0.0
  0
LTYPE
  5
1F5
100
AcDbSymbolTableRecord
100
AcDbLinetypeTableRecord
  2
CENTER
 70
64
  3
____ _ ____ _ ____ _ ____ _ ____ _ ____ _ ____
 72
65
 73
4
 40
0.6
 49
0.375
 74
0
 49
-0.075
 74
0
 49
0.075
 74
0
 49
-0.075
 74
0
  0
LTYPE
  5
1F6
100
AcDbSymbolTableRecord
100
AcDbLinetypeTableRecord
  2
HIDDEN
 70
64
  3
- - - - - - - - - - - - - - - - - - - -
 72
65
 73
2
 40
0.2
 49
0.1
 74
0
 49
-0.1
 74
0
  0
LTYPE
  5
1F7
100
AcDbSymbolTableRecord
100
AcDbLinetypeTableRecord
  2
PHANTOM
 70
64
  3
_____ _ _ _____ _ _ _____ _ _ _____
 72
65
 73
6
 40
0.8
 49
0.45
 74
0
 49
-0.05
 74
0
 49
0.1
 74
0
 49
-0.05
 74
0
 49
0.1
 74
0
 49
-0.05
 74
0
  0
LTYPE
  5
1F8
100
AcDbSymbolTableRecord
100
AcDbLinetypeTableRecord
  2
DOT
 70
64
  3
. . . . . . . . . . . . . . . . . . . .
 72
65
 73
2
 40
0.2
 49
0.1
 74
0
 49
-0.1
 74
0
  0
LTYPE
  5
1F9
100
AcDbSymbolTableRecord
100
AcDbLinetypeTableRecord
  2
DASHED
 70
64
  3
- - - - - - - - - - - - - - - - - - - -
 72
65
 73
2
 40
0.2
 49
0.1
 74
0
 49
-0.1
 74
0
  0
ENDTAB
  0
TABLE
  2
LAYER
  5
2
100
AcDbSymbolTable
 70
36
  0
LAYER
  5
10
100
AcDbSymbolTableRecord
100
AcDbLayerTableRecord
  2
0
 70
0
 62
7
  6
CONTINUOUS
370
-3
390
F
  0
LAYER
  5
1FA
100
AcDbSymbolTableRecord
100
AcDbLayerTableRecord
  2
DEFAULT_1
 70
0
 62
7
  6
CENTER
370
-3
390
F
  0
LAYER
  5
1FB
100
AcDbSymbolTableRecord
100
AcDbLayerTableRecord
  2
DEFAULT_2
 70
0
 62
7
  6
HIDDEN
370
-3
390
F
  0
LAYER
  5
1FC
100
AcDbSymbolTableRecord
100
AcDbLayerTableRecord
  2
DEFAULT_3
 70
0
 62
7
  6
PHANTOM
370
-3
390
F
  0
LAYER
  5
1FD
100
AcDbSymbolTableRecord
100
AcDbLayerTableRecord
  2
ASSI
 70
0
 62
7
  6
CONTINUOUS
370
-3
390
F
  0
LAYER
  5
1FE
100
AcDbSymbolTableRecord
100
AcDbLayerTableRecord
  2
COORDINATE
 70
0
 62
7
  6
CONTINUOUS
370
-3
390
F
  0
LAYER
  5
1FF
100
AcDbSymbolTableRecord
100
AcDbLayerTableRecord
  2
COORD_ORIGINE
 70
0
 62
7
  6
CONTINUOUS
370
-3
390
F
  0
LAYER
  5
200
100
AcDbSymbolTableRecord
100
AcDbLayerTableRecord
  2
COPY
 70
0
 62
7
  6
CONTINUOUS
370
-3
390
F
  0
LAYER
  5
201
100
AcDbSymbolTableRecord
100
AcDbLayerTableRecord
  2
COPY_PUBLISH
 70
0
 62
7
  6
CONTINUOUS
370
-3
390
F
  0
LAYER
  5
202
100
AcDbSymbolTableRecord
100
AcDbLayerTableRecord
  2
COSMETICI
 70
0
 62
7
  6
CONTINUOUS
370
-3
390
F
  0
LAYER
  5
203
100
AcDbSymbolTableRecord
100
AcDbLayerTableRecord
  2
CURVE
 70
0
 62
7
  6
CONTINUOUS
370
-3
390
F
  0
LAYER
  5
204
100
AcDbSymbolTableRecord
100
AcDbLayerTableRecord
  2
DRAFT
 70
0
 62
7
  6
CONTINUOUS
370
-3
390
F
  0
LAYER
  5
205
100
AcDbSymbolTableRecord
100
AcDbLayerTableRecord
  2
IGES
 70
0
 62
7
  6
CONTINUOUS
370
-3
390
F
  0
LAYER
  5
206
100
AcDbSymbolTableRecord
100
AcDbLayerTableRecord
  2
IMPORT_IGES
 70
0
 62
7
  6
CONTINUOUS
370
-3
390
F
  0
LAYER
  5
207
100
AcDbSymbolTableRecord
100
AcDbLayerTableRecord
  2
INTFCLR_2
 70
0
 62
7
  6
CONTINUOUS
370
-3
390
F
  0
LAYER
  5
208
100
AcDbSymbolTableRecord
100
AcDbLayerTableRecord
  2
INTFCLR_3
 70
0
 62
7
  6
CONTINUOUS
370
-3
390
F
  0
LAYER
  5
209
100
AcDbSymbolTableRecord
100
AcDbLayerTableRecord
  2
INTFCLR_4
 70
0
 62
7
  6
CONTINUOUS
370
-3
390
F
  0
LAYER
  5
20A
100
AcDbSymbolTableRecord
100
AcDbLayerTableRecord
  2
INTF_1
 70
0
 62
7
  6
CONTINUOUS
370
-3
390
F
  0
LAYER
  5
20B
100
AcDbSymbolTableRecord
100
AcDbLayerTableRecord
  2
NOTE
 70
0
 62
7
  6
CONTINUOUS
370
-3
390
F
  0
LAYER
  5
20C
100
AcDbSymbolTableRecord
100
AcDbLayerTableRecord
  2
PIANI
 70
0
 62
7
  6
CONTINUOUS
370
-3
390
F
  0
LAYER
  5
20D
100
AcDbSymbolTableRecord
100
AcDbLayerTableRecord
  2
PIANI_ORIGINE
 70
0
 62
7
  6
CONTINUOUS
370
-3
390
F
  0
LAYER
  5
20E
100
AcDbSymbolTableRecord
100
AcDbLayerTableRecord
  2
PIANI_RIFERIMENTO
 70
0
 62
7
  6
CONTINUOUS
370
-3
390
F
  0
LAYER
  5
20F
100
AcDbSymbolTableRecord
100
AcDbLayerTableRecord
  2
PIANI_SFORMO
 70
0
 62
7
  6
CONTINUOUS
370
-3
390
F
  0
LAYER
  5
210
100
AcDbSymbolTableRecord
100
AcDbLayerTableRecord
  2
PUNTI
 70
0
 62
7
  6
CONTINUOUS
370
-3
390
F
  0
LAYER
  5
211
100
AcDbSymbolTableRecord
100
AcDbLayerTableRecord
  2
RACCORDO
 70
0
 62
7
  6
CONTINUOUS
370
-3
390
F
  0
LAYER
  5
212
100
AcDbSymbolTableRecord
100
AcDbLayerTableRecord
  2
SIMBOLI
 70
0
 62
7
  6
CONTINUOUS
370
-3
390
F
  0
LAYER
  5
213
100
AcDbSymbolTableRecord
100
AcDbLayerTableRecord
  2
SMUSSO
 70
0
 62
7
  6
CONTINUOUS
370
-3
390
F
  0
LAYER
  5
214
100
AcDbSymbolTableRecord
100
AcDbLayerTableRecord
  2
SNAPLINE
 70
0
 62
7
  6
CONTINUOUS
370
-3
390
F
  0
LAYER
  5
215
100
AcDbSymbolTableRecord
100
AcDbLayerTableRecord
  2
SUPERFICI
 70
0
 62
7
  6
CONTINUOUS
370
-3
390
F
  0
LAYER
  5
216
100
AcDbSymbolTableRecord
100
AcDbLayerTableRecord
  2
TRASH
 70
0
 62
7
  6
CONTINUOUS
370
-3
390
F
  0
LAYER
  5
217
100
AcDbSymbolTableRecord
100
AcDbLayerTableRecord
  2
XSEC_DATUMS
 70
0
 62
7
  6
CONTINUOUS
370
-3
390
F
  0
ENDTAB
  0
TABLE
  2
STYLE
  5
3
100
AcDbSymbolTable
 70
1
  0
STYLE
  5
11
100
AcDbSymbolTableRecord
100
AcDbTextStyleTableRecord
  2
STANDARD
 70
0
 40
0.0
 41
0.8
 50
0.0
 71
0
 42
0.2
  3
txt
  4

  0
STYLE
  5
218
100
AcDbSymbolTableRecord
100
AcDbTextStyleTableRecord
  2
TEXTSTYLE_1
 70
0
 40
0.0
 41
0.8
 50
0.0
 71
0
 42
0.2
  3
gdt
  4

  0
ENDTAB
  0
TABLE
  2
VIEW
  5
6
100
AcDbSymbolTable
 70
0
  0
ENDTAB
  0
TABLE
  2
UCS
  5
7
100
AcDbSymbolTable
 70
0
  0
ENDTAB
  0
TABLE
  2
APPID
  5
9
100
AcDbSymbolTable
 70
1
  0
APPID
  5
219
100
AcDbSymbolTableRecord
100
AcDbRegAppTableRecord
  2
ACAD
 70
0
  0
ENDTAB
  0
TABLE
  2
BLOCK_RECORD
  5
1
100
AcDbSymbolTable
 70
0
  0
BLOCK_RECORD
  5
21A
100
AcDbSymbolTableRecord
100
AcDbBlockTableRecord
  2
*Model_Space
  0
BLOCK_RECORD
  5
21B
100
AcDbSymbolTableRecord
100
AcDbBlockTableRecord
  2
*Paper_Space
  0
ENDTAB
  0
TABLE
  2
DIMSTYLE
  5
A
100
AcDbSymbolTable
 70
1
100
AcDbDimStyleTable
 71
0
  0
DIMSTYLE
105
21C
100
AcDbSymbolTableRecord
100
AcDbDimStyleTableRecord
  2
STANDARD
 70
0
  3

  4

 40
1.0
 41
3.0
 42
0.5
 43
0.38
 44
1.5
 45
0.0
 46
0.0
 47
0.01
 48
0.01
140
3.0
141
0.09
142
0.0
143
25.4
144
1.0
145
0.0
146
1.0
147
0.625
 71
1.0
 72
0.0
 73
0
 74
0
 75
0
 76
0
 77
1
 78
8
170
0
171
2
172
0
173
0
174
0
175
0
176
0
177
0
178
0
270
2
271
2
272
2
273
2
274
2
275
0
280
0
281
0
282
0
283
1
284
8
285
0
286
0
287
3
288
0
340
11
278
44
  0
ENDTAB
  0
ENDSEC
  0
SECTION
  2
BLOCKS
  0
BLOCK
  5
20
100
AcDbEntity
  8
0
100
AcDbBlockBegin
  2
*Model_Space
 70
0
 10
0.0
 20
0.0
 30
0.0
  3
*Model_Space
  1

  0
ENDBLK
  5
21
100
AcDbEntity
  8
0
100
AcDbBlockEnd
  0
BLOCK
  5
1C
100
AcDbEntity
  8
0
100
AcDbBlockBegin
  2
*Paper_Space
 70
0
 10
0.0
 20
0.0
 30
0.0
  3
*Paper_Space
  1

  0
ENDBLK
  5
1D
100
AcDbEntity
  8
0
100
AcDbBlockEnd
  0
ENDSEC
  0
SECTION
  2
ENTITIES
  0
LINE
  5
21D
100
AcDbEntity
  8
RACCORDO
100
AcDbLine
 62
253
  6
CONTINUOUS
 10
-20.7797109706
 20
31.1269865844
 11
-20.7753391366
 21
31.1313584184
  0
LINE
  5
21E
100
AcDbEntity
  8
RACCORDO
100
AcDbLine
 62
253
  6
CONTINUOUS
 10
-22.9652032282
 20
29.0226315506
 11
-22.9477481633
 21
29.0313584184
  0
LWPOLYLINE
  5
21F
100
AcDbEntity
  8
RACCORDO
100
AcDbPolyline
 62
7
  6
CONTINUOUS
 90
11
 70
0
 10
-23.1534810495
 20
28.9828051401
 10
-23.1390979901
 20
28.9896872455
 10
-23.1189795838
 20
28.9983159159
 10
-23.0984723328
 20
29.0059781274
 10
-23.0776220658
 20
29.0126563851
 10
-23.0564671006
 20
29.0183373951
 10
-23.0350639118
 20
29.023005031
 10
-23.0134873846
 20
29.026644572
 10
-22.9917957794
 20
29.0292503619
 10
-22.9700297201
 20
29.0308216693
 10
-22.9482384542
 20
29.0313584184
  0
LINE
  5
220
100
AcDbEntity
  8
RACCORDO
100
AcDbLine
 62
7
  6
CONTINUOUS
 10
-22.6753475981
 20
-17.8686415816
 11
-20.7753391366
 21
-17.8686415816
  0
LINE
  5
221
100
AcDbEntity
  8
RACCORDO
100
AcDbLine
 62
7
  6
CONTINUOUS
 10
-3.7753475981
 20
-17.8686415816
 11
-1.8753391366
 21
-17.8686415816
  0
LINE
  5
222
100
AcDbEntity
  8
RACCORDO
100
AcDbLine
 62
253
  6
CONTINUOUS
 10
-22.6709757641
 20
-17.8642697476
 11
-20.7797109706
 21
-17.8642697476
  0
LINE
  5
223
100
AcDbEntity
  8
RACCORDO
100
AcDbLine
 62
253
  6
CONTINUOUS
 10
-3.7709757641
 20
-17.8642697476
 11
-1.8797109706
 21
-17.8642697476
  0
LINE
  5
224
100
AcDbEntity
  8
RACCORDO
100
AcDbLine
 62
253
  6
CONTINUOUS
 10
-1.6297152013
 20
-17.6142739784
 11
-4.0209715333
 21
-17.6142739784
  0
LINE
  5
225
100
AcDbEntity
  8
RACCORDO
100
AcDbLine
 62
253
  6
CONTINUOUS
 10
-20.5297152013
 20
-17.6142739784
 11
-22.9209715333
 21
-17.6142739784
  0
LINE
  5
226
100
AcDbEntity
  8
RACCORDO
100
AcDbLine
 62
253
  6
CONTINUOUS
 10
-1.6297152013
 20
-17.2129791489
 11
-4.0209715333
 21
-17.2129791489
  0
LINE
  5
227
100
AcDbEntity
  8
RACCORDO
100
AcDbLine
 62
253
  6
CONTINUOUS
 10
-20.5297152013
 20
-17.2129791489
 11
-22.9209715333
 21
-17.2129791489
  0
LINE
  5
228
100
AcDbEntity
  8
DRAFT
100
AcDbLine
 62
7
  6
CONTINUOUS
 10
-16.6753433673
 20
-17.1686415816
 11
-7.8753433673
 21
-17.1686415816
  0
LINE
  5
229
100
AcDbEntity
  8
DRAFT
100
AcDbLine
 62
7
  6
CONTINUOUS
 10
-8.7753433673
 20
-17.1628237518
 11
-15.7753433673
 21
-17.1628237518
  0
LINE
  5
22A
100
AcDbEntity
  8
ASSI
100
AcDbLine
 62
253
  6
CONTINUOUS
 10
-7.9189940142
 20
-17.1249909348
 11
-8.7753433673
 21
-17.1249909348
  0
LINE
  5
22B
100
AcDbEntity
  8
ASSI
100
AcDbLine
 62
253
  6
CONTINUOUS
 10
-15.7753433673
 20
-17.1249909348
 11
-16.6316927205
 21
-17.1249909348
  0
LINE
  5
22C
100
AcDbEntity
  8
RACCORDO
100
AcDbLine
 62
253
  6
CONTINUOUS
 10
-1.8797109706
 20
-16.996472798
 11
-3.7709757641
 21
-16.996472798
  0
LINE
  5
22D
100
AcDbEntity
  8
RACCORDO
100
AcDbLine
 62
253
  6
CONTINUOUS
 10
-20.7797109706
 20
-16.996472798
 11
-22.6709757641
 21
-16.996472798
  0
LINE
  5
22E
100
AcDbEntity
  8
RACCORDO
100
AcDbLine
 62
7
  6
CONTINUOUS
 10
-22.6760663652
 20
-16.4912913124
 11
-20.7746203695
 21
-16.4912913124
  0
LINE
  5
22F
100
AcDbEntity
  8
RACCORDO
100
AcDbLine
 62
7
  6
CONTINUOUS
 10
-3.7760663652
 20
-16.4912913124
 11
-1.8746203695
 21
-16.4912913124
  0
LWPOLYLINE
  5
230
100
AcDbEntity
  8
RACCORDO
100
AcDbPolyline
 62
7
  6
CONTINUOUS
 90
34
 70
0
 10
-22.6753475981
 20
-17.8686415816
 10
-22.6872428834
 20
-17.8683584314
 10
-22.6991112229
 20
-17.8675096159
 10
-22.7109257335
 20
-17.8660970558
 10
-22.7226596548
 20
-17.8641239494
 10
-22.7342864062
 20
-17.8615947634
 10
-22.7457796463
 20
-17.8585152233
 10
-22.7571133411
 20
-17.854892303
 10
-22.7682618166
 20
-17.8507342074
 10
-22.7791998136
 20
-17.8460503538
 10
-22.7899025549
 20
-17.8408513505
 10
-22.8003457956
 20
-17.8351489733
 10
-22.8105058733
 20
-17.8289561398
 10
-22.8203597725
 20
-17.8222868771
 10
-22.8298851712
 20
-17.8151562923
 10
-22.8390604864
 20
-17.8075805405
 10
-22.8478649334
 20
-17.7995767821
 10
-22.8562785678
 20
-17.7911631477
 10
-22.8642823262
 20
-17.7823587007
 10
-22.8718580781
 20
-17.7731833855
 10
-22.8789886628
 20
-17.7636579868
 10
-22.8856579255
 20
-17.7538040875
 10
-22.891850759
 20
-17.7436440099
 10
-22.8975531362
 20
-17.7332007692
 10
-22.9027521395
 20
-17.7224980279
 10
-22.9074359931
 20
-17.7115600309
 10
-22.9115940887
 20
-17.7004115554
 10
-22.9152170091
 20
-17.6890778606
 10
-22.9182965491
 20
-17.6775846204
 10
-22.9208257351
 20
-17.6659578691
 10
-22.9227988415
 20
-17.6542239478
 10
-22.9242114016
 20
-17.6424094372
 10
-22.9250602171
 20
-17.6305410977
 10
-22.9253433673
 20
-17.6186458124
  0
LWPOLYLINE
  5
231
100
AcDbEntity
  8
RACCORDO
100
AcDbPolyline
 62
7
  6
CONTINUOUS
 90
34
 70
0
 10
-3.7753475981
 20
-17.8686415816
 10
-3.7872428834
 20
-17.8683584314
 10
-3.7991112229
 20
-17.8675096159
 10
-3.8109257335
 20
-17.8660970558
 10
-3.8226596548
 20
-17.8641239494
 10
-3.8342864062
 20
-17.8615947634
 10
-3.8457796463
 20
-17.8585152233
 10
-3.8571133411
 20
-17.854892303
 10
-3.8682618166
 20
-17.8507342074
 10
-3.8791998136
 20
-17.8460503538
 10
-3.8899025549
 20
-17.8408513505
 10
-3.9003457956
 20
-17.8351489733
 10
-3.9105058733
 20
-17.8289561398
 10
-3.9203597725
 20
-17.8222868771
 10
-3.9298851712
 20
-17.8151562923
 10
-3.9390604864
 20
-17.8075805405
 10
-3.9478649334
 20
-17.7995767821
 10
-3.9562785678
 20
-17.7911631477
 10
-3.9642823262
 20
-17.7823587007
 10
-3.9718580781
 20
-17.7731833855
 10
-3.9789886628
 20
-17.7636579868
 10
-3.9856579255
 20
-17.7538040875
 10
-3.991850759
 20
-17.7436440099
 10
-3.9975531362
 20
-17.7332007692
 10
-4.0027521395
 20
-17.7224980279
 10
-4.0074359931
 20
-17.7115600309
 10
-4.0115940887
 20
-17.7004115554
 10
-4.0152170091
 20
-17.6890778606
 10
-4.0182965491
 20
-17.6775846204
 10
-4.0208257351
 20
-17.6659578691
 10
-4.0227988415
 20
-17.6542239478
 10
-4.0242114016
 20
-17.6424094372
 10
-4.0250602171
 20
-17.6305410977
 10
-4.0253433673
 20
-17.6186458124
  0
LWPOLYLINE
  5
232
100
AcDbEntity
  8
RACCORDO
100
AcDbPolyline
 62
253
  6
CONTINUOUS
 90
31
 70
0
 10
-22.6709757641
 20
-17.8642697476
 10
-22.6840281041
 20
-17.8639283404
 10
-22.6970529985
 20
-17.8629050778
 10
-22.7100147731
 20
-17.8612014736
 10
-22.7228804918
 20
-17.8588203434
 10
-22.735611957
 20
-17.85576723
 10
-22.7481661416
 20
-17.8520517903
 10
-22.7605059455
 20
-17.8476852392
 10
-22.7726003016
 20
-17.8426788093
 10
-22.7844163799
 20
-17.8370460607
 10
-22.7959219803
 20
-17.8308022591
 10
-22.8070852987
 20
-17.8239645772
 10
-22.8178753779
 20
-17.8165519472
 10
-22.8282625038
 20
-17.808584805
 10
-22.8382183409
 20
-17.800084908
 10
-22.8477156754
 20
-17.7910754862
 10
-22.8567284945
 20
-17.7815811931
 10
-22.865232036
 20
-17.7716280896
 10
-22.8732029442
 20
-17.7612435004
 10
-22.880619351
 20
-17.7504559101
 10
-22.8874609268
 20
-17.7392948841
 10
-22.893708906
 20
-17.7277910283
 10
-22.8993461543
 20
-17.7159758827
 10
-22.9043572098
 20
-17.7038818454
 10
-22.9087283248
 20
-17.6915420893
 10
-22.9124475143
 20
-17.6789904419
 10
-22.9155045755
 20
-17.6662613279
 10
-22.9178911182
 20
-17.6533896883
 10
-22.9196006014
 20
-17.6404108309
 10
-22.9206283443
 20
-17.6273603325
 10
-22.9209715333
 20
-17.6142739784
  0
LWPOLYLINE
  5
233
100
AcDbEntity
  8
RACCORDO
100
AcDbPolyline
 62
253
  6
CONTINUOUS
 90
31
 70
0
 10
-3.7709757641
 20
-17.8642697476
 10
-3.7840592501
 20
-17.8639267091
 10
-3.7971068767
 20
-17.8628994192
 10
-3.8100828829
 20
-17.8611906936
 10
-3.8229517037
 20
-17.8588052156
 10
-3.8356780683
 20
-17.8557495234
 10
-3.8482270959
 20
-17.8520319921
 10
-3.8605643922
 20
-17.8476628106
 10
-3.8726561429
 20
-17.8426539541
 10
-3.8844692067
 20
-17.8370191509
 10
-3.8959712062
 20
-17.830773845
 10
-3.9071306167
 20
-17.8239351536
 10
-3.9179168523
 20
-17.8165218202
 10
-3.92830035
 20
-17.8085541635
 10
-3.9382526504
 20
-17.8000540212
 10
-3.9477464763
 20
-17.7910446906
 10
-3.9567558069
 20
-17.7815508647
 10
-3.9652559492
 20
-17.7715985643
 10
-3.9732236059
 20
-17.7612150666
 10
-3.9806369393
 20
-17.750428831
 10
-3.9874756307
 20
-17.7392694205
 10
-3.9937209366
 20
-17.7277674209
 10
-3.9993557398
 20
-17.7159543571
 10
-4.0043645963
 20
-17.7038626065
 10
-4.0087337778
 20
-17.6915253102
 10
-4.0124513092
 20
-17.6789762825
 10
-4.0155070014
 20
-17.666249918
 10
-4.0178924793
 20
-17.6533810971
 10
-4.0196012049
 20
-17.640405091
 10
-4.0206284948
 20
-17.6273574644
 10
-4.0209715333
 20
-17.6142739784
  0
LWPOLYLINE
  5
234
100
AcDbEntity
  8
RACCORDO
100
AcDbPolyline
 62
7
  6
CONTINUOUS
 90
11
 70
0
 10
-23.1534792369
 20
-15.7200891957
 10
-23.139009634
 20
-15.7270108083
 10
-23.1188850761
 20
-15.7356369815
 10
-23.0983742496
 20
-15.7432952844
 10
-23.0775242067
 20
-15.7499683311
 10
-23.0563910596
 20
-15.7556390663
 10
-23.0350140875
 20
-15.7602978426
 10
-23.0134152771
 20
-15.7639381346
 10
-22.991634148
 20
-15.7665489866
 10
-22.9697285489
 20
-15.7681191953
 10
-22.9477481633
 20
-15.7686415816
  0
LINE
  5
235
100
AcDbEntity
  8
RACCORDO
100
AcDbLine
 62
253
  6
CONTINUOUS
 10
-22.9477481633
 20
-15.7686415816
 11
-22.9652032282
 21
-15.7599147138
  0
LINE
  5
236
100
AcDbEntity
  8
RACCORDO
100
AcDbLine
 62
253
  6
CONTINUOUS
 10
-20.7797109706
 20
-17.8642697476
 11
-20.7753391366
 21
-17.8686415816
  0
LINE
  5
237
100
AcDbEntity
  8
RACCORDO
100
AcDbLine
 62
253
  6
CONTINUOUS
 10
-20.5297152013
 20
30.8769908152
 11
-20.5253433673
 21
30.8813626492
  0
LINE
  5
238
100
AcDbEntity
  8
RACCORDO
100
AcDbLine
 62
7
  6
CONTINUOUS
 10
-20.3593679341
 20
27.6230666826
 11
-20.5218560765
 21
27.5418287988
  0
LINE
  5
239
100
AcDbEntity
  8
RACCORDO
100
AcDbLine
 62
7
  6
CONTINUOUS
 10
-1.6029385714
 20
-15.7686415816
 11
-1.6253433673
 21
-15.7686415816
  0
LINE
  5
23A
100
AcDbEntity
  8
DRAFT
100
AcDbLine
 62
7
  6
CONTINUOUS
 10
-1.6253433673
 20
-15.7686415816
 11
-7.8753433673
 21
-15.7686415816
  0
LINE
  5
23B
100
AcDbEntity
  8
DRAFT
100
AcDbLine
 62
7
  6
CONTINUOUS
 10
-16.6753433673
 20
-15.7686415816
 11
-22.9253433673
 21
-15.7686415816
  0
LINE
  5
23C
100
AcDbEntity
  8
RACCORDO
100
AcDbLine
 62
7
  6
CONTINUOUS
 10
-22.9253433673
 20
-15.7686415816
 11
-22.9477481633
 21
-15.7686415816
  0
LINE
  5
23D
100
AcDbEntity
  8
RACCORDO
100
AcDbLine
 62
7
  6
CONTINUOUS
 10
-22.9652032282
 20
-15.7599147138
 11
-19.5340702351
 21
-15.7599147138
  0
LINE
  5
23E
100
AcDbEntity
  8
RACCORDO
100
AcDbLine
 62
7
  6
CONTINUOUS
 10
-5.0166164996
 20
-15.7599147138
 11
-1.5854835065
 21
-15.7599147138
  0
LINE
  5
23F
100
AcDbEntity
  8
DRAFT
100
AcDbLine
 62
7
  6
CONTINUOUS
 10
-15.7753433673
 20
-15.7066808203
 11
-15.2753433673
 21
-15.7066808203
  0
LINE
  5
240
100
AcDbEntity
  8
DRAFT
100
AcDbLine
 62
7
  6
CONTINUOUS
 10
-9.2753433673
 20
-15.7066808203
 11
-8.7753433673
 21
-15.7066808203
  0
LINE
  5
241
100
AcDbEntity
  8
RACCORDO
100
AcDbLine
 62
253
  6
CONTINUOUS
 10
-19.6126882006
 20
-15.6812967484
 11
-15.2753433673
 21
-15.6812967484
  0
LINE
  5
242
100
AcDbEntity
  8
RACCORDO
100
AcDbLine
 62
253
  6
CONTINUOUS
 10
-9.2753433673
 20
-15.6812967484
 11
-4.9379985341
 21
-15.6812967484
  0
LINE
  5
243
100
AcDbEntity
  8
0
100
AcDbLine
 62
7
  6
CONTINUOUS
 10
-9.2753433673
 20
-15.0686415816
 11
-15.2753433673
 21
-15.0686415816
  0
LINE
  5
244
100
AcDbEntity
  8
RACCORDO
100
AcDbLine
 62
253
  6
CONTINUOUS
 10
-19.8594440865
 20
-14.6813348253
 11
-15.2753433673
 21
-14.6813348253
  0
LINE
  5
245
100
AcDbEntity
  8
RACCORDO
100
AcDbLine
 62
253
  6
CONTINUOUS
 10
-9.2753433673
 20
-14.6813348253
 11
-4.6912426482
 21
-14.6813348253
  0
LINE
  5
246
100
AcDbEntity
  8
RACCORDO
100
AcDbLine
 62
7
  6
CONTINUOUS
 10
-20.3593679341
 20
-14.3603498459
 11
-20.5218560765
 21
-14.2791119621
  0
LINE
  5
247
100
AcDbEntity
  8
RACCORDO
100
AcDbLine
 62
253
  6
CONTINUOUS
 10
-20.5297152013
 20
-17.6142739784
 11
-20.5253433673
 21
-17.6186458124
  0
LINE
  5
248
100
AcDbEntity
  8
0
100
AcDbLine
 62
7
  6
CONTINUOUS
 10
-21.0753433673
 20
27.4813584184
 11
-22.8396461478
 21
25.7170556379
  0
LINE
  5
249
100
AcDbEntity
  8
RACCORDO
100
AcDbLine
 62
7
  6
CONTINUOUS
 10
-21.0753433673
 20
27.4813584184
 11
-22.8396461478
 21
25.7170556379
  0
LINE
  5
24A
100
AcDbEntity
  8
RACCORDO
100
AcDbLine
 62
7
  6
CONTINUOUS
 10
-20.5253433673
 20
28.0313584184
 11
-19.5340702351
 21
29.0226315506
  0
LINE
  5
24B
100
AcDbEntity
  8
0
100
AcDbLine
 62
7
  6
CONTINUOUS
 10
-20.9025470405
 20
27.4813584184
 11
-22.7174606933
 21
25.6664447655
  0
LINE
  5
24C
100
AcDbEntity
  8
RACCORDO
100
AcDbLine
 62
7
  6
CONTINUOUS
 10
-20.9025470405
 20
27.4813584184
 11
-22.7174606933
 21
25.6664447655
  0
LINE
  5
24D
100
AcDbEntity
  8
RACCORDO
100
AcDbLine
 62
7
  6
CONTINUOUS
 10
-22.9955516027
 20
25.3296626652
 11
-22.3736476142
 21
25.9515666537
  0
LINE
  5
24E
100
AcDbEntity
  8
ASSI
100
AcDbLine
 62
7
  6
CONTINUOUS
 10
-22.9955516027
 20
25.3296626652
 11
-22.3736476142
 21
25.9515666537
  0
LINE
  5
24F
100
AcDbEntity
  8
RACCORDO
100
AcDbLine
 62
7
  6
CONTINUOUS
 10
-22.2656550401
 20
26.0447491836
 11
-22.0764277551
 21
26.2339763619
  0
LINE
  5
250
100
AcDbEntity
  8
ASSI
100
AcDbLine
 62
7
  6
CONTINUOUS
 10
-22.2656550401
 20
26.0447491836
 11
-22.0764277551
 21
26.2339763619
  0
LWPOLYLINE
  5
251
100
AcDbEntity
  8
0
100
AcDbPolyline
 62
7
  6
CONTINUOUS
 90
12
 70
0
 10
-13.8997398287
 20
-13.2532703981
 10
-14.0176116569
 20
-13.2536508722
 10
-14.1304830867
 20
-13.2542696835
 10
-14.2398388692
 20
-13.2551416481
 10
-14.3441942533
 20
-13.2562519499
 10
-14.4390949856
 20
-13.2575561407
 10
-14.5241630699
 20
-13.2590661627
 10
-14.5997765025
 20
-13.2607700737
 10
-14.6626150185
 20
-13.2625875986
 10
-14.7115718631
 20
-13.2644919791
 10
-14.7477537912
 20
-13.2665099734
 10
-14.7711608028
 20
-13.2686415816
  0
LINE
  5
252
100
AcDbEntity
  8
0
100
AcDbLine
 62
7
  6
CONTINUOUS
 10
-9.2753433673
 20
-14.3686415816
 11
-15.2753433673
 21
-14.3686415816
  0
LINE
  5
253
100
AcDbEntity
  8
RACCORDO
100
AcDbLine
 62
7
  6
CONTINUOUS
 10
-19.8594440865
 20
-14.3646371273
 11
-19.5171650692
 21
-14.3646371273
  0
LINE
  5
254
100
AcDbEntity
  8
RACCORDO
100
AcDbLine
 62
7
  6
CONTINUOUS
 10
-5.0335216655
 20
-14.3646371273
 11
-4.6912426482
 21
-14.3646371273
  0
LINE
  5
255
100
AcDbEntity
  8
DRAFT
100
AcDbLine
 62
7
  6
CONTINUOUS
 10
-20.5218560765
 20
-14.2791119621
 11
-19.574181042
 21
-14.2791119621
  0
LINE
  5
256
100
AcDbEntity
  8
DRAFT
100
AcDbLine
 62
7
  6
CONTINUOUS
 10
-4.9765056927
 20
-14.2791119621
 11
-4.0288306582
 21
-14.2791119621
  0
LINE
  5
257
100
AcDbEntity
  8
DRAFT
100
AcDbLine
 62
7
  6
CONTINUOUS
 10
-2.6253433673
 20
-14.2686415816
 11
-4.0253433673
 21
-14.2686415816
  0
LINE
  5
258
100
AcDbEntity
  8
DRAFT
100
AcDbLine
 62
7
  6
CONTINUOUS
 10
-20.5253433673
 20
-14.2686415816
 11
-21.9253433673
 21
-14.2686415816
  0
LINE
  5
259
100
AcDbEntity
  8
0
100
AcDbLine
 62
7
  6
CONTINUOUS
 10
-3.4753433673
 20
-14.2186415816
 11
-4.8753433673
 21
-14.2186415816
  0
LINE
  5
25A
100
AcDbEntity
  8
DRAFT
100
AcDbLine
 62
7
  6
CONTINUOUS
 10
-3.4753433673
 20
-14.2186415816
 11
-4.8753433673
 21
-14.2186415816
  0
LINE
  5
25B
100
AcDbEntity
  8
0
100
AcDbLine
 62
7
  6
CONTINUOUS
 10
-19.6753433673
 20
-14.2186415816
 11
-21.0753433673
 21
-14.2186415816
  0
LINE
  5
25C
100
AcDbEntity
  8
DRAFT
100
AcDbLine
 62
7
  6
CONTINUOUS
 10
-19.6753433673
 20
-14.2186415816
 11
-21.0753433673
 21
-14.2186415816
  0
LINE
  5
25D
100
AcDbEntity
  8
DRAFT
100
AcDbLine
 62
7
  6
CONTINUOUS
 10
-2.6515259647
 20
-14.1900299127
 11
-3.4467316984
 21
-14.1900299127
  0
LINE
  5
25E
100
AcDbEntity
  8
DRAFT
100
AcDbLine
 62
7
  6
CONTINUOUS
 10
-4.8753433673
 20
-14.1900299127
 11
-4.9666166226
 21
-14.1900299127
  0
LINE
  5
25F
100
AcDbEntity
  8
DRAFT
100
AcDbLine
 62
7
  6
CONTINUOUS
 10
-19.5840701121
 20
-14.1900299127
 11
-19.6753433673
 21
-14.1900299127
  0
LINE
  5
260
100
AcDbEntity
  8
DRAFT
100
AcDbLine
 62
7
  6
CONTINUOUS
 10
-21.1039550363
 20
-14.1900299127
 11
-21.89916077
 21
-14.1900299127
  0
LINE
  5
261
100
AcDbEntity
  8
RACCORDO
100
AcDbLine
 62
253
  6
CONTINUOUS
 10
-5.9171650692
 20
-13.9515658648
 11
-18.6335216655
 21
-13.9515658648
  0
LINE
  5
262
100
AcDbEntity
  8
RACCORDO
100
AcDbLine
 62
253
  6
CONTINUOUS
 10
-5.9200485994
 20
-13.4515849033
 11
-18.6306381353
 21
-13.4515849033
  0
LINE
  5
263
100
AcDbEntity
  8
DRAFT
100
AcDbLine
 62
7
  6
CONTINUOUS
 10
-14.7753433673
 20
-13.4218754752
 11
-14.7166544905
 21
-13.4218754752
  0
LINE
  5
264
100
AcDbEntity
  8
DRAFT
100
AcDbLine
 62
7
  6
CONTINUOUS
 10
-9.8340322442
 20
-13.4218754752
 11
-9.7753433673
 21
-13.4218754752
  0
LINE
  5
265
100
AcDbEntity
  8
DRAFT
100
AcDbLine
 62
7
  6
CONTINUOUS
 10
-8.7753433673
 20
-13.3686415816
 11
-9.7759911862
 21
-13.3686415816
  0
LINE
  5
266
100
AcDbEntity
  8
DRAFT
100
AcDbLine
 62
7
  6
CONTINUOUS
 10
-14.7746955485
 20
-13.3686415816
 11
-15.7753433673
 21
-13.3686415816
  0
LINE
  5
267
100
AcDbEntity
  8
DRAFT
100
AcDbLine
 62
7
  6
CONTINUOUS
 10
-18.5666166226
 20
-13.3555512799
 11
-14.7746718828
 21
-13.3555512799
  0
LINE
  5
268
100
AcDbEntity
  8
DRAFT
100
AcDbLine
 62
7
  6
CONTINUOUS
 10
-9.7760148519
 20
-13.3555512799
 11
-5.9840701121
 21
-13.3555512799
  0
LINE
  5
269
100
AcDbEntity
  8
RACCORDO
100
AcDbLine
 62
253
  6
CONTINUOUS
 10
-5.0335216655
 20
-13.3256596985
 11
-5.9171650692
 21
-13.3256596985
  0
LINE
  5
26A
100
AcDbEntity
  8
RACCORDO
100
AcDbLine
 62
253
  6
CONTINUOUS
 10
-18.6335216655
 20
-13.3256596985
 11
-19.5171650692
 21
-13.3256596985
  0
LINE
  5
26B
100
AcDbEntity
  8
0
100
AcDbLine
 62
7
  6
CONTINUOUS
 10
-15.7753433673
 20
-13.2686415816
 11
-14.7698216476
 21
-13.2686415816
  0
LINE
  5
26C
100
AcDbEntity
  8
0
100
AcDbLine
 62
7
  6
CONTINUOUS
 10
-9.7808650871
 20
-13.2686415816
 11
-8.7753433673
 21
-13.2686415816
  0
LINE
  5
26D
100
AcDbEntity
  8
0
100
AcDbLine
 62
7
  6
CONTINUOUS
 10
-13.8997398287
 20
-13.2532703981
 11
-10.7738191325
 21
-13.2531282613
  0
LINE
  5
26E
100
AcDbEntity
  8
0
100
AcDbLine
 62
7
  6
CONTINUOUS
 10
-15.738687731
 20
-13.2319859453
 11
-8.8119990037
 21
-13.2319859453
  0
LINE
  5
26F
100
AcDbEntity
  8
DRAFT
100
AcDbLine
 62
7
  6
CONTINUOUS
 10
-15.738687731
 20
-13.2319859453
 11
-8.8119990037
 21
-13.2319859453
  0
LINE
  5
270
100
AcDbEntity
  8
RACCORDO
100
AcDbLine
 62
253
  6
CONTINUOUS
 10
-5.0323648688
 20
-13.1256630831
 11
-5.9183218659
 21
-13.1256630831
  0
LINE
  5
271
100
AcDbEntity
  8
RACCORDO
100
AcDbLine
 62
253
  6
CONTINUOUS
 10
-18.6323648688
 20
-13.1256630831
 11
-19.5183218659
 21
-13.1256630831
  0
LINE
  5
272
100
AcDbEntity
  8
0
100
AcDbLine
 62
7
  6
CONTINUOUS
 10
-19.6753433673
 20
-13.0686415816
 11
-15.7753433673
 21
-13.0686415816
  0
LINE
  5
273
100
AcDbEntity
  8
DRAFT
100
AcDbLine
 62
7
  6
CONTINUOUS
 10
-19.6753433673
 20
-13.0686415816
 11
-15.7753433673
 21
-13.0686415816
  0
LINE
  5
274
100
AcDbEntity
  8
0
100
AcDbLine
 62
7
  6
CONTINUOUS
 10
-8.7753433673
 20
-13.0686415816
 11
-4.8753433673
 21
-13.0686415816
  0
LINE
  5
275
100
AcDbEntity
  8
DRAFT
100
AcDbLine
 62
7
  6
CONTINUOUS
 10
-8.7753433673
 20
-13.0686415816
 11
-4.8753433673
 21
-13.0686415816
  0
LINE
  5
276
100
AcDbEntity
  8
0
100
AcDbLine
 62
7
  6
CONTINUOUS
 10
-19.7119990037
 20
-13.0319859453
 11
-15.738687731
 21
-13.0319859453
  0
LINE
  5
277
100
AcDbEntity
  8
DRAFT
100
AcDbLine
 62
7
  6
CONTINUOUS
 10
-19.7119990037
 20
-13.0319859453
 11
-15.738687731
 21
-13.0319859453
  0
LINE
  5
278
100
AcDbEntity
  8
0
100
AcDbLine
 62
7
  6
CONTINUOUS
 10
-8.8119990037
 20
-13.0319859453
 11
-4.838687731
 21
-13.0319859453
  0
LINE
  5
279
100
AcDbEntity
  8
DRAFT
100
AcDbLine
 62
7
  6
CONTINUOUS
 10
-8.8119990037
 20
-13.0319859453
 11
-4.838687731
 21
-13.0319859453
  0
LINE
  5
27A
100
AcDbEntity
  8
RACCORDO
100
AcDbLine
 62
7
  6
CONTINUOUS
 10
-21.6665677575
 20
-12.9817318833
 11
-8.5622416426
 21
-12.9817318833
  0
LINE
  5
27B
100
AcDbEntity
  8
ASSI
100
AcDbLine
 62
7
  6
CONTINUOUS
 10
-21.6665677575
 20
-12.9817318833
 11
-8.5622416426
 21
-12.9817318833
  0
LWPOLYLINE
  5
27C
100
AcDbEntity
  8
0
100
AcDbPolyline
 62
7
  6
CONTINUOUS
 90
13
 70
0
 10
-10.7738191325
 20
-13.2531282613
 10
-10.6509469059
 20
-13.2532703981
 10
-10.5330750778
 20
-13.2536508722
 10
-10.420203648
 20
-13.2542696835
 10
-10.3108478655
 20
-13.2551416481
 10
-10.2064924814
 20
-13.2562519499
 10
-10.1115917491
 20
-13.2575561407
 10
-10.0265236648
 20
-13.2590661627
 10
-9.9509102322
 20
-13.2607700737
 10
-9.8880717162
 20
-13.2625875986
 10
-9.8391148716
 20
-13.2644919791
 10
-9.8029329435
 20
-13.2665099734
 10
-9.7795259319
 20
-13.2686415816
  0
LINE
  5
27D
100
AcDbEntity
  8
0
100
AcDbLine
 62
7
  6
CONTINUOUS
 10
-22.8396461478
 20
-12.4543388011
 11
-21.0753433673
 21
-14.2186415816
  0
LINE
  5
27E
100
AcDbEntity
  8
RACCORDO
100
AcDbLine
 62
7
  6
CONTINUOUS
 10
-22.8396461478
 20
-12.4543388011
 11
-21.0753433673
 21
-14.2186415816
  0
LINE
  5
27F
100
AcDbEntity
  8
RACCORDO
100
AcDbLine
 62
7
  6
CONTINUOUS
 10
-19.5340702351
 20
-15.7599147138
 11
-20.5253433673
 21
-14.7686415816
  0
LINE
  5
280
100
AcDbEntity
  8
0
100
AcDbLine
 62
7
  6
CONTINUOUS
 10
-22.7174606933
 20
-12.4037279288
 11
-20.9025470405
 21
-14.2186415816
  0
LINE
  5
281
100
AcDbEntity
  8
RACCORDO
100
AcDbLine
 62
7
  6
CONTINUOUS
 10
-22.7174606933
 20
-12.4037279288
 11
-20.9025470405
 21
-14.2186415816
  0
LINE
  5
282
100
AcDbEntity
  8
RACCORDO
100
AcDbLine
 62
7
  6
CONTINUOUS
 10
-22.3736476142
 20
-12.688849817
 11
-22.9955516027
 21
-12.0669458285
  0
LINE
  5
283
100
AcDbEntity
  8
ASSI
100
AcDbLine
 62
7
  6
CONTINUOUS
 10
-22.3736476142
 20
-12.688849817
 11
-22.9955516027
 21
-12.0669458285
  0
LINE
  5
284
100
AcDbEntity
  8
ASSI
100
AcDbLine
 62
7
  6
CONTINUOUS
 10
-15.8691990851
 20
30.2548057025
 11
-15.8957457908
 21
30.2244359717
  0
LINE
  5
285
100
AcDbEntity
  8
ASSI
100
AcDbLine
 62
7
  6
CONTINUOUS
 10
-15.8957457908
 20
30.2244359717
 11
-15.9261519182
 21
30.1901882388
  0
LINE
  5
286
100
AcDbEntity
  8
ASSI
100
AcDbLine
 62
7
  6
CONTINUOUS
 10
-15.9261519182
 20
30.1901882388
 11
-15.9604217172
 21
30.1520744735
  0
LINE
  5
287
100
AcDbEntity
  8
ASSI
100
AcDbLine
 62
7
  6
CONTINUOUS
 10
-15.9604217172
 20
30.1520744735
 11
-16.0189151898
 21
30.0877602493
  0
LINE
  5
288
100
AcDbEntity
  8
ASSI
100
AcDbLine
 62
7
  6
CONTINUOUS
 10
-16.0189151898
 20
30.0877602493
 11
-16.203313355
 21
29.8877162331
  0
LINE
  5
289
100
AcDbEntity
  8
0
100
AcDbLine
 62
7
  6
CONTINUOUS
 10
-19.6753433673
 20
26.3313584184
 11
-19.7119990037
 21
26.294702782
  0
LINE
  5
28A
100
AcDbEntity
  8
DRAFT
100
AcDbLine
 62
7
  6
CONTINUOUS
 10
-19.6753433673
 20
26.3313584184
 11
-19.7119990037
 21
26.294702782
  0
LINE
  5
28B
100
AcDbEntity
  8
RACCORDO
100
AcDbLine
 62
7
  6
CONTINUOUS
 10
-19.5183218659
 20
26.3883799198
 11
-19.5753433673
 21
26.3313584184
  0
LINE
  5
28C
100
AcDbEntity
  8
0
100
AcDbLine
 62
7
  6
CONTINUOUS
 10
-14.4217899768
 20
-11.6011815983
 11
-14.7759051129
 21
-11.6042719143
  0
LINE
  5
28D
100
AcDbEntity
  8
RACCORDO
100
AcDbLine
 62
7
  6
CONTINUOUS
 10
-14.4217899768
 20
-11.6011815983
 11
-14.7759051129
 21
-11.6042719143
  0
LINE
  5
28E
100
AcDbEntity
  8
0
100
AcDbLine
 62
7
  6
CONTINUOUS
 10
-9.7753433673
 20
-11.6686415816
 11
-14.7753433673
 21
-11.6686415816
  0
LINE
  5
28F
100
AcDbEntity
  8
ASSI
100
AcDbLine
 62
7
  6
CONTINUOUS
 10
-9.7753433673
 20
-11.6686415816
 11
-14.7753433673
 21
-11.6686415816
  0
LINE
  5
290
100
AcDbEntity
  8
0
100
AcDbLine
 62
7
  6
CONTINUOUS
 10
-8.1320610125
 20
-11.6348110493
 11
-4.838687731
 21
-11.6348110493
  0
LINE
  5
291
100
AcDbEntity
  8
DRAFT
100
AcDbLine
 62
7
  6
CONTINUOUS
 10
-8.1320610125
 20
-11.6348110493
 11
-4.838687731
 21
-11.6348110493
  0
LINE
  5
292
100
AcDbEntity
  8
0
100
AcDbLine
 62
7
  6
CONTINUOUS
 10
-3.6753433673
 20
-11.6348110493
 11
-3.0091548613
 21
-11.6348110493
  0
LINE
  5
293
100
AcDbEntity
  8
RACCORDO
100
AcDbLine
 62
7
  6
CONTINUOUS
 10
-3.6753433673
 20
-11.6348110493
 11
-3.0091548613
 21
-11.6348110493
  0
LINE
  5
294
100
AcDbEntity
  8
0
100
AcDbLine
 62
7
  6
CONTINUOUS
 10
-3.6753433673
 20
-11.6260841815
 11
-4.8212326661
 21
-11.6260841815
  0
LINE
  5
295
100
AcDbEntity
  8
DRAFT
100
AcDbLine
 62
7
  6
CONTINUOUS
 10
-3.6753433673
 20
-11.6260841815
 11
-4.8212326661
 21
-11.6260841815
  0
LINE
  5
296
100
AcDbEntity
  8
RACCORDO
100
AcDbLine
 62
7
  6
CONTINUOUS
 10
-2.8841189772
 20
-11.5817318833
 11
-7.9622644887
 21
-11.5817318833
  0
LINE
  5
297
100
AcDbEntity
  8
ASSI
100
AcDbLine
 62
7
  6
CONTINUOUS
 10
-2.8841189772
 20
-11.5817318833
 11
-7.9622644887
 21
-11.5817318833
  0
LINE
  5
298
100
AcDbEntity
  8
ASSI
100
AcDbLine
 62
7
  6
CONTINUOUS
 10
-14.7753433673
 20
-11.5686415816
 11
-9.7753433673
 21
-11.5686415816
  0
LINE
  5
299
100
AcDbEntity
  8
0
100
AcDbLine
 62
7
  6
CONTINUOUS
 10
-10.1288967579
 20
-11.6011815983
 11
-9.7747816218
 21
-11.6042719143
  0
LINE
  5
29A
100
AcDbEntity
  8
RACCORDO
100
AcDbLine
 62
7
  6
CONTINUOUS
 10
-10.1288967579
 20
-11.6011815983
 11
-9.7747816218
 21
-11.6042719143
  0
LINE
  5
29B
100
AcDbEntity
  8
0
100
AcDbLine
 62
7
  6
CONTINUOUS
 10
-19.6753433673
 20
-13.0686415816
 11
-19.7119990037
 21
-13.0319859453
  0
LINE
  5
29C
100
AcDbEntity
  8
DRAFT
100
AcDbLine
 62
7
  6
CONTINUOUS
 10
-19.6753433673
 20
-13.0686415816
 11
-19.7119990037
 21
-13.0319859453
  0
LINE
  5
29D
100
AcDbEntity
  8
RACCORDO
100
AcDbLine
 62
7
  6
CONTINUOUS
 10
-19.5183218659
 20
-13.1256630831
 11
-19.5753433673
 21
-13.0686415816
  0
LINE
  5
29E
100
AcDbEntity
  8
ASSI
100
AcDbLine
 62
7
  6
CONTINUOUS
 10
-16.203313355
 20
-16.6249993963
 11
-16.1079996192
 21
-16.7280869433
  0
LINE
  5
29F
100
AcDbEntity
  8
ASSI
100
AcDbLine
 62
7
  6
CONTINUOUS
 10
-16.1079996192
 20
-16.7280869433
 11
-16.0190137733
 21
-16.8249350139
  0
LINE
  5
2A0
100
AcDbEntity
  8
ASSI
100
AcDbLine
 62
7
  6
CONTINUOUS
 10
-16.0190137733
 20
-16.8249350139
 11
-15.9605662251
 21
-16.8891979506
  0
LINE
  5
2A1
100
AcDbEntity
  8
ASSI
100
AcDbLine
 62
7
  6
CONTINUOUS
 10
-15.9605662251
 20
-16.8891979506
 11
-15.9263395767
 21
-16.9272618603
  0
LINE
  5
2A2
100
AcDbEntity
  8
ASSI
100
AcDbLine
 62
7
  6
CONTINUOUS
 10
-15.9263395767
 20
-16.9272618603
 11
-15.8959668677
 21
-16.9614683363
  0
LWPOLYLINE
  5
2A3
100
AcDbEntity
  8
ASSI
100
AcDbPolyline
 62
7
  6
CONTINUOUS
 90
18
 70
0
 10
-15.8959668677
 20
-16.9614683363
 10
-15.8694328601
 20
-16.9918192421
 10
-15.8575350575
 20
-17.0056392212
 10
-15.8465274786
 20
-17.0185784602
 10
-15.8363973158
 20
-17.0306387108
 10
-15.8270942055
 20
-17.0418992096
 10
-15.8186140166
 20
-17.0523615065
 10
-15.8109434491
 20
-17.0620240516
 10
-15.8040352185
 20
-17.0709614322
 10
-15.7978741629
 20
-17.0791931793
 10
-15.7924733631
 20
-17.0866997618
 10
-15.7878338582
 20
-17.0934971745
 10
-15.7839456347
 20
-17.0995773122
 10
-15.7807979351
 20
-17.1049482802
 10
-15.7783817999
 20
-17.1096503891
 10
-15.7766806259
 20
-17.1136970758
 10
-15.775674317
 20
-17.1170749034
 10
-15.7753433673
 20
-17.119783872
  0
LINE
  5
2A4
100
AcDbEntity
  8
DRAFT
100
AcDbLine
 62
7
  6
CONTINUOUS
 10
-19.5171650692
 20
27.6273539641
 11
-19.574181042
 21
27.5418287988
  0
LINE
  5
2A5
100
AcDbEntity
  8
0
100
AcDbLine
 62
253
  6
CONTINUOUS
 10
-14.0274858327
 20
-10.6543975076
 11
-13.9753433673
 21
-10.6503134243
  0
LINE
  5
2A6
100
AcDbEntity
  8
RACCORDO
100
AcDbLine
 62
253
  6
CONTINUOUS
 10
-14.0274858327
 20
-10.6543975076
 11
-13.9753433673
 21
-10.6503134243
  0
LINE
  5
2A7
100
AcDbEntity
  8
ASSI
100
AcDbLine
 62
7
  6
CONTINUOUS
 10
-14.7753433673
 20
-10.8686415816
 11
-9.7753433673
 21
-10.8686415816
  0
LINE
  5
2A8
100
AcDbEntity
  8
RACCORDO
100
AcDbLine
 62
7
  6
CONTINUOUS
 10
-13.8793363981
 20
-10.6686415816
 11
-10.6713503366
 21
-10.6686415816
  0
LINE
  5
2A9
100
AcDbEntity
  8
ASSI
100
AcDbLine
 62
7
  6
CONTINUOUS
 10
-13.8793363981
 20
-10.6686415816
 11
-10.6713503366
 21
-10.6686415816
  0
LINE
  5
2AA
100
AcDbEntity
  8
0
100
AcDbLine
 62
253
  6
CONTINUOUS
 10
-10.5753433673
 20
-10.6503134243
 11
-13.9753433673
 21
-10.6503134243
  0
LINE
  5
2AB
100
AcDbEntity
  8
RACCORDO
100
AcDbLine
 62
253
  6
CONTINUOUS
 10
-10.5753433673
 20
-10.6503134243
 11
-13.9753433673
 21
-10.6503134243
  0
LINE
  5
2AC
100
AcDbEntity
  8
0
100
AcDbLine
 62
7
  6
CONTINUOUS
 10
-10.5753433673
 20
-10.6186415816
 11
-13.9753433673
 21
-10.6186415816
  0
LINE
  5
2AD
100
AcDbEntity
  8
RACCORDO
100
AcDbLine
 62
7
  6
CONTINUOUS
 10
-10.5753433673
 20
-10.6186415816
 11
-13.9753433673
 21
-10.6186415816
  0
LINE
  5
2AE
100
AcDbEntity
  8
0
100
AcDbLine
 62
7
  6
CONTINUOUS
 10
-14.7753433673
 20
-9.9686415816
 11
-9.7753433673
 21
-9.9686415816
  0
LINE
  5
2AF
100
AcDbEntity
  8
ASSI
100
AcDbLine
 62
7
  6
CONTINUOUS
 10
-14.7753433673
 20
-9.9686415816
 11
-9.7753433673
 21
-9.9686415816
  0
LINE
  5
2B0
100
AcDbEntity
  8
CURVE
100
AcDbLine
 62
253
  6
CONTINUOUS
 10
-1.2185890812
 20
-9.9614984656
 11
-1.2328003266
 21
-9.9614984656
  0
LINE
  5
2B1
100
AcDbEntity
  8
SMUSSO
100
AcDbLine
 62
7
  6
CONTINUOUS
 10
-12.0253433673
 20
-9.6186415816
 11
-17.0253433673
 21
-9.6186415816
  0
LINE
  5
2B2
100
AcDbEntity
  8
ASSI
100
AcDbLine
 62
7
  6
CONTINUOUS
 10
-12.0253433673
 20
-9.6186415816
 11
-17.0253433673
 21
-9.6186415816
  0
LINE
  5
2B3
100
AcDbEntity
  8
RACCORDO
100
AcDbLine
 62
7
  6
CONTINUOUS
 10
-1.5622644892
 20
-9.5186415816
 11
-2.4753433673
 21
-9.5186415816
  0
LINE
  5
2B4
100
AcDbEntity
  8
ASSI
100
AcDbLine
 62
7
  6
CONTINUOUS
 10
-1.5622644892
 20
-9.5186415816
 11
-2.4753433673
 21
-9.5186415816
  0
LINE
  5
2B5
100
AcDbEntity
  8
0
100
AcDbLine
 62
253
  6
CONTINUOUS
 10
-10.523200902
 20
-10.6543975076
 11
-10.5753433673
 21
-10.6503134243
  0
LINE
  5
2B6
100
AcDbEntity
  8
RACCORDO
100
AcDbLine
 62
253
  6
CONTINUOUS
 10
-10.523200902
 20
-10.6543975076
 11
-10.5753433673
 21
-10.6503134243
  0
LINE
  5
2B7
100
AcDbEntity
  8
CURVE
100
AcDbLine
 62
253
  6
CONTINUOUS
 10
-22.5753433673
 20
-5.9400701309
 11
-22.2967719166
 21
-6.1257844056
  0
LINE
  5
2B8
100
AcDbEntity
  8
CURVE
100
AcDbLine
 62
253
  6
CONTINUOUS
 10
-22.2039148181
 20
-6.8686415816
 11
-22.5753433673
 21
-6.4972129936
  0
LINE
  5
2B9
100
AcDbEntity
  8
DRAFT
100
AcDbLine
 62
7
  6
CONTINUOUS
 10
-19.5171650692
 20
-14.3646371273
 11
-19.574181042
 21
-14.2791119621
  0
LINE
  5
2BA
100
AcDbEntity
  8
DRAFT
100
AcDbLine
 62
7
  6
CONTINUOUS
 10
-20.5218560765
 20
27.5418287988
 11
-20.5253433673
 21
27.5313584184
  0
LINE
  5
2BB
100
AcDbEntity
  8
SMUSSO
100
AcDbLine
 62
7
  6
CONTINUOUS
 10
-12.5253433673
 20
-9.1186415816
 11
-16.5253433673
 21
-9.1186415816
  0
LINE
  5
2BC
100
AcDbEntity
  8
ASSI
100
AcDbLine
 62
7
  6
CONTINUOUS
 10
-12.5253433673
 20
-9.1186415816
 11
-16.5253433673
 21
-9.1186415816
  0
LINE
  5
2BD
100
AcDbEntity
  8
CURVE
100
AcDbLine
 62
253
  6
CONTINUOUS
 10
-1.2328003266
 20
-9.0114984656
 11
-1.2185890812
 21
-9.0114984656
  0
LINE
  5
2BE
100
AcDbEntity
  8
0
100
AcDbLine
 62
7
  6
CONTINUOUS
 10
-15.8753433673
 20
-8.8686415816
 11
-12.8753433673
 21
-8.8686415816
  0
LINE
  5
2BF
100
AcDbEntity
  8
CURVE
100
AcDbLine
 62
253
  6
CONTINUOUS
 10
-1.2185890812
 20
-8.4686415816
 11
-1.2138519997
 21
-8.4686415816
  0
LINE
  5
2C0
100
AcDbEntity
  8
0
100
AcDbLine
 62
7
  6
CONTINUOUS
 10
-2.4167768456
 20
-8.2464561271
 11
-2.4753433673
 21
-8.2464561271
  0
LINE
  5
2C1
100
AcDbEntity
  8
RACCORDO
100
AcDbLine
 62
7
  6
CONTINUOUS
 10
-2.4167768456
 20
-8.2464561271
 11
-2.4753433673
 21
-8.2464561271
  0
LINE
  5
2C2
100
AcDbEntity
  8
0
100
AcDbLine
 62
253
  6
CONTINUOUS
 10
-2.4167300474
 20
-8.2341461918
 11
-2.4753433673
 21
-8.2341461918
  0
LINE
  5
2C3
100
AcDbEntity
  8
RACCORDO
100
AcDbLine
 62
253
  6
CONTINUOUS
 10
-2.4167300474
 20
-8.2341461918
 11
-2.4753433673
 21
-8.2341461918
  0
LINE
  5
2C4
100
AcDbEntity
  8
0
100
AcDbLine
 62
253
  6
CONTINUOUS
 10
-2.4158025948
 20
-7.9341918833
 11
-2.4753433673
 21
-7.9341918833
  0
LINE
  5
2C5
100
AcDbEntity
  8
RACCORDO
100
AcDbLine
 62
253
  6
CONTINUOUS
 10
-2.4158025948
 20
-7.9341918833
 11
-2.4753433673
 21
-7.9341918833
  0
LINE
  5
2C6
100
AcDbEntity
  8
CURVE
100
AcDbLine
 62
253
  6
CONTINUOUS
 10
-20.1753433673
 20
-7.6686415816
 11
-18.2753433673
 21
-7.6686415816
  0
LINE
  5
2C7
100
AcDbEntity
  8
CURVE
100
AcDbLine
 62
253
  6
CONTINUOUS
 10
-22.2039148181
 20
-5.1043559338
 11
-22.3896290927
 21
-5.0114986802
  0
LINE
  5
2C8
100
AcDbEntity
  8
CURVE
100
AcDbLine
 62
253
  6
CONTINUOUS
 10
-21.2753433673
 20
-6.1257844056
 11
-22.2039148181
 21
-5.4757844831
  0
LINE
  5
2C9
100
AcDbEntity
  8
CURVE
100
AcDbLine
 62
253
  6
CONTINUOUS
 10
-22.3896290927
 20
-5.0114986802
 11
-22.5753433673
 21
-4.8257844831
  0
LINE
  5
2CA
100
AcDbEntity
  8
CURVE
100
AcDbLine
 62
253
  6
CONTINUOUS
 10
-21.4610576614
 20
-4.5472130323
 11
-21.2753433673
 21
-4.7329272295
  0
LINE
  5
2CB
100
AcDbEntity
  8
DRAFT
100
AcDbLine
 62
7
  6
CONTINUOUS
 10
-20.5218560765
 20
-14.2791119621
 11
-20.5253433673
 21
-14.2686415816
  0
LINE
  5
2CC
100
AcDbEntity
  8
ASSI
100
AcDbLine
 62
7
  6
CONTINUOUS
 10
-8.0269150275
 20
30.2391180367
 11
-8.0553883159
 21
30.2068217682
  0
LINE
  5
2CD
100
AcDbEntity
  8
ASSI
100
AcDbLine
 62
7
  6
CONTINUOUS
 10
-8.0553883159
 20
30.2068217682
 11
-8.0876965551
 21
30.1706972769
  0
LINE
  5
2CE
100
AcDbEntity
  8
ASSI
100
AcDbLine
 62
7
  6
CONTINUOUS
 10
-8.0876965551
 20
30.1706972769
 11
-8.1238120463
 21
30.1307231629
  0
LINE
  5
2CF
100
AcDbEntity
  8
ASSI
100
AcDbLine
 62
7
  6
CONTINUOUS
 10
-8.1238120463
 20
30.1307231629
 11
-8.1848531175
 21
30.0638431107
  0
LWPOLYLINE
  5
2D0
100
AcDbEntity
  8
ASSI
100
AcDbPolyline
 62
7
  6
CONTINUOUS
 90
3
 70
0
 10
-8.1848531175
 20
30.0638431107
 10
-8.2756562151
 20
29.9652737851
 10
-8.3473733797
 20
29.8877162331
  0
LINE
  5
2D1
100
AcDbEntity
  8
ASSI
100
AcDbLine
 62
7
  6
CONTINUOUS
 10
-7.8753433673
 20
30.4313584184
 11
-7.9189940142
 21
30.3877077715
  0
LWPOLYLINE
  5
2D2
100
AcDbEntity
  8
0
100
AcDbPolyline
 62
253
  6
CONTINUOUS
 90
3
 70
0
 10
-10.3820211766
 20
23.9761725893
 10
-10.4250667107
 20
23.9491224583
 10
-10.4725914307
 20
23.9292599622
  0
LWPOLYLINE
  5
2D3
100
AcDbEntity
  8
RACCORDO
100
AcDbPolyline
 62
253
  6
CONTINUOUS
 90
3
 70
0
 10
-10.3820211766
 20
23.9761725893
 10
-10.4250667107
 20
23.9491224583
 10
-10.4725914307
 20
23.9292599622
  0
LINE
  5
2D4
100
AcDbEntity
  8
0
100
AcDbLine
 62
253
  6
CONTINUOUS
 10
-1.7110405869
 20
25.7170556379
 11
-1.8332260414
 21
25.6664447655
  0
LINE
  5
2D5
100
AcDbEntity
  8
RACCORDO
100
AcDbLine
 62
253
  6
CONTINUOUS
 10
-1.7110405869
 20
25.7170556379
 11
-1.8332260414
 21
25.6664447655
  0
LINE
  5
2D6
100
AcDbEntity
  8
CURVE
100
AcDbLine
 62
7
  6
CONTINUOUS
 10
-1.1515413654
 20
-7.2798395816
 11
-1.202145653
 21
-7.2798395816
  0
LINE
  5
2D7
100
AcDbEntity
  8
CURVE
100
AcDbLine
 62
253
  6
CONTINUOUS
 10
-1.2091149182
 20
-6.9757846976
 11
-1.2422744905
 21
-6.9757846976
  0
LINE
  5
2D8
100
AcDbEntity
  8
CURVE
100
AcDbLine
 62
7
  6
CONTINUOUS
 10
-1.1916428763
 20
-6.6973955816
 11
-1.1515413654
 21
-6.6973955816
  0
LINE
  5
2D9
100
AcDbEntity
  8
CURVE
100
AcDbLine
 62
253
  6
CONTINUOUS
 10
-22.5753433673
 20
-6.4972129936
 11
-21.2753433673
 21
-6.4972129936
  0
LINE
  5
2DA
100
AcDbEntity
  8
0
100
AcDbLine
 62
7
  6
CONTINUOUS
 10
-12.8753433673
 20
-5.8686415816
 11
-15.8753433673
 21
-5.8686415816
  0
LINE
  5
2DB
100
AcDbEntity
  8
CURVE
100
AcDbLine
 62
253
  6
CONTINUOUS
 10
-21.2753433673
 20
-3.7114986802
 11
-22.5753433673
 21
-3.3400702859
  0
LINE
  5
2DC
100
AcDbEntity
  8
0
100
AcDbLine
 62
253
  6
CONTINUOUS
 10
-1.8332260414
 20
-12.4037279288
 11
-1.7110405869
 21
-12.4543388011
  0
LINE
  5
2DD
100
AcDbEntity
  8
RACCORDO
100
AcDbLine
 62
253
  6
CONTINUOUS
 10
-1.8332260414
 20
-12.4037279288
 11
-1.7110405869
 21
-12.4543388011
  0
LINE
  5
2DE
100
AcDbEntity
  8
CURVE
100
AcDbLine
 62
253
  6
CONTINUOUS
 10
-21.6467719554
 20
-4.4543559338
 11
-21.4610576614
 21
-4.5472130323
  0
LWPOLYLINE
  5
2DF
100
AcDbEntity
  8
0
100
AcDbPolyline
 62
253
  6
CONTINUOUS
 90
4
 70
0
 10
-10.3820211766
 20
-10.7134557525
 10
-10.4250667107
 20
-10.6864056215
 10
-10.4725914307
 20
-10.6665431254
 10
-10.523200902
 20
-10.6543975076
  0
LWPOLYLINE
  5
2E0
100
AcDbEntity
  8
RACCORDO
100
AcDbPolyline
 62
253
  6
CONTINUOUS
 90
4
 70
0
 10
-10.3820211766
 20
-10.7134557525
 10
-10.4250667107
 20
-10.6864056215
 10
-10.4725914307
 20
-10.6665431254
 10
-10.523200902
 20
-10.6543975076
  0
LINE
  5
2E1
100
AcDbEntity
  8
ASSI
100
AcDbLine
 62
7
  6
CONTINUOUS
 10
-7.8753433673
 20
-17.1686415816
 11
-7.9189940142
 21
-17.1249909348
  0
LINE
  5
2E2
100
AcDbEntity
  8
ASSI
100
AcDbLine
 62
7
  6
CONTINUOUS
 10
-8.3473733797
 20
-16.6249993963
 11
-8.2523721649
 21
-16.7277486461
  0
LINE
  5
2E3
100
AcDbEntity
  8
ASSI
100
AcDbLine
 62
7
  6
CONTINUOUS
 10
-8.2523721649
 20
-16.7277486461
 11
-8.1637154375
 21
-16.824233688
  0
LINE
  5
2E4
100
AcDbEntity
  8
ASSI
100
AcDbLine
 62
7
  6
CONTINUOUS
 10
-8.1637154375
 20
-16.824233688
 11
-8.1054212176
 21
-16.8883185897
  0
LINE
  5
2E5
100
AcDbEntity
  8
ASSI
100
AcDbLine
 62
7
  6
CONTINUOUS
 10
-8.1054212176
 20
-16.8883185897
 11
-8.0712425901
 21
-16.9263188503
  0
LWPOLYLINE
  5
2E6
100
AcDbEntity
  8
ASSI
100
AcDbPolyline
 62
7
  6
CONTINUOUS
 90
20
 70
0
 10
-8.0712425901
 20
-16.9263188503
 10
-8.04088118
 20
-16.9604994867
 10
-8.0271362312
 20
-16.9761483614
 10
-8.0143312959
 20
-16.9908511285
 10
-8.002416878
 20
-17.0046798661
 10
-7.9913866592
 20
-17.0176332806
 10
-7.9812289009
 20
-17.0297126655
 10
-7.9718961536
 20
-17.0409939805
 10
-7.9633848612
 20
-17.0514769273
 10
-7.9556798587
 20
-17.0611618042
 10
-7.9487324723
 20
-17.0701254652
 10
-7.9425272223
 20
-17.0783875746
 10
-7.9370765331
 20
-17.0859284682
 10
-7.9323801516
 20
-17.0927660078
 10
-7.9284280326
 20
-17.0988928705
 10
-7.9252097297
 20
-17.1043163791
 10
-7.9227163184
 20
-17.109076364
 10
-7.9209316286
 20
-17.1131861019
 10
-7.9198360827
 20
-17.116632316
 10
-7.9194106346
 20
-17.1194150063
  0
LINE
  5
2E7
100
AcDbEntity
  8
CURVE
100
AcDbLine
 62
253
  6
CONTINUOUS
 10
-21.6777243345
 20
-2.9686415816
 11
-21.7705814718
 21
-2.7519748117
  0
LINE
  5
2E8
100
AcDbEntity
  8
RACCORDO
100
AcDbLine
 62
253
  6
CONTINUOUS
 10
-22.9209715333
 20
-17.2129791489
 11
-22.9253433673
 21
-16.7791267298
  0
LINE
  5
2E9
100
AcDbEntity
  8
RACCORDO
100
AcDbLine
 62
253
  6
CONTINUOUS
 10
-22.6709757641
 20
-16.996472798
 11
-22.6760663652
 21
-16.4912913124
  0
LINE
  5
2EA
100
AcDbEntity
  8
0
100
AcDbLine
 62
7
  6
CONTINUOUS
 10
-23.4253433673
 20
24.3030574671
 11
-23.4253433673
 21
-11.0403406304
  0
LINE
  5
2EB
100
AcDbEntity
  8
RACCORDO
100
AcDbLine
 62
7
  6
CONTINUOUS
 10
-23.4253433673
 20
-15.2998271376
 11
-23.4253433673
 21
28.5625439743
  0
LINE
  5
2EC
100
AcDbEntity
  8
0
100
AcDbLine
 62
7
  6
CONTINUOUS
 10
-23.3031579128
 20
24.2524465947
 11
-23.3031579128
 21
-10.989729758
  0
LINE
  5
2ED
100
AcDbEntity
  8
RACCORDO
100
AcDbLine
 62
7
  6
CONTINUOUS
 10
-23.3031579128
 20
24.2524465947
 11
-23.3031579128
 21
-10.989729758
  0
LINE
  5
2EE
100
AcDbEntity
  8
RACCORDO
100
AcDbLine
 62
7
  6
CONTINUOUS
 10
-23.288433669
 20
24.6225828085
 11
-23.288433669
 21
-11.3598659717
  0
LINE
  5
2EF
100
AcDbEntity
  8
ASSI
100
AcDbLine
 62
7
  6
CONTINUOUS
 10
-23.288433669
 20
24.6225828085
 11
-23.288433669
 21
-11.3598659717
  0
LINE
  5
2F0
100
AcDbEntity
  8
RACCORDO
100
AcDbLine
 62
7
  6
CONTINUOUS
 10
-22.9253433673
 20
-17.6186458124
 11
-22.9253433673
 21
-15.7686415816
  0
LINE
  5
2F1
100
AcDbEntity
  8
RACCORDO
100
AcDbLine
 62
7
  6
CONTINUOUS
 10
-22.9253433673
 20
29.0313584184
 11
-22.9253433673
 21
30.8813626492
  0
LINE
  5
2F2
100
AcDbEntity
  8
RACCORDO
100
AcDbLine
 62
253
  6
CONTINUOUS
 10
-22.9209715333
 20
30.8769908152
 11
-22.9209715333
 21
30.4756959857
  0
LINE
  5
2F3
100
AcDbEntity
  8
RACCORDO
100
AcDbLine
 62
253
  6
CONTINUOUS
 10
-22.9209715333
 20
-17.2129791489
 11
-22.9209715333
 21
-17.6142739784
  0
LINE
  5
2F4
100
AcDbEntity
  8
RACCORDO
100
AcDbLine
 62
253
  6
CONTINUOUS
 10
-22.9253433673
 20
30.0418435666
 11
-22.9209715333
 21
30.4756959857
  0
LINE
  5
2F5
100
AcDbEntity
  8
RACCORDO
100
AcDbLine
 62
253
  6
CONTINUOUS
 10
-22.6760663652
 20
29.7540081492
 11
-22.6702485354
 21
30.3313584184
  0
LWPOLYLINE
  5
2F6
100
AcDbEntity
  8
RACCORDO
100
AcDbPolyline
 62
7
  6
CONTINUOUS
 90
34
 70
0
 10
-22.9253433673
 20
30.8813626492
 10
-22.9250602171
 20
30.8932579344
 10
-22.9242114016
 20
30.9051262739
 10
-22.9227988415
 20
30.9169407845
 10
-22.9208257351
 20
30.9286747059
 10
-22.9182965491
 20
30.9403014572
 10
-22.9152170091
 20
30.9517946974
 10
-22.9115940887
 20
30.9631283921
 10
-22.9074359931
 20
30.9742768677
 10
-22.9027521395
 20
30.9852148647
 10
-22.8975531362
 20
30.995917606
 10
-22.891850759
 20
31.0063608466
 10
-22.8856579255
 20
31.0165209243
 10
-22.8789886628
 20
31.0263748235
 10
-22.8718580781
 20
31.0359002222
 10
-22.8642823262
 20
31.0450755374
 10
-22.8562785678
 20
31.0538799845
 10
-22.8478649334
 20
31.0622936189
 10
-22.8390604864
 20
31.0702973772
 10
-22.8298851712
 20
31.0778731291
 10
-22.8203597725
 20
31.0850037138
 10
-22.8105058733
 20
31.0916729765
 10
-22.8003457956
 20
31.09786581
 10
-22.7899025549
 20
31.1035681872
 10
-22.7791998136
 20
31.1087671905
 10
-22.7682618166
 20
31.1134510441
 10
-22.7571133411
 20
31.1176091397
 10
-22.7457796463
 20
31.1212320601
 10
-22.7342864062
 20
31.1243116001
 10
-22.7226596548
 20
31.1268407861
 10
-22.7109257335
 20
31.1288138925
 10
-22.6991112229
 20
31.1302264526
 10
-22.6872428834
 20
31.1310752681
 10
-22.6753475981
 20
31.1313584184
  0
LWPOLYLINE
  5
2F7
100
AcDbEntity
  8
RACCORDO
100
AcDbPolyline
 62
253
  6
CONTINUOUS
 90
31
 70
0
 10
-22.9209715333
 20
30.8769908152
 10
-22.9206301261
 20
30.8900431551
 10
-22.9196068635
 20
30.9030680495
 10
-22.9179032593
 20
30.9160298241
 10
-22.9155221292
 20
30.9288955428
 10
-22.9124690158
 20
30.941627008
 10
-22.908753576
 20
30.9541811926
 10
-22.9043870249
 20
30.9665209965
 10
-22.899380595
 20
30.9786153526
 10
-22.8937478464
 20
30.9904314309
 10
-22.8875040448
 20
31.0019370313
 10
-22.880666363
 20
31.0131003497
 10
-22.8732537329
 20
31.0238904289
 10
-22.8652865907
 20
31.0342775548
 10
-22.8567866938
 20
31.0442333919
 10
-22.8477772719
 20
31.0537307264
 10
-22.8382829788
 20
31.0627435455
 10
-22.8283298754
 20
31.071247087
 10
-22.8179452861
 20
31.0792179952
 10
-22.8071576958
 20
31.0866344021
 10
-22.7959966698
 20
31.0934759779
 10
-22.784492814
 20
31.099723957
 10
-22.7726776684
 20
31.1053612053
 10
-22.7605836311
 20
31.1103722608
 10
-22.748243875
 20
31.1147433758
 10
-22.7356922276
 20
31.1184625654
 10
-22.7229631137
 20
31.1215196265
 10
-22.710091474
 20
31.1239061692
 10
-22.6971126166
 20
31.1256156524
 10
-22.6840621182
 20
31.1266433954
 10
-22.6709757641
 20
31.1269865844
  0
LINE
  5
2F8
100
AcDbEntity
  8
0
100
AcDbLine
 62
7
  6
CONTINUOUS
 10
-8.7753433673
 20
26.5313584184
 11
-8.8119990037
 21
26.494702782
  0
LINE
  5
2F9
100
AcDbEntity
  8
DRAFT
100
AcDbLine
 62
7
  6
CONTINUOUS
 10
-8.7753433673
 20
26.5313584184
 11
-8.8119990037
 21
26.494702782
  0
LINE
  5
2FA
100
AcDbEntity
  8
0
100
AcDbLine
 62
7
  6
CONTINUOUS
 10
-8.7753433673
 20
26.3313584184
 11
-8.8119990037
 21
26.294702782
  0
LINE
  5
2FB
100
AcDbEntity
  8
DRAFT
100
AcDbLine
 62
7
  6
CONTINUOUS
 10
-8.7753433673
 20
26.3313584184
 11
-8.8119990037
 21
26.294702782
  0
LINE
  5
2FC
100
AcDbEntity
  8
0
100
AcDbLine
 62
253
  6
CONTINUOUS
 10
-1.1253433673
 20
24.3030574671
 11
-1.2475288218
 21
24.2524465947
  0
LINE
  5
2FD
100
AcDbEntity
  8
RACCORDO
100
AcDbLine
 62
253
  6
CONTINUOUS
 10
-1.1253433673
 20
24.3030574671
 11
-1.2475288218
 21
24.2524465947
  0
LINE
  5
2FE
100
AcDbEntity
  8
CURVE
100
AcDbLine
 62
253
  6
CONTINUOUS
 10
-9.2039148181
 20
18.6313584184
 11
-8.2753433673
 21
18.909930024
  0
LINE
  5
2FF
100
AcDbEntity
  8
SMUSSO
100
AcDbLine
 62
7
  6
CONTINUOUS
 10
-16.5253433673
 20
-5.6186415816
 11
-12.5253433673
 21
-5.6186415816
  0
LINE
  5
300
100
AcDbEntity
  8
ASSI
100
AcDbLine
 62
7
  6
CONTINUOUS
 10
-16.5253433673
 20
-5.6186415816
 11
-12.5253433673
 21
-5.6186415816
  0
LINE
  5
301
100
AcDbEntity
  8
CURVE
100
AcDbLine
 62
253
  6
CONTINUOUS
 10
-22.2039148181
 20
-5.4757844831
 11
-22.3896290927
 21
-5.4757844831
  0
LINE
  5
302
100
AcDbEntity
  8
CURVE
100
AcDbLine
 62
7
  6
CONTINUOUS
 10
-1.159793299
 20
-5.2434115816
 11
-1.202145653
 21
-5.2434115816
  0
LINE
  5
303
100
AcDbEntity
  8
RACCORDO
100
AcDbLine
 62
7
  6
CONTINUOUS
 10
-1.5622644892
 20
-5.2186415816
 11
-2.4753433673
 21
-5.2186415816
  0
LINE
  5
304
100
AcDbEntity
  8
ASSI
100
AcDbLine
 62
7
  6
CONTINUOUS
 10
-1.5622644892
 20
-5.2186415816
 11
-2.4753433673
 21
-5.2186415816
  0
LINE
  5
305
100
AcDbEntity
  8
SMUSSO
100
AcDbLine
 62
7
  6
CONTINUOUS
 10
-17.0253433673
 20
-5.1186415816
 11
-12.0253433673
 21
-5.1186415816
  0
LINE
  5
306
100
AcDbEntity
  8
ASSI
100
AcDbLine
 62
7
  6
CONTINUOUS
 10
-17.0253433673
 20
-5.1186415816
 11
-12.0253433673
 21
-5.1186415816
  0
LINE
  5
307
100
AcDbEntity
  8
CURVE
100
AcDbLine
 62
253
  6
CONTINUOUS
 10
-21.6467719554
 20
-5.1043559338
 11
-22.2039148181
 21
-5.1043559338
  0
LINE
  5
308
100
AcDbEntity
  8
CURVE
100
AcDbLine
 62
253
  6
CONTINUOUS
 10
-1.2375374085
 20
-4.8043558026
 11
-1.2280632451
 21
-4.8043558026
  0
LINE
  5
309
100
AcDbEntity
  8
CURVE
100
AcDbLine
 62
7
  6
CONTINUOUS
 10
-1.202145653
 20
-4.6609665816
 11
-1.1515413654
 21
-4.6609665816
  0
LINE
  5
30A
100
AcDbEntity
  8
SMUSSO
100
AcDbLine
 62
7
  6
CONTINUOUS
 10
-12.0253433673
 20
-4.6186415816
 11
-17.0253433673
 21
-4.6186415816
  0
LINE
  5
30B
100
AcDbEntity
  8
ASSI
100
AcDbLine
 62
7
  6
CONTINUOUS
 10
-12.0253433673
 20
-4.6186415816
 11
-17.0253433673
 21
-4.6186415816
  0
LINE
  5
30C
100
AcDbEntity
  8
RACCORDO
100
AcDbLine
 62
7
  6
CONTINUOUS
 10
-1.5622644892
 20
-4.5186415816
 11
-2.4753433673
 21
-4.5186415816
  0
LINE
  5
30D
100
AcDbEntity
  8
ASSI
100
AcDbLine
 62
7
  6
CONTINUOUS
 10
-1.5622644892
 20
-4.5186415816
 11
-2.4753433673
 21
-4.5186415816
  0
LINE
  5
30E
100
AcDbEntity
  8
CURVE
100
AcDbLine
 62
253
  6
CONTINUOUS
 10
-22.2039148181
 20
-4.4543559338
 11
-21.6467719554
 21
-4.4543559338
  0
LINE
  5
30F
100
AcDbEntity
  8
SMUSSO
100
AcDbLine
 62
7
  6
CONTINUOUS
 10
-12.5253433673
 20
-4.1186415816
 11
-16.5253433673
 21
-4.1186415816
  0
LINE
  5
310
100
AcDbEntity
  8
ASSI
100
AcDbLine
 62
7
  6
CONTINUOUS
 10
-12.5253433673
 20
-4.1186415816
 11
-16.5253433673
 21
-4.1186415816
  0
LINE
  5
311
100
AcDbEntity
  8
CURVE
100
AcDbLine
 62
253
  6
CONTINUOUS
 10
-1.2233261626
 20
-3.9900700236
 11
-1.2091149182
 21
-3.9900700236
  0
LINE
  5
312
100
AcDbEntity
  8
0
100
AcDbLine
 62
253
  6
CONTINUOUS
 10
-1.2475288218
 20
-10.989729758
 11
-1.1253433673
 21
-11.0403406304
  0
LINE
  5
313
100
AcDbEntity
  8
RACCORDO
100
AcDbLine
 62
253
  6
CONTINUOUS
 10
-1.2475288218
 20
-10.989729758
 11
-1.1253433673
 21
-11.0403406304
  0
LINE
  5
314
100
AcDbEntity
  8
SMUSSO
100
AcDbLine
 62
7
  6
CONTINUOUS
 10
-17.0253433673
 20
-5.1186415816
 11
-16.5253433673
 21
-5.6186415816
  0
LINE
  5
315
100
AcDbEntity
  8
ASSI
100
AcDbLine
 62
7
  6
CONTINUOUS
 10
-17.0253433673
 20
-5.1186415816
 11
-16.5253433673
 21
-5.6186415816
  0
LINE
  5
316
100
AcDbEntity
  8
CURVE
100
AcDbLine
 62
253
  6
CONTINUOUS
 10
-22.5753433673
 20
0.5289777612
 11
-22.2967719166
 21
0.2504061555
  0
LINE
  5
317
100
AcDbEntity
  8
0
100
AcDbLine
 62
7
  6
CONTINUOUS
 10
-8.8119990037
 20
-13.2319859453
 11
-8.7753433673
 21
-13.2686415816
  0
LINE
  5
318
100
AcDbEntity
  8
DRAFT
100
AcDbLine
 62
7
  6
CONTINUOUS
 10
-8.8119990037
 20
-13.2319859453
 11
-8.7753433673
 21
-13.2686415816
  0
LINE
  5
319
100
AcDbEntity
  8
0
100
AcDbLine
 62
7
  6
CONTINUOUS
 10
-8.7753433673
 20
-13.0686415816
 11
-8.8119990037
 21
-13.0319859453
  0
LINE
  5
31A
100
AcDbEntity
  8
DRAFT
100
AcDbLine
 62
7
  6
CONTINUOUS
 10
-8.7753433673
 20
-13.0686415816
 11
-8.8119990037
 21
-13.0319859453
  0
LINE
  5
31B
100
AcDbEntity
  8
SMUSSO
100
AcDbLine
 62
7
  6
CONTINUOUS
 10
-12.0253433673
 20
-9.6186415816
 11
-12.5253433673
 21
-9.1186415816
  0
LINE
  5
31C
100
AcDbEntity
  8
ASSI
100
AcDbLine
 62
7
  6
CONTINUOUS
 10
-12.0253433673
 20
-9.6186415816
 11
-12.5253433673
 21
-9.1186415816
  0
LINE
  5
31D
100
AcDbEntity
  8
CURVE
100
AcDbLine
 62
253
  6
CONTINUOUS
 10
-19.3610577016
 20
-1.9186415816
 11
-19.0896290897
 21
-2.1900701369
  0
LINE
  5
31E
100
AcDbEntity
  8
CURVE
100
AcDbLine
 62
253
  6
CONTINUOUS
 10
-22.3896290927
 20
1.1789777612
 11
-22.5753433673
 21
1.3646919583
  0
LINE
  5
31F
100
AcDbEntity
  8
CURVE
100
AcDbLine
 62
253
  6
CONTINUOUS
 10
-21.2753433673
 20
0.5289777612
 11
-21.4610576614
 21
0.7146919583
  0
LINE
  5
320
100
AcDbEntity
  8
CURVE
100
AcDbLine
 62
253
  6
CONTINUOUS
 10
-21.5848671778
 20
-2.5043557788
 11
-21.6777243345
 21
-2.2567367459
  0
LWPOLYLINE
  5
321
100
AcDbEntity
  8
RACCORDO
100
AcDbPolyline
 62
253
  6
CONTINUOUS
 90
31
 70
0
 10
-20.5297152013
 20
-17.2129791489
 10
-20.5300945558
 20
-17.2016686412
 10
-20.5311556036
 20
-17.1903890221
 10
-20.5328954469
 20
-17.1791710957
 10
-20.5353093322
 20
-17.1680455069
 10
-20.5383906682
 20
-17.15704263
 10
-20.5421310499
 20
-17.1461924873
 10
-20.5465202763
 20
-17.1355246912
 10
-20.5515463585
 20
-17.1250683977
 10
-20.5571955548
 20
-17.1148521984
 10
-20.5634524266
 20
-17.1049040069
 10
-20.5702998922
 20
-17.0952509762
 10
-20.5777192563
 20
-17.0859194601
 10
-20.5856902599
 20
-17.0769349391
 10
-20.5941911314
 20
-17.0683219537
 10
-20.6031986517
 20
-17.0601040285
 10
-20.6126882155
 20
-17.0523036102
 10
-20.6226339112
 20
-17.0449419966
 10
-20.6330085907
 20
-17.0380392827
 10
-20.6437839432
 20
-17.0316143091
 10
-20.6549305227
 20
-17.0256846376
 10
-20.666417837
 20
-17.0202664863
 10
-20.678214479
 20
-17.0153746591
 10
-20.6902882598
 20
-17.0110224945
 10
-20.7026062484
 20
-17.0072218596
 10
-20.7151352807
 20
-17.0039830224
 10
-20.7278406785
 20
-17.0013149823
 10
-20.7406863299
 20
-16.999225223
 10
-20.7536366446
 20
-16.9977193045
 10
-20.7666567085
 20
-16.9968010585
 10
-20.7797109706
 20
-16.996472798
  0
LINE
  5
322
100
AcDbEntity
  8
RACCORDO
100
AcDbLine
 62
253
  6
CONTINUOUS
 10
-22.6709757641
 20
-17.8642697476
 11
-22.6709757641
 21
-16.996472798
  0
LINE
  5
323
100
AcDbEntity
  8
RACCORDO
100
AcDbLine
 62
253
  6
CONTINUOUS
 10
-22.6709757641
 20
30.3313584184
 11
-22.6709757641
 21
31.1269865844
  0
LINE
  5
324
100
AcDbEntity
  8
CURVE
100
AcDbLine
 62
253
  6
CONTINUOUS
 10
-22.6503433673
 20
7.3188584184
 11
-22.6503433673
 21
7.1938584184
  0
LINE
  5
325
100
AcDbEntity
  8
CURVE
100
AcDbLine
 62
253
  6
CONTINUOUS
 10
-22.5753433673
 20
-5.6614987577
 11
-22.5753433673
 21
-5.9400701309
  0
LINE
  5
326
100
AcDbEntity
  8
CURVE
100
AcDbLine
 62
253
  6
CONTINUOUS
 10
-22.5753433673
 20
-4.8257844831
 11
-22.5753433673
 21
-4.7329272295
  0
LINE
  5
327
100
AcDbEntity
  8
CURVE
100
AcDbLine
 62
253
  6
CONTINUOUS
 10
-22.5753433673
 20
1.3646919583
 11
-22.5753433673
 21
1.457548747
  0
LINE
  5
328
100
AcDbEntity
  8
CURVE
100
AcDbLine
 62
253
  6
CONTINUOUS
 10
-22.2039148181
 20
3.1289777612
 11
-22.2039148181
 21
3.6861197328
  0
LINE
  5
329
100
AcDbEntity
  8
RACCORDO
100
AcDbLine
 62
7
  6
CONTINUOUS
 10
-22.072725307
 20
26.157666293
 11
-22.072725307
 21
26.2339767607
  0
LINE
  5
32A
100
AcDbEntity
  8
ASSI
100
AcDbLine
 62
7
  6
CONTINUOUS
 10
-22.072725307
 20
26.157666293
 11
-22.072725307
 21
26.2339767607
  0
LINE
  5
32B
100
AcDbEntity
  8
CURVE
100
AcDbLine
 62
253
  6
CONTINUOUS
 10
-22.0182005434
 20
0.5289777612
 11
-22.0182005434
 21
0.1265964841
  0
LINE
  5
32C
100
AcDbEntity
  8
CURVE
100
AcDbLine
 62
253
  6
CONTINUOUS
 10
-22.0182005434
 20
2.107548747
 11
-22.0182005434
 21
2.757548747
  0
LINE
  5
32D
100
AcDbEntity
  8
DRAFT
100
AcDbLine
 62
7
  6
CONTINUOUS
 10
-21.9253433673
 20
-14.2686415816
 11
-21.9253433673
 21
-13.3686415816
  0
LINE
  5
32E
100
AcDbEntity
  8
DRAFT
100
AcDbLine
 62
7
  6
CONTINUOUS
 10
-21.9253433673
 20
26.6313584184
 11
-21.9253433673
 21
27.5313584184
  0
LINE
  5
32F
100
AcDbEntity
  8
CURVE
100
AcDbLine
 62
253
  6
CONTINUOUS
 10
-21.9003433673
 20
7.2563584184
 11
-21.9003433673
 21
7.3188584184
  0
LINE
  5
330
100
AcDbEntity
  8
DRAFT
100
AcDbLine
 62
7
  6
CONTINUOUS
 10
-21.89916077
 20
-14.1900299127
 11
-21.89916077
 21
-13.394824179
  0
LINE
  5
331
100
AcDbEntity
  8
DRAFT
100
AcDbLine
 62
7
  6
CONTINUOUS
 10
-21.89916077
 20
26.6575410158
 11
-21.89916077
 21
27.4527467494
  0
LINE
  5
332
100
AcDbEntity
  8
CURVE
100
AcDbLine
 62
253
  6
CONTINUOUS
 10
-21.2753433673
 20
1.457548747
 11
-21.2753433673
 21
1.3646919583
  0
LINE
  5
333
100
AcDbEntity
  8
CURVE
100
AcDbLine
 62
253
  6
CONTINUOUS
 10
-21.2753433673
 20
-4.7329272295
 11
-21.2753433673
 21
-4.8257844831
  0
LINE
  5
334
100
AcDbEntity
  8
CURVE
100
AcDbLine
 62
253
  6
CONTINUOUS
 10
-21.2753433673
 20
-5.4757844831
 11
-21.2753433673
 21
-6.1257844056
  0
LINE
  5
335
100
AcDbEntity
  8
CURVE
100
AcDbLine
 62
253
  6
CONTINUOUS
 10
-21.2753433673
 20
0.2504061555
 11
-21.2753433673
 21
0.5289777612
  0
LINE
  5
336
100
AcDbEntity
  8
CURVE
100
AcDbLine
 62
253
  6
CONTINUOUS
 10
-21.2753433673
 20
3.1289777612
 11
-21.2753433673
 21
3.6861197328
  0
LWPOLYLINE
  5
337
100
AcDbEntity
  8
RACCORDO
100
AcDbPolyline
 62
253
  6
CONTINUOUS
 90
31
 70
0
 10
-22.9209715333
 20
-17.2129791489
 10
-22.9205929777
 20
-17.2016811767
 10
-22.9195338501
 20
-17.1904108726
 10
-22.9177964736
 20
-17.1791990028
 10
-22.9153847722
 20
-17.1680751937
 10
-22.912304902
 20
-17.1570709416
 10
-22.908565851
 20
-17.1462194018
 10
-22.9041783066
 20
-17.1355512788
 10
-22.8991539076
 20
-17.1250946055
 10
-22.893506227
 20
-17.1148776867
 10
-22.8872505344
 20
-17.1049282815
 10
-22.8804039598
 20
-17.095273757
 10
-22.8729853515
 20
-17.0859407336
 10
-22.8650150475
 20
-17.0769547834
 10
-22.8565147527
 20
-17.0683403642
 10
-22.8475076622
 20
-17.0601209858
 10
-22.8380183586
 20
-17.0523190892
 10
-22.8280727714
 20
-17.0449560009
 10
-22.8176980886
 20
-17.0380518521
 10
-22.8069226562
 20
-17.0316255055
 10
-22.7957758982
 20
-17.0256945085
 10
-22.7842882611
 20
-17.0202750612
 10
-22.7724911044
 20
-17.0153819592
 10
-22.7604166679
 20
-17.0110285761
 10
-22.7480979883
 20
-17.0072268187
 10
-22.735568753
 20
-17.0039870723
 10
-22.7228631501
 20
-17.0013181658
 10
-22.7100158293
 20
-16.9992273734
 10
-22.6970618621
 20
-16.9977204035
 10
-22.6840366483
 20
-16.9968013751
 10
-22.6709757641
 20
-16.996472798
  0
LWPOLYLINE
  5
338
100
AcDbEntity
  8
RACCORDO
100
AcDbPolyline
 62
7
  6
CONTINUOUS
 90
34
 70
0
 10
-20.5297152013
 20
30.4756959857
 10
-20.5300129277
 20
30.4694544066
 10
-20.5307841791
 20
30.4631812955
 10
-20.5320345419
 20
30.4568948795
 10
-20.5337685891
 20
30.4506208474
 10
-20.5359900319
 20
30.4443713091
 10
-20.5387020519
 20
30.4381448251
 10
-20.5419065487
 20
30.4319618877
 10
-20.5456044733
 20
30.4258422575
 10
-20.5497967243
 20
30.4197841009
 10
-20.5544822085
 20
30.4138089242
 10
-20.5596588504
 20
30.4079375165
 10
-20.5653252212
 20
30.4021676947
 10
-20.571477005
 20
30.3965217137
 10
-20.5781087874
 20
30.3910212206
 10
-20.5852165902
 20
30.3856638849
 10
-20.5927925858
 20
30.3804724325
 10
-20.6008276678
 20
30.3754691238
 10
-20.6093148933
 20
30.3706517097
 10
-20.6182426028
 20
30.3660430163
 10
-20.6275975815
 20
30.3616656075
 10
-20.6373692561
 20
30.3575175596
 10
-20.6475417674
 20
30.3536213006
 10
-20.6580973544
 20
30.3499992578
 10
-20.6690209552
 20
30.3466500216
 10
-20.6802920128
 20
30.3435949885
 10
-20.6918879373
 20
30.3408557822
 10
-20.703788635
 20
30.3384315008
 10
-20.7159554627
 20
30.3363447001
 10
-20.7283735176
 20
30.3346112411
 10
-20.7410575117
 20
30.3332251201
 10
-20.7539922223
 20
30.3322020381
 10
-20.7671307238
 20
30.3315728483
 10
-20.7804381993
 20
30.3313584184
  0
LINE
  5
339
100
AcDbEntity
  8
DRAFT
100
AcDbLine
 62
7
  6
CONTINUOUS
 10
-19.574181042
 20
27.5418287988
 11
-19.5840701121
 21
27.4527467494
  0
LINE
  5
33A
100
AcDbEntity
  8
CURVE
100
AcDbLine
 62
253
  6
CONTINUOUS
 10
-22.5878433673
 20
7.5688584184
 11
-22.6503433673
 21
7.3188584184
  0
LINE
  5
33B
100
AcDbEntity
  8
CURVE
100
AcDbLine
 62
253
  6
CONTINUOUS
 10
-22.5253433673
 20
7.7563584184
 11
-22.5878433673
 21
7.5688584184
  0
LINE
  5
33C
100
AcDbEntity
  8
CURVE
100
AcDbLine
 62
253
  6
CONTINUOUS
 10
-21.9628433673
 20
7.0688584184
 11
-21.9003433673
 21
7.2563584184
  0
LINE
  5
33D
100
AcDbEntity
  8
CURVE
100
AcDbLine
 62
253
  6
CONTINUOUS
 10
-22.4628433673
 20
7.8813584184
 11
-22.5253433673
 21
7.7563584184
  0
LINE
  5
33E
100
AcDbEntity
  8
CURVE
100
AcDbLine
 62
253
  6
CONTINUOUS
 10
-22.0253433673
 20
6.9438584184
 11
-21.9628433673
 21
7.0688584184
  0
LINE
  5
33F
100
AcDbEntity
  8
DRAFT
100
AcDbLine
 62
7
  6
CONTINUOUS
 10
-7.8753433673
 20
29.0313584184
 11
-7.9194106346
 21
28.9652565853
  0
LINE
  5
340
100
AcDbEntity
  8
RACCORDO
100
AcDbLine
 62
253
  6
CONTINUOUS
 10
-1.8797109706
 20
31.1269865844
 11
-1.8753391366
 21
31.1313584184
  0
LINE
  5
341
100
AcDbEntity
  8
RACCORDO
100
AcDbLine
 62
253
  6
CONTINUOUS
 10
-1.6297152013
 20
30.8769908152
 11
-1.6253433673
 21
30.8813626492
  0
LINE
  5
342
100
AcDbEntity
  8
RACCORDO
100
AcDbLine
 62
7
  6
CONTINUOUS
 10
-5.9183218659
 20
26.3883799198
 11
-5.9753433673
 21
26.3313584184
  0
LINE
  5
343
100
AcDbEntity
  8
CURVE
100
AcDbLine
 62
253
  6
CONTINUOUS
 10
-5.2039148181
 20
18.6313584184
 11
-4.2753433673
 21
18.909930024
  0
LINE
  5
344
100
AcDbEntity
  8
0
100
AcDbLine
 62
7
  6
CONTINUOUS
 10
-15.8753433673
 20
-3.8686415816
 11
-12.8753433673
 21
-3.8686415816
  0
LINE
  5
345
100
AcDbEntity
  8
CURVE
100
AcDbLine
 62
253
  6
CONTINUOUS
 10
-1.2399059495
 20
-3.4472131396
 11
-1.2280632451
 21
-3.4472131396
  0
LINE
  5
346
100
AcDbEntity
  8
CURVE
100
AcDbLine
 62
253
  6
CONTINUOUS
 10
-1.2209576229
 20
-3.401974764
 11
-1.2138519997
 21
-3.401974764
  0
LINE
  5
347
100
AcDbEntity
  8
CURVE
100
AcDbLine
 62
253
  6
CONTINUOUS
 10
-18.2753433673
 20
-2.8686415816
 11
-20.1753433673
 21
-2.8686415816
  0
LINE
  5
348
100
AcDbEntity
  8
CURVE
100
AcDbLine
 62
253
  6
CONTINUOUS
 10
-22.2967719166
 20
0.2504061555
 11
-21.9253433673
 21
0.0646919583
  0
LINE
  5
349
100
AcDbEntity
  8
CURVE
100
AcDbLine
 62
253
  6
CONTINUOUS
 10
-22.2039148181
 20
1.0861203526
 11
-22.3896290927
 21
1.1789777612
  0
LINE
  5
34A
100
AcDbEntity
  8
CURVE
100
AcDbLine
 62
253
  6
CONTINUOUS
 10
-21.4610576614
 20
1.6432629441
 11
-21.2753433673
 21
1.457548747
  0
LINE
  5
34B
100
AcDbEntity
  8
RACCORDO
100
AcDbLine
 62
253
  6
CONTINUOUS
 10
-1.8797109706
 20
-17.8642697476
 11
-1.8753391366
 21
-17.8686415816
  0
LINE
  5
34C
100
AcDbEntity
  8
RACCORDO
100
AcDbLine
 62
253
  6
CONTINUOUS
 10
-1.6297152013
 20
-17.6142739784
 11
-1.6253433673
 21
-17.6186458124
  0
LINE
  5
34D
100
AcDbEntity
  8
RACCORDO
100
AcDbLine
 62
7
  6
CONTINUOUS
 10
-5.9183218659
 20
-13.1256630831
 11
-5.9753433673
 21
-13.0686415816
  0
LINE
  5
34E
100
AcDbEntity
  8
DRAFT
100
AcDbLine
 62
7
  6
CONTINUOUS
 10
-7.8753433673
 20
-15.7686415816
 11
-7.9194106346
 21
-15.7025397485
  0
LINE
  5
34F
100
AcDbEntity
  8
CURVE
100
AcDbLine
 62
253
  6
CONTINUOUS
 10
-22.6503433673
 20
7.1938584184
 11
-22.5878433673
 21
7.0063584184
  0
LINE
  5
350
100
AcDbEntity
  8
CURVE
100
AcDbLine
 62
253
  6
CONTINUOUS
 10
-21.9003433673
 20
7.3188584184
 11
-21.8378433673
 21
7.0688584184
  0
LINE
  5
351
100
AcDbEntity
  8
DRAFT
100
AcDbLine
 62
7
  6
CONTINUOUS
 10
-19.5840701121
 20
-14.1900299127
 11
-19.574181042
 21
-14.2791119621
  0
LINE
  5
352
100
AcDbEntity
  8
RACCORDO
100
AcDbLine
 62
253
  6
CONTINUOUS
 10
-20.7804381993
 20
30.3313584184
 11
-20.7746203695
 21
29.7540081492
  0
LINE
  5
353
100
AcDbEntity
  8
RACCORDO
100
AcDbLine
 62
253
  6
CONTINUOUS
 10
-20.5297152013
 20
30.4756959857
 11
-20.5253433673
 21
30.0418435666
  0
LINE
  5
354
100
AcDbEntity
  8
RACCORDO
100
AcDbLine
 62
253
  6
CONTINUOUS
 10
-20.7797109706
 20
-17.8642697476
 11
-20.7797109706
 21
-16.996472798
  0
LINE
  5
355
100
AcDbEntity
  8
RACCORDO
100
AcDbLine
 62
253
  6
CONTINUOUS
 10
-20.7797109706
 20
30.3313584184
 11
-20.7797109706
 21
31.1269865844
  0
LINE
  5
356
100
AcDbEntity
  8
CURVE
100
AcDbLine
 62
253
  6
CONTINUOUS
 10
-20.7753433673
 20
7.1313584184
 11
-20.7753433673
 21
7.3188584184
  0
LINE
  5
357
100
AcDbEntity
  8
RACCORDO
100
AcDbLine
 62
253
  6
CONTINUOUS
 10
-20.5297152013
 20
-17.6142739784
 11
-20.5297152013
 21
-17.2129791489
  0
LINE
  5
358
100
AcDbEntity
  8
RACCORDO
100
AcDbLine
 62
253
  6
CONTINUOUS
 10
-20.5297152013
 20
30.4756959857
 11
-20.5297152013
 21
30.8769908152
  0
LINE
  5
359
100
AcDbEntity
  8
RACCORDO
100
AcDbLine
 62
7
  6
CONTINUOUS
 10
-20.5253433673
 20
-17.6186458124
 11
-20.5253433673
 21
-15.7686415816
  0
LINE
  5
35A
100
AcDbEntity
  8
DRAFT
100
AcDbLine
 62
7
  6
CONTINUOUS
 10
-20.5253433673
 20
-14.7686415816
 11
-20.5253433673
 21
-14.2686415816
  0
LINE
  5
35B
100
AcDbEntity
  8
DRAFT
100
AcDbLine
 62
7
  6
CONTINUOUS
 10
-20.5253433673
 20
27.5313584184
 11
-20.5253433673
 21
28.0313584184
  0
LINE
  5
35C
100
AcDbEntity
  8
RACCORDO
100
AcDbLine
 62
7
  6
CONTINUOUS
 10
-20.5253433673
 20
29.0313584184
 11
-20.5253433673
 21
30.8813626492
  0
LINE
  5
35D
100
AcDbEntity
  8
RACCORDO
100
AcDbLine
 62
253
  6
CONTINUOUS
 10
-20.3593679341
 20
28.1973338516
 11
-20.3593679341
 21
27.6230666826
  0
LINE
  5
35E
100
AcDbEntity
  8
RACCORDO
100
AcDbLine
 62
253
  6
CONTINUOUS
 10
-20.3593679341
 20
-14.3603498459
 11
-20.3593679341
 21
-14.9346170149
  0
LINE
  5
35F
100
AcDbEntity
  8
CURVE
100
AcDbLine
 62
253
  6
CONTINUOUS
 10
-20.1753433673
 20
-2.8686415816
 11
-20.1753433673
 21
-2.1900701369
  0
LINE
  5
360
100
AcDbEntity
  8
RACCORDO
100
AcDbLine
 62
253
  6
CONTINUOUS
 10
-19.8594440865
 20
27.9440516621
 11
-19.8594440865
 21
27.6273539641
  0
LINE
  5
361
100
AcDbEntity
  8
RACCORDO
100
AcDbLine
 62
253
  6
CONTINUOUS
 10
-19.8594440865
 20
-14.3646371273
 11
-19.8594440865
 21
-14.6813348253
  0
LINE
  5
362
100
AcDbEntity
  8
0
100
AcDbLine
 62
7
  6
CONTINUOUS
 10
-19.7119990037
 20
-14.2186415816
 11
-19.7119990037
 21
-13.0319859453
  0
LINE
  5
363
100
AcDbEntity
  8
DRAFT
100
AcDbLine
 62
7
  6
CONTINUOUS
 10
-19.7119990037
 20
-14.2186415816
 11
-19.7119990037
 21
-13.0319859453
  0
LINE
  5
364
100
AcDbEntity
  8
0
100
AcDbLine
 62
7
  6
CONTINUOUS
 10
-19.7119990037
 20
26.294702782
 11
-19.7119990037
 21
27.4813584184
  0
LINE
  5
365
100
AcDbEntity
  8
DRAFT
100
AcDbLine
 62
7
  6
CONTINUOUS
 10
-19.7119990037
 20
26.294702782
 11
-19.7119990037
 21
27.4813584184
  0
LINE
  5
366
100
AcDbEntity
  8
0
100
AcDbLine
 62
7
  6
CONTINUOUS
 10
-19.6753433673
 20
-14.2186415816
 11
-19.6753433673
 21
-13.0686415816
  0
LINE
  5
367
100
AcDbEntity
  8
DRAFT
100
AcDbLine
 62
7
  6
CONTINUOUS
 10
-19.6753433673
 20
-14.2186415816
 11
-19.6753433673
 21
-13.0686415816
  0
LINE
  5
368
100
AcDbEntity
  8
0
100
AcDbLine
 62
7
  6
CONTINUOUS
 10
-19.6753433673
 20
26.3313584184
 11
-19.6753433673
 21
27.4813584184
  0
LINE
  5
369
100
AcDbEntity
  8
DRAFT
100
AcDbLine
 62
7
  6
CONTINUOUS
 10
-19.6753433673
 20
26.3313584184
 11
-19.6753433673
 21
27.4813584184
  0
LINE
  5
36A
100
AcDbEntity
  8
DRAFT
100
AcDbLine
 62
7
  6
CONTINUOUS
 10
-19.5840701121
 20
-13.0686415816
 11
-19.5840701121
 21
-14.1900299127
  0
LINE
  5
36B
100
AcDbEntity
  8
DRAFT
100
AcDbLine
 62
7
  6
CONTINUOUS
 10
-19.5840701121
 20
26.3313584184
 11
-19.5840701121
 21
27.4527467494
  0
LINE
  5
36C
100
AcDbEntity
  8
RACCORDO
100
AcDbLine
 62
7
  6
CONTINUOUS
 10
-19.5171650692
 20
-14.3646371273
 11
-19.5171650692
 21
-13.3256596985
  0
LINE
  5
36D
100
AcDbEntity
  8
RACCORDO
100
AcDbLine
 62
7
  6
CONTINUOUS
 10
-19.5171650692
 20
26.5883765352
 11
-19.5171650692
 21
27.6273539641
  0
LINE
  5
36E
100
AcDbEntity
  8
RACCORDO
100
AcDbLine
 62
253
  6
CONTINUOUS
 10
-20.7746203695
 20
-16.4912913124
 11
-20.7797109706
 21
-16.996472798
  0
LINE
  5
36F
100
AcDbEntity
  8
RACCORDO
100
AcDbLine
 62
253
  6
CONTINUOUS
 10
-20.5253433673
 20
-16.7791267298
 11
-20.5297152013
 21
-17.2129791489
  0
LWPOLYLINE
  5
370
100
AcDbEntity
  8
RACCORDO
100
AcDbPolyline
 62
7
  6
CONTINUOUS
 90
34
 70
0
 10
-20.5253433673
 20
-17.6186458124
 10
-20.5256265176
 20
-17.6305410977
 10
-20.5264753331
 20
-17.6424094372
 10
-20.5278878932
 20
-17.6542239478
 10
-20.5298609996
 20
-17.6659578691
 10
-20.5323901856
 20
-17.6775846204
 10
-20.5354697256
 20
-17.6890778606
 10
-20.539092646
 20
-17.7004115554
 10
-20.5432507416
 20
-17.7115600309
 10
-20.5479345952
 20
-17.7224980279
 10
-20.5531335985
 20
-17.7332007692
 10
-20.5588359757
 20
-17.7436440099
 10
-20.5650288092
 20
-17.7538040875
 10
-20.5716980719
 20
-17.7636579868
 10
-20.5788286566
 20
-17.7731833855
 10
-20.5864044085
 20
-17.7823587007
 10
-20.5944081669
 20
-17.7911631477
 10
-20.6028218013
 20
-17.7995767821
 10
-20.6116262483
 20
-17.8075805405
 10
-20.6208015635
 20
-17.8151562923
 10
-20.6303269622
 20
-17.8222868771
 10
-20.6401808614
 20
-17.8289561398
 10
-20.6503409391
 20
-17.8351489733
 10
-20.6607841798
 20
-17.8408513505
 10
-20.671486921
 20
-17.8460503538
 10
-20.6824249181
 20
-17.8507342074
 10
-20.6935733936
 20
-17.854892303
 10
-20.7049070883
 20
-17.8585152233
 10
-20.7164003285
 20
-17.8615947634
 10
-20.7280270799
 20
-17.8641239494
 10
-20.7397610012
 20
-17.8660970558
 10
-20.7515755118
 20
-17.8675096159
 10
-20.7634438513
 20
-17.8683584314
 10
-20.7753391366
 20
-17.8686415816
  0
LWPOLYLINE
  5
371
100
AcDbEntity
  8
RACCORDO
100
AcDbPolyline
 62
253
  6
CONTINUOUS
 90
31
 70
0
 10
-20.5297152013
 20
-17.6142739784
 10
-20.5300583903
 20
-17.6273603325
 10
-20.5310861333
 20
-17.6404108309
 10
-20.5327956165
 20
-17.6533896883
 10
-20.5351821592
 20
-17.6662613279
 10
-20.5382392204
 20
-17.6789904419
 10
-20.5419584099
 20
-17.6915420893
 10
-20.5463295249
 20
-17.7038818454
 10
-20.5513405804
 20
-17.7159758827
 10
-20.5569778287
 20
-17.7277910283
 10
-20.5632258079
 20
-17.7392948841
 10
-20.5700673836
 20
-17.7504559101
 10
-20.5774837905
 20
-17.7612435004
 10
-20.5854546987
 20
-17.7716280896
 10
-20.5939582402
 20
-17.7815811931
 10
-20.6029710593
 20
-17.7910754862
 10
-20.6124683938
 20
-17.800084908
 10
-20.6224242309
 20
-17.808584805
 10
-20.6328113568
 20
-17.8165519472
 10
-20.643601436
 20
-17.8239645772
 10
-20.6547647544
 20
-17.8308022591
 10
-20.6662703548
 20
-17.8370460607
 10
-20.6780864331
 20
-17.8426788093
 10
-20.6901807892
 20
-17.8476852392
 10
-20.7025205931
 20
-17.8520517903
 10
-20.7150747777
 20
-17.85576723
 10
-20.7278062429
 20
-17.8588203434
 10
-20.7406719616
 20
-17.8612014736
 10
-20.7536337362
 20
-17.8629050778
 10
-20.7666586306
 20
-17.8639283404
 10
-20.7797109706
 20
-17.8642697476
  0
LINE
  5
372
100
AcDbEntity
  8
CURVE
100
AcDbLine
 62
253
  6
CONTINUOUS
 10
-20.8378433673
 20
6.9438584184
 11
-20.7753433673
 21
7.1313584184
  0
LINE
  5
373
100
AcDbEntity
  8
CURVE
100
AcDbLine
 62
253
  6
CONTINUOUS
 10
-20.9003433673
 20
6.8188584184
 11
-20.8378433673
 21
6.9438584184
  0
LINE
  5
374
100
AcDbEntity
  8
CURVE
100
AcDbLine
 62
253
  6
CONTINUOUS
 10
-19.915887824
 20
7.8198520674
 11
-19.665887824
 21
8.2528647693
  0
LINE
  5
375
100
AcDbEntity
  8
CURVE
100
AcDbLine
 62
253
  6
CONTINUOUS
 10
-22.0878433673
 20
6.8813584184
 11
-22.0253433673
 21
6.9438584184
  0
LINE
  5
376
100
AcDbEntity
  8
CURVE
100
AcDbLine
 62
253
  6
CONTINUOUS
 10
-9.3896290927
 20
17.609930024
 11
-9.2039148181
 21
17.7027868127
  0
LINE
  5
377
100
AcDbEntity
  8
CURVE
100
AcDbLine
 62
253
  6
CONTINUOUS
 10
-8.4610576614
 20
17.1456442212
 11
-8.6467719554
 21
17.0527871226
  0
LINE
  5
378
100
AcDbEntity
  8
CURVE
100
AcDbLine
 62
253
  6
CONTINUOUS
 10
-9.3896290927
 20
16.5885013198
 11
-9.2039148181
 21
16.6813584184
  0
LINE
  5
379
100
AcDbEntity
  8
CURVE
100
AcDbLine
 62
253
  6
CONTINUOUS
 10
-1.2091149182
 20
-2.0900702501
 11
-1.2422744905
 21
-2.0900702501
  0
LINE
  5
37A
100
AcDbEntity
  8
CURVE
100
AcDbLine
 62
253
  6
CONTINUOUS
 10
-19.9039148121
 20
-1.9186415816
 11
-19.3610577016
 21
-1.9186415816
  0
LINE
  5
37B
100
AcDbEntity
  8
CURVE
100
AcDbLine
 62
7
  6
CONTINUOUS
 10
-1.1937360435
 20
-1.2353795816
 11
-1.202145653
 21
-1.2353795816
  0
LINE
  5
37C
100
AcDbEntity
  8
0
100
AcDbLine
 62
7
  6
CONTINUOUS
 10
-12.8753433673
 20
-0.8686415816
 11
-15.8753433673
 21
-0.8686415816
  0
LINE
  5
37D
100
AcDbEntity
  8
CURVE
100
AcDbLine
 62
253
  6
CONTINUOUS
 10
-1.2422744905
 20
-0.6876892115
 11
-1.2256947044
 21
-0.6876892115
  0
LINE
  5
37E
100
AcDbEntity
  8
SMUSSO
100
AcDbLine
 62
7
  6
CONTINUOUS
 10
-16.5253433673
 20
-0.6186415816
 11
-12.5253433673
 21
-0.6186415816
  0
LINE
  5
37F
100
AcDbEntity
  8
ASSI
100
AcDbLine
 62
7
  6
CONTINUOUS
 10
-16.5253433673
 20
-0.6186415816
 11
-12.5253433673
 21
-0.6186415816
  0
LINE
  5
380
100
AcDbEntity
  8
CURVE
100
AcDbLine
 62
253
  6
CONTINUOUS
 10
-21.6467719554
 20
1.7361203526
 11
-21.4610576614
 21
1.6432629441
  0
LINE
  5
381
100
AcDbEntity
  8
CURVE
100
AcDbLine
 62
253
  6
CONTINUOUS
 10
-22.2039148181
 20
3.6861197328
 11
-21.2753433673
 21
3.1289777612
  0
LINE
  5
382
100
AcDbEntity
  8
SMUSSO
100
AcDbLine
 62
7
  6
CONTINUOUS
 10
-17.0253433673
 20
-0.1186415816
 11
-16.5253433673
 21
-0.6186415816
  0
LINE
  5
383
100
AcDbEntity
  8
ASSI
100
AcDbLine
 62
7
  6
CONTINUOUS
 10
-17.0253433673
 20
-0.1186415816
 11
-16.5253433673
 21
-0.6186415816
  0
LINE
  5
384
100
AcDbEntity
  8
SMUSSO
100
AcDbLine
 62
7
  6
CONTINUOUS
 10
-12.0253433673
 20
-4.6186415816
 11
-12.5253433673
 21
-4.1186415816
  0
LINE
  5
385
100
AcDbEntity
  8
ASSI
100
AcDbLine
 62
7
  6
CONTINUOUS
 10
-12.0253433673
 20
-4.6186415816
 11
-12.5253433673
 21
-4.1186415816
  0
LINE
  5
386
100
AcDbEntity
  8
CURVE
100
AcDbLine
 62
253
  6
CONTINUOUS
 10
-22.5878433673
 20
7.0063584184
 11
-22.4628433673
 21
6.8813584184
  0
LINE
  5
387
100
AcDbEntity
  8
CURVE
100
AcDbLine
 62
253
  6
CONTINUOUS
 10
-21.8378433673
 20
7.0688584184
 11
-21.7128433673
 21
6.8188584184
  0
LINE
  5
388
100
AcDbEntity
  8
CURVE
100
AcDbLine
 62
253
  6
CONTINUOUS
 10
-20.7753433673
 20
7.3188584184
 11
-20.8378433673
 21
7.5688584184
  0
LINE
  5
389
100
AcDbEntity
  8
CURVE
100
AcDbLine
 62
253
  6
CONTINUOUS
 10
-19.0896290897
 20
-2.1900701369
 11
-19.0896290897
 21
-2.8686415816
  0
LINE
  5
38A
100
AcDbEntity
  8
RACCORDO
100
AcDbLine
 62
7
  6
CONTINUOUS
 10
-18.6335216655
 20
-13.9515658648
 11
-18.6335216655
 21
-13.3256596985
  0
LINE
  5
38B
100
AcDbEntity
  8
RACCORDO
100
AcDbLine
 62
7
  6
CONTINUOUS
 10
-18.6335216655
 20
26.5883765352
 11
-18.6335216655
 21
27.2142827016
  0
LINE
  5
38C
100
AcDbEntity
  8
DRAFT
100
AcDbLine
 62
7
  6
CONTINUOUS
 10
-18.5666166226
 20
26.6182681167
 11
-18.5666166226
 21
26.3313584184
  0
LINE
  5
38D
100
AcDbEntity
  8
DRAFT
100
AcDbLine
 62
7
  6
CONTINUOUS
 10
-18.5666166226
 20
-13.0686415816
 11
-18.5666166226
 21
-13.3555512799
  0
LINE
  5
38E
100
AcDbEntity
  8
CURVE
100
AcDbLine
 62
253
  6
CONTINUOUS
 10
-18.2753433673
 20
-7.6686415816
 11
-18.2753433673
 21
-6.9900701369
  0
LWPOLYLINE
  5
38F
100
AcDbEntity
  8
ASSI
100
AcDbPolyline
 62
7
  6
CONTINUOUS
 90
17
 70
0
 10
-15.7753433673
 20
30.3825007087
 10
-15.7756756573
 20
30.3797823296
 10
-15.7766845741
 20
30.3764004984
 10
-15.7783874738
 20
30.3723552152
 10
-15.7808018238
 20
30.3676592409
 10
-15.7839422479
 20
30.3622998144
 10
-15.7878175324
 20
30.356238653
 10
-15.7924365093
 20
30.3494705191
 10
-15.7978086007
 20
30.3420006502
 10
-15.8039376656
 20
30.3338064758
 10
-15.8108123626
 20
30.3249085834
 10
-15.8184481109
 20
30.3152863857
 10
-15.8268980998
 20
30.3048555501
 10
-15.8361814774
 20
30.2936133183
 10
-15.8463012617
 20
30.2815624487
 10
-15.8573031893
 20
30.2686268848
 10
-15.8691990851
 20
30.2548057025
  0
LWPOLYLINE
  5
390
100
AcDbEntity
  8
0
100
AcDbPolyline
 62
253
  6
CONTINUOUS
 90
4
 70
0
 10
-10.2930969216
 20
24.0904213242
 10
-10.3149581918
 20
24.048093088
 10
-10.3448834323
 20
24.0095719967
 10
-10.3820211766
 20
23.9761725893
  0
LWPOLYLINE
  5
391
100
AcDbEntity
  8
RACCORDO
100
AcDbPolyline
 62
253
  6
CONTINUOUS
 90
4
 70
0
 10
-10.2930969216
 20
24.0904213242
 10
-10.3149581918
 20
24.048093088
 10
-10.3448834323
 20
24.0095719967
 10
-10.3820211766
 20
23.9761725893
  0
LINE
  5
392
100
AcDbEntity
  8
CURVE
100
AcDbLine
 62
253
  6
CONTINUOUS
 10
-19.1583560692
 20
7.4979609587
 11
-19.0083560692
 21
7.7577685799
  0
LWPOLYLINE
  5
393
100
AcDbEntity
  8
RACCORDO
100
AcDbPolyline
 62
7
  6
CONTINUOUS
 90
5
 70
0
 10
-4.3844598937
 20
28.3904749447
 10
-4.4079787498
 20
28.3544273787
 10
-4.4319633064
 20
28.3180041822
 10
-4.4564135634
 20
28.2812764026
 10
-4.4813888105
 20
28.2443473028
  0
LINE
  5
394
100
AcDbEntity
  8
RACCORDO
100
AcDbLine
 62
7
  6
CONTINUOUS
 10
-5.9200485994
 20
26.71430174
 11
-5.9840701121
 21
26.6182681167
  0
LWPOLYLINE
  5
395
100
AcDbEntity
  8
RACCORDO
100
AcDbPolyline
 62
7
  6
CONTINUOUS
 90
3
 70
0
 10
-4.4813888105
 20
28.2443473028
 10
-4.5325585372
 20
28.169948663
 10
-4.5585668689
 20
28.1324966828
  0
LINE
  5
396
100
AcDbEntity
  8
RACCORDO
100
AcDbLine
 62
7
  6
CONTINUOUS
 10
-4.5585668689
 20
28.1324966828
 11
-4.6378087465
 21
28.0195423056
  0
LINE
  5
397
100
AcDbEntity
  8
RACCORDO
100
AcDbLine
 62
7
  6
CONTINUOUS
 10
-4.6378087465
 20
28.0195423056
 11
-4.6912426482
 21
27.9440516621
  0
LINE
  5
398
100
AcDbEntity
  8
CURVE
100
AcDbLine
 62
253
  6
CONTINUOUS
 10
-21.0253433673
 20
6.6938584184
 11
-20.9003433673
 21
6.8188584184
  0
LINE
  5
399
100
AcDbEntity
  8
CURVE
100
AcDbLine
 62
253
  6
CONTINUOUS
 10
-9.5753433673
 20
17.4242158269
 11
-9.3896290927
 21
17.609930024
  0
LINE
  5
39A
100
AcDbEntity
  8
CURVE
100
AcDbLine
 62
253
  6
CONTINUOUS
 10
-8.4610576614
 20
16.1242155169
 11
-8.6467719554
 21
16.0313584184
  0
LINE
  5
39B
100
AcDbEntity
  8
CURVE
100
AcDbLine
 62
253
  6
CONTINUOUS
 10
-5.3896290927
 20
17.609930024
 11
-5.2039148181
 21
17.7027868127
  0
LINE
  5
39C
100
AcDbEntity
  8
CURVE
100
AcDbLine
 62
253
  6
CONTINUOUS
 10
-4.4610576614
 20
17.1456442212
 11
-4.6467719554
 21
17.0527871226
  0
LINE
  5
39D
100
AcDbEntity
  8
CURVE
100
AcDbLine
 62
253
  6
CONTINUOUS
 10
-5.3896290927
 20
16.5885013198
 11
-5.2039148181
 21
16.6813584184
  0
LINE
  5
39E
100
AcDbEntity
  8
RACCORDO
100
AcDbLine
 62
7
  6
CONTINUOUS
 10
-1.5622644892
 20
-0.2186415816
 11
-2.4753433673
 21
-0.2186415816
  0
LINE
  5
39F
100
AcDbEntity
  8
ASSI
100
AcDbLine
 62
7
  6
CONTINUOUS
 10
-1.5622644892
 20
-0.2186415816
 11
-2.4753433673
 21
-0.2186415816
  0
LINE
  5
3A0
100
AcDbEntity
  8
CURVE
100
AcDbLine
 62
7
  6
CONTINUOUS
 10
-1.1515413654
 20
-0.1623805816
 11
-1.1937360435
 21
-0.1623805816
  0
LINE
  5
3A1
100
AcDbEntity
  8
SMUSSO
100
AcDbLine
 62
7
  6
CONTINUOUS
 10
-17.0253433673
 20
-0.1186415816
 11
-12.0253433673
 21
-0.1186415816
  0
LINE
  5
3A2
100
AcDbEntity
  8
ASSI
100
AcDbLine
 62
7
  6
CONTINUOUS
 10
-17.0253433673
 20
-0.1186415816
 11
-12.0253433673
 21
-0.1186415816
  0
LINE
  5
3A3
100
AcDbEntity
  8
CURVE
100
AcDbLine
 62
253
  6
CONTINUOUS
 10
-21.9253433673
 20
0.0646919583
 11
-21.4610576614
 21
0.0646919583
  0
LINE
  5
3A4
100
AcDbEntity
  8
SMUSSO
100
AcDbLine
 62
7
  6
CONTINUOUS
 10
-12.0253433673
 20
0.3813584184
 11
-17.0253433673
 21
0.3813584184
  0
LINE
  5
3A5
100
AcDbEntity
  8
ASSI
100
AcDbLine
 62
7
  6
CONTINUOUS
 10
-12.0253433673
 20
0.3813584184
 11
-17.0253433673
 21
0.3813584184
  0
LINE
  5
3A6
100
AcDbEntity
  8
CURVE
100
AcDbLine
 62
7
  6
CONTINUOUS
 10
-1.202145653
 20
0.4602254184
 11
-1.1515413654
 21
0.4602254184
  0
LINE
  5
3A7
100
AcDbEntity
  8
RACCORDO
100
AcDbLine
 62
7
  6
CONTINUOUS
 10
-1.5622644892
 20
0.4813584184
 11
-2.4753433673
 21
0.4813584184
  0
LINE
  5
3A8
100
AcDbEntity
  8
ASSI
100
AcDbLine
 62
7
  6
CONTINUOUS
 10
-1.5622644892
 20
0.4813584184
 11
-2.4753433673
 21
0.4813584184
  0
LINE
  5
3A9
100
AcDbEntity
  8
CURVE
100
AcDbLine
 62
253
  6
CONTINUOUS
 10
-1.2091149182
 20
0.4885012512
 11
-1.2422744905
 21
0.4885012512
  0
LINE
  5
3AA
100
AcDbEntity
  8
CURVE
100
AcDbLine
 62
253
  6
CONTINUOUS
 10
-21.4610576614
 20
0.7146919583
 11
-21.83248623
 21
0.7146919583
  0
LINE
  5
3AB
100
AcDbEntity
  8
SMUSSO
100
AcDbLine
 62
7
  6
CONTINUOUS
 10
-12.5253433673
 20
0.8813584184
 11
-16.5253433673
 21
0.8813584184
  0
LINE
  5
3AC
100
AcDbEntity
  8
ASSI
100
AcDbLine
 62
7
  6
CONTINUOUS
 10
-12.5253433673
 20
0.8813584184
 11
-16.5253433673
 21
0.8813584184
  0
LINE
  5
3AD
100
AcDbEntity
  8
CURVE
100
AcDbLine
 62
253
  6
CONTINUOUS
 10
-21.6467719554
 20
1.0861203526
 11
-22.2039148181
 21
1.0861203526
  0
LINE
  5
3AE
100
AcDbEntity
  8
0
100
AcDbLine
 62
7
  6
CONTINUOUS
 10
-15.8753433673
 20
1.1313584184
 11
-12.8753433673
 21
1.1313584184
  0
LINE
  5
3AF
100
AcDbEntity
  8
CURVE
100
AcDbLine
 62
253
  6
CONTINUOUS
 10
-21.7128433673
 20
6.8188584184
 11
-21.5878433673
 21
6.6938584184
  0
LINE
  5
3B0
100
AcDbEntity
  8
CURVE
100
AcDbLine
 62
253
  6
CONTINUOUS
 10
-20.9628433673
 20
7.7563584184
 11
-21.0878433673
 21
7.8813584184
  0
LINE
  5
3B1
100
AcDbEntity
  8
RACCORDO
100
AcDbLine
 62
7
  6
CONTINUOUS
 10
-4.6912426482
 20
-14.6813348253
 11
-4.6378087465
 21
-14.7568254688
  0
LINE
  5
3B2
100
AcDbEntity
  8
RACCORDO
100
AcDbLine
 62
7
  6
CONTINUOUS
 10
-4.6378087465
 20
-14.7568254688
 11
-4.5585668689
 21
-14.8697798461
  0
LWPOLYLINE
  5
3B3
100
AcDbEntity
  8
RACCORDO
100
AcDbPolyline
 62
7
  6
CONTINUOUS
 90
7
 70
0
 10
-4.5585668689
 20
-14.8697798461
 10
-4.5068297581
 20
-14.9445341984
 10
-4.4813888105
 20
-14.9816304661
 10
-4.4564135634
 20
-15.0185595658
 10
-4.4319633064
 20
-15.0552873455
 10
-4.4079787498
 20
-15.0917105419
 10
-4.3844598937
 20
-15.127758108
  0
LINE
  5
3B4
100
AcDbEntity
  8
CURVE
100
AcDbLine
 62
253
  6
CONTINUOUS
 10
-20.8378433673
 20
7.5688584184
 11
-20.9628433673
 21
7.7563584184
  0
LINE
  5
3B5
100
AcDbEntity
  8
RACCORDO
100
AcDbLine
 62
7
  6
CONTINUOUS
 10
-5.9200485994
 20
-13.4515849033
 11
-5.9840701121
 21
-13.3555512799
  0
LINE
  5
3B6
100
AcDbEntity
  8
CURVE
100
AcDbLine
 62
253
  6
CONTINUOUS
 10
-20.165887824
 20
8.2528647693
 11
-19.915887824
 21
7.8198520674
  0
LINE
  5
3B7
100
AcDbEntity
  8
SMUSSO
100
AcDbLine
 62
7
  6
CONTINUOUS
 10
-17.0253433673
 20
-9.6186415816
 11
-17.0253433673
 21
-5.1186415816
  0
LINE
  5
3B8
100
AcDbEntity
  8
ASSI
100
AcDbLine
 62
7
  6
CONTINUOUS
 10
-17.0253433673
 20
-9.6186415816
 11
-17.0253433673
 21
-5.1186415816
  0
LINE
  5
3B9
100
AcDbEntity
  8
SMUSSO
100
AcDbLine
 62
7
  6
CONTINUOUS
 10
-17.0253433673
 20
-4.6186415816
 11
-17.0253433673
 21
-0.1186415816
  0
LINE
  5
3BA
100
AcDbEntity
  8
ASSI
100
AcDbLine
 62
7
  6
CONTINUOUS
 10
-17.0253433673
 20
-4.6186415816
 11
-17.0253433673
 21
-0.1186415816
  0
LINE
  5
3BB
100
AcDbEntity
  8
SMUSSO
100
AcDbLine
 62
7
  6
CONTINUOUS
 10
-17.0253433673
 20
0.3813584184
 11
-17.0253433673
 21
4.8813584184
  0
LINE
  5
3BC
100
AcDbEntity
  8
ASSI
100
AcDbLine
 62
7
  6
CONTINUOUS
 10
-17.0253433673
 20
0.3813584184
 11
-17.0253433673
 21
4.8813584184
  0
LINE
  5
3BD
100
AcDbEntity
  8
SMUSSO
100
AcDbLine
 62
7
  6
CONTINUOUS
 10
-17.0253433673
 20
5.1313584184
 11
-17.0253433673
 21
10.1313584184
  0
LINE
  5
3BE
100
AcDbEntity
  8
ASSI
100
AcDbLine
 62
7
  6
CONTINUOUS
 10
-17.0253433673
 20
5.1313584184
 11
-17.0253433673
 21
10.1313584184
  0
LINE
  5
3BF
100
AcDbEntity
  8
DRAFT
100
AcDbLine
 62
7
  6
CONTINUOUS
 10
-16.6753433673
 20
30.4313584184
 11
-16.6753433673
 21
29.0313584184
  0
LINE
  5
3C0
100
AcDbEntity
  8
DRAFT
100
AcDbLine
 62
7
  6
CONTINUOUS
 10
-16.6753433673
 20
-15.7686415816
 11
-16.6753433673
 21
-17.1686415816
  0
LINE
  5
3C1
100
AcDbEntity
  8
ASSI
100
AcDbLine
 62
253
  6
CONTINUOUS
 10
-16.6312761001
 20
-17.1194150063
 11
-16.6312761001
 21
-15.7025397485
  0
LINE
  5
3C2
100
AcDbEntity
  8
ASSI
100
AcDbLine
 62
253
  6
CONTINUOUS
 10
-16.6312761001
 20
28.9652565853
 11
-16.6312761001
 21
30.3821318431
  0
LINE
  5
3C3
100
AcDbEntity
  8
SMUSSO
100
AcDbLine
 62
7
  6
CONTINUOUS
 10
-16.5253433673
 20
-9.1186415816
 11
-16.5253433673
 21
-5.6186415816
  0
LINE
  5
3C4
100
AcDbEntity
  8
ASSI
100
AcDbLine
 62
7
  6
CONTINUOUS
 10
-16.5253433673
 20
-9.1186415816
 11
-16.5253433673
 21
-5.6186415816
  0
LINE
  5
3C5
100
AcDbEntity
  8
SMUSSO
100
AcDbLine
 62
7
  6
CONTINUOUS
 10
-16.5253433673
 20
-4.1186415816
 11
-16.5253433673
 21
-0.6186415816
  0
LINE
  5
3C6
100
AcDbEntity
  8
ASSI
100
AcDbLine
 62
7
  6
CONTINUOUS
 10
-16.5253433673
 20
-4.1186415816
 11
-16.5253433673
 21
-0.6186415816
  0
LINE
  5
3C7
100
AcDbEntity
  8
SMUSSO
100
AcDbLine
 62
7
  6
CONTINUOUS
 10
-16.5253433673
 20
0.8813584184
 11
-16.5253433673
 21
4.3813584184
  0
LINE
  5
3C8
100
AcDbEntity
  8
ASSI
100
AcDbLine
 62
7
  6
CONTINUOUS
 10
-16.5253433673
 20
0.8813584184
 11
-16.5253433673
 21
4.3813584184
  0
LINE
  5
3C9
100
AcDbEntity
  8
SMUSSO
100
AcDbLine
 62
7
  6
CONTINUOUS
 10
-16.5253433673
 20
5.6313584184
 11
-16.5253433673
 21
9.6313584184
  0
LINE
  5
3CA
100
AcDbEntity
  8
ASSI
100
AcDbLine
 62
7
  6
CONTINUOUS
 10
-16.5253433673
 20
5.6313584184
 11
-16.5253433673
 21
9.6313584184
  0
LINE
  5
3CB
100
AcDbEntity
  8
0
100
AcDbLine
 62
7
  6
CONTINUOUS
 10
-15.8753433673
 20
9.1313584184
 11
-15.8753433673
 21
6.1313584184
  0
LINE
  5
3CC
100
AcDbEntity
  8
0
100
AcDbLine
 62
7
  6
CONTINUOUS
 10
-15.8753433673
 20
4.1313584184
 11
-15.8753433673
 21
1.1313584184
  0
LINE
  5
3CD
100
AcDbEntity
  8
0
100
AcDbLine
 62
7
  6
CONTINUOUS
 10
-15.8753433673
 20
-0.8686415816
 11
-15.8753433673
 21
-3.8686415816
  0
LINE
  5
3CE
100
AcDbEntity
  8
0
100
AcDbLine
 62
7
  6
CONTINUOUS
 10
-15.8753433673
 20
-5.8686415816
 11
-15.8753433673
 21
-8.8686415816
  0
LINE
  5
3CF
100
AcDbEntity
  8
0
100
AcDbLine
 62
7
  6
CONTINUOUS
 10
-15.7753433673
 20
26.5313584184
 11
-15.7753433673
 21
26.3313584184
  0
LINE
  5
3D0
100
AcDbEntity
  8
DRAFT
100
AcDbLine
 62
7
  6
CONTINUOUS
 10
-15.7753433673
 20
26.5313584184
 11
-15.7753433673
 21
26.3313584184
  0
LINE
  5
3D1
100
AcDbEntity
  8
0
100
AcDbLine
 62
7
  6
CONTINUOUS
 10
-15.7753433673
 20
-13.0686415816
 11
-15.7753433673
 21
-13.2686415816
  0
LINE
  5
3D2
100
AcDbEntity
  8
DRAFT
100
AcDbLine
 62
7
  6
CONTINUOUS
 10
-15.7753433673
 20
-13.0686415816
 11
-15.7753433673
 21
-13.2686415816
  0
LINE
  5
3D3
100
AcDbEntity
  8
DRAFT
100
AcDbLine
 62
7
  6
CONTINUOUS
 10
-15.7753433673
 20
-13.3686415816
 11
-15.7753433673
 21
-13.4131486074
  0
LINE
  5
3D4
100
AcDbEntity
  8
ASSI
100
AcDbLine
 62
7
  6
CONTINUOUS
 10
-15.7753433673
 20
-17.1628237518
 11
-15.7753433673
 21
-15.7025614768
  0
LINE
  5
3D5
100
AcDbEntity
  8
DRAFT
100
AcDbLine
 62
7
  6
CONTINUOUS
 10
-15.7753433673
 20
26.6313584184
 11
-15.7753433673
 21
26.6758654441
  0
LINE
  5
3D6
100
AcDbEntity
  8
ASSI
100
AcDbLine
 62
7
  6
CONTINUOUS
 10
-15.7753433673
 20
28.9652783135
 11
-15.7753433673
 21
30.4255405886
  0
LINE
  5
3D7
100
AcDbEntity
  8
0
100
AcDbLine
 62
7
  6
CONTINUOUS
 10
-15.738687731
 20
26.494702782
 11
-15.738687731
 21
26.294702782
  0
LINE
  5
3D8
100
AcDbEntity
  8
DRAFT
100
AcDbLine
 62
7
  6
CONTINUOUS
 10
-15.738687731
 20
26.494702782
 11
-15.738687731
 21
26.294702782
  0
LINE
  5
3D9
100
AcDbEntity
  8
0
100
AcDbLine
 62
7
  6
CONTINUOUS
 10
-15.738687731
 20
-13.0319859453
 11
-15.738687731
 21
-13.2319859453
  0
LINE
  5
3DA
100
AcDbEntity
  8
DRAFT
100
AcDbLine
 62
7
  6
CONTINUOUS
 10
-15.738687731
 20
-13.0319859453
 11
-15.738687731
 21
-13.2319859453
  0
LINE
  5
3DB
100
AcDbEntity
  8
CURVE
100
AcDbLine
 62
253
  6
CONTINUOUS
 10
-9.5753433673
 20
16.4027871226
 11
-9.3896290927
 21
16.5885013198
  0
LINE
  5
3DC
100
AcDbEntity
  8
CURVE
100
AcDbLine
 62
253
  6
CONTINUOUS
 10
-8.2753433673
 20
17.3313584184
 11
-8.4610576614
 21
17.1456442212
  0
LINE
  5
3DD
100
AcDbEntity
  8
CURVE
100
AcDbLine
 62
253
  6
CONTINUOUS
 10
-8.2753433673
 20
16.3099297141
 11
-8.4610576614
 21
16.1242155169
  0
LINE
  5
3DE
100
AcDbEntity
  8
CURVE
100
AcDbLine
 62
253
  6
CONTINUOUS
 10
-8.83248623
 20
15.6599297141
 11
-9.0182005434
 21
15.4742155169
  0
LINE
  5
3DF
100
AcDbEntity
  8
CURVE
100
AcDbLine
 62
253
  6
CONTINUOUS
 10
-22.5753433673
 20
1.457548747
 11
-22.3896290927
 21
1.6432629441
  0
LINE
  5
3E0
100
AcDbEntity
  8
CURVE
100
AcDbLine
 62
253
  6
CONTINUOUS
 10
-9.3896290927
 20
13.7099298691
 11
-9.2039148181
 21
13.8027869677
  0
LINE
  5
3E1
100
AcDbEntity
  8
CURVE
100
AcDbLine
 62
253
  6
CONTINUOUS
 10
-4.4610576614
 20
16.1242155169
 11
-4.6467719554
 21
16.0313584184
  0
LINE
  5
3E2
100
AcDbEntity
  8
CURVE
100
AcDbLine
 62
253
  6
CONTINUOUS
 10
-22.2128433673
 20
6.8188584184
 11
-22.0878433673
 21
6.8813584184
  0
LINE
  5
3E3
100
AcDbEntity
  8
CURVE
100
AcDbLine
 62
253
  6
CONTINUOUS
 10
-8.4610576614
 20
13.2456441437
 11
-8.6467719554
 21
13.1527869677
  0
LINE
  5
3E4
100
AcDbEntity
  8
CURVE
100
AcDbLine
 62
253
  6
CONTINUOUS
 10
-22.2039148181
 20
1.7361203526
 11
-21.6467719554
 21
1.7361203526
  0
LINE
  5
3E5
100
AcDbEntity
  8
CURVE
100
AcDbLine
 62
253
  6
CONTINUOUS
 10
-18.2753433673
 20
2.0313584184
 11
-20.1753433673
 21
2.0313584184
  0
LINE
  5
3E6
100
AcDbEntity
  8
CURVE
100
AcDbLine
 62
253
  6
CONTINUOUS
 10
-21.2753433673
 20
2.107548747
 11
-22.5753433673
 21
2.107548747
  0
LINE
  5
3E7
100
AcDbEntity
  8
CURVE
100
AcDbLine
 62
7
  6
CONTINUOUS
 10
-1.202145653
 20
2.3079624184
 11
-1.1826584372
 21
2.3079624184
  0
LINE
  5
3E8
100
AcDbEntity
  8
CURVE
100
AcDbLine
 62
7
  6
CONTINUOUS
 10
-1.1742488276
 20
2.3079624184
 11
-1.1599509749
 21
2.3079624184
  0
LINE
  5
3E9
100
AcDbEntity
  8
CURVE
100
AcDbLine
 62
253
  6
CONTINUOUS
 10
-22.5753433673
 20
2.757548747
 11
-21.2753433673
 21
2.757548747
  0
LINE
  5
3EA
100
AcDbEntity
  8
CURVE
100
AcDbLine
 62
7
  6
CONTINUOUS
 10
-1.1515413654
 20
2.9305684184
 11
-1.202145653
 21
2.9305684184
  0
LINE
  5
3EB
100
AcDbEntity
  8
CURVE
100
AcDbLine
 62
253
  6
CONTINUOUS
 10
-18.2753433673
 20
2.9813584184
 11
-20.1753433673
 21
2.9813584184
  0
LINE
  5
3EC
100
AcDbEntity
  8
SMUSSO
100
AcDbLine
 62
7
  6
CONTINUOUS
 10
-17.0253433673
 20
4.8813584184
 11
-16.5253433673
 21
4.3813584184
  0
LINE
  5
3ED
100
AcDbEntity
  8
ASSI
100
AcDbLine
 62
7
  6
CONTINUOUS
 10
-17.0253433673
 20
4.8813584184
 11
-16.5253433673
 21
4.3813584184
  0
LINE
  5
3EE
100
AcDbEntity
  8
SMUSSO
100
AcDbLine
 62
7
  6
CONTINUOUS
 10
-12.0253433673
 20
0.3813584184
 11
-12.5253433673
 21
0.8813584184
  0
LINE
  5
3EF
100
AcDbEntity
  8
ASSI
100
AcDbLine
 62
7
  6
CONTINUOUS
 10
-12.0253433673
 20
0.3813584184
 11
-12.5253433673
 21
0.8813584184
  0
LINE
  5
3F0
100
AcDbEntity
  8
0
100
AcDbLine
 62
7
  6
CONTINUOUS
 10
-10.2943319825
 20
-11.5686415816
 11
-10.2847710197
 21
-11.6002590801
  0
LINE
  5
3F1
100
AcDbEntity
  8
RACCORDO
100
AcDbLine
 62
7
  6
CONTINUOUS
 10
-10.2943319825
 20
-11.5686415816
 11
-10.2847710197
 21
-11.6002590801
  0
LINE
  5
3F2
100
AcDbEntity
  8
0
100
AcDbLine
 62
253
  6
CONTINUOUS
 10
-13.7763515652
 20
-13.4207925738
 11
-13.7768676022
 21
-13.2531282613
  0
LINE
  5
3F3
100
AcDbEntity
  8
RACCORDO
100
AcDbLine
 62
7
  6
CONTINUOUS
 10
-15.2753433673
 20
-15.7066808203
 11
-15.2753433673
 21
-14.3686415816
  0
LINE
  5
3F4
100
AcDbEntity
  8
RACCORDO
100
AcDbLine
 62
7
  6
CONTINUOUS
 10
-15.2753433673
 20
27.6313584184
 11
-15.2753433673
 21
28.9693976571
  0
LINE
  5
3F5
100
AcDbEntity
  8
0
100
AcDbLine
 62
7
  6
CONTINUOUS
 10
-14.7753433673
 20
-11.6686415816
 11
-14.7753433673
 21
-9.9686415816
  0
LINE
  5
3F6
100
AcDbEntity
  8
ASSI
100
AcDbLine
 62
7
  6
CONTINUOUS
 10
-14.7753433673
 20
-11.6686415816
 11
-14.7753433673
 21
-9.9686415816
  0
LINE
  5
3F7
100
AcDbEntity
  8
0
100
AcDbLine
 62
7
  6
CONTINUOUS
 10
-14.7753433673
 20
23.2313584184
 11
-14.7753433673
 21
24.9313584184
  0
LINE
  5
3F8
100
AcDbEntity
  8
ASSI
100
AcDbLine
 62
7
  6
CONTINUOUS
 10
-14.7753433673
 20
23.2313584184
 11
-14.7753433673
 21
24.9313584184
  0
LINE
  5
3F9
100
AcDbEntity
  8
0
100
AcDbLine
 62
253
  6
CONTINUOUS
 10
-14.4217899768
 20
-11.6686415816
 11
-14.4217899768
 21
-11.6011815983
  0
LINE
  5
3FA
100
AcDbEntity
  8
RACCORDO
100
AcDbLine
 62
253
  6
CONTINUOUS
 10
-14.4217899768
 20
-11.6686415816
 11
-14.4217899768
 21
-11.6011815983
  0
LINE
  5
3FB
100
AcDbEntity
  8
0
100
AcDbLine
 62
7
  6
CONTINUOUS
 10
-14.3753433673
 20
-11.5686415816
 11
-14.3753433673
 21
-11.6008227837
  0
LINE
  5
3FC
100
AcDbEntity
  8
0
100
AcDbLine
 62
7
  6
CONTINUOUS
 10
-14.2753433673
 20
-11.6016901705
 11
-14.2753433673
 21
-11.5686415816
  0
LINE
  5
3FD
100
AcDbEntity
  8
RACCORDO
100
AcDbLine
 62
7
  6
CONTINUOUS
 10
-14.2753433673
 20
-11.6016901705
 11
-14.2753433673
 21
-11.5686415816
  0
LINE
  5
3FE
100
AcDbEntity
  8
RACCORDO
100
AcDbLine
 62
7
  6
CONTINUOUS
 10
-14.2579326781
 20
24.9313584184
 11
-14.2579326781
 21
24.8313584184
  0
LINE
  5
3FF
100
AcDbEntity
  8
ASSI
100
AcDbLine
 62
7
  6
CONTINUOUS
 10
-14.2579326781
 20
24.9313584184
 11
-14.2579326781
 21
24.8313584184
  0
LINE
  5
400
100
AcDbEntity
  8
RACCORDO
100
AcDbLine
 62
7
  6
CONTINUOUS
 10
-14.1793478216
 20
-11.5686415816
 11
-14.1793478216
 21
-11.6686415816
  0
LINE
  5
401
100
AcDbEntity
  8
ASSI
100
AcDbLine
 62
7
  6
CONTINUOUS
 10
-14.1793478216
 20
-11.5686415816
 11
-14.1793478216
 21
-11.6686415816
  0
LINE
  5
402
100
AcDbEntity
  8
0
100
AcDbLine
 62
253
  6
CONTINUOUS
 10
-13.9753433673
 20
-10.6846095
 11
-13.9753433673
 21
-10.6186415816
  0
LINE
  5
403
100
AcDbEntity
  8
RACCORDO
100
AcDbLine
 62
253
  6
CONTINUOUS
 10
-13.9753433673
 20
-10.6846095
 11
-13.9753433673
 21
-10.6186415816
  0
LINE
  5
404
100
AcDbEntity
  8
0
100
AcDbLine
 62
253
  6
CONTINUOUS
 10
-13.9753433673
 20
23.8813584184
 11
-13.9753433673
 21
23.9313584184
  0
LINE
  5
405
100
AcDbEntity
  8
RACCORDO
100
AcDbLine
 62
253
  6
CONTINUOUS
 10
-13.9753433673
 20
23.8813584184
 11
-13.9753433673
 21
23.9313584184
  0
LINE
  5
406
100
AcDbEntity
  8
0
100
AcDbLine
 62
253
  6
CONTINUOUS
 10
-13.7768676022
 20
26.515845098
 11
-13.7763515652
 21
26.6835094105
  0
LINE
  5
407
100
AcDbEntity
  8
0
100
AcDbLine
 62
253
  6
CONTINUOUS
 10
-10.2797960055
 20
24.1352997004
 11
-10.2930969216
 21
24.0904213242
  0
LINE
  5
408
100
AcDbEntity
  8
RACCORDO
100
AcDbLine
 62
253
  6
CONTINUOUS
 10
-10.2797960055
 20
24.1352997004
 11
-10.2930969216
 21
24.0904213242
  0
LINE
  5
409
100
AcDbEntity
  8
DRAFT
100
AcDbLine
 62
7
  6
CONTINUOUS
 10
-21.89916077
 20
-14.1900299127
 11
-21.9253433673
 21
-14.2686415816
  0
LINE
  5
40A
100
AcDbEntity
  8
CURVE
100
AcDbLine
 62
253
  6
CONTINUOUS
 10
-21.7705814718
 20
-2.7519748117
 11
-21.5848671778
 21
-2.5043557788
  0
LINE
  5
40B
100
AcDbEntity
  8
CURVE
100
AcDbLine
 62
253
  6
CONTINUOUS
 10
-9.5753433673
 20
13.5242155169
 11
-9.3896290927
 21
13.7099298691
  0
LINE
  5
40C
100
AcDbEntity
  8
CURVE
100
AcDbLine
 62
253
  6
CONTINUOUS
 10
-5.5753433673
 20
17.4242158269
 11
-5.3896290927
 21
17.609930024
  0
LINE
  5
40D
100
AcDbEntity
  8
CURVE
100
AcDbLine
 62
253
  6
CONTINUOUS
 10
-21.2753433673
 20
1.3646919583
 11
-21.4610576614
 21
1.1789777612
  0
LINE
  5
40E
100
AcDbEntity
  8
CURVE
100
AcDbLine
 62
253
  6
CONTINUOUS
 10
-21.83248623
 20
0.7146919583
 11
-22.0182005434
 21
0.5289777612
  0
LINE
  5
40F
100
AcDbEntity
  8
SMUSSO
100
AcDbLine
 62
7
  6
CONTINUOUS
 10
-12.0253433673
 20
10.1313584184
 11
-12.5253433673
 21
9.6313584184
  0
LINE
  5
410
100
AcDbEntity
  8
ASSI
100
AcDbLine
 62
7
  6
CONTINUOUS
 10
-12.0253433673
 20
10.1313584184
 11
-12.5253433673
 21
9.6313584184
  0
LINE
  5
411
100
AcDbEntity
  8
SMUSSO
100
AcDbLine
 62
7
  6
CONTINUOUS
 10
-17.0253433673
 20
5.1313584184
 11
-16.5253433673
 21
5.6313584184
  0
LINE
  5
412
100
AcDbEntity
  8
ASSI
100
AcDbLine
 62
7
  6
CONTINUOUS
 10
-17.0253433673
 20
5.1313584184
 11
-16.5253433673
 21
5.6313584184
  0
LINE
  5
413
100
AcDbEntity
  8
CURVE
100
AcDbLine
 62
253
  6
CONTINUOUS
 10
-5.5753433673
 20
16.4027871226
 11
-5.3896290927
 21
16.5885013198
  0
LINE
  5
414
100
AcDbEntity
  8
CURVE
100
AcDbLine
 62
253
  6
CONTINUOUS
 10
-8.2753433673
 20
13.4313584184
 11
-8.4610576614
 21
13.2456441437
  0
LINE
  5
415
100
AcDbEntity
  8
CURVE
100
AcDbLine
 62
253
  6
CONTINUOUS
 10
-4.2753433673
 20
17.3313584184
 11
-4.4610576614
 21
17.1456442212
  0
LINE
  5
416
100
AcDbEntity
  8
CURVE
100
AcDbLine
 62
253
  6
CONTINUOUS
 10
-21.4610576614
 20
0.0646919583
 11
-21.2753433673
 21
0.2504061555
  0
LINE
  5
417
100
AcDbEntity
  8
CURVE
100
AcDbLine
 62
253
  6
CONTINUOUS
 10
-5.3896290927
 20
15.6289774512
 11
-5.5753433673
 21
15.4742155169
  0
LINE
  5
418
100
AcDbEntity
  8
CURVE
100
AcDbLine
 62
253
  6
CONTINUOUS
 10
-5.3896290927
 20
13.7099298691
 11
-5.2039148181
 21
13.8027869677
  0
LINE
  5
419
100
AcDbEntity
  8
CURVE
100
AcDbLine
 62
253
  6
CONTINUOUS
 10
-4.4610576614
 20
13.2456441437
 11
-4.6467719554
 21
13.1527869677
  0
LINE
  5
41A
100
AcDbEntity
  8
CURVE
100
AcDbLine
 62
253
  6
CONTINUOUS
 10
-21.2128433673
 20
6.6313584184
 11
-21.0253433673
 21
6.6938584184
  0
LINE
  5
41B
100
AcDbEntity
  8
0
100
AcDbLine
 62
7
  6
CONTINUOUS
 10
-12.8753433673
 20
4.1313584184
 11
-15.8753433673
 21
4.1313584184
  0
LINE
  5
41C
100
AcDbEntity
  8
SMUSSO
100
AcDbLine
 62
7
  6
CONTINUOUS
 10
-16.5253433673
 20
4.3813584184
 11
-12.5253433673
 21
4.3813584184
  0
LINE
  5
41D
100
AcDbEntity
  8
ASSI
100
AcDbLine
 62
7
  6
CONTINUOUS
 10
-16.5253433673
 20
4.3813584184
 11
-12.5253433673
 21
4.3813584184
  0
LINE
  5
41E
100
AcDbEntity
  8
RACCORDO
100
AcDbLine
 62
7
  6
CONTINUOUS
 10
-1.5622644892
 20
4.7813584184
 11
-2.4753433673
 21
4.7813584184
  0
LINE
  5
41F
100
AcDbEntity
  8
ASSI
100
AcDbLine
 62
7
  6
CONTINUOUS
 10
-1.5622644892
 20
4.7813584184
 11
-2.4753433673
 21
4.7813584184
  0
LINE
  5
420
100
AcDbEntity
  8
CURVE
100
AcDbLine
 62
253
  6
CONTINUOUS
 10
-1.2293098451
 20
4.8075487619
 11
-1.2422744905
 21
4.8075487619
  0
LINE
  5
421
100
AcDbEntity
  8
SMUSSO
100
AcDbLine
 62
7
  6
CONTINUOUS
 10
-17.0253433673
 20
4.8813584184
 11
-12.0253433673
 21
4.8813584184
  0
LINE
  5
422
100
AcDbEntity
  8
ASSI
100
AcDbLine
 62
7
  6
CONTINUOUS
 10
-17.0253433673
 20
4.8813584184
 11
-12.0253433673
 21
4.8813584184
  0
LINE
  5
423
100
AcDbEntity
  8
CURVE
100
AcDbLine
 62
253
  6
CONTINUOUS
 10
-22.4628433673
 20
6.8813584184
 11
-22.2753433673
 21
6.8188584184
  0
LINE
  5
424
100
AcDbEntity
  8
CURVE
100
AcDbLine
 62
253
  6
CONTINUOUS
 10
-21.5878433673
 20
6.6938584184
 11
-21.4003433673
 21
6.6313584184
  0
LINE
  5
425
100
AcDbEntity
  8
CURVE
100
AcDbLine
 62
253
  6
CONTINUOUS
 10
-18.2753433673
 20
7.1613584184
 11
-20.165887824
 21
8.2528647693
  0
LINE
  5
426
100
AcDbEntity
  8
DRAFT
100
AcDbLine
 62
7
  6
CONTINUOUS
 10
-21.9253433673
 20
27.5313584184
 11
-21.89916077
 21
27.4527467494
  0
LWPOLYLINE
  5
427
100
AcDbEntity
  8
0
100
AcDbPolyline
 62
253
  6
CONTINUOUS
 90
5
 70
0
 10
-10.2797960055
 20
-10.8725828636
 10
-10.2930969216
 20
-10.8277044875
 10
-10.3149581918
 20
-10.7853762513
 10
-10.3448834323
 20
-10.7468551599
 10
-10.3820211766
 20
-10.7134557525
  0
LWPOLYLINE
  5
428
100
AcDbEntity
  8
RACCORDO
100
AcDbPolyline
 62
253
  6
CONTINUOUS
 90
5
 70
0
 10
-10.2797960055
 20
-10.8725828636
 10
-10.2930969216
 20
-10.8277044875
 10
-10.3149581918
 20
-10.7853762513
 10
-10.3448834323
 20
-10.7468551599
 10
-10.3820211766
 20
-10.7134557525
  0
LINE
  5
429
100
AcDbEntity
  8
0
100
AcDbLine
 62
7
  6
CONTINUOUS
 10
-12.8753433673
 20
-8.8686415816
 11
-12.8753433673
 21
-5.8686415816
  0
LINE
  5
42A
100
AcDbEntity
  8
0
100
AcDbLine
 62
7
  6
CONTINUOUS
 10
-12.8753433673
 20
-3.8686415816
 11
-12.8753433673
 21
-0.8686415816
  0
LINE
  5
42B
100
AcDbEntity
  8
0
100
AcDbLine
 62
7
  6
CONTINUOUS
 10
-12.8753433673
 20
1.1313584184
 11
-12.8753433673
 21
4.1313584184
  0
LINE
  5
42C
100
AcDbEntity
  8
0
100
AcDbLine
 62
7
  6
CONTINUOUS
 10
-12.8753433673
 20
6.1313584184
 11
-12.8753433673
 21
9.1313584184
  0
LINE
  5
42D
100
AcDbEntity
  8
SMUSSO
100
AcDbLine
 62
7
  6
CONTINUOUS
 10
-12.5253433673
 20
9.6313584184
 11
-12.5253433673
 21
5.6313584184
  0
LINE
  5
42E
100
AcDbEntity
  8
ASSI
100
AcDbLine
 62
7
  6
CONTINUOUS
 10
-12.5253433673
 20
9.6313584184
 11
-12.5253433673
 21
5.6313584184
  0
LINE
  5
42F
100
AcDbEntity
  8
SMUSSO
100
AcDbLine
 62
7
  6
CONTINUOUS
 10
-12.5253433673
 20
4.3813584184
 11
-12.5253433673
 21
0.8813584184
  0
LINE
  5
430
100
AcDbEntity
  8
ASSI
100
AcDbLine
 62
7
  6
CONTINUOUS
 10
-12.5253433673
 20
4.3813584184
 11
-12.5253433673
 21
0.8813584184
  0
LINE
  5
431
100
AcDbEntity
  8
SMUSSO
100
AcDbLine
 62
7
  6
CONTINUOUS
 10
-12.5253433673
 20
-0.6186415816
 11
-12.5253433673
 21
-4.1186415816
  0
LINE
  5
432
100
AcDbEntity
  8
ASSI
100
AcDbLine
 62
7
  6
CONTINUOUS
 10
-12.5253433673
 20
-0.6186415816
 11
-12.5253433673
 21
-4.1186415816
  0
LINE
  5
433
100
AcDbEntity
  8
SMUSSO
100
AcDbLine
 62
7
  6
CONTINUOUS
 10
-12.5253433673
 20
-5.6186415816
 11
-12.5253433673
 21
-9.1186415816
  0
LINE
  5
434
100
AcDbEntity
  8
ASSI
100
AcDbLine
 62
7
  6
CONTINUOUS
 10
-12.5253433673
 20
-5.6186415816
 11
-12.5253433673
 21
-9.1186415816
  0
LWPOLYLINE
  5
435
100
AcDbEntity
  8
ASSI
100
AcDbPolyline
 62
7
  6
CONTINUOUS
 90
17
 70
0
 10
-16.6312761001
 20
-17.1194150063
 10
-16.6308499988
 20
-17.1166296113
 10
-16.6297526703
 20
-17.1131797239
 10
-16.6279650816
 20
-17.1090653441
 10
-16.6254675624
 20
-17.1042994136
 10
-16.6222440208
 20
-17.0988689907
 10
-16.6182860502
 20
-17.0927352505
 10
-16.6135837437
 20
-17.0858911138
 10
-16.6081271385
 20
-17.0783436598
 10
-16.6019159622
 20
-17.0700753016
 10
-16.5949625407
 20
-17.0611053406
 10
-16.5872517915
 20
-17.0514144753
 10
-16.5787358156
 20
-17.0409272154
 10
-16.5694004598
 20
-17.0296441518
 10
-16.5592418892
 20
-17.0175646934
 10
-16.5482113324
 20
-17.0046115761
 10
-16.5362964585
 20
-16.9907830473
  0
LINE
  5
436
100
AcDbEntity
  8
CURVE
100
AcDbLine
 62
253
  6
CONTINUOUS
 10
-4.2753433673
 20
16.3099297141
 11
-4.4610576614
 21
16.1242155169
  0
LINE
  5
437
100
AcDbEntity
  8
CURVE
100
AcDbLine
 62
253
  6
CONTINUOUS
 10
-4.83248623
 20
15.6599297141
 11
-5.0182005434
 21
15.4742155169
  0
LINE
  5
438
100
AcDbEntity
  8
CURVE
100
AcDbLine
 62
253
  6
CONTINUOUS
 10
-5.5753433673
 20
13.5242155169
 11
-5.3896290927
 21
13.7099298691
  0
LINE
  5
439
100
AcDbEntity
  8
CURVE
100
AcDbLine
 62
253
  6
CONTINUOUS
 10
-22.3896290927
 20
1.6432629441
 11
-22.2039148181
 21
1.7361203526
  0
LINE
  5
43A
100
AcDbEntity
  8
SMUSSO
100
AcDbLine
 62
7
  6
CONTINUOUS
 10
-12.0253433673
 20
5.1313584184
 11
-17.0253433673
 21
5.1313584184
  0
LINE
  5
43B
100
AcDbEntity
  8
ASSI
100
AcDbLine
 62
7
  6
CONTINUOUS
 10
-12.0253433673
 20
5.1313584184
 11
-17.0253433673
 21
5.1313584184
  0
LINE
  5
43C
100
AcDbEntity
  8
CURVE
100
AcDbLine
 62
253
  6
CONTINUOUS
 10
-1.1829363086
 20
5.3968345808
 11
-1.1602481802
 21
5.3968345808
  0
LINE
  5
43D
100
AcDbEntity
  8
RACCORDO
100
AcDbLine
 62
7
  6
CONTINUOUS
 10
-1.5622644892
 20
5.4813584184
 11
-2.4753433673
 21
5.4813584184
  0
LINE
  5
43E
100
AcDbEntity
  8
ASSI
100
AcDbLine
 62
7
  6
CONTINUOUS
 10
-1.5622644892
 20
5.4813584184
 11
-2.4753433673
 21
5.4813584184
  0
LINE
  5
43F
100
AcDbEntity
  8
SMUSSO
100
AcDbLine
 62
7
  6
CONTINUOUS
 10
-12.5253433673
 20
5.6313584184
 11
-16.5253433673
 21
5.6313584184
  0
LINE
  5
440
100
AcDbEntity
  8
ASSI
100
AcDbLine
 62
7
  6
CONTINUOUS
 10
-12.5253433673
 20
5.6313584184
 11
-16.5253433673
 21
5.6313584184
  0
LINE
  5
441
100
AcDbEntity
  8
CURVE
100
AcDbLine
 62
253
  6
CONTINUOUS
 10
-1.1634893412
 20
5.8967156874
 11
-1.1796951472
 21
5.8967156874
  0
LINE
  5
442
100
AcDbEntity
  8
CURVE
100
AcDbLine
 62
253
  6
CONTINUOUS
 10
-1.2195863621
 20
6.0146916633
 11
-1.2422744905
 21
6.0146916633
  0
LINE
  5
443
100
AcDbEntity
  8
0
100
AcDbLine
 62
7
  6
CONTINUOUS
 10
-15.8753433673
 20
6.1313584184
 11
-12.8753433673
 21
6.1313584184
  0
LINE
  5
444
100
AcDbEntity
  8
CURVE
100
AcDbLine
 62
253
  6
CONTINUOUS
 10
-1.2126053995
 20
6.193263114
 11
-1.1899172712
 21
6.193263114
  0
LINE
  5
445
100
AcDbEntity
  8
CURVE
100
AcDbLine
 62
253
  6
CONTINUOUS
 10
-1.1829363086
 20
6.5142155402
 11
-1.1602481802
 21
6.5142155402
  0
LINE
  5
446
100
AcDbEntity
  8
CURVE
100
AcDbLine
 62
253
  6
CONTINUOUS
 10
-21.4003433673
 20
6.6313584184
 11
-21.2128433673
 21
6.6313584184
  0
LINE
  5
447
100
AcDbEntity
  8
CURVE
100
AcDbLine
 62
253
  6
CONTINUOUS
 10
-22.2753433673
 20
6.8188584184
 11
-22.2128433673
 21
6.8188584184
  0
LINE
  5
448
100
AcDbEntity
  8
CURVE
100
AcDbLine
 62
253
  6
CONTINUOUS
 10
-1.2126053995
 20
6.8432631915
 11
-1.1899172712
 21
6.8432631915
  0
LWPOLYLINE
  5
449
100
AcDbEntity
  8
CURVE
100
AcDbPolyline
 62
7
  6
CONTINUOUS
 90
15
 70
0
 10
-1.1670999051
 20
1.5125985325
 10
-1.1673286726
 20
1.5126938981
 10
-1.1675579387
 20
1.5129926224
 10
-1.1677874611
 20
1.5135136467
 10
-1.1680169975
 20
1.5142759123
 10
-1.1682463056
 20
1.5152983604
 10
-1.1684751429
 20
1.5165999324
 10
-1.1687032673
 20
1.5181995696
 10
-1.1689304364
 20
1.5201162132
 10
-1.1691564079
 20
1.5223688045
 10
-1.1693809395
 20
1.5249762848
 10
-1.1696037889
 20
1.5279575954
 10
-1.1698247136
 20
1.5313316776
 10
-1.1700434716
 20
1.5351174726
 10
-1.1702459196
 20
1.5390442805
  0
LINE
  5
44A
100
AcDbEntity
  8
SMUSSO
100
AcDbLine
 62
7
  6
CONTINUOUS
 10
-17.0253433673
 20
10.1313584184
 11
-16.5253433673
 21
9.6313584184
  0
LINE
  5
44B
100
AcDbEntity
  8
ASSI
100
AcDbLine
 62
7
  6
CONTINUOUS
 10
-17.0253433673
 20
10.1313584184
 11
-16.5253433673
 21
9.6313584184
  0
LINE
  5
44C
100
AcDbEntity
  8
SMUSSO
100
AcDbLine
 62
7
  6
CONTINUOUS
 10
-12.0253433673
 20
5.1313584184
 11
-12.5253433673
 21
5.6313584184
  0
LINE
  5
44D
100
AcDbEntity
  8
ASSI
100
AcDbLine
 62
7
  6
CONTINUOUS
 10
-12.0253433673
 20
5.1313584184
 11
-12.5253433673
 21
5.6313584184
  0
LINE
  5
44E
100
AcDbEntity
  8
0
100
AcDbLine
 62
253
  6
CONTINUOUS
 10
-10.7743351695
 20
26.6835094105
 11
-10.7738191325
 21
26.515845098
  0
LINE
  5
44F
100
AcDbEntity
  8
SMUSSO
100
AcDbLine
 62
7
  6
CONTINUOUS
 10
-12.0253433673
 20
10.1313584184
 11
-12.0253433673
 21
5.1313584184
  0
LINE
  5
450
100
AcDbEntity
  8
ASSI
100
AcDbLine
 62
7
  6
CONTINUOUS
 10
-12.0253433673
 20
10.1313584184
 11
-12.0253433673
 21
5.1313584184
  0
LINE
  5
451
100
AcDbEntity
  8
SMUSSO
100
AcDbLine
 62
7
  6
CONTINUOUS
 10
-12.0253433673
 20
4.8813584184
 11
-12.0253433673
 21
0.3813584184
  0
LINE
  5
452
100
AcDbEntity
  8
ASSI
100
AcDbLine
 62
7
  6
CONTINUOUS
 10
-12.0253433673
 20
4.8813584184
 11
-12.0253433673
 21
0.3813584184
  0
LINE
  5
453
100
AcDbEntity
  8
SMUSSO
100
AcDbLine
 62
7
  6
CONTINUOUS
 10
-12.0253433673
 20
-0.1186415816
 11
-12.0253433673
 21
-4.6186415816
  0
LINE
  5
454
100
AcDbEntity
  8
ASSI
100
AcDbLine
 62
7
  6
CONTINUOUS
 10
-12.0253433673
 20
-0.1186415816
 11
-12.0253433673
 21
-4.6186415816
  0
LINE
  5
455
100
AcDbEntity
  8
SMUSSO
100
AcDbLine
 62
7
  6
CONTINUOUS
 10
-12.0253433673
 20
-5.1186415816
 11
-12.0253433673
 21
-9.6186415816
  0
LINE
  5
456
100
AcDbEntity
  8
ASSI
100
AcDbLine
 62
7
  6
CONTINUOUS
 10
-12.0253433673
 20
-5.1186415816
 11
-12.0253433673
 21
-9.6186415816
  0
LINE
  5
457
100
AcDbEntity
  8
0
100
AcDbLine
 62
253
  6
CONTINUOUS
 10
-10.5753433673
 20
23.9313584184
 11
-10.5753433673
 21
23.8813584184
  0
LINE
  5
458
100
AcDbEntity
  8
RACCORDO
100
AcDbLine
 62
253
  6
CONTINUOUS
 10
-10.5753433673
 20
23.9313584184
 11
-10.5753433673
 21
23.8813584184
  0
LINE
  5
459
100
AcDbEntity
  8
0
100
AcDbLine
 62
253
  6
CONTINUOUS
 10
-10.5753433673
 20
-10.6846095
 11
-10.5753433673
 21
-10.6186415816
  0
LINE
  5
45A
100
AcDbEntity
  8
RACCORDO
100
AcDbLine
 62
253
  6
CONTINUOUS
 10
-10.5753433673
 20
-10.6846095
 11
-10.5753433673
 21
-10.6186415816
  0
LINE
  5
45B
100
AcDbEntity
  8
RACCORDO
100
AcDbLine
 62
7
  6
CONTINUOUS
 10
-10.371338913
 20
-11.5686415816
 11
-10.371338913
 21
-11.6686415816
  0
LINE
  5
45C
100
AcDbEntity
  8
ASSI
100
AcDbLine
 62
7
  6
CONTINUOUS
 10
-10.371338913
 20
-11.5686415816
 11
-10.371338913
 21
-11.6686415816
  0
LINE
  5
45D
100
AcDbEntity
  8
RACCORDO
100
AcDbLine
 62
7
  6
CONTINUOUS
 10
-10.2927540566
 20
24.9313584184
 11
-10.2927540566
 21
24.8313584184
  0
LINE
  5
45E
100
AcDbEntity
  8
ASSI
100
AcDbLine
 62
7
  6
CONTINUOUS
 10
-10.2927540566
 20
24.9313584184
 11
-10.2927540566
 21
24.8313584184
  0
LINE
  5
45F
100
AcDbEntity
  8
0
100
AcDbLine
 62
7
  6
CONTINUOUS
 10
-10.2753433673
 20
-11.5686415816
 11
-10.2753433673
 21
-11.6016901705
  0
LINE
  5
460
100
AcDbEntity
  8
RACCORDO
100
AcDbLine
 62
7
  6
CONTINUOUS
 10
-10.2753433673
 20
-11.5686415816
 11
-10.2753433673
 21
-11.6016901705
  0
LINE
  5
461
100
AcDbEntity
  8
0
100
AcDbLine
 62
253
  6
CONTINUOUS
 10
-10.7738191325
 20
-13.2531282613
 11
-10.7743351695
 21
-13.4207925738
  0
LWPOLYLINE
  5
462
100
AcDbEntity
  8
ASSI
100
AcDbPolyline
 62
7
  6
CONTINUOUS
 90
18
 70
0
 10
-7.9194106346
 20
30.3821318431
 10
-7.9198375559
 20
30.3793399138
 10
-7.9209356669
 20
30.3758898357
 10
-7.9227219301
 20
30.3717816086
 10
-7.9252133533
 20
30.3670278929
 10
-7.9284242101
 20
30.3616160283
 10
-7.9323633402
 20
30.355508034
 10
-7.9370392949
 20
30.3486994676
 10
-7.9424616034
 20
30.3411947715
 10
-7.948635546
 20
30.3329692917
 10
-7.9555506743
 20
30.324043411
 10
-7.9632226061
 20
30.3143967466
 10
-7.9717053419
 20
30.3039434964
 10
-7.9810194342
 20
30.2926793924
 10
-7.9911674894
 20
30.2806087027
 10
-8.0021926117
 20
30.2676584287
 10
-8.0141056556
 20
30.2538280248
 10
-8.0269150275
 20
30.2391180367
  0
LINE
  5
463
100
AcDbEntity
  8
CURVE
100
AcDbLine
 62
253
  6
CONTINUOUS
 10
-20.1753433673
 20
-2.1900701369
 11
-19.9039148121
 21
-1.9186415816
  0
LINE
  5
464
100
AcDbEntity
  8
CURVE
100
AcDbLine
 62
253
  6
CONTINUOUS
 10
-22.5753433673
 20
-4.7329272295
 11
-22.3896290927
 21
-4.5472130323
  0
LINE
  5
465
100
AcDbEntity
  8
CURVE
100
AcDbLine
 62
253
  6
CONTINUOUS
 10
-4.2753433673
 20
13.4313584184
 11
-4.4610576614
 21
13.2456441437
  0
LINE
  5
466
100
AcDbEntity
  8
SMUSSO
100
AcDbLine
 62
7
  6
CONTINUOUS
 10
-17.0253433673
 20
0.3813584184
 11
-16.5253433673
 21
0.8813584184
  0
LINE
  5
467
100
AcDbEntity
  8
ASSI
100
AcDbLine
 62
7
  6
CONTINUOUS
 10
-17.0253433673
 20
0.3813584184
 11
-16.5253433673
 21
0.8813584184
  0
LINE
  5
468
100
AcDbEntity
  8
CURVE
100
AcDbLine
 62
253
  6
CONTINUOUS
 10
-22.3896290927
 20
-5.4757844831
 11
-22.5753433673
 21
-5.6614987577
  0
LINE
  5
469
100
AcDbEntity
  8
SMUSSO
100
AcDbLine
 62
7
  6
CONTINUOUS
 10
-12.0253433673
 20
4.8813584184
 11
-12.5253433673
 21
4.3813584184
  0
LINE
  5
46A
100
AcDbEntity
  8
ASSI
100
AcDbLine
 62
7
  6
CONTINUOUS
 10
-12.0253433673
 20
4.8813584184
 11
-12.5253433673
 21
4.3813584184
  0
LINE
  5
46B
100
AcDbEntity
  8
CURVE
100
AcDbLine
 62
253
  6
CONTINUOUS
 10
-21.2753433673
 20
-4.8257844831
 11
-21.4610576614
 21
-5.0114986802
  0
LINE
  5
46C
100
AcDbEntity
  8
CURVE
100
AcDbLine
 62
253
  6
CONTINUOUS
 10
-5.9268152299
 20
10.4798865558
 11
-5.7146831956
 21
10.6920185901
  0
LINE
  5
46D
100
AcDbEntity
  8
CURVE
100
AcDbLine
 62
253
  6
CONTINUOUS
 10
-20.1753433673
 20
2.0313584184
 11
-18.2753433673
 21
2.9813584184
  0
LINE
  5
46E
100
AcDbEntity
  8
CURVE
100
AcDbLine
 62
253
  6
CONTINUOUS
 10
-21.4610576614
 20
1.1789777612
 11
-21.6467719554
 21
1.0861203526
  0
LINE
  5
46F
100
AcDbEntity
  8
CURVE
100
AcDbLine
 62
253
  6
CONTINUOUS
 10
-1.2126053995
 20
7.4313584139
 11
-1.1899172712
 21
7.4313584139
  0
LINE
  5
470
100
AcDbEntity
  8
CURVE
100
AcDbLine
 62
253
  6
CONTINUOUS
 10
-1.2422744905
 20
7.8718346422
 11
-1.2195863621
 21
7.8718346422
  0
LINE
  5
471
100
AcDbEntity
  8
CURVE
100
AcDbLine
 62
253
  6
CONTINUOUS
 10
-1.1602481802
 20
7.9256441011
 11
-1.1829363086
 21
7.9256441011
  0
LINE
  5
472
100
AcDbEntity
  8
CURVE
100
AcDbLine
 62
253
  6
CONTINUOUS
 10
-19.665887824
 20
8.2528647693
 11
-20.165887824
 21
8.2528647693
  0
LINE
  5
473
100
AcDbEntity
  8
CURVE
100
AcDbLine
 62
253
  6
CONTINUOUS
 10
-1.1829363086
 20
8.6313584184
 11
-1.1602481802
 21
8.6313584184
  0
LINE
  5
474
100
AcDbEntity
  8
0
100
AcDbLine
 62
7
  6
CONTINUOUS
 10
-10.1753433673
 20
-11.5686415816
 11
-10.1753433673
 21
-11.6008227837
  0
LINE
  5
475
100
AcDbEntity
  8
0
100
AcDbLine
 62
253
  6
CONTINUOUS
 10
-10.1288967579
 20
-11.6011815983
 11
-10.1288967579
 21
-11.6686415816
  0
LINE
  5
476
100
AcDbEntity
  8
RACCORDO
100
AcDbLine
 62
253
  6
CONTINUOUS
 10
-10.1288967579
 20
-11.6011815983
 11
-10.1288967579
 21
-11.6686415816
  0
LINE
  5
477
100
AcDbEntity
  8
0
100
AcDbLine
 62
7
  6
CONTINUOUS
 10
-9.7753433673
 20
24.9313584184
 11
-9.7753433673
 21
23.2313584184
  0
LINE
  5
478
100
AcDbEntity
  8
ASSI
100
AcDbLine
 62
7
  6
CONTINUOUS
 10
-9.7753433673
 20
24.9313584184
 11
-9.7753433673
 21
23.2313584184
  0
LINE
  5
479
100
AcDbEntity
  8
0
100
AcDbLine
 62
7
  6
CONTINUOUS
 10
-9.7753433673
 20
-9.9686415816
 11
-9.7753433673
 21
-11.6686415816
  0
LINE
  5
47A
100
AcDbEntity
  8
ASSI
100
AcDbLine
 62
7
  6
CONTINUOUS
 10
-9.7753433673
 20
-9.9686415816
 11
-9.7753433673
 21
-11.6686415816
  0
LINE
  5
47B
100
AcDbEntity
  8
CURVE
100
AcDbLine
 62
253
  6
CONTINUOUS
 10
-9.5753433673
 20
13.4313584184
 11
-9.5753433673
 21
13.5242155169
  0
LINE
  5
47C
100
AcDbEntity
  8
CURVE
100
AcDbLine
 62
253
  6
CONTINUOUS
 10
-9.5753433673
 20
15.1027871226
 11
-9.5753433673
 21
15.6599297141
  0
LINE
  5
47D
100
AcDbEntity
  8
CURVE
100
AcDbLine
 62
253
  6
CONTINUOUS
 10
-9.5753433673
 20
16.3099297141
 11
-9.5753433673
 21
16.4027871226
  0
LINE
  5
47E
100
AcDbEntity
  8
CURVE
100
AcDbLine
 62
253
  6
CONTINUOUS
 10
-9.5753433673
 20
17.3313584184
 11
-9.5753433673
 21
17.4242158269
  0
LINE
  5
47F
100
AcDbEntity
  8
CURVE
100
AcDbLine
 62
253
  6
CONTINUOUS
 10
-9.5753433673
 20
21.6956442212
 11
-9.5753433673
 21
22.2527868127
  0
LINE
  5
480
100
AcDbEntity
  8
RACCORDO
100
AcDbLine
 62
7
  6
CONTINUOUS
 10
-9.2753433673
 20
-15.7066808203
 11
-9.2753433673
 21
-14.3686415816
  0
LINE
  5
481
100
AcDbEntity
  8
RACCORDO
100
AcDbLine
 62
7
  6
CONTINUOUS
 10
-9.2753433673
 20
27.6313584184
 11
-9.2753433673
 21
28.9693976571
  0
LINE
  5
482
100
AcDbEntity
  8
CURVE
100
AcDbLine
 62
253
  6
CONTINUOUS
 10
-9.0182005434
 20
22.0670726155
 11
-9.0182005434
 21
21.6956442212
  0
LINE
  5
483
100
AcDbEntity
  8
CURVE
100
AcDbLine
 62
253
  6
CONTINUOUS
 10
-9.0182005434
 20
15.4742155169
 11
-9.0182005434
 21
15.1027871226
  0
LINE
  5
484
100
AcDbEntity
  8
0
100
AcDbLine
 62
7
  6
CONTINUOUS
 10
-8.8119990037
 20
26.494702782
 11
-8.8119990037
 21
26.294702782
  0
LINE
  5
485
100
AcDbEntity
  8
DRAFT
100
AcDbLine
 62
7
  6
CONTINUOUS
 10
-8.8119990037
 20
26.494702782
 11
-8.8119990037
 21
26.294702782
  0
LINE
  5
486
100
AcDbEntity
  8
0
100
AcDbLine
 62
7
  6
CONTINUOUS
 10
-8.8119990037
 20
-13.0319859453
 11
-8.8119990037
 21
-13.2319859453
  0
LINE
  5
487
100
AcDbEntity
  8
DRAFT
100
AcDbLine
 62
7
  6
CONTINUOUS
 10
-8.8119990037
 20
-13.0319859453
 11
-8.8119990037
 21
-13.2319859453
  0
LINE
  5
488
100
AcDbEntity
  8
DRAFT
100
AcDbLine
 62
7
  6
CONTINUOUS
 10
-8.7753433673
 20
26.6758654441
 11
-8.7753433673
 21
26.6313584184
  0
LINE
  5
489
100
AcDbEntity
  8
0
100
AcDbLine
 62
7
  6
CONTINUOUS
 10
-8.7753433673
 20
26.5313584184
 11
-8.7753433673
 21
26.3313584184
  0
LINE
  5
48A
100
AcDbEntity
  8
DRAFT
100
AcDbLine
 62
7
  6
CONTINUOUS
 10
-8.7753433673
 20
26.5313584184
 11
-8.7753433673
 21
26.3313584184
  0
LINE
  5
48B
100
AcDbEntity
  8
0
100
AcDbLine
 62
7
  6
CONTINUOUS
 10
-8.7753433673
 20
-13.0686415816
 11
-8.7753433673
 21
-13.2686415816
  0
LINE
  5
48C
100
AcDbEntity
  8
DRAFT
100
AcDbLine
 62
7
  6
CONTINUOUS
 10
-8.7753433673
 20
-13.0686415816
 11
-8.7753433673
 21
-13.2686415816
  0
LINE
  5
48D
100
AcDbEntity
  8
ASSI
100
AcDbLine
 62
7
  6
CONTINUOUS
 10
-8.7753433673
 20
-17.1628237518
 11
-8.7753433673
 21
-15.7025614768
  0
LINE
  5
48E
100
AcDbEntity
  8
DRAFT
100
AcDbLine
 62
7
  6
CONTINUOUS
 10
-8.7753433673
 20
-13.4131486074
 11
-8.7753433673
 21
-13.3686415816
  0
LINE
  5
48F
100
AcDbEntity
  8
ASSI
100
AcDbLine
 62
7
  6
CONTINUOUS
 10
-8.7753433673
 20
28.9652783135
 11
-8.7753433673
 21
30.4255405886
  0
LINE
  5
490
100
AcDbEntity
  8
CURVE
100
AcDbLine
 62
253
  6
CONTINUOUS
 10
-8.7396290927
 20
14.1742155169
 11
-8.7396290927
 21
14.7313584184
  0
LINE
  5
491
100
AcDbEntity
  8
CURVE
100
AcDbLine
 62
253
  6
CONTINUOUS
 10
-8.5539147987
 20
12.7813584184
 11
-8.5539147987
 21
12.1313584184
  0
LWPOLYLINE
  5
492
100
AcDbEntity
  8
0
100
AcDbPolyline
 62
253
  6
CONTINUOUS
 90
5
 70
0
 10
-14.2708907292
 20
-10.8725828636
 10
-14.2575898131
 20
-10.8277044875
 10
-14.2357285429
 20
-10.7853762513
 10
-14.2058033024
 20
-10.7468551599
 10
-14.1686655581
 20
-10.7134557525
  0
LWPOLYLINE
  5
493
100
AcDbEntity
  8
RACCORDO
100
AcDbPolyline
 62
253
  6
CONTINUOUS
 90
5
 70
0
 10
-14.2708907292
 20
-10.8725828636
 10
-14.2575898131
 20
-10.8277044875
 10
-14.2357285429
 20
-10.7853762513
 10
-14.2058033024
 20
-10.7468551599
 10
-14.1686655581
 20
-10.7134557525
  0
LINE
  5
494
100
AcDbEntity
  8
0
100
AcDbLine
 62
7
  6
CONTINUOUS
 10
-14.265915715
 20
-11.6002590801
 11
-14.2563468513
 21
-11.5686415816
  0
LINE
  5
495
100
AcDbEntity
  8
RACCORDO
100
AcDbLine
 62
7
  6
CONTINUOUS
 10
-14.265915715
 20
-11.6002590801
 11
-14.2563468513
 21
-11.5686415816
  0
LINE
  5
496
100
AcDbEntity
  8
DRAFT
100
AcDbLine
 62
7
  6
CONTINUOUS
 10
-2.6253433673
 20
27.5313584184
 11
-2.6515259647
 21
27.4527467494
  0
LINE
  5
497
100
AcDbEntity
  8
CURVE
100
AcDbLine
 62
253
  6
CONTINUOUS
 10
-1.2422744905
 20
8.8313584139
 11
-1.2195863621
 21
8.8313584139
  0
LINE
  5
498
100
AcDbEntity
  8
0
100
AcDbLine
 62
7
  6
CONTINUOUS
 10
-12.8753433673
 20
9.1313584184
 11
-15.8753433673
 21
9.1313584184
  0
LINE
  5
499
100
AcDbEntity
  8
CURVE
100
AcDbLine
 62
253
  6
CONTINUOUS
 10
-7.6918585063
 20
9.2313584184
 11
-8.2753433673
 21
9.2313584184
  0
LINE
  5
49A
100
AcDbEntity
  8
SMUSSO
100
AcDbLine
 62
7
  6
CONTINUOUS
 10
-16.5253433673
 20
9.6313584184
 11
-12.5253433673
 21
9.6313584184
  0
LINE
  5
49B
100
AcDbEntity
  8
ASSI
100
AcDbLine
 62
7
  6
CONTINUOUS
 10
-16.5253433673
 20
9.6313584184
 11
-12.5253433673
 21
9.6313584184
  0
LINE
  5
49C
100
AcDbEntity
  8
CURVE
100
AcDbLine
 62
253
  6
CONTINUOUS
 10
-5.5753433673
 20
9.6313584184
 11
-5.2753433673
 21
9.6313584184
  0
LINE
  5
49D
100
AcDbEntity
  8
RACCORDO
100
AcDbLine
 62
7
  6
CONTINUOUS
 10
-1.5622644892
 20
9.7813584184
 11
-2.4753433673
 21
9.7813584184
  0
LINE
  5
49E
100
AcDbEntity
  8
ASSI
100
AcDbLine
 62
7
  6
CONTINUOUS
 10
-1.5622644892
 20
9.7813584184
 11
-2.4753433673
 21
9.7813584184
  0
LINE
  5
49F
100
AcDbEntity
  8
CURVE
100
AcDbLine
 62
253
  6
CONTINUOUS
 10
-8.2753433673
 20
10.0313584184
 11
-7.6918585063
 21
10.0313584184
  0
LINE
  5
4A0
100
AcDbEntity
  8
SMUSSO
100
AcDbLine
 62
7
  6
CONTINUOUS
 10
-17.0253433673
 20
10.1313584184
 11
-12.0253433673
 21
10.1313584184
  0
LINE
  5
4A1
100
AcDbEntity
  8
ASSI
100
AcDbLine
 62
7
  6
CONTINUOUS
 10
-17.0253433673
 20
10.1313584184
 11
-12.0253433673
 21
10.1313584184
  0
LINE
  5
4A2
100
AcDbEntity
  8
DRAFT
100
AcDbLine
 62
7
  6
CONTINUOUS
 10
-2.6515259647
 20
-14.1900299127
 11
-2.6253433673
 21
-14.2686415816
  0
LINE
  5
4A3
100
AcDbEntity
  8
0
100
AcDbLine
 62
253
  6
CONTINUOUS
 10
-14.2572511536
 20
24.0895847835
 11
-14.2707856933
 21
24.1347637228
  0
LINE
  5
4A4
100
AcDbEntity
  8
RACCORDO
100
AcDbLine
 62
253
  6
CONTINUOUS
 10
-14.2572511536
 20
24.0895847835
 11
-14.2707856933
 21
24.1347637228
  0
LINE
  5
4A5
100
AcDbEntity
  8
CURVE
100
AcDbLine
 62
253
  6
CONTINUOUS
 10
-8.2753433673
 20
17.4242158269
 11
-8.2753433673
 21
17.3313584184
  0
LINE
  5
4A6
100
AcDbEntity
  8
CURVE
100
AcDbLine
 62
253
  6
CONTINUOUS
 10
-8.2753433673
 20
16.4027871226
 11
-8.2753433673
 21
16.3099297141
  0
LINE
  5
4A7
100
AcDbEntity
  8
CURVE
100
AcDbLine
 62
253
  6
CONTINUOUS
 10
-8.2753433673
 20
13.5242155169
 11
-8.2753433673
 21
13.4313584184
  0
LINE
  5
4A8
100
AcDbEntity
  8
CURVE
100
AcDbLine
 62
253
  6
CONTINUOUS
 10
-8.2753433673
 20
9.2313584184
 11
-8.2753433673
 21
10.0313584184
  0
LINE
  5
4A9
100
AcDbEntity
  8
CURVE
100
AcDbLine
 62
253
  6
CONTINUOUS
 10
-8.2753433673
 20
15.1027871226
 11
-8.2753433673
 21
15.4742155169
  0
LINE
  5
4AA
100
AcDbEntity
  8
CURVE
100
AcDbLine
 62
253
  6
CONTINUOUS
 10
-8.2753433673
 20
20.859930024
 11
-8.2753433673
 21
21.3242158269
  0
LINE
  5
4AB
100
AcDbEntity
  8
CURVE
100
AcDbLine
 62
253
  6
CONTINUOUS
 10
-8.2753433673
 20
21.6956442212
 11
-8.2753433673
 21
22.2527868127
  0
LINE
  5
4AC
100
AcDbEntity
  8
RACCORDO
100
AcDbLine
 62
7
  6
CONTINUOUS
 10
-8.2622530657
 20
25.9444601431
 11
-8.2622530657
 21
24.8444487201
  0
LINE
  5
4AD
100
AcDbEntity
  8
ASSI
100
AcDbLine
 62
7
  6
CONTINUOUS
 10
-8.2622530657
 20
25.9444601431
 11
-8.2622530657
 21
24.8444487201
  0
LINE
  5
4AE
100
AcDbEntity
  8
RACCORDO
100
AcDbLine
 62
7
  6
CONTINUOUS
 10
-8.2622530657
 20
-12.6817433064
 11
-8.2622530657
 21
-11.8817204602
  0
LINE
  5
4AF
100
AcDbEntity
  8
ASSI
100
AcDbLine
 62
7
  6
CONTINUOUS
 10
-8.2622530657
 20
-12.6817433064
 11
-8.2622530657
 21
-11.8817204602
  0
LINE
  5
4B0
100
AcDbEntity
  8
ASSI
100
AcDbLine
 62
253
  6
CONTINUOUS
 10
-7.9194106346
 20
-17.1194150063
 11
-7.9194106346
 21
-15.7025397485
  0
LINE
  5
4B1
100
AcDbEntity
  8
ASSI
100
AcDbLine
 62
253
  6
CONTINUOUS
 10
-7.9194106346
 20
28.9652565853
 11
-7.9194106346
 21
30.3821318431
  0
LINE
  5
4B2
100
AcDbEntity
  8
DRAFT
100
AcDbLine
 62
7
  6
CONTINUOUS
 10
-7.8753433673
 20
-17.1686415816
 11
-7.8753433673
 21
-15.7686415816
  0
LINE
  5
4B3
100
AcDbEntity
  8
DRAFT
100
AcDbLine
 62
7
  6
CONTINUOUS
 10
-7.8753433673
 20
29.0313584184
 11
-7.8753433673
 21
30.4313584184
  0
LINE
  5
4B4
100
AcDbEntity
  8
ASSI
100
AcDbLine
 62
7
  6
CONTINUOUS
 10
-7.7753433673
 20
25.2313584184
 11
-7.7753433673
 21
24.8444487201
  0
LINE
  5
4B5
100
AcDbEntity
  8
ASSI
100
AcDbLine
 62
253
  6
CONTINUOUS
 10
-6.7753433673
 20
25.2313584184
 11
-6.7753433673
 21
24.8444487201
  0
LINE
  5
4B6
100
AcDbEntity
  8
CURVE
100
AcDbLine
 62
253
  6
CONTINUOUS
 10
-6.7753433673
 20
8.4313584184
 11
-6.7753433673
 21
8.1313584184
  0
LINE
  5
4B7
100
AcDbEntity
  8
CURVE
100
AcDbLine
 62
253
  6
CONTINUOUS
 10
-6.7753433673
 20
10.8313584184
 11
-6.7753433673
 21
11.1313584184
  0
LWPOLYLINE
  5
4B8
100
AcDbEntity
  8
RACCORDO
100
AcDbPolyline
 62
7
  6
CONTINUOUS
 90
5
 70
0
 10
-20.166226841
 20
-15.127758108
 10
-20.1427079849
 20
-15.0917105419
 10
-20.1187234283
 20
-15.0552873455
 10
-20.0942731713
 20
-15.0185595658
 10
-20.0692979242
 20
-14.9816304661
  0
LINE
  5
4B9
100
AcDbEntity
  8
SMUSSO
100
AcDbLine
 62
7
  6
CONTINUOUS
 10
-17.0253433673
 20
-4.6186415816
 11
-16.5253433673
 21
-4.1186415816
  0
LINE
  5
4BA
100
AcDbEntity
  8
ASSI
100
AcDbLine
 62
7
  6
CONTINUOUS
 10
-17.0253433673
 20
-4.6186415816
 11
-16.5253433673
 21
-4.1186415816
  0
LINE
  5
4BB
100
AcDbEntity
  8
SMUSSO
100
AcDbLine
 62
7
  6
CONTINUOUS
 10
-12.0253433673
 20
-0.1186415816
 11
-12.5253433673
 21
-0.6186415816
  0
LINE
  5
4BC
100
AcDbEntity
  8
ASSI
100
AcDbLine
 62
7
  6
CONTINUOUS
 10
-12.0253433673
 20
-0.1186415816
 11
-12.5253433673
 21
-0.6186415816
  0
LINE
  5
4BD
100
AcDbEntity
  8
CURVE
100
AcDbLine
 62
253
  6
CONTINUOUS
 10
-22.3896290927
 20
-4.5472130323
 11
-22.2039148181
 21
-4.4543559338
  0
LWPOLYLINE
  5
4BE
100
AcDbEntity
  8
CURVE
100
AcDbPolyline
 62
7
  6
CONTINUOUS
 90
15
 70
0
 10
-1.1660549357
 20
13.0940784445
 10
-1.1662741609
 20
13.0940392189
 10
-1.1664950504
 20
13.0943083084
 10
-1.1667173008
 20
13.0948867746
 10
-1.1669406088
 20
13.0957756791
 10
-1.1671646708
 20
13.0969760835
 10
-1.1673891834
 20
13.0984890495
 10
-1.1676138433
 20
13.1003156387
 10
-1.167838347
 20
13.1024569127
 10
-1.1680623911
 20
13.1049139332
 10
-1.1682856722
 20
13.1076877618
 10
-1.1685078869
 20
13.1107794602
 10
-1.1687287317
 20
13.1141900899
 10
-1.1689479033
 20
13.1179207126
 10
-1.1691650982
 20
13.1219723899
  0
LINE
  5
4BF
100
AcDbEntity
  8
CURVE
100
AcDbLine
 62
253
  6
CONTINUOUS
 10
-1.2228275231
 20
11.1343351697
 11
-1.2293098451
 21
11.1343351697
  0
LINE
  5
4C0
100
AcDbEntity
  8
CURVE
100
AcDbLine
 62
253
  6
CONTINUOUS
 10
-1.2422744905
 20
11.7518351697
 11
-1.2195863621
 21
11.7518351697
  0
LINE
  5
4C1
100
AcDbEntity
  8
DRAFT
100
AcDbLine
 62
7
  6
CONTINUOUS
 10
-5.9840701121
 20
-13.3555512799
 11
-5.9840701121
 21
-13.0686415816
  0
LINE
  5
4C2
100
AcDbEntity
  8
DRAFT
100
AcDbLine
 62
7
  6
CONTINUOUS
 10
-5.9840701121
 20
26.3313584184
 11
-5.9840701121
 21
26.6182681167
  0
LINE
  5
4C3
100
AcDbEntity
  8
RACCORDO
100
AcDbLine
 62
7
  6
CONTINUOUS
 10
-5.9171650692
 20
27.2142827016
 11
-5.9171650692
 21
26.5883765352
  0
LINE
  5
4C4
100
AcDbEntity
  8
RACCORDO
100
AcDbLine
 62
7
  6
CONTINUOUS
 10
-5.9171650692
 20
-13.3256596985
 11
-5.9171650692
 21
-13.9515658648
  0
LINE
  5
4C5
100
AcDbEntity
  8
CURVE
100
AcDbLine
 62
253
  6
CONTINUOUS
 10
-5.5753433673
 20
15.4742155169
 11
-5.5753433673
 21
15.1027871226
  0
LINE
  5
4C6
100
AcDbEntity
  8
CURVE
100
AcDbLine
 62
253
  6
CONTINUOUS
 10
-5.5753433673
 20
13.4313584184
 11
-5.5753433673
 21
13.5242155169
  0
LINE
  5
4C7
100
AcDbEntity
  8
CURVE
100
AcDbLine
 62
253
  6
CONTINUOUS
 10
-5.5753433673
 20
16.3099297141
 11
-5.5753433673
 21
16.4027871226
  0
LINE
  5
4C8
100
AcDbEntity
  8
CURVE
100
AcDbLine
 62
253
  6
CONTINUOUS
 10
-5.5753433673
 20
17.3313584184
 11
-5.5753433673
 21
17.4242158269
  0
LINE
  5
4C9
100
AcDbEntity
  8
CURVE
100
AcDbLine
 62
253
  6
CONTINUOUS
 10
-5.5753433673
 20
20.859930024
 11
-5.5753433673
 21
21.6027868127
  0
LINE
  5
4CA
100
AcDbEntity
  8
CURVE
100
AcDbLine
 62
253
  6
CONTINUOUS
 10
-5.5753433673
 20
21.9742158269
 11
-5.5753433673
 21
22.5313584184
  0
LINE
  5
4CB
100
AcDbEntity
  8
RACCORDO
100
AcDbLine
 62
7
  6
CONTINUOUS
 10
-5.0335216655
 20
27.6273539641
 11
-5.0335216655
 21
26.5883765352
  0
LINE
  5
4CC
100
AcDbEntity
  8
RACCORDO
100
AcDbLine
 62
7
  6
CONTINUOUS
 10
-5.0335216655
 20
-13.3256596985
 11
-5.0335216655
 21
-14.3646371273
  0
LINE
  5
4CD
100
AcDbEntity
  8
CURVE
100
AcDbLine
 62
253
  6
CONTINUOUS
 10
-5.0182005434
 20
22.3456442212
 11
-5.0182005434
 21
21.9742158269
  0
LINE
  5
4CE
100
AcDbEntity
  8
CURVE
100
AcDbLine
 62
253
  6
CONTINUOUS
 10
-5.0182005434
 20
15.4742155169
 11
-5.0182005434
 21
15.2885013198
  0
LINE
  5
4CF
100
AcDbEntity
  8
DRAFT
100
AcDbLine
 62
7
  6
CONTINUOUS
 10
-4.9666166226
 20
-13.0686415816
 11
-4.9666166226
 21
-14.1900299127
  0
LINE
  5
4D0
100
AcDbEntity
  8
DRAFT
100
AcDbLine
 62
7
  6
CONTINUOUS
 10
-4.9666166226
 20
26.3313584184
 11
-4.9666166226
 21
27.4527467494
  0
LINE
  5
4D1
100
AcDbEntity
  8
0
100
AcDbLine
 62
7
  6
CONTINUOUS
 10
-4.8753433673
 20
27.4813584184
 11
-4.8753433673
 21
26.3313584184
  0
LINE
  5
4D2
100
AcDbEntity
  8
DRAFT
100
AcDbLine
 62
7
  6
CONTINUOUS
 10
-4.8753433673
 20
27.4813584184
 11
-4.8753433673
 21
26.3313584184
  0
LINE
  5
4D3
100
AcDbEntity
  8
0
100
AcDbLine
 62
7
  6
CONTINUOUS
 10
-4.8753433673
 20
-13.0686415816
 11
-4.8753433673
 21
-14.2186415816
  0
LINE
  5
4D4
100
AcDbEntity
  8
DRAFT
100
AcDbLine
 62
7
  6
CONTINUOUS
 10
-4.8753433673
 20
-13.0686415816
 11
-4.8753433673
 21
-14.2186415816
  0
LWPOLYLINE
  5
4D5
100
AcDbEntity
  8
ASSI
100
AcDbPolyline
 62
7
  6
CONTINUOUS
 90
17
 70
0
 10
-8.7753433673
 20
-17.119783872
 10
-8.7750118227
 20
-17.1170721604
 10
-8.7740037365
 20
-17.1136905812
 10
-8.7722996181
 20
-17.1096391345
 10
-8.7698792812
 20
-17.1049309131
 10
-8.7667262011
 20
-17.0995528242
 10
-8.7628319442
 20
-17.0934655889
 10
-8.7581863052
 20
-17.0866613432
 10
-8.7527793653
 20
-17.0791479512
 10
-8.7466121587
 20
-17.070909725
 10
-8.7396976836
 20
-17.0619658399
 10
-8.7320211806
 20
-17.0522971207
 10
-8.7235361355
 20
-17.0418303541
 10
-8.7142302736
 20
-17.0305679932
 10
-8.7040991898
 20
-17.0185075849
 10
-8.6930911684
 20
-17.0055685563
 10
-8.6811927981
 20
-16.9917486926
  0
LINE
  5
4D6
100
AcDbEntity
  8
RACCORDO
100
AcDbLine
 62
7
  6
CONTINUOUS
 10
-18.6306381353
 20
-13.4515849033
 11
-18.5666166226
 21
-13.3555512799
  0
LWPOLYLINE
  5
4D7
100
AcDbEntity
  8
RACCORDO
100
AcDbPolyline
 62
7
  6
CONTINUOUS
 90
3
 70
0
 10
-20.0692979242
 20
-14.9816304661
 10
-20.0181281975
 20
-14.9072318263
 10
-19.9921198658
 20
-14.8697798461
  0
LINE
  5
4D8
100
AcDbEntity
  8
RACCORDO
100
AcDbLine
 62
7
  6
CONTINUOUS
 10
-19.9921198658
 20
-14.8697798461
 11
-19.9128779882
 21
-14.7568254688
  0
LINE
  5
4D9
100
AcDbEntity
  8
RACCORDO
100
AcDbLine
 62
7
  6
CONTINUOUS
 10
-19.9128779882
 20
-14.7568254688
 11
-19.8594440865
 21
-14.6813348253
  0
LINE
  5
4DA
100
AcDbEntity
  8
CURVE
100
AcDbLine
 62
253
  6
CONTINUOUS
 10
-21.4610576614
 20
-5.0114986802
 11
-21.6467719554
 21
-5.1043559338
  0
LINE
  5
4DB
100
AcDbEntity
  8
CURVE
100
AcDbLine
 62
253
  6
CONTINUOUS
 10
-4.2753433673
 20
12.5646917646
 11
-4.9253433673
 21
12.5646917646
  0
LINE
  5
4DC
100
AcDbEntity
  8
CURVE
100
AcDbLine
 62
253
  6
CONTINUOUS
 10
-8.2753433673
 20
12.5646917646
 11
-8.9253433673
 21
12.5646917646
  0
LINE
  5
4DD
100
AcDbEntity
  8
CURVE
100
AcDbLine
 62
253
  6
CONTINUOUS
 10
-1.2422744905
 20
12.6339770173
 11
-1.2195863621
 21
12.6339770173
  0
LINE
  5
4DE
100
AcDbEntity
  8
CURVE
100
AcDbLine
 62
7
  6
CONTINUOUS
 10
-1.1783871912
 20
12.9368027084
 11
-1.1780881999
 21
12.9368027084
  0
LINE
  5
4DF
100
AcDbEntity
  8
CURVE
100
AcDbLine
 62
253
  6
CONTINUOUS
 10
-1.2195863621
 20
12.9868351697
 11
-1.2422744905
 21
12.9868351697
  0
LINE
  5
4E0
100
AcDbEntity
  8
CURVE
100
AcDbLine
 62
253
  6
CONTINUOUS
 10
-4.6467719554
 20
13.1527869677
 11
-5.2039148181
 21
13.1527869677
  0
LINE
  5
4E1
100
AcDbEntity
  8
CURVE
100
AcDbLine
 62
253
  6
CONTINUOUS
 10
-8.6467719554
 20
13.1527869677
 11
-9.2039148181
 21
13.1527869677
  0
LINE
  5
4E2
100
AcDbEntity
  8
CURVE
100
AcDbLine
 62
253
  6
CONTINUOUS
 10
-1.2422744905
 20
13.6925491189
 11
-1.2195863621
 21
13.6925491189
  0
LINE
  5
4E3
100
AcDbEntity
  8
CURVE
100
AcDbLine
 62
253
  6
CONTINUOUS
 10
-9.2039148181
 20
13.8027869677
 11
-8.6467719554
 21
13.8027869677
  0
LINE
  5
4E4
100
AcDbEntity
  8
CURVE
100
AcDbLine
 62
253
  6
CONTINUOUS
 10
-5.2039148181
 20
13.8027869677
 11
-4.6467719554
 21
13.8027869677
  0
LINE
  5
4E5
100
AcDbEntity
  8
CURVE
100
AcDbLine
 62
7
  6
CONTINUOUS
 10
-1.2020059914
 20
13.8900898016
 11
-1.1822046432
 21
13.8900898016
  0
LINE
  5
4E6
100
AcDbEntity
  8
CURVE
100
AcDbLine
 62
7
  6
CONTINUOUS
 10
-1.1739178774
 20
13.9101596902
 11
-1.1600276795
 21
13.9101596902
  0
LINE
  5
4E7
100
AcDbEntity
  8
CURVE
100
AcDbLine
 62
253
  6
CONTINUOUS
 10
-1.2195863621
 20
14.0454060935
 11
-1.2422744905
 21
14.0454060935
  0
LINE
  5
4E8
100
AcDbEntity
  8
CURVE
100
AcDbLine
 62
253
  6
CONTINUOUS
 10
-8.5539147987
 20
12.1313584184
 11
-9.5753433673
 21
12.4099298497
  0
LINE
  5
4E9
100
AcDbEntity
  8
CURVE
100
AcDbLine
 62
253
  6
CONTINUOUS
 10
-4.5539147987
 20
12.1313584184
 11
-5.5753433673
 21
12.4099298497
  0
LINE
  5
4EA
100
AcDbEntity
  8
CURVE
100
AcDbLine
 62
253
  6
CONTINUOUS
 10
-9.2039148181
 20
13.1527869677
 11
-9.3896290927
 21
13.2456441437
  0
LINE
  5
4EB
100
AcDbEntity
  8
CURVE
100
AcDbLine
 62
253
  6
CONTINUOUS
 10
-5.9268152299
 20
8.7828302809
 11
-5.7146831956
 21
8.5706982466
  0
LINE
  5
4EC
100
AcDbEntity
  8
CURVE
100
AcDbLine
 62
253
  6
CONTINUOUS
 10
-9.3896290927
 20
13.2456441437
 11
-9.5753433673
 21
13.4313584184
  0
LINE
  5
4ED
100
AcDbEntity
  8
RACCORDO
100
AcDbLine
 62
7
  6
CONTINUOUS
 10
-19.8594440865
 20
27.9440516621
 11
-19.9128779882
 21
28.0195423056
  0
LINE
  5
4EE
100
AcDbEntity
  8
RACCORDO
100
AcDbLine
 62
7
  6
CONTINUOUS
 10
-19.9128779882
 20
28.0195423056
 11
-19.9921198658
 21
28.1324966828
  0
LWPOLYLINE
  5
4EF
100
AcDbEntity
  8
RACCORDO
100
AcDbPolyline
 62
7
  6
CONTINUOUS
 90
7
 70
0
 10
-19.9921198658
 20
28.1324966828
 10
-20.0438569766
 20
28.2072510351
 10
-20.0692979242
 20
28.2443473028
 10
-20.0942731713
 20
28.2812764026
 10
-20.1187234283
 20
28.3180041822
 10
-20.1427079849
 20
28.3544273787
 10
-20.166226841
 20
28.3904749447
  0
LINE
  5
4F0
100
AcDbEntity
  8
RACCORDO
100
AcDbLine
 62
7
  6
CONTINUOUS
 10
-18.6306381353
 20
26.71430174
 11
-18.5666166226
 21
26.6182681167
  0
LWPOLYLINE
  5
4F1
100
AcDbEntity
  8
RACCORDO
100
AcDbPolyline
 62
253
  6
CONTINUOUS
 90
31
 70
0
 10
-4.0209715333
 20
30.4756959857
 10
-4.0205922016
 20
30.4643858351
 10
-4.0195312197
 20
30.4531065703
 10
-4.0177914848
 20
30.4418889924
 10
-4.0153777479
 20
30.4307637343
 10
-4.0122966003
 20
30.4197611768
 10
-4.008556456
 20
30.4089113655
 10
-4.0041675286
 20
30.3982439291
 10
-3.9991418033
 20
30.387787998
 10
-3.9934930044
 20
30.3775721252
 10
-3.9872365574
 20
30.3676242082
 10
-3.9803895475
 20
30.3579714125
 10
-3.9729706724
 20
30.348640098
 10
-3.9650001914
 20
30.3396557466
 10
-3.9564998704
 20
30.3310428925
 10
-3.9474929219
 20
30.3228250558
 10
-3.938003942
 20
30.3150246776
 10
-3.9280588431
 20
30.307663059
 10
-3.9176847832
 20
30.3007603032
 10
-3.9069100916
 20
30.2943352602
 10
-3.8957641919
 20
30.2884054753
 10
-3.8842775211
 20
30.2829871416
 10
-3.872481447
 20
30.2780950554
 10
-3.860408182
 20
30.273742576
 10
-3.8480906959
 20
30.269941589
 10
-3.835562625
 20
30.2667024743
 10
-3.8228581809
 20
30.264034077
 10
-3.8100120568
 20
30.2619436842
 10
-3.7970593328
 20
30.2604370041
 10
-3.78403538
 20
30.2595181512
 10
-3.7709757641
 20
30.2591896347
  0
LINE
  5
4F2
100
AcDbEntity
  8
RACCORDO
100
AcDbLine
 62
253
  6
CONTINUOUS
 10
-4.0209715333
 20
-17.2129791489
 11
-4.0253433673
 21
-16.7791267298
  0
LINE
  5
4F3
100
AcDbEntity
  8
RACCORDO
100
AcDbLine
 62
253
  6
CONTINUOUS
 10
-3.7709757641
 20
-16.996472798
 11
-3.7760663652
 21
-16.4912913124
  0
LINE
  5
4F4
100
AcDbEntity
  8
0
100
AcDbLine
 62
7
  6
CONTINUOUS
 10
-4.838687731
 20
26.294702782
 11
-4.838687731
 21
25.2313584184
  0
LINE
  5
4F5
100
AcDbEntity
  8
DRAFT
100
AcDbLine
 62
7
  6
CONTINUOUS
 10
-4.838687731
 20
26.294702782
 11
-4.838687731
 21
25.2313584184
  0
LINE
  5
4F6
100
AcDbEntity
  8
0
100
AcDbLine
 62
7
  6
CONTINUOUS
 10
-4.838687731
 20
-13.0319859453
 11
-4.838687731
 21
-11.6348110493
  0
LINE
  5
4F7
100
AcDbEntity
  8
DRAFT
100
AcDbLine
 62
7
  6
CONTINUOUS
 10
-4.838687731
 20
-13.0319859453
 11
-4.838687731
 21
-11.6348110493
  0
LINE
  5
4F8
100
AcDbEntity
  8
0
100
AcDbLine
 62
7
  6
CONTINUOUS
 10
-4.8212326661
 20
27.4813584184
 11
-4.8212326661
 21
25.2313584184
  0
LINE
  5
4F9
100
AcDbEntity
  8
DRAFT
100
AcDbLine
 62
7
  6
CONTINUOUS
 10
-4.8212326661
 20
27.4813584184
 11
-4.8212326661
 21
25.2313584184
  0
LINE
  5
4FA
100
AcDbEntity
  8
0
100
AcDbLine
 62
7
  6
CONTINUOUS
 10
-4.8212326661
 20
-11.6260841815
 11
-4.8212326661
 21
-14.2186415816
  0
LINE
  5
4FB
100
AcDbEntity
  8
DRAFT
100
AcDbLine
 62
7
  6
CONTINUOUS
 10
-4.8212326661
 20
-11.6260841815
 11
-4.8212326661
 21
-14.2186415816
  0
LINE
  5
4FC
100
AcDbEntity
  8
CURVE
100
AcDbLine
 62
253
  6
CONTINUOUS
 10
-4.7396290927
 20
14.1742155169
 11
-4.7396290927
 21
14.7313584184
  0
LINE
  5
4FD
100
AcDbEntity
  8
RACCORDO
100
AcDbLine
 62
253
  6
CONTINUOUS
 10
-4.6912426482
 20
-14.6813348253
 11
-4.6912426482
 21
-14.3646371273
  0
LINE
  5
4FE
100
AcDbEntity
  8
RACCORDO
100
AcDbLine
 62
253
  6
CONTINUOUS
 10
-4.6912426482
 20
27.6273539641
 11
-4.6912426482
 21
27.9440516621
  0
LINE
  5
4FF
100
AcDbEntity
  8
CURVE
100
AcDbLine
 62
253
  6
CONTINUOUS
 10
-4.5539147987
 20
12.7813584184
 11
-4.5539147987
 21
12.1313584184
  0
LINE
  5
500
100
AcDbEntity
  8
CURVE
100
AcDbLine
 62
253
  6
CONTINUOUS
 10
-4.2753433673
 20
17.4242158269
 11
-4.2753433673
 21
17.3313584184
  0
LINE
  5
501
100
AcDbEntity
  8
CURVE
100
AcDbLine
 62
253
  6
CONTINUOUS
 10
-4.2753433673
 20
16.4027871226
 11
-4.2753433673
 21
16.3099297141
  0
LINE
  5
502
100
AcDbEntity
  8
CURVE
100
AcDbLine
 62
253
  6
CONTINUOUS
 10
-4.2753433673
 20
13.5242155169
 11
-4.2753433673
 21
13.4313584184
  0
LINE
  5
503
100
AcDbEntity
  8
CURVE
100
AcDbLine
 62
253
  6
CONTINUOUS
 10
-4.2753433673
 20
15.1027871226
 11
-4.2753433673
 21
15.5670726155
  0
LINE
  5
504
100
AcDbEntity
  8
CURVE
100
AcDbLine
 62
253
  6
CONTINUOUS
 10
-4.2753433673
 20
21.9742158269
 11
-4.2753433673
 21
22.5313584184
  0
LINE
  5
505
100
AcDbEntity
  8
RACCORDO
100
AcDbLine
 62
253
  6
CONTINUOUS
 10
-4.1913188006
 20
-14.9346170149
 11
-4.1913188006
 21
-14.3603498459
  0
LINE
  5
506
100
AcDbEntity
  8
RACCORDO
100
AcDbLine
 62
253
  6
CONTINUOUS
 10
-4.1913188006
 20
27.6230666826
 11
-4.1913188006
 21
28.1973338516
  0
LINE
  5
507
100
AcDbEntity
  8
DRAFT
100
AcDbLine
 62
7
  6
CONTINUOUS
 10
-4.0253433673
 20
28.0313584184
 11
-4.0253433673
 21
27.5313584184
  0
LINE
  5
508
100
AcDbEntity
  8
DRAFT
100
AcDbLine
 62
7
  6
CONTINUOUS
 10
-4.0253433673
 20
-14.2686415816
 11
-4.0253433673
 21
-14.7686415816
  0
LINE
  5
509
100
AcDbEntity
  8
RACCORDO
100
AcDbLine
 62
7
  6
CONTINUOUS
 10
-4.0253433673
 20
-17.6186458124
 11
-4.0253433673
 21
-15.7686415816
  0
LINE
  5
50A
100
AcDbEntity
  8
RACCORDO
100
AcDbLine
 62
7
  6
CONTINUOUS
 10
-4.0253433673
 20
29.0313584184
 11
-4.0253433673
 21
30.8813626492
  0
LINE
  5
50B
100
AcDbEntity
  8
RACCORDO
100
AcDbLine
 62
253
  6
CONTINUOUS
 10
-4.0209715333
 20
30.8769908152
 11
-4.0209715333
 21
30.4756959857
  0
LINE
  5
50C
100
AcDbEntity
  8
RACCORDO
100
AcDbLine
 62
253
  6
CONTINUOUS
 10
-4.0209715333
 20
-17.2129791489
 11
-4.0209715333
 21
-17.6142739784
  0
LINE
  5
50D
100
AcDbEntity
  8
RACCORDO
100
AcDbLine
 62
253
  6
CONTINUOUS
 10
-3.7709757641
 20
-17.8642697476
 11
-3.7709757641
 21
-16.996472798
  0
LINE
  5
50E
100
AcDbEntity
  8
RACCORDO
100
AcDbLine
 62
253
  6
CONTINUOUS
 10
-3.7709757641
 20
30.2591896347
 11
-3.7709757641
 21
31.1269865844
  0
LINE
  5
50F
100
AcDbEntity
  8
0
100
AcDbLine
 62
7
  6
CONTINUOUS
 10
-3.6753433673
 20
-14.2186415816
 11
-3.6753433673
 21
-11.6260841815
  0
LINE
  5
510
100
AcDbEntity
  8
DRAFT
100
AcDbLine
 62
7
  6
CONTINUOUS
 10
-3.6753433673
 20
-14.2186415816
 11
-3.6753433673
 21
-11.6260841815
  0
LINE
  5
511
100
AcDbEntity
  8
0
100
AcDbLine
 62
7
  6
CONTINUOUS
 10
-3.6753433673
 20
25.2313584184
 11
-3.6753433673
 21
27.4813584184
  0
LINE
  5
512
100
AcDbEntity
  8
DRAFT
100
AcDbLine
 62
7
  6
CONTINUOUS
 10
-3.6753433673
 20
25.2313584184
 11
-3.6753433673
 21
27.4813584184
  0
LINE
  5
513
100
AcDbEntity
  8
0
100
AcDbLine
 62
253
  6
CONTINUOUS
 10
-3.2753433673
 20
25.2313584184
 11
-3.2753433673
 21
24.8444487201
  0
LINE
  5
514
100
AcDbEntity
  8
RACCORDO
100
AcDbLine
 62
253
  6
CONTINUOUS
 10
-4.0253433673
 20
30.0418435666
 11
-4.0209715333
 21
30.4756959857
  0
LINE
  5
515
100
AcDbEntity
  8
RACCORDO
100
AcDbLine
 62
253
  6
CONTINUOUS
 10
-3.7760663652
 20
29.7540081492
 11
-3.7709757641
 21
30.2591896347
  0
LWPOLYLINE
  5
516
100
AcDbEntity
  8
RACCORDO
100
AcDbPolyline
 62
7
  6
CONTINUOUS
 90
34
 70
0
 10
-4.0253433673
 20
30.8813626492
 10
-4.0250602171
 20
30.8932579344
 10
-4.0242114016
 20
30.9051262739
 10
-4.0227988415
 20
30.9169407845
 10
-4.0208257351
 20
30.9286747059
 10
-4.0182965491
 20
30.9403014572
 10
-4.0152170091
 20
30.9517946974
 10
-4.0115940887
 20
30.9631283921
 10
-4.0074359931
 20
30.9742768677
 10
-4.0027521395
 20
30.9852148647
 10
-3.9975531362
 20
30.995917606
 10
-3.991850759
 20
31.0063608466
 10
-3.9856579255
 20
31.0165209243
 10
-3.9789886628
 20
31.0263748235
 10
-3.9718580781
 20
31.0359002222
 10
-3.9642823262
 20
31.0450755374
 10
-3.9562785678
 20
31.0538799845
 10
-3.9478649334
 20
31.0622936189
 10
-3.9390604864
 20
31.0702973772
 10
-3.9298851712
 20
31.0778731291
 10
-3.9203597725
 20
31.0850037138
 10
-3.9105058733
 20
31.0916729765
 10
-3.9003457956
 20
31.09786581
 10
-3.8899025549
 20
31.1035681872
 10
-3.8791998136
 20
31.1087671905
 10
-3.8682618166
 20
31.1134510441
 10
-3.8571133411
 20
31.1176091397
 10
-3.8457796463
 20
31.1212320601
 10
-3.8342864062
 20
31.1243116001
 10
-3.8226596548
 20
31.1268407861
 10
-3.8109257335
 20
31.1288138925
 10
-3.7991112229
 20
31.1302264526
 10
-3.7872428834
 20
31.1310752681
 10
-3.7753475981
 20
31.1313584184
  0
LWPOLYLINE
  5
517
100
AcDbEntity
  8
RACCORDO
100
AcDbPolyline
 62
253
  6
CONTINUOUS
 90
31
 70
0
 10
-4.0209715333
 20
30.8769908152
 10
-4.0206283443
 20
30.8900771693
 10
-4.0196006014
 20
30.9031276676
 10
-4.0178911182
 20
30.916106525
 10
-4.0155045755
 20
30.9289781647
 10
-4.0124475143
 20
30.9417072786
 10
-4.0087283248
 20
30.954258926
 10
-4.0043572098
 20
30.9665986822
 10
-3.9993461543
 20
30.9786927194
 10
-3.993708906
 20
30.990507865
 10
-3.9874609268
 20
31.0020117208
 10
-3.980619351
 20
31.0131727468
 10
-3.9732029442
 20
31.0239603371
 10
-3.965232036
 20
31.0343449264
 10
-3.9567284945
 20
31.0442980298
 10
-3.9477156754
 20
31.053792323
 10
-3.9382183409
 20
31.0628017448
 10
-3.9282625038
 20
31.0713016417
 10
-3.9178753779
 20
31.0792687839
 10
-3.9070852987
 20
31.086681414
 10
-3.8959219803
 20
31.0935190958
 10
-3.8844163799
 20
31.0997628975
 10
-3.8726003016
 20
31.105395646
 10
-3.8605059455
 20
31.1104020759
 10
-3.8481661416
 20
31.114768627
 10
-3.835611957
 20
31.1184840668
 10
-3.8228804918
 20
31.1215371802
 10
-3.8100147731
 20
31.1239183103
 10
-3.7970529985
 20
31.1256219145
 10
-3.7840281041
 20
31.1266451772
 10
-3.7709757641
 20
31.1269865844
  0
LWPOLYLINE
  5
518
100
AcDbEntity
  8
RACCORDO
100
AcDbPolyline
 62
253
  6
CONTINUOUS
 90
31
 70
0
 10
-4.0209715333
 20
-17.2129791489
 10
-4.0205929777
 20
-17.2016811767
 10
-4.0195338501
 20
-17.1904108726
 10
-4.0177964736
 20
-17.1791990028
 10
-4.0153847722
 20
-17.1680751937
 10
-4.012304902
 20
-17.1570709416
 10
-4.008565851
 20
-17.1462194018
 10
-4.0041783066
 20
-17.1355512788
 10
-3.9991539076
 20
-17.1250946055
 10
-3.993506227
 20
-17.1148776867
 10
-3.9872505344
 20
-17.1049282815
 10
-3.9804039598
 20
-17.095273757
 10
-3.9729853515
 20
-17.0859407336
 10
-3.9650150475
 20
-17.0769547834
 10
-3.9565147527
 20
-17.0683403642
 10
-3.9475076622
 20
-17.0601209858
 10
-3.9380183586
 20
-17.0523190892
 10
-3.9280727714
 20
-17.0449560009
 10
-3.9176980886
 20
-17.0380518521
 10
-3.9069226562
 20
-17.0316255055
 10
-3.8957758982
 20
-17.0256945085
 10
-3.8842882611
 20
-17.0202750612
 10
-3.8724911044
 20
-17.0153819592
 10
-3.8604166679
 20
-17.0110285761
 10
-3.8480979883
 20
-17.0072268187
 10
-3.835568753
 20
-17.0039870723
 10
-3.8228631501
 20
-17.0013181658
 10
-3.8100158293
 20
-16.9992273734
 10
-3.7970618621
 20
-16.9977204035
 10
-3.7840366483
 20
-16.9968013751
 10
-3.7709757641
 20
-16.996472798
  0
LINE
  5
519
100
AcDbEntity
  8
CURVE
100
AcDbLine
 62
7
  6
CONTINUOUS
 10
-1.1514077701
 20
17.4215854184
 11
-1.2020059852
 21
17.1504354184
  0
LINE
  5
51A
100
AcDbEntity
  8
CURVE
100
AcDbLine
 62
7
  6
CONTINUOUS
 10
-1.2020059852
 20
17.7425514184
 11
-1.169104031
 21
17.8669064184
  0
LINE
  5
51B
100
AcDbEntity
  8
DRAFT
100
AcDbLine
 62
7
  6
CONTINUOUS
 10
-16.6753433673
 20
-15.7686415816
 11
-16.6312761001
 21
-15.7025397485
  0
LINE
  5
51C
100
AcDbEntity
  8
SMUSSO
100
AcDbLine
 62
7
  6
CONTINUOUS
 10
-17.0253433673
 20
-9.6186415816
 11
-16.5253433673
 21
-9.1186415816
  0
LINE
  5
51D
100
AcDbEntity
  8
ASSI
100
AcDbLine
 62
7
  6
CONTINUOUS
 10
-17.0253433673
 20
-9.6186415816
 11
-16.5253433673
 21
-9.1186415816
  0
LINE
  5
51E
100
AcDbEntity
  8
SMUSSO
100
AcDbLine
 62
7
  6
CONTINUOUS
 10
-12.0253433673
 20
-5.1186415816
 11
-12.5253433673
 21
-5.6186415816
  0
LINE
  5
51F
100
AcDbEntity
  8
ASSI
100
AcDbLine
 62
7
  6
CONTINUOUS
 10
-12.0253433673
 20
-5.1186415816
 11
-12.5253433673
 21
-5.6186415816
  0
LINE
  5
520
100
AcDbEntity
  8
CURVE
100
AcDbLine
 62
253
  6
CONTINUOUS
 10
-22.5753433673
 20
-4.0829273845
 11
-21.2753433673
 21
-3.7114986802
  0
LINE
  5
521
100
AcDbEntity
  8
CURVE
100
AcDbLine
 62
7
  6
CONTINUOUS
 10
-1.1519989266
 20
14.4929257627
 11
-1.2020059914
 21
14.4929257627
  0
LINE
  5
522
100
AcDbEntity
  8
CURVE
100
AcDbLine
 62
253
  6
CONTINUOUS
 10
-1.2422744905
 20
14.7511200427
 11
-1.2195863621
 21
14.7511200427
  0
LINE
  5
523
100
AcDbEntity
  8
CURVE
100
AcDbLine
 62
253
  6
CONTINUOUS
 10
-9.0182005434
 20
15.1027871226
 11
-9.5753433673
 21
15.1027871226
  0
LINE
  5
524
100
AcDbEntity
  8
CURVE
100
AcDbLine
 62
253
  6
CONTINUOUS
 10
-1.2422744905
 20
15.3098107432
 11
-1.2195863621
 21
15.3098107432
  0
LINE
  5
525
100
AcDbEntity
  8
CURVE
100
AcDbLine
 62
253
  6
CONTINUOUS
 10
-5.111057642
 20
15.6289774512
 11
-5.3896290927
 21
15.6289774512
  0
LINE
  5
526
100
AcDbEntity
  8
CURVE
100
AcDbLine
 62
253
  6
CONTINUOUS
 10
-4.3682005144
 20
15.6599297141
 11
-4.83248623
 21
15.6599297141
  0
LINE
  5
527
100
AcDbEntity
  8
CURVE
100
AcDbLine
 62
253
  6
CONTINUOUS
 10
-8.4610576614
 20
15.6599297141
 11
-8.83248623
 21
15.6599297141
  0
LINE
  5
528
100
AcDbEntity
  8
CURVE
100
AcDbLine
 62
253
  6
CONTINUOUS
 10
-8.6467719554
 20
13.8027869677
 11
-8.4610576614
 21
13.7099298691
  0
LINE
  5
529
100
AcDbEntity
  8
CURVE
100
AcDbLine
 62
253
  6
CONTINUOUS
 10
-5.2039148181
 20
13.1527869677
 11
-5.3896290927
 21
13.2456441437
  0
LINE
  5
52A
100
AcDbEntity
  8
CURVE
100
AcDbLine
 62
253
  6
CONTINUOUS
 10
-8.4610576614
 20
13.7099298691
 11
-8.2753433673
 21
13.5242155169
  0
LINE
  5
52B
100
AcDbEntity
  8
CURVE
100
AcDbLine
 62
253
  6
CONTINUOUS
 10
-9.3896290927
 20
16.1242155169
 11
-9.5753433673
 21
16.3099297141
  0
LINE
  5
52C
100
AcDbEntity
  8
CURVE
100
AcDbLine
 62
253
  6
CONTINUOUS
 10
-8.2753433673
 20
15.4742155169
 11
-8.4610576614
 21
15.6599297141
  0
LINE
  5
52D
100
AcDbEntity
  8
DRAFT
100
AcDbLine
 62
7
  6
CONTINUOUS
 10
-16.6753433673
 20
29.0313584184
 11
-16.6312761001
 21
28.9652565853
  0
LINE
  5
52E
100
AcDbEntity
  8
CURVE
100
AcDbLine
 62
253
  6
CONTINUOUS
 10
-1.2351688678
 20
-0.0543559159
 11
-1.2091149182
 21
-0.4614986921
  0
LINE
  5
52F
100
AcDbEntity
  8
CURVE
100
AcDbLine
 62
7
  6
CONTINUOUS
 10
-1.1830107476
 20
-8.5451325816
 11
-1.1612141797
 21
-8.9750905816
  0
LINE
  5
530
100
AcDbEntity
  8
CURVE
100
AcDbLine
 62
7
  6
CONTINUOUS
 10
-1.1830107476
 20
-2.5200975816
 11
-1.1612113179
 21
-2.9501125816
  0
LINE
  5
531
100
AcDbEntity
  8
CURVE
100
AcDbLine
 62
7
  6
CONTINUOUS
 10
-1.202145653
 20
-8.1675305816
 11
-1.1914203572
 21
-8.3844875816
  0
LINE
  5
532
100
AcDbEntity
  8
CURVE
100
AcDbLine
 62
7
  6
CONTINUOUS
 10
-1.202145653
 20
-2.1426055816
 11
-1.1914203572
 21
-2.3594535816
  0
LINE
  5
533
100
AcDbEntity
  8
CURVE
100
AcDbLine
 62
7
  6
CONTINUOUS
 10
-1.1515413654
 20
-8.6215255816
 11
-1.202145653
 21
-7.5730815816
  0
LINE
  5
534
100
AcDbEntity
  8
CURVE
100
AcDbLine
 62
7
  6
CONTINUOUS
 10
-1.1515413654
 20
-2.5964905816
 11
-1.202145653
 21
-1.5481555816
  0
LWPOLYLINE
  5
535
100
AcDbEntity
  8
CURVE
100
AcDbPolyline
 62
7
  6
CONTINUOUS
 90
15
 70
0
 10
-1.1739168107
 20
0.9178809122
 10
-1.1734549442
 20
0.9075895903
 10
-1.1729865299
 20
0.8982640053
 10
-1.1725122409
 20
0.8898715944
 10
-1.1720327506
 20
0.8823797949
 10
-1.1715487323
 20
0.875756044
 10
-1.1710608594
 20
0.8699677789
 10
-1.170569805
 20
0.864982437
 10
-1.1700762427
 20
0.8607674554
 10
-1.1695808456
 20
0.8572902714
 10
-1.1690842871
 20
0.8545183221
 10
-1.1685872404
 20
0.8524190449
 10
-1.168090379
 20
0.850959877
 10
-1.1675943761
 20
0.8501082557
 10
-1.1670999051
 20
0.849831618
  0
LINE
  5
536
100
AcDbEntity
  8
CURVE
100
AcDbLine
 62
7
  6
CONTINUOUS
 10
-1.1702459196
 20
1.5390442805
 11
-1.1706439244
 21
1.5480027533
  0
LINE
  5
537
100
AcDbEntity
  8
CURVE
100
AcDbLine
 62
7
  6
CONTINUOUS
 10
-1.1747931554
 20
0.9407607522
 11
-1.1739168107
 21
0.9178809122
  0
LINE
  5
538
100
AcDbEntity
  8
CURVE
100
AcDbLine
 62
7
  6
CONTINUOUS
 10
-1.1706439244
 20
1.5480027533
 11
-1.1710317936
 21
1.5583919572
  0
LINE
  5
539
100
AcDbEntity
  8
CURVE
100
AcDbLine
 62
253
  6
CONTINUOUS
 10
-1.2328003266
 20
-9.9614984656
 11
-1.2375374085
 21
-9.8257846976
  0
LINE
  5
53A
100
AcDbEntity
  8
CURVE
100
AcDbLine
 62
253
  6
CONTINUOUS
 10
-1.2185890812
 20
-9.0114984656
 11
-1.2138519997
 21
-9.1472131396
  0
LWPOLYLINE
  5
53B
100
AcDbEntity
  8
RACCORDO
100
AcDbPolyline
 62
253
  6
CONTINUOUS
 90
31
 70
0
 10
-1.6297152013
 20
-17.2129791489
 10
-1.630093757
 20
-17.2016811767
 10
-1.6311528846
 20
-17.1904108726
 10
-1.6328902611
 20
-17.1791990028
 10
-1.6353019625
 20
-17.1680751937
 10
-1.6383818327
 20
-17.1570709416
 10
-1.6421208837
 20
-17.1462194018
 10
-1.6465084281
 20
-17.1355512788
 10
-1.6515328271
 20
-17.1250946055
 10
-1.6571805077
 20
-17.1148776867
 10
-1.6634362003
 20
-17.1049282815
 10
-1.6702827749
 20
-17.095273757
 10
-1.6777013832
 20
-17.0859407336
 10
-1.6856716872
 20
-17.0769547834
 10
-1.694171982
 20
-17.0683403642
 10
-1.7031790725
 20
-17.0601209858
 10
-1.7126683761
 20
-17.0523190892
 10
-1.7226139633
 20
-17.0449560009
 10
-1.7329886461
 20
-17.0380518521
 10
-1.7437640785
 20
-17.0316255055
 10
-1.7549108365
 20
-17.0256945085
 10
-1.7663984736
 20
-17.0202750612
 10
-1.7781956303
 20
-17.0153819592
 10
-1.7902700667
 20
-17.0110285761
 10
-1.8025887464
 20
-17.0072268187
 10
-1.8151179817
 20
-17.0039870723
 10
-1.8278235846
 20
-17.0013181658
 10
-1.8406709054
 20
-16.9992273734
 10
-1.8536248726
 20
-16.9977204035
 10
-1.8666500864
 20
-16.9968013751
 10
-1.8797109706
 20
-16.996472798
  0
LINE
  5
53C
100
AcDbEntity
  8
CURVE
100
AcDbLine
 62
7
  6
CONTINUOUS
 10
-1.1756122589
 20
0.9666514203
 11
-1.1747931554
 21
0.9407607522
  0
LINE
  5
53D
100
AcDbEntity
  8
CURVE
100
AcDbLine
 62
7
  6
CONTINUOUS
 10
-1.1710317936
 20
1.5583919572
 11
-1.1715515903
 21
1.5751040976
  0
LINE
  5
53E
100
AcDbEntity
  8
CURVE
100
AcDbLine
 62
253
  6
CONTINUOUS
 10
-1.2091149182
 20
-7.7900700236
 11
-1.2162205414
 21
-7.5186415816
  0
LINE
  5
53F
100
AcDbEntity
  8
CURVE
100
AcDbLine
 62
253
  6
CONTINUOUS
 10
-1.2293098451
 20
4.8075487619
 11
-1.2195863621
 21
4.4361203675
  0
LINE
  5
540
100
AcDbEntity
  8
CURVE
100
AcDbLine
 62
253
  6
CONTINUOUS
 10
-1.2422744905
 20
-7.5186415816
 11
-1.2185890812
 21
-8.4686415816
  0
LINE
  5
541
100
AcDbEntity
  8
CURVE
100
AcDbLine
 62
7
  6
CONTINUOUS
 10
-1.1715515903
 20
1.5751040976
 11
-1.1719665711
 21
1.5912181756
  0
LINE
  5
542
100
AcDbEntity
  8
CURVE
100
AcDbLine
 62
7
  6
CONTINUOUS
 10
-1.1767681317
 20
1.0121022428
 11
-1.1756122589
 21
0.9666514203
  0
LINE
  5
543
100
AcDbEntity
  8
CURVE
100
AcDbLine
 62
7
  6
CONTINUOUS
 10
-1.1719665711
 20
1.5912181756
 11
-1.1723526
 21
1.6094223131
  0
LINE
  5
544
100
AcDbEntity
  8
ASSI
100
AcDbLine
 62
7
  6
CONTINUOUS
 10
-1.3248426408
 20
-9.6357791285
 11
-1.3262422807
 21
-9.5646848333
  0
LINE
  5
545
100
AcDbEntity
  8
ASSI
100
AcDbLine
 62
7
  6
CONTINUOUS
 10
-1.3248426408
 20
-4.6357791285
 11
-1.3262422807
 21
-4.5646848333
  0
LINE
  5
546
100
AcDbEntity
  8
ASSI
100
AcDbLine
 62
7
  6
CONTINUOUS
 10
-1.3248426408
 20
0.3642208715
 11
-1.3262422807
 21
0.4353151667
  0
LINE
  5
547
100
AcDbEntity
  8
ASSI
100
AcDbLine
 62
7
  6
CONTINUOUS
 10
-1.3248426408
 20
5.3642208715
 11
-1.3262422807
 21
5.4353151667
  0
LINE
  5
548
100
AcDbEntity
  8
RACCORDO
100
AcDbLine
 62
7
  6
CONTINUOUS
 10
-1.3248421612
 20
-9.6357797198
 11
-1.3264692329
 21
-9.5518203633
  0
LINE
  5
549
100
AcDbEntity
  8
RACCORDO
100
AcDbLine
 62
7
  6
CONTINUOUS
 10
-1.3248421612
 20
-4.6357797198
 11
-1.3264692329
 21
-4.5518203633
  0
LINE
  5
54A
100
AcDbEntity
  8
RACCORDO
100
AcDbLine
 62
7
  6
CONTINUOUS
 10
-1.3248421612
 20
0.3642202802
 11
-1.3264692329
 21
0.4481796367
  0
LINE
  5
54B
100
AcDbEntity
  8
RACCORDO
100
AcDbLine
 62
7
  6
CONTINUOUS
 10
-1.3248421612
 20
5.3642202802
 11
-1.3264692329
 21
5.4481796367
  0
LINE
  5
54C
100
AcDbEntity
  8
CURVE
100
AcDbLine
 62
253
  6
CONTINUOUS
 10
-1.2138519997
 20
-9.1472131396
 11
-1.2091149182
 21
-9.4186415816
  0
LINE
  5
54D
100
AcDbEntity
  8
CURVE
100
AcDbLine
 62
253
  6
CONTINUOUS
 10
-1.2185890812
 20
-6.4329273606
 11
-1.2091149182
 21
-6.9757846976
  0
LINE
  5
54E
100
AcDbEntity
  8
CURVE
100
AcDbLine
 62
253
  6
CONTINUOUS
 10
-1.2185890812
 20
-1.5472129131
 11
-1.2091149182
 21
-2.0900702501
  0
LINE
  5
54F
100
AcDbEntity
  8
CURVE
100
AcDbLine
 62
253
  6
CONTINUOUS
 10
-1.2185890812
 20
1.0313584184
 11
-1.2091149182
 21
0.4885012512
  0
LWPOLYLINE
  5
550
100
AcDbEntity
  8
CURVE
100
AcDbPolyline
 62
7
  6
CONTINUOUS
 90
3
 70
0
 10
-1.1781413524
 20
1.0845860089
 10
-1.1778178509
 20
1.0652457618
 10
-1.1767681317
 20
1.0121022428
  0
LWPOLYLINE
  5
551
100
AcDbEntity
  8
RACCORDO
100
AcDbPolyline
 62
253
  6
CONTINUOUS
 90
10
 70
0
 10
-1.6294243482
 20
-9.1043922966
 10
-1.6281928124
 20
-9.1885571581
 10
-1.6268990179
 20
-9.2639513764
 10
-1.6255604948
 20
-9.330212958
 10
-1.6241763348
 20
-9.3869818464
 10
-1.6227474463
 20
-9.4339254815
 10
-1.6212940843
 20
-9.4707709744
 10
-1.6198230006
 20
-9.4972865311
 10
-1.6183274434
 20
-9.5132873625
 10
-1.6168074129
 20
-9.5186415816
  0
LWPOLYLINE
  5
552
100
AcDbEntity
  8
ASSI
100
AcDbPolyline
 62
253
  6
CONTINUOUS
 90
10
 70
0
 10
-1.6294243482
 20
-9.1043922966
 10
-1.6281928124
 20
-9.1885571581
 10
-1.6268990179
 20
-9.2639513764
 10
-1.6255604948
 20
-9.330212958
 10
-1.6241763348
 20
-9.3869818464
 10
-1.6227474463
 20
-9.4339254815
 10
-1.6212940843
 20
-9.4707709744
 10
-1.6198230006
 20
-9.4972865311
 10
-1.6183274434
 20
-9.5132873625
 10
-1.6168074129
 20
-9.5186415816
  0
LWPOLYLINE
  5
553
100
AcDbEntity
  8
RACCORDO
100
AcDbPolyline
 62
253
  6
CONTINUOUS
 90
10
 70
0
 10
-1.6294243482
 20
-4.1043922966
 10
-1.6281928124
 20
-4.1885571581
 10
-1.6268990179
 20
-4.2639513764
 10
-1.6255604948
 20
-4.330212958
 10
-1.6241763348
 20
-4.3869818464
 10
-1.6227474463
 20
-4.4339254815
 10
-1.6212940843
 20
-4.4707709744
 10
-1.6198230006
 20
-4.4972865311
 10
-1.6183274434
 20
-4.5132873625
 10
-1.6168074129
 20
-4.5186415816
  0
LWPOLYLINE
  5
554
100
AcDbEntity
  8
ASSI
100
AcDbPolyline
 62
253
  6
CONTINUOUS
 90
10
 70
0
 10
-1.6294243482
 20
-4.1043922966
 10
-1.6281928124
 20
-4.1885571581
 10
-1.6268990179
 20
-4.2639513764
 10
-1.6255604948
 20
-4.330212958
 10
-1.6241763348
 20
-4.3869818464
 10
-1.6227474463
 20
-4.4339254815
 10
-1.6212940843
 20
-4.4707709744
 10
-1.6198230006
 20
-4.4972865311
 10
-1.6183274434
 20
-4.5132873625
 10
-1.6168074129
 20
-4.5186415816
  0
LWPOLYLINE
  5
555
100
AcDbEntity
  8
RACCORDO
100
AcDbPolyline
 62
253
  6
CONTINUOUS
 90
10
 70
0
 10
-1.6294243482
 20
0.8956077034
 10
-1.6281928124
 20
0.8114428419
 10
-1.6268990179
 20
0.7360486236
 10
-1.6255604948
 20
0.669787042
 10
-1.6241763348
 20
0.6130181536
 10
-1.6227474463
 20
0.5660745185
 10
-1.6212940843
 20
0.5292290256
 10
-1.6198230006
 20
0.5027134689
 10
-1.6183274434
 20
0.4867126375
 10
-1.6168074129
 20
0.4813584184
  0
LWPOLYLINE
  5
556
100
AcDbEntity
  8
ASSI
100
AcDbPolyline
 62
253
  6
CONTINUOUS
 90
10
 70
0
 10
-1.6294243482
 20
0.8956077034
 10
-1.6281928124
 20
0.8114428419
 10
-1.6268990179
 20
0.7360486236
 10
-1.6255604948
 20
0.669787042
 10
-1.6241763348
 20
0.6130181536
 10
-1.6227474463
 20
0.5660745185
 10
-1.6212940843
 20
0.5292290256
 10
-1.6198230006
 20
0.5027134689
 10
-1.6183274434
 20
0.4867126375
 10
-1.6168074129
 20
0.4813584184
  0
LWPOLYLINE
  5
557
100
AcDbEntity
  8
RACCORDO
100
AcDbPolyline
 62
253
  6
CONTINUOUS
 90
10
 70
0
 10
-1.6294243482
 20
5.8956077034
 10
-1.6281928124
 20
5.8114428419
 10
-1.6268990179
 20
5.7360486236
 10
-1.6255604948
 20
5.669787042
 10
-1.6241763348
 20
5.6130181536
 10
-1.6227474463
 20
5.5660745185
 10
-1.6212940843
 20
5.5292290256
 10
-1.6198230006
 20
5.5027134689
 10
-1.6183274434
 20
5.4867126375
 10
-1.6168074129
 20
5.4813584184
  0
LWPOLYLINE
  5
558
100
AcDbEntity
  8
ASSI
100
AcDbPolyline
 62
253
  6
CONTINUOUS
 90
10
 70
0
 10
-1.6294243482
 20
5.8956077034
 10
-1.6281928124
 20
5.8114428419
 10
-1.6268990179
 20
5.7360486236
 10
-1.6255604948
 20
5.669787042
 10
-1.6241763348
 20
5.6130181536
 10
-1.6227474463
 20
5.5660745185
 10
-1.6212940843
 20
5.5292290256
 10
-1.6198230006
 20
5.5027134689
 10
-1.6183274434
 20
5.4867126375
 10
-1.6168074129
 20
5.4813584184
  0
LINE
  5
559
100
AcDbEntity
  8
ASSI
100
AcDbLine
 62
7
  6
CONTINUOUS
 10
-1.3262422807
 20
-9.5646848333
 11
-1.3278690884
 21
-9.4633216565
  0
LINE
  5
55A
100
AcDbEntity
  8
ASSI
100
AcDbLine
 62
7
  6
CONTINUOUS
 10
-1.3262422807
 20
-4.5646848333
 11
-1.3278690884
 21
-4.4633216565
  0
LINE
  5
55B
100
AcDbEntity
  8
ASSI
100
AcDbLine
 62
7
  6
CONTINUOUS
 10
-1.3262422807
 20
0.4353151667
 11
-1.3278690884
 21
0.5366783435
  0
LINE
  5
55C
100
AcDbEntity
  8
ASSI
100
AcDbLine
 62
7
  6
CONTINUOUS
 10
-1.3262422807
 20
5.4353151667
 11
-1.3278690884
 21
5.5366783435
  0
LINE
  5
55D
100
AcDbEntity
  8
RACCORDO
100
AcDbLine
 62
7
  6
CONTINUOUS
 10
-1.3264692329
 20
-9.5518203633
 11
-1.3280380221
 21
-9.4515141736
  0
LINE
  5
55E
100
AcDbEntity
  8
RACCORDO
100
AcDbLine
 62
7
  6
CONTINUOUS
 10
-1.3264692329
 20
-4.5518203633
 11
-1.3280380221
 21
-4.4515141736
  0
LINE
  5
55F
100
AcDbEntity
  8
RACCORDO
100
AcDbLine
 62
7
  6
CONTINUOUS
 10
-1.3264692329
 20
0.4481796367
 11
-1.3280380221
 21
0.5484858264
  0
LINE
  5
560
100
AcDbEntity
  8
RACCORDO
100
AcDbLine
 62
7
  6
CONTINUOUS
 10
-1.3264692329
 20
5.4481796367
 11
-1.3280380221
 21
5.5484858264
  0
LINE
  5
561
100
AcDbEntity
  8
ASSI
100
AcDbLine
 62
7
  6
CONTINUOUS
 10
-1.3278690884
 20
-9.4633216565
 11
-1.3294738014
 21
-9.3406694324
  0
LINE
  5
562
100
AcDbEntity
  8
ASSI
100
AcDbLine
 62
7
  6
CONTINUOUS
 10
-1.3278690884
 20
-4.4633216565
 11
-1.3294738014
 21
-4.3406694324
  0
LINE
  5
563
100
AcDbEntity
  8
ASSI
100
AcDbLine
 62
7
  6
CONTINUOUS
 10
-1.3278690884
 20
0.5366783435
 11
-1.3294738014
 21
0.6593305676
  0
LINE
  5
564
100
AcDbEntity
  8
ASSI
100
AcDbLine
 62
7
  6
CONTINUOUS
 10
-1.3278690884
 20
5.5366783435
 11
-1.3294738014
 21
5.6593305676
  0
LINE
  5
565
100
AcDbEntity
  8
RACCORDO
100
AcDbLine
 62
7
  6
CONTINUOUS
 10
-1.3280380221
 20
-9.4515141736
 11
-1.3298001822
 21
-9.3127401975
  0
LINE
  5
566
100
AcDbEntity
  8
RACCORDO
100
AcDbLine
 62
7
  6
CONTINUOUS
 10
-1.3280380221
 20
-4.4515141736
 11
-1.3298001822
 21
-4.3127401975
  0
LINE
  5
567
100
AcDbEntity
  8
RACCORDO
100
AcDbLine
 62
7
  6
CONTINUOUS
 10
-1.3280380221
 20
0.5484858264
 11
-1.3298001822
 21
0.6872598025
  0
LINE
  5
568
100
AcDbEntity
  8
RACCORDO
100
AcDbLine
 62
7
  6
CONTINUOUS
 10
-1.3280380221
 20
5.5484858264
 11
-1.3298001822
 21
5.6872598025
  0
LINE
  5
569
100
AcDbEntity
  8
RACCORDO
100
AcDbLine
 62
253
  6
CONTINUOUS
 10
-1.631698848
 20
-8.9115370122
 11
-1.6294243482
 21
-9.1043922966
  0
LINE
  5
56A
100
AcDbEntity
  8
ASSI
100
AcDbLine
 62
253
  6
CONTINUOUS
 10
-1.631698848
 20
-8.9115370122
 11
-1.6294243482
 21
-9.1043922966
  0
LINE
  5
56B
100
AcDbEntity
  8
RACCORDO
100
AcDbLine
 62
253
  6
CONTINUOUS
 10
-1.631698848
 20
-3.9115370122
 11
-1.6294243482
 21
-4.1043922966
  0
LINE
  5
56C
100
AcDbEntity
  8
ASSI
100
AcDbLine
 62
253
  6
CONTINUOUS
 10
-1.631698848
 20
-3.9115370122
 11
-1.6294243482
 21
-4.1043922966
  0
LINE
  5
56D
100
AcDbEntity
  8
RACCORDO
100
AcDbLine
 62
253
  6
CONTINUOUS
 10
-1.631698848
 20
1.0884629878
 11
-1.6294243482
 21
0.8956077034
  0
LINE
  5
56E
100
AcDbEntity
  8
ASSI
100
AcDbLine
 62
253
  6
CONTINUOUS
 10
-1.631698848
 20
1.0884629878
 11
-1.6294243482
 21
0.8956077034
  0
LINE
  5
56F
100
AcDbEntity
  8
RACCORDO
100
AcDbLine
 62
253
  6
CONTINUOUS
 10
-1.631698848
 20
6.0884629878
 11
-1.6294243482
 21
5.8956077034
  0
LINE
  5
570
100
AcDbEntity
  8
ASSI
100
AcDbLine
 62
253
  6
CONTINUOUS
 10
-1.631698848
 20
6.0884629878
 11
-1.6294243482
 21
5.8956077034
  0
LINE
  5
571
100
AcDbEntity
  8
CURVE
100
AcDbLine
 62
253
  6
CONTINUOUS
 10
-1.2233261626
 20
-3.1757842446
 11
-1.2209576229
 21
-3.401974764
  0
LINE
  5
572
100
AcDbEntity
  8
RACCORDO
100
AcDbLine
 62
253
  6
CONTINUOUS
 10
-1.8797109706
 20
30.2591896347
 11
-1.8746203695
 21
29.7540081492
  0
LINE
  5
573
100
AcDbEntity
  8
RACCORDO
100
AcDbLine
 62
253
  6
CONTINUOUS
 10
-1.6297152013
 20
30.4756959857
 11
-1.6253433673
 21
30.0418435666
  0
LINE
  5
574
100
AcDbEntity
  8
ASSI
100
AcDbLine
 62
7
  6
CONTINUOUS
 10
-1.3294738014
 20
-9.3406694324
 11
-1.3310299801
 21
-9.1967794796
  0
LINE
  5
575
100
AcDbEntity
  8
ASSI
100
AcDbLine
 62
7
  6
CONTINUOUS
 10
-1.3294738014
 20
-4.3406694324
 11
-1.3310299801
 21
-4.1967794796
  0
LINE
  5
576
100
AcDbEntity
  8
ASSI
100
AcDbLine
 62
7
  6
CONTINUOUS
 10
-1.3294738014
 20
0.6593305676
 11
-1.3310299801
 21
0.8032205204
  0
LINE
  5
577
100
AcDbEntity
  8
ASSI
100
AcDbLine
 62
7
  6
CONTINUOUS
 10
-1.3294738014
 20
5.6593305676
 11
-1.3310299801
 21
5.8032205204
  0
LINE
  5
578
100
AcDbEntity
  8
RACCORDO
100
AcDbLine
 62
7
  6
CONTINUOUS
 10
-1.3298001822
 20
-9.3127401975
 11
-1.3314912324
 21
-9.1483271306
  0
LINE
  5
579
100
AcDbEntity
  8
RACCORDO
100
AcDbLine
 62
7
  6
CONTINUOUS
 10
-1.3298001822
 20
-4.3127401975
 11
-1.3314912324
 21
-4.1483271306
  0
LINE
  5
57A
100
AcDbEntity
  8
RACCORDO
100
AcDbLine
 62
7
  6
CONTINUOUS
 10
-1.3298001822
 20
0.6872598025
 11
-1.3314912324
 21
0.8516728694
  0
LINE
  5
57B
100
AcDbEntity
  8
RACCORDO
100
AcDbLine
 62
7
  6
CONTINUOUS
 10
-1.3298001822
 20
5.6872598025
 11
-1.3314912324
 21
5.8516728694
  0
LINE
  5
57C
100
AcDbEntity
  8
RACCORDO
100
AcDbLine
 62
253
  6
CONTINUOUS
 10
-1.6336788461
 20
-8.6890809354
 11
-1.631698848
 21
-8.9115370122
  0
LINE
  5
57D
100
AcDbEntity
  8
ASSI
100
AcDbLine
 62
253
  6
CONTINUOUS
 10
-1.6336788461
 20
-8.6890809354
 11
-1.631698848
 21
-8.9115370122
  0
LINE
  5
57E
100
AcDbEntity
  8
RACCORDO
100
AcDbLine
 62
253
  6
CONTINUOUS
 10
-1.6336788461
 20
-3.6890809354
 11
-1.631698848
 21
-3.9115370122
  0
LINE
  5
57F
100
AcDbEntity
  8
ASSI
100
AcDbLine
 62
253
  6
CONTINUOUS
 10
-1.6336788461
 20
-3.6890809354
 11
-1.631698848
 21
-3.9115370122
  0
LINE
  5
580
100
AcDbEntity
  8
RACCORDO
100
AcDbLine
 62
253
  6
CONTINUOUS
 10
-1.6336788461
 20
1.3109190646
 11
-1.631698848
 21
1.0884629878
  0
LINE
  5
581
100
AcDbEntity
  8
ASSI
100
AcDbLine
 62
253
  6
CONTINUOUS
 10
-1.6336788461
 20
1.3109190646
 11
-1.631698848
 21
1.0884629878
  0
LINE
  5
582
100
AcDbEntity
  8
RACCORDO
100
AcDbLine
 62
253
  6
CONTINUOUS
 10
-1.6336788461
 20
6.3109190646
 11
-1.631698848
 21
6.0884629878
  0
LINE
  5
583
100
AcDbEntity
  8
ASSI
100
AcDbLine
 62
253
  6
CONTINUOUS
 10
-1.6336788461
 20
6.3109190646
 11
-1.631698848
 21
6.0884629878
  0
LINE
  5
584
100
AcDbEntity
  8
ASSI
100
AcDbLine
 62
7
  6
CONTINUOUS
 10
-1.3310299801
 20
-9.1967794796
 11
-1.3326994558
 21
-9.0064672188
  0
LINE
  5
585
100
AcDbEntity
  8
ASSI
100
AcDbLine
 62
7
  6
CONTINUOUS
 10
-1.3310299801
 20
-4.1967794796
 11
-1.3326994558
 21
-4.0064672188
  0
LINE
  5
586
100
AcDbEntity
  8
ASSI
100
AcDbLine
 62
7
  6
CONTINUOUS
 10
-1.3310299801
 20
0.8032205204
 11
-1.3326994558
 21
0.9935327812
  0
LINE
  5
587
100
AcDbEntity
  8
ASSI
100
AcDbLine
 62
7
  6
CONTINUOUS
 10
-1.3310299801
 20
5.8032205204
 11
-1.3326994558
 21
5.9935327812
  0
LINE
  5
588
100
AcDbEntity
  8
RACCORDO
100
AcDbLine
 62
7
  6
CONTINUOUS
 10
-1.3314912324
 20
-9.1483271306
 11
-1.3330685641
 21
-8.9584055085
  0
LINE
  5
589
100
AcDbEntity
  8
RACCORDO
100
AcDbLine
 62
7
  6
CONTINUOUS
 10
-1.3314912324
 20
-4.1483271306
 11
-1.3330685641
 21
-3.9584055085
  0
LINE
  5
58A
100
AcDbEntity
  8
RACCORDO
100
AcDbLine
 62
7
  6
CONTINUOUS
 10
-1.3314912324
 20
0.8516728694
 11
-1.3330685641
 21
1.0415944915
  0
LINE
  5
58B
100
AcDbEntity
  8
RACCORDO
100
AcDbLine
 62
7
  6
CONTINUOUS
 10
-1.3314912324
 20
5.8516728694
 11
-1.3330685641
 21
6.0415944915
  0
LINE
  5
58C
100
AcDbEntity
  8
ASSI
100
AcDbLine
 62
7
  6
CONTINUOUS
 10
-1.3326994558
 20
-9.0064672188
 11
-1.3342242574
 21
-8.7892638309
  0
LINE
  5
58D
100
AcDbEntity
  8
ASSI
100
AcDbLine
 62
7
  6
CONTINUOUS
 10
-1.3326994558
 20
-4.0064672188
 11
-1.3342242574
 21
-3.7892638309
  0
LINE
  5
58E
100
AcDbEntity
  8
ASSI
100
AcDbLine
 62
7
  6
CONTINUOUS
 10
-1.3326994558
 20
0.9935327812
 11
-1.3342242574
 21
1.2107361691
  0
LINE
  5
58F
100
AcDbEntity
  8
ASSI
100
AcDbLine
 62
7
  6
CONTINUOUS
 10
-1.3326994558
 20
5.9935327812
 11
-1.3342242574
 21
6.2107361691
  0
LINE
  5
590
100
AcDbEntity
  8
RACCORDO
100
AcDbLine
 62
253
  6
CONTINUOUS
 10
-1.6353375404
 20
-8.4412354415
 11
-1.6336788461
 21
-8.6890809354
  0
LINE
  5
591
100
AcDbEntity
  8
ASSI
100
AcDbLine
 62
253
  6
CONTINUOUS
 10
-1.6353375404
 20
-8.4412354415
 11
-1.6336788461
 21
-8.6890809354
  0
LINE
  5
592
100
AcDbEntity
  8
RACCORDO
100
AcDbLine
 62
253
  6
CONTINUOUS
 10
-1.6353375404
 20
-3.4412354415
 11
-1.6336788461
 21
-3.6890809354
  0
LINE
  5
593
100
AcDbEntity
  8
ASSI
100
AcDbLine
 62
253
  6
CONTINUOUS
 10
-1.6353375404
 20
-3.4412354415
 11
-1.6336788461
 21
-3.6890809354
  0
LINE
  5
594
100
AcDbEntity
  8
RACCORDO
100
AcDbLine
 62
253
  6
CONTINUOUS
 10
-1.6353375404
 20
1.5587645585
 11
-1.6336788461
 21
1.3109190646
  0
LINE
  5
595
100
AcDbEntity
  8
ASSI
100
AcDbLine
 62
253
  6
CONTINUOUS
 10
-1.6353375404
 20
1.5587645585
 11
-1.6336788461
 21
1.3109190646
  0
LINE
  5
596
100
AcDbEntity
  8
RACCORDO
100
AcDbLine
 62
253
  6
CONTINUOUS
 10
-1.6353375404
 20
6.5587645585
 11
-1.6336788461
 21
6.3109190646
  0
LINE
  5
597
100
AcDbEntity
  8
ASSI
100
AcDbLine
 62
253
  6
CONTINUOUS
 10
-1.6353375404
 20
6.5587645585
 11
-1.6336788461
 21
6.3109190646
  0
LINE
  5
598
100
AcDbEntity
  8
RACCORDO
100
AcDbLine
 62
7
  6
CONTINUOUS
 10
-1.3330685641
 20
-8.9584055085
 11
-1.3345004648
 21
-8.743687073
  0
LINE
  5
599
100
AcDbEntity
  8
RACCORDO
100
AcDbLine
 62
7
  6
CONTINUOUS
 10
-1.3330685641
 20
-3.9584055085
 11
-1.3345004648
 21
-3.743687073
  0
LINE
  5
59A
100
AcDbEntity
  8
RACCORDO
100
AcDbLine
 62
7
  6
CONTINUOUS
 10
-1.3330685641
 20
1.0415944915
 11
-1.3345004648
 21
1.256312927
  0
LINE
  5
59B
100
AcDbEntity
  8
RACCORDO
100
AcDbLine
 62
7
  6
CONTINUOUS
 10
-1.3330685641
 20
6.0415944915
 11
-1.3345004648
 21
6.256312927
  0
LINE
  5
59C
100
AcDbEntity
  8
ASSI
100
AcDbLine
 62
7
  6
CONTINUOUS
 10
-1.3342242574
 20
-8.7892638309
 11
-1.3355513087
 21
-8.5467291403
  0
LINE
  5
59D
100
AcDbEntity
  8
ASSI
100
AcDbLine
 62
7
  6
CONTINUOUS
 10
-1.3342242574
 20
-3.7892638309
 11
-1.3355513087
 21
-3.5467291403
  0
LINE
  5
59E
100
AcDbEntity
  8
ASSI
100
AcDbLine
 62
7
  6
CONTINUOUS
 10
-1.3342242574
 20
1.2107361691
 11
-1.3355513087
 21
1.4532708597
  0
LINE
  5
59F
100
AcDbEntity
  8
ASSI
100
AcDbLine
 62
7
  6
CONTINUOUS
 10
-1.3342242574
 20
6.2107361691
 11
-1.3355513087
 21
6.4532708597
  0
LINE
  5
5A0
100
AcDbEntity
  8
RACCORDO
100
AcDbLine
 62
7
  6
CONTINUOUS
 10
-1.3345004648
 20
-8.743687073
 11
-1.3356001229
 21
-8.5365284256
  0
LINE
  5
5A1
100
AcDbEntity
  8
RACCORDO
100
AcDbLine
 62
7
  6
CONTINUOUS
 10
-1.3345004648
 20
-3.743687073
 11
-1.3356001229
 21
-3.5365284256
  0
LINE
  5
5A2
100
AcDbEntity
  8
RACCORDO
100
AcDbLine
 62
7
  6
CONTINUOUS
 10
-1.3345004648
 20
1.256312927
 11
-1.3356001229
 21
1.4634715744
  0
LINE
  5
5A3
100
AcDbEntity
  8
RACCORDO
100
AcDbLine
 62
7
  6
CONTINUOUS
 10
-1.3345004648
 20
6.256312927
 11
-1.3357451243
 21
6.4944581508
  0
LINE
  5
5A4
100
AcDbEntity
  8
RACCORDO
100
AcDbLine
 62
253
  6
CONTINUOUS
 10
-1.6366379938
 20
-8.1724658543
 11
-1.6353375404
 21
-8.4412354415
  0
LINE
  5
5A5
100
AcDbEntity
  8
ASSI
100
AcDbLine
 62
253
  6
CONTINUOUS
 10
-1.6366379938
 20
-8.1724658543
 11
-1.6353375404
 21
-8.4412354415
  0
LINE
  5
5A6
100
AcDbEntity
  8
RACCORDO
100
AcDbLine
 62
253
  6
CONTINUOUS
 10
-1.6366379938
 20
-3.1724658543
 11
-1.6353375404
 21
-3.4412354415
  0
LINE
  5
5A7
100
AcDbEntity
  8
ASSI
100
AcDbLine
 62
253
  6
CONTINUOUS
 10
-1.6366379938
 20
-3.1724658543
 11
-1.6353375404
 21
-3.4412354415
  0
LINE
  5
5A8
100
AcDbEntity
  8
RACCORDO
100
AcDbLine
 62
253
  6
CONTINUOUS
 10
-1.6366379938
 20
1.8275341457
 11
-1.6353375404
 21
1.5587645585
  0
LINE
  5
5A9
100
AcDbEntity
  8
ASSI
100
AcDbLine
 62
253
  6
CONTINUOUS
 10
-1.6366379938
 20
1.8275341457
 11
-1.6353375404
 21
1.5587645585
  0
LINE
  5
5AA
100
AcDbEntity
  8
RACCORDO
100
AcDbLine
 62
253
  6
CONTINUOUS
 10
-1.6366379938
 20
6.8275341457
 11
-1.6353375404
 21
6.5587645585
  0
LINE
  5
5AB
100
AcDbEntity
  8
ASSI
100
AcDbLine
 62
253
  6
CONTINUOUS
 10
-1.6366379938
 20
6.8275341457
 11
-1.6353375404
 21
6.5587645585
  0
LINE
  5
5AC
100
AcDbEntity
  8
ASSI
100
AcDbLine
 62
7
  6
CONTINUOUS
 10
-1.3355513087
 20
-8.5467291403
 11
-1.3366502018
 21
-8.2812173168
  0
LINE
  5
5AD
100
AcDbEntity
  8
RACCORDO
100
AcDbLine
 62
7
  6
CONTINUOUS
 10
-1.3356001229
 20
-8.5365284256
 11
-1.3366559824
 21
-8.2795594714
  0
LINE
  5
5AE
100
AcDbEntity
  8
ASSI
100
AcDbLine
 62
7
  6
CONTINUOUS
 10
-1.3355513087
 20
-3.5467291403
 11
-1.3366502018
 21
-3.2812173168
  0
LINE
  5
5AF
100
AcDbEntity
  8
RACCORDO
100
AcDbLine
 62
7
  6
CONTINUOUS
 10
-1.3356001229
 20
-3.5365284256
 11
-1.3366559824
 21
-3.2795594714
  0
LINE
  5
5B0
100
AcDbEntity
  8
ASSI
100
AcDbLine
 62
7
  6
CONTINUOUS
 10
-1.3355513087
 20
1.4532708597
 11
-1.3366502018
 21
1.7187826832
  0
LINE
  5
5B1
100
AcDbEntity
  8
RACCORDO
100
AcDbLine
 62
7
  6
CONTINUOUS
 10
-1.3356001229
 20
1.4634715744
 11
-1.3366559824
 21
1.7204405286
  0
LINE
  5
5B2
100
AcDbEntity
  8
ASSI
100
AcDbLine
 62
7
  6
CONTINUOUS
 10
-1.3355513087
 20
6.4532708597
 11
-1.3366502018
 21
6.7187826832
  0
LINE
  5
5B3
100
AcDbEntity
  8
RACCORDO
100
AcDbLine
 62
7
  6
CONTINUOUS
 10
-1.3357451243
 20
6.4944581508
 11
-1.336770172
 21
6.7539561524
  0
LINE
  5
5B4
100
AcDbEntity
  8
RACCORDO
100
AcDbLine
 62
7
  6
CONTINUOUS
 10
-1.3366559824
 20
-8.2795594714
 11
-1.3368803177
 21
-8.2122380194
  0
LINE
  5
5B5
100
AcDbEntity
  8
ASSI
100
AcDbLine
 62
7
  6
CONTINUOUS
 10
-1.3366502018
 20
-8.2812173168
 11
-1.3368823136
 21
-8.211611169
  0
LINE
  5
5B6
100
AcDbEntity
  8
RACCORDO
100
AcDbLine
 62
7
  6
CONTINUOUS
 10
-1.3366559824
 20
-3.2795594714
 11
-1.3368803177
 21
-3.2122380194
  0
LINE
  5
5B7
100
AcDbEntity
  8
ASSI
100
AcDbLine
 62
7
  6
CONTINUOUS
 10
-1.3366502018
 20
-3.2812173168
 11
-1.3368823136
 21
-3.211611169
  0
LINE
  5
5B8
100
AcDbEntity
  8
RACCORDO
100
AcDbLine
 62
7
  6
CONTINUOUS
 10
-1.3366559824
 20
1.7204405286
 11
-1.3368803177
 21
1.7877619806
  0
LINE
  5
5B9
100
AcDbEntity
  8
ASSI
100
AcDbLine
 62
7
  6
CONTINUOUS
 10
-1.3366502018
 20
1.7187826832
 11
-1.3368823136
 21
1.788388831
  0
LINE
  5
5BA
100
AcDbEntity
  8
RACCORDO
100
AcDbLine
 62
253
  6
CONTINUOUS
 10
-1.6375539362
 20
-7.8878988472
 11
-1.6366379938
 21
-8.1724658543
  0
LINE
  5
5BB
100
AcDbEntity
  8
ASSI
100
AcDbLine
 62
253
  6
CONTINUOUS
 10
-1.6375539362
 20
-7.8878988472
 11
-1.6366379938
 21
-8.1724658543
  0
LINE
  5
5BC
100
AcDbEntity
  8
RACCORDO
100
AcDbLine
 62
253
  6
CONTINUOUS
 10
-1.6375539362
 20
-2.8878988472
 11
-1.6366379938
 21
-3.1724658543
  0
LINE
  5
5BD
100
AcDbEntity
  8
ASSI
100
AcDbLine
 62
253
  6
CONTINUOUS
 10
-1.6375539362
 20
-2.8878988472
 11
-1.6366379938
 21
-3.1724658543
  0
LINE
  5
5BE
100
AcDbEntity
  8
RACCORDO
100
AcDbLine
 62
253
  6
CONTINUOUS
 10
-1.6375539362
 20
2.1121011528
 11
-1.6366379938
 21
1.8275341457
  0
LINE
  5
5BF
100
AcDbEntity
  8
ASSI
100
AcDbLine
 62
253
  6
CONTINUOUS
 10
-1.6375539362
 20
2.1121011528
 11
-1.6366379938
 21
1.8275341457
  0
LINE
  5
5C0
100
AcDbEntity
  8
RACCORDO
100
AcDbLine
 62
253
  6
CONTINUOUS
 10
-1.6375539362
 20
7.1121011528
 11
-1.6366379938
 21
6.8275341457
  0
LINE
  5
5C1
100
AcDbEntity
  8
ASSI
100
AcDbLine
 62
253
  6
CONTINUOUS
 10
-1.6375539362
 20
7.1121011528
 11
-1.6366379938
 21
6.8275341457
  0
LINE
  5
5C2
100
AcDbEntity
  8
RACCORDO
100
AcDbLine
 62
7
  6
CONTINUOUS
 10
-1.3368803177
 20
-8.2122380194
 11
-1.3372817676
 21
-8.074237729
  0
LINE
  5
5C3
100
AcDbEntity
  8
RACCORDO
100
AcDbLine
 62
7
  6
CONTINUOUS
 10
-1.3368803177
 20
-3.2122380194
 11
-1.3372817676
 21
-3.074237729
  0
LINE
  5
5C4
100
AcDbEntity
  8
RACCORDO
100
AcDbLine
 62
7
  6
CONTINUOUS
 10
-1.3368803177
 20
1.7877619806
 11
-1.3372817676
 21
1.9257622709
  0
LINE
  5
5C5
100
AcDbEntity
  8
ASSI
100
AcDbLine
 62
7
  6
CONTINUOUS
 10
-1.3368823136
 20
-8.211611169
 11
-1.3373884416
 21
-8.0325912345
  0
LINE
  5
5C6
100
AcDbEntity
  8
ASSI
100
AcDbLine
 62
7
  6
CONTINUOUS
 10
-1.3368823136
 20
-3.211611169
 11
-1.3373884416
 21
-3.0325912345
  0
LINE
  5
5C7
100
AcDbEntity
  8
ASSI
100
AcDbLine
 62
7
  6
CONTINUOUS
 10
-1.3368823136
 20
1.788388831
 11
-1.3373884416
 21
1.9674087655
  0
LINE
  5
5C8
100
AcDbEntity
  8
RACCORDO
100
AcDbLine
 62
7
  6
CONTINUOUS
 10
-1.3372817676
 20
-8.074237729
 11
-1.3377564294
 21
-7.860084467
  0
LINE
  5
5C9
100
AcDbEntity
  8
RACCORDO
100
AcDbLine
 62
7
  6
CONTINUOUS
 10
-1.3372817676
 20
-3.074237729
 11
-1.3377564294
 21
-2.860084467
  0
LINE
  5
5CA
100
AcDbEntity
  8
RACCORDO
100
AcDbLine
 62
7
  6
CONTINUOUS
 10
-1.3372817676
 20
1.9257622709
 11
-1.3377564294
 21
2.139915533
  0
LINE
  5
5CB
100
AcDbEntity
  8
RACCORDO
100
AcDbLine
 62
7
  6
CONTINUOUS
 10
-1.336770172
 20
6.7539561524
 11
-1.337818763
 21
7.1762785833
  0
LINE
  5
5CC
100
AcDbEntity
  8
RACCORDO
100
AcDbLine
 62
253
  6
CONTINUOUS
 10
-1.6380715084
 20
-7.5929985387
 11
-1.6375539362
 21
-7.8878988472
  0
LINE
  5
5CD
100
AcDbEntity
  8
ASSI
100
AcDbLine
 62
253
  6
CONTINUOUS
 10
-1.6380715084
 20
-7.5929985387
 11
-1.6375539362
 21
-7.8878988472
  0
LINE
  5
5CE
100
AcDbEntity
  8
RACCORDO
100
AcDbLine
 62
253
  6
CONTINUOUS
 10
-1.6380715084
 20
-2.5929985387
 11
-1.6375539362
 21
-2.8878988472
  0
LINE
  5
5CF
100
AcDbEntity
  8
ASSI
100
AcDbLine
 62
253
  6
CONTINUOUS
 10
-1.6380715084
 20
-2.5929985387
 11
-1.6375539362
 21
-2.8878988472
  0
LINE
  5
5D0
100
AcDbEntity
  8
RACCORDO
100
AcDbLine
 62
253
  6
CONTINUOUS
 10
-1.6380715084
 20
2.4070014613
 11
-1.6375539362
 21
2.1121011528
  0
LINE
  5
5D1
100
AcDbEntity
  8
ASSI
100
AcDbLine
 62
253
  6
CONTINUOUS
 10
-1.6380715084
 20
2.4070014613
 11
-1.6375539362
 21
2.1121011528
  0
LINE
  5
5D2
100
AcDbEntity
  8
RACCORDO
100
AcDbLine
 62
253
  6
CONTINUOUS
 10
-1.6380715084
 20
7.4070014613
 11
-1.6375539362
 21
7.1121011528
  0
LINE
  5
5D3
100
AcDbEntity
  8
ASSI
100
AcDbLine
 62
253
  6
CONTINUOUS
 10
-1.6380715084
 20
7.4070014613
 11
-1.6375539362
 21
7.1121011528
  0
LINE
  5
5D4
100
AcDbEntity
  8
ASSI
100
AcDbLine
 62
7
  6
CONTINUOUS
 10
-1.3373884416
 20
-8.0325912345
 11
-1.3378980051
 21
-7.7723386254
  0
LINE
  5
5D5
100
AcDbEntity
  8
ASSI
100
AcDbLine
 62
7
  6
CONTINUOUS
 10
-1.3373884416
 20
-3.0325912345
 11
-1.3378980051
 21
-2.7723386254
  0
LINE
  5
5D6
100
AcDbEntity
  8
ASSI
100
AcDbLine
 62
7
  6
CONTINUOUS
 10
-1.3373884416
 20
1.9674087655
 11
-1.3378980051
 21
2.2276613746
  0
LINE
  5
5D7
100
AcDbEntity
  8
ASSI
100
AcDbLine
 62
7
  6
CONTINUOUS
 10
-1.3366502018
 20
6.7187826832
 11
-1.3379498972
 21
7.2655018446
  0
LINE
  5
5D8
100
AcDbEntity
  8
RACCORDO
100
AcDbLine
 62
7
  6
CONTINUOUS
 10
-1.3377564294
 20
-7.860084467
 11
-1.3380187473
 21
-7.6768911712
  0
LINE
  5
5D9
100
AcDbEntity
  8
RACCORDO
100
AcDbLine
 62
7
  6
CONTINUOUS
 10
-1.3377564294
 20
-2.860084467
 11
-1.3380187473
 21
-2.6768911712
  0
LINE
  5
5DA
100
AcDbEntity
  8
RACCORDO
100
AcDbLine
 62
7
  6
CONTINUOUS
 10
-1.3377564294
 20
2.139915533
 11
-1.3380187473
 21
2.3231088288
  0
LINE
  5
5DB
100
AcDbEntity
  8
ASSI
100
AcDbLine
 62
7
  6
CONTINUOUS
 10
-1.3378980051
 20
-7.7723386254
 11
-1.3380750248
 21
-7.6203094514
  0
LINE
  5
5DC
100
AcDbEntity
  8
ASSI
100
AcDbLine
 62
7
  6
CONTINUOUS
 10
-1.3378980051
 20
-2.7723386254
 11
-1.3380750248
 21
-2.6203094514
  0
LINE
  5
5DD
100
AcDbEntity
  8
ASSI
100
AcDbLine
 62
7
  6
CONTINUOUS
 10
-1.3378980051
 20
2.2276613746
 11
-1.3380750248
 21
2.3796905486
  0
LINE
  5
5DE
100
AcDbEntity
  8
RACCORDO
100
AcDbLine
 62
7
  6
CONTINUOUS
 10
-1.3380187473
 20
-7.6768911712
 11
-1.3381192453
 21
-7.5657023
  0
LINE
  5
5DF
100
AcDbEntity
  8
RACCORDO
100
AcDbLine
 62
7
  6
CONTINUOUS
 10
-1.3380187473
 20
-2.6768911712
 11
-1.3381192453
 21
-2.5657023
  0
LINE
  5
5E0
100
AcDbEntity
  8
RACCORDO
100
AcDbLine
 62
7
  6
CONTINUOUS
 10
-1.3380187473
 20
2.3231088288
 11
-1.3381192453
 21
2.4342977
  0
LINE
  5
5E1
100
AcDbEntity
  8
ASSI
100
AcDbLine
 62
7
  6
CONTINUOUS
 10
-1.3380750248
 20
-7.6203094514
 11
-1.3381845141
 21
-7.428732665
  0
LINE
  5
5E2
100
AcDbEntity
  8
ASSI
100
AcDbLine
 62
7
  6
CONTINUOUS
 10
-1.3380750248
 20
-2.6203094514
 11
-1.3381845141
 21
-2.428732665
  0
LINE
  5
5E3
100
AcDbEntity
  8
ASSI
100
AcDbLine
 62
7
  6
CONTINUOUS
 10
-1.3380750248
 20
2.3796905486
 11
-1.3381845141
 21
2.571267335
  0
LINE
  5
5E4
100
AcDbEntity
  8
ASSI
100
AcDbLine
 62
7
  6
CONTINUOUS
 10
-1.3379498972
 20
7.2655018446
 11
-1.3381905156
 21
7.60962576
  0
LINE
  5
5E5
100
AcDbEntity
  8
DRAFT
100
AcDbLine
 62
7
  6
CONTINUOUS
 10
-2.6515259647
 20
-14.1900299127
 11
-2.6515259647
 21
-13.394824179
  0
LINE
  5
5E6
100
AcDbEntity
  8
DRAFT
100
AcDbLine
 62
7
  6
CONTINUOUS
 10
-2.6515259647
 20
26.6575410158
 11
-2.6515259647
 21
27.4527467494
  0
LINE
  5
5E7
100
AcDbEntity
  8
DRAFT
100
AcDbLine
 62
7
  6
CONTINUOUS
 10
-2.6253433673
 20
-14.2686415816
 11
-2.6253433673
 21
-13.3686415816
  0
LINE
  5
5E8
100
AcDbEntity
  8
DRAFT
100
AcDbLine
 62
7
  6
CONTINUOUS
 10
-2.6253433673
 20
26.6313584184
 11
-2.6253433673
 21
27.5313584184
  0
LINE
  5
5E9
100
AcDbEntity
  8
ASSI
100
AcDbLine
 62
7
  6
CONTINUOUS
 10
-2.4753433673
 20
9.7813584184
 11
-2.4753433673
 21
5.4813584184
  0
LINE
  5
5EA
100
AcDbEntity
  8
ASSI
100
AcDbLine
 62
7
  6
CONTINUOUS
 10
-2.4753433673
 20
4.7813584184
 11
-2.4753433673
 21
0.4813584184
  0
LINE
  5
5EB
100
AcDbEntity
  8
ASSI
100
AcDbLine
 62
7
  6
CONTINUOUS
 10
-2.4753433673
 20
-0.2186415816
 11
-2.4753433673
 21
-4.5186415816
  0
LINE
  5
5EC
100
AcDbEntity
  8
ASSI
100
AcDbLine
 62
7
  6
CONTINUOUS
 10
-2.4753433673
 20
-5.2186415816
 11
-2.4753433673
 21
-9.5186415816
  0
LINE
  5
5ED
100
AcDbEntity
  8
RACCORDO
100
AcDbLine
 62
253
  6
CONTINUOUS
 10
-1.8797109706
 20
-17.8642697476
 11
-1.8797109706
 21
-16.996472798
  0
LINE
  5
5EE
100
AcDbEntity
  8
RACCORDO
100
AcDbLine
 62
253
  6
CONTINUOUS
 10
-1.8797109706
 20
30.2591896347
 11
-1.8797109706
 21
31.1269865844
  0
LINE
  5
5EF
100
AcDbEntity
  8
RACCORDO
100
AcDbLine
 62
253
  6
CONTINUOUS
 10
-1.6381741476
 20
7.7065564606
 11
-1.6380715084
 21
7.4070014613
  0
LINE
  5
5F0
100
AcDbEntity
  8
ASSI
100
AcDbLine
 62
253
  6
CONTINUOUS
 10
-1.6381741476
 20
7.7065564606
 11
-1.6380715084
 21
7.4070014613
  0
LINE
  5
5F1
100
AcDbEntity
  8
RACCORDO
100
AcDbLine
 62
253
  6
CONTINUOUS
 10
-1.6381741476
 20
2.7065564606
 11
-1.6380715084
 21
2.4070014613
  0
LINE
  5
5F2
100
AcDbEntity
  8
ASSI
100
AcDbLine
 62
253
  6
CONTINUOUS
 10
-1.6381741476
 20
2.7065564606
 11
-1.6380715084
 21
2.4070014613
  0
LINE
  5
5F3
100
AcDbEntity
  8
RACCORDO
100
AcDbLine
 62
253
  6
CONTINUOUS
 10
-1.6381741476
 20
-2.2934435394
 11
-1.6380715084
 21
-2.5929985387
  0
LINE
  5
5F4
100
AcDbEntity
  8
ASSI
100
AcDbLine
 62
253
  6
CONTINUOUS
 10
-1.6381741476
 20
-2.2934435394
 11
-1.6380715084
 21
-2.5929985387
  0
LINE
  5
5F5
100
AcDbEntity
  8
RACCORDO
100
AcDbLine
 62
253
  6
CONTINUOUS
 10
-1.6381741476
 20
-7.2934435394
 11
-1.6380715084
 21
-7.5929985387
  0
LINE
  5
5F6
100
AcDbEntity
  8
ASSI
100
AcDbLine
 62
253
  6
CONTINUOUS
 10
-1.6381741476
 20
-7.2934435394
 11
-1.6380715084
 21
-7.5929985387
  0
LINE
  5
5F7
100
AcDbEntity
  8
RACCORDO
100
AcDbLine
 62
253
  6
CONTINUOUS
 10
-1.6297152013
 20
-17.6142739784
 11
-1.6297152013
 21
-17.2129791489
  0
LINE
  5
5F8
100
AcDbEntity
  8
RACCORDO
100
AcDbLine
 62
253
  6
CONTINUOUS
 10
-1.6297152013
 20
30.4756959857
 11
-1.6297152013
 21
30.8769908152
  0
LINE
  5
5F9
100
AcDbEntity
  8
RACCORDO
100
AcDbLine
 62
7
  6
CONTINUOUS
 10
-1.6253433673
 20
-17.6186458124
 11
-1.6253433673
 21
-15.7686415816
  0
LINE
  5
5FA
100
AcDbEntity
  8
RACCORDO
100
AcDbLine
 62
7
  6
CONTINUOUS
 10
-1.6253433673
 20
29.0313584184
 11
-1.6253433673
 21
30.8813626492
  0
LINE
  5
5FB
100
AcDbEntity
  8
RACCORDO
100
AcDbLine
 62
7
  6
CONTINUOUS
 10
-1.3381192453
 20
-7.5657023
 11
-1.3381912158
 21
-7.3795311856
  0
LINE
  5
5FC
100
AcDbEntity
  8
RACCORDO
100
AcDbLine
 62
7
  6
CONTINUOUS
 10
-1.3381192453
 20
-2.5657023
 11
-1.3381912158
 21
-2.3795311856
  0
LINE
  5
5FD
100
AcDbEntity
  8
RACCORDO
100
AcDbLine
 62
7
  6
CONTINUOUS
 10
-1.3381192453
 20
2.4342977
 11
-1.3381912158
 21
2.6204688144
  0
LINE
  5
5FE
100
AcDbEntity
  8
RACCORDO
100
AcDbLine
 62
7
  6
CONTINUOUS
 10
-1.337818763
 20
7.1762785833
 11
-1.3381902638
 21
7.6576948513
  0
LINE
  5
5FF
100
AcDbEntity
  8
ASSI
100
AcDbLine
 62
7
  6
CONTINUOUS
 10
-1.2753433673
 20
-9.7318694767
 11
-1.2753433673
 21
-5.0054136866
  0
LINE
  5
600
100
AcDbEntity
  8
ASSI
100
AcDbLine
 62
7
  6
CONTINUOUS
 10
-1.2753433673
 20
-4.7318694767
 11
-1.2753433673
 21
-0.0054136866
  0
LINE
  5
601
100
AcDbEntity
  8
ASSI
100
AcDbLine
 62
7
  6
CONTINUOUS
 10
-1.2753433673
 20
0.2681305233
 11
-1.2753433673
 21
4.9945863134
  0
LINE
  5
602
100
AcDbEntity
  8
ASSI
100
AcDbLine
 62
7
  6
CONTINUOUS
 10
-1.2753433673
 20
5.2681305233
 11
-1.2753433673
 21
9.9945863134
  0
LINE
  5
603
100
AcDbEntity
  8
ASSI
100
AcDbLine
 62
7
  6
CONTINUOUS
 10
-1.3381845141
 20
2.571267335
 11
-1.3381596363
 21
2.762685935
  0
LINE
  5
604
100
AcDbEntity
  8
ASSI
100
AcDbLine
 62
7
  6
CONTINUOUS
 10
-1.3381845141
 20
-2.428732665
 11
-1.3381596363
 21
-2.237314065
  0
LINE
  5
605
100
AcDbEntity
  8
ASSI
100
AcDbLine
 62
7
  6
CONTINUOUS
 10
-1.3381845141
 20
-7.428732665
 11
-1.3381596363
 21
-7.237314065
  0
LINE
  5
606
100
AcDbEntity
  8
RACCORDO
100
AcDbLine
 62
7
  6
CONTINUOUS
 10
-1.3381912158
 20
2.6204688144
 11
-1.3381350944
 21
2.8060914169
  0
LINE
  5
607
100
AcDbEntity
  8
RACCORDO
100
AcDbLine
 62
7
  6
CONTINUOUS
 10
-1.3381912158
 20
-2.3795311856
 11
-1.3381350944
 21
-2.1939085831
  0
LINE
  5
608
100
AcDbEntity
  8
RACCORDO
100
AcDbLine
 62
7
  6
CONTINUOUS
 10
-1.3381912158
 20
-7.3795311856
 11
-1.3381350944
 21
-7.1939085831
  0
LINE
  5
609
100
AcDbEntity
  8
ASSI
100
AcDbLine
 62
7
  6
CONTINUOUS
 10
-1.3381905156
 20
7.60962576
 11
-1.3380044246
 21
7.9519793656
  0
LINE
  5
60A
100
AcDbEntity
  8
ASSI
100
AcDbLine
 62
7
  6
CONTINUOUS
 10
-1.3381596363
 20
2.762685935
 11
-1.3380449392
 21
2.9143870814
  0
LINE
  5
60B
100
AcDbEntity
  8
ASSI
100
AcDbLine
 62
7
  6
CONTINUOUS
 10
-1.3381596363
 20
-2.237314065
 11
-1.3380449392
 21
-2.0856129186
  0
LINE
  5
60C
100
AcDbEntity
  8
RACCORDO
100
AcDbLine
 62
7
  6
CONTINUOUS
 10
-1.3381350944
 20
-2.1939085831
 11
-1.3380428474
 21
-2.0835592981
  0
LINE
  5
60D
100
AcDbEntity
  8
ASSI
100
AcDbLine
 62
7
  6
CONTINUOUS
 10
-1.3381596363
 20
-7.237314065
 11
-1.3380449392
 21
-7.0856129186
  0
LINE
  5
60E
100
AcDbEntity
  8
RACCORDO
100
AcDbLine
 62
7
  6
CONTINUOUS
 10
-1.3381350944
 20
-7.1939085831
 11
-1.3380428474
 21
-7.0835592981
  0
LINE
  5
60F
100
AcDbEntity
  8
RACCORDO
100
AcDbLine
 62
253
  6
CONTINUOUS
 10
-1.637863437
 20
8.0045155709
 11
-1.6381741476
 21
7.7065564606
  0
LINE
  5
610
100
AcDbEntity
  8
ASSI
100
AcDbLine
 62
253
  6
CONTINUOUS
 10
-1.637863437
 20
8.0045155709
 11
-1.6381741476
 21
7.7065564606
  0
LINE
  5
611
100
AcDbEntity
  8
RACCORDO
100
AcDbLine
 62
253
  6
CONTINUOUS
 10
-1.637863437
 20
3.0045155709
 11
-1.6381741476
 21
2.7065564606
  0
LINE
  5
612
100
AcDbEntity
  8
ASSI
100
AcDbLine
 62
253
  6
CONTINUOUS
 10
-1.637863437
 20
3.0045155709
 11
-1.6381741476
 21
2.7065564606
  0
LINE
  5
613
100
AcDbEntity
  8
RACCORDO
100
AcDbLine
 62
253
  6
CONTINUOUS
 10
-1.637863437
 20
-1.9954844291
 11
-1.6381741476
 21
-2.2934435394
  0
LINE
  5
614
100
AcDbEntity
  8
ASSI
100
AcDbLine
 62
253
  6
CONTINUOUS
 10
-1.637863437
 20
-1.9954844291
 11
-1.6381741476
 21
-2.2934435394
  0
LINE
  5
615
100
AcDbEntity
  8
RACCORDO
100
AcDbLine
 62
253
  6
CONTINUOUS
 10
-1.637863437
 20
-6.9954844291
 11
-1.6381741476
 21
-7.2934435394
  0
LINE
  5
616
100
AcDbEntity
  8
ASSI
100
AcDbLine
 62
253
  6
CONTINUOUS
 10
-1.637863437
 20
-6.9954844291
 11
-1.6381741476
 21
-7.2934435394
  0
LINE
  5
617
100
AcDbEntity
  8
RACCORDO
100
AcDbLine
 62
7
  6
CONTINUOUS
 10
-1.3381902638
 20
7.6576948513
 11
-1.3378001371
 21
8.0974096936
  0
LINE
  5
618
100
AcDbEntity
  8
RACCORDO
100
AcDbLine
 62
7
  6
CONTINUOUS
 10
-1.3381350944
 20
2.8060914169
 11
-1.3378578272
 21
3.0615773672
  0
LINE
  5
619
100
AcDbEntity
  8
RACCORDO
100
AcDbLine
 62
7
  6
CONTINUOUS
 10
-1.3380428474
 20
-2.0835592981
 11
-1.3378578272
 21
-1.9384226328
  0
LINE
  5
61A
100
AcDbEntity
  8
RACCORDO
100
AcDbLine
 62
7
  6
CONTINUOUS
 10
-1.3380428474
 20
-7.0835592981
 11
-1.3378578272
 21
-6.9384226328
  0
LINE
  5
61B
100
AcDbEntity
  8
ASSI
100
AcDbLine
 62
7
  6
CONTINUOUS
 10
-1.3380449392
 20
2.9143870814
 11
-1.337794779
 21
3.100587927
  0
LINE
  5
61C
100
AcDbEntity
  8
ASSI
100
AcDbLine
 62
7
  6
CONTINUOUS
 10
-1.3380449392
 20
-2.0856129186
 11
-1.337794779
 21
-1.899412073
  0
LINE
  5
61D
100
AcDbEntity
  8
ASSI
100
AcDbLine
 62
7
  6
CONTINUOUS
 10
-1.3380449392
 20
-7.0856129186
 11
-1.337794779
 21
-6.899412073
  0
LINE
  5
61E
100
AcDbEntity
  8
RACCORDO
100
AcDbLine
 62
7
  6
CONTINUOUS
 10
-1.3378578272
 20
3.0615773672
 11
-1.3374428546
 21
3.2732344959
  0
LINE
  5
61F
100
AcDbEntity
  8
RACCORDO
100
AcDbLine
 62
7
  6
CONTINUOUS
 10
-1.3378578272
 20
-1.9384226328
 11
-1.3374428546
 21
-1.7267655041
  0
LINE
  5
620
100
AcDbEntity
  8
RACCORDO
100
AcDbLine
 62
7
  6
CONTINUOUS
 10
-1.3378578272
 20
-6.9384226328
 11
-1.3374428546
 21
-6.7267655041
  0
LINE
  5
621
100
AcDbEntity
  8
ASSI
100
AcDbLine
 62
7
  6
CONTINUOUS
 10
-1.3380044246
 20
7.9519793656
 11
-1.3372429393
 21
8.3516908267
  0
LINE
  5
622
100
AcDbEntity
  8
ASSI
100
AcDbLine
 62
7
  6
CONTINUOUS
 10
-1.337794779
 20
3.100587927
 11
-1.3373353014
 21
3.3166487299
  0
LINE
  5
623
100
AcDbEntity
  8
ASSI
100
AcDbLine
 62
7
  6
CONTINUOUS
 10
-1.337794779
 20
-1.899412073
 11
-1.3373353014
 21
-1.6833512701
  0
LINE
  5
624
100
AcDbEntity
  8
ASSI
100
AcDbLine
 62
7
  6
CONTINUOUS
 10
-1.337794779
 20
-6.899412073
 11
-1.3373353014
 21
-6.6833512701
  0
LINE
  5
625
100
AcDbEntity
  8
RACCORDO
100
AcDbLine
 62
253
  6
CONTINUOUS
 10
-1.6371442573
 20
8.294975578
 11
-1.637863437
 21
8.0045155709
  0
LINE
  5
626
100
AcDbEntity
  8
ASSI
100
AcDbLine
 62
253
  6
CONTINUOUS
 10
-1.6371442573
 20
8.294975578
 11
-1.637863437
 21
8.0045155709
  0
LINE
  5
627
100
AcDbEntity
  8
RACCORDO
100
AcDbLine
 62
253
  6
CONTINUOUS
 10
-1.6371442573
 20
3.294975578
 11
-1.637863437
 21
3.0045155709
  0
LINE
  5
628
100
AcDbEntity
  8
ASSI
100
AcDbLine
 62
253
  6
CONTINUOUS
 10
-1.6371442573
 20
3.294975578
 11
-1.637863437
 21
3.0045155709
  0
LINE
  5
629
100
AcDbEntity
  8
RACCORDO
100
AcDbLine
 62
253
  6
CONTINUOUS
 10
-1.6371442573
 20
-1.705024422
 11
-1.637863437
 21
-1.9954844291
  0
LINE
  5
62A
100
AcDbEntity
  8
ASSI
100
AcDbLine
 62
253
  6
CONTINUOUS
 10
-1.6371442573
 20
-1.705024422
 11
-1.637863437
 21
-1.9954844291
  0
LINE
  5
62B
100
AcDbEntity
  8
RACCORDO
100
AcDbLine
 62
253
  6
CONTINUOUS
 10
-1.6371442573
 20
-6.705024422
 11
-1.637863437
 21
-6.9954844291
  0
LINE
  5
62C
100
AcDbEntity
  8
ASSI
100
AcDbLine
 62
253
  6
CONTINUOUS
 10
-1.6371442573
 20
-6.705024422
 11
-1.637863437
 21
-6.9954844291
  0
LINE
  5
62D
100
AcDbEntity
  8
RACCORDO
100
AcDbLine
 62
7
  6
CONTINUOUS
 10
-1.3378001371
 20
8.0974096936
 11
-1.3369815529
 21
8.4423490211
  0
LINE
  5
62E
100
AcDbEntity
  8
RACCORDO
100
AcDbLine
 62
7
  6
CONTINUOUS
 10
-1.3374428546
 20
-1.7267655041
 11
-1.3370810131
 21
-1.5908676893
  0
LINE
  5
62F
100
AcDbEntity
  8
RACCORDO
100
AcDbLine
 62
7
  6
CONTINUOUS
 10
-1.3374428546
 20
-6.7267655041
 11
-1.3370810131
 21
-6.5908676893
  0
LINE
  5
630
100
AcDbEntity
  8
ASSI
100
AcDbLine
 62
7
  6
CONTINUOUS
 10
-1.3373353014
 20
-1.6833512701
 11
-1.3369428808
 21
-1.5451075771
  0
LINE
  5
631
100
AcDbEntity
  8
ASSI
100
AcDbLine
 62
7
  6
CONTINUOUS
 10
-1.3373353014
 20
-6.6833512701
 11
-1.3369428808
 21
-6.5451075771
  0
LINE
  5
632
100
AcDbEntity
  8
RACCORDO
100
AcDbLine
 62
7
  6
CONTINUOUS
 10
-1.3374428546
 20
3.2732344959
 11
-1.3366629342
 21
3.5400949013
  0
LINE
  5
633
100
AcDbEntity
  8
ASSI
100
AcDbLine
 62
7
  6
CONTINUOUS
 10
-1.3373353014
 20
3.3166487299
 11
-1.3364921505
 21
3.5878092803
  0
LINE
  5
634
100
AcDbEntity
  8
RACCORDO
100
AcDbLine
 62
7
  6
CONTINUOUS
 10
-1.3370810131
 20
-1.5908676893
 11
-1.3365497965
 21
-1.4279708566
  0
LINE
  5
635
100
AcDbEntity
  8
RACCORDO
100
AcDbLine
 62
7
  6
CONTINUOUS
 10
-1.3370810131
 20
-6.5908676893
 11
-1.3365497965
 21
-6.4279708566
  0
LINE
  5
636
100
AcDbEntity
  8
ASSI
100
AcDbLine
 62
7
  6
CONTINUOUS
 10
-1.3372429393
 20
8.3516908267
 11
-1.3358461127
 21
8.7461609748
  0
LINE
  5
637
100
AcDbEntity
  8
ASSI
100
AcDbLine
 62
7
  6
CONTINUOUS
 10
-1.3369428808
 20
-1.5451075771
 11
-1.3359824232
 21
-1.2848040979
  0
LINE
  5
638
100
AcDbEntity
  8
ASSI
100
AcDbLine
 62
7
  6
CONTINUOUS
 10
-1.3369428808
 20
-6.5451075771
 11
-1.3359824232
 21
-6.2848040979
  0
LINE
  5
639
100
AcDbEntity
  8
RACCORDO
100
AcDbLine
 62
253
  6
CONTINUOUS
 10
-1.6360301806
 20
8.5722965485
 11
-1.6371442573
 21
8.294975578
  0
LINE
  5
63A
100
AcDbEntity
  8
ASSI
100
AcDbLine
 62
253
  6
CONTINUOUS
 10
-1.6360301806
 20
8.5722965485
 11
-1.6371442573
 21
8.294975578
  0
LINE
  5
63B
100
AcDbEntity
  8
RACCORDO
100
AcDbLine
 62
253
  6
CONTINUOUS
 10
-1.6360301806
 20
3.5722965485
 11
-1.6371442573
 21
3.294975578
  0
LINE
  5
63C
100
AcDbEntity
  8
ASSI
100
AcDbLine
 62
253
  6
CONTINUOUS
 10
-1.6360301806
 20
3.5722965485
 11
-1.6371442573
 21
3.294975578
  0
LINE
  5
63D
100
AcDbEntity
  8
RACCORDO
100
AcDbLine
 62
253
  6
CONTINUOUS
 10
-1.6360301806
 20
-1.4277034515
 11
-1.6371442573
 21
-1.705024422
  0
LINE
  5
63E
100
AcDbEntity
  8
ASSI
100
AcDbLine
 62
253
  6
CONTINUOUS
 10
-1.6360301806
 20
-1.4277034515
 11
-1.6371442573
 21
-1.705024422
  0
LINE
  5
63F
100
AcDbEntity
  8
RACCORDO
100
AcDbLine
 62
253
  6
CONTINUOUS
 10
-1.6360301806
 20
-6.4277034515
 11
-1.6371442573
 21
-6.705024422
  0
LINE
  5
640
100
AcDbEntity
  8
ASSI
100
AcDbLine
 62
253
  6
CONTINUOUS
 10
-1.6360301806
 20
-6.4277034515
 11
-1.6371442573
 21
-6.705024422
  0
LINE
  5
641
100
AcDbEntity
  8
RACCORDO
100
AcDbLine
 62
7
  6
CONTINUOUS
 10
-1.3366629342
 20
3.5400949013
 11
-1.335661878
 21
3.7863206536
  0
LINE
  5
642
100
AcDbEntity
  8
RACCORDO
100
AcDbLine
 62
7
  6
CONTINUOUS
 10
-1.3369815529
 20
8.4423490211
 11
-1.3353798343
 21
8.8445193071
  0
LINE
  5
643
100
AcDbEntity
  8
ASSI
100
AcDbLine
 62
7
  6
CONTINUOUS
 10
-1.3364921505
 20
3.5878092803
 11
-1.3354176881
 21
3.8369174317
  0
LINE
  5
644
100
AcDbEntity
  8
RACCORDO
100
AcDbLine
 62
7
  6
CONTINUOUS
 10
-1.3365497965
 20
-1.4279708566
 11
-1.3355222589
 21
-1.1844090905
  0
LINE
  5
645
100
AcDbEntity
  8
RACCORDO
100
AcDbLine
 62
7
  6
CONTINUOUS
 10
-1.3365497965
 20
-6.4279708566
 11
-1.3355222589
 21
-6.1844090905
  0
LINE
  5
646
100
AcDbEntity
  8
ASSI
100
AcDbLine
 62
7
  6
CONTINUOUS
 10
-1.3359824232
 20
-6.2848040979
 11
-1.3351174991
 21
-6.1043783327
  0
LINE
  5
647
100
AcDbEntity
  8
RACCORDO
100
AcDbLine
 62
7
  6
CONTINUOUS
 10
-1.3355222589
 20
-6.1844090905
 11
-1.335087228
 21
-6.0986470904
  0
LINE
  5
648
100
AcDbEntity
  8
ASSI
100
AcDbLine
 62
7
  6
CONTINUOUS
 10
-1.3359824232
 20
-1.2848040979
 11
-1.3348071642
 21
-1.0471296848
  0
LINE
  5
649
100
AcDbEntity
  8
ASSI
100
AcDbLine
 62
7
  6
CONTINUOUS
 10
-1.3358461127
 20
8.7461609748
 11
-1.3346481482
 21
8.9809473768
  0
LINE
  5
64A
100
AcDbEntity
  8
RACCORDO
100
AcDbLine
 62
7
  6
CONTINUOUS
 10
-1.335661878
 20
3.7863206536
 11
-1.3343136292
 21
4.0374028293
  0
LINE
  5
64B
100
AcDbEntity
  8
RACCORDO
100
AcDbLine
 62
253
  6
CONTINUOUS
 10
-1.6345499404
 20
8.8312046235
 11
-1.6360301806
 21
8.5722965485
  0
LINE
  5
64C
100
AcDbEntity
  8
ASSI
100
AcDbLine
 62
253
  6
CONTINUOUS
 10
-1.6345499404
 20
8.8312046235
 11
-1.6360301806
 21
8.5722965485
  0
LINE
  5
64D
100
AcDbEntity
  8
RACCORDO
100
AcDbLine
 62
253
  6
CONTINUOUS
 10
-1.6345499404
 20
3.8312046235
 11
-1.6360301806
 21
3.5722965485
  0
LINE
  5
64E
100
AcDbEntity
  8
ASSI
100
AcDbLine
 62
253
  6
CONTINUOUS
 10
-1.6345499404
 20
3.8312046235
 11
-1.6360301806
 21
3.5722965485
  0
LINE
  5
64F
100
AcDbEntity
  8
RACCORDO
100
AcDbLine
 62
253
  6
CONTINUOUS
 10
-1.6345499404
 20
-1.1687953765
 11
-1.6360301806
 21
-1.4277034515
  0
LINE
  5
650
100
AcDbEntity
  8
ASSI
100
AcDbLine
 62
253
  6
CONTINUOUS
 10
-1.6345499404
 20
-1.1687953765
 11
-1.6360301806
 21
-1.4277034515
  0
LINE
  5
651
100
AcDbEntity
  8
RACCORDO
100
AcDbLine
 62
253
  6
CONTINUOUS
 10
-1.6345499404
 20
-6.1687953765
 11
-1.6360301806
 21
-6.4277034515
  0
LINE
  5
652
100
AcDbEntity
  8
ASSI
100
AcDbLine
 62
253
  6
CONTINUOUS
 10
-1.6345499404
 20
-6.1687953765
 11
-1.6360301806
 21
-6.4277034515
  0
LINE
  5
653
100
AcDbEntity
  8
ASSI
100
AcDbLine
 62
7
  6
CONTINUOUS
 10
-1.3354176881
 20
3.8369174317
 11
-1.3341551839
 21
4.0629798455
  0
LINE
  5
654
100
AcDbEntity
  8
RACCORDO
100
AcDbLine
 62
7
  6
CONTINUOUS
 10
-1.3355222589
 20
-1.1844090905
 11
-1.3341514412
 21
-0.9364246005
  0
LINE
  5
655
100
AcDbEntity
  8
RACCORDO
100
AcDbLine
 62
7
  6
CONTINUOUS
 10
-1.3353798343
 20
8.8445193071
 11
-1.333986759
 21
9.0893999674
  0
LINE
  5
656
100
AcDbEntity
  8
ASSI
100
AcDbLine
 62
7
  6
CONTINUOUS
 10
-1.3348071642
 20
-1.0471296848
 11
-1.3334610038
 21
-0.8327837412
  0
LINE
  5
657
100
AcDbEntity
  8
ASSI
100
AcDbLine
 62
7
  6
CONTINUOUS
 10
-1.3346481482
 20
8.9809473768
 11
-1.3332811986
 21
9.192357039
  0
LINE
  5
658
100
AcDbEntity
  8
RACCORDO
100
AcDbLine
 62
7
  6
CONTINUOUS
 10
-1.3343136292
 20
4.0374028293
 11
-1.3329488417
 21
4.2370691294
  0
LINE
  5
659
100
AcDbEntity
  8
RACCORDO
100
AcDbLine
 62
7
  6
CONTINUOUS
 10
-1.3341514412
 20
-0.9364246005
 11
-1.3327683409
 21
-0.7395331003
  0
LINE
  5
65A
100
AcDbEntity
  8
ASSI
100
AcDbLine
 62
7
  6
CONTINUOUS
 10
-1.3341551839
 20
4.0629798455
 11
-1.3327283563
 21
4.2655708139
  0
LINE
  5
65B
100
AcDbEntity
  8
RACCORDO
100
AcDbLine
 62
7
  6
CONTINUOUS
 10
-1.333986759
 20
9.0893999674
 11
-1.3325860014
 21
9.2835182031
  0
LINE
  5
65C
100
AcDbEntity
  8
RACCORDO
100
AcDbLine
 62
253
  6
CONTINUOUS
 10
-1.6327245556
 20
9.0668415845
 11
-1.6345499404
 21
8.8312046235
  0
LINE
  5
65D
100
AcDbEntity
  8
ASSI
100
AcDbLine
 62
253
  6
CONTINUOUS
 10
-1.6327245556
 20
9.0668415845
 11
-1.6345499404
 21
8.8312046235
  0
LINE
  5
65E
100
AcDbEntity
  8
RACCORDO
100
AcDbLine
 62
253
  6
CONTINUOUS
 10
-1.6327245556
 20
4.0668415845
 11
-1.6345499404
 21
3.8312046235
  0
LINE
  5
65F
100
AcDbEntity
  8
ASSI
100
AcDbLine
 62
253
  6
CONTINUOUS
 10
-1.6327245556
 20
4.0668415845
 11
-1.6345499404
 21
3.8312046235
  0
LINE
  5
660
100
AcDbEntity
  8
RACCORDO
100
AcDbLine
 62
253
  6
CONTINUOUS
 10
-1.6327245556
 20
-0.9331584155
 11
-1.6345499404
 21
-1.1687953765
  0
LINE
  5
661
100
AcDbEntity
  8
ASSI
100
AcDbLine
 62
253
  6
CONTINUOUS
 10
-1.6327245556
 20
-0.9331584155
 11
-1.6345499404
 21
-1.1687953765
  0
LINE
  5
662
100
AcDbEntity
  8
RACCORDO
100
AcDbLine
 62
253
  6
CONTINUOUS
 10
-1.6327245556
 20
-5.9331584155
 11
-1.6345499404
 21
-6.1687953765
  0
LINE
  5
663
100
AcDbEntity
  8
ASSI
100
AcDbLine
 62
253
  6
CONTINUOUS
 10
-1.6327245556
 20
-5.9331584155
 11
-1.6345499404
 21
-6.1687953765
  0
LWPOLYLINE
  5
664
100
AcDbEntity
  8
ASSI
100
AcDbPolyline
 62
7
  6
CONTINUOUS
 90
3
 70
0
 10
-1.3334610038
 20
-0.8327837412
 10
-1.3319649531
 20
-0.6419616705
 10
-1.3317699286
 20
-0.6197658968
  0
LINE
  5
665
100
AcDbEntity
  8
ASSI
100
AcDbLine
 62
7
  6
CONTINUOUS
 10
-1.3332811986
 20
9.192357039
 11
-1.3317699286
 21
9.3802341032
  0
LINE
  5
666
100
AcDbEntity
  8
RACCORDO
100
AcDbLine
 62
7
  6
CONTINUOUS
 10
-1.3327683409
 20
-0.7395331003
 11
-1.3316503364
 21
-0.6064320678
  0
LINE
  5
667
100
AcDbEntity
  8
RACCORDO
100
AcDbLine
 62
7
  6
CONTINUOUS
 10
-1.3329488417
 20
4.2370691294
 11
-1.3314583611
 21
4.4145398857
  0
LINE
  5
668
100
AcDbEntity
  8
RACCORDO
100
AcDbLine
 62
7
  6
CONTINUOUS
 10
-1.3325860014
 20
9.2835182031
 11
-1.3310693751
 21
9.4554495561
  0
LINE
  5
669
100
AcDbEntity
  8
ASSI
100
AcDbLine
 62
7
  6
CONTINUOUS
 10
-1.3327283563
 20
4.2655708139
 11
-1.3311742489
 21
4.4446242799
  0
LINE
  5
66A
100
AcDbEntity
  8
RACCORDO
100
AcDbLine
 62
253
  6
CONTINUOUS
 10
-1.8746203695
 20
-16.4912913124
 11
-1.8797109706
 21
-16.996472798
  0
LINE
  5
66B
100
AcDbEntity
  8
RACCORDO
100
AcDbLine
 62
253
  6
CONTINUOUS
 10
-1.6253433673
 20
-16.7791267298
 11
-1.6297152013
 21
-17.2129791489
  0
LINE
  5
66C
100
AcDbEntity
  8
ASSI
100
AcDbLine
 62
7
  6
CONTINUOUS
 10
-1.3317699286
 20
9.3802341032
 11
-1.3301463429
 21
9.5446540921
  0
LINE
  5
66D
100
AcDbEntity
  8
RACCORDO
100
AcDbLine
 62
7
  6
CONTINUOUS
 10
-1.3314583611
 20
4.4145398857
 11
-1.3298634827
 21
4.5699658952
  0
LINE
  5
66E
100
AcDbEntity
  8
ASSI
100
AcDbLine
 62
7
  6
CONTINUOUS
 10
-1.3311742489
 20
4.4446242799
 11
-1.3295106327
 21
4.6003306959
  0
LINE
  5
66F
100
AcDbEntity
  8
RACCORDO
100
AcDbLine
 62
7
  6
CONTINUOUS
 10
-1.3310693751
 20
9.4554495561
 11
-1.3294500115
 21
9.6054180812
  0
LINE
  5
670
100
AcDbEntity
  8
ASSI
100
AcDbLine
 62
7
  6
CONTINUOUS
 10
-1.3301463429
 20
9.5446540921
 11
-1.3284281457
 21
9.6859274626
  0
LINE
  5
671
100
AcDbEntity
  8
RACCORDO
100
AcDbLine
 62
7
  6
CONTINUOUS
 10
-1.3298634827
 20
4.5699658952
 11
-1.3281857024
 21
4.7036403664
  0
LINE
  5
672
100
AcDbEntity
  8
RACCORDO
100
AcDbLine
 62
7
  6
CONTINUOUS
 10
-1.3294500115
 20
9.6054180812
 11
-1.3277578918
 21
9.7336270694
  0
LINE
  5
673
100
AcDbEntity
  8
ASSI
100
AcDbLine
 62
7
  6
CONTINUOUS
 10
-1.3295106327
 20
4.6003306959
 11
-1.3277683961
 21
4.7329099773
  0
LINE
  5
674
100
AcDbEntity
  8
CURVE
100
AcDbLine
 62
253
  6
CONTINUOUS
 10
-1.2357921678
 20
20.8967156874
 11
-1.2260686841
 21
21.5142155402
  0
LINE
  5
675
100
AcDbEntity
  8
CURVE
100
AcDbLine
 62
7
  6
CONTINUOUS
 10
-1.1832003413
 20
13.3838692995
 11
-1.183887774
 21
13.3352837225
  0
LINE
  5
676
100
AcDbEntity
  8
ASSI
100
AcDbLine
 62
7
  6
CONTINUOUS
 10
-1.3284281457
 20
9.6859274626
 11
-1.3268780397
 21
9.7903636427
  0
LINE
  5
677
100
AcDbEntity
  8
RACCORDO
100
AcDbLine
 62
7
  6
CONTINUOUS
 10
-1.3281857024
 20
4.7036403664
 11
-1.3266761858
 21
4.8024798216
  0
LINE
  5
678
100
AcDbEntity
  8
RACCORDO
100
AcDbLine
 62
7
  6
CONTINUOUS
 10
-1.3277578918
 20
9.7336270694
 11
-1.3262400649
 21
9.8275630971
  0
LINE
  5
679
100
AcDbEntity
  8
ASSI
100
AcDbLine
 62
7
  6
CONTINUOUS
 10
-1.3277683961
 20
4.7329099773
 11
-1.3262045683
 21
4.8295402522
  0
LINE
  5
67A
100
AcDbEntity
  8
CURVE
100
AcDbLine
 62
7
  6
CONTINUOUS
 10
-1.1800154672
 20
12.8045396942
 11
-1.1792664911
 21
12.8510924128
  0
LINE
  5
67B
100
AcDbEntity
  8
CURVE
100
AcDbLine
 62
253
  6
CONTINUOUS
 10
-1.2195863621
 20
20.9849299311
 11
-1.2212069433
 21
20.8967156874
  0
LINE
  5
67C
100
AcDbEntity
  8
CURVE
100
AcDbLine
 62
253
  6
CONTINUOUS
 10
-1.2195863621
 20
18.1620729565
 11
-1.2228275231
 21
17.9856438803
  0
LINE
  5
67D
100
AcDbEntity
  8
CURVE
100
AcDbLine
 62
253
  6
CONTINUOUS
 10
-1.2195863621
 20
16.2213584184
 11
-1.2228275231
 21
16.0449299311
  0
LINE
  5
67E
100
AcDbEntity
  8
CURVE
100
AcDbLine
 62
253
  6
CONTINUOUS
 10
-1.2195863621
 20
11.3107630681
 11
-1.2228275231
 21
11.1343351697
  0
LINE
  5
67F
100
AcDbEntity
  8
ASSI
100
AcDbLine
 62
7
  6
CONTINUOUS
 10
-1.3268780397
 20
9.7903636427
 11
-1.3253049043
 21
9.8765609845
  0
LINE
  5
680
100
AcDbEntity
  8
CURVE
100
AcDbLine
 62
7
  6
CONTINUOUS
 10
-1.161459658
 20
13.2110742836
 11
-1.1620333752
 21
13.179592873
  0
LINE
  5
681
100
AcDbEntity
  8
RACCORDO
100
AcDbLine
 62
7
  6
CONTINUOUS
 10
-1.3266761858
 20
4.8024798216
 11
-1.3251489456
 21
4.884129434
  0
LINE
  5
682
100
AcDbEntity
  8
CURVE
100
AcDbLine
 62
7
  6
CONTINUOUS
 10
-1.183887774
 20
13.3352837225
 11
-1.1846158125
 21
13.2962143837
  0
LINE
  5
683
100
AcDbEntity
  8
RACCORDO
100
AcDbLine
 62
7
  6
CONTINUOUS
 10
-1.3262400649
 20
9.8275630971
 11
-1.324842231
 21
9.8984964705
  0
LINE
  5
684
100
AcDbEntity
  8
RACCORDO
100
AcDbLine
 62
7
  6
CONTINUOUS
 10
-1.3251489456
 20
4.884129434
 11
-1.324842231
 21
4.8984964705
  0
LINE
  5
685
100
AcDbEntity
  8
CURVE
100
AcDbLine
 62
7
  6
CONTINUOUS
 10
-1.1567046798
 20
12.6892435124
 11
-1.1555795241
 21
12.7443143603
  0
LINE
  5
686
100
AcDbEntity
  8
ASSI
100
AcDbLine
 62
7
  6
CONTINUOUS
 10
-1.3253049043
 20
9.8765609845
 11
-1.3248428498
 21
9.8984957076
  0
LINE
  5
687
100
AcDbEntity
  8
ASSI
100
AcDbLine
 62
7
  6
CONTINUOUS
 10
-1.3262045683
 20
4.8295402522
 11
-1.3248428498
 21
4.8984957076
  0
LINE
  5
688
100
AcDbEntity
  8
CURVE
100
AcDbLine
 62
7
  6
CONTINUOUS
 10
-1.1808770369
 20
12.7632616765
 11
-1.1800154672
 21
12.8045396942
  0
LINE
  5
689
100
AcDbEntity
  8
CURVE
100
AcDbLine
 62
7
  6
CONTINUOUS
 10
-1.1620333752
 20
13.179592873
 11
-1.1625105743
 21
13.1589580888
  0
LINE
  5
68A
100
AcDbEntity
  8
CURVE
100
AcDbLine
 62
7
  6
CONTINUOUS
 10
-1.1846158125
 20
13.2962143837
 11
-1.1852572458
 21
13.2691002803
  0
LINE
  5
68B
100
AcDbEntity
  8
CURVE
100
AcDbLine
 62
7
  6
CONTINUOUS
 10
-1.1579282157
 20
12.6416483331
 11
-1.1567046798
 21
12.6892435124
  0
LINE
  5
68C
100
AcDbEntity
  8
CURVE
100
AcDbLine
 62
7
  6
CONTINUOUS
 10
-1.1818171989
 20
12.7271563693
 11
-1.1808770369
 21
12.7632616765
  0
LINE
  5
68D
100
AcDbEntity
  8
CURVE
100
AcDbLine
 62
7
  6
CONTINUOUS
 10
-1.1625105743
 20
13.1589580888
 11
-1.1630213166
 21
13.1409852842
  0
LINE
  5
68E
100
AcDbEntity
  8
CURVE
100
AcDbLine
 62
7
  6
CONTINUOUS
 10
-1.1852572458
 20
13.2691002803
 11
-1.1857674118
 21
13.2514823344
  0
LINE
  5
68F
100
AcDbEntity
  8
CURVE
100
AcDbLine
 62
7
  6
CONTINUOUS
 10
-1.182603066
 20
12.7019279376
 11
-1.1818171989
 21
12.7271563693
  0
LINE
  5
690
100
AcDbEntity
  8
CURVE
100
AcDbLine
 62
7
  6
CONTINUOUS
 10
-1.1587933042
 20
12.6143620085
 11
-1.1579282157
 21
12.6416483331
  0
LWPOLYLINE
  5
691
100
AcDbEntity
  8
RACCORDO
100
AcDbPolyline
 62
253
  6
CONTINUOUS
 90
31
 70
0
 10
-1.6297152013
 20
30.4756959857
 10
-1.630093757
 20
30.4643980134
 10
-1.6311528846
 20
30.4531277094
 10
-1.6328902611
 20
30.4419158396
 10
-1.6353019625
 20
30.4307920305
 10
-1.6383818327
 20
30.4197877784
 10
-1.6421208837
 20
30.4089362386
 10
-1.6465084281
 20
30.3982681156
 10
-1.6515328271
 20
30.3878114422
 10
-1.6571805077
 20
30.3775945234
 10
-1.6634362003
 20
30.3676451183
 10
-1.6702827749
 20
30.3579905937
 10
-1.6777013832
 20
30.3486575703
 10
-1.6856716872
 20
30.3396716201
 10
-1.694171982
 20
30.3310572009
 10
-1.7031790725
 20
30.3228378226
 10
-1.7126683761
 20
30.3150359259
 10
-1.7226139633
 20
30.3076728377
 10
-1.7329886461
 20
30.3007686888
 10
-1.7437640785
 20
30.2943423422
 10
-1.7549108365
 20
30.2884113453
 10
-1.7663984736
 20
30.2829918979
 10
-1.7781956303
 20
30.2780987959
 10
-1.7902700667
 20
30.2737454128
 10
-1.8025887464
 20
30.2699436555
 10
-1.8151179817
 20
30.266703909
 10
-1.8278235846
 20
30.2640350026
 10
-1.8406709054
 20
30.2619442102
 10
-1.8536248726
 20
30.2604372402
 10
-1.8666500864
 20
30.2595182118
 10
-1.8797109706
 20
30.2591896347
  0
LINE
  5
692
100
AcDbEntity
  8
CURVE
100
AcDbLine
 62
7
  6
CONTINUOUS
 10
-1.1857674118
 20
13.2514823344
 11
-1.1861194729
 21
13.2411389451
  0
LINE
  5
693
100
AcDbEntity
  8
CURVE
100
AcDbLine
 62
7
  6
CONTINUOUS
 10
-1.1630213166
 20
13.1409852842
 11
-1.1633773742
 21
13.1305300222
  0
LINE
  5
694
100
AcDbEntity
  8
CURVE
100
AcDbLine
 62
253
  6
CONTINUOUS
 10
-1.2195863621
 20
23.6313584184
 11
-1.2325510068
 21
23.2785012597
  0
LINE
  5
695
100
AcDbEntity
  8
CURVE
100
AcDbLine
 62
253
  6
CONTINUOUS
 10
-1.2195863621
 20
14.7511200427
 11
-1.2325510068
 21
14.3982630681
  0
LINE
  5
696
100
AcDbEntity
  8
CURVE
100
AcDbLine
 62
253
  6
CONTINUOUS
 10
-1.2195863621
 20
13.6925491189
 11
-1.2325510068
 21
13.3396921443
  0
LINE
  5
697
100
AcDbEntity
  8
CURVE
100
AcDbLine
 62
7
  6
CONTINUOUS
 10
-1.1835288495
 20
12.6766175518
 11
-1.182603066
 21
12.7019279376
  0
LWPOLYLINE
  5
698
100
AcDbEntity
  8
RACCORDO
100
AcDbPolyline
 62
253
  6
CONTINUOUS
 90
9
 70
0
 10
-1.6212925232
 20
9.7335212785
 10
-1.6227454009
 20
9.6967015996
 10
-1.6241738317
 20
9.6497905958
 10
-1.6255576117
 20
9.5930591537
 10
-1.6268958456
 20
9.526838329
 10
-1.6281894288
 20
9.4514872047
 10
-1.6294208432
 20
9.3673654328
 10
-1.6305892
 20
9.2749100078
 10
-1.6327245556
 20
9.0668415845
  0
LWPOLYLINE
  5
699
100
AcDbEntity
  8
ASSI
100
AcDbPolyline
 62
253
  6
CONTINUOUS
 90
9
 70
0
 10
-1.6212925232
 20
9.7335212785
 10
-1.6227454009
 20
9.6967015996
 10
-1.6241738317
 20
9.6497905958
 10
-1.6255576117
 20
9.5930591537
 10
-1.6268958456
 20
9.526838329
 10
-1.6281894288
 20
9.4514872047
 10
-1.6294208432
 20
9.3673654328
 10
-1.6305892
 20
9.2749100078
 10
-1.6327245556
 20
9.0668415845
  0
LWPOLYLINE
  5
69A
100
AcDbEntity
  8
RACCORDO
100
AcDbPolyline
 62
253
  6
CONTINUOUS
 90
9
 70
0
 10
-1.6212925232
 20
4.7335212785
 10
-1.6227454009
 20
4.6967015996
 10
-1.6241738317
 20
4.6497905958
 10
-1.6255576117
 20
4.5930591537
 10
-1.6268958456
 20
4.526838329
 10
-1.6281894288
 20
4.4514872047
 10
-1.6294208432
 20
4.3673654328
 10
-1.6305892
 20
4.2749100078
 10
-1.6327245556
 20
4.0668415845
  0
LWPOLYLINE
  5
69B
100
AcDbEntity
  8
ASSI
100
AcDbPolyline
 62
253
  6
CONTINUOUS
 90
9
 70
0
 10
-1.6212925232
 20
4.7335212785
 10
-1.6227454009
 20
4.6967015996
 10
-1.6241738317
 20
4.6497905958
 10
-1.6255576117
 20
4.5930591537
 10
-1.6268958456
 20
4.526838329
 10
-1.6281894288
 20
4.4514872047
 10
-1.6294208432
 20
4.3673654328
 10
-1.6305892
 20
4.2749100078
 10
-1.6327245556
 20
4.0668415845
  0
LWPOLYLINE
  5
69C
100
AcDbEntity
  8
RACCORDO
100
AcDbPolyline
 62
253
  6
CONTINUOUS
 90
9
 70
0
 10
-1.6212925232
 20
-0.2664787215
 10
-1.6227454009
 20
-0.3032984004
 10
-1.6241738317
 20
-0.3502094042
 10
-1.6255576117
 20
-0.4069408463
 10
-1.6268958456
 20
-0.473161671
 10
-1.6281894288
 20
-0.5485127953
 10
-1.6294208432
 20
-0.6326345672
 10
-1.6305892
 20
-0.7250899922
 10
-1.6327245556
 20
-0.9331584155
  0
LWPOLYLINE
  5
69D
100
AcDbEntity
  8
ASSI
100
AcDbPolyline
 62
253
  6
CONTINUOUS
 90
9
 70
0
 10
-1.6212925232
 20
-0.2664787215
 10
-1.6227454009
 20
-0.3032984004
 10
-1.6241738317
 20
-0.3502094042
 10
-1.6255576117
 20
-0.4069408463
 10
-1.6268958456
 20
-0.473161671
 10
-1.6281894288
 20
-0.5485127953
 10
-1.6294208432
 20
-0.6326345672
 10
-1.6305892
 20
-0.7250899922
 10
-1.6327245556
 20
-0.9331584155
  0
LINE
  5
69E
100
AcDbEntity
  8
CURVE
100
AcDbLine
 62
7
  6
CONTINUOUS
 10
-1.1861194729
 20
13.2411389451
 11
-1.1864799106
 21
13.2319841566
  0
LINE
  5
69F
100
AcDbEntity
  8
CURVE
100
AcDbLine
 62
7
  6
CONTINUOUS
 10
-1.1633773742
 20
13.1305300222
 11
-1.1637437315
 21
13.1213294575
  0
LINE
  5
6A0
100
AcDbEntity
  8
CURVE
100
AcDbLine
 62
7
  6
CONTINUOUS
 10
-1.1841533231
 20
12.6617468544
 11
-1.1835288495
 21
12.6766175518
  0
LINE
  5
6A1
100
AcDbEntity
  8
CURVE
100
AcDbLine
 62
7
  6
CONTINUOUS
 10
-1.2020059852
 20
18.6714634184
 11
-1.1689663002
 21
19.3815204184
  0
LINE
  5
6A2
100
AcDbEntity
  8
CURVE
100
AcDbLine
 62
7
  6
CONTINUOUS
 10
-1.1514077701
 20
19.2245924184
 11
-1.1795000502
 21
18.6257134184
  0
LINE
  5
6A3
100
AcDbEntity
  8
CURVE
100
AcDbLine
 62
7
  6
CONTINUOUS
 10
-1.1864799106
 20
13.2319841566
 11
-1.1873466483
 21
13.2135080813
  0
LINE
  5
6A4
100
AcDbEntity
  8
CURVE
100
AcDbLine
 62
7
  6
CONTINUOUS
 10
-1.1847829343
 20
12.648219586
 11
-1.1841533231
 21
12.6617468544
  0
LWPOLYLINE
  5
6A5
100
AcDbEntity
  8
CURVE
100
AcDbPolyline
 62
7
  6
CONTINUOUS
 90
12
 70
0
 10
-1.1637437315
 20
13.1213294575
 10
-1.1641185449
 20
13.1134122282
 10
-1.1643085467
 20
13.1099438137
 10
-1.1644999711
 20
13.1068069723
 10
-1.164692588
 20
13.1040052837
 10
-1.1648861667
 20
13.1015423278
 10
-1.165080477
 20
13.0994216844
 10
-1.1652752883
 20
13.097646933
 10
-1.1654703702
 20
13.0962216536
 10
-1.1656654924
 20
13.0951494259
 10
-1.1658604244
 20
13.0944338296
 10
-1.1660549357
 20
13.0940784445
  0
LINE
  5
6A6
100
AcDbEntity
  8
CURVE
100
AcDbLine
 62
7
  6
CONTINUOUS
 10
-1.1854170916
 20
12.6358138446
 11
-1.1847829343
 21
12.648219586
  0
LINE
  5
6A7
100
AcDbEntity
  8
CURVE
100
AcDbLine
 62
7
  6
CONTINUOUS
 10
-1.1873466483
 20
13.2135080813
 11
-1.1894174393
 21
13.173683497
  0
LINE
  5
6A8
100
AcDbEntity
  8
CURVE
100
AcDbLine
 62
7
  6
CONTINUOUS
 10
-1.2020059852
 20
22.7123714184
 11
-1.1514077701
 21
23.6316184184
  0
LINE
  5
6A9
100
AcDbEntity
  8
CURVE
100
AcDbLine
 62
7
  6
CONTINUOUS
 10
-1.1514077701
 20
15.5603484184
 11
-1.2020059852
 21
14.6706624184
  0
LINE
  5
6AA
100
AcDbEntity
  8
CURVE
100
AcDbLine
 62
7
  6
CONTINUOUS
 10
-1.1863755579
 20
12.6188226849
 11
-1.1854170916
 21
12.6358138446
  0
LINE
  5
6AB
100
AcDbEntity
  8
CURVE
100
AcDbLine
 62
7
  6
CONTINUOUS
 10
-1.1894174393
 20
13.173683497
 11
-1.1922091663
 21
13.1257222578
  0
LINE
  5
6AC
100
AcDbEntity
  8
CURVE
100
AcDbLine
 62
7
  6
CONTINUOUS
 10
-1.1922091663
 20
13.1257222578
 11
-1.2020059914
 21
12.9632001567
  0
LINE
  5
6AD
100
AcDbEntity
  8
CURVE
100
AcDbLine
 62
7
  6
CONTINUOUS
 10
-1.1514077701
 20
22.9741064184
 11
-1.1862360893
 21
22.4213794184
  0
LINE
  5
6AE
100
AcDbEntity
  8
CURVE
100
AcDbLine
 62
7
  6
CONTINUOUS
 10
-1.1883112003
 20
12.5879171581
 11
-1.1863755579
 21
12.6188226849
  0
LINE
  5
6AF
100
AcDbEntity
  8
CURVE
100
AcDbLine
 62
253
  6
CONTINUOUS
 10
-1.2195863621
 20
22.2199297838
 11
-1.2422744905
 21
21.867072662
  0
LINE
  5
6B0
100
AcDbEntity
  8
CURVE
100
AcDbLine
 62
7
  6
CONTINUOUS
 10
-1.2020059852
 20
15.3085934184
 11
-1.1919047796
 21
15.4653914184
  0
LWPOLYLINE
  5
6B1
100
AcDbEntity
  8
CURVE
100
AcDbPolyline
 62
7
  6
CONTINUOUS
 90
3
 70
0
 10
-1.2020059914
 20
12.3809994332
 10
-1.195158229
 20
12.4843810422
 10
-1.1883112003
 20
12.5879171581
  0
LINE
  5
6B2
100
AcDbEntity
  8
CURVE
100
AcDbLine
 62
7
  6
CONTINUOUS
 10
-1.1840885138
 20
15.5863544184
 11
-1.1653108745
 21
15.8644844184
  0
LINE
  5
6B3
100
AcDbEntity
  8
DRAFT
100
AcDbLine
 62
7
  6
CONTINUOUS
 10
-4.9666166226
 20
-14.1900299127
 11
-4.9765056927
 21
-14.2791119621
  0
LWPOLYLINE
  5
6B4
100
AcDbEntity
  8
RACCORDO
100
AcDbPolyline
 62
253
  6
CONTINUOUS
 90
4
 70
0
 10
-1.6168074129
 20
9.7813584184
 10
-1.6183268965
 20
9.7760079722
 10
-1.6198219333
 20
9.7600183631
 10
-1.6212925232
 20
9.7335212785
  0
LWPOLYLINE
  5
6B5
100
AcDbEntity
  8
ASSI
100
AcDbPolyline
 62
253
  6
CONTINUOUS
 90
4
 70
0
 10
-1.6168074129
 20
9.7813584184
 10
-1.6183268965
 20
9.7760079722
 10
-1.6198219333
 20
9.7600183631
 10
-1.6212925232
 20
9.7335212785
  0
LWPOLYLINE
  5
6B6
100
AcDbEntity
  8
RACCORDO
100
AcDbPolyline
 62
253
  6
CONTINUOUS
 90
4
 70
0
 10
-1.6168074129
 20
4.7813584184
 10
-1.6183268965
 20
4.7760079722
 10
-1.6198219333
 20
4.7600183631
 10
-1.6212925232
 20
4.7335212785
  0
LWPOLYLINE
  5
6B7
100
AcDbEntity
  8
ASSI
100
AcDbPolyline
 62
253
  6
CONTINUOUS
 90
4
 70
0
 10
-1.6168074129
 20
4.7813584184
 10
-1.6183268965
 20
4.7760079722
 10
-1.6198219333
 20
4.7600183631
 10
-1.6212925232
 20
4.7335212785
  0
LINE
  5
6B8
100
AcDbEntity
  8
RACCORDO
100
AcDbLine
 62
7
  6
CONTINUOUS
 10
-18.6323648688
 20
-13.1256630831
 11
-18.5753433673
 21
-13.0686415816
  0
LINE
  5
6B9
100
AcDbEntity
  8
RACCORDO
100
AcDbLine
 62
253
  6
CONTINUOUS
 10
-22.9209715333
 20
-17.6142739784
 11
-22.9253433673
 21
-17.6186458124
  0
LINE
  5
6BA
100
AcDbEntity
  8
RACCORDO
100
AcDbLine
 62
253
  6
CONTINUOUS
 10
-22.6709757641
 20
-17.8642697476
 11
-22.6753475981
 21
-17.8686415816
  0
LWPOLYLINE
  5
6BB
100
AcDbEntity
  8
CURVE
100
AcDbPolyline
 62
7
  6
CONTINUOUS
 90
16
 70
0
 10
-1.1670999051
 20
0.849831618
 10
-1.166605434
 20
0.8501082557
 10
-1.1661094311
 20
0.850959877
 10
-1.1656125697
 20
0.8524190449
 10
-1.1651155231
 20
0.8545183221
 10
-1.1646189645
 20
0.8572902714
 10
-1.1641235674
 20
0.8607674554
 10
-1.1636300051
 20
0.864982437
 10
-1.1631389508
 20
0.8699677789
 10
-1.1626510778
 20
0.875756044
 10
-1.1621670595
 20
0.8823797949
 10
-1.1616875692
 20
0.8898715944
 10
-1.1612132802
 20
0.8982640053
 10
-1.1607448659
 20
0.9075895903
 10
-1.1602829994
 20
0.9178809122
 10
-1.1594066548
 20
0.9407607522
  0
LINE
  5
6BC
100
AcDbEntity
  8
CURVE
100
AcDbLine
 62
253
  6
CONTINUOUS
 10
-5.5753433673
 20
18.0742158269
 11
-4.2753433673
 21
18.3527868127
  0
LINE
  5
6BD
100
AcDbEntity
  8
CURVE
100
AcDbLine
 62
253
  6
CONTINUOUS
 10
-9.5753433673
 20
18.0742158269
 11
-8.2753433673
 21
18.3527868127
  0
LINE
  5
6BE
100
AcDbEntity
  8
CURVE
100
AcDbLine
 62
253
  6
CONTINUOUS
 10
-4.6467719554
 20
16.0313584184
 11
-5.2039148181
 21
16.0313584184
  0
LINE
  5
6BF
100
AcDbEntity
  8
CURVE
100
AcDbLine
 62
253
  6
CONTINUOUS
 10
-8.6467719554
 20
16.0313584184
 11
-9.2039148181
 21
16.0313584184
  0
LINE
  5
6C0
100
AcDbEntity
  8
CURVE
100
AcDbLine
 62
253
  6
CONTINUOUS
 10
-1.2228275231
 20
16.0449299311
 11
-1.2390333291
 21
16.0449299311
  0
LINE
  5
6C1
100
AcDbEntity
  8
CURVE
100
AcDbLine
 62
253
  6
CONTINUOUS
 10
-1.2422744905
 20
16.6624299311
 11
-1.2195863621
 21
16.6624299311
  0
LINE
  5
6C2
100
AcDbEntity
  8
CURVE
100
AcDbLine
 62
253
  6
CONTINUOUS
 10
-9.2039148181
 20
16.6813584184
 11
-8.6467719554
 21
16.6813584184
  0
LINE
  5
6C3
100
AcDbEntity
  8
CURVE
100
AcDbLine
 62
253
  6
CONTINUOUS
 10
-5.2039148181
 20
16.6813584184
 11
-4.6467719554
 21
16.6813584184
  0
LINE
  5
6C4
100
AcDbEntity
  8
CURVE
100
AcDbLine
 62
253
  6
CONTINUOUS
 10
-4.6467719554
 20
17.0527871226
 11
-5.2039148181
 21
17.0527871226
  0
LINE
  5
6C5
100
AcDbEntity
  8
CURVE
100
AcDbLine
 62
253
  6
CONTINUOUS
 10
-8.6467719554
 20
17.0527871226
 11
-9.2039148181
 21
17.0527871226
  0
LINE
  5
6C6
100
AcDbEntity
  8
CURVE
100
AcDbLine
 62
253
  6
CONTINUOUS
 10
-9.2039148181
 20
16.0313584184
 11
-9.3896290927
 21
16.1242155169
  0
LINE
  5
6C7
100
AcDbEntity
  8
CURVE
100
AcDbLine
 62
253
  6
CONTINUOUS
 10
-4.6467719554
 20
13.8027869677
 11
-4.4610576614
 21
13.7099298691
  0
LINE
  5
6C8
100
AcDbEntity
  8
CURVE
100
AcDbLine
 62
253
  6
CONTINUOUS
 10
-8.6467719554
 20
16.6813584184
 11
-8.4610576614
 21
16.5885013198
  0
LINE
  5
6C9
100
AcDbEntity
  8
CURVE
100
AcDbLine
 62
253
  6
CONTINUOUS
 10
-9.2039148181
 20
17.0527871226
 11
-9.3896290927
 21
17.1456442212
  0
LINE
  5
6CA
100
AcDbEntity
  8
RACCORDO
100
AcDbLine
 62
7
  6
CONTINUOUS
 10
-18.6323648688
 20
26.3883799198
 11
-18.5753433673
 21
26.3313584184
  0
LINE
  5
6CB
100
AcDbEntity
  8
CURVE
100
AcDbLine
 62
253
  6
CONTINUOUS
 10
-9.3896290927
 20
17.1456442212
 11
-9.5753433673
 21
17.3313584184
  0
LINE
  5
6CC
100
AcDbEntity
  8
CURVE
100
AcDbLine
 62
253
  6
CONTINUOUS
 10
-5.3896290927
 20
13.2456441437
 11
-5.5753433673
 21
13.4313584184
  0
LINE
  5
6CD
100
AcDbEntity
  8
RACCORDO
100
AcDbLine
 62
253
  6
CONTINUOUS
 10
-22.9209715333
 20
30.8769908152
 11
-22.9253433673
 21
30.8813626492
  0
LINE
  5
6CE
100
AcDbEntity
  8
CURVE
100
AcDbLine
 62
253
  6
CONTINUOUS
 10
-8.4610576614
 20
16.5885013198
 11
-8.2753433673
 21
16.4027871226
  0
LINE
  5
6CF
100
AcDbEntity
  8
RACCORDO
100
AcDbLine
 62
253
  6
CONTINUOUS
 10
-22.6709757641
 20
31.1269865844
 11
-22.6753475981
 21
31.1313584184
  0
LINE
  5
6D0
100
AcDbEntity
  8
CURVE
100
AcDbLine
 62
253
  6
CONTINUOUS
 10
-8.4610576614
 20
17.609930024
 11
-8.2753433673
 21
17.4242158269
  0
LINE
  5
6D1
100
AcDbEntity
  8
CURVE
100
AcDbLine
 62
253
  6
CONTINUOUS
 10
-4.4610576614
 20
13.7099298691
 11
-4.2753433673
 21
13.5242155169
  0
LINE
  5
6D2
100
AcDbEntity
  8
CURVE
100
AcDbLine
 62
253
  6
CONTINUOUS
 10
-5.0182005434
 20
15.4742155169
 11
-5.111057642
 21
15.6289774512
  0
LINE
  5
6D3
100
AcDbEntity
  8
DRAFT
100
AcDbLine
 62
7
  6
CONTINUOUS
 10
-4.9765056927
 20
27.5418287988
 11
-4.9666166226
 21
27.4527467494
  0
LINE
  5
6D4
100
AcDbEntity
  8
CURVE
100
AcDbLine
 62
253
  6
CONTINUOUS
 10
-1.1829363086
 20
7.5727869793
 11
-1.1602481802
 21
7.2199297838
  0
LINE
  5
6D5
100
AcDbEntity
  8
CURVE
100
AcDbLine
 62
253
  6
CONTINUOUS
 10
-1.2422744905
 20
22.5727869793
 11
-1.2195863621
 21
22.2199297838
  0
LINE
  5
6D6
100
AcDbEntity
  8
CURVE
100
AcDbLine
 62
7
  6
CONTINUOUS
 10
-1.1653108745
 20
15.8644844184
 11
-1.1840885138
 21
16.1658584184
  0
LINE
  5
6D7
100
AcDbEntity
  8
CURVE
100
AcDbLine
 62
7
  6
CONTINUOUS
 10
-1.1862360893
 20
22.4213794184
 11
-1.1514077701
 21
21.8517684184
  0
LINE
  5
6D8
100
AcDbEntity
  8
CURVE
100
AcDbLine
 62
253
  6
CONTINUOUS
 10
-1.2422744905
 20
7.1289774661
 11
-1.2195863621
 21
6.7575489168
  0
LINE
  5
6D9
100
AcDbEntity
  8
CURVE
100
AcDbLine
 62
7
  6
CONTINUOUS
 10
-1.1919047796
 20
16.2896704184
 11
-1.2020059852
 21
16.4566874184
  0
LINE
  5
6DA
100
AcDbEntity
  8
CURVE
100
AcDbLine
 62
7
  6
CONTINUOUS
 10
-1.2020059852
 20
17.0553914184
 11
-1.1514077701
 21
16.1458754184
  0
LINE
  5
6DB
100
AcDbEntity
  8
CURVE
100
AcDbLine
 62
7
  6
CONTINUOUS
 10
-1.1514077701
 20
21.2469104184
 11
-1.2020059852
 21
22.1789754184
  0
LWPOLYLINE
  5
6DC
100
AcDbEntity
  8
CURVE
100
AcDbPolyline
 62
7
  6
CONTINUOUS
 90
26
 70
0
 10
-1.1712691323
 20
12.5862414088
 10
-1.1708047328
 20
12.5762567746
 10
-1.1703345445
 20
12.5671810216
 10
-1.1698592478
 20
12.559020994
 10
-1.1693795231
 20
12.5517835359
 10
-1.1688960509
 20
12.5454754914
 10
-1.1684119185
 20
12.5401241772
 10
-1.1679251843
 20
12.5356817829
 10
-1.167436283
 20
12.5321303374
 10
-1.1669456494
 20
12.5294518698
 10
-1.1664537183
 20
12.5276284089
 10
-1.1659609245
 20
12.5266419839
 10
-1.1654677027
 20
12.5264746237
 10
-1.1649744876
 20
12.5271083573
 10
-1.1644816776
 20
12.5285321872
 10
-1.163989826
 20
12.5307620635
 10
-1.1634994499
 20
12.5338207501
 10
-1.1630110659
 20
12.5377310111
 10
-1.162525191
 20
12.5425156105
 10
-1.162042342
 20
12.5481973124
 10
-1.1615630358
 20
12.5547988808
 10
-1.1610877892
 20
12.5623430797
 10
-1.160616779
 20
12.5708543816
 10
-1.160151089
 20
12.5803222783
 10
-1.1596914557
 20
12.5907364169
 10
-1.1587933042
 20
12.6143620085
  0
LINE
  5
6DD
100
AcDbEntity
  8
CURVE
100
AcDbLine
 62
7
  6
CONTINUOUS
 10
-1.1795000502
 20
18.6257134184
 11
-1.1514077701
 21
18.0204424184
  0
LINE
  5
6DE
100
AcDbEntity
  8
CURVE
100
AcDbLine
 62
7
  6
CONTINUOUS
 10
-1.169104031
 20
17.8669064184
 11
-1.2020059852
 21
18.5865744184
  0
LINE
  5
6DF
100
AcDbEntity
  8
CURVE
100
AcDbLine
 62
7
  6
CONTINUOUS
 10
-1.1691650982
 20
13.1219723899
 11
-1.1695923442
 21
13.131043155
  0
LINE
  5
6E0
100
AcDbEntity
  8
CURVE
100
AcDbLine
 62
7
  6
CONTINUOUS
 10
-1.1695923442
 20
13.131043155
 11
-1.1700080426
 21
13.1414108782
  0
LINE
  5
6E1
100
AcDbEntity
  8
CURVE
100
AcDbLine
 62
7
  6
CONTINUOUS
 10
-1.1721778439
 20
12.6089099448
 11
-1.1712691323
 21
12.5862414088
  0
LINE
  5
6E2
100
AcDbEntity
  8
CURVE
100
AcDbLine
 62
253
  6
CONTINUOUS
 10
-1.1732128249
 20
8.2785012597
 11
-1.1602481802
 21
7.9256441011
  0
LINE
  5
6E3
100
AcDbEntity
  8
CURVE
100
AcDbLine
 62
253
  6
CONTINUOUS
 10
-1.2325510068
 20
13.3396921443
 11
-1.2195863621
 21
12.9868351697
  0
LINE
  5
6E4
100
AcDbEntity
  8
CURVE
100
AcDbLine
 62
253
  6
CONTINUOUS
 10
-1.2325510068
 20
14.3982630681
 11
-1.2195863621
 21
14.0454060935
  0
LINE
  5
6E5
100
AcDbEntity
  8
CURVE
100
AcDbLine
 62
253
  6
CONTINUOUS
 10
-1.2325510068
 20
23.2785012597
 11
-1.2195863621
 21
22.9256441011
  0
LINE
  5
6E6
100
AcDbEntity
  8
CURVE
100
AcDbLine
 62
7
  6
CONTINUOUS
 10
-1.1700080426
 20
13.1414108782
 11
-1.1704097658
 21
13.1530840525
  0
LINE
  5
6E7
100
AcDbEntity
  8
CURVE
100
AcDbLine
 62
7
  6
CONTINUOUS
 10
-1.1730549551
 20
12.6351286275
 11
-1.1721778439
 21
12.6089099448
  0
LINE
  5
6E8
100
AcDbEntity
  8
CURVE
100
AcDbLine
 62
7
  6
CONTINUOUS
 10
-1.1738948946
 20
12.6649755238
 11
-1.1730549551
 21
12.6351286275
  0
LINE
  5
6E9
100
AcDbEntity
  8
CURVE
100
AcDbLine
 62
7
  6
CONTINUOUS
 10
-1.1704097658
 20
13.1530840525
 11
-1.1709808376
 21
13.1730601135
  0
LINE
  5
6EA
100
AcDbEntity
  8
CURVE
100
AcDbLine
 62
7
  6
CONTINUOUS
 10
-1.1709808376
 20
13.1730601135
 11
-1.1715068118
 21
13.1960212131
  0
LINE
  5
6EB
100
AcDbEntity
  8
CURVE
100
AcDbLine
 62
7
  6
CONTINUOUS
 10
-1.1750622383
 20
12.716327812
 11
-1.1738948946
 21
12.6649755238
  0
LINE
  5
6EC
100
AcDbEntity
  8
CURVE
100
AcDbLine
 62
253
  6
CONTINUOUS
 10
-1.1796951472
 20
5.8967156874
 11
-1.1829363086
 21
6.0731441747
  0
LINE
  5
6ED
100
AcDbEntity
  8
CURVE
100
AcDbLine
 62
253
  6
CONTINUOUS
 10
-1.2293098451
 20
11.1343351697
 11
-1.2325510068
 21
11.3107630681
  0
LINE
  5
6EE
100
AcDbEntity
  8
CURVE
100
AcDbLine
 62
253
  6
CONTINUOUS
 10
-1.2293098451
 20
17.9856438803
 11
-1.2325510068
 21
18.1620729565
  0
LINE
  5
6EF
100
AcDbEntity
  8
CURVE
100
AcDbLine
 62
253
  6
CONTINUOUS
 10
-1.2228275231
 20
21.5142155402
 11
-1.2195863621
 21
21.3377870529
  0
LINE
  5
6F0
100
AcDbEntity
  8
CURVE
100
AcDbLine
 62
7
  6
CONTINUOUS
 10
-1.1715068118
 20
13.1960212131
 11
-1.1721227273
 21
13.2312491851
  0
LINE
  5
6F1
100
AcDbEntity
  8
CURVE
100
AcDbLine
 62
7
  6
CONTINUOUS
 10
-1.176772952
 20
12.8168288401
 11
-1.1750622383
 21
12.716327812
  0
LINE
  5
6F2
100
AcDbEntity
  8
CURVE
100
AcDbLine
 62
7
  6
CONTINUOUS
 10
-1.1723526
 20
1.6094223131
 11
-1.1728054653
 21
1.6371574221
  0
LINE
  5
6F3
100
AcDbEntity
  8
CURVE
100
AcDbLine
 62
7
  6
CONTINUOUS
 10
-1.1795543503
 20
1.1912165516
 11
-1.1781413524
 21
1.0845860089
  0
LINE
  5
6F4
100
AcDbEntity
  8
CURVE
100
AcDbLine
 62
7
  6
CONTINUOUS
 10
-1.177777107
 20
12.8892822326
 11
-1.176772952
 21
12.8168288401
  0
LINE
  5
6F5
100
AcDbEntity
  8
CURVE
100
AcDbLine
 62
7
  6
CONTINUOUS
 10
-1.1721227273
 20
13.2312491851
 11
-1.1727424949
 21
13.2819768789
  0
LINE
  5
6F6
100
AcDbEntity
  8
CURVE
100
AcDbLine
 62
7
  6
CONTINUOUS
 10
-1.1728054653
 20
1.6371574221
 11
-1.1733373659
 21
1.6852027276
  0
LINE
  5
6F7
100
AcDbEntity
  8
CURVE
100
AcDbLine
 62
7
  6
CONTINUOUS
 10
-1.1780072884
 20
12.9170047436
 11
-1.177777107
 21
12.8892822326
  0
LINE
  5
6F8
100
AcDbEntity
  8
CURVE
100
AcDbLine
 62
7
  6
CONTINUOUS
 10
-1.1811077353
 20
1.381033419
 11
-1.1795543503
 21
1.1912165516
  0
LINE
  5
6F9
100
AcDbEntity
  8
CURVE
100
AcDbLine
 62
7
  6
CONTINUOUS
 10
-1.1727424949
 20
13.2819768789
 11
-1.1733632951
 21
13.3627493373
  0
LINE
  5
6FA
100
AcDbEntity
  8
CURVE
100
AcDbLine
 62
7
  6
CONTINUOUS
 10
-1.1733373659
 20
1.6852027276
 11
-1.1738228974
 21
1.7649849962
  0
LINE
  5
6FB
100
AcDbEntity
  8
CURVE
100
AcDbLine
 62
7
  6
CONTINUOUS
 10
-1.1780881999
 20
12.9368027084
 11
-1.1780072884
 21
12.9170047436
  0
LINE
  5
6FC
100
AcDbEntity
  8
CURVE
100
AcDbLine
 62
7
  6
CONTINUOUS
 10
-1.1733632951
 20
13.3627493373
 11
-1.173770683
 21
13.4629737238
  0
LINE
  5
6FD
100
AcDbEntity
  8
CURVE
100
AcDbLine
 62
7
  6
CONTINUOUS
 10
-1.1822371311
 20
1.660022519
 11
-1.1811077353
 21
1.381033419
  0
LINE
  5
6FE
100
AcDbEntity
  8
CURVE
100
AcDbLine
 62
7
  6
CONTINUOUS
 10
-1.1738228974
 20
1.7649849962
 11
-1.1742488339
 21
1.9447462874
  0
LINE
  5
6FF
100
AcDbEntity
  8
CURVE
100
AcDbLine
 62
7
  6
CONTINUOUS
 10
-1.1600276795
 20
13.9101596902
 11
-1.1596418603
 21
13.730206563
  0
LINE
  5
700
100
AcDbEntity
  8
CURVE
100
AcDbLine
 62
7
  6
CONTINUOUS
 10
-1.1825773699
 20
1.915165767
 11
-1.1822371311
 21
1.660022519
  0
LINE
  5
701
100
AcDbEntity
  8
RACCORDO
100
AcDbLine
 62
7
  6
CONTINUOUS
 10
-1.2622530657
 20
-9.9598659717
 11
-1.2622530657
 21
-9.8186415816
  0
LINE
  5
702
100
AcDbEntity
  8
ASSI
100
AcDbLine
 62
7
  6
CONTINUOUS
 10
-1.2622530657
 20
-9.9598659717
 11
-1.2622530657
 21
-9.8186415816
  0
LINE
  5
703
100
AcDbEntity
  8
RACCORDO
100
AcDbLine
 62
7
  6
CONTINUOUS
 10
-1.2622530657
 20
-4.9186415816
 11
-1.2622530657
 21
-4.8186415816
  0
LINE
  5
704
100
AcDbEntity
  8
ASSI
100
AcDbLine
 62
7
  6
CONTINUOUS
 10
-1.2622530657
 20
-4.9186415816
 11
-1.2622530657
 21
-4.8186415816
  0
LINE
  5
705
100
AcDbEntity
  8
RACCORDO
100
AcDbLine
 62
7
  6
CONTINUOUS
 10
-1.2622530657
 20
0.0813584184
 11
-1.2622530657
 21
0.1813584184
  0
LINE
  5
706
100
AcDbEntity
  8
ASSI
100
AcDbLine
 62
7
  6
CONTINUOUS
 10
-1.2622530657
 20
0.0813584184
 11
-1.2622530657
 21
0.1813584184
  0
LINE
  5
707
100
AcDbEntity
  8
RACCORDO
100
AcDbLine
 62
7
  6
CONTINUOUS
 10
-1.2622530657
 20
5.0813584184
 11
-1.2622530657
 21
5.1813584184
  0
LINE
  5
708
100
AcDbEntity
  8
ASSI
100
AcDbLine
 62
7
  6
CONTINUOUS
 10
-1.2622530657
 20
5.0813584184
 11
-1.2622530657
 21
5.1813584184
  0
LINE
  5
709
100
AcDbEntity
  8
RACCORDO
100
AcDbLine
 62
7
  6
CONTINUOUS
 10
-1.2622530657
 20
10.0813584184
 11
-1.2622530657
 21
23.2225828085
  0
LINE
  5
70A
100
AcDbEntity
  8
ASSI
100
AcDbLine
 62
7
  6
CONTINUOUS
 10
-1.2622530657
 20
10.0813584184
 11
-1.2622530657
 21
23.2225828085
  0
LINE
  5
70B
100
AcDbEntity
  8
0
100
AcDbLine
 62
7
  6
CONTINUOUS
 10
-1.2475288218
 20
-10.989729758
 11
-1.2475288218
 21
24.2524465947
  0
LINE
  5
70C
100
AcDbEntity
  8
RACCORDO
100
AcDbLine
 62
7
  6
CONTINUOUS
 10
-1.2475288218
 20
-10.989729758
 11
-1.2475288218
 21
24.2524465947
  0
LINE
  5
70D
100
AcDbEntity
  8
CURVE
100
AcDbLine
 62
253
  6
CONTINUOUS
 10
-1.2367478949
 20
-5.6638795043
 11
-1.2367478949
 21
-5.7543558026
  0
LINE
  5
70E
100
AcDbEntity
  8
CURVE
100
AcDbLine
 62
253
  6
CONTINUOUS
 10
-1.2357921678
 20
22.4551679387
 11
-1.2357921678
 21
21.9846917026
  0
LINE
  5
70F
100
AcDbEntity
  8
CURVE
100
AcDbLine
 62
253
  6
CONTINUOUS
 10
-1.2357921678
 20
7.0051679497
 11
-1.2357921678
 21
6.509929884
  0
LINE
  5
710
100
AcDbEntity
  8
CURVE
100
AcDbLine
 62
253
  6
CONTINUOUS
 10
-1.2351688678
 20
-1.0043558026
 11
-1.2351688678
 21
-0.0543559159
  0
LINE
  5
711
100
AcDbEntity
  8
CURVE
100
AcDbLine
 62
253
  6
CONTINUOUS
 10
-1.2325510068
 20
11.3107630681
 11
-1.2325510068
 21
11.7518351697
  0
LINE
  5
712
100
AcDbEntity
  8
CURVE
100
AcDbLine
 62
253
  6
CONTINUOUS
 10
-1.2325510068
 20
18.1620729565
 11
-1.2325510068
 21
18.6031438803
  0
LINE
  5
713
100
AcDbEntity
  8
CURVE
100
AcDbLine
 62
253
  6
CONTINUOUS
 10
-1.2293098451
 20
12.2811200427
 11
-1.2293098451
 21
12.6339770173
  0
LINE
  5
714
100
AcDbEntity
  8
CURVE
100
AcDbLine
 62
253
  6
CONTINUOUS
 10
-1.2293098451
 20
19.1324299311
 11
-1.2293098451
 21
19.4852869057
  0
LINE
  5
715
100
AcDbEntity
  8
CURVE
100
AcDbLine
 62
253
  6
CONTINUOUS
 10
-1.2233261626
 20
-4.5329273606
 11
-1.2233261626
 21
-3.9900700236
  0
LINE
  5
716
100
AcDbEntity
  8
CURVE
100
AcDbLine
 62
253
  6
CONTINUOUS
 10
-1.2233261626
 20
-3.1757842446
 11
-1.2233261626
 21
-2.9043558026
  0
LINE
  5
717
100
AcDbEntity
  8
CURVE
100
AcDbLine
 62
253
  6
CONTINUOUS
 10
-1.2195863621
 20
21.3377870529
 11
-1.2195863621
 21
20.9849299311
  0
LINE
  5
718
100
AcDbEntity
  8
CURVE
100
AcDbLine
 62
253
  6
CONTINUOUS
 10
-1.2195863621
 20
20.5438584184
 11
-1.2195863621
 21
19.8381441747
  0
LINE
  5
719
100
AcDbEntity
  8
CURVE
100
AcDbLine
 62
253
  6
CONTINUOUS
 10
-1.2195863621
 20
19.4852869057
 11
-1.2195863621
 21
18.9560011493
  0
LINE
  5
71A
100
AcDbEntity
  8
CURVE
100
AcDbLine
 62
253
  6
CONTINUOUS
 10
-1.2195863621
 20
18.6031438803
 11
-1.2195863621
 21
18.1620729565
  0
LINE
  5
71B
100
AcDbEntity
  8
CURVE
100
AcDbLine
 62
253
  6
CONTINUOUS
 10
-1.2195863621
 20
16.6624299311
 11
-1.2195863621
 21
16.2213584184
  0
LINE
  5
71C
100
AcDbEntity
  8
CURVE
100
AcDbLine
 62
253
  6
CONTINUOUS
 10
-1.2195863621
 20
12.6339770173
 11
-1.2195863621
 21
12.1046921443
  0
LINE
  5
71D
100
AcDbEntity
  8
CURVE
100
AcDbLine
 62
253
  6
CONTINUOUS
 10
-1.2195863621
 20
11.7518351697
 11
-1.2195863621
 21
11.3107630681
  0
LINE
  5
71E
100
AcDbEntity
  8
CURVE
100
AcDbLine
 62
253
  6
CONTINUOUS
 10
-1.2195863621
 20
8.2432631915
 11
-1.2195863621
 21
7.5004060154
  0
LINE
  5
71F
100
AcDbEntity
  8
CURVE
100
AcDbLine
 62
253
  6
CONTINUOUS
 10
-1.2091149182
 20
-3.9900700236
 11
-1.2091149182
 21
-4.8043558026
  0
LINE
  5
720
100
AcDbEntity
  8
CURVE
100
AcDbLine
 62
253
  6
CONTINUOUS
 10
-1.2091149182
 20
-9.4186415816
 11
-1.2091149182
 21
-9.5543562556
  0
LINE
  5
721
100
AcDbEntity
  8
CURVE
100
AcDbLine
 62
253
  6
CONTINUOUS
 10
-1.2091149182
 20
-8.1972131396
 11
-1.2091149182
 21
-7.7900700236
  0
LINE
  5
722
100
AcDbEntity
  8
CURVE
100
AcDbLine
 62
253
  6
CONTINUOUS
 10
-1.2091149182
 20
-3.1757842446
 11
-1.2091149182
 21
-2.6329273606
  0
LINE
  5
723
100
AcDbEntity
  8
CURVE
100
AcDbLine
 62
7
  6
CONTINUOUS
 10
-1.202145653
 20
2.9305684184
 11
-1.202145653
 21
2.3079624184
  0
LINE
  5
724
100
AcDbEntity
  8
CURVE
100
AcDbLine
 62
7
  6
CONTINUOUS
 10
-1.202145653
 20
-1.5481555816
 11
-1.202145653
 21
-2.1426055816
  0
LINE
  5
725
100
AcDbEntity
  8
CURVE
100
AcDbLine
 62
7
  6
CONTINUOUS
 10
-1.202145653
 20
-3.7170725816
 11
-1.202145653
 21
-4.3437155816
  0
LINE
  5
726
100
AcDbEntity
  8
CURVE
100
AcDbLine
 62
7
  6
CONTINUOUS
 10
-1.202145653
 20
-7.5730815816
 11
-1.202145653
 21
-8.1675305816
  0
LINE
  5
727
100
AcDbEntity
  8
CURVE
100
AcDbLine
 62
7
  6
CONTINUOUS
 10
-1.202145653
 20
-9.7422155816
 11
-1.202145653
 21
-10.3686415816
  0
LINE
  5
728
100
AcDbEntity
  8
CURVE
100
AcDbLine
 62
7
  6
CONTINUOUS
 10
-1.202145653
 20
-7.2798395816
 11
-1.202145653
 21
-6.3961875816
  0
LINE
  5
729
100
AcDbEntity
  8
CURVE
100
AcDbLine
 62
7
  6
CONTINUOUS
 10
-1.202145653
 20
-5.2434115816
 11
-1.202145653
 21
-4.6609665816
  0
LINE
  5
72A
100
AcDbEntity
  8
CURVE
100
AcDbLine
 62
7
  6
CONTINUOUS
 10
-1.202145653
 20
-1.2353795816
 11
-1.202145653
 21
0.4602254184
  0
LINE
  5
72B
100
AcDbEntity
  8
CURVE
100
AcDbLine
 62
7
  6
CONTINUOUS
 10
-1.2020059852
 20
21.0222934184
 11
-1.2020059852
 21
20.4170224184
  0
LINE
  5
72C
100
AcDbEntity
  8
CURVE
100
AcDbLine
 62
7
  6
CONTINUOUS
 10
-1.2020059914
 20
14.4929257627
 11
-1.2020059914
 21
13.8900898016
  0
LINE
  5
72D
100
AcDbEntity
  8
CURVE
100
AcDbLine
 62
7
  6
CONTINUOUS
 10
-1.2020059914
 20
12.9632001567
 11
-1.2020059914
 21
12.3809994332
  0
LINE
  5
72E
100
AcDbEntity
  8
CURVE
100
AcDbLine
 62
7
  6
CONTINUOUS
 10
-1.2020059852
 20
14.6706624184
 11
-1.2020059852
 21
15.3085934184
  0
LINE
  5
72F
100
AcDbEntity
  8
CURVE
100
AcDbLine
 62
7
  6
CONTINUOUS
 10
-1.2020059852
 20
16.4566874184
 11
-1.2020059852
 21
17.0553914184
  0
LINE
  5
730
100
AcDbEntity
  8
CURVE
100
AcDbLine
 62
7
  6
CONTINUOUS
 10
-1.2020059852
 20
17.1504354184
 11
-1.2020059852
 21
17.7425514184
  0
LINE
  5
731
100
AcDbEntity
  8
CURVE
100
AcDbLine
 62
7
  6
CONTINUOUS
 10
-1.2020059852
 20
18.5865744184
 11
-1.2020059852
 21
18.6714634184
  0
LINE
  5
732
100
AcDbEntity
  8
CURVE
100
AcDbLine
 62
7
  6
CONTINUOUS
 10
-1.2020059852
 20
19.5121374184
 11
-1.2020059852
 21
20.0911854184
  0
LINE
  5
733
100
AcDbEntity
  8
CURVE
100
AcDbLine
 62
7
  6
CONTINUOUS
 10
-1.2020059852
 20
22.1789754184
 11
-1.2020059852
 21
22.7123714184
  0
LINE
  5
734
100
AcDbEntity
  8
CURVE
100
AcDbLine
 62
7
  6
CONTINUOUS
 10
-1.1937360435
 20
-0.1623805816
 11
-1.1937360435
 21
-1.2353795816
  0
LINE
  5
735
100
AcDbEntity
  8
CURVE
100
AcDbLine
 62
7
  6
CONTINUOUS
 10
-1.1919047796
 20
15.4653914184
 11
-1.1919047796
 21
16.2896704184
  0
LINE
  5
736
100
AcDbEntity
  8
CURVE
100
AcDbLine
 62
7
  6
CONTINUOUS
 10
-1.1914203572
 20
-2.3594535816
 11
-1.1914203572
 21
-3.5081905816
  0
LINE
  5
737
100
AcDbEntity
  8
CURVE
100
AcDbLine
 62
7
  6
CONTINUOUS
 10
-1.1914203572
 20
-8.3844875816
 11
-1.1914203572
 21
-9.5332255816
  0
LINE
  5
738
100
AcDbEntity
  8
CURVE
100
AcDbLine
 62
7
  6
CONTINUOUS
 10
-1.1840885138
 20
16.1658584184
 11
-1.1840885138
 21
15.5863544184
  0
LINE
  5
739
100
AcDbEntity
  8
CURVE
100
AcDbLine
 62
7
  6
CONTINUOUS
 10
-1.1830107476
 20
-9.3765105816
 11
-1.1830107476
 21
-8.5451325816
  0
LINE
  5
73A
100
AcDbEntity
  8
CURVE
100
AcDbLine
 62
7
  6
CONTINUOUS
 10
-1.1830107476
 20
-3.3515845816
 11
-1.1830107476
 21
-2.5200975816
  0
LINE
  5
73B
100
AcDbEntity
  8
CURVE
100
AcDbLine
 62
253
  6
CONTINUOUS
 10
-1.1829363086
 20
5.3968345808
 11
-1.1829363086
 21
4.8675488245
  0
LINE
  5
73C
100
AcDbEntity
  8
CURVE
100
AcDbLine
 62
253
  6
CONTINUOUS
 10
-1.1829363086
 20
6.0731441747
 11
-1.1829363086
 21
6.5142155402
  0
LINE
  5
73D
100
AcDbEntity
  8
CURVE
100
AcDbLine
 62
7
  6
CONTINUOUS
 10
-1.1825773699
 20
1.915165767
 11
-1.1826584372
 21
2.3079624184
  0
LINE
  5
73E
100
AcDbEntity
  8
CURVE
100
AcDbLine
 62
253
  6
CONTINUOUS
 10
-1.1764539859
 20
7.4551679387
 11
-1.1764539859
 21
6.9846917026
  0
LINE
  5
73F
100
AcDbEntity
  8
CURVE
100
AcDbLine
 62
7
  6
CONTINUOUS
 10
-1.1742488276
 20
2.3079624184
 11
-1.1742488276
 21
1.9447464184
  0
LINE
  5
740
100
AcDbEntity
  8
CURVE
100
AcDbLine
 62
7
  6
CONTINUOUS
 10
-1.173770683
 20
13.4629737238
 11
-1.1739178774
 21
13.9101596902
  0
LINE
  5
741
100
AcDbEntity
  8
CURVE
100
AcDbLine
 62
253
  6
CONTINUOUS
 10
-1.1699716632
 20
5.0439776062
 11
-1.1699716632
 21
5.3968345808
  0
LINE
  5
742
100
AcDbEntity
  8
CURVE
100
AcDbLine
 62
253
  6
CONTINUOUS
 10
-1.1602481802
 20
6.5142155402
 11
-1.1602481802
 21
6.0731441747
  0
LINE
  5
743
100
AcDbEntity
  8
CURVE
100
AcDbLine
 62
253
  6
CONTINUOUS
 10
-1.1602481802
 20
5.3968345808
 11
-1.1602481802
 21
4.8675488245
  0
LINE
  5
744
100
AcDbEntity
  8
CURVE
100
AcDbLine
 62
7
  6
CONTINUOUS
 10
-1.1515413654
 20
0.4602254184
 11
-1.1515413654
 21
-0.1623805816
  0
LINE
  5
745
100
AcDbEntity
  8
CURVE
100
AcDbLine
 62
7
  6
CONTINUOUS
 10
-1.1515413654
 20
-4.6609665816
 11
-1.1515413654
 21
-5.5847805816
  0
LINE
  5
746
100
AcDbEntity
  8
CURVE
100
AcDbLine
 62
7
  6
CONTINUOUS
 10
-1.1515413654
 20
-6.6973955816
 11
-1.1515413654
 21
-7.2798395816
  0
LINE
  5
747
100
AcDbEntity
  8
CURVE
100
AcDbLine
 62
7
  6
CONTINUOUS
 10
-1.1515413654
 20
-9.3605765816
 11
-1.1515413654
 21
-8.6215255816
  0
LINE
  5
748
100
AcDbEntity
  8
CURVE
100
AcDbLine
 62
7
  6
CONTINUOUS
 10
-1.1515413654
 20
-3.3355415816
 11
-1.1515413654
 21
-2.5964905816
  0
LINE
  5
749
100
AcDbEntity
  8
CURVE
100
AcDbLine
 62
7
  6
CONTINUOUS
 10
-1.1514077701
 20
23.6316184184
 11
-1.1514077701
 21
22.9741064184
  0
LINE
  5
74A
100
AcDbEntity
  8
CURVE
100
AcDbLine
 62
7
  6
CONTINUOUS
 10
-1.1514077701
 20
21.8517684184
 11
-1.1514077701
 21
21.2469104184
  0
LINE
  5
74B
100
AcDbEntity
  8
CURVE
100
AcDbLine
 62
7
  6
CONTINUOUS
 10
-1.1514077701
 20
19.8293634184
 11
-1.1514077701
 21
19.2245924184
  0
LINE
  5
74C
100
AcDbEntity
  8
CURVE
100
AcDbLine
 62
7
  6
CONTINUOUS
 10
-1.1514077701
 20
18.0204424184
 11
-1.1514077701
 21
17.4215854184
  0
LINE
  5
74D
100
AcDbEntity
  8
CURVE
100
AcDbLine
 62
7
  6
CONTINUOUS
 10
-1.1514077701
 20
16.1458754184
 11
-1.1514077701
 21
15.5603484184
  0
LINE
  5
74E
100
AcDbEntity
  8
CURVE
100
AcDbLine
 62
7
  6
CONTINUOUS
 10
-1.1514047338
 20
20.4170224184
 11
-1.1514047338
 21
21.0222934184
  0
LINE
  5
74F
100
AcDbEntity
  8
0
100
AcDbLine
 62
7
  6
CONTINUOUS
 10
-1.1253433673
 20
-11.0403406304
 11
-1.1253433673
 21
24.3030574671
  0
LINE
  5
750
100
AcDbEntity
  8
RACCORDO
100
AcDbLine
 62
7
  6
CONTINUOUS
 10
-1.1253433673
 20
-15.2998271376
 11
-1.1253433673
 21
28.5625439743
  0
LINE
  5
751
100
AcDbEntity
  8
CURVE
100
AcDbLine
 62
7
  6
CONTINUOUS
 10
-1.1596418603
 20
13.730206563
 11
-1.1595803466
 21
13.5487669043
  0
LINE
  5
752
100
AcDbEntity
  8
CURVE
100
AcDbLine
 62
7
  6
CONTINUOUS
 10
-1.1507817844
 20
13.5513373559
 11
-1.1519989266
 21
14.4929257627
  0
LINE
  5
753
100
AcDbEntity
  8
CURVE
100
AcDbLine
 62
7
  6
CONTINUOUS
 10
-1.1516549338
 20
1.8724974123
 11
-1.1515413654
 21
2.9305684184
  0
LINE
  5
754
100
AcDbEntity
  8
CURVE
100
AcDbLine
 62
7
  6
CONTINUOUS
 10
-1.1599509749
 20
2.3079624184
 11
-1.1599832482
 21
1.9293333615
  0
LINE
  5
755
100
AcDbEntity
  8
CURVE
100
AcDbLine
 62
7
  6
CONTINUOUS
 10
-1.1595803466
 20
13.5487669043
 11
-1.159820436
 21
13.4028014814
  0
LINE
  5
756
100
AcDbEntity
  8
CURVE
100
AcDbLine
 62
7
  6
CONTINUOUS
 10
-1.1822046432
 20
13.8900898016
 11
-1.1823423131
 21
13.4933835673
  0
LINE
  5
757
100
AcDbEntity
  8
CURVE
100
AcDbLine
 62
7
  6
CONTINUOUS
 10
-1.1599832482
 20
1.9293333615
 11
-1.1604704752
 21
1.744189364
  0
LINE
  5
758
100
AcDbEntity
  8
CURVE
100
AcDbLine
 62
7
  6
CONTINUOUS
 10
-1.1527422898
 20
1.4441263802
 11
-1.1516549338
 21
1.8724974123
  0
LINE
  5
759
100
AcDbEntity
  8
CURVE
100
AcDbLine
 62
7
  6
CONTINUOUS
 10
-1.1521217094
 20
13.0702716582
 11
-1.1507817844
 21
13.5513373559
  0
LINE
  5
75A
100
AcDbEntity
  8
RACCORDO
100
AcDbLine
 62
7
  6
CONTINUOUS
 10
-1.335087228
 20
-6.0986470904
 11
-1.3338195939
 21
-5.8851207585
  0
LINE
  5
75B
100
AcDbEntity
  8
ASSI
100
AcDbLine
 62
7
  6
CONTINUOUS
 10
-1.3351174991
 20
-6.1043783327
 11
-1.3338132439
 21
-5.8841669741
  0
LINE
  5
75C
100
AcDbEntity
  8
CURVE
100
AcDbLine
 62
7
  6
CONTINUOUS
 10
-1.159820436
 20
13.4028014814
 11
-1.1602885603
 21
13.3162388552
  0
LINE
  5
75D
100
AcDbEntity
  8
RACCORDO
100
AcDbLine
 62
7
  6
CONTINUOUS
 10
-1.3338195939
 20
-5.8851207585
 11
-1.332401982
 21
-5.6937785227
  0
LINE
  5
75E
100
AcDbEntity
  8
ASSI
100
AcDbLine
 62
7
  6
CONTINUOUS
 10
-1.3338132439
 20
-5.8841669741
 11
-1.3323499716
 21
-5.6874591196
  0
LINE
  5
75F
100
AcDbEntity
  8
CURVE
100
AcDbLine
 62
7
  6
CONTINUOUS
 10
-1.1823423131
 20
13.4933835673
 11
-1.1827787342
 21
13.4241478386
  0
LINE
  5
760
100
AcDbEntity
  8
CURVE
100
AcDbLine
 62
7
  6
CONTINUOUS
 10
-1.1541452845
 20
1.240890465
 11
-1.1527422898
 21
1.4441263802
  0
LINE
  5
761
100
AcDbEntity
  8
CURVE
100
AcDbLine
 62
7
  6
CONTINUOUS
 10
-1.1604704752
 20
1.744189364
 11
-1.1609389281
 21
1.6767692242
  0
LINE
  5
762
100
AcDbEntity
  8
CURVE
100
AcDbLine
 62
7
  6
CONTINUOUS
 10
-1.1531906566
 20
12.9173272404
 11
-1.1521217094
 21
13.0702716582
  0
LINE
  5
763
100
AcDbEntity
  8
RACCORDO
100
AcDbLine
 62
7
  6
CONTINUOUS
 10
-1.332401982
 20
-5.6937785227
 11
-1.3308723601
 21
-5.5246101284
  0
LINE
  5
764
100
AcDbEntity
  8
ASSI
100
AcDbLine
 62
7
  6
CONTINUOUS
 10
-1.3323499716
 20
-5.6874591196
 11
-1.3307682155
 21
-5.5142737538
  0
LINE
  5
765
100
AcDbEntity
  8
ASSI
100
AcDbLine
 62
7
  6
CONTINUOUS
 10
-1.3317699286
 20
-0.6197658968
 11
-1.3301463429
 21
-0.4553459079
  0
LINE
  5
766
100
AcDbEntity
  8
RACCORDO
100
AcDbLine
 62
7
  6
CONTINUOUS
 10
-1.3316503364
 20
-0.6064320678
 11
-1.3300682549
 21
-0.4482689084
  0
LINE
  5
767
100
AcDbEntity
  8
CURVE
100
AcDbLine
 62
7
  6
CONTINUOUS
 10
-1.1790060431
 20
12.8712132624
 11
-1.1783871912
 21
12.9368027084
  0
LINE
  5
768
100
AcDbEntity
  8
CURVE
100
AcDbLine
 62
7
  6
CONTINUOUS
 10
-1.1827787342
 20
13.4241478386
 11
-1.1832003413
 21
13.3838692995
  0
LINE
  5
769
100
AcDbEntity
  8
CURVE
100
AcDbLine
 62
7
  6
CONTINUOUS
 10
-1.1602885603
 20
13.3162388552
 11
-1.1609641041
 21
13.2466107711
  0
LINE
  5
76A
100
AcDbEntity
  8
RACCORDO
100
AcDbLine
 62
7
  6
CONTINUOUS
 10
-1.3308723601
 20
-5.5246101284
 11
-1.3292415137
 21
-5.3773631566
  0
LINE
  5
76B
100
AcDbEntity
  8
ASSI
100
AcDbLine
 62
7
  6
CONTINUOUS
 10
-1.3307682155
 20
-5.5142737538
 11
-1.3290804698
 21
-5.3643508846
  0
LINE
  5
76C
100
AcDbEntity
  8
ASSI
100
AcDbLine
 62
7
  6
CONTINUOUS
 10
-1.3301463429
 20
-0.4553459079
 11
-1.3284281457
 21
-0.3140725374
  0
LINE
  5
76D
100
AcDbEntity
  8
CURVE
100
AcDbLine
 62
7
  6
CONTINUOUS
 10
-1.1554522165
 20
1.1254068673
 11
-1.1541452845
 21
1.240890465
  0
LINE
  5
76E
100
AcDbEntity
  8
CURVE
100
AcDbLine
 62
7
  6
CONTINUOUS
 10
-1.1792664911
 20
12.8510924128
 11
-1.1790060431
 21
12.8712132624
  0
LINE
  5
76F
100
AcDbEntity
  8
RACCORDO
100
AcDbLine
 62
7
  6
CONTINUOUS
 10
-1.3300682549
 20
-0.4482689084
 11
-1.3283984617
 21
-0.3118756219
  0
LINE
  5
770
100
AcDbEntity
  8
CURVE
100
AcDbLine
 62
7
  6
CONTINUOUS
 10
-1.1609389281
 20
1.6767692242
 11
-1.1613943448
 21
1.6371574221
  0
LINE
  5
771
100
AcDbEntity
  8
CURVE
100
AcDbLine
 62
7
  6
CONTINUOUS
 10
-1.15455923
 20
12.8061368542
 11
-1.1531906566
 21
12.9173272404
  0
LINE
  5
772
100
AcDbEntity
  8
RACCORDO
100
AcDbLine
 62
7
  6
CONTINUOUS
 10
-1.3292415137
 20
-5.3773631566
 11
-1.3275428226
 21
-5.2519004153
  0
LINE
  5
773
100
AcDbEntity
  8
CURVE
100
AcDbLine
 62
7
  6
CONTINUOUS
 10
-1.1609641041
 20
13.2466107711
 11
-1.161459658
 21
13.2110742836
  0
LINE
  5
774
100
AcDbEntity
  8
ASSI
100
AcDbLine
 62
7
  6
CONTINUOUS
 10
-1.3290804698
 20
-5.3643508846
 11
-1.3273245699
 21
-5.2376178889
  0
LINE
  5
775
100
AcDbEntity
  8
RACCORDO
100
AcDbLine
 62
7
  6
CONTINUOUS
 10
-1.3283984617
 20
-0.3118756219
 11
-1.3268936685
 21
-0.2105881299
  0
LINE
  5
776
100
AcDbEntity
  8
ASSI
100
AcDbLine
 62
7
  6
CONTINUOUS
 10
-1.3284281457
 20
-0.3140725374
 11
-1.3268780397
 21
-0.2096363573
  0
LINE
  5
777
100
AcDbEntity
  8
CURVE
100
AcDbLine
 62
253
  6
CONTINUOUS
 10
-1.2280632451
 20
-3.4472131396
 11
-1.2233261626
 21
-3.1757842446
  0
LINE
  5
778
100
AcDbEntity
  8
CURVE
100
AcDbLine
 62
253
  6
CONTINUOUS
 10
-1.2280632451
 20
-4.8043558026
 11
-1.2233261626
 21
-4.5329273606
  0
LINE
  5
779
100
AcDbEntity
  8
CURVE
100
AcDbLine
 62
253
  6
CONTINUOUS
 10
-1.2138519997
 20
-8.4686415816
 11
-1.2091149182
 21
-8.1972131396
  0
LINE
  5
77A
100
AcDbEntity
  8
CURVE
100
AcDbLine
 62
253
  6
CONTINUOUS
 10
-1.2091149182
 20
-9.5543562556
 11
-1.2138519997
 21
-9.8257846976
  0
LINE
  5
77B
100
AcDbEntity
  8
CURVE
100
AcDbLine
 62
7
  6
CONTINUOUS
 10
-1.1555795241
 20
12.7443143603
 11
-1.15455923
 21
12.8061368542
  0
LINE
  5
77C
100
AcDbEntity
  8
RACCORDO
100
AcDbLine
 62
7
  6
CONTINUOUS
 10
-1.3275428226
 20
-5.2519004153
 11
-1.3260216822
 21
-5.1604233343
  0
LINE
  5
77D
100
AcDbEntity
  8
CURVE
100
AcDbLine
 62
7
  6
CONTINUOUS
 10
-1.1567189855
 20
1.0466876374
 11
-1.1554522165
 21
1.1254068673
  0
LINE
  5
77E
100
AcDbEntity
  8
CURVE
100
AcDbLine
 62
253
  6
CONTINUOUS
 10
-1.1602481802
 20
6.0731441747
 11
-1.1634893412
 21
5.8967156874
  0
LINE
  5
77F
100
AcDbEntity
  8
CURVE
100
AcDbLine
 62
7
  6
CONTINUOUS
 10
-1.1613943448
 20
1.6371574221
 11
-1.1618472101
 21
1.6094223131
  0
LINE
  5
780
100
AcDbEntity
  8
ASSI
100
AcDbLine
 62
7
  6
CONTINUOUS
 10
-1.3273245699
 20
-5.2376178889
 11
-1.3257545006
 21
-5.1462060785
  0
LINE
  5
781
100
AcDbEntity
  8
RACCORDO
100
AcDbLine
 62
7
  6
CONTINUOUS
 10
-1.3268936685
 20
-0.2105881299
 11
-1.3253667089
 21
-0.1264846002
  0
LINE
  5
782
100
AcDbEntity
  8
ASSI
100
AcDbLine
 62
7
  6
CONTINUOUS
 10
-1.3268780397
 20
-0.2096363573
 11
-1.3253049043
 21
-0.1234390155
  0
LINE
  5
783
100
AcDbEntity
  8
CURVE
100
AcDbLine
 62
253
  6
CONTINUOUS
 10
-1.2138519997
 20
-3.401974764
 11
-1.2091149182
 21
-3.1757842446
  0
LINE
  5
784
100
AcDbEntity
  8
RACCORDO
100
AcDbLine
 62
7
  6
CONTINUOUS
 10
-1.3253667089
 20
-0.1264846002
 11
-1.324842231
 21
-0.1015035295
  0
LINE
  5
785
100
AcDbEntity
  8
RACCORDO
100
AcDbLine
 62
7
  6
CONTINUOUS
 10
-1.3260216822
 20
-5.1604233343
 11
-1.324842231
 21
-5.1015035295
  0
LINE
  5
786
100
AcDbEntity
  8
ASSI
100
AcDbLine
 62
7
  6
CONTINUOUS
 10
-1.3253049043
 20
-0.1234390155
 11
-1.3248428498
 21
-0.1015042924
  0
LINE
  5
787
100
AcDbEntity
  8
ASSI
100
AcDbLine
 62
7
  6
CONTINUOUS
 10
-1.3257545006
 20
-5.1462060785
 11
-1.3248428498
 21
-5.1015042924
  0
LINE
  5
788
100
AcDbEntity
  8
CURVE
100
AcDbLine
 62
7
  6
CONTINUOUS
 10
-1.1618472101
 20
1.6094223131
 11
-1.162233239
 21
1.5912181756
  0
LINE
  5
789
100
AcDbEntity
  8
CURVE
100
AcDbLine
 62
7
  6
CONTINUOUS
 10
-1.1578061945
 20
0.9960842822
 11
-1.1567189855
 21
1.0466876374
  0
LWPOLYLINE
  5
78A
100
AcDbEntity
  8
RACCORDO
100
AcDbPolyline
 62
7
  6
CONTINUOUS
 90
34
 70
0
 10
-1.6253433673
 20
-17.6186458124
 10
-1.6256265176
 20
-17.6305410977
 10
-1.6264753331
 20
-17.6424094372
 10
-1.6278878932
 20
-17.6542239478
 10
-1.6298609996
 20
-17.6659578691
 10
-1.6323901856
 20
-17.6775846204
 10
-1.6354697256
 20
-17.6890778606
 10
-1.639092646
 20
-17.7004115554
 10
-1.6432507416
 20
-17.7115600309
 10
-1.6479345952
 20
-17.7224980279
 10
-1.6531335985
 20
-17.7332007692
 10
-1.6588359757
 20
-17.7436440099
 10
-1.6650288092
 20
-17.7538040875
 10
-1.6716980719
 20
-17.7636579868
 10
-1.6788286566
 20
-17.7731833855
 10
-1.6864044085
 20
-17.7823587007
 10
-1.6944081669
 20
-17.7911631477
 10
-1.7028218013
 20
-17.7995767821
 10
-1.7116262483
 20
-17.8075805405
 10
-1.7208015635
 20
-17.8151562923
 10
-1.7303269622
 20
-17.8222868771
 10
-1.7401808614
 20
-17.8289561398
 10
-1.7503409391
 20
-17.8351489733
 10
-1.7607841798
 20
-17.8408513505
 10
-1.771486921
 20
-17.8460503538
 10
-1.7824249181
 20
-17.8507342074
 10
-1.7935733936
 20
-17.854892303
 10
-1.8049070883
 20
-17.8585152233
 10
-1.8164003285
 20
-17.8615947634
 10
-1.8280270799
 20
-17.8641239494
 10
-1.8397610012
 20
-17.8660970558
 10
-1.8515755118
 20
-17.8675096159
 10
-1.8634438513
 20
-17.8683584314
 10
-1.8753391366
 20
-17.8686415816
  0
LINE
  5
78B
100
AcDbEntity
  8
CURVE
100
AcDbLine
 62
253
  6
CONTINUOUS
 10
-1.2195863621
 20
5.1789774661
 11
-1.2293098451
 21
4.8075487619
  0
LWPOLYLINE
  5
78C
100
AcDbEntity
  8
RACCORDO
100
AcDbPolyline
 62
253
  6
CONTINUOUS
 90
31
 70
0
 10
-1.6297152013
 20
-17.6142739784
 10
-1.6300582399
 20
-17.6273574644
 10
-1.6310855298
 20
-17.640405091
 10
-1.6327942554
 20
-17.6533810971
 10
-1.6351797333
 20
-17.666249918
 10
-1.6382354255
 20
-17.6789762825
 10
-1.6419529569
 20
-17.6915253102
 10
-1.6463221384
 20
-17.7038626065
 10
-1.6513309949
 20
-17.7159543571
 10
-1.6569657981
 20
-17.7277674209
 10
-1.663211104
 20
-17.7392694205
 10
-1.6700497954
 20
-17.750428831
 10
-1.6774631287
 20
-17.7612150666
 10
-1.6854307855
 20
-17.7715985643
 10
-1.6939309278
 20
-17.7815508647
 10
-1.7029402583
 20
-17.7910446906
 10
-1.7124340843
 20
-17.8000540212
 10
-1.7223863847
 20
-17.8085541635
 10
-1.7327698824
 20
-17.8165218202
 10
-1.743556118
 20
-17.8239351536
 10
-1.7547155285
 20
-17.830773845
 10
-1.766217528
 20
-17.8370191509
 10
-1.7780305918
 20
-17.8426539541
 10
-1.7901223425
 20
-17.8476628106
 10
-1.8024596388
 20
-17.8520319921
 10
-1.8150086664
 20
-17.8557495234
 10
-1.827735031
 20
-17.8588052156
 10
-1.8406038518
 20
-17.8611906936
 10
-1.853579858
 20
-17.8628994192
 10
-1.8666274846
 20
-17.8639267091
 10
-1.8797109706
 20
-17.8642697476
  0
LINE
  5
78D
100
AcDbEntity
  8
CURVE
100
AcDbLine
 62
7
  6
CONTINUOUS
 10
-1.162233239
 20
1.5912181756
 11
-1.1626482198
 21
1.5751040976
  0
LINE
  5
78E
100
AcDbEntity
  8
CURVE
100
AcDbLine
 62
7
  6
CONTINUOUS
 10
-1.1585875512
 20
0.9666514203
 11
-1.1578061945
 21
0.9960842822
  0
LINE
  5
78F
100
AcDbEntity
  8
CURVE
100
AcDbLine
 62
7
  6
CONTINUOUS
 10
-1.1626482198
 20
1.5751040976
 11
-1.1631680165
 21
1.5583919572
  0
LINE
  5
790
100
AcDbEntity
  8
CURVE
100
AcDbLine
 62
7
  6
CONTINUOUS
 10
-1.1594066548
 20
0.9407607522
 11
-1.1585875512
 21
0.9666514203
  0
LINE
  5
791
100
AcDbEntity
  8
CURVE
100
AcDbLine
 62
253
  6
CONTINUOUS
 10
-1.1899172712
 20
6.8432631915
 11
-1.2126053995
 21
6.193263114
  0
LINE
  5
792
100
AcDbEntity
  8
CURVE
100
AcDbLine
 62
253
  6
CONTINUOUS
 10
-1.2367478949
 20
-5.7543558026
 11
-1.2383269223
 21
-5.7995941783
  0
LINE
  5
793
100
AcDbEntity
  8
CURVE
100
AcDbLine
 62
253
  6
CONTINUOUS
 10
-1.2375374085
 20
-9.1472131396
 11
-1.2328003266
 21
-9.0114984656
  0
LINE
  5
794
100
AcDbEntity
  8
CURVE
100
AcDbLine
 62
253
  6
CONTINUOUS
 10
-1.2138519997
 20
-9.8257846976
 11
-1.2185890812
 21
-9.9614984656
  0
LINE
  5
795
100
AcDbEntity
  8
CURVE
100
AcDbLine
 62
7
  6
CONTINUOUS
 10
-1.1515413654
 20
-5.5847805816
 11
-1.1916428763
 21
-6.6973955816
  0
LINE
  5
796
100
AcDbEntity
  8
CURVE
100
AcDbLine
 62
253
  6
CONTINUOUS
 10
-1.1602481802
 20
8.6313584184
 11
-1.1732128249
 21
8.2785012597
  0
LINE
  5
797
100
AcDbEntity
  8
CURVE
100
AcDbLine
 62
7
  6
CONTINUOUS
 10
-1.202145653
 20
-6.3961875816
 11
-1.159793299
 21
-5.2434115816
  0
LINE
  5
798
100
AcDbEntity
  8
CURVE
100
AcDbLine
 62
7
  6
CONTINUOUS
 10
-1.1631680165
 20
1.5583919572
 11
-1.1635558858
 21
1.5480027533
  0
LWPOLYLINE
  5
799
100
AcDbEntity
  8
RACCORDO
100
AcDbPolyline
 62
253
  6
CONTINUOUS
 90
9
 70
0
 10
-1.6212925232
 20
-5.2664787215
 10
-1.6227454009
 20
-5.3032984004
 10
-1.6241738317
 20
-5.3502094042
 10
-1.6255576117
 20
-5.4069408463
 10
-1.6268958456
 20
-5.473161671
 10
-1.6281894288
 20
-5.5485127953
 10
-1.6294208432
 20
-5.6326345672
 10
-1.6305892
 20
-5.7250899922
 10
-1.6327245556
 20
-5.9331584155
  0
LWPOLYLINE
  5
79A
100
AcDbEntity
  8
ASSI
100
AcDbPolyline
 62
253
  6
CONTINUOUS
 90
9
 70
0
 10
-1.6212925232
 20
-5.2664787215
 10
-1.6227454009
 20
-5.3032984004
 10
-1.6241738317
 20
-5.3502094042
 10
-1.6255576117
 20
-5.4069408463
 10
-1.6268958456
 20
-5.473161671
 10
-1.6281894288
 20
-5.5485127953
 10
-1.6294208432
 20
-5.6326345672
 10
-1.6305892
 20
-5.7250899922
 10
-1.6327245556
 20
-5.9331584155
  0
LWPOLYLINE
  5
79B
100
AcDbEntity
  8
CURVE
100
AcDbPolyline
 62
7
  6
CONTINUOUS
 90
16
 70
0
 10
-1.1635558858
 20
1.5480027533
 10
-1.1639538905
 20
1.5390442805
 10
-1.1641563386
 20
1.5351174726
 10
-1.1643750965
 20
1.5313316776
 10
-1.1645960213
 20
1.5279575954
 10
-1.1648188706
 20
1.5249762848
 10
-1.1650434022
 20
1.5223688045
 10
-1.1652693737
 20
1.5201162132
 10
-1.1654965428
 20
1.5181995696
 10
-1.1657246672
 20
1.5165999324
 10
-1.1659535046
 20
1.5152983604
 10
-1.1661828126
 20
1.5142759123
 10
-1.166412349
 20
1.5135136467
 10
-1.1666418714
 20
1.5129926224
 10
-1.1668711375
 20
1.5126938981
 10
-1.1670999051
 20
1.5125985325
  0
LINE
  5
79C
100
AcDbEntity
  8
CURVE
100
AcDbLine
 62
7
  6
CONTINUOUS
 10
-1.202145653
 20
-4.3437155816
 11
-1.1515413654
 21
-3.3355415816
  0
LINE
  5
79D
100
AcDbEntity
  8
CURVE
100
AcDbLine
 62
7
  6
CONTINUOUS
 10
-1.202145653
 20
-10.3686415816
 11
-1.1515413654
 21
-9.3605765816
  0
LINE
  5
79E
100
AcDbEntity
  8
CURVE
100
AcDbLine
 62
7
  6
CONTINUOUS
 10
-1.1914203572
 20
-3.5081905816
 11
-1.202145653
 21
-3.7170725816
  0
LINE
  5
79F
100
AcDbEntity
  8
CURVE
100
AcDbLine
 62
7
  6
CONTINUOUS
 10
-1.1914203572
 20
-9.5332255816
 11
-1.202145653
 21
-9.7422155816
  0
LINE
  5
7A0
100
AcDbEntity
  8
CURVE
100
AcDbLine
 62
7
  6
CONTINUOUS
 10
-1.1612113179
 20
-2.9501125816
 11
-1.1830107476
 21
-3.3515845816
  0
LINE
  5
7A1
100
AcDbEntity
  8
CURVE
100
AcDbLine
 62
7
  6
CONTINUOUS
 10
-1.1612141797
 20
-8.9750905816
 11
-1.1830107476
 21
-9.3765105816
  0
LINE
  5
7A2
100
AcDbEntity
  8
CURVE
100
AcDbLine
 62
253
  6
CONTINUOUS
 10
-1.2195863621
 20
6.7575489168
 11
-1.2422744905
 21
6.3861203675
  0
LINE
  5
7A3
100
AcDbEntity
  8
CURVE
100
AcDbLine
 62
253
  6
CONTINUOUS
 10
-1.1602481802
 20
7.2199297838
 11
-1.1829363086
 21
6.867072662
  0
LWPOLYLINE
  5
7A4
100
AcDbEntity
  8
RACCORDO
100
AcDbPolyline
 62
253
  6
CONTINUOUS
 90
4
 70
0
 10
-1.6168074129
 20
-0.2186415816
 10
-1.6183268965
 20
-0.2239920278
 10
-1.6198219333
 20
-0.2399816369
 10
-1.6212925232
 20
-0.2664787215
  0
LWPOLYLINE
  5
7A5
100
AcDbEntity
  8
ASSI
100
AcDbPolyline
 62
253
  6
CONTINUOUS
 90
4
 70
0
 10
-1.6168074129
 20
-0.2186415816
 10
-1.6183268965
 20
-0.2239920278
 10
-1.6198219333
 20
-0.2399816369
 10
-1.6212925232
 20
-0.2664787215
  0
LINE
  5
7A6
100
AcDbEntity
  8
ASSI
100
AcDbLine
 62
7
  6
CONTINUOUS
 10
-16.5362964585
 20
-16.9907830473
 11
-16.509746921
 21
-16.9604330068
  0
LINE
  5
7A7
100
AcDbEntity
  8
ASSI
100
AcDbLine
 62
7
  6
CONTINUOUS
 10
-16.509746921
 20
-16.9604330068
 11
-16.4793883599
 21
-16.926256563
  0
LINE
  5
7A8
100
AcDbEntity
  8
ASSI
100
AcDbLine
 62
7
  6
CONTINUOUS
 10
-16.4793883599
 20
-16.926256563
 11
-16.445211083
 21
-16.8882583019
  0
LWPOLYLINE
  5
7A9
100
AcDbEntity
  8
ASSI
100
AcDbPolyline
 62
7
  6
CONTINUOUS
 90
3
 70
0
 10
-16.445211083
 20
-16.8882583019
 10
-16.3869136101
 20
-16.8241705251
 10
-16.3656788719
 20
-16.8009571617
  0
LINE
  5
7AA
100
AcDbEntity
  8
0
100
AcDbLine
 62
7
  6
CONTINUOUS
 10
-15.7753433673
 20
-13.0686415816
 11
-15.738687731
 21
-13.0319859453
  0
LINE
  5
7AB
100
AcDbEntity
  8
DRAFT
100
AcDbLine
 62
7
  6
CONTINUOUS
 10
-15.7753433673
 20
-13.0686415816
 11
-15.738687731
 21
-13.0319859453
  0
LINE
  5
7AC
100
AcDbEntity
  8
0
100
AcDbLine
 62
7
  6
CONTINUOUS
 10
-15.738687731
 20
-13.2319859453
 11
-15.7753433673
 21
-13.2686415816
  0
LINE
  5
7AD
100
AcDbEntity
  8
DRAFT
100
AcDbLine
 62
7
  6
CONTINUOUS
 10
-15.738687731
 20
-13.2319859453
 11
-15.7753433673
 21
-13.2686415816
  0
LINE
  5
7AE
100
AcDbEntity
  8
0
100
AcDbLine
 62
253
  6
CONTINUOUS
 10
-23.4253433673
 20
-11.0403406304
 11
-23.3031579128
 21
-10.989729758
  0
LINE
  5
7AF
100
AcDbEntity
  8
RACCORDO
100
AcDbLine
 62
253
  6
CONTINUOUS
 10
-23.4253433673
 20
-11.0403406304
 11
-23.3031579128
 21
-10.989729758
  0
LINE
  5
7B0
100
AcDbEntity
  8
CURVE
100
AcDbLine
 62
253
  6
CONTINUOUS
 10
-9.2039148181
 20
17.7027868127
 11
-8.6467719554
 21
17.7027868127
  0
LINE
  5
7B1
100
AcDbEntity
  8
CURVE
100
AcDbLine
 62
253
  6
CONTINUOUS
 10
-5.2039148181
 20
17.7027868127
 11
-4.6467719554
 21
17.7027868127
  0
LINE
  5
7B2
100
AcDbEntity
  8
CURVE
100
AcDbLine
 62
253
  6
CONTINUOUS
 10
-1.2228275231
 20
17.9856438803
 11
-1.2293098451
 21
17.9856438803
  0
LINE
  5
7B3
100
AcDbEntity
  8
CURVE
100
AcDbLine
 62
253
  6
CONTINUOUS
 10
-1.2422744905
 20
18.6031438803
 11
-1.2195863621
 21
18.6031438803
  0
LINE
  5
7B4
100
AcDbEntity
  8
CURVE
100
AcDbLine
 62
253
  6
CONTINUOUS
 10
-8.2753433673
 20
18.3527868127
 11
-9.2039148181
 21
18.6313584184
  0
LINE
  5
7B5
100
AcDbEntity
  8
0
100
AcDbLine
 62
253
  6
CONTINUOUS
 10
-23.3031579128
 20
24.2524465947
 11
-23.4253433673
 21
24.3030574671
  0
LINE
  5
7B6
100
AcDbEntity
  8
RACCORDO
100
AcDbLine
 62
253
  6
CONTINUOUS
 10
-23.3031579128
 20
24.2524465947
 11
-23.4253433673
 21
24.3030574671
  0
LINE
  5
7B7
100
AcDbEntity
  8
CURVE
100
AcDbLine
 62
253
  6
CONTINUOUS
 10
-8.6467719554
 20
17.7027868127
 11
-8.4610576614
 21
17.609930024
  0
LINE
  5
7B8
100
AcDbEntity
  8
CURVE
100
AcDbLine
 62
253
  6
CONTINUOUS
 10
-5.2039148181
 20
16.0313584184
 11
-5.3896290927
 21
16.1242155169
  0
LINE
  5
7B9
100
AcDbEntity
  8
CURVE
100
AcDbLine
 62
253
  6
CONTINUOUS
 10
-4.6467719554
 20
16.6813584184
 11
-4.4610576614
 21
16.5885013198
  0
LINE
  5
7BA
100
AcDbEntity
  8
CURVE
100
AcDbLine
 62
253
  6
CONTINUOUS
 10
-5.2039148181
 20
17.0527871226
 11
-5.3896290927
 21
17.1456442212
  0
LWPOLYLINE
  5
7BB
100
AcDbEntity
  8
0
100
AcDbPolyline
 62
253
  6
CONTINUOUS
 90
4
 70
0
 10
-14.1681796503
 20
23.9758071245
 10
-14.2051567003
 20
24.0088804035
 10
-14.2351509885
 20
24.0471943397
 10
-14.2572511536
 20
24.0895847835
  0
LWPOLYLINE
  5
7BC
100
AcDbEntity
  8
RACCORDO
100
AcDbPolyline
 62
253
  6
CONTINUOUS
 90
4
 70
0
 10
-14.1681796503
 20
23.9758071245
 10
-14.2051567003
 20
24.0088804035
 10
-14.2351509885
 20
24.0471943397
 10
-14.2572511536
 20
24.0895847835
  0
LINE
  5
7BD
100
AcDbEntity
  8
0
100
AcDbLine
 62
7
  6
CONTINUOUS
 10
-15.7753433673
 20
26.3313584184
 11
-15.738687731
 21
26.294702782
  0
LINE
  5
7BE
100
AcDbEntity
  8
DRAFT
100
AcDbLine
 62
7
  6
CONTINUOUS
 10
-15.7753433673
 20
26.3313584184
 11
-15.738687731
 21
26.294702782
  0
LINE
  5
7BF
100
AcDbEntity
  8
CURVE
100
AcDbLine
 62
253
  6
CONTINUOUS
 10
-5.3896290927
 20
16.1242155169
 11
-5.5753433673
 21
16.3099297141
  0
LINE
  5
7C0
100
AcDbEntity
  8
0
100
AcDbLine
 62
7
  6
CONTINUOUS
 10
-15.7753433673
 20
26.5313584184
 11
-15.738687731
 21
26.494702782
  0
LINE
  5
7C1
100
AcDbEntity
  8
DRAFT
100
AcDbLine
 62
7
  6
CONTINUOUS
 10
-15.7753433673
 20
26.5313584184
 11
-15.738687731
 21
26.494702782
  0
LINE
  5
7C2
100
AcDbEntity
  8
CURVE
100
AcDbLine
 62
253
  6
CONTINUOUS
 10
-4.2753433673
 20
15.5670726155
 11
-4.3682005144
 21
15.6599297141
  0
LINE
  5
7C3
100
AcDbEntity
  8
CURVE
100
AcDbLine
 62
253
  6
CONTINUOUS
 10
-5.3896290927
 20
17.1456442212
 11
-5.5753433673
 21
17.3313584184
  0
LINE
  5
7C4
100
AcDbEntity
  8
CURVE
100
AcDbLine
 62
253
  6
CONTINUOUS
 10
-4.4610576614
 20
16.5885013198
 11
-4.2753433673
 21
16.4027871226
  0
LINE
  5
7C5
100
AcDbEntity
  8
ASSI
100
AcDbLine
 62
7
  6
CONTINUOUS
 10
-16.3657780632
 20
30.0637824439
 11
-16.4268245709
 21
30.1306679397
  0
LINE
  5
7C6
100
AcDbEntity
  8
ASSI
100
AcDbLine
 62
7
  6
CONTINUOUS
 10
-16.4268245709
 20
30.1306679397
 11
-16.4629407705
 21
30.170642337
  0
LINE
  5
7C7
100
AcDbEntity
  8
ASSI
100
AcDbLine
 62
7
  6
CONTINUOUS
 10
-16.4629407705
 20
30.170642337
 11
-16.4952464577
 21
30.2067633388
  0
LWPOLYLINE
  5
7C8
100
AcDbEntity
  8
ASSI
100
AcDbPolyline
 62
7
  6
CONTINUOUS
 90
19
 70
0
 10
-16.4952464577
 20
30.2067633388
 10
-16.5237183064
 20
30.2390569677
 10
-16.5365277184
 20
30.2537664176
 10
-16.5484411546
 20
30.2675966076
 10
-16.5594665574
 20
30.2805465786
 10
-16.5696153153
 20
30.2926172897
 10
-16.5789317171
 20
30.3038829122
 10
-16.587418603
 20
30.3143399606
 10
-16.5950956414
 20
30.3239919204
 10
-16.6020161819
 20
30.3329234202
 10
-16.6081954929
 20
30.3411545446
 10
-16.6136231857
 20
30.348665209
 10
-16.6183045428
 20
30.3554797879
 10
-16.6222490094
 20
30.3615940495
 10
-16.6254646546
 20
30.3670122257
 10
-16.6279598536
 20
30.3717713861
 10
-16.6297487994
 20
30.3758838875
 10
-16.6308485685
 20
30.3793373731
 10
-16.6312761001
 20
30.3821318431
  0
LWPOLYLINE
  5
7C9
100
AcDbEntity
  8
RACCORDO
100
AcDbPolyline
 62
253
  6
CONTINUOUS
 90
4
 70
0
 10
-1.6168074129
 20
-5.2186415816
 10
-1.6183268965
 20
-5.2239920278
 10
-1.6198219333
 20
-5.2399816369
 10
-1.6212925232
 20
-5.2664787215
  0
LWPOLYLINE
  5
7CA
100
AcDbEntity
  8
ASSI
100
AcDbPolyline
 62
253
  6
CONTINUOUS
 90
4
 70
0
 10
-1.6168074129
 20
-5.2186415816
 10
-1.6183268965
 20
-5.2239920278
 10
-1.6198219333
 20
-5.2399816369
 10
-1.6212925232
 20
-5.2664787215
  0
LINE
  5
7CB
100
AcDbEntity
  8
DRAFT
100
AcDbLine
 62
7
  6
CONTINUOUS
 10
-4.0288306582
 20
-14.2791119621
 11
-4.0253433673
 21
-14.2686415816
  0
LWPOLYLINE
  5
7CC
100
AcDbEntity
  8
ASSI
100
AcDbPolyline
 62
7
  6
CONTINUOUS
 90
3
 70
0
 10
-16.3656788719
 20
-16.8009571617
 10
-16.2748584549
 20
-16.7023706787
 10
-16.203313355
 20
-16.6249993963
  0
LINE
  5
7CD
100
AcDbEntity
  8
ASSI
100
AcDbLine
 62
7
  6
CONTINUOUS
 10
-16.6753433673
 20
-17.1686415816
 11
-16.6316927205
 21
-17.1249909348
  0
LWPOLYLINE
  5
7CE
100
AcDbEntity
  8
0
100
AcDbPolyline
 62
253
  6
CONTINUOUS
 90
4
 70
0
 10
-14.1686655581
 20
-10.7134557525
 10
-14.125620024
 20
-10.6864056215
 10
-14.0780953039
 20
-10.6665431254
 10
-14.0274858327
 20
-10.6543975076
  0
LWPOLYLINE
  5
7CF
100
AcDbEntity
  8
RACCORDO
100
AcDbPolyline
 62
253
  6
CONTINUOUS
 90
4
 70
0
 10
-14.1686655581
 20
-10.7134557525
 10
-14.125620024
 20
-10.6864056215
 10
-14.0780953039
 20
-10.6665431254
 10
-14.0274858327
 20
-10.6543975076
  0
LINE
  5
7D0
100
AcDbEntity
  8
0
100
AcDbLine
 62
253
  6
CONTINUOUS
 10
-22.8396461478
 20
-12.4543388011
 11
-22.7174606933
 21
-12.4037279288
  0
LINE
  5
7D1
100
AcDbEntity
  8
RACCORDO
100
AcDbLine
 62
253
  6
CONTINUOUS
 10
-22.8396461478
 20
-12.4543388011
 11
-22.7174606933
 21
-12.4037279288
  0
LINE
  5
7D2
100
AcDbEntity
  8
CURVE
100
AcDbLine
 62
253
  6
CONTINUOUS
 10
-1.2422744905
 20
19.4852869057
 11
-1.2195863621
 21
19.4852869057
  0
LINE
  5
7D3
100
AcDbEntity
  8
CURVE
100
AcDbLine
 62
253
  6
CONTINUOUS
 10
-1.2422744905
 20
20.1910011493
 11
-1.2195863621
 21
20.1910011493
  0
LINE
  5
7D4
100
AcDbEntity
  8
CURVE
100
AcDbLine
 62
7
  6
CONTINUOUS
 10
-1.2020059852
 20
20.4170224184
 11
-1.1514047338
 21
20.4170224184
  0
LINE
  5
7D5
100
AcDbEntity
  8
CURVE
100
AcDbLine
 62
253
  6
CONTINUOUS
 10
-9.5753433673
 20
20.859930024
 11
-8.2753433673
 21
20.859930024
  0
LINE
  5
7D6
100
AcDbEntity
  8
CURVE
100
AcDbLine
 62
253
  6
CONTINUOUS
 10
-1.2390333291
 20
20.8967156874
 11
-1.2357921678
 21
20.8967156874
  0
LINE
  5
7D7
100
AcDbEntity
  8
CURVE
100
AcDbLine
 62
7
  6
CONTINUOUS
 10
-1.1514047338
 20
21.0222934184
 11
-1.2020059852
 21
21.0222934184
  0
LINE
  5
7D8
100
AcDbEntity
  8
CURVE
100
AcDbLine
 62
253
  6
CONTINUOUS
 10
-8.2753433673
 20
18.909930024
 11
-9.5753433673
 21
19.1885010098
  0
LINE
  5
7D9
100
AcDbEntity
  8
CURVE
100
AcDbLine
 62
253
  6
CONTINUOUS
 10
-4.2753433673
 20
18.909930024
 11
-5.5753433673
 21
19.1885010098
  0
LINE
  5
7DA
100
AcDbEntity
  8
CURVE
100
AcDbLine
 62
253
  6
CONTINUOUS
 10
-4.2753433673
 20
18.3527868127
 11
-5.2039148181
 21
18.6313584184
  0
LINE
  5
7DB
100
AcDbEntity
  8
0
100
AcDbLine
 62
253
  6
CONTINUOUS
 10
-22.7174606933
 20
25.6664447655
 11
-22.8396461478
 21
25.7170556379
  0
LINE
  5
7DC
100
AcDbEntity
  8
RACCORDO
100
AcDbLine
 62
253
  6
CONTINUOUS
 10
-22.7174606933
 20
25.6664447655
 11
-22.8396461478
 21
25.7170556379
  0
LINE
  5
7DD
100
AcDbEntity
  8
CURVE
100
AcDbLine
 62
253
  6
CONTINUOUS
 10
-4.6467719554
 20
17.7027868127
 11
-4.4610576614
 21
17.609930024
  0
LINE
  5
7DE
100
AcDbEntity
  8
CURVE
100
AcDbLine
 62
253
  6
CONTINUOUS
 10
-4.4610576614
 20
17.609930024
 11
-4.2753433673
 21
17.4242158269
  0
LINE
  5
7DF
100
AcDbEntity
  8
ASSI
100
AcDbLine
 62
7
  6
CONTINUOUS
 10
-16.6753433673
 20
30.4313584184
 11
-16.6316927205
 21
30.3877077715
  0
LINE
  5
7E0
100
AcDbEntity
  8
ASSI
100
AcDbLine
 62
7
  6
CONTINUOUS
 10
-16.203313355
 20
29.8877162331
 11
-16.2983867876
 21
29.9905441189
  0
LINE
  5
7E1
100
AcDbEntity
  8
ASSI
100
AcDbLine
 62
7
  6
CONTINUOUS
 10
-16.2983867876
 20
29.9905441189
 11
-16.3657780632
 21
30.0637824439
  0
LINE
  5
7E2
100
AcDbEntity
  8
DRAFT
100
AcDbLine
 62
7
  6
CONTINUOUS
 10
-4.0288306582
 20
27.5418287988
 11
-4.0253433673
 21
27.5313584184
  0
LINE
  5
7E3
100
AcDbEntity
  8
CURVE
100
AcDbLine
 62
7
  6
CONTINUOUS
 10
-1.1689663002
 20
19.3815204184
 11
-1.2020059852
 21
19.5121374184
  0
LINE
  5
7E4
100
AcDbEntity
  8
CURVE
100
AcDbLine
 62
7
  6
CONTINUOUS
 10
-1.2020059852
 20
20.0911854184
 11
-1.1514077701
 21
19.8293634184
  0
LINE
  5
7E5
100
AcDbEntity
  8
CURVE
100
AcDbLine
 62
253
  6
CONTINUOUS
 10
-4.2753433673
 20
21.2313584184
 11
-5.5753433673
 21
21.2313584184
  0
LINE
  5
7E6
100
AcDbEntity
  8
CURVE
100
AcDbLine
 62
253
  6
CONTINUOUS
 10
-1.2260686841
 20
21.5142155402
 11
-1.2228275231
 21
21.5142155402
  0
LINE
  5
7E7
100
AcDbEntity
  8
CURVE
100
AcDbLine
 62
253
  6
CONTINUOUS
 10
-8.2753433673
 20
21.6956442212
 11
-9.5753433673
 21
21.6956442212
  0
LINE
  5
7E8
100
AcDbEntity
  8
CURVE
100
AcDbLine
 62
253
  6
CONTINUOUS
 10
-4.2753433673
 20
21.9742158269
 11
-5.5753433673
 21
21.9742158269
  0
LINE
  5
7E9
100
AcDbEntity
  8
CURVE
100
AcDbLine
 62
253
  6
CONTINUOUS
 10
-1.2195863621
 20
22.9256441011
 11
-1.2422744905
 21
22.9256441011
  0
LWPOLYLINE
  5
7EA
100
AcDbEntity
  8
0
100
AcDbPolyline
 62
253
  6
CONTINUOUS
 90
3
 70
0
 10
-14.0779494103
 20
23.929212429
 10
-14.1253433673
 20
23.9489794176
 10
-14.1681796503
 20
23.9758071245
  0
LWPOLYLINE
  5
7EB
100
AcDbEntity
  8
RACCORDO
100
AcDbPolyline
 62
253
  6
CONTINUOUS
 90
3
 70
0
 10
-14.0779494103
 20
23.929212429
 10
-14.1253433673
 20
23.9489794176
 10
-14.1681796503
 20
23.9758071245
  0
LINE
  5
7EC
100
AcDbEntity
  8
DRAFT
100
AcDbLine
 62
7
  6
CONTINUOUS
 10
-5.0335216655
 20
-14.3646371273
 11
-4.9765056927
 21
-14.2791119621
  0
LWPOLYLINE
  5
7ED
100
AcDbEntity
  8
0
100
AcDbPolyline
 62
253
  6
CONTINUOUS
 90
3
 70
0
 10
-10.4725914307
 20
23.9292599622
 10
-10.523200902
 20
23.9171143444
 10
-10.5753433673
 20
23.9130302611
  0
LWPOLYLINE
  5
7EE
100
AcDbEntity
  8
RACCORDO
100
AcDbPolyline
 62
253
  6
CONTINUOUS
 90
3
 70
0
 10
-10.4725914307
 20
23.9292599622
 10
-10.523200902
 20
23.9171143444
 10
-10.5753433673
 20
23.9130302611
  0
LINE
  5
7EF
100
AcDbEntity
  8
0
100
AcDbLine
 62
7
  6
CONTINUOUS
 10
-9.7753433673
 20
23.2313584184
 11
-14.7753433673
 21
23.2313584184
  0
LINE
  5
7F0
100
AcDbEntity
  8
ASSI
100
AcDbLine
 62
7
  6
CONTINUOUS
 10
-9.7753433673
 20
23.2313584184
 11
-14.7753433673
 21
23.2313584184
  0
LINE
  5
7F1
100
AcDbEntity
  8
CURVE
100
AcDbLine
 62
253
  6
CONTINUOUS
 10
-1.2422744905
 20
23.6313584184
 11
-1.2195863621
 21
23.6313584184
  0
LINE
  5
7F2
100
AcDbEntity
  8
0
100
AcDbLine
 62
7
  6
CONTINUOUS
 10
-14.7753433673
 20
23.6813584184
 11
-9.7753433673
 21
23.6813584184
  0
LINE
  5
7F3
100
AcDbEntity
  8
0
100
AcDbLine
 62
7
  6
CONTINUOUS
 10
-10.5753433673
 20
23.8813584184
 11
-13.9753433673
 21
23.8813584184
  0
LINE
  5
7F4
100
AcDbEntity
  8
RACCORDO
100
AcDbLine
 62
7
  6
CONTINUOUS
 10
-10.5753433673
 20
23.8813584184
 11
-13.9753433673
 21
23.8813584184
  0
LINE
  5
7F5
100
AcDbEntity
  8
0
100
AcDbLine
 62
253
  6
CONTINUOUS
 10
-10.5753433673
 20
23.9130302611
 11
-13.9753433673
 21
23.9130302611
  0
LINE
  5
7F6
100
AcDbEntity
  8
RACCORDO
100
AcDbLine
 62
253
  6
CONTINUOUS
 10
-10.5753433673
 20
23.9130302611
 11
-13.9753433673
 21
23.9130302611
  0
LINE
  5
7F7
100
AcDbEntity
  8
RACCORDO
100
AcDbLine
 62
7
  6
CONTINUOUS
 10
-13.9579212546
 20
23.9313584184
 11
-10.5927654801
 21
23.9313584184
  0
LINE
  5
7F8
100
AcDbEntity
  8
ASSI
100
AcDbLine
 62
7
  6
CONTINUOUS
 10
-13.9579212546
 20
23.9313584184
 11
-10.5927654801
 21
23.9313584184
  0
LINE
  5
7F9
100
AcDbEntity
  8
ASSI
100
AcDbLine
 62
7
  6
CONTINUOUS
 10
-9.7753433673
 20
24.1313584184
 11
-14.7753433673
 21
24.1313584184
  0
LINE
  5
7FA
100
AcDbEntity
  8
0
100
AcDbLine
 62
253
  6
CONTINUOUS
 10
-13.9753433673
 20
23.9130302611
 11
-14.0274378206
 21
23.9171067687
  0
LINE
  5
7FB
100
AcDbEntity
  8
RACCORDO
100
AcDbLine
 62
253
  6
CONTINUOUS
 10
-13.9753433673
 20
23.9130302611
 11
-14.0274378206
 21
23.9171067687
  0
LINE
  5
7FC
100
AcDbEntity
  8
0
100
AcDbLine
 62
253
  6
CONTINUOUS
 10
-14.0274378206
 20
23.9171067687
 11
-14.0779494103
 21
23.929212429
  0
LINE
  5
7FD
100
AcDbEntity
  8
RACCORDO
100
AcDbLine
 62
253
  6
CONTINUOUS
 10
-14.0274378206
 20
23.9171067687
 11
-14.0779494103
 21
23.929212429
  0
LINE
  5
7FE
100
AcDbEntity
  8
DRAFT
100
AcDbLine
 62
7
  6
CONTINUOUS
 10
-5.0335216655
 20
27.6273539641
 11
-4.9765056927
 21
27.5418287988
  0
LINE
  5
7FF
100
AcDbEntity
  8
ASSI
100
AcDbLine
 62
7
  6
CONTINUOUS
 10
-8.6811927981
 20
-16.9917486926
 11
-8.6546588974
 21
-16.9613991753
  0
LINE
  5
800
100
AcDbEntity
  8
ASSI
100
AcDbLine
 62
7
  6
CONTINUOUS
 10
-8.6546588974
 20
-16.9613991753
 11
-8.6242887025
 21
-16.9271965641
  0
LINE
  5
801
100
AcDbEntity
  8
ASSI
100
AcDbLine
 62
7
  6
CONTINUOUS
 10
-8.6242887025
 20
-16.9271965641
 11
-8.5900630533
 21
-16.889134304
  0
LINE
  5
802
100
AcDbEntity
  8
ASSI
100
AcDbLine
 62
7
  6
CONTINUOUS
 10
-8.5900630533
 20
-16.889134304
 11
-8.531611858
 21
-16.8248681086
  0
LINE
  5
803
100
AcDbEntity
  8
ASSI
100
AcDbLine
 62
7
  6
CONTINUOUS
 10
-8.531611858
 20
-16.8248681086
 11
-8.3473733797
 21
-16.6249993963
  0
LINE
  5
804
100
AcDbEntity
  8
RACCORDO
100
AcDbLine
 62
7
  6
CONTINUOUS
 10
-5.0323648688
 20
-13.1256630831
 11
-4.9753433673
 21
-13.0686415816
  0
LINE
  5
805
100
AcDbEntity
  8
0
100
AcDbLine
 62
7
  6
CONTINUOUS
 10
-4.8753433673
 20
-13.0686415816
 11
-4.838687731
 21
-13.0319859453
  0
LINE
  5
806
100
AcDbEntity
  8
DRAFT
100
AcDbLine
 62
7
  6
CONTINUOUS
 10
-4.8753433673
 20
-13.0686415816
 11
-4.838687731
 21
-13.0319859453
  0
LINE
  5
807
100
AcDbEntity
  8
RACCORDO
100
AcDbLine
 62
7
  6
CONTINUOUS
 10
-1.555135132
 20
-10.6669458285
 11
-2.1770391205
 21
-11.288849817
  0
LINE
  5
808
100
AcDbEntity
  8
ASSI
100
AcDbLine
 62
7
  6
CONTINUOUS
 10
-1.555135132
 20
-10.6669458285
 11
-2.1770391205
 21
-11.288849817
  0
LINE
  5
809
100
AcDbEntity
  8
0
100
AcDbLine
 62
7
  6
CONTINUOUS
 10
-4.838687731
 20
-11.6348110493
 11
-4.8212326661
 21
-11.6260841815
  0
LINE
  5
80A
100
AcDbEntity
  8
DRAFT
100
AcDbLine
 62
7
  6
CONTINUOUS
 10
-4.838687731
 20
-11.6348110493
 11
-4.8212326661
 21
-11.6260841815
  0
LWPOLYLINE
  5
80B
100
AcDbEntity
  8
0
100
AcDbPolyline
 62
7
  6
CONTINUOUS
 90
12
 70
0
 10
-10.6509469059
 20
26.5159872348
 10
-10.5330750778
 20
26.5163677089
 10
-10.420203648
 20
26.5169865202
 10
-10.3108478655
 20
26.5178584848
 10
-10.2064924814
 20
26.5189687866
 10
-10.1115917491
 20
26.5202729774
 10
-10.0265236648
 20
26.5217829995
 10
-9.9509102322
 20
26.5234869105
 10
-9.8880717162
 20
26.5253044354
 10
-9.8391148716
 20
26.5272088158
 10
-9.8029329435
 20
26.5292268101
 10
-9.7795259319
 20
26.5313584184
  0
LINE
  5
80C
100
AcDbEntity
  8
ASSI
100
AcDbLine
 62
7
  6
CONTINUOUS
 10
-9.7753433673
 20
24.8313584184
 11
-14.7753433673
 21
24.8313584184
  0
LINE
  5
80D
100
AcDbEntity
  8
RACCORDO
100
AcDbLine
 62
7
  6
CONTINUOUS
 10
-2.8841189772
 20
24.8444487201
 11
-8.2622530657
 21
24.8444487201
  0
LINE
  5
80E
100
AcDbEntity
  8
ASSI
100
AcDbLine
 62
7
  6
CONTINUOUS
 10
-2.8841189772
 20
24.8444487201
 11
-8.2622530657
 21
24.8444487201
  0
LINE
  5
80F
100
AcDbEntity
  8
0
100
AcDbLine
 62
7
  6
CONTINUOUS
 10
-14.7753433673
 20
24.9313584184
 11
-9.7753433673
 21
24.9313584184
  0
LINE
  5
810
100
AcDbEntity
  8
ASSI
100
AcDbLine
 62
7
  6
CONTINUOUS
 10
-14.7753433673
 20
24.9313584184
 11
-9.7753433673
 21
24.9313584184
  0
LINE
  5
811
100
AcDbEntity
  8
ASSI
100
AcDbLine
 62
7
  6
CONTINUOUS
 10
-3.2753433673
 20
25.2313584184
 11
-8.2622530657
 21
25.2313584184
  0
LINE
  5
812
100
AcDbEntity
  8
RACCORDO
100
AcDbLine
 62
7
  6
CONTINUOUS
 10
-8.5622416426
 20
26.2444487201
 11
-21.6665677575
 21
26.2444487201
  0
LINE
  5
813
100
AcDbEntity
  8
ASSI
100
AcDbLine
 62
7
  6
CONTINUOUS
 10
-8.5622416426
 20
26.2444487201
 11
-21.6665677575
 21
26.2444487201
  0
LINE
  5
814
100
AcDbEntity
  8
0
100
AcDbLine
 62
7
  6
CONTINUOUS
 10
-4.838687731
 20
26.294702782
 11
-8.8119990037
 21
26.294702782
  0
LINE
  5
815
100
AcDbEntity
  8
DRAFT
100
AcDbLine
 62
7
  6
CONTINUOUS
 10
-4.838687731
 20
26.294702782
 11
-8.8119990037
 21
26.294702782
  0
LINE
  5
816
100
AcDbEntity
  8
0
100
AcDbLine
 62
7
  6
CONTINUOUS
 10
-15.738687731
 20
26.294702782
 11
-19.7119990037
 21
26.294702782
  0
LINE
  5
817
100
AcDbEntity
  8
DRAFT
100
AcDbLine
 62
7
  6
CONTINUOUS
 10
-15.738687731
 20
26.294702782
 11
-19.7119990037
 21
26.294702782
  0
LINE
  5
818
100
AcDbEntity
  8
0
100
AcDbLine
 62
7
  6
CONTINUOUS
 10
-4.8753433673
 20
26.3313584184
 11
-8.7753433673
 21
26.3313584184
  0
LINE
  5
819
100
AcDbEntity
  8
DRAFT
100
AcDbLine
 62
7
  6
CONTINUOUS
 10
-4.8753433673
 20
26.3313584184
 11
-8.7753433673
 21
26.3313584184
  0
LINE
  5
81A
100
AcDbEntity
  8
0
100
AcDbLine
 62
7
  6
CONTINUOUS
 10
-15.7753433673
 20
26.3313584184
 11
-19.6753433673
 21
26.3313584184
  0
LINE
  5
81B
100
AcDbEntity
  8
DRAFT
100
AcDbLine
 62
7
  6
CONTINUOUS
 10
-15.7753433673
 20
26.3313584184
 11
-19.6753433673
 21
26.3313584184
  0
LINE
  5
81C
100
AcDbEntity
  8
RACCORDO
100
AcDbLine
 62
253
  6
CONTINUOUS
 10
-19.5183218659
 20
26.3883799198
 11
-18.6323648688
 21
26.3883799198
  0
LINE
  5
81D
100
AcDbEntity
  8
RACCORDO
100
AcDbLine
 62
253
  6
CONTINUOUS
 10
-5.9183218659
 20
26.3883799198
 11
-5.0323648688
 21
26.3883799198
  0
LINE
  5
81E
100
AcDbEntity
  8
0
100
AcDbLine
 62
7
  6
CONTINUOUS
 10
-15.738687731
 20
26.494702782
 11
-8.8119990037
 21
26.494702782
  0
LINE
  5
81F
100
AcDbEntity
  8
DRAFT
100
AcDbLine
 62
7
  6
CONTINUOUS
 10
-15.738687731
 20
26.494702782
 11
-8.8119990037
 21
26.494702782
  0
LINE
  5
820
100
AcDbEntity
  8
0
100
AcDbLine
 62
7
  6
CONTINUOUS
 10
-13.7768676022
 20
26.515845098
 11
-10.6509469059
 21
26.5159872348
  0
LINE
  5
821
100
AcDbEntity
  8
0
100
AcDbLine
 62
7
  6
CONTINUOUS
 10
-15.7753433673
 20
26.5313584184
 11
-14.7698216476
 21
26.5313584184
  0
LINE
  5
822
100
AcDbEntity
  8
0
100
AcDbLine
 62
7
  6
CONTINUOUS
 10
-9.7808650871
 20
26.5313584184
 11
-8.7753433673
 21
26.5313584184
  0
LINE
  5
823
100
AcDbEntity
  8
RACCORDO
100
AcDbLine
 62
253
  6
CONTINUOUS
 10
-19.5171650692
 20
26.5883765352
 11
-18.6335216655
 21
26.5883765352
  0
LINE
  5
824
100
AcDbEntity
  8
RACCORDO
100
AcDbLine
 62
253
  6
CONTINUOUS
 10
-5.9171650692
 20
26.5883765352
 11
-5.0335216655
 21
26.5883765352
  0
LWPOLYLINE
  5
825
100
AcDbEntity
  8
0
100
AcDbPolyline
 62
7
  6
CONTINUOUS
 90
13
 70
0
 10
-13.7768676022
 20
26.515845098
 10
-13.8997398287
 20
26.5159872348
 10
-14.0176116569
 20
26.5163677089
 10
-14.1304830867
 20
26.5169865202
 10
-14.2398388692
 20
26.5178584848
 10
-14.3441942533
 20
26.5189687866
 10
-14.4390949856
 20
26.5202729774
 10
-14.5241630699
 20
26.5217829995
 10
-14.5997765025
 20
26.5234869105
 10
-14.6626150185
 20
26.5253044354
 10
-14.7115718631
 20
26.5272088158
 10
-14.7477537912
 20
26.5292268101
 10
-14.7711608028
 20
26.5313584184
  0
LINE
  5
826
100
AcDbEntity
  8
RACCORDO
100
AcDbLine
 62
7
  6
CONTINUOUS
 10
-5.0323648688
 20
26.3883799198
 11
-4.9753433673
 21
26.3313584184
  0
LINE
  5
827
100
AcDbEntity
  8
0
100
AcDbLine
 62
7
  6
CONTINUOUS
 10
-4.8753433673
 20
26.3313584184
 11
-4.838687731
 21
26.294702782
  0
LINE
  5
828
100
AcDbEntity
  8
DRAFT
100
AcDbLine
 62
7
  6
CONTINUOUS
 10
-4.8753433673
 20
26.3313584184
 11
-4.838687731
 21
26.294702782
  0
LINE
  5
829
100
AcDbEntity
  8
RACCORDO
100
AcDbLine
 62
7
  6
CONTINUOUS
 10
-1.555135132
 20
23.9296626652
 11
-2.1770391205
 21
24.5515666537
  0
LINE
  5
82A
100
AcDbEntity
  8
ASSI
100
AcDbLine
 62
7
  6
CONTINUOUS
 10
-1.555135132
 20
23.9296626652
 11
-2.1770391205
 21
24.5515666537
  0
LINE
  5
82B
100
AcDbEntity
  8
ASSI
100
AcDbLine
 62
7
  6
CONTINUOUS
 10
-8.3473733797
 20
29.8877162331
 11
-8.442762001
 21
29.9908853199
  0
LINE
  5
82C
100
AcDbEntity
  8
ASSI
100
AcDbLine
 62
7
  6
CONTINUOUS
 10
-8.442762001
 20
29.9908853199
 11
-8.5317151206
 21
30.0876984617
  0
LINE
  5
82D
100
AcDbEntity
  8
ASSI
100
AcDbLine
 62
7
  6
CONTINUOUS
 10
-8.5317151206
 20
30.0876984617
 11
-8.5902126891
 21
30.1520165024
  0
LINE
  5
82E
100
AcDbEntity
  8
ASSI
100
AcDbLine
 62
7
  6
CONTINUOUS
 10
-8.5902126891
 20
30.1520165024
 11
-8.6244817855
 21
30.1901290019
  0
LINE
  5
82F
100
AcDbEntity
  8
ASSI
100
AcDbLine
 62
7
  6
CONTINUOUS
 10
-8.6244817855
 20
30.1901290019
 11
-8.6548856662
 21
30.2243732596
  0
LWPOLYLINE
  5
830
100
AcDbEntity
  8
ASSI
100
AcDbPolyline
 62
7
  6
CONTINUOUS
 90
18
 70
0
 10
-8.6548856662
 20
30.2243732596
 10
-8.6814323216
 20
30.2547417779
 10
-8.6933287308
 20
30.2685628543
 10
-8.7043310371
 20
30.2814981988
 10
-8.7144516201
 20
30.2935491619
 10
-8.7237374397
 20
30.304793016
 10
-8.7321917511
 20
30.3152278075
 10
-8.7398327949
 20
30.3248554901
 10
-8.7467131001
 20
30.3337591972
 10
-8.7528477256
 20
30.341959213
 10
-8.7582253892
 20
30.3494352533
 10
-8.7628499534
 20
30.3562095998
 10
-8.7667307468
 20
30.362277234
 10
-8.7698760988
 20
30.3676431744
 10
-8.7722943185
 20
30.3723447583
 10
-8.7739999475
 20
30.3763944316
 10
-8.7750105204
 20
30.3797797484
 10
-8.7753433673
 20
30.3825007087
  0
LINE
  5
831
100
AcDbEntity
  8
0
100
AcDbLine
 62
7
  6
CONTINUOUS
 10
-3.6481396942
 20
-14.2186415816
 11
-1.8332260414
 21
-12.4037279288
  0
LINE
  5
832
100
AcDbEntity
  8
RACCORDO
100
AcDbLine
 62
7
  6
CONTINUOUS
 10
-3.6481396942
 20
-14.2186415816
 11
-1.8332260414
 21
-12.4037279288
  0
LINE
  5
833
100
AcDbEntity
  8
RACCORDO
100
AcDbLine
 62
7
  6
CONTINUOUS
 10
-5.0166164996
 20
-15.7599147138
 11
-4.0253433673
 21
-14.7686415816
  0
LINE
  5
834
100
AcDbEntity
  8
0
100
AcDbLine
 62
7
  6
CONTINUOUS
 10
-3.4753433673
 20
-14.2186415816
 11
-1.7110405869
 21
-12.4543388011
  0
LINE
  5
835
100
AcDbEntity
  8
RACCORDO
100
AcDbLine
 62
7
  6
CONTINUOUS
 10
-3.4753433673
 20
-14.2186415816
 11
-1.7110405869
 21
-12.4543388011
  0
LINE
  5
836
100
AcDbEntity
  8
DRAFT
100
AcDbLine
 62
7
  6
CONTINUOUS
 10
-5.9840701121
 20
26.6182681167
 11
-9.7760148519
 21
26.6182681167
  0
LINE
  5
837
100
AcDbEntity
  8
DRAFT
100
AcDbLine
 62
7
  6
CONTINUOUS
 10
-14.7746718828
 20
26.6182681167
 11
-18.5666166226
 21
26.6182681167
  0
LINE
  5
838
100
AcDbEntity
  8
DRAFT
100
AcDbLine
 62
7
  6
CONTINUOUS
 10
-8.7753433673
 20
26.6313584184
 11
-9.7759911862
 21
26.6313584184
  0
LINE
  5
839
100
AcDbEntity
  8
DRAFT
100
AcDbLine
 62
7
  6
CONTINUOUS
 10
-14.7746955485
 20
26.6313584184
 11
-15.7753433673
 21
26.6313584184
  0
LINE
  5
83A
100
AcDbEntity
  8
DRAFT
100
AcDbLine
 62
7
  6
CONTINUOUS
 10
-14.7753433673
 20
26.6845923119
 11
-14.7166544905
 21
26.6845923119
  0
LINE
  5
83B
100
AcDbEntity
  8
DRAFT
100
AcDbLine
 62
7
  6
CONTINUOUS
 10
-9.8340322442
 20
26.6845923119
 11
-9.7753433673
 21
26.6845923119
  0
LINE
  5
83C
100
AcDbEntity
  8
RACCORDO
100
AcDbLine
 62
253
  6
CONTINUOUS
 10
-18.6306381353
 20
26.71430174
 11
-5.9200485994
 21
26.71430174
  0
LINE
  5
83D
100
AcDbEntity
  8
RACCORDO
100
AcDbLine
 62
253
  6
CONTINUOUS
 10
-18.6335216655
 20
27.2142827016
 11
-5.9171650692
 21
27.2142827016
  0
LINE
  5
83E
100
AcDbEntity
  8
DRAFT
100
AcDbLine
 62
7
  6
CONTINUOUS
 10
-2.6515259647
 20
27.4527467494
 11
-3.4467316984
 21
27.4527467494
  0
LINE
  5
83F
100
AcDbEntity
  8
DRAFT
100
AcDbLine
 62
7
  6
CONTINUOUS
 10
-4.8753433673
 20
27.4527467494
 11
-4.9666166226
 21
27.4527467494
  0
LINE
  5
840
100
AcDbEntity
  8
DRAFT
100
AcDbLine
 62
7
  6
CONTINUOUS
 10
-19.5840701121
 20
27.4527467494
 11
-19.6753433673
 21
27.4527467494
  0
LINE
  5
841
100
AcDbEntity
  8
DRAFT
100
AcDbLine
 62
7
  6
CONTINUOUS
 10
-21.1039550363
 20
27.4527467494
 11
-21.89916077
 21
27.4527467494
  0
LINE
  5
842
100
AcDbEntity
  8
0
100
AcDbLine
 62
7
  6
CONTINUOUS
 10
-3.4753433673
 20
27.4813584184
 11
-4.8753433673
 21
27.4813584184
  0
LINE
  5
843
100
AcDbEntity
  8
DRAFT
100
AcDbLine
 62
7
  6
CONTINUOUS
 10
-3.4753433673
 20
27.4813584184
 11
-4.8753433673
 21
27.4813584184
  0
LINE
  5
844
100
AcDbEntity
  8
0
100
AcDbLine
 62
7
  6
CONTINUOUS
 10
-19.6753433673
 20
27.4813584184
 11
-21.0753433673
 21
27.4813584184
  0
LINE
  5
845
100
AcDbEntity
  8
DRAFT
100
AcDbLine
 62
7
  6
CONTINUOUS
 10
-19.6753433673
 20
27.4813584184
 11
-21.0753433673
 21
27.4813584184
  0
LINE
  5
846
100
AcDbEntity
  8
DRAFT
100
AcDbLine
 62
7
  6
CONTINUOUS
 10
-2.6253433673
 20
27.5313584184
 11
-4.0253433673
 21
27.5313584184
  0
LINE
  5
847
100
AcDbEntity
  8
DRAFT
100
AcDbLine
 62
7
  6
CONTINUOUS
 10
-20.5253433673
 20
27.5313584184
 11
-21.9253433673
 21
27.5313584184
  0
LINE
  5
848
100
AcDbEntity
  8
DRAFT
100
AcDbLine
 62
7
  6
CONTINUOUS
 10
-4.0288306582
 20
27.5418287988
 11
-4.9765056927
 21
27.5418287988
  0
LINE
  5
849
100
AcDbEntity
  8
DRAFT
100
AcDbLine
 62
7
  6
CONTINUOUS
 10
-19.574181042
 20
27.5418287988
 11
-20.5218560765
 21
27.5418287988
  0
LINE
  5
84A
100
AcDbEntity
  8
RACCORDO
100
AcDbLine
 62
7
  6
CONTINUOUS
 10
-4.6912426482
 20
27.6273539641
 11
-5.0335216655
 21
27.6273539641
  0
LINE
  5
84B
100
AcDbEntity
  8
RACCORDO
100
AcDbLine
 62
7
  6
CONTINUOUS
 10
-19.5171650692
 20
27.6273539641
 11
-19.8594440865
 21
27.6273539641
  0
LINE
  5
84C
100
AcDbEntity
  8
0
100
AcDbLine
 62
7
  6
CONTINUOUS
 10
-9.2753433673
 20
27.6313584184
 11
-15.2753433673
 21
27.6313584184
  0
LINE
  5
84D
100
AcDbEntity
  8
RACCORDO
100
AcDbLine
 62
253
  6
CONTINUOUS
 10
-4.6912426482
 20
27.9440516621
 11
-9.2753433673
 21
27.9440516621
  0
LINE
  5
84E
100
AcDbEntity
  8
RACCORDO
100
AcDbLine
 62
253
  6
CONTINUOUS
 10
-15.2753433673
 20
27.9440516621
 11
-19.8594440865
 21
27.9440516621
  0
LINE
  5
84F
100
AcDbEntity
  8
0
100
AcDbLine
 62
7
  6
CONTINUOUS
 10
-15.2753433673
 20
28.3313584184
 11
-9.2753433673
 21
28.3313584184
  0
LINE
  5
850
100
AcDbEntity
  8
0
100
AcDbLine
 62
7
  6
CONTINUOUS
 10
-1.8332260414
 20
25.6664447655
 11
-3.6481396942
 21
27.4813584184
  0
LINE
  5
851
100
AcDbEntity
  8
RACCORDO
100
AcDbLine
 62
7
  6
CONTINUOUS
 10
-1.8332260414
 20
25.6664447655
 11
-3.6481396942
 21
27.4813584184
  0
LINE
  5
852
100
AcDbEntity
  8
0
100
AcDbLine
 62
7
  6
CONTINUOUS
 10
-1.7110405869
 20
25.7170556379
 11
-3.4753433673
 21
27.4813584184
  0
LINE
  5
853
100
AcDbEntity
  8
RACCORDO
100
AcDbLine
 62
7
  6
CONTINUOUS
 10
-1.7110405869
 20
25.7170556379
 11
-3.4753433673
 21
27.4813584184
  0
LINE
  5
854
100
AcDbEntity
  8
RACCORDO
100
AcDbLine
 62
7
  6
CONTINUOUS
 10
-4.0253433673
 20
28.0313584184
 11
-5.0166164996
 21
29.0226315506
  0
LINE
  5
855
100
AcDbEntity
  8
RACCORDO
100
AcDbLine
 62
253
  6
CONTINUOUS
 10
-4.0209715333
 20
-17.6142739784
 11
-4.0253433673
 21
-17.6186458124
  0
LINE
  5
856
100
AcDbEntity
  8
RACCORDO
100
AcDbLine
 62
253
  6
CONTINUOUS
 10
-3.7709757641
 20
-17.8642697476
 11
-3.7753475981
 21
-17.8686415816
  0
LINE
  5
857
100
AcDbEntity
  8
RACCORDO
100
AcDbLine
 62
7
  6
CONTINUOUS
 10
-4.1913188006
 20
-14.3603498459
 11
-4.0288306582
 21
-14.2791119621
  0
LINE
  5
858
100
AcDbEntity
  8
RACCORDO
100
AcDbLine
 62
253
  6
CONTINUOUS
 10
-4.9379985341
 20
28.9440135851
 11
-9.2753433673
 21
28.9440135851
  0
LINE
  5
859
100
AcDbEntity
  8
RACCORDO
100
AcDbLine
 62
253
  6
CONTINUOUS
 10
-15.2753433673
 20
28.9440135851
 11
-19.6126882006
 21
28.9440135851
  0
LINE
  5
85A
100
AcDbEntity
  8
DRAFT
100
AcDbLine
 62
7
  6
CONTINUOUS
 10
-15.7753433673
 20
28.9693976571
 11
-15.2753433673
 21
28.9693976571
  0
LINE
  5
85B
100
AcDbEntity
  8
DRAFT
100
AcDbLine
 62
7
  6
CONTINUOUS
 10
-9.2753433673
 20
28.9693976571
 11
-8.7753433673
 21
28.9693976571
  0
LINE
  5
85C
100
AcDbEntity
  8
RACCORDO
100
AcDbLine
 62
7
  6
CONTINUOUS
 10
-1.5854835065
 20
29.0226315506
 11
-5.0166164996
 21
29.0226315506
  0
LINE
  5
85D
100
AcDbEntity
  8
RACCORDO
100
AcDbLine
 62
7
  6
CONTINUOUS
 10
-19.5340702351
 20
29.0226315506
 11
-22.9652032282
 21
29.0226315506
  0
LINE
  5
85E
100
AcDbEntity
  8
RACCORDO
100
AcDbLine
 62
7
  6
CONTINUOUS
 10
-1.6024482805
 20
29.0313584184
 11
-1.6253433673
 21
29.0313584184
  0
LINE
  5
85F
100
AcDbEntity
  8
DRAFT
100
AcDbLine
 62
7
  6
CONTINUOUS
 10
-1.6253433673
 20
29.0313584184
 11
-7.8753433673
 21
29.0313584184
  0
LINE
  5
860
100
AcDbEntity
  8
DRAFT
100
AcDbLine
 62
7
  6
CONTINUOUS
 10
-16.6753433673
 20
29.0313584184
 11
-22.9253433673
 21
29.0313584184
  0
LINE
  5
861
100
AcDbEntity
  8
RACCORDO
100
AcDbLine
 62
7
  6
CONTINUOUS
 10
-22.9253433673
 20
29.0313584184
 11
-22.9482384542
 21
29.0313584184
  0
LINE
  5
862
100
AcDbEntity
  8
RACCORDO
100
AcDbLine
 62
7
  6
CONTINUOUS
 10
-22.6760663652
 20
29.7540081492
 11
-20.7746203695
 21
29.7540081492
  0
LINE
  5
863
100
AcDbEntity
  8
RACCORDO
100
AcDbLine
 62
7
  6
CONTINUOUS
 10
-3.7760663652
 20
29.7540081492
 11
-1.8746203695
 21
29.7540081492
  0
LWPOLYLINE
  5
864
100
AcDbEntity
  8
RACCORDO
100
AcDbPolyline
 62
7
  6
CONTINUOUS
 90
34
 70
0
 10
-22.6709757641
 20
30.3313584184
 10
-22.6840002393
 20
30.3316119958
 10
-22.6969298115
 20
30.3322373945
 10
-22.7097304099
 20
30.3332346147
 10
-22.722380467
 20
30.33461628
 10
-22.7348366173
 20
30.3363697668
 10
-22.7470351308
 20
30.3384572033
 10
-22.7589357531
 20
30.340879672
 10
-22.7705261521
 20
30.3436360904
 10
-22.781788137
 20
30.3466853398
 10
-22.7926993096
 20
30.3500278988
 10
-22.8032394144
 20
30.3536632886
 10
-22.8133953077
 20
30.3575489546
 10
-22.8231494492
 20
30.3616849428
 10
-22.8324861642
 20
30.366071207
 10
-22.8413964987
 20
30.3706650544
 10
-22.8498673416
 20
30.3754662798
 10
-22.8578870739
 20
30.3804750882
 10
-22.8654499773
 20
30.3856494016
 10
-22.8725468697
 20
30.3909888843
 10
-22.8791697787
 20
30.3964938719
 10
-22.8853155227
 20
30.402123294
 10
-22.8909784037
 20
30.4078767446
 10
-22.8961537608
 20
30.4137546296
 10
-22.9008405389
 20
30.419717096
 10
-22.9050361638
 20
30.4257636804
 10
-22.9087390141
 20
30.4318948462
 10
-22.9119499912
 20
30.4380721313
 10
-22.9146693582
 20
30.4442949902
 10
-22.9168983046
 20
30.4505639683
 10
-22.9186396674
 20
30.4568422395
 10
-22.9198964061
 20
30.4631175284
 10
-22.9206721109
 20
30.4694021105
 10
-22.9209715333
 20
30.4756959857
  0
LINE
  5
865
100
AcDbEntity
  8
RACCORDO
100
AcDbLine
 62
7
  6
CONTINUOUS
 10
-4.1913188006
 20
27.6230666826
 11
-4.0288306582
 21
27.5418287988
  0
LINE
  5
866
100
AcDbEntity
  8
RACCORDO
100
AcDbLine
 62
253
  6
CONTINUOUS
 10
-4.0209715333
 20
30.8769908152
 11
-4.0253433673
 21
30.8813626492
  0
LINE
  5
867
100
AcDbEntity
  8
RACCORDO
100
AcDbLine
 62
253
  6
CONTINUOUS
 10
-3.7709757641
 20
31.1269865844
 11
-3.7753475981
 21
31.1313584184
  0
LINE
  5
868
100
AcDbEntity
  8
RACCORDO
100
AcDbLine
 62
253
  6
CONTINUOUS
 10
-1.5854835065
 20
-15.7599147138
 11
-1.6029385714
 21
-15.7686415816
  0
LWPOLYLINE
  5
869
100
AcDbEntity
  8
RACCORDO
100
AcDbPolyline
 62
7
  6
CONTINUOUS
 90
11
 70
0
 10
-1.3972056852
 20
-15.7200883033
 10
-1.4115887446
 20
-15.7269704088
 10
-1.4317071509
 20
-15.7355990792
 10
-1.4522144019
 20
-15.7432612907
 10
-1.4730646689
 20
-15.7499395483
 10
-1.4942196341
 20
-15.7556205583
 10
-1.5156228229
 20
-15.7602881942
 10
-1.5371993501
 20
-15.7639277352
 10
-1.5588909553
 20
-15.7665335252
 10
-1.5806570146
 20
-15.7681048325
 10
-1.6024482805
 20
-15.7686415816
  0
LINE
  5
86A
100
AcDbEntity
  8
RACCORDO
100
AcDbLine
 62
253
  6
CONTINUOUS
 10
-3.7709757641
 20
30.2591896347
 11
-1.8797109706
 21
30.2591896347
  0
LINE
  5
86B
100
AcDbEntity
  8
RACCORDO
100
AcDbLine
 62
7
  6
CONTINUOUS
 10
-20.7797109706
 20
30.3313584184
 11
-22.6709757641
 21
30.3313584184
  0
LINE
  5
86C
100
AcDbEntity
  8
ASSI
100
AcDbLine
 62
253
  6
CONTINUOUS
 10
-7.9189940142
 20
30.3877077715
 11
-8.7753433673
 21
30.3877077715
  0
LINE
  5
86D
100
AcDbEntity
  8
ASSI
100
AcDbLine
 62
253
  6
CONTINUOUS
 10
-15.7753433673
 20
30.3877077715
 11
-16.6316927205
 21
30.3877077715
  0
LINE
  5
86E
100
AcDbEntity
  8
DRAFT
100
AcDbLine
 62
7
  6
CONTINUOUS
 10
-8.7753433673
 20
30.4255405886
 11
-15.7753433673
 21
30.4255405886
  0
LINE
  5
86F
100
AcDbEntity
  8
DRAFT
100
AcDbLine
 62
7
  6
CONTINUOUS
 10
-7.8753433673
 20
30.4313584184
 11
-16.6753433673
 21
30.4313584184
  0
LINE
  5
870
100
AcDbEntity
  8
RACCORDO
100
AcDbLine
 62
253
  6
CONTINUOUS
 10
-1.6297152013
 20
30.4756959857
 11
-4.0209715333
 21
30.4756959857
  0
LINE
  5
871
100
AcDbEntity
  8
RACCORDO
100
AcDbLine
 62
253
  6
CONTINUOUS
 10
-1.6297152013
 20
30.8769908152
 11
-4.0209715333
 21
30.8769908152
  0
LINE
  5
872
100
AcDbEntity
  8
RACCORDO
100
AcDbLine
 62
253
  6
CONTINUOUS
 10
-20.5297152013
 20
30.8769908152
 11
-22.9209715333
 21
30.8769908152
  0
LINE
  5
873
100
AcDbEntity
  8
RACCORDO
100
AcDbLine
 62
253
  6
CONTINUOUS
 10
-1.8797109706
 20
31.1269865844
 11
-3.7709757641
 21
31.1269865844
  0
LINE
  5
874
100
AcDbEntity
  8
RACCORDO
100
AcDbLine
 62
253
  6
CONTINUOUS
 10
-20.7797109706
 20
31.1269865844
 11
-22.6709757641
 21
31.1269865844
  0
LINE
  5
875
100
AcDbEntity
  8
RACCORDO
100
AcDbLine
 62
7
  6
CONTINUOUS
 10
-1.8753391366
 20
31.1313584184
 11
-3.7753475981
 21
31.1313584184
  0
LINE
  5
876
100
AcDbEntity
  8
RACCORDO
100
AcDbLine
 62
7
  6
CONTINUOUS
 10
-20.7753391366
 20
31.1313584184
 11
-22.6753475981
 21
31.1313584184
  0
LWPOLYLINE
  5
877
100
AcDbEntity
  8
RACCORDO
100
AcDbPolyline
 62
7
  6
CONTINUOUS
 90
34
 70
0
 10
-20.7753391366
 20
31.1313584184
 10
-20.7634438513
 20
31.1310752681
 10
-20.7515755118
 20
31.1302264526
 10
-20.7397610012
 20
31.1288138925
 10
-20.7280270799
 20
31.1268407861
 10
-20.7164003285
 20
31.1243116001
 10
-20.7049070883
 20
31.1212320601
 10
-20.6935733936
 20
31.1176091397
 10
-20.6824249181
 20
31.1134510441
 10
-20.671486921
 20
31.1087671905
 10
-20.6607841798
 20
31.1035681872
 10
-20.6503409391
 20
31.09786581
 10
-20.6401808614
 20
31.0916729765
 10
-20.6303269622
 20
31.0850037138
 10
-20.6208015635
 20
31.0778731291
 10
-20.6116262483
 20
31.0702973772
 10
-20.6028218013
 20
31.0622936189
 10
-20.5944081669
 20
31.0538799845
 10
-20.5864044085
 20
31.0450755374
 10
-20.5788286566
 20
31.0359002222
 10
-20.5716980719
 20
31.0263748235
 10
-20.5650288092
 20
31.0165209243
 10
-20.5588359757
 20
31.0063608466
 10
-20.5531335985
 20
30.995917606
 10
-20.5479345952
 20
30.9852148647
 10
-20.5432507416
 20
30.9742768677
 10
-20.539092646
 20
30.9631283921
 10
-20.5354697256
 20
30.9517946974
 10
-20.5323901856
 20
30.9403014572
 10
-20.5298609996
 20
30.9286747059
 10
-20.5278878932
 20
30.9169407845
 10
-20.5264753331
 20
30.9051262739
 10
-20.5256265176
 20
30.8932579344
 10
-20.5253433673
 20
30.8813626492
  0
LWPOLYLINE
  5
878
100
AcDbEntity
  8
RACCORDO
100
AcDbPolyline
 62
7
  6
CONTINUOUS
 90
34
 70
0
 10
-1.8753391366
 20
31.1313584184
 10
-1.8634438513
 20
31.1310752681
 10
-1.8515755118
 20
31.1302264526
 10
-1.8397610012
 20
31.1288138925
 10
-1.8280270799
 20
31.1268407861
 10
-1.8164003285
 20
31.1243116001
 10
-1.8049070883
 20
31.1212320601
 10
-1.7935733936
 20
31.1176091397
 10
-1.7824249181
 20
31.1134510441
 10
-1.771486921
 20
31.1087671905
 10
-1.7607841798
 20
31.1035681872
 10
-1.7503409391
 20
31.09786581
 10
-1.7401808614
 20
31.0916729765
 10
-1.7303269622
 20
31.0850037138
 10
-1.7208015635
 20
31.0778731291
 10
-1.7116262483
 20
31.0702973772
 10
-1.7028218013
 20
31.0622936189
 10
-1.6944081669
 20
31.0538799845
 10
-1.6864044085
 20
31.0450755374
 10
-1.6788286566
 20
31.0359002222
 10
-1.6716980719
 20
31.0263748235
 10
-1.6650288092
 20
31.0165209243
 10
-1.6588359757
 20
31.0063608466
 10
-1.6531335985
 20
30.995917606
 10
-1.6479345952
 20
30.9852148647
 10
-1.6432507416
 20
30.9742768677
 10
-1.639092646
 20
30.9631283921
 10
-1.6354697256
 20
30.9517946974
 10
-1.6323901856
 20
30.9403014572
 10
-1.6298609996
 20
30.9286747059
 10
-1.6278878932
 20
30.9169407845
 10
-1.6264753331
 20
30.9051262739
 10
-1.6256265176
 20
30.8932579344
 10
-1.6253433673
 20
30.8813626492
  0
LWPOLYLINE
  5
879
100
AcDbEntity
  8
RACCORDO
100
AcDbPolyline
 62
253
  6
CONTINUOUS
 90
31
 70
0
 10
-20.7797109706
 20
31.1269865844
 10
-20.7666274846
 20
31.1266435458
 10
-20.753579858
 20
31.1256162559
 10
-20.7406038518
 20
31.1239075303
 10
-20.727735031
 20
31.1215220524
 10
-20.7150086664
 20
31.1184663602
 10
-20.7024596388
 20
31.1147488288
 10
-20.6901223425
 20
31.1103796473
 10
-20.6780305918
 20
31.1053707908
 10
-20.666217528
 20
31.0997359876
 10
-20.6547155285
 20
31.0934906817
 10
-20.643556118
 20
31.0866519903
 10
-20.6327698824
 20
31.079238657
 10
-20.6223863847
 20
31.0712710002
 10
-20.6124340843
 20
31.0627708579
 10
-20.6029402583
 20
31.0537615274
 10
-20.5939309278
 20
31.0442677015
 10
-20.5854307855
 20
31.034315401
 10
-20.5774631287
 20
31.0239319033
 10
-20.5700497954
 20
31.0131456677
 10
-20.563211104
 20
31.0019862572
 10
-20.5569657981
 20
30.9904842577
 10
-20.5513309949
 20
30.9786711939
 10
-20.5463221384
 20
30.9665794432
 10
-20.5419529569
 20
30.954242147
 10
-20.5382354255
 20
30.9416931193
 10
-20.5351797333
 20
30.9289667547
 10
-20.5327942554
 20
30.9160979339
 10
-20.5310855298
 20
30.9031219277
 10
-20.5300582399
 20
30.8900743011
 10
-20.5297152013
 20
30.8769908152
  0
LWPOLYLINE
  5
87A
100
AcDbEntity
  8
RACCORDO
100
AcDbPolyline
 62
253
  6
CONTINUOUS
 90
31
 70
0
 10
-1.8797109706
 20
31.1269865844
 10
-1.8666586306
 20
31.1266451772
 10
-1.8536337362
 20
31.1256219145
 10
-1.8406719616
 20
31.1239183103
 10
-1.8278062429
 20
31.1215371802
 10
-1.8150747777
 20
31.1184840668
 10
-1.8025205931
 20
31.114768627
 10
-1.7901807892
 20
31.1104020759
 10
-1.7780864331
 20
31.105395646
 10
-1.7662703548
 20
31.0997628975
 10
-1.7547647544
 20
31.0935190958
 10
-1.743601436
 20
31.086681414
 10
-1.7328113568
 20
31.0792687839
 10
-1.7224242309
 20
31.0713016417
 10
-1.7124683938
 20
31.0628017448
 10
-1.7029710593
 20
31.053792323
 10
-1.6939582402
 20
31.0442980298
 10
-1.6854546987
 20
31.0343449264
 10
-1.6774837905
 20
31.0239603371
 10
-1.6700673836
 20
31.0131727468
 10
-1.6632258079
 20
31.0020117208
 10
-1.6569778287
 20
30.990507865
 10
-1.6513405804
 20
30.9786927194
 10
-1.6463295249
 20
30.9665986822
 10
-1.6419584099
 20
30.954258926
 10
-1.6382392204
 20
30.9417072786
 10
-1.6351821592
 20
30.9289781647
 10
-1.6327956165
 20
30.916106525
 10
-1.6310861333
 20
30.9031276676
 10
-1.6300583903
 20
30.8900771693
 10
-1.6297152013
 20
30.8769908152
  0
LWPOLYLINE
  5
87B
100
AcDbEntity
  8
RACCORDO
100
AcDbPolyline
 62
7
  6
CONTINUOUS
 90
11
 70
0
 10
-1.3972074978
 20
28.9828060325
 10
-1.4116771007
 20
28.989727645
 10
-1.4318016586
 20
28.9983538182
 10
-1.4523124851
 20
29.0060121212
 10
-1.473162528
 20
29.0126851679
 10
-1.4942956751
 20
29.018355903
 10
-1.5156726472
 20
29.0230146793
 10
-1.5372714576
 20
29.0266549713
 10
-1.5590525867
 20
29.0292658233
 10
-1.5809581858
 20
29.030836032
 10
-1.6029385714
 20
29.0313584184
  0
LINE
  5
87C
100
AcDbEntity
  8
RACCORDO
100
AcDbLine
 62
253
  6
CONTINUOUS
 10
-1.6029385714
 20
29.0313584184
 11
-1.5854835065
 21
29.0226315506
  0
ARC
  5
87D
100
AcDbEntity
  8
ASSI
100
AcDbCircle
 62
7
  6
CONTINUOUS
 10
-21.7812517381
 20
-12.2586415816
 40
0.71
100
AcDbArc
 50
229.7020215745
 51
265.2988538673
  0
ARC
  5
87E
100
AcDbEntity
  8
ASSI
100
AcDbCircle
 62
7
  6
CONTINUOUS
 10
-22.5653433673
 20
-11.4745499523
 40
0.71
100
AcDbArc
 50
184.7020215745
 51
220.2988538673
  0
ARC
  5
87F
100
AcDbEntity
  8
0
100
AcDbCircle
 62
7
  6
CONTINUOUS
 10
-13.9753433673
 20
-10.9186415816
 40
0.3
100
AcDbArc
 50
90.0
 51
170.0
  0
ARC
  5
880
100
AcDbEntity
  8
RACCORDO
100
AcDbCircle
 62
7
  6
CONTINUOUS
 10
-13.9753433673
 20
-10.9186415816
 40
0.3
100
AcDbArc
 50
90.0
 51
170.0
  0
ARC
  5
881
100
AcDbEntity
  8
CURVE
100
AcDbCircle
 62
253
  6
CONTINUOUS
 10
-19.7011763923
 20
8.1577685799
 40
0.8
100
AcDbArc
 50
330.0
 51
48.5903778907
  0
ARC
  5
882
100
AcDbEntity
  8
CURVE
100
AcDbCircle
 62
253
  6
CONTINUOUS
 10
-18.4655357462
 20
7.0979609587
 40
0.8
100
AcDbArc
 50
150.0
 51
228.5903778907
  0
ARC
  5
883
100
AcDbEntity
  8
ASSI
100
AcDbCircle
 62
7
  6
CONTINUOUS
 10
-21.7812517381
 20
25.5213584184
 40
0.71
100
AcDbArc
 50
109.9961491498
 51
114.2412807351
  0
ARC
  5
884
100
AcDbEntity
  8
ASSI
100
AcDbCircle
 62
7
  6
CONTINUOUS
 10
-22.5653433673
 20
24.7372667891
 40
0.71
100
AcDbArc
 50
139.7010712477
 51
175.2998279782
  0
ARC
  5
885
100
AcDbEntity
  8
0
100
AcDbCircle
 62
7
  6
CONTINUOUS
 10
-13.9753433673
 20
24.1813584184
 40
0.3
100
AcDbArc
 50
189.8838085533
 51
270.0
  0
ARC
  5
886
100
AcDbEntity
  8
RACCORDO
100
AcDbCircle
 62
7
  6
CONTINUOUS
 10
-13.9753433673
 20
24.1813584184
 40
0.3
100
AcDbArc
 50
189.8838085533
 51
270.0
  0
ARC
  5
887
100
AcDbEntity
  8
ASSI
100
AcDbCircle
 62
7
  6
CONTINUOUS
 10
-1.9853433673
 20
-10.0745499523
 40
0.71
100
AcDbArc
 50
319.7020215745
 51
355.2988538673
  0
ARC
  5
888
100
AcDbEntity
  8
ASSI
100
AcDbCircle
 62
7
  6
CONTINUOUS
 10
-2.7694349966
 20
-10.8586415816
 40
0.71
100
AcDbArc
 50
274.7020215745
 51
310.2988538673
  0
ARC
  5
889
100
AcDbEntity
  8
0
100
AcDbCircle
 62
7
  6
CONTINUOUS
 10
-10.5753433673
 20
-10.9186415816
 40
0.3
100
AcDbArc
 50
10.0
 51
90.0
  0
ARC
  5
88A
100
AcDbEntity
  8
RACCORDO
100
AcDbCircle
 62
7
  6
CONTINUOUS
 10
-10.5753433673
 20
-10.9186415816
 40
0.3
100
AcDbArc
 50
10.0
 51
90.0
  0
ARC
  5
88B
100
AcDbEntity
  8
0
100
AcDbCircle
 62
7
  6
CONTINUOUS
 10
-3.2753433673
 20
23.8313584184
 40
1.4
100
AcDbArc
 50
21.7133555171
 51
90.0
  0
ARC
  5
88C
100
AcDbEntity
  8
CURVE
100
AcDbCircle
 62
253
  6
CONTINUOUS
 10
-6.7753433673
 20
9.6313584184
 40
1.0
100
AcDbArc
 50
203.5781784782
 51
156.4218215218
  0
ARC
  5
88D
100
AcDbEntity
  8
ASSI
100
AcDbCircle
 62
7
  6
CONTINUOUS
 10
-2.7694349966
 20
24.1213584184
 40
0.71
100
AcDbArc
 50
49.7010712477
 51
85.2998279782
  0
ARC
  5
88E
100
AcDbEntity
  8
ASSI
100
AcDbCircle
 62
7
  6
CONTINUOUS
 10
-1.9853433673
 20
23.3372667891
 40
0.71
100
AcDbArc
 50
4.7001961556
 51
40.2989529286
  0
ARC
  5
88F
100
AcDbEntity
  8
0
100
AcDbCircle
 62
7
  6
CONTINUOUS
 10
-10.5753433673
 20
24.1813584184
 40
0.3
100
AcDbArc
 50
270.0
 51
350.0
  0
ARC
  5
890
100
AcDbEntity
  8
RACCORDO
100
AcDbCircle
 62
7
  6
CONTINUOUS
 10
-10.5753433673
 20
24.1813584184
 40
0.3
100
AcDbArc
 50
270.0
 51
350.0
  0
ELLIPSE
  5
891
100
AcDbEntity
  8
0
100
AcDbEllipse
 62
7
  6
CONTINUOUS
 10
-10.4824501485
 20
-11.604267012
 30
0.0
 11
0.5
 21
0.0
 31
0.0
 40
0.0087268678
 41
0.7853981634
 42
1.1434651843
  0
ELLIPSE
  5
892
100
AcDbEntity
  8
0
100
AcDbEllipse
 62
7
  6
CONTINUOUS
 10
-14.0682365862
 20
-11.604267012
 30
0.0
 11
0.5
 21
-0.0
 31
0.0
 40
0.0087268678
 41
1.97725418
 42
2.3561944902
  0
ELLIPSE
  5
893
100
AcDbEntity
  8
0
100
AcDbEllipse
 62
7
  6
CONTINUOUS
 10
-21.4250387113
 20
24.3028051009
 30
0.0
 11
1.8480888181
 21
-0.7655034529
 31
0.0
 40
0.9998215708
 41
2.7489566578
 42
3.5342286494
  0
ELLIPSE
  5
894
100
AcDbEntity
  8
0
100
AcDbEllipse
 62
7
  6
CONTINUOUS
 10
-21.4250387113
 20
-11.0400882642
 30
0.0
 11
1.8480888181
 21
0.7655034529
 31
0.0
 40
0.9998215708
 41
2.7489566578
 42
3.5342286494
  0
ELLIPSE
  5
895
100
AcDbEntity
  8
0
100
AcDbEllipse
 62
7
  6
CONTINUOUS
 10
-3.1256480234
 20
-11.0400882642
 30
0.0
 11
1.8480888181
 21
-0.7655034529
 31
0.0
 40
0.9998215708
 41
-0.3926359958
 42
0.3926359958
  0
ELLIPSE
  5
896
100
AcDbEntity
  8
0
100
AcDbEllipse
 62
7
  6
CONTINUOUS
 10
-3.1256480234
 20
24.3028051009
 30
0.0
 11
1.8480888181
 21
0.7655034529
 31
0.0
 40
0.9998215708
 41
-0.3926359958
 42
0.3926359958
  0
ELLIPSE
  5
897
100
AcDbEntity
  8
0
100
AcDbEllipse
 62
7
  6
CONTINUOUS
 10
-3.0091929389
 20
-11.1347920101
 30
0.0
 11
0.3535803156
 21
-0.3535803156
 31
0.0
 40
0.9999238505
 41
-0.7853600872
 42
-0.2962124934
  0
ELLIPSE
  5
898
100
AcDbEntity
  8
0
100
AcDbEllipse
 62
7
  6
CONTINUOUS
 10
-21.3028532568
 20
24.2521942286
 30
0.0
 11
1.8480888181
 21
-0.7655034529
 31
0.0
 40
0.9998215708
 41
9.032141965
 42
9.2322752141
  0
ELLIPSE
  5
899
100
AcDbEntity
  8
0
100
AcDbEllipse
 62
7
  6
CONTINUOUS
 10
-21.3028532568
 20
24.2521942286
 30
0.0
 11
1.8480888181
 21
-0.7655034529
 31
0.0
 40
0.9998215708
 41
3.4204543746
 42
3.5342286494
  0
ELLIPSE
  5
89A
100
AcDbEntity
  8
0
100
AcDbEllipse
 62
7
  6
CONTINUOUS
 10
-21.3028532568
 20
-10.9894773918
 30
0.0
 11
-1.8480888181
 21
-0.7655034529
 31
0.0
 40
0.9998215708
 41
-0.3926359958
 42
-0.278861721
  0
ELLIPSE
  5
89B
100
AcDbEntity
  8
0
100
AcDbEllipse
 62
7
  6
CONTINUOUS
 10
-21.3028532568
 20
-10.9894773918
 30
0.0
 11
-1.8480888181
 21
-0.7655034529
 31
0.0
 40
0.9998215708
 41
6.4756880539
 42
6.675821303
  0
ELLIPSE
  5
89C
100
AcDbEntity
  8
0
100
AcDbEllipse
 62
7
  6
CONTINUOUS
 10
-3.2478334779
 20
-10.9894773918
 30
0.0
 11
-1.8480888181
 21
0.7655034529
 31
0.0
 40
0.9998215708
 41
2.7489566578
 42
3.5342286494
  0
ELLIPSE
  5
89D
100
AcDbEntity
  8
0
100
AcDbEllipse
 62
7
  6
CONTINUOUS
 10
-3.2478334779
 20
24.2521942286
 30
0.0
 11
1.8480888181
 21
0.7655034529
 31
0.0
 40
0.9998215708
 41
-0.3926359958
 42
0.3926359958
  0
ELLIPSE
  5
89E
100
AcDbEntity
  8
RACCORDO
100
AcDbEllipse
 62
7
  6
CONTINUOUS
 10
-3.0091929389
 20
-11.1347920101
 30
0.0
 11
0.3535803156
 21
-0.3535803156
 31
0.0
 40
0.9999238505
 41
-0.7853600872
 42
-0.2962124934
  0
ELLIPSE
  5
89F
100
AcDbEntity
  8
RACCORDO
100
AcDbEllipse
 62
7
  6
CONTINUOUS
 10
-10.4824501485
 20
-11.604267012
 30
0.0
 11
0.5
 21
0.0
 31
0.0
 40
0.0087268678
 41
0.7853981634
 42
1.1434651843
  0
ELLIPSE
  5
8A0
100
AcDbEntity
  8
RACCORDO
100
AcDbEllipse
 62
7
  6
CONTINUOUS
 10
-14.0682365862
 20
-11.604267012
 30
0.0
 11
0.5
 21
-0.0
 31
0.0
 40
0.0087268678
 41
1.97725418
 42
2.3561944902
  0
ELLIPSE
  5
8A1
100
AcDbEntity
  8
RACCORDO
100
AcDbEllipse
 62
7
  6
CONTINUOUS
 10
-3.1256480234
 20
24.3028051009
 30
0.0
 11
1.8480888181
 21
0.7655034529
 31
0.0
 40
0.9998215708
 41
-0.3926359958
 42
0.3926359958
  0
ELLIPSE
  5
8A2
100
AcDbEntity
  8
RACCORDO
100
AcDbEllipse
 62
7
  6
CONTINUOUS
 10
-3.1256480234
 20
-11.0400882642
 30
0.0
 11
1.8480888181
 21
-0.7655034529
 31
0.0
 40
0.9998215708
 41
-0.3926359958
 42
0.3926359958
  0
ELLIPSE
  5
8A3
100
AcDbEntity
  8
RACCORDO
100
AcDbEllipse
 62
7
  6
CONTINUOUS
 10
-21.4250387113
 20
-11.0400882642
 30
0.0
 11
1.8480888181
 21
0.7655034529
 31
0.0
 40
0.9998215708
 41
2.7489566578
 42
3.5342286494
  0
ELLIPSE
  5
8A4
100
AcDbEntity
  8
RACCORDO
100
AcDbEllipse
 62
7
  6
CONTINUOUS
 10
-21.4250387113
 20
24.3028051009
 30
0.0
 11
1.8480888181
 21
-0.7655034529
 31
0.0
 40
0.9998215708
 41
2.7489566578
 42
3.5342286494
  0
ELLIPSE
  5
8A5
100
AcDbEntity
  8
0
100
AcDbEllipse
 62
7
  6
CONTINUOUS
 10
-14.2752672033
 20
-135.2442840177
 30
0.0
 11
-0.4997620717
 21
162.4815824859
 31
0.0
 40
0.000109066
 41
6.365690172
 42
6.3764914216
  0
ELLIPSE
  5
8A6
100
AcDbEntity
  8
0
100
AcDbEllipse
 62
7
  6
CONTINUOUS
 10
-14.2752672033
 20
148.5070008544
 30
0.0
 11
0.4997620717
 21
162.4815824859
 31
0.0
 40
0.000109066
 41
-3.234898768
 42
-3.2240975184
  0
ELLIPSE
  5
8A7
100
AcDbEntity
  8
0
100
AcDbEllipse
 62
7
  6
CONTINUOUS
 10
-10.2754195314
 20
-135.2442840177
 30
0.0
 11
0.4997620717
 21
162.4815824859
 31
0.0
 40
0.000109066
 41
-0.0933061144
 42
-0.0825123551
  0
ELLIPSE
  5
8A8
100
AcDbEntity
  8
0
100
AcDbEllipse
 62
7
  6
CONTINUOUS
 10
-10.2754195314
 20
148.5070008544
 30
0.0
 11
-0.4997620717
 21
162.4815824859
 31
0.0
 40
0.000109066
 41
3.2241050087
 42
3.234898768
  0
ELLIPSE
  5
8A9
100
AcDbEntity
  8
RACCORDO
100
AcDbEllipse
 62
7
  6
CONTINUOUS
 10
-3.2478334779
 20
24.2521942286
 30
0.0
 11
1.8480888181
 21
0.7655034529
 31
0.0
 40
0.9998215708
 41
-0.3926359958
 42
0.3926359958
  0
ELLIPSE
  5
8AA
100
AcDbEntity
  8
RACCORDO
100
AcDbEllipse
 62
7
  6
CONTINUOUS
 10
-3.2478334779
 20
-10.9894773918
 30
0.0
 11
-1.8480888181
 21
0.7655034529
 31
0.0
 40
0.9998215708
 41
2.7489566578
 42
3.5342286494
  0
ELLIPSE
  5
8AB
100
AcDbEntity
  8
RACCORDO
100
AcDbEllipse
 62
7
  6
CONTINUOUS
 10
-21.3028532568
 20
-10.9894773918
 30
0.0
 11
-1.8480888181
 21
-0.7655034529
 31
0.0
 40
0.9998215708
 41
-0.3926359958
 42
-0.278861721
  0
ELLIPSE
  5
8AC
100
AcDbEntity
  8
RACCORDO
100
AcDbEllipse
 62
7
  6
CONTINUOUS
 10
-21.3028532568
 20
-10.9894773918
 30
0.0
 11
-1.8480888181
 21
-0.7655034529
 31
0.0
 40
0.9998215708
 41
6.4756880539
 42
6.675821303
  0
ELLIPSE
  5
8AD
100
AcDbEntity
  8
RACCORDO
100
AcDbEllipse
 62
7
  6
CONTINUOUS
 10
-21.3028532568
 20
24.2521942286
 30
0.0
 11
1.8480888181
 21
-0.7655034529
 31
0.0
 40
0.9998215708
 41
9.032141965
 42
9.2322752141
  0
ELLIPSE
  5
8AE
100
AcDbEntity
  8
RACCORDO
100
AcDbEllipse
 62
7
  6
CONTINUOUS
 10
-21.3028532568
 20
24.2521942286
 30
0.0
 11
1.8480888181
 21
-0.7655034529
 31
0.0
 40
0.9998215708
 41
3.4204543746
 42
3.5342286494
  0
ELLIPSE
  5
8AF
100
AcDbEntity
  8
DRAFT
100
AcDbEllipse
 62
7
  6
CONTINUOUS
 10
-14.7753433673
 20
26.6758654441
 30
0.0
 11
1.0
 21
-0.0
 31
0.0
 40
0.0087268678
 41
1.5707963268
 42
3.1415926536
  0
ELLIPSE
  5
8B0
100
AcDbEntity
  8
DRAFT
100
AcDbEllipse
 62
7
  6
CONTINUOUS
 10
-14.7753433673
 20
-13.4131486074
 30
0.0
 11
1.0
 21
-0.0
 31
0.0
 40
0.0087268678
 41
-3.1415926536
 42
-1.5707963268
  0
ELLIPSE
  5
8B1
100
AcDbEntity
  8
DRAFT
100
AcDbEllipse
 62
7
  6
CONTINUOUS
 10
-12.2753433673
 20
26.8137499552
 30
0.0
 11
15.0
 21
-0.0
 31
0.0
 40
0.0087268678
 41
-1.7342776332
 42
-1.4073150204
  0
ELLIPSE
  5
8B2
100
AcDbEntity
  8
DRAFT
100
AcDbEllipse
 62
7
  6
CONTINUOUS
 10
-9.7753433673
 20
26.6758654441
 30
0.0
 11
1.0
 21
0.0
 31
0.0
 40
0.0087268678
 41
-0.0
 42
1.5707963268
  0
ELLIPSE
  5
8B3
100
AcDbEntity
  8
DRAFT
100
AcDbEllipse
 62
7
  6
CONTINUOUS
 10
-12.2753433673
 20
-13.5510331185
 30
0.0
 11
15.0
 21
-0.0
 31
0.0
 40
0.0087268678
 41
1.4073150204
 42
1.7342776332
  0
ELLIPSE
  5
8B4
100
AcDbEntity
  8
DRAFT
100
AcDbEllipse
 62
7
  6
CONTINUOUS
 10
-9.7753433673
 20
-13.4131486074
 30
0.0
 11
1.0
 21
-0.0
 31
0.0
 40
0.0087268678
 41
-1.5707963268
 42
0.0
  0
ELLIPSE
  5
8B5
100
AcDbEntity
  8
RACCORDO
100
AcDbEllipse
 62
7
  6
CONTINUOUS
 10
-3.7753391365
 20
-16.779966447
 30
0.0
 11
-0.0029088041
 21
0.2886641433
 31
0.0
 40
0.8660144118
 41
-0.0087264124
 42
1.5591610446
  0
ELLIPSE
  5
8B6
100
AcDbEntity
  8
RACCORDO
100
AcDbEllipse
 62
7
  6
CONTINUOUS
 10
-1.5854134382
 20
28.5626140345
 30
0.0
 11
0.4115211136
 21
-0.2057448864
 31
0.0
 40
0.9998096356
 41
6.7467263073
 42
8.3176749331
  0
ELLIPSE
  5
8B7
100
AcDbEntity
  8
RACCORDO
100
AcDbEllipse
 62
7
  6
CONTINUOUS
 10
-22.9652732964
 20
-15.2998971978
 30
0.0
 11
-0.4115211136
 21
0.2057448864
 31
0.0
 40
0.9998096356
 41
6.7467263073
 42
8.3176749331
  0
ELLIPSE
  5
8B8
100
AcDbEntity
  8
RACCORDO
100
AcDbEllipse
 62
7
  6
CONTINUOUS
 10
-20.7753475982
 20
-16.779966447
 30
0.0
 11
0.0029088041
 21
0.2886641433
 31
0.0
 40
0.8660144118
 41
-1.5591610446
 42
0.0087264124
  0
ELLIPSE
  5
8B9
100
AcDbEntity
  8
RACCORDO
100
AcDbEllipse
 62
7
  6
CONTINUOUS
 10
-22.6753391365
 20
-16.779966447
 30
0.0
 11
-0.0029088041
 21
0.2886641433
 31
0.0
 40
0.8660144118
 41
-0.0087264124
 42
1.5591610446
  0
ELLIPSE
  5
8BA
100
AcDbEntity
  8
RACCORDO
100
AcDbEllipse
 62
7
  6
CONTINUOUS
 10
-22.9652732964
 20
28.5626140345
 30
0.0
 11
0.4115211136
 21
0.2057448864
 31
0.0
 40
0.9998096356
 41
1.1071030277
 42
2.6780516535
  0
ELLIPSE
  5
8BB
100
AcDbEntity
  8
RACCORDO
100
AcDbEllipse
 62
7
  6
CONTINUOUS
 10
-4.6912426482
 20
27.6229905302
 30
0.0
 11
0.5
 21
-0.0
 31
0.0
 40
0.0087268678
 41
0.0174532925
 42
1.5707963268
  0
ELLIPSE
  5
8BC
100
AcDbEntity
  8
RACCORDO
100
AcDbEllipse
 62
7
  6
CONTINUOUS
 10
-19.8594440865
 20
27.6229905302
 30
0.0
 11
0.5
 21
0.0
 31
0.0
 40
0.0087268678
 41
1.5707963268
 42
3.1241393611
  0
ELLIPSE
  5
8BD
100
AcDbEntity
  8
RACCORDO
100
AcDbEllipse
 62
7
  6
CONTINUOUS
 10
-4.6912426482
 20
-14.3602736934
 30
0.0
 11
0.5
 21
0.0
 31
0.0
 40
0.0087268678
 41
-1.5707963268
 42
-0.0174532925
  0
ELLIPSE
  5
8BE
100
AcDbEntity
  8
RACCORDO
100
AcDbEllipse
 62
7
  6
CONTINUOUS
 10
-19.8594440865
 20
-14.3602736934
 30
0.0
 11
0.5
 21
-0.0
 31
0.0
 40
0.0087268678
 41
-3.1241393611
 42
-1.5707963268
  0
ELLIPSE
  5
8BF
100
AcDbEntity
  8
RACCORDO
100
AcDbEllipse
 62
7
  6
CONTINUOUS
 10
-1.5854134382
 20
-15.2998971978
 30
0.0
 11
-0.4115211136
 21
-0.2057448864
 31
0.0
 40
0.9998096356
 41
1.1071030277
 42
2.6780516535
  0
ELLIPSE
  5
8C0
100
AcDbEntity
  8
RACCORDO
100
AcDbEllipse
 62
7
  6
CONTINUOUS
 10
-18.6306127506
 20
27.2142827016
 30
0.0
 11
0.0
 21
0.5
 31
0.0
 40
0.0058178298
 41
-4.7123889804
 42
-3.1503192998
  0
ELLIPSE
  5
8C1
100
AcDbEntity
  8
RACCORDO
100
AcDbEllipse
 62
7
  6
CONTINUOUS
 10
-5.9200739841
 20
27.2142827016
 30
0.0
 11
0.0
 21
0.5
 31
0.0
 40
0.0058178298
 41
-3.1328660073
 42
-1.5707963268
  0
ELLIPSE
  5
8C2
100
AcDbEntity
  8
RACCORDO
100
AcDbEllipse
 62
7
  6
CONTINUOUS
 10
-5.9200739841
 20
-13.9515658648
 30
0.0
 11
0.0
 21
0.5
 31
0.0
 40
0.0058178298
 41
-1.5707963268
 42
-0.0087266463
  0
ELLIPSE
  5
8C3
100
AcDbEntity
  8
RACCORDO
100
AcDbEllipse
 62
7
  6
CONTINUOUS
 10
-18.6306127506
 20
-13.9515658648
 30
0.0
 11
-0.0
 21
0.5
 31
0.0
 40
0.0058178298
 41
0.0087266463
 42
1.5707963268
  0
ELLIPSE
  5
8C4
100
AcDbEntity
  8
RACCORDO
100
AcDbEllipse
 62
7
  6
CONTINUOUS
 10
-5.9183286352
 20
26.5883765352
 30
0.0
 11
0.0
 21
0.2
 31
0.0
 40
0.0058178298
 41
-3.1357748894
 42
-1.5707963268
  0
ELLIPSE
  5
8C5
100
AcDbEntity
  8
RACCORDO
100
AcDbEllipse
 62
7
  6
CONTINUOUS
 10
-5.0323580995
 20
26.5883765352
 30
0.0
 11
0.0
 21
0.2
 31
0.0
 40
0.0058178298
 41
-4.7123889804
 42
-3.1474104178
  0
ELLIPSE
  5
8C6
100
AcDbEntity
  8
RACCORDO
100
AcDbEllipse
 62
7
  6
CONTINUOUS
 10
-19.5183286352
 20
26.5883765352
 30
0.0
 11
-0.0
 21
0.2
 31
0.0
 40
0.0058178298
 41
-3.1357748894
 42
-1.5707963268
  0
ELLIPSE
  5
8C7
100
AcDbEntity
  8
RACCORDO
100
AcDbEllipse
 62
7
  6
CONTINUOUS
 10
-18.6323580995
 20
26.5883765352
 30
0.0
 11
0.0
 21
0.2
 31
0.0
 40
0.0058178298
 41
-4.7123889804
 42
-3.1474104178
  0
ELLIPSE
  5
8C8
100
AcDbEntity
  8
RACCORDO
100
AcDbEllipse
 62
7
  6
CONTINUOUS
 10
-18.6323580995
 20
-13.3256596985
 30
0.0
 11
0.0
 21
0.2
 31
0.0
 40
0.0058178298
 41
0.0058177642
 42
1.5707963268
  0
ELLIPSE
  5
8C9
100
AcDbEntity
  8
RACCORDO
100
AcDbEllipse
 62
7
  6
CONTINUOUS
 10
-19.5183286352
 20
-13.3256596985
 30
0.0
 11
0.0
 21
0.2
 31
0.0
 40
0.0058178298
 41
-1.5707963268
 42
-0.0058177642
  0
ELLIPSE
  5
8CA
100
AcDbEntity
  8
RACCORDO
100
AcDbEllipse
 62
7
  6
CONTINUOUS
 10
-5.0323580995
 20
-13.3256596985
 30
0.0
 11
-0.0
 21
0.2
 31
0.0
 40
0.0058178298
 41
0.0058177642
 42
1.5707963268
  0
ELLIPSE
  5
8CB
100
AcDbEntity
  8
RACCORDO
100
AcDbEllipse
 62
7
  6
CONTINUOUS
 10
-5.9183286352
 20
-13.3256596985
 30
0.0
 11
0.0
 21
0.2
 31
0.0
 40
0.0058178298
 41
-1.5707963268
 42
-0.0058177642
  0
ELLIPSE
  5
8CC
100
AcDbEntity
  8
RACCORDO
100
AcDbEllipse
 62
7
  6
CONTINUOUS
 10
-3.7753391365
 20
30.0426832838
 30
0.0
 11
0.0029088041
 21
0.2886641433
 31
0.0
 40
0.8660144118
 41
-4.7007536982
 42
-3.1328662412
  0
ELLIPSE
  5
8CD
100
AcDbEntity
  8
RACCORDO
100
AcDbEllipse
 62
7
  6
CONTINUOUS
 10
-1.8753475982
 20
30.0426832838
 30
0.0
 11
-0.0029088041
 21
0.2886641433
 31
0.0
 40
0.8660144118
 41
-3.150319066
 42
-1.582431609
  0
ELLIPSE
  5
8CE
100
AcDbEntity
  8
ASSI
100
AcDbEllipse
 62
7
  6
CONTINUOUS
 10
-7.9189770909
 20
29.8877162331
 30
0.0
 11
0.0
 21
0.5
 31
0.0
 40
0.0058178298
 41
0.0058177642
 42
0.149597008
  0
ELLIPSE
  5
8CF
100
AcDbEntity
  8
ASSI
100
AcDbEllipse
 62
7
  6
CONTINUOUS
 10
-16.6317096438
 20
29.8877162331
 30
0.0
 11
-0.0
 21
0.5
 31
0.0
 40
0.0058178298
 41
-0.149597008
 42
-0.0058177642
  0
ELLIPSE
  5
8D0
100
AcDbEntity
  8
ASSI
100
AcDbEllipse
 62
7
  6
CONTINUOUS
 10
-16.6317096438
 20
-16.6249993963
 30
0.0
 11
0.0
 21
0.5
 31
0.0
 40
0.0058178298
 41
-3.1357748894
 42
-2.9919956456
  0
ELLIPSE
  5
8D1
100
AcDbEntity
  8
ASSI
100
AcDbEllipse
 62
7
  6
CONTINUOUS
 10
-7.9189770909
 20
-16.6249993963
 30
0.0
 11
0.0
 21
0.5
 31
0.0
 40
0.0058178298
 41
-3.2911896616
 42
-3.1474104178
  0
ELLIPSE
  5
8D2
100
AcDbEntity
  8
DRAFT
100
AcDbEllipse
 62
7
  6
CONTINUOUS
 10
-8.3473733797
 20
28.9652783135
 30
0.0
 11
0.4279699877
 21
0.0
 31
0.0
 40
0.0087268678
 41
3.1415926536
 42
6.277367543
  0
ELLIPSE
  5
8D3
100
AcDbEntity
  8
RACCORDO
100
AcDbEllipse
 62
7
  6
CONTINUOUS
 10
-22.6753391365
 20
30.0426832838
 30
0.0
 11
0.0029088041
 21
0.2886641433
 31
0.0
 40
0.8660144118
 41
-4.7007536982
 42
-3.1328662412
  0
ELLIPSE
  5
8D4
100
AcDbEntity
  8
DRAFT
100
AcDbEllipse
 62
7
  6
CONTINUOUS
 10
-16.203313355
 20
28.9652783135
 30
0.0
 11
0.4279699877
 21
-0.0
 31
0.0
 40
0.0087268678
 41
-3.1357748894
 42
0.0
  0
ELLIPSE
  5
8D5
100
AcDbEntity
  8
DRAFT
100
AcDbEllipse
 62
7
  6
CONTINUOUS
 10
-16.203313355
 20
-15.7025614768
 30
0.0
 11
0.4279699877
 21
-0.0
 31
0.0
 40
0.0087268678
 41
-0.0
 42
3.1357748894
  0
ELLIPSE
  5
8D6
100
AcDbEntity
  8
RACCORDO
100
AcDbEllipse
 62
7
  6
CONTINUOUS
 10
-20.7753475982
 20
30.0426832838
 30
0.0
 11
-0.0029088041
 21
0.2886641433
 31
0.0
 40
0.8660144118
 41
-3.150319066
 42
-1.582431609
  0
ELLIPSE
  5
8D7
100
AcDbEntity
  8
DRAFT
100
AcDbEllipse
 62
7
  6
CONTINUOUS
 10
-8.3473733797
 20
-15.7025614768
 30
0.0
 11
0.4279699877
 21
0.0
 31
0.0
 40
0.0087268678
 41
0.0058177642
 42
3.1415926536
  0
ELLIPSE
  5
8D8
100
AcDbEntity
  8
RACCORDO
100
AcDbEllipse
 62
7
  6
CONTINUOUS
 10
-1.8753475982
 20
-16.779966447
 30
0.0
 11
0.0029088041
 21
0.2886641433
 31
0.0
 40
0.8660144118
 41
-1.5591610446
 42
0.0087264124
  0
ELLIPSE
  5
8D9
100
AcDbEntity
  8
RACCORDO
100
AcDbEllipse
 62
7
  6
CONTINUOUS
 10
-10.5927654801
 20
24.2313584184
 30
0.0
 11
-0.3000114235
 21
0.0
 31
0.0
 40
0.9999619231
 41
1.5707963268
 42
2.80137059
  0
ELLIPSE
  5
8DA
100
AcDbEntity
  8
RACCORDO
100
AcDbEllipse
 62
7
  6
CONTINUOUS
 10
-1.5622644892
 20
10.0813584184
 30
0.0
 11
-0.3000114235
 21
0.0
 31
0.0
 40
0.9999619231
 41
1.5707963268
 42
3.1415926536
  0
ELLIPSE
  5
8DB
100
AcDbEntity
  8
RACCORDO
100
AcDbEllipse
 62
7
  6
CONTINUOUS
 10
-1.5622644892
 20
5.0813584184
 30
0.0
 11
-0.3000114235
 21
0.0
 31
0.0
 40
0.9999619231
 41
1.5707963268
 42
3.1415926536
  0
ELLIPSE
  5
8DC
100
AcDbEntity
  8
RACCORDO
100
AcDbEllipse
 62
7
  6
CONTINUOUS
 10
-1.5622644892
 20
0.0813584184
 30
0.0
 11
-0.3000114235
 21
0.0
 31
0.0
 40
0.9999619231
 41
1.5707963268
 42
3.1415926536
  0
ELLIPSE
  5
8DD
100
AcDbEntity
  8
RACCORDO
100
AcDbEllipse
 62
7
  6
CONTINUOUS
 10
-1.5622644892
 20
-4.9186415816
 30
0.0
 11
-0.3000114235
 21
0.0
 31
0.0
 40
0.9999619231
 41
1.5707963268
 42
3.1415926536
  0
ELLIPSE
  5
8DE
100
AcDbEntity
  8
DRAFT
100
AcDbEllipse
 62
7
  6
CONTINUOUS
 10
-2.4338907453
 20
7.6313584184
 30
0.0
 11
0.0
 21
2.15
 31
0.0
 40
0.0087268678
 41
3.1415926536
 42
6.2831853072
  0
ELLIPSE
  5
8DF
100
AcDbEntity
  8
DRAFT
100
AcDbEllipse
 62
7
  6
CONTINUOUS
 10
-2.4338907453
 20
-7.3686415816
 30
0.0
 11
0.0
 21
2.15
 31
0.0
 40
0.0087268678
 41
3.1415926536
 42
6.2831853072
  0
ELLIPSE
  5
8E0
100
AcDbEntity
  8
RACCORDO
100
AcDbEllipse
 62
7
  6
CONTINUOUS
 10
-8.5622644892
 20
-12.6817204598
 30
0.0
 11
-0.2121481893
 21
0.2121481893
 31
0.0
 40
0.9999238505
 41
2.3562325664
 42
3.9269527408
  0
ELLIPSE
  5
8E1
100
AcDbEntity
  8
RACCORDO
100
AcDbEllipse
 62
7
  6
CONTINUOUS
 10
-21.6665362129
 20
-11.9816938049
 30
0.0
 11
-0.3827005044
 21
-0.9239207481
 31
0.0
 40
0.9999553905
 41
-0.3926833098
 42
0.3926833098
  0
ELLIPSE
  5
8E2
100
AcDbEntity
  8
RACCORDO
100
AcDbEllipse
 62
7
  6
CONTINUOUS
 10
-22.2883955906
 20
-11.3598344272
 30
0.0
 11
-0.9239207481
 21
-0.3827005044
 31
0.0
 40
0.9999553905
 41
-0.3926833098
 42
0.3926833098
  0
ELLIPSE
  5
8E3
100
AcDbEntity
  8
RACCORDO
100
AcDbEllipse
 62
7
  6
CONTINUOUS
 10
-22.2883955906
 20
24.6225512639
 30
0.0
 11
-0.9239207481
 21
0.3827005044
 31
0.0
 40
0.9999553905
 41
-0.3926833098
 42
0.3926833098
  0
ELLIPSE
  5
8E4
100
AcDbEntity
  8
RACCORDO
100
AcDbEllipse
 62
7
  6
CONTINUOUS
 10
-21.6665362129
 20
25.2444106417
 30
0.0
 11
0.3827005044
 21
-0.9239207481
 31
0.0
 40
0.9999553905
 41
2.7489093438
 42
3.5342759634
  0
ELLIPSE
  5
8E5
100
AcDbEntity
  8
RACCORDO
100
AcDbEllipse
 62
7
  6
CONTINUOUS
 10
-8.5622644892
 20
25.9444372965
 30
0.0
 11
0.2121481893
 21
0.2121481893
 31
0.0
 40
0.9999238505
 41
-0.7853600872
 42
0.7853600872
  0
ELLIPSE
  5
8E6
100
AcDbEntity
  8
RACCORDO
100
AcDbEllipse
 62
7
  6
CONTINUOUS
 10
-2.8841505218
 20
23.8444106417
 30
0.0
 11
0.3827005044
 21
0.9239207481
 31
0.0
 40
0.9999553905
 41
-0.3926833098
 42
0.3926833098
  0
ELLIPSE
  5
8E7
100
AcDbEntity
  8
RACCORDO
100
AcDbEllipse
 62
7
  6
CONTINUOUS
 10
-2.262291144
 20
23.2225512639
 30
0.0
 11
-0.9239207481
 21
-0.3827005044
 31
0.0
 40
0.9999553905
 41
2.7489093438
 42
3.5342759634
  0
ELLIPSE
  5
8E8
100
AcDbEntity
  8
DRAFT
100
AcDbEllipse
 62
7
  6
CONTINUOUS
 10
-2.4338907453
 20
-2.3686415816
 30
0.0
 11
0.0
 21
2.15
 31
0.0
 40
0.0087268678
 41
3.1415926536
 42
6.2831853072
  0
ELLIPSE
  5
8E9
100
AcDbEntity
  8
RACCORDO
100
AcDbEllipse
 62
7
  6
CONTINUOUS
 10
-1.5622644892
 20
5.1813584184
 30
0.0
 11
0.3000114235
 21
-0.0
 31
0.0
 40
0.9999619231
 41
0.0
 42
1.5707963268
  0
ELLIPSE
  5
8EA
100
AcDbEntity
  8
DRAFT
100
AcDbEllipse
 62
7
  6
CONTINUOUS
 10
-2.4338907453
 20
2.6313584184
 30
0.0
 11
0.0
 21
2.15
 31
0.0
 40
0.0087268678
 41
3.1415926536
 42
6.2831853072
  0
ELLIPSE
  5
8EB
100
AcDbEntity
  8
RACCORDO
100
AcDbEllipse
 62
7
  6
CONTINUOUS
 10
-1.5622644892
 20
0.1813584184
 30
0.0
 11
0.3000114235
 21
-0.0
 31
0.0
 40
0.9999619231
 41
0.0
 42
1.5707963268
  0
ELLIPSE
  5
8EC
100
AcDbEntity
  8
RACCORDO
100
AcDbEllipse
 62
7
  6
CONTINUOUS
 10
-1.5622644892
 20
-4.8186415816
 30
0.0
 11
0.3000114235
 21
-0.0
 31
0.0
 40
0.9999619231
 41
0.0
 42
1.5707963268
  0
ELLIPSE
  5
8ED
100
AcDbEntity
  8
RACCORDO
100
AcDbEllipse
 62
7
  6
CONTINUOUS
 10
-1.5622644892
 20
-9.8186415816
 30
0.0
 11
0.3000114235
 21
-0.0
 31
0.0
 40
0.9999619231
 41
0.0
 42
1.5707963268
  0
ELLIPSE
  5
8EE
100
AcDbEntity
  8
RACCORDO
100
AcDbEllipse
 62
7
  6
CONTINUOUS
 10
-2.262291144
 20
-9.9598344272
 30
0.0
 11
0.9239207481
 21
-0.3827005044
 31
0.0
 40
0.9999553905
 41
-0.3926833098
 42
0.3926833098
  0
ELLIPSE
  5
8EF
100
AcDbEntity
  8
RACCORDO
100
AcDbEllipse
 62
7
  6
CONTINUOUS
 10
-2.8841505218
 20
-10.5816938049
 30
0.0
 11
0.3827005044
 21
-0.9239207481
 31
0.0
 40
0.9999553905
 41
-0.3926833098
 42
0.3926833098
  0
ELLIPSE
  5
8F0
100
AcDbEntity
  8
RACCORDO
100
AcDbEllipse
 62
7
  6
CONTINUOUS
 10
-7.9622416421
 20
-11.8817433068
 30
0.0
 11
0.2121481893
 21
-0.2121481893
 31
0.0
 40
0.9999238505
 41
2.3562325664
 42
3.9269527408
  0
ELLIPSE
  5
8F1
100
AcDbEntity
  8
RACCORDO
100
AcDbEllipse
 62
7
  6
CONTINUOUS
 10
-13.9579212546
 20
24.2313584184
 30
0.0
 11
-0.3000114235
 21
0.0
 31
0.0
 40
0.9999619231
 41
0.3402220636
 42
1.5707963268
  0
ELLIPSE
  5
8F2
100
AcDbEntity
  8
RACCORDO
100
AcDbEllipse
 62
7
  6
CONTINUOUS
 10
-13.8793363981
 20
-10.9686415816
 30
0.0
 11
0.3000114235
 21
-0.0
 31
0.0
 40
0.9999619231
 41
1.5707963268
 42
2.80137059
  0
ELLIPSE
  5
8F3
100
AcDbEntity
  8
RACCORDO
100
AcDbEllipse
 62
7
  6
CONTINUOUS
 10
-10.6713503366
 20
-10.9686415816
 30
0.0
 11
0.3000114235
 21
-0.0
 31
0.0
 40
0.9999619231
 41
0.3402220636
 42
1.5707963268
  0
ELLIPSE
  5
8F4
100
AcDbEntity
  8
ASSI
100
AcDbEllipse
 62
7
  6
CONTINUOUS
 10
-8.5622644892
 20
-12.6817204598
 30
0.0
 11
-0.2121481893
 21
0.2121481893
 31
0.0
 40
0.9999238505
 41
2.3562325664
 42
3.9269527408
  0
ELLIPSE
  5
8F5
100
AcDbEntity
  8
ASSI
100
AcDbEllipse
 62
7
  6
CONTINUOUS
 10
-21.6665362129
 20
-11.9816938049
 30
0.0
 11
-0.3827005044
 21
-0.9239207481
 31
0.0
 40
0.9999553905
 41
-0.3926833098
 42
0.3926833098
  0
ELLIPSE
  5
8F6
100
AcDbEntity
  8
ASSI
100
AcDbEllipse
 62
7
  6
CONTINUOUS
 10
-22.2883955906
 20
-11.3598344272
 30
0.0
 11
-0.9239207481
 21
-0.3827005044
 31
0.0
 40
0.9999553905
 41
-0.3926833098
 42
0.3926833098
  0
ELLIPSE
  5
8F7
100
AcDbEntity
  8
ASSI
100
AcDbEllipse
 62
7
  6
CONTINUOUS
 10
-22.2883955906
 20
24.6225512639
 30
0.0
 11
-0.9239207481
 21
0.3827005044
 31
0.0
 40
0.9999553905
 41
-0.3926833098
 42
0.3926833098
  0
ELLIPSE
  5
8F8
100
AcDbEntity
  8
ASSI
100
AcDbEllipse
 62
7
  6
CONTINUOUS
 10
-21.6665362129
 20
25.2444106417
 30
0.0
 11
0.3827005044
 21
-0.9239207481
 31
0.0
 40
0.9999553905
 41
2.7489093438
 42
3.5342759634
  0
ELLIPSE
  5
8F9
100
AcDbEntity
  8
ASSI
100
AcDbEllipse
 62
7
  6
CONTINUOUS
 10
-8.5622644892
 20
25.9444372965
 30
0.0
 11
0.2121481893
 21
0.2121481893
 31
0.0
 40
0.9999238505
 41
-0.7853600872
 42
0.7853600872
  0
ELLIPSE
  5
8FA
100
AcDbEntity
  8
ASSI
100
AcDbEllipse
 62
7
  6
CONTINUOUS
 10
-2.8841505218
 20
23.8444106417
 30
0.0
 11
0.3827005044
 21
0.9239207481
 31
0.0
 40
0.9999553905
 41
-0.3926833098
 42
0.3926833098
  0
ELLIPSE
  5
8FB
100
AcDbEntity
  8
ASSI
100
AcDbEllipse
 62
7
  6
CONTINUOUS
 10
-2.262291144
 20
23.2225512639
 30
0.0
 11
-0.9239207481
 21
-0.3827005044
 31
0.0
 40
0.9999553905
 41
2.7489093438
 42
3.5342759634
  0
ELLIPSE
  5
8FC
100
AcDbEntity
  8
ASSI
100
AcDbEllipse
 62
7
  6
CONTINUOUS
 10
-1.5622644892
 20
5.1813584184
 30
0.0
 11
0.3000114235
 21
-0.0
 31
0.0
 40
0.9999619231
 41
0.0
 42
1.5707963268
  0
ELLIPSE
  5
8FD
100
AcDbEntity
  8
ASSI
100
AcDbEllipse
 62
7
  6
CONTINUOUS
 10
-1.5622644892
 20
0.1813584184
 30
0.0
 11
0.3000114235
 21
-0.0
 31
0.0
 40
0.9999619231
 41
0.0
 42
1.5707963268
  0
ELLIPSE
  5
8FE
100
AcDbEntity
  8
ASSI
100
AcDbEllipse
 62
7
  6
CONTINUOUS
 10
-1.5622644892
 20
-4.8186415816
 30
0.0
 11
0.3000114235
 21
-0.0
 31
0.0
 40
0.9999619231
 41
0.0
 42
1.5707963268
  0
ELLIPSE
  5
8FF
100
AcDbEntity
  8
ASSI
100
AcDbEllipse
 62
7
  6
CONTINUOUS
 10
-1.5622644892
 20
-9.8186415816
 30
0.0
 11
0.3000114235
 21
-0.0
 31
0.0
 40
0.9999619231
 41
0.0
 42
1.5707963268
  0
ELLIPSE
  5
900
100
AcDbEntity
  8
ASSI
100
AcDbEllipse
 62
7
  6
CONTINUOUS
 10
-2.262291144
 20
-9.9598344272
 30
0.0
 11
0.9239207481
 21
-0.3827005044
 31
0.0
 40
0.9999553905
 41
-0.3926833098
 42
0.3926833098
  0
ELLIPSE
  5
901
100
AcDbEntity
  8
ASSI
100
AcDbEllipse
 62
7
  6
CONTINUOUS
 10
-2.8841505218
 20
-10.5816938049
 30
0.0
 11
0.3827005044
 21
-0.9239207481
 31
0.0
 40
0.9999553905
 41
-0.3926833098
 42
0.3926833098
  0
ELLIPSE
  5
902
100
AcDbEntity
  8
ASSI
100
AcDbEllipse
 62
7
  6
CONTINUOUS
 10
-13.9579212546
 20
24.2313584184
 30
0.0
 11
-0.3000114235
 21
0.0
 31
0.0
 40
0.9999619231
 41
0.3402220636
 42
1.5707963268
  0
ELLIPSE
  5
903
100
AcDbEntity
  8
ASSI
100
AcDbEllipse
 62
7
  6
CONTINUOUS
 10
-13.8793363981
 20
-10.9686415816
 30
0.0
 11
0.3000114235
 21
-0.0
 31
0.0
 40
0.9999619231
 41
1.5707963268
 42
2.80137059
  0
ELLIPSE
  5
904
100
AcDbEntity
  8
ASSI
100
AcDbEllipse
 62
7
  6
CONTINUOUS
 10
-10.6713503366
 20
-10.9686415816
 30
0.0
 11
0.3000114235
 21
-0.0
 31
0.0
 40
0.9999619231
 41
0.3402220636
 42
1.5707963268
  0
ELLIPSE
  5
905
100
AcDbEntity
  8
ASSI
100
AcDbEllipse
 62
7
  6
CONTINUOUS
 10
-10.5927654801
 20
24.2313584184
 30
0.0
 11
-0.3000114235
 21
0.0
 31
0.0
 40
0.9999619231
 41
1.5707963268
 42
2.80137059
  0
ELLIPSE
  5
906
100
AcDbEntity
  8
ASSI
100
AcDbEllipse
 62
7
  6
CONTINUOUS
 10
-1.5622644892
 20
10.0813584184
 30
0.0
 11
-0.3000114235
 21
0.0
 31
0.0
 40
0.9999619231
 41
1.5707963268
 42
3.1415926536
  0
ELLIPSE
  5
907
100
AcDbEntity
  8
ASSI
100
AcDbEllipse
 62
7
  6
CONTINUOUS
 10
-1.5622644892
 20
5.0813584184
 30
0.0
 11
-0.3000114235
 21
0.0
 31
0.0
 40
0.9999619231
 41
1.5707963268
 42
3.1415926536
  0
ELLIPSE
  5
908
100
AcDbEntity
  8
ASSI
100
AcDbEllipse
 62
7
  6
CONTINUOUS
 10
-1.5622644892
 20
0.0813584184
 30
0.0
 11
-0.3000114235
 21
0.0
 31
0.0
 40
0.9999619231
 41
1.5707963268
 42
3.1415926536
  0
ELLIPSE
  5
909
100
AcDbEntity
  8
ASSI
100
AcDbEllipse
 62
7
  6
CONTINUOUS
 10
-1.5622644892
 20
-4.9186415816
 30
0.0
 11
-0.3000114235
 21
0.0
 31
0.0
 40
0.9999619231
 41
1.5707963268
 42
3.1415926536
  0
ELLIPSE
  5
90A
100
AcDbEntity
  8
ASSI
100
AcDbEllipse
 62
7
  6
CONTINUOUS
 10
-2.4338907453
 20
7.6313584184
 30
0.0
 11
0.0
 21
2.15
 31
0.0
 40
0.0087268678
 41
3.1415926536
 42
6.2831853072
  0
ELLIPSE
  5
90B
100
AcDbEntity
  8
ASSI
100
AcDbEllipse
 62
7
  6
CONTINUOUS
 10
-2.4338907453
 20
-7.3686415816
 30
0.0
 11
0.0
 21
2.15
 31
0.0
 40
0.0087268678
 41
3.1415926536
 42
6.2831853072
  0
ELLIPSE
  5
90C
100
AcDbEntity
  8
ASSI
100
AcDbEllipse
 62
7
  6
CONTINUOUS
 10
-2.4338907453
 20
-2.3686415816
 30
0.0
 11
0.0
 21
2.15
 31
0.0
 40
0.0087268678
 41
3.1415926536
 42
6.2831853072
  0
ELLIPSE
  5
90D
100
AcDbEntity
  8
ASSI
100
AcDbEllipse
 62
7
  6
CONTINUOUS
 10
-2.4338907453
 20
2.6313584184
 30
0.0
 11
0.0
 21
2.15
 31
0.0
 40
0.0087268678
 41
3.1415926536
 42
6.2831853072
  0
ELLIPSE
  5
90E
100
AcDbEntity
  8
ASSI
100
AcDbEllipse
 62
7
  6
CONTINUOUS
 10
-7.9622416421
 20
-11.8817433068
 30
0.0
 11
0.2121481893
 21
-0.2121481893
 31
0.0
 40
0.9999238505
 41
2.3562325664
 42
3.9269527408
  0
ENDSEC
  0
SECTION
  2
OBJECTS
  0
DICTIONARY
  5
C
100
AcDbDictionary
280
0
281
1
  3
ACAD_GROUP
350
D
  3
ACAD_MLINESTYLE
350
17
  3
ACAD_LAYOUT
350
1A
  3
ACAD_PLOTSETTINGS
350
19
  3
ACAD_PLOTSTYLENAME
350
E
  0
DICTIONARY
  5
D
102
{ACAD_REACTORS
330
C
102
}
100
AcDbDictionary
280
0
281
1
  0
ACDBDICTIONARYWDFLT
  5
E
102
{ACAD_REACTORS
330
C
102
}
100
AcDbDictionary
281
1
  3
Normal
350
F
100
AcDbDictionaryWithDefault
340
F
  0
DICTIONARY
  5
17
102
{ACAD_REACTORS
330
C
102
}
100
AcDbDictionary
280
0
281
1
  3
Standard
350
18
  0
DICTIONARY
  5
19
102
{ACAD_REACTORS
330
C
102
}
100
AcDbDictionary
281
1
  0
DICTIONARY
  5
1A
102
{ACAD_REACTORS
330
C
102
}
100
AcDbDictionary
281
1
  3
Model
350
90F
  3
Layout1
350
910
  0
ACDBPLACEHOLDER
  5
F
102
{ACAD_REACTORS
330
E
102
}
  0
MLINESTYLE
  5
18
102
{ACAD_REACTORS
330
17
102
}
100
AcDbMlineStyle
  2
STANDARD
 70
0
  3

 62
256
 51
90.0
 52
90.0
 71
2
 49
0.5
 62
256
  6
BYLAYER
 49
-0.5
 62
256
  6
BYLAYER
  0
LAYOUT
  5
90F
102
{ACAD_REACTORS
330
1A
102
}
100
AcDbPlotSettings
  1

  2
none_device
  4
ISO_A4_(297.00_x_210.00_MM)
  6

 40
0.0
 41
0.0
 42
0.0
 43
0.0
 44
297.0
 45
210.0
 46
0.0
 47
0.0
 48
0.0
 49
0.0
140
0.0
141
0.0
142
1.0
143
1.0
 70
1024
 72
1
 73
0
 74
0
  7

 75
0
147
1.0
148
0.0
149
0.0
100
AcDbLayout
  1
Model
 70
0
 71
0
 10
0.0
 20
0.0
 11
297.0
 21
210.0
 12
0.0
 22
0.0
 32
0.0
 14
0.0
 24
0.0
 34
0.0
 15
0.0
 25
0.0
 35
0.0
146
0.0
 13
0.0
 23
0.0
 33
0.0
 16
1.0
 26
0.0
 36
0.0
 17
0.0
 27
1.0
 37
0.0
 76
0
330
21A
345
0
346
0
  0
LAYOUT
  5
910
102
{ACAD_REACTORS
330
1A
102
}
100
AcDbPlotSettings
  1

  2
none_device
  4
ISO_A4_(297.00_x_210.00_MM)
  6

 40
0.0
 41
0.0
 42
0.0
 43
0.0
 44
297.0
 45
210.0
 46
0.0
 47
0.0
 48
0.0
 49
0.0
140
0.0
141
0.0
142
1.0
143
1.0
 70
0
 72
1
 73
0
 74
0
  7

 75
0
147
1.0
148
0.0
149
0.0
100
AcDbLayout
  1
Layout1
 70
0
 71
1
 10
0.0
 20
0.0
 11
297.0
 21
210.0
 12
0.0
 22
0.0
 32
0.0
 14
0.0
 24
0.0
 34
0.0
 15
0.0
 25
0.0
 35
0.0
146
0.0
 13
0.0
 23
0.0
 33
0.0
 16
1.0
 26
0.0
 36
0.0
 17
0.0
 27
1.0
 37
0.0
 76
0
330
21B
345
0
346
0
  0
ENDSEC
  0
EOF
