  0
SECTION
  2
HEADER
  9
$ACADVER
  1
AC1015
  9
$DWGCODEPAGE
  3
ANSI_1252
  9
$EXTMAX
 10
297.0
 20
210.0
 30
0.0
  9
$EXTMIN
 10
0.0
 20
0.0
 30
0.0
  9
$LIMMIN
 10
0.0
 20
0.0
  9
$LIMMAX
 10
297.0
 20
210.0
  9
$VIEWCTR
 10
148.5
 20
105.0
  9
$VIEWSIZE
 40
210.0
  9
$CLAYER
  8
0
  9
$LTSCALE
 40
16.335
  9
$CELTYPE
  6
BYLAYER
  9
$DIMSCALE
 40
1.0
  9
$DIMASZ
 40
3.0
  9
$DIMEXO
 40
0.5
  9
$DIMDLI
 40
11.286
  9
$DIMEXE
 40
1.5
  9
$DIMCEN
 40
2.673
  9
$DIMLFAC
 40
1.0
  9
$DIMBLK
  1
_FILLED
  9
$DIMTXT
 40
3.0
  9
$DIMTOL
 70
1
  9
$DIMLIM
 70
0
  9
$DIMTFAC
 40
1.0
  9
$DIMTP
 40
0.01
  9
$DIMTM
 40
0.01
  9
$DIMGAP
 40
0.625
  9
$DIMDSEP
 70
44
  9
$PDMODE
 70
3
  9
$PDSIZE
 40
3.0
  9
$HANDSEED
  5
907
  9
$TILEMODE
 70
1
  9
$MEASUREMENT
 70
1
  9
$INSUNITS
 70
4
  0
ENDSEC
  0
SECTION
  2
CLASSES
  0
CLASS
  1
ACDBDICTIONARYWDFLT
  2
AcDbDictionaryWithDefault
  3
AutoCAD 2000
 90
0
280
0
281
0
  0
CLASS
  1
ACDBPLACEHOLDER
  2
AcDbPlaceHolder
  3
AutoCAD 2000
 90
0
280
0
281
0
  0
CLASS
  1
LAYOUT
  2
AcDbLayout
  3
AutoCAD 2000
 90
0
280
0
281
0
  0
ENDSEC
  0
SECTION
  2
TABLES
  0
TABLE
  2
VPORT
  5
8
100
AcDbSymbolTable
 70
2
  0
VPORT
  5
1F4
100
AcDbSymbolTableRecord
100
AcDbViewportTableRecord
  2
*ACTIVE
 70
0
 10
0.0
 20
0.0
 11
1.0
 21
1.0
 12
148.5
 22
105.0
 13
0.0
 23
0.0
 14
1.0
 24
1.0
 15
0.0
 25
0.0
 16
0.0
 26
0.0
 36
1.0
 17
0.0
 27
0.0
 37
0.0
 40
210.0
 41
1.4142857143
 42
50.0
 43
0.0
 44
0.0
 50
0.0
 51
0.0
 71
0
 72
100
 73
1
 74
1
 75
0
 76
0
 77
0
 78
0
  0
ENDTAB
  0
TABLE
  2
LTYPE
  5
5
100
AcDbSymbolTable
 70
6
  0
LTYPE
  5
14
100
AcDbSymbolTableRecord
100
AcDbLinetypeTableRecord
  2
BYBLOCK
 70
0
  3

 72
65
 73
0
 40
0.0
  0
LTYPE
  5
15
100
AcDbSymbolTableRecord
100
AcDbLinetypeTableRecord
  2
BYLAYER
 70
0
  3

 72
65
 73
0
 40
0.0
  0
LTYPE
  5
16
100
AcDbSymbolTableRecord
100
AcDbLinetypeTableRecord
  2
CONTINUOUS
 70
64
  3
Solid line
 72
65
 73
0
 40
0.0
  0
LTYPE
  5
1F5
100
AcDbSymbolTableRecord
100
AcDbLinetypeTableRecord
  2
CENTER
 70
64
  3
____ _ ____ _ ____ _ ____ _ ____ _ ____ _ ____
 72
65
 73
4
 40
0.6
 49
0.375
 74
0
 49
-0.075
 74
0
 49
0.075
 74
0
 49
-0.075
 74
0
  0
LTYPE
  5
1F6
100
AcDbSymbolTableRecord
100
AcDbLinetypeTableRecord
  2
HIDDEN
 70
64
  3
- - - - - - - - - - - - - - - - - - - -
 72
65
 73
2
 40
0.2
 49
0.1
 74
0
 49
-0.1
 74
0
  0
LTYPE
  5
1F7
100
AcDbSymbolTableRecord
100
AcDbLinetypeTableRecord
  2
PHANTOM
 70
64
  3
_____ _ _ _____ _ _ _____ _ _ _____
 72
65
 73
6
 40
0.8
 49
0.45
 74
0
 49
-0.05
 74
0
 49
0.1
 74
0
 49
-0.05
 74
0
 49
0.1
 74
0
 49
-0.05
 74
0
  0
LTYPE
  5
1F8
100
AcDbSymbolTableRecord
100
AcDbLinetypeTableRecord
  2
DOT
 70
64
  3
. . . . . . . . . . . . . . . . . . . .
 72
65
 73
2
 40
0.2
 49
0.1
 74
0
 49
-0.1
 74
0
  0
LTYPE
  5
1F9
100
AcDbSymbolTableRecord
100
AcDbLinetypeTableRecord
  2
DASHED
 70
64
  3
- - - - - - - - - - - - - - - - - - - -
 72
65
 73
2
 40
0.2
 49
0.1
 74
0
 49
-0.1
 74
0
  0
ENDTAB
  0
TABLE
  2
LAYER
  5
2
100
AcDbSymbolTable
 70
36
  0
LAYER
  5
10
100
AcDbSymbolTableRecord
100
AcDbLayerTableRecord
  2
0
 70
0
 62
7
  6
CONTINUOUS
370
-3
390
F
  0
LAYER
  5
1FA
100
AcDbSymbolTableRecord
100
AcDbLayerTableRecord
  2
DEFAULT_1
 70
0
 62
7
  6
CENTER
370
-3
390
F
  0
LAYER
  5
1FB
100
AcDbSymbolTableRecord
100
AcDbLayerTableRecord
  2
DEFAULT_2
 70
0
 62
7
  6
HIDDEN
370
-3
390
F
  0
LAYER
  5
1FC
100
AcDbSymbolTableRecord
100
AcDbLayerTableRecord
  2
DEFAULT_3
 70
0
 62
7
  6
PHANTOM
370
-3
390
F
  0
LAYER
  5
1FD
100
AcDbSymbolTableRecord
100
AcDbLayerTableRecord
  2
ASSI
 70
0
 62
7
  6
CONTINUOUS
370
-3
390
F
  0
LAYER
  5
1FE
100
AcDbSymbolTableRecord
100
AcDbLayerTableRecord
  2
COLORE_MATERIALE
 70
0
 62
7
  6
CONTINUOUS
370
-3
390
F
  0
LAYER
  5
1FF
100
AcDbSymbolTableRecord
100
AcDbLayerTableRecord
  2
COORDINATE
 70
0
 62
7
  6
CONTINUOUS
370
-3
390
F
  0
LAYER
  5
200
100
AcDbSymbolTableRecord
100
AcDbLayerTableRecord
  2
COORD_ORIGINE
 70
0
 62
7
  6
CONTINUOUS
370
-3
390
F
  0
LAYER
  5
201
100
AcDbSymbolTableRecord
100
AcDbLayerTableRecord
  2
COPY
 70
0
 62
7
  6
CONTINUOUS
370
-3
390
F
  0
LAYER
  5
202
100
AcDbSymbolTableRecord
100
AcDbLayerTableRecord
  2
COPY_PUBLISH
 70
0
 62
7
  6
CONTINUOUS
370
-3
390
F
  0
LAYER
  5
203
100
AcDbSymbolTableRecord
100
AcDbLayerTableRecord
  2
COSMETICI
 70
0
 62
7
  6
CONTINUOUS
370
-3
390
F
  0
LAYER
  5
204
100
AcDbSymbolTableRecord
100
AcDbLayerTableRecord
  2
CURVE
 70
0
 62
7
  6
CONTINUOUS
370
-3
390
F
  0
LAYER
  5
205
100
AcDbSymbolTableRecord
100
AcDbLayerTableRecord
  2
DRAFT
 70
0
 62
7
  6
CONTINUOUS
370
-3
390
F
  0
LAYER
  5
206
100
AcDbSymbolTableRecord
100
AcDbLayerTableRecord
  2
IMPORT_IGES
 70
0
 62
7
  6
CONTINUOUS
370
-3
390
F
  0
LAYER
  5
207
100
AcDbSymbolTableRecord
100
AcDbLayerTableRecord
  2
INTFCLR_2
 70
0
 62
7
  6
CONTINUOUS
370
-3
390
F
  0
LAYER
  5
208
100
AcDbSymbolTableRecord
100
AcDbLayerTableRecord
  2
INTF_1
 70
0
 62
7
  6
CONTINUOUS
370
-3
390
F
  0
LAYER
  5
209
100
AcDbSymbolTableRecord
100
AcDbLayerTableRecord
  2
NOTE
 70
0
 62
7
  6
CONTINUOUS
370
-3
390
F
  0
LAYER
  5
20A
100
AcDbSymbolTableRecord
100
AcDbLayerTableRecord
  2
PIANI
 70
0
 62
7
  6
CONTINUOUS
370
-3
390
F
  0
LAYER
  5
20B
100
AcDbSymbolTableRecord
100
AcDbLayerTableRecord
  2
PIANI_ORIGINE
 70
0
 62
7
  6
CONTINUOUS
370
-3
390
F
  0
LAYER
  5
20C
100
AcDbSymbolTableRecord
100
AcDbLayerTableRecord
  2
PIANI_RIFERIMENTO
 70
0
 62
7
  6
CONTINUOUS
370
-3
390
F
  0
LAYER
  5
20D
100
AcDbSymbolTableRecord
100
AcDbLayerTableRecord
  2
PIANI_SFORMO
 70
0
 62
7
  6
CONTINUOUS
370
-3
390
F
  0
LAYER
  5
20E
100
AcDbSymbolTableRecord
100
AcDbLayerTableRecord
  2
PUNTI
 70
0
 62
7
  6
CONTINUOUS
370
-3
390
F
  0
LAYER
  5
20F
100
AcDbSymbolTableRecord
100
AcDbLayerTableRecord
  2
RACCORDO
 70
0
 62
7
  6
CONTINUOUS
370
-3
390
F
  0
LAYER
  5
210
100
AcDbSymbolTableRecord
100
AcDbLayerTableRecord
  2
SIMBOLI
 70
0
 62
7
  6
CONTINUOUS
370
-3
390
F
  0
LAYER
  5
211
100
AcDbSymbolTableRecord
100
AcDbLayerTableRecord
  2
SMUSSO
 70
0
 62
7
  6
CONTINUOUS
370
-3
390
F
  0
LAYER
  5
212
100
AcDbSymbolTableRecord
100
AcDbLayerTableRecord
  2
SNAPLINE
 70
0
 62
7
  6
CONTINUOUS
370
-3
390
F
  0
LAYER
  5
213
100
AcDbSymbolTableRecord
100
AcDbLayerTableRecord
  2
SUPERFICI
 70
0
 62
7
  6
CONTINUOUS
370
-3
390
F
  0
LAYER
  5
214
100
AcDbSymbolTableRecord
100
AcDbLayerTableRecord
  2
TRASH
 70
0
 62
7
  6
CONTINUOUS
370
-3
390
F
  0
LAYER
  5
215
100
AcDbSymbolTableRecord
100
AcDbLayerTableRecord
  2
XSEC_DATUMS
 70
0
 62
7
  6
CONTINUOUS
370
-3
390
F
  0
ENDTAB
  0
TABLE
  2
STYLE
  5
3
100
AcDbSymbolTable
 70
1
  0
STYLE
  5
11
100
AcDbSymbolTableRecord
100
AcDbTextStyleTableRecord
  2
STANDARD
 70
0
 40
0.0
 41
0.8
 50
0.0
 71
0
 42
0.2
  3
txt
  4

  0
STYLE
  5
216
100
AcDbSymbolTableRecord
100
AcDbTextStyleTableRecord
  2
TEXTSTYLE_1
 70
0
 40
0.0
 41
0.8
 50
0.0
 71
0
 42
0.2
  3
gdt
  4

  0
ENDTAB
  0
TABLE
  2
VIEW
  5
6
100
AcDbSymbolTable
 70
0
  0
ENDTAB
  0
TABLE
  2
UCS
  5
7
100
AcDbSymbolTable
 70
0
  0
ENDTAB
  0
TABLE
  2
APPID
  5
9
100
AcDbSymbolTable
 70
1
  0
APPID
  5
217
100
AcDbSymbolTableRecord
100
AcDbRegAppTableRecord
  2
ACAD
 70
0
  0
ENDTAB
  0
TABLE
  2
BLOCK_RECORD
  5
1
100
AcDbSymbolTable
 70
0
  0
BLOCK_RECORD
  5
218
100
AcDbSymbolTableRecord
100
AcDbBlockTableRecord
  2
*Model_Space
  0
BLOCK_RECORD
  5
219
100
AcDbSymbolTableRecord
100
AcDbBlockTableRecord
  2
*Paper_Space
  0
ENDTAB
  0
TABLE
  2
DIMSTYLE
  5
A
100
AcDbSymbolTable
 70
1
100
AcDbDimStyleTable
 71
0
  0
DIMSTYLE
105
21A
100
AcDbSymbolTableRecord
100
AcDbDimStyleTableRecord
  2
STANDARD
 70
0
  3

  4

 40
1.0
 41
3.0
 42
0.5
 43
0.38
 44
1.5
 45
0.0
 46
0.0
 47
0.01
 48
0.01
140
3.0
141
0.09
142
0.0
143
25.4
144
1.0
145
0.0
146
1.0
147
0.625
 71
1.0
 72
0.0
 73
0
 74
0
 75
0
 76
0
 77
1
 78
8
170
0
171
2
172
0
173
0
174
0
175
0
176
0
177
0
178
0
270
2
271
2
272
2
273
2
274
2
275
0
280
0
281
0
282
0
283
1
284
8
285
0
286
0
287
3
288
0
340
11
278
44
  0
ENDTAB
  0
ENDSEC
  0
SECTION
  2
BLOCKS
  0
BLOCK
  5
20
100
AcDbEntity
  8
0
100
AcDbBlockBegin
  2
*Model_Space
 70
0
 10
0.0
 20
0.0
 30
0.0
  3
*Model_Space
  1

  0
ENDBLK
  5
21
100
AcDbEntity
  8
0
100
AcDbBlockEnd
  0
BLOCK
  5
1C
100
AcDbEntity
  8
0
100
AcDbBlockBegin
  2
*Paper_Space
 70
0
 10
0.0
 20
0.0
 30
0.0
  3
*Paper_Space
  1

  0
ENDBLK
  5
1D
100
AcDbEntity
  8
0
100
AcDbBlockEnd
  0
ENDSEC
  0
SECTION
  2
ENTITIES
  0
LINE
  5
21B
100
AcDbEntity
  8
RACCORDO
100
AcDbLine
 62
253
  6
CONTINUOUS
 10
-17.4987398481
 20
49.0981383701
 11
-17.4943680141
 21
49.1025102041
  0
LINE
  5
21C
100
AcDbEntity
  8
RACCORDO
100
AcDbLine
 62
253
  6
CONTINUOUS
 10
-19.6842321058
 20
46.9937833363
 11
-19.6667770408
 21
47.0025102041
  0
LWPOLYLINE
  5
21D
100
AcDbEntity
  8
RACCORDO
100
AcDbPolyline
 62
7
  6
CONTINUOUS
 90
11
 70
0
 10
-19.8725099271
 20
46.9539569258
 10
-19.8581268676
 20
46.9608390312
 10
-19.8380084613
 20
46.9694677016
 10
-19.8175012103
 20
46.9771299131
 10
-19.7966509433
 20
46.9838081708
 10
-19.7754959781
 20
46.9894891808
 10
-19.7540927893
 20
46.9941568167
 10
-19.7325162621
 20
46.9977963577
 10
-19.710824657
 20
47.0004021477
 10
-19.6890585976
 20
47.001973455
 10
-19.6672673317
 20
47.0025102041
  0
LINE
  5
21E
100
AcDbEntity
  8
RACCORDO
100
AcDbLine
 62
7
  6
CONTINUOUS
 10
-19.3943764757
 20
0.1025102041
 11
-17.4943680141
 21
0.1025102041
  0
LINE
  5
21F
100
AcDbEntity
  8
RACCORDO
100
AcDbLine
 62
7
  6
CONTINUOUS
 10
-0.4943764757
 20
0.1025102041
 11
1.4056319859
 21
0.1025102041
  0
LINE
  5
220
100
AcDbEntity
  8
RACCORDO
100
AcDbLine
 62
253
  6
CONTINUOUS
 10
-19.3900046417
 20
0.1068820381
 11
-17.4987398481
 21
0.1068820381
  0
LINE
  5
221
100
AcDbEntity
  8
RACCORDO
100
AcDbLine
 62
253
  6
CONTINUOUS
 10
-0.4900046417
 20
0.1068820381
 11
1.4012601519
 21
0.1068820381
  0
LINE
  5
222
100
AcDbEntity
  8
RACCORDO
100
AcDbLine
 62
253
  6
CONTINUOUS
 10
-0.7400004109
 20
0.3568778073
 11
1.6512559211
 21
0.3568778073
  0
LINE
  5
223
100
AcDbEntity
  8
RACCORDO
100
AcDbLine
 62
253
  6
CONTINUOUS
 10
-17.2487440789
 20
0.3568778073
 11
-19.6400004109
 21
0.3568778073
  0
LINE
  5
224
100
AcDbEntity
  8
RACCORDO
100
AcDbLine
 62
253
  6
CONTINUOUS
 10
-0.7400004109
 20
0.7581726368
 11
1.6512559211
 21
0.7581726368
  0
LINE
  5
225
100
AcDbEntity
  8
RACCORDO
100
AcDbLine
 62
253
  6
CONTINUOUS
 10
-17.2487440789
 20
0.7581726368
 11
-19.6400004109
 21
0.7581726368
  0
LINE
  5
226
100
AcDbEntity
  8
DRAFT
100
AcDbLine
 62
7
  6
CONTINUOUS
 10
-13.3943722449
 20
0.8025102041
 11
-4.5943722449
 21
0.8025102041
  0
LINE
  5
227
100
AcDbEntity
  8
DRAFT
100
AcDbLine
 62
7
  6
CONTINUOUS
 10
-5.4943722449
 20
0.8083280339
 11
-12.4943722449
 21
0.8083280339
  0
LINE
  5
228
100
AcDbEntity
  8
ASSI
100
AcDbLine
 62
253
  6
CONTINUOUS
 10
-4.6380228918
 20
0.8461608509
 11
-5.4943722449
 21
0.8461608509
  0
LINE
  5
229
100
AcDbEntity
  8
ASSI
100
AcDbLine
 62
253
  6
CONTINUOUS
 10
-12.4943722449
 20
0.8461608509
 11
-13.350721598
 21
0.8461608509
  0
LINE
  5
22A
100
AcDbEntity
  8
RACCORDO
100
AcDbLine
 62
253
  6
CONTINUOUS
 10
1.4012601519
 20
0.9746789877
 11
-0.4900046417
 21
0.9746789877
  0
LINE
  5
22B
100
AcDbEntity
  8
RACCORDO
100
AcDbLine
 62
253
  6
CONTINUOUS
 10
-17.4987398481
 20
0.9746789877
 11
-19.3900046417
 21
0.9746789877
  0
LINE
  5
22C
100
AcDbEntity
  8
RACCORDO
100
AcDbLine
 62
7
  6
CONTINUOUS
 10
-19.3950952428
 20
1.4798604733
 11
-17.493649247
 21
1.4798604733
  0
LINE
  5
22D
100
AcDbEntity
  8
RACCORDO
100
AcDbLine
 62
7
  6
CONTINUOUS
 10
-0.4950952428
 20
1.4798604733
 11
1.406350753
 21
1.4798604733
  0
LWPOLYLINE
  5
22E
100
AcDbEntity
  8
RACCORDO
100
AcDbPolyline
 62
7
  6
CONTINUOUS
 90
34
 70
0
 10
-19.3943764757
 20
0.1025102041
 10
-19.4062717609
 20
0.1027933543
 10
-19.4181401005
 20
0.1036421698
 10
-19.429954611
 20
0.1050547299
 10
-19.4416885324
 20
0.1070278364
 10
-19.4533152837
 20
0.1095570224
 10
-19.4648085239
 20
0.1126365624
 10
-19.4761422187
 20
0.1162594827
 10
-19.4872906942
 20
0.1204175783
 10
-19.4982286912
 20
0.1251014319
 10
-19.5089314325
 20
0.1303004353
 10
-19.5193746732
 20
0.1360028124
 10
-19.5295347508
 20
0.1421956459
 10
-19.53938865
 20
0.1488649086
 10
-19.5489140487
 20
0.1559954934
 10
-19.558089364
 20
0.1635712452
 10
-19.566893811
 20
0.1715750036
 10
-19.5753074454
 20
0.179988638
 10
-19.5833112038
 20
0.188793085
 10
-19.5908869556
 20
0.1979684002
 10
-19.5980175404
 20
0.207493799
 10
-19.604686803
 20
0.2173476982
 10
-19.6108796365
 20
0.2275077758
 10
-19.6165820137
 20
0.2379510165
 10
-19.6217810171
 20
0.2486537578
 10
-19.6264648707
 20
0.2595917548
 10
-19.6306229662
 20
0.2707402303
 10
-19.6342458866
 20
0.2820739251
 10
-19.6373254266
 20
0.2935671653
 10
-19.6398546126
 20
0.3051939166
 10
-19.641827719
 20
0.3169278379
 10
-19.6432402791
 20
0.3287423485
 10
-19.6440890947
 20
0.3406106881
 10
-19.6443722449
 20
0.3525059733
  0
LWPOLYLINE
  5
22F
100
AcDbEntity
  8
RACCORDO
100
AcDbPolyline
 62
7
  6
CONTINUOUS
 90
34
 70
0
 10
-0.4943764757
 20
0.1025102041
 10
-0.5062717609
 20
0.1027933543
 10
-0.5181401005
 20
0.1036421698
 10
-0.529954611
 20
0.1050547299
 10
-0.5416885324
 20
0.1070278364
 10
-0.5533152837
 20
0.1095570224
 10
-0.5648085239
 20
0.1126365624
 10
-0.5761422187
 20
0.1162594827
 10
-0.5872906942
 20
0.1204175783
 10
-0.5982286912
 20
0.1251014319
 10
-0.6089314325
 20
0.1303004353
 10
-0.6193746732
 20
0.1360028124
 10
-0.6295347508
 20
0.1421956459
 10
-0.63938865
 20
0.1488649086
 10
-0.6489140487
 20
0.1559954934
 10
-0.658089364
 20
0.1635712452
 10
-0.666893811
 20
0.1715750036
 10
-0.6753074454
 20
0.179988638
 10
-0.6833112038
 20
0.188793085
 10
-0.6908869556
 20
0.1979684002
 10
-0.6980175404
 20
0.207493799
 10
-0.704686803
 20
0.2173476982
 10
-0.7108796365
 20
0.2275077758
 10
-0.7165820137
 20
0.2379510165
 10
-0.7217810171
 20
0.2486537578
 10
-0.7264648707
 20
0.2595917548
 10
-0.7306229662
 20
0.2707402303
 10
-0.7342458866
 20
0.2820739251
 10
-0.7373254266
 20
0.2935671653
 10
-0.7398546126
 20
0.3051939166
 10
-0.741827719
 20
0.3169278379
 10
-0.7432402791
 20
0.3287423485
 10
-0.7440890947
 20
0.3406106881
 10
-0.7443722449
 20
0.3525059733
  0
LWPOLYLINE
  5
230
100
AcDbEntity
  8
RACCORDO
100
AcDbPolyline
 62
253
  6
CONTINUOUS
 90
31
 70
0
 10
-19.3900046417
 20
0.1068820381
 10
-19.4030569817
 20
0.1072234453
 10
-19.416081876
 20
0.1082467079
 10
-19.4290436506
 20
0.1099503121
 10
-19.4419093694
 20
0.1123314423
 10
-19.4546408346
 20
0.1153845557
 10
-19.4671950191
 20
0.1190999954
 10
-19.4795348231
 20
0.1234665465
 10
-19.4916291792
 20
0.1284729764
 10
-19.5034452574
 20
0.134105725
 10
-19.5149508579
 20
0.1403495266
 10
-19.5261141763
 20
0.1471872085
 10
-19.5369042555
 20
0.1545998385
 10
-19.5472913813
 20
0.1625669807
 10
-19.5572472185
 20
0.1710668777
 10
-19.5667445529
 20
0.1800762995
 10
-19.575757372
 20
0.1895705927
 10
-19.5842609136
 20
0.1995236961
 10
-19.5922318217
 20
0.2099082853
 10
-19.5996482286
 20
0.2206958756
 10
-19.6064898044
 20
0.2318569016
 10
-19.6127377836
 20
0.2433607574
 10
-19.6183750318
 20
0.2551759031
 10
-19.6233860873
 20
0.2672699403
 10
-19.6277572024
 20
0.2796096964
 10
-19.6314763919
 20
0.2921613438
 10
-19.634533453
 20
0.3048904578
 10
-19.6369199958
 20
0.3177620974
 10
-19.6386294789
 20
0.3307409548
 10
-19.6396572219
 20
0.3437914532
 10
-19.6400004109
 20
0.3568778073
  0
LWPOLYLINE
  5
231
100
AcDbEntity
  8
RACCORDO
100
AcDbPolyline
 62
253
  6
CONTINUOUS
 90
31
 70
0
 10
-0.4900046417
 20
0.1068820381
 10
-0.5030881277
 20
0.1072250767
 10
-0.5161357543
 20
0.1082523665
 10
-0.5291117604
 20
0.1099610921
 10
-0.5419805813
 20
0.1123465701
 10
-0.5547069458
 20
0.1154022623
 10
-0.5672559735
 20
0.1191197937
 10
-0.5795932698
 20
0.1234889751
 10
-0.5916850204
 20
0.1284978316
 10
-0.6034980842
 20
0.1341326348
 10
-0.6150000838
 20
0.1403779407
 10
-0.6261594943
 20
0.1472166321
 10
-0.6369457299
 20
0.1546299655
 10
-0.6473292275
 20
0.1625976222
 10
-0.657281528
 20
0.1710977645
 10
-0.6667753539
 20
0.1801070951
 10
-0.6757846844
 20
0.189600921
 10
-0.6842848267
 20
0.1995532215
 10
-0.6922524835
 20
0.2099367191
 10
-0.6996658169
 20
0.2207229547
 10
-0.7065045083
 20
0.2318823652
 10
-0.7127498142
 20
0.2433843648
 10
-0.7183846173
 20
0.2551974286
 10
-0.7233934738
 20
0.2672891792
 10
-0.7277626553
 20
0.2796264755
 10
-0.7314801867
 20
0.2921755032
 10
-0.7345358789
 20
0.3049018677
 10
-0.7369213569
 20
0.3177706886
 10
-0.7386300824
 20
0.3307466947
 10
-0.7396573723
 20
0.3437943213
 10
-0.7400004109
 20
0.3568778073
  0
LWPOLYLINE
  5
232
100
AcDbEntity
  8
RACCORDO
100
AcDbPolyline
 62
7
  6
CONTINUOUS
 90
11
 70
0
 10
-19.8725081145
 20
2.25106259
 10
-19.8580385116
 20
2.2441409774
 10
-19.8379139537
 20
2.2355148043
 10
-19.8174031272
 20
2.2278565013
 10
-19.7965530843
 20
2.2211834546
 10
-19.7754199372
 20
2.2155127195
 10
-19.7540429651
 20
2.2108539431
 10
-19.7324441547
 20
2.2072136511
 10
-19.7106630255
 20
2.2046027992
 10
-19.6887574264
 20
2.2030325904
 10
-19.6667770408
 20
2.2025102041
  0
LINE
  5
233
100
AcDbEntity
  8
RACCORDO
100
AcDbLine
 62
253
  6
CONTINUOUS
 10
-19.6667770408
 20
2.2025102041
 11
-19.6842321058
 21
2.2112370719
  0
LINE
  5
234
100
AcDbEntity
  8
RACCORDO
100
AcDbLine
 62
253
  6
CONTINUOUS
 10
-17.4987398481
 20
0.1068820381
 11
-17.4943680141
 21
0.1025102041
  0
LINE
  5
235
100
AcDbEntity
  8
RACCORDO
100
AcDbLine
 62
253
  6
CONTINUOUS
 10
-17.2487440789
 20
48.8481426009
 11
-17.2443722449
 21
48.8525144349
  0
LINE
  5
236
100
AcDbEntity
  8
RACCORDO
100
AcDbLine
 62
7
  6
CONTINUOUS
 10
-17.0783968116
 20
45.5942184683
 11
-17.240884954
 21
45.5129805845
  0
LINE
  5
237
100
AcDbEntity
  8
RACCORDO
100
AcDbLine
 62
7
  6
CONTINUOUS
 10
1.678032551
 20
2.2025102041
 11
1.6556277551
 21
2.2025102041
  0
LINE
  5
238
100
AcDbEntity
  8
DRAFT
100
AcDbLine
 62
7
  6
CONTINUOUS
 10
1.6556277551
 20
2.2025102041
 11
-4.5943722449
 21
2.2025102041
  0
LINE
  5
239
100
AcDbEntity
  8
DRAFT
100
AcDbLine
 62
7
  6
CONTINUOUS
 10
-13.3943722449
 20
2.2025102041
 11
-19.6443722449
 21
2.2025102041
  0
LINE
  5
23A
100
AcDbEntity
  8
RACCORDO
100
AcDbLine
 62
7
  6
CONTINUOUS
 10
-19.6443722449
 20
2.2025102041
 11
-19.6667770408
 21
2.2025102041
  0
LINE
  5
23B
100
AcDbEntity
  8
RACCORDO
100
AcDbLine
 62
7
  6
CONTINUOUS
 10
-19.6842321058
 20
2.2112370719
 11
-16.2530991127
 21
2.2112370719
  0
LINE
  5
23C
100
AcDbEntity
  8
RACCORDO
100
AcDbLine
 62
7
  6
CONTINUOUS
 10
-1.7356453771
 20
2.2112370719
 11
1.695487616
 21
2.2112370719
  0
LINE
  5
23D
100
AcDbEntity
  8
DRAFT
100
AcDbLine
 62
7
  6
CONTINUOUS
 10
-12.4943722449
 20
2.2644709654
 11
-11.9943722449
 21
2.2644709654
  0
LINE
  5
23E
100
AcDbEntity
  8
DRAFT
100
AcDbLine
 62
7
  6
CONTINUOUS
 10
-5.9943722449
 20
2.2644709654
 11
-5.4943722449
 21
2.2644709654
  0
LINE
  5
23F
100
AcDbEntity
  8
RACCORDO
100
AcDbLine
 62
253
  6
CONTINUOUS
 10
-16.3317170781
 20
2.2898550373
 11
-11.9943722449
 21
2.2898550373
  0
LINE
  5
240
100
AcDbEntity
  8
RACCORDO
100
AcDbLine
 62
253
  6
CONTINUOUS
 10
-5.9943722449
 20
2.2898550373
 11
-1.6570274117
 21
2.2898550373
  0
LINE
  5
241
100
AcDbEntity
  8
0
100
AcDbLine
 62
7
  6
CONTINUOUS
 10
-5.9943722449
 20
2.9025102041
 11
-11.9943722449
 21
2.9025102041
  0
LINE
  5
242
100
AcDbEntity
  8
RACCORDO
100
AcDbLine
 62
253
  6
CONTINUOUS
 10
-16.5784729641
 20
3.2898169604
 11
-11.9943722449
 21
3.2898169604
  0
LINE
  5
243
100
AcDbEntity
  8
RACCORDO
100
AcDbLine
 62
253
  6
CONTINUOUS
 10
-5.9943722449
 20
3.2898169604
 11
-1.4102715257
 21
3.2898169604
  0
LINE
  5
244
100
AcDbEntity
  8
RACCORDO
100
AcDbLine
 62
7
  6
CONTINUOUS
 10
-17.0783968116
 20
3.6108019399
 11
-17.240884954
 21
3.6920398236
  0
LINE
  5
245
100
AcDbEntity
  8
RACCORDO
100
AcDbLine
 62
253
  6
CONTINUOUS
 10
-17.2487440789
 20
0.3568778073
 11
-17.2443722449
 21
0.3525059733
  0
LINE
  5
246
100
AcDbEntity
  8
RACCORDO
100
AcDbLine
 62
7
  6
CONTINUOUS
 10
-17.7943722449
 20
45.4525102041
 11
-19.5586750254
 21
43.6882074236
  0
LINE
  5
247
100
AcDbEntity
  8
0
100
AcDbLine
 62
7
  6
CONTINUOUS
 10
-17.7943722449
 20
45.4525102041
 11
-19.5586750254
 21
43.6882074236
  0
LINE
  5
248
100
AcDbEntity
  8
RACCORDO
100
AcDbLine
 62
7
  6
CONTINUOUS
 10
-17.2443722449
 20
46.0025102041
 11
-16.2530991127
 21
46.9937833363
  0
LINE
  5
249
100
AcDbEntity
  8
RACCORDO
100
AcDbLine
 62
7
  6
CONTINUOUS
 10
-17.621575918
 20
45.4525102041
 11
-19.4364895709
 21
43.6375965512
  0
LINE
  5
24A
100
AcDbEntity
  8
0
100
AcDbLine
 62
7
  6
CONTINUOUS
 10
-17.621575918
 20
45.4525102041
 11
-19.4364895709
 21
43.6375965512
  0
LINE
  5
24B
100
AcDbEntity
  8
RACCORDO
100
AcDbLine
 62
7
  6
CONTINUOUS
 10
-19.7145804802
 20
43.3008144509
 11
-19.0926764917
 21
43.9227184394
  0
LINE
  5
24C
100
AcDbEntity
  8
ASSI
100
AcDbLine
 62
7
  6
CONTINUOUS
 10
-19.7145804802
 20
43.3008144509
 11
-19.0926764917
 21
43.9227184394
  0
LINE
  5
24D
100
AcDbEntity
  8
RACCORDO
100
AcDbLine
 62
7
  6
CONTINUOUS
 10
-18.9846839177
 20
44.0159009693
 11
-18.7954566326
 21
44.2051281476
  0
LINE
  5
24E
100
AcDbEntity
  8
ASSI
100
AcDbLine
 62
7
  6
CONTINUOUS
 10
-18.9846839177
 20
44.0159009693
 11
-18.7954566326
 21
44.2051281476
  0
LWPOLYLINE
  5
24F
100
AcDbEntity
  8
0
100
AcDbPolyline
 62
7
  6
CONTINUOUS
 90
12
 70
0
 10
-10.6187687063
 20
4.7178813876
 10
-10.7366405345
 20
4.7175009135
 10
-10.8495119642
 20
4.7168821022
 10
-10.9588677467
 20
4.7160101376
 10
-11.0632231308
 20
4.7148998358
 10
-11.1581238632
 20
4.713595645
 10
-11.2431919475
 20
4.712085623
 10
-11.31880538
 20
4.710381712
 10
-11.381643896
 20
4.7085641871
 10
-11.4306007407
 20
4.7066598066
 10
-11.4667826688
 20
4.7046418123
 10
-11.4901896804
 20
4.7025102041
  0
LINE
  5
250
100
AcDbEntity
  8
0
100
AcDbLine
 62
7
  6
CONTINUOUS
 10
-5.9943722449
 20
3.6025102041
 11
-11.9943722449
 21
3.6025102041
  0
LINE
  5
251
100
AcDbEntity
  8
RACCORDO
100
AcDbLine
 62
7
  6
CONTINUOUS
 10
-16.5784729641
 20
3.6065146584
 11
-16.2361939468
 21
3.6065146584
  0
LINE
  5
252
100
AcDbEntity
  8
RACCORDO
100
AcDbLine
 62
7
  6
CONTINUOUS
 10
-1.752550543
 20
3.6065146584
 11
-1.4102715257
 21
3.6065146584
  0
LINE
  5
253
100
AcDbEntity
  8
DRAFT
100
AcDbLine
 62
7
  6
CONTINUOUS
 10
-17.240884954
 20
3.6920398236
 11
-16.2932099195
 21
3.6920398236
  0
LINE
  5
254
100
AcDbEntity
  8
DRAFT
100
AcDbLine
 62
7
  6
CONTINUOUS
 10
-1.6955345703
 20
3.6920398236
 11
-0.7478595358
 21
3.6920398236
  0
LINE
  5
255
100
AcDbEntity
  8
DRAFT
100
AcDbLine
 62
7
  6
CONTINUOUS
 10
0.6556277551
 20
3.7025102041
 11
-0.7443722449
 21
3.7025102041
  0
LINE
  5
256
100
AcDbEntity
  8
DRAFT
100
AcDbLine
 62
7
  6
CONTINUOUS
 10
-17.2443722449
 20
3.7025102041
 11
-18.6443722449
 21
3.7025102041
  0
LINE
  5
257
100
AcDbEntity
  8
DRAFT
100
AcDbLine
 62
7
  6
CONTINUOUS
 10
-0.1943722449
 20
3.7525102041
 11
-1.5943722449
 21
3.7525102041
  0
LINE
  5
258
100
AcDbEntity
  8
0
100
AcDbLine
 62
7
  6
CONTINUOUS
 10
-0.1943722449
 20
3.7525102041
 11
-1.5943722449
 21
3.7525102041
  0
LINE
  5
259
100
AcDbEntity
  8
DRAFT
100
AcDbLine
 62
7
  6
CONTINUOUS
 10
-16.3943722449
 20
3.7525102041
 11
-17.7943722449
 21
3.7525102041
  0
LINE
  5
25A
100
AcDbEntity
  8
0
100
AcDbLine
 62
7
  6
CONTINUOUS
 10
-16.3943722449
 20
3.7525102041
 11
-17.7943722449
 21
3.7525102041
  0
LINE
  5
25B
100
AcDbEntity
  8
DRAFT
100
AcDbLine
 62
7
  6
CONTINUOUS
 10
0.6294451577
 20
3.781121873
 11
-0.165760576
 21
3.781121873
  0
LINE
  5
25C
100
AcDbEntity
  8
DRAFT
100
AcDbLine
 62
7
  6
CONTINUOUS
 10
-1.5943722449
 20
3.781121873
 11
-1.6856455002
 21
3.781121873
  0
LINE
  5
25D
100
AcDbEntity
  8
DRAFT
100
AcDbLine
 62
7
  6
CONTINUOUS
 10
-16.3030989896
 20
3.781121873
 11
-16.3943722449
 21
3.781121873
  0
LINE
  5
25E
100
AcDbEntity
  8
DRAFT
100
AcDbLine
 62
7
  6
CONTINUOUS
 10
-17.8229839138
 20
3.781121873
 11
-18.6181896475
 21
3.781121873
  0
LINE
  5
25F
100
AcDbEntity
  8
RACCORDO
100
AcDbLine
 62
253
  6
CONTINUOUS
 10
-2.6361939468
 20
4.0195859209
 11
-15.352550543
 21
4.0195859209
  0
LINE
  5
260
100
AcDbEntity
  8
RACCORDO
100
AcDbLine
 62
253
  6
CONTINUOUS
 10
-2.6390774769
 20
4.5195668824
 11
-15.3496670129
 21
4.5195668824
  0
LINE
  5
261
100
AcDbEntity
  8
DRAFT
100
AcDbLine
 62
7
  6
CONTINUOUS
 10
-11.4943722449
 20
4.5492763106
 11
-11.435683368
 21
4.5492763106
  0
LINE
  5
262
100
AcDbEntity
  8
DRAFT
100
AcDbLine
 62
7
  6
CONTINUOUS
 10
-6.5530611218
 20
4.5492763106
 11
-6.4943722449
 21
4.5492763106
  0
LINE
  5
263
100
AcDbEntity
  8
DRAFT
100
AcDbLine
 62
7
  6
CONTINUOUS
 10
-5.4943722449
 20
4.6025102041
 11
-6.4950200638
 21
4.6025102041
  0
LINE
  5
264
100
AcDbEntity
  8
DRAFT
100
AcDbLine
 62
7
  6
CONTINUOUS
 10
-11.493724426
 20
4.6025102041
 11
-12.4943722449
 21
4.6025102041
  0
LINE
  5
265
100
AcDbEntity
  8
DRAFT
100
AcDbLine
 62
7
  6
CONTINUOUS
 10
-15.2856455002
 20
4.6156005058
 11
-11.4937007603
 21
4.6156005058
  0
LINE
  5
266
100
AcDbEntity
  8
DRAFT
100
AcDbLine
 62
7
  6
CONTINUOUS
 10
-6.4950437295
 20
4.6156005058
 11
-2.7030989896
 21
4.6156005058
  0
LINE
  5
267
100
AcDbEntity
  8
RACCORDO
100
AcDbLine
 62
253
  6
CONTINUOUS
 10
-1.752550543
 20
4.6454920872
 11
-2.6361939468
 21
4.6454920872
  0
LINE
  5
268
100
AcDbEntity
  8
RACCORDO
100
AcDbLine
 62
253
  6
CONTINUOUS
 10
-15.352550543
 20
4.6454920872
 11
-16.2361939468
 21
4.6454920872
  0
LINE
  5
269
100
AcDbEntity
  8
0
100
AcDbLine
 62
7
  6
CONTINUOUS
 10
-12.4943722449
 20
4.7025102041
 11
-11.4888505251
 21
4.7025102041
  0
LINE
  5
26A
100
AcDbEntity
  8
0
100
AcDbLine
 62
7
  6
CONTINUOUS
 10
-6.4998939647
 20
4.7025102041
 11
-5.4943722449
 21
4.7025102041
  0
LINE
  5
26B
100
AcDbEntity
  8
0
100
AcDbLine
 62
7
  6
CONTINUOUS
 10
-10.6187687063
 20
4.7178813876
 11
-7.49284801
 21
4.7180235244
  0
LINE
  5
26C
100
AcDbEntity
  8
DRAFT
100
AcDbLine
 62
7
  6
CONTINUOUS
 10
-12.4577166085
 20
4.7391658404
 11
-5.5310278812
 21
4.7391658404
  0
LINE
  5
26D
100
AcDbEntity
  8
0
100
AcDbLine
 62
7
  6
CONTINUOUS
 10
-12.4577166085
 20
4.7391658404
 11
-5.5310278812
 21
4.7391658404
  0
LINE
  5
26E
100
AcDbEntity
  8
RACCORDO
100
AcDbLine
 62
253
  6
CONTINUOUS
 10
-1.7513937464
 20
4.8454887026
 11
-2.6373507434
 21
4.8454887026
  0
LINE
  5
26F
100
AcDbEntity
  8
RACCORDO
100
AcDbLine
 62
253
  6
CONTINUOUS
 10
-15.3513937464
 20
4.8454887026
 11
-16.2373507434
 21
4.8454887026
  0
LINE
  5
270
100
AcDbEntity
  8
DRAFT
100
AcDbLine
 62
7
  6
CONTINUOUS
 10
-16.3943722449
 20
4.9025102041
 11
-12.4943722449
 21
4.9025102041
  0
LINE
  5
271
100
AcDbEntity
  8
0
100
AcDbLine
 62
7
  6
CONTINUOUS
 10
-16.3943722449
 20
4.9025102041
 11
-12.4943722449
 21
4.9025102041
  0
LINE
  5
272
100
AcDbEntity
  8
DRAFT
100
AcDbLine
 62
7
  6
CONTINUOUS
 10
-5.4943722449
 20
4.9025102041
 11
-1.5943722449
 21
4.9025102041
  0
LINE
  5
273
100
AcDbEntity
  8
0
100
AcDbLine
 62
7
  6
CONTINUOUS
 10
-5.4943722449
 20
4.9025102041
 11
-1.5943722449
 21
4.9025102041
  0
LINE
  5
274
100
AcDbEntity
  8
DRAFT
100
AcDbLine
 62
7
  6
CONTINUOUS
 10
-16.4310278812
 20
4.9391658404
 11
-12.4577166085
 21
4.9391658404
  0
LINE
  5
275
100
AcDbEntity
  8
0
100
AcDbLine
 62
7
  6
CONTINUOUS
 10
-16.4310278812
 20
4.9391658404
 11
-12.4577166085
 21
4.9391658404
  0
LINE
  5
276
100
AcDbEntity
  8
DRAFT
100
AcDbLine
 62
7
  6
CONTINUOUS
 10
-5.5310278812
 20
4.9391658404
 11
-1.5577166085
 21
4.9391658404
  0
LINE
  5
277
100
AcDbEntity
  8
0
100
AcDbLine
 62
7
  6
CONTINUOUS
 10
-5.5310278812
 20
4.9391658404
 11
-1.5577166085
 21
4.9391658404
  0
LINE
  5
278
100
AcDbEntity
  8
RACCORDO
100
AcDbLine
 62
7
  6
CONTINUOUS
 10
-18.385596635
 20
4.9894199024
 11
-5.2812705201
 21
4.9894199024
  0
LINE
  5
279
100
AcDbEntity
  8
ASSI
100
AcDbLine
 62
7
  6
CONTINUOUS
 10
-18.385596635
 20
4.9894199024
 11
-5.2812705201
 21
4.9894199024
  0
LWPOLYLINE
  5
27A
100
AcDbEntity
  8
0
100
AcDbPolyline
 62
7
  6
CONTINUOUS
 90
13
 70
0
 10
-7.49284801
 20
4.7180235244
 10
-7.3699757835
 20
4.7178813876
 10
-7.2521039553
 20
4.7175009135
 10
-7.1392325256
 20
4.7168821022
 10
-7.0298767431
 20
4.7160101376
 10
-6.925521359
 20
4.7148998358
 10
-6.8306206266
 20
4.713595645
 10
-6.7455525423
 20
4.712085623
 10
-6.6699391098
 20
4.710381712
 10
-6.6071005938
 20
4.7085641871
 10
-6.5581437491
 20
4.7066598066
 10
-6.521961821
 20
4.7046418123
 10
-6.4985548094
 20
4.7025102041
  0
LINE
  5
27B
100
AcDbEntity
  8
RACCORDO
100
AcDbLine
 62
7
  6
CONTINUOUS
 10
-19.5586750254
 20
5.5168129846
 11
-17.7943722449
 21
3.7525102041
  0
LINE
  5
27C
100
AcDbEntity
  8
0
100
AcDbLine
 62
7
  6
CONTINUOUS
 10
-19.5586750254
 20
5.5168129846
 11
-17.7943722449
 21
3.7525102041
  0
LINE
  5
27D
100
AcDbEntity
  8
RACCORDO
100
AcDbLine
 62
7
  6
CONTINUOUS
 10
-16.2530991127
 20
2.2112370719
 11
-17.2443722449
 21
3.2025102041
  0
LINE
  5
27E
100
AcDbEntity
  8
RACCORDO
100
AcDbLine
 62
7
  6
CONTINUOUS
 10
-19.4364895709
 20
5.5674238569
 11
-17.621575918
 21
3.7525102041
  0
LINE
  5
27F
100
AcDbEntity
  8
0
100
AcDbLine
 62
7
  6
CONTINUOUS
 10
-19.4364895709
 20
5.5674238569
 11
-17.621575918
 21
3.7525102041
  0
LINE
  5
280
100
AcDbEntity
  8
RACCORDO
100
AcDbLine
 62
7
  6
CONTINUOUS
 10
-19.0926764917
 20
5.2823019687
 11
-19.7145804802
 21
5.9042059573
  0
LINE
  5
281
100
AcDbEntity
  8
ASSI
100
AcDbLine
 62
7
  6
CONTINUOUS
 10
-19.0926764917
 20
5.2823019687
 11
-19.7145804802
 21
5.9042059573
  0
LINE
  5
282
100
AcDbEntity
  8
ASSI
100
AcDbLine
 62
7
  6
CONTINUOUS
 10
-12.5882279626
 20
48.2259574882
 11
-12.6147746684
 21
48.1955877574
  0
LINE
  5
283
100
AcDbEntity
  8
ASSI
100
AcDbLine
 62
7
  6
CONTINUOUS
 10
-12.6147746684
 20
48.1955877574
 11
-12.6451807957
 21
48.1613400245
  0
LINE
  5
284
100
AcDbEntity
  8
ASSI
100
AcDbLine
 62
7
  6
CONTINUOUS
 10
-12.6451807957
 20
48.1613400245
 11
-12.6794505948
 21
48.1232262592
  0
LINE
  5
285
100
AcDbEntity
  8
ASSI
100
AcDbLine
 62
7
  6
CONTINUOUS
 10
-12.6794505948
 20
48.1232262592
 11
-12.7379440674
 21
48.058912035
  0
LINE
  5
286
100
AcDbEntity
  8
ASSI
100
AcDbLine
 62
7
  6
CONTINUOUS
 10
-12.7379440674
 20
48.058912035
 11
-12.9223422326
 21
47.8588680188
  0
LINE
  5
287
100
AcDbEntity
  8
DRAFT
100
AcDbLine
 62
7
  6
CONTINUOUS
 10
-16.3943722449
 20
44.3025102041
 11
-16.4310278812
 21
44.2658545677
  0
LINE
  5
288
100
AcDbEntity
  8
0
100
AcDbLine
 62
7
  6
CONTINUOUS
 10
-16.3943722449
 20
44.3025102041
 11
-16.4310278812
 21
44.2658545677
  0
LINE
  5
289
100
AcDbEntity
  8
RACCORDO
100
AcDbLine
 62
7
  6
CONTINUOUS
 10
-16.2373507434
 20
44.3595317055
 11
-16.2943722449
 21
44.3025102041
  0
LINE
  5
28A
100
AcDbEntity
  8
RACCORDO
100
AcDbLine
 62
7
  6
CONTINUOUS
 10
-11.1408188543
 20
6.3699701874
 11
-11.4949339905
 21
6.3668798715
  0
LINE
  5
28B
100
AcDbEntity
  8
0
100
AcDbLine
 62
7
  6
CONTINUOUS
 10
-11.1408188543
 20
6.3699701874
 11
-11.4949339905
 21
6.3668798715
  0
LINE
  5
28C
100
AcDbEntity
  8
0
100
AcDbLine
 62
7
  6
CONTINUOUS
 10
-6.4943722449
 20
6.3025102041
 11
-11.4943722449
 21
6.3025102041
  0
LINE
  5
28D
100
AcDbEntity
  8
ASSI
100
AcDbLine
 62
7
  6
CONTINUOUS
 10
-6.4943722449
 20
6.3025102041
 11
-11.4943722449
 21
6.3025102041
  0
LINE
  5
28E
100
AcDbEntity
  8
DRAFT
100
AcDbLine
 62
7
  6
CONTINUOUS
 10
-4.8510898901
 20
6.3363407365
 11
-1.5577166085
 21
6.3363407365
  0
LINE
  5
28F
100
AcDbEntity
  8
0
100
AcDbLine
 62
7
  6
CONTINUOUS
 10
-4.8510898901
 20
6.3363407365
 11
-1.5577166085
 21
6.3363407365
  0
LINE
  5
290
100
AcDbEntity
  8
RACCORDO
100
AcDbLine
 62
7
  6
CONTINUOUS
 10
-0.3943722449
 20
6.3363407365
 11
0.2718162612
 21
6.3363407365
  0
LINE
  5
291
100
AcDbEntity
  8
0
100
AcDbLine
 62
7
  6
CONTINUOUS
 10
-0.3943722449
 20
6.3363407365
 11
0.2718162612
 21
6.3363407365
  0
LINE
  5
292
100
AcDbEntity
  8
DRAFT
100
AcDbLine
 62
7
  6
CONTINUOUS
 10
-0.3943722449
 20
6.3450676043
 11
-1.5402615436
 21
6.3450676043
  0
LINE
  5
293
100
AcDbEntity
  8
0
100
AcDbLine
 62
7
  6
CONTINUOUS
 10
-0.3943722449
 20
6.3450676043
 11
-1.5402615436
 21
6.3450676043
  0
LINE
  5
294
100
AcDbEntity
  8
RACCORDO
100
AcDbLine
 62
7
  6
CONTINUOUS
 10
0.3968521452
 20
6.3894199024
 11
-4.6812933663
 21
6.3894199024
  0
LINE
  5
295
100
AcDbEntity
  8
ASSI
100
AcDbLine
 62
7
  6
CONTINUOUS
 10
0.3968521452
 20
6.3894199024
 11
-4.6812933663
 21
6.3894199024
  0
LINE
  5
296
100
AcDbEntity
  8
ASSI
100
AcDbLine
 62
7
  6
CONTINUOUS
 10
-11.4943722449
 20
6.4025102041
 11
-6.4943722449
 21
6.4025102041
  0
LINE
  5
297
100
AcDbEntity
  8
RACCORDO
100
AcDbLine
 62
7
  6
CONTINUOUS
 10
-6.8479256355
 20
6.3699701874
 11
-6.4938104993
 21
6.3668798715
  0
LINE
  5
298
100
AcDbEntity
  8
0
100
AcDbLine
 62
7
  6
CONTINUOUS
 10
-6.8479256355
 20
6.3699701874
 11
-6.4938104993
 21
6.3668798715
  0
LINE
  5
299
100
AcDbEntity
  8
DRAFT
100
AcDbLine
 62
7
  6
CONTINUOUS
 10
-16.3943722449
 20
4.9025102041
 11
-16.4310278812
 21
4.9391658404
  0
LINE
  5
29A
100
AcDbEntity
  8
0
100
AcDbLine
 62
7
  6
CONTINUOUS
 10
-16.3943722449
 20
4.9025102041
 11
-16.4310278812
 21
4.9391658404
  0
LINE
  5
29B
100
AcDbEntity
  8
RACCORDO
100
AcDbLine
 62
7
  6
CONTINUOUS
 10
-16.2373507434
 20
4.8454887026
 11
-16.2943722449
 21
4.9025102041
  0
LINE
  5
29C
100
AcDbEntity
  8
ASSI
100
AcDbLine
 62
7
  6
CONTINUOUS
 10
-12.9223422326
 20
1.3461523894
 11
-12.8270284968
 21
1.2430648424
  0
LINE
  5
29D
100
AcDbEntity
  8
ASSI
100
AcDbLine
 62
7
  6
CONTINUOUS
 10
-12.8270284968
 20
1.2430648424
 11
-12.7380426509
 21
1.1462167718
  0
LINE
  5
29E
100
AcDbEntity
  8
ASSI
100
AcDbLine
 62
7
  6
CONTINUOUS
 10
-12.7380426509
 20
1.1462167718
 11
-12.6795951026
 21
1.0819538351
  0
LINE
  5
29F
100
AcDbEntity
  8
ASSI
100
AcDbLine
 62
7
  6
CONTINUOUS
 10
-12.6795951026
 20
1.0819538351
 11
-12.6453684543
 21
1.0438899254
  0
LINE
  5
2A0
100
AcDbEntity
  8
ASSI
100
AcDbLine
 62
7
  6
CONTINUOUS
 10
-12.6453684543
 20
1.0438899254
 11
-12.6149957453
 21
1.0096834494
  0
LWPOLYLINE
  5
2A1
100
AcDbEntity
  8
ASSI
100
AcDbPolyline
 62
7
  6
CONTINUOUS
 90
18
 70
0
 10
-12.6149957453
 20
1.0096834494
 10
-12.5884617376
 20
0.9793325437
 10
-12.576563935
 20
0.9655125645
 10
-12.5655563561
 20
0.9525733255
 10
-12.5554261934
 20
0.9405130749
 10
-12.546123083
 20
0.9292525761
 10
-12.5376428942
 20
0.9187902792
 10
-12.5299723267
 20
0.9091277341
 10
-12.5230640961
 20
0.9001903535
 10
-12.5169030405
 20
0.8919586065
 10
-12.5115022407
 20
0.8844520239
 10
-12.5068627357
 20
0.8776546112
 10
-12.5029745123
 20
0.8715744735
 10
-12.4998268127
 20
0.8662035055
 10
-12.4974106775
 20
0.8615013966
 10
-12.4957095034
 20
0.8574547099
 10
-12.4947031945
 20
0.8540768823
 10
-12.4943722449
 20
0.8513679137
  0
LINE
  5
2A2
100
AcDbEntity
  8
DRAFT
100
AcDbLine
 62
7
  6
CONTINUOUS
 10
-16.2361939468
 20
45.5985057498
 11
-16.2932099195
 21
45.5129805845
  0
LINE
  5
2A3
100
AcDbEntity
  8
RACCORDO
100
AcDbLine
 62
253
  6
CONTINUOUS
 10
-10.7465147102
 20
7.3167542781
 11
-10.6943722449
 21
7.3208383614
  0
LINE
  5
2A4
100
AcDbEntity
  8
0
100
AcDbLine
 62
253
  6
CONTINUOUS
 10
-10.7465147102
 20
7.3167542781
 11
-10.6943722449
 21
7.3208383614
  0
LINE
  5
2A5
100
AcDbEntity
  8
ASSI
100
AcDbLine
 62
7
  6
CONTINUOUS
 10
-11.4943722449
 20
7.1025102041
 11
-6.4943722449
 21
7.1025102041
  0
LINE
  5
2A6
100
AcDbEntity
  8
RACCORDO
100
AcDbLine
 62
7
  6
CONTINUOUS
 10
-10.5983652757
 20
7.3025102041
 11
-7.3903792141
 21
7.3025102041
  0
LINE
  5
2A7
100
AcDbEntity
  8
ASSI
100
AcDbLine
 62
7
  6
CONTINUOUS
 10
-10.5983652757
 20
7.3025102041
 11
-7.3903792141
 21
7.3025102041
  0
LINE
  5
2A8
100
AcDbEntity
  8
RACCORDO
100
AcDbLine
 62
253
  6
CONTINUOUS
 10
-7.2943722449
 20
7.3208383614
 11
-10.6943722449
 21
7.3208383614
  0
LINE
  5
2A9
100
AcDbEntity
  8
0
100
AcDbLine
 62
253
  6
CONTINUOUS
 10
-7.2943722449
 20
7.3208383614
 11
-10.6943722449
 21
7.3208383614
  0
LINE
  5
2AA
100
AcDbEntity
  8
RACCORDO
100
AcDbLine
 62
7
  6
CONTINUOUS
 10
-7.2943722449
 20
7.3525102041
 11
-10.6943722449
 21
7.3525102041
  0
LINE
  5
2AB
100
AcDbEntity
  8
0
100
AcDbLine
 62
7
  6
CONTINUOUS
 10
-7.2943722449
 20
7.3525102041
 11
-10.6943722449
 21
7.3525102041
  0
LINE
  5
2AC
100
AcDbEntity
  8
CURVE
100
AcDbLine
 62
253
  6
CONTINUOUS
 10
2.0623820413
 20
7.8739386461
 11
2.0481707959
 21
7.8739386461
  0
LINE
  5
2AD
100
AcDbEntity
  8
0
100
AcDbLine
 62
7
  6
CONTINUOUS
 10
-11.4943722449
 20
8.0025102041
 11
-6.4943722449
 21
8.0025102041
  0
LINE
  5
2AE
100
AcDbEntity
  8
ASSI
100
AcDbLine
 62
7
  6
CONTINUOUS
 10
-11.4943722449
 20
8.0025102041
 11
-6.4943722449
 21
8.0025102041
  0
LINE
  5
2AF
100
AcDbEntity
  8
SMUSSO
100
AcDbLine
 62
7
  6
CONTINUOUS
 10
-8.7443722449
 20
8.3525102041
 11
-13.7443722449
 21
8.3525102041
  0
LINE
  5
2B0
100
AcDbEntity
  8
ASSI
100
AcDbLine
 62
7
  6
CONTINUOUS
 10
-8.7443722449
 20
8.3525102041
 11
-13.7443722449
 21
8.3525102041
  0
LINE
  5
2B1
100
AcDbEntity
  8
RACCORDO
100
AcDbLine
 62
7
  6
CONTINUOUS
 10
1.7187066333
 20
8.4525102041
 11
0.8056277551
 21
8.4525102041
  0
LINE
  5
2B2
100
AcDbEntity
  8
ASSI
100
AcDbLine
 62
7
  6
CONTINUOUS
 10
1.7187066333
 20
8.4525102041
 11
0.8056277551
 21
8.4525102041
  0
LINE
  5
2B3
100
AcDbEntity
  8
RACCORDO
100
AcDbLine
 62
253
  6
CONTINUOUS
 10
-7.2422297796
 20
7.3167542781
 11
-7.2943722449
 21
7.3208383614
  0
LINE
  5
2B4
100
AcDbEntity
  8
0
100
AcDbLine
 62
253
  6
CONTINUOUS
 10
-7.2422297796
 20
7.3167542781
 11
-7.2943722449
 21
7.3208383614
  0
LINE
  5
2B5
100
AcDbEntity
  8
CURVE
100
AcDbLine
 62
253
  6
CONTINUOUS
 10
-19.2943722449
 20
12.0310816548
 11
-19.0158007942
 21
11.8453673801
  0
LINE
  5
2B6
100
AcDbEntity
  8
CURVE
100
AcDbLine
 62
253
  6
CONTINUOUS
 10
-18.9229436956
 20
11.1025102041
 11
-19.2943722449
 21
11.4739387921
  0
LINE
  5
2B7
100
AcDbEntity
  8
DRAFT
100
AcDbLine
 62
7
  6
CONTINUOUS
 10
-16.2361939468
 20
3.6065146584
 11
-16.2932099195
 21
3.6920398236
  0
LINE
  5
2B8
100
AcDbEntity
  8
DRAFT
100
AcDbLine
 62
7
  6
CONTINUOUS
 10
-17.240884954
 20
45.5129805845
 11
-17.2443722449
 21
45.5025102041
  0
LINE
  5
2B9
100
AcDbEntity
  8
CURVE
100
AcDbLine
 62
253
  6
CONTINUOUS
 10
2.0481707959
 20
8.8239386461
 11
2.0623820413
 21
8.8239386461
  0
LINE
  5
2BA
100
AcDbEntity
  8
SMUSSO
100
AcDbLine
 62
7
  6
CONTINUOUS
 10
-9.2443722449
 20
8.8525102041
 11
-13.2443722449
 21
8.8525102041
  0
LINE
  5
2BB
100
AcDbEntity
  8
ASSI
100
AcDbLine
 62
7
  6
CONTINUOUS
 10
-9.2443722449
 20
8.8525102041
 11
-13.2443722449
 21
8.8525102041
  0
LINE
  5
2BC
100
AcDbEntity
  8
0
100
AcDbLine
 62
7
  6
CONTINUOUS
 10
-12.5943722449
 20
9.1025102041
 11
-9.5943722449
 21
9.1025102041
  0
LINE
  5
2BD
100
AcDbEntity
  8
CURVE
100
AcDbLine
 62
253
  6
CONTINUOUS
 10
2.0623820413
 20
9.3667955301
 11
2.0671191227
 21
9.3667955301
  0
LINE
  5
2BE
100
AcDbEntity
  8
RACCORDO
100
AcDbLine
 62
7
  6
CONTINUOUS
 10
0.8641942769
 20
9.7246956586
 11
0.8056277551
 21
9.7246956586
  0
LINE
  5
2BF
100
AcDbEntity
  8
0
100
AcDbLine
 62
7
  6
CONTINUOUS
 10
0.8641942769
 20
9.7246956586
 11
0.8056277551
 21
9.7246956586
  0
LINE
  5
2C0
100
AcDbEntity
  8
RACCORDO
100
AcDbLine
 62
253
  6
CONTINUOUS
 10
0.864241075
 20
9.7370055939
 11
0.8056277551
 21
9.7370055939
  0
LINE
  5
2C1
100
AcDbEntity
  8
0
100
AcDbLine
 62
253
  6
CONTINUOUS
 10
0.864241075
 20
9.7370055939
 11
0.8056277551
 21
9.7370055939
  0
LINE
  5
2C2
100
AcDbEntity
  8
RACCORDO
100
AcDbLine
 62
253
  6
CONTINUOUS
 10
0.8651685276
 20
10.0369599024
 11
0.8056277551
 21
10.0369599024
  0
LINE
  5
2C3
100
AcDbEntity
  8
0
100
AcDbLine
 62
253
  6
CONTINUOUS
 10
0.8651685276
 20
10.0369599024
 11
0.8056277551
 21
10.0369599024
  0
LINE
  5
2C4
100
AcDbEntity
  8
CURVE
100
AcDbLine
 62
253
  6
CONTINUOUS
 10
-16.8943722449
 20
10.4025102041
 11
-14.9943722449
 21
10.4025102041
  0
LINE
  5
2C5
100
AcDbEntity
  8
CURVE
100
AcDbLine
 62
253
  6
CONTINUOUS
 10
-18.9229436956
 20
12.866795852
 11
-19.1086579703
 21
12.9596531055
  0
LINE
  5
2C6
100
AcDbEntity
  8
CURVE
100
AcDbLine
 62
253
  6
CONTINUOUS
 10
-17.9943722449
 20
11.8453673801
 11
-18.9229436956
 21
12.4953673027
  0
LINE
  5
2C7
100
AcDbEntity
  8
CURVE
100
AcDbLine
 62
253
  6
CONTINUOUS
 10
-19.1086579703
 20
12.9596531055
 11
-19.2943722449
 21
13.1453673027
  0
LINE
  5
2C8
100
AcDbEntity
  8
CURVE
100
AcDbLine
 62
253
  6
CONTINUOUS
 10
-18.1800865389
 20
13.4239387534
 11
-17.9943722449
 21
13.2382245562
  0
LINE
  5
2C9
100
AcDbEntity
  8
DRAFT
100
AcDbLine
 62
7
  6
CONTINUOUS
 10
-17.240884954
 20
3.6920398236
 11
-17.2443722449
 21
3.7025102041
  0
LINE
  5
2CA
100
AcDbEntity
  8
ASSI
100
AcDbLine
 62
7
  6
CONTINUOUS
 10
-4.745943905
 20
48.2102698225
 11
-4.7744171934
 21
48.177973554
  0
LINE
  5
2CB
100
AcDbEntity
  8
ASSI
100
AcDbLine
 62
7
  6
CONTINUOUS
 10
-4.7744171934
 20
48.177973554
 11
-4.8067254326
 21
48.1418490626
  0
LINE
  5
2CC
100
AcDbEntity
  8
ASSI
100
AcDbLine
 62
7
  6
CONTINUOUS
 10
-4.8067254326
 20
48.1418490626
 11
-4.8428409238
 21
48.1018749486
  0
LINE
  5
2CD
100
AcDbEntity
  8
ASSI
100
AcDbLine
 62
7
  6
CONTINUOUS
 10
-4.8428409238
 20
48.1018749486
 11
-4.903881995
 21
48.0349948964
  0
LWPOLYLINE
  5
2CE
100
AcDbEntity
  8
ASSI
100
AcDbPolyline
 62
7
  6
CONTINUOUS
 90
3
 70
0
 10
-4.903881995
 20
48.0349948964
 10
-4.9946850927
 20
47.9364255708
 10
-5.0664022572
 20
47.8588680188
  0
LINE
  5
2CF
100
AcDbEntity
  8
ASSI
100
AcDbLine
 62
7
  6
CONTINUOUS
 10
-4.5943722449
 20
48.4025102041
 11
-4.6380228918
 21
48.3588595572
  0
LWPOLYLINE
  5
2D0
100
AcDbEntity
  8
RACCORDO
100
AcDbPolyline
 62
253
  6
CONTINUOUS
 90
3
 70
0
 10
-7.1010500542
 20
41.947324375
 10
-7.1440955882
 20
41.920274244
 10
-7.1916203083
 20
41.9004117479
  0
LWPOLYLINE
  5
2D1
100
AcDbEntity
  8
0
100
AcDbPolyline
 62
253
  6
CONTINUOUS
 90
3
 70
0
 10
-7.1010500542
 20
41.947324375
 10
-7.1440955882
 20
41.920274244
 10
-7.1916203083
 20
41.9004117479
  0
LINE
  5
2D2
100
AcDbEntity
  8
RACCORDO
100
AcDbLine
 62
253
  6
CONTINUOUS
 10
1.5699305356
 20
43.6882074236
 11
1.4477450811
 21
43.6375965512
  0
LINE
  5
2D3
100
AcDbEntity
  8
0
100
AcDbLine
 62
253
  6
CONTINUOUS
 10
1.5699305356
 20
43.6882074236
 11
1.4477450811
 21
43.6375965512
  0
LINE
  5
2D4
100
AcDbEntity
  8
CURVE
100
AcDbLine
 62
7
  6
CONTINUOUS
 10
2.1294297571
 20
10.6913122041
 11
2.0788254694
 21
10.6913122041
  0
LINE
  5
2D5
100
AcDbEntity
  8
CURVE
100
AcDbLine
 62
253
  6
CONTINUOUS
 10
2.0718562042
 20
10.8596533201
 11
2.038696632
 21
10.8596533201
  0
LINE
  5
2D6
100
AcDbEntity
  8
CURVE
100
AcDbLine
 62
7
  6
CONTINUOUS
 10
2.0893282461
 20
11.2737562041
 11
2.1294297571
 21
11.2737562041
  0
LINE
  5
2D7
100
AcDbEntity
  8
CURVE
100
AcDbLine
 62
253
  6
CONTINUOUS
 10
-19.2943722449
 20
11.4739387921
 11
-17.9943722449
 21
11.4739387921
  0
LINE
  5
2D8
100
AcDbEntity
  8
0
100
AcDbLine
 62
7
  6
CONTINUOUS
 10
-9.5943722449
 20
12.1025102041
 11
-12.5943722449
 21
12.1025102041
  0
LINE
  5
2D9
100
AcDbEntity
  8
CURVE
100
AcDbLine
 62
253
  6
CONTINUOUS
 10
-17.9943722449
 20
14.2596531055
 11
-19.2943722449
 21
14.6310814998
  0
LINE
  5
2DA
100
AcDbEntity
  8
RACCORDO
100
AcDbLine
 62
253
  6
CONTINUOUS
 10
1.4477450811
 20
5.5674238569
 11
1.5699305356
 21
5.5168129846
  0
LINE
  5
2DB
100
AcDbEntity
  8
0
100
AcDbLine
 62
253
  6
CONTINUOUS
 10
1.4477450811
 20
5.5674238569
 11
1.5699305356
 21
5.5168129846
  0
LINE
  5
2DC
100
AcDbEntity
  8
CURVE
100
AcDbLine
 62
253
  6
CONTINUOUS
 10
-18.3658008329
 20
13.516795852
 11
-18.1800865389
 21
13.4239387534
  0
LWPOLYLINE
  5
2DD
100
AcDbEntity
  8
RACCORDO
100
AcDbPolyline
 62
253
  6
CONTINUOUS
 90
4
 70
0
 10
-7.1010500542
 20
7.2576960332
 10
-7.1440955882
 20
7.2847461642
 10
-7.1916203083
 20
7.3046086603
 10
-7.2422297796
 20
7.3167542781
  0
LWPOLYLINE
  5
2DE
100
AcDbEntity
  8
0
100
AcDbPolyline
 62
253
  6
CONTINUOUS
 90
4
 70
0
 10
-7.1010500542
 20
7.2576960332
 10
-7.1440955882
 20
7.2847461642
 10
-7.1916203083
 20
7.3046086603
 10
-7.2422297796
 20
7.3167542781
  0
LINE
  5
2DF
100
AcDbEntity
  8
ASSI
100
AcDbLine
 62
7
  6
CONTINUOUS
 10
-4.5943722449
 20
0.8025102041
 11
-4.6380228918
 21
0.8461608509
  0
LINE
  5
2E0
100
AcDbEntity
  8
ASSI
100
AcDbLine
 62
7
  6
CONTINUOUS
 10
-5.0664022572
 20
1.3461523894
 11
-4.9714010424
 21
1.2434031396
  0
LINE
  5
2E1
100
AcDbEntity
  8
ASSI
100
AcDbLine
 62
7
  6
CONTINUOUS
 10
-4.9714010424
 20
1.2434031396
 11
-4.882744315
 21
1.1469180977
  0
LINE
  5
2E2
100
AcDbEntity
  8
ASSI
100
AcDbLine
 62
7
  6
CONTINUOUS
 10
-4.882744315
 20
1.1469180977
 11
-4.8244500951
 21
1.082833196
  0
LINE
  5
2E3
100
AcDbEntity
  8
ASSI
100
AcDbLine
 62
7
  6
CONTINUOUS
 10
-4.8244500951
 20
1.082833196
 11
-4.7902714677
 21
1.0448329354
  0
LWPOLYLINE
  5
2E4
100
AcDbEntity
  8
ASSI
100
AcDbPolyline
 62
7
  6
CONTINUOUS
 90
20
 70
0
 10
-4.7902714677
 20
1.0448329354
 10
-4.7599100575
 20
1.010652299
 10
-4.7461651088
 20
0.9950034243
 10
-4.7333601734
 20
0.9803006572
 10
-4.7214457555
 20
0.9664719196
 10
-4.7104155368
 20
0.9535185051
 10
-4.7002577784
 20
0.9414391202
 10
-4.6909250312
 20
0.9301578052
 10
-4.6824137387
 20
0.9196748584
 10
-4.6747087363
 20
0.9099899816
 10
-4.6677613498
 20
0.9010263205
 10
-4.6615560998
 20
0.8927642111
 10
-4.6561054106
 20
0.8852233175
 10
-4.6514090291
 20
0.8783857779
 10
-4.6474569102
 20
0.8722589153
 10
-4.6442386073
 20
0.8668354066
 10
-4.6417451959
 20
0.8620754217
 10
-4.6399605062
 20
0.8579656839
 10
-4.6388649603
 20
0.8545194697
 10
-4.6384395121
 20
0.8517367794
  0
LINE
  5
2E5
100
AcDbEntity
  8
CURVE
100
AcDbLine
 62
253
  6
CONTINUOUS
 10
-18.396753212
 20
15.0025102041
 11
-18.4896103494
 21
15.2191769741
  0
LINE
  5
2E6
100
AcDbEntity
  8
RACCORDO
100
AcDbLine
 62
253
  6
CONTINUOUS
 10
-19.6400004109
 20
0.7581726368
 11
-19.6443722449
 21
1.1920250559
  0
LINE
  5
2E7
100
AcDbEntity
  8
RACCORDO
100
AcDbLine
 62
253
  6
CONTINUOUS
 10
-19.3900046417
 20
0.9746789877
 11
-19.3950952428
 21
1.4798604733
  0
LINE
  5
2E8
100
AcDbEntity
  8
0
100
AcDbLine
 62
7
  6
CONTINUOUS
 10
-20.1443722449
 20
42.2742092528
 11
-20.1443722449
 21
6.9308111554
  0
LINE
  5
2E9
100
AcDbEntity
  8
RACCORDO
100
AcDbLine
 62
7
  6
CONTINUOUS
 10
-20.1443722449
 20
2.6713246482
 11
-20.1443722449
 21
46.53369576
  0
LINE
  5
2EA
100
AcDbEntity
  8
RACCORDO
100
AcDbLine
 62
7
  6
CONTINUOUS
 10
-20.0221867904
 20
42.2235983804
 11
-20.0221867904
 21
6.9814220277
  0
LINE
  5
2EB
100
AcDbEntity
  8
0
100
AcDbLine
 62
7
  6
CONTINUOUS
 10
-20.0221867904
 20
42.2235983804
 11
-20.0221867904
 21
6.9814220277
  0
LINE
  5
2EC
100
AcDbEntity
  8
RACCORDO
100
AcDbLine
 62
7
  6
CONTINUOUS
 10
-20.0074625466
 20
42.5937345942
 11
-20.0074625466
 21
6.611285814
  0
LINE
  5
2ED
100
AcDbEntity
  8
ASSI
100
AcDbLine
 62
7
  6
CONTINUOUS
 10
-20.0074625466
 20
42.5937345942
 11
-20.0074625466
 21
6.611285814
  0
LINE
  5
2EE
100
AcDbEntity
  8
RACCORDO
100
AcDbLine
 62
7
  6
CONTINUOUS
 10
-19.6443722449
 20
0.3525059733
 11
-19.6443722449
 21
2.2025102041
  0
LINE
  5
2EF
100
AcDbEntity
  8
RACCORDO
100
AcDbLine
 62
7
  6
CONTINUOUS
 10
-19.6443722449
 20
47.0025102041
 11
-19.6443722449
 21
48.8525144349
  0
LINE
  5
2F0
100
AcDbEntity
  8
RACCORDO
100
AcDbLine
 62
253
  6
CONTINUOUS
 10
-19.6400004109
 20
48.8481426009
 11
-19.6400004109
 21
48.4468477714
  0
LINE
  5
2F1
100
AcDbEntity
  8
RACCORDO
100
AcDbLine
 62
253
  6
CONTINUOUS
 10
-19.6400004109
 20
0.7581726368
 11
-19.6400004109
 21
0.3568778073
  0
LINE
  5
2F2
100
AcDbEntity
  8
RACCORDO
100
AcDbLine
 62
253
  6
CONTINUOUS
 10
-19.6443722449
 20
48.0129953523
 11
-19.6400004109
 21
48.4468477714
  0
LINE
  5
2F3
100
AcDbEntity
  8
RACCORDO
100
AcDbLine
 62
253
  6
CONTINUOUS
 10
-19.3950952428
 20
47.7251599349
 11
-19.389277413
 21
48.3025102041
  0
LWPOLYLINE
  5
2F4
100
AcDbEntity
  8
RACCORDO
100
AcDbPolyline
 62
7
  6
CONTINUOUS
 90
34
 70
0
 10
-19.6443722449
 20
48.8525144349
 10
-19.6440890947
 20
48.8644097201
 10
-19.6432402791
 20
48.8762780597
 10
-19.641827719
 20
48.8880925702
 10
-19.6398546126
 20
48.8998264916
 10
-19.6373254266
 20
48.9114532429
 10
-19.6342458866
 20
48.9229464831
 10
-19.6306229662
 20
48.9342801779
 10
-19.6264648707
 20
48.9454286534
 10
-19.6217810171
 20
48.9563666504
 10
-19.6165820137
 20
48.9670693917
 10
-19.6108796365
 20
48.9775126324
 10
-19.604686803
 20
48.98767271
 10
-19.5980175404
 20
48.9975266092
 10
-19.5908869556
 20
49.0070520079
 10
-19.5833112038
 20
49.0162273231
 10
-19.5753074454
 20
49.0250317702
 10
-19.566893811
 20
49.0334454046
 10
-19.558089364
 20
49.0414491629
 10
-19.5489140487
 20
49.0490249148
 10
-19.53938865
 20
49.0561554996
 10
-19.5295347508
 20
49.0628247622
 10
-19.5193746732
 20
49.0690175957
 10
-19.5089314325
 20
49.0747199729
 10
-19.4982286912
 20
49.0799189763
 10
-19.4872906942
 20
49.0846028299
 10
-19.4761422187
 20
49.0887609254
 10
-19.4648085239
 20
49.0923838458
 10
-19.4533152837
 20
49.0954633858
 10
-19.4416885324
 20
49.0979925718
 10
-19.429954611
 20
49.0999656782
 10
-19.4181401005
 20
49.1013782383
 10
-19.4062717609
 20
49.1022270538
 10
-19.3943764757
 20
49.1025102041
  0
LWPOLYLINE
  5
2F5
100
AcDbEntity
  8
RACCORDO
100
AcDbPolyline
 62
253
  6
CONTINUOUS
 90
31
 70
0
 10
-19.6400004109
 20
48.8481426009
 10
-19.6396590037
 20
48.8611949408
 10
-19.6386357411
 20
48.8742198352
 10
-19.6369321368
 20
48.8871816098
 10
-19.6345510067
 20
48.9000473286
 10
-19.6314978933
 20
48.9127787937
 10
-19.6277824536
 20
48.9253329783
 10
-19.6234159025
 20
48.9376727822
 10
-19.6184094726
 20
48.9497671384
 10
-19.612776724
 20
48.9615832166
 10
-19.6065329223
 20
48.973088817
 10
-19.5996952405
 20
48.9842521354
 10
-19.5922826105
 20
48.9950422146
 10
-19.5843154682
 20
49.0054293405
 10
-19.5758155713
 20
49.0153851777
 10
-19.5668061495
 20
49.0248825121
 10
-19.5573118563
 20
49.0338953312
 10
-19.5473587529
 20
49.0423988727
 10
-19.5369741636
 20
49.0503697809
 10
-19.5261865733
 20
49.0577861878
 10
-19.5150255474
 20
49.0646277636
 10
-19.5035216916
 20
49.0708757427
 10
-19.4917065459
 20
49.076512991
 10
-19.4796125087
 20
49.0815240465
 10
-19.4672727526
 20
49.0858951616
 10
-19.4547211051
 20
49.0896143511
 10
-19.4419919912
 20
49.0926714122
 10
-19.4291203516
 20
49.0950579549
 10
-19.4161414941
 20
49.0967674381
 10
-19.4030909958
 20
49.0977951811
 10
-19.3900046417
 20
49.0981383701
  0
LINE
  5
2F6
100
AcDbEntity
  8
DRAFT
100
AcDbLine
 62
7
  6
CONTINUOUS
 10
-5.4943722449
 20
44.5025102041
 11
-5.5310278812
 21
44.4658545677
  0
LINE
  5
2F7
100
AcDbEntity
  8
0
100
AcDbLine
 62
7
  6
CONTINUOUS
 10
-5.4943722449
 20
44.5025102041
 11
-5.5310278812
 21
44.4658545677
  0
LINE
  5
2F8
100
AcDbEntity
  8
DRAFT
100
AcDbLine
 62
7
  6
CONTINUOUS
 10
-5.4943722449
 20
44.3025102041
 11
-5.5310278812
 21
44.2658545677
  0
LINE
  5
2F9
100
AcDbEntity
  8
0
100
AcDbLine
 62
7
  6
CONTINUOUS
 10
-5.4943722449
 20
44.3025102041
 11
-5.5310278812
 21
44.2658545677
  0
LINE
  5
2FA
100
AcDbEntity
  8
RACCORDO
100
AcDbLine
 62
253
  6
CONTINUOUS
 10
2.1556277551
 20
42.2742092528
 11
2.0334423006
 21
42.2235983804
  0
LINE
  5
2FB
100
AcDbEntity
  8
0
100
AcDbLine
 62
253
  6
CONTINUOUS
 10
2.1556277551
 20
42.2742092528
 11
2.0334423006
 21
42.2235983804
  0
LINE
  5
2FC
100
AcDbEntity
  8
CURVE
100
AcDbLine
 62
253
  6
CONTINUOUS
 10
-5.9229436956
 20
36.6025102041
 11
-4.9943722449
 21
36.8810818098
  0
LINE
  5
2FD
100
AcDbEntity
  8
SMUSSO
100
AcDbLine
 62
7
  6
CONTINUOUS
 10
-13.2443722449
 20
12.3525102041
 11
-9.2443722449
 21
12.3525102041
  0
LINE
  5
2FE
100
AcDbEntity
  8
ASSI
100
AcDbLine
 62
7
  6
CONTINUOUS
 10
-13.2443722449
 20
12.3525102041
 11
-9.2443722449
 21
12.3525102041
  0
LINE
  5
2FF
100
AcDbEntity
  8
CURVE
100
AcDbLine
 62
253
  6
CONTINUOUS
 10
-18.9229436956
 20
12.4953673027
 11
-19.1086579703
 21
12.4953673027
  0
LINE
  5
300
100
AcDbEntity
  8
CURVE
100
AcDbLine
 62
7
  6
CONTINUOUS
 10
2.1211778234
 20
12.7277402041
 11
2.0788254694
 21
12.7277402041
  0
LINE
  5
301
100
AcDbEntity
  8
RACCORDO
100
AcDbLine
 62
7
  6
CONTINUOUS
 10
1.7187066333
 20
12.7525102041
 11
0.8056277551
 21
12.7525102041
  0
LINE
  5
302
100
AcDbEntity
  8
ASSI
100
AcDbLine
 62
7
  6
CONTINUOUS
 10
1.7187066333
 20
12.7525102041
 11
0.8056277551
 21
12.7525102041
  0
LINE
  5
303
100
AcDbEntity
  8
SMUSSO
100
AcDbLine
 62
7
  6
CONTINUOUS
 10
-13.7443722449
 20
12.8525102041
 11
-8.7443722449
 21
12.8525102041
  0
LINE
  5
304
100
AcDbEntity
  8
ASSI
100
AcDbLine
 62
7
  6
CONTINUOUS
 10
-13.7443722449
 20
12.8525102041
 11
-8.7443722449
 21
12.8525102041
  0
LINE
  5
305
100
AcDbEntity
  8
CURVE
100
AcDbLine
 62
253
  6
CONTINUOUS
 10
-18.3658008329
 20
12.866795852
 11
-18.9229436956
 21
12.866795852
  0
LINE
  5
306
100
AcDbEntity
  8
CURVE
100
AcDbLine
 62
7
  6
CONTINUOUS
 10
2.0788254694
 20
13.3101852041
 11
2.1294297571
 21
13.3101852041
  0
LINE
  5
307
100
AcDbEntity
  8
SMUSSO
100
AcDbLine
 62
7
  6
CONTINUOUS
 10
-8.7443722449
 20
13.3525102041
 11
-13.7443722449
 21
13.3525102041
  0
LINE
  5
308
100
AcDbEntity
  8
ASSI
100
AcDbLine
 62
7
  6
CONTINUOUS
 10
-8.7443722449
 20
13.3525102041
 11
-13.7443722449
 21
13.3525102041
  0
LINE
  5
309
100
AcDbEntity
  8
RACCORDO
100
AcDbLine
 62
7
  6
CONTINUOUS
 10
1.7187066333
 20
13.4525102041
 11
0.8056277551
 21
13.4525102041
  0
LINE
  5
30A
100
AcDbEntity
  8
ASSI
100
AcDbLine
 62
7
  6
CONTINUOUS
 10
1.7187066333
 20
13.4525102041
 11
0.8056277551
 21
13.4525102041
  0
LINE
  5
30B
100
AcDbEntity
  8
CURVE
100
AcDbLine
 62
253
  6
CONTINUOUS
 10
-18.9229436956
 20
13.516795852
 11
-18.3658008329
 21
13.516795852
  0
LINE
  5
30C
100
AcDbEntity
  8
SMUSSO
100
AcDbLine
 62
7
  6
CONTINUOUS
 10
-9.2443722449
 20
13.8525102041
 11
-13.2443722449
 21
13.8525102041
  0
LINE
  5
30D
100
AcDbEntity
  8
ASSI
100
AcDbLine
 62
7
  6
CONTINUOUS
 10
-9.2443722449
 20
13.8525102041
 11
-13.2443722449
 21
13.8525102041
  0
LINE
  5
30E
100
AcDbEntity
  8
CURVE
100
AcDbLine
 62
253
  6
CONTINUOUS
 10
2.064750581
 20
13.9810817621
 11
2.0718562042
 21
13.9810817621
  0
LINE
  5
30F
100
AcDbEntity
  8
RACCORDO
100
AcDbLine
 62
253
  6
CONTINUOUS
 10
2.0334423006
 20
6.9814220277
 11
2.1556277551
 21
6.9308111554
  0
LINE
  5
310
100
AcDbEntity
  8
0
100
AcDbLine
 62
253
  6
CONTINUOUS
 10
2.0334423006
 20
6.9814220277
 11
2.1556277551
 21
6.9308111554
  0
LINE
  5
311
100
AcDbEntity
  8
CURVE
100
AcDbLine
 62
253
  6
CONTINUOUS
 10
-16.6229436896
 20
15.1025102041
 11
-16.8943722449
 21
15.3739387876
  0
LINE
  5
312
100
AcDbEntity
  8
SMUSSO
100
AcDbLine
 62
7
  6
CONTINUOUS
 10
-13.7443722449
 20
12.8525102041
 11
-13.2443722449
 21
12.3525102041
  0
LINE
  5
313
100
AcDbEntity
  8
ASSI
100
AcDbLine
 62
7
  6
CONTINUOUS
 10
-13.7443722449
 20
12.8525102041
 11
-13.2443722449
 21
12.3525102041
  0
LINE
  5
314
100
AcDbEntity
  8
CURVE
100
AcDbLine
 62
253
  6
CONTINUOUS
 10
-19.2943722449
 20
18.5001295469
 11
-19.0158007942
 21
18.2215579412
  0
LINE
  5
315
100
AcDbEntity
  8
DRAFT
100
AcDbLine
 62
7
  6
CONTINUOUS
 10
-5.5310278812
 20
4.7391658404
 11
-5.4943722449
 21
4.7025102041
  0
LINE
  5
316
100
AcDbEntity
  8
0
100
AcDbLine
 62
7
  6
CONTINUOUS
 10
-5.5310278812
 20
4.7391658404
 11
-5.4943722449
 21
4.7025102041
  0
LINE
  5
317
100
AcDbEntity
  8
DRAFT
100
AcDbLine
 62
7
  6
CONTINUOUS
 10
-5.4943722449
 20
4.9025102041
 11
-5.5310278812
 21
4.9391658404
  0
LINE
  5
318
100
AcDbEntity
  8
0
100
AcDbLine
 62
7
  6
CONTINUOUS
 10
-5.4943722449
 20
4.9025102041
 11
-5.5310278812
 21
4.9391658404
  0
LINE
  5
319
100
AcDbEntity
  8
SMUSSO
100
AcDbLine
 62
7
  6
CONTINUOUS
 10
-8.7443722449
 20
8.3525102041
 11
-9.2443722449
 21
8.8525102041
  0
LINE
  5
31A
100
AcDbEntity
  8
ASSI
100
AcDbLine
 62
7
  6
CONTINUOUS
 10
-8.7443722449
 20
8.3525102041
 11
-9.2443722449
 21
8.8525102041
  0
LINE
  5
31B
100
AcDbEntity
  8
CURVE
100
AcDbLine
 62
253
  6
CONTINUOUS
 10
-19.1086579703
 20
19.1501295469
 11
-19.2943722449
 21
19.335843744
  0
LINE
  5
31C
100
AcDbEntity
  8
CURVE
100
AcDbLine
 62
253
  6
CONTINUOUS
 10
-17.9943722449
 20
18.5001295469
 11
-18.1800865389
 21
18.685843744
  0
LINE
  5
31D
100
AcDbEntity
  8
CURVE
100
AcDbLine
 62
253
  6
CONTINUOUS
 10
-18.3038960553
 20
15.4667960069
 11
-18.396753212
 21
15.7144150398
  0
LWPOLYLINE
  5
31E
100
AcDbEntity
  8
RACCORDO
100
AcDbPolyline
 62
253
  6
CONTINUOUS
 90
31
 70
0
 10
-17.2487440789
 20
0.7581726368
 10
-17.2491234334
 20
0.7694831445
 10
-17.2501844812
 20
0.7807627636
 10
-17.2519243245
 20
0.79198069
 10
-17.2543382097
 20
0.8031062788
 10
-17.2574195458
 20
0.8141091557
 10
-17.2611599275
 20
0.8249592984
 10
-17.2655491539
 20
0.8356270946
 10
-17.270575236
 20
0.846083388
 10
-17.2762244324
 20
0.8562995873
 10
-17.2824813042
 20
0.8662477788
 10
-17.2893287698
 20
0.8759008095
 10
-17.2967481338
 20
0.8852323256
 10
-17.3047191375
 20
0.8942168466
 10
-17.313220009
 20
0.902829832
 10
-17.3222275293
 20
0.9110477573
 10
-17.331717093
 20
0.9188481755
 10
-17.3416627887
 20
0.9262097891
 10
-17.3520374682
 20
0.933112503
 10
-17.3628128207
 20
0.9395374766
 10
-17.3739594002
 20
0.9454671481
 10
-17.3854467145
 20
0.9508852994
 10
-17.3972433565
 20
0.9557771266
 10
-17.4093171373
 20
0.9601292912
 10
-17.421635126
 20
0.9639299262
 10
-17.4341641582
 20
0.9671687633
 10
-17.4468695561
 20
0.9698368034
 10
-17.4597152075
 20
0.9719265627
 10
-17.4726655221
 20
0.9734324813
 10
-17.4856855861
 20
0.9743507272
 10
-17.4987398481
 20
0.9746789877
  0
LINE
  5
31F
100
AcDbEntity
  8
RACCORDO
100
AcDbLine
 62
253
  6
CONTINUOUS
 10
-19.3900046417
 20
0.1068820381
 11
-19.3900046417
 21
0.9746789877
  0
LINE
  5
320
100
AcDbEntity
  8
RACCORDO
100
AcDbLine
 62
253
  6
CONTINUOUS
 10
-19.3900046417
 20
48.3025102041
 11
-19.3900046417
 21
49.0981383701
  0
LINE
  5
321
100
AcDbEntity
  8
CURVE
100
AcDbLine
 62
253
  6
CONTINUOUS
 10
-19.3693722449
 20
25.2900102041
 11
-19.3693722449
 21
25.1650102041
  0
LINE
  5
322
100
AcDbEntity
  8
CURVE
100
AcDbLine
 62
253
  6
CONTINUOUS
 10
-19.2943722449
 20
12.309653028
 11
-19.2943722449
 21
12.0310816548
  0
LINE
  5
323
100
AcDbEntity
  8
CURVE
100
AcDbLine
 62
253
  6
CONTINUOUS
 10
-19.2943722449
 20
13.1453673027
 11
-19.2943722449
 21
13.2382245562
  0
LINE
  5
324
100
AcDbEntity
  8
CURVE
100
AcDbLine
 62
253
  6
CONTINUOUS
 10
-19.2943722449
 20
19.335843744
 11
-19.2943722449
 21
19.4287005327
  0
LINE
  5
325
100
AcDbEntity
  8
CURVE
100
AcDbLine
 62
253
  6
CONTINUOUS
 10
-18.9229436956
 20
21.1001295469
 11
-18.9229436956
 21
21.6572715185
  0
LINE
  5
326
100
AcDbEntity
  8
RACCORDO
100
AcDbLine
 62
7
  6
CONTINUOUS
 10
-18.7917541846
 20
44.1288180788
 11
-18.7917541846
 21
44.2051285464
  0
LINE
  5
327
100
AcDbEntity
  8
ASSI
100
AcDbLine
 62
7
  6
CONTINUOUS
 10
-18.7917541846
 20
44.1288180788
 11
-18.7917541846
 21
44.2051285464
  0
LINE
  5
328
100
AcDbEntity
  8
CURVE
100
AcDbLine
 62
253
  6
CONTINUOUS
 10
-18.737229421
 20
18.5001295469
 11
-18.737229421
 21
18.0977482698
  0
LINE
  5
329
100
AcDbEntity
  8
CURVE
100
AcDbLine
 62
253
  6
CONTINUOUS
 10
-18.737229421
 20
20.0787005327
 11
-18.737229421
 21
20.7287005327
  0
LINE
  5
32A
100
AcDbEntity
  8
DRAFT
100
AcDbLine
 62
7
  6
CONTINUOUS
 10
-18.6443722449
 20
3.7025102041
 11
-18.6443722449
 21
4.6025102041
  0
LINE
  5
32B
100
AcDbEntity
  8
DRAFT
100
AcDbLine
 62
7
  6
CONTINUOUS
 10
-18.6443722449
 20
44.6025102041
 11
-18.6443722449
 21
45.5025102041
  0
LINE
  5
32C
100
AcDbEntity
  8
CURVE
100
AcDbLine
 62
253
  6
CONTINUOUS
 10
-18.6193722449
 20
25.2275102041
 11
-18.6193722449
 21
25.2900102041
  0
LINE
  5
32D
100
AcDbEntity
  8
DRAFT
100
AcDbLine
 62
7
  6
CONTINUOUS
 10
-18.6181896475
 20
3.781121873
 11
-18.6181896475
 21
4.5763276067
  0
LINE
  5
32E
100
AcDbEntity
  8
DRAFT
100
AcDbLine
 62
7
  6
CONTINUOUS
 10
-18.6181896475
 20
44.6286928015
 11
-18.6181896475
 21
45.4238985352
  0
LINE
  5
32F
100
AcDbEntity
  8
CURVE
100
AcDbLine
 62
253
  6
CONTINUOUS
 10
-17.9943722449
 20
19.4287005327
 11
-17.9943722449
 21
19.335843744
  0
LINE
  5
330
100
AcDbEntity
  8
CURVE
100
AcDbLine
 62
253
  6
CONTINUOUS
 10
-17.9943722449
 20
13.2382245562
 11
-17.9943722449
 21
13.1453673027
  0
LINE
  5
331
100
AcDbEntity
  8
CURVE
100
AcDbLine
 62
253
  6
CONTINUOUS
 10
-17.9943722449
 20
12.4953673027
 11
-17.9943722449
 21
11.8453673801
  0
LINE
  5
332
100
AcDbEntity
  8
CURVE
100
AcDbLine
 62
253
  6
CONTINUOUS
 10
-17.9943722449
 20
18.2215579412
 11
-17.9943722449
 21
18.5001295469
  0
LINE
  5
333
100
AcDbEntity
  8
CURVE
100
AcDbLine
 62
253
  6
CONTINUOUS
 10
-17.9943722449
 20
21.1001295469
 11
-17.9943722449
 21
21.6572715185
  0
LWPOLYLINE
  5
334
100
AcDbEntity
  8
RACCORDO
100
AcDbPolyline
 62
253
  6
CONTINUOUS
 90
31
 70
0
 10
-19.6400004109
 20
0.7581726368
 10
-19.6396218553
 20
0.7694706091
 10
-19.6385627277
 20
0.7807409131
 10
-19.6368253512
 20
0.7919527829
 10
-19.6344136498
 20
0.803076592
 10
-19.6313337795
 20
0.8140808441
 10
-19.6275947285
 20
0.8249323839
 10
-19.6232071841
 20
0.8356005069
 10
-19.6181827851
 20
0.8460571802
 10
-19.6125351045
 20
0.856274099
 10
-19.606279412
 20
0.8662235042
 10
-19.5994328374
 20
0.8758780287
 10
-19.5920142291
 20
0.8852110521
 10
-19.584043925
 20
0.8941970023
 10
-19.5755436302
 20
0.9028114215
 10
-19.5665365398
 20
0.9110307999
 10
-19.5570472361
 20
0.9188326965
 10
-19.547101649
 20
0.9261957848
 10
-19.5367269661
 20
0.9330999336
 10
-19.5259515337
 20
0.9395262802
 10
-19.5148047757
 20
0.9454572772
 10
-19.5033171387
 20
0.9508767245
 10
-19.4915199819
 20
0.9557698265
 10
-19.4794455455
 20
0.9601232096
 10
-19.4671268659
 20
0.963924967
 10
-19.4545976305
 20
0.9671647134
 10
-19.4418920277
 20
0.9698336199
 10
-19.4290447069
 20
0.9719244123
 10
-19.4160907396
 20
0.9734313822
 10
-19.4030655259
 20
0.9743504106
 10
-19.3900046417
 20
0.9746789877
  0
LWPOLYLINE
  5
335
100
AcDbEntity
  8
RACCORDO
100
AcDbPolyline
 62
7
  6
CONTINUOUS
 90
34
 70
0
 10
-17.2487440789
 20
48.4468477714
 10
-17.2490418052
 20
48.4406061923
 10
-17.2498130567
 20
48.4343330812
 10
-17.2510634194
 20
48.4280466652
 10
-17.2527974667
 20
48.4217726331
 10
-17.2550189094
 20
48.4155230948
 10
-17.2577309294
 20
48.4092966108
 10
-17.2609354263
 20
48.4031136734
 10
-17.2646333508
 20
48.3969940432
 10
-17.2688256018
 20
48.3909358867
 10
-17.273511086
 20
48.3849607099
 10
-17.2786877279
 20
48.3790893023
 10
-17.2843540987
 20
48.3733194804
 10
-17.2905058825
 20
48.3676734994
 10
-17.297137665
 20
48.3621730063
 10
-17.3042454678
 20
48.3568156706
 10
-17.3118214633
 20
48.3516242182
 10
-17.3198565453
 20
48.3466209095
 10
-17.3283437709
 20
48.3418034955
 10
-17.3372714804
 20
48.337194802
 10
-17.3466264591
 20
48.3328173932
 10
-17.3563981337
 20
48.3286693453
 10
-17.3665706449
 20
48.3247730863
 10
-17.377126232
 20
48.3211510435
 10
-17.3880498328
 20
48.3178018073
 10
-17.3993208903
 20
48.3147467742
 10
-17.4109168148
 20
48.3120075679
 10
-17.4228175126
 20
48.3095832865
 10
-17.4349843403
 20
48.3074964858
 10
-17.4474023952
 20
48.3057630268
 10
-17.4600863893
 20
48.3043769058
 10
-17.4730210999
 20
48.3033538238
 10
-17.4861596014
 20
48.302724634
 10
-17.4994670768
 20
48.3025102041
  0
LINE
  5
336
100
AcDbEntity
  8
DRAFT
100
AcDbLine
 62
7
  6
CONTINUOUS
 10
-16.2932099195
 20
45.5129805845
 11
-16.3030989896
 21
45.4238985352
  0
LINE
  5
337
100
AcDbEntity
  8
CURVE
100
AcDbLine
 62
253
  6
CONTINUOUS
 10
-19.3068722449
 20
25.5400102041
 11
-19.3693722449
 21
25.2900102041
  0
LINE
  5
338
100
AcDbEntity
  8
CURVE
100
AcDbLine
 62
253
  6
CONTINUOUS
 10
-19.2443722449
 20
25.7275102041
 11
-19.3068722449
 21
25.5400102041
  0
LINE
  5
339
100
AcDbEntity
  8
CURVE
100
AcDbLine
 62
253
  6
CONTINUOUS
 10
-18.6818722449
 20
25.0400102041
 11
-18.6193722449
 21
25.2275102041
  0
LINE
  5
33A
100
AcDbEntity
  8
CURVE
100
AcDbLine
 62
253
  6
CONTINUOUS
 10
-19.1818722449
 20
25.8525102041
 11
-19.2443722449
 21
25.7275102041
  0
LINE
  5
33B
100
AcDbEntity
  8
CURVE
100
AcDbLine
 62
253
  6
CONTINUOUS
 10
-18.7443722449
 20
24.9150102041
 11
-18.6818722449
 21
25.0400102041
  0
LINE
  5
33C
100
AcDbEntity
  8
DRAFT
100
AcDbLine
 62
7
  6
CONTINUOUS
 10
-4.5943722449
 20
47.0025102041
 11
-4.6384395121
 21
46.936408371
  0
LINE
  5
33D
100
AcDbEntity
  8
RACCORDO
100
AcDbLine
 62
253
  6
CONTINUOUS
 10
1.4012601519
 20
49.0981383701
 11
1.4056319859
 21
49.1025102041
  0
LINE
  5
33E
100
AcDbEntity
  8
RACCORDO
100
AcDbLine
 62
253
  6
CONTINUOUS
 10
1.6512559211
 20
48.8481426009
 11
1.6556277551
 21
48.8525144349
  0
LINE
  5
33F
100
AcDbEntity
  8
RACCORDO
100
AcDbLine
 62
7
  6
CONTINUOUS
 10
-2.6373507434
 20
44.3595317055
 11
-2.6943722449
 21
44.3025102041
  0
LINE
  5
340
100
AcDbEntity
  8
CURVE
100
AcDbLine
 62
253
  6
CONTINUOUS
 10
-1.9229436956
 20
36.6025102041
 11
-0.9943722449
 21
36.8810818098
  0
LINE
  5
341
100
AcDbEntity
  8
0
100
AcDbLine
 62
7
  6
CONTINUOUS
 10
-12.5943722449
 20
14.1025102041
 11
-9.5943722449
 21
14.1025102041
  0
LINE
  5
342
100
AcDbEntity
  8
CURVE
100
AcDbLine
 62
253
  6
CONTINUOUS
 10
2.041065173
 20
14.5239386461
 11
2.0529078774
 21
14.5239386461
  0
LINE
  5
343
100
AcDbEntity
  8
CURVE
100
AcDbLine
 62
253
  6
CONTINUOUS
 10
2.0600134996
 20
14.5691770217
 11
2.0671191227
 21
14.5691770217
  0
LINE
  5
344
100
AcDbEntity
  8
CURVE
100
AcDbLine
 62
253
  6
CONTINUOUS
 10
-16.3515151344
 20
15.1025102041
 11
-16.6229436896
 21
15.1025102041
  0
LINE
  5
345
100
AcDbEntity
  8
CURVE
100
AcDbLine
 62
253
  6
CONTINUOUS
 10
-19.0158007942
 20
18.2215579412
 11
-18.6443722449
 21
18.035843744
  0
LINE
  5
346
100
AcDbEntity
  8
CURVE
100
AcDbLine
 62
253
  6
CONTINUOUS
 10
-18.9229436956
 20
19.0572721384
 11
-19.1086579703
 21
19.1501295469
  0
LINE
  5
347
100
AcDbEntity
  8
CURVE
100
AcDbLine
 62
253
  6
CONTINUOUS
 10
-14.9943722449
 20
15.7810816488
 11
-15.2658008285
 21
16.0525102041
  0
LINE
  5
348
100
AcDbEntity
  8
CURVE
100
AcDbLine
 62
253
  6
CONTINUOUS
 10
-18.1800865389
 20
19.6144147298
 11
-17.9943722449
 21
19.4287005327
  0
LINE
  5
349
100
AcDbEntity
  8
RACCORDO
100
AcDbLine
 62
253
  6
CONTINUOUS
 10
1.4012601519
 20
0.1068820381
 11
1.4056319859
 21
0.1025102041
  0
LINE
  5
34A
100
AcDbEntity
  8
RACCORDO
100
AcDbLine
 62
253
  6
CONTINUOUS
 10
1.6512559211
 20
0.3568778073
 11
1.6556277551
 21
0.3525059733
  0
LINE
  5
34B
100
AcDbEntity
  8
RACCORDO
100
AcDbLine
 62
7
  6
CONTINUOUS
 10
-2.6373507434
 20
4.8454887026
 11
-2.6943722449
 21
4.9025102041
  0
LINE
  5
34C
100
AcDbEntity
  8
DRAFT
100
AcDbLine
 62
7
  6
CONTINUOUS
 10
-4.5943722449
 20
2.2025102041
 11
-4.6384395121
 21
2.2686120372
  0
LINE
  5
34D
100
AcDbEntity
  8
CURVE
100
AcDbLine
 62
253
  6
CONTINUOUS
 10
-19.3693722449
 20
25.1650102041
 11
-19.3068722449
 21
24.9775102041
  0
LINE
  5
34E
100
AcDbEntity
  8
CURVE
100
AcDbLine
 62
253
  6
CONTINUOUS
 10
-18.6193722449
 20
25.2900102041
 11
-18.5568722449
 21
25.0400102041
  0
LINE
  5
34F
100
AcDbEntity
  8
DRAFT
100
AcDbLine
 62
7
  6
CONTINUOUS
 10
-16.3030989896
 20
3.781121873
 11
-16.2932099195
 21
3.6920398236
  0
LINE
  5
350
100
AcDbEntity
  8
RACCORDO
100
AcDbLine
 62
253
  6
CONTINUOUS
 10
-17.4994670768
 20
48.3025102041
 11
-17.493649247
 21
47.7251599349
  0
LINE
  5
351
100
AcDbEntity
  8
RACCORDO
100
AcDbLine
 62
253
  6
CONTINUOUS
 10
-17.2487440789
 20
48.4468477714
 11
-17.2443722449
 21
48.0129953523
  0
LINE
  5
352
100
AcDbEntity
  8
RACCORDO
100
AcDbLine
 62
253
  6
CONTINUOUS
 10
-17.4987398481
 20
0.1068820381
 11
-17.4987398481
 21
0.9746789877
  0
LINE
  5
353
100
AcDbEntity
  8
RACCORDO
100
AcDbLine
 62
253
  6
CONTINUOUS
 10
-17.4987398481
 20
48.3025102041
 11
-17.4987398481
 21
49.0981383701
  0
LINE
  5
354
100
AcDbEntity
  8
CURVE
100
AcDbLine
 62
253
  6
CONTINUOUS
 10
-17.4943722449
 20
25.1025102041
 11
-17.4943722449
 21
25.2900102041
  0
LINE
  5
355
100
AcDbEntity
  8
RACCORDO
100
AcDbLine
 62
253
  6
CONTINUOUS
 10
-17.2487440789
 20
0.3568778073
 11
-17.2487440789
 21
0.7581726368
  0
LINE
  5
356
100
AcDbEntity
  8
RACCORDO
100
AcDbLine
 62
253
  6
CONTINUOUS
 10
-17.2487440789
 20
48.4468477714
 11
-17.2487440789
 21
48.8481426009
  0
LINE
  5
357
100
AcDbEntity
  8
RACCORDO
100
AcDbLine
 62
7
  6
CONTINUOUS
 10
-17.2443722449
 20
0.3525059733
 11
-17.2443722449
 21
2.2025102041
  0
LINE
  5
358
100
AcDbEntity
  8
DRAFT
100
AcDbLine
 62
7
  6
CONTINUOUS
 10
-17.2443722449
 20
3.2025102041
 11
-17.2443722449
 21
3.7025102041
  0
LINE
  5
359
100
AcDbEntity
  8
DRAFT
100
AcDbLine
 62
7
  6
CONTINUOUS
 10
-17.2443722449
 20
45.5025102041
 11
-17.2443722449
 21
46.0025102041
  0
LINE
  5
35A
100
AcDbEntity
  8
RACCORDO
100
AcDbLine
 62
7
  6
CONTINUOUS
 10
-17.2443722449
 20
47.0025102041
 11
-17.2443722449
 21
48.8525144349
  0
LINE
  5
35B
100
AcDbEntity
  8
RACCORDO
100
AcDbLine
 62
253
  6
CONTINUOUS
 10
-17.0783968116
 20
46.1684856373
 11
-17.0783968116
 21
45.5942184683
  0
LINE
  5
35C
100
AcDbEntity
  8
RACCORDO
100
AcDbLine
 62
253
  6
CONTINUOUS
 10
-17.0783968116
 20
3.6108019399
 11
-17.0783968116
 21
3.0365347708
  0
LINE
  5
35D
100
AcDbEntity
  8
CURVE
100
AcDbLine
 62
253
  6
CONTINUOUS
 10
-16.8943722449
 20
15.3739387876
 11
-16.8943722449
 21
15.9167959265
  0
LINE
  5
35E
100
AcDbEntity
  8
RACCORDO
100
AcDbLine
 62
253
  6
CONTINUOUS
 10
-16.5784729641
 20
45.9152034478
 11
-16.5784729641
 21
45.5985057498
  0
LINE
  5
35F
100
AcDbEntity
  8
RACCORDO
100
AcDbLine
 62
253
  6
CONTINUOUS
 10
-16.5784729641
 20
3.6065146584
 11
-16.5784729641
 21
3.2898169604
  0
LINE
  5
360
100
AcDbEntity
  8
DRAFT
100
AcDbLine
 62
7
  6
CONTINUOUS
 10
-16.4310278812
 20
3.7525102041
 11
-16.4310278812
 21
4.9391658404
  0
LINE
  5
361
100
AcDbEntity
  8
0
100
AcDbLine
 62
7
  6
CONTINUOUS
 10
-16.4310278812
 20
3.7525102041
 11
-16.4310278812
 21
4.9391658404
  0
LINE
  5
362
100
AcDbEntity
  8
DRAFT
100
AcDbLine
 62
7
  6
CONTINUOUS
 10
-16.4310278812
 20
44.2658545677
 11
-16.4310278812
 21
45.4525102041
  0
LINE
  5
363
100
AcDbEntity
  8
0
100
AcDbLine
 62
7
  6
CONTINUOUS
 10
-16.4310278812
 20
44.2658545677
 11
-16.4310278812
 21
45.4525102041
  0
LINE
  5
364
100
AcDbEntity
  8
DRAFT
100
AcDbLine
 62
7
  6
CONTINUOUS
 10
-16.3943722449
 20
3.7525102041
 11
-16.3943722449
 21
4.9025102041
  0
LINE
  5
365
100
AcDbEntity
  8
0
100
AcDbLine
 62
7
  6
CONTINUOUS
 10
-16.3943722449
 20
3.7525102041
 11
-16.3943722449
 21
4.9025102041
  0
LINE
  5
366
100
AcDbEntity
  8
DRAFT
100
AcDbLine
 62
7
  6
CONTINUOUS
 10
-16.3943722449
 20
44.3025102041
 11
-16.3943722449
 21
45.4525102041
  0
LINE
  5
367
100
AcDbEntity
  8
0
100
AcDbLine
 62
7
  6
CONTINUOUS
 10
-16.3943722449
 20
44.3025102041
 11
-16.3943722449
 21
45.4525102041
  0
LINE
  5
368
100
AcDbEntity
  8
DRAFT
100
AcDbLine
 62
7
  6
CONTINUOUS
 10
-16.3030989896
 20
4.9025102041
 11
-16.3030989896
 21
3.781121873
  0
LINE
  5
369
100
AcDbEntity
  8
DRAFT
100
AcDbLine
 62
7
  6
CONTINUOUS
 10
-16.3030989896
 20
44.3025102041
 11
-16.3030989896
 21
45.4238985352
  0
LINE
  5
36A
100
AcDbEntity
  8
RACCORDO
100
AcDbLine
 62
7
  6
CONTINUOUS
 10
-16.2361939468
 20
3.6065146584
 11
-16.2361939468
 21
4.6454920872
  0
LINE
  5
36B
100
AcDbEntity
  8
RACCORDO
100
AcDbLine
 62
7
  6
CONTINUOUS
 10
-16.2361939468
 20
44.5595283209
 11
-16.2361939468
 21
45.5985057498
  0
LINE
  5
36C
100
AcDbEntity
  8
RACCORDO
100
AcDbLine
 62
253
  6
CONTINUOUS
 10
-17.493649247
 20
1.4798604733
 11
-17.4987398481
 21
0.9746789877
  0
LINE
  5
36D
100
AcDbEntity
  8
RACCORDO
100
AcDbLine
 62
253
  6
CONTINUOUS
 10
-17.2443722449
 20
1.1920250559
 11
-17.2487440789
 21
0.7581726368
  0
LWPOLYLINE
  5
36E
100
AcDbEntity
  8
RACCORDO
100
AcDbPolyline
 62
7
  6
CONTINUOUS
 90
34
 70
0
 10
-17.2443722449
 20
0.3525059733
 10
-17.2446553951
 20
0.3406106881
 10
-17.2455042107
 20
0.3287423485
 10
-17.2469167707
 20
0.3169278379
 10
-17.2488898772
 20
0.3051939166
 10
-17.2514190632
 20
0.2935671653
 10
-17.2544986032
 20
0.2820739251
 10
-17.2581215236
 20
0.2707402303
 10
-17.2622796191
 20
0.2595917548
 10
-17.2669634727
 20
0.2486537578
 10
-17.2721624761
 20
0.2379510165
 10
-17.2778648533
 20
0.2275077758
 10
-17.2840576868
 20
0.2173476982
 10
-17.2907269494
 20
0.207493799
 10
-17.2978575342
 20
0.1979684002
 10
-17.305433286
 20
0.188793085
 10
-17.3134370444
 20
0.179988638
 10
-17.3218506788
 20
0.1715750036
 10
-17.3306551258
 20
0.1635712452
 10
-17.3398304411
 20
0.1559954934
 10
-17.3493558398
 20
0.1488649086
 10
-17.359209739
 20
0.1421956459
 10
-17.3693698166
 20
0.1360028124
 10
-17.3798130573
 20
0.1303004353
 10
-17.3905157986
 20
0.1251014319
 10
-17.4014537956
 20
0.1204175783
 10
-17.4126022711
 20
0.1162594827
 10
-17.4239359659
 20
0.1126365624
 10
-17.4354292061
 20
0.1095570224
 10
-17.4470559574
 20
0.1070278364
 10
-17.4587898788
 20
0.1050547299
 10
-17.4706043893
 20
0.1036421698
 10
-17.4824727289
 20
0.1027933543
 10
-17.4943680141
 20
0.1025102041
  0
LWPOLYLINE
  5
36F
100
AcDbEntity
  8
RACCORDO
100
AcDbPolyline
 62
253
  6
CONTINUOUS
 90
31
 70
0
 10
-17.2487440789
 20
0.3568778073
 10
-17.2490872679
 20
0.3437914532
 10
-17.2501150109
 20
0.3307409548
 10
-17.251824494
 20
0.3177620974
 10
-17.2542110368
 20
0.3048904578
 10
-17.2572680979
 20
0.2921613438
 10
-17.2609872874
 20
0.2796096964
 10
-17.2653584025
 20
0.2672699403
 10
-17.2703694579
 20
0.2551759031
 10
-17.2760067062
 20
0.2433607574
 10
-17.2822546854
 20
0.2318569016
 10
-17.2890962612
 20
0.2206958756
 10
-17.2965126681
 20
0.2099082853
 10
-17.3044835762
 20
0.1995236961
 10
-17.3129871178
 20
0.1895705927
 10
-17.3219999369
 20
0.1800762995
 10
-17.3314972713
 20
0.1710668777
 10
-17.3414531085
 20
0.1625669807
 10
-17.3518402343
 20
0.1545998385
 10
-17.3626303135
 20
0.1471872085
 10
-17.3737936319
 20
0.1403495266
 10
-17.3852992324
 20
0.134105725
 10
-17.3971153106
 20
0.1284729764
 10
-17.4092096667
 20
0.1234665465
 10
-17.4215494707
 20
0.1190999954
 10
-17.4341036552
 20
0.1153845557
 10
-17.4468351204
 20
0.1123314423
 10
-17.4597008392
 20
0.1099503121
 10
-17.4726626138
 20
0.1082467079
 10
-17.4856875081
 20
0.1072234453
 10
-17.4987398481
 20
0.1068820381
  0
LINE
  5
370
100
AcDbEntity
  8
CURVE
100
AcDbLine
 62
253
  6
CONTINUOUS
 10
-17.5568722449
 20
24.9150102041
 11
-17.4943722449
 21
25.1025102041
  0
LINE
  5
371
100
AcDbEntity
  8
CURVE
100
AcDbLine
 62
253
  6
CONTINUOUS
 10
-17.6193722449
 20
24.7900102041
 11
-17.5568722449
 21
24.9150102041
  0
LINE
  5
372
100
AcDbEntity
  8
CURVE
100
AcDbLine
 62
253
  6
CONTINUOUS
 10
-16.6349167015
 20
25.7910038531
 11
-16.3849167015
 21
26.224016555
  0
LINE
  5
373
100
AcDbEntity
  8
CURVE
100
AcDbLine
 62
253
  6
CONTINUOUS
 10
-18.8068722449
 20
24.8525102041
 11
-18.7443722449
 21
24.9150102041
  0
LINE
  5
374
100
AcDbEntity
  8
CURVE
100
AcDbLine
 62
253
  6
CONTINUOUS
 10
-6.1086579703
 20
35.5810818098
 11
-5.9229436956
 21
35.6739385984
  0
LINE
  5
375
100
AcDbEntity
  8
CURVE
100
AcDbLine
 62
253
  6
CONTINUOUS
 10
-5.1800865389
 20
35.1167960069
 11
-5.3658008329
 21
35.0239389083
  0
LINE
  5
376
100
AcDbEntity
  8
CURVE
100
AcDbLine
 62
253
  6
CONTINUOUS
 10
-6.1086579703
 20
34.5596531055
 11
-5.9229436956
 21
34.6525102041
  0
LINE
  5
377
100
AcDbEntity
  8
CURVE
100
AcDbLine
 62
253
  6
CONTINUOUS
 10
2.0718562042
 20
15.8810815356
 11
2.038696632
 21
15.8810815356
  0
LINE
  5
378
100
AcDbEntity
  8
CURVE
100
AcDbLine
 62
253
  6
CONTINUOUS
 10
-15.2658008285
 20
16.0525102041
 11
-15.537229412
 21
16.0525102041
  0
LINE
  5
379
100
AcDbEntity
  8
CURVE
100
AcDbLine
 62
7
  6
CONTINUOUS
 10
2.087235079
 20
16.7357722041
 11
2.0788254694
 21
16.7357722041
  0
LINE
  5
37A
100
AcDbEntity
  8
0
100
AcDbLine
 62
7
  6
CONTINUOUS
 10
-9.5943722449
 20
17.1025102041
 11
-12.5943722449
 21
17.1025102041
  0
LINE
  5
37B
100
AcDbEntity
  8
CURVE
100
AcDbLine
 62
253
  6
CONTINUOUS
 10
2.038696632
 20
17.2834625742
 11
2.0552764181
 21
17.2834625742
  0
LINE
  5
37C
100
AcDbEntity
  8
SMUSSO
100
AcDbLine
 62
7
  6
CONTINUOUS
 10
-13.2443722449
 20
17.3525102041
 11
-9.2443722449
 21
17.3525102041
  0
LINE
  5
37D
100
AcDbEntity
  8
ASSI
100
AcDbLine
 62
7
  6
CONTINUOUS
 10
-13.2443722449
 20
17.3525102041
 11
-9.2443722449
 21
17.3525102041
  0
LINE
  5
37E
100
AcDbEntity
  8
CURVE
100
AcDbLine
 62
253
  6
CONTINUOUS
 10
-18.3658008329
 20
19.7072721384
 11
-18.1800865389
 21
19.6144147298
  0
LINE
  5
37F
100
AcDbEntity
  8
CURVE
100
AcDbLine
 62
253
  6
CONTINUOUS
 10
-18.9229436956
 20
21.6572715185
 11
-17.9943722449
 21
21.1001295469
  0
LINE
  5
380
100
AcDbEntity
  8
SMUSSO
100
AcDbLine
 62
7
  6
CONTINUOUS
 10
-13.7443722449
 20
17.8525102041
 11
-13.2443722449
 21
17.3525102041
  0
LINE
  5
381
100
AcDbEntity
  8
ASSI
100
AcDbLine
 62
7
  6
CONTINUOUS
 10
-13.7443722449
 20
17.8525102041
 11
-13.2443722449
 21
17.3525102041
  0
LINE
  5
382
100
AcDbEntity
  8
SMUSSO
100
AcDbLine
 62
7
  6
CONTINUOUS
 10
-8.7443722449
 20
13.3525102041
 11
-9.2443722449
 21
13.8525102041
  0
LINE
  5
383
100
AcDbEntity
  8
ASSI
100
AcDbLine
 62
7
  6
CONTINUOUS
 10
-8.7443722449
 20
13.3525102041
 11
-9.2443722449
 21
13.8525102041
  0
LINE
  5
384
100
AcDbEntity
  8
CURVE
100
AcDbLine
 62
253
  6
CONTINUOUS
 10
-19.3068722449
 20
24.9775102041
 11
-19.1818722449
 21
24.8525102041
  0
LINE
  5
385
100
AcDbEntity
  8
CURVE
100
AcDbLine
 62
253
  6
CONTINUOUS
 10
-18.5568722449
 20
25.0400102041
 11
-18.4318722449
 21
24.7900102041
  0
LINE
  5
386
100
AcDbEntity
  8
CURVE
100
AcDbLine
 62
253
  6
CONTINUOUS
 10
-17.4943722449
 20
25.2900102041
 11
-17.5568722449
 21
25.5400102041
  0
LINE
  5
387
100
AcDbEntity
  8
RACCORDO
100
AcDbLine
 62
7
  6
CONTINUOUS
 10
-15.352550543
 20
4.0195859209
 11
-15.352550543
 21
4.6454920872
  0
LINE
  5
388
100
AcDbEntity
  8
RACCORDO
100
AcDbLine
 62
7
  6
CONTINUOUS
 10
-15.352550543
 20
44.5595283209
 11
-15.352550543
 21
45.1854344873
  0
LINE
  5
389
100
AcDbEntity
  8
DRAFT
100
AcDbLine
 62
7
  6
CONTINUOUS
 10
-15.2856455002
 20
44.5894199024
 11
-15.2856455002
 21
44.3025102041
  0
LINE
  5
38A
100
AcDbEntity
  8
DRAFT
100
AcDbLine
 62
7
  6
CONTINUOUS
 10
-15.2856455002
 20
4.9025102041
 11
-15.2856455002
 21
4.6156005058
  0
LINE
  5
38B
100
AcDbEntity
  8
CURVE
100
AcDbLine
 62
253
  6
CONTINUOUS
 10
-14.9943722449
 20
10.4025102041
 11
-14.9943722449
 21
11.0810816488
  0
LINE
  5
38C
100
AcDbEntity
  8
CURVE
100
AcDbLine
 62
253
  6
CONTINUOUS
 10
-14.9943722449
 20
15.2382244959
 11
-14.9943722449
 21
15.7810816488
  0
LWPOLYLINE
  5
38D
100
AcDbEntity
  8
ASSI
100
AcDbPolyline
 62
7
  6
CONTINUOUS
 90
17
 70
0
 10
-12.4943722449
 20
48.3536524944
 10
-12.4947045348
 20
48.3509341153
 10
-12.4957134516
 20
48.3475522841
 10
-12.4974163514
 20
48.3435070009
 10
-12.4998307014
 20
48.3388110266
 10
-12.5029711254
 20
48.3334516002
 10
-12.5068464099
 20
48.3273904388
 10
-12.5114653869
 20
48.3206223048
 10
-12.5168374783
 20
48.3131524359
 10
-12.5229665432
 20
48.3049582615
 10
-12.5298412401
 20
48.2960603692
 10
-12.5374769885
 20
48.2864381714
 10
-12.5459269774
 20
48.2760073359
 10
-12.555210355
 20
48.264765104
 10
-12.5653301393
 20
48.2527142344
 10
-12.5763320668
 20
48.2397786706
 10
-12.5882279626
 20
48.2259574882
  0
LWPOLYLINE
  5
38E
100
AcDbEntity
  8
RACCORDO
100
AcDbPolyline
 62
253
  6
CONTINUOUS
 90
4
 70
0
 10
-7.0121257991
 20
42.06157311
 10
-7.0339870693
 20
42.0192448737
 10
-7.0639123099
 20
41.9807237824
 10
-7.1010500542
 20
41.947324375
  0
LWPOLYLINE
  5
38F
100
AcDbEntity
  8
0
100
AcDbPolyline
 62
253
  6
CONTINUOUS
 90
4
 70
0
 10
-7.0121257991
 20
42.06157311
 10
-7.0339870693
 20
42.0192448737
 10
-7.0639123099
 20
41.9807237824
 10
-7.1010500542
 20
41.947324375
  0
LINE
  5
390
100
AcDbEntity
  8
CURVE
100
AcDbLine
 62
253
  6
CONTINUOUS
 10
-15.8773849468
 20
25.4691127445
 11
-15.7273849468
 21
25.7289203656
  0
LWPOLYLINE
  5
391
100
AcDbEntity
  8
RACCORDO
100
AcDbPolyline
 62
7
  6
CONTINUOUS
 90
5
 70
0
 10
-1.1034887712
 20
46.3616267304
 10
-1.1270076273
 20
46.3255791644
 10
-1.1509921839
 20
46.2891559679
 10
-1.1754424409
 20
46.2524281883
 10
-1.2004176881
 20
46.2154990885
  0
LINE
  5
392
100
AcDbEntity
  8
RACCORDO
100
AcDbLine
 62
7
  6
CONTINUOUS
 10
-2.6390774769
 20
44.6854535258
 11
-2.7030989896
 21
44.5894199024
  0
LWPOLYLINE
  5
393
100
AcDbEntity
  8
RACCORDO
100
AcDbPolyline
 62
7
  6
CONTINUOUS
 90
3
 70
0
 10
-1.2004176881
 20
46.2154990885
 10
-1.2515874148
 20
46.1411004487
 10
-1.2775957465
 20
46.1036484685
  0
LINE
  5
394
100
AcDbEntity
  8
RACCORDO
100
AcDbLine
 62
7
  6
CONTINUOUS
 10
-1.2775957465
 20
46.1036484685
 11
-1.3568376241
 21
45.9906940913
  0
LINE
  5
395
100
AcDbEntity
  8
RACCORDO
100
AcDbLine
 62
7
  6
CONTINUOUS
 10
-1.3568376241
 20
45.9906940913
 11
-1.4102715257
 21
45.9152034478
  0
LINE
  5
396
100
AcDbEntity
  8
CURVE
100
AcDbLine
 62
253
  6
CONTINUOUS
 10
-17.7443722449
 20
24.6650102041
 11
-17.6193722449
 21
24.7900102041
  0
LINE
  5
397
100
AcDbEntity
  8
CURVE
100
AcDbLine
 62
253
  6
CONTINUOUS
 10
-6.2943722449
 20
35.3953676126
 11
-6.1086579703
 21
35.5810818098
  0
LINE
  5
398
100
AcDbEntity
  8
CURVE
100
AcDbLine
 62
253
  6
CONTINUOUS
 10
-5.1800865389
 20
34.0953673027
 11
-5.3658008329
 21
34.0025102041
  0
LINE
  5
399
100
AcDbEntity
  8
CURVE
100
AcDbLine
 62
253
  6
CONTINUOUS
 10
-2.1086579703
 20
35.5810818098
 11
-1.9229436956
 21
35.6739385984
  0
LINE
  5
39A
100
AcDbEntity
  8
CURVE
100
AcDbLine
 62
253
  6
CONTINUOUS
 10
-1.1800865389
 20
35.1167960069
 11
-1.3658008329
 21
35.0239389083
  0
LINE
  5
39B
100
AcDbEntity
  8
CURVE
100
AcDbLine
 62
253
  6
CONTINUOUS
 10
-2.1086579703
 20
34.5596531055
 11
-1.9229436956
 21
34.6525102041
  0
LINE
  5
39C
100
AcDbEntity
  8
RACCORDO
100
AcDbLine
 62
7
  6
CONTINUOUS
 10
1.7187066333
 20
17.7525102041
 11
0.8056277551
 21
17.7525102041
  0
LINE
  5
39D
100
AcDbEntity
  8
ASSI
100
AcDbLine
 62
7
  6
CONTINUOUS
 10
1.7187066333
 20
17.7525102041
 11
0.8056277551
 21
17.7525102041
  0
LINE
  5
39E
100
AcDbEntity
  8
CURVE
100
AcDbLine
 62
7
  6
CONTINUOUS
 10
2.1294297571
 20
17.8087712041
 11
2.087235079
 21
17.8087712041
  0
LINE
  5
39F
100
AcDbEntity
  8
SMUSSO
100
AcDbLine
 62
7
  6
CONTINUOUS
 10
-13.7443722449
 20
17.8525102041
 11
-8.7443722449
 21
17.8525102041
  0
LINE
  5
3A0
100
AcDbEntity
  8
ASSI
100
AcDbLine
 62
7
  6
CONTINUOUS
 10
-13.7443722449
 20
17.8525102041
 11
-8.7443722449
 21
17.8525102041
  0
LINE
  5
3A1
100
AcDbEntity
  8
CURVE
100
AcDbLine
 62
253
  6
CONTINUOUS
 10
-18.6443722449
 20
18.035843744
 11
-18.1800865389
 21
18.035843744
  0
LINE
  5
3A2
100
AcDbEntity
  8
SMUSSO
100
AcDbLine
 62
7
  6
CONTINUOUS
 10
-8.7443722449
 20
18.3525102041
 11
-13.7443722449
 21
18.3525102041
  0
LINE
  5
3A3
100
AcDbEntity
  8
ASSI
100
AcDbLine
 62
7
  6
CONTINUOUS
 10
-8.7443722449
 20
18.3525102041
 11
-13.7443722449
 21
18.3525102041
  0
LINE
  5
3A4
100
AcDbEntity
  8
CURVE
100
AcDbLine
 62
7
  6
CONTINUOUS
 10
2.0788254694
 20
18.4313772041
 11
2.1294297571
 21
18.4313772041
  0
LINE
  5
3A5
100
AcDbEntity
  8
RACCORDO
100
AcDbLine
 62
7
  6
CONTINUOUS
 10
1.7187066333
 20
18.4525102041
 11
0.8056277551
 21
18.4525102041
  0
LINE
  5
3A6
100
AcDbEntity
  8
ASSI
100
AcDbLine
 62
7
  6
CONTINUOUS
 10
1.7187066333
 20
18.4525102041
 11
0.8056277551
 21
18.4525102041
  0
LINE
  5
3A7
100
AcDbEntity
  8
CURVE
100
AcDbLine
 62
253
  6
CONTINUOUS
 10
2.0718562042
 20
18.459653037
 11
2.038696632
 21
18.459653037
  0
LINE
  5
3A8
100
AcDbEntity
  8
CURVE
100
AcDbLine
 62
253
  6
CONTINUOUS
 10
-18.1800865389
 20
18.685843744
 11
-18.5515151076
 21
18.685843744
  0
LINE
  5
3A9
100
AcDbEntity
  8
SMUSSO
100
AcDbLine
 62
7
  6
CONTINUOUS
 10
-9.2443722449
 20
18.8525102041
 11
-13.2443722449
 21
18.8525102041
  0
LINE
  5
3AA
100
AcDbEntity
  8
ASSI
100
AcDbLine
 62
7
  6
CONTINUOUS
 10
-9.2443722449
 20
18.8525102041
 11
-13.2443722449
 21
18.8525102041
  0
LINE
  5
3AB
100
AcDbEntity
  8
CURVE
100
AcDbLine
 62
253
  6
CONTINUOUS
 10
-18.3658008329
 20
19.0572721384
 11
-18.9229436956
 21
19.0572721384
  0
LINE
  5
3AC
100
AcDbEntity
  8
0
100
AcDbLine
 62
7
  6
CONTINUOUS
 10
-12.5943722449
 20
19.1025102041
 11
-9.5943722449
 21
19.1025102041
  0
LINE
  5
3AD
100
AcDbEntity
  8
CURVE
100
AcDbLine
 62
253
  6
CONTINUOUS
 10
-18.4318722449
 20
24.7900102041
 11
-18.3068722449
 21
24.6650102041
  0
LINE
  5
3AE
100
AcDbEntity
  8
CURVE
100
AcDbLine
 62
253
  6
CONTINUOUS
 10
-17.6818722449
 20
25.7275102041
 11
-17.8068722449
 21
25.8525102041
  0
LINE
  5
3AF
100
AcDbEntity
  8
RACCORDO
100
AcDbLine
 62
7
  6
CONTINUOUS
 10
-1.4102715257
 20
3.2898169604
 11
-1.3568376241
 21
3.2143263169
  0
LINE
  5
3B0
100
AcDbEntity
  8
RACCORDO
100
AcDbLine
 62
7
  6
CONTINUOUS
 10
-1.3568376241
 20
3.2143263169
 11
-1.2775957465
 21
3.1013719396
  0
LWPOLYLINE
  5
3B1
100
AcDbEntity
  8
RACCORDO
100
AcDbPolyline
 62
7
  6
CONTINUOUS
 90
7
 70
0
 10
-1.2775957465
 20
3.1013719396
 10
-1.2258586356
 20
3.0266175874
 10
-1.2004176881
 20
2.9895213196
 10
-1.1754424409
 20
2.9525922199
 10
-1.1509921839
 20
2.9158644402
 10
-1.1270076273
 20
2.8794412438
 10
-1.1034887712
 20
2.8433936777
  0
LINE
  5
3B2
100
AcDbEntity
  8
CURVE
100
AcDbLine
 62
253
  6
CONTINUOUS
 10
-17.5568722449
 20
25.5400102041
 11
-17.6818722449
 21
25.7275102041
  0
LINE
  5
3B3
100
AcDbEntity
  8
RACCORDO
100
AcDbLine
 62
7
  6
CONTINUOUS
 10
-2.6390774769
 20
4.5195668824
 11
-2.7030989896
 21
4.6156005058
  0
LINE
  5
3B4
100
AcDbEntity
  8
CURVE
100
AcDbLine
 62
253
  6
CONTINUOUS
 10
-16.8849167015
 20
26.224016555
 11
-16.6349167015
 21
25.7910038531
  0
LINE
  5
3B5
100
AcDbEntity
  8
SMUSSO
100
AcDbLine
 62
7
  6
CONTINUOUS
 10
-13.7443722449
 20
8.3525102041
 11
-13.7443722449
 21
12.8525102041
  0
LINE
  5
3B6
100
AcDbEntity
  8
ASSI
100
AcDbLine
 62
7
  6
CONTINUOUS
 10
-13.7443722449
 20
8.3525102041
 11
-13.7443722449
 21
12.8525102041
  0
LINE
  5
3B7
100
AcDbEntity
  8
SMUSSO
100
AcDbLine
 62
7
  6
CONTINUOUS
 10
-13.7443722449
 20
13.3525102041
 11
-13.7443722449
 21
17.8525102041
  0
LINE
  5
3B8
100
AcDbEntity
  8
ASSI
100
AcDbLine
 62
7
  6
CONTINUOUS
 10
-13.7443722449
 20
13.3525102041
 11
-13.7443722449
 21
17.8525102041
  0
LINE
  5
3B9
100
AcDbEntity
  8
SMUSSO
100
AcDbLine
 62
7
  6
CONTINUOUS
 10
-13.7443722449
 20
18.3525102041
 11
-13.7443722449
 21
22.8525102041
  0
LINE
  5
3BA
100
AcDbEntity
  8
ASSI
100
AcDbLine
 62
7
  6
CONTINUOUS
 10
-13.7443722449
 20
18.3525102041
 11
-13.7443722449
 21
22.8525102041
  0
LINE
  5
3BB
100
AcDbEntity
  8
SMUSSO
100
AcDbLine
 62
7
  6
CONTINUOUS
 10
-13.7443722449
 20
23.1025102041
 11
-13.7443722449
 21
28.1025102041
  0
LINE
  5
3BC
100
AcDbEntity
  8
ASSI
100
AcDbLine
 62
7
  6
CONTINUOUS
 10
-13.7443722449
 20
23.1025102041
 11
-13.7443722449
 21
28.1025102041
  0
LINE
  5
3BD
100
AcDbEntity
  8
DRAFT
100
AcDbLine
 62
7
  6
CONTINUOUS
 10
-13.3943722449
 20
48.4025102041
 11
-13.3943722449
 21
47.0025102041
  0
LINE
  5
3BE
100
AcDbEntity
  8
DRAFT
100
AcDbLine
 62
7
  6
CONTINUOUS
 10
-13.3943722449
 20
2.2025102041
 11
-13.3943722449
 21
0.8025102041
  0
LINE
  5
3BF
100
AcDbEntity
  8
ASSI
100
AcDbLine
 62
253
  6
CONTINUOUS
 10
-13.3503049776
 20
0.8517367794
 11
-13.3503049776
 21
2.2686120372
  0
LINE
  5
3C0
100
AcDbEntity
  8
ASSI
100
AcDbLine
 62
253
  6
CONTINUOUS
 10
-13.3503049776
 20
46.936408371
 11
-13.3503049776
 21
48.3532836288
  0
LINE
  5
3C1
100
AcDbEntity
  8
SMUSSO
100
AcDbLine
 62
7
  6
CONTINUOUS
 10
-13.2443722449
 20
8.8525102041
 11
-13.2443722449
 21
12.3525102041
  0
LINE
  5
3C2
100
AcDbEntity
  8
ASSI
100
AcDbLine
 62
7
  6
CONTINUOUS
 10
-13.2443722449
 20
8.8525102041
 11
-13.2443722449
 21
12.3525102041
  0
LINE
  5
3C3
100
AcDbEntity
  8
SMUSSO
100
AcDbLine
 62
7
  6
CONTINUOUS
 10
-13.2443722449
 20
13.8525102041
 11
-13.2443722449
 21
17.3525102041
  0
LINE
  5
3C4
100
AcDbEntity
  8
ASSI
100
AcDbLine
 62
7
  6
CONTINUOUS
 10
-13.2443722449
 20
13.8525102041
 11
-13.2443722449
 21
17.3525102041
  0
LINE
  5
3C5
100
AcDbEntity
  8
SMUSSO
100
AcDbLine
 62
7
  6
CONTINUOUS
 10
-13.2443722449
 20
18.8525102041
 11
-13.2443722449
 21
22.3525102041
  0
LINE
  5
3C6
100
AcDbEntity
  8
ASSI
100
AcDbLine
 62
7
  6
CONTINUOUS
 10
-13.2443722449
 20
18.8525102041
 11
-13.2443722449
 21
22.3525102041
  0
LINE
  5
3C7
100
AcDbEntity
  8
SMUSSO
100
AcDbLine
 62
7
  6
CONTINUOUS
 10
-13.2443722449
 20
23.6025102041
 11
-13.2443722449
 21
27.6025102041
  0
LINE
  5
3C8
100
AcDbEntity
  8
ASSI
100
AcDbLine
 62
7
  6
CONTINUOUS
 10
-13.2443722449
 20
23.6025102041
 11
-13.2443722449
 21
27.6025102041
  0
LINE
  5
3C9
100
AcDbEntity
  8
0
100
AcDbLine
 62
7
  6
CONTINUOUS
 10
-12.5943722449
 20
27.1025102041
 11
-12.5943722449
 21
24.1025102041
  0
LINE
  5
3CA
100
AcDbEntity
  8
0
100
AcDbLine
 62
7
  6
CONTINUOUS
 10
-12.5943722449
 20
22.1025102041
 11
-12.5943722449
 21
19.1025102041
  0
LINE
  5
3CB
100
AcDbEntity
  8
0
100
AcDbLine
 62
7
  6
CONTINUOUS
 10
-12.5943722449
 20
17.1025102041
 11
-12.5943722449
 21
14.1025102041
  0
LINE
  5
3CC
100
AcDbEntity
  8
0
100
AcDbLine
 62
7
  6
CONTINUOUS
 10
-12.5943722449
 20
12.1025102041
 11
-12.5943722449
 21
9.1025102041
  0
LINE
  5
3CD
100
AcDbEntity
  8
DRAFT
100
AcDbLine
 62
7
  6
CONTINUOUS
 10
-12.4943722449
 20
44.5025102041
 11
-12.4943722449
 21
44.3025102041
  0
LINE
  5
3CE
100
AcDbEntity
  8
0
100
AcDbLine
 62
7
  6
CONTINUOUS
 10
-12.4943722449
 20
44.5025102041
 11
-12.4943722449
 21
44.3025102041
  0
LINE
  5
3CF
100
AcDbEntity
  8
DRAFT
100
AcDbLine
 62
7
  6
CONTINUOUS
 10
-12.4943722449
 20
4.9025102041
 11
-12.4943722449
 21
4.7025102041
  0
LINE
  5
3D0
100
AcDbEntity
  8
0
100
AcDbLine
 62
7
  6
CONTINUOUS
 10
-12.4943722449
 20
4.9025102041
 11
-12.4943722449
 21
4.7025102041
  0
LINE
  5
3D1
100
AcDbEntity
  8
DRAFT
100
AcDbLine
 62
7
  6
CONTINUOUS
 10
-12.4943722449
 20
4.6025102041
 11
-12.4943722449
 21
4.5580031783
  0
LINE
  5
3D2
100
AcDbEntity
  8
ASSI
100
AcDbLine
 62
7
  6
CONTINUOUS
 10
-12.4943722449
 20
0.8083280339
 11
-12.4943722449
 21
2.2685903089
  0
LINE
  5
3D3
100
AcDbEntity
  8
DRAFT
100
AcDbLine
 62
7
  6
CONTINUOUS
 10
-12.4943722449
 20
44.6025102041
 11
-12.4943722449
 21
44.6470172298
  0
LINE
  5
3D4
100
AcDbEntity
  8
ASSI
100
AcDbLine
 62
7
  6
CONTINUOUS
 10
-12.4943722449
 20
46.9364300993
 11
-12.4943722449
 21
48.3966923743
  0
LINE
  5
3D5
100
AcDbEntity
  8
DRAFT
100
AcDbLine
 62
7
  6
CONTINUOUS
 10
-12.4577166085
 20
44.4658545677
 11
-12.4577166085
 21
44.2658545677
  0
LINE
  5
3D6
100
AcDbEntity
  8
0
100
AcDbLine
 62
7
  6
CONTINUOUS
 10
-12.4577166085
 20
44.4658545677
 11
-12.4577166085
 21
44.2658545677
  0
LINE
  5
3D7
100
AcDbEntity
  8
DRAFT
100
AcDbLine
 62
7
  6
CONTINUOUS
 10
-12.4577166085
 20
4.9391658404
 11
-12.4577166085
 21
4.7391658404
  0
LINE
  5
3D8
100
AcDbEntity
  8
0
100
AcDbLine
 62
7
  6
CONTINUOUS
 10
-12.4577166085
 20
4.9391658404
 11
-12.4577166085
 21
4.7391658404
  0
LINE
  5
3D9
100
AcDbEntity
  8
CURVE
100
AcDbLine
 62
253
  6
CONTINUOUS
 10
-6.2943722449
 20
34.3739389083
 11
-6.1086579703
 21
34.5596531055
  0
LINE
  5
3DA
100
AcDbEntity
  8
CURVE
100
AcDbLine
 62
253
  6
CONTINUOUS
 10
-4.9943722449
 20
35.3025102041
 11
-5.1800865389
 21
35.1167960069
  0
LINE
  5
3DB
100
AcDbEntity
  8
CURVE
100
AcDbLine
 62
253
  6
CONTINUOUS
 10
-4.9943722449
 20
34.2810814998
 11
-5.1800865389
 21
34.0953673027
  0
LINE
  5
3DC
100
AcDbEntity
  8
CURVE
100
AcDbLine
 62
253
  6
CONTINUOUS
 10
-5.5515151076
 20
33.6310814998
 11
-5.737229421
 21
33.4453673027
  0
LINE
  5
3DD
100
AcDbEntity
  8
CURVE
100
AcDbLine
 62
253
  6
CONTINUOUS
 10
-19.2943722449
 20
19.4287005327
 11
-19.1086579703
 21
19.6144147298
  0
LINE
  5
3DE
100
AcDbEntity
  8
CURVE
100
AcDbLine
 62
253
  6
CONTINUOUS
 10
-6.1086579703
 20
31.6810816548
 11
-5.9229436956
 21
31.7739387534
  0
LINE
  5
3DF
100
AcDbEntity
  8
CURVE
100
AcDbLine
 62
253
  6
CONTINUOUS
 10
-1.1800865389
 20
34.0953673027
 11
-1.3658008329
 21
34.0025102041
  0
LINE
  5
3E0
100
AcDbEntity
  8
CURVE
100
AcDbLine
 62
253
  6
CONTINUOUS
 10
-18.9318722449
 20
24.7900102041
 11
-18.8068722449
 21
24.8525102041
  0
LINE
  5
3E1
100
AcDbEntity
  8
CURVE
100
AcDbLine
 62
253
  6
CONTINUOUS
 10
-5.1800865389
 20
31.2167959294
 11
-5.3658008329
 21
31.1239387534
  0
LINE
  5
3E2
100
AcDbEntity
  8
CURVE
100
AcDbLine
 62
253
  6
CONTINUOUS
 10
-18.9229436956
 20
19.7072721384
 11
-18.3658008329
 21
19.7072721384
  0
LINE
  5
3E3
100
AcDbEntity
  8
CURVE
100
AcDbLine
 62
253
  6
CONTINUOUS
 10
-14.9943722449
 20
20.0025102041
 11
-16.8943722449
 21
20.0025102041
  0
LINE
  5
3E4
100
AcDbEntity
  8
CURVE
100
AcDbLine
 62
253
  6
CONTINUOUS
 10
-17.9943722449
 20
20.0787005327
 11
-19.2943722449
 21
20.0787005327
  0
LINE
  5
3E5
100
AcDbEntity
  8
CURVE
100
AcDbLine
 62
7
  6
CONTINUOUS
 10
2.0788254694
 20
20.2791142041
 11
2.0983126853
 21
20.2791142041
  0
LINE
  5
3E6
100
AcDbEntity
  8
CURVE
100
AcDbLine
 62
7
  6
CONTINUOUS
 10
2.1067222949
 20
20.2791142041
 11
2.1210201475
 21
20.2791142041
  0
LINE
  5
3E7
100
AcDbEntity
  8
CURVE
100
AcDbLine
 62
253
  6
CONTINUOUS
 10
-19.2943722449
 20
20.7287005327
 11
-17.9943722449
 21
20.7287005327
  0
LINE
  5
3E8
100
AcDbEntity
  8
CURVE
100
AcDbLine
 62
7
  6
CONTINUOUS
 10
2.1294297571
 20
20.9017202041
 11
2.0788254694
 21
20.9017202041
  0
LINE
  5
3E9
100
AcDbEntity
  8
CURVE
100
AcDbLine
 62
253
  6
CONTINUOUS
 10
-14.9943722449
 20
20.9525102041
 11
-16.8943722449
 21
20.9525102041
  0
LINE
  5
3EA
100
AcDbEntity
  8
SMUSSO
100
AcDbLine
 62
7
  6
CONTINUOUS
 10
-13.7443722449
 20
22.8525102041
 11
-13.2443722449
 21
22.3525102041
  0
LINE
  5
3EB
100
AcDbEntity
  8
ASSI
100
AcDbLine
 62
7
  6
CONTINUOUS
 10
-13.7443722449
 20
22.8525102041
 11
-13.2443722449
 21
22.3525102041
  0
LINE
  5
3EC
100
AcDbEntity
  8
SMUSSO
100
AcDbLine
 62
7
  6
CONTINUOUS
 10
-8.7443722449
 20
18.3525102041
 11
-9.2443722449
 21
18.8525102041
  0
LINE
  5
3ED
100
AcDbEntity
  8
ASSI
100
AcDbLine
 62
7
  6
CONTINUOUS
 10
-8.7443722449
 20
18.3525102041
 11
-9.2443722449
 21
18.8525102041
  0
LINE
  5
3EE
100
AcDbEntity
  8
RACCORDO
100
AcDbLine
 62
7
  6
CONTINUOUS
 10
-7.01336086
 20
6.4025102041
 11
-7.0037998973
 21
6.3708927056
  0
LINE
  5
3EF
100
AcDbEntity
  8
0
100
AcDbLine
 62
7
  6
CONTINUOUS
 10
-7.01336086
 20
6.4025102041
 11
-7.0037998973
 21
6.3708927056
  0
LINE
  5
3F0
100
AcDbEntity
  8
0
100
AcDbLine
 62
253
  6
CONTINUOUS
 10
-10.4953804427
 20
4.5503592119
 11
-10.4958964798
 21
4.7180235244
  0
LINE
  5
3F1
100
AcDbEntity
  8
RACCORDO
100
AcDbLine
 62
7
  6
CONTINUOUS
 10
-11.9943722449
 20
2.2644709654
 11
-11.9943722449
 21
3.6025102041
  0
LINE
  5
3F2
100
AcDbEntity
  8
RACCORDO
100
AcDbLine
 62
7
  6
CONTINUOUS
 10
-11.9943722449
 20
45.6025102041
 11
-11.9943722449
 21
46.9405494428
  0
LINE
  5
3F3
100
AcDbEntity
  8
0
100
AcDbLine
 62
7
  6
CONTINUOUS
 10
-11.4943722449
 20
6.3025102041
 11
-11.4943722449
 21
8.0025102041
  0
LINE
  5
3F4
100
AcDbEntity
  8
ASSI
100
AcDbLine
 62
7
  6
CONTINUOUS
 10
-11.4943722449
 20
6.3025102041
 11
-11.4943722449
 21
8.0025102041
  0
LINE
  5
3F5
100
AcDbEntity
  8
0
100
AcDbLine
 62
7
  6
CONTINUOUS
 10
-11.4943722449
 20
41.2025102041
 11
-11.4943722449
 21
42.9025102041
  0
LINE
  5
3F6
100
AcDbEntity
  8
ASSI
100
AcDbLine
 62
7
  6
CONTINUOUS
 10
-11.4943722449
 20
41.2025102041
 11
-11.4943722449
 21
42.9025102041
  0
LINE
  5
3F7
100
AcDbEntity
  8
RACCORDO
100
AcDbLine
 62
253
  6
CONTINUOUS
 10
-11.1408188543
 20
6.3025102041
 11
-11.1408188543
 21
6.3699701874
  0
LINE
  5
3F8
100
AcDbEntity
  8
0
100
AcDbLine
 62
253
  6
CONTINUOUS
 10
-11.1408188543
 20
6.3025102041
 11
-11.1408188543
 21
6.3699701874
  0
LINE
  5
3F9
100
AcDbEntity
  8
0
100
AcDbLine
 62
7
  6
CONTINUOUS
 10
-11.0943722449
 20
6.4025102041
 11
-11.0943722449
 21
6.370329002
  0
LINE
  5
3FA
100
AcDbEntity
  8
RACCORDO
100
AcDbLine
 62
7
  6
CONTINUOUS
 10
-10.9943722449
 20
6.3694616152
 11
-10.9943722449
 21
6.4025102041
  0
LINE
  5
3FB
100
AcDbEntity
  8
0
100
AcDbLine
 62
7
  6
CONTINUOUS
 10
-10.9943722449
 20
6.3694616152
 11
-10.9943722449
 21
6.4025102041
  0
LINE
  5
3FC
100
AcDbEntity
  8
RACCORDO
100
AcDbLine
 62
7
  6
CONTINUOUS
 10
-10.9769615556
 20
42.9025102041
 11
-10.9769615556
 21
42.8025102041
  0
LINE
  5
3FD
100
AcDbEntity
  8
ASSI
100
AcDbLine
 62
7
  6
CONTINUOUS
 10
-10.9769615556
 20
42.9025102041
 11
-10.9769615556
 21
42.8025102041
  0
LINE
  5
3FE
100
AcDbEntity
  8
RACCORDO
100
AcDbLine
 62
7
  6
CONTINUOUS
 10
-10.8983766992
 20
6.4025102041
 11
-10.8983766992
 21
6.3025102041
  0
LINE
  5
3FF
100
AcDbEntity
  8
ASSI
100
AcDbLine
 62
7
  6
CONTINUOUS
 10
-10.8983766992
 20
6.4025102041
 11
-10.8983766992
 21
6.3025102041
  0
LINE
  5
400
100
AcDbEntity
  8
RACCORDO
100
AcDbLine
 62
253
  6
CONTINUOUS
 10
-10.6943722449
 20
7.2865422857
 11
-10.6943722449
 21
7.3525102041
  0
LINE
  5
401
100
AcDbEntity
  8
0
100
AcDbLine
 62
253
  6
CONTINUOUS
 10
-10.6943722449
 20
7.2865422857
 11
-10.6943722449
 21
7.3525102041
  0
LINE
  5
402
100
AcDbEntity
  8
RACCORDO
100
AcDbLine
 62
253
  6
CONTINUOUS
 10
-10.6943722449
 20
41.8525102041
 11
-10.6943722449
 21
41.9025102041
  0
LINE
  5
403
100
AcDbEntity
  8
0
100
AcDbLine
 62
253
  6
CONTINUOUS
 10
-10.6943722449
 20
41.8525102041
 11
-10.6943722449
 21
41.9025102041
  0
LINE
  5
404
100
AcDbEntity
  8
0
100
AcDbLine
 62
253
  6
CONTINUOUS
 10
-10.4958964798
 20
44.4869968837
 11
-10.4953804427
 21
44.6546611962
  0
LINE
  5
405
100
AcDbEntity
  8
RACCORDO
100
AcDbLine
 62
253
  6
CONTINUOUS
 10
-6.998824883
 20
42.1064514861
 11
-7.0121257991
 21
42.06157311
  0
LINE
  5
406
100
AcDbEntity
  8
0
100
AcDbLine
 62
253
  6
CONTINUOUS
 10
-6.998824883
 20
42.1064514861
 11
-7.0121257991
 21
42.06157311
  0
LINE
  5
407
100
AcDbEntity
  8
DRAFT
100
AcDbLine
 62
7
  6
CONTINUOUS
 10
-18.6181896475
 20
3.781121873
 11
-18.6443722449
 21
3.7025102041
  0
LINE
  5
408
100
AcDbEntity
  8
CURVE
100
AcDbLine
 62
253
  6
CONTINUOUS
 10
-18.4896103494
 20
15.2191769741
 11
-18.3038960553
 21
15.4667960069
  0
LINE
  5
409
100
AcDbEntity
  8
CURVE
100
AcDbLine
 62
253
  6
CONTINUOUS
 10
-6.2943722449
 20
31.4953673027
 11
-6.1086579703
 21
31.6810816548
  0
LINE
  5
40A
100
AcDbEntity
  8
CURVE
100
AcDbLine
 62
253
  6
CONTINUOUS
 10
-2.2943722449
 20
35.3953676126
 11
-2.1086579703
 21
35.5810818098
  0
LINE
  5
40B
100
AcDbEntity
  8
CURVE
100
AcDbLine
 62
253
  6
CONTINUOUS
 10
-17.9943722449
 20
19.335843744
 11
-18.1800865389
 21
19.1501295469
  0
LINE
  5
40C
100
AcDbEntity
  8
CURVE
100
AcDbLine
 62
253
  6
CONTINUOUS
 10
-18.5515151076
 20
18.685843744
 11
-18.737229421
 21
18.5001295469
  0
LINE
  5
40D
100
AcDbEntity
  8
SMUSSO
100
AcDbLine
 62
7
  6
CONTINUOUS
 10
-8.7443722449
 20
28.1025102041
 11
-9.2443722449
 21
27.6025102041
  0
LINE
  5
40E
100
AcDbEntity
  8
ASSI
100
AcDbLine
 62
7
  6
CONTINUOUS
 10
-8.7443722449
 20
28.1025102041
 11
-9.2443722449
 21
27.6025102041
  0
LINE
  5
40F
100
AcDbEntity
  8
SMUSSO
100
AcDbLine
 62
7
  6
CONTINUOUS
 10
-13.7443722449
 20
23.1025102041
 11
-13.2443722449
 21
23.6025102041
  0
LINE
  5
410
100
AcDbEntity
  8
ASSI
100
AcDbLine
 62
7
  6
CONTINUOUS
 10
-13.7443722449
 20
23.1025102041
 11
-13.2443722449
 21
23.6025102041
  0
LINE
  5
411
100
AcDbEntity
  8
CURVE
100
AcDbLine
 62
253
  6
CONTINUOUS
 10
-2.2943722449
 20
34.3739389083
 11
-2.1086579703
 21
34.5596531055
  0
LINE
  5
412
100
AcDbEntity
  8
CURVE
100
AcDbLine
 62
253
  6
CONTINUOUS
 10
-4.9943722449
 20
31.4025102041
 11
-5.1800865389
 21
31.2167959294
  0
LINE
  5
413
100
AcDbEntity
  8
CURVE
100
AcDbLine
 62
253
  6
CONTINUOUS
 10
-0.9943722449
 20
35.3025102041
 11
-1.1800865389
 21
35.1167960069
  0
LINE
  5
414
100
AcDbEntity
  8
CURVE
100
AcDbLine
 62
253
  6
CONTINUOUS
 10
-18.1800865389
 20
18.035843744
 11
-17.9943722449
 21
18.2215579412
  0
LINE
  5
415
100
AcDbEntity
  8
CURVE
100
AcDbLine
 62
253
  6
CONTINUOUS
 10
-2.1086579703
 20
33.6001292369
 11
-2.2943722449
 21
33.4453673027
  0
LINE
  5
416
100
AcDbEntity
  8
CURVE
100
AcDbLine
 62
253
  6
CONTINUOUS
 10
-2.1086579703
 20
31.6810816548
 11
-1.9229436956
 21
31.7739387534
  0
LINE
  5
417
100
AcDbEntity
  8
CURVE
100
AcDbLine
 62
253
  6
CONTINUOUS
 10
-1.1800865389
 20
31.2167959294
 11
-1.3658008329
 21
31.1239387534
  0
LINE
  5
418
100
AcDbEntity
  8
CURVE
100
AcDbLine
 62
253
  6
CONTINUOUS
 10
-17.9318722449
 20
24.6025102041
 11
-17.7443722449
 21
24.6650102041
  0
LINE
  5
419
100
AcDbEntity
  8
0
100
AcDbLine
 62
7
  6
CONTINUOUS
 10
-9.5943722449
 20
22.1025102041
 11
-12.5943722449
 21
22.1025102041
  0
LINE
  5
41A
100
AcDbEntity
  8
SMUSSO
100
AcDbLine
 62
7
  6
CONTINUOUS
 10
-13.2443722449
 20
22.3525102041
 11
-9.2443722449
 21
22.3525102041
  0
LINE
  5
41B
100
AcDbEntity
  8
ASSI
100
AcDbLine
 62
7
  6
CONTINUOUS
 10
-13.2443722449
 20
22.3525102041
 11
-9.2443722449
 21
22.3525102041
  0
LINE
  5
41C
100
AcDbEntity
  8
RACCORDO
100
AcDbLine
 62
7
  6
CONTINUOUS
 10
1.7187066333
 20
22.7525102041
 11
0.8056277551
 21
22.7525102041
  0
LINE
  5
41D
100
AcDbEntity
  8
ASSI
100
AcDbLine
 62
7
  6
CONTINUOUS
 10
1.7187066333
 20
22.7525102041
 11
0.8056277551
 21
22.7525102041
  0
LINE
  5
41E
100
AcDbEntity
  8
CURVE
100
AcDbLine
 62
253
  6
CONTINUOUS
 10
2.0516612773
 20
22.7787005476
 11
2.038696632
 21
22.7787005476
  0
LINE
  5
41F
100
AcDbEntity
  8
SMUSSO
100
AcDbLine
 62
7
  6
CONTINUOUS
 10
-13.7443722449
 20
22.8525102041
 11
-8.7443722449
 21
22.8525102041
  0
LINE
  5
420
100
AcDbEntity
  8
ASSI
100
AcDbLine
 62
7
  6
CONTINUOUS
 10
-13.7443722449
 20
22.8525102041
 11
-8.7443722449
 21
22.8525102041
  0
LINE
  5
421
100
AcDbEntity
  8
CURVE
100
AcDbLine
 62
253
  6
CONTINUOUS
 10
-19.1818722449
 20
24.8525102041
 11
-18.9943722449
 21
24.7900102041
  0
LINE
  5
422
100
AcDbEntity
  8
CURVE
100
AcDbLine
 62
253
  6
CONTINUOUS
 10
-18.3068722449
 20
24.6650102041
 11
-18.1193722449
 21
24.6025102041
  0
LINE
  5
423
100
AcDbEntity
  8
CURVE
100
AcDbLine
 62
253
  6
CONTINUOUS
 10
-14.9943722449
 20
25.1325102041
 11
-16.8849167015
 21
26.224016555
  0
LINE
  5
424
100
AcDbEntity
  8
DRAFT
100
AcDbLine
 62
7
  6
CONTINUOUS
 10
-18.6443722449
 20
45.5025102041
 11
-18.6181896475
 21
45.4238985352
  0
LWPOLYLINE
  5
425
100
AcDbEntity
  8
RACCORDO
100
AcDbPolyline
 62
253
  6
CONTINUOUS
 90
5
 70
0
 10
-6.998824883
 20
7.0985689221
 10
-7.0121257991
 20
7.1434472982
 10
-7.0339870693
 20
7.1857755345
 10
-7.0639123099
 20
7.2242966258
 10
-7.1010500542
 20
7.2576960332
  0
LWPOLYLINE
  5
426
100
AcDbEntity
  8
0
100
AcDbPolyline
 62
253
  6
CONTINUOUS
 90
5
 70
0
 10
-6.998824883
 20
7.0985689221
 10
-7.0121257991
 20
7.1434472982
 10
-7.0339870693
 20
7.1857755345
 10
-7.0639123099
 20
7.2242966258
 10
-7.1010500542
 20
7.2576960332
  0
LINE
  5
427
100
AcDbEntity
  8
0
100
AcDbLine
 62
7
  6
CONTINUOUS
 10
-9.5943722449
 20
9.1025102041
 11
-9.5943722449
 21
12.1025102041
  0
LINE
  5
428
100
AcDbEntity
  8
0
100
AcDbLine
 62
7
  6
CONTINUOUS
 10
-9.5943722449
 20
14.1025102041
 11
-9.5943722449
 21
17.1025102041
  0
LINE
  5
429
100
AcDbEntity
  8
0
100
AcDbLine
 62
7
  6
CONTINUOUS
 10
-9.5943722449
 20
19.1025102041
 11
-9.5943722449
 21
22.1025102041
  0
LINE
  5
42A
100
AcDbEntity
  8
0
100
AcDbLine
 62
7
  6
CONTINUOUS
 10
-9.5943722449
 20
24.1025102041
 11
-9.5943722449
 21
27.1025102041
  0
LINE
  5
42B
100
AcDbEntity
  8
SMUSSO
100
AcDbLine
 62
7
  6
CONTINUOUS
 10
-9.2443722449
 20
27.6025102041
 11
-9.2443722449
 21
23.6025102041
  0
LINE
  5
42C
100
AcDbEntity
  8
ASSI
100
AcDbLine
 62
7
  6
CONTINUOUS
 10
-9.2443722449
 20
27.6025102041
 11
-9.2443722449
 21
23.6025102041
  0
LINE
  5
42D
100
AcDbEntity
  8
SMUSSO
100
AcDbLine
 62
7
  6
CONTINUOUS
 10
-9.2443722449
 20
22.3525102041
 11
-9.2443722449
 21
18.8525102041
  0
LINE
  5
42E
100
AcDbEntity
  8
ASSI
100
AcDbLine
 62
7
  6
CONTINUOUS
 10
-9.2443722449
 20
22.3525102041
 11
-9.2443722449
 21
18.8525102041
  0
LINE
  5
42F
100
AcDbEntity
  8
SMUSSO
100
AcDbLine
 62
7
  6
CONTINUOUS
 10
-9.2443722449
 20
17.3525102041
 11
-9.2443722449
 21
13.8525102041
  0
LINE
  5
430
100
AcDbEntity
  8
ASSI
100
AcDbLine
 62
7
  6
CONTINUOUS
 10
-9.2443722449
 20
17.3525102041
 11
-9.2443722449
 21
13.8525102041
  0
LINE
  5
431
100
AcDbEntity
  8
SMUSSO
100
AcDbLine
 62
7
  6
CONTINUOUS
 10
-9.2443722449
 20
12.3525102041
 11
-9.2443722449
 21
8.8525102041
  0
LINE
  5
432
100
AcDbEntity
  8
ASSI
100
AcDbLine
 62
7
  6
CONTINUOUS
 10
-9.2443722449
 20
12.3525102041
 11
-9.2443722449
 21
8.8525102041
  0
LWPOLYLINE
  5
433
100
AcDbEntity
  8
ASSI
100
AcDbPolyline
 62
7
  6
CONTINUOUS
 90
17
 70
0
 10
-13.3503049776
 20
0.8517367794
 10
-13.3498788763
 20
0.8545221744
 10
-13.3487815478
 20
0.8579720618
 10
-13.3469939592
 20
0.8620864416
 10
-13.3444964399
 20
0.8668523721
 10
-13.3412728983
 20
0.872282795
 10
-13.3373149278
 20
0.8784165352
 10
-13.3326126212
 20
0.8852606719
 10
-13.3271560161
 20
0.8928081259
 10
-13.3209448398
 20
0.9010764841
 10
-13.3139914182
 20
0.9100464452
 10
-13.3062806691
 20
0.9197373104
 10
-13.2977646932
 20
0.9302245704
 10
-13.2884293373
 20
0.9415076339
 10
-13.2782707667
 20
0.9535870923
 10
-13.2672402099
 20
0.9665402096
 10
-13.2553253361
 20
0.9803687384
  0
LINE
  5
434
100
AcDbEntity
  8
CURVE
100
AcDbLine
 62
253
  6
CONTINUOUS
 10
-0.9943722449
 20
34.2810814998
 11
-1.1800865389
 21
34.0953673027
  0
LINE
  5
435
100
AcDbEntity
  8
CURVE
100
AcDbLine
 62
253
  6
CONTINUOUS
 10
-1.5515151076
 20
33.6310814998
 11
-1.737229421
 21
33.4453673027
  0
LINE
  5
436
100
AcDbEntity
  8
CURVE
100
AcDbLine
 62
253
  6
CONTINUOUS
 10
-2.2943722449
 20
31.4953673027
 11
-2.1086579703
 21
31.6810816548
  0
LINE
  5
437
100
AcDbEntity
  8
CURVE
100
AcDbLine
 62
253
  6
CONTINUOUS
 10
-19.1086579703
 20
19.6144147298
 11
-18.9229436956
 21
19.7072721384
  0
LINE
  5
438
100
AcDbEntity
  8
SMUSSO
100
AcDbLine
 62
7
  6
CONTINUOUS
 10
-8.7443722449
 20
23.1025102041
 11
-13.7443722449
 21
23.1025102041
  0
LINE
  5
439
100
AcDbEntity
  8
ASSI
100
AcDbLine
 62
7
  6
CONTINUOUS
 10
-8.7443722449
 20
23.1025102041
 11
-13.7443722449
 21
23.1025102041
  0
LINE
  5
43A
100
AcDbEntity
  8
CURVE
100
AcDbLine
 62
253
  6
CONTINUOUS
 10
2.0980348139
 20
23.3679863665
 11
2.1207229422
 21
23.3679863665
  0
LINE
  5
43B
100
AcDbEntity
  8
RACCORDO
100
AcDbLine
 62
7
  6
CONTINUOUS
 10
1.7187066333
 20
23.4525102041
 11
0.8056277551
 21
23.4525102041
  0
LINE
  5
43C
100
AcDbEntity
  8
ASSI
100
AcDbLine
 62
7
  6
CONTINUOUS
 10
1.7187066333
 20
23.4525102041
 11
0.8056277551
 21
23.4525102041
  0
LINE
  5
43D
100
AcDbEntity
  8
SMUSSO
100
AcDbLine
 62
7
  6
CONTINUOUS
 10
-9.2443722449
 20
23.6025102041
 11
-13.2443722449
 21
23.6025102041
  0
LINE
  5
43E
100
AcDbEntity
  8
ASSI
100
AcDbLine
 62
7
  6
CONTINUOUS
 10
-9.2443722449
 20
23.6025102041
 11
-13.2443722449
 21
23.6025102041
  0
LINE
  5
43F
100
AcDbEntity
  8
CURVE
100
AcDbLine
 62
253
  6
CONTINUOUS
 10
2.1174817812
 20
23.8678674731
 11
2.1012759752
 21
23.8678674731
  0
LINE
  5
440
100
AcDbEntity
  8
CURVE
100
AcDbLine
 62
253
  6
CONTINUOUS
 10
2.0613847603
 20
23.985843449
 11
2.038696632
 21
23.985843449
  0
LINE
  5
441
100
AcDbEntity
  8
0
100
AcDbLine
 62
7
  6
CONTINUOUS
 10
-12.5943722449
 20
24.1025102041
 11
-9.5943722449
 21
24.1025102041
  0
LINE
  5
442
100
AcDbEntity
  8
CURVE
100
AcDbLine
 62
253
  6
CONTINUOUS
 10
2.0683657229
 20
24.1644148997
 11
2.0910538513
 21
24.1644148997
  0
LINE
  5
443
100
AcDbEntity
  8
CURVE
100
AcDbLine
 62
253
  6
CONTINUOUS
 10
2.0980348139
 20
24.4853673259
 11
2.1207229422
 21
24.4853673259
  0
LINE
  5
444
100
AcDbEntity
  8
CURVE
100
AcDbLine
 62
253
  6
CONTINUOUS
 10
-18.1193722449
 20
24.6025102041
 11
-17.9318722449
 21
24.6025102041
  0
LINE
  5
445
100
AcDbEntity
  8
CURVE
100
AcDbLine
 62
253
  6
CONTINUOUS
 10
-18.9943722449
 20
24.7900102041
 11
-18.9318722449
 21
24.7900102041
  0
LINE
  5
446
100
AcDbEntity
  8
CURVE
100
AcDbLine
 62
253
  6
CONTINUOUS
 10
2.0683657229
 20
24.8144149772
 11
2.0910538513
 21
24.8144149772
  0
LWPOLYLINE
  5
447
100
AcDbEntity
  8
CURVE
100
AcDbPolyline
 62
7
  6
CONTINUOUS
 90
15
 70
0
 10
2.1138712174
 20
19.4837503182
 10
2.1136424499
 20
19.4838456838
 10
2.1134131837
 20
19.4841444081
 10
2.1131836613
 20
19.4846654324
 10
2.1129541249
 20
19.485427698
 10
2.1127248169
 20
19.4864501461
 10
2.1124959795
 20
19.4877517181
 10
2.1122678551
 20
19.4893513553
 10
2.112040686
 20
19.4912679989
 10
2.1118147145
 20
19.4935205902
 10
2.1115901829
 20
19.4961280705
 10
2.1113673336
 20
19.4991093811
 10
2.1111464088
 20
19.5024834633
 10
2.1109276509
 20
19.5062692583
 10
2.1107252028
 20
19.5101960662
  0
LINE
  5
448
100
AcDbEntity
  8
SMUSSO
100
AcDbLine
 62
7
  6
CONTINUOUS
 10
-13.7443722449
 20
28.1025102041
 11
-13.2443722449
 21
27.6025102041
  0
LINE
  5
449
100
AcDbEntity
  8
ASSI
100
AcDbLine
 62
7
  6
CONTINUOUS
 10
-13.7443722449
 20
28.1025102041
 11
-13.2443722449
 21
27.6025102041
  0
LINE
  5
44A
100
AcDbEntity
  8
SMUSSO
100
AcDbLine
 62
7
  6
CONTINUOUS
 10
-8.7443722449
 20
23.1025102041
 11
-9.2443722449
 21
23.6025102041
  0
LINE
  5
44B
100
AcDbEntity
  8
ASSI
100
AcDbLine
 62
7
  6
CONTINUOUS
 10
-8.7443722449
 20
23.1025102041
 11
-9.2443722449
 21
23.6025102041
  0
LINE
  5
44C
100
AcDbEntity
  8
0
100
AcDbLine
 62
253
  6
CONTINUOUS
 10
-7.4933640471
 20
44.6546611962
 11
-7.49284801
 21
44.4869968837
  0
LINE
  5
44D
100
AcDbEntity
  8
SMUSSO
100
AcDbLine
 62
7
  6
CONTINUOUS
 10
-8.7443722449
 20
28.1025102041
 11
-8.7443722449
 21
23.1025102041
  0
LINE
  5
44E
100
AcDbEntity
  8
ASSI
100
AcDbLine
 62
7
  6
CONTINUOUS
 10
-8.7443722449
 20
28.1025102041
 11
-8.7443722449
 21
23.1025102041
  0
LINE
  5
44F
100
AcDbEntity
  8
SMUSSO
100
AcDbLine
 62
7
  6
CONTINUOUS
 10
-8.7443722449
 20
22.8525102041
 11
-8.7443722449
 21
18.3525102041
  0
LINE
  5
450
100
AcDbEntity
  8
ASSI
100
AcDbLine
 62
7
  6
CONTINUOUS
 10
-8.7443722449
 20
22.8525102041
 11
-8.7443722449
 21
18.3525102041
  0
LINE
  5
451
100
AcDbEntity
  8
SMUSSO
100
AcDbLine
 62
7
  6
CONTINUOUS
 10
-8.7443722449
 20
17.8525102041
 11
-8.7443722449
 21
13.3525102041
  0
LINE
  5
452
100
AcDbEntity
  8
ASSI
100
AcDbLine
 62
7
  6
CONTINUOUS
 10
-8.7443722449
 20
17.8525102041
 11
-8.7443722449
 21
13.3525102041
  0
LINE
  5
453
100
AcDbEntity
  8
SMUSSO
100
AcDbLine
 62
7
  6
CONTINUOUS
 10
-8.7443722449
 20
12.8525102041
 11
-8.7443722449
 21
8.3525102041
  0
LINE
  5
454
100
AcDbEntity
  8
ASSI
100
AcDbLine
 62
7
  6
CONTINUOUS
 10
-8.7443722449
 20
12.8525102041
 11
-8.7443722449
 21
8.3525102041
  0
LINE
  5
455
100
AcDbEntity
  8
RACCORDO
100
AcDbLine
 62
253
  6
CONTINUOUS
 10
-7.2943722449
 20
41.9025102041
 11
-7.2943722449
 21
41.8525102041
  0
LINE
  5
456
100
AcDbEntity
  8
0
100
AcDbLine
 62
253
  6
CONTINUOUS
 10
-7.2943722449
 20
41.9025102041
 11
-7.2943722449
 21
41.8525102041
  0
LINE
  5
457
100
AcDbEntity
  8
RACCORDO
100
AcDbLine
 62
253
  6
CONTINUOUS
 10
-7.2943722449
 20
7.2865422857
 11
-7.2943722449
 21
7.3525102041
  0
LINE
  5
458
100
AcDbEntity
  8
0
100
AcDbLine
 62
253
  6
CONTINUOUS
 10
-7.2943722449
 20
7.2865422857
 11
-7.2943722449
 21
7.3525102041
  0
LINE
  5
459
100
AcDbEntity
  8
RACCORDO
100
AcDbLine
 62
7
  6
CONTINUOUS
 10
-7.0903677906
 20
6.4025102041
 11
-7.0903677906
 21
6.3025102041
  0
LINE
  5
45A
100
AcDbEntity
  8
ASSI
100
AcDbLine
 62
7
  6
CONTINUOUS
 10
-7.0903677906
 20
6.4025102041
 11
-7.0903677906
 21
6.3025102041
  0
LINE
  5
45B
100
AcDbEntity
  8
RACCORDO
100
AcDbLine
 62
7
  6
CONTINUOUS
 10
-7.0117829342
 20
42.9025102041
 11
-7.0117829342
 21
42.8025102041
  0
LINE
  5
45C
100
AcDbEntity
  8
ASSI
100
AcDbLine
 62
7
  6
CONTINUOUS
 10
-7.0117829342
 20
42.9025102041
 11
-7.0117829342
 21
42.8025102041
  0
LINE
  5
45D
100
AcDbEntity
  8
RACCORDO
100
AcDbLine
 62
7
  6
CONTINUOUS
 10
-6.9943722449
 20
6.4025102041
 11
-6.9943722449
 21
6.3694616152
  0
LINE
  5
45E
100
AcDbEntity
  8
0
100
AcDbLine
 62
7
  6
CONTINUOUS
 10
-6.9943722449
 20
6.4025102041
 11
-6.9943722449
 21
6.3694616152
  0
LINE
  5
45F
100
AcDbEntity
  8
0
100
AcDbLine
 62
253
  6
CONTINUOUS
 10
-7.49284801
 20
4.7180235244
 11
-7.4933640471
 21
4.5503592119
  0
LWPOLYLINE
  5
460
100
AcDbEntity
  8
ASSI
100
AcDbPolyline
 62
7
  6
CONTINUOUS
 90
18
 70
0
 10
-4.6384395121
 20
48.3532836288
 10
-4.6388664334
 20
48.3504916995
 10
-4.6399645444
 20
48.3470416214
 10
-4.6417508077
 20
48.3429333943
 10
-4.6442422309
 20
48.3381796786
 10
-4.6474530876
 20
48.3327678141
 10
-4.6513922178
 20
48.3266598197
 10
-4.6560681724
 20
48.3198512533
 10
-4.6614904809
 20
48.3123465572
 10
-4.6676644236
 20
48.3041210774
 10
-4.6745795518
 20
48.2951951967
 10
-4.6822514837
 20
48.2855485323
 10
-4.6907342195
 20
48.2750952821
 10
-4.7000483118
 20
48.2638311782
 10
-4.7101963669
 20
48.2517604884
 10
-4.7212214893
 20
48.2388102145
 10
-4.7331345332
 20
48.2249798105
 10
-4.745943905
 20
48.2102698225
  0
LINE
  5
461
100
AcDbEntity
  8
CURVE
100
AcDbLine
 62
253
  6
CONTINUOUS
 10
-15.537229412
 20
16.0525102041
 11
-16.3515151344
 21
15.1025102041
  0
LINE
  5
462
100
AcDbEntity
  8
CURVE
100
AcDbLine
 62
253
  6
CONTINUOUS
 10
-16.8943722449
 20
15.9167959265
 11
-16.7586579106
 21
16.0525102041
  0
LINE
  5
463
100
AcDbEntity
  8
CURVE
100
AcDbLine
 62
253
  6
CONTINUOUS
 10
-19.2943722449
 20
13.2382245562
 11
-19.1086579703
 21
13.4239387534
  0
LINE
  5
464
100
AcDbEntity
  8
CURVE
100
AcDbLine
 62
253
  6
CONTINUOUS
 10
-0.9943722449
 20
31.4025102041
 11
-1.1800865389
 21
31.2167959294
  0
LINE
  5
465
100
AcDbEntity
  8
SMUSSO
100
AcDbLine
 62
7
  6
CONTINUOUS
 10
-13.7443722449
 20
18.3525102041
 11
-13.2443722449
 21
18.8525102041
  0
LINE
  5
466
100
AcDbEntity
  8
ASSI
100
AcDbLine
 62
7
  6
CONTINUOUS
 10
-13.7443722449
 20
18.3525102041
 11
-13.2443722449
 21
18.8525102041
  0
LINE
  5
467
100
AcDbEntity
  8
CURVE
100
AcDbLine
 62
253
  6
CONTINUOUS
 10
-19.1086579703
 20
12.4953673027
 11
-19.2943722449
 21
12.309653028
  0
LINE
  5
468
100
AcDbEntity
  8
SMUSSO
100
AcDbLine
 62
7
  6
CONTINUOUS
 10
-8.7443722449
 20
22.8525102041
 11
-9.2443722449
 21
22.3525102041
  0
LINE
  5
469
100
AcDbEntity
  8
ASSI
100
AcDbLine
 62
7
  6
CONTINUOUS
 10
-8.7443722449
 20
22.8525102041
 11
-9.2443722449
 21
22.3525102041
  0
LINE
  5
46A
100
AcDbEntity
  8
CURVE
100
AcDbLine
 62
253
  6
CONTINUOUS
 10
-17.9943722449
 20
13.1453673027
 11
-18.1800865389
 21
12.9596531055
  0
LINE
  5
46B
100
AcDbEntity
  8
CURVE
100
AcDbLine
 62
253
  6
CONTINUOUS
 10
-2.6458441075
 20
28.4510383415
 11
-2.4337120731
 21
28.6631703759
  0
LINE
  5
46C
100
AcDbEntity
  8
CURVE
100
AcDbLine
 62
253
  6
CONTINUOUS
 10
-16.8943722449
 20
20.0025102041
 11
-14.9943722449
 21
20.9525102041
  0
LINE
  5
46D
100
AcDbEntity
  8
CURVE
100
AcDbLine
 62
253
  6
CONTINUOUS
 10
-18.1800865389
 20
19.1501295469
 11
-18.3658008329
 21
19.0572721384
  0
LINE
  5
46E
100
AcDbEntity
  8
CURVE
100
AcDbLine
 62
253
  6
CONTINUOUS
 10
2.0683657229
 20
25.4025101996
 11
2.0910538513
 21
25.4025101996
  0
LINE
  5
46F
100
AcDbEntity
  8
CURVE
100
AcDbLine
 62
253
  6
CONTINUOUS
 10
2.038696632
 20
25.8429864279
 11
2.0613847603
 21
25.8429864279
  0
LINE
  5
470
100
AcDbEntity
  8
CURVE
100
AcDbLine
 62
253
  6
CONTINUOUS
 10
2.1207229422
 20
25.8967958868
 11
2.0980348139
 21
25.8967958868
  0
LINE
  5
471
100
AcDbEntity
  8
CURVE
100
AcDbLine
 62
253
  6
CONTINUOUS
 10
-16.3849167015
 20
26.224016555
 11
-16.8849167015
 21
26.224016555
  0
LINE
  5
472
100
AcDbEntity
  8
CURVE
100
AcDbLine
 62
253
  6
CONTINUOUS
 10
2.0980348139
 20
26.6025102041
 11
2.1207229422
 21
26.6025102041
  0
LINE
  5
473
100
AcDbEntity
  8
0
100
AcDbLine
 62
7
  6
CONTINUOUS
 10
-6.8943722449
 20
6.4025102041
 11
-6.8943722449
 21
6.370329002
  0
LINE
  5
474
100
AcDbEntity
  8
RACCORDO
100
AcDbLine
 62
253
  6
CONTINUOUS
 10
-6.8479256355
 20
6.3699701874
 11
-6.8479256355
 21
6.3025102041
  0
LINE
  5
475
100
AcDbEntity
  8
0
100
AcDbLine
 62
253
  6
CONTINUOUS
 10
-6.8479256355
 20
6.3699701874
 11
-6.8479256355
 21
6.3025102041
  0
LINE
  5
476
100
AcDbEntity
  8
0
100
AcDbLine
 62
7
  6
CONTINUOUS
 10
-6.4943722449
 20
42.9025102041
 11
-6.4943722449
 21
41.2025102041
  0
LINE
  5
477
100
AcDbEntity
  8
ASSI
100
AcDbLine
 62
7
  6
CONTINUOUS
 10
-6.4943722449
 20
42.9025102041
 11
-6.4943722449
 21
41.2025102041
  0
LINE
  5
478
100
AcDbEntity
  8
0
100
AcDbLine
 62
7
  6
CONTINUOUS
 10
-6.4943722449
 20
8.0025102041
 11
-6.4943722449
 21
6.3025102041
  0
LINE
  5
479
100
AcDbEntity
  8
ASSI
100
AcDbLine
 62
7
  6
CONTINUOUS
 10
-6.4943722449
 20
8.0025102041
 11
-6.4943722449
 21
6.3025102041
  0
LINE
  5
47A
100
AcDbEntity
  8
CURVE
100
AcDbLine
 62
253
  6
CONTINUOUS
 10
-6.2943722449
 20
31.4025102041
 11
-6.2943722449
 21
31.4953673027
  0
LINE
  5
47B
100
AcDbEntity
  8
CURVE
100
AcDbLine
 62
253
  6
CONTINUOUS
 10
-6.2943722449
 20
33.0739389083
 11
-6.2943722449
 21
33.6310814998
  0
LINE
  5
47C
100
AcDbEntity
  8
CURVE
100
AcDbLine
 62
253
  6
CONTINUOUS
 10
-6.2943722449
 20
34.2810814998
 11
-6.2943722449
 21
34.3739389083
  0
LINE
  5
47D
100
AcDbEntity
  8
CURVE
100
AcDbLine
 62
253
  6
CONTINUOUS
 10
-6.2943722449
 20
35.3025102041
 11
-6.2943722449
 21
35.3953676126
  0
LINE
  5
47E
100
AcDbEntity
  8
CURVE
100
AcDbLine
 62
253
  6
CONTINUOUS
 10
-6.2943722449
 20
39.6667960069
 11
-6.2943722449
 21
40.2239385984
  0
LINE
  5
47F
100
AcDbEntity
  8
RACCORDO
100
AcDbLine
 62
7
  6
CONTINUOUS
 10
-5.9943722449
 20
2.2644709654
 11
-5.9943722449
 21
3.6025102041
  0
LINE
  5
480
100
AcDbEntity
  8
RACCORDO
100
AcDbLine
 62
7
  6
CONTINUOUS
 10
-5.9943722449
 20
45.6025102041
 11
-5.9943722449
 21
46.9405494428
  0
LINE
  5
481
100
AcDbEntity
  8
CURVE
100
AcDbLine
 62
253
  6
CONTINUOUS
 10
-5.737229421
 20
40.0382244012
 11
-5.737229421
 21
39.6667960069
  0
LINE
  5
482
100
AcDbEntity
  8
CURVE
100
AcDbLine
 62
253
  6
CONTINUOUS
 10
-5.737229421
 20
33.4453673027
 11
-5.737229421
 21
33.0739389083
  0
LINE
  5
483
100
AcDbEntity
  8
DRAFT
100
AcDbLine
 62
7
  6
CONTINUOUS
 10
-5.5310278812
 20
44.4658545677
 11
-5.5310278812
 21
44.2658545677
  0
LINE
  5
484
100
AcDbEntity
  8
0
100
AcDbLine
 62
7
  6
CONTINUOUS
 10
-5.5310278812
 20
44.4658545677
 11
-5.5310278812
 21
44.2658545677
  0
LINE
  5
485
100
AcDbEntity
  8
DRAFT
100
AcDbLine
 62
7
  6
CONTINUOUS
 10
-5.5310278812
 20
4.9391658404
 11
-5.5310278812
 21
4.7391658404
  0
LINE
  5
486
100
AcDbEntity
  8
0
100
AcDbLine
 62
7
  6
CONTINUOUS
 10
-5.5310278812
 20
4.9391658404
 11
-5.5310278812
 21
4.7391658404
  0
LINE
  5
487
100
AcDbEntity
  8
DRAFT
100
AcDbLine
 62
7
  6
CONTINUOUS
 10
-5.4943722449
 20
44.5025102041
 11
-5.4943722449
 21
44.3025102041
  0
LINE
  5
488
100
AcDbEntity
  8
0
100
AcDbLine
 62
7
  6
CONTINUOUS
 10
-5.4943722449
 20
44.5025102041
 11
-5.4943722449
 21
44.3025102041
  0
LINE
  5
489
100
AcDbEntity
  8
DRAFT
100
AcDbLine
 62
7
  6
CONTINUOUS
 10
-5.4943722449
 20
44.6470172298
 11
-5.4943722449
 21
44.6025102041
  0
LINE
  5
48A
100
AcDbEntity
  8
DRAFT
100
AcDbLine
 62
7
  6
CONTINUOUS
 10
-5.4943722449
 20
4.9025102041
 11
-5.4943722449
 21
4.7025102041
  0
LINE
  5
48B
100
AcDbEntity
  8
0
100
AcDbLine
 62
7
  6
CONTINUOUS
 10
-5.4943722449
 20
4.9025102041
 11
-5.4943722449
 21
4.7025102041
  0
LINE
  5
48C
100
AcDbEntity
  8
ASSI
100
AcDbLine
 62
7
  6
CONTINUOUS
 10
-5.4943722449
 20
0.8083280339
 11
-5.4943722449
 21
2.2685903089
  0
LINE
  5
48D
100
AcDbEntity
  8
DRAFT
100
AcDbLine
 62
7
  6
CONTINUOUS
 10
-5.4943722449
 20
4.5580031783
 11
-5.4943722449
 21
4.6025102041
  0
LINE
  5
48E
100
AcDbEntity
  8
ASSI
100
AcDbLine
 62
7
  6
CONTINUOUS
 10
-5.4943722449
 20
46.9364300993
 11
-5.4943722449
 21
48.3966923743
  0
LINE
  5
48F
100
AcDbEntity
  8
CURVE
100
AcDbLine
 62
253
  6
CONTINUOUS
 10
-5.4586579703
 20
32.1453673027
 11
-5.4586579703
 21
32.7025102041
  0
LINE
  5
490
100
AcDbEntity
  8
CURVE
100
AcDbLine
 62
253
  6
CONTINUOUS
 10
-5.2729436762
 20
30.7525102041
 11
-5.2729436762
 21
30.1025102041
  0
LWPOLYLINE
  5
491
100
AcDbEntity
  8
RACCORDO
100
AcDbPolyline
 62
253
  6
CONTINUOUS
 90
5
 70
0
 10
-10.9899196068
 20
7.0985689221
 10
-10.9766186907
 20
7.1434472982
 10
-10.9547574205
 20
7.1857755345
 10
-10.9248321799
 20
7.2242966258
 10
-10.8876944356
 20
7.2576960332
  0
LWPOLYLINE
  5
492
100
AcDbEntity
  8
0
100
AcDbPolyline
 62
253
  6
CONTINUOUS
 90
5
 70
0
 10
-10.9899196068
 20
7.0985689221
 10
-10.9766186907
 20
7.1434472982
 10
-10.9547574205
 20
7.1857755345
 10
-10.9248321799
 20
7.2242966258
 10
-10.8876944356
 20
7.2576960332
  0
LINE
  5
493
100
AcDbEntity
  8
RACCORDO
100
AcDbLine
 62
7
  6
CONTINUOUS
 10
-10.9849445925
 20
6.3708927056
 11
-10.9753757289
 21
6.4025102041
  0
LINE
  5
494
100
AcDbEntity
  8
0
100
AcDbLine
 62
7
  6
CONTINUOUS
 10
-10.9849445925
 20
6.3708927056
 11
-10.9753757289
 21
6.4025102041
  0
LINE
  5
495
100
AcDbEntity
  8
DRAFT
100
AcDbLine
 62
7
  6
CONTINUOUS
 10
0.6556277551
 20
45.5025102041
 11
0.6294451577
 21
45.4238985352
  0
LINE
  5
496
100
AcDbEntity
  8
CURVE
100
AcDbLine
 62
253
  6
CONTINUOUS
 10
-15.1300865367
 20
15.1025102041
 11
-14.9943722449
 21
15.2382244959
  0
LINE
  5
497
100
AcDbEntity
  8
CURVE
100
AcDbLine
 62
253
  6
CONTINUOUS
 10
2.038696632
 20
26.8025101996
 11
2.0613847603
 21
26.8025101996
  0
LINE
  5
498
100
AcDbEntity
  8
0
100
AcDbLine
 62
7
  6
CONTINUOUS
 10
-9.5943722449
 20
27.1025102041
 11
-12.5943722449
 21
27.1025102041
  0
LINE
  5
499
100
AcDbEntity
  8
CURVE
100
AcDbLine
 62
253
  6
CONTINUOUS
 10
-4.4108873839
 20
27.2025102041
 11
-4.9943722449
 21
27.2025102041
  0
LINE
  5
49A
100
AcDbEntity
  8
SMUSSO
100
AcDbLine
 62
7
  6
CONTINUOUS
 10
-13.2443722449
 20
27.6025102041
 11
-9.2443722449
 21
27.6025102041
  0
LINE
  5
49B
100
AcDbEntity
  8
ASSI
100
AcDbLine
 62
7
  6
CONTINUOUS
 10
-13.2443722449
 20
27.6025102041
 11
-9.2443722449
 21
27.6025102041
  0
LINE
  5
49C
100
AcDbEntity
  8
CURVE
100
AcDbLine
 62
253
  6
CONTINUOUS
 10
-2.2943722449
 20
27.6025102041
 11
-1.9943722449
 21
27.6025102041
  0
LINE
  5
49D
100
AcDbEntity
  8
RACCORDO
100
AcDbLine
 62
7
  6
CONTINUOUS
 10
1.7187066333
 20
27.7525102041
 11
0.8056277551
 21
27.7525102041
  0
LINE
  5
49E
100
AcDbEntity
  8
ASSI
100
AcDbLine
 62
7
  6
CONTINUOUS
 10
1.7187066333
 20
27.7525102041
 11
0.8056277551
 21
27.7525102041
  0
LINE
  5
49F
100
AcDbEntity
  8
CURVE
100
AcDbLine
 62
253
  6
CONTINUOUS
 10
-4.9943722449
 20
28.0025102041
 11
-4.4108873839
 21
28.0025102041
  0
LINE
  5
4A0
100
AcDbEntity
  8
SMUSSO
100
AcDbLine
 62
7
  6
CONTINUOUS
 10
-13.7443722449
 20
28.1025102041
 11
-8.7443722449
 21
28.1025102041
  0
LINE
  5
4A1
100
AcDbEntity
  8
ASSI
100
AcDbLine
 62
7
  6
CONTINUOUS
 10
-13.7443722449
 20
28.1025102041
 11
-8.7443722449
 21
28.1025102041
  0
LINE
  5
4A2
100
AcDbEntity
  8
DRAFT
100
AcDbLine
 62
7
  6
CONTINUOUS
 10
0.6294451577
 20
3.781121873
 11
0.6556277551
 21
3.7025102041
  0
LINE
  5
4A3
100
AcDbEntity
  8
RACCORDO
100
AcDbLine
 62
253
  6
CONTINUOUS
 10
-10.9762800311
 20
42.0607365693
 11
-10.9898145708
 21
42.1059155085
  0
LINE
  5
4A4
100
AcDbEntity
  8
0
100
AcDbLine
 62
253
  6
CONTINUOUS
 10
-10.9762800311
 20
42.0607365693
 11
-10.9898145708
 21
42.1059155085
  0
LINE
  5
4A5
100
AcDbEntity
  8
CURVE
100
AcDbLine
 62
253
  6
CONTINUOUS
 10
-4.9943722449
 20
35.3953676126
 11
-4.9943722449
 21
35.3025102041
  0
LINE
  5
4A6
100
AcDbEntity
  8
CURVE
100
AcDbLine
 62
253
  6
CONTINUOUS
 10
-4.9943722449
 20
34.3739389083
 11
-4.9943722449
 21
34.2810814998
  0
LINE
  5
4A7
100
AcDbEntity
  8
CURVE
100
AcDbLine
 62
253
  6
CONTINUOUS
 10
-4.9943722449
 20
31.4953673027
 11
-4.9943722449
 21
31.4025102041
  0
LINE
  5
4A8
100
AcDbEntity
  8
CURVE
100
AcDbLine
 62
253
  6
CONTINUOUS
 10
-4.9943722449
 20
27.2025102041
 11
-4.9943722449
 21
28.0025102041
  0
LINE
  5
4A9
100
AcDbEntity
  8
CURVE
100
AcDbLine
 62
253
  6
CONTINUOUS
 10
-4.9943722449
 20
33.0739389083
 11
-4.9943722449
 21
33.4453673027
  0
LINE
  5
4AA
100
AcDbEntity
  8
CURVE
100
AcDbLine
 62
253
  6
CONTINUOUS
 10
-4.9943722449
 20
38.8310818098
 11
-4.9943722449
 21
39.2953676126
  0
LINE
  5
4AB
100
AcDbEntity
  8
CURVE
100
AcDbLine
 62
253
  6
CONTINUOUS
 10
-4.9943722449
 20
39.6667960069
 11
-4.9943722449
 21
40.2239385984
  0
LINE
  5
4AC
100
AcDbEntity
  8
RACCORDO
100
AcDbLine
 62
7
  6
CONTINUOUS
 10
-4.9812819432
 20
43.9156119288
 11
-4.9812819432
 21
42.8156005058
  0
LINE
  5
4AD
100
AcDbEntity
  8
ASSI
100
AcDbLine
 62
7
  6
CONTINUOUS
 10
-4.9812819432
 20
43.9156119288
 11
-4.9812819432
 21
42.8156005058
  0
LINE
  5
4AE
100
AcDbEntity
  8
RACCORDO
100
AcDbLine
 62
7
  6
CONTINUOUS
 10
-4.9812819432
 20
5.2894084793
 11
-4.9812819432
 21
6.0894313255
  0
LINE
  5
4AF
100
AcDbEntity
  8
ASSI
100
AcDbLine
 62
7
  6
CONTINUOUS
 10
-4.9812819432
 20
5.2894084793
 11
-4.9812819432
 21
6.0894313255
  0
LINE
  5
4B0
100
AcDbEntity
  8
ASSI
100
AcDbLine
 62
253
  6
CONTINUOUS
 10
-4.6384395121
 20
0.8517367794
 11
-4.6384395121
 21
2.2686120372
  0
LINE
  5
4B1
100
AcDbEntity
  8
ASSI
100
AcDbLine
 62
253
  6
CONTINUOUS
 10
-4.6384395121
 20
46.936408371
 11
-4.6384395121
 21
48.3532836288
  0
LINE
  5
4B2
100
AcDbEntity
  8
DRAFT
100
AcDbLine
 62
7
  6
CONTINUOUS
 10
-4.5943722449
 20
0.8025102041
 11
-4.5943722449
 21
2.2025102041
  0
LINE
  5
4B3
100
AcDbEntity
  8
DRAFT
100
AcDbLine
 62
7
  6
CONTINUOUS
 10
-4.5943722449
 20
47.0025102041
 11
-4.5943722449
 21
48.4025102041
  0
LINE
  5
4B4
100
AcDbEntity
  8
ASSI
100
AcDbLine
 62
7
  6
CONTINUOUS
 10
-4.4943722449
 20
43.2025102041
 11
-4.4943722449
 21
42.8156005058
  0
LINE
  5
4B5
100
AcDbEntity
  8
ASSI
100
AcDbLine
 62
253
  6
CONTINUOUS
 10
-3.4943722449
 20
43.2025102041
 11
-3.4943722449
 21
42.8156005058
  0
LINE
  5
4B6
100
AcDbEntity
  8
CURVE
100
AcDbLine
 62
253
  6
CONTINUOUS
 10
-3.4943722449
 20
26.4025102041
 11
-3.4943722449
 21
26.1025102041
  0
LINE
  5
4B7
100
AcDbEntity
  8
CURVE
100
AcDbLine
 62
253
  6
CONTINUOUS
 10
-3.4943722449
 20
28.8025102041
 11
-3.4943722449
 21
29.1025102041
  0
LWPOLYLINE
  5
4B8
100
AcDbEntity
  8
RACCORDO
100
AcDbPolyline
 62
7
  6
CONTINUOUS
 90
5
 70
0
 10
-16.8852557186
 20
2.8433936777
 10
-16.8617368625
 20
2.8794412438
 10
-16.8377523059
 20
2.9158644402
 10
-16.8133020489
 20
2.9525922199
 10
-16.7883268017
 20
2.9895213196
  0
LINE
  5
4B9
100
AcDbEntity
  8
SMUSSO
100
AcDbLine
 62
7
  6
CONTINUOUS
 10
-13.7443722449
 20
13.3525102041
 11
-13.2443722449
 21
13.8525102041
  0
LINE
  5
4BA
100
AcDbEntity
  8
ASSI
100
AcDbLine
 62
7
  6
CONTINUOUS
 10
-13.7443722449
 20
13.3525102041
 11
-13.2443722449
 21
13.8525102041
  0
LINE
  5
4BB
100
AcDbEntity
  8
SMUSSO
100
AcDbLine
 62
7
  6
CONTINUOUS
 10
-8.7443722449
 20
17.8525102041
 11
-9.2443722449
 21
17.3525102041
  0
LINE
  5
4BC
100
AcDbEntity
  8
ASSI
100
AcDbLine
 62
7
  6
CONTINUOUS
 10
-8.7443722449
 20
17.8525102041
 11
-9.2443722449
 21
17.3525102041
  0
LINE
  5
4BD
100
AcDbEntity
  8
CURVE
100
AcDbLine
 62
253
  6
CONTINUOUS
 10
-19.1086579703
 20
13.4239387534
 11
-18.9229436956
 21
13.516795852
  0
LWPOLYLINE
  5
4BE
100
AcDbEntity
  8
CURVE
100
AcDbPolyline
 62
7
  6
CONTINUOUS
 90
15
 70
0
 10
2.1149161868
 20
31.0652302302
 10
2.1146969616
 20
31.0651910046
 10
2.114476072
 20
31.0654600941
 10
2.1142538216
 20
31.0660385603
 10
2.1140305137
 20
31.0669274648
 10
2.1138064517
 20
31.0681278692
 10
2.113581939
 20
31.0696408352
 10
2.1133572791
 20
31.0714674244
 10
2.1131327754
 20
31.0736086984
 10
2.1129087313
 20
31.0760657189
 10
2.1126854502
 20
31.0788395475
 10
2.1124632355
 20
31.0819312459
 10
2.1122423907
 20
31.0853418756
 10
2.1120232191
 20
31.0890724983
 10
2.1118060243
 20
31.0931241756
  0
LINE
  5
4BF
100
AcDbEntity
  8
DRAFT
100
AcDbLine
 62
7
  6
CONTINUOUS
 10
-2.7030989896
 20
4.6156005058
 11
-2.7030989896
 21
4.9025102041
  0
LINE
  5
4C0
100
AcDbEntity
  8
DRAFT
100
AcDbLine
 62
7
  6
CONTINUOUS
 10
-2.7030989896
 20
44.3025102041
 11
-2.7030989896
 21
44.5894199024
  0
LINE
  5
4C1
100
AcDbEntity
  8
RACCORDO
100
AcDbLine
 62
7
  6
CONTINUOUS
 10
-2.6361939468
 20
45.1854344873
 11
-2.6361939468
 21
44.5595283209
  0
LINE
  5
4C2
100
AcDbEntity
  8
RACCORDO
100
AcDbLine
 62
7
  6
CONTINUOUS
 10
-2.6361939468
 20
4.6454920872
 11
-2.6361939468
 21
4.0195859209
  0
LINE
  5
4C3
100
AcDbEntity
  8
CURVE
100
AcDbLine
 62
253
  6
CONTINUOUS
 10
-2.2943722449
 20
33.4453673027
 11
-2.2943722449
 21
33.0739389083
  0
LINE
  5
4C4
100
AcDbEntity
  8
CURVE
100
AcDbLine
 62
253
  6
CONTINUOUS
 10
-2.2943722449
 20
31.4025102041
 11
-2.2943722449
 21
31.4953673027
  0
LINE
  5
4C5
100
AcDbEntity
  8
CURVE
100
AcDbLine
 62
253
  6
CONTINUOUS
 10
-2.2943722449
 20
34.2810814998
 11
-2.2943722449
 21
34.3739389083
  0
LINE
  5
4C6
100
AcDbEntity
  8
CURVE
100
AcDbLine
 62
253
  6
CONTINUOUS
 10
-2.2943722449
 20
35.3025102041
 11
-2.2943722449
 21
35.3953676126
  0
LINE
  5
4C7
100
AcDbEntity
  8
CURVE
100
AcDbLine
 62
253
  6
CONTINUOUS
 10
-2.2943722449
 20
38.8310818098
 11
-2.2943722449
 21
39.5739385984
  0
LINE
  5
4C8
100
AcDbEntity
  8
CURVE
100
AcDbLine
 62
253
  6
CONTINUOUS
 10
-2.2943722449
 20
39.9453676126
 11
-2.2943722449
 21
40.5025102041
  0
LINE
  5
4C9
100
AcDbEntity
  8
RACCORDO
100
AcDbLine
 62
7
  6
CONTINUOUS
 10
-1.752550543
 20
45.5985057498
 11
-1.752550543
 21
44.5595283209
  0
LINE
  5
4CA
100
AcDbEntity
  8
RACCORDO
100
AcDbLine
 62
7
  6
CONTINUOUS
 10
-1.752550543
 20
4.6454920872
 11
-1.752550543
 21
3.6065146584
  0
LINE
  5
4CB
100
AcDbEntity
  8
CURVE
100
AcDbLine
 62
253
  6
CONTINUOUS
 10
-1.737229421
 20
40.3167960069
 11
-1.737229421
 21
39.9453676126
  0
LINE
  5
4CC
100
AcDbEntity
  8
CURVE
100
AcDbLine
 62
253
  6
CONTINUOUS
 10
-1.737229421
 20
33.4453673027
 11
-1.737229421
 21
33.2596531055
  0
LINE
  5
4CD
100
AcDbEntity
  8
DRAFT
100
AcDbLine
 62
7
  6
CONTINUOUS
 10
-1.6856455002
 20
4.9025102041
 11
-1.6856455002
 21
3.781121873
  0
LINE
  5
4CE
100
AcDbEntity
  8
DRAFT
100
AcDbLine
 62
7
  6
CONTINUOUS
 10
-1.6856455002
 20
44.3025102041
 11
-1.6856455002
 21
45.4238985352
  0
LINE
  5
4CF
100
AcDbEntity
  8
DRAFT
100
AcDbLine
 62
7
  6
CONTINUOUS
 10
-1.5943722449
 20
45.4525102041
 11
-1.5943722449
 21
44.3025102041
  0
LINE
  5
4D0
100
AcDbEntity
  8
0
100
AcDbLine
 62
7
  6
CONTINUOUS
 10
-1.5943722449
 20
45.4525102041
 11
-1.5943722449
 21
44.3025102041
  0
LINE
  5
4D1
100
AcDbEntity
  8
DRAFT
100
AcDbLine
 62
7
  6
CONTINUOUS
 10
-1.5943722449
 20
4.9025102041
 11
-1.5943722449
 21
3.7525102041
  0
LINE
  5
4D2
100
AcDbEntity
  8
0
100
AcDbLine
 62
7
  6
CONTINUOUS
 10
-1.5943722449
 20
4.9025102041
 11
-1.5943722449
 21
3.7525102041
  0
LWPOLYLINE
  5
4D3
100
AcDbEntity
  8
ASSI
100
AcDbPolyline
 62
7
  6
CONTINUOUS
 90
17
 70
0
 10
-5.4943722449
 20
0.8513679137
 10
-5.4940407002
 20
0.8540796253
 10
-5.493032614
 20
0.8574612045
 10
-5.4913284956
 20
0.8615126512
 10
-5.4889081587
 20
0.8662208726
 10
-5.4857550786
 20
0.8715989615
 10
-5.4818608217
 20
0.8776861969
 10
-5.4772151827
 20
0.8844904425
 10
-5.4718082429
 20
0.8920038345
 10
-5.4656410363
 20
0.9002420607
 10
-5.4587265612
 20
0.9091859458
 10
-5.4510500581
 20
0.918854665
 10
-5.4425650131
 20
0.9293214316
 10
-5.4332591512
 20
0.9405837925
 10
-5.4231280674
 20
0.9526442008
 10
-5.4121200459
 20
0.9655832295
 10
-5.4002216756
 20
0.9794030931
  0
LINE
  5
4D4
100
AcDbEntity
  8
RACCORDO
100
AcDbLine
 62
7
  6
CONTINUOUS
 10
-15.3496670129
 20
4.5195668824
 11
-15.2856455002
 21
4.6156005058
  0
LWPOLYLINE
  5
4D5
100
AcDbEntity
  8
RACCORDO
100
AcDbPolyline
 62
7
  6
CONTINUOUS
 90
3
 70
0
 10
-16.7883268017
 20
2.9895213196
 10
-16.737157075
 20
3.0639199595
 10
-16.7111487433
 20
3.1013719396
  0
LINE
  5
4D6
100
AcDbEntity
  8
RACCORDO
100
AcDbLine
 62
7
  6
CONTINUOUS
 10
-16.7111487433
 20
3.1013719396
 11
-16.6319068657
 21
3.2143263169
  0
LINE
  5
4D7
100
AcDbEntity
  8
RACCORDO
100
AcDbLine
 62
7
  6
CONTINUOUS
 10
-16.6319068657
 20
3.2143263169
 11
-16.5784729641
 21
3.2898169604
  0
LINE
  5
4D8
100
AcDbEntity
  8
CURVE
100
AcDbLine
 62
253
  6
CONTINUOUS
 10
-18.1800865389
 20
12.9596531055
 11
-18.3658008329
 21
12.866795852
  0
LINE
  5
4D9
100
AcDbEntity
  8
CURVE
100
AcDbLine
 62
253
  6
CONTINUOUS
 10
2.0581435993
 20
30.3698916051
 11
2.0516612773
 21
30.3698916051
  0
LINE
  5
4DA
100
AcDbEntity
  8
CURVE
100
AcDbLine
 62
253
  6
CONTINUOUS
 10
-0.9943722449
 20
30.5358435503
 11
-1.6443722449
 21
30.5358435503
  0
LINE
  5
4DB
100
AcDbEntity
  8
CURVE
100
AcDbLine
 62
253
  6
CONTINUOUS
 10
-4.9943722449
 20
30.5358435503
 11
-5.6443722449
 21
30.5358435503
  0
LINE
  5
4DC
100
AcDbEntity
  8
CURVE
100
AcDbLine
 62
7
  6
CONTINUOUS
 10
2.1025839312
 20
30.9079544941
 11
2.1028829226
 21
30.9079544941
  0
LINE
  5
4DD
100
AcDbEntity
  8
CURVE
100
AcDbLine
 62
253
  6
CONTINUOUS
 10
2.038696632
 20
30.9873916051
 11
2.0613847603
 21
30.9873916051
  0
LINE
  5
4DE
100
AcDbEntity
  8
CURVE
100
AcDbLine
 62
253
  6
CONTINUOUS
 10
-1.3658008329
 20
31.1239387534
 11
-1.9229436956
 21
31.1239387534
  0
LINE
  5
4DF
100
AcDbEntity
  8
CURVE
100
AcDbLine
 62
253
  6
CONTINUOUS
 10
-5.3658008329
 20
31.1239387534
 11
-5.9229436956
 21
31.1239387534
  0
LINE
  5
4E0
100
AcDbEntity
  8
CURVE
100
AcDbLine
 62
253
  6
CONTINUOUS
 10
-5.9229436956
 20
31.7739387534
 11
-5.3658008329
 21
31.7739387534
  0
LINE
  5
4E1
100
AcDbEntity
  8
CURVE
100
AcDbLine
 62
253
  6
CONTINUOUS
 10
-1.9229436956
 20
31.7739387534
 11
-1.3658008329
 21
31.7739387534
  0
LINE
  5
4E2
100
AcDbEntity
  8
CURVE
100
AcDbLine
 62
7
  6
CONTINUOUS
 10
2.0789651311
 20
31.8612415873
 11
2.0987664793
 21
31.8612415873
  0
LINE
  5
4E3
100
AcDbEntity
  8
CURVE
100
AcDbLine
 62
253
  6
CONTINUOUS
 10
2.038696632
 20
31.8695340416
 11
2.0613847603
 21
31.8695340416
  0
LINE
  5
4E4
100
AcDbEntity
  8
CURVE
100
AcDbLine
 62
7
  6
CONTINUOUS
 10
2.1070532451
 20
31.8813114759
 11
2.1209434429
 21
31.8813114759
  0
LINE
  5
4E5
100
AcDbEntity
  8
CURVE
100
AcDbLine
 62
253
  6
CONTINUOUS
 10
-5.2729436762
 20
30.1025102041
 11
-6.2943722449
 21
30.3810816354
  0
LINE
  5
4E6
100
AcDbEntity
  8
CURVE
100
AcDbLine
 62
253
  6
CONTINUOUS
 10
-1.2729436762
 20
30.1025102041
 11
-2.2943722449
 21
30.3810816354
  0
LINE
  5
4E7
100
AcDbEntity
  8
CURVE
100
AcDbLine
 62
253
  6
CONTINUOUS
 10
-5.9229436956
 20
31.1239387534
 11
-6.1086579703
 21
31.2167959294
  0
LINE
  5
4E8
100
AcDbEntity
  8
CURVE
100
AcDbLine
 62
253
  6
CONTINUOUS
 10
-2.6458441075
 20
26.7539820667
 11
-2.4337120731
 21
26.5418500323
  0
LINE
  5
4E9
100
AcDbEntity
  8
CURVE
100
AcDbLine
 62
253
  6
CONTINUOUS
 10
-6.1086579703
 20
31.2167959294
 11
-6.2943722449
 21
31.4025102041
  0
LINE
  5
4EA
100
AcDbEntity
  8
RACCORDO
100
AcDbLine
 62
7
  6
CONTINUOUS
 10
-16.5784729641
 20
45.9152034478
 11
-16.6319068657
 21
45.9906940913
  0
LINE
  5
4EB
100
AcDbEntity
  8
RACCORDO
100
AcDbLine
 62
7
  6
CONTINUOUS
 10
-16.6319068657
 20
45.9906940913
 11
-16.7111487433
 21
46.1036484685
  0
LWPOLYLINE
  5
4EC
100
AcDbEntity
  8
RACCORDO
100
AcDbPolyline
 62
7
  6
CONTINUOUS
 90
7
 70
0
 10
-16.7111487433
 20
46.1036484685
 10
-16.7628858542
 20
46.1784028208
 10
-16.7883268017
 20
46.2154990885
 10
-16.8133020489
 20
46.2524281883
 10
-16.8377523059
 20
46.2891559679
 10
-16.8617368625
 20
46.3255791644
 10
-16.8852557186
 20
46.3616267304
  0
LINE
  5
4ED
100
AcDbEntity
  8
RACCORDO
100
AcDbLine
 62
7
  6
CONTINUOUS
 10
-15.3496670129
 20
44.6854535258
 11
-15.2856455002
 21
44.5894199024
  0
LWPOLYLINE
  5
4EE
100
AcDbEntity
  8
RACCORDO
100
AcDbPolyline
 62
253
  6
CONTINUOUS
 90
31
 70
0
 10
-0.7400004109
 20
48.4468477714
 10
-0.7396210792
 20
48.4355376209
 10
-0.7385600972
 20
48.424258356
 10
-0.7368203623
 20
48.4130407781
 10
-0.7344066254
 20
48.40191552
 10
-0.7313254778
 20
48.3909129625
 10
-0.7275853336
 20
48.3800631513
 10
-0.7231964062
 20
48.3693957148
 10
-0.7181706809
 20
48.3589397837
 10
-0.7125218819
 20
48.348723911
 10
-0.7062654349
 20
48.3387759939
 10
-0.699418425
 20
48.3291231982
 10
-0.6919995499
 20
48.3197918838
 10
-0.684029069
 20
48.3108075323
 10
-0.675528748
 20
48.3021946782
 10
-0.6665217994
 20
48.2939768415
 10
-0.6570328195
 20
48.2861764633
 10
-0.6470877206
 20
48.2788148447
 10
-0.6367136607
 20
48.271912089
 10
-0.6259389692
 20
48.2654870459
 10
-0.6147930695
 20
48.259557261
 10
-0.6033063987
 20
48.2541389273
 10
-0.5915103245
 20
48.2492468411
 10
-0.5794370596
 20
48.2448943617
 10
-0.5671195734
 20
48.2410933747
 10
-0.5545915026
 20
48.23785426
 10
-0.5418870585
 20
48.2351858627
 10
-0.5290409344
 20
48.2330954699
 10
-0.5160882104
 20
48.2315887898
 10
-0.5030642576
 20
48.2306699369
 10
-0.4900046417
 20
48.2303414204
  0
LINE
  5
4EF
100
AcDbEntity
  8
RACCORDO
100
AcDbLine
 62
253
  6
CONTINUOUS
 10
-0.7400004109
 20
0.7581726368
 11
-0.7443722449
 21
1.1920250559
  0
LINE
  5
4F0
100
AcDbEntity
  8
RACCORDO
100
AcDbLine
 62
253
  6
CONTINUOUS
 10
-0.4900046417
 20
0.9746789877
 11
-0.4950952428
 21
1.4798604733
  0
LINE
  5
4F1
100
AcDbEntity
  8
DRAFT
100
AcDbLine
 62
7
  6
CONTINUOUS
 10
-1.5577166085
 20
44.2658545677
 11
-1.5577166085
 21
43.2025102041
  0
LINE
  5
4F2
100
AcDbEntity
  8
0
100
AcDbLine
 62
7
  6
CONTINUOUS
 10
-1.5577166085
 20
44.2658545677
 11
-1.5577166085
 21
43.2025102041
  0
LINE
  5
4F3
100
AcDbEntity
  8
DRAFT
100
AcDbLine
 62
7
  6
CONTINUOUS
 10
-1.5577166085
 20
4.9391658404
 11
-1.5577166085
 21
6.3363407365
  0
LINE
  5
4F4
100
AcDbEntity
  8
0
100
AcDbLine
 62
7
  6
CONTINUOUS
 10
-1.5577166085
 20
4.9391658404
 11
-1.5577166085
 21
6.3363407365
  0
LINE
  5
4F5
100
AcDbEntity
  8
DRAFT
100
AcDbLine
 62
7
  6
CONTINUOUS
 10
-1.5402615436
 20
45.4525102041
 11
-1.5402615436
 21
43.2025102041
  0
LINE
  5
4F6
100
AcDbEntity
  8
0
100
AcDbLine
 62
7
  6
CONTINUOUS
 10
-1.5402615436
 20
45.4525102041
 11
-1.5402615436
 21
43.2025102041
  0
LINE
  5
4F7
100
AcDbEntity
  8
DRAFT
100
AcDbLine
 62
7
  6
CONTINUOUS
 10
-1.5402615436
 20
6.3450676043
 11
-1.5402615436
 21
3.7525102041
  0
LINE
  5
4F8
100
AcDbEntity
  8
0
100
AcDbLine
 62
7
  6
CONTINUOUS
 10
-1.5402615436
 20
6.3450676043
 11
-1.5402615436
 21
3.7525102041
  0
LINE
  5
4F9
100
AcDbEntity
  8
CURVE
100
AcDbLine
 62
253
  6
CONTINUOUS
 10
-1.4586579703
 20
32.1453673027
 11
-1.4586579703
 21
32.7025102041
  0
LINE
  5
4FA
100
AcDbEntity
  8
RACCORDO
100
AcDbLine
 62
253
  6
CONTINUOUS
 10
-1.4102715257
 20
3.2898169604
 11
-1.4102715257
 21
3.6065146584
  0
LINE
  5
4FB
100
AcDbEntity
  8
RACCORDO
100
AcDbLine
 62
253
  6
CONTINUOUS
 10
-1.4102715257
 20
45.5985057498
 11
-1.4102715257
 21
45.9152034478
  0
LINE
  5
4FC
100
AcDbEntity
  8
CURVE
100
AcDbLine
 62
253
  6
CONTINUOUS
 10
-1.2729436762
 20
30.7525102041
 11
-1.2729436762
 21
30.1025102041
  0
LINE
  5
4FD
100
AcDbEntity
  8
CURVE
100
AcDbLine
 62
253
  6
CONTINUOUS
 10
-0.9943722449
 20
35.3953676126
 11
-0.9943722449
 21
35.3025102041
  0
LINE
  5
4FE
100
AcDbEntity
  8
CURVE
100
AcDbLine
 62
253
  6
CONTINUOUS
 10
-0.9943722449
 20
34.3739389083
 11
-0.9943722449
 21
34.2810814998
  0
LINE
  5
4FF
100
AcDbEntity
  8
CURVE
100
AcDbLine
 62
253
  6
CONTINUOUS
 10
-0.9943722449
 20
31.4953673027
 11
-0.9943722449
 21
31.4025102041
  0
LINE
  5
500
100
AcDbEntity
  8
CURVE
100
AcDbLine
 62
253
  6
CONTINUOUS
 10
-0.9943722449
 20
33.0739389083
 11
-0.9943722449
 21
33.5382244012
  0
LINE
  5
501
100
AcDbEntity
  8
CURVE
100
AcDbLine
 62
253
  6
CONTINUOUS
 10
-0.9943722449
 20
39.9453676126
 11
-0.9943722449
 21
40.5025102041
  0
LINE
  5
502
100
AcDbEntity
  8
RACCORDO
100
AcDbLine
 62
253
  6
CONTINUOUS
 10
-0.9103476782
 20
3.0365347708
 11
-0.9103476782
 21
3.6108019399
  0
LINE
  5
503
100
AcDbEntity
  8
RACCORDO
100
AcDbLine
 62
253
  6
CONTINUOUS
 10
-0.9103476782
 20
45.5942184683
 11
-0.9103476782
 21
46.1684856373
  0
LINE
  5
504
100
AcDbEntity
  8
DRAFT
100
AcDbLine
 62
7
  6
CONTINUOUS
 10
-0.7443722449
 20
46.0025102041
 11
-0.7443722449
 21
45.5025102041
  0
LINE
  5
505
100
AcDbEntity
  8
DRAFT
100
AcDbLine
 62
7
  6
CONTINUOUS
 10
-0.7443722449
 20
3.7025102041
 11
-0.7443722449
 21
3.2025102041
  0
LINE
  5
506
100
AcDbEntity
  8
RACCORDO
100
AcDbLine
 62
7
  6
CONTINUOUS
 10
-0.7443722449
 20
0.3525059733
 11
-0.7443722449
 21
2.2025102041
  0
LINE
  5
507
100
AcDbEntity
  8
RACCORDO
100
AcDbLine
 62
7
  6
CONTINUOUS
 10
-0.7443722449
 20
47.0025102041
 11
-0.7443722449
 21
48.8525144349
  0
LINE
  5
508
100
AcDbEntity
  8
RACCORDO
100
AcDbLine
 62
253
  6
CONTINUOUS
 10
-0.7400004109
 20
48.8481426009
 11
-0.7400004109
 21
48.4468477714
  0
LINE
  5
509
100
AcDbEntity
  8
RACCORDO
100
AcDbLine
 62
253
  6
CONTINUOUS
 10
-0.7400004109
 20
0.7581726368
 11
-0.7400004109
 21
0.3568778073
  0
LINE
  5
50A
100
AcDbEntity
  8
RACCORDO
100
AcDbLine
 62
253
  6
CONTINUOUS
 10
-0.4900046417
 20
0.1068820381
 11
-0.4900046417
 21
0.9746789877
  0
LINE
  5
50B
100
AcDbEntity
  8
RACCORDO
100
AcDbLine
 62
253
  6
CONTINUOUS
 10
-0.4900046417
 20
48.2303414204
 11
-0.4900046417
 21
49.0981383701
  0
LINE
  5
50C
100
AcDbEntity
  8
DRAFT
100
AcDbLine
 62
7
  6
CONTINUOUS
 10
-0.3943722449
 20
3.7525102041
 11
-0.3943722449
 21
6.3450676043
  0
LINE
  5
50D
100
AcDbEntity
  8
0
100
AcDbLine
 62
7
  6
CONTINUOUS
 10
-0.3943722449
 20
3.7525102041
 11
-0.3943722449
 21
6.3450676043
  0
LINE
  5
50E
100
AcDbEntity
  8
DRAFT
100
AcDbLine
 62
7
  6
CONTINUOUS
 10
-0.3943722449
 20
43.2025102041
 11
-0.3943722449
 21
45.4525102041
  0
LINE
  5
50F
100
AcDbEntity
  8
0
100
AcDbLine
 62
7
  6
CONTINUOUS
 10
-0.3943722449
 20
43.2025102041
 11
-0.3943722449
 21
45.4525102041
  0
LINE
  5
510
100
AcDbEntity
  8
0
100
AcDbLine
 62
253
  6
CONTINUOUS
 10
0.0056277551
 20
43.2025102041
 11
0.0056277551
 21
42.8156005058
  0
LINE
  5
511
100
AcDbEntity
  8
RACCORDO
100
AcDbLine
 62
253
  6
CONTINUOUS
 10
-0.7443722449
 20
48.0129953523
 11
-0.7400004109
 21
48.4468477714
  0
LINE
  5
512
100
AcDbEntity
  8
RACCORDO
100
AcDbLine
 62
253
  6
CONTINUOUS
 10
-0.4950952428
 20
47.7251599349
 11
-0.4900046417
 21
48.2303414204
  0
LWPOLYLINE
  5
513
100
AcDbEntity
  8
RACCORDO
100
AcDbPolyline
 62
7
  6
CONTINUOUS
 90
34
 70
0
 10
-0.7443722449
 20
48.8525144349
 10
-0.7440890947
 20
48.8644097201
 10
-0.7432402791
 20
48.8762780597
 10
-0.741827719
 20
48.8880925702
 10
-0.7398546126
 20
48.8998264916
 10
-0.7373254266
 20
48.9114532429
 10
-0.7342458866
 20
48.9229464831
 10
-0.7306229662
 20
48.9342801779
 10
-0.7264648707
 20
48.9454286534
 10
-0.7217810171
 20
48.9563666504
 10
-0.7165820137
 20
48.9670693917
 10
-0.7108796365
 20
48.9775126324
 10
-0.704686803
 20
48.98767271
 10
-0.6980175404
 20
48.9975266092
 10
-0.6908869556
 20
49.0070520079
 10
-0.6833112038
 20
49.0162273231
 10
-0.6753074454
 20
49.0250317702
 10
-0.666893811
 20
49.0334454046
 10
-0.658089364
 20
49.0414491629
 10
-0.6489140487
 20
49.0490249148
 10
-0.63938865
 20
49.0561554996
 10
-0.6295347508
 20
49.0628247622
 10
-0.6193746732
 20
49.0690175957
 10
-0.6089314325
 20
49.0747199729
 10
-0.5982286912
 20
49.0799189763
 10
-0.5872906942
 20
49.0846028299
 10
-0.5761422187
 20
49.0887609254
 10
-0.5648085239
 20
49.0923838458
 10
-0.5533152837
 20
49.0954633858
 10
-0.5416885324
 20
49.0979925718
 10
-0.529954611
 20
49.0999656782
 10
-0.5181401005
 20
49.1013782383
 10
-0.5062717609
 20
49.1022270538
 10
-0.4943764757
 20
49.1025102041
  0
LWPOLYLINE
  5
514
100
AcDbEntity
  8
RACCORDO
100
AcDbPolyline
 62
253
  6
CONTINUOUS
 90
31
 70
0
 10
-0.7400004109
 20
48.8481426009
 10
-0.7396572219
 20
48.861228955
 10
-0.7386294789
 20
48.8742794533
 10
-0.7369199958
 20
48.8872583107
 10
-0.734533453
 20
48.9001299504
 10
-0.7314763919
 20
48.9128590643
 10
-0.7277572024
 20
48.9254107118
 10
-0.7233860873
 20
48.9377504679
 10
-0.7183750318
 20
48.9498445051
 10
-0.7127377836
 20
48.9616596507
 10
-0.7064898044
 20
48.9731635065
 10
-0.6996482286
 20
48.9843245325
 10
-0.6922318217
 20
48.9951121228
 10
-0.6842609136
 20
49.0054967121
 10
-0.675757372
 20
49.0154498155
 10
-0.6667445529
 20
49.0249441087
 10
-0.6572472185
 20
49.0339535305
 10
-0.6472913813
 20
49.0424534274
 10
-0.6369042555
 20
49.0504205697
 10
-0.6261141763
 20
49.0578331997
 10
-0.6149508579
 20
49.0646708815
 10
-0.6034452574
 20
49.0709146832
 10
-0.5916291792
 20
49.0765474317
 10
-0.5795348231
 20
49.0815538617
 10
-0.5671950191
 20
49.0859204128
 10
-0.5546408346
 20
49.0896358525
 10
-0.5419093694
 20
49.0926889659
 10
-0.5290436506
 20
49.095070096
 10
-0.516081876
 20
49.0967737003
 10
-0.5030569817
 20
49.0977969629
 10
-0.4900046417
 20
49.0981383701
  0
LWPOLYLINE
  5
515
100
AcDbEntity
  8
RACCORDO
100
AcDbPolyline
 62
253
  6
CONTINUOUS
 90
31
 70
0
 10
-0.7400004109
 20
0.7581726368
 10
-0.7396218553
 20
0.7694706091
 10
-0.7385627277
 20
0.7807409131
 10
-0.7368253512
 20
0.7919527829
 10
-0.7344136498
 20
0.803076592
 10
-0.7313337795
 20
0.8140808441
 10
-0.7275947285
 20
0.8249323839
 10
-0.7232071841
 20
0.8356005069
 10
-0.7181827851
 20
0.8460571802
 10
-0.7125351045
 20
0.856274099
 10
-0.706279412
 20
0.8662235042
 10
-0.6994328374
 20
0.8758780287
 10
-0.6920142291
 20
0.8852110521
 10
-0.684043925
 20
0.8941970023
 10
-0.6755436302
 20
0.9028114215
 10
-0.6665365398
 20
0.9110307999
 10
-0.6570472361
 20
0.9188326965
 10
-0.647101649
 20
0.9261957848
 10
-0.6367269661
 20
0.9330999336
 10
-0.6259515337
 20
0.9395262802
 10
-0.6148047757
 20
0.9454572772
 10
-0.6033171387
 20
0.9508767245
 10
-0.5915199819
 20
0.9557698265
 10
-0.5794455455
 20
0.9601232096
 10
-0.5671268659
 20
0.963924967
 10
-0.5545976305
 20
0.9671647134
 10
-0.5418920277
 20
0.9698336199
 10
-0.5290447069
 20
0.9719244123
 10
-0.5160907396
 20
0.9734313822
 10
-0.5030655259
 20
0.9743504106
 10
-0.4900046417
 20
0.9746789877
  0
LINE
  5
516
100
AcDbEntity
  8
CURVE
100
AcDbLine
 62
7
  6
CONTINUOUS
 10
2.1295633524
 20
35.3927372041
 11
2.0789651372
 21
35.1215872041
  0
LINE
  5
517
100
AcDbEntity
  8
CURVE
100
AcDbLine
 62
7
  6
CONTINUOUS
 10
2.0789651372
 20
35.7137032041
 11
2.1118670914
 21
35.8380582041
  0
LINE
  5
518
100
AcDbEntity
  8
DRAFT
100
AcDbLine
 62
7
  6
CONTINUOUS
 10
-13.3943722449
 20
2.2025102041
 11
-13.3503049776
 21
2.2686120372
  0
LINE
  5
519
100
AcDbEntity
  8
SMUSSO
100
AcDbLine
 62
7
  6
CONTINUOUS
 10
-13.7443722449
 20
8.3525102041
 11
-13.2443722449
 21
8.8525102041
  0
LINE
  5
51A
100
AcDbEntity
  8
ASSI
100
AcDbLine
 62
7
  6
CONTINUOUS
 10
-13.7443722449
 20
8.3525102041
 11
-13.2443722449
 21
8.8525102041
  0
LINE
  5
51B
100
AcDbEntity
  8
SMUSSO
100
AcDbLine
 62
7
  6
CONTINUOUS
 10
-8.7443722449
 20
12.8525102041
 11
-9.2443722449
 21
12.3525102041
  0
LINE
  5
51C
100
AcDbEntity
  8
ASSI
100
AcDbLine
 62
7
  6
CONTINUOUS
 10
-8.7443722449
 20
12.8525102041
 11
-9.2443722449
 21
12.3525102041
  0
LINE
  5
51D
100
AcDbEntity
  8
CURVE
100
AcDbLine
 62
253
  6
CONTINUOUS
 10
-19.2943722449
 20
13.8882244012
 11
-17.9943722449
 21
14.2596531055
  0
LINE
  5
51E
100
AcDbEntity
  8
CURVE
100
AcDbLine
 62
253
  6
CONTINUOUS
 10
2.0613847603
 20
32.2223910162
 11
2.038696632
 21
32.2223910162
  0
LINE
  5
51F
100
AcDbEntity
  8
CURVE
100
AcDbLine
 62
7
  6
CONTINUOUS
 10
2.1289721958
 20
32.4640775484
 11
2.0789651311
 21
32.4640775484
  0
LINE
  5
520
100
AcDbEntity
  8
CURVE
100
AcDbLine
 62
253
  6
CONTINUOUS
 10
2.038696632
 20
32.9281055543
 11
2.0613847603
 21
32.9281055543
  0
LINE
  5
521
100
AcDbEntity
  8
CURVE
100
AcDbLine
 62
253
  6
CONTINUOUS
 10
-5.737229421
 20
33.0739389083
 11
-6.2943722449
 21
33.0739389083
  0
LINE
  5
522
100
AcDbEntity
  8
CURVE
100
AcDbLine
 62
253
  6
CONTINUOUS
 10
2.0613847603
 20
33.2809625289
 11
2.038696632
 21
33.2809625289
  0
LINE
  5
523
100
AcDbEntity
  8
CURVE
100
AcDbLine
 62
253
  6
CONTINUOUS
 10
-1.8300865195
 20
33.6001292369
 11
-2.1086579703
 21
33.6001292369
  0
LINE
  5
524
100
AcDbEntity
  8
CURVE
100
AcDbLine
 62
253
  6
CONTINUOUS
 10
-1.0872293919
 20
33.6310814998
 11
-1.5515151076
 21
33.6310814998
  0
LINE
  5
525
100
AcDbEntity
  8
CURVE
100
AcDbLine
 62
253
  6
CONTINUOUS
 10
-5.1800865389
 20
33.6310814998
 11
-5.5515151076
 21
33.6310814998
  0
LINE
  5
526
100
AcDbEntity
  8
CURVE
100
AcDbLine
 62
253
  6
CONTINUOUS
 10
-5.3658008329
 20
31.7739387534
 11
-5.1800865389
 21
31.6810816548
  0
LINE
  5
527
100
AcDbEntity
  8
CURVE
100
AcDbLine
 62
253
  6
CONTINUOUS
 10
-1.9229436956
 20
31.1239387534
 11
-2.1086579703
 21
31.2167959294
  0
LINE
  5
528
100
AcDbEntity
  8
CURVE
100
AcDbLine
 62
253
  6
CONTINUOUS
 10
-5.1800865389
 20
31.6810816548
 11
-4.9943722449
 21
31.4953673027
  0
LINE
  5
529
100
AcDbEntity
  8
CURVE
100
AcDbLine
 62
253
  6
CONTINUOUS
 10
-6.1086579703
 20
34.0953673027
 11
-6.2943722449
 21
34.2810814998
  0
LINE
  5
52A
100
AcDbEntity
  8
CURVE
100
AcDbLine
 62
253
  6
CONTINUOUS
 10
-4.9943722449
 20
33.4453673027
 11
-5.1800865389
 21
33.6310814998
  0
LINE
  5
52B
100
AcDbEntity
  8
DRAFT
100
AcDbLine
 62
7
  6
CONTINUOUS
 10
-13.3943722449
 20
47.0025102041
 11
-13.3503049776
 21
46.936408371
  0
LINE
  5
52C
100
AcDbEntity
  8
CURVE
100
AcDbLine
 62
253
  6
CONTINUOUS
 10
2.0458022547
 20
17.9167958698
 11
2.0718562042
 21
17.5096530936
  0
LINE
  5
52D
100
AcDbEntity
  8
CURVE
100
AcDbLine
 62
253
  6
CONTINUOUS
 10
2.0718562042
 20
13.0310817621
 11
2.038696632
 21
13.5739386461
  0
LINE
  5
52E
100
AcDbEntity
  8
CURVE
100
AcDbLine
 62
7
  6
CONTINUOUS
 10
2.0979603749
 20
9.4260192041
 11
2.1197569428
 21
8.9960612041
  0
LINE
  5
52F
100
AcDbEntity
  8
CURVE
100
AcDbLine
 62
7
  6
CONTINUOUS
 10
2.0979603749
 20
15.4510542041
 11
2.1197598045
 21
15.0210392041
  0
LINE
  5
530
100
AcDbEntity
  8
CURVE
100
AcDbLine
 62
7
  6
CONTINUOUS
 10
2.0788254694
 20
9.8036212041
 11
2.0895507653
 21
9.5866642041
  0
LINE
  5
531
100
AcDbEntity
  8
CURVE
100
AcDbLine
 62
7
  6
CONTINUOUS
 10
2.0788254694
 20
15.8285462041
 11
2.0895507653
 21
15.6116982041
  0
LINE
  5
532
100
AcDbEntity
  8
CURVE
100
AcDbLine
 62
7
  6
CONTINUOUS
 10
2.1294297571
 20
9.3496262041
 11
2.0788254694
 21
10.3980702041
  0
LINE
  5
533
100
AcDbEntity
  8
CURVE
100
AcDbLine
 62
7
  6
CONTINUOUS
 10
2.1294297571
 20
15.3746612041
 11
2.0788254694
 21
16.4229962041
  0
LWPOLYLINE
  5
534
100
AcDbEntity
  8
CURVE
100
AcDbPolyline
 62
7
  6
CONTINUOUS
 90
15
 70
0
 10
2.1070543118
 20
18.8890326979
 10
2.1075161782
 20
18.878741376
 10
2.1079845926
 20
18.869415791
 10
2.1084588816
 20
18.8610233801
 10
2.1089383718
 20
18.8535315806
 10
2.1094223901
 20
18.8469078297
 10
2.1099102631
 20
18.8411195647
 10
2.1104013174
 20
18.8361342227
 10
2.1108948798
 20
18.8319192411
 10
2.1113902769
 20
18.8284420571
 10
2.1118868354
 20
18.8256701078
 10
2.112383882
 20
18.8235708307
 10
2.1128807434
 20
18.8221116628
 10
2.1133767463
 20
18.8212600414
 10
2.1138712174
 20
18.8209834037
  0
LINE
  5
535
100
AcDbEntity
  8
CURVE
100
AcDbLine
 62
7
  6
CONTINUOUS
 10
2.1107252028
 20
19.5101960662
 11
2.1103271981
 21
19.519154539
  0
LINE
  5
536
100
AcDbEntity
  8
CURVE
100
AcDbLine
 62
7
  6
CONTINUOUS
 10
2.1061779671
 20
18.911912538
 11
2.1070543118
 21
18.8890326979
  0
LINE
  5
537
100
AcDbEntity
  8
CURVE
100
AcDbLine
 62
7
  6
CONTINUOUS
 10
2.1103271981
 20
19.519154539
 11
2.1099393289
 21
19.5295437429
  0
LINE
  5
538
100
AcDbEntity
  8
CURVE
100
AcDbLine
 62
253
  6
CONTINUOUS
 10
2.0481707959
 20
7.8739386461
 11
2.0434337139
 21
8.0096533201
  0
LINE
  5
539
100
AcDbEntity
  8
CURVE
100
AcDbLine
 62
253
  6
CONTINUOUS
 10
2.0623820413
 20
8.8239386461
 11
2.0671191227
 21
8.6882248781
  0
LWPOLYLINE
  5
53A
100
AcDbEntity
  8
RACCORDO
100
AcDbPolyline
 62
253
  6
CONTINUOUS
 90
31
 70
0
 10
1.6512559211
 20
0.7581726368
 10
1.6508773655
 20
0.7694706091
 10
1.6498182379
 20
0.7807409131
 10
1.6480808614
 20
0.7919527829
 10
1.64566916
 20
0.803076592
 10
1.6425892897
 20
0.8140808441
 10
1.6388502387
 20
0.8249323839
 10
1.6344626943
 20
0.8356005069
 10
1.6294382953
 20
0.8460571802
 10
1.6237906147
 20
0.856274099
 10
1.6175349222
 20
0.8662235042
 10
1.6106883476
 20
0.8758780287
 10
1.6032697393
 20
0.8852110521
 10
1.5952994352
 20
0.8941970023
 10
1.5867991404
 20
0.9028114215
 10
1.57779205
 20
0.9110307999
 10
1.5683027463
 20
0.9188326965
 10
1.5583571592
 20
0.9261957848
 10
1.5479824763
 20
0.9330999336
 10
1.5372070439
 20
0.9395262802
 10
1.5260602859
 20
0.9454572772
 10
1.5145726489
 20
0.9508767245
 10
1.5027754922
 20
0.9557698265
 10
1.4907010557
 20
0.9601232096
 10
1.4783823761
 20
0.963924967
 10
1.4658531407
 20
0.9671647134
 10
1.4531475379
 20
0.9698336199
 10
1.4403002171
 20
0.9719244123
 10
1.4273462498
 20
0.9734313822
 10
1.4143210361
 20
0.9743504106
 10
1.4012601519
 20
0.9746789877
  0
LINE
  5
53B
100
AcDbEntity
  8
CURVE
100
AcDbLine
 62
7
  6
CONTINUOUS
 10
2.1053588636
 20
18.937803206
 11
2.1061779671
 21
18.911912538
  0
LINE
  5
53C
100
AcDbEntity
  8
CURVE
100
AcDbLine
 62
7
  6
CONTINUOUS
 10
2.1099393289
 20
19.5295437429
 11
2.1094195321
 21
19.5462558833
  0
LINE
  5
53D
100
AcDbEntity
  8
CURVE
100
AcDbLine
 62
253
  6
CONTINUOUS
 10
2.0718562042
 20
10.0453670881
 11
2.064750581
 21
10.3167955301
  0
LINE
  5
53E
100
AcDbEntity
  8
CURVE
100
AcDbLine
 62
253
  6
CONTINUOUS
 10
2.0516612773
 20
22.7787005476
 11
2.0613847603
 21
22.4072721533
  0
LINE
  5
53F
100
AcDbEntity
  8
CURVE
100
AcDbLine
 62
253
  6
CONTINUOUS
 10
2.038696632
 20
10.3167955301
 11
2.0623820413
 21
9.3667955301
  0
LINE
  5
540
100
AcDbEntity
  8
CURVE
100
AcDbLine
 62
7
  6
CONTINUOUS
 10
2.1094195321
 20
19.5462558833
 11
2.1090045513
 21
19.5623699613
  0
LINE
  5
541
100
AcDbEntity
  8
CURVE
100
AcDbLine
 62
7
  6
CONTINUOUS
 10
2.1042029907
 20
18.9832540285
 11
2.1053588636
 21
18.937803206
  0
LINE
  5
542
100
AcDbEntity
  8
CURVE
100
AcDbLine
 62
7
  6
CONTINUOUS
 10
2.1090045513
 20
19.5623699613
 11
2.1086185225
 21
19.5805740988
  0
LINE
  5
543
100
AcDbEntity
  8
ASSI
100
AcDbLine
 62
7
  6
CONTINUOUS
 10
1.9561284817
 20
8.3353726572
 11
1.9547288418
 21
8.4064669524
  0
LINE
  5
544
100
AcDbEntity
  8
ASSI
100
AcDbLine
 62
7
  6
CONTINUOUS
 10
1.9561284817
 20
13.3353726572
 11
1.9547288418
 21
13.4064669524
  0
LINE
  5
545
100
AcDbEntity
  8
ASSI
100
AcDbLine
 62
7
  6
CONTINUOUS
 10
1.9561284817
 20
18.3353726572
 11
1.9547288418
 21
18.4064669524
  0
LINE
  5
546
100
AcDbEntity
  8
ASSI
100
AcDbLine
 62
7
  6
CONTINUOUS
 10
1.9561284817
 20
23.3353726572
 11
1.9547288418
 21
23.4064669524
  0
LINE
  5
547
100
AcDbEntity
  8
RACCORDO
100
AcDbLine
 62
7
  6
CONTINUOUS
 10
1.9561289613
 20
8.3353720659
 11
1.9545018895
 21
8.4193314224
  0
LINE
  5
548
100
AcDbEntity
  8
RACCORDO
100
AcDbLine
 62
7
  6
CONTINUOUS
 10
1.9561289613
 20
13.3353720659
 11
1.9545018895
 21
13.4193314224
  0
LINE
  5
549
100
AcDbEntity
  8
RACCORDO
100
AcDbLine
 62
7
  6
CONTINUOUS
 10
1.9561289613
 20
18.3353720659
 11
1.9545018895
 21
18.4193314224
  0
LINE
  5
54A
100
AcDbEntity
  8
RACCORDO
100
AcDbLine
 62
7
  6
CONTINUOUS
 10
1.9561289613
 20
23.3353720659
 11
1.9545018895
 21
23.4193314224
  0
LINE
  5
54B
100
AcDbEntity
  8
CURVE
100
AcDbLine
 62
253
  6
CONTINUOUS
 10
2.0671191227
 20
8.6882248781
 11
2.0718562042
 21
8.4167955301
  0
LINE
  5
54C
100
AcDbEntity
  8
CURVE
100
AcDbLine
 62
253
  6
CONTINUOUS
 10
2.0623820413
 20
11.4025102041
 11
2.0718562042
 21
10.8596533201
  0
LINE
  5
54D
100
AcDbEntity
  8
CURVE
100
AcDbLine
 62
253
  6
CONTINUOUS
 10
2.0623820413
 20
16.4239388726
 11
2.0718562042
 21
15.8810815356
  0
LINE
  5
54E
100
AcDbEntity
  8
CURVE
100
AcDbLine
 62
253
  6
CONTINUOUS
 10
2.0623820413
 20
19.0025102041
 11
2.0718562042
 21
18.459653037
  0
LWPOLYLINE
  5
54F
100
AcDbEntity
  8
CURVE
100
AcDbPolyline
 62
7
  6
CONTINUOUS
 90
3
 70
0
 10
2.1028297701
 20
19.0557377946
 10
2.1031532715
 20
19.0363975475
 10
2.1042029907
 20
18.9832540285
  0
LWPOLYLINE
  5
550
100
AcDbEntity
  8
RACCORDO
100
AcDbPolyline
 62
253
  6
CONTINUOUS
 90
10
 70
0
 10
1.6515467743
 20
8.8667594892
 10
1.6527783101
 20
8.7825946276
 10
1.6540721045
 20
8.7072004093
 10
1.6554106276
 20
8.6409388277
 10
1.6567947876
 20
8.5841699393
 10
1.6582236762
 20
8.5372263042
 10
1.6596770382
 20
8.5003808114
 10
1.6611481219
 20
8.4738652546
 10
1.662643679
 20
8.4578644232
 10
1.6641637096
 20
8.4525102041
  0
LWPOLYLINE
  5
551
100
AcDbEntity
  8
ASSI
100
AcDbPolyline
 62
253
  6
CONTINUOUS
 90
10
 70
0
 10
1.6515467743
 20
8.8667594892
 10
1.6527783101
 20
8.7825946276
 10
1.6540721045
 20
8.7072004093
 10
1.6554106276
 20
8.6409388277
 10
1.6567947876
 20
8.5841699393
 10
1.6582236762
 20
8.5372263042
 10
1.6596770382
 20
8.5003808114
 10
1.6611481219
 20
8.4738652546
 10
1.662643679
 20
8.4578644232
 10
1.6641637096
 20
8.4525102041
  0
LWPOLYLINE
  5
552
100
AcDbEntity
  8
RACCORDO
100
AcDbPolyline
 62
253
  6
CONTINUOUS
 90
10
 70
0
 10
1.6515467743
 20
13.8667594892
 10
1.6527783101
 20
13.7825946276
 10
1.6540721045
 20
13.7072004093
 10
1.6554106276
 20
13.6409388277
 10
1.6567947876
 20
13.5841699393
 10
1.6582236762
 20
13.5372263042
 10
1.6596770382
 20
13.5003808114
 10
1.6611481219
 20
13.4738652546
 10
1.662643679
 20
13.4578644232
 10
1.6641637096
 20
13.4525102041
  0
LWPOLYLINE
  5
553
100
AcDbEntity
  8
ASSI
100
AcDbPolyline
 62
253
  6
CONTINUOUS
 90
10
 70
0
 10
1.6515467743
 20
13.8667594892
 10
1.6527783101
 20
13.7825946276
 10
1.6540721045
 20
13.7072004093
 10
1.6554106276
 20
13.6409388277
 10
1.6567947876
 20
13.5841699393
 10
1.6582236762
 20
13.5372263042
 10
1.6596770382
 20
13.5003808114
 10
1.6611481219
 20
13.4738652546
 10
1.662643679
 20
13.4578644232
 10
1.6641637096
 20
13.4525102041
  0
LWPOLYLINE
  5
554
100
AcDbEntity
  8
RACCORDO
100
AcDbPolyline
 62
253
  6
CONTINUOUS
 90
10
 70
0
 10
1.6515467743
 20
18.8667594892
 10
1.6527783101
 20
18.7825946276
 10
1.6540721045
 20
18.7072004093
 10
1.6554106276
 20
18.6409388277
 10
1.6567947876
 20
18.5841699393
 10
1.6582236762
 20
18.5372263042
 10
1.6596770382
 20
18.5003808114
 10
1.6611481219
 20
18.4738652546
 10
1.662643679
 20
18.4578644232
 10
1.6641637096
 20
18.4525102041
  0
LWPOLYLINE
  5
555
100
AcDbEntity
  8
ASSI
100
AcDbPolyline
 62
253
  6
CONTINUOUS
 90
10
 70
0
 10
1.6515467743
 20
18.8667594892
 10
1.6527783101
 20
18.7825946276
 10
1.6540721045
 20
18.7072004093
 10
1.6554106276
 20
18.6409388277
 10
1.6567947876
 20
18.5841699393
 10
1.6582236762
 20
18.5372263042
 10
1.6596770382
 20
18.5003808114
 10
1.6611481219
 20
18.4738652546
 10
1.662643679
 20
18.4578644232
 10
1.6641637096
 20
18.4525102041
  0
LWPOLYLINE
  5
556
100
AcDbEntity
  8
RACCORDO
100
AcDbPolyline
 62
253
  6
CONTINUOUS
 90
10
 70
0
 10
1.6515467743
 20
23.8667594892
 10
1.6527783101
 20
23.7825946276
 10
1.6540721045
 20
23.7072004093
 10
1.6554106276
 20
23.6409388277
 10
1.6567947876
 20
23.5841699393
 10
1.6582236762
 20
23.5372263042
 10
1.6596770382
 20
23.5003808114
 10
1.6611481219
 20
23.4738652546
 10
1.662643679
 20
23.4578644232
 10
1.6641637096
 20
23.4525102041
  0
LWPOLYLINE
  5
557
100
AcDbEntity
  8
ASSI
100
AcDbPolyline
 62
253
  6
CONTINUOUS
 90
10
 70
0
 10
1.6515467743
 20
23.8667594892
 10
1.6527783101
 20
23.7825946276
 10
1.6540721045
 20
23.7072004093
 10
1.6554106276
 20
23.6409388277
 10
1.6567947876
 20
23.5841699393
 10
1.6582236762
 20
23.5372263042
 10
1.6596770382
 20
23.5003808114
 10
1.6611481219
 20
23.4738652546
 10
1.662643679
 20
23.4578644232
 10
1.6641637096
 20
23.4525102041
  0
LINE
  5
558
100
AcDbEntity
  8
ASSI
100
AcDbLine
 62
7
  6
CONTINUOUS
 10
1.9547288418
 20
8.4064669524
 11
1.953102034
 21
8.5078301292
  0
LINE
  5
559
100
AcDbEntity
  8
ASSI
100
AcDbLine
 62
7
  6
CONTINUOUS
 10
1.9547288418
 20
13.4064669524
 11
1.953102034
 21
13.5078301292
  0
LINE
  5
55A
100
AcDbEntity
  8
ASSI
100
AcDbLine
 62
7
  6
CONTINUOUS
 10
1.9547288418
 20
18.4064669524
 11
1.953102034
 21
18.5078301292
  0
LINE
  5
55B
100
AcDbEntity
  8
ASSI
100
AcDbLine
 62
7
  6
CONTINUOUS
 10
1.9547288418
 20
23.4064669524
 11
1.953102034
 21
23.5078301292
  0
LINE
  5
55C
100
AcDbEntity
  8
RACCORDO
100
AcDbLine
 62
7
  6
CONTINUOUS
 10
1.9545018895
 20
8.4193314224
 11
1.9529331004
 21
8.5196376121
  0
LINE
  5
55D
100
AcDbEntity
  8
RACCORDO
100
AcDbLine
 62
7
  6
CONTINUOUS
 10
1.9545018895
 20
13.4193314224
 11
1.9529331004
 21
13.5196376121
  0
LINE
  5
55E
100
AcDbEntity
  8
RACCORDO
100
AcDbLine
 62
7
  6
CONTINUOUS
 10
1.9545018895
 20
18.4193314224
 11
1.9529331004
 21
18.5196376121
  0
LINE
  5
55F
100
AcDbEntity
  8
RACCORDO
100
AcDbLine
 62
7
  6
CONTINUOUS
 10
1.9545018895
 20
23.4193314224
 11
1.9529331004
 21
23.5196376121
  0
LINE
  5
560
100
AcDbEntity
  8
ASSI
100
AcDbLine
 62
7
  6
CONTINUOUS
 10
1.953102034
 20
8.5078301292
 11
1.951497321
 21
8.6304823534
  0
LINE
  5
561
100
AcDbEntity
  8
ASSI
100
AcDbLine
 62
7
  6
CONTINUOUS
 10
1.953102034
 20
13.5078301292
 11
1.951497321
 21
13.6304823534
  0
LINE
  5
562
100
AcDbEntity
  8
ASSI
100
AcDbLine
 62
7
  6
CONTINUOUS
 10
1.953102034
 20
18.5078301292
 11
1.951497321
 21
18.6304823534
  0
LINE
  5
563
100
AcDbEntity
  8
ASSI
100
AcDbLine
 62
7
  6
CONTINUOUS
 10
1.953102034
 20
23.5078301292
 11
1.951497321
 21
23.6304823534
  0
LINE
  5
564
100
AcDbEntity
  8
RACCORDO
100
AcDbLine
 62
7
  6
CONTINUOUS
 10
1.9529331004
 20
8.5196376121
 11
1.9511709403
 21
8.6584115882
  0
LINE
  5
565
100
AcDbEntity
  8
RACCORDO
100
AcDbLine
 62
7
  6
CONTINUOUS
 10
1.9529331004
 20
13.5196376121
 11
1.9511709403
 21
13.6584115882
  0
LINE
  5
566
100
AcDbEntity
  8
RACCORDO
100
AcDbLine
 62
7
  6
CONTINUOUS
 10
1.9529331004
 20
18.5196376121
 11
1.9511709403
 21
18.6584115882
  0
LINE
  5
567
100
AcDbEntity
  8
RACCORDO
100
AcDbLine
 62
7
  6
CONTINUOUS
 10
1.9529331004
 20
23.5196376121
 11
1.9511709403
 21
23.6584115882
  0
LINE
  5
568
100
AcDbEntity
  8
RACCORDO
100
AcDbLine
 62
253
  6
CONTINUOUS
 10
1.6492722744
 20
9.0596147735
 11
1.6515467743
 21
8.8667594892
  0
LINE
  5
569
100
AcDbEntity
  8
ASSI
100
AcDbLine
 62
253
  6
CONTINUOUS
 10
1.6492722744
 20
9.0596147735
 11
1.6515467743
 21
8.8667594892
  0
LINE
  5
56A
100
AcDbEntity
  8
RACCORDO
100
AcDbLine
 62
253
  6
CONTINUOUS
 10
1.6492722744
 20
14.0596147735
 11
1.6515467743
 21
13.8667594892
  0
LINE
  5
56B
100
AcDbEntity
  8
ASSI
100
AcDbLine
 62
253
  6
CONTINUOUS
 10
1.6492722744
 20
14.0596147735
 11
1.6515467743
 21
13.8667594892
  0
LINE
  5
56C
100
AcDbEntity
  8
RACCORDO
100
AcDbLine
 62
253
  6
CONTINUOUS
 10
1.6492722744
 20
19.0596147735
 11
1.6515467743
 21
18.8667594892
  0
LINE
  5
56D
100
AcDbEntity
  8
ASSI
100
AcDbLine
 62
253
  6
CONTINUOUS
 10
1.6492722744
 20
19.0596147735
 11
1.6515467743
 21
18.8667594892
  0
LINE
  5
56E
100
AcDbEntity
  8
RACCORDO
100
AcDbLine
 62
253
  6
CONTINUOUS
 10
1.6492722744
 20
24.0596147735
 11
1.6515467743
 21
23.8667594892
  0
LINE
  5
56F
100
AcDbEntity
  8
ASSI
100
AcDbLine
 62
253
  6
CONTINUOUS
 10
1.6492722744
 20
24.0596147735
 11
1.6515467743
 21
23.8667594892
  0
LINE
  5
570
100
AcDbEntity
  8
CURVE
100
AcDbLine
 62
253
  6
CONTINUOUS
 10
2.0576449598
 20
14.7953675411
 11
2.0600134996
 21
14.5691770217
  0
LINE
  5
571
100
AcDbEntity
  8
RACCORDO
100
AcDbLine
 62
253
  6
CONTINUOUS
 10
1.4012601519
 20
48.2303414204
 11
1.406350753
 21
47.7251599349
  0
LINE
  5
572
100
AcDbEntity
  8
RACCORDO
100
AcDbLine
 62
253
  6
CONTINUOUS
 10
1.6512559211
 20
48.4468477714
 11
1.6556277551
 21
48.0129953523
  0
LINE
  5
573
100
AcDbEntity
  8
ASSI
100
AcDbLine
 62
7
  6
CONTINUOUS
 10
1.951497321
 20
8.6304823534
 11
1.9499411424
 21
8.7743723061
  0
LINE
  5
574
100
AcDbEntity
  8
ASSI
100
AcDbLine
 62
7
  6
CONTINUOUS
 10
1.951497321
 20
13.6304823534
 11
1.9499411424
 21
13.7743723061
  0
LINE
  5
575
100
AcDbEntity
  8
ASSI
100
AcDbLine
 62
7
  6
CONTINUOUS
 10
1.951497321
 20
18.6304823534
 11
1.9499411424
 21
18.7743723061
  0
LINE
  5
576
100
AcDbEntity
  8
ASSI
100
AcDbLine
 62
7
  6
CONTINUOUS
 10
1.951497321
 20
23.6304823534
 11
1.9499411424
 21
23.7743723061
  0
LINE
  5
577
100
AcDbEntity
  8
RACCORDO
100
AcDbLine
 62
7
  6
CONTINUOUS
 10
1.9511709403
 20
8.6584115882
 11
1.9494798901
 21
8.8228246551
  0
LINE
  5
578
100
AcDbEntity
  8
RACCORDO
100
AcDbLine
 62
7
  6
CONTINUOUS
 10
1.9511709403
 20
13.6584115882
 11
1.9494798901
 21
13.8228246551
  0
LINE
  5
579
100
AcDbEntity
  8
RACCORDO
100
AcDbLine
 62
7
  6
CONTINUOUS
 10
1.9511709403
 20
18.6584115882
 11
1.9494798901
 21
18.8228246551
  0
LINE
  5
57A
100
AcDbEntity
  8
RACCORDO
100
AcDbLine
 62
7
  6
CONTINUOUS
 10
1.9511709403
 20
23.6584115882
 11
1.9494798901
 21
23.8228246551
  0
LINE
  5
57B
100
AcDbEntity
  8
RACCORDO
100
AcDbLine
 62
253
  6
CONTINUOUS
 10
1.6472922763
 20
9.2820708503
 11
1.6492722744
 21
9.0596147735
  0
LINE
  5
57C
100
AcDbEntity
  8
ASSI
100
AcDbLine
 62
253
  6
CONTINUOUS
 10
1.6472922763
 20
9.2820708503
 11
1.6492722744
 21
9.0596147735
  0
LINE
  5
57D
100
AcDbEntity
  8
RACCORDO
100
AcDbLine
 62
253
  6
CONTINUOUS
 10
1.6472922763
 20
14.2820708503
 11
1.6492722744
 21
14.0596147735
  0
LINE
  5
57E
100
AcDbEntity
  8
ASSI
100
AcDbLine
 62
253
  6
CONTINUOUS
 10
1.6472922763
 20
14.2820708503
 11
1.6492722744
 21
14.0596147735
  0
LINE
  5
57F
100
AcDbEntity
  8
RACCORDO
100
AcDbLine
 62
253
  6
CONTINUOUS
 10
1.6472922763
 20
19.2820708503
 11
1.6492722744
 21
19.0596147735
  0
LINE
  5
580
100
AcDbEntity
  8
ASSI
100
AcDbLine
 62
253
  6
CONTINUOUS
 10
1.6472922763
 20
19.2820708503
 11
1.6492722744
 21
19.0596147735
  0
LINE
  5
581
100
AcDbEntity
  8
RACCORDO
100
AcDbLine
 62
253
  6
CONTINUOUS
 10
1.6472922763
 20
24.2820708503
 11
1.6492722744
 21
24.0596147735
  0
LINE
  5
582
100
AcDbEntity
  8
ASSI
100
AcDbLine
 62
253
  6
CONTINUOUS
 10
1.6472922763
 20
24.2820708503
 11
1.6492722744
 21
24.0596147735
  0
LINE
  5
583
100
AcDbEntity
  8
ASSI
100
AcDbLine
 62
7
  6
CONTINUOUS
 10
1.9499411424
 20
8.7743723061
 11
1.9482716666
 21
8.9646845669
  0
LINE
  5
584
100
AcDbEntity
  8
ASSI
100
AcDbLine
 62
7
  6
CONTINUOUS
 10
1.9499411424
 20
13.7743723061
 11
1.9482716666
 21
13.9646845669
  0
LINE
  5
585
100
AcDbEntity
  8
ASSI
100
AcDbLine
 62
7
  6
CONTINUOUS
 10
1.9499411424
 20
18.7743723061
 11
1.9482716666
 21
18.9646845669
  0
LINE
  5
586
100
AcDbEntity
  8
ASSI
100
AcDbLine
 62
7
  6
CONTINUOUS
 10
1.9499411424
 20
23.7743723061
 11
1.9482716666
 21
23.9646845669
  0
LINE
  5
587
100
AcDbEntity
  8
RACCORDO
100
AcDbLine
 62
7
  6
CONTINUOUS
 10
1.9494798901
 20
8.8228246551
 11
1.9479025583
 21
9.0127462772
  0
LINE
  5
588
100
AcDbEntity
  8
RACCORDO
100
AcDbLine
 62
7
  6
CONTINUOUS
 10
1.9494798901
 20
13.8228246551
 11
1.9479025583
 21
14.0127462772
  0
LINE
  5
589
100
AcDbEntity
  8
RACCORDO
100
AcDbLine
 62
7
  6
CONTINUOUS
 10
1.9494798901
 20
18.8228246551
 11
1.9479025583
 21
19.0127462772
  0
LINE
  5
58A
100
AcDbEntity
  8
RACCORDO
100
AcDbLine
 62
7
  6
CONTINUOUS
 10
1.9494798901
 20
23.8228246551
 11
1.9479025583
 21
24.0127462772
  0
LINE
  5
58B
100
AcDbEntity
  8
ASSI
100
AcDbLine
 62
7
  6
CONTINUOUS
 10
1.9482716666
 20
8.9646845669
 11
1.9467468651
 21
9.1818879548
  0
LINE
  5
58C
100
AcDbEntity
  8
ASSI
100
AcDbLine
 62
7
  6
CONTINUOUS
 10
1.9482716666
 20
13.9646845669
 11
1.9467468651
 21
14.1818879548
  0
LINE
  5
58D
100
AcDbEntity
  8
ASSI
100
AcDbLine
 62
7
  6
CONTINUOUS
 10
1.9482716666
 20
18.9646845669
 11
1.9467468651
 21
19.1818879548
  0
LINE
  5
58E
100
AcDbEntity
  8
ASSI
100
AcDbLine
 62
7
  6
CONTINUOUS
 10
1.9482716666
 20
23.9646845669
 11
1.9467468651
 21
24.1818879548
  0
LINE
  5
58F
100
AcDbEntity
  8
RACCORDO
100
AcDbLine
 62
253
  6
CONTINUOUS
 10
1.6456335821
 20
9.5299163442
 11
1.6472922763
 21
9.2820708503
  0
LINE
  5
590
100
AcDbEntity
  8
ASSI
100
AcDbLine
 62
253
  6
CONTINUOUS
 10
1.6456335821
 20
9.5299163442
 11
1.6472922763
 21
9.2820708503
  0
LINE
  5
591
100
AcDbEntity
  8
RACCORDO
100
AcDbLine
 62
253
  6
CONTINUOUS
 10
1.6456335821
 20
14.5299163442
 11
1.6472922763
 21
14.2820708503
  0
LINE
  5
592
100
AcDbEntity
  8
ASSI
100
AcDbLine
 62
253
  6
CONTINUOUS
 10
1.6456335821
 20
14.5299163442
 11
1.6472922763
 21
14.2820708503
  0
LINE
  5
593
100
AcDbEntity
  8
RACCORDO
100
AcDbLine
 62
253
  6
CONTINUOUS
 10
1.6456335821
 20
19.5299163442
 11
1.6472922763
 21
19.2820708503
  0
LINE
  5
594
100
AcDbEntity
  8
ASSI
100
AcDbLine
 62
253
  6
CONTINUOUS
 10
1.6456335821
 20
19.5299163442
 11
1.6472922763
 21
19.2820708503
  0
LINE
  5
595
100
AcDbEntity
  8
RACCORDO
100
AcDbLine
 62
253
  6
CONTINUOUS
 10
1.6456335821
 20
24.5299163442
 11
1.6472922763
 21
24.2820708503
  0
LINE
  5
596
100
AcDbEntity
  8
ASSI
100
AcDbLine
 62
253
  6
CONTINUOUS
 10
1.6456335821
 20
24.5299163442
 11
1.6472922763
 21
24.2820708503
  0
LINE
  5
597
100
AcDbEntity
  8
RACCORDO
100
AcDbLine
 62
7
  6
CONTINUOUS
 10
1.9479025583
 20
9.0127462772
 11
1.9464706577
 21
9.2274647127
  0
LINE
  5
598
100
AcDbEntity
  8
RACCORDO
100
AcDbLine
 62
7
  6
CONTINUOUS
 10
1.9479025583
 20
14.0127462772
 11
1.9464706577
 21
14.2274647127
  0
LINE
  5
599
100
AcDbEntity
  8
RACCORDO
100
AcDbLine
 62
7
  6
CONTINUOUS
 10
1.9479025583
 20
19.0127462772
 11
1.9464706577
 21
19.2274647127
  0
LINE
  5
59A
100
AcDbEntity
  8
RACCORDO
100
AcDbLine
 62
7
  6
CONTINUOUS
 10
1.9479025583
 20
24.0127462772
 11
1.9464706577
 21
24.2274647127
  0
LINE
  5
59B
100
AcDbEntity
  8
ASSI
100
AcDbLine
 62
7
  6
CONTINUOUS
 10
1.9467468651
 20
9.1818879548
 11
1.9454198137
 21
9.4244226454
  0
LINE
  5
59C
100
AcDbEntity
  8
ASSI
100
AcDbLine
 62
7
  6
CONTINUOUS
 10
1.9467468651
 20
14.1818879548
 11
1.9454198137
 21
14.4244226454
  0
LINE
  5
59D
100
AcDbEntity
  8
ASSI
100
AcDbLine
 62
7
  6
CONTINUOUS
 10
1.9467468651
 20
19.1818879548
 11
1.9454198137
 21
19.4244226454
  0
LINE
  5
59E
100
AcDbEntity
  8
ASSI
100
AcDbLine
 62
7
  6
CONTINUOUS
 10
1.9467468651
 20
24.1818879548
 11
1.9454198137
 21
24.4244226454
  0
LINE
  5
59F
100
AcDbEntity
  8
RACCORDO
100
AcDbLine
 62
7
  6
CONTINUOUS
 10
1.9464706577
 20
9.2274647127
 11
1.9453709995
 21
9.4346233601
  0
LINE
  5
5A0
100
AcDbEntity
  8
RACCORDO
100
AcDbLine
 62
7
  6
CONTINUOUS
 10
1.9464706577
 20
14.2274647127
 11
1.9453709995
 21
14.4346233601
  0
LINE
  5
5A1
100
AcDbEntity
  8
RACCORDO
100
AcDbLine
 62
7
  6
CONTINUOUS
 10
1.9464706577
 20
19.2274647127
 11
1.9453709995
 21
19.4346233601
  0
LINE
  5
5A2
100
AcDbEntity
  8
RACCORDO
100
AcDbLine
 62
7
  6
CONTINUOUS
 10
1.9464706577
 20
24.2274647127
 11
1.9452259982
 21
24.4656099365
  0
LINE
  5
5A3
100
AcDbEntity
  8
RACCORDO
100
AcDbLine
 62
253
  6
CONTINUOUS
 10
1.6443331287
 20
9.7986859314
 11
1.6456335821
 21
9.5299163442
  0
LINE
  5
5A4
100
AcDbEntity
  8
ASSI
100
AcDbLine
 62
253
  6
CONTINUOUS
 10
1.6443331287
 20
9.7986859314
 11
1.6456335821
 21
9.5299163442
  0
LINE
  5
5A5
100
AcDbEntity
  8
RACCORDO
100
AcDbLine
 62
253
  6
CONTINUOUS
 10
1.6443331287
 20
14.7986859314
 11
1.6456335821
 21
14.5299163442
  0
LINE
  5
5A6
100
AcDbEntity
  8
ASSI
100
AcDbLine
 62
253
  6
CONTINUOUS
 10
1.6443331287
 20
14.7986859314
 11
1.6456335821
 21
14.5299163442
  0
LINE
  5
5A7
100
AcDbEntity
  8
RACCORDO
100
AcDbLine
 62
253
  6
CONTINUOUS
 10
1.6443331287
 20
19.7986859314
 11
1.6456335821
 21
19.5299163442
  0
LINE
  5
5A8
100
AcDbEntity
  8
ASSI
100
AcDbLine
 62
253
  6
CONTINUOUS
 10
1.6443331287
 20
19.7986859314
 11
1.6456335821
 21
19.5299163442
  0
LINE
  5
5A9
100
AcDbEntity
  8
RACCORDO
100
AcDbLine
 62
253
  6
CONTINUOUS
 10
1.6443331287
 20
24.7986859314
 11
1.6456335821
 21
24.5299163442
  0
LINE
  5
5AA
100
AcDbEntity
  8
ASSI
100
AcDbLine
 62
253
  6
CONTINUOUS
 10
1.6443331287
 20
24.7986859314
 11
1.6456335821
 21
24.5299163442
  0
LINE
  5
5AB
100
AcDbEntity
  8
ASSI
100
AcDbLine
 62
7
  6
CONTINUOUS
 10
1.9454198137
 20
9.4244226454
 11
1.9443209206
 21
9.6899344689
  0
LINE
  5
5AC
100
AcDbEntity
  8
RACCORDO
100
AcDbLine
 62
7
  6
CONTINUOUS
 10
1.9453709995
 20
9.4346233601
 11
1.9443151401
 21
9.6915923144
  0
LINE
  5
5AD
100
AcDbEntity
  8
ASSI
100
AcDbLine
 62
7
  6
CONTINUOUS
 10
1.9454198137
 20
14.4244226454
 11
1.9443209206
 21
14.6899344689
  0
LINE
  5
5AE
100
AcDbEntity
  8
RACCORDO
100
AcDbLine
 62
7
  6
CONTINUOUS
 10
1.9453709995
 20
14.4346233601
 11
1.9443151401
 21
14.6915923144
  0
LINE
  5
5AF
100
AcDbEntity
  8
ASSI
100
AcDbLine
 62
7
  6
CONTINUOUS
 10
1.9454198137
 20
19.4244226454
 11
1.9443209206
 21
19.6899344689
  0
LINE
  5
5B0
100
AcDbEntity
  8
RACCORDO
100
AcDbLine
 62
7
  6
CONTINUOUS
 10
1.9453709995
 20
19.4346233601
 11
1.9443151401
 21
19.6915923144
  0
LINE
  5
5B1
100
AcDbEntity
  8
ASSI
100
AcDbLine
 62
7
  6
CONTINUOUS
 10
1.9454198137
 20
24.4244226454
 11
1.9443209206
 21
24.6899344689
  0
LINE
  5
5B2
100
AcDbEntity
  8
RACCORDO
100
AcDbLine
 62
7
  6
CONTINUOUS
 10
1.9452259982
 20
24.4656099365
 11
1.9442009505
 21
24.7251079381
  0
LINE
  5
5B3
100
AcDbEntity
  8
RACCORDO
100
AcDbLine
 62
7
  6
CONTINUOUS
 10
1.9443151401
 20
9.6915923144
 11
1.9440908047
 21
9.7589137663
  0
LINE
  5
5B4
100
AcDbEntity
  8
ASSI
100
AcDbLine
 62
7
  6
CONTINUOUS
 10
1.9443209206
 20
9.6899344689
 11
1.9440888088
 21
9.7595406167
  0
LINE
  5
5B5
100
AcDbEntity
  8
RACCORDO
100
AcDbLine
 62
7
  6
CONTINUOUS
 10
1.9443151401
 20
14.6915923144
 11
1.9440908047
 21
14.7589137663
  0
LINE
  5
5B6
100
AcDbEntity
  8
ASSI
100
AcDbLine
 62
7
  6
CONTINUOUS
 10
1.9443209206
 20
14.6899344689
 11
1.9440888088
 21
14.7595406167
  0
LINE
  5
5B7
100
AcDbEntity
  8
RACCORDO
100
AcDbLine
 62
7
  6
CONTINUOUS
 10
1.9443151401
 20
19.6915923144
 11
1.9440908047
 21
19.7589137663
  0
LINE
  5
5B8
100
AcDbEntity
  8
ASSI
100
AcDbLine
 62
7
  6
CONTINUOUS
 10
1.9443209206
 20
19.6899344689
 11
1.9440888088
 21
19.7595406167
  0
LINE
  5
5B9
100
AcDbEntity
  8
RACCORDO
100
AcDbLine
 62
253
  6
CONTINUOUS
 10
1.6434171862
 20
10.0832529385
 11
1.6443331287
 21
9.7986859314
  0
LINE
  5
5BA
100
AcDbEntity
  8
ASSI
100
AcDbLine
 62
253
  6
CONTINUOUS
 10
1.6434171862
 20
10.0832529385
 11
1.6443331287
 21
9.7986859314
  0
LINE
  5
5BB
100
AcDbEntity
  8
RACCORDO
100
AcDbLine
 62
253
  6
CONTINUOUS
 10
1.6434171862
 20
15.0832529385
 11
1.6443331287
 21
14.7986859314
  0
LINE
  5
5BC
100
AcDbEntity
  8
ASSI
100
AcDbLine
 62
253
  6
CONTINUOUS
 10
1.6434171862
 20
15.0832529385
 11
1.6443331287
 21
14.7986859314
  0
LINE
  5
5BD
100
AcDbEntity
  8
RACCORDO
100
AcDbLine
 62
253
  6
CONTINUOUS
 10
1.6434171862
 20
20.0832529385
 11
1.6443331287
 21
19.7986859314
  0
LINE
  5
5BE
100
AcDbEntity
  8
ASSI
100
AcDbLine
 62
253
  6
CONTINUOUS
 10
1.6434171862
 20
20.0832529385
 11
1.6443331287
 21
19.7986859314
  0
LINE
  5
5BF
100
AcDbEntity
  8
RACCORDO
100
AcDbLine
 62
253
  6
CONTINUOUS
 10
1.6434171862
 20
25.0832529385
 11
1.6443331287
 21
24.7986859314
  0
LINE
  5
5C0
100
AcDbEntity
  8
ASSI
100
AcDbLine
 62
253
  6
CONTINUOUS
 10
1.6434171862
 20
25.0832529385
 11
1.6443331287
 21
24.7986859314
  0
LINE
  5
5C1
100
AcDbEntity
  8
RACCORDO
100
AcDbLine
 62
7
  6
CONTINUOUS
 10
1.9440908047
 20
9.7589137663
 11
1.9436893549
 21
9.8969140567
  0
LINE
  5
5C2
100
AcDbEntity
  8
RACCORDO
100
AcDbLine
 62
7
  6
CONTINUOUS
 10
1.9440908047
 20
14.7589137663
 11
1.9436893549
 21
14.8969140567
  0
LINE
  5
5C3
100
AcDbEntity
  8
RACCORDO
100
AcDbLine
 62
7
  6
CONTINUOUS
 10
1.9440908047
 20
19.7589137663
 11
1.9436893549
 21
19.8969140567
  0
LINE
  5
5C4
100
AcDbEntity
  8
ASSI
100
AcDbLine
 62
7
  6
CONTINUOUS
 10
1.9440888088
 20
9.7595406167
 11
1.9435826809
 21
9.9385605512
  0
LINE
  5
5C5
100
AcDbEntity
  8
ASSI
100
AcDbLine
 62
7
  6
CONTINUOUS
 10
1.9440888088
 20
14.7595406167
 11
1.9435826809
 21
14.9385605512
  0
LINE
  5
5C6
100
AcDbEntity
  8
ASSI
100
AcDbLine
 62
7
  6
CONTINUOUS
 10
1.9440888088
 20
19.7595406167
 11
1.9435826809
 21
19.9385605512
  0
LINE
  5
5C7
100
AcDbEntity
  8
RACCORDO
100
AcDbLine
 62
7
  6
CONTINUOUS
 10
1.9436893549
 20
9.8969140567
 11
1.943214693
 21
10.1110673187
  0
LINE
  5
5C8
100
AcDbEntity
  8
RACCORDO
100
AcDbLine
 62
7
  6
CONTINUOUS
 10
1.9436893549
 20
14.8969140567
 11
1.943214693
 21
15.1110673187
  0
LINE
  5
5C9
100
AcDbEntity
  8
RACCORDO
100
AcDbLine
 62
7
  6
CONTINUOUS
 10
1.9436893549
 20
19.8969140567
 11
1.943214693
 21
20.1110673187
  0
LINE
  5
5CA
100
AcDbEntity
  8
RACCORDO
100
AcDbLine
 62
7
  6
CONTINUOUS
 10
1.9442009505
 20
24.7251079381
 11
1.9431523594
 21
25.147430369
  0
LINE
  5
5CB
100
AcDbEntity
  8
RACCORDO
100
AcDbLine
 62
253
  6
CONTINUOUS
 10
1.642899614
 20
10.378153247
 11
1.6434171862
 21
10.0832529385
  0
LINE
  5
5CC
100
AcDbEntity
  8
ASSI
100
AcDbLine
 62
253
  6
CONTINUOUS
 10
1.642899614
 20
10.378153247
 11
1.6434171862
 21
10.0832529385
  0
LINE
  5
5CD
100
AcDbEntity
  8
RACCORDO
100
AcDbLine
 62
253
  6
CONTINUOUS
 10
1.642899614
 20
15.378153247
 11
1.6434171862
 21
15.0832529385
  0
LINE
  5
5CE
100
AcDbEntity
  8
ASSI
100
AcDbLine
 62
253
  6
CONTINUOUS
 10
1.642899614
 20
15.378153247
 11
1.6434171862
 21
15.0832529385
  0
LINE
  5
5CF
100
AcDbEntity
  8
RACCORDO
100
AcDbLine
 62
253
  6
CONTINUOUS
 10
1.642899614
 20
20.378153247
 11
1.6434171862
 21
20.0832529385
  0
LINE
  5
5D0
100
AcDbEntity
  8
ASSI
100
AcDbLine
 62
253
  6
CONTINUOUS
 10
1.642899614
 20
20.378153247
 11
1.6434171862
 21
20.0832529385
  0
LINE
  5
5D1
100
AcDbEntity
  8
RACCORDO
100
AcDbLine
 62
253
  6
CONTINUOUS
 10
1.642899614
 20
25.378153247
 11
1.6434171862
 21
25.0832529385
  0
LINE
  5
5D2
100
AcDbEntity
  8
ASSI
100
AcDbLine
 62
253
  6
CONTINUOUS
 10
1.642899614
 20
25.378153247
 11
1.6434171862
 21
25.0832529385
  0
LINE
  5
5D3
100
AcDbEntity
  8
ASSI
100
AcDbLine
 62
7
  6
CONTINUOUS
 10
1.9435826809
 20
9.9385605512
 11
1.9430731174
 21
10.1988131603
  0
LINE
  5
5D4
100
AcDbEntity
  8
ASSI
100
AcDbLine
 62
7
  6
CONTINUOUS
 10
1.9435826809
 20
14.9385605512
 11
1.9430731174
 21
15.1988131603
  0
LINE
  5
5D5
100
AcDbEntity
  8
ASSI
100
AcDbLine
 62
7
  6
CONTINUOUS
 10
1.9435826809
 20
19.9385605512
 11
1.9430731174
 21
20.1988131603
  0
LINE
  5
5D6
100
AcDbEntity
  8
ASSI
100
AcDbLine
 62
7
  6
CONTINUOUS
 10
1.9443209206
 20
24.6899344689
 11
1.9430212253
 21
25.2366536303
  0
LINE
  5
5D7
100
AcDbEntity
  8
RACCORDO
100
AcDbLine
 62
7
  6
CONTINUOUS
 10
1.943214693
 20
10.1110673187
 11
1.9429523752
 21
10.2942606145
  0
LINE
  5
5D8
100
AcDbEntity
  8
RACCORDO
100
AcDbLine
 62
7
  6
CONTINUOUS
 10
1.943214693
 20
15.1110673187
 11
1.9429523752
 21
15.2942606145
  0
LINE
  5
5D9
100
AcDbEntity
  8
RACCORDO
100
AcDbLine
 62
7
  6
CONTINUOUS
 10
1.943214693
 20
20.1110673187
 11
1.9429523752
 21
20.2942606145
  0
LINE
  5
5DA
100
AcDbEntity
  8
ASSI
100
AcDbLine
 62
7
  6
CONTINUOUS
 10
1.9430731174
 20
10.1988131603
 11
1.9428960976
 21
10.3508423343
  0
LINE
  5
5DB
100
AcDbEntity
  8
ASSI
100
AcDbLine
 62
7
  6
CONTINUOUS
 10
1.9430731174
 20
15.1988131603
 11
1.9428960976
 21
15.3508423343
  0
LINE
  5
5DC
100
AcDbEntity
  8
ASSI
100
AcDbLine
 62
7
  6
CONTINUOUS
 10
1.9430731174
 20
20.1988131603
 11
1.9428960976
 21
20.3508423343
  0
LINE
  5
5DD
100
AcDbEntity
  8
RACCORDO
100
AcDbLine
 62
7
  6
CONTINUOUS
 10
1.9429523752
 20
10.2942606145
 11
1.9428518771
 21
10.4054494857
  0
LINE
  5
5DE
100
AcDbEntity
  8
RACCORDO
100
AcDbLine
 62
7
  6
CONTINUOUS
 10
1.9429523752
 20
15.2942606145
 11
1.9428518771
 21
15.4054494857
  0
LINE
  5
5DF
100
AcDbEntity
  8
RACCORDO
100
AcDbLine
 62
7
  6
CONTINUOUS
 10
1.9429523752
 20
20.2942606145
 11
1.9428518771
 21
20.4054494857
  0
LINE
  5
5E0
100
AcDbEntity
  8
ASSI
100
AcDbLine
 62
7
  6
CONTINUOUS
 10
1.9428960976
 20
10.3508423343
 11
1.9427866084
 21
10.5424191207
  0
LINE
  5
5E1
100
AcDbEntity
  8
ASSI
100
AcDbLine
 62
7
  6
CONTINUOUS
 10
1.9428960976
 20
15.3508423343
 11
1.9427866084
 21
15.5424191207
  0
LINE
  5
5E2
100
AcDbEntity
  8
ASSI
100
AcDbLine
 62
7
  6
CONTINUOUS
 10
1.9428960976
 20
20.3508423343
 11
1.9427866084
 21
20.5424191207
  0
LINE
  5
5E3
100
AcDbEntity
  8
ASSI
100
AcDbLine
 62
7
  6
CONTINUOUS
 10
1.9430212253
 20
25.2366536303
 11
1.9427806068
 21
25.5807775457
  0
LINE
  5
5E4
100
AcDbEntity
  8
DRAFT
100
AcDbLine
 62
7
  6
CONTINUOUS
 10
0.6294451577
 20
3.781121873
 11
0.6294451577
 21
4.5763276067
  0
LINE
  5
5E5
100
AcDbEntity
  8
DRAFT
100
AcDbLine
 62
7
  6
CONTINUOUS
 10
0.6294451577
 20
44.6286928015
 11
0.6294451577
 21
45.4238985352
  0
LINE
  5
5E6
100
AcDbEntity
  8
DRAFT
100
AcDbLine
 62
7
  6
CONTINUOUS
 10
0.6556277551
 20
3.7025102041
 11
0.6556277551
 21
4.6025102041
  0
LINE
  5
5E7
100
AcDbEntity
  8
DRAFT
100
AcDbLine
 62
7
  6
CONTINUOUS
 10
0.6556277551
 20
44.6025102041
 11
0.6556277551
 21
45.5025102041
  0
LINE
  5
5E8
100
AcDbEntity
  8
ASSI
100
AcDbLine
 62
7
  6
CONTINUOUS
 10
0.8056277551
 20
27.7525102041
 11
0.8056277551
 21
23.4525102041
  0
LINE
  5
5E9
100
AcDbEntity
  8
ASSI
100
AcDbLine
 62
7
  6
CONTINUOUS
 10
0.8056277551
 20
22.7525102041
 11
0.8056277551
 21
18.4525102041
  0
LINE
  5
5EA
100
AcDbEntity
  8
ASSI
100
AcDbLine
 62
7
  6
CONTINUOUS
 10
0.8056277551
 20
17.7525102041
 11
0.8056277551
 21
13.4525102041
  0
LINE
  5
5EB
100
AcDbEntity
  8
ASSI
100
AcDbLine
 62
7
  6
CONTINUOUS
 10
0.8056277551
 20
12.7525102041
 11
0.8056277551
 21
8.4525102041
  0
LINE
  5
5EC
100
AcDbEntity
  8
RACCORDO
100
AcDbLine
 62
253
  6
CONTINUOUS
 10
1.4012601519
 20
0.1068820381
 11
1.4012601519
 21
0.9746789877
  0
LINE
  5
5ED
100
AcDbEntity
  8
RACCORDO
100
AcDbLine
 62
253
  6
CONTINUOUS
 10
1.4012601519
 20
48.2303414204
 11
1.4012601519
 21
49.0981383701
  0
LINE
  5
5EE
100
AcDbEntity
  8
RACCORDO
100
AcDbLine
 62
253
  6
CONTINUOUS
 10
1.6427969749
 20
25.6777082463
 11
1.642899614
 21
25.378153247
  0
LINE
  5
5EF
100
AcDbEntity
  8
ASSI
100
AcDbLine
 62
253
  6
CONTINUOUS
 10
1.6427969749
 20
25.6777082463
 11
1.642899614
 21
25.378153247
  0
LINE
  5
5F0
100
AcDbEntity
  8
RACCORDO
100
AcDbLine
 62
253
  6
CONTINUOUS
 10
1.6427969749
 20
20.6777082463
 11
1.642899614
 21
20.378153247
  0
LINE
  5
5F1
100
AcDbEntity
  8
ASSI
100
AcDbLine
 62
253
  6
CONTINUOUS
 10
1.6427969749
 20
20.6777082463
 11
1.642899614
 21
20.378153247
  0
LINE
  5
5F2
100
AcDbEntity
  8
RACCORDO
100
AcDbLine
 62
253
  6
CONTINUOUS
 10
1.6427969749
 20
15.6777082463
 11
1.642899614
 21
15.378153247
  0
LINE
  5
5F3
100
AcDbEntity
  8
ASSI
100
AcDbLine
 62
253
  6
CONTINUOUS
 10
1.6427969749
 20
15.6777082463
 11
1.642899614
 21
15.378153247
  0
LINE
  5
5F4
100
AcDbEntity
  8
RACCORDO
100
AcDbLine
 62
253
  6
CONTINUOUS
 10
1.6427969749
 20
10.6777082463
 11
1.642899614
 21
10.378153247
  0
LINE
  5
5F5
100
AcDbEntity
  8
ASSI
100
AcDbLine
 62
253
  6
CONTINUOUS
 10
1.6427969749
 20
10.6777082463
 11
1.642899614
 21
10.378153247
  0
LINE
  5
5F6
100
AcDbEntity
  8
RACCORDO
100
AcDbLine
 62
253
  6
CONTINUOUS
 10
1.6512559211
 20
0.3568778073
 11
1.6512559211
 21
0.7581726368
  0
LINE
  5
5F7
100
AcDbEntity
  8
RACCORDO
100
AcDbLine
 62
253
  6
CONTINUOUS
 10
1.6512559211
 20
48.4468477714
 11
1.6512559211
 21
48.8481426009
  0
LINE
  5
5F8
100
AcDbEntity
  8
RACCORDO
100
AcDbLine
 62
7
  6
CONTINUOUS
 10
1.6556277551
 20
0.3525059733
 11
1.6556277551
 21
2.2025102041
  0
LINE
  5
5F9
100
AcDbEntity
  8
RACCORDO
100
AcDbLine
 62
7
  6
CONTINUOUS
 10
1.6556277551
 20
47.0025102041
 11
1.6556277551
 21
48.8525144349
  0
LINE
  5
5FA
100
AcDbEntity
  8
RACCORDO
100
AcDbLine
 62
7
  6
CONTINUOUS
 10
1.9428518771
 20
10.4054494857
 11
1.9427799066
 21
10.5916206001
  0
LINE
  5
5FB
100
AcDbEntity
  8
RACCORDO
100
AcDbLine
 62
7
  6
CONTINUOUS
 10
1.9428518771
 20
15.4054494857
 11
1.9427799066
 21
15.5916206001
  0
LINE
  5
5FC
100
AcDbEntity
  8
RACCORDO
100
AcDbLine
 62
7
  6
CONTINUOUS
 10
1.9428518771
 20
20.4054494857
 11
1.9427799066
 21
20.5916206001
  0
LINE
  5
5FD
100
AcDbEntity
  8
RACCORDO
100
AcDbLine
 62
7
  6
CONTINUOUS
 10
1.9431523594
 20
25.147430369
 11
1.9427808586
 21
25.628846637
  0
LINE
  5
5FE
100
AcDbEntity
  8
ASSI
100
AcDbLine
 62
7
  6
CONTINUOUS
 10
2.0056277551
 20
8.2392823091
 11
2.0056277551
 21
12.9657380991
  0
LINE
  5
5FF
100
AcDbEntity
  8
ASSI
100
AcDbLine
 62
7
  6
CONTINUOUS
 10
2.0056277551
 20
13.2392823091
 11
2.0056277551
 21
17.9657380991
  0
LINE
  5
600
100
AcDbEntity
  8
ASSI
100
AcDbLine
 62
7
  6
CONTINUOUS
 10
2.0056277551
 20
18.2392823091
 11
2.0056277551
 21
22.9657380991
  0
LINE
  5
601
100
AcDbEntity
  8
ASSI
100
AcDbLine
 62
7
  6
CONTINUOUS
 10
2.0056277551
 20
23.2392823091
 11
2.0056277551
 21
27.9657380991
  0
LINE
  5
602
100
AcDbEntity
  8
ASSI
100
AcDbLine
 62
7
  6
CONTINUOUS
 10
1.9427866084
 20
20.5424191207
 11
1.9428114862
 21
20.7338377207
  0
LINE
  5
603
100
AcDbEntity
  8
ASSI
100
AcDbLine
 62
7
  6
CONTINUOUS
 10
1.9427866084
 20
15.5424191207
 11
1.9428114862
 21
15.7338377207
  0
LINE
  5
604
100
AcDbEntity
  8
ASSI
100
AcDbLine
 62
7
  6
CONTINUOUS
 10
1.9427866084
 20
10.5424191207
 11
1.9428114862
 21
10.7338377207
  0
LINE
  5
605
100
AcDbEntity
  8
RACCORDO
100
AcDbLine
 62
7
  6
CONTINUOUS
 10
1.9427799066
 20
20.5916206001
 11
1.942836028
 21
20.7772432026
  0
LINE
  5
606
100
AcDbEntity
  8
RACCORDO
100
AcDbLine
 62
7
  6
CONTINUOUS
 10
1.9427799066
 20
15.5916206001
 11
1.942836028
 21
15.7772432026
  0
LINE
  5
607
100
AcDbEntity
  8
RACCORDO
100
AcDbLine
 62
7
  6
CONTINUOUS
 10
1.9427799066
 20
10.5916206001
 11
1.942836028
 21
10.7772432026
  0
LINE
  5
608
100
AcDbEntity
  8
ASSI
100
AcDbLine
 62
7
  6
CONTINUOUS
 10
1.9427806068
 20
25.5807775457
 11
1.9429666979
 21
25.9231311513
  0
LINE
  5
609
100
AcDbEntity
  8
ASSI
100
AcDbLine
 62
7
  6
CONTINUOUS
 10
1.9428114862
 20
20.7338377207
 11
1.9429261833
 21
20.8855388671
  0
LINE
  5
60A
100
AcDbEntity
  8
ASSI
100
AcDbLine
 62
7
  6
CONTINUOUS
 10
1.9428114862
 20
15.7338377207
 11
1.9429261833
 21
15.8855388671
  0
LINE
  5
60B
100
AcDbEntity
  8
RACCORDO
100
AcDbLine
 62
7
  6
CONTINUOUS
 10
1.942836028
 20
15.7772432026
 11
1.942928275
 21
15.8875924876
  0
LINE
  5
60C
100
AcDbEntity
  8
ASSI
100
AcDbLine
 62
7
  6
CONTINUOUS
 10
1.9428114862
 20
10.7338377207
 11
1.9429261833
 21
10.8855388671
  0
LINE
  5
60D
100
AcDbEntity
  8
RACCORDO
100
AcDbLine
 62
7
  6
CONTINUOUS
 10
1.942836028
 20
10.7772432026
 11
1.942928275
 21
10.8875924876
  0
LINE
  5
60E
100
AcDbEntity
  8
RACCORDO
100
AcDbLine
 62
253
  6
CONTINUOUS
 10
1.6431076855
 20
25.9756673567
 11
1.6427969749
 21
25.6777082463
  0
LINE
  5
60F
100
AcDbEntity
  8
ASSI
100
AcDbLine
 62
253
  6
CONTINUOUS
 10
1.6431076855
 20
25.9756673567
 11
1.6427969749
 21
25.6777082463
  0
LINE
  5
610
100
AcDbEntity
  8
RACCORDO
100
AcDbLine
 62
253
  6
CONTINUOUS
 10
1.6431076855
 20
20.9756673567
 11
1.6427969749
 21
20.6777082463
  0
LINE
  5
611
100
AcDbEntity
  8
ASSI
100
AcDbLine
 62
253
  6
CONTINUOUS
 10
1.6431076855
 20
20.9756673567
 11
1.6427969749
 21
20.6777082463
  0
LINE
  5
612
100
AcDbEntity
  8
RACCORDO
100
AcDbLine
 62
253
  6
CONTINUOUS
 10
1.6431076855
 20
15.9756673567
 11
1.6427969749
 21
15.6777082463
  0
LINE
  5
613
100
AcDbEntity
  8
ASSI
100
AcDbLine
 62
253
  6
CONTINUOUS
 10
1.6431076855
 20
15.9756673567
 11
1.6427969749
 21
15.6777082463
  0
LINE
  5
614
100
AcDbEntity
  8
RACCORDO
100
AcDbLine
 62
253
  6
CONTINUOUS
 10
1.6431076855
 20
10.9756673567
 11
1.6427969749
 21
10.6777082463
  0
LINE
  5
615
100
AcDbEntity
  8
ASSI
100
AcDbLine
 62
253
  6
CONTINUOUS
 10
1.6431076855
 20
10.9756673567
 11
1.6427969749
 21
10.6777082463
  0
LINE
  5
616
100
AcDbEntity
  8
RACCORDO
100
AcDbLine
 62
7
  6
CONTINUOUS
 10
1.9427808586
 20
25.628846637
 11
1.9431709854
 21
26.0685614793
  0
LINE
  5
617
100
AcDbEntity
  8
RACCORDO
100
AcDbLine
 62
7
  6
CONTINUOUS
 10
1.942836028
 20
20.7772432026
 11
1.9431132952
 21
21.0327291529
  0
LINE
  5
618
100
AcDbEntity
  8
RACCORDO
100
AcDbLine
 62
7
  6
CONTINUOUS
 10
1.942928275
 20
15.8875924876
 11
1.9431132952
 21
16.0327291529
  0
LINE
  5
619
100
AcDbEntity
  8
RACCORDO
100
AcDbLine
 62
7
  6
CONTINUOUS
 10
1.942928275
 20
10.8875924876
 11
1.9431132952
 21
11.0327291529
  0
LINE
  5
61A
100
AcDbEntity
  8
ASSI
100
AcDbLine
 62
7
  6
CONTINUOUS
 10
1.9429261833
 20
20.8855388671
 11
1.9431763435
 21
21.0717397128
  0
LINE
  5
61B
100
AcDbEntity
  8
ASSI
100
AcDbLine
 62
7
  6
CONTINUOUS
 10
1.9429261833
 20
15.8855388671
 11
1.9431763435
 21
16.0717397128
  0
LINE
  5
61C
100
AcDbEntity
  8
ASSI
100
AcDbLine
 62
7
  6
CONTINUOUS
 10
1.9429261833
 20
10.8855388671
 11
1.9431763435
 21
11.0717397128
  0
LINE
  5
61D
100
AcDbEntity
  8
RACCORDO
100
AcDbLine
 62
7
  6
CONTINUOUS
 10
1.9431132952
 20
21.0327291529
 11
1.9435282678
 21
21.2443862816
  0
LINE
  5
61E
100
AcDbEntity
  8
RACCORDO
100
AcDbLine
 62
7
  6
CONTINUOUS
 10
1.9431132952
 20
16.0327291529
 11
1.9435282678
 21
16.2443862816
  0
LINE
  5
61F
100
AcDbEntity
  8
RACCORDO
100
AcDbLine
 62
7
  6
CONTINUOUS
 10
1.9431132952
 20
11.0327291529
 11
1.9435282678
 21
11.2443862816
  0
LINE
  5
620
100
AcDbEntity
  8
ASSI
100
AcDbLine
 62
7
  6
CONTINUOUS
 10
1.9429666979
 20
25.9231311513
 11
1.9437281832
 21
26.3228426124
  0
LINE
  5
621
100
AcDbEntity
  8
ASSI
100
AcDbLine
 62
7
  6
CONTINUOUS
 10
1.9431763435
 20
21.0717397128
 11
1.943635821
 21
21.2878005156
  0
LINE
  5
622
100
AcDbEntity
  8
ASSI
100
AcDbLine
 62
7
  6
CONTINUOUS
 10
1.9431763435
 20
16.0717397128
 11
1.943635821
 21
16.2878005156
  0
LINE
  5
623
100
AcDbEntity
  8
ASSI
100
AcDbLine
 62
7
  6
CONTINUOUS
 10
1.9431763435
 20
11.0717397128
 11
1.943635821
 21
11.2878005156
  0
LINE
  5
624
100
AcDbEntity
  8
RACCORDO
100
AcDbLine
 62
253
  6
CONTINUOUS
 10
1.6438268651
 20
26.2661273637
 11
1.6431076855
 21
25.9756673567
  0
LINE
  5
625
100
AcDbEntity
  8
ASSI
100
AcDbLine
 62
253
  6
CONTINUOUS
 10
1.6438268651
 20
26.2661273637
 11
1.6431076855
 21
25.9756673567
  0
LINE
  5
626
100
AcDbEntity
  8
RACCORDO
100
AcDbLine
 62
253
  6
CONTINUOUS
 10
1.6438268651
 20
21.2661273637
 11
1.6431076855
 21
20.9756673567
  0
LINE
  5
627
100
AcDbEntity
  8
ASSI
100
AcDbLine
 62
253
  6
CONTINUOUS
 10
1.6438268651
 20
21.2661273637
 11
1.6431076855
 21
20.9756673567
  0
LINE
  5
628
100
AcDbEntity
  8
RACCORDO
100
AcDbLine
 62
253
  6
CONTINUOUS
 10
1.6438268651
 20
16.2661273637
 11
1.6431076855
 21
15.9756673567
  0
LINE
  5
629
100
AcDbEntity
  8
ASSI
100
AcDbLine
 62
253
  6
CONTINUOUS
 10
1.6438268651
 20
16.2661273637
 11
1.6431076855
 21
15.9756673567
  0
LINE
  5
62A
100
AcDbEntity
  8
RACCORDO
100
AcDbLine
 62
253
  6
CONTINUOUS
 10
1.6438268651
 20
11.2661273637
 11
1.6431076855
 21
10.9756673567
  0
LINE
  5
62B
100
AcDbEntity
  8
ASSI
100
AcDbLine
 62
253
  6
CONTINUOUS
 10
1.6438268651
 20
11.2661273637
 11
1.6431076855
 21
10.9756673567
  0
LINE
  5
62C
100
AcDbEntity
  8
RACCORDO
100
AcDbLine
 62
7
  6
CONTINUOUS
 10
1.9431709854
 20
26.0685614793
 11
1.9439895695
 21
26.4135008068
  0
LINE
  5
62D
100
AcDbEntity
  8
RACCORDO
100
AcDbLine
 62
7
  6
CONTINUOUS
 10
1.9435282678
 20
16.2443862816
 11
1.9438901093
 21
16.3802840964
  0
LINE
  5
62E
100
AcDbEntity
  8
RACCORDO
100
AcDbLine
 62
7
  6
CONTINUOUS
 10
1.9435282678
 20
11.2443862816
 11
1.9438901093
 21
11.3802840964
  0
LINE
  5
62F
100
AcDbEntity
  8
ASSI
100
AcDbLine
 62
7
  6
CONTINUOUS
 10
1.943635821
 20
16.2878005156
 11
1.9440282417
 21
16.4260442086
  0
LINE
  5
630
100
AcDbEntity
  8
ASSI
100
AcDbLine
 62
7
  6
CONTINUOUS
 10
1.943635821
 20
11.2878005156
 11
1.9440282417
 21
11.4260442086
  0
LINE
  5
631
100
AcDbEntity
  8
RACCORDO
100
AcDbLine
 62
7
  6
CONTINUOUS
 10
1.9435282678
 20
21.2443862816
 11
1.9443081883
 21
21.511246687
  0
LINE
  5
632
100
AcDbEntity
  8
ASSI
100
AcDbLine
 62
7
  6
CONTINUOUS
 10
1.943635821
 20
21.2878005156
 11
1.944478972
 21
21.558961066
  0
LINE
  5
633
100
AcDbEntity
  8
RACCORDO
100
AcDbLine
 62
7
  6
CONTINUOUS
 10
1.9438901093
 20
16.3802840964
 11
1.944421326
 21
16.5431809291
  0
LINE
  5
634
100
AcDbEntity
  8
RACCORDO
100
AcDbLine
 62
7
  6
CONTINUOUS
 10
1.9438901093
 20
11.3802840964
 11
1.944421326
 21
11.5431809291
  0
LINE
  5
635
100
AcDbEntity
  8
ASSI
100
AcDbLine
 62
7
  6
CONTINUOUS
 10
1.9437281832
 20
26.3228426124
 11
1.9451250097
 21
26.7173127605
  0
LINE
  5
636
100
AcDbEntity
  8
ASSI
100
AcDbLine
 62
7
  6
CONTINUOUS
 10
1.9440282417
 20
16.4260442086
 11
1.9449886993
 21
16.6863476879
  0
LINE
  5
637
100
AcDbEntity
  8
ASSI
100
AcDbLine
 62
7
  6
CONTINUOUS
 10
1.9440282417
 20
11.4260442086
 11
1.9449886993
 21
11.6863476879
  0
LINE
  5
638
100
AcDbEntity
  8
RACCORDO
100
AcDbLine
 62
253
  6
CONTINUOUS
 10
1.6449409418
 20
26.5434483342
 11
1.6438268651
 21
26.2661273637
  0
LINE
  5
639
100
AcDbEntity
  8
ASSI
100
AcDbLine
 62
253
  6
CONTINUOUS
 10
1.6449409418
 20
26.5434483342
 11
1.6438268651
 21
26.2661273637
  0
LINE
  5
63A
100
AcDbEntity
  8
RACCORDO
100
AcDbLine
 62
253
  6
CONTINUOUS
 10
1.6449409418
 20
21.5434483342
 11
1.6438268651
 21
21.2661273637
  0
LINE
  5
63B
100
AcDbEntity
  8
ASSI
100
AcDbLine
 62
253
  6
CONTINUOUS
 10
1.6449409418
 20
21.5434483342
 11
1.6438268651
 21
21.2661273637
  0
LINE
  5
63C
100
AcDbEntity
  8
RACCORDO
100
AcDbLine
 62
253
  6
CONTINUOUS
 10
1.6449409418
 20
16.5434483342
 11
1.6438268651
 21
16.2661273637
  0
LINE
  5
63D
100
AcDbEntity
  8
ASSI
100
AcDbLine
 62
253
  6
CONTINUOUS
 10
1.6449409418
 20
16.5434483342
 11
1.6438268651
 21
16.2661273637
  0
LINE
  5
63E
100
AcDbEntity
  8
RACCORDO
100
AcDbLine
 62
253
  6
CONTINUOUS
 10
1.6449409418
 20
11.5434483342
 11
1.6438268651
 21
11.2661273637
  0
LINE
  5
63F
100
AcDbEntity
  8
ASSI
100
AcDbLine
 62
253
  6
CONTINUOUS
 10
1.6449409418
 20
11.5434483342
 11
1.6438268651
 21
11.2661273637
  0
LINE
  5
640
100
AcDbEntity
  8
RACCORDO
100
AcDbLine
 62
7
  6
CONTINUOUS
 10
1.9443081883
 20
21.511246687
 11
1.9453092445
 21
21.7574724393
  0
LINE
  5
641
100
AcDbEntity
  8
RACCORDO
100
AcDbLine
 62
7
  6
CONTINUOUS
 10
1.9439895695
 20
26.4135008068
 11
1.9455912881
 21
26.8156710928
  0
LINE
  5
642
100
AcDbEntity
  8
ASSI
100
AcDbLine
 62
7
  6
CONTINUOUS
 10
1.944478972
 20
21.558961066
 11
1.9455534344
 21
21.8080692174
  0
LINE
  5
643
100
AcDbEntity
  8
RACCORDO
100
AcDbLine
 62
7
  6
CONTINUOUS
 10
1.944421326
 20
16.5431809291
 11
1.9454488635
 21
16.7867426952
  0
LINE
  5
644
100
AcDbEntity
  8
RACCORDO
100
AcDbLine
 62
7
  6
CONTINUOUS
 10
1.944421326
 20
11.5431809291
 11
1.9454488635
 21
11.7867426952
  0
LINE
  5
645
100
AcDbEntity
  8
ASSI
100
AcDbLine
 62
7
  6
CONTINUOUS
 10
1.9449886993
 20
11.6863476879
 11
1.9458536233
 21
11.866773453
  0
LINE
  5
646
100
AcDbEntity
  8
RACCORDO
100
AcDbLine
 62
7
  6
CONTINUOUS
 10
1.9454488635
 20
11.7867426952
 11
1.9458838945
 21
11.8725046953
  0
LINE
  5
647
100
AcDbEntity
  8
ASSI
100
AcDbLine
 62
7
  6
CONTINUOUS
 10
1.9449886993
 20
16.6863476879
 11
1.9461639582
 21
16.9240221009
  0
LINE
  5
648
100
AcDbEntity
  8
ASSI
100
AcDbLine
 62
7
  6
CONTINUOUS
 10
1.9451250097
 20
26.7173127605
 11
1.9463229743
 21
26.9520991625
  0
LINE
  5
649
100
AcDbEntity
  8
RACCORDO
100
AcDbLine
 62
7
  6
CONTINUOUS
 10
1.9453092445
 20
21.7574724393
 11
1.9466574932
 21
22.008554615
  0
LINE
  5
64A
100
AcDbEntity
  8
RACCORDO
100
AcDbLine
 62
253
  6
CONTINUOUS
 10
1.6464211821
 20
26.8023564092
 11
1.6449409418
 21
26.5434483342
  0
LINE
  5
64B
100
AcDbEntity
  8
ASSI
100
AcDbLine
 62
253
  6
CONTINUOUS
 10
1.6464211821
 20
26.8023564092
 11
1.6449409418
 21
26.5434483342
  0
LINE
  5
64C
100
AcDbEntity
  8
RACCORDO
100
AcDbLine
 62
253
  6
CONTINUOUS
 10
1.6464211821
 20
21.8023564092
 11
1.6449409418
 21
21.5434483342
  0
LINE
  5
64D
100
AcDbEntity
  8
ASSI
100
AcDbLine
 62
253
  6
CONTINUOUS
 10
1.6464211821
 20
21.8023564092
 11
1.6449409418
 21
21.5434483342
  0
LINE
  5
64E
100
AcDbEntity
  8
RACCORDO
100
AcDbLine
 62
253
  6
CONTINUOUS
 10
1.6464211821
 20
16.8023564092
 11
1.6449409418
 21
16.5434483342
  0
LINE
  5
64F
100
AcDbEntity
  8
ASSI
100
AcDbLine
 62
253
  6
CONTINUOUS
 10
1.6464211821
 20
16.8023564092
 11
1.6449409418
 21
16.5434483342
  0
LINE
  5
650
100
AcDbEntity
  8
RACCORDO
100
AcDbLine
 62
253
  6
CONTINUOUS
 10
1.6464211821
 20
11.8023564092
 11
1.6449409418
 21
11.5434483342
  0
LINE
  5
651
100
AcDbEntity
  8
ASSI
100
AcDbLine
 62
253
  6
CONTINUOUS
 10
1.6464211821
 20
11.8023564092
 11
1.6449409418
 21
11.5434483342
  0
LINE
  5
652
100
AcDbEntity
  8
ASSI
100
AcDbLine
 62
7
  6
CONTINUOUS
 10
1.9455534344
 20
21.8080692174
 11
1.9468159386
 21
22.0341316312
  0
LINE
  5
653
100
AcDbEntity
  8
RACCORDO
100
AcDbLine
 62
7
  6
CONTINUOUS
 10
1.9454488635
 20
16.7867426952
 11
1.9468196813
 21
17.0347271852
  0
LINE
  5
654
100
AcDbEntity
  8
RACCORDO
100
AcDbLine
 62
7
  6
CONTINUOUS
 10
1.9455912881
 20
26.8156710928
 11
1.9469843634
 21
27.0605517531
  0
LINE
  5
655
100
AcDbEntity
  8
ASSI
100
AcDbLine
 62
7
  6
CONTINUOUS
 10
1.9461639582
 20
16.9240221009
 11
1.9475101187
 21
17.1383680445
  0
LINE
  5
656
100
AcDbEntity
  8
ASSI
100
AcDbLine
 62
7
  6
CONTINUOUS
 10
1.9463229743
 20
26.9520991625
 11
1.9476899238
 21
27.1635088247
  0
LINE
  5
657
100
AcDbEntity
  8
RACCORDO
100
AcDbLine
 62
7
  6
CONTINUOUS
 10
1.9466574932
 20
22.008554615
 11
1.9480222808
 21
22.2082209151
  0
LINE
  5
658
100
AcDbEntity
  8
RACCORDO
100
AcDbLine
 62
7
  6
CONTINUOUS
 10
1.9468196813
 20
17.0347271852
 11
1.9482027815
 21
17.2316186854
  0
LINE
  5
659
100
AcDbEntity
  8
ASSI
100
AcDbLine
 62
7
  6
CONTINUOUS
 10
1.9468159386
 20
22.0341316312
 11
1.9482427661
 21
22.2367225996
  0
LINE
  5
65A
100
AcDbEntity
  8
RACCORDO
100
AcDbLine
 62
7
  6
CONTINUOUS
 10
1.9469843634
 20
27.0605517531
 11
1.948385121
 21
27.2546699888
  0
LINE
  5
65B
100
AcDbEntity
  8
RACCORDO
100
AcDbLine
 62
253
  6
CONTINUOUS
 10
1.6482465669
 20
27.0379933702
 11
1.6464211821
 21
26.8023564092
  0
LINE
  5
65C
100
AcDbEntity
  8
ASSI
100
AcDbLine
 62
253
  6
CONTINUOUS
 10
1.6482465669
 20
27.0379933702
 11
1.6464211821
 21
26.8023564092
  0
LINE
  5
65D
100
AcDbEntity
  8
RACCORDO
100
AcDbLine
 62
253
  6
CONTINUOUS
 10
1.6482465669
 20
22.0379933702
 11
1.6464211821
 21
21.8023564092
  0
LINE
  5
65E
100
AcDbEntity
  8
ASSI
100
AcDbLine
 62
253
  6
CONTINUOUS
 10
1.6482465669
 20
22.0379933702
 11
1.6464211821
 21
21.8023564092
  0
LINE
  5
65F
100
AcDbEntity
  8
RACCORDO
100
AcDbLine
 62
253
  6
CONTINUOUS
 10
1.6482465669
 20
17.0379933702
 11
1.6464211821
 21
16.8023564092
  0
LINE
  5
660
100
AcDbEntity
  8
ASSI
100
AcDbLine
 62
253
  6
CONTINUOUS
 10
1.6482465669
 20
17.0379933702
 11
1.6464211821
 21
16.8023564092
  0
LINE
  5
661
100
AcDbEntity
  8
RACCORDO
100
AcDbLine
 62
253
  6
CONTINUOUS
 10
1.6482465669
 20
12.0379933702
 11
1.6464211821
 21
11.8023564092
  0
LINE
  5
662
100
AcDbEntity
  8
ASSI
100
AcDbLine
 62
253
  6
CONTINUOUS
 10
1.6482465669
 20
12.0379933702
 11
1.6464211821
 21
11.8023564092
  0
LWPOLYLINE
  5
663
100
AcDbEntity
  8
ASSI
100
AcDbPolyline
 62
7
  6
CONTINUOUS
 90
3
 70
0
 10
1.9475101187
 20
17.1383680445
 10
1.9490061694
 20
17.3291901152
 10
1.9492011938
 20
17.3513858889
  0
LINE
  5
664
100
AcDbEntity
  8
ASSI
100
AcDbLine
 62
7
  6
CONTINUOUS
 10
1.9476899238
 20
27.1635088247
 11
1.9492011938
 21
27.3513858889
  0
LINE
  5
665
100
AcDbEntity
  8
RACCORDO
100
AcDbLine
 62
7
  6
CONTINUOUS
 10
1.9482027815
 20
17.2316186854
 11
1.9493207861
 21
17.364719718
  0
LINE
  5
666
100
AcDbEntity
  8
RACCORDO
100
AcDbLine
 62
7
  6
CONTINUOUS
 10
1.9480222808
 20
22.2082209151
 11
1.9495127613
 21
22.3856916714
  0
LINE
  5
667
100
AcDbEntity
  8
RACCORDO
100
AcDbLine
 62
7
  6
CONTINUOUS
 10
1.948385121
 20
27.2546699888
 11
1.9499017474
 21
27.4266013418
  0
LINE
  5
668
100
AcDbEntity
  8
ASSI
100
AcDbLine
 62
7
  6
CONTINUOUS
 10
1.9482427661
 20
22.2367225996
 11
1.9497968736
 21
22.4157760656
  0
LINE
  5
669
100
AcDbEntity
  8
RACCORDO
100
AcDbLine
 62
253
  6
CONTINUOUS
 10
1.406350753
 20
1.4798604733
 11
1.4012601519
 21
0.9746789877
  0
LINE
  5
66A
100
AcDbEntity
  8
RACCORDO
100
AcDbLine
 62
253
  6
CONTINUOUS
 10
1.6556277551
 20
1.1920250559
 11
1.6512559211
 21
0.7581726368
  0
LINE
  5
66B
100
AcDbEntity
  8
ASSI
100
AcDbLine
 62
7
  6
CONTINUOUS
 10
1.9492011938
 20
27.3513858889
 11
1.9508247795
 21
27.5158058778
  0
LINE
  5
66C
100
AcDbEntity
  8
RACCORDO
100
AcDbLine
 62
7
  6
CONTINUOUS
 10
1.9495127613
 20
22.3856916714
 11
1.9511076398
 21
22.5411176809
  0
LINE
  5
66D
100
AcDbEntity
  8
ASSI
100
AcDbLine
 62
7
  6
CONTINUOUS
 10
1.9497968736
 20
22.4157760656
 11
1.9514604897
 21
22.5714824817
  0
LINE
  5
66E
100
AcDbEntity
  8
RACCORDO
100
AcDbLine
 62
7
  6
CONTINUOUS
 10
1.9499017474
 20
27.4266013418
 11
1.9515211109
 21
27.5765698669
  0
LINE
  5
66F
100
AcDbEntity
  8
ASSI
100
AcDbLine
 62
7
  6
CONTINUOUS
 10
1.9508247795
 20
27.5158058778
 11
1.9525429768
 21
27.6570792483
  0
LINE
  5
670
100
AcDbEntity
  8
RACCORDO
100
AcDbLine
 62
7
  6
CONTINUOUS
 10
1.9511076398
 20
22.5411176809
 11
1.95278542
 21
22.6747921521
  0
LINE
  5
671
100
AcDbEntity
  8
RACCORDO
100
AcDbLine
 62
7
  6
CONTINUOUS
 10
1.9515211109
 20
27.5765698669
 11
1.9532132307
 21
27.7047788551
  0
LINE
  5
672
100
AcDbEntity
  8
ASSI
100
AcDbLine
 62
7
  6
CONTINUOUS
 10
1.9514604897
 20
22.5714824817
 11
1.9532027264
 21
22.704061763
  0
LINE
  5
673
100
AcDbEntity
  8
CURVE
100
AcDbLine
 62
253
  6
CONTINUOUS
 10
2.0451789547
 20
40.9850102041
 11
2.0549024383
 21
41.6025102041
  0
LINE
  5
674
100
AcDbEntity
  8
CURVE
100
AcDbLine
 62
7
  6
CONTINUOUS
 10
2.0977707811
 20
31.3550210852
 11
2.0970833485
 21
31.3064355082
  0
LINE
  5
675
100
AcDbEntity
  8
ASSI
100
AcDbLine
 62
7
  6
CONTINUOUS
 10
1.9525429768
 20
27.6570792483
 11
1.9540930828
 21
27.7615154284
  0
LINE
  5
676
100
AcDbEntity
  8
RACCORDO
100
AcDbLine
 62
7
  6
CONTINUOUS
 10
1.95278542
 20
22.6747921521
 11
1.9542949366
 21
22.7736316073
  0
LINE
  5
677
100
AcDbEntity
  8
RACCORDO
100
AcDbLine
 62
7
  6
CONTINUOUS
 10
1.9532132307
 20
27.7047788551
 11
1.9547310576
 21
27.7987148828
  0
LINE
  5
678
100
AcDbEntity
  8
ASSI
100
AcDbLine
 62
7
  6
CONTINUOUS
 10
1.9532027264
 20
22.704061763
 11
1.9547665542
 21
22.8006920379
  0
LINE
  5
679
100
AcDbEntity
  8
CURVE
100
AcDbLine
 62
7
  6
CONTINUOUS
 10
2.1009556553
 20
30.7756914799
 11
2.1017046314
 21
30.8222441985
  0
LINE
  5
67A
100
AcDbEntity
  8
CURVE
100
AcDbLine
 62
253
  6
CONTINUOUS
 10
2.0613847603
 20
41.0732244845
 11
2.0597641792
 21
40.9850102041
  0
LINE
  5
67B
100
AcDbEntity
  8
CURVE
100
AcDbLine
 62
253
  6
CONTINUOUS
 10
2.0613847603
 20
35.4569148538
 11
2.0581435993
 21
35.2804863665
  0
LINE
  5
67C
100
AcDbEntity
  8
CURVE
100
AcDbLine
 62
253
  6
CONTINUOUS
 10
2.0613847603
 20
30.5463195036
 11
2.0581435993
 21
30.3698916051
  0
LINE
  5
67D
100
AcDbEntity
  8
ASSI
100
AcDbLine
 62
7
  6
CONTINUOUS
 10
1.9540930828
 20
27.7615154284
 11
1.9556662182
 21
27.8477127702
  0
LINE
  5
67E
100
AcDbEntity
  8
CURVE
100
AcDbLine
 62
7
  6
CONTINUOUS
 10
2.1195114644
 20
31.1822260693
 11
2.1189377472
 21
31.1507446587
  0
LINE
  5
67F
100
AcDbEntity
  8
RACCORDO
100
AcDbLine
 62
7
  6
CONTINUOUS
 10
1.9542949366
 20
22.7736316073
 11
1.9558221768
 21
22.8552812197
  0
LINE
  5
680
100
AcDbEntity
  8
CURVE
100
AcDbLine
 62
7
  6
CONTINUOUS
 10
2.0970833485
 20
31.3064355082
 11
2.09635531
 21
31.2673661695
  0
LINE
  5
681
100
AcDbEntity
  8
RACCORDO
100
AcDbLine
 62
7
  6
CONTINUOUS
 10
1.9547310576
 20
27.7987148828
 11
1.9561288915
 21
27.8696482563
  0
LINE
  5
682
100
AcDbEntity
  8
RACCORDO
100
AcDbLine
 62
7
  6
CONTINUOUS
 10
1.9558221768
 20
22.8552812197
 11
1.9561288915
 21
22.8696482563
  0
LINE
  5
683
100
AcDbEntity
  8
CURVE
100
AcDbLine
 62
7
  6
CONTINUOUS
 10
2.1242664426
 20
30.6603952981
 11
2.1253915983
 21
30.715466146
  0
LINE
  5
684
100
AcDbEntity
  8
ASSI
100
AcDbLine
 62
7
  6
CONTINUOUS
 10
1.9556662182
 20
27.8477127702
 11
1.9561282726
 21
27.8696474933
  0
LINE
  5
685
100
AcDbEntity
  8
ASSI
100
AcDbLine
 62
7
  6
CONTINUOUS
 10
1.9547665542
 20
22.8006920379
 11
1.9561282726
 21
22.8696474933
  0
LINE
  5
686
100
AcDbEntity
  8
CURVE
100
AcDbLine
 62
7
  6
CONTINUOUS
 10
2.1000940856
 20
30.7344134622
 11
2.1009556553
 21
30.7756914799
  0
LINE
  5
687
100
AcDbEntity
  8
CURVE
100
AcDbLine
 62
7
  6
CONTINUOUS
 10
2.1189377472
 20
31.1507446587
 11
2.1184605482
 21
31.1301098745
  0
LINE
  5
688
100
AcDbEntity
  8
CURVE
100
AcDbLine
 62
7
  6
CONTINUOUS
 10
2.09635531
 20
31.2673661695
 11
2.0957138767
 21
31.240252066
  0
LINE
  5
689
100
AcDbEntity
  8
CURVE
100
AcDbLine
 62
7
  6
CONTINUOUS
 10
2.1230429068
 20
30.6128001189
 11
2.1242664426
 21
30.6603952981
  0
LINE
  5
68A
100
AcDbEntity
  8
CURVE
100
AcDbLine
 62
7
  6
CONTINUOUS
 10
2.0991539236
 20
30.698308155
 11
2.1000940856
 21
30.7344134622
  0
LINE
  5
68B
100
AcDbEntity
  8
CURVE
100
AcDbLine
 62
7
  6
CONTINUOUS
 10
2.1184605482
 20
31.1301098745
 11
2.1179498059
 21
31.1121370699
  0
LINE
  5
68C
100
AcDbEntity
  8
CURVE
100
AcDbLine
 62
7
  6
CONTINUOUS
 10
2.0957138767
 20
31.240252066
 11
2.0952037106
 21
31.2226341201
  0
LINE
  5
68D
100
AcDbEntity
  8
CURVE
100
AcDbLine
 62
7
  6
CONTINUOUS
 10
2.0983680564
 20
30.6730797233
 11
2.0991539236
 21
30.698308155
  0
LINE
  5
68E
100
AcDbEntity
  8
CURVE
100
AcDbLine
 62
7
  6
CONTINUOUS
 10
2.1221778182
 20
30.5855137942
 11
2.1230429068
 21
30.6128001189
  0
LWPOLYLINE
  5
68F
100
AcDbEntity
  8
RACCORDO
100
AcDbPolyline
 62
253
  6
CONTINUOUS
 90
31
 70
0
 10
1.6512559211
 20
48.4468477714
 10
1.6508773655
 20
48.4355497991
 10
1.6498182379
 20
48.4242794951
 10
1.6480808614
 20
48.4130676253
 10
1.64566916
 20
48.4019438162
 10
1.6425892897
 20
48.3909395641
 10
1.6388502387
 20
48.3800880243
 10
1.6344626943
 20
48.3694199013
 10
1.6294382953
 20
48.358963228
 10
1.6237906147
 20
48.3487463091
 10
1.6175349222
 20
48.338796904
 10
1.6106883476
 20
48.3291423794
 10
1.6032697393
 20
48.319809356
 10
1.5952994352
 20
48.3108234058
 10
1.5867991404
 20
48.3022089867
 10
1.57779205
 20
48.2939896083
 10
1.5683027463
 20
48.2861877116
 10
1.5583571592
 20
48.2788246234
 10
1.5479824763
 20
48.2719204745
 10
1.5372070439
 20
48.265494128
 10
1.5260602859
 20
48.259563131
 10
1.5145726489
 20
48.2541436836
 10
1.5027754922
 20
48.2492505816
 10
1.4907010557
 20
48.2448971986
 10
1.4783823761
 20
48.2410954412
 10
1.4658531407
 20
48.2378556947
 10
1.4531475379
 20
48.2351867883
 10
1.4403002171
 20
48.2330959959
 10
1.4273462498
 20
48.231589026
 10
1.4143210361
 20
48.2306699976
 10
1.4012601519
 20
48.2303414204
  0
LINE
  5
690
100
AcDbEntity
  8
CURVE
100
AcDbLine
 62
7
  6
CONTINUOUS
 10
2.0952037106
 20
31.2226341201
 11
2.0948516495
 21
31.2122907309
  0
LINE
  5
691
100
AcDbEntity
  8
CURVE
100
AcDbLine
 62
7
  6
CONTINUOUS
 10
2.1179498059
 20
31.1121370699
 11
2.1175937482
 21
31.1016818079
  0
LINE
  5
692
100
AcDbEntity
  8
CURVE
100
AcDbLine
 62
253
  6
CONTINUOUS
 10
2.0613847603
 20
33.986677067
 11
2.0484201157
 21
33.6338195036
  0
LINE
  5
693
100
AcDbEntity
  8
CURVE
100
AcDbLine
 62
253
  6
CONTINUOUS
 10
2.0613847603
 20
32.9281055543
 11
2.0484201157
 21
32.5752485797
  0
LINE
  5
694
100
AcDbEntity
  8
CURVE
100
AcDbLine
 62
7
  6
CONTINUOUS
 10
2.0974422729
 20
30.6477693375
 11
2.0983680564
 21
30.6730797233
  0
LWPOLYLINE
  5
695
100
AcDbEntity
  8
RACCORDO
100
AcDbPolyline
 62
253
  6
CONTINUOUS
 90
9
 70
0
 10
1.6596785992
 20
27.7046730643
 10
1.6582257215
 20
27.6678533853
 10
1.6567972908
 20
27.6209423815
 10
1.6554135108
 20
27.5642109394
 10
1.6540752768
 20
27.4979901147
 10
1.6527816937
 20
27.4226389904
 10
1.6515502793
 20
27.3385172185
 10
1.6503819224
 20
27.2460617936
 10
1.6482465669
 20
27.0379933702
  0
LWPOLYLINE
  5
696
100
AcDbEntity
  8
ASSI
100
AcDbPolyline
 62
253
  6
CONTINUOUS
 90
9
 70
0
 10
1.6596785992
 20
27.7046730643
 10
1.6582257215
 20
27.6678533853
 10
1.6567972908
 20
27.6209423815
 10
1.6554135108
 20
27.5642109394
 10
1.6540752768
 20
27.4979901147
 10
1.6527816937
 20
27.4226389904
 10
1.6515502793
 20
27.3385172185
 10
1.6503819224
 20
27.2460617936
 10
1.6482465669
 20
27.0379933702
  0
LWPOLYLINE
  5
697
100
AcDbEntity
  8
RACCORDO
100
AcDbPolyline
 62
253
  6
CONTINUOUS
 90
9
 70
0
 10
1.6596785992
 20
22.7046730643
 10
1.6582257215
 20
22.6678533853
 10
1.6567972908
 20
22.6209423815
 10
1.6554135108
 20
22.5642109394
 10
1.6540752768
 20
22.4979901147
 10
1.6527816937
 20
22.4226389904
 10
1.6515502793
 20
22.3385172185
 10
1.6503819224
 20
22.2460617936
 10
1.6482465669
 20
22.0379933702
  0
LWPOLYLINE
  5
698
100
AcDbEntity
  8
ASSI
100
AcDbPolyline
 62
253
  6
CONTINUOUS
 90
9
 70
0
 10
1.6596785992
 20
22.7046730643
 10
1.6582257215
 20
22.6678533853
 10
1.6567972908
 20
22.6209423815
 10
1.6554135108
 20
22.5642109394
 10
1.6540752768
 20
22.4979901147
 10
1.6527816937
 20
22.4226389904
 10
1.6515502793
 20
22.3385172185
 10
1.6503819224
 20
22.2460617936
 10
1.6482465669
 20
22.0379933702
  0
LWPOLYLINE
  5
699
100
AcDbEntity
  8
RACCORDO
100
AcDbPolyline
 62
253
  6
CONTINUOUS
 90
9
 70
0
 10
1.6596785992
 20
17.7046730643
 10
1.6582257215
 20
17.6678533853
 10
1.6567972908
 20
17.6209423815
 10
1.6554135108
 20
17.5642109394
 10
1.6540752768
 20
17.4979901147
 10
1.6527816937
 20
17.4226389904
 10
1.6515502793
 20
17.3385172185
 10
1.6503819224
 20
17.2460617936
 10
1.6482465669
 20
17.0379933702
  0
LWPOLYLINE
  5
69A
100
AcDbEntity
  8
ASSI
100
AcDbPolyline
 62
253
  6
CONTINUOUS
 90
9
 70
0
 10
1.6596785992
 20
17.7046730643
 10
1.6582257215
 20
17.6678533853
 10
1.6567972908
 20
17.6209423815
 10
1.6554135108
 20
17.5642109394
 10
1.6540752768
 20
17.4979901147
 10
1.6527816937
 20
17.4226389904
 10
1.6515502793
 20
17.3385172185
 10
1.6503819224
 20
17.2460617936
 10
1.6482465669
 20
17.0379933702
  0
LINE
  5
69B
100
AcDbEntity
  8
CURVE
100
AcDbLine
 62
7
  6
CONTINUOUS
 10
2.0948516495
 20
31.2122907309
 11
2.0944912119
 21
31.2031359423
  0
LINE
  5
69C
100
AcDbEntity
  8
CURVE
100
AcDbLine
 62
7
  6
CONTINUOUS
 10
2.1175937482
 20
31.1016818079
 11
2.117227391
 21
31.0924812432
  0
LINE
  5
69D
100
AcDbEntity
  8
CURVE
100
AcDbLine
 62
7
  6
CONTINUOUS
 10
2.0968177994
 20
30.6328986402
 11
2.0974422729
 21
30.6477693375
  0
LINE
  5
69E
100
AcDbEntity
  8
CURVE
100
AcDbLine
 62
7
  6
CONTINUOUS
 10
2.0789651372
 20
36.6426152041
 11
2.1120048223
 21
37.3526722041
  0
LINE
  5
69F
100
AcDbEntity
  8
CURVE
100
AcDbLine
 62
7
  6
CONTINUOUS
 10
2.1295633524
 20
37.1957442041
 11
2.1014710723
 21
36.5968652041
  0
LINE
  5
6A0
100
AcDbEntity
  8
CURVE
100
AcDbLine
 62
7
  6
CONTINUOUS
 10
2.0944912119
 20
31.2031359423
 11
2.0936244741
 21
31.184659867
  0
LINE
  5
6A1
100
AcDbEntity
  8
CURVE
100
AcDbLine
 62
7
  6
CONTINUOUS
 10
2.0961881882
 20
30.6193713717
 11
2.0968177994
 21
30.6328986402
  0
LWPOLYLINE
  5
6A2
100
AcDbEntity
  8
CURVE
100
AcDbPolyline
 62
7
  6
CONTINUOUS
 90
12
 70
0
 10
2.117227391
 20
31.0924812432
 10
2.1168525775
 20
31.0845640139
 10
2.1166625758
 20
31.0810955994
 10
2.1164711513
 20
31.077958758
 10
2.1162785345
 20
31.0751570694
 10
2.1160849557
 20
31.0726941136
 10
2.1158906455
 20
31.0705734701
 10
2.1156958342
 20
31.0687987187
 10
2.1155007522
 20
31.0673734393
 10
2.11530563
 20
31.0663012116
 10
2.1151106981
 20
31.0655856153
 10
2.1149161868
 20
31.0652302302
  0
LINE
  5
6A3
100
AcDbEntity
  8
CURVE
100
AcDbLine
 62
7
  6
CONTINUOUS
 10
2.0955540308
 20
30.6069656303
 11
2.0961881882
 21
30.6193713717
  0
LINE
  5
6A4
100
AcDbEntity
  8
CURVE
100
AcDbLine
 62
7
  6
CONTINUOUS
 10
2.0936244741
 20
31.184659867
 11
2.0915536831
 21
31.1448352828
  0
LINE
  5
6A5
100
AcDbEntity
  8
CURVE
100
AcDbLine
 62
7
  6
CONTINUOUS
 10
2.0789651372
 20
40.6835232041
 11
2.1295633524
 21
41.6027702041
  0
LINE
  5
6A6
100
AcDbEntity
  8
CURVE
100
AcDbLine
 62
7
  6
CONTINUOUS
 10
2.1295633524
 20
33.5315002041
 11
2.0789651372
 21
32.6418142041
  0
LINE
  5
6A7
100
AcDbEntity
  8
CURVE
100
AcDbLine
 62
7
  6
CONTINUOUS
 10
2.0945955645
 20
30.5899744706
 11
2.0955540308
 21
30.6069656303
  0
LINE
  5
6A8
100
AcDbEntity
  8
CURVE
100
AcDbLine
 62
7
  6
CONTINUOUS
 10
2.0915536831
 20
31.1448352828
 11
2.0887619561
 21
31.0968740435
  0
LINE
  5
6A9
100
AcDbEntity
  8
CURVE
100
AcDbLine
 62
7
  6
CONTINUOUS
 10
2.0887619561
 20
31.0968740435
 11
2.0789651311
 21
30.9343519424
  0
LINE
  5
6AA
100
AcDbEntity
  8
CURVE
100
AcDbLine
 62
7
  6
CONTINUOUS
 10
2.1295633524
 20
40.9452582041
 11
2.0947350332
 21
40.3925312041
  0
LINE
  5
6AB
100
AcDbEntity
  8
CURVE
100
AcDbLine
 62
7
  6
CONTINUOUS
 10
2.0926599221
 20
30.5590689438
 11
2.0945955645
 21
30.5899744706
  0
LINE
  5
6AC
100
AcDbEntity
  8
CURVE
100
AcDbLine
 62
253
  6
CONTINUOUS
 10
2.0613847603
 20
39.4853673259
 11
2.038696632
 21
39.1325102041
  0
LINE
  5
6AD
100
AcDbEntity
  8
CURVE
100
AcDbLine
 62
253
  6
CONTINUOUS
 10
2.0613847603
 20
38.779652935
 11
2.038696632
 21
38.4267959604
  0
LINE
  5
6AE
100
AcDbEntity
  8
CURVE
100
AcDbLine
 62
7
  6
CONTINUOUS
 10
2.0789651372
 20
33.2797452041
 11
2.0890663428
 21
33.4365432041
  0
LWPOLYLINE
  5
6AF
100
AcDbEntity
  8
CURVE
100
AcDbPolyline
 62
7
  6
CONTINUOUS
 90
3
 70
0
 10
2.0789651311
 20
30.3521512189
 10
2.0858128934
 20
30.4555328279
 10
2.0926599221
 20
30.5590689438
  0
LINE
  5
6B0
100
AcDbEntity
  8
CURVE
100
AcDbLine
 62
7
  6
CONTINUOUS
 10
2.0968826086
 20
33.5575062041
 11
2.1156602479
 21
33.8356362041
  0
LINE
  5
6B1
100
AcDbEntity
  8
DRAFT
100
AcDbLine
 62
7
  6
CONTINUOUS
 10
-1.6856455002
 20
3.781121873
 11
-1.6955345703
 21
3.6920398236
  0
LWPOLYLINE
  5
6B2
100
AcDbEntity
  8
RACCORDO
100
AcDbPolyline
 62
253
  6
CONTINUOUS
 90
4
 70
0
 10
1.6641637096
 20
27.7525102041
 10
1.6626442259
 20
27.7471597579
 10
1.6611491891
 20
27.7311701488
 10
1.6596785992
 20
27.7046730643
  0
LWPOLYLINE
  5
6B3
100
AcDbEntity
  8
ASSI
100
AcDbPolyline
 62
253
  6
CONTINUOUS
 90
4
 70
0
 10
1.6641637096
 20
27.7525102041
 10
1.6626442259
 20
27.7471597579
 10
1.6611491891
 20
27.7311701488
 10
1.6596785992
 20
27.7046730643
  0
LWPOLYLINE
  5
6B4
100
AcDbEntity
  8
RACCORDO
100
AcDbPolyline
 62
253
  6
CONTINUOUS
 90
4
 70
0
 10
1.6641637096
 20
22.7525102041
 10
1.6626442259
 20
22.7471597579
 10
1.6611491891
 20
22.7311701488
 10
1.6596785992
 20
22.7046730643
  0
LWPOLYLINE
  5
6B5
100
AcDbEntity
  8
ASSI
100
AcDbPolyline
 62
253
  6
CONTINUOUS
 90
4
 70
0
 10
1.6641637096
 20
22.7525102041
 10
1.6626442259
 20
22.7471597579
 10
1.6611491891
 20
22.7311701488
 10
1.6596785992
 20
22.7046730643
  0
LINE
  5
6B6
100
AcDbEntity
  8
RACCORDO
100
AcDbLine
 62
7
  6
CONTINUOUS
 10
-15.3513937464
 20
4.8454887026
 11
-15.2943722449
 21
4.9025102041
  0
LINE
  5
6B7
100
AcDbEntity
  8
RACCORDO
100
AcDbLine
 62
253
  6
CONTINUOUS
 10
-19.6400004109
 20
0.3568778073
 11
-19.6443722449
 21
0.3525059733
  0
LINE
  5
6B8
100
AcDbEntity
  8
RACCORDO
100
AcDbLine
 62
253
  6
CONTINUOUS
 10
-19.3900046417
 20
0.1068820381
 11
-19.3943764757
 21
0.1025102041
  0
LWPOLYLINE
  5
6B9
100
AcDbEntity
  8
CURVE
100
AcDbPolyline
 62
7
  6
CONTINUOUS
 90
16
 70
0
 10
2.1138712174
 20
18.8209834037
 10
2.1143656884
 20
18.8212600414
 10
2.1148616913
 20
18.8221116628
 10
2.1153585528
 20
18.8235708307
 10
2.1158555994
 20
18.8256701078
 10
2.1163521579
 20
18.8284420571
 10
2.116847555
 20
18.8319192411
 10
2.1173411174
 20
18.8361342227
 10
2.1178321717
 20
18.8411195647
 10
2.1183200447
 20
18.8469078297
 10
2.1188040629
 20
18.8535315806
 10
2.1192835532
 20
18.8610233801
 10
2.1197578422
 20
18.869415791
 10
2.1202262566
 20
18.878741376
 10
2.120688123
 20
18.8890326979
 10
2.1215644677
 20
18.911912538
  0
LINE
  5
6BA
100
AcDbEntity
  8
CURVE
100
AcDbLine
 62
253
  6
CONTINUOUS
 10
-2.2943722449
 20
36.0453676126
 11
-0.9943722449
 21
36.3239385984
  0
LINE
  5
6BB
100
AcDbEntity
  8
CURVE
100
AcDbLine
 62
253
  6
CONTINUOUS
 10
-6.2943722449
 20
36.0453676126
 11
-4.9943722449
 21
36.3239385984
  0
LINE
  5
6BC
100
AcDbEntity
  8
CURVE
100
AcDbLine
 62
253
  6
CONTINUOUS
 10
2.038696632
 20
33.986677067
 11
2.0613847603
 21
33.986677067
  0
LINE
  5
6BD
100
AcDbEntity
  8
CURVE
100
AcDbLine
 62
253
  6
CONTINUOUS
 10
-1.3658008329
 20
34.0025102041
 11
-1.9229436956
 21
34.0025102041
  0
LINE
  5
6BE
100
AcDbEntity
  8
CURVE
100
AcDbLine
 62
253
  6
CONTINUOUS
 10
-5.3658008329
 20
34.0025102041
 11
-5.9229436956
 21
34.0025102041
  0
LINE
  5
6BF
100
AcDbEntity
  8
CURVE
100
AcDbLine
 62
253
  6
CONTINUOUS
 10
2.038696632
 20
34.5453671787
 11
2.0613847603
 21
34.5453671787
  0
LINE
  5
6C0
100
AcDbEntity
  8
CURVE
100
AcDbLine
 62
253
  6
CONTINUOUS
 10
-5.9229436956
 20
34.6525102041
 11
-5.3658008329
 21
34.6525102041
  0
LINE
  5
6C1
100
AcDbEntity
  8
CURVE
100
AcDbLine
 62
253
  6
CONTINUOUS
 10
-1.9229436956
 20
34.6525102041
 11
-1.3658008329
 21
34.6525102041
  0
LINE
  5
6C2
100
AcDbEntity
  8
CURVE
100
AcDbLine
 62
253
  6
CONTINUOUS
 10
-1.3658008329
 20
35.0239389083
 11
-1.9229436956
 21
35.0239389083
  0
LINE
  5
6C3
100
AcDbEntity
  8
CURVE
100
AcDbLine
 62
253
  6
CONTINUOUS
 10
-5.3658008329
 20
35.0239389083
 11
-5.9229436956
 21
35.0239389083
  0
LINE
  5
6C4
100
AcDbEntity
  8
CURVE
100
AcDbLine
 62
253
  6
CONTINUOUS
 10
2.0581435993
 20
35.2804863665
 11
2.0419377933
 21
35.2804863665
  0
LINE
  5
6C5
100
AcDbEntity
  8
CURVE
100
AcDbLine
 62
253
  6
CONTINUOUS
 10
-5.9229436956
 20
34.0025102041
 11
-6.1086579703
 21
34.0953673027
  0
LINE
  5
6C6
100
AcDbEntity
  8
CURVE
100
AcDbLine
 62
253
  6
CONTINUOUS
 10
-1.3658008329
 20
31.7739387534
 11
-1.1800865389
 21
31.6810816548
  0
LINE
  5
6C7
100
AcDbEntity
  8
CURVE
100
AcDbLine
 62
253
  6
CONTINUOUS
 10
-5.3658008329
 20
34.6525102041
 11
-5.1800865389
 21
34.5596531055
  0
LINE
  5
6C8
100
AcDbEntity
  8
CURVE
100
AcDbLine
 62
253
  6
CONTINUOUS
 10
-5.9229436956
 20
35.0239389083
 11
-6.1086579703
 21
35.1167960069
  0
LINE
  5
6C9
100
AcDbEntity
  8
RACCORDO
100
AcDbLine
 62
7
  6
CONTINUOUS
 10
-15.3513937464
 20
44.3595317055
 11
-15.2943722449
 21
44.3025102041
  0
LINE
  5
6CA
100
AcDbEntity
  8
CURVE
100
AcDbLine
 62
253
  6
CONTINUOUS
 10
-6.1086579703
 20
35.1167960069
 11
-6.2943722449
 21
35.3025102041
  0
LINE
  5
6CB
100
AcDbEntity
  8
CURVE
100
AcDbLine
 62
253
  6
CONTINUOUS
 10
-2.1086579703
 20
31.2167959294
 11
-2.2943722449
 21
31.4025102041
  0
LINE
  5
6CC
100
AcDbEntity
  8
RACCORDO
100
AcDbLine
 62
253
  6
CONTINUOUS
 10
-19.6400004109
 20
48.8481426009
 11
-19.6443722449
 21
48.8525144349
  0
LINE
  5
6CD
100
AcDbEntity
  8
CURVE
100
AcDbLine
 62
253
  6
CONTINUOUS
 10
-5.1800865389
 20
34.5596531055
 11
-4.9943722449
 21
34.3739389083
  0
LINE
  5
6CE
100
AcDbEntity
  8
RACCORDO
100
AcDbLine
 62
253
  6
CONTINUOUS
 10
-19.3900046417
 20
49.0981383701
 11
-19.3943764757
 21
49.1025102041
  0
LINE
  5
6CF
100
AcDbEntity
  8
CURVE
100
AcDbLine
 62
253
  6
CONTINUOUS
 10
-5.1800865389
 20
35.5810818098
 11
-4.9943722449
 21
35.3953676126
  0
LINE
  5
6D0
100
AcDbEntity
  8
CURVE
100
AcDbLine
 62
253
  6
CONTINUOUS
 10
-1.1800865389
 20
31.6810816548
 11
-0.9943722449
 21
31.4953673027
  0
LINE
  5
6D1
100
AcDbEntity
  8
CURVE
100
AcDbLine
 62
253
  6
CONTINUOUS
 10
-1.737229421
 20
33.4453673027
 11
-1.8300865195
 21
33.6001292369
  0
LINE
  5
6D2
100
AcDbEntity
  8
DRAFT
100
AcDbLine
 62
7
  6
CONTINUOUS
 10
-1.6955345703
 20
45.5129805845
 11
-1.6856455002
 21
45.4238985352
  0
LINE
  5
6D3
100
AcDbEntity
  8
CURVE
100
AcDbLine
 62
253
  6
CONTINUOUS
 10
2.0980348139
 20
25.543938765
 11
2.1207229422
 21
25.1910815696
  0
LINE
  5
6D4
100
AcDbEntity
  8
CURVE
100
AcDbLine
 62
253
  6
CONTINUOUS
 10
2.038696632
 20
38.4267959604
 11
2.0613847603
 21
38.0739386914
  0
LINE
  5
6D5
100
AcDbEntity
  8
CURVE
100
AcDbLine
 62
253
  6
CONTINUOUS
 10
2.038696632
 20
39.8382244477
 11
2.0613847603
 21
39.4853673259
  0
LINE
  5
6D6
100
AcDbEntity
  8
CURVE
100
AcDbLine
 62
7
  6
CONTINUOUS
 10
2.1156602479
 20
33.8356362041
 11
2.0968826086
 21
34.1370102041
  0
LINE
  5
6D7
100
AcDbEntity
  8
CURVE
100
AcDbLine
 62
7
  6
CONTINUOUS
 10
2.0947350332
 20
40.3925312041
 11
2.1295633524
 21
39.8229202041
  0
LINE
  5
6D8
100
AcDbEntity
  8
CURVE
100
AcDbLine
 62
253
  6
CONTINUOUS
 10
2.038696632
 20
25.1001292518
 11
2.0613847603
 21
24.7287007026
  0
LINE
  5
6D9
100
AcDbEntity
  8
CURVE
100
AcDbLine
 62
7
  6
CONTINUOUS
 10
2.0890663428
 20
34.2608222041
 11
2.0789651372
 21
34.4278392041
  0
LINE
  5
6DA
100
AcDbEntity
  8
CURVE
100
AcDbLine
 62
7
  6
CONTINUOUS
 10
2.0789651372
 20
35.0265432041
 11
2.1295633524
 21
34.1170272041
  0
LINE
  5
6DB
100
AcDbEntity
  8
CURVE
100
AcDbLine
 62
7
  6
CONTINUOUS
 10
2.1295633524
 20
39.2180622041
 11
2.0789651372
 21
40.1501272041
  0
LWPOLYLINE
  5
6DC
100
AcDbEntity
  8
CURVE
100
AcDbPolyline
 62
7
  6
CONTINUOUS
 90
26
 70
0
 10
2.1097019901
 20
30.5573931946
 10
2.1101663897
 20
30.5474085603
 10
2.110636578
 20
30.5383328073
 10
2.1111118746
 20
30.5301727798
 10
2.1115915993
 20
30.5229353216
 10
2.1120750716
 20
30.5166272771
 10
2.112559204
 20
30.5112759629
 10
2.1130459382
 20
30.5068335686
 10
2.1135348394
 20
30.5032821231
 10
2.114025473
 20
30.5006036555
 10
2.1145174041
 20
30.4987801946
 10
2.115010198
 20
30.4977937696
 10
2.1155034198
 20
30.4976264094
 10
2.1159966349
 20
30.498260143
 10
2.1164894449
 20
30.4996839729
 10
2.1169812964
 20
30.5019138492
 10
2.1174716726
 20
30.5049725358
 10
2.1179600566
 20
30.5088827968
 10
2.1184459315
 20
30.5136673962
 10
2.1189287805
 20
30.5193490981
 10
2.1194080867
 20
30.5259506665
 10
2.1198833333
 20
30.5334948654
 10
2.1203543434
 20
30.5420061673
 10
2.1208200334
 20
30.551474064
 10
2.1212796668
 20
30.5618882027
 10
2.1221778182
 20
30.5855137942
  0
LINE
  5
6DD
100
AcDbEntity
  8
CURVE
100
AcDbLine
 62
7
  6
CONTINUOUS
 10
2.1014710723
 20
36.5968652041
 11
2.1295633524
 21
35.9915942041
  0
LINE
  5
6DE
100
AcDbEntity
  8
CURVE
100
AcDbLine
 62
7
  6
CONTINUOUS
 10
2.1118670914
 20
35.8380582041
 11
2.0789651372
 21
36.5577262041
  0
LINE
  5
6DF
100
AcDbEntity
  8
CURVE
100
AcDbLine
 62
7
  6
CONTINUOUS
 10
2.1118060243
 20
31.0931241756
 11
2.1113787782
 21
31.1021949407
  0
LINE
  5
6E0
100
AcDbEntity
  8
CURVE
100
AcDbLine
 62
7
  6
CONTINUOUS
 10
2.1113787782
 20
31.1021949407
 11
2.1109630799
 21
31.1125626639
  0
LINE
  5
6E1
100
AcDbEntity
  8
CURVE
100
AcDbLine
 62
7
  6
CONTINUOUS
 10
2.1087932786
 20
30.5800617305
 11
2.1097019901
 21
30.5573931946
  0
LINE
  5
6E2
100
AcDbEntity
  8
CURVE
100
AcDbLine
 62
253
  6
CONTINUOUS
 10
2.1077582975
 20
26.2496530455
 11
2.1207229422
 21
25.8967958868
  0
LINE
  5
6E3
100
AcDbEntity
  8
CURVE
100
AcDbLine
 62
253
  6
CONTINUOUS
 10
2.0484201157
 20
32.5752485797
 11
2.0613847603
 21
32.2223910162
  0
LINE
  5
6E4
100
AcDbEntity
  8
CURVE
100
AcDbLine
 62
253
  6
CONTINUOUS
 10
2.0484201157
 20
33.6338195036
 11
2.0613847603
 21
33.2809625289
  0
LINE
  5
6E5
100
AcDbEntity
  8
CURVE
100
AcDbLine
 62
7
  6
CONTINUOUS
 10
2.1109630799
 20
31.1125626639
 11
2.1105613566
 21
31.1242358382
  0
LINE
  5
6E6
100
AcDbEntity
  8
CURVE
100
AcDbLine
 62
7
  6
CONTINUOUS
 10
2.1079161674
 20
30.6062804132
 11
2.1087932786
 21
30.5800617305
  0
LINE
  5
6E7
100
AcDbEntity
  8
CURVE
100
AcDbLine
 62
7
  6
CONTINUOUS
 10
2.1070762279
 20
30.6361273095
 11
2.1079161674
 21
30.6062804132
  0
LINE
  5
6E8
100
AcDbEntity
  8
CURVE
100
AcDbLine
 62
7
  6
CONTINUOUS
 10
2.1105613566
 20
31.1242358382
 11
2.1099902848
 21
31.1442118993
  0
LINE
  5
6E9
100
AcDbEntity
  8
CURVE
100
AcDbLine
 62
7
  6
CONTINUOUS
 10
2.1099902848
 20
31.1442118993
 11
2.1094643106
 21
31.1671729988
  0
LINE
  5
6EA
100
AcDbEntity
  8
CURVE
100
AcDbLine
 62
7
  6
CONTINUOUS
 10
2.1059088841
 20
30.6874795977
 11
2.1070762279
 21
30.6361273095
  0
LINE
  5
6EB
100
AcDbEntity
  8
CURVE
100
AcDbLine
 62
253
  6
CONTINUOUS
 10
2.1012759752
 20
23.8678674731
 11
2.0980348139
 21
24.0442959604
  0
LINE
  5
6EC
100
AcDbEntity
  8
CURVE
100
AcDbLine
 62
253
  6
CONTINUOUS
 10
2.0516612773
 20
30.3698916051
 11
2.0484201157
 21
30.5463195036
  0
LINE
  5
6ED
100
AcDbEntity
  8
CURVE
100
AcDbLine
 62
253
  6
CONTINUOUS
 10
2.0581435993
 20
41.6025102041
 11
2.0613847603
 21
41.4260816248
  0
LINE
  5
6EE
100
AcDbEntity
  8
CURVE
100
AcDbLine
 62
7
  6
CONTINUOUS
 10
2.1094643106
 20
31.1671729988
 11
2.1088483951
 21
31.2024009708
  0
LINE
  5
6EF
100
AcDbEntity
  8
CURVE
100
AcDbLine
 62
7
  6
CONTINUOUS
 10
2.1041981704
 20
30.7879806258
 11
2.1059088841
 21
30.6874795977
  0
LINE
  5
6F0
100
AcDbEntity
  8
CURVE
100
AcDbLine
 62
7
  6
CONTINUOUS
 10
2.1086185225
 20
19.5805740988
 11
2.1081656571
 21
19.6083092078
  0
LINE
  5
6F1
100
AcDbEntity
  8
CURVE
100
AcDbLine
 62
7
  6
CONTINUOUS
 10
2.1014167721
 20
19.1623683373
 11
2.1028297701
 21
19.0557377946
  0
LINE
  5
6F2
100
AcDbEntity
  8
CURVE
100
AcDbLine
 62
7
  6
CONTINUOUS
 10
2.1031940154
 20
30.8604340183
 11
2.1041981704
 21
30.7879806258
  0
LINE
  5
6F3
100
AcDbEntity
  8
CURVE
100
AcDbLine
 62
7
  6
CONTINUOUS
 10
2.1088483951
 20
31.2024009708
 11
2.1082286276
 21
31.2531286647
  0
LINE
  5
6F4
100
AcDbEntity
  8
CURVE
100
AcDbLine
 62
7
  6
CONTINUOUS
 10
2.1081656571
 20
19.6083092078
 11
2.1076337565
 21
19.6563545133
  0
LINE
  5
6F5
100
AcDbEntity
  8
CURVE
100
AcDbLine
 62
7
  6
CONTINUOUS
 10
2.102963834
 20
30.8881565293
 11
2.1031940154
 21
30.8604340183
  0
LINE
  5
6F6
100
AcDbEntity
  8
CURVE
100
AcDbLine
 62
7
  6
CONTINUOUS
 10
2.0998633871
 20
19.3521852047
 11
2.1014167721
 21
19.1623683373
  0
LINE
  5
6F7
100
AcDbEntity
  8
CURVE
100
AcDbLine
 62
7
  6
CONTINUOUS
 10
2.1082286276
 20
31.2531286647
 11
2.1076078274
 21
31.333901123
  0
LINE
  5
6F8
100
AcDbEntity
  8
CURVE
100
AcDbLine
 62
7
  6
CONTINUOUS
 10
2.1076337565
 20
19.6563545133
 11
2.107148225
 21
19.7361367819
  0
LINE
  5
6F9
100
AcDbEntity
  8
CURVE
100
AcDbLine
 62
7
  6
CONTINUOUS
 10
2.1028829226
 20
30.9079544941
 11
2.102963834
 21
30.8881565293
  0
LINE
  5
6FA
100
AcDbEntity
  8
CURVE
100
AcDbLine
 62
7
  6
CONTINUOUS
 10
2.1076078274
 20
31.333901123
 11
2.1072004395
 21
31.4341255095
  0
LINE
  5
6FB
100
AcDbEntity
  8
CURVE
100
AcDbLine
 62
7
  6
CONTINUOUS
 10
2.0987339914
 20
19.6311743047
 11
2.0998633871
 21
19.3521852047
  0
LINE
  5
6FC
100
AcDbEntity
  8
CURVE
100
AcDbLine
 62
7
  6
CONTINUOUS
 10
2.107148225
 20
19.7361367819
 11
2.1067222885
 21
19.9158980732
  0
LINE
  5
6FD
100
AcDbEntity
  8
CURVE
100
AcDbLine
 62
7
  6
CONTINUOUS
 10
2.1209434429
 20
31.8813114759
 11
2.1213292622
 21
31.7013583488
  0
LINE
  5
6FE
100
AcDbEntity
  8
CURVE
100
AcDbLine
 62
7
  6
CONTINUOUS
 10
2.0983937526
 20
19.8863175527
 11
2.0987339914
 21
19.6311743047
  0
LINE
  5
6FF
100
AcDbEntity
  8
RACCORDO
100
AcDbLine
 62
7
  6
CONTINUOUS
 10
2.0187180568
 20
8.011285814
 11
2.0187180568
 21
8.1525102041
  0
LINE
  5
700
100
AcDbEntity
  8
ASSI
100
AcDbLine
 62
7
  6
CONTINUOUS
 10
2.0187180568
 20
8.011285814
 11
2.0187180568
 21
8.1525102041
  0
LINE
  5
701
100
AcDbEntity
  8
RACCORDO
100
AcDbLine
 62
7
  6
CONTINUOUS
 10
2.0187180568
 20
13.0525102041
 11
2.0187180568
 21
13.1525102041
  0
LINE
  5
702
100
AcDbEntity
  8
ASSI
100
AcDbLine
 62
7
  6
CONTINUOUS
 10
2.0187180568
 20
13.0525102041
 11
2.0187180568
 21
13.1525102041
  0
LINE
  5
703
100
AcDbEntity
  8
RACCORDO
100
AcDbLine
 62
7
  6
CONTINUOUS
 10
2.0187180568
 20
18.0525102041
 11
2.0187180568
 21
18.1525102041
  0
LINE
  5
704
100
AcDbEntity
  8
ASSI
100
AcDbLine
 62
7
  6
CONTINUOUS
 10
2.0187180568
 20
18.0525102041
 11
2.0187180568
 21
18.1525102041
  0
LINE
  5
705
100
AcDbEntity
  8
RACCORDO
100
AcDbLine
 62
7
  6
CONTINUOUS
 10
2.0187180568
 20
23.0525102041
 11
2.0187180568
 21
23.1525102041
  0
LINE
  5
706
100
AcDbEntity
  8
ASSI
100
AcDbLine
 62
7
  6
CONTINUOUS
 10
2.0187180568
 20
23.0525102041
 11
2.0187180568
 21
23.1525102041
  0
LINE
  5
707
100
AcDbEntity
  8
RACCORDO
100
AcDbLine
 62
7
  6
CONTINUOUS
 10
2.0187180568
 20
28.0525102041
 11
2.0187180568
 21
41.1937345942
  0
LINE
  5
708
100
AcDbEntity
  8
ASSI
100
AcDbLine
 62
7
  6
CONTINUOUS
 10
2.0187180568
 20
28.0525102041
 11
2.0187180568
 21
41.1937345942
  0
LINE
  5
709
100
AcDbEntity
  8
RACCORDO
100
AcDbLine
 62
7
  6
CONTINUOUS
 10
2.0334423006
 20
6.9814220277
 11
2.0334423006
 21
42.2235983804
  0
LINE
  5
70A
100
AcDbEntity
  8
0
100
AcDbLine
 62
7
  6
CONTINUOUS
 10
2.0334423006
 20
6.9814220277
 11
2.0334423006
 21
42.2235983804
  0
LINE
  5
70B
100
AcDbEntity
  8
CURVE
100
AcDbLine
 62
253
  6
CONTINUOUS
 10
2.0442232275
 20
12.1715576074
 11
2.0442232275
 21
12.0810817621
  0
LINE
  5
70C
100
AcDbEntity
  8
CURVE
100
AcDbLine
 62
253
  6
CONTINUOUS
 10
2.0451789547
 20
39.7206054071
 11
2.0451789547
 21
39.2501292447
  0
LINE
  5
70D
100
AcDbEntity
  8
CURVE
100
AcDbLine
 62
253
  6
CONTINUOUS
 10
2.0451789547
 20
24.9763197354
 11
2.0451789547
 21
24.4810816697
  0
LINE
  5
70E
100
AcDbEntity
  8
CURVE
100
AcDbLine
 62
253
  6
CONTINUOUS
 10
2.0458022547
 20
16.9667959831
 11
2.0458022547
 21
17.9167958698
  0
LINE
  5
70F
100
AcDbEntity
  8
CURVE
100
AcDbLine
 62
253
  6
CONTINUOUS
 10
2.0484201157
 20
30.5463195036
 11
2.0484201157
 21
30.9873916051
  0
LINE
  5
710
100
AcDbEntity
  8
CURVE
100
AcDbLine
 62
253
  6
CONTINUOUS
 10
2.0516612773
 20
31.5166764782
 11
2.0516612773
 21
31.8695340416
  0
LINE
  5
711
100
AcDbEntity
  8
CURVE
100
AcDbLine
 62
253
  6
CONTINUOUS
 10
2.0516612773
 20
37.3976293919
 11
2.0516612773
 21
37.7504863665
  0
LINE
  5
712
100
AcDbEntity
  8
CURVE
100
AcDbLine
 62
253
  6
CONTINUOUS
 10
2.0576449598
 20
14.7953675411
 11
2.0576449598
 21
15.0667959831
  0
LINE
  5
713
100
AcDbEntity
  8
CURVE
100
AcDbLine
 62
253
  6
CONTINUOUS
 10
2.0613847603
 20
41.4260816248
 11
2.0613847603
 21
41.0732244845
  0
LINE
  5
714
100
AcDbEntity
  8
CURVE
100
AcDbLine
 62
253
  6
CONTINUOUS
 10
2.0613847603
 20
37.7504863665
 11
2.0613847603
 21
37.2212006102
  0
LINE
  5
715
100
AcDbEntity
  8
CURVE
100
AcDbLine
 62
253
  6
CONTINUOUS
 10
2.0613847603
 20
35.8979863665
 11
2.0613847603
 21
35.4569148538
  0
LINE
  5
716
100
AcDbEntity
  8
CURVE
100
AcDbLine
 62
253
  6
CONTINUOUS
 10
2.0613847603
 20
31.8695340416
 11
2.0613847603
 21
31.3402485797
  0
LINE
  5
717
100
AcDbEntity
  8
CURVE
100
AcDbLine
 62
253
  6
CONTINUOUS
 10
2.0613847603
 20
30.9873916051
 11
2.0613847603
 21
30.5463195036
  0
LINE
  5
718
100
AcDbEntity
  8
CURVE
100
AcDbLine
 62
253
  6
CONTINUOUS
 10
2.0613847603
 20
26.2144149772
 11
2.0613847603
 21
25.4715578011
  0
LINE
  5
719
100
AcDbEntity
  8
CURVE
100
AcDbLine
 62
253
  6
CONTINUOUS
 10
2.0718562042
 20
13.9810817621
 11
2.0718562042
 21
13.0310817621
  0
LINE
  5
71A
100
AcDbEntity
  8
CURVE
100
AcDbLine
 62
253
  6
CONTINUOUS
 10
2.0718562042
 20
8.4167955301
 11
2.0718562042
 21
8.2810817621
  0
LINE
  5
71B
100
AcDbEntity
  8
CURVE
100
AcDbLine
 62
253
  6
CONTINUOUS
 10
2.0718562042
 20
9.6382248781
 11
2.0718562042
 21
10.0453670881
  0
LINE
  5
71C
100
AcDbEntity
  8
CURVE
100
AcDbLine
 62
253
  6
CONTINUOUS
 10
2.0718562042
 20
14.7953675411
 11
2.0718562042
 21
15.3382244251
  0
LINE
  5
71D
100
AcDbEntity
  8
CURVE
100
AcDbLine
 62
7
  6
CONTINUOUS
 10
2.0788254694
 20
20.9017202041
 11
2.0788254694
 21
20.2791142041
  0
LINE
  5
71E
100
AcDbEntity
  8
CURVE
100
AcDbLine
 62
7
  6
CONTINUOUS
 10
2.0788254694
 20
16.4229962041
 11
2.0788254694
 21
15.8285462041
  0
LINE
  5
71F
100
AcDbEntity
  8
CURVE
100
AcDbLine
 62
7
  6
CONTINUOUS
 10
2.0788254694
 20
14.2540792041
 11
2.0788254694
 21
13.6274362041
  0
LINE
  5
720
100
AcDbEntity
  8
CURVE
100
AcDbLine
 62
7
  6
CONTINUOUS
 10
2.0788254694
 20
10.3980702041
 11
2.0788254694
 21
9.8036212041
  0
LINE
  5
721
100
AcDbEntity
  8
CURVE
100
AcDbLine
 62
7
  6
CONTINUOUS
 10
2.0788254694
 20
8.2289362041
 11
2.0788254694
 21
7.6025102041
  0
LINE
  5
722
100
AcDbEntity
  8
CURVE
100
AcDbLine
 62
7
  6
CONTINUOUS
 10
2.0788254694
 20
10.6913122041
 11
2.0788254694
 21
11.5749642041
  0
LINE
  5
723
100
AcDbEntity
  8
CURVE
100
AcDbLine
 62
7
  6
CONTINUOUS
 10
2.0788254694
 20
12.7277402041
 11
2.0788254694
 21
13.3101852041
  0
LINE
  5
724
100
AcDbEntity
  8
CURVE
100
AcDbLine
 62
7
  6
CONTINUOUS
 10
2.0788254694
 20
16.7357722041
 11
2.0788254694
 21
18.4313772041
  0
LINE
  5
725
100
AcDbEntity
  8
CURVE
100
AcDbLine
 62
7
  6
CONTINUOUS
 10
2.0789651372
 20
38.9934452041
 11
2.0789651372
 21
38.3881742041
  0
LINE
  5
726
100
AcDbEntity
  8
CURVE
100
AcDbLine
 62
7
  6
CONTINUOUS
 10
2.0789651311
 20
32.4640775484
 11
2.0789651311
 21
31.8612415873
  0
LINE
  5
727
100
AcDbEntity
  8
CURVE
100
AcDbLine
 62
7
  6
CONTINUOUS
 10
2.0789651311
 20
30.9343519424
 11
2.0789651311
 21
30.3521512189
  0
LINE
  5
728
100
AcDbEntity
  8
CURVE
100
AcDbLine
 62
7
  6
CONTINUOUS
 10
2.0789651372
 20
32.6418142041
 11
2.0789651372
 21
33.2797452041
  0
LINE
  5
729
100
AcDbEntity
  8
CURVE
100
AcDbLine
 62
7
  6
CONTINUOUS
 10
2.0789651372
 20
34.4278392041
 11
2.0789651372
 21
35.0265432041
  0
LINE
  5
72A
100
AcDbEntity
  8
CURVE
100
AcDbLine
 62
7
  6
CONTINUOUS
 10
2.0789651372
 20
35.1215872041
 11
2.0789651372
 21
35.7137032041
  0
LINE
  5
72B
100
AcDbEntity
  8
CURVE
100
AcDbLine
 62
7
  6
CONTINUOUS
 10
2.0789651372
 20
36.5577262041
 11
2.0789651372
 21
36.6426152041
  0
LINE
  5
72C
100
AcDbEntity
  8
CURVE
100
AcDbLine
 62
7
  6
CONTINUOUS
 10
2.0789651372
 20
37.4832892041
 11
2.0789651372
 21
38.0623372041
  0
LINE
  5
72D
100
AcDbEntity
  8
CURVE
100
AcDbLine
 62
7
  6
CONTINUOUS
 10
2.0789651372
 20
40.1501272041
 11
2.0789651372
 21
40.6835232041
  0
LINE
  5
72E
100
AcDbEntity
  8
CURVE
100
AcDbLine
 62
7
  6
CONTINUOUS
 10
2.087235079
 20
17.8087712041
 11
2.087235079
 21
16.7357722041
  0
LINE
  5
72F
100
AcDbEntity
  8
CURVE
100
AcDbLine
 62
7
  6
CONTINUOUS
 10
2.0890663428
 20
33.4365432041
 11
2.0890663428
 21
34.2608222041
  0
LINE
  5
730
100
AcDbEntity
  8
CURVE
100
AcDbLine
 62
7
  6
CONTINUOUS
 10
2.0895507653
 20
15.6116982041
 11
2.0895507653
 21
14.4629612041
  0
LINE
  5
731
100
AcDbEntity
  8
CURVE
100
AcDbLine
 62
7
  6
CONTINUOUS
 10
2.0895507653
 20
9.5866642041
 11
2.0895507653
 21
8.4379262041
  0
LINE
  5
732
100
AcDbEntity
  8
CURVE
100
AcDbLine
 62
7
  6
CONTINUOUS
 10
2.0968826086
 20
34.1370102041
 11
2.0968826086
 21
33.5575062041
  0
LINE
  5
733
100
AcDbEntity
  8
CURVE
100
AcDbLine
 62
7
  6
CONTINUOUS
 10
2.0979603749
 20
8.5946412041
 11
2.0979603749
 21
9.4260192041
  0
LINE
  5
734
100
AcDbEntity
  8
CURVE
100
AcDbLine
 62
7
  6
CONTINUOUS
 10
2.0979603749
 20
14.6195672041
 11
2.0979603749
 21
15.4510542041
  0
LINE
  5
735
100
AcDbEntity
  8
CURVE
100
AcDbLine
 62
253
  6
CONTINUOUS
 10
2.0980348139
 20
23.3679863665
 11
2.0980348139
 21
22.8387006102
  0
LINE
  5
736
100
AcDbEntity
  8
CURVE
100
AcDbLine
 62
253
  6
CONTINUOUS
 10
2.0980348139
 20
24.0442959604
 11
2.0980348139
 21
24.4853673259
  0
LINE
  5
737
100
AcDbEntity
  8
CURVE
100
AcDbLine
 62
7
  6
CONTINUOUS
 10
2.0983937526
 20
19.8863175527
 11
2.0983126853
 21
20.2791142041
  0
LINE
  5
738
100
AcDbEntity
  8
CURVE
100
AcDbLine
 62
253
  6
CONTINUOUS
 10
2.1045171365
 20
25.4263197244
 11
2.1045171365
 21
24.9558434883
  0
LINE
  5
739
100
AcDbEntity
  8
CURVE
100
AcDbLine
 62
7
  6
CONTINUOUS
 10
2.1067222949
 20
20.2791142041
 11
2.1067222949
 21
19.9158982041
  0
LINE
  5
73A
100
AcDbEntity
  8
CURVE
100
AcDbLine
 62
7
  6
CONTINUOUS
 10
2.1072004395
 20
31.4341255095
 11
2.1070532451
 21
31.8813114759
  0
LINE
  5
73B
100
AcDbEntity
  8
CURVE
100
AcDbLine
 62
253
  6
CONTINUOUS
 10
2.1109994592
 20
23.0151293919
 11
2.1109994592
 21
23.3679863665
  0
LINE
  5
73C
100
AcDbEntity
  8
CURVE
100
AcDbLine
 62
253
  6
CONTINUOUS
 10
2.1207229422
 20
24.4853673259
 11
2.1207229422
 21
24.0442959604
  0
LINE
  5
73D
100
AcDbEntity
  8
CURVE
100
AcDbLine
 62
253
  6
CONTINUOUS
 10
2.1207229422
 20
23.3679863665
 11
2.1207229422
 21
22.8387006102
  0
LINE
  5
73E
100
AcDbEntity
  8
CURVE
100
AcDbLine
 62
7
  6
CONTINUOUS
 10
2.1294297571
 20
18.4313772041
 11
2.1294297571
 21
17.8087712041
  0
LINE
  5
73F
100
AcDbEntity
  8
CURVE
100
AcDbLine
 62
7
  6
CONTINUOUS
 10
2.1294297571
 20
13.3101852041
 11
2.1294297571
 21
12.3863712041
  0
LINE
  5
740
100
AcDbEntity
  8
CURVE
100
AcDbLine
 62
7
  6
CONTINUOUS
 10
2.1294297571
 20
11.2737562041
 11
2.1294297571
 21
10.6913122041
  0
LINE
  5
741
100
AcDbEntity
  8
CURVE
100
AcDbLine
 62
7
  6
CONTINUOUS
 10
2.1294297571
 20
8.6105752041
 11
2.1294297571
 21
9.3496262041
  0
LINE
  5
742
100
AcDbEntity
  8
CURVE
100
AcDbLine
 62
7
  6
CONTINUOUS
 10
2.1294297571
 20
14.6356102041
 11
2.1294297571
 21
15.3746612041
  0
LINE
  5
743
100
AcDbEntity
  8
CURVE
100
AcDbLine
 62
7
  6
CONTINUOUS
 10
2.1295633524
 20
41.6027702041
 11
2.1295633524
 21
40.9452582041
  0
LINE
  5
744
100
AcDbEntity
  8
CURVE
100
AcDbLine
 62
7
  6
CONTINUOUS
 10
2.1295633524
 20
39.8229202041
 11
2.1295633524
 21
39.2180622041
  0
LINE
  5
745
100
AcDbEntity
  8
CURVE
100
AcDbLine
 62
7
  6
CONTINUOUS
 10
2.1295633524
 20
37.8005152041
 11
2.1295633524
 21
37.1957442041
  0
LINE
  5
746
100
AcDbEntity
  8
CURVE
100
AcDbLine
 62
7
  6
CONTINUOUS
 10
2.1295633524
 20
35.9915942041
 11
2.1295633524
 21
35.3927372041
  0
LINE
  5
747
100
AcDbEntity
  8
CURVE
100
AcDbLine
 62
7
  6
CONTINUOUS
 10
2.1295633524
 20
34.1170272041
 11
2.1295633524
 21
33.5315002041
  0
LINE
  5
748
100
AcDbEntity
  8
CURVE
100
AcDbLine
 62
7
  6
CONTINUOUS
 10
2.1295663886
 20
38.3881742041
 11
2.1295663886
 21
38.9934452041
  0
LINE
  5
749
100
AcDbEntity
  8
0
100
AcDbLine
 62
7
  6
CONTINUOUS
 10
2.1556277551
 20
6.9308111554
 11
2.1556277551
 21
42.2742092528
  0
LINE
  5
74A
100
AcDbEntity
  8
RACCORDO
100
AcDbLine
 62
7
  6
CONTINUOUS
 10
2.1556277551
 20
2.6713246482
 11
2.1556277551
 21
46.53369576
  0
LINE
  5
74B
100
AcDbEntity
  8
CURVE
100
AcDbLine
 62
7
  6
CONTINUOUS
 10
2.1213292622
 20
31.7013583488
 11
2.1213907759
 21
31.51991869
  0
LINE
  5
74C
100
AcDbEntity
  8
CURVE
100
AcDbLine
 62
7
  6
CONTINUOUS
 10
2.130189338
 20
31.5224891416
 11
2.1289721958
 21
32.4640775484
  0
LINE
  5
74D
100
AcDbEntity
  8
CURVE
100
AcDbLine
 62
7
  6
CONTINUOUS
 10
2.1293161887
 20
19.843649198
 11
2.1294297571
 21
20.9017202041
  0
LINE
  5
74E
100
AcDbEntity
  8
CURVE
100
AcDbLine
 62
7
  6
CONTINUOUS
 10
2.1210201475
 20
20.2791142041
 11
2.1209878742
 21
19.9004851472
  0
LINE
  5
74F
100
AcDbEntity
  8
CURVE
100
AcDbLine
 62
7
  6
CONTINUOUS
 10
2.1213907759
 20
31.51991869
 11
2.1211506865
 21
31.3739532671
  0
LINE
  5
750
100
AcDbEntity
  8
CURVE
100
AcDbLine
 62
7
  6
CONTINUOUS
 10
2.0987664793
 20
31.8612415873
 11
2.0986288094
 21
31.464535353
  0
LINE
  5
751
100
AcDbEntity
  8
CURVE
100
AcDbLine
 62
7
  6
CONTINUOUS
 10
2.1209878742
 20
19.9004851472
 11
2.1205006472
 21
19.7153411497
  0
LINE
  5
752
100
AcDbEntity
  8
CURVE
100
AcDbLine
 62
7
  6
CONTINUOUS
 10
2.1282288327
 20
19.4152781659
 11
2.1293161887
 21
19.843649198
  0
LINE
  5
753
100
AcDbEntity
  8
CURVE
100
AcDbLine
 62
7
  6
CONTINUOUS
 10
2.1288494131
 20
31.0414234439
 11
2.130189338
 21
31.5224891416
  0
LINE
  5
754
100
AcDbEntity
  8
RACCORDO
100
AcDbLine
 62
7
  6
CONTINUOUS
 10
1.9458838945
 20
11.8725046953
 11
1.9471515286
 21
12.0860310273
  0
LINE
  5
755
100
AcDbEntity
  8
ASSI
100
AcDbLine
 62
7
  6
CONTINUOUS
 10
1.9458536233
 20
11.866773453
 11
1.9471578785
 21
12.0869848116
  0
LINE
  5
756
100
AcDbEntity
  8
CURVE
100
AcDbLine
 62
7
  6
CONTINUOUS
 10
2.1211506865
 20
31.3739532671
 11
2.1206825621
 21
31.2873906409
  0
LINE
  5
757
100
AcDbEntity
  8
RACCORDO
100
AcDbLine
 62
7
  6
CONTINUOUS
 10
1.9471515286
 20
12.0860310273
 11
1.9485691405
 21
12.277373263
  0
LINE
  5
758
100
AcDbEntity
  8
ASSI
100
AcDbLine
 62
7
  6
CONTINUOUS
 10
1.9471578785
 20
12.0869848116
 11
1.9486211508
 21
12.2836926661
  0
LINE
  5
759
100
AcDbEntity
  8
CURVE
100
AcDbLine
 62
7
  6
CONTINUOUS
 10
2.0986288094
 20
31.464535353
 11
2.0981923883
 21
31.3952996243
  0
LINE
  5
75A
100
AcDbEntity
  8
CURVE
100
AcDbLine
 62
7
  6
CONTINUOUS
 10
2.1268258379
 20
19.2120422508
 11
2.1282288327
 21
19.4152781659
  0
LINE
  5
75B
100
AcDbEntity
  8
CURVE
100
AcDbLine
 62
7
  6
CONTINUOUS
 10
2.1205006472
 20
19.7153411497
 11
2.1200321944
 21
19.6479210099
  0
LINE
  5
75C
100
AcDbEntity
  8
CURVE
100
AcDbLine
 62
7
  6
CONTINUOUS
 10
2.1277804658
 20
30.8884790261
 11
2.1288494131
 21
31.0414234439
  0
LINE
  5
75D
100
AcDbEntity
  8
RACCORDO
100
AcDbLine
 62
7
  6
CONTINUOUS
 10
1.9485691405
 20
12.277373263
 11
1.9500987623
 21
12.4465416573
  0
LINE
  5
75E
100
AcDbEntity
  8
ASSI
100
AcDbLine
 62
7
  6
CONTINUOUS
 10
1.9486211508
 20
12.2836926661
 11
1.9502029069
 21
12.456878032
  0
LINE
  5
75F
100
AcDbEntity
  8
ASSI
100
AcDbLine
 62
7
  6
CONTINUOUS
 10
1.9492011938
 20
17.3513858889
 11
1.9508247795
 21
17.5158058778
  0
LINE
  5
760
100
AcDbEntity
  8
RACCORDO
100
AcDbLine
 62
7
  6
CONTINUOUS
 10
1.9493207861
 20
17.364719718
 11
1.9509028675
 21
17.5228828773
  0
LINE
  5
761
100
AcDbEntity
  8
CURVE
100
AcDbLine
 62
7
  6
CONTINUOUS
 10
2.1019650793
 20
30.8423650481
 11
2.1025839312
 21
30.9079544941
  0
LINE
  5
762
100
AcDbEntity
  8
CURVE
100
AcDbLine
 62
7
  6
CONTINUOUS
 10
2.0981923883
 20
31.3952996243
 11
2.0977707811
 21
31.3550210852
  0
LINE
  5
763
100
AcDbEntity
  8
CURVE
100
AcDbLine
 62
7
  6
CONTINUOUS
 10
2.1206825621
 20
31.2873906409
 11
2.1200070183
 21
31.2177625568
  0
LINE
  5
764
100
AcDbEntity
  8
RACCORDO
100
AcDbLine
 62
7
  6
CONTINUOUS
 10
1.9500987623
 20
12.4465416573
 11
1.9517296087
 21
12.5937886291
  0
LINE
  5
765
100
AcDbEntity
  8
ASSI
100
AcDbLine
 62
7
  6
CONTINUOUS
 10
1.9502029069
 20
12.456878032
 11
1.9518906527
 21
12.6068009011
  0
LINE
  5
766
100
AcDbEntity
  8
ASSI
100
AcDbLine
 62
7
  6
CONTINUOUS
 10
1.9508247795
 20
17.5158058778
 11
1.9525429768
 21
17.6570792483
  0
LINE
  5
767
100
AcDbEntity
  8
CURVE
100
AcDbLine
 62
7
  6
CONTINUOUS
 10
2.125518906
 20
19.096558653
 11
2.1268258379
 21
19.2120422508
  0
LINE
  5
768
100
AcDbEntity
  8
CURVE
100
AcDbLine
 62
7
  6
CONTINUOUS
 10
2.1017046314
 20
30.8222441985
 11
2.1019650793
 21
30.8423650481
  0
LINE
  5
769
100
AcDbEntity
  8
RACCORDO
100
AcDbLine
 62
7
  6
CONTINUOUS
 10
1.9509028675
 20
17.5228828773
 11
1.9525726608
 21
17.6592761639
  0
LINE
  5
76A
100
AcDbEntity
  8
CURVE
100
AcDbLine
 62
7
  6
CONTINUOUS
 10
2.1200321944
 20
19.6479210099
 11
2.1195767777
 21
19.6083092078
  0
LINE
  5
76B
100
AcDbEntity
  8
CURVE
100
AcDbLine
 62
7
  6
CONTINUOUS
 10
2.1264118924
 20
30.77728864
 11
2.1277804658
 21
30.8884790261
  0
LINE
  5
76C
100
AcDbEntity
  8
RACCORDO
100
AcDbLine
 62
7
  6
CONTINUOUS
 10
1.9517296087
 20
12.5937886291
 11
1.9534282998
 21
12.7192513705
  0
LINE
  5
76D
100
AcDbEntity
  8
CURVE
100
AcDbLine
 62
7
  6
CONTINUOUS
 10
2.1200070183
 20
31.2177625568
 11
2.1195114644
 21
31.1822260693
  0
LINE
  5
76E
100
AcDbEntity
  8
ASSI
100
AcDbLine
 62
7
  6
CONTINUOUS
 10
1.9518906527
 20
12.6068009011
 11
1.9536465526
 21
12.7335338968
  0
LINE
  5
76F
100
AcDbEntity
  8
RACCORDO
100
AcDbLine
 62
7
  6
CONTINUOUS
 10
1.9525726608
 20
17.6592761639
 11
1.9540774539
 21
17.7605636558
  0
LINE
  5
770
100
AcDbEntity
  8
ASSI
100
AcDbLine
 62
7
  6
CONTINUOUS
 10
1.9525429768
 20
17.6570792483
 11
1.9540930828
 21
17.7615154284
  0
LINE
  5
771
100
AcDbEntity
  8
CURVE
100
AcDbLine
 62
253
  6
CONTINUOUS
 10
2.0529078774
 20
14.5239386461
 11
2.0576449598
 21
14.7953675411
  0
LINE
  5
772
100
AcDbEntity
  8
CURVE
100
AcDbLine
 62
253
  6
CONTINUOUS
 10
2.0671191227
 20
9.3667955301
 11
2.0718562042
 21
9.6382248781
  0
LINE
  5
773
100
AcDbEntity
  8
CURVE
100
AcDbLine
 62
253
  6
CONTINUOUS
 10
2.0718562042
 20
8.2810817621
 11
2.0671191227
 21
8.0096533201
  0
LINE
  5
774
100
AcDbEntity
  8
CURVE
100
AcDbLine
 62
7
  6
CONTINUOUS
 10
2.1253915983
 20
30.715466146
 11
2.1264118924
 21
30.77728864
  0
LINE
  5
775
100
AcDbEntity
  8
RACCORDO
100
AcDbLine
 62
7
  6
CONTINUOUS
 10
1.9534282998
 20
12.7192513705
 11
1.9549494402
 21
12.8107284514
  0
LINE
  5
776
100
AcDbEntity
  8
CURVE
100
AcDbLine
 62
7
  6
CONTINUOUS
 10
2.124252137
 20
19.0178394231
 11
2.125518906
 21
19.096558653
  0
LINE
  5
777
100
AcDbEntity
  8
CURVE
100
AcDbLine
 62
253
  6
CONTINUOUS
 10
2.1207229422
 20
24.0442959604
 11
2.1174817812
 21
23.8678674731
  0
LINE
  5
778
100
AcDbEntity
  8
CURVE
100
AcDbLine
 62
7
  6
CONTINUOUS
 10
2.1195767777
 20
19.6083092078
 11
2.1191239123
 21
19.5805740988
  0
LINE
  5
779
100
AcDbEntity
  8
ASSI
100
AcDbLine
 62
7
  6
CONTINUOUS
 10
1.9536465526
 20
12.7335338968
 11
1.9552166219
 21
12.8249457072
  0
LINE
  5
77A
100
AcDbEntity
  8
RACCORDO
100
AcDbLine
 62
7
  6
CONTINUOUS
 10
1.9540774539
 20
17.7605636558
 11
1.9556044135
 21
17.8446671855
  0
LINE
  5
77B
100
AcDbEntity
  8
ASSI
100
AcDbLine
 62
7
  6
CONTINUOUS
 10
1.9540930828
 20
17.7615154284
 11
1.9556662182
 21
17.8477127702
  0
LINE
  5
77C
100
AcDbEntity
  8
CURVE
100
AcDbLine
 62
253
  6
CONTINUOUS
 10
2.0671191227
 20
14.5691770217
 11
2.0718562042
 21
14.7953675411
  0
LINE
  5
77D
100
AcDbEntity
  8
RACCORDO
100
AcDbLine
 62
7
  6
CONTINUOUS
 10
1.9556044135
 20
17.8446671855
 11
1.9561288915
 21
17.8696482563
  0
LINE
  5
77E
100
AcDbEntity
  8
RACCORDO
100
AcDbLine
 62
7
  6
CONTINUOUS
 10
1.9549494402
 20
12.8107284514
 11
1.9561288915
 21
12.8696482563
  0
LINE
  5
77F
100
AcDbEntity
  8
ASSI
100
AcDbLine
 62
7
  6
CONTINUOUS
 10
1.9556662182
 20
17.8477127702
 11
1.9561282726
 21
17.8696474933
  0
LINE
  5
780
100
AcDbEntity
  8
ASSI
100
AcDbLine
 62
7
  6
CONTINUOUS
 10
1.9552166219
 20
12.8249457072
 11
1.9561282726
 21
12.8696474933
  0
LINE
  5
781
100
AcDbEntity
  8
CURVE
100
AcDbLine
 62
7
  6
CONTINUOUS
 10
2.1191239123
 20
19.5805740988
 11
2.1187378834
 21
19.5623699613
  0
LINE
  5
782
100
AcDbEntity
  8
CURVE
100
AcDbLine
 62
7
  6
CONTINUOUS
 10
2.123164928
 20
18.9672360679
 11
2.124252137
 21
19.0178394231
  0
LWPOLYLINE
  5
783
100
AcDbEntity
  8
RACCORDO
100
AcDbPolyline
 62
7
  6
CONTINUOUS
 90
34
 70
0
 10
1.6556277551
 20
0.3525059733
 10
1.6553446049
 20
0.3406106881
 10
1.6544957893
 20
0.3287423485
 10
1.6530832293
 20
0.3169278379
 10
1.6511101228
 20
0.3051939166
 10
1.6485809368
 20
0.2935671653
 10
1.6455013968
 20
0.2820739251
 10
1.6418784764
 20
0.2707402303
 10
1.6377203809
 20
0.2595917548
 10
1.6330365273
 20
0.2486537578
 10
1.6278375239
 20
0.2379510165
 10
1.6221351467
 20
0.2275077758
 10
1.6159423132
 20
0.2173476982
 10
1.6092730506
 20
0.207493799
 10
1.6021424658
 20
0.1979684002
 10
1.594566714
 20
0.188793085
 10
1.5865629556
 20
0.179988638
 10
1.5781493212
 20
0.1715750036
 10
1.5693448742
 20
0.1635712452
 10
1.5601695589
 20
0.1559954934
 10
1.5506441602
 20
0.1488649086
 10
1.540790261
 20
0.1421956459
 10
1.5306301834
 20
0.1360028124
 10
1.5201869427
 20
0.1303004353
 10
1.5094842014
 20
0.1251014319
 10
1.4985462044
 20
0.1204175783
 10
1.4873977289
 20
0.1162594827
 10
1.4760640341
 20
0.1126365624
 10
1.4645707939
 20
0.1095570224
 10
1.4529440426
 20
0.1070278364
 10
1.4412101212
 20
0.1050547299
 10
1.4293956107
 20
0.1036421698
 10
1.4175272711
 20
0.1027933543
 10
1.4056319859
 20
0.1025102041
  0
LINE
  5
784
100
AcDbEntity
  8
CURVE
100
AcDbLine
 62
253
  6
CONTINUOUS
 10
2.0613847603
 20
23.1501292518
 11
2.0516612773
 21
22.7787005476
  0
LWPOLYLINE
  5
785
100
AcDbEntity
  8
RACCORDO
100
AcDbPolyline
 62
253
  6
CONTINUOUS
 90
31
 70
0
 10
1.6512559211
 20
0.3568778073
 10
1.6509128825
 20
0.3437943213
 10
1.6498855926
 20
0.3307466947
 10
1.6481768671
 20
0.3177706886
 10
1.6457913891
 20
0.3049018677
 10
1.6427356969
 20
0.2921755032
 10
1.6390181655
 20
0.2796264755
 10
1.634648984
 20
0.2672891792
 10
1.6296401275
 20
0.2551974286
 10
1.6240053244
 20
0.2433843648
 10
1.6177600185
 20
0.2318823652
 10
1.6109213271
 20
0.2207229547
 10
1.6035079937
 20
0.2099367191
 10
1.5955403369
 20
0.1995532215
 10
1.5870401946
 20
0.189600921
 10
1.5780308641
 20
0.1801070951
 10
1.5685370382
 20
0.1710977645
 10
1.5585847377
 20
0.1625976222
 10
1.5482012401
 20
0.1546299655
 10
1.5374150045
 20
0.1472166321
 10
1.526255594
 20
0.1403779407
 10
1.5147535944
 20
0.1341326348
 10
1.5029405306
 20
0.1284978316
 10
1.49084878
 20
0.1234889751
 10
1.4785114837
 20
0.1191197937
 10
1.465962456
 20
0.1154022623
 10
1.4532360915
 20
0.1123465701
 10
1.4403672706
 20
0.1099610921
 10
1.4273912645
 20
0.1082523665
 10
1.4143436379
 20
0.1072250767
 10
1.4012601519
 20
0.1068820381
  0
LINE
  5
786
100
AcDbEntity
  8
CURVE
100
AcDbLine
 62
7
  6
CONTINUOUS
 10
2.1187378834
 20
19.5623699613
 11
2.1183229027
 21
19.5462558833
  0
LINE
  5
787
100
AcDbEntity
  8
CURVE
100
AcDbLine
 62
7
  6
CONTINUOUS
 10
2.1223835712
 20
18.937803206
 11
2.123164928
 21
18.9672360679
  0
LINE
  5
788
100
AcDbEntity
  8
CURVE
100
AcDbLine
 62
7
  6
CONTINUOUS
 10
2.1183229027
 20
19.5462558833
 11
2.1178031059
 21
19.5295437429
  0
LINE
  5
789
100
AcDbEntity
  8
CURVE
100
AcDbLine
 62
7
  6
CONTINUOUS
 10
2.1215644677
 20
18.911912538
 11
2.1223835712
 21
18.937803206
  0
LINE
  5
78A
100
AcDbEntity
  8
CURVE
100
AcDbLine
 62
253
  6
CONTINUOUS
 10
2.0910538513
 20
24.8144149772
 11
2.0683657229
 21
24.1644148997
  0
LINE
  5
78B
100
AcDbEntity
  8
CURVE
100
AcDbLine
 62
253
  6
CONTINUOUS
 10
2.0442232275
 20
12.0810817621
 11
2.0426442001
 21
12.0358433864
  0
LINE
  5
78C
100
AcDbEntity
  8
CURVE
100
AcDbLine
 62
253
  6
CONTINUOUS
 10
2.0434337139
 20
8.6882248781
 11
2.0481707959
 21
8.8239386461
  0
LINE
  5
78D
100
AcDbEntity
  8
CURVE
100
AcDbLine
 62
253
  6
CONTINUOUS
 10
2.0671191227
 20
8.0096533201
 11
2.0623820413
 21
7.8739386461
  0
LINE
  5
78E
100
AcDbEntity
  8
CURVE
100
AcDbLine
 62
7
  6
CONTINUOUS
 10
2.1294297571
 20
12.3863712041
 11
2.0893282461
 21
11.2737562041
  0
LINE
  5
78F
100
AcDbEntity
  8
CURVE
100
AcDbLine
 62
253
  6
CONTINUOUS
 10
2.1207229422
 20
26.6025102041
 11
2.1077582975
 21
26.2496530455
  0
LINE
  5
790
100
AcDbEntity
  8
CURVE
100
AcDbLine
 62
7
  6
CONTINUOUS
 10
2.0788254694
 20
11.5749642041
 11
2.1211778234
 21
12.7277402041
  0
LINE
  5
791
100
AcDbEntity
  8
CURVE
100
AcDbLine
 62
7
  6
CONTINUOUS
 10
2.1178031059
 20
19.5295437429
 11
2.1174152367
 21
19.519154539
  0
LWPOLYLINE
  5
792
100
AcDbEntity
  8
RACCORDO
100
AcDbPolyline
 62
253
  6
CONTINUOUS
 90
9
 70
0
 10
1.6596785992
 20
12.7046730643
 10
1.6582257215
 20
12.6678533853
 10
1.6567972908
 20
12.6209423815
 10
1.6554135108
 20
12.5642109394
 10
1.6540752768
 20
12.4979901147
 10
1.6527816937
 20
12.4226389904
 10
1.6515502793
 20
12.3385172185
 10
1.6503819224
 20
12.2460617936
 10
1.6482465669
 20
12.0379933702
  0
LWPOLYLINE
  5
793
100
AcDbEntity
  8
ASSI
100
AcDbPolyline
 62
253
  6
CONTINUOUS
 90
9
 70
0
 10
1.6596785992
 20
12.7046730643
 10
1.6582257215
 20
12.6678533853
 10
1.6567972908
 20
12.6209423815
 10
1.6554135108
 20
12.5642109394
 10
1.6540752768
 20
12.4979901147
 10
1.6527816937
 20
12.4226389904
 10
1.6515502793
 20
12.3385172185
 10
1.6503819224
 20
12.2460617936
 10
1.6482465669
 20
12.0379933702
  0
LWPOLYLINE
  5
794
100
AcDbEntity
  8
CURVE
100
AcDbPolyline
 62
7
  6
CONTINUOUS
 90
16
 70
0
 10
2.1174152367
 20
19.519154539
 10
2.117017232
 20
19.5101960662
 10
2.1168147839
 20
19.5062692583
 10
2.116596026
 20
19.5024834633
 10
2.1163751012
 20
19.4991093811
 10
2.1161522518
 20
19.4961280705
 10
2.1159277203
 20
19.4935205902
 10
2.1157017488
 20
19.4912679989
 10
2.1154745797
 20
19.4893513553
 10
2.1152464553
 20
19.4877517181
 10
2.1150176179
 20
19.4864501461
 10
2.1147883098
 20
19.485427698
 10
2.1145587735
 20
19.4846654324
 10
2.114329251
 20
19.4841444081
 10
2.1140999849
 20
19.4838456838
 10
2.1138712174
 20
19.4837503182
  0
LINE
  5
795
100
AcDbEntity
  8
CURVE
100
AcDbLine
 62
7
  6
CONTINUOUS
 10
2.0788254694
 20
13.6274362041
 11
2.1294297571
 21
14.6356102041
  0
LINE
  5
796
100
AcDbEntity
  8
CURVE
100
AcDbLine
 62
7
  6
CONTINUOUS
 10
2.0788254694
 20
7.6025102041
 11
2.1294297571
 21
8.6105752041
  0
LINE
  5
797
100
AcDbEntity
  8
CURVE
100
AcDbLine
 62
7
  6
CONTINUOUS
 10
2.0895507653
 20
14.4629612041
 11
2.0788254694
 21
14.2540792041
  0
LINE
  5
798
100
AcDbEntity
  8
CURVE
100
AcDbLine
 62
7
  6
CONTINUOUS
 10
2.0895507653
 20
8.4379262041
 11
2.0788254694
 21
8.2289362041
  0
LINE
  5
799
100
AcDbEntity
  8
CURVE
100
AcDbLine
 62
7
  6
CONTINUOUS
 10
2.1197598045
 20
15.0210392041
 11
2.0979603749
 21
14.6195672041
  0
LINE
  5
79A
100
AcDbEntity
  8
CURVE
100
AcDbLine
 62
7
  6
CONTINUOUS
 10
2.1197569428
 20
8.9960612041
 11
2.0979603749
 21
8.5946412041
  0
LINE
  5
79B
100
AcDbEntity
  8
CURVE
100
AcDbLine
 62
253
  6
CONTINUOUS
 10
2.0613847603
 20
24.7287007026
 11
2.038696632
 21
24.3572721533
  0
LINE
  5
79C
100
AcDbEntity
  8
CURVE
100
AcDbLine
 62
253
  6
CONTINUOUS
 10
2.1207229422
 20
25.1910815696
 11
2.0980348139
 21
24.8382244477
  0
LWPOLYLINE
  5
79D
100
AcDbEntity
  8
RACCORDO
100
AcDbPolyline
 62
253
  6
CONTINUOUS
 90
4
 70
0
 10
1.6641637096
 20
17.7525102041
 10
1.6626442259
 20
17.7471597579
 10
1.6611491891
 20
17.7311701488
 10
1.6596785992
 20
17.7046730643
  0
LWPOLYLINE
  5
79E
100
AcDbEntity
  8
ASSI
100
AcDbPolyline
 62
253
  6
CONTINUOUS
 90
4
 70
0
 10
1.6641637096
 20
17.7525102041
 10
1.6626442259
 20
17.7471597579
 10
1.6611491891
 20
17.7311701488
 10
1.6596785992
 20
17.7046730643
  0
LINE
  5
79F
100
AcDbEntity
  8
ASSI
100
AcDbLine
 62
7
  6
CONTINUOUS
 10
-13.2553253361
 20
0.9803687384
 11
-13.2287757986
 21
1.0107187789
  0
LINE
  5
7A0
100
AcDbEntity
  8
ASSI
100
AcDbLine
 62
7
  6
CONTINUOUS
 10
-13.2287757986
 20
1.0107187789
 11
-13.1984172375
 21
1.0448952227
  0
LINE
  5
7A1
100
AcDbEntity
  8
ASSI
100
AcDbLine
 62
7
  6
CONTINUOUS
 10
-13.1984172375
 20
1.0448952227
 11
-13.1642399606
 21
1.0828934838
  0
LWPOLYLINE
  5
7A2
100
AcDbEntity
  8
ASSI
100
AcDbPolyline
 62
7
  6
CONTINUOUS
 90
3
 70
0
 10
-13.1642399606
 20
1.0828934838
 10
-13.1059424876
 20
1.1469812606
 10
-13.0847077495
 20
1.170194624
  0
LINE
  5
7A3
100
AcDbEntity
  8
DRAFT
100
AcDbLine
 62
7
  6
CONTINUOUS
 10
-12.4943722449
 20
4.9025102041
 11
-12.4577166085
 21
4.9391658404
  0
LINE
  5
7A4
100
AcDbEntity
  8
0
100
AcDbLine
 62
7
  6
CONTINUOUS
 10
-12.4943722449
 20
4.9025102041
 11
-12.4577166085
 21
4.9391658404
  0
LINE
  5
7A5
100
AcDbEntity
  8
DRAFT
100
AcDbLine
 62
7
  6
CONTINUOUS
 10
-12.4577166085
 20
4.7391658404
 11
-12.4943722449
 21
4.7025102041
  0
LINE
  5
7A6
100
AcDbEntity
  8
0
100
AcDbLine
 62
7
  6
CONTINUOUS
 10
-12.4577166085
 20
4.7391658404
 11
-12.4943722449
 21
4.7025102041
  0
LINE
  5
7A7
100
AcDbEntity
  8
RACCORDO
100
AcDbLine
 62
253
  6
CONTINUOUS
 10
-20.1443722449
 20
6.9308111554
 11
-20.0221867904
 21
6.9814220277
  0
LINE
  5
7A8
100
AcDbEntity
  8
0
100
AcDbLine
 62
253
  6
CONTINUOUS
 10
-20.1443722449
 20
6.9308111554
 11
-20.0221867904
 21
6.9814220277
  0
LINE
  5
7A9
100
AcDbEntity
  8
CURVE
100
AcDbLine
 62
253
  6
CONTINUOUS
 10
-5.9229436956
 20
35.6739385984
 11
-5.3658008329
 21
35.6739385984
  0
LINE
  5
7AA
100
AcDbEntity
  8
CURVE
100
AcDbLine
 62
253
  6
CONTINUOUS
 10
-1.9229436956
 20
35.6739385984
 11
-1.3658008329
 21
35.6739385984
  0
LINE
  5
7AB
100
AcDbEntity
  8
CURVE
100
AcDbLine
 62
253
  6
CONTINUOUS
 10
2.038696632
 20
35.8979863665
 11
2.0613847603
 21
35.8979863665
  0
LINE
  5
7AC
100
AcDbEntity
  8
CURVE
100
AcDbLine
 62
253
  6
CONTINUOUS
 10
-4.9943722449
 20
36.3239385984
 11
-5.9229436956
 21
36.6025102041
  0
LINE
  5
7AD
100
AcDbEntity
  8
RACCORDO
100
AcDbLine
 62
253
  6
CONTINUOUS
 10
-20.0221867904
 20
42.2235983804
 11
-20.1443722449
 21
42.2742092528
  0
LINE
  5
7AE
100
AcDbEntity
  8
0
100
AcDbLine
 62
253
  6
CONTINUOUS
 10
-20.0221867904
 20
42.2235983804
 11
-20.1443722449
 21
42.2742092528
  0
LINE
  5
7AF
100
AcDbEntity
  8
CURVE
100
AcDbLine
 62
253
  6
CONTINUOUS
 10
-5.3658008329
 20
35.6739385984
 11
-5.1800865389
 21
35.5810818098
  0
LINE
  5
7B0
100
AcDbEntity
  8
CURVE
100
AcDbLine
 62
253
  6
CONTINUOUS
 10
-1.9229436956
 20
34.0025102041
 11
-2.1086579703
 21
34.0953673027
  0
LINE
  5
7B1
100
AcDbEntity
  8
CURVE
100
AcDbLine
 62
253
  6
CONTINUOUS
 10
-1.3658008329
 20
34.6525102041
 11
-1.1800865389
 21
34.5596531055
  0
LINE
  5
7B2
100
AcDbEntity
  8
CURVE
100
AcDbLine
 62
253
  6
CONTINUOUS
 10
-1.9229436956
 20
35.0239389083
 11
-2.1086579703
 21
35.1167960069
  0
LWPOLYLINE
  5
7B3
100
AcDbEntity
  8
RACCORDO
100
AcDbPolyline
 62
253
  6
CONTINUOUS
 90
4
 70
0
 10
-10.8872085278
 20
41.9469589102
 10
-10.9241855778
 20
41.9800321892
 10
-10.954179866
 20
42.0183461254
 10
-10.9762800311
 20
42.0607365693
  0
LWPOLYLINE
  5
7B4
100
AcDbEntity
  8
0
100
AcDbPolyline
 62
253
  6
CONTINUOUS
 90
4
 70
0
 10
-10.8872085278
 20
41.9469589102
 10
-10.9241855778
 20
41.9800321892
 10
-10.954179866
 20
42.0183461254
 10
-10.9762800311
 20
42.0607365693
  0
LINE
  5
7B5
100
AcDbEntity
  8
DRAFT
100
AcDbLine
 62
7
  6
CONTINUOUS
 10
-12.4943722449
 20
44.3025102041
 11
-12.4577166085
 21
44.2658545677
  0
LINE
  5
7B6
100
AcDbEntity
  8
0
100
AcDbLine
 62
7
  6
CONTINUOUS
 10
-12.4943722449
 20
44.3025102041
 11
-12.4577166085
 21
44.2658545677
  0
LINE
  5
7B7
100
AcDbEntity
  8
CURVE
100
AcDbLine
 62
253
  6
CONTINUOUS
 10
-2.1086579703
 20
34.0953673027
 11
-2.2943722449
 21
34.2810814998
  0
LINE
  5
7B8
100
AcDbEntity
  8
DRAFT
100
AcDbLine
 62
7
  6
CONTINUOUS
 10
-12.4943722449
 20
44.5025102041
 11
-12.4577166085
 21
44.4658545677
  0
LINE
  5
7B9
100
AcDbEntity
  8
0
100
AcDbLine
 62
7
  6
CONTINUOUS
 10
-12.4943722449
 20
44.5025102041
 11
-12.4577166085
 21
44.4658545677
  0
LINE
  5
7BA
100
AcDbEntity
  8
CURVE
100
AcDbLine
 62
253
  6
CONTINUOUS
 10
-0.9943722449
 20
33.5382244012
 11
-1.0872293919
 21
33.6310814998
  0
LINE
  5
7BB
100
AcDbEntity
  8
CURVE
100
AcDbLine
 62
253
  6
CONTINUOUS
 10
-2.1086579703
 20
35.1167960069
 11
-2.2943722449
 21
35.3025102041
  0
LINE
  5
7BC
100
AcDbEntity
  8
CURVE
100
AcDbLine
 62
253
  6
CONTINUOUS
 10
-1.1800865389
 20
34.5596531055
 11
-0.9943722449
 21
34.3739389083
  0
LINE
  5
7BD
100
AcDbEntity
  8
ASSI
100
AcDbLine
 62
7
  6
CONTINUOUS
 10
-13.0848069408
 20
48.0349342296
 11
-13.1458534485
 21
48.1018197255
  0
LINE
  5
7BE
100
AcDbEntity
  8
ASSI
100
AcDbLine
 62
7
  6
CONTINUOUS
 10
-13.1458534485
 20
48.1018197255
 11
-13.1819696481
 21
48.1417941227
  0
LINE
  5
7BF
100
AcDbEntity
  8
ASSI
100
AcDbLine
 62
7
  6
CONTINUOUS
 10
-13.1819696481
 20
48.1417941227
 11
-13.2142753352
 21
48.1779151245
  0
LWPOLYLINE
  5
7C0
100
AcDbEntity
  8
ASSI
100
AcDbPolyline
 62
7
  6
CONTINUOUS
 90
19
 70
0
 10
-13.2142753352
 20
48.1779151245
 10
-13.2427471839
 20
48.2102087534
 10
-13.2555565959
 20
48.2249182033
 10
-13.2674700322
 20
48.2387483933
 10
-13.2784954349
 20
48.2516983643
 10
-13.2886441929
 20
48.2637690754
 10
-13.2979605946
 20
48.2750346979
 10
-13.3064474806
 20
48.2854917463
 10
-13.3141245189
 20
48.2951437061
 10
-13.3210450595
 20
48.3040752059
 10
-13.3272243704
 20
48.3123063303
 10
-13.3326520633
 20
48.3198169947
 10
-13.3373334204
 20
48.3266315736
 10
-13.341277887
 20
48.3327458353
 10
-13.3444935322
 20
48.3381640114
 10
-13.3469887312
 20
48.3429231719
 10
-13.3487776769
 20
48.3470356732
 10
-13.3498774461
 20
48.3504891589
 10
-13.3503049776
 20
48.3532836288
  0
LWPOLYLINE
  5
7C1
100
AcDbEntity
  8
RACCORDO
100
AcDbPolyline
 62
253
  6
CONTINUOUS
 90
4
 70
0
 10
1.6641637096
 20
12.7525102041
 10
1.6626442259
 20
12.7471597579
 10
1.6611491891
 20
12.7311701488
 10
1.6596785992
 20
12.7046730643
  0
LWPOLYLINE
  5
7C2
100
AcDbEntity
  8
ASSI
100
AcDbPolyline
 62
253
  6
CONTINUOUS
 90
4
 70
0
 10
1.6641637096
 20
12.7525102041
 10
1.6626442259
 20
12.7471597579
 10
1.6611491891
 20
12.7311701488
 10
1.6596785992
 20
12.7046730643
  0
LINE
  5
7C3
100
AcDbEntity
  8
DRAFT
100
AcDbLine
 62
7
  6
CONTINUOUS
 10
-0.7478595358
 20
3.6920398236
 11
-0.7443722449
 21
3.7025102041
  0
LWPOLYLINE
  5
7C4
100
AcDbEntity
  8
ASSI
100
AcDbPolyline
 62
7
  6
CONTINUOUS
 90
3
 70
0
 10
-13.0847077495
 20
1.170194624
 10
-12.9938873324
 20
1.2687811071
 10
-12.9223422326
 20
1.3461523894
  0
LINE
  5
7C5
100
AcDbEntity
  8
ASSI
100
AcDbLine
 62
7
  6
CONTINUOUS
 10
-13.3943722449
 20
0.8025102041
 11
-13.350721598
 21
0.8461608509
  0
LWPOLYLINE
  5
7C6
100
AcDbEntity
  8
RACCORDO
100
AcDbPolyline
 62
253
  6
CONTINUOUS
 90
4
 70
0
 10
-10.8876944356
 20
7.2576960332
 10
-10.8446489016
 20
7.2847461642
 10
-10.7971241815
 20
7.3046086603
 10
-10.7465147102
 20
7.3167542781
  0
LWPOLYLINE
  5
7C7
100
AcDbEntity
  8
0
100
AcDbPolyline
 62
253
  6
CONTINUOUS
 90
4
 70
0
 10
-10.8876944356
 20
7.2576960332
 10
-10.8446489016
 20
7.2847461642
 10
-10.7971241815
 20
7.3046086603
 10
-10.7465147102
 20
7.3167542781
  0
LINE
  5
7C8
100
AcDbEntity
  8
RACCORDO
100
AcDbLine
 62
253
  6
CONTINUOUS
 10
-19.5586750254
 20
5.5168129846
 11
-19.4364895709
 21
5.5674238569
  0
LINE
  5
7C9
100
AcDbEntity
  8
0
100
AcDbLine
 62
253
  6
CONTINUOUS
 10
-19.5586750254
 20
5.5168129846
 11
-19.4364895709
 21
5.5674238569
  0
LINE
  5
7CA
100
AcDbEntity
  8
CURVE
100
AcDbLine
 62
253
  6
CONTINUOUS
 10
2.038696632
 20
37.7504863665
 11
2.0613847603
 21
37.7504863665
  0
LINE
  5
7CB
100
AcDbEntity
  8
CURVE
100
AcDbLine
 62
7
  6
CONTINUOUS
 10
2.0789651372
 20
38.3881742041
 11
2.1295663886
 21
38.3881742041
  0
LINE
  5
7CC
100
AcDbEntity
  8
CURVE
100
AcDbLine
 62
253
  6
CONTINUOUS
 10
-6.2943722449
 20
38.8310818098
 11
-4.9943722449
 21
38.8310818098
  0
LINE
  5
7CD
100
AcDbEntity
  8
CURVE
100
AcDbLine
 62
7
  6
CONTINUOUS
 10
2.1295663886
 20
38.9934452041
 11
2.0789651372
 21
38.9934452041
  0
LINE
  5
7CE
100
AcDbEntity
  8
CURVE
100
AcDbLine
 62
253
  6
CONTINUOUS
 10
-4.9943722449
 20
36.8810818098
 11
-6.2943722449
 21
37.1596527956
  0
LINE
  5
7CF
100
AcDbEntity
  8
CURVE
100
AcDbLine
 62
253
  6
CONTINUOUS
 10
-0.9943722449
 20
36.8810818098
 11
-2.2943722449
 21
37.1596527956
  0
LINE
  5
7D0
100
AcDbEntity
  8
CURVE
100
AcDbLine
 62
253
  6
CONTINUOUS
 10
-0.9943722449
 20
36.3239385984
 11
-1.9229436956
 21
36.6025102041
  0
LINE
  5
7D1
100
AcDbEntity
  8
RACCORDO
100
AcDbLine
 62
253
  6
CONTINUOUS
 10
-19.4364895709
 20
43.6375965512
 11
-19.5586750254
 21
43.6882074236
  0
LINE
  5
7D2
100
AcDbEntity
  8
0
100
AcDbLine
 62
253
  6
CONTINUOUS
 10
-19.4364895709
 20
43.6375965512
 11
-19.5586750254
 21
43.6882074236
  0
LINE
  5
7D3
100
AcDbEntity
  8
CURVE
100
AcDbLine
 62
253
  6
CONTINUOUS
 10
-1.3658008329
 20
35.6739385984
 11
-1.1800865389
 21
35.5810818098
  0
LINE
  5
7D4
100
AcDbEntity
  8
CURVE
100
AcDbLine
 62
253
  6
CONTINUOUS
 10
-1.1800865389
 20
35.5810818098
 11
-0.9943722449
 21
35.3953676126
  0
LINE
  5
7D5
100
AcDbEntity
  8
ASSI
100
AcDbLine
 62
7
  6
CONTINUOUS
 10
-13.3943722449
 20
48.4025102041
 11
-13.350721598
 21
48.3588595572
  0
LINE
  5
7D6
100
AcDbEntity
  8
ASSI
100
AcDbLine
 62
7
  6
CONTINUOUS
 10
-12.9223422326
 20
47.8588680188
 11
-13.0174156652
 21
47.9616959047
  0
LINE
  5
7D7
100
AcDbEntity
  8
ASSI
100
AcDbLine
 62
7
  6
CONTINUOUS
 10
-13.0174156652
 20
47.9616959047
 11
-13.0848069408
 21
48.0349342296
  0
LINE
  5
7D8
100
AcDbEntity
  8
DRAFT
100
AcDbLine
 62
7
  6
CONTINUOUS
 10
-0.7478595358
 20
45.5129805845
 11
-0.7443722449
 21
45.5025102041
  0
LINE
  5
7D9
100
AcDbEntity
  8
CURVE
100
AcDbLine
 62
7
  6
CONTINUOUS
 10
2.1120048223
 20
37.3526722041
 11
2.0789651372
 21
37.4832892041
  0
LINE
  5
7DA
100
AcDbEntity
  8
CURVE
100
AcDbLine
 62
7
  6
CONTINUOUS
 10
2.0789651372
 20
38.0623372041
 11
2.1295633524
 21
37.8005152041
  0
LINE
  5
7DB
100
AcDbEntity
  8
CURVE
100
AcDbLine
 62
253
  6
CONTINUOUS
 10
-0.9943722449
 20
39.2025102041
 11
-2.2943722449
 21
39.2025102041
  0
LINE
  5
7DC
100
AcDbEntity
  8
CURVE
100
AcDbLine
 62
253
  6
CONTINUOUS
 10
-4.9943722449
 20
39.6667960069
 11
-6.2943722449
 21
39.6667960069
  0
LINE
  5
7DD
100
AcDbEntity
  8
CURVE
100
AcDbLine
 62
253
  6
CONTINUOUS
 10
-0.9943722449
 20
39.9453676126
 11
-2.2943722449
 21
39.9453676126
  0
LINE
  5
7DE
100
AcDbEntity
  8
CURVE
100
AcDbLine
 62
253
  6
CONTINUOUS
 10
2.0613847603
 20
40.6321530823
 11
2.038696632
 21
40.6321530823
  0
LINE
  5
7DF
100
AcDbEntity
  8
CURVE
100
AcDbLine
 62
253
  6
CONTINUOUS
 10
2.0419377933
 20
40.9850102041
 11
2.0451789547
 21
40.9850102041
  0
LWPOLYLINE
  5
7E0
100
AcDbEntity
  8
RACCORDO
100
AcDbPolyline
 62
253
  6
CONTINUOUS
 90
3
 70
0
 10
-10.7969782879
 20
41.9003642147
 10
-10.8443722449
 20
41.9201312033
 10
-10.8872085278
 20
41.9469589102
  0
LWPOLYLINE
  5
7E1
100
AcDbEntity
  8
0
100
AcDbPolyline
 62
253
  6
CONTINUOUS
 90
3
 70
0
 10
-10.7969782879
 20
41.9003642147
 10
-10.8443722449
 20
41.9201312033
 10
-10.8872085278
 20
41.9469589102
  0
LINE
  5
7E2
100
AcDbEntity
  8
DRAFT
100
AcDbLine
 62
7
  6
CONTINUOUS
 10
-1.752550543
 20
3.6065146584
 11
-1.6955345703
 21
3.6920398236
  0
LWPOLYLINE
  5
7E3
100
AcDbEntity
  8
RACCORDO
100
AcDbPolyline
 62
253
  6
CONTINUOUS
 90
3
 70
0
 10
-7.1916203083
 20
41.9004117479
 10
-7.2422297796
 20
41.8882661301
 10
-7.2943722449
 20
41.8841820468
  0
LWPOLYLINE
  5
7E4
100
AcDbEntity
  8
0
100
AcDbPolyline
 62
253
  6
CONTINUOUS
 90
3
 70
0
 10
-7.1916203083
 20
41.9004117479
 10
-7.2422297796
 20
41.8882661301
 10
-7.2943722449
 20
41.8841820468
  0
LINE
  5
7E5
100
AcDbEntity
  8
0
100
AcDbLine
 62
7
  6
CONTINUOUS
 10
-6.4943722449
 20
41.2025102041
 11
-11.4943722449
 21
41.2025102041
  0
LINE
  5
7E6
100
AcDbEntity
  8
ASSI
100
AcDbLine
 62
7
  6
CONTINUOUS
 10
-6.4943722449
 20
41.2025102041
 11
-11.4943722449
 21
41.2025102041
  0
LINE
  5
7E7
100
AcDbEntity
  8
CURVE
100
AcDbLine
 62
253
  6
CONTINUOUS
 10
2.0549024383
 20
41.6025102041
 11
2.0581435993
 21
41.6025102041
  0
LINE
  5
7E8
100
AcDbEntity
  8
0
100
AcDbLine
 62
7
  6
CONTINUOUS
 10
-11.4943722449
 20
41.6525102041
 11
-6.4943722449
 21
41.6525102041
  0
LINE
  5
7E9
100
AcDbEntity
  8
RACCORDO
100
AcDbLine
 62
7
  6
CONTINUOUS
 10
-7.2943722449
 20
41.8525102041
 11
-10.6943722449
 21
41.8525102041
  0
LINE
  5
7EA
100
AcDbEntity
  8
0
100
AcDbLine
 62
7
  6
CONTINUOUS
 10
-7.2943722449
 20
41.8525102041
 11
-10.6943722449
 21
41.8525102041
  0
LINE
  5
7EB
100
AcDbEntity
  8
RACCORDO
100
AcDbLine
 62
253
  6
CONTINUOUS
 10
-7.2943722449
 20
41.8841820468
 11
-10.6943722449
 21
41.8841820468
  0
LINE
  5
7EC
100
AcDbEntity
  8
0
100
AcDbLine
 62
253
  6
CONTINUOUS
 10
-7.2943722449
 20
41.8841820468
 11
-10.6943722449
 21
41.8841820468
  0
LINE
  5
7ED
100
AcDbEntity
  8
RACCORDO
100
AcDbLine
 62
7
  6
CONTINUOUS
 10
-10.6769501321
 20
41.9025102041
 11
-7.3117943577
 21
41.9025102041
  0
LINE
  5
7EE
100
AcDbEntity
  8
ASSI
100
AcDbLine
 62
7
  6
CONTINUOUS
 10
-10.6769501321
 20
41.9025102041
 11
-7.3117943577
 21
41.9025102041
  0
LINE
  5
7EF
100
AcDbEntity
  8
ASSI
100
AcDbLine
 62
7
  6
CONTINUOUS
 10
-6.4943722449
 20
42.1025102041
 11
-11.4943722449
 21
42.1025102041
  0
LINE
  5
7F0
100
AcDbEntity
  8
RACCORDO
100
AcDbLine
 62
253
  6
CONTINUOUS
 10
-10.6943722449
 20
41.8841820468
 11
-10.7464666982
 21
41.8882585544
  0
LINE
  5
7F1
100
AcDbEntity
  8
0
100
AcDbLine
 62
253
  6
CONTINUOUS
 10
-10.6943722449
 20
41.8841820468
 11
-10.7464666982
 21
41.8882585544
  0
LINE
  5
7F2
100
AcDbEntity
  8
RACCORDO
100
AcDbLine
 62
253
  6
CONTINUOUS
 10
-10.7464666982
 20
41.8882585544
 11
-10.7969782879
 21
41.9003642147
  0
LINE
  5
7F3
100
AcDbEntity
  8
0
100
AcDbLine
 62
253
  6
CONTINUOUS
 10
-10.7464666982
 20
41.8882585544
 11
-10.7969782879
 21
41.9003642147
  0
LINE
  5
7F4
100
AcDbEntity
  8
DRAFT
100
AcDbLine
 62
7
  6
CONTINUOUS
 10
-1.752550543
 20
45.5985057498
 11
-1.6955345703
 21
45.5129805845
  0
LINE
  5
7F5
100
AcDbEntity
  8
ASSI
100
AcDbLine
 62
7
  6
CONTINUOUS
 10
-5.4002216756
 20
0.9794030931
 11
-5.3736877749
 21
1.0097526104
  0
LINE
  5
7F6
100
AcDbEntity
  8
ASSI
100
AcDbLine
 62
7
  6
CONTINUOUS
 10
-5.3736877749
 20
1.0097526104
 11
-5.3433175801
 21
1.0439552216
  0
LINE
  5
7F7
100
AcDbEntity
  8
ASSI
100
AcDbLine
 62
7
  6
CONTINUOUS
 10
-5.3433175801
 20
1.0439552216
 11
-5.3090919309
 21
1.0820174817
  0
LINE
  5
7F8
100
AcDbEntity
  8
ASSI
100
AcDbLine
 62
7
  6
CONTINUOUS
 10
-5.3090919309
 20
1.0820174817
 11
-5.2506407355
 21
1.1462836771
  0
LINE
  5
7F9
100
AcDbEntity
  8
ASSI
100
AcDbLine
 62
7
  6
CONTINUOUS
 10
-5.2506407355
 20
1.1462836771
 11
-5.0664022572
 21
1.3461523894
  0
LINE
  5
7FA
100
AcDbEntity
  8
RACCORDO
100
AcDbLine
 62
7
  6
CONTINUOUS
 10
-1.7513937464
 20
4.8454887026
 11
-1.6943722449
 21
4.9025102041
  0
LINE
  5
7FB
100
AcDbEntity
  8
DRAFT
100
AcDbLine
 62
7
  6
CONTINUOUS
 10
-1.5943722449
 20
4.9025102041
 11
-1.5577166085
 21
4.9391658404
  0
LINE
  5
7FC
100
AcDbEntity
  8
0
100
AcDbLine
 62
7
  6
CONTINUOUS
 10
-1.5943722449
 20
4.9025102041
 11
-1.5577166085
 21
4.9391658404
  0
LINE
  5
7FD
100
AcDbEntity
  8
RACCORDO
100
AcDbLine
 62
7
  6
CONTINUOUS
 10
1.7258359905
 20
7.3042059573
 11
1.1039320019
 21
6.6823019687
  0
LINE
  5
7FE
100
AcDbEntity
  8
ASSI
100
AcDbLine
 62
7
  6
CONTINUOUS
 10
1.7258359905
 20
7.3042059573
 11
1.1039320019
 21
6.6823019687
  0
LINE
  5
7FF
100
AcDbEntity
  8
DRAFT
100
AcDbLine
 62
7
  6
CONTINUOUS
 10
-1.5577166085
 20
6.3363407365
 11
-1.5402615436
 21
6.3450676043
  0
LINE
  5
800
100
AcDbEntity
  8
0
100
AcDbLine
 62
7
  6
CONTINUOUS
 10
-1.5577166085
 20
6.3363407365
 11
-1.5402615436
 21
6.3450676043
  0
LWPOLYLINE
  5
801
100
AcDbEntity
  8
0
100
AcDbPolyline
 62
7
  6
CONTINUOUS
 90
12
 70
0
 10
-7.3699757835
 20
44.4871390206
 10
-7.2521039553
 20
44.4875194946
 10
-7.1392325256
 20
44.4881383059
 10
-7.0298767431
 20
44.4890102705
 10
-6.925521359
 20
44.4901205723
 10
-6.8306206266
 20
44.4914247631
 10
-6.7455525423
 20
44.4929347852
 10
-6.6699391098
 20
44.4946386962
 10
-6.6071005938
 20
44.4964562211
 10
-6.5581437491
 20
44.4983606015
 10
-6.521961821
 20
44.5003785959
 10
-6.4985548094
 20
44.5025102041
  0
LINE
  5
802
100
AcDbEntity
  8
ASSI
100
AcDbLine
 62
7
  6
CONTINUOUS
 10
-6.4943722449
 20
42.8025102041
 11
-11.4943722449
 21
42.8025102041
  0
LINE
  5
803
100
AcDbEntity
  8
RACCORDO
100
AcDbLine
 62
7
  6
CONTINUOUS
 10
0.3968521452
 20
42.8156005058
 11
-4.9812819432
 21
42.8156005058
  0
LINE
  5
804
100
AcDbEntity
  8
ASSI
100
AcDbLine
 62
7
  6
CONTINUOUS
 10
0.3968521452
 20
42.8156005058
 11
-4.9812819432
 21
42.8156005058
  0
LINE
  5
805
100
AcDbEntity
  8
0
100
AcDbLine
 62
7
  6
CONTINUOUS
 10
-11.4943722449
 20
42.9025102041
 11
-6.4943722449
 21
42.9025102041
  0
LINE
  5
806
100
AcDbEntity
  8
ASSI
100
AcDbLine
 62
7
  6
CONTINUOUS
 10
-11.4943722449
 20
42.9025102041
 11
-6.4943722449
 21
42.9025102041
  0
LINE
  5
807
100
AcDbEntity
  8
ASSI
100
AcDbLine
 62
7
  6
CONTINUOUS
 10
0.0056277551
 20
43.2025102041
 11
-4.9812819432
 21
43.2025102041
  0
LINE
  5
808
100
AcDbEntity
  8
RACCORDO
100
AcDbLine
 62
7
  6
CONTINUOUS
 10
-5.2812705201
 20
44.2156005058
 11
-18.385596635
 21
44.2156005058
  0
LINE
  5
809
100
AcDbEntity
  8
ASSI
100
AcDbLine
 62
7
  6
CONTINUOUS
 10
-5.2812705201
 20
44.2156005058
 11
-18.385596635
 21
44.2156005058
  0
LINE
  5
80A
100
AcDbEntity
  8
DRAFT
100
AcDbLine
 62
7
  6
CONTINUOUS
 10
-1.5577166085
 20
44.2658545677
 11
-5.5310278812
 21
44.2658545677
  0
LINE
  5
80B
100
AcDbEntity
  8
0
100
AcDbLine
 62
7
  6
CONTINUOUS
 10
-1.5577166085
 20
44.2658545677
 11
-5.5310278812
 21
44.2658545677
  0
LINE
  5
80C
100
AcDbEntity
  8
DRAFT
100
AcDbLine
 62
7
  6
CONTINUOUS
 10
-12.4577166085
 20
44.2658545677
 11
-16.4310278812
 21
44.2658545677
  0
LINE
  5
80D
100
AcDbEntity
  8
0
100
AcDbLine
 62
7
  6
CONTINUOUS
 10
-12.4577166085
 20
44.2658545677
 11
-16.4310278812
 21
44.2658545677
  0
LINE
  5
80E
100
AcDbEntity
  8
DRAFT
100
AcDbLine
 62
7
  6
CONTINUOUS
 10
-1.5943722449
 20
44.3025102041
 11
-5.4943722449
 21
44.3025102041
  0
LINE
  5
80F
100
AcDbEntity
  8
0
100
AcDbLine
 62
7
  6
CONTINUOUS
 10
-1.5943722449
 20
44.3025102041
 11
-5.4943722449
 21
44.3025102041
  0
LINE
  5
810
100
AcDbEntity
  8
DRAFT
100
AcDbLine
 62
7
  6
CONTINUOUS
 10
-12.4943722449
 20
44.3025102041
 11
-16.3943722449
 21
44.3025102041
  0
LINE
  5
811
100
AcDbEntity
  8
0
100
AcDbLine
 62
7
  6
CONTINUOUS
 10
-12.4943722449
 20
44.3025102041
 11
-16.3943722449
 21
44.3025102041
  0
LINE
  5
812
100
AcDbEntity
  8
RACCORDO
100
AcDbLine
 62
253
  6
CONTINUOUS
 10
-16.2373507434
 20
44.3595317055
 11
-15.3513937464
 21
44.3595317055
  0
LINE
  5
813
100
AcDbEntity
  8
RACCORDO
100
AcDbLine
 62
253
  6
CONTINUOUS
 10
-2.6373507434
 20
44.3595317055
 11
-1.7513937464
 21
44.3595317055
  0
LINE
  5
814
100
AcDbEntity
  8
DRAFT
100
AcDbLine
 62
7
  6
CONTINUOUS
 10
-12.4577166085
 20
44.4658545677
 11
-5.5310278812
 21
44.4658545677
  0
LINE
  5
815
100
AcDbEntity
  8
0
100
AcDbLine
 62
7
  6
CONTINUOUS
 10
-12.4577166085
 20
44.4658545677
 11
-5.5310278812
 21
44.4658545677
  0
LINE
  5
816
100
AcDbEntity
  8
0
100
AcDbLine
 62
7
  6
CONTINUOUS
 10
-10.4958964798
 20
44.4869968837
 11
-7.3699757835
 21
44.4871390206
  0
LINE
  5
817
100
AcDbEntity
  8
0
100
AcDbLine
 62
7
  6
CONTINUOUS
 10
-12.4943722449
 20
44.5025102041
 11
-11.4888505251
 21
44.5025102041
  0
LINE
  5
818
100
AcDbEntity
  8
0
100
AcDbLine
 62
7
  6
CONTINUOUS
 10
-6.4998939647
 20
44.5025102041
 11
-5.4943722449
 21
44.5025102041
  0
LINE
  5
819
100
AcDbEntity
  8
RACCORDO
100
AcDbLine
 62
253
  6
CONTINUOUS
 10
-16.2361939468
 20
44.5595283209
 11
-15.352550543
 21
44.5595283209
  0
LINE
  5
81A
100
AcDbEntity
  8
RACCORDO
100
AcDbLine
 62
253
  6
CONTINUOUS
 10
-2.6361939468
 20
44.5595283209
 11
-1.752550543
 21
44.5595283209
  0
LWPOLYLINE
  5
81B
100
AcDbEntity
  8
0
100
AcDbPolyline
 62
7
  6
CONTINUOUS
 90
13
 70
0
 10
-10.4958964798
 20
44.4869968837
 10
-10.6187687063
 20
44.4871390206
 10
-10.7366405345
 20
44.4875194946
 10
-10.8495119642
 20
44.4881383059
 10
-10.9588677467
 20
44.4890102705
 10
-11.0632231308
 20
44.4901205723
 10
-11.1581238632
 20
44.4914247631
 10
-11.2431919475
 20
44.4929347852
 10
-11.31880538
 20
44.4946386962
 10
-11.381643896
 20
44.4964562211
 10
-11.4306007407
 20
44.4983606015
 10
-11.4667826688
 20
44.5003785959
 10
-11.4901896804
 20
44.5025102041
  0
LINE
  5
81C
100
AcDbEntity
  8
RACCORDO
100
AcDbLine
 62
7
  6
CONTINUOUS
 10
-1.7513937464
 20
44.3595317055
 11
-1.6943722449
 21
44.3025102041
  0
LINE
  5
81D
100
AcDbEntity
  8
DRAFT
100
AcDbLine
 62
7
  6
CONTINUOUS
 10
-1.5943722449
 20
44.3025102041
 11
-1.5577166085
 21
44.2658545677
  0
LINE
  5
81E
100
AcDbEntity
  8
0
100
AcDbLine
 62
7
  6
CONTINUOUS
 10
-1.5943722449
 20
44.3025102041
 11
-1.5577166085
 21
44.2658545677
  0
LINE
  5
81F
100
AcDbEntity
  8
RACCORDO
100
AcDbLine
 62
7
  6
CONTINUOUS
 10
1.7258359905
 20
41.9008144509
 11
1.1039320019
 21
42.5227184394
  0
LINE
  5
820
100
AcDbEntity
  8
ASSI
100
AcDbLine
 62
7
  6
CONTINUOUS
 10
1.7258359905
 20
41.9008144509
 11
1.1039320019
 21
42.5227184394
  0
LINE
  5
821
100
AcDbEntity
  8
ASSI
100
AcDbLine
 62
7
  6
CONTINUOUS
 10
-5.0664022572
 20
47.8588680188
 11
-5.1617908785
 21
47.9620371057
  0
LINE
  5
822
100
AcDbEntity
  8
ASSI
100
AcDbLine
 62
7
  6
CONTINUOUS
 10
-5.1617908785
 20
47.9620371057
 11
-5.2507439981
 21
48.0588502474
  0
LINE
  5
823
100
AcDbEntity
  8
ASSI
100
AcDbLine
 62
7
  6
CONTINUOUS
 10
-5.2507439981
 20
48.0588502474
 11
-5.3092415667
 21
48.1231682881
  0
LINE
  5
824
100
AcDbEntity
  8
ASSI
100
AcDbLine
 62
7
  6
CONTINUOUS
 10
-5.3092415667
 20
48.1231682881
 11
-5.3435106631
 21
48.1612807876
  0
LINE
  5
825
100
AcDbEntity
  8
ASSI
100
AcDbLine
 62
7
  6
CONTINUOUS
 10
-5.3435106631
 20
48.1612807876
 11
-5.3739145438
 21
48.1955250453
  0
LWPOLYLINE
  5
826
100
AcDbEntity
  8
ASSI
100
AcDbPolyline
 62
7
  6
CONTINUOUS
 90
18
 70
0
 10
-5.3739145438
 20
48.1955250453
 10
-5.4004611992
 20
48.2258935636
 10
-5.4123576083
 20
48.2397146401
 10
-5.4233599146
 20
48.2526499846
 10
-5.4334804977
 20
48.2647009476
 10
-5.4427663173
 20
48.2759448017
 10
-5.4512206287
 20
48.2863795932
 10
-5.4588616724
 20
48.2960072758
 10
-5.4657419777
 20
48.304910983
 10
-5.4718766032
 20
48.3131109987
 10
-5.4772542668
 20
48.320587039
 10
-5.4818788309
 20
48.3273613855
 10
-5.4857596244
 20
48.3334290197
 10
-5.4889049763
 20
48.3387949601
 10
-5.491323196
 20
48.343496544
 10
-5.4930288251
 20
48.3475462173
 10
-5.4940393979
 20
48.3509315341
 10
-5.4943722449
 20
48.3536524944
  0
LINE
  5
827
100
AcDbEntity
  8
RACCORDO
100
AcDbLine
 62
7
  6
CONTINUOUS
 10
-0.3671685718
 20
3.7525102041
 11
1.4477450811
 21
5.5674238569
  0
LINE
  5
828
100
AcDbEntity
  8
0
100
AcDbLine
 62
7
  6
CONTINUOUS
 10
-0.3671685718
 20
3.7525102041
 11
1.4477450811
 21
5.5674238569
  0
LINE
  5
829
100
AcDbEntity
  8
RACCORDO
100
AcDbLine
 62
7
  6
CONTINUOUS
 10
-1.7356453771
 20
2.2112370719
 11
-0.7443722449
 21
3.2025102041
  0
LINE
  5
82A
100
AcDbEntity
  8
RACCORDO
100
AcDbLine
 62
7
  6
CONTINUOUS
 10
-0.1943722449
 20
3.7525102041
 11
1.5699305356
 21
5.5168129846
  0
LINE
  5
82B
100
AcDbEntity
  8
0
100
AcDbLine
 62
7
  6
CONTINUOUS
 10
-0.1943722449
 20
3.7525102041
 11
1.5699305356
 21
5.5168129846
  0
LINE
  5
82C
100
AcDbEntity
  8
DRAFT
100
AcDbLine
 62
7
  6
CONTINUOUS
 10
-2.7030989896
 20
44.5894199024
 11
-6.4950437295
 21
44.5894199024
  0
LINE
  5
82D
100
AcDbEntity
  8
DRAFT
100
AcDbLine
 62
7
  6
CONTINUOUS
 10
-11.4937007603
 20
44.5894199024
 11
-15.2856455002
 21
44.5894199024
  0
LINE
  5
82E
100
AcDbEntity
  8
DRAFT
100
AcDbLine
 62
7
  6
CONTINUOUS
 10
-5.4943722449
 20
44.6025102041
 11
-6.4950200638
 21
44.6025102041
  0
LINE
  5
82F
100
AcDbEntity
  8
DRAFT
100
AcDbLine
 62
7
  6
CONTINUOUS
 10
-11.493724426
 20
44.6025102041
 11
-12.4943722449
 21
44.6025102041
  0
LINE
  5
830
100
AcDbEntity
  8
DRAFT
100
AcDbLine
 62
7
  6
CONTINUOUS
 10
-11.4943722449
 20
44.6557440976
 11
-11.435683368
 21
44.6557440976
  0
LINE
  5
831
100
AcDbEntity
  8
DRAFT
100
AcDbLine
 62
7
  6
CONTINUOUS
 10
-6.5530611218
 20
44.6557440976
 11
-6.4943722449
 21
44.6557440976
  0
LINE
  5
832
100
AcDbEntity
  8
RACCORDO
100
AcDbLine
 62
253
  6
CONTINUOUS
 10
-15.3496670129
 20
44.6854535258
 11
-2.6390774769
 21
44.6854535258
  0
LINE
  5
833
100
AcDbEntity
  8
RACCORDO
100
AcDbLine
 62
253
  6
CONTINUOUS
 10
-15.352550543
 20
45.1854344873
 11
-2.6361939468
 21
45.1854344873
  0
LINE
  5
834
100
AcDbEntity
  8
DRAFT
100
AcDbLine
 62
7
  6
CONTINUOUS
 10
0.6294451577
 20
45.4238985352
 11
-0.165760576
 21
45.4238985352
  0
LINE
  5
835
100
AcDbEntity
  8
DRAFT
100
AcDbLine
 62
7
  6
CONTINUOUS
 10
-1.5943722449
 20
45.4238985352
 11
-1.6856455002
 21
45.4238985352
  0
LINE
  5
836
100
AcDbEntity
  8
DRAFT
100
AcDbLine
 62
7
  6
CONTINUOUS
 10
-16.3030989896
 20
45.4238985352
 11
-16.3943722449
 21
45.4238985352
  0
LINE
  5
837
100
AcDbEntity
  8
DRAFT
100
AcDbLine
 62
7
  6
CONTINUOUS
 10
-17.8229839138
 20
45.4238985352
 11
-18.6181896475
 21
45.4238985352
  0
LINE
  5
838
100
AcDbEntity
  8
DRAFT
100
AcDbLine
 62
7
  6
CONTINUOUS
 10
-0.1943722449
 20
45.4525102041
 11
-1.5943722449
 21
45.4525102041
  0
LINE
  5
839
100
AcDbEntity
  8
0
100
AcDbLine
 62
7
  6
CONTINUOUS
 10
-0.1943722449
 20
45.4525102041
 11
-1.5943722449
 21
45.4525102041
  0
LINE
  5
83A
100
AcDbEntity
  8
DRAFT
100
AcDbLine
 62
7
  6
CONTINUOUS
 10
-16.3943722449
 20
45.4525102041
 11
-17.7943722449
 21
45.4525102041
  0
LINE
  5
83B
100
AcDbEntity
  8
0
100
AcDbLine
 62
7
  6
CONTINUOUS
 10
-16.3943722449
 20
45.4525102041
 11
-17.7943722449
 21
45.4525102041
  0
LINE
  5
83C
100
AcDbEntity
  8
DRAFT
100
AcDbLine
 62
7
  6
CONTINUOUS
 10
0.6556277551
 20
45.5025102041
 11
-0.7443722449
 21
45.5025102041
  0
LINE
  5
83D
100
AcDbEntity
  8
DRAFT
100
AcDbLine
 62
7
  6
CONTINUOUS
 10
-17.2443722449
 20
45.5025102041
 11
-18.6443722449
 21
45.5025102041
  0
LINE
  5
83E
100
AcDbEntity
  8
DRAFT
100
AcDbLine
 62
7
  6
CONTINUOUS
 10
-0.7478595358
 20
45.5129805845
 11
-1.6955345703
 21
45.5129805845
  0
LINE
  5
83F
100
AcDbEntity
  8
DRAFT
100
AcDbLine
 62
7
  6
CONTINUOUS
 10
-16.2932099195
 20
45.5129805845
 11
-17.240884954
 21
45.5129805845
  0
LINE
  5
840
100
AcDbEntity
  8
RACCORDO
100
AcDbLine
 62
7
  6
CONTINUOUS
 10
-1.4102715257
 20
45.5985057498
 11
-1.752550543
 21
45.5985057498
  0
LINE
  5
841
100
AcDbEntity
  8
RACCORDO
100
AcDbLine
 62
7
  6
CONTINUOUS
 10
-16.2361939468
 20
45.5985057498
 11
-16.5784729641
 21
45.5985057498
  0
LINE
  5
842
100
AcDbEntity
  8
0
100
AcDbLine
 62
7
  6
CONTINUOUS
 10
-5.9943722449
 20
45.6025102041
 11
-11.9943722449
 21
45.6025102041
  0
LINE
  5
843
100
AcDbEntity
  8
RACCORDO
100
AcDbLine
 62
253
  6
CONTINUOUS
 10
-1.4102715257
 20
45.9152034478
 11
-5.9943722449
 21
45.9152034478
  0
LINE
  5
844
100
AcDbEntity
  8
RACCORDO
100
AcDbLine
 62
253
  6
CONTINUOUS
 10
-11.9943722449
 20
45.9152034478
 11
-16.5784729641
 21
45.9152034478
  0
LINE
  5
845
100
AcDbEntity
  8
0
100
AcDbLine
 62
7
  6
CONTINUOUS
 10
-11.9943722449
 20
46.3025102041
 11
-5.9943722449
 21
46.3025102041
  0
LINE
  5
846
100
AcDbEntity
  8
RACCORDO
100
AcDbLine
 62
7
  6
CONTINUOUS
 10
1.4477450811
 20
43.6375965512
 11
-0.3671685718
 21
45.4525102041
  0
LINE
  5
847
100
AcDbEntity
  8
0
100
AcDbLine
 62
7
  6
CONTINUOUS
 10
1.4477450811
 20
43.6375965512
 11
-0.3671685718
 21
45.4525102041
  0
LINE
  5
848
100
AcDbEntity
  8
RACCORDO
100
AcDbLine
 62
7
  6
CONTINUOUS
 10
1.5699305356
 20
43.6882074236
 11
-0.1943722449
 21
45.4525102041
  0
LINE
  5
849
100
AcDbEntity
  8
0
100
AcDbLine
 62
7
  6
CONTINUOUS
 10
1.5699305356
 20
43.6882074236
 11
-0.1943722449
 21
45.4525102041
  0
LINE
  5
84A
100
AcDbEntity
  8
RACCORDO
100
AcDbLine
 62
7
  6
CONTINUOUS
 10
-0.7443722449
 20
46.0025102041
 11
-1.7356453771
 21
46.9937833363
  0
LINE
  5
84B
100
AcDbEntity
  8
RACCORDO
100
AcDbLine
 62
253
  6
CONTINUOUS
 10
-0.7400004109
 20
0.3568778073
 11
-0.7443722449
 21
0.3525059733
  0
LINE
  5
84C
100
AcDbEntity
  8
RACCORDO
100
AcDbLine
 62
253
  6
CONTINUOUS
 10
-0.4900046417
 20
0.1068820381
 11
-0.4943764757
 21
0.1025102041
  0
LINE
  5
84D
100
AcDbEntity
  8
RACCORDO
100
AcDbLine
 62
7
  6
CONTINUOUS
 10
-0.9103476782
 20
3.6108019399
 11
-0.7478595358
 21
3.6920398236
  0
LINE
  5
84E
100
AcDbEntity
  8
RACCORDO
100
AcDbLine
 62
253
  6
CONTINUOUS
 10
-1.6570274117
 20
46.9151653709
 11
-5.9943722449
 21
46.9151653709
  0
LINE
  5
84F
100
AcDbEntity
  8
RACCORDO
100
AcDbLine
 62
253
  6
CONTINUOUS
 10
-11.9943722449
 20
46.9151653709
 11
-16.3317170781
 21
46.9151653709
  0
LINE
  5
850
100
AcDbEntity
  8
DRAFT
100
AcDbLine
 62
7
  6
CONTINUOUS
 10
-12.4943722449
 20
46.9405494428
 11
-11.9943722449
 21
46.9405494428
  0
LINE
  5
851
100
AcDbEntity
  8
DRAFT
100
AcDbLine
 62
7
  6
CONTINUOUS
 10
-5.9943722449
 20
46.9405494428
 11
-5.4943722449
 21
46.9405494428
  0
LINE
  5
852
100
AcDbEntity
  8
RACCORDO
100
AcDbLine
 62
7
  6
CONTINUOUS
 10
1.695487616
 20
46.9937833363
 11
-1.7356453771
 21
46.9937833363
  0
LINE
  5
853
100
AcDbEntity
  8
RACCORDO
100
AcDbLine
 62
7
  6
CONTINUOUS
 10
-16.2530991127
 20
46.9937833363
 11
-19.6842321058
 21
46.9937833363
  0
LINE
  5
854
100
AcDbEntity
  8
RACCORDO
100
AcDbLine
 62
7
  6
CONTINUOUS
 10
1.6785228419
 20
47.0025102041
 11
1.6556277551
 21
47.0025102041
  0
LINE
  5
855
100
AcDbEntity
  8
DRAFT
100
AcDbLine
 62
7
  6
CONTINUOUS
 10
1.6556277551
 20
47.0025102041
 11
-4.5943722449
 21
47.0025102041
  0
LINE
  5
856
100
AcDbEntity
  8
DRAFT
100
AcDbLine
 62
7
  6
CONTINUOUS
 10
-13.3943722449
 20
47.0025102041
 11
-19.6443722449
 21
47.0025102041
  0
LINE
  5
857
100
AcDbEntity
  8
RACCORDO
100
AcDbLine
 62
7
  6
CONTINUOUS
 10
-19.6443722449
 20
47.0025102041
 11
-19.6672673317
 21
47.0025102041
  0
LINE
  5
858
100
AcDbEntity
  8
RACCORDO
100
AcDbLine
 62
7
  6
CONTINUOUS
 10
-19.3950952428
 20
47.7251599349
 11
-17.493649247
 21
47.7251599349
  0
LINE
  5
859
100
AcDbEntity
  8
RACCORDO
100
AcDbLine
 62
7
  6
CONTINUOUS
 10
-0.4950952428
 20
47.7251599349
 11
1.406350753
 21
47.7251599349
  0
LWPOLYLINE
  5
85A
100
AcDbEntity
  8
RACCORDO
100
AcDbPolyline
 62
7
  6
CONTINUOUS
 90
34
 70
0
 10
-19.3900046417
 20
48.3025102041
 10
-19.4030291168
 20
48.3027637815
 10
-19.415958689
 20
48.3033891802
 10
-19.4287592874
 20
48.3043864004
 10
-19.4414093445
 20
48.3057680657
 10
-19.4538654948
 20
48.3075215525
 10
-19.4660640084
 20
48.309608989
 10
-19.4779646306
 20
48.3120314577
 10
-19.4895550296
 20
48.3147878762
 10
-19.5008170146
 20
48.3178371255
 10
-19.5117281872
 20
48.3211796845
 10
-19.5222682919
 20
48.3248150744
 10
-19.5324241852
 20
48.3287007403
 10
-19.5421783268
 20
48.3328367285
 10
-19.5515150418
 20
48.3372229928
 10
-19.5604253762
 20
48.3418168401
 10
-19.5688962192
 20
48.3466180655
 10
-19.5769159514
 20
48.3516268739
 10
-19.5844788549
 20
48.3568011874
 10
-19.5915757472
 20
48.36214067
 10
-19.5981986563
 20
48.3676456577
 10
-19.6043444002
 20
48.3732750797
 10
-19.6100072812
 20
48.3790285303
 10
-19.6151826384
 20
48.3849064153
 10
-19.6198694165
 20
48.3908688817
 10
-19.6240650414
 20
48.3969154661
 10
-19.6277678916
 20
48.403046632
 10
-19.6309788688
 20
48.409223917
 10
-19.6336982357
 20
48.4154467759
 10
-19.6359271822
 20
48.421715754
 10
-19.6376685449
 20
48.4279940252
 10
-19.6389252837
 20
48.4342693141
 10
-19.6397009885
 20
48.4405538962
 10
-19.6400004109
 20
48.4468477714
  0
LINE
  5
85B
100
AcDbEntity
  8
RACCORDO
100
AcDbLine
 62
7
  6
CONTINUOUS
 10
-0.9103476782
 20
45.5942184683
 11
-0.7478595358
 21
45.5129805845
  0
LINE
  5
85C
100
AcDbEntity
  8
RACCORDO
100
AcDbLine
 62
253
  6
CONTINUOUS
 10
-0.7400004109
 20
48.8481426009
 11
-0.7443722449
 21
48.8525144349
  0
LINE
  5
85D
100
AcDbEntity
  8
RACCORDO
100
AcDbLine
 62
253
  6
CONTINUOUS
 10
-0.4900046417
 20
49.0981383701
 11
-0.4943764757
 21
49.1025102041
  0
LINE
  5
85E
100
AcDbEntity
  8
RACCORDO
100
AcDbLine
 62
253
  6
CONTINUOUS
 10
1.695487616
 20
2.2112370719
 11
1.678032551
 21
2.2025102041
  0
LWPOLYLINE
  5
85F
100
AcDbEntity
  8
RACCORDO
100
AcDbPolyline
 62
7
  6
CONTINUOUS
 90
11
 70
0
 10
1.8837654373
 20
2.2510634824
 10
1.8693823778
 20
2.2441813769
 10
1.8492639716
 20
2.2355527065
 10
1.8287567205
 20
2.227890495
 10
1.8079064535
 20
2.2212122374
 10
1.7867514883
 20
2.2155312274
 10
1.7653482995
 20
2.2108635915
 10
1.7437717723
 20
2.2072240505
 10
1.7220801672
 20
2.2046182605
 10
1.7003141078
 20
2.2030469532
 10
1.6785228419
 20
2.2025102041
  0
LINE
  5
860
100
AcDbEntity
  8
RACCORDO
100
AcDbLine
 62
253
  6
CONTINUOUS
 10
-0.4900046417
 20
48.2303414204
 11
1.4012601519
 21
48.2303414204
  0
LINE
  5
861
100
AcDbEntity
  8
RACCORDO
100
AcDbLine
 62
7
  6
CONTINUOUS
 10
-17.4987398481
 20
48.3025102041
 11
-19.3900046417
 21
48.3025102041
  0
LINE
  5
862
100
AcDbEntity
  8
ASSI
100
AcDbLine
 62
253
  6
CONTINUOUS
 10
-4.6380228918
 20
48.3588595572
 11
-5.4943722449
 21
48.3588595572
  0
LINE
  5
863
100
AcDbEntity
  8
ASSI
100
AcDbLine
 62
253
  6
CONTINUOUS
 10
-12.4943722449
 20
48.3588595572
 11
-13.350721598
 21
48.3588595572
  0
LINE
  5
864
100
AcDbEntity
  8
DRAFT
100
AcDbLine
 62
7
  6
CONTINUOUS
 10
-5.4943722449
 20
48.3966923743
 11
-12.4943722449
 21
48.3966923743
  0
LINE
  5
865
100
AcDbEntity
  8
DRAFT
100
AcDbLine
 62
7
  6
CONTINUOUS
 10
-4.5943722449
 20
48.4025102041
 11
-13.3943722449
 21
48.4025102041
  0
LINE
  5
866
100
AcDbEntity
  8
RACCORDO
100
AcDbLine
 62
253
  6
CONTINUOUS
 10
-0.7400004109
 20
48.4468477714
 11
1.6512559211
 21
48.4468477714
  0
LINE
  5
867
100
AcDbEntity
  8
RACCORDO
100
AcDbLine
 62
253
  6
CONTINUOUS
 10
-0.7400004109
 20
48.8481426009
 11
1.6512559211
 21
48.8481426009
  0
LINE
  5
868
100
AcDbEntity
  8
RACCORDO
100
AcDbLine
 62
253
  6
CONTINUOUS
 10
-17.2487440789
 20
48.8481426009
 11
-19.6400004109
 21
48.8481426009
  0
LINE
  5
869
100
AcDbEntity
  8
RACCORDO
100
AcDbLine
 62
253
  6
CONTINUOUS
 10
1.4012601519
 20
49.0981383701
 11
-0.4900046417
 21
49.0981383701
  0
LINE
  5
86A
100
AcDbEntity
  8
RACCORDO
100
AcDbLine
 62
253
  6
CONTINUOUS
 10
-17.4987398481
 20
49.0981383701
 11
-19.3900046417
 21
49.0981383701
  0
LINE
  5
86B
100
AcDbEntity
  8
RACCORDO
100
AcDbLine
 62
7
  6
CONTINUOUS
 10
1.4056319859
 20
49.1025102041
 11
-0.4943764757
 21
49.1025102041
  0
LINE
  5
86C
100
AcDbEntity
  8
RACCORDO
100
AcDbLine
 62
7
  6
CONTINUOUS
 10
-17.4943680141
 20
49.1025102041
 11
-19.3943764757
 21
49.1025102041
  0
LWPOLYLINE
  5
86D
100
AcDbEntity
  8
RACCORDO
100
AcDbPolyline
 62
7
  6
CONTINUOUS
 90
34
 70
0
 10
-17.4943680141
 20
49.1025102041
 10
-17.4824727289
 20
49.1022270538
 10
-17.4706043893
 20
49.1013782383
 10
-17.4587898788
 20
49.0999656782
 10
-17.4470559574
 20
49.0979925718
 10
-17.4354292061
 20
49.0954633858
 10
-17.4239359659
 20
49.0923838458
 10
-17.4126022711
 20
49.0887609254
 10
-17.4014537956
 20
49.0846028299
 10
-17.3905157986
 20
49.0799189763
 10
-17.3798130573
 20
49.0747199729
 10
-17.3693698166
 20
49.0690175957
 10
-17.359209739
 20
49.0628247622
 10
-17.3493558398
 20
49.0561554996
 10
-17.3398304411
 20
49.0490249148
 10
-17.3306551258
 20
49.0414491629
 10
-17.3218506788
 20
49.0334454046
 10
-17.3134370444
 20
49.0250317702
 10
-17.305433286
 20
49.0162273231
 10
-17.2978575342
 20
49.0070520079
 10
-17.2907269494
 20
48.9975266092
 10
-17.2840576868
 20
48.98767271
 10
-17.2778648533
 20
48.9775126324
 10
-17.2721624761
 20
48.9670693917
 10
-17.2669634727
 20
48.9563666504
 10
-17.2622796191
 20
48.9454286534
 10
-17.2581215236
 20
48.9342801779
 10
-17.2544986032
 20
48.9229464831
 10
-17.2514190632
 20
48.9114532429
 10
-17.2488898772
 20
48.8998264916
 10
-17.2469167707
 20
48.8880925702
 10
-17.2455042107
 20
48.8762780597
 10
-17.2446553951
 20
48.8644097201
 10
-17.2443722449
 20
48.8525144349
  0
LWPOLYLINE
  5
86E
100
AcDbEntity
  8
RACCORDO
100
AcDbPolyline
 62
7
  6
CONTINUOUS
 90
34
 70
0
 10
1.4056319859
 20
49.1025102041
 10
1.4175272711
 20
49.1022270538
 10
1.4293956107
 20
49.1013782383
 10
1.4412101212
 20
49.0999656782
 10
1.4529440426
 20
49.0979925718
 10
1.4645707939
 20
49.0954633858
 10
1.4760640341
 20
49.0923838458
 10
1.4873977289
 20
49.0887609254
 10
1.4985462044
 20
49.0846028299
 10
1.5094842014
 20
49.0799189763
 10
1.5201869427
 20
49.0747199729
 10
1.5306301834
 20
49.0690175957
 10
1.540790261
 20
49.0628247622
 10
1.5506441602
 20
49.0561554996
 10
1.5601695589
 20
49.0490249148
 10
1.5693448742
 20
49.0414491629
 10
1.5781493212
 20
49.0334454046
 10
1.5865629556
 20
49.0250317702
 10
1.594566714
 20
49.0162273231
 10
1.6021424658
 20
49.0070520079
 10
1.6092730506
 20
48.9975266092
 10
1.6159423132
 20
48.98767271
 10
1.6221351467
 20
48.9775126324
 10
1.6278375239
 20
48.9670693917
 10
1.6330365273
 20
48.9563666504
 10
1.6377203809
 20
48.9454286534
 10
1.6418784764
 20
48.9342801779
 10
1.6455013968
 20
48.9229464831
 10
1.6485809368
 20
48.9114532429
 10
1.6511101228
 20
48.8998264916
 10
1.6530832293
 20
48.8880925702
 10
1.6544957893
 20
48.8762780597
 10
1.6553446049
 20
48.8644097201
 10
1.6556277551
 20
48.8525144349
  0
LWPOLYLINE
  5
86F
100
AcDbEntity
  8
RACCORDO
100
AcDbPolyline
 62
253
  6
CONTINUOUS
 90
31
 70
0
 10
-17.4987398481
 20
49.0981383701
 10
-17.4856563621
 20
49.0977953315
 10
-17.4726087355
 20
49.0967680416
 10
-17.4596327294
 20
49.0950593161
 10
-17.4467639085
 20
49.0926738381
 10
-17.434037544
 20
49.0896181459
 10
-17.4214885163
 20
49.0859006145
 10
-17.40915122
 20
49.081531433
 10
-17.3970594694
 20
49.0765225765
 10
-17.3852464056
 20
49.0708877734
 10
-17.373744406
 20
49.0646424675
 10
-17.3625849955
 20
49.057803776
 10
-17.3517987599
 20
49.0503904427
 10
-17.3414152623
 20
49.0424227859
 10
-17.3314629618
 20
49.0339226436
 10
-17.3219691359
 20
49.0249133131
 10
-17.3129598054
 20
49.0154194872
 10
-17.3044596631
 20
49.0054671867
 10
-17.2964920063
 20
48.9950836891
 10
-17.2890786729
 20
48.9842974535
 10
-17.2822399815
 20
48.973138043
 10
-17.2759946756
 20
48.9616360434
 10
-17.2703598725
 20
48.9498229796
 10
-17.265351016
 20
48.9377312289
 10
-17.2609818345
 20
48.9253939327
 10
-17.2572643031
 20
48.912844905
 10
-17.2542086109
 20
48.9001185404
 10
-17.2518231329
 20
48.8872497196
 10
-17.2501144074
 20
48.8742737135
 10
-17.2490871175
 20
48.8612260869
 10
-17.2487440789
 20
48.8481426009
  0
LWPOLYLINE
  5
870
100
AcDbEntity
  8
RACCORDO
100
AcDbPolyline
 62
253
  6
CONTINUOUS
 90
31
 70
0
 10
1.4012601519
 20
49.0981383701
 10
1.4143124919
 20
49.0977969629
 10
1.4273373862
 20
49.0967737003
 10
1.4402991608
 20
49.095070096
 10
1.4531648796
 20
49.0926889659
 10
1.4658963448
 20
49.0896358525
 10
1.4784505293
 20
49.0859204128
 10
1.4907903333
 20
49.0815538617
 10
1.5028846894
 20
49.0765474317
 10
1.5147007676
 20
49.0709146832
 10
1.5262063681
 20
49.0646708815
 10
1.5373696865
 20
49.0578331997
 10
1.5481597657
 20
49.0504205697
 10
1.5585468915
 20
49.0424534274
 10
1.5685027287
 20
49.0339535305
 10
1.5780000631
 20
49.0249441087
 10
1.5870128822
 20
49.0154498155
 10
1.5955164238
 20
49.0054967121
 10
1.6034873319
 20
48.9951121228
 10
1.6109037388
 20
48.9843245325
 10
1.6177453146
 20
48.9731635065
 10
1.6239932938
 20
48.9616596507
 10
1.6296305421
 20
48.9498445051
 10
1.6346415975
 20
48.9377504679
 10
1.6390127126
 20
48.9254107118
 10
1.6427319021
 20
48.9128590643
 10
1.6457889632
 20
48.9001299504
 10
1.648175506
 20
48.8872583107
 10
1.6498849891
 20
48.8742794533
 10
1.6509127321
 20
48.861228955
 10
1.6512559211
 20
48.8481426009
  0
LWPOLYLINE
  5
871
100
AcDbEntity
  8
RACCORDO
100
AcDbPolyline
 62
7
  6
CONTINUOUS
 90
11
 70
0
 10
1.8837636247
 20
46.9539578182
 10
1.8692940218
 20
46.9608794307
 10
1.8491694639
 20
46.9695056039
 10
1.8286586374
 20
46.9771639069
 10
1.8078085945
 20
46.9838369536
 10
1.7866754474
 20
46.9895076887
 10
1.7652984753
 20
46.994166465
 10
1.7436996649
 20
46.9978067571
 10
1.7219185357
 20
47.000417609
 10
1.7000129366
 20
47.0019878177
 10
1.678032551
 20
47.0025102041
  0
LINE
  5
872
100
AcDbEntity
  8
RACCORDO
100
AcDbLine
 62
253
  6
CONTINUOUS
 10
1.678032551
 20
47.0025102041
 11
1.695487616
 21
46.9937833363
  0
ARC
  5
873
100
AcDbEntity
  8
ASSI
100
AcDbCircle
 62
7
  6
CONTINUOUS
 10
-18.5002806156
 20
5.7125102041
 40
0.71
100
AcDbArc
 50
229.7020215745
 51
265.2988538673
  0
ARC
  5
874
100
AcDbEntity
  8
ASSI
100
AcDbCircle
 62
7
  6
CONTINUOUS
 10
-19.2843722449
 20
6.4966018334
 40
0.71
100
AcDbArc
 50
184.7020215745
 51
220.2988538673
  0
ARC
  5
875
100
AcDbEntity
  8
RACCORDO
100
AcDbCircle
 62
7
  6
CONTINUOUS
 10
-10.6943722449
 20
7.0525102041
 40
0.3
100
AcDbArc
 50
90.0
 51
170.0
  0
ARC
  5
876
100
AcDbEntity
  8
0
100
AcDbCircle
 62
7
  6
CONTINUOUS
 10
-10.6943722449
 20
7.0525102041
 40
0.3
100
AcDbArc
 50
90.0
 51
170.0
  0
ARC
  5
877
100
AcDbEntity
  8
CURVE
100
AcDbCircle
 62
253
  6
CONTINUOUS
 10
-16.4202052698
 20
26.1289203656
 40
0.8
100
AcDbArc
 50
330.0
 51
48.5903778907
  0
ARC
  5
878
100
AcDbEntity
  8
CURVE
100
AcDbCircle
 62
253
  6
CONTINUOUS
 10
-15.1845646238
 20
25.0691127445
 40
0.8
100
AcDbArc
 50
150.0
 51
228.5903778907
  0
ARC
  5
879
100
AcDbEntity
  8
ASSI
100
AcDbCircle
 62
7
  6
CONTINUOUS
 10
-18.5002806156
 20
43.4925102041
 40
0.71
100
AcDbArc
 50
109.9961491498
 51
114.2412807351
  0
ARC
  5
87A
100
AcDbEntity
  8
ASSI
100
AcDbCircle
 62
7
  6
CONTINUOUS
 10
-19.2843722449
 20
42.7084185748
 40
0.71
100
AcDbArc
 50
139.7010712477
 51
175.2998279782
  0
ARC
  5
87B
100
AcDbEntity
  8
RACCORDO
100
AcDbCircle
 62
7
  6
CONTINUOUS
 10
-10.6943722449
 20
42.1525102041
 40
0.3
100
AcDbArc
 50
189.8838085533
 51
270.0
  0
ARC
  5
87C
100
AcDbEntity
  8
0
100
AcDbCircle
 62
7
  6
CONTINUOUS
 10
-10.6943722449
 20
42.1525102041
 40
0.3
100
AcDbArc
 50
189.8838085533
 51
270.0
  0
ARC
  5
87D
100
AcDbEntity
  8
ASSI
100
AcDbCircle
 62
7
  6
CONTINUOUS
 10
1.2956277551
 20
7.8966018334
 40
0.71
100
AcDbArc
 50
319.7020215745
 51
355.2988538673
  0
ARC
  5
87E
100
AcDbEntity
  8
ASSI
100
AcDbCircle
 62
7
  6
CONTINUOUS
 10
0.5115361258
 20
7.1125102041
 40
0.71
100
AcDbArc
 50
274.7020215745
 51
310.2988538673
  0
ARC
  5
87F
100
AcDbEntity
  8
RACCORDO
100
AcDbCircle
 62
7
  6
CONTINUOUS
 10
-7.2943722449
 20
7.0525102041
 40
0.3
100
AcDbArc
 50
10.0
 51
90.0
  0
ARC
  5
880
100
AcDbEntity
  8
0
100
AcDbCircle
 62
7
  6
CONTINUOUS
 10
-7.2943722449
 20
7.0525102041
 40
0.3
100
AcDbArc
 50
10.0
 51
90.0
  0
ARC
  5
881
100
AcDbEntity
  8
0
100
AcDbCircle
 62
7
  6
CONTINUOUS
 10
0.0056277551
 20
41.8025102041
 40
1.4
100
AcDbArc
 50
21.7133555171
 51
90.0
  0
ARC
  5
882
100
AcDbEntity
  8
CURVE
100
AcDbCircle
 62
253
  6
CONTINUOUS
 10
-3.4943722449
 20
27.6025102041
 40
1.0
100
AcDbArc
 50
203.5781784782
 51
156.4218215218
  0
ARC
  5
883
100
AcDbEntity
  8
ASSI
100
AcDbCircle
 62
7
  6
CONTINUOUS
 10
0.5115361258
 20
42.0925102041
 40
0.71
100
AcDbArc
 50
49.7010712477
 51
85.2998279782
  0
ARC
  5
884
100
AcDbEntity
  8
ASSI
100
AcDbCircle
 62
7
  6
CONTINUOUS
 10
1.2956277551
 20
41.3084185748
 40
0.71
100
AcDbArc
 50
4.7001961556
 51
40.2989529286
  0
ARC
  5
885
100
AcDbEntity
  8
RACCORDO
100
AcDbCircle
 62
7
  6
CONTINUOUS
 10
-7.2943722449
 20
42.1525102041
 40
0.3
100
AcDbArc
 50
270.0
 51
350.0
  0
ARC
  5
886
100
AcDbEntity
  8
0
100
AcDbCircle
 62
7
  6
CONTINUOUS
 10
-7.2943722449
 20
42.1525102041
 40
0.3
100
AcDbArc
 50
270.0
 51
350.0
  0
ELLIPSE
  5
887
100
AcDbEntity
  8
RACCORDO
100
AcDbEllipse
 62
7
  6
CONTINUOUS
 10
0.2717781835
 20
6.8363597757
 30
0.0
 11
0.3535803156
 21
-0.3535803156
 31
0.0
 40
0.9999238505
 41
-0.7853600872
 42
-0.2962124934
  0
ELLIPSE
  5
888
100
AcDbEntity
  8
RACCORDO
100
AcDbEllipse
 62
7
  6
CONTINUOUS
 10
-7.2014790261
 20
6.3668847737
 30
0.0
 11
0.5
 21
-0.0
 31
0.0
 40
0.0087268678
 41
0.7853981634
 42
1.1434651843
  0
ELLIPSE
  5
889
100
AcDbEntity
  8
RACCORDO
100
AcDbEllipse
 62
7
  6
CONTINUOUS
 10
-10.7872654637
 20
6.3668847737
 30
0.0
 11
0.5
 21
0.0
 31
0.0
 40
0.0087268678
 41
1.97725418
 42
2.3561944902
  0
ELLIPSE
  5
88A
100
AcDbEntity
  8
RACCORDO
100
AcDbEllipse
 62
7
  6
CONTINUOUS
 10
0.155323099
 20
42.2739568867
 30
0.0
 11
1.8480888181
 21
0.7655034529
 31
0.0
 40
0.9998215708
 41
-0.3926359958
 42
0.3926359958
  0
ELLIPSE
  5
88B
100
AcDbEntity
  8
RACCORDO
100
AcDbEllipse
 62
7
  6
CONTINUOUS
 10
0.155323099
 20
6.9310635215
 30
0.0
 11
1.8480888181
 21
-0.7655034529
 31
0.0
 40
0.9998215708
 41
-0.3926359958
 42
0.3926359958
  0
ELLIPSE
  5
88C
100
AcDbEntity
  8
RACCORDO
100
AcDbEllipse
 62
7
  6
CONTINUOUS
 10
-18.1440675888
 20
6.9310635215
 30
0.0
 11
1.8480888181
 21
0.7655034529
 31
0.0
 40
0.9998215708
 41
2.7489566578
 42
3.5342286494
  0
ELLIPSE
  5
88D
100
AcDbEntity
  8
RACCORDO
100
AcDbEllipse
 62
7
  6
CONTINUOUS
 10
-18.1440675888
 20
42.2739568867
 30
0.0
 11
1.8480888181
 21
-0.7655034529
 31
0.0
 40
0.9998215708
 41
2.7489566578
 42
3.5342286494
  0
ELLIPSE
  5
88E
100
AcDbEntity
  8
RACCORDO
100
AcDbEllipse
 62
7
  6
CONTINUOUS
 10
0.0331376445
 20
42.2233460143
 30
0.0
 11
1.8480888181
 21
0.7655034529
 31
0.0
 40
0.9998215708
 41
-0.3926359958
 42
0.3926359958
  0
ELLIPSE
  5
88F
100
AcDbEntity
  8
RACCORDO
100
AcDbEllipse
 62
7
  6
CONTINUOUS
 10
0.0331376445
 20
6.9816743939
 30
0.0
 11
-1.8480888181
 21
0.7655034529
 31
0.0
 40
0.9998215708
 41
2.7489566578
 42
3.5342286494
  0
ELLIPSE
  5
890
100
AcDbEntity
  8
RACCORDO
100
AcDbEllipse
 62
7
  6
CONTINUOUS
 10
-18.0218821343
 20
6.9816743939
 30
0.0
 11
-1.8480888181
 21
-0.7655034529
 31
0.0
 40
0.9998215708
 41
-0.3926359958
 42
-0.278861721
  0
ELLIPSE
  5
891
100
AcDbEntity
  8
RACCORDO
100
AcDbEllipse
 62
7
  6
CONTINUOUS
 10
-18.0218821343
 20
6.9816743939
 30
0.0
 11
-1.8480888181
 21
-0.7655034529
 31
0.0
 40
0.9998215708
 41
6.4756880539
 42
6.675821303
  0
ELLIPSE
  5
892
100
AcDbEntity
  8
RACCORDO
100
AcDbEllipse
 62
7
  6
CONTINUOUS
 10
-18.0218821343
 20
42.2233460143
 30
0.0
 11
1.8480888181
 21
-0.7655034529
 31
0.0
 40
0.9998215708
 41
9.032141965
 42
9.2322752141
  0
ELLIPSE
  5
893
100
AcDbEntity
  8
RACCORDO
100
AcDbEllipse
 62
7
  6
CONTINUOUS
 10
-18.0218821343
 20
42.2233460143
 30
0.0
 11
1.8480888181
 21
-0.7655034529
 31
0.0
 40
0.9998215708
 41
3.4204543746
 42
3.5342286494
  0
ELLIPSE
  5
894
100
AcDbEntity
  8
0
100
AcDbEllipse
 62
7
  6
CONTINUOUS
 10
-7.2014790261
 20
6.3668847737
 30
0.0
 11
0.5
 21
-0.0
 31
0.0
 40
0.0087268678
 41
0.7853981634
 42
1.1434651843
  0
ELLIPSE
  5
895
100
AcDbEntity
  8
0
100
AcDbEllipse
 62
7
  6
CONTINUOUS
 10
-10.7872654637
 20
6.3668847737
 30
0.0
 11
0.5
 21
0.0
 31
0.0
 40
0.0087268678
 41
1.97725418
 42
2.3561944902
  0
ELLIPSE
  5
896
100
AcDbEntity
  8
0
100
AcDbEllipse
 62
7
  6
CONTINUOUS
 10
-10.9942960809
 20
-117.2731322319
 30
0.0
 11
-0.4997620717
 21
162.4815824859
 31
0.0
 40
0.000109066
 41
6.365690172
 42
6.3764914216
  0
ELLIPSE
  5
897
100
AcDbEntity
  8
0
100
AcDbEllipse
 62
7
  6
CONTINUOUS
 10
-10.9942960809
 20
166.4781526401
 30
0.0
 11
0.4997620717
 21
162.4815824859
 31
0.0
 40
0.000109066
 41
-3.234898768
 42
-3.2240975184
  0
ELLIPSE
  5
898
100
AcDbEntity
  8
0
100
AcDbEllipse
 62
7
  6
CONTINUOUS
 10
-6.9944484089
 20
-117.2731322319
 30
0.0
 11
0.4997620717
 21
162.4815824859
 31
0.0
 40
0.000109066
 41
-0.0933061144
 42
-0.0825123551
  0
ELLIPSE
  5
899
100
AcDbEntity
  8
0
100
AcDbEllipse
 62
7
  6
CONTINUOUS
 10
-6.9944484089
 20
166.4781526401
 30
0.0
 11
-0.4997620717
 21
162.4815824859
 31
0.0
 40
0.000109066
 41
3.2241050087
 42
3.234898768
  0
ELLIPSE
  5
89A
100
AcDbEntity
  8
0
100
AcDbEllipse
 62
7
  6
CONTINUOUS
 10
-18.1440675888
 20
42.2739568867
 30
0.0
 11
1.8480888181
 21
-0.7655034529
 31
0.0
 40
0.9998215708
 41
2.7489566578
 42
3.5342286494
  0
ELLIPSE
  5
89B
100
AcDbEntity
  8
0
100
AcDbEllipse
 62
7
  6
CONTINUOUS
 10
-18.1440675888
 20
6.9310635215
 30
0.0
 11
1.8480888181
 21
0.7655034529
 31
0.0
 40
0.9998215708
 41
2.7489566578
 42
3.5342286494
  0
ELLIPSE
  5
89C
100
AcDbEntity
  8
0
100
AcDbEllipse
 62
7
  6
CONTINUOUS
 10
0.155323099
 20
6.9310635215
 30
0.0
 11
1.8480888181
 21
-0.7655034529
 31
0.0
 40
0.9998215708
 41
-0.3926359958
 42
0.3926359958
  0
ELLIPSE
  5
89D
100
AcDbEntity
  8
0
100
AcDbEllipse
 62
7
  6
CONTINUOUS
 10
0.155323099
 20
42.2739568867
 30
0.0
 11
1.8480888181
 21
0.7655034529
 31
0.0
 40
0.9998215708
 41
-0.3926359958
 42
0.3926359958
  0
ELLIPSE
  5
89E
100
AcDbEntity
  8
0
100
AcDbEllipse
 62
7
  6
CONTINUOUS
 10
0.2717781835
 20
6.8363597757
 30
0.0
 11
0.3535803156
 21
-0.3535803156
 31
0.0
 40
0.9999238505
 41
-0.7853600872
 42
-0.2962124934
  0
ELLIPSE
  5
89F
100
AcDbEntity
  8
0
100
AcDbEllipse
 62
7
  6
CONTINUOUS
 10
-18.0218821343
 20
42.2233460143
 30
0.0
 11
1.8480888181
 21
-0.7655034529
 31
0.0
 40
0.9998215708
 41
9.032141965
 42
9.2322752141
  0
ELLIPSE
  5
8A0
100
AcDbEntity
  8
0
100
AcDbEllipse
 62
7
  6
CONTINUOUS
 10
-18.0218821343
 20
42.2233460143
 30
0.0
 11
1.8480888181
 21
-0.7655034529
 31
0.0
 40
0.9998215708
 41
3.4204543746
 42
3.5342286494
  0
ELLIPSE
  5
8A1
100
AcDbEntity
  8
0
100
AcDbEllipse
 62
7
  6
CONTINUOUS
 10
-18.0218821343
 20
6.9816743939
 30
0.0
 11
-1.8480888181
 21
-0.7655034529
 31
0.0
 40
0.9998215708
 41
-0.3926359958
 42
-0.278861721
  0
ELLIPSE
  5
8A2
100
AcDbEntity
  8
0
100
AcDbEllipse
 62
7
  6
CONTINUOUS
 10
-18.0218821343
 20
6.9816743939
 30
0.0
 11
-1.8480888181
 21
-0.7655034529
 31
0.0
 40
0.9998215708
 41
6.4756880539
 42
6.675821303
  0
ELLIPSE
  5
8A3
100
AcDbEntity
  8
0
100
AcDbEllipse
 62
7
  6
CONTINUOUS
 10
0.0331376445
 20
6.9816743939
 30
0.0
 11
-1.8480888181
 21
0.7655034529
 31
0.0
 40
0.9998215708
 41
2.7489566578
 42
3.5342286494
  0
ELLIPSE
  5
8A4
100
AcDbEntity
  8
0
100
AcDbEllipse
 62
7
  6
CONTINUOUS
 10
0.0331376445
 20
42.2233460143
 30
0.0
 11
1.8480888181
 21
0.7655034529
 31
0.0
 40
0.9998215708
 41
-0.3926359958
 42
0.3926359958
  0
ELLIPSE
  5
8A5
100
AcDbEntity
  8
DRAFT
100
AcDbEllipse
 62
7
  6
CONTINUOUS
 10
-11.4943722449
 20
44.6470172298
 30
0.0
 11
1.0
 21
0.0
 31
0.0
 40
0.0087268678
 41
1.5707963268
 42
3.1415926536
  0
ELLIPSE
  5
8A6
100
AcDbEntity
  8
DRAFT
100
AcDbEllipse
 62
7
  6
CONTINUOUS
 10
-11.4943722449
 20
4.5580031783
 30
0.0
 11
1.0
 21
0.0
 31
0.0
 40
0.0087268678
 41
-3.1415926536
 42
-1.5707963268
  0
ELLIPSE
  5
8A7
100
AcDbEntity
  8
DRAFT
100
AcDbEllipse
 62
7
  6
CONTINUOUS
 10
-8.9943722449
 20
44.7849017409
 30
0.0
 11
15.0
 21
-0.0
 31
0.0
 40
0.0087268678
 41
-1.7342776332
 42
-1.4073150204
  0
ELLIPSE
  5
8A8
100
AcDbEntity
  8
DRAFT
100
AcDbEllipse
 62
7
  6
CONTINUOUS
 10
-6.4943722449
 20
44.6470172298
 30
0.0
 11
1.0
 21
-0.0
 31
0.0
 40
0.0087268678
 41
-0.0
 42
1.5707963268
  0
ELLIPSE
  5
8A9
100
AcDbEntity
  8
DRAFT
100
AcDbEllipse
 62
7
  6
CONTINUOUS
 10
-8.9943722449
 20
4.4201186673
 30
0.0
 11
15.0
 21
-0.0
 31
0.0
 40
0.0087268678
 41
1.4073150204
 42
1.7342776332
  0
ELLIPSE
  5
8AA
100
AcDbEntity
  8
DRAFT
100
AcDbEllipse
 62
7
  6
CONTINUOUS
 10
-6.4943722449
 20
4.5580031783
 30
0.0
 11
1.0
 21
0.0
 31
0.0
 40
0.0087268678
 41
-1.5707963268
 42
-0.0
  0
ELLIPSE
  5
8AB
100
AcDbEntity
  8
RACCORDO
100
AcDbEllipse
 62
7
  6
CONTINUOUS
 10
-0.494368014
 20
1.1911853387
 30
0.0
 11
-0.0029088041
 21
0.2886641433
 31
0.0
 40
0.8660144118
 41
-0.0087264124
 42
1.5591610446
  0
ELLIPSE
  5
8AC
100
AcDbEntity
  8
RACCORDO
100
AcDbEllipse
 62
7
  6
CONTINUOUS
 10
1.6955576842
 20
46.5337658202
 30
0.0
 11
0.4115211136
 21
-0.2057448864
 31
0.0
 40
0.9998096356
 41
6.7467263073
 42
8.3176749331
  0
ELLIPSE
  5
8AD
100
AcDbEntity
  8
RACCORDO
100
AcDbEllipse
 62
7
  6
CONTINUOUS
 10
-19.684302174
 20
2.6712545879
 30
0.0
 11
-0.4115211136
 21
0.2057448864
 31
0.0
 40
0.9998096356
 41
6.7467263073
 42
8.3176749331
  0
ELLIPSE
  5
8AE
100
AcDbEntity
  8
RACCORDO
100
AcDbEllipse
 62
7
  6
CONTINUOUS
 10
-17.4943764758
 20
1.1911853387
 30
0.0
 11
0.0029088041
 21
0.2886641433
 31
0.0
 40
0.8660144118
 41
-1.5591610446
 42
0.0087264124
  0
ELLIPSE
  5
8AF
100
AcDbEntity
  8
RACCORDO
100
AcDbEllipse
 62
7
  6
CONTINUOUS
 10
-19.394368014
 20
1.1911853387
 30
0.0
 11
-0.0029088041
 21
0.2886641433
 31
0.0
 40
0.8660144118
 41
-0.0087264124
 42
1.5591610446
  0
ELLIPSE
  5
8B0
100
AcDbEntity
  8
RACCORDO
100
AcDbEllipse
 62
7
  6
CONTINUOUS
 10
-19.684302174
 20
46.5337658202
 30
0.0
 11
0.4115211136
 21
0.2057448864
 31
0.0
 40
0.9998096356
 41
1.1071030277
 42
2.6780516535
  0
ELLIPSE
  5
8B1
100
AcDbEntity
  8
RACCORDO
100
AcDbEllipse
 62
7
  6
CONTINUOUS
 10
-1.4102715257
 20
45.5941423159
 30
0.0
 11
0.5
 21
0.0
 31
0.0
 40
0.0087268678
 41
0.0174532925
 42
1.5707963268
  0
ELLIPSE
  5
8B2
100
AcDbEntity
  8
RACCORDO
100
AcDbEllipse
 62
7
  6
CONTINUOUS
 10
-16.5784729641
 20
45.5941423159
 30
0.0
 11
0.5
 21
0.0
 31
0.0
 40
0.0087268678
 41
1.5707963268
 42
3.1241393611
  0
ELLIPSE
  5
8B3
100
AcDbEntity
  8
RACCORDO
100
AcDbEllipse
 62
7
  6
CONTINUOUS
 10
-1.4102715257
 20
3.6108780923
 30
0.0
 11
0.5
 21
0.0
 31
0.0
 40
0.0087268678
 41
-1.5707963268
 42
-0.0174532925
  0
ELLIPSE
  5
8B4
100
AcDbEntity
  8
RACCORDO
100
AcDbEllipse
 62
7
  6
CONTINUOUS
 10
-16.5784729641
 20
3.6108780923
 30
0.0
 11
0.5
 21
-0.0
 31
0.0
 40
0.0087268678
 41
-3.1241393611
 42
-1.5707963268
  0
ELLIPSE
  5
8B5
100
AcDbEntity
  8
RACCORDO
100
AcDbEllipse
 62
7
  6
CONTINUOUS
 10
1.6955576842
 20
2.6712545879
 30
0.0
 11
-0.4115211136
 21
-0.2057448864
 31
0.0
 40
0.9998096356
 41
1.1071030277
 42
2.6780516535
  0
ELLIPSE
  5
8B6
100
AcDbEntity
  8
RACCORDO
100
AcDbEllipse
 62
7
  6
CONTINUOUS
 10
-15.3496416281
 20
45.1854344873
 30
0.0
 11
-0.0
 21
0.5
 31
0.0
 40
0.0058178298
 41
-4.7123889804
 42
-3.1503192998
  0
ELLIPSE
  5
8B7
100
AcDbEntity
  8
RACCORDO
100
AcDbEllipse
 62
7
  6
CONTINUOUS
 10
-2.6391028617
 20
45.1854344873
 30
0.0
 11
0.0
 21
0.5
 31
0.0
 40
0.0058178298
 41
-3.1328660073
 42
-1.5707963268
  0
ELLIPSE
  5
8B8
100
AcDbEntity
  8
RACCORDO
100
AcDbEllipse
 62
7
  6
CONTINUOUS
 10
-2.6391028617
 20
4.0195859209
 30
0.0
 11
0.0
 21
0.5
 31
0.0
 40
0.0058178298
 41
-1.5707963268
 42
-0.0087266463
  0
ELLIPSE
  5
8B9
100
AcDbEntity
  8
RACCORDO
100
AcDbEllipse
 62
7
  6
CONTINUOUS
 10
-15.3496416281
 20
4.0195859209
 30
0.0
 11
0.0
 21
0.5
 31
0.0
 40
0.0058178298
 41
0.0087266463
 42
1.5707963268
  0
ELLIPSE
  5
8BA
100
AcDbEntity
  8
RACCORDO
100
AcDbEllipse
 62
7
  6
CONTINUOUS
 10
-2.6373575128
 20
44.5595283209
 30
0.0
 11
0.0
 21
0.2
 31
0.0
 40
0.0058178298
 41
-3.1357748894
 42
-1.5707963268
  0
ELLIPSE
  5
8BB
100
AcDbEntity
  8
RACCORDO
100
AcDbEllipse
 62
7
  6
CONTINUOUS
 10
-1.751386977
 20
44.5595283209
 30
0.0
 11
0.0
 21
0.2
 31
0.0
 40
0.0058178298
 41
-4.7123889804
 42
-3.1474104178
  0
ELLIPSE
  5
8BC
100
AcDbEntity
  8
RACCORDO
100
AcDbEllipse
 62
7
  6
CONTINUOUS
 10
-16.2373575128
 20
44.5595283209
 30
0.0
 11
0.0
 21
0.2
 31
0.0
 40
0.0058178298
 41
-3.1357748894
 42
-1.5707963268
  0
ELLIPSE
  5
8BD
100
AcDbEntity
  8
RACCORDO
100
AcDbEllipse
 62
7
  6
CONTINUOUS
 10
-15.351386977
 20
44.5595283209
 30
0.0
 11
0.0
 21
0.2
 31
0.0
 40
0.0058178298
 41
-4.7123889804
 42
-3.1474104178
  0
ELLIPSE
  5
8BE
100
AcDbEntity
  8
RACCORDO
100
AcDbEllipse
 62
7
  6
CONTINUOUS
 10
-15.351386977
 20
4.6454920872
 30
0.0
 11
-0.0
 21
0.2
 31
0.0
 40
0.0058178298
 41
0.0058177642
 42
1.5707963268
  0
ELLIPSE
  5
8BF
100
AcDbEntity
  8
RACCORDO
100
AcDbEllipse
 62
7
  6
CONTINUOUS
 10
-16.2373575128
 20
4.6454920872
 30
0.0
 11
0.0
 21
0.2
 31
0.0
 40
0.0058178298
 41
-1.5707963268
 42
-0.0058177642
  0
ELLIPSE
  5
8C0
100
AcDbEntity
  8
RACCORDO
100
AcDbEllipse
 62
7
  6
CONTINUOUS
 10
-1.751386977
 20
4.6454920872
 30
0.0
 11
0.0
 21
0.2
 31
0.0
 40
0.0058178298
 41
0.0058177642
 42
1.5707963268
  0
ELLIPSE
  5
8C1
100
AcDbEntity
  8
RACCORDO
100
AcDbEllipse
 62
7
  6
CONTINUOUS
 10
-2.6373575128
 20
4.6454920872
 30
0.0
 11
-0.0
 21
0.2
 31
0.0
 40
0.0058178298
 41
-1.5707963268
 42
-0.0058177642
  0
ELLIPSE
  5
8C2
100
AcDbEntity
  8
RACCORDO
100
AcDbEllipse
 62
7
  6
CONTINUOUS
 10
-0.494368014
 20
48.0138350695
 30
0.0
 11
0.0029088041
 21
0.2886641433
 31
0.0
 40
0.8660144118
 41
-4.7007536982
 42
-3.1328662412
  0
ELLIPSE
  5
8C3
100
AcDbEntity
  8
RACCORDO
100
AcDbEllipse
 62
7
  6
CONTINUOUS
 10
1.4056235242
 20
48.0138350695
 30
0.0
 11
-0.0029088041
 21
0.2886641433
 31
0.0
 40
0.8660144118
 41
-3.150319066
 42
-1.582431609
  0
ELLIPSE
  5
8C4
100
AcDbEntity
  8
ASSI
100
AcDbEllipse
 62
7
  6
CONTINUOUS
 10
-4.6380059685
 20
47.8588680188
 30
0.0
 11
0.0
 21
0.5
 31
0.0
 40
0.0058178298
 41
0.0058177642
 42
0.149597008
  0
ELLIPSE
  5
8C5
100
AcDbEntity
  8
ASSI
100
AcDbEllipse
 62
7
  6
CONTINUOUS
 10
-13.3507385213
 20
47.8588680188
 30
0.0
 11
0.0
 21
0.5
 31
0.0
 40
0.0058178298
 41
-0.149597008
 42
-0.0058177642
  0
ELLIPSE
  5
8C6
100
AcDbEntity
  8
ASSI
100
AcDbEllipse
 62
7
  6
CONTINUOUS
 10
-13.3507385213
 20
1.3461523894
 30
0.0
 11
0.0
 21
0.5
 31
0.0
 40
0.0058178298
 41
-3.1357748894
 42
-2.9919956456
  0
ELLIPSE
  5
8C7
100
AcDbEntity
  8
ASSI
100
AcDbEllipse
 62
7
  6
CONTINUOUS
 10
-4.6380059685
 20
1.3461523894
 30
0.0
 11
0.0
 21
0.5
 31
0.0
 40
0.0058178298
 41
-3.2911896616
 42
-3.1474104178
  0
ELLIPSE
  5
8C8
100
AcDbEntity
  8
DRAFT
100
AcDbEllipse
 62
7
  6
CONTINUOUS
 10
-5.0664022572
 20
46.9364300993
 30
0.0
 11
0.4279699877
 21
0.0
 31
0.0
 40
0.0087268678
 41
3.1415926536
 42
6.277367543
  0
ELLIPSE
  5
8C9
100
AcDbEntity
  8
RACCORDO
100
AcDbEllipse
 62
7
  6
CONTINUOUS
 10
-19.394368014
 20
48.0138350695
 30
0.0
 11
0.0029088041
 21
0.2886641433
 31
0.0
 40
0.8660144118
 41
-4.7007536982
 42
-3.1328662412
  0
ELLIPSE
  5
8CA
100
AcDbEntity
  8
DRAFT
100
AcDbEllipse
 62
7
  6
CONTINUOUS
 10
-12.9223422326
 20
46.9364300993
 30
0.0
 11
0.4279699877
 21
-0.0
 31
0.0
 40
0.0087268678
 41
-3.1357748894
 42
0.0
  0
ELLIPSE
  5
8CB
100
AcDbEntity
  8
DRAFT
100
AcDbEllipse
 62
7
  6
CONTINUOUS
 10
-12.9223422326
 20
2.2685903089
 30
0.0
 11
0.4279699877
 21
-0.0
 31
0.0
 40
0.0087268678
 41
0.0
 42
3.1357748894
  0
ELLIPSE
  5
8CC
100
AcDbEntity
  8
RACCORDO
100
AcDbEllipse
 62
7
  6
CONTINUOUS
 10
-17.4943764758
 20
48.0138350695
 30
0.0
 11
-0.0029088041
 21
0.2886641433
 31
0.0
 40
0.8660144118
 41
-3.150319066
 42
-1.582431609
  0
ELLIPSE
  5
8CD
100
AcDbEntity
  8
DRAFT
100
AcDbEllipse
 62
7
  6
CONTINUOUS
 10
-5.0664022572
 20
2.2685903089
 30
0.0
 11
0.4279699877
 21
0.0
 31
0.0
 40
0.0087268678
 41
0.0058177642
 42
3.1415926536
  0
ELLIPSE
  5
8CE
100
AcDbEntity
  8
RACCORDO
100
AcDbEllipse
 62
7
  6
CONTINUOUS
 10
1.4056235242
 20
1.1911853387
 30
0.0
 11
0.0029088041
 21
0.2886641433
 31
0.0
 40
0.8660144118
 41
-1.5591610446
 42
0.0087264124
  0
ELLIPSE
  5
8CF
100
AcDbEntity
  8
RACCORDO
100
AcDbEllipse
 62
7
  6
CONTINUOUS
 10
-7.3117943577
 20
42.2025102041
 30
0.0
 11
-0.3000114235
 21
0.0
 31
0.0
 40
0.9999619231
 41
1.5707963268
 42
2.80137059
  0
ELLIPSE
  5
8D0
100
AcDbEntity
  8
RACCORDO
100
AcDbEllipse
 62
7
  6
CONTINUOUS
 10
1.7187066333
 20
28.0525102041
 30
0.0
 11
-0.3000114235
 21
0.0
 31
0.0
 40
0.9999619231
 41
1.5707963268
 42
3.1415926536
  0
ELLIPSE
  5
8D1
100
AcDbEntity
  8
RACCORDO
100
AcDbEllipse
 62
7
  6
CONTINUOUS
 10
1.7187066333
 20
23.0525102041
 30
0.0
 11
-0.3000114235
 21
0.0
 31
0.0
 40
0.9999619231
 41
1.5707963268
 42
3.1415926536
  0
ELLIPSE
  5
8D2
100
AcDbEntity
  8
RACCORDO
100
AcDbEllipse
 62
7
  6
CONTINUOUS
 10
1.7187066333
 20
18.0525102041
 30
0.0
 11
-0.3000114235
 21
0.0
 31
0.0
 40
0.9999619231
 41
1.5707963268
 42
3.1415926536
  0
ELLIPSE
  5
8D3
100
AcDbEntity
  8
RACCORDO
100
AcDbEllipse
 62
7
  6
CONTINUOUS
 10
1.7187066333
 20
13.0525102041
 30
0.0
 11
-0.3000114235
 21
0.0
 31
0.0
 40
0.9999619231
 41
1.5707963268
 42
3.1415926536
  0
ELLIPSE
  5
8D4
100
AcDbEntity
  8
DRAFT
100
AcDbEllipse
 62
7
  6
CONTINUOUS
 10
0.8470803771
 20
25.6025102041
 30
0.0
 11
0.0
 21
2.15
 31
0.0
 40
0.0087268678
 41
3.1415926536
 42
6.2831853072
  0
ELLIPSE
  5
8D5
100
AcDbEntity
  8
DRAFT
100
AcDbEllipse
 62
7
  6
CONTINUOUS
 10
0.8470803771
 20
10.6025102041
 30
0.0
 11
0.0
 21
2.15
 31
0.0
 40
0.0087268678
 41
3.1415926536
 42
6.2831853072
  0
ELLIPSE
  5
8D6
100
AcDbEntity
  8
RACCORDO
100
AcDbEllipse
 62
7
  6
CONTINUOUS
 10
-5.2812933667
 20
5.2894313259
 30
0.0
 11
-0.2121481893
 21
0.2121481893
 31
0.0
 40
0.9999238505
 41
2.3562325664
 42
3.9269527408
  0
ELLIPSE
  5
8D7
100
AcDbEntity
  8
RACCORDO
100
AcDbEllipse
 62
7
  6
CONTINUOUS
 10
-18.3855650904
 20
5.9894579808
 30
0.0
 11
-0.3827005044
 21
-0.9239207481
 31
0.0
 40
0.9999553905
 41
-0.3926833098
 42
0.3926833098
  0
ELLIPSE
  5
8D8
100
AcDbEntity
  8
RACCORDO
100
AcDbEllipse
 62
7
  6
CONTINUOUS
 10
-19.0074244682
 20
6.6113173585
 30
0.0
 11
-0.9239207481
 21
-0.3827005044
 31
0.0
 40
0.9999553905
 41
-0.3926833098
 42
0.3926833098
  0
ELLIPSE
  5
8D9
100
AcDbEntity
  8
RACCORDO
100
AcDbEllipse
 62
7
  6
CONTINUOUS
 10
-19.0074244682
 20
42.5937030496
 30
0.0
 11
-0.9239207481
 21
0.3827005044
 31
0.0
 40
0.9999553905
 41
-0.3926833098
 42
0.3926833098
  0
ELLIPSE
  5
8DA
100
AcDbEntity
  8
RACCORDO
100
AcDbEllipse
 62
7
  6
CONTINUOUS
 10
-18.3855650904
 20
43.2155624274
 30
0.0
 11
0.3827005044
 21
-0.9239207481
 31
0.0
 40
0.9999553905
 41
2.7489093438
 42
3.5342759634
  0
ELLIPSE
  5
8DB
100
AcDbEntity
  8
RACCORDO
100
AcDbEllipse
 62
7
  6
CONTINUOUS
 10
-5.2812933667
 20
43.9155890823
 30
0.0
 11
0.2121481893
 21
0.2121481893
 31
0.0
 40
0.9999238505
 41
-0.7853600872
 42
0.7853600872
  0
ELLIPSE
  5
8DC
100
AcDbEntity
  8
RACCORDO
100
AcDbEllipse
 62
7
  6
CONTINUOUS
 10
0.3968206006
 20
41.8155624274
 30
0.0
 11
0.3827005044
 21
0.9239207481
 31
0.0
 40
0.9999553905
 41
-0.3926833098
 42
0.3926833098
  0
ELLIPSE
  5
8DD
100
AcDbEntity
  8
RACCORDO
100
AcDbEllipse
 62
7
  6
CONTINUOUS
 10
1.0186799784
 20
41.1937030496
 30
0.0
 11
-0.9239207481
 21
-0.3827005044
 31
0.0
 40
0.9999553905
 41
2.7489093438
 42
3.5342759634
  0
ELLIPSE
  5
8DE
100
AcDbEntity
  8
DRAFT
100
AcDbEllipse
 62
7
  6
CONTINUOUS
 10
0.8470803771
 20
15.6025102041
 30
0.0
 11
0.0
 21
2.15
 31
0.0
 40
0.0087268678
 41
3.1415926536
 42
6.2831853072
  0
ELLIPSE
  5
8DF
100
AcDbEntity
  8
RACCORDO
100
AcDbEllipse
 62
7
  6
CONTINUOUS
 10
1.7187066333
 20
23.1525102041
 30
0.0
 11
0.3000114235
 21
-0.0
 31
0.0
 40
0.9999619231
 41
0.0
 42
1.5707963268
  0
ELLIPSE
  5
8E0
100
AcDbEntity
  8
DRAFT
100
AcDbEllipse
 62
7
  6
CONTINUOUS
 10
0.8470803771
 20
20.6025102041
 30
0.0
 11
0.0
 21
2.15
 31
0.0
 40
0.0087268678
 41
3.1415926536
 42
6.2831853072
  0
ELLIPSE
  5
8E1
100
AcDbEntity
  8
RACCORDO
100
AcDbEllipse
 62
7
  6
CONTINUOUS
 10
1.7187066333
 20
18.1525102041
 30
0.0
 11
0.3000114235
 21
-0.0
 31
0.0
 40
0.9999619231
 41
0.0
 42
1.5707963268
  0
ELLIPSE
  5
8E2
100
AcDbEntity
  8
RACCORDO
100
AcDbEllipse
 62
7
  6
CONTINUOUS
 10
1.7187066333
 20
13.1525102041
 30
0.0
 11
0.3000114235
 21
-0.0
 31
0.0
 40
0.9999619231
 41
0.0
 42
1.5707963268
  0
ELLIPSE
  5
8E3
100
AcDbEntity
  8
RACCORDO
100
AcDbEllipse
 62
7
  6
CONTINUOUS
 10
1.7187066333
 20
8.1525102041
 30
0.0
 11
0.3000114235
 21
-0.0
 31
0.0
 40
0.9999619231
 41
0.0
 42
1.5707963268
  0
ELLIPSE
  5
8E4
100
AcDbEntity
  8
RACCORDO
100
AcDbEllipse
 62
7
  6
CONTINUOUS
 10
1.0186799784
 20
8.0113173585
 30
0.0
 11
0.9239207481
 21
-0.3827005044
 31
0.0
 40
0.9999553905
 41
-0.3926833098
 42
0.3926833098
  0
ELLIPSE
  5
8E5
100
AcDbEntity
  8
RACCORDO
100
AcDbEllipse
 62
7
  6
CONTINUOUS
 10
0.3968206006
 20
7.3894579808
 30
0.0
 11
0.3827005044
 21
-0.9239207481
 31
0.0
 40
0.9999553905
 41
-0.3926833098
 42
0.3926833098
  0
ELLIPSE
  5
8E6
100
AcDbEntity
  8
RACCORDO
100
AcDbEllipse
 62
7
  6
CONTINUOUS
 10
-4.6812705197
 20
6.0894084789
 30
0.0
 11
0.2121481893
 21
-0.2121481893
 31
0.0
 40
0.9999238505
 41
2.3562325664
 42
3.9269527408
  0
ELLIPSE
  5
8E7
100
AcDbEntity
  8
RACCORDO
100
AcDbEllipse
 62
7
  6
CONTINUOUS
 10
-10.6769501321
 20
42.2025102041
 30
0.0
 11
-0.3000114235
 21
0.0
 31
0.0
 40
0.9999619231
 41
0.3402220636
 42
1.5707963268
  0
ELLIPSE
  5
8E8
100
AcDbEntity
  8
RACCORDO
100
AcDbEllipse
 62
7
  6
CONTINUOUS
 10
-10.5983652757
 20
7.0025102041
 30
0.0
 11
0.3000114235
 21
-0.0
 31
0.0
 40
0.9999619231
 41
1.5707963268
 42
2.80137059
  0
ELLIPSE
  5
8E9
100
AcDbEntity
  8
RACCORDO
100
AcDbEllipse
 62
7
  6
CONTINUOUS
 10
-7.3903792141
 20
7.0025102041
 30
0.0
 11
0.3000114235
 21
-0.0
 31
0.0
 40
0.9999619231
 41
0.3402220636
 42
1.5707963268
  0
ELLIPSE
  5
8EA
100
AcDbEntity
  8
ASSI
100
AcDbEllipse
 62
7
  6
CONTINUOUS
 10
-5.2812933667
 20
5.2894313259
 30
0.0
 11
-0.2121481893
 21
0.2121481893
 31
0.0
 40
0.9999238505
 41
2.3562325664
 42
3.9269527408
  0
ELLIPSE
  5
8EB
100
AcDbEntity
  8
ASSI
100
AcDbEllipse
 62
7
  6
CONTINUOUS
 10
-18.3855650904
 20
5.9894579808
 30
0.0
 11
-0.3827005044
 21
-0.9239207481
 31
0.0
 40
0.9999553905
 41
-0.3926833098
 42
0.3926833098
  0
ELLIPSE
  5
8EC
100
AcDbEntity
  8
ASSI
100
AcDbEllipse
 62
7
  6
CONTINUOUS
 10
-19.0074244682
 20
6.6113173585
 30
0.0
 11
-0.9239207481
 21
-0.3827005044
 31
0.0
 40
0.9999553905
 41
-0.3926833098
 42
0.3926833098
  0
ELLIPSE
  5
8ED
100
AcDbEntity
  8
ASSI
100
AcDbEllipse
 62
7
  6
CONTINUOUS
 10
-19.0074244682
 20
42.5937030496
 30
0.0
 11
-0.9239207481
 21
0.3827005044
 31
0.0
 40
0.9999553905
 41
-0.3926833098
 42
0.3926833098
  0
ELLIPSE
  5
8EE
100
AcDbEntity
  8
ASSI
100
AcDbEllipse
 62
7
  6
CONTINUOUS
 10
-18.3855650904
 20
43.2155624274
 30
0.0
 11
0.3827005044
 21
-0.9239207481
 31
0.0
 40
0.9999553905
 41
2.7489093438
 42
3.5342759634
  0
ELLIPSE
  5
8EF
100
AcDbEntity
  8
ASSI
100
AcDbEllipse
 62
7
  6
CONTINUOUS
 10
-5.2812933667
 20
43.9155890823
 30
0.0
 11
0.2121481893
 21
0.2121481893
 31
0.0
 40
0.9999238505
 41
-0.7853600872
 42
0.7853600872
  0
ELLIPSE
  5
8F0
100
AcDbEntity
  8
ASSI
100
AcDbEllipse
 62
7
  6
CONTINUOUS
 10
0.3968206006
 20
41.8155624274
 30
0.0
 11
0.3827005044
 21
0.9239207481
 31
0.0
 40
0.9999553905
 41
-0.3926833098
 42
0.3926833098
  0
ELLIPSE
  5
8F1
100
AcDbEntity
  8
ASSI
100
AcDbEllipse
 62
7
  6
CONTINUOUS
 10
1.0186799784
 20
41.1937030496
 30
0.0
 11
-0.9239207481
 21
-0.3827005044
 31
0.0
 40
0.9999553905
 41
2.7489093438
 42
3.5342759634
  0
ELLIPSE
  5
8F2
100
AcDbEntity
  8
ASSI
100
AcDbEllipse
 62
7
  6
CONTINUOUS
 10
1.7187066333
 20
23.1525102041
 30
0.0
 11
0.3000114235
 21
-0.0
 31
0.0
 40
0.9999619231
 41
0.0
 42
1.5707963268
  0
ELLIPSE
  5
8F3
100
AcDbEntity
  8
ASSI
100
AcDbEllipse
 62
7
  6
CONTINUOUS
 10
1.7187066333
 20
18.1525102041
 30
0.0
 11
0.3000114235
 21
-0.0
 31
0.0
 40
0.9999619231
 41
0.0
 42
1.5707963268
  0
ELLIPSE
  5
8F4
100
AcDbEntity
  8
ASSI
100
AcDbEllipse
 62
7
  6
CONTINUOUS
 10
1.7187066333
 20
13.1525102041
 30
0.0
 11
0.3000114235
 21
-0.0
 31
0.0
 40
0.9999619231
 41
0.0
 42
1.5707963268
  0
ELLIPSE
  5
8F5
100
AcDbEntity
  8
ASSI
100
AcDbEllipse
 62
7
  6
CONTINUOUS
 10
1.7187066333
 20
8.1525102041
 30
0.0
 11
0.3000114235
 21
-0.0
 31
0.0
 40
0.9999619231
 41
0.0
 42
1.5707963268
  0
ELLIPSE
  5
8F6
100
AcDbEntity
  8
ASSI
100
AcDbEllipse
 62
7
  6
CONTINUOUS
 10
1.0186799784
 20
8.0113173585
 30
0.0
 11
0.9239207481
 21
-0.3827005044
 31
0.0
 40
0.9999553905
 41
-0.3926833098
 42
0.3926833098
  0
ELLIPSE
  5
8F7
100
AcDbEntity
  8
ASSI
100
AcDbEllipse
 62
7
  6
CONTINUOUS
 10
0.3968206006
 20
7.3894579808
 30
0.0
 11
0.3827005044
 21
-0.9239207481
 31
0.0
 40
0.9999553905
 41
-0.3926833098
 42
0.3926833098
  0
ELLIPSE
  5
8F8
100
AcDbEntity
  8
ASSI
100
AcDbEllipse
 62
7
  6
CONTINUOUS
 10
-10.6769501321
 20
42.2025102041
 30
0.0
 11
-0.3000114235
 21
0.0
 31
0.0
 40
0.9999619231
 41
0.3402220636
 42
1.5707963268
  0
ELLIPSE
  5
8F9
100
AcDbEntity
  8
ASSI
100
AcDbEllipse
 62
7
  6
CONTINUOUS
 10
-10.5983652757
 20
7.0025102041
 30
0.0
 11
0.3000114235
 21
-0.0
 31
0.0
 40
0.9999619231
 41
1.5707963268
 42
2.80137059
  0
ELLIPSE
  5
8FA
100
AcDbEntity
  8
ASSI
100
AcDbEllipse
 62
7
  6
CONTINUOUS
 10
-7.3903792141
 20
7.0025102041
 30
0.0
 11
0.3000114235
 21
-0.0
 31
0.0
 40
0.9999619231
 41
0.3402220636
 42
1.5707963268
  0
ELLIPSE
  5
8FB
100
AcDbEntity
  8
ASSI
100
AcDbEllipse
 62
7
  6
CONTINUOUS
 10
-7.3117943577
 20
42.2025102041
 30
0.0
 11
-0.3000114235
 21
0.0
 31
0.0
 40
0.9999619231
 41
1.5707963268
 42
2.80137059
  0
ELLIPSE
  5
8FC
100
AcDbEntity
  8
ASSI
100
AcDbEllipse
 62
7
  6
CONTINUOUS
 10
1.7187066333
 20
28.0525102041
 30
0.0
 11
-0.3000114235
 21
0.0
 31
0.0
 40
0.9999619231
 41
1.5707963268
 42
3.1415926536
  0
ELLIPSE
  5
8FD
100
AcDbEntity
  8
ASSI
100
AcDbEllipse
 62
7
  6
CONTINUOUS
 10
1.7187066333
 20
23.0525102041
 30
0.0
 11
-0.3000114235
 21
0.0
 31
0.0
 40
0.9999619231
 41
1.5707963268
 42
3.1415926536
  0
ELLIPSE
  5
8FE
100
AcDbEntity
  8
ASSI
100
AcDbEllipse
 62
7
  6
CONTINUOUS
 10
1.7187066333
 20
18.0525102041
 30
0.0
 11
-0.3000114235
 21
0.0
 31
0.0
 40
0.9999619231
 41
1.5707963268
 42
3.1415926536
  0
ELLIPSE
  5
8FF
100
AcDbEntity
  8
ASSI
100
AcDbEllipse
 62
7
  6
CONTINUOUS
 10
1.7187066333
 20
13.0525102041
 30
0.0
 11
-0.3000114235
 21
0.0
 31
0.0
 40
0.9999619231
 41
1.5707963268
 42
3.1415926536
  0
ELLIPSE
  5
900
100
AcDbEntity
  8
ASSI
100
AcDbEllipse
 62
7
  6
CONTINUOUS
 10
0.8470803771
 20
25.6025102041
 30
0.0
 11
0.0
 21
2.15
 31
0.0
 40
0.0087268678
 41
3.1415926536
 42
6.2831853072
  0
ELLIPSE
  5
901
100
AcDbEntity
  8
ASSI
100
AcDbEllipse
 62
7
  6
CONTINUOUS
 10
0.8470803771
 20
10.6025102041
 30
0.0
 11
0.0
 21
2.15
 31
0.0
 40
0.0087268678
 41
3.1415926536
 42
6.2831853072
  0
ELLIPSE
  5
902
100
AcDbEntity
  8
ASSI
100
AcDbEllipse
 62
7
  6
CONTINUOUS
 10
0.8470803771
 20
15.6025102041
 30
0.0
 11
0.0
 21
2.15
 31
0.0
 40
0.0087268678
 41
3.1415926536
 42
6.2831853072
  0
ELLIPSE
  5
903
100
AcDbEntity
  8
ASSI
100
AcDbEllipse
 62
7
  6
CONTINUOUS
 10
0.8470803771
 20
20.6025102041
 30
0.0
 11
0.0
 21
2.15
 31
0.0
 40
0.0087268678
 41
3.1415926536
 42
6.2831853072
  0
ELLIPSE
  5
904
100
AcDbEntity
  8
ASSI
100
AcDbEllipse
 62
7
  6
CONTINUOUS
 10
-4.6812705197
 20
6.0894084789
 30
0.0
 11
0.2121481893
 21
-0.2121481893
 31
0.0
 40
0.9999238505
 41
2.3562325664
 42
3.9269527408
  0
ENDSEC
  0
SECTION
  2
OBJECTS
  0
DICTIONARY
  5
C
100
AcDbDictionary
280
0
281
1
  3
ACAD_GROUP
350
D
  3
ACAD_MLINESTYLE
350
17
  3
ACAD_LAYOUT
350
1A
  3
ACAD_PLOTSETTINGS
350
19
  3
ACAD_PLOTSTYLENAME
350
E
  0
DICTIONARY
  5
D
102
{ACAD_REACTORS
330
C
102
}
100
AcDbDictionary
280
0
281
1
  0
ACDBDICTIONARYWDFLT
  5
E
102
{ACAD_REACTORS
330
C
102
}
100
AcDbDictionary
281
1
  3
Normal
350
F
100
AcDbDictionaryWithDefault
340
F
  0
DICTIONARY
  5
17
102
{ACAD_REACTORS
330
C
102
}
100
AcDbDictionary
280
0
281
1
  3
Standard
350
18
  0
DICTIONARY
  5
19
102
{ACAD_REACTORS
330
C
102
}
100
AcDbDictionary
281
1
  0
DICTIONARY
  5
1A
102
{ACAD_REACTORS
330
C
102
}
100
AcDbDictionary
281
1
  3
Model
350
905
  3
Layout1
350
906
  0
ACDBPLACEHOLDER
  5
F
102
{ACAD_REACTORS
330
E
102
}
  0
MLINESTYLE
  5
18
102
{ACAD_REACTORS
330
17
102
}
100
AcDbMlineStyle
  2
STANDARD
 70
0
  3

 62
256
 51
90.0
 52
90.0
 71
2
 49
0.5
 62
256
  6
BYLAYER
 49
-0.5
 62
256
  6
BYLAYER
  0
LAYOUT
  5
905
102
{ACAD_REACTORS
330
1A
102
}
100
AcDbPlotSettings
  1

  2
none_device
  4
ISO_A4_(297.00_x_210.00_MM)
  6

 40
0.0
 41
0.0
 42
0.0
 43
0.0
 44
297.0
 45
210.0
 46
0.0
 47
0.0
 48
0.0
 49
0.0
140
0.0
141
0.0
142
1.0
143
1.0
 70
1024
 72
1
 73
0
 74
0
  7

 75
0
147
1.0
148
0.0
149
0.0
100
AcDbLayout
  1
Model
 70
0
 71
0
 10
0.0
 20
0.0
 11
297.0
 21
210.0
 12
0.0
 22
0.0
 32
0.0
 14
0.0
 24
0.0
 34
0.0
 15
0.0
 25
0.0
 35
0.0
146
0.0
 13
0.0
 23
0.0
 33
0.0
 16
1.0
 26
0.0
 36
0.0
 17
0.0
 27
1.0
 37
0.0
 76
0
330
218
345
0
346
0
  0
LAYOUT
  5
906
102
{ACAD_REACTORS
330
1A
102
}
100
AcDbPlotSettings
  1

  2
none_device
  4
ISO_A4_(297.00_x_210.00_MM)
  6

 40
0.0
 41
0.0
 42
0.0
 43
0.0
 44
297.0
 45
210.0
 46
0.0
 47
0.0
 48
0.0
 49
0.0
140
0.0
141
0.0
142
1.0
143
1.0
 70
0
 72
1
 73
0
 74
0
  7

 75
0
147
1.0
148
0.0
149
0.0
100
AcDbLayout
  1
Layout1
 70
0
 71
1
 10
0.0
 20
0.0
 11
297.0
 21
210.0
 12
0.0
 22
0.0
 32
0.0
 14
0.0
 24
0.0
 34
0.0
 15
0.0
 25
0.0
 35
0.0
146
0.0
 13
0.0
 23
0.0
 33
0.0
 16
1.0
 26
0.0
 36
0.0
 17
0.0
 27
1.0
 37
0.0
 76
0
330
219
345
0
346
0
  0
ENDSEC
  0
EOF
