  0
SECTION
  2
HEADER
  9
$ACADVER
  1
AC1015
  9
$DWGCODEPAGE
  3
ANSI_1252
  9
$EXTMAX
 10
297.0
 20
210.0
 30
0.0
  9
$EXTMIN
 10
0.0
 20
0.0
 30
0.0
  9
$LIMMIN
 10
0.0
 20
0.0
  9
$LIMMAX
 10
297.0
 20
210.0
  9
$VIEWCTR
 10
148.5
 20
105.0
  9
$VIEWSIZE
 40
210.0
  9
$CLAYER
  8
0
  9
$LTSCALE
 40
16.335
  9
$CELTYPE
  6
BYLAYER
  9
$DIMSCALE
 40
1.0
  9
$DIMASZ
 40
3.0
  9
$DIMEXO
 40
0.5
  9
$DIMDLI
 40
11.286
  9
$DIMEXE
 40
1.5
  9
$DIMCEN
 40
2.673
  9
$DIMLFAC
 40
1.0
  9
$DIMBLK
  1
_FILLED
  9
$DIMTXT
 40
3.0
  9
$DIMTOL
 70
1
  9
$DIMLIM
 70
0
  9
$DIMTFAC
 40
1.0
  9
$DIMTP
 40
0.01
  9
$DIMTM
 40
0.01
  9
$DIMGAP
 40
0.625
  9
$DIMDSEP
 70
44
  9
$PDMODE
 70
3
  9
$PDSIZE
 40
3.0
  9
$HANDSEED
  5
8A1
  9
$TILEMODE
 70
1
  9
$MEASUREMENT
 70
1
  9
$INSUNITS
 70
4
  0
ENDSEC
  0
SECTION
  2
CLASSES
  0
CLASS
  1
ACDBDICTIONARYWDFLT
  2
AcDbDictionaryWithDefault
  3
AutoCAD 2000
 90
0
280
0
281
0
  0
CLASS
  1
ACDBPLACEHOLDER
  2
AcDbPlaceHolder
  3
AutoCAD 2000
 90
0
280
0
281
0
  0
CLASS
  1
LAYOUT
  2
AcDbLayout
  3
AutoCAD 2000
 90
0
280
0
281
0
  0
ENDSEC
  0
SECTION
  2
TABLES
  0
TABLE
  2
VPORT
  5
8
100
AcDbSymbolTable
 70
2
  0
VPORT
  5
1F4
100
AcDbSymbolTableRecord
100
AcDbViewportTableRecord
  2
*ACTIVE
 70
0
 10
0.0
 20
0.0
 11
1.0
 21
1.0
 12
148.5
 22
105.0
 13
0.0
 23
0.0
 14
1.0
 24
1.0
 15
0.0
 25
0.0
 16
0.0
 26
0.0
 36
1.0
 17
0.0
 27
0.0
 37
0.0
 40
210.0
 41
1.4142857143
 42
50.0
 43
0.0
 44
0.0
 50
0.0
 51
0.0
 71
0
 72
100
 73
1
 74
1
 75
0
 76
0
 77
0
 78
0
  0
ENDTAB
  0
TABLE
  2
LTYPE
  5
5
100
AcDbSymbolTable
 70
6
  0
LTYPE
  5
14
100
AcDbSymbolTableRecord
100
AcDbLinetypeTableRecord
  2
BYBLOCK
 70
0
  3

 72
65
 73
0
 40
0.0
  0
LTYPE
  5
15
100
AcDbSymbolTableRecord
100
AcDbLinetypeTableRecord
  2
BYLAYER
 70
0
  3

 72
65
 73
0
 40
0.0
  0
LTYPE
  5
16
100
AcDbSymbolTableRecord
100
AcDbLinetypeTableRecord
  2
CONTINUOUS
 70
64
  3
Solid line
 72
65
 73
0
 40
0.0
  0
LTYPE
  5
1F5
100
AcDbSymbolTableRecord
100
AcDbLinetypeTableRecord
  2
CENTER
 70
64
  3
____ _ ____ _ ____ _ ____ _ ____ _ ____ _ ____
 72
65
 73
4
 40
0.6
 49
0.375
 74
0
 49
-0.075
 74
0
 49
0.075
 74
0
 49
-0.075
 74
0
  0
LTYPE
  5
1F6
100
AcDbSymbolTableRecord
100
AcDbLinetypeTableRecord
  2
HIDDEN
 70
64
  3
- - - - - - - - - - - - - - - - - - - -
 72
65
 73
2
 40
0.2
 49
0.1
 74
0
 49
-0.1
 74
0
  0
LTYPE
  5
1F7
100
AcDbSymbolTableRecord
100
AcDbLinetypeTableRecord
  2
PHANTOM
 70
64
  3
_____ _ _ _____ _ _ _____ _ _ _____
 72
65
 73
6
 40
0.8
 49
0.45
 74
0
 49
-0.05
 74
0
 49
0.1
 74
0
 49
-0.05
 74
0
 49
0.1
 74
0
 49
-0.05
 74
0
  0
LTYPE
  5
1F8
100
AcDbSymbolTableRecord
100
AcDbLinetypeTableRecord
  2
DOT
 70
64
  3
. . . . . . . . . . . . . . . . . . . .
 72
65
 73
2
 40
0.2
 49
0.1
 74
0
 49
-0.1
 74
0
  0
LTYPE
  5
1F9
100
AcDbSymbolTableRecord
100
AcDbLinetypeTableRecord
  2
DASHED
 70
64
  3
- - - - - - - - - - - - - - - - - - - -
 72
65
 73
2
 40
0.2
 49
0.1
 74
0
 49
-0.1
 74
0
  0
ENDTAB
  0
TABLE
  2
LAYER
  5
2
100
AcDbSymbolTable
 70
36
  0
LAYER
  5
10
100
AcDbSymbolTableRecord
100
AcDbLayerTableRecord
  2
0
 70
0
 62
7
  6
CONTINUOUS
370
-3
390
F
  0
LAYER
  5
1FA
100
AcDbSymbolTableRecord
100
AcDbLayerTableRecord
  2
DEFAULT_1
 70
0
 62
7
  6
CENTER
370
-3
390
F
  0
LAYER
  5
1FB
100
AcDbSymbolTableRecord
100
AcDbLayerTableRecord
  2
DEFAULT_2
 70
0
 62
7
  6
HIDDEN
370
-3
390
F
  0
LAYER
  5
1FC
100
AcDbSymbolTableRecord
100
AcDbLayerTableRecord
  2
DEFAULT_3
 70
0
 62
7
  6
PHANTOM
370
-3
390
F
  0
LAYER
  5
1FD
100
AcDbSymbolTableRecord
100
AcDbLayerTableRecord
  2
ASSI
 70
0
 62
7
  6
CONTINUOUS
370
-3
390
F
  0
LAYER
  5
1FE
100
AcDbSymbolTableRecord
100
AcDbLayerTableRecord
  2
COLOR4
 70
0
 62
7
  6
CONTINUOUS
370
-3
390
F
  0
LAYER
  5
1FF
100
AcDbSymbolTableRecord
100
AcDbLayerTableRecord
  2
COLORE_MATERIALE
 70
0
 62
7
  6
CONTINUOUS
370
-3
390
F
  0
LAYER
  5
200
100
AcDbSymbolTableRecord
100
AcDbLayerTableRecord
  2
COORDINATE
 70
0
 62
7
  6
CONTINUOUS
370
-3
390
F
  0
LAYER
  5
201
100
AcDbSymbolTableRecord
100
AcDbLayerTableRecord
  2
COORD_ORIGINE
 70
0
 62
7
  6
CONTINUOUS
370
-3
390
F
  0
LAYER
  5
202
100
AcDbSymbolTableRecord
100
AcDbLayerTableRecord
  2
COPY
 70
0
 62
7
  6
CONTINUOUS
370
-3
390
F
  0
LAYER
  5
203
100
AcDbSymbolTableRecord
100
AcDbLayerTableRecord
  2
COPY_PUBLISH
 70
0
 62
7
  6
CONTINUOUS
370
-3
390
F
  0
LAYER
  5
204
100
AcDbSymbolTableRecord
100
AcDbLayerTableRecord
  2
COSMETICI
 70
0
 62
7
  6
CONTINUOUS
370
-3
390
F
  0
LAYER
  5
205
100
AcDbSymbolTableRecord
100
AcDbLayerTableRecord
  2
CURVE
 70
0
 62
7
  6
CONTINUOUS
370
-3
390
F
  0
LAYER
  5
206
100
AcDbSymbolTableRecord
100
AcDbLayerTableRecord
  2
DRAFT
 70
0
 62
7
  6
CONTINUOUS
370
-3
390
F
  0
LAYER
  5
207
100
AcDbSymbolTableRecord
100
AcDbLayerTableRecord
  2
IGES
 70
0
 62
7
  6
CONTINUOUS
370
-3
390
F
  0
LAYER
  5
208
100
AcDbSymbolTableRecord
100
AcDbLayerTableRecord
  2
IMPORT_IGES
 70
0
 62
7
  6
CONTINUOUS
370
-3
390
F
  0
LAYER
  5
209
100
AcDbSymbolTableRecord
100
AcDbLayerTableRecord
  2
INTFCLR_137
 70
0
 62
7
  6
CONTINUOUS
370
-3
390
F
  0
LAYER
  5
20A
100
AcDbSymbolTableRecord
100
AcDbLayerTableRecord
  2
INTFCLR_2
 70
0
 62
7
  6
CONTINUOUS
370
-3
390
F
  0
LAYER
  5
20B
100
AcDbSymbolTableRecord
100
AcDbLayerTableRecord
  2
INTFCLR_4627
 70
0
 62
7
  6
CONTINUOUS
370
-3
390
F
  0
LAYER
  5
20C
100
AcDbSymbolTableRecord
100
AcDbLayerTableRecord
  2
INTFCLR_6275
 70
0
 62
7
  6
CONTINUOUS
370
-3
390
F
  0
LAYER
  5
20D
100
AcDbSymbolTableRecord
100
AcDbLayerTableRecord
  2
INTF_1
 70
0
 62
7
  6
CONTINUOUS
370
-3
390
F
  0
LAYER
  5
20E
100
AcDbSymbolTableRecord
100
AcDbLayerTableRecord
  2
INTF_12
 70
0
 62
7
  6
CONTINUOUS
370
-3
390
F
  0
LAYER
  5
20F
100
AcDbSymbolTableRecord
100
AcDbLayerTableRecord
  2
INTF_6
 70
0
 62
7
  6
CONTINUOUS
370
-3
390
F
  0
LAYER
  5
210
100
AcDbSymbolTableRecord
100
AcDbLayerTableRecord
  2
NOTE
 70
0
 62
7
  6
CONTINUOUS
370
-3
390
F
  0
LAYER
  5
211
100
AcDbSymbolTableRecord
100
AcDbLayerTableRecord
  2
PIANI
 70
0
 62
7
  6
CONTINUOUS
370
-3
390
F
  0
LAYER
  5
212
100
AcDbSymbolTableRecord
100
AcDbLayerTableRecord
  2
PIANI_ORIGINE
 70
0
 62
7
  6
CONTINUOUS
370
-3
390
F
  0
LAYER
  5
213
100
AcDbSymbolTableRecord
100
AcDbLayerTableRecord
  2
PIANI_RIFERIMENTO
 70
0
 62
7
  6
CONTINUOUS
370
-3
390
F
  0
LAYER
  5
214
100
AcDbSymbolTableRecord
100
AcDbLayerTableRecord
  2
PIANI_SFORMO
 70
0
 62
7
  6
CONTINUOUS
370
-3
390
F
  0
LAYER
  5
215
100
AcDbSymbolTableRecord
100
AcDbLayerTableRecord
  2
PUNTI
 70
0
 62
7
  6
CONTINUOUS
370
-3
390
F
  0
LAYER
  5
216
100
AcDbSymbolTableRecord
100
AcDbLayerTableRecord
  2
RACCORDO
 70
0
 62
7
  6
CONTINUOUS
370
-3
390
F
  0
LAYER
  5
217
100
AcDbSymbolTableRecord
100
AcDbLayerTableRecord
  2
SIMBOLI
 70
0
 62
7
  6
CONTINUOUS
370
-3
390
F
  0
LAYER
  5
218
100
AcDbSymbolTableRecord
100
AcDbLayerTableRecord
  2
SMUSSO
 70
0
 62
7
  6
CONTINUOUS
370
-3
390
F
  0
LAYER
  5
219
100
AcDbSymbolTableRecord
100
AcDbLayerTableRecord
  2
SNAPLINE
 70
0
 62
7
  6
CONTINUOUS
370
-3
390
F
  0
LAYER
  5
21A
100
AcDbSymbolTableRecord
100
AcDbLayerTableRecord
  2
SUPERFICI
 70
0
 62
7
  6
CONTINUOUS
370
-3
390
F
  0
LAYER
  5
21B
100
AcDbSymbolTableRecord
100
AcDbLayerTableRecord
  2
TRASH
 70
0
 62
7
  6
CONTINUOUS
370
-3
390
F
  0
LAYER
  5
21C
100
AcDbSymbolTableRecord
100
AcDbLayerTableRecord
  2
XSEC_DATUMS
 70
0
 62
7
  6
CONTINUOUS
370
-3
390
F
  0
ENDTAB
  0
TABLE
  2
STYLE
  5
3
100
AcDbSymbolTable
 70
1
  0
STYLE
  5
11
100
AcDbSymbolTableRecord
100
AcDbTextStyleTableRecord
  2
STANDARD
 70
0
 40
0.0
 41
0.8
 50
0.0
 71
0
 42
0.2
  3
txt
  4

  0
STYLE
  5
21D
100
AcDbSymbolTableRecord
100
AcDbTextStyleTableRecord
  2
TEXTSTYLE_1
 70
0
 40
0.0
 41
0.8
 50
0.0
 71
0
 42
0.2
  3
gdt
  4

  0
ENDTAB
  0
TABLE
  2
VIEW
  5
6
100
AcDbSymbolTable
 70
0
  0
ENDTAB
  0
TABLE
  2
UCS
  5
7
100
AcDbSymbolTable
 70
0
  0
ENDTAB
  0
TABLE
  2
APPID
  5
9
100
AcDbSymbolTable
 70
1
  0
APPID
  5
21E
100
AcDbSymbolTableRecord
100
AcDbRegAppTableRecord
  2
ACAD
 70
0
  0
ENDTAB
  0
TABLE
  2
BLOCK_RECORD
  5
1
100
AcDbSymbolTable
 70
0
  0
BLOCK_RECORD
  5
21F
100
AcDbSymbolTableRecord
100
AcDbBlockTableRecord
  2
*Model_Space
  0
BLOCK_RECORD
  5
220
100
AcDbSymbolTableRecord
100
AcDbBlockTableRecord
  2
*Paper_Space
  0
ENDTAB
  0
TABLE
  2
DIMSTYLE
  5
A
100
AcDbSymbolTable
 70
1
100
AcDbDimStyleTable
 71
0
  0
DIMSTYLE
105
221
100
AcDbSymbolTableRecord
100
AcDbDimStyleTableRecord
  2
STANDARD
 70
0
  3

  4

 40
1.0
 41
3.0
 42
0.5
 43
0.38
 44
1.5
 45
0.0
 46
0.0
 47
0.01
 48
0.01
140
3.0
141
0.09
142
0.0
143
25.4
144
1.0
145
0.0
146
1.0
147
0.625
 71
1.0
 72
0.0
 73
0
 74
0
 75
0
 76
0
 77
1
 78
8
170
0
171
2
172
0
173
0
174
0
175
0
176
0
177
0
178
0
270
2
271
2
272
2
273
2
274
2
275
0
280
0
281
0
282
0
283
1
284
8
285
0
286
0
287
3
288
0
340
11
278
44
  0
ENDTAB
  0
ENDSEC
  0
SECTION
  2
BLOCKS
  0
BLOCK
  5
20
100
AcDbEntity
  8
0
100
AcDbBlockBegin
  2
*Model_Space
 70
0
 10
0.0
 20
0.0
 30
0.0
  3
*Model_Space
  1

  0
ENDBLK
  5
21
100
AcDbEntity
  8
0
100
AcDbBlockEnd
  0
BLOCK
  5
1C
100
AcDbEntity
  8
0
100
AcDbBlockBegin
  2
*Paper_Space
 70
0
 10
0.0
 20
0.0
 30
0.0
  3
*Paper_Space
  1

  0
ENDBLK
  5
1D
100
AcDbEntity
  8
0
100
AcDbBlockEnd
  0
ENDSEC
  0
SECTION
  2
ENTITIES
  0
LINE
  5
222
100
AcDbEntity
  8
RACCORDO
100
AcDbLine
 62
253
  6
CONTINUOUS
 10
-21.5966125012
 20
47.5379791864
 11
-21.5922406672
 21
47.5423510204
  0
LINE
  5
223
100
AcDbEntity
  8
RACCORDO
100
AcDbLine
 62
253
  6
CONTINUOUS
 10
-23.7821047588
 20
45.4336241526
 11
-23.7646496939
 21
45.4423510204
  0
LWPOLYLINE
  5
224
100
AcDbEntity
  8
RACCORDO
100
AcDbPolyline
 62
7
  6
CONTINUOUS
 90
11
 70
0
 10
-23.9703825801
 20
45.3937977421
 10
-23.9559995207
 20
45.4006798476
 10
-23.9358811144
 20
45.409308518
 10
-23.9153738634
 20
45.4169707294
 10
-23.8945235964
 20
45.4236489871
 10
-23.8733686312
 20
45.4293299971
 10
-23.8519654424
 20
45.433997633
 10
-23.8303889152
 20
45.437637174
 10
-23.80869731
 20
45.440242964
 10
-23.7869312507
 20
45.4418142713
 10
-23.7651399848
 20
45.4423510204
  0
LINE
  5
225
100
AcDbEntity
  8
RACCORDO
100
AcDbLine
 62
7
  6
CONTINUOUS
 10
-23.4922491287
 20
-1.4576489796
 11
-21.5922406672
 21
-1.4576489796
  0
LINE
  5
226
100
AcDbEntity
  8
RACCORDO
100
AcDbLine
 62
7
  6
CONTINUOUS
 10
-4.5922491287
 20
-1.4576489796
 11
-2.6922406672
 21
-1.4576489796
  0
LINE
  5
227
100
AcDbEntity
  8
RACCORDO
100
AcDbLine
 62
253
  6
CONTINUOUS
 10
-23.4878772947
 20
-1.4532771456
 11
-21.5966125012
 21
-1.4532771456
  0
LINE
  5
228
100
AcDbEntity
  8
RACCORDO
100
AcDbLine
 62
253
  6
CONTINUOUS
 10
-4.5878772947
 20
-1.4532771456
 11
-2.6966125012
 21
-1.4532771456
  0
LINE
  5
229
100
AcDbEntity
  8
RACCORDO
100
AcDbLine
 62
253
  6
CONTINUOUS
 10
-2.446616732
 20
-1.2032813764
 11
-4.837873064
 21
-1.2032813764
  0
LINE
  5
22A
100
AcDbEntity
  8
RACCORDO
100
AcDbLine
 62
253
  6
CONTINUOUS
 10
-21.346616732
 20
-1.2032813764
 11
-23.737873064
 21
-1.2032813764
  0
LINE
  5
22B
100
AcDbEntity
  8
RACCORDO
100
AcDbLine
 62
253
  6
CONTINUOUS
 10
-2.446616732
 20
-0.8019865469
 11
-4.837873064
 21
-0.8019865469
  0
LINE
  5
22C
100
AcDbEntity
  8
RACCORDO
100
AcDbLine
 62
253
  6
CONTINUOUS
 10
-21.346616732
 20
-0.8019865469
 11
-23.737873064
 21
-0.8019865469
  0
LINE
  5
22D
100
AcDbEntity
  8
DRAFT
100
AcDbLine
 62
7
  6
CONTINUOUS
 10
-17.492244898
 20
-0.7576489796
 11
-8.692244898
 21
-0.7576489796
  0
LINE
  5
22E
100
AcDbEntity
  8
DRAFT
100
AcDbLine
 62
7
  6
CONTINUOUS
 10
-9.592244898
 20
-0.7518311498
 11
-16.592244898
 21
-0.7518311498
  0
LINE
  5
22F
100
AcDbEntity
  8
ASSI
100
AcDbLine
 62
253
  6
CONTINUOUS
 10
-8.7358955448
 20
-0.7139983327
 11
-9.592244898
 21
-0.7139983327
  0
LINE
  5
230
100
AcDbEntity
  8
ASSI
100
AcDbLine
 62
253
  6
CONTINUOUS
 10
-16.592244898
 20
-0.7139983327
 11
-17.4485942511
 21
-0.7139983327
  0
LINE
  5
231
100
AcDbEntity
  8
RACCORDO
100
AcDbLine
 62
253
  6
CONTINUOUS
 10
-2.6966125012
 20
-0.5854801959
 11
-4.5878772947
 21
-0.5854801959
  0
LINE
  5
232
100
AcDbEntity
  8
RACCORDO
100
AcDbLine
 62
253
  6
CONTINUOUS
 10
-21.5966125012
 20
-0.5854801959
 11
-23.4878772947
 21
-0.5854801959
  0
LINE
  5
233
100
AcDbEntity
  8
RACCORDO
100
AcDbLine
 62
7
  6
CONTINUOUS
 10
-23.4929678958
 20
-0.0802987104
 11
-21.5915219001
 21
-0.0802987104
  0
LINE
  5
234
100
AcDbEntity
  8
RACCORDO
100
AcDbLine
 62
7
  6
CONTINUOUS
 10
-4.5929678958
 20
-0.0802987104
 11
-2.6915219001
 21
-0.0802987104
  0
LWPOLYLINE
  5
235
100
AcDbEntity
  8
RACCORDO
100
AcDbPolyline
 62
7
  6
CONTINUOUS
 90
34
 70
0
 10
-23.4922491287
 20
-1.4576489796
 10
-23.504144414
 20
-1.4573658293
 10
-23.5160127535
 20
-1.4565170138
 10
-23.5278272641
 20
-1.4551044537
 10
-23.5395611854
 20
-1.4531313473
 10
-23.5511879368
 20
-1.4506021613
 10
-23.562681177
 20
-1.4475226213
 10
-23.5740148717
 20
-1.4438997009
 10
-23.5851633473
 20
-1.4397416054
 10
-23.5961013443
 20
-1.4350577518
 10
-23.6068040856
 20
-1.4298587484
 10
-23.6172473262
 20
-1.4241563712
 10
-23.6274074039
 20
-1.4179635377
 10
-23.6372613031
 20
-1.4112942751
 10
-23.6467867018
 20
-1.4041636903
 10
-23.655962017
 20
-1.3965879385
 10
-23.664766464
 20
-1.3885841801
 10
-23.6731800984
 20
-1.3801705457
 10
-23.6811838568
 20
-1.3713660987
 10
-23.6887596087
 20
-1.3621907834
 10
-23.6958901934
 20
-1.3526653847
 10
-23.7025594561
 20
-1.3428114855
 10
-23.7087522896
 20
-1.3326514079
 10
-23.7144546668
 20
-1.3222081672
 10
-23.7196536701
 20
-1.3115054259
 10
-23.7243375237
 20
-1.3005674289
 10
-23.7284956193
 20
-1.2894189534
 10
-23.7321185397
 20
-1.2780852586
 10
-23.7351980797
 20
-1.2665920184
 10
-23.7377272657
 20
-1.2549652671
 10
-23.7397003721
 20
-1.2432313457
 10
-23.7411129322
 20
-1.2314168352
 10
-23.7419617477
 20
-1.2195484956
 10
-23.742244898
 20
-1.2076532104
  0
LWPOLYLINE
  5
236
100
AcDbEntity
  8
RACCORDO
100
AcDbPolyline
 62
7
  6
CONTINUOUS
 90
34
 70
0
 10
-4.5922491287
 20
-1.4576489796
 10
-4.604144414
 20
-1.4573658293
 10
-4.6160127535
 20
-1.4565170138
 10
-4.6278272641
 20
-1.4551044537
 10
-4.6395611854
 20
-1.4531313473
 10
-4.6511879368
 20
-1.4506021613
 10
-4.662681177
 20
-1.4475226213
 10
-4.6740148717
 20
-1.4438997009
 10
-4.6851633473
 20
-1.4397416054
 10
-4.6961013443
 20
-1.4350577518
 10
-4.7068040856
 20
-1.4298587484
 10
-4.7172473262
 20
-1.4241563712
 10
-4.7274074039
 20
-1.4179635377
 10
-4.7372613031
 20
-1.4112942751
 10
-4.7467867018
 20
-1.4041636903
 10
-4.755962017
 20
-1.3965879385
 10
-4.764766464
 20
-1.3885841801
 10
-4.7731800984
 20
-1.3801705457
 10
-4.7811838568
 20
-1.3713660987
 10
-4.7887596087
 20
-1.3621907834
 10
-4.7958901934
 20
-1.3526653847
 10
-4.8025594561
 20
-1.3428114855
 10
-4.8087522896
 20
-1.3326514079
 10
-4.8144546668
 20
-1.3222081672
 10
-4.8196536701
 20
-1.3115054259
 10
-4.8243375237
 20
-1.3005674289
 10
-4.8284956193
 20
-1.2894189534
 10
-4.8321185397
 20
-1.2780852586
 10
-4.8351980797
 20
-1.2665920184
 10
-4.8377272657
 20
-1.2549652671
 10
-4.8397003721
 20
-1.2432313457
 10
-4.8411129322
 20
-1.2314168352
 10
-4.8419617477
 20
-1.2195484956
 10
-4.842244898
 20
-1.2076532104
  0
LWPOLYLINE
  5
237
100
AcDbEntity
  8
RACCORDO
100
AcDbPolyline
 62
253
  6
CONTINUOUS
 90
31
 70
0
 10
-23.4878772947
 20
-1.4532771456
 10
-23.5009296347
 20
-1.4529357384
 10
-23.5139545291
 20
-1.4519124758
 10
-23.5269163037
 20
-1.4502088715
 10
-23.5397820224
 20
-1.4478277414
 10
-23.5525134876
 20
-1.444774628
 10
-23.5650676722
 20
-1.4410591883
 10
-23.5774074761
 20
-1.4366926372
 10
-23.5895018322
 20
-1.4316862073
 10
-23.6013179105
 20
-1.4260534587
 10
-23.6128235109
 20
-1.419809657
 10
-23.6239868293
 20
-1.4129719752
 10
-23.6347769085
 20
-1.4055593452
 10
-23.6451640344
 20
-1.3975922029
 10
-23.6551198715
 20
-1.389092306
 10
-23.664617206
 20
-1.3800828842
 10
-23.6736300251
 20
-1.370588591
 10
-23.6821335666
 20
-1.3606354876
 10
-23.6901044748
 20
-1.3502508983
 10
-23.6975208817
 20
-1.339463308
 10
-23.7043624575
 20
-1.328302282
 10
-23.7106104366
 20
-1.3167984262
 10
-23.7162476849
 20
-1.3049832806
 10
-23.7212587404
 20
-1.2928892434
 10
-23.7256298554
 20
-1.2805494873
 10
-23.7293490449
 20
-1.2679978398
 10
-23.7324061061
 20
-1.2552687259
 10
-23.7347926488
 20
-1.2423970863
 10
-23.736502132
 20
-1.2294182288
 10
-23.737529875
 20
-1.2163677305
 10
-23.737873064
 20
-1.2032813764
  0
LWPOLYLINE
  5
238
100
AcDbEntity
  8
RACCORDO
100
AcDbPolyline
 62
253
  6
CONTINUOUS
 90
31
 70
0
 10
-4.5878772947
 20
-1.4532771456
 10
-4.6009607807
 20
-1.452934107
 10
-4.6140084073
 20
-1.4519068171
 10
-4.6269844135
 20
-1.4501980916
 10
-4.6398532343
 20
-1.4478126136
 10
-4.6525795989
 20
-1.4447569214
 10
-4.6651286265
 20
-1.44103939
 10
-4.6774659228
 20
-1.4366702085
 10
-4.6895576735
 20
-1.431661352
 10
-4.7013707373
 20
-1.4260265489
 10
-4.7128727368
 20
-1.419781243
 10
-4.7240321473
 20
-1.4129425516
 10
-4.7348183829
 20
-1.4055292182
 10
-4.7452018806
 20
-1.3975615614
 10
-4.7551541811
 20
-1.3890614191
 10
-4.764648007
 20
-1.3800520886
 10
-4.7736573375
 20
-1.3705582627
 10
-4.7821574798
 20
-1.3606059622
 10
-4.7901251366
 20
-1.3502224646
 10
-4.7975384699
 20
-1.339436229
 10
-4.8043771613
 20
-1.3282768185
 10
-4.8106224672
 20
-1.3167748189
 10
-4.8162572704
 20
-1.3049617551
 10
-4.8212661269
 20
-1.2928700045
 10
-4.8256353084
 20
-1.2805327082
 10
-4.8293528398
 20
-1.2679836805
 10
-4.832408532
 20
-1.255257316
 10
-4.8347940099
 20
-1.2423884951
 10
-4.8365027355
 20
-1.229412489
 10
-4.8375300254
 20
-1.2163648624
 10
-4.837873064
 20
-1.2032813764
  0
LWPOLYLINE
  5
239
100
AcDbEntity
  8
RACCORDO
100
AcDbPolyline
 62
7
  6
CONTINUOUS
 90
11
 70
0
 10
-23.9703807676
 20
0.6909034063
 10
-23.9559111646
 20
0.6839817938
 10
-23.9357866067
 20
0.6753556206
 10
-23.9152757802
 20
0.6676973176
 10
-23.8944257373
 20
0.6610242709
 10
-23.8732925902
 20
0.6553535358
 10
-23.8519156181
 20
0.6506947594
 10
-23.8303168077
 20
0.6470544674
 10
-23.8085356786
 20
0.6444436155
 10
-23.7866300795
 20
0.6428734067
 10
-23.7646496939
 20
0.6423510204
  0
LINE
  5
23A
100
AcDbEntity
  8
RACCORDO
100
AcDbLine
 62
253
  6
CONTINUOUS
 10
-23.7646496939
 20
0.6423510204
 11
-23.7821047588
 21
0.6510778882
  0
LINE
  5
23B
100
AcDbEntity
  8
RACCORDO
100
AcDbLine
 62
253
  6
CONTINUOUS
 10
-21.5966125012
 20
-1.4532771456
 11
-21.5922406672
 21
-1.4576489796
  0
LINE
  5
23C
100
AcDbEntity
  8
RACCORDO
100
AcDbLine
 62
253
  6
CONTINUOUS
 10
-21.346616732
 20
47.2879834172
 11
-21.342244898
 21
47.2923552512
  0
LINE
  5
23D
100
AcDbEntity
  8
RACCORDO
100
AcDbLine
 62
7
  6
CONTINUOUS
 10
-21.1762694647
 20
44.0340592846
 11
-21.3387576071
 21
43.9528214008
  0
LINE
  5
23E
100
AcDbEntity
  8
RACCORDO
100
AcDbLine
 62
7
  6
CONTINUOUS
 10
-2.419840102
 20
0.6423510204
 11
-2.442244898
 21
0.6423510204
  0
LINE
  5
23F
100
AcDbEntity
  8
DRAFT
100
AcDbLine
 62
7
  6
CONTINUOUS
 10
-2.442244898
 20
0.6423510204
 11
-8.692244898
 21
0.6423510204
  0
LINE
  5
240
100
AcDbEntity
  8
DRAFT
100
AcDbLine
 62
7
  6
CONTINUOUS
 10
-17.492244898
 20
0.6423510204
 11
-23.742244898
 21
0.6423510204
  0
LINE
  5
241
100
AcDbEntity
  8
RACCORDO
100
AcDbLine
 62
7
  6
CONTINUOUS
 10
-23.742244898
 20
0.6423510204
 11
-23.7646496939
 21
0.6423510204
  0
LINE
  5
242
100
AcDbEntity
  8
RACCORDO
100
AcDbLine
 62
7
  6
CONTINUOUS
 10
-23.7821047588
 20
0.6510778882
 11
-20.3509717657
 21
0.6510778882
  0
LINE
  5
243
100
AcDbEntity
  8
RACCORDO
100
AcDbLine
 62
7
  6
CONTINUOUS
 10
-5.8335180302
 20
0.6510778882
 11
-2.4023850371
 21
0.6510778882
  0
LINE
  5
244
100
AcDbEntity
  8
DRAFT
100
AcDbLine
 62
7
  6
CONTINUOUS
 10
-16.592244898
 20
0.7043117817
 11
-16.092244898
 21
0.7043117817
  0
LINE
  5
245
100
AcDbEntity
  8
DRAFT
100
AcDbLine
 62
7
  6
CONTINUOUS
 10
-10.092244898
 20
0.7043117817
 11
-9.592244898
 21
0.7043117817
  0
LINE
  5
246
100
AcDbEntity
  8
RACCORDO
100
AcDbLine
 62
253
  6
CONTINUOUS
 10
-20.4295897312
 20
0.7296958536
 11
-16.092244898
 21
0.7296958536
  0
LINE
  5
247
100
AcDbEntity
  8
RACCORDO
100
AcDbLine
 62
253
  6
CONTINUOUS
 10
-10.092244898
 20
0.7296958536
 11
-5.7549000647
 21
0.7296958536
  0
LINE
  5
248
100
AcDbEntity
  8
0
100
AcDbLine
 62
7
  6
CONTINUOUS
 10
-10.092244898
 20
1.3423510204
 11
-16.092244898
 21
1.3423510204
  0
LINE
  5
249
100
AcDbEntity
  8
RACCORDO
100
AcDbLine
 62
253
  6
CONTINUOUS
 10
-20.6763456171
 20
1.7296577767
 11
-16.092244898
 21
1.7296577767
  0
LINE
  5
24A
100
AcDbEntity
  8
RACCORDO
100
AcDbLine
 62
253
  6
CONTINUOUS
 10
-10.092244898
 20
1.7296577767
 11
-5.5081441788
 21
1.7296577767
  0
LINE
  5
24B
100
AcDbEntity
  8
RACCORDO
100
AcDbLine
 62
7
  6
CONTINUOUS
 10
-21.1762694647
 20
2.0506427562
 11
-21.3387576071
 21
2.13188064
  0
LINE
  5
24C
100
AcDbEntity
  8
RACCORDO
100
AcDbLine
 62
253
  6
CONTINUOUS
 10
-21.346616732
 20
-1.2032813764
 11
-21.342244898
 21
-1.2076532104
  0
LINE
  5
24D
100
AcDbEntity
  8
0
100
AcDbLine
 62
7
  6
CONTINUOUS
 10
-21.892244898
 20
43.8923510204
 11
-23.6565476784
 21
42.1280482399
  0
LINE
  5
24E
100
AcDbEntity
  8
RACCORDO
100
AcDbLine
 62
7
  6
CONTINUOUS
 10
-21.892244898
 20
43.8923510204
 11
-23.6565476784
 21
42.1280482399
  0
LINE
  5
24F
100
AcDbEntity
  8
RACCORDO
100
AcDbLine
 62
7
  6
CONTINUOUS
 10
-21.342244898
 20
44.4423510204
 11
-20.3509717657
 21
45.4336241526
  0
LINE
  5
250
100
AcDbEntity
  8
0
100
AcDbLine
 62
7
  6
CONTINUOUS
 10
-21.7194485711
 20
43.8923510204
 11
-23.5343622239
 21
42.0774373675
  0
LINE
  5
251
100
AcDbEntity
  8
RACCORDO
100
AcDbLine
 62
7
  6
CONTINUOUS
 10
-21.7194485711
 20
43.8923510204
 11
-23.5343622239
 21
42.0774373675
  0
LINE
  5
252
100
AcDbEntity
  8
RACCORDO
100
AcDbLine
 62
7
  6
CONTINUOUS
 10
-23.8124531333
 20
41.7406552672
 11
-23.1905491448
 21
42.3625592558
  0
LINE
  5
253
100
AcDbEntity
  8
ASSI
100
AcDbLine
 62
7
  6
CONTINUOUS
 10
-23.8124531333
 20
41.7406552672
 11
-23.1905491448
 21
42.3625592558
  0
LINE
  5
254
100
AcDbEntity
  8
RACCORDO
100
AcDbLine
 62
7
  6
CONTINUOUS
 10
-23.0825565707
 20
42.4557417856
 11
-22.8933292857
 21
42.644968964
  0
LINE
  5
255
100
AcDbEntity
  8
ASSI
100
AcDbLine
 62
7
  6
CONTINUOUS
 10
-23.0825565707
 20
42.4557417856
 11
-22.8933292857
 21
42.644968964
  0
LWPOLYLINE
  5
256
100
AcDbEntity
  8
0
100
AcDbPolyline
 62
7
  6
CONTINUOUS
 90
12
 70
0
 10
-14.7166413594
 20
3.1577222039
 10
-14.8345131875
 20
3.1573417299
 10
-14.9473846173
 20
3.1567229186
 10
-15.0567403998
 20
3.155850954
 10
-15.1610957839
 20
3.1547406521
 10
-15.2559965162
 20
3.1534364613
 10
-15.3410646005
 20
3.1519264393
 10
-15.4166780331
 20
3.1502225283
 10
-15.4795165491
 20
3.1484050034
 10
-15.5284733937
 20
3.146500623
 10
-15.5646553218
 20
3.1444826286
 10
-15.5880623335
 20
3.1423510204
  0
LINE
  5
257
100
AcDbEntity
  8
0
100
AcDbLine
 62
7
  6
CONTINUOUS
 10
-10.092244898
 20
2.0423510204
 11
-16.092244898
 21
2.0423510204
  0
LINE
  5
258
100
AcDbEntity
  8
RACCORDO
100
AcDbLine
 62
7
  6
CONTINUOUS
 10
-20.6763456171
 20
2.0463554747
 11
-20.3340665998
 21
2.0463554747
  0
LINE
  5
259
100
AcDbEntity
  8
RACCORDO
100
AcDbLine
 62
7
  6
CONTINUOUS
 10
-5.8504231961
 20
2.0463554747
 11
-5.5081441788
 21
2.0463554747
  0
LINE
  5
25A
100
AcDbEntity
  8
DRAFT
100
AcDbLine
 62
7
  6
CONTINUOUS
 10
-21.3387576071
 20
2.13188064
 11
-20.3910825726
 21
2.13188064
  0
LINE
  5
25B
100
AcDbEntity
  8
DRAFT
100
AcDbLine
 62
7
  6
CONTINUOUS
 10
-5.7934072233
 20
2.13188064
 11
-4.8457321888
 21
2.13188064
  0
LINE
  5
25C
100
AcDbEntity
  8
DRAFT
100
AcDbLine
 62
7
  6
CONTINUOUS
 10
-3.442244898
 20
2.1423510204
 11
-4.842244898
 21
2.1423510204
  0
LINE
  5
25D
100
AcDbEntity
  8
DRAFT
100
AcDbLine
 62
7
  6
CONTINUOUS
 10
-21.342244898
 20
2.1423510204
 11
-22.742244898
 21
2.1423510204
  0
LINE
  5
25E
100
AcDbEntity
  8
0
100
AcDbLine
 62
7
  6
CONTINUOUS
 10
-4.292244898
 20
2.1923510204
 11
-5.692244898
 21
2.1923510204
  0
LINE
  5
25F
100
AcDbEntity
  8
DRAFT
100
AcDbLine
 62
7
  6
CONTINUOUS
 10
-4.292244898
 20
2.1923510204
 11
-5.692244898
 21
2.1923510204
  0
LINE
  5
260
100
AcDbEntity
  8
0
100
AcDbLine
 62
7
  6
CONTINUOUS
 10
-20.492244898
 20
2.1923510204
 11
-21.892244898
 21
2.1923510204
  0
LINE
  5
261
100
AcDbEntity
  8
DRAFT
100
AcDbLine
 62
7
  6
CONTINUOUS
 10
-20.492244898
 20
2.1923510204
 11
-21.892244898
 21
2.1923510204
  0
LINE
  5
262
100
AcDbEntity
  8
DRAFT
100
AcDbLine
 62
7
  6
CONTINUOUS
 10
-3.4684274954
 20
2.2209626893
 11
-4.263633229
 21
2.2209626893
  0
LINE
  5
263
100
AcDbEntity
  8
DRAFT
100
AcDbLine
 62
7
  6
CONTINUOUS
 10
-5.692244898
 20
2.2209626893
 11
-5.7835181532
 21
2.2209626893
  0
LINE
  5
264
100
AcDbEntity
  8
DRAFT
100
AcDbLine
 62
7
  6
CONTINUOUS
 10
-20.4009716427
 20
2.2209626893
 11
-20.492244898
 21
2.2209626893
  0
LINE
  5
265
100
AcDbEntity
  8
DRAFT
100
AcDbLine
 62
7
  6
CONTINUOUS
 10
-21.9208565669
 20
2.2209626893
 11
-22.7160623006
 21
2.2209626893
  0
LINE
  5
266
100
AcDbEntity
  8
RACCORDO
100
AcDbLine
 62
253
  6
CONTINUOUS
 10
-6.7340665998
 20
2.4594267372
 11
-19.4504231961
 21
2.4594267372
  0
LINE
  5
267
100
AcDbEntity
  8
RACCORDO
100
AcDbLine
 62
253
  6
CONTINUOUS
 10
-6.73695013
 20
2.9594076987
 11
-19.4475396659
 21
2.9594076987
  0
LINE
  5
268
100
AcDbEntity
  8
DRAFT
100
AcDbLine
 62
7
  6
CONTINUOUS
 10
-15.592244898
 20
2.9891171269
 11
-15.5335560211
 21
2.9891171269
  0
LINE
  5
269
100
AcDbEntity
  8
DRAFT
100
AcDbLine
 62
7
  6
CONTINUOUS
 10
-10.6509337748
 20
2.9891171269
 11
-10.592244898
 21
2.9891171269
  0
LINE
  5
26A
100
AcDbEntity
  8
DRAFT
100
AcDbLine
 62
7
  6
CONTINUOUS
 10
-9.592244898
 20
3.0423510204
 11
-10.5928927169
 21
3.0423510204
  0
LINE
  5
26B
100
AcDbEntity
  8
DRAFT
100
AcDbLine
 62
7
  6
CONTINUOUS
 10
-15.5915970791
 20
3.0423510204
 11
-16.592244898
 21
3.0423510204
  0
LINE
  5
26C
100
AcDbEntity
  8
DRAFT
100
AcDbLine
 62
7
  6
CONTINUOUS
 10
-19.3835181532
 20
3.0554413221
 11
-15.5915734134
 21
3.0554413221
  0
LINE
  5
26D
100
AcDbEntity
  8
DRAFT
100
AcDbLine
 62
7
  6
CONTINUOUS
 10
-10.5929163825
 20
3.0554413221
 11
-6.8009716427
 21
3.0554413221
  0
LINE
  5
26E
100
AcDbEntity
  8
RACCORDO
100
AcDbLine
 62
253
  6
CONTINUOUS
 10
-5.8504231961
 20
3.0853329036
 11
-6.7340665998
 21
3.0853329036
  0
LINE
  5
26F
100
AcDbEntity
  8
RACCORDO
100
AcDbLine
 62
253
  6
CONTINUOUS
 10
-19.4504231961
 20
3.0853329036
 11
-20.3340665998
 21
3.0853329036
  0
LINE
  5
270
100
AcDbEntity
  8
0
100
AcDbLine
 62
7
  6
CONTINUOUS
 10
-16.592244898
 20
3.1423510204
 11
-15.5867231782
 21
3.1423510204
  0
LINE
  5
271
100
AcDbEntity
  8
0
100
AcDbLine
 62
7
  6
CONTINUOUS
 10
-10.5977666177
 20
3.1423510204
 11
-9.592244898
 21
3.1423510204
  0
LINE
  5
272
100
AcDbEntity
  8
0
100
AcDbLine
 62
7
  6
CONTINUOUS
 10
-14.7166413594
 20
3.1577222039
 11
-11.5907206631
 21
3.1578643408
  0
LINE
  5
273
100
AcDbEntity
  8
0
100
AcDbLine
 62
7
  6
CONTINUOUS
 10
-16.5555892616
 20
3.1790066568
 11
-9.6289005343
 21
3.1790066568
  0
LINE
  5
274
100
AcDbEntity
  8
DRAFT
100
AcDbLine
 62
7
  6
CONTINUOUS
 10
-16.5555892616
 20
3.1790066568
 11
-9.6289005343
 21
3.1790066568
  0
LINE
  5
275
100
AcDbEntity
  8
RACCORDO
100
AcDbLine
 62
253
  6
CONTINUOUS
 10
-5.8492663994
 20
3.2853295189
 11
-6.7352233965
 21
3.2853295189
  0
LINE
  5
276
100
AcDbEntity
  8
RACCORDO
100
AcDbLine
 62
253
  6
CONTINUOUS
 10
-19.4492663994
 20
3.2853295189
 11
-20.3352233965
 21
3.2853295189
  0
LINE
  5
277
100
AcDbEntity
  8
0
100
AcDbLine
 62
7
  6
CONTINUOUS
 10
-20.492244898
 20
3.3423510204
 11
-16.592244898
 21
3.3423510204
  0
LINE
  5
278
100
AcDbEntity
  8
DRAFT
100
AcDbLine
 62
7
  6
CONTINUOUS
 10
-20.492244898
 20
3.3423510204
 11
-16.592244898
 21
3.3423510204
  0
LINE
  5
279
100
AcDbEntity
  8
0
100
AcDbLine
 62
7
  6
CONTINUOUS
 10
-9.592244898
 20
3.3423510204
 11
-5.692244898
 21
3.3423510204
  0
LINE
  5
27A
100
AcDbEntity
  8
DRAFT
100
AcDbLine
 62
7
  6
CONTINUOUS
 10
-9.592244898
 20
3.3423510204
 11
-5.692244898
 21
3.3423510204
  0
LINE
  5
27B
100
AcDbEntity
  8
0
100
AcDbLine
 62
7
  6
CONTINUOUS
 10
-20.5289005343
 20
3.3790066568
 11
-16.5555892616
 21
3.3790066568
  0
LINE
  5
27C
100
AcDbEntity
  8
DRAFT
100
AcDbLine
 62
7
  6
CONTINUOUS
 10
-20.5289005343
 20
3.3790066568
 11
-16.5555892616
 21
3.3790066568
  0
LINE
  5
27D
100
AcDbEntity
  8
0
100
AcDbLine
 62
7
  6
CONTINUOUS
 10
-9.6289005343
 20
3.3790066568
 11
-5.6555892616
 21
3.3790066568
  0
LINE
  5
27E
100
AcDbEntity
  8
DRAFT
100
AcDbLine
 62
7
  6
CONTINUOUS
 10
-9.6289005343
 20
3.3790066568
 11
-5.6555892616
 21
3.3790066568
  0
LINE
  5
27F
100
AcDbEntity
  8
RACCORDO
100
AcDbLine
 62
7
  6
CONTINUOUS
 10
-22.4834692881
 20
3.4292607187
 11
-9.3791431732
 21
3.4292607187
  0
LINE
  5
280
100
AcDbEntity
  8
ASSI
100
AcDbLine
 62
7
  6
CONTINUOUS
 10
-22.4834692881
 20
3.4292607187
 11
-9.3791431732
 21
3.4292607187
  0
LWPOLYLINE
  5
281
100
AcDbEntity
  8
0
100
AcDbPolyline
 62
7
  6
CONTINUOUS
 90
13
 70
0
 10
-11.5907206631
 20
3.1578643408
 10
-11.4678484366
 20
3.1577222039
 10
-11.3499766084
 20
3.1573417299
 10
-11.2371051786
 20
3.1567229186
 10
-11.1277493961
 20
3.155850954
 10
-11.023394012
 20
3.1547406521
 10
-10.9284932797
 20
3.1534364613
 10
-10.8434251954
 20
3.1519264393
 10
-10.7678117628
 20
3.1502225283
 10
-10.7049732468
 20
3.1484050034
 10
-10.6560164022
 20
3.146500623
 10
-10.6198344741
 20
3.1444826286
 10
-10.5964274625
 20
3.1423510204
  0
LINE
  5
282
100
AcDbEntity
  8
0
100
AcDbLine
 62
7
  6
CONTINUOUS
 10
-23.6565476784
 20
3.9566538009
 11
-21.892244898
 21
2.1923510204
  0
LINE
  5
283
100
AcDbEntity
  8
RACCORDO
100
AcDbLine
 62
7
  6
CONTINUOUS
 10
-23.6565476784
 20
3.9566538009
 11
-21.892244898
 21
2.1923510204
  0
LINE
  5
284
100
AcDbEntity
  8
RACCORDO
100
AcDbLine
 62
7
  6
CONTINUOUS
 10
-20.3509717657
 20
0.6510778882
 11
-21.342244898
 21
1.6423510204
  0
LINE
  5
285
100
AcDbEntity
  8
0
100
AcDbLine
 62
7
  6
CONTINUOUS
 10
-23.5343622239
 20
4.0072646733
 11
-21.7194485711
 21
2.1923510204
  0
LINE
  5
286
100
AcDbEntity
  8
RACCORDO
100
AcDbLine
 62
7
  6
CONTINUOUS
 10
-23.5343622239
 20
4.0072646733
 11
-21.7194485711
 21
2.1923510204
  0
LINE
  5
287
100
AcDbEntity
  8
RACCORDO
100
AcDbLine
 62
7
  6
CONTINUOUS
 10
-23.1905491448
 20
3.7221427851
 11
-23.8124531333
 21
4.3440467736
  0
LINE
  5
288
100
AcDbEntity
  8
ASSI
100
AcDbLine
 62
7
  6
CONTINUOUS
 10
-23.1905491448
 20
3.7221427851
 11
-23.8124531333
 21
4.3440467736
  0
LINE
  5
289
100
AcDbEntity
  8
ASSI
100
AcDbLine
 62
7
  6
CONTINUOUS
 10
-16.6861006157
 20
46.6657983045
 11
-16.7126473215
 21
46.6354285737
  0
LINE
  5
28A
100
AcDbEntity
  8
ASSI
100
AcDbLine
 62
7
  6
CONTINUOUS
 10
-16.7126473215
 20
46.6354285737
 11
-16.7430534488
 21
46.6011808409
  0
LINE
  5
28B
100
AcDbEntity
  8
ASSI
100
AcDbLine
 62
7
  6
CONTINUOUS
 10
-16.7430534488
 20
46.6011808409
 11
-16.7773232478
 21
46.5630670755
  0
LINE
  5
28C
100
AcDbEntity
  8
ASSI
100
AcDbLine
 62
7
  6
CONTINUOUS
 10
-16.7773232478
 20
46.5630670755
 11
-16.8358167204
 21
46.4987528513
  0
LINE
  5
28D
100
AcDbEntity
  8
ASSI
100
AcDbLine
 62
7
  6
CONTINUOUS
 10
-16.8358167204
 20
46.4987528513
 11
-17.0202148856
 21
46.2987088351
  0
LINE
  5
28E
100
AcDbEntity
  8
0
100
AcDbLine
 62
7
  6
CONTINUOUS
 10
-20.492244898
 20
42.7423510204
 11
-20.5289005343
 21
42.7056953841
  0
LINE
  5
28F
100
AcDbEntity
  8
DRAFT
100
AcDbLine
 62
7
  6
CONTINUOUS
 10
-20.492244898
 20
42.7423510204
 11
-20.5289005343
 21
42.7056953841
  0
LINE
  5
290
100
AcDbEntity
  8
RACCORDO
100
AcDbLine
 62
7
  6
CONTINUOUS
 10
-20.3352233965
 20
42.7993725219
 11
-20.392244898
 21
42.7423510204
  0
LINE
  5
291
100
AcDbEntity
  8
0
100
AcDbLine
 62
7
  6
CONTINUOUS
 10
-15.2386915074
 20
4.8098110038
 11
-15.5928066435
 21
4.8067206878
  0
LINE
  5
292
100
AcDbEntity
  8
RACCORDO
100
AcDbLine
 62
7
  6
CONTINUOUS
 10
-15.2386915074
 20
4.8098110038
 11
-15.5928066435
 21
4.8067206878
  0
LINE
  5
293
100
AcDbEntity
  8
0
100
AcDbLine
 62
7
  6
CONTINUOUS
 10
-10.592244898
 20
4.7423510204
 11
-15.592244898
 21
4.7423510204
  0
LINE
  5
294
100
AcDbEntity
  8
ASSI
100
AcDbLine
 62
7
  6
CONTINUOUS
 10
-10.592244898
 20
4.7423510204
 11
-15.592244898
 21
4.7423510204
  0
LINE
  5
295
100
AcDbEntity
  8
0
100
AcDbLine
 62
7
  6
CONTINUOUS
 10
-8.9489625432
 20
4.7761815528
 11
-5.6555892616
 21
4.7761815528
  0
LINE
  5
296
100
AcDbEntity
  8
DRAFT
100
AcDbLine
 62
7
  6
CONTINUOUS
 10
-8.9489625432
 20
4.7761815528
 11
-5.6555892616
 21
4.7761815528
  0
LINE
  5
297
100
AcDbEntity
  8
0
100
AcDbLine
 62
7
  6
CONTINUOUS
 10
-4.492244898
 20
4.7761815528
 11
-3.8260563919
 21
4.7761815528
  0
LINE
  5
298
100
AcDbEntity
  8
RACCORDO
100
AcDbLine
 62
7
  6
CONTINUOUS
 10
-4.492244898
 20
4.7761815528
 11
-3.8260563919
 21
4.7761815528
  0
LINE
  5
299
100
AcDbEntity
  8
0
100
AcDbLine
 62
7
  6
CONTINUOUS
 10
-4.492244898
 20
4.7849084206
 11
-5.6381341967
 21
4.7849084206
  0
LINE
  5
29A
100
AcDbEntity
  8
DRAFT
100
AcDbLine
 62
7
  6
CONTINUOUS
 10
-4.492244898
 20
4.7849084206
 11
-5.6381341967
 21
4.7849084206
  0
LINE
  5
29B
100
AcDbEntity
  8
RACCORDO
100
AcDbLine
 62
7
  6
CONTINUOUS
 10
-3.7010205079
 20
4.8292607187
 11
-8.7791660194
 21
4.8292607187
  0
LINE
  5
29C
100
AcDbEntity
  8
ASSI
100
AcDbLine
 62
7
  6
CONTINUOUS
 10
-3.7010205079
 20
4.8292607187
 11
-8.7791660194
 21
4.8292607187
  0
LINE
  5
29D
100
AcDbEntity
  8
ASSI
100
AcDbLine
 62
7
  6
CONTINUOUS
 10
-15.592244898
 20
4.8423510204
 11
-10.592244898
 21
4.8423510204
  0
LINE
  5
29E
100
AcDbEntity
  8
0
100
AcDbLine
 62
7
  6
CONTINUOUS
 10
-10.9457982886
 20
4.8098110038
 11
-10.5916831524
 21
4.8067206878
  0
LINE
  5
29F
100
AcDbEntity
  8
RACCORDO
100
AcDbLine
 62
7
  6
CONTINUOUS
 10
-10.9457982886
 20
4.8098110038
 11
-10.5916831524
 21
4.8067206878
  0
LINE
  5
2A0
100
AcDbEntity
  8
0
100
AcDbLine
 62
7
  6
CONTINUOUS
 10
-20.492244898
 20
3.3423510204
 11
-20.5289005343
 21
3.3790066568
  0
LINE
  5
2A1
100
AcDbEntity
  8
DRAFT
100
AcDbLine
 62
7
  6
CONTINUOUS
 10
-20.492244898
 20
3.3423510204
 11
-20.5289005343
 21
3.3790066568
  0
LINE
  5
2A2
100
AcDbEntity
  8
RACCORDO
100
AcDbLine
 62
7
  6
CONTINUOUS
 10
-20.3352233965
 20
3.2853295189
 11
-20.392244898
 21
3.3423510204
  0
LINE
  5
2A3
100
AcDbEntity
  8
ASSI
100
AcDbLine
 62
7
  6
CONTINUOUS
 10
-17.0202148856
 20
-0.2140067943
 11
-16.9249011498
 21
-0.3170943413
  0
LINE
  5
2A4
100
AcDbEntity
  8
ASSI
100
AcDbLine
 62
7
  6
CONTINUOUS
 10
-16.9249011498
 20
-0.3170943413
 11
-16.835915304
 21
-0.4139424118
  0
LINE
  5
2A5
100
AcDbEntity
  8
ASSI
100
AcDbLine
 62
7
  6
CONTINUOUS
 10
-16.835915304
 20
-0.4139424118
 11
-16.7774677557
 21
-0.4782053486
  0
LINE
  5
2A6
100
AcDbEntity
  8
ASSI
100
AcDbLine
 62
7
  6
CONTINUOUS
 10
-16.7774677557
 20
-0.4782053486
 11
-16.7432411073
 21
-0.5162692583
  0
LINE
  5
2A7
100
AcDbEntity
  8
ASSI
100
AcDbLine
 62
7
  6
CONTINUOUS
 10
-16.7432411073
 20
-0.5162692583
 11
-16.7128683983
 21
-0.5504757342
  0
LWPOLYLINE
  5
2A8
100
AcDbEntity
  8
ASSI
100
AcDbPolyline
 62
7
  6
CONTINUOUS
 90
18
 70
0
 10
-16.7128683983
 20
-0.5504757342
 10
-16.6863343907
 20
-0.58082664
 10
-16.6744365881
 20
-0.5946466191
 10
-16.6634290092
 20
-0.6075858582
 10
-16.6532988464
 20
-0.6196461087
 10
-16.6439957361
 20
-0.6309066076
 10
-16.6355155472
 20
-0.6413689044
 10
-16.6278449797
 20
-0.6510314496
 10
-16.6209367491
 20
-0.6599688302
 10
-16.6147756936
 20
-0.6682005772
 10
-16.6093748937
 20
-0.6757071597
 10
-16.6047353888
 20
-0.6825045725
 10
-16.6008471654
 20
-0.6885847102
 10
-16.5976994657
 20
-0.6939556781
 10
-16.5952833305
 20
-0.698657787
 10
-16.5935821565
 20
-0.7027044737
 10
-16.5925758476
 20
-0.7060823014
 10
-16.592244898
 20
-0.7087912699
  0
LINE
  5
2A9
100
AcDbEntity
  8
DRAFT
100
AcDbLine
 62
7
  6
CONTINUOUS
 10
-20.3340665998
 20
44.0383465661
 11
-20.3910825726
 21
43.9528214008
  0
LINE
  5
2AA
100
AcDbEntity
  8
0
100
AcDbLine
 62
253
  6
CONTINUOUS
 10
-14.8443873633
 20
5.7565950944
 11
-14.792244898
 21
5.7606791777
  0
LINE
  5
2AB
100
AcDbEntity
  8
RACCORDO
100
AcDbLine
 62
253
  6
CONTINUOUS
 10
-14.8443873633
 20
5.7565950944
 11
-14.792244898
 21
5.7606791777
  0
LINE
  5
2AC
100
AcDbEntity
  8
ASSI
100
AcDbLine
 62
7
  6
CONTINUOUS
 10
-15.592244898
 20
5.5423510204
 11
-10.592244898
 21
5.5423510204
  0
LINE
  5
2AD
100
AcDbEntity
  8
RACCORDO
100
AcDbLine
 62
7
  6
CONTINUOUS
 10
-14.6962379287
 20
5.7423510204
 11
-11.4882518672
 21
5.7423510204
  0
LINE
  5
2AE
100
AcDbEntity
  8
ASSI
100
AcDbLine
 62
7
  6
CONTINUOUS
 10
-14.6962379287
 20
5.7423510204
 11
-11.4882518672
 21
5.7423510204
  0
LINE
  5
2AF
100
AcDbEntity
  8
0
100
AcDbLine
 62
253
  6
CONTINUOUS
 10
-11.392244898
 20
5.7606791777
 11
-14.792244898
 21
5.7606791777
  0
LINE
  5
2B0
100
AcDbEntity
  8
RACCORDO
100
AcDbLine
 62
253
  6
CONTINUOUS
 10
-11.392244898
 20
5.7606791777
 11
-14.792244898
 21
5.7606791777
  0
LINE
  5
2B1
100
AcDbEntity
  8
0
100
AcDbLine
 62
7
  6
CONTINUOUS
 10
-11.392244898
 20
5.7923510204
 11
-14.792244898
 21
5.7923510204
  0
LINE
  5
2B2
100
AcDbEntity
  8
RACCORDO
100
AcDbLine
 62
7
  6
CONTINUOUS
 10
-11.392244898
 20
5.7923510204
 11
-14.792244898
 21
5.7923510204
  0
LINE
  5
2B3
100
AcDbEntity
  8
CURVE
100
AcDbLine
 62
253
  6
CONTINUOUS
 10
-2.0354906118
 20
6.3137794624
 11
-2.0497018572
 21
6.3137794624
  0
LINE
  5
2B4
100
AcDbEntity
  8
0
100
AcDbLine
 62
7
  6
CONTINUOUS
 10
-15.592244898
 20
6.4423510204
 11
-10.592244898
 21
6.4423510204
  0
LINE
  5
2B5
100
AcDbEntity
  8
ASSI
100
AcDbLine
 62
7
  6
CONTINUOUS
 10
-15.592244898
 20
6.4423510204
 11
-10.592244898
 21
6.4423510204
  0
LINE
  5
2B6
100
AcDbEntity
  8
SMUSSO
100
AcDbLine
 62
7
  6
CONTINUOUS
 10
-12.842244898
 20
6.7923510204
 11
-17.842244898
 21
6.7923510204
  0
LINE
  5
2B7
100
AcDbEntity
  8
ASSI
100
AcDbLine
 62
7
  6
CONTINUOUS
 10
-12.842244898
 20
6.7923510204
 11
-17.842244898
 21
6.7923510204
  0
LINE
  5
2B8
100
AcDbEntity
  8
RACCORDO
100
AcDbLine
 62
7
  6
CONTINUOUS
 10
-2.3791660198
 20
6.8923510204
 11
-3.292244898
 21
6.8923510204
  0
LINE
  5
2B9
100
AcDbEntity
  8
ASSI
100
AcDbLine
 62
7
  6
CONTINUOUS
 10
-2.3791660198
 20
6.8923510204
 11
-3.292244898
 21
6.8923510204
  0
LINE
  5
2BA
100
AcDbEntity
  8
0
100
AcDbLine
 62
253
  6
CONTINUOUS
 10
-11.3401024326
 20
5.7565950944
 11
-11.392244898
 21
5.7606791777
  0
LINE
  5
2BB
100
AcDbEntity
  8
RACCORDO
100
AcDbLine
 62
253
  6
CONTINUOUS
 10
-11.3401024326
 20
5.7565950944
 11
-11.392244898
 21
5.7606791777
  0
LINE
  5
2BC
100
AcDbEntity
  8
CURVE
100
AcDbLine
 62
253
  6
CONTINUOUS
 10
-23.392244898
 20
10.4709224711
 11
-23.1136734472
 21
10.2852081965
  0
LINE
  5
2BD
100
AcDbEntity
  8
CURVE
100
AcDbLine
 62
253
  6
CONTINUOUS
 10
-23.0208163487
 20
9.5423510204
 11
-23.392244898
 21
9.9137796084
  0
LINE
  5
2BE
100
AcDbEntity
  8
DRAFT
100
AcDbLine
 62
7
  6
CONTINUOUS
 10
-20.3340665998
 20
2.0463554747
 11
-20.3910825726
 21
2.13188064
  0
LINE
  5
2BF
100
AcDbEntity
  8
DRAFT
100
AcDbLine
 62
7
  6
CONTINUOUS
 10
-21.3387576071
 20
43.9528214008
 11
-21.342244898
 21
43.9423510204
  0
LINE
  5
2C0
100
AcDbEntity
  8
CURVE
100
AcDbLine
 62
253
  6
CONTINUOUS
 10
-2.0497018572
 20
7.2637794624
 11
-2.0354906118
 21
7.2637794624
  0
LINE
  5
2C1
100
AcDbEntity
  8
SMUSSO
100
AcDbLine
 62
7
  6
CONTINUOUS
 10
-13.342244898
 20
7.2923510204
 11
-17.342244898
 21
7.2923510204
  0
LINE
  5
2C2
100
AcDbEntity
  8
ASSI
100
AcDbLine
 62
7
  6
CONTINUOUS
 10
-13.342244898
 20
7.2923510204
 11
-17.342244898
 21
7.2923510204
  0
LINE
  5
2C3
100
AcDbEntity
  8
0
100
AcDbLine
 62
7
  6
CONTINUOUS
 10
-16.692244898
 20
7.5423510204
 11
-13.692244898
 21
7.5423510204
  0
LINE
  5
2C4
100
AcDbEntity
  8
CURVE
100
AcDbLine
 62
253
  6
CONTINUOUS
 10
-2.0354906118
 20
7.8066363464
 11
-2.0307535303
 21
7.8066363464
  0
LINE
  5
2C5
100
AcDbEntity
  8
0
100
AcDbLine
 62
7
  6
CONTINUOUS
 10
-3.2336783762
 20
8.1645364749
 11
-3.292244898
 21
8.1645364749
  0
LINE
  5
2C6
100
AcDbEntity
  8
RACCORDO
100
AcDbLine
 62
7
  6
CONTINUOUS
 10
-3.2336783762
 20
8.1645364749
 11
-3.292244898
 21
8.1645364749
  0
LINE
  5
2C7
100
AcDbEntity
  8
0
100
AcDbLine
 62
253
  6
CONTINUOUS
 10
-3.2336315781
 20
8.1768464102
 11
-3.292244898
 21
8.1768464102
  0
LINE
  5
2C8
100
AcDbEntity
  8
RACCORDO
100
AcDbLine
 62
253
  6
CONTINUOUS
 10
-3.2336315781
 20
8.1768464102
 11
-3.292244898
 21
8.1768464102
  0
LINE
  5
2C9
100
AcDbEntity
  8
0
100
AcDbLine
 62
253
  6
CONTINUOUS
 10
-3.2327041254
 20
8.4768007188
 11
-3.292244898
 21
8.4768007188
  0
LINE
  5
2CA
100
AcDbEntity
  8
RACCORDO
100
AcDbLine
 62
253
  6
CONTINUOUS
 10
-3.2327041254
 20
8.4768007188
 11
-3.292244898
 21
8.4768007188
  0
LINE
  5
2CB
100
AcDbEntity
  8
CURVE
100
AcDbLine
 62
253
  6
CONTINUOUS
 10
-20.992244898
 20
8.7423510204
 11
-19.092244898
 21
8.7423510204
  0
LINE
  5
2CC
100
AcDbEntity
  8
CURVE
100
AcDbLine
 62
253
  6
CONTINUOUS
 10
-23.0208163487
 20
11.3066366683
 11
-23.2065306233
 21
11.3994939218
  0
LINE
  5
2CD
100
AcDbEntity
  8
CURVE
100
AcDbLine
 62
253
  6
CONTINUOUS
 10
-22.092244898
 20
10.2852081965
 11
-23.0208163487
 21
10.935208119
  0
LINE
  5
2CE
100
AcDbEntity
  8
CURVE
100
AcDbLine
 62
253
  6
CONTINUOUS
 10
-23.2065306233
 20
11.3994939218
 11
-23.392244898
 21
11.585208119
  0
LINE
  5
2CF
100
AcDbEntity
  8
CURVE
100
AcDbLine
 62
253
  6
CONTINUOUS
 10
-22.277959192
 20
11.8637795697
 11
-22.092244898
 21
11.6780653725
  0
LINE
  5
2D0
100
AcDbEntity
  8
DRAFT
100
AcDbLine
 62
7
  6
CONTINUOUS
 10
-21.3387576071
 20
2.13188064
 11
-21.342244898
 21
2.1423510204
  0
LINE
  5
2D1
100
AcDbEntity
  8
ASSI
100
AcDbLine
 62
7
  6
CONTINUOUS
 10
-8.8438165581
 20
46.6501106388
 11
-8.8722898465
 21
46.6178143703
  0
LINE
  5
2D2
100
AcDbEntity
  8
ASSI
100
AcDbLine
 62
7
  6
CONTINUOUS
 10
-8.8722898465
 20
46.6178143703
 11
-8.9045980857
 21
46.581689879
  0
LINE
  5
2D3
100
AcDbEntity
  8
ASSI
100
AcDbLine
 62
7
  6
CONTINUOUS
 10
-8.9045980857
 20
46.581689879
 11
-8.9407135769
 21
46.5417157649
  0
LINE
  5
2D4
100
AcDbEntity
  8
ASSI
100
AcDbLine
 62
7
  6
CONTINUOUS
 10
-8.9407135769
 20
46.5417157649
 11
-9.0017546481
 21
46.4748357127
  0
LWPOLYLINE
  5
2D5
100
AcDbEntity
  8
ASSI
100
AcDbPolyline
 62
7
  6
CONTINUOUS
 90
3
 70
0
 10
-9.0017546481
 20
46.4748357127
 10
-9.0925577458
 20
46.3762663871
 10
-9.1642749103
 20
46.2987088351
  0
LINE
  5
2D6
100
AcDbEntity
  8
ASSI
100
AcDbLine
 62
7
  6
CONTINUOUS
 10
-8.692244898
 20
46.8423510204
 11
-8.7358955448
 21
46.7987003735
  0
LWPOLYLINE
  5
2D7
100
AcDbEntity
  8
0
100
AcDbPolyline
 62
253
  6
CONTINUOUS
 90
3
 70
0
 10
-11.1989227072
 20
40.3871651913
 10
-11.2419682413
 20
40.3601150603
 10
-11.2894929614
 20
40.3402525642
  0
LWPOLYLINE
  5
2D8
100
AcDbEntity
  8
RACCORDO
100
AcDbPolyline
 62
253
  6
CONTINUOUS
 90
3
 70
0
 10
-11.1989227072
 20
40.3871651913
 10
-11.2419682413
 20
40.3601150603
 10
-11.2894929614
 20
40.3402525642
  0
LINE
  5
2D9
100
AcDbEntity
  8
0
100
AcDbLine
 62
253
  6
CONTINUOUS
 10
-2.5279421175
 20
42.1280482399
 11
-2.650127572
 21
42.0774373675
  0
LINE
  5
2DA
100
AcDbEntity
  8
RACCORDO
100
AcDbLine
 62
253
  6
CONTINUOUS
 10
-2.5279421175
 20
42.1280482399
 11
-2.650127572
 21
42.0774373675
  0
LINE
  5
2DB
100
AcDbEntity
  8
CURVE
100
AcDbLine
 62
7
  6
CONTINUOUS
 10
-1.968442896
 20
9.1311530204
 11
-2.0190471836
 21
9.1311530204
  0
LINE
  5
2DC
100
AcDbEntity
  8
CURVE
100
AcDbLine
 62
253
  6
CONTINUOUS
 10
-2.0260164489
 20
9.2994941364
 11
-2.0591760211
 21
9.2994941364
  0
LINE
  5
2DD
100
AcDbEntity
  8
CURVE
100
AcDbLine
 62
7
  6
CONTINUOUS
 10
-2.008544407
 20
9.7135970204
 11
-1.968442896
 21
9.7135970204
  0
LINE
  5
2DE
100
AcDbEntity
  8
CURVE
100
AcDbLine
 62
253
  6
CONTINUOUS
 10
-23.392244898
 20
9.9137796084
 11
-22.092244898
 21
9.9137796084
  0
LINE
  5
2DF
100
AcDbEntity
  8
0
100
AcDbLine
 62
7
  6
CONTINUOUS
 10
-13.692244898
 20
10.5423510204
 11
-16.692244898
 21
10.5423510204
  0
LINE
  5
2E0
100
AcDbEntity
  8
CURVE
100
AcDbLine
 62
253
  6
CONTINUOUS
 10
-22.092244898
 20
12.6994939218
 11
-23.392244898
 21
13.0709223161
  0
LINE
  5
2E1
100
AcDbEntity
  8
0
100
AcDbLine
 62
253
  6
CONTINUOUS
 10
-2.650127572
 20
4.0072646733
 11
-2.5279421175
 21
3.9566538009
  0
LINE
  5
2E2
100
AcDbEntity
  8
RACCORDO
100
AcDbLine
 62
253
  6
CONTINUOUS
 10
-2.650127572
 20
4.0072646733
 11
-2.5279421175
 21
3.9566538009
  0
LINE
  5
2E3
100
AcDbEntity
  8
CURVE
100
AcDbLine
 62
253
  6
CONTINUOUS
 10
-22.463673486
 20
11.9566366683
 11
-22.277959192
 21
11.8637795697
  0
LWPOLYLINE
  5
2E4
100
AcDbEntity
  8
0
100
AcDbPolyline
 62
253
  6
CONTINUOUS
 90
4
 70
0
 10
-11.1989227072
 20
5.6975368495
 10
-11.2419682413
 20
5.7245869805
 10
-11.2894929614
 20
5.7444494766
 10
-11.3401024326
 20
5.7565950944
  0
LWPOLYLINE
  5
2E5
100
AcDbEntity
  8
RACCORDO
100
AcDbPolyline
 62
253
  6
CONTINUOUS
 90
4
 70
0
 10
-11.1989227072
 20
5.6975368495
 10
-11.2419682413
 20
5.7245869805
 10
-11.2894929614
 20
5.7444494766
 10
-11.3401024326
 20
5.7565950944
  0
LINE
  5
2E6
100
AcDbEntity
  8
ASSI
100
AcDbLine
 62
7
  6
CONTINUOUS
 10
-8.692244898
 20
-0.7576489796
 11
-8.7358955448
 21
-0.7139983327
  0
LINE
  5
2E7
100
AcDbEntity
  8
ASSI
100
AcDbLine
 62
7
  6
CONTINUOUS
 10
-9.1642749103
 20
-0.2140067943
 11
-9.0692736955
 21
-0.316756044
  0
LINE
  5
2E8
100
AcDbEntity
  8
ASSI
100
AcDbLine
 62
7
  6
CONTINUOUS
 10
-9.0692736955
 20
-0.316756044
 11
-8.9806169681
 21
-0.413241086
  0
LINE
  5
2E9
100
AcDbEntity
  8
ASSI
100
AcDbLine
 62
7
  6
CONTINUOUS
 10
-8.9806169681
 20
-0.413241086
 11
-8.9223227482
 21
-0.4773259877
  0
LINE
  5
2EA
100
AcDbEntity
  8
ASSI
100
AcDbLine
 62
7
  6
CONTINUOUS
 10
-8.9223227482
 20
-0.4773259877
 11
-8.8881441208
 21
-0.5153262482
  0
LWPOLYLINE
  5
2EB
100
AcDbEntity
  8
ASSI
100
AcDbPolyline
 62
7
  6
CONTINUOUS
 90
20
 70
0
 10
-8.8881441208
 20
-0.5153262482
 10
-8.8577827106
 20
-0.5495068846
 10
-8.8440377618
 20
-0.5651557593
 10
-8.8312328265
 20
-0.5798585264
 10
-8.8193184086
 20
-0.5936872641
 10
-8.8082881898
 20
-0.6066406785
 10
-8.7981304315
 20
-0.6187200635
 10
-8.7887976842
 20
-0.6300013785
 10
-8.7802863918
 20
-0.6404843253
 10
-8.7725813894
 20
-0.6501692021
 10
-8.7656340029
 20
-0.6591328632
 10
-8.7594287529
 20
-0.6673949726
 10
-8.7539780637
 20
-0.6749358662
 10
-8.7492816822
 20
-0.6817734057
 10
-8.7453295632
 20
-0.6879002684
 10
-8.7421112604
 20
-0.6933237771
 10
-8.739617849
 20
-0.6980837619
 10
-8.7378331592
 20
-0.7021934998
 10
-8.7367376134
 20
-0.7056397139
 10
-8.7363121652
 20
-0.7084224043
  0
LINE
  5
2EC
100
AcDbEntity
  8
CURVE
100
AcDbLine
 62
253
  6
CONTINUOUS
 10
-22.4946258651
 20
13.4423510204
 11
-22.5874830024
 21
13.6590177904
  0
LINE
  5
2ED
100
AcDbEntity
  8
RACCORDO
100
AcDbLine
 62
253
  6
CONTINUOUS
 10
-23.737873064
 20
-0.8019865469
 11
-23.742244898
 21
-0.3681341278
  0
LINE
  5
2EE
100
AcDbEntity
  8
RACCORDO
100
AcDbLine
 62
253
  6
CONTINUOUS
 10
-23.4878772947
 20
-0.5854801959
 11
-23.4929678958
 21
-0.0802987104
  0
LINE
  5
2EF
100
AcDbEntity
  8
0
100
AcDbLine
 62
7
  6
CONTINUOUS
 10
-24.242244898
 20
40.7140500691
 11
-24.242244898
 21
5.3706519717
  0
LINE
  5
2F0
100
AcDbEntity
  8
RACCORDO
100
AcDbLine
 62
7
  6
CONTINUOUS
 10
-24.242244898
 20
1.1111654645
 11
-24.242244898
 21
44.9735365763
  0
LINE
  5
2F1
100
AcDbEntity
  8
0
100
AcDbLine
 62
7
  6
CONTINUOUS
 10
-24.1200594435
 20
40.6634391967
 11
-24.1200594435
 21
5.4212628441
  0
LINE
  5
2F2
100
AcDbEntity
  8
RACCORDO
100
AcDbLine
 62
7
  6
CONTINUOUS
 10
-24.1200594435
 20
40.6634391967
 11
-24.1200594435
 21
5.4212628441
  0
LINE
  5
2F3
100
AcDbEntity
  8
RACCORDO
100
AcDbLine
 62
7
  6
CONTINUOUS
 10
-24.1053351996
 20
41.0335754105
 11
-24.1053351996
 21
5.0511266303
  0
LINE
  5
2F4
100
AcDbEntity
  8
ASSI
100
AcDbLine
 62
7
  6
CONTINUOUS
 10
-24.1053351996
 20
41.0335754105
 11
-24.1053351996
 21
5.0511266303
  0
LINE
  5
2F5
100
AcDbEntity
  8
RACCORDO
100
AcDbLine
 62
7
  6
CONTINUOUS
 10
-23.742244898
 20
-1.2076532104
 11
-23.742244898
 21
0.6423510204
  0
LINE
  5
2F6
100
AcDbEntity
  8
RACCORDO
100
AcDbLine
 62
7
  6
CONTINUOUS
 10
-23.742244898
 20
45.4423510204
 11
-23.742244898
 21
47.2923552512
  0
LINE
  5
2F7
100
AcDbEntity
  8
RACCORDO
100
AcDbLine
 62
253
  6
CONTINUOUS
 10
-23.737873064
 20
47.2879834172
 11
-23.737873064
 21
46.8866885877
  0
LINE
  5
2F8
100
AcDbEntity
  8
RACCORDO
100
AcDbLine
 62
253
  6
CONTINUOUS
 10
-23.737873064
 20
-0.8019865469
 11
-23.737873064
 21
-1.2032813764
  0
LINE
  5
2F9
100
AcDbEntity
  8
RACCORDO
100
AcDbLine
 62
253
  6
CONTINUOUS
 10
-23.742244898
 20
46.4528361686
 11
-23.737873064
 21
46.8866885877
  0
LINE
  5
2FA
100
AcDbEntity
  8
RACCORDO
100
AcDbLine
 62
253
  6
CONTINUOUS
 10
-23.4929678958
 20
46.1650007512
 11
-23.487150066
 21
46.7423510204
  0
LWPOLYLINE
  5
2FB
100
AcDbEntity
  8
RACCORDO
100
AcDbPolyline
 62
7
  6
CONTINUOUS
 90
34
 70
0
 10
-23.742244898
 20
47.2923552512
 10
-23.7419617477
 20
47.3042505364
 10
-23.7411129322
 20
47.316118876
 10
-23.7397003721
 20
47.3279333865
 10
-23.7377272657
 20
47.3396673079
 10
-23.7351980797
 20
47.3512940592
 10
-23.7321185397
 20
47.3627872994
 10
-23.7284956193
 20
47.3741209942
 10
-23.7243375237
 20
47.3852694697
 10
-23.7196536701
 20
47.3962074667
 10
-23.7144546668
 20
47.406910208
 10
-23.7087522896
 20
47.4173534487
 10
-23.7025594561
 20
47.4275135263
 10
-23.6958901934
 20
47.4373674255
 10
-23.6887596087
 20
47.4468928242
 10
-23.6811838568
 20
47.4560681395
 10
-23.6731800984
 20
47.4648725865
 10
-23.664766464
 20
47.4732862209
 10
-23.655962017
 20
47.4812899793
 10
-23.6467867018
 20
47.4888657311
 10
-23.6372613031
 20
47.4959963159
 10
-23.6274074039
 20
47.5026655785
 10
-23.6172473262
 20
47.508858412
 10
-23.6068040856
 20
47.5145607892
 10
-23.5961013443
 20
47.5197597926
 10
-23.5851633473
 20
47.5244436462
 10
-23.5740148717
 20
47.5286017417
 10
-23.562681177
 20
47.5322246621
 10
-23.5511879368
 20
47.5353042021
 10
-23.5395611854
 20
47.5378333881
 10
-23.5278272641
 20
47.5398064946
 10
-23.5160127535
 20
47.5412190546
 10
-23.504144414
 20
47.5420678702
 10
-23.4922491287
 20
47.5423510204
  0
LWPOLYLINE
  5
2FC
100
AcDbEntity
  8
RACCORDO
100
AcDbPolyline
 62
253
  6
CONTINUOUS
 90
31
 70
0
 10
-23.737873064
 20
47.2879834172
 10
-23.7375316567
 20
47.3010357572
 10
-23.7365083941
 20
47.3140606515
 10
-23.7348047899
 20
47.3270224261
 10
-23.7324236598
 20
47.3398881449
 10
-23.7293705464
 20
47.3526196101
 10
-23.7256551066
 20
47.3651737946
 10
-23.7212885555
 20
47.3775135986
 10
-23.7162821256
 20
47.3896079547
 10
-23.710649377
 20
47.4014240329
 10
-23.7044055754
 20
47.4129296334
 10
-23.6975678936
 20
47.4240929518
 10
-23.6901552635
 20
47.434883031
 10
-23.6821881213
 20
47.4452701568
 10
-23.6736882244
 20
47.455225994
 10
-23.6646788026
 20
47.4647233284
 10
-23.6551845094
 20
47.4737361476
 10
-23.645231406
 20
47.4822396891
 10
-23.6348468167
 20
47.4902105972
 10
-23.6240592264
 20
47.4976270041
 10
-23.6128982004
 20
47.5044685799
 10
-23.6013943446
 20
47.5107165591
 10
-23.589579199
 20
47.5163538074
 10
-23.5774851618
 20
47.5213648628
 10
-23.5651454056
 20
47.5257359779
 10
-23.5525937582
 20
47.5294551674
 10
-23.5398646443
 20
47.5325122286
 10
-23.5269930046
 20
47.5348987713
 10
-23.5140141472
 20
47.5366082544
 10
-23.5009636489
 20
47.5376359974
 10
-23.4878772947
 20
47.5379791864
  0
LINE
  5
2FD
100
AcDbEntity
  8
0
100
AcDbLine
 62
7
  6
CONTINUOUS
 10
-9.592244898
 20
42.9423510204
 11
-9.6289005343
 21
42.9056953841
  0
LINE
  5
2FE
100
AcDbEntity
  8
DRAFT
100
AcDbLine
 62
7
  6
CONTINUOUS
 10
-9.592244898
 20
42.9423510204
 11
-9.6289005343
 21
42.9056953841
  0
LINE
  5
2FF
100
AcDbEntity
  8
0
100
AcDbLine
 62
7
  6
CONTINUOUS
 10
-9.592244898
 20
42.7423510204
 11
-9.6289005343
 21
42.7056953841
  0
LINE
  5
300
100
AcDbEntity
  8
DRAFT
100
AcDbLine
 62
7
  6
CONTINUOUS
 10
-9.592244898
 20
42.7423510204
 11
-9.6289005343
 21
42.7056953841
  0
LINE
  5
301
100
AcDbEntity
  8
0
100
AcDbLine
 62
253
  6
CONTINUOUS
 10
-1.942244898
 20
40.7140500691
 11
-2.0644303525
 21
40.6634391967
  0
LINE
  5
302
100
AcDbEntity
  8
RACCORDO
100
AcDbLine
 62
253
  6
CONTINUOUS
 10
-1.942244898
 20
40.7140500691
 11
-2.0644303525
 21
40.6634391967
  0
LINE
  5
303
100
AcDbEntity
  8
SMUSSO
100
AcDbLine
 62
7
  6
CONTINUOUS
 10
-17.342244898
 20
10.7923510204
 11
-13.342244898
 21
10.7923510204
  0
LINE
  5
304
100
AcDbEntity
  8
ASSI
100
AcDbLine
 62
7
  6
CONTINUOUS
 10
-17.342244898
 20
10.7923510204
 11
-13.342244898
 21
10.7923510204
  0
LINE
  5
305
100
AcDbEntity
  8
CURVE
100
AcDbLine
 62
253
  6
CONTINUOUS
 10
-23.0208163487
 20
10.935208119
 11
-23.2065306233
 21
10.935208119
  0
LINE
  5
306
100
AcDbEntity
  8
CURVE
100
AcDbLine
 62
7
  6
CONTINUOUS
 10
-1.9766948296
 20
11.1675810204
 11
-2.0190471836
 21
11.1675810204
  0
LINE
  5
307
100
AcDbEntity
  8
RACCORDO
100
AcDbLine
 62
7
  6
CONTINUOUS
 10
-2.3791660198
 20
11.1923510204
 11
-3.292244898
 21
11.1923510204
  0
LINE
  5
308
100
AcDbEntity
  8
ASSI
100
AcDbLine
 62
7
  6
CONTINUOUS
 10
-2.3791660198
 20
11.1923510204
 11
-3.292244898
 21
11.1923510204
  0
LINE
  5
309
100
AcDbEntity
  8
SMUSSO
100
AcDbLine
 62
7
  6
CONTINUOUS
 10
-17.842244898
 20
11.2923510204
 11
-12.842244898
 21
11.2923510204
  0
LINE
  5
30A
100
AcDbEntity
  8
ASSI
100
AcDbLine
 62
7
  6
CONTINUOUS
 10
-17.842244898
 20
11.2923510204
 11
-12.842244898
 21
11.2923510204
  0
LINE
  5
30B
100
AcDbEntity
  8
CURVE
100
AcDbLine
 62
253
  6
CONTINUOUS
 10
-22.463673486
 20
11.3066366683
 11
-23.0208163487
 21
11.3066366683
  0
LINE
  5
30C
100
AcDbEntity
  8
CURVE
100
AcDbLine
 62
253
  6
CONTINUOUS
 10
-2.0449647757
 20
11.4709225784
 11
-2.0544389391
 21
11.4709225784
  0
LINE
  5
30D
100
AcDbEntity
  8
CURVE
100
AcDbLine
 62
253
  6
CONTINUOUS
 10
-2.0307535303
 20
11.5613984237
 11
-2.0378591535
 21
11.5613984237
  0
LINE
  5
30E
100
AcDbEntity
  8
CURVE
100
AcDbLine
 62
7
  6
CONTINUOUS
 10
-2.0190471836
 20
11.7500260204
 11
-1.968442896
 21
11.7500260204
  0
LINE
  5
30F
100
AcDbEntity
  8
SMUSSO
100
AcDbLine
 62
7
  6
CONTINUOUS
 10
-12.842244898
 20
11.7923510204
 11
-17.842244898
 21
11.7923510204
  0
LINE
  5
310
100
AcDbEntity
  8
ASSI
100
AcDbLine
 62
7
  6
CONTINUOUS
 10
-12.842244898
 20
11.7923510204
 11
-17.842244898
 21
11.7923510204
  0
LINE
  5
311
100
AcDbEntity
  8
RACCORDO
100
AcDbLine
 62
7
  6
CONTINUOUS
 10
-2.3791660198
 20
11.8923510204
 11
-3.292244898
 21
11.8923510204
  0
LINE
  5
312
100
AcDbEntity
  8
ASSI
100
AcDbLine
 62
7
  6
CONTINUOUS
 10
-2.3791660198
 20
11.8923510204
 11
-3.292244898
 21
11.8923510204
  0
LINE
  5
313
100
AcDbEntity
  8
CURVE
100
AcDbLine
 62
253
  6
CONTINUOUS
 10
-23.0208163487
 20
11.9566366683
 11
-22.463673486
 21
11.9566366683
  0
LINE
  5
314
100
AcDbEntity
  8
SMUSSO
100
AcDbLine
 62
7
  6
CONTINUOUS
 10
-13.342244898
 20
12.2923510204
 11
-17.342244898
 21
12.2923510204
  0
LINE
  5
315
100
AcDbEntity
  8
ASSI
100
AcDbLine
 62
7
  6
CONTINUOUS
 10
-13.342244898
 20
12.2923510204
 11
-17.342244898
 21
12.2923510204
  0
LINE
  5
316
100
AcDbEntity
  8
CURVE
100
AcDbLine
 62
253
  6
CONTINUOUS
 10
-2.0378591535
 20
12.3304462801
 11
-2.0307535303
 21
12.3304462801
  0
LINE
  5
317
100
AcDbEntity
  8
CURVE
100
AcDbLine
 62
253
  6
CONTINUOUS
 10
-2.0544389391
 20
12.4209225784
 11
-2.0449647757
 21
12.4209225784
  0
LINE
  5
318
100
AcDbEntity
  8
0
100
AcDbLine
 62
253
  6
CONTINUOUS
 10
-2.0644303525
 20
5.4212628441
 11
-1.942244898
 21
5.3706519717
  0
LINE
  5
319
100
AcDbEntity
  8
RACCORDO
100
AcDbLine
 62
253
  6
CONTINUOUS
 10
-2.0644303525
 20
5.4212628441
 11
-1.942244898
 21
5.3706519717
  0
LINE
  5
31A
100
AcDbEntity
  8
SMUSSO
100
AcDbLine
 62
7
  6
CONTINUOUS
 10
-17.842244898
 20
11.2923510204
 11
-17.342244898
 21
10.7923510204
  0
LINE
  5
31B
100
AcDbEntity
  8
ASSI
100
AcDbLine
 62
7
  6
CONTINUOUS
 10
-17.842244898
 20
11.2923510204
 11
-17.342244898
 21
10.7923510204
  0
LINE
  5
31C
100
AcDbEntity
  8
CURVE
100
AcDbLine
 62
253
  6
CONTINUOUS
 10
-23.392244898
 20
16.9399703632
 11
-23.1136734472
 21
16.6613987575
  0
LINE
  5
31D
100
AcDbEntity
  8
0
100
AcDbLine
 62
7
  6
CONTINUOUS
 10
-9.6289005343
 20
3.1790066568
 11
-9.592244898
 21
3.1423510204
  0
LINE
  5
31E
100
AcDbEntity
  8
DRAFT
100
AcDbLine
 62
7
  6
CONTINUOUS
 10
-9.6289005343
 20
3.1790066568
 11
-9.592244898
 21
3.1423510204
  0
LINE
  5
31F
100
AcDbEntity
  8
0
100
AcDbLine
 62
7
  6
CONTINUOUS
 10
-9.592244898
 20
3.3423510204
 11
-9.6289005343
 21
3.3790066568
  0
LINE
  5
320
100
AcDbEntity
  8
DRAFT
100
AcDbLine
 62
7
  6
CONTINUOUS
 10
-9.592244898
 20
3.3423510204
 11
-9.6289005343
 21
3.3790066568
  0
LINE
  5
321
100
AcDbEntity
  8
SMUSSO
100
AcDbLine
 62
7
  6
CONTINUOUS
 10
-12.842244898
 20
6.7923510204
 11
-13.342244898
 21
7.2923510204
  0
LINE
  5
322
100
AcDbEntity
  8
ASSI
100
AcDbLine
 62
7
  6
CONTINUOUS
 10
-12.842244898
 20
6.7923510204
 11
-13.342244898
 21
7.2923510204
  0
LINE
  5
323
100
AcDbEntity
  8
CURVE
100
AcDbLine
 62
253
  6
CONTINUOUS
 10
-20.1779592322
 20
14.4923510204
 11
-19.9065306203
 21
14.2209224652
  0
LINE
  5
324
100
AcDbEntity
  8
CURVE
100
AcDbLine
 62
253
  6
CONTINUOUS
 10
-23.2065306233
 20
17.5899703632
 11
-23.392244898
 21
17.7756845604
  0
LINE
  5
325
100
AcDbEntity
  8
CURVE
100
AcDbLine
 62
253
  6
CONTINUOUS
 10
-22.092244898
 20
16.9399703632
 11
-22.277959192
 21
17.1256845604
  0
LINE
  5
326
100
AcDbEntity
  8
CURVE
100
AcDbLine
 62
253
  6
CONTINUOUS
 10
-22.4017687084
 20
13.9066368232
 11
-22.4946258651
 21
14.1542558561
  0
LWPOLYLINE
  5
327
100
AcDbEntity
  8
RACCORDO
100
AcDbPolyline
 62
253
  6
CONTINUOUS
 90
31
 70
0
 10
-21.346616732
 20
-0.8019865469
 10
-21.3469960865
 20
-0.7906760392
 10
-21.3480571342
 20
-0.77939642
 10
-21.3497969775
 20
-0.7681784937
 10
-21.3522108628
 20
-0.7570529049
 10
-21.3552921988
 20
-0.746050028
 10
-21.3590325806
 20
-0.7351998853
 10
-21.3634218069
 20
-0.7245320891
 10
-21.3684478891
 20
-0.7140757956
 10
-21.3740970855
 20
-0.7038595964
 10
-21.3803539572
 20
-0.6939114048
 10
-21.3872014228
 20
-0.6842583742
 10
-21.3946207869
 20
-0.6749268581
 10
-21.4025917905
 20
-0.6659423371
 10
-21.411092662
 20
-0.6573293516
 10
-21.4201001824
 20
-0.6491114264
 10
-21.4295897461
 20
-0.6413110082
 10
-21.4395354418
 20
-0.6339493946
 10
-21.4499101213
 20
-0.6270466807
 10
-21.4606854738
 20
-0.6206217071
 10
-21.4718320533
 20
-0.6146920355
 10
-21.4833193676
 20
-0.6092738843
 10
-21.4951160096
 20
-0.6043820571
 10
-21.5071897904
 20
-0.6000298924
 10
-21.519507779
 20
-0.5962292575
 10
-21.5320368113
 20
-0.5929904203
 10
-21.5447422092
 20
-0.5903223803
 10
-21.5575878605
 20
-0.588232621
 10
-21.5705381752
 20
-0.5867267024
 10
-21.5835582392
 20
-0.5858084564
 10
-21.5966125012
 20
-0.5854801959
  0
LINE
  5
328
100
AcDbEntity
  8
RACCORDO
100
AcDbLine
 62
253
  6
CONTINUOUS
 10
-23.4878772947
 20
-1.4532771456
 11
-23.4878772947
 21
-0.5854801959
  0
LINE
  5
329
100
AcDbEntity
  8
RACCORDO
100
AcDbLine
 62
253
  6
CONTINUOUS
 10
-23.4878772947
 20
46.7423510204
 11
-23.4878772947
 21
47.5379791864
  0
LINE
  5
32A
100
AcDbEntity
  8
CURVE
100
AcDbLine
 62
253
  6
CONTINUOUS
 10
-23.467244898
 20
23.7298510204
 11
-23.467244898
 21
23.6048510204
  0
LINE
  5
32B
100
AcDbEntity
  8
CURVE
100
AcDbLine
 62
253
  6
CONTINUOUS
 10
-23.392244898
 20
10.7494938443
 11
-23.392244898
 21
10.4709224711
  0
LINE
  5
32C
100
AcDbEntity
  8
CURVE
100
AcDbLine
 62
253
  6
CONTINUOUS
 10
-23.392244898
 20
11.585208119
 11
-23.392244898
 21
11.6780653725
  0
LINE
  5
32D
100
AcDbEntity
  8
CURVE
100
AcDbLine
 62
253
  6
CONTINUOUS
 10
-23.392244898
 20
17.7756845604
 11
-23.392244898
 21
17.868541349
  0
LINE
  5
32E
100
AcDbEntity
  8
CURVE
100
AcDbLine
 62
253
  6
CONTINUOUS
 10
-23.0208163487
 20
19.5399703632
 11
-23.0208163487
 21
20.0971123348
  0
LINE
  5
32F
100
AcDbEntity
  8
RACCORDO
100
AcDbLine
 62
7
  6
CONTINUOUS
 10
-22.8896268376
 20
42.5686588951
 11
-22.8896268376
 21
42.6449693627
  0
LINE
  5
330
100
AcDbEntity
  8
ASSI
100
AcDbLine
 62
7
  6
CONTINUOUS
 10
-22.8896268376
 20
42.5686588951
 11
-22.8896268376
 21
42.6449693627
  0
LINE
  5
331
100
AcDbEntity
  8
CURVE
100
AcDbLine
 62
253
  6
CONTINUOUS
 10
-22.835102074
 20
16.9399703632
 11
-22.835102074
 21
16.5375890861
  0
LINE
  5
332
100
AcDbEntity
  8
CURVE
100
AcDbLine
 62
253
  6
CONTINUOUS
 10
-22.835102074
 20
18.518541349
 11
-22.835102074
 21
19.168541349
  0
LINE
  5
333
100
AcDbEntity
  8
DRAFT
100
AcDbLine
 62
7
  6
CONTINUOUS
 10
-22.742244898
 20
2.1423510204
 11
-22.742244898
 21
3.0423510204
  0
LINE
  5
334
100
AcDbEntity
  8
DRAFT
100
AcDbLine
 62
7
  6
CONTINUOUS
 10
-22.742244898
 20
43.0423510204
 11
-22.742244898
 21
43.9423510204
  0
LINE
  5
335
100
AcDbEntity
  8
CURVE
100
AcDbLine
 62
253
  6
CONTINUOUS
 10
-22.717244898
 20
23.6673510204
 11
-22.717244898
 21
23.7298510204
  0
LINE
  5
336
100
AcDbEntity
  8
DRAFT
100
AcDbLine
 62
7
  6
CONTINUOUS
 10
-22.7160623006
 20
2.2209626893
 11
-22.7160623006
 21
3.016168423
  0
LINE
  5
337
100
AcDbEntity
  8
DRAFT
100
AcDbLine
 62
7
  6
CONTINUOUS
 10
-22.7160623006
 20
43.0685336178
 11
-22.7160623006
 21
43.8637393515
  0
LINE
  5
338
100
AcDbEntity
  8
CURVE
100
AcDbLine
 62
253
  6
CONTINUOUS
 10
-22.092244898
 20
17.868541349
 11
-22.092244898
 21
17.7756845604
  0
LINE
  5
339
100
AcDbEntity
  8
CURVE
100
AcDbLine
 62
253
  6
CONTINUOUS
 10
-22.092244898
 20
11.6780653725
 11
-22.092244898
 21
11.585208119
  0
LINE
  5
33A
100
AcDbEntity
  8
CURVE
100
AcDbLine
 62
253
  6
CONTINUOUS
 10
-22.092244898
 20
10.935208119
 11
-22.092244898
 21
10.2852081965
  0
LINE
  5
33B
100
AcDbEntity
  8
CURVE
100
AcDbLine
 62
253
  6
CONTINUOUS
 10
-22.092244898
 20
16.6613987575
 11
-22.092244898
 21
16.9399703632
  0
LINE
  5
33C
100
AcDbEntity
  8
CURVE
100
AcDbLine
 62
253
  6
CONTINUOUS
 10
-22.092244898
 20
19.5399703632
 11
-22.092244898
 21
20.0971123348
  0
LWPOLYLINE
  5
33D
100
AcDbEntity
  8
RACCORDO
100
AcDbPolyline
 62
253
  6
CONTINUOUS
 90
31
 70
0
 10
-23.737873064
 20
-0.8019865469
 10
-23.7374945083
 20
-0.7906885746
 10
-23.7364353808
 20
-0.7794182706
 10
-23.7346980042
 20
-0.7682064008
 10
-23.7322863028
 20
-0.7570825917
 10
-23.7292064326
 20
-0.7460783396
 10
-23.7254673816
 20
-0.7352267998
 10
-23.7210798372
 20
-0.7245586768
 10
-23.7160554382
 20
-0.7141020035
 10
-23.7104077576
 20
-0.7038850846
 10
-23.704152065
 20
-0.6939356795
 10
-23.6973054904
 20
-0.684281155
 10
-23.6898868821
 20
-0.6749481315
 10
-23.6819165781
 20
-0.6659621814
 10
-23.6734162833
 20
-0.6573477622
 10
-23.6644091928
 20
-0.6491283838
 10
-23.6549198892
 20
-0.6413264871
 10
-23.644974302
 20
-0.6339633989
 10
-23.6345996192
 20
-0.62705925
 10
-23.6238241868
 20
-0.6206329035
 10
-23.6126774288
 20
-0.6147019065
 10
-23.6011897917
 20
-0.6092824591
 10
-23.589392635
 20
-0.6043893571
 10
-23.5773181986
 20
-0.6000359741
 10
-23.564999519
 20
-0.5962342167
 10
-23.5524702836
 20
-0.5929944703
 10
-23.5397646807
 20
-0.5903255638
 10
-23.5269173599
 20
-0.5882347714
 10
-23.5139633927
 20
-0.5867278015
 10
-23.5009381789
 20
-0.5858087731
 10
-23.4878772947
 20
-0.5854801959
  0
LWPOLYLINE
  5
33E
100
AcDbEntity
  8
RACCORDO
100
AcDbPolyline
 62
7
  6
CONTINUOUS
 90
34
 70
0
 10
-21.346616732
 20
46.8866885877
 10
-21.3469144583
 20
46.8804470086
 10
-21.3476857097
 20
46.8741738976
 10
-21.3489360725
 20
46.8678874815
 10
-21.3506701198
 20
46.8616134494
 10
-21.3528915625
 20
46.8553639111
 10
-21.3556035825
 20
46.8491374271
 10
-21.3588080793
 20
46.8429544897
 10
-21.3625060039
 20
46.8368348595
 10
-21.3666982549
 20
46.830776703
 10
-21.3713837391
 20
46.8248015263
 10
-21.376560381
 20
46.8189301186
 10
-21.3822267518
 20
46.8131602967
 10
-21.3883785356
 20
46.8075143157
 10
-21.395010318
 20
46.8020138226
 10
-21.4021181208
 20
46.7966564869
 10
-21.4096941164
 20
46.7914650346
 10
-21.4177291984
 20
46.7864617258
 10
-21.4262164239
 20
46.7816443118
 10
-21.4351441334
 20
46.7770356184
 10
-21.4444991122
 20
46.7726582095
 10
-21.4542707868
 20
46.7685101616
 10
-21.464443298
 20
46.7646139027
 10
-21.4749988851
 20
46.7609918599
 10
-21.4859224859
 20
46.7576426236
 10
-21.4971935434
 20
46.7545875905
 10
-21.5087894679
 20
46.7518483843
 10
-21.5206901656
 20
46.7494241028
 10
-21.5328569934
 20
46.7473373021
 10
-21.5452750482
 20
46.7456038432
 10
-21.5579590423
 20
46.7442177221
 10
-21.5708937529
 20
46.7431946401
 10
-21.5840322545
 20
46.7425654503
 10
-21.5973397299
 20
46.7423510204
  0
LINE
  5
33F
100
AcDbEntity
  8
DRAFT
100
AcDbLine
 62
7
  6
CONTINUOUS
 10
-20.3910825726
 20
43.9528214008
 11
-20.4009716427
 21
43.8637393515
  0
LINE
  5
340
100
AcDbEntity
  8
CURVE
100
AcDbLine
 62
253
  6
CONTINUOUS
 10
-23.404744898
 20
23.9798510204
 11
-23.467244898
 21
23.7298510204
  0
LINE
  5
341
100
AcDbEntity
  8
CURVE
100
AcDbLine
 62
253
  6
CONTINUOUS
 10
-23.342244898
 20
24.1673510204
 11
-23.404744898
 21
23.9798510204
  0
LINE
  5
342
100
AcDbEntity
  8
CURVE
100
AcDbLine
 62
253
  6
CONTINUOUS
 10
-22.779744898
 20
23.4798510204
 11
-22.717244898
 21
23.6673510204
  0
LINE
  5
343
100
AcDbEntity
  8
CURVE
100
AcDbLine
 62
253
  6
CONTINUOUS
 10
-23.279744898
 20
24.2923510204
 11
-23.342244898
 21
24.1673510204
  0
LINE
  5
344
100
AcDbEntity
  8
CURVE
100
AcDbLine
 62
253
  6
CONTINUOUS
 10
-22.842244898
 20
23.3548510204
 11
-22.779744898
 21
23.4798510204
  0
LINE
  5
345
100
AcDbEntity
  8
DRAFT
100
AcDbLine
 62
7
  6
CONTINUOUS
 10
-8.692244898
 20
45.4423510204
 11
-8.7363121652
 21
45.3762491873
  0
LINE
  5
346
100
AcDbEntity
  8
RACCORDO
100
AcDbLine
 62
253
  6
CONTINUOUS
 10
-2.6966125012
 20
47.5379791864
 11
-2.6922406672
 21
47.5423510204
  0
LINE
  5
347
100
AcDbEntity
  8
RACCORDO
100
AcDbLine
 62
253
  6
CONTINUOUS
 10
-2.446616732
 20
47.2879834172
 11
-2.442244898
 21
47.2923552512
  0
LINE
  5
348
100
AcDbEntity
  8
RACCORDO
100
AcDbLine
 62
7
  6
CONTINUOUS
 10
-6.7352233965
 20
42.7993725219
 11
-6.792244898
 21
42.7423510204
  0
LINE
  5
349
100
AcDbEntity
  8
0
100
AcDbLine
 62
7
  6
CONTINUOUS
 10
-16.692244898
 20
12.5423510204
 11
-13.692244898
 21
12.5423510204
  0
LINE
  5
34A
100
AcDbEntity
  8
CURVE
100
AcDbLine
 62
253
  6
CONTINUOUS
 10
-2.0568074801
 20
12.9637794624
 11
-2.0449647757
 21
12.9637794624
  0
LINE
  5
34B
100
AcDbEntity
  8
CURVE
100
AcDbLine
 62
253
  6
CONTINUOUS
 10
-2.0378591535
 20
13.0090178381
 11
-2.0307535303
 21
13.0090178381
  0
LINE
  5
34C
100
AcDbEntity
  8
CURVE
100
AcDbLine
 62
253
  6
CONTINUOUS
 10
-19.092244898
 20
13.5423510204
 11
-20.992244898
 21
13.5423510204
  0
LINE
  5
34D
100
AcDbEntity
  8
CURVE
100
AcDbLine
 62
253
  6
CONTINUOUS
 10
-23.1136734472
 20
16.6613987575
 11
-22.742244898
 21
16.4756845604
  0
LINE
  5
34E
100
AcDbEntity
  8
CURVE
100
AcDbLine
 62
253
  6
CONTINUOUS
 10
-23.0208163487
 20
17.4971129547
 11
-23.2065306233
 21
17.5899703632
  0
LINE
  5
34F
100
AcDbEntity
  8
CURVE
100
AcDbLine
 62
253
  6
CONTINUOUS
 10
-22.277959192
 20
18.0542555462
 11
-22.092244898
 21
17.868541349
  0
LINE
  5
350
100
AcDbEntity
  8
RACCORDO
100
AcDbLine
 62
253
  6
CONTINUOUS
 10
-2.6966125012
 20
-1.4532771456
 11
-2.6922406672
 21
-1.4576489796
  0
LINE
  5
351
100
AcDbEntity
  8
RACCORDO
100
AcDbLine
 62
253
  6
CONTINUOUS
 10
-2.446616732
 20
-1.2032813764
 11
-2.442244898
 21
-1.2076532104
  0
LINE
  5
352
100
AcDbEntity
  8
RACCORDO
100
AcDbLine
 62
7
  6
CONTINUOUS
 10
-6.7352233965
 20
3.2853295189
 11
-6.792244898
 21
3.3423510204
  0
LINE
  5
353
100
AcDbEntity
  8
DRAFT
100
AcDbLine
 62
7
  6
CONTINUOUS
 10
-8.692244898
 20
0.6423510204
 11
-8.7363121652
 21
0.7084528535
  0
LINE
  5
354
100
AcDbEntity
  8
CURVE
100
AcDbLine
 62
253
  6
CONTINUOUS
 10
-23.467244898
 20
23.6048510204
 11
-23.404744898
 21
23.4173510204
  0
LINE
  5
355
100
AcDbEntity
  8
CURVE
100
AcDbLine
 62
253
  6
CONTINUOUS
 10
-22.717244898
 20
23.7298510204
 11
-22.654744898
 21
23.4798510204
  0
LINE
  5
356
100
AcDbEntity
  8
DRAFT
100
AcDbLine
 62
7
  6
CONTINUOUS
 10
-20.4009716427
 20
2.2209626893
 11
-20.3910825726
 21
2.13188064
  0
LINE
  5
357
100
AcDbEntity
  8
RACCORDO
100
AcDbLine
 62
253
  6
CONTINUOUS
 10
-21.5973397299
 20
46.7423510204
 11
-21.5915219001
 21
46.1650007512
  0
LINE
  5
358
100
AcDbEntity
  8
RACCORDO
100
AcDbLine
 62
253
  6
CONTINUOUS
 10
-21.346616732
 20
46.8866885877
 11
-21.342244898
 21
46.4528361686
  0
LINE
  5
359
100
AcDbEntity
  8
RACCORDO
100
AcDbLine
 62
253
  6
CONTINUOUS
 10
-21.5966125012
 20
-1.4532771456
 11
-21.5966125012
 21
-0.5854801959
  0
LINE
  5
35A
100
AcDbEntity
  8
RACCORDO
100
AcDbLine
 62
253
  6
CONTINUOUS
 10
-21.5966125012
 20
46.7423510204
 11
-21.5966125012
 21
47.5379791864
  0
LINE
  5
35B
100
AcDbEntity
  8
CURVE
100
AcDbLine
 62
253
  6
CONTINUOUS
 10
-21.592244898
 20
23.5423510204
 11
-21.592244898
 21
23.7298510204
  0
LINE
  5
35C
100
AcDbEntity
  8
RACCORDO
100
AcDbLine
 62
253
  6
CONTINUOUS
 10
-21.346616732
 20
-1.2032813764
 11
-21.346616732
 21
-0.8019865469
  0
LINE
  5
35D
100
AcDbEntity
  8
RACCORDO
100
AcDbLine
 62
253
  6
CONTINUOUS
 10
-21.346616732
 20
46.8866885877
 11
-21.346616732
 21
47.2879834172
  0
LINE
  5
35E
100
AcDbEntity
  8
RACCORDO
100
AcDbLine
 62
7
  6
CONTINUOUS
 10
-21.342244898
 20
-1.2076532104
 11
-21.342244898
 21
0.6423510204
  0
LINE
  5
35F
100
AcDbEntity
  8
DRAFT
100
AcDbLine
 62
7
  6
CONTINUOUS
 10
-21.342244898
 20
1.6423510204
 11
-21.342244898
 21
2.1423510204
  0
LINE
  5
360
100
AcDbEntity
  8
DRAFT
100
AcDbLine
 62
7
  6
CONTINUOUS
 10
-21.342244898
 20
43.9423510204
 11
-21.342244898
 21
44.4423510204
  0
LINE
  5
361
100
AcDbEntity
  8
RACCORDO
100
AcDbLine
 62
7
  6
CONTINUOUS
 10
-21.342244898
 20
45.4423510204
 11
-21.342244898
 21
47.2923552512
  0
LINE
  5
362
100
AcDbEntity
  8
RACCORDO
100
AcDbLine
 62
253
  6
CONTINUOUS
 10
-21.1762694647
 20
44.6083264537
 11
-21.1762694647
 21
44.0340592846
  0
LINE
  5
363
100
AcDbEntity
  8
RACCORDO
100
AcDbLine
 62
253
  6
CONTINUOUS
 10
-21.1762694647
 20
2.0506427562
 11
-21.1762694647
 21
1.4763755871
  0
LINE
  5
364
100
AcDbEntity
  8
CURVE
100
AcDbLine
 62
253
  6
CONTINUOUS
 10
-20.992244898
 20
13.5423510204
 11
-20.992244898
 21
14.2209224652
  0
LINE
  5
365
100
AcDbEntity
  8
CURVE
100
AcDbLine
 62
253
  6
CONTINUOUS
 10
-20.992244898
 20
23.813779604
 11
-20.992244898
 21
24.3566367428
  0
LINE
  5
366
100
AcDbEntity
  8
RACCORDO
100
AcDbLine
 62
253
  6
CONTINUOUS
 10
-20.6763456171
 20
44.3550442641
 11
-20.6763456171
 21
44.0383465661
  0
LINE
  5
367
100
AcDbEntity
  8
RACCORDO
100
AcDbLine
 62
253
  6
CONTINUOUS
 10
-20.6763456171
 20
2.0463554747
 11
-20.6763456171
 21
1.7296577767
  0
LINE
  5
368
100
AcDbEntity
  8
0
100
AcDbLine
 62
7
  6
CONTINUOUS
 10
-20.5289005343
 20
2.1923510204
 11
-20.5289005343
 21
3.3790066568
  0
LINE
  5
369
100
AcDbEntity
  8
DRAFT
100
AcDbLine
 62
7
  6
CONTINUOUS
 10
-20.5289005343
 20
2.1923510204
 11
-20.5289005343
 21
3.3790066568
  0
LINE
  5
36A
100
AcDbEntity
  8
0
100
AcDbLine
 62
7
  6
CONTINUOUS
 10
-20.5289005343
 20
42.7056953841
 11
-20.5289005343
 21
43.8923510204
  0
LINE
  5
36B
100
AcDbEntity
  8
DRAFT
100
AcDbLine
 62
7
  6
CONTINUOUS
 10
-20.5289005343
 20
42.7056953841
 11
-20.5289005343
 21
43.8923510204
  0
LINE
  5
36C
100
AcDbEntity
  8
0
100
AcDbLine
 62
7
  6
CONTINUOUS
 10
-20.492244898
 20
2.1923510204
 11
-20.492244898
 21
3.3423510204
  0
LINE
  5
36D
100
AcDbEntity
  8
DRAFT
100
AcDbLine
 62
7
  6
CONTINUOUS
 10
-20.492244898
 20
2.1923510204
 11
-20.492244898
 21
3.3423510204
  0
LINE
  5
36E
100
AcDbEntity
  8
0
100
AcDbLine
 62
7
  6
CONTINUOUS
 10
-20.492244898
 20
42.7423510204
 11
-20.492244898
 21
43.8923510204
  0
LINE
  5
36F
100
AcDbEntity
  8
DRAFT
100
AcDbLine
 62
7
  6
CONTINUOUS
 10
-20.492244898
 20
42.7423510204
 11
-20.492244898
 21
43.8923510204
  0
LINE
  5
370
100
AcDbEntity
  8
DRAFT
100
AcDbLine
 62
7
  6
CONTINUOUS
 10
-20.4009716427
 20
3.3423510204
 11
-20.4009716427
 21
2.2209626893
  0
LINE
  5
371
100
AcDbEntity
  8
DRAFT
100
AcDbLine
 62
7
  6
CONTINUOUS
 10
-20.4009716427
 20
42.7423510204
 11
-20.4009716427
 21
43.8637393515
  0
LINE
  5
372
100
AcDbEntity
  8
RACCORDO
100
AcDbLine
 62
7
  6
CONTINUOUS
 10
-20.3340665998
 20
2.0463554747
 11
-20.3340665998
 21
3.0853329036
  0
LINE
  5
373
100
AcDbEntity
  8
RACCORDO
100
AcDbLine
 62
7
  6
CONTINUOUS
 10
-20.3340665998
 20
42.9993691372
 11
-20.3340665998
 21
44.0383465661
  0
LINE
  5
374
100
AcDbEntity
  8
RACCORDO
100
AcDbLine
 62
253
  6
CONTINUOUS
 10
-21.5915219001
 20
-0.0802987104
 11
-21.5966125012
 21
-0.5854801959
  0
LINE
  5
375
100
AcDbEntity
  8
RACCORDO
100
AcDbLine
 62
253
  6
CONTINUOUS
 10
-21.342244898
 20
-0.3681341278
 11
-21.346616732
 21
-0.8019865469
  0
LWPOLYLINE
  5
376
100
AcDbEntity
  8
RACCORDO
100
AcDbPolyline
 62
7
  6
CONTINUOUS
 90
34
 70
0
 10
-21.342244898
 20
-1.2076532104
 10
-21.3425280482
 20
-1.2195484956
 10
-21.3433768637
 20
-1.2314168352
 10
-21.3447894238
 20
-1.2432313457
 10
-21.3467625302
 20
-1.2549652671
 10
-21.3492917162
 20
-1.2665920184
 10
-21.3523712563
 20
-1.2780852586
 10
-21.3559941766
 20
-1.2894189534
 10
-21.3601522722
 20
-1.3005674289
 10
-21.3648361258
 20
-1.3115054259
 10
-21.3700351291
 20
-1.3222081672
 10
-21.3757375063
 20
-1.3326514079
 10
-21.3819303398
 20
-1.3428114855
 10
-21.3885996025
 20
-1.3526653847
 10
-21.3957301872
 20
-1.3621907834
 10
-21.4033059391
 20
-1.3713660987
 10
-21.4113096975
 20
-1.3801705457
 10
-21.4197233319
 20
-1.3885841801
 10
-21.4285277789
 20
-1.3965879385
 10
-21.4377030941
 20
-1.4041636903
 10
-21.4472284928
 20
-1.4112942751
 10
-21.4570823921
 20
-1.4179635377
 10
-21.4672424697
 20
-1.4241563712
 10
-21.4776857104
 20
-1.4298587484
 10
-21.4883884517
 20
-1.4350577518
 10
-21.4993264487
 20
-1.4397416054
 10
-21.5104749242
 20
-1.4438997009
 10
-21.521808619
 20
-1.4475226213
 10
-21.5333018592
 20
-1.4506021613
 10
-21.5449286105
 20
-1.4531313473
 10
-21.5566625318
 20
-1.4551044537
 10
-21.5684770424
 20
-1.4565170138
 10
-21.5803453819
 20
-1.4573658293
 10
-21.5922406672
 20
-1.4576489796
  0
LWPOLYLINE
  5
377
100
AcDbEntity
  8
RACCORDO
100
AcDbPolyline
 62
253
  6
CONTINUOUS
 90
31
 70
0
 10
-21.346616732
 20
-1.2032813764
 10
-21.346959921
 20
-1.2163677305
 10
-21.3479876639
 20
-1.2294182288
 10
-21.3496971471
 20
-1.2423970863
 10
-21.3520836898
 20
-1.2552687259
 10
-21.355140751
 20
-1.2679978398
 10
-21.3588599405
 20
-1.2805494873
 10
-21.3632310555
 20
-1.2928892434
 10
-21.368242111
 20
-1.3049832806
 10
-21.3738793593
 20
-1.3167984262
 10
-21.3801273385
 20
-1.328302282
 10
-21.3869689143
 20
-1.339463308
 10
-21.3943853211
 20
-1.3502508983
 10
-21.4023562293
 20
-1.3606354876
 10
-21.4108597708
 20
-1.370588591
 10
-21.4198725899
 20
-1.3800828842
 10
-21.4293699244
 20
-1.389092306
 10
-21.4393257615
 20
-1.3975922029
 10
-21.4497128874
 20
-1.4055593452
 10
-21.4605029666
 20
-1.4129719752
 10
-21.471666285
 20
-1.419809657
 10
-21.4831718854
 20
-1.4260534587
 10
-21.4949879637
 20
-1.4316862073
 10
-21.5070823198
 20
-1.4366926372
 10
-21.5194221237
 20
-1.4410591883
 10
-21.5319763083
 20
-1.444774628
 10
-21.5447077735
 20
-1.4478277414
 10
-21.5575734922
 20
-1.4502088715
 10
-21.5705352668
 20
-1.4519124758
 10
-21.5835601612
 20
-1.4529357384
 10
-21.5966125012
 20
-1.4532771456
  0
LINE
  5
378
100
AcDbEntity
  8
CURVE
100
AcDbLine
 62
253
  6
CONTINUOUS
 10
-21.654744898
 20
23.3548510204
 11
-21.592244898
 21
23.5423510204
  0
LINE
  5
379
100
AcDbEntity
  8
CURVE
100
AcDbLine
 62
253
  6
CONTINUOUS
 10
-21.717244898
 20
23.2298510204
 11
-21.654744898
 21
23.3548510204
  0
LINE
  5
37A
100
AcDbEntity
  8
CURVE
100
AcDbLine
 62
253
  6
CONTINUOUS
 10
-22.904744898
 20
23.2923510204
 11
-22.842244898
 21
23.3548510204
  0
LINE
  5
37B
100
AcDbEntity
  8
CURVE
100
AcDbLine
 62
253
  6
CONTINUOUS
 10
-2.0260164489
 20
14.3209223519
 11
-2.0591760211
 21
14.3209223519
  0
LINE
  5
37C
100
AcDbEntity
  8
CURVE
100
AcDbLine
 62
253
  6
CONTINUOUS
 10
-20.7208163427
 20
14.4923510204
 11
-20.1779592322
 21
14.4923510204
  0
LINE
  5
37D
100
AcDbEntity
  8
CURVE
100
AcDbLine
 62
7
  6
CONTINUOUS
 10
-2.0106375741
 20
15.1756130204
 11
-2.0190471836
 21
15.1756130204
  0
LINE
  5
37E
100
AcDbEntity
  8
0
100
AcDbLine
 62
7
  6
CONTINUOUS
 10
-13.692244898
 20
15.5423510204
 11
-16.692244898
 21
15.5423510204
  0
LINE
  5
37F
100
AcDbEntity
  8
CURVE
100
AcDbLine
 62
253
  6
CONTINUOUS
 10
-2.0591760211
 20
15.7233033906
 11
-2.042596235
 21
15.7233033906
  0
LINE
  5
380
100
AcDbEntity
  8
SMUSSO
100
AcDbLine
 62
7
  6
CONTINUOUS
 10
-17.342244898
 20
15.7923510204
 11
-13.342244898
 21
15.7923510204
  0
LINE
  5
381
100
AcDbEntity
  8
ASSI
100
AcDbLine
 62
7
  6
CONTINUOUS
 10
-17.342244898
 20
15.7923510204
 11
-13.342244898
 21
15.7923510204
  0
LINE
  5
382
100
AcDbEntity
  8
CURVE
100
AcDbLine
 62
253
  6
CONTINUOUS
 10
-22.463673486
 20
18.1471129547
 11
-22.277959192
 21
18.0542555462
  0
LINE
  5
383
100
AcDbEntity
  8
CURVE
100
AcDbLine
 62
253
  6
CONTINUOUS
 10
-23.0208163487
 20
20.0971123348
 11
-22.092244898
 21
19.5399703632
  0
LINE
  5
384
100
AcDbEntity
  8
SMUSSO
100
AcDbLine
 62
7
  6
CONTINUOUS
 10
-17.842244898
 20
16.2923510204
 11
-17.342244898
 21
15.7923510204
  0
LINE
  5
385
100
AcDbEntity
  8
ASSI
100
AcDbLine
 62
7
  6
CONTINUOUS
 10
-17.842244898
 20
16.2923510204
 11
-17.342244898
 21
15.7923510204
  0
LINE
  5
386
100
AcDbEntity
  8
SMUSSO
100
AcDbLine
 62
7
  6
CONTINUOUS
 10
-12.842244898
 20
11.7923510204
 11
-13.342244898
 21
12.2923510204
  0
LINE
  5
387
100
AcDbEntity
  8
ASSI
100
AcDbLine
 62
7
  6
CONTINUOUS
 10
-12.842244898
 20
11.7923510204
 11
-13.342244898
 21
12.2923510204
  0
LINE
  5
388
100
AcDbEntity
  8
CURVE
100
AcDbLine
 62
253
  6
CONTINUOUS
 10
-23.404744898
 20
23.4173510204
 11
-23.279744898
 21
23.2923510204
  0
LINE
  5
389
100
AcDbEntity
  8
CURVE
100
AcDbLine
 62
253
  6
CONTINUOUS
 10
-22.654744898
 20
23.4798510204
 11
-22.529744898
 21
23.2298510204
  0
LINE
  5
38A
100
AcDbEntity
  8
CURVE
100
AcDbLine
 62
253
  6
CONTINUOUS
 10
-21.592244898
 20
23.7298510204
 11
-21.654744898
 21
23.9798510204
  0
LINE
  5
38B
100
AcDbEntity
  8
CURVE
100
AcDbLine
 62
253
  6
CONTINUOUS
 10
-19.9065306203
 20
14.2209224652
 11
-19.9065306203
 21
13.5423510204
  0
LINE
  5
38C
100
AcDbEntity
  8
RACCORDO
100
AcDbLine
 62
7
  6
CONTINUOUS
 10
-19.4504231961
 20
2.4594267372
 11
-19.4504231961
 21
3.0853329036
  0
LINE
  5
38D
100
AcDbEntity
  8
RACCORDO
100
AcDbLine
 62
7
  6
CONTINUOUS
 10
-19.4504231961
 20
42.9993691372
 11
-19.4504231961
 21
43.6252753036
  0
LINE
  5
38E
100
AcDbEntity
  8
DRAFT
100
AcDbLine
 62
7
  6
CONTINUOUS
 10
-19.3835181532
 20
43.0292607187
 11
-19.3835181532
 21
42.7423510204
  0
LINE
  5
38F
100
AcDbEntity
  8
DRAFT
100
AcDbLine
 62
7
  6
CONTINUOUS
 10
-19.3835181532
 20
3.3423510204
 11
-19.3835181532
 21
3.0554413221
  0
LINE
  5
390
100
AcDbEntity
  8
CURVE
100
AcDbLine
 62
253
  6
CONTINUOUS
 10
-19.092244898
 20
8.7423510204
 11
-19.092244898
 21
9.4209224652
  0
LINE
  5
391
100
AcDbEntity
  8
CURVE
100
AcDbLine
 62
253
  6
CONTINUOUS
 10
-19.092244898
 20
23.6780653122
 11
-19.092244898
 21
24.2209224652
  0
LWPOLYLINE
  5
392
100
AcDbEntity
  8
ASSI
100
AcDbPolyline
 62
7
  6
CONTINUOUS
 90
17
 70
0
 10
-16.592244898
 20
46.7934933107
 10
-16.5925771879
 20
46.7907749316
 10
-16.5935861047
 20
46.7873931005
 10
-16.5952890045
 20
46.7833478172
 10
-16.5977033544
 20
46.7786518429
 10
-16.6008437785
 20
46.7732924165
 10
-16.604719063
 20
46.7672312551
 10
-16.6093380399
 20
46.7604631211
 10
-16.6147101313
 20
46.7529932522
 10
-16.6208391963
 20
46.7447990779
 10
-16.6277138932
 20
46.7359011855
 10
-16.6353496416
 20
46.7262789877
 10
-16.6437996305
 20
46.7158481522
 10
-16.653083008
 20
46.7046059203
 10
-16.6632027923
 20
46.6925550507
 10
-16.6742047199
 20
46.6796194869
 10
-16.6861006157
 20
46.6657983045
  0
LWPOLYLINE
  5
393
100
AcDbEntity
  8
0
100
AcDbPolyline
 62
253
  6
CONTINUOUS
 90
4
 70
0
 10
-11.1099984522
 20
40.5014139263
 10
-11.1318597224
 20
40.45908569
 10
-11.1617849629
 20
40.4205645987
 10
-11.1989227072
 20
40.3871651913
  0
LWPOLYLINE
  5
394
100
AcDbEntity
  8
RACCORDO
100
AcDbPolyline
 62
253
  6
CONTINUOUS
 90
4
 70
0
 10
-11.1099984522
 20
40.5014139263
 10
-11.1318597224
 20
40.45908569
 10
-11.1617849629
 20
40.4205645987
 10
-11.1989227072
 20
40.3871651913
  0
LWPOLYLINE
  5
395
100
AcDbEntity
  8
RACCORDO
100
AcDbPolyline
 62
7
  6
CONTINUOUS
 90
5
 70
0
 10
-5.2013614243
 20
44.8014675468
 10
-5.2248802804
 20
44.7654199807
 10
-5.248864837
 20
44.7289967842
 10
-5.273315094
 20
44.6922690046
 10
-5.2982903411
 20
44.6553399048
  0
LINE
  5
396
100
AcDbEntity
  8
RACCORDO
100
AcDbLine
 62
7
  6
CONTINUOUS
 10
-6.73695013
 20
43.1252943421
 11
-6.8009716427
 21
43.0292607187
  0
LWPOLYLINE
  5
397
100
AcDbEntity
  8
RACCORDO
100
AcDbPolyline
 62
7
  6
CONTINUOUS
 90
3
 70
0
 10
-5.2982903411
 20
44.6553399048
 10
-5.3494600678
 20
44.580941265
 10
-5.3754683995
 20
44.5434892849
  0
LINE
  5
398
100
AcDbEntity
  8
RACCORDO
100
AcDbLine
 62
7
  6
CONTINUOUS
 10
-5.3754683995
 20
44.5434892849
 11
-5.4547102771
 21
44.4305349076
  0
LINE
  5
399
100
AcDbEntity
  8
RACCORDO
100
AcDbLine
 62
7
  6
CONTINUOUS
 10
-5.4547102771
 20
44.4305349076
 11
-5.5081441788
 21
44.3550442641
  0
LINE
  5
39A
100
AcDbEntity
  8
CURVE
100
AcDbLine
 62
253
  6
CONTINUOUS
 10
-19.6351020651
 20
24.4923510204
 11
-20.4493877875
 21
23.5423510204
  0
LINE
  5
39B
100
AcDbEntity
  8
CURVE
100
AcDbLine
 62
253
  6
CONTINUOUS
 10
-20.992244898
 20
24.3566367428
 11
-20.8565305637
 21
24.4923510204
  0
LINE
  5
39C
100
AcDbEntity
  8
CURVE
100
AcDbLine
 62
253
  6
CONTINUOUS
 10
-21.842244898
 20
23.1048510204
 11
-21.717244898
 21
23.2298510204
  0
LINE
  5
39D
100
AcDbEntity
  8
RACCORDO
100
AcDbLine
 62
7
  6
CONTINUOUS
 10
-2.3791660198
 20
16.1923510204
 11
-3.292244898
 21
16.1923510204
  0
LINE
  5
39E
100
AcDbEntity
  8
ASSI
100
AcDbLine
 62
7
  6
CONTINUOUS
 10
-2.3791660198
 20
16.1923510204
 11
-3.292244898
 21
16.1923510204
  0
LINE
  5
39F
100
AcDbEntity
  8
CURVE
100
AcDbLine
 62
7
  6
CONTINUOUS
 10
-1.968442896
 20
16.2486120204
 11
-2.0106375741
 21
16.2486120204
  0
LINE
  5
3A0
100
AcDbEntity
  8
SMUSSO
100
AcDbLine
 62
7
  6
CONTINUOUS
 10
-17.842244898
 20
16.2923510204
 11
-12.842244898
 21
16.2923510204
  0
LINE
  5
3A1
100
AcDbEntity
  8
ASSI
100
AcDbLine
 62
7
  6
CONTINUOUS
 10
-17.842244898
 20
16.2923510204
 11
-12.842244898
 21
16.2923510204
  0
LINE
  5
3A2
100
AcDbEntity
  8
CURVE
100
AcDbLine
 62
253
  6
CONTINUOUS
 10
-22.742244898
 20
16.4756845604
 11
-22.277959192
 21
16.4756845604
  0
LINE
  5
3A3
100
AcDbEntity
  8
SMUSSO
100
AcDbLine
 62
7
  6
CONTINUOUS
 10
-12.842244898
 20
16.7923510204
 11
-17.842244898
 21
16.7923510204
  0
LINE
  5
3A4
100
AcDbEntity
  8
ASSI
100
AcDbLine
 62
7
  6
CONTINUOUS
 10
-12.842244898
 20
16.7923510204
 11
-17.842244898
 21
16.7923510204
  0
LINE
  5
3A5
100
AcDbEntity
  8
CURVE
100
AcDbLine
 62
7
  6
CONTINUOUS
 10
-2.0190471836
 20
16.8712180204
 11
-1.968442896
 21
16.8712180204
  0
LINE
  5
3A6
100
AcDbEntity
  8
RACCORDO
100
AcDbLine
 62
7
  6
CONTINUOUS
 10
-2.3791660198
 20
16.8923510204
 11
-3.292244898
 21
16.8923510204
  0
LINE
  5
3A7
100
AcDbEntity
  8
ASSI
100
AcDbLine
 62
7
  6
CONTINUOUS
 10
-2.3791660198
 20
16.8923510204
 11
-3.292244898
 21
16.8923510204
  0
LINE
  5
3A8
100
AcDbEntity
  8
CURVE
100
AcDbLine
 62
253
  6
CONTINUOUS
 10
-2.0260164489
 20
16.8994938533
 11
-2.0591760211
 21
16.8994938533
  0
LINE
  5
3A9
100
AcDbEntity
  8
CURVE
100
AcDbLine
 62
253
  6
CONTINUOUS
 10
-22.277959192
 20
17.1256845604
 11
-22.6493877606
 21
17.1256845604
  0
LINE
  5
3AA
100
AcDbEntity
  8
SMUSSO
100
AcDbLine
 62
7
  6
CONTINUOUS
 10
-13.342244898
 20
17.2923510204
 11
-17.342244898
 21
17.2923510204
  0
LINE
  5
3AB
100
AcDbEntity
  8
ASSI
100
AcDbLine
 62
7
  6
CONTINUOUS
 10
-13.342244898
 20
17.2923510204
 11
-17.342244898
 21
17.2923510204
  0
LINE
  5
3AC
100
AcDbEntity
  8
CURVE
100
AcDbLine
 62
253
  6
CONTINUOUS
 10
-22.463673486
 20
17.4971129547
 11
-23.0208163487
 21
17.4971129547
  0
LINE
  5
3AD
100
AcDbEntity
  8
0
100
AcDbLine
 62
7
  6
CONTINUOUS
 10
-16.692244898
 20
17.5423510204
 11
-13.692244898
 21
17.5423510204
  0
LINE
  5
3AE
100
AcDbEntity
  8
CURVE
100
AcDbLine
 62
253
  6
CONTINUOUS
 10
-22.529744898
 20
23.2298510204
 11
-22.404744898
 21
23.1048510204
  0
LINE
  5
3AF
100
AcDbEntity
  8
CURVE
100
AcDbLine
 62
253
  6
CONTINUOUS
 10
-21.779744898
 20
24.1673510204
 11
-21.904744898
 21
24.2923510204
  0
LINE
  5
3B0
100
AcDbEntity
  8
RACCORDO
100
AcDbLine
 62
7
  6
CONTINUOUS
 10
-5.5081441788
 20
1.7296577767
 11
-5.4547102771
 21
1.6541671332
  0
LINE
  5
3B1
100
AcDbEntity
  8
RACCORDO
100
AcDbLine
 62
7
  6
CONTINUOUS
 10
-5.4547102771
 20
1.6541671332
 11
-5.3754683995
 21
1.5412127559
  0
LWPOLYLINE
  5
3B2
100
AcDbEntity
  8
RACCORDO
100
AcDbPolyline
 62
7
  6
CONTINUOUS
 90
7
 70
0
 10
-5.3754683995
 20
1.5412127559
 10
-5.3237312887
 20
1.4664584037
 10
-5.2982903411
 20
1.429362136
 10
-5.273315094
 20
1.3924330362
 10
-5.248864837
 20
1.3557052566
 10
-5.2248802804
 20
1.3192820601
 10
-5.2013614243
 20
1.2832344941
  0
LINE
  5
3B3
100
AcDbEntity
  8
CURVE
100
AcDbLine
 62
253
  6
CONTINUOUS
 10
-21.654744898
 20
23.9798510204
 11
-21.779744898
 21
24.1673510204
  0
LINE
  5
3B4
100
AcDbEntity
  8
RACCORDO
100
AcDbLine
 62
7
  6
CONTINUOUS
 10
-6.73695013
 20
2.9594076987
 11
-6.8009716427
 21
3.0554413221
  0
LINE
  5
3B5
100
AcDbEntity
  8
SMUSSO
100
AcDbLine
 62
7
  6
CONTINUOUS
 10
-17.842244898
 20
6.7923510204
 11
-17.842244898
 21
11.2923510204
  0
LINE
  5
3B6
100
AcDbEntity
  8
ASSI
100
AcDbLine
 62
7
  6
CONTINUOUS
 10
-17.842244898
 20
6.7923510204
 11
-17.842244898
 21
11.2923510204
  0
LINE
  5
3B7
100
AcDbEntity
  8
SMUSSO
100
AcDbLine
 62
7
  6
CONTINUOUS
 10
-17.842244898
 20
11.7923510204
 11
-17.842244898
 21
16.2923510204
  0
LINE
  5
3B8
100
AcDbEntity
  8
ASSI
100
AcDbLine
 62
7
  6
CONTINUOUS
 10
-17.842244898
 20
11.7923510204
 11
-17.842244898
 21
16.2923510204
  0
LINE
  5
3B9
100
AcDbEntity
  8
SMUSSO
100
AcDbLine
 62
7
  6
CONTINUOUS
 10
-17.842244898
 20
16.7923510204
 11
-17.842244898
 21
21.2923510204
  0
LINE
  5
3BA
100
AcDbEntity
  8
ASSI
100
AcDbLine
 62
7
  6
CONTINUOUS
 10
-17.842244898
 20
16.7923510204
 11
-17.842244898
 21
21.2923510204
  0
LINE
  5
3BB
100
AcDbEntity
  8
SMUSSO
100
AcDbLine
 62
7
  6
CONTINUOUS
 10
-17.842244898
 20
21.5423510204
 11
-17.842244898
 21
26.5423510204
  0
LINE
  5
3BC
100
AcDbEntity
  8
ASSI
100
AcDbLine
 62
7
  6
CONTINUOUS
 10
-17.842244898
 20
21.5423510204
 11
-17.842244898
 21
26.5423510204
  0
LINE
  5
3BD
100
AcDbEntity
  8
DRAFT
100
AcDbLine
 62
7
  6
CONTINUOUS
 10
-17.492244898
 20
46.8423510204
 11
-17.492244898
 21
45.4423510204
  0
LINE
  5
3BE
100
AcDbEntity
  8
DRAFT
100
AcDbLine
 62
7
  6
CONTINUOUS
 10
-17.492244898
 20
0.6423510204
 11
-17.492244898
 21
-0.7576489796
  0
LINE
  5
3BF
100
AcDbEntity
  8
ASSI
100
AcDbLine
 62
253
  6
CONTINUOUS
 10
-17.4481776307
 20
-0.7084224043
 11
-17.4481776307
 21
0.7084528535
  0
LINE
  5
3C0
100
AcDbEntity
  8
ASSI
100
AcDbLine
 62
253
  6
CONTINUOUS
 10
-17.4481776307
 20
45.3762491873
 11
-17.4481776307
 21
46.7931244451
  0
LINE
  5
3C1
100
AcDbEntity
  8
SMUSSO
100
AcDbLine
 62
7
  6
CONTINUOUS
 10
-17.342244898
 20
7.2923510204
 11
-17.342244898
 21
10.7923510204
  0
LINE
  5
3C2
100
AcDbEntity
  8
ASSI
100
AcDbLine
 62
7
  6
CONTINUOUS
 10
-17.342244898
 20
7.2923510204
 11
-17.342244898
 21
10.7923510204
  0
LINE
  5
3C3
100
AcDbEntity
  8
SMUSSO
100
AcDbLine
 62
7
  6
CONTINUOUS
 10
-17.342244898
 20
12.2923510204
 11
-17.342244898
 21
15.7923510204
  0
LINE
  5
3C4
100
AcDbEntity
  8
ASSI
100
AcDbLine
 62
7
  6
CONTINUOUS
 10
-17.342244898
 20
12.2923510204
 11
-17.342244898
 21
15.7923510204
  0
LINE
  5
3C5
100
AcDbEntity
  8
SMUSSO
100
AcDbLine
 62
7
  6
CONTINUOUS
 10
-17.342244898
 20
17.2923510204
 11
-17.342244898
 21
20.7923510204
  0
LINE
  5
3C6
100
AcDbEntity
  8
ASSI
100
AcDbLine
 62
7
  6
CONTINUOUS
 10
-17.342244898
 20
17.2923510204
 11
-17.342244898
 21
20.7923510204
  0
LINE
  5
3C7
100
AcDbEntity
  8
SMUSSO
100
AcDbLine
 62
7
  6
CONTINUOUS
 10
-17.342244898
 20
22.0423510204
 11
-17.342244898
 21
26.0423510204
  0
LINE
  5
3C8
100
AcDbEntity
  8
ASSI
100
AcDbLine
 62
7
  6
CONTINUOUS
 10
-17.342244898
 20
22.0423510204
 11
-17.342244898
 21
26.0423510204
  0
LINE
  5
3C9
100
AcDbEntity
  8
0
100
AcDbLine
 62
7
  6
CONTINUOUS
 10
-16.692244898
 20
25.5423510204
 11
-16.692244898
 21
22.5423510204
  0
LINE
  5
3CA
100
AcDbEntity
  8
0
100
AcDbLine
 62
7
  6
CONTINUOUS
 10
-16.692244898
 20
20.5423510204
 11
-16.692244898
 21
17.5423510204
  0
LINE
  5
3CB
100
AcDbEntity
  8
0
100
AcDbLine
 62
7
  6
CONTINUOUS
 10
-16.692244898
 20
15.5423510204
 11
-16.692244898
 21
12.5423510204
  0
LINE
  5
3CC
100
AcDbEntity
  8
0
100
AcDbLine
 62
7
  6
CONTINUOUS
 10
-16.692244898
 20
10.5423510204
 11
-16.692244898
 21
7.5423510204
  0
LINE
  5
3CD
100
AcDbEntity
  8
0
100
AcDbLine
 62
7
  6
CONTINUOUS
 10
-16.592244898
 20
42.9423510204
 11
-16.592244898
 21
42.7423510204
  0
LINE
  5
3CE
100
AcDbEntity
  8
DRAFT
100
AcDbLine
 62
7
  6
CONTINUOUS
 10
-16.592244898
 20
42.9423510204
 11
-16.592244898
 21
42.7423510204
  0
LINE
  5
3CF
100
AcDbEntity
  8
0
100
AcDbLine
 62
7
  6
CONTINUOUS
 10
-16.592244898
 20
3.3423510204
 11
-16.592244898
 21
3.1423510204
  0
LINE
  5
3D0
100
AcDbEntity
  8
DRAFT
100
AcDbLine
 62
7
  6
CONTINUOUS
 10
-16.592244898
 20
3.3423510204
 11
-16.592244898
 21
3.1423510204
  0
LINE
  5
3D1
100
AcDbEntity
  8
DRAFT
100
AcDbLine
 62
7
  6
CONTINUOUS
 10
-16.592244898
 20
3.0423510204
 11
-16.592244898
 21
2.9978439947
  0
LINE
  5
3D2
100
AcDbEntity
  8
ASSI
100
AcDbLine
 62
7
  6
CONTINUOUS
 10
-16.592244898
 20
-0.7518311498
 11
-16.592244898
 21
0.7084311252
  0
LINE
  5
3D3
100
AcDbEntity
  8
DRAFT
100
AcDbLine
 62
7
  6
CONTINUOUS
 10
-16.592244898
 20
43.0423510204
 11
-16.592244898
 21
43.0868580461
  0
LINE
  5
3D4
100
AcDbEntity
  8
ASSI
100
AcDbLine
 62
7
  6
CONTINUOUS
 10
-16.592244898
 20
45.3762709156
 11
-16.592244898
 21
46.8365331906
  0
LINE
  5
3D5
100
AcDbEntity
  8
0
100
AcDbLine
 62
7
  6
CONTINUOUS
 10
-16.5555892616
 20
42.9056953841
 11
-16.5555892616
 21
42.7056953841
  0
LINE
  5
3D6
100
AcDbEntity
  8
DRAFT
100
AcDbLine
 62
7
  6
CONTINUOUS
 10
-16.5555892616
 20
42.9056953841
 11
-16.5555892616
 21
42.7056953841
  0
LINE
  5
3D7
100
AcDbEntity
  8
0
100
AcDbLine
 62
7
  6
CONTINUOUS
 10
-16.5555892616
 20
3.3790066568
 11
-16.5555892616
 21
3.1790066568
  0
LINE
  5
3D8
100
AcDbEntity
  8
DRAFT
100
AcDbLine
 62
7
  6
CONTINUOUS
 10
-16.5555892616
 20
3.3790066568
 11
-16.5555892616
 21
3.1790066568
  0
LINE
  5
3D9
100
AcDbEntity
  8
CURVE
100
AcDbLine
 62
253
  6
CONTINUOUS
 10
-19.2279591897
 20
23.5423510204
 11
-19.092244898
 21
23.6780653122
  0
LINE
  5
3DA
100
AcDbEntity
  8
CURVE
100
AcDbLine
 62
253
  6
CONTINUOUS
 10
-23.392244898
 20
17.868541349
 11
-23.2065306233
 21
18.0542555462
  0
LINE
  5
3DB
100
AcDbEntity
  8
CURVE
100
AcDbLine
 62
253
  6
CONTINUOUS
 10
-23.029744898
 20
23.2298510204
 11
-22.904744898
 21
23.2923510204
  0
LINE
  5
3DC
100
AcDbEntity
  8
CURVE
100
AcDbLine
 62
253
  6
CONTINUOUS
 10
-23.0208163487
 20
18.1471129547
 11
-22.463673486
 21
18.1471129547
  0
LINE
  5
3DD
100
AcDbEntity
  8
CURVE
100
AcDbLine
 62
253
  6
CONTINUOUS
 10
-19.092244898
 20
18.4423510204
 11
-20.992244898
 21
18.4423510204
  0
LINE
  5
3DE
100
AcDbEntity
  8
CURVE
100
AcDbLine
 62
253
  6
CONTINUOUS
 10
-22.092244898
 20
18.518541349
 11
-23.392244898
 21
18.518541349
  0
LINE
  5
3DF
100
AcDbEntity
  8
CURVE
100
AcDbLine
 62
7
  6
CONTINUOUS
 10
-1.9911503582
 20
18.7189550204
 11
-1.9768525055
 21
18.7189550204
  0
LINE
  5
3E0
100
AcDbEntity
  8
CURVE
100
AcDbLine
 62
7
  6
CONTINUOUS
 10
-2.0190471836
 20
18.7189550204
 11
-1.9995599678
 21
18.7189550204
  0
LINE
  5
3E1
100
AcDbEntity
  8
CURVE
100
AcDbLine
 62
253
  6
CONTINUOUS
 10
-23.392244898
 20
19.168541349
 11
-22.092244898
 21
19.168541349
  0
LINE
  5
3E2
100
AcDbEntity
  8
CURVE
100
AcDbLine
 62
7
  6
CONTINUOUS
 10
-1.968442896
 20
19.3415610204
 11
-2.0190471836
 21
19.3415610204
  0
LINE
  5
3E3
100
AcDbEntity
  8
CURVE
100
AcDbLine
 62
253
  6
CONTINUOUS
 10
-19.092244898
 20
19.3923510204
 11
-20.992244898
 21
19.3923510204
  0
LINE
  5
3E4
100
AcDbEntity
  8
CURVE
100
AcDbLine
 62
253
  6
CONTINUOUS
 10
-20.7208163427
 20
23.5423510204
 11
-20.992244898
 21
23.813779604
  0
LINE
  5
3E5
100
AcDbEntity
  8
SMUSSO
100
AcDbLine
 62
7
  6
CONTINUOUS
 10
-17.842244898
 20
21.2923510204
 11
-17.342244898
 21
20.7923510204
  0
LINE
  5
3E6
100
AcDbEntity
  8
ASSI
100
AcDbLine
 62
7
  6
CONTINUOUS
 10
-17.842244898
 20
21.2923510204
 11
-17.342244898
 21
20.7923510204
  0
LINE
  5
3E7
100
AcDbEntity
  8
SMUSSO
100
AcDbLine
 62
7
  6
CONTINUOUS
 10
-12.842244898
 20
16.7923510204
 11
-13.342244898
 21
17.2923510204
  0
LINE
  5
3E8
100
AcDbEntity
  8
ASSI
100
AcDbLine
 62
7
  6
CONTINUOUS
 10
-12.842244898
 20
16.7923510204
 11
-13.342244898
 21
17.2923510204
  0
LINE
  5
3E9
100
AcDbEntity
  8
CURVE
100
AcDbLine
 62
253
  6
CONTINUOUS
 10
-19.092244898
 20
24.2209224652
 11
-19.3636734815
 21
24.4923510204
  0
LINE
  5
3EA
100
AcDbEntity
  8
0
100
AcDbLine
 62
7
  6
CONTINUOUS
 10
-11.1112335131
 20
4.8423510204
 11
-11.1016725504
 21
4.8107335219
  0
LINE
  5
3EB
100
AcDbEntity
  8
RACCORDO
100
AcDbLine
 62
7
  6
CONTINUOUS
 10
-11.1112335131
 20
4.8423510204
 11
-11.1016725504
 21
4.8107335219
  0
LINE
  5
3EC
100
AcDbEntity
  8
0
100
AcDbLine
 62
253
  6
CONTINUOUS
 10
-14.5932530958
 20
2.9902000282
 11
-14.5937691328
 21
3.1578643408
  0
LINE
  5
3ED
100
AcDbEntity
  8
RACCORDO
100
AcDbLine
 62
7
  6
CONTINUOUS
 10
-16.092244898
 20
0.7043117817
 11
-16.092244898
 21
2.0423510204
  0
LINE
  5
3EE
100
AcDbEntity
  8
RACCORDO
100
AcDbLine
 62
7
  6
CONTINUOUS
 10
-16.092244898
 20
44.0423510204
 11
-16.092244898
 21
45.3803902591
  0
LINE
  5
3EF
100
AcDbEntity
  8
0
100
AcDbLine
 62
7
  6
CONTINUOUS
 10
-15.592244898
 20
4.7423510204
 11
-15.592244898
 21
6.4423510204
  0
LINE
  5
3F0
100
AcDbEntity
  8
ASSI
100
AcDbLine
 62
7
  6
CONTINUOUS
 10
-15.592244898
 20
4.7423510204
 11
-15.592244898
 21
6.4423510204
  0
LINE
  5
3F1
100
AcDbEntity
  8
0
100
AcDbLine
 62
7
  6
CONTINUOUS
 10
-15.592244898
 20
39.6423510204
 11
-15.592244898
 21
41.3423510204
  0
LINE
  5
3F2
100
AcDbEntity
  8
ASSI
100
AcDbLine
 62
7
  6
CONTINUOUS
 10
-15.592244898
 20
39.6423510204
 11
-15.592244898
 21
41.3423510204
  0
LINE
  5
3F3
100
AcDbEntity
  8
0
100
AcDbLine
 62
253
  6
CONTINUOUS
 10
-15.2386915074
 20
4.7423510204
 11
-15.2386915074
 21
4.8098110038
  0
LINE
  5
3F4
100
AcDbEntity
  8
RACCORDO
100
AcDbLine
 62
253
  6
CONTINUOUS
 10
-15.2386915074
 20
4.7423510204
 11
-15.2386915074
 21
4.8098110038
  0
LINE
  5
3F5
100
AcDbEntity
  8
0
100
AcDbLine
 62
7
  6
CONTINUOUS
 10
-15.192244898
 20
4.8423510204
 11
-15.192244898
 21
4.8101698184
  0
LINE
  5
3F6
100
AcDbEntity
  8
0
100
AcDbLine
 62
7
  6
CONTINUOUS
 10
-15.092244898
 20
4.8093024315
 11
-15.092244898
 21
4.8423510204
  0
LINE
  5
3F7
100
AcDbEntity
  8
RACCORDO
100
AcDbLine
 62
7
  6
CONTINUOUS
 10
-15.092244898
 20
4.8093024315
 11
-15.092244898
 21
4.8423510204
  0
LINE
  5
3F8
100
AcDbEntity
  8
RACCORDO
100
AcDbLine
 62
7
  6
CONTINUOUS
 10
-15.0748342087
 20
41.3423510204
 11
-15.0748342087
 21
41.2423510204
  0
LINE
  5
3F9
100
AcDbEntity
  8
ASSI
100
AcDbLine
 62
7
  6
CONTINUOUS
 10
-15.0748342087
 20
41.3423510204
 11
-15.0748342087
 21
41.2423510204
  0
LINE
  5
3FA
100
AcDbEntity
  8
RACCORDO
100
AcDbLine
 62
7
  6
CONTINUOUS
 10
-14.9962493523
 20
4.8423510204
 11
-14.9962493523
 21
4.7423510204
  0
LINE
  5
3FB
100
AcDbEntity
  8
ASSI
100
AcDbLine
 62
7
  6
CONTINUOUS
 10
-14.9962493523
 20
4.8423510204
 11
-14.9962493523
 21
4.7423510204
  0
LINE
  5
3FC
100
AcDbEntity
  8
0
100
AcDbLine
 62
253
  6
CONTINUOUS
 10
-14.792244898
 20
5.726383102
 11
-14.792244898
 21
5.7923510204
  0
LINE
  5
3FD
100
AcDbEntity
  8
RACCORDO
100
AcDbLine
 62
253
  6
CONTINUOUS
 10
-14.792244898
 20
5.726383102
 11
-14.792244898
 21
5.7923510204
  0
LINE
  5
3FE
100
AcDbEntity
  8
0
100
AcDbLine
 62
253
  6
CONTINUOUS
 10
-14.792244898
 20
40.2923510204
 11
-14.792244898
 21
40.3423510204
  0
LINE
  5
3FF
100
AcDbEntity
  8
RACCORDO
100
AcDbLine
 62
253
  6
CONTINUOUS
 10
-14.792244898
 20
40.2923510204
 11
-14.792244898
 21
40.3423510204
  0
LINE
  5
400
100
AcDbEntity
  8
0
100
AcDbLine
 62
253
  6
CONTINUOUS
 10
-14.5937691328
 20
42.9268377
 11
-14.5932530958
 21
43.0945020126
  0
LINE
  5
401
100
AcDbEntity
  8
0
100
AcDbLine
 62
253
  6
CONTINUOUS
 10
-11.0966975361
 20
40.5462923024
 11
-11.1099984522
 21
40.5014139263
  0
LINE
  5
402
100
AcDbEntity
  8
RACCORDO
100
AcDbLine
 62
253
  6
CONTINUOUS
 10
-11.0966975361
 20
40.5462923024
 11
-11.1099984522
 21
40.5014139263
  0
LINE
  5
403
100
AcDbEntity
  8
DRAFT
100
AcDbLine
 62
7
  6
CONTINUOUS
 10
-22.7160623006
 20
2.2209626893
 11
-22.742244898
 21
2.1423510204
  0
LINE
  5
404
100
AcDbEntity
  8
CURVE
100
AcDbLine
 62
253
  6
CONTINUOUS
 10
-22.5874830024
 20
13.6590177904
 11
-22.4017687084
 21
13.9066368232
  0
LINE
  5
405
100
AcDbEntity
  8
CURVE
100
AcDbLine
 62
253
  6
CONTINUOUS
 10
-22.092244898
 20
17.7756845604
 11
-22.277959192
 21
17.5899703632
  0
LINE
  5
406
100
AcDbEntity
  8
CURVE
100
AcDbLine
 62
253
  6
CONTINUOUS
 10
-22.6493877606
 20
17.1256845604
 11
-22.835102074
 21
16.9399703632
  0
LINE
  5
407
100
AcDbEntity
  8
SMUSSO
100
AcDbLine
 62
7
  6
CONTINUOUS
 10
-12.842244898
 20
26.5423510204
 11
-13.342244898
 21
26.0423510204
  0
LINE
  5
408
100
AcDbEntity
  8
ASSI
100
AcDbLine
 62
7
  6
CONTINUOUS
 10
-12.842244898
 20
26.5423510204
 11
-13.342244898
 21
26.0423510204
  0
LINE
  5
409
100
AcDbEntity
  8
SMUSSO
100
AcDbLine
 62
7
  6
CONTINUOUS
 10
-17.842244898
 20
21.5423510204
 11
-17.342244898
 21
22.0423510204
  0
LINE
  5
40A
100
AcDbEntity
  8
ASSI
100
AcDbLine
 62
7
  6
CONTINUOUS
 10
-17.842244898
 20
21.5423510204
 11
-17.342244898
 21
22.0423510204
  0
LINE
  5
40B
100
AcDbEntity
  8
CURVE
100
AcDbLine
 62
253
  6
CONTINUOUS
 10
-22.277959192
 20
16.4756845604
 11
-22.092244898
 21
16.6613987575
  0
LINE
  5
40C
100
AcDbEntity
  8
CURVE
100
AcDbLine
 62
253
  6
CONTINUOUS
 10
-22.029744898
 20
23.0423510204
 11
-21.842244898
 21
23.1048510204
  0
LINE
  5
40D
100
AcDbEntity
  8
0
100
AcDbLine
 62
7
  6
CONTINUOUS
 10
-13.692244898
 20
20.5423510204
 11
-16.692244898
 21
20.5423510204
  0
LINE
  5
40E
100
AcDbEntity
  8
SMUSSO
100
AcDbLine
 62
7
  6
CONTINUOUS
 10
-17.342244898
 20
20.7923510204
 11
-13.342244898
 21
20.7923510204
  0
LINE
  5
40F
100
AcDbEntity
  8
ASSI
100
AcDbLine
 62
7
  6
CONTINUOUS
 10
-17.342244898
 20
20.7923510204
 11
-13.342244898
 21
20.7923510204
  0
LINE
  5
410
100
AcDbEntity
  8
RACCORDO
100
AcDbLine
 62
7
  6
CONTINUOUS
 10
-2.3791660198
 20
21.1923510204
 11
-3.292244898
 21
21.1923510204
  0
LINE
  5
411
100
AcDbEntity
  8
ASSI
100
AcDbLine
 62
7
  6
CONTINUOUS
 10
-2.3791660198
 20
21.1923510204
 11
-3.292244898
 21
21.1923510204
  0
LINE
  5
412
100
AcDbEntity
  8
CURVE
100
AcDbLine
 62
253
  6
CONTINUOUS
 10
-2.0462113757
 20
21.2185413639
 11
-2.0591760211
 21
21.2185413639
  0
LINE
  5
413
100
AcDbEntity
  8
SMUSSO
100
AcDbLine
 62
7
  6
CONTINUOUS
 10
-17.842244898
 20
21.2923510204
 11
-12.842244898
 21
21.2923510204
  0
LINE
  5
414
100
AcDbEntity
  8
ASSI
100
AcDbLine
 62
7
  6
CONTINUOUS
 10
-17.842244898
 20
21.2923510204
 11
-12.842244898
 21
21.2923510204
  0
LINE
  5
415
100
AcDbEntity
  8
CURVE
100
AcDbLine
 62
253
  6
CONTINUOUS
 10
-23.279744898
 20
23.2923510204
 11
-23.092244898
 21
23.2298510204
  0
LINE
  5
416
100
AcDbEntity
  8
CURVE
100
AcDbLine
 62
253
  6
CONTINUOUS
 10
-22.404744898
 20
23.1048510204
 11
-22.217244898
 21
23.0423510204
  0
LINE
  5
417
100
AcDbEntity
  8
DRAFT
100
AcDbLine
 62
7
  6
CONTINUOUS
 10
-22.742244898
 20
43.9423510204
 11
-22.7160623006
 21
43.8637393515
  0
LWPOLYLINE
  5
418
100
AcDbEntity
  8
0
100
AcDbPolyline
 62
253
  6
CONTINUOUS
 90
5
 70
0
 10
-11.0966975361
 20
5.5384097384
 10
-11.1099984522
 20
5.5832881145
 10
-11.1318597224
 20
5.6256163508
 10
-11.1617849629
 20
5.6641374421
 10
-11.1989227072
 20
5.6975368495
  0
LWPOLYLINE
  5
419
100
AcDbEntity
  8
RACCORDO
100
AcDbPolyline
 62
253
  6
CONTINUOUS
 90
5
 70
0
 10
-11.0966975361
 20
5.5384097384
 10
-11.1099984522
 20
5.5832881145
 10
-11.1318597224
 20
5.6256163508
 10
-11.1617849629
 20
5.6641374421
 10
-11.1989227072
 20
5.6975368495
  0
LINE
  5
41A
100
AcDbEntity
  8
0
100
AcDbLine
 62
7
  6
CONTINUOUS
 10
-13.692244898
 20
7.5423510204
 11
-13.692244898
 21
10.5423510204
  0
LINE
  5
41B
100
AcDbEntity
  8
0
100
AcDbLine
 62
7
  6
CONTINUOUS
 10
-13.692244898
 20
12.5423510204
 11
-13.692244898
 21
15.5423510204
  0
LINE
  5
41C
100
AcDbEntity
  8
0
100
AcDbLine
 62
7
  6
CONTINUOUS
 10
-13.692244898
 20
17.5423510204
 11
-13.692244898
 21
20.5423510204
  0
LINE
  5
41D
100
AcDbEntity
  8
0
100
AcDbLine
 62
7
  6
CONTINUOUS
 10
-13.692244898
 20
22.5423510204
 11
-13.692244898
 21
25.5423510204
  0
LINE
  5
41E
100
AcDbEntity
  8
SMUSSO
100
AcDbLine
 62
7
  6
CONTINUOUS
 10
-13.342244898
 20
26.0423510204
 11
-13.342244898
 21
22.0423510204
  0
LINE
  5
41F
100
AcDbEntity
  8
ASSI
100
AcDbLine
 62
7
  6
CONTINUOUS
 10
-13.342244898
 20
26.0423510204
 11
-13.342244898
 21
22.0423510204
  0
LINE
  5
420
100
AcDbEntity
  8
SMUSSO
100
AcDbLine
 62
7
  6
CONTINUOUS
 10
-13.342244898
 20
20.7923510204
 11
-13.342244898
 21
17.2923510204
  0
LINE
  5
421
100
AcDbEntity
  8
ASSI
100
AcDbLine
 62
7
  6
CONTINUOUS
 10
-13.342244898
 20
20.7923510204
 11
-13.342244898
 21
17.2923510204
  0
LINE
  5
422
100
AcDbEntity
  8
SMUSSO
100
AcDbLine
 62
7
  6
CONTINUOUS
 10
-13.342244898
 20
15.7923510204
 11
-13.342244898
 21
12.2923510204
  0
LINE
  5
423
100
AcDbEntity
  8
ASSI
100
AcDbLine
 62
7
  6
CONTINUOUS
 10
-13.342244898
 20
15.7923510204
 11
-13.342244898
 21
12.2923510204
  0
LINE
  5
424
100
AcDbEntity
  8
SMUSSO
100
AcDbLine
 62
7
  6
CONTINUOUS
 10
-13.342244898
 20
10.7923510204
 11
-13.342244898
 21
7.2923510204
  0
LINE
  5
425
100
AcDbEntity
  8
ASSI
100
AcDbLine
 62
7
  6
CONTINUOUS
 10
-13.342244898
 20
10.7923510204
 11
-13.342244898
 21
7.2923510204
  0
LWPOLYLINE
  5
426
100
AcDbEntity
  8
ASSI
100
AcDbPolyline
 62
7
  6
CONTINUOUS
 90
17
 70
0
 10
-17.4481776307
 20
-0.7084224043
 10
-17.4477515294
 20
-0.7056370093
 10
-17.4466542009
 20
-0.7021871219
 10
-17.4448666123
 20
-0.6980727421
 10
-17.442369093
 20
-0.6933068115
 10
-17.4391455514
 20
-0.6878763886
 10
-17.4351875808
 20
-0.6817426485
 10
-17.4304852743
 20
-0.6748985117
 10
-17.4250286691
 20
-0.6673510577
 10
-17.4188174928
 20
-0.6590826996
 10
-17.4118640713
 20
-0.6501127385
 10
-17.4041533221
 20
-0.6404218733
 10
-17.3956373462
 20
-0.6299346133
 10
-17.3863019904
 20
-0.6186515497
 10
-17.3761434198
 20
-0.6065720914
 10
-17.365112863
 20
-0.5936189741
 10
-17.3531979891
 20
-0.5797904453
  0
LINE
  5
427
100
AcDbEntity
  8
CURVE
100
AcDbLine
 62
253
  6
CONTINUOUS
 10
-23.2065306233
 20
18.0542555462
 11
-23.0208163487
 21
18.1471129547
  0
LINE
  5
428
100
AcDbEntity
  8
SMUSSO
100
AcDbLine
 62
7
  6
CONTINUOUS
 10
-12.842244898
 20
21.5423510204
 11
-17.842244898
 21
21.5423510204
  0
LINE
  5
429
100
AcDbEntity
  8
ASSI
100
AcDbLine
 62
7
  6
CONTINUOUS
 10
-12.842244898
 20
21.5423510204
 11
-17.842244898
 21
21.5423510204
  0
LINE
  5
42A
100
AcDbEntity
  8
CURVE
100
AcDbLine
 62
253
  6
CONTINUOUS
 10
-1.9998378392
 20
21.8078271828
 11
-1.9771497108
 21
21.8078271828
  0
LINE
  5
42B
100
AcDbEntity
  8
RACCORDO
100
AcDbLine
 62
7
  6
CONTINUOUS
 10
-2.3791660198
 20
21.8923510204
 11
-3.292244898
 21
21.8923510204
  0
LINE
  5
42C
100
AcDbEntity
  8
ASSI
100
AcDbLine
 62
7
  6
CONTINUOUS
 10
-2.3791660198
 20
21.8923510204
 11
-3.292244898
 21
21.8923510204
  0
LINE
  5
42D
100
AcDbEntity
  8
SMUSSO
100
AcDbLine
 62
7
  6
CONTINUOUS
 10
-13.342244898
 20
22.0423510204
 11
-17.342244898
 21
22.0423510204
  0
LINE
  5
42E
100
AcDbEntity
  8
ASSI
100
AcDbLine
 62
7
  6
CONTINUOUS
 10
-13.342244898
 20
22.0423510204
 11
-17.342244898
 21
22.0423510204
  0
LINE
  5
42F
100
AcDbEntity
  8
CURVE
100
AcDbLine
 62
253
  6
CONTINUOUS
 10
-1.9803908718
 20
22.3077082895
 11
-1.9965966779
 21
22.3077082895
  0
LINE
  5
430
100
AcDbEntity
  8
CURVE
100
AcDbLine
 62
253
  6
CONTINUOUS
 10
-2.0364878927
 20
22.4256842653
 11
-2.0591760211
 21
22.4256842653
  0
LINE
  5
431
100
AcDbEntity
  8
0
100
AcDbLine
 62
7
  6
CONTINUOUS
 10
-16.692244898
 20
22.5423510204
 11
-13.692244898
 21
22.5423510204
  0
LINE
  5
432
100
AcDbEntity
  8
CURVE
100
AcDbLine
 62
253
  6
CONTINUOUS
 10
-2.0295069301
 20
22.604255716
 11
-2.0068188018
 21
22.604255716
  0
LINE
  5
433
100
AcDbEntity
  8
CURVE
100
AcDbLine
 62
253
  6
CONTINUOUS
 10
-1.9998378392
 20
22.9252081422
 11
-1.9771497108
 21
22.9252081422
  0
LINE
  5
434
100
AcDbEntity
  8
CURVE
100
AcDbLine
 62
253
  6
CONTINUOUS
 10
-22.217244898
 20
23.0423510204
 11
-22.029744898
 21
23.0423510204
  0
LINE
  5
435
100
AcDbEntity
  8
CURVE
100
AcDbLine
 62
253
  6
CONTINUOUS
 10
-23.092244898
 20
23.2298510204
 11
-23.029744898
 21
23.2298510204
  0
LINE
  5
436
100
AcDbEntity
  8
CURVE
100
AcDbLine
 62
253
  6
CONTINUOUS
 10
-2.0295069301
 20
23.2542557935
 11
-2.0068188018
 21
23.2542557935
  0
LWPOLYLINE
  5
437
100
AcDbEntity
  8
CURVE
100
AcDbPolyline
 62
7
  6
CONTINUOUS
 90
15
 70
0
 10
-1.9840014357
 20
17.9235911345
 10
-1.9842302032
 20
17.9236865001
 10
-1.9844594693
 20
17.9239852244
 10
-1.9846889917
 20
17.9245062487
 10
-1.9849185281
 20
17.9252685143
 10
-1.9851478362
 20
17.9262909625
 10
-1.9853766735
 20
17.9275925345
 10
-1.9856047979
 20
17.9291921716
 10
-1.985831967
 20
17.9311088152
 10
-1.9860579385
 20
17.9333614065
 10
-1.9862824701
 20
17.9359688868
 10
-1.9865053195
 20
17.9389501974
 10
-1.9867262443
 20
17.9423242796
 10
-1.9869450022
 20
17.9461100747
 10
-1.9871474502
 20
17.9500368825
  0
LINE
  5
438
100
AcDbEntity
  8
SMUSSO
100
AcDbLine
 62
7
  6
CONTINUOUS
 10
-17.842244898
 20
26.5423510204
 11
-17.342244898
 21
26.0423510204
  0
LINE
  5
439
100
AcDbEntity
  8
ASSI
100
AcDbLine
 62
7
  6
CONTINUOUS
 10
-17.842244898
 20
26.5423510204
 11
-17.342244898
 21
26.0423510204
  0
LINE
  5
43A
100
AcDbEntity
  8
SMUSSO
100
AcDbLine
 62
7
  6
CONTINUOUS
 10
-12.842244898
 20
21.5423510204
 11
-13.342244898
 21
22.0423510204
  0
LINE
  5
43B
100
AcDbEntity
  8
ASSI
100
AcDbLine
 62
7
  6
CONTINUOUS
 10
-12.842244898
 20
21.5423510204
 11
-13.342244898
 21
22.0423510204
  0
LINE
  5
43C
100
AcDbEntity
  8
0
100
AcDbLine
 62
253
  6
CONTINUOUS
 10
-11.5912367001
 20
43.0945020126
 11
-11.5907206631
 21
42.9268377
  0
LINE
  5
43D
100
AcDbEntity
  8
SMUSSO
100
AcDbLine
 62
7
  6
CONTINUOUS
 10
-12.842244898
 20
26.5423510204
 11
-12.842244898
 21
21.5423510204
  0
LINE
  5
43E
100
AcDbEntity
  8
ASSI
100
AcDbLine
 62
7
  6
CONTINUOUS
 10
-12.842244898
 20
26.5423510204
 11
-12.842244898
 21
21.5423510204
  0
LINE
  5
43F
100
AcDbEntity
  8
SMUSSO
100
AcDbLine
 62
7
  6
CONTINUOUS
 10
-12.842244898
 20
21.2923510204
 11
-12.842244898
 21
16.7923510204
  0
LINE
  5
440
100
AcDbEntity
  8
ASSI
100
AcDbLine
 62
7
  6
CONTINUOUS
 10
-12.842244898
 20
21.2923510204
 11
-12.842244898
 21
16.7923510204
  0
LINE
  5
441
100
AcDbEntity
  8
SMUSSO
100
AcDbLine
 62
7
  6
CONTINUOUS
 10
-12.842244898
 20
16.2923510204
 11
-12.842244898
 21
11.7923510204
  0
LINE
  5
442
100
AcDbEntity
  8
ASSI
100
AcDbLine
 62
7
  6
CONTINUOUS
 10
-12.842244898
 20
16.2923510204
 11
-12.842244898
 21
11.7923510204
  0
LINE
  5
443
100
AcDbEntity
  8
SMUSSO
100
AcDbLine
 62
7
  6
CONTINUOUS
 10
-12.842244898
 20
11.2923510204
 11
-12.842244898
 21
6.7923510204
  0
LINE
  5
444
100
AcDbEntity
  8
ASSI
100
AcDbLine
 62
7
  6
CONTINUOUS
 10
-12.842244898
 20
11.2923510204
 11
-12.842244898
 21
6.7923510204
  0
LINE
  5
445
100
AcDbEntity
  8
0
100
AcDbLine
 62
253
  6
CONTINUOUS
 10
-11.392244898
 20
40.3423510204
 11
-11.392244898
 21
40.2923510204
  0
LINE
  5
446
100
AcDbEntity
  8
RACCORDO
100
AcDbLine
 62
253
  6
CONTINUOUS
 10
-11.392244898
 20
40.3423510204
 11
-11.392244898
 21
40.2923510204
  0
LINE
  5
447
100
AcDbEntity
  8
0
100
AcDbLine
 62
253
  6
CONTINUOUS
 10
-11.392244898
 20
5.726383102
 11
-11.392244898
 21
5.7923510204
  0
LINE
  5
448
100
AcDbEntity
  8
RACCORDO
100
AcDbLine
 62
253
  6
CONTINUOUS
 10
-11.392244898
 20
5.726383102
 11
-11.392244898
 21
5.7923510204
  0
LINE
  5
449
100
AcDbEntity
  8
RACCORDO
100
AcDbLine
 62
7
  6
CONTINUOUS
 10
-11.1882404437
 20
4.8423510204
 11
-11.1882404437
 21
4.7423510204
  0
LINE
  5
44A
100
AcDbEntity
  8
ASSI
100
AcDbLine
 62
7
  6
CONTINUOUS
 10
-11.1882404437
 20
4.8423510204
 11
-11.1882404437
 21
4.7423510204
  0
LINE
  5
44B
100
AcDbEntity
  8
RACCORDO
100
AcDbLine
 62
7
  6
CONTINUOUS
 10
-11.1096555872
 20
41.3423510204
 11
-11.1096555872
 21
41.2423510204
  0
LINE
  5
44C
100
AcDbEntity
  8
ASSI
100
AcDbLine
 62
7
  6
CONTINUOUS
 10
-11.1096555872
 20
41.3423510204
 11
-11.1096555872
 21
41.2423510204
  0
LINE
  5
44D
100
AcDbEntity
  8
0
100
AcDbLine
 62
7
  6
CONTINUOUS
 10
-11.092244898
 20
4.8423510204
 11
-11.092244898
 21
4.8093024315
  0
LINE
  5
44E
100
AcDbEntity
  8
RACCORDO
100
AcDbLine
 62
7
  6
CONTINUOUS
 10
-11.092244898
 20
4.8423510204
 11
-11.092244898
 21
4.8093024315
  0
LINE
  5
44F
100
AcDbEntity
  8
0
100
AcDbLine
 62
253
  6
CONTINUOUS
 10
-11.5907206631
 20
3.1578643408
 11
-11.5912367001
 21
2.9902000282
  0
LWPOLYLINE
  5
450
100
AcDbEntity
  8
ASSI
100
AcDbPolyline
 62
7
  6
CONTINUOUS
 90
18
 70
0
 10
-8.7363121652
 20
46.7931244451
 10
-8.7367390865
 20
46.7903325159
 10
-8.7378371975
 20
46.7868824377
 10
-8.7396234608
 20
46.7827742107
 10
-8.7421148839
 20
46.778020495
 10
-8.7453257407
 20
46.7726086304
 10
-8.7492648708
 20
46.766500636
 10
-8.7539408255
 20
46.7596920697
 10
-8.759363134
 20
46.7521873736
 10
-8.7655370766
 20
46.7439618938
 10
-8.7724522049
 20
46.7350360131
 10
-8.7801241367
 20
46.7253893487
 10
-8.7886068725
 20
46.7149360985
 10
-8.7979209649
 20
46.7036719945
 10
-8.80806902
 20
46.6916013047
 10
-8.8190941423
 20
46.6786510308
 10
-8.8310071862
 20
46.6648206268
 10
-8.8438165581
 20
46.6501106388
  0
LINE
  5
451
100
AcDbEntity
  8
CURVE
100
AcDbLine
 62
253
  6
CONTINUOUS
 10
-20.992244898
 20
14.2209224652
 11
-20.7208163427
 21
14.4923510204
  0
LINE
  5
452
100
AcDbEntity
  8
CURVE
100
AcDbLine
 62
253
  6
CONTINUOUS
 10
-23.392244898
 20
11.6780653725
 11
-23.2065306233
 21
11.8637795697
  0
LINE
  5
453
100
AcDbEntity
  8
SMUSSO
100
AcDbLine
 62
7
  6
CONTINUOUS
 10
-17.842244898
 20
16.7923510204
 11
-17.342244898
 21
17.2923510204
  0
LINE
  5
454
100
AcDbEntity
  8
ASSI
100
AcDbLine
 62
7
  6
CONTINUOUS
 10
-17.842244898
 20
16.7923510204
 11
-17.342244898
 21
17.2923510204
  0
LINE
  5
455
100
AcDbEntity
  8
CURVE
100
AcDbLine
 62
253
  6
CONTINUOUS
 10
-23.2065306233
 20
10.935208119
 11
-23.392244898
 21
10.7494938443
  0
LINE
  5
456
100
AcDbEntity
  8
SMUSSO
100
AcDbLine
 62
7
  6
CONTINUOUS
 10
-12.842244898
 20
21.2923510204
 11
-13.342244898
 21
20.7923510204
  0
LINE
  5
457
100
AcDbEntity
  8
ASSI
100
AcDbLine
 62
7
  6
CONTINUOUS
 10
-12.842244898
 20
21.2923510204
 11
-13.342244898
 21
20.7923510204
  0
LINE
  5
458
100
AcDbEntity
  8
CURVE
100
AcDbLine
 62
253
  6
CONTINUOUS
 10
-22.092244898
 20
11.585208119
 11
-22.277959192
 21
11.3994939218
  0
LINE
  5
459
100
AcDbEntity
  8
CURVE
100
AcDbLine
 62
253
  6
CONTINUOUS
 10
-20.992244898
 20
18.4423510204
 11
-19.092244898
 21
19.3923510204
  0
LINE
  5
45A
100
AcDbEntity
  8
CURVE
100
AcDbLine
 62
253
  6
CONTINUOUS
 10
-22.277959192
 20
17.5899703632
 11
-22.463673486
 21
17.4971129547
  0
LINE
  5
45B
100
AcDbEntity
  8
CURVE
100
AcDbLine
 62
253
  6
CONTINUOUS
 10
-20.4493877875
 20
23.5423510204
 11
-20.7208163427
 21
23.5423510204
  0
LINE
  5
45C
100
AcDbEntity
  8
CURVE
100
AcDbLine
 62
253
  6
CONTINUOUS
 10
-2.0295069301
 20
23.8423510159
 11
-2.0068188018
 21
23.8423510159
  0
LINE
  5
45D
100
AcDbEntity
  8
CURVE
100
AcDbLine
 62
253
  6
CONTINUOUS
 10
-2.0591760211
 20
24.2828272442
 11
-2.0364878927
 21
24.2828272442
  0
LINE
  5
45E
100
AcDbEntity
  8
CURVE
100
AcDbLine
 62
253
  6
CONTINUOUS
 10
-1.9771497108
 20
24.3366367031
 11
-1.9998378392
 21
24.3366367031
  0
LINE
  5
45F
100
AcDbEntity
  8
CURVE
100
AcDbLine
 62
253
  6
CONTINUOUS
 10
-19.3636734815
 20
24.4923510204
 11
-19.6351020651
 21
24.4923510204
  0
LINE
  5
460
100
AcDbEntity
  8
CURVE
100
AcDbLine
 62
253
  6
CONTINUOUS
 10
-1.9998378392
 20
25.0423510204
 11
-1.9771497108
 21
25.0423510204
  0
LINE
  5
461
100
AcDbEntity
  8
0
100
AcDbLine
 62
7
  6
CONTINUOUS
 10
-10.992244898
 20
4.8423510204
 11
-10.992244898
 21
4.8101698184
  0
LINE
  5
462
100
AcDbEntity
  8
0
100
AcDbLine
 62
253
  6
CONTINUOUS
 10
-10.9457982886
 20
4.8098110038
 11
-10.9457982886
 21
4.7423510204
  0
LINE
  5
463
100
AcDbEntity
  8
RACCORDO
100
AcDbLine
 62
253
  6
CONTINUOUS
 10
-10.9457982886
 20
4.8098110038
 11
-10.9457982886
 21
4.7423510204
  0
LINE
  5
464
100
AcDbEntity
  8
0
100
AcDbLine
 62
7
  6
CONTINUOUS
 10
-10.592244898
 20
41.3423510204
 11
-10.592244898
 21
39.6423510204
  0
LINE
  5
465
100
AcDbEntity
  8
ASSI
100
AcDbLine
 62
7
  6
CONTINUOUS
 10
-10.592244898
 20
41.3423510204
 11
-10.592244898
 21
39.6423510204
  0
LINE
  5
466
100
AcDbEntity
  8
0
100
AcDbLine
 62
7
  6
CONTINUOUS
 10
-10.592244898
 20
6.4423510204
 11
-10.592244898
 21
4.7423510204
  0
LINE
  5
467
100
AcDbEntity
  8
ASSI
100
AcDbLine
 62
7
  6
CONTINUOUS
 10
-10.592244898
 20
6.4423510204
 11
-10.592244898
 21
4.7423510204
  0
LINE
  5
468
100
AcDbEntity
  8
RACCORDO
100
AcDbLine
 62
7
  6
CONTINUOUS
 10
-10.092244898
 20
0.7043117817
 11
-10.092244898
 21
2.0423510204
  0
LINE
  5
469
100
AcDbEntity
  8
RACCORDO
100
AcDbLine
 62
7
  6
CONTINUOUS
 10
-10.092244898
 20
44.0423510204
 11
-10.092244898
 21
45.3803902591
  0
LINE
  5
46A
100
AcDbEntity
  8
0
100
AcDbLine
 62
7
  6
CONTINUOUS
 10
-9.6289005343
 20
42.9056953841
 11
-9.6289005343
 21
42.7056953841
  0
LINE
  5
46B
100
AcDbEntity
  8
DRAFT
100
AcDbLine
 62
7
  6
CONTINUOUS
 10
-9.6289005343
 20
42.9056953841
 11
-9.6289005343
 21
42.7056953841
  0
LINE
  5
46C
100
AcDbEntity
  8
0
100
AcDbLine
 62
7
  6
CONTINUOUS
 10
-9.6289005343
 20
3.3790066568
 11
-9.6289005343
 21
3.1790066568
  0
LINE
  5
46D
100
AcDbEntity
  8
DRAFT
100
AcDbLine
 62
7
  6
CONTINUOUS
 10
-9.6289005343
 20
3.3790066568
 11
-9.6289005343
 21
3.1790066568
  0
LINE
  5
46E
100
AcDbEntity
  8
DRAFT
100
AcDbLine
 62
7
  6
CONTINUOUS
 10
-9.592244898
 20
43.0868580461
 11
-9.592244898
 21
43.0423510204
  0
LINE
  5
46F
100
AcDbEntity
  8
0
100
AcDbLine
 62
7
  6
CONTINUOUS
 10
-9.592244898
 20
42.9423510204
 11
-9.592244898
 21
42.7423510204
  0
LINE
  5
470
100
AcDbEntity
  8
DRAFT
100
AcDbLine
 62
7
  6
CONTINUOUS
 10
-9.592244898
 20
42.9423510204
 11
-9.592244898
 21
42.7423510204
  0
LINE
  5
471
100
AcDbEntity
  8
0
100
AcDbLine
 62
7
  6
CONTINUOUS
 10
-9.592244898
 20
3.3423510204
 11
-9.592244898
 21
3.1423510204
  0
LINE
  5
472
100
AcDbEntity
  8
DRAFT
100
AcDbLine
 62
7
  6
CONTINUOUS
 10
-9.592244898
 20
3.3423510204
 11
-9.592244898
 21
3.1423510204
  0
LINE
  5
473
100
AcDbEntity
  8
ASSI
100
AcDbLine
 62
7
  6
CONTINUOUS
 10
-9.592244898
 20
-0.7518311498
 11
-9.592244898
 21
0.7084311252
  0
LINE
  5
474
100
AcDbEntity
  8
DRAFT
100
AcDbLine
 62
7
  6
CONTINUOUS
 10
-9.592244898
 20
2.9978439947
 11
-9.592244898
 21
3.0423510204
  0
LINE
  5
475
100
AcDbEntity
  8
ASSI
100
AcDbLine
 62
7
  6
CONTINUOUS
 10
-9.592244898
 20
45.3762709156
 11
-9.592244898
 21
46.8365331906
  0
LWPOLYLINE
  5
476
100
AcDbEntity
  8
0
100
AcDbPolyline
 62
253
  6
CONTINUOUS
 90
5
 70
0
 10
-15.0877922598
 20
5.5384097384
 10
-15.0744913437
 20
5.5832881145
 10
-15.0526300735
 20
5.6256163508
 10
-15.022704833
 20
5.6641374421
 10
-14.9855670887
 20
5.6975368495
  0
LWPOLYLINE
  5
477
100
AcDbEntity
  8
RACCORDO
100
AcDbPolyline
 62
253
  6
CONTINUOUS
 90
5
 70
0
 10
-15.0877922598
 20
5.5384097384
 10
-15.0744913437
 20
5.5832881145
 10
-15.0526300735
 20
5.6256163508
 10
-15.022704833
 20
5.6641374421
 10
-14.9855670887
 20
5.6975368495
  0
LINE
  5
478
100
AcDbEntity
  8
0
100
AcDbLine
 62
7
  6
CONTINUOUS
 10
-15.0828172456
 20
4.8107335219
 11
-15.073248382
 21
4.8423510204
  0
LINE
  5
479
100
AcDbEntity
  8
RACCORDO
100
AcDbLine
 62
7
  6
CONTINUOUS
 10
-15.0828172456
 20
4.8107335219
 11
-15.073248382
 21
4.8423510204
  0
LINE
  5
47A
100
AcDbEntity
  8
DRAFT
100
AcDbLine
 62
7
  6
CONTINUOUS
 10
-3.442244898
 20
43.9423510204
 11
-3.4684274954
 21
43.8637393515
  0
LINE
  5
47B
100
AcDbEntity
  8
CURVE
100
AcDbLine
 62
253
  6
CONTINUOUS
 10
-2.0591760211
 20
25.2423510159
 11
-2.0364878927
 21
25.2423510159
  0
LINE
  5
47C
100
AcDbEntity
  8
0
100
AcDbLine
 62
7
  6
CONTINUOUS
 10
-13.692244898
 20
25.5423510204
 11
-16.692244898
 21
25.5423510204
  0
LINE
  5
47D
100
AcDbEntity
  8
SMUSSO
100
AcDbLine
 62
7
  6
CONTINUOUS
 10
-17.342244898
 20
26.0423510204
 11
-13.342244898
 21
26.0423510204
  0
LINE
  5
47E
100
AcDbEntity
  8
ASSI
100
AcDbLine
 62
7
  6
CONTINUOUS
 10
-17.342244898
 20
26.0423510204
 11
-13.342244898
 21
26.0423510204
  0
LINE
  5
47F
100
AcDbEntity
  8
RACCORDO
100
AcDbLine
 62
7
  6
CONTINUOUS
 10
-2.3791660198
 20
26.1923510204
 11
-3.292244898
 21
26.1923510204
  0
LINE
  5
480
100
AcDbEntity
  8
ASSI
100
AcDbLine
 62
7
  6
CONTINUOUS
 10
-2.3791660198
 20
26.1923510204
 11
-3.292244898
 21
26.1923510204
  0
LINE
  5
481
100
AcDbEntity
  8
SMUSSO
100
AcDbLine
 62
7
  6
CONTINUOUS
 10
-17.842244898
 20
26.5423510204
 11
-12.842244898
 21
26.5423510204
  0
LINE
  5
482
100
AcDbEntity
  8
ASSI
100
AcDbLine
 62
7
  6
CONTINUOUS
 10
-17.842244898
 20
26.5423510204
 11
-12.842244898
 21
26.5423510204
  0
LINE
  5
483
100
AcDbEntity
  8
DRAFT
100
AcDbLine
 62
7
  6
CONTINUOUS
 10
-3.4684274954
 20
2.2209626893
 11
-3.442244898
 21
2.1423510204
  0
LINE
  5
484
100
AcDbEntity
  8
0
100
AcDbLine
 62
253
  6
CONTINUOUS
 10
-15.0741526842
 20
40.5005773856
 11
-15.0876872239
 21
40.5457563249
  0
LINE
  5
485
100
AcDbEntity
  8
RACCORDO
100
AcDbLine
 62
253
  6
CONTINUOUS
 10
-15.0741526842
 20
40.5005773856
 11
-15.0876872239
 21
40.5457563249
  0
LINE
  5
486
100
AcDbEntity
  8
RACCORDO
100
AcDbLine
 62
7
  6
CONTINUOUS
 10
-9.0791545963
 20
42.3554527452
 11
-9.0791545963
 21
41.2554413221
  0
LINE
  5
487
100
AcDbEntity
  8
ASSI
100
AcDbLine
 62
7
  6
CONTINUOUS
 10
-9.0791545963
 20
42.3554527452
 11
-9.0791545963
 21
41.2554413221
  0
LINE
  5
488
100
AcDbEntity
  8
RACCORDO
100
AcDbLine
 62
7
  6
CONTINUOUS
 10
-9.0791545963
 20
3.7292492956
 11
-9.0791545963
 21
4.5292721418
  0
LINE
  5
489
100
AcDbEntity
  8
ASSI
100
AcDbLine
 62
7
  6
CONTINUOUS
 10
-9.0791545963
 20
3.7292492956
 11
-9.0791545963
 21
4.5292721418
  0
LINE
  5
48A
100
AcDbEntity
  8
ASSI
100
AcDbLine
 62
253
  6
CONTINUOUS
 10
-8.7363121652
 20
-0.7084224043
 11
-8.7363121652
 21
0.7084528535
  0
LINE
  5
48B
100
AcDbEntity
  8
ASSI
100
AcDbLine
 62
253
  6
CONTINUOUS
 10
-8.7363121652
 20
45.3762491873
 11
-8.7363121652
 21
46.7931244451
  0
LINE
  5
48C
100
AcDbEntity
  8
DRAFT
100
AcDbLine
 62
7
  6
CONTINUOUS
 10
-8.692244898
 20
-0.7576489796
 11
-8.692244898
 21
0.6423510204
  0
LINE
  5
48D
100
AcDbEntity
  8
DRAFT
100
AcDbLine
 62
7
  6
CONTINUOUS
 10
-8.692244898
 20
45.4423510204
 11
-8.692244898
 21
46.8423510204
  0
LINE
  5
48E
100
AcDbEntity
  8
ASSI
100
AcDbLine
 62
7
  6
CONTINUOUS
 10
-8.592244898
 20
41.6423510204
 11
-8.592244898
 21
41.2554413221
  0
LINE
  5
48F
100
AcDbEntity
  8
ASSI
100
AcDbLine
 62
253
  6
CONTINUOUS
 10
-7.592244898
 20
41.6423510204
 11
-7.592244898
 21
41.2554413221
  0
LWPOLYLINE
  5
490
100
AcDbEntity
  8
RACCORDO
100
AcDbPolyline
 62
7
  6
CONTINUOUS
 90
5
 70
0
 10
-20.9831283716
 20
1.2832344941
 10
-20.9596095155
 20
1.3192820601
 10
-20.935624959
 20
1.3557052566
 10
-20.9111747019
 20
1.3924330362
 10
-20.8861994548
 20
1.429362136
  0
LINE
  5
491
100
AcDbEntity
  8
SMUSSO
100
AcDbLine
 62
7
  6
CONTINUOUS
 10
-17.842244898
 20
11.7923510204
 11
-17.342244898
 21
12.2923510204
  0
LINE
  5
492
100
AcDbEntity
  8
ASSI
100
AcDbLine
 62
7
  6
CONTINUOUS
 10
-17.842244898
 20
11.7923510204
 11
-17.342244898
 21
12.2923510204
  0
LINE
  5
493
100
AcDbEntity
  8
SMUSSO
100
AcDbLine
 62
7
  6
CONTINUOUS
 10
-12.842244898
 20
16.2923510204
 11
-13.342244898
 21
15.7923510204
  0
LINE
  5
494
100
AcDbEntity
  8
ASSI
100
AcDbLine
 62
7
  6
CONTINUOUS
 10
-12.842244898
 20
16.2923510204
 11
-13.342244898
 21
15.7923510204
  0
LINE
  5
495
100
AcDbEntity
  8
CURVE
100
AcDbLine
 62
253
  6
CONTINUOUS
 10
-23.2065306233
 20
11.8637795697
 11
-23.0208163487
 21
11.9566366683
  0
LWPOLYLINE
  5
496
100
AcDbEntity
  8
CURVE
100
AcDbPolyline
 62
7
  6
CONTINUOUS
 90
15
 70
0
 10
-1.9829564663
 20
29.5050710465
 10
-1.9831756915
 20
29.505031821
 10
-1.983396581
 20
29.5053009105
 10
-1.9836188315
 20
29.5058793766
 10
-1.9838421394
 20
29.5067682811
 10
-1.9840662014
 20
29.5079686855
 10
-1.984290714
 20
29.5094816515
 10
-1.9845153739
 20
29.5113082407
 10
-1.9847398776
 20
29.5134495148
 10
-1.9849639218
 20
29.5159065353
 10
-1.9851872029
 20
29.5186803639
 10
-1.9854094175
 20
29.5217720622
 10
-1.9856302624
 20
29.5251826919
 10
-1.9858494339
 20
29.5289133146
 10
-1.9860666288
 20
29.5329649919
  0
LINE
  5
497
100
AcDbEntity
  8
DRAFT
100
AcDbLine
 62
7
  6
CONTINUOUS
 10
-6.8009716427
 20
3.0554413221
 11
-6.8009716427
 21
3.3423510204
  0
LINE
  5
498
100
AcDbEntity
  8
DRAFT
100
AcDbLine
 62
7
  6
CONTINUOUS
 10
-6.8009716427
 20
42.7423510204
 11
-6.8009716427
 21
43.0292607187
  0
LINE
  5
499
100
AcDbEntity
  8
RACCORDO
100
AcDbLine
 62
7
  6
CONTINUOUS
 10
-6.7340665998
 20
43.6252753036
 11
-6.7340665998
 21
42.9993691372
  0
LINE
  5
49A
100
AcDbEntity
  8
RACCORDO
100
AcDbLine
 62
7
  6
CONTINUOUS
 10
-6.7340665998
 20
3.0853329036
 11
-6.7340665998
 21
2.4594267372
  0
LINE
  5
49B
100
AcDbEntity
  8
RACCORDO
100
AcDbLine
 62
7
  6
CONTINUOUS
 10
-5.8504231961
 20
44.0383465661
 11
-5.8504231961
 21
42.9993691372
  0
LINE
  5
49C
100
AcDbEntity
  8
RACCORDO
100
AcDbLine
 62
7
  6
CONTINUOUS
 10
-5.8504231961
 20
3.0853329036
 11
-5.8504231961
 21
2.0463554747
  0
LINE
  5
49D
100
AcDbEntity
  8
DRAFT
100
AcDbLine
 62
7
  6
CONTINUOUS
 10
-5.7835181532
 20
3.3423510204
 11
-5.7835181532
 21
2.2209626893
  0
LINE
  5
49E
100
AcDbEntity
  8
DRAFT
100
AcDbLine
 62
7
  6
CONTINUOUS
 10
-5.7835181532
 20
42.7423510204
 11
-5.7835181532
 21
43.8637393515
  0
LINE
  5
49F
100
AcDbEntity
  8
0
100
AcDbLine
 62
7
  6
CONTINUOUS
 10
-5.692244898
 20
43.8923510204
 11
-5.692244898
 21
42.7423510204
  0
LINE
  5
4A0
100
AcDbEntity
  8
DRAFT
100
AcDbLine
 62
7
  6
CONTINUOUS
 10
-5.692244898
 20
43.8923510204
 11
-5.692244898
 21
42.7423510204
  0
LINE
  5
4A1
100
AcDbEntity
  8
0
100
AcDbLine
 62
7
  6
CONTINUOUS
 10
-5.692244898
 20
3.3423510204
 11
-5.692244898
 21
2.1923510204
  0
LINE
  5
4A2
100
AcDbEntity
  8
DRAFT
100
AcDbLine
 62
7
  6
CONTINUOUS
 10
-5.692244898
 20
3.3423510204
 11
-5.692244898
 21
2.1923510204
  0
LWPOLYLINE
  5
4A3
100
AcDbEntity
  8
ASSI
100
AcDbPolyline
 62
7
  6
CONTINUOUS
 90
17
 70
0
 10
-9.592244898
 20
-0.7087912699
 10
-9.5919133533
 20
-0.7060795583
 10
-9.5909052671
 20
-0.7026979792
 10
-9.5892011487
 20
-0.6986465324
 10
-9.5867808118
 20
-0.6939383111
 10
-9.5836277317
 20
-0.6885602222
 10
-9.5797334748
 20
-0.6824729868
 10
-9.5750878358
 20
-0.6756687412
 10
-9.5696808959
 20
-0.6681553491
 10
-9.5635136893
 20
-0.6599171229
 10
-9.5565992143
 20
-0.6509732379
 10
-9.5489227112
 20
-0.6413045187
 10
-9.5404376661
 20
-0.6308377521
 10
-9.5311318042
 20
-0.6195753912
 10
-9.5210007205
 20
-0.6075149829
 10
-9.509992699
 20
-0.5945759542
 10
-9.4980943287
 20
-0.5807560906
  0
LINE
  5
4A4
100
AcDbEntity
  8
RACCORDO
100
AcDbLine
 62
7
  6
CONTINUOUS
 10
-19.4475396659
 20
2.9594076987
 11
-19.3835181532
 21
3.0554413221
  0
LWPOLYLINE
  5
4A5
100
AcDbEntity
  8
RACCORDO
100
AcDbPolyline
 62
7
  6
CONTINUOUS
 90
3
 70
0
 10
-20.8861994548
 20
1.429362136
 10
-20.8350297281
 20
1.5037607758
 10
-20.8090213964
 20
1.5412127559
  0
LINE
  5
4A6
100
AcDbEntity
  8
RACCORDO
100
AcDbLine
 62
7
  6
CONTINUOUS
 10
-20.8090213964
 20
1.5412127559
 11
-20.7297795188
 21
1.6541671332
  0
LINE
  5
4A7
100
AcDbEntity
  8
RACCORDO
100
AcDbLine
 62
7
  6
CONTINUOUS
 10
-20.7297795188
 20
1.6541671332
 11
-20.6763456171
 21
1.7296577767
  0
LINE
  5
4A8
100
AcDbEntity
  8
CURVE
100
AcDbLine
 62
253
  6
CONTINUOUS
 10
-22.277959192
 20
11.3994939218
 11
-22.463673486
 21
11.3066366683
  0
LINE
  5
4A9
100
AcDbEntity
  8
CURVE
100
AcDbLine
 62
7
  6
CONTINUOUS
 10
-1.9952887218
 20
29.3477953104
 11
-1.9949897305
 21
29.3477953104
  0
LINE
  5
4AA
100
AcDbEntity
  8
CURVE
100
AcDbLine
 62
253
  6
CONTINUOUS
 10
-2.0397290537
 20
30.1375890861
 11
-2.0462113757
 21
30.1375890861
  0
LINE
  5
4AB
100
AcDbEntity
  8
CURVE
100
AcDbLine
 62
7
  6
CONTINUOUS
 10
-2.018907522
 20
30.3010824036
 11
-1.9991061738
 21
30.3010824036
  0
LINE
  5
4AC
100
AcDbEntity
  8
CURVE
100
AcDbLine
 62
7
  6
CONTINUOUS
 10
-1.990819408
 20
30.3211522923
 11
-1.9769292101
 21
30.3211522923
  0
LINE
  5
4AD
100
AcDbEntity
  8
RACCORDO
100
AcDbLine
 62
7
  6
CONTINUOUS
 10
-20.6763456171
 20
44.3550442641
 11
-20.7297795188
 21
44.4305349076
  0
LINE
  5
4AE
100
AcDbEntity
  8
RACCORDO
100
AcDbLine
 62
7
  6
CONTINUOUS
 10
-20.7297795188
 20
44.4305349076
 11
-20.8090213964
 21
44.5434892849
  0
LWPOLYLINE
  5
4AF
100
AcDbEntity
  8
RACCORDO
100
AcDbPolyline
 62
7
  6
CONTINUOUS
 90
7
 70
0
 10
-20.8090213964
 20
44.5434892849
 10
-20.8607585072
 20
44.6182436371
 10
-20.8861994548
 20
44.6553399048
 10
-20.9111747019
 20
44.6922690046
 10
-20.935624959
 20
44.7289967842
 10
-20.9596095155
 20
44.7654199807
 10
-20.9831283716
 20
44.8014675468
  0
LINE
  5
4B0
100
AcDbEntity
  8
RACCORDO
100
AcDbLine
 62
7
  6
CONTINUOUS
 10
-19.4475396659
 20
43.1252943421
 11
-19.3835181532
 21
43.0292607187
  0
LWPOLYLINE
  5
4B1
100
AcDbEntity
  8
RACCORDO
100
AcDbPolyline
 62
253
  6
CONTINUOUS
 90
31
 70
0
 10
-4.837873064
 20
46.8866885877
 10
-4.8374937322
 20
46.8753784372
 10
-4.8364327503
 20
46.8640991723
 10
-4.8346930154
 20
46.8528815944
 10
-4.8322792785
 20
46.8417563363
 10
-4.8291981309
 20
46.8307537788
 10
-4.8254579866
 20
46.8199039676
 10
-4.8210690592
 20
46.8092365311
 10
-4.816043334
 20
46.7987806001
 10
-4.810394535
 20
46.7885647273
 10
-4.804138088
 20
46.7786168102
 10
-4.7972910781
 20
46.7689640146
 10
-4.789872203
 20
46.7596327001
 10
-4.781901722
 20
46.7506483486
 10
-4.773401401
 20
46.7420354946
 10
-4.7643944525
 20
46.7338176578
 10
-4.7549054726
 20
46.7260172796
 10
-4.7449603737
 20
46.7186556611
 10
-4.7345863138
 20
46.7117529053
 10
-4.7238116222
 20
46.7053278622
 10
-4.7126657225
 20
46.6993980774
 10
-4.7011790517
 20
46.6939797436
 10
-4.6893829776
 20
46.6890876574
 10
-4.6773097126
 20
46.684735178
 10
-4.6649922265
 20
46.6809341911
 10
-4.6524641556
 20
46.6776950763
 10
-4.6397597116
 20
46.6750266791
 10
-4.6269135875
 20
46.6729362862
 10
-4.6139608634
 20
46.6714296061
 10
-4.6009369106
 20
46.6705107532
 10
-4.5878772947
 20
46.6701822368
  0
LINE
  5
4B2
100
AcDbEntity
  8
RACCORDO
100
AcDbLine
 62
253
  6
CONTINUOUS
 10
-4.837873064
 20
-0.8019865469
 11
-4.842244898
 21
-0.3681341278
  0
LINE
  5
4B3
100
AcDbEntity
  8
RACCORDO
100
AcDbLine
 62
253
  6
CONTINUOUS
 10
-4.5878772947
 20
-0.5854801959
 11
-4.5929678958
 21
-0.0802987104
  0
LINE
  5
4B4
100
AcDbEntity
  8
0
100
AcDbLine
 62
7
  6
CONTINUOUS
 10
-5.6555892616
 20
42.7056953841
 11
-5.6555892616
 21
41.6423510204
  0
LINE
  5
4B5
100
AcDbEntity
  8
DRAFT
100
AcDbLine
 62
7
  6
CONTINUOUS
 10
-5.6555892616
 20
42.7056953841
 11
-5.6555892616
 21
41.6423510204
  0
LINE
  5
4B6
100
AcDbEntity
  8
0
100
AcDbLine
 62
7
  6
CONTINUOUS
 10
-5.6555892616
 20
3.3790066568
 11
-5.6555892616
 21
4.7761815528
  0
LINE
  5
4B7
100
AcDbEntity
  8
DRAFT
100
AcDbLine
 62
7
  6
CONTINUOUS
 10
-5.6555892616
 20
3.3790066568
 11
-5.6555892616
 21
4.7761815528
  0
LINE
  5
4B8
100
AcDbEntity
  8
0
100
AcDbLine
 62
7
  6
CONTINUOUS
 10
-5.6381341967
 20
43.8923510204
 11
-5.6381341967
 21
41.6423510204
  0
LINE
  5
4B9
100
AcDbEntity
  8
DRAFT
100
AcDbLine
 62
7
  6
CONTINUOUS
 10
-5.6381341967
 20
43.8923510204
 11
-5.6381341967
 21
41.6423510204
  0
LINE
  5
4BA
100
AcDbEntity
  8
0
100
AcDbLine
 62
7
  6
CONTINUOUS
 10
-5.6381341967
 20
4.7849084206
 11
-5.6381341967
 21
2.1923510204
  0
LINE
  5
4BB
100
AcDbEntity
  8
DRAFT
100
AcDbLine
 62
7
  6
CONTINUOUS
 10
-5.6381341967
 20
4.7849084206
 11
-5.6381341967
 21
2.1923510204
  0
LINE
  5
4BC
100
AcDbEntity
  8
RACCORDO
100
AcDbLine
 62
253
  6
CONTINUOUS
 10
-5.5081441788
 20
1.7296577767
 11
-5.5081441788
 21
2.0463554747
  0
LINE
  5
4BD
100
AcDbEntity
  8
RACCORDO
100
AcDbLine
 62
253
  6
CONTINUOUS
 10
-5.5081441788
 20
44.0383465661
 11
-5.5081441788
 21
44.3550442641
  0
LINE
  5
4BE
100
AcDbEntity
  8
RACCORDO
100
AcDbLine
 62
253
  6
CONTINUOUS
 10
-5.0082203312
 20
1.4763755871
 11
-5.0082203312
 21
2.0506427562
  0
LINE
  5
4BF
100
AcDbEntity
  8
RACCORDO
100
AcDbLine
 62
253
  6
CONTINUOUS
 10
-5.0082203312
 20
44.0340592846
 11
-5.0082203312
 21
44.6083264537
  0
LINE
  5
4C0
100
AcDbEntity
  8
DRAFT
100
AcDbLine
 62
7
  6
CONTINUOUS
 10
-4.842244898
 20
44.4423510204
 11
-4.842244898
 21
43.9423510204
  0
LINE
  5
4C1
100
AcDbEntity
  8
DRAFT
100
AcDbLine
 62
7
  6
CONTINUOUS
 10
-4.842244898
 20
2.1423510204
 11
-4.842244898
 21
1.6423510204
  0
LINE
  5
4C2
100
AcDbEntity
  8
RACCORDO
100
AcDbLine
 62
7
  6
CONTINUOUS
 10
-4.842244898
 20
-1.2076532104
 11
-4.842244898
 21
0.6423510204
  0
LINE
  5
4C3
100
AcDbEntity
  8
RACCORDO
100
AcDbLine
 62
7
  6
CONTINUOUS
 10
-4.842244898
 20
45.4423510204
 11
-4.842244898
 21
47.2923552512
  0
LINE
  5
4C4
100
AcDbEntity
  8
RACCORDO
100
AcDbLine
 62
253
  6
CONTINUOUS
 10
-4.837873064
 20
47.2879834172
 11
-4.837873064
 21
46.8866885877
  0
LINE
  5
4C5
100
AcDbEntity
  8
RACCORDO
100
AcDbLine
 62
253
  6
CONTINUOUS
 10
-4.837873064
 20
-0.8019865469
 11
-4.837873064
 21
-1.2032813764
  0
LINE
  5
4C6
100
AcDbEntity
  8
RACCORDO
100
AcDbLine
 62
253
  6
CONTINUOUS
 10
-4.5878772947
 20
-1.4532771456
 11
-4.5878772947
 21
-0.5854801959
  0
LINE
  5
4C7
100
AcDbEntity
  8
RACCORDO
100
AcDbLine
 62
253
  6
CONTINUOUS
 10
-4.5878772947
 20
46.6701822368
 11
-4.5878772947
 21
47.5379791864
  0
LINE
  5
4C8
100
AcDbEntity
  8
0
100
AcDbLine
 62
7
  6
CONTINUOUS
 10
-4.492244898
 20
2.1923510204
 11
-4.492244898
 21
4.7849084206
  0
LINE
  5
4C9
100
AcDbEntity
  8
DRAFT
100
AcDbLine
 62
7
  6
CONTINUOUS
 10
-4.492244898
 20
2.1923510204
 11
-4.492244898
 21
4.7849084206
  0
LINE
  5
4CA
100
AcDbEntity
  8
0
100
AcDbLine
 62
7
  6
CONTINUOUS
 10
-4.492244898
 20
41.6423510204
 11
-4.492244898
 21
43.8923510204
  0
LINE
  5
4CB
100
AcDbEntity
  8
DRAFT
100
AcDbLine
 62
7
  6
CONTINUOUS
 10
-4.492244898
 20
41.6423510204
 11
-4.492244898
 21
43.8923510204
  0
LINE
  5
4CC
100
AcDbEntity
  8
0
100
AcDbLine
 62
253
  6
CONTINUOUS
 10
-4.092244898
 20
41.6423510204
 11
-4.092244898
 21
41.2554413221
  0
LINE
  5
4CD
100
AcDbEntity
  8
RACCORDO
100
AcDbLine
 62
253
  6
CONTINUOUS
 10
-4.842244898
 20
46.4528361686
 11
-4.837873064
 21
46.8866885877
  0
LINE
  5
4CE
100
AcDbEntity
  8
RACCORDO
100
AcDbLine
 62
253
  6
CONTINUOUS
 10
-4.5929678958
 20
46.1650007512
 11
-4.5878772947
 21
46.6701822368
  0
LWPOLYLINE
  5
4CF
100
AcDbEntity
  8
RACCORDO
100
AcDbPolyline
 62
7
  6
CONTINUOUS
 90
34
 70
0
 10
-4.842244898
 20
47.2923552512
 10
-4.8419617477
 20
47.3042505364
 10
-4.8411129322
 20
47.316118876
 10
-4.8397003721
 20
47.3279333865
 10
-4.8377272657
 20
47.3396673079
 10
-4.8351980797
 20
47.3512940592
 10
-4.8321185397
 20
47.3627872994
 10
-4.8284956193
 20
47.3741209942
 10
-4.8243375237
 20
47.3852694697
 10
-4.8196536701
 20
47.3962074667
 10
-4.8144546668
 20
47.406910208
 10
-4.8087522896
 20
47.4173534487
 10
-4.8025594561
 20
47.4275135263
 10
-4.7958901934
 20
47.4373674255
 10
-4.7887596087
 20
47.4468928242
 10
-4.7811838568
 20
47.4560681395
 10
-4.7731800984
 20
47.4648725865
 10
-4.764766464
 20
47.4732862209
 10
-4.755962017
 20
47.4812899793
 10
-4.7467867018
 20
47.4888657311
 10
-4.7372613031
 20
47.4959963159
 10
-4.7274074039
 20
47.5026655785
 10
-4.7172473262
 20
47.508858412
 10
-4.7068040856
 20
47.5145607892
 10
-4.6961013443
 20
47.5197597926
 10
-4.6851633473
 20
47.5244436462
 10
-4.6740148717
 20
47.5286017417
 10
-4.662681177
 20
47.5322246621
 10
-4.6511879368
 20
47.5353042021
 10
-4.6395611854
 20
47.5378333881
 10
-4.6278272641
 20
47.5398064946
 10
-4.6160127535
 20
47.5412190546
 10
-4.604144414
 20
47.5420678702
 10
-4.5922491287
 20
47.5423510204
  0
LWPOLYLINE
  5
4D0
100
AcDbEntity
  8
RACCORDO
100
AcDbPolyline
 62
253
  6
CONTINUOUS
 90
31
 70
0
 10
-4.837873064
 20
47.2879834172
 10
-4.837529875
 20
47.3010697713
 10
-4.836502132
 20
47.3141202697
 10
-4.8347926488
 20
47.3270991271
 10
-4.8324061061
 20
47.3399707667
 10
-4.8293490449
 20
47.3526998806
 10
-4.8256298554
 20
47.3652515281
 10
-4.8212587404
 20
47.3775912842
 10
-4.8162476849
 20
47.3896853214
 10
-4.8106104366
 20
47.4015004671
 10
-4.8043624575
 20
47.4130043229
 10
-4.7975208817
 20
47.4241653488
 10
-4.7901044748
 20
47.4349529392
 10
-4.7821335666
 20
47.4453375284
 10
-4.7736300251
 20
47.4552906318
 10
-4.764617206
 20
47.464784925
 10
-4.7551198715
 20
47.4737943468
 10
-4.7451640344
 20
47.4822942438
 10
-4.7347769085
 20
47.490261386
 10
-4.7239868293
 20
47.497674016
 10
-4.7128235109
 20
47.5045116978
 10
-4.7013179105
 20
47.5107554995
 10
-4.6895018322
 20
47.5163882481
 10
-4.6774074761
 20
47.521394678
 10
-4.6650676722
 20
47.5257612291
 10
-4.6525134876
 20
47.5294766688
 10
-4.6397820224
 20
47.5325297822
 10
-4.6269163037
 20
47.5349109124
 10
-4.6139545291
 20
47.5366145166
 10
-4.6009296347
 20
47.5376377792
 10
-4.5878772947
 20
47.5379791864
  0
LWPOLYLINE
  5
4D1
100
AcDbEntity
  8
RACCORDO
100
AcDbPolyline
 62
253
  6
CONTINUOUS
 90
31
 70
0
 10
-4.837873064
 20
-0.8019865469
 10
-4.8374945083
 20
-0.7906885746
 10
-4.8364353808
 20
-0.7794182706
 10
-4.8346980042
 20
-0.7682064008
 10
-4.8322863028
 20
-0.7570825917
 10
-4.8292064326
 20
-0.7460783396
 10
-4.8254673816
 20
-0.7352267998
 10
-4.8210798372
 20
-0.7245586768
 10
-4.8160554382
 20
-0.7141020035
 10
-4.8104077576
 20
-0.7038850846
 10
-4.804152065
 20
-0.6939356795
 10
-4.7973054904
 20
-0.684281155
 10
-4.7898868821
 20
-0.6749481315
 10
-4.7819165781
 20
-0.6659621814
 10
-4.7734162833
 20
-0.6573477622
 10
-4.7644091928
 20
-0.6491283838
 10
-4.7549198892
 20
-0.6413264871
 10
-4.744974302
 20
-0.6339633989
 10
-4.7345996192
 20
-0.62705925
 10
-4.7238241868
 20
-0.6206329035
 10
-4.7126774288
 20
-0.6147019065
 10
-4.7011897917
 20
-0.6092824591
 10
-4.689392635
 20
-0.6043893571
 10
-4.6773181986
 20
-0.6000359741
 10
-4.664999519
 20
-0.5962342167
 10
-4.6524702836
 20
-0.5929944703
 10
-4.6397646807
 20
-0.5903255638
 10
-4.6269173599
 20
-0.5882347714
 10
-4.6139633927
 20
-0.5867278015
 10
-4.6009381789
 20
-0.5858087731
 10
-4.5878772947
 20
-0.5854801959
  0
LINE
  5
4D2
100
AcDbEntity
  8
CURVE
100
AcDbLine
 62
7
  6
CONTINUOUS
 10
-1.9683093007
 20
33.8325780204
 11
-2.0189075159
 21
33.5614280204
  0
LINE
  5
4D3
100
AcDbEntity
  8
CURVE
100
AcDbLine
 62
7
  6
CONTINUOUS
 10
-2.0189075159
 20
34.1535440204
 11
-1.9860055616
 21
34.2778990204
  0
LINE
  5
4D4
100
AcDbEntity
  8
DRAFT
100
AcDbLine
 62
7
  6
CONTINUOUS
 10
-17.492244898
 20
0.6423510204
 11
-17.4481776307
 21
0.7084528535
  0
LINE
  5
4D5
100
AcDbEntity
  8
SMUSSO
100
AcDbLine
 62
7
  6
CONTINUOUS
 10
-17.842244898
 20
6.7923510204
 11
-17.342244898
 21
7.2923510204
  0
LINE
  5
4D6
100
AcDbEntity
  8
ASSI
100
AcDbLine
 62
7
  6
CONTINUOUS
 10
-17.842244898
 20
6.7923510204
 11
-17.342244898
 21
7.2923510204
  0
LINE
  5
4D7
100
AcDbEntity
  8
SMUSSO
100
AcDbLine
 62
7
  6
CONTINUOUS
 10
-12.842244898
 20
11.2923510204
 11
-13.342244898
 21
10.7923510204
  0
LINE
  5
4D8
100
AcDbEntity
  8
ASSI
100
AcDbLine
 62
7
  6
CONTINUOUS
 10
-12.842244898
 20
11.2923510204
 11
-13.342244898
 21
10.7923510204
  0
LINE
  5
4D9
100
AcDbEntity
  8
CURVE
100
AcDbLine
 62
253
  6
CONTINUOUS
 10
-23.392244898
 20
12.3280652176
 11
-22.092244898
 21
12.6994939218
  0
LINE
  5
4DA
100
AcDbEntity
  8
CURVE
100
AcDbLine
 62
253
  6
CONTINUOUS
 10
-2.0591760211
 20
30.7875890861
 11
-2.0364878927
 21
30.7875890861
  0
LINE
  5
4DB
100
AcDbEntity
  8
CURVE
100
AcDbLine
 62
7
  6
CONTINUOUS
 10
-1.9689004572
 20
30.9039183648
 11
-2.018907522
 21
30.9039183648
  0
LINE
  5
4DC
100
AcDbEntity
  8
CURVE
100
AcDbLine
 62
253
  6
CONTINUOUS
 10
-2.0591760211
 20
31.7161606918
 11
-2.0364878927
 21
31.7161606918
  0
LINE
  5
4DD
100
AcDbEntity
  8
CURVE
100
AcDbLine
 62
253
  6
CONTINUOUS
 10
-2.0364878927
 20
32.0875890861
 11
-2.0591760211
 21
32.0875890861
  0
LINE
  5
4DE
100
AcDbEntity
  8
DRAFT
100
AcDbLine
 62
7
  6
CONTINUOUS
 10
-17.492244898
 20
45.4423510204
 11
-17.4481776307
 21
45.3762491873
  0
LINE
  5
4DF
100
AcDbEntity
  8
CURVE
100
AcDbLine
 62
253
  6
CONTINUOUS
 10
-2.0520703984
 20
16.3566366862
 11
-2.0260164489
 21
15.9494939099
  0
LINE
  5
4E0
100
AcDbEntity
  8
CURVE
100
AcDbLine
 62
7
  6
CONTINUOUS
 10
-1.9999122782
 20
7.8658600204
 11
-1.9781157103
 21
7.4359020204
  0
LINE
  5
4E1
100
AcDbEntity
  8
CURVE
100
AcDbLine
 62
7
  6
CONTINUOUS
 10
-1.9999122782
 20
13.8908950204
 11
-1.9781128485
 21
13.4608800204
  0
LINE
  5
4E2
100
AcDbEntity
  8
CURVE
100
AcDbLine
 62
7
  6
CONTINUOUS
 10
-2.0190471836
 20
8.2434620204
 11
-2.0083218878
 21
8.0265050204
  0
LINE
  5
4E3
100
AcDbEntity
  8
CURVE
100
AcDbLine
 62
7
  6
CONTINUOUS
 10
-2.0190471836
 20
14.2683870204
 11
-2.0083218878
 21
14.0515390204
  0
LINE
  5
4E4
100
AcDbEntity
  8
CURVE
100
AcDbLine
 62
7
  6
CONTINUOUS
 10
-1.968442896
 20
7.7894670204
 11
-2.0190471836
 21
8.8379110204
  0
LINE
  5
4E5
100
AcDbEntity
  8
CURVE
100
AcDbLine
 62
7
  6
CONTINUOUS
 10
-1.968442896
 20
13.8145020204
 11
-2.0190471836
 21
14.8628370204
  0
LWPOLYLINE
  5
4E6
100
AcDbEntity
  8
CURVE
100
AcDbPolyline
 62
7
  6
CONTINUOUS
 90
15
 70
0
 10
-1.9908183413
 20
17.3288735143
 10
-1.9903564749
 20
17.3185821923
 10
-1.9898880605
 20
17.3092566073
 10
-1.9894137715
 20
17.3008641964
 10
-1.9889342812
 20
17.2933723969
 10
-1.9884502629
 20
17.286748646
 10
-1.98796239
 20
17.280960381
 10
-1.9874713357
 20
17.275975039
 10
-1.9869777733
 20
17.2717600574
 10
-1.9864823762
 20
17.2682828734
 10
-1.9859858177
 20
17.2655109242
 10
-1.985488771
 20
17.263411647
 10
-1.9849919096
 20
17.2619524791
 10
-1.9844959067
 20
17.2611008577
 10
-1.9840014357
 20
17.2608242201
  0
LINE
  5
4E7
100
AcDbEntity
  8
CURVE
100
AcDbLine
 62
7
  6
CONTINUOUS
 10
-1.9871474502
 20
17.9500368825
 11
-1.987545455
 21
17.9589953553
  0
LINE
  5
4E8
100
AcDbEntity
  8
CURVE
100
AcDbLine
 62
7
  6
CONTINUOUS
 10
-1.991694686
 20
17.3517533543
 11
-1.9908183413
 21
17.3288735143
  0
LINE
  5
4E9
100
AcDbEntity
  8
CURVE
100
AcDbLine
 62
7
  6
CONTINUOUS
 10
-1.987545455
 20
17.9589953553
 11
-1.9879333242
 21
17.9693845593
  0
LINE
  5
4EA
100
AcDbEntity
  8
CURVE
100
AcDbLine
 62
253
  6
CONTINUOUS
 10
-2.0497018572
 20
6.3137794624
 11
-2.0544389391
 21
6.4494941364
  0
LINE
  5
4EB
100
AcDbEntity
  8
CURVE
100
AcDbLine
 62
253
  6
CONTINUOUS
 10
-2.0354906118
 20
7.2637794624
 11
-2.0307535303
 21
7.1280656944
  0
LWPOLYLINE
  5
4EC
100
AcDbEntity
  8
RACCORDO
100
AcDbPolyline
 62
253
  6
CONTINUOUS
 90
31
 70
0
 10
-2.446616732
 20
-0.8019865469
 10
-2.4469952876
 20
-0.7906885746
 10
-2.4480544152
 20
-0.7794182706
 10
-2.4497917917
 20
-0.7682064008
 10
-2.4522034931
 20
-0.7570825917
 10
-2.4552833633
 20
-0.7460783396
 10
-2.4590224143
 20
-0.7352267998
 10
-2.4634099587
 20
-0.7245586768
 10
-2.4684343577
 20
-0.7141020035
 10
-2.4740820383
 20
-0.7038850846
 10
-2.4803377309
 20
-0.6939356795
 10
-2.4871843055
 20
-0.684281155
 10
-2.4946029138
 20
-0.6749481315
 10
-2.5025732178
 20
-0.6659621814
 10
-2.5110735126
 20
-0.6573477622
 10
-2.5200806031
 20
-0.6491283838
 10
-2.5295699067
 20
-0.6413264871
 10
-2.5395154939
 20
-0.6339633989
 10
-2.5498901767
 20
-0.62705925
 10
-2.5606656091
 20
-0.6206329035
 10
-2.5718123671
 20
-0.6147019065
 10
-2.5833000042
 20
-0.6092824591
 10
-2.5950971609
 20
-0.6043893571
 10
-2.6071715974
 20
-0.6000359741
 10
-2.619490277
 20
-0.5962342167
 10
-2.6320195123
 20
-0.5929944703
 10
-2.6447251152
 20
-0.5903255638
 10
-2.657572436
 20
-0.5882347714
 10
-2.6705264032
 20
-0.5867278015
 10
-2.683551617
 20
-0.5858087731
 10
-2.6966125012
 20
-0.5854801959
  0
LINE
  5
4ED
100
AcDbEntity
  8
CURVE
100
AcDbLine
 62
7
  6
CONTINUOUS
 10
-1.9925137895
 20
17.3776440224
 11
-1.991694686
 21
17.3517533543
  0
LINE
  5
4EE
100
AcDbEntity
  8
CURVE
100
AcDbLine
 62
7
  6
CONTINUOUS
 10
-1.9879333242
 20
17.9693845593
 11
-1.9884531209
 21
17.9860966996
  0
LINE
  5
4EF
100
AcDbEntity
  8
CURVE
100
AcDbLine
 62
253
  6
CONTINUOUS
 10
-2.0260164489
 20
8.4852079044
 11
-2.033122072
 21
8.7566363464
  0
LINE
  5
4F0
100
AcDbEntity
  8
CURVE
100
AcDbLine
 62
253
  6
CONTINUOUS
 10
-2.0307535303
 20
12.3304462801
 11
-2.0260164489
 21
12.1494936834
  0
LINE
  5
4F1
100
AcDbEntity
  8
CURVE
100
AcDbLine
 62
253
  6
CONTINUOUS
 10
-2.0462113757
 20
21.2185413639
 11
-2.0364878927
 21
20.8471129696
  0
LINE
  5
4F2
100
AcDbEntity
  8
CURVE
100
AcDbLine
 62
253
  6
CONTINUOUS
 10
-2.0591760211
 20
8.7566363464
 11
-2.0354906118
 21
7.8066363464
  0
LINE
  5
4F3
100
AcDbEntity
  8
CURVE
100
AcDbLine
 62
7
  6
CONTINUOUS
 10
-1.9884531209
 20
17.9860966996
 11
-1.9888681017
 21
18.0022107776
  0
LINE
  5
4F4
100
AcDbEntity
  8
CURVE
100
AcDbLine
 62
7
  6
CONTINUOUS
 10
-1.9936696623
 20
17.4230948448
 11
-1.9925137895
 21
17.3776440224
  0
LINE
  5
4F5
100
AcDbEntity
  8
CURVE
100
AcDbLine
 62
7
  6
CONTINUOUS
 10
-1.9888681017
 20
18.0022107776
 11
-1.9892541306
 21
18.0204149152
  0
LINE
  5
4F6
100
AcDbEntity
  8
ASSI
100
AcDbLine
 62
7
  6
CONTINUOUS
 10
-2.1417441714
 20
6.7752134735
 11
-2.1431438113
 21
6.8463077687
  0
LINE
  5
4F7
100
AcDbEntity
  8
ASSI
100
AcDbLine
 62
7
  6
CONTINUOUS
 10
-2.1417441714
 20
11.7752134735
 11
-2.1431438113
 21
11.8463077687
  0
LINE
  5
4F8
100
AcDbEntity
  8
ASSI
100
AcDbLine
 62
7
  6
CONTINUOUS
 10
-2.1417441714
 20
16.7752134735
 11
-2.1431438113
 21
16.8463077687
  0
LINE
  5
4F9
100
AcDbEntity
  8
ASSI
100
AcDbLine
 62
7
  6
CONTINUOUS
 10
-2.1417441714
 20
21.7752134735
 11
-2.1431438113
 21
21.8463077687
  0
LINE
  5
4FA
100
AcDbEntity
  8
RACCORDO
100
AcDbLine
 62
7
  6
CONTINUOUS
 10
-2.1417436918
 20
6.7752128822
 11
-2.1433707635
 21
6.8591722387
  0
LINE
  5
4FB
100
AcDbEntity
  8
RACCORDO
100
AcDbLine
 62
7
  6
CONTINUOUS
 10
-2.1417436918
 20
11.7752128822
 11
-2.1433707635
 21
11.8591722387
  0
LINE
  5
4FC
100
AcDbEntity
  8
RACCORDO
100
AcDbLine
 62
7
  6
CONTINUOUS
 10
-2.1417436918
 20
16.7752128822
 11
-2.1433707635
 21
16.8591722387
  0
LINE
  5
4FD
100
AcDbEntity
  8
RACCORDO
100
AcDbLine
 62
7
  6
CONTINUOUS
 10
-2.1417436918
 20
21.7752128822
 11
-2.1433707635
 21
21.8591722387
  0
LINE
  5
4FE
100
AcDbEntity
  8
CURVE
100
AcDbLine
 62
253
  6
CONTINUOUS
 10
-2.0307535303
 20
7.1280656944
 11
-2.0260164489
 21
6.8566363464
  0
LINE
  5
4FF
100
AcDbEntity
  8
CURVE
100
AcDbLine
 62
253
  6
CONTINUOUS
 10
-2.0354906118
 20
9.8423510204
 11
-2.0260164489
 21
9.2994941364
  0
LINE
  5
500
100
AcDbEntity
  8
CURVE
100
AcDbLine
 62
253
  6
CONTINUOUS
 10
-2.0449647757
 20
12.4209225784
 11
-2.0402276933
 21
12.1494936834
  0
LINE
  5
501
100
AcDbEntity
  8
CURVE
100
AcDbLine
 62
253
  6
CONTINUOUS
 10
-2.0354906118
 20
14.8637796889
 11
-2.0260164489
 21
14.3209223519
  0
LINE
  5
502
100
AcDbEntity
  8
CURVE
100
AcDbLine
 62
253
  6
CONTINUOUS
 10
-2.0354906118
 20
17.4423510204
 11
-2.0260164489
 21
16.8994938533
  0
LWPOLYLINE
  5
503
100
AcDbEntity
  8
CURVE
100
AcDbPolyline
 62
7
  6
CONTINUOUS
 90
3
 70
0
 10
-1.995042883
 20
17.4955786109
 10
-1.9947193816
 20
17.4762383639
 10
-1.9936696623
 20
17.4230948448
  0
LWPOLYLINE
  5
504
100
AcDbEntity
  8
RACCORDO
100
AcDbPolyline
 62
253
  6
CONTINUOUS
 90
10
 70
0
 10
-2.4463258788
 20
7.3066003055
 10
-2.445094343
 20
7.2224354439
 10
-2.4438005485
 20
7.1470412257
 10
-2.4424620255
 20
7.080779644
 10
-2.4410778655
 20
7.0240107556
 10
-2.4396489769
 20
6.9770671205
 10
-2.4381956149
 20
6.9402216277
 10
-2.4367245312
 20
6.913706071
 10
-2.435228974
 20
6.8977052395
 10
-2.4337089435
 20
6.8923510204
  0
LWPOLYLINE
  5
505
100
AcDbEntity
  8
ASSI
100
AcDbPolyline
 62
253
  6
CONTINUOUS
 90
10
 70
0
 10
-2.4463258788
 20
7.3066003055
 10
-2.445094343
 20
7.2224354439
 10
-2.4438005485
 20
7.1470412257
 10
-2.4424620255
 20
7.080779644
 10
-2.4410778655
 20
7.0240107556
 10
-2.4396489769
 20
6.9770671205
 10
-2.4381956149
 20
6.9402216277
 10
-2.4367245312
 20
6.913706071
 10
-2.435228974
 20
6.8977052395
 10
-2.4337089435
 20
6.8923510204
  0
LWPOLYLINE
  5
506
100
AcDbEntity
  8
RACCORDO
100
AcDbPolyline
 62
253
  6
CONTINUOUS
 90
10
 70
0
 10
-2.4463258788
 20
12.3066003055
 10
-2.445094343
 20
12.2224354439
 10
-2.4438005485
 20
12.1470412257
 10
-2.4424620255
 20
12.080779644
 10
-2.4410778655
 20
12.0240107556
 10
-2.4396489769
 20
11.9770671205
 10
-2.4381956149
 20
11.9402216277
 10
-2.4367245312
 20
11.913706071
 10
-2.435228974
 20
11.8977052395
 10
-2.4337089435
 20
11.8923510204
  0
LWPOLYLINE
  5
507
100
AcDbEntity
  8
ASSI
100
AcDbPolyline
 62
253
  6
CONTINUOUS
 90
10
 70
0
 10
-2.4463258788
 20
12.3066003055
 10
-2.445094343
 20
12.2224354439
 10
-2.4438005485
 20
12.1470412257
 10
-2.4424620255
 20
12.080779644
 10
-2.4410778655
 20
12.0240107556
 10
-2.4396489769
 20
11.9770671205
 10
-2.4381956149
 20
11.9402216277
 10
-2.4367245312
 20
11.913706071
 10
-2.435228974
 20
11.8977052395
 10
-2.4337089435
 20
11.8923510204
  0
LWPOLYLINE
  5
508
100
AcDbEntity
  8
RACCORDO
100
AcDbPolyline
 62
253
  6
CONTINUOUS
 90
10
 70
0
 10
-2.4463258788
 20
17.3066003055
 10
-2.445094343
 20
17.2224354439
 10
-2.4438005485
 20
17.1470412257
 10
-2.4424620255
 20
17.080779644
 10
-2.4410778655
 20
17.0240107556
 10
-2.4396489769
 20
16.9770671205
 10
-2.4381956149
 20
16.9402216277
 10
-2.4367245312
 20
16.913706071
 10
-2.435228974
 20
16.8977052395
 10
-2.4337089435
 20
16.8923510204
  0
LWPOLYLINE
  5
509
100
AcDbEntity
  8
ASSI
100
AcDbPolyline
 62
253
  6
CONTINUOUS
 90
10
 70
0
 10
-2.4463258788
 20
17.3066003055
 10
-2.445094343
 20
17.2224354439
 10
-2.4438005485
 20
17.1470412257
 10
-2.4424620255
 20
17.080779644
 10
-2.4410778655
 20
17.0240107556
 10
-2.4396489769
 20
16.9770671205
 10
-2.4381956149
 20
16.9402216277
 10
-2.4367245312
 20
16.913706071
 10
-2.435228974
 20
16.8977052395
 10
-2.4337089435
 20
16.8923510204
  0
LWPOLYLINE
  5
50A
100
AcDbEntity
  8
RACCORDO
100
AcDbPolyline
 62
253
  6
CONTINUOUS
 90
10
 70
0
 10
-2.4463258788
 20
22.3066003055
 10
-2.445094343
 20
22.2224354439
 10
-2.4438005485
 20
22.1470412257
 10
-2.4424620255
 20
22.080779644
 10
-2.4410778655
 20
22.0240107556
 10
-2.4396489769
 20
21.9770671205
 10
-2.4381956149
 20
21.9402216277
 10
-2.4367245312
 20
21.913706071
 10
-2.435228974
 20
21.8977052395
 10
-2.4337089435
 20
21.8923510204
  0
LWPOLYLINE
  5
50B
100
AcDbEntity
  8
ASSI
100
AcDbPolyline
 62
253
  6
CONTINUOUS
 90
10
 70
0
 10
-2.4463258788
 20
22.3066003055
 10
-2.445094343
 20
22.2224354439
 10
-2.4438005485
 20
22.1470412257
 10
-2.4424620255
 20
22.080779644
 10
-2.4410778655
 20
22.0240107556
 10
-2.4396489769
 20
21.9770671205
 10
-2.4381956149
 20
21.9402216277
 10
-2.4367245312
 20
21.913706071
 10
-2.435228974
 20
21.8977052395
 10
-2.4337089435
 20
21.8923510204
  0
LINE
  5
50C
100
AcDbEntity
  8
ASSI
100
AcDbLine
 62
7
  6
CONTINUOUS
 10
-2.1431438113
 20
6.8463077687
 11
-2.144770619
 21
6.9476709455
  0
LINE
  5
50D
100
AcDbEntity
  8
ASSI
100
AcDbLine
 62
7
  6
CONTINUOUS
 10
-2.1431438113
 20
11.8463077687
 11
-2.144770619
 21
11.9476709455
  0
LINE
  5
50E
100
AcDbEntity
  8
ASSI
100
AcDbLine
 62
7
  6
CONTINUOUS
 10
-2.1431438113
 20
16.8463077687
 11
-2.144770619
 21
16.9476709455
  0
LINE
  5
50F
100
AcDbEntity
  8
ASSI
100
AcDbLine
 62
7
  6
CONTINUOUS
 10
-2.1431438113
 20
21.8463077687
 11
-2.144770619
 21
21.9476709455
  0
LINE
  5
510
100
AcDbEntity
  8
RACCORDO
100
AcDbLine
 62
7
  6
CONTINUOUS
 10
-2.1433707635
 20
6.8591722387
 11
-2.1449395527
 21
6.9594784285
  0
LINE
  5
511
100
AcDbEntity
  8
RACCORDO
100
AcDbLine
 62
7
  6
CONTINUOUS
 10
-2.1433707635
 20
11.8591722387
 11
-2.1449395527
 21
11.9594784285
  0
LINE
  5
512
100
AcDbEntity
  8
RACCORDO
100
AcDbLine
 62
7
  6
CONTINUOUS
 10
-2.1433707635
 20
16.8591722387
 11
-2.1449395527
 21
16.9594784285
  0
LINE
  5
513
100
AcDbEntity
  8
RACCORDO
100
AcDbLine
 62
7
  6
CONTINUOUS
 10
-2.1433707635
 20
21.8591722387
 11
-2.1449395527
 21
21.9594784285
  0
LINE
  5
514
100
AcDbEntity
  8
CURVE
100
AcDbLine
 62
253
  6
CONTINUOUS
 10
-2.0378591535
 20
11.5613984237
 11
-2.0402276933
 21
11.7423510204
  0
LINE
  5
515
100
AcDbEntity
  8
ASSI
100
AcDbLine
 62
7
  6
CONTINUOUS
 10
-2.144770619
 20
6.9476709455
 11
-2.146375332
 21
7.0703231697
  0
LINE
  5
516
100
AcDbEntity
  8
ASSI
100
AcDbLine
 62
7
  6
CONTINUOUS
 10
-2.144770619
 20
11.9476709455
 11
-2.146375332
 21
12.0703231697
  0
LINE
  5
517
100
AcDbEntity
  8
ASSI
100
AcDbLine
 62
7
  6
CONTINUOUS
 10
-2.144770619
 20
16.9476709455
 11
-2.146375332
 21
17.0703231697
  0
LINE
  5
518
100
AcDbEntity
  8
ASSI
100
AcDbLine
 62
7
  6
CONTINUOUS
 10
-2.144770619
 20
21.9476709455
 11
-2.146375332
 21
22.0703231697
  0
LINE
  5
519
100
AcDbEntity
  8
RACCORDO
100
AcDbLine
 62
7
  6
CONTINUOUS
 10
-2.1449395527
 20
6.9594784285
 11
-2.1467017128
 21
7.0982524045
  0
LINE
  5
51A
100
AcDbEntity
  8
RACCORDO
100
AcDbLine
 62
7
  6
CONTINUOUS
 10
-2.1449395527
 20
11.9594784285
 11
-2.1467017128
 21
12.0982524045
  0
LINE
  5
51B
100
AcDbEntity
  8
RACCORDO
100
AcDbLine
 62
7
  6
CONTINUOUS
 10
-2.1449395527
 20
16.9594784285
 11
-2.1467017128
 21
17.0982524045
  0
LINE
  5
51C
100
AcDbEntity
  8
RACCORDO
100
AcDbLine
 62
7
  6
CONTINUOUS
 10
-2.1449395527
 20
21.9594784285
 11
-2.1467017128
 21
22.0982524045
  0
LINE
  5
51D
100
AcDbEntity
  8
RACCORDO
100
AcDbLine
 62
253
  6
CONTINUOUS
 10
-2.4486003786
 20
7.4994555898
 11
-2.4463258788
 21
7.3066003055
  0
LINE
  5
51E
100
AcDbEntity
  8
ASSI
100
AcDbLine
 62
253
  6
CONTINUOUS
 10
-2.4486003786
 20
7.4994555898
 11
-2.4463258788
 21
7.3066003055
  0
LINE
  5
51F
100
AcDbEntity
  8
RACCORDO
100
AcDbLine
 62
253
  6
CONTINUOUS
 10
-2.4486003786
 20
12.4994555898
 11
-2.4463258788
 21
12.3066003055
  0
LINE
  5
520
100
AcDbEntity
  8
ASSI
100
AcDbLine
 62
253
  6
CONTINUOUS
 10
-2.4486003786
 20
12.4994555898
 11
-2.4463258788
 21
12.3066003055
  0
LINE
  5
521
100
AcDbEntity
  8
RACCORDO
100
AcDbLine
 62
253
  6
CONTINUOUS
 10
-2.4486003786
 20
17.4994555898
 11
-2.4463258788
 21
17.3066003055
  0
LINE
  5
522
100
AcDbEntity
  8
ASSI
100
AcDbLine
 62
253
  6
CONTINUOUS
 10
-2.4486003786
 20
17.4994555898
 11
-2.4463258788
 21
17.3066003055
  0
LINE
  5
523
100
AcDbEntity
  8
RACCORDO
100
AcDbLine
 62
253
  6
CONTINUOUS
 10
-2.4486003786
 20
22.4994555898
 11
-2.4463258788
 21
22.3066003055
  0
LINE
  5
524
100
AcDbEntity
  8
ASSI
100
AcDbLine
 62
253
  6
CONTINUOUS
 10
-2.4486003786
 20
22.4994555898
 11
-2.4463258788
 21
22.3066003055
  0
LINE
  5
525
100
AcDbEntity
  8
CURVE
100
AcDbLine
 62
253
  6
CONTINUOUS
 10
-2.0402276933
 20
13.2352083574
 11
-2.0378591535
 21
13.0090178381
  0
LINE
  5
526
100
AcDbEntity
  8
RACCORDO
100
AcDbLine
 62
253
  6
CONTINUOUS
 10
-2.6966125012
 20
46.6701822368
 11
-2.6915219001
 21
46.1650007512
  0
LINE
  5
527
100
AcDbEntity
  8
RACCORDO
100
AcDbLine
 62
253
  6
CONTINUOUS
 10
-2.446616732
 20
46.8866885877
 11
-2.442244898
 21
46.4528361686
  0
LINE
  5
528
100
AcDbEntity
  8
ASSI
100
AcDbLine
 62
7
  6
CONTINUOUS
 10
-2.146375332
 20
7.0703231697
 11
-2.1479315107
 21
7.2142131224
  0
LINE
  5
529
100
AcDbEntity
  8
ASSI
100
AcDbLine
 62
7
  6
CONTINUOUS
 10
-2.146375332
 20
12.0703231697
 11
-2.1479315107
 21
12.2142131224
  0
LINE
  5
52A
100
AcDbEntity
  8
ASSI
100
AcDbLine
 62
7
  6
CONTINUOUS
 10
-2.146375332
 20
17.0703231697
 11
-2.1479315107
 21
17.2142131224
  0
LINE
  5
52B
100
AcDbEntity
  8
ASSI
100
AcDbLine
 62
7
  6
CONTINUOUS
 10
-2.146375332
 20
22.0703231697
 11
-2.1479315107
 21
22.2142131224
  0
LINE
  5
52C
100
AcDbEntity
  8
RACCORDO
100
AcDbLine
 62
7
  6
CONTINUOUS
 10
-2.1467017128
 20
7.0982524045
 11
-2.148392763
 21
7.2626654714
  0
LINE
  5
52D
100
AcDbEntity
  8
RACCORDO
100
AcDbLine
 62
7
  6
CONTINUOUS
 10
-2.1467017128
 20
12.0982524045
 11
-2.148392763
 21
12.2626654714
  0
LINE
  5
52E
100
AcDbEntity
  8
RACCORDO
100
AcDbLine
 62
7
  6
CONTINUOUS
 10
-2.1467017128
 20
17.0982524045
 11
-2.148392763
 21
17.2626654714
  0
LINE
  5
52F
100
AcDbEntity
  8
RACCORDO
100
AcDbLine
 62
7
  6
CONTINUOUS
 10
-2.1467017128
 20
22.0982524045
 11
-2.148392763
 21
22.2626654714
  0
LINE
  5
530
100
AcDbEntity
  8
RACCORDO
100
AcDbLine
 62
253
  6
CONTINUOUS
 10
-2.4505803767
 20
7.7219116666
 11
-2.4486003786
 21
7.4994555898
  0
LINE
  5
531
100
AcDbEntity
  8
ASSI
100
AcDbLine
 62
253
  6
CONTINUOUS
 10
-2.4505803767
 20
7.7219116666
 11
-2.4486003786
 21
7.4994555898
  0
LINE
  5
532
100
AcDbEntity
  8
RACCORDO
100
AcDbLine
 62
253
  6
CONTINUOUS
 10
-2.4505803767
 20
12.7219116666
 11
-2.4486003786
 21
12.4994555898
  0
LINE
  5
533
100
AcDbEntity
  8
ASSI
100
AcDbLine
 62
253
  6
CONTINUOUS
 10
-2.4505803767
 20
12.7219116666
 11
-2.4486003786
 21
12.4994555898
  0
LINE
  5
534
100
AcDbEntity
  8
RACCORDO
100
AcDbLine
 62
253
  6
CONTINUOUS
 10
-2.4505803767
 20
17.7219116666
 11
-2.4486003786
 21
17.4994555898
  0
LINE
  5
535
100
AcDbEntity
  8
ASSI
100
AcDbLine
 62
253
  6
CONTINUOUS
 10
-2.4505803767
 20
17.7219116666
 11
-2.4486003786
 21
17.4994555898
  0
LINE
  5
536
100
AcDbEntity
  8
RACCORDO
100
AcDbLine
 62
253
  6
CONTINUOUS
 10
-2.4505803767
 20
22.7219116666
 11
-2.4486003786
 21
22.4994555898
  0
LINE
  5
537
100
AcDbEntity
  8
ASSI
100
AcDbLine
 62
253
  6
CONTINUOUS
 10
-2.4505803767
 20
22.7219116666
 11
-2.4486003786
 21
22.4994555898
  0
LINE
  5
538
100
AcDbEntity
  8
ASSI
100
AcDbLine
 62
7
  6
CONTINUOUS
 10
-2.1479315107
 20
7.2142131224
 11
-2.1496009865
 21
7.4045253833
  0
LINE
  5
539
100
AcDbEntity
  8
ASSI
100
AcDbLine
 62
7
  6
CONTINUOUS
 10
-2.1479315107
 20
12.2142131224
 11
-2.1496009865
 21
12.4045253833
  0
LINE
  5
53A
100
AcDbEntity
  8
ASSI
100
AcDbLine
 62
7
  6
CONTINUOUS
 10
-2.1479315107
 20
17.2142131224
 11
-2.1496009865
 21
17.4045253833
  0
LINE
  5
53B
100
AcDbEntity
  8
ASSI
100
AcDbLine
 62
7
  6
CONTINUOUS
 10
-2.1479315107
 20
22.2142131224
 11
-2.1496009865
 21
22.4045253833
  0
LINE
  5
53C
100
AcDbEntity
  8
RACCORDO
100
AcDbLine
 62
7
  6
CONTINUOUS
 10
-2.148392763
 20
7.2626654714
 11
-2.1499700947
 21
7.4525870936
  0
LINE
  5
53D
100
AcDbEntity
  8
RACCORDO
100
AcDbLine
 62
7
  6
CONTINUOUS
 10
-2.148392763
 20
12.2626654714
 11
-2.1499700947
 21
12.4525870936
  0
LINE
  5
53E
100
AcDbEntity
  8
RACCORDO
100
AcDbLine
 62
7
  6
CONTINUOUS
 10
-2.148392763
 20
17.2626654714
 11
-2.1499700947
 21
17.4525870936
  0
LINE
  5
53F
100
AcDbEntity
  8
RACCORDO
100
AcDbLine
 62
7
  6
CONTINUOUS
 10
-2.148392763
 20
22.2626654714
 11
-2.1499700947
 21
22.4525870936
  0
LINE
  5
540
100
AcDbEntity
  8
ASSI
100
AcDbLine
 62
7
  6
CONTINUOUS
 10
-2.1496009865
 20
7.4045253833
 11
-2.151125788
 21
7.6217287712
  0
LINE
  5
541
100
AcDbEntity
  8
ASSI
100
AcDbLine
 62
7
  6
CONTINUOUS
 10
-2.1496009865
 20
12.4045253833
 11
-2.151125788
 21
12.6217287712
  0
LINE
  5
542
100
AcDbEntity
  8
ASSI
100
AcDbLine
 62
7
  6
CONTINUOUS
 10
-2.1496009865
 20
17.4045253833
 11
-2.151125788
 21
17.6217287712
  0
LINE
  5
543
100
AcDbEntity
  8
ASSI
100
AcDbLine
 62
7
  6
CONTINUOUS
 10
-2.1496009865
 20
22.4045253833
 11
-2.151125788
 21
22.6217287712
  0
LINE
  5
544
100
AcDbEntity
  8
RACCORDO
100
AcDbLine
 62
253
  6
CONTINUOUS
 10
-2.452239071
 20
7.9697571605
 11
-2.4505803767
 21
7.7219116666
  0
LINE
  5
545
100
AcDbEntity
  8
ASSI
100
AcDbLine
 62
253
  6
CONTINUOUS
 10
-2.452239071
 20
7.9697571605
 11
-2.4505803767
 21
7.7219116666
  0
LINE
  5
546
100
AcDbEntity
  8
RACCORDO
100
AcDbLine
 62
253
  6
CONTINUOUS
 10
-2.452239071
 20
12.9697571605
 11
-2.4505803767
 21
12.7219116666
  0
LINE
  5
547
100
AcDbEntity
  8
ASSI
100
AcDbLine
 62
253
  6
CONTINUOUS
 10
-2.452239071
 20
12.9697571605
 11
-2.4505803767
 21
12.7219116666
  0
LINE
  5
548
100
AcDbEntity
  8
RACCORDO
100
AcDbLine
 62
253
  6
CONTINUOUS
 10
-2.452239071
 20
17.9697571605
 11
-2.4505803767
 21
17.7219116666
  0
LINE
  5
549
100
AcDbEntity
  8
ASSI
100
AcDbLine
 62
253
  6
CONTINUOUS
 10
-2.452239071
 20
17.9697571605
 11
-2.4505803767
 21
17.7219116666
  0
LINE
  5
54A
100
AcDbEntity
  8
RACCORDO
100
AcDbLine
 62
253
  6
CONTINUOUS
 10
-2.452239071
 20
22.9697571605
 11
-2.4505803767
 21
22.7219116666
  0
LINE
  5
54B
100
AcDbEntity
  8
ASSI
100
AcDbLine
 62
253
  6
CONTINUOUS
 10
-2.452239071
 20
22.9697571605
 11
-2.4505803767
 21
22.7219116666
  0
LINE
  5
54C
100
AcDbEntity
  8
RACCORDO
100
AcDbLine
 62
7
  6
CONTINUOUS
 10
-2.1499700947
 20
7.4525870936
 11
-2.1514019954
 21
7.667305529
  0
LINE
  5
54D
100
AcDbEntity
  8
RACCORDO
100
AcDbLine
 62
7
  6
CONTINUOUS
 10
-2.1499700947
 20
12.4525870936
 11
-2.1514019954
 21
12.667305529
  0
LINE
  5
54E
100
AcDbEntity
  8
RACCORDO
100
AcDbLine
 62
7
  6
CONTINUOUS
 10
-2.1499700947
 20
17.4525870936
 11
-2.1514019954
 21
17.667305529
  0
LINE
  5
54F
100
AcDbEntity
  8
RACCORDO
100
AcDbLine
 62
7
  6
CONTINUOUS
 10
-2.1499700947
 20
22.4525870936
 11
-2.1514019954
 21
22.667305529
  0
LINE
  5
550
100
AcDbEntity
  8
ASSI
100
AcDbLine
 62
7
  6
CONTINUOUS
 10
-2.151125788
 20
7.6217287712
 11
-2.1524528393
 21
7.8642634617
  0
LINE
  5
551
100
AcDbEntity
  8
ASSI
100
AcDbLine
 62
7
  6
CONTINUOUS
 10
-2.151125788
 20
12.6217287712
 11
-2.1524528393
 21
12.8642634617
  0
LINE
  5
552
100
AcDbEntity
  8
ASSI
100
AcDbLine
 62
7
  6
CONTINUOUS
 10
-2.151125788
 20
17.6217287712
 11
-2.1524528393
 21
17.8642634617
  0
LINE
  5
553
100
AcDbEntity
  8
ASSI
100
AcDbLine
 62
7
  6
CONTINUOUS
 10
-2.151125788
 20
22.6217287712
 11
-2.1524528393
 21
22.8642634617
  0
LINE
  5
554
100
AcDbEntity
  8
RACCORDO
100
AcDbLine
 62
7
  6
CONTINUOUS
 10
-2.1514019954
 20
7.667305529
 11
-2.1525016535
 21
7.8744641764
  0
LINE
  5
555
100
AcDbEntity
  8
RACCORDO
100
AcDbLine
 62
7
  6
CONTINUOUS
 10
-2.1514019954
 20
12.667305529
 11
-2.1525016535
 21
12.8744641764
  0
LINE
  5
556
100
AcDbEntity
  8
RACCORDO
100
AcDbLine
 62
7
  6
CONTINUOUS
 10
-2.1514019954
 20
17.667305529
 11
-2.1525016535
 21
17.8744641764
  0
LINE
  5
557
100
AcDbEntity
  8
RACCORDO
100
AcDbLine
 62
7
  6
CONTINUOUS
 10
-2.1514019954
 20
22.667305529
 11
-2.1526466549
 21
22.9054507529
  0
LINE
  5
558
100
AcDbEntity
  8
RACCORDO
100
AcDbLine
 62
253
  6
CONTINUOUS
 10
-2.4535395244
 20
8.2385267478
 11
-2.452239071
 21
7.9697571605
  0
LINE
  5
559
100
AcDbEntity
  8
ASSI
100
AcDbLine
 62
253
  6
CONTINUOUS
 10
-2.4535395244
 20
8.2385267478
 11
-2.452239071
 21
7.9697571605
  0
LINE
  5
55A
100
AcDbEntity
  8
RACCORDO
100
AcDbLine
 62
253
  6
CONTINUOUS
 10
-2.4535395244
 20
13.2385267478
 11
-2.452239071
 21
12.9697571605
  0
LINE
  5
55B
100
AcDbEntity
  8
ASSI
100
AcDbLine
 62
253
  6
CONTINUOUS
 10
-2.4535395244
 20
13.2385267478
 11
-2.452239071
 21
12.9697571605
  0
LINE
  5
55C
100
AcDbEntity
  8
RACCORDO
100
AcDbLine
 62
253
  6
CONTINUOUS
 10
-2.4535395244
 20
18.2385267478
 11
-2.452239071
 21
17.9697571605
  0
LINE
  5
55D
100
AcDbEntity
  8
ASSI
100
AcDbLine
 62
253
  6
CONTINUOUS
 10
-2.4535395244
 20
18.2385267478
 11
-2.452239071
 21
17.9697571605
  0
LINE
  5
55E
100
AcDbEntity
  8
RACCORDO
100
AcDbLine
 62
253
  6
CONTINUOUS
 10
-2.4535395244
 20
23.2385267478
 11
-2.452239071
 21
22.9697571605
  0
LINE
  5
55F
100
AcDbEntity
  8
ASSI
100
AcDbLine
 62
253
  6
CONTINUOUS
 10
-2.4535395244
 20
23.2385267478
 11
-2.452239071
 21
22.9697571605
  0
LINE
  5
560
100
AcDbEntity
  8
ASSI
100
AcDbLine
 62
7
  6
CONTINUOUS
 10
-2.1524528393
 20
7.8642634617
 11
-2.1535517324
 21
8.1297752853
  0
LINE
  5
561
100
AcDbEntity
  8
RACCORDO
100
AcDbLine
 62
7
  6
CONTINUOUS
 10
-2.1525016535
 20
7.8744641764
 11
-2.153557513
 21
8.1314331307
  0
LINE
  5
562
100
AcDbEntity
  8
ASSI
100
AcDbLine
 62
7
  6
CONTINUOUS
 10
-2.1524528393
 20
12.8642634617
 11
-2.1535517324
 21
13.1297752853
  0
LINE
  5
563
100
AcDbEntity
  8
RACCORDO
100
AcDbLine
 62
7
  6
CONTINUOUS
 10
-2.1525016535
 20
12.8744641764
 11
-2.153557513
 21
13.1314331307
  0
LINE
  5
564
100
AcDbEntity
  8
ASSI
100
AcDbLine
 62
7
  6
CONTINUOUS
 10
-2.1524528393
 20
17.8642634617
 11
-2.1535517324
 21
18.1297752853
  0
LINE
  5
565
100
AcDbEntity
  8
RACCORDO
100
AcDbLine
 62
7
  6
CONTINUOUS
 10
-2.1525016535
 20
17.8744641764
 11
-2.153557513
 21
18.1314331307
  0
LINE
  5
566
100
AcDbEntity
  8
ASSI
100
AcDbLine
 62
7
  6
CONTINUOUS
 10
-2.1524528393
 20
22.8642634617
 11
-2.1535517324
 21
23.1297752853
  0
LINE
  5
567
100
AcDbEntity
  8
RACCORDO
100
AcDbLine
 62
7
  6
CONTINUOUS
 10
-2.1526466549
 20
22.9054507529
 11
-2.1536717026
 21
23.1649487544
  0
LINE
  5
568
100
AcDbEntity
  8
RACCORDO
100
AcDbLine
 62
7
  6
CONTINUOUS
 10
-2.153557513
 20
8.1314331307
 11
-2.1537818484
 21
8.1987545826
  0
LINE
  5
569
100
AcDbEntity
  8
ASSI
100
AcDbLine
 62
7
  6
CONTINUOUS
 10
-2.1535517324
 20
8.1297752853
 11
-2.1537838443
 21
8.199381433
  0
LINE
  5
56A
100
AcDbEntity
  8
RACCORDO
100
AcDbLine
 62
7
  6
CONTINUOUS
 10
-2.153557513
 20
13.1314331307
 11
-2.1537818484
 21
13.1987545826
  0
LINE
  5
56B
100
AcDbEntity
  8
ASSI
100
AcDbLine
 62
7
  6
CONTINUOUS
 10
-2.1535517324
 20
13.1297752853
 11
-2.1537838443
 21
13.199381433
  0
LINE
  5
56C
100
AcDbEntity
  8
RACCORDO
100
AcDbLine
 62
7
  6
CONTINUOUS
 10
-2.153557513
 20
18.1314331307
 11
-2.1537818484
 21
18.1987545826
  0
LINE
  5
56D
100
AcDbEntity
  8
ASSI
100
AcDbLine
 62
7
  6
CONTINUOUS
 10
-2.1535517324
 20
18.1297752853
 11
-2.1537838443
 21
18.199381433
  0
LINE
  5
56E
100
AcDbEntity
  8
RACCORDO
100
AcDbLine
 62
253
  6
CONTINUOUS
 10
-2.4544554668
 20
8.5230937548
 11
-2.4535395244
 21
8.2385267478
  0
LINE
  5
56F
100
AcDbEntity
  8
ASSI
100
AcDbLine
 62
253
  6
CONTINUOUS
 10
-2.4544554668
 20
8.5230937548
 11
-2.4535395244
 21
8.2385267478
  0
LINE
  5
570
100
AcDbEntity
  8
RACCORDO
100
AcDbLine
 62
253
  6
CONTINUOUS
 10
-2.4544554668
 20
13.5230937548
 11
-2.4535395244
 21
13.2385267478
  0
LINE
  5
571
100
AcDbEntity
  8
ASSI
100
AcDbLine
 62
253
  6
CONTINUOUS
 10
-2.4544554668
 20
13.5230937548
 11
-2.4535395244
 21
13.2385267478
  0
LINE
  5
572
100
AcDbEntity
  8
RACCORDO
100
AcDbLine
 62
253
  6
CONTINUOUS
 10
-2.4544554668
 20
18.5230937548
 11
-2.4535395244
 21
18.2385267478
  0
LINE
  5
573
100
AcDbEntity
  8
ASSI
100
AcDbLine
 62
253
  6
CONTINUOUS
 10
-2.4544554668
 20
18.5230937548
 11
-2.4535395244
 21
18.2385267478
  0
LINE
  5
574
100
AcDbEntity
  8
RACCORDO
100
AcDbLine
 62
253
  6
CONTINUOUS
 10
-2.4544554668
 20
23.5230937548
 11
-2.4535395244
 21
23.2385267478
  0
LINE
  5
575
100
AcDbEntity
  8
ASSI
100
AcDbLine
 62
253
  6
CONTINUOUS
 10
-2.4544554668
 20
23.5230937548
 11
-2.4535395244
 21
23.2385267478
  0
LINE
  5
576
100
AcDbEntity
  8
RACCORDO
100
AcDbLine
 62
7
  6
CONTINUOUS
 10
-2.1537818484
 20
8.1987545826
 11
-2.1541832982
 21
8.336754873
  0
LINE
  5
577
100
AcDbEntity
  8
RACCORDO
100
AcDbLine
 62
7
  6
CONTINUOUS
 10
-2.1537818484
 20
13.1987545826
 11
-2.1541832982
 21
13.336754873
  0
LINE
  5
578
100
AcDbEntity
  8
RACCORDO
100
AcDbLine
 62
7
  6
CONTINUOUS
 10
-2.1537818484
 20
18.1987545826
 11
-2.1541832982
 21
18.336754873
  0
LINE
  5
579
100
AcDbEntity
  8
ASSI
100
AcDbLine
 62
7
  6
CONTINUOUS
 10
-2.1537838443
 20
8.199381433
 11
-2.1542899722
 21
8.3784013675
  0
LINE
  5
57A
100
AcDbEntity
  8
ASSI
100
AcDbLine
 62
7
  6
CONTINUOUS
 10
-2.1537838443
 20
13.199381433
 11
-2.1542899722
 21
13.3784013675
  0
LINE
  5
57B
100
AcDbEntity
  8
ASSI
100
AcDbLine
 62
7
  6
CONTINUOUS
 10
-2.1537838443
 20
18.199381433
 11
-2.1542899722
 21
18.3784013675
  0
LINE
  5
57C
100
AcDbEntity
  8
RACCORDO
100
AcDbLine
 62
7
  6
CONTINUOUS
 10
-2.1541832982
 20
8.336754873
 11
-2.15465796
 21
8.5509081351
  0
LINE
  5
57D
100
AcDbEntity
  8
RACCORDO
100
AcDbLine
 62
7
  6
CONTINUOUS
 10
-2.1541832982
 20
13.336754873
 11
-2.15465796
 21
13.5509081351
  0
LINE
  5
57E
100
AcDbEntity
  8
RACCORDO
100
AcDbLine
 62
7
  6
CONTINUOUS
 10
-2.1541832982
 20
18.336754873
 11
-2.15465796
 21
18.5509081351
  0
LINE
  5
57F
100
AcDbEntity
  8
RACCORDO
100
AcDbLine
 62
7
  6
CONTINUOUS
 10
-2.1536717026
 20
23.1649487544
 11
-2.1547202936
 21
23.5872711853
  0
LINE
  5
580
100
AcDbEntity
  8
RACCORDO
100
AcDbLine
 62
253
  6
CONTINUOUS
 10
-2.454973039
 20
8.8179940633
 11
-2.4544554668
 21
8.5230937548
  0
LINE
  5
581
100
AcDbEntity
  8
ASSI
100
AcDbLine
 62
253
  6
CONTINUOUS
 10
-2.454973039
 20
8.8179940633
 11
-2.4544554668
 21
8.5230937548
  0
LINE
  5
582
100
AcDbEntity
  8
RACCORDO
100
AcDbLine
 62
253
  6
CONTINUOUS
 10
-2.454973039
 20
13.8179940633
 11
-2.4544554668
 21
13.5230937548
  0
LINE
  5
583
100
AcDbEntity
  8
ASSI
100
AcDbLine
 62
253
  6
CONTINUOUS
 10
-2.454973039
 20
13.8179940633
 11
-2.4544554668
 21
13.5230937548
  0
LINE
  5
584
100
AcDbEntity
  8
RACCORDO
100
AcDbLine
 62
253
  6
CONTINUOUS
 10
-2.454973039
 20
18.8179940633
 11
-2.4544554668
 21
18.5230937548
  0
LINE
  5
585
100
AcDbEntity
  8
ASSI
100
AcDbLine
 62
253
  6
CONTINUOUS
 10
-2.454973039
 20
18.8179940633
 11
-2.4544554668
 21
18.5230937548
  0
LINE
  5
586
100
AcDbEntity
  8
RACCORDO
100
AcDbLine
 62
253
  6
CONTINUOUS
 10
-2.454973039
 20
23.8179940633
 11
-2.4544554668
 21
23.5230937548
  0
LINE
  5
587
100
AcDbEntity
  8
ASSI
100
AcDbLine
 62
253
  6
CONTINUOUS
 10
-2.454973039
 20
23.8179940633
 11
-2.4544554668
 21
23.5230937548
  0
LINE
  5
588
100
AcDbEntity
  8
ASSI
100
AcDbLine
 62
7
  6
CONTINUOUS
 10
-2.1542899722
 20
8.3784013675
 11
-2.1547995357
 21
8.6386539767
  0
LINE
  5
589
100
AcDbEntity
  8
ASSI
100
AcDbLine
 62
7
  6
CONTINUOUS
 10
-2.1542899722
 20
13.3784013675
 11
-2.1547995357
 21
13.6386539767
  0
LINE
  5
58A
100
AcDbEntity
  8
ASSI
100
AcDbLine
 62
7
  6
CONTINUOUS
 10
-2.1542899722
 20
18.3784013675
 11
-2.1547995357
 21
18.6386539767
  0
LINE
  5
58B
100
AcDbEntity
  8
ASSI
100
AcDbLine
 62
7
  6
CONTINUOUS
 10
-2.1535517324
 20
23.1297752853
 11
-2.1548514278
 21
23.6764944466
  0
LINE
  5
58C
100
AcDbEntity
  8
RACCORDO
100
AcDbLine
 62
7
  6
CONTINUOUS
 10
-2.15465796
 20
8.5509081351
 11
-2.1549202779
 21
8.7341014308
  0
LINE
  5
58D
100
AcDbEntity
  8
RACCORDO
100
AcDbLine
 62
7
  6
CONTINUOUS
 10
-2.15465796
 20
13.5509081351
 11
-2.1549202779
 21
13.7341014308
  0
LINE
  5
58E
100
AcDbEntity
  8
RACCORDO
100
AcDbLine
 62
7
  6
CONTINUOUS
 10
-2.15465796
 20
18.5509081351
 11
-2.1549202779
 21
18.7341014308
  0
LINE
  5
58F
100
AcDbEntity
  8
ASSI
100
AcDbLine
 62
7
  6
CONTINUOUS
 10
-2.1547995357
 20
8.6386539767
 11
-2.1549765554
 21
8.7906831506
  0
LINE
  5
590
100
AcDbEntity
  8
ASSI
100
AcDbLine
 62
7
  6
CONTINUOUS
 10
-2.1547995357
 20
13.6386539767
 11
-2.1549765554
 21
13.7906831506
  0
LINE
  5
591
100
AcDbEntity
  8
ASSI
100
AcDbLine
 62
7
  6
CONTINUOUS
 10
-2.1547995357
 20
18.6386539767
 11
-2.1549765554
 21
18.7906831506
  0
LINE
  5
592
100
AcDbEntity
  8
RACCORDO
100
AcDbLine
 62
7
  6
CONTINUOUS
 10
-2.1549202779
 20
8.7341014308
 11
-2.1550207759
 21
8.845290302
  0
LINE
  5
593
100
AcDbEntity
  8
RACCORDO
100
AcDbLine
 62
7
  6
CONTINUOUS
 10
-2.1549202779
 20
13.7341014308
 11
-2.1550207759
 21
13.845290302
  0
LINE
  5
594
100
AcDbEntity
  8
RACCORDO
100
AcDbLine
 62
7
  6
CONTINUOUS
 10
-2.1549202779
 20
18.7341014308
 11
-2.1550207759
 21
18.845290302
  0
LINE
  5
595
100
AcDbEntity
  8
ASSI
100
AcDbLine
 62
7
  6
CONTINUOUS
 10
-2.1549765554
 20
8.7906831506
 11
-2.1550860447
 21
8.9822599371
  0
LINE
  5
596
100
AcDbEntity
  8
ASSI
100
AcDbLine
 62
7
  6
CONTINUOUS
 10
-2.1549765554
 20
13.7906831506
 11
-2.1550860447
 21
13.9822599371
  0
LINE
  5
597
100
AcDbEntity
  8
ASSI
100
AcDbLine
 62
7
  6
CONTINUOUS
 10
-2.1549765554
 20
18.7906831506
 11
-2.1550860447
 21
18.9822599371
  0
LINE
  5
598
100
AcDbEntity
  8
ASSI
100
AcDbLine
 62
7
  6
CONTINUOUS
 10
-2.1548514278
 20
23.6764944466
 11
-2.1550920463
 21
24.020618362
  0
LINE
  5
599
100
AcDbEntity
  8
DRAFT
100
AcDbLine
 62
7
  6
CONTINUOUS
 10
-3.4684274954
 20
2.2209626893
 11
-3.4684274954
 21
3.016168423
  0
LINE
  5
59A
100
AcDbEntity
  8
DRAFT
100
AcDbLine
 62
7
  6
CONTINUOUS
 10
-3.4684274954
 20
43.0685336178
 11
-3.4684274954
 21
43.8637393515
  0
LINE
  5
59B
100
AcDbEntity
  8
DRAFT
100
AcDbLine
 62
7
  6
CONTINUOUS
 10
-3.442244898
 20
2.1423510204
 11
-3.442244898
 21
3.0423510204
  0
LINE
  5
59C
100
AcDbEntity
  8
DRAFT
100
AcDbLine
 62
7
  6
CONTINUOUS
 10
-3.442244898
 20
43.0423510204
 11
-3.442244898
 21
43.9423510204
  0
LINE
  5
59D
100
AcDbEntity
  8
ASSI
100
AcDbLine
 62
7
  6
CONTINUOUS
 10
-3.292244898
 20
26.1923510204
 11
-3.292244898
 21
21.8923510204
  0
LINE
  5
59E
100
AcDbEntity
  8
ASSI
100
AcDbLine
 62
7
  6
CONTINUOUS
 10
-3.292244898
 20
21.1923510204
 11
-3.292244898
 21
16.8923510204
  0
LINE
  5
59F
100
AcDbEntity
  8
ASSI
100
AcDbLine
 62
7
  6
CONTINUOUS
 10
-3.292244898
 20
16.1923510204
 11
-3.292244898
 21
11.8923510204
  0
LINE
  5
5A0
100
AcDbEntity
  8
ASSI
100
AcDbLine
 62
7
  6
CONTINUOUS
 10
-3.292244898
 20
11.1923510204
 11
-3.292244898
 21
6.8923510204
  0
LINE
  5
5A1
100
AcDbEntity
  8
RACCORDO
100
AcDbLine
 62
253
  6
CONTINUOUS
 10
-2.6966125012
 20
-1.4532771456
 11
-2.6966125012
 21
-0.5854801959
  0
LINE
  5
5A2
100
AcDbEntity
  8
RACCORDO
100
AcDbLine
 62
253
  6
CONTINUOUS
 10
-2.6966125012
 20
46.6701822368
 11
-2.6966125012
 21
47.5379791864
  0
LINE
  5
5A3
100
AcDbEntity
  8
RACCORDO
100
AcDbLine
 62
253
  6
CONTINUOUS
 10
-2.4550756782
 20
24.1175490627
 11
-2.454973039
 21
23.8179940633
  0
LINE
  5
5A4
100
AcDbEntity
  8
ASSI
100
AcDbLine
 62
253
  6
CONTINUOUS
 10
-2.4550756782
 20
24.1175490627
 11
-2.454973039
 21
23.8179940633
  0
LINE
  5
5A5
100
AcDbEntity
  8
RACCORDO
100
AcDbLine
 62
253
  6
CONTINUOUS
 10
-2.4550756782
 20
19.1175490627
 11
-2.454973039
 21
18.8179940633
  0
LINE
  5
5A6
100
AcDbEntity
  8
ASSI
100
AcDbLine
 62
253
  6
CONTINUOUS
 10
-2.4550756782
 20
19.1175490627
 11
-2.454973039
 21
18.8179940633
  0
LINE
  5
5A7
100
AcDbEntity
  8
RACCORDO
100
AcDbLine
 62
253
  6
CONTINUOUS
 10
-2.4550756782
 20
14.1175490627
 11
-2.454973039
 21
13.8179940633
  0
LINE
  5
5A8
100
AcDbEntity
  8
ASSI
100
AcDbLine
 62
253
  6
CONTINUOUS
 10
-2.4550756782
 20
14.1175490627
 11
-2.454973039
 21
13.8179940633
  0
LINE
  5
5A9
100
AcDbEntity
  8
RACCORDO
100
AcDbLine
 62
253
  6
CONTINUOUS
 10
-2.4550756782
 20
9.1175490627
 11
-2.454973039
 21
8.8179940633
  0
LINE
  5
5AA
100
AcDbEntity
  8
ASSI
100
AcDbLine
 62
253
  6
CONTINUOUS
 10
-2.4550756782
 20
9.1175490627
 11
-2.454973039
 21
8.8179940633
  0
LINE
  5
5AB
100
AcDbEntity
  8
RACCORDO
100
AcDbLine
 62
253
  6
CONTINUOUS
 10
-2.446616732
 20
-1.2032813764
 11
-2.446616732
 21
-0.8019865469
  0
LINE
  5
5AC
100
AcDbEntity
  8
RACCORDO
100
AcDbLine
 62
253
  6
CONTINUOUS
 10
-2.446616732
 20
46.8866885877
 11
-2.446616732
 21
47.2879834172
  0
LINE
  5
5AD
100
AcDbEntity
  8
RACCORDO
100
AcDbLine
 62
7
  6
CONTINUOUS
 10
-2.442244898
 20
-1.2076532104
 11
-2.442244898
 21
0.6423510204
  0
LINE
  5
5AE
100
AcDbEntity
  8
RACCORDO
100
AcDbLine
 62
7
  6
CONTINUOUS
 10
-2.442244898
 20
45.4423510204
 11
-2.442244898
 21
47.2923552512
  0
LINE
  5
5AF
100
AcDbEntity
  8
RACCORDO
100
AcDbLine
 62
7
  6
CONTINUOUS
 10
-2.1550207759
 20
8.845290302
 11
-2.1550927464
 21
9.0314614164
  0
LINE
  5
5B0
100
AcDbEntity
  8
RACCORDO
100
AcDbLine
 62
7
  6
CONTINUOUS
 10
-2.1550207759
 20
13.845290302
 11
-2.1550927464
 21
14.0314614164
  0
LINE
  5
5B1
100
AcDbEntity
  8
RACCORDO
100
AcDbLine
 62
7
  6
CONTINUOUS
 10
-2.1550207759
 20
18.845290302
 11
-2.1550927464
 21
19.0314614164
  0
LINE
  5
5B2
100
AcDbEntity
  8
RACCORDO
100
AcDbLine
 62
7
  6
CONTINUOUS
 10
-2.1547202936
 20
23.5872711853
 11
-2.1550917944
 21
24.0686874533
  0
LINE
  5
5B3
100
AcDbEntity
  8
ASSI
100
AcDbLine
 62
7
  6
CONTINUOUS
 10
-2.092244898
 20
6.6791231254
 11
-2.092244898
 21
11.4055789154
  0
LINE
  5
5B4
100
AcDbEntity
  8
ASSI
100
AcDbLine
 62
7
  6
CONTINUOUS
 10
-2.092244898
 20
11.6791231254
 11
-2.092244898
 21
16.4055789154
  0
LINE
  5
5B5
100
AcDbEntity
  8
ASSI
100
AcDbLine
 62
7
  6
CONTINUOUS
 10
-2.092244898
 20
16.6791231254
 11
-2.092244898
 21
21.4055789154
  0
LINE
  5
5B6
100
AcDbEntity
  8
ASSI
100
AcDbLine
 62
7
  6
CONTINUOUS
 10
-2.092244898
 20
21.6791231254
 11
-2.092244898
 21
26.4055789154
  0
LINE
  5
5B7
100
AcDbEntity
  8
ASSI
100
AcDbLine
 62
7
  6
CONTINUOUS
 10
-2.1550860447
 20
18.9822599371
 11
-2.1550611669
 21
19.173678537
  0
LINE
  5
5B8
100
AcDbEntity
  8
ASSI
100
AcDbLine
 62
7
  6
CONTINUOUS
 10
-2.1550860447
 20
13.9822599371
 11
-2.1550611669
 21
14.173678537
  0
LINE
  5
5B9
100
AcDbEntity
  8
ASSI
100
AcDbLine
 62
7
  6
CONTINUOUS
 10
-2.1550860447
 20
8.9822599371
 11
-2.1550611669
 21
9.173678537
  0
LINE
  5
5BA
100
AcDbEntity
  8
RACCORDO
100
AcDbLine
 62
7
  6
CONTINUOUS
 10
-2.1550927464
 20
19.0314614164
 11
-2.1550366251
 21
19.2170840189
  0
LINE
  5
5BB
100
AcDbEntity
  8
RACCORDO
100
AcDbLine
 62
7
  6
CONTINUOUS
 10
-2.1550927464
 20
14.0314614164
 11
-2.1550366251
 21
14.2170840189
  0
LINE
  5
5BC
100
AcDbEntity
  8
RACCORDO
100
AcDbLine
 62
7
  6
CONTINUOUS
 10
-2.1550927464
 20
9.0314614164
 11
-2.1550366251
 21
9.2170840189
  0
LINE
  5
5BD
100
AcDbEntity
  8
ASSI
100
AcDbLine
 62
7
  6
CONTINUOUS
 10
-2.1550920463
 20
24.020618362
 11
-2.1549059552
 21
24.3629719676
  0
LINE
  5
5BE
100
AcDbEntity
  8
ASSI
100
AcDbLine
 62
7
  6
CONTINUOUS
 10
-2.1550611669
 20
19.173678537
 11
-2.1549464698
 21
19.3253796835
  0
LINE
  5
5BF
100
AcDbEntity
  8
ASSI
100
AcDbLine
 62
7
  6
CONTINUOUS
 10
-2.1550611669
 20
14.173678537
 11
-2.1549464698
 21
14.3253796835
  0
LINE
  5
5C0
100
AcDbEntity
  8
RACCORDO
100
AcDbLine
 62
7
  6
CONTINUOUS
 10
-2.1550366251
 20
14.2170840189
 11
-2.1549443781
 21
14.3274333039
  0
LINE
  5
5C1
100
AcDbEntity
  8
ASSI
100
AcDbLine
 62
7
  6
CONTINUOUS
 10
-2.1550611669
 20
9.173678537
 11
-2.1549464698
 21
9.3253796835
  0
LINE
  5
5C2
100
AcDbEntity
  8
RACCORDO
100
AcDbLine
 62
7
  6
CONTINUOUS
 10
-2.1550366251
 20
9.2170840189
 11
-2.1549443781
 21
9.3274333039
  0
LINE
  5
5C3
100
AcDbEntity
  8
RACCORDO
100
AcDbLine
 62
253
  6
CONTINUOUS
 10
-2.4547649676
 20
24.415508173
 11
-2.4550756782
 21
24.1175490627
  0
LINE
  5
5C4
100
AcDbEntity
  8
ASSI
100
AcDbLine
 62
253
  6
CONTINUOUS
 10
-2.4547649676
 20
24.415508173
 11
-2.4550756782
 21
24.1175490627
  0
LINE
  5
5C5
100
AcDbEntity
  8
RACCORDO
100
AcDbLine
 62
253
  6
CONTINUOUS
 10
-2.4547649676
 20
19.415508173
 11
-2.4550756782
 21
19.1175490627
  0
LINE
  5
5C6
100
AcDbEntity
  8
ASSI
100
AcDbLine
 62
253
  6
CONTINUOUS
 10
-2.4547649676
 20
19.415508173
 11
-2.4550756782
 21
19.1175490627
  0
LINE
  5
5C7
100
AcDbEntity
  8
RACCORDO
100
AcDbLine
 62
253
  6
CONTINUOUS
 10
-2.4547649676
 20
14.415508173
 11
-2.4550756782
 21
14.1175490627
  0
LINE
  5
5C8
100
AcDbEntity
  8
ASSI
100
AcDbLine
 62
253
  6
CONTINUOUS
 10
-2.4547649676
 20
14.415508173
 11
-2.4550756782
 21
14.1175490627
  0
LINE
  5
5C9
100
AcDbEntity
  8
RACCORDO
100
AcDbLine
 62
253
  6
CONTINUOUS
 10
-2.4547649676
 20
9.415508173
 11
-2.4550756782
 21
9.1175490627
  0
LINE
  5
5CA
100
AcDbEntity
  8
ASSI
100
AcDbLine
 62
253
  6
CONTINUOUS
 10
-2.4547649676
 20
9.415508173
 11
-2.4550756782
 21
9.1175490627
  0
LINE
  5
5CB
100
AcDbEntity
  8
RACCORDO
100
AcDbLine
 62
7
  6
CONTINUOUS
 10
-2.1550917944
 20
24.0686874533
 11
-2.1547016677
 21
24.5084022956
  0
LINE
  5
5CC
100
AcDbEntity
  8
RACCORDO
100
AcDbLine
 62
7
  6
CONTINUOUS
 10
-2.1550366251
 20
19.2170840189
 11
-2.1547593578
 21
19.4725699692
  0
LINE
  5
5CD
100
AcDbEntity
  8
RACCORDO
100
AcDbLine
 62
7
  6
CONTINUOUS
 10
-2.1549443781
 20
14.3274333039
 11
-2.1547593578
 21
14.4725699692
  0
LINE
  5
5CE
100
AcDbEntity
  8
RACCORDO
100
AcDbLine
 62
7
  6
CONTINUOUS
 10
-2.1549443781
 20
9.3274333039
 11
-2.1547593578
 21
9.4725699692
  0
LINE
  5
5CF
100
AcDbEntity
  8
ASSI
100
AcDbLine
 62
7
  6
CONTINUOUS
 10
-2.1549464698
 20
19.3253796835
 11
-2.1546963096
 21
19.5115805291
  0
LINE
  5
5D0
100
AcDbEntity
  8
ASSI
100
AcDbLine
 62
7
  6
CONTINUOUS
 10
-2.1549464698
 20
14.3253796835
 11
-2.1546963096
 21
14.5115805291
  0
LINE
  5
5D1
100
AcDbEntity
  8
ASSI
100
AcDbLine
 62
7
  6
CONTINUOUS
 10
-2.1549464698
 20
9.3253796835
 11
-2.1546963096
 21
9.5115805291
  0
LINE
  5
5D2
100
AcDbEntity
  8
RACCORDO
100
AcDbLine
 62
7
  6
CONTINUOUS
 10
-2.1547593578
 20
19.4725699692
 11
-2.1543443853
 21
19.684227098
  0
LINE
  5
5D3
100
AcDbEntity
  8
RACCORDO
100
AcDbLine
 62
7
  6
CONTINUOUS
 10
-2.1547593578
 20
14.4725699692
 11
-2.1543443853
 21
14.684227098
  0
LINE
  5
5D4
100
AcDbEntity
  8
RACCORDO
100
AcDbLine
 62
7
  6
CONTINUOUS
 10
-2.1547593578
 20
9.4725699692
 11
-2.1543443853
 21
9.684227098
  0
LINE
  5
5D5
100
AcDbEntity
  8
ASSI
100
AcDbLine
 62
7
  6
CONTINUOUS
 10
-2.1549059552
 20
24.3629719676
 11
-2.1541444699
 21
24.7626834287
  0
LINE
  5
5D6
100
AcDbEntity
  8
ASSI
100
AcDbLine
 62
7
  6
CONTINUOUS
 10
-2.1546963096
 20
19.5115805291
 11
-2.154236832
 21
19.7276413319
  0
LINE
  5
5D7
100
AcDbEntity
  8
ASSI
100
AcDbLine
 62
7
  6
CONTINUOUS
 10
-2.1546963096
 20
14.5115805291
 11
-2.154236832
 21
14.7276413319
  0
LINE
  5
5D8
100
AcDbEntity
  8
ASSI
100
AcDbLine
 62
7
  6
CONTINUOUS
 10
-2.1546963096
 20
9.5115805291
 11
-2.154236832
 21
9.7276413319
  0
LINE
  5
5D9
100
AcDbEntity
  8
RACCORDO
100
AcDbLine
 62
253
  6
CONTINUOUS
 10
-2.4540457879
 20
24.70596818
 11
-2.4547649676
 21
24.415508173
  0
LINE
  5
5DA
100
AcDbEntity
  8
ASSI
100
AcDbLine
 62
253
  6
CONTINUOUS
 10
-2.4540457879
 20
24.70596818
 11
-2.4547649676
 21
24.415508173
  0
LINE
  5
5DB
100
AcDbEntity
  8
RACCORDO
100
AcDbLine
 62
253
  6
CONTINUOUS
 10
-2.4540457879
 20
19.70596818
 11
-2.4547649676
 21
19.415508173
  0
LINE
  5
5DC
100
AcDbEntity
  8
ASSI
100
AcDbLine
 62
253
  6
CONTINUOUS
 10
-2.4540457879
 20
19.70596818
 11
-2.4547649676
 21
19.415508173
  0
LINE
  5
5DD
100
AcDbEntity
  8
RACCORDO
100
AcDbLine
 62
253
  6
CONTINUOUS
 10
-2.4540457879
 20
14.70596818
 11
-2.4547649676
 21
14.415508173
  0
LINE
  5
5DE
100
AcDbEntity
  8
ASSI
100
AcDbLine
 62
253
  6
CONTINUOUS
 10
-2.4540457879
 20
14.70596818
 11
-2.4547649676
 21
14.415508173
  0
LINE
  5
5DF
100
AcDbEntity
  8
RACCORDO
100
AcDbLine
 62
253
  6
CONTINUOUS
 10
-2.4540457879
 20
9.70596818
 11
-2.4547649676
 21
9.415508173
  0
LINE
  5
5E0
100
AcDbEntity
  8
ASSI
100
AcDbLine
 62
253
  6
CONTINUOUS
 10
-2.4540457879
 20
9.70596818
 11
-2.4547649676
 21
9.415508173
  0
LINE
  5
5E1
100
AcDbEntity
  8
RACCORDO
100
AcDbLine
 62
7
  6
CONTINUOUS
 10
-2.1547016677
 20
24.5084022956
 11
-2.1538830835
 21
24.8533416231
  0
LINE
  5
5E2
100
AcDbEntity
  8
RACCORDO
100
AcDbLine
 62
7
  6
CONTINUOUS
 10
-2.1543443853
 20
14.684227098
 11
-2.1539825438
 21
14.8201249128
  0
LINE
  5
5E3
100
AcDbEntity
  8
RACCORDO
100
AcDbLine
 62
7
  6
CONTINUOUS
 10
-2.1543443853
 20
9.684227098
 11
-2.1539825438
 21
9.8201249128
  0
LINE
  5
5E4
100
AcDbEntity
  8
ASSI
100
AcDbLine
 62
7
  6
CONTINUOUS
 10
-2.154236832
 20
14.7276413319
 11
-2.1538444114
 21
14.8658850249
  0
LINE
  5
5E5
100
AcDbEntity
  8
ASSI
100
AcDbLine
 62
7
  6
CONTINUOUS
 10
-2.154236832
 20
9.7276413319
 11
-2.1538444114
 21
9.8658850249
  0
LINE
  5
5E6
100
AcDbEntity
  8
RACCORDO
100
AcDbLine
 62
7
  6
CONTINUOUS
 10
-2.1543443853
 20
19.684227098
 11
-2.1535644648
 21
19.9510875033
  0
LINE
  5
5E7
100
AcDbEntity
  8
ASSI
100
AcDbLine
 62
7
  6
CONTINUOUS
 10
-2.154236832
 20
19.7276413319
 11
-2.1533936811
 21
19.9988018823
  0
LINE
  5
5E8
100
AcDbEntity
  8
RACCORDO
100
AcDbLine
 62
7
  6
CONTINUOUS
 10
-2.1539825438
 20
14.8201249128
 11
-2.1534513271
 21
14.9830217454
  0
LINE
  5
5E9
100
AcDbEntity
  8
RACCORDO
100
AcDbLine
 62
7
  6
CONTINUOUS
 10
-2.1539825438
 20
9.8201249128
 11
-2.1534513271
 21
9.9830217454
  0
LINE
  5
5EA
100
AcDbEntity
  8
ASSI
100
AcDbLine
 62
7
  6
CONTINUOUS
 10
-2.1541444699
 20
24.7626834287
 11
-2.1527476433
 21
25.1571535769
  0
LINE
  5
5EB
100
AcDbEntity
  8
ASSI
100
AcDbLine
 62
7
  6
CONTINUOUS
 10
-2.1538444114
 20
14.8658850249
 11
-2.1528839538
 21
15.1261885042
  0
LINE
  5
5EC
100
AcDbEntity
  8
ASSI
100
AcDbLine
 62
7
  6
CONTINUOUS
 10
-2.1538444114
 20
9.8658850249
 11
-2.1528839538
 21
10.1261885042
  0
LINE
  5
5ED
100
AcDbEntity
  8
RACCORDO
100
AcDbLine
 62
253
  6
CONTINUOUS
 10
-2.4529317112
 20
24.9832891505
 11
-2.4540457879
 21
24.70596818
  0
LINE
  5
5EE
100
AcDbEntity
  8
ASSI
100
AcDbLine
 62
253
  6
CONTINUOUS
 10
-2.4529317112
 20
24.9832891505
 11
-2.4540457879
 21
24.70596818
  0
LINE
  5
5EF
100
AcDbEntity
  8
RACCORDO
100
AcDbLine
 62
253
  6
CONTINUOUS
 10
-2.4529317112
 20
19.9832891505
 11
-2.4540457879
 21
19.70596818
  0
LINE
  5
5F0
100
AcDbEntity
  8
ASSI
100
AcDbLine
 62
253
  6
CONTINUOUS
 10
-2.4529317112
 20
19.9832891505
 11
-2.4540457879
 21
19.70596818
  0
LINE
  5
5F1
100
AcDbEntity
  8
RACCORDO
100
AcDbLine
 62
253
  6
CONTINUOUS
 10
-2.4529317112
 20
14.9832891505
 11
-2.4540457879
 21
14.70596818
  0
LINE
  5
5F2
100
AcDbEntity
  8
ASSI
100
AcDbLine
 62
253
  6
CONTINUOUS
 10
-2.4529317112
 20
14.9832891505
 11
-2.4540457879
 21
14.70596818
  0
LINE
  5
5F3
100
AcDbEntity
  8
RACCORDO
100
AcDbLine
 62
253
  6
CONTINUOUS
 10
-2.4529317112
 20
9.9832891505
 11
-2.4540457879
 21
9.70596818
  0
LINE
  5
5F4
100
AcDbEntity
  8
ASSI
100
AcDbLine
 62
253
  6
CONTINUOUS
 10
-2.4529317112
 20
9.9832891505
 11
-2.4540457879
 21
9.70596818
  0
LINE
  5
5F5
100
AcDbEntity
  8
RACCORDO
100
AcDbLine
 62
7
  6
CONTINUOUS
 10
-2.1535644648
 20
19.9510875033
 11
-2.1525634086
 21
20.1973132556
  0
LINE
  5
5F6
100
AcDbEntity
  8
RACCORDO
100
AcDbLine
 62
7
  6
CONTINUOUS
 10
-2.1538830835
 20
24.8533416231
 11
-2.1522813649
 21
25.2555119091
  0
LINE
  5
5F7
100
AcDbEntity
  8
ASSI
100
AcDbLine
 62
7
  6
CONTINUOUS
 10
-2.1533936811
 20
19.9988018823
 11
-2.1523192187
 21
20.2479100337
  0
LINE
  5
5F8
100
AcDbEntity
  8
RACCORDO
100
AcDbLine
 62
7
  6
CONTINUOUS
 10
-2.1534513271
 20
14.9830217454
 11
-2.1524237896
 21
15.2265835115
  0
LINE
  5
5F9
100
AcDbEntity
  8
RACCORDO
100
AcDbLine
 62
7
  6
CONTINUOUS
 10
-2.1534513271
 20
9.9830217454
 11
-2.1524237896
 21
10.2265835115
  0
LINE
  5
5FA
100
AcDbEntity
  8
ASSI
100
AcDbLine
 62
7
  6
CONTINUOUS
 10
-2.1528839538
 20
10.1261885042
 11
-2.1520190297
 21
10.3066142693
  0
LINE
  5
5FB
100
AcDbEntity
  8
RACCORDO
100
AcDbLine
 62
7
  6
CONTINUOUS
 10
-2.1524237896
 20
10.2265835115
 11
-2.1519887586
 21
10.3123455116
  0
LINE
  5
5FC
100
AcDbEntity
  8
ASSI
100
AcDbLine
 62
7
  6
CONTINUOUS
 10
-2.1528839538
 20
15.1261885042
 11
-2.1517086948
 21
15.3638629173
  0
LINE
  5
5FD
100
AcDbEntity
  8
ASSI
100
AcDbLine
 62
7
  6
CONTINUOUS
 10
-2.1527476433
 20
25.1571535769
 11
-2.1515496788
 21
25.3919399788
  0
LINE
  5
5FE
100
AcDbEntity
  8
CURVE
100
AcDbLine
 62
253
  6
CONTINUOUS
 10
-2.0364878927
 20
37.7209224711
 11
-2.0370280869
 21
37.6280653725
  0
LINE
  5
5FF
100
AcDbEntity
  8
RACCORDO
100
AcDbLine
 62
7
  6
CONTINUOUS
 10
-2.1525634086
 20
20.1973132556
 11
-2.1512151599
 21
20.4483954314
  0
LINE
  5
600
100
AcDbEntity
  8
RACCORDO
100
AcDbLine
 62
253
  6
CONTINUOUS
 10
-2.451451471
 20
25.2421972255
 11
-2.4529317112
 21
24.9832891505
  0
LINE
  5
601
100
AcDbEntity
  8
ASSI
100
AcDbLine
 62
253
  6
CONTINUOUS
 10
-2.451451471
 20
25.2421972255
 11
-2.4529317112
 21
24.9832891505
  0
LINE
  5
602
100
AcDbEntity
  8
RACCORDO
100
AcDbLine
 62
253
  6
CONTINUOUS
 10
-2.451451471
 20
20.2421972255
 11
-2.4529317112
 21
19.9832891505
  0
LINE
  5
603
100
AcDbEntity
  8
ASSI
100
AcDbLine
 62
253
  6
CONTINUOUS
 10
-2.451451471
 20
20.2421972255
 11
-2.4529317112
 21
19.9832891505
  0
LINE
  5
604
100
AcDbEntity
  8
RACCORDO
100
AcDbLine
 62
253
  6
CONTINUOUS
 10
-2.451451471
 20
15.2421972255
 11
-2.4529317112
 21
14.9832891505
  0
LINE
  5
605
100
AcDbEntity
  8
ASSI
100
AcDbLine
 62
253
  6
CONTINUOUS
 10
-2.451451471
 20
15.2421972255
 11
-2.4529317112
 21
14.9832891505
  0
LINE
  5
606
100
AcDbEntity
  8
RACCORDO
100
AcDbLine
 62
253
  6
CONTINUOUS
 10
-2.451451471
 20
10.2421972255
 11
-2.4529317112
 21
9.9832891505
  0
LINE
  5
607
100
AcDbEntity
  8
ASSI
100
AcDbLine
 62
253
  6
CONTINUOUS
 10
-2.451451471
 20
10.2421972255
 11
-2.4529317112
 21
9.9832891505
  0
LINE
  5
608
100
AcDbEntity
  8
ASSI
100
AcDbLine
 62
7
  6
CONTINUOUS
 10
-2.1523192187
 20
20.2479100337
 11
-2.1510567145
 21
20.4739724475
  0
LINE
  5
609
100
AcDbEntity
  8
RACCORDO
100
AcDbLine
 62
7
  6
CONTINUOUS
 10
-2.1524237896
 20
15.2265835115
 11
-2.1510529718
 21
15.4745680015
  0
LINE
  5
60A
100
AcDbEntity
  8
RACCORDO
100
AcDbLine
 62
7
  6
CONTINUOUS
 10
-2.1522813649
 20
25.2555119091
 11
-2.1508882896
 21
25.5003925695
  0
LINE
  5
60B
100
AcDbEntity
  8
ASSI
100
AcDbLine
 62
7
  6
CONTINUOUS
 10
-2.1517086948
 20
15.3638629173
 11
-2.1503625344
 21
15.5782088608
  0
LINE
  5
60C
100
AcDbEntity
  8
ASSI
100
AcDbLine
 62
7
  6
CONTINUOUS
 10
-2.1515496788
 20
25.3919399788
 11
-2.1501827292
 21
25.603349641
  0
LINE
  5
60D
100
AcDbEntity
  8
RACCORDO
100
AcDbLine
 62
7
  6
CONTINUOUS
 10
-2.1512151599
 20
20.4483954314
 11
-2.1498503723
 21
20.6480617314
  0
LINE
  5
60E
100
AcDbEntity
  8
RACCORDO
100
AcDbLine
 62
7
  6
CONTINUOUS
 10
-2.1510529718
 20
15.4745680015
 11
-2.1496698716
 21
15.6714595017
  0
LINE
  5
60F
100
AcDbEntity
  8
ASSI
100
AcDbLine
 62
7
  6
CONTINUOUS
 10
-2.1510567145
 20
20.4739724475
 11
-2.1496298869
 21
20.6765634159
  0
LINE
  5
610
100
AcDbEntity
  8
RACCORDO
100
AcDbLine
 62
7
  6
CONTINUOUS
 10
-2.1508882896
 20
25.5003925695
 11
-2.149487532
 21
25.6945108051
  0
LINE
  5
611
100
AcDbEntity
  8
RACCORDO
100
AcDbLine
 62
253
  6
CONTINUOUS
 10
-2.4496260862
 20
25.4778341865
 11
-2.451451471
 21
25.2421972255
  0
LINE
  5
612
100
AcDbEntity
  8
ASSI
100
AcDbLine
 62
253
  6
CONTINUOUS
 10
-2.4496260862
 20
25.4778341865
 11
-2.451451471
 21
25.2421972255
  0
LINE
  5
613
100
AcDbEntity
  8
RACCORDO
100
AcDbLine
 62
253
  6
CONTINUOUS
 10
-2.4496260862
 20
20.4778341865
 11
-2.451451471
 21
20.2421972255
  0
LINE
  5
614
100
AcDbEntity
  8
ASSI
100
AcDbLine
 62
253
  6
CONTINUOUS
 10
-2.4496260862
 20
20.4778341865
 11
-2.451451471
 21
20.2421972255
  0
LINE
  5
615
100
AcDbEntity
  8
RACCORDO
100
AcDbLine
 62
253
  6
CONTINUOUS
 10
-2.4496260862
 20
15.4778341865
 11
-2.451451471
 21
15.2421972255
  0
LINE
  5
616
100
AcDbEntity
  8
ASSI
100
AcDbLine
 62
253
  6
CONTINUOUS
 10
-2.4496260862
 20
15.4778341865
 11
-2.451451471
 21
15.2421972255
  0
LINE
  5
617
100
AcDbEntity
  8
RACCORDO
100
AcDbLine
 62
253
  6
CONTINUOUS
 10
-2.4496260862
 20
10.4778341865
 11
-2.451451471
 21
10.2421972255
  0
LINE
  5
618
100
AcDbEntity
  8
ASSI
100
AcDbLine
 62
253
  6
CONTINUOUS
 10
-2.4496260862
 20
10.4778341865
 11
-2.451451471
 21
10.2421972255
  0
LWPOLYLINE
  5
619
100
AcDbEntity
  8
ASSI
100
AcDbPolyline
 62
7
  6
CONTINUOUS
 90
3
 70
0
 10
-2.1503625344
 20
15.5782088608
 10
-2.1488664837
 20
15.7690309315
 10
-2.1486714592
 20
15.7912267053
  0
LINE
  5
61A
100
AcDbEntity
  8
ASSI
100
AcDbLine
 62
7
  6
CONTINUOUS
 10
-2.1501827292
 20
25.603349641
 11
-2.1486714592
 21
25.7912267053
  0
LINE
  5
61B
100
AcDbEntity
  8
RACCORDO
100
AcDbLine
 62
7
  6
CONTINUOUS
 10
-2.1496698716
 20
15.6714595017
 11
-2.148551867
 21
15.8045605343
  0
LINE
  5
61C
100
AcDbEntity
  8
RACCORDO
100
AcDbLine
 62
7
  6
CONTINUOUS
 10
-2.1498503723
 20
20.6480617314
 11
-2.1483598918
 21
20.8255324877
  0
LINE
  5
61D
100
AcDbEntity
  8
RACCORDO
100
AcDbLine
 62
7
  6
CONTINUOUS
 10
-2.149487532
 20
25.6945108051
 11
-2.1479709057
 21
25.8664421581
  0
LINE
  5
61E
100
AcDbEntity
  8
ASSI
100
AcDbLine
 62
7
  6
CONTINUOUS
 10
-2.1496298869
 20
20.6765634159
 11
-2.1480757795
 21
20.855616882
  0
LINE
  5
61F
100
AcDbEntity
  8
RACCORDO
100
AcDbLine
 62
253
  6
CONTINUOUS
 10
-2.6915219001
 20
-0.0802987104
 11
-2.6966125012
 21
-0.5854801959
  0
LINE
  5
620
100
AcDbEntity
  8
RACCORDO
100
AcDbLine
 62
253
  6
CONTINUOUS
 10
-2.442244898
 20
-0.3681341278
 11
-2.446616732
 21
-0.8019865469
  0
LINE
  5
621
100
AcDbEntity
  8
ASSI
100
AcDbLine
 62
7
  6
CONTINUOUS
 10
-2.1486714592
 20
25.7912267053
 11
-2.1470478735
 21
25.9556466942
  0
LINE
  5
622
100
AcDbEntity
  8
RACCORDO
100
AcDbLine
 62
7
  6
CONTINUOUS
 10
-2.1483598918
 20
20.8255324877
 11
-2.1467650133
 21
20.9809584972
  0
LINE
  5
623
100
AcDbEntity
  8
ASSI
100
AcDbLine
 62
7
  6
CONTINUOUS
 10
-2.1480757795
 20
20.855616882
 11
-2.1464121633
 21
21.011323298
  0
LINE
  5
624
100
AcDbEntity
  8
RACCORDO
100
AcDbLine
 62
7
  6
CONTINUOUS
 10
-2.1479709057
 20
25.8664421581
 11
-2.1463515421
 21
26.0164106832
  0
LINE
  5
625
100
AcDbEntity
  8
ASSI
100
AcDbLine
 62
7
  6
CONTINUOUS
 10
-2.1470478735
 20
25.9556466942
 11
-2.1453296763
 21
26.0969200646
  0
LINE
  5
626
100
AcDbEntity
  8
RACCORDO
100
AcDbLine
 62
7
  6
CONTINUOUS
 10
-2.1467650133
 20
20.9809584972
 11
-2.1450872331
 21
21.1146329684
  0
LINE
  5
627
100
AcDbEntity
  8
RACCORDO
100
AcDbLine
 62
7
  6
CONTINUOUS
 10
-2.1463515421
 20
26.0164106832
 11
-2.1446594224
 21
26.1446196714
  0
LINE
  5
628
100
AcDbEntity
  8
ASSI
100
AcDbLine
 62
7
  6
CONTINUOUS
 10
-2.1464121633
 20
21.011323298
 11
-2.1446699267
 21
21.1439025794
  0
LINE
  5
629
100
AcDbEntity
  8
CURVE
100
AcDbLine
 62
253
  6
CONTINUOUS
 10
-2.0370280869
 20
37.6280653725
 11
-2.0397290537
 21
37.4423510204
  0
LINE
  5
62A
100
AcDbEntity
  8
CURVE
100
AcDbLine
 62
7
  6
CONTINUOUS
 10
-2.0001018719
 20
29.7948619015
 11
-2.0007893046
 21
29.7462763245
  0
LINE
  5
62B
100
AcDbEntity
  8
ASSI
100
AcDbLine
 62
7
  6
CONTINUOUS
 10
-2.1453296763
 20
26.0969200646
 11
-2.1437795703
 21
26.2013562447
  0
LINE
  5
62C
100
AcDbEntity
  8
RACCORDO
100
AcDbLine
 62
7
  6
CONTINUOUS
 10
-2.1450872331
 20
21.1146329684
 11
-2.1435777165
 21
21.2134724236
  0
LINE
  5
62D
100
AcDbEntity
  8
CURVE
100
AcDbLine
 62
253
  6
CONTINUOUS
 10
-2.0364878927
 20
39.5780652951
 11
-2.0397290537
 21
39.3923510204
  0
LINE
  5
62E
100
AcDbEntity
  8
CURVE
100
AcDbLine
 62
253
  6
CONTINUOUS
 10
-2.0478319569
 20
37.535208119
 11
-2.0510731179
 21
37.3494939218
  0
LINE
  5
62F
100
AcDbEntity
  8
CURVE
100
AcDbLine
 62
253
  6
CONTINUOUS
 10
-2.0364878927
 20
35.4923510204
 11
-2.0397290537
 21
35.3066368232
  0
LINE
  5
630
100
AcDbEntity
  8
CURVE
100
AcDbLine
 62
253
  6
CONTINUOUS
 10
-2.0364878927
 20
30.3233032833
 11
-2.0397290537
 21
30.1375890861
  0
LINE
  5
631
100
AcDbEntity
  8
RACCORDO
100
AcDbLine
 62
7
  6
CONTINUOUS
 10
-2.1446594224
 20
26.1446196714
 11
-2.1431415955
 21
26.2385556992
  0
LINE
  5
632
100
AcDbEntity
  8
ASSI
100
AcDbLine
 62
7
  6
CONTINUOUS
 10
-2.1446699267
 20
21.1439025794
 11
-2.1431060989
 21
21.2405328542
  0
LINE
  5
633
100
AcDbEntity
  8
CURVE
100
AcDbLine
 62
7
  6
CONTINUOUS
 10
-1.9969169978
 20
29.2155322962
 11
-1.9961680217
 21
29.2620850149
  0
LINE
  5
634
100
AcDbEntity
  8
ASSI
100
AcDbLine
 62
7
  6
CONTINUOUS
 10
-2.1437795703
 20
26.2013562447
 11
-2.1422064349
 21
26.2875535865
  0
LINE
  5
635
100
AcDbEntity
  8
CURVE
100
AcDbLine
 62
7
  6
CONTINUOUS
 10
-1.9783611887
 20
29.6220668856
 11
-1.9789349058
 21
29.5905854751
  0
LINE
  5
636
100
AcDbEntity
  8
RACCORDO
100
AcDbLine
 62
7
  6
CONTINUOUS
 10
-2.1435777165
 20
21.2134724236
 11
-2.1420504762
 21
21.295122036
  0
LINE
  5
637
100
AcDbEntity
  8
CURVE
100
AcDbLine
 62
7
  6
CONTINUOUS
 10
-2.0007893046
 20
29.7462763245
 11
-2.0015173431
 21
29.7072069858
  0
LINE
  5
638
100
AcDbEntity
  8
RACCORDO
100
AcDbLine
 62
7
  6
CONTINUOUS
 10
-2.1431415955
 20
26.2385556992
 11
-2.1417437616
 21
26.3094890726
  0
LINE
  5
639
100
AcDbEntity
  8
RACCORDO
100
AcDbLine
 62
7
  6
CONTINUOUS
 10
-2.1420504762
 20
21.295122036
 11
-2.1417437616
 21
21.3094890726
  0
LINE
  5
63A
100
AcDbEntity
  8
CURVE
100
AcDbLine
 62
7
  6
CONTINUOUS
 10
-1.9736062104
 20
29.1002361144
 11
-1.9724810547
 21
29.1553069623
  0
LINE
  5
63B
100
AcDbEntity
  8
ASSI
100
AcDbLine
 62
7
  6
CONTINUOUS
 10
-2.1422064349
 20
26.2875535865
 11
-2.1417443804
 21
26.3094883096
  0
LINE
  5
63C
100
AcDbEntity
  8
ASSI
100
AcDbLine
 62
7
  6
CONTINUOUS
 10
-2.1431060989
 20
21.2405328542
 11
-2.1417443804
 21
21.3094883096
  0
LINE
  5
63D
100
AcDbEntity
  8
CURVE
100
AcDbLine
 62
7
  6
CONTINUOUS
 10
-1.9977785675
 20
29.1742542785
 11
-1.9969169978
 21
29.2155322962
  0
LINE
  5
63E
100
AcDbEntity
  8
CURVE
100
AcDbLine
 62
7
  6
CONTINUOUS
 10
-1.9789349058
 20
29.5905854751
 11
-1.9794121049
 21
29.5699506908
  0
LINE
  5
63F
100
AcDbEntity
  8
CURVE
100
AcDbLine
 62
7
  6
CONTINUOUS
 10
-2.0015173431
 20
29.7072069858
 11
-2.0021587764
 21
29.6800928824
  0
LINE
  5
640
100
AcDbEntity
  8
CURVE
100
AcDbLine
 62
253
  6
CONTINUOUS
 10
-2.0494525374
 20
39.7637795891
 11
-2.0528791089
 21
39.6328875548
  0
LINE
  5
641
100
AcDbEntity
  8
CURVE
100
AcDbLine
 62
7
  6
CONTINUOUS
 10
-1.9748297463
 20
29.0526409352
 11
-1.9736062104
 21
29.1002361144
  0
LINE
  5
642
100
AcDbEntity
  8
CURVE
100
AcDbLine
 62
7
  6
CONTINUOUS
 10
-1.9987187295
 20
29.1381489713
 11
-1.9977785675
 21
29.1742542785
  0
LINE
  5
643
100
AcDbEntity
  8
CURVE
100
AcDbLine
 62
7
  6
CONTINUOUS
 10
-1.9794121049
 20
29.5699506908
 11
-1.9799228472
 21
29.5519778863
  0
LINE
  5
644
100
AcDbEntity
  8
CURVE
100
AcDbLine
 62
7
  6
CONTINUOUS
 10
-2.0021587764
 20
29.6800928824
 11
-2.0026689425
 21
29.6624749364
  0
LINE
  5
645
100
AcDbEntity
  8
CURVE
100
AcDbLine
 62
7
  6
CONTINUOUS
 10
-1.9995045966
 20
29.1129205396
 11
-1.9987187295
 21
29.1381489713
  0
LINE
  5
646
100
AcDbEntity
  8
CURVE
100
AcDbLine
 62
7
  6
CONTINUOUS
 10
-1.9756948349
 20
29.0253546105
 11
-1.9748297463
 21
29.0526409352
  0
LWPOLYLINE
  5
647
100
AcDbEntity
  8
RACCORDO
100
AcDbPolyline
 62
253
  6
CONTINUOUS
 90
31
 70
0
 10
-2.446616732
 20
46.8866885877
 10
-2.4469952876
 20
46.8753906154
 10
-2.4480544152
 20
46.8641203114
 10
-2.4497917917
 20
46.8529084416
 10
-2.4522034931
 20
46.8417846325
 10
-2.4552833633
 20
46.8307803804
 10
-2.4590224143
 20
46.8199288406
 10
-2.4634099587
 20
46.8092607176
 10
-2.4684343577
 20
46.7988040443
 10
-2.4740820383
 20
46.7885871254
 10
-2.4803377309
 20
46.7786377203
 10
-2.4871843055
 20
46.7689831958
 10
-2.4946029138
 20
46.7596501724
 10
-2.5025732178
 20
46.7506642222
 10
-2.5110735126
 20
46.742049803
 10
-2.5200806031
 20
46.7338304246
 10
-2.5295699067
 20
46.7260285279
 10
-2.5395154939
 20
46.7186654397
 10
-2.5498901767
 20
46.7117612908
 10
-2.5606656091
 20
46.7053349443
 10
-2.5718123671
 20
46.6994039473
 10
-2.5833000042
 20
46.6939845
 10
-2.5950971609
 20
46.689091398
 10
-2.6071715974
 20
46.6847380149
 10
-2.619490277
 20
46.6809362575
 10
-2.6320195123
 20
46.6776965111
 10
-2.6447251152
 20
46.6750276046
 10
-2.657572436
 20
46.6729368122
 10
-2.6705264032
 20
46.6714298423
 10
-2.683551617
 20
46.6705108139
 10
-2.6966125012
 20
46.6701822368
  0
LINE
  5
648
100
AcDbEntity
  8
CURVE
100
AcDbLine
 62
253
  6
CONTINUOUS
 10
-2.0364878927
 20
33.9447316776
 11
-2.0494525374
 21
33.5733032833
  0
LINE
  5
649
100
AcDbEntity
  8
CURVE
100
AcDbLine
 62
253
  6
CONTINUOUS
 10
-2.0364878927
 20
32.8304464947
 11
-2.0494525374
 21
32.4590174804
  0
LINE
  5
64A
100
AcDbEntity
  8
CURVE
100
AcDbLine
 62
7
  6
CONTINUOUS
 10
-2.0026689425
 20
29.6624749364
 11
-2.0030210036
 21
29.6521315472
  0
LINE
  5
64B
100
AcDbEntity
  8
CURVE
100
AcDbLine
 62
7
  6
CONTINUOUS
 10
-1.9799228472
 20
29.5519778863
 11
-1.9802789049
 21
29.5415226243
  0
LINE
  5
64C
100
AcDbEntity
  8
CURVE
100
AcDbLine
 62
7
  6
CONTINUOUS
 10
-2.0004303801
 20
29.0876101538
 11
-1.9995045966
 21
29.1129205396
  0
LWPOLYLINE
  5
64D
100
AcDbEntity
  8
RACCORDO
100
AcDbPolyline
 62
253
  6
CONTINUOUS
 90
9
 70
0
 10
-2.4381940539
 20
26.1445138806
 10
-2.4396469315
 20
26.1076942016
 10
-2.4410753623
 20
26.0607831978
 10
-2.4424591423
 20
26.0040517557
 10
-2.4437973762
 20
25.937830931
 10
-2.4450909594
 20
25.8624798067
 10
-2.4463223738
 20
25.7783580348
 10
-2.4474907306
 20
25.6859026099
 10
-2.4496260862
 20
25.4778341865
  0
LWPOLYLINE
  5
64E
100
AcDbEntity
  8
ASSI
100
AcDbPolyline
 62
253
  6
CONTINUOUS
 90
9
 70
0
 10
-2.4381940539
 20
26.1445138806
 10
-2.4396469315
 20
26.1076942016
 10
-2.4410753623
 20
26.0607831978
 10
-2.4424591423
 20
26.0040517557
 10
-2.4437973762
 20
25.937830931
 10
-2.4450909594
 20
25.8624798067
 10
-2.4463223738
 20
25.7783580348
 10
-2.4474907306
 20
25.6859026099
 10
-2.4496260862
 20
25.4778341865
  0
LWPOLYLINE
  5
64F
100
AcDbEntity
  8
RACCORDO
100
AcDbPolyline
 62
253
  6
CONTINUOUS
 90
9
 70
0
 10
-2.4381940539
 20
21.1445138806
 10
-2.4396469315
 20
21.1076942016
 10
-2.4410753623
 20
21.0607831978
 10
-2.4424591423
 20
21.0040517557
 10
-2.4437973762
 20
20.937830931
 10
-2.4450909594
 20
20.8624798067
 10
-2.4463223738
 20
20.7783580348
 10
-2.4474907306
 20
20.6859026099
 10
-2.4496260862
 20
20.4778341865
  0
LWPOLYLINE
  5
650
100
AcDbEntity
  8
ASSI
100
AcDbPolyline
 62
253
  6
CONTINUOUS
 90
9
 70
0
 10
-2.4381940539
 20
21.1445138806
 10
-2.4396469315
 20
21.1076942016
 10
-2.4410753623
 20
21.0607831978
 10
-2.4424591423
 20
21.0040517557
 10
-2.4437973762
 20
20.937830931
 10
-2.4450909594
 20
20.8624798067
 10
-2.4463223738
 20
20.7783580348
 10
-2.4474907306
 20
20.6859026099
 10
-2.4496260862
 20
20.4778341865
  0
LWPOLYLINE
  5
651
100
AcDbEntity
  8
RACCORDO
100
AcDbPolyline
 62
253
  6
CONTINUOUS
 90
9
 70
0
 10
-2.4381940539
 20
16.1445138806
 10
-2.4396469315
 20
16.1076942016
 10
-2.4410753623
 20
16.0607831978
 10
-2.4424591423
 20
16.0040517557
 10
-2.4437973762
 20
15.937830931
 10
-2.4450909594
 20
15.8624798067
 10
-2.4463223738
 20
15.7783580348
 10
-2.4474907306
 20
15.6859026099
 10
-2.4496260862
 20
15.4778341865
  0
LWPOLYLINE
  5
652
100
AcDbEntity
  8
ASSI
100
AcDbPolyline
 62
253
  6
CONTINUOUS
 90
9
 70
0
 10
-2.4381940539
 20
16.1445138806
 10
-2.4396469315
 20
16.1076942016
 10
-2.4410753623
 20
16.0607831978
 10
-2.4424591423
 20
16.0040517557
 10
-2.4437973762
 20
15.937830931
 10
-2.4450909594
 20
15.8624798067
 10
-2.4463223738
 20
15.7783580348
 10
-2.4474907306
 20
15.6859026099
 10
-2.4496260862
 20
15.4778341865
  0
LINE
  5
653
100
AcDbEntity
  8
CURVE
100
AcDbLine
 62
7
  6
CONTINUOUS
 10
-2.0030210036
 20
29.6521315472
 11
-2.0033814412
 21
29.6429767586
  0
LINE
  5
654
100
AcDbEntity
  8
CURVE
100
AcDbLine
 62
7
  6
CONTINUOUS
 10
-1.9802789049
 20
29.5415226243
 11
-1.9806452621
 21
29.5323220596
  0
LINE
  5
655
100
AcDbEntity
  8
CURVE
100
AcDbLine
 62
7
  6
CONTINUOUS
 10
-2.0010548537
 20
29.0727394565
 11
-2.0004303801
 21
29.0876101538
  0
LINE
  5
656
100
AcDbEntity
  8
CURVE
100
AcDbLine
 62
7
  6
CONTINUOUS
 10
-2.0189075159
 20
35.0824560204
 11
-1.9858678308
 21
35.7925130204
  0
LINE
  5
657
100
AcDbEntity
  8
CURVE
100
AcDbLine
 62
7
  6
CONTINUOUS
 10
-1.9683093007
 20
35.6355850204
 11
-1.9964015808
 21
35.0367060204
  0
LINE
  5
658
100
AcDbEntity
  8
CURVE
100
AcDbLine
 62
7
  6
CONTINUOUS
 10
-2.0033814412
 20
29.6429767586
 11
-2.0042481789
 21
29.6245006833
  0
LINE
  5
659
100
AcDbEntity
  8
CURVE
100
AcDbLine
 62
7
  6
CONTINUOUS
 10
-2.0016844649
 20
29.0592121881
 11
-2.0010548537
 21
29.0727394565
  0
LWPOLYLINE
  5
65A
100
AcDbEntity
  8
CURVE
100
AcDbPolyline
 62
7
  6
CONTINUOUS
 90
12
 70
0
 10
-1.9806452621
 20
29.5323220596
 10
-1.9810200755
 20
29.5244048302
 10
-1.9812100773
 20
29.5209364157
 10
-1.9814015018
 20
29.5177995743
 10
-1.9815941186
 20
29.5149978858
 10
-1.9817876973
 20
29.5125349299
 10
-1.9819820076
 20
29.5104142864
 10
-1.9821768189
 20
29.5086395351
 10
-1.9823719009
 20
29.5072142557
 10
-1.982567023
 20
29.5061420279
 10
-1.982761955
 20
29.5054264316
 10
-1.9829564663
 20
29.5050710465
  0
LINE
  5
65B
100
AcDbEntity
  8
CURVE
100
AcDbLine
 62
7
  6
CONTINUOUS
 10
-2.0023186222
 20
29.0468064466
 11
-2.0016844649
 21
29.0592121881
  0
LINE
  5
65C
100
AcDbEntity
  8
CURVE
100
AcDbLine
 62
7
  6
CONTINUOUS
 10
-2.0042481789
 20
29.6245006833
 11
-2.0063189699
 21
29.5846760991
  0
LINE
  5
65D
100
AcDbEntity
  8
CURVE
100
AcDbLine
 62
7
  6
CONTINUOUS
 10
-2.0189075159
 20
39.1233640204
 11
-1.9683093007
 21
40.0426110204
  0
LINE
  5
65E
100
AcDbEntity
  8
CURVE
100
AcDbLine
 62
7
  6
CONTINUOUS
 10
-1.9683093007
 20
31.9713410204
 11
-2.0189075159
 21
31.0816550204
  0
LINE
  5
65F
100
AcDbEntity
  8
CURVE
100
AcDbLine
 62
7
  6
CONTINUOUS
 10
-2.0032770885
 20
29.029815287
 11
-2.0023186222
 21
29.0468064466
  0
LINE
  5
660
100
AcDbEntity
  8
CURVE
100
AcDbLine
 62
7
  6
CONTINUOUS
 10
-2.0063189699
 20
29.5846760991
 11
-2.0091106969
 21
29.5367148598
  0
LINE
  5
661
100
AcDbEntity
  8
CURVE
100
AcDbLine
 62
7
  6
CONTINUOUS
 10
-2.0091106969
 20
29.5367148598
 11
-2.018907522
 21
29.3741927587
  0
LINE
  5
662
100
AcDbEntity
  8
CURVE
100
AcDbLine
 62
7
  6
CONTINUOUS
 10
-1.9683093007
 20
39.3850990204
 11
-2.0031376199
 21
38.8323720204
  0
LINE
  5
663
100
AcDbEntity
  8
CURVE
100
AcDbLine
 62
7
  6
CONTINUOUS
 10
-2.0052127309
 20
28.9989097601
 11
-2.0032770885
 21
29.029815287
  0
LINE
  5
664
100
AcDbEntity
  8
CURVE
100
AcDbLine
 62
7
  6
CONTINUOUS
 10
-2.0189075159
 20
31.7195860204
 11
-2.0088063102
 21
31.8763840204
  0
LWPOLYLINE
  5
665
100
AcDbEntity
  8
CURVE
100
AcDbPolyline
 62
7
  6
CONTINUOUS
 90
3
 70
0
 10
-2.018907522
 20
28.7919920352
 10
-2.0120597597
 20
28.8953736443
 10
-2.0052127309
 20
28.9989097601
  0
LINE
  5
666
100
AcDbEntity
  8
CURVE
100
AcDbLine
 62
7
  6
CONTINUOUS
 10
-2.0009900445
 20
31.9973470204
 11
-1.9822124052
 21
32.2754770204
  0
LINE
  5
667
100
AcDbEntity
  8
DRAFT
100
AcDbLine
 62
7
  6
CONTINUOUS
 10
-5.7835181532
 20
2.2209626893
 11
-5.7934072233
 21
2.13188064
  0
LWPOLYLINE
  5
668
100
AcDbEntity
  8
RACCORDO
100
AcDbPolyline
 62
253
  6
CONTINUOUS
 90
4
 70
0
 10
-2.4337089435
 20
26.1923510204
 10
-2.4352284272
 20
26.1870005743
 10
-2.4367234639
 20
26.1710109651
 10
-2.4381940539
 20
26.1445138806
  0
LWPOLYLINE
  5
669
100
AcDbEntity
  8
ASSI
100
AcDbPolyline
 62
253
  6
CONTINUOUS
 90
4
 70
0
 10
-2.4337089435
 20
26.1923510204
 10
-2.4352284272
 20
26.1870005743
 10
-2.4367234639
 20
26.1710109651
 10
-2.4381940539
 20
26.1445138806
  0
LWPOLYLINE
  5
66A
100
AcDbEntity
  8
RACCORDO
100
AcDbPolyline
 62
253
  6
CONTINUOUS
 90
4
 70
0
 10
-2.4337089435
 20
21.1923510204
 10
-2.4352284272
 20
21.1870005743
 10
-2.4367234639
 20
21.1710109651
 10
-2.4381940539
 20
21.1445138806
  0
LWPOLYLINE
  5
66B
100
AcDbEntity
  8
ASSI
100
AcDbPolyline
 62
253
  6
CONTINUOUS
 90
4
 70
0
 10
-2.4337089435
 20
21.1923510204
 10
-2.4352284272
 20
21.1870005743
 10
-2.4367234639
 20
21.1710109651
 10
-2.4381940539
 20
21.1445138806
  0
LINE
  5
66C
100
AcDbEntity
  8
RACCORDO
100
AcDbLine
 62
7
  6
CONTINUOUS
 10
-19.4492663994
 20
3.2853295189
 11
-19.392244898
 21
3.3423510204
  0
LINE
  5
66D
100
AcDbEntity
  8
RACCORDO
100
AcDbLine
 62
253
  6
CONTINUOUS
 10
-23.737873064
 20
-1.2032813764
 11
-23.742244898
 21
-1.2076532104
  0
LINE
  5
66E
100
AcDbEntity
  8
RACCORDO
100
AcDbLine
 62
253
  6
CONTINUOUS
 10
-23.4878772947
 20
-1.4532771456
 11
-23.4922491287
 21
-1.4576489796
  0
LWPOLYLINE
  5
66F
100
AcDbEntity
  8
CURVE
100
AcDbPolyline
 62
7
  6
CONTINUOUS
 90
16
 70
0
 10
-1.9840014357
 20
17.2608242201
 10
-1.9835069646
 20
17.2611008577
 10
-1.9830109617
 20
17.2619524791
 10
-1.9825141003
 20
17.263411647
 10
-1.9820170537
 20
17.2655109242
 10
-1.9815204952
 20
17.2682828734
 10
-1.9810250981
 20
17.2717600574
 10
-1.9805315357
 20
17.275975039
 10
-1.9800404814
 20
17.280960381
 10
-1.9795526084
 20
17.286748646
 10
-1.9790685901
 20
17.2933723969
 10
-1.9785890998
 20
17.3008641964
 10
-1.9781148109
 20
17.3092566073
 10
-1.9776463965
 20
17.3185821923
 10
-1.9771845301
 20
17.3288735143
 10
-1.9763081854
 20
17.3517533543
  0
LINE
  5
670
100
AcDbEntity
  8
CURVE
100
AcDbLine
 62
253
  6
CONTINUOUS
 10
-2.0591760211
 20
32.8304464947
 11
-2.0364878927
 21
32.8304464947
  0
LINE
  5
671
100
AcDbEntity
  8
CURVE
100
AcDbLine
 62
253
  6
CONTINUOUS
 10
-2.0364878927
 20
33.201874889
 11
-2.0591760211
 21
33.201874889
  0
LINE
  5
672
100
AcDbEntity
  8
CURVE
100
AcDbLine
 62
253
  6
CONTINUOUS
 10
-2.0591760211
 20
33.9447316776
 11
-2.0364878927
 21
33.9447316776
  0
LINE
  5
673
100
AcDbEntity
  8
RACCORDO
100
AcDbLine
 62
7
  6
CONTINUOUS
 10
-19.4492663994
 20
42.7993725219
 11
-19.392244898
 21
42.7423510204
  0
LINE
  5
674
100
AcDbEntity
  8
RACCORDO
100
AcDbLine
 62
253
  6
CONTINUOUS
 10
-23.737873064
 20
47.2879834172
 11
-23.742244898
 21
47.2923552512
  0
LINE
  5
675
100
AcDbEntity
  8
RACCORDO
100
AcDbLine
 62
253
  6
CONTINUOUS
 10
-23.4878772947
 20
47.5379791864
 11
-23.4922491287
 21
47.5423510204
  0
LINE
  5
676
100
AcDbEntity
  8
DRAFT
100
AcDbLine
 62
7
  6
CONTINUOUS
 10
-5.7934072233
 20
43.9528214008
 11
-5.7835181532
 21
43.8637393515
  0
LINE
  5
677
100
AcDbEntity
  8
CURVE
100
AcDbLine
 62
253
  6
CONTINUOUS
 10
-1.9998378392
 20
23.9837795813
 11
-1.9771497108
 21
23.6309223859
  0
LINE
  5
678
100
AcDbEntity
  8
CURVE
100
AcDbLine
 62
7
  6
CONTINUOUS
 10
-1.9822124052
 20
32.2754770204
 11
-2.0009900445
 21
32.5768510204
  0
LINE
  5
679
100
AcDbEntity
  8
CURVE
100
AcDbLine
 62
7
  6
CONTINUOUS
 10
-2.0031376199
 20
38.8323720204
 11
-1.9683093007
 21
38.2627610204
  0
LINE
  5
67A
100
AcDbEntity
  8
CURVE
100
AcDbLine
 62
253
  6
CONTINUOUS
 10
-2.0591760211
 20
23.5399700682
 11
-2.0364878927
 21
23.1685415189
  0
LINE
  5
67B
100
AcDbEntity
  8
CURVE
100
AcDbLine
 62
7
  6
CONTINUOUS
 10
-2.0088063102
 20
32.7006630204
 11
-2.0189075159
 21
32.8676800204
  0
LINE
  5
67C
100
AcDbEntity
  8
CURVE
100
AcDbLine
 62
7
  6
CONTINUOUS
 10
-2.0189075159
 20
33.4663840204
 11
-1.9683093007
 21
32.5568680204
  0
LINE
  5
67D
100
AcDbEntity
  8
CURVE
100
AcDbLine
 62
7
  6
CONTINUOUS
 10
-1.9683093007
 20
37.6579030204
 11
-2.0189075159
 21
38.5899680204
  0
LWPOLYLINE
  5
67E
100
AcDbEntity
  8
CURVE
100
AcDbPolyline
 62
7
  6
CONTINUOUS
 90
26
 70
0
 10
-1.9881706629
 20
28.9972340109
 10
-1.9877062634
 20
28.9872493766
 10
-1.9872360751
 20
28.9781736237
 10
-1.9867607784
 20
28.9700135961
 10
-1.9862810538
 20
28.962776138
 10
-1.9857975815
 20
28.9564680934
 10
-1.9853134491
 20
28.9511167793
 10
-1.9848267149
 20
28.9466743849
 10
-1.9843378136
 20
28.9431229394
 10
-1.9838471801
 20
28.9404444718
 10
-1.983355249
 20
28.938621011
 10
-1.9828624551
 20
28.937634586
 10
-1.9823692333
 20
28.9374672257
 10
-1.9818760182
 20
28.9381009593
 10
-1.9813832082
 20
28.9395247893
 10
-1.9808913567
 20
28.9417546655
 10
-1.9804009805
 20
28.9448133521
 10
-1.9799125965
 20
28.9487236131
 10
-1.9794267216
 20
28.9535082125
 10
-1.9789438726
 20
28.9591899144
 10
-1.9784645664
 20
28.9657914828
 10
-1.9779893198
 20
28.9733356818
 10
-1.9775183096
 20
28.9818469836
 10
-1.9770526197
 20
28.9913148803
 10
-1.9765929863
 20
29.001729019
 10
-1.9756948349
 20
29.0253546105
  0
LINE
  5
67F
100
AcDbEntity
  8
CURVE
100
AcDbLine
 62
7
  6
CONTINUOUS
 10
-1.9964015808
 20
35.0367060204
 11
-1.9683093007
 21
34.4314350204
  0
LINE
  5
680
100
AcDbEntity
  8
CURVE
100
AcDbLine
 62
7
  6
CONTINUOUS
 10
-1.9860055616
 20
34.2778990204
 11
-2.0189075159
 21
34.9975670204
  0
LINE
  5
681
100
AcDbEntity
  8
CURVE
100
AcDbLine
 62
7
  6
CONTINUOUS
 10
-1.9860666288
 20
29.5329649919
 11
-1.9864938748
 21
29.542035757
  0
LINE
  5
682
100
AcDbEntity
  8
CURVE
100
AcDbLine
 62
7
  6
CONTINUOUS
 10
-1.9864938748
 20
29.542035757
 11
-1.9869095732
 21
29.5524034802
  0
LINE
  5
683
100
AcDbEntity
  8
CURVE
100
AcDbLine
 62
7
  6
CONTINUOUS
 10
-1.9890793745
 20
29.0199025468
 11
-1.9881706629
 21
28.9972340109
  0
LINE
  5
684
100
AcDbEntity
  8
CURVE
100
AcDbLine
 62
253
  6
CONTINUOUS
 10
-1.9901143555
 20
24.6894938618
 11
-1.9771497108
 21
24.3366367031
  0
LINE
  5
685
100
AcDbEntity
  8
CURVE
100
AcDbLine
 62
253
  6
CONTINUOUS
 10
-2.0494525374
 20
32.4590174804
 11
-2.0364878927
 21
32.0875890861
  0
LINE
  5
686
100
AcDbEntity
  8
CURVE
100
AcDbLine
 62
253
  6
CONTINUOUS
 10
-2.0494525374
 20
33.5733032833
 11
-2.0364878927
 21
33.201874889
  0
LINE
  5
687
100
AcDbEntity
  8
CURVE
100
AcDbLine
 62
7
  6
CONTINUOUS
 10
-1.9869095732
 20
29.5524034802
 11
-1.9873112964
 21
29.5640766546
  0
LINE
  5
688
100
AcDbEntity
  8
CURVE
100
AcDbLine
 62
7
  6
CONTINUOUS
 10
-1.9899564857
 20
29.0461212296
 11
-1.9890793745
 21
29.0199025468
  0
LINE
  5
689
100
AcDbEntity
  8
CURVE
100
AcDbLine
 62
7
  6
CONTINUOUS
 10
-1.9907964252
 20
29.0759681259
 11
-1.9899564857
 21
29.0461212296
  0
LINE
  5
68A
100
AcDbEntity
  8
CURVE
100
AcDbLine
 62
7
  6
CONTINUOUS
 10
-1.9873112964
 20
29.5640766546
 11
-1.9878823683
 21
29.5840527156
  0
LINE
  5
68B
100
AcDbEntity
  8
CURVE
100
AcDbLine
 62
7
  6
CONTINUOUS
 10
-1.9878823683
 20
29.5840527156
 11
-1.9884083424
 21
29.6070138152
  0
LINE
  5
68C
100
AcDbEntity
  8
CURVE
100
AcDbLine
 62
7
  6
CONTINUOUS
 10
-1.9919637689
 20
29.1273204141
 11
-1.9907964252
 21
29.0759681259
  0
LINE
  5
68D
100
AcDbEntity
  8
CURVE
100
AcDbLine
 62
253
  6
CONTINUOUS
 10
-1.9965966779
 20
22.3077082895
 11
-1.9998378392
 21
22.4841367768
  0
LINE
  5
68E
100
AcDbEntity
  8
CURVE
100
AcDbLine
 62
253
  6
CONTINUOUS
 10
-2.0462113757
 20
30.1375890861
 11
-2.0494525374
 21
30.3233032833
  0
LINE
  5
68F
100
AcDbEntity
  8
CURVE
100
AcDbLine
 62
253
  6
CONTINUOUS
 10
-2.0445907959
 20
37.4423510204
 11
-2.0478319569
 21
37.6280653725
  0
LINE
  5
690
100
AcDbEntity
  8
CURVE
100
AcDbLine
 62
253
  6
CONTINUOUS
 10
-2.0397290537
 20
39.0209224711
 11
-2.0364878927
 21
38.8352081965
  0
LINE
  5
691
100
AcDbEntity
  8
CURVE
100
AcDbLine
 62
253
  6
CONTINUOUS
 10
-2.0462113757
 20
39.3923510204
 11
-2.0494525374
 21
39.5780652951
  0
LINE
  5
692
100
AcDbEntity
  8
CURVE
100
AcDbLine
 62
7
  6
CONTINUOUS
 10
-1.9884083424
 20
29.6070138152
 11
-1.9890242579
 21
29.6422417871
  0
LINE
  5
693
100
AcDbEntity
  8
CURVE
100
AcDbLine
 62
7
  6
CONTINUOUS
 10
-1.9936744827
 20
29.2278214421
 11
-1.9919637689
 21
29.1273204141
  0
LINE
  5
694
100
AcDbEntity
  8
CURVE
100
AcDbLine
 62
7
  6
CONTINUOUS
 10
-1.9892541306
 20
18.0204149152
 11
-1.9897069959
 21
18.0481500241
  0
LINE
  5
695
100
AcDbEntity
  8
CURVE
100
AcDbLine
 62
7
  6
CONTINUOUS
 10
-1.996455881
 20
17.6022091536
 11
-1.995042883
 21
17.4955786109
  0
LINE
  5
696
100
AcDbEntity
  8
CURVE
100
AcDbLine
 62
7
  6
CONTINUOUS
 10
-1.9946786376
 20
29.3002748346
 11
-1.9936744827
 21
29.2278214421
  0
LINE
  5
697
100
AcDbEntity
  8
CURVE
100
AcDbLine
 62
7
  6
CONTINUOUS
 10
-1.9890242579
 20
29.6422417871
 11
-1.9896440255
 21
29.692969481
  0
LINE
  5
698
100
AcDbEntity
  8
CURVE
100
AcDbLine
 62
7
  6
CONTINUOUS
 10
-1.9897069959
 20
18.0481500241
 11
-1.9902388965
 21
18.0961953297
  0
LINE
  5
699
100
AcDbEntity
  8
CURVE
100
AcDbLine
 62
7
  6
CONTINUOUS
 10
-1.9949088191
 20
29.3279973457
 11
-1.9946786376
 21
29.3002748346
  0
LINE
  5
69A
100
AcDbEntity
  8
CURVE
100
AcDbLine
 62
7
  6
CONTINUOUS
 10
-1.9980092659
 20
17.792026021
 11
-1.996455881
 21
17.6022091536
  0
LINE
  5
69B
100
AcDbEntity
  8
CURVE
100
AcDbLine
 62
7
  6
CONTINUOUS
 10
-1.9896440255
 20
29.692969481
 11
-1.9902648257
 21
29.7737419393
  0
LINE
  5
69C
100
AcDbEntity
  8
CURVE
100
AcDbLine
 62
7
  6
CONTINUOUS
 10
-1.9902388965
 20
18.0961953297
 11
-1.990724428
 21
18.1759775982
  0
LINE
  5
69D
100
AcDbEntity
  8
CURVE
100
AcDbLine
 62
7
  6
CONTINUOUS
 10
-1.9949897305
 20
29.3477953104
 11
-1.9949088191
 21
29.3279973457
  0
LINE
  5
69E
100
AcDbEntity
  8
CURVE
100
AcDbLine
 62
7
  6
CONTINUOUS
 10
-1.9902648257
 20
29.7737419393
 11
-1.9906722136
 21
29.8739663258
  0
LINE
  5
69F
100
AcDbEntity
  8
CURVE
100
AcDbLine
 62
7
  6
CONTINUOUS
 10
-1.9991386617
 20
18.0710151211
 11
-1.9980092659
 21
17.792026021
  0
LINE
  5
6A0
100
AcDbEntity
  8
CURVE
100
AcDbLine
 62
7
  6
CONTINUOUS
 10
-1.990724428
 20
18.1759775982
 11
-1.9911503645
 21
18.3557388895
  0
LINE
  5
6A1
100
AcDbEntity
  8
CURVE
100
AcDbLine
 62
7
  6
CONTINUOUS
 10
-1.9769292101
 20
30.3211522923
 11
-1.9765433909
 21
30.1411991651
  0
LINE
  5
6A2
100
AcDbEntity
  8
CURVE
100
AcDbLine
 62
7
  6
CONTINUOUS
 10
-1.9994789005
 20
18.326158369
 11
-1.9991386617
 21
18.0710151211
  0
LINE
  5
6A3
100
AcDbEntity
  8
RACCORDO
100
AcDbLine
 62
7
  6
CONTINUOUS
 10
-2.0791545963
 20
6.4511266303
 11
-2.0791545963
 21
6.5923510204
  0
LINE
  5
6A4
100
AcDbEntity
  8
ASSI
100
AcDbLine
 62
7
  6
CONTINUOUS
 10
-2.0791545963
 20
6.4511266303
 11
-2.0791545963
 21
6.5923510204
  0
LINE
  5
6A5
100
AcDbEntity
  8
RACCORDO
100
AcDbLine
 62
7
  6
CONTINUOUS
 10
-2.0791545963
 20
11.4923510204
 11
-2.0791545963
 21
11.5923510204
  0
LINE
  5
6A6
100
AcDbEntity
  8
ASSI
100
AcDbLine
 62
7
  6
CONTINUOUS
 10
-2.0791545963
 20
11.4923510204
 11
-2.0791545963
 21
11.5923510204
  0
LINE
  5
6A7
100
AcDbEntity
  8
RACCORDO
100
AcDbLine
 62
7
  6
CONTINUOUS
 10
-2.0791545963
 20
16.4923510204
 11
-2.0791545963
 21
16.5923510204
  0
LINE
  5
6A8
100
AcDbEntity
  8
ASSI
100
AcDbLine
 62
7
  6
CONTINUOUS
 10
-2.0791545963
 20
16.4923510204
 11
-2.0791545963
 21
16.5923510204
  0
LINE
  5
6A9
100
AcDbEntity
  8
RACCORDO
100
AcDbLine
 62
7
  6
CONTINUOUS
 10
-2.0791545963
 20
21.4923510204
 11
-2.0791545963
 21
21.5923510204
  0
LINE
  5
6AA
100
AcDbEntity
  8
ASSI
100
AcDbLine
 62
7
  6
CONTINUOUS
 10
-2.0791545963
 20
21.4923510204
 11
-2.0791545963
 21
21.5923510204
  0
LINE
  5
6AB
100
AcDbEntity
  8
RACCORDO
100
AcDbLine
 62
7
  6
CONTINUOUS
 10
-2.0791545963
 20
26.4923510204
 11
-2.0791545963
 21
39.6335754105
  0
LINE
  5
6AC
100
AcDbEntity
  8
ASSI
100
AcDbLine
 62
7
  6
CONTINUOUS
 10
-2.0791545963
 20
26.4923510204
 11
-2.0791545963
 21
39.6335754105
  0
LINE
  5
6AD
100
AcDbEntity
  8
0
100
AcDbLine
 62
7
  6
CONTINUOUS
 10
-2.0644303525
 20
5.4212628441
 11
-2.0644303525
 21
40.6634391967
  0
LINE
  5
6AE
100
AcDbEntity
  8
RACCORDO
100
AcDbLine
 62
7
  6
CONTINUOUS
 10
-2.0644303525
 20
5.4212628441
 11
-2.0644303525
 21
40.6634391967
  0
LINE
  5
6AF
100
AcDbEntity
  8
CURVE
100
AcDbLine
 62
253
  6
CONTINUOUS
 10
-2.0536494256
 20
10.6113984237
 11
-2.0536494256
 21
10.5209225784
  0
LINE
  5
6B0
100
AcDbEntity
  8
CURVE
100
AcDbLine
 62
253
  6
CONTINUOUS
 10
-2.0526936984
 20
23.4161605517
 11
-2.0526936984
 21
22.920922486
  0
LINE
  5
6B1
100
AcDbEntity
  8
CURVE
100
AcDbLine
 62
253
  6
CONTINUOUS
 10
-2.0520703984
 20
15.4066367994
 11
-2.0520703984
 21
16.3566366862
  0
LINE
  5
6B2
100
AcDbEntity
  8
CURVE
100
AcDbLine
 62
253
  6
CONTINUOUS
 10
-2.0494525374
 20
30.3233032833
 11
-2.0494525374
 21
30.7875890861
  0
LINE
  5
6B3
100
AcDbEntity
  8
CURVE
100
AcDbLine
 62
253
  6
CONTINUOUS
 10
-2.0494525374
 20
39.5780652951
 11
-2.0494525374
 21
40.0423510204
  0
LINE
  5
6B4
100
AcDbEntity
  8
CURVE
100
AcDbLine
 62
253
  6
CONTINUOUS
 10
-2.0478319569
 20
37.535208119
 11
-2.0478319569
 21
37.9994939218
  0
LINE
  5
6B5
100
AcDbEntity
  8
CURVE
100
AcDbLine
 62
253
  6
CONTINUOUS
 10
-2.0462113757
 20
38.6494939218
 11
-2.0462113757
 21
38.3709224711
  0
LINE
  5
6B6
100
AcDbEntity
  8
CURVE
100
AcDbLine
 62
253
  6
CONTINUOUS
 10
-2.0462113757
 20
31.3447316776
 11
-2.0462113757
 21
31.7161606918
  0
LINE
  5
6B7
100
AcDbEntity
  8
CURVE
100
AcDbLine
 62
253
  6
CONTINUOUS
 10
-2.0402276933
 20
12.1494936834
 11
-2.0402276933
 21
11.7423510204
  0
LINE
  5
6B8
100
AcDbEntity
  8
CURVE
100
AcDbLine
 62
253
  6
CONTINUOUS
 10
-2.0402276933
 20
13.2352083574
 11
-2.0402276933
 21
13.5066367994
  0
LINE
  5
6B9
100
AcDbEntity
  8
CURVE
100
AcDbLine
 62
253
  6
CONTINUOUS
 10
-2.0364878927
 20
40.0423510204
 11
-2.0364878927
 21
39.5780652951
  0
LINE
  5
6BA
100
AcDbEntity
  8
CURVE
100
AcDbLine
 62
253
  6
CONTINUOUS
 10
-2.0364878927
 20
38.8352081965
 11
-2.0364878927
 21
38.3709224711
  0
LINE
  5
6BB
100
AcDbEntity
  8
CURVE
100
AcDbLine
 62
253
  6
CONTINUOUS
 10
-2.0364878927
 20
37.9994939218
 11
-2.0364878927
 21
37.7209224711
  0
LINE
  5
6BC
100
AcDbEntity
  8
CURVE
100
AcDbLine
 62
253
  6
CONTINUOUS
 10
-2.0364878927
 20
35.9566368232
 11
-2.0364878927
 21
35.4923510204
  0
LINE
  5
6BD
100
AcDbEntity
  8
CURVE
100
AcDbLine
 62
253
  6
CONTINUOUS
 10
-2.0364878927
 20
31.7161606918
 11
-2.0364878927
 21
31.1590174804
  0
LINE
  5
6BE
100
AcDbEntity
  8
CURVE
100
AcDbLine
 62
253
  6
CONTINUOUS
 10
-2.0364878927
 20
30.7875890861
 11
-2.0364878927
 21
30.3233032833
  0
LINE
  5
6BF
100
AcDbEntity
  8
CURVE
100
AcDbLine
 62
253
  6
CONTINUOUS
 10
-2.0364878927
 20
24.6542557935
 11
-2.0364878927
 21
23.9113986175
  0
LINE
  5
6C0
100
AcDbEntity
  8
CURVE
100
AcDbLine
 62
253
  6
CONTINUOUS
 10
-2.0260164489
 20
12.1494936834
 11
-2.0260164489
 21
11.7423510204
  0
LINE
  5
6C1
100
AcDbEntity
  8
CURVE
100
AcDbLine
 62
253
  6
CONTINUOUS
 10
-2.0260164489
 20
6.8566363464
 11
-2.0260164489
 21
6.7209225784
  0
LINE
  5
6C2
100
AcDbEntity
  8
CURVE
100
AcDbLine
 62
253
  6
CONTINUOUS
 10
-2.0260164489
 20
8.0780656944
 11
-2.0260164489
 21
8.4852079044
  0
LINE
  5
6C3
100
AcDbEntity
  8
CURVE
100
AcDbLine
 62
253
  6
CONTINUOUS
 10
-2.0260164489
 20
13.2352083574
 11
-2.0260164489
 21
13.7780652414
  0
LINE
  5
6C4
100
AcDbEntity
  8
CURVE
100
AcDbLine
 62
7
  6
CONTINUOUS
 10
-2.0190471836
 20
19.3415610204
 11
-2.0190471836
 21
18.7189550204
  0
LINE
  5
6C5
100
AcDbEntity
  8
CURVE
100
AcDbLine
 62
7
  6
CONTINUOUS
 10
-2.0190471836
 20
14.8628370204
 11
-2.0190471836
 21
14.2683870204
  0
LINE
  5
6C6
100
AcDbEntity
  8
CURVE
100
AcDbLine
 62
7
  6
CONTINUOUS
 10
-2.0190471836
 20
12.6939200204
 11
-2.0190471836
 21
12.0672770204
  0
LINE
  5
6C7
100
AcDbEntity
  8
CURVE
100
AcDbLine
 62
7
  6
CONTINUOUS
 10
-2.0190471836
 20
8.8379110204
 11
-2.0190471836
 21
8.2434620204
  0
LINE
  5
6C8
100
AcDbEntity
  8
CURVE
100
AcDbLine
 62
7
  6
CONTINUOUS
 10
-2.0190471836
 20
6.6687770204
 11
-2.0190471836
 21
6.0423510204
  0
LINE
  5
6C9
100
AcDbEntity
  8
CURVE
100
AcDbLine
 62
7
  6
CONTINUOUS
 10
-2.0190471836
 20
9.1311530204
 11
-2.0190471836
 21
10.0148050204
  0
LINE
  5
6CA
100
AcDbEntity
  8
CURVE
100
AcDbLine
 62
7
  6
CONTINUOUS
 10
-2.0190471836
 20
11.1675810204
 11
-2.0190471836
 21
11.7500260204
  0
LINE
  5
6CB
100
AcDbEntity
  8
CURVE
100
AcDbLine
 62
7
  6
CONTINUOUS
 10
-2.0190471836
 20
15.1756130204
 11
-2.0190471836
 21
16.8712180204
  0
LINE
  5
6CC
100
AcDbEntity
  8
CURVE
100
AcDbLine
 62
7
  6
CONTINUOUS
 10
-2.0189075159
 20
37.4332860204
 11
-2.0189075159
 21
36.8280150204
  0
LINE
  5
6CD
100
AcDbEntity
  8
CURVE
100
AcDbLine
 62
7
  6
CONTINUOUS
 10
-2.018907522
 20
30.9039183648
 11
-2.018907522
 21
30.3010824036
  0
LINE
  5
6CE
100
AcDbEntity
  8
CURVE
100
AcDbLine
 62
7
  6
CONTINUOUS
 10
-2.018907522
 20
29.3741927587
 11
-2.018907522
 21
28.7919920352
  0
LINE
  5
6CF
100
AcDbEntity
  8
CURVE
100
AcDbLine
 62
7
  6
CONTINUOUS
 10
-2.0189075159
 20
31.0816550204
 11
-2.0189075159
 21
31.7195860204
  0
LINE
  5
6D0
100
AcDbEntity
  8
CURVE
100
AcDbLine
 62
7
  6
CONTINUOUS
 10
-2.0189075159
 20
32.8676800204
 11
-2.0189075159
 21
33.4663840204
  0
LINE
  5
6D1
100
AcDbEntity
  8
CURVE
100
AcDbLine
 62
7
  6
CONTINUOUS
 10
-2.0189075159
 20
33.5614280204
 11
-2.0189075159
 21
34.1535440204
  0
LINE
  5
6D2
100
AcDbEntity
  8
CURVE
100
AcDbLine
 62
7
  6
CONTINUOUS
 10
-2.0189075159
 20
34.9975670204
 11
-2.0189075159
 21
35.0824560204
  0
LINE
  5
6D3
100
AcDbEntity
  8
CURVE
100
AcDbLine
 62
7
  6
CONTINUOUS
 10
-2.0189075159
 20
35.9231300204
 11
-2.0189075159
 21
36.5021780204
  0
LINE
  5
6D4
100
AcDbEntity
  8
CURVE
100
AcDbLine
 62
7
  6
CONTINUOUS
 10
-2.0189075159
 20
38.5899680204
 11
-2.0189075159
 21
39.1233640204
  0
LINE
  5
6D5
100
AcDbEntity
  8
CURVE
100
AcDbLine
 62
7
  6
CONTINUOUS
 10
-2.0106375741
 20
16.2486120204
 11
-2.0106375741
 21
15.1756130204
  0
LINE
  5
6D6
100
AcDbEntity
  8
CURVE
100
AcDbLine
 62
7
  6
CONTINUOUS
 10
-2.0088063102
 20
31.8763840204
 11
-2.0088063102
 21
32.7006630204
  0
LINE
  5
6D7
100
AcDbEntity
  8
CURVE
100
AcDbLine
 62
7
  6
CONTINUOUS
 10
-2.0083218878
 20
14.0515390204
 11
-2.0083218878
 21
12.9028020204
  0
LINE
  5
6D8
100
AcDbEntity
  8
CURVE
100
AcDbLine
 62
7
  6
CONTINUOUS
 10
-2.0083218878
 20
8.0265050204
 11
-2.0083218878
 21
6.8777670204
  0
LINE
  5
6D9
100
AcDbEntity
  8
CURVE
100
AcDbLine
 62
7
  6
CONTINUOUS
 10
-2.0009900445
 20
32.5768510204
 11
-2.0009900445
 21
31.9973470204
  0
LINE
  5
6DA
100
AcDbEntity
  8
CURVE
100
AcDbLine
 62
7
  6
CONTINUOUS
 10
-1.9999122782
 20
7.0344820204
 11
-1.9999122782
 21
7.8658600204
  0
LINE
  5
6DB
100
AcDbEntity
  8
CURVE
100
AcDbLine
 62
7
  6
CONTINUOUS
 10
-1.9999122782
 20
13.0594080204
 11
-1.9999122782
 21
13.8908950204
  0
LINE
  5
6DC
100
AcDbEntity
  8
CURVE
100
AcDbLine
 62
253
  6
CONTINUOUS
 10
-1.9998378392
 20
21.8078271828
 11
-1.9998378392
 21
21.2785414265
  0
LINE
  5
6DD
100
AcDbEntity
  8
CURVE
100
AcDbLine
 62
253
  6
CONTINUOUS
 10
-1.9998378392
 20
22.4841367768
 11
-1.9998378392
 21
22.9252081422
  0
LINE
  5
6DE
100
AcDbEntity
  8
CURVE
100
AcDbLine
 62
7
  6
CONTINUOUS
 10
-1.9994789005
 20
18.326158369
 11
-1.9995599678
 21
18.7189550204
  0
LINE
  5
6DF
100
AcDbEntity
  8
CURVE
100
AcDbLine
 62
253
  6
CONTINUOUS
 10
-1.9933555165
 20
23.8661605407
 11
-1.9933555165
 21
23.3956843047
  0
LINE
  5
6E0
100
AcDbEntity
  8
CURVE
100
AcDbLine
 62
7
  6
CONTINUOUS
 10
-1.9911503582
 20
18.7189550204
 11
-1.9911503582
 21
18.3557390204
  0
LINE
  5
6E1
100
AcDbEntity
  8
CURVE
100
AcDbLine
 62
7
  6
CONTINUOUS
 10
-1.9906722136
 20
29.8739663258
 11
-1.990819408
 21
30.3211522923
  0
LINE
  5
6E2
100
AcDbEntity
  8
CURVE
100
AcDbLine
 62
253
  6
CONTINUOUS
 10
-1.9868731938
 20
21.4549702082
 11
-1.9868731938
 21
21.8078271828
  0
LINE
  5
6E3
100
AcDbEntity
  8
CURVE
100
AcDbLine
 62
253
  6
CONTINUOUS
 10
-1.9771497108
 20
22.9252081422
 11
-1.9771497108
 21
22.4841367768
  0
LINE
  5
6E4
100
AcDbEntity
  8
CURVE
100
AcDbLine
 62
253
  6
CONTINUOUS
 10
-1.9771497108
 20
21.8078271828
 11
-1.9771497108
 21
21.2785414265
  0
LINE
  5
6E5
100
AcDbEntity
  8
CURVE
100
AcDbLine
 62
7
  6
CONTINUOUS
 10
-1.968442896
 20
16.8712180204
 11
-1.968442896
 21
16.2486120204
  0
LINE
  5
6E6
100
AcDbEntity
  8
CURVE
100
AcDbLine
 62
7
  6
CONTINUOUS
 10
-1.968442896
 20
11.7500260204
 11
-1.968442896
 21
10.8262120204
  0
LINE
  5
6E7
100
AcDbEntity
  8
CURVE
100
AcDbLine
 62
7
  6
CONTINUOUS
 10
-1.968442896
 20
9.7135970204
 11
-1.968442896
 21
9.1311530204
  0
LINE
  5
6E8
100
AcDbEntity
  8
CURVE
100
AcDbLine
 62
7
  6
CONTINUOUS
 10
-1.968442896
 20
7.0504160204
 11
-1.968442896
 21
7.7894670204
  0
LINE
  5
6E9
100
AcDbEntity
  8
CURVE
100
AcDbLine
 62
7
  6
CONTINUOUS
 10
-1.968442896
 20
13.0754510204
 11
-1.968442896
 21
13.8145020204
  0
LINE
  5
6EA
100
AcDbEntity
  8
CURVE
100
AcDbLine
 62
7
  6
CONTINUOUS
 10
-1.9683093007
 20
40.0426110204
 11
-1.9683093007
 21
39.3850990204
  0
LINE
  5
6EB
100
AcDbEntity
  8
CURVE
100
AcDbLine
 62
7
  6
CONTINUOUS
 10
-1.9683093007
 20
38.2627610204
 11
-1.9683093007
 21
37.6579030204
  0
LINE
  5
6EC
100
AcDbEntity
  8
CURVE
100
AcDbLine
 62
7
  6
CONTINUOUS
 10
-1.9683093007
 20
36.2403560204
 11
-1.9683093007
 21
35.6355850204
  0
LINE
  5
6ED
100
AcDbEntity
  8
CURVE
100
AcDbLine
 62
7
  6
CONTINUOUS
 10
-1.9683093007
 20
34.4314350204
 11
-1.9683093007
 21
33.8325780204
  0
LINE
  5
6EE
100
AcDbEntity
  8
CURVE
100
AcDbLine
 62
7
  6
CONTINUOUS
 10
-1.9683093007
 20
32.5568680204
 11
-1.9683093007
 21
31.9713410204
  0
LINE
  5
6EF
100
AcDbEntity
  8
CURVE
100
AcDbLine
 62
7
  6
CONTINUOUS
 10
-1.9683062644
 20
36.8280150204
 11
-1.9683062644
 21
37.4332860204
  0
LINE
  5
6F0
100
AcDbEntity
  8
0
100
AcDbLine
 62
7
  6
CONTINUOUS
 10
-1.942244898
 20
5.3706519717
 11
-1.942244898
 21
40.7140500691
  0
LINE
  5
6F1
100
AcDbEntity
  8
RACCORDO
100
AcDbLine
 62
7
  6
CONTINUOUS
 10
-1.942244898
 20
1.1111654645
 11
-1.942244898
 21
44.9735365763
  0
LINE
  5
6F2
100
AcDbEntity
  8
CURVE
100
AcDbLine
 62
7
  6
CONTINUOUS
 10
-1.9765433909
 20
30.1411991651
 11
-1.9764818772
 21
29.9597595063
  0
LINE
  5
6F3
100
AcDbEntity
  8
CURVE
100
AcDbLine
 62
7
  6
CONTINUOUS
 10
-1.967683315
 20
29.962329958
 11
-1.9689004572
 21
30.9039183648
  0
LINE
  5
6F4
100
AcDbEntity
  8
CURVE
100
AcDbLine
 62
7
  6
CONTINUOUS
 10
-1.9685564644
 20
18.2834900143
 11
-1.968442896
 21
19.3415610204
  0
LINE
  5
6F5
100
AcDbEntity
  8
CURVE
100
AcDbLine
 62
7
  6
CONTINUOUS
 10
-1.9768525055
 20
18.7189550204
 11
-1.9768847789
 21
18.3403259636
  0
LINE
  5
6F6
100
AcDbEntity
  8
CURVE
100
AcDbLine
 62
7
  6
CONTINUOUS
 10
-1.9764818772
 20
29.9597595063
 11
-1.9767219666
 21
29.8137940834
  0
LINE
  5
6F7
100
AcDbEntity
  8
CURVE
100
AcDbLine
 62
7
  6
CONTINUOUS
 10
-1.9991061738
 20
30.3010824036
 11
-1.9992438437
 21
29.9043761693
  0
LINE
  5
6F8
100
AcDbEntity
  8
CURVE
100
AcDbLine
 62
7
  6
CONTINUOUS
 10
-1.9768847789
 20
18.3403259636
 11
-1.9773720058
 21
18.1551819661
  0
LINE
  5
6F9
100
AcDbEntity
  8
CURVE
100
AcDbLine
 62
7
  6
CONTINUOUS
 10
-1.9696438204
 20
17.8551189823
 11
-1.9685564644
 21
18.2834900143
  0
LINE
  5
6FA
100
AcDbEntity
  8
CURVE
100
AcDbLine
 62
7
  6
CONTINUOUS
 10
-1.96902324
 20
29.4812642603
 11
-1.967683315
 21
29.962329958
  0
LINE
  5
6FB
100
AcDbEntity
  8
RACCORDO
100
AcDbLine
 62
7
  6
CONTINUOUS
 10
-2.1519887586
 20
10.3123455116
 11
-2.1507211245
 21
10.5258718436
  0
LINE
  5
6FC
100
AcDbEntity
  8
ASSI
100
AcDbLine
 62
7
  6
CONTINUOUS
 10
-2.1520190297
 20
10.3066142693
 11
-2.1507147745
 21
10.5268256279
  0
LINE
  5
6FD
100
AcDbEntity
  8
CURVE
100
AcDbLine
 62
7
  6
CONTINUOUS
 10
-1.9767219666
 20
29.8137940834
 11
-1.9771900909
 21
29.7272314572
  0
LINE
  5
6FE
100
AcDbEntity
  8
RACCORDO
100
AcDbLine
 62
7
  6
CONTINUOUS
 10
-2.1507211245
 20
10.5258718436
 11
-2.1493035126
 21
10.7172140793
  0
LINE
  5
6FF
100
AcDbEntity
  8
ASSI
100
AcDbLine
 62
7
  6
CONTINUOUS
 10
-2.1507147745
 20
10.5268256279
 11
-2.1492515022
 21
10.7235334824
  0
LINE
  5
700
100
AcDbEntity
  8
CURVE
100
AcDbLine
 62
7
  6
CONTINUOUS
 10
-1.9992438437
 20
29.9043761693
 11
-1.9996802648
 21
29.8351404406
  0
LINE
  5
701
100
AcDbEntity
  8
CURVE
100
AcDbLine
 62
7
  6
CONTINUOUS
 10
-1.9710468151
 20
17.6518830671
 11
-1.9696438204
 21
17.8551189823
  0
LINE
  5
702
100
AcDbEntity
  8
CURVE
100
AcDbLine
 62
7
  6
CONTINUOUS
 10
-1.9773720058
 20
18.1551819661
 11
-1.9778404587
 21
18.0877618263
  0
LINE
  5
703
100
AcDbEntity
  8
CURVE
100
AcDbLine
 62
7
  6
CONTINUOUS
 10
-1.9700921872
 20
29.3283198425
 11
-1.96902324
 21
29.4812642603
  0
LINE
  5
704
100
AcDbEntity
  8
RACCORDO
100
AcDbLine
 62
7
  6
CONTINUOUS
 10
-2.1493035126
 20
10.7172140793
 11
-2.1477738908
 21
10.8863824737
  0
LINE
  5
705
100
AcDbEntity
  8
ASSI
100
AcDbLine
 62
7
  6
CONTINUOUS
 10
-2.1492515022
 20
10.7235334824
 11
-2.1476697461
 21
10.8967188483
  0
LINE
  5
706
100
AcDbEntity
  8
ASSI
100
AcDbLine
 62
7
  6
CONTINUOUS
 10
-2.1486714592
 20
15.7912267053
 11
-2.1470478735
 21
15.9556466942
  0
LINE
  5
707
100
AcDbEntity
  8
RACCORDO
100
AcDbLine
 62
7
  6
CONTINUOUS
 10
-2.148551867
 20
15.8045605343
 11
-2.1469697855
 21
15.9627236936
  0
LINE
  5
708
100
AcDbEntity
  8
CURVE
100
AcDbLine
 62
7
  6
CONTINUOUS
 10
-1.9959075738
 20
29.2822058644
 11
-1.9952887218
 21
29.3477953104
  0
LINE
  5
709
100
AcDbEntity
  8
CURVE
100
AcDbLine
 62
7
  6
CONTINUOUS
 10
-1.9996802648
 20
29.8351404406
 11
-2.0001018719
 21
29.7948619015
  0
LINE
  5
70A
100
AcDbEntity
  8
CURVE
100
AcDbLine
 62
7
  6
CONTINUOUS
 10
-1.9771900909
 20
29.7272314572
 11
-1.9778656347
 21
29.6576033731
  0
LINE
  5
70B
100
AcDbEntity
  8
RACCORDO
100
AcDbLine
 62
7
  6
CONTINUOUS
 10
-2.1477738908
 20
10.8863824737
 11
-2.1461430443
 21
11.0336294455
  0
LINE
  5
70C
100
AcDbEntity
  8
ASSI
100
AcDbLine
 62
7
  6
CONTINUOUS
 10
-2.1476697461
 20
10.8967188483
 11
-2.1459820004
 21
11.0466417174
  0
LINE
  5
70D
100
AcDbEntity
  8
CURVE
100
AcDbLine
 62
253
  6
CONTINUOUS
 10
-2.0402276933
 20
12.1494936834
 11
-2.0378591535
 21
12.3304462801
  0
LINE
  5
70E
100
AcDbEntity
  8
ASSI
100
AcDbLine
 62
7
  6
CONTINUOUS
 10
-2.1470478735
 20
15.9556466942
 11
-2.1453296763
 21
16.0969200646
  0
LINE
  5
70F
100
AcDbEntity
  8
CURVE
100
AcDbLine
 62
7
  6
CONTINUOUS
 10
-1.9723537471
 20
17.5363994693
 11
-1.9710468151
 21
17.6518830671
  0
LINE
  5
710
100
AcDbEntity
  8
CURVE
100
AcDbLine
 62
7
  6
CONTINUOUS
 10
-1.9961680217
 20
29.2620850149
 11
-1.9959075738
 21
29.2822058644
  0
LINE
  5
711
100
AcDbEntity
  8
RACCORDO
100
AcDbLine
 62
7
  6
CONTINUOUS
 10
-2.1469697855
 20
15.9627236936
 11
-2.1452999923
 21
16.0991169802
  0
LINE
  5
712
100
AcDbEntity
  8
CURVE
100
AcDbLine
 62
7
  6
CONTINUOUS
 10
-1.9778404587
 20
18.0877618263
 11
-1.9782958754
 21
18.0481500241
  0
LINE
  5
713
100
AcDbEntity
  8
CURVE
100
AcDbLine
 62
7
  6
CONTINUOUS
 10
-1.9714607606
 20
29.2171294563
 11
-1.9700921872
 21
29.3283198425
  0
LINE
  5
714
100
AcDbEntity
  8
RACCORDO
100
AcDbLine
 62
7
  6
CONTINUOUS
 10
-2.1461430443
 20
11.0336294455
 11
-2.1444443532
 21
11.1590921868
  0
LINE
  5
715
100
AcDbEntity
  8
CURVE
100
AcDbLine
 62
7
  6
CONTINUOUS
 10
-1.9778656347
 20
29.6576033731
 11
-1.9783611887
 21
29.6220668856
  0
LINE
  5
716
100
AcDbEntity
  8
ASSI
100
AcDbLine
 62
7
  6
CONTINUOUS
 10
-2.1459820004
 20
11.0466417174
 11
-2.1442261005
 21
11.1733747132
  0
LINE
  5
717
100
AcDbEntity
  8
RACCORDO
100
AcDbLine
 62
7
  6
CONTINUOUS
 10
-2.1452999923
 20
16.0991169802
 11
-2.1437951991
 21
16.2004044721
  0
LINE
  5
718
100
AcDbEntity
  8
ASSI
100
AcDbLine
 62
7
  6
CONTINUOUS
 10
-2.1453296763
 20
16.0969200646
 11
-2.1437795703
 21
16.2013562447
  0
LINE
  5
719
100
AcDbEntity
  8
CURVE
100
AcDbLine
 62
253
  6
CONTINUOUS
 10
-2.0449647757
 20
12.9637794624
 11
-2.0402276933
 21
13.2352083574
  0
LINE
  5
71A
100
AcDbEntity
  8
CURVE
100
AcDbLine
 62
253
  6
CONTINUOUS
 10
-2.0402276933
 20
11.7423510204
 11
-2.0449647757
 21
11.4709225784
  0
LINE
  5
71B
100
AcDbEntity
  8
CURVE
100
AcDbLine
 62
253
  6
CONTINUOUS
 10
-2.0307535303
 20
7.8066363464
 11
-2.0260164489
 21
8.0780656944
  0
LINE
  5
71C
100
AcDbEntity
  8
CURVE
100
AcDbLine
 62
253
  6
CONTINUOUS
 10
-2.0260164489
 20
6.7209225784
 11
-2.0307535303
 21
6.4494941364
  0
LINE
  5
71D
100
AcDbEntity
  8
CURVE
100
AcDbLine
 62
7
  6
CONTINUOUS
 10
-1.9724810547
 20
29.1553069623
 11
-1.9714607606
 21
29.2171294563
  0
LINE
  5
71E
100
AcDbEntity
  8
RACCORDO
100
AcDbLine
 62
7
  6
CONTINUOUS
 10
-2.1444443532
 20
11.1590921868
 11
-2.1429232128
 21
11.2505692677
  0
LINE
  5
71F
100
AcDbEntity
  8
CURVE
100
AcDbLine
 62
7
  6
CONTINUOUS
 10
-1.9736205161
 20
17.4576802394
 11
-1.9723537471
 21
17.5363994693
  0
LINE
  5
720
100
AcDbEntity
  8
CURVE
100
AcDbLine
 62
253
  6
CONTINUOUS
 10
-1.9771497108
 20
22.4841367768
 11
-1.9803908718
 21
22.3077082895
  0
LINE
  5
721
100
AcDbEntity
  8
CURVE
100
AcDbLine
 62
7
  6
CONTINUOUS
 10
-1.9782958754
 20
18.0481500241
 11
-1.9787487407
 21
18.0204149152
  0
LINE
  5
722
100
AcDbEntity
  8
ASSI
100
AcDbLine
 62
7
  6
CONTINUOUS
 10
-2.1442261005
 20
11.1733747132
 11
-2.1426560312
 21
11.2647865235
  0
LINE
  5
723
100
AcDbEntity
  8
RACCORDO
100
AcDbLine
 62
7
  6
CONTINUOUS
 10
-2.1437951991
 20
16.2004044721
 11
-2.1422682395
 21
16.2845080018
  0
LINE
  5
724
100
AcDbEntity
  8
ASSI
100
AcDbLine
 62
7
  6
CONTINUOUS
 10
-2.1437795703
 20
16.2013562447
 11
-2.1422064349
 21
16.2875535865
  0
LINE
  5
725
100
AcDbEntity
  8
CURVE
100
AcDbLine
 62
253
  6
CONTINUOUS
 10
-2.0307535303
 20
13.0090178381
 11
-2.0260164489
 21
13.2352083574
  0
LINE
  5
726
100
AcDbEntity
  8
RACCORDO
100
AcDbLine
 62
7
  6
CONTINUOUS
 10
-2.1422682395
 20
16.2845080018
 11
-2.1417437616
 21
16.3094890726
  0
LINE
  5
727
100
AcDbEntity
  8
RACCORDO
100
AcDbLine
 62
7
  6
CONTINUOUS
 10
-2.1429232128
 20
11.2505692677
 11
-2.1417437616
 21
11.3094890726
  0
LINE
  5
728
100
AcDbEntity
  8
ASSI
100
AcDbLine
 62
7
  6
CONTINUOUS
 10
-2.1422064349
 20
16.2875535865
 11
-2.1417443804
 21
16.3094883096
  0
LINE
  5
729
100
AcDbEntity
  8
ASSI
100
AcDbLine
 62
7
  6
CONTINUOUS
 10
-2.1426560312
 20
11.2647865235
 11
-2.1417443804
 21
11.3094883096
  0
LINE
  5
72A
100
AcDbEntity
  8
CURVE
100
AcDbLine
 62
7
  6
CONTINUOUS
 10
-1.9787487407
 20
18.0204149152
 11
-1.9791347696
 21
18.0022107776
  0
LINE
  5
72B
100
AcDbEntity
  8
CURVE
100
AcDbLine
 62
7
  6
CONTINUOUS
 10
-1.9747077251
 20
17.4070768842
 11
-1.9736205161
 21
17.4576802394
  0
LWPOLYLINE
  5
72C
100
AcDbEntity
  8
RACCORDO
100
AcDbPolyline
 62
7
  6
CONTINUOUS
 90
34
 70
0
 10
-2.442244898
 20
-1.2076532104
 10
-2.4425280482
 20
-1.2195484956
 10
-2.4433768637
 20
-1.2314168352
 10
-2.4447894238
 20
-1.2432313457
 10
-2.4467625302
 20
-1.2549652671
 10
-2.4492917162
 20
-1.2665920184
 10
-2.4523712563
 20
-1.2780852586
 10
-2.4559941766
 20
-1.2894189534
 10
-2.4601522722
 20
-1.3005674289
 10
-2.4648361258
 20
-1.3115054259
 10
-2.4700351291
 20
-1.3222081672
 10
-2.4757375063
 20
-1.3326514079
 10
-2.4819303398
 20
-1.3428114855
 10
-2.4885996025
 20
-1.3526653847
 10
-2.4957301872
 20
-1.3621907834
 10
-2.5033059391
 20
-1.3713660987
 10
-2.5113096975
 20
-1.3801705457
 10
-2.5197233319
 20
-1.3885841801
 10
-2.5285277789
 20
-1.3965879385
 10
-2.5377030941
 20
-1.4041636903
 10
-2.5472284928
 20
-1.4112942751
 10
-2.5570823921
 20
-1.4179635377
 10
-2.5672424697
 20
-1.4241563712
 10
-2.5776857104
 20
-1.4298587484
 10
-2.5883884517
 20
-1.4350577518
 10
-2.5993264487
 20
-1.4397416054
 10
-2.6104749242
 20
-1.4438997009
 10
-2.621808619
 20
-1.4475226213
 10
-2.6333018592
 20
-1.4506021613
 10
-2.6449286105
 20
-1.4531313473
 10
-2.6566625318
 20
-1.4551044537
 10
-2.6684770424
 20
-1.4565170138
 10
-2.6803453819
 20
-1.4573658293
 10
-2.6922406672
 20
-1.4576489796
  0
LINE
  5
72D
100
AcDbEntity
  8
CURVE
100
AcDbLine
 62
253
  6
CONTINUOUS
 10
-2.0364878927
 20
21.5899700682
 11
-2.0462113757
 21
21.2185413639
  0
LWPOLYLINE
  5
72E
100
AcDbEntity
  8
RACCORDO
100
AcDbPolyline
 62
253
  6
CONTINUOUS
 90
31
 70
0
 10
-2.446616732
 20
-1.2032813764
 10
-2.4469597705
 20
-1.2163648624
 10
-2.4479870604
 20
-1.229412489
 10
-2.449695786
 20
-1.2423884951
 10
-2.4520812639
 20
-1.255257316
 10
-2.4551369562
 20
-1.2679836805
 10
-2.4588544875
 20
-1.2805327082
 10
-2.463223669
 20
-1.2928700045
 10
-2.4682325255
 20
-1.3049617551
 10
-2.4738673287
 20
-1.3167748189
 10
-2.4801126346
 20
-1.3282768185
 10
-2.486951326
 20
-1.339436229
 10
-2.4943646594
 20
-1.3502224646
 10
-2.5023323161
 20
-1.3606059622
 10
-2.5108324584
 20
-1.3705582627
 10
-2.519841789
 20
-1.3800520886
 10
-2.5293356149
 20
-1.3890614191
 10
-2.5392879153
 20
-1.3975615614
 10
-2.549671413
 20
-1.4055292182
 10
-2.5604576486
 20
-1.4129425516
 10
-2.5716170591
 20
-1.419781243
 10
-2.5831190587
 20
-1.4260265489
 10
-2.5949321225
 20
-1.431661352
 10
-2.6070238731
 20
-1.4366702085
 10
-2.6193611694
 20
-1.44103939
 10
-2.631910197
 20
-1.4447569214
 10
-2.6446365616
 20
-1.4478126136
 10
-2.6575053825
 20
-1.4501980916
 10
-2.6704813886
 20
-1.4519068171
 10
-2.6835290152
 20
-1.452934107
 10
-2.6966125012
 20
-1.4532771456
  0
LINE
  5
72F
100
AcDbEntity
  8
CURVE
100
AcDbLine
 62
253
  6
CONTINUOUS
 10
-2.0260164489
 20
11.7423510204
 11
-2.0307535303
 21
11.5613984237
  0
LINE
  5
730
100
AcDbEntity
  8
CURVE
100
AcDbLine
 62
7
  6
CONTINUOUS
 10
-1.9791347696
 20
18.0022107776
 11
-1.9795497504
 21
17.9860966996
  0
LINE
  5
731
100
AcDbEntity
  8
CURVE
100
AcDbLine
 62
7
  6
CONTINUOUS
 10
-1.9754890818
 20
17.3776440224
 11
-1.9747077251
 21
17.4070768842
  0
LINE
  5
732
100
AcDbEntity
  8
CURVE
100
AcDbLine
 62
7
  6
CONTINUOUS
 10
-1.9795497504
 20
17.9860966996
 11
-1.9800695472
 21
17.9693845593
  0
LINE
  5
733
100
AcDbEntity
  8
CURVE
100
AcDbLine
 62
7
  6
CONTINUOUS
 10
-1.9763081854
 20
17.3517533543
 11
-1.9754890818
 21
17.3776440224
  0
LINE
  5
734
100
AcDbEntity
  8
CURVE
100
AcDbLine
 62
253
  6
CONTINUOUS
 10
-2.0068188018
 20
23.2542557935
 11
-2.0295069301
 21
22.604255716
  0
LINE
  5
735
100
AcDbEntity
  8
CURVE
100
AcDbLine
 62
253
  6
CONTINUOUS
 10
-2.0536494256
 20
10.5209225784
 11
-2.055228453
 21
10.4756842027
  0
LINE
  5
736
100
AcDbEntity
  8
CURVE
100
AcDbLine
 62
253
  6
CONTINUOUS
 10
-2.0544389391
 20
7.1280656944
 11
-2.0497018572
 21
7.2637794624
  0
LINE
  5
737
100
AcDbEntity
  8
CURVE
100
AcDbLine
 62
253
  6
CONTINUOUS
 10
-2.0307535303
 20
6.4494941364
 11
-2.0354906118
 21
6.3137794624
  0
LINE
  5
738
100
AcDbEntity
  8
CURVE
100
AcDbLine
 62
7
  6
CONTINUOUS
 10
-1.968442896
 20
10.8262120204
 11
-2.008544407
 21
9.7135970204
  0
LINE
  5
739
100
AcDbEntity
  8
CURVE
100
AcDbLine
 62
253
  6
CONTINUOUS
 10
-1.9771497108
 20
25.0423510204
 11
-1.9901143555
 21
24.6894938618
  0
LINE
  5
73A
100
AcDbEntity
  8
CURVE
100
AcDbLine
 62
7
  6
CONTINUOUS
 10
-2.0190471836
 20
10.0148050204
 11
-1.9766948296
 21
11.1675810204
  0
LINE
  5
73B
100
AcDbEntity
  8
CURVE
100
AcDbLine
 62
7
  6
CONTINUOUS
 10
-1.9800695472
 20
17.9693845593
 11
-1.9804574164
 21
17.9589953553
  0
LWPOLYLINE
  5
73C
100
AcDbEntity
  8
RACCORDO
100
AcDbPolyline
 62
253
  6
CONTINUOUS
 90
9
 70
0
 10
-2.4381940539
 20
11.1445138806
 10
-2.4396469315
 20
11.1076942016
 10
-2.4410753623
 20
11.0607831978
 10
-2.4424591423
 20
11.0040517557
 10
-2.4437973762
 20
10.937830931
 10
-2.4450909594
 20
10.8624798067
 10
-2.4463223738
 20
10.7783580348
 10
-2.4474907306
 20
10.6859026099
 10
-2.4496260862
 20
10.4778341865
  0
LWPOLYLINE
  5
73D
100
AcDbEntity
  8
ASSI
100
AcDbPolyline
 62
253
  6
CONTINUOUS
 90
9
 70
0
 10
-2.4381940539
 20
11.1445138806
 10
-2.4396469315
 20
11.1076942016
 10
-2.4410753623
 20
11.0607831978
 10
-2.4424591423
 20
11.0040517557
 10
-2.4437973762
 20
10.937830931
 10
-2.4450909594
 20
10.8624798067
 10
-2.4463223738
 20
10.7783580348
 10
-2.4474907306
 20
10.6859026099
 10
-2.4496260862
 20
10.4778341865
  0
LWPOLYLINE
  5
73E
100
AcDbEntity
  8
CURVE
100
AcDbPolyline
 62
7
  6
CONTINUOUS
 90
16
 70
0
 10
-1.9804574164
 20
17.9589953553
 10
-1.9808554211
 20
17.9500368825
 10
-1.9810578692
 20
17.9461100747
 10
-1.9812766271
 20
17.9423242796
 10
-1.9814975519
 20
17.9389501974
 10
-1.9817204012
 20
17.9359688868
 10
-1.9819449328
 20
17.9333614065
 10
-1.9821709043
 20
17.9311088152
 10
-1.9823980734
 20
17.9291921716
 10
-1.9826261978
 20
17.9275925345
 10
-1.9828550352
 20
17.9262909625
 10
-1.9830843432
 20
17.9252685143
 10
-1.9833138796
 20
17.9245062487
 10
-1.983543402
 20
17.9239852244
 10
-1.9837726681
 20
17.9236865001
 10
-1.9840014357
 20
17.9235911345
  0
LINE
  5
73F
100
AcDbEntity
  8
CURVE
100
AcDbLine
 62
7
  6
CONTINUOUS
 10
-2.0190471836
 20
12.0672770204
 11
-1.968442896
 21
13.0754510204
  0
LINE
  5
740
100
AcDbEntity
  8
CURVE
100
AcDbLine
 62
7
  6
CONTINUOUS
 10
-2.0190471836
 20
6.0423510204
 11
-1.968442896
 21
7.0504160204
  0
LINE
  5
741
100
AcDbEntity
  8
CURVE
100
AcDbLine
 62
7
  6
CONTINUOUS
 10
-2.0083218878
 20
12.9028020204
 11
-2.0190471836
 21
12.6939200204
  0
LINE
  5
742
100
AcDbEntity
  8
CURVE
100
AcDbLine
 62
7
  6
CONTINUOUS
 10
-2.0083218878
 20
6.8777670204
 11
-2.0190471836
 21
6.6687770204
  0
LINE
  5
743
100
AcDbEntity
  8
CURVE
100
AcDbLine
 62
7
  6
CONTINUOUS
 10
-1.9781128485
 20
13.4608800204
 11
-1.9999122782
 21
13.0594080204
  0
LINE
  5
744
100
AcDbEntity
  8
CURVE
100
AcDbLine
 62
7
  6
CONTINUOUS
 10
-1.9781157103
 20
7.4359020204
 11
-1.9999122782
 21
7.0344820204
  0
LINE
  5
745
100
AcDbEntity
  8
CURVE
100
AcDbLine
 62
253
  6
CONTINUOUS
 10
-2.0364878927
 20
23.1685415189
 11
-2.0591760211
 21
22.7971129696
  0
LINE
  5
746
100
AcDbEntity
  8
CURVE
100
AcDbLine
 62
253
  6
CONTINUOUS
 10
-1.9771497108
 20
23.6309223859
 11
-1.9998378392
 21
23.2780652641
  0
LWPOLYLINE
  5
747
100
AcDbEntity
  8
RACCORDO
100
AcDbPolyline
 62
253
  6
CONTINUOUS
 90
4
 70
0
 10
-2.4337089435
 20
16.1923510204
 10
-2.4352284272
 20
16.1870005743
 10
-2.4367234639
 20
16.1710109651
 10
-2.4381940539
 20
16.1445138806
  0
LWPOLYLINE
  5
748
100
AcDbEntity
  8
ASSI
100
AcDbPolyline
 62
253
  6
CONTINUOUS
 90
4
 70
0
 10
-2.4337089435
 20
16.1923510204
 10
-2.4352284272
 20
16.1870005743
 10
-2.4367234639
 20
16.1710109651
 10
-2.4381940539
 20
16.1445138806
  0
LINE
  5
749
100
AcDbEntity
  8
ASSI
100
AcDbLine
 62
7
  6
CONTINUOUS
 10
-17.3531979891
 20
-0.5797904453
 11
-17.3266484517
 21
-0.5494404048
  0
LINE
  5
74A
100
AcDbEntity
  8
ASSI
100
AcDbLine
 62
7
  6
CONTINUOUS
 10
-17.3266484517
 20
-0.5494404048
 11
-17.2962898905
 21
-0.515263961
  0
LINE
  5
74B
100
AcDbEntity
  8
ASSI
100
AcDbLine
 62
7
  6
CONTINUOUS
 10
-17.2962898905
 20
-0.515263961
 11
-17.2621126136
 21
-0.4772656999
  0
LWPOLYLINE
  5
74C
100
AcDbEntity
  8
ASSI
100
AcDbPolyline
 62
7
  6
CONTINUOUS
 90
3
 70
0
 10
-17.2621126136
 20
-0.4772656999
 10
-17.2038151407
 20
-0.4131779231
 10
-17.1825804025
 20
-0.3899645597
  0
LINE
  5
74D
100
AcDbEntity
  8
0
100
AcDbLine
 62
7
  6
CONTINUOUS
 10
-16.592244898
 20
3.3423510204
 11
-16.5555892616
 21
3.3790066568
  0
LINE
  5
74E
100
AcDbEntity
  8
DRAFT
100
AcDbLine
 62
7
  6
CONTINUOUS
 10
-16.592244898
 20
3.3423510204
 11
-16.5555892616
 21
3.3790066568
  0
LINE
  5
74F
100
AcDbEntity
  8
0
100
AcDbLine
 62
7
  6
CONTINUOUS
 10
-16.5555892616
 20
3.1790066568
 11
-16.592244898
 21
3.1423510204
  0
LINE
  5
750
100
AcDbEntity
  8
DRAFT
100
AcDbLine
 62
7
  6
CONTINUOUS
 10
-16.5555892616
 20
3.1790066568
 11
-16.592244898
 21
3.1423510204
  0
LINE
  5
751
100
AcDbEntity
  8
0
100
AcDbLine
 62
253
  6
CONTINUOUS
 10
-24.242244898
 20
5.3706519717
 11
-24.1200594435
 21
5.4212628441
  0
LINE
  5
752
100
AcDbEntity
  8
RACCORDO
100
AcDbLine
 62
253
  6
CONTINUOUS
 10
-24.242244898
 20
5.3706519717
 11
-24.1200594435
 21
5.4212628441
  0
LINE
  5
753
100
AcDbEntity
  8
CURVE
100
AcDbLine
 62
253
  6
CONTINUOUS
 10
-2.0591760211
 20
34.5328271518
 11
-2.0364878927
 21
34.5328271518
  0
LINE
  5
754
100
AcDbEntity
  8
CURVE
100
AcDbLine
 62
253
  6
CONTINUOUS
 10
-2.0397290537
 20
35.3066368232
 11
-2.0559348597
 21
35.3066368232
  0
LINE
  5
755
100
AcDbEntity
  8
0
100
AcDbLine
 62
253
  6
CONTINUOUS
 10
-24.1200594435
 20
40.6634391967
 11
-24.242244898
 21
40.7140500691
  0
LINE
  5
756
100
AcDbEntity
  8
RACCORDO
100
AcDbLine
 62
253
  6
CONTINUOUS
 10
-24.1200594435
 20
40.6634391967
 11
-24.242244898
 21
40.7140500691
  0
LWPOLYLINE
  5
757
100
AcDbEntity
  8
0
100
AcDbPolyline
 62
253
  6
CONTINUOUS
 90
4
 70
0
 10
-14.9850811809
 20
40.3867997266
 10
-15.0220582309
 20
40.4198730056
 10
-15.0520525191
 20
40.4581869418
 10
-15.0741526842
 20
40.5005773856
  0
LWPOLYLINE
  5
758
100
AcDbEntity
  8
RACCORDO
100
AcDbPolyline
 62
253
  6
CONTINUOUS
 90
4
 70
0
 10
-14.9850811809
 20
40.3867997266
 10
-15.0220582309
 20
40.4198730056
 10
-15.0520525191
 20
40.4581869418
 10
-15.0741526842
 20
40.5005773856
  0
LINE
  5
759
100
AcDbEntity
  8
0
100
AcDbLine
 62
7
  6
CONTINUOUS
 10
-16.592244898
 20
42.7423510204
 11
-16.5555892616
 21
42.7056953841
  0
LINE
  5
75A
100
AcDbEntity
  8
DRAFT
100
AcDbLine
 62
7
  6
CONTINUOUS
 10
-16.592244898
 20
42.7423510204
 11
-16.5555892616
 21
42.7056953841
  0
LINE
  5
75B
100
AcDbEntity
  8
0
100
AcDbLine
 62
7
  6
CONTINUOUS
 10
-16.592244898
 20
42.9423510204
 11
-16.5555892616
 21
42.9056953841
  0
LINE
  5
75C
100
AcDbEntity
  8
DRAFT
100
AcDbLine
 62
7
  6
CONTINUOUS
 10
-16.592244898
 20
42.9423510204
 11
-16.5555892616
 21
42.9056953841
  0
LINE
  5
75D
100
AcDbEntity
  8
ASSI
100
AcDbLine
 62
7
  6
CONTINUOUS
 10
-17.1826795939
 20
46.4747750459
 11
-17.2437261016
 21
46.5416605418
  0
LINE
  5
75E
100
AcDbEntity
  8
ASSI
100
AcDbLine
 62
7
  6
CONTINUOUS
 10
-17.2437261016
 20
46.5416605418
 11
-17.2798423011
 21
46.5816349391
  0
LINE
  5
75F
100
AcDbEntity
  8
ASSI
100
AcDbLine
 62
7
  6
CONTINUOUS
 10
-17.2798423011
 20
46.5816349391
 11
-17.3121479883
 21
46.6177559408
  0
LWPOLYLINE
  5
760
100
AcDbEntity
  8
ASSI
100
AcDbPolyline
 62
7
  6
CONTINUOUS
 90
19
 70
0
 10
-17.3121479883
 20
46.6177559408
 10
-17.340619837
 20
46.6500495698
 10
-17.353429249
 20
46.6647590196
 10
-17.3653426852
 20
46.6785892096
 10
-17.376368088
 20
46.6915391806
 10
-17.386516846
 20
46.7036098917
 10
-17.3958332477
 20
46.7148755143
 10
-17.4043201336
 20
46.7253325626
 10
-17.411997172
 20
46.7349845224
 10
-17.4189177125
 20
46.7439160222
 10
-17.4250970235
 20
46.7521471467
 10
-17.4305247163
 20
46.759657811
 10
-17.4352060735
 20
46.7664723899
 10
-17.43915054
 20
46.7725866516
 10
-17.4423661853
 20
46.7780048277
 10
-17.4448613842
 20
46.7827639882
 10
-17.44665033
 20
46.7868764895
 10
-17.4477500991
 20
46.7903299752
 10
-17.4481776307
 20
46.7931244451
  0
LWPOLYLINE
  5
761
100
AcDbEntity
  8
RACCORDO
100
AcDbPolyline
 62
253
  6
CONTINUOUS
 90
4
 70
0
 10
-2.4337089435
 20
11.1923510204
 10
-2.4352284272
 20
11.1870005743
 10
-2.4367234639
 20
11.1710109651
 10
-2.4381940539
 20
11.1445138806
  0
LWPOLYLINE
  5
762
100
AcDbEntity
  8
ASSI
100
AcDbPolyline
 62
253
  6
CONTINUOUS
 90
4
 70
0
 10
-2.4337089435
 20
11.1923510204
 10
-2.4352284272
 20
11.1870005743
 10
-2.4367234639
 20
11.1710109651
 10
-2.4381940539
 20
11.1445138806
  0
LINE
  5
763
100
AcDbEntity
  8
DRAFT
100
AcDbLine
 62
7
  6
CONTINUOUS
 10
-4.8457321888
 20
2.13188064
 11
-4.842244898
 21
2.1423510204
  0
LWPOLYLINE
  5
764
100
AcDbEntity
  8
ASSI
100
AcDbPolyline
 62
7
  6
CONTINUOUS
 90
3
 70
0
 10
-17.1825804025
 20
-0.3899645597
 10
-17.0917599855
 20
-0.2913780766
 10
-17.0202148856
 20
-0.2140067943
  0
LINE
  5
765
100
AcDbEntity
  8
ASSI
100
AcDbLine
 62
7
  6
CONTINUOUS
 10
-17.492244898
 20
-0.7576489796
 11
-17.4485942511
 21
-0.7139983327
  0
LWPOLYLINE
  5
766
100
AcDbEntity
  8
0
100
AcDbPolyline
 62
253
  6
CONTINUOUS
 90
4
 70
0
 10
-14.9855670887
 20
5.6975368495
 10
-14.9425215547
 20
5.7245869805
 10
-14.8949968346
 20
5.7444494766
 10
-14.8443873633
 20
5.7565950944
  0
LWPOLYLINE
  5
767
100
AcDbEntity
  8
RACCORDO
100
AcDbPolyline
 62
253
  6
CONTINUOUS
 90
4
 70
0
 10
-14.9855670887
 20
5.6975368495
 10
-14.9425215547
 20
5.7245869805
 10
-14.8949968346
 20
5.7444494766
 10
-14.8443873633
 20
5.7565950944
  0
LINE
  5
768
100
AcDbEntity
  8
0
100
AcDbLine
 62
253
  6
CONTINUOUS
 10
-23.6565476784
 20
3.9566538009
 11
-23.5343622239
 21
4.0072646733
  0
LINE
  5
769
100
AcDbEntity
  8
RACCORDO
100
AcDbLine
 62
253
  6
CONTINUOUS
 10
-23.6565476784
 20
3.9566538009
 11
-23.5343622239
 21
4.0072646733
  0
LINE
  5
76A
100
AcDbEntity
  8
CURVE
100
AcDbLine
 62
253
  6
CONTINUOUS
 10
-2.0591760211
 20
35.9566368232
 11
-2.0364878927
 21
35.9566368232
  0
LINE
  5
76B
100
AcDbEntity
  8
CURVE
100
AcDbLine
 62
7
  6
CONTINUOUS
 10
-2.0189075159
 20
36.8280150204
 11
-1.9683062644
 21
36.8280150204
  0
LINE
  5
76C
100
AcDbEntity
  8
CURVE
100
AcDbLine
 62
253
  6
CONTINUOUS
 10
-2.0510731179
 20
37.3494939218
 11
-2.0559348597
 21
37.3494939218
  0
LINE
  5
76D
100
AcDbEntity
  8
CURVE
100
AcDbLine
 62
7
  6
CONTINUOUS
 10
-1.9683062644
 20
37.4332860204
 11
-2.0189075159
 21
37.4332860204
  0
LINE
  5
76E
100
AcDbEntity
  8
CURVE
100
AcDbLine
 62
253
  6
CONTINUOUS
 10
-2.0397290537
 20
37.4423510204
 11
-2.0445907959
 21
37.4423510204
  0
LINE
  5
76F
100
AcDbEntity
  8
0
100
AcDbLine
 62
253
  6
CONTINUOUS
 10
-23.5343622239
 20
42.0774373675
 11
-23.6565476784
 21
42.1280482399
  0
LINE
  5
770
100
AcDbEntity
  8
RACCORDO
100
AcDbLine
 62
253
  6
CONTINUOUS
 10
-23.5343622239
 20
42.0774373675
 11
-23.6565476784
 21
42.1280482399
  0
LINE
  5
771
100
AcDbEntity
  8
ASSI
100
AcDbLine
 62
7
  6
CONTINUOUS
 10
-17.492244898
 20
46.8423510204
 11
-17.4485942511
 21
46.7987003735
  0
LINE
  5
772
100
AcDbEntity
  8
ASSI
100
AcDbLine
 62
7
  6
CONTINUOUS
 10
-17.0202148856
 20
46.2987088351
 11
-17.1152883182
 21
46.401536721
  0
LINE
  5
773
100
AcDbEntity
  8
ASSI
100
AcDbLine
 62
7
  6
CONTINUOUS
 10
-17.1152883182
 20
46.401536721
 11
-17.1826795939
 21
46.4747750459
  0
LINE
  5
774
100
AcDbEntity
  8
DRAFT
100
AcDbLine
 62
7
  6
CONTINUOUS
 10
-4.8457321888
 20
43.9528214008
 11
-4.842244898
 21
43.9423510204
  0
LINE
  5
775
100
AcDbEntity
  8
CURVE
100
AcDbLine
 62
7
  6
CONTINUOUS
 10
-1.9858678308
 20
35.7925130204
 11
-2.0189075159
 21
35.9231300204
  0
LINE
  5
776
100
AcDbEntity
  8
CURVE
100
AcDbLine
 62
7
  6
CONTINUOUS
 10
-2.0189075159
 20
36.5021780204
 11
-1.9683093007
 21
36.2403560204
  0
LINE
  5
777
100
AcDbEntity
  8
CURVE
100
AcDbLine
 62
253
  6
CONTINUOUS
 10
-2.0591760211
 20
37.9994939218
 11
-2.0364878927
 21
37.9994939218
  0
LINE
  5
778
100
AcDbEntity
  8
CURVE
100
AcDbLine
 62
253
  6
CONTINUOUS
 10
-2.0462113757
 20
38.3709224711
 11
-2.0591760211
 21
38.3709224711
  0
LINE
  5
779
100
AcDbEntity
  8
CURVE
100
AcDbLine
 62
253
  6
CONTINUOUS
 10
-2.0559348597
 20
39.0209224711
 11
-2.0397290537
 21
39.0209224711
  0
LINE
  5
77A
100
AcDbEntity
  8
CURVE
100
AcDbLine
 62
253
  6
CONTINUOUS
 10
-2.0397290537
 20
39.3923510204
 11
-2.0462113757
 21
39.3923510204
  0
LWPOLYLINE
  5
77B
100
AcDbEntity
  8
0
100
AcDbPolyline
 62
253
  6
CONTINUOUS
 90
3
 70
0
 10
-14.894850941
 20
40.340205031
 10
-14.942244898
 20
40.3599720196
 10
-14.9850811809
 20
40.3867997266
  0
LWPOLYLINE
  5
77C
100
AcDbEntity
  8
RACCORDO
100
AcDbPolyline
 62
253
  6
CONTINUOUS
 90
3
 70
0
 10
-14.894850941
 20
40.340205031
 10
-14.942244898
 20
40.3599720196
 10
-14.9850811809
 20
40.3867997266
  0
LINE
  5
77D
100
AcDbEntity
  8
DRAFT
100
AcDbLine
 62
7
  6
CONTINUOUS
 10
-5.8504231961
 20
2.0463554747
 11
-5.7934072233
 21
2.13188064
  0
LWPOLYLINE
  5
77E
100
AcDbEntity
  8
0
100
AcDbPolyline
 62
253
  6
CONTINUOUS
 90
3
 70
0
 10
-11.2894929614
 20
40.3402525642
 10
-11.3401024326
 20
40.3281069464
 10
-11.392244898
 20
40.3240228631
  0
LWPOLYLINE
  5
77F
100
AcDbEntity
  8
RACCORDO
100
AcDbPolyline
 62
253
  6
CONTINUOUS
 90
3
 70
0
 10
-11.2894929614
 20
40.3402525642
 10
-11.3401024326
 20
40.3281069464
 10
-11.392244898
 20
40.3240228631
  0
LINE
  5
780
100
AcDbEntity
  8
0
100
AcDbLine
 62
7
  6
CONTINUOUS
 10
-10.592244898
 20
39.6423510204
 11
-15.592244898
 21
39.6423510204
  0
LINE
  5
781
100
AcDbEntity
  8
ASSI
100
AcDbLine
 62
7
  6
CONTINUOUS
 10
-10.592244898
 20
39.6423510204
 11
-15.592244898
 21
39.6423510204
  0
LINE
  5
782
100
AcDbEntity
  8
CURVE
100
AcDbLine
 62
253
  6
CONTINUOUS
 10
-2.0591760211
 20
40.0423510204
 11
-2.0364878927
 21
40.0423510204
  0
LINE
  5
783
100
AcDbEntity
  8
0
100
AcDbLine
 62
7
  6
CONTINUOUS
 10
-15.592244898
 20
40.0923510204
 11
-10.592244898
 21
40.0923510204
  0
LINE
  5
784
100
AcDbEntity
  8
0
100
AcDbLine
 62
7
  6
CONTINUOUS
 10
-11.392244898
 20
40.2923510204
 11
-14.792244898
 21
40.2923510204
  0
LINE
  5
785
100
AcDbEntity
  8
RACCORDO
100
AcDbLine
 62
7
  6
CONTINUOUS
 10
-11.392244898
 20
40.2923510204
 11
-14.792244898
 21
40.2923510204
  0
LINE
  5
786
100
AcDbEntity
  8
0
100
AcDbLine
 62
253
  6
CONTINUOUS
 10
-11.392244898
 20
40.3240228631
 11
-14.792244898
 21
40.3240228631
  0
LINE
  5
787
100
AcDbEntity
  8
RACCORDO
100
AcDbLine
 62
253
  6
CONTINUOUS
 10
-11.392244898
 20
40.3240228631
 11
-14.792244898
 21
40.3240228631
  0
LINE
  5
788
100
AcDbEntity
  8
RACCORDO
100
AcDbLine
 62
7
  6
CONTINUOUS
 10
-14.7748227852
 20
40.3423510204
 11
-11.4096670108
 21
40.3423510204
  0
LINE
  5
789
100
AcDbEntity
  8
ASSI
100
AcDbLine
 62
7
  6
CONTINUOUS
 10
-14.7748227852
 20
40.3423510204
 11
-11.4096670108
 21
40.3423510204
  0
LINE
  5
78A
100
AcDbEntity
  8
ASSI
100
AcDbLine
 62
7
  6
CONTINUOUS
 10
-10.592244898
 20
40.5423510204
 11
-15.592244898
 21
40.5423510204
  0
LINE
  5
78B
100
AcDbEntity
  8
0
100
AcDbLine
 62
253
  6
CONTINUOUS
 10
-14.792244898
 20
40.3240228631
 11
-14.8443393513
 21
40.3280993707
  0
LINE
  5
78C
100
AcDbEntity
  8
RACCORDO
100
AcDbLine
 62
253
  6
CONTINUOUS
 10
-14.792244898
 20
40.3240228631
 11
-14.8443393513
 21
40.3280993707
  0
LINE
  5
78D
100
AcDbEntity
  8
0
100
AcDbLine
 62
253
  6
CONTINUOUS
 10
-14.8443393513
 20
40.3280993707
 11
-14.894850941
 21
40.340205031
  0
LINE
  5
78E
100
AcDbEntity
  8
RACCORDO
100
AcDbLine
 62
253
  6
CONTINUOUS
 10
-14.8443393513
 20
40.3280993707
 11
-14.894850941
 21
40.340205031
  0
LINE
  5
78F
100
AcDbEntity
  8
DRAFT
100
AcDbLine
 62
7
  6
CONTINUOUS
 10
-5.8504231961
 20
44.0383465661
 11
-5.7934072233
 21
43.9528214008
  0
LINE
  5
790
100
AcDbEntity
  8
ASSI
100
AcDbLine
 62
7
  6
CONTINUOUS
 10
-9.4980943287
 20
-0.5807560906
 11
-9.471560428
 21
-0.5504065732
  0
LINE
  5
791
100
AcDbEntity
  8
ASSI
100
AcDbLine
 62
7
  6
CONTINUOUS
 10
-9.471560428
 20
-0.5504065732
 11
-9.4411902331
 21
-0.5162039621
  0
LINE
  5
792
100
AcDbEntity
  8
ASSI
100
AcDbLine
 62
7
  6
CONTINUOUS
 10
-9.4411902331
 20
-0.5162039621
 11
-9.4069645839
 21
-0.478141702
  0
LINE
  5
793
100
AcDbEntity
  8
ASSI
100
AcDbLine
 62
7
  6
CONTINUOUS
 10
-9.4069645839
 20
-0.478141702
 11
-9.3485133886
 21
-0.4138755066
  0
LINE
  5
794
100
AcDbEntity
  8
ASSI
100
AcDbLine
 62
7
  6
CONTINUOUS
 10
-9.3485133886
 20
-0.4138755066
 11
-9.1642749103
 21
-0.2140067943
  0
LINE
  5
795
100
AcDbEntity
  8
RACCORDO
100
AcDbLine
 62
7
  6
CONTINUOUS
 10
-5.8492663994
 20
3.2853295189
 11
-5.792244898
 21
3.3423510204
  0
LINE
  5
796
100
AcDbEntity
  8
0
100
AcDbLine
 62
7
  6
CONTINUOUS
 10
-5.692244898
 20
3.3423510204
 11
-5.6555892616
 21
3.3790066568
  0
LINE
  5
797
100
AcDbEntity
  8
DRAFT
100
AcDbLine
 62
7
  6
CONTINUOUS
 10
-5.692244898
 20
3.3423510204
 11
-5.6555892616
 21
3.3790066568
  0
LINE
  5
798
100
AcDbEntity
  8
RACCORDO
100
AcDbLine
 62
7
  6
CONTINUOUS
 10
-2.3720366626
 20
5.7440467736
 11
-2.9939406511
 21
5.1221427851
  0
LINE
  5
799
100
AcDbEntity
  8
ASSI
100
AcDbLine
 62
7
  6
CONTINUOUS
 10
-2.3720366626
 20
5.7440467736
 11
-2.9939406511
 21
5.1221427851
  0
LINE
  5
79A
100
AcDbEntity
  8
0
100
AcDbLine
 62
7
  6
CONTINUOUS
 10
-5.6555892616
 20
4.7761815528
 11
-5.6381341967
 21
4.7849084206
  0
LINE
  5
79B
100
AcDbEntity
  8
DRAFT
100
AcDbLine
 62
7
  6
CONTINUOUS
 10
-5.6555892616
 20
4.7761815528
 11
-5.6381341967
 21
4.7849084206
  0
LWPOLYLINE
  5
79C
100
AcDbEntity
  8
0
100
AcDbPolyline
 62
7
  6
CONTINUOUS
 90
12
 70
0
 10
-11.4678484366
 20
42.9269798369
 10
-11.3499766084
 20
42.927360311
 10
-11.2371051786
 20
42.9279791222
 10
-11.1277493961
 20
42.9288510868
 10
-11.023394012
 20
42.9299613887
 10
-10.9284932797
 20
42.9312655795
 10
-10.8434251954
 20
42.9327756015
 10
-10.7678117628
 20
42.9344795125
 10
-10.7049732468
 20
42.9362970374
 10
-10.6560164022
 20
42.9382014179
 10
-10.6198344741
 20
42.9402194122
 10
-10.5964274625
 20
42.9423510204
  0
LINE
  5
79D
100
AcDbEntity
  8
ASSI
100
AcDbLine
 62
7
  6
CONTINUOUS
 10
-10.592244898
 20
41.2423510204
 11
-15.592244898
 21
41.2423510204
  0
LINE
  5
79E
100
AcDbEntity
  8
RACCORDO
100
AcDbLine
 62
7
  6
CONTINUOUS
 10
-3.7010205079
 20
41.2554413221
 11
-9.0791545963
 21
41.2554413221
  0
LINE
  5
79F
100
AcDbEntity
  8
ASSI
100
AcDbLine
 62
7
  6
CONTINUOUS
 10
-3.7010205079
 20
41.2554413221
 11
-9.0791545963
 21
41.2554413221
  0
LINE
  5
7A0
100
AcDbEntity
  8
0
100
AcDbLine
 62
7
  6
CONTINUOUS
 10
-15.592244898
 20
41.3423510204
 11
-10.592244898
 21
41.3423510204
  0
LINE
  5
7A1
100
AcDbEntity
  8
ASSI
100
AcDbLine
 62
7
  6
CONTINUOUS
 10
-15.592244898
 20
41.3423510204
 11
-10.592244898
 21
41.3423510204
  0
LINE
  5
7A2
100
AcDbEntity
  8
ASSI
100
AcDbLine
 62
7
  6
CONTINUOUS
 10
-4.092244898
 20
41.6423510204
 11
-9.0791545963
 21
41.6423510204
  0
LINE
  5
7A3
100
AcDbEntity
  8
RACCORDO
100
AcDbLine
 62
7
  6
CONTINUOUS
 10
-9.3791431732
 20
42.6554413221
 11
-22.4834692881
 21
42.6554413221
  0
LINE
  5
7A4
100
AcDbEntity
  8
ASSI
100
AcDbLine
 62
7
  6
CONTINUOUS
 10
-9.3791431732
 20
42.6554413221
 11
-22.4834692881
 21
42.6554413221
  0
LINE
  5
7A5
100
AcDbEntity
  8
0
100
AcDbLine
 62
7
  6
CONTINUOUS
 10
-5.6555892616
 20
42.7056953841
 11
-9.6289005343
 21
42.7056953841
  0
LINE
  5
7A6
100
AcDbEntity
  8
DRAFT
100
AcDbLine
 62
7
  6
CONTINUOUS
 10
-5.6555892616
 20
42.7056953841
 11
-9.6289005343
 21
42.7056953841
  0
LINE
  5
7A7
100
AcDbEntity
  8
0
100
AcDbLine
 62
7
  6
CONTINUOUS
 10
-16.5555892616
 20
42.7056953841
 11
-20.5289005343
 21
42.7056953841
  0
LINE
  5
7A8
100
AcDbEntity
  8
DRAFT
100
AcDbLine
 62
7
  6
CONTINUOUS
 10
-16.5555892616
 20
42.7056953841
 11
-20.5289005343
 21
42.7056953841
  0
LINE
  5
7A9
100
AcDbEntity
  8
0
100
AcDbLine
 62
7
  6
CONTINUOUS
 10
-5.692244898
 20
42.7423510204
 11
-9.592244898
 21
42.7423510204
  0
LINE
  5
7AA
100
AcDbEntity
  8
DRAFT
100
AcDbLine
 62
7
  6
CONTINUOUS
 10
-5.692244898
 20
42.7423510204
 11
-9.592244898
 21
42.7423510204
  0
LINE
  5
7AB
100
AcDbEntity
  8
0
100
AcDbLine
 62
7
  6
CONTINUOUS
 10
-16.592244898
 20
42.7423510204
 11
-20.492244898
 21
42.7423510204
  0
LINE
  5
7AC
100
AcDbEntity
  8
DRAFT
100
AcDbLine
 62
7
  6
CONTINUOUS
 10
-16.592244898
 20
42.7423510204
 11
-20.492244898
 21
42.7423510204
  0
LINE
  5
7AD
100
AcDbEntity
  8
RACCORDO
100
AcDbLine
 62
253
  6
CONTINUOUS
 10
-20.3352233965
 20
42.7993725219
 11
-19.4492663994
 21
42.7993725219
  0
LINE
  5
7AE
100
AcDbEntity
  8
RACCORDO
100
AcDbLine
 62
253
  6
CONTINUOUS
 10
-6.7352233965
 20
42.7993725219
 11
-5.8492663994
 21
42.7993725219
  0
LINE
  5
7AF
100
AcDbEntity
  8
0
100
AcDbLine
 62
7
  6
CONTINUOUS
 10
-16.5555892616
 20
42.9056953841
 11
-9.6289005343
 21
42.9056953841
  0
LINE
  5
7B0
100
AcDbEntity
  8
DRAFT
100
AcDbLine
 62
7
  6
CONTINUOUS
 10
-16.5555892616
 20
42.9056953841
 11
-9.6289005343
 21
42.9056953841
  0
LINE
  5
7B1
100
AcDbEntity
  8
0
100
AcDbLine
 62
7
  6
CONTINUOUS
 10
-14.5937691328
 20
42.9268377
 11
-11.4678484366
 21
42.9269798369
  0
LINE
  5
7B2
100
AcDbEntity
  8
0
100
AcDbLine
 62
7
  6
CONTINUOUS
 10
-16.592244898
 20
42.9423510204
 11
-15.5867231782
 21
42.9423510204
  0
LINE
  5
7B3
100
AcDbEntity
  8
0
100
AcDbLine
 62
7
  6
CONTINUOUS
 10
-10.5977666177
 20
42.9423510204
 11
-9.592244898
 21
42.9423510204
  0
LINE
  5
7B4
100
AcDbEntity
  8
RACCORDO
100
AcDbLine
 62
253
  6
CONTINUOUS
 10
-20.3340665998
 20
42.9993691372
 11
-19.4504231961
 21
42.9993691372
  0
LINE
  5
7B5
100
AcDbEntity
  8
RACCORDO
100
AcDbLine
 62
253
  6
CONTINUOUS
 10
-6.7340665998
 20
42.9993691372
 11
-5.8504231961
 21
42.9993691372
  0
LWPOLYLINE
  5
7B6
100
AcDbEntity
  8
0
100
AcDbPolyline
 62
7
  6
CONTINUOUS
 90
13
 70
0
 10
-14.5937691328
 20
42.9268377
 10
-14.7166413594
 20
42.9269798369
 10
-14.8345131875
 20
42.927360311
 10
-14.9473846173
 20
42.9279791222
 10
-15.0567403998
 20
42.9288510868
 10
-15.1610957839
 20
42.9299613887
 10
-15.2559965162
 20
42.9312655795
 10
-15.3410646005
 20
42.9327756015
 10
-15.4166780331
 20
42.9344795125
 10
-15.4795165491
 20
42.9362970374
 10
-15.5284733937
 20
42.9382014179
 10
-15.5646553218
 20
42.9402194122
 10
-15.5880623335
 20
42.9423510204
  0
LINE
  5
7B7
100
AcDbEntity
  8
RACCORDO
100
AcDbLine
 62
7
  6
CONTINUOUS
 10
-5.8492663994
 20
42.7993725219
 11
-5.792244898
 21
42.7423510204
  0
LINE
  5
7B8
100
AcDbEntity
  8
0
100
AcDbLine
 62
7
  6
CONTINUOUS
 10
-5.692244898
 20
42.7423510204
 11
-5.6555892616
 21
42.7056953841
  0
LINE
  5
7B9
100
AcDbEntity
  8
DRAFT
100
AcDbLine
 62
7
  6
CONTINUOUS
 10
-5.692244898
 20
42.7423510204
 11
-5.6555892616
 21
42.7056953841
  0
LINE
  5
7BA
100
AcDbEntity
  8
RACCORDO
100
AcDbLine
 62
7
  6
CONTINUOUS
 10
-2.3720366626
 20
40.3406552672
 11
-2.9939406511
 21
40.9625592558
  0
LINE
  5
7BB
100
AcDbEntity
  8
ASSI
100
AcDbLine
 62
7
  6
CONTINUOUS
 10
-2.3720366626
 20
40.3406552672
 11
-2.9939406511
 21
40.9625592558
  0
LINE
  5
7BC
100
AcDbEntity
  8
ASSI
100
AcDbLine
 62
7
  6
CONTINUOUS
 10
-9.1642749103
 20
46.2987088351
 11
-9.2596635316
 21
46.401877922
  0
LINE
  5
7BD
100
AcDbEntity
  8
ASSI
100
AcDbLine
 62
7
  6
CONTINUOUS
 10
-9.2596635316
 20
46.401877922
 11
-9.3486166512
 21
46.4986910637
  0
LINE
  5
7BE
100
AcDbEntity
  8
ASSI
100
AcDbLine
 62
7
  6
CONTINUOUS
 10
-9.3486166512
 20
46.4986910637
 11
-9.4071142197
 21
46.5630091044
  0
LINE
  5
7BF
100
AcDbEntity
  8
ASSI
100
AcDbLine
 62
7
  6
CONTINUOUS
 10
-9.4071142197
 20
46.5630091044
 11
-9.4413833161
 21
46.6011216039
  0
LINE
  5
7C0
100
AcDbEntity
  8
ASSI
100
AcDbLine
 62
7
  6
CONTINUOUS
 10
-9.4413833161
 20
46.6011216039
 11
-9.4717871968
 21
46.6353658616
  0
LWPOLYLINE
  5
7C1
100
AcDbEntity
  8
ASSI
100
AcDbPolyline
 62
7
  6
CONTINUOUS
 90
18
 70
0
 10
-9.4717871968
 20
46.6353658616
 10
-9.4983338522
 20
46.66573438
 10
-9.5102302614
 20
46.6795554564
 10
-9.5212325677
 20
46.6924908009
 10
-9.5313531507
 20
46.7045417639
 10
-9.5406389703
 20
46.7157856181
 10
-9.5490932817
 20
46.7262204096
 10
-9.5567343255
 20
46.7358480921
 10
-9.5636146307
 20
46.7447517993
 10
-9.5697492562
 20
46.752951815
 10
-9.5751269198
 20
46.7604278553
 10
-9.579751484
 20
46.7672022019
 10
-9.5836322775
 20
46.773269836
 10
-9.5867776294
 20
46.7786357764
 10
-9.5891958491
 20
46.7833373604
 10
-9.5909014781
 20
46.7873870336
 10
-9.591912051
 20
46.7907723504
 10
-9.592244898
 20
46.7934933107
  0
LINE
  5
7C2
100
AcDbEntity
  8
0
100
AcDbLine
 62
7
  6
CONTINUOUS
 10
-4.4650412248
 20
2.1923510204
 11
-2.650127572
 21
4.0072646733
  0
LINE
  5
7C3
100
AcDbEntity
  8
RACCORDO
100
AcDbLine
 62
7
  6
CONTINUOUS
 10
-4.4650412248
 20
2.1923510204
 11
-2.650127572
 21
4.0072646733
  0
LINE
  5
7C4
100
AcDbEntity
  8
RACCORDO
100
AcDbLine
 62
7
  6
CONTINUOUS
 10
-5.8335180302
 20
0.6510778882
 11
-4.842244898
 21
1.6423510204
  0
LINE
  5
7C5
100
AcDbEntity
  8
0
100
AcDbLine
 62
7
  6
CONTINUOUS
 10
-4.292244898
 20
2.1923510204
 11
-2.5279421175
 21
3.9566538009
  0
LINE
  5
7C6
100
AcDbEntity
  8
RACCORDO
100
AcDbLine
 62
7
  6
CONTINUOUS
 10
-4.292244898
 20
2.1923510204
 11
-2.5279421175
 21
3.9566538009
  0
LINE
  5
7C7
100
AcDbEntity
  8
DRAFT
100
AcDbLine
 62
7
  6
CONTINUOUS
 10
-6.8009716427
 20
43.0292607187
 11
-10.5929163825
 21
43.0292607187
  0
LINE
  5
7C8
100
AcDbEntity
  8
DRAFT
100
AcDbLine
 62
7
  6
CONTINUOUS
 10
-15.5915734134
 20
43.0292607187
 11
-19.3835181532
 21
43.0292607187
  0
LINE
  5
7C9
100
AcDbEntity
  8
DRAFT
100
AcDbLine
 62
7
  6
CONTINUOUS
 10
-9.592244898
 20
43.0423510204
 11
-10.5928927169
 21
43.0423510204
  0
LINE
  5
7CA
100
AcDbEntity
  8
DRAFT
100
AcDbLine
 62
7
  6
CONTINUOUS
 10
-15.5915970791
 20
43.0423510204
 11
-16.592244898
 21
43.0423510204
  0
LINE
  5
7CB
100
AcDbEntity
  8
DRAFT
100
AcDbLine
 62
7
  6
CONTINUOUS
 10
-15.592244898
 20
43.0955849139
 11
-15.5335560211
 21
43.0955849139
  0
LINE
  5
7CC
100
AcDbEntity
  8
DRAFT
100
AcDbLine
 62
7
  6
CONTINUOUS
 10
-10.6509337748
 20
43.0955849139
 11
-10.592244898
 21
43.0955849139
  0
LINE
  5
7CD
100
AcDbEntity
  8
RACCORDO
100
AcDbLine
 62
253
  6
CONTINUOUS
 10
-19.4475396659
 20
43.1252943421
 11
-6.73695013
 21
43.1252943421
  0
LINE
  5
7CE
100
AcDbEntity
  8
RACCORDO
100
AcDbLine
 62
253
  6
CONTINUOUS
 10
-19.4504231961
 20
43.6252753036
 11
-6.7340665998
 21
43.6252753036
  0
LINE
  5
7CF
100
AcDbEntity
  8
DRAFT
100
AcDbLine
 62
7
  6
CONTINUOUS
 10
-3.4684274954
 20
43.8637393515
 11
-4.263633229
 21
43.8637393515
  0
LINE
  5
7D0
100
AcDbEntity
  8
DRAFT
100
AcDbLine
 62
7
  6
CONTINUOUS
 10
-5.692244898
 20
43.8637393515
 11
-5.7835181532
 21
43.8637393515
  0
LINE
  5
7D1
100
AcDbEntity
  8
DRAFT
100
AcDbLine
 62
7
  6
CONTINUOUS
 10
-20.4009716427
 20
43.8637393515
 11
-20.492244898
 21
43.8637393515
  0
LINE
  5
7D2
100
AcDbEntity
  8
DRAFT
100
AcDbLine
 62
7
  6
CONTINUOUS
 10
-21.9208565669
 20
43.8637393515
 11
-22.7160623006
 21
43.8637393515
  0
LINE
  5
7D3
100
AcDbEntity
  8
0
100
AcDbLine
 62
7
  6
CONTINUOUS
 10
-4.292244898
 20
43.8923510204
 11
-5.692244898
 21
43.8923510204
  0
LINE
  5
7D4
100
AcDbEntity
  8
DRAFT
100
AcDbLine
 62
7
  6
CONTINUOUS
 10
-4.292244898
 20
43.8923510204
 11
-5.692244898
 21
43.8923510204
  0
LINE
  5
7D5
100
AcDbEntity
  8
0
100
AcDbLine
 62
7
  6
CONTINUOUS
 10
-20.492244898
 20
43.8923510204
 11
-21.892244898
 21
43.8923510204
  0
LINE
  5
7D6
100
AcDbEntity
  8
DRAFT
100
AcDbLine
 62
7
  6
CONTINUOUS
 10
-20.492244898
 20
43.8923510204
 11
-21.892244898
 21
43.8923510204
  0
LINE
  5
7D7
100
AcDbEntity
  8
DRAFT
100
AcDbLine
 62
7
  6
CONTINUOUS
 10
-3.442244898
 20
43.9423510204
 11
-4.842244898
 21
43.9423510204
  0
LINE
  5
7D8
100
AcDbEntity
  8
DRAFT
100
AcDbLine
 62
7
  6
CONTINUOUS
 10
-21.342244898
 20
43.9423510204
 11
-22.742244898
 21
43.9423510204
  0
LINE
  5
7D9
100
AcDbEntity
  8
DRAFT
100
AcDbLine
 62
7
  6
CONTINUOUS
 10
-4.8457321888
 20
43.9528214008
 11
-5.7934072233
 21
43.9528214008
  0
LINE
  5
7DA
100
AcDbEntity
  8
DRAFT
100
AcDbLine
 62
7
  6
CONTINUOUS
 10
-20.3910825726
 20
43.9528214008
 11
-21.3387576071
 21
43.9528214008
  0
LINE
  5
7DB
100
AcDbEntity
  8
RACCORDO
100
AcDbLine
 62
7
  6
CONTINUOUS
 10
-5.5081441788
 20
44.0383465661
 11
-5.8504231961
 21
44.0383465661
  0
LINE
  5
7DC
100
AcDbEntity
  8
RACCORDO
100
AcDbLine
 62
7
  6
CONTINUOUS
 10
-20.3340665998
 20
44.0383465661
 11
-20.6763456171
 21
44.0383465661
  0
LINE
  5
7DD
100
AcDbEntity
  8
0
100
AcDbLine
 62
7
  6
CONTINUOUS
 10
-10.092244898
 20
44.0423510204
 11
-16.092244898
 21
44.0423510204
  0
LINE
  5
7DE
100
AcDbEntity
  8
RACCORDO
100
AcDbLine
 62
253
  6
CONTINUOUS
 10
-5.5081441788
 20
44.3550442641
 11
-10.092244898
 21
44.3550442641
  0
LINE
  5
7DF
100
AcDbEntity
  8
RACCORDO
100
AcDbLine
 62
253
  6
CONTINUOUS
 10
-16.092244898
 20
44.3550442641
 11
-20.6763456171
 21
44.3550442641
  0
LINE
  5
7E0
100
AcDbEntity
  8
0
100
AcDbLine
 62
7
  6
CONTINUOUS
 10
-16.092244898
 20
44.7423510204
 11
-10.092244898
 21
44.7423510204
  0
LINE
  5
7E1
100
AcDbEntity
  8
0
100
AcDbLine
 62
7
  6
CONTINUOUS
 10
-2.650127572
 20
42.0774373675
 11
-4.4650412248
 21
43.8923510204
  0
LINE
  5
7E2
100
AcDbEntity
  8
RACCORDO
100
AcDbLine
 62
7
  6
CONTINUOUS
 10
-2.650127572
 20
42.0774373675
 11
-4.4650412248
 21
43.8923510204
  0
LINE
  5
7E3
100
AcDbEntity
  8
0
100
AcDbLine
 62
7
  6
CONTINUOUS
 10
-2.5279421175
 20
42.1280482399
 11
-4.292244898
 21
43.8923510204
  0
LINE
  5
7E4
100
AcDbEntity
  8
RACCORDO
100
AcDbLine
 62
7
  6
CONTINUOUS
 10
-2.5279421175
 20
42.1280482399
 11
-4.292244898
 21
43.8923510204
  0
LINE
  5
7E5
100
AcDbEntity
  8
RACCORDO
100
AcDbLine
 62
7
  6
CONTINUOUS
 10
-4.842244898
 20
44.4423510204
 11
-5.8335180302
 21
45.4336241526
  0
LINE
  5
7E6
100
AcDbEntity
  8
RACCORDO
100
AcDbLine
 62
253
  6
CONTINUOUS
 10
-4.837873064
 20
-1.2032813764
 11
-4.842244898
 21
-1.2076532104
  0
LINE
  5
7E7
100
AcDbEntity
  8
RACCORDO
100
AcDbLine
 62
253
  6
CONTINUOUS
 10
-4.5878772947
 20
-1.4532771456
 11
-4.5922491287
 21
-1.4576489796
  0
LINE
  5
7E8
100
AcDbEntity
  8
RACCORDO
100
AcDbLine
 62
7
  6
CONTINUOUS
 10
-5.0082203312
 20
2.0506427562
 11
-4.8457321888
 21
2.13188064
  0
LINE
  5
7E9
100
AcDbEntity
  8
RACCORDO
100
AcDbLine
 62
253
  6
CONTINUOUS
 10
-5.7549000647
 20
45.3550061872
 11
-10.092244898
 21
45.3550061872
  0
LINE
  5
7EA
100
AcDbEntity
  8
RACCORDO
100
AcDbLine
 62
253
  6
CONTINUOUS
 10
-16.092244898
 20
45.3550061872
 11
-20.4295897312
 21
45.3550061872
  0
LINE
  5
7EB
100
AcDbEntity
  8
DRAFT
100
AcDbLine
 62
7
  6
CONTINUOUS
 10
-16.592244898
 20
45.3803902591
 11
-16.092244898
 21
45.3803902591
  0
LINE
  5
7EC
100
AcDbEntity
  8
DRAFT
100
AcDbLine
 62
7
  6
CONTINUOUS
 10
-10.092244898
 20
45.3803902591
 11
-9.592244898
 21
45.3803902591
  0
LINE
  5
7ED
100
AcDbEntity
  8
RACCORDO
100
AcDbLine
 62
7
  6
CONTINUOUS
 10
-2.4023850371
 20
45.4336241526
 11
-5.8335180302
 21
45.4336241526
  0
LINE
  5
7EE
100
AcDbEntity
  8
RACCORDO
100
AcDbLine
 62
7
  6
CONTINUOUS
 10
-20.3509717657
 20
45.4336241526
 11
-23.7821047588
 21
45.4336241526
  0
LINE
  5
7EF
100
AcDbEntity
  8
RACCORDO
100
AcDbLine
 62
7
  6
CONTINUOUS
 10
-2.4193498111
 20
45.4423510204
 11
-2.442244898
 21
45.4423510204
  0
LINE
  5
7F0
100
AcDbEntity
  8
DRAFT
100
AcDbLine
 62
7
  6
CONTINUOUS
 10
-2.442244898
 20
45.4423510204
 11
-8.692244898
 21
45.4423510204
  0
LINE
  5
7F1
100
AcDbEntity
  8
DRAFT
100
AcDbLine
 62
7
  6
CONTINUOUS
 10
-17.492244898
 20
45.4423510204
 11
-23.742244898
 21
45.4423510204
  0
LINE
  5
7F2
100
AcDbEntity
  8
RACCORDO
100
AcDbLine
 62
7
  6
CONTINUOUS
 10
-23.742244898
 20
45.4423510204
 11
-23.7651399848
 21
45.4423510204
  0
LINE
  5
7F3
100
AcDbEntity
  8
RACCORDO
100
AcDbLine
 62
7
  6
CONTINUOUS
 10
-23.4929678958
 20
46.1650007512
 11
-21.5915219001
 21
46.1650007512
  0
LINE
  5
7F4
100
AcDbEntity
  8
RACCORDO
100
AcDbLine
 62
7
  6
CONTINUOUS
 10
-4.5929678958
 20
46.1650007512
 11
-2.6915219001
 21
46.1650007512
  0
LWPOLYLINE
  5
7F5
100
AcDbEntity
  8
RACCORDO
100
AcDbPolyline
 62
7
  6
CONTINUOUS
 90
34
 70
0
 10
-23.4878772947
 20
46.7423510204
 10
-23.5009017699
 20
46.7426045978
 10
-23.5138313421
 20
46.7432299966
 10
-23.5266319405
 20
46.7442272167
 10
-23.5392819976
 20
46.7456088821
 10
-23.5517381479
 20
46.7473623688
 10
-23.5639366614
 20
46.7494498053
 10
-23.5758372837
 20
46.751872274
 10
-23.5874276827
 20
46.7546286925
 10
-23.5986896677
 20
46.7576779419
 10
-23.6096008402
 20
46.7610205008
 10
-23.620140945
 20
46.7646558907
 10
-23.6302968383
 20
46.7685415567
 10
-23.6400509798
 20
46.7726775448
 10
-23.6493876949
 20
46.7770638091
 10
-23.6582980293
 20
46.7816576564
 10
-23.6667688722
 20
46.7864588818
 10
-23.6747886045
 20
46.7914676902
 10
-23.6823515079
 20
46.7966420037
 10
-23.6894484003
 20
46.8019814863
 10
-23.6960713094
 20
46.807486474
 10
-23.7022170533
 20
46.813115896
 10
-23.7078799343
 20
46.8188693466
 10
-23.7130552915
 20
46.8247472316
 10
-23.7177420695
 20
46.8307096981
 10
-23.7219376945
 20
46.8367562824
 10
-23.7256405447
 20
46.8428874483
 10
-23.7288515218
 20
46.8490647333
 10
-23.7315708888
 20
46.8552875922
 10
-23.7337998352
 20
46.8615565703
 10
-23.735541198
 20
46.8678348415
 10
-23.7367979367
 20
46.8741101305
 10
-23.7375736415
 20
46.8803947125
 10
-23.737873064
 20
46.8866885877
  0
LINE
  5
7F6
100
AcDbEntity
  8
RACCORDO
100
AcDbLine
 62
7
  6
CONTINUOUS
 10
-5.0082203312
 20
44.0340592846
 11
-4.8457321888
 21
43.9528214008
  0
LINE
  5
7F7
100
AcDbEntity
  8
RACCORDO
100
AcDbLine
 62
253
  6
CONTINUOUS
 10
-4.837873064
 20
47.2879834172
 11
-4.842244898
 21
47.2923552512
  0
LINE
  5
7F8
100
AcDbEntity
  8
RACCORDO
100
AcDbLine
 62
253
  6
CONTINUOUS
 10
-4.5878772947
 20
47.5379791864
 11
-4.5922491287
 21
47.5423510204
  0
LINE
  5
7F9
100
AcDbEntity
  8
RACCORDO
100
AcDbLine
 62
253
  6
CONTINUOUS
 10
-2.4023850371
 20
0.6510778882
 11
-2.419840102
 21
0.6423510204
  0
LWPOLYLINE
  5
7FA
100
AcDbEntity
  8
RACCORDO
100
AcDbPolyline
 62
7
  6
CONTINUOUS
 90
11
 70
0
 10
-2.2141072158
 20
0.6909042987
 10
-2.2284902753
 20
0.6840221933
 10
-2.2486086815
 20
0.6753935229
 10
-2.2691159325
 20
0.6677313114
 10
-2.2899661995
 20
0.6610530537
 10
-2.3111211647
 20
0.6553720437
 10
-2.3325243535
 20
0.6507044078
 10
-2.3541008807
 20
0.6470648668
 10
-2.3757924859
 20
0.6444590768
 10
-2.3975585453
 20
0.6428877695
 10
-2.4193498111
 20
0.6423510204
  0
LINE
  5
7FB
100
AcDbEntity
  8
RACCORDO
100
AcDbLine
 62
253
  6
CONTINUOUS
 10
-4.5878772947
 20
46.6701822368
 11
-2.6966125012
 21
46.6701822368
  0
LINE
  5
7FC
100
AcDbEntity
  8
RACCORDO
100
AcDbLine
 62
7
  6
CONTINUOUS
 10
-21.5966125012
 20
46.7423510204
 11
-23.4878772947
 21
46.7423510204
  0
LINE
  5
7FD
100
AcDbEntity
  8
ASSI
100
AcDbLine
 62
253
  6
CONTINUOUS
 10
-8.7358955448
 20
46.7987003735
 11
-9.592244898
 21
46.7987003735
  0
LINE
  5
7FE
100
AcDbEntity
  8
ASSI
100
AcDbLine
 62
253
  6
CONTINUOUS
 10
-16.592244898
 20
46.7987003735
 11
-17.4485942511
 21
46.7987003735
  0
LINE
  5
7FF
100
AcDbEntity
  8
DRAFT
100
AcDbLine
 62
7
  6
CONTINUOUS
 10
-9.592244898
 20
46.8365331906
 11
-16.592244898
 21
46.8365331906
  0
LINE
  5
800
100
AcDbEntity
  8
DRAFT
100
AcDbLine
 62
7
  6
CONTINUOUS
 10
-8.692244898
 20
46.8423510204
 11
-17.492244898
 21
46.8423510204
  0
LINE
  5
801
100
AcDbEntity
  8
RACCORDO
100
AcDbLine
 62
253
  6
CONTINUOUS
 10
-2.446616732
 20
46.8866885877
 11
-4.837873064
 21
46.8866885877
  0
LINE
  5
802
100
AcDbEntity
  8
RACCORDO
100
AcDbLine
 62
253
  6
CONTINUOUS
 10
-2.446616732
 20
47.2879834172
 11
-4.837873064
 21
47.2879834172
  0
LINE
  5
803
100
AcDbEntity
  8
RACCORDO
100
AcDbLine
 62
253
  6
CONTINUOUS
 10
-21.346616732
 20
47.2879834172
 11
-23.737873064
 21
47.2879834172
  0
LINE
  5
804
100
AcDbEntity
  8
RACCORDO
100
AcDbLine
 62
253
  6
CONTINUOUS
 10
-2.6966125012
 20
47.5379791864
 11
-4.5878772947
 21
47.5379791864
  0
LINE
  5
805
100
AcDbEntity
  8
RACCORDO
100
AcDbLine
 62
253
  6
CONTINUOUS
 10
-21.5966125012
 20
47.5379791864
 11
-23.4878772947
 21
47.5379791864
  0
LINE
  5
806
100
AcDbEntity
  8
RACCORDO
100
AcDbLine
 62
7
  6
CONTINUOUS
 10
-2.6922406672
 20
47.5423510204
 11
-4.5922491287
 21
47.5423510204
  0
LINE
  5
807
100
AcDbEntity
  8
RACCORDO
100
AcDbLine
 62
7
  6
CONTINUOUS
 10
-21.5922406672
 20
47.5423510204
 11
-23.4922491287
 21
47.5423510204
  0
LWPOLYLINE
  5
808
100
AcDbEntity
  8
RACCORDO
100
AcDbPolyline
 62
7
  6
CONTINUOUS
 90
34
 70
0
 10
-21.5922406672
 20
47.5423510204
 10
-21.5803453819
 20
47.5420678702
 10
-21.5684770424
 20
47.5412190546
 10
-21.5566625318
 20
47.5398064946
 10
-21.5449286105
 20
47.5378333881
 10
-21.5333018592
 20
47.5353042021
 10
-21.521808619
 20
47.5322246621
 10
-21.5104749242
 20
47.5286017417
 10
-21.4993264487
 20
47.5244436462
 10
-21.4883884517
 20
47.5197597926
 10
-21.4776857104
 20
47.5145607892
 10
-21.4672424697
 20
47.508858412
 10
-21.4570823921
 20
47.5026655785
 10
-21.4472284928
 20
47.4959963159
 10
-21.4377030941
 20
47.4888657311
 10
-21.4285277789
 20
47.4812899793
 10
-21.4197233319
 20
47.4732862209
 10
-21.4113096975
 20
47.4648725865
 10
-21.4033059391
 20
47.4560681395
 10
-21.3957301872
 20
47.4468928242
 10
-21.3885996025
 20
47.4373674255
 10
-21.3819303398
 20
47.4275135263
 10
-21.3757375063
 20
47.4173534487
 10
-21.3700351291
 20
47.406910208
 10
-21.3648361258
 20
47.3962074667
 10
-21.3601522722
 20
47.3852694697
 10
-21.3559941766
 20
47.3741209942
 10
-21.3523712563
 20
47.3627872994
 10
-21.3492917162
 20
47.3512940592
 10
-21.3467625302
 20
47.3396673079
 10
-21.3447894238
 20
47.3279333865
 10
-21.3433768637
 20
47.316118876
 10
-21.3425280482
 20
47.3042505364
 10
-21.342244898
 20
47.2923552512
  0
LWPOLYLINE
  5
809
100
AcDbEntity
  8
RACCORDO
100
AcDbPolyline
 62
7
  6
CONTINUOUS
 90
34
 70
0
 10
-2.6922406672
 20
47.5423510204
 10
-2.6803453819
 20
47.5420678702
 10
-2.6684770424
 20
47.5412190546
 10
-2.6566625318
 20
47.5398064946
 10
-2.6449286105
 20
47.5378333881
 10
-2.6333018592
 20
47.5353042021
 10
-2.621808619
 20
47.5322246621
 10
-2.6104749242
 20
47.5286017417
 10
-2.5993264487
 20
47.5244436462
 10
-2.5883884517
 20
47.5197597926
 10
-2.5776857104
 20
47.5145607892
 10
-2.5672424697
 20
47.508858412
 10
-2.5570823921
 20
47.5026655785
 10
-2.5472284928
 20
47.4959963159
 10
-2.5377030941
 20
47.4888657311
 10
-2.5285277789
 20
47.4812899793
 10
-2.5197233319
 20
47.4732862209
 10
-2.5113096975
 20
47.4648725865
 10
-2.5033059391
 20
47.4560681395
 10
-2.4957301872
 20
47.4468928242
 10
-2.4885996025
 20
47.4373674255
 10
-2.4819303398
 20
47.4275135263
 10
-2.4757375063
 20
47.4173534487
 10
-2.4700351291
 20
47.406910208
 10
-2.4648361258
 20
47.3962074667
 10
-2.4601522722
 20
47.3852694697
 10
-2.4559941766
 20
47.3741209942
 10
-2.4523712563
 20
47.3627872994
 10
-2.4492917162
 20
47.3512940592
 10
-2.4467625302
 20
47.3396673079
 10
-2.4447894238
 20
47.3279333865
 10
-2.4433768637
 20
47.316118876
 10
-2.4425280482
 20
47.3042505364
 10
-2.442244898
 20
47.2923552512
  0
LWPOLYLINE
  5
80A
100
AcDbEntity
  8
RACCORDO
100
AcDbPolyline
 62
253
  6
CONTINUOUS
 90
31
 70
0
 10
-21.5966125012
 20
47.5379791864
 10
-21.5835290152
 20
47.5376361478
 10
-21.5704813886
 20
47.536608858
 10
-21.5575053825
 20
47.5349001324
 10
-21.5446365616
 20
47.5325146544
 10
-21.531910197
 20
47.5294589622
 10
-21.5193611694
 20
47.5257414308
 10
-21.5070238731
 20
47.5213722493
 10
-21.4949321225
 20
47.5163633929
 10
-21.4831190587
 20
47.5107285897
 10
-21.4716170591
 20
47.5044832838
 10
-21.4604576486
 20
47.4976445924
 10
-21.449671413
 20
47.490231259
 10
-21.4392879153
 20
47.4822636022
 10
-21.4293356149
 20
47.47376346
 10
-21.419841789
 20
47.4647541294
 10
-21.4108324584
 20
47.4552603035
 10
-21.4023323161
 20
47.445308003
 10
-21.3943646594
 20
47.4349245054
 10
-21.386951326
 20
47.4241382698
 10
-21.3801126346
 20
47.4129788593
 10
-21.3738673287
 20
47.4014768597
 10
-21.3682325255
 20
47.3896637959
 10
-21.363223669
 20
47.3775720453
 10
-21.3588544875
 20
47.365234749
 10
-21.3551369562
 20
47.3526857213
 10
-21.3520812639
 20
47.3399593568
 10
-21.349695786
 20
47.3270905359
 10
-21.3479870604
 20
47.3141145298
 10
-21.3469597705
 20
47.3010669032
 10
-21.346616732
 20
47.2879834172
  0
LWPOLYLINE
  5
80B
100
AcDbEntity
  8
RACCORDO
100
AcDbPolyline
 62
253
  6
CONTINUOUS
 90
31
 70
0
 10
-2.6966125012
 20
47.5379791864
 10
-2.6835601612
 20
47.5376377792
 10
-2.6705352668
 20
47.5366145166
 10
-2.6575734922
 20
47.5349109124
 10
-2.6447077735
 20
47.5325297822
 10
-2.6319763083
 20
47.5294766688
 10
-2.6194221237
 20
47.5257612291
 10
-2.6070823198
 20
47.521394678
 10
-2.5949879637
 20
47.5163882481
 10
-2.5831718854
 20
47.5107554995
 10
-2.571666285
 20
47.5045116978
 10
-2.5605029666
 20
47.497674016
 10
-2.5497128874
 20
47.490261386
 10
-2.5393257615
 20
47.4822942438
 10
-2.5293699244
 20
47.4737943468
 10
-2.5198725899
 20
47.464784925
 10
-2.5108597708
 20
47.4552906318
 10
-2.5023562293
 20
47.4453375284
 10
-2.4943853211
 20
47.4349529392
 10
-2.4869689143
 20
47.4241653488
 10
-2.4801273385
 20
47.4130043229
 10
-2.4738793593
 20
47.4015004671
 10
-2.468242111
 20
47.3896853214
 10
-2.4632310555
 20
47.3775912842
 10
-2.4588599405
 20
47.3652515281
 10
-2.455140751
 20
47.3526998806
 10
-2.4520836898
 20
47.3399707667
 10
-2.4496971471
 20
47.3270991271
 10
-2.4479876639
 20
47.3141202697
 10
-2.446959921
 20
47.3010697713
 10
-2.446616732
 20
47.2879834172
  0
LWPOLYLINE
  5
80C
100
AcDbEntity
  8
RACCORDO
100
AcDbPolyline
 62
7
  6
CONTINUOUS
 90
11
 70
0
 10
-2.2141090284
 20
45.3937986345
 10
-2.2285786313
 20
45.4007202471
 10
-2.2487031892
 20
45.4093464202
 10
-2.2692140157
 20
45.4170047232
 10
-2.2900640586
 20
45.4236777699
 10
-2.3111972057
 20
45.429348505
 10
-2.3325741778
 20
45.4340072814
 10
-2.3541729882
 20
45.4376475734
 10
-2.3759541173
 20
45.4402584253
 10
-2.3978597164
 20
45.4418286341
 10
-2.419840102
 20
45.4423510204
  0
LINE
  5
80D
100
AcDbEntity
  8
RACCORDO
100
AcDbLine
 62
253
  6
CONTINUOUS
 10
-2.419840102
 20
45.4423510204
 11
-2.4023850371
 21
45.4336241526
  0
ARC
  5
80E
100
AcDbEntity
  8
ASSI
100
AcDbCircle
 62
7
  6
CONTINUOUS
 10
-22.5981532687
 20
4.1523510204
 40
0.71
100
AcDbArc
 50
229.7020215745
 51
265.2988538673
  0
ARC
  5
80F
100
AcDbEntity
  8
ASSI
100
AcDbCircle
 62
7
  6
CONTINUOUS
 10
-23.382244898
 20
4.9364426497
 40
0.71
100
AcDbArc
 50
184.7020215745
 51
220.2988538673
  0
ARC
  5
810
100
AcDbEntity
  8
0
100
AcDbCircle
 62
7
  6
CONTINUOUS
 10
-14.792244898
 20
5.4923510204
 40
0.3
100
AcDbArc
 50
90.0
 51
170.0
  0
ARC
  5
811
100
AcDbEntity
  8
RACCORDO
100
AcDbCircle
 62
7
  6
CONTINUOUS
 10
-14.792244898
 20
5.4923510204
 40
0.3
100
AcDbArc
 50
90.0
 51
170.0
  0
ARC
  5
812
100
AcDbEntity
  8
ASSI
100
AcDbCircle
 62
7
  6
CONTINUOUS
 10
-22.5981532687
 20
41.9323510204
 40
0.71
100
AcDbArc
 50
109.9961491498
 51
114.2412807351
  0
ARC
  5
813
100
AcDbEntity
  8
ASSI
100
AcDbCircle
 62
7
  6
CONTINUOUS
 10
-23.382244898
 20
41.1482593911
 40
0.71
100
AcDbArc
 50
139.7010712477
 51
175.2998279782
  0
ARC
  5
814
100
AcDbEntity
  8
0
100
AcDbCircle
 62
7
  6
CONTINUOUS
 10
-14.792244898
 20
40.5923510204
 40
0.3
100
AcDbArc
 50
189.8838085533
 51
270.0
  0
ARC
  5
815
100
AcDbEntity
  8
RACCORDO
100
AcDbCircle
 62
7
  6
CONTINUOUS
 10
-14.792244898
 20
40.5923510204
 40
0.3
100
AcDbArc
 50
189.8838085533
 51
270.0
  0
ARC
  5
816
100
AcDbEntity
  8
ASSI
100
AcDbCircle
 62
7
  6
CONTINUOUS
 10
-2.802244898
 20
6.3364426497
 40
0.71
100
AcDbArc
 50
319.7020215745
 51
355.2988538673
  0
ARC
  5
817
100
AcDbEntity
  8
ASSI
100
AcDbCircle
 62
7
  6
CONTINUOUS
 10
-3.5863365272
 20
5.5523510204
 40
0.71
100
AcDbArc
 50
274.7020215745
 51
310.2988538673
  0
ARC
  5
818
100
AcDbEntity
  8
0
100
AcDbCircle
 62
7
  6
CONTINUOUS
 10
-11.392244898
 20
5.4923510204
 40
0.3
100
AcDbArc
 50
10.0
 51
90.0
  0
ARC
  5
819
100
AcDbEntity
  8
RACCORDO
100
AcDbCircle
 62
7
  6
CONTINUOUS
 10
-11.392244898
 20
5.4923510204
 40
0.3
100
AcDbArc
 50
10.0
 51
90.0
  0
ARC
  5
81A
100
AcDbEntity
  8
0
100
AcDbCircle
 62
7
  6
CONTINUOUS
 10
-4.092244898
 20
40.2423510204
 40
1.4
100
AcDbArc
 50
21.7133555171
 51
90.0
  0
ARC
  5
81B
100
AcDbEntity
  8
ASSI
100
AcDbCircle
 62
7
  6
CONTINUOUS
 10
-3.5863365272
 20
40.5323510204
 40
0.71
100
AcDbArc
 50
49.7010712477
 51
85.2998279782
  0
ARC
  5
81C
100
AcDbEntity
  8
ASSI
100
AcDbCircle
 62
7
  6
CONTINUOUS
 10
-2.802244898
 20
39.7482593911
 40
0.71
100
AcDbArc
 50
4.7001961556
 51
40.2989529286
  0
ARC
  5
81D
100
AcDbEntity
  8
0
100
AcDbCircle
 62
7
  6
CONTINUOUS
 10
-11.392244898
 20
40.5923510204
 40
0.3
100
AcDbArc
 50
270.0
 51
350.0
  0
ARC
  5
81E
100
AcDbEntity
  8
RACCORDO
100
AcDbCircle
 62
7
  6
CONTINUOUS
 10
-11.392244898
 20
40.5923510204
 40
0.3
100
AcDbArc
 50
270.0
 51
350.0
  0
ELLIPSE
  5
81F
100
AcDbEntity
  8
0
100
AcDbEllipse
 62
7
  6
CONTINUOUS
 10
-11.2993516791
 20
4.8067255901
 30
0.0
 11
0.5
 21
-0.0
 31
0.0
 40
0.0087268678
 41
0.7853981634
 42
1.1434651843
  0
ELLIPSE
  5
820
100
AcDbEntity
  8
0
100
AcDbEllipse
 62
7
  6
CONTINUOUS
 10
-14.8851381168
 20
4.8067255901
 30
0.0
 11
0.5
 21
0.0
 31
0.0
 40
0.0087268678
 41
1.97725418
 42
2.3561944902
  0
ELLIPSE
  5
821
100
AcDbEntity
  8
0
100
AcDbEllipse
 62
7
  6
CONTINUOUS
 10
-22.2419402419
 20
40.713797703
 30
0.0
 11
1.8480888181
 21
-0.7655034529
 31
0.0
 40
0.9998215708
 41
2.7489566578
 42
3.5342286494
  0
ELLIPSE
  5
822
100
AcDbEntity
  8
0
100
AcDbEllipse
 62
7
  6
CONTINUOUS
 10
-22.2419402419
 20
5.3709043378
 30
0.0
 11
1.8480888181
 21
0.7655034529
 31
0.0
 40
0.9998215708
 41
2.7489566578
 42
3.5342286494
  0
ELLIPSE
  5
823
100
AcDbEntity
  8
0
100
AcDbEllipse
 62
7
  6
CONTINUOUS
 10
-3.942549554
 20
5.3709043378
 30
0.0
 11
1.8480888181
 21
-0.7655034529
 31
0.0
 40
0.9998215708
 41
-0.3926359958
 42
0.3926359958
  0
ELLIPSE
  5
824
100
AcDbEntity
  8
0
100
AcDbEllipse
 62
7
  6
CONTINUOUS
 10
-3.942549554
 20
40.713797703
 30
0.0
 11
1.8480888181
 21
0.7655034529
 31
0.0
 40
0.9998215708
 41
-0.3926359958
 42
0.3926359958
  0
ELLIPSE
  5
825
100
AcDbEntity
  8
0
100
AcDbEllipse
 62
7
  6
CONTINUOUS
 10
-3.8260944695
 20
5.276200592
 30
0.0
 11
-0.3535803156
 21
0.3535803156
 31
0.0
 40
0.9999238505
 41
-3.7928914266
 42
-3.437805147
  0
ELLIPSE
  5
826
100
AcDbEntity
  8
0
100
AcDbEllipse
 62
7
  6
CONTINUOUS
 10
-3.8260944695
 20
5.276200592
 30
0.0
 11
0.3535803156
 21
-0.3535803156
 31
0.0
 40
0.9999238505
 41
-0.7853600872
 42
-0.651298773
  0
ELLIPSE
  5
827
100
AcDbEntity
  8
0
100
AcDbEllipse
 62
7
  6
CONTINUOUS
 10
-22.1197547874
 20
40.6631868306
 30
0.0
 11
1.8480888181
 21
-0.7655034529
 31
0.0
 40
0.9998215708
 41
9.032141965
 42
9.2322752141
  0
ELLIPSE
  5
828
100
AcDbEntity
  8
0
100
AcDbEllipse
 62
7
  6
CONTINUOUS
 10
-22.1197547874
 20
40.6631868306
 30
0.0
 11
1.8480888181
 21
-0.7655034529
 31
0.0
 40
0.9998215708
 41
3.4204543746
 42
3.5342286494
  0
ELLIPSE
  5
829
100
AcDbEntity
  8
0
100
AcDbEllipse
 62
7
  6
CONTINUOUS
 10
-22.1197547874
 20
5.4215152102
 30
0.0
 11
-1.8480888181
 21
-0.7655034529
 31
0.0
 40
0.9998215708
 41
-0.3926359958
 42
-0.278861721
  0
ELLIPSE
  5
82A
100
AcDbEntity
  8
0
100
AcDbEllipse
 62
7
  6
CONTINUOUS
 10
-22.1197547874
 20
5.4215152102
 30
0.0
 11
-1.8480888181
 21
-0.7655034529
 31
0.0
 40
0.9998215708
 41
6.4756880539
 42
6.675821303
  0
ELLIPSE
  5
82B
100
AcDbEntity
  8
0
100
AcDbEllipse
 62
7
  6
CONTINUOUS
 10
-4.0647350085
 20
5.4215152102
 30
0.0
 11
-1.8480888181
 21
0.7655034529
 31
0.0
 40
0.9998215708
 41
2.7489566578
 42
3.5342286494
  0
ELLIPSE
  5
82C
100
AcDbEntity
  8
0
100
AcDbEllipse
 62
7
  6
CONTINUOUS
 10
-4.0647350085
 20
40.6631868306
 30
0.0
 11
1.8480888181
 21
0.7655034529
 31
0.0
 40
0.9998215708
 41
-0.3926359958
 42
0.3926359958
  0
ELLIPSE
  5
82D
100
AcDbEntity
  8
RACCORDO
100
AcDbEllipse
 62
7
  6
CONTINUOUS
 10
-3.8260944695
 20
5.276200592
 30
0.0
 11
-0.3535803156
 21
0.3535803156
 31
0.0
 40
0.9999238505
 41
-3.7928914266
 42
-3.437805147
  0
ELLIPSE
  5
82E
100
AcDbEntity
  8
RACCORDO
100
AcDbEllipse
 62
7
  6
CONTINUOUS
 10
-3.8260944695
 20
5.276200592
 30
0.0
 11
0.3535803156
 21
-0.3535803156
 31
0.0
 40
0.9999238505
 41
-0.7853600872
 42
-0.651298773
  0
ELLIPSE
  5
82F
100
AcDbEntity
  8
RACCORDO
100
AcDbEllipse
 62
7
  6
CONTINUOUS
 10
-11.2993516791
 20
4.8067255901
 30
0.0
 11
0.5
 21
-0.0
 31
0.0
 40
0.0087268678
 41
0.7853981634
 42
1.1434651843
  0
ELLIPSE
  5
830
100
AcDbEntity
  8
RACCORDO
100
AcDbEllipse
 62
7
  6
CONTINUOUS
 10
-14.8851381168
 20
4.8067255901
 30
0.0
 11
0.5
 21
0.0
 31
0.0
 40
0.0087268678
 41
1.97725418
 42
2.3561944902
  0
ELLIPSE
  5
831
100
AcDbEntity
  8
RACCORDO
100
AcDbEllipse
 62
7
  6
CONTINUOUS
 10
-3.942549554
 20
40.713797703
 30
0.0
 11
1.8480888181
 21
0.7655034529
 31
0.0
 40
0.9998215708
 41
-0.3926359958
 42
0.3926359958
  0
ELLIPSE
  5
832
100
AcDbEntity
  8
RACCORDO
100
AcDbEllipse
 62
7
  6
CONTINUOUS
 10
-3.942549554
 20
5.3709043378
 30
0.0
 11
1.8480888181
 21
-0.7655034529
 31
0.0
 40
0.9998215708
 41
-0.3926359958
 42
0.3926359958
  0
ELLIPSE
  5
833
100
AcDbEntity
  8
RACCORDO
100
AcDbEllipse
 62
7
  6
CONTINUOUS
 10
-22.2419402419
 20
5.3709043378
 30
0.0
 11
1.8480888181
 21
0.7655034529
 31
0.0
 40
0.9998215708
 41
2.7489566578
 42
3.5342286494
  0
ELLIPSE
  5
834
100
AcDbEntity
  8
RACCORDO
100
AcDbEllipse
 62
7
  6
CONTINUOUS
 10
-22.2419402419
 20
40.713797703
 30
0.0
 11
1.8480888181
 21
-0.7655034529
 31
0.0
 40
0.9998215708
 41
2.7489566578
 42
3.5342286494
  0
ELLIPSE
  5
835
100
AcDbEntity
  8
0
100
AcDbEllipse
 62
7
  6
CONTINUOUS
 10
-15.0921687339
 20
-118.8332914156
 30
0.0
 11
-0.4997620717
 21
162.4815824859
 31
0.0
 40
0.000109066
 41
6.365690172
 42
6.3764914216
  0
ELLIPSE
  5
836
100
AcDbEntity
  8
0
100
AcDbEllipse
 62
7
  6
CONTINUOUS
 10
-15.0921687339
 20
164.9179934564
 30
0.0
 11
0.4997620717
 21
162.4815824859
 31
0.0
 40
0.000109066
 41
-3.234898768
 42
-3.2240975184
  0
ELLIPSE
  5
837
100
AcDbEntity
  8
0
100
AcDbEllipse
 62
7
  6
CONTINUOUS
 10
-11.092321062
 20
-118.8332914156
 30
0.0
 11
0.4997620717
 21
162.4815824859
 31
0.0
 40
0.000109066
 41
-0.0933061144
 42
-0.0825123551
  0
ELLIPSE
  5
838
100
AcDbEntity
  8
0
100
AcDbEllipse
 62
7
  6
CONTINUOUS
 10
-11.092321062
 20
164.9179934564
 30
0.0
 11
-0.4997620717
 21
162.4815824859
 31
0.0
 40
0.000109066
 41
3.2241050087
 42
3.234898768
  0
ELLIPSE
  5
839
100
AcDbEntity
  8
RACCORDO
100
AcDbEllipse
 62
7
  6
CONTINUOUS
 10
-4.0647350085
 20
40.6631868306
 30
0.0
 11
1.8480888181
 21
0.7655034529
 31
0.0
 40
0.9998215708
 41
-0.3926359958
 42
0.3926359958
  0
ELLIPSE
  5
83A
100
AcDbEntity
  8
RACCORDO
100
AcDbEllipse
 62
7
  6
CONTINUOUS
 10
-4.0647350085
 20
5.4215152102
 30
0.0
 11
-1.8480888181
 21
0.7655034529
 31
0.0
 40
0.9998215708
 41
2.7489566578
 42
3.5342286494
  0
ELLIPSE
  5
83B
100
AcDbEntity
  8
RACCORDO
100
AcDbEllipse
 62
7
  6
CONTINUOUS
 10
-22.1197547874
 20
5.4215152102
 30
0.0
 11
-1.8480888181
 21
-0.7655034529
 31
0.0
 40
0.9998215708
 41
-0.3926359958
 42
-0.278861721
  0
ELLIPSE
  5
83C
100
AcDbEntity
  8
RACCORDO
100
AcDbEllipse
 62
7
  6
CONTINUOUS
 10
-22.1197547874
 20
5.4215152102
 30
0.0
 11
-1.8480888181
 21
-0.7655034529
 31
0.0
 40
0.9998215708
 41
6.4756880539
 42
6.675821303
  0
ELLIPSE
  5
83D
100
AcDbEntity
  8
RACCORDO
100
AcDbEllipse
 62
7
  6
CONTINUOUS
 10
-22.1197547874
 20
40.6631868306
 30
0.0
 11
1.8480888181
 21
-0.7655034529
 31
0.0
 40
0.9998215708
 41
9.032141965
 42
9.2322752141
  0
ELLIPSE
  5
83E
100
AcDbEntity
  8
RACCORDO
100
AcDbEllipse
 62
7
  6
CONTINUOUS
 10
-22.1197547874
 20
40.6631868306
 30
0.0
 11
1.8480888181
 21
-0.7655034529
 31
0.0
 40
0.9998215708
 41
3.4204543746
 42
3.5342286494
  0
ELLIPSE
  5
83F
100
AcDbEntity
  8
DRAFT
100
AcDbEllipse
 62
7
  6
CONTINUOUS
 10
-15.592244898
 20
43.0868580461
 30
0.0
 11
1.0
 21
0.0
 31
0.0
 40
0.0087268678
 41
1.5707963268
 42
3.1415926536
  0
ELLIPSE
  5
840
100
AcDbEntity
  8
DRAFT
100
AcDbEllipse
 62
7
  6
CONTINUOUS
 10
-15.592244898
 20
2.9978439947
 30
0.0
 11
1.0
 21
0.0
 31
0.0
 40
0.0087268678
 41
-3.1415926536
 42
-1.5707963268
  0
ELLIPSE
  5
841
100
AcDbEntity
  8
DRAFT
100
AcDbEllipse
 62
7
  6
CONTINUOUS
 10
-13.092244898
 20
43.2247425572
 30
0.0
 11
15.0
 21
-0.0
 31
0.0
 40
0.0087268678
 41
-1.7342776332
 42
-1.4073150204
  0
ELLIPSE
  5
842
100
AcDbEntity
  8
DRAFT
100
AcDbEllipse
 62
7
  6
CONTINUOUS
 10
-10.592244898
 20
43.0868580461
 30
0.0
 11
1.0
 21
0.0
 31
0.0
 40
0.0087268678
 41
-0.0
 42
1.5707963268
  0
ELLIPSE
  5
843
100
AcDbEntity
  8
DRAFT
100
AcDbEllipse
 62
7
  6
CONTINUOUS
 10
-13.092244898
 20
2.8599594836
 30
0.0
 11
15.0
 21
-0.0
 31
0.0
 40
0.0087268678
 41
1.4073150204
 42
1.7342776332
  0
ELLIPSE
  5
844
100
AcDbEntity
  8
DRAFT
100
AcDbEllipse
 62
7
  6
CONTINUOUS
 10
-10.592244898
 20
2.9978439947
 30
0.0
 11
1.0
 21
0.0
 31
0.0
 40
0.0087268678
 41
-1.5707963268
 42
-0.0
  0
ELLIPSE
  5
845
100
AcDbEntity
  8
RACCORDO
100
AcDbEllipse
 62
7
  6
CONTINUOUS
 10
-4.5922406671
 20
-0.368973845
 30
0.0
 11
-0.0029088041
 21
0.2886641433
 31
0.0
 40
0.8660144118
 41
-0.0087264124
 42
1.5591610446
  0
ELLIPSE
  5
846
100
AcDbEntity
  8
RACCORDO
100
AcDbEllipse
 62
7
  6
CONTINUOUS
 10
-2.4023149689
 20
44.9736066366
 30
0.0
 11
0.4115211136
 21
-0.2057448864
 31
0.0
 40
0.9998096356
 41
6.7467263073
 42
8.3176749331
  0
ELLIPSE
  5
847
100
AcDbEntity
  8
RACCORDO
100
AcDbEllipse
 62
7
  6
CONTINUOUS
 10
-23.7821748271
 20
1.1110954043
 30
0.0
 11
-0.4115211136
 21
0.2057448864
 31
0.0
 40
0.9998096356
 41
6.7467263073
 42
8.3176749331
  0
ELLIPSE
  5
848
100
AcDbEntity
  8
RACCORDO
100
AcDbEllipse
 62
7
  6
CONTINUOUS
 10
-21.5922491288
 20
-0.368973845
 30
0.0
 11
0.0029088041
 21
0.2886641433
 31
0.0
 40
0.8660144118
 41
-1.5591610446
 42
0.0087264124
  0
ELLIPSE
  5
849
100
AcDbEntity
  8
RACCORDO
100
AcDbEllipse
 62
7
  6
CONTINUOUS
 10
-23.4922406671
 20
-0.368973845
 30
0.0
 11
-0.0029088041
 21
0.2886641433
 31
0.0
 40
0.8660144118
 41
-0.0087264124
 42
1.5591610446
  0
ELLIPSE
  5
84A
100
AcDbEntity
  8
RACCORDO
100
AcDbEllipse
 62
7
  6
CONTINUOUS
 10
-23.7821748271
 20
44.9736066366
 30
0.0
 11
0.4115211136
 21
0.2057448864
 31
0.0
 40
0.9998096356
 41
1.1071030277
 42
2.6780516535
  0
ELLIPSE
  5
84B
100
AcDbEntity
  8
RACCORDO
100
AcDbEllipse
 62
7
  6
CONTINUOUS
 10
-5.5081441788
 20
44.0339831322
 30
0.0
 11
0.5
 21
-0.0
 31
0.0
 40
0.0087268678
 41
0.0174532925
 42
1.5707963268
  0
ELLIPSE
  5
84C
100
AcDbEntity
  8
RACCORDO
100
AcDbEllipse
 62
7
  6
CONTINUOUS
 10
-20.6763456171
 20
44.0339831322
 30
0.0
 11
0.5
 21
0.0
 31
0.0
 40
0.0087268678
 41
1.5707963268
 42
3.1241393611
  0
ELLIPSE
  5
84D
100
AcDbEntity
  8
RACCORDO
100
AcDbEllipse
 62
7
  6
CONTINUOUS
 10
-5.5081441788
 20
2.0507189086
 30
0.0
 11
0.5
 21
-0.0
 31
0.0
 40
0.0087268678
 41
-1.5707963268
 42
-0.0174532925
  0
ELLIPSE
  5
84E
100
AcDbEntity
  8
RACCORDO
100
AcDbEllipse
 62
7
  6
CONTINUOUS
 10
-20.6763456171
 20
2.0507189086
 30
0.0
 11
0.5
 21
0.0
 31
0.0
 40
0.0087268678
 41
-3.1241393611
 42
-1.5707963268
  0
ELLIPSE
  5
84F
100
AcDbEntity
  8
RACCORDO
100
AcDbEllipse
 62
7
  6
CONTINUOUS
 10
-2.4023149689
 20
1.1110954043
 30
0.0
 11
-0.4115211136
 21
-0.2057448864
 31
0.0
 40
0.9998096356
 41
1.1071030277
 42
2.6780516535
  0
ELLIPSE
  5
850
100
AcDbEntity
  8
RACCORDO
100
AcDbEllipse
 62
7
  6
CONTINUOUS
 10
-19.4475142812
 20
43.6252753036
 30
0.0
 11
-0.0
 21
0.5
 31
0.0
 40
0.0058178298
 41
1.5707963268
 42
3.1328660073
  0
ELLIPSE
  5
851
100
AcDbEntity
  8
RACCORDO
100
AcDbEllipse
 62
7
  6
CONTINUOUS
 10
-6.7369755148
 20
43.6252753036
 30
0.0
 11
-0.0
 21
0.5
 31
0.0
 40
0.0058178298
 41
-3.1328660073
 42
-1.5707963268
  0
ELLIPSE
  5
852
100
AcDbEntity
  8
RACCORDO
100
AcDbEllipse
 62
7
  6
CONTINUOUS
 10
-6.7369755148
 20
2.4594267372
 30
0.0
 11
-0.0
 21
0.5
 31
0.0
 40
0.0058178298
 41
-1.5707963268
 42
-0.0087266463
  0
ELLIPSE
  5
853
100
AcDbEntity
  8
RACCORDO
100
AcDbEllipse
 62
7
  6
CONTINUOUS
 10
-19.4475142812
 20
2.4594267372
 30
0.0
 11
0.0
 21
0.5
 31
0.0
 40
0.0058178298
 41
0.0087266463
 42
1.5707963268
  0
ELLIPSE
  5
854
100
AcDbEntity
  8
RACCORDO
100
AcDbEllipse
 62
7
  6
CONTINUOUS
 10
-6.7352301658
 20
42.9993691372
 30
0.0
 11
0.0
 21
0.2
 31
0.0
 40
0.0058178298
 41
-3.1357748894
 42
-1.5707963268
  0
ELLIPSE
  5
855
100
AcDbEntity
  8
RACCORDO
100
AcDbEllipse
 62
7
  6
CONTINUOUS
 10
-5.8492596301
 20
42.9993691372
 30
0.0
 11
0.0
 21
0.2
 31
0.0
 40
0.0058178298
 41
-4.7123889804
 42
-3.1474104178
  0
ELLIPSE
  5
856
100
AcDbEntity
  8
RACCORDO
100
AcDbEllipse
 62
7
  6
CONTINUOUS
 10
-20.3352301658
 20
42.9993691372
 30
0.0
 11
0.0
 21
0.2
 31
0.0
 40
0.0058178298
 41
-3.1357748894
 42
-1.5707963268
  0
ELLIPSE
  5
857
100
AcDbEntity
  8
RACCORDO
100
AcDbEllipse
 62
7
  6
CONTINUOUS
 10
-19.4492596301
 20
42.9993691372
 30
0.0
 11
0.0
 21
0.2
 31
0.0
 40
0.0058178298
 41
-4.7123889804
 42
-3.1474104178
  0
ELLIPSE
  5
858
100
AcDbEntity
  8
RACCORDO
100
AcDbEllipse
 62
7
  6
CONTINUOUS
 10
-19.4492596301
 20
3.0853329036
 30
0.0
 11
-0.0
 21
0.2
 31
0.0
 40
0.0058178298
 41
0.0058177642
 42
1.5707963268
  0
ELLIPSE
  5
859
100
AcDbEntity
  8
RACCORDO
100
AcDbEllipse
 62
7
  6
CONTINUOUS
 10
-20.3352301658
 20
3.0853329036
 30
0.0
 11
0.0
 21
0.2
 31
0.0
 40
0.0058178298
 41
-1.5707963268
 42
-0.0058177642
  0
ELLIPSE
  5
85A
100
AcDbEntity
  8
RACCORDO
100
AcDbEllipse
 62
7
  6
CONTINUOUS
 10
-5.8492596301
 20
3.0853329036
 30
0.0
 11
0.0
 21
0.2
 31
0.0
 40
0.0058178298
 41
0.0058177642
 42
1.5707963268
  0
ELLIPSE
  5
85B
100
AcDbEntity
  8
RACCORDO
100
AcDbEllipse
 62
7
  6
CONTINUOUS
 10
-6.7352301658
 20
3.0853329036
 30
0.0
 11
0.0
 21
0.2
 31
0.0
 40
0.0058178298
 41
-1.5707963268
 42
-0.0058177642
  0
ELLIPSE
  5
85C
100
AcDbEntity
  8
RACCORDO
100
AcDbEllipse
 62
7
  6
CONTINUOUS
 10
-4.5922406671
 20
46.4536758858
 30
0.0
 11
0.0029088041
 21
0.2886641433
 31
0.0
 40
0.8660144118
 41
-4.7007536982
 42
-3.1328662412
  0
ELLIPSE
  5
85D
100
AcDbEntity
  8
RACCORDO
100
AcDbEllipse
 62
7
  6
CONTINUOUS
 10
-2.6922491288
 20
46.4536758858
 30
0.0
 11
-0.0029088041
 21
0.2886641433
 31
0.0
 40
0.8660144118
 41
-3.150319066
 42
-1.582431609
  0
ELLIPSE
  5
85E
100
AcDbEntity
  8
ASSI
100
AcDbEllipse
 62
7
  6
CONTINUOUS
 10
-8.7358786215
 20
46.2987088351
 30
0.0
 11
0.0
 21
0.5
 31
0.0
 40
0.0058178298
 41
0.0058177642
 42
0.149597008
  0
ELLIPSE
  5
85F
100
AcDbEntity
  8
ASSI
100
AcDbEllipse
 62
7
  6
CONTINUOUS
 10
-17.4486111744
 20
46.2987088351
 30
0.0
 11
0.0
 21
0.5
 31
0.0
 40
0.0058178298
 41
-0.149597008
 42
-0.0058177642
  0
ELLIPSE
  5
860
100
AcDbEntity
  8
ASSI
100
AcDbEllipse
 62
7
  6
CONTINUOUS
 10
-17.4486111744
 20
-0.2140067943
 30
0.0
 11
-0.0
 21
0.5
 31
0.0
 40
0.0058178298
 41
-3.1357748894
 42
-2.9919956456
  0
ELLIPSE
  5
861
100
AcDbEntity
  8
ASSI
100
AcDbEllipse
 62
7
  6
CONTINUOUS
 10
-8.7358786215
 20
-0.2140067943
 30
0.0
 11
0.0
 21
0.5
 31
0.0
 40
0.0058178298
 41
-3.2911896616
 42
-3.1474104178
  0
ELLIPSE
  5
862
100
AcDbEntity
  8
DRAFT
100
AcDbEllipse
 62
7
  6
CONTINUOUS
 10
-9.1642749103
 20
45.3762709156
 30
0.0
 11
0.4279699877
 21
0.0
 31
0.0
 40
0.0087268678
 41
3.1415926536
 42
6.277367543
  0
ELLIPSE
  5
863
100
AcDbEntity
  8
RACCORDO
100
AcDbEllipse
 62
7
  6
CONTINUOUS
 10
-23.4922406671
 20
46.4536758858
 30
0.0
 11
0.0029088041
 21
0.2886641433
 31
0.0
 40
0.8660144118
 41
-4.7007536982
 42
-3.1328662411
  0
ELLIPSE
  5
864
100
AcDbEntity
  8
DRAFT
100
AcDbEllipse
 62
7
  6
CONTINUOUS
 10
-17.0202148856
 20
45.3762709156
 30
0.0
 11
0.4279699877
 21
0.0
 31
0.0
 40
0.0087268678
 41
-3.1357748894
 42
0.0
  0
ELLIPSE
  5
865
100
AcDbEntity
  8
DRAFT
100
AcDbEllipse
 62
7
  6
CONTINUOUS
 10
-17.0202148856
 20
0.7084311252
 30
0.0
 11
0.4279699877
 21
-0.0
 31
0.0
 40
0.0087268678
 41
0.0
 42
3.1357748894
  0
ELLIPSE
  5
866
100
AcDbEntity
  8
RACCORDO
100
AcDbEllipse
 62
7
  6
CONTINUOUS
 10
-21.5922491288
 20
46.4536758858
 30
0.0
 11
-0.0029088041
 21
0.2886641433
 31
0.0
 40
0.8660144118
 41
-3.150319066
 42
-1.582431609
  0
ELLIPSE
  5
867
100
AcDbEntity
  8
DRAFT
100
AcDbEllipse
 62
7
  6
CONTINUOUS
 10
-9.1642749103
 20
0.7084311252
 30
0.0
 11
0.4279699877
 21
0.0
 31
0.0
 40
0.0087268678
 41
0.0058177642
 42
3.1415926536
  0
ELLIPSE
  5
868
100
AcDbEntity
  8
RACCORDO
100
AcDbEllipse
 62
7
  6
CONTINUOUS
 10
-2.6922491288
 20
-0.368973845
 30
0.0
 11
0.0029088041
 21
0.2886641433
 31
0.0
 40
0.8660144118
 41
-1.5591610446
 42
0.0087264124
  0
ELLIPSE
  5
869
100
AcDbEntity
  8
RACCORDO
100
AcDbEllipse
 62
7
  6
CONTINUOUS
 10
-11.4096670108
 20
40.6423510204
 30
0.0
 11
-0.3000114235
 21
0.0
 31
0.0
 40
0.9999619231
 41
1.5707963268
 42
2.80137059
  0
ELLIPSE
  5
86A
100
AcDbEntity
  8
RACCORDO
100
AcDbEllipse
 62
7
  6
CONTINUOUS
 10
-2.3791660198
 20
26.4923510204
 30
0.0
 11
-0.3000114235
 21
0.0
 31
0.0
 40
0.9999619231
 41
1.5707963268
 42
3.1415926536
  0
ELLIPSE
  5
86B
100
AcDbEntity
  8
RACCORDO
100
AcDbEllipse
 62
7
  6
CONTINUOUS
 10
-2.3791660198
 20
21.4923510204
 30
0.0
 11
-0.3000114235
 21
0.0
 31
0.0
 40
0.9999619231
 41
1.5707963268
 42
3.1415926536
  0
ELLIPSE
  5
86C
100
AcDbEntity
  8
RACCORDO
100
AcDbEllipse
 62
7
  6
CONTINUOUS
 10
-2.3791660198
 20
16.4923510204
 30
0.0
 11
-0.3000114235
 21
0.0
 31
0.0
 40
0.9999619231
 41
1.5707963268
 42
3.1415926536
  0
ELLIPSE
  5
86D
100
AcDbEntity
  8
RACCORDO
100
AcDbEllipse
 62
7
  6
CONTINUOUS
 10
-2.3791660198
 20
11.4923510204
 30
0.0
 11
-0.3000114235
 21
0.0
 31
0.0
 40
0.9999619231
 41
1.5707963268
 42
3.1415926536
  0
ELLIPSE
  5
86E
100
AcDbEntity
  8
DRAFT
100
AcDbEllipse
 62
7
  6
CONTINUOUS
 10
-3.250792276
 20
24.0423510204
 30
0.0
 11
0.0
 21
2.15
 31
0.0
 40
0.0087268678
 41
3.1415926536
 42
6.2831853072
  0
ELLIPSE
  5
86F
100
AcDbEntity
  8
DRAFT
100
AcDbEllipse
 62
7
  6
CONTINUOUS
 10
-3.250792276
 20
9.0423510204
 30
0.0
 11
0.0
 21
2.15
 31
0.0
 40
0.0087268678
 41
3.1415926536
 42
6.2831853072
  0
ELLIPSE
  5
870
100
AcDbEntity
  8
RACCORDO
100
AcDbEllipse
 62
7
  6
CONTINUOUS
 10
-9.3791660198
 20
3.7292721422
 30
0.0
 11
-0.2121481893
 21
0.2121481893
 31
0.0
 40
0.9999238505
 41
2.3562325664
 42
3.9269527408
  0
ELLIPSE
  5
871
100
AcDbEntity
  8
RACCORDO
100
AcDbEllipse
 62
7
  6
CONTINUOUS
 10
-22.4834377435
 20
4.4292987971
 30
0.0
 11
-0.3827005044
 21
-0.9239207481
 31
0.0
 40
0.9999553905
 41
-0.3926833098
 42
0.3926833098
  0
ELLIPSE
  5
872
100
AcDbEntity
  8
RACCORDO
100
AcDbEllipse
 62
7
  6
CONTINUOUS
 10
-23.1052971213
 20
5.0511581749
 30
0.0
 11
-0.9239207481
 21
-0.3827005044
 31
0.0
 40
0.9999553905
 41
-0.3926833098
 42
0.3926833098
  0
ELLIPSE
  5
873
100
AcDbEntity
  8
RACCORDO
100
AcDbEllipse
 62
7
  6
CONTINUOUS
 10
-23.1052971213
 20
41.0335438659
 30
0.0
 11
-0.9239207481
 21
0.3827005044
 31
0.0
 40
0.9999553905
 41
-0.3926833098
 42
0.3926833098
  0
ELLIPSE
  5
874
100
AcDbEntity
  8
RACCORDO
100
AcDbEllipse
 62
7
  6
CONTINUOUS
 10
-22.4834377435
 20
41.6554032437
 30
0.0
 11
0.3827005044
 21
-0.9239207481
 31
0.0
 40
0.9999553905
 41
2.7489093438
 42
3.5342759634
  0
ELLIPSE
  5
875
100
AcDbEntity
  8
RACCORDO
100
AcDbEllipse
 62
7
  6
CONTINUOUS
 10
-9.3791660198
 20
42.3554298986
 30
0.0
 11
0.2121481893
 21
0.2121481893
 31
0.0
 40
0.9999238505
 41
-0.7853600872
 42
0.7853600872
  0
ELLIPSE
  5
876
100
AcDbEntity
  8
RACCORDO
100
AcDbEllipse
 62
7
  6
CONTINUOUS
 10
-3.7010520524
 20
40.2554032437
 30
0.0
 11
0.3827005044
 21
0.9239207481
 31
0.0
 40
0.9999553905
 41
-0.3926833098
 42
0.3926833098
  0
ELLIPSE
  5
877
100
AcDbEntity
  8
RACCORDO
100
AcDbEllipse
 62
7
  6
CONTINUOUS
 10
-3.0791926747
 20
39.6335438659
 30
0.0
 11
-0.9239207481
 21
-0.3827005044
 31
0.0
 40
0.9999553905
 41
2.7489093438
 42
3.5342759634
  0
ELLIPSE
  5
878
100
AcDbEntity
  8
DRAFT
100
AcDbEllipse
 62
7
  6
CONTINUOUS
 10
-3.250792276
 20
14.0423510204
 30
0.0
 11
0.0
 21
2.15
 31
0.0
 40
0.0087268678
 41
3.1415926536
 42
6.2831853072
  0
ELLIPSE
  5
879
100
AcDbEntity
  8
RACCORDO
100
AcDbEllipse
 62
7
  6
CONTINUOUS
 10
-2.3791660198
 20
21.5923510204
 30
0.0
 11
0.3000114235
 21
-0.0
 31
0.0
 40
0.9999619231
 41
0.0
 42
1.5707963268
  0
ELLIPSE
  5
87A
100
AcDbEntity
  8
DRAFT
100
AcDbEllipse
 62
7
  6
CONTINUOUS
 10
-3.250792276
 20
19.0423510204
 30
0.0
 11
0.0
 21
2.15
 31
0.0
 40
0.0087268678
 41
3.1415926536
 42
6.2831853072
  0
ELLIPSE
  5
87B
100
AcDbEntity
  8
RACCORDO
100
AcDbEllipse
 62
7
  6
CONTINUOUS
 10
-2.3791660198
 20
16.5923510204
 30
0.0
 11
0.3000114235
 21
-0.0
 31
0.0
 40
0.9999619231
 41
0.0
 42
1.5707963268
  0
ELLIPSE
  5
87C
100
AcDbEntity
  8
RACCORDO
100
AcDbEllipse
 62
7
  6
CONTINUOUS
 10
-2.3791660198
 20
11.5923510204
 30
0.0
 11
0.3000114235
 21
-0.0
 31
0.0
 40
0.9999619231
 41
0.0
 42
1.5707963268
  0
ELLIPSE
  5
87D
100
AcDbEntity
  8
RACCORDO
100
AcDbEllipse
 62
7
  6
CONTINUOUS
 10
-2.3791660198
 20
6.5923510204
 30
0.0
 11
0.3000114235
 21
-0.0
 31
0.0
 40
0.9999619231
 41
0.0
 42
1.5707963268
  0
ELLIPSE
  5
87E
100
AcDbEntity
  8
RACCORDO
100
AcDbEllipse
 62
7
  6
CONTINUOUS
 10
-3.0791926747
 20
6.4511581749
 30
0.0
 11
0.9239207481
 21
-0.3827005044
 31
0.0
 40
0.9999553905
 41
-0.3926833098
 42
0.3926833098
  0
ELLIPSE
  5
87F
100
AcDbEntity
  8
RACCORDO
100
AcDbEllipse
 62
7
  6
CONTINUOUS
 10
-3.7010520524
 20
5.8292987971
 30
0.0
 11
0.3827005044
 21
-0.9239207481
 31
0.0
 40
0.9999553905
 41
-0.3926833098
 42
0.3926833098
  0
ELLIPSE
  5
880
100
AcDbEntity
  8
RACCORDO
100
AcDbEllipse
 62
7
  6
CONTINUOUS
 10
-8.7791431728
 20
4.5292492952
 30
0.0
 11
0.2121481893
 21
-0.2121481893
 31
0.0
 40
0.9999238505
 41
2.3562325664
 42
3.9269527408
  0
ELLIPSE
  5
881
100
AcDbEntity
  8
RACCORDO
100
AcDbEllipse
 62
7
  6
CONTINUOUS
 10
-14.7748227852
 20
40.6423510204
 30
0.0
 11
-0.3000114235
 21
0.0
 31
0.0
 40
0.9999619231
 41
0.3402220636
 42
1.5707963268
  0
ELLIPSE
  5
882
100
AcDbEntity
  8
RACCORDO
100
AcDbEllipse
 62
7
  6
CONTINUOUS
 10
-14.6962379287
 20
5.4423510204
 30
0.0
 11
0.3000114235
 21
-0.0
 31
0.0
 40
0.9999619231
 41
1.5707963268
 42
2.80137059
  0
ELLIPSE
  5
883
100
AcDbEntity
  8
RACCORDO
100
AcDbEllipse
 62
7
  6
CONTINUOUS
 10
-11.4882518672
 20
5.4423510204
 30
0.0
 11
0.3000114235
 21
-0.0
 31
0.0
 40
0.9999619231
 41
0.3402220636
 42
1.5707963268
  0
ELLIPSE
  5
884
100
AcDbEntity
  8
ASSI
100
AcDbEllipse
 62
7
  6
CONTINUOUS
 10
-9.3791660198
 20
3.7292721422
 30
0.0
 11
-0.2121481893
 21
0.2121481893
 31
0.0
 40
0.9999238505
 41
2.3562325664
 42
3.9269527408
  0
ELLIPSE
  5
885
100
AcDbEntity
  8
ASSI
100
AcDbEllipse
 62
7
  6
CONTINUOUS
 10
-22.4834377435
 20
4.4292987971
 30
0.0
 11
-0.3827005044
 21
-0.9239207481
 31
0.0
 40
0.9999553905
 41
-0.3926833098
 42
0.3926833098
  0
ELLIPSE
  5
886
100
AcDbEntity
  8
ASSI
100
AcDbEllipse
 62
7
  6
CONTINUOUS
 10
-23.1052971213
 20
5.0511581749
 30
0.0
 11
-0.9239207481
 21
-0.3827005044
 31
0.0
 40
0.9999553905
 41
-0.3926833098
 42
0.3926833098
  0
ELLIPSE
  5
887
100
AcDbEntity
  8
ASSI
100
AcDbEllipse
 62
7
  6
CONTINUOUS
 10
-23.1052971213
 20
41.0335438659
 30
0.0
 11
-0.9239207481
 21
0.3827005044
 31
0.0
 40
0.9999553905
 41
-0.3926833098
 42
0.3926833098
  0
ELLIPSE
  5
888
100
AcDbEntity
  8
ASSI
100
AcDbEllipse
 62
7
  6
CONTINUOUS
 10
-22.4834377435
 20
41.6554032437
 30
0.0
 11
0.3827005044
 21
-0.9239207481
 31
0.0
 40
0.9999553905
 41
2.7489093438
 42
3.5342759634
  0
ELLIPSE
  5
889
100
AcDbEntity
  8
ASSI
100
AcDbEllipse
 62
7
  6
CONTINUOUS
 10
-9.3791660198
 20
42.3554298986
 30
0.0
 11
0.2121481893
 21
0.2121481893
 31
0.0
 40
0.9999238505
 41
-0.7853600872
 42
0.7853600872
  0
ELLIPSE
  5
88A
100
AcDbEntity
  8
ASSI
100
AcDbEllipse
 62
7
  6
CONTINUOUS
 10
-3.7010520524
 20
40.2554032437
 30
0.0
 11
0.3827005044
 21
0.9239207481
 31
0.0
 40
0.9999553905
 41
-0.3926833098
 42
0.3926833098
  0
ELLIPSE
  5
88B
100
AcDbEntity
  8
ASSI
100
AcDbEllipse
 62
7
  6
CONTINUOUS
 10
-3.0791926747
 20
39.6335438659
 30
0.0
 11
-0.9239207481
 21
-0.3827005044
 31
0.0
 40
0.9999553905
 41
2.7489093438
 42
3.5342759634
  0
ELLIPSE
  5
88C
100
AcDbEntity
  8
ASSI
100
AcDbEllipse
 62
7
  6
CONTINUOUS
 10
-2.3791660198
 20
21.5923510204
 30
0.0
 11
0.3000114235
 21
-0.0
 31
0.0
 40
0.9999619231
 41
0.0
 42
1.5707963268
  0
ELLIPSE
  5
88D
100
AcDbEntity
  8
ASSI
100
AcDbEllipse
 62
7
  6
CONTINUOUS
 10
-2.3791660198
 20
16.5923510204
 30
0.0
 11
0.3000114235
 21
-0.0
 31
0.0
 40
0.9999619231
 41
0.0
 42
1.5707963268
  0
ELLIPSE
  5
88E
100
AcDbEntity
  8
ASSI
100
AcDbEllipse
 62
7
  6
CONTINUOUS
 10
-2.3791660198
 20
11.5923510204
 30
0.0
 11
0.3000114235
 21
-0.0
 31
0.0
 40
0.9999619231
 41
0.0
 42
1.5707963268
  0
ELLIPSE
  5
88F
100
AcDbEntity
  8
ASSI
100
AcDbEllipse
 62
7
  6
CONTINUOUS
 10
-2.3791660198
 20
6.5923510204
 30
0.0
 11
0.3000114235
 21
-0.0
 31
0.0
 40
0.9999619231
 41
0.0
 42
1.5707963268
  0
ELLIPSE
  5
890
100
AcDbEntity
  8
ASSI
100
AcDbEllipse
 62
7
  6
CONTINUOUS
 10
-3.0791926747
 20
6.4511581749
 30
0.0
 11
0.9239207481
 21
-0.3827005044
 31
0.0
 40
0.9999553905
 41
-0.3926833098
 42
0.3926833098
  0
ELLIPSE
  5
891
100
AcDbEntity
  8
ASSI
100
AcDbEllipse
 62
7
  6
CONTINUOUS
 10
-3.7010520524
 20
5.8292987971
 30
0.0
 11
0.3827005044
 21
-0.9239207481
 31
0.0
 40
0.9999553905
 41
-0.3926833098
 42
0.3926833098
  0
ELLIPSE
  5
892
100
AcDbEntity
  8
ASSI
100
AcDbEllipse
 62
7
  6
CONTINUOUS
 10
-14.7748227852
 20
40.6423510204
 30
0.0
 11
-0.3000114235
 21
0.0
 31
0.0
 40
0.9999619231
 41
0.3402220636
 42
1.5707963268
  0
ELLIPSE
  5
893
100
AcDbEntity
  8
ASSI
100
AcDbEllipse
 62
7
  6
CONTINUOUS
 10
-14.6962379287
 20
5.4423510204
 30
0.0
 11
0.3000114235
 21
-0.0
 31
0.0
 40
0.9999619231
 41
1.5707963268
 42
2.80137059
  0
ELLIPSE
  5
894
100
AcDbEntity
  8
ASSI
100
AcDbEllipse
 62
7
  6
CONTINUOUS
 10
-11.4882518672
 20
5.4423510204
 30
0.0
 11
0.3000114235
 21
-0.0
 31
0.0
 40
0.9999619231
 41
0.3402220636
 42
1.5707963268
  0
ELLIPSE
  5
895
100
AcDbEntity
  8
ASSI
100
AcDbEllipse
 62
7
  6
CONTINUOUS
 10
-11.4096670108
 20
40.6423510204
 30
0.0
 11
-0.3000114235
 21
0.0
 31
0.0
 40
0.9999619231
 41
1.5707963268
 42
2.80137059
  0
ELLIPSE
  5
896
100
AcDbEntity
  8
ASSI
100
AcDbEllipse
 62
7
  6
CONTINUOUS
 10
-2.3791660198
 20
26.4923510204
 30
0.0
 11
-0.3000114235
 21
0.0
 31
0.0
 40
0.9999619231
 41
1.5707963268
 42
3.1415926536
  0
ELLIPSE
  5
897
100
AcDbEntity
  8
ASSI
100
AcDbEllipse
 62
7
  6
CONTINUOUS
 10
-2.3791660198
 20
21.4923510204
 30
0.0
 11
-0.3000114235
 21
0.0
 31
0.0
 40
0.9999619231
 41
1.5707963268
 42
3.1415926536
  0
ELLIPSE
  5
898
100
AcDbEntity
  8
ASSI
100
AcDbEllipse
 62
7
  6
CONTINUOUS
 10
-2.3791660198
 20
16.4923510204
 30
0.0
 11
-0.3000114235
 21
0.0
 31
0.0
 40
0.9999619231
 41
1.5707963268
 42
3.1415926536
  0
ELLIPSE
  5
899
100
AcDbEntity
  8
ASSI
100
AcDbEllipse
 62
7
  6
CONTINUOUS
 10
-2.3791660198
 20
11.4923510204
 30
0.0
 11
-0.3000114235
 21
0.0
 31
0.0
 40
0.9999619231
 41
1.5707963268
 42
3.1415926536
  0
ELLIPSE
  5
89A
100
AcDbEntity
  8
ASSI
100
AcDbEllipse
 62
7
  6
CONTINUOUS
 10
-3.250792276
 20
24.0423510204
 30
0.0
 11
0.0
 21
2.15
 31
0.0
 40
0.0087268678
 41
3.1415926536
 42
6.2831853072
  0
ELLIPSE
  5
89B
100
AcDbEntity
  8
ASSI
100
AcDbEllipse
 62
7
  6
CONTINUOUS
 10
-3.250792276
 20
9.0423510204
 30
0.0
 11
0.0
 21
2.15
 31
0.0
 40
0.0087268678
 41
3.1415926536
 42
6.2831853072
  0
ELLIPSE
  5
89C
100
AcDbEntity
  8
ASSI
100
AcDbEllipse
 62
7
  6
CONTINUOUS
 10
-3.250792276
 20
14.0423510204
 30
0.0
 11
0.0
 21
2.15
 31
0.0
 40
0.0087268678
 41
3.1415926536
 42
6.2831853072
  0
ELLIPSE
  5
89D
100
AcDbEntity
  8
ASSI
100
AcDbEllipse
 62
7
  6
CONTINUOUS
 10
-3.250792276
 20
19.0423510204
 30
0.0
 11
0.0
 21
2.15
 31
0.0
 40
0.0087268678
 41
3.1415926536
 42
6.2831853072
  0
ELLIPSE
  5
89E
100
AcDbEntity
  8
ASSI
100
AcDbEllipse
 62
7
  6
CONTINUOUS
 10
-8.7791431728
 20
4.5292492952
 30
0.0
 11
0.2121481893
 21
-0.2121481893
 31
0.0
 40
0.9999238505
 41
2.3562325664
 42
3.9269527408
  0
ENDSEC
  0
SECTION
  2
OBJECTS
  0
DICTIONARY
  5
C
100
AcDbDictionary
280
0
281
1
  3
ACAD_GROUP
350
D
  3
ACAD_MLINESTYLE
350
17
  3
ACAD_LAYOUT
350
1A
  3
ACAD_PLOTSETTINGS
350
19
  3
ACAD_PLOTSTYLENAME
350
E
  0
DICTIONARY
  5
D
102
{ACAD_REACTORS
330
C
102
}
100
AcDbDictionary
280
0
281
1
  0
ACDBDICTIONARYWDFLT
  5
E
102
{ACAD_REACTORS
330
C
102
}
100
AcDbDictionary
281
1
  3
Normal
350
F
100
AcDbDictionaryWithDefault
340
F
  0
DICTIONARY
  5
17
102
{ACAD_REACTORS
330
C
102
}
100
AcDbDictionary
280
0
281
1
  3
Standard
350
18
  0
DICTIONARY
  5
19
102
{ACAD_REACTORS
330
C
102
}
100
AcDbDictionary
281
1
  0
DICTIONARY
  5
1A
102
{ACAD_REACTORS
330
C
102
}
100
AcDbDictionary
281
1
  3
Model
350
89F
  3
Layout1
350
8A0
  0
ACDBPLACEHOLDER
  5
F
102
{ACAD_REACTORS
330
E
102
}
  0
MLINESTYLE
  5
18
102
{ACAD_REACTORS
330
17
102
}
100
AcDbMlineStyle
  2
STANDARD
 70
0
  3

 62
256
 51
90.0
 52
90.0
 71
2
 49
0.5
 62
256
  6
BYLAYER
 49
-0.5
 62
256
  6
BYLAYER
  0
LAYOUT
  5
89F
102
{ACAD_REACTORS
330
1A
102
}
100
AcDbPlotSettings
  1

  2
none_device
  4
ISO_A4_(297.00_x_210.00_MM)
  6

 40
0.0
 41
0.0
 42
0.0
 43
0.0
 44
297.0
 45
210.0
 46
0.0
 47
0.0
 48
0.0
 49
0.0
140
0.0
141
0.0
142
1.0
143
1.0
 70
1024
 72
1
 73
0
 74
0
  7

 75
0
147
1.0
148
0.0
149
0.0
100
AcDbLayout
  1
Model
 70
0
 71
0
 10
0.0
 20
0.0
 11
297.0
 21
210.0
 12
0.0
 22
0.0
 32
0.0
 14
0.0
 24
0.0
 34
0.0
 15
0.0
 25
0.0
 35
0.0
146
0.0
 13
0.0
 23
0.0
 33
0.0
 16
1.0
 26
0.0
 36
0.0
 17
0.0
 27
1.0
 37
0.0
 76
0
330
21F
345
0
346
0
  0
LAYOUT
  5
8A0
102
{ACAD_REACTORS
330
1A
102
}
100
AcDbPlotSettings
  1

  2
none_device
  4
ISO_A4_(297.00_x_210.00_MM)
  6

 40
0.0
 41
0.0
 42
0.0
 43
0.0
 44
297.0
 45
210.0
 46
0.0
 47
0.0
 48
0.0
 49
0.0
140
0.0
141
0.0
142
1.0
143
1.0
 70
0
 72
1
 73
0
 74
0
  7

 75
0
147
1.0
148
0.0
149
0.0
100
AcDbLayout
  1
Layout1
 70
0
 71
1
 10
0.0
 20
0.0
 11
297.0
 21
210.0
 12
0.0
 22
0.0
 32
0.0
 14
0.0
 24
0.0
 34
0.0
 15
0.0
 25
0.0
 35
0.0
146
0.0
 13
0.0
 23
0.0
 33
0.0
 16
1.0
 26
0.0
 36
0.0
 17
0.0
 27
1.0
 37
0.0
 76
0
330
220
345
0
346
0
  0
ENDSEC
  0
EOF
