  0
SECTION
  2
HEADER
  9
$ACADVER
  1
AC1015
  9
$DWGCODEPAGE
  3
ANSI_1252
  9
$EXTMAX
 10
297.0
 20
210.0
 30
0.0
  9
$EXTMIN
 10
0.0
 20
0.0
 30
0.0
  9
$LIMMIN
 10
0.0
 20
0.0
  9
$LIMMAX
 10
297.0
 20
210.0
  9
$VIEWCTR
 10
148.5
 20
105.0
  9
$VIEWSIZE
 40
210.0
  9
$CLAYER
  8
0
  9
$LTSCALE
 40
16.335
  9
$CELTYPE
  6
BYLAYER
  9
$DIMSCALE
 40
1.0
  9
$DIMASZ
 40
3.0
  9
$DIMEXO
 40
0.5
  9
$DIMDLI
 40
11.286
  9
$DIMEXE
 40
1.5
  9
$DIMCEN
 40
2.673
  9
$DIMLFAC
 40
1.0
  9
$DIMBLK
  1
_FILLED
  9
$DIMTXT
 40
3.0
  9
$DIMTOL
 70
1
  9
$DIMLIM
 70
0
  9
$DIMTFAC
 40
1.0
  9
$DIMTP
 40
0.01
  9
$DIMTM
 40
0.01
  9
$DIMGAP
 40
0.625
  9
$DIMDSEP
 70
44
  9
$PDMODE
 70
3
  9
$PDSIZE
 40
3.0
  9
$HANDSEED
  5
762
  9
$TILEMODE
 70
1
  9
$MEASUREMENT
 70
1
  9
$INSUNITS
 70
4
  0
ENDSEC
  0
SECTION
  2
CLASSES
  0
CLASS
  1
ACDBDICTIONARYWDFLT
  2
AcDbDictionaryWithDefault
  3
AutoCAD 2000
 90
0
280
0
281
0
  0
CLASS
  1
ACDBPLACEHOLDER
  2
AcDbPlaceHolder
  3
AutoCAD 2000
 90
0
280
0
281
0
  0
CLASS
  1
LAYOUT
  2
AcDbLayout
  3
AutoCAD 2000
 90
0
280
0
281
0
  0
ENDSEC
  0
SECTION
  2
TABLES
  0
TABLE
  2
VPORT
  5
8
100
AcDbSymbolTable
 70
2
  0
VPORT
  5
1F4
100
AcDbSymbolTableRecord
100
AcDbViewportTableRecord
  2
*ACTIVE
 70
0
 10
0.0
 20
0.0
 11
1.0
 21
1.0
 12
148.5
 22
105.0
 13
0.0
 23
0.0
 14
1.0
 24
1.0
 15
0.0
 25
0.0
 16
0.0
 26
0.0
 36
1.0
 17
0.0
 27
0.0
 37
0.0
 40
210.0
 41
1.4142857143
 42
50.0
 43
0.0
 44
0.0
 50
0.0
 51
0.0
 71
0
 72
100
 73
1
 74
1
 75
0
 76
0
 77
0
 78
0
  0
ENDTAB
  0
TABLE
  2
LTYPE
  5
5
100
AcDbSymbolTable
 70
6
  0
LTYPE
  5
14
100
AcDbSymbolTableRecord
100
AcDbLinetypeTableRecord
  2
BYBLOCK
 70
0
  3

 72
65
 73
0
 40
0.0
  0
LTYPE
  5
15
100
AcDbSymbolTableRecord
100
AcDbLinetypeTableRecord
  2
BYLAYER
 70
0
  3

 72
65
 73
0
 40
0.0
  0
LTYPE
  5
16
100
AcDbSymbolTableRecord
100
AcDbLinetypeTableRecord
  2
CONTINUOUS
 70
64
  3
Solid line
 72
65
 73
0
 40
0.0
  0
LTYPE
  5
1F5
100
AcDbSymbolTableRecord
100
AcDbLinetypeTableRecord
  2
CENTER
 70
64
  3
____ _ ____ _ ____ _ ____ _ ____ _ ____ _ ____
 72
65
 73
4
 40
0.6
 49
0.375
 74
0
 49
-0.075
 74
0
 49
0.075
 74
0
 49
-0.075
 74
0
  0
LTYPE
  5
1F6
100
AcDbSymbolTableRecord
100
AcDbLinetypeTableRecord
  2
HIDDEN
 70
64
  3
- - - - - - - - - - - - - - - - - - - -
 72
65
 73
2
 40
0.2
 49
0.1
 74
0
 49
-0.1
 74
0
  0
LTYPE
  5
1F7
100
AcDbSymbolTableRecord
100
AcDbLinetypeTableRecord
  2
PHANTOM
 70
64
  3
_____ _ _ _____ _ _ _____ _ _ _____
 72
65
 73
6
 40
0.8
 49
0.45
 74
0
 49
-0.05
 74
0
 49
0.1
 74
0
 49
-0.05
 74
0
 49
0.1
 74
0
 49
-0.05
 74
0
  0
LTYPE
  5
1F8
100
AcDbSymbolTableRecord
100
AcDbLinetypeTableRecord
  2
DOT
 70
64
  3
. . . . . . . . . . . . . . . . . . . .
 72
65
 73
2
 40
0.2
 49
0.1
 74
0
 49
-0.1
 74
0
  0
LTYPE
  5
1F9
100
AcDbSymbolTableRecord
100
AcDbLinetypeTableRecord
  2
DASHED
 70
64
  3
- - - - - - - - - - - - - - - - - - - -
 72
65
 73
2
 40
0.2
 49
0.1
 74
0
 49
-0.1
 74
0
  0
ENDTAB
  0
TABLE
  2
LAYER
  5
2
100
AcDbSymbolTable
 70
36
  0
LAYER
  5
10
100
AcDbSymbolTableRecord
100
AcDbLayerTableRecord
  2
0
 70
0
 62
7
  6
CONTINUOUS
370
-3
390
F
  0
LAYER
  5
1FA
100
AcDbSymbolTableRecord
100
AcDbLayerTableRecord
  2
DEFAULT_1
 70
0
 62
7
  6
CENTER
370
-3
390
F
  0
LAYER
  5
1FB
100
AcDbSymbolTableRecord
100
AcDbLayerTableRecord
  2
DEFAULT_2
 70
0
 62
7
  6
HIDDEN
370
-3
390
F
  0
LAYER
  5
1FC
100
AcDbSymbolTableRecord
100
AcDbLayerTableRecord
  2
DEFAULT_3
 70
0
 62
7
  6
PHANTOM
370
-3
390
F
  0
LAYER
  5
1FD
100
AcDbSymbolTableRecord
100
AcDbLayerTableRecord
  2
ASSI
 70
0
 62
7
  6
CONTINUOUS
370
-3
390
F
  0
LAYER
  5
1FE
100
AcDbSymbolTableRecord
100
AcDbLayerTableRecord
  2
COLOR4
 70
0
 62
7
  6
CONTINUOUS
370
-3
390
F
  0
LAYER
  5
1FF
100
AcDbSymbolTableRecord
100
AcDbLayerTableRecord
  2
COLORE_MATERIALE
 70
0
 62
7
  6
CONTINUOUS
370
-3
390
F
  0
LAYER
  5
200
100
AcDbSymbolTableRecord
100
AcDbLayerTableRecord
  2
COORDINATE
 70
0
 62
7
  6
CONTINUOUS
370
-3
390
F
  0
LAYER
  5
201
100
AcDbSymbolTableRecord
100
AcDbLayerTableRecord
  2
COORD_ORIGINE
 70
0
 62
7
  6
CONTINUOUS
370
-3
390
F
  0
LAYER
  5
202
100
AcDbSymbolTableRecord
100
AcDbLayerTableRecord
  2
COPY
 70
0
 62
7
  6
CONTINUOUS
370
-3
390
F
  0
LAYER
  5
203
100
AcDbSymbolTableRecord
100
AcDbLayerTableRecord
  2
COPY_PUBLISH
 70
0
 62
7
  6
CONTINUOUS
370
-3
390
F
  0
LAYER
  5
204
100
AcDbSymbolTableRecord
100
AcDbLayerTableRecord
  2
COSMETICI
 70
0
 62
7
  6
CONTINUOUS
370
-3
390
F
  0
LAYER
  5
205
100
AcDbSymbolTableRecord
100
AcDbLayerTableRecord
  2
CURVE
 70
0
 62
7
  6
CONTINUOUS
370
-3
390
F
  0
LAYER
  5
206
100
AcDbSymbolTableRecord
100
AcDbLayerTableRecord
  2
DRAFT
 70
0
 62
7
  6
CONTINUOUS
370
-3
390
F
  0
LAYER
  5
207
100
AcDbSymbolTableRecord
100
AcDbLayerTableRecord
  2
IGES
 70
0
 62
7
  6
CONTINUOUS
370
-3
390
F
  0
LAYER
  5
208
100
AcDbSymbolTableRecord
100
AcDbLayerTableRecord
  2
IMPORT_IGES
 70
0
 62
7
  6
CONTINUOUS
370
-3
390
F
  0
LAYER
  5
209
100
AcDbSymbolTableRecord
100
AcDbLayerTableRecord
  2
INTFCLR_137
 70
0
 62
7
  6
CONTINUOUS
370
-3
390
F
  0
LAYER
  5
20A
100
AcDbSymbolTableRecord
100
AcDbLayerTableRecord
  2
INTFCLR_2
 70
0
 62
7
  6
CONTINUOUS
370
-3
390
F
  0
LAYER
  5
20B
100
AcDbSymbolTableRecord
100
AcDbLayerTableRecord
  2
INTFCLR_4627
 70
0
 62
7
  6
CONTINUOUS
370
-3
390
F
  0
LAYER
  5
20C
100
AcDbSymbolTableRecord
100
AcDbLayerTableRecord
  2
INTFCLR_6275
 70
0
 62
7
  6
CONTINUOUS
370
-3
390
F
  0
LAYER
  5
20D
100
AcDbSymbolTableRecord
100
AcDbLayerTableRecord
  2
INTF_1
 70
0
 62
7
  6
CONTINUOUS
370
-3
390
F
  0
LAYER
  5
20E
100
AcDbSymbolTableRecord
100
AcDbLayerTableRecord
  2
INTF_12
 70
0
 62
7
  6
CONTINUOUS
370
-3
390
F
  0
LAYER
  5
20F
100
AcDbSymbolTableRecord
100
AcDbLayerTableRecord
  2
INTF_6
 70
0
 62
7
  6
CONTINUOUS
370
-3
390
F
  0
LAYER
  5
210
100
AcDbSymbolTableRecord
100
AcDbLayerTableRecord
  2
NOTE
 70
0
 62
7
  6
CONTINUOUS
370
-3
390
F
  0
LAYER
  5
211
100
AcDbSymbolTableRecord
100
AcDbLayerTableRecord
  2
PIANI
 70
0
 62
7
  6
CONTINUOUS
370
-3
390
F
  0
LAYER
  5
212
100
AcDbSymbolTableRecord
100
AcDbLayerTableRecord
  2
PIANI_ORIGINE
 70
0
 62
7
  6
CONTINUOUS
370
-3
390
F
  0
LAYER
  5
213
100
AcDbSymbolTableRecord
100
AcDbLayerTableRecord
  2
PIANI_RIFERIMENTO
 70
0
 62
7
  6
CONTINUOUS
370
-3
390
F
  0
LAYER
  5
214
100
AcDbSymbolTableRecord
100
AcDbLayerTableRecord
  2
PIANI_SFORMO
 70
0
 62
7
  6
CONTINUOUS
370
-3
390
F
  0
LAYER
  5
215
100
AcDbSymbolTableRecord
100
AcDbLayerTableRecord
  2
PUNTI
 70
0
 62
7
  6
CONTINUOUS
370
-3
390
F
  0
LAYER
  5
216
100
AcDbSymbolTableRecord
100
AcDbLayerTableRecord
  2
RACCORDO
 70
0
 62
7
  6
CONTINUOUS
370
-3
390
F
  0
LAYER
  5
217
100
AcDbSymbolTableRecord
100
AcDbLayerTableRecord
  2
SIMBOLI
 70
0
 62
7
  6
CONTINUOUS
370
-3
390
F
  0
LAYER
  5
218
100
AcDbSymbolTableRecord
100
AcDbLayerTableRecord
  2
SMUSSO
 70
0
 62
7
  6
CONTINUOUS
370
-3
390
F
  0
LAYER
  5
219
100
AcDbSymbolTableRecord
100
AcDbLayerTableRecord
  2
SNAPLINE
 70
0
 62
7
  6
CONTINUOUS
370
-3
390
F
  0
LAYER
  5
21A
100
AcDbSymbolTableRecord
100
AcDbLayerTableRecord
  2
SUPERFICI
 70
0
 62
7
  6
CONTINUOUS
370
-3
390
F
  0
LAYER
  5
21B
100
AcDbSymbolTableRecord
100
AcDbLayerTableRecord
  2
TRASH
 70
0
 62
7
  6
CONTINUOUS
370
-3
390
F
  0
LAYER
  5
21C
100
AcDbSymbolTableRecord
100
AcDbLayerTableRecord
  2
XSEC_DATUMS
 70
0
 62
7
  6
CONTINUOUS
370
-3
390
F
  0
ENDTAB
  0
TABLE
  2
STYLE
  5
3
100
AcDbSymbolTable
 70
1
  0
STYLE
  5
11
100
AcDbSymbolTableRecord
100
AcDbTextStyleTableRecord
  2
STANDARD
 70
0
 40
0.0
 41
0.8
 50
0.0
 71
0
 42
0.2
  3
txt
  4

  0
STYLE
  5
21D
100
AcDbSymbolTableRecord
100
AcDbTextStyleTableRecord
  2
TEXTSTYLE_1
 70
0
 40
0.0
 41
0.8
 50
0.0
 71
0
 42
0.2
  3
gdt
  4

  0
ENDTAB
  0
TABLE
  2
VIEW
  5
6
100
AcDbSymbolTable
 70
0
  0
ENDTAB
  0
TABLE
  2
UCS
  5
7
100
AcDbSymbolTable
 70
0
  0
ENDTAB
  0
TABLE
  2
APPID
  5
9
100
AcDbSymbolTable
 70
1
  0
APPID
  5
21E
100
AcDbSymbolTableRecord
100
AcDbRegAppTableRecord
  2
ACAD
 70
0
  0
ENDTAB
  0
TABLE
  2
BLOCK_RECORD
  5
1
100
AcDbSymbolTable
 70
0
  0
BLOCK_RECORD
  5
21F
100
AcDbSymbolTableRecord
100
AcDbBlockTableRecord
  2
*Model_Space
  0
BLOCK_RECORD
  5
220
100
AcDbSymbolTableRecord
100
AcDbBlockTableRecord
  2
*Paper_Space
  0
ENDTAB
  0
TABLE
  2
DIMSTYLE
  5
A
100
AcDbSymbolTable
 70
1
100
AcDbDimStyleTable
 71
0
  0
DIMSTYLE
105
221
100
AcDbSymbolTableRecord
100
AcDbDimStyleTableRecord
  2
STANDARD
 70
0
  3

  4

 40
1.0
 41
3.0
 42
0.5
 43
0.38
 44
1.5
 45
0.0
 46
0.0
 47
0.01
 48
0.01
140
3.0
141
0.09
142
0.0
143
25.4
144
1.0
145
0.0
146
1.0
147
0.625
 71
1.0
 72
0.0
 73
0
 74
0
 75
0
 76
0
 77
1
 78
8
170
0
171
2
172
0
173
0
174
0
175
0
176
0
177
0
178
0
270
2
271
2
272
2
273
2
274
2
275
0
280
0
281
0
282
0
283
1
284
8
285
0
286
0
287
3
288
0
340
11
278
44
  0
ENDTAB
  0
ENDSEC
  0
SECTION
  2
BLOCKS
  0
BLOCK
  5
20
100
AcDbEntity
  8
0
100
AcDbBlockBegin
  2
*Model_Space
 70
0
 10
0.0
 20
0.0
 30
0.0
  3
*Model_Space
  1

  0
ENDBLK
  5
21
100
AcDbEntity
  8
0
100
AcDbBlockEnd
  0
BLOCK
  5
1C
100
AcDbEntity
  8
0
100
AcDbBlockBegin
  2
*Paper_Space
 70
0
 10
0.0
 20
0.0
 30
0.0
  3
*Paper_Space
  1

  0
ENDBLK
  5
1D
100
AcDbEntity
  8
0
100
AcDbBlockEnd
  0
ENDSEC
  0
SECTION
  2
ENTITIES
  0
LINE
  5
222
100
AcDbEntity
  8
RACCORDO
100
AcDbLine
 62
253
  6
CONTINUOUS
 10
-20.4076275392
 20
36.5306241359
 11
-20.4032557052
 21
36.5349959699
  0
LINE
  5
223
100
AcDbEntity
  8
RACCORDO
100
AcDbLine
 62
253
  6
CONTINUOUS
 10
-22.5931197968
 20
34.4262691021
 11
-22.5756647319
 21
34.4349959699
  0
LWPOLYLINE
  5
224
100
AcDbEntity
  8
RACCORDO
100
AcDbPolyline
 62
7
  6
CONTINUOUS
 90
11
 70
0
 10
-22.7813976181
 20
34.3864426916
 10
-22.7670145587
 20
34.393324797
 10
-22.7468961524
 20
34.4019534674
 10
-22.7263889014
 20
34.4096156789
 10
-22.7055386344
 20
34.4162939366
 10
-22.6843836692
 20
34.4219749466
 10
-22.6629804804
 20
34.4266425825
 10
-22.6414039532
 20
34.4302821235
 10
-22.619712348
 20
34.4328879135
 10
-22.5979462887
 20
34.4344592208
 10
-22.5761550228
 20
34.4349959699
  0
LINE
  5
225
100
AcDbEntity
  8
RACCORDO
100
AcDbLine
 62
7
  6
CONTINUOUS
 10
-22.3032641667
 20
-12.4650040301
 11
-20.4032557052
 21
-12.4650040301
  0
LINE
  5
226
100
AcDbEntity
  8
RACCORDO
100
AcDbLine
 62
7
  6
CONTINUOUS
 10
-3.4032641667
 20
-12.4650040301
 11
-1.5032557052
 21
-12.4650040301
  0
LINE
  5
227
100
AcDbEntity
  8
RACCORDO
100
AcDbLine
 62
253
  6
CONTINUOUS
 10
-22.2988923327
 20
-12.4606321961
 11
-20.4076275392
 21
-12.4606321961
  0
LINE
  5
228
100
AcDbEntity
  8
RACCORDO
100
AcDbLine
 62
253
  6
CONTINUOUS
 10
-3.3988923327
 20
-12.4606321961
 11
-1.5076275392
 21
-12.4606321961
  0
LINE
  5
229
100
AcDbEntity
  8
RACCORDO
100
AcDbLine
 62
253
  6
CONTINUOUS
 10
-1.25763177
 20
-12.2106364269
 11
-3.648888102
 21
-12.2106364269
  0
LINE
  5
22A
100
AcDbEntity
  8
RACCORDO
100
AcDbLine
 62
253
  6
CONTINUOUS
 10
-20.15763177
 20
-12.2106364269
 11
-22.548888102
 21
-12.2106364269
  0
LINE
  5
22B
100
AcDbEntity
  8
RACCORDO
100
AcDbLine
 62
253
  6
CONTINUOUS
 10
-20.15763177
 20
-11.8093415974
 11
-22.548888102
 21
-11.8093415974
  0
LINE
  5
22C
100
AcDbEntity
  8
DRAFT
100
AcDbLine
 62
7
  6
CONTINUOUS
 10
-16.303259936
 20
-11.7650040301
 11
-7.503259936
 21
-11.7650040301
  0
LINE
  5
22D
100
AcDbEntity
  8
DRAFT
100
AcDbLine
 62
7
  6
CONTINUOUS
 10
-15.403259936
 20
-11.7591862003
 11
-8.403259936
 21
-11.7591862003
  0
LINE
  5
22E
100
AcDbEntity
  8
ASSI
100
AcDbLine
 62
253
  6
CONTINUOUS
 10
-16.2596092891
 20
-11.7213533832
 11
-15.403259936
 21
-11.7213533832
  0
LINE
  5
22F
100
AcDbEntity
  8
ASSI
100
AcDbLine
 62
253
  6
CONTINUOUS
 10
-8.403259936
 20
-11.7213533832
 11
-7.5469105828
 21
-11.7213533832
  0
LINE
  5
230
100
AcDbEntity
  8
RACCORDO
100
AcDbLine
 62
7
  6
CONTINUOUS
 10
-3.3988923327
 20
-11.6650040301
 11
-1.5076275392
 21
-11.6650040301
  0
LINE
  5
231
100
AcDbEntity
  8
RACCORDO
100
AcDbLine
 62
253
  6
CONTINUOUS
 10
-20.4076275392
 20
-11.5928352465
 11
-22.2988923327
 21
-11.5928352465
  0
LINE
  5
232
100
AcDbEntity
  8
RACCORDO
100
AcDbLine
 62
7
  6
CONTINUOUS
 10
-1.5025369381
 20
-11.0876537609
 11
-3.4039829338
 21
-11.0876537609
  0
LINE
  5
233
100
AcDbEntity
  8
RACCORDO
100
AcDbLine
 62
7
  6
CONTINUOUS
 10
-20.4025369381
 20
-11.0876537609
 11
-22.3039829338
 21
-11.0876537609
  0
LWPOLYLINE
  5
234
100
AcDbEntity
  8
RACCORDO
100
AcDbPolyline
 62
7
  6
CONTINUOUS
 90
34
 70
0
 10
-1.5076275392
 20
-11.6650040301
 10
-1.494603064
 20
-11.6652576075
 10
-1.4816734918
 20
-11.6658830063
 10
-1.4688728934
 20
-11.6668802264
 10
-1.4562228363
 20
-11.6682618918
 10
-1.443766686
 20
-11.6700153785
 10
-1.4315681725
 20
-11.672102815
 10
-1.4196675502
 20
-11.6745252837
 10
-1.4080771512
 20
-11.6772817022
 10
-1.3968151663
 20
-11.6803309516
 10
-1.3859039937
 20
-11.6836735105
 10
-1.3753638889
 20
-11.6873089004
 10
-1.3652079956
 20
-11.6911945663
 10
-1.3554538541
 20
-11.6953305545
 10
-1.3461171391
 20
-11.6997168188
 10
-1.3372068046
 20
-11.7043106661
 10
-1.3287359617
 20
-11.7091118915
 10
-1.3207162294
 20
-11.7141206999
 10
-1.313153326
 20
-11.7192950134
 10
-1.3060564336
 20
-11.724634496
 10
-1.2994335246
 20
-11.7301394837
 10
-1.2932877806
 20
-11.7357689057
 10
-1.2876248996
 20
-11.7415223563
 10
-1.2824495425
 20
-11.7474002413
 10
-1.2777627644
 20
-11.7533627078
 10
-1.2735671395
 20
-11.7594092921
 10
-1.2698642892
 20
-11.765540458
 10
-1.2666533121
 20
-11.771717743
 10
-1.2639339451
 20
-11.7779406019
 10
-1.2617049987
 20
-11.78420958
 10
-1.2599636359
 20
-11.7904878512
 10
-1.2587068972
 20
-11.7967631402
 10
-1.2579311924
 20
-11.8030477222
 10
-1.25763177
 20
-11.8093415974
  0
LWPOLYLINE
  5
235
100
AcDbEntity
  8
RACCORDO
100
AcDbPolyline
 62
7
  6
CONTINUOUS
 90
34
 70
0
 10
-22.3032641667
 20
-12.4650040301
 10
-22.315159452
 20
-12.4647208799
 10
-22.3270277915
 20
-12.4638720643
 10
-22.3388423021
 20
-12.4624595042
 10
-22.3505762234
 20
-12.4604863978
 10
-22.3622029748
 20
-12.4579572118
 10
-22.373696215
 20
-12.4548776718
 10
-22.3850299097
 20
-12.4512547514
 10
-22.3961783852
 20
-12.4470966559
 10
-22.4071163823
 20
-12.4424128023
 10
-22.4178191235
 20
-12.4372137989
 10
-22.4282623642
 20
-12.4315114217
 10
-22.4384224419
 20
-12.4253185882
 10
-22.4482763411
 20
-12.4186493256
 10
-22.4578017398
 20
-12.4115187408
 10
-22.466977055
 20
-12.403942989
 10
-22.475781502
 20
-12.3959392306
 10
-22.4841951364
 20
-12.3875255962
 10
-22.4921988948
 20
-12.3787211492
 10
-22.4997746467
 20
-12.3695458339
 10
-22.5069052314
 20
-12.3600204352
 10
-22.5135744941
 20
-12.350166536
 10
-22.5197673276
 20
-12.3400064584
 10
-22.5254697048
 20
-12.3295632177
 10
-22.5306687081
 20
-12.3188604764
 10
-22.5353525617
 20
-12.3079224794
 10
-22.5395106573
 20
-12.2967740039
 10
-22.5431335777
 20
-12.2854403091
 10
-22.5462131177
 20
-12.2739470689
 10
-22.5487423037
 20
-12.2623203176
 10
-22.5507154101
 20
-12.2505863962
 10
-22.5521279702
 20
-12.2387718857
 10
-22.5529767857
 20
-12.2269035461
 10
-22.553259936
 20
-12.2150082609
  0
LWPOLYLINE
  5
236
100
AcDbEntity
  8
RACCORDO
100
AcDbPolyline
 62
7
  6
CONTINUOUS
 90
34
 70
0
 10
-3.4032641667
 20
-12.4650040301
 10
-3.415159452
 20
-12.4647208799
 10
-3.4270277915
 20
-12.4638720643
 10
-3.4388423021
 20
-12.4624595042
 10
-3.4505762234
 20
-12.4604863978
 10
-3.4622029748
 20
-12.4579572118
 10
-3.473696215
 20
-12.4548776718
 10
-3.4850299097
 20
-12.4512547514
 10
-3.4961783852
 20
-12.4470966559
 10
-3.5071163823
 20
-12.4424128023
 10
-3.5178191235
 20
-12.4372137989
 10
-3.5282623642
 20
-12.4315114217
 10
-3.5384224419
 20
-12.4253185882
 10
-3.5482763411
 20
-12.4186493256
 10
-3.5578017398
 20
-12.4115187408
 10
-3.566977055
 20
-12.403942989
 10
-3.575781502
 20
-12.3959392306
 10
-3.5841951364
 20
-12.3875255962
 10
-3.5921988948
 20
-12.3787211492
 10
-3.5997746467
 20
-12.3695458339
 10
-3.6069052314
 20
-12.3600204352
 10
-3.6135744941
 20
-12.350166536
 10
-3.6197673276
 20
-12.3400064584
 10
-3.6254697048
 20
-12.3295632177
 10
-3.6306687081
 20
-12.3188604764
 10
-3.6353525617
 20
-12.3079224794
 10
-3.6395106573
 20
-12.2967740039
 10
-3.6431335777
 20
-12.2854403091
 10
-3.6462131177
 20
-12.2739470689
 10
-3.6487423037
 20
-12.2623203176
 10
-3.6507154101
 20
-12.2505863962
 10
-3.6521279702
 20
-12.2387718857
 10
-3.6529767857
 20
-12.2269035461
 10
-3.653259936
 20
-12.2150082609
  0
LWPOLYLINE
  5
237
100
AcDbEntity
  8
RACCORDO
100
AcDbPolyline
 62
253
  6
CONTINUOUS
 90
31
 70
0
 10
-22.2988923327
 20
-12.4606321961
 10
-22.3119446727
 20
-12.4602907889
 10
-22.3249695671
 20
-12.4592675263
 10
-22.3379313417
 20
-12.4575639221
 10
-22.3507970604
 20
-12.4551827919
 10
-22.3635285256
 20
-12.4521296785
 10
-22.3760827102
 20
-12.4484142388
 10
-22.3884225141
 20
-12.4440476877
 10
-22.4005168702
 20
-12.4390412578
 10
-22.4123329485
 20
-12.4334085092
 10
-22.4238385489
 20
-12.4271647075
 10
-22.4350018673
 20
-12.4203270257
 10
-22.4457919465
 20
-12.4129143957
 10
-22.4561790724
 20
-12.4049472534
 10
-22.4661349095
 20
-12.3964473565
 10
-22.475632244
 20
-12.3874379347
 10
-22.4846450631
 20
-12.3779436415
 10
-22.4931486046
 20
-12.3679905381
 10
-22.5011195128
 20
-12.3576059488
 10
-22.5085359197
 20
-12.3468183585
 10
-22.5153774954
 20
-12.3356573326
 10
-22.5216254746
 20
-12.3241534768
 10
-22.5272627229
 20
-12.3123383311
 10
-22.5322737784
 20
-12.3002442939
 10
-22.5366448934
 20
-12.2879045378
 10
-22.5403640829
 20
-12.2753528903
 10
-22.5434211441
 20
-12.2626237764
 10
-22.5458076868
 20
-12.2497521368
 10
-22.54751717
 20
-12.2367732793
 10
-22.548544913
 20
-12.223722781
 10
-22.548888102
 20
-12.2106364269
  0
LWPOLYLINE
  5
238
100
AcDbEntity
  8
RACCORDO
100
AcDbPolyline
 62
253
  6
CONTINUOUS
 90
31
 70
0
 10
-3.3988923327
 20
-12.4606321961
 10
-3.4119758187
 20
-12.4602891575
 10
-3.4250234453
 20
-12.4592618676
 10
-3.4379994515
 20
-12.4575531421
 10
-3.4508682723
 20
-12.4551676641
 10
-3.4635946369
 20
-12.4521119719
 10
-3.4761436645
 20
-12.4483944405
 10
-3.4884809608
 20
-12.444025259
 10
-3.5005727115
 20
-12.4390164025
 10
-3.5123857753
 20
-12.4333815994
 10
-3.5238877748
 20
-12.4271362935
 10
-3.5350471853
 20
-12.4202976021
 10
-3.5458334209
 20
-12.4128842687
 10
-3.5562169186
 20
-12.4049166119
 10
-3.566169219
 20
-12.3964164696
 10
-3.575663045
 20
-12.3874071391
 10
-3.5846723755
 20
-12.3779133132
 10
-3.5931725178
 20
-12.3679610127
 10
-3.6011401746
 20
-12.3575775151
 10
-3.6085535079
 20
-12.3467912795
 10
-3.6153921993
 20
-12.335631869
 10
-3.6216375052
 20
-12.3241298694
 10
-3.6272723084
 20
-12.3123168056
 10
-3.6322811649
 20
-12.300225055
 10
-3.6366503464
 20
-12.2878877587
 10
-3.6403678778
 20
-12.275338731
 10
-3.64342357
 20
-12.2626123665
 10
-3.6458090479
 20
-12.2497435456
 10
-3.6475177735
 20
-12.2367675395
 10
-3.6485450634
 20
-12.2237199129
 10
-3.648888102
 20
-12.2106364269
  0
LWPOLYLINE
  5
239
100
AcDbEntity
  8
RACCORDO
100
AcDbPolyline
 62
7
  6
CONTINUOUS
 90
11
 70
0
 10
-22.7813958055
 20
-10.3164516442
 10
-22.7669262026
 20
-10.3233732568
 10
-22.7468016447
 20
-10.3319994299
 10
-22.7262908182
 20
-10.3396577329
 10
-22.7054407753
 20
-10.3463307796
 10
-22.6843076282
 20
-10.3520015147
 10
-22.6629306561
 20
-10.3566602911
 10
-22.6413318457
 20
-10.3603005831
 10
-22.6195507166
 20
-10.362911435
 10
-22.5976451175
 20
-10.3644816438
 10
-22.5756647319
 20
-10.3650040301
  0
LINE
  5
23A
100
AcDbEntity
  8
RACCORDO
100
AcDbLine
 62
253
  6
CONTINUOUS
 10
-22.5756647319
 20
-10.3650040301
 11
-22.5931197968
 21
-10.3562771623
  0
LINE
  5
23B
100
AcDbEntity
  8
RACCORDO
100
AcDbLine
 62
253
  6
CONTINUOUS
 10
-20.4076275392
 20
-12.4606321961
 11
-20.4032557052
 21
-12.4650040301
  0
LINE
  5
23C
100
AcDbEntity
  8
RACCORDO
100
AcDbLine
 62
253
  6
CONTINUOUS
 10
-20.15763177
 20
36.2806283667
 11
-20.153259936
 21
36.2850002007
  0
LINE
  5
23D
100
AcDbEntity
  8
RACCORDO
100
AcDbLine
 62
7
  6
CONTINUOUS
 10
-19.9872845027
 20
33.0267042341
 11
-20.1497726451
 21
32.9454663503
  0
LINE
  5
23E
100
AcDbEntity
  8
RACCORDO
100
AcDbLine
 62
7
  6
CONTINUOUS
 10
-22.5761550228
 20
-10.3650040301
 11
-22.553259936
 21
-10.3650040301
  0
LINE
  5
23F
100
AcDbEntity
  8
RACCORDO
100
AcDbLine
 62
7
  6
CONTINUOUS
 10
-1.253259936
 20
-10.3650040301
 11
-1.2303648491
 21
-10.3650040301
  0
LINE
  5
240
100
AcDbEntity
  8
DRAFT
100
AcDbLine
 62
7
  6
CONTINUOUS
 10
-1.253259936
 20
-10.3650040301
 11
-7.503259936
 21
-10.3650040301
  0
LINE
  5
241
100
AcDbEntity
  8
DRAFT
100
AcDbLine
 62
7
  6
CONTINUOUS
 10
-16.303259936
 20
-10.3650040301
 11
-22.553259936
 21
-10.3650040301
  0
LINE
  5
242
100
AcDbEntity
  8
RACCORDO
100
AcDbLine
 62
7
  6
CONTINUOUS
 10
-22.5931197968
 20
-10.3562771623
 11
-19.1619868037
 21
-10.3562771623
  0
LINE
  5
243
100
AcDbEntity
  8
RACCORDO
100
AcDbLine
 62
7
  6
CONTINUOUS
 10
-4.6445330682
 20
-10.3562771623
 11
-1.2134000751
 21
-10.3562771623
  0
LINE
  5
244
100
AcDbEntity
  8
DRAFT
100
AcDbLine
 62
7
  6
CONTINUOUS
 10
-8.403259936
 20
-10.3030432688
 11
-8.903259936
 21
-10.3030432688
  0
LINE
  5
245
100
AcDbEntity
  8
DRAFT
100
AcDbLine
 62
7
  6
CONTINUOUS
 10
-14.903259936
 20
-10.3030432688
 11
-15.403259936
 21
-10.3030432688
  0
LINE
  5
246
100
AcDbEntity
  8
RACCORDO
100
AcDbLine
 62
253
  6
CONTINUOUS
 10
-19.2406047692
 20
-10.2776591969
 11
-14.903259936
 21
-10.2776591969
  0
LINE
  5
247
100
AcDbEntity
  8
RACCORDO
100
AcDbLine
 62
253
  6
CONTINUOUS
 10
-8.903259936
 20
-10.2776591969
 11
-4.5659151027
 21
-10.2776591969
  0
LINE
  5
248
100
AcDbEntity
  8
0
100
AcDbLine
 62
7
  6
CONTINUOUS
 10
-8.903259936
 20
-9.6650040301
 11
-14.903259936
 21
-9.6650040301
  0
LINE
  5
249
100
AcDbEntity
  8
RACCORDO
100
AcDbLine
 62
253
  6
CONTINUOUS
 10
-19.4873606551
 20
-9.2776972738
 11
-14.903259936
 21
-9.2776972738
  0
LINE
  5
24A
100
AcDbEntity
  8
RACCORDO
100
AcDbLine
 62
253
  6
CONTINUOUS
 10
-8.903259936
 20
-9.2776972738
 11
-4.3191592168
 21
-9.2776972738
  0
LINE
  5
24B
100
AcDbEntity
  8
RACCORDO
100
AcDbLine
 62
7
  6
CONTINUOUS
 10
-19.9872845027
 20
-8.9567122943
 11
-20.1497726451
 21
-8.8754744105
  0
LINE
  5
24C
100
AcDbEntity
  8
RACCORDO
100
AcDbLine
 62
253
  6
CONTINUOUS
 10
-20.15763177
 20
-12.2106364269
 11
-20.153259936
 21
-12.2150082609
  0
LINE
  5
24D
100
AcDbEntity
  8
0
100
AcDbLine
 62
7
  6
CONTINUOUS
 10
-20.703259936
 20
32.8849959699
 11
-22.4675627164
 21
31.1206931894
  0
LINE
  5
24E
100
AcDbEntity
  8
RACCORDO
100
AcDbLine
 62
7
  6
CONTINUOUS
 10
-20.703259936
 20
32.8849959699
 11
-22.4675627164
 21
31.1206931894
  0
LINE
  5
24F
100
AcDbEntity
  8
RACCORDO
100
AcDbLine
 62
7
  6
CONTINUOUS
 10
-20.153259936
 20
33.4349959699
 11
-19.1619868037
 21
34.4262691021
  0
LINE
  5
250
100
AcDbEntity
  8
0
100
AcDbLine
 62
7
  6
CONTINUOUS
 10
-20.5304636091
 20
32.8849959699
 11
-22.3453772619
 21
31.070082317
  0
LINE
  5
251
100
AcDbEntity
  8
RACCORDO
100
AcDbLine
 62
7
  6
CONTINUOUS
 10
-20.5304636091
 20
32.8849959699
 11
-22.3453772619
 21
31.070082317
  0
LINE
  5
252
100
AcDbEntity
  8
RACCORDO
100
AcDbLine
 62
7
  6
CONTINUOUS
 10
-22.6234681713
 20
29.3333002167
 11
-22.0015641828
 21
29.9552042052
  0
LINE
  5
253
100
AcDbEntity
  8
ASSI
100
AcDbLine
 62
7
  6
CONTINUOUS
 10
-22.6234681713
 20
29.3333002167
 11
-22.0015641828
 21
29.9552042052
  0
LINE
  5
254
100
AcDbEntity
  8
0
100
AcDbLine
 62
7
  6
CONTINUOUS
 10
-19.3399155723
 20
30.3011654375
 11
-19.3573706372
 21
30.2924385697
  0
LINE
  5
255
100
AcDbEntity
  8
DRAFT
100
AcDbLine
 62
7
  6
CONTINUOUS
 10
-19.3399155723
 20
30.3011654375
 11
-19.3573706372
 21
30.2924385697
  0
LWPOLYLINE
  5
256
100
AcDbEntity
  8
0
100
AcDbPolyline
 62
7
  6
CONTINUOUS
 90
12
 70
0
 10
-13.5276563974
 20
-7.8496328466
 10
-13.6455282255
 20
-7.8500133206
 10
-13.7583996553
 20
-7.8506321319
 10
-13.8677554378
 20
-7.8515040965
 10
-13.9721108219
 20
-7.8526143984
 10
-14.0670115542
 20
-7.8539185892
 10
-14.1520796385
 20
-7.8554286112
 10
-14.2276930711
 20
-7.8571325222
 10
-14.2905315871
 20
-7.8589500471
 10
-14.3394884317
 20
-7.8608544275
 10
-14.3756703598
 20
-7.8628724219
 10
-14.3990773714
 20
-7.8650040301
  0
LINE
  5
257
100
AcDbEntity
  8
0
100
AcDbLine
 62
7
  6
CONTINUOUS
 10
-14.903259936
 20
-8.9650040301
 11
-8.903259936
 21
-8.9650040301
  0
LINE
  5
258
100
AcDbEntity
  8
RACCORDO
100
AcDbLine
 62
7
  6
CONTINUOUS
 10
-19.4873606551
 20
-8.9609995758
 11
-19.1450816378
 21
-8.9609995758
  0
LINE
  5
259
100
AcDbEntity
  8
RACCORDO
100
AcDbLine
 62
7
  6
CONTINUOUS
 10
-4.6614382341
 20
-8.9609995758
 11
-4.3191592168
 21
-8.9609995758
  0
LINE
  5
25A
100
AcDbEntity
  8
DRAFT
100
AcDbLine
 62
7
  6
CONTINUOUS
 10
-20.1497726451
 20
-8.8754744105
 11
-19.2020976106
 21
-8.8754744105
  0
LINE
  5
25B
100
AcDbEntity
  8
DRAFT
100
AcDbLine
 62
7
  6
CONTINUOUS
 10
-4.6044222613
 20
-8.8754744105
 11
-3.6567472268
 21
-8.8754744105
  0
LINE
  5
25C
100
AcDbEntity
  8
DRAFT
100
AcDbLine
 62
7
  6
CONTINUOUS
 10
-21.553259936
 20
-8.8650040301
 11
-20.153259936
 21
-8.8650040301
  0
LINE
  5
25D
100
AcDbEntity
  8
DRAFT
100
AcDbLine
 62
7
  6
CONTINUOUS
 10
-3.653259936
 20
-8.8650040301
 11
-2.253259936
 21
-8.8650040301
  0
LINE
  5
25E
100
AcDbEntity
  8
0
100
AcDbLine
 62
7
  6
CONTINUOUS
 10
-20.703259936
 20
-8.8150040301
 11
-19.303259936
 21
-8.8150040301
  0
LINE
  5
25F
100
AcDbEntity
  8
DRAFT
100
AcDbLine
 62
7
  6
CONTINUOUS
 10
-20.703259936
 20
-8.8150040301
 11
-19.303259936
 21
-8.8150040301
  0
LINE
  5
260
100
AcDbEntity
  8
0
100
AcDbLine
 62
7
  6
CONTINUOUS
 10
-3.103259936
 20
-8.8150040301
 11
-4.503259936
 21
-8.8150040301
  0
LINE
  5
261
100
AcDbEntity
  8
DRAFT
100
AcDbLine
 62
7
  6
CONTINUOUS
 10
-3.103259936
 20
-8.8150040301
 11
-4.503259936
 21
-8.8150040301
  0
LINE
  5
262
100
AcDbEntity
  8
DRAFT
100
AcDbLine
 62
7
  6
CONTINUOUS
 10
-21.5270773386
 20
-8.7863923612
 11
-20.7318716049
 21
-8.7863923612
  0
LINE
  5
263
100
AcDbEntity
  8
DRAFT
100
AcDbLine
 62
7
  6
CONTINUOUS
 10
-19.303259936
 20
-8.7863923612
 11
-19.2119866807
 21
-8.7863923612
  0
LINE
  5
264
100
AcDbEntity
  8
DRAFT
100
AcDbLine
 62
7
  6
CONTINUOUS
 10
-4.5945331912
 20
-8.7863923612
 11
-4.503259936
 21
-8.7863923612
  0
LINE
  5
265
100
AcDbEntity
  8
DRAFT
100
AcDbLine
 62
7
  6
CONTINUOUS
 10
-3.074648267
 20
-8.7863923612
 11
-2.2794425333
 21
-8.7863923612
  0
LINE
  5
266
100
AcDbEntity
  8
RACCORDO
100
AcDbLine
 62
253
  6
CONTINUOUS
 10
-5.5450816378
 20
-8.5479283133
 11
-18.2614382341
 21
-8.5479283133
  0
LINE
  5
267
100
AcDbEntity
  8
RACCORDO
100
AcDbLine
 62
253
  6
CONTINUOUS
 10
-5.547965168
 20
-8.0479473518
 11
-18.2585547039
 21
-8.0479473518
  0
LINE
  5
268
100
AcDbEntity
  8
DRAFT
100
AcDbLine
 62
7
  6
CONTINUOUS
 10
-9.403259936
 20
-8.0182379236
 11
-9.4619488128
 21
-8.0182379236
  0
LINE
  5
269
100
AcDbEntity
  8
DRAFT
100
AcDbLine
 62
7
  6
CONTINUOUS
 10
-14.3445710591
 20
-8.0182379236
 11
-14.403259936
 21
-8.0182379236
  0
LINE
  5
26A
100
AcDbEntity
  8
DRAFT
100
AcDbLine
 62
7
  6
CONTINUOUS
 10
-15.403259936
 20
-7.9650040301
 11
-14.4026121171
 21
-7.9650040301
  0
LINE
  5
26B
100
AcDbEntity
  8
DRAFT
100
AcDbLine
 62
7
  6
CONTINUOUS
 10
-9.4039077548
 20
-7.9650040301
 11
-8.403259936
 21
-7.9650040301
  0
LINE
  5
26C
100
AcDbEntity
  8
DRAFT
100
AcDbLine
 62
7
  6
CONTINUOUS
 10
-18.1945331912
 20
-7.9519137284
 11
-14.4025884514
 21
-7.9519137284
  0
LINE
  5
26D
100
AcDbEntity
  8
DRAFT
100
AcDbLine
 62
7
  6
CONTINUOUS
 10
-9.4039314205
 20
-7.9519137284
 11
-5.6119866807
 21
-7.9519137284
  0
LINE
  5
26E
100
AcDbEntity
  8
RACCORDO
100
AcDbLine
 62
253
  6
CONTINUOUS
 10
-4.6614382341
 20
-7.9220221469
 11
-5.5450816378
 21
-7.9220221469
  0
LINE
  5
26F
100
AcDbEntity
  8
RACCORDO
100
AcDbLine
 62
253
  6
CONTINUOUS
 10
-18.2614382341
 20
-7.9220221469
 11
-19.1450816378
 21
-7.9220221469
  0
LINE
  5
270
100
AcDbEntity
  8
0
100
AcDbLine
 62
7
  6
CONTINUOUS
 10
-8.403259936
 20
-7.8650040301
 11
-9.4087816557
 21
-7.8650040301
  0
LINE
  5
271
100
AcDbEntity
  8
0
100
AcDbLine
 62
7
  6
CONTINUOUS
 10
-14.3977382162
 20
-7.8650040301
 11
-15.403259936
 21
-7.8650040301
  0
LINE
  5
272
100
AcDbEntity
  8
0
100
AcDbLine
 62
7
  6
CONTINUOUS
 10
-10.4017357011
 20
-7.8494907097
 11
-13.5276563974
 21
-7.8496328466
  0
LINE
  5
273
100
AcDbEntity
  8
0
100
AcDbLine
 62
7
  6
CONTINUOUS
 10
-8.4399155723
 20
-7.8283483938
 11
-15.3666042996
 21
-7.8283483938
  0
LINE
  5
274
100
AcDbEntity
  8
DRAFT
100
AcDbLine
 62
7
  6
CONTINUOUS
 10
-8.4399155723
 20
-7.8283483938
 11
-15.3666042996
 21
-7.8283483938
  0
LINE
  5
275
100
AcDbEntity
  8
RACCORDO
100
AcDbLine
 62
253
  6
CONTINUOUS
 10
-4.6602814374
 20
-7.7220255316
 11
-5.5462384345
 21
-7.7220255316
  0
LINE
  5
276
100
AcDbEntity
  8
RACCORDO
100
AcDbLine
 62
253
  6
CONTINUOUS
 10
-18.2602814374
 20
-7.7220255316
 11
-19.1462384345
 21
-7.7220255316
  0
LINE
  5
277
100
AcDbEntity
  8
0
100
AcDbLine
 62
7
  6
CONTINUOUS
 10
-19.303259936
 20
-7.6650040301
 11
-15.403259936
 21
-7.6650040301
  0
LINE
  5
278
100
AcDbEntity
  8
DRAFT
100
AcDbLine
 62
7
  6
CONTINUOUS
 10
-19.303259936
 20
-7.6650040301
 11
-15.403259936
 21
-7.6650040301
  0
LINE
  5
279
100
AcDbEntity
  8
0
100
AcDbLine
 62
7
  6
CONTINUOUS
 10
-8.403259936
 20
-7.6650040301
 11
-4.503259936
 21
-7.6650040301
  0
LINE
  5
27A
100
AcDbEntity
  8
DRAFT
100
AcDbLine
 62
7
  6
CONTINUOUS
 10
-8.403259936
 20
-7.6650040301
 11
-4.503259936
 21
-7.6650040301
  0
LINE
  5
27B
100
AcDbEntity
  8
0
100
AcDbLine
 62
7
  6
CONTINUOUS
 10
-19.3399155723
 20
-7.6283483938
 11
-15.3666042996
 21
-7.6283483938
  0
LINE
  5
27C
100
AcDbEntity
  8
DRAFT
100
AcDbLine
 62
7
  6
CONTINUOUS
 10
-19.3399155723
 20
-7.6283483938
 11
-15.3666042996
 21
-7.6283483938
  0
LINE
  5
27D
100
AcDbEntity
  8
0
100
AcDbLine
 62
7
  6
CONTINUOUS
 10
-8.4399155723
 20
-7.6283483938
 11
-4.4666042996
 21
-7.6283483938
  0
LINE
  5
27E
100
AcDbEntity
  8
DRAFT
100
AcDbLine
 62
7
  6
CONTINUOUS
 10
-8.4399155723
 20
-7.6283483938
 11
-4.4666042996
 21
-7.6283483938
  0
LINE
  5
27F
100
AcDbEntity
  8
RACCORDO
100
AcDbLine
 62
7
  6
CONTINUOUS
 10
-15.6163616607
 20
-7.5780943318
 11
-2.5120355458
 21
-7.5780943318
  0
LINE
  5
280
100
AcDbEntity
  8
ASSI
100
AcDbLine
 62
7
  6
CONTINUOUS
 10
-15.6163616607
 20
-7.5780943318
 11
-2.5120355458
 21
-7.5780943318
  0
LWPOLYLINE
  5
281
100
AcDbEntity
  8
0
100
AcDbPolyline
 62
7
  6
CONTINUOUS
 90
13
 70
0
 10
-10.4017357011
 20
-7.8494907097
 10
-10.2788634746
 20
-7.8496328466
 10
-10.1609916464
 20
-7.8500133206
 10
-10.0481202166
 20
-7.8506321319
 10
-9.9387644341
 20
-7.8515040965
 10
-9.83440905
 20
-7.8526143984
 10
-9.7395083177
 20
-7.8539185892
 10
-9.6544402334
 20
-7.8554286112
 10
-9.5788268008
 20
-7.8571325222
 10
-9.5159882848
 20
-7.8589500471
 10
-9.4670314402
 20
-7.8608544275
 10
-9.4308495121
 20
-7.8628724219
 10
-9.4074425005
 20
-7.8650040301
  0
LINE
  5
282
100
AcDbEntity
  8
0
100
AcDbLine
 62
7
  6
CONTINUOUS
 10
-22.4675627164
 20
-7.0507012496
 11
-20.703259936
 21
-8.8150040301
  0
LINE
  5
283
100
AcDbEntity
  8
RACCORDO
100
AcDbLine
 62
7
  6
CONTINUOUS
 10
-22.4675627164
 20
-7.0507012496
 11
-20.703259936
 21
-8.8150040301
  0
LINE
  5
284
100
AcDbEntity
  8
RACCORDO
100
AcDbLine
 62
7
  6
CONTINUOUS
 10
-19.1619868037
 20
-10.3562771623
 11
-20.153259936
 21
-9.3650040301
  0
LINE
  5
285
100
AcDbEntity
  8
0
100
AcDbLine
 62
7
  6
CONTINUOUS
 10
-22.3453772619
 20
-7.0000903772
 11
-20.5304636091
 21
-8.8150040301
  0
LINE
  5
286
100
AcDbEntity
  8
RACCORDO
100
AcDbLine
 62
7
  6
CONTINUOUS
 10
-22.3453772619
 20
-7.0000903772
 11
-20.5304636091
 21
-8.8150040301
  0
LINE
  5
287
100
AcDbEntity
  8
RACCORDO
100
AcDbLine
 62
7
  6
CONTINUOUS
 10
-22.6234681713
 20
-5.2633082769
 11
-22.0015641828
 21
-5.8852122654
  0
LINE
  5
288
100
AcDbEntity
  8
ASSI
100
AcDbLine
 62
7
  6
CONTINUOUS
 10
-22.6234681713
 20
-5.2633082769
 11
-22.0015641828
 21
-5.8852122654
  0
LINE
  5
289
100
AcDbEntity
  8
ASSI
100
AcDbLine
 62
7
  6
CONTINUOUS
 10
-15.4974105052
 20
35.6581030809
 11
-15.5239444059
 21
35.6277535636
  0
LINE
  5
28A
100
AcDbEntity
  8
ASSI
100
AcDbLine
 62
7
  6
CONTINUOUS
 10
-15.5239444059
 20
35.6277535636
 11
-15.5543146008
 21
35.5935509524
  0
LINE
  5
28B
100
AcDbEntity
  8
ASSI
100
AcDbLine
 62
7
  6
CONTINUOUS
 10
-15.5543146008
 20
35.5935509524
 11
-15.58854025
 21
35.5554886923
  0
LINE
  5
28C
100
AcDbEntity
  8
ASSI
100
AcDbLine
 62
7
  6
CONTINUOUS
 10
-15.58854025
 20
35.5554886923
 11
-15.6469914453
 21
35.4912224969
  0
LINE
  5
28D
100
AcDbEntity
  8
ASSI
100
AcDbLine
 62
7
  6
CONTINUOUS
 10
-15.6469914453
 20
35.4912224969
 11
-15.8312299236
 21
35.2913537846
  0
LINE
  5
28E
100
AcDbEntity
  8
0
100
AcDbLine
 62
7
  6
CONTINUOUS
 10
-19.303259936
 20
31.7349959699
 11
-19.3399155723
 21
31.6983403336
  0
LINE
  5
28F
100
AcDbEntity
  8
DRAFT
100
AcDbLine
 62
7
  6
CONTINUOUS
 10
-19.303259936
 20
31.7349959699
 11
-19.3399155723
 21
31.6983403336
  0
LINE
  5
290
100
AcDbEntity
  8
RACCORDO
100
AcDbLine
 62
7
  6
CONTINUOUS
 10
-19.1462384345
 20
31.7920174714
 11
-19.203259936
 21
31.7349959699
  0
LINE
  5
291
100
AcDbEntity
  8
ASSI
100
AcDbLine
 62
7
  6
CONTINUOUS
 10
-15.9163502376
 20
-6.5650040301
 11
-20.903259936
 21
-6.5650040301
  0
LINE
  5
292
100
AcDbEntity
  8
0
100
AcDbLine
 62
7
  6
CONTINUOUS
 10
-9.403259936
 20
-6.2650040301
 11
-14.403259936
 21
-6.2650040301
  0
LINE
  5
293
100
AcDbEntity
  8
ASSI
100
AcDbLine
 62
7
  6
CONTINUOUS
 10
-9.403259936
 20
-6.2650040301
 11
-14.403259936
 21
-6.2650040301
  0
LINE
  5
294
100
AcDbEntity
  8
RACCORDO
100
AcDbLine
 62
7
  6
CONTINUOUS
 10
-21.2944843261
 20
-6.1780943318
 11
-15.9163502376
 21
-6.1780943318
  0
LINE
  5
295
100
AcDbEntity
  8
ASSI
100
AcDbLine
 62
7
  6
CONTINUOUS
 10
-21.2944843261
 20
-6.1780943318
 11
-15.9163502376
 21
-6.1780943318
  0
LINE
  5
296
100
AcDbEntity
  8
ASSI
100
AcDbLine
 62
7
  6
CONTINUOUS
 10
-14.403259936
 20
-6.1650040301
 11
-9.403259936
 21
-6.1650040301
  0
LINE
  5
297
100
AcDbEntity
  8
0
100
AcDbLine
 62
7
  6
CONTINUOUS
 10
-19.303259936
 20
-7.6650040301
 11
-19.3399155723
 21
-7.6283483938
  0
LINE
  5
298
100
AcDbEntity
  8
DRAFT
100
AcDbLine
 62
7
  6
CONTINUOUS
 10
-19.303259936
 20
-7.6650040301
 11
-19.3399155723
 21
-7.6283483938
  0
LINE
  5
299
100
AcDbEntity
  8
RACCORDO
100
AcDbLine
 62
7
  6
CONTINUOUS
 10
-19.1462384345
 20
-7.7220255316
 11
-19.203259936
 21
-7.6650040301
  0
LINE
  5
29A
100
AcDbEntity
  8
ASSI
100
AcDbLine
 62
7
  6
CONTINUOUS
 10
-15.8312299236
 20
-11.2213618448
 11
-15.7358413023
 21
-11.3245309317
  0
LINE
  5
29B
100
AcDbEntity
  8
ASSI
100
AcDbLine
 62
7
  6
CONTINUOUS
 10
-15.7358413023
 20
-11.3245309317
 11
-15.6468881827
 21
-11.4213440734
  0
LINE
  5
29C
100
AcDbEntity
  8
ASSI
100
AcDbLine
 62
7
  6
CONTINUOUS
 10
-15.6468881827
 20
-11.4213440734
 11
-15.5883906142
 21
-11.4856621141
  0
LINE
  5
29D
100
AcDbEntity
  8
ASSI
100
AcDbLine
 62
7
  6
CONTINUOUS
 10
-15.5883906142
 20
-11.4856621141
 11
-15.5541215178
 21
-11.5237746136
  0
LINE
  5
29E
100
AcDbEntity
  8
ASSI
100
AcDbLine
 62
7
  6
CONTINUOUS
 10
-15.5541215178
 20
-11.5237746136
 11
-15.5237176371
 21
-11.5580188713
  0
LWPOLYLINE
  5
29F
100
AcDbEntity
  8
ASSI
100
AcDbPolyline
 62
7
  6
CONTINUOUS
 90
18
 70
0
 10
-15.5237176371
 20
-11.5580188713
 10
-15.4971709817
 20
-11.5883873897
 10
-15.4852745725
 20
-11.6022084661
 10
-15.4742722662
 20
-11.6151438106
 10
-15.4641516832
 20
-11.6271947736
 10
-15.4548658636
 20
-11.6384386278
 10
-15.4464115522
 20
-11.6488734193
 10
-15.4387705084
 20
-11.6585011018
 10
-15.4318902032
 20
-11.667404809
 10
-15.4257555777
 20
-11.6756048247
 10
-15.4203779141
 20
-11.683080865
 10
-15.4157533499
 20
-11.6898552116
 10
-15.4118725565
 20
-11.6959228457
 10
-15.4087272045
 20
-11.7012887861
 10
-15.4063089848
 20
-11.7059903701
 10
-15.4046033558
 20
-11.7100400433
 10
-15.4035927829
 20
-11.7134253601
 10
-15.403259936
 20
-11.7161463204
  0
LINE
  5
2A0
100
AcDbEntity
  8
DRAFT
100
AcDbLine
 62
7
  6
CONTINUOUS
 10
-19.1450816378
 20
33.0309915156
 11
-19.2020976106
 21
32.9454663503
  0
LWPOLYLINE
  5
2A1
100
AcDbEntity
  8
0
100
AcDbPolyline
 62
253
  6
CONTINUOUS
 90
3
 70
0
 10
-13.7060118726
 20
-5.2629055739
 10
-13.6554024013
 20
-5.2507599561
 10
-13.603259936
 20
-5.2466758728
  0
LWPOLYLINE
  5
2A2
100
AcDbEntity
  8
RACCORDO
100
AcDbPolyline
 62
253
  6
CONTINUOUS
 90
3
 70
0
 10
-13.7060118726
 20
-5.2629055739
 10
-13.6554024013
 20
-5.2507599561
 10
-13.603259936
 20
-5.2466758728
  0
LINE
  5
2A3
100
AcDbEntity
  8
ASSI
100
AcDbLine
 62
7
  6
CONTINUOUS
 10
-14.403259936
 20
-5.4650040301
 11
-9.403259936
 21
-5.4650040301
  0
LINE
  5
2A4
100
AcDbEntity
  8
RACCORDO
100
AcDbLine
 62
7
  6
CONTINUOUS
 10
-10.2206820487
 20
-5.2650040301
 11
-13.5858378232
 21
-5.2650040301
  0
LINE
  5
2A5
100
AcDbEntity
  8
ASSI
100
AcDbLine
 62
7
  6
CONTINUOUS
 10
-10.2206820487
 20
-5.2650040301
 11
-13.5858378232
 21
-5.2650040301
  0
LINE
  5
2A6
100
AcDbEntity
  8
0
100
AcDbLine
 62
253
  6
CONTINUOUS
 10
-13.603259936
 20
-5.2466758728
 11
-10.203259936
 21
-5.2466758728
  0
LINE
  5
2A7
100
AcDbEntity
  8
RACCORDO
100
AcDbLine
 62
253
  6
CONTINUOUS
 10
-13.603259936
 20
-5.2466758728
 11
-10.203259936
 21
-5.2466758728
  0
LINE
  5
2A8
100
AcDbEntity
  8
0
100
AcDbLine
 62
7
  6
CONTINUOUS
 10
-13.603259936
 20
-5.2150040301
 11
-10.203259936
 21
-5.2150040301
  0
LINE
  5
2A9
100
AcDbEntity
  8
RACCORDO
100
AcDbLine
 62
7
  6
CONTINUOUS
 10
-13.603259936
 20
-5.2150040301
 11
-10.203259936
 21
-5.2150040301
  0
LINE
  5
2AA
100
AcDbEntity
  8
0
100
AcDbLine
 62
7
  6
CONTINUOUS
 10
-9.403259936
 20
-5.0150040301
 11
-14.403259936
 21
-5.0150040301
  0
LINE
  5
2AB
100
AcDbEntity
  8
0
100
AcDbLine
 62
7
  6
CONTINUOUS
 10
-14.403259936
 20
-4.5650040301
 11
-9.403259936
 21
-4.5650040301
  0
LINE
  5
2AC
100
AcDbEntity
  8
ASSI
100
AcDbLine
 62
7
  6
CONTINUOUS
 10
-14.403259936
 20
-4.5650040301
 11
-9.403259936
 21
-4.5650040301
  0
LINE
  5
2AD
100
AcDbEntity
  8
0
100
AcDbLine
 62
253
  6
CONTINUOUS
 10
-10.203259936
 20
-5.2466758728
 11
-10.1511654827
 21
-5.2507523804
  0
LINE
  5
2AE
100
AcDbEntity
  8
RACCORDO
100
AcDbLine
 62
253
  6
CONTINUOUS
 10
-10.203259936
 20
-5.2466758728
 11
-10.1511654827
 21
-5.2507523804
  0
LINE
  5
2AF
100
AcDbEntity
  8
0
100
AcDbLine
 62
253
  6
CONTINUOUS
 10
-10.1511654827
 20
-5.2507523804
 11
-10.100653893
 21
-5.2628580407
  0
LINE
  5
2B0
100
AcDbEntity
  8
RACCORDO
100
AcDbLine
 62
253
  6
CONTINUOUS
 10
-10.1511654827
 20
-5.2507523804
 11
-10.100653893
 21
-5.2628580407
  0
LINE
  5
2B1
100
AcDbEntity
  8
DRAFT
100
AcDbLine
 62
7
  6
CONTINUOUS
 10
-19.1450816378
 20
-8.9609995758
 11
-19.2020976106
 21
-8.8754744105
  0
LINE
  5
2B2
100
AcDbEntity
  8
DRAFT
100
AcDbLine
 62
7
  6
CONTINUOUS
 10
-20.1497726451
 20
32.9454663503
 11
-20.153259936
 21
32.9349959699
  0
LWPOLYLINE
  5
2B3
100
AcDbEntity
  8
0
100
AcDbPolyline
 62
253
  6
CONTINUOUS
 90
3
 70
0
 10
-10.100653893
 20
-5.2628580407
 10
-10.053259936
 20
-5.2826250293
 10
-10.010423653
 20
-5.3094527363
  0
LWPOLYLINE
  5
2B4
100
AcDbEntity
  8
RACCORDO
100
AcDbPolyline
 62
253
  6
CONTINUOUS
 90
3
 70
0
 10
-10.100653893
 20
-5.2628580407
 10
-10.053259936
 20
-5.2826250293
 10
-10.010423653
 20
-5.3094527363
  0
LINE
  5
2B5
100
AcDbEntity
  8
DRAFT
100
AcDbLine
 62
7
  6
CONTINUOUS
 10
-20.1497726451
 20
-8.8754744105
 11
-20.153259936
 21
-8.8650040301
  0
LWPOLYLINE
  5
2B6
100
AcDbEntity
  8
RACCORDO
100
AcDbPolyline
 62
253
  6
CONTINUOUS
 90
4
 70
0
 10
-22.5617958904
 20
23.8849959699
 10
-22.5602764068
 20
23.890346416
 10
-22.55878137
 20
23.9063360252
 10
-22.5573107801
 20
23.9328331097
  0
LWPOLYLINE
  5
2B7
100
AcDbEntity
  8
ASSI
100
AcDbPolyline
 62
253
  6
CONTINUOUS
 90
4
 70
0
 10
-22.5617958904
 20
23.8849959699
 10
-22.5602764068
 20
23.890346416
 10
-22.55878137
 20
23.9063360252
 10
-22.5573107801
 20
23.9328331097
  0
LINE
  5
2B8
100
AcDbEntity
  8
ASSI
100
AcDbLine
 62
7
  6
CONTINUOUS
 10
-7.6551118347
 20
35.6424352478
 11
-7.6835605507
 21
35.6101720057
  0
LINE
  5
2B9
100
AcDbEntity
  8
ASSI
100
AcDbLine
 62
7
  6
CONTINUOUS
 10
-7.6835605507
 20
35.6101720057
 11
-7.7158262588
 21
35.5740978413
  0
LINE
  5
2BA
100
AcDbEntity
  8
ASSI
100
AcDbLine
 62
7
  6
CONTINUOUS
 10
-7.7158262588
 20
35.5740978413
 11
-7.7518972538
 21
35.5341754835
  0
LINE
  5
2BB
100
AcDbEntity
  8
ASSI
100
AcDbLine
 62
7
  6
CONTINUOUS
 10
-7.7518972538
 20
35.5341754835
 11
-7.8129244314
 21
35.46731155
  0
LWPOLYLINE
  5
2BC
100
AcDbEntity
  8
ASSI
100
AcDbPolyline
 62
7
  6
CONTINUOUS
 90
3
 70
0
 10
-7.8129244314
 20
35.46731155
 10
-7.9037448484
 20
35.3687250669
 10
-7.9752899483
 20
35.2913537846
  0
LINE
  5
2BD
100
AcDbEntity
  8
ASSI
100
AcDbLine
 62
7
  6
CONTINUOUS
 10
-7.503259936
 20
35.8349959699
 11
-7.5469105828
 21
35.791345323
  0
LWPOLYLINE
  5
2BE
100
AcDbEntity
  8
0
100
AcDbPolyline
 62
253
  6
CONTINUOUS
 90
4
 70
0
 10
-10.0099377452
 20
29.3798101408
 10
-10.0529832793
 20
29.3527600098
 10
-10.1005079994
 20
29.3328975137
 10
-10.1511174706
 20
29.3207518959
  0
LWPOLYLINE
  5
2BF
100
AcDbEntity
  8
RACCORDO
100
AcDbPolyline
 62
253
  6
CONTINUOUS
 90
4
 70
0
 10
-10.0099377452
 20
29.3798101408
 10
-10.0529832793
 20
29.3527600098
 10
-10.1005079994
 20
29.3328975137
 10
-10.1511174706
 20
29.3207518959
  0
LINE
  5
2C0
100
AcDbEntity
  8
0
100
AcDbLine
 62
253
  6
CONTINUOUS
 10
-1.3389571555
 20
31.1206931894
 11
-1.46114261
 21
31.070082317
  0
LINE
  5
2C1
100
AcDbEntity
  8
RACCORDO
100
AcDbLine
 62
253
  6
CONTINUOUS
 10
-1.3389571555
 20
31.1206931894
 11
-1.46114261
 21
31.070082317
  0
LINE
  5
2C2
100
AcDbEntity
  8
0
100
AcDbLine
 62
253
  6
CONTINUOUS
 10
-1.46114261
 20
-7.0000903772
 11
-1.3389571555
 21
-7.0507012496
  0
LINE
  5
2C3
100
AcDbEntity
  8
RACCORDO
100
AcDbLine
 62
253
  6
CONTINUOUS
 10
-1.46114261
 20
-7.0000903772
 11
-1.3389571555
 21
-7.0507012496
  0
LINE
  5
2C4
100
AcDbEntity
  8
ASSI
100
AcDbLine
 62
7
  6
CONTINUOUS
 10
-7.503259936
 20
-11.7650040301
 11
-7.5469105828
 21
-11.7213533832
  0
LINE
  5
2C5
100
AcDbEntity
  8
ASSI
100
AcDbLine
 62
7
  6
CONTINUOUS
 10
-7.9752899483
 20
-11.2213618448
 11
-7.8802165157
 21
-11.3241897307
  0
LINE
  5
2C6
100
AcDbEntity
  8
ASSI
100
AcDbLine
 62
7
  6
CONTINUOUS
 10
-7.8802165157
 20
-11.3241897307
 11
-7.7915932215
 21
-11.4206390433
  0
LINE
  5
2C7
100
AcDbEntity
  8
ASSI
100
AcDbLine
 62
7
  6
CONTINUOUS
 10
-7.7915932215
 20
-11.4206390433
 11
-7.7332507325
 21
-11.4847770719
  0
LINE
  5
2C8
100
AcDbEntity
  8
ASSI
100
AcDbLine
 62
7
  6
CONTINUOUS
 10
-7.7332507325
 20
-11.4847770719
 11
-7.699030606
 21
-11.5228247714
  0
LWPOLYLINE
  5
2C9
100
AcDbEntity
  8
ASSI
100
AcDbPolyline
 62
7
  6
CONTINUOUS
 90
20
 70
0
 10
-7.699030606
 20
-11.5228247714
 10
-7.6686384372
 20
-11.5570425758
 10
-7.6548849969
 20
-11.5727025795
 10
-7.6420755849
 20
-11.5874120293
 10
-7.6301621487
 20
-11.6012422193
 10
-7.6191367459
 20
-11.6141921903
 10
-7.608987988
 20
-11.6262629014
 10
-7.5996715862
 20
-11.637528524
 10
-7.5911847003
 20
-11.6479855723
 10
-7.5835076619
 20
-11.6576375321
 10
-7.5765871214
 20
-11.6665690319
 10
-7.5704078104
 20
-11.6748001563
 10
-7.5649801176
 20
-11.6823108207
 10
-7.5602987605
 20
-11.6891253996
 10
-7.5563542939
 20
-11.6952396613
 10
-7.5531386487
 20
-11.7006578374
 10
-7.5506434497
 20
-11.7054169979
 10
-7.5488545039
 20
-11.7095294992
 10
-7.5477547348
 20
-11.7129829849
 10
-7.5473272032
 20
-11.7157774548
  0
LINE
  5
2CA
100
AcDbEntity
  8
ASSI
100
AcDbLine
 62
7
  6
CONTINUOUS
 10
-22.8537606625
 20
13.3021335168
 11
-22.8523610226
 21
13.2310392216
  0
LINE
  5
2CB
100
AcDbEntity
  8
ASSI
100
AcDbLine
 62
7
  6
CONTINUOUS
 10
-22.8537606625
 20
18.3021335168
 11
-22.8523610226
 21
18.2310392216
  0
LINE
  5
2CC
100
AcDbEntity
  8
ASSI
100
AcDbLine
 62
7
  6
CONTINUOUS
 10
-22.8537606625
 20
23.3021335168
 11
-22.8523610226
 21
23.2310392216
  0
LINE
  5
2CD
100
AcDbEntity
  8
ASSI
100
AcDbLine
 62
7
  6
CONTINUOUS
 10
-22.8537606625
 20
28.3021335168
 11
-22.8523610226
 21
28.2310392216
  0
LINE
  5
2CE
100
AcDbEntity
  8
RACCORDO
100
AcDbLine
 62
7
  6
CONTINUOUS
 10
-22.8537611421
 20
13.3021341081
 11
-22.8521340704
 21
13.2181747516
  0
LINE
  5
2CF
100
AcDbEntity
  8
RACCORDO
100
AcDbLine
 62
7
  6
CONTINUOUS
 10
-22.8537611421
 20
18.3021341081
 11
-22.8521340704
 21
18.2181747516
  0
LINE
  5
2D0
100
AcDbEntity
  8
RACCORDO
100
AcDbLine
 62
7
  6
CONTINUOUS
 10
-22.8537611421
 20
23.3021341081
 11
-22.8521340704
 21
23.2181747516
  0
LINE
  5
2D1
100
AcDbEntity
  8
RACCORDO
100
AcDbLine
 62
7
  6
CONTINUOUS
 10
-22.8537611421
 20
28.3021341081
 11
-22.8521340704
 21
28.2181747516
  0
LINE
  5
2D2
100
AcDbEntity
  8
ASSI
100
AcDbLine
 62
7
  6
CONTINUOUS
 10
-22.8523610226
 20
13.2310392216
 11
-22.8507342149
 21
13.1296760448
  0
LINE
  5
2D3
100
AcDbEntity
  8
ASSI
100
AcDbLine
 62
7
  6
CONTINUOUS
 10
-22.8523610226
 20
18.2310392216
 11
-22.8507342149
 21
18.1296760448
  0
LINE
  5
2D4
100
AcDbEntity
  8
ASSI
100
AcDbLine
 62
7
  6
CONTINUOUS
 10
-22.8523610226
 20
23.2310392216
 11
-22.8507342149
 21
23.1296760448
  0
LINE
  5
2D5
100
AcDbEntity
  8
ASSI
100
AcDbLine
 62
7
  6
CONTINUOUS
 10
-22.8523610226
 20
28.2310392216
 11
-22.8507342149
 21
28.1296760448
  0
LWPOLYLINE
  5
2D6
100
AcDbEntity
  8
RACCORDO
100
AcDbPolyline
 62
253
  6
CONTINUOUS
 90
10
 70
0
 10
-22.5491789551
 20
12.7707466848
 10
-22.5504104909
 20
12.8549115464
 10
-22.5517042854
 20
12.9303057646
 10
-22.5530428085
 20
12.9965673463
 10
-22.5544269685
 20
13.0533362347
 10
-22.555855857
 20
13.1002798698
 10
-22.557309219
 20
13.1371253626
 10
-22.5587803027
 20
13.1636409193
 10
-22.5602758599
 20
13.1796417508
 10
-22.5617958904
 20
13.1849959699
  0
LWPOLYLINE
  5
2D7
100
AcDbEntity
  8
ASSI
100
AcDbPolyline
 62
253
  6
CONTINUOUS
 90
10
 70
0
 10
-22.5491789551
 20
12.7707466848
 10
-22.5504104909
 20
12.8549115464
 10
-22.5517042854
 20
12.9303057646
 10
-22.5530428085
 20
12.9965673463
 10
-22.5544269685
 20
13.0533362347
 10
-22.555855857
 20
13.1002798698
 10
-22.557309219
 20
13.1371253626
 10
-22.5587803027
 20
13.1636409193
 10
-22.5602758599
 20
13.1796417508
 10
-22.5617958904
 20
13.1849959699
  0
LWPOLYLINE
  5
2D8
100
AcDbEntity
  8
RACCORDO
100
AcDbPolyline
 62
253
  6
CONTINUOUS
 90
10
 70
0
 10
-22.5491789551
 20
17.7707466848
 10
-22.5504104909
 20
17.8549115464
 10
-22.5517042854
 20
17.9303057646
 10
-22.5530428085
 20
17.9965673463
 10
-22.5544269685
 20
18.0533362347
 10
-22.555855857
 20
18.1002798698
 10
-22.557309219
 20
18.1371253626
 10
-22.5587803027
 20
18.1636409193
 10
-22.5602758599
 20
18.1796417508
 10
-22.5617958904
 20
18.1849959699
  0
LWPOLYLINE
  5
2D9
100
AcDbEntity
  8
ASSI
100
AcDbPolyline
 62
253
  6
CONTINUOUS
 90
10
 70
0
 10
-22.5491789551
 20
17.7707466848
 10
-22.5504104909
 20
17.8549115464
 10
-22.5517042854
 20
17.9303057646
 10
-22.5530428085
 20
17.9965673463
 10
-22.5544269685
 20
18.0533362347
 10
-22.555855857
 20
18.1002798698
 10
-22.557309219
 20
18.1371253626
 10
-22.5587803027
 20
18.1636409193
 10
-22.5602758599
 20
18.1796417508
 10
-22.5617958904
 20
18.1849959699
  0
LINE
  5
2DA
100
AcDbEntity
  8
RACCORDO
100
AcDbLine
 62
7
  6
CONTINUOUS
 10
-22.8521340704
 20
13.2181747516
 11
-22.8505652812
 21
13.1178685618
  0
LINE
  5
2DB
100
AcDbEntity
  8
RACCORDO
100
AcDbLine
 62
7
  6
CONTINUOUS
 10
-22.8521340704
 20
18.2181747516
 11
-22.8505652812
 21
18.1178685618
  0
LINE
  5
2DC
100
AcDbEntity
  8
RACCORDO
100
AcDbLine
 62
7
  6
CONTINUOUS
 10
-22.8521340704
 20
23.2181747516
 11
-22.8505652812
 21
23.1178685618
  0
LINE
  5
2DD
100
AcDbEntity
  8
RACCORDO
100
AcDbLine
 62
7
  6
CONTINUOUS
 10
-22.8521340704
 20
28.2181747516
 11
-22.8505652812
 21
28.1178685618
  0
LINE
  5
2DE
100
AcDbEntity
  8
ASSI
100
AcDbLine
 62
7
  6
CONTINUOUS
 10
-22.8507342149
 20
13.1296760448
 11
-22.8491295019
 21
13.0070238206
  0
LINE
  5
2DF
100
AcDbEntity
  8
ASSI
100
AcDbLine
 62
7
  6
CONTINUOUS
 10
-22.8507342149
 20
18.1296760448
 11
-22.8491295019
 21
18.0070238206
  0
LINE
  5
2E0
100
AcDbEntity
  8
ASSI
100
AcDbLine
 62
7
  6
CONTINUOUS
 10
-22.8507342149
 20
23.1296760448
 11
-22.8491295019
 21
23.0070238206
  0
LINE
  5
2E1
100
AcDbEntity
  8
ASSI
100
AcDbLine
 62
7
  6
CONTINUOUS
 10
-22.8507342149
 20
28.1296760448
 11
-22.8491295019
 21
28.0070238206
  0
LINE
  5
2E2
100
AcDbEntity
  8
RACCORDO
100
AcDbLine
 62
7
  6
CONTINUOUS
 10
-22.8505652812
 20
13.1178685618
 11
-22.8488031211
 21
12.9790945858
  0
LINE
  5
2E3
100
AcDbEntity
  8
RACCORDO
100
AcDbLine
 62
7
  6
CONTINUOUS
 10
-22.8505652812
 20
18.1178685618
 11
-22.8488031211
 21
17.9790945858
  0
LINE
  5
2E4
100
AcDbEntity
  8
RACCORDO
100
AcDbLine
 62
7
  6
CONTINUOUS
 10
-22.8505652812
 20
23.1178685618
 11
-22.8488031211
 21
22.9790945858
  0
LINE
  5
2E5
100
AcDbEntity
  8
RACCORDO
100
AcDbLine
 62
7
  6
CONTINUOUS
 10
-22.8505652812
 20
28.1178685618
 11
-22.8488031211
 21
27.9790945858
  0
LINE
  5
2E6
100
AcDbEntity
  8
RACCORDO
100
AcDbLine
 62
253
  6
CONTINUOUS
 10
-22.5469044553
 20
12.5778914005
 11
-22.5491789551
 21
12.7707466848
  0
LINE
  5
2E7
100
AcDbEntity
  8
ASSI
100
AcDbLine
 62
253
  6
CONTINUOUS
 10
-22.5469044553
 20
12.5778914005
 11
-22.5491789551
 21
12.7707466848
  0
LINE
  5
2E8
100
AcDbEntity
  8
RACCORDO
100
AcDbLine
 62
253
  6
CONTINUOUS
 10
-22.5469044553
 20
17.5778914005
 11
-22.5491789551
 21
17.7707466848
  0
LINE
  5
2E9
100
AcDbEntity
  8
ASSI
100
AcDbLine
 62
253
  6
CONTINUOUS
 10
-22.5469044553
 20
17.5778914005
 11
-22.5491789551
 21
17.7707466848
  0
LINE
  5
2EA
100
AcDbEntity
  8
RACCORDO
100
AcDbLine
 62
253
  6
CONTINUOUS
 10
-22.548888102
 20
-11.8093415974
 11
-22.553259936
 21
-11.3754891783
  0
LINE
  5
2EB
100
AcDbEntity
  8
RACCORDO
100
AcDbLine
 62
253
  6
CONTINUOUS
 10
-22.2988923327
 20
-11.5928352465
 11
-22.3039829338
 21
-11.0876537609
  0
LINE
  5
2EC
100
AcDbEntity
  8
ASSI
100
AcDbLine
 62
7
  6
CONTINUOUS
 10
-22.8491295019
 20
13.0070238206
 11
-22.8475733232
 21
12.8631338679
  0
LINE
  5
2ED
100
AcDbEntity
  8
ASSI
100
AcDbLine
 62
7
  6
CONTINUOUS
 10
-22.8491295019
 20
18.0070238206
 11
-22.8475733232
 21
17.8631338679
  0
LINE
  5
2EE
100
AcDbEntity
  8
ASSI
100
AcDbLine
 62
7
  6
CONTINUOUS
 10
-22.8491295019
 20
23.0070238206
 11
-22.8475733232
 21
22.8631338679
  0
LINE
  5
2EF
100
AcDbEntity
  8
ASSI
100
AcDbLine
 62
7
  6
CONTINUOUS
 10
-22.8491295019
 20
28.0070238206
 11
-22.8475733232
 21
27.8631338679
  0
LINE
  5
2F0
100
AcDbEntity
  8
RACCORDO
100
AcDbLine
 62
253
  6
CONTINUOUS
 10
-22.54587543
 20
22.4701093619
 11
-22.5480105758
 21
22.6782498083
  0
LINE
  5
2F1
100
AcDbEntity
  8
ASSI
100
AcDbLine
 62
253
  6
CONTINUOUS
 10
-22.54587543
 20
22.4701093619
 11
-22.5480105758
 21
22.6782498083
  0
LINE
  5
2F2
100
AcDbEntity
  8
RACCORDO
100
AcDbLine
 62
7
  6
CONTINUOUS
 10
-22.8488031211
 20
12.9790945858
 11
-22.8471120709
 21
12.8146815189
  0
LINE
  5
2F3
100
AcDbEntity
  8
RACCORDO
100
AcDbLine
 62
7
  6
CONTINUOUS
 10
-22.8488031211
 20
17.9790945858
 11
-22.8471120709
 21
17.8146815189
  0
LINE
  5
2F4
100
AcDbEntity
  8
RACCORDO
100
AcDbLine
 62
7
  6
CONTINUOUS
 10
-22.8488031211
 20
22.9790945858
 11
-22.8471120709
 21
22.8146815189
  0
LINE
  5
2F5
100
AcDbEntity
  8
RACCORDO
100
AcDbLine
 62
7
  6
CONTINUOUS
 10
-22.8488031211
 20
27.9790945858
 11
-22.8471120709
 21
27.8146815189
  0
LINE
  5
2F6
100
AcDbEntity
  8
RACCORDO
100
AcDbLine
 62
253
  6
CONTINUOUS
 10
-22.5449244572
 20
12.3554353237
 11
-22.5469044553
 21
12.5778914005
  0
LINE
  5
2F7
100
AcDbEntity
  8
ASSI
100
AcDbLine
 62
253
  6
CONTINUOUS
 10
-22.5449244572
 20
12.3554353237
 11
-22.5469044553
 21
12.5778914005
  0
LINE
  5
2F8
100
AcDbEntity
  8
RACCORDO
100
AcDbLine
 62
253
  6
CONTINUOUS
 10
-22.5449244572
 20
17.3554353237
 11
-22.5469044553
 21
17.5778914005
  0
LINE
  5
2F9
100
AcDbEntity
  8
ASSI
100
AcDbLine
 62
253
  6
CONTINUOUS
 10
-22.5449244572
 20
17.3554353237
 11
-22.5469044553
 21
17.5778914005
  0
LINE
  5
2FA
100
AcDbEntity
  8
ASSI
100
AcDbLine
 62
7
  6
CONTINUOUS
 10
-22.8475733232
 20
12.8631338679
 11
-22.8459038475
 21
12.672821607
  0
LINE
  5
2FB
100
AcDbEntity
  8
ASSI
100
AcDbLine
 62
7
  6
CONTINUOUS
 10
-22.8475733232
 20
17.8631338679
 11
-22.8459038475
 21
17.672821607
  0
LINE
  5
2FC
100
AcDbEntity
  8
ASSI
100
AcDbLine
 62
7
  6
CONTINUOUS
 10
-22.8475733232
 20
22.8631338679
 11
-22.8459038475
 21
22.672821607
  0
LINE
  5
2FD
100
AcDbEntity
  8
ASSI
100
AcDbLine
 62
7
  6
CONTINUOUS
 10
-22.8475733232
 20
27.8631338679
 11
-22.8459038475
 21
27.672821607
  0
LINE
  5
2FE
100
AcDbEntity
  8
RACCORDO
100
AcDbLine
 62
7
  6
CONTINUOUS
 10
-22.8471120709
 20
12.8146815189
 11
-22.8455347392
 21
12.6247598967
  0
LINE
  5
2FF
100
AcDbEntity
  8
RACCORDO
100
AcDbLine
 62
7
  6
CONTINUOUS
 10
-22.8471120709
 20
17.8146815189
 11
-22.8455347392
 21
17.6247598967
  0
LINE
  5
300
100
AcDbEntity
  8
RACCORDO
100
AcDbLine
 62
7
  6
CONTINUOUS
 10
-22.8471120709
 20
22.8146815189
 11
-22.8455347392
 21
22.6247598967
  0
LINE
  5
301
100
AcDbEntity
  8
RACCORDO
100
AcDbLine
 62
7
  6
CONTINUOUS
 10
-22.8471120709
 20
27.8146815189
 11
-22.8455347392
 21
27.6247598967
  0
LINE
  5
302
100
AcDbEntity
  8
RACCORDO
100
AcDbLine
 62
253
  6
CONTINUOUS
 10
-22.5440505796
 20
22.2344286955
 11
-22.54587543
 21
22.4701093619
  0
LINE
  5
303
100
AcDbEntity
  8
ASSI
100
AcDbLine
 62
253
  6
CONTINUOUS
 10
-22.5440505796
 20
22.2344286955
 11
-22.54587543
 21
22.4701093619
  0
LINE
  5
304
100
AcDbEntity
  8
ASSI
100
AcDbLine
 62
7
  6
CONTINUOUS
 10
-22.8459038475
 20
12.672821607
 11
-22.8443790459
 21
12.4556182191
  0
LINE
  5
305
100
AcDbEntity
  8
ASSI
100
AcDbLine
 62
7
  6
CONTINUOUS
 10
-22.8459038475
 20
17.672821607
 11
-22.8443790459
 21
17.4556182191
  0
LINE
  5
306
100
AcDbEntity
  8
ASSI
100
AcDbLine
 62
7
  6
CONTINUOUS
 10
-22.8459038475
 20
22.672821607
 11
-22.8443790459
 21
22.4556182191
  0
LINE
  5
307
100
AcDbEntity
  8
ASSI
100
AcDbLine
 62
7
  6
CONTINUOUS
 10
-22.8459038475
 20
27.672821607
 11
-22.8443790459
 21
27.4556182191
  0
LINE
  5
308
100
AcDbEntity
  8
RACCORDO
100
AcDbLine
 62
253
  6
CONTINUOUS
 10
-22.5432657629
 20
12.1075898298
 11
-22.5449244572
 21
12.3554353237
  0
LINE
  5
309
100
AcDbEntity
  8
ASSI
100
AcDbLine
 62
253
  6
CONTINUOUS
 10
-22.5432657629
 20
12.1075898298
 11
-22.5449244572
 21
12.3554353237
  0
LINE
  5
30A
100
AcDbEntity
  8
RACCORDO
100
AcDbLine
 62
253
  6
CONTINUOUS
 10
-22.5432657629
 20
17.1075898298
 11
-22.5449244572
 21
17.3554353237
  0
LINE
  5
30B
100
AcDbEntity
  8
ASSI
100
AcDbLine
 62
253
  6
CONTINUOUS
 10
-22.5432657629
 20
17.1075898298
 11
-22.5449244572
 21
17.3554353237
  0
LINE
  5
30C
100
AcDbEntity
  8
RACCORDO
100
AcDbLine
 62
253
  6
CONTINUOUS
 10
-22.5432657629
 20
27.1075898298
 11
-22.5449244572
 21
27.3554353237
  0
LINE
  5
30D
100
AcDbEntity
  8
ASSI
100
AcDbLine
 62
253
  6
CONTINUOUS
 10
-22.5432657629
 20
27.1075898298
 11
-22.5449244572
 21
27.3554353237
  0
LINE
  5
30E
100
AcDbEntity
  8
RACCORDO
100
AcDbLine
 62
7
  6
CONTINUOUS
 10
-22.8455347392
 20
12.6247598967
 11
-22.8441028385
 21
12.4100414613
  0
LINE
  5
30F
100
AcDbEntity
  8
RACCORDO
100
AcDbLine
 62
7
  6
CONTINUOUS
 10
-22.8455347392
 20
17.6247598967
 11
-22.8441028385
 21
17.4100414613
  0
LINE
  5
310
100
AcDbEntity
  8
RACCORDO
100
AcDbLine
 62
7
  6
CONTINUOUS
 10
-22.8455347392
 20
22.6247598967
 11
-22.8441028385
 21
22.4100414613
  0
LINE
  5
311
100
AcDbEntity
  8
RACCORDO
100
AcDbLine
 62
7
  6
CONTINUOUS
 10
-22.8455347392
 20
27.6247598967
 11
-22.8441028385
 21
27.4100414613
  0
LINE
  5
312
100
AcDbEntity
  8
RACCORDO
100
AcDbLine
 62
253
  6
CONTINUOUS
 10
-22.5425710058
 20
21.9755014114
 11
-22.5440505796
 21
22.2344286955
  0
LINE
  5
313
100
AcDbEntity
  8
ASSI
100
AcDbLine
 62
253
  6
CONTINUOUS
 10
-22.5425710058
 20
21.9755014114
 11
-22.5440505796
 21
22.2344286955
  0
LINE
  5
314
100
AcDbEntity
  8
ASSI
100
AcDbLine
 62
7
  6
CONTINUOUS
 10
-22.8443790459
 20
12.4556182191
 11
-22.8430519946
 21
12.2130835286
  0
LINE
  5
315
100
AcDbEntity
  8
ASSI
100
AcDbLine
 62
7
  6
CONTINUOUS
 10
-22.8443790459
 20
17.4556182191
 11
-22.8430519946
 21
17.2130835286
  0
LINE
  5
316
100
AcDbEntity
  8
ASSI
100
AcDbLine
 62
7
  6
CONTINUOUS
 10
-22.8443790459
 20
22.4556182191
 11
-22.8430519946
 21
22.2130835286
  0
LINE
  5
317
100
AcDbEntity
  8
ASSI
100
AcDbLine
 62
7
  6
CONTINUOUS
 10
-22.8443790459
 20
27.4556182191
 11
-22.8430519946
 21
27.2130835286
  0
LINE
  5
318
100
AcDbEntity
  8
RACCORDO
100
AcDbLine
 62
7
  6
CONTINUOUS
 10
-22.8441028385
 20
17.4100414613
 11
-22.8427166309
 21
17.1405753759
  0
LINE
  5
319
100
AcDbEntity
  8
RACCORDO
100
AcDbLine
 62
7
  6
CONTINUOUS
 10
-22.8441028385
 20
22.4100414613
 11
-22.8427166309
 21
22.1405753759
  0
LINE
  5
31A
100
AcDbEntity
  8
RACCORDO
100
AcDbLine
 62
7
  6
CONTINUOUS
 10
-22.8441028385
 20
27.4100414613
 11
-22.8427166309
 21
27.1405753759
  0
LINE
  5
31B
100
AcDbEntity
  8
RACCORDO
100
AcDbLine
 62
253
  6
CONTINUOUS
 10
-22.5419653095
 20
11.8388202425
 11
-22.5432657629
 21
12.1075898298
  0
LINE
  5
31C
100
AcDbEntity
  8
ASSI
100
AcDbLine
 62
253
  6
CONTINUOUS
 10
-22.5419653095
 20
11.8388202425
 11
-22.5432657629
 21
12.1075898298
  0
LINE
  5
31D
100
AcDbEntity
  8
RACCORDO
100
AcDbLine
 62
253
  6
CONTINUOUS
 10
-22.5419653095
 20
16.8388202425
 11
-22.5432657629
 21
17.1075898298
  0
LINE
  5
31E
100
AcDbEntity
  8
ASSI
100
AcDbLine
 62
253
  6
CONTINUOUS
 10
-22.5419653095
 20
16.8388202425
 11
-22.5432657629
 21
17.1075898298
  0
LINE
  5
31F
100
AcDbEntity
  8
RACCORDO
100
AcDbLine
 62
253
  6
CONTINUOUS
 10
-22.5419653095
 20
26.8388202425
 11
-22.5432657629
 21
27.1075898298
  0
LINE
  5
320
100
AcDbEntity
  8
ASSI
100
AcDbLine
 62
253
  6
CONTINUOUS
 10
-22.5419653095
 20
26.8388202425
 11
-22.5432657629
 21
27.1075898298
  0
LINE
  5
321
100
AcDbEntity
  8
ASSI
100
AcDbLine
 62
7
  6
CONTINUOUS
 10
-22.8430519946
 20
12.2130835286
 11
-22.8419531015
 21
11.947571705
  0
LINE
  5
322
100
AcDbEntity
  8
ASSI
100
AcDbLine
 62
7
  6
CONTINUOUS
 10
-22.8430519946
 20
17.2130835286
 11
-22.8419531015
 21
16.947571705
  0
LINE
  5
323
100
AcDbEntity
  8
ASSI
100
AcDbLine
 62
7
  6
CONTINUOUS
 10
-22.8430519946
 20
22.2130835286
 11
-22.8419531015
 21
21.947571705
  0
LINE
  5
324
100
AcDbEntity
  8
ASSI
100
AcDbLine
 62
7
  6
CONTINUOUS
 10
-22.8430519946
 20
27.2130835286
 11
-22.8419531015
 21
26.947571705
  0
LINE
  5
325
100
AcDbEntity
  8
RACCORDO
100
AcDbLine
 62
253
  6
CONTINUOUS
 10
-22.5414576434
 20
21.698182468
 11
-22.5425710058
 21
21.9755014114
  0
LINE
  5
326
100
AcDbEntity
  8
ASSI
100
AcDbLine
 62
253
  6
CONTINUOUS
 10
-22.5414576434
 20
21.698182468
 11
-22.5425710058
 21
21.9755014114
  0
LINE
  5
327
100
AcDbEntity
  8
RACCORDO
100
AcDbLine
 62
7
  6
CONTINUOUS
 10
-22.8441028385
 20
12.4100414613
 11
-22.8417229856
 21
11.8785924077
  0
LINE
  5
328
100
AcDbEntity
  8
RACCORDO
100
AcDbLine
 62
7
  6
CONTINUOUS
 10
-22.8427166309
 20
17.1405753759
 11
-22.8417229856
 21
16.8785924077
  0
LINE
  5
329
100
AcDbEntity
  8
RACCORDO
100
AcDbLine
 62
7
  6
CONTINUOUS
 10
-22.8427166309
 20
22.1405753759
 11
-22.8417229856
 21
21.8785924077
  0
LINE
  5
32A
100
AcDbEntity
  8
RACCORDO
100
AcDbLine
 62
7
  6
CONTINUOUS
 10
-22.8427166309
 20
27.1405753759
 11
-22.8417229856
 21
26.8785924077
  0
LINE
  5
32B
100
AcDbEntity
  8
RACCORDO
100
AcDbLine
 62
253
  6
CONTINUOUS
 10
-22.5410493671
 20
11.5542532355
 11
-22.5419653095
 21
11.8388202425
  0
LINE
  5
32C
100
AcDbEntity
  8
ASSI
100
AcDbLine
 62
253
  6
CONTINUOUS
 10
-22.5410493671
 20
11.5542532355
 11
-22.5419653095
 21
11.8388202425
  0
LINE
  5
32D
100
AcDbEntity
  8
RACCORDO
100
AcDbLine
 62
253
  6
CONTINUOUS
 10
-22.5410493671
 20
16.5542532355
 11
-22.5419653095
 21
16.8388202425
  0
LINE
  5
32E
100
AcDbEntity
  8
ASSI
100
AcDbLine
 62
253
  6
CONTINUOUS
 10
-22.5410493671
 20
16.5542532355
 11
-22.5419653095
 21
16.8388202425
  0
LINE
  5
32F
100
AcDbEntity
  8
RACCORDO
100
AcDbLine
 62
253
  6
CONTINUOUS
 10
-22.5410493671
 20
26.5542532355
 11
-22.5419653095
 21
26.8388202425
  0
LINE
  5
330
100
AcDbEntity
  8
ASSI
100
AcDbLine
 62
253
  6
CONTINUOUS
 10
-22.5410493671
 20
26.5542532355
 11
-22.5419653095
 21
26.8388202425
  0
LINE
  5
331
100
AcDbEntity
  8
ASSI
100
AcDbLine
 62
7
  6
CONTINUOUS
 10
-22.8419531015
 20
11.947571705
 11
-22.8411268309
 21
11.6623654603
  0
LINE
  5
332
100
AcDbEntity
  8
ASSI
100
AcDbLine
 62
7
  6
CONTINUOUS
 10
-22.8419531015
 20
16.947571705
 11
-22.8410436867
 21
16.6255664177
  0
LINE
  5
333
100
AcDbEntity
  8
ASSI
100
AcDbLine
 62
7
  6
CONTINUOUS
 10
-22.8419531015
 20
21.947571705
 11
-22.8410436867
 21
21.6255664177
  0
LINE
  5
334
100
AcDbEntity
  8
ASSI
100
AcDbLine
 62
7
  6
CONTINUOUS
 10
-22.8419531015
 20
26.947571705
 11
-22.8410436867
 21
26.6255664177
  0
LINE
  5
335
100
AcDbEntity
  8
RACCORDO
100
AcDbLine
 62
7
  6
CONTINUOUS
 10
-22.8417229856
 20
11.8785924077
 11
-22.8409862993
 21
11.5986357453
  0
LINE
  5
336
100
AcDbEntity
  8
RACCORDO
100
AcDbLine
 62
7
  6
CONTINUOUS
 10
-22.8417229856
 20
16.8785924077
 11
-22.8409862993
 21
16.5986357453
  0
LINE
  5
337
100
AcDbEntity
  8
RACCORDO
100
AcDbLine
 62
7
  6
CONTINUOUS
 10
-22.8417229856
 20
21.8785924077
 11
-22.8409862993
 21
21.5986357453
  0
LINE
  5
338
100
AcDbEntity
  8
RACCORDO
100
AcDbLine
 62
7
  6
CONTINUOUS
 10
-22.8417229856
 20
26.8785924077
 11
-22.8409862993
 21
26.5986357453
  0
LINE
  5
339
100
AcDbEntity
  8
RACCORDO
100
AcDbLine
 62
253
  6
CONTINUOUS
 10
-22.5407391209
 20
21.407736833
 11
-22.5414576434
 21
21.698182468
  0
LINE
  5
33A
100
AcDbEntity
  8
ASSI
100
AcDbLine
 62
253
  6
CONTINUOUS
 10
-22.5407391209
 20
21.407736833
 11
-22.5414576434
 21
21.698182468
  0
LINE
  5
33B
100
AcDbEntity
  8
RACCORDO
100
AcDbLine
 62
253
  6
CONTINUOUS
 10
-22.5405317949
 20
11.259352927
 11
-22.5410493671
 21
11.5542532355
  0
LINE
  5
33C
100
AcDbEntity
  8
ASSI
100
AcDbLine
 62
253
  6
CONTINUOUS
 10
-22.5405317949
 20
11.259352927
 11
-22.5410493671
 21
11.5542532355
  0
LINE
  5
33D
100
AcDbEntity
  8
RACCORDO
100
AcDbLine
 62
253
  6
CONTINUOUS
 10
-22.5405317949
 20
16.259352927
 11
-22.5410493671
 21
16.5542532355
  0
LINE
  5
33E
100
AcDbEntity
  8
ASSI
100
AcDbLine
 62
253
  6
CONTINUOUS
 10
-22.5405317949
 20
16.259352927
 11
-22.5410493671
 21
16.5542532355
  0
LINE
  5
33F
100
AcDbEntity
  8
RACCORDO
100
AcDbLine
 62
253
  6
CONTINUOUS
 10
-22.5405317949
 20
26.259352927
 11
-22.5410493671
 21
26.5542532355
  0
LINE
  5
340
100
AcDbEntity
  8
ASSI
100
AcDbLine
 62
253
  6
CONTINUOUS
 10
-22.5405317949
 20
26.259352927
 11
-22.5410493671
 21
26.5542532355
  0
LINE
  5
341
100
AcDbEntity
  8
ASSI
100
AcDbLine
 62
7
  6
CONTINUOUS
 10
-22.8411268309
 20
11.6623654603
 11
-22.8406066906
 21
11.3628915737
  0
LINE
  5
342
100
AcDbEntity
  8
RACCORDO
100
AcDbLine
 62
7
  6
CONTINUOUS
 10
-22.8409862993
 20
11.5986357453
 11
-22.8405465437
 21
11.3062619038
  0
LINE
  5
343
100
AcDbEntity
  8
ASSI
100
AcDbLine
 62
7
  6
CONTINUOUS
 10
-22.8410436867
 20
16.6255664177
 11
-22.8405650289
 21
16.3248191822
  0
LINE
  5
344
100
AcDbEntity
  8
ASSI
100
AcDbLine
 62
7
  6
CONTINUOUS
 10
-22.8410436867
 20
21.6255664177
 11
-22.8405650289
 21
21.3248191822
  0
LINE
  5
345
100
AcDbEntity
  8
ASSI
100
AcDbLine
 62
7
  6
CONTINUOUS
 10
-22.8410436867
 20
26.6255664177
 11
-22.8405650289
 21
26.3248191822
  0
LINE
  5
346
100
AcDbEntity
  8
RACCORDO
100
AcDbLine
 62
7
  6
CONTINUOUS
 10
-22.8409862993
 20
16.5986357453
 11
-22.8405130562
 21
16.2691899518
  0
LINE
  5
347
100
AcDbEntity
  8
RACCORDO
100
AcDbLine
 62
7
  6
CONTINUOUS
 10
-22.8409862993
 20
21.5986357453
 11
-22.8405130562
 21
21.2691899518
  0
LINE
  5
348
100
AcDbEntity
  8
RACCORDO
100
AcDbLine
 62
7
  6
CONTINUOUS
 10
-22.8409862993
 20
26.5986357453
 11
-22.8405130562
 21
26.2691899518
  0
LINE
  5
349
100
AcDbEntity
  8
RACCORDO
100
AcDbLine
 62
253
  6
CONTINUOUS
 10
-22.5404290152
 20
21.1097866938
 11
-22.5407391209
 21
21.407736833
  0
LINE
  5
34A
100
AcDbEntity
  8
ASSI
100
AcDbLine
 62
253
  6
CONTINUOUS
 10
-22.5404290152
 20
21.1097866938
 11
-22.5407391209
 21
21.407736833
  0
LINE
  5
34B
100
AcDbEntity
  8
ASSI
100
AcDbLine
 62
7
  6
CONTINUOUS
 10
-22.8406066906
 20
11.3628915737
 11
-22.8404127877
 21
11.0567286283
  0
LINE
  5
34C
100
AcDbEntity
  8
0
100
AcDbLine
 62
7
  6
CONTINUOUS
 10
-23.053259936
 20
29.7066950186
 11
-23.053259936
 21
-5.6367030788
  0
LINE
  5
34D
100
AcDbEntity
  8
RACCORDO
100
AcDbLine
 62
7
  6
CONTINUOUS
 10
-23.053259936
 20
33.9661815258
 11
-23.053259936
 21
-9.896189586
  0
LINE
  5
34E
100
AcDbEntity
  8
0
100
AcDbLine
 62
7
  6
CONTINUOUS
 10
-22.9310744815
 20
29.6560841462
 11
-22.9310744815
 21
-5.5860922064
  0
LINE
  5
34F
100
AcDbEntity
  8
RACCORDO
100
AcDbLine
 62
7
  6
CONTINUOUS
 10
-22.9310744815
 20
29.6560841462
 11
-22.9310744815
 21
-5.5860922064
  0
LINE
  5
350
100
AcDbEntity
  8
RACCORDO
100
AcDbLine
 62
7
  6
CONTINUOUS
 10
-22.9163502376
 20
28.62622036
 11
-22.9163502376
 21
28.4849959699
  0
LINE
  5
351
100
AcDbEntity
  8
ASSI
100
AcDbLine
 62
7
  6
CONTINUOUS
 10
-22.9163502376
 20
28.62622036
 11
-22.9163502376
 21
28.4849959699
  0
LINE
  5
352
100
AcDbEntity
  8
RACCORDO
100
AcDbLine
 62
7
  6
CONTINUOUS
 10
-22.9163502376
 20
23.5849959699
 11
-22.9163502376
 21
23.4849959699
  0
LINE
  5
353
100
AcDbEntity
  8
ASSI
100
AcDbLine
 62
7
  6
CONTINUOUS
 10
-22.9163502376
 20
23.5849959699
 11
-22.9163502376
 21
23.4849959699
  0
LINE
  5
354
100
AcDbEntity
  8
RACCORDO
100
AcDbLine
 62
7
  6
CONTINUOUS
 10
-22.9163502376
 20
18.5849959699
 11
-22.9163502376
 21
18.4849959699
  0
LINE
  5
355
100
AcDbEntity
  8
ASSI
100
AcDbLine
 62
7
  6
CONTINUOUS
 10
-22.9163502376
 20
18.5849959699
 11
-22.9163502376
 21
18.4849959699
  0
LINE
  5
356
100
AcDbEntity
  8
RACCORDO
100
AcDbLine
 62
7
  6
CONTINUOUS
 10
-22.9163502376
 20
13.5849959699
 11
-22.9163502376
 21
13.4849959699
  0
LINE
  5
357
100
AcDbEntity
  8
ASSI
100
AcDbLine
 62
7
  6
CONTINUOUS
 10
-22.9163502376
 20
13.5849959699
 11
-22.9163502376
 21
13.4849959699
  0
LINE
  5
358
100
AcDbEntity
  8
RACCORDO
100
AcDbLine
 62
7
  6
CONTINUOUS
 10
-22.9163502376
 20
8.5849959699
 11
-22.9163502376
 21
-4.5562284202
  0
LINE
  5
359
100
AcDbEntity
  8
ASSI
100
AcDbLine
 62
7
  6
CONTINUOUS
 10
-22.9163502376
 20
8.5849959699
 11
-22.9163502376
 21
-4.5562284202
  0
LINE
  5
35A
100
AcDbEntity
  8
ASSI
100
AcDbLine
 62
7
  6
CONTINUOUS
 10
-22.903259936
 20
28.3982238649
 11
-22.903259936
 21
23.6717680749
  0
LINE
  5
35B
100
AcDbEntity
  8
ASSI
100
AcDbLine
 62
7
  6
CONTINUOUS
 10
-22.903259936
 20
23.3982238649
 11
-22.903259936
 21
18.6717680749
  0
LINE
  5
35C
100
AcDbEntity
  8
ASSI
100
AcDbLine
 62
7
  6
CONTINUOUS
 10
-22.903259936
 20
18.3982238649
 11
-22.903259936
 21
13.6717680749
  0
LINE
  5
35D
100
AcDbEntity
  8
ASSI
100
AcDbLine
 62
7
  6
CONTINUOUS
 10
-22.903259936
 20
13.3982238649
 11
-22.903259936
 21
8.6717680749
  0
LINE
  5
35E
100
AcDbEntity
  8
RACCORDO
100
AcDbLine
 62
7
  6
CONTINUOUS
 10
-22.8405465437
 20
11.3062619038
 11
-22.8404130395
 21
11.008659537
  0
LINE
  5
35F
100
AcDbEntity
  8
ASSI
100
AcDbLine
 62
7
  6
CONTINUOUS
 10
-22.8405650289
 20
16.3248191822
 11
-22.8404122883
 21
16.0183922888
  0
LINE
  5
360
100
AcDbEntity
  8
ASSI
100
AcDbLine
 62
7
  6
CONTINUOUS
 10
-22.8405650289
 20
21.3248191822
 11
-22.8404122883
 21
21.0183922888
  0
LINE
  5
361
100
AcDbEntity
  8
ASSI
100
AcDbLine
 62
7
  6
CONTINUOUS
 10
-22.8405650289
 20
26.3248191822
 11
-22.8404122883
 21
26.0183922888
  0
LINE
  5
362
100
AcDbEntity
  8
RACCORDO
100
AcDbLine
 62
7
  6
CONTINUOUS
 10
-22.553259936
 20
-12.2150082609
 11
-22.553259936
 21
-10.3650040301
  0
LINE
  5
363
100
AcDbEntity
  8
RACCORDO
100
AcDbLine
 62
7
  6
CONTINUOUS
 10
-22.553259936
 20
34.4349959699
 11
-22.553259936
 21
36.2850002007
  0
LINE
  5
364
100
AcDbEntity
  8
RACCORDO
100
AcDbLine
 62
253
  6
CONTINUOUS
 10
-22.548888102
 20
36.2806283667
 11
-22.548888102
 21
35.8793335372
  0
LINE
  5
365
100
AcDbEntity
  8
RACCORDO
100
AcDbLine
 62
253
  6
CONTINUOUS
 10
-22.548888102
 20
-11.8093415974
 11
-22.548888102
 21
-12.2106364269
  0
LINE
  5
366
100
AcDbEntity
  8
RACCORDO
100
AcDbLine
 62
253
  6
CONTINUOUS
 10
-22.5404291557
 20
25.9597979276
 11
-22.5405317949
 21
26.259352927
  0
LINE
  5
367
100
AcDbEntity
  8
ASSI
100
AcDbLine
 62
253
  6
CONTINUOUS
 10
-22.5404291557
 20
25.9597979276
 11
-22.5405317949
 21
26.259352927
  0
LINE
  5
368
100
AcDbEntity
  8
RACCORDO
100
AcDbLine
 62
253
  6
CONTINUOUS
 10
-22.5404291557
 20
15.9597979276
 11
-22.5405317949
 21
16.259352927
  0
LINE
  5
369
100
AcDbEntity
  8
ASSI
100
AcDbLine
 62
253
  6
CONTINUOUS
 10
-22.5404291557
 20
15.9597979276
 11
-22.5405317949
 21
16.259352927
  0
LINE
  5
36A
100
AcDbEntity
  8
RACCORDO
100
AcDbLine
 62
253
  6
CONTINUOUS
 10
-22.5404291557
 20
10.9597979276
 11
-22.5405317949
 21
11.259352927
  0
LINE
  5
36B
100
AcDbEntity
  8
ASSI
100
AcDbLine
 62
253
  6
CONTINUOUS
 10
-22.5404291557
 20
10.9597979276
 11
-22.5405317949
 21
11.259352927
  0
LINE
  5
36C
100
AcDbEntity
  8
RACCORDO
100
AcDbLine
 62
7
  6
CONTINUOUS
 10
-22.8405130562
 20
26.2691899518
 11
-22.8404191842
 21
25.9714701066
  0
LINE
  5
36D
100
AcDbEntity
  8
RACCORDO
100
AcDbLine
 62
7
  6
CONTINUOUS
 10
-22.8405130562
 20
21.2691899518
 11
-22.8404191842
 21
20.9714701066
  0
LINE
  5
36E
100
AcDbEntity
  8
RACCORDO
100
AcDbLine
 62
7
  6
CONTINUOUS
 10
-22.8405130562
 20
16.2691899518
 11
-22.8404191842
 21
15.9714701066
  0
LINE
  5
36F
100
AcDbEntity
  8
RACCORDO
100
AcDbLine
 62
253
  6
CONTINUOUS
 10
-22.5405322279
 20
20.8102291816
 11
-22.5404290152
 21
21.1097866938
  0
LINE
  5
370
100
AcDbEntity
  8
ASSI
100
AcDbLine
 62
253
  6
CONTINUOUS
 10
-22.5405322279
 20
20.8102291816
 11
-22.5404290152
 21
21.1097866938
  0
LINE
  5
371
100
AcDbEntity
  8
ASSI
100
AcDbLine
 62
7
  6
CONTINUOUS
 10
-22.8404127877
 20
11.0567286283
 11
-22.8405583641
 21
10.7519673068
  0
LINE
  5
372
100
AcDbEntity
  8
RACCORDO
100
AcDbLine
 62
7
  6
CONTINUOUS
 10
-22.8404130395
 20
11.008659537
 11
-22.8406000112
 21
10.7133842889
  0
LINE
  5
373
100
AcDbEntity
  8
RACCORDO
100
AcDbLine
 62
7
  6
CONTINUOUS
 10
-22.8404191842
 20
25.9714701066
 11
-22.8406439572
 21
25.6770133421
  0
LINE
  5
374
100
AcDbEntity
  8
ASSI
100
AcDbLine
 62
7
  6
CONTINUOUS
 10
-22.8404122883
 20
26.0183922888
 11
-22.8406440444
 21
25.6769448335
  0
LINE
  5
375
100
AcDbEntity
  8
RACCORDO
100
AcDbLine
 62
7
  6
CONTINUOUS
 10
-22.8404191842
 20
20.9714701066
 11
-22.8406439572
 21
20.6770133421
  0
LINE
  5
376
100
AcDbEntity
  8
ASSI
100
AcDbLine
 62
7
  6
CONTINUOUS
 10
-22.8404122883
 20
21.0183922888
 11
-22.8406440444
 21
20.6769448335
  0
LINE
  5
377
100
AcDbEntity
  8
ASSI
100
AcDbLine
 62
7
  6
CONTINUOUS
 10
-22.8404122883
 20
16.0183922888
 11
-22.8406440444
 21
15.6769448335
  0
LINE
  5
378
100
AcDbEntity
  8
RACCORDO
100
AcDbLine
 62
253
  6
CONTINUOUS
 10
-22.5407398663
 20
25.6618388173
 11
-22.5404291557
 21
25.9597979276
  0
LINE
  5
379
100
AcDbEntity
  8
ASSI
100
AcDbLine
 62
253
  6
CONTINUOUS
 10
-22.5407398663
 20
25.6618388173
 11
-22.5404291557
 21
25.9597979276
  0
LINE
  5
37A
100
AcDbEntity
  8
RACCORDO
100
AcDbLine
 62
253
  6
CONTINUOUS
 10
-22.5407398663
 20
15.6618388173
 11
-22.5404291557
 21
15.9597979276
  0
LINE
  5
37B
100
AcDbEntity
  8
ASSI
100
AcDbLine
 62
253
  6
CONTINUOUS
 10
-22.5407398663
 20
15.6618388173
 11
-22.5404291557
 21
15.9597979276
  0
LINE
  5
37C
100
AcDbEntity
  8
RACCORDO
100
AcDbLine
 62
253
  6
CONTINUOUS
 10
-22.5407398663
 20
10.6618388173
 11
-22.5404291557
 21
10.9597979276
  0
LINE
  5
37D
100
AcDbEntity
  8
ASSI
100
AcDbLine
 62
253
  6
CONTINUOUS
 10
-22.5407398663
 20
10.6618388173
 11
-22.5404291557
 21
10.9597979276
  0
LINE
  5
37E
100
AcDbEntity
  8
ASSI
100
AcDbLine
 62
7
  6
CONTINUOUS
 10
-22.8405583641
 20
10.7519673068
 11
-22.8410170821
 21
10.4565641195
  0
LINE
  5
37F
100
AcDbEntity
  8
RACCORDO
100
AcDbLine
 62
253
  6
CONTINUOUS
 10
-22.5410504364
 20
20.5153138474
 11
-22.5405322279
 21
20.8102291816
  0
LINE
  5
380
100
AcDbEntity
  8
ASSI
100
AcDbLine
 62
253
  6
CONTINUOUS
 10
-22.5410504364
 20
20.5153138474
 11
-22.5405322279
 21
20.8102291816
  0
LINE
  5
381
100
AcDbEntity
  8
RACCORDO
100
AcDbLine
 62
7
  6
CONTINUOUS
 10
-22.8406000112
 20
10.7133842889
 11
-22.8410800462
 21
10.427799775
  0
LINE
  5
382
100
AcDbEntity
  8
ASSI
100
AcDbLine
 62
7
  6
CONTINUOUS
 10
-22.8406440444
 20
25.6769448335
 11
-22.8411798845
 21
25.3850404865
  0
LINE
  5
383
100
AcDbEntity
  8
RACCORDO
100
AcDbLine
 62
7
  6
CONTINUOUS
 10
-22.8406439572
 20
25.6770133421
 11
-22.8411604487
 21
25.3931198923
  0
LINE
  5
384
100
AcDbEntity
  8
ASSI
100
AcDbLine
 62
7
  6
CONTINUOUS
 10
-22.8406440444
 20
20.6769448335
 11
-22.8411798845
 21
20.3850404865
  0
LINE
  5
385
100
AcDbEntity
  8
RACCORDO
100
AcDbLine
 62
7
  6
CONTINUOUS
 10
-22.8406439572
 20
20.6770133421
 11
-22.8411604487
 21
20.3931198923
  0
LINE
  5
386
100
AcDbEntity
  8
ASSI
100
AcDbLine
 62
7
  6
CONTINUOUS
 10
-22.8406440444
 20
15.6769448335
 11
-22.8411798845
 21
15.3850404865
  0
LINE
  5
387
100
AcDbEntity
  8
RACCORDO
100
AcDbLine
 62
7
  6
CONTINUOUS
 10
-22.8404191842
 20
15.9714701066
 11
-22.8411604487
 21
15.3931198923
  0
LINE
  5
388
100
AcDbEntity
  8
RACCORDO
100
AcDbLine
 62
253
  6
CONTINUOUS
 10
-22.541459046
 20
25.3713788103
 11
-22.5407398663
 21
25.6618388173
  0
LINE
  5
389
100
AcDbEntity
  8
ASSI
100
AcDbLine
 62
253
  6
CONTINUOUS
 10
-22.541459046
 20
25.3713788103
 11
-22.5407398663
 21
25.6618388173
  0
LINE
  5
38A
100
AcDbEntity
  8
RACCORDO
100
AcDbLine
 62
253
  6
CONTINUOUS
 10
-22.541459046
 20
15.3713788103
 11
-22.5407398663
 21
15.6618388173
  0
LINE
  5
38B
100
AcDbEntity
  8
ASSI
100
AcDbLine
 62
253
  6
CONTINUOUS
 10
-22.541459046
 20
15.3713788103
 11
-22.5407398663
 21
15.6618388173
  0
LINE
  5
38C
100
AcDbEntity
  8
RACCORDO
100
AcDbLine
 62
253
  6
CONTINUOUS
 10
-22.541459046
 20
10.3713788103
 11
-22.5407398663
 21
10.6618388173
  0
LINE
  5
38D
100
AcDbEntity
  8
ASSI
100
AcDbLine
 62
253
  6
CONTINUOUS
 10
-22.541459046
 20
10.3713788103
 11
-22.5407398663
 21
10.6618388173
  0
LINE
  5
38E
100
AcDbEntity
  8
ASSI
100
AcDbLine
 62
7
  6
CONTINUOUS
 10
-22.8410170821
 20
10.4565641195
 11
-22.8417676051
 21
10.1777210671
  0
LINE
  5
38F
100
AcDbEntity
  8
RACCORDO
100
AcDbLine
 62
7
  6
CONTINUOUS
 10
-22.8410800462
 20
10.427799775
 11
-22.8418307227
 21
10.1585198211
  0
LINE
  5
390
100
AcDbEntity
  8
ASSI
100
AcDbLine
 62
7
  6
CONTINUOUS
 10
-22.8411798845
 20
25.3850404865
 11
-22.8419929226
 21
25.1112619862
  0
LINE
  5
391
100
AcDbEntity
  8
RACCORDO
100
AcDbLine
 62
7
  6
CONTINUOUS
 10
-22.8411604487
 20
25.3931198923
 11
-22.8419403691
 21
25.126259487
  0
LINE
  5
392
100
AcDbEntity
  8
ASSI
100
AcDbLine
 62
7
  6
CONTINUOUS
 10
-22.8411798845
 20
20.3850404865
 11
-22.8419929226
 21
20.1112619862
  0
LINE
  5
393
100
AcDbEntity
  8
RACCORDO
100
AcDbLine
 62
7
  6
CONTINUOUS
 10
-22.8411604487
 20
20.3931198923
 11
-22.8419403691
 21
20.126259487
  0
LINE
  5
394
100
AcDbEntity
  8
RACCORDO
100
AcDbLine
 62
7
  6
CONTINUOUS
 10
-22.8411604487
 20
15.3931198923
 11
-22.8421701581
 21
15.0627160748
  0
LINE
  5
395
100
AcDbEntity
  8
RACCORDO
100
AcDbLine
 62
253
  6
CONTINUOUS
 10
-22.5419670645
 20
20.2307385112
 11
-22.5410504364
 21
20.5153138474
  0
LINE
  5
396
100
AcDbEntity
  8
ASSI
100
AcDbLine
 62
253
  6
CONTINUOUS
 10
-22.5419670645
 20
20.2307385112
 11
-22.5410504364
 21
20.5153138474
  0
LINE
  5
397
100
AcDbEntity
  8
ASSI
100
AcDbLine
 62
7
  6
CONTINUOUS
 10
-22.8411798845
 20
15.3850404865
 11
-22.8427571906
 21
14.9201934134
  0
LINE
  5
398
100
AcDbEntity
  8
ASSI
100
AcDbLine
 62
7
  6
CONTINUOUS
 10
-22.8417676051
 20
10.1777210671
 11
-22.8427571906
 21
9.9201934134
  0
LINE
  5
399
100
AcDbEntity
  8
RACCORDO
100
AcDbLine
 62
7
  6
CONTINUOUS
 10
-22.8418307227
 20
10.1585198211
 11
-22.8428047737
 21
9.9096428933
  0
LINE
  5
39A
100
AcDbEntity
  8
RACCORDO
100
AcDbLine
 62
253
  6
CONTINUOUS
 10
-22.5425731227
 20
25.0940578398
 11
-22.541459046
 21
25.3713788103
  0
LINE
  5
39B
100
AcDbEntity
  8
ASSI
100
AcDbLine
 62
253
  6
CONTINUOUS
 10
-22.5425731227
 20
25.0940578398
 11
-22.541459046
 21
25.3713788103
  0
LINE
  5
39C
100
AcDbEntity
  8
RACCORDO
100
AcDbLine
 62
253
  6
CONTINUOUS
 10
-22.5425731227
 20
15.0940578398
 11
-22.541459046
 21
15.3713788103
  0
LINE
  5
39D
100
AcDbEntity
  8
ASSI
100
AcDbLine
 62
253
  6
CONTINUOUS
 10
-22.5425731227
 20
15.0940578398
 11
-22.541459046
 21
15.3713788103
  0
LINE
  5
39E
100
AcDbEntity
  8
RACCORDO
100
AcDbLine
 62
253
  6
CONTINUOUS
 10
-22.5425731227
 20
10.0940578398
 11
-22.541459046
 21
10.3713788103
  0
LINE
  5
39F
100
AcDbEntity
  8
ASSI
100
AcDbLine
 62
253
  6
CONTINUOUS
 10
-22.5425731227
 20
10.0940578398
 11
-22.541459046
 21
10.3713788103
  0
LINE
  5
3A0
100
AcDbEntity
  8
ASSI
100
AcDbLine
 62
7
  6
CONTINUOUS
 10
-22.8419929226
 20
25.1112619862
 11
-22.843039718
 21
24.8593293455
  0
LINE
  5
3A1
100
AcDbEntity
  8
RACCORDO
100
AcDbLine
 62
7
  6
CONTINUOUS
 10
-22.8419403691
 20
25.126259487
 11
-22.8429414253
 21
24.8800337347
  0
LINE
  5
3A2
100
AcDbEntity
  8
ASSI
100
AcDbLine
 62
7
  6
CONTINUOUS
 10
-22.8419929226
 20
20.1112619862
 11
-22.843039718
 21
19.8593293455
  0
LINE
  5
3A3
100
AcDbEntity
  8
RACCORDO
100
AcDbLine
 62
7
  6
CONTINUOUS
 10
-22.8419403691
 20
20.126259487
 11
-22.8429414253
 21
19.8800337347
  0
LINE
  5
3A4
100
AcDbEntity
  8
RACCORDO
100
AcDbLine
 62
253
  6
CONTINUOUS
 10
-22.5432682201
 20
19.9619761134
 11
-22.5419670645
 21
20.2307385112
  0
LINE
  5
3A5
100
AcDbEntity
  8
ASSI
100
AcDbLine
 62
253
  6
CONTINUOUS
 10
-22.5432682201
 20
19.9619761134
 11
-22.5419670645
 21
20.2307385112
  0
LINE
  5
3A6
100
AcDbEntity
  8
ASSI
100
AcDbLine
 62
7
  6
CONTINUOUS
 10
-22.8427571906
 20
14.9201934134
 11
-22.8439551551
 21
14.6854070115
  0
LINE
  5
3A7
100
AcDbEntity
  8
ASSI
100
AcDbLine
 62
7
  6
CONTINUOUS
 10
-22.8427571906
 20
9.9201934134
 11
-22.8439551551
 21
9.6854070115
  0
LINE
  5
3A8
100
AcDbEntity
  8
RACCORDO
100
AcDbLine
 62
7
  6
CONTINUOUS
 10
-22.8428047737
 20
9.9096428933
 11
-22.8441300011
 21
9.6554705311
  0
LINE
  5
3A9
100
AcDbEntity
  8
RACCORDO
100
AcDbLine
 62
7
  6
CONTINUOUS
 10
-22.8429414253
 20
24.8800337347
 11
-22.844289674
 21
24.6289515589
  0
LINE
  5
3AA
100
AcDbEntity
  8
ASSI
100
AcDbLine
 62
7
  6
CONTINUOUS
 10
-22.843039718
 20
24.8593293455
 11
-22.8442811226
 21
24.6303525699
  0
LINE
  5
3AB
100
AcDbEntity
  8
RACCORDO
100
AcDbLine
 62
7
  6
CONTINUOUS
 10
-22.8429414253
 20
19.8800337347
 11
-22.844289674
 21
19.6289515589
  0
LINE
  5
3AC
100
AcDbEntity
  8
ASSI
100
AcDbLine
 62
7
  6
CONTINUOUS
 10
-22.843039718
 20
19.8593293455
 11
-22.8442811226
 21
19.6303525699
  0
LINE
  5
3AD
100
AcDbEntity
  8
RACCORDO
100
AcDbLine
 62
253
  6
CONTINUOUS
 10
-22.5440533629
 20
24.8351497648
 11
-22.5425731227
 21
25.0940578398
  0
LINE
  5
3AE
100
AcDbEntity
  8
ASSI
100
AcDbLine
 62
253
  6
CONTINUOUS
 10
-22.5440533629
 20
24.8351497648
 11
-22.5425731227
 21
25.0940578398
  0
LINE
  5
3AF
100
AcDbEntity
  8
RACCORDO
100
AcDbLine
 62
253
  6
CONTINUOUS
 10
-22.5440533629
 20
14.8351497648
 11
-22.5425731227
 21
15.0940578398
  0
LINE
  5
3B0
100
AcDbEntity
  8
ASSI
100
AcDbLine
 62
253
  6
CONTINUOUS
 10
-22.5440533629
 20
14.8351497648
 11
-22.5425731227
 21
15.0940578398
  0
LINE
  5
3B1
100
AcDbEntity
  8
RACCORDO
100
AcDbLine
 62
253
  6
CONTINUOUS
 10
-22.5440533629
 20
9.8351497648
 11
-22.5425731227
 21
10.0940578398
  0
LINE
  5
3B2
100
AcDbEntity
  8
ASSI
100
AcDbLine
 62
253
  6
CONTINUOUS
 10
-22.5440533629
 20
9.8351497648
 11
-22.5425731227
 21
10.0940578398
  0
LINE
  5
3B3
100
AcDbEntity
  8
RACCORDO
100
AcDbLine
 62
7
  6
CONTINUOUS
 10
-22.8421701581
 20
15.0627160748
 11
-22.8449533023
 21
14.5263427388
  0
LINE
  5
3B4
100
AcDbEntity
  8
ASSI
100
AcDbLine
 62
7
  6
CONTINUOUS
 10
-22.8439551551
 20
14.6854070115
 11
-22.8453221047
 21
14.4739973493
  0
LINE
  5
3B5
100
AcDbEntity
  8
ASSI
100
AcDbLine
 62
7
  6
CONTINUOUS
 10
-22.8439551551
 20
9.6854070115
 11
-22.8453221047
 21
9.4739973493
  0
LINE
  5
3B6
100
AcDbEntity
  8
RACCORDO
100
AcDbLine
 62
7
  6
CONTINUOUS
 10
-22.8441300011
 20
9.6554705311
 11
-22.8454759403
 21
9.4530285364
  0
LINE
  5
3B7
100
AcDbEntity
  8
RACCORDO
100
AcDbLine
 62
253
  6
CONTINUOUS
 10
-22.5449275451
 20
19.7141611195
 11
-22.5432682201
 21
19.9619761134
  0
LINE
  5
3B8
100
AcDbEntity
  8
ASSI
100
AcDbLine
 62
253
  6
CONTINUOUS
 10
-22.5449275451
 20
19.7141611195
 11
-22.5432682201
 21
19.9619761134
  0
LINE
  5
3B9
100
AcDbEntity
  8
RACCORDO
100
AcDbLine
 62
7
  6
CONTINUOUS
 10
-22.844289674
 20
24.6289515589
 11
-22.8456544616
 21
24.4292852589
  0
LINE
  5
3BA
100
AcDbEntity
  8
RACCORDO
100
AcDbLine
 62
7
  6
CONTINUOUS
 10
-22.844289674
 20
19.6289515589
 11
-22.8456544616
 21
19.4292852589
  0
LINE
  5
3BB
100
AcDbEntity
  8
ASSI
100
AcDbLine
 62
7
  6
CONTINUOUS
 10
-22.8442811226
 20
24.6303525699
 11
-22.8456885498
 21
24.4248207496
  0
LINE
  5
3BC
100
AcDbEntity
  8
ASSI
100
AcDbLine
 62
7
  6
CONTINUOUS
 10
-22.8442811226
 20
19.6303525699
 11
-22.8456885498
 21
19.4248207496
  0
LINE
  5
3BD
100
AcDbEntity
  8
RACCORDO
100
AcDbLine
 62
7
  6
CONTINUOUS
 10
-22.8449533023
 20
14.5263427388
 11
-22.8463868896
 21
14.3377759116
  0
LINE
  5
3BE
100
AcDbEntity
  8
RACCORDO
100
AcDbLine
 62
253
  6
CONTINUOUS
 10
-22.5458787477
 20
24.5995128038
 11
-22.5440533629
 21
24.8351497648
  0
LINE
  5
3BF
100
AcDbEntity
  8
ASSI
100
AcDbLine
 62
253
  6
CONTINUOUS
 10
-22.5458787477
 20
24.5995128038
 11
-22.5440533629
 21
24.8351497648
  0
LINE
  5
3C0
100
AcDbEntity
  8
RACCORDO
100
AcDbLine
 62
253
  6
CONTINUOUS
 10
-22.5458787477
 20
14.5995128038
 11
-22.5440533629
 21
14.8351497648
  0
LINE
  5
3C1
100
AcDbEntity
  8
ASSI
100
AcDbLine
 62
253
  6
CONTINUOUS
 10
-22.5458787477
 20
14.5995128038
 11
-22.5440533629
 21
14.8351497648
  0
LINE
  5
3C2
100
AcDbEntity
  8
RACCORDO
100
AcDbLine
 62
253
  6
CONTINUOUS
 10
-22.5458787477
 20
9.5995128038
 11
-22.5440533629
 21
9.8351497648
  0
LINE
  5
3C3
100
AcDbEntity
  8
ASSI
100
AcDbLine
 62
253
  6
CONTINUOUS
 10
-22.5458787477
 20
9.5995128038
 11
-22.5440533629
 21
9.8351497648
  0
LINE
  5
3C4
100
AcDbEntity
  8
ASSI
100
AcDbLine
 62
7
  6
CONTINUOUS
 10
-22.8453221047
 20
14.4739973493
 11
-22.8468333747
 21
14.286120285
  0
LINE
  5
3C5
100
AcDbEntity
  8
ASSI
100
AcDbLine
 62
7
  6
CONTINUOUS
 10
-22.8453221047
 20
9.4739973493
 11
-22.8468333747
 21
9.286120285
  0
LINE
  5
3C6
100
AcDbEntity
  8
RACCORDO
100
AcDbLine
 62
7
  6
CONTINUOUS
 10
-22.8454759403
 20
9.4530285364
 11
-22.8469529669
 21
9.272786456
  0
LINE
  5
3C7
100
AcDbEntity
  8
ASSI
100
AcDbLine
 62
7
  6
CONTINUOUS
 10
-22.8456885498
 20
24.4248207496
 11
-22.847228718
 21
24.2428267747
  0
LINE
  5
3C8
100
AcDbEntity
  8
RACCORDO
100
AcDbLine
 62
7
  6
CONTINUOUS
 10
-22.8456544616
 20
24.4292852589
 11
-22.8471449422
 21
24.2518145026
  0
LINE
  5
3C9
100
AcDbEntity
  8
ASSI
100
AcDbLine
 62
7
  6
CONTINUOUS
 10
-22.8456885498
 20
19.4248207496
 11
-22.847228718
 21
19.2428267747
  0
LINE
  5
3CA
100
AcDbEntity
  8
RACCORDO
100
AcDbLine
 62
7
  6
CONTINUOUS
 10
-22.8456544616
 20
19.4292852589
 11
-22.8471449422
 21
19.2518145026
  0
LINE
  5
3CB
100
AcDbEntity
  8
RACCORDO
100
AcDbLine
 62
253
  6
CONTINUOUS
 10
-22.5469079152
 20
19.4917642297
 11
-22.5449275451
 21
19.7141611195
  0
LINE
  5
3CC
100
AcDbEntity
  8
ASSI
100
AcDbLine
 62
253
  6
CONTINUOUS
 10
-22.5469079152
 20
19.4917642297
 11
-22.5449275451
 21
19.7141611195
  0
LINE
  5
3CD
100
AcDbEntity
  8
RACCORDO
100
AcDbLine
 62
7
  6
CONTINUOUS
 10
-22.8463868896
 20
14.3377759116
 11
-22.8479295965
 21
14.1713678187
  0
LINE
  5
3CE
100
AcDbEntity
  8
RACCORDO
100
AcDbLine
 62
253
  6
CONTINUOUS
 10
-22.553259936
 20
35.4454811181
 11
-22.548888102
 21
35.8793335372
  0
LINE
  5
3CF
100
AcDbEntity
  8
RACCORDO
100
AcDbLine
 62
253
  6
CONTINUOUS
 10
-22.3039829338
 20
35.1576457007
 11
-22.2988923327
 21
35.6628271863
  0
LINE
  5
3D0
100
AcDbEntity
  8
ASSI
100
AcDbLine
 62
7
  6
CONTINUOUS
 10
-22.8468333747
 20
14.286120285
 11
-22.8484569604
 21
14.1217002962
  0
LINE
  5
3D1
100
AcDbEntity
  8
ASSI
100
AcDbLine
 62
7
  6
CONTINUOUS
 10
-22.8468333747
 20
9.286120285
 11
-22.8484569604
 21
9.1217002962
  0
LINE
  5
3D2
100
AcDbEntity
  8
RACCORDO
100
AcDbLine
 62
7
  6
CONTINUOUS
 10
-22.8469529669
 20
9.272786456
 11
-22.8485350484
 21
9.1146232967
  0
LINE
  5
3D3
100
AcDbEntity
  8
RACCORDO
100
AcDbLine
 62
7
  6
CONTINUOUS
 10
-22.8471449422
 20
24.2518145026
 11
-22.8487398206
 21
24.0963884931
  0
LINE
  5
3D4
100
AcDbEntity
  8
RACCORDO
100
AcDbLine
 62
7
  6
CONTINUOUS
 10
-22.8471449422
 20
19.2518145026
 11
-22.8487398206
 21
19.0963884931
  0
LINE
  5
3D5
100
AcDbEntity
  8
ASSI
100
AcDbLine
 62
7
  6
CONTINUOUS
 10
-22.847228718
 20
24.2428267747
 11
-22.8488793689
 21
24.0842231875
  0
LINE
  5
3D6
100
AcDbEntity
  8
ASSI
100
AcDbLine
 62
7
  6
CONTINUOUS
 10
-22.847228718
 20
19.2428267747
 11
-22.8488793689
 21
19.0842231875
  0
LINE
  5
3D7
100
AcDbEntity
  8
RACCORDO
100
AcDbLine
 62
7
  6
CONTINUOUS
 10
-22.8479295965
 20
14.1713678187
 11
-22.8495713327
 21
14.0268343774
  0
LINE
  5
3D8
100
AcDbEntity
  8
ASSI
100
AcDbLine
 62
7
  6
CONTINUOUS
 10
-22.8484569604
 20
14.1217002962
 11
-22.8501751576
 21
13.9804269257
  0
LINE
  5
3D9
100
AcDbEntity
  8
ASSI
100
AcDbLine
 62
7
  6
CONTINUOUS
 10
-22.8484569604
 20
9.1217002962
 11
-22.8501751576
 21
8.9804269257
  0
LINE
  5
3DA
100
AcDbEntity
  8
RACCORDO
100
AcDbLine
 62
7
  6
CONTINUOUS
 10
-22.8485350484
 20
9.1146232967
 11
-22.8502048416
 21
8.9782300101
  0
LINE
  5
3DB
100
AcDbEntity
  8
RACCORDO
100
AcDbLine
 62
7
  6
CONTINUOUS
 10
-22.8487398206
 20
24.0963884931
 11
-22.8504176009
 21
23.9627140219
  0
LINE
  5
3DC
100
AcDbEntity
  8
RACCORDO
100
AcDbLine
 62
7
  6
CONTINUOUS
 10
-22.8487398206
 20
19.0963884931
 11
-22.8504176009
 21
18.9627140219
  0
LINE
  5
3DD
100
AcDbEntity
  8
ASSI
100
AcDbLine
 62
7
  6
CONTINUOUS
 10
-22.8488793689
 20
24.0842231875
 11
-22.8506141756
 21
23.9487356331
  0
LINE
  5
3DE
100
AcDbEntity
  8
ASSI
100
AcDbLine
 62
7
  6
CONTINUOUS
 10
-22.8488793689
 20
19.0842231875
 11
-22.8506141756
 21
18.9487356331
  0
LINE
  5
3DF
100
AcDbEntity
  8
RACCORDO
100
AcDbLine
 62
7
  6
CONTINUOUS
 10
-22.8495713327
 20
14.0268343774
 11
-22.8512762262
 21
13.9041340621
  0
LINE
  5
3E0
100
AcDbEntity
  8
ASSI
100
AcDbLine
 62
7
  6
CONTINUOUS
 10
-22.8501751576
 20
13.9804269257
 11
-22.8517252636
 21
13.8759907456
  0
LINE
  5
3E1
100
AcDbEntity
  8
RACCORDO
100
AcDbLine
 62
7
  6
CONTINUOUS
 10
-22.8502048416
 20
8.9782300101
 11
-22.8517096348
 21
8.8769425182
  0
LINE
  5
3E2
100
AcDbEntity
  8
ASSI
100
AcDbLine
 62
7
  6
CONTINUOUS
 10
-22.8501751576
 20
8.9804269257
 11
-22.8517252636
 21
8.8759907456
  0
LINE
  5
3E3
100
AcDbEntity
  8
RACCORDO
100
AcDbLine
 62
7
  6
CONTINUOUS
 10
-22.8504176009
 20
23.9627140219
 11
-22.8519271175
 21
23.8638745667
  0
LINE
  5
3E4
100
AcDbEntity
  8
RACCORDO
100
AcDbLine
 62
7
  6
CONTINUOUS
 10
-22.8504176009
 20
18.9627140219
 11
-22.8519271175
 21
18.8638745667
  0
LINE
  5
3E5
100
AcDbEntity
  8
ASSI
100
AcDbLine
 62
7
  6
CONTINUOUS
 10
-22.8506141756
 20
23.9487356331
 11
-22.8521739115
 21
23.8494991949
  0
LINE
  5
3E6
100
AcDbEntity
  8
ASSI
100
AcDbLine
 62
7
  6
CONTINUOUS
 10
-22.8506141756
 20
18.9487356331
 11
-22.8521739115
 21
18.8494991949
  0
LINE
  5
3E7
100
AcDbEntity
  8
RACCORDO
100
AcDbLine
 62
7
  6
CONTINUOUS
 10
-22.8512762262
 20
13.9041340621
 11
-22.8528000645
 21
13.8151150521
  0
LINE
  5
3E8
100
AcDbEntity
  8
RACCORDO
100
AcDbLine
 62
7
  6
CONTINUOUS
 10
-22.8517096348
 20
8.8769425182
 11
-22.8532365944
 21
8.7928389885
  0
LINE
  5
3E9
100
AcDbEntity
  8
ASSI
100
AcDbLine
 62
7
  6
CONTINUOUS
 10
-22.8517252636
 20
13.8759907456
 11
-22.853298399
 21
13.7897934038
  0
LINE
  5
3EA
100
AcDbEntity
  8
ASSI
100
AcDbLine
 62
7
  6
CONTINUOUS
 10
-22.8517252636
 20
8.8759907456
 11
-22.853298399
 21
8.7897934038
  0
LINE
  5
3EB
100
AcDbEntity
  8
RACCORDO
100
AcDbLine
 62
7
  6
CONTINUOUS
 10
-22.8519271175
 20
23.8638745667
 11
-22.8534543577
 21
23.7822249543
  0
LINE
  5
3EC
100
AcDbEntity
  8
RACCORDO
100
AcDbLine
 62
7
  6
CONTINUOUS
 10
-22.8519271175
 20
18.8638745667
 11
-22.8534543577
 21
18.7822249543
  0
LINE
  5
3ED
100
AcDbEntity
  8
RACCORDO
100
AcDbLine
 62
7
  6
CONTINUOUS
 10
-22.8534543577
 20
23.7822249543
 11
-22.8537610723
 21
23.7678579177
  0
LINE
  5
3EE
100
AcDbEntity
  8
RACCORDO
100
AcDbLine
 62
7
  6
CONTINUOUS
 10
-22.8534543577
 20
18.7822249543
 11
-22.8537610723
 21
18.7678579177
  0
LINE
  5
3EF
100
AcDbEntity
  8
RACCORDO
100
AcDbLine
 62
7
  6
CONTINUOUS
 10
-22.8528000645
 20
13.8151150521
 11
-22.8537610723
 21
13.7678579177
  0
LINE
  5
3F0
100
AcDbEntity
  8
RACCORDO
100
AcDbLine
 62
7
  6
CONTINUOUS
 10
-22.8532365944
 20
8.7928389885
 11
-22.8537610723
 21
8.7678579177
  0
LINE
  5
3F1
100
AcDbEntity
  8
ASSI
100
AcDbLine
 62
7
  6
CONTINUOUS
 10
-22.8521739115
 20
23.8494991949
 11
-22.8537604535
 21
23.7678586807
  0
LINE
  5
3F2
100
AcDbEntity
  8
ASSI
100
AcDbLine
 62
7
  6
CONTINUOUS
 10
-22.8521739115
 20
18.8494991949
 11
-22.8537604535
 21
18.7678586807
  0
LINE
  5
3F3
100
AcDbEntity
  8
ASSI
100
AcDbLine
 62
7
  6
CONTINUOUS
 10
-22.853298399
 20
13.7897934038
 11
-22.8537604535
 21
13.7678586807
  0
LINE
  5
3F4
100
AcDbEntity
  8
ASSI
100
AcDbLine
 62
7
  6
CONTINUOUS
 10
-22.853298399
 20
8.7897934038
 11
-22.8537604535
 21
8.7678586807
  0
LWPOLYLINE
  5
3F5
100
AcDbEntity
  8
RACCORDO
100
AcDbPolyline
 62
7
  6
CONTINUOUS
 90
34
 70
0
 10
-22.553259936
 20
36.2850002007
 10
-22.5529767857
 20
36.2968954859
 10
-22.5521279702
 20
36.3087638255
 10
-22.5507154101
 20
36.320578336
 10
-22.5487423037
 20
36.3323122574
 10
-22.5462131177
 20
36.3439390087
 10
-22.5431335777
 20
36.3554322489
 10
-22.5395106573
 20
36.3667659437
 10
-22.5353525617
 20
36.3779144192
 10
-22.5306687081
 20
36.3888524162
 10
-22.5254697048
 20
36.3995551575
 10
-22.5197673276
 20
36.4099983982
 10
-22.5135744941
 20
36.4201584758
 10
-22.5069052314
 20
36.430012375
 10
-22.4997746467
 20
36.4395377737
 10
-22.4921988948
 20
36.448713089
 10
-22.4841951364
 20
36.457517536
 10
-22.475781502
 20
36.4659311704
 10
-22.466977055
 20
36.4739349288
 10
-22.4578017398
 20
36.4815106806
 10
-22.4482763411
 20
36.4886412654
 10
-22.4384224419
 20
36.495310528
 10
-22.4282623642
 20
36.5015033615
 10
-22.4178191235
 20
36.5072057387
 10
-22.4071163823
 20
36.5124047421
 10
-22.3961783852
 20
36.5170885957
 10
-22.3850299097
 20
36.5212466912
 10
-22.373696215
 20
36.5248696116
 10
-22.3622029748
 20
36.5279491516
 10
-22.3505762234
 20
36.5304783376
 10
-22.3388423021
 20
36.532451444
 10
-22.3270277915
 20
36.5338640041
 10
-22.315159452
 20
36.5347128197
 10
-22.3032641667
 20
36.5349959699
  0
LWPOLYLINE
  5
3F6
100
AcDbEntity
  8
RACCORDO
100
AcDbPolyline
 62
253
  6
CONTINUOUS
 90
31
 70
0
 10
-22.548888102
 20
36.2806283667
 10
-22.5485450634
 20
36.2937118527
 10
-22.5475177735
 20
36.3067594793
 10
-22.5458090479
 20
36.3197354854
 10
-22.54342357
 20
36.3326043063
 10
-22.5403678778
 20
36.3453306708
 10
-22.5366503464
 20
36.3578796985
 10
-22.5322811649
 20
36.3702169948
 10
-22.5272723084
 20
36.3823087454
 10
-22.5216375052
 20
36.3941218092
 10
-22.5153921993
 20
36.4056238088
 10
-22.5085535079
 20
36.4167832193
 10
-22.5011401746
 20
36.4275694549
 10
-22.4931725178
 20
36.4379529525
 10
-22.4846723755
 20
36.447905253
 10
-22.475663045
 20
36.4573990789
 10
-22.466169219
 20
36.4664084094
 10
-22.4562169186
 20
36.4749085517
 10
-22.4458334209
 20
36.4828762085
 10
-22.4350471853
 20
36.4902895419
 10
-22.4238877748
 20
36.4971282333
 10
-22.4123857753
 20
36.5033735392
 10
-22.4005727115
 20
36.5090083423
 10
-22.3884809608
 20
36.5140171988
 10
-22.3761436645
 20
36.5183863803
 10
-22.3635946369
 20
36.5221039117
 10
-22.3508682723
 20
36.5251596039
 10
-22.3379994515
 20
36.5275450819
 10
-22.3250234453
 20
36.5292538074
 10
-22.3119758187
 20
36.5302810973
 10
-22.2988923327
 20
36.5306241359
  0
LWPOLYLINE
  5
3F7
100
AcDbEntity
  8
RACCORDO
100
AcDbPolyline
 62
253
  6
CONTINUOUS
 90
9
 70
0
 10
-22.5573107801
 20
23.9328331097
 10
-22.5558579024
 20
23.9696527887
 10
-22.5544294716
 20
24.0165637925
 10
-22.5530456916
 20
24.0732952346
 10
-22.5517074577
 20
24.1395160593
 10
-22.5504138745
 20
24.2148671836
 10
-22.5491824601
 20
24.2989889555
 10
-22.5480141033
 20
24.3914443804
 10
-22.5458787477
 20
24.5995128038
  0
LWPOLYLINE
  5
3F8
100
AcDbEntity
  8
ASSI
100
AcDbPolyline
 62
253
  6
CONTINUOUS
 90
9
 70
0
 10
-22.5573107801
 20
23.9328331097
 10
-22.5558579024
 20
23.9696527887
 10
-22.5544294716
 20
24.0165637925
 10
-22.5530456916
 20
24.0732952346
 10
-22.5517074577
 20
24.1395160593
 10
-22.5504138745
 20
24.2148671836
 10
-22.5491824601
 20
24.2989889555
 10
-22.5480141033
 20
24.3914443804
 10
-22.5458787477
 20
24.5995128038
  0
LWPOLYLINE
  5
3F9
100
AcDbEntity
  8
RACCORDO
100
AcDbPolyline
 62
253
  6
CONTINUOUS
 90
8
 70
0
 10
-22.5573107801
 20
18.9328331097
 10
-22.5558579024
 20
18.9696527887
 10
-22.5544294716
 20
19.0165637925
 10
-22.5530456916
 20
19.0732952346
 10
-22.5517074577
 20
19.1395160593
 10
-22.5504138745
 20
19.2148671836
 10
-22.5491824601
 20
19.2989889555
 10
-22.5469079152
 20
19.4917642297
  0
LWPOLYLINE
  5
3FA
100
AcDbEntity
  8
ASSI
100
AcDbPolyline
 62
253
  6
CONTINUOUS
 90
8
 70
0
 10
-22.5573107801
 20
18.9328331097
 10
-22.5558579024
 20
18.9696527887
 10
-22.5544294716
 20
19.0165637925
 10
-22.5530456916
 20
19.0732952346
 10
-22.5517074577
 20
19.1395160593
 10
-22.5504138745
 20
19.2148671836
 10
-22.5491824601
 20
19.2989889555
 10
-22.5469079152
 20
19.4917642297
  0
LWPOLYLINE
  5
3FB
100
AcDbEntity
  8
RACCORDO
100
AcDbPolyline
 62
253
  6
CONTINUOUS
 90
9
 70
0
 10
-22.5573107801
 20
13.9328331097
 10
-22.5558579024
 20
13.9696527887
 10
-22.5544294716
 20
14.0165637925
 10
-22.5530456916
 20
14.0732952346
 10
-22.5517074577
 20
14.1395160593
 10
-22.5504138745
 20
14.2148671836
 10
-22.5491824601
 20
14.2989889555
 10
-22.5480141033
 20
14.3914443804
 10
-22.5458787477
 20
14.5995128038
  0
LWPOLYLINE
  5
3FC
100
AcDbEntity
  8
ASSI
100
AcDbPolyline
 62
253
  6
CONTINUOUS
 90
9
 70
0
 10
-22.5573107801
 20
13.9328331097
 10
-22.5558579024
 20
13.9696527887
 10
-22.5544294716
 20
14.0165637925
 10
-22.5530456916
 20
14.0732952346
 10
-22.5517074577
 20
14.1395160593
 10
-22.5504138745
 20
14.2148671836
 10
-22.5491824601
 20
14.2989889555
 10
-22.5480141033
 20
14.3914443804
 10
-22.5458787477
 20
14.5995128038
  0
LWPOLYLINE
  5
3FD
100
AcDbEntity
  8
RACCORDO
100
AcDbPolyline
 62
253
  6
CONTINUOUS
 90
4
 70
0
 10
-22.5617958904
 20
18.8849959699
 10
-22.5602764068
 20
18.890346416
 10
-22.55878137
 20
18.9063360252
 10
-22.5573107801
 20
18.9328331097
  0
LWPOLYLINE
  5
3FE
100
AcDbEntity
  8
ASSI
100
AcDbPolyline
 62
253
  6
CONTINUOUS
 90
4
 70
0
 10
-22.5617958904
 20
18.8849959699
 10
-22.5602764068
 20
18.890346416
 10
-22.55878137
 20
18.9063360252
 10
-22.5573107801
 20
18.9328331097
  0
LWPOLYLINE
  5
3FF
100
AcDbEntity
  8
RACCORDO
100
AcDbPolyline
 62
253
  6
CONTINUOUS
 90
4
 70
0
 10
-22.5617958904
 20
13.8849959699
 10
-22.5602764068
 20
13.890346416
 10
-22.55878137
 20
13.9063360252
 10
-22.5573107801
 20
13.9328331097
  0
LWPOLYLINE
  5
400
100
AcDbEntity
  8
ASSI
100
AcDbPolyline
 62
253
  6
CONTINUOUS
 90
4
 70
0
 10
-22.5617958904
 20
13.8849959699
 10
-22.5602764068
 20
13.890346416
 10
-22.55878137
 20
13.9063360252
 10
-22.5573107801
 20
13.9328331097
  0
LINE
  5
401
100
AcDbEntity
  8
0
100
AcDbLine
 62
7
  6
CONTINUOUS
 10
-8.4399155723
 20
31.8983403336
 11
-8.403259936
 21
31.9349959699
  0
LINE
  5
402
100
AcDbEntity
  8
DRAFT
100
AcDbLine
 62
7
  6
CONTINUOUS
 10
-8.4399155723
 20
31.8983403336
 11
-8.403259936
 21
31.9349959699
  0
LINE
  5
403
100
AcDbEntity
  8
0
100
AcDbLine
 62
7
  6
CONTINUOUS
 10
-8.403259936
 20
31.7349959699
 11
-8.4399155723
 21
31.6983403336
  0
LINE
  5
404
100
AcDbEntity
  8
DRAFT
100
AcDbLine
 62
7
  6
CONTINUOUS
 10
-8.403259936
 20
31.7349959699
 11
-8.4399155723
 21
31.6983403336
  0
LINE
  5
405
100
AcDbEntity
  8
0
100
AcDbLine
 62
253
  6
CONTINUOUS
 10
-0.753259936
 20
29.7066950186
 11
-0.8754453904
 21
29.6560841462
  0
LINE
  5
406
100
AcDbEntity
  8
RACCORDO
100
AcDbLine
 62
253
  6
CONTINUOUS
 10
-0.753259936
 20
29.7066950186
 11
-0.8754453904
 21
29.6560841462
  0
LINE
  5
407
100
AcDbEntity
  8
0
100
AcDbLine
 62
253
  6
CONTINUOUS
 10
-0.8754453904
 20
-5.5860922064
 11
-0.753259936
 21
-5.6367030788
  0
LINE
  5
408
100
AcDbEntity
  8
RACCORDO
100
AcDbLine
 62
253
  6
CONTINUOUS
 10
-0.8754453904
 20
-5.5860922064
 11
-0.753259936
 21
-5.6367030788
  0
LWPOLYLINE
  5
409
100
AcDbEntity
  8
0
100
AcDbPolyline
 62
253
  6
CONTINUOUS
 90
4
 70
0
 10
-10.010423653
 20
-5.3094527363
 10
-9.973446603
 20
-5.3425260153
 10
-9.9434523148
 20
-5.3808399515
 10
-9.9213521497
 20
-5.4232303953
  0
LWPOLYLINE
  5
40A
100
AcDbEntity
  8
RACCORDO
100
AcDbPolyline
 62
253
  6
CONTINUOUS
 90
4
 70
0
 10
-10.010423653
 20
-5.3094527363
 10
-9.973446603
 20
-5.3425260153
 10
-9.9434523148
 20
-5.3808399515
 10
-9.9213521497
 20
-5.4232303953
  0
LINE
  5
40B
100
AcDbEntity
  8
0
100
AcDbLine
 62
7
  6
CONTINUOUS
 10
-8.403259936
 20
-7.8650040301
 11
-8.4399155723
 21
-7.8283483938
  0
LINE
  5
40C
100
AcDbEntity
  8
DRAFT
100
AcDbLine
 62
7
  6
CONTINUOUS
 10
-8.403259936
 20
-7.8650040301
 11
-8.4399155723
 21
-7.8283483938
  0
LINE
  5
40D
100
AcDbEntity
  8
0
100
AcDbLine
 62
7
  6
CONTINUOUS
 10
-8.403259936
 20
-7.6650040301
 11
-8.4399155723
 21
-7.6283483938
  0
LINE
  5
40E
100
AcDbEntity
  8
DRAFT
100
AcDbLine
 62
7
  6
CONTINUOUS
 10
-8.403259936
 20
-7.6650040301
 11
-8.4399155723
 21
-7.6283483938
  0
LWPOLYLINE
  5
40F
100
AcDbEntity
  8
RACCORDO
100
AcDbPolyline
 62
253
  6
CONTINUOUS
 90
31
 70
0
 10
-22.548888102
 20
35.8793335372
 10
-22.5485095463
 20
35.8680355649
 10
-22.5474504187
 20
35.8567652609
 10
-22.5457130422
 20
35.8455533911
 10
-22.5433013408
 20
35.834429582
 10
-22.5402214706
 20
35.8234253299
 10
-22.5364824196
 20
35.8125737901
 10
-22.5320948752
 20
35.8019056671
 10
-22.5270704762
 20
35.7914489938
 10
-22.5214227956
 20
35.7812320749
 10
-22.515167103
 20
35.7712826698
 10
-22.5083205284
 20
35.7616281453
 10
-22.5009019201
 20
35.7522951218
 10
-22.4929316161
 20
35.7433091717
 10
-22.4844313213
 20
35.7346947525
 10
-22.4754242308
 20
35.7264753741
 10
-22.4659349272
 20
35.7186734774
 10
-22.45598934
 20
35.7113103892
 10
-22.4456146572
 20
35.7044062403
 10
-22.4348392248
 20
35.6979798938
 10
-22.4236924668
 20
35.6920488968
 10
-22.4122048297
 20
35.6866294495
 10
-22.400407673
 20
35.6817363475
 10
-22.3883332366
 20
35.6773829644
 10
-22.3760145569
 20
35.673581207
 10
-22.3634853216
 20
35.6703414606
 10
-22.3507797187
 20
35.6676725541
 10
-22.3379323979
 20
35.6655817617
 10
-22.3249784307
 20
35.6640747918
 10
-22.3119532169
 20
35.6631557634
 10
-22.2988923327
 20
35.6628271863
  0
LWPOLYLINE
  5
410
100
AcDbEntity
  8
RACCORDO
100
AcDbPolyline
 62
253
  6
CONTINUOUS
 90
31
 70
0
 10
-20.15763177
 20
-11.8093415974
 10
-20.1580111017
 20
-11.7980314469
 10
-20.1590720836
 20
-11.786752182
 10
-20.1608118185
 20
-11.7755346041
 10
-20.1632255554
 20
-11.764409346
 10
-20.166306703
 20
-11.7534067885
 10
-20.1700468473
 20
-11.7425569773
 10
-20.1744357747
 20
-11.7318895408
 10
-20.1794615
 20
-11.7214336098
 10
-20.1851102989
 20
-11.711217737
 10
-20.1913667459
 20
-11.7012698199
 10
-20.1982137558
 20
-11.6916170243
 10
-20.2056326309
 20
-11.6822857098
 10
-20.2136031119
 20
-11.6733013583
 10
-20.2221034329
 20
-11.6646885043
 10
-20.2311103814
 20
-11.6564706675
 10
-20.2405993613
 20
-11.6486702893
 10
-20.2505444602
 20
-11.6413086708
 10
-20.2609185201
 20
-11.634405915
 10
-20.2716932117
 20
-11.6279808719
 10
-20.2828391114
 20
-11.622051087
 10
-20.2943257822
 20
-11.6166327533
 10
-20.3061218563
 20
-11.6117406671
 10
-20.3181951213
 20
-11.6073881877
 10
-20.3305126074
 20
-11.6035872008
 10
-20.3430406783
 20
-11.600348086
 10
-20.3557451224
 20
-11.5976796888
 10
-20.3685912465
 20
-11.5955892959
 10
-20.3815439705
 20
-11.5940826158
 10
-20.3945679233
 20
-11.5931637629
 10
-20.4076275392
 20
-11.5928352465
  0
LWPOLYLINE
  5
411
100
AcDbEntity
  8
RACCORDO
100
AcDbPolyline
 62
253
  6
CONTINUOUS
 90
10
 70
0
 10
-22.5491789551
 20
27.7707466848
 10
-22.5504104909
 20
27.8549115464
 10
-22.5517042854
 20
27.9303057646
 10
-22.5530428085
 20
27.9965673463
 10
-22.5544269685
 20
28.0533362347
 10
-22.555855857
 20
28.1002798698
 10
-22.557309219
 20
28.1371253626
 10
-22.5587803027
 20
28.1636409193
 10
-22.5602758599
 20
28.1796417508
 10
-22.5617958904
 20
28.1849959699
  0
LWPOLYLINE
  5
412
100
AcDbEntity
  8
ASSI
100
AcDbPolyline
 62
253
  6
CONTINUOUS
 90
10
 70
0
 10
-22.5491789551
 20
27.7707466848
 10
-22.5504104909
 20
27.8549115464
 10
-22.5517042854
 20
27.9303057646
 10
-22.5530428085
 20
27.9965673463
 10
-22.5544269685
 20
28.0533362347
 10
-22.555855857
 20
28.1002798698
 10
-22.557309219
 20
28.1371253626
 10
-22.5587803027
 20
28.1636409193
 10
-22.5602758599
 20
28.1796417508
 10
-22.5617958904
 20
28.1849959699
  0
LWPOLYLINE
  5
413
100
AcDbEntity
  8
RACCORDO
100
AcDbPolyline
 62
253
  6
CONTINUOUS
 90
11
 70
0
 10
-22.5480105758
 20
22.6782498083
 10
-22.5491789551
 20
22.7707466848
 10
-22.5504104909
 20
22.8549115464
 10
-22.5517042854
 20
22.9303057646
 10
-22.5530428085
 20
22.9965673463
 10
-22.5544269685
 20
23.0533362347
 10
-22.555855857
 20
23.1002798698
 10
-22.557309219
 20
23.1371253626
 10
-22.5587803027
 20
23.1636409193
 10
-22.5602758599
 20
23.1796417508
 10
-22.5617958904
 20
23.1849959699
  0
LWPOLYLINE
  5
414
100
AcDbEntity
  8
ASSI
100
AcDbPolyline
 62
253
  6
CONTINUOUS
 90
11
 70
0
 10
-22.5480105758
 20
22.6782498083
 10
-22.5491789551
 20
22.7707466848
 10
-22.5504104909
 20
22.8549115464
 10
-22.5517042854
 20
22.9303057646
 10
-22.5530428085
 20
22.9965673463
 10
-22.5544269685
 20
23.0533362347
 10
-22.555855857
 20
23.1002798698
 10
-22.557309219
 20
23.1371253626
 10
-22.5587803027
 20
23.1636409193
 10
-22.5602758599
 20
23.1796417508
 10
-22.5617958904
 20
23.1849959699
  0
LINE
  5
415
100
AcDbEntity
  8
RACCORDO
100
AcDbLine
 62
253
  6
CONTINUOUS
 10
-22.5469044553
 20
27.5778914005
 11
-22.5491789551
 21
27.7707466848
  0
LINE
  5
416
100
AcDbEntity
  8
ASSI
100
AcDbLine
 62
253
  6
CONTINUOUS
 10
-22.5469044553
 20
27.5778914005
 11
-22.5491789551
 21
27.7707466848
  0
LINE
  5
417
100
AcDbEntity
  8
RACCORDO
100
AcDbLine
 62
253
  6
CONTINUOUS
 10
-22.5449244572
 20
27.3554353237
 11
-22.5469044553
 21
27.5778914005
  0
LINE
  5
418
100
AcDbEntity
  8
ASSI
100
AcDbLine
 62
253
  6
CONTINUOUS
 10
-22.5449244572
 20
27.3554353237
 11
-22.5469044553
 21
27.5778914005
  0
LINE
  5
419
100
AcDbEntity
  8
RACCORDO
100
AcDbLine
 62
253
  6
CONTINUOUS
 10
-22.2988923327
 20
-12.4606321961
 11
-22.2988923327
 21
-11.5928352465
  0
LINE
  5
41A
100
AcDbEntity
  8
RACCORDO
100
AcDbLine
 62
253
  6
CONTINUOUS
 10
-22.2988923327
 20
35.6628271863
 11
-22.2988923327
 21
36.5306241359
  0
LINE
  5
41B
100
AcDbEntity
  8
ASSI
100
AcDbLine
 62
7
  6
CONTINUOUS
 10
-21.703259936
 20
8.8849959699
 11
-21.703259936
 21
13.1849959699
  0
LINE
  5
41C
100
AcDbEntity
  8
ASSI
100
AcDbLine
 62
7
  6
CONTINUOUS
 10
-21.703259936
 20
13.8849959699
 11
-21.703259936
 21
18.1849959699
  0
LINE
  5
41D
100
AcDbEntity
  8
ASSI
100
AcDbLine
 62
7
  6
CONTINUOUS
 10
-21.703259936
 20
18.8849959699
 11
-21.703259936
 21
23.1849959699
  0
LINE
  5
41E
100
AcDbEntity
  8
ASSI
100
AcDbLine
 62
7
  6
CONTINUOUS
 10
-21.703259936
 20
23.8849959699
 11
-21.703259936
 21
28.1849959699
  0
LINE
  5
41F
100
AcDbEntity
  8
DRAFT
100
AcDbLine
 62
7
  6
CONTINUOUS
 10
-21.553259936
 20
32.9349959699
 11
-21.553259936
 21
32.0349959699
  0
LINE
  5
420
100
AcDbEntity
  8
DRAFT
100
AcDbLine
 62
7
  6
CONTINUOUS
 10
-21.553259936
 20
-7.9650040301
 11
-21.553259936
 21
-8.8650040301
  0
LINE
  5
421
100
AcDbEntity
  8
DRAFT
100
AcDbLine
 62
7
  6
CONTINUOUS
 10
-21.5270773386
 20
32.856384301
 11
-21.5270773386
 21
32.0611785673
  0
LINE
  5
422
100
AcDbEntity
  8
DRAFT
100
AcDbLine
 62
7
  6
CONTINUOUS
 10
-21.5270773386
 20
-7.9911866275
 11
-21.5270773386
 21
-8.7863923612
  0
LINE
  5
423
100
AcDbEntity
  8
0
100
AcDbLine
 62
253
  6
CONTINUOUS
 10
-20.903259936
 20
-6.5650040301
 11
-20.903259936
 21
-6.1780943318
  0
LWPOLYLINE
  5
424
100
AcDbEntity
  8
RACCORDO
100
AcDbPolyline
 62
253
  6
CONTINUOUS
 90
31
 70
0
 10
-22.548888102
 20
-11.8093415974
 10
-22.5485095463
 20
-11.7980436251
 10
-22.5474504187
 20
-11.7867733211
 10
-22.5457130422
 20
-11.7755614513
 10
-22.5433013408
 20
-11.7644376422
 10
-22.5402214706
 20
-11.7534333901
 10
-22.5364824196
 20
-11.7425818503
 10
-22.5320948752
 20
-11.7319137273
 10
-22.5270704762
 20
-11.721457054
 10
-22.5214227956
 20
-11.7112401351
 10
-22.515167103
 20
-11.70129073
 10
-22.5083205284
 20
-11.6916362055
 10
-22.5009019201
 20
-11.682303182
 10
-22.4929316161
 20
-11.6733172319
 10
-22.4844313213
 20
-11.6647028127
 10
-22.4754242308
 20
-11.6564834343
 10
-22.4659349272
 20
-11.6486815376
 10
-22.45598934
 20
-11.6413184494
 10
-22.4456146572
 20
-11.6344143005
 10
-22.4348392248
 20
-11.627987954
 10
-22.4236924668
 20
-11.622056957
 10
-22.4122048297
 20
-11.6166375097
 10
-22.400407673
 20
-11.6117444077
 10
-22.3883332366
 20
-11.6073910246
 10
-22.3760145569
 20
-11.6035892672
 10
-22.3634853216
 20
-11.6003495208
 10
-22.3507797187
 20
-11.5976806143
 10
-22.3379323979
 20
-11.5955898219
 10
-22.3249784307
 20
-11.594082852
 10
-22.3119532169
 20
-11.5931638236
 10
-22.2988923327
 20
-11.5928352465
  0
LWPOLYLINE
  5
425
100
AcDbEntity
  8
RACCORDO
100
AcDbPolyline
 62
253
  6
CONTINUOUS
 90
31
 70
0
 10
-20.15763177
 20
35.8793335372
 10
-20.1580103256
 20
35.8680355649
 10
-20.1590694532
 20
35.8567652609
 10
-20.1608068297
 20
35.8455533911
 10
-20.1632185311
 20
35.834429582
 10
-20.1662984013
 20
35.8234253299
 10
-20.1700374523
 20
35.8125737901
 10
-20.1744249967
 20
35.8019056671
 10
-20.1794493957
 20
35.7914489938
 10
-20.1850970763
 20
35.7812320749
 10
-20.1913527689
 20
35.7712826698
 10
-20.1981993435
 20
35.7616281453
 10
-20.2056179518
 20
35.7522951218
 10
-20.2135882558
 20
35.7433091717
 10
-20.2220885506
 20
35.7346947525
 10
-20.2310956411
 20
35.7264753741
 10
-20.2405849447
 20
35.7186734774
 10
-20.2505305319
 20
35.7113103892
 10
-20.2609052147
 20
35.7044062403
 10
-20.2716806471
 20
35.6979798938
 10
-20.2828274051
 20
35.6920488968
 10
-20.2943150422
 20
35.6866294495
 10
-20.3061121989
 20
35.6817363475
 10
-20.3181866354
 20
35.6773829644
 10
-20.330505315
 20
35.673581207
 10
-20.3430345503
 20
35.6703414606
 10
-20.3557401532
 20
35.6676725541
 10
-20.368587474
 20
35.6655817617
 10
-20.3815414412
 20
35.6640747918
 10
-20.394566655
 20
35.6631557634
 10
-20.4076275392
 20
35.6628271863
  0
LWPOLYLINE
  5
426
100
AcDbEntity
  8
RACCORDO
100
AcDbPolyline
 62
253
  6
CONTINUOUS
 90
9
 70
0
 10
-22.5573107801
 20
8.9328331097
 10
-22.5558579024
 20
8.9696527887
 10
-22.5544294716
 20
9.0165637925
 10
-22.5530456916
 20
9.0732952346
 10
-22.5517074577
 20
9.1395160593
 10
-22.5504138745
 20
9.2148671836
 10
-22.5491824601
 20
9.2989889555
 10
-22.5480141033
 20
9.3914443804
 10
-22.5458787477
 20
9.5995128038
  0
LWPOLYLINE
  5
427
100
AcDbEntity
  8
ASSI
100
AcDbPolyline
 62
253
  6
CONTINUOUS
 90
9
 70
0
 10
-22.5573107801
 20
8.9328331097
 10
-22.5558579024
 20
8.9696527887
 10
-22.5544294716
 20
9.0165637925
 10
-22.5530456916
 20
9.0732952346
 10
-22.5517074577
 20
9.1395160593
 10
-22.5504138745
 20
9.2148671836
 10
-22.5491824601
 20
9.2989889555
 10
-22.5480141033
 20
9.3914443804
 10
-22.5458787477
 20
9.5995128038
  0
LINE
  5
428
100
AcDbEntity
  8
DRAFT
100
AcDbLine
 62
7
  6
CONTINUOUS
 10
-19.2119866807
 20
32.856384301
 11
-19.2020976106
 21
32.9454663503
  0
LWPOLYLINE
  5
429
100
AcDbEntity
  8
RACCORDO
100
AcDbPolyline
 62
253
  6
CONTINUOUS
 90
4
 70
0
 10
-22.5617958904
 20
8.8849959699
 10
-22.5602764068
 20
8.890346416
 10
-22.55878137
 20
8.9063360252
 10
-22.5573107801
 20
8.9328331097
  0
LWPOLYLINE
  5
42A
100
AcDbEntity
  8
ASSI
100
AcDbPolyline
 62
253
  6
CONTINUOUS
 90
4
 70
0
 10
-22.5617958904
 20
8.8849959699
 10
-22.5602764068
 20
8.890346416
 10
-22.55878137
 20
8.9063360252
 10
-22.5573107801
 20
8.9328331097
  0
LINE
  5
42B
100
AcDbEntity
  8
DRAFT
100
AcDbLine
 62
7
  6
CONTINUOUS
 10
-7.503259936
 20
34.4349959699
 11
-7.5473272032
 21
34.3688941368
  0
LINE
  5
42C
100
AcDbEntity
  8
RACCORDO
100
AcDbLine
 62
253
  6
CONTINUOUS
 10
-1.5076275392
 20
36.5306241359
 11
-1.5032557052
 21
36.5349959699
  0
LINE
  5
42D
100
AcDbEntity
  8
RACCORDO
100
AcDbLine
 62
253
  6
CONTINUOUS
 10
-1.25763177
 20
36.2806283667
 11
-1.253259936
 21
36.2850002007
  0
LINE
  5
42E
100
AcDbEntity
  8
RACCORDO
100
AcDbLine
 62
7
  6
CONTINUOUS
 10
-5.5462384345
 20
31.7920174714
 11
-5.603259936
 21
31.7349959699
  0
LINE
  5
42F
100
AcDbEntity
  8
RACCORDO
100
AcDbLine
 62
253
  6
CONTINUOUS
 10
-1.5076275392
 20
-12.4606321961
 11
-1.5032557052
 21
-12.4650040301
  0
LINE
  5
430
100
AcDbEntity
  8
RACCORDO
100
AcDbLine
 62
253
  6
CONTINUOUS
 10
-1.25763177
 20
-12.2106364269
 11
-1.253259936
 21
-12.2150082609
  0
LINE
  5
431
100
AcDbEntity
  8
RACCORDO
100
AcDbLine
 62
7
  6
CONTINUOUS
 10
-5.5462384345
 20
-7.7220255316
 11
-5.603259936
 21
-7.6650040301
  0
LINE
  5
432
100
AcDbEntity
  8
DRAFT
100
AcDbLine
 62
7
  6
CONTINUOUS
 10
-7.503259936
 20
-10.3650040301
 11
-7.5473272032
 21
-10.298902197
  0
LINE
  5
433
100
AcDbEntity
  8
DRAFT
100
AcDbLine
 62
7
  6
CONTINUOUS
 10
-19.2020976106
 20
-8.8754744105
 11
-19.2119866807
 21
-8.7863923612
  0
LINE
  5
434
100
AcDbEntity
  8
RACCORDO
100
AcDbLine
 62
253
  6
CONTINUOUS
 10
-20.4076275392
 20
35.6628271863
 11
-20.4025369381
 21
35.1576457007
  0
LINE
  5
435
100
AcDbEntity
  8
RACCORDO
100
AcDbLine
 62
253
  6
CONTINUOUS
 10
-20.15763177
 20
35.8793335372
 11
-20.153259936
 21
35.4454811181
  0
LINE
  5
436
100
AcDbEntity
  8
0
100
AcDbLine
 62
7
  6
CONTINUOUS
 10
-20.503259936
 20
32.8849959699
 11
-20.503259936
 21
30.2924385697
  0
LINE
  5
437
100
AcDbEntity
  8
DRAFT
100
AcDbLine
 62
7
  6
CONTINUOUS
 10
-20.503259936
 20
32.8849959699
 11
-20.503259936
 21
30.2924385697
  0
LINE
  5
438
100
AcDbEntity
  8
0
100
AcDbLine
 62
7
  6
CONTINUOUS
 10
-20.503259936
 20
-6.5650040301
 11
-20.503259936
 21
-8.8150040301
  0
LINE
  5
439
100
AcDbEntity
  8
DRAFT
100
AcDbLine
 62
7
  6
CONTINUOUS
 10
-20.503259936
 20
-6.5650040301
 11
-20.503259936
 21
-8.8150040301
  0
LINE
  5
43A
100
AcDbEntity
  8
RACCORDO
100
AcDbLine
 62
253
  6
CONTINUOUS
 10
-20.4076275392
 20
-12.4606321961
 11
-20.4076275392
 21
-11.5928352465
  0
LINE
  5
43B
100
AcDbEntity
  8
RACCORDO
100
AcDbLine
 62
253
  6
CONTINUOUS
 10
-20.4076275392
 20
35.6628271863
 11
-20.4076275392
 21
36.5306241359
  0
LINE
  5
43C
100
AcDbEntity
  8
RACCORDO
100
AcDbLine
 62
253
  6
CONTINUOUS
 10
-20.15763177
 20
-12.2106364269
 11
-20.15763177
 21
-11.8093415974
  0
LINE
  5
43D
100
AcDbEntity
  8
RACCORDO
100
AcDbLine
 62
253
  6
CONTINUOUS
 10
-20.15763177
 20
35.8793335372
 11
-20.15763177
 21
36.2806283667
  0
LINE
  5
43E
100
AcDbEntity
  8
RACCORDO
100
AcDbLine
 62
7
  6
CONTINUOUS
 10
-20.153259936
 20
-12.2150082609
 11
-20.153259936
 21
-10.3650040301
  0
LINE
  5
43F
100
AcDbEntity
  8
DRAFT
100
AcDbLine
 62
7
  6
CONTINUOUS
 10
-20.153259936
 20
-9.3650040301
 11
-20.153259936
 21
-8.8650040301
  0
LINE
  5
440
100
AcDbEntity
  8
DRAFT
100
AcDbLine
 62
7
  6
CONTINUOUS
 10
-20.153259936
 20
32.9349959699
 11
-20.153259936
 21
33.4349959699
  0
LINE
  5
441
100
AcDbEntity
  8
RACCORDO
100
AcDbLine
 62
7
  6
CONTINUOUS
 10
-20.153259936
 20
34.4349959699
 11
-20.153259936
 21
36.2850002007
  0
LINE
  5
442
100
AcDbEntity
  8
RACCORDO
100
AcDbLine
 62
253
  6
CONTINUOUS
 10
-19.9872845027
 20
33.6009714032
 11
-19.9872845027
 21
33.0267042341
  0
LINE
  5
443
100
AcDbEntity
  8
RACCORDO
100
AcDbLine
 62
253
  6
CONTINUOUS
 10
-19.9872845027
 20
-8.9567122943
 11
-19.9872845027
 21
-9.5309794634
  0
LINE
  5
444
100
AcDbEntity
  8
RACCORDO
100
AcDbLine
 62
253
  6
CONTINUOUS
 10
-19.4873606551
 20
33.3476892136
 11
-19.4873606551
 21
33.0309915156
  0
LINE
  5
445
100
AcDbEntity
  8
RACCORDO
100
AcDbLine
 62
253
  6
CONTINUOUS
 10
-19.4873606551
 20
-8.9609995758
 11
-19.4873606551
 21
-9.2776972738
  0
LINE
  5
446
100
AcDbEntity
  8
0
100
AcDbLine
 62
7
  6
CONTINUOUS
 10
-19.3573706372
 20
-8.8150040301
 11
-19.3573706372
 21
-6.5650040301
  0
LINE
  5
447
100
AcDbEntity
  8
DRAFT
100
AcDbLine
 62
7
  6
CONTINUOUS
 10
-19.3573706372
 20
-8.8150040301
 11
-19.3573706372
 21
-6.5650040301
  0
LINE
  5
448
100
AcDbEntity
  8
0
100
AcDbLine
 62
7
  6
CONTINUOUS
 10
-19.3573706372
 20
30.2924385697
 11
-19.3573706372
 21
32.8849959699
  0
LINE
  5
449
100
AcDbEntity
  8
DRAFT
100
AcDbLine
 62
7
  6
CONTINUOUS
 10
-19.3573706372
 20
30.2924385697
 11
-19.3573706372
 21
32.8849959699
  0
LINE
  5
44A
100
AcDbEntity
  8
0
100
AcDbLine
 62
7
  6
CONTINUOUS
 10
-19.3399155723
 20
31.6983403336
 11
-19.3399155723
 21
30.3011654375
  0
LINE
  5
44B
100
AcDbEntity
  8
DRAFT
100
AcDbLine
 62
7
  6
CONTINUOUS
 10
-19.3399155723
 20
31.6983403336
 11
-19.3399155723
 21
30.3011654375
  0
LINE
  5
44C
100
AcDbEntity
  8
0
100
AcDbLine
 62
7
  6
CONTINUOUS
 10
-19.3399155723
 20
-7.6283483938
 11
-19.3399155723
 21
-6.5650040301
  0
LINE
  5
44D
100
AcDbEntity
  8
DRAFT
100
AcDbLine
 62
7
  6
CONTINUOUS
 10
-19.3399155723
 20
-7.6283483938
 11
-19.3399155723
 21
-6.5650040301
  0
LINE
  5
44E
100
AcDbEntity
  8
0
100
AcDbLine
 62
7
  6
CONTINUOUS
 10
-19.303259936
 20
-8.8150040301
 11
-19.303259936
 21
-7.6650040301
  0
LINE
  5
44F
100
AcDbEntity
  8
DRAFT
100
AcDbLine
 62
7
  6
CONTINUOUS
 10
-19.303259936
 20
-8.8150040301
 11
-19.303259936
 21
-7.6650040301
  0
LINE
  5
450
100
AcDbEntity
  8
0
100
AcDbLine
 62
7
  6
CONTINUOUS
 10
-19.303259936
 20
31.7349959699
 11
-19.303259936
 21
32.8849959699
  0
LINE
  5
451
100
AcDbEntity
  8
DRAFT
100
AcDbLine
 62
7
  6
CONTINUOUS
 10
-19.303259936
 20
31.7349959699
 11
-19.303259936
 21
32.8849959699
  0
LINE
  5
452
100
AcDbEntity
  8
DRAFT
100
AcDbLine
 62
7
  6
CONTINUOUS
 10
-19.2119866807
 20
-7.6650040301
 11
-19.2119866807
 21
-8.7863923612
  0
LINE
  5
453
100
AcDbEntity
  8
DRAFT
100
AcDbLine
 62
7
  6
CONTINUOUS
 10
-19.2119866807
 20
31.7349959699
 11
-19.2119866807
 21
32.856384301
  0
LINE
  5
454
100
AcDbEntity
  8
RACCORDO
100
AcDbLine
 62
7
  6
CONTINUOUS
 10
-19.1450816378
 20
-8.9609995758
 11
-19.1450816378
 21
-7.9220221469
  0
LINE
  5
455
100
AcDbEntity
  8
RACCORDO
100
AcDbLine
 62
7
  6
CONTINUOUS
 10
-19.1450816378
 20
31.9920140867
 11
-19.1450816378
 21
33.0309915156
  0
LINE
  5
456
100
AcDbEntity
  8
RACCORDO
100
AcDbLine
 62
253
  6
CONTINUOUS
 10
-20.4025369381
 20
-11.0876537609
 11
-20.4076275392
 21
-11.5928352465
  0
LINE
  5
457
100
AcDbEntity
  8
RACCORDO
100
AcDbLine
 62
253
  6
CONTINUOUS
 10
-20.153259936
 20
-11.3754891783
 11
-20.15763177
 21
-11.8093415974
  0
LWPOLYLINE
  5
458
100
AcDbEntity
  8
RACCORDO
100
AcDbPolyline
 62
7
  6
CONTINUOUS
 90
34
 70
0
 10
-20.153259936
 20
-12.2150082609
 10
-20.1535430862
 20
-12.2269035461
 10
-20.1543919017
 20
-12.2387718857
 10
-20.1558044618
 20
-12.2505863962
 10
-20.1577775682
 20
-12.2623203176
 10
-20.1603067542
 20
-12.2739470689
 10
-20.1633862942
 20
-12.2854403091
 10
-20.1670092146
 20
-12.2967740039
 10
-20.1711673102
 20
-12.3079224794
 10
-20.1758511638
 20
-12.3188604764
 10
-20.1810501671
 20
-12.3295632177
 10
-20.1867525443
 20
-12.3400064584
 10
-20.1929453778
 20
-12.350166536
 10
-20.1996146405
 20
-12.3600204352
 10
-20.2067452252
 20
-12.3695458339
 10
-20.2143209771
 20
-12.3787211492
 10
-20.2223247355
 20
-12.3875255962
 10
-20.2307383699
 20
-12.3959392306
 10
-20.2395428169
 20
-12.403942989
 10
-20.2487181321
 20
-12.4115187408
 10
-20.2582435308
 20
-12.4186493256
 10
-20.26809743
 20
-12.4253185882
 10
-20.2782575077
 20
-12.4315114217
 10
-20.2887007484
 20
-12.4372137989
 10
-20.2994034897
 20
-12.4424128023
 10
-20.3103414867
 20
-12.4470966559
 10
-20.3214899622
 20
-12.4512547514
 10
-20.3328236569
 20
-12.4548776718
 10
-20.3443168971
 20
-12.4579572118
 10
-20.3559436485
 20
-12.4604863978
 10
-20.3676775698
 20
-12.4624595042
 10
-20.3794920804
 20
-12.4638720643
 10
-20.3913604199
 20
-12.4647208799
 10
-20.4032557052
 20
-12.4650040301
  0
LWPOLYLINE
  5
459
100
AcDbEntity
  8
RACCORDO
100
AcDbPolyline
 62
253
  6
CONTINUOUS
 90
31
 70
0
 10
-20.15763177
 20
-12.2106364269
 10
-20.157974959
 20
-12.223722781
 10
-20.1590027019
 20
-12.2367732793
 10
-20.1607121851
 20
-12.2497521368
 10
-20.1630987278
 20
-12.2626237764
 10
-20.166155789
 20
-12.2753528903
 10
-20.1698749785
 20
-12.2879045378
 10
-20.1742460935
 20
-12.3002442939
 10
-20.179257149
 20
-12.3123383311
 10
-20.1848943973
 20
-12.3241534768
 10
-20.1911423765
 20
-12.3356573326
 10
-20.1979839523
 20
-12.3468183585
 10
-20.2054003591
 20
-12.3576059488
 10
-20.2133712673
 20
-12.3679905381
 10
-20.2218748088
 20
-12.3779436415
 10
-20.2308876279
 20
-12.3874379347
 10
-20.2403849624
 20
-12.3964473565
 10
-20.2503407995
 20
-12.4049472534
 10
-20.2607279254
 20
-12.4129143957
 10
-20.2715180046
 20
-12.4203270257
 10
-20.282681323
 20
-12.4271647075
 10
-20.2941869234
 20
-12.4334085092
 10
-20.3060030017
 20
-12.4390412578
 10
-20.3180973578
 20
-12.4440476877
 10
-20.3304371617
 20
-12.4484142388
 10
-20.3429913463
 20
-12.4521296785
 10
-20.3557228115
 20
-12.4551827919
 10
-20.3685885302
 20
-12.4575639221
 10
-20.3815503048
 20
-12.4592675263
 10
-20.3945751992
 20
-12.4602907889
 10
-20.4076275392
 20
-12.4606321961
  0
LINE
  5
45A
100
AcDbEntity
  8
SMUSSO
100
AcDbLine
 62
7
  6
CONTINUOUS
 10
-12.153259936
 20
23.7849959699
 11
-11.653259936
 21
24.2849959699
  0
LINE
  5
45B
100
AcDbEntity
  8
ASSI
100
AcDbLine
 62
7
  6
CONTINUOUS
 10
-12.153259936
 20
23.7849959699
 11
-11.653259936
 21
24.2849959699
  0
LINE
  5
45C
100
AcDbEntity
  8
SMUSSO
100
AcDbLine
 62
7
  6
CONTINUOUS
 10
-7.153259936
 20
28.2849959699
 11
-7.653259936
 21
27.7849959699
  0
LINE
  5
45D
100
AcDbEntity
  8
ASSI
100
AcDbLine
 62
7
  6
CONTINUOUS
 10
-7.153259936
 20
28.2849959699
 11
-7.653259936
 21
27.7849959699
  0
LINE
  5
45E
100
AcDbEntity
  8
CURVE
100
AcDbLine
 62
253
  6
CONTINUOUS
 10
-1.603259936
 20
22.5635672656
 11
-2.903259936
 21
22.1921388713
  0
LINE
  5
45F
100
AcDbEntity
  8
RACCORDO
100
AcDbLine
 62
7
  6
CONTINUOUS
 10
-18.2614382341
 20
-8.5479283133
 11
-18.2614382341
 21
-7.9220221469
  0
LINE
  5
460
100
AcDbEntity
  8
RACCORDO
100
AcDbLine
 62
7
  6
CONTINUOUS
 10
-18.2614382341
 20
31.9920140867
 11
-18.2614382341
 21
32.6179202531
  0
LINE
  5
461
100
AcDbEntity
  8
DRAFT
100
AcDbLine
 62
7
  6
CONTINUOUS
 10
-18.1945331912
 20
32.0219056682
 11
-18.1945331912
 21
31.7349959699
  0
LINE
  5
462
100
AcDbEntity
  8
DRAFT
100
AcDbLine
 62
7
  6
CONTINUOUS
 10
-18.1945331912
 20
-7.6650040301
 11
-18.1945331912
 21
-7.9519137284
  0
LINE
  5
463
100
AcDbEntity
  8
CURVE
100
AcDbLine
 62
7
  6
CONTINUOUS
 10
-17.778259936
 20
21.4174399699
 11
-17.778259936
 21
22.8779399699
  0
LINE
  5
464
100
AcDbEntity
  8
ASSI
100
AcDbLine
 62
253
  6
CONTINUOUS
 10
-17.403259936
 20
-6.5650040301
 11
-17.403259936
 21
-6.1780943318
  0
LWPOLYLINE
  5
465
100
AcDbEntity
  8
ASSI
100
AcDbPolyline
 62
7
  6
CONTINUOUS
 90
17
 70
0
 10
-15.403259936
 20
35.7861382602
 10
-15.4035914806
 20
35.7834265486
 10
-15.4045995668
 20
35.7800449695
 10
-15.4063036852
 20
35.7759935227
 10
-15.4087240221
 20
35.7712853014
 10
-15.4118771022
 20
35.7659072125
 10
-15.4157713591
 20
35.7598199771
 10
-15.4204169981
 20
35.7530157315
 10
-15.425823938
 20
35.7455023394
 10
-15.4319911446
 20
35.7372641132
 10
-15.4389056197
 20
35.7283202282
 10
-15.4465821227
 20
35.718651509
 10
-15.4550671678
 20
35.7081847424
 10
-15.4643730297
 20
35.6969223815
 10
-15.4745041135
 20
35.6848619732
 10
-15.4855121349
 20
35.6719229445
 10
-15.4974105052
 20
35.6581030809
  0
LWPOLYLINE
  5
466
100
AcDbEntity
  8
RACCORDO
100
AcDbPolyline
 62
7
  6
CONTINUOUS
 90
5
 70
0
 10
-4.0123764623
 20
33.7941124962
 10
-4.0358953184
 20
33.7580649302
 10
-4.059879875
 20
33.7216417337
 10
-4.084330132
 20
33.6849139541
 10
-4.1093053791
 20
33.6479848543
  0
LINE
  5
467
100
AcDbEntity
  8
RACCORDO
100
AcDbLine
 62
7
  6
CONTINUOUS
 10
-5.547965168
 20
32.1179392916
 11
-5.6119866807
 21
32.0219056682
  0
LWPOLYLINE
  5
468
100
AcDbEntity
  8
RACCORDO
100
AcDbPolyline
 62
7
  6
CONTINUOUS
 90
3
 70
0
 10
-4.1093053791
 20
33.6479848543
 10
-4.1604751058
 20
33.5735862145
 10
-4.1864834375
 20
33.5361342344
  0
LINE
  5
469
100
AcDbEntity
  8
RACCORDO
100
AcDbLine
 62
7
  6
CONTINUOUS
 10
-4.1864834375
 20
33.5361342344
 11
-4.2657253151
 21
33.4231798571
  0
LINE
  5
46A
100
AcDbEntity
  8
RACCORDO
100
AcDbLine
 62
7
  6
CONTINUOUS
 10
-4.2657253151
 20
33.4231798571
 11
-4.3191592168
 21
33.3476892136
  0
LINE
  5
46B
100
AcDbEntity
  8
CURVE
100
AcDbLine
 62
253
  6
CONTINUOUS
 10
-2.7175456419
 20
23.4921388713
 11
-2.5318313479
 21
23.5849959699
  0
LINE
  5
46C
100
AcDbEntity
  8
CURVE
100
AcDbLine
 62
253
  6
CONTINUOUS
 10
-1.7889742106
 20
23.0278530685
 11
-1.9746884852
 21
22.9349959699
  0
LINE
  5
46D
100
AcDbEntity
  8
RACCORDO
100
AcDbLine
 62
7
  6
CONTINUOUS
 10
-4.3191592168
 20
-9.2776972738
 11
-4.2657253151
 21
-9.3531879173
  0
LINE
  5
46E
100
AcDbEntity
  8
RACCORDO
100
AcDbLine
 62
7
  6
CONTINUOUS
 10
-4.2657253151
 20
-9.3531879173
 11
-4.1864834375
 21
-9.4661422946
  0
LWPOLYLINE
  5
46F
100
AcDbEntity
  8
RACCORDO
100
AcDbPolyline
 62
7
  6
CONTINUOUS
 90
7
 70
0
 10
-4.1864834375
 20
-9.4661422946
 10
-4.1347463267
 20
-9.5408966468
 10
-4.1093053791
 20
-9.5779929145
 10
-4.084330132
 20
-9.6149220143
 10
-4.059879875
 20
-9.6516497939
 10
-4.0358953184
 20
-9.6880729904
 10
-4.0123764623
 20
-9.7241205564
  0
LINE
  5
470
100
AcDbEntity
  8
RACCORDO
100
AcDbLine
 62
7
  6
CONTINUOUS
 10
-5.547965168
 20
-8.0479473518
 11
-5.6119866807
 21
-7.9519137284
  0
LINE
  5
471
100
AcDbEntity
  8
CURVE
100
AcDbLine
 62
7
  6
CONTINUOUS
 10
-17.028259936
 20
22.8779399699
 11
-17.028259936
 21
21.4174399699
  0
LINE
  5
472
100
AcDbEntity
  8
ASSI
100
AcDbLine
 62
7
  6
CONTINUOUS
 10
-16.403259936
 20
-6.1780943318
 11
-16.403259936
 21
-6.5650040301
  0
LINE
  5
473
100
AcDbEntity
  8
DRAFT
100
AcDbLine
 62
7
  6
CONTINUOUS
 10
-16.303259936
 20
35.8349959699
 11
-16.303259936
 21
34.4349959699
  0
LINE
  5
474
100
AcDbEntity
  8
DRAFT
100
AcDbLine
 62
7
  6
CONTINUOUS
 10
-16.303259936
 20
-10.3650040301
 11
-16.303259936
 21
-11.7650040301
  0
LINE
  5
475
100
AcDbEntity
  8
ASSI
100
AcDbLine
 62
253
  6
CONTINUOUS
 10
-16.2591926687
 20
35.7857693946
 11
-16.2591926687
 21
34.3688941368
  0
LINE
  5
476
100
AcDbEntity
  8
ASSI
100
AcDbLine
 62
253
  6
CONTINUOUS
 10
-16.2591926687
 20
-10.298902197
 11
-16.2591926687
 21
-11.7157774548
  0
LINE
  5
477
100
AcDbEntity
  8
RACCORDO
100
AcDbLine
 62
7
  6
CONTINUOUS
 10
-15.9163502376
 20
31.3480976947
 11
-15.9163502376
 21
30.5480748485
  0
LINE
  5
478
100
AcDbEntity
  8
ASSI
100
AcDbLine
 62
7
  6
CONTINUOUS
 10
-15.9163502376
 20
31.3480976947
 11
-15.9163502376
 21
30.5480748485
  0
LINE
  5
479
100
AcDbEntity
  8
RACCORDO
100
AcDbLine
 62
7
  6
CONTINUOUS
 10
-15.9163502376
 20
-7.2781057549
 11
-15.9163502376
 21
-6.1780943318
  0
LINE
  5
47A
100
AcDbEntity
  8
ASSI
100
AcDbLine
 62
7
  6
CONTINUOUS
 10
-15.9163502376
 20
-7.2781057549
 11
-15.9163502376
 21
-6.1780943318
  0
LINE
  5
47B
100
AcDbEntity
  8
DRAFT
100
AcDbLine
 62
7
  6
CONTINUOUS
 10
-15.403259936
 20
32.0795029956
 11
-15.403259936
 21
32.0349959699
  0
LINE
  5
47C
100
AcDbEntity
  8
ASSI
100
AcDbLine
 62
7
  6
CONTINUOUS
 10
-15.403259936
 20
-10.2989239253
 11
-15.403259936
 21
-11.7591862003
  0
LINE
  5
47D
100
AcDbEntity
  8
DRAFT
100
AcDbLine
 62
7
  6
CONTINUOUS
 10
-15.403259936
 20
-8.0095110558
 11
-15.403259936
 21
-7.9650040301
  0
LINE
  5
47E
100
AcDbEntity
  8
0
100
AcDbLine
 62
7
  6
CONTINUOUS
 10
-15.403259936
 20
-7.8650040301
 11
-15.403259936
 21
-7.6650040301
  0
LINE
  5
47F
100
AcDbEntity
  8
DRAFT
100
AcDbLine
 62
7
  6
CONTINUOUS
 10
-15.403259936
 20
-7.8650040301
 11
-15.403259936
 21
-7.6650040301
  0
LINE
  5
480
100
AcDbEntity
  8
0
100
AcDbLine
 62
7
  6
CONTINUOUS
 10
-15.403259936
 20
31.7349959699
 11
-15.403259936
 21
31.9349959699
  0
LINE
  5
481
100
AcDbEntity
  8
DRAFT
100
AcDbLine
 62
7
  6
CONTINUOUS
 10
-15.403259936
 20
31.7349959699
 11
-15.403259936
 21
31.9349959699
  0
LINE
  5
482
100
AcDbEntity
  8
ASSI
100
AcDbLine
 62
7
  6
CONTINUOUS
 10
-15.403259936
 20
34.3689158651
 11
-15.403259936
 21
35.8291781401
  0
LINE
  5
483
100
AcDbEntity
  8
0
100
AcDbLine
 62
7
  6
CONTINUOUS
 10
-15.3666042996
 20
-7.8283483938
 11
-15.3666042996
 21
-7.6283483938
  0
LINE
  5
484
100
AcDbEntity
  8
DRAFT
100
AcDbLine
 62
7
  6
CONTINUOUS
 10
-15.3666042996
 20
-7.8283483938
 11
-15.3666042996
 21
-7.6283483938
  0
LINE
  5
485
100
AcDbEntity
  8
0
100
AcDbLine
 62
7
  6
CONTINUOUS
 10
-15.3666042996
 20
31.6983403336
 11
-15.3666042996
 21
31.8983403336
  0
LINE
  5
486
100
AcDbEntity
  8
DRAFT
100
AcDbLine
 62
7
  6
CONTINUOUS
 10
-15.3666042996
 20
31.6983403336
 11
-15.3666042996
 21
31.8983403336
  0
LINE
  5
487
100
AcDbEntity
  8
0
100
AcDbLine
 62
7
  6
CONTINUOUS
 10
-9.9126875883
 20
30.2666134684
 11
-9.922256452
 21
30.2349959699
  0
LINE
  5
488
100
AcDbEntity
  8
RACCORDO
100
AcDbLine
 62
7
  6
CONTINUOUS
 10
-9.9126875883
 20
30.2666134684
 11
-9.922256452
 21
30.2349959699
  0
LINE
  5
489
100
AcDbEntity
  8
SMUSSO
100
AcDbLine
 62
7
  6
CONTINUOUS
 10
-12.153259936
 20
18.7849959699
 11
-11.653259936
 21
19.2849959699
  0
LINE
  5
48A
100
AcDbEntity
  8
ASSI
100
AcDbLine
 62
7
  6
CONTINUOUS
 10
-12.153259936
 20
18.7849959699
 11
-11.653259936
 21
19.2849959699
  0
LINE
  5
48B
100
AcDbEntity
  8
SMUSSO
100
AcDbLine
 62
7
  6
CONTINUOUS
 10
-7.153259936
 20
23.2849959699
 11
-7.653259936
 21
22.7849959699
  0
LINE
  5
48C
100
AcDbEntity
  8
ASSI
100
AcDbLine
 62
7
  6
CONTINUOUS
 10
-7.153259936
 20
23.2849959699
 11
-7.653259936
 21
22.7849959699
  0
LINE
  5
48D
100
AcDbEntity
  8
SMUSSO
100
AcDbLine
 62
7
  6
CONTINUOUS
 10
-7.153259936
 20
8.5349959699
 11
-12.153259936
 21
8.5349959699
  0
LINE
  5
48E
100
AcDbEntity
  8
ASSI
100
AcDbLine
 62
7
  6
CONTINUOUS
 10
-7.153259936
 20
8.5349959699
 11
-12.153259936
 21
8.5349959699
  0
LINE
  5
48F
100
AcDbEntity
  8
0
100
AcDbLine
 62
253
  6
CONTINUOUS
 10
-13.4042681338
 20
-8.0171550223
 11
-13.4047841708
 21
-7.8494907097
  0
LINE
  5
490
100
AcDbEntity
  8
RACCORDO
100
AcDbLine
 62
7
  6
CONTINUOUS
 10
-14.903259936
 20
-10.3030432688
 11
-14.903259936
 21
-8.9650040301
  0
LINE
  5
491
100
AcDbEntity
  8
RACCORDO
100
AcDbLine
 62
7
  6
CONTINUOUS
 10
-14.903259936
 20
33.0349959699
 11
-14.903259936
 21
34.3730352086
  0
LINE
  5
492
100
AcDbEntity
  8
0
100
AcDbLine
 62
7
  6
CONTINUOUS
 10
-14.403259936
 20
-6.2650040301
 11
-14.403259936
 21
-4.5650040301
  0
LINE
  5
493
100
AcDbEntity
  8
ASSI
100
AcDbLine
 62
7
  6
CONTINUOUS
 10
-14.403259936
 20
-6.2650040301
 11
-14.403259936
 21
-4.5650040301
  0
LINE
  5
494
100
AcDbEntity
  8
0
100
AcDbLine
 62
7
  6
CONTINUOUS
 10
-14.403259936
 20
28.6349959699
 11
-14.403259936
 21
30.3349959699
  0
LINE
  5
495
100
AcDbEntity
  8
ASSI
100
AcDbLine
 62
7
  6
CONTINUOUS
 10
-14.403259936
 20
28.6349959699
 11
-14.403259936
 21
30.3349959699
  0
LINE
  5
496
100
AcDbEntity
  8
0
100
AcDbLine
 62
253
  6
CONTINUOUS
 10
-14.0497065454
 20
30.2675359866
 11
-14.0497065454
 21
30.3349959699
  0
LINE
  5
497
100
AcDbEntity
  8
RACCORDO
100
AcDbLine
 62
253
  6
CONTINUOUS
 10
-14.0497065454
 20
30.2675359866
 11
-14.0497065454
 21
30.3349959699
  0
LINE
  5
498
100
AcDbEntity
  8
0
100
AcDbLine
 62
7
  6
CONTINUOUS
 10
-14.003259936
 20
30.2349959699
 11
-14.003259936
 21
30.2671771719
  0
LINE
  5
499
100
AcDbEntity
  8
0
100
AcDbLine
 62
7
  6
CONTINUOUS
 10
-13.903259936
 20
30.2349959699
 11
-13.903259936
 21
30.2680445588
  0
LINE
  5
49A
100
AcDbEntity
  8
RACCORDO
100
AcDbLine
 62
7
  6
CONTINUOUS
 10
-13.903259936
 20
30.2349959699
 11
-13.903259936
 21
30.2680445588
  0
LINE
  5
49B
100
AcDbEntity
  8
RACCORDO
100
AcDbLine
 62
7
  6
CONTINUOUS
 10
-13.8858492467
 20
-6.2650040301
 11
-13.8858492467
 21
-6.1650040301
  0
LINE
  5
49C
100
AcDbEntity
  8
ASSI
100
AcDbLine
 62
7
  6
CONTINUOUS
 10
-13.8858492467
 20
-6.2650040301
 11
-13.8858492467
 21
-6.1650040301
  0
LINE
  5
49D
100
AcDbEntity
  8
RACCORDO
100
AcDbLine
 62
7
  6
CONTINUOUS
 10
-13.8072643903
 20
30.2349959699
 11
-13.8072643903
 21
30.3349959699
  0
LINE
  5
49E
100
AcDbEntity
  8
ASSI
100
AcDbLine
 62
7
  6
CONTINUOUS
 10
-13.8072643903
 20
30.2349959699
 11
-13.8072643903
 21
30.3349959699
  0
LINE
  5
49F
100
AcDbEntity
  8
0
100
AcDbLine
 62
253
  6
CONTINUOUS
 10
-13.603259936
 20
-5.2650040301
 11
-13.603259936
 21
-5.2150040301
  0
LINE
  5
4A0
100
AcDbEntity
  8
RACCORDO
100
AcDbLine
 62
253
  6
CONTINUOUS
 10
-13.603259936
 20
-5.2650040301
 11
-13.603259936
 21
-5.2150040301
  0
LINE
  5
4A1
100
AcDbEntity
  8
0
100
AcDbLine
 62
253
  6
CONTINUOUS
 10
-13.603259936
 20
29.2849959699
 11
-13.603259936
 21
29.3509638883
  0
LINE
  5
4A2
100
AcDbEntity
  8
RACCORDO
100
AcDbLine
 62
253
  6
CONTINUOUS
 10
-13.603259936
 20
29.2849959699
 11
-13.603259936
 21
29.3509638883
  0
LINE
  5
4A3
100
AcDbEntity
  8
0
100
AcDbLine
 62
253
  6
CONTINUOUS
 10
-13.4047841708
 20
31.9194826495
 11
-13.4042681338
 21
32.0871469621
  0
LWPOLYLINE
  5
4A4
100
AcDbEntity
  8
0
100
AcDbPolyline
 62
253
  6
CONTINUOUS
 90
5
 70
0
 10
-9.9077125741
 20
29.5389372519
 10
-9.9210134902
 20
29.4940588758
 10
-9.9428747604
 20
29.4517306395
 10
-9.9728000009
 20
29.4132095482
 10
-10.0099377452
 20
29.3798101408
  0
LWPOLYLINE
  5
4A5
100
AcDbEntity
  8
RACCORDO
100
AcDbPolyline
 62
253
  6
CONTINUOUS
 90
5
 70
0
 10
-9.9077125741
 20
29.5389372519
 10
-9.9210134902
 20
29.4940588758
 10
-9.9428747604
 20
29.4517306395
 10
-9.9728000009
 20
29.4132095482
 10
-10.0099377452
 20
29.3798101408
  0
LINE
  5
4A6
100
AcDbEntity
  8
DRAFT
100
AcDbLine
 62
7
  6
CONTINUOUS
 10
-21.553259936
 20
-8.8650040301
 11
-21.5270773386
 21
-8.7863923612
  0
LINE
  5
4A7
100
AcDbEntity
  8
CURVE
100
AcDbLine
 62
253
  6
CONTINUOUS
 10
-1.7889742106
 20
24.8849959699
 11
-1.603259936
 21
25.0707102445
  0
LINE
  5
4A8
100
AcDbEntity
  8
CURVE
100
AcDbLine
 62
253
  6
CONTINUOUS
 10
-2.3461170733
 20
23.9564245192
 11
-2.1604027599
 21
24.1421388713
  0
LINE
  5
4A9
100
AcDbEntity
  8
CURVE
100
AcDbLine
 62
253
  6
CONTINUOUS
 10
-2.903259936
 20
23.3064245192
 11
-2.7175456419
 21
23.4921388713
  0
LINE
  5
4AA
100
AcDbEntity
  8
CURVE
100
AcDbLine
 62
253
  6
CONTINUOUS
 10
-1.7889742106
 20
23.987376937
 11
-1.603259936
 21
24.1421388713
  0
LINE
  5
4AB
100
AcDbEntity
  8
RACCORDO
100
AcDbLine
 62
7
  6
CONTINUOUS
 10
-22.6163388141
 20
8.8849959699
 11
-21.703259936
 21
8.8849959699
  0
LINE
  5
4AC
100
AcDbEntity
  8
ASSI
100
AcDbLine
 62
7
  6
CONTINUOUS
 10
-22.6163388141
 20
8.8849959699
 11
-21.703259936
 21
8.8849959699
  0
LINE
  5
4AD
100
AcDbEntity
  8
SMUSSO
100
AcDbLine
 62
7
  6
CONTINUOUS
 10
-7.653259936
 20
9.0349959699
 11
-11.653259936
 21
9.0349959699
  0
LINE
  5
4AE
100
AcDbEntity
  8
ASSI
100
AcDbLine
 62
7
  6
CONTINUOUS
 10
-7.653259936
 20
9.0349959699
 11
-11.653259936
 21
9.0349959699
  0
LINE
  5
4AF
100
AcDbEntity
  8
0
100
AcDbLine
 62
7
  6
CONTINUOUS
 10
-11.303259936
 20
9.5349959699
 11
-8.303259936
 21
9.5349959699
  0
LINE
  5
4B0
100
AcDbEntity
  8
DRAFT
100
AcDbLine
 62
7
  6
CONTINUOUS
 10
-21.5270773386
 20
32.856384301
 11
-21.553259936
 21
32.9349959699
  0
LINE
  5
4B1
100
AcDbEntity
  8
0
100
AcDbLine
 62
253
  6
CONTINUOUS
 10
-9.9213521497
 20
-5.4232303953
 11
-9.90781761
 21
-5.4684093346
  0
LINE
  5
4B2
100
AcDbEntity
  8
RACCORDO
100
AcDbLine
 62
253
  6
CONTINUOUS
 10
-9.9213521497
 20
-5.4232303953
 11
-9.90781761
 21
-5.4684093346
  0
LINE
  5
4B3
100
AcDbEntity
  8
SMUSSO
100
AcDbLine
 62
7
  6
CONTINUOUS
 10
-12.153259936
 20
8.5349959699
 11
-12.153259936
 21
13.5349959699
  0
LINE
  5
4B4
100
AcDbEntity
  8
ASSI
100
AcDbLine
 62
7
  6
CONTINUOUS
 10
-12.153259936
 20
8.5349959699
 11
-12.153259936
 21
13.5349959699
  0
LINE
  5
4B5
100
AcDbEntity
  8
SMUSSO
100
AcDbLine
 62
7
  6
CONTINUOUS
 10
-12.153259936
 20
13.7849959699
 11
-12.153259936
 21
18.2849959699
  0
LINE
  5
4B6
100
AcDbEntity
  8
ASSI
100
AcDbLine
 62
7
  6
CONTINUOUS
 10
-12.153259936
 20
13.7849959699
 11
-12.153259936
 21
18.2849959699
  0
LINE
  5
4B7
100
AcDbEntity
  8
SMUSSO
100
AcDbLine
 62
7
  6
CONTINUOUS
 10
-12.153259936
 20
18.7849959699
 11
-12.153259936
 21
23.2849959699
  0
LINE
  5
4B8
100
AcDbEntity
  8
ASSI
100
AcDbLine
 62
7
  6
CONTINUOUS
 10
-12.153259936
 20
18.7849959699
 11
-12.153259936
 21
23.2849959699
  0
LINE
  5
4B9
100
AcDbEntity
  8
SMUSSO
100
AcDbLine
 62
7
  6
CONTINUOUS
 10
-12.153259936
 20
23.7849959699
 11
-12.153259936
 21
28.2849959699
  0
LINE
  5
4BA
100
AcDbEntity
  8
ASSI
100
AcDbLine
 62
7
  6
CONTINUOUS
 10
-12.153259936
 20
23.7849959699
 11
-12.153259936
 21
28.2849959699
  0
LWPOLYLINE
  5
4BB
100
AcDbEntity
  8
ASSI
100
AcDbPolyline
 62
7
  6
CONTINUOUS
 90
17
 70
0
 10
-16.2591926687
 20
-11.7157774548
 10
-16.2587657474
 20
-11.7129855256
 10
-16.2576676364
 20
-11.7095354474
 10
-16.2558813732
 20
-11.7054272203
 10
-16.25338995
 20
-11.7006735047
 10
-16.2501790932
 20
-11.6952616401
 10
-16.2462399631
 20
-11.6891536457
 10
-16.2415640084
 20
-11.6823450794
 10
-16.2361416999
 20
-11.6748403833
 10
-16.2299677573
 20
-11.6666149035
 10
-16.223052629
 20
-11.6576890227
 10
-16.2153806972
 20
-11.6480423584
 10
-16.2068979614
 20
-11.6375891081
 10
-16.1975838691
 20
-11.6263250042
 10
-16.1874358139
 20
-11.6142543144
 10
-16.1764106916
 20
-11.6013040405
 10
-16.1644976477
 20
-11.5874736365
  0
LINE
  5
4BC
100
AcDbEntity
  8
SMUSSO
100
AcDbLine
 62
7
  6
CONTINUOUS
 10
-12.153259936
 20
13.7849959699
 11
-11.653259936
 21
14.2849959699
  0
LINE
  5
4BD
100
AcDbEntity
  8
ASSI
100
AcDbLine
 62
7
  6
CONTINUOUS
 10
-12.153259936
 20
13.7849959699
 11
-11.653259936
 21
14.2849959699
  0
LINE
  5
4BE
100
AcDbEntity
  8
SMUSSO
100
AcDbLine
 62
7
  6
CONTINUOUS
 10
-7.153259936
 20
18.2849959699
 11
-7.653259936
 21
17.7849959699
  0
LINE
  5
4BF
100
AcDbEntity
  8
ASSI
100
AcDbLine
 62
7
  6
CONTINUOUS
 10
-7.153259936
 20
18.2849959699
 11
-7.653259936
 21
17.7849959699
  0
LINE
  5
4C0
100
AcDbEntity
  8
CURVE
100
AcDbLine
 62
253
  6
CONTINUOUS
 10
-4.003259936
 20
20.8564245251
 11
-4.2746884912
 21
20.5849959699
  0
LINE
  5
4C1
100
AcDbEntity
  8
CURVE
100
AcDbLine
 62
253
  6
CONTINUOUS
 10
-1.603259936
 20
23.2135674206
 11
-1.7889742106
 21
23.0278530685
  0
LINE
  5
4C2
100
AcDbEntity
  8
CURVE
100
AcDbLine
 62
253
  6
CONTINUOUS
 10
-2.7175456419
 20
17.3945198385
 11
-2.5318313479
 21
17.4873766271
  0
LINE
  5
4C3
100
AcDbEntity
  8
CURVE
100
AcDbLine
 62
253
  6
CONTINUOUS
 10
-4.003259936
 20
16.6349959699
 11
-5.903259936
 21
15.6849959699
  0
LINE
  5
4C4
100
AcDbEntity
  8
CURVE
100
AcDbLine
 62
253
  6
CONTINUOUS
 10
-1.7889742106
 20
16.9302340356
 11
-1.9746884852
 21
16.8373766271
  0
LINE
  5
4C5
100
AcDbEntity
  8
CURVE
100
AcDbLine
 62
253
  6
CONTINUOUS
 10
-5.6318313524
 20
10.5849959699
 11
-5.3604027688
 21
10.5849959699
  0
LINE
  5
4C6
100
AcDbEntity
  8
CURVE
100
AcDbLine
 62
253
  6
CONTINUOUS
 10
-4.5461170465
 20
11.5349959699
 11
-4.2746884912
 21
11.5349959699
  0
LINE
  5
4C7
100
AcDbEntity
  8
CURVE
100
AcDbLine
 62
253
  6
CONTINUOUS
 10
-1.903259936
 20
11.8474959699
 11
-1.965759936
 21
11.8474959699
  0
LINE
  5
4C8
100
AcDbEntity
  8
CURVE
100
AcDbLine
 62
253
  6
CONTINUOUS
 10
-2.778259936
 20
12.0349959699
 11
-2.965759936
 21
12.0349959699
  0
LINE
  5
4C9
100
AcDbEntity
  8
0
100
AcDbLine
 62
253
  6
CONTINUOUS
 10
-10.4022517381
 20
32.0871469621
 11
-10.4017357011
 21
31.9194826495
  0
LINE
  5
4CA
100
AcDbEntity
  8
SMUSSO
100
AcDbLine
 62
7
  6
CONTINUOUS
 10
-11.653259936
 20
9.0349959699
 11
-11.653259936
 21
13.0349959699
  0
LINE
  5
4CB
100
AcDbEntity
  8
ASSI
100
AcDbLine
 62
7
  6
CONTINUOUS
 10
-11.653259936
 20
9.0349959699
 11
-11.653259936
 21
13.0349959699
  0
LINE
  5
4CC
100
AcDbEntity
  8
SMUSSO
100
AcDbLine
 62
7
  6
CONTINUOUS
 10
-11.653259936
 20
14.2849959699
 11
-11.653259936
 21
17.7849959699
  0
LINE
  5
4CD
100
AcDbEntity
  8
ASSI
100
AcDbLine
 62
7
  6
CONTINUOUS
 10
-11.653259936
 20
14.2849959699
 11
-11.653259936
 21
17.7849959699
  0
LINE
  5
4CE
100
AcDbEntity
  8
SMUSSO
100
AcDbLine
 62
7
  6
CONTINUOUS
 10
-11.653259936
 20
19.2849959699
 11
-11.653259936
 21
22.7849959699
  0
LINE
  5
4CF
100
AcDbEntity
  8
ASSI
100
AcDbLine
 62
7
  6
CONTINUOUS
 10
-11.653259936
 20
19.2849959699
 11
-11.653259936
 21
22.7849959699
  0
LINE
  5
4D0
100
AcDbEntity
  8
SMUSSO
100
AcDbLine
 62
7
  6
CONTINUOUS
 10
-11.653259936
 20
24.2849959699
 11
-11.653259936
 21
27.7849959699
  0
LINE
  5
4D1
100
AcDbEntity
  8
ASSI
100
AcDbLine
 62
7
  6
CONTINUOUS
 10
-11.653259936
 20
24.2849959699
 11
-11.653259936
 21
27.7849959699
  0
LINE
  5
4D2
100
AcDbEntity
  8
0
100
AcDbLine
 62
7
  6
CONTINUOUS
 10
-11.303259936
 20
27.5349959699
 11
-11.303259936
 21
24.5349959699
  0
LINE
  5
4D3
100
AcDbEntity
  8
0
100
AcDbLine
 62
7
  6
CONTINUOUS
 10
-11.303259936
 20
22.5349959699
 11
-11.303259936
 21
19.5349959699
  0
LINE
  5
4D4
100
AcDbEntity
  8
0
100
AcDbLine
 62
7
  6
CONTINUOUS
 10
-11.303259936
 20
17.5349959699
 11
-11.303259936
 21
14.5349959699
  0
LINE
  5
4D5
100
AcDbEntity
  8
0
100
AcDbLine
 62
7
  6
CONTINUOUS
 10
-11.303259936
 20
12.5349959699
 11
-11.303259936
 21
9.5349959699
  0
LINE
  5
4D6
100
AcDbEntity
  8
0
100
AcDbLine
 62
253
  6
CONTINUOUS
 10
-10.203259936
 20
29.3509638883
 11
-10.203259936
 21
29.2849959699
  0
LINE
  5
4D7
100
AcDbEntity
  8
RACCORDO
100
AcDbLine
 62
253
  6
CONTINUOUS
 10
-10.203259936
 20
29.3509638883
 11
-10.203259936
 21
29.2849959699
  0
LINE
  5
4D8
100
AcDbEntity
  8
0
100
AcDbLine
 62
253
  6
CONTINUOUS
 10
-10.203259936
 20
-5.2650040301
 11
-10.203259936
 21
-5.2150040301
  0
LINE
  5
4D9
100
AcDbEntity
  8
RACCORDO
100
AcDbLine
 62
253
  6
CONTINUOUS
 10
-10.203259936
 20
-5.2650040301
 11
-10.203259936
 21
-5.2150040301
  0
LINE
  5
4DA
100
AcDbEntity
  8
RACCORDO
100
AcDbLine
 62
7
  6
CONTINUOUS
 10
-9.9992554817
 20
30.2349959699
 11
-9.9992554817
 21
30.3349959699
  0
LINE
  5
4DB
100
AcDbEntity
  8
ASSI
100
AcDbLine
 62
7
  6
CONTINUOUS
 10
-9.9992554817
 20
30.2349959699
 11
-9.9992554817
 21
30.3349959699
  0
LINE
  5
4DC
100
AcDbEntity
  8
RACCORDO
100
AcDbLine
 62
7
  6
CONTINUOUS
 10
-9.9206706252
 20
-6.2650040301
 11
-9.9206706252
 21
-6.1650040301
  0
LINE
  5
4DD
100
AcDbEntity
  8
ASSI
100
AcDbLine
 62
7
  6
CONTINUOUS
 10
-9.9206706252
 20
-6.2650040301
 11
-9.9206706252
 21
-6.1650040301
  0
LINE
  5
4DE
100
AcDbEntity
  8
0
100
AcDbLine
 62
7
  6
CONTINUOUS
 10
-9.903259936
 20
30.2680445588
 11
-9.903259936
 21
30.2349959699
  0
LINE
  5
4DF
100
AcDbEntity
  8
RACCORDO
100
AcDbLine
 62
7
  6
CONTINUOUS
 10
-9.903259936
 20
30.2680445588
 11
-9.903259936
 21
30.2349959699
  0
LINE
  5
4E0
100
AcDbEntity
  8
0
100
AcDbLine
 62
253
  6
CONTINUOUS
 10
-10.4017357011
 20
-7.8494907097
 11
-10.4022517381
 21
-8.0171550223
  0
LWPOLYLINE
  5
4E1
100
AcDbEntity
  8
ASSI
100
AcDbPolyline
 62
7
  6
CONTINUOUS
 90
18
 70
0
 10
-7.5473272032
 20
35.7857693946
 10
-7.5477533045
 20
35.7829839996
 10
-7.548850633
 20
35.7795341122
 10
-7.5506382217
 20
35.7754197324
 10
-7.5531357409
 20
35.7706538019
 10
-7.5563592825
 20
35.765223379
 10
-7.5603172531
 20
35.7590896388
 10
-7.5650195596
 20
35.752245502
 10
-7.5704761648
 20
35.744698048
 10
-7.5766873411
 20
35.7364296899
 10
-7.5836407626
 20
35.7274597288
 10
-7.5913515118
 20
35.7177688636
 10
-7.5998674877
 20
35.7072816036
 10
-7.6092028435
 20
35.69599854
 10
-7.6193614141
 20
35.6839190817
 10
-7.6303919709
 20
35.6709659644
 10
-7.6423068448
 20
35.6571374356
 10
-7.6551118347
 20
35.6424352478
  0
LINE
  5
4E2
100
AcDbEntity
  8
0
100
AcDbLine
 62
7
  6
CONTINUOUS
 10
-8.303259936
 20
12.5349959699
 11
-11.303259936
 21
12.5349959699
  0
LINE
  5
4E3
100
AcDbEntity
  8
SMUSSO
100
AcDbLine
 62
7
  6
CONTINUOUS
 10
-11.653259936
 20
13.0349959699
 11
-7.653259936
 21
13.0349959699
  0
LINE
  5
4E4
100
AcDbEntity
  8
ASSI
100
AcDbLine
 62
7
  6
CONTINUOUS
 10
-11.653259936
 20
13.0349959699
 11
-7.653259936
 21
13.0349959699
  0
LINE
  5
4E5
100
AcDbEntity
  8
RACCORDO
100
AcDbLine
 62
7
  6
CONTINUOUS
 10
-22.6163388141
 20
13.1849959699
 11
-21.703259936
 21
13.1849959699
  0
LINE
  5
4E6
100
AcDbEntity
  8
ASSI
100
AcDbLine
 62
7
  6
CONTINUOUS
 10
-22.6163388141
 20
13.1849959699
 11
-21.703259936
 21
13.1849959699
  0
LINE
  5
4E7
100
AcDbEntity
  8
SMUSSO
100
AcDbLine
 62
7
  6
CONTINUOUS
 10
-12.153259936
 20
13.5349959699
 11
-7.153259936
 21
13.5349959699
  0
LINE
  5
4E8
100
AcDbEntity
  8
ASSI
100
AcDbLine
 62
7
  6
CONTINUOUS
 10
-12.153259936
 20
13.5349959699
 11
-7.153259936
 21
13.5349959699
  0
LINE
  5
4E9
100
AcDbEntity
  8
SMUSSO
100
AcDbLine
 62
7
  6
CONTINUOUS
 10
-7.153259936
 20
13.7849959699
 11
-12.153259936
 21
13.7849959699
  0
LINE
  5
4EA
100
AcDbEntity
  8
ASSI
100
AcDbLine
 62
7
  6
CONTINUOUS
 10
-7.153259936
 20
13.7849959699
 11
-12.153259936
 21
13.7849959699
  0
LINE
  5
4EB
100
AcDbEntity
  8
RACCORDO
100
AcDbLine
 62
7
  6
CONTINUOUS
 10
-22.6163388141
 20
13.8849959699
 11
-21.703259936
 21
13.8849959699
  0
LINE
  5
4EC
100
AcDbEntity
  8
ASSI
100
AcDbLine
 62
7
  6
CONTINUOUS
 10
-22.6163388141
 20
13.8849959699
 11
-21.703259936
 21
13.8849959699
  0
LINE
  5
4ED
100
AcDbEntity
  8
SMUSSO
100
AcDbLine
 62
7
  6
CONTINUOUS
 10
-12.153259936
 20
13.5349959699
 11
-11.653259936
 21
13.0349959699
  0
LINE
  5
4EE
100
AcDbEntity
  8
ASSI
100
AcDbLine
 62
7
  6
CONTINUOUS
 10
-12.153259936
 20
13.5349959699
 11
-11.653259936
 21
13.0349959699
  0
LINE
  5
4EF
100
AcDbEntity
  8
SMUSSO
100
AcDbLine
 62
7
  6
CONTINUOUS
 10
-7.153259936
 20
8.5349959699
 11
-7.653259936
 21
9.0349959699
  0
LINE
  5
4F0
100
AcDbEntity
  8
ASSI
100
AcDbLine
 62
7
  6
CONTINUOUS
 10
-7.153259936
 20
8.5349959699
 11
-7.653259936
 21
9.0349959699
  0
LINE
  5
4F1
100
AcDbEntity
  8
0
100
AcDbLine
 62
7
  6
CONTINUOUS
 10
-9.803259936
 20
30.2349959699
 11
-9.803259936
 21
30.2671771719
  0
LINE
  5
4F2
100
AcDbEntity
  8
0
100
AcDbLine
 62
253
  6
CONTINUOUS
 10
-9.7568133265
 20
30.3349959699
 11
-9.7568133265
 21
30.2675359866
  0
LINE
  5
4F3
100
AcDbEntity
  8
RACCORDO
100
AcDbLine
 62
253
  6
CONTINUOUS
 10
-9.7568133265
 20
30.3349959699
 11
-9.7568133265
 21
30.2675359866
  0
LINE
  5
4F4
100
AcDbEntity
  8
0
100
AcDbLine
 62
7
  6
CONTINUOUS
 10
-9.403259936
 20
30.3349959699
 11
-9.403259936
 21
28.6349959699
  0
LINE
  5
4F5
100
AcDbEntity
  8
ASSI
100
AcDbLine
 62
7
  6
CONTINUOUS
 10
-9.403259936
 20
30.3349959699
 11
-9.403259936
 21
28.6349959699
  0
LINE
  5
4F6
100
AcDbEntity
  8
0
100
AcDbLine
 62
7
  6
CONTINUOUS
 10
-9.403259936
 20
-4.5650040301
 11
-9.403259936
 21
-6.2650040301
  0
LINE
  5
4F7
100
AcDbEntity
  8
ASSI
100
AcDbLine
 62
7
  6
CONTINUOUS
 10
-9.403259936
 20
-4.5650040301
 11
-9.403259936
 21
-6.2650040301
  0
LINE
  5
4F8
100
AcDbEntity
  8
RACCORDO
100
AcDbLine
 62
7
  6
CONTINUOUS
 10
-8.903259936
 20
-10.3030432688
 11
-8.903259936
 21
-8.9650040301
  0
LINE
  5
4F9
100
AcDbEntity
  8
RACCORDO
100
AcDbLine
 62
7
  6
CONTINUOUS
 10
-8.903259936
 20
33.0349959699
 11
-8.903259936
 21
34.3730352086
  0
LINE
  5
4FA
100
AcDbEntity
  8
0
100
AcDbLine
 62
7
  6
CONTINUOUS
 10
-8.4399155723
 20
-7.8283483938
 11
-8.4399155723
 21
-7.6283483938
  0
LINE
  5
4FB
100
AcDbEntity
  8
DRAFT
100
AcDbLine
 62
7
  6
CONTINUOUS
 10
-8.4399155723
 20
-7.8283483938
 11
-8.4399155723
 21
-7.6283483938
  0
LINE
  5
4FC
100
AcDbEntity
  8
0
100
AcDbLine
 62
7
  6
CONTINUOUS
 10
-8.4399155723
 20
31.6983403336
 11
-8.4399155723
 21
31.8983403336
  0
LINE
  5
4FD
100
AcDbEntity
  8
DRAFT
100
AcDbLine
 62
7
  6
CONTINUOUS
 10
-8.4399155723
 20
31.6983403336
 11
-8.4399155723
 21
31.8983403336
  0
LINE
  5
4FE
100
AcDbEntity
  8
DRAFT
100
AcDbLine
 62
7
  6
CONTINUOUS
 10
-8.403259936
 20
-7.9650040301
 11
-8.403259936
 21
-8.0095110558
  0
LINE
  5
4FF
100
AcDbEntity
  8
ASSI
100
AcDbLine
 62
7
  6
CONTINUOUS
 10
-8.403259936
 20
-10.2989239253
 11
-8.403259936
 21
-11.7591862003
  0
LINE
  5
500
100
AcDbEntity
  8
0
100
AcDbLine
 62
7
  6
CONTINUOUS
 10
-8.403259936
 20
-7.8650040301
 11
-8.403259936
 21
-7.6650040301
  0
LINE
  5
501
100
AcDbEntity
  8
DRAFT
100
AcDbLine
 62
7
  6
CONTINUOUS
 10
-8.403259936
 20
-7.8650040301
 11
-8.403259936
 21
-7.6650040301
  0
LINE
  5
502
100
AcDbEntity
  8
0
100
AcDbLine
 62
7
  6
CONTINUOUS
 10
-8.403259936
 20
31.7349959699
 11
-8.403259936
 21
31.9349959699
  0
LINE
  5
503
100
AcDbEntity
  8
DRAFT
100
AcDbLine
 62
7
  6
CONTINUOUS
 10
-8.403259936
 20
31.7349959699
 11
-8.403259936
 21
31.9349959699
  0
LINE
  5
504
100
AcDbEntity
  8
DRAFT
100
AcDbLine
 62
7
  6
CONTINUOUS
 10
-8.403259936
 20
32.0349959699
 11
-8.403259936
 21
32.0795029956
  0
LINE
  5
505
100
AcDbEntity
  8
ASSI
100
AcDbLine
 62
7
  6
CONTINUOUS
 10
-8.403259936
 20
34.3689158651
 11
-8.403259936
 21
35.8291781401
  0
LINE
  5
506
100
AcDbEntity
  8
0
100
AcDbLine
 62
7
  6
CONTINUOUS
 10
-8.303259936
 20
9.5349959699
 11
-8.303259936
 21
12.5349959699
  0
LINE
  5
507
100
AcDbEntity
  8
0
100
AcDbLine
 62
7
  6
CONTINUOUS
 10
-8.303259936
 20
14.5349959699
 11
-8.303259936
 21
17.5349959699
  0
LINE
  5
508
100
AcDbEntity
  8
0
100
AcDbLine
 62
7
  6
CONTINUOUS
 10
-8.303259936
 20
19.5349959699
 11
-8.303259936
 21
22.5349959699
  0
LINE
  5
509
100
AcDbEntity
  8
0
100
AcDbLine
 62
7
  6
CONTINUOUS
 10
-8.303259936
 20
24.5349959699
 11
-8.303259936
 21
27.5349959699
  0
LINE
  5
50A
100
AcDbEntity
  8
0
100
AcDbLine
 62
253
  6
CONTINUOUS
 10
-13.8976391927
 20
-5.4650040301
 11
-13.8855063817
 21
-5.424066936
  0
LINE
  5
50B
100
AcDbEntity
  8
RACCORDO
100
AcDbLine
 62
253
  6
CONTINUOUS
 10
-13.8976391927
 20
-5.4650040301
 11
-13.8855063817
 21
-5.424066936
  0
LINE
  5
50C
100
AcDbEntity
  8
DRAFT
100
AcDbLine
 62
7
  6
CONTINUOUS
 10
-2.2794425333
 20
32.856384301
 11
-2.253259936
 21
32.9349959699
  0
LINE
  5
50D
100
AcDbEntity
  8
CURVE
100
AcDbLine
 62
253
  6
CONTINUOUS
 10
-2.4080218315
 20
21.2326150028
 11
-2.5937361255
 21
20.9849959699
  0
LINE
  5
50E
100
AcDbEntity
  8
SMUSSO
100
AcDbLine
 62
7
  6
CONTINUOUS
 10
-7.153259936
 20
13.5349959699
 11
-7.653259936
 21
13.0349959699
  0
LINE
  5
50F
100
AcDbEntity
  8
ASSI
100
AcDbLine
 62
7
  6
CONTINUOUS
 10
-7.153259936
 20
13.5349959699
 11
-7.653259936
 21
13.0349959699
  0
LINE
  5
510
100
AcDbEntity
  8
SMUSSO
100
AcDbLine
 62
7
  6
CONTINUOUS
 10
-12.153259936
 20
8.5349959699
 11
-11.653259936
 21
9.0349959699
  0
LINE
  5
511
100
AcDbEntity
  8
ASSI
100
AcDbLine
 62
7
  6
CONTINUOUS
 10
-12.153259936
 20
8.5349959699
 11
-11.653259936
 21
9.0349959699
  0
LINE
  5
512
100
AcDbEntity
  8
CURVE
100
AcDbLine
 62
253
  6
CONTINUOUS
 10
-2.3461170733
 20
17.8588056413
 11
-2.1604027599
 21
18.0445198385
  0
LINE
  5
513
100
AcDbEntity
  8
CURVE
100
AcDbLine
 62
253
  6
CONTINUOUS
 10
-2.903259936
 20
17.2088056413
 11
-2.7175456419
 21
17.3945198385
  0
LINE
  5
514
100
AcDbEntity
  8
CURVE
100
AcDbLine
 62
253
  6
CONTINUOUS
 10
-1.603259936
 20
17.1159482328
 11
-1.7889742106
 21
16.9302340356
  0
LINE
  5
515
100
AcDbEntity
  8
CURVE
100
AcDbLine
 62
253
  6
CONTINUOUS
 10
-2.965759936
 20
12.0349959699
 11
-3.153259936
 21
11.9724959699
  0
LINE
  5
516
100
AcDbEntity
  8
SMUSSO
100
AcDbLine
 62
7
  6
CONTINUOUS
 10
-7.653259936
 20
14.2849959699
 11
-11.653259936
 21
14.2849959699
  0
LINE
  5
517
100
AcDbEntity
  8
ASSI
100
AcDbLine
 62
7
  6
CONTINUOUS
 10
-7.653259936
 20
14.2849959699
 11
-11.653259936
 21
14.2849959699
  0
LINE
  5
518
100
AcDbEntity
  8
0
100
AcDbLine
 62
7
  6
CONTINUOUS
 10
-11.303259936
 20
14.5349959699
 11
-8.303259936
 21
14.5349959699
  0
LINE
  5
519
100
AcDbEntity
  8
CURVE
100
AcDbLine
 62
253
  6
CONTINUOUS
 10
-5.903259936
 20
15.6849959699
 11
-4.003259936
 21
15.6849959699
  0
LINE
  5
51A
100
AcDbEntity
  8
CURVE
100
AcDbLine
 62
253
  6
CONTINUOUS
 10
-1.603259936
 20
15.8159482328
 11
-2.903259936
 21
15.8159482328
  0
LINE
  5
51B
100
AcDbEntity
  8
CURVE
100
AcDbLine
 62
253
  6
CONTINUOUS
 10
-2.590759936
 20
11.9724959699
 11
-2.778259936
 21
12.0349959699
  0
LINE
  5
51C
100
AcDbEntity
  8
CURVE
100
AcDbLine
 62
253
  6
CONTINUOUS
 10
-1.715759936
 20
11.7849959699
 11
-1.903259936
 21
11.8474959699
  0
LINE
  5
51D
100
AcDbEntity
  8
CURVE
100
AcDbLine
 62
253
  6
CONTINUOUS
 10
-5.903259936
 20
10.8564245251
 11
-5.6318313524
 21
10.5849959699
  0
LINE
  5
51E
100
AcDbEntity
  8
DRAFT
100
AcDbLine
 62
7
  6
CONTINUOUS
 10
-2.253259936
 20
-8.8650040301
 11
-2.2794425333
 21
-8.7863923612
  0
LINE
  5
51F
100
AcDbEntity
  8
0
100
AcDbLine
 62
7
  6
CONTINUOUS
 10
-13.8842713208
 20
30.2349959699
 11
-13.8938322836
 21
30.2666134684
  0
LINE
  5
520
100
AcDbEntity
  8
RACCORDO
100
AcDbLine
 62
7
  6
CONTINUOUS
 10
-13.8842713208
 20
30.2349959699
 11
-13.8938322836
 21
30.2666134684
  0
LWPOLYLINE
  5
521
100
AcDbEntity
  8
0
100
AcDbPolyline
 62
253
  6
CONTINUOUS
 90
5
 70
0
 10
-13.8976391927
 20
29.5349959699
 10
-13.8855063817
 20
29.4940588758
 10
-13.8636451115
 20
29.4517306395
 10
-13.833719871
 20
29.4132095482
 10
-13.7965821267
 20
29.3798101408
  0
LWPOLYLINE
  5
522
100
AcDbEntity
  8
RACCORDO
100
AcDbPolyline
 62
253
  6
CONTINUOUS
 90
5
 70
0
 10
-13.8976391927
 20
29.5349959699
 10
-13.8855063817
 20
29.4940588758
 10
-13.8636451115
 20
29.4517306395
 10
-13.833719871
 20
29.4132095482
 10
-13.7965821267
 20
29.3798101408
  0
LINE
  5
523
100
AcDbEntity
  8
SMUSSO
100
AcDbLine
 62
7
  6
CONTINUOUS
 10
-7.653259936
 20
27.7849959699
 11
-7.653259936
 21
24.2849959699
  0
LINE
  5
524
100
AcDbEntity
  8
ASSI
100
AcDbLine
 62
7
  6
CONTINUOUS
 10
-7.653259936
 20
27.7849959699
 11
-7.653259936
 21
24.2849959699
  0
LINE
  5
525
100
AcDbEntity
  8
SMUSSO
100
AcDbLine
 62
7
  6
CONTINUOUS
 10
-7.653259936
 20
22.7849959699
 11
-7.653259936
 21
19.2849959699
  0
LINE
  5
526
100
AcDbEntity
  8
ASSI
100
AcDbLine
 62
7
  6
CONTINUOUS
 10
-7.653259936
 20
22.7849959699
 11
-7.653259936
 21
19.2849959699
  0
LINE
  5
527
100
AcDbEntity
  8
SMUSSO
100
AcDbLine
 62
7
  6
CONTINUOUS
 10
-7.653259936
 20
17.7849959699
 11
-7.653259936
 21
14.2849959699
  0
LINE
  5
528
100
AcDbEntity
  8
ASSI
100
AcDbLine
 62
7
  6
CONTINUOUS
 10
-7.653259936
 20
17.7849959699
 11
-7.653259936
 21
14.2849959699
  0
LINE
  5
529
100
AcDbEntity
  8
SMUSSO
100
AcDbLine
 62
7
  6
CONTINUOUS
 10
-7.653259936
 20
13.0349959699
 11
-7.653259936
 21
9.0349959699
  0
LINE
  5
52A
100
AcDbEntity
  8
ASSI
100
AcDbLine
 62
7
  6
CONTINUOUS
 10
-7.653259936
 20
13.0349959699
 11
-7.653259936
 21
9.0349959699
  0
LINE
  5
52B
100
AcDbEntity
  8
ASSI
100
AcDbLine
 62
253
  6
CONTINUOUS
 10
-7.5473272032
 20
35.7857693946
 11
-7.5473272032
 21
34.3688941368
  0
LINE
  5
52C
100
AcDbEntity
  8
ASSI
100
AcDbLine
 62
253
  6
CONTINUOUS
 10
-7.5473272032
 20
-10.298902197
 11
-7.5473272032
 21
-11.7157774548
  0
LINE
  5
52D
100
AcDbEntity
  8
DRAFT
100
AcDbLine
 62
7
  6
CONTINUOUS
 10
-7.503259936
 20
-11.7650040301
 11
-7.503259936
 21
-10.3650040301
  0
LINE
  5
52E
100
AcDbEntity
  8
DRAFT
100
AcDbLine
 62
7
  6
CONTINUOUS
 10
-7.503259936
 20
34.4349959699
 11
-7.503259936
 21
35.8349959699
  0
LINE
  5
52F
100
AcDbEntity
  8
SMUSSO
100
AcDbLine
 62
7
  6
CONTINUOUS
 10
-7.153259936
 20
28.2849959699
 11
-7.153259936
 21
23.7849959699
  0
LINE
  5
530
100
AcDbEntity
  8
ASSI
100
AcDbLine
 62
7
  6
CONTINUOUS
 10
-7.153259936
 20
28.2849959699
 11
-7.153259936
 21
23.7849959699
  0
LINE
  5
531
100
AcDbEntity
  8
SMUSSO
100
AcDbLine
 62
7
  6
CONTINUOUS
 10
-7.153259936
 20
23.2849959699
 11
-7.153259936
 21
18.7849959699
  0
LINE
  5
532
100
AcDbEntity
  8
ASSI
100
AcDbLine
 62
7
  6
CONTINUOUS
 10
-7.153259936
 20
23.2849959699
 11
-7.153259936
 21
18.7849959699
  0
LINE
  5
533
100
AcDbEntity
  8
SMUSSO
100
AcDbLine
 62
7
  6
CONTINUOUS
 10
-7.153259936
 20
18.2849959699
 11
-7.153259936
 21
13.7849959699
  0
LINE
  5
534
100
AcDbEntity
  8
ASSI
100
AcDbLine
 62
7
  6
CONTINUOUS
 10
-7.153259936
 20
18.2849959699
 11
-7.153259936
 21
13.7849959699
  0
LINE
  5
535
100
AcDbEntity
  8
SMUSSO
100
AcDbLine
 62
7
  6
CONTINUOUS
 10
-7.153259936
 20
13.5349959699
 11
-7.153259936
 21
8.5349959699
  0
LINE
  5
536
100
AcDbEntity
  8
ASSI
100
AcDbLine
 62
7
  6
CONTINUOUS
 10
-7.153259936
 20
13.5349959699
 11
-7.153259936
 21
8.5349959699
  0
LWPOLYLINE
  5
537
100
AcDbEntity
  8
RACCORDO
100
AcDbPolyline
 62
7
  6
CONTINUOUS
 90
5
 70
0
 10
-19.7941434096
 20
-9.7241205564
 10
-19.7706245535
 20
-9.6880729904
 10
-19.7466399969
 20
-9.6516497939
 10
-19.7221897399
 20
-9.6149220143
 10
-19.6972144928
 20
-9.5779929145
  0
LINE
  5
538
100
AcDbEntity
  8
CURVE
100
AcDbLine
 62
253
  6
CONTINUOUS
 10
-5.7675456442
 20
11.5349959699
 11
-5.903259936
 21
11.3992816781
  0
LINE
  5
539
100
AcDbEntity
  8
CURVE
100
AcDbLine
 62
253
  6
CONTINUOUS
 10
-1.965759936
 20
11.8474959699
 11
-2.090759936
 21
11.7849959699
  0
LINE
  5
53A
100
AcDbEntity
  8
CURVE
100
AcDbLine
 62
253
  6
CONTINUOUS
 10
-2.903259936
 20
16.4659482328
 11
-1.603259936
 21
16.4659482328
  0
LINE
  5
53B
100
AcDbEntity
  8
CURVE
100
AcDbLine
 62
253
  6
CONTINUOUS
 10
-5.903259936
 20
16.6349959699
 11
-4.003259936
 21
16.6349959699
  0
LINE
  5
53C
100
AcDbEntity
  8
CURVE
100
AcDbLine
 62
253
  6
CONTINUOUS
 10
-1.9746884852
 20
16.8373766271
 11
-2.5318313479
 21
16.8373766271
  0
LINE
  5
53D
100
AcDbEntity
  8
CURVE
100
AcDbLine
 62
253
  6
CONTINUOUS
 10
-2.5318313479
 20
17.4873766271
 11
-1.9746884852
 21
17.4873766271
  0
LINE
  5
53E
100
AcDbEntity
  8
0
100
AcDbLine
 62
7
  6
CONTINUOUS
 10
-8.303259936
 20
17.5349959699
 11
-11.303259936
 21
17.5349959699
  0
LINE
  5
53F
100
AcDbEntity
  8
SMUSSO
100
AcDbLine
 62
7
  6
CONTINUOUS
 10
-12.153259936
 20
18.2849959699
 11
-11.653259936
 21
17.7849959699
  0
LINE
  5
540
100
AcDbEntity
  8
ASSI
100
AcDbLine
 62
7
  6
CONTINUOUS
 10
-12.153259936
 20
18.2849959699
 11
-11.653259936
 21
17.7849959699
  0
LINE
  5
541
100
AcDbEntity
  8
SMUSSO
100
AcDbLine
 62
7
  6
CONTINUOUS
 10
-7.153259936
 20
13.7849959699
 11
-7.653259936
 21
14.2849959699
  0
LINE
  5
542
100
AcDbEntity
  8
ASSI
100
AcDbLine
 62
7
  6
CONTINUOUS
 10
-7.153259936
 20
13.7849959699
 11
-7.653259936
 21
14.2849959699
  0
LINE
  5
543
100
AcDbEntity
  8
CURVE
100
AcDbLine
 62
253
  6
CONTINUOUS
 10
-4.2746884912
 20
11.5349959699
 11
-4.003259936
 21
11.2635673863
  0
LINE
  5
544
100
AcDbEntity
  8
CURVE
100
AcDbLine
 62
253
  6
CONTINUOUS
 10
-3.215759936
 20
10.9099959699
 11
-3.090759936
 21
10.7849959699
  0
LINE
  5
545
100
AcDbEntity
  8
CURVE
100
AcDbLine
 62
253
  6
CONTINUOUS
 10
-5.903259936
 20
26.3349959699
 11
-5.903259936
 21
25.6564245251
  0
LINE
  5
546
100
AcDbEntity
  8
CURVE
100
AcDbLine
 62
253
  6
CONTINUOUS
 10
-5.903259936
 20
11.3992816781
 11
-5.903259936
 21
10.8564245251
  0
LINE
  5
547
100
AcDbEntity
  8
DRAFT
100
AcDbLine
 62
7
  6
CONTINUOUS
 10
-5.6119866807
 20
-7.9519137284
 11
-5.6119866807
 21
-7.6650040301
  0
LINE
  5
548
100
AcDbEntity
  8
DRAFT
100
AcDbLine
 62
7
  6
CONTINUOUS
 10
-5.6119866807
 20
31.7349959699
 11
-5.6119866807
 21
32.0219056682
  0
LINE
  5
549
100
AcDbEntity
  8
RACCORDO
100
AcDbLine
 62
7
  6
CONTINUOUS
 10
-5.5450816378
 20
32.6179202531
 11
-5.5450816378
 21
31.9920140867
  0
LINE
  5
54A
100
AcDbEntity
  8
RACCORDO
100
AcDbLine
 62
7
  6
CONTINUOUS
 10
-5.5450816378
 20
-7.9220221469
 11
-5.5450816378
 21
-8.5479283133
  0
LINE
  5
54B
100
AcDbEntity
  8
CURVE
100
AcDbLine
 62
253
  6
CONTINUOUS
 10
-5.0889742136
 20
20.8564245251
 11
-5.0889742136
 21
21.5349959699
  0
LINE
  5
54C
100
AcDbEntity
  8
RACCORDO
100
AcDbLine
 62
7
  6
CONTINUOUS
 10
-4.6614382341
 20
33.0309915156
 11
-4.6614382341
 21
31.9920140867
  0
LINE
  5
54D
100
AcDbEntity
  8
RACCORDO
100
AcDbLine
 62
7
  6
CONTINUOUS
 10
-4.6614382341
 20
-7.9220221469
 11
-4.6614382341
 21
-8.9609995758
  0
LINE
  5
54E
100
AcDbEntity
  8
DRAFT
100
AcDbLine
 62
7
  6
CONTINUOUS
 10
-4.5945331912
 20
-7.6650040301
 11
-4.5945331912
 21
-8.7863923612
  0
LINE
  5
54F
100
AcDbEntity
  8
DRAFT
100
AcDbLine
 62
7
  6
CONTINUOUS
 10
-4.5945331912
 20
31.7349959699
 11
-4.5945331912
 21
32.856384301
  0
LINE
  5
550
100
AcDbEntity
  8
0
100
AcDbLine
 62
7
  6
CONTINUOUS
 10
-4.503259936
 20
32.8849959699
 11
-4.503259936
 21
31.7349959699
  0
LINE
  5
551
100
AcDbEntity
  8
DRAFT
100
AcDbLine
 62
7
  6
CONTINUOUS
 10
-4.503259936
 20
32.8849959699
 11
-4.503259936
 21
31.7349959699
  0
LINE
  5
552
100
AcDbEntity
  8
0
100
AcDbLine
 62
7
  6
CONTINUOUS
 10
-4.503259936
 20
-7.6650040301
 11
-4.503259936
 21
-8.8150040301
  0
LINE
  5
553
100
AcDbEntity
  8
DRAFT
100
AcDbLine
 62
7
  6
CONTINUOUS
 10
-4.503259936
 20
-7.6650040301
 11
-4.503259936
 21
-8.8150040301
  0
LWPOLYLINE
  5
554
100
AcDbEntity
  8
ASSI
100
AcDbPolyline
 62
7
  6
CONTINUOUS
 90
17
 70
0
 10
-8.403259936
 20
-11.7161463204
 10
-8.402927646
 20
-11.7134279413
 10
-8.4019187292
 20
-11.7100461102
 10
-8.4002158295
 20
-11.7060008269
 10
-8.3978014795
 20
-11.7013048526
 10
-8.3946610554
 20
-11.6959454262
 10
-8.3907857709
 20
-11.6898842648
 10
-8.386166794
 20
-11.6831161308
 10
-8.3807947026
 20
-11.6756462619
 10
-8.3746656376
 20
-11.6674520876
 10
-8.3677909407
 20
-11.6585541952
 10
-8.3601551924
 20
-11.6489319974
 10
-8.3517052035
 20
-11.6385011619
 10
-8.3424218259
 20
-11.62725893
 10
-8.3323020416
 20
-11.6152080604
 10
-8.321300114
 20
-11.6022724966
 10
-8.3094042182
 20
-11.5884513142
  0
LWPOLYLINE
  5
555
100
AcDbEntity
  8
0
100
AcDbPolyline
 62
253
  6
CONTINUOUS
 90
4
 70
0
 10
-13.8855063817
 20
-5.424066936
 10
-13.8636451115
 20
-5.3817386997
 10
-13.833719871
 20
-5.3432176084
 10
-13.7965821267
 20
-5.309818201
  0
LWPOLYLINE
  5
556
100
AcDbEntity
  8
RACCORDO
100
AcDbPolyline
 62
253
  6
CONTINUOUS
 90
4
 70
0
 10
-13.8855063817
 20
-5.424066936
 10
-13.8636451115
 20
-5.3817386997
 10
-13.833719871
 20
-5.3432176084
 10
-13.7965821267
 20
-5.309818201
  0
LINE
  5
557
100
AcDbEntity
  8
RACCORDO
100
AcDbLine
 62
7
  6
CONTINUOUS
 10
-18.2585547039
 20
-8.0479473518
 11
-18.1945331912
 21
-7.9519137284
  0
LWPOLYLINE
  5
558
100
AcDbEntity
  8
RACCORDO
100
AcDbPolyline
 62
7
  6
CONTINUOUS
 90
3
 70
0
 10
-19.6972144928
 20
-9.5779929145
 10
-19.6460447661
 20
-9.5035942747
 10
-19.6200364344
 20
-9.4661422946
  0
LINE
  5
559
100
AcDbEntity
  8
RACCORDO
100
AcDbLine
 62
7
  6
CONTINUOUS
 10
-19.6200364344
 20
-9.4661422946
 11
-19.5407945568
 21
-9.3531879173
  0
LINE
  5
55A
100
AcDbEntity
  8
RACCORDO
100
AcDbLine
 62
7
  6
CONTINUOUS
 10
-19.5407945568
 20
-9.3531879173
 11
-19.4873606551
 21
-9.2776972738
  0
LINE
  5
55B
100
AcDbEntity
  8
CURVE
100
AcDbLine
 62
253
  6
CONTINUOUS
 10
-5.3604027688
 20
10.5849959699
 11
-4.5461170465
 21
11.5349959699
  0
LINE
  5
55C
100
AcDbEntity
  8
CURVE
100
AcDbLine
 62
253
  6
CONTINUOUS
 10
-3.153259936
 20
11.9724959699
 11
-3.278259936
 21
11.8474959699
  0
LINE
  5
55D
100
AcDbEntity
  8
CURVE
100
AcDbLine
 62
253
  6
CONTINUOUS
 10
-4.003259936
 20
10.7207102475
 11
-4.1389742702
 21
10.5849959699
  0
LINE
  5
55E
100
AcDbEntity
  8
CURVE
100
AcDbLine
 62
253
  6
CONTINUOUS
 10
-2.090759936
 20
11.7849959699
 11
-2.153259936
 21
11.7224959699
  0
LINE
  5
55F
100
AcDbEntity
  8
SMUSSO
100
AcDbLine
 62
7
  6
CONTINUOUS
 10
-11.653259936
 20
17.7849959699
 11
-7.653259936
 21
17.7849959699
  0
LINE
  5
560
100
AcDbEntity
  8
ASSI
100
AcDbLine
 62
7
  6
CONTINUOUS
 10
-11.653259936
 20
17.7849959699
 11
-7.653259936
 21
17.7849959699
  0
LINE
  5
561
100
AcDbEntity
  8
CURVE
100
AcDbLine
 62
253
  6
CONTINUOUS
 10
-2.7175456419
 20
17.8588056413
 11
-2.3461170733
 21
17.8588056413
  0
LINE
  5
562
100
AcDbEntity
  8
RACCORDO
100
AcDbLine
 62
7
  6
CONTINUOUS
 10
-22.6163388141
 20
18.1849959699
 11
-21.703259936
 21
18.1849959699
  0
LINE
  5
563
100
AcDbEntity
  8
ASSI
100
AcDbLine
 62
7
  6
CONTINUOUS
 10
-22.6163388141
 20
18.1849959699
 11
-21.703259936
 21
18.1849959699
  0
LINE
  5
564
100
AcDbEntity
  8
SMUSSO
100
AcDbLine
 62
7
  6
CONTINUOUS
 10
-12.153259936
 20
18.2849959699
 11
-7.153259936
 21
18.2849959699
  0
LINE
  5
565
100
AcDbEntity
  8
ASSI
100
AcDbLine
 62
7
  6
CONTINUOUS
 10
-12.153259936
 20
18.2849959699
 11
-7.153259936
 21
18.2849959699
  0
LINE
  5
566
100
AcDbEntity
  8
CURVE
100
AcDbLine
 62
253
  6
CONTINUOUS
 10
-2.1604027599
 20
18.4159482328
 11
-1.603259936
 21
18.4159482328
  0
LINE
  5
567
100
AcDbEntity
  8
SMUSSO
100
AcDbLine
 62
7
  6
CONTINUOUS
 10
-7.153259936
 20
18.7849959699
 11
-12.153259936
 21
18.7849959699
  0
LINE
  5
568
100
AcDbEntity
  8
ASSI
100
AcDbLine
 62
7
  6
CONTINUOUS
 10
-7.153259936
 20
18.7849959699
 11
-12.153259936
 21
18.7849959699
  0
LINE
  5
569
100
AcDbEntity
  8
RACCORDO
100
AcDbLine
 62
7
  6
CONTINUOUS
 10
-22.6163388141
 20
18.8849959699
 11
-21.703259936
 21
18.8849959699
  0
LINE
  5
56A
100
AcDbEntity
  8
ASSI
100
AcDbLine
 62
7
  6
CONTINUOUS
 10
-22.6163388141
 20
18.8849959699
 11
-21.703259936
 21
18.8849959699
  0
LINE
  5
56B
100
AcDbEntity
  8
SMUSSO
100
AcDbLine
 62
7
  6
CONTINUOUS
 10
-7.653259936
 20
19.2849959699
 11
-11.653259936
 21
19.2849959699
  0
LINE
  5
56C
100
AcDbEntity
  8
ASSI
100
AcDbLine
 62
7
  6
CONTINUOUS
 10
-7.653259936
 20
19.2849959699
 11
-11.653259936
 21
19.2849959699
  0
LINE
  5
56D
100
AcDbEntity
  8
CURVE
100
AcDbLine
 62
253
  6
CONTINUOUS
 10
-2.465759936
 20
11.8474959699
 11
-2.590759936
 21
11.9724959699
  0
LINE
  5
56E
100
AcDbEntity
  8
CURVE
100
AcDbLine
 62
253
  6
CONTINUOUS
 10
-1.590759936
 20
11.6599959699
 11
-1.715759936
 21
11.7849959699
  0
LINE
  5
56F
100
AcDbEntity
  8
RACCORDO
100
AcDbLine
 62
7
  6
CONTINUOUS
 10
-19.4873606551
 20
33.3476892136
 11
-19.5407945568
 21
33.4231798571
  0
LINE
  5
570
100
AcDbEntity
  8
RACCORDO
100
AcDbLine
 62
7
  6
CONTINUOUS
 10
-19.5407945568
 20
33.4231798571
 11
-19.6200364344
 21
33.5361342344
  0
LWPOLYLINE
  5
571
100
AcDbEntity
  8
RACCORDO
100
AcDbPolyline
 62
7
  6
CONTINUOUS
 90
7
 70
0
 10
-19.6200364344
 20
33.5361342344
 10
-19.6717735452
 20
33.6108885866
 10
-19.6972144928
 20
33.6479848543
 10
-19.7221897399
 20
33.6849139541
 10
-19.7466399969
 20
33.7216417337
 10
-19.7706245535
 20
33.7580649302
 10
-19.7941434096
 20
33.7941124962
  0
LINE
  5
572
100
AcDbEntity
  8
RACCORDO
100
AcDbLine
 62
7
  6
CONTINUOUS
 10
-18.2585547039
 20
32.1179392916
 11
-18.1945331912
 21
32.0219056682
  0
LINE
  5
573
100
AcDbEntity
  8
CURVE
100
AcDbLine
 62
253
  6
CONTINUOUS
 10
-3.340759936
 20
11.0974959699
 11
-3.215759936
 21
10.9099959699
  0
LWPOLYLINE
  5
574
100
AcDbEntity
  8
RACCORDO
100
AcDbPolyline
 62
253
  6
CONTINUOUS
 90
31
 70
0
 10
-3.648888102
 20
35.8793335372
 10
-3.6485087475
 20
35.8680230295
 10
-3.6474476997
 20
35.8567434103
 10
-3.6457078564
 20
35.845525484
 10
-3.6432939711
 20
35.8343998952
 10
-3.6402126351
 20
35.8233970183
 10
-3.6364722534
 20
35.8125468756
 10
-3.632083027
 20
35.8018790794
 10
-3.6270569448
 20
35.7914227859
 10
-3.6214077485
 20
35.7812065867
 10
-3.6151508767
 20
35.7712583951
 10
-3.6083034111
 20
35.7616053645
 10
-3.600884047
 20
35.7522738484
 10
-3.5929130434
 20
35.7432893274
 10
-3.5844121719
 20
35.7346763419
 10
-3.5754046516
 20
35.7264584167
 10
-3.5659150878
 20
35.7186579985
 10
-3.5559693921
 20
35.7112963849
 10
-3.5455947126
 20
35.704393671
 10
-3.5348193601
 20
35.6979686974
 10
-3.5236727806
 20
35.6920390258
 10
-3.5121854663
 20
35.6866208746
 10
-3.5003888243
 20
35.6817290474
 10
-3.4883150435
 20
35.6773768828
 10
-3.4759970549
 20
35.6735762478
 10
-3.4634680226
 20
35.6703374107
 10
-3.4507626248
 20
35.6676693706
 10
-3.4379169734
 20
35.6655796113
 10
-3.4249666587
 20
35.6640736927
 10
-3.4119465948
 20
35.6631554467
 10
-3.3988923327
 20
35.6628271863
  0
LINE
  5
575
100
AcDbEntity
  8
RACCORDO
100
AcDbLine
 62
253
  6
CONTINUOUS
 10
-3.648888102
 20
-11.8093415974
 11
-3.653259936
 21
-11.3754891783
  0
LINE
  5
576
100
AcDbEntity
  8
RACCORDO
100
AcDbLine
 62
253
  6
CONTINUOUS
 10
-3.398165104
 20
-11.6650040301
 11
-3.4039829338
 21
-11.0876537609
  0
LINE
  5
577
100
AcDbEntity
  8
0
100
AcDbLine
 62
7
  6
CONTINUOUS
 10
-4.4666042996
 20
32.8849959699
 11
-4.4666042996
 21
31.6983403336
  0
LINE
  5
578
100
AcDbEntity
  8
DRAFT
100
AcDbLine
 62
7
  6
CONTINUOUS
 10
-4.4666042996
 20
32.8849959699
 11
-4.4666042996
 21
31.6983403336
  0
LINE
  5
579
100
AcDbEntity
  8
0
100
AcDbLine
 62
7
  6
CONTINUOUS
 10
-4.4666042996
 20
-7.6283483938
 11
-4.4666042996
 21
-8.8150040301
  0
LINE
  5
57A
100
AcDbEntity
  8
DRAFT
100
AcDbLine
 62
7
  6
CONTINUOUS
 10
-4.4666042996
 20
-7.6283483938
 11
-4.4666042996
 21
-8.8150040301
  0
LINE
  5
57B
100
AcDbEntity
  8
RACCORDO
100
AcDbLine
 62
253
  6
CONTINUOUS
 10
-4.3191592168
 20
-9.2776972738
 11
-4.3191592168
 21
-8.9609995758
  0
LINE
  5
57C
100
AcDbEntity
  8
RACCORDO
100
AcDbLine
 62
253
  6
CONTINUOUS
 10
-4.3191592168
 20
33.0309915156
 11
-4.3191592168
 21
33.3476892136
  0
LINE
  5
57D
100
AcDbEntity
  8
CURVE
100
AcDbLine
 62
253
  6
CONTINUOUS
 10
-4.003259936
 20
21.5349959699
 11
-4.003259936
 21
20.8564245251
  0
LINE
  5
57E
100
AcDbEntity
  8
CURVE
100
AcDbLine
 62
253
  6
CONTINUOUS
 10
-4.003259936
 20
11.2635673863
 11
-4.003259936
 21
10.7207102475
  0
LINE
  5
57F
100
AcDbEntity
  8
RACCORDO
100
AcDbLine
 62
253
  6
CONTINUOUS
 10
-3.8192353692
 20
-9.5309794634
 11
-3.8192353692
 21
-8.9567122943
  0
LINE
  5
580
100
AcDbEntity
  8
RACCORDO
100
AcDbLine
 62
253
  6
CONTINUOUS
 10
-3.8192353692
 20
33.0267042341
 11
-3.8192353692
 21
33.6009714032
  0
LINE
  5
581
100
AcDbEntity
  8
DRAFT
100
AcDbLine
 62
7
  6
CONTINUOUS
 10
-3.653259936
 20
33.4349959699
 11
-3.653259936
 21
32.9349959699
  0
LINE
  5
582
100
AcDbEntity
  8
DRAFT
100
AcDbLine
 62
7
  6
CONTINUOUS
 10
-3.653259936
 20
-8.8650040301
 11
-3.653259936
 21
-9.3650040301
  0
LINE
  5
583
100
AcDbEntity
  8
RACCORDO
100
AcDbLine
 62
7
  6
CONTINUOUS
 10
-3.653259936
 20
-12.2150082609
 11
-3.653259936
 21
-10.3650040301
  0
LINE
  5
584
100
AcDbEntity
  8
RACCORDO
100
AcDbLine
 62
7
  6
CONTINUOUS
 10
-3.653259936
 20
34.4349959699
 11
-3.653259936
 21
36.2850002007
  0
LINE
  5
585
100
AcDbEntity
  8
RACCORDO
100
AcDbLine
 62
253
  6
CONTINUOUS
 10
-3.648888102
 20
36.2806283667
 11
-3.648888102
 21
35.8793335372
  0
LINE
  5
586
100
AcDbEntity
  8
RACCORDO
100
AcDbLine
 62
253
  6
CONTINUOUS
 10
-3.648888102
 20
-11.8093415974
 11
-3.648888102
 21
-12.2106364269
  0
LINE
  5
587
100
AcDbEntity
  8
CURVE
100
AcDbLine
 62
253
  6
CONTINUOUS
 10
-3.403259936
 20
11.5349959699
 11
-3.403259936
 21
11.3474959699
  0
LINE
  5
588
100
AcDbEntity
  8
RACCORDO
100
AcDbLine
 62
253
  6
CONTINUOUS
 10
-3.3988923327
 20
-11.6650040301
 11
-3.3988923327
 21
-12.4606321961
  0
LINE
  5
589
100
AcDbEntity
  8
RACCORDO
100
AcDbLine
 62
253
  6
CONTINUOUS
 10
-3.3988923327
 20
35.6628271863
 11
-3.3988923327
 21
36.5306241359
  0
LINE
  5
58A
100
AcDbEntity
  8
CURVE
100
AcDbLine
 62
253
  6
CONTINUOUS
 10
-2.903259936
 20
24.5135674206
 11
-2.903259936
 21
24.0492816178
  0
LINE
  5
58B
100
AcDbEntity
  8
CURVE
100
AcDbLine
 62
253
  6
CONTINUOUS
 10
-2.903259936
 20
18.4159482328
 11
-2.903259936
 21
18.0445198385
  0
LINE
  5
58C
100
AcDbEntity
  8
CURVE
100
AcDbLine
 62
253
  6
CONTINUOUS
 10
-2.903259936
 20
15.4445198385
 11
-2.903259936
 21
14.8873766271
  0
LINE
  5
58D
100
AcDbEntity
  8
CURVE
100
AcDbLine
 62
253
  6
CONTINUOUS
 10
-2.903259936
 20
17.1159482328
 11
-2.903259936
 21
17.2088056413
  0
LINE
  5
58E
100
AcDbEntity
  8
CURVE
100
AcDbLine
 62
253
  6
CONTINUOUS
 10
-2.903259936
 20
23.2135674206
 11
-2.903259936
 21
23.3064245192
  0
LINE
  5
58F
100
AcDbEntity
  8
CURVE
100
AcDbLine
 62
253
  6
CONTINUOUS
 10
-2.903259936
 20
24.8849959699
 11
-2.903259936
 21
25.5349959699
  0
LINE
  5
590
100
AcDbEntity
  8
RACCORDO
100
AcDbLine
 62
253
  6
CONTINUOUS
 10
-3.653259936
 20
35.4454811181
 11
-3.648888102
 21
35.8793335372
  0
LINE
  5
591
100
AcDbEntity
  8
RACCORDO
100
AcDbLine
 62
253
  6
CONTINUOUS
 10
-3.4039829338
 20
35.1576457007
 11
-3.3988923327
 21
35.6628271863
  0
LWPOLYLINE
  5
592
100
AcDbEntity
  8
RACCORDO
100
AcDbPolyline
 62
7
  6
CONTINUOUS
 90
34
 70
0
 10
-3.653259936
 20
36.2850002007
 10
-3.6529767857
 20
36.2968954859
 10
-3.6521279702
 20
36.3087638255
 10
-3.6507154101
 20
36.320578336
 10
-3.6487423037
 20
36.3323122574
 10
-3.6462131177
 20
36.3439390087
 10
-3.6431335777
 20
36.3554322489
 10
-3.6395106573
 20
36.3667659437
 10
-3.6353525617
 20
36.3779144192
 10
-3.6306687081
 20
36.3888524162
 10
-3.6254697048
 20
36.3995551575
 10
-3.6197673276
 20
36.4099983982
 10
-3.6135744941
 20
36.4201584758
 10
-3.6069052314
 20
36.430012375
 10
-3.5997746467
 20
36.4395377737
 10
-3.5921988948
 20
36.448713089
 10
-3.5841951364
 20
36.457517536
 10
-3.575781502
 20
36.4659311704
 10
-3.566977055
 20
36.4739349288
 10
-3.5578017398
 20
36.4815106806
 10
-3.5482763411
 20
36.4886412654
 10
-3.5384224419
 20
36.495310528
 10
-3.5282623642
 20
36.5015033615
 10
-3.5178191235
 20
36.5072057387
 10
-3.5071163823
 20
36.5124047421
 10
-3.4961783852
 20
36.5170885957
 10
-3.4850299097
 20
36.5212466912
 10
-3.473696215
 20
36.5248696116
 10
-3.4622029748
 20
36.5279491516
 10
-3.4505762234
 20
36.5304783376
 10
-3.4388423021
 20
36.532451444
 10
-3.4270277915
 20
36.5338640041
 10
-3.415159452
 20
36.5347128197
 10
-3.4032641667
 20
36.5349959699
  0
LWPOLYLINE
  5
593
100
AcDbEntity
  8
RACCORDO
100
AcDbPolyline
 62
253
  6
CONTINUOUS
 90
31
 70
0
 10
-3.648888102
 20
36.2806283667
 10
-3.648544913
 20
36.2937147208
 10
-3.64751717
 20
36.3067652191
 10
-3.6458076868
 20
36.3197440766
 10
-3.6434211441
 20
36.3326157162
 10
-3.6403640829
 20
36.3453448301
 10
-3.6366448934
 20
36.3578964776
 10
-3.6322737784
 20
36.3702362337
 10
-3.6272627229
 20
36.3823302709
 10
-3.6216254746
 20
36.3941454166
 10
-3.6153774954
 20
36.4056492724
 10
-3.6085359197
 20
36.4168102983
 10
-3.6011195128
 20
36.4275978886
 10
-3.5931486046
 20
36.4379824779
 10
-3.5846450631
 20
36.4479355813
 10
-3.575632244
 20
36.4574298745
 10
-3.5661349095
 20
36.4664392963
 10
-3.5561790724
 20
36.4749391932
 10
-3.5457919465
 20
36.4829063355
 10
-3.5350018673
 20
36.4903189655
 10
-3.5238385489
 20
36.4971566473
 10
-3.5123329485
 20
36.503400449
 10
-3.5005168702
 20
36.5090331976
 10
-3.4884225141
 20
36.5140396275
 10
-3.4760827102
 20
36.5184061786
 10
-3.4635285256
 20
36.5221216183
 10
-3.4507970604
 20
36.5251747317
 10
-3.4379313417
 20
36.5275558619
 10
-3.4249695671
 20
36.5292594661
 10
-3.4119446727
 20
36.5302827287
 10
-3.3988923327
 20
36.5306241359
  0
LINE
  5
594
100
AcDbEntity
  8
CURVE
100
AcDbLine
 62
253
  6
CONTINUOUS
 10
-3.340759936
 20
11.7224959699
 11
-3.403259936
 21
11.5349959699
  0
LINE
  5
595
100
AcDbEntity
  8
CURVE
100
AcDbLine
 62
253
  6
CONTINUOUS
 10
-3.278259936
 20
11.8474959699
 11
-3.340759936
 21
11.7224959699
  0
LINE
  5
596
100
AcDbEntity
  8
CURVE
100
AcDbLine
 62
253
  6
CONTINUOUS
 10
-2.153259936
 20
11.7224959699
 11
-2.215759936
 21
11.5974959699
  0
LINE
  5
597
100
AcDbEntity
  8
DRAFT
100
AcDbLine
 62
7
  6
CONTINUOUS
 10
-16.303259936
 20
-10.3650040301
 11
-16.2591926687
 21
-10.298902197
  0
LINE
  5
598
100
AcDbEntity
  8
0
100
AcDbLine
 62
7
  6
CONTINUOUS
 10
-11.303259936
 20
19.5349959699
 11
-8.303259936
 21
19.5349959699
  0
LINE
  5
599
100
AcDbEntity
  8
CURVE
100
AcDbLine
 62
253
  6
CONTINUOUS
 10
-4.2746884912
 20
20.5849959699
 11
-4.8175456017
 21
20.5849959699
  0
LINE
  5
59A
100
AcDbEntity
  8
CURVE
100
AcDbLine
 62
7
  6
CONTINUOUS
 10
-14.855219936
 20
21.0174399699
 11
-15.606039936
 21
21.0174399699
  0
LINE
  5
59B
100
AcDbEntity
  8
CURVE
100
AcDbLine
 62
7
  6
CONTINUOUS
 10
-19.200479936
 20
21.0174399699
 11
-19.951299936
 21
21.0174399699
  0
LINE
  5
59C
100
AcDbEntity
  8
CURVE
100
AcDbLine
 62
253
  6
CONTINUOUS
 10
-2.5318313479
 20
16.8373766271
 11
-2.7175456419
 21
16.9302340356
  0
LINE
  5
59D
100
AcDbEntity
  8
CURVE
100
AcDbLine
 62
253
  6
CONTINUOUS
 10
-1.9746884852
 20
14.8873766271
 11
-2.903259936
 21
15.4445198385
  0
LINE
  5
59E
100
AcDbEntity
  8
SMUSSO
100
AcDbLine
 62
7
  6
CONTINUOUS
 10
-12.153259936
 20
23.2849959699
 11
-11.653259936
 21
22.7849959699
  0
LINE
  5
59F
100
AcDbEntity
  8
ASSI
100
AcDbLine
 62
7
  6
CONTINUOUS
 10
-12.153259936
 20
23.2849959699
 11
-11.653259936
 21
22.7849959699
  0
LINE
  5
5A0
100
AcDbEntity
  8
SMUSSO
100
AcDbLine
 62
7
  6
CONTINUOUS
 10
-7.153259936
 20
18.7849959699
 11
-7.653259936
 21
19.2849959699
  0
LINE
  5
5A1
100
AcDbEntity
  8
ASSI
100
AcDbLine
 62
7
  6
CONTINUOUS
 10
-7.153259936
 20
18.7849959699
 11
-7.653259936
 21
19.2849959699
  0
LINE
  5
5A2
100
AcDbEntity
  8
DRAFT
100
AcDbLine
 62
7
  6
CONTINUOUS
 10
-16.303259936
 20
34.4349959699
 11
-16.2591926687
 21
34.3688941368
  0
LINE
  5
5A3
100
AcDbEntity
  8
CURVE
100
AcDbLine
 62
253
  6
CONTINUOUS
 10
-2.340759936
 20
11.5974959699
 11
-2.465759936
 21
11.8474959699
  0
LINE
  5
5A4
100
AcDbEntity
  8
CURVE
100
AcDbLine
 62
253
  6
CONTINUOUS
 10
-3.403259936
 20
11.3474959699
 11
-3.340759936
 21
11.0974959699
  0
LINE
  5
5A5
100
AcDbEntity
  8
CURVE
100
AcDbLine
 62
253
  6
CONTINUOUS
 10
-2.278259936
 20
11.3474959699
 11
-2.340759936
 21
11.5974959699
  0
LINE
  5
5A6
100
AcDbEntity
  8
RACCORDO
100
AcDbLine
 62
253
  6
CONTINUOUS
 10
-1.5076275392
 20
35.6628271863
 11
-1.5025369381
 21
35.1576457007
  0
LINE
  5
5A7
100
AcDbEntity
  8
RACCORDO
100
AcDbLine
 62
253
  6
CONTINUOUS
 10
-1.25763177
 20
35.8793335372
 11
-1.253259936
 21
35.4454811181
  0
LINE
  5
5A8
100
AcDbEntity
  8
DRAFT
100
AcDbLine
 62
7
  6
CONTINUOUS
 10
-2.2794425333
 20
32.856384301
 11
-2.2794425333
 21
32.0611785673
  0
LINE
  5
5A9
100
AcDbEntity
  8
DRAFT
100
AcDbLine
 62
7
  6
CONTINUOUS
 10
-2.2794425333
 20
-7.9911866275
 11
-2.2794425333
 21
-8.7863923612
  0
LINE
  5
5AA
100
AcDbEntity
  8
CURVE
100
AcDbLine
 62
253
  6
CONTINUOUS
 10
-2.278259936
 20
11.4099959699
 11
-2.278259936
 21
11.3474959699
  0
LINE
  5
5AB
100
AcDbEntity
  8
DRAFT
100
AcDbLine
 62
7
  6
CONTINUOUS
 10
-2.253259936
 20
32.9349959699
 11
-2.253259936
 21
32.0349959699
  0
LINE
  5
5AC
100
AcDbEntity
  8
DRAFT
100
AcDbLine
 62
7
  6
CONTINUOUS
 10
-2.253259936
 20
-7.9650040301
 11
-2.253259936
 21
-8.8650040301
  0
LINE
  5
5AD
100
AcDbEntity
  8
CURVE
100
AcDbLine
 62
253
  6
CONTINUOUS
 10
-2.1604027599
 20
16.4659482328
 11
-2.1604027599
 21
15.8159482328
  0
LINE
  5
5AE
100
AcDbEntity
  8
CURVE
100
AcDbLine
 62
253
  6
CONTINUOUS
 10
-2.1604027599
 20
18.0445198385
 11
-2.1604027599
 21
18.4159482328
  0
LINE
  5
5AF
100
AcDbEntity
  8
CURVE
100
AcDbLine
 62
253
  6
CONTINUOUS
 10
-2.1604027599
 20
24.1421388713
 11
-2.1604027599
 21
24.327853146
  0
LINE
  5
5B0
100
AcDbEntity
  8
RACCORDO
100
AcDbLine
 62
7
  6
CONTINUOUS
 10
-2.1058779963
 20
-7.4913119048
 11
-2.1058779963
 21
-7.5676223724
  0
LINE
  5
5B1
100
AcDbEntity
  8
ASSI
100
AcDbLine
 62
7
  6
CONTINUOUS
 10
-2.1058779963
 20
-7.4913119048
 11
-2.1058779963
 21
-7.5676223724
  0
LINE
  5
5B2
100
AcDbEntity
  8
CURVE
100
AcDbLine
 62
253
  6
CONTINUOUS
 10
-1.9746884852
 20
15.4445198385
 11
-1.9746884852
 21
14.8873766271
  0
LINE
  5
5B3
100
AcDbEntity
  8
CURVE
100
AcDbLine
 62
253
  6
CONTINUOUS
 10
-1.603259936
 20
23.3064245192
 11
-1.603259936
 21
23.2135674206
  0
LINE
  5
5B4
100
AcDbEntity
  8
CURVE
100
AcDbLine
 62
253
  6
CONTINUOUS
 10
-1.603259936
 20
18.4159482328
 11
-1.603259936
 21
17.8588056413
  0
LINE
  5
5B5
100
AcDbEntity
  8
CURVE
100
AcDbLine
 62
253
  6
CONTINUOUS
 10
-1.603259936
 20
17.2088056413
 11
-1.603259936
 21
17.1159482328
  0
LINE
  5
5B6
100
AcDbEntity
  8
CURVE
100
AcDbLine
 62
253
  6
CONTINUOUS
 10
-1.603259936
 20
24.1421388713
 11
-1.603259936
 21
24.5135674206
  0
LINE
  5
5B7
100
AcDbEntity
  8
CURVE
100
AcDbLine
 62
253
  6
CONTINUOUS
 10
-1.603259936
 20
25.0707102445
 11
-1.603259936
 21
25.3492816759
  0
LINE
  5
5B8
100
AcDbEntity
  8
CURVE
100
AcDbLine
 62
253
  6
CONTINUOUS
 10
-1.528259936
 20
11.3474959699
 11
-1.528259936
 21
11.4724959699
  0
LINE
  5
5B9
100
AcDbEntity
  8
RACCORDO
100
AcDbLine
 62
253
  6
CONTINUOUS
 10
-1.5076275392
 20
-12.4606321961
 11
-1.5076275392
 21
-11.6650040301
  0
LINE
  5
5BA
100
AcDbEntity
  8
RACCORDO
100
AcDbLine
 62
253
  6
CONTINUOUS
 10
-1.5076275392
 20
35.6628271863
 11
-1.5076275392
 21
36.5306241359
  0
LINE
  5
5BB
100
AcDbEntity
  8
RACCORDO
100
AcDbLine
 62
253
  6
CONTINUOUS
 10
-1.25763177
 20
-12.2106364269
 11
-1.25763177
 21
-11.8093415974
  0
LINE
  5
5BC
100
AcDbEntity
  8
RACCORDO
100
AcDbLine
 62
253
  6
CONTINUOUS
 10
-1.25763177
 20
35.8793335372
 11
-1.25763177
 21
36.2806283667
  0
LINE
  5
5BD
100
AcDbEntity
  8
RACCORDO
100
AcDbLine
 62
7
  6
CONTINUOUS
 10
-1.253259936
 20
-12.2150082609
 11
-1.253259936
 21
-10.3650040301
  0
LINE
  5
5BE
100
AcDbEntity
  8
RACCORDO
100
AcDbLine
 62
7
  6
CONTINUOUS
 10
-1.253259936
 20
34.4349959699
 11
-1.253259936
 21
36.2850002007
  0
LINE
  5
5BF
100
AcDbEntity
  8
RACCORDO
100
AcDbLine
 62
253
  6
CONTINUOUS
 10
-1.5025369381
 20
-11.0876537609
 11
-1.5083547679
 21
-11.6650040301
  0
LINE
  5
5C0
100
AcDbEntity
  8
RACCORDO
100
AcDbLine
 62
253
  6
CONTINUOUS
 10
-1.253259936
 20
-11.3754891783
 11
-1.25763177
 21
-11.8093415974
  0
LWPOLYLINE
  5
5C1
100
AcDbEntity
  8
RACCORDO
100
AcDbPolyline
 62
253
  6
CONTINUOUS
 90
31
 70
0
 10
-1.25763177
 20
35.8793335372
 10
-1.2580103256
 20
35.8680355649
 10
-1.2590694532
 20
35.8567652609
 10
-1.2608068297
 20
35.8455533911
 10
-1.2632185311
 20
35.834429582
 10
-1.2662984013
 20
35.8234253299
 10
-1.2700374523
 20
35.8125737901
 10
-1.2744249967
 20
35.8019056671
 10
-1.2794493957
 20
35.7914489938
 10
-1.2850970763
 20
35.7812320749
 10
-1.2913527689
 20
35.7712826698
 10
-1.2981993435
 20
35.7616281453
 10
-1.3056179518
 20
35.7522951218
 10
-1.3135882558
 20
35.7433091717
 10
-1.3220885506
 20
35.7346947525
 10
-1.3310956411
 20
35.7264753741
 10
-1.3405849447
 20
35.7186734774
 10
-1.3505305319
 20
35.7113103892
 10
-1.3609052147
 20
35.7044062403
 10
-1.3716806471
 20
35.6979798938
 10
-1.3828274051
 20
35.6920488968
 10
-1.3943150422
 20
35.6866294495
 10
-1.4061121989
 20
35.6817363475
 10
-1.4181866354
 20
35.6773829644
 10
-1.430505315
 20
35.673581207
 10
-1.4430345503
 20
35.6703414606
 10
-1.4557401532
 20
35.6676725541
 10
-1.468587474
 20
35.6655817617
 10
-1.4815414412
 20
35.6640747918
 10
-1.494566655
 20
35.6631557634
 10
-1.5076275392
 20
35.6628271863
  0
LWPOLYLINE
  5
5C2
100
AcDbEntity
  8
RACCORDO
100
AcDbPolyline
 62
7
  6
CONTINUOUS
 90
34
 70
0
 10
-3.648888102
 20
-11.8093415974
 10
-3.6485903756
 20
-11.8031000183
 10
-3.6478191242
 20
-11.7968269072
 10
-3.6465687614
 20
-11.7905404912
 10
-3.6448347142
 20
-11.7842664591
 10
-3.6426132714
 20
-11.7780169208
 10
-3.6399012514
 20
-11.7717904368
 10
-3.6366967546
 20
-11.7656074994
 10
-3.63299883
 20
-11.7594878692
 10
-3.628806579
 20
-11.7534297127
 10
-3.6241210948
 20
-11.7474545359
 10
-3.6189444529
 20
-11.7415831283
 10
-3.6132780821
 20
-11.7358133064
 10
-3.6071262983
 20
-11.7301673254
 10
-3.6004945159
 20
-11.7246668323
 10
-3.5933867131
 20
-11.7193094966
 10
-3.5858107175
 20
-11.7141180443
 10
-3.5777756355
 20
-11.7091147355
 10
-3.56928841
 20
-11.7042973215
 10
-3.5603607005
 20
-11.6996886281
 10
-3.5510057218
 20
-11.6953112192
 10
-3.5412340472
 20
-11.6911631713
 10
-3.5310615359
 20
-11.6872669123
 10
-3.5205059489
 20
-11.6836448695
 10
-3.509582348
 20
-11.6802956333
 10
-3.4983112905
 20
-11.6772406002
 10
-3.486715366
 20
-11.674501394
 10
-3.4748146683
 20
-11.6720771125
 10
-3.4626478406
 20
-11.6699903118
 10
-3.4502297857
 20
-11.6682568529
 10
-3.4375457916
 20
-11.6668707318
 10
-3.424611081
 20
-11.6658476498
 10
-3.4114725795
 20
-11.66521846
 10
-3.398165104
 20
-11.6650040301
  0
LINE
  5
5C3
100
AcDbEntity
  8
DRAFT
100
AcDbLine
 62
7
  6
CONTINUOUS
 10
-4.6044222613
 20
-8.8754744105
 11
-4.5945331912
 21
-8.7863923612
  0
LINE
  5
5C4
100
AcDbEntity
  8
CURVE
100
AcDbLine
 62
253
  6
CONTINUOUS
 10
-1.590759936
 20
11.0974959699
 11
-1.528259936
 21
11.3474959699
  0
LINE
  5
5C5
100
AcDbEntity
  8
CURVE
100
AcDbLine
 62
253
  6
CONTINUOUS
 10
-2.215759936
 20
11.5974959699
 11
-2.278259936
 21
11.4099959699
  0
LINE
  5
5C6
100
AcDbEntity
  8
CURVE
100
AcDbLine
 62
253
  6
CONTINUOUS
 10
-1.653259936
 20
10.9099959699
 11
-1.590759936
 21
11.0974959699
  0
LINE
  5
5C7
100
AcDbEntity
  8
CURVE
100
AcDbLine
 62
253
  6
CONTINUOUS
 10
-1.715759936
 20
10.7849959699
 11
-1.653259936
 21
10.9099959699
  0
LINE
  5
5C8
100
AcDbEntity
  8
RACCORDO
100
AcDbLine
 62
7
  6
CONTINUOUS
 10
-18.2602814374
 20
-7.7220255316
 11
-18.203259936
 21
-7.6650040301
  0
LINE
  5
5C9
100
AcDbEntity
  8
RACCORDO
100
AcDbLine
 62
253
  6
CONTINUOUS
 10
-22.548888102
 20
-12.2106364269
 11
-22.553259936
 21
-12.2150082609
  0
LINE
  5
5CA
100
AcDbEntity
  8
RACCORDO
100
AcDbLine
 62
253
  6
CONTINUOUS
 10
-22.2988923327
 20
-12.4606321961
 11
-22.3032641667
 21
-12.4650040301
  0
LINE
  5
5CB
100
AcDbEntity
  8
CURVE
100
AcDbLine
 62
7
  6
CONTINUOUS
 10
-17.028259936
 20
21.4174399699
 11
-17.778259936
 21
21.4174399699
  0
LINE
  5
5CC
100
AcDbEntity
  8
CURVE
100
AcDbLine
 62
253
  6
CONTINUOUS
 10
-5.903259936
 20
21.5349959699
 11
-4.003259936
 21
21.5349959699
  0
LINE
  5
5CD
100
AcDbEntity
  8
0
100
AcDbLine
 62
7
  6
CONTINUOUS
 10
-8.303259936
 20
22.5349959699
 11
-11.303259936
 21
22.5349959699
  0
LINE
  5
5CE
100
AcDbEntity
  8
SMUSSO
100
AcDbLine
 62
7
  6
CONTINUOUS
 10
-11.653259936
 20
22.7849959699
 11
-7.653259936
 21
22.7849959699
  0
LINE
  5
5CF
100
AcDbEntity
  8
ASSI
100
AcDbLine
 62
7
  6
CONTINUOUS
 10
-11.653259936
 20
22.7849959699
 11
-7.653259936
 21
22.7849959699
  0
LINE
  5
5D0
100
AcDbEntity
  8
CURVE
100
AcDbLine
 62
253
  6
CONTINUOUS
 10
-1.9746884852
 20
22.9349959699
 11
-2.5318313479
 21
22.9349959699
  0
LINE
  5
5D1
100
AcDbEntity
  8
CURVE
100
AcDbLine
 62
253
  6
CONTINUOUS
 10
-1.9746884852
 20
17.4873766271
 11
-1.7889742106
 21
17.3945198385
  0
LINE
  5
5D2
100
AcDbEntity
  8
RACCORDO
100
AcDbLine
 62
7
  6
CONTINUOUS
 10
-18.2602814374
 20
31.7920174714
 11
-18.203259936
 21
31.7349959699
  0
LINE
  5
5D3
100
AcDbEntity
  8
RACCORDO
100
AcDbLine
 62
253
  6
CONTINUOUS
 10
-22.548888102
 20
36.2806283667
 11
-22.553259936
 21
36.2850002007
  0
LINE
  5
5D4
100
AcDbEntity
  8
CURVE
100
AcDbLine
 62
253
  6
CONTINUOUS
 10
-2.7175456419
 20
16.9302340356
 11
-2.903259936
 21
17.1159482328
  0
LINE
  5
5D5
100
AcDbEntity
  8
RACCORDO
100
AcDbLine
 62
253
  6
CONTINUOUS
 10
-22.2988923327
 20
36.5306241359
 11
-22.3032641667
 21
36.5349959699
  0
LINE
  5
5D6
100
AcDbEntity
  8
CURVE
100
AcDbLine
 62
253
  6
CONTINUOUS
 10
-2.903259936
 20
18.0445198385
 11
-2.7175456419
 21
17.8588056413
  0
LINE
  5
5D7
100
AcDbEntity
  8
CURVE
100
AcDbLine
 62
253
  6
CONTINUOUS
 10
-1.7889742106
 20
17.3945198385
 11
-1.603259936
 21
17.2088056413
  0
LINE
  5
5D8
100
AcDbEntity
  8
CURVE
100
AcDbLine
 62
253
  6
CONTINUOUS
 10
-1.528259936
 20
11.4724959699
 11
-1.590759936
 21
11.6599959699
  0
LINE
  5
5D9
100
AcDbEntity
  8
DRAFT
100
AcDbLine
 62
7
  6
CONTINUOUS
 10
-4.5945331912
 20
32.856384301
 11
-4.6044222613
 21
32.9454663503
  0
LINE
  5
5DA
100
AcDbEntity
  8
RACCORDO
100
AcDbLine
 62
7
  6
CONTINUOUS
 10
-0.8901696343
 20
-5.9562284202
 11
-0.8901696343
 21
30.02622036
  0
LINE
  5
5DB
100
AcDbEntity
  8
ASSI
100
AcDbLine
 62
7
  6
CONTINUOUS
 10
-0.8901696343
 20
-5.9562284202
 11
-0.8901696343
 21
30.02622036
  0
LINE
  5
5DC
100
AcDbEntity
  8
0
100
AcDbLine
 62
7
  6
CONTINUOUS
 10
-0.8754453904
 20
-5.5860922064
 11
-0.8754453904
 21
29.6560841462
  0
LINE
  5
5DD
100
AcDbEntity
  8
RACCORDO
100
AcDbLine
 62
7
  6
CONTINUOUS
 10
-0.8754453904
 20
-5.5860922064
 11
-0.8754453904
 21
29.6560841462
  0
LINE
  5
5DE
100
AcDbEntity
  8
RACCORDO
100
AcDbLine
 62
7
  6
CONTINUOUS
 10
-0.753259936
 20
-9.896189586
 11
-0.753259936
 21
33.9661815258
  0
LINE
  5
5DF
100
AcDbEntity
  8
0
100
AcDbLine
 62
7
  6
CONTINUOUS
 10
-0.753259936
 20
-5.6367030788
 11
-0.753259936
 21
29.7066950186
  0
LWPOLYLINE
  5
5E0
100
AcDbEntity
  8
RACCORDO
100
AcDbPolyline
 62
7
  6
CONTINUOUS
 90
34
 70
0
 10
-1.253259936
 20
-12.2150082609
 10
-1.2535430862
 20
-12.2269035461
 10
-1.2543919017
 20
-12.2387718857
 10
-1.2558044618
 20
-12.2505863962
 10
-1.2577775682
 20
-12.2623203176
 10
-1.2603067542
 20
-12.2739470689
 10
-1.2633862942
 20
-12.2854403091
 10
-1.2670092146
 20
-12.2967740039
 10
-1.2711673102
 20
-12.3079224794
 10
-1.2758511638
 20
-12.3188604764
 10
-1.2810501671
 20
-12.3295632177
 10
-1.2867525443
 20
-12.3400064584
 10
-1.2929453778
 20
-12.350166536
 10
-1.2996146405
 20
-12.3600204352
 10
-1.3067452252
 20
-12.3695458339
 10
-1.3143209771
 20
-12.3787211492
 10
-1.3223247355
 20
-12.3875255962
 10
-1.3307383699
 20
-12.3959392306
 10
-1.3395428169
 20
-12.403942989
 10
-1.3487181321
 20
-12.4115187408
 10
-1.3582435308
 20
-12.4186493256
 10
-1.36809743
 20
-12.4253185882
 10
-1.3782575077
 20
-12.4315114217
 10
-1.3887007484
 20
-12.4372137989
 10
-1.3994034897
 20
-12.4424128023
 10
-1.4103414867
 20
-12.4470966559
 10
-1.4214899622
 20
-12.4512547514
 10
-1.4328236569
 20
-12.4548776718
 10
-1.4443168971
 20
-12.4579572118
 10
-1.4559436485
 20
-12.4604863978
 10
-1.4676775698
 20
-12.4624595042
 10
-1.4794920804
 20
-12.4638720643
 10
-1.4913604199
 20
-12.4647208799
 10
-1.5032557052
 20
-12.4650040301
  0
LWPOLYLINE
  5
5E1
100
AcDbEntity
  8
RACCORDO
100
AcDbPolyline
 62
253
  6
CONTINUOUS
 90
31
 70
0
 10
-1.25763177
 20
-12.2106364269
 10
-1.2579731772
 20
-12.2236887669
 10
-1.2589964398
 20
-12.2367136612
 10
-1.260700044
 20
-12.2496754358
 10
-1.2630811741
 20
-12.2625411546
 10
-1.2661342875
 20
-12.2752726198
 10
-1.2698497273
 20
-12.2878268043
 10
-1.2742162784
 20
-12.3001666083
 10
-1.2792227083
 20
-12.3122609644
 10
-1.2848554569
 20
-12.3240770426
 10
-1.2910992585
 20
-12.3355826431
 10
-1.2979369403
 20
-12.3467459615
 10
-1.3053495704
 20
-12.3575360407
 10
-1.3133167126
 20
-12.3679231665
 10
-1.3218166095
 20
-12.3778790037
 10
-1.3308260314
 20
-12.3873763381
 10
-1.3403203245
 20
-12.3963891572
 10
-1.3502734279
 20
-12.4048926988
 10
-1.3606580172
 20
-12.4128636069
 10
-1.3714456075
 20
-12.4202800138
 10
-1.3826066335
 20
-12.4271215896
 10
-1.3941104893
 20
-12.4333695688
 10
-1.4059256349
 20
-12.439006817
 10
-1.4180196722
 20
-12.4440178725
 10
-1.4303594283
 20
-12.4483889876
 10
-1.4429110757
 20
-12.4521081771
 10
-1.4556401896
 20
-12.4551652382
 10
-1.4685118293
 20
-12.457551781
 10
-1.4814906867
 20
-12.4592612641
 10
-1.4945411851
 20
-12.4602890071
 10
-1.5076275392
 20
-12.4606321961
  0
LINE
  5
5E2
100
AcDbEntity
  8
ASSI
100
AcDbLine
 62
7
  6
CONTINUOUS
 10
-16.1644976477
 20
-11.5874736365
 11
-16.1379344704
 21
-11.5571027157
  0
LINE
  5
5E3
100
AcDbEntity
  8
ASSI
100
AcDbLine
 62
7
  6
CONTINUOUS
 10
-16.1379344704
 20
-11.5571027157
 11
-16.1075397141
 21
-11.5228810995
  0
LINE
  5
5E4
100
AcDbEntity
  8
ASSI
100
AcDbLine
 62
7
  6
CONTINUOUS
 10
-16.1075397141
 20
-11.5228810995
 11
-16.073318546
 21
-11.4848317968
  0
LWPOLYLINE
  5
5E5
100
AcDbEntity
  8
ASSI
100
AcDbPolyline
 62
7
  6
CONTINUOUS
 90
3
 70
0
 10
-16.073318546
 20
-11.4848317968
 10
-16.0149797942
 20
-11.4206972374
 10
-15.9937501858
 20
-11.3974887224
  0
LINE
  5
5E6
100
AcDbEntity
  8
0
100
AcDbLine
 62
7
  6
CONTINUOUS
 10
-15.403259936
 20
-7.6650040301
 11
-15.3666042996
 21
-7.6283483938
  0
LINE
  5
5E7
100
AcDbEntity
  8
DRAFT
100
AcDbLine
 62
7
  6
CONTINUOUS
 10
-15.403259936
 20
-7.6650040301
 11
-15.3666042996
 21
-7.6283483938
  0
LINE
  5
5E8
100
AcDbEntity
  8
0
100
AcDbLine
 62
7
  6
CONTINUOUS
 10
-15.403259936
 20
-7.8650040301
 11
-15.3666042996
 21
-7.8283483938
  0
LINE
  5
5E9
100
AcDbEntity
  8
DRAFT
100
AcDbLine
 62
7
  6
CONTINUOUS
 10
-15.403259936
 20
-7.8650040301
 11
-15.3666042996
 21
-7.8283483938
  0
LINE
  5
5EA
100
AcDbEntity
  8
0
100
AcDbLine
 62
253
  6
CONTINUOUS
 10
-23.053259936
 20
-5.6367030788
 11
-22.9310744815
 21
-5.5860922064
  0
LINE
  5
5EB
100
AcDbEntity
  8
RACCORDO
100
AcDbLine
 62
253
  6
CONTINUOUS
 10
-23.053259936
 20
-5.6367030788
 11
-22.9310744815
 21
-5.5860922064
  0
LINE
  5
5EC
100
AcDbEntity
  8
RACCORDO
100
AcDbLine
 62
7
  6
CONTINUOUS
 10
-22.6163388141
 20
23.1849959699
 11
-21.703259936
 21
23.1849959699
  0
LINE
  5
5ED
100
AcDbEntity
  8
ASSI
100
AcDbLine
 62
7
  6
CONTINUOUS
 10
-22.6163388141
 20
23.1849959699
 11
-21.703259936
 21
23.1849959699
  0
LINE
  5
5EE
100
AcDbEntity
  8
SMUSSO
100
AcDbLine
 62
7
  6
CONTINUOUS
 10
-12.153259936
 20
23.2849959699
 11
-7.153259936
 21
23.2849959699
  0
LINE
  5
5EF
100
AcDbEntity
  8
ASSI
100
AcDbLine
 62
7
  6
CONTINUOUS
 10
-12.153259936
 20
23.2849959699
 11
-7.153259936
 21
23.2849959699
  0
LINE
  5
5F0
100
AcDbEntity
  8
CURVE
100
AcDbLine
 62
253
  6
CONTINUOUS
 10
-2.5318313479
 20
23.5849959699
 11
-1.9746884852
 21
23.5849959699
  0
LINE
  5
5F1
100
AcDbEntity
  8
SMUSSO
100
AcDbLine
 62
7
  6
CONTINUOUS
 10
-7.153259936
 20
23.7849959699
 11
-12.153259936
 21
23.7849959699
  0
LINE
  5
5F2
100
AcDbEntity
  8
ASSI
100
AcDbLine
 62
7
  6
CONTINUOUS
 10
-7.153259936
 20
23.7849959699
 11
-12.153259936
 21
23.7849959699
  0
LINE
  5
5F3
100
AcDbEntity
  8
RACCORDO
100
AcDbLine
 62
7
  6
CONTINUOUS
 10
-22.6163388141
 20
23.8849959699
 11
-21.703259936
 21
23.8849959699
  0
LINE
  5
5F4
100
AcDbEntity
  8
ASSI
100
AcDbLine
 62
7
  6
CONTINUOUS
 10
-22.6163388141
 20
23.8849959699
 11
-21.703259936
 21
23.8849959699
  0
LINE
  5
5F5
100
AcDbEntity
  8
CURVE
100
AcDbLine
 62
253
  6
CONTINUOUS
 10
-2.8104027889
 20
23.9564245192
 11
-2.3461170733
 21
23.9564245192
  0
LINE
  5
5F6
100
AcDbEntity
  8
CURVE
100
AcDbLine
 62
253
  6
CONTINUOUS
 10
-2.0675456613
 20
23.987376937
 11
-1.7889742106
 21
23.987376937
  0
LINE
  5
5F7
100
AcDbEntity
  8
SMUSSO
100
AcDbLine
 62
7
  6
CONTINUOUS
 10
-7.653259936
 20
24.2849959699
 11
-11.653259936
 21
24.2849959699
  0
LINE
  5
5F8
100
AcDbEntity
  8
ASSI
100
AcDbLine
 62
7
  6
CONTINUOUS
 10
-7.653259936
 20
24.2849959699
 11
-11.653259936
 21
24.2849959699
  0
LINE
  5
5F9
100
AcDbEntity
  8
0
100
AcDbLine
 62
7
  6
CONTINUOUS
 10
-11.303259936
 20
24.5349959699
 11
-8.303259936
 21
24.5349959699
  0
LINE
  5
5FA
100
AcDbEntity
  8
CURVE
100
AcDbLine
 62
253
  6
CONTINUOUS
 10
-2.903259936
 20
22.1921388713
 11
-1.603259936
 21
21.8207101671
  0
LINE
  5
5FB
100
AcDbEntity
  8
0
100
AcDbLine
 62
253
  6
CONTINUOUS
 10
-22.9310744815
 20
29.6560841462
 11
-23.053259936
 21
29.7066950186
  0
LINE
  5
5FC
100
AcDbEntity
  8
RACCORDO
100
AcDbLine
 62
253
  6
CONTINUOUS
 10
-22.9310744815
 20
29.6560841462
 11
-23.053259936
 21
29.7066950186
  0
LINE
  5
5FD
100
AcDbEntity
  8
CURVE
100
AcDbLine
 62
253
  6
CONTINUOUS
 10
-4.8175456017
 20
20.5849959699
 11
-5.0889742136
 21
20.8564245251
  0
LINE
  5
5FE
100
AcDbEntity
  8
SMUSSO
100
AcDbLine
 62
7
  6
CONTINUOUS
 10
-12.153259936
 20
28.2849959699
 11
-11.653259936
 21
27.7849959699
  0
LINE
  5
5FF
100
AcDbEntity
  8
ASSI
100
AcDbLine
 62
7
  6
CONTINUOUS
 10
-12.153259936
 20
28.2849959699
 11
-11.653259936
 21
27.7849959699
  0
LINE
  5
600
100
AcDbEntity
  8
0
100
AcDbLine
 62
7
  6
CONTINUOUS
 10
-15.403259936
 20
31.7349959699
 11
-15.3666042996
 21
31.6983403336
  0
LINE
  5
601
100
AcDbEntity
  8
DRAFT
100
AcDbLine
 62
7
  6
CONTINUOUS
 10
-15.403259936
 20
31.7349959699
 11
-15.3666042996
 21
31.6983403336
  0
LINE
  5
602
100
AcDbEntity
  8
0
100
AcDbLine
 62
7
  6
CONTINUOUS
 10
-15.3666042996
 20
31.8983403336
 11
-15.403259936
 21
31.9349959699
  0
LINE
  5
603
100
AcDbEntity
  8
DRAFT
100
AcDbLine
 62
7
  6
CONTINUOUS
 10
-15.3666042996
 20
31.8983403336
 11
-15.403259936
 21
31.9349959699
  0
LINE
  5
604
100
AcDbEntity
  8
SMUSSO
100
AcDbLine
 62
7
  6
CONTINUOUS
 10
-7.153259936
 20
23.7849959699
 11
-7.653259936
 21
24.2849959699
  0
LINE
  5
605
100
AcDbEntity
  8
ASSI
100
AcDbLine
 62
7
  6
CONTINUOUS
 10
-7.153259936
 20
23.7849959699
 11
-7.653259936
 21
24.2849959699
  0
LINE
  5
606
100
AcDbEntity
  8
ASSI
100
AcDbLine
 62
7
  6
CONTINUOUS
 10
-15.9936553368
 20
35.4673769517
 11
-16.0546776229
 21
35.5342360895
  0
LINE
  5
607
100
AcDbEntity
  8
ASSI
100
AcDbLine
 62
7
  6
CONTINUOUS
 10
-16.0546776229
 20
35.5342360895
 11
-16.0907481927
 21
35.5741585274
  0
LINE
  5
608
100
AcDbEntity
  8
ASSI
100
AcDbLine
 62
7
  6
CONTINUOUS
 10
-16.0907481927
 20
35.5741585274
 11
-16.1230167771
 21
35.6102366105
  0
LWPOLYLINE
  5
609
100
AcDbEntity
  8
ASSI
100
AcDbPolyline
 62
7
  6
CONTINUOUS
 90
19
 70
0
 10
-16.1230167771
 20
35.6102366105
 10
-16.1514670721
 20
35.6425027496
 10
-16.1642720074
 20
35.6572055168
 10
-16.1761864253
 20
35.6710342544
 10
-16.1872166441
 20
35.6839876688
 10
-16.1973744024
 20
35.6960670538
 10
-16.2067071497
 20
35.7073483688
 10
-16.2152184421
 20
35.7178313156
 10
-16.2229234446
 20
35.7275161924
 10
-16.229870831
 20
35.7364798535
 10
-16.236076081
 20
35.7447419629
 10
-16.2415267702
 20
35.7522828565
 10
-16.2462231517
 20
35.759120396
 10
-16.2501752707
 20
35.7652472587
 10
-16.2533935736
 20
35.7706707674
 10
-16.2558869849
 20
35.7754307522
 10
-16.2576716747
 20
35.7795404901
 10
-16.2587672206
 20
35.7829867043
 10
-16.2591926687
 20
35.7857693946
  0
LINE
  5
60A
100
AcDbEntity
  8
CURVE
100
AcDbLine
 62
253
  6
CONTINUOUS
 10
-2.5008789688
 20
21.4492817727
 11
-2.4080218315
 21
21.2326150028
  0
LINE
  5
60B
100
AcDbEntity
  8
CURVE
100
AcDbLine
 62
253
  6
CONTINUOUS
 10
-2.5937361255
 20
20.9849959699
 11
-2.5008789688
 21
20.737376937
  0
LINE
  5
60C
100
AcDbEntity
  8
DRAFT
100
AcDbLine
 62
7
  6
CONTINUOUS
 10
-3.6567472268
 20
-8.8754744105
 11
-3.653259936
 21
-8.8650040301
  0
LWPOLYLINE
  5
60D
100
AcDbEntity
  8
ASSI
100
AcDbPolyline
 62
7
  6
CONTINUOUS
 90
3
 70
0
 10
-15.9937501858
 20
-11.3974887224
 10
-15.9029470882
 20
-11.2989193968
 10
-15.8312299236
 20
-11.2213618448
  0
LINE
  5
60E
100
AcDbEntity
  8
ASSI
100
AcDbLine
 62
7
  6
CONTINUOUS
 10
-16.303259936
 20
-11.7650040301
 11
-16.2596092891
 21
-11.7213533832
  0
LWPOLYLINE
  5
60F
100
AcDbEntity
  8
0
100
AcDbPolyline
 62
253
  6
CONTINUOUS
 90
3
 70
0
 10
-13.7965821267
 20
-5.309818201
 10
-13.7535365926
 20
-5.28276807
 10
-13.7060118726
 20
-5.2629055739
  0
LWPOLYLINE
  5
610
100
AcDbEntity
  8
RACCORDO
100
AcDbPolyline
 62
253
  6
CONTINUOUS
 90
3
 70
0
 10
-13.7965821267
 20
-5.309818201
 10
-13.7535365926
 20
-5.28276807
 10
-13.7060118726
 20
-5.2629055739
  0
LINE
  5
611
100
AcDbEntity
  8
0
100
AcDbLine
 62
253
  6
CONTINUOUS
 10
-22.4675627164
 20
-7.0507012496
 11
-22.3453772619
 21
-7.0000903772
  0
LINE
  5
612
100
AcDbEntity
  8
RACCORDO
100
AcDbLine
 62
253
  6
CONTINUOUS
 10
-22.4675627164
 20
-7.0507012496
 11
-22.3453772619
 21
-7.0000903772
  0
LINE
  5
613
100
AcDbEntity
  8
CURVE
100
AcDbLine
 62
253
  6
CONTINUOUS
 10
-1.9746884852
 20
24.8849959699
 11
-1.7889742106
 21
24.8849959699
  0
LINE
  5
614
100
AcDbEntity
  8
CURVE
100
AcDbLine
 62
7
  6
CONTINUOUS
 10
-14.855219936
 20
25.4025499699
 11
-15.606039936
 21
25.4025499699
  0
LINE
  5
615
100
AcDbEntity
  8
CURVE
100
AcDbLine
 62
7
  6
CONTINUOUS
 10
-19.200479936
 20
25.4025499699
 11
-19.951299936
 21
25.4025499699
  0
LINE
  5
616
100
AcDbEntity
  8
CURVE
100
AcDbLine
 62
253
  6
CONTINUOUS
 10
-4.003259936
 20
26.3349959699
 11
-5.903259936
 21
26.3349959699
  0
LINE
  5
617
100
AcDbEntity
  8
0
100
AcDbLine
 62
253
  6
CONTINUOUS
 10
-21.7628007085
 20
26.6005462715
 11
-21.703259936
 21
26.6005462715
  0
LINE
  5
618
100
AcDbEntity
  8
RACCORDO
100
AcDbLine
 62
253
  6
CONTINUOUS
 10
-21.7628007085
 20
26.6005462715
 11
-21.703259936
 21
26.6005462715
  0
LINE
  5
619
100
AcDbEntity
  8
0
100
AcDbLine
 62
253
  6
CONTINUOUS
 10
-22.3453772619
 20
31.070082317
 11
-22.4675627164
 21
31.1206931894
  0
LINE
  5
61A
100
AcDbEntity
  8
RACCORDO
100
AcDbLine
 62
253
  6
CONTINUOUS
 10
-22.3453772619
 20
31.070082317
 11
-22.4675627164
 21
31.1206931894
  0
LINE
  5
61B
100
AcDbEntity
  8
CURVE
100
AcDbLine
 62
253
  6
CONTINUOUS
 10
-2.5318313479
 20
22.9349959699
 11
-2.7175456419
 21
23.0278530685
  0
LWPOLYLINE
  5
61C
100
AcDbEntity
  8
0
100
AcDbPolyline
 62
253
  6
CONTINUOUS
 90
4
 70
0
 10
-13.7965821267
 20
29.3798101408
 10
-13.7535365926
 20
29.3527600098
 10
-13.7060118726
 20
29.3328975137
 10
-13.6554024013
 20
29.3207518959
  0
LWPOLYLINE
  5
61D
100
AcDbEntity
  8
RACCORDO
100
AcDbPolyline
 62
253
  6
CONTINUOUS
 90
4
 70
0
 10
-13.7965821267
 20
29.3798101408
 10
-13.7535365926
 20
29.3527600098
 10
-13.7060118726
 20
29.3328975137
 10
-13.6554024013
 20
29.3207518959
  0
LINE
  5
61E
100
AcDbEntity
  8
ASSI
100
AcDbLine
 62
7
  6
CONTINUOUS
 10
-16.303259936
 20
35.8349959699
 11
-16.2596092891
 21
35.791345323
  0
LINE
  5
61F
100
AcDbEntity
  8
CURVE
100
AcDbLine
 62
253
  6
CONTINUOUS
 10
-2.7175456419
 20
23.0278530685
 11
-2.903259936
 21
23.2135674206
  0
LINE
  5
620
100
AcDbEntity
  8
ASSI
100
AcDbLine
 62
7
  6
CONTINUOUS
 10
-15.8312299236
 20
35.2913537846
 11
-15.9262311384
 21
35.3941030344
  0
LINE
  5
621
100
AcDbEntity
  8
ASSI
100
AcDbLine
 62
7
  6
CONTINUOUS
 10
-15.9262311384
 20
35.3941030344
 11
-15.9936553368
 21
35.4673769517
  0
LINE
  5
622
100
AcDbEntity
  8
CURVE
100
AcDbLine
 62
253
  6
CONTINUOUS
 10
-2.1604027599
 20
24.1421388713
 11
-2.0675456613
 21
23.987376937
  0
LINE
  5
623
100
AcDbEntity
  8
DRAFT
100
AcDbLine
 62
7
  6
CONTINUOUS
 10
-3.6567472268
 20
32.9454663503
 11
-3.653259936
 21
32.9349959699
  0
LINE
  5
624
100
AcDbEntity
  8
0
100
AcDbLine
 62
253
  6
CONTINUOUS
 10
-21.7618732558
 20
26.9005005801
 11
-21.703259936
 21
26.9005005801
  0
LINE
  5
625
100
AcDbEntity
  8
RACCORDO
100
AcDbLine
 62
253
  6
CONTINUOUS
 10
-21.7618732558
 20
26.9005005801
 11
-21.703259936
 21
26.9005005801
  0
LINE
  5
626
100
AcDbEntity
  8
0
100
AcDbLine
 62
7
  6
CONTINUOUS
 10
-21.7618264577
 20
26.9128105154
 11
-21.703259936
 21
26.9128105154
  0
LINE
  5
627
100
AcDbEntity
  8
RACCORDO
100
AcDbLine
 62
7
  6
CONTINUOUS
 10
-21.7618264577
 20
26.9128105154
 11
-21.703259936
 21
26.9128105154
  0
LINE
  5
628
100
AcDbEntity
  8
0
100
AcDbLine
 62
7
  6
CONTINUOUS
 10
-8.303259936
 20
27.5349959699
 11
-11.303259936
 21
27.5349959699
  0
LINE
  5
629
100
AcDbEntity
  8
SMUSSO
100
AcDbLine
 62
7
  6
CONTINUOUS
 10
-11.653259936
 20
27.7849959699
 11
-7.653259936
 21
27.7849959699
  0
LINE
  5
62A
100
AcDbEntity
  8
ASSI
100
AcDbLine
 62
7
  6
CONTINUOUS
 10
-11.653259936
 20
27.7849959699
 11
-7.653259936
 21
27.7849959699
  0
LINE
  5
62B
100
AcDbEntity
  8
RACCORDO
100
AcDbLine
 62
7
  6
CONTINUOUS
 10
-22.6163388141
 20
28.1849959699
 11
-21.703259936
 21
28.1849959699
  0
LINE
  5
62C
100
AcDbEntity
  8
ASSI
100
AcDbLine
 62
7
  6
CONTINUOUS
 10
-22.6163388141
 20
28.1849959699
 11
-21.703259936
 21
28.1849959699
  0
LINE
  5
62D
100
AcDbEntity
  8
SMUSSO
100
AcDbLine
 62
7
  6
CONTINUOUS
 10
-12.153259936
 20
28.2849959699
 11
-7.153259936
 21
28.2849959699
  0
LINE
  5
62E
100
AcDbEntity
  8
ASSI
100
AcDbLine
 62
7
  6
CONTINUOUS
 10
-12.153259936
 20
28.2849959699
 11
-7.153259936
 21
28.2849959699
  0
LINE
  5
62F
100
AcDbEntity
  8
CURVE
100
AcDbLine
 62
253
  6
CONTINUOUS
 10
-1.9746884852
 20
23.5849959699
 11
-1.7889742106
 21
23.4921388713
  0
LINE
  5
630
100
AcDbEntity
  8
CURVE
100
AcDbLine
 62
253
  6
CONTINUOUS
 10
-2.903259936
 20
25.5349959699
 11
-1.9746884852
 21
24.8849959699
  0
LINE
  5
631
100
AcDbEntity
  8
CURVE
100
AcDbLine
 62
253
  6
CONTINUOUS
 10
-2.903259936
 20
24.0492816178
 11
-2.8104027889
 21
23.9564245192
  0
LINE
  5
632
100
AcDbEntity
  8
CURVE
100
AcDbLine
 62
253
  6
CONTINUOUS
 10
-1.7889742106
 20
23.4921388713
 11
-1.603259936
 21
23.3064245192
  0
LINE
  5
633
100
AcDbEntity
  8
DRAFT
100
AcDbLine
 62
7
  6
CONTINUOUS
 10
-4.6614382341
 20
-8.9609995758
 11
-4.6044222613
 21
-8.8754744105
  0
LINE
  5
634
100
AcDbEntity
  8
0
100
AcDbLine
 62
253
  6
CONTINUOUS
 10
-10.1511174706
 20
29.3207518959
 11
-10.203259936
 21
29.3166678126
  0
LINE
  5
635
100
AcDbEntity
  8
RACCORDO
100
AcDbLine
 62
253
  6
CONTINUOUS
 10
-10.1511174706
 20
29.3207518959
 11
-10.203259936
 21
29.3166678126
  0
LINE
  5
636
100
AcDbEntity
  8
0
100
AcDbLine
 62
7
  6
CONTINUOUS
 10
-9.403259936
 20
28.6349959699
 11
-14.403259936
 21
28.6349959699
  0
LINE
  5
637
100
AcDbEntity
  8
ASSI
100
AcDbLine
 62
7
  6
CONTINUOUS
 10
-9.403259936
 20
28.6349959699
 11
-14.403259936
 21
28.6349959699
  0
LINE
  5
638
100
AcDbEntity
  8
0
100
AcDbLine
 62
7
  6
CONTINUOUS
 10
-13.603259936
 20
29.2849959699
 11
-10.203259936
 21
29.2849959699
  0
LINE
  5
639
100
AcDbEntity
  8
RACCORDO
100
AcDbLine
 62
7
  6
CONTINUOUS
 10
-13.603259936
 20
29.2849959699
 11
-10.203259936
 21
29.2849959699
  0
LINE
  5
63A
100
AcDbEntity
  8
0
100
AcDbLine
 62
253
  6
CONTINUOUS
 10
-13.603259936
 20
29.3166678126
 11
-10.203259936
 21
29.3166678126
  0
LINE
  5
63B
100
AcDbEntity
  8
RACCORDO
100
AcDbLine
 62
253
  6
CONTINUOUS
 10
-13.603259936
 20
29.3166678126
 11
-10.203259936
 21
29.3166678126
  0
LINE
  5
63C
100
AcDbEntity
  8
RACCORDO
100
AcDbLine
 62
7
  6
CONTINUOUS
 10
-10.2992669052
 20
29.3349959699
 11
-13.5072529667
 21
29.3349959699
  0
LINE
  5
63D
100
AcDbEntity
  8
ASSI
100
AcDbLine
 62
7
  6
CONTINUOUS
 10
-10.2992669052
 20
29.3349959699
 11
-13.5072529667
 21
29.3349959699
  0
LINE
  5
63E
100
AcDbEntity
  8
ASSI
100
AcDbLine
 62
7
  6
CONTINUOUS
 10
-9.403259936
 20
29.5349959699
 11
-14.403259936
 21
29.5349959699
  0
LINE
  5
63F
100
AcDbEntity
  8
0
100
AcDbLine
 62
253
  6
CONTINUOUS
 10
-13.6554024013
 20
29.3207518959
 11
-13.603259936
 21
29.3166678126
  0
LINE
  5
640
100
AcDbEntity
  8
RACCORDO
100
AcDbLine
 62
253
  6
CONTINUOUS
 10
-13.6554024013
 20
29.3207518959
 11
-13.603259936
 21
29.3166678126
  0
LINE
  5
641
100
AcDbEntity
  8
CURVE
100
AcDbLine
 62
253
  6
CONTINUOUS
 10
-1.603259936
 20
25.3492816759
 11
-1.8818313867
 21
25.5349959699
  0
LINE
  5
642
100
AcDbEntity
  8
DRAFT
100
AcDbLine
 62
7
  6
CONTINUOUS
 10
-4.6614382341
 20
33.0309915156
 11
-4.6044222613
 21
32.9454663503
  0
LINE
  5
643
100
AcDbEntity
  8
ASSI
100
AcDbLine
 62
7
  6
CONTINUOUS
 10
-8.3094042182
 20
-11.5884513142
 11
-8.2828575125
 21
-11.5580815834
  0
LINE
  5
644
100
AcDbEntity
  8
ASSI
100
AcDbLine
 62
7
  6
CONTINUOUS
 10
-8.2828575125
 20
-11.5580815834
 11
-8.2524513851
 21
-11.5238338506
  0
LINE
  5
645
100
AcDbEntity
  8
ASSI
100
AcDbLine
 62
7
  6
CONTINUOUS
 10
-8.2524513851
 20
-11.5238338506
 11
-8.2181815861
 21
-11.4857200852
  0
LINE
  5
646
100
AcDbEntity
  8
ASSI
100
AcDbLine
 62
7
  6
CONTINUOUS
 10
-8.2181815861
 20
-11.4857200852
 11
-8.1596881135
 21
-11.421405861
  0
LINE
  5
647
100
AcDbEntity
  8
ASSI
100
AcDbLine
 62
7
  6
CONTINUOUS
 10
-8.1596881135
 20
-11.421405861
 11
-7.9752899483
 21
-11.2213618448
  0
LINE
  5
648
100
AcDbEntity
  8
RACCORDO
100
AcDbLine
 62
7
  6
CONTINUOUS
 10
-4.6602814374
 20
-7.7220255316
 11
-4.603259936
 21
-7.6650040301
  0
LINE
  5
649
100
AcDbEntity
  8
0
100
AcDbLine
 62
7
  6
CONTINUOUS
 10
-4.503259936
 20
-7.6650040301
 11
-4.4666042996
 21
-7.6283483938
  0
LINE
  5
64A
100
AcDbEntity
  8
DRAFT
100
AcDbLine
 62
7
  6
CONTINUOUS
 10
-4.503259936
 20
-7.6650040301
 11
-4.4666042996
 21
-7.6283483938
  0
LINE
  5
64B
100
AcDbEntity
  8
0
100
AcDbLine
 62
7
  6
CONTINUOUS
 10
-9.7568133265
 20
30.2675359866
 11
-9.4026981904
 21
30.2706263025
  0
LINE
  5
64C
100
AcDbEntity
  8
RACCORDO
100
AcDbLine
 62
7
  6
CONTINUOUS
 10
-9.7568133265
 20
30.2675359866
 11
-9.4026981904
 21
30.2706263025
  0
LWPOLYLINE
  5
64D
100
AcDbEntity
  8
0
100
AcDbPolyline
 62
7
  6
CONTINUOUS
 90
12
 70
0
 10
-10.2788634746
 20
31.9196247864
 10
-10.1609916464
 20
31.9200052604
 10
-10.0481202166
 20
31.9206240717
 10
-9.9387644341
 20
31.9214960363
 10
-9.83440905
 20
31.9226063382
 10
-9.7395083177
 20
31.923910529
 10
-9.6544402334
 20
31.925420551
 10
-9.5788268008
 20
31.927124462
 10
-9.5159882848
 20
31.9289419869
 10
-9.4670314402
 20
31.9308463673
 10
-9.4308495121
 20
31.9328643617
 10
-9.4074425005
 20
31.9349959699
  0
LINE
  5
64E
100
AcDbEntity
  8
ASSI
100
AcDbLine
 62
7
  6
CONTINUOUS
 10
-9.403259936
 20
30.2349959699
 11
-14.403259936
 21
30.2349959699
  0
LINE
  5
64F
100
AcDbEntity
  8
RACCORDO
100
AcDbLine
 62
7
  6
CONTINUOUS
 10
-21.2944843261
 20
30.2480862716
 11
-16.2163388146
 21
30.2480862716
  0
LINE
  5
650
100
AcDbEntity
  8
ASSI
100
AcDbLine
 62
7
  6
CONTINUOUS
 10
-21.2944843261
 20
30.2480862716
 11
-16.2163388146
 21
30.2480862716
  0
LINE
  5
651
100
AcDbEntity
  8
0
100
AcDbLine
 62
7
  6
CONTINUOUS
 10
-20.503259936
 20
30.2924385697
 11
-19.3573706372
 21
30.2924385697
  0
LINE
  5
652
100
AcDbEntity
  8
DRAFT
100
AcDbLine
 62
7
  6
CONTINUOUS
 10
-20.503259936
 20
30.2924385697
 11
-19.3573706372
 21
30.2924385697
  0
LINE
  5
653
100
AcDbEntity
  8
0
100
AcDbLine
 62
7
  6
CONTINUOUS
 10
-16.0465422908
 20
30.3011654375
 11
-19.3399155723
 21
30.3011654375
  0
LINE
  5
654
100
AcDbEntity
  8
DRAFT
100
AcDbLine
 62
7
  6
CONTINUOUS
 10
-16.0465422908
 20
30.3011654375
 11
-19.3399155723
 21
30.3011654375
  0
LINE
  5
655
100
AcDbEntity
  8
0
100
AcDbLine
 62
7
  6
CONTINUOUS
 10
-20.503259936
 20
30.3011654375
 11
-21.169448442
 21
30.3011654375
  0
LINE
  5
656
100
AcDbEntity
  8
RACCORDO
100
AcDbLine
 62
7
  6
CONTINUOUS
 10
-20.503259936
 20
30.3011654375
 11
-21.169448442
 21
30.3011654375
  0
LINE
  5
657
100
AcDbEntity
  8
0
100
AcDbLine
 62
7
  6
CONTINUOUS
 10
-14.403259936
 20
30.3349959699
 11
-9.403259936
 21
30.3349959699
  0
LINE
  5
658
100
AcDbEntity
  8
ASSI
100
AcDbLine
 62
7
  6
CONTINUOUS
 10
-14.403259936
 20
30.3349959699
 11
-9.403259936
 21
30.3349959699
  0
LINE
  5
659
100
AcDbEntity
  8
RACCORDO
100
AcDbLine
 62
7
  6
CONTINUOUS
 10
-2.5120355458
 20
31.6480862716
 11
-15.6163616607
 21
31.6480862716
  0
LINE
  5
65A
100
AcDbEntity
  8
ASSI
100
AcDbLine
 62
7
  6
CONTINUOUS
 10
-2.5120355458
 20
31.6480862716
 11
-15.6163616607
 21
31.6480862716
  0
LINE
  5
65B
100
AcDbEntity
  8
0
100
AcDbLine
 62
7
  6
CONTINUOUS
 10
-4.4666042996
 20
31.6983403336
 11
-8.4399155723
 21
31.6983403336
  0
LINE
  5
65C
100
AcDbEntity
  8
DRAFT
100
AcDbLine
 62
7
  6
CONTINUOUS
 10
-4.4666042996
 20
31.6983403336
 11
-8.4399155723
 21
31.6983403336
  0
LINE
  5
65D
100
AcDbEntity
  8
0
100
AcDbLine
 62
7
  6
CONTINUOUS
 10
-15.3666042996
 20
31.6983403336
 11
-19.3399155723
 21
31.6983403336
  0
LINE
  5
65E
100
AcDbEntity
  8
DRAFT
100
AcDbLine
 62
7
  6
CONTINUOUS
 10
-15.3666042996
 20
31.6983403336
 11
-19.3399155723
 21
31.6983403336
  0
LINE
  5
65F
100
AcDbEntity
  8
0
100
AcDbLine
 62
7
  6
CONTINUOUS
 10
-4.503259936
 20
31.7349959699
 11
-8.403259936
 21
31.7349959699
  0
LINE
  5
660
100
AcDbEntity
  8
DRAFT
100
AcDbLine
 62
7
  6
CONTINUOUS
 10
-4.503259936
 20
31.7349959699
 11
-8.403259936
 21
31.7349959699
  0
LINE
  5
661
100
AcDbEntity
  8
0
100
AcDbLine
 62
7
  6
CONTINUOUS
 10
-15.403259936
 20
31.7349959699
 11
-19.303259936
 21
31.7349959699
  0
LINE
  5
662
100
AcDbEntity
  8
DRAFT
100
AcDbLine
 62
7
  6
CONTINUOUS
 10
-15.403259936
 20
31.7349959699
 11
-19.303259936
 21
31.7349959699
  0
LINE
  5
663
100
AcDbEntity
  8
RACCORDO
100
AcDbLine
 62
253
  6
CONTINUOUS
 10
-19.1462384345
 20
31.7920174714
 11
-18.2602814374
 21
31.7920174714
  0
LINE
  5
664
100
AcDbEntity
  8
RACCORDO
100
AcDbLine
 62
253
  6
CONTINUOUS
 10
-5.5462384345
 20
31.7920174714
 11
-4.6602814374
 21
31.7920174714
  0
LINE
  5
665
100
AcDbEntity
  8
0
100
AcDbLine
 62
7
  6
CONTINUOUS
 10
-8.4399155723
 20
31.8983403336
 11
-15.3666042996
 21
31.8983403336
  0
LINE
  5
666
100
AcDbEntity
  8
DRAFT
100
AcDbLine
 62
7
  6
CONTINUOUS
 10
-8.4399155723
 20
31.8983403336
 11
-15.3666042996
 21
31.8983403336
  0
LINE
  5
667
100
AcDbEntity
  8
0
100
AcDbLine
 62
7
  6
CONTINUOUS
 10
-10.2788634746
 20
31.9196247864
 11
-13.4047841708
 21
31.9194826495
  0
LINE
  5
668
100
AcDbEntity
  8
0
100
AcDbLine
 62
7
  6
CONTINUOUS
 10
-8.403259936
 20
31.9349959699
 11
-9.4087816557
 21
31.9349959699
  0
LINE
  5
669
100
AcDbEntity
  8
0
100
AcDbLine
 62
7
  6
CONTINUOUS
 10
-14.3977382162
 20
31.9349959699
 11
-15.403259936
 21
31.9349959699
  0
LINE
  5
66A
100
AcDbEntity
  8
RACCORDO
100
AcDbLine
 62
253
  6
CONTINUOUS
 10
-19.1450816378
 20
31.9920140867
 11
-18.2614382341
 21
31.9920140867
  0
LINE
  5
66B
100
AcDbEntity
  8
RACCORDO
100
AcDbLine
 62
253
  6
CONTINUOUS
 10
-5.5450816378
 20
31.9920140867
 11
-4.6614382341
 21
31.9920140867
  0
LWPOLYLINE
  5
66C
100
AcDbEntity
  8
0
100
AcDbPolyline
 62
7
  6
CONTINUOUS
 90
13
 70
0
 10
-13.4047841708
 20
31.9194826495
 10
-13.5276563974
 20
31.9196247864
 10
-13.6455282255
 20
31.9200052604
 10
-13.7583996553
 20
31.9206240717
 10
-13.8677554378
 20
31.9214960363
 10
-13.9721108219
 20
31.9226063382
 10
-14.0670115542
 20
31.923910529
 10
-14.1520796385
 20
31.925420551
 10
-14.2276930711
 20
31.927124462
 10
-14.2905315871
 20
31.9289419869
 10
-14.3394884317
 20
31.9308463673
 10
-14.3756703598
 20
31.9328643617
 10
-14.3990773714
 20
31.9349959699
  0
LINE
  5
66D
100
AcDbEntity
  8
0
100
AcDbLine
 62
7
  6
CONTINUOUS
 10
-14.0497065454
 20
30.2675359866
 11
-14.4038216815
 21
30.2706263025
  0
LINE
  5
66E
100
AcDbEntity
  8
RACCORDO
100
AcDbLine
 62
7
  6
CONTINUOUS
 10
-14.0497065454
 20
30.2675359866
 11
-14.4038216815
 21
30.2706263025
  0
LINE
  5
66F
100
AcDbEntity
  8
RACCORDO
100
AcDbLine
 62
7
  6
CONTINUOUS
 10
-4.6602814374
 20
31.7920174714
 11
-4.603259936
 21
31.7349959699
  0
LINE
  5
670
100
AcDbEntity
  8
0
100
AcDbLine
 62
7
  6
CONTINUOUS
 10
-4.503259936
 20
31.7349959699
 11
-4.4666042996
 21
31.6983403336
  0
LINE
  5
671
100
AcDbEntity
  8
DRAFT
100
AcDbLine
 62
7
  6
CONTINUOUS
 10
-4.503259936
 20
31.7349959699
 11
-4.4666042996
 21
31.6983403336
  0
LINE
  5
672
100
AcDbEntity
  8
ASSI
100
AcDbLine
 62
7
  6
CONTINUOUS
 10
-7.9752899483
 20
35.2913537846
 11
-8.0706036841
 21
35.3944413316
  0
LINE
  5
673
100
AcDbEntity
  8
ASSI
100
AcDbLine
 62
7
  6
CONTINUOUS
 10
-8.0706036841
 20
35.3944413316
 11
-8.15958953
 21
35.4912894022
  0
LINE
  5
674
100
AcDbEntity
  8
ASSI
100
AcDbLine
 62
7
  6
CONTINUOUS
 10
-8.15958953
 20
35.4912894022
 11
-8.2180370782
 21
35.5555523389
  0
LINE
  5
675
100
AcDbEntity
  8
ASSI
100
AcDbLine
 62
7
  6
CONTINUOUS
 10
-8.2180370782
 20
35.5555523389
 11
-8.2522637266
 21
35.5936162486
  0
LINE
  5
676
100
AcDbEntity
  8
ASSI
100
AcDbLine
 62
7
  6
CONTINUOUS
 10
-8.2522637266
 20
35.5936162486
 11
-8.2826364356
 21
35.6278227245
  0
LWPOLYLINE
  5
677
100
AcDbEntity
  8
ASSI
100
AcDbPolyline
 62
7
  6
CONTINUOUS
 90
18
 70
0
 10
-8.2826364356
 20
35.6278227245
 10
-8.3091704432
 20
35.6581736303
 10
-8.3210682458
 20
35.6719936095
 10
-8.3320758247
 20
35.6849328485
 10
-8.3422059875
 20
35.6969930991
 10
-8.3515090978
 20
35.7082535979
 10
-8.3599892867
 20
35.7187158947
 10
-8.3676598542
 20
35.7283784399
 10
-8.3745680848
 20
35.7373158205
 10
-8.3807291404
 20
35.7455475675
 10
-8.3861299402
 20
35.75305415
 10
-8.3907694451
 20
35.7598515628
 10
-8.3946576686
 20
35.7659317005
 10
-8.3978053682
 20
35.7713026685
 10
-8.4002215034
 20
35.7760047773
 10
-8.4019226774
 20
35.780051464
 10
-8.4029289863
 20
35.7834292917
 10
-8.403259936
 20
35.7861382602
  0
LINE
  5
678
100
AcDbEntity
  8
RACCORDO
100
AcDbLine
 62
7
  6
CONTINUOUS
 10
-1.9129482632
 20
-7.3783947953
 11
-2.1021755482
 21
-7.5676219736
  0
LINE
  5
679
100
AcDbEntity
  8
ASSI
100
AcDbLine
 62
7
  6
CONTINUOUS
 10
-1.9129482632
 20
-7.3783947953
 11
-2.1021755482
 21
-7.5676219736
  0
LINE
  5
67A
100
AcDbEntity
  8
RACCORDO
100
AcDbLine
 62
7
  6
CONTINUOUS
 10
-1.1830517006
 20
-6.6633082769
 11
-1.8049556891
 21
-7.2852122654
  0
LINE
  5
67B
100
AcDbEntity
  8
ASSI
100
AcDbLine
 62
7
  6
CONTINUOUS
 10
-1.1830517006
 20
-6.6633082769
 11
-1.8049556891
 21
-7.2852122654
  0
LINE
  5
67C
100
AcDbEntity
  8
0
100
AcDbLine
 62
7
  6
CONTINUOUS
 10
-3.2760562628
 20
-8.8150040301
 11
-1.46114261
 21
-7.0000903772
  0
LINE
  5
67D
100
AcDbEntity
  8
RACCORDO
100
AcDbLine
 62
7
  6
CONTINUOUS
 10
-3.2760562628
 20
-8.8150040301
 11
-1.46114261
 21
-7.0000903772
  0
LINE
  5
67E
100
AcDbEntity
  8
RACCORDO
100
AcDbLine
 62
7
  6
CONTINUOUS
 10
-4.6445330682
 20
-10.3562771623
 11
-3.653259936
 21
-9.3650040301
  0
LINE
  5
67F
100
AcDbEntity
  8
0
100
AcDbLine
 62
7
  6
CONTINUOUS
 10
-3.103259936
 20
-8.8150040301
 11
-1.3389571555
 21
-7.0507012496
  0
LINE
  5
680
100
AcDbEntity
  8
RACCORDO
100
AcDbLine
 62
7
  6
CONTINUOUS
 10
-3.103259936
 20
-8.8150040301
 11
-1.3389571555
 21
-7.0507012496
  0
LINE
  5
681
100
AcDbEntity
  8
DRAFT
100
AcDbLine
 62
7
  6
CONTINUOUS
 10
-5.6119866807
 20
32.0219056682
 11
-9.4039314205
 21
32.0219056682
  0
LINE
  5
682
100
AcDbEntity
  8
DRAFT
100
AcDbLine
 62
7
  6
CONTINUOUS
 10
-14.4025884514
 20
32.0219056682
 11
-18.1945331912
 21
32.0219056682
  0
LINE
  5
683
100
AcDbEntity
  8
DRAFT
100
AcDbLine
 62
7
  6
CONTINUOUS
 10
-15.403259936
 20
32.0349959699
 11
-14.4026121171
 21
32.0349959699
  0
LINE
  5
684
100
AcDbEntity
  8
DRAFT
100
AcDbLine
 62
7
  6
CONTINUOUS
 10
-9.4039077548
 20
32.0349959699
 11
-8.403259936
 21
32.0349959699
  0
LINE
  5
685
100
AcDbEntity
  8
DRAFT
100
AcDbLine
 62
7
  6
CONTINUOUS
 10
-9.403259936
 20
32.0882298634
 11
-9.4619488128
 21
32.0882298634
  0
LINE
  5
686
100
AcDbEntity
  8
DRAFT
100
AcDbLine
 62
7
  6
CONTINUOUS
 10
-14.3445710591
 20
32.0882298634
 11
-14.403259936
 21
32.0882298634
  0
LINE
  5
687
100
AcDbEntity
  8
RACCORDO
100
AcDbLine
 62
253
  6
CONTINUOUS
 10
-18.2585547039
 20
32.1179392916
 11
-5.547965168
 21
32.1179392916
  0
LINE
  5
688
100
AcDbEntity
  8
RACCORDO
100
AcDbLine
 62
253
  6
CONTINUOUS
 10
-18.2614382341
 20
32.6179202531
 11
-5.5450816378
 21
32.6179202531
  0
LINE
  5
689
100
AcDbEntity
  8
DRAFT
100
AcDbLine
 62
7
  6
CONTINUOUS
 10
-21.5270773386
 20
32.856384301
 11
-20.7318716049
 21
32.856384301
  0
LINE
  5
68A
100
AcDbEntity
  8
DRAFT
100
AcDbLine
 62
7
  6
CONTINUOUS
 10
-19.303259936
 20
32.856384301
 11
-19.2119866807
 21
32.856384301
  0
LINE
  5
68B
100
AcDbEntity
  8
DRAFT
100
AcDbLine
 62
7
  6
CONTINUOUS
 10
-4.5945331912
 20
32.856384301
 11
-4.503259936
 21
32.856384301
  0
LINE
  5
68C
100
AcDbEntity
  8
DRAFT
100
AcDbLine
 62
7
  6
CONTINUOUS
 10
-3.074648267
 20
32.856384301
 11
-2.2794425333
 21
32.856384301
  0
LINE
  5
68D
100
AcDbEntity
  8
0
100
AcDbLine
 62
7
  6
CONTINUOUS
 10
-3.103259936
 20
32.8849959699
 11
-4.503259936
 21
32.8849959699
  0
LINE
  5
68E
100
AcDbEntity
  8
DRAFT
100
AcDbLine
 62
7
  6
CONTINUOUS
 10
-3.103259936
 20
32.8849959699
 11
-4.503259936
 21
32.8849959699
  0
LINE
  5
68F
100
AcDbEntity
  8
0
100
AcDbLine
 62
7
  6
CONTINUOUS
 10
-19.303259936
 20
32.8849959699
 11
-20.703259936
 21
32.8849959699
  0
LINE
  5
690
100
AcDbEntity
  8
DRAFT
100
AcDbLine
 62
7
  6
CONTINUOUS
 10
-19.303259936
 20
32.8849959699
 11
-20.703259936
 21
32.8849959699
  0
LINE
  5
691
100
AcDbEntity
  8
DRAFT
100
AcDbLine
 62
7
  6
CONTINUOUS
 10
-21.553259936
 20
32.9349959699
 11
-20.153259936
 21
32.9349959699
  0
LINE
  5
692
100
AcDbEntity
  8
DRAFT
100
AcDbLine
 62
7
  6
CONTINUOUS
 10
-3.653259936
 20
32.9349959699
 11
-2.253259936
 21
32.9349959699
  0
LINE
  5
693
100
AcDbEntity
  8
DRAFT
100
AcDbLine
 62
7
  6
CONTINUOUS
 10
-3.6567472268
 20
32.9454663503
 11
-4.6044222613
 21
32.9454663503
  0
LINE
  5
694
100
AcDbEntity
  8
DRAFT
100
AcDbLine
 62
7
  6
CONTINUOUS
 10
-19.2020976106
 20
32.9454663503
 11
-20.1497726451
 21
32.9454663503
  0
LINE
  5
695
100
AcDbEntity
  8
RACCORDO
100
AcDbLine
 62
7
  6
CONTINUOUS
 10
-4.3191592168
 20
33.0309915156
 11
-4.6614382341
 21
33.0309915156
  0
LINE
  5
696
100
AcDbEntity
  8
RACCORDO
100
AcDbLine
 62
7
  6
CONTINUOUS
 10
-19.1450816378
 20
33.0309915156
 11
-19.4873606551
 21
33.0309915156
  0
LINE
  5
697
100
AcDbEntity
  8
0
100
AcDbLine
 62
7
  6
CONTINUOUS
 10
-14.903259936
 20
33.0349959699
 11
-8.903259936
 21
33.0349959699
  0
LINE
  5
698
100
AcDbEntity
  8
RACCORDO
100
AcDbLine
 62
253
  6
CONTINUOUS
 10
-4.3191592168
 20
33.3476892136
 11
-8.903259936
 21
33.3476892136
  0
LINE
  5
699
100
AcDbEntity
  8
RACCORDO
100
AcDbLine
 62
253
  6
CONTINUOUS
 10
-14.903259936
 20
33.3476892136
 11
-19.4873606551
 21
33.3476892136
  0
LINE
  5
69A
100
AcDbEntity
  8
0
100
AcDbLine
 62
7
  6
CONTINUOUS
 10
-14.903259936
 20
33.7349959699
 11
-8.903259936
 21
33.7349959699
  0
LINE
  5
69B
100
AcDbEntity
  8
RACCORDO
100
AcDbLine
 62
7
  6
CONTINUOUS
 10
-1.8049556891
 20
31.3552042052
 11
-1.1830517006
 21
30.7333002167
  0
LINE
  5
69C
100
AcDbEntity
  8
ASSI
100
AcDbLine
 62
7
  6
CONTINUOUS
 10
-1.8049556891
 20
31.3552042052
 11
-1.1830517006
 21
30.7333002167
  0
LINE
  5
69D
100
AcDbEntity
  8
0
100
AcDbLine
 62
7
  6
CONTINUOUS
 10
-1.46114261
 20
31.070082317
 11
-3.2760562628
 21
32.8849959699
  0
LINE
  5
69E
100
AcDbEntity
  8
RACCORDO
100
AcDbLine
 62
7
  6
CONTINUOUS
 10
-1.46114261
 20
31.070082317
 11
-3.2760562628
 21
32.8849959699
  0
LINE
  5
69F
100
AcDbEntity
  8
0
100
AcDbLine
 62
7
  6
CONTINUOUS
 10
-1.3389571555
 20
31.1206931894
 11
-3.103259936
 21
32.8849959699
  0
LINE
  5
6A0
100
AcDbEntity
  8
RACCORDO
100
AcDbLine
 62
7
  6
CONTINUOUS
 10
-1.3389571555
 20
31.1206931894
 11
-3.103259936
 21
32.8849959699
  0
LINE
  5
6A1
100
AcDbEntity
  8
RACCORDO
100
AcDbLine
 62
7
  6
CONTINUOUS
 10
-3.653259936
 20
33.4349959699
 11
-4.6445330682
 21
34.4262691021
  0
LINE
  5
6A2
100
AcDbEntity
  8
RACCORDO
100
AcDbLine
 62
253
  6
CONTINUOUS
 10
-3.648888102
 20
-12.2106364269
 11
-3.653259936
 21
-12.2150082609
  0
LINE
  5
6A3
100
AcDbEntity
  8
RACCORDO
100
AcDbLine
 62
253
  6
CONTINUOUS
 10
-3.3988923327
 20
-12.4606321961
 11
-3.4032641667
 21
-12.4650040301
  0
LINE
  5
6A4
100
AcDbEntity
  8
RACCORDO
100
AcDbLine
 62
7
  6
CONTINUOUS
 10
-3.8192353692
 20
-8.9567122943
 11
-3.6567472268
 21
-8.8754744105
  0
LINE
  5
6A5
100
AcDbEntity
  8
RACCORDO
100
AcDbLine
 62
253
  6
CONTINUOUS
 10
-4.5659151027
 20
34.3476511367
 11
-8.903259936
 21
34.3476511367
  0
LINE
  5
6A6
100
AcDbEntity
  8
RACCORDO
100
AcDbLine
 62
253
  6
CONTINUOUS
 10
-14.903259936
 20
34.3476511367
 11
-19.2406047692
 21
34.3476511367
  0
LINE
  5
6A7
100
AcDbEntity
  8
DRAFT
100
AcDbLine
 62
7
  6
CONTINUOUS
 10
-8.403259936
 20
34.3730352086
 11
-8.903259936
 21
34.3730352086
  0
LINE
  5
6A8
100
AcDbEntity
  8
DRAFT
100
AcDbLine
 62
7
  6
CONTINUOUS
 10
-14.903259936
 20
34.3730352086
 11
-15.403259936
 21
34.3730352086
  0
LINE
  5
6A9
100
AcDbEntity
  8
RACCORDO
100
AcDbLine
 62
7
  6
CONTINUOUS
 10
-1.2134000751
 20
34.4262691021
 11
-4.6445330682
 21
34.4262691021
  0
LINE
  5
6AA
100
AcDbEntity
  8
RACCORDO
100
AcDbLine
 62
7
  6
CONTINUOUS
 10
-19.1619868037
 20
34.4262691021
 11
-22.5931197968
 21
34.4262691021
  0
LINE
  5
6AB
100
AcDbEntity
  8
RACCORDO
100
AcDbLine
 62
7
  6
CONTINUOUS
 10
-22.5756647319
 20
34.4349959699
 11
-22.553259936
 21
34.4349959699
  0
LINE
  5
6AC
100
AcDbEntity
  8
RACCORDO
100
AcDbLine
 62
7
  6
CONTINUOUS
 10
-1.253259936
 20
34.4349959699
 11
-1.23085514
 21
34.4349959699
  0
LINE
  5
6AD
100
AcDbEntity
  8
DRAFT
100
AcDbLine
 62
7
  6
CONTINUOUS
 10
-1.253259936
 20
34.4349959699
 11
-7.503259936
 21
34.4349959699
  0
LINE
  5
6AE
100
AcDbEntity
  8
DRAFT
100
AcDbLine
 62
7
  6
CONTINUOUS
 10
-16.303259936
 20
34.4349959699
 11
-22.553259936
 21
34.4349959699
  0
LINE
  5
6AF
100
AcDbEntity
  8
RACCORDO
100
AcDbLine
 62
7
  6
CONTINUOUS
 10
-1.5025369381
 20
35.1576457007
 11
-3.4039829338
 21
35.1576457007
  0
LINE
  5
6B0
100
AcDbEntity
  8
RACCORDO
100
AcDbLine
 62
7
  6
CONTINUOUS
 10
-20.4025369381
 20
35.1576457007
 11
-22.3039829338
 21
35.1576457007
  0
LINE
  5
6B1
100
AcDbEntity
  8
RACCORDO
100
AcDbLine
 62
7
  6
CONTINUOUS
 10
-3.8192353692
 20
33.0267042341
 11
-3.6567472268
 21
32.9454663503
  0
LINE
  5
6B2
100
AcDbEntity
  8
RACCORDO
100
AcDbLine
 62
253
  6
CONTINUOUS
 10
-3.648888102
 20
36.2806283667
 11
-3.653259936
 21
36.2850002007
  0
LINE
  5
6B3
100
AcDbEntity
  8
RACCORDO
100
AcDbLine
 62
253
  6
CONTINUOUS
 10
-3.3988923327
 20
36.5306241359
 11
-3.4032641667
 21
36.5349959699
  0
LINE
  5
6B4
100
AcDbEntity
  8
RACCORDO
100
AcDbLine
 62
253
  6
CONTINUOUS
 10
-1.2134000751
 20
-10.3562771623
 11
-1.23085514
 21
-10.3650040301
  0
LWPOLYLINE
  5
6B5
100
AcDbEntity
  8
RACCORDO
100
AcDbPolyline
 62
7
  6
CONTINUOUS
 90
11
 70
0
 10
-1.0251222538
 20
-10.3164507518
 10
-1.0395053132
 20
-10.3233328572
 10
-1.0596237195
 20
-10.3319615276
 10
-1.0801309705
 20
-10.3396237391
 10
-1.1009812375
 20
-10.3463019968
 10
-1.1221362027
 20
-10.3519830068
 10
-1.1435393915
 20
-10.3566506427
 10
-1.1651159187
 20
-10.3602901837
 10
-1.1868075239
 20
-10.3628959737
 10
-1.2085735832
 20
-10.364467281
 10
-1.2303648491
 20
-10.3650040301
  0
LINE
  5
6B6
100
AcDbEntity
  8
RACCORDO
100
AcDbLine
 62
253
  6
CONTINUOUS
 10
-22.2988923327
 20
35.6628271863
 11
-20.4076275392
 21
35.6628271863
  0
LINE
  5
6B7
100
AcDbEntity
  8
RACCORDO
100
AcDbLine
 62
253
  6
CONTINUOUS
 10
-3.3988923327
 20
35.6628271863
 11
-1.5076275392
 21
35.6628271863
  0
LINE
  5
6B8
100
AcDbEntity
  8
ASSI
100
AcDbLine
 62
253
  6
CONTINUOUS
 10
-16.2596092891
 20
35.791345323
 11
-15.403259936
 21
35.791345323
  0
LINE
  5
6B9
100
AcDbEntity
  8
ASSI
100
AcDbLine
 62
253
  6
CONTINUOUS
 10
-8.403259936
 20
35.791345323
 11
-7.5469105828
 21
35.791345323
  0
LINE
  5
6BA
100
AcDbEntity
  8
DRAFT
100
AcDbLine
 62
7
  6
CONTINUOUS
 10
-15.403259936
 20
35.8291781401
 11
-8.403259936
 21
35.8291781401
  0
LINE
  5
6BB
100
AcDbEntity
  8
DRAFT
100
AcDbLine
 62
7
  6
CONTINUOUS
 10
-7.503259936
 20
35.8349959699
 11
-16.303259936
 21
35.8349959699
  0
LINE
  5
6BC
100
AcDbEntity
  8
RACCORDO
100
AcDbLine
 62
253
  6
CONTINUOUS
 10
-1.25763177
 20
35.8793335372
 11
-3.648888102
 21
35.8793335372
  0
LINE
  5
6BD
100
AcDbEntity
  8
RACCORDO
100
AcDbLine
 62
253
  6
CONTINUOUS
 10
-20.15763177
 20
35.8793335372
 11
-22.548888102
 21
35.8793335372
  0
LINE
  5
6BE
100
AcDbEntity
  8
RACCORDO
100
AcDbLine
 62
253
  6
CONTINUOUS
 10
-1.25763177
 20
36.2806283667
 11
-3.648888102
 21
36.2806283667
  0
LINE
  5
6BF
100
AcDbEntity
  8
RACCORDO
100
AcDbLine
 62
253
  6
CONTINUOUS
 10
-20.15763177
 20
36.2806283667
 11
-22.548888102
 21
36.2806283667
  0
LINE
  5
6C0
100
AcDbEntity
  8
RACCORDO
100
AcDbLine
 62
253
  6
CONTINUOUS
 10
-1.5076275392
 20
36.5306241359
 11
-3.3988923327
 21
36.5306241359
  0
LINE
  5
6C1
100
AcDbEntity
  8
RACCORDO
100
AcDbLine
 62
253
  6
CONTINUOUS
 10
-20.4076275392
 20
36.5306241359
 11
-22.2988923327
 21
36.5306241359
  0
LINE
  5
6C2
100
AcDbEntity
  8
RACCORDO
100
AcDbLine
 62
7
  6
CONTINUOUS
 10
-1.5032557052
 20
36.5349959699
 11
-3.4032641667
 21
36.5349959699
  0
LINE
  5
6C3
100
AcDbEntity
  8
RACCORDO
100
AcDbLine
 62
7
  6
CONTINUOUS
 10
-20.4032557052
 20
36.5349959699
 11
-22.3032641667
 21
36.5349959699
  0
LWPOLYLINE
  5
6C4
100
AcDbEntity
  8
RACCORDO
100
AcDbPolyline
 62
7
  6
CONTINUOUS
 90
34
 70
0
 10
-20.4032557052
 20
36.5349959699
 10
-20.3913604199
 20
36.5347128197
 10
-20.3794920804
 20
36.5338640041
 10
-20.3676775698
 20
36.532451444
 10
-20.3559436485
 20
36.5304783376
 10
-20.3443168971
 20
36.5279491516
 10
-20.3328236569
 20
36.5248696116
 10
-20.3214899622
 20
36.5212466912
 10
-20.3103414867
 20
36.5170885957
 10
-20.2994034897
 20
36.5124047421
 10
-20.2887007484
 20
36.5072057387
 10
-20.2782575077
 20
36.5015033615
 10
-20.26809743
 20
36.495310528
 10
-20.2582435308
 20
36.4886412654
 10
-20.2487181321
 20
36.4815106806
 10
-20.2395428169
 20
36.4739349288
 10
-20.2307383699
 20
36.4659311704
 10
-20.2223247355
 20
36.457517536
 10
-20.2143209771
 20
36.448713089
 10
-20.2067452252
 20
36.4395377737
 10
-20.1996146405
 20
36.430012375
 10
-20.1929453778
 20
36.4201584758
 10
-20.1867525443
 20
36.4099983982
 10
-20.1810501671
 20
36.3995551575
 10
-20.1758511638
 20
36.3888524162
 10
-20.1711673102
 20
36.3779144192
 10
-20.1670092146
 20
36.3667659437
 10
-20.1633862942
 20
36.3554322489
 10
-20.1603067542
 20
36.3439390087
 10
-20.1577775682
 20
36.3323122574
 10
-20.1558044618
 20
36.320578336
 10
-20.1543919017
 20
36.3087638255
 10
-20.1535430862
 20
36.2968954859
 10
-20.153259936
 20
36.2850002007
  0
LWPOLYLINE
  5
6C5
100
AcDbEntity
  8
RACCORDO
100
AcDbPolyline
 62
7
  6
CONTINUOUS
 90
34
 70
0
 10
-1.5032557052
 20
36.5349959699
 10
-1.4913604199
 20
36.5347128197
 10
-1.4794920804
 20
36.5338640041
 10
-1.4676775698
 20
36.532451444
 10
-1.4559436485
 20
36.5304783376
 10
-1.4443168971
 20
36.5279491516
 10
-1.4328236569
 20
36.5248696116
 10
-1.4214899622
 20
36.5212466912
 10
-1.4103414867
 20
36.5170885957
 10
-1.3994034897
 20
36.5124047421
 10
-1.3887007484
 20
36.5072057387
 10
-1.3782575077
 20
36.5015033615
 10
-1.36809743
 20
36.495310528
 10
-1.3582435308
 20
36.4886412654
 10
-1.3487181321
 20
36.4815106806
 10
-1.3395428169
 20
36.4739349288
 10
-1.3307383699
 20
36.4659311704
 10
-1.3223247355
 20
36.457517536
 10
-1.3143209771
 20
36.448713089
 10
-1.3067452252
 20
36.4395377737
 10
-1.2996146405
 20
36.430012375
 10
-1.2929453778
 20
36.4201584758
 10
-1.2867525443
 20
36.4099983982
 10
-1.2810501671
 20
36.3995551575
 10
-1.2758511638
 20
36.3888524162
 10
-1.2711673102
 20
36.3779144192
 10
-1.2670092146
 20
36.3667659437
 10
-1.2633862942
 20
36.3554322489
 10
-1.2603067542
 20
36.3439390087
 10
-1.2577775682
 20
36.3323122574
 10
-1.2558044618
 20
36.320578336
 10
-1.2543919017
 20
36.3087638255
 10
-1.2535430862
 20
36.2968954859
 10
-1.253259936
 20
36.2850002007
  0
LWPOLYLINE
  5
6C6
100
AcDbEntity
  8
RACCORDO
100
AcDbPolyline
 62
253
  6
CONTINUOUS
 90
31
 70
0
 10
-20.4076275392
 20
36.5306241359
 10
-20.3945440532
 20
36.5302810973
 10
-20.3814964266
 20
36.5292538074
 10
-20.3685204204
 20
36.5275450819
 10
-20.3556515996
 20
36.5251596039
 10
-20.342925235
 20
36.5221039117
 10
-20.3303762074
 20
36.5183863803
 10
-20.3180389111
 20
36.5140171988
 10
-20.3059471604
 20
36.5090083423
 10
-20.2941340966
 20
36.5033735392
 10
-20.2826320971
 20
36.4971282333
 10
-20.2714726866
 20
36.4902895419
 10
-20.260686451
 20
36.4828762085
 10
-20.2503029533
 20
36.4749085517
 10
-20.2403506529
 20
36.4664084094
 10
-20.230856827
 20
36.4573990789
 10
-20.2218474964
 20
36.447905253
 10
-20.2133473541
 20
36.4379529525
 10
-20.2053796974
 20
36.4275694549
 10
-20.197966364
 20
36.4167832193
 10
-20.1911276726
 20
36.4056238088
 10
-20.1848823667
 20
36.3941218092
 10
-20.1792475635
 20
36.3823087454
 10
-20.174238707
 20
36.3702169948
 10
-20.1698695255
 20
36.3578796985
 10
-20.1661519941
 20
36.3453306708
 10
-20.1630963019
 20
36.3326043063
 10
-20.160710824
 20
36.3197354854
 10
-20.1590020984
 20
36.3067594793
 10
-20.1579748085
 20
36.2937118527
 10
-20.15763177
 20
36.2806283667
  0
LWPOLYLINE
  5
6C7
100
AcDbEntity
  8
RACCORDO
100
AcDbPolyline
 62
253
  6
CONTINUOUS
 90
31
 70
0
 10
-1.5076275392
 20
36.5306241359
 10
-1.4945751992
 20
36.5302827287
 10
-1.4815503048
 20
36.5292594661
 10
-1.4685885302
 20
36.5275558619
 10
-1.4557228115
 20
36.5251747317
 10
-1.4429913463
 20
36.5221216183
 10
-1.4304371617
 20
36.5184061786
 10
-1.4180973578
 20
36.5140396275
 10
-1.4060030017
 20
36.5090331976
 10
-1.3941869234
 20
36.503400449
 10
-1.382681323
 20
36.4971566473
 10
-1.3715180046
 20
36.4903189655
 10
-1.3607279254
 20
36.4829063355
 10
-1.3503407995
 20
36.4749391932
 10
-1.3403849624
 20
36.4664392963
 10
-1.3308876279
 20
36.4574298745
 10
-1.3218748088
 20
36.4479355813
 10
-1.3133712673
 20
36.4379824779
 10
-1.3054003591
 20
36.4275978886
 10
-1.2979839523
 20
36.4168102983
 10
-1.2911423765
 20
36.4056492724
 10
-1.2848943973
 20
36.3941454166
 10
-1.279257149
 20
36.3823302709
 10
-1.2742460935
 20
36.3702362337
 10
-1.2698749785
 20
36.3578964776
 10
-1.266155789
 20
36.3453448301
 10
-1.2630987278
 20
36.3326157162
 10
-1.2607121851
 20
36.3197440766
 10
-1.2590027019
 20
36.3067652191
 10
-1.257974959
 20
36.2937147208
 10
-1.25763177
 20
36.2806283667
  0
LWPOLYLINE
  5
6C8
100
AcDbEntity
  8
RACCORDO
100
AcDbPolyline
 62
7
  6
CONTINUOUS
 90
11
 70
0
 10
-1.0251240664
 20
34.386443584
 10
-1.0395936693
 20
34.3933651966
 10
-1.0597182272
 20
34.4019913697
 10
-1.0802290537
 20
34.4096496727
 10
-1.1010790966
 20
34.4163227194
 10
-1.1222122437
 20
34.4219934545
 10
-1.1435892158
 20
34.4266522309
 10
-1.1651880262
 20
34.4302925229
 10
-1.1869691553
 20
34.4329033748
 10
-1.2088747544
 20
34.4344735836
 10
-1.23085514
 20
34.4349959699
  0
LINE
  5
6C9
100
AcDbEntity
  8
RACCORDO
100
AcDbLine
 62
253
  6
CONTINUOUS
 10
-1.23085514
 20
34.4349959699
 11
-1.2134000751
 21
34.4262691021
  0
ARC
  5
6CA
100
AcDbEntity
  8
0
100
AcDbCircle
 62
7
  6
CONTINUOUS
 10
-20.903259936
 20
-5.1650040301
 40
1.4
100
AcDbArc
 50
201.7133555171
 51
270.0
  0
ARC
  5
6CB
100
AcDbEntity
  8
ASSI
100
AcDbCircle
 62
7
  6
CONTINUOUS
 10
-21.4091683067
 20
-5.4550040301
 40
0.71
100
AcDbArc
 50
229.7010712477
 51
265.2998279782
  0
ARC
  5
6CC
100
AcDbEntity
  8
ASSI
100
AcDbCircle
 62
7
  6
CONTINUOUS
 10
-22.193259936
 20
-4.6709124008
 40
0.71
100
AcDbArc
 50
184.7001961556
 51
220.2989529286
  0
ARC
  5
6CD
100
AcDbEntity
  8
0
100
AcDbCircle
 62
7
  6
CONTINUOUS
 10
-13.603259936
 20
-5.5150040301
 40
0.3
100
AcDbArc
 50
90.0
 51
170.0
  0
ARC
  5
6CE
100
AcDbEntity
  8
RACCORDO
100
AcDbCircle
 62
7
  6
CONTINUOUS
 10
-13.603259936
 20
-5.5150040301
 40
0.3
100
AcDbArc
 50
90.0
 51
170.0
  0
ARC
  5
6CF
100
AcDbEntity
  8
CURVE
100
AcDbCircle
 62
7
  6
CONTINUOUS
 10
-17.403259936
 20
21.1174399699
 40
2.5499986575
100
AcDbArc
 50
357.7524617393
 51
182.2474682623
  0
ARC
  5
6D0
100
AcDbEntity
  8
CURVE
100
AcDbCircle
 62
7
  6
CONTINUOUS
 10
-17.403259936
 20
25.5025499699
 40
2.5499985399
100
AcDbArc
 50
357.7525290943
 51
182.2474682623
  0
ARC
  5
6D1
100
AcDbEntity
  8
CURVE
100
AcDbCircle
 62
7
  6
CONTINUOUS
 10
-17.403259936
 20
21.1174399699
 40
1.7999999246
100
AcDbArc
 50
356.8152613297
 51
77.9753174348
  0
ARC
  5
6D2
100
AcDbEntity
  8
CURVE
100
AcDbCircle
 62
7
  6
CONTINUOUS
 10
-17.403259936
 20
25.5025499699
 40
1.7999999246
100
AcDbArc
 50
356.8152613297
 51
183.1847351336
  0
ARC
  5
6D3
100
AcDbEntity
  8
CURVE
100
AcDbCircle
 62
7
  6
CONTINUOUS
 10
-17.403259936
 20
21.1174399699
 40
1.7999968808
100
AcDbArc
 50
102.0247203293
 51
183.1848322474
  0
ARC
  5
6D4
100
AcDbEntity
  8
ASSI
100
AcDbCircle
 62
7
  6
CONTINUOUS
 10
-22.193259936
 20
28.7409043406
 40
0.71
100
AcDbArc
 50
139.7020215745
 51
175.2988538673
  0
ARC
  5
6D5
100
AcDbEntity
  8
ASSI
100
AcDbCircle
 62
7
  6
CONTINUOUS
 10
-21.4091683067
 20
29.5249959699
 40
0.71
100
AcDbArc
 50
94.7020215745
 51
130.2988538673
  0
ARC
  5
6D6
100
AcDbEntity
  8
0
100
AcDbCircle
 62
7
  6
CONTINUOUS
 10
-13.603259936
 20
29.5849959699
 40
0.3
100
AcDbArc
 50
189.5979508052
 51
270.0
  0
ARC
  5
6D7
100
AcDbEntity
  8
RACCORDO
100
AcDbCircle
 62
7
  6
CONTINUOUS
 10
-13.603259936
 20
29.5849959699
 40
0.3
100
AcDbArc
 50
189.5979508052
 51
270.0
  0
ARC
  5
6D8
100
AcDbEntity
  8
ASSI
100
AcDbCircle
 62
7
  6
CONTINUOUS
 10
-2.3973515652
 20
-6.8550040301
 40
0.71
100
AcDbArc
 50
289.9961491498
 51
294.2412807351
  0
ARC
  5
6D9
100
AcDbEntity
  8
ASSI
100
AcDbCircle
 62
7
  6
CONTINUOUS
 10
-1.613259936
 20
-6.0709124008
 40
0.71
100
AcDbArc
 50
319.7010712477
 51
355.2998279782
  0
ARC
  5
6DA
100
AcDbEntity
  8
0
100
AcDbCircle
 62
7
  6
CONTINUOUS
 10
-10.203259936
 20
-5.5150040301
 40
0.3
100
AcDbArc
 50
9.8838085533
 51
90.0
  0
ARC
  5
6DB
100
AcDbEntity
  8
RACCORDO
100
AcDbCircle
 62
7
  6
CONTINUOUS
 10
-10.203259936
 20
-5.5150040301
 40
0.3
100
AcDbArc
 50
9.8838085533
 51
90.0
  0
ARC
  5
6DC
100
AcDbEntity
  8
ASSI
100
AcDbCircle
 62
7
  6
CONTINUOUS
 10
-2.3973515652
 20
30.9249959699
 40
0.71
100
AcDbArc
 50
49.7020215745
 51
85.2988538673
  0
ARC
  5
6DD
100
AcDbEntity
  8
ASSI
100
AcDbCircle
 62
7
  6
CONTINUOUS
 10
-1.613259936
 20
30.1409043406
 40
0.71
100
AcDbArc
 50
4.7020215745
 51
40.2988538673
  0
ARC
  5
6DE
100
AcDbEntity
  8
0
100
AcDbCircle
 62
7
  6
CONTINUOUS
 10
-10.203259936
 20
29.5849959699
 40
0.3
100
AcDbArc
 50
270.0
 51
350.0
  0
ARC
  5
6DF
100
AcDbEntity
  8
RACCORDO
100
AcDbCircle
 62
7
  6
CONTINUOUS
 10
-10.203259936
 20
29.5849959699
 40
0.3
100
AcDbArc
 50
270.0
 51
350.0
  0
ELLIPSE
  5
6E0
100
AcDbEntity
  8
0
100
AcDbEllipse
 62
7
  6
CONTINUOUS
 10
-21.1694103644
 20
29.8011463983
 30
0.0
 11
-0.3535803156
 21
0.3535803156
 31
0.0
 40
0.9999238505
 41
-0.651298773
 42
-0.2962124934
  0
ELLIPSE
  5
6E1
100
AcDbEntity
  8
0
100
AcDbEllipse
 62
7
  6
CONTINUOUS
 10
-21.1694103644
 20
29.8011463983
 30
0.0
 11
0.3535803156
 21
-0.3535803156
 31
0.0
 40
0.9999238505
 41
2.3562325664
 42
2.4902938806
  0
ELLIPSE
  5
6E2
100
AcDbEntity
  8
0
100
AcDbEllipse
 62
7
  6
CONTINUOUS
 10
-13.6961531548
 20
30.2706214003
 30
0.0
 11
0.5
 21
0.0
 31
0.0
 40
0.0087268678
 41
-2.3561944902
 42
-1.9981274692
  0
ELLIPSE
  5
6E3
100
AcDbEntity
  8
0
100
AcDbEllipse
 62
7
  6
CONTINUOUS
 10
-10.1103667171
 20
30.2706214003
 30
0.0
 11
0.5
 21
0.0
 31
0.0
 40
0.0087268678
 41
-1.1643384736
 42
-0.7853981634
  0
ELLIPSE
  5
6E4
100
AcDbEntity
  8
0
100
AcDbEllipse
 62
7
  6
CONTINUOUS
 10
-21.0529552799
 20
-5.6364507127
 30
0.0
 11
1.8480888181
 21
0.7655034529
 31
0.0
 40
0.9998215708
 41
2.7489566578
 42
3.5342286494
  0
ELLIPSE
  5
6E5
100
AcDbEntity
  8
0
100
AcDbEllipse
 62
7
  6
CONTINUOUS
 10
-21.0529552799
 20
29.7064426525
 30
0.0
 11
1.8480888181
 21
-0.7655034529
 31
0.0
 40
0.9998215708
 41
2.7489566578
 42
3.5342286494
  0
ELLIPSE
  5
6E6
100
AcDbEntity
  8
0
100
AcDbEllipse
 62
7
  6
CONTINUOUS
 10
-2.753564592
 20
29.7064426525
 30
0.0
 11
1.8480888181
 21
0.7655034529
 31
0.0
 40
0.9998215708
 41
-0.3926359958
 42
0.3926359958
  0
ELLIPSE
  5
6E7
100
AcDbEntity
  8
0
100
AcDbEllipse
 62
7
  6
CONTINUOUS
 10
-2.753564592
 20
-5.6364507127
 30
0.0
 11
1.8480888181
 21
-0.7655034529
 31
0.0
 40
0.9998215708
 41
-0.3926359958
 42
0.3926359958
  0
ELLIPSE
  5
6E8
100
AcDbEntity
  8
0
100
AcDbEllipse
 62
7
  6
CONTINUOUS
 10
-20.9307698254
 20
-5.5858398403
 30
0.0
 11
-1.8480888181
 21
-0.7655034529
 31
0.0
 40
0.9998215708
 41
-0.3926359958
 42
0.3926359958
  0
ELLIPSE
  5
6E9
100
AcDbEntity
  8
0
100
AcDbEllipse
 62
7
  6
CONTINUOUS
 10
-20.9307698254
 20
29.6558317801
 30
0.0
 11
1.8480888181
 21
-0.7655034529
 31
0.0
 40
0.9998215708
 41
2.7489566578
 42
3.5342286494
  0
ELLIPSE
  5
6EA
100
AcDbEntity
  8
0
100
AcDbEllipse
 62
7
  6
CONTINUOUS
 10
-2.8757500465
 20
29.6558317801
 30
0.0
 11
1.8480888181
 21
0.7655034529
 31
0.0
 40
0.9998215708
 41
-0.3926359958
 42
-0.278861721
  0
ELLIPSE
  5
6EB
100
AcDbEntity
  8
0
100
AcDbEllipse
 62
7
  6
CONTINUOUS
 10
-2.8757500465
 20
29.6558317801
 30
0.0
 11
1.8480888181
 21
0.7655034529
 31
0.0
 40
0.9998215708
 41
6.4756880539
 42
6.675821303
  0
ELLIPSE
  5
6EC
100
AcDbEntity
  8
0
100
AcDbEllipse
 62
7
  6
CONTINUOUS
 10
-2.8757500465
 20
-5.5858398403
 30
0.0
 11
-1.8480888181
 21
0.7655034529
 31
0.0
 40
0.9998215708
 41
9.032141965
 42
9.2322752141
  0
ELLIPSE
  5
6ED
100
AcDbEntity
  8
0
100
AcDbEllipse
 62
7
  6
CONTINUOUS
 10
-2.8757500465
 20
-5.5858398403
 30
0.0
 11
-1.8480888181
 21
0.7655034529
 31
0.0
 40
0.9998215708
 41
3.4204543746
 42
3.5342286494
  0
ELLIPSE
  5
6EE
100
AcDbEntity
  8
RACCORDO
100
AcDbEllipse
 62
7
  6
CONTINUOUS
 10
-21.1694103644
 20
29.8011463983
 30
0.0
 11
-0.3535803156
 21
0.3535803156
 31
0.0
 40
0.9999238505
 41
-0.651298773
 42
-0.2962124934
  0
ELLIPSE
  5
6EF
100
AcDbEntity
  8
RACCORDO
100
AcDbEllipse
 62
7
  6
CONTINUOUS
 10
-21.1694103644
 20
29.8011463983
 30
0.0
 11
0.3535803156
 21
-0.3535803156
 31
0.0
 40
0.9999238505
 41
2.3562325664
 42
2.4902938806
  0
ELLIPSE
  5
6F0
100
AcDbEntity
  8
RACCORDO
100
AcDbEllipse
 62
7
  6
CONTINUOUS
 10
-13.6961531548
 20
30.2706214003
 30
0.0
 11
0.5
 21
0.0
 31
0.0
 40
0.0087268678
 41
-2.3561944902
 42
-1.9981274692
  0
ELLIPSE
  5
6F1
100
AcDbEntity
  8
RACCORDO
100
AcDbEllipse
 62
7
  6
CONTINUOUS
 10
-10.1103667171
 20
30.2706214003
 30
0.0
 11
0.5
 21
0.0
 31
0.0
 40
0.0087268678
 41
-1.1643384736
 42
-0.7853981634
  0
ELLIPSE
  5
6F2
100
AcDbEntity
  8
RACCORDO
100
AcDbEllipse
 62
7
  6
CONTINUOUS
 10
-21.0529552799
 20
-5.6364507127
 30
0.0
 11
1.8480888181
 21
0.7655034529
 31
0.0
 40
0.9998215708
 41
2.7489566578
 42
3.5342286494
  0
ELLIPSE
  5
6F3
100
AcDbEntity
  8
RACCORDO
100
AcDbEllipse
 62
7
  6
CONTINUOUS
 10
-21.0529552799
 20
29.7064426525
 30
0.0
 11
1.8480888181
 21
-0.7655034529
 31
0.0
 40
0.9998215708
 41
2.7489566578
 42
3.5342286494
  0
ELLIPSE
  5
6F4
100
AcDbEntity
  8
RACCORDO
100
AcDbEllipse
 62
7
  6
CONTINUOUS
 10
-2.753564592
 20
29.7064426525
 30
0.0
 11
1.8480888181
 21
0.7655034529
 31
0.0
 40
0.9998215708
 41
-0.3926359958
 42
0.3926359958
  0
ELLIPSE
  5
6F5
100
AcDbEntity
  8
RACCORDO
100
AcDbEllipse
 62
7
  6
CONTINUOUS
 10
-2.753564592
 20
-5.6364507127
 30
0.0
 11
1.8480888181
 21
-0.7655034529
 31
0.0
 40
0.9998215708
 41
-0.3926359958
 42
0.3926359958
  0
ELLIPSE
  5
6F6
100
AcDbEntity
  8
0
100
AcDbEllipse
 62
7
  6
CONTINUOUS
 10
-9.9033361
 20
153.9106384059
 30
0.0
 11
-0.4997620717
 21
162.4815824859
 31
0.0
 40
0.000109066
 41
3.2240975184
 42
3.234898768
  0
ELLIPSE
  5
6F7
100
AcDbEntity
  8
0
100
AcDbEllipse
 62
7
  6
CONTINUOUS
 10
-9.9033361
 20
-129.8406464661
 30
0.0
 11
0.4997620717
 21
162.4815824859
 31
0.0
 40
0.000109066
 41
-0.0933061144
 42
-0.0825048648
  0
ELLIPSE
  5
6F8
100
AcDbEntity
  8
0
100
AcDbEllipse
 62
7
  6
CONTINUOUS
 10
-13.9031837719
 20
153.9106384059
 30
0.0
 11
0.4997620717
 21
162.4815824859
 31
0.0
 40
0.000109066
 41
-3.234898768
 42
-3.2241050087
  0
ELLIPSE
  5
6F9
100
AcDbEntity
  8
0
100
AcDbEllipse
 62
7
  6
CONTINUOUS
 10
-13.9031837719
 20
-129.8406464661
 30
0.0
 11
-0.4997620717
 21
162.4815824859
 31
0.0
 40
0.000109066
 41
6.3656976623
 42
6.3764914216
  0
ELLIPSE
  5
6FA
100
AcDbEntity
  8
RACCORDO
100
AcDbEllipse
 62
7
  6
CONTINUOUS
 10
-20.9307698254
 20
-5.5858398403
 30
0.0
 11
-1.8480888181
 21
-0.7655034529
 31
0.0
 40
0.9998215708
 41
-0.3926359958
 42
0.3926359958
  0
ELLIPSE
  5
6FB
100
AcDbEntity
  8
RACCORDO
100
AcDbEllipse
 62
7
  6
CONTINUOUS
 10
-20.9307698254
 20
29.6558317801
 30
0.0
 11
1.8480888181
 21
-0.7655034529
 31
0.0
 40
0.9998215708
 41
2.7489566578
 42
3.5342286494
  0
ELLIPSE
  5
6FC
100
AcDbEntity
  8
RACCORDO
100
AcDbEllipse
 62
7
  6
CONTINUOUS
 10
-2.8757500465
 20
29.6558317801
 30
0.0
 11
1.8480888181
 21
0.7655034529
 31
0.0
 40
0.9998215708
 41
-0.3926359958
 42
-0.278861721
  0
ELLIPSE
  5
6FD
100
AcDbEntity
  8
RACCORDO
100
AcDbEllipse
 62
7
  6
CONTINUOUS
 10
-2.8757500465
 20
29.6558317801
 30
0.0
 11
1.8480888181
 21
0.7655034529
 31
0.0
 40
0.9998215708
 41
6.4756880539
 42
6.675821303
  0
ELLIPSE
  5
6FE
100
AcDbEntity
  8
RACCORDO
100
AcDbEllipse
 62
7
  6
CONTINUOUS
 10
-2.8757500465
 20
-5.5858398403
 30
0.0
 11
-1.8480888181
 21
0.7655034529
 31
0.0
 40
0.9998215708
 41
9.032141965
 42
9.2322752141
  0
ELLIPSE
  5
6FF
100
AcDbEntity
  8
RACCORDO
100
AcDbEllipse
 62
7
  6
CONTINUOUS
 10
-2.8757500465
 20
-5.5858398403
 30
0.0
 11
-1.8480888181
 21
0.7655034529
 31
0.0
 40
0.9998215708
 41
3.4204543746
 42
3.5342286494
  0
ELLIPSE
  5
700
100
AcDbEntity
  8
DRAFT
100
AcDbEllipse
 62
7
  6
CONTINUOUS
 10
-9.403259936
 20
-8.0095110558
 30
0.0
 11
1.0
 21
0.0
 31
0.0
 40
0.0087268678
 41
-1.5707963268
 42
-0.0
  0
ELLIPSE
  5
701
100
AcDbEntity
  8
DRAFT
100
AcDbEllipse
 62
7
  6
CONTINUOUS
 10
-9.403259936
 20
32.0795029956
 30
0.0
 11
1.0
 21
0.0
 31
0.0
 40
0.0087268678
 41
-0.0
 42
1.5707963268
  0
ELLIPSE
  5
702
100
AcDbEntity
  8
DRAFT
100
AcDbEllipse
 62
7
  6
CONTINUOUS
 10
-11.903259936
 20
-8.1473955669
 30
0.0
 11
15.0
 21
0.0
 31
0.0
 40
0.0087268678
 41
1.4073150204
 42
1.7342776332
  0
ELLIPSE
  5
703
100
AcDbEntity
  8
DRAFT
100
AcDbEllipse
 62
7
  6
CONTINUOUS
 10
-14.403259936
 20
-8.0095110558
 30
0.0
 11
1.0
 21
0.0
 31
0.0
 40
0.0087268678
 41
-3.1415926536
 42
-1.5707963268
  0
ELLIPSE
  5
704
100
AcDbEntity
  8
DRAFT
100
AcDbEllipse
 62
7
  6
CONTINUOUS
 10
-11.903259936
 20
32.2173875067
 30
0.0
 11
15.0
 21
-0.0
 31
0.0
 40
0.0087268678
 41
-1.7342776332
 42
-1.4073150204
  0
ELLIPSE
  5
705
100
AcDbEntity
  8
DRAFT
100
AcDbEllipse
 62
7
  6
CONTINUOUS
 10
-14.403259936
 20
32.0795029956
 30
0.0
 11
1.0
 21
-0.0
 31
0.0
 40
0.0087268678
 41
1.5707963268
 42
3.1415926536
  0
ELLIPSE
  5
706
100
AcDbEntity
  8
RACCORDO
100
AcDbEllipse
 62
7
  6
CONTINUOUS
 10
-22.3032557051
 20
35.4463208353
 30
0.0
 11
0.0029088041
 21
0.2886641433
 31
0.0
 40
0.8660144118
 41
-4.7007536982
 42
-3.1328662412
  0
ELLIPSE
  5
707
100
AcDbEntity
  8
RACCORDO
100
AcDbEllipse
 62
7
  6
CONTINUOUS
 10
-20.4032641668
 20
35.4463208353
 30
0.0
 11
-0.0029088041
 21
0.2886641433
 31
0.0
 40
0.8660144118
 41
-3.150319066
 42
-1.582431609
  0
ELLIPSE
  5
708
100
AcDbEntity
  8
RACCORDO
100
AcDbEllipse
 62
7
  6
CONTINUOUS
 10
-22.5931898651
 20
-9.8962596463
 30
0.0
 11
-0.4115211136
 21
0.2057448864
 31
0.0
 40
0.9998096356
 41
6.7467263073
 42
8.3176749331
  0
ELLIPSE
  5
709
100
AcDbEntity
  8
RACCORDO
100
AcDbEllipse
 62
7
  6
CONTINUOUS
 10
-1.2133300069
 20
33.9662515861
 30
0.0
 11
0.4115211136
 21
-0.2057448864
 31
0.0
 40
0.9998096356
 41
6.7467263073
 42
8.3176749331
  0
ELLIPSE
  5
70A
100
AcDbEntity
  8
RACCORDO
100
AcDbEllipse
 62
7
  6
CONTINUOUS
 10
-3.4032557051
 20
35.4463208353
 30
0.0
 11
0.0029088041
 21
0.2886641433
 31
0.0
 40
0.8660144118
 41
-4.7007536982
 42
-3.1328662412
  0
ELLIPSE
  5
70B
100
AcDbEntity
  8
RACCORDO
100
AcDbEllipse
 62
7
  6
CONTINUOUS
 10
-1.5032641668
 20
35.4463208353
 30
0.0
 11
-0.0029088041
 21
0.2886641433
 31
0.0
 40
0.8660144118
 41
-3.150319066
 42
-1.582431609
  0
ELLIPSE
  5
70C
100
AcDbEntity
  8
RACCORDO
100
AcDbEllipse
 62
7
  6
CONTINUOUS
 10
-1.2133300069
 20
-9.8962596463
 30
0.0
 11
-0.4115211136
 21
-0.2057448864
 31
0.0
 40
0.9998096356
 41
1.1071030277
 42
2.6780516535
  0
ELLIPSE
  5
70D
100
AcDbEntity
  8
RACCORDO
100
AcDbEllipse
 62
7
  6
CONTINUOUS
 10
-19.4873606551
 20
-8.9566361419
 30
0.0
 11
0.5
 21
0.0
 31
0.0
 40
0.0087268678
 41
-3.1241393611
 42
-1.5707963268
  0
ELLIPSE
  5
70E
100
AcDbEntity
  8
RACCORDO
100
AcDbEllipse
 62
7
  6
CONTINUOUS
 10
-4.3191592168
 20
-8.9566361419
 30
0.0
 11
0.5
 21
0.0
 31
0.0
 40
0.0087268678
 41
-1.5707963268
 42
-0.0174532925
  0
ELLIPSE
  5
70F
100
AcDbEntity
  8
RACCORDO
100
AcDbEllipse
 62
7
  6
CONTINUOUS
 10
-19.4873606551
 20
33.0266280817
 30
0.0
 11
0.5
 21
0.0
 31
0.0
 40
0.0087268678
 41
1.5707963268
 42
3.1241393611
  0
ELLIPSE
  5
710
100
AcDbEntity
  8
RACCORDO
100
AcDbEllipse
 62
7
  6
CONTINUOUS
 10
-4.3191592168
 20
33.0266280817
 30
0.0
 11
0.5
 21
-0.0
 31
0.0
 40
0.0087268678
 41
0.0174532925
 42
1.5707963268
  0
ELLIPSE
  5
711
100
AcDbEntity
  8
RACCORDO
100
AcDbEllipse
 62
7
  6
CONTINUOUS
 10
-22.5931898651
 20
33.9662515861
 30
0.0
 11
0.4115211136
 21
0.2057448864
 31
0.0
 40
0.9998096356
 41
1.1071030277
 42
2.6780516535
  0
ELLIPSE
  5
712
100
AcDbEntity
  8
RACCORDO
100
AcDbEllipse
 62
7
  6
CONTINUOUS
 10
-5.5479905527
 20
-8.5479283133
 30
0.0
 11
0.0
 21
0.5
 31
0.0
 40
0.0058178298
 41
-1.5707963268
 42
-0.0087266463
  0
ELLIPSE
  5
713
100
AcDbEntity
  8
RACCORDO
100
AcDbEllipse
 62
7
  6
CONTINUOUS
 10
-18.2585293192
 20
-8.5479283133
 30
0.0
 11
0.0
 21
0.5
 31
0.0
 40
0.0058178298
 41
0.0087266463
 42
1.5707963268
  0
ELLIPSE
  5
714
100
AcDbEntity
  8
RACCORDO
100
AcDbEllipse
 62
7
  6
CONTINUOUS
 10
-18.2585293192
 20
32.6179202531
 30
0.0
 11
0.0
 21
0.5
 31
0.0
 40
0.0058178298
 41
-4.7123889804
 42
-3.1503192998
  0
ELLIPSE
  5
715
100
AcDbEntity
  8
RACCORDO
100
AcDbEllipse
 62
7
  6
CONTINUOUS
 10
-5.5479905527
 20
32.6179202531
 30
0.0
 11
-0.0
 21
0.5
 31
0.0
 40
0.0058178298
 41
-3.1328660073
 42
-1.5707963268
  0
ELLIPSE
  5
716
100
AcDbEntity
  8
RACCORDO
100
AcDbEllipse
 62
7
  6
CONTINUOUS
 10
-18.2602746681
 20
-7.9220221469
 30
0.0
 11
-0.0
 21
0.2
 31
0.0
 40
0.0058178298
 41
0.0058177642
 42
1.5707963268
  0
ELLIPSE
  5
717
100
AcDbEntity
  8
RACCORDO
100
AcDbEllipse
 62
7
  6
CONTINUOUS
 10
-19.1462452038
 20
-7.9220221469
 30
0.0
 11
-0.0
 21
0.2
 31
0.0
 40
0.0058178298
 41
-1.5707963268
 42
-0.0058177642
  0
ELLIPSE
  5
718
100
AcDbEntity
  8
RACCORDO
100
AcDbEllipse
 62
7
  6
CONTINUOUS
 10
-4.6602746681
 20
-7.9220221469
 30
0.0
 11
0.0
 21
0.2
 31
0.0
 40
0.0058178298
 41
0.0058177642
 42
1.5707963268
  0
ELLIPSE
  5
719
100
AcDbEntity
  8
RACCORDO
100
AcDbEllipse
 62
7
  6
CONTINUOUS
 10
-5.5462452038
 20
-7.9220221469
 30
0.0
 11
0.0
 21
0.2
 31
0.0
 40
0.0058178298
 41
-1.5707963268
 42
-0.0058177642
  0
ELLIPSE
  5
71A
100
AcDbEntity
  8
RACCORDO
100
AcDbEllipse
 62
7
  6
CONTINUOUS
 10
-5.5462452038
 20
31.9920140867
 30
0.0
 11
-0.0
 21
0.2
 31
0.0
 40
0.0058178298
 41
-3.1357748894
 42
-1.5707963268
  0
ELLIPSE
  5
71B
100
AcDbEntity
  8
RACCORDO
100
AcDbEllipse
 62
7
  6
CONTINUOUS
 10
-4.6602746681
 20
31.9920140867
 30
0.0
 11
0.0
 21
0.2
 31
0.0
 40
0.0058178298
 41
-4.7123889804
 42
-3.1474104178
  0
ELLIPSE
  5
71C
100
AcDbEntity
  8
RACCORDO
100
AcDbEllipse
 62
7
  6
CONTINUOUS
 10
-19.1462452038
 20
31.9920140867
 30
0.0
 11
0.0
 21
0.2
 31
0.0
 40
0.0058178298
 41
-3.1357748894
 42
-1.5707963268
  0
ELLIPSE
  5
71D
100
AcDbEntity
  8
RACCORDO
100
AcDbEllipse
 62
7
  6
CONTINUOUS
 10
-18.2602746681
 20
31.9920140867
 30
0.0
 11
0.0
 21
0.2
 31
0.0
 40
0.0058178298
 41
-4.7123889804
 42
-3.1474104178
  0
ELLIPSE
  5
71E
100
AcDbEntity
  8
RACCORDO
100
AcDbEllipse
 62
7
  6
CONTINUOUS
 10
-20.4032641668
 20
-11.3763288955
 30
0.0
 11
0.0029088041
 21
0.2886641433
 31
0.0
 40
0.8660144118
 41
-1.5591610446
 42
0.0087264124
  0
ELLIPSE
  5
71F
100
AcDbEntity
  8
ASSI
100
AcDbEllipse
 62
7
  6
CONTINUOUS
 10
-16.2596262124
 20
-11.2213618448
 30
0.0
 11
0.0
 21
0.5
 31
0.0
 40
0.0058178298
 41
-3.1357748894
 42
-2.9919956456
  0
ELLIPSE
  5
720
100
AcDbEntity
  8
RACCORDO
100
AcDbEllipse
 62
7
  6
CONTINUOUS
 10
-22.3032557051
 20
-11.3763288955
 30
0.0
 11
-0.0029088041
 21
0.2886641433
 31
0.0
 40
0.8660144118
 41
-0.0087264124
 42
1.5591610446
  0
ELLIPSE
  5
721
100
AcDbEntity
  8
ASSI
100
AcDbEllipse
 62
7
  6
CONTINUOUS
 10
-7.5468936595
 20
-11.2213618448
 30
0.0
 11
-0.0
 21
0.5
 31
0.0
 40
0.0058178298
 41
-3.2911896616
 42
-3.1474104178
  0
ELLIPSE
  5
722
100
AcDbEntity
  8
ASSI
100
AcDbEllipse
 62
7
  6
CONTINUOUS
 10
-7.5468936595
 20
35.2913537846
 30
0.0
 11
-0.0
 21
0.5
 31
0.0
 40
0.0058178298
 41
0.0058177642
 42
0.149597008
  0
ELLIPSE
  5
723
100
AcDbEntity
  8
ASSI
100
AcDbEllipse
 62
7
  6
CONTINUOUS
 10
-16.2596262124
 20
35.2913537846
 30
0.0
 11
0.0
 21
0.5
 31
0.0
 40
0.0058178298
 41
-0.149597008
 42
-0.0058177642
  0
ELLIPSE
  5
724
100
AcDbEntity
  8
DRAFT
100
AcDbEllipse
 62
7
  6
CONTINUOUS
 10
-15.8312299236
 20
-10.2989239253
 30
0.0
 11
0.4279699877
 21
0.0
 31
0.0
 40
0.0087268678
 41
-0.0
 42
3.1357748894
  0
ELLIPSE
  5
725
100
AcDbEntity
  8
RACCORDO
100
AcDbEllipse
 62
7
  6
CONTINUOUS
 10
-1.5032641668
 20
-11.3763288955
 30
0.0
 11
0.0029088041
 21
0.2886641433
 31
0.0
 40
0.8660144118
 41
-1.5591610446
 42
0.0087264124
  0
ELLIPSE
  5
726
100
AcDbEntity
  8
DRAFT
100
AcDbEllipse
 62
7
  6
CONTINUOUS
 10
-7.9752899483
 20
-10.2989239253
 30
0.0
 11
0.4279699877
 21
0.0
 31
0.0
 40
0.0087268678
 41
0.0058177642
 42
3.1415926536
  0
ELLIPSE
  5
727
100
AcDbEntity
  8
DRAFT
100
AcDbEllipse
 62
7
  6
CONTINUOUS
 10
-7.9752899483
 20
34.3689158651
 30
0.0
 11
0.4279699877
 21
0.0
 31
0.0
 40
0.0087268678
 41
-3.1415926536
 42
-0.0058177642
  0
ELLIPSE
  5
728
100
AcDbEntity
  8
DRAFT
100
AcDbEllipse
 62
7
  6
CONTINUOUS
 10
-15.8312299236
 20
34.3689158651
 30
0.0
 11
0.4279699877
 21
-0.0
 31
0.0
 40
0.0087268678
 41
-3.1357748894
 42
-0.0
  0
ELLIPSE
  5
729
100
AcDbEntity
  8
RACCORDO
100
AcDbEllipse
 62
7
  6
CONTINUOUS
 10
-3.4032557051
 20
-11.3763288955
 30
0.0
 11
-0.0029088041
 21
0.2886641433
 31
0.0
 40
0.8660144118
 41
-0.0087264124
 42
1.5591610446
  0
ELLIPSE
  5
72A
100
AcDbEntity
  8
RACCORDO
100
AcDbEllipse
 62
7
  6
CONTINUOUS
 10
-13.5858378232
 20
-5.5650040301
 30
0.0
 11
0.3000114235
 21
0.0
 31
0.0
 40
0.9999619231
 41
1.5707963268
 42
2.80137059
  0
ELLIPSE
  5
72B
100
AcDbEntity
  8
RACCORDO
100
AcDbEllipse
 62
7
  6
CONTINUOUS
 10
-22.6163388141
 20
8.5849959699
 30
0.0
 11
0.3000114235
 21
0.0
 31
0.0
 40
0.9999619231
 41
1.5707963268
 42
3.1415926536
  0
ELLIPSE
  5
72C
100
AcDbEntity
  8
RACCORDO
100
AcDbEllipse
 62
7
  6
CONTINUOUS
 10
-22.6163388141
 20
13.5849959699
 30
0.0
 11
0.3000114235
 21
0.0
 31
0.0
 40
0.9999619231
 41
1.5707963268
 42
3.1415926536
  0
ELLIPSE
  5
72D
100
AcDbEntity
  8
DRAFT
100
AcDbEllipse
 62
7
  6
CONTINUOUS
 10
-21.744712558
 20
11.0349959699
 30
0.0
 11
-0.0
 21
2.15
 31
0.0
 40
0.0087268678
 41
0.0
 42
3.1415926536
  0
ELLIPSE
  5
72E
100
AcDbEntity
  8
DRAFT
100
AcDbEllipse
 62
7
  6
CONTINUOUS
 10
-21.744712558
 20
26.0349959699
 30
0.0
 11
-0.0
 21
2.15
 31
0.0
 40
0.0087268678
 41
-0.0
 42
3.1415926536
  0
ELLIPSE
  5
72F
100
AcDbEntity
  8
DRAFT
100
AcDbEllipse
 62
7
  6
CONTINUOUS
 10
-21.744712558
 20
21.0349959699
 30
0.0
 11
0.0
 21
2.15
 31
0.0
 40
0.0087268678
 41
-0.0
 42
3.1415926536
  0
ELLIPSE
  5
730
100
AcDbEntity
  8
DRAFT
100
AcDbEllipse
 62
7
  6
CONTINUOUS
 10
-21.744712558
 20
16.0349959699
 30
0.0
 11
0.0
 21
2.15
 31
0.0
 40
0.0087268678
 41
0.0
 42
3.1415926536
  0
ELLIPSE
  5
731
100
AcDbEntity
  8
RACCORDO
100
AcDbEllipse
 62
7
  6
CONTINUOUS
 10
-15.6163388141
 20
31.3480748481
 30
0.0
 11
0.2121481893
 21
-0.2121481893
 31
0.0
 40
0.9999238505
 41
2.3562325664
 42
3.9269527408
  0
ELLIPSE
  5
732
100
AcDbEntity
  8
RACCORDO
100
AcDbEllipse
 62
7
  6
CONTINUOUS
 10
-2.5120670904
 20
30.6480481932
 30
0.0
 11
0.3827005044
 21
0.9239207481
 31
0.0
 40
0.9999553905
 41
-0.3926833098
 42
0.3926833098
  0
ELLIPSE
  5
733
100
AcDbEntity
  8
RACCORDO
100
AcDbEllipse
 62
7
  6
CONTINUOUS
 10
-1.8902077127
 20
30.0261888154
 30
0.0
 11
0.9239207481
 21
0.3827005044
 31
0.0
 40
0.9999553905
 41
-0.3926833098
 42
0.3926833098
  0
ELLIPSE
  5
734
100
AcDbEntity
  8
RACCORDO
100
AcDbEllipse
 62
7
  6
CONTINUOUS
 10
-1.8902077127
 20
-5.9561968756
 30
0.0
 11
0.9239207481
 21
-0.3827005044
 31
0.0
 40
0.9999553905
 41
-0.3926833098
 42
0.3926833098
  0
ELLIPSE
  5
735
100
AcDbEntity
  8
RACCORDO
100
AcDbEllipse
 62
7
  6
CONTINUOUS
 10
-2.5120670904
 20
-6.5780562534
 30
0.0
 11
-0.3827005044
 21
0.9239207481
 31
0.0
 40
0.9999553905
 41
2.7489093438
 42
3.5342759634
  0
ELLIPSE
  5
736
100
AcDbEntity
  8
RACCORDO
100
AcDbEllipse
 62
7
  6
CONTINUOUS
 10
-15.6163388141
 20
-7.2780829083
 30
0.0
 11
-0.2121481893
 21
-0.2121481893
 31
0.0
 40
0.9999238505
 41
-0.7853600872
 42
0.7853600872
  0
ELLIPSE
  5
737
100
AcDbEntity
  8
RACCORDO
100
AcDbEllipse
 62
7
  6
CONTINUOUS
 10
-21.2944527815
 20
-5.1780562534
 30
0.0
 11
-0.3827005044
 21
-0.9239207481
 31
0.0
 40
0.9999553905
 41
-0.3926833098
 42
0.3926833098
  0
ELLIPSE
  5
738
100
AcDbEntity
  8
RACCORDO
100
AcDbEllipse
 62
7
  6
CONTINUOUS
 10
-21.9163121593
 20
-4.5561968756
 30
0.0
 11
0.9239207481
 21
0.3827005044
 31
0.0
 40
0.9999553905
 41
2.7489093438
 42
3.5342759634
  0
ELLIPSE
  5
739
100
AcDbEntity
  8
RACCORDO
100
AcDbEllipse
 62
7
  6
CONTINUOUS
 10
-22.6163388141
 20
13.4849959699
 30
0.0
 11
-0.3000114235
 21
-0.0
 31
0.0
 40
0.9999619231
 41
0.0
 42
1.5707963268
  0
ELLIPSE
  5
73A
100
AcDbEntity
  8
RACCORDO
100
AcDbEllipse
 62
7
  6
CONTINUOUS
 10
-22.6163388141
 20
18.4849959699
 30
0.0
 11
-0.3000114235
 21
-0.0
 31
0.0
 40
0.9999619231
 41
0.0
 42
1.5707963268
  0
ELLIPSE
  5
73B
100
AcDbEntity
  8
RACCORDO
100
AcDbEllipse
 62
7
  6
CONTINUOUS
 10
-22.6163388141
 20
18.5849959699
 30
0.0
 11
0.3000114235
 21
0.0
 31
0.0
 40
0.9999619231
 41
1.5707963268
 42
3.1415926536
  0
ELLIPSE
  5
73C
100
AcDbEntity
  8
RACCORDO
100
AcDbEllipse
 62
7
  6
CONTINUOUS
 10
-22.6163388141
 20
23.4849959699
 30
0.0
 11
-0.3000114235
 21
-0.0
 31
0.0
 40
0.9999619231
 41
0.0
 42
1.5707963268
  0
ELLIPSE
  5
73D
100
AcDbEntity
  8
RACCORDO
100
AcDbEllipse
 62
7
  6
CONTINUOUS
 10
-22.6163388141
 20
23.5849959699
 30
0.0
 11
0.3000114235
 21
0.0
 31
0.0
 40
0.9999619231
 41
1.5707963268
 42
3.1415926536
  0
ELLIPSE
  5
73E
100
AcDbEntity
  8
RACCORDO
100
AcDbEllipse
 62
7
  6
CONTINUOUS
 10
-22.6163388141
 20
28.4849959699
 30
0.0
 11
-0.3000114235
 21
-0.0
 31
0.0
 40
0.9999619231
 41
0.0
 42
1.5707963268
  0
ELLIPSE
  5
73F
100
AcDbEntity
  8
RACCORDO
100
AcDbEllipse
 62
7
  6
CONTINUOUS
 10
-21.9163121593
 20
28.6261888154
 30
0.0
 11
-0.9239207481
 21
0.3827005044
 31
0.0
 40
0.9999553905
 41
-0.3926833098
 42
0.3926833098
  0
ELLIPSE
  5
740
100
AcDbEntity
  8
RACCORDO
100
AcDbEllipse
 62
7
  6
CONTINUOUS
 10
-21.2944527815
 20
29.2480481932
 30
0.0
 11
-0.3827005044
 21
0.9239207481
 31
0.0
 40
0.9999553905
 41
-0.3926833098
 42
0.3926833098
  0
ELLIPSE
  5
741
100
AcDbEntity
  8
RACCORDO
100
AcDbEllipse
 62
7
  6
CONTINUOUS
 10
-16.2163616612
 20
30.5480976951
 30
0.0
 11
0.2121481893
 21
-0.2121481893
 31
0.0
 40
0.9999238505
 41
-0.7853600872
 42
0.7853600872
  0
ELLIPSE
  5
742
100
AcDbEntity
  8
RACCORDO
100
AcDbEllipse
 62
7
  6
CONTINUOUS
 10
-10.2206820487
 20
-5.5650040301
 30
0.0
 11
0.3000114235
 21
0.0
 31
0.0
 40
0.9999619231
 41
0.3402220636
 42
1.5707963268
  0
ELLIPSE
  5
743
100
AcDbEntity
  8
RACCORDO
100
AcDbEllipse
 62
7
  6
CONTINUOUS
 10
-10.2992669052
 20
29.6349959699
 30
0.0
 11
-0.3000114235
 21
-0.0
 31
0.0
 40
0.9999619231
 41
1.5707963268
 42
2.80137059
  0
ELLIPSE
  5
744
100
AcDbEntity
  8
RACCORDO
100
AcDbEllipse
 62
7
  6
CONTINUOUS
 10
-13.5072529667
 20
29.6349959699
 30
0.0
 11
-0.3000114235
 21
-0.0
 31
0.0
 40
0.9999619231
 41
0.3402220636
 42
1.5707963268
  0
ELLIPSE
  5
745
100
AcDbEntity
  8
ASSI
100
AcDbEllipse
 62
7
  6
CONTINUOUS
 10
-15.6163388141
 20
31.3480748481
 30
0.0
 11
0.2121481893
 21
-0.2121481893
 31
0.0
 40
0.9999238505
 41
2.3562325664
 42
3.9269527408
  0
ELLIPSE
  5
746
100
AcDbEntity
  8
ASSI
100
AcDbEllipse
 62
7
  6
CONTINUOUS
 10
-2.5120670904
 20
30.6480481932
 30
0.0
 11
0.3827005044
 21
0.9239207481
 31
0.0
 40
0.9999553905
 41
-0.3926833098
 42
0.3926833098
  0
ELLIPSE
  5
747
100
AcDbEntity
  8
ASSI
100
AcDbEllipse
 62
7
  6
CONTINUOUS
 10
-1.8902077127
 20
30.0261888154
 30
0.0
 11
0.9239207481
 21
0.3827005044
 31
0.0
 40
0.9999553905
 41
-0.3926833098
 42
0.3926833098
  0
ELLIPSE
  5
748
100
AcDbEntity
  8
ASSI
100
AcDbEllipse
 62
7
  6
CONTINUOUS
 10
-1.8902077127
 20
-5.9561968756
 30
0.0
 11
0.9239207481
 21
-0.3827005044
 31
0.0
 40
0.9999553905
 41
-0.3926833098
 42
0.3926833098
  0
ELLIPSE
  5
749
100
AcDbEntity
  8
ASSI
100
AcDbEllipse
 62
7
  6
CONTINUOUS
 10
-2.5120670904
 20
-6.5780562534
 30
0.0
 11
-0.3827005044
 21
0.9239207481
 31
0.0
 40
0.9999553905
 41
2.7489093438
 42
3.5342759634
  0
ELLIPSE
  5
74A
100
AcDbEntity
  8
ASSI
100
AcDbEllipse
 62
7
  6
CONTINUOUS
 10
-15.6163388141
 20
-7.2780829083
 30
0.0
 11
-0.2121481893
 21
-0.2121481893
 31
0.0
 40
0.9999238505
 41
-0.7853600872
 42
0.7853600872
  0
ELLIPSE
  5
74B
100
AcDbEntity
  8
ASSI
100
AcDbEllipse
 62
7
  6
CONTINUOUS
 10
-21.2944527815
 20
-5.1780562534
 30
0.0
 11
-0.3827005044
 21
-0.9239207481
 31
0.0
 40
0.9999553905
 41
-0.3926833098
 42
0.3926833098
  0
ELLIPSE
  5
74C
100
AcDbEntity
  8
ASSI
100
AcDbEllipse
 62
7
  6
CONTINUOUS
 10
-21.9163121593
 20
-4.5561968756
 30
0.0
 11
0.9239207481
 21
0.3827005044
 31
0.0
 40
0.9999553905
 41
2.7489093438
 42
3.5342759634
  0
ELLIPSE
  5
74D
100
AcDbEntity
  8
ASSI
100
AcDbEllipse
 62
7
  6
CONTINUOUS
 10
-22.6163388141
 20
13.4849959699
 30
0.0
 11
-0.3000114235
 21
-0.0
 31
0.0
 40
0.9999619231
 41
0.0
 42
1.5707963268
  0
ELLIPSE
  5
74E
100
AcDbEntity
  8
ASSI
100
AcDbEllipse
 62
7
  6
CONTINUOUS
 10
-22.6163388141
 20
18.4849959699
 30
0.0
 11
-0.3000114235
 21
-0.0
 31
0.0
 40
0.9999619231
 41
0.0
 42
1.5707963268
  0
ELLIPSE
  5
74F
100
AcDbEntity
  8
ASSI
100
AcDbEllipse
 62
7
  6
CONTINUOUS
 10
-22.6163388141
 20
18.5849959699
 30
0.0
 11
0.3000114235
 21
0.0
 31
0.0
 40
0.9999619231
 41
1.5707963268
 42
3.1415926536
  0
ELLIPSE
  5
750
100
AcDbEntity
  8
ASSI
100
AcDbEllipse
 62
7
  6
CONTINUOUS
 10
-22.6163388141
 20
23.4849959699
 30
0.0
 11
-0.3000114235
 21
-0.0
 31
0.0
 40
0.9999619231
 41
0.0
 42
1.5707963268
  0
ELLIPSE
  5
751
100
AcDbEntity
  8
ASSI
100
AcDbEllipse
 62
7
  6
CONTINUOUS
 10
-22.6163388141
 20
23.5849959699
 30
0.0
 11
0.3000114235
 21
0.0
 31
0.0
 40
0.9999619231
 41
1.5707963268
 42
3.1415926536
  0
ELLIPSE
  5
752
100
AcDbEntity
  8
ASSI
100
AcDbEllipse
 62
7
  6
CONTINUOUS
 10
-22.6163388141
 20
28.4849959699
 30
0.0
 11
-0.3000114235
 21
-0.0
 31
0.0
 40
0.9999619231
 41
0.0
 42
1.5707963268
  0
ELLIPSE
  5
753
100
AcDbEntity
  8
ASSI
100
AcDbEllipse
 62
7
  6
CONTINUOUS
 10
-21.9163121593
 20
28.6261888154
 30
0.0
 11
-0.9239207481
 21
0.3827005044
 31
0.0
 40
0.9999553905
 41
-0.3926833098
 42
0.3926833098
  0
ELLIPSE
  5
754
100
AcDbEntity
  8
ASSI
100
AcDbEllipse
 62
7
  6
CONTINUOUS
 10
-21.2944527815
 20
29.2480481932
 30
0.0
 11
-0.3827005044
 21
0.9239207481
 31
0.0
 40
0.9999553905
 41
-0.3926833098
 42
0.3926833098
  0
ELLIPSE
  5
755
100
AcDbEntity
  8
ASSI
100
AcDbEllipse
 62
7
  6
CONTINUOUS
 10
-10.2206820487
 20
-5.5650040301
 30
0.0
 11
0.3000114235
 21
0.0
 31
0.0
 40
0.9999619231
 41
0.3402220636
 42
1.5707963268
  0
ELLIPSE
  5
756
100
AcDbEntity
  8
ASSI
100
AcDbEllipse
 62
7
  6
CONTINUOUS
 10
-10.2992669052
 20
29.6349959699
 30
0.0
 11
-0.3000114235
 21
-0.0
 31
0.0
 40
0.9999619231
 41
1.5707963268
 42
2.80137059
  0
ELLIPSE
  5
757
100
AcDbEntity
  8
ASSI
100
AcDbEllipse
 62
7
  6
CONTINUOUS
 10
-13.5072529667
 20
29.6349959699
 30
0.0
 11
-0.3000114235
 21
-0.0
 31
0.0
 40
0.9999619231
 41
0.3402220636
 42
1.5707963268
  0
ELLIPSE
  5
758
100
AcDbEntity
  8
ASSI
100
AcDbEllipse
 62
7
  6
CONTINUOUS
 10
-13.5858378232
 20
-5.5650040301
 30
0.0
 11
0.3000114235
 21
0.0
 31
0.0
 40
0.9999619231
 41
1.5707963268
 42
2.80137059
  0
ELLIPSE
  5
759
100
AcDbEntity
  8
ASSI
100
AcDbEllipse
 62
7
  6
CONTINUOUS
 10
-22.6163388141
 20
8.5849959699
 30
0.0
 11
0.3000114235
 21
0.0
 31
0.0
 40
0.9999619231
 41
1.5707963268
 42
3.1415926536
  0
ELLIPSE
  5
75A
100
AcDbEntity
  8
ASSI
100
AcDbEllipse
 62
7
  6
CONTINUOUS
 10
-22.6163388141
 20
13.5849959699
 30
0.0
 11
0.3000114235
 21
0.0
 31
0.0
 40
0.9999619231
 41
1.5707963268
 42
3.1415926536
  0
ELLIPSE
  5
75B
100
AcDbEntity
  8
ASSI
100
AcDbEllipse
 62
7
  6
CONTINUOUS
 10
-21.744712558
 20
11.0349959699
 30
0.0
 11
-0.0
 21
2.15
 31
0.0
 40
0.0087268678
 41
0.0
 42
3.1415926536
  0
ELLIPSE
  5
75C
100
AcDbEntity
  8
ASSI
100
AcDbEllipse
 62
7
  6
CONTINUOUS
 10
-21.744712558
 20
26.0349959699
 30
0.0
 11
-0.0
 21
2.15
 31
0.0
 40
0.0087268678
 41
-0.0
 42
3.1415926536
  0
ELLIPSE
  5
75D
100
AcDbEntity
  8
ASSI
100
AcDbEllipse
 62
7
  6
CONTINUOUS
 10
-21.744712558
 20
21.0349959699
 30
0.0
 11
0.0
 21
2.15
 31
0.0
 40
0.0087268678
 41
-0.0
 42
3.1415926536
  0
ELLIPSE
  5
75E
100
AcDbEntity
  8
ASSI
100
AcDbEllipse
 62
7
  6
CONTINUOUS
 10
-21.744712558
 20
16.0349959699
 30
0.0
 11
0.0
 21
2.15
 31
0.0
 40
0.0087268678
 41
0.0
 42
3.1415926536
  0
ELLIPSE
  5
75F
100
AcDbEntity
  8
ASSI
100
AcDbEllipse
 62
7
  6
CONTINUOUS
 10
-16.2163616612
 20
30.5480976951
 30
0.0
 11
0.2121481893
 21
-0.2121481893
 31
0.0
 40
0.9999238505
 41
-0.7853600872
 42
0.7853600872
  0
ENDSEC
  0
SECTION
  2
OBJECTS
  0
DICTIONARY
  5
C
100
AcDbDictionary
280
0
281
1
  3
ACAD_GROUP
350
D
  3
ACAD_MLINESTYLE
350
17
  3
ACAD_LAYOUT
350
1A
  3
ACAD_PLOTSETTINGS
350
19
  3
ACAD_PLOTSTYLENAME
350
E
  0
DICTIONARY
  5
D
102
{ACAD_REACTORS
330
C
102
}
100
AcDbDictionary
280
0
281
1
  0
ACDBDICTIONARYWDFLT
  5
E
102
{ACAD_REACTORS
330
C
102
}
100
AcDbDictionary
281
1
  3
Normal
350
F
100
AcDbDictionaryWithDefault
340
F
  0
DICTIONARY
  5
17
102
{ACAD_REACTORS
330
C
102
}
100
AcDbDictionary
280
0
281
1
  3
Standard
350
18
  0
DICTIONARY
  5
19
102
{ACAD_REACTORS
330
C
102
}
100
AcDbDictionary
281
1
  0
DICTIONARY
  5
1A
102
{ACAD_REACTORS
330
C
102
}
100
AcDbDictionary
281
1
  3
Model
350
760
  3
Layout1
350
761
  0
ACDBPLACEHOLDER
  5
F
102
{ACAD_REACTORS
330
E
102
}
  0
MLINESTYLE
  5
18
102
{ACAD_REACTORS
330
17
102
}
100
AcDbMlineStyle
  2
STANDARD
 70
0
  3

 62
256
 51
90.0
 52
90.0
 71
2
 49
0.5
 62
256
  6
BYLAYER
 49
-0.5
 62
256
  6
BYLAYER
  0
LAYOUT
  5
760
102
{ACAD_REACTORS
330
1A
102
}
100
AcDbPlotSettings
  1

  2
none_device
  4
ISO_A4_(297.00_x_210.00_MM)
  6

 40
0.0
 41
0.0
 42
0.0
 43
0.0
 44
297.0
 45
210.0
 46
0.0
 47
0.0
 48
0.0
 49
0.0
140
0.0
141
0.0
142
1.0
143
1.0
 70
1024
 72
1
 73
0
 74
0
  7

 75
0
147
1.0
148
0.0
149
0.0
100
AcDbLayout
  1
Model
 70
0
 71
0
 10
0.0
 20
0.0
 11
297.0
 21
210.0
 12
0.0
 22
0.0
 32
0.0
 14
0.0
 24
0.0
 34
0.0
 15
0.0
 25
0.0
 35
0.0
146
0.0
 13
0.0
 23
0.0
 33
0.0
 16
1.0
 26
0.0
 36
0.0
 17
0.0
 27
1.0
 37
0.0
 76
0
330
21F
345
0
346
0
  0
LAYOUT
  5
761
102
{ACAD_REACTORS
330
1A
102
}
100
AcDbPlotSettings
  1

  2
none_device
  4
ISO_A4_(297.00_x_210.00_MM)
  6

 40
0.0
 41
0.0
 42
0.0
 43
0.0
 44
297.0
 45
210.0
 46
0.0
 47
0.0
 48
0.0
 49
0.0
140
0.0
141
0.0
142
1.0
143
1.0
 70
0
 72
1
 73
0
 74
0
  7

 75
0
147
1.0
148
0.0
149
0.0
100
AcDbLayout
  1
Layout1
 70
0
 71
1
 10
0.0
 20
0.0
 11
297.0
 21
210.0
 12
0.0
 22
0.0
 32
0.0
 14
0.0
 24
0.0
 34
0.0
 15
0.0
 25
0.0
 35
0.0
146
0.0
 13
0.0
 23
0.0
 33
0.0
 16
1.0
 26
0.0
 36
0.0
 17
0.0
 27
1.0
 37
0.0
 76
0
330
220
345
0
346
0
  0
ENDSEC
  0
EOF
