  0
SECTION
  2
HEADER
  9
$ACADVER
  1
AC1015
  9
$DWGCODEPAGE
  3
ANSI_1252
  9
$EXTMAX
 10
297.0
 20
210.0
 30
0.0
  9
$EXTMIN
 10
0.0
 20
0.0
 30
0.0
  9
$LIMMIN
 10
0.0
 20
0.0
  9
$LIMMAX
 10
297.0
 20
210.0
  9
$VIEWCTR
 10
148.5
 20
105.0
  9
$VIEWSIZE
 40
210.0
  9
$CLAYER
  8
0
  9
$LTSCALE
 40
16.335
  9
$CELTYPE
  6
BYLAYER
  9
$DIMSCALE
 40
1.0
  9
$DIMASZ
 40
3.0
  9
$DIMEXO
 40
0.5
  9
$DIMDLI
 40
11.286
  9
$DIMEXE
 40
1.5
  9
$DIMCEN
 40
2.673
  9
$DIMLFAC
 40
1.0
  9
$DIMBLK
  1
_FILLED
  9
$DIMTXT
 40
3.0
  9
$DIMTOL
 70
1
  9
$DIMLIM
 70
0
  9
$DIMTFAC
 40
1.0
  9
$DIMTP
 40
0.01
  9
$DIMTM
 40
0.01
  9
$DIMGAP
 40
0.625
  9
$DIMDSEP
 70
44
  9
$PDMODE
 70
3
  9
$PDSIZE
 40
3.0
  9
$HANDSEED
  5
898
  9
$TILEMODE
 70
1
  9
$MEASUREMENT
 70
1
  9
$INSUNITS
 70
4
  0
ENDSEC
  0
SECTION
  2
CLASSES
  0
CLASS
  1
ACDBDICTIONARYWDFLT
  2
AcDbDictionaryWithDefault
  3
AutoCAD 2000
 90
0
280
0
281
0
  0
CLASS
  1
ACDBPLACEHOLDER
  2
AcDbPlaceHolder
  3
AutoCAD 2000
 90
0
280
0
281
0
  0
CLASS
  1
LAYOUT
  2
AcDbLayout
  3
AutoCAD 2000
 90
0
280
0
281
0
  0
ENDSEC
  0
SECTION
  2
TABLES
  0
TABLE
  2
VPORT
  5
8
100
AcDbSymbolTable
 70
2
  0
VPORT
  5
1F4
100
AcDbSymbolTableRecord
100
AcDbViewportTableRecord
  2
*ACTIVE
 70
0
 10
0.0
 20
0.0
 11
1.0
 21
1.0
 12
148.5
 22
105.0
 13
0.0
 23
0.0
 14
1.0
 24
1.0
 15
0.0
 25
0.0
 16
0.0
 26
0.0
 36
1.0
 17
0.0
 27
0.0
 37
0.0
 40
210.0
 41
1.4142857143
 42
50.0
 43
0.0
 44
0.0
 50
0.0
 51
0.0
 71
0
 72
100
 73
1
 74
1
 75
0
 76
0
 77
0
 78
0
  0
ENDTAB
  0
TABLE
  2
LTYPE
  5
5
100
AcDbSymbolTable
 70
6
  0
LTYPE
  5
14
100
AcDbSymbolTableRecord
100
AcDbLinetypeTableRecord
  2
BYBLOCK
 70
0
  3

 72
65
 73
0
 40
0.0
  0
LTYPE
  5
15
100
AcDbSymbolTableRecord
100
AcDbLinetypeTableRecord
  2
BYLAYER
 70
0
  3

 72
65
 73
0
 40
0.0
  0
LTYPE
  5
16
100
AcDbSymbolTableRecord
100
AcDbLinetypeTableRecord
  2
CONTINUOUS
 70
64
  3
Solid line
 72
65
 73
0
 40
0.0
  0
LTYPE
  5
1F5
100
AcDbSymbolTableRecord
100
AcDbLinetypeTableRecord
  2
CENTER
 70
64
  3
____ _ ____ _ ____ _ ____ _ ____ _ ____ _ ____
 72
65
 73
4
 40
0.6
 49
0.375
 74
0
 49
-0.075
 74
0
 49
0.075
 74
0
 49
-0.075
 74
0
  0
LTYPE
  5
1F6
100
AcDbSymbolTableRecord
100
AcDbLinetypeTableRecord
  2
HIDDEN
 70
64
  3
- - - - - - - - - - - - - - - - - - - -
 72
65
 73
2
 40
0.2
 49
0.1
 74
0
 49
-0.1
 74
0
  0
LTYPE
  5
1F7
100
AcDbSymbolTableRecord
100
AcDbLinetypeTableRecord
  2
PHANTOM
 70
64
  3
_____ _ _ _____ _ _ _____ _ _ _____
 72
65
 73
6
 40
0.8
 49
0.45
 74
0
 49
-0.05
 74
0
 49
0.1
 74
0
 49
-0.05
 74
0
 49
0.1
 74
0
 49
-0.05
 74
0
  0
LTYPE
  5
1F8
100
AcDbSymbolTableRecord
100
AcDbLinetypeTableRecord
  2
DOT
 70
64
  3
. . . . . . . . . . . . . . . . . . . .
 72
65
 73
2
 40
0.2
 49
0.1
 74
0
 49
-0.1
 74
0
  0
LTYPE
  5
1F9
100
AcDbSymbolTableRecord
100
AcDbLinetypeTableRecord
  2
DASHED
 70
64
  3
- - - - - - - - - - - - - - - - - - - -
 72
65
 73
2
 40
0.2
 49
0.1
 74
0
 49
-0.1
 74
0
  0
ENDTAB
  0
TABLE
  2
LAYER
  5
2
100
AcDbSymbolTable
 70
36
  0
LAYER
  5
10
100
AcDbSymbolTableRecord
100
AcDbLayerTableRecord
  2
0
 70
0
 62
7
  6
CONTINUOUS
370
-3
390
F
  0
LAYER
  5
1FA
100
AcDbSymbolTableRecord
100
AcDbLayerTableRecord
  2
DEFAULT_1
 70
0
 62
7
  6
CENTER
370
-3
390
F
  0
LAYER
  5
1FB
100
AcDbSymbolTableRecord
100
AcDbLayerTableRecord
  2
DEFAULT_2
 70
0
 62
7
  6
HIDDEN
370
-3
390
F
  0
LAYER
  5
1FC
100
AcDbSymbolTableRecord
100
AcDbLayerTableRecord
  2
DEFAULT_3
 70
0
 62
7
  6
PHANTOM
370
-3
390
F
  0
LAYER
  5
1FD
100
AcDbSymbolTableRecord
100
AcDbLayerTableRecord
  2
ASSI
 70
0
 62
7
  6
CONTINUOUS
370
-3
390
F
  0
LAYER
  5
1FE
100
AcDbSymbolTableRecord
100
AcDbLayerTableRecord
  2
COLOR4
 70
0
 62
7
  6
CONTINUOUS
370
-3
390
F
  0
LAYER
  5
1FF
100
AcDbSymbolTableRecord
100
AcDbLayerTableRecord
  2
COLORE_MATERIALE
 70
0
 62
7
  6
CONTINUOUS
370
-3
390
F
  0
LAYER
  5
200
100
AcDbSymbolTableRecord
100
AcDbLayerTableRecord
  2
COORDINATE
 70
0
 62
7
  6
CONTINUOUS
370
-3
390
F
  0
LAYER
  5
201
100
AcDbSymbolTableRecord
100
AcDbLayerTableRecord
  2
COORD_ORIGINE
 70
0
 62
7
  6
CONTINUOUS
370
-3
390
F
  0
LAYER
  5
202
100
AcDbSymbolTableRecord
100
AcDbLayerTableRecord
  2
COPY
 70
0
 62
7
  6
CONTINUOUS
370
-3
390
F
  0
LAYER
  5
203
100
AcDbSymbolTableRecord
100
AcDbLayerTableRecord
  2
COPY_PUBLISH
 70
0
 62
7
  6
CONTINUOUS
370
-3
390
F
  0
LAYER
  5
204
100
AcDbSymbolTableRecord
100
AcDbLayerTableRecord
  2
COSMETICI
 70
0
 62
7
  6
CONTINUOUS
370
-3
390
F
  0
LAYER
  5
205
100
AcDbSymbolTableRecord
100
AcDbLayerTableRecord
  2
CURVE
 70
0
 62
7
  6
CONTINUOUS
370
-3
390
F
  0
LAYER
  5
206
100
AcDbSymbolTableRecord
100
AcDbLayerTableRecord
  2
DRAFT
 70
0
 62
7
  6
CONTINUOUS
370
-3
390
F
  0
LAYER
  5
207
100
AcDbSymbolTableRecord
100
AcDbLayerTableRecord
  2
IGES
 70
0
 62
7
  6
CONTINUOUS
370
-3
390
F
  0
LAYER
  5
208
100
AcDbSymbolTableRecord
100
AcDbLayerTableRecord
  2
IMPORT_IGES
 70
0
 62
7
  6
CONTINUOUS
370
-3
390
F
  0
LAYER
  5
209
100
AcDbSymbolTableRecord
100
AcDbLayerTableRecord
  2
INTFCLR_137
 70
0
 62
7
  6
CONTINUOUS
370
-3
390
F
  0
LAYER
  5
20A
100
AcDbSymbolTableRecord
100
AcDbLayerTableRecord
  2
INTFCLR_2
 70
0
 62
7
  6
CONTINUOUS
370
-3
390
F
  0
LAYER
  5
20B
100
AcDbSymbolTableRecord
100
AcDbLayerTableRecord
  2
INTFCLR_4627
 70
0
 62
7
  6
CONTINUOUS
370
-3
390
F
  0
LAYER
  5
20C
100
AcDbSymbolTableRecord
100
AcDbLayerTableRecord
  2
INTFCLR_6275
 70
0
 62
7
  6
CONTINUOUS
370
-3
390
F
  0
LAYER
  5
20D
100
AcDbSymbolTableRecord
100
AcDbLayerTableRecord
  2
INTF_1
 70
0
 62
7
  6
CONTINUOUS
370
-3
390
F
  0
LAYER
  5
20E
100
AcDbSymbolTableRecord
100
AcDbLayerTableRecord
  2
INTF_12
 70
0
 62
7
  6
CONTINUOUS
370
-3
390
F
  0
LAYER
  5
20F
100
AcDbSymbolTableRecord
100
AcDbLayerTableRecord
  2
INTF_6
 70
0
 62
7
  6
CONTINUOUS
370
-3
390
F
  0
LAYER
  5
210
100
AcDbSymbolTableRecord
100
AcDbLayerTableRecord
  2
NOTE
 70
0
 62
7
  6
CONTINUOUS
370
-3
390
F
  0
LAYER
  5
211
100
AcDbSymbolTableRecord
100
AcDbLayerTableRecord
  2
PIANI
 70
0
 62
7
  6
CONTINUOUS
370
-3
390
F
  0
LAYER
  5
212
100
AcDbSymbolTableRecord
100
AcDbLayerTableRecord
  2
PIANI_ORIGINE
 70
0
 62
7
  6
CONTINUOUS
370
-3
390
F
  0
LAYER
  5
213
100
AcDbSymbolTableRecord
100
AcDbLayerTableRecord
  2
PIANI_RIFERIMENTO
 70
0
 62
7
  6
CONTINUOUS
370
-3
390
F
  0
LAYER
  5
214
100
AcDbSymbolTableRecord
100
AcDbLayerTableRecord
  2
PIANI_SFORMO
 70
0
 62
7
  6
CONTINUOUS
370
-3
390
F
  0
LAYER
  5
215
100
AcDbSymbolTableRecord
100
AcDbLayerTableRecord
  2
PUNTI
 70
0
 62
7
  6
CONTINUOUS
370
-3
390
F
  0
LAYER
  5
216
100
AcDbSymbolTableRecord
100
AcDbLayerTableRecord
  2
RACCORDO
 70
0
 62
7
  6
CONTINUOUS
370
-3
390
F
  0
LAYER
  5
217
100
AcDbSymbolTableRecord
100
AcDbLayerTableRecord
  2
SIMBOLI
 70
0
 62
7
  6
CONTINUOUS
370
-3
390
F
  0
LAYER
  5
218
100
AcDbSymbolTableRecord
100
AcDbLayerTableRecord
  2
SMUSSO
 70
0
 62
7
  6
CONTINUOUS
370
-3
390
F
  0
LAYER
  5
219
100
AcDbSymbolTableRecord
100
AcDbLayerTableRecord
  2
SNAPLINE
 70
0
 62
7
  6
CONTINUOUS
370
-3
390
F
  0
LAYER
  5
21A
100
AcDbSymbolTableRecord
100
AcDbLayerTableRecord
  2
SUPERFICI
 70
0
 62
7
  6
CONTINUOUS
370
-3
390
F
  0
LAYER
  5
21B
100
AcDbSymbolTableRecord
100
AcDbLayerTableRecord
  2
TRASH
 70
0
 62
7
  6
CONTINUOUS
370
-3
390
F
  0
LAYER
  5
21C
100
AcDbSymbolTableRecord
100
AcDbLayerTableRecord
  2
XSEC_DATUMS
 70
0
 62
7
  6
CONTINUOUS
370
-3
390
F
  0
ENDTAB
  0
TABLE
  2
STYLE
  5
3
100
AcDbSymbolTable
 70
1
  0
STYLE
  5
11
100
AcDbSymbolTableRecord
100
AcDbTextStyleTableRecord
  2
STANDARD
 70
0
 40
0.0
 41
0.8
 50
0.0
 71
0
 42
0.2
  3
txt
  4

  0
STYLE
  5
21D
100
AcDbSymbolTableRecord
100
AcDbTextStyleTableRecord
  2
TEXTSTYLE_1
 70
0
 40
0.0
 41
0.8
 50
0.0
 71
0
 42
0.2
  3
gdt
  4

  0
ENDTAB
  0
TABLE
  2
VIEW
  5
6
100
AcDbSymbolTable
 70
0
  0
ENDTAB
  0
TABLE
  2
UCS
  5
7
100
AcDbSymbolTable
 70
0
  0
ENDTAB
  0
TABLE
  2
APPID
  5
9
100
AcDbSymbolTable
 70
1
  0
APPID
  5
21E
100
AcDbSymbolTableRecord
100
AcDbRegAppTableRecord
  2
ACAD
 70
0
  0
ENDTAB
  0
TABLE
  2
BLOCK_RECORD
  5
1
100
AcDbSymbolTable
 70
0
  0
BLOCK_RECORD
  5
21F
100
AcDbSymbolTableRecord
100
AcDbBlockTableRecord
  2
*Model_Space
  0
BLOCK_RECORD
  5
220
100
AcDbSymbolTableRecord
100
AcDbBlockTableRecord
  2
*Paper_Space
  0
ENDTAB
  0
TABLE
  2
DIMSTYLE
  5
A
100
AcDbSymbolTable
 70
1
100
AcDbDimStyleTable
 71
0
  0
DIMSTYLE
105
221
100
AcDbSymbolTableRecord
100
AcDbDimStyleTableRecord
  2
STANDARD
 70
0
  3

  4

 40
1.0
 41
3.0
 42
0.5
 43
0.38
 44
1.5
 45
0.0
 46
0.0
 47
0.01
 48
0.01
140
3.0
141
0.09
142
0.0
143
25.4
144
1.0
145
0.0
146
1.0
147
0.625
 71
1.0
 72
0.0
 73
0
 74
0
 75
0
 76
0
 77
1
 78
8
170
0
171
2
172
0
173
0
174
0
175
0
176
0
177
0
178
0
270
2
271
2
272
2
273
2
274
2
275
0
280
0
281
0
282
0
283
1
284
8
285
0
286
0
287
3
288
0
340
11
278
44
  0
ENDTAB
  0
ENDSEC
  0
SECTION
  2
BLOCKS
  0
BLOCK
  5
20
100
AcDbEntity
  8
0
100
AcDbBlockBegin
  2
*Model_Space
 70
0
 10
0.0
 20
0.0
 30
0.0
  3
*Model_Space
  1

  0
ENDBLK
  5
21
100
AcDbEntity
  8
0
100
AcDbBlockEnd
  0
BLOCK
  5
1C
100
AcDbEntity
  8
0
100
AcDbBlockBegin
  2
*Paper_Space
 70
0
 10
0.0
 20
0.0
 30
0.0
  3
*Paper_Space
  1

  0
ENDBLK
  5
1D
100
AcDbEntity
  8
0
100
AcDbBlockEnd
  0
ENDSEC
  0
SECTION
  2
ENTITIES
  0
LINE
  5
222
100
AcDbEntity
  8
RACCORDO
100
AcDbLine
 62
253
  6
CONTINUOUS
 10
-21.1393676032
 20
50.480628166
 11
-21.1349957692
 21
50.485
  0
LINE
  5
223
100
AcDbEntity
  8
RACCORDO
100
AcDbLine
 62
253
  6
CONTINUOUS
 10
-23.3248598609
 20
48.3762731322
 11
-23.3074047959
 21
48.385
  0
LWPOLYLINE
  5
224
100
AcDbEntity
  8
RACCORDO
100
AcDbPolyline
 62
7
  6
CONTINUOUS
 90
11
 70
0
 10
-23.5131376822
 20
48.3364467217
 10
-23.4987546227
 20
48.3433288271
 10
-23.4786362165
 20
48.3519574975
 10
-23.4581289654
 20
48.359619709
 10
-23.4372786984
 20
48.3662979667
 10
-23.4161237332
 20
48.3719789767
 10
-23.3947205444
 20
48.3766466126
 10
-23.3731440172
 20
48.3802861536
 10
-23.3514524121
 20
48.3828919436
 10
-23.3296863527
 20
48.3844632509
 10
-23.3078950868
 20
48.385
  0
LINE
  5
225
100
AcDbEntity
  8
RACCORDO
100
AcDbLine
 62
7
  6
CONTINUOUS
 10
-23.0350042308
 20
1.485
 11
-21.1349957692
 21
1.485
  0
LINE
  5
226
100
AcDbEntity
  8
RACCORDO
100
AcDbLine
 62
7
  6
CONTINUOUS
 10
-4.1350042308
 20
1.485
 11
-2.2349957692
 21
1.485
  0
LINE
  5
227
100
AcDbEntity
  8
RACCORDO
100
AcDbLine
 62
253
  6
CONTINUOUS
 10
-23.0306323968
 20
1.489371834
 11
-21.1393676032
 21
1.489371834
  0
LINE
  5
228
100
AcDbEntity
  8
RACCORDO
100
AcDbLine
 62
253
  6
CONTINUOUS
 10
-4.1306323968
 20
1.489371834
 11
-2.2393676032
 21
1.489371834
  0
LINE
  5
229
100
AcDbEntity
  8
RACCORDO
100
AcDbLine
 62
253
  6
CONTINUOUS
 10
-1.989371834
 20
1.7393676032
 11
-4.380628166
 21
1.7393676032
  0
LINE
  5
22A
100
AcDbEntity
  8
RACCORDO
100
AcDbLine
 62
253
  6
CONTINUOUS
 10
-20.889371834
 20
1.7393676032
 11
-23.280628166
 21
1.7393676032
  0
LINE
  5
22B
100
AcDbEntity
  8
RACCORDO
100
AcDbLine
 62
253
  6
CONTINUOUS
 10
-1.989371834
 20
2.1406624327
 11
-4.380628166
 21
2.1406624327
  0
LINE
  5
22C
100
AcDbEntity
  8
RACCORDO
100
AcDbLine
 62
253
  6
CONTINUOUS
 10
-20.889371834
 20
2.1406624327
 11
-23.280628166
 21
2.1406624327
  0
LINE
  5
22D
100
AcDbEntity
  8
DRAFT
100
AcDbLine
 62
7
  6
CONTINUOUS
 10
-17.035
 20
2.185
 11
-8.235
 21
2.185
  0
LINE
  5
22E
100
AcDbEntity
  8
DRAFT
100
AcDbLine
 62
7
  6
CONTINUOUS
 10
-9.135
 20
2.1908178298
 11
-16.135
 21
2.1908178298
  0
LINE
  5
22F
100
AcDbEntity
  8
ASSI
100
AcDbLine
 62
253
  6
CONTINUOUS
 10
-8.2786506469
 20
2.2286506469
 11
-9.135
 21
2.2286506469
  0
LINE
  5
230
100
AcDbEntity
  8
ASSI
100
AcDbLine
 62
253
  6
CONTINUOUS
 10
-16.135
 20
2.2286506469
 11
-16.9913493531
 21
2.2286506469
  0
LINE
  5
231
100
AcDbEntity
  8
RACCORDO
100
AcDbLine
 62
253
  6
CONTINUOUS
 10
-2.2393676032
 20
2.3571687836
 11
-4.1306323968
 21
2.3571687836
  0
LINE
  5
232
100
AcDbEntity
  8
RACCORDO
100
AcDbLine
 62
253
  6
CONTINUOUS
 10
-21.1393676032
 20
2.3571687836
 11
-23.0306323968
 21
2.3571687836
  0
LINE
  5
233
100
AcDbEntity
  8
RACCORDO
100
AcDbLine
 62
7
  6
CONTINUOUS
 10
-23.0357229979
 20
2.8623502692
 11
-21.1342770021
 21
2.8623502692
  0
LINE
  5
234
100
AcDbEntity
  8
RACCORDO
100
AcDbLine
 62
7
  6
CONTINUOUS
 10
-4.1357229979
 20
2.8623502692
 11
-2.2342770021
 21
2.8623502692
  0
LWPOLYLINE
  5
235
100
AcDbEntity
  8
RACCORDO
100
AcDbPolyline
 62
7
  6
CONTINUOUS
 90
34
 70
0
 10
-23.0350042308
 20
1.485
 10
-23.046899516
 20
1.4852831502
 10
-23.0587678556
 20
1.4861319658
 10
-23.0705823661
 20
1.4875445259
 10
-23.0823162875
 20
1.4895176323
 10
-23.0939430388
 20
1.4920468183
 10
-23.105436279
 20
1.4951263583
 10
-23.1167699738
 20
1.4987492787
 10
-23.1279184493
 20
1.5029073742
 10
-23.1388564463
 20
1.5075912278
 10
-23.1495591876
 20
1.5127902312
 10
-23.1600024283
 20
1.5184926084
 10
-23.1701625059
 20
1.5246854419
 10
-23.1800164051
 20
1.5313547045
 10
-23.1895418038
 20
1.5384852893
 10
-23.1987171191
 20
1.5460610411
 10
-23.2075215661
 20
1.5540647995
 10
-23.2159352005
 20
1.5624784339
 10
-23.2239389589
 20
1.5712828809
 10
-23.2315147107
 20
1.5804581962
 10
-23.2386452955
 20
1.5899835949
 10
-23.2453145581
 20
1.5998374941
 10
-23.2515073916
 20
1.6099975717
 10
-23.2572097688
 20
1.6204408124
 10
-23.2624087722
 20
1.6311435537
 10
-23.2670926258
 20
1.6420815507
 10
-23.2712507213
 20
1.6532300262
 10
-23.2748736417
 20
1.664563721
 10
-23.2779531817
 20
1.6760569612
 10
-23.2804823677
 20
1.6876837125
 10
-23.2824554741
 20
1.6994176339
 10
-23.2838680342
 20
1.7112321444
 10
-23.2847168498
 20
1.723100484
 10
-23.285
 20
1.7349957692
  0
LWPOLYLINE
  5
236
100
AcDbEntity
  8
RACCORDO
100
AcDbPolyline
 62
7
  6
CONTINUOUS
 90
34
 70
0
 10
-4.1350042308
 20
1.485
 10
-4.146899516
 20
1.4852831502
 10
-4.1587678556
 20
1.4861319658
 10
-4.1705823661
 20
1.4875445259
 10
-4.1823162875
 20
1.4895176323
 10
-4.1939430388
 20
1.4920468183
 10
-4.205436279
 20
1.4951263583
 10
-4.2167699738
 20
1.4987492787
 10
-4.2279184493
 20
1.5029073742
 10
-4.2388564463
 20
1.5075912278
 10
-4.2495591876
 20
1.5127902312
 10
-4.2600024283
 20
1.5184926084
 10
-4.2701625059
 20
1.5246854419
 10
-4.2800164051
 20
1.5313547045
 10
-4.2895418038
 20
1.5384852893
 10
-4.2987171191
 20
1.5460610411
 10
-4.3075215661
 20
1.5540647995
 10
-4.3159352005
 20
1.5624784339
 10
-4.3239389589
 20
1.5712828809
 10
-4.3315147107
 20
1.5804581962
 10
-4.3386452955
 20
1.5899835949
 10
-4.3453145581
 20
1.5998374941
 10
-4.3515073916
 20
1.6099975717
 10
-4.3572097688
 20
1.6204408124
 10
-4.3624087722
 20
1.6311435537
 10
-4.3670926258
 20
1.6420815507
 10
-4.3712507213
 20
1.6532300262
 10
-4.3748736417
 20
1.664563721
 10
-4.3779531817
 20
1.6760569612
 10
-4.3804823677
 20
1.6876837125
 10
-4.3824554741
 20
1.6994176339
 10
-4.3838680342
 20
1.7112321444
 10
-4.3847168498
 20
1.723100484
 10
-4.385
 20
1.7349957692
  0
LWPOLYLINE
  5
237
100
AcDbEntity
  8
RACCORDO
100
AcDbPolyline
 62
253
  6
CONTINUOUS
 90
31
 70
0
 10
-23.0306323968
 20
1.489371834
 10
-23.0436847368
 20
1.4897132412
 10
-23.0567096311
 20
1.4907365038
 10
-23.0696714057
 20
1.492440108
 10
-23.0825371245
 20
1.4948212382
 10
-23.0952685897
 20
1.4978743516
 10
-23.1078227742
 20
1.5015897913
 10
-23.1201625782
 20
1.5059563424
 10
-23.1322569343
 20
1.5109627723
 10
-23.1440730125
 20
1.5165955209
 10
-23.155578613
 20
1.5228393226
 10
-23.1667419314
 20
1.5296770044
 10
-23.1775320106
 20
1.5370896344
 10
-23.1879191364
 20
1.5450567767
 10
-23.1978749736
 20
1.5535566736
 10
-23.207372308
 20
1.5625660954
 10
-23.2163851271
 20
1.5720603886
 10
-23.2248886687
 20
1.582013492
 10
-23.2328595768
 20
1.5923980813
 10
-23.2402759837
 20
1.6031856716
 10
-23.2471175595
 20
1.6143466975
 10
-23.2533655387
 20
1.6258505533
 10
-23.2590027869
 20
1.637665699
 10
-23.2640138424
 20
1.6497597362
 10
-23.2683849575
 20
1.6620994923
 10
-23.272104147
 20
1.6746511398
 10
-23.2751612081
 20
1.6873802537
 10
-23.2775477509
 20
1.7002518933
 10
-23.279257234
 20
1.7132307508
 10
-23.280284977
 20
1.7262812491
 10
-23.280628166
 20
1.7393676032
  0
LWPOLYLINE
  5
238
100
AcDbEntity
  8
RACCORDO
100
AcDbPolyline
 62
253
  6
CONTINUOUS
 90
31
 70
0
 10
-4.1306323968
 20
1.489371834
 10
-4.1437158828
 20
1.4897148726
 10
-4.1567635094
 20
1.4907421625
 10
-4.1697395155
 20
1.492450888
 10
-4.1826083364
 20
1.494836366
 10
-4.1953347009
 20
1.4978920582
 10
-4.2078837286
 20
1.5016095896
 10
-4.2202210249
 20
1.5059787711
 10
-4.2323127755
 20
1.5109876276
 10
-4.2441258393
 20
1.5166224307
 10
-4.2556278389
 20
1.5228677366
 10
-4.2667872494
 20
1.529706428
 10
-4.277573485
 20
1.5371197614
 10
-4.2879569826
 20
1.5450874182
 10
-4.2979092831
 20
1.5535875605
 10
-4.307403109
 20
1.562596891
 10
-4.3164124395
 20
1.5720907169
 10
-4.3249125818
 20
1.5820430174
 10
-4.3328802386
 20
1.592426515
 10
-4.340293572
 20
1.6032127506
 10
-4.3471322634
 20
1.6143721611
 10
-4.3533775693
 20
1.6258741607
 10
-4.3590123724
 20
1.6376872245
 10
-4.3640212289
 20
1.6497789751
 10
-4.3683904104
 20
1.6621162714
 10
-4.3721079418
 20
1.6746652991
 10
-4.375163634
 20
1.6873916636
 10
-4.377549112
 20
1.7002604845
 10
-4.3792578375
 20
1.7132364906
 10
-4.3802851274
 20
1.7262841172
 10
-4.380628166
 20
1.7393676032
  0
LWPOLYLINE
  5
239
100
AcDbEntity
  8
RACCORDO
100
AcDbPolyline
 62
7
  6
CONTINUOUS
 90
11
 70
0
 10
-23.5131358696
 20
3.6335523859
 10
-23.4986662667
 20
3.6266307733
 10
-23.4785417088
 20
3.6180046002
 10
-23.4580308823
 20
3.6103462972
 10
-23.4371808394
 20
3.6036732505
 10
-23.4160476923
 20
3.5980025154
 10
-23.3946707202
 20
3.593343739
 10
-23.3730719098
 20
3.589703447
 10
-23.3512907806
 20
3.5870925951
 10
-23.3293851815
 20
3.5855223863
 10
-23.3074047959
 20
3.585
  0
LINE
  5
23A
100
AcDbEntity
  8
RACCORDO
100
AcDbLine
 62
253
  6
CONTINUOUS
 10
-23.3074047959
 20
3.585
 11
-23.3248598609
 21
3.5937268678
  0
LINE
  5
23B
100
AcDbEntity
  8
RACCORDO
100
AcDbLine
 62
253
  6
CONTINUOUS
 10
-21.1393676032
 20
1.489371834
 11
-21.1349957692
 21
1.485
  0
LINE
  5
23C
100
AcDbEntity
  8
RACCORDO
100
AcDbLine
 62
253
  6
CONTINUOUS
 10
-20.889371834
 20
50.2306323968
 11
-20.885
 21
50.2350042308
  0
LINE
  5
23D
100
AcDbEntity
  8
RACCORDO
100
AcDbLine
 62
7
  6
CONTINUOUS
 10
-20.7190245667
 20
46.9767082642
 11
-20.8815127091
 21
46.8954703804
  0
LINE
  5
23E
100
AcDbEntity
  8
RACCORDO
100
AcDbLine
 62
7
  6
CONTINUOUS
 10
-1.9625952041
 20
3.585
 11
-1.985
 21
3.585
  0
LINE
  5
23F
100
AcDbEntity
  8
DRAFT
100
AcDbLine
 62
7
  6
CONTINUOUS
 10
-1.985
 20
3.585
 11
-8.235
 21
3.585
  0
LINE
  5
240
100
AcDbEntity
  8
DRAFT
100
AcDbLine
 62
7
  6
CONTINUOUS
 10
-17.035
 20
3.585
 11
-23.285
 21
3.585
  0
LINE
  5
241
100
AcDbEntity
  8
RACCORDO
100
AcDbLine
 62
7
  6
CONTINUOUS
 10
-23.285
 20
3.585
 11
-23.3074047959
 21
3.585
  0
LINE
  5
242
100
AcDbEntity
  8
RACCORDO
100
AcDbLine
 62
7
  6
CONTINUOUS
 10
-23.3248598609
 20
3.5937268678
 11
-19.8937268678
 21
3.5937268678
  0
LINE
  5
243
100
AcDbEntity
  8
RACCORDO
100
AcDbLine
 62
7
  6
CONTINUOUS
 10
-5.3762731322
 20
3.5937268678
 11
-1.9451401391
 21
3.5937268678
  0
LINE
  5
244
100
AcDbEntity
  8
DRAFT
100
AcDbLine
 62
7
  6
CONTINUOUS
 10
-16.135
 20
3.6469607613
 11
-15.635
 21
3.6469607613
  0
LINE
  5
245
100
AcDbEntity
  8
DRAFT
100
AcDbLine
 62
7
  6
CONTINUOUS
 10
-9.635
 20
3.6469607613
 11
-9.135
 21
3.6469607613
  0
LINE
  5
246
100
AcDbEntity
  8
RACCORDO
100
AcDbLine
 62
253
  6
CONTINUOUS
 10
-19.9723448332
 20
3.6723448332
 11
-15.635
 21
3.6723448332
  0
LINE
  5
247
100
AcDbEntity
  8
RACCORDO
100
AcDbLine
 62
253
  6
CONTINUOUS
 10
-9.635
 20
3.6723448332
 11
-5.2976551668
 21
3.6723448332
  0
LINE
  5
248
100
AcDbEntity
  8
0
100
AcDbLine
 62
7
  6
CONTINUOUS
 10
-9.635
 20
4.285
 11
-15.635
 21
4.285
  0
LINE
  5
249
100
AcDbEntity
  8
RACCORDO
100
AcDbLine
 62
253
  6
CONTINUOUS
 10
-20.2191007192
 20
4.6723067563
 11
-15.635
 21
4.6723067563
  0
LINE
  5
24A
100
AcDbEntity
  8
RACCORDO
100
AcDbLine
 62
253
  6
CONTINUOUS
 10
-9.635
 20
4.6723067563
 11
-5.0508992808
 21
4.6723067563
  0
LINE
  5
24B
100
AcDbEntity
  8
RACCORDO
100
AcDbLine
 62
7
  6
CONTINUOUS
 10
-20.7190245667
 20
4.9932917358
 11
-20.8815127091
 21
5.0745296196
  0
LINE
  5
24C
100
AcDbEntity
  8
RACCORDO
100
AcDbLine
 62
253
  6
CONTINUOUS
 10
-20.889371834
 20
1.7393676032
 11
-20.885
 21
1.7349957692
  0
LINE
  5
24D
100
AcDbEntity
  8
0
100
AcDbLine
 62
7
  6
CONTINUOUS
 10
-21.435
 20
46.835
 11
-23.1993027805
 21
45.0706972195
  0
LINE
  5
24E
100
AcDbEntity
  8
RACCORDO
100
AcDbLine
 62
7
  6
CONTINUOUS
 10
-21.435
 20
46.835
 11
-23.1993027805
 21
45.0706972195
  0
LINE
  5
24F
100
AcDbEntity
  8
RACCORDO
100
AcDbLine
 62
7
  6
CONTINUOUS
 10
-20.885
 20
47.385
 11
-19.8937268678
 21
48.3762731322
  0
LINE
  5
250
100
AcDbEntity
  8
0
100
AcDbLine
 62
7
  6
CONTINUOUS
 10
-21.2622036731
 20
46.835
 11
-23.077117326
 21
45.0200863471
  0
LINE
  5
251
100
AcDbEntity
  8
RACCORDO
100
AcDbLine
 62
7
  6
CONTINUOUS
 10
-21.2622036731
 20
46.835
 11
-23.077117326
 21
45.0200863471
  0
LINE
  5
252
100
AcDbEntity
  8
RACCORDO
100
AcDbLine
 62
7
  6
CONTINUOUS
 10
-23.3552082353
 20
44.6833042468
 11
-22.7333042468
 21
45.3052082353
  0
LINE
  5
253
100
AcDbEntity
  8
ASSI
100
AcDbLine
 62
7
  6
CONTINUOUS
 10
-23.3552082353
 20
44.6833042468
 11
-22.7333042468
 21
45.3052082353
  0
LINE
  5
254
100
AcDbEntity
  8
RACCORDO
100
AcDbLine
 62
7
  6
CONTINUOUS
 10
-22.6253116728
 20
45.3983907652
 11
-22.4360843877
 21
45.5876179435
  0
LINE
  5
255
100
AcDbEntity
  8
ASSI
100
AcDbLine
 62
7
  6
CONTINUOUS
 10
-22.6253116728
 20
45.3983907652
 11
-22.4360843877
 21
45.5876179435
  0
LWPOLYLINE
  5
256
100
AcDbEntity
  8
0
100
AcDbPolyline
 62
7
  6
CONTINUOUS
 90
12
 70
0
 10
-14.2593964614
 20
6.1003711835
 10
-14.3772682896
 20
6.0999907095
 10
-14.4901397193
 20
6.0993718982
 10
-14.5994955018
 20
6.0984999336
 10
-14.7038508859
 20
6.0973896317
 10
-14.7987516183
 20
6.0960854409
 10
-14.8838197026
 20
6.0945754189
 10
-14.9594331351
 20
6.0928715079
 10
-15.0222716511
 20
6.091053983
 10
-15.0712284958
 20
6.0891496026
 10
-15.1074104239
 20
6.0871316082
 10
-15.1308174355
 20
6.085
  0
LINE
  5
257
100
AcDbEntity
  8
0
100
AcDbLine
 62
7
  6
CONTINUOUS
 10
-9.635
 20
4.985
 11
-15.635
 21
4.985
  0
LINE
  5
258
100
AcDbEntity
  8
RACCORDO
100
AcDbLine
 62
7
  6
CONTINUOUS
 10
-20.2191007192
 20
4.9890044543
 11
-19.8768217019
 21
4.9890044543
  0
LINE
  5
259
100
AcDbEntity
  8
RACCORDO
100
AcDbLine
 62
7
  6
CONTINUOUS
 10
-5.3931782981
 20
4.9890044543
 11
-5.0508992808
 21
4.9890044543
  0
LINE
  5
25A
100
AcDbEntity
  8
DRAFT
100
AcDbLine
 62
7
  6
CONTINUOUS
 10
-20.8815127091
 20
5.0745296196
 11
-19.9338376746
 21
5.0745296196
  0
LINE
  5
25B
100
AcDbEntity
  8
DRAFT
100
AcDbLine
 62
7
  6
CONTINUOUS
 10
-5.3361623254
 20
5.0745296196
 11
-4.3884872909
 21
5.0745296196
  0
LINE
  5
25C
100
AcDbEntity
  8
DRAFT
100
AcDbLine
 62
7
  6
CONTINUOUS
 10
-2.985
 20
5.085
 11
-4.385
 21
5.085
  0
LINE
  5
25D
100
AcDbEntity
  8
DRAFT
100
AcDbLine
 62
7
  6
CONTINUOUS
 10
-20.885
 20
5.085
 11
-22.285
 21
5.085
  0
LINE
  5
25E
100
AcDbEntity
  8
0
100
AcDbLine
 62
7
  6
CONTINUOUS
 10
-3.835
 20
5.135
 11
-5.235
 21
5.135
  0
LINE
  5
25F
100
AcDbEntity
  8
DRAFT
100
AcDbLine
 62
7
  6
CONTINUOUS
 10
-3.835
 20
5.135
 11
-5.235
 21
5.135
  0
LINE
  5
260
100
AcDbEntity
  8
0
100
AcDbLine
 62
7
  6
CONTINUOUS
 10
-20.035
 20
5.135
 11
-21.435
 21
5.135
  0
LINE
  5
261
100
AcDbEntity
  8
DRAFT
100
AcDbLine
 62
7
  6
CONTINUOUS
 10
-20.035
 20
5.135
 11
-21.435
 21
5.135
  0
LINE
  5
262
100
AcDbEntity
  8
DRAFT
100
AcDbLine
 62
7
  6
CONTINUOUS
 10
-3.0111825974
 20
5.1636116689
 11
-3.8063883311
 21
5.1636116689
  0
LINE
  5
263
100
AcDbEntity
  8
DRAFT
100
AcDbLine
 62
7
  6
CONTINUOUS
 10
-5.235
 20
5.1636116689
 11
-5.3262732553
 21
5.1636116689
  0
LINE
  5
264
100
AcDbEntity
  8
DRAFT
100
AcDbLine
 62
7
  6
CONTINUOUS
 10
-19.9437267447
 20
5.1636116689
 11
-20.035
 21
5.1636116689
  0
LINE
  5
265
100
AcDbEntity
  8
DRAFT
100
AcDbLine
 62
7
  6
CONTINUOUS
 10
-21.4636116689
 20
5.1636116689
 11
-22.2588174026
 21
5.1636116689
  0
LINE
  5
266
100
AcDbEntity
  8
RACCORDO
100
AcDbLine
 62
253
  6
CONTINUOUS
 10
-6.2768217019
 20
5.4020757168
 11
-18.9931782981
 21
5.4020757168
  0
LINE
  5
267
100
AcDbEntity
  8
RACCORDO
100
AcDbLine
 62
253
  6
CONTINUOUS
 10
-6.279705232
 20
5.9020566783
 11
-18.990294768
 21
5.9020566783
  0
LINE
  5
268
100
AcDbEntity
  8
DRAFT
100
AcDbLine
 62
7
  6
CONTINUOUS
 10
-15.135
 20
5.9317661065
 11
-15.0763111231
 21
5.9317661065
  0
LINE
  5
269
100
AcDbEntity
  8
DRAFT
100
AcDbLine
 62
7
  6
CONTINUOUS
 10
-10.1936888769
 20
5.9317661065
 11
-10.135
 21
5.9317661065
  0
LINE
  5
26A
100
AcDbEntity
  8
DRAFT
100
AcDbLine
 62
7
  6
CONTINUOUS
 10
-9.135
 20
5.985
 11
-10.1356478189
 21
5.985
  0
LINE
  5
26B
100
AcDbEntity
  8
DRAFT
100
AcDbLine
 62
7
  6
CONTINUOUS
 10
-15.1343521811
 20
5.985
 11
-16.135
 21
5.985
  0
LINE
  5
26C
100
AcDbEntity
  8
DRAFT
100
AcDbLine
 62
7
  6
CONTINUOUS
 10
-18.9262732553
 20
5.9980903017
 11
-15.1343285154
 21
5.9980903017
  0
LINE
  5
26D
100
AcDbEntity
  8
DRAFT
100
AcDbLine
 62
7
  6
CONTINUOUS
 10
-10.1356714846
 20
5.9980903017
 11
-6.3437267447
 21
5.9980903017
  0
LINE
  5
26E
100
AcDbEntity
  8
RACCORDO
100
AcDbLine
 62
253
  6
CONTINUOUS
 10
-5.3931782981
 20
6.0279818832
 11
-6.2768217019
 21
6.0279818832
  0
LINE
  5
26F
100
AcDbEntity
  8
RACCORDO
100
AcDbLine
 62
253
  6
CONTINUOUS
 10
-18.9931782981
 20
6.0279818832
 11
-19.8768217019
 21
6.0279818832
  0
LINE
  5
270
100
AcDbEntity
  8
0
100
AcDbLine
 62
7
  6
CONTINUOUS
 10
-16.135
 20
6.085
 11
-15.1294782802
 21
6.085
  0
LINE
  5
271
100
AcDbEntity
  8
0
100
AcDbLine
 62
7
  6
CONTINUOUS
 10
-10.1405217198
 20
6.085
 11
-9.135
 21
6.085
  0
LINE
  5
272
100
AcDbEntity
  8
0
100
AcDbLine
 62
7
  6
CONTINUOUS
 10
-14.2593964614
 20
6.1003711835
 11
-11.1334757651
 21
6.1005133204
  0
LINE
  5
273
100
AcDbEntity
  8
0
100
AcDbLine
 62
7
  6
CONTINUOUS
 10
-16.0983443637
 20
6.1216556363
 11
-9.1716556363
 21
6.1216556363
  0
LINE
  5
274
100
AcDbEntity
  8
DRAFT
100
AcDbLine
 62
7
  6
CONTINUOUS
 10
-16.0983443637
 20
6.1216556363
 11
-9.1716556363
 21
6.1216556363
  0
LINE
  5
275
100
AcDbEntity
  8
RACCORDO
100
AcDbLine
 62
253
  6
CONTINUOUS
 10
-5.3920215015
 20
6.2279784985
 11
-6.2779784985
 21
6.2279784985
  0
LINE
  5
276
100
AcDbEntity
  8
RACCORDO
100
AcDbLine
 62
253
  6
CONTINUOUS
 10
-18.9920215015
 20
6.2279784985
 11
-19.8779784985
 21
6.2279784985
  0
LINE
  5
277
100
AcDbEntity
  8
0
100
AcDbLine
 62
7
  6
CONTINUOUS
 10
-20.035
 20
6.285
 11
-16.135
 21
6.285
  0
LINE
  5
278
100
AcDbEntity
  8
DRAFT
100
AcDbLine
 62
7
  6
CONTINUOUS
 10
-20.035
 20
6.285
 11
-16.135
 21
6.285
  0
LINE
  5
279
100
AcDbEntity
  8
0
100
AcDbLine
 62
7
  6
CONTINUOUS
 10
-9.135
 20
6.285
 11
-5.235
 21
6.285
  0
LINE
  5
27A
100
AcDbEntity
  8
DRAFT
100
AcDbLine
 62
7
  6
CONTINUOUS
 10
-9.135
 20
6.285
 11
-5.235
 21
6.285
  0
LINE
  5
27B
100
AcDbEntity
  8
0
100
AcDbLine
 62
7
  6
CONTINUOUS
 10
-20.0716556363
 20
6.3216556363
 11
-16.0983443637
 21
6.3216556363
  0
LINE
  5
27C
100
AcDbEntity
  8
DRAFT
100
AcDbLine
 62
7
  6
CONTINUOUS
 10
-20.0716556363
 20
6.3216556363
 11
-16.0983443637
 21
6.3216556363
  0
LINE
  5
27D
100
AcDbEntity
  8
0
100
AcDbLine
 62
7
  6
CONTINUOUS
 10
-9.1716556363
 20
6.3216556363
 11
-5.1983443637
 21
6.3216556363
  0
LINE
  5
27E
100
AcDbEntity
  8
DRAFT
100
AcDbLine
 62
7
  6
CONTINUOUS
 10
-9.1716556363
 20
6.3216556363
 11
-5.1983443637
 21
6.3216556363
  0
LINE
  5
27F
100
AcDbEntity
  8
RACCORDO
100
AcDbLine
 62
7
  6
CONTINUOUS
 10
-22.0262243901
 20
6.3719096983
 11
-8.9218982752
 21
6.3719096983
  0
LINE
  5
280
100
AcDbEntity
  8
ASSI
100
AcDbLine
 62
7
  6
CONTINUOUS
 10
-22.0262243901
 20
6.3719096983
 11
-8.9218982752
 21
6.3719096983
  0
LWPOLYLINE
  5
281
100
AcDbEntity
  8
0
100
AcDbPolyline
 62
7
  6
CONTINUOUS
 90
13
 70
0
 10
-11.1334757651
 20
6.1005133204
 10
-11.0106035386
 20
6.1003711835
 10
-10.8927317104
 20
6.0999907095
 10
-10.7798602807
 20
6.0993718982
 10
-10.6705044982
 20
6.0984999336
 10
-10.5661491141
 20
6.0973896317
 10
-10.4712483817
 20
6.0960854409
 10
-10.3861802974
 20
6.0945754189
 10
-10.3105668649
 20
6.0928715079
 10
-10.2477283489
 20
6.091053983
 10
-10.1987715042
 20
6.0891496026
 10
-10.1625895761
 20
6.0871316082
 10
-10.1391825645
 20
6.085
  0
LINE
  5
282
100
AcDbEntity
  8
0
100
AcDbLine
 62
7
  6
CONTINUOUS
 10
-23.1993027805
 20
6.8993027805
 11
-21.435
 21
5.135
  0
LINE
  5
283
100
AcDbEntity
  8
RACCORDO
100
AcDbLine
 62
7
  6
CONTINUOUS
 10
-23.1993027805
 20
6.8993027805
 11
-21.435
 21
5.135
  0
LINE
  5
284
100
AcDbEntity
  8
RACCORDO
100
AcDbLine
 62
7
  6
CONTINUOUS
 10
-19.8937268678
 20
3.5937268678
 11
-20.885
 21
4.585
  0
LINE
  5
285
100
AcDbEntity
  8
0
100
AcDbLine
 62
7
  6
CONTINUOUS
 10
-23.077117326
 20
6.9499136529
 11
-21.2622036731
 21
5.135
  0
LINE
  5
286
100
AcDbEntity
  8
RACCORDO
100
AcDbLine
 62
7
  6
CONTINUOUS
 10
-23.077117326
 20
6.9499136529
 11
-21.2622036731
 21
5.135
  0
LINE
  5
287
100
AcDbEntity
  8
RACCORDO
100
AcDbLine
 62
7
  6
CONTINUOUS
 10
-22.7333042468
 20
6.6647917647
 11
-23.3552082353
 21
7.2866957532
  0
LINE
  5
288
100
AcDbEntity
  8
ASSI
100
AcDbLine
 62
7
  6
CONTINUOUS
 10
-22.7333042468
 20
6.6647917647
 11
-23.3552082353
 21
7.2866957532
  0
LINE
  5
289
100
AcDbEntity
  8
ASSI
100
AcDbLine
 62
7
  6
CONTINUOUS
 10
-16.2288557177
 20
49.6084472841
 11
-16.2554024235
 21
49.5780775533
  0
LINE
  5
28A
100
AcDbEntity
  8
ASSI
100
AcDbLine
 62
7
  6
CONTINUOUS
 10
-16.2554024235
 20
49.5780775533
 11
-16.2858085508
 21
49.5438298205
  0
LINE
  5
28B
100
AcDbEntity
  8
ASSI
100
AcDbLine
 62
7
  6
CONTINUOUS
 10
-16.2858085508
 20
49.5438298205
 11
-16.3200783499
 21
49.5057160551
  0
LINE
  5
28C
100
AcDbEntity
  8
ASSI
100
AcDbLine
 62
7
  6
CONTINUOUS
 10
-16.3200783499
 20
49.5057160551
 11
-16.3785718225
 21
49.4414018309
  0
LINE
  5
28D
100
AcDbEntity
  8
ASSI
100
AcDbLine
 62
7
  6
CONTINUOUS
 10
-16.3785718225
 20
49.4414018309
 11
-16.5629699877
 21
49.2413578147
  0
LINE
  5
28E
100
AcDbEntity
  8
0
100
AcDbLine
 62
7
  6
CONTINUOUS
 10
-20.035
 20
45.685
 11
-20.0716556363
 21
45.6483443637
  0
LINE
  5
28F
100
AcDbEntity
  8
DRAFT
100
AcDbLine
 62
7
  6
CONTINUOUS
 10
-20.035
 20
45.685
 11
-20.0716556363
 21
45.6483443637
  0
LINE
  5
290
100
AcDbEntity
  8
RACCORDO
100
AcDbLine
 62
7
  6
CONTINUOUS
 10
-19.8779784985
 20
45.7420215015
 11
-19.935
 21
45.685
  0
LINE
  5
291
100
AcDbEntity
  8
0
100
AcDbLine
 62
7
  6
CONTINUOUS
 10
-14.7814466094
 20
7.7524599833
 11
-15.1355617456
 21
7.7493696674
  0
LINE
  5
292
100
AcDbEntity
  8
RACCORDO
100
AcDbLine
 62
7
  6
CONTINUOUS
 10
-14.7814466094
 20
7.7524599833
 11
-15.1355617456
 21
7.7493696674
  0
LINE
  5
293
100
AcDbEntity
  8
0
100
AcDbLine
 62
7
  6
CONTINUOUS
 10
-10.135
 20
7.685
 11
-15.135
 21
7.685
  0
LINE
  5
294
100
AcDbEntity
  8
ASSI
100
AcDbLine
 62
7
  6
CONTINUOUS
 10
-10.135
 20
7.685
 11
-15.135
 21
7.685
  0
LINE
  5
295
100
AcDbEntity
  8
0
100
AcDbLine
 62
7
  6
CONTINUOUS
 10
-8.4917176452
 20
7.7188305324
 11
-5.1983443637
 21
7.7188305324
  0
LINE
  5
296
100
AcDbEntity
  8
DRAFT
100
AcDbLine
 62
7
  6
CONTINUOUS
 10
-8.4917176452
 20
7.7188305324
 11
-5.1983443637
 21
7.7188305324
  0
LINE
  5
297
100
AcDbEntity
  8
0
100
AcDbLine
 62
7
  6
CONTINUOUS
 10
-4.035
 20
7.7188305324
 11
-3.3688114939
 21
7.7188305324
  0
LINE
  5
298
100
AcDbEntity
  8
RACCORDO
100
AcDbLine
 62
7
  6
CONTINUOUS
 10
-4.035
 20
7.7188305324
 11
-3.3688114939
 21
7.7188305324
  0
LINE
  5
299
100
AcDbEntity
  8
0
100
AcDbLine
 62
7
  6
CONTINUOUS
 10
-4.035
 20
7.7275574002
 11
-5.1808892987
 21
7.7275574002
  0
LINE
  5
29A
100
AcDbEntity
  8
DRAFT
100
AcDbLine
 62
7
  6
CONTINUOUS
 10
-4.035
 20
7.7275574002
 11
-5.1808892987
 21
7.7275574002
  0
LINE
  5
29B
100
AcDbEntity
  8
RACCORDO
100
AcDbLine
 62
7
  6
CONTINUOUS
 10
-3.2437756099
 20
7.7719096983
 11
-8.3219211214
 21
7.7719096983
  0
LINE
  5
29C
100
AcDbEntity
  8
ASSI
100
AcDbLine
 62
7
  6
CONTINUOUS
 10
-3.2437756099
 20
7.7719096983
 11
-8.3219211214
 21
7.7719096983
  0
LINE
  5
29D
100
AcDbEntity
  8
ASSI
100
AcDbLine
 62
7
  6
CONTINUOUS
 10
-15.135
 20
7.785
 11
-10.135
 21
7.785
  0
LINE
  5
29E
100
AcDbEntity
  8
0
100
AcDbLine
 62
7
  6
CONTINUOUS
 10
-10.4885533906
 20
7.7524599833
 11
-10.1344382544
 21
7.7493696674
  0
LINE
  5
29F
100
AcDbEntity
  8
RACCORDO
100
AcDbLine
 62
7
  6
CONTINUOUS
 10
-10.4885533906
 20
7.7524599833
 11
-10.1344382544
 21
7.7493696674
  0
LINE
  5
2A0
100
AcDbEntity
  8
0
100
AcDbLine
 62
7
  6
CONTINUOUS
 10
-20.035
 20
6.285
 11
-20.0716556363
 21
6.3216556363
  0
LINE
  5
2A1
100
AcDbEntity
  8
DRAFT
100
AcDbLine
 62
7
  6
CONTINUOUS
 10
-20.035
 20
6.285
 11
-20.0716556363
 21
6.3216556363
  0
LINE
  5
2A2
100
AcDbEntity
  8
RACCORDO
100
AcDbLine
 62
7
  6
CONTINUOUS
 10
-19.8779784985
 20
6.2279784985
 11
-19.935
 21
6.285
  0
LINE
  5
2A3
100
AcDbEntity
  8
ASSI
100
AcDbLine
 62
7
  6
CONTINUOUS
 10
-16.5629699877
 20
2.7286421853
 11
-16.4676562519
 21
2.6255546383
  0
LINE
  5
2A4
100
AcDbEntity
  8
ASSI
100
AcDbLine
 62
7
  6
CONTINUOUS
 10
-16.4676562519
 20
2.6255546383
 11
-16.378670406
 21
2.5287065677
  0
LINE
  5
2A5
100
AcDbEntity
  8
ASSI
100
AcDbLine
 62
7
  6
CONTINUOUS
 10
-16.378670406
 20
2.5287065677
 11
-16.3202228577
 21
2.464443631
  0
LINE
  5
2A6
100
AcDbEntity
  8
ASSI
100
AcDbLine
 62
7
  6
CONTINUOUS
 10
-16.3202228577
 20
2.464443631
 11
-16.2859962094
 21
2.4263797213
  0
LINE
  5
2A7
100
AcDbEntity
  8
ASSI
100
AcDbLine
 62
7
  6
CONTINUOUS
 10
-16.2859962094
 20
2.4263797213
 11
-16.2556235004
 21
2.3921732454
  0
LWPOLYLINE
  5
2A8
100
AcDbEntity
  8
ASSI
100
AcDbPolyline
 62
7
  6
CONTINUOUS
 90
18
 70
0
 10
-16.2556235004
 20
2.3921732454
 10
-16.2290894927
 20
2.3618223396
 10
-16.2171916901
 20
2.3480023604
 10
-16.2061841112
 20
2.3350631214
 10
-16.1960539485
 20
2.3230028708
 10
-16.1867508381
 20
2.311742372
 10
-16.1782706493
 20
2.3012800752
 10
-16.1706000818
 20
2.29161753
 10
-16.1636918512
 20
2.2826801494
 10
-16.1575307956
 20
2.2744484024
 10
-16.1521299958
 20
2.2669418199
 10
-16.1474904908
 20
2.2601444071
 10
-16.1436022674
 20
2.2540642694
 10
-16.1404545678
 20
2.2486933014
 10
-16.1380384326
 20
2.2439911926
 10
-16.1363372585
 20
2.2399445059
 10
-16.1353309496
 20
2.2365666782
 10
-16.135
 20
2.2338577097
  0
LINE
  5
2A9
100
AcDbEntity
  8
DRAFT
100
AcDbLine
 62
7
  6
CONTINUOUS
 10
-19.8768217019
 20
46.9809955457
 11
-19.9338376746
 21
46.8954703804
  0
LINE
  5
2AA
100
AcDbEntity
  8
0
100
AcDbLine
 62
253
  6
CONTINUOUS
 10
-14.3871424653
 20
8.699244074
 11
-14.335
 21
8.7033281573
  0
LINE
  5
2AB
100
AcDbEntity
  8
RACCORDO
100
AcDbLine
 62
253
  6
CONTINUOUS
 10
-14.3871424653
 20
8.699244074
 11
-14.335
 21
8.7033281573
  0
LINE
  5
2AC
100
AcDbEntity
  8
ASSI
100
AcDbLine
 62
7
  6
CONTINUOUS
 10
-15.135
 20
8.485
 11
-10.135
 21
8.485
  0
LINE
  5
2AD
100
AcDbEntity
  8
RACCORDO
100
AcDbLine
 62
7
  6
CONTINUOUS
 10
-14.2389930308
 20
8.685
 11
-11.0310069692
 21
8.685
  0
LINE
  5
2AE
100
AcDbEntity
  8
ASSI
100
AcDbLine
 62
7
  6
CONTINUOUS
 10
-14.2389930308
 20
8.685
 11
-11.0310069692
 21
8.685
  0
LINE
  5
2AF
100
AcDbEntity
  8
0
100
AcDbLine
 62
253
  6
CONTINUOUS
 10
-10.935
 20
8.7033281573
 11
-14.335
 21
8.7033281573
  0
LINE
  5
2B0
100
AcDbEntity
  8
RACCORDO
100
AcDbLine
 62
253
  6
CONTINUOUS
 10
-10.935
 20
8.7033281573
 11
-14.335
 21
8.7033281573
  0
LINE
  5
2B1
100
AcDbEntity
  8
0
100
AcDbLine
 62
7
  6
CONTINUOUS
 10
-10.935
 20
8.735
 11
-14.335
 21
8.735
  0
LINE
  5
2B2
100
AcDbEntity
  8
RACCORDO
100
AcDbLine
 62
7
  6
CONTINUOUS
 10
-10.935
 20
8.735
 11
-14.335
 21
8.735
  0
LINE
  5
2B3
100
AcDbEntity
  8
CURVE
100
AcDbLine
 62
253
  6
CONTINUOUS
 10
-1.5782457138
 20
9.256428442
 11
-1.5924569592
 21
9.256428442
  0
LINE
  5
2B4
100
AcDbEntity
  8
0
100
AcDbLine
 62
7
  6
CONTINUOUS
 10
-15.135
 20
9.385
 11
-10.135
 21
9.385
  0
LINE
  5
2B5
100
AcDbEntity
  8
ASSI
100
AcDbLine
 62
7
  6
CONTINUOUS
 10
-15.135
 20
9.385
 11
-10.135
 21
9.385
  0
LINE
  5
2B6
100
AcDbEntity
  8
SMUSSO
100
AcDbLine
 62
7
  6
CONTINUOUS
 10
-12.385
 20
9.735
 11
-17.385
 21
9.735
  0
LINE
  5
2B7
100
AcDbEntity
  8
ASSI
100
AcDbLine
 62
7
  6
CONTINUOUS
 10
-12.385
 20
9.735
 11
-17.385
 21
9.735
  0
LINE
  5
2B8
100
AcDbEntity
  8
RACCORDO
100
AcDbLine
 62
7
  6
CONTINUOUS
 10
-1.9219211218
 20
9.835
 11
-2.835
 21
9.835
  0
LINE
  5
2B9
100
AcDbEntity
  8
ASSI
100
AcDbLine
 62
7
  6
CONTINUOUS
 10
-1.9219211218
 20
9.835
 11
-2.835
 21
9.835
  0
LINE
  5
2BA
100
AcDbEntity
  8
0
100
AcDbLine
 62
253
  6
CONTINUOUS
 10
-10.8828575347
 20
8.699244074
 11
-10.935
 21
8.7033281573
  0
LINE
  5
2BB
100
AcDbEntity
  8
RACCORDO
100
AcDbLine
 62
253
  6
CONTINUOUS
 10
-10.8828575347
 20
8.699244074
 11
-10.935
 21
8.7033281573
  0
LINE
  5
2BC
100
AcDbEntity
  8
CURVE
100
AcDbLine
 62
253
  6
CONTINUOUS
 10
-22.935
 20
13.4135714507
 11
-22.6564285493
 21
13.2278571761
  0
LINE
  5
2BD
100
AcDbEntity
  8
CURVE
100
AcDbLine
 62
253
  6
CONTINUOUS
 10
-22.5635714507
 20
12.485
 11
-22.935
 21
12.856428588
  0
LINE
  5
2BE
100
AcDbEntity
  8
DRAFT
100
AcDbLine
 62
7
  6
CONTINUOUS
 10
-19.8768217019
 20
4.9890044543
 11
-19.9338376746
 21
5.0745296196
  0
LINE
  5
2BF
100
AcDbEntity
  8
DRAFT
100
AcDbLine
 62
7
  6
CONTINUOUS
 10
-20.8815127091
 20
46.8954703804
 11
-20.885
 21
46.885
  0
LINE
  5
2C0
100
AcDbEntity
  8
CURVE
100
AcDbLine
 62
253
  6
CONTINUOUS
 10
-1.5924569592
 20
10.206428442
 11
-1.5782457138
 21
10.206428442
  0
LINE
  5
2C1
100
AcDbEntity
  8
SMUSSO
100
AcDbLine
 62
7
  6
CONTINUOUS
 10
-12.885
 20
10.235
 11
-16.885
 21
10.235
  0
LINE
  5
2C2
100
AcDbEntity
  8
ASSI
100
AcDbLine
 62
7
  6
CONTINUOUS
 10
-12.885
 20
10.235
 11
-16.885
 21
10.235
  0
LINE
  5
2C3
100
AcDbEntity
  8
0
100
AcDbLine
 62
7
  6
CONTINUOUS
 10
-16.235
 20
10.485
 11
-13.235
 21
10.485
  0
LINE
  5
2C4
100
AcDbEntity
  8
CURVE
100
AcDbLine
 62
253
  6
CONTINUOUS
 10
-1.5782457138
 20
10.749285326
 11
-1.5735086324
 21
10.749285326
  0
LINE
  5
2C5
100
AcDbEntity
  8
0
100
AcDbLine
 62
7
  6
CONTINUOUS
 10
-2.7764334782
 20
11.1071854545
 11
-2.835
 21
11.1071854545
  0
LINE
  5
2C6
100
AcDbEntity
  8
RACCORDO
100
AcDbLine
 62
7
  6
CONTINUOUS
 10
-2.7764334782
 20
11.1071854545
 11
-2.835
 21
11.1071854545
  0
LINE
  5
2C7
100
AcDbEntity
  8
0
100
AcDbLine
 62
253
  6
CONTINUOUS
 10
-2.7763866801
 20
11.1194953898
 11
-2.835
 21
11.1194953898
  0
LINE
  5
2C8
100
AcDbEntity
  8
RACCORDO
100
AcDbLine
 62
253
  6
CONTINUOUS
 10
-2.7763866801
 20
11.1194953898
 11
-2.835
 21
11.1194953898
  0
LINE
  5
2C9
100
AcDbEntity
  8
0
100
AcDbLine
 62
253
  6
CONTINUOUS
 10
-2.7754592275
 20
11.4194496984
 11
-2.835
 21
11.4194496984
  0
LINE
  5
2CA
100
AcDbEntity
  8
RACCORDO
100
AcDbLine
 62
253
  6
CONTINUOUS
 10
-2.7754592275
 20
11.4194496984
 11
-2.835
 21
11.4194496984
  0
LINE
  5
2CB
100
AcDbEntity
  8
CURVE
100
AcDbLine
 62
253
  6
CONTINUOUS
 10
-20.535
 20
11.685
 11
-18.635
 21
11.685
  0
LINE
  5
2CC
100
AcDbEntity
  8
CURVE
100
AcDbLine
 62
253
  6
CONTINUOUS
 10
-22.5635714507
 20
14.2492856479
 11
-22.7492857254
 21
14.3421429014
  0
LINE
  5
2CD
100
AcDbEntity
  8
CURVE
100
AcDbLine
 62
253
  6
CONTINUOUS
 10
-21.635
 20
13.2278571761
 11
-22.5635714507
 21
13.8778570986
  0
LINE
  5
2CE
100
AcDbEntity
  8
CURVE
100
AcDbLine
 62
253
  6
CONTINUOUS
 10
-22.7492857254
 20
14.3421429014
 11
-22.935
 21
14.5278570986
  0
LINE
  5
2CF
100
AcDbEntity
  8
CURVE
100
AcDbLine
 62
253
  6
CONTINUOUS
 10
-21.820714294
 20
14.8064285493
 11
-21.635
 21
14.6207143521
  0
LINE
  5
2D0
100
AcDbEntity
  8
DRAFT
100
AcDbLine
 62
7
  6
CONTINUOUS
 10
-20.8815127091
 20
5.0745296196
 11
-20.885
 21
5.085
  0
LINE
  5
2D1
100
AcDbEntity
  8
ASSI
100
AcDbLine
 62
7
  6
CONTINUOUS
 10
-8.3865716601
 20
49.5927596184
 11
-8.4150449485
 21
49.5604633499
  0
LINE
  5
2D2
100
AcDbEntity
  8
ASSI
100
AcDbLine
 62
7
  6
CONTINUOUS
 10
-8.4150449485
 20
49.5604633499
 11
-8.4473531877
 21
49.5243388585
  0
LINE
  5
2D3
100
AcDbEntity
  8
ASSI
100
AcDbLine
 62
7
  6
CONTINUOUS
 10
-8.4473531877
 20
49.5243388585
 11
-8.4834686789
 21
49.4843647445
  0
LINE
  5
2D4
100
AcDbEntity
  8
ASSI
100
AcDbLine
 62
7
  6
CONTINUOUS
 10
-8.4834686789
 20
49.4843647445
 11
-8.5445097501
 21
49.4174846923
  0
LWPOLYLINE
  5
2D5
100
AcDbEntity
  8
ASSI
100
AcDbPolyline
 62
7
  6
CONTINUOUS
 90
3
 70
0
 10
-8.5445097501
 20
49.4174846923
 10
-8.6353128478
 20
49.3189153667
 10
-8.7070300123
 20
49.2413578147
  0
LINE
  5
2D6
100
AcDbEntity
  8
ASSI
100
AcDbLine
 62
7
  6
CONTINUOUS
 10
-8.235
 20
49.785
 11
-8.2786506469
 21
49.7413493531
  0
LWPOLYLINE
  5
2D7
100
AcDbEntity
  8
0
100
AcDbPolyline
 62
253
  6
CONTINUOUS
 90
3
 70
0
 10
-10.7416778093
 20
43.3298141709
 10
-10.7847233433
 20
43.3027640399
 10
-10.8322480634
 20
43.2829015438
  0
LWPOLYLINE
  5
2D8
100
AcDbEntity
  8
RACCORDO
100
AcDbPolyline
 62
253
  6
CONTINUOUS
 90
3
 70
0
 10
-10.7416778093
 20
43.3298141709
 10
-10.7847233433
 20
43.3027640399
 10
-10.8322480634
 20
43.2829015438
  0
LINE
  5
2D9
100
AcDbEntity
  8
0
100
AcDbLine
 62
253
  6
CONTINUOUS
 10
-2.0706972195
 20
45.0706972195
 11
-2.192882674
 21
45.0200863471
  0
LINE
  5
2DA
100
AcDbEntity
  8
RACCORDO
100
AcDbLine
 62
253
  6
CONTINUOUS
 10
-2.0706972195
 20
45.0706972195
 11
-2.192882674
 21
45.0200863471
  0
LINE
  5
2DB
100
AcDbEntity
  8
CURVE
100
AcDbLine
 62
7
  6
CONTINUOUS
 10
-1.511197998
 20
12.073802
 11
-1.5618022857
 21
12.073802
  0
LINE
  5
2DC
100
AcDbEntity
  8
CURVE
100
AcDbLine
 62
253
  6
CONTINUOUS
 10
-1.5687715509
 20
12.242143116
 11
-1.6019311231
 21
12.242143116
  0
LINE
  5
2DD
100
AcDbEntity
  8
CURVE
100
AcDbLine
 62
7
  6
CONTINUOUS
 10
-1.551299509
 20
12.656246
 11
-1.511197998
 21
12.656246
  0
LINE
  5
2DE
100
AcDbEntity
  8
CURVE
100
AcDbLine
 62
253
  6
CONTINUOUS
 10
-22.935
 20
12.856428588
 11
-21.635
 21
12.856428588
  0
LINE
  5
2DF
100
AcDbEntity
  8
0
100
AcDbLine
 62
7
  6
CONTINUOUS
 10
-13.235
 20
13.485
 11
-16.235
 21
13.485
  0
LINE
  5
2E0
100
AcDbEntity
  8
CURVE
100
AcDbLine
 62
253
  6
CONTINUOUS
 10
-21.635
 20
15.6421429014
 11
-22.935
 21
16.0135712957
  0
LINE
  5
2E1
100
AcDbEntity
  8
0
100
AcDbLine
 62
253
  6
CONTINUOUS
 10
-2.192882674
 20
6.9499136529
 11
-2.0706972195
 21
6.8993027805
  0
LINE
  5
2E2
100
AcDbEntity
  8
RACCORDO
100
AcDbLine
 62
253
  6
CONTINUOUS
 10
-2.192882674
 20
6.9499136529
 11
-2.0706972195
 21
6.8993027805
  0
LINE
  5
2E3
100
AcDbEntity
  8
CURVE
100
AcDbLine
 62
253
  6
CONTINUOUS
 10
-22.006428588
 20
14.8992856479
 11
-21.820714294
 21
14.8064285493
  0
LWPOLYLINE
  5
2E4
100
AcDbEntity
  8
0
100
AcDbPolyline
 62
253
  6
CONTINUOUS
 90
4
 70
0
 10
-10.7416778093
 20
8.6401858291
 10
-10.7847233433
 20
8.6672359601
 10
-10.8322480634
 20
8.6870984562
 10
-10.8828575347
 20
8.699244074
  0
LWPOLYLINE
  5
2E5
100
AcDbEntity
  8
RACCORDO
100
AcDbPolyline
 62
253
  6
CONTINUOUS
 90
4
 70
0
 10
-10.7416778093
 20
8.6401858291
 10
-10.7847233433
 20
8.6672359601
 10
-10.8322480634
 20
8.6870984562
 10
-10.8828575347
 20
8.699244074
  0
LINE
  5
2E6
100
AcDbEntity
  8
ASSI
100
AcDbLine
 62
7
  6
CONTINUOUS
 10
-8.235
 20
2.185
 11
-8.2786506469
 21
2.2286506469
  0
LINE
  5
2E7
100
AcDbEntity
  8
ASSI
100
AcDbLine
 62
7
  6
CONTINUOUS
 10
-8.7070300123
 20
2.7286421853
 11
-8.6120287975
 21
2.6258929355
  0
LINE
  5
2E8
100
AcDbEntity
  8
ASSI
100
AcDbLine
 62
7
  6
CONTINUOUS
 10
-8.6120287975
 20
2.6258929355
 11
-8.5233720701
 21
2.5294078936
  0
LINE
  5
2E9
100
AcDbEntity
  8
ASSI
100
AcDbLine
 62
7
  6
CONTINUOUS
 10
-8.5233720701
 20
2.5294078936
 11
-8.4650778502
 21
2.4653229919
  0
LINE
  5
2EA
100
AcDbEntity
  8
ASSI
100
AcDbLine
 62
7
  6
CONTINUOUS
 10
-8.4650778502
 20
2.4653229919
 11
-8.4308992228
 21
2.4273227314
  0
LWPOLYLINE
  5
2EB
100
AcDbEntity
  8
ASSI
100
AcDbPolyline
 62
7
  6
CONTINUOUS
 90
20
 70
0
 10
-8.4308992228
 20
2.4273227314
 10
-8.4005378126
 20
2.3931420949
 10
-8.3867928639
 20
2.3774932203
 10
-8.3739879285
 20
2.3627904531
 10
-8.3620735106
 20
2.3489617155
 10
-8.3510432919
 20
2.3360083011
 10
-8.3408855335
 20
2.3239289161
 10
-8.3315527863
 20
2.3126476011
 10
-8.3230414938
 20
2.3021646543
 10
-8.3153364914
 20
2.2924797775
 10
-8.3083891049
 20
2.2835161164
 10
-8.3021838549
 20
2.275254007
 10
-8.2967331657
 20
2.2677131134
 10
-8.2920367842
 20
2.2608755739
 10
-8.2880846653
 20
2.2547487112
 10
-8.2848663624
 20
2.2493252025
 10
-8.282372951
 20
2.2445652177
 10
-8.2805882613
 20
2.2404554798
 10
-8.2794927154
 20
2.2370092656
 10
-8.2790672673
 20
2.2342265753
  0
LINE
  5
2EC
100
AcDbEntity
  8
CURVE
100
AcDbLine
 62
253
  6
CONTINUOUS
 10
-22.0373809671
 20
16.385
 11
-22.1302381045
 21
16.60166677
  0
LINE
  5
2ED
100
AcDbEntity
  8
RACCORDO
100
AcDbLine
 62
253
  6
CONTINUOUS
 10
-23.280628166
 20
2.1406624327
 11
-23.285
 21
2.5745148518
  0
LINE
  5
2EE
100
AcDbEntity
  8
RACCORDO
100
AcDbLine
 62
253
  6
CONTINUOUS
 10
-23.0306323968
 20
2.3571687836
 11
-23.0357229979
 21
2.8623502692
  0
LINE
  5
2EF
100
AcDbEntity
  8
0
100
AcDbLine
 62
7
  6
CONTINUOUS
 10
-23.785
 20
43.6566990487
 11
-23.785
 21
8.3133009513
  0
LINE
  5
2F0
100
AcDbEntity
  8
RACCORDO
100
AcDbLine
 62
7
  6
CONTINUOUS
 10
-23.785
 20
4.0538144441
 11
-23.785
 21
47.9161855559
  0
LINE
  5
2F1
100
AcDbEntity
  8
0
100
AcDbLine
 62
7
  6
CONTINUOUS
 10
-23.6628145455
 20
43.6060881763
 11
-23.6628145455
 21
8.3639118237
  0
LINE
  5
2F2
100
AcDbEntity
  8
RACCORDO
100
AcDbLine
 62
7
  6
CONTINUOUS
 10
-23.6628145455
 20
43.6060881763
 11
-23.6628145455
 21
8.3639118237
  0
LINE
  5
2F3
100
AcDbEntity
  8
RACCORDO
100
AcDbLine
 62
7
  6
CONTINUOUS
 10
-23.6480903017
 20
43.9762243901
 11
-23.6480903017
 21
7.9937756099
  0
LINE
  5
2F4
100
AcDbEntity
  8
ASSI
100
AcDbLine
 62
7
  6
CONTINUOUS
 10
-23.6480903017
 20
43.9762243901
 11
-23.6480903017
 21
7.9937756099
  0
LINE
  5
2F5
100
AcDbEntity
  8
RACCORDO
100
AcDbLine
 62
7
  6
CONTINUOUS
 10
-23.285
 20
1.7349957692
 11
-23.285
 21
3.585
  0
LINE
  5
2F6
100
AcDbEntity
  8
RACCORDO
100
AcDbLine
 62
7
  6
CONTINUOUS
 10
-23.285
 20
48.385
 11
-23.285
 21
50.2350042308
  0
LINE
  5
2F7
100
AcDbEntity
  8
RACCORDO
100
AcDbLine
 62
253
  6
CONTINUOUS
 10
-23.280628166
 20
50.2306323968
 11
-23.280628166
 21
49.8293375673
  0
LINE
  5
2F8
100
AcDbEntity
  8
RACCORDO
100
AcDbLine
 62
253
  6
CONTINUOUS
 10
-23.280628166
 20
2.1406624327
 11
-23.280628166
 21
1.7393676032
  0
LINE
  5
2F9
100
AcDbEntity
  8
RACCORDO
100
AcDbLine
 62
253
  6
CONTINUOUS
 10
-23.285
 20
49.3954851482
 11
-23.280628166
 21
49.8293375673
  0
LINE
  5
2FA
100
AcDbEntity
  8
RACCORDO
100
AcDbLine
 62
253
  6
CONTINUOUS
 10
-23.0357229979
 20
49.1076497308
 11
-23.0299051681
 21
49.685
  0
LWPOLYLINE
  5
2FB
100
AcDbEntity
  8
RACCORDO
100
AcDbPolyline
 62
7
  6
CONTINUOUS
 90
34
 70
0
 10
-23.285
 20
50.2350042308
 10
-23.2847168498
 20
50.246899516
 10
-23.2838680342
 20
50.2587678556
 10
-23.2824554741
 20
50.2705823661
 10
-23.2804823677
 20
50.2823162875
 10
-23.2779531817
 20
50.2939430388
 10
-23.2748736417
 20
50.305436279
 10
-23.2712507213
 20
50.3167699738
 10
-23.2670926258
 20
50.3279184493
 10
-23.2624087722
 20
50.3388564463
 10
-23.2572097688
 20
50.3495591876
 10
-23.2515073916
 20
50.3600024283
 10
-23.2453145581
 20
50.3701625059
 10
-23.2386452955
 20
50.3800164051
 10
-23.2315147107
 20
50.3895418038
 10
-23.2239389589
 20
50.3987171191
 10
-23.2159352005
 20
50.4075215661
 10
-23.2075215661
 20
50.4159352005
 10
-23.1987171191
 20
50.4239389589
 10
-23.1895418038
 20
50.4315147107
 10
-23.1800164051
 20
50.4386452955
 10
-23.1701625059
 20
50.4453145581
 10
-23.1600024283
 20
50.4515073916
 10
-23.1495591876
 20
50.4572097688
 10
-23.1388564463
 20
50.4624087722
 10
-23.1279184493
 20
50.4670926258
 10
-23.1167699738
 20
50.4712507213
 10
-23.105436279
 20
50.4748736417
 10
-23.0939430388
 20
50.4779531817
 10
-23.0823162875
 20
50.4804823677
 10
-23.0705823661
 20
50.4824554741
 10
-23.0587678556
 20
50.4838680342
 10
-23.046899516
 20
50.4847168498
 10
-23.0350042308
 20
50.485
  0
LWPOLYLINE
  5
2FC
100
AcDbEntity
  8
RACCORDO
100
AcDbPolyline
 62
253
  6
CONTINUOUS
 90
31
 70
0
 10
-23.280628166
 20
50.2306323968
 10
-23.2802867588
 20
50.2436847368
 10
-23.2792634962
 20
50.2567096311
 10
-23.277559892
 20
50.2696714057
 10
-23.2751787618
 20
50.2825371245
 10
-23.2721256484
 20
50.2952685897
 10
-23.2684102087
 20
50.3078227742
 10
-23.2640436576
 20
50.3201625782
 10
-23.2590372277
 20
50.3322569343
 10
-23.2534044791
 20
50.3440730125
 10
-23.2471606774
 20
50.355578613
 10
-23.2403229956
 20
50.3667419314
 10
-23.2329103656
 20
50.3775320106
 10
-23.2249432233
 20
50.3879191364
 10
-23.2164433264
 20
50.3978749736
 10
-23.2074339046
 20
50.407372308
 10
-23.1979396114
 20
50.4163851271
 10
-23.187986508
 20
50.4248886687
 10
-23.1776019187
 20
50.4328595768
 10
-23.1668143284
 20
50.4402759837
 10
-23.1556533025
 20
50.4471175595
 10
-23.1441494467
 20
50.4533655387
 10
-23.132334301
 20
50.4590027869
 10
-23.1202402638
 20
50.4640138424
 10
-23.1079005077
 20
50.4683849575
 10
-23.0953488602
 20
50.472104147
 10
-23.0826197463
 20
50.4751612081
 10
-23.0697481067
 20
50.4775477509
 10
-23.0567692492
 20
50.479257234
 10
-23.0437187509
 20
50.480284977
 10
-23.0306323968
 20
50.480628166
  0
LINE
  5
2FD
100
AcDbEntity
  8
0
100
AcDbLine
 62
7
  6
CONTINUOUS
 10
-9.135
 20
45.885
 11
-9.1716556363
 21
45.8483443637
  0
LINE
  5
2FE
100
AcDbEntity
  8
DRAFT
100
AcDbLine
 62
7
  6
CONTINUOUS
 10
-9.135
 20
45.885
 11
-9.1716556363
 21
45.8483443637
  0
LINE
  5
2FF
100
AcDbEntity
  8
0
100
AcDbLine
 62
7
  6
CONTINUOUS
 10
-9.135
 20
45.685
 11
-9.1716556363
 21
45.6483443637
  0
LINE
  5
300
100
AcDbEntity
  8
DRAFT
100
AcDbLine
 62
7
  6
CONTINUOUS
 10
-9.135
 20
45.685
 11
-9.1716556363
 21
45.6483443637
  0
LINE
  5
301
100
AcDbEntity
  8
0
100
AcDbLine
 62
253
  6
CONTINUOUS
 10
-1.485
 20
43.6566990487
 11
-1.6071854545
 21
43.6060881763
  0
LINE
  5
302
100
AcDbEntity
  8
RACCORDO
100
AcDbLine
 62
253
  6
CONTINUOUS
 10
-1.485
 20
43.6566990487
 11
-1.6071854545
 21
43.6060881763
  0
LINE
  5
303
100
AcDbEntity
  8
SMUSSO
100
AcDbLine
 62
7
  6
CONTINUOUS
 10
-16.885
 20
13.735
 11
-12.885
 21
13.735
  0
LINE
  5
304
100
AcDbEntity
  8
ASSI
100
AcDbLine
 62
7
  6
CONTINUOUS
 10
-16.885
 20
13.735
 11
-12.885
 21
13.735
  0
LINE
  5
305
100
AcDbEntity
  8
CURVE
100
AcDbLine
 62
253
  6
CONTINUOUS
 10
-22.5635714507
 20
13.8778570986
 11
-22.7492857254
 21
13.8778570986
  0
LINE
  5
306
100
AcDbEntity
  8
CURVE
100
AcDbLine
 62
7
  6
CONTINUOUS
 10
-1.5194499317
 20
14.11023
 11
-1.5618022857
 21
14.11023
  0
LINE
  5
307
100
AcDbEntity
  8
RACCORDO
100
AcDbLine
 62
7
  6
CONTINUOUS
 10
-1.9219211218
 20
14.135
 11
-2.835
 21
14.135
  0
LINE
  5
308
100
AcDbEntity
  8
ASSI
100
AcDbLine
 62
7
  6
CONTINUOUS
 10
-1.9219211218
 20
14.135
 11
-2.835
 21
14.135
  0
LINE
  5
309
100
AcDbEntity
  8
SMUSSO
100
AcDbLine
 62
7
  6
CONTINUOUS
 10
-17.385
 20
14.235
 11
-12.385
 21
14.235
  0
LINE
  5
30A
100
AcDbEntity
  8
ASSI
100
AcDbLine
 62
7
  6
CONTINUOUS
 10
-17.385
 20
14.235
 11
-12.385
 21
14.235
  0
LINE
  5
30B
100
AcDbEntity
  8
CURVE
100
AcDbLine
 62
253
  6
CONTINUOUS
 10
-22.006428588
 20
14.2492856479
 11
-22.5635714507
 21
14.2492856479
  0
LINE
  5
30C
100
AcDbEntity
  8
CURVE
100
AcDbLine
 62
253
  6
CONTINUOUS
 10
-1.5829827953
 20
14.413571558
 11
-1.5735086324
 21
14.413571558
  0
LINE
  5
30D
100
AcDbEntity
  8
CURVE
100
AcDbLine
 62
7
  6
CONTINUOUS
 10
-1.5618022857
 20
14.692675
 11
-1.511197998
 21
14.692675
  0
LINE
  5
30E
100
AcDbEntity
  8
SMUSSO
100
AcDbLine
 62
7
  6
CONTINUOUS
 10
-12.385
 20
14.735
 11
-17.385
 21
14.735
  0
LINE
  5
30F
100
AcDbEntity
  8
ASSI
100
AcDbLine
 62
7
  6
CONTINUOUS
 10
-12.385
 20
14.735
 11
-17.385
 21
14.735
  0
LINE
  5
310
100
AcDbEntity
  8
RACCORDO
100
AcDbLine
 62
7
  6
CONTINUOUS
 10
-1.9219211218
 20
14.835
 11
-2.835
 21
14.835
  0
LINE
  5
311
100
AcDbEntity
  8
ASSI
100
AcDbLine
 62
7
  6
CONTINUOUS
 10
-1.9219211218
 20
14.835
 11
-2.835
 21
14.835
  0
LINE
  5
312
100
AcDbEntity
  8
CURVE
100
AcDbLine
 62
253
  6
CONTINUOUS
 10
-22.5635714507
 20
14.8992856479
 11
-22.006428588
 21
14.8992856479
  0
LINE
  5
313
100
AcDbEntity
  8
SMUSSO
100
AcDbLine
 62
7
  6
CONTINUOUS
 10
-12.885
 20
15.235
 11
-16.885
 21
15.235
  0
LINE
  5
314
100
AcDbEntity
  8
ASSI
100
AcDbLine
 62
7
  6
CONTINUOUS
 10
-12.885
 20
15.235
 11
-16.885
 21
15.235
  0
LINE
  5
315
100
AcDbEntity
  8
CURVE
100
AcDbLine
 62
253
  6
CONTINUOUS
 10
-1.5735086324
 20
15.363571558
 11
-1.5829827953
 21
15.363571558
  0
LINE
  5
316
100
AcDbEntity
  8
0
100
AcDbLine
 62
253
  6
CONTINUOUS
 10
-1.6071854545
 20
8.3639118237
 11
-1.485
 21
8.3133009513
  0
LINE
  5
317
100
AcDbEntity
  8
RACCORDO
100
AcDbLine
 62
253
  6
CONTINUOUS
 10
-1.6071854545
 20
8.3639118237
 11
-1.485
 21
8.3133009513
  0
LINE
  5
318
100
AcDbEntity
  8
SMUSSO
100
AcDbLine
 62
7
  6
CONTINUOUS
 10
-17.385
 20
14.235
 11
-16.885
 21
13.735
  0
LINE
  5
319
100
AcDbEntity
  8
ASSI
100
AcDbLine
 62
7
  6
CONTINUOUS
 10
-17.385
 20
14.235
 11
-16.885
 21
13.735
  0
LINE
  5
31A
100
AcDbEntity
  8
CURVE
100
AcDbLine
 62
253
  6
CONTINUOUS
 10
-22.935
 20
19.8826193428
 11
-22.6564285493
 21
19.6040477371
  0
LINE
  5
31B
100
AcDbEntity
  8
0
100
AcDbLine
 62
7
  6
CONTINUOUS
 10
-9.1716556363
 20
6.1216556363
 11
-9.135
 21
6.085
  0
LINE
  5
31C
100
AcDbEntity
  8
DRAFT
100
AcDbLine
 62
7
  6
CONTINUOUS
 10
-9.1716556363
 20
6.1216556363
 11
-9.135
 21
6.085
  0
LINE
  5
31D
100
AcDbEntity
  8
0
100
AcDbLine
 62
7
  6
CONTINUOUS
 10
-9.135
 20
6.285
 11
-9.1716556363
 21
6.3216556363
  0
LINE
  5
31E
100
AcDbEntity
  8
DRAFT
100
AcDbLine
 62
7
  6
CONTINUOUS
 10
-9.135
 20
6.285
 11
-9.1716556363
 21
6.3216556363
  0
LINE
  5
31F
100
AcDbEntity
  8
SMUSSO
100
AcDbLine
 62
7
  6
CONTINUOUS
 10
-12.385
 20
9.735
 11
-12.885
 21
10.235
  0
LINE
  5
320
100
AcDbEntity
  8
ASSI
100
AcDbLine
 62
7
  6
CONTINUOUS
 10
-12.385
 20
9.735
 11
-12.885
 21
10.235
  0
LINE
  5
321
100
AcDbEntity
  8
CURVE
100
AcDbLine
 62
253
  6
CONTINUOUS
 10
-19.7207143342
 20
17.435
 11
-19.4492857224
 21
17.1635714447
  0
LINE
  5
322
100
AcDbEntity
  8
CURVE
100
AcDbLine
 62
253
  6
CONTINUOUS
 10
-22.7492857254
 20
20.5326193428
 11
-22.935
 21
20.71833354
  0
LINE
  5
323
100
AcDbEntity
  8
CURVE
100
AcDbLine
 62
253
  6
CONTINUOUS
 10
-21.635
 20
19.8826193428
 11
-21.820714294
 21
20.06833354
  0
LINE
  5
324
100
AcDbEntity
  8
CURVE
100
AcDbLine
 62
253
  6
CONTINUOUS
 10
-21.9445238104
 20
16.8492858028
 11
-22.0373809671
 21
17.0969048357
  0
LWPOLYLINE
  5
325
100
AcDbEntity
  8
RACCORDO
100
AcDbPolyline
 62
253
  6
CONTINUOUS
 90
31
 70
0
 10
-20.889371834
 20
2.1406624327
 10
-20.8897511885
 20
2.1519729404
 10
-20.8908122363
 20
2.1632525596
 10
-20.8925520796
 20
2.1744704859
 10
-20.8949659648
 20
2.1855960747
 10
-20.8980473009
 20
2.1965989516
 10
-20.9017876826
 20
2.2074490943
 10
-20.906176909
 20
2.2181168905
 10
-20.9112029911
 20
2.228573184
 10
-20.9168521875
 20
2.2387893832
 10
-20.9231090593
 20
2.2487375748
 10
-20.9299565249
 20
2.2583906054
 10
-20.9373758889
 20
2.2677221215
 10
-20.9453468926
 20
2.2767066425
 10
-20.9538477641
 20
2.285319628
 10
-20.9628552844
 20
2.2935375532
 10
-20.9723448482
 20
2.3013379714
 10
-20.9822905438
 20
2.308699585
 10
-20.9926652233
 20
2.3156022989
 10
-21.0034405758
 20
2.3220272725
 10
-21.0145871553
 20
2.3279569441
 10
-21.0260744696
 20
2.3333750953
 10
-21.0378711116
 20
2.3382669225
 10
-21.0499448924
 20
2.3426190871
 10
-21.0622628811
 20
2.3464197221
 10
-21.0747919133
 20
2.3496585592
 10
-21.0874973112
 20
2.3523265993
 10
-21.1003429626
 20
2.3544163586
 10
-21.1132932772
 20
2.3559222772
 10
-21.1263133412
 20
2.3568405232
 10
-21.1393676032
 20
2.3571687836
  0
LINE
  5
326
100
AcDbEntity
  8
RACCORDO
100
AcDbLine
 62
253
  6
CONTINUOUS
 10
-23.0306323968
 20
1.489371834
 11
-23.0306323968
 21
2.3571687836
  0
LINE
  5
327
100
AcDbEntity
  8
RACCORDO
100
AcDbLine
 62
253
  6
CONTINUOUS
 10
-23.0306323968
 20
49.685
 11
-23.0306323968
 21
50.480628166
  0
LINE
  5
328
100
AcDbEntity
  8
CURVE
100
AcDbLine
 62
253
  6
CONTINUOUS
 10
-23.01
 20
26.6725
 11
-23.01
 21
26.5475
  0
LINE
  5
329
100
AcDbEntity
  8
CURVE
100
AcDbLine
 62
253
  6
CONTINUOUS
 10
-22.935
 20
13.6921428239
 11
-22.935
 21
13.4135714507
  0
LINE
  5
32A
100
AcDbEntity
  8
CURVE
100
AcDbLine
 62
253
  6
CONTINUOUS
 10
-22.935
 20
14.5278570986
 11
-22.935
 21
14.6207143521
  0
LINE
  5
32B
100
AcDbEntity
  8
CURVE
100
AcDbLine
 62
253
  6
CONTINUOUS
 10
-22.935
 20
20.71833354
 11
-22.935
 21
20.8111903286
  0
LINE
  5
32C
100
AcDbEntity
  8
CURVE
100
AcDbLine
 62
253
  6
CONTINUOUS
 10
-22.5635714507
 20
22.4826193428
 11
-22.5635714507
 21
23.0397613144
  0
LINE
  5
32D
100
AcDbEntity
  8
RACCORDO
100
AcDbLine
 62
7
  6
CONTINUOUS
 10
-22.4323819397
 20
45.5113078747
 11
-22.4323819397
 21
45.5876183423
  0
LINE
  5
32E
100
AcDbEntity
  8
ASSI
100
AcDbLine
 62
7
  6
CONTINUOUS
 10
-22.4323819397
 20
45.5113078747
 11
-22.4323819397
 21
45.5876183423
  0
LINE
  5
32F
100
AcDbEntity
  8
CURVE
100
AcDbLine
 62
253
  6
CONTINUOUS
 10
-22.3778571761
 20
19.8826193428
 11
-22.3778571761
 21
19.4802380657
  0
LINE
  5
330
100
AcDbEntity
  8
CURVE
100
AcDbLine
 62
253
  6
CONTINUOUS
 10
-22.3778571761
 20
21.4611903286
 11
-22.3778571761
 21
22.1111903286
  0
LINE
  5
331
100
AcDbEntity
  8
DRAFT
100
AcDbLine
 62
7
  6
CONTINUOUS
 10
-22.285
 20
5.085
 11
-22.285
 21
5.985
  0
LINE
  5
332
100
AcDbEntity
  8
DRAFT
100
AcDbLine
 62
7
  6
CONTINUOUS
 10
-22.285
 20
45.985
 11
-22.285
 21
46.885
  0
LINE
  5
333
100
AcDbEntity
  8
CURVE
100
AcDbLine
 62
253
  6
CONTINUOUS
 10
-22.26
 20
26.61
 11
-22.26
 21
26.6725
  0
LINE
  5
334
100
AcDbEntity
  8
DRAFT
100
AcDbLine
 62
7
  6
CONTINUOUS
 10
-22.2588174026
 20
5.1636116689
 11
-22.2588174026
 21
5.9588174026
  0
LINE
  5
335
100
AcDbEntity
  8
DRAFT
100
AcDbLine
 62
7
  6
CONTINUOUS
 10
-22.2588174026
 20
46.0111825974
 11
-22.2588174026
 21
46.8063883311
  0
LINE
  5
336
100
AcDbEntity
  8
CURVE
100
AcDbLine
 62
253
  6
CONTINUOUS
 10
-21.635
 20
20.8111903286
 11
-21.635
 21
20.71833354
  0
LINE
  5
337
100
AcDbEntity
  8
CURVE
100
AcDbLine
 62
253
  6
CONTINUOUS
 10
-21.635
 20
14.6207143521
 11
-21.635
 21
14.5278570986
  0
LINE
  5
338
100
AcDbEntity
  8
CURVE
100
AcDbLine
 62
253
  6
CONTINUOUS
 10
-21.635
 20
13.8778570986
 11
-21.635
 21
13.2278571761
  0
LINE
  5
339
100
AcDbEntity
  8
CURVE
100
AcDbLine
 62
253
  6
CONTINUOUS
 10
-21.635
 20
19.6040477371
 11
-21.635
 21
19.8826193428
  0
LINE
  5
33A
100
AcDbEntity
  8
CURVE
100
AcDbLine
 62
253
  6
CONTINUOUS
 10
-21.635
 20
22.4826193428
 11
-21.635
 21
23.0397613144
  0
LWPOLYLINE
  5
33B
100
AcDbEntity
  8
RACCORDO
100
AcDbPolyline
 62
253
  6
CONTINUOUS
 90
31
 70
0
 10
-23.280628166
 20
2.1406624327
 10
-23.2802496104
 20
2.151960405
 10
-23.2791904828
 20
2.163230709
 10
-23.2774531063
 20
2.1744425788
 10
-23.2750414049
 20
2.1855663879
 10
-23.2719615346
 20
2.19657064
 10
-23.2682224836
 20
2.2074221798
 10
-23.2638349392
 20
2.2180903028
 10
-23.2588105402
 20
2.2285469761
 10
-23.2531628596
 20
2.238763895
 10
-23.2469071671
 20
2.2487133001
 10
-23.2400605925
 20
2.2583678246
 10
-23.2326419842
 20
2.2677008481
 10
-23.2246716801
 20
2.2766867982
 10
-23.2161713853
 20
2.2853012174
 10
-23.2071642949
 20
2.2935205958
 10
-23.1976749912
 20
2.3013224925
 10
-23.1877294041
 20
2.3086855807
 10
-23.1773547212
 20
2.3155897296
 10
-23.1665792888
 20
2.3220160761
 10
-23.1554325308
 20
2.3279470731
 10
-23.1439448938
 20
2.3333665204
 10
-23.132147737
 20
2.3382596224
 10
-23.1200733006
 20
2.3426130055
 10
-23.107754621
 20
2.3464147629
 10
-23.0952253856
 20
2.3496545093
 10
-23.0825197828
 20
2.3523234158
 10
-23.069672462
 20
2.3544142082
 10
-23.0567184947
 20
2.3559211781
 10
-23.043693281
 20
2.3568402065
 10
-23.0306323968
 20
2.3571687836
  0
LWPOLYLINE
  5
33C
100
AcDbEntity
  8
RACCORDO
100
AcDbPolyline
 62
7
  6
CONTINUOUS
 90
34
 70
0
 10
-20.889371834
 20
49.8293375673
 10
-20.8896695603
 20
49.8230959882
 10
-20.8904408118
 20
49.8168228771
 10
-20.8916911745
 20
49.8105364611
 10
-20.8934252218
 20
49.804262429
 10
-20.8956466645
 20
49.7980128907
 10
-20.8983586845
 20
49.7917864067
 10
-20.9015631814
 20
49.7856034693
 10
-20.9052611059
 20
49.7794838391
 10
-20.9094533569
 20
49.7734256826
 10
-20.9141388411
 20
49.7674505058
 10
-20.919315483
 20
49.7615790982
 10
-20.9249818538
 20
49.7558092763
 10
-20.9311336377
 20
49.7501632953
 10
-20.9377654201
 20
49.7446628022
 10
-20.9448732229
 20
49.7393054665
 10
-20.9524492184
 20
49.7341140142
 10
-20.9604843004
 20
49.7291107054
 10
-20.968971526
 20
49.7242932914
 10
-20.9778992355
 20
49.719684598
 10
-20.9872542142
 20
49.7153071891
 10
-20.9970258888
 20
49.7111591412
 10
-21.0071984
 20
49.7072628822
 10
-21.0177539871
 20
49.7036408394
 10
-21.0286775879
 20
49.7002916032
 10
-21.0399486454
 20
49.6972365701
 10
-21.0515445699
 20
49.6944973639
 10
-21.0634452677
 20
49.6920730824
 10
-21.0756120954
 20
49.6899862817
 10
-21.0880301503
 20
49.6882528228
 10
-21.1007141444
 20
49.6868667017
 10
-21.113648855
 20
49.6858436197
 10
-21.1267873565
 20
49.6852144299
 10
-21.1400948319
 20
49.685
  0
LINE
  5
33D
100
AcDbEntity
  8
DRAFT
100
AcDbLine
 62
7
  6
CONTINUOUS
 10
-19.9338376746
 20
46.8954703804
 11
-19.9437267447
 21
46.8063883311
  0
LINE
  5
33E
100
AcDbEntity
  8
CURVE
100
AcDbLine
 62
253
  6
CONTINUOUS
 10
-22.9475
 20
26.9225
 11
-23.01
 21
26.6725
  0
LINE
  5
33F
100
AcDbEntity
  8
CURVE
100
AcDbLine
 62
253
  6
CONTINUOUS
 10
-22.885
 20
27.11
 11
-22.9475
 21
26.9225
  0
LINE
  5
340
100
AcDbEntity
  8
CURVE
100
AcDbLine
 62
253
  6
CONTINUOUS
 10
-22.3225
 20
26.4225
 11
-22.26
 21
26.61
  0
LINE
  5
341
100
AcDbEntity
  8
CURVE
100
AcDbLine
 62
253
  6
CONTINUOUS
 10
-22.8225
 20
27.235
 11
-22.885
 21
27.11
  0
LINE
  5
342
100
AcDbEntity
  8
CURVE
100
AcDbLine
 62
253
  6
CONTINUOUS
 10
-22.385
 20
26.2975
 11
-22.3225
 21
26.4225
  0
LINE
  5
343
100
AcDbEntity
  8
DRAFT
100
AcDbLine
 62
7
  6
CONTINUOUS
 10
-8.235
 20
48.385
 11
-8.2790672673
 21
48.3188981669
  0
LINE
  5
344
100
AcDbEntity
  8
RACCORDO
100
AcDbLine
 62
253
  6
CONTINUOUS
 10
-2.2393676032
 20
50.480628166
 11
-2.2349957692
 21
50.485
  0
LINE
  5
345
100
AcDbEntity
  8
RACCORDO
100
AcDbLine
 62
253
  6
CONTINUOUS
 10
-1.989371834
 20
50.2306323968
 11
-1.985
 21
50.2350042308
  0
LINE
  5
346
100
AcDbEntity
  8
RACCORDO
100
AcDbLine
 62
7
  6
CONTINUOUS
 10
-6.2779784985
 20
45.7420215015
 11
-6.335
 21
45.685
  0
LINE
  5
347
100
AcDbEntity
  8
0
100
AcDbLine
 62
7
  6
CONTINUOUS
 10
-16.235
 20
15.485
 11
-13.235
 21
15.485
  0
LINE
  5
348
100
AcDbEntity
  8
CURVE
100
AcDbLine
 62
253
  6
CONTINUOUS
 10
-1.5995625822
 20
15.906428442
 11
-1.5877198777
 21
15.906428442
  0
LINE
  5
349
100
AcDbEntity
  8
CURVE
100
AcDbLine
 62
253
  6
CONTINUOUS
 10
-1.5806142555
 20
15.9516668177
 11
-1.5735086324
 21
15.9516668177
  0
LINE
  5
34A
100
AcDbEntity
  8
CURVE
100
AcDbLine
 62
253
  6
CONTINUOUS
 10
-18.635
 20
16.485
 11
-20.535
 21
16.485
  0
LINE
  5
34B
100
AcDbEntity
  8
CURVE
100
AcDbLine
 62
253
  6
CONTINUOUS
 10
-22.6564285493
 20
19.6040477371
 11
-22.285
 21
19.41833354
  0
LINE
  5
34C
100
AcDbEntity
  8
CURVE
100
AcDbLine
 62
253
  6
CONTINUOUS
 10
-22.5635714507
 20
20.4397619343
 11
-22.7492857254
 21
20.5326193428
  0
LINE
  5
34D
100
AcDbEntity
  8
CURVE
100
AcDbLine
 62
253
  6
CONTINUOUS
 10
-21.820714294
 20
20.9969045258
 11
-21.635
 21
20.8111903286
  0
LINE
  5
34E
100
AcDbEntity
  8
RACCORDO
100
AcDbLine
 62
253
  6
CONTINUOUS
 10
-2.2393676032
 20
1.489371834
 11
-2.2349957692
 21
1.485
  0
LINE
  5
34F
100
AcDbEntity
  8
RACCORDO
100
AcDbLine
 62
253
  6
CONTINUOUS
 10
-1.989371834
 20
1.7393676032
 11
-1.985
 21
1.7349957692
  0
LINE
  5
350
100
AcDbEntity
  8
RACCORDO
100
AcDbLine
 62
7
  6
CONTINUOUS
 10
-6.2779784985
 20
6.2279784985
 11
-6.335
 21
6.285
  0
LINE
  5
351
100
AcDbEntity
  8
DRAFT
100
AcDbLine
 62
7
  6
CONTINUOUS
 10
-8.235
 20
3.585
 11
-8.2790672673
 21
3.6511018331
  0
LINE
  5
352
100
AcDbEntity
  8
CURVE
100
AcDbLine
 62
253
  6
CONTINUOUS
 10
-23.01
 20
26.5475
 11
-22.9475
 21
26.36
  0
LINE
  5
353
100
AcDbEntity
  8
CURVE
100
AcDbLine
 62
253
  6
CONTINUOUS
 10
-22.26
 20
26.6725
 11
-22.1975
 21
26.4225
  0
LINE
  5
354
100
AcDbEntity
  8
DRAFT
100
AcDbLine
 62
7
  6
CONTINUOUS
 10
-19.9437267447
 20
5.1636116689
 11
-19.9338376746
 21
5.0745296196
  0
LINE
  5
355
100
AcDbEntity
  8
RACCORDO
100
AcDbLine
 62
253
  6
CONTINUOUS
 10
-21.1400948319
 20
49.685
 11
-21.1342770021
 21
49.1076497308
  0
LINE
  5
356
100
AcDbEntity
  8
RACCORDO
100
AcDbLine
 62
253
  6
CONTINUOUS
 10
-20.889371834
 20
49.8293375673
 11
-20.885
 21
49.3954851482
  0
LINE
  5
357
100
AcDbEntity
  8
RACCORDO
100
AcDbLine
 62
253
  6
CONTINUOUS
 10
-21.1393676032
 20
1.489371834
 11
-21.1393676032
 21
2.3571687836
  0
LINE
  5
358
100
AcDbEntity
  8
RACCORDO
100
AcDbLine
 62
253
  6
CONTINUOUS
 10
-21.1393676032
 20
49.685
 11
-21.1393676032
 21
50.480628166
  0
LINE
  5
359
100
AcDbEntity
  8
CURVE
100
AcDbLine
 62
253
  6
CONTINUOUS
 10
-21.135
 20
26.485
 11
-21.135
 21
26.6725
  0
LINE
  5
35A
100
AcDbEntity
  8
RACCORDO
100
AcDbLine
 62
253
  6
CONTINUOUS
 10
-20.889371834
 20
1.7393676032
 11
-20.889371834
 21
2.1406624327
  0
LINE
  5
35B
100
AcDbEntity
  8
RACCORDO
100
AcDbLine
 62
253
  6
CONTINUOUS
 10
-20.889371834
 20
49.8293375673
 11
-20.889371834
 21
50.2306323968
  0
LINE
  5
35C
100
AcDbEntity
  8
RACCORDO
100
AcDbLine
 62
7
  6
CONTINUOUS
 10
-20.885
 20
1.7349957692
 11
-20.885
 21
3.585
  0
LINE
  5
35D
100
AcDbEntity
  8
DRAFT
100
AcDbLine
 62
7
  6
CONTINUOUS
 10
-20.885
 20
4.585
 11
-20.885
 21
5.085
  0
LINE
  5
35E
100
AcDbEntity
  8
DRAFT
100
AcDbLine
 62
7
  6
CONTINUOUS
 10
-20.885
 20
46.885
 11
-20.885
 21
47.385
  0
LINE
  5
35F
100
AcDbEntity
  8
RACCORDO
100
AcDbLine
 62
7
  6
CONTINUOUS
 10
-20.885
 20
48.385
 11
-20.885
 21
50.2350042308
  0
LINE
  5
360
100
AcDbEntity
  8
RACCORDO
100
AcDbLine
 62
253
  6
CONTINUOUS
 10
-20.7190245667
 20
47.5509754333
 11
-20.7190245667
 21
46.9767082642
  0
LINE
  5
361
100
AcDbEntity
  8
RACCORDO
100
AcDbLine
 62
253
  6
CONTINUOUS
 10
-20.7190245667
 20
4.9932917358
 11
-20.7190245667
 21
4.4190245667
  0
LINE
  5
362
100
AcDbEntity
  8
CURVE
100
AcDbLine
 62
253
  6
CONTINUOUS
 10
-20.535
 20
16.485
 11
-20.535
 21
17.1635714447
  0
LINE
  5
363
100
AcDbEntity
  8
CURVE
100
AcDbLine
 62
253
  6
CONTINUOUS
 10
-20.535
 20
26.7564285836
 11
-20.535
 21
27.2992857224
  0
LINE
  5
364
100
AcDbEntity
  8
RACCORDO
100
AcDbLine
 62
253
  6
CONTINUOUS
 10
-20.2191007192
 20
47.2976932437
 11
-20.2191007192
 21
46.9809955457
  0
LINE
  5
365
100
AcDbEntity
  8
RACCORDO
100
AcDbLine
 62
253
  6
CONTINUOUS
 10
-20.2191007192
 20
4.9890044543
 11
-20.2191007192
 21
4.6723067563
  0
LINE
  5
366
100
AcDbEntity
  8
0
100
AcDbLine
 62
7
  6
CONTINUOUS
 10
-20.0716556363
 20
5.135
 11
-20.0716556363
 21
6.3216556363
  0
LINE
  5
367
100
AcDbEntity
  8
DRAFT
100
AcDbLine
 62
7
  6
CONTINUOUS
 10
-20.0716556363
 20
5.135
 11
-20.0716556363
 21
6.3216556363
  0
LINE
  5
368
100
AcDbEntity
  8
0
100
AcDbLine
 62
7
  6
CONTINUOUS
 10
-20.0716556363
 20
45.6483443637
 11
-20.0716556363
 21
46.835
  0
LINE
  5
369
100
AcDbEntity
  8
DRAFT
100
AcDbLine
 62
7
  6
CONTINUOUS
 10
-20.0716556363
 20
45.6483443637
 11
-20.0716556363
 21
46.835
  0
LINE
  5
36A
100
AcDbEntity
  8
0
100
AcDbLine
 62
7
  6
CONTINUOUS
 10
-20.035
 20
5.135
 11
-20.035
 21
6.285
  0
LINE
  5
36B
100
AcDbEntity
  8
DRAFT
100
AcDbLine
 62
7
  6
CONTINUOUS
 10
-20.035
 20
5.135
 11
-20.035
 21
6.285
  0
LINE
  5
36C
100
AcDbEntity
  8
0
100
AcDbLine
 62
7
  6
CONTINUOUS
 10
-20.035
 20
45.685
 11
-20.035
 21
46.835
  0
LINE
  5
36D
100
AcDbEntity
  8
DRAFT
100
AcDbLine
 62
7
  6
CONTINUOUS
 10
-20.035
 20
45.685
 11
-20.035
 21
46.835
  0
LINE
  5
36E
100
AcDbEntity
  8
DRAFT
100
AcDbLine
 62
7
  6
CONTINUOUS
 10
-19.9437267447
 20
6.285
 11
-19.9437267447
 21
5.1636116689
  0
LINE
  5
36F
100
AcDbEntity
  8
DRAFT
100
AcDbLine
 62
7
  6
CONTINUOUS
 10
-19.9437267447
 20
45.685
 11
-19.9437267447
 21
46.8063883311
  0
LINE
  5
370
100
AcDbEntity
  8
RACCORDO
100
AcDbLine
 62
7
  6
CONTINUOUS
 10
-19.8768217019
 20
4.9890044543
 11
-19.8768217019
 21
6.0279818832
  0
LINE
  5
371
100
AcDbEntity
  8
RACCORDO
100
AcDbLine
 62
7
  6
CONTINUOUS
 10
-19.8768217019
 20
45.9420181168
 11
-19.8768217019
 21
46.9809955457
  0
LINE
  5
372
100
AcDbEntity
  8
RACCORDO
100
AcDbLine
 62
253
  6
CONTINUOUS
 10
-21.1342770021
 20
2.8623502692
 11
-21.1393676032
 21
2.3571687836
  0
LINE
  5
373
100
AcDbEntity
  8
RACCORDO
100
AcDbLine
 62
253
  6
CONTINUOUS
 10
-20.885
 20
2.5745148518
 11
-20.889371834
 21
2.1406624327
  0
LWPOLYLINE
  5
374
100
AcDbEntity
  8
RACCORDO
100
AcDbPolyline
 62
7
  6
CONTINUOUS
 90
34
 70
0
 10
-20.885
 20
1.7349957692
 10
-20.8852831502
 20
1.723100484
 10
-20.8861319658
 20
1.7112321444
 10
-20.8875445259
 20
1.6994176339
 10
-20.8895176323
 20
1.6876837125
 10
-20.8920468183
 20
1.6760569612
 10
-20.8951263583
 20
1.664563721
 10
-20.8987492787
 20
1.6532300262
 10
-20.9029073742
 20
1.6420815507
 10
-20.9075912278
 20
1.6311435537
 10
-20.9127902312
 20
1.6204408124
 10
-20.9184926084
 20
1.6099975717
 10
-20.9246854419
 20
1.5998374941
 10
-20.9313547045
 20
1.5899835949
 10
-20.9384852893
 20
1.5804581962
 10
-20.9460610411
 20
1.5712828809
 10
-20.9540647995
 20
1.5624784339
 10
-20.9624784339
 20
1.5540647995
 10
-20.9712828809
 20
1.5460610411
 10
-20.9804581962
 20
1.5384852893
 10
-20.9899835949
 20
1.5313547045
 10
-20.9998374941
 20
1.5246854419
 10
-21.0099975717
 20
1.5184926084
 10
-21.0204408124
 20
1.5127902312
 10
-21.0311435537
 20
1.5075912278
 10
-21.0420815507
 20
1.5029073742
 10
-21.0532300262
 20
1.4987492787
 10
-21.064563721
 20
1.4951263583
 10
-21.0760569612
 20
1.4920468183
 10
-21.0876837125
 20
1.4895176323
 10
-21.0994176339
 20
1.4875445259
 10
-21.1112321444
 20
1.4861319658
 10
-21.123100484
 20
1.4852831502
 10
-21.1349957692
 20
1.485
  0
LWPOLYLINE
  5
375
100
AcDbEntity
  8
RACCORDO
100
AcDbPolyline
 62
253
  6
CONTINUOUS
 90
31
 70
0
 10
-20.889371834
 20
1.7393676032
 10
-20.889715023
 20
1.7262812491
 10
-20.890742766
 20
1.7132307508
 10
-20.8924522491
 20
1.7002518933
 10
-20.8948387919
 20
1.6873802537
 10
-20.897895853
 20
1.6746511398
 10
-20.9016150425
 20
1.6620994923
 10
-20.9059861576
 20
1.6497597362
 10
-20.9109972131
 20
1.637665699
 10
-20.9166344613
 20
1.6258505533
 10
-20.9228824405
 20
1.6143466975
 10
-20.9297240163
 20
1.6031856716
 10
-20.9371404232
 20
1.5923980813
 10
-20.9451113313
 20
1.582013492
 10
-20.9536148729
 20
1.5720603886
 10
-20.962627692
 20
1.5625660954
 10
-20.9721250264
 20
1.5535566736
 10
-20.9820808636
 20
1.5450567767
 10
-20.9924679894
 20
1.5370896344
 10
-21.0032580686
 20
1.5296770044
 10
-21.014421387
 20
1.5228393226
 10
-21.0259269875
 20
1.5165955209
 10
-21.0377430657
 20
1.5109627723
 10
-21.0498374218
 20
1.5059563424
 10
-21.0621772258
 20
1.5015897913
 10
-21.0747314103
 20
1.4978743516
 10
-21.0874628755
 20
1.4948212382
 10
-21.1003285943
 20
1.492440108
 10
-21.1132903689
 20
1.4907365038
 10
-21.1263152632
 20
1.4897132412
 10
-21.1393676032
 20
1.489371834
  0
LINE
  5
376
100
AcDbEntity
  8
CURVE
100
AcDbLine
 62
253
  6
CONTINUOUS
 10
-21.1975
 20
26.2975
 11
-21.135
 21
26.485
  0
LINE
  5
377
100
AcDbEntity
  8
CURVE
100
AcDbLine
 62
253
  6
CONTINUOUS
 10
-21.26
 20
26.1725
 11
-21.1975
 21
26.2975
  0
LINE
  5
378
100
AcDbEntity
  8
CURVE
100
AcDbLine
 62
253
  6
CONTINUOUS
 10
-22.4475
 20
26.235
 11
-22.385
 21
26.2975
  0
LINE
  5
379
100
AcDbEntity
  8
CURVE
100
AcDbLine
 62
253
  6
CONTINUOUS
 10
-1.5687715509
 20
17.2635713315
 11
-1.6019311231
 21
17.2635713315
  0
LINE
  5
37A
100
AcDbEntity
  8
CURVE
100
AcDbLine
 62
253
  6
CONTINUOUS
 10
-20.2635714447
 20
17.435
 11
-19.7207143342
 21
17.435
  0
LINE
  5
37B
100
AcDbEntity
  8
CURVE
100
AcDbLine
 62
7
  6
CONTINUOUS
 10
-1.5533926761
 20
18.118262
 11
-1.5618022857
 21
18.118262
  0
LINE
  5
37C
100
AcDbEntity
  8
0
100
AcDbLine
 62
7
  6
CONTINUOUS
 10
-13.235
 20
18.485
 11
-16.235
 21
18.485
  0
LINE
  5
37D
100
AcDbEntity
  8
CURVE
100
AcDbLine
 62
253
  6
CONTINUOUS
 10
-1.6019311231
 20
18.6659523702
 11
-1.585351337
 21
18.6659523702
  0
LINE
  5
37E
100
AcDbEntity
  8
SMUSSO
100
AcDbLine
 62
7
  6
CONTINUOUS
 10
-16.885
 20
18.735
 11
-12.885
 21
18.735
  0
LINE
  5
37F
100
AcDbEntity
  8
ASSI
100
AcDbLine
 62
7
  6
CONTINUOUS
 10
-16.885
 20
18.735
 11
-12.885
 21
18.735
  0
LINE
  5
380
100
AcDbEntity
  8
CURVE
100
AcDbLine
 62
253
  6
CONTINUOUS
 10
-22.006428588
 20
21.0897619343
 11
-21.820714294
 21
20.9969045258
  0
LINE
  5
381
100
AcDbEntity
  8
CURVE
100
AcDbLine
 62
253
  6
CONTINUOUS
 10
-22.5635714507
 20
23.0397613144
 11
-21.635
 21
22.4826193428
  0
LINE
  5
382
100
AcDbEntity
  8
SMUSSO
100
AcDbLine
 62
7
  6
CONTINUOUS
 10
-17.385
 20
19.235
 11
-16.885
 21
18.735
  0
LINE
  5
383
100
AcDbEntity
  8
ASSI
100
AcDbLine
 62
7
  6
CONTINUOUS
 10
-17.385
 20
19.235
 11
-16.885
 21
18.735
  0
LINE
  5
384
100
AcDbEntity
  8
SMUSSO
100
AcDbLine
 62
7
  6
CONTINUOUS
 10
-12.385
 20
14.735
 11
-12.885
 21
15.235
  0
LINE
  5
385
100
AcDbEntity
  8
ASSI
100
AcDbLine
 62
7
  6
CONTINUOUS
 10
-12.385
 20
14.735
 11
-12.885
 21
15.235
  0
LINE
  5
386
100
AcDbEntity
  8
CURVE
100
AcDbLine
 62
253
  6
CONTINUOUS
 10
-22.9475
 20
26.36
 11
-22.8225
 21
26.235
  0
LINE
  5
387
100
AcDbEntity
  8
CURVE
100
AcDbLine
 62
253
  6
CONTINUOUS
 10
-22.1975
 20
26.4225
 11
-22.0725
 21
26.1725
  0
LINE
  5
388
100
AcDbEntity
  8
CURVE
100
AcDbLine
 62
253
  6
CONTINUOUS
 10
-21.135
 20
26.6725
 11
-21.1975
 21
26.9225
  0
LINE
  5
389
100
AcDbEntity
  8
CURVE
100
AcDbLine
 62
253
  6
CONTINUOUS
 10
-19.4492857224
 20
17.1635714447
 11
-19.4492857224
 21
16.485
  0
LINE
  5
38A
100
AcDbEntity
  8
RACCORDO
100
AcDbLine
 62
7
  6
CONTINUOUS
 10
-18.9931782981
 20
5.4020757168
 11
-18.9931782981
 21
6.0279818832
  0
LINE
  5
38B
100
AcDbEntity
  8
RACCORDO
100
AcDbLine
 62
7
  6
CONTINUOUS
 10
-18.9931782981
 20
45.9420181168
 11
-18.9931782981
 21
46.5679242832
  0
LINE
  5
38C
100
AcDbEntity
  8
DRAFT
100
AcDbLine
 62
7
  6
CONTINUOUS
 10
-18.9262732553
 20
45.9719096983
 11
-18.9262732553
 21
45.685
  0
LINE
  5
38D
100
AcDbEntity
  8
DRAFT
100
AcDbLine
 62
7
  6
CONTINUOUS
 10
-18.9262732553
 20
6.285
 11
-18.9262732553
 21
5.9980903017
  0
LINE
  5
38E
100
AcDbEntity
  8
CURVE
100
AcDbLine
 62
253
  6
CONTINUOUS
 10
-18.635
 20
11.685
 11
-18.635
 21
12.3635714447
  0
LINE
  5
38F
100
AcDbEntity
  8
CURVE
100
AcDbLine
 62
253
  6
CONTINUOUS
 10
-18.635
 20
26.6207142918
 11
-18.635
 21
27.1635714447
  0
LWPOLYLINE
  5
390
100
AcDbEntity
  8
ASSI
100
AcDbPolyline
 62
7
  6
CONTINUOUS
 90
17
 70
0
 10
-16.135
 20
49.7361422903
 10
-16.1353322899
 20
49.7334239112
 10
-16.1363412067
 20
49.7300420801
 10
-16.1380441065
 20
49.7259967968
 10
-16.1404584565
 20
49.7213008225
 10
-16.1435988805
 20
49.7159413961
 10
-16.147474165
 20
49.7098802347
 10
-16.152093142
 20
49.7031121007
 10
-16.1574652334
 20
49.6956422318
 10
-16.1635942983
 20
49.6874480575
 10
-16.1704689952
 20
49.6785501651
 10
-16.1781047436
 20
49.6689279673
 10
-16.1865547325
 20
49.6584971318
 10
-16.1958381101
 20
49.6472548999
 10
-16.2059578944
 20
49.6352040303
 10
-16.2169598219
 20
49.6222684665
 10
-16.2288557177
 20
49.6084472841
  0
LWPOLYLINE
  5
391
100
AcDbEntity
  8
0
100
AcDbPolyline
 62
253
  6
CONTINUOUS
 90
4
 70
0
 10
-10.6527535542
 20
43.4440629059
 10
-10.6746148244
 20
43.4017346696
 10
-10.704540065
 20
43.3632135783
 10
-10.7416778093
 20
43.3298141709
  0
LWPOLYLINE
  5
392
100
AcDbEntity
  8
RACCORDO
100
AcDbPolyline
 62
253
  6
CONTINUOUS
 90
4
 70
0
 10
-10.6527535542
 20
43.4440629059
 10
-10.6746148244
 20
43.4017346696
 10
-10.704540065
 20
43.3632135783
 10
-10.7416778093
 20
43.3298141709
  0
LWPOLYLINE
  5
393
100
AcDbEntity
  8
RACCORDO
100
AcDbPolyline
 62
7
  6
CONTINUOUS
 90
5
 70
0
 10
-4.7441165263
 20
47.7441165263
 10
-4.7676353824
 20
47.7080689603
 10
-4.791619939
 20
47.6716457638
 10
-4.816070196
 20
47.6349179842
 10
-4.8410454432
 20
47.5979888844
  0
LINE
  5
394
100
AcDbEntity
  8
RACCORDO
100
AcDbLine
 62
7
  6
CONTINUOUS
 10
-6.279705232
 20
46.0679433217
 11
-6.3437267447
 21
45.9719096983
  0
LWPOLYLINE
  5
395
100
AcDbEntity
  8
RACCORDO
100
AcDbPolyline
 62
7
  6
CONTINUOUS
 90
3
 70
0
 10
-4.8410454432
 20
47.5979888844
 10
-4.8922151699
 20
47.5235902446
 10
-4.9182235016
 20
47.4861382645
  0
LINE
  5
396
100
AcDbEntity
  8
RACCORDO
100
AcDbLine
 62
7
  6
CONTINUOUS
 10
-4.9182235016
 20
47.4861382645
 11
-4.9974653792
 21
47.3731838872
  0
LINE
  5
397
100
AcDbEntity
  8
RACCORDO
100
AcDbLine
 62
7
  6
CONTINUOUS
 10
-4.9974653792
 20
47.3731838872
 11
-5.0508992808
 21
47.2976932437
  0
LINE
  5
398
100
AcDbEntity
  8
CURVE
100
AcDbLine
 62
253
  6
CONTINUOUS
 10
-19.1778571671
 20
27.435
 11
-19.9921428895
 21
26.485
  0
LINE
  5
399
100
AcDbEntity
  8
CURVE
100
AcDbLine
 62
253
  6
CONTINUOUS
 10
-20.535
 20
27.2992857224
 11
-20.3992856658
 21
27.435
  0
LINE
  5
39A
100
AcDbEntity
  8
CURVE
100
AcDbLine
 62
253
  6
CONTINUOUS
 10
-21.385
 20
26.0475
 11
-21.26
 21
26.1725
  0
LINE
  5
39B
100
AcDbEntity
  8
RACCORDO
100
AcDbLine
 62
7
  6
CONTINUOUS
 10
-1.9219211218
 20
19.135
 11
-2.835
 21
19.135
  0
LINE
  5
39C
100
AcDbEntity
  8
ASSI
100
AcDbLine
 62
7
  6
CONTINUOUS
 10
-1.9219211218
 20
19.135
 11
-2.835
 21
19.135
  0
LINE
  5
39D
100
AcDbEntity
  8
CURVE
100
AcDbLine
 62
7
  6
CONTINUOUS
 10
-1.511197998
 20
19.191261
 11
-1.5533926761
 21
19.191261
  0
LINE
  5
39E
100
AcDbEntity
  8
SMUSSO
100
AcDbLine
 62
7
  6
CONTINUOUS
 10
-17.385
 20
19.235
 11
-12.385
 21
19.235
  0
LINE
  5
39F
100
AcDbEntity
  8
ASSI
100
AcDbLine
 62
7
  6
CONTINUOUS
 10
-17.385
 20
19.235
 11
-12.385
 21
19.235
  0
LINE
  5
3A0
100
AcDbEntity
  8
CURVE
100
AcDbLine
 62
253
  6
CONTINUOUS
 10
-22.285
 20
19.41833354
 11
-21.820714294
 21
19.41833354
  0
LINE
  5
3A1
100
AcDbEntity
  8
SMUSSO
100
AcDbLine
 62
7
  6
CONTINUOUS
 10
-12.385
 20
19.735
 11
-17.385
 21
19.735
  0
LINE
  5
3A2
100
AcDbEntity
  8
ASSI
100
AcDbLine
 62
7
  6
CONTINUOUS
 10
-12.385
 20
19.735
 11
-17.385
 21
19.735
  0
LINE
  5
3A3
100
AcDbEntity
  8
CURVE
100
AcDbLine
 62
7
  6
CONTINUOUS
 10
-1.5618022857
 20
19.813867
 11
-1.511197998
 21
19.813867
  0
LINE
  5
3A4
100
AcDbEntity
  8
RACCORDO
100
AcDbLine
 62
7
  6
CONTINUOUS
 10
-1.9219211218
 20
19.835
 11
-2.835
 21
19.835
  0
LINE
  5
3A5
100
AcDbEntity
  8
ASSI
100
AcDbLine
 62
7
  6
CONTINUOUS
 10
-1.9219211218
 20
19.835
 11
-2.835
 21
19.835
  0
LINE
  5
3A6
100
AcDbEntity
  8
CURVE
100
AcDbLine
 62
253
  6
CONTINUOUS
 10
-1.5687715509
 20
19.8421428329
 11
-1.6019311231
 21
19.8421428329
  0
LINE
  5
3A7
100
AcDbEntity
  8
CURVE
100
AcDbLine
 62
253
  6
CONTINUOUS
 10
-21.820714294
 20
20.06833354
 11
-22.1921428627
 21
20.06833354
  0
LINE
  5
3A8
100
AcDbEntity
  8
SMUSSO
100
AcDbLine
 62
7
  6
CONTINUOUS
 10
-12.885
 20
20.235
 11
-16.885
 21
20.235
  0
LINE
  5
3A9
100
AcDbEntity
  8
ASSI
100
AcDbLine
 62
7
  6
CONTINUOUS
 10
-12.885
 20
20.235
 11
-16.885
 21
20.235
  0
LINE
  5
3AA
100
AcDbEntity
  8
CURVE
100
AcDbLine
 62
253
  6
CONTINUOUS
 10
-22.006428588
 20
20.4397619343
 11
-22.5635714507
 21
20.4397619343
  0
LINE
  5
3AB
100
AcDbEntity
  8
0
100
AcDbLine
 62
7
  6
CONTINUOUS
 10
-16.235
 20
20.485
 11
-13.235
 21
20.485
  0
LINE
  5
3AC
100
AcDbEntity
  8
CURVE
100
AcDbLine
 62
253
  6
CONTINUOUS
 10
-22.0725
 20
26.1725
 11
-21.9475
 21
26.0475
  0
LINE
  5
3AD
100
AcDbEntity
  8
CURVE
100
AcDbLine
 62
253
  6
CONTINUOUS
 10
-21.3225
 20
27.11
 11
-21.4475
 21
27.235
  0
LINE
  5
3AE
100
AcDbEntity
  8
RACCORDO
100
AcDbLine
 62
7
  6
CONTINUOUS
 10
-5.0508992808
 20
4.6723067563
 11
-4.9974653792
 21
4.5968161128
  0
LINE
  5
3AF
100
AcDbEntity
  8
RACCORDO
100
AcDbLine
 62
7
  6
CONTINUOUS
 10
-4.9974653792
 20
4.5968161128
 11
-4.9182235016
 21
4.4838617355
  0
LWPOLYLINE
  5
3B0
100
AcDbEntity
  8
RACCORDO
100
AcDbPolyline
 62
7
  6
CONTINUOUS
 90
7
 70
0
 10
-4.9182235016
 20
4.4838617355
 10
-4.8664863907
 20
4.4091073833
 10
-4.8410454432
 20
4.3720111156
 10
-4.816070196
 20
4.3350820158
 10
-4.791619939
 20
4.2983542362
 10
-4.7676353824
 20
4.2619310397
 10
-4.7441165263
 20
4.2258834737
  0
LINE
  5
3B1
100
AcDbEntity
  8
CURVE
100
AcDbLine
 62
253
  6
CONTINUOUS
 10
-21.1975
 20
26.9225
 11
-21.3225
 21
27.11
  0
LINE
  5
3B2
100
AcDbEntity
  8
RACCORDO
100
AcDbLine
 62
7
  6
CONTINUOUS
 10
-6.279705232
 20
5.9020566783
 11
-6.3437267447
 21
5.9980903017
  0
LINE
  5
3B3
100
AcDbEntity
  8
SMUSSO
100
AcDbLine
 62
7
  6
CONTINUOUS
 10
-17.385
 20
9.735
 11
-17.385
 21
14.235
  0
LINE
  5
3B4
100
AcDbEntity
  8
ASSI
100
AcDbLine
 62
7
  6
CONTINUOUS
 10
-17.385
 20
9.735
 11
-17.385
 21
14.235
  0
LINE
  5
3B5
100
AcDbEntity
  8
SMUSSO
100
AcDbLine
 62
7
  6
CONTINUOUS
 10
-17.385
 20
14.735
 11
-17.385
 21
19.235
  0
LINE
  5
3B6
100
AcDbEntity
  8
ASSI
100
AcDbLine
 62
7
  6
CONTINUOUS
 10
-17.385
 20
14.735
 11
-17.385
 21
19.235
  0
LINE
  5
3B7
100
AcDbEntity
  8
SMUSSO
100
AcDbLine
 62
7
  6
CONTINUOUS
 10
-17.385
 20
19.735
 11
-17.385
 21
24.235
  0
LINE
  5
3B8
100
AcDbEntity
  8
ASSI
100
AcDbLine
 62
7
  6
CONTINUOUS
 10
-17.385
 20
19.735
 11
-17.385
 21
24.235
  0
LINE
  5
3B9
100
AcDbEntity
  8
SMUSSO
100
AcDbLine
 62
7
  6
CONTINUOUS
 10
-17.385
 20
24.485
 11
-17.385
 21
29.485
  0
LINE
  5
3BA
100
AcDbEntity
  8
ASSI
100
AcDbLine
 62
7
  6
CONTINUOUS
 10
-17.385
 20
24.485
 11
-17.385
 21
29.485
  0
LINE
  5
3BB
100
AcDbEntity
  8
DRAFT
100
AcDbLine
 62
7
  6
CONTINUOUS
 10
-17.035
 20
49.785
 11
-17.035
 21
48.385
  0
LINE
  5
3BC
100
AcDbEntity
  8
DRAFT
100
AcDbLine
 62
7
  6
CONTINUOUS
 10
-17.035
 20
3.585
 11
-17.035
 21
2.185
  0
LINE
  5
3BD
100
AcDbEntity
  8
ASSI
100
AcDbLine
 62
253
  6
CONTINUOUS
 10
-16.9909327327
 20
2.2342265753
 11
-16.9909327327
 21
3.6511018331
  0
LINE
  5
3BE
100
AcDbEntity
  8
ASSI
100
AcDbLine
 62
253
  6
CONTINUOUS
 10
-16.9909327327
 20
48.3188981669
 11
-16.9909327327
 21
49.7357734247
  0
LINE
  5
3BF
100
AcDbEntity
  8
SMUSSO
100
AcDbLine
 62
7
  6
CONTINUOUS
 10
-16.885
 20
10.235
 11
-16.885
 21
13.735
  0
LINE
  5
3C0
100
AcDbEntity
  8
ASSI
100
AcDbLine
 62
7
  6
CONTINUOUS
 10
-16.885
 20
10.235
 11
-16.885
 21
13.735
  0
LINE
  5
3C1
100
AcDbEntity
  8
SMUSSO
100
AcDbLine
 62
7
  6
CONTINUOUS
 10
-16.885
 20
15.235
 11
-16.885
 21
18.735
  0
LINE
  5
3C2
100
AcDbEntity
  8
ASSI
100
AcDbLine
 62
7
  6
CONTINUOUS
 10
-16.885
 20
15.235
 11
-16.885
 21
18.735
  0
LINE
  5
3C3
100
AcDbEntity
  8
SMUSSO
100
AcDbLine
 62
7
  6
CONTINUOUS
 10
-16.885
 20
20.235
 11
-16.885
 21
23.735
  0
LINE
  5
3C4
100
AcDbEntity
  8
ASSI
100
AcDbLine
 62
7
  6
CONTINUOUS
 10
-16.885
 20
20.235
 11
-16.885
 21
23.735
  0
LINE
  5
3C5
100
AcDbEntity
  8
SMUSSO
100
AcDbLine
 62
7
  6
CONTINUOUS
 10
-16.885
 20
24.985
 11
-16.885
 21
28.985
  0
LINE
  5
3C6
100
AcDbEntity
  8
ASSI
100
AcDbLine
 62
7
  6
CONTINUOUS
 10
-16.885
 20
24.985
 11
-16.885
 21
28.985
  0
LINE
  5
3C7
100
AcDbEntity
  8
0
100
AcDbLine
 62
7
  6
CONTINUOUS
 10
-16.235
 20
28.485
 11
-16.235
 21
25.485
  0
LINE
  5
3C8
100
AcDbEntity
  8
0
100
AcDbLine
 62
7
  6
CONTINUOUS
 10
-16.235
 20
23.485
 11
-16.235
 21
20.485
  0
LINE
  5
3C9
100
AcDbEntity
  8
0
100
AcDbLine
 62
7
  6
CONTINUOUS
 10
-16.235
 20
18.485
 11
-16.235
 21
15.485
  0
LINE
  5
3CA
100
AcDbEntity
  8
0
100
AcDbLine
 62
7
  6
CONTINUOUS
 10
-16.235
 20
13.485
 11
-16.235
 21
10.485
  0
LINE
  5
3CB
100
AcDbEntity
  8
0
100
AcDbLine
 62
7
  6
CONTINUOUS
 10
-16.135
 20
45.885
 11
-16.135
 21
45.685
  0
LINE
  5
3CC
100
AcDbEntity
  8
DRAFT
100
AcDbLine
 62
7
  6
CONTINUOUS
 10
-16.135
 20
45.885
 11
-16.135
 21
45.685
  0
LINE
  5
3CD
100
AcDbEntity
  8
0
100
AcDbLine
 62
7
  6
CONTINUOUS
 10
-16.135
 20
6.285
 11
-16.135
 21
6.085
  0
LINE
  5
3CE
100
AcDbEntity
  8
DRAFT
100
AcDbLine
 62
7
  6
CONTINUOUS
 10
-16.135
 20
6.285
 11
-16.135
 21
6.085
  0
LINE
  5
3CF
100
AcDbEntity
  8
DRAFT
100
AcDbLine
 62
7
  6
CONTINUOUS
 10
-16.135
 20
5.985
 11
-16.135
 21
5.9404929743
  0
LINE
  5
3D0
100
AcDbEntity
  8
ASSI
100
AcDbLine
 62
7
  6
CONTINUOUS
 10
-16.135
 20
2.1908178298
 11
-16.135
 21
3.6510801048
  0
LINE
  5
3D1
100
AcDbEntity
  8
DRAFT
100
AcDbLine
 62
7
  6
CONTINUOUS
 10
-16.135
 20
45.985
 11
-16.135
 21
46.0295070257
  0
LINE
  5
3D2
100
AcDbEntity
  8
ASSI
100
AcDbLine
 62
7
  6
CONTINUOUS
 10
-16.135
 20
48.3189198952
 11
-16.135
 21
49.7791821702
  0
LINE
  5
3D3
100
AcDbEntity
  8
0
100
AcDbLine
 62
7
  6
CONTINUOUS
 10
-16.0983443637
 20
45.8483443637
 11
-16.0983443637
 21
45.6483443637
  0
LINE
  5
3D4
100
AcDbEntity
  8
DRAFT
100
AcDbLine
 62
7
  6
CONTINUOUS
 10
-16.0983443637
 20
45.8483443637
 11
-16.0983443637
 21
45.6483443637
  0
LINE
  5
3D5
100
AcDbEntity
  8
0
100
AcDbLine
 62
7
  6
CONTINUOUS
 10
-16.0983443637
 20
6.3216556363
 11
-16.0983443637
 21
6.1216556363
  0
LINE
  5
3D6
100
AcDbEntity
  8
DRAFT
100
AcDbLine
 62
7
  6
CONTINUOUS
 10
-16.0983443637
 20
6.3216556363
 11
-16.0983443637
 21
6.1216556363
  0
LINE
  5
3D7
100
AcDbEntity
  8
CURVE
100
AcDbLine
 62
253
  6
CONTINUOUS
 10
-18.7707142918
 20
26.485
 11
-18.635
 21
26.6207142918
  0
LINE
  5
3D8
100
AcDbEntity
  8
CURVE
100
AcDbLine
 62
253
  6
CONTINUOUS
 10
-22.935
 20
20.8111903286
 11
-22.7492857254
 21
20.9969045258
  0
LINE
  5
3D9
100
AcDbEntity
  8
CURVE
100
AcDbLine
 62
253
  6
CONTINUOUS
 10
-22.5725
 20
26.1725
 11
-22.4475
 21
26.235
  0
LINE
  5
3DA
100
AcDbEntity
  8
CURVE
100
AcDbLine
 62
253
  6
CONTINUOUS
 10
-22.5635714507
 20
21.0897619343
 11
-22.006428588
 21
21.0897619343
  0
LINE
  5
3DB
100
AcDbEntity
  8
CURVE
100
AcDbLine
 62
253
  6
CONTINUOUS
 10
-18.635
 20
21.385
 11
-20.535
 21
21.385
  0
LINE
  5
3DC
100
AcDbEntity
  8
CURVE
100
AcDbLine
 62
253
  6
CONTINUOUS
 10
-21.635
 20
21.4611903286
 11
-22.935
 21
21.4611903286
  0
LINE
  5
3DD
100
AcDbEntity
  8
CURVE
100
AcDbLine
 62
7
  6
CONTINUOUS
 10
-1.5339054602
 20
21.661604
 11
-1.5196076076
 21
21.661604
  0
LINE
  5
3DE
100
AcDbEntity
  8
CURVE
100
AcDbLine
 62
7
  6
CONTINUOUS
 10
-1.5618022857
 20
21.661604
 11
-1.5423150698
 21
21.661604
  0
LINE
  5
3DF
100
AcDbEntity
  8
CURVE
100
AcDbLine
 62
253
  6
CONTINUOUS
 10
-22.935
 20
22.1111903286
 11
-21.635
 21
22.1111903286
  0
LINE
  5
3E0
100
AcDbEntity
  8
CURVE
100
AcDbLine
 62
7
  6
CONTINUOUS
 10
-1.511197998
 20
22.28421
 11
-1.5618022857
 21
22.28421
  0
LINE
  5
3E1
100
AcDbEntity
  8
CURVE
100
AcDbLine
 62
253
  6
CONTINUOUS
 10
-18.635
 20
22.335
 11
-20.535
 21
22.335
  0
LINE
  5
3E2
100
AcDbEntity
  8
CURVE
100
AcDbLine
 62
253
  6
CONTINUOUS
 10
-20.2635714447
 20
26.485
 11
-20.535
 21
26.7564285836
  0
LINE
  5
3E3
100
AcDbEntity
  8
SMUSSO
100
AcDbLine
 62
7
  6
CONTINUOUS
 10
-17.385
 20
24.235
 11
-16.885
 21
23.735
  0
LINE
  5
3E4
100
AcDbEntity
  8
ASSI
100
AcDbLine
 62
7
  6
CONTINUOUS
 10
-17.385
 20
24.235
 11
-16.885
 21
23.735
  0
LINE
  5
3E5
100
AcDbEntity
  8
SMUSSO
100
AcDbLine
 62
7
  6
CONTINUOUS
 10
-12.385
 20
19.735
 11
-12.885
 21
20.235
  0
LINE
  5
3E6
100
AcDbEntity
  8
ASSI
100
AcDbLine
 62
7
  6
CONTINUOUS
 10
-12.385
 20
19.735
 11
-12.885
 21
20.235
  0
LINE
  5
3E7
100
AcDbEntity
  8
CURVE
100
AcDbLine
 62
253
  6
CONTINUOUS
 10
-18.635
 20
27.1635714447
 11
-18.9064285836
 21
27.435
  0
LINE
  5
3E8
100
AcDbEntity
  8
0
100
AcDbLine
 62
7
  6
CONTINUOUS
 10
-10.6539886151
 20
7.785
 11
-10.6444276524
 21
7.7533825015
  0
LINE
  5
3E9
100
AcDbEntity
  8
RACCORDO
100
AcDbLine
 62
7
  6
CONTINUOUS
 10
-10.6539886151
 20
7.785
 11
-10.6444276524
 21
7.7533825015
  0
LINE
  5
3EA
100
AcDbEntity
  8
0
100
AcDbLine
 62
253
  6
CONTINUOUS
 10
-14.1360081978
 20
5.9328490078
 11
-14.1365242349
 21
6.1005133204
  0
LINE
  5
3EB
100
AcDbEntity
  8
RACCORDO
100
AcDbLine
 62
7
  6
CONTINUOUS
 10
-15.635
 20
3.6469607613
 11
-15.635
 21
4.985
  0
LINE
  5
3EC
100
AcDbEntity
  8
RACCORDO
100
AcDbLine
 62
7
  6
CONTINUOUS
 10
-15.635
 20
46.985
 11
-15.635
 21
48.3230392387
  0
LINE
  5
3ED
100
AcDbEntity
  8
0
100
AcDbLine
 62
7
  6
CONTINUOUS
 10
-15.135
 20
7.685
 11
-15.135
 21
9.385
  0
LINE
  5
3EE
100
AcDbEntity
  8
ASSI
100
AcDbLine
 62
7
  6
CONTINUOUS
 10
-15.135
 20
7.685
 11
-15.135
 21
9.385
  0
LINE
  5
3EF
100
AcDbEntity
  8
0
100
AcDbLine
 62
7
  6
CONTINUOUS
 10
-15.135
 20
42.585
 11
-15.135
 21
44.285
  0
LINE
  5
3F0
100
AcDbEntity
  8
ASSI
100
AcDbLine
 62
7
  6
CONTINUOUS
 10
-15.135
 20
42.585
 11
-15.135
 21
44.285
  0
LINE
  5
3F1
100
AcDbEntity
  8
0
100
AcDbLine
 62
253
  6
CONTINUOUS
 10
-14.7814466094
 20
7.685
 11
-14.7814466094
 21
7.7524599833
  0
LINE
  5
3F2
100
AcDbEntity
  8
RACCORDO
100
AcDbLine
 62
253
  6
CONTINUOUS
 10
-14.7814466094
 20
7.685
 11
-14.7814466094
 21
7.7524599833
  0
LINE
  5
3F3
100
AcDbEntity
  8
0
100
AcDbLine
 62
7
  6
CONTINUOUS
 10
-14.735
 20
7.785
 11
-14.735
 21
7.752818798
  0
LINE
  5
3F4
100
AcDbEntity
  8
0
100
AcDbLine
 62
7
  6
CONTINUOUS
 10
-14.635
 20
7.7519514111
 11
-14.635
 21
7.785
  0
LINE
  5
3F5
100
AcDbEntity
  8
RACCORDO
100
AcDbLine
 62
7
  6
CONTINUOUS
 10
-14.635
 20
7.7519514111
 11
-14.635
 21
7.785
  0
LINE
  5
3F6
100
AcDbEntity
  8
RACCORDO
100
AcDbLine
 62
7
  6
CONTINUOUS
 10
-14.6175893107
 20
44.285
 11
-14.6175893107
 21
44.185
  0
LINE
  5
3F7
100
AcDbEntity
  8
ASSI
100
AcDbLine
 62
7
  6
CONTINUOUS
 10
-14.6175893107
 20
44.285
 11
-14.6175893107
 21
44.185
  0
LINE
  5
3F8
100
AcDbEntity
  8
RACCORDO
100
AcDbLine
 62
7
  6
CONTINUOUS
 10
-14.5390044543
 20
7.785
 11
-14.5390044543
 21
7.685
  0
LINE
  5
3F9
100
AcDbEntity
  8
ASSI
100
AcDbLine
 62
7
  6
CONTINUOUS
 10
-14.5390044543
 20
7.785
 11
-14.5390044543
 21
7.685
  0
LINE
  5
3FA
100
AcDbEntity
  8
0
100
AcDbLine
 62
253
  6
CONTINUOUS
 10
-14.335
 20
8.6690320816
 11
-14.335
 21
8.735
  0
LINE
  5
3FB
100
AcDbEntity
  8
RACCORDO
100
AcDbLine
 62
253
  6
CONTINUOUS
 10
-14.335
 20
8.6690320816
 11
-14.335
 21
8.735
  0
LINE
  5
3FC
100
AcDbEntity
  8
0
100
AcDbLine
 62
253
  6
CONTINUOUS
 10
-14.335
 20
43.235
 11
-14.335
 21
43.285
  0
LINE
  5
3FD
100
AcDbEntity
  8
RACCORDO
100
AcDbLine
 62
253
  6
CONTINUOUS
 10
-14.335
 20
43.235
 11
-14.335
 21
43.285
  0
LINE
  5
3FE
100
AcDbEntity
  8
0
100
AcDbLine
 62
253
  6
CONTINUOUS
 10
-14.1365242349
 20
45.8694866796
 11
-14.1360081978
 21
46.0371509922
  0
LINE
  5
3FF
100
AcDbEntity
  8
0
100
AcDbLine
 62
253
  6
CONTINUOUS
 10
-10.6394526381
 20
43.488941282
 11
-10.6527535542
 21
43.4440629059
  0
LINE
  5
400
100
AcDbEntity
  8
RACCORDO
100
AcDbLine
 62
253
  6
CONTINUOUS
 10
-10.6394526381
 20
43.488941282
 11
-10.6527535542
 21
43.4440629059
  0
LINE
  5
401
100
AcDbEntity
  8
DRAFT
100
AcDbLine
 62
7
  6
CONTINUOUS
 10
-22.2588174026
 20
5.1636116689
 11
-22.285
 21
5.085
  0
LINE
  5
402
100
AcDbEntity
  8
CURVE
100
AcDbLine
 62
253
  6
CONTINUOUS
 10
-22.1302381045
 20
16.60166677
 11
-21.9445238104
 21
16.8492858028
  0
LINE
  5
403
100
AcDbEntity
  8
CURVE
100
AcDbLine
 62
253
  6
CONTINUOUS
 10
-21.635
 20
20.71833354
 11
-21.820714294
 21
20.5326193428
  0
LINE
  5
404
100
AcDbEntity
  8
CURVE
100
AcDbLine
 62
253
  6
CONTINUOUS
 10
-22.1921428627
 20
20.06833354
 11
-22.3778571761
 21
19.8826193428
  0
LINE
  5
405
100
AcDbEntity
  8
SMUSSO
100
AcDbLine
 62
7
  6
CONTINUOUS
 10
-12.385
 20
29.485
 11
-12.885
 21
28.985
  0
LINE
  5
406
100
AcDbEntity
  8
ASSI
100
AcDbLine
 62
7
  6
CONTINUOUS
 10
-12.385
 20
29.485
 11
-12.885
 21
28.985
  0
LINE
  5
407
100
AcDbEntity
  8
SMUSSO
100
AcDbLine
 62
7
  6
CONTINUOUS
 10
-17.385
 20
24.485
 11
-16.885
 21
24.985
  0
LINE
  5
408
100
AcDbEntity
  8
ASSI
100
AcDbLine
 62
7
  6
CONTINUOUS
 10
-17.385
 20
24.485
 11
-16.885
 21
24.985
  0
LINE
  5
409
100
AcDbEntity
  8
CURVE
100
AcDbLine
 62
253
  6
CONTINUOUS
 10
-21.820714294
 20
19.41833354
 11
-21.635
 21
19.6040477371
  0
LINE
  5
40A
100
AcDbEntity
  8
CURVE
100
AcDbLine
 62
253
  6
CONTINUOUS
 10
-21.5725
 20
25.985
 11
-21.385
 21
26.0475
  0
LINE
  5
40B
100
AcDbEntity
  8
0
100
AcDbLine
 62
7
  6
CONTINUOUS
 10
-13.235
 20
23.485
 11
-16.235
 21
23.485
  0
LINE
  5
40C
100
AcDbEntity
  8
SMUSSO
100
AcDbLine
 62
7
  6
CONTINUOUS
 10
-16.885
 20
23.735
 11
-12.885
 21
23.735
  0
LINE
  5
40D
100
AcDbEntity
  8
ASSI
100
AcDbLine
 62
7
  6
CONTINUOUS
 10
-16.885
 20
23.735
 11
-12.885
 21
23.735
  0
LINE
  5
40E
100
AcDbEntity
  8
RACCORDO
100
AcDbLine
 62
7
  6
CONTINUOUS
 10
-1.9219211218
 20
24.135
 11
-2.835
 21
24.135
  0
LINE
  5
40F
100
AcDbEntity
  8
ASSI
100
AcDbLine
 62
7
  6
CONTINUOUS
 10
-1.9219211218
 20
24.135
 11
-2.835
 21
24.135
  0
LINE
  5
410
100
AcDbEntity
  8
CURVE
100
AcDbLine
 62
253
  6
CONTINUOUS
 10
-1.5889664778
 20
24.1611903435
 11
-1.6019311231
 21
24.1611903435
  0
LINE
  5
411
100
AcDbEntity
  8
SMUSSO
100
AcDbLine
 62
7
  6
CONTINUOUS
 10
-17.385
 20
24.235
 11
-12.385
 21
24.235
  0
LINE
  5
412
100
AcDbEntity
  8
ASSI
100
AcDbLine
 62
7
  6
CONTINUOUS
 10
-17.385
 20
24.235
 11
-12.385
 21
24.235
  0
LINE
  5
413
100
AcDbEntity
  8
CURVE
100
AcDbLine
 62
253
  6
CONTINUOUS
 10
-22.8225
 20
26.235
 11
-22.635
 21
26.1725
  0
LINE
  5
414
100
AcDbEntity
  8
CURVE
100
AcDbLine
 62
253
  6
CONTINUOUS
 10
-21.9475
 20
26.0475
 11
-21.76
 21
25.985
  0
LINE
  5
415
100
AcDbEntity
  8
DRAFT
100
AcDbLine
 62
7
  6
CONTINUOUS
 10
-22.285
 20
46.885
 11
-22.2588174026
 21
46.8063883311
  0
LWPOLYLINE
  5
416
100
AcDbEntity
  8
0
100
AcDbPolyline
 62
253
  6
CONTINUOUS
 90
5
 70
0
 10
-10.6394526381
 20
8.481058718
 10
-10.6527535542
 20
8.5259370941
 10
-10.6746148244
 20
8.5682653304
 10
-10.704540065
 20
8.6067864217
 10
-10.7416778093
 20
8.6401858291
  0
LWPOLYLINE
  5
417
100
AcDbEntity
  8
RACCORDO
100
AcDbPolyline
 62
253
  6
CONTINUOUS
 90
5
 70
0
 10
-10.6394526381
 20
8.481058718
 10
-10.6527535542
 20
8.5259370941
 10
-10.6746148244
 20
8.5682653304
 10
-10.704540065
 20
8.6067864217
 10
-10.7416778093
 20
8.6401858291
  0
LINE
  5
418
100
AcDbEntity
  8
0
100
AcDbLine
 62
7
  6
CONTINUOUS
 10
-13.235
 20
10.485
 11
-13.235
 21
13.485
  0
LINE
  5
419
100
AcDbEntity
  8
0
100
AcDbLine
 62
7
  6
CONTINUOUS
 10
-13.235
 20
15.485
 11
-13.235
 21
18.485
  0
LINE
  5
41A
100
AcDbEntity
  8
0
100
AcDbLine
 62
7
  6
CONTINUOUS
 10
-13.235
 20
20.485
 11
-13.235
 21
23.485
  0
LINE
  5
41B
100
AcDbEntity
  8
0
100
AcDbLine
 62
7
  6
CONTINUOUS
 10
-13.235
 20
25.485
 11
-13.235
 21
28.485
  0
LINE
  5
41C
100
AcDbEntity
  8
SMUSSO
100
AcDbLine
 62
7
  6
CONTINUOUS
 10
-12.885
 20
28.985
 11
-12.885
 21
24.985
  0
LINE
  5
41D
100
AcDbEntity
  8
ASSI
100
AcDbLine
 62
7
  6
CONTINUOUS
 10
-12.885
 20
28.985
 11
-12.885
 21
24.985
  0
LINE
  5
41E
100
AcDbEntity
  8
SMUSSO
100
AcDbLine
 62
7
  6
CONTINUOUS
 10
-12.885
 20
23.735
 11
-12.885
 21
20.235
  0
LINE
  5
41F
100
AcDbEntity
  8
ASSI
100
AcDbLine
 62
7
  6
CONTINUOUS
 10
-12.885
 20
23.735
 11
-12.885
 21
20.235
  0
LINE
  5
420
100
AcDbEntity
  8
SMUSSO
100
AcDbLine
 62
7
  6
CONTINUOUS
 10
-12.885
 20
18.735
 11
-12.885
 21
15.235
  0
LINE
  5
421
100
AcDbEntity
  8
ASSI
100
AcDbLine
 62
7
  6
CONTINUOUS
 10
-12.885
 20
18.735
 11
-12.885
 21
15.235
  0
LINE
  5
422
100
AcDbEntity
  8
SMUSSO
100
AcDbLine
 62
7
  6
CONTINUOUS
 10
-12.885
 20
13.735
 11
-12.885
 21
10.235
  0
LINE
  5
423
100
AcDbEntity
  8
ASSI
100
AcDbLine
 62
7
  6
CONTINUOUS
 10
-12.885
 20
13.735
 11
-12.885
 21
10.235
  0
LWPOLYLINE
  5
424
100
AcDbEntity
  8
ASSI
100
AcDbPolyline
 62
7
  6
CONTINUOUS
 90
17
 70
0
 10
-16.9909327327
 20
2.2342265753
 10
-16.9905066314
 20
2.2370119703
 10
-16.9894093029
 20
2.2404618577
 10
-16.9876217143
 20
2.2445762375
 10
-16.985124195
 20
2.249342168
 10
-16.9819006534
 20
2.2547725909
 10
-16.9779426829
 20
2.2609063311
 10
-16.9732403763
 20
2.2677504679
 10
-16.9677837712
 20
2.2752979219
 10
-16.9615725949
 20
2.28356628
 10
-16.9546191733
 20
2.2925362411
 10
-16.9469084242
 20
2.3022271063
 10
-16.9383924483
 20
2.3127143663
 10
-16.9290570925
 20
2.3239974299
 10
-16.9188985218
 20
2.3360768882
 10
-16.907867965
 20
2.3490300055
 10
-16.8959530912
 20
2.3628585343
  0
LINE
  5
425
100
AcDbEntity
  8
CURVE
100
AcDbLine
 62
253
  6
CONTINUOUS
 10
-22.7492857254
 20
20.9969045258
 11
-22.5635714507
 21
21.0897619343
  0
LINE
  5
426
100
AcDbEntity
  8
SMUSSO
100
AcDbLine
 62
7
  6
CONTINUOUS
 10
-12.385
 20
24.485
 11
-17.385
 21
24.485
  0
LINE
  5
427
100
AcDbEntity
  8
ASSI
100
AcDbLine
 62
7
  6
CONTINUOUS
 10
-12.385
 20
24.485
 11
-17.385
 21
24.485
  0
LINE
  5
428
100
AcDbEntity
  8
CURVE
100
AcDbLine
 62
253
  6
CONTINUOUS
 10
-1.5425929412
 20
24.7504761624
 11
-1.5199048129
 21
24.7504761624
  0
LINE
  5
429
100
AcDbEntity
  8
RACCORDO
100
AcDbLine
 62
7
  6
CONTINUOUS
 10
-1.9219211218
 20
24.835
 11
-2.835
 21
24.835
  0
LINE
  5
42A
100
AcDbEntity
  8
ASSI
100
AcDbLine
 62
7
  6
CONTINUOUS
 10
-1.9219211218
 20
24.835
 11
-2.835
 21
24.835
  0
LINE
  5
42B
100
AcDbEntity
  8
SMUSSO
100
AcDbLine
 62
7
  6
CONTINUOUS
 10
-12.885
 20
24.985
 11
-16.885
 21
24.985
  0
LINE
  5
42C
100
AcDbEntity
  8
ASSI
100
AcDbLine
 62
7
  6
CONTINUOUS
 10
-12.885
 20
24.985
 11
-16.885
 21
24.985
  0
LINE
  5
42D
100
AcDbEntity
  8
CURVE
100
AcDbLine
 62
253
  6
CONTINUOUS
 10
-1.5231459739
 20
25.250357269
 11
-1.5393517799
 21
25.250357269
  0
LINE
  5
42E
100
AcDbEntity
  8
CURVE
100
AcDbLine
 62
253
  6
CONTINUOUS
 10
-1.5792429948
 20
25.3683332449
 11
-1.6019311231
 21
25.3683332449
  0
LINE
  5
42F
100
AcDbEntity
  8
0
100
AcDbLine
 62
7
  6
CONTINUOUS
 10
-16.235
 20
25.485
 11
-13.235
 21
25.485
  0
LINE
  5
430
100
AcDbEntity
  8
CURVE
100
AcDbLine
 62
253
  6
CONTINUOUS
 10
-1.5722620322
 20
25.5469046956
 11
-1.5495739038
 21
25.5469046956
  0
LINE
  5
431
100
AcDbEntity
  8
CURVE
100
AcDbLine
 62
253
  6
CONTINUOUS
 10
-1.5425929412
 20
25.8678571218
 11
-1.5199048129
 21
25.8678571218
  0
LINE
  5
432
100
AcDbEntity
  8
CURVE
100
AcDbLine
 62
253
  6
CONTINUOUS
 10
-21.76
 20
25.985
 11
-21.5725
 21
25.985
  0
LINE
  5
433
100
AcDbEntity
  8
CURVE
100
AcDbLine
 62
253
  6
CONTINUOUS
 10
-22.635
 20
26.1725
 11
-22.5725
 21
26.1725
  0
LINE
  5
434
100
AcDbEntity
  8
CURVE
100
AcDbLine
 62
253
  6
CONTINUOUS
 10
-1.5722620322
 20
26.1969047731
 11
-1.5495739038
 21
26.1969047731
  0
LWPOLYLINE
  5
435
100
AcDbEntity
  8
CURVE
100
AcDbPolyline
 62
7
  6
CONTINUOUS
 90
15
 70
0
 10
-1.5267565377
 20
20.8662401141
 10
-1.5269853052
 20
20.8663354797
 10
-1.5272145714
 20
20.866634204
 10
-1.5274440938
 20
20.8671552283
 10
-1.5276736302
 20
20.8679174939
 10
-1.5279029382
 20
20.8689399421
 10
-1.5281317756
 20
20.8702415141
 10
-1.5283599
 20
20.8718411512
 10
-1.5285870691
 20
20.8737577948
 10
-1.5288130406
 20
20.8760103861
 10
-1.5290375722
 20
20.8786178664
 10
-1.5292604215
 20
20.881599177
 10
-1.5294813463
 20
20.8849732592
 10
-1.5297001042
 20
20.8887590542
 10
-1.5299025523
 20
20.8926858621
  0
LINE
  5
436
100
AcDbEntity
  8
SMUSSO
100
AcDbLine
 62
7
  6
CONTINUOUS
 10
-17.385
 20
29.485
 11
-16.885
 21
28.985
  0
LINE
  5
437
100
AcDbEntity
  8
ASSI
100
AcDbLine
 62
7
  6
CONTINUOUS
 10
-17.385
 20
29.485
 11
-16.885
 21
28.985
  0
LINE
  5
438
100
AcDbEntity
  8
SMUSSO
100
AcDbLine
 62
7
  6
CONTINUOUS
 10
-12.385
 20
24.485
 11
-12.885
 21
24.985
  0
LINE
  5
439
100
AcDbEntity
  8
ASSI
100
AcDbLine
 62
7
  6
CONTINUOUS
 10
-12.385
 20
24.485
 11
-12.885
 21
24.985
  0
LINE
  5
43A
100
AcDbEntity
  8
0
100
AcDbLine
 62
253
  6
CONTINUOUS
 10
-11.1339918022
 20
46.0371509922
 11
-11.1334757651
 21
45.8694866796
  0
LINE
  5
43B
100
AcDbEntity
  8
SMUSSO
100
AcDbLine
 62
7
  6
CONTINUOUS
 10
-12.385
 20
29.485
 11
-12.385
 21
24.485
  0
LINE
  5
43C
100
AcDbEntity
  8
ASSI
100
AcDbLine
 62
7
  6
CONTINUOUS
 10
-12.385
 20
29.485
 11
-12.385
 21
24.485
  0
LINE
  5
43D
100
AcDbEntity
  8
SMUSSO
100
AcDbLine
 62
7
  6
CONTINUOUS
 10
-12.385
 20
24.235
 11
-12.385
 21
19.735
  0
LINE
  5
43E
100
AcDbEntity
  8
ASSI
100
AcDbLine
 62
7
  6
CONTINUOUS
 10
-12.385
 20
24.235
 11
-12.385
 21
19.735
  0
LINE
  5
43F
100
AcDbEntity
  8
SMUSSO
100
AcDbLine
 62
7
  6
CONTINUOUS
 10
-12.385
 20
19.235
 11
-12.385
 21
14.735
  0
LINE
  5
440
100
AcDbEntity
  8
ASSI
100
AcDbLine
 62
7
  6
CONTINUOUS
 10
-12.385
 20
19.235
 11
-12.385
 21
14.735
  0
LINE
  5
441
100
AcDbEntity
  8
SMUSSO
100
AcDbLine
 62
7
  6
CONTINUOUS
 10
-12.385
 20
14.235
 11
-12.385
 21
9.735
  0
LINE
  5
442
100
AcDbEntity
  8
ASSI
100
AcDbLine
 62
7
  6
CONTINUOUS
 10
-12.385
 20
14.235
 11
-12.385
 21
9.735
  0
LINE
  5
443
100
AcDbEntity
  8
0
100
AcDbLine
 62
253
  6
CONTINUOUS
 10
-10.935
 20
43.285
 11
-10.935
 21
43.235
  0
LINE
  5
444
100
AcDbEntity
  8
RACCORDO
100
AcDbLine
 62
253
  6
CONTINUOUS
 10
-10.935
 20
43.285
 11
-10.935
 21
43.235
  0
LINE
  5
445
100
AcDbEntity
  8
0
100
AcDbLine
 62
253
  6
CONTINUOUS
 10
-10.935
 20
8.6690320816
 11
-10.935
 21
8.735
  0
LINE
  5
446
100
AcDbEntity
  8
RACCORDO
100
AcDbLine
 62
253
  6
CONTINUOUS
 10
-10.935
 20
8.6690320816
 11
-10.935
 21
8.735
  0
LINE
  5
447
100
AcDbEntity
  8
RACCORDO
100
AcDbLine
 62
7
  6
CONTINUOUS
 10
-10.7309955457
 20
7.785
 11
-10.7309955457
 21
7.685
  0
LINE
  5
448
100
AcDbEntity
  8
ASSI
100
AcDbLine
 62
7
  6
CONTINUOUS
 10
-10.7309955457
 20
7.785
 11
-10.7309955457
 21
7.685
  0
LINE
  5
449
100
AcDbEntity
  8
RACCORDO
100
AcDbLine
 62
7
  6
CONTINUOUS
 10
-10.6524106893
 20
44.285
 11
-10.6524106893
 21
44.185
  0
LINE
  5
44A
100
AcDbEntity
  8
ASSI
100
AcDbLine
 62
7
  6
CONTINUOUS
 10
-10.6524106893
 20
44.285
 11
-10.6524106893
 21
44.185
  0
LINE
  5
44B
100
AcDbEntity
  8
0
100
AcDbLine
 62
7
  6
CONTINUOUS
 10
-10.635
 20
7.785
 11
-10.635
 21
7.7519514111
  0
LINE
  5
44C
100
AcDbEntity
  8
RACCORDO
100
AcDbLine
 62
7
  6
CONTINUOUS
 10
-10.635
 20
7.785
 11
-10.635
 21
7.7519514111
  0
LINE
  5
44D
100
AcDbEntity
  8
0
100
AcDbLine
 62
253
  6
CONTINUOUS
 10
-11.1334757651
 20
6.1005133204
 11
-11.1339918022
 21
5.9328490078
  0
LWPOLYLINE
  5
44E
100
AcDbEntity
  8
ASSI
100
AcDbPolyline
 62
7
  6
CONTINUOUS
 90
18
 70
0
 10
-8.2790672673
 20
49.7357734247
 10
-8.2794941885
 20
49.7329814955
 10
-8.2805922995
 20
49.7295314173
 10
-8.2823785628
 20
49.7254231902
 10
-8.284869986
 20
49.7206694746
 10
-8.2880808427
 20
49.71525761
 10
-8.2920199729
 20
49.7091496156
 10
-8.2966959275
 20
49.7023410493
 10
-8.302118236
 20
49.6948363532
 10
-8.3082921787
 20
49.6866108734
 10
-8.3152073069
 20
49.6776849926
 10
-8.3228792388
 20
49.6680383283
 10
-8.3313619746
 20
49.657585078
 10
-8.3406760669
 20
49.6463209741
 10
-8.350824122
 20
49.6342502843
 10
-8.3618492444
 20
49.6213000104
 10
-8.3737622883
 20
49.6074696064
 10
-8.3865716601
 20
49.5927596184
  0
LINE
  5
44F
100
AcDbEntity
  8
CURVE
100
AcDbLine
 62
253
  6
CONTINUOUS
 10
-20.535
 20
17.1635714447
 11
-20.2635714447
 21
17.435
  0
LINE
  5
450
100
AcDbEntity
  8
CURVE
100
AcDbLine
 62
253
  6
CONTINUOUS
 10
-22.935
 20
14.6207143521
 11
-22.7492857254
 21
14.8064285493
  0
LINE
  5
451
100
AcDbEntity
  8
SMUSSO
100
AcDbLine
 62
7
  6
CONTINUOUS
 10
-17.385
 20
19.735
 11
-16.885
 21
20.235
  0
LINE
  5
452
100
AcDbEntity
  8
ASSI
100
AcDbLine
 62
7
  6
CONTINUOUS
 10
-17.385
 20
19.735
 11
-16.885
 21
20.235
  0
LINE
  5
453
100
AcDbEntity
  8
CURVE
100
AcDbLine
 62
253
  6
CONTINUOUS
 10
-22.7492857254
 20
13.8778570986
 11
-22.935
 21
13.6921428239
  0
LINE
  5
454
100
AcDbEntity
  8
SMUSSO
100
AcDbLine
 62
7
  6
CONTINUOUS
 10
-12.385
 20
24.235
 11
-12.885
 21
23.735
  0
LINE
  5
455
100
AcDbEntity
  8
ASSI
100
AcDbLine
 62
7
  6
CONTINUOUS
 10
-12.385
 20
24.235
 11
-12.885
 21
23.735
  0
LINE
  5
456
100
AcDbEntity
  8
CURVE
100
AcDbLine
 62
253
  6
CONTINUOUS
 10
-21.635
 20
14.5278570986
 11
-21.820714294
 21
14.3421429014
  0
LINE
  5
457
100
AcDbEntity
  8
CURVE
100
AcDbLine
 62
253
  6
CONTINUOUS
 10
-20.535
 20
21.385
 11
-18.635
 21
22.335
  0
LINE
  5
458
100
AcDbEntity
  8
CURVE
100
AcDbLine
 62
253
  6
CONTINUOUS
 10
-21.820714294
 20
20.5326193428
 11
-22.006428588
 21
20.4397619343
  0
LINE
  5
459
100
AcDbEntity
  8
CURVE
100
AcDbLine
 62
253
  6
CONTINUOUS
 10
-19.9921428895
 20
26.485
 11
-20.2635714447
 21
26.485
  0
LINE
  5
45A
100
AcDbEntity
  8
CURVE
100
AcDbLine
 62
253
  6
CONTINUOUS
 10
-1.5722620322
 20
26.7849999955
 11
-1.5495739038
 21
26.7849999955
  0
LINE
  5
45B
100
AcDbEntity
  8
CURVE
100
AcDbLine
 62
253
  6
CONTINUOUS
 10
-1.6019311231
 20
27.2254762238
 11
-1.5792429948
 21
27.2254762238
  0
LINE
  5
45C
100
AcDbEntity
  8
CURVE
100
AcDbLine
 62
253
  6
CONTINUOUS
 10
-1.5199048129
 20
27.2792856827
 11
-1.5425929412
 21
27.2792856827
  0
LINE
  5
45D
100
AcDbEntity
  8
CURVE
100
AcDbLine
 62
253
  6
CONTINUOUS
 10
-18.9064285836
 20
27.435
 11
-19.1778571671
 21
27.435
  0
LINE
  5
45E
100
AcDbEntity
  8
CURVE
100
AcDbLine
 62
253
  6
CONTINUOUS
 10
-1.5425929412
 20
27.985
 11
-1.5199048129
 21
27.985
  0
LINE
  5
45F
100
AcDbEntity
  8
0
100
AcDbLine
 62
7
  6
CONTINUOUS
 10
-10.535
 20
7.785
 11
-10.535
 21
7.752818798
  0
LINE
  5
460
100
AcDbEntity
  8
0
100
AcDbLine
 62
253
  6
CONTINUOUS
 10
-10.4885533906
 20
7.7524599833
 11
-10.4885533906
 21
7.685
  0
LINE
  5
461
100
AcDbEntity
  8
RACCORDO
100
AcDbLine
 62
253
  6
CONTINUOUS
 10
-10.4885533906
 20
7.7524599833
 11
-10.4885533906
 21
7.685
  0
LINE
  5
462
100
AcDbEntity
  8
0
100
AcDbLine
 62
7
  6
CONTINUOUS
 10
-10.135
 20
44.285
 11
-10.135
 21
42.585
  0
LINE
  5
463
100
AcDbEntity
  8
ASSI
100
AcDbLine
 62
7
  6
CONTINUOUS
 10
-10.135
 20
44.285
 11
-10.135
 21
42.585
  0
LINE
  5
464
100
AcDbEntity
  8
0
100
AcDbLine
 62
7
  6
CONTINUOUS
 10
-10.135
 20
9.385
 11
-10.135
 21
7.685
  0
LINE
  5
465
100
AcDbEntity
  8
ASSI
100
AcDbLine
 62
7
  6
CONTINUOUS
 10
-10.135
 20
9.385
 11
-10.135
 21
7.685
  0
LINE
  5
466
100
AcDbEntity
  8
RACCORDO
100
AcDbLine
 62
7
  6
CONTINUOUS
 10
-9.635
 20
3.6469607613
 11
-9.635
 21
4.985
  0
LINE
  5
467
100
AcDbEntity
  8
RACCORDO
100
AcDbLine
 62
7
  6
CONTINUOUS
 10
-9.635
 20
46.985
 11
-9.635
 21
48.3230392387
  0
LINE
  5
468
100
AcDbEntity
  8
0
100
AcDbLine
 62
7
  6
CONTINUOUS
 10
-9.1716556363
 20
45.8483443637
 11
-9.1716556363
 21
45.6483443637
  0
LINE
  5
469
100
AcDbEntity
  8
DRAFT
100
AcDbLine
 62
7
  6
CONTINUOUS
 10
-9.1716556363
 20
45.8483443637
 11
-9.1716556363
 21
45.6483443637
  0
LINE
  5
46A
100
AcDbEntity
  8
0
100
AcDbLine
 62
7
  6
CONTINUOUS
 10
-9.1716556363
 20
6.3216556363
 11
-9.1716556363
 21
6.1216556363
  0
LINE
  5
46B
100
AcDbEntity
  8
DRAFT
100
AcDbLine
 62
7
  6
CONTINUOUS
 10
-9.1716556363
 20
6.3216556363
 11
-9.1716556363
 21
6.1216556363
  0
LINE
  5
46C
100
AcDbEntity
  8
DRAFT
100
AcDbLine
 62
7
  6
CONTINUOUS
 10
-9.135
 20
46.0295070257
 11
-9.135
 21
45.985
  0
LINE
  5
46D
100
AcDbEntity
  8
0
100
AcDbLine
 62
7
  6
CONTINUOUS
 10
-9.135
 20
45.885
 11
-9.135
 21
45.685
  0
LINE
  5
46E
100
AcDbEntity
  8
DRAFT
100
AcDbLine
 62
7
  6
CONTINUOUS
 10
-9.135
 20
45.885
 11
-9.135
 21
45.685
  0
LINE
  5
46F
100
AcDbEntity
  8
0
100
AcDbLine
 62
7
  6
CONTINUOUS
 10
-9.135
 20
6.285
 11
-9.135
 21
6.085
  0
LINE
  5
470
100
AcDbEntity
  8
DRAFT
100
AcDbLine
 62
7
  6
CONTINUOUS
 10
-9.135
 20
6.285
 11
-9.135
 21
6.085
  0
LINE
  5
471
100
AcDbEntity
  8
ASSI
100
AcDbLine
 62
7
  6
CONTINUOUS
 10
-9.135
 20
2.1908178298
 11
-9.135
 21
3.6510801048
  0
LINE
  5
472
100
AcDbEntity
  8
DRAFT
100
AcDbLine
 62
7
  6
CONTINUOUS
 10
-9.135
 20
5.9404929743
 11
-9.135
 21
5.985
  0
LINE
  5
473
100
AcDbEntity
  8
ASSI
100
AcDbLine
 62
7
  6
CONTINUOUS
 10
-9.135
 20
48.3189198952
 11
-9.135
 21
49.7791821702
  0
LWPOLYLINE
  5
474
100
AcDbEntity
  8
0
100
AcDbPolyline
 62
253
  6
CONTINUOUS
 90
5
 70
0
 10
-14.6305473619
 20
8.481058718
 10
-14.6172464458
 20
8.5259370941
 10
-14.5953851756
 20
8.5682653304
 10
-14.565459935
 20
8.6067864217
 10
-14.5283221907
 20
8.6401858291
  0
LWPOLYLINE
  5
475
100
AcDbEntity
  8
RACCORDO
100
AcDbPolyline
 62
253
  6
CONTINUOUS
 90
5
 70
0
 10
-14.6305473619
 20
8.481058718
 10
-14.6172464458
 20
8.5259370941
 10
-14.5953851756
 20
8.5682653304
 10
-14.565459935
 20
8.6067864217
 10
-14.5283221907
 20
8.6401858291
  0
LINE
  5
476
100
AcDbEntity
  8
0
100
AcDbLine
 62
7
  6
CONTINUOUS
 10
-14.6255723476
 20
7.7533825015
 11
-14.616003484
 21
7.785
  0
LINE
  5
477
100
AcDbEntity
  8
RACCORDO
100
AcDbLine
 62
7
  6
CONTINUOUS
 10
-14.6255723476
 20
7.7533825015
 11
-14.616003484
 21
7.785
  0
LINE
  5
478
100
AcDbEntity
  8
DRAFT
100
AcDbLine
 62
7
  6
CONTINUOUS
 10
-2.985
 20
46.885
 11
-3.0111825974
 21
46.8063883311
  0
LINE
  5
479
100
AcDbEntity
  8
CURVE
100
AcDbLine
 62
253
  6
CONTINUOUS
 10
-1.6019311231
 20
28.1849999955
 11
-1.5792429948
 21
28.1849999955
  0
LINE
  5
47A
100
AcDbEntity
  8
0
100
AcDbLine
 62
7
  6
CONTINUOUS
 10
-13.235
 20
28.485
 11
-16.235
 21
28.485
  0
LINE
  5
47B
100
AcDbEntity
  8
SMUSSO
100
AcDbLine
 62
7
  6
CONTINUOUS
 10
-16.885
 20
28.985
 11
-12.885
 21
28.985
  0
LINE
  5
47C
100
AcDbEntity
  8
ASSI
100
AcDbLine
 62
7
  6
CONTINUOUS
 10
-16.885
 20
28.985
 11
-12.885
 21
28.985
  0
LINE
  5
47D
100
AcDbEntity
  8
RACCORDO
100
AcDbLine
 62
7
  6
CONTINUOUS
 10
-1.9219211218
 20
29.135
 11
-2.835
 21
29.135
  0
LINE
  5
47E
100
AcDbEntity
  8
ASSI
100
AcDbLine
 62
7
  6
CONTINUOUS
 10
-1.9219211218
 20
29.135
 11
-2.835
 21
29.135
  0
LINE
  5
47F
100
AcDbEntity
  8
SMUSSO
100
AcDbLine
 62
7
  6
CONTINUOUS
 10
-17.385
 20
29.485
 11
-12.385
 21
29.485
  0
LINE
  5
480
100
AcDbEntity
  8
ASSI
100
AcDbLine
 62
7
  6
CONTINUOUS
 10
-17.385
 20
29.485
 11
-12.385
 21
29.485
  0
LINE
  5
481
100
AcDbEntity
  8
DRAFT
100
AcDbLine
 62
7
  6
CONTINUOUS
 10
-3.0111825974
 20
5.1636116689
 11
-2.985
 21
5.085
  0
LINE
  5
482
100
AcDbEntity
  8
0
100
AcDbLine
 62
253
  6
CONTINUOUS
 10
-14.6169077862
 20
43.4432263652
 11
-14.6304423259
 21
43.4884053045
  0
LINE
  5
483
100
AcDbEntity
  8
RACCORDO
100
AcDbLine
 62
253
  6
CONTINUOUS
 10
-14.6169077862
 20
43.4432263652
 11
-14.6304423259
 21
43.4884053045
  0
LINE
  5
484
100
AcDbEntity
  8
RACCORDO
100
AcDbLine
 62
7
  6
CONTINUOUS
 10
-8.6219096983
 20
45.2981017248
 11
-8.6219096983
 21
44.1980903017
  0
LINE
  5
485
100
AcDbEntity
  8
ASSI
100
AcDbLine
 62
7
  6
CONTINUOUS
 10
-8.6219096983
 20
45.2981017248
 11
-8.6219096983
 21
44.1980903017
  0
LINE
  5
486
100
AcDbEntity
  8
RACCORDO
100
AcDbLine
 62
7
  6
CONTINUOUS
 10
-8.6219096983
 20
6.6718982752
 11
-8.6219096983
 21
7.4719211214
  0
LINE
  5
487
100
AcDbEntity
  8
ASSI
100
AcDbLine
 62
7
  6
CONTINUOUS
 10
-8.6219096983
 20
6.6718982752
 11
-8.6219096983
 21
7.4719211214
  0
LINE
  5
488
100
AcDbEntity
  8
ASSI
100
AcDbLine
 62
253
  6
CONTINUOUS
 10
-8.2790672673
 20
2.2342265753
 11
-8.2790672673
 21
3.6511018331
  0
LINE
  5
489
100
AcDbEntity
  8
ASSI
100
AcDbLine
 62
253
  6
CONTINUOUS
 10
-8.2790672673
 20
48.3188981669
 11
-8.2790672673
 21
49.7357734247
  0
LINE
  5
48A
100
AcDbEntity
  8
DRAFT
100
AcDbLine
 62
7
  6
CONTINUOUS
 10
-8.235
 20
2.185
 11
-8.235
 21
3.585
  0
LINE
  5
48B
100
AcDbEntity
  8
DRAFT
100
AcDbLine
 62
7
  6
CONTINUOUS
 10
-8.235
 20
48.385
 11
-8.235
 21
49.785
  0
LINE
  5
48C
100
AcDbEntity
  8
ASSI
100
AcDbLine
 62
7
  6
CONTINUOUS
 10
-8.135
 20
44.585
 11
-8.135
 21
44.1980903017
  0
LINE
  5
48D
100
AcDbEntity
  8
ASSI
100
AcDbLine
 62
253
  6
CONTINUOUS
 10
-7.135
 20
44.585
 11
-7.135
 21
44.1980903017
  0
LWPOLYLINE
  5
48E
100
AcDbEntity
  8
RACCORDO
100
AcDbPolyline
 62
7
  6
CONTINUOUS
 90
5
 70
0
 10
-20.5258834737
 20
4.2258834737
 10
-20.5023646176
 20
4.2619310397
 10
-20.478380061
 20
4.2983542362
 10
-20.453929804
 20
4.3350820158
 10
-20.4289545568
 20
4.3720111156
  0
LINE
  5
48F
100
AcDbEntity
  8
SMUSSO
100
AcDbLine
 62
7
  6
CONTINUOUS
 10
-17.385
 20
14.735
 11
-16.885
 21
15.235
  0
LINE
  5
490
100
AcDbEntity
  8
ASSI
100
AcDbLine
 62
7
  6
CONTINUOUS
 10
-17.385
 20
14.735
 11
-16.885
 21
15.235
  0
LINE
  5
491
100
AcDbEntity
  8
SMUSSO
100
AcDbLine
 62
7
  6
CONTINUOUS
 10
-12.385
 20
19.235
 11
-12.885
 21
18.735
  0
LINE
  5
492
100
AcDbEntity
  8
ASSI
100
AcDbLine
 62
7
  6
CONTINUOUS
 10
-12.385
 20
19.235
 11
-12.885
 21
18.735
  0
LINE
  5
493
100
AcDbEntity
  8
CURVE
100
AcDbLine
 62
253
  6
CONTINUOUS
 10
-22.7492857254
 20
14.8064285493
 11
-22.5635714507
 21
14.8992856479
  0
LWPOLYLINE
  5
494
100
AcDbEntity
  8
CURVE
100
AcDbPolyline
 62
7
  6
CONTINUOUS
 90
15
 70
0
 10
-1.5257115683
 20
32.4477200261
 10
-1.5259307935
 20
32.4476808006
 10
-1.5261516831
 20
32.4479498901
 10
-1.5263739335
 20
32.4485283562
 10
-1.5265972414
 20
32.4494172607
 10
-1.5268213034
 20
32.4506176651
 10
-1.5270458161
 20
32.4521306311
 10
-1.527270476
 20
32.4539572203
 10
-1.5274949797
 20
32.4560984944
 10
-1.5277190238
 20
32.4585555149
 10
-1.5279423049
 20
32.4613293435
 10
-1.5281645196
 20
32.4644210418
 10
-1.5283853644
 20
32.4678316715
 10
-1.528604536
 20
32.4715622942
 10
-1.5288217308
 20
32.4756139715
  0
LINE
  5
495
100
AcDbEntity
  8
DRAFT
100
AcDbLine
 62
7
  6
CONTINUOUS
 10
-6.3437267447
 20
5.9980903017
 11
-6.3437267447
 21
6.285
  0
LINE
  5
496
100
AcDbEntity
  8
DRAFT
100
AcDbLine
 62
7
  6
CONTINUOUS
 10
-6.3437267447
 20
45.685
 11
-6.3437267447
 21
45.9719096983
  0
LINE
  5
497
100
AcDbEntity
  8
RACCORDO
100
AcDbLine
 62
7
  6
CONTINUOUS
 10
-6.2768217019
 20
46.5679242832
 11
-6.2768217019
 21
45.9420181168
  0
LINE
  5
498
100
AcDbEntity
  8
RACCORDO
100
AcDbLine
 62
7
  6
CONTINUOUS
 10
-6.2768217019
 20
6.0279818832
 11
-6.2768217019
 21
5.4020757168
  0
LINE
  5
499
100
AcDbEntity
  8
RACCORDO
100
AcDbLine
 62
7
  6
CONTINUOUS
 10
-5.3931782981
 20
46.9809955457
 11
-5.3931782981
 21
45.9420181168
  0
LINE
  5
49A
100
AcDbEntity
  8
RACCORDO
100
AcDbLine
 62
7
  6
CONTINUOUS
 10
-5.3931782981
 20
6.0279818832
 11
-5.3931782981
 21
4.9890044543
  0
LINE
  5
49B
100
AcDbEntity
  8
DRAFT
100
AcDbLine
 62
7
  6
CONTINUOUS
 10
-5.3262732553
 20
6.285
 11
-5.3262732553
 21
5.1636116689
  0
LINE
  5
49C
100
AcDbEntity
  8
DRAFT
100
AcDbLine
 62
7
  6
CONTINUOUS
 10
-5.3262732553
 20
45.685
 11
-5.3262732553
 21
46.8063883311
  0
LINE
  5
49D
100
AcDbEntity
  8
0
100
AcDbLine
 62
7
  6
CONTINUOUS
 10
-5.235
 20
46.835
 11
-5.235
 21
45.685
  0
LINE
  5
49E
100
AcDbEntity
  8
DRAFT
100
AcDbLine
 62
7
  6
CONTINUOUS
 10
-5.235
 20
46.835
 11
-5.235
 21
45.685
  0
LINE
  5
49F
100
AcDbEntity
  8
0
100
AcDbLine
 62
7
  6
CONTINUOUS
 10
-5.235
 20
6.285
 11
-5.235
 21
5.135
  0
LINE
  5
4A0
100
AcDbEntity
  8
DRAFT
100
AcDbLine
 62
7
  6
CONTINUOUS
 10
-5.235
 20
6.285
 11
-5.235
 21
5.135
  0
LWPOLYLINE
  5
4A1
100
AcDbEntity
  8
ASSI
100
AcDbPolyline
 62
7
  6
CONTINUOUS
 90
17
 70
0
 10
-9.135
 20
2.2338577097
 10
-9.1346684553
 20
2.2365694213
 10
-9.1336603692
 20
2.2399510004
 10
-9.1319562507
 20
2.2440024472
 10
-9.1295359138
 20
2.2487106685
 10
-9.1263828338
 20
2.2540887574
 10
-9.1224885768
 20
2.2601759928
 10
-9.1178429378
 20
2.2669802384
 10
-9.112435998
 20
2.2744936305
 10
-9.1062687914
 20
2.2827318567
 10
-9.0993543163
 20
2.2916757417
 10
-9.0916778132
 20
2.3013444609
 10
-9.0831927682
 20
2.3118112275
 10
-9.0738869063
 20
2.3230735884
 10
-9.0637558225
 20
2.3351339967
 10
-9.052747801
 20
2.3480730254
 10
-9.0408494307
 20
2.361892889
  0
LINE
  5
4A2
100
AcDbEntity
  8
RACCORDO
100
AcDbLine
 62
7
  6
CONTINUOUS
 10
-18.990294768
 20
5.9020566783
 11
-18.9262732553
 21
5.9980903017
  0
LWPOLYLINE
  5
4A3
100
AcDbEntity
  8
RACCORDO
100
AcDbPolyline
 62
7
  6
CONTINUOUS
 90
3
 70
0
 10
-20.4289545568
 20
4.3720111156
 10
-20.3777848301
 20
4.4464097554
 10
-20.3517764984
 20
4.4838617355
  0
LINE
  5
4A4
100
AcDbEntity
  8
RACCORDO
100
AcDbLine
 62
7
  6
CONTINUOUS
 10
-20.3517764984
 20
4.4838617355
 11
-20.2725346208
 21
4.5968161128
  0
LINE
  5
4A5
100
AcDbEntity
  8
RACCORDO
100
AcDbLine
 62
7
  6
CONTINUOUS
 10
-20.2725346208
 20
4.5968161128
 11
-20.2191007192
 21
4.6723067563
  0
LINE
  5
4A6
100
AcDbEntity
  8
CURVE
100
AcDbLine
 62
253
  6
CONTINUOUS
 10
-21.820714294
 20
14.3421429014
 11
-22.006428588
 21
14.2492856479
  0
LINE
  5
4A7
100
AcDbEntity
  8
CURVE
100
AcDbLine
 62
7
  6
CONTINUOUS
 10
-1.5380438239
 20
32.29044429
 11
-1.5377448325
 21
32.29044429
  0
LINE
  5
4A8
100
AcDbEntity
  8
CURVE
100
AcDbLine
 62
7
  6
CONTINUOUS
 10
-1.561662624
 20
33.2437313832
 11
-1.5418612758
 21
33.2437313832
  0
LINE
  5
4A9
100
AcDbEntity
  8
CURVE
100
AcDbLine
 62
7
  6
CONTINUOUS
 10
-1.53357451
 20
33.2638012718
 11
-1.5196843122
 21
33.2638012718
  0
LINE
  5
4AA
100
AcDbEntity
  8
RACCORDO
100
AcDbLine
 62
7
  6
CONTINUOUS
 10
-20.2191007192
 20
47.2976932437
 11
-20.2725346208
 21
47.3731838872
  0
LINE
  5
4AB
100
AcDbEntity
  8
RACCORDO
100
AcDbLine
 62
7
  6
CONTINUOUS
 10
-20.2725346208
 20
47.3731838872
 11
-20.3517764984
 21
47.4861382645
  0
LWPOLYLINE
  5
4AC
100
AcDbEntity
  8
RACCORDO
100
AcDbPolyline
 62
7
  6
CONTINUOUS
 90
7
 70
0
 10
-20.3517764984
 20
47.4861382645
 10
-20.4035136093
 20
47.5608926167
 10
-20.4289545568
 20
47.5979888844
 10
-20.453929804
 20
47.6349179842
 10
-20.478380061
 20
47.6716457638
 10
-20.5023646176
 20
47.7080689603
 10
-20.5258834737
 20
47.7441165263
  0
LINE
  5
4AD
100
AcDbEntity
  8
RACCORDO
100
AcDbLine
 62
7
  6
CONTINUOUS
 10
-18.990294768
 20
46.0679433217
 11
-18.9262732553
 21
45.9719096983
  0
LWPOLYLINE
  5
4AE
100
AcDbEntity
  8
RACCORDO
100
AcDbPolyline
 62
253
  6
CONTINUOUS
 90
31
 70
0
 10
-4.380628166
 20
49.8293375673
 10
-4.3802488343
 20
49.8180274168
 10
-4.3791878523
 20
49.8067481519
 10
-4.3774481175
 20
49.795530574
 10
-4.3750343805
 20
49.7844053159
 10
-4.3719532329
 20
49.7734027584
 10
-4.3682130887
 20
49.7625529472
 10
-4.3638241613
 20
49.7518855107
 10
-4.358798436
 20
49.7414295797
 10
-4.353149637
 20
49.7312137069
 10
-4.3468931901
 20
49.7212657898
 10
-4.3400461801
 20
49.7116129942
 10
-4.332627305
 20
49.7022816797
 10
-4.3246568241
 20
49.6932973282
 10
-4.3161565031
 20
49.6846844742
 10
-4.3071495545
 20
49.6764666374
 10
-4.2976605746
 20
49.6686662592
 10
-4.2877154757
 20
49.6613046407
 10
-4.2773414158
 20
49.6544018849
 10
-4.2665667243
 20
49.6479768418
 10
-4.2554208246
 20
49.6420470569
 10
-4.2439341538
 20
49.6366287232
 10
-4.2321380796
 20
49.631736637
 10
-4.2200648147
 20
49.6273841576
 10
-4.2077473285
 20
49.6235831707
 10
-4.1952192577
 20
49.6203440559
 10
-4.1825148136
 20
49.6176756587
 10
-4.1696686895
 20
49.6155852658
 10
-4.1567159655
 20
49.6140785857
 10
-4.1436920127
 20
49.6131597328
 10
-4.1306323968
 20
49.6128312164
  0
LINE
  5
4AF
100
AcDbEntity
  8
RACCORDO
100
AcDbLine
 62
253
  6
CONTINUOUS
 10
-4.380628166
 20
2.1406624327
 11
-4.385
 21
2.5745148518
  0
LINE
  5
4B0
100
AcDbEntity
  8
RACCORDO
100
AcDbLine
 62
253
  6
CONTINUOUS
 10
-4.1306323968
 20
2.3571687836
 11
-4.1357229979
 21
2.8623502692
  0
LINE
  5
4B1
100
AcDbEntity
  8
0
100
AcDbLine
 62
7
  6
CONTINUOUS
 10
-5.1983443637
 20
45.6483443637
 11
-5.1983443637
 21
44.585
  0
LINE
  5
4B2
100
AcDbEntity
  8
DRAFT
100
AcDbLine
 62
7
  6
CONTINUOUS
 10
-5.1983443637
 20
45.6483443637
 11
-5.1983443637
 21
44.585
  0
LINE
  5
4B3
100
AcDbEntity
  8
0
100
AcDbLine
 62
7
  6
CONTINUOUS
 10
-5.1983443637
 20
6.3216556363
 11
-5.1983443637
 21
7.7188305324
  0
LINE
  5
4B4
100
AcDbEntity
  8
DRAFT
100
AcDbLine
 62
7
  6
CONTINUOUS
 10
-5.1983443637
 20
6.3216556363
 11
-5.1983443637
 21
7.7188305324
  0
LINE
  5
4B5
100
AcDbEntity
  8
0
100
AcDbLine
 62
7
  6
CONTINUOUS
 10
-5.1808892987
 20
46.835
 11
-5.1808892987
 21
44.585
  0
LINE
  5
4B6
100
AcDbEntity
  8
DRAFT
100
AcDbLine
 62
7
  6
CONTINUOUS
 10
-5.1808892987
 20
46.835
 11
-5.1808892987
 21
44.585
  0
LINE
  5
4B7
100
AcDbEntity
  8
0
100
AcDbLine
 62
7
  6
CONTINUOUS
 10
-5.1808892987
 20
7.7275574002
 11
-5.1808892987
 21
5.135
  0
LINE
  5
4B8
100
AcDbEntity
  8
DRAFT
100
AcDbLine
 62
7
  6
CONTINUOUS
 10
-5.1808892987
 20
7.7275574002
 11
-5.1808892987
 21
5.135
  0
LINE
  5
4B9
100
AcDbEntity
  8
RACCORDO
100
AcDbLine
 62
253
  6
CONTINUOUS
 10
-5.0508992808
 20
4.6723067563
 11
-5.0508992808
 21
4.9890044543
  0
LINE
  5
4BA
100
AcDbEntity
  8
RACCORDO
100
AcDbLine
 62
253
  6
CONTINUOUS
 10
-5.0508992808
 20
46.9809955457
 11
-5.0508992808
 21
47.2976932437
  0
LINE
  5
4BB
100
AcDbEntity
  8
RACCORDO
100
AcDbLine
 62
253
  6
CONTINUOUS
 10
-4.5509754333
 20
4.4190245667
 11
-4.5509754333
 21
4.9932917358
  0
LINE
  5
4BC
100
AcDbEntity
  8
RACCORDO
100
AcDbLine
 62
253
  6
CONTINUOUS
 10
-4.5509754333
 20
46.9767082642
 11
-4.5509754333
 21
47.5509754333
  0
LINE
  5
4BD
100
AcDbEntity
  8
DRAFT
100
AcDbLine
 62
7
  6
CONTINUOUS
 10
-4.385
 20
47.385
 11
-4.385
 21
46.885
  0
LINE
  5
4BE
100
AcDbEntity
  8
DRAFT
100
AcDbLine
 62
7
  6
CONTINUOUS
 10
-4.385
 20
5.085
 11
-4.385
 21
4.585
  0
LINE
  5
4BF
100
AcDbEntity
  8
RACCORDO
100
AcDbLine
 62
7
  6
CONTINUOUS
 10
-4.385
 20
1.7349957692
 11
-4.385
 21
3.585
  0
LINE
  5
4C0
100
AcDbEntity
  8
RACCORDO
100
AcDbLine
 62
7
  6
CONTINUOUS
 10
-4.385
 20
48.385
 11
-4.385
 21
50.2350042308
  0
LINE
  5
4C1
100
AcDbEntity
  8
RACCORDO
100
AcDbLine
 62
253
  6
CONTINUOUS
 10
-4.380628166
 20
50.2306323968
 11
-4.380628166
 21
49.8293375673
  0
LINE
  5
4C2
100
AcDbEntity
  8
RACCORDO
100
AcDbLine
 62
253
  6
CONTINUOUS
 10
-4.380628166
 20
2.1406624327
 11
-4.380628166
 21
1.7393676032
  0
LINE
  5
4C3
100
AcDbEntity
  8
RACCORDO
100
AcDbLine
 62
253
  6
CONTINUOUS
 10
-4.1306323968
 20
1.489371834
 11
-4.1306323968
 21
2.3571687836
  0
LINE
  5
4C4
100
AcDbEntity
  8
RACCORDO
100
AcDbLine
 62
253
  6
CONTINUOUS
 10
-4.1306323968
 20
49.6128312164
 11
-4.1306323968
 21
50.480628166
  0
LINE
  5
4C5
100
AcDbEntity
  8
0
100
AcDbLine
 62
7
  6
CONTINUOUS
 10
-4.035
 20
5.135
 11
-4.035
 21
7.7275574002
  0
LINE
  5
4C6
100
AcDbEntity
  8
DRAFT
100
AcDbLine
 62
7
  6
CONTINUOUS
 10
-4.035
 20
5.135
 11
-4.035
 21
7.7275574002
  0
LINE
  5
4C7
100
AcDbEntity
  8
0
100
AcDbLine
 62
7
  6
CONTINUOUS
 10
-4.035
 20
44.585
 11
-4.035
 21
46.835
  0
LINE
  5
4C8
100
AcDbEntity
  8
DRAFT
100
AcDbLine
 62
7
  6
CONTINUOUS
 10
-4.035
 20
44.585
 11
-4.035
 21
46.835
  0
LINE
  5
4C9
100
AcDbEntity
  8
0
100
AcDbLine
 62
253
  6
CONTINUOUS
 10
-3.635
 20
44.585
 11
-3.635
 21
44.1980903017
  0
LINE
  5
4CA
100
AcDbEntity
  8
RACCORDO
100
AcDbLine
 62
253
  6
CONTINUOUS
 10
-4.385
 20
49.3954851482
 11
-4.380628166
 21
49.8293375673
  0
LINE
  5
4CB
100
AcDbEntity
  8
RACCORDO
100
AcDbLine
 62
253
  6
CONTINUOUS
 10
-4.1357229979
 20
49.1076497308
 11
-4.1306323968
 21
49.6128312164
  0
LWPOLYLINE
  5
4CC
100
AcDbEntity
  8
RACCORDO
100
AcDbPolyline
 62
7
  6
CONTINUOUS
 90
34
 70
0
 10
-4.385
 20
50.2350042308
 10
-4.3847168498
 20
50.246899516
 10
-4.3838680342
 20
50.2587678556
 10
-4.3824554741
 20
50.2705823661
 10
-4.3804823677
 20
50.2823162875
 10
-4.3779531817
 20
50.2939430388
 10
-4.3748736417
 20
50.305436279
 10
-4.3712507213
 20
50.3167699738
 10
-4.3670926258
 20
50.3279184493
 10
-4.3624087722
 20
50.3388564463
 10
-4.3572097688
 20
50.3495591876
 10
-4.3515073916
 20
50.3600024283
 10
-4.3453145581
 20
50.3701625059
 10
-4.3386452955
 20
50.3800164051
 10
-4.3315147107
 20
50.3895418038
 10
-4.3239389589
 20
50.3987171191
 10
-4.3159352005
 20
50.4075215661
 10
-4.3075215661
 20
50.4159352005
 10
-4.2987171191
 20
50.4239389589
 10
-4.2895418038
 20
50.4315147107
 10
-4.2800164051
 20
50.4386452955
 10
-4.2701625059
 20
50.4453145581
 10
-4.2600024283
 20
50.4515073916
 10
-4.2495591876
 20
50.4572097688
 10
-4.2388564463
 20
50.4624087722
 10
-4.2279184493
 20
50.4670926258
 10
-4.2167699738
 20
50.4712507213
 10
-4.205436279
 20
50.4748736417
 10
-4.1939430388
 20
50.4779531817
 10
-4.1823162875
 20
50.4804823677
 10
-4.1705823661
 20
50.4824554741
 10
-4.1587678556
 20
50.4838680342
 10
-4.146899516
 20
50.4847168498
 10
-4.1350042308
 20
50.485
  0
LWPOLYLINE
  5
4CD
100
AcDbEntity
  8
RACCORDO
100
AcDbPolyline
 62
253
  6
CONTINUOUS
 90
31
 70
0
 10
-4.380628166
 20
50.2306323968
 10
-4.380284977
 20
50.2437187509
 10
-4.379257234
 20
50.2567692492
 10
-4.3775477509
 20
50.2697481067
 10
-4.3751612081
 20
50.2826197463
 10
-4.372104147
 20
50.2953488602
 10
-4.3683849575
 20
50.3079005077
 10
-4.3640138424
 20
50.3202402638
 10
-4.3590027869
 20
50.332334301
 10
-4.3533655387
 20
50.3441494467
 10
-4.3471175595
 20
50.3556533025
 10
-4.3402759837
 20
50.3668143284
 10
-4.3328595768
 20
50.3776019187
 10
-4.3248886687
 20
50.387986508
 10
-4.3163851271
 20
50.3979396114
 10
-4.307372308
 20
50.4074339046
 10
-4.2978749736
 20
50.4164433264
 10
-4.2879191364
 20
50.4249432233
 10
-4.2775320106
 20
50.4329103656
 10
-4.2667419314
 20
50.4403229956
 10
-4.255578613
 20
50.4471606774
 10
-4.2440730125
 20
50.4534044791
 10
-4.2322569343
 20
50.4590372277
 10
-4.2201625782
 20
50.4640436576
 10
-4.2078227742
 20
50.4684102087
 10
-4.1952685897
 20
50.4721256484
 10
-4.1825371245
 20
50.4751787618
 10
-4.1696714057
 20
50.477559892
 10
-4.1567096311
 20
50.4792634962
 10
-4.1436847368
 20
50.4802867588
 10
-4.1306323968
 20
50.480628166
  0
LWPOLYLINE
  5
4CE
100
AcDbEntity
  8
RACCORDO
100
AcDbPolyline
 62
253
  6
CONTINUOUS
 90
31
 70
0
 10
-4.380628166
 20
2.1406624327
 10
-4.3802496104
 20
2.151960405
 10
-4.3791904828
 20
2.163230709
 10
-4.3774531063
 20
2.1744425788
 10
-4.3750414049
 20
2.1855663879
 10
-4.3719615346
 20
2.19657064
 10
-4.3682224836
 20
2.2074221798
 10
-4.3638349392
 20
2.2180903028
 10
-4.3588105402
 20
2.2285469761
 10
-4.3531628596
 20
2.238763895
 10
-4.3469071671
 20
2.2487133001
 10
-4.3400605925
 20
2.2583678246
 10
-4.3326419842
 20
2.2677008481
 10
-4.3246716801
 20
2.2766867982
 10
-4.3161713853
 20
2.2853012174
 10
-4.3071642949
 20
2.2935205958
 10
-4.2976749912
 20
2.3013224925
 10
-4.2877294041
 20
2.3086855807
 10
-4.2773547212
 20
2.3155897296
 10
-4.2665792888
 20
2.3220160761
 10
-4.2554325308
 20
2.3279470731
 10
-4.2439448938
 20
2.3333665204
 10
-4.232147737
 20
2.3382596224
 10
-4.2200733006
 20
2.3426130055
 10
-4.207754621
 20
2.3464147629
 10
-4.1952253856
 20
2.3496545093
 10
-4.1825197828
 20
2.3523234158
 10
-4.169672462
 20
2.3544142082
 10
-4.1567184947
 20
2.3559211781
 10
-4.143693281
 20
2.3568402065
 10
-4.1306323968
 20
2.3571687836
  0
LINE
  5
4CF
100
AcDbEntity
  8
CURVE
100
AcDbLine
 62
7
  6
CONTINUOUS
 10
-1.5110644027
 20
36.775227
 11
-1.5616626179
 21
36.504077
  0
LINE
  5
4D0
100
AcDbEntity
  8
CURVE
100
AcDbLine
 62
7
  6
CONTINUOUS
 10
-1.5616626179
 20
37.096193
 11
-1.5287606637
 21
37.220548
  0
LINE
  5
4D1
100
AcDbEntity
  8
DRAFT
100
AcDbLine
 62
7
  6
CONTINUOUS
 10
-17.035
 20
3.585
 11
-16.9909327327
 21
3.6511018331
  0
LINE
  5
4D2
100
AcDbEntity
  8
SMUSSO
100
AcDbLine
 62
7
  6
CONTINUOUS
 10
-17.385
 20
9.735
 11
-16.885
 21
10.235
  0
LINE
  5
4D3
100
AcDbEntity
  8
ASSI
100
AcDbLine
 62
7
  6
CONTINUOUS
 10
-17.385
 20
9.735
 11
-16.885
 21
10.235
  0
LINE
  5
4D4
100
AcDbEntity
  8
SMUSSO
100
AcDbLine
 62
7
  6
CONTINUOUS
 10
-12.385
 20
14.235
 11
-12.885
 21
13.735
  0
LINE
  5
4D5
100
AcDbEntity
  8
ASSI
100
AcDbLine
 62
7
  6
CONTINUOUS
 10
-12.385
 20
14.235
 11
-12.885
 21
13.735
  0
LINE
  5
4D6
100
AcDbEntity
  8
CURVE
100
AcDbLine
 62
253
  6
CONTINUOUS
 10
-22.935
 20
15.2707141972
 11
-21.635
 21
15.6421429014
  0
LINE
  5
4D7
100
AcDbEntity
  8
CURVE
100
AcDbLine
 62
7
  6
CONTINUOUS
 10
-1.5116555593
 20
33.8465673444
 11
-1.561662624
 21
33.8465673444
  0
LINE
  5
4D8
100
AcDbEntity
  8
DRAFT
100
AcDbLine
 62
7
  6
CONTINUOUS
 10
-17.035
 20
48.385
 11
-16.9909327327
 21
48.3188981669
  0
LINE
  5
4D9
100
AcDbEntity
  8
CURVE
100
AcDbLine
 62
253
  6
CONTINUOUS
 10
-1.5924569592
 20
14.549285779
 11
-1.5829827953
 21
14.413571558
  0
LINE
  5
4DA
100
AcDbEntity
  8
CURVE
100
AcDbLine
 62
253
  6
CONTINUOUS
 10
-1.5948255004
 20
19.2992856658
 11
-1.5687715509
 21
18.8921428895
  0
LINE
  5
4DB
100
AcDbEntity
  8
CURVE
100
AcDbLine
 62
7
  6
CONTINUOUS
 10
-1.5426673802
 20
10.808509
 11
-1.5208708123
 21
10.378551
  0
LINE
  5
4DC
100
AcDbEntity
  8
CURVE
100
AcDbLine
 62
7
  6
CONTINUOUS
 10
-1.5426673802
 20
16.833544
 11
-1.5208679506
 21
16.403529
  0
LINE
  5
4DD
100
AcDbEntity
  8
CURVE
100
AcDbLine
 62
7
  6
CONTINUOUS
 10
-1.5618022857
 20
11.186111
 11
-1.5510769898
 21
10.969154
  0
LINE
  5
4DE
100
AcDbEntity
  8
CURVE
100
AcDbLine
 62
7
  6
CONTINUOUS
 10
-1.5618022857
 20
17.211036
 11
-1.5510769898
 21
16.994188
  0
LINE
  5
4DF
100
AcDbEntity
  8
CURVE
100
AcDbLine
 62
7
  6
CONTINUOUS
 10
-1.511197998
 20
10.732116
 11
-1.5618022857
 21
11.78056
  0
LINE
  5
4E0
100
AcDbEntity
  8
CURVE
100
AcDbLine
 62
7
  6
CONTINUOUS
 10
-1.511197998
 20
16.757151
 11
-1.5618022857
 21
17.805486
  0
LWPOLYLINE
  5
4E1
100
AcDbEntity
  8
CURVE
100
AcDbPolyline
 62
7
  6
CONTINUOUS
 90
15
 70
0
 10
-1.5335734433
 20
20.2715224939
 10
-1.5331115769
 20
20.2612311719
 10
-1.5326431625
 20
20.2519055869
 10
-1.5321688735
 20
20.243513176
 10
-1.5316893833
 20
20.2360213765
 10
-1.531205365
 20
20.2293976256
 10
-1.530717492
 20
20.2236093606
 10
-1.5302264377
 20
20.2186240186
 10
-1.5297328753
 20
20.214409037
 10
-1.5292374782
 20
20.210931853
 10
-1.5287409197
 20
20.2081599038
 10
-1.5282438731
 20
20.2060606266
 10
-1.5277470117
 20
20.2046014587
 10
-1.5272510088
 20
20.2037498373
 10
-1.5267565377
 20
20.2034731997
  0
LINE
  5
4E2
100
AcDbEntity
  8
CURVE
100
AcDbLine
 62
7
  6
CONTINUOUS
 10
-1.5299025523
 20
20.8926858621
 11
-1.530300557
 21
20.9016443349
  0
LINE
  5
4E3
100
AcDbEntity
  8
CURVE
100
AcDbLine
 62
7
  6
CONTINUOUS
 10
-1.534449788
 20
20.2944023339
 11
-1.5335734433
 21
20.2715224939
  0
LINE
  5
4E4
100
AcDbEntity
  8
CURVE
100
AcDbLine
 62
7
  6
CONTINUOUS
 10
-1.530300557
 20
20.9016443349
 11
-1.5306884262
 21
20.9120335389
  0
LINE
  5
4E5
100
AcDbEntity
  8
CURVE
100
AcDbLine
 62
253
  6
CONTINUOUS
 10
-1.5924569592
 20
9.256428442
 11
-1.5971940412
 21
9.392143116
  0
LINE
  5
4E6
100
AcDbEntity
  8
CURVE
100
AcDbLine
 62
253
  6
CONTINUOUS
 10
-1.5782457138
 20
10.206428442
 11
-1.5735086324
 21
10.070714674
  0
LWPOLYLINE
  5
4E7
100
AcDbEntity
  8
RACCORDO
100
AcDbPolyline
 62
253
  6
CONTINUOUS
 90
31
 70
0
 10
-1.989371834
 20
2.1406624327
 10
-1.9897503896
 20
2.151960405
 10
-1.9908095172
 20
2.163230709
 10
-1.9925468937
 20
2.1744425788
 10
-1.9949585951
 20
2.1855663879
 10
-1.9980384654
 20
2.19657064
 10
-2.0017775164
 20
2.2074221798
 10
-2.0061650608
 20
2.2180903028
 10
-2.0111894598
 20
2.2285469761
 10
-2.0168371404
 20
2.238763895
 10
-2.0230928329
 20
2.2487133001
 10
-2.0299394075
 20
2.2583678246
 10
-2.0373580158
 20
2.2677008481
 10
-2.0453283199
 20
2.2766867982
 10
-2.0538286147
 20
2.2853012174
 10
-2.0628357051
 20
2.2935205958
 10
-2.0723250088
 20
2.3013224925
 10
-2.0822705959
 20
2.3086855807
 10
-2.0926452788
 20
2.3155897296
 10
-2.1034207112
 20
2.3220160761
 10
-2.1145674692
 20
2.3279470731
 10
-2.1260551062
 20
2.3333665204
 10
-2.137852263
 20
2.3382596224
 10
-2.1499266994
 20
2.3426130055
 10
-2.162245379
 20
2.3464147629
 10
-2.1747746144
 20
2.3496545093
 10
-2.1874802172
 20
2.3523234158
 10
-2.200327538
 20
2.3544142082
 10
-2.2132815053
 20
2.3559211781
 10
-2.226306719
 20
2.3568402065
 10
-2.2393676032
 20
2.3571687836
  0
LINE
  5
4E8
100
AcDbEntity
  8
CURVE
100
AcDbLine
 62
7
  6
CONTINUOUS
 10
-1.5352688915
 20
20.320293002
 11
-1.534449788
 21
20.2944023339
  0
LINE
  5
4E9
100
AcDbEntity
  8
CURVE
100
AcDbLine
 62
7
  6
CONTINUOUS
 10
-1.5306884262
 20
20.9120335389
 11
-1.531208223
 21
20.9287456792
  0
LINE
  5
4EA
100
AcDbEntity
  8
CURVE
100
AcDbLine
 62
253
  6
CONTINUOUS
 10
-1.5687715509
 20
11.427856884
 11
-1.5758771741
 21
11.699285326
  0
LINE
  5
4EB
100
AcDbEntity
  8
CURVE
100
AcDbLine
 62
253
  6
CONTINUOUS
 10
-1.5889664778
 20
24.1611903435
 11
-1.5792429948
 21
23.7897619492
  0
LINE
  5
4EC
100
AcDbEntity
  8
CURVE
100
AcDbLine
 62
253
  6
CONTINUOUS
 10
-1.6019311231
 20
11.699285326
 11
-1.5782457138
 21
10.749285326
  0
LINE
  5
4ED
100
AcDbEntity
  8
CURVE
100
AcDbLine
 62
7
  6
CONTINUOUS
 10
-1.531208223
 20
20.9287456792
 11
-1.5316232038
 21
20.9448597572
  0
LINE
  5
4EE
100
AcDbEntity
  8
CURVE
100
AcDbLine
 62
7
  6
CONTINUOUS
 10
-1.5364247644
 20
20.3657438244
 11
-1.5352688915
 21
20.320293002
  0
LINE
  5
4EF
100
AcDbEntity
  8
CURVE
100
AcDbLine
 62
7
  6
CONTINUOUS
 10
-1.5316232038
 20
20.9448597572
 11
-1.5320092326
 21
20.9630638947
  0
LINE
  5
4F0
100
AcDbEntity
  8
ASSI
100
AcDbLine
 62
7
  6
CONTINUOUS
 10
-1.6844992734
 20
9.7178624531
 11
-1.6858989133
 21
9.7889567483
  0
LINE
  5
4F1
100
AcDbEntity
  8
ASSI
100
AcDbLine
 62
7
  6
CONTINUOUS
 10
-1.6844992734
 20
14.7178624531
 11
-1.6858989133
 21
14.7889567483
  0
LINE
  5
4F2
100
AcDbEntity
  8
ASSI
100
AcDbLine
 62
7
  6
CONTINUOUS
 10
-1.6844992734
 20
19.7178624531
 11
-1.6858989133
 21
19.7889567483
  0
LINE
  5
4F3
100
AcDbEntity
  8
ASSI
100
AcDbLine
 62
7
  6
CONTINUOUS
 10
-1.6844992734
 20
24.7178624531
 11
-1.6858989133
 21
24.7889567483
  0
LINE
  5
4F4
100
AcDbEntity
  8
RACCORDO
100
AcDbLine
 62
7
  6
CONTINUOUS
 10
-1.6844987938
 20
9.7178618618
 11
-1.6861258656
 21
9.8018212183
  0
LINE
  5
4F5
100
AcDbEntity
  8
RACCORDO
100
AcDbLine
 62
7
  6
CONTINUOUS
 10
-1.6844987938
 20
14.7178618618
 11
-1.6861258656
 21
14.8018212183
  0
LINE
  5
4F6
100
AcDbEntity
  8
RACCORDO
100
AcDbLine
 62
7
  6
CONTINUOUS
 10
-1.6844987938
 20
19.7178618618
 11
-1.6861258656
 21
19.8018212183
  0
LINE
  5
4F7
100
AcDbEntity
  8
RACCORDO
100
AcDbLine
 62
7
  6
CONTINUOUS
 10
-1.6844987938
 20
24.7178618618
 11
-1.6861258656
 21
24.8018212183
  0
LINE
  5
4F8
100
AcDbEntity
  8
CURVE
100
AcDbLine
 62
253
  6
CONTINUOUS
 10
-1.5735086324
 20
10.070714674
 11
-1.5687715509
 21
9.799285326
  0
LINE
  5
4F9
100
AcDbEntity
  8
CURVE
100
AcDbLine
 62
253
  6
CONTINUOUS
 10
-1.5782457138
 20
12.785
 11
-1.5687715509
 21
12.242143116
  0
LINE
  5
4FA
100
AcDbEntity
  8
CURVE
100
AcDbLine
 62
253
  6
CONTINUOUS
 10
-1.6019311231
 20
15.092142663
 11
-1.5924569592
 21
14.549285779
  0
LINE
  5
4FB
100
AcDbEntity
  8
CURVE
100
AcDbLine
 62
253
  6
CONTINUOUS
 10
-1.5687715509
 20
15.092142663
 11
-1.5735086324
 21
15.363571558
  0
LINE
  5
4FC
100
AcDbEntity
  8
CURVE
100
AcDbLine
 62
253
  6
CONTINUOUS
 10
-1.5782457138
 20
17.8064286685
 11
-1.5687715509
 21
17.2635713315
  0
LINE
  5
4FD
100
AcDbEntity
  8
CURVE
100
AcDbLine
 62
253
  6
CONTINUOUS
 10
-1.5782457138
 20
20.385
 11
-1.5687715509
 21
19.8421428329
  0
LWPOLYLINE
  5
4FE
100
AcDbEntity
  8
CURVE
100
AcDbPolyline
 62
7
  6
CONTINUOUS
 90
3
 70
0
 10
-1.537797985
 20
20.4382275905
 10
-1.5374744836
 20
20.4188873435
 10
-1.5364247644
 20
20.3657438244
  0
LWPOLYLINE
  5
4FF
100
AcDbEntity
  8
RACCORDO
100
AcDbPolyline
 62
253
  6
CONTINUOUS
 90
10
 70
0
 10
-1.9890809808
 20
10.2492492851
 10
-1.9878494451
 20
10.1650844235
 10
-1.9865556506
 20
10.0896902053
 10
-1.9852171275
 20
10.0234286236
 10
-1.9838329675
 20
9.9666597352
 10
-1.9824040789
 20
9.9197161001
 10
-1.9809507169
 20
9.8828706073
 10
-1.9794796332
 20
9.8563550506
 10
-1.9779840761
 20
9.8403542191
 10
-1.9764640455
 20
9.835
  0
LWPOLYLINE
  5
500
100
AcDbEntity
  8
ASSI
100
AcDbPolyline
 62
253
  6
CONTINUOUS
 90
10
 70
0
 10
-1.9890809808
 20
10.2492492851
 10
-1.9878494451
 20
10.1650844235
 10
-1.9865556506
 20
10.0896902053
 10
-1.9852171275
 20
10.0234286236
 10
-1.9838329675
 20
9.9666597352
 10
-1.9824040789
 20
9.9197161001
 10
-1.9809507169
 20
9.8828706073
 10
-1.9794796332
 20
9.8563550506
 10
-1.9779840761
 20
9.8403542191
 10
-1.9764640455
 20
9.835
  0
LWPOLYLINE
  5
501
100
AcDbEntity
  8
RACCORDO
100
AcDbPolyline
 62
253
  6
CONTINUOUS
 90
10
 70
0
 10
-1.9890809808
 20
15.2492492851
 10
-1.9878494451
 20
15.1650844235
 10
-1.9865556506
 20
15.0896902053
 10
-1.9852171275
 20
15.0234286236
 10
-1.9838329675
 20
14.9666597352
 10
-1.9824040789
 20
14.9197161001
 10
-1.9809507169
 20
14.8828706073
 10
-1.9794796332
 20
14.8563550506
 10
-1.9779840761
 20
14.8403542191
 10
-1.9764640455
 20
14.835
  0
LWPOLYLINE
  5
502
100
AcDbEntity
  8
ASSI
100
AcDbPolyline
 62
253
  6
CONTINUOUS
 90
10
 70
0
 10
-1.9890809808
 20
15.2492492851
 10
-1.9878494451
 20
15.1650844235
 10
-1.9865556506
 20
15.0896902053
 10
-1.9852171275
 20
15.0234286236
 10
-1.9838329675
 20
14.9666597352
 10
-1.9824040789
 20
14.9197161001
 10
-1.9809507169
 20
14.8828706073
 10
-1.9794796332
 20
14.8563550506
 10
-1.9779840761
 20
14.8403542191
 10
-1.9764640455
 20
14.835
  0
LWPOLYLINE
  5
503
100
AcDbEntity
  8
RACCORDO
100
AcDbPolyline
 62
253
  6
CONTINUOUS
 90
10
 70
0
 10
-1.9890809808
 20
20.2492492851
 10
-1.9878494451
 20
20.1650844235
 10
-1.9865556506
 20
20.0896902053
 10
-1.9852171275
 20
20.0234286236
 10
-1.9838329675
 20
19.9666597352
 10
-1.9824040789
 20
19.9197161001
 10
-1.9809507169
 20
19.8828706073
 10
-1.9794796332
 20
19.8563550506
 10
-1.9779840761
 20
19.8403542191
 10
-1.9764640455
 20
19.835
  0
LWPOLYLINE
  5
504
100
AcDbEntity
  8
ASSI
100
AcDbPolyline
 62
253
  6
CONTINUOUS
 90
10
 70
0
 10
-1.9890809808
 20
20.2492492851
 10
-1.9878494451
 20
20.1650844235
 10
-1.9865556506
 20
20.0896902053
 10
-1.9852171275
 20
20.0234286236
 10
-1.9838329675
 20
19.9666597352
 10
-1.9824040789
 20
19.9197161001
 10
-1.9809507169
 20
19.8828706073
 10
-1.9794796332
 20
19.8563550506
 10
-1.9779840761
 20
19.8403542191
 10
-1.9764640455
 20
19.835
  0
LWPOLYLINE
  5
505
100
AcDbEntity
  8
RACCORDO
100
AcDbPolyline
 62
253
  6
CONTINUOUS
 90
10
 70
0
 10
-1.9890809808
 20
25.2492492851
 10
-1.9878494451
 20
25.1650844235
 10
-1.9865556506
 20
25.0896902053
 10
-1.9852171275
 20
25.0234286236
 10
-1.9838329675
 20
24.9666597352
 10
-1.9824040789
 20
24.9197161001
 10
-1.9809507169
 20
24.8828706073
 10
-1.9794796332
 20
24.8563550506
 10
-1.9779840761
 20
24.8403542191
 10
-1.9764640455
 20
24.835
  0
LWPOLYLINE
  5
506
100
AcDbEntity
  8
ASSI
100
AcDbPolyline
 62
253
  6
CONTINUOUS
 90
10
 70
0
 10
-1.9890809808
 20
25.2492492851
 10
-1.9878494451
 20
25.1650844235
 10
-1.9865556506
 20
25.0896902053
 10
-1.9852171275
 20
25.0234286236
 10
-1.9838329675
 20
24.9666597352
 10
-1.9824040789
 20
24.9197161001
 10
-1.9809507169
 20
24.8828706073
 10
-1.9794796332
 20
24.8563550506
 10
-1.9779840761
 20
24.8403542191
 10
-1.9764640455
 20
24.835
  0
LINE
  5
507
100
AcDbEntity
  8
ASSI
100
AcDbLine
 62
7
  6
CONTINUOUS
 10
-1.6858989133
 20
9.7889567483
 11
-1.6875257211
 21
9.8903199251
  0
LINE
  5
508
100
AcDbEntity
  8
ASSI
100
AcDbLine
 62
7
  6
CONTINUOUS
 10
-1.6858989133
 20
14.7889567483
 11
-1.6875257211
 21
14.8903199251
  0
LINE
  5
509
100
AcDbEntity
  8
ASSI
100
AcDbLine
 62
7
  6
CONTINUOUS
 10
-1.6858989133
 20
19.7889567483
 11
-1.6875257211
 21
19.8903199251
  0
LINE
  5
50A
100
AcDbEntity
  8
ASSI
100
AcDbLine
 62
7
  6
CONTINUOUS
 10
-1.6858989133
 20
24.7889567483
 11
-1.6875257211
 21
24.8903199251
  0
LINE
  5
50B
100
AcDbEntity
  8
RACCORDO
100
AcDbLine
 62
7
  6
CONTINUOUS
 10
-1.6861258656
 20
9.8018212183
 11
-1.6876946547
 21
9.9021274081
  0
LINE
  5
50C
100
AcDbEntity
  8
RACCORDO
100
AcDbLine
 62
7
  6
CONTINUOUS
 10
-1.6861258656
 20
14.8018212183
 11
-1.6876946547
 21
14.9021274081
  0
LINE
  5
50D
100
AcDbEntity
  8
RACCORDO
100
AcDbLine
 62
7
  6
CONTINUOUS
 10
-1.6861258656
 20
19.8018212183
 11
-1.6876946547
 21
19.9021274081
  0
LINE
  5
50E
100
AcDbEntity
  8
RACCORDO
100
AcDbLine
 62
7
  6
CONTINUOUS
 10
-1.6861258656
 20
24.8018212183
 11
-1.6876946547
 21
24.9021274081
  0
LINE
  5
50F
100
AcDbEntity
  8
ASSI
100
AcDbLine
 62
7
  6
CONTINUOUS
 10
-1.6875257211
 20
9.8903199251
 11
-1.6891304341
 21
10.0129721493
  0
LINE
  5
510
100
AcDbEntity
  8
ASSI
100
AcDbLine
 62
7
  6
CONTINUOUS
 10
-1.6875257211
 20
14.8903199251
 11
-1.6891304341
 21
15.0129721493
  0
LINE
  5
511
100
AcDbEntity
  8
ASSI
100
AcDbLine
 62
7
  6
CONTINUOUS
 10
-1.6875257211
 20
19.8903199251
 11
-1.6891304341
 21
20.0129721493
  0
LINE
  5
512
100
AcDbEntity
  8
ASSI
100
AcDbLine
 62
7
  6
CONTINUOUS
 10
-1.6875257211
 20
24.8903199251
 11
-1.6891304341
 21
25.0129721493
  0
LINE
  5
513
100
AcDbEntity
  8
RACCORDO
100
AcDbLine
 62
7
  6
CONTINUOUS
 10
-1.6876946547
 20
9.9021274081
 11
-1.6894568148
 21
10.0409013841
  0
LINE
  5
514
100
AcDbEntity
  8
RACCORDO
100
AcDbLine
 62
7
  6
CONTINUOUS
 10
-1.6876946547
 20
14.9021274081
 11
-1.6894568148
 21
15.0409013841
  0
LINE
  5
515
100
AcDbEntity
  8
RACCORDO
100
AcDbLine
 62
7
  6
CONTINUOUS
 10
-1.6876946547
 20
19.9021274081
 11
-1.6894568148
 21
20.0409013841
  0
LINE
  5
516
100
AcDbEntity
  8
RACCORDO
100
AcDbLine
 62
7
  6
CONTINUOUS
 10
-1.6876946547
 20
24.9021274081
 11
-1.6894568148
 21
25.0409013841
  0
LINE
  5
517
100
AcDbEntity
  8
RACCORDO
100
AcDbLine
 62
253
  6
CONTINUOUS
 10
-1.9913554807
 20
10.4421045694
 11
-1.9890809808
 21
10.2492492851
  0
LINE
  5
518
100
AcDbEntity
  8
ASSI
100
AcDbLine
 62
253
  6
CONTINUOUS
 10
-1.9913554807
 20
10.4421045694
 11
-1.9890809808
 21
10.2492492851
  0
LINE
  5
519
100
AcDbEntity
  8
RACCORDO
100
AcDbLine
 62
253
  6
CONTINUOUS
 10
-1.9913554807
 20
15.4421045694
 11
-1.9890809808
 21
15.2492492851
  0
LINE
  5
51A
100
AcDbEntity
  8
ASSI
100
AcDbLine
 62
253
  6
CONTINUOUS
 10
-1.9913554807
 20
15.4421045694
 11
-1.9890809808
 21
15.2492492851
  0
LINE
  5
51B
100
AcDbEntity
  8
RACCORDO
100
AcDbLine
 62
253
  6
CONTINUOUS
 10
-1.9913554807
 20
20.4421045694
 11
-1.9890809808
 21
20.2492492851
  0
LINE
  5
51C
100
AcDbEntity
  8
ASSI
100
AcDbLine
 62
253
  6
CONTINUOUS
 10
-1.9913554807
 20
20.4421045694
 11
-1.9890809808
 21
20.2492492851
  0
LINE
  5
51D
100
AcDbEntity
  8
RACCORDO
100
AcDbLine
 62
253
  6
CONTINUOUS
 10
-1.9913554807
 20
25.4421045694
 11
-1.9890809808
 21
25.2492492851
  0
LINE
  5
51E
100
AcDbEntity
  8
ASSI
100
AcDbLine
 62
253
  6
CONTINUOUS
 10
-1.9913554807
 20
25.4421045694
 11
-1.9890809808
 21
25.2492492851
  0
LINE
  5
51F
100
AcDbEntity
  8
CURVE
100
AcDbLine
 62
253
  6
CONTINUOUS
 10
-1.5829827953
 20
16.177857337
 11
-1.5806142555
 21
15.9516668177
  0
LINE
  5
520
100
AcDbEntity
  8
RACCORDO
100
AcDbLine
 62
253
  6
CONTINUOUS
 10
-2.2393676032
 20
49.6128312164
 11
-2.2342770021
 21
49.1076497308
  0
LINE
  5
521
100
AcDbEntity
  8
RACCORDO
100
AcDbLine
 62
253
  6
CONTINUOUS
 10
-1.989371834
 20
49.8293375673
 11
-1.985
 21
49.3954851482
  0
LINE
  5
522
100
AcDbEntity
  8
ASSI
100
AcDbLine
 62
7
  6
CONTINUOUS
 10
-1.6891304341
 20
10.0129721493
 11
-1.6906866127
 21
10.156862102
  0
LINE
  5
523
100
AcDbEntity
  8
ASSI
100
AcDbLine
 62
7
  6
CONTINUOUS
 10
-1.6891304341
 20
15.0129721493
 11
-1.6906866127
 21
15.156862102
  0
LINE
  5
524
100
AcDbEntity
  8
ASSI
100
AcDbLine
 62
7
  6
CONTINUOUS
 10
-1.6891304341
 20
20.0129721493
 11
-1.6906866127
 21
20.156862102
  0
LINE
  5
525
100
AcDbEntity
  8
ASSI
100
AcDbLine
 62
7
  6
CONTINUOUS
 10
-1.6891304341
 20
25.0129721493
 11
-1.6906866127
 21
25.156862102
  0
LINE
  5
526
100
AcDbEntity
  8
RACCORDO
100
AcDbLine
 62
7
  6
CONTINUOUS
 10
-1.6894568148
 20
10.0409013841
 11
-1.691147865
 21
10.205314451
  0
LINE
  5
527
100
AcDbEntity
  8
RACCORDO
100
AcDbLine
 62
7
  6
CONTINUOUS
 10
-1.6894568148
 20
15.0409013841
 11
-1.691147865
 21
15.205314451
  0
LINE
  5
528
100
AcDbEntity
  8
RACCORDO
100
AcDbLine
 62
7
  6
CONTINUOUS
 10
-1.6894568148
 20
20.0409013841
 11
-1.691147865
 21
20.205314451
  0
LINE
  5
529
100
AcDbEntity
  8
RACCORDO
100
AcDbLine
 62
7
  6
CONTINUOUS
 10
-1.6894568148
 20
25.0409013841
 11
-1.691147865
 21
25.205314451
  0
LINE
  5
52A
100
AcDbEntity
  8
RACCORDO
100
AcDbLine
 62
253
  6
CONTINUOUS
 10
-1.9933354788
 20
10.6645606462
 11
-1.9913554807
 21
10.4421045694
  0
LINE
  5
52B
100
AcDbEntity
  8
ASSI
100
AcDbLine
 62
253
  6
CONTINUOUS
 10
-1.9933354788
 20
10.6645606462
 11
-1.9913554807
 21
10.4421045694
  0
LINE
  5
52C
100
AcDbEntity
  8
RACCORDO
100
AcDbLine
 62
253
  6
CONTINUOUS
 10
-1.9933354788
 20
15.6645606462
 11
-1.9913554807
 21
15.4421045694
  0
LINE
  5
52D
100
AcDbEntity
  8
ASSI
100
AcDbLine
 62
253
  6
CONTINUOUS
 10
-1.9933354788
 20
15.6645606462
 11
-1.9913554807
 21
15.4421045694
  0
LINE
  5
52E
100
AcDbEntity
  8
RACCORDO
100
AcDbLine
 62
253
  6
CONTINUOUS
 10
-1.9933354788
 20
20.6645606462
 11
-1.9913554807
 21
20.4421045694
  0
LINE
  5
52F
100
AcDbEntity
  8
ASSI
100
AcDbLine
 62
253
  6
CONTINUOUS
 10
-1.9933354788
 20
20.6645606462
 11
-1.9913554807
 21
20.4421045694
  0
LINE
  5
530
100
AcDbEntity
  8
RACCORDO
100
AcDbLine
 62
253
  6
CONTINUOUS
 10
-1.9933354788
 20
25.6645606462
 11
-1.9913554807
 21
25.4421045694
  0
LINE
  5
531
100
AcDbEntity
  8
ASSI
100
AcDbLine
 62
253
  6
CONTINUOUS
 10
-1.9933354788
 20
25.6645606462
 11
-1.9913554807
 21
25.4421045694
  0
LINE
  5
532
100
AcDbEntity
  8
ASSI
100
AcDbLine
 62
7
  6
CONTINUOUS
 10
-1.6906866127
 20
10.156862102
 11
-1.6923560885
 21
10.3471743629
  0
LINE
  5
533
100
AcDbEntity
  8
ASSI
100
AcDbLine
 62
7
  6
CONTINUOUS
 10
-1.6906866127
 20
15.156862102
 11
-1.6923560885
 21
15.3471743629
  0
LINE
  5
534
100
AcDbEntity
  8
ASSI
100
AcDbLine
 62
7
  6
CONTINUOUS
 10
-1.6906866127
 20
20.156862102
 11
-1.6923560885
 21
20.3471743629
  0
LINE
  5
535
100
AcDbEntity
  8
ASSI
100
AcDbLine
 62
7
  6
CONTINUOUS
 10
-1.6906866127
 20
25.156862102
 11
-1.6923560885
 21
25.3471743629
  0
LINE
  5
536
100
AcDbEntity
  8
RACCORDO
100
AcDbLine
 62
7
  6
CONTINUOUS
 10
-1.691147865
 20
10.205314451
 11
-1.6927251968
 21
10.3952360732
  0
LINE
  5
537
100
AcDbEntity
  8
RACCORDO
100
AcDbLine
 62
7
  6
CONTINUOUS
 10
-1.691147865
 20
15.205314451
 11
-1.6927251968
 21
15.3952360732
  0
LINE
  5
538
100
AcDbEntity
  8
RACCORDO
100
AcDbLine
 62
7
  6
CONTINUOUS
 10
-1.691147865
 20
20.205314451
 11
-1.6927251968
 21
20.3952360732
  0
LINE
  5
539
100
AcDbEntity
  8
RACCORDO
100
AcDbLine
 62
7
  6
CONTINUOUS
 10
-1.691147865
 20
25.205314451
 11
-1.6927251968
 21
25.3952360732
  0
LINE
  5
53A
100
AcDbEntity
  8
ASSI
100
AcDbLine
 62
7
  6
CONTINUOUS
 10
-1.6923560885
 20
10.3471743629
 11
-1.69388089
 21
10.5643777508
  0
LINE
  5
53B
100
AcDbEntity
  8
ASSI
100
AcDbLine
 62
7
  6
CONTINUOUS
 10
-1.6923560885
 20
15.3471743629
 11
-1.69388089
 21
15.5643777508
  0
LINE
  5
53C
100
AcDbEntity
  8
ASSI
100
AcDbLine
 62
7
  6
CONTINUOUS
 10
-1.6923560885
 20
20.3471743629
 11
-1.69388089
 21
20.5643777508
  0
LINE
  5
53D
100
AcDbEntity
  8
ASSI
100
AcDbLine
 62
7
  6
CONTINUOUS
 10
-1.6923560885
 20
25.3471743629
 11
-1.69388089
 21
25.5643777508
  0
LINE
  5
53E
100
AcDbEntity
  8
RACCORDO
100
AcDbLine
 62
253
  6
CONTINUOUS
 10
-1.994994173
 20
10.9124061401
 11
-1.9933354788
 21
10.6645606462
  0
LINE
  5
53F
100
AcDbEntity
  8
ASSI
100
AcDbLine
 62
253
  6
CONTINUOUS
 10
-1.994994173
 20
10.9124061401
 11
-1.9933354788
 21
10.6645606462
  0
LINE
  5
540
100
AcDbEntity
  8
RACCORDO
100
AcDbLine
 62
253
  6
CONTINUOUS
 10
-1.994994173
 20
15.9124061401
 11
-1.9933354788
 21
15.6645606462
  0
LINE
  5
541
100
AcDbEntity
  8
ASSI
100
AcDbLine
 62
253
  6
CONTINUOUS
 10
-1.994994173
 20
15.9124061401
 11
-1.9933354788
 21
15.6645606462
  0
LINE
  5
542
100
AcDbEntity
  8
RACCORDO
100
AcDbLine
 62
253
  6
CONTINUOUS
 10
-1.994994173
 20
20.9124061401
 11
-1.9933354788
 21
20.6645606462
  0
LINE
  5
543
100
AcDbEntity
  8
ASSI
100
AcDbLine
 62
253
  6
CONTINUOUS
 10
-1.994994173
 20
20.9124061401
 11
-1.9933354788
 21
20.6645606462
  0
LINE
  5
544
100
AcDbEntity
  8
RACCORDO
100
AcDbLine
 62
253
  6
CONTINUOUS
 10
-1.994994173
 20
25.9124061401
 11
-1.9933354788
 21
25.6645606462
  0
LINE
  5
545
100
AcDbEntity
  8
ASSI
100
AcDbLine
 62
253
  6
CONTINUOUS
 10
-1.994994173
 20
25.9124061401
 11
-1.9933354788
 21
25.6645606462
  0
LINE
  5
546
100
AcDbEntity
  8
RACCORDO
100
AcDbLine
 62
7
  6
CONTINUOUS
 10
-1.6927251968
 20
10.3952360732
 11
-1.6941570974
 21
10.6099545086
  0
LINE
  5
547
100
AcDbEntity
  8
RACCORDO
100
AcDbLine
 62
7
  6
CONTINUOUS
 10
-1.6927251968
 20
15.3952360732
 11
-1.6941570974
 21
15.6099545086
  0
LINE
  5
548
100
AcDbEntity
  8
RACCORDO
100
AcDbLine
 62
7
  6
CONTINUOUS
 10
-1.6927251968
 20
20.3952360732
 11
-1.6941570974
 21
20.6099545086
  0
LINE
  5
549
100
AcDbEntity
  8
RACCORDO
100
AcDbLine
 62
7
  6
CONTINUOUS
 10
-1.6927251968
 20
25.3952360732
 11
-1.6941570974
 21
25.6099545086
  0
LINE
  5
54A
100
AcDbEntity
  8
ASSI
100
AcDbLine
 62
7
  6
CONTINUOUS
 10
-1.69388089
 20
10.5643777508
 11
-1.6952079414
 21
10.8069124413
  0
LINE
  5
54B
100
AcDbEntity
  8
ASSI
100
AcDbLine
 62
7
  6
CONTINUOUS
 10
-1.69388089
 20
15.5643777508
 11
-1.6952079414
 21
15.8069124413
  0
LINE
  5
54C
100
AcDbEntity
  8
ASSI
100
AcDbLine
 62
7
  6
CONTINUOUS
 10
-1.69388089
 20
20.5643777508
 11
-1.6952079414
 21
20.8069124413
  0
LINE
  5
54D
100
AcDbEntity
  8
ASSI
100
AcDbLine
 62
7
  6
CONTINUOUS
 10
-1.69388089
 20
25.5643777508
 11
-1.6952079414
 21
25.8069124413
  0
LINE
  5
54E
100
AcDbEntity
  8
RACCORDO
100
AcDbLine
 62
7
  6
CONTINUOUS
 10
-1.6941570974
 20
10.6099545086
 11
-1.6952567556
 21
10.817113156
  0
LINE
  5
54F
100
AcDbEntity
  8
RACCORDO
100
AcDbLine
 62
7
  6
CONTINUOUS
 10
-1.6941570974
 20
15.6099545086
 11
-1.6952567556
 21
15.817113156
  0
LINE
  5
550
100
AcDbEntity
  8
RACCORDO
100
AcDbLine
 62
7
  6
CONTINUOUS
 10
-1.6941570974
 20
20.6099545086
 11
-1.6952567556
 21
20.817113156
  0
LINE
  5
551
100
AcDbEntity
  8
RACCORDO
100
AcDbLine
 62
7
  6
CONTINUOUS
 10
-1.6941570974
 20
25.6099545086
 11
-1.6954017569
 21
25.8480997325
  0
LINE
  5
552
100
AcDbEntity
  8
RACCORDO
100
AcDbLine
 62
253
  6
CONTINUOUS
 10
-1.9962946264
 20
11.1811757274
 11
-1.994994173
 21
10.9124061401
  0
LINE
  5
553
100
AcDbEntity
  8
ASSI
100
AcDbLine
 62
253
  6
CONTINUOUS
 10
-1.9962946264
 20
11.1811757274
 11
-1.994994173
 21
10.9124061401
  0
LINE
  5
554
100
AcDbEntity
  8
RACCORDO
100
AcDbLine
 62
253
  6
CONTINUOUS
 10
-1.9962946264
 20
16.1811757274
 11
-1.994994173
 21
15.9124061401
  0
LINE
  5
555
100
AcDbEntity
  8
ASSI
100
AcDbLine
 62
253
  6
CONTINUOUS
 10
-1.9962946264
 20
16.1811757274
 11
-1.994994173
 21
15.9124061401
  0
LINE
  5
556
100
AcDbEntity
  8
RACCORDO
100
AcDbLine
 62
253
  6
CONTINUOUS
 10
-1.9962946264
 20
21.1811757274
 11
-1.994994173
 21
20.9124061401
  0
LINE
  5
557
100
AcDbEntity
  8
ASSI
100
AcDbLine
 62
253
  6
CONTINUOUS
 10
-1.9962946264
 20
21.1811757274
 11
-1.994994173
 21
20.9124061401
  0
LINE
  5
558
100
AcDbEntity
  8
RACCORDO
100
AcDbLine
 62
253
  6
CONTINUOUS
 10
-1.9962946264
 20
26.1811757274
 11
-1.994994173
 21
25.9124061401
  0
LINE
  5
559
100
AcDbEntity
  8
ASSI
100
AcDbLine
 62
253
  6
CONTINUOUS
 10
-1.9962946264
 20
26.1811757274
 11
-1.994994173
 21
25.9124061401
  0
LINE
  5
55A
100
AcDbEntity
  8
ASSI
100
AcDbLine
 62
7
  6
CONTINUOUS
 10
-1.6952079414
 20
10.8069124413
 11
-1.6963068345
 21
11.0724242649
  0
LINE
  5
55B
100
AcDbEntity
  8
RACCORDO
100
AcDbLine
 62
7
  6
CONTINUOUS
 10
-1.6952567556
 20
10.817113156
 11
-1.696312615
 21
11.0740821103
  0
LINE
  5
55C
100
AcDbEntity
  8
ASSI
100
AcDbLine
 62
7
  6
CONTINUOUS
 10
-1.6952079414
 20
15.8069124413
 11
-1.6963068345
 21
16.0724242649
  0
LINE
  5
55D
100
AcDbEntity
  8
RACCORDO
100
AcDbLine
 62
7
  6
CONTINUOUS
 10
-1.6952567556
 20
15.817113156
 11
-1.696312615
 21
16.0740821103
  0
LINE
  5
55E
100
AcDbEntity
  8
ASSI
100
AcDbLine
 62
7
  6
CONTINUOUS
 10
-1.6952079414
 20
20.8069124413
 11
-1.6963068345
 21
21.0724242649
  0
LINE
  5
55F
100
AcDbEntity
  8
RACCORDO
100
AcDbLine
 62
7
  6
CONTINUOUS
 10
-1.6952567556
 20
20.817113156
 11
-1.696312615
 21
21.0740821103
  0
LINE
  5
560
100
AcDbEntity
  8
ASSI
100
AcDbLine
 62
7
  6
CONTINUOUS
 10
-1.6952079414
 20
25.8069124413
 11
-1.6963068345
 21
26.0724242649
  0
LINE
  5
561
100
AcDbEntity
  8
RACCORDO
100
AcDbLine
 62
7
  6
CONTINUOUS
 10
-1.6954017569
 20
25.8480997325
 11
-1.6964268046
 21
26.107597734
  0
LINE
  5
562
100
AcDbEntity
  8
RACCORDO
100
AcDbLine
 62
7
  6
CONTINUOUS
 10
-1.696312615
 20
11.0740821103
 11
-1.6965369504
 21
11.1414035622
  0
LINE
  5
563
100
AcDbEntity
  8
ASSI
100
AcDbLine
 62
7
  6
CONTINUOUS
 10
-1.6963068345
 20
11.0724242649
 11
-1.6965389463
 21
11.1420304126
  0
LINE
  5
564
100
AcDbEntity
  8
RACCORDO
100
AcDbLine
 62
7
  6
CONTINUOUS
 10
-1.696312615
 20
16.0740821103
 11
-1.6965369504
 21
16.1414035622
  0
LINE
  5
565
100
AcDbEntity
  8
ASSI
100
AcDbLine
 62
7
  6
CONTINUOUS
 10
-1.6963068345
 20
16.0724242649
 11
-1.6965389463
 21
16.1420304126
  0
LINE
  5
566
100
AcDbEntity
  8
RACCORDO
100
AcDbLine
 62
7
  6
CONTINUOUS
 10
-1.696312615
 20
21.0740821103
 11
-1.6965369504
 21
21.1414035622
  0
LINE
  5
567
100
AcDbEntity
  8
ASSI
100
AcDbLine
 62
7
  6
CONTINUOUS
 10
-1.6963068345
 20
21.0724242649
 11
-1.6965389463
 21
21.1420304126
  0
LINE
  5
568
100
AcDbEntity
  8
RACCORDO
100
AcDbLine
 62
253
  6
CONTINUOUS
 10
-1.9972105689
 20
11.4657427344
 11
-1.9962946264
 21
11.1811757274
  0
LINE
  5
569
100
AcDbEntity
  8
ASSI
100
AcDbLine
 62
253
  6
CONTINUOUS
 10
-1.9972105689
 20
11.4657427344
 11
-1.9962946264
 21
11.1811757274
  0
LINE
  5
56A
100
AcDbEntity
  8
RACCORDO
100
AcDbLine
 62
253
  6
CONTINUOUS
 10
-1.9972105689
 20
16.4657427344
 11
-1.9962946264
 21
16.1811757274
  0
LINE
  5
56B
100
AcDbEntity
  8
ASSI
100
AcDbLine
 62
253
  6
CONTINUOUS
 10
-1.9972105689
 20
16.4657427344
 11
-1.9962946264
 21
16.1811757274
  0
LINE
  5
56C
100
AcDbEntity
  8
RACCORDO
100
AcDbLine
 62
253
  6
CONTINUOUS
 10
-1.9972105689
 20
21.4657427344
 11
-1.9962946264
 21
21.1811757274
  0
LINE
  5
56D
100
AcDbEntity
  8
ASSI
100
AcDbLine
 62
253
  6
CONTINUOUS
 10
-1.9972105689
 20
21.4657427344
 11
-1.9962946264
 21
21.1811757274
  0
LINE
  5
56E
100
AcDbEntity
  8
RACCORDO
100
AcDbLine
 62
253
  6
CONTINUOUS
 10
-1.9972105689
 20
26.4657427344
 11
-1.9962946264
 21
26.1811757274
  0
LINE
  5
56F
100
AcDbEntity
  8
ASSI
100
AcDbLine
 62
253
  6
CONTINUOUS
 10
-1.9972105689
 20
26.4657427344
 11
-1.9962946264
 21
26.1811757274
  0
LINE
  5
570
100
AcDbEntity
  8
RACCORDO
100
AcDbLine
 62
7
  6
CONTINUOUS
 10
-1.6965369504
 20
11.1414035622
 11
-1.6969384002
 21
11.2794038526
  0
LINE
  5
571
100
AcDbEntity
  8
RACCORDO
100
AcDbLine
 62
7
  6
CONTINUOUS
 10
-1.6965369504
 20
16.1414035622
 11
-1.6969384002
 21
16.2794038526
  0
LINE
  5
572
100
AcDbEntity
  8
RACCORDO
100
AcDbLine
 62
7
  6
CONTINUOUS
 10
-1.6965369504
 20
21.1414035622
 11
-1.6969384002
 21
21.2794038526
  0
LINE
  5
573
100
AcDbEntity
  8
ASSI
100
AcDbLine
 62
7
  6
CONTINUOUS
 10
-1.6965389463
 20
11.1420304126
 11
-1.6970450742
 21
11.3210503471
  0
LINE
  5
574
100
AcDbEntity
  8
ASSI
100
AcDbLine
 62
7
  6
CONTINUOUS
 10
-1.6965389463
 20
16.1420304126
 11
-1.6970450742
 21
16.3210503471
  0
LINE
  5
575
100
AcDbEntity
  8
ASSI
100
AcDbLine
 62
7
  6
CONTINUOUS
 10
-1.6965389463
 20
21.1420304126
 11
-1.6970450742
 21
21.3210503471
  0
LINE
  5
576
100
AcDbEntity
  8
RACCORDO
100
AcDbLine
 62
7
  6
CONTINUOUS
 10
-1.6969384002
 20
11.2794038526
 11
-1.6974130621
 21
11.4935571147
  0
LINE
  5
577
100
AcDbEntity
  8
RACCORDO
100
AcDbLine
 62
7
  6
CONTINUOUS
 10
-1.6969384002
 20
16.2794038526
 11
-1.6974130621
 21
16.4935571147
  0
LINE
  5
578
100
AcDbEntity
  8
RACCORDO
100
AcDbLine
 62
7
  6
CONTINUOUS
 10
-1.6969384002
 20
21.2794038526
 11
-1.6974130621
 21
21.4935571146
  0
LINE
  5
579
100
AcDbEntity
  8
RACCORDO
100
AcDbLine
 62
7
  6
CONTINUOUS
 10
-1.6964268046
 20
26.107597734
 11
-1.6974753957
 21
26.5299201649
  0
LINE
  5
57A
100
AcDbEntity
  8
RACCORDO
100
AcDbLine
 62
253
  6
CONTINUOUS
 10
-1.9977281411
 20
11.7606430429
 11
-1.9972105689
 21
11.4657427344
  0
LINE
  5
57B
100
AcDbEntity
  8
ASSI
100
AcDbLine
 62
253
  6
CONTINUOUS
 10
-1.9977281411
 20
11.7606430429
 11
-1.9972105689
 21
11.4657427344
  0
LINE
  5
57C
100
AcDbEntity
  8
RACCORDO
100
AcDbLine
 62
253
  6
CONTINUOUS
 10
-1.9977281411
 20
16.7606430429
 11
-1.9972105689
 21
16.4657427344
  0
LINE
  5
57D
100
AcDbEntity
  8
ASSI
100
AcDbLine
 62
253
  6
CONTINUOUS
 10
-1.9977281411
 20
16.7606430429
 11
-1.9972105689
 21
16.4657427344
  0
LINE
  5
57E
100
AcDbEntity
  8
RACCORDO
100
AcDbLine
 62
253
  6
CONTINUOUS
 10
-1.9977281411
 20
21.7606430429
 11
-1.9972105689
 21
21.4657427344
  0
LINE
  5
57F
100
AcDbEntity
  8
ASSI
100
AcDbLine
 62
253
  6
CONTINUOUS
 10
-1.9977281411
 20
21.7606430429
 11
-1.9972105689
 21
21.4657427344
  0
LINE
  5
580
100
AcDbEntity
  8
RACCORDO
100
AcDbLine
 62
253
  6
CONTINUOUS
 10
-1.9977281411
 20
26.7606430429
 11
-1.9972105689
 21
26.4657427344
  0
LINE
  5
581
100
AcDbEntity
  8
ASSI
100
AcDbLine
 62
253
  6
CONTINUOUS
 10
-1.9977281411
 20
26.7606430429
 11
-1.9972105689
 21
26.4657427344
  0
LINE
  5
582
100
AcDbEntity
  8
ASSI
100
AcDbLine
 62
7
  6
CONTINUOUS
 10
-1.6970450742
 20
11.3210503471
 11
-1.6975546377
 21
11.5813029563
  0
LINE
  5
583
100
AcDbEntity
  8
ASSI
100
AcDbLine
 62
7
  6
CONTINUOUS
 10
-1.6970450742
 20
16.3210503471
 11
-1.6975546377
 21
16.5813029563
  0
LINE
  5
584
100
AcDbEntity
  8
ASSI
100
AcDbLine
 62
7
  6
CONTINUOUS
 10
-1.6970450742
 20
21.3210503471
 11
-1.6975546377
 21
21.5813029563
  0
LINE
  5
585
100
AcDbEntity
  8
ASSI
100
AcDbLine
 62
7
  6
CONTINUOUS
 10
-1.6963068345
 20
26.0724242649
 11
-1.6976065298
 21
26.6191434262
  0
LINE
  5
586
100
AcDbEntity
  8
RACCORDO
100
AcDbLine
 62
7
  6
CONTINUOUS
 10
-1.6974130621
 20
11.4935571147
 11
-1.6976753799
 21
11.6767504104
  0
LINE
  5
587
100
AcDbEntity
  8
RACCORDO
100
AcDbLine
 62
7
  6
CONTINUOUS
 10
-1.6974130621
 20
16.4935571147
 11
-1.6976753799
 21
16.6767504104
  0
LINE
  5
588
100
AcDbEntity
  8
RACCORDO
100
AcDbLine
 62
7
  6
CONTINUOUS
 10
-1.6974130621
 20
21.4935571146
 11
-1.6976753799
 21
21.6767504104
  0
LINE
  5
589
100
AcDbEntity
  8
ASSI
100
AcDbLine
 62
7
  6
CONTINUOUS
 10
-1.6975546377
 20
11.5813029563
 11
-1.6977316575
 21
11.7333321302
  0
LINE
  5
58A
100
AcDbEntity
  8
ASSI
100
AcDbLine
 62
7
  6
CONTINUOUS
 10
-1.6975546377
 20
16.5813029563
 11
-1.6977316575
 21
16.7333321302
  0
LINE
  5
58B
100
AcDbEntity
  8
ASSI
100
AcDbLine
 62
7
  6
CONTINUOUS
 10
-1.6975546377
 20
21.5813029563
 11
-1.6977316575
 21
21.7333321302
  0
LINE
  5
58C
100
AcDbEntity
  8
RACCORDO
100
AcDbLine
 62
7
  6
CONTINUOUS
 10
-1.6976753799
 20
11.6767504104
 11
-1.697775878
 21
11.7879392816
  0
LINE
  5
58D
100
AcDbEntity
  8
RACCORDO
100
AcDbLine
 62
7
  6
CONTINUOUS
 10
-1.6976753799
 20
16.6767504104
 11
-1.697775878
 21
16.7879392816
  0
LINE
  5
58E
100
AcDbEntity
  8
RACCORDO
100
AcDbLine
 62
7
  6
CONTINUOUS
 10
-1.6976753799
 20
21.6767504104
 11
-1.697775878
 21
21.7879392816
  0
LINE
  5
58F
100
AcDbEntity
  8
ASSI
100
AcDbLine
 62
7
  6
CONTINUOUS
 10
-1.6977316575
 20
11.7333321302
 11
-1.6978411467
 21
11.9249089167
  0
LINE
  5
590
100
AcDbEntity
  8
ASSI
100
AcDbLine
 62
7
  6
CONTINUOUS
 10
-1.6977316575
 20
16.7333321302
 11
-1.6978411467
 21
16.9249089166
  0
LINE
  5
591
100
AcDbEntity
  8
ASSI
100
AcDbLine
 62
7
  6
CONTINUOUS
 10
-1.6977316575
 20
21.7333321302
 11
-1.6978411467
 21
21.9249089166
  0
LINE
  5
592
100
AcDbEntity
  8
ASSI
100
AcDbLine
 62
7
  6
CONTINUOUS
 10
-1.6976065298
 20
26.6191434262
 11
-1.6978471483
 21
26.9632673416
  0
LINE
  5
593
100
AcDbEntity
  8
DRAFT
100
AcDbLine
 62
7
  6
CONTINUOUS
 10
-3.0111825974
 20
5.1636116689
 11
-3.0111825974
 21
5.9588174026
  0
LINE
  5
594
100
AcDbEntity
  8
DRAFT
100
AcDbLine
 62
7
  6
CONTINUOUS
 10
-3.0111825974
 20
46.0111825974
 11
-3.0111825974
 21
46.8063883311
  0
LINE
  5
595
100
AcDbEntity
  8
DRAFT
100
AcDbLine
 62
7
  6
CONTINUOUS
 10
-2.985
 20
5.085
 11
-2.985
 21
5.985
  0
LINE
  5
596
100
AcDbEntity
  8
DRAFT
100
AcDbLine
 62
7
  6
CONTINUOUS
 10
-2.985
 20
45.985
 11
-2.985
 21
46.885
  0
LINE
  5
597
100
AcDbEntity
  8
ASSI
100
AcDbLine
 62
7
  6
CONTINUOUS
 10
-2.835
 20
29.135
 11
-2.835
 21
24.835
  0
LINE
  5
598
100
AcDbEntity
  8
ASSI
100
AcDbLine
 62
7
  6
CONTINUOUS
 10
-2.835
 20
24.135
 11
-2.835
 21
19.835
  0
LINE
  5
599
100
AcDbEntity
  8
ASSI
100
AcDbLine
 62
7
  6
CONTINUOUS
 10
-2.835
 20
19.135
 11
-2.835
 21
14.835
  0
LINE
  5
59A
100
AcDbEntity
  8
ASSI
100
AcDbLine
 62
7
  6
CONTINUOUS
 10
-2.835
 20
14.135
 11
-2.835
 21
9.835
  0
LINE
  5
59B
100
AcDbEntity
  8
RACCORDO
100
AcDbLine
 62
253
  6
CONTINUOUS
 10
-2.2393676032
 20
1.489371834
 11
-2.2393676032
 21
2.3571687836
  0
LINE
  5
59C
100
AcDbEntity
  8
RACCORDO
100
AcDbLine
 62
253
  6
CONTINUOUS
 10
-2.2393676032
 20
49.6128312164
 11
-2.2393676032
 21
50.480628166
  0
LINE
  5
59D
100
AcDbEntity
  8
RACCORDO
100
AcDbLine
 62
253
  6
CONTINUOUS
 10
-1.9978307802
 20
27.0601980423
 11
-1.9977281411
 21
26.7606430429
  0
LINE
  5
59E
100
AcDbEntity
  8
ASSI
100
AcDbLine
 62
253
  6
CONTINUOUS
 10
-1.9978307802
 20
27.0601980423
 11
-1.9977281411
 21
26.7606430429
  0
LINE
  5
59F
100
AcDbEntity
  8
RACCORDO
100
AcDbLine
 62
253
  6
CONTINUOUS
 10
-1.9978307802
 20
22.0601980423
 11
-1.9977281411
 21
21.7606430429
  0
LINE
  5
5A0
100
AcDbEntity
  8
ASSI
100
AcDbLine
 62
253
  6
CONTINUOUS
 10
-1.9978307802
 20
22.0601980423
 11
-1.9977281411
 21
21.7606430429
  0
LINE
  5
5A1
100
AcDbEntity
  8
RACCORDO
100
AcDbLine
 62
253
  6
CONTINUOUS
 10
-1.9978307802
 20
17.0601980423
 11
-1.9977281411
 21
16.7606430429
  0
LINE
  5
5A2
100
AcDbEntity
  8
ASSI
100
AcDbLine
 62
253
  6
CONTINUOUS
 10
-1.9978307802
 20
17.0601980423
 11
-1.9977281411
 21
16.7606430429
  0
LINE
  5
5A3
100
AcDbEntity
  8
RACCORDO
100
AcDbLine
 62
253
  6
CONTINUOUS
 10
-1.9978307802
 20
12.0601980423
 11
-1.9977281411
 21
11.7606430429
  0
LINE
  5
5A4
100
AcDbEntity
  8
ASSI
100
AcDbLine
 62
253
  6
CONTINUOUS
 10
-1.9978307802
 20
12.0601980423
 11
-1.9977281411
 21
11.7606430429
  0
LINE
  5
5A5
100
AcDbEntity
  8
RACCORDO
100
AcDbLine
 62
253
  6
CONTINUOUS
 10
-1.989371834
 20
1.7393676032
 11
-1.989371834
 21
2.1406624327
  0
LINE
  5
5A6
100
AcDbEntity
  8
RACCORDO
100
AcDbLine
 62
253
  6
CONTINUOUS
 10
-1.989371834
 20
49.8293375673
 11
-1.989371834
 21
50.2306323968
  0
LINE
  5
5A7
100
AcDbEntity
  8
RACCORDO
100
AcDbLine
 62
7
  6
CONTINUOUS
 10
-1.985
 20
1.7349957692
 11
-1.985
 21
3.585
  0
LINE
  5
5A8
100
AcDbEntity
  8
RACCORDO
100
AcDbLine
 62
7
  6
CONTINUOUS
 10
-1.985
 20
48.385
 11
-1.985
 21
50.2350042308
  0
LINE
  5
5A9
100
AcDbEntity
  8
RACCORDO
100
AcDbLine
 62
7
  6
CONTINUOUS
 10
-1.697775878
 20
11.7879392816
 11
-1.6978478485
 21
11.974110396
  0
LINE
  5
5AA
100
AcDbEntity
  8
RACCORDO
100
AcDbLine
 62
7
  6
CONTINUOUS
 10
-1.697775878
 20
16.7879392816
 11
-1.6978478485
 21
16.974110396
  0
LINE
  5
5AB
100
AcDbEntity
  8
RACCORDO
100
AcDbLine
 62
7
  6
CONTINUOUS
 10
-1.697775878
 20
21.7879392816
 11
-1.6978478485
 21
21.974110396
  0
LINE
  5
5AC
100
AcDbEntity
  8
RACCORDO
100
AcDbLine
 62
7
  6
CONTINUOUS
 10
-1.6974753957
 20
26.5299201649
 11
-1.6978468965
 21
27.0113364329
  0
LINE
  5
5AD
100
AcDbEntity
  8
ASSI
100
AcDbLine
 62
7
  6
CONTINUOUS
 10
-1.635
 20
9.621772105
 11
-1.635
 21
14.348227895
  0
LINE
  5
5AE
100
AcDbEntity
  8
ASSI
100
AcDbLine
 62
7
  6
CONTINUOUS
 10
-1.635
 20
14.621772105
 11
-1.635
 21
19.348227895
  0
LINE
  5
5AF
100
AcDbEntity
  8
ASSI
100
AcDbLine
 62
7
  6
CONTINUOUS
 10
-1.635
 20
19.621772105
 11
-1.635
 21
24.348227895
  0
LINE
  5
5B0
100
AcDbEntity
  8
ASSI
100
AcDbLine
 62
7
  6
CONTINUOUS
 10
-1.635
 20
24.621772105
 11
-1.635
 21
29.348227895
  0
LINE
  5
5B1
100
AcDbEntity
  8
ASSI
100
AcDbLine
 62
7
  6
CONTINUOUS
 10
-1.6978411467
 20
21.9249089166
 11
-1.6978162689
 21
22.1163275166
  0
LINE
  5
5B2
100
AcDbEntity
  8
ASSI
100
AcDbLine
 62
7
  6
CONTINUOUS
 10
-1.6978411467
 20
16.9249089166
 11
-1.6978162689
 21
17.1163275166
  0
LINE
  5
5B3
100
AcDbEntity
  8
ASSI
100
AcDbLine
 62
7
  6
CONTINUOUS
 10
-1.6978411467
 20
11.9249089167
 11
-1.6978162689
 21
12.1163275166
  0
LINE
  5
5B4
100
AcDbEntity
  8
RACCORDO
100
AcDbLine
 62
7
  6
CONTINUOUS
 10
-1.6978478485
 20
21.974110396
 11
-1.6977917271
 21
22.1597329985
  0
LINE
  5
5B5
100
AcDbEntity
  8
RACCORDO
100
AcDbLine
 62
7
  6
CONTINUOUS
 10
-1.6978478485
 20
16.974110396
 11
-1.6977917271
 21
17.1597329985
  0
LINE
  5
5B6
100
AcDbEntity
  8
RACCORDO
100
AcDbLine
 62
7
  6
CONTINUOUS
 10
-1.6978478485
 20
11.974110396
 11
-1.6977917271
 21
12.1597329985
  0
LINE
  5
5B7
100
AcDbEntity
  8
ASSI
100
AcDbLine
 62
7
  6
CONTINUOUS
 10
-1.6978471483
 20
26.9632673416
 11
-1.6976610572
 21
27.3056209472
  0
LINE
  5
5B8
100
AcDbEntity
  8
ASSI
100
AcDbLine
 62
7
  6
CONTINUOUS
 10
-1.6978162689
 20
22.1163275166
 11
-1.6977015718
 21
22.2680286631
  0
LINE
  5
5B9
100
AcDbEntity
  8
ASSI
100
AcDbLine
 62
7
  6
CONTINUOUS
 10
-1.6978162689
 20
17.1163275166
 11
-1.6977015718
 21
17.2680286631
  0
LINE
  5
5BA
100
AcDbEntity
  8
RACCORDO
100
AcDbLine
 62
7
  6
CONTINUOUS
 10
-1.6977917271
 20
17.1597329985
 11
-1.6976994801
 21
17.2700822835
  0
LINE
  5
5BB
100
AcDbEntity
  8
ASSI
100
AcDbLine
 62
7
  6
CONTINUOUS
 10
-1.6978162689
 20
12.1163275166
 11
-1.6977015718
 21
12.2680286631
  0
LINE
  5
5BC
100
AcDbEntity
  8
RACCORDO
100
AcDbLine
 62
7
  6
CONTINUOUS
 10
-1.6977917271
 20
12.1597329985
 11
-1.6976994801
 21
12.2700822835
  0
LINE
  5
5BD
100
AcDbEntity
  8
RACCORDO
100
AcDbLine
 62
253
  6
CONTINUOUS
 10
-1.9975200696
 20
27.3581571526
 11
-1.9978307802
 21
27.0601980423
  0
LINE
  5
5BE
100
AcDbEntity
  8
ASSI
100
AcDbLine
 62
253
  6
CONTINUOUS
 10
-1.9975200696
 20
27.3581571526
 11
-1.9978307802
 21
27.0601980423
  0
LINE
  5
5BF
100
AcDbEntity
  8
RACCORDO
100
AcDbLine
 62
253
  6
CONTINUOUS
 10
-1.9975200696
 20
22.3581571526
 11
-1.9978307802
 21
22.0601980423
  0
LINE
  5
5C0
100
AcDbEntity
  8
ASSI
100
AcDbLine
 62
253
  6
CONTINUOUS
 10
-1.9975200696
 20
22.3581571526
 11
-1.9978307802
 21
22.0601980423
  0
LINE
  5
5C1
100
AcDbEntity
  8
RACCORDO
100
AcDbLine
 62
253
  6
CONTINUOUS
 10
-1.9975200696
 20
17.3581571526
 11
-1.9978307802
 21
17.0601980423
  0
LINE
  5
5C2
100
AcDbEntity
  8
ASSI
100
AcDbLine
 62
253
  6
CONTINUOUS
 10
-1.9975200696
 20
17.3581571526
 11
-1.9978307802
 21
17.0601980423
  0
LINE
  5
5C3
100
AcDbEntity
  8
RACCORDO
100
AcDbLine
 62
253
  6
CONTINUOUS
 10
-1.9975200696
 20
12.3581571526
 11
-1.9978307802
 21
12.0601980423
  0
LINE
  5
5C4
100
AcDbEntity
  8
ASSI
100
AcDbLine
 62
253
  6
CONTINUOUS
 10
-1.9975200696
 20
12.3581571526
 11
-1.9978307802
 21
12.0601980423
  0
LINE
  5
5C5
100
AcDbEntity
  8
RACCORDO
100
AcDbLine
 62
7
  6
CONTINUOUS
 10
-1.6978468965
 20
27.0113364329
 11
-1.6974567697
 21
27.4510512752
  0
LINE
  5
5C6
100
AcDbEntity
  8
RACCORDO
100
AcDbLine
 62
7
  6
CONTINUOUS
 10
-1.6977917271
 20
22.1597329985
 11
-1.6975144599
 21
22.4152189488
  0
LINE
  5
5C7
100
AcDbEntity
  8
RACCORDO
100
AcDbLine
 62
7
  6
CONTINUOUS
 10
-1.6976994801
 20
17.2700822835
 11
-1.6975144599
 21
17.4152189488
  0
LINE
  5
5C8
100
AcDbEntity
  8
RACCORDO
100
AcDbLine
 62
7
  6
CONTINUOUS
 10
-1.6976994801
 20
12.2700822835
 11
-1.6975144599
 21
12.4152189488
  0
LINE
  5
5C9
100
AcDbEntity
  8
ASSI
100
AcDbLine
 62
7
  6
CONTINUOUS
 10
-1.6977015718
 20
22.2680286631
 11
-1.6974514116
 21
22.4542295087
  0
LINE
  5
5CA
100
AcDbEntity
  8
ASSI
100
AcDbLine
 62
7
  6
CONTINUOUS
 10
-1.6977015718
 20
17.2680286631
 11
-1.6974514116
 21
17.4542295087
  0
LINE
  5
5CB
100
AcDbEntity
  8
ASSI
100
AcDbLine
 62
7
  6
CONTINUOUS
 10
-1.6977015718
 20
12.2680286631
 11
-1.6974514116
 21
12.4542295087
  0
LINE
  5
5CC
100
AcDbEntity
  8
RACCORDO
100
AcDbLine
 62
7
  6
CONTINUOUS
 10
-1.6975144599
 20
22.4152189488
 11
-1.6970994873
 21
22.6268760776
  0
LINE
  5
5CD
100
AcDbEntity
  8
RACCORDO
100
AcDbLine
 62
7
  6
CONTINUOUS
 10
-1.6975144599
 20
17.4152189488
 11
-1.6970994873
 21
17.6268760776
  0
LINE
  5
5CE
100
AcDbEntity
  8
RACCORDO
100
AcDbLine
 62
7
  6
CONTINUOUS
 10
-1.6975144599
 20
12.4152189488
 11
-1.6970994873
 21
12.6268760776
  0
LINE
  5
5CF
100
AcDbEntity
  8
ASSI
100
AcDbLine
 62
7
  6
CONTINUOUS
 10
-1.6976610572
 20
27.3056209472
 11
-1.6968995719
 21
27.7053324083
  0
LINE
  5
5D0
100
AcDbEntity
  8
ASSI
100
AcDbLine
 62
7
  6
CONTINUOUS
 10
-1.6974514116
 20
22.4542295087
 11
-1.6969919341
 21
22.6702903115
  0
LINE
  5
5D1
100
AcDbEntity
  8
ASSI
100
AcDbLine
 62
7
  6
CONTINUOUS
 10
-1.6974514116
 20
17.4542295087
 11
-1.6969919341
 21
17.6702903115
  0
LINE
  5
5D2
100
AcDbEntity
  8
ASSI
100
AcDbLine
 62
7
  6
CONTINUOUS
 10
-1.6974514116
 20
12.4542295087
 11
-1.6969919341
 21
12.6702903115
  0
LINE
  5
5D3
100
AcDbEntity
  8
RACCORDO
100
AcDbLine
 62
253
  6
CONTINUOUS
 10
-1.99680089
 20
27.6486171596
 11
-1.9975200696
 21
27.3581571526
  0
LINE
  5
5D4
100
AcDbEntity
  8
ASSI
100
AcDbLine
 62
253
  6
CONTINUOUS
 10
-1.99680089
 20
27.6486171596
 11
-1.9975200696
 21
27.3581571526
  0
LINE
  5
5D5
100
AcDbEntity
  8
RACCORDO
100
AcDbLine
 62
253
  6
CONTINUOUS
 10
-1.99680089
 20
22.6486171596
 11
-1.9975200696
 21
22.3581571526
  0
LINE
  5
5D6
100
AcDbEntity
  8
ASSI
100
AcDbLine
 62
253
  6
CONTINUOUS
 10
-1.99680089
 20
22.6486171596
 11
-1.9975200696
 21
22.3581571526
  0
LINE
  5
5D7
100
AcDbEntity
  8
RACCORDO
100
AcDbLine
 62
253
  6
CONTINUOUS
 10
-1.99680089
 20
17.6486171596
 11
-1.9975200696
 21
17.3581571526
  0
LINE
  5
5D8
100
AcDbEntity
  8
ASSI
100
AcDbLine
 62
253
  6
CONTINUOUS
 10
-1.99680089
 20
17.6486171596
 11
-1.9975200696
 21
17.3581571526
  0
LINE
  5
5D9
100
AcDbEntity
  8
RACCORDO
100
AcDbLine
 62
253
  6
CONTINUOUS
 10
-1.99680089
 20
12.6486171596
 11
-1.9975200696
 21
12.3581571526
  0
LINE
  5
5DA
100
AcDbEntity
  8
ASSI
100
AcDbLine
 62
253
  6
CONTINUOUS
 10
-1.99680089
 20
12.6486171596
 11
-1.9975200696
 21
12.3581571526
  0
LINE
  5
5DB
100
AcDbEntity
  8
RACCORDO
100
AcDbLine
 62
7
  6
CONTINUOUS
 10
-1.6974567697
 20
27.4510512752
 11
-1.6966381856
 21
27.7959906027
  0
LINE
  5
5DC
100
AcDbEntity
  8
RACCORDO
100
AcDbLine
 62
7
  6
CONTINUOUS
 10
-1.6970994873
 20
17.6268760776
 11
-1.6967376458
 21
17.7627738924
  0
LINE
  5
5DD
100
AcDbEntity
  8
RACCORDO
100
AcDbLine
 62
7
  6
CONTINUOUS
 10
-1.6970994873
 20
12.6268760776
 11
-1.6967376458
 21
12.7627738924
  0
LINE
  5
5DE
100
AcDbEntity
  8
ASSI
100
AcDbLine
 62
7
  6
CONTINUOUS
 10
-1.6969919341
 20
17.6702903115
 11
-1.6965995134
 21
17.8085340045
  0
LINE
  5
5DF
100
AcDbEntity
  8
ASSI
100
AcDbLine
 62
7
  6
CONTINUOUS
 10
-1.6969919341
 20
12.6702903115
 11
-1.6965995134
 21
12.8085340045
  0
LINE
  5
5E0
100
AcDbEntity
  8
RACCORDO
100
AcDbLine
 62
7
  6
CONTINUOUS
 10
-1.6970994873
 20
22.6268760776
 11
-1.6963195668
 21
22.8937364829
  0
LINE
  5
5E1
100
AcDbEntity
  8
ASSI
100
AcDbLine
 62
7
  6
CONTINUOUS
 10
-1.6969919341
 20
22.6702903115
 11
-1.6961487831
 21
22.9414508619
  0
LINE
  5
5E2
100
AcDbEntity
  8
RACCORDO
100
AcDbLine
 62
7
  6
CONTINUOUS
 10
-1.6967376458
 20
17.7627738924
 11
-1.6962064291
 21
17.925670725
  0
LINE
  5
5E3
100
AcDbEntity
  8
RACCORDO
100
AcDbLine
 62
7
  6
CONTINUOUS
 10
-1.6967376458
 20
12.7627738924
 11
-1.6962064291
 21
12.925670725
  0
LINE
  5
5E4
100
AcDbEntity
  8
ASSI
100
AcDbLine
 62
7
  6
CONTINUOUS
 10
-1.6968995719
 20
27.7053324083
 11
-1.6955027454
 21
28.0998025565
  0
LINE
  5
5E5
100
AcDbEntity
  8
ASSI
100
AcDbLine
 62
7
  6
CONTINUOUS
 10
-1.6965995134
 20
17.8085340045
 11
-1.6956390558
 21
18.0688374838
  0
LINE
  5
5E6
100
AcDbEntity
  8
ASSI
100
AcDbLine
 62
7
  6
CONTINUOUS
 10
-1.6965995134
 20
12.8085340045
 11
-1.6956390558
 21
13.0688374838
  0
LINE
  5
5E7
100
AcDbEntity
  8
RACCORDO
100
AcDbLine
 62
253
  6
CONTINUOUS
 10
-1.9956868133
 20
27.9259381301
 11
-1.99680089
 21
27.6486171596
  0
LINE
  5
5E8
100
AcDbEntity
  8
ASSI
100
AcDbLine
 62
253
  6
CONTINUOUS
 10
-1.9956868133
 20
27.9259381301
 11
-1.99680089
 21
27.6486171596
  0
LINE
  5
5E9
100
AcDbEntity
  8
RACCORDO
100
AcDbLine
 62
253
  6
CONTINUOUS
 10
-1.9956868133
 20
22.9259381301
 11
-1.99680089
 21
22.6486171596
  0
LINE
  5
5EA
100
AcDbEntity
  8
ASSI
100
AcDbLine
 62
253
  6
CONTINUOUS
 10
-1.9956868133
 20
22.9259381301
 11
-1.99680089
 21
22.6486171596
  0
LINE
  5
5EB
100
AcDbEntity
  8
RACCORDO
100
AcDbLine
 62
253
  6
CONTINUOUS
 10
-1.9956868133
 20
17.9259381301
 11
-1.99680089
 21
17.6486171596
  0
LINE
  5
5EC
100
AcDbEntity
  8
ASSI
100
AcDbLine
 62
253
  6
CONTINUOUS
 10
-1.9956868133
 20
17.9259381301
 11
-1.99680089
 21
17.6486171596
  0
LINE
  5
5ED
100
AcDbEntity
  8
RACCORDO
100
AcDbLine
 62
253
  6
CONTINUOUS
 10
-1.9956868133
 20
12.9259381301
 11
-1.99680089
 21
12.6486171596
  0
LINE
  5
5EE
100
AcDbEntity
  8
ASSI
100
AcDbLine
 62
253
  6
CONTINUOUS
 10
-1.9956868133
 20
12.9259381301
 11
-1.99680089
 21
12.6486171596
  0
LINE
  5
5EF
100
AcDbEntity
  8
RACCORDO
100
AcDbLine
 62
7
  6
CONTINUOUS
 10
-1.6963195668
 20
22.8937364829
 11
-1.6953185106
 21
23.1399622352
  0
LINE
  5
5F0
100
AcDbEntity
  8
RACCORDO
100
AcDbLine
 62
7
  6
CONTINUOUS
 10
-1.6966381856
 20
27.7959906027
 11
-1.695036467
 21
28.1981608887
  0
LINE
  5
5F1
100
AcDbEntity
  8
ASSI
100
AcDbLine
 62
7
  6
CONTINUOUS
 10
-1.6961487831
 20
22.9414508619
 11
-1.6950743207
 21
23.1905590133
  0
LINE
  5
5F2
100
AcDbEntity
  8
RACCORDO
100
AcDbLine
 62
7
  6
CONTINUOUS
 10
-1.6962064291
 20
17.925670725
 11
-1.6951788916
 21
18.1692324911
  0
LINE
  5
5F3
100
AcDbEntity
  8
RACCORDO
100
AcDbLine
 62
7
  6
CONTINUOUS
 10
-1.6962064291
 20
12.925670725
 11
-1.6951788916
 21
13.1692324911
  0
LINE
  5
5F4
100
AcDbEntity
  8
ASSI
100
AcDbLine
 62
7
  6
CONTINUOUS
 10
-1.6956390558
 20
13.0688374838
 11
-1.6947741318
 21
13.2492632489
  0
LINE
  5
5F5
100
AcDbEntity
  8
RACCORDO
100
AcDbLine
 62
7
  6
CONTINUOUS
 10
-1.6951788916
 20
13.1692324911
 11
-1.6947438606
 21
13.2549944912
  0
LINE
  5
5F6
100
AcDbEntity
  8
ASSI
100
AcDbLine
 62
7
  6
CONTINUOUS
 10
-1.6956390558
 20
18.0688374838
 11
-1.6944637969
 21
18.3065118969
  0
LINE
  5
5F7
100
AcDbEntity
  8
ASSI
100
AcDbLine
 62
7
  6
CONTINUOUS
 10
-1.6955027454
 20
28.0998025565
 11
-1.6943047809
 21
28.3345889584
  0
LINE
  5
5F8
100
AcDbEntity
  8
CURVE
100
AcDbLine
 62
253
  6
CONTINUOUS
 10
-1.5792429948
 20
40.6635714507
 11
-1.5797831889
 21
40.5707143521
  0
LINE
  5
5F9
100
AcDbEntity
  8
RACCORDO
100
AcDbLine
 62
7
  6
CONTINUOUS
 10
-1.6953185106
 20
23.1399622352
 11
-1.6939702619
 21
23.391044411
  0
LINE
  5
5FA
100
AcDbEntity
  8
RACCORDO
100
AcDbLine
 62
253
  6
CONTINUOUS
 10
-1.994206573
 20
28.1848462051
 11
-1.9956868133
 21
27.9259381301
  0
LINE
  5
5FB
100
AcDbEntity
  8
ASSI
100
AcDbLine
 62
253
  6
CONTINUOUS
 10
-1.994206573
 20
28.1848462051
 11
-1.9956868133
 21
27.9259381301
  0
LINE
  5
5FC
100
AcDbEntity
  8
RACCORDO
100
AcDbLine
 62
253
  6
CONTINUOUS
 10
-1.994206573
 20
23.1848462051
 11
-1.9956868133
 21
22.9259381301
  0
LINE
  5
5FD
100
AcDbEntity
  8
ASSI
100
AcDbLine
 62
253
  6
CONTINUOUS
 10
-1.994206573
 20
23.1848462051
 11
-1.9956868133
 21
22.9259381301
  0
LINE
  5
5FE
100
AcDbEntity
  8
RACCORDO
100
AcDbLine
 62
253
  6
CONTINUOUS
 10
-1.994206573
 20
18.1848462051
 11
-1.9956868133
 21
17.9259381301
  0
LINE
  5
5FF
100
AcDbEntity
  8
ASSI
100
AcDbLine
 62
253
  6
CONTINUOUS
 10
-1.994206573
 20
18.1848462051
 11
-1.9956868133
 21
17.9259381301
  0
LINE
  5
600
100
AcDbEntity
  8
RACCORDO
100
AcDbLine
 62
253
  6
CONTINUOUS
 10
-1.994206573
 20
13.1848462051
 11
-1.9956868133
 21
12.9259381301
  0
LINE
  5
601
100
AcDbEntity
  8
ASSI
100
AcDbLine
 62
253
  6
CONTINUOUS
 10
-1.994206573
 20
13.1848462051
 11
-1.9956868133
 21
12.9259381301
  0
LINE
  5
602
100
AcDbEntity
  8
ASSI
100
AcDbLine
 62
7
  6
CONTINUOUS
 10
-1.6950743207
 20
23.1905590133
 11
-1.6938118165
 21
23.4166214271
  0
LINE
  5
603
100
AcDbEntity
  8
RACCORDO
100
AcDbLine
 62
7
  6
CONTINUOUS
 10
-1.6951788916
 20
18.1692324911
 11
-1.6938080738
 21
18.4172169811
  0
LINE
  5
604
100
AcDbEntity
  8
RACCORDO
100
AcDbLine
 62
7
  6
CONTINUOUS
 10
-1.695036467
 20
28.1981608887
 11
-1.6936433917
 21
28.443041549
  0
LINE
  5
605
100
AcDbEntity
  8
ASSI
100
AcDbLine
 62
7
  6
CONTINUOUS
 10
-1.6944637969
 20
18.3065118969
 11
-1.6931176364
 21
18.5208578404
  0
LINE
  5
606
100
AcDbEntity
  8
ASSI
100
AcDbLine
 62
7
  6
CONTINUOUS
 10
-1.6943047809
 20
28.3345889584
 11
-1.6929378313
 21
28.5459986206
  0
LINE
  5
607
100
AcDbEntity
  8
RACCORDO
100
AcDbLine
 62
7
  6
CONTINUOUS
 10
-1.6939702619
 20
23.391044411
 11
-1.6926054743
 21
23.590710711
  0
LINE
  5
608
100
AcDbEntity
  8
RACCORDO
100
AcDbLine
 62
7
  6
CONTINUOUS
 10
-1.6938080738
 20
18.4172169811
 11
-1.6924249736
 21
18.6141084813
  0
LINE
  5
609
100
AcDbEntity
  8
ASSI
100
AcDbLine
 62
7
  6
CONTINUOUS
 10
-1.6938118165
 20
23.4166214271
 11
-1.692384989
 21
23.6192123955
  0
LINE
  5
60A
100
AcDbEntity
  8
RACCORDO
100
AcDbLine
 62
7
  6
CONTINUOUS
 10
-1.6936433917
 20
28.443041549
 11
-1.6922426341
 21
28.6371597847
  0
LINE
  5
60B
100
AcDbEntity
  8
RACCORDO
100
AcDbLine
 62
253
  6
CONTINUOUS
 10
-1.9923811882
 20
28.4204831661
 11
-1.994206573
 21
28.1848462051
  0
LINE
  5
60C
100
AcDbEntity
  8
ASSI
100
AcDbLine
 62
253
  6
CONTINUOUS
 10
-1.9923811882
 20
28.4204831661
 11
-1.994206573
 21
28.1848462051
  0
LINE
  5
60D
100
AcDbEntity
  8
RACCORDO
100
AcDbLine
 62
253
  6
CONTINUOUS
 10
-1.9923811882
 20
23.4204831661
 11
-1.994206573
 21
23.1848462051
  0
LINE
  5
60E
100
AcDbEntity
  8
ASSI
100
AcDbLine
 62
253
  6
CONTINUOUS
 10
-1.9923811882
 20
23.4204831661
 11
-1.994206573
 21
23.1848462051
  0
LINE
  5
60F
100
AcDbEntity
  8
RACCORDO
100
AcDbLine
 62
253
  6
CONTINUOUS
 10
-1.9923811882
 20
18.4204831661
 11
-1.994206573
 21
18.1848462051
  0
LINE
  5
610
100
AcDbEntity
  8
ASSI
100
AcDbLine
 62
253
  6
CONTINUOUS
 10
-1.9923811882
 20
18.4204831661
 11
-1.994206573
 21
18.1848462051
  0
LINE
  5
611
100
AcDbEntity
  8
RACCORDO
100
AcDbLine
 62
253
  6
CONTINUOUS
 10
-1.9923811882
 20
13.4204831661
 11
-1.994206573
 21
13.1848462051
  0
LINE
  5
612
100
AcDbEntity
  8
ASSI
100
AcDbLine
 62
253
  6
CONTINUOUS
 10
-1.9923811882
 20
13.4204831661
 11
-1.994206573
 21
13.1848462051
  0
LWPOLYLINE
  5
613
100
AcDbEntity
  8
ASSI
100
AcDbPolyline
 62
7
  6
CONTINUOUS
 90
3
 70
0
 10
-1.6931176364
 20
18.5208578404
 10
-1.6916215857
 20
18.7116799111
 10
-1.6914265613
 20
18.7338756849
  0
LINE
  5
614
100
AcDbEntity
  8
ASSI
100
AcDbLine
 62
7
  6
CONTINUOUS
 10
-1.6929378313
 20
28.5459986206
 11
-1.6914265613
 21
28.7338756849
  0
LINE
  5
615
100
AcDbEntity
  8
RACCORDO
100
AcDbLine
 62
7
  6
CONTINUOUS
 10
-1.6924249736
 20
18.6141084813
 11
-1.691306969
 21
18.7472095139
  0
LINE
  5
616
100
AcDbEntity
  8
RACCORDO
100
AcDbLine
 62
7
  6
CONTINUOUS
 10
-1.6926054743
 20
23.590710711
 11
-1.6911149938
 21
23.7681814673
  0
LINE
  5
617
100
AcDbEntity
  8
RACCORDO
100
AcDbLine
 62
7
  6
CONTINUOUS
 10
-1.6922426341
 20
28.6371597847
 11
-1.6907260077
 21
28.8090911377
  0
LINE
  5
618
100
AcDbEntity
  8
ASSI
100
AcDbLine
 62
7
  6
CONTINUOUS
 10
-1.692384989
 20
23.6192123955
 11
-1.6908308815
 21
23.7982658615
  0
LINE
  5
619
100
AcDbEntity
  8
RACCORDO
100
AcDbLine
 62
253
  6
CONTINUOUS
 10
-2.2342770021
 20
2.8623502692
 11
-2.2393676032
 21
2.3571687836
  0
LINE
  5
61A
100
AcDbEntity
  8
RACCORDO
100
AcDbLine
 62
253
  6
CONTINUOUS
 10
-1.985
 20
2.5745148518
 11
-1.989371834
 21
2.1406624327
  0
LINE
  5
61B
100
AcDbEntity
  8
ASSI
100
AcDbLine
 62
7
  6
CONTINUOUS
 10
-1.6914265613
 20
28.7338756849
 11
-1.6898029756
 21
28.8982956737
  0
LINE
  5
61C
100
AcDbEntity
  8
RACCORDO
100
AcDbLine
 62
7
  6
CONTINUOUS
 10
-1.6911149938
 20
23.7681814673
 11
-1.6895201153
 21
23.9236074768
  0
LINE
  5
61D
100
AcDbEntity
  8
ASSI
100
AcDbLine
 62
7
  6
CONTINUOUS
 10
-1.6908308815
 20
23.7982658615
 11
-1.6891672654
 21
23.9539722776
  0
LINE
  5
61E
100
AcDbEntity
  8
RACCORDO
100
AcDbLine
 62
7
  6
CONTINUOUS
 10
-1.6907260077
 20
28.8090911377
 11
-1.6891066442
 21
28.9590596628
  0
LINE
  5
61F
100
AcDbEntity
  8
ASSI
100
AcDbLine
 62
7
  6
CONTINUOUS
 10
-1.6898029756
 20
28.8982956737
 11
-1.6880847783
 21
29.0395690442
  0
LINE
  5
620
100
AcDbEntity
  8
RACCORDO
100
AcDbLine
 62
7
  6
CONTINUOUS
 10
-1.6895201153
 20
23.9236074768
 11
-1.6878423351
 21
24.057281948
  0
LINE
  5
621
100
AcDbEntity
  8
RACCORDO
100
AcDbLine
 62
7
  6
CONTINUOUS
 10
-1.6891066442
 20
28.9590596628
 11
-1.6874145244
 21
29.087268651
  0
LINE
  5
622
100
AcDbEntity
  8
ASSI
100
AcDbLine
 62
7
  6
CONTINUOUS
 10
-1.6891672654
 20
23.9539722776
 11
-1.6874250287
 21
24.086551559
  0
LINE
  5
623
100
AcDbEntity
  8
CURVE
100
AcDbLine
 62
253
  6
CONTINUOUS
 10
-1.5797831889
 20
40.5707143521
 11
-1.5824841558
 21
40.385
  0
LINE
  5
624
100
AcDbEntity
  8
CURVE
100
AcDbLine
 62
253
  6
CONTINUOUS
 10
-1.5954488004
 20
38.2492858028
 11
-1.5857253168
 21
38.8992858028
  0
LINE
  5
625
100
AcDbEntity
  8
CURVE
100
AcDbLine
 62
7
  6
CONTINUOUS
 10
-1.542856974
 20
32.7375108811
 11
-1.5435444066
 21
32.6889253041
  0
LINE
  5
626
100
AcDbEntity
  8
ASSI
100
AcDbLine
 62
7
  6
CONTINUOUS
 10
-1.6880847783
 20
29.0395690442
 11
-1.6865346723
 21
29.1440052243
  0
LINE
  5
627
100
AcDbEntity
  8
RACCORDO
100
AcDbLine
 62
7
  6
CONTINUOUS
 10
-1.6878423351
 20
24.057281948
 11
-1.6863328185
 21
24.1561214032
  0
LINE
  5
628
100
AcDbEntity
  8
CURVE
100
AcDbLine
 62
253
  6
CONTINUOUS
 10
-1.5792429948
 20
42.5207142746
 11
-1.5824841558
 21
42.335
  0
LINE
  5
629
100
AcDbEntity
  8
CURVE
100
AcDbLine
 62
253
  6
CONTINUOUS
 10
-1.5905870589
 20
40.4778570986
 11
-1.5938282199
 21
40.2921429014
  0
LINE
  5
62A
100
AcDbEntity
  8
CURVE
100
AcDbLine
 62
253
  6
CONTINUOUS
 10
-1.5792429948
 20
38.3421429014
 11
-1.5808635759
 21
38.2492858028
  0
LINE
  5
62B
100
AcDbEntity
  8
CURVE
100
AcDbLine
 62
253
  6
CONTINUOUS
 10
-1.5792429948
 20
36.3921425915
 11
-1.5824841558
 21
36.2064283943
  0
LINE
  5
62C
100
AcDbEntity
  8
RACCORDO
100
AcDbLine
 62
7
  6
CONTINUOUS
 10
-1.6874145244
 20
29.087268651
 11
-1.6858966975
 21
29.1812046788
  0
LINE
  5
62D
100
AcDbEntity
  8
ASSI
100
AcDbLine
 62
7
  6
CONTINUOUS
 10
-1.6874250287
 20
24.086551559
 11
-1.6858612009
 21
24.1831818338
  0
LINE
  5
62E
100
AcDbEntity
  8
CURVE
100
AcDbLine
 62
7
  6
CONTINUOUS
 10
-1.5396720998
 20
32.1581812758
 11
-1.5389231237
 21
32.2047339945
  0
LINE
  5
62F
100
AcDbEntity
  8
ASSI
100
AcDbLine
 62
7
  6
CONTINUOUS
 10
-1.6865346723
 20
29.1440052243
 11
-1.6849615369
 21
29.2302025661
  0
LINE
  5
630
100
AcDbEntity
  8
CURVE
100
AcDbLine
 62
7
  6
CONTINUOUS
 10
-1.5211162907
 20
32.5647158652
 11
-1.5216900079
 21
32.5332344547
  0
LINE
  5
631
100
AcDbEntity
  8
RACCORDO
100
AcDbLine
 62
7
  6
CONTINUOUS
 10
-1.6863328185
 20
24.1561214032
 11
-1.6848055783
 21
24.2377710156
  0
LINE
  5
632
100
AcDbEntity
  8
CURVE
100
AcDbLine
 62
7
  6
CONTINUOUS
 10
-1.5435444066
 20
32.6889253041
 11
-1.5442724451
 21
32.6498559654
  0
LINE
  5
633
100
AcDbEntity
  8
RACCORDO
100
AcDbLine
 62
7
  6
CONTINUOUS
 10
-1.6858966975
 20
29.1812046788
 11
-1.6844988636
 21
29.2521380522
  0
LINE
  5
634
100
AcDbEntity
  8
RACCORDO
100
AcDbLine
 62
7
  6
CONTINUOUS
 10
-1.6848055783
 20
24.2377710156
 11
-1.6844988636
 21
24.2521380522
  0
LINE
  5
635
100
AcDbEntity
  8
CURVE
100
AcDbLine
 62
7
  6
CONTINUOUS
 10
-1.5163613125
 20
32.042885094
 11
-1.5152361568
 21
32.0979559419
  0
LINE
  5
636
100
AcDbEntity
  8
ASSI
100
AcDbLine
 62
7
  6
CONTINUOUS
 10
-1.6849615369
 20
29.2302025661
 11
-1.6844994825
 21
29.2521372892
  0
LINE
  5
637
100
AcDbEntity
  8
ASSI
100
AcDbLine
 62
7
  6
CONTINUOUS
 10
-1.6858612009
 20
24.1831818338
 11
-1.6844994825
 21
24.2521372892
  0
LINE
  5
638
100
AcDbEntity
  8
CURVE
100
AcDbLine
 62
7
  6
CONTINUOUS
 10
-1.5405336695
 20
32.1169032581
 11
-1.5396720998
 21
32.1581812758
  0
LINE
  5
639
100
AcDbEntity
  8
CURVE
100
AcDbLine
 62
7
  6
CONTINUOUS
 10
-1.5216900079
 20
32.5332344547
 11
-1.5221672069
 21
32.5125996704
  0
LINE
  5
63A
100
AcDbEntity
  8
CURVE
100
AcDbLine
 62
7
  6
CONTINUOUS
 10
-1.5442724451
 20
32.6498559654
 11
-1.5449138784
 21
32.622741862
  0
LINE
  5
63B
100
AcDbEntity
  8
CURVE
100
AcDbLine
 62
253
  6
CONTINUOUS
 10
-1.5922076394
 20
42.7064285687
 11
-1.595634211
 21
42.5755365344
  0
LINE
  5
63C
100
AcDbEntity
  8
CURVE
100
AcDbLine
 62
7
  6
CONTINUOUS
 10
-1.5175848483
 20
31.9952899148
 11
-1.5163613125
 21
32.042885094
  0
LINE
  5
63D
100
AcDbEntity
  8
CURVE
100
AcDbLine
 62
7
  6
CONTINUOUS
 10
-1.5414738315
 20
32.0807979509
 11
-1.5405336695
 21
32.1169032581
  0
LINE
  5
63E
100
AcDbEntity
  8
CURVE
100
AcDbLine
 62
7
  6
CONTINUOUS
 10
-1.5221672069
 20
32.5125996704
 11
-1.5226779492
 21
32.4946268658
  0
LINE
  5
63F
100
AcDbEntity
  8
CURVE
100
AcDbLine
 62
7
  6
CONTINUOUS
 10
-1.5449138784
 20
32.622741862
 11
-1.5454240445
 21
32.605123916
  0
LINE
  5
640
100
AcDbEntity
  8
CURVE
100
AcDbLine
 62
7
  6
CONTINUOUS
 10
-1.5422596987
 20
32.0555695192
 11
-1.5414738315
 21
32.0807979509
  0
LINE
  5
641
100
AcDbEntity
  8
CURVE
100
AcDbLine
 62
7
  6
CONTINUOUS
 10
-1.5184499369
 20
31.9680035901
 11
-1.5175848483
 21
31.9952899148
  0
LWPOLYLINE
  5
642
100
AcDbEntity
  8
RACCORDO
100
AcDbPolyline
 62
253
  6
CONTINUOUS
 90
31
 70
0
 10
-1.989371834
 20
49.8293375673
 10
-1.9897503896
 20
49.818039595
 10
-1.9908095172
 20
49.806769291
 10
-1.9925468937
 20
49.7955574212
 10
-1.9949585951
 20
49.7844336121
 10
-1.9980384654
 20
49.77342936
 10
-2.0017775164
 20
49.7625778202
 10
-2.0061650608
 20
49.7519096972
 10
-2.0111894598
 20
49.7414530239
 10
-2.0168371404
 20
49.731236105
 10
-2.0230928329
 20
49.7212866999
 10
-2.0299394075
 20
49.7116321754
 10
-2.0373580158
 20
49.7022991519
 10
-2.0453283199
 20
49.6933132018
 10
-2.0538286147
 20
49.6846987826
 10
-2.0628357051
 20
49.6764794042
 10
-2.0723250088
 20
49.6686775075
 10
-2.0822705959
 20
49.6613144193
 10
-2.0926452788
 20
49.6544102704
 10
-2.1034207112
 20
49.6479839239
 10
-2.1145674692
 20
49.6420529269
 10
-2.1260551062
 20
49.6366334796
 10
-2.137852263
 20
49.6317403776
 10
-2.1499266994
 20
49.6273869945
 10
-2.162245379
 20
49.6235852371
 10
-2.1747746144
 20
49.6203454907
 10
-2.1874802172
 20
49.6176765842
 10
-2.200327538
 20
49.6155857918
 10
-2.2132815053
 20
49.6140788219
 10
-2.226306719
 20
49.6131597935
 10
-2.2393676032
 20
49.6128312164
  0
LINE
  5
643
100
AcDbEntity
  8
CURVE
100
AcDbLine
 62
7
  6
CONTINUOUS
 10
-1.5454240445
 20
32.605123916
 11
-1.5457761056
 21
32.5947805268
  0
LINE
  5
644
100
AcDbEntity
  8
CURVE
100
AcDbLine
 62
7
  6
CONTINUOUS
 10
-1.5226779492
 20
32.4946268658
 11
-1.5230340069
 21
32.4841716039
  0
LINE
  5
645
100
AcDbEntity
  8
CURVE
100
AcDbLine
 62
7
  6
CONTINUOUS
 10
-1.5431854822
 20
32.0302591334
 11
-1.5422596987
 21
32.0555695192
  0
LWPOLYLINE
  5
646
100
AcDbEntity
  8
RACCORDO
100
AcDbPolyline
 62
253
  6
CONTINUOUS
 90
9
 70
0
 10
-1.9809491559
 20
29.0871628602
 10
-1.9824020336
 20
29.0503431812
 10
-1.9838304643
 20
29.0034321774
 10
-1.9852142443
 20
28.9467007353
 10
-1.9865524783
 20
28.8804799106
 10
-1.9878460615
 20
28.8051287863
 10
-1.9890774758
 20
28.7210070144
 10
-1.9902458327
 20
28.6285515895
 10
-1.9923811882
 20
28.4204831661
  0
LWPOLYLINE
  5
647
100
AcDbEntity
  8
ASSI
100
AcDbPolyline
 62
253
  6
CONTINUOUS
 90
9
 70
0
 10
-1.9809491559
 20
29.0871628602
 10
-1.9824020336
 20
29.0503431812
 10
-1.9838304643
 20
29.0034321774
 10
-1.9852142443
 20
28.9467007353
 10
-1.9865524783
 20
28.8804799106
 10
-1.9878460615
 20
28.8051287863
 10
-1.9890774758
 20
28.7210070144
 10
-1.9902458327
 20
28.6285515895
 10
-1.9923811882
 20
28.4204831661
  0
LWPOLYLINE
  5
648
100
AcDbEntity
  8
RACCORDO
100
AcDbPolyline
 62
253
  6
CONTINUOUS
 90
9
 70
0
 10
-1.9809491559
 20
24.0871628602
 10
-1.9824020336
 20
24.0503431812
 10
-1.9838304643
 20
24.0034321774
 10
-1.9852142443
 20
23.9467007353
 10
-1.9865524783
 20
23.8804799106
 10
-1.9878460615
 20
23.8051287863
 10
-1.9890774758
 20
23.7210070144
 10
-1.9902458327
 20
23.6285515895
 10
-1.9923811882
 20
23.4204831661
  0
LWPOLYLINE
  5
649
100
AcDbEntity
  8
ASSI
100
AcDbPolyline
 62
253
  6
CONTINUOUS
 90
9
 70
0
 10
-1.9809491559
 20
24.0871628602
 10
-1.9824020336
 20
24.0503431812
 10
-1.9838304643
 20
24.0034321774
 10
-1.9852142443
 20
23.9467007353
 10
-1.9865524783
 20
23.8804799106
 10
-1.9878460615
 20
23.8051287863
 10
-1.9890774758
 20
23.7210070144
 10
-1.9902458327
 20
23.6285515895
 10
-1.9923811882
 20
23.4204831661
  0
LWPOLYLINE
  5
64A
100
AcDbEntity
  8
RACCORDO
100
AcDbPolyline
 62
253
  6
CONTINUOUS
 90
9
 70
0
 10
-1.9809491559
 20
19.0871628602
 10
-1.9824020336
 20
19.0503431812
 10
-1.9838304643
 20
19.0034321774
 10
-1.9852142443
 20
18.9467007353
 10
-1.9865524783
 20
18.8804799106
 10
-1.9878460615
 20
18.8051287863
 10
-1.9890774758
 20
18.7210070144
 10
-1.9902458327
 20
18.6285515895
 10
-1.9923811882
 20
18.4204831661
  0
LWPOLYLINE
  5
64B
100
AcDbEntity
  8
ASSI
100
AcDbPolyline
 62
253
  6
CONTINUOUS
 90
9
 70
0
 10
-1.9809491559
 20
19.0871628602
 10
-1.9824020336
 20
19.0503431812
 10
-1.9838304643
 20
19.0034321774
 10
-1.9852142443
 20
18.9467007353
 10
-1.9865524783
 20
18.8804799106
 10
-1.9878460615
 20
18.8051287863
 10
-1.9890774758
 20
18.7210070144
 10
-1.9902458327
 20
18.6285515895
 10
-1.9923811882
 20
18.4204831661
  0
LINE
  5
64C
100
AcDbEntity
  8
CURVE
100
AcDbLine
 62
7
  6
CONTINUOUS
 10
-1.5457761056
 20
32.5947805268
 11
-1.5461365432
 21
32.5856257382
  0
LINE
  5
64D
100
AcDbEntity
  8
CURVE
100
AcDbLine
 62
7
  6
CONTINUOUS
 10
-1.5230340069
 20
32.4841716039
 11
-1.5234003641
 21
32.4749710392
  0
LINE
  5
64E
100
AcDbEntity
  8
CURVE
100
AcDbLine
 62
7
  6
CONTINUOUS
 10
-1.5438099557
 20
32.0153884361
 11
-1.5431854822
 21
32.0302591334
  0
LINE
  5
64F
100
AcDbEntity
  8
CURVE
100
AcDbLine
 62
7
  6
CONTINUOUS
 10
-1.5616626179
 20
38.025105
 11
-1.5286229328
 21
38.735162
  0
LINE
  5
650
100
AcDbEntity
  8
CURVE
100
AcDbLine
 62
7
  6
CONTINUOUS
 10
-1.5110644027
 20
38.578234
 11
-1.5391566828
 21
37.979355
  0
LINE
  5
651
100
AcDbEntity
  8
CURVE
100
AcDbLine
 62
7
  6
CONTINUOUS
 10
-1.5461365432
 20
32.5856257382
 11
-1.547003281
 21
32.5671496629
  0
LINE
  5
652
100
AcDbEntity
  8
CURVE
100
AcDbLine
 62
7
  6
CONTINUOUS
 10
-1.5444395669
 20
32.0018611677
 11
-1.5438099557
 21
32.0153884361
  0
LWPOLYLINE
  5
653
100
AcDbEntity
  8
CURVE
100
AcDbPolyline
 62
7
  6
CONTINUOUS
 90
12
 70
0
 10
-1.5234003641
 20
32.4749710392
 10
-1.5237751776
 20
32.4670538098
 10
-1.5239651793
 20
32.4635853953
 10
-1.5241566038
 20
32.4604485539
 10
-1.5243492206
 20
32.4576468654
 10
-1.5245427994
 20
32.4551839095
 10
-1.5247371096
 20
32.453063266
 10
-1.5249319209
 20
32.4512885147
 10
-1.5251270029
 20
32.4498632352
 10
-1.5253221251
 20
32.4487910075
 10
-1.525517057
 20
32.4480754112
 10
-1.5257115683
 20
32.4477200261
  0
LINE
  5
654
100
AcDbEntity
  8
CURVE
100
AcDbLine
 62
7
  6
CONTINUOUS
 10
-1.5450737243
 20
31.9894554262
 11
-1.5444395669
 21
32.0018611677
  0
LINE
  5
655
100
AcDbEntity
  8
CURVE
100
AcDbLine
 62
7
  6
CONTINUOUS
 10
-1.547003281
 20
32.5671496629
 11
-1.549074072
 21
32.5273250787
  0
LINE
  5
656
100
AcDbEntity
  8
CURVE
100
AcDbLine
 62
7
  6
CONTINUOUS
 10
-1.5616626179
 20
42.066013
 11
-1.5110644027
 21
42.98526
  0
LINE
  5
657
100
AcDbEntity
  8
CURVE
100
AcDbLine
 62
7
  6
CONTINUOUS
 10
-1.5110644027
 20
34.91399
 11
-1.5616626179
 21
34.024304
  0
LINE
  5
658
100
AcDbEntity
  8
CURVE
100
AcDbLine
 62
253
  6
CONTINUOUS
 10
-1.5857253168
 20
35.2778574085
 11
-1.6019311231
 21
34.9992858028
  0
LINE
  5
659
100
AcDbEntity
  8
CURVE
100
AcDbLine
 62
7
  6
CONTINUOUS
 10
-1.5460321906
 20
31.9724642666
 11
-1.5450737243
 21
31.9894554262
  0
LINE
  5
65A
100
AcDbEntity
  8
CURVE
100
AcDbLine
 62
7
  6
CONTINUOUS
 10
-1.549074072
 20
32.5273250787
 11
-1.551865799
 21
32.4793638394
  0
LINE
  5
65B
100
AcDbEntity
  8
CURVE
100
AcDbLine
 62
7
  6
CONTINUOUS
 10
-1.551865799
 20
32.4793638394
 11
-1.561662624
 21
32.3168417383
  0
LINE
  5
65C
100
AcDbEntity
  8
CURVE
100
AcDbLine
 62
7
  6
CONTINUOUS
 10
-1.5110644027
 20
42.327748
 11
-1.5458927219
 21
41.775021
  0
LINE
  5
65D
100
AcDbEntity
  8
CURVE
100
AcDbLine
 62
7
  6
CONTINUOUS
 10
-1.547967833
 20
31.9415587397
 11
-1.5460321906
 21
31.9724642666
  0
LINE
  5
65E
100
AcDbEntity
  8
CURVE
100
AcDbLine
 62
7
  6
CONTINUOUS
 10
-1.5616626179
 20
34.662235
 11
-1.5515614123
 21
34.819033
  0
LWPOLYLINE
  5
65F
100
AcDbEntity
  8
CURVE
100
AcDbPolyline
 62
7
  6
CONTINUOUS
 90
3
 70
0
 10
-1.561662624
 20
31.7346410148
 10
-1.5548148617
 20
31.8380226239
 10
-1.547967833
 20
31.9415587397
  0
LINE
  5
660
100
AcDbEntity
  8
CURVE
100
AcDbLine
 62
7
  6
CONTINUOUS
 10
-1.5437451465
 20
34.939996
 11
-1.5249675072
 21
35.218126
  0
LINE
  5
661
100
AcDbEntity
  8
CURVE
100
AcDbLine
 62
253
  6
CONTINUOUS
 10
-1.5792429948
 20
35.835
 11
-1.6019311231
 21
35.5564283943
  0
LINE
  5
662
100
AcDbEntity
  8
DRAFT
100
AcDbLine
 62
7
  6
CONTINUOUS
 10
-5.3262732553
 20
5.1636116689
 11
-5.3361623254
 21
5.0745296196
  0
LWPOLYLINE
  5
663
100
AcDbEntity
  8
RACCORDO
100
AcDbPolyline
 62
253
  6
CONTINUOUS
 90
4
 70
0
 10
-1.9764640455
 20
29.135
 10
-1.9779835292
 20
29.1296495539
 10
-1.979478566
 20
29.1136599447
 10
-1.9809491559
 20
29.0871628602
  0
LWPOLYLINE
  5
664
100
AcDbEntity
  8
ASSI
100
AcDbPolyline
 62
253
  6
CONTINUOUS
 90
4
 70
0
 10
-1.9764640455
 20
29.135
 10
-1.9779835292
 20
29.1296495539
 10
-1.979478566
 20
29.1136599447
 10
-1.9809491559
 20
29.0871628602
  0
LWPOLYLINE
  5
665
100
AcDbEntity
  8
RACCORDO
100
AcDbPolyline
 62
253
  6
CONTINUOUS
 90
4
 70
0
 10
-1.9764640455
 20
24.135
 10
-1.9779835292
 20
24.1296495539
 10
-1.979478566
 20
24.1136599447
 10
-1.9809491559
 20
24.0871628602
  0
LWPOLYLINE
  5
666
100
AcDbEntity
  8
ASSI
100
AcDbPolyline
 62
253
  6
CONTINUOUS
 90
4
 70
0
 10
-1.9764640455
 20
24.135
 10
-1.9779835292
 20
24.1296495539
 10
-1.979478566
 20
24.1136599447
 10
-1.9809491559
 20
24.0871628602
  0
LINE
  5
667
100
AcDbEntity
  8
RACCORDO
100
AcDbLine
 62
7
  6
CONTINUOUS
 10
-18.9920215015
 20
6.2279784985
 11
-18.935
 21
6.285
  0
LINE
  5
668
100
AcDbEntity
  8
RACCORDO
100
AcDbLine
 62
253
  6
CONTINUOUS
 10
-23.280628166
 20
1.7393676032
 11
-23.285
 21
1.7349957692
  0
LINE
  5
669
100
AcDbEntity
  8
RACCORDO
100
AcDbLine
 62
253
  6
CONTINUOUS
 10
-23.0306323968
 20
1.489371834
 11
-23.0350042308
 21
1.485
  0
LWPOLYLINE
  5
66A
100
AcDbEntity
  8
CURVE
100
AcDbPolyline
 62
7
  6
CONTINUOUS
 90
16
 70
0
 10
-1.5267565377
 20
20.2034731997
 10
-1.5262620667
 20
20.2037498373
 10
-1.5257660638
 20
20.2046014587
 10
-1.5252692023
 20
20.2060606266
 10
-1.5247721557
 20
20.2081599038
 10
-1.5242755972
 20
20.210931853
 10
-1.5237802001
 20
20.214409037
 10
-1.5232866377
 20
20.2186240186
 10
-1.5227955834
 20
20.2236093606
 10
-1.5223077105
 20
20.2293976256
 10
-1.5218236922
 20
20.2360213765
 10
-1.5213442019
 20
20.243513176
 10
-1.5208699129
 20
20.2519055869
 10
-1.5204014985
 20
20.2612311719
 10
-1.5199396321
 20
20.2715224939
 10
-1.5190632874
 20
20.2944023339
  0
LINE
  5
66B
100
AcDbEntity
  8
CURVE
100
AcDbLine
 62
253
  6
CONTINUOUS
 10
-1.5824841558
 20
36.2064283943
 11
-1.5986899618
 21
36.2064283943
  0
LINE
  5
66C
100
AcDbEntity
  8
CURVE
100
AcDbLine
 62
253
  6
CONTINUOUS
 10
-1.5986899618
 20
36.8564283943
 11
-1.5824841558
 21
36.8564283943
  0
LINE
  5
66D
100
AcDbEntity
  8
RACCORDO
100
AcDbLine
 62
7
  6
CONTINUOUS
 10
-18.9920215015
 20
45.7420215015
 11
-18.935
 21
45.685
  0
LINE
  5
66E
100
AcDbEntity
  8
RACCORDO
100
AcDbLine
 62
253
  6
CONTINUOUS
 10
-23.280628166
 20
50.2306323968
 11
-23.285
 21
50.2350042308
  0
LINE
  5
66F
100
AcDbEntity
  8
RACCORDO
100
AcDbLine
 62
253
  6
CONTINUOUS
 10
-23.0306323968
 20
50.480628166
 11
-23.0350042308
 21
50.485
  0
LINE
  5
670
100
AcDbEntity
  8
DRAFT
100
AcDbLine
 62
7
  6
CONTINUOUS
 10
-5.3361623254
 20
46.8954703804
 11
-5.3262732553
 21
46.8063883311
  0
LINE
  5
671
100
AcDbEntity
  8
CURVE
100
AcDbLine
 62
253
  6
CONTINUOUS
 10
-1.6019311231
 20
34.9992858028
 11
-1.5792429948
 21
34.7207141972
  0
LINE
  5
672
100
AcDbEntity
  8
CURVE
100
AcDbLine
 62
253
  6
CONTINUOUS
 10
-1.5425929412
 20
26.9264285609
 11
-1.5199048129
 21
26.5735713655
  0
LINE
  5
673
100
AcDbEntity
  8
CURVE
100
AcDbLine
 62
7
  6
CONTINUOUS
 10
-1.5249675072
 20
35.218126
 11
-1.5437451465
 21
35.5195
  0
LINE
  5
674
100
AcDbEntity
  8
CURVE
100
AcDbLine
 62
7
  6
CONTINUOUS
 10
-1.5458927219
 20
41.775021
 11
-1.5110644027
 21
41.20541
  0
LINE
  5
675
100
AcDbEntity
  8
CURVE
100
AcDbLine
 62
253
  6
CONTINUOUS
 10
-1.6019311231
 20
26.4826190478
 11
-1.5792429948
 21
26.1111904985
  0
LINE
  5
676
100
AcDbEntity
  8
CURVE
100
AcDbLine
 62
7
  6
CONTINUOUS
 10
-1.5515614123
 20
35.643312
 11
-1.5616626179
 21
35.810329
  0
LINE
  5
677
100
AcDbEntity
  8
CURVE
100
AcDbLine
 62
253
  6
CONTINUOUS
 10
-1.6019311231
 20
35.5564283943
 11
-1.5857253168
 21
35.2778574085
  0
LINE
  5
678
100
AcDbEntity
  8
CURVE
100
AcDbLine
 62
7
  6
CONTINUOUS
 10
-1.5616626179
 20
36.409033
 11
-1.5110644027
 21
35.499517
  0
LINE
  5
679
100
AcDbEntity
  8
CURVE
100
AcDbLine
 62
7
  6
CONTINUOUS
 10
-1.5110644027
 20
40.600552
 11
-1.5616626179
 21
41.532617
  0
LWPOLYLINE
  5
67A
100
AcDbEntity
  8
CURVE
100
AcDbPolyline
 62
7
  6
CONTINUOUS
 90
26
 70
0
 10
-1.530925765
 20
31.9398829905
 10
-1.5304613654
 20
31.9298983562
 10
-1.5299911771
 20
31.9208226033
 10
-1.5295158805
 20
31.9126625757
 10
-1.5290361558
 20
31.9054251176
 10
-1.5285526835
 20
31.899117073
 10
-1.5280685511
 20
31.8937657588
 10
-1.5275818169
 20
31.8893233645
 10
-1.5270929157
 20
31.885771919
 10
-1.5266022821
 20
31.8830934514
 10
-1.526110351
 20
31.8812699906
 10
-1.5256175572
 20
31.8802835656
 10
-1.5251243353
 20
31.8801162053
 10
-1.5246311202
 20
31.8807499389
 10
-1.5241383102
 20
31.8821737689
 10
-1.5236464587
 20
31.8844036451
 10
-1.5231560825
 20
31.8874623317
 10
-1.5226676985
 20
31.8913725927
 10
-1.5221818236
 20
31.8961571921
 10
-1.5216989746
 20
31.901838894
 10
-1.5212196684
 20
31.9084404624
 10
-1.5207444218
 20
31.9159846614
 10
-1.5202734117
 20
31.9244959632
 10
-1.5198077217
 20
31.9339638599
 10
-1.5193480883
 20
31.9443779986
 10
-1.5184499369
 20
31.9680035901
  0
LINE
  5
67B
100
AcDbEntity
  8
CURVE
100
AcDbLine
 62
7
  6
CONTINUOUS
 10
-1.5391566828
 20
37.979355
 11
-1.5110644027
 21
37.374084
  0
LINE
  5
67C
100
AcDbEntity
  8
CURVE
100
AcDbLine
 62
7
  6
CONTINUOUS
 10
-1.5287606637
 20
37.220548
 11
-1.5616626179
 21
37.940216
  0
LINE
  5
67D
100
AcDbEntity
  8
CURVE
100
AcDbLine
 62
7
  6
CONTINUOUS
 10
-1.5288217308
 20
32.4756139715
 11
-1.5292489769
 21
32.4846847366
  0
LINE
  5
67E
100
AcDbEntity
  8
CURVE
100
AcDbLine
 62
7
  6
CONTINUOUS
 10
-1.5292489769
 20
32.4846847366
 11
-1.5296646752
 21
32.4950524598
  0
LINE
  5
67F
100
AcDbEntity
  8
CURVE
100
AcDbLine
 62
7
  6
CONTINUOUS
 10
-1.5318344765
 20
31.9625515264
 11
-1.530925765
 21
31.9398829905
  0
LINE
  5
680
100
AcDbEntity
  8
CURVE
100
AcDbLine
 62
253
  6
CONTINUOUS
 10
-1.5328694576
 20
27.6321428414
 11
-1.5199048129
 21
27.2792856827
  0
LINE
  5
681
100
AcDbEntity
  8
CURVE
100
AcDbLine
 62
7
  6
CONTINUOUS
 10
-1.5296646752
 20
32.4950524598
 11
-1.5300663985
 21
32.5067256342
  0
LINE
  5
682
100
AcDbEntity
  8
CURVE
100
AcDbLine
 62
7
  6
CONTINUOUS
 10
-1.5327115877
 20
31.9887702092
 11
-1.5318344765
 21
31.9625515264
  0
LINE
  5
683
100
AcDbEntity
  8
CURVE
100
AcDbLine
 62
7
  6
CONTINUOUS
 10
-1.5335515272
 20
32.0186171054
 11
-1.5327115877
 21
31.9887702092
  0
LINE
  5
684
100
AcDbEntity
  8
CURVE
100
AcDbLine
 62
7
  6
CONTINUOUS
 10
-1.5300663985
 20
32.5067256342
 11
-1.5306374703
 21
32.5267016952
  0
LINE
  5
685
100
AcDbEntity
  8
CURVE
100
AcDbLine
 62
7
  6
CONTINUOUS
 10
-1.5306374703
 20
32.5267016952
 11
-1.5311634445
 21
32.5496627948
  0
LINE
  5
686
100
AcDbEntity
  8
CURVE
100
AcDbLine
 62
7
  6
CONTINUOUS
 10
-1.534718871
 20
32.0699693937
 11
-1.5335515272
 21
32.0186171054
  0
LINE
  5
687
100
AcDbEntity
  8
CURVE
100
AcDbLine
 62
253
  6
CONTINUOUS
 10
-1.5393517799
 20
25.250357269
 11
-1.5425929412
 21
25.4267857563
  0
LINE
  5
688
100
AcDbEntity
  8
CURVE
100
AcDbLine
 62
253
  6
CONTINUOUS
 10
-1.5824841558
 20
36.8564283943
 11
-1.5792429948
 21
36.6707141972
  0
LINE
  5
689
100
AcDbEntity
  8
CURVE
100
AcDbLine
 62
253
  6
CONTINUOUS
 10
-1.5824841558
 20
38.8992858028
 11
-1.5792429948
 21
38.7135712957
  0
LINE
  5
68A
100
AcDbEntity
  8
CURVE
100
AcDbLine
 62
253
  6
CONTINUOUS
 10
-1.5873458979
 20
40.385
 11
-1.5905870589
 21
40.5707143521
  0
LINE
  5
68B
100
AcDbEntity
  8
CURVE
100
AcDbLine
 62
253
  6
CONTINUOUS
 10
-1.5824841558
 20
41.9635714507
 11
-1.5792429948
 21
41.7778571761
  0
LINE
  5
68C
100
AcDbEntity
  8
CURVE
100
AcDbLine
 62
253
  6
CONTINUOUS
 10
-1.5889664778
 20
42.335
 11
-1.5922076394
 21
42.5207142746
  0
LINE
  5
68D
100
AcDbEntity
  8
CURVE
100
AcDbLine
 62
7
  6
CONTINUOUS
 10
-1.5311634445
 20
32.5496627948
 11
-1.53177936
 21
32.5848907667
  0
LINE
  5
68E
100
AcDbEntity
  8
CURVE
100
AcDbLine
 62
7
  6
CONTINUOUS
 10
-1.5364295847
 20
32.1704704217
 11
-1.534718871
 21
32.0699693937
  0
LINE
  5
68F
100
AcDbEntity
  8
CURVE
100
AcDbLine
 62
7
  6
CONTINUOUS
 10
-1.5320092326
 20
20.9630638947
 11
-1.532462098
 21
20.9907990037
  0
LINE
  5
690
100
AcDbEntity
  8
CURVE
100
AcDbLine
 62
7
  6
CONTINUOUS
 10
-1.539210983
 20
20.5448581332
 11
-1.537797985
 21
20.4382275905
  0
LINE
  5
691
100
AcDbEntity
  8
CURVE
100
AcDbLine
 62
7
  6
CONTINUOUS
 10
-1.5374337397
 20
32.2429238142
 11
-1.5364295847
 21
32.1704704217
  0
LINE
  5
692
100
AcDbEntity
  8
CURVE
100
AcDbLine
 62
7
  6
CONTINUOUS
 10
-1.53177936
 20
32.5848907667
 11
-1.5323991275
 21
32.6356184606
  0
LINE
  5
693
100
AcDbEntity
  8
CURVE
100
AcDbLine
 62
7
  6
CONTINUOUS
 10
-1.532462098
 20
20.9907990037
 11
-1.5329939986
 21
21.0388443093
  0
LINE
  5
694
100
AcDbEntity
  8
CURVE
100
AcDbLine
 62
7
  6
CONTINUOUS
 10
-1.5376639211
 20
32.2706463252
 11
-1.5374337397
 21
32.2429238142
  0
LINE
  5
695
100
AcDbEntity
  8
CURVE
100
AcDbLine
 62
7
  6
CONTINUOUS
 10
-1.540764368
 20
20.7346750006
 11
-1.539210983
 21
20.5448581332
  0
LINE
  5
696
100
AcDbEntity
  8
CURVE
100
AcDbLine
 62
7
  6
CONTINUOUS
 10
-1.5323991275
 20
32.6356184606
 11
-1.5330199277
 21
32.7163909189
  0
LINE
  5
697
100
AcDbEntity
  8
CURVE
100
AcDbLine
 62
7
  6
CONTINUOUS
 10
-1.5329939986
 20
21.0388443093
 11
-1.5334795301
 21
21.1186265778
  0
LINE
  5
698
100
AcDbEntity
  8
CURVE
100
AcDbLine
 62
7
  6
CONTINUOUS
 10
-1.5377448325
 20
32.29044429
 11
-1.5376639211
 21
32.2706463252
  0
LINE
  5
699
100
AcDbEntity
  8
CURVE
100
AcDbLine
 62
7
  6
CONTINUOUS
 10
-1.5330199277
 20
32.7163909189
 11
-1.5334273157
 21
32.8166153054
  0
LINE
  5
69A
100
AcDbEntity
  8
CURVE
100
AcDbLine
 62
7
  6
CONTINUOUS
 10
-1.5418937637
 20
21.0136641007
 11
-1.540764368
 21
20.7346750006
  0
LINE
  5
69B
100
AcDbEntity
  8
CURVE
100
AcDbLine
 62
7
  6
CONTINUOUS
 10
-1.5334795301
 20
21.1186265778
 11
-1.5339054666
 21
21.2983878691
  0
LINE
  5
69C
100
AcDbEntity
  8
CURVE
100
AcDbLine
 62
7
  6
CONTINUOUS
 10
-1.5196843122
 20
33.2638012718
 11
-1.5192984929
 21
33.0838481447
  0
LINE
  5
69D
100
AcDbEntity
  8
CURVE
100
AcDbLine
 62
7
  6
CONTINUOUS
 10
-1.5422340025
 20
21.2688073486
 11
-1.5418937637
 21
21.0136641007
  0
LINE
  5
69E
100
AcDbEntity
  8
RACCORDO
100
AcDbLine
 62
7
  6
CONTINUOUS
 10
-1.6219096983
 20
9.3937756099
 11
-1.6219096983
 21
9.535
  0
LINE
  5
69F
100
AcDbEntity
  8
ASSI
100
AcDbLine
 62
7
  6
CONTINUOUS
 10
-1.6219096983
 20
9.3937756099
 11
-1.6219096983
 21
9.535
  0
LINE
  5
6A0
100
AcDbEntity
  8
RACCORDO
100
AcDbLine
 62
7
  6
CONTINUOUS
 10
-1.6219096983
 20
14.435
 11
-1.6219096983
 21
14.535
  0
LINE
  5
6A1
100
AcDbEntity
  8
ASSI
100
AcDbLine
 62
7
  6
CONTINUOUS
 10
-1.6219096983
 20
14.435
 11
-1.6219096983
 21
14.535
  0
LINE
  5
6A2
100
AcDbEntity
  8
RACCORDO
100
AcDbLine
 62
7
  6
CONTINUOUS
 10
-1.6219096983
 20
19.435
 11
-1.6219096983
 21
19.535
  0
LINE
  5
6A3
100
AcDbEntity
  8
ASSI
100
AcDbLine
 62
7
  6
CONTINUOUS
 10
-1.6219096983
 20
19.435
 11
-1.6219096983
 21
19.535
  0
LINE
  5
6A4
100
AcDbEntity
  8
RACCORDO
100
AcDbLine
 62
7
  6
CONTINUOUS
 10
-1.6219096983
 20
24.435
 11
-1.6219096983
 21
24.535
  0
LINE
  5
6A5
100
AcDbEntity
  8
ASSI
100
AcDbLine
 62
7
  6
CONTINUOUS
 10
-1.6219096983
 20
24.435
 11
-1.6219096983
 21
24.535
  0
LINE
  5
6A6
100
AcDbEntity
  8
RACCORDO
100
AcDbLine
 62
7
  6
CONTINUOUS
 10
-1.6219096983
 20
29.435
 11
-1.6219096983
 21
42.5762243901
  0
LINE
  5
6A7
100
AcDbEntity
  8
ASSI
100
AcDbLine
 62
7
  6
CONTINUOUS
 10
-1.6219096983
 20
29.435
 11
-1.6219096983
 21
42.5762243901
  0
LINE
  5
6A8
100
AcDbEntity
  8
0
100
AcDbLine
 62
7
  6
CONTINUOUS
 10
-1.6071854545
 20
8.3639118237
 11
-1.6071854545
 21
43.6060881763
  0
LINE
  5
6A9
100
AcDbEntity
  8
RACCORDO
100
AcDbLine
 62
7
  6
CONTINUOUS
 10
-1.6071854545
 20
8.3639118237
 11
-1.6071854545
 21
43.6060881763
  0
LINE
  5
6AA
100
AcDbEntity
  8
CURVE
100
AcDbLine
 62
253
  6
CONTINUOUS
 10
-1.5964045276
 20
13.5540474033
 11
-1.5964045276
 21
13.463571558
  0
LINE
  5
6AB
100
AcDbEntity
  8
CURVE
100
AcDbLine
 62
253
  6
CONTINUOUS
 10
-1.5954488004
 20
26.3588095313
 11
-1.5954488004
 21
25.8635714656
  0
LINE
  5
6AC
100
AcDbEntity
  8
CURVE
100
AcDbLine
 62
253
  6
CONTINUOUS
 10
-1.5948255004
 20
18.349285779
 11
-1.5948255004
 21
19.2992856658
  0
LINE
  5
6AD
100
AcDbEntity
  8
CURVE
100
AcDbLine
 62
253
  6
CONTINUOUS
 10
-1.5922076394
 20
42.5207142746
 11
-1.5922076394
 21
42.985
  0
LINE
  5
6AE
100
AcDbEntity
  8
CURVE
100
AcDbLine
 62
253
  6
CONTINUOUS
 10
-1.5905870589
 20
40.4778570986
 11
-1.5905870589
 21
40.9421429014
  0
LINE
  5
6AF
100
AcDbEntity
  8
CURVE
100
AcDbLine
 62
253
  6
CONTINUOUS
 10
-1.5889664778
 20
41.5921429014
 11
-1.5889664778
 21
41.3135714507
  0
LINE
  5
6B0
100
AcDbEntity
  8
CURVE
100
AcDbLine
 62
253
  6
CONTINUOUS
 10
-1.5889664778
 20
37.8778570986
 11
-1.5889664778
 21
37.2278574085
  0
LINE
  5
6B1
100
AcDbEntity
  8
CURVE
100
AcDbLine
 62
253
  6
CONTINUOUS
 10
-1.5877198777
 20
15.092142663
 11
-1.5877198777
 21
14.5040474033
  0
LINE
  5
6B2
100
AcDbEntity
  8
CURVE
100
AcDbLine
 62
253
  6
CONTINUOUS
 10
-1.5829827953
 20
16.177857337
 11
-1.5829827953
 21
16.449285779
  0
LINE
  5
6B3
100
AcDbEntity
  8
CURVE
100
AcDbLine
 62
253
  6
CONTINUOUS
 10
-1.5792429948
 20
42.985
 11
-1.5792429948
 21
42.5207142746
  0
LINE
  5
6B4
100
AcDbEntity
  8
CURVE
100
AcDbLine
 62
253
  6
CONTINUOUS
 10
-1.5792429948
 20
41.7778571761
 11
-1.5792429948
 21
41.3135714507
  0
LINE
  5
6B5
100
AcDbEntity
  8
CURVE
100
AcDbLine
 62
253
  6
CONTINUOUS
 10
-1.5792429948
 20
40.9421429014
 11
-1.5792429948
 21
40.6635714507
  0
LINE
  5
6B6
100
AcDbEntity
  8
CURVE
100
AcDbLine
 62
253
  6
CONTINUOUS
 10
-1.5792429948
 20
38.7135712957
 11
-1.5792429948
 21
38.3421429014
  0
LINE
  5
6B7
100
AcDbEntity
  8
CURVE
100
AcDbLine
 62
253
  6
CONTINUOUS
 10
-1.5792429948
 20
36.6707141972
 11
-1.5792429948
 21
36.3921425915
  0
LINE
  5
6B8
100
AcDbEntity
  8
CURVE
100
AcDbLine
 62
253
  6
CONTINUOUS
 10
-1.5792429948
 20
27.5969047731
 11
-1.5792429948
 21
26.8540475971
  0
LINE
  5
6B9
100
AcDbEntity
  8
CURVE
100
AcDbLine
 62
253
  6
CONTINUOUS
 10
-1.5687715509
 20
9.799285326
 11
-1.5687715509
 21
9.663571558
  0
LINE
  5
6BA
100
AcDbEntity
  8
CURVE
100
AcDbLine
 62
253
  6
CONTINUOUS
 10
-1.5687715509
 20
11.020714674
 11
-1.5687715509
 21
11.427856884
  0
LINE
  5
6BB
100
AcDbEntity
  8
CURVE
100
AcDbLine
 62
253
  6
CONTINUOUS
 10
-1.5687715509
 20
14.685
 11
-1.5687715509
 21
15.092142663
  0
LINE
  5
6BC
100
AcDbEntity
  8
CURVE
100
AcDbLine
 62
253
  6
CONTINUOUS
 10
-1.5687715509
 20
16.177857337
 11
-1.5687715509
 21
16.720714221
  0
LINE
  5
6BD
100
AcDbEntity
  8
CURVE
100
AcDbLine
 62
7
  6
CONTINUOUS
 10
-1.5618022857
 20
22.28421
 11
-1.5618022857
 21
21.661604
  0
LINE
  5
6BE
100
AcDbEntity
  8
CURVE
100
AcDbLine
 62
7
  6
CONTINUOUS
 10
-1.5618022857
 20
17.805486
 11
-1.5618022857
 21
17.211036
  0
LINE
  5
6BF
100
AcDbEntity
  8
CURVE
100
AcDbLine
 62
7
  6
CONTINUOUS
 10
-1.5618022857
 20
15.636569
 11
-1.5618022857
 21
15.009926
  0
LINE
  5
6C0
100
AcDbEntity
  8
CURVE
100
AcDbLine
 62
7
  6
CONTINUOUS
 10
-1.5618022857
 20
11.78056
 11
-1.5618022857
 21
11.186111
  0
LINE
  5
6C1
100
AcDbEntity
  8
CURVE
100
AcDbLine
 62
7
  6
CONTINUOUS
 10
-1.5618022857
 20
9.611426
 11
-1.5618022857
 21
8.985
  0
LINE
  5
6C2
100
AcDbEntity
  8
CURVE
100
AcDbLine
 62
7
  6
CONTINUOUS
 10
-1.5618022857
 20
12.073802
 11
-1.5618022857
 21
12.957454
  0
LINE
  5
6C3
100
AcDbEntity
  8
CURVE
100
AcDbLine
 62
7
  6
CONTINUOUS
 10
-1.5618022857
 20
14.11023
 11
-1.5618022857
 21
14.692675
  0
LINE
  5
6C4
100
AcDbEntity
  8
CURVE
100
AcDbLine
 62
7
  6
CONTINUOUS
 10
-1.5618022857
 20
18.118262
 11
-1.5618022857
 21
19.813867
  0
LINE
  5
6C5
100
AcDbEntity
  8
CURVE
100
AcDbLine
 62
7
  6
CONTINUOUS
 10
-1.5616626179
 20
40.375935
 11
-1.5616626179
 21
39.770664
  0
LINE
  5
6C6
100
AcDbEntity
  8
CURVE
100
AcDbLine
 62
7
  6
CONTINUOUS
 10
-1.561662624
 20
33.8465673444
 11
-1.561662624
 21
33.2437313832
  0
LINE
  5
6C7
100
AcDbEntity
  8
CURVE
100
AcDbLine
 62
7
  6
CONTINUOUS
 10
-1.561662624
 20
32.3168417383
 11
-1.561662624
 21
31.7346410148
  0
LINE
  5
6C8
100
AcDbEntity
  8
CURVE
100
AcDbLine
 62
7
  6
CONTINUOUS
 10
-1.5616626179
 20
34.024304
 11
-1.5616626179
 21
34.662235
  0
LINE
  5
6C9
100
AcDbEntity
  8
CURVE
100
AcDbLine
 62
7
  6
CONTINUOUS
 10
-1.5616626179
 20
35.810329
 11
-1.5616626179
 21
36.409033
  0
LINE
  5
6CA
100
AcDbEntity
  8
CURVE
100
AcDbLine
 62
7
  6
CONTINUOUS
 10
-1.5616626179
 20
36.504077
 11
-1.5616626179
 21
37.096193
  0
LINE
  5
6CB
100
AcDbEntity
  8
CURVE
100
AcDbLine
 62
7
  6
CONTINUOUS
 10
-1.5616626179
 20
37.940216
 11
-1.5616626179
 21
38.025105
  0
LINE
  5
6CC
100
AcDbEntity
  8
CURVE
100
AcDbLine
 62
7
  6
CONTINUOUS
 10
-1.5616626179
 20
38.865779
 11
-1.5616626179
 21
39.444827
  0
LINE
  5
6CD
100
AcDbEntity
  8
CURVE
100
AcDbLine
 62
7
  6
CONTINUOUS
 10
-1.5616626179
 20
41.532617
 11
-1.5616626179
 21
42.066013
  0
LINE
  5
6CE
100
AcDbEntity
  8
CURVE
100
AcDbLine
 62
7
  6
CONTINUOUS
 10
-1.5533926761
 20
19.191261
 11
-1.5533926761
 21
18.118262
  0
LINE
  5
6CF
100
AcDbEntity
  8
CURVE
100
AcDbLine
 62
7
  6
CONTINUOUS
 10
-1.5515614123
 20
34.819033
 11
-1.5515614123
 21
35.643312
  0
LINE
  5
6D0
100
AcDbEntity
  8
CURVE
100
AcDbLine
 62
7
  6
CONTINUOUS
 10
-1.5510769898
 20
16.994188
 11
-1.5510769898
 21
15.845451
  0
LINE
  5
6D1
100
AcDbEntity
  8
CURVE
100
AcDbLine
 62
7
  6
CONTINUOUS
 10
-1.5510769898
 20
10.969154
 11
-1.5510769898
 21
9.820416
  0
LINE
  5
6D2
100
AcDbEntity
  8
CURVE
100
AcDbLine
 62
7
  6
CONTINUOUS
 10
-1.5437451465
 20
35.5195
 11
-1.5437451465
 21
34.939996
  0
LINE
  5
6D3
100
AcDbEntity
  8
CURVE
100
AcDbLine
 62
7
  6
CONTINUOUS
 10
-1.5426673802
 20
9.977131
 11
-1.5426673802
 21
10.808509
  0
LINE
  5
6D4
100
AcDbEntity
  8
CURVE
100
AcDbLine
 62
7
  6
CONTINUOUS
 10
-1.5426673802
 20
16.002057
 11
-1.5426673802
 21
16.833544
  0
LINE
  5
6D5
100
AcDbEntity
  8
CURVE
100
AcDbLine
 62
253
  6
CONTINUOUS
 10
-1.5425929412
 20
24.7504761624
 11
-1.5425929412
 21
24.2211904061
  0
LINE
  5
6D6
100
AcDbEntity
  8
CURVE
100
AcDbLine
 62
253
  6
CONTINUOUS
 10
-1.5425929412
 20
25.4267857563
 11
-1.5425929412
 21
25.8678571218
  0
LINE
  5
6D7
100
AcDbEntity
  8
CURVE
100
AcDbLine
 62
7
  6
CONTINUOUS
 10
-1.5422340025
 20
21.2688073486
 11
-1.5423150698
 21
21.661604
  0
LINE
  5
6D8
100
AcDbEntity
  8
CURVE
100
AcDbLine
 62
253
  6
CONTINUOUS
 10
-1.5361106186
 20
26.8088095203
 11
-1.5361106186
 21
26.3383332843
  0
LINE
  5
6D9
100
AcDbEntity
  8
CURVE
100
AcDbLine
 62
7
  6
CONTINUOUS
 10
-1.5339054602
 20
21.661604
 11
-1.5339054602
 21
21.298388
  0
LINE
  5
6DA
100
AcDbEntity
  8
CURVE
100
AcDbLine
 62
7
  6
CONTINUOUS
 10
-1.5334273157
 20
32.8166153054
 11
-1.53357451
 21
33.2638012718
  0
LINE
  5
6DB
100
AcDbEntity
  8
CURVE
100
AcDbLine
 62
253
  6
CONTINUOUS
 10
-1.5296282959
 20
24.3976191878
 11
-1.5296282959
 21
24.7504761624
  0
LINE
  5
6DC
100
AcDbEntity
  8
CURVE
100
AcDbLine
 62
253
  6
CONTINUOUS
 10
-1.5199048129
 20
25.8678571218
 11
-1.5199048129
 21
25.4267857563
  0
LINE
  5
6DD
100
AcDbEntity
  8
CURVE
100
AcDbLine
 62
253
  6
CONTINUOUS
 10
-1.5199048129
 20
24.7504761624
 11
-1.5199048129
 21
24.2211904061
  0
LINE
  5
6DE
100
AcDbEntity
  8
CURVE
100
AcDbLine
 62
7
  6
CONTINUOUS
 10
-1.511197998
 20
19.813867
 11
-1.511197998
 21
19.191261
  0
LINE
  5
6DF
100
AcDbEntity
  8
CURVE
100
AcDbLine
 62
7
  6
CONTINUOUS
 10
-1.511197998
 20
14.692675
 11
-1.511197998
 21
13.768861
  0
LINE
  5
6E0
100
AcDbEntity
  8
CURVE
100
AcDbLine
 62
7
  6
CONTINUOUS
 10
-1.511197998
 20
12.656246
 11
-1.511197998
 21
12.073802
  0
LINE
  5
6E1
100
AcDbEntity
  8
CURVE
100
AcDbLine
 62
7
  6
CONTINUOUS
 10
-1.511197998
 20
9.993065
 11
-1.511197998
 21
10.732116
  0
LINE
  5
6E2
100
AcDbEntity
  8
CURVE
100
AcDbLine
 62
7
  6
CONTINUOUS
 10
-1.511197998
 20
16.0181
 11
-1.511197998
 21
16.757151
  0
LINE
  5
6E3
100
AcDbEntity
  8
CURVE
100
AcDbLine
 62
7
  6
CONTINUOUS
 10
-1.5110644027
 20
42.98526
 11
-1.5110644027
 21
42.327748
  0
LINE
  5
6E4
100
AcDbEntity
  8
CURVE
100
AcDbLine
 62
7
  6
CONTINUOUS
 10
-1.5110644027
 20
41.20541
 11
-1.5110644027
 21
40.600552
  0
LINE
  5
6E5
100
AcDbEntity
  8
CURVE
100
AcDbLine
 62
7
  6
CONTINUOUS
 10
-1.5110644027
 20
39.183005
 11
-1.5110644027
 21
38.578234
  0
LINE
  5
6E6
100
AcDbEntity
  8
CURVE
100
AcDbLine
 62
7
  6
CONTINUOUS
 10
-1.5110644027
 20
37.374084
 11
-1.5110644027
 21
36.775227
  0
LINE
  5
6E7
100
AcDbEntity
  8
CURVE
100
AcDbLine
 62
7
  6
CONTINUOUS
 10
-1.5110644027
 20
35.499517
 11
-1.5110644027
 21
34.91399
  0
LINE
  5
6E8
100
AcDbEntity
  8
CURVE
100
AcDbLine
 62
7
  6
CONTINUOUS
 10
-1.5110613665
 20
39.770664
 11
-1.5110613665
 21
40.375935
  0
LINE
  5
6E9
100
AcDbEntity
  8
0
100
AcDbLine
 62
7
  6
CONTINUOUS
 10
-1.485
 20
8.3133009513
 11
-1.485
 21
43.6566990487
  0
LINE
  5
6EA
100
AcDbEntity
  8
RACCORDO
100
AcDbLine
 62
7
  6
CONTINUOUS
 10
-1.485
 20
4.0538144441
 11
-1.485
 21
47.9161855559
  0
LINE
  5
6EB
100
AcDbEntity
  8
CURVE
100
AcDbLine
 62
7
  6
CONTINUOUS
 10
-1.5192984929
 20
33.0838481447
 11
-1.5192369792
 21
32.9024084859
  0
LINE
  5
6EC
100
AcDbEntity
  8
CURVE
100
AcDbLine
 62
7
  6
CONTINUOUS
 10
-1.5104384171
 20
32.9049789375
 11
-1.5116555593
 21
33.8465673444
  0
LINE
  5
6ED
100
AcDbEntity
  8
CURVE
100
AcDbLine
 62
7
  6
CONTINUOUS
 10
-1.5113115664
 20
21.2261389939
 11
-1.511197998
 21
22.28421
  0
LINE
  5
6EE
100
AcDbEntity
  8
CURVE
100
AcDbLine
 62
7
  6
CONTINUOUS
 10
-1.5196076076
 20
21.661604
 11
-1.5196398809
 21
21.2829749432
  0
LINE
  5
6EF
100
AcDbEntity
  8
CURVE
100
AcDbLine
 62
7
  6
CONTINUOUS
 10
-1.5192369792
 20
32.9024084859
 11
-1.5194770686
 21
32.756443063
  0
LINE
  5
6F0
100
AcDbEntity
  8
CURVE
100
AcDbLine
 62
7
  6
CONTINUOUS
 10
-1.5418612758
 20
33.2437313832
 11
-1.5419989457
 21
32.8470251489
  0
LINE
  5
6F1
100
AcDbEntity
  8
CURVE
100
AcDbLine
 62
7
  6
CONTINUOUS
 10
-1.5196398809
 20
21.2829749432
 11
-1.5201271079
 21
21.0978309457
  0
LINE
  5
6F2
100
AcDbEntity
  8
CURVE
100
AcDbLine
 62
7
  6
CONTINUOUS
 10
-1.5123989224
 20
20.7977679619
 11
-1.5113115664
 21
21.2261389939
  0
LINE
  5
6F3
100
AcDbEntity
  8
CURVE
100
AcDbLine
 62
7
  6
CONTINUOUS
 10
-1.511778342
 20
32.4239132399
 11
-1.5104384171
 21
32.9049789375
  0
LINE
  5
6F4
100
AcDbEntity
  8
RACCORDO
100
AcDbLine
 62
7
  6
CONTINUOUS
 10
-1.6947438606
 20
13.2549944912
 11
-1.6934762265
 21
13.4685208232
  0
LINE
  5
6F5
100
AcDbEntity
  8
ASSI
100
AcDbLine
 62
7
  6
CONTINUOUS
 10
-1.6947741318
 20
13.2492632489
 11
-1.6934698766
 21
13.4694746075
  0
LINE
  5
6F6
100
AcDbEntity
  8
CURVE
100
AcDbLine
 62
7
  6
CONTINUOUS
 10
-1.5194770686
 20
32.756443063
 11
-1.519945193
 21
32.6698804368
  0
LINE
  5
6F7
100
AcDbEntity
  8
RACCORDO
100
AcDbLine
 62
7
  6
CONTINUOUS
 10
-1.6934762265
 20
13.4685208232
 11
-1.6920586146
 21
13.6598630589
  0
LINE
  5
6F8
100
AcDbEntity
  8
ASSI
100
AcDbLine
 62
7
  6
CONTINUOUS
 10
-1.6934698766
 20
13.4694746075
 11
-1.6920066043
 21
13.666182462
  0
LINE
  5
6F9
100
AcDbEntity
  8
CURVE
100
AcDbLine
 62
7
  6
CONTINUOUS
 10
-1.5419989457
 20
32.8470251489
 11
-1.5424353668
 21
32.7777894202
  0
LINE
  5
6FA
100
AcDbEntity
  8
CURVE
100
AcDbLine
 62
7
  6
CONTINUOUS
 10
-1.5138019172
 20
20.5945320467
 11
-1.5123989224
 21
20.7977679619
  0
LINE
  5
6FB
100
AcDbEntity
  8
CURVE
100
AcDbLine
 62
7
  6
CONTINUOUS
 10
-1.5201271079
 20
21.0978309457
 11
-1.5205955607
 21
21.0304108058
  0
LINE
  5
6FC
100
AcDbEntity
  8
CURVE
100
AcDbLine
 62
7
  6
CONTINUOUS
 10
-1.5128472893
 20
32.270968822
 11
-1.511778342
 21
32.4239132399
  0
LINE
  5
6FD
100
AcDbEntity
  8
RACCORDO
100
AcDbLine
 62
7
  6
CONTINUOUS
 10
-1.6920586146
 20
13.6598630589
 11
-1.6905289928
 21
13.8290314532
  0
LINE
  5
6FE
100
AcDbEntity
  8
ASSI
100
AcDbLine
 62
7
  6
CONTINUOUS
 10
-1.6920066043
 20
13.666182462
 11
-1.6904248482
 21
13.8393678279
  0
LINE
  5
6FF
100
AcDbEntity
  8
ASSI
100
AcDbLine
 62
7
  6
CONTINUOUS
 10
-1.6914265613
 20
18.7338756849
 11
-1.6898029756
 21
18.8982956737
  0
LINE
  5
700
100
AcDbEntity
  8
RACCORDO
100
AcDbLine
 62
7
  6
CONTINUOUS
 10
-1.691306969
 20
18.7472095139
 11
-1.6897248876
 21
18.9053726732
  0
LINE
  5
701
100
AcDbEntity
  8
CURVE
100
AcDbLine
 62
7
  6
CONTINUOUS
 10
-1.5386626758
 20
32.224854844
 11
-1.5380438239
 21
32.29044429
  0
LINE
  5
702
100
AcDbEntity
  8
CURVE
100
AcDbLine
 62
7
  6
CONTINUOUS
 10
-1.5424353668
 20
32.7777894202
 11
-1.542856974
 21
32.7375108811
  0
LINE
  5
703
100
AcDbEntity
  8
CURVE
100
AcDbLine
 62
7
  6
CONTINUOUS
 10
-1.519945193
 20
32.6698804368
 11
-1.5206207368
 21
32.6002523527
  0
LINE
  5
704
100
AcDbEntity
  8
RACCORDO
100
AcDbLine
 62
7
  6
CONTINUOUS
 10
-1.6905289928
 20
13.8290314532
 11
-1.6888981464
 21
13.9762784251
  0
LINE
  5
705
100
AcDbEntity
  8
ASSI
100
AcDbLine
 62
7
  6
CONTINUOUS
 10
-1.6904248482
 20
13.8393678279
 11
-1.6887371024
 21
13.989290697
  0
LINE
  5
706
100
AcDbEntity
  8
ASSI
100
AcDbLine
 62
7
  6
CONTINUOUS
 10
-1.6898029756
 20
18.8982956737
 11
-1.6880847783
 21
19.0395690442
  0
LINE
  5
707
100
AcDbEntity
  8
CURVE
100
AcDbLine
 62
7
  6
CONTINUOUS
 10
-1.5151088491
 20
20.4790484489
 11
-1.5138019172
 21
20.5945320467
  0
LINE
  5
708
100
AcDbEntity
  8
CURVE
100
AcDbLine
 62
7
  6
CONTINUOUS
 10
-1.5389231237
 20
32.2047339945
 11
-1.5386626758
 21
32.224854844
  0
LINE
  5
709
100
AcDbEntity
  8
RACCORDO
100
AcDbLine
 62
7
  6
CONTINUOUS
 10
-1.6897248876
 20
18.9053726732
 11
-1.6880550943
 21
19.0417659598
  0
LINE
  5
70A
100
AcDbEntity
  8
CURVE
100
AcDbLine
 62
7
  6
CONTINUOUS
 10
-1.5205955607
 20
21.0304108058
 11
-1.5210509774
 21
20.9907990037
  0
LINE
  5
70B
100
AcDbEntity
  8
CURVE
100
AcDbLine
 62
7
  6
CONTINUOUS
 10
-1.5142158627
 20
32.1597784359
 11
-1.5128472893
 21
32.270968822
  0
LINE
  5
70C
100
AcDbEntity
  8
RACCORDO
100
AcDbLine
 62
7
  6
CONTINUOUS
 10
-1.6888981464
 20
13.9762784251
 11
-1.6871994553
 21
14.1017411664
  0
LINE
  5
70D
100
AcDbEntity
  8
CURVE
100
AcDbLine
 62
7
  6
CONTINUOUS
 10
-1.5206207368
 20
32.6002523527
 11
-1.5211162907
 21
32.5647158652
  0
LINE
  5
70E
100
AcDbEntity
  8
ASSI
100
AcDbLine
 62
7
  6
CONTINUOUS
 10
-1.6887371024
 20
13.989290697
 11
-1.6869812025
 21
14.1160236927
  0
LINE
  5
70F
100
AcDbEntity
  8
RACCORDO
100
AcDbLine
 62
7
  6
CONTINUOUS
 10
-1.6880550943
 20
19.0417659598
 11
-1.6865503012
 21
19.1430534517
  0
LINE
  5
710
100
AcDbEntity
  8
ASSI
100
AcDbLine
 62
7
  6
CONTINUOUS
 10
-1.6880847783
 20
19.0395690442
 11
-1.6865346723
 21
19.1440052243
  0
LINE
  5
711
100
AcDbEntity
  8
CURVE
100
AcDbLine
 62
253
  6
CONTINUOUS
 10
-1.5877198777
 20
15.906428442
 11
-1.5829827953
 21
16.177857337
  0
LINE
  5
712
100
AcDbEntity
  8
CURVE
100
AcDbLine
 62
253
  6
CONTINUOUS
 10
-1.5829827953
 20
15.363571558
 11
-1.5877198777
 21
15.092142663
  0
LINE
  5
713
100
AcDbEntity
  8
CURVE
100
AcDbLine
 62
253
  6
CONTINUOUS
 10
-1.5735086324
 20
14.413571558
 11
-1.5687715509
 21
14.685
  0
LINE
  5
714
100
AcDbEntity
  8
CURVE
100
AcDbLine
 62
253
  6
CONTINUOUS
 10
-1.5735086324
 20
10.749285326
 11
-1.5687715509
 21
11.020714674
  0
LINE
  5
715
100
AcDbEntity
  8
CURVE
100
AcDbLine
 62
253
  6
CONTINUOUS
 10
-1.5687715509
 20
9.663571558
 11
-1.5735086324
 21
9.392143116
  0
LINE
  5
716
100
AcDbEntity
  8
CURVE
100
AcDbLine
 62
7
  6
CONTINUOUS
 10
-1.5152361568
 20
32.0979559419
 11
-1.5142158627
 21
32.1597784359
  0
LINE
  5
717
100
AcDbEntity
  8
RACCORDO
100
AcDbLine
 62
7
  6
CONTINUOUS
 10
-1.6871994553
 20
14.1017411664
 11
-1.6856783149
 21
14.1932182473
  0
LINE
  5
718
100
AcDbEntity
  8
CURVE
100
AcDbLine
 62
7
  6
CONTINUOUS
 10
-1.5163756181
 20
20.400329219
 11
-1.5151088491
 21
20.4790484489
  0
LINE
  5
719
100
AcDbEntity
  8
CURVE
100
AcDbLine
 62
253
  6
CONTINUOUS
 10
-1.5199048129
 20
25.4267857563
 11
-1.5231459739
 21
25.250357269
  0
LINE
  5
71A
100
AcDbEntity
  8
CURVE
100
AcDbLine
 62
7
  6
CONTINUOUS
 10
-1.5210509774
 20
20.9907990037
 11
-1.5215038428
 21
20.9630638947
  0
LINE
  5
71B
100
AcDbEntity
  8
ASSI
100
AcDbLine
 62
7
  6
CONTINUOUS
 10
-1.6869812025
 20
14.1160236927
 11
-1.6854111332
 21
14.2074355031
  0
LINE
  5
71C
100
AcDbEntity
  8
RACCORDO
100
AcDbLine
 62
7
  6
CONTINUOUS
 10
-1.6865503012
 20
19.1430534517
 11
-1.6850233416
 21
19.2271569814
  0
LINE
  5
71D
100
AcDbEntity
  8
ASSI
100
AcDbLine
 62
7
  6
CONTINUOUS
 10
-1.6865346723
 20
19.1440052243
 11
-1.6849615369
 21
19.2302025661
  0
LINE
  5
71E
100
AcDbEntity
  8
CURVE
100
AcDbLine
 62
253
  6
CONTINUOUS
 10
-1.5735086324
 20
15.9516668177
 11
-1.5687715509
 21
16.177857337
  0
LINE
  5
71F
100
AcDbEntity
  8
RACCORDO
100
AcDbLine
 62
7
  6
CONTINUOUS
 10
-1.6850233416
 20
19.2271569814
 11
-1.6844988636
 21
19.2521380522
  0
LINE
  5
720
100
AcDbEntity
  8
RACCORDO
100
AcDbLine
 62
7
  6
CONTINUOUS
 10
-1.6856783149
 20
14.1932182473
 11
-1.6844988636
 21
14.2521380522
  0
LINE
  5
721
100
AcDbEntity
  8
ASSI
100
AcDbLine
 62
7
  6
CONTINUOUS
 10
-1.6849615369
 20
19.2302025661
 11
-1.6844994825
 21
19.2521372892
  0
LINE
  5
722
100
AcDbEntity
  8
ASSI
100
AcDbLine
 62
7
  6
CONTINUOUS
 10
-1.6854111332
 20
14.2074355031
 11
-1.6844994825
 21
14.2521372892
  0
LINE
  5
723
100
AcDbEntity
  8
CURVE
100
AcDbLine
 62
7
  6
CONTINUOUS
 10
-1.5215038428
 20
20.9630638947
 11
-1.5218898717
 21
20.9448597572
  0
LINE
  5
724
100
AcDbEntity
  8
CURVE
100
AcDbLine
 62
7
  6
CONTINUOUS
 10
-1.5174628271
 20
20.3497258638
 11
-1.5163756181
 21
20.400329219
  0
LWPOLYLINE
  5
725
100
AcDbEntity
  8
RACCORDO
100
AcDbPolyline
 62
7
  6
CONTINUOUS
 90
34
 70
0
 10
-1.985
 20
1.7349957692
 10
-1.9852831502
 20
1.723100484
 10
-1.9861319658
 20
1.7112321444
 10
-1.9875445259
 20
1.6994176339
 10
-1.9895176323
 20
1.6876837125
 10
-1.9920468183
 20
1.6760569612
 10
-1.9951263583
 20
1.664563721
 10
-1.9987492787
 20
1.6532300262
 10
-2.0029073742
 20
1.6420815507
 10
-2.0075912278
 20
1.6311435537
 10
-2.0127902312
 20
1.6204408124
 10
-2.0184926084
 20
1.6099975717
 10
-2.0246854419
 20
1.5998374941
 10
-2.0313547045
 20
1.5899835949
 10
-2.0384852893
 20
1.5804581962
 10
-2.0460610411
 20
1.5712828809
 10
-2.0540647995
 20
1.5624784339
 10
-2.0624784339
 20
1.5540647995
 10
-2.0712828809
 20
1.5460610411
 10
-2.0804581962
 20
1.5384852893
 10
-2.0899835949
 20
1.5313547045
 10
-2.0998374941
 20
1.5246854419
 10
-2.1099975717
 20
1.5184926084
 10
-2.1204408124
 20
1.5127902312
 10
-2.1311435537
 20
1.5075912278
 10
-2.1420815507
 20
1.5029073742
 10
-2.1532300262
 20
1.4987492787
 10
-2.164563721
 20
1.4951263583
 10
-2.1760569612
 20
1.4920468183
 10
-2.1876837125
 20
1.4895176323
 10
-2.1994176339
 20
1.4875445259
 10
-2.2112321444
 20
1.4861319658
 10
-2.223100484
 20
1.4852831502
 10
-2.2349957692
 20
1.485
  0
LINE
  5
726
100
AcDbEntity
  8
CURVE
100
AcDbLine
 62
253
  6
CONTINUOUS
 10
-1.5792429948
 20
24.5326190478
 11
-1.5889664778
 21
24.1611903435
  0
LWPOLYLINE
  5
727
100
AcDbEntity
  8
RACCORDO
100
AcDbPolyline
 62
253
  6
CONTINUOUS
 90
31
 70
0
 10
-1.989371834
 20
1.7393676032
 10
-1.9897148726
 20
1.7262841172
 10
-1.9907421625
 20
1.7132364906
 10
-1.992450888
 20
1.7002604845
 10
-1.994836366
 20
1.6873916636
 10
-1.9978920582
 20
1.6746652991
 10
-2.0016095896
 20
1.6621162714
 10
-2.0059787711
 20
1.6497789751
 10
-2.0109876276
 20
1.6376872245
 10
-2.0166224307
 20
1.6258741607
 10
-2.0228677366
 20
1.6143721611
 10
-2.029706428
 20
1.6032127506
 10
-2.0371197614
 20
1.592426515
 10
-2.0450874182
 20
1.5820430174
 10
-2.0535875605
 20
1.5720907169
 10
-2.062596891
 20
1.562596891
 10
-2.0720907169
 20
1.5535875605
 10
-2.0820430174
 20
1.5450874182
 10
-2.092426515
 20
1.5371197614
 10
-2.1032127506
 20
1.529706428
 10
-2.1143721611
 20
1.5228677366
 10
-2.1258741607
 20
1.5166224307
 10
-2.1376872245
 20
1.5109876276
 10
-2.1497789751
 20
1.5059787711
 10
-2.1621162714
 20
1.5016095896
 10
-2.1746652991
 20
1.4978920582
 10
-2.1873916636
 20
1.494836366
 10
-2.2002604845
 20
1.492450888
 10
-2.2132364906
 20
1.4907421625
 10
-2.2262841172
 20
1.4897148726
 10
-2.2393676032
 20
1.489371834
  0
LINE
  5
728
100
AcDbEntity
  8
CURVE
100
AcDbLine
 62
7
  6
CONTINUOUS
 10
-1.5218898717
 20
20.9448597572
 11
-1.5223048525
 21
20.9287456792
  0
LINE
  5
729
100
AcDbEntity
  8
CURVE
100
AcDbLine
 62
7
  6
CONTINUOUS
 10
-1.5182441839
 20
20.320293002
 11
-1.5174628271
 21
20.3497258638
  0
LINE
  5
72A
100
AcDbEntity
  8
CURVE
100
AcDbLine
 62
7
  6
CONTINUOUS
 10
-1.5223048525
 20
20.9287456792
 11
-1.5228246492
 21
20.9120335389
  0
LINE
  5
72B
100
AcDbEntity
  8
CURVE
100
AcDbLine
 62
7
  6
CONTINUOUS
 10
-1.5190632874
 20
20.2944023339
 11
-1.5182441839
 21
20.320293002
  0
LINE
  5
72C
100
AcDbEntity
  8
CURVE
100
AcDbLine
 62
253
  6
CONTINUOUS
 10
-1.5495739038
 20
26.1969047731
 11
-1.5722620322
 21
25.5469046956
  0
LINE
  5
72D
100
AcDbEntity
  8
CURVE
100
AcDbLine
 62
253
  6
CONTINUOUS
 10
-1.5964045276
 20
13.463571558
 11
-1.597983555
 21
13.4183331823
  0
LINE
  5
72E
100
AcDbEntity
  8
CURVE
100
AcDbLine
 62
253
  6
CONTINUOUS
 10
-1.5971940412
 20
10.070714674
 11
-1.5924569592
 21
10.206428442
  0
LINE
  5
72F
100
AcDbEntity
  8
CURVE
100
AcDbLine
 62
253
  6
CONTINUOUS
 10
-1.5735086324
 20
9.392143116
 11
-1.5782457138
 21
9.256428442
  0
LINE
  5
730
100
AcDbEntity
  8
CURVE
100
AcDbLine
 62
7
  6
CONTINUOUS
 10
-1.511197998
 20
13.768861
 11
-1.551299509
 21
12.656246
  0
LINE
  5
731
100
AcDbEntity
  8
CURVE
100
AcDbLine
 62
253
  6
CONTINUOUS
 10
-1.5199048129
 20
27.985
 11
-1.5328694576
 21
27.6321428414
  0
LINE
  5
732
100
AcDbEntity
  8
CURVE
100
AcDbLine
 62
7
  6
CONTINUOUS
 10
-1.5618022857
 20
12.957454
 11
-1.5194499317
 21
14.11023
  0
LINE
  5
733
100
AcDbEntity
  8
CURVE
100
AcDbLine
 62
7
  6
CONTINUOUS
 10
-1.5228246492
 20
20.9120335389
 11
-1.5232125184
 21
20.9016443349
  0
LWPOLYLINE
  5
734
100
AcDbEntity
  8
RACCORDO
100
AcDbPolyline
 62
253
  6
CONTINUOUS
 90
9
 70
0
 10
-1.9809491559
 20
14.0871628602
 10
-1.9824020336
 20
14.0503431812
 10
-1.9838304643
 20
14.0034321774
 10
-1.9852142443
 20
13.9467007353
 10
-1.9865524783
 20
13.8804799106
 10
-1.9878460615
 20
13.8051287863
 10
-1.9890774758
 20
13.7210070144
 10
-1.9902458327
 20
13.6285515895
 10
-1.9923811882
 20
13.4204831661
  0
LWPOLYLINE
  5
735
100
AcDbEntity
  8
ASSI
100
AcDbPolyline
 62
253
  6
CONTINUOUS
 90
9
 70
0
 10
-1.9809491559
 20
14.0871628602
 10
-1.9824020336
 20
14.0503431812
 10
-1.9838304643
 20
14.0034321774
 10
-1.9852142443
 20
13.9467007353
 10
-1.9865524783
 20
13.8804799106
 10
-1.9878460615
 20
13.8051287863
 10
-1.9890774758
 20
13.7210070144
 10
-1.9902458327
 20
13.6285515895
 10
-1.9923811882
 20
13.4204831661
  0
LWPOLYLINE
  5
736
100
AcDbEntity
  8
CURVE
100
AcDbPolyline
 62
7
  6
CONTINUOUS
 90
16
 70
0
 10
-1.5232125184
 20
20.9016443349
 10
-1.5236105232
 20
20.8926858621
 10
-1.5238129712
 20
20.8887590542
 10
-1.5240317291
 20
20.8849732592
 10
-1.5242526539
 20
20.881599177
 10
-1.5244755033
 20
20.8786178664
 10
-1.5247000348
 20
20.8760103861
 10
-1.5249260063
 20
20.8737577948
 10
-1.5251531755
 20
20.8718411512
 10
-1.5253812999
 20
20.8702415141
 10
-1.5256101372
 20
20.8689399421
 10
-1.5258394453
 20
20.8679174939
 10
-1.5260689816
 20
20.8671552283
 10
-1.5262985041
 20
20.866634204
 10
-1.5265277702
 20
20.8663354797
 10
-1.5267565377
 20
20.8662401141
  0
LINE
  5
737
100
AcDbEntity
  8
CURVE
100
AcDbLine
 62
7
  6
CONTINUOUS
 10
-1.5618022857
 20
15.009926
 11
-1.511197998
 21
16.0181
  0
LINE
  5
738
100
AcDbEntity
  8
CURVE
100
AcDbLine
 62
7
  6
CONTINUOUS
 10
-1.5618022857
 20
8.985
 11
-1.511197998
 21
9.993065
  0
LINE
  5
739
100
AcDbEntity
  8
CURVE
100
AcDbLine
 62
7
  6
CONTINUOUS
 10
-1.5510769898
 20
15.845451
 11
-1.5618022857
 21
15.636569
  0
LINE
  5
73A
100
AcDbEntity
  8
CURVE
100
AcDbLine
 62
7
  6
CONTINUOUS
 10
-1.5510769898
 20
9.820416
 11
-1.5618022857
 21
9.611426
  0
LINE
  5
73B
100
AcDbEntity
  8
CURVE
100
AcDbLine
 62
7
  6
CONTINUOUS
 10
-1.5208679506
 20
16.403529
 11
-1.5426673802
 21
16.002057
  0
LINE
  5
73C
100
AcDbEntity
  8
CURVE
100
AcDbLine
 62
7
  6
CONTINUOUS
 10
-1.5208708123
 20
10.378551
 11
-1.5426673802
 21
9.977131
  0
LINE
  5
73D
100
AcDbEntity
  8
CURVE
100
AcDbLine
 62
253
  6
CONTINUOUS
 10
-1.5792429948
 20
26.1111904985
 11
-1.6019311231
 21
25.7397619492
  0
LINE
  5
73E
100
AcDbEntity
  8
CURVE
100
AcDbLine
 62
253
  6
CONTINUOUS
 10
-1.5199048129
 20
26.5735713655
 11
-1.5425929412
 21
26.2207142437
  0
LWPOLYLINE
  5
73F
100
AcDbEntity
  8
RACCORDO
100
AcDbPolyline
 62
253
  6
CONTINUOUS
 90
4
 70
0
 10
-1.9764640455
 20
19.135
 10
-1.9779835292
 20
19.1296495539
 10
-1.979478566
 20
19.1136599447
 10
-1.9809491559
 20
19.0871628602
  0
LWPOLYLINE
  5
740
100
AcDbEntity
  8
ASSI
100
AcDbPolyline
 62
253
  6
CONTINUOUS
 90
4
 70
0
 10
-1.9764640455
 20
19.135
 10
-1.9779835292
 20
19.1296495539
 10
-1.979478566
 20
19.1136599447
 10
-1.9809491559
 20
19.0871628602
  0
LINE
  5
741
100
AcDbEntity
  8
ASSI
100
AcDbLine
 62
7
  6
CONTINUOUS
 10
-16.8959530912
 20
2.3628585343
 11
-16.8694035537
 21
2.3932085748
  0
LINE
  5
742
100
AcDbEntity
  8
ASSI
100
AcDbLine
 62
7
  6
CONTINUOUS
 10
-16.8694035537
 20
2.3932085748
 11
-16.8390449926
 21
2.4273850186
  0
LINE
  5
743
100
AcDbEntity
  8
ASSI
100
AcDbLine
 62
7
  6
CONTINUOUS
 10
-16.8390449926
 20
2.4273850186
 11
-16.8048677157
 21
2.4653832797
  0
LWPOLYLINE
  5
744
100
AcDbEntity
  8
ASSI
100
AcDbPolyline
 62
7
  6
CONTINUOUS
 90
3
 70
0
 10
-16.8048677157
 20
2.4653832797
 10
-16.7465702427
 20
2.5294710565
 10
-16.7253355046
 20
2.5526844199
  0
LINE
  5
745
100
AcDbEntity
  8
0
100
AcDbLine
 62
7
  6
CONTINUOUS
 10
-16.135
 20
6.285
 11
-16.0983443637
 21
6.3216556363
  0
LINE
  5
746
100
AcDbEntity
  8
DRAFT
100
AcDbLine
 62
7
  6
CONTINUOUS
 10
-16.135
 20
6.285
 11
-16.0983443637
 21
6.3216556363
  0
LINE
  5
747
100
AcDbEntity
  8
0
100
AcDbLine
 62
7
  6
CONTINUOUS
 10
-16.0983443637
 20
6.1216556363
 11
-16.135
 21
6.085
  0
LINE
  5
748
100
AcDbEntity
  8
DRAFT
100
AcDbLine
 62
7
  6
CONTINUOUS
 10
-16.0983443637
 20
6.1216556363
 11
-16.135
 21
6.085
  0
LINE
  5
749
100
AcDbEntity
  8
0
100
AcDbLine
 62
253
  6
CONTINUOUS
 10
-23.785
 20
8.3133009513
 11
-23.6628145455
 21
8.3639118237
  0
LINE
  5
74A
100
AcDbEntity
  8
RACCORDO
100
AcDbLine
 62
253
  6
CONTINUOUS
 10
-23.785
 20
8.3133009513
 11
-23.6628145455
 21
8.3639118237
  0
LINE
  5
74B
100
AcDbEntity
  8
CURVE
100
AcDbLine
 62
253
  6
CONTINUOUS
 10
-1.5792429948
 20
37.2278574085
 11
-1.6019311231
 21
37.2278574085
  0
LINE
  5
74C
100
AcDbEntity
  8
CURVE
100
AcDbLine
 62
253
  6
CONTINUOUS
 10
-1.6019311231
 20
37.8778570986
 11
-1.5792429948
 21
37.8778570986
  0
LINE
  5
74D
100
AcDbEntity
  8
CURVE
100
AcDbLine
 62
253
  6
CONTINUOUS
 10
-1.5986899618
 20
38.2492858028
 11
-1.5954488004
 21
38.2492858028
  0
LINE
  5
74E
100
AcDbEntity
  8
0
100
AcDbLine
 62
253
  6
CONTINUOUS
 10
-23.6628145455
 20
43.6060881763
 11
-23.785
 21
43.6566990487
  0
LINE
  5
74F
100
AcDbEntity
  8
RACCORDO
100
AcDbLine
 62
253
  6
CONTINUOUS
 10
-23.6628145455
 20
43.6060881763
 11
-23.785
 21
43.6566990487
  0
LWPOLYLINE
  5
750
100
AcDbEntity
  8
0
100
AcDbPolyline
 62
253
  6
CONTINUOUS
 90
4
 70
0
 10
-14.5278362829
 20
43.3294487062
 10
-14.5648133329
 20
43.3625219852
 10
-14.5948076211
 20
43.4008359214
 10
-14.6169077862
 20
43.4432263652
  0
LWPOLYLINE
  5
751
100
AcDbEntity
  8
RACCORDO
100
AcDbPolyline
 62
253
  6
CONTINUOUS
 90
4
 70
0
 10
-14.5278362829
 20
43.3294487062
 10
-14.5648133329
 20
43.3625219852
 10
-14.5948076211
 20
43.4008359214
 10
-14.6169077862
 20
43.4432263652
  0
LINE
  5
752
100
AcDbEntity
  8
0
100
AcDbLine
 62
7
  6
CONTINUOUS
 10
-16.135
 20
45.685
 11
-16.0983443637
 21
45.6483443637
  0
LINE
  5
753
100
AcDbEntity
  8
DRAFT
100
AcDbLine
 62
7
  6
CONTINUOUS
 10
-16.135
 20
45.685
 11
-16.0983443637
 21
45.6483443637
  0
LINE
  5
754
100
AcDbEntity
  8
0
100
AcDbLine
 62
7
  6
CONTINUOUS
 10
-16.135
 20
45.885
 11
-16.0983443637
 21
45.8483443637
  0
LINE
  5
755
100
AcDbEntity
  8
DRAFT
100
AcDbLine
 62
7
  6
CONTINUOUS
 10
-16.135
 20
45.885
 11
-16.0983443637
 21
45.8483443637
  0
LINE
  5
756
100
AcDbEntity
  8
ASSI
100
AcDbLine
 62
7
  6
CONTINUOUS
 10
-16.7254346959
 20
49.4174240255
 11
-16.7864812036
 21
49.4843095214
  0
LINE
  5
757
100
AcDbEntity
  8
ASSI
100
AcDbLine
 62
7
  6
CONTINUOUS
 10
-16.7864812036
 20
49.4843095214
 11
-16.8225974032
 21
49.5242839187
  0
LINE
  5
758
100
AcDbEntity
  8
ASSI
100
AcDbLine
 62
7
  6
CONTINUOUS
 10
-16.8225974032
 20
49.5242839187
 11
-16.8549030903
 21
49.5604049204
  0
LWPOLYLINE
  5
759
100
AcDbEntity
  8
ASSI
100
AcDbPolyline
 62
7
  6
CONTINUOUS
 90
19
 70
0
 10
-16.8549030903
 20
49.5604049204
 10
-16.883374939
 20
49.5926985494
 10
-16.896184351
 20
49.6074079992
 10
-16.9080977873
 20
49.6212381892
 10
-16.91912319
 20
49.6341881602
 10
-16.929271948
 20
49.6462588713
 10
-16.9385883497
 20
49.6575244939
 10
-16.9470752357
 20
49.6679815422
 10
-16.954752274
 20
49.677633502
 10
-16.9616728146
 20
49.6865650018
 10
-16.9678521255
 20
49.6947961262
 10
-16.9732798184
 20
49.7023067906
 10
-16.9779611755
 20
49.7091213695
 10
-16.9819056421
 20
49.7152356312
 10
-16.9851212873
 20
49.7206538073
 10
-16.9876164863
 20
49.7254129678
 10
-16.989405432
 20
49.7295254691
 10
-16.9905052012
 20
49.7329789548
 10
-16.9909327327
 20
49.7357734247
  0
LWPOLYLINE
  5
75A
100
AcDbEntity
  8
RACCORDO
100
AcDbPolyline
 62
253
  6
CONTINUOUS
 90
4
 70
0
 10
-1.9764640455
 20
14.135
 10
-1.9779835292
 20
14.1296495539
 10
-1.979478566
 20
14.1136599447
 10
-1.9809491559
 20
14.0871628602
  0
LWPOLYLINE
  5
75B
100
AcDbEntity
  8
ASSI
100
AcDbPolyline
 62
253
  6
CONTINUOUS
 90
4
 70
0
 10
-1.9764640455
 20
14.135
 10
-1.9779835292
 20
14.1296495539
 10
-1.979478566
 20
14.1136599447
 10
-1.9809491559
 20
14.0871628602
  0
LINE
  5
75C
100
AcDbEntity
  8
DRAFT
100
AcDbLine
 62
7
  6
CONTINUOUS
 10
-4.3884872909
 20
5.0745296196
 11
-4.385
 21
5.085
  0
LWPOLYLINE
  5
75D
100
AcDbEntity
  8
ASSI
100
AcDbPolyline
 62
7
  6
CONTINUOUS
 90
3
 70
0
 10
-16.7253355046
 20
2.5526844199
 10
-16.6345150875
 20
2.651270903
 10
-16.5629699877
 20
2.7286421853
  0
LINE
  5
75E
100
AcDbEntity
  8
ASSI
100
AcDbLine
 62
7
  6
CONTINUOUS
 10
-17.035
 20
2.185
 11
-16.9913493531
 21
2.2286506469
  0
LWPOLYLINE
  5
75F
100
AcDbEntity
  8
0
100
AcDbPolyline
 62
253
  6
CONTINUOUS
 90
4
 70
0
 10
-14.5283221907
 20
8.6401858291
 10
-14.4852766567
 20
8.6672359601
 10
-14.4377519366
 20
8.6870984562
 10
-14.3871424653
 20
8.699244074
  0
LWPOLYLINE
  5
760
100
AcDbEntity
  8
RACCORDO
100
AcDbPolyline
 62
253
  6
CONTINUOUS
 90
4
 70
0
 10
-14.5283221907
 20
8.6401858291
 10
-14.4852766567
 20
8.6672359601
 10
-14.4377519366
 20
8.6870984562
 10
-14.3871424653
 20
8.699244074
  0
LINE
  5
761
100
AcDbEntity
  8
0
100
AcDbLine
 62
253
  6
CONTINUOUS
 10
-23.1993027805
 20
6.8993027805
 11
-23.077117326
 21
6.9499136529
  0
LINE
  5
762
100
AcDbEntity
  8
RACCORDO
100
AcDbLine
 62
253
  6
CONTINUOUS
 10
-23.1993027805
 20
6.8993027805
 11
-23.077117326
 21
6.9499136529
  0
LINE
  5
763
100
AcDbEntity
  8
CURVE
100
AcDbLine
 62
253
  6
CONTINUOUS
 10
-1.5857253168
 20
38.8992858028
 11
-1.5824841558
 21
38.8992858028
  0
LINE
  5
764
100
AcDbEntity
  8
CURVE
100
AcDbLine
 62
7
  6
CONTINUOUS
 10
-1.5616626179
 20
39.770664
 11
-1.5110613665
 21
39.770664
  0
LINE
  5
765
100
AcDbEntity
  8
CURVE
100
AcDbLine
 62
253
  6
CONTINUOUS
 10
-1.5938282199
 20
40.2921429014
 11
-1.5986899618
 21
40.2921429014
  0
LINE
  5
766
100
AcDbEntity
  8
CURVE
100
AcDbLine
 62
7
  6
CONTINUOUS
 10
-1.5110613665
 20
40.375935
 11
-1.5616626179
 21
40.375935
  0
LINE
  5
767
100
AcDbEntity
  8
CURVE
100
AcDbLine
 62
253
  6
CONTINUOUS
 10
-1.5824841558
 20
40.385
 11
-1.5873458979
 21
40.385
  0
LINE
  5
768
100
AcDbEntity
  8
0
100
AcDbLine
 62
253
  6
CONTINUOUS
 10
-23.077117326
 20
45.0200863471
 11
-23.1993027805
 21
45.0706972195
  0
LINE
  5
769
100
AcDbEntity
  8
RACCORDO
100
AcDbLine
 62
253
  6
CONTINUOUS
 10
-23.077117326
 20
45.0200863471
 11
-23.1993027805
 21
45.0706972195
  0
LINE
  5
76A
100
AcDbEntity
  8
ASSI
100
AcDbLine
 62
7
  6
CONTINUOUS
 10
-17.035
 20
49.785
 11
-16.9913493531
 21
49.7413493531
  0
LINE
  5
76B
100
AcDbEntity
  8
ASSI
100
AcDbLine
 62
7
  6
CONTINUOUS
 10
-16.5629699877
 20
49.2413578147
 11
-16.6580434203
 21
49.3441857006
  0
LINE
  5
76C
100
AcDbEntity
  8
ASSI
100
AcDbLine
 62
7
  6
CONTINUOUS
 10
-16.6580434203
 20
49.3441857006
 11
-16.7254346959
 21
49.4174240255
  0
LINE
  5
76D
100
AcDbEntity
  8
DRAFT
100
AcDbLine
 62
7
  6
CONTINUOUS
 10
-4.3884872909
 20
46.8954703804
 11
-4.385
 21
46.885
  0
LINE
  5
76E
100
AcDbEntity
  8
CURVE
100
AcDbLine
 62
7
  6
CONTINUOUS
 10
-1.5286229328
 20
38.735162
 11
-1.5616626179
 21
38.865779
  0
LINE
  5
76F
100
AcDbEntity
  8
CURVE
100
AcDbLine
 62
7
  6
CONTINUOUS
 10
-1.5616626179
 20
39.444827
 11
-1.5110644027
 21
39.183005
  0
LINE
  5
770
100
AcDbEntity
  8
CURVE
100
AcDbLine
 62
253
  6
CONTINUOUS
 10
-1.6019311231
 20
40.9421429014
 11
-1.5792429948
 21
40.9421429014
  0
LINE
  5
771
100
AcDbEntity
  8
CURVE
100
AcDbLine
 62
253
  6
CONTINUOUS
 10
-1.5889664778
 20
41.3135714507
 11
-1.6019311231
 21
41.3135714507
  0
LINE
  5
772
100
AcDbEntity
  8
CURVE
100
AcDbLine
 62
253
  6
CONTINUOUS
 10
-1.5986899618
 20
41.9635714507
 11
-1.5824841558
 21
41.9635714507
  0
LINE
  5
773
100
AcDbEntity
  8
CURVE
100
AcDbLine
 62
253
  6
CONTINUOUS
 10
-1.5824841558
 20
42.335
 11
-1.5889664778
 21
42.335
  0
LWPOLYLINE
  5
774
100
AcDbEntity
  8
0
100
AcDbPolyline
 62
253
  6
CONTINUOUS
 90
3
 70
0
 10
-14.437606043
 20
43.2828540106
 10
-14.485
 20
43.3026209992
 10
-14.5278362829
 20
43.3294487062
  0
LWPOLYLINE
  5
775
100
AcDbEntity
  8
RACCORDO
100
AcDbPolyline
 62
253
  6
CONTINUOUS
 90
3
 70
0
 10
-14.437606043
 20
43.2828540106
 10
-14.485
 20
43.3026209992
 10
-14.5278362829
 20
43.3294487062
  0
LINE
  5
776
100
AcDbEntity
  8
DRAFT
100
AcDbLine
 62
7
  6
CONTINUOUS
 10
-5.3931782981
 20
4.9890044543
 11
-5.3361623254
 21
5.0745296196
  0
LWPOLYLINE
  5
777
100
AcDbEntity
  8
0
100
AcDbPolyline
 62
253
  6
CONTINUOUS
 90
3
 70
0
 10
-10.8322480634
 20
43.2829015438
 10
-10.8828575347
 20
43.270755926
 10
-10.935
 20
43.2666718427
  0
LWPOLYLINE
  5
778
100
AcDbEntity
  8
RACCORDO
100
AcDbPolyline
 62
253
  6
CONTINUOUS
 90
3
 70
0
 10
-10.8322480634
 20
43.2829015438
 10
-10.8828575347
 20
43.270755926
 10
-10.935
 20
43.2666718427
  0
LINE
  5
779
100
AcDbEntity
  8
0
100
AcDbLine
 62
7
  6
CONTINUOUS
 10
-10.135
 20
42.585
 11
-15.135
 21
42.585
  0
LINE
  5
77A
100
AcDbEntity
  8
ASSI
100
AcDbLine
 62
7
  6
CONTINUOUS
 10
-10.135
 20
42.585
 11
-15.135
 21
42.585
  0
LINE
  5
77B
100
AcDbEntity
  8
CURVE
100
AcDbLine
 62
253
  6
CONTINUOUS
 10
-1.6019311231
 20
42.985
 11
-1.5792429948
 21
42.985
  0
LINE
  5
77C
100
AcDbEntity
  8
0
100
AcDbLine
 62
7
  6
CONTINUOUS
 10
-15.135
 20
43.035
 11
-10.135
 21
43.035
  0
LINE
  5
77D
100
AcDbEntity
  8
0
100
AcDbLine
 62
7
  6
CONTINUOUS
 10
-10.935
 20
43.235
 11
-14.335
 21
43.235
  0
LINE
  5
77E
100
AcDbEntity
  8
RACCORDO
100
AcDbLine
 62
7
  6
CONTINUOUS
 10
-10.935
 20
43.235
 11
-14.335
 21
43.235
  0
LINE
  5
77F
100
AcDbEntity
  8
0
100
AcDbLine
 62
253
  6
CONTINUOUS
 10
-10.935
 20
43.2666718427
 11
-14.335
 21
43.2666718427
  0
LINE
  5
780
100
AcDbEntity
  8
RACCORDO
100
AcDbLine
 62
253
  6
CONTINUOUS
 10
-10.935
 20
43.2666718427
 11
-14.335
 21
43.2666718427
  0
LINE
  5
781
100
AcDbEntity
  8
RACCORDO
100
AcDbLine
 62
7
  6
CONTINUOUS
 10
-14.3175778872
 20
43.285
 11
-10.9524221128
 21
43.285
  0
LINE
  5
782
100
AcDbEntity
  8
ASSI
100
AcDbLine
 62
7
  6
CONTINUOUS
 10
-14.3175778872
 20
43.285
 11
-10.9524221128
 21
43.285
  0
LINE
  5
783
100
AcDbEntity
  8
ASSI
100
AcDbLine
 62
7
  6
CONTINUOUS
 10
-10.135
 20
43.485
 11
-15.135
 21
43.485
  0
LINE
  5
784
100
AcDbEntity
  8
0
100
AcDbLine
 62
253
  6
CONTINUOUS
 10
-14.335
 20
43.2666718427
 11
-14.3870944533
 21
43.2707483503
  0
LINE
  5
785
100
AcDbEntity
  8
RACCORDO
100
AcDbLine
 62
253
  6
CONTINUOUS
 10
-14.335
 20
43.2666718427
 11
-14.3870944533
 21
43.2707483503
  0
LINE
  5
786
100
AcDbEntity
  8
0
100
AcDbLine
 62
253
  6
CONTINUOUS
 10
-14.3870944533
 20
43.2707483503
 11
-14.437606043
 21
43.2828540106
  0
LINE
  5
787
100
AcDbEntity
  8
RACCORDO
100
AcDbLine
 62
253
  6
CONTINUOUS
 10
-14.3870944533
 20
43.2707483503
 11
-14.437606043
 21
43.2828540106
  0
LINE
  5
788
100
AcDbEntity
  8
DRAFT
100
AcDbLine
 62
7
  6
CONTINUOUS
 10
-5.3931782981
 20
46.9809955457
 11
-5.3361623254
 21
46.8954703804
  0
LINE
  5
789
100
AcDbEntity
  8
ASSI
100
AcDbLine
 62
7
  6
CONTINUOUS
 10
-9.0408494307
 20
2.361892889
 11
-9.01431553
 21
2.3922424063
  0
LINE
  5
78A
100
AcDbEntity
  8
ASSI
100
AcDbLine
 62
7
  6
CONTINUOUS
 10
-9.01431553
 20
2.3922424063
 11
-8.9839453352
 21
2.4264450175
  0
LINE
  5
78B
100
AcDbEntity
  8
ASSI
100
AcDbLine
 62
7
  6
CONTINUOUS
 10
-8.9839453352
 20
2.4264450175
 11
-8.949719686
 21
2.4645072776
  0
LINE
  5
78C
100
AcDbEntity
  8
ASSI
100
AcDbLine
 62
7
  6
CONTINUOUS
 10
-8.949719686
 20
2.4645072776
 11
-8.8912684906
 21
2.528773473
  0
LINE
  5
78D
100
AcDbEntity
  8
ASSI
100
AcDbLine
 62
7
  6
CONTINUOUS
 10
-8.8912684906
 20
2.528773473
 11
-8.7070300123
 21
2.7286421853
  0
LINE
  5
78E
100
AcDbEntity
  8
RACCORDO
100
AcDbLine
 62
7
  6
CONTINUOUS
 10
-5.3920215015
 20
6.2279784985
 11
-5.335
 21
6.285
  0
LINE
  5
78F
100
AcDbEntity
  8
0
100
AcDbLine
 62
7
  6
CONTINUOUS
 10
-5.235
 20
6.285
 11
-5.1983443637
 21
6.3216556363
  0
LINE
  5
790
100
AcDbEntity
  8
DRAFT
100
AcDbLine
 62
7
  6
CONTINUOUS
 10
-5.235
 20
6.285
 11
-5.1983443637
 21
6.3216556363
  0
LINE
  5
791
100
AcDbEntity
  8
RACCORDO
100
AcDbLine
 62
7
  6
CONTINUOUS
 10
-1.9147917647
 20
8.6866957532
 11
-2.5366957532
 21
8.0647917647
  0
LINE
  5
792
100
AcDbEntity
  8
ASSI
100
AcDbLine
 62
7
  6
CONTINUOUS
 10
-1.9147917647
 20
8.6866957532
 11
-2.5366957532
 21
8.0647917647
  0
LINE
  5
793
100
AcDbEntity
  8
0
100
AcDbLine
 62
7
  6
CONTINUOUS
 10
-5.1983443637
 20
7.7188305324
 11
-5.1808892987
 21
7.7275574002
  0
LINE
  5
794
100
AcDbEntity
  8
DRAFT
100
AcDbLine
 62
7
  6
CONTINUOUS
 10
-5.1983443637
 20
7.7188305324
 11
-5.1808892987
 21
7.7275574002
  0
LWPOLYLINE
  5
795
100
AcDbEntity
  8
0
100
AcDbPolyline
 62
7
  6
CONTINUOUS
 90
12
 70
0
 10
-11.0106035386
 20
45.8696288165
 10
-10.8927317104
 20
45.8700092905
 10
-10.7798602807
 20
45.8706281018
 10
-10.6705044982
 20
45.8715000664
 10
-10.5661491141
 20
45.8726103683
 10
-10.4712483817
 20
45.8739145591
 10
-10.3861802974
 20
45.8754245811
 10
-10.3105668649
 20
45.8771284921
 10
-10.2477283489
 20
45.878946017
 10
-10.1987715042
 20
45.8808503974
 10
-10.1625895761
 20
45.8828683918
 10
-10.1391825645
 20
45.885
  0
LINE
  5
796
100
AcDbEntity
  8
ASSI
100
AcDbLine
 62
7
  6
CONTINUOUS
 10
-10.135
 20
44.185
 11
-15.135
 21
44.185
  0
LINE
  5
797
100
AcDbEntity
  8
RACCORDO
100
AcDbLine
 62
7
  6
CONTINUOUS
 10
-3.2437756099
 20
44.1980903017
 11
-8.6219096983
 21
44.1980903017
  0
LINE
  5
798
100
AcDbEntity
  8
ASSI
100
AcDbLine
 62
7
  6
CONTINUOUS
 10
-3.2437756099
 20
44.1980903017
 11
-8.6219096983
 21
44.1980903017
  0
LINE
  5
799
100
AcDbEntity
  8
0
100
AcDbLine
 62
7
  6
CONTINUOUS
 10
-15.135
 20
44.285
 11
-10.135
 21
44.285
  0
LINE
  5
79A
100
AcDbEntity
  8
ASSI
100
AcDbLine
 62
7
  6
CONTINUOUS
 10
-15.135
 20
44.285
 11
-10.135
 21
44.285
  0
LINE
  5
79B
100
AcDbEntity
  8
ASSI
100
AcDbLine
 62
7
  6
CONTINUOUS
 10
-3.635
 20
44.585
 11
-8.6219096983
 21
44.585
  0
LINE
  5
79C
100
AcDbEntity
  8
RACCORDO
100
AcDbLine
 62
7
  6
CONTINUOUS
 10
-8.9218982752
 20
45.5980903017
 11
-22.0262243901
 21
45.5980903017
  0
LINE
  5
79D
100
AcDbEntity
  8
ASSI
100
AcDbLine
 62
7
  6
CONTINUOUS
 10
-8.9218982752
 20
45.5980903017
 11
-22.0262243901
 21
45.5980903017
  0
LINE
  5
79E
100
AcDbEntity
  8
0
100
AcDbLine
 62
7
  6
CONTINUOUS
 10
-5.1983443637
 20
45.6483443637
 11
-9.1716556363
 21
45.6483443637
  0
LINE
  5
79F
100
AcDbEntity
  8
DRAFT
100
AcDbLine
 62
7
  6
CONTINUOUS
 10
-5.1983443637
 20
45.6483443637
 11
-9.1716556363
 21
45.6483443637
  0
LINE
  5
7A0
100
AcDbEntity
  8
0
100
AcDbLine
 62
7
  6
CONTINUOUS
 10
-16.0983443637
 20
45.6483443637
 11
-20.0716556363
 21
45.6483443637
  0
LINE
  5
7A1
100
AcDbEntity
  8
DRAFT
100
AcDbLine
 62
7
  6
CONTINUOUS
 10
-16.0983443637
 20
45.6483443637
 11
-20.0716556363
 21
45.6483443637
  0
LINE
  5
7A2
100
AcDbEntity
  8
0
100
AcDbLine
 62
7
  6
CONTINUOUS
 10
-5.235
 20
45.685
 11
-9.135
 21
45.685
  0
LINE
  5
7A3
100
AcDbEntity
  8
DRAFT
100
AcDbLine
 62
7
  6
CONTINUOUS
 10
-5.235
 20
45.685
 11
-9.135
 21
45.685
  0
LINE
  5
7A4
100
AcDbEntity
  8
0
100
AcDbLine
 62
7
  6
CONTINUOUS
 10
-16.135
 20
45.685
 11
-20.035
 21
45.685
  0
LINE
  5
7A5
100
AcDbEntity
  8
DRAFT
100
AcDbLine
 62
7
  6
CONTINUOUS
 10
-16.135
 20
45.685
 11
-20.035
 21
45.685
  0
LINE
  5
7A6
100
AcDbEntity
  8
RACCORDO
100
AcDbLine
 62
253
  6
CONTINUOUS
 10
-19.8779784985
 20
45.7420215015
 11
-18.9920215015
 21
45.7420215015
  0
LINE
  5
7A7
100
AcDbEntity
  8
RACCORDO
100
AcDbLine
 62
253
  6
CONTINUOUS
 10
-6.2779784985
 20
45.7420215015
 11
-5.3920215015
 21
45.7420215015
  0
LINE
  5
7A8
100
AcDbEntity
  8
0
100
AcDbLine
 62
7
  6
CONTINUOUS
 10
-16.0983443637
 20
45.8483443637
 11
-9.1716556363
 21
45.8483443637
  0
LINE
  5
7A9
100
AcDbEntity
  8
DRAFT
100
AcDbLine
 62
7
  6
CONTINUOUS
 10
-16.0983443637
 20
45.8483443637
 11
-9.1716556363
 21
45.8483443637
  0
LINE
  5
7AA
100
AcDbEntity
  8
0
100
AcDbLine
 62
7
  6
CONTINUOUS
 10
-14.1365242349
 20
45.8694866796
 11
-11.0106035386
 21
45.8696288165
  0
LINE
  5
7AB
100
AcDbEntity
  8
0
100
AcDbLine
 62
7
  6
CONTINUOUS
 10
-16.135
 20
45.885
 11
-15.1294782802
 21
45.885
  0
LINE
  5
7AC
100
AcDbEntity
  8
0
100
AcDbLine
 62
7
  6
CONTINUOUS
 10
-10.1405217198
 20
45.885
 11
-9.135
 21
45.885
  0
LINE
  5
7AD
100
AcDbEntity
  8
RACCORDO
100
AcDbLine
 62
253
  6
CONTINUOUS
 10
-19.8768217019
 20
45.9420181168
 11
-18.9931782981
 21
45.9420181168
  0
LINE
  5
7AE
100
AcDbEntity
  8
RACCORDO
100
AcDbLine
 62
253
  6
CONTINUOUS
 10
-6.2768217019
 20
45.9420181168
 11
-5.3931782981
 21
45.9420181168
  0
LWPOLYLINE
  5
7AF
100
AcDbEntity
  8
0
100
AcDbPolyline
 62
7
  6
CONTINUOUS
 90
13
 70
0
 10
-14.1365242349
 20
45.8694866796
 10
-14.2593964614
 20
45.8696288165
 10
-14.3772682896
 20
45.8700092905
 10
-14.4901397193
 20
45.8706281018
 10
-14.5994955018
 20
45.8715000664
 10
-14.7038508859
 20
45.8726103683
 10
-14.7987516183
 20
45.8739145591
 10
-14.8838197026
 20
45.8754245811
 10
-14.9594331351
 20
45.8771284921
 10
-15.0222716511
 20
45.878946017
 10
-15.0712284958
 20
45.8808503974
 10
-15.1074104239
 20
45.8828683918
 10
-15.1308174355
 20
45.885
  0
LINE
  5
7B0
100
AcDbEntity
  8
RACCORDO
100
AcDbLine
 62
7
  6
CONTINUOUS
 10
-5.3920215015
 20
45.7420215015
 11
-5.335
 21
45.685
  0
LINE
  5
7B1
100
AcDbEntity
  8
0
100
AcDbLine
 62
7
  6
CONTINUOUS
 10
-5.235
 20
45.685
 11
-5.1983443637
 21
45.6483443637
  0
LINE
  5
7B2
100
AcDbEntity
  8
DRAFT
100
AcDbLine
 62
7
  6
CONTINUOUS
 10
-5.235
 20
45.685
 11
-5.1983443637
 21
45.6483443637
  0
LINE
  5
7B3
100
AcDbEntity
  8
RACCORDO
100
AcDbLine
 62
7
  6
CONTINUOUS
 10
-1.9147917647
 20
43.2833042468
 11
-2.5366957532
 21
43.9052082353
  0
LINE
  5
7B4
100
AcDbEntity
  8
ASSI
100
AcDbLine
 62
7
  6
CONTINUOUS
 10
-1.9147917647
 20
43.2833042468
 11
-2.5366957532
 21
43.9052082353
  0
LINE
  5
7B5
100
AcDbEntity
  8
ASSI
100
AcDbLine
 62
7
  6
CONTINUOUS
 10
-8.7070300123
 20
49.2413578147
 11
-8.8024186336
 21
49.3445269016
  0
LINE
  5
7B6
100
AcDbEntity
  8
ASSI
100
AcDbLine
 62
7
  6
CONTINUOUS
 10
-8.8024186336
 20
49.3445269016
 11
-8.8913717532
 21
49.4413400433
  0
LINE
  5
7B7
100
AcDbEntity
  8
ASSI
100
AcDbLine
 62
7
  6
CONTINUOUS
 10
-8.8913717532
 20
49.4413400433
 11
-8.9498693218
 21
49.505658084
  0
LINE
  5
7B8
100
AcDbEntity
  8
ASSI
100
AcDbLine
 62
7
  6
CONTINUOUS
 10
-8.9498693218
 20
49.505658084
 11
-8.9841384182
 21
49.5437705835
  0
LINE
  5
7B9
100
AcDbEntity
  8
ASSI
100
AcDbLine
 62
7
  6
CONTINUOUS
 10
-8.9841384182
 20
49.5437705835
 11
-9.0145422989
 21
49.5780148412
  0
LWPOLYLINE
  5
7BA
100
AcDbEntity
  8
ASSI
100
AcDbPolyline
 62
7
  6
CONTINUOUS
 90
18
 70
0
 10
-9.0145422989
 20
49.5780148412
 10
-9.0410889543
 20
49.6083833596
 10
-9.0529853634
 20
49.622204436
 10
-9.0639876697
 20
49.6351397805
 10
-9.0741082528
 20
49.6471907435
 10
-9.0833940724
 20
49.6584345977
 10
-9.0918483838
 20
49.6688693892
 10
-9.0994894275
 20
49.6784970717
 10
-9.1063697328
 20
49.6874007789
 10
-9.1125043583
 20
49.6956007946
 10
-9.1178820219
 20
49.7030768349
 10
-9.122506586
 20
49.7098511814
 10
-9.1263873795
 20
49.7159188156
 10
-9.1295327314
 20
49.721284756
 10
-9.1319509511
 20
49.72598634
 10
-9.1336565802
 20
49.7300360132
 10
-9.134667153
 20
49.73342133
 10
-9.135
 20
49.7361422903
  0
LINE
  5
7BB
100
AcDbEntity
  8
0
100
AcDbLine
 62
7
  6
CONTINUOUS
 10
-4.0077963269
 20
5.135
 11
-2.192882674
 21
6.9499136529
  0
LINE
  5
7BC
100
AcDbEntity
  8
RACCORDO
100
AcDbLine
 62
7
  6
CONTINUOUS
 10
-4.0077963269
 20
5.135
 11
-2.192882674
 21
6.9499136529
  0
LINE
  5
7BD
100
AcDbEntity
  8
RACCORDO
100
AcDbLine
 62
7
  6
CONTINUOUS
 10
-5.3762731322
 20
3.5937268678
 11
-4.385
 21
4.585
  0
LINE
  5
7BE
100
AcDbEntity
  8
0
100
AcDbLine
 62
7
  6
CONTINUOUS
 10
-3.835
 20
5.135
 11
-2.0706972195
 21
6.8993027805
  0
LINE
  5
7BF
100
AcDbEntity
  8
RACCORDO
100
AcDbLine
 62
7
  6
CONTINUOUS
 10
-3.835
 20
5.135
 11
-2.0706972195
 21
6.8993027805
  0
LINE
  5
7C0
100
AcDbEntity
  8
DRAFT
100
AcDbLine
 62
7
  6
CONTINUOUS
 10
-6.3437267447
 20
45.9719096983
 11
-10.1356714846
 21
45.9719096983
  0
LINE
  5
7C1
100
AcDbEntity
  8
DRAFT
100
AcDbLine
 62
7
  6
CONTINUOUS
 10
-15.1343285154
 20
45.9719096983
 11
-18.9262732553
 21
45.9719096983
  0
LINE
  5
7C2
100
AcDbEntity
  8
DRAFT
100
AcDbLine
 62
7
  6
CONTINUOUS
 10
-9.135
 20
45.985
 11
-10.1356478189
 21
45.985
  0
LINE
  5
7C3
100
AcDbEntity
  8
DRAFT
100
AcDbLine
 62
7
  6
CONTINUOUS
 10
-15.1343521811
 20
45.985
 11
-16.135
 21
45.985
  0
LINE
  5
7C4
100
AcDbEntity
  8
DRAFT
100
AcDbLine
 62
7
  6
CONTINUOUS
 10
-15.135
 20
46.0382338935
 11
-15.0763111231
 21
46.0382338935
  0
LINE
  5
7C5
100
AcDbEntity
  8
DRAFT
100
AcDbLine
 62
7
  6
CONTINUOUS
 10
-10.1936888769
 20
46.0382338935
 11
-10.135
 21
46.0382338935
  0
LINE
  5
7C6
100
AcDbEntity
  8
RACCORDO
100
AcDbLine
 62
253
  6
CONTINUOUS
 10
-18.990294768
 20
46.0679433217
 11
-6.279705232
 21
46.0679433217
  0
LINE
  5
7C7
100
AcDbEntity
  8
RACCORDO
100
AcDbLine
 62
253
  6
CONTINUOUS
 10
-18.9931782981
 20
46.5679242832
 11
-6.2768217019
 21
46.5679242832
  0
LINE
  5
7C8
100
AcDbEntity
  8
DRAFT
100
AcDbLine
 62
7
  6
CONTINUOUS
 10
-3.0111825974
 20
46.8063883311
 11
-3.8063883311
 21
46.8063883311
  0
LINE
  5
7C9
100
AcDbEntity
  8
DRAFT
100
AcDbLine
 62
7
  6
CONTINUOUS
 10
-5.235
 20
46.8063883311
 11
-5.3262732553
 21
46.8063883311
  0
LINE
  5
7CA
100
AcDbEntity
  8
DRAFT
100
AcDbLine
 62
7
  6
CONTINUOUS
 10
-19.9437267447
 20
46.8063883311
 11
-20.035
 21
46.8063883311
  0
LINE
  5
7CB
100
AcDbEntity
  8
DRAFT
100
AcDbLine
 62
7
  6
CONTINUOUS
 10
-21.4636116689
 20
46.8063883311
 11
-22.2588174026
 21
46.8063883311
  0
LINE
  5
7CC
100
AcDbEntity
  8
0
100
AcDbLine
 62
7
  6
CONTINUOUS
 10
-3.835
 20
46.835
 11
-5.235
 21
46.835
  0
LINE
  5
7CD
100
AcDbEntity
  8
DRAFT
100
AcDbLine
 62
7
  6
CONTINUOUS
 10
-3.835
 20
46.835
 11
-5.235
 21
46.835
  0
LINE
  5
7CE
100
AcDbEntity
  8
0
100
AcDbLine
 62
7
  6
CONTINUOUS
 10
-20.035
 20
46.835
 11
-21.435
 21
46.835
  0
LINE
  5
7CF
100
AcDbEntity
  8
DRAFT
100
AcDbLine
 62
7
  6
CONTINUOUS
 10
-20.035
 20
46.835
 11
-21.435
 21
46.835
  0
LINE
  5
7D0
100
AcDbEntity
  8
DRAFT
100
AcDbLine
 62
7
  6
CONTINUOUS
 10
-2.985
 20
46.885
 11
-4.385
 21
46.885
  0
LINE
  5
7D1
100
AcDbEntity
  8
DRAFT
100
AcDbLine
 62
7
  6
CONTINUOUS
 10
-20.885
 20
46.885
 11
-22.285
 21
46.885
  0
LINE
  5
7D2
100
AcDbEntity
  8
DRAFT
100
AcDbLine
 62
7
  6
CONTINUOUS
 10
-4.3884872909
 20
46.8954703804
 11
-5.3361623254
 21
46.8954703804
  0
LINE
  5
7D3
100
AcDbEntity
  8
DRAFT
100
AcDbLine
 62
7
  6
CONTINUOUS
 10
-19.9338376746
 20
46.8954703804
 11
-20.8815127091
 21
46.8954703804
  0
LINE
  5
7D4
100
AcDbEntity
  8
RACCORDO
100
AcDbLine
 62
7
  6
CONTINUOUS
 10
-5.0508992808
 20
46.9809955457
 11
-5.3931782981
 21
46.9809955457
  0
LINE
  5
7D5
100
AcDbEntity
  8
RACCORDO
100
AcDbLine
 62
7
  6
CONTINUOUS
 10
-19.8768217019
 20
46.9809955457
 11
-20.2191007192
 21
46.9809955457
  0
LINE
  5
7D6
100
AcDbEntity
  8
0
100
AcDbLine
 62
7
  6
CONTINUOUS
 10
-9.635
 20
46.985
 11
-15.635
 21
46.985
  0
LINE
  5
7D7
100
AcDbEntity
  8
RACCORDO
100
AcDbLine
 62
253
  6
CONTINUOUS
 10
-5.0508992808
 20
47.2976932437
 11
-9.635
 21
47.2976932437
  0
LINE
  5
7D8
100
AcDbEntity
  8
RACCORDO
100
AcDbLine
 62
253
  6
CONTINUOUS
 10
-15.635
 20
47.2976932437
 11
-20.2191007192
 21
47.2976932437
  0
LINE
  5
7D9
100
AcDbEntity
  8
0
100
AcDbLine
 62
7
  6
CONTINUOUS
 10
-15.635
 20
47.685
 11
-9.635
 21
47.685
  0
LINE
  5
7DA
100
AcDbEntity
  8
0
100
AcDbLine
 62
7
  6
CONTINUOUS
 10
-2.192882674
 20
45.0200863471
 11
-4.0077963269
 21
46.835
  0
LINE
  5
7DB
100
AcDbEntity
  8
RACCORDO
100
AcDbLine
 62
7
  6
CONTINUOUS
 10
-2.192882674
 20
45.0200863471
 11
-4.0077963269
 21
46.835
  0
LINE
  5
7DC
100
AcDbEntity
  8
0
100
AcDbLine
 62
7
  6
CONTINUOUS
 10
-2.0706972195
 20
45.0706972195
 11
-3.835
 21
46.835
  0
LINE
  5
7DD
100
AcDbEntity
  8
RACCORDO
100
AcDbLine
 62
7
  6
CONTINUOUS
 10
-2.0706972195
 20
45.0706972195
 11
-3.835
 21
46.835
  0
LINE
  5
7DE
100
AcDbEntity
  8
RACCORDO
100
AcDbLine
 62
7
  6
CONTINUOUS
 10
-4.385
 20
47.385
 11
-5.3762731322
 21
48.3762731322
  0
LINE
  5
7DF
100
AcDbEntity
  8
RACCORDO
100
AcDbLine
 62
253
  6
CONTINUOUS
 10
-4.380628166
 20
1.7393676032
 11
-4.385
 21
1.7349957692
  0
LINE
  5
7E0
100
AcDbEntity
  8
RACCORDO
100
AcDbLine
 62
253
  6
CONTINUOUS
 10
-4.1306323968
 20
1.489371834
 11
-4.1350042308
 21
1.485
  0
LINE
  5
7E1
100
AcDbEntity
  8
RACCORDO
100
AcDbLine
 62
7
  6
CONTINUOUS
 10
-4.5509754333
 20
4.9932917358
 11
-4.3884872909
 21
5.0745296196
  0
LINE
  5
7E2
100
AcDbEntity
  8
RACCORDO
100
AcDbLine
 62
253
  6
CONTINUOUS
 10
-5.2976551668
 20
48.2976551668
 11
-9.635
 21
48.2976551668
  0
LINE
  5
7E3
100
AcDbEntity
  8
RACCORDO
100
AcDbLine
 62
253
  6
CONTINUOUS
 10
-15.635
 20
48.2976551668
 11
-19.9723448332
 21
48.2976551668
  0
LINE
  5
7E4
100
AcDbEntity
  8
DRAFT
100
AcDbLine
 62
7
  6
CONTINUOUS
 10
-16.135
 20
48.3230392387
 11
-15.635
 21
48.3230392387
  0
LINE
  5
7E5
100
AcDbEntity
  8
DRAFT
100
AcDbLine
 62
7
  6
CONTINUOUS
 10
-9.635
 20
48.3230392387
 11
-9.135
 21
48.3230392387
  0
LINE
  5
7E6
100
AcDbEntity
  8
RACCORDO
100
AcDbLine
 62
7
  6
CONTINUOUS
 10
-1.9451401391
 20
48.3762731322
 11
-5.3762731322
 21
48.3762731322
  0
LINE
  5
7E7
100
AcDbEntity
  8
RACCORDO
100
AcDbLine
 62
7
  6
CONTINUOUS
 10
-19.8937268678
 20
48.3762731322
 11
-23.3248598609
 21
48.3762731322
  0
LINE
  5
7E8
100
AcDbEntity
  8
RACCORDO
100
AcDbLine
 62
7
  6
CONTINUOUS
 10
-1.9621049132
 20
48.385
 11
-1.985
 21
48.385
  0
LINE
  5
7E9
100
AcDbEntity
  8
DRAFT
100
AcDbLine
 62
7
  6
CONTINUOUS
 10
-1.985
 20
48.385
 11
-8.235
 21
48.385
  0
LINE
  5
7EA
100
AcDbEntity
  8
DRAFT
100
AcDbLine
 62
7
  6
CONTINUOUS
 10
-17.035
 20
48.385
 11
-23.285
 21
48.385
  0
LINE
  5
7EB
100
AcDbEntity
  8
RACCORDO
100
AcDbLine
 62
7
  6
CONTINUOUS
 10
-23.285
 20
48.385
 11
-23.3078950868
 21
48.385
  0
LINE
  5
7EC
100
AcDbEntity
  8
RACCORDO
100
AcDbLine
 62
7
  6
CONTINUOUS
 10
-23.0357229979
 20
49.1076497308
 11
-21.1342770021
 21
49.1076497308
  0
LINE
  5
7ED
100
AcDbEntity
  8
RACCORDO
100
AcDbLine
 62
7
  6
CONTINUOUS
 10
-4.1357229979
 20
49.1076497308
 11
-2.2342770021
 21
49.1076497308
  0
LWPOLYLINE
  5
7EE
100
AcDbEntity
  8
RACCORDO
100
AcDbPolyline
 62
7
  6
CONTINUOUS
 90
34
 70
0
 10
-23.0306323968
 20
49.685
 10
-23.0436568719
 20
49.6852535774
 10
-23.0565864441
 20
49.6858789762
 10
-23.0693870425
 20
49.6868761963
 10
-23.0820370996
 20
49.6882578617
 10
-23.0944932499
 20
49.6900113484
 10
-23.1066917635
 20
49.6920987849
 10
-23.1185923857
 20
49.6945212536
 10
-23.1301827847
 20
49.6972776721
 10
-23.1414447697
 20
49.7003269215
 10
-23.1523559423
 20
49.7036694804
 10
-23.162896047
 20
49.7073048703
 10
-23.1730519403
 20
49.7111905362
 10
-23.1828060819
 20
49.7153265244
 10
-23.1921427969
 20
49.7197127887
 10
-23.2010531313
 20
49.724306636
 10
-23.2095239743
 20
49.7291078614
 10
-23.2175437065
 20
49.7341166698
 10
-23.22510661
 20
49.7392909833
 10
-23.2322035023
 20
49.7446304659
 10
-23.2388264114
 20
49.7501354536
 10
-23.2449721553
 20
49.7557648756
 10
-23.2506350363
 20
49.7615183262
 10
-23.2558103935
 20
49.7673962112
 10
-23.2604971716
 20
49.7733586777
 10
-23.2646927965
 20
49.779405262
 10
-23.2683956467
 20
49.7855364279
 10
-23.2716066239
 20
49.7917137129
 10
-23.2743259908
 20
49.7979365718
 10
-23.2765549373
 20
49.8042055499
 10
-23.2782963
 20
49.8104838211
 10
-23.2795530388
 20
49.8167591101
 10
-23.2803287436
 20
49.8230436921
 10
-23.280628166
 20
49.8293375673
  0
LINE
  5
7EF
100
AcDbEntity
  8
RACCORDO
100
AcDbLine
 62
7
  6
CONTINUOUS
 10
-4.5509754333
 20
46.9767082642
 11
-4.3884872909
 21
46.8954703804
  0
LINE
  5
7F0
100
AcDbEntity
  8
RACCORDO
100
AcDbLine
 62
253
  6
CONTINUOUS
 10
-4.380628166
 20
50.2306323968
 11
-4.385
 21
50.2350042308
  0
LINE
  5
7F1
100
AcDbEntity
  8
RACCORDO
100
AcDbLine
 62
253
  6
CONTINUOUS
 10
-4.1306323968
 20
50.480628166
 11
-4.1350042308
 21
50.485
  0
LINE
  5
7F2
100
AcDbEntity
  8
RACCORDO
100
AcDbLine
 62
253
  6
CONTINUOUS
 10
-1.9451401391
 20
3.5937268678
 11
-1.9625952041
 21
3.585
  0
LWPOLYLINE
  5
7F3
100
AcDbEntity
  8
RACCORDO
100
AcDbPolyline
 62
7
  6
CONTINUOUS
 90
11
 70
0
 10
-1.7568623178
 20
3.6335532783
 10
-1.7712453773
 20
3.6266711729
 10
-1.7913637835
 20
3.6180425025
 10
-1.8118710346
 20
3.610380291
 10
-1.8327213016
 20
3.6037020333
 10
-1.8538762668
 20
3.5980210233
 10
-1.8752794556
 20
3.5933533874
 10
-1.8968559828
 20
3.5897138464
 10
-1.9185475879
 20
3.5871080564
 10
-1.9403136473
 20
3.5855367491
 10
-1.9621049132
 20
3.585
  0
LINE
  5
7F4
100
AcDbEntity
  8
RACCORDO
100
AcDbLine
 62
253
  6
CONTINUOUS
 10
-4.1306323968
 20
49.6128312164
 11
-2.2393676032
 21
49.6128312164
  0
LINE
  5
7F5
100
AcDbEntity
  8
RACCORDO
100
AcDbLine
 62
7
  6
CONTINUOUS
 10
-21.1393676032
 20
49.685
 11
-23.0306323968
 21
49.685
  0
LINE
  5
7F6
100
AcDbEntity
  8
ASSI
100
AcDbLine
 62
253
  6
CONTINUOUS
 10
-8.2786506469
 20
49.7413493531
 11
-9.135
 21
49.7413493531
  0
LINE
  5
7F7
100
AcDbEntity
  8
ASSI
100
AcDbLine
 62
253
  6
CONTINUOUS
 10
-16.135
 20
49.7413493531
 11
-16.9913493531
 21
49.7413493531
  0
LINE
  5
7F8
100
AcDbEntity
  8
DRAFT
100
AcDbLine
 62
7
  6
CONTINUOUS
 10
-9.135
 20
49.7791821702
 11
-16.135
 21
49.7791821702
  0
LINE
  5
7F9
100
AcDbEntity
  8
DRAFT
100
AcDbLine
 62
7
  6
CONTINUOUS
 10
-8.235
 20
49.785
 11
-17.035
 21
49.785
  0
LINE
  5
7FA
100
AcDbEntity
  8
RACCORDO
100
AcDbLine
 62
253
  6
CONTINUOUS
 10
-1.989371834
 20
49.8293375673
 11
-4.380628166
 21
49.8293375673
  0
LINE
  5
7FB
100
AcDbEntity
  8
RACCORDO
100
AcDbLine
 62
253
  6
CONTINUOUS
 10
-1.989371834
 20
50.2306323968
 11
-4.380628166
 21
50.2306323968
  0
LINE
  5
7FC
100
AcDbEntity
  8
RACCORDO
100
AcDbLine
 62
253
  6
CONTINUOUS
 10
-20.889371834
 20
50.2306323968
 11
-23.280628166
 21
50.2306323968
  0
LINE
  5
7FD
100
AcDbEntity
  8
RACCORDO
100
AcDbLine
 62
253
  6
CONTINUOUS
 10
-2.2393676032
 20
50.480628166
 11
-4.1306323968
 21
50.480628166
  0
LINE
  5
7FE
100
AcDbEntity
  8
RACCORDO
100
AcDbLine
 62
253
  6
CONTINUOUS
 10
-21.1393676032
 20
50.480628166
 11
-23.0306323968
 21
50.480628166
  0
LINE
  5
7FF
100
AcDbEntity
  8
RACCORDO
100
AcDbLine
 62
7
  6
CONTINUOUS
 10
-2.2349957692
 20
50.485
 11
-4.1350042308
 21
50.485
  0
LINE
  5
800
100
AcDbEntity
  8
RACCORDO
100
AcDbLine
 62
7
  6
CONTINUOUS
 10
-21.1349957692
 20
50.485
 11
-23.0350042308
 21
50.485
  0
LWPOLYLINE
  5
801
100
AcDbEntity
  8
RACCORDO
100
AcDbPolyline
 62
7
  6
CONTINUOUS
 90
34
 70
0
 10
-21.1349957692
 20
50.485
 10
-21.123100484
 20
50.4847168498
 10
-21.1112321444
 20
50.4838680342
 10
-21.0994176339
 20
50.4824554741
 10
-21.0876837125
 20
50.4804823677
 10
-21.0760569612
 20
50.4779531817
 10
-21.064563721
 20
50.4748736417
 10
-21.0532300262
 20
50.4712507213
 10
-21.0420815507
 20
50.4670926258
 10
-21.0311435537
 20
50.4624087722
 10
-21.0204408124
 20
50.4572097688
 10
-21.0099975717
 20
50.4515073916
 10
-20.9998374941
 20
50.4453145581
 10
-20.9899835949
 20
50.4386452955
 10
-20.9804581962
 20
50.4315147107
 10
-20.9712828809
 20
50.4239389589
 10
-20.9624784339
 20
50.4159352005
 10
-20.9540647995
 20
50.4075215661
 10
-20.9460610411
 20
50.3987171191
 10
-20.9384852893
 20
50.3895418038
 10
-20.9313547045
 20
50.3800164051
 10
-20.9246854419
 20
50.3701625059
 10
-20.9184926084
 20
50.3600024283
 10
-20.9127902312
 20
50.3495591876
 10
-20.9075912278
 20
50.3388564463
 10
-20.9029073742
 20
50.3279184493
 10
-20.8987492787
 20
50.3167699738
 10
-20.8951263583
 20
50.305436279
 10
-20.8920468183
 20
50.2939430388
 10
-20.8895176323
 20
50.2823162875
 10
-20.8875445259
 20
50.2705823661
 10
-20.8861319658
 20
50.2587678556
 10
-20.8852831502
 20
50.246899516
 10
-20.885
 20
50.2350042308
  0
LWPOLYLINE
  5
802
100
AcDbEntity
  8
RACCORDO
100
AcDbPolyline
 62
7
  6
CONTINUOUS
 90
34
 70
0
 10
-2.2349957692
 20
50.485
 10
-2.223100484
 20
50.4847168498
 10
-2.2112321444
 20
50.4838680342
 10
-2.1994176339
 20
50.4824554741
 10
-2.1876837125
 20
50.4804823677
 10
-2.1760569612
 20
50.4779531817
 10
-2.164563721
 20
50.4748736417
 10
-2.1532300262
 20
50.4712507213
 10
-2.1420815507
 20
50.4670926258
 10
-2.1311435537
 20
50.4624087722
 10
-2.1204408124
 20
50.4572097688
 10
-2.1099975717
 20
50.4515073916
 10
-2.0998374941
 20
50.4453145581
 10
-2.0899835949
 20
50.4386452955
 10
-2.0804581962
 20
50.4315147107
 10
-2.0712828809
 20
50.4239389589
 10
-2.0624784339
 20
50.4159352005
 10
-2.0540647995
 20
50.4075215661
 10
-2.0460610411
 20
50.3987171191
 10
-2.0384852893
 20
50.3895418038
 10
-2.0313547045
 20
50.3800164051
 10
-2.0246854419
 20
50.3701625059
 10
-2.0184926084
 20
50.3600024283
 10
-2.0127902312
 20
50.3495591876
 10
-2.0075912278
 20
50.3388564463
 10
-2.0029073742
 20
50.3279184493
 10
-1.9987492787
 20
50.3167699738
 10
-1.9951263583
 20
50.305436279
 10
-1.9920468183
 20
50.2939430388
 10
-1.9895176323
 20
50.2823162875
 10
-1.9875445259
 20
50.2705823661
 10
-1.9861319658
 20
50.2587678556
 10
-1.9852831502
 20
50.246899516
 10
-1.985
 20
50.2350042308
  0
LWPOLYLINE
  5
803
100
AcDbEntity
  8
RACCORDO
100
AcDbPolyline
 62
253
  6
CONTINUOUS
 90
31
 70
0
 10
-21.1393676032
 20
50.480628166
 10
-21.1262841172
 20
50.4802851274
 10
-21.1132364906
 20
50.4792578375
 10
-21.1002604845
 20
50.477549112
 10
-21.0873916636
 20
50.475163634
 10
-21.0746652991
 20
50.4721079418
 10
-21.0621162714
 20
50.4683904104
 10
-21.0497789751
 20
50.4640212289
 10
-21.0376872245
 20
50.4590123724
 10
-21.0258741607
 20
50.4533775693
 10
-21.0143721611
 20
50.4471322634
 10
-21.0032127506
 20
50.440293572
 10
-20.992426515
 20
50.4328802386
 10
-20.9820430174
 20
50.4249125818
 10
-20.9720907169
 20
50.4164124395
 10
-20.962596891
 20
50.407403109
 10
-20.9535875605
 20
50.3979092831
 10
-20.9450874182
 20
50.3879569826
 10
-20.9371197614
 20
50.377573485
 10
-20.929706428
 20
50.3667872494
 10
-20.9228677366
 20
50.3556278389
 10
-20.9166224307
 20
50.3441258393
 10
-20.9109876276
 20
50.3323127755
 10
-20.9059787711
 20
50.3202210249
 10
-20.9016095896
 20
50.3078837286
 10
-20.8978920582
 20
50.2953347009
 10
-20.894836366
 20
50.2826083364
 10
-20.892450888
 20
50.2697395155
 10
-20.8907421625
 20
50.2567635094
 10
-20.8897148726
 20
50.2437158828
 10
-20.889371834
 20
50.2306323968
  0
LWPOLYLINE
  5
804
100
AcDbEntity
  8
RACCORDO
100
AcDbPolyline
 62
253
  6
CONTINUOUS
 90
31
 70
0
 10
-2.2393676032
 20
50.480628166
 10
-2.2263152632
 20
50.4802867588
 10
-2.2132903689
 20
50.4792634962
 10
-2.2003285943
 20
50.477559892
 10
-2.1874628755
 20
50.4751787618
 10
-2.1747314103
 20
50.4721256484
 10
-2.1621772258
 20
50.4684102087
 10
-2.1498374218
 20
50.4640436576
 10
-2.1377430657
 20
50.4590372277
 10
-2.1259269875
 20
50.4534044791
 10
-2.114421387
 20
50.4471606774
 10
-2.1032580686
 20
50.4403229956
 10
-2.0924679894
 20
50.4329103656
 10
-2.0820808636
 20
50.4249432233
 10
-2.0721250264
 20
50.4164433264
 10
-2.062627692
 20
50.4074339046
 10
-2.0536148729
 20
50.3979396114
 10
-2.0451113313
 20
50.387986508
 10
-2.0371404232
 20
50.3776019187
 10
-2.0297240163
 20
50.3668143284
 10
-2.0228824405
 20
50.3556533025
 10
-2.0166344613
 20
50.3441494467
 10
-2.0109972131
 20
50.332334301
 10
-2.0059861576
 20
50.3202402638
 10
-2.0016150425
 20
50.3079005077
 10
-1.997895853
 20
50.2953488602
 10
-1.9948387919
 20
50.2826197463
 10
-1.9924522491
 20
50.2697481067
 10
-1.990742766
 20
50.2567692492
 10
-1.989715023
 20
50.2437187509
 10
-1.989371834
 20
50.2306323968
  0
LWPOLYLINE
  5
805
100
AcDbEntity
  8
RACCORDO
100
AcDbPolyline
 62
7
  6
CONTINUOUS
 90
11
 70
0
 10
-1.7568641304
 20
48.3364476141
 10
-1.7713337333
 20
48.3433692267
 10
-1.7914582912
 20
48.3519953998
 10
-1.8119691177
 20
48.3596537028
 10
-1.8328191606
 20
48.3663267495
 10
-1.8539523077
 20
48.3719974846
 10
-1.8753292798
 20
48.376656261
 10
-1.8969280902
 20
48.380296553
 10
-1.9187092194
 20
48.3829074049
 10
-1.9406148185
 20
48.3844776137
 10
-1.9625952041
 20
48.385
  0
LINE
  5
806
100
AcDbEntity
  8
RACCORDO
100
AcDbLine
 62
253
  6
CONTINUOUS
 10
-1.9625952041
 20
48.385
 11
-1.9451401391
 21
48.3762731322
  0
ARC
  5
807
100
AcDbEntity
  8
ASSI
100
AcDbCircle
 62
7
  6
CONTINUOUS
 10
-22.1409083707
 20
7.095
 40
0.71
100
AcDbArc
 50
229.7020215745
 51
265.2988538673
  0
ARC
  5
808
100
AcDbEntity
  8
ASSI
100
AcDbCircle
 62
7
  6
CONTINUOUS
 10
-22.925
 20
7.8790916293
 40
0.71
100
AcDbArc
 50
184.7020215745
 51
220.2988538673
  0
ARC
  5
809
100
AcDbEntity
  8
0
100
AcDbCircle
 62
7
  6
CONTINUOUS
 10
-14.335
 20
8.435
 40
0.3
100
AcDbArc
 50
90.0
 51
170.0
  0
ARC
  5
80A
100
AcDbEntity
  8
RACCORDO
100
AcDbCircle
 62
7
  6
CONTINUOUS
 10
-14.335
 20
8.435
 40
0.3
100
AcDbArc
 50
90.0
 51
170.0
  0
ARC
  5
80B
100
AcDbEntity
  8
ASSI
100
AcDbCircle
 62
7
  6
CONTINUOUS
 10
-22.1409083707
 20
44.875
 40
0.71
100
AcDbArc
 50
109.9961491498
 51
114.2412807351
  0
ARC
  5
80C
100
AcDbEntity
  8
ASSI
100
AcDbCircle
 62
7
  6
CONTINUOUS
 10
-22.925
 20
44.0909083707
 40
0.71
100
AcDbArc
 50
139.7010712477
 51
175.2998279782
  0
ARC
  5
80D
100
AcDbEntity
  8
0
100
AcDbCircle
 62
7
  6
CONTINUOUS
 10
-14.335
 20
43.535
 40
0.3
100
AcDbArc
 50
189.8838085533
 51
270.0
  0
ARC
  5
80E
100
AcDbEntity
  8
RACCORDO
100
AcDbCircle
 62
7
  6
CONTINUOUS
 10
-14.335
 20
43.535
 40
0.3
100
AcDbArc
 50
189.8838085533
 51
270.0
  0
ARC
  5
80F
100
AcDbEntity
  8
ASSI
100
AcDbCircle
 62
7
  6
CONTINUOUS
 10
-2.345
 20
9.2790916293
 40
0.71
100
AcDbArc
 50
319.7020215745
 51
355.2988538673
  0
ARC
  5
810
100
AcDbEntity
  8
ASSI
100
AcDbCircle
 62
7
  6
CONTINUOUS
 10
-3.1290916293
 20
8.495
 40
0.71
100
AcDbArc
 50
274.7020215745
 51
310.2988538673
  0
ARC
  5
811
100
AcDbEntity
  8
0
100
AcDbCircle
 62
7
  6
CONTINUOUS
 10
-10.935
 20
8.435
 40
0.3
100
AcDbArc
 50
10.0
 51
90.0
  0
ARC
  5
812
100
AcDbEntity
  8
RACCORDO
100
AcDbCircle
 62
7
  6
CONTINUOUS
 10
-10.935
 20
8.435
 40
0.3
100
AcDbArc
 50
10.0
 51
90.0
  0
ARC
  5
813
100
AcDbEntity
  8
0
100
AcDbCircle
 62
7
  6
CONTINUOUS
 10
-3.635
 20
43.185
 40
1.4
100
AcDbArc
 50
21.7133555171
 51
90.0
  0
ARC
  5
814
100
AcDbEntity
  8
ASSI
100
AcDbCircle
 62
7
  6
CONTINUOUS
 10
-3.1290916293
 20
43.475
 40
0.71
100
AcDbArc
 50
49.7010712477
 51
85.2998279782
  0
ARC
  5
815
100
AcDbEntity
  8
ASSI
100
AcDbCircle
 62
7
  6
CONTINUOUS
 10
-2.345
 20
42.6909083707
 40
0.71
100
AcDbArc
 50
4.7001961556
 51
40.2989529286
  0
ARC
  5
816
100
AcDbEntity
  8
0
100
AcDbCircle
 62
7
  6
CONTINUOUS
 10
-10.935
 20
43.535
 40
0.3
100
AcDbArc
 50
270.0
 51
350.0
  0
ARC
  5
817
100
AcDbEntity
  8
RACCORDO
100
AcDbCircle
 62
7
  6
CONTINUOUS
 10
-10.935
 20
43.535
 40
0.3
100
AcDbArc
 50
270.0
 51
350.0
  0
ELLIPSE
  5
818
100
AcDbEntity
  8
0
100
AcDbEllipse
 62
7
  6
CONTINUOUS
 10
-10.8421067812
 20
7.7493745696
 30
0.0
 11
0.5
 21
-0.0
 31
0.0
 40
0.0087268678
 41
0.7853981634
 42
1.1434651843
  0
ELLIPSE
  5
819
100
AcDbEntity
  8
0
100
AcDbEllipse
 62
7
  6
CONTINUOUS
 10
-14.4278932188
 20
7.7493745696
 30
0.0
 11
0.5
 21
0.0
 31
0.0
 40
0.0087268678
 41
1.97725418
 42
2.3561944902
  0
ELLIPSE
  5
81A
100
AcDbEntity
  8
0
100
AcDbEllipse
 62
7
  6
CONTINUOUS
 10
-21.7846953439
 20
43.6564466826
 30
0.0
 11
1.8480888181
 21
-0.7655034529
 31
0.0
 40
0.9998215708
 41
2.7489566578
 42
3.5342286494
  0
ELLIPSE
  5
81B
100
AcDbEntity
  8
0
100
AcDbEllipse
 62
7
  6
CONTINUOUS
 10
-21.7846953439
 20
8.3135533174
 30
0.0
 11
1.8480888181
 21
0.7655034529
 31
0.0
 40
0.9998215708
 41
2.7489566578
 42
3.5342286494
  0
ELLIPSE
  5
81C
100
AcDbEntity
  8
0
100
AcDbEllipse
 62
7
  6
CONTINUOUS
 10
-3.4853046561
 20
8.3135533174
 30
0.0
 11
1.8480888181
 21
-0.7655034529
 31
0.0
 40
0.9998215708
 41
-0.3926359958
 42
0.3926359958
  0
ELLIPSE
  5
81D
100
AcDbEntity
  8
0
100
AcDbEllipse
 62
7
  6
CONTINUOUS
 10
-3.4853046561
 20
43.6564466826
 30
0.0
 11
1.8480888181
 21
0.7655034529
 31
0.0
 40
0.9998215708
 41
-0.3926359958
 42
0.3926359958
  0
ELLIPSE
  5
81E
100
AcDbEntity
  8
0
100
AcDbEllipse
 62
7
  6
CONTINUOUS
 10
-3.3688495716
 20
8.2188495716
 30
0.0
 11
0.3535803156
 21
-0.3535803156
 31
0.0
 40
0.9999238505
 41
-0.7853600872
 42
-0.2962124934
  0
ELLIPSE
  5
81F
100
AcDbEntity
  8
0
100
AcDbEllipse
 62
7
  6
CONTINUOUS
 10
-21.6625098894
 20
43.6058358102
 30
0.0
 11
1.8480888181
 21
-0.7655034529
 31
0.0
 40
0.9998215708
 41
9.032141965
 42
9.2322752141
  0
ELLIPSE
  5
820
100
AcDbEntity
  8
0
100
AcDbEllipse
 62
7
  6
CONTINUOUS
 10
-21.6625098894
 20
43.6058358102
 30
0.0
 11
1.8480888181
 21
-0.7655034529
 31
0.0
 40
0.9998215708
 41
3.4204543746
 42
3.5342286494
  0
ELLIPSE
  5
821
100
AcDbEntity
  8
0
100
AcDbEllipse
 62
7
  6
CONTINUOUS
 10
-21.6625098894
 20
8.3641641898
 30
0.0
 11
-1.8480888181
 21
-0.7655034529
 31
0.0
 40
0.9998215708
 41
-0.3926359958
 42
-0.278861721
  0
ELLIPSE
  5
822
100
AcDbEntity
  8
0
100
AcDbEllipse
 62
7
  6
CONTINUOUS
 10
-21.6625098894
 20
8.3641641898
 30
0.0
 11
-1.8480888181
 21
-0.7655034529
 31
0.0
 40
0.9998215708
 41
6.4756880539
 42
6.675821303
  0
ELLIPSE
  5
823
100
AcDbEntity
  8
0
100
AcDbEllipse
 62
7
  6
CONTINUOUS
 10
-3.6074901106
 20
8.3641641898
 30
0.0
 11
-1.8480888181
 21
0.7655034529
 31
0.0
 40
0.9998215708
 41
2.7489566578
 42
3.5342286494
  0
ELLIPSE
  5
824
100
AcDbEntity
  8
0
100
AcDbEllipse
 62
7
  6
CONTINUOUS
 10
-3.6074901106
 20
43.6058358102
 30
0.0
 11
1.8480888181
 21
0.7655034529
 31
0.0
 40
0.9998215708
 41
-0.3926359958
 42
0.3926359958
  0
ELLIPSE
  5
825
100
AcDbEntity
  8
RACCORDO
100
AcDbEllipse
 62
7
  6
CONTINUOUS
 10
-3.3688495716
 20
8.2188495716
 30
0.0
 11
0.3535803156
 21
-0.3535803156
 31
0.0
 40
0.9999238505
 41
-0.7853600872
 42
-0.2962124934
  0
ELLIPSE
  5
826
100
AcDbEntity
  8
RACCORDO
100
AcDbEllipse
 62
7
  6
CONTINUOUS
 10
-10.8421067812
 20
7.7493745696
 30
0.0
 11
0.5
 21
-0.0
 31
0.0
 40
0.0087268678
 41
0.7853981634
 42
1.1434651843
  0
ELLIPSE
  5
827
100
AcDbEntity
  8
RACCORDO
100
AcDbEllipse
 62
7
  6
CONTINUOUS
 10
-14.4278932188
 20
7.7493745696
 30
0.0
 11
0.5
 21
0.0
 31
0.0
 40
0.0087268678
 41
1.97725418
 42
2.3561944902
  0
ELLIPSE
  5
828
100
AcDbEntity
  8
RACCORDO
100
AcDbEllipse
 62
7
  6
CONTINUOUS
 10
-3.4853046561
 20
43.6564466826
 30
0.0
 11
1.8480888181
 21
0.7655034529
 31
0.0
 40
0.9998215708
 41
-0.3926359958
 42
0.3926359958
  0
ELLIPSE
  5
829
100
AcDbEntity
  8
RACCORDO
100
AcDbEllipse
 62
7
  6
CONTINUOUS
 10
-3.4853046561
 20
8.3135533174
 30
0.0
 11
1.8480888181
 21
-0.7655034529
 31
0.0
 40
0.9998215708
 41
-0.3926359958
 42
0.3926359958
  0
ELLIPSE
  5
82A
100
AcDbEntity
  8
RACCORDO
100
AcDbEllipse
 62
7
  6
CONTINUOUS
 10
-21.7846953439
 20
8.3135533174
 30
0.0
 11
1.8480888181
 21
0.7655034529
 31
0.0
 40
0.9998215708
 41
2.7489566578
 42
3.5342286494
  0
ELLIPSE
  5
82B
100
AcDbEntity
  8
RACCORDO
100
AcDbEllipse
 62
7
  6
CONTINUOUS
 10
-21.7846953439
 20
43.6564466826
 30
0.0
 11
1.8480888181
 21
-0.7655034529
 31
0.0
 40
0.9998215708
 41
2.7489566578
 42
3.5342286494
  0
ELLIPSE
  5
82C
100
AcDbEntity
  8
0
100
AcDbEllipse
 62
7
  6
CONTINUOUS
 10
-14.634923836
 20
-115.890642436
 30
0.0
 11
-0.4997620717
 21
162.4815824859
 31
0.0
 40
0.000109066
 41
6.365690172
 42
6.3764914216
  0
ELLIPSE
  5
82D
100
AcDbEntity
  8
0
100
AcDbEllipse
 62
7
  6
CONTINUOUS
 10
-14.634923836
 20
167.860642436
 30
0.0
 11
0.4997620717
 21
162.4815824859
 31
0.0
 40
0.000109066
 41
-3.234898768
 42
-3.2240975184
  0
ELLIPSE
  5
82E
100
AcDbEntity
  8
0
100
AcDbEllipse
 62
7
  6
CONTINUOUS
 10
-10.635076164
 20
-115.890642436
 30
0.0
 11
0.4997620717
 21
162.4815824859
 31
0.0
 40
0.000109066
 41
-0.0933061144
 42
-0.0825123551
  0
ELLIPSE
  5
82F
100
AcDbEntity
  8
0
100
AcDbEllipse
 62
7
  6
CONTINUOUS
 10
-10.635076164
 20
167.860642436
 30
0.0
 11
-0.4997620717
 21
162.4815824859
 31
0.0
 40
0.000109066
 41
3.2241050087
 42
3.234898768
  0
ELLIPSE
  5
830
100
AcDbEntity
  8
RACCORDO
100
AcDbEllipse
 62
7
  6
CONTINUOUS
 10
-3.6074901106
 20
43.6058358102
 30
0.0
 11
1.8480888181
 21
0.7655034529
 31
0.0
 40
0.9998215708
 41
-0.3926359958
 42
0.3926359958
  0
ELLIPSE
  5
831
100
AcDbEntity
  8
RACCORDO
100
AcDbEllipse
 62
7
  6
CONTINUOUS
 10
-3.6074901106
 20
8.3641641898
 30
0.0
 11
-1.8480888181
 21
0.7655034529
 31
0.0
 40
0.9998215708
 41
2.7489566578
 42
3.5342286494
  0
ELLIPSE
  5
832
100
AcDbEntity
  8
RACCORDO
100
AcDbEllipse
 62
7
  6
CONTINUOUS
 10
-21.6625098894
 20
8.3641641898
 30
0.0
 11
-1.8480888181
 21
-0.7655034529
 31
0.0
 40
0.9998215708
 41
-0.3926359958
 42
-0.278861721
  0
ELLIPSE
  5
833
100
AcDbEntity
  8
RACCORDO
100
AcDbEllipse
 62
7
  6
CONTINUOUS
 10
-21.6625098894
 20
8.3641641898
 30
0.0
 11
-1.8480888181
 21
-0.7655034529
 31
0.0
 40
0.9998215708
 41
6.4756880539
 42
6.675821303
  0
ELLIPSE
  5
834
100
AcDbEntity
  8
RACCORDO
100
AcDbEllipse
 62
7
  6
CONTINUOUS
 10
-21.6625098894
 20
43.6058358102
 30
0.0
 11
1.8480888181
 21
-0.7655034529
 31
0.0
 40
0.9998215708
 41
9.032141965
 42
9.2322752141
  0
ELLIPSE
  5
835
100
AcDbEntity
  8
RACCORDO
100
AcDbEllipse
 62
7
  6
CONTINUOUS
 10
-21.6625098894
 20
43.6058358102
 30
0.0
 11
1.8480888181
 21
-0.7655034529
 31
0.0
 40
0.9998215708
 41
3.4204543746
 42
3.5342286494
  0
ELLIPSE
  5
836
100
AcDbEntity
  8
DRAFT
100
AcDbEllipse
 62
7
  6
CONTINUOUS
 10
-15.135
 20
46.0295070257
 30
0.0
 11
1.0
 21
-0.0
 31
0.0
 40
0.0087268678
 41
1.5707963268
 42
3.1415926536
  0
ELLIPSE
  5
837
100
AcDbEntity
  8
DRAFT
100
AcDbEllipse
 62
7
  6
CONTINUOUS
 10
-15.135
 20
5.9404929743
 30
0.0
 11
1.0
 21
0.0
 31
0.0
 40
0.0087268678
 41
-3.1415926536
 42
-1.5707963268
  0
ELLIPSE
  5
838
100
AcDbEntity
  8
DRAFT
100
AcDbEllipse
 62
7
  6
CONTINUOUS
 10
-12.635
 20
46.1673915368
 30
0.0
 11
15.0
 21
-0.0
 31
0.0
 40
0.0087268678
 41
-1.7342776332
 42
-1.4073150204
  0
ELLIPSE
  5
839
100
AcDbEntity
  8
DRAFT
100
AcDbEllipse
 62
7
  6
CONTINUOUS
 10
-10.135
 20
46.0295070257
 30
0.0
 11
1.0
 21
-0.0
 31
0.0
 40
0.0087268678
 41
-0.0
 42
1.5707963268
  0
ELLIPSE
  5
83A
100
AcDbEntity
  8
DRAFT
100
AcDbEllipse
 62
7
  6
CONTINUOUS
 10
-12.635
 20
5.8026084632
 30
0.0
 11
15.0
 21
-0.0
 31
0.0
 40
0.0087268678
 41
1.4073150204
 42
1.7342776332
  0
ELLIPSE
  5
83B
100
AcDbEntity
  8
DRAFT
100
AcDbEllipse
 62
7
  6
CONTINUOUS
 10
-10.135
 20
5.9404929743
 30
0.0
 11
1.0
 21
0.0
 31
0.0
 40
0.0087268678
 41
-1.5707963268
 42
-0.0
  0
ELLIPSE
  5
83C
100
AcDbEntity
  8
RACCORDO
100
AcDbEllipse
 62
7
  6
CONTINUOUS
 10
-4.1349957691
 20
2.5736751346
 30
0.0
 11
-0.0029088041
 21
0.2886641433
 31
0.0
 40
0.8660144118
 41
-0.0087264124
 42
1.5591610446
  0
ELLIPSE
  5
83D
100
AcDbEntity
  8
RACCORDO
100
AcDbEllipse
 62
7
  6
CONTINUOUS
 10
-1.9450700709
 20
47.9162556162
 30
0.0
 11
0.4115211136
 21
-0.2057448864
 31
0.0
 40
0.9998096356
 41
6.7467263073
 42
8.3176749331
  0
ELLIPSE
  5
83E
100
AcDbEntity
  8
RACCORDO
100
AcDbEllipse
 62
7
  6
CONTINUOUS
 10
-23.3249299291
 20
4.0537443838
 30
0.0
 11
-0.4115211136
 21
0.2057448864
 31
0.0
 40
0.9998096356
 41
6.7467263073
 42
8.3176749331
  0
ELLIPSE
  5
83F
100
AcDbEntity
  8
RACCORDO
100
AcDbEllipse
 62
7
  6
CONTINUOUS
 10
-21.1350042309
 20
2.5736751346
 30
0.0
 11
0.0029088041
 21
0.2886641433
 31
0.0
 40
0.8660144118
 41
-1.5591610446
 42
0.0087264124
  0
ELLIPSE
  5
840
100
AcDbEntity
  8
RACCORDO
100
AcDbEllipse
 62
7
  6
CONTINUOUS
 10
-23.0349957691
 20
2.5736751346
 30
0.0
 11
-0.0029088041
 21
0.2886641433
 31
0.0
 40
0.8660144118
 41
-0.0087264124
 42
1.5591610446
  0
ELLIPSE
  5
841
100
AcDbEntity
  8
RACCORDO
100
AcDbEllipse
 62
7
  6
CONTINUOUS
 10
-23.3249299291
 20
47.9162556162
 30
0.0
 11
0.4115211136
 21
0.2057448864
 31
0.0
 40
0.9998096356
 41
1.1071030277
 42
2.6780516535
  0
ELLIPSE
  5
842
100
AcDbEntity
  8
RACCORDO
100
AcDbEllipse
 62
7
  6
CONTINUOUS
 10
-5.0508992808
 20
46.9766321118
 30
0.0
 11
0.5
 21
-0.0
 31
0.0
 40
0.0087268678
 41
0.0174532925
 42
1.5707963268
  0
ELLIPSE
  5
843
100
AcDbEntity
  8
RACCORDO
100
AcDbEllipse
 62
7
  6
CONTINUOUS
 10
-20.2191007192
 20
46.9766321118
 30
0.0
 11
0.5
 21
0.0
 31
0.0
 40
0.0087268678
 41
1.5707963268
 42
3.1241393611
  0
ELLIPSE
  5
844
100
AcDbEntity
  8
RACCORDO
100
AcDbEllipse
 62
7
  6
CONTINUOUS
 10
-5.0508992808
 20
4.9933678882
 30
0.0
 11
0.5
 21
-0.0
 31
0.0
 40
0.0087268678
 41
-1.5707963268
 42
-0.0174532925
  0
ELLIPSE
  5
845
100
AcDbEntity
  8
RACCORDO
100
AcDbEllipse
 62
7
  6
CONTINUOUS
 10
-20.2191007192
 20
4.9933678882
 30
0.0
 11
0.5
 21
0.0
 31
0.0
 40
0.0087268678
 41
-3.1241393611
 42
-1.5707963268
  0
ELLIPSE
  5
846
100
AcDbEntity
  8
RACCORDO
100
AcDbEllipse
 62
7
  6
CONTINUOUS
 10
-1.9450700709
 20
4.0537443838
 30
0.0
 11
-0.4115211136
 21
-0.2057448864
 31
0.0
 40
0.9998096356
 41
1.1071030277
 42
2.6780516535
  0
ELLIPSE
  5
847
100
AcDbEntity
  8
RACCORDO
100
AcDbEllipse
 62
7
  6
CONTINUOUS
 10
-18.9902693832
 20
46.5679242832
 30
0.0
 11
0.0
 21
0.5
 31
0.0
 40
0.0058178298
 41
-4.7123889804
 42
-3.1503192998
  0
ELLIPSE
  5
848
100
AcDbEntity
  8
RACCORDO
100
AcDbEllipse
 62
7
  6
CONTINUOUS
 10
-6.2797306168
 20
46.5679242832
 30
0.0
 11
0.0
 21
0.5
 31
0.0
 40
0.0058178298
 41
-3.1328660073
 42
-1.5707963268
  0
ELLIPSE
  5
849
100
AcDbEntity
  8
RACCORDO
100
AcDbEllipse
 62
7
  6
CONTINUOUS
 10
-6.2797306168
 20
5.4020757168
 30
0.0
 11
0.0
 21
0.5
 31
0.0
 40
0.0058178298
 41
-1.5707963268
 42
-0.0087266463
  0
ELLIPSE
  5
84A
100
AcDbEntity
  8
RACCORDO
100
AcDbEllipse
 62
7
  6
CONTINUOUS
 10
-18.9902693832
 20
5.4020757168
 30
0.0
 11
0.0
 21
0.5
 31
0.0
 40
0.0058178298
 41
0.0087266463
 42
1.5707963268
  0
ELLIPSE
  5
84B
100
AcDbEntity
  8
RACCORDO
100
AcDbEllipse
 62
7
  6
CONTINUOUS
 10
-6.2779852679
 20
45.9420181168
 30
0.0
 11
0.0
 21
0.2
 31
0.0
 40
0.0058178298
 41
-3.1357748894
 42
-1.5707963268
  0
ELLIPSE
  5
84C
100
AcDbEntity
  8
RACCORDO
100
AcDbEllipse
 62
7
  6
CONTINUOUS
 10
-5.3920147321
 20
45.9420181168
 30
0.0
 11
0.0
 21
0.2
 31
0.0
 40
0.0058178298
 41
-4.7123889804
 42
-3.1474104178
  0
ELLIPSE
  5
84D
100
AcDbEntity
  8
RACCORDO
100
AcDbEllipse
 62
7
  6
CONTINUOUS
 10
-19.8779852679
 20
45.9420181168
 30
0.0
 11
0.0
 21
0.2
 31
0.0
 40
0.0058178298
 41
-3.1357748894
 42
-1.5707963268
  0
ELLIPSE
  5
84E
100
AcDbEntity
  8
RACCORDO
100
AcDbEllipse
 62
7
  6
CONTINUOUS
 10
-18.9920147321
 20
45.9420181168
 30
0.0
 11
0.0
 21
0.2
 31
0.0
 40
0.0058178298
 41
-4.7123889804
 42
-3.1474104178
  0
ELLIPSE
  5
84F
100
AcDbEntity
  8
RACCORDO
100
AcDbEllipse
 62
7
  6
CONTINUOUS
 10
-18.9920147321
 20
6.0279818832
 30
0.0
 11
-0.0
 21
0.2
 31
0.0
 40
0.0058178298
 41
0.0058177642
 42
1.5707963268
  0
ELLIPSE
  5
850
100
AcDbEntity
  8
RACCORDO
100
AcDbEllipse
 62
7
  6
CONTINUOUS
 10
-19.8779852679
 20
6.0279818832
 30
0.0
 11
0.0
 21
0.2
 31
0.0
 40
0.0058178298
 41
-1.5707963268
 42
-0.0058177642
  0
ELLIPSE
  5
851
100
AcDbEntity
  8
RACCORDO
100
AcDbEllipse
 62
7
  6
CONTINUOUS
 10
-5.3920147321
 20
6.0279818832
 30
0.0
 11
0.0
 21
0.2
 31
0.0
 40
0.0058178298
 41
0.0058177642
 42
1.5707963268
  0
ELLIPSE
  5
852
100
AcDbEntity
  8
RACCORDO
100
AcDbEllipse
 62
7
  6
CONTINUOUS
 10
-6.2779852679
 20
6.0279818832
 30
0.0
 11
0.0
 21
0.2
 31
0.0
 40
0.0058178298
 41
-1.5707963268
 42
-0.0058177642
  0
ELLIPSE
  5
853
100
AcDbEntity
  8
RACCORDO
100
AcDbEllipse
 62
7
  6
CONTINUOUS
 10
-4.1349957691
 20
49.3963248654
 30
0.0
 11
0.0029088041
 21
0.2886641433
 31
0.0
 40
0.8660144118
 41
-4.7007536982
 42
-3.1328662412
  0
ELLIPSE
  5
854
100
AcDbEntity
  8
RACCORDO
100
AcDbEllipse
 62
7
  6
CONTINUOUS
 10
-2.2350042309
 20
49.3963248654
 30
0.0
 11
-0.0029088041
 21
0.2886641433
 31
0.0
 40
0.8660144118
 41
-3.150319066
 42
-1.582431609
  0
ELLIPSE
  5
855
100
AcDbEntity
  8
ASSI
100
AcDbEllipse
 62
7
  6
CONTINUOUS
 10
-8.2786337236
 20
49.2413578147
 30
0.0
 11
0.0
 21
0.5
 31
0.0
 40
0.0058178298
 41
0.0058177642
 42
0.149597008
  0
ELLIPSE
  5
856
100
AcDbEntity
  8
ASSI
100
AcDbEllipse
 62
7
  6
CONTINUOUS
 10
-16.9913662764
 20
49.2413578147
 30
0.0
 11
-0.0
 21
0.5
 31
0.0
 40
0.0058178298
 41
-0.149597008
 42
-0.0058177642
  0
ELLIPSE
  5
857
100
AcDbEntity
  8
ASSI
100
AcDbEllipse
 62
7
  6
CONTINUOUS
 10
-16.9913662764
 20
2.7286421853
 30
0.0
 11
-0.0
 21
0.5
 31
0.0
 40
0.0058178298
 41
-3.1357748894
 42
-2.9919956456
  0
ELLIPSE
  5
858
100
AcDbEntity
  8
ASSI
100
AcDbEllipse
 62
7
  6
CONTINUOUS
 10
-8.2786337236
 20
2.7286421853
 30
0.0
 11
0.0
 21
0.5
 31
0.0
 40
0.0058178298
 41
-3.2911896616
 42
-3.1474104178
  0
ELLIPSE
  5
859
100
AcDbEntity
  8
DRAFT
100
AcDbEllipse
 62
7
  6
CONTINUOUS
 10
-8.7070300123
 20
48.3189198952
 30
0.0
 11
0.4279699877
 21
0.0
 31
0.0
 40
0.0087268678
 41
3.1415926536
 42
6.277367543
  0
ELLIPSE
  5
85A
100
AcDbEntity
  8
RACCORDO
100
AcDbEllipse
 62
7
  6
CONTINUOUS
 10
-23.0349957691
 20
49.3963248654
 30
0.0
 11
0.0029088041
 21
0.2886641433
 31
0.0
 40
0.8660144118
 41
-4.7007536982
 42
-3.1328662412
  0
ELLIPSE
  5
85B
100
AcDbEntity
  8
DRAFT
100
AcDbEllipse
 62
7
  6
CONTINUOUS
 10
-16.5629699877
 20
48.3189198952
 30
0.0
 11
0.4279699877
 21
-0.0
 31
0.0
 40
0.0087268678
 41
-3.1357748894
 42
0.0
  0
ELLIPSE
  5
85C
100
AcDbEntity
  8
DRAFT
100
AcDbEllipse
 62
7
  6
CONTINUOUS
 10
-16.5629699877
 20
3.6510801048
 30
0.0
 11
0.4279699877
 21
-0.0
 31
0.0
 40
0.0087268678
 41
0.0
 42
3.1357748894
  0
ELLIPSE
  5
85D
100
AcDbEntity
  8
RACCORDO
100
AcDbEllipse
 62
7
  6
CONTINUOUS
 10
-21.1350042309
 20
49.3963248654
 30
0.0
 11
-0.0029088041
 21
0.2886641433
 31
0.0
 40
0.8660144118
 41
-3.150319066
 42
-1.582431609
  0
ELLIPSE
  5
85E
100
AcDbEntity
  8
DRAFT
100
AcDbEllipse
 62
7
  6
CONTINUOUS
 10
-8.7070300123
 20
3.6510801048
 30
0.0
 11
0.4279699877
 21
0.0
 31
0.0
 40
0.0087268678
 41
0.0058177642
 42
3.1415926536
  0
ELLIPSE
  5
85F
100
AcDbEntity
  8
RACCORDO
100
AcDbEllipse
 62
7
  6
CONTINUOUS
 10
-2.2350042309
 20
2.5736751346
 30
0.0
 11
0.0029088041
 21
0.2886641433
 31
0.0
 40
0.8660144118
 41
-1.5591610446
 42
0.0087264124
  0
ELLIPSE
  5
860
100
AcDbEntity
  8
RACCORDO
100
AcDbEllipse
 62
7
  6
CONTINUOUS
 10
-10.9524221128
 20
43.585
 30
0.0
 11
-0.3000114235
 21
0.0
 31
0.0
 40
0.9999619231
 41
1.5707963268
 42
2.80137059
  0
ELLIPSE
  5
861
100
AcDbEntity
  8
RACCORDO
100
AcDbEllipse
 62
7
  6
CONTINUOUS
 10
-1.9219211218
 20
29.435
 30
0.0
 11
-0.3000114235
 21
0.0
 31
0.0
 40
0.9999619231
 41
1.5707963268
 42
3.1415926536
  0
ELLIPSE
  5
862
100
AcDbEntity
  8
RACCORDO
100
AcDbEllipse
 62
7
  6
CONTINUOUS
 10
-1.9219211218
 20
24.435
 30
0.0
 11
-0.3000114235
 21
0.0
 31
0.0
 40
0.9999619231
 41
1.5707963268
 42
3.1415926536
  0
ELLIPSE
  5
863
100
AcDbEntity
  8
RACCORDO
100
AcDbEllipse
 62
7
  6
CONTINUOUS
 10
-1.9219211218
 20
19.435
 30
0.0
 11
-0.3000114235
 21
0.0
 31
0.0
 40
0.9999619231
 41
1.5707963268
 42
3.1415926536
  0
ELLIPSE
  5
864
100
AcDbEntity
  8
RACCORDO
100
AcDbEllipse
 62
7
  6
CONTINUOUS
 10
-1.9219211218
 20
14.435
 30
0.0
 11
-0.3000114235
 21
0.0
 31
0.0
 40
0.9999619231
 41
1.5707963268
 42
3.1415926536
  0
ELLIPSE
  5
865
100
AcDbEntity
  8
DRAFT
100
AcDbEllipse
 62
7
  6
CONTINUOUS
 10
-2.793547378
 20
26.985
 30
0.0
 11
0.0
 21
2.15
 31
0.0
 40
0.0087268678
 41
3.1415926536
 42
6.2831853072
  0
ELLIPSE
  5
866
100
AcDbEntity
  8
DRAFT
100
AcDbEllipse
 62
7
  6
CONTINUOUS
 10
-2.793547378
 20
11.985
 30
0.0
 11
0.0
 21
2.15
 31
0.0
 40
0.0087268678
 41
3.1415926536
 42
6.2831853072
  0
ELLIPSE
  5
867
100
AcDbEntity
  8
RACCORDO
100
AcDbEllipse
 62
7
  6
CONTINUOUS
 10
-8.9219211218
 20
6.6719211218
 30
0.0
 11
-0.2121481893
 21
0.2121481893
 31
0.0
 40
0.9999238505
 41
2.3562325664
 42
3.9269527408
  0
ELLIPSE
  5
868
100
AcDbEntity
  8
RACCORDO
100
AcDbEllipse
 62
7
  6
CONTINUOUS
 10
-22.0261928455
 20
7.3719477767
 30
0.0
 11
-0.3827005044
 21
-0.9239207481
 31
0.0
 40
0.9999553905
 41
-0.3926833098
 42
0.3926833098
  0
ELLIPSE
  5
869
100
AcDbEntity
  8
RACCORDO
100
AcDbEllipse
 62
7
  6
CONTINUOUS
 10
-22.6480522233
 20
7.9938071545
 30
0.0
 11
-0.9239207481
 21
-0.3827005044
 31
0.0
 40
0.9999553905
 41
-0.3926833098
 42
0.3926833098
  0
ELLIPSE
  5
86A
100
AcDbEntity
  8
RACCORDO
100
AcDbEllipse
 62
7
  6
CONTINUOUS
 10
-22.6480522233
 20
43.9761928455
 30
0.0
 11
-0.9239207481
 21
0.3827005044
 31
0.0
 40
0.9999553905
 41
-0.3926833098
 42
0.3926833098
  0
ELLIPSE
  5
86B
100
AcDbEntity
  8
RACCORDO
100
AcDbEllipse
 62
7
  6
CONTINUOUS
 10
-22.0261928455
 20
44.5980522233
 30
0.0
 11
0.3827005044
 21
-0.9239207481
 31
0.0
 40
0.9999553905
 41
2.7489093438
 42
3.5342759634
  0
ELLIPSE
  5
86C
100
AcDbEntity
  8
RACCORDO
100
AcDbEllipse
 62
7
  6
CONTINUOUS
 10
-8.9219211218
 20
45.2980788782
 30
0.0
 11
0.2121481893
 21
0.2121481893
 31
0.0
 40
0.9999238505
 41
-0.7853600872
 42
0.7853600872
  0
ELLIPSE
  5
86D
100
AcDbEntity
  8
RACCORDO
100
AcDbEllipse
 62
7
  6
CONTINUOUS
 10
-3.2438071545
 20
43.1980522233
 30
0.0
 11
0.3827005044
 21
0.9239207481
 31
0.0
 40
0.9999553905
 41
-0.3926833098
 42
0.3926833098
  0
ELLIPSE
  5
86E
100
AcDbEntity
  8
RACCORDO
100
AcDbEllipse
 62
7
  6
CONTINUOUS
 10
-2.6219477767
 20
42.5761928455
 30
0.0
 11
-0.9239207481
 21
-0.3827005044
 31
0.0
 40
0.9999553905
 41
2.7489093438
 42
3.5342759634
  0
ELLIPSE
  5
86F
100
AcDbEntity
  8
DRAFT
100
AcDbEllipse
 62
7
  6
CONTINUOUS
 10
-2.793547378
 20
16.985
 30
0.0
 11
0.0
 21
2.15
 31
0.0
 40
0.0087268678
 41
3.1415926536
 42
6.2831853072
  0
ELLIPSE
  5
870
100
AcDbEntity
  8
RACCORDO
100
AcDbEllipse
 62
7
  6
CONTINUOUS
 10
-1.9219211218
 20
24.535
 30
0.0
 11
0.3000114235
 21
-0.0
 31
0.0
 40
0.9999619231
 41
0.0
 42
1.5707963268
  0
ELLIPSE
  5
871
100
AcDbEntity
  8
DRAFT
100
AcDbEllipse
 62
7
  6
CONTINUOUS
 10
-2.793547378
 20
21.985
 30
0.0
 11
0.0
 21
2.15
 31
0.0
 40
0.0087268678
 41
3.1415926536
 42
6.2831853072
  0
ELLIPSE
  5
872
100
AcDbEntity
  8
RACCORDO
100
AcDbEllipse
 62
7
  6
CONTINUOUS
 10
-1.9219211218
 20
19.535
 30
0.0
 11
0.3000114235
 21
-0.0
 31
0.0
 40
0.9999619231
 41
0.0
 42
1.5707963268
  0
ELLIPSE
  5
873
100
AcDbEntity
  8
RACCORDO
100
AcDbEllipse
 62
7
  6
CONTINUOUS
 10
-1.9219211218
 20
14.535
 30
0.0
 11
0.3000114235
 21
-0.0
 31
0.0
 40
0.9999619231
 41
0.0
 42
1.5707963268
  0
ELLIPSE
  5
874
100
AcDbEntity
  8
RACCORDO
100
AcDbEllipse
 62
7
  6
CONTINUOUS
 10
-1.9219211218
 20
9.535
 30
0.0
 11
0.3000114235
 21
-0.0
 31
0.0
 40
0.9999619231
 41
0.0
 42
1.5707963268
  0
ELLIPSE
  5
875
100
AcDbEntity
  8
RACCORDO
100
AcDbEllipse
 62
7
  6
CONTINUOUS
 10
-2.6219477767
 20
9.3938071545
 30
0.0
 11
0.9239207481
 21
-0.3827005044
 31
0.0
 40
0.9999553905
 41
-0.3926833098
 42
0.3926833098
  0
ELLIPSE
  5
876
100
AcDbEntity
  8
RACCORDO
100
AcDbEllipse
 62
7
  6
CONTINUOUS
 10
-3.2438071545
 20
8.7719477767
 30
0.0
 11
0.3827005044
 21
-0.9239207481
 31
0.0
 40
0.9999553905
 41
-0.3926833098
 42
0.3926833098
  0
ELLIPSE
  5
877
100
AcDbEntity
  8
RACCORDO
100
AcDbEllipse
 62
7
  6
CONTINUOUS
 10
-8.3218982748
 20
7.4718982748
 30
0.0
 11
0.2121481893
 21
-0.2121481893
 31
0.0
 40
0.9999238505
 41
2.3562325664
 42
3.9269527408
  0
ELLIPSE
  5
878
100
AcDbEntity
  8
RACCORDO
100
AcDbEllipse
 62
7
  6
CONTINUOUS
 10
-14.3175778872
 20
43.585
 30
0.0
 11
-0.3000114235
 21
0.0
 31
0.0
 40
0.9999619231
 41
0.3402220636
 42
1.5707963268
  0
ELLIPSE
  5
879
100
AcDbEntity
  8
RACCORDO
100
AcDbEllipse
 62
7
  6
CONTINUOUS
 10
-14.2389930308
 20
8.385
 30
0.0
 11
0.3000114235
 21
-0.0
 31
0.0
 40
0.9999619231
 41
1.5707963268
 42
2.80137059
  0
ELLIPSE
  5
87A
100
AcDbEntity
  8
RACCORDO
100
AcDbEllipse
 62
7
  6
CONTINUOUS
 10
-11.0310069692
 20
8.385
 30
0.0
 11
0.3000114235
 21
-0.0
 31
0.0
 40
0.9999619231
 41
0.3402220636
 42
1.5707963268
  0
ELLIPSE
  5
87B
100
AcDbEntity
  8
ASSI
100
AcDbEllipse
 62
7
  6
CONTINUOUS
 10
-8.9219211218
 20
6.6719211218
 30
0.0
 11
-0.2121481893
 21
0.2121481893
 31
0.0
 40
0.9999238505
 41
2.3562325664
 42
3.9269527408
  0
ELLIPSE
  5
87C
100
AcDbEntity
  8
ASSI
100
AcDbEllipse
 62
7
  6
CONTINUOUS
 10
-22.0261928455
 20
7.3719477767
 30
0.0
 11
-0.3827005044
 21
-0.9239207481
 31
0.0
 40
0.9999553905
 41
-0.3926833098
 42
0.3926833098
  0
ELLIPSE
  5
87D
100
AcDbEntity
  8
ASSI
100
AcDbEllipse
 62
7
  6
CONTINUOUS
 10
-22.6480522233
 20
7.9938071545
 30
0.0
 11
-0.9239207481
 21
-0.3827005044
 31
0.0
 40
0.9999553905
 41
-0.3926833098
 42
0.3926833098
  0
ELLIPSE
  5
87E
100
AcDbEntity
  8
ASSI
100
AcDbEllipse
 62
7
  6
CONTINUOUS
 10
-22.6480522233
 20
43.9761928455
 30
0.0
 11
-0.9239207481
 21
0.3827005044
 31
0.0
 40
0.9999553905
 41
-0.3926833098
 42
0.3926833098
  0
ELLIPSE
  5
87F
100
AcDbEntity
  8
ASSI
100
AcDbEllipse
 62
7
  6
CONTINUOUS
 10
-22.0261928455
 20
44.5980522233
 30
0.0
 11
0.3827005044
 21
-0.9239207481
 31
0.0
 40
0.9999553905
 41
2.7489093438
 42
3.5342759634
  0
ELLIPSE
  5
880
100
AcDbEntity
  8
ASSI
100
AcDbEllipse
 62
7
  6
CONTINUOUS
 10
-8.9219211218
 20
45.2980788782
 30
0.0
 11
0.2121481893
 21
0.2121481893
 31
0.0
 40
0.9999238505
 41
-0.7853600872
 42
0.7853600872
  0
ELLIPSE
  5
881
100
AcDbEntity
  8
ASSI
100
AcDbEllipse
 62
7
  6
CONTINUOUS
 10
-3.2438071545
 20
43.1980522233
 30
0.0
 11
0.3827005044
 21
0.9239207481
 31
0.0
 40
0.9999553905
 41
-0.3926833098
 42
0.3926833098
  0
ELLIPSE
  5
882
100
AcDbEntity
  8
ASSI
100
AcDbEllipse
 62
7
  6
CONTINUOUS
 10
-2.6219477767
 20
42.5761928455
 30
0.0
 11
-0.9239207481
 21
-0.3827005044
 31
0.0
 40
0.9999553905
 41
2.7489093438
 42
3.5342759634
  0
ELLIPSE
  5
883
100
AcDbEntity
  8
ASSI
100
AcDbEllipse
 62
7
  6
CONTINUOUS
 10
-1.9219211218
 20
24.535
 30
0.0
 11
0.3000114235
 21
-0.0
 31
0.0
 40
0.9999619231
 41
0.0
 42
1.5707963268
  0
ELLIPSE
  5
884
100
AcDbEntity
  8
ASSI
100
AcDbEllipse
 62
7
  6
CONTINUOUS
 10
-1.9219211218
 20
19.535
 30
0.0
 11
0.3000114235
 21
-0.0
 31
0.0
 40
0.9999619231
 41
0.0
 42
1.5707963268
  0
ELLIPSE
  5
885
100
AcDbEntity
  8
ASSI
100
AcDbEllipse
 62
7
  6
CONTINUOUS
 10
-1.9219211218
 20
14.535
 30
0.0
 11
0.3000114235
 21
-0.0
 31
0.0
 40
0.9999619231
 41
0.0
 42
1.5707963268
  0
ELLIPSE
  5
886
100
AcDbEntity
  8
ASSI
100
AcDbEllipse
 62
7
  6
CONTINUOUS
 10
-1.9219211218
 20
9.535
 30
0.0
 11
0.3000114235
 21
-0.0
 31
0.0
 40
0.9999619231
 41
0.0
 42
1.5707963268
  0
ELLIPSE
  5
887
100
AcDbEntity
  8
ASSI
100
AcDbEllipse
 62
7
  6
CONTINUOUS
 10
-2.6219477767
 20
9.3938071545
 30
0.0
 11
0.9239207481
 21
-0.3827005044
 31
0.0
 40
0.9999553905
 41
-0.3926833098
 42
0.3926833098
  0
ELLIPSE
  5
888
100
AcDbEntity
  8
ASSI
100
AcDbEllipse
 62
7
  6
CONTINUOUS
 10
-3.2438071545
 20
8.7719477767
 30
0.0
 11
0.3827005044
 21
-0.9239207481
 31
0.0
 40
0.9999553905
 41
-0.3926833098
 42
0.3926833098
  0
ELLIPSE
  5
889
100
AcDbEntity
  8
ASSI
100
AcDbEllipse
 62
7
  6
CONTINUOUS
 10
-14.3175778872
 20
43.585
 30
0.0
 11
-0.3000114235
 21
0.0
 31
0.0
 40
0.9999619231
 41
0.3402220636
 42
1.5707963268
  0
ELLIPSE
  5
88A
100
AcDbEntity
  8
ASSI
100
AcDbEllipse
 62
7
  6
CONTINUOUS
 10
-14.2389930308
 20
8.385
 30
0.0
 11
0.3000114235
 21
-0.0
 31
0.0
 40
0.9999619231
 41
1.5707963268
 42
2.80137059
  0
ELLIPSE
  5
88B
100
AcDbEntity
  8
ASSI
100
AcDbEllipse
 62
7
  6
CONTINUOUS
 10
-11.0310069692
 20
8.385
 30
0.0
 11
0.3000114235
 21
-0.0
 31
0.0
 40
0.9999619231
 41
0.3402220636
 42
1.5707963268
  0
ELLIPSE
  5
88C
100
AcDbEntity
  8
ASSI
100
AcDbEllipse
 62
7
  6
CONTINUOUS
 10
-10.9524221128
 20
43.585
 30
0.0
 11
-0.3000114235
 21
0.0
 31
0.0
 40
0.9999619231
 41
1.5707963268
 42
2.80137059
  0
ELLIPSE
  5
88D
100
AcDbEntity
  8
ASSI
100
AcDbEllipse
 62
7
  6
CONTINUOUS
 10
-1.9219211218
 20
29.435
 30
0.0
 11
-0.3000114235
 21
0.0
 31
0.0
 40
0.9999619231
 41
1.5707963268
 42
3.1415926536
  0
ELLIPSE
  5
88E
100
AcDbEntity
  8
ASSI
100
AcDbEllipse
 62
7
  6
CONTINUOUS
 10
-1.9219211218
 20
24.435
 30
0.0
 11
-0.3000114235
 21
0.0
 31
0.0
 40
0.9999619231
 41
1.5707963268
 42
3.1415926536
  0
ELLIPSE
  5
88F
100
AcDbEntity
  8
ASSI
100
AcDbEllipse
 62
7
  6
CONTINUOUS
 10
-1.9219211218
 20
19.435
 30
0.0
 11
-0.3000114235
 21
0.0
 31
0.0
 40
0.9999619231
 41
1.5707963268
 42
3.1415926536
  0
ELLIPSE
  5
890
100
AcDbEntity
  8
ASSI
100
AcDbEllipse
 62
7
  6
CONTINUOUS
 10
-1.9219211218
 20
14.435
 30
0.0
 11
-0.3000114235
 21
0.0
 31
0.0
 40
0.9999619231
 41
1.5707963268
 42
3.1415926536
  0
ELLIPSE
  5
891
100
AcDbEntity
  8
ASSI
100
AcDbEllipse
 62
7
  6
CONTINUOUS
 10
-2.793547378
 20
26.985
 30
0.0
 11
0.0
 21
2.15
 31
0.0
 40
0.0087268678
 41
3.1415926536
 42
6.2831853072
  0
ELLIPSE
  5
892
100
AcDbEntity
  8
ASSI
100
AcDbEllipse
 62
7
  6
CONTINUOUS
 10
-2.793547378
 20
11.985
 30
0.0
 11
0.0
 21
2.15
 31
0.0
 40
0.0087268678
 41
3.1415926536
 42
6.2831853072
  0
ELLIPSE
  5
893
100
AcDbEntity
  8
ASSI
100
AcDbEllipse
 62
7
  6
CONTINUOUS
 10
-2.793547378
 20
16.985
 30
0.0
 11
0.0
 21
2.15
 31
0.0
 40
0.0087268678
 41
3.1415926536
 42
6.2831853072
  0
ELLIPSE
  5
894
100
AcDbEntity
  8
ASSI
100
AcDbEllipse
 62
7
  6
CONTINUOUS
 10
-2.793547378
 20
21.985
 30
0.0
 11
0.0
 21
2.15
 31
0.0
 40
0.0087268678
 41
3.1415926536
 42
6.2831853072
  0
ELLIPSE
  5
895
100
AcDbEntity
  8
ASSI
100
AcDbEllipse
 62
7
  6
CONTINUOUS
 10
-8.3218982748
 20
7.4718982748
 30
0.0
 11
0.2121481893
 21
-0.2121481893
 31
0.0
 40
0.9999238505
 41
2.3562325664
 42
3.9269527408
  0
ENDSEC
  0
SECTION
  2
OBJECTS
  0
DICTIONARY
  5
C
100
AcDbDictionary
280
0
281
1
  3
ACAD_GROUP
350
D
  3
ACAD_MLINESTYLE
350
17
  3
ACAD_LAYOUT
350
1A
  3
ACAD_PLOTSETTINGS
350
19
  3
ACAD_PLOTSTYLENAME
350
E
  0
DICTIONARY
  5
D
102
{ACAD_REACTORS
330
C
102
}
100
AcDbDictionary
280
0
281
1
  0
ACDBDICTIONARYWDFLT
  5
E
102
{ACAD_REACTORS
330
C
102
}
100
AcDbDictionary
281
1
  3
Normal
350
F
100
AcDbDictionaryWithDefault
340
F
  0
DICTIONARY
  5
17
102
{ACAD_REACTORS
330
C
102
}
100
AcDbDictionary
280
0
281
1
  3
Standard
350
18
  0
DICTIONARY
  5
19
102
{ACAD_REACTORS
330
C
102
}
100
AcDbDictionary
281
1
  0
DICTIONARY
  5
1A
102
{ACAD_REACTORS
330
C
102
}
100
AcDbDictionary
281
1
  3
Model
350
896
  3
Layout1
350
897
  0
ACDBPLACEHOLDER
  5
F
102
{ACAD_REACTORS
330
E
102
}
  0
MLINESTYLE
  5
18
102
{ACAD_REACTORS
330
17
102
}
100
AcDbMlineStyle
  2
STANDARD
 70
0
  3

 62
256
 51
90.0
 52
90.0
 71
2
 49
0.5
 62
256
  6
BYLAYER
 49
-0.5
 62
256
  6
BYLAYER
  0
LAYOUT
  5
896
102
{ACAD_REACTORS
330
1A
102
}
100
AcDbPlotSettings
  1

  2
none_device
  4
ISO_A4_(297.00_x_210.00_MM)
  6

 40
0.0
 41
0.0
 42
0.0
 43
0.0
 44
297.0
 45
210.0
 46
0.0
 47
0.0
 48
0.0
 49
0.0
140
0.0
141
0.0
142
1.0
143
1.0
 70
1024
 72
1
 73
0
 74
0
  7

 75
0
147
1.0
148
0.0
149
0.0
100
AcDbLayout
  1
Model
 70
0
 71
0
 10
0.0
 20
0.0
 11
297.0
 21
210.0
 12
0.0
 22
0.0
 32
0.0
 14
0.0
 24
0.0
 34
0.0
 15
0.0
 25
0.0
 35
0.0
146
0.0
 13
0.0
 23
0.0
 33
0.0
 16
1.0
 26
0.0
 36
0.0
 17
0.0
 27
1.0
 37
0.0
 76
0
330
21F
345
0
346
0
  0
LAYOUT
  5
897
102
{ACAD_REACTORS
330
1A
102
}
100
AcDbPlotSettings
  1

  2
none_device
  4
ISO_A4_(297.00_x_210.00_MM)
  6

 40
0.0
 41
0.0
 42
0.0
 43
0.0
 44
297.0
 45
210.0
 46
0.0
 47
0.0
 48
0.0
 49
0.0
140
0.0
141
0.0
142
1.0
143
1.0
 70
0
 72
1
 73
0
 74
0
  7

 75
0
147
1.0
148
0.0
149
0.0
100
AcDbLayout
  1
Layout1
 70
0
 71
1
 10
0.0
 20
0.0
 11
297.0
 21
210.0
 12
0.0
 22
0.0
 32
0.0
 14
0.0
 24
0.0
 34
0.0
 15
0.0
 25
0.0
 35
0.0
146
0.0
 13
0.0
 23
0.0
 33
0.0
 16
1.0
 26
0.0
 36
0.0
 17
0.0
 27
1.0
 37
0.0
 76
0
330
220
345
0
346
0
  0
ENDSEC
  0
EOF
