  0
SECTION
  2
HEADER
  9
$ACADVER
  1
AC1024
  9
$DWGCODEPAGE
  3
ANSI_1252
  9
$EXTMAX
 10
210.0
 20
297.0
 30
0.0
  9
$EXTMIN
 10
0.0
 20
0.0
 30
0.0
  9
$LIMMIN
 10
0.0
 20
0.0
  9
$LIMMAX
 10
210.0
 20
297.0
  9
$VIEWCTR
 10
105.0
 20
148.5
  9
$VIEWSIZE
 40
297.0
  9
$CLAYER
  8
0
  9
$LTSCALE
 40
19.36
  9
$CELTYPE
  6
BYLAYER
  9
$DIMSCALE
 40
1.0
  9
$DIMASZ
 40
3.0
  9
$DIMEXO
 40
0.5
  9
$DIMDLI
 40
13.376
  9
$DIMEXE
 40
1.5
  9
$DIMCEN
 40
3.168
  9
$DIMLFAC
 40
1.0
  9
$DIMBLK
  1
_FILLED
  9
$DIMALT
 70
0
  9
$DIMALTF
 40
0.0393700787
  9
$DIMTXT
 40
3.0
  9
$DIMTOL
 70
1
  9
$DIMLIM
 70
0
  9
$DIMTFAC
 40
1.0
  9
$DIMTP
 40
0.01
  9
$DIMTM
 40
0.01
  9
$DIMGAP
 40
0.625
  9
$DIMDSEP
 70
44
  9
$AUNITS
 70
0
  9
$PDMODE
 70
3
  9
$PDSIZE
 40
3.0
  9
$HANDSEED
  5
91A
  9
$TILEMODE
 70
1
  9
$MEASUREMENT
 70
1
  9
$INSUNITS
 70
4
  0
ENDSEC
  0
SECTION
  2
CLASSES
  0
CLASS
  1
ACDBDICTIONARYWDFLT
  2
AcDbDictionaryWithDefault
  3
AutoCAD 2000
 90
0
 91
1
280
0
281
0
  0
CLASS
  1
ACDBPLACEHOLDER
  2
AcDbPlaceHolder
  3
AutoCAD 2000
 90
0
 91
1
280
0
281
0
  0
CLASS
  1
LAYOUT
  2
AcDbLayout
  3
AutoCAD 2000
 90
0
 91
0
280
0
281
0
  0
ENDSEC
  0
SECTION
  2
TABLES
  0
TABLE
  2
VPORT
  5
8
100
AcDbSymbolTable
 70
2
  0
VPORT
  5
1F4
100
AcDbSymbolTableRecord
100
AcDbViewportTableRecord
  2
*ACTIVE
 70
0
 10
0.0
 20
0.0
 11
1.0
 21
1.0
 12
105.0
 22
148.5
 13
0.0
 23
0.0
 14
1.0
 24
1.0
 15
0.0
 25
0.0
 16
0.0
 26
0.0
 36
1.0
 17
0.0
 27
0.0
 37
0.0
 40
297.0
 41
0.7070707071
 42
50.0
 43
0.0
 44
0.0
 50
0.0
 51
0.0
 71
0
 72
100
 73
1
 74
1
 75
0
 76
0
 77
0
 78
0
  0
ENDTAB
  0
TABLE
  2
LTYPE
  5
5
100
AcDbSymbolTable
 70
6
  0
LTYPE
  5
14
100
AcDbSymbolTableRecord
100
AcDbLinetypeTableRecord
  2
BYBLOCK
 70
0
  3

 72
65
 73
0
 40
0.0
  0
LTYPE
  5
15
100
AcDbSymbolTableRecord
100
AcDbLinetypeTableRecord
  2
BYLAYER
 70
0
  3

 72
65
 73
0
 40
0.0
  0
LTYPE
  5
16
100
AcDbSymbolTableRecord
100
AcDbLinetypeTableRecord
  2
CONTINUOUS
 70
64
  3
Solid line
 72
65
 73
0
 40
0.0
  0
LTYPE
  5
1F5
100
AcDbSymbolTableRecord
100
AcDbLinetypeTableRecord
  2
CENTER
 70
64
  3
____ _ ____ _ ____ _ ____ _ ____ _ ____ _ ____
 72
65
 73
4
 40
0.6
 49
0.375
 74
0
 49
-0.075
 74
0
 49
0.075
 74
0
 49
-0.075
 74
0
  0
LTYPE
  5
1F6
100
AcDbSymbolTableRecord
100
AcDbLinetypeTableRecord
  2
HIDDEN
 70
64
  3
- - - - - - - - - - - - - - - - - - - -
 72
65
 73
2
 40
0.2
 49
0.1
 74
0
 49
-0.1
 74
0
  0
LTYPE
  5
1F7
100
AcDbSymbolTableRecord
100
AcDbLinetypeTableRecord
  2
PHANTOM
 70
64
  3
_____ _ _ _____ _ _ _____ _ _ _____
 72
65
 73
6
 40
0.8
 49
0.45
 74
0
 49
-0.05
 74
0
 49
0.1
 74
0
 49
-0.05
 74
0
 49
0.1
 74
0
 49
-0.05
 74
0
  0
LTYPE
  5
1F8
100
AcDbSymbolTableRecord
100
AcDbLinetypeTableRecord
  2
DOT
 70
64
  3
. . . . . . . . . . . . . . . . . . . .
 72
65
 73
2
 40
0.2
 49
0.1
 74
0
 49
-0.1
 74
0
  0
LTYPE
  5
1F9
100
AcDbSymbolTableRecord
100
AcDbLinetypeTableRecord
  2
DASHED
 70
64
  3
- - - - - - - - - - - - - - - - - - - -
 72
65
 73
2
 40
0.2
 49
0.1
 74
0
 49
-0.1
 74
0
  0
ENDTAB
  0
TABLE
  2
LAYER
  5
2
100
AcDbSymbolTable
 70
36
  0
LAYER
  5
10
100
AcDbSymbolTableRecord
100
AcDbLayerTableRecord
  2
0
 70
0
 62
7
  6
CONTINUOUS
370
-3
390
F
  0
LAYER
  5
1FA
100
AcDbSymbolTableRecord
100
AcDbLayerTableRecord
  2
DEFAULT_1
 70
0
 62
7
  6
CENTER
370
-3
390
F
  0
LAYER
  5
1FB
100
AcDbSymbolTableRecord
100
AcDbLayerTableRecord
  2
DEFAULT_2
 70
0
 62
7
  6
HIDDEN
370
-3
390
F
  0
LAYER
  5
1FC
100
AcDbSymbolTableRecord
100
AcDbLayerTableRecord
  2
DEFAULT_3
 70
0
 62
7
  6
PHANTOM
370
-3
390
F
  0
LAYER
  5
1FD
100
AcDbSymbolTableRecord
100
AcDbLayerTableRecord
  2
0402_C_REF_70000
 70
0
 62
7
  6
CONTINUOUS
370
-3
390
F
  0
LAYER
  5
1FE
100
AcDbSymbolTableRecord
100
AcDbLayerTableRecord
  2
0402_C_REF_70000_1
 70
0
 62
7
  6
CONTINUOUS
370
-3
390
F
  0
LAYER
  5
1FF
100
AcDbSymbolTableRecord
100
AcDbLayerTableRecord
  2
0402_C_REF_70000_10
 70
0
 62
7
  6
CONTINUOUS
370
-3
390
F
  0
LAYER
  5
200
100
AcDbSymbolTableRecord
100
AcDbLayerTableRecord
  2
0402_C_REF_70000_11
 70
0
 62
7
  6
CONTINUOUS
370
-3
390
F
  0
LAYER
  5
201
100
AcDbSymbolTableRecord
100
AcDbLayerTableRecord
  2
0402_C_REF_70000_12
 70
0
 62
7
  6
CONTINUOUS
370
-3
390
F
  0
LAYER
  5
202
100
AcDbSymbolTableRecord
100
AcDbLayerTableRecord
  2
0402_C_REF_70000_13
 70
0
 62
7
  6
CONTINUOUS
370
-3
390
F
  0
LAYER
  5
203
100
AcDbSymbolTableRecord
100
AcDbLayerTableRecord
  2
0402_C_REF_70000_14
 70
0
 62
7
  6
CONTINUOUS
370
-3
390
F
  0
LAYER
  5
204
100
AcDbSymbolTableRecord
100
AcDbLayerTableRecord
  2
0402_C_REF_70000_15
 70
0
 62
7
  6
CONTINUOUS
370
-3
390
F
  0
LAYER
  5
205
100
AcDbSymbolTableRecord
100
AcDbLayerTableRecord
  2
0402_C_REF_70000_16
 70
0
 62
7
  6
CONTINUOUS
370
-3
390
F
  0
LAYER
  5
206
100
AcDbSymbolTableRecord
100
AcDbLayerTableRecord
  2
0402_C_REF_70000_17
 70
0
 62
7
  6
CONTINUOUS
370
-3
390
F
  0
LAYER
  5
207
100
AcDbSymbolTableRecord
100
AcDbLayerTableRecord
  2
0402_C_REF_70000_18
 70
0
 62
7
  6
CONTINUOUS
370
-3
390
F
  0
LAYER
  5
208
100
AcDbSymbolTableRecord
100
AcDbLayerTableRecord
  2
0402_C_REF_70000_19
 70
0
 62
7
  6
CONTINUOUS
370
-3
390
F
  0
LAYER
  5
209
100
AcDbSymbolTableRecord
100
AcDbLayerTableRecord
  2
0402_C_REF_70000_2
 70
0
 62
7
  6
CONTINUOUS
370
-3
390
F
  0
LAYER
  5
20A
100
AcDbSymbolTableRecord
100
AcDbLayerTableRecord
  2
0402_C_REF_70000_20
 70
0
 62
7
  6
CONTINUOUS
370
-3
390
F
  0
LAYER
  5
20B
100
AcDbSymbolTableRecord
100
AcDbLayerTableRecord
  2
0402_C_REF_70000_21
 70
0
 62
7
  6
CONTINUOUS
370
-3
390
F
  0
LAYER
  5
20C
100
AcDbSymbolTableRecord
100
AcDbLayerTableRecord
  2
0402_C_REF_70000_22
 70
0
 62
7
  6
CONTINUOUS
370
-3
390
F
  0
LAYER
  5
20D
100
AcDbSymbolTableRecord
100
AcDbLayerTableRecord
  2
0402_C_REF_70000_23
 70
0
 62
7
  6
CONTINUOUS
370
-3
390
F
  0
LAYER
  5
20E
100
AcDbSymbolTableRecord
100
AcDbLayerTableRecord
  2
0402_C_REF_70000_24
 70
0
 62
7
  6
CONTINUOUS
370
-3
390
F
  0
LAYER
  5
20F
100
AcDbSymbolTableRecord
100
AcDbLayerTableRecord
  2
0402_C_REF_70000_25
 70
0
 62
7
  6
CONTINUOUS
370
-3
390
F
  0
LAYER
  5
210
100
AcDbSymbolTableRecord
100
AcDbLayerTableRecord
  2
0402_C_REF_70000_26
 70
0
 62
7
  6
CONTINUOUS
370
-3
390
F
  0
LAYER
  5
211
100
AcDbSymbolTableRecord
100
AcDbLayerTableRecord
  2
0402_C_REF_70000_27
 70
0
 62
7
  6
CONTINUOUS
370
-3
390
F
  0
LAYER
  5
212
100
AcDbSymbolTableRecord
100
AcDbLayerTableRecord
  2
0402_C_REF_70000_28
 70
0
 62
7
  6
CONTINUOUS
370
-3
390
F
  0
LAYER
  5
213
100
AcDbSymbolTableRecord
100
AcDbLayerTableRecord
  2
0402_C_REF_70000_29
 70
0
 62
7
  6
CONTINUOUS
370
-3
390
F
  0
LAYER
  5
214
100
AcDbSymbolTableRecord
100
AcDbLayerTableRecord
  2
0402_C_REF_70000_3
 70
0
 62
7
  6
CONTINUOUS
370
-3
390
F
  0
LAYER
  5
215
100
AcDbSymbolTableRecord
100
AcDbLayerTableRecord
  2
0402_C_REF_70000_30
 70
0
 62
7
  6
CONTINUOUS
370
-3
390
F
  0
LAYER
  5
216
100
AcDbSymbolTableRecord
100
AcDbLayerTableRecord
  2
0402_C_REF_70000_31
 70
0
 62
7
  6
CONTINUOUS
370
-3
390
F
  0
LAYER
  5
217
100
AcDbSymbolTableRecord
100
AcDbLayerTableRecord
  2
0402_C_REF_70000_32
 70
0
 62
7
  6
CONTINUOUS
370
-3
390
F
  0
LAYER
  5
218
100
AcDbSymbolTableRecord
100
AcDbLayerTableRecord
  2
0402_C_REF_70000_33
 70
0
 62
7
  6
CONTINUOUS
370
-3
390
F
  0
LAYER
  5
219
100
AcDbSymbolTableRecord
100
AcDbLayerTableRecord
  2
0402_C_REF_70000_34
 70
0
 62
7
  6
CONTINUOUS
370
-3
390
F
  0
LAYER
  5
21A
100
AcDbSymbolTableRecord
100
AcDbLayerTableRecord
  2
0402_C_REF_70000_35
 70
0
 62
7
  6
CONTINUOUS
370
-3
390
F
  0
LAYER
  5
21B
100
AcDbSymbolTableRecord
100
AcDbLayerTableRecord
  2
0402_C_REF_70000_36
 70
0
 62
7
  6
CONTINUOUS
370
-3
390
F
  0
LAYER
  5
21C
100
AcDbSymbolTableRecord
100
AcDbLayerTableRecord
  2
0402_C_REF_70000_37
 70
0
 62
7
  6
CONTINUOUS
370
-3
390
F
  0
LAYER
  5
21D
100
AcDbSymbolTableRecord
100
AcDbLayerTableRecord
  2
0402_C_REF_70000_38
 70
0
 62
7
  6
CONTINUOUS
370
-3
390
F
  0
LAYER
  5
21E
100
AcDbSymbolTableRecord
100
AcDbLayerTableRecord
  2
0402_C_REF_70000_39
 70
0
 62
7
  6
CONTINUOUS
370
-3
390
F
  0
LAYER
  5
21F
100
AcDbSymbolTableRecord
100
AcDbLayerTableRecord
  2
0402_C_REF_70000_4
 70
0
 62
7
  6
CONTINUOUS
370
-3
390
F
  0
LAYER
  5
220
100
AcDbSymbolTableRecord
100
AcDbLayerTableRecord
  2
0402_C_REF_70000_40
 70
0
 62
7
  6
CONTINUOUS
370
-3
390
F
  0
LAYER
  5
221
100
AcDbSymbolTableRecord
100
AcDbLayerTableRecord
  2
0402_C_REF_70000_41
 70
0
 62
7
  6
CONTINUOUS
370
-3
390
F
  0
LAYER
  5
222
100
AcDbSymbolTableRecord
100
AcDbLayerTableRecord
  2
0402_C_REF_70000_42
 70
0
 62
7
  6
CONTINUOUS
370
-3
390
F
  0
LAYER
  5
223
100
AcDbSymbolTableRecord
100
AcDbLayerTableRecord
  2
0402_C_REF_70000_43
 70
0
 62
7
  6
CONTINUOUS
370
-3
390
F
  0
LAYER
  5
224
100
AcDbSymbolTableRecord
100
AcDbLayerTableRecord
  2
0402_C_REF_70000_44
 70
0
 62
7
  6
CONTINUOUS
370
-3
390
F
  0
LAYER
  5
225
100
AcDbSymbolTableRecord
100
AcDbLayerTableRecord
  2
0402_C_REF_70000_45
 70
0
 62
7
  6
CONTINUOUS
370
-3
390
F
  0
LAYER
  5
226
100
AcDbSymbolTableRecord
100
AcDbLayerTableRecord
  2
0402_C_REF_70000_46
 70
0
 62
7
  6
CONTINUOUS
370
-3
390
F
  0
LAYER
  5
227
100
AcDbSymbolTableRecord
100
AcDbLayerTableRecord
  2
0402_C_REF_70000_47
 70
0
 62
7
  6
CONTINUOUS
370
-3
390
F
  0
LAYER
  5
228
100
AcDbSymbolTableRecord
100
AcDbLayerTableRecord
  2
0402_C_REF_70000_48
 70
0
 62
7
  6
CONTINUOUS
370
-3
390
F
  0
LAYER
  5
229
100
AcDbSymbolTableRecord
100
AcDbLayerTableRecord
  2
0402_C_REF_70000_49
 70
0
 62
7
  6
CONTINUOUS
370
-3
390
F
  0
LAYER
  5
22A
100
AcDbSymbolTableRecord
100
AcDbLayerTableRecord
  2
0402_C_REF_70000_5
 70
0
 62
7
  6
CONTINUOUS
370
-3
390
F
  0
LAYER
  5
22B
100
AcDbSymbolTableRecord
100
AcDbLayerTableRecord
  2
0402_C_REF_70000_50
 70
0
 62
7
  6
CONTINUOUS
370
-3
390
F
  0
LAYER
  5
22C
100
AcDbSymbolTableRecord
100
AcDbLayerTableRecord
  2
0402_C_REF_70000_51
 70
0
 62
7
  6
CONTINUOUS
370
-3
390
F
  0
LAYER
  5
22D
100
AcDbSymbolTableRecord
100
AcDbLayerTableRecord
  2
0402_C_REF_70000_52
 70
0
 62
7
  6
CONTINUOUS
370
-3
390
F
  0
LAYER
  5
22E
100
AcDbSymbolTableRecord
100
AcDbLayerTableRecord
  2
0402_C_REF_70000_53
 70
0
 62
7
  6
CONTINUOUS
370
-3
390
F
  0
LAYER
  5
22F
100
AcDbSymbolTableRecord
100
AcDbLayerTableRecord
  2
0402_C_REF_70000_54
 70
0
 62
7
  6
CONTINUOUS
370
-3
390
F
  0
LAYER
  5
230
100
AcDbSymbolTableRecord
100
AcDbLayerTableRecord
  2
0402_C_REF_70000_55
 70
0
 62
7
  6
CONTINUOUS
370
-3
390
F
  0
LAYER
  5
231
100
AcDbSymbolTableRecord
100
AcDbLayerTableRecord
  2
0402_C_REF_70000_56
 70
0
 62
7
  6
CONTINUOUS
370
-3
390
F
  0
LAYER
  5
232
100
AcDbSymbolTableRecord
100
AcDbLayerTableRecord
  2
0402_C_REF_70000_57
 70
0
 62
7
  6
CONTINUOUS
370
-3
390
F
  0
LAYER
  5
233
100
AcDbSymbolTableRecord
100
AcDbLayerTableRecord
  2
0402_C_REF_70000_58
 70
0
 62
7
  6
CONTINUOUS
370
-3
390
F
  0
LAYER
  5
234
100
AcDbSymbolTableRecord
100
AcDbLayerTableRecord
  2
0402_C_REF_70000_59
 70
0
 62
7
  6
CONTINUOUS
370
-3
390
F
  0
LAYER
  5
235
100
AcDbSymbolTableRecord
100
AcDbLayerTableRecord
  2
0402_C_REF_70000_6
 70
0
 62
7
  6
CONTINUOUS
370
-3
390
F
  0
LAYER
  5
236
100
AcDbSymbolTableRecord
100
AcDbLayerTableRecord
  2
0402_C_REF_70000_60
 70
0
 62
7
  6
CONTINUOUS
370
-3
390
F
  0
LAYER
  5
237
100
AcDbSymbolTableRecord
100
AcDbLayerTableRecord
  2
0402_C_REF_70000_61
 70
0
 62
7
  6
CONTINUOUS
370
-3
390
F
  0
LAYER
  5
238
100
AcDbSymbolTableRecord
100
AcDbLayerTableRecord
  2
0402_C_REF_70000_62
 70
0
 62
7
  6
CONTINUOUS
370
-3
390
F
  0
LAYER
  5
239
100
AcDbSymbolTableRecord
100
AcDbLayerTableRecord
  2
0402_C_REF_70000_63
 70
0
 62
7
  6
CONTINUOUS
370
-3
390
F
  0
LAYER
  5
23A
100
AcDbSymbolTableRecord
100
AcDbLayerTableRecord
  2
0402_C_REF_70000_64
 70
0
 62
7
  6
CONTINUOUS
370
-3
390
F
  0
LAYER
  5
23B
100
AcDbSymbolTableRecord
100
AcDbLayerTableRecord
  2
0402_C_REF_70000_65
 70
0
 62
7
  6
CONTINUOUS
370
-3
390
F
  0
LAYER
  5
23C
100
AcDbSymbolTableRecord
100
AcDbLayerTableRecord
  2
0402_C_REF_70000_66
 70
0
 62
7
  6
CONTINUOUS
370
-3
390
F
  0
LAYER
  5
23D
100
AcDbSymbolTableRecord
100
AcDbLayerTableRecord
  2
0402_C_REF_70000_67
 70
0
 62
7
  6
CONTINUOUS
370
-3
390
F
  0
LAYER
  5
23E
100
AcDbSymbolTableRecord
100
AcDbLayerTableRecord
  2
0402_C_REF_70000_68
 70
0
 62
7
  6
CONTINUOUS
370
-3
390
F
  0
LAYER
  5
23F
100
AcDbSymbolTableRecord
100
AcDbLayerTableRecord
  2
0402_C_REF_70000_69
 70
0
 62
7
  6
CONTINUOUS
370
-3
390
F
  0
LAYER
  5
240
100
AcDbSymbolTableRecord
100
AcDbLayerTableRecord
  2
0402_C_REF_70000_7
 70
0
 62
7
  6
CONTINUOUS
370
-3
390
F
  0
LAYER
  5
241
100
AcDbSymbolTableRecord
100
AcDbLayerTableRecord
  2
0402_C_REF_70000_70
 70
0
 62
7
  6
CONTINUOUS
370
-3
390
F
  0
LAYER
  5
242
100
AcDbSymbolTableRecord
100
AcDbLayerTableRecord
  2
0402_C_REF_70000_71
 70
0
 62
7
  6
CONTINUOUS
370
-3
390
F
  0
LAYER
  5
243
100
AcDbSymbolTableRecord
100
AcDbLayerTableRecord
  2
0402_C_REF_70000_72
 70
0
 62
7
  6
CONTINUOUS
370
-3
390
F
  0
LAYER
  5
244
100
AcDbSymbolTableRecord
100
AcDbLayerTableRecord
  2
0402_C_REF_70000_73
 70
0
 62
7
  6
CONTINUOUS
370
-3
390
F
  0
LAYER
  5
245
100
AcDbSymbolTableRecord
100
AcDbLayerTableRecord
  2
0402_C_REF_70000_74
 70
0
 62
7
  6
CONTINUOUS
370
-3
390
F
  0
LAYER
  5
246
100
AcDbSymbolTableRecord
100
AcDbLayerTableRecord
  2
0402_C_REF_70000_75
 70
0
 62
7
  6
CONTINUOUS
370
-3
390
F
  0
LAYER
  5
247
100
AcDbSymbolTableRecord
100
AcDbLayerTableRecord
  2
0402_C_REF_70000_76
 70
0
 62
7
  6
CONTINUOUS
370
-3
390
F
  0
LAYER
  5
248
100
AcDbSymbolTableRecord
100
AcDbLayerTableRecord
  2
0402_C_REF_70000_77
 70
0
 62
7
  6
CONTINUOUS
370
-3
390
F
  0
LAYER
  5
249
100
AcDbSymbolTableRecord
100
AcDbLayerTableRecord
  2
0402_C_REF_70000_78
 70
0
 62
7
  6
CONTINUOUS
370
-3
390
F
  0
LAYER
  5
24A
100
AcDbSymbolTableRecord
100
AcDbLayerTableRecord
  2
0402_C_REF_70000_79
 70
0
 62
7
  6
CONTINUOUS
370
-3
390
F
  0
LAYER
  5
24B
100
AcDbSymbolTableRecord
100
AcDbLayerTableRecord
  2
0402_C_REF_70000_8
 70
0
 62
7
  6
CONTINUOUS
370
-3
390
F
  0
LAYER
  5
24C
100
AcDbSymbolTableRecord
100
AcDbLayerTableRecord
  2
0402_C_REF_70000_80
 70
0
 62
7
  6
CONTINUOUS
370
-3
390
F
  0
LAYER
  5
24D
100
AcDbSymbolTableRecord
100
AcDbLayerTableRecord
  2
0402_C_REF_70000_81
 70
0
 62
7
  6
CONTINUOUS
370
-3
390
F
  0
LAYER
  5
24E
100
AcDbSymbolTableRecord
100
AcDbLayerTableRecord
  2
0402_C_REF_70000_82
 70
0
 62
7
  6
CONTINUOUS
370
-3
390
F
  0
LAYER
  5
24F
100
AcDbSymbolTableRecord
100
AcDbLayerTableRecord
  2
0402_C_REF_70000_83
 70
0
 62
7
  6
CONTINUOUS
370
-3
390
F
  0
LAYER
  5
250
100
AcDbSymbolTableRecord
100
AcDbLayerTableRecord
  2
0402_C_REF_70000_9
 70
0
 62
7
  6
CONTINUOUS
370
-3
390
F
  0
LAYER
  5
251
100
AcDbSymbolTableRecord
100
AcDbLayerTableRecord
  2
0402_R_REF_30000
 70
0
 62
7
  6
CONTINUOUS
370
-3
390
F
  0
LAYER
  5
252
100
AcDbSymbolTableRecord
100
AcDbLayerTableRecord
  2
0402_R_REF_30000_1
 70
0
 62
7
  6
CONTINUOUS
370
-3
390
F
  0
LAYER
  5
253
100
AcDbSymbolTableRecord
100
AcDbLayerTableRecord
  2
0402_R_REF_30000_10
 70
0
 62
7
  6
CONTINUOUS
370
-3
390
F
  0
LAYER
  5
254
100
AcDbSymbolTableRecord
100
AcDbLayerTableRecord
  2
0402_R_REF_30000_100
 70
0
 62
7
  6
CONTINUOUS
370
-3
390
F
  0
LAYER
  5
255
100
AcDbSymbolTableRecord
100
AcDbLayerTableRecord
  2
0402_R_REF_30000_101
 70
0
 62
7
  6
CONTINUOUS
370
-3
390
F
  0
LAYER
  5
256
100
AcDbSymbolTableRecord
100
AcDbLayerTableRecord
  2
0402_R_REF_30000_102
 70
0
 62
7
  6
CONTINUOUS
370
-3
390
F
  0
LAYER
  5
257
100
AcDbSymbolTableRecord
100
AcDbLayerTableRecord
  2
0402_R_REF_30000_103
 70
0
 62
7
  6
CONTINUOUS
370
-3
390
F
  0
LAYER
  5
258
100
AcDbSymbolTableRecord
100
AcDbLayerTableRecord
  2
0402_R_REF_30000_104
 70
0
 62
7
  6
CONTINUOUS
370
-3
390
F
  0
LAYER
  5
259
100
AcDbSymbolTableRecord
100
AcDbLayerTableRecord
  2
0402_R_REF_30000_105
 70
0
 62
7
  6
CONTINUOUS
370
-3
390
F
  0
LAYER
  5
25A
100
AcDbSymbolTableRecord
100
AcDbLayerTableRecord
  2
0402_R_REF_30000_106
 70
0
 62
7
  6
CONTINUOUS
370
-3
390
F
  0
LAYER
  5
25B
100
AcDbSymbolTableRecord
100
AcDbLayerTableRecord
  2
0402_R_REF_30000_107
 70
0
 62
7
  6
CONTINUOUS
370
-3
390
F
  0
LAYER
  5
25C
100
AcDbSymbolTableRecord
100
AcDbLayerTableRecord
  2
0402_R_REF_30000_108
 70
0
 62
7
  6
CONTINUOUS
370
-3
390
F
  0
LAYER
  5
25D
100
AcDbSymbolTableRecord
100
AcDbLayerTableRecord
  2
0402_R_REF_30000_109
 70
0
 62
7
  6
CONTINUOUS
370
-3
390
F
  0
LAYER
  5
25E
100
AcDbSymbolTableRecord
100
AcDbLayerTableRecord
  2
0402_R_REF_30000_11
 70
0
 62
7
  6
CONTINUOUS
370
-3
390
F
  0
LAYER
  5
25F
100
AcDbSymbolTableRecord
100
AcDbLayerTableRecord
  2
0402_R_REF_30000_110
 70
0
 62
7
  6
CONTINUOUS
370
-3
390
F
  0
LAYER
  5
260
100
AcDbSymbolTableRecord
100
AcDbLayerTableRecord
  2
0402_R_REF_30000_111
 70
0
 62
7
  6
CONTINUOUS
370
-3
390
F
  0
LAYER
  5
261
100
AcDbSymbolTableRecord
100
AcDbLayerTableRecord
  2
0402_R_REF_30000_112
 70
0
 62
7
  6
CONTINUOUS
370
-3
390
F
  0
LAYER
  5
262
100
AcDbSymbolTableRecord
100
AcDbLayerTableRecord
  2
0402_R_REF_30000_113
 70
0
 62
7
  6
CONTINUOUS
370
-3
390
F
  0
LAYER
  5
263
100
AcDbSymbolTableRecord
100
AcDbLayerTableRecord
  2
0402_R_REF_30000_114
 70
0
 62
7
  6
CONTINUOUS
370
-3
390
F
  0
LAYER
  5
264
100
AcDbSymbolTableRecord
100
AcDbLayerTableRecord
  2
0402_R_REF_30000_115
 70
0
 62
7
  6
CONTINUOUS
370
-3
390
F
  0
LAYER
  5
265
100
AcDbSymbolTableRecord
100
AcDbLayerTableRecord
  2
0402_R_REF_30000_116
 70
0
 62
7
  6
CONTINUOUS
370
-3
390
F
  0
LAYER
  5
266
100
AcDbSymbolTableRecord
100
AcDbLayerTableRecord
  2
0402_R_REF_30000_117
 70
0
 62
7
  6
CONTINUOUS
370
-3
390
F
  0
LAYER
  5
267
100
AcDbSymbolTableRecord
100
AcDbLayerTableRecord
  2
0402_R_REF_30000_118
 70
0
 62
7
  6
CONTINUOUS
370
-3
390
F
  0
LAYER
  5
268
100
AcDbSymbolTableRecord
100
AcDbLayerTableRecord
  2
0402_R_REF_30000_119
 70
0
 62
7
  6
CONTINUOUS
370
-3
390
F
  0
LAYER
  5
269
100
AcDbSymbolTableRecord
100
AcDbLayerTableRecord
  2
0402_R_REF_30000_12
 70
0
 62
7
  6
CONTINUOUS
370
-3
390
F
  0
LAYER
  5
26A
100
AcDbSymbolTableRecord
100
AcDbLayerTableRecord
  2
0402_R_REF_30000_120
 70
0
 62
7
  6
CONTINUOUS
370
-3
390
F
  0
LAYER
  5
26B
100
AcDbSymbolTableRecord
100
AcDbLayerTableRecord
  2
0402_R_REF_30000_121
 70
0
 62
7
  6
CONTINUOUS
370
-3
390
F
  0
LAYER
  5
26C
100
AcDbSymbolTableRecord
100
AcDbLayerTableRecord
  2
0402_R_REF_30000_122
 70
0
 62
7
  6
CONTINUOUS
370
-3
390
F
  0
LAYER
  5
26D
100
AcDbSymbolTableRecord
100
AcDbLayerTableRecord
  2
0402_R_REF_30000_123
 70
0
 62
7
  6
CONTINUOUS
370
-3
390
F
  0
LAYER
  5
26E
100
AcDbSymbolTableRecord
100
AcDbLayerTableRecord
  2
0402_R_REF_30000_124
 70
0
 62
7
  6
CONTINUOUS
370
-3
390
F
  0
LAYER
  5
26F
100
AcDbSymbolTableRecord
100
AcDbLayerTableRecord
  2
0402_R_REF_30000_125
 70
0
 62
7
  6
CONTINUOUS
370
-3
390
F
  0
LAYER
  5
270
100
AcDbSymbolTableRecord
100
AcDbLayerTableRecord
  2
0402_R_REF_30000_126
 70
0
 62
7
  6
CONTINUOUS
370
-3
390
F
  0
LAYER
  5
271
100
AcDbSymbolTableRecord
100
AcDbLayerTableRecord
  2
0402_R_REF_30000_127
 70
0
 62
7
  6
CONTINUOUS
370
-3
390
F
  0
LAYER
  5
272
100
AcDbSymbolTableRecord
100
AcDbLayerTableRecord
  2
0402_R_REF_30000_128
 70
0
 62
7
  6
CONTINUOUS
370
-3
390
F
  0
LAYER
  5
273
100
AcDbSymbolTableRecord
100
AcDbLayerTableRecord
  2
0402_R_REF_30000_129
 70
0
 62
7
  6
CONTINUOUS
370
-3
390
F
  0
LAYER
  5
274
100
AcDbSymbolTableRecord
100
AcDbLayerTableRecord
  2
0402_R_REF_30000_13
 70
0
 62
7
  6
CONTINUOUS
370
-3
390
F
  0
LAYER
  5
275
100
AcDbSymbolTableRecord
100
AcDbLayerTableRecord
  2
0402_R_REF_30000_130
 70
0
 62
7
  6
CONTINUOUS
370
-3
390
F
  0
LAYER
  5
276
100
AcDbSymbolTableRecord
100
AcDbLayerTableRecord
  2
0402_R_REF_30000_131
 70
0
 62
7
  6
CONTINUOUS
370
-3
390
F
  0
LAYER
  5
277
100
AcDbSymbolTableRecord
100
AcDbLayerTableRecord
  2
0402_R_REF_30000_132
 70
0
 62
7
  6
CONTINUOUS
370
-3
390
F
  0
LAYER
  5
278
100
AcDbSymbolTableRecord
100
AcDbLayerTableRecord
  2
0402_R_REF_30000_133
 70
0
 62
7
  6
CONTINUOUS
370
-3
390
F
  0
LAYER
  5
279
100
AcDbSymbolTableRecord
100
AcDbLayerTableRecord
  2
0402_R_REF_30000_134
 70
0
 62
7
  6
CONTINUOUS
370
-3
390
F
  0
LAYER
  5
27A
100
AcDbSymbolTableRecord
100
AcDbLayerTableRecord
  2
0402_R_REF_30000_135
 70
0
 62
7
  6
CONTINUOUS
370
-3
390
F
  0
LAYER
  5
27B
100
AcDbSymbolTableRecord
100
AcDbLayerTableRecord
  2
0402_R_REF_30000_136
 70
0
 62
7
  6
CONTINUOUS
370
-3
390
F
  0
LAYER
  5
27C
100
AcDbSymbolTableRecord
100
AcDbLayerTableRecord
  2
0402_R_REF_30000_137
 70
0
 62
7
  6
CONTINUOUS
370
-3
390
F
  0
LAYER
  5
27D
100
AcDbSymbolTableRecord
100
AcDbLayerTableRecord
  2
0402_R_REF_30000_138
 70
0
 62
7
  6
CONTINUOUS
370
-3
390
F
  0
LAYER
  5
27E
100
AcDbSymbolTableRecord
100
AcDbLayerTableRecord
  2
0402_R_REF_30000_139
 70
0
 62
7
  6
CONTINUOUS
370
-3
390
F
  0
LAYER
  5
27F
100
AcDbSymbolTableRecord
100
AcDbLayerTableRecord
  2
0402_R_REF_30000_14
 70
0
 62
7
  6
CONTINUOUS
370
-3
390
F
  0
LAYER
  5
280
100
AcDbSymbolTableRecord
100
AcDbLayerTableRecord
  2
0402_R_REF_30000_140
 70
0
 62
7
  6
CONTINUOUS
370
-3
390
F
  0
LAYER
  5
281
100
AcDbSymbolTableRecord
100
AcDbLayerTableRecord
  2
0402_R_REF_30000_141
 70
0
 62
7
  6
CONTINUOUS
370
-3
390
F
  0
LAYER
  5
282
100
AcDbSymbolTableRecord
100
AcDbLayerTableRecord
  2
0402_R_REF_30000_142
 70
0
 62
7
  6
CONTINUOUS
370
-3
390
F
  0
LAYER
  5
283
100
AcDbSymbolTableRecord
100
AcDbLayerTableRecord
  2
0402_R_REF_30000_143
 70
0
 62
7
  6
CONTINUOUS
370
-3
390
F
  0
LAYER
  5
284
100
AcDbSymbolTableRecord
100
AcDbLayerTableRecord
  2
0402_R_REF_30000_144
 70
0
 62
7
  6
CONTINUOUS
370
-3
390
F
  0
LAYER
  5
285
100
AcDbSymbolTableRecord
100
AcDbLayerTableRecord
  2
0402_R_REF_30000_145
 70
0
 62
7
  6
CONTINUOUS
370
-3
390
F
  0
LAYER
  5
286
100
AcDbSymbolTableRecord
100
AcDbLayerTableRecord
  2
0402_R_REF_30000_146
 70
0
 62
7
  6
CONTINUOUS
370
-3
390
F
  0
LAYER
  5
287
100
AcDbSymbolTableRecord
100
AcDbLayerTableRecord
  2
0402_R_REF_30000_147
 70
0
 62
7
  6
CONTINUOUS
370
-3
390
F
  0
LAYER
  5
288
100
AcDbSymbolTableRecord
100
AcDbLayerTableRecord
  2
0402_R_REF_30000_148
 70
0
 62
7
  6
CONTINUOUS
370
-3
390
F
  0
LAYER
  5
289
100
AcDbSymbolTableRecord
100
AcDbLayerTableRecord
  2
0402_R_REF_30000_149
 70
0
 62
7
  6
CONTINUOUS
370
-3
390
F
  0
LAYER
  5
28A
100
AcDbSymbolTableRecord
100
AcDbLayerTableRecord
  2
0402_R_REF_30000_15
 70
0
 62
7
  6
CONTINUOUS
370
-3
390
F
  0
LAYER
  5
28B
100
AcDbSymbolTableRecord
100
AcDbLayerTableRecord
  2
0402_R_REF_30000_150
 70
0
 62
7
  6
CONTINUOUS
370
-3
390
F
  0
LAYER
  5
28C
100
AcDbSymbolTableRecord
100
AcDbLayerTableRecord
  2
0402_R_REF_30000_151
 70
0
 62
7
  6
CONTINUOUS
370
-3
390
F
  0
LAYER
  5
28D
100
AcDbSymbolTableRecord
100
AcDbLayerTableRecord
  2
0402_R_REF_30000_152
 70
0
 62
7
  6
CONTINUOUS
370
-3
390
F
  0
LAYER
  5
28E
100
AcDbSymbolTableRecord
100
AcDbLayerTableRecord
  2
0402_R_REF_30000_153
 70
0
 62
7
  6
CONTINUOUS
370
-3
390
F
  0
LAYER
  5
28F
100
AcDbSymbolTableRecord
100
AcDbLayerTableRecord
  2
0402_R_REF_30000_154
 70
0
 62
7
  6
CONTINUOUS
370
-3
390
F
  0
LAYER
  5
290
100
AcDbSymbolTableRecord
100
AcDbLayerTableRecord
  2
0402_R_REF_30000_155
 70
0
 62
7
  6
CONTINUOUS
370
-3
390
F
  0
LAYER
  5
291
100
AcDbSymbolTableRecord
100
AcDbLayerTableRecord
  2
0402_R_REF_30000_156
 70
0
 62
7
  6
CONTINUOUS
370
-3
390
F
  0
LAYER
  5
292
100
AcDbSymbolTableRecord
100
AcDbLayerTableRecord
  2
0402_R_REF_30000_157
 70
0
 62
7
  6
CONTINUOUS
370
-3
390
F
  0
LAYER
  5
293
100
AcDbSymbolTableRecord
100
AcDbLayerTableRecord
  2
0402_R_REF_30000_158
 70
0
 62
7
  6
CONTINUOUS
370
-3
390
F
  0
LAYER
  5
294
100
AcDbSymbolTableRecord
100
AcDbLayerTableRecord
  2
0402_R_REF_30000_159
 70
0
 62
7
  6
CONTINUOUS
370
-3
390
F
  0
LAYER
  5
295
100
AcDbSymbolTableRecord
100
AcDbLayerTableRecord
  2
0402_R_REF_30000_16
 70
0
 62
7
  6
CONTINUOUS
370
-3
390
F
  0
LAYER
  5
296
100
AcDbSymbolTableRecord
100
AcDbLayerTableRecord
  2
0402_R_REF_30000_160
 70
0
 62
7
  6
CONTINUOUS
370
-3
390
F
  0
LAYER
  5
297
100
AcDbSymbolTableRecord
100
AcDbLayerTableRecord
  2
0402_R_REF_30000_161
 70
0
 62
7
  6
CONTINUOUS
370
-3
390
F
  0
LAYER
  5
298
100
AcDbSymbolTableRecord
100
AcDbLayerTableRecord
  2
0402_R_REF_30000_162
 70
0
 62
7
  6
CONTINUOUS
370
-3
390
F
  0
LAYER
  5
299
100
AcDbSymbolTableRecord
100
AcDbLayerTableRecord
  2
0402_R_REF_30000_17
 70
0
 62
7
  6
CONTINUOUS
370
-3
390
F
  0
LAYER
  5
29A
100
AcDbSymbolTableRecord
100
AcDbLayerTableRecord
  2
0402_R_REF_30000_18
 70
0
 62
7
  6
CONTINUOUS
370
-3
390
F
  0
LAYER
  5
29B
100
AcDbSymbolTableRecord
100
AcDbLayerTableRecord
  2
0402_R_REF_30000_19
 70
0
 62
7
  6
CONTINUOUS
370
-3
390
F
  0
LAYER
  5
29C
100
AcDbSymbolTableRecord
100
AcDbLayerTableRecord
  2
0402_R_REF_30000_2
 70
0
 62
7
  6
CONTINUOUS
370
-3
390
F
  0
LAYER
  5
29D
100
AcDbSymbolTableRecord
100
AcDbLayerTableRecord
  2
0402_R_REF_30000_20
 70
0
 62
7
  6
CONTINUOUS
370
-3
390
F
  0
LAYER
  5
29E
100
AcDbSymbolTableRecord
100
AcDbLayerTableRecord
  2
0402_R_REF_30000_21
 70
0
 62
7
  6
CONTINUOUS
370
-3
390
F
  0
LAYER
  5
29F
100
AcDbSymbolTableRecord
100
AcDbLayerTableRecord
  2
0402_R_REF_30000_22
 70
0
 62
7
  6
CONTINUOUS
370
-3
390
F
  0
LAYER
  5
2A0
100
AcDbSymbolTableRecord
100
AcDbLayerTableRecord
  2
0402_R_REF_30000_23
 70
0
 62
7
  6
CONTINUOUS
370
-3
390
F
  0
LAYER
  5
2A1
100
AcDbSymbolTableRecord
100
AcDbLayerTableRecord
  2
0402_R_REF_30000_24
 70
0
 62
7
  6
CONTINUOUS
370
-3
390
F
  0
LAYER
  5
2A2
100
AcDbSymbolTableRecord
100
AcDbLayerTableRecord
  2
0402_R_REF_30000_25
 70
0
 62
7
  6
CONTINUOUS
370
-3
390
F
  0
LAYER
  5
2A3
100
AcDbSymbolTableRecord
100
AcDbLayerTableRecord
  2
0402_R_REF_30000_26
 70
0
 62
7
  6
CONTINUOUS
370
-3
390
F
  0
LAYER
  5
2A4
100
AcDbSymbolTableRecord
100
AcDbLayerTableRecord
  2
0402_R_REF_30000_27
 70
0
 62
7
  6
CONTINUOUS
370
-3
390
F
  0
LAYER
  5
2A5
100
AcDbSymbolTableRecord
100
AcDbLayerTableRecord
  2
0402_R_REF_30000_28
 70
0
 62
7
  6
CONTINUOUS
370
-3
390
F
  0
LAYER
  5
2A6
100
AcDbSymbolTableRecord
100
AcDbLayerTableRecord
  2
0402_R_REF_30000_29
 70
0
 62
7
  6
CONTINUOUS
370
-3
390
F
  0
LAYER
  5
2A7
100
AcDbSymbolTableRecord
100
AcDbLayerTableRecord
  2
0402_R_REF_30000_3
 70
0
 62
7
  6
CONTINUOUS
370
-3
390
F
  0
LAYER
  5
2A8
100
AcDbSymbolTableRecord
100
AcDbLayerTableRecord
  2
0402_R_REF_30000_30
 70
0
 62
7
  6
CONTINUOUS
370
-3
390
F
  0
LAYER
  5
2A9
100
AcDbSymbolTableRecord
100
AcDbLayerTableRecord
  2
0402_R_REF_30000_31
 70
0
 62
7
  6
CONTINUOUS
370
-3
390
F
  0
LAYER
  5
2AA
100
AcDbSymbolTableRecord
100
AcDbLayerTableRecord
  2
0402_R_REF_30000_32
 70
0
 62
7
  6
CONTINUOUS
370
-3
390
F
  0
LAYER
  5
2AB
100
AcDbSymbolTableRecord
100
AcDbLayerTableRecord
  2
0402_R_REF_30000_33
 70
0
 62
7
  6
CONTINUOUS
370
-3
390
F
  0
LAYER
  5
2AC
100
AcDbSymbolTableRecord
100
AcDbLayerTableRecord
  2
0402_R_REF_30000_34
 70
0
 62
7
  6
CONTINUOUS
370
-3
390
F
  0
LAYER
  5
2AD
100
AcDbSymbolTableRecord
100
AcDbLayerTableRecord
  2
0402_R_REF_30000_35
 70
0
 62
7
  6
CONTINUOUS
370
-3
390
F
  0
LAYER
  5
2AE
100
AcDbSymbolTableRecord
100
AcDbLayerTableRecord
  2
0402_R_REF_30000_36
 70
0
 62
7
  6
CONTINUOUS
370
-3
390
F
  0
LAYER
  5
2AF
100
AcDbSymbolTableRecord
100
AcDbLayerTableRecord
  2
0402_R_REF_30000_37
 70
0
 62
7
  6
CONTINUOUS
370
-3
390
F
  0
LAYER
  5
2B0
100
AcDbSymbolTableRecord
100
AcDbLayerTableRecord
  2
0402_R_REF_30000_38
 70
0
 62
7
  6
CONTINUOUS
370
-3
390
F
  0
LAYER
  5
2B1
100
AcDbSymbolTableRecord
100
AcDbLayerTableRecord
  2
0402_R_REF_30000_39
 70
0
 62
7
  6
CONTINUOUS
370
-3
390
F
  0
LAYER
  5
2B2
100
AcDbSymbolTableRecord
100
AcDbLayerTableRecord
  2
0402_R_REF_30000_4
 70
0
 62
7
  6
CONTINUOUS
370
-3
390
F
  0
LAYER
  5
2B3
100
AcDbSymbolTableRecord
100
AcDbLayerTableRecord
  2
0402_R_REF_30000_40
 70
0
 62
7
  6
CONTINUOUS
370
-3
390
F
  0
LAYER
  5
2B4
100
AcDbSymbolTableRecord
100
AcDbLayerTableRecord
  2
0402_R_REF_30000_41
 70
0
 62
7
  6
CONTINUOUS
370
-3
390
F
  0
LAYER
  5
2B5
100
AcDbSymbolTableRecord
100
AcDbLayerTableRecord
  2
0402_R_REF_30000_42
 70
0
 62
7
  6
CONTINUOUS
370
-3
390
F
  0
LAYER
  5
2B6
100
AcDbSymbolTableRecord
100
AcDbLayerTableRecord
  2
0402_R_REF_30000_43
 70
0
 62
7
  6
CONTINUOUS
370
-3
390
F
  0
LAYER
  5
2B7
100
AcDbSymbolTableRecord
100
AcDbLayerTableRecord
  2
0402_R_REF_30000_44
 70
0
 62
7
  6
CONTINUOUS
370
-3
390
F
  0
LAYER
  5
2B8
100
AcDbSymbolTableRecord
100
AcDbLayerTableRecord
  2
0402_R_REF_30000_45
 70
0
 62
7
  6
CONTINUOUS
370
-3
390
F
  0
LAYER
  5
2B9
100
AcDbSymbolTableRecord
100
AcDbLayerTableRecord
  2
0402_R_REF_30000_46
 70
0
 62
7
  6
CONTINUOUS
370
-3
390
F
  0
LAYER
  5
2BA
100
AcDbSymbolTableRecord
100
AcDbLayerTableRecord
  2
0402_R_REF_30000_47
 70
0
 62
7
  6
CONTINUOUS
370
-3
390
F
  0
LAYER
  5
2BB
100
AcDbSymbolTableRecord
100
AcDbLayerTableRecord
  2
0402_R_REF_30000_48
 70
0
 62
7
  6
CONTINUOUS
370
-3
390
F
  0
LAYER
  5
2BC
100
AcDbSymbolTableRecord
100
AcDbLayerTableRecord
  2
0402_R_REF_30000_49
 70
0
 62
7
  6
CONTINUOUS
370
-3
390
F
  0
LAYER
  5
2BD
100
AcDbSymbolTableRecord
100
AcDbLayerTableRecord
  2
0402_R_REF_30000_5
 70
0
 62
7
  6
CONTINUOUS
370
-3
390
F
  0
LAYER
  5
2BE
100
AcDbSymbolTableRecord
100
AcDbLayerTableRecord
  2
0402_R_REF_30000_50
 70
0
 62
7
  6
CONTINUOUS
370
-3
390
F
  0
LAYER
  5
2BF
100
AcDbSymbolTableRecord
100
AcDbLayerTableRecord
  2
0402_R_REF_30000_51
 70
0
 62
7
  6
CONTINUOUS
370
-3
390
F
  0
LAYER
  5
2C0
100
AcDbSymbolTableRecord
100
AcDbLayerTableRecord
  2
0402_R_REF_30000_52
 70
0
 62
7
  6
CONTINUOUS
370
-3
390
F
  0
LAYER
  5
2C1
100
AcDbSymbolTableRecord
100
AcDbLayerTableRecord
  2
0402_R_REF_30000_53
 70
0
 62
7
  6
CONTINUOUS
370
-3
390
F
  0
LAYER
  5
2C2
100
AcDbSymbolTableRecord
100
AcDbLayerTableRecord
  2
0402_R_REF_30000_54
 70
0
 62
7
  6
CONTINUOUS
370
-3
390
F
  0
LAYER
  5
2C3
100
AcDbSymbolTableRecord
100
AcDbLayerTableRecord
  2
0402_R_REF_30000_55
 70
0
 62
7
  6
CONTINUOUS
370
-3
390
F
  0
LAYER
  5
2C4
100
AcDbSymbolTableRecord
100
AcDbLayerTableRecord
  2
0402_R_REF_30000_56
 70
0
 62
7
  6
CONTINUOUS
370
-3
390
F
  0
LAYER
  5
2C5
100
AcDbSymbolTableRecord
100
AcDbLayerTableRecord
  2
0402_R_REF_30000_57
 70
0
 62
7
  6
CONTINUOUS
370
-3
390
F
  0
LAYER
  5
2C6
100
AcDbSymbolTableRecord
100
AcDbLayerTableRecord
  2
0402_R_REF_30000_58
 70
0
 62
7
  6
CONTINUOUS
370
-3
390
F
  0
LAYER
  5
2C7
100
AcDbSymbolTableRecord
100
AcDbLayerTableRecord
  2
0402_R_REF_30000_59
 70
0
 62
7
  6
CONTINUOUS
370
-3
390
F
  0
LAYER
  5
2C8
100
AcDbSymbolTableRecord
100
AcDbLayerTableRecord
  2
0402_R_REF_30000_6
 70
0
 62
7
  6
CONTINUOUS
370
-3
390
F
  0
LAYER
  5
2C9
100
AcDbSymbolTableRecord
100
AcDbLayerTableRecord
  2
0402_R_REF_30000_60
 70
0
 62
7
  6
CONTINUOUS
370
-3
390
F
  0
LAYER
  5
2CA
100
AcDbSymbolTableRecord
100
AcDbLayerTableRecord
  2
0402_R_REF_30000_61
 70
0
 62
7
  6
CONTINUOUS
370
-3
390
F
  0
LAYER
  5
2CB
100
AcDbSymbolTableRecord
100
AcDbLayerTableRecord
  2
0402_R_REF_30000_62
 70
0
 62
7
  6
CONTINUOUS
370
-3
390
F
  0
LAYER
  5
2CC
100
AcDbSymbolTableRecord
100
AcDbLayerTableRecord
  2
0402_R_REF_30000_63
 70
0
 62
7
  6
CONTINUOUS
370
-3
390
F
  0
LAYER
  5
2CD
100
AcDbSymbolTableRecord
100
AcDbLayerTableRecord
  2
0402_R_REF_30000_64
 70
0
 62
7
  6
CONTINUOUS
370
-3
390
F
  0
LAYER
  5
2CE
100
AcDbSymbolTableRecord
100
AcDbLayerTableRecord
  2
0402_R_REF_30000_65
 70
0
 62
7
  6
CONTINUOUS
370
-3
390
F
  0
LAYER
  5
2CF
100
AcDbSymbolTableRecord
100
AcDbLayerTableRecord
  2
0402_R_REF_30000_66
 70
0
 62
7
  6
CONTINUOUS
370
-3
390
F
  0
LAYER
  5
2D0
100
AcDbSymbolTableRecord
100
AcDbLayerTableRecord
  2
0402_R_REF_30000_67
 70
0
 62
7
  6
CONTINUOUS
370
-3
390
F
  0
LAYER
  5
2D1
100
AcDbSymbolTableRecord
100
AcDbLayerTableRecord
  2
0402_R_REF_30000_68
 70
0
 62
7
  6
CONTINUOUS
370
-3
390
F
  0
LAYER
  5
2D2
100
AcDbSymbolTableRecord
100
AcDbLayerTableRecord
  2
0402_R_REF_30000_69
 70
0
 62
7
  6
CONTINUOUS
370
-3
390
F
  0
LAYER
  5
2D3
100
AcDbSymbolTableRecord
100
AcDbLayerTableRecord
  2
0402_R_REF_30000_7
 70
0
 62
7
  6
CONTINUOUS
370
-3
390
F
  0
LAYER
  5
2D4
100
AcDbSymbolTableRecord
100
AcDbLayerTableRecord
  2
0402_R_REF_30000_70
 70
0
 62
7
  6
CONTINUOUS
370
-3
390
F
  0
LAYER
  5
2D5
100
AcDbSymbolTableRecord
100
AcDbLayerTableRecord
  2
0402_R_REF_30000_71
 70
0
 62
7
  6
CONTINUOUS
370
-3
390
F
  0
LAYER
  5
2D6
100
AcDbSymbolTableRecord
100
AcDbLayerTableRecord
  2
0402_R_REF_30000_72
 70
0
 62
7
  6
CONTINUOUS
370
-3
390
F
  0
LAYER
  5
2D7
100
AcDbSymbolTableRecord
100
AcDbLayerTableRecord
  2
0402_R_REF_30000_73
 70
0
 62
7
  6
CONTINUOUS
370
-3
390
F
  0
LAYER
  5
2D8
100
AcDbSymbolTableRecord
100
AcDbLayerTableRecord
  2
0402_R_REF_30000_74
 70
0
 62
7
  6
CONTINUOUS
370
-3
390
F
  0
LAYER
  5
2D9
100
AcDbSymbolTableRecord
100
AcDbLayerTableRecord
  2
0402_R_REF_30000_75
 70
0
 62
7
  6
CONTINUOUS
370
-3
390
F
  0
LAYER
  5
2DA
100
AcDbSymbolTableRecord
100
AcDbLayerTableRecord
  2
0402_R_REF_30000_76
 70
0
 62
7
  6
CONTINUOUS
370
-3
390
F
  0
LAYER
  5
2DB
100
AcDbSymbolTableRecord
100
AcDbLayerTableRecord
  2
0402_R_REF_30000_77
 70
0
 62
7
  6
CONTINUOUS
370
-3
390
F
  0
LAYER
  5
2DC
100
AcDbSymbolTableRecord
100
AcDbLayerTableRecord
  2
0402_R_REF_30000_78
 70
0
 62
7
  6
CONTINUOUS
370
-3
390
F
  0
LAYER
  5
2DD
100
AcDbSymbolTableRecord
100
AcDbLayerTableRecord
  2
0402_R_REF_30000_79
 70
0
 62
7
  6
CONTINUOUS
370
-3
390
F
  0
LAYER
  5
2DE
100
AcDbSymbolTableRecord
100
AcDbLayerTableRecord
  2
0402_R_REF_30000_8
 70
0
 62
7
  6
CONTINUOUS
370
-3
390
F
  0
LAYER
  5
2DF
100
AcDbSymbolTableRecord
100
AcDbLayerTableRecord
  2
0402_R_REF_30000_80
 70
0
 62
7
  6
CONTINUOUS
370
-3
390
F
  0
LAYER
  5
2E0
100
AcDbSymbolTableRecord
100
AcDbLayerTableRecord
  2
0402_R_REF_30000_81
 70
0
 62
7
  6
CONTINUOUS
370
-3
390
F
  0
LAYER
  5
2E1
100
AcDbSymbolTableRecord
100
AcDbLayerTableRecord
  2
0402_R_REF_30000_82
 70
0
 62
7
  6
CONTINUOUS
370
-3
390
F
  0
LAYER
  5
2E2
100
AcDbSymbolTableRecord
100
AcDbLayerTableRecord
  2
0402_R_REF_30000_83
 70
0
 62
7
  6
CONTINUOUS
370
-3
390
F
  0
LAYER
  5
2E3
100
AcDbSymbolTableRecord
100
AcDbLayerTableRecord
  2
0402_R_REF_30000_84
 70
0
 62
7
  6
CONTINUOUS
370
-3
390
F
  0
LAYER
  5
2E4
100
AcDbSymbolTableRecord
100
AcDbLayerTableRecord
  2
0402_R_REF_30000_85
 70
0
 62
7
  6
CONTINUOUS
370
-3
390
F
  0
LAYER
  5
2E5
100
AcDbSymbolTableRecord
100
AcDbLayerTableRecord
  2
0402_R_REF_30000_86
 70
0
 62
7
  6
CONTINUOUS
370
-3
390
F
  0
LAYER
  5
2E6
100
AcDbSymbolTableRecord
100
AcDbLayerTableRecord
  2
0402_R_REF_30000_87
 70
0
 62
7
  6
CONTINUOUS
370
-3
390
F
  0
LAYER
  5
2E7
100
AcDbSymbolTableRecord
100
AcDbLayerTableRecord
  2
0402_R_REF_30000_88
 70
0
 62
7
  6
CONTINUOUS
370
-3
390
F
  0
LAYER
  5
2E8
100
AcDbSymbolTableRecord
100
AcDbLayerTableRecord
  2
0402_R_REF_30000_89
 70
0
 62
7
  6
CONTINUOUS
370
-3
390
F
  0
LAYER
  5
2E9
100
AcDbSymbolTableRecord
100
AcDbLayerTableRecord
  2
0402_R_REF_30000_9
 70
0
 62
7
  6
CONTINUOUS
370
-3
390
F
  0
LAYER
  5
2EA
100
AcDbSymbolTableRecord
100
AcDbLayerTableRecord
  2
0402_R_REF_30000_90
 70
0
 62
7
  6
CONTINUOUS
370
-3
390
F
  0
LAYER
  5
2EB
100
AcDbSymbolTableRecord
100
AcDbLayerTableRecord
  2
0402_R_REF_30000_91
 70
0
 62
7
  6
CONTINUOUS
370
-3
390
F
  0
LAYER
  5
2EC
100
AcDbSymbolTableRecord
100
AcDbLayerTableRecord
  2
0402_R_REF_30000_92
 70
0
 62
7
  6
CONTINUOUS
370
-3
390
F
  0
LAYER
  5
2ED
100
AcDbSymbolTableRecord
100
AcDbLayerTableRecord
  2
0402_R_REF_30000_93
 70
0
 62
7
  6
CONTINUOUS
370
-3
390
F
  0
LAYER
  5
2EE
100
AcDbSymbolTableRecord
100
AcDbLayerTableRecord
  2
0402_R_REF_30000_94
 70
0
 62
7
  6
CONTINUOUS
370
-3
390
F
  0
LAYER
  5
2EF
100
AcDbSymbolTableRecord
100
AcDbLayerTableRecord
  2
0402_R_REF_30000_95
 70
0
 62
7
  6
CONTINUOUS
370
-3
390
F
  0
LAYER
  5
2F0
100
AcDbSymbolTableRecord
100
AcDbLayerTableRecord
  2
0402_R_REF_30000_96
 70
0
 62
7
  6
CONTINUOUS
370
-3
390
F
  0
LAYER
  5
2F1
100
AcDbSymbolTableRecord
100
AcDbLayerTableRecord
  2
0402_R_REF_30000_97
 70
0
 62
7
  6
CONTINUOUS
370
-3
390
F
  0
LAYER
  5
2F2
100
AcDbSymbolTableRecord
100
AcDbLayerTableRecord
  2
0402_R_REF_30000_98
 70
0
 62
7
  6
CONTINUOUS
370
-3
390
F
  0
LAYER
  5
2F3
100
AcDbSymbolTableRecord
100
AcDbLayerTableRecord
  2
0402_R_REF_30000_99
 70
0
 62
7
  6
CONTINUOUS
370
-3
390
F
  0
LAYER
  5
2F4
100
AcDbSymbolTableRecord
100
AcDbLayerTableRecord
  2
0603_C_REF_90000
 70
0
 62
7
  6
CONTINUOUS
370
-3
390
F
  0
LAYER
  5
2F5
100
AcDbSymbolTableRecord
100
AcDbLayerTableRecord
  2
0603_C_REF_90000_1
 70
0
 62
7
  6
CONTINUOUS
370
-3
390
F
  0
LAYER
  5
2F6
100
AcDbSymbolTableRecord
100
AcDbLayerTableRecord
  2
0603_C_REF_90000_10
 70
0
 62
7
  6
CONTINUOUS
370
-3
390
F
  0
LAYER
  5
2F7
100
AcDbSymbolTableRecord
100
AcDbLayerTableRecord
  2
0603_C_REF_90000_11
 70
0
 62
7
  6
CONTINUOUS
370
-3
390
F
  0
LAYER
  5
2F8
100
AcDbSymbolTableRecord
100
AcDbLayerTableRecord
  2
0603_C_REF_90000_12
 70
0
 62
7
  6
CONTINUOUS
370
-3
390
F
  0
LAYER
  5
2F9
100
AcDbSymbolTableRecord
100
AcDbLayerTableRecord
  2
0603_C_REF_90000_13
 70
0
 62
7
  6
CONTINUOUS
370
-3
390
F
  0
LAYER
  5
2FA
100
AcDbSymbolTableRecord
100
AcDbLayerTableRecord
  2
0603_C_REF_90000_14
 70
0
 62
7
  6
CONTINUOUS
370
-3
390
F
  0
LAYER
  5
2FB
100
AcDbSymbolTableRecord
100
AcDbLayerTableRecord
  2
0603_C_REF_90000_15
 70
0
 62
7
  6
CONTINUOUS
370
-3
390
F
  0
LAYER
  5
2FC
100
AcDbSymbolTableRecord
100
AcDbLayerTableRecord
  2
0603_C_REF_90000_16
 70
0
 62
7
  6
CONTINUOUS
370
-3
390
F
  0
LAYER
  5
2FD
100
AcDbSymbolTableRecord
100
AcDbLayerTableRecord
  2
0603_C_REF_90000_17
 70
0
 62
7
  6
CONTINUOUS
370
-3
390
F
  0
LAYER
  5
2FE
100
AcDbSymbolTableRecord
100
AcDbLayerTableRecord
  2
0603_C_REF_90000_18
 70
0
 62
7
  6
CONTINUOUS
370
-3
390
F
  0
LAYER
  5
2FF
100
AcDbSymbolTableRecord
100
AcDbLayerTableRecord
  2
0603_C_REF_90000_19
 70
0
 62
7
  6
CONTINUOUS
370
-3
390
F
  0
LAYER
  5
300
100
AcDbSymbolTableRecord
100
AcDbLayerTableRecord
  2
0603_C_REF_90000_2
 70
0
 62
7
  6
CONTINUOUS
370
-3
390
F
  0
LAYER
  5
301
100
AcDbSymbolTableRecord
100
AcDbLayerTableRecord
  2
0603_C_REF_90000_20
 70
0
 62
7
  6
CONTINUOUS
370
-3
390
F
  0
LAYER
  5
302
100
AcDbSymbolTableRecord
100
AcDbLayerTableRecord
  2
0603_C_REF_90000_21
 70
0
 62
7
  6
CONTINUOUS
370
-3
390
F
  0
LAYER
  5
303
100
AcDbSymbolTableRecord
100
AcDbLayerTableRecord
  2
0603_C_REF_90000_22
 70
0
 62
7
  6
CONTINUOUS
370
-3
390
F
  0
LAYER
  5
304
100
AcDbSymbolTableRecord
100
AcDbLayerTableRecord
  2
0603_C_REF_90000_23
 70
0
 62
7
  6
CONTINUOUS
370
-3
390
F
  0
LAYER
  5
305
100
AcDbSymbolTableRecord
100
AcDbLayerTableRecord
  2
0603_C_REF_90000_24
 70
0
 62
7
  6
CONTINUOUS
370
-3
390
F
  0
LAYER
  5
306
100
AcDbSymbolTableRecord
100
AcDbLayerTableRecord
  2
0603_C_REF_90000_25
 70
0
 62
7
  6
CONTINUOUS
370
-3
390
F
  0
LAYER
  5
307
100
AcDbSymbolTableRecord
100
AcDbLayerTableRecord
  2
0603_C_REF_90000_26
 70
0
 62
7
  6
CONTINUOUS
370
-3
390
F
  0
LAYER
  5
308
100
AcDbSymbolTableRecord
100
AcDbLayerTableRecord
  2
0603_C_REF_90000_27
 70
0
 62
7
  6
CONTINUOUS
370
-3
390
F
  0
LAYER
  5
309
100
AcDbSymbolTableRecord
100
AcDbLayerTableRecord
  2
0603_C_REF_90000_28
 70
0
 62
7
  6
CONTINUOUS
370
-3
390
F
  0
LAYER
  5
30A
100
AcDbSymbolTableRecord
100
AcDbLayerTableRecord
  2
0603_C_REF_90000_29
 70
0
 62
7
  6
CONTINUOUS
370
-3
390
F
  0
LAYER
  5
30B
100
AcDbSymbolTableRecord
100
AcDbLayerTableRecord
  2
0603_C_REF_90000_3
 70
0
 62
7
  6
CONTINUOUS
370
-3
390
F
  0
LAYER
  5
30C
100
AcDbSymbolTableRecord
100
AcDbLayerTableRecord
  2
0603_C_REF_90000_30
 70
0
 62
7
  6
CONTINUOUS
370
-3
390
F
  0
LAYER
  5
30D
100
AcDbSymbolTableRecord
100
AcDbLayerTableRecord
  2
0603_C_REF_90000_31
 70
0
 62
7
  6
CONTINUOUS
370
-3
390
F
  0
LAYER
  5
30E
100
AcDbSymbolTableRecord
100
AcDbLayerTableRecord
  2
0603_C_REF_90000_32
 70
0
 62
7
  6
CONTINUOUS
370
-3
390
F
  0
LAYER
  5
30F
100
AcDbSymbolTableRecord
100
AcDbLayerTableRecord
  2
0603_C_REF_90000_33
 70
0
 62
7
  6
CONTINUOUS
370
-3
390
F
  0
LAYER
  5
310
100
AcDbSymbolTableRecord
100
AcDbLayerTableRecord
  2
0603_C_REF_90000_34
 70
0
 62
7
  6
CONTINUOUS
370
-3
390
F
  0
LAYER
  5
311
100
AcDbSymbolTableRecord
100
AcDbLayerTableRecord
  2
0603_C_REF_90000_35
 70
0
 62
7
  6
CONTINUOUS
370
-3
390
F
  0
LAYER
  5
312
100
AcDbSymbolTableRecord
100
AcDbLayerTableRecord
  2
0603_C_REF_90000_36
 70
0
 62
7
  6
CONTINUOUS
370
-3
390
F
  0
LAYER
  5
313
100
AcDbSymbolTableRecord
100
AcDbLayerTableRecord
  2
0603_C_REF_90000_37
 70
0
 62
7
  6
CONTINUOUS
370
-3
390
F
  0
LAYER
  5
314
100
AcDbSymbolTableRecord
100
AcDbLayerTableRecord
  2
0603_C_REF_90000_38
 70
0
 62
7
  6
CONTINUOUS
370
-3
390
F
  0
LAYER
  5
315
100
AcDbSymbolTableRecord
100
AcDbLayerTableRecord
  2
0603_C_REF_90000_39
 70
0
 62
7
  6
CONTINUOUS
370
-3
390
F
  0
LAYER
  5
316
100
AcDbSymbolTableRecord
100
AcDbLayerTableRecord
  2
0603_C_REF_90000_4
 70
0
 62
7
  6
CONTINUOUS
370
-3
390
F
  0
LAYER
  5
317
100
AcDbSymbolTableRecord
100
AcDbLayerTableRecord
  2
0603_C_REF_90000_40
 70
0
 62
7
  6
CONTINUOUS
370
-3
390
F
  0
LAYER
  5
318
100
AcDbSymbolTableRecord
100
AcDbLayerTableRecord
  2
0603_C_REF_90000_41
 70
0
 62
7
  6
CONTINUOUS
370
-3
390
F
  0
LAYER
  5
319
100
AcDbSymbolTableRecord
100
AcDbLayerTableRecord
  2
0603_C_REF_90000_42
 70
0
 62
7
  6
CONTINUOUS
370
-3
390
F
  0
LAYER
  5
31A
100
AcDbSymbolTableRecord
100
AcDbLayerTableRecord
  2
0603_C_REF_90000_43
 70
0
 62
7
  6
CONTINUOUS
370
-3
390
F
  0
LAYER
  5
31B
100
AcDbSymbolTableRecord
100
AcDbLayerTableRecord
  2
0603_C_REF_90000_44
 70
0
 62
7
  6
CONTINUOUS
370
-3
390
F
  0
LAYER
  5
31C
100
AcDbSymbolTableRecord
100
AcDbLayerTableRecord
  2
0603_C_REF_90000_45
 70
0
 62
7
  6
CONTINUOUS
370
-3
390
F
  0
LAYER
  5
31D
100
AcDbSymbolTableRecord
100
AcDbLayerTableRecord
  2
0603_C_REF_90000_46
 70
0
 62
7
  6
CONTINUOUS
370
-3
390
F
  0
LAYER
  5
31E
100
AcDbSymbolTableRecord
100
AcDbLayerTableRecord
  2
0603_C_REF_90000_47
 70
0
 62
7
  6
CONTINUOUS
370
-3
390
F
  0
LAYER
  5
31F
100
AcDbSymbolTableRecord
100
AcDbLayerTableRecord
  2
0603_C_REF_90000_48
 70
0
 62
7
  6
CONTINUOUS
370
-3
390
F
  0
LAYER
  5
320
100
AcDbSymbolTableRecord
100
AcDbLayerTableRecord
  2
0603_C_REF_90000_49
 70
0
 62
7
  6
CONTINUOUS
370
-3
390
F
  0
LAYER
  5
321
100
AcDbSymbolTableRecord
100
AcDbLayerTableRecord
  2
0603_C_REF_90000_5
 70
0
 62
7
  6
CONTINUOUS
370
-3
390
F
  0
LAYER
  5
322
100
AcDbSymbolTableRecord
100
AcDbLayerTableRecord
  2
0603_C_REF_90000_50
 70
0
 62
7
  6
CONTINUOUS
370
-3
390
F
  0
LAYER
  5
323
100
AcDbSymbolTableRecord
100
AcDbLayerTableRecord
  2
0603_C_REF_90000_51
 70
0
 62
7
  6
CONTINUOUS
370
-3
390
F
  0
LAYER
  5
324
100
AcDbSymbolTableRecord
100
AcDbLayerTableRecord
  2
0603_C_REF_90000_52
 70
0
 62
7
  6
CONTINUOUS
370
-3
390
F
  0
LAYER
  5
325
100
AcDbSymbolTableRecord
100
AcDbLayerTableRecord
  2
0603_C_REF_90000_53
 70
0
 62
7
  6
CONTINUOUS
370
-3
390
F
  0
LAYER
  5
326
100
AcDbSymbolTableRecord
100
AcDbLayerTableRecord
  2
0603_C_REF_90000_54
 70
0
 62
7
  6
CONTINUOUS
370
-3
390
F
  0
LAYER
  5
327
100
AcDbSymbolTableRecord
100
AcDbLayerTableRecord
  2
0603_C_REF_90000_55
 70
0
 62
7
  6
CONTINUOUS
370
-3
390
F
  0
LAYER
  5
328
100
AcDbSymbolTableRecord
100
AcDbLayerTableRecord
  2
0603_C_REF_90000_56
 70
0
 62
7
  6
CONTINUOUS
370
-3
390
F
  0
LAYER
  5
329
100
AcDbSymbolTableRecord
100
AcDbLayerTableRecord
  2
0603_C_REF_90000_57
 70
0
 62
7
  6
CONTINUOUS
370
-3
390
F
  0
LAYER
  5
32A
100
AcDbSymbolTableRecord
100
AcDbLayerTableRecord
  2
0603_C_REF_90000_58
 70
0
 62
7
  6
CONTINUOUS
370
-3
390
F
  0
LAYER
  5
32B
100
AcDbSymbolTableRecord
100
AcDbLayerTableRecord
  2
0603_C_REF_90000_59
 70
0
 62
7
  6
CONTINUOUS
370
-3
390
F
  0
LAYER
  5
32C
100
AcDbSymbolTableRecord
100
AcDbLayerTableRecord
  2
0603_C_REF_90000_6
 70
0
 62
7
  6
CONTINUOUS
370
-3
390
F
  0
LAYER
  5
32D
100
AcDbSymbolTableRecord
100
AcDbLayerTableRecord
  2
0603_C_REF_90000_60
 70
0
 62
7
  6
CONTINUOUS
370
-3
390
F
  0
LAYER
  5
32E
100
AcDbSymbolTableRecord
100
AcDbLayerTableRecord
  2
0603_C_REF_90000_61
 70
0
 62
7
  6
CONTINUOUS
370
-3
390
F
  0
LAYER
  5
32F
100
AcDbSymbolTableRecord
100
AcDbLayerTableRecord
  2
0603_C_REF_90000_62
 70
0
 62
7
  6
CONTINUOUS
370
-3
390
F
  0
LAYER
  5
330
100
AcDbSymbolTableRecord
100
AcDbLayerTableRecord
  2
0603_C_REF_90000_63
 70
0
 62
7
  6
CONTINUOUS
370
-3
390
F
  0
LAYER
  5
331
100
AcDbSymbolTableRecord
100
AcDbLayerTableRecord
  2
0603_C_REF_90000_64
 70
0
 62
7
  6
CONTINUOUS
370
-3
390
F
  0
LAYER
  5
332
100
AcDbSymbolTableRecord
100
AcDbLayerTableRecord
  2
0603_C_REF_90000_65
 70
0
 62
7
  6
CONTINUOUS
370
-3
390
F
  0
LAYER
  5
333
100
AcDbSymbolTableRecord
100
AcDbLayerTableRecord
  2
0603_C_REF_90000_66
 70
0
 62
7
  6
CONTINUOUS
370
-3
390
F
  0
LAYER
  5
334
100
AcDbSymbolTableRecord
100
AcDbLayerTableRecord
  2
0603_C_REF_90000_67
 70
0
 62
7
  6
CONTINUOUS
370
-3
390
F
  0
LAYER
  5
335
100
AcDbSymbolTableRecord
100
AcDbLayerTableRecord
  2
0603_C_REF_90000_68
 70
0
 62
7
  6
CONTINUOUS
370
-3
390
F
  0
LAYER
  5
336
100
AcDbSymbolTableRecord
100
AcDbLayerTableRecord
  2
0603_C_REF_90000_69
 70
0
 62
7
  6
CONTINUOUS
370
-3
390
F
  0
LAYER
  5
337
100
AcDbSymbolTableRecord
100
AcDbLayerTableRecord
  2
0603_C_REF_90000_7
 70
0
 62
7
  6
CONTINUOUS
370
-3
390
F
  0
LAYER
  5
338
100
AcDbSymbolTableRecord
100
AcDbLayerTableRecord
  2
0603_C_REF_90000_70
 70
0
 62
7
  6
CONTINUOUS
370
-3
390
F
  0
LAYER
  5
339
100
AcDbSymbolTableRecord
100
AcDbLayerTableRecord
  2
0603_C_REF_90000_71
 70
0
 62
7
  6
CONTINUOUS
370
-3
390
F
  0
LAYER
  5
33A
100
AcDbSymbolTableRecord
100
AcDbLayerTableRecord
  2
0603_C_REF_90000_72
 70
0
 62
7
  6
CONTINUOUS
370
-3
390
F
  0
LAYER
  5
33B
100
AcDbSymbolTableRecord
100
AcDbLayerTableRecord
  2
0603_C_REF_90000_73
 70
0
 62
7
  6
CONTINUOUS
370
-3
390
F
  0
LAYER
  5
33C
100
AcDbSymbolTableRecord
100
AcDbLayerTableRecord
  2
0603_C_REF_90000_74
 70
0
 62
7
  6
CONTINUOUS
370
-3
390
F
  0
LAYER
  5
33D
100
AcDbSymbolTableRecord
100
AcDbLayerTableRecord
  2
0603_C_REF_90000_75
 70
0
 62
7
  6
CONTINUOUS
370
-3
390
F
  0
LAYER
  5
33E
100
AcDbSymbolTableRecord
100
AcDbLayerTableRecord
  2
0603_C_REF_90000_76
 70
0
 62
7
  6
CONTINUOUS
370
-3
390
F
  0
LAYER
  5
33F
100
AcDbSymbolTableRecord
100
AcDbLayerTableRecord
  2
0603_C_REF_90000_77
 70
0
 62
7
  6
CONTINUOUS
370
-3
390
F
  0
LAYER
  5
340
100
AcDbSymbolTableRecord
100
AcDbLayerTableRecord
  2
0603_C_REF_90000_78
 70
0
 62
7
  6
CONTINUOUS
370
-3
390
F
  0
LAYER
  5
341
100
AcDbSymbolTableRecord
100
AcDbLayerTableRecord
  2
0603_C_REF_90000_79
 70
0
 62
7
  6
CONTINUOUS
370
-3
390
F
  0
LAYER
  5
342
100
AcDbSymbolTableRecord
100
AcDbLayerTableRecord
  2
0603_C_REF_90000_8
 70
0
 62
7
  6
CONTINUOUS
370
-3
390
F
  0
LAYER
  5
343
100
AcDbSymbolTableRecord
100
AcDbLayerTableRecord
  2
0603_C_REF_90000_80
 70
0
 62
7
  6
CONTINUOUS
370
-3
390
F
  0
LAYER
  5
344
100
AcDbSymbolTableRecord
100
AcDbLayerTableRecord
  2
0603_C_REF_90000_81
 70
0
 62
7
  6
CONTINUOUS
370
-3
390
F
  0
LAYER
  5
345
100
AcDbSymbolTableRecord
100
AcDbLayerTableRecord
  2
0603_C_REF_90000_82
 70
0
 62
7
  6
CONTINUOUS
370
-3
390
F
  0
LAYER
  5
346
100
AcDbSymbolTableRecord
100
AcDbLayerTableRecord
  2
0603_C_REF_90000_83
 70
0
 62
7
  6
CONTINUOUS
370
-3
390
F
  0
LAYER
  5
347
100
AcDbSymbolTableRecord
100
AcDbLayerTableRecord
  2
0603_C_REF_90000_84
 70
0
 62
7
  6
CONTINUOUS
370
-3
390
F
  0
LAYER
  5
348
100
AcDbSymbolTableRecord
100
AcDbLayerTableRecord
  2
0603_C_REF_90000_85
 70
0
 62
7
  6
CONTINUOUS
370
-3
390
F
  0
LAYER
  5
349
100
AcDbSymbolTableRecord
100
AcDbLayerTableRecord
  2
0603_C_REF_90000_9
 70
0
 62
7
  6
CONTINUOUS
370
-3
390
F
  0
LAYER
  5
34A
100
AcDbSymbolTableRecord
100
AcDbLayerTableRecord
  2
0603_R_REF_55000
 70
0
 62
7
  6
CONTINUOUS
370
-3
390
F
  0
LAYER
  5
34B
100
AcDbSymbolTableRecord
100
AcDbLayerTableRecord
  2
0603_R_REF_55000_1
 70
0
 62
7
  6
CONTINUOUS
370
-3
390
F
  0
LAYER
  5
34C
100
AcDbSymbolTableRecord
100
AcDbLayerTableRecord
  2
0603_R_REF_55000_10
 70
0
 62
7
  6
CONTINUOUS
370
-3
390
F
  0
LAYER
  5
34D
100
AcDbSymbolTableRecord
100
AcDbLayerTableRecord
  2
0603_R_REF_55000_11
 70
0
 62
7
  6
CONTINUOUS
370
-3
390
F
  0
LAYER
  5
34E
100
AcDbSymbolTableRecord
100
AcDbLayerTableRecord
  2
0603_R_REF_55000_12
 70
0
 62
7
  6
CONTINUOUS
370
-3
390
F
  0
LAYER
  5
34F
100
AcDbSymbolTableRecord
100
AcDbLayerTableRecord
  2
0603_R_REF_55000_13
 70
0
 62
7
  6
CONTINUOUS
370
-3
390
F
  0
LAYER
  5
350
100
AcDbSymbolTableRecord
100
AcDbLayerTableRecord
  2
0603_R_REF_55000_14
 70
0
 62
7
  6
CONTINUOUS
370
-3
390
F
  0
LAYER
  5
351
100
AcDbSymbolTableRecord
100
AcDbLayerTableRecord
  2
0603_R_REF_55000_15
 70
0
 62
7
  6
CONTINUOUS
370
-3
390
F
  0
LAYER
  5
352
100
AcDbSymbolTableRecord
100
AcDbLayerTableRecord
  2
0603_R_REF_55000_16
 70
0
 62
7
  6
CONTINUOUS
370
-3
390
F
  0
LAYER
  5
353
100
AcDbSymbolTableRecord
100
AcDbLayerTableRecord
  2
0603_R_REF_55000_17
 70
0
 62
7
  6
CONTINUOUS
370
-3
390
F
  0
LAYER
  5
354
100
AcDbSymbolTableRecord
100
AcDbLayerTableRecord
  2
0603_R_REF_55000_18
 70
0
 62
7
  6
CONTINUOUS
370
-3
390
F
  0
LAYER
  5
355
100
AcDbSymbolTableRecord
100
AcDbLayerTableRecord
  2
0603_R_REF_55000_19
 70
0
 62
7
  6
CONTINUOUS
370
-3
390
F
  0
LAYER
  5
356
100
AcDbSymbolTableRecord
100
AcDbLayerTableRecord
  2
0603_R_REF_55000_2
 70
0
 62
7
  6
CONTINUOUS
370
-3
390
F
  0
LAYER
  5
357
100
AcDbSymbolTableRecord
100
AcDbLayerTableRecord
  2
0603_R_REF_55000_20
 70
0
 62
7
  6
CONTINUOUS
370
-3
390
F
  0
LAYER
  5
358
100
AcDbSymbolTableRecord
100
AcDbLayerTableRecord
  2
0603_R_REF_55000_21
 70
0
 62
7
  6
CONTINUOUS
370
-3
390
F
  0
LAYER
  5
359
100
AcDbSymbolTableRecord
100
AcDbLayerTableRecord
  2
0603_R_REF_55000_22
 70
0
 62
7
  6
CONTINUOUS
370
-3
390
F
  0
LAYER
  5
35A
100
AcDbSymbolTableRecord
100
AcDbLayerTableRecord
  2
0603_R_REF_55000_23
 70
0
 62
7
  6
CONTINUOUS
370
-3
390
F
  0
LAYER
  5
35B
100
AcDbSymbolTableRecord
100
AcDbLayerTableRecord
  2
0603_R_REF_55000_24
 70
0
 62
7
  6
CONTINUOUS
370
-3
390
F
  0
LAYER
  5
35C
100
AcDbSymbolTableRecord
100
AcDbLayerTableRecord
  2
0603_R_REF_55000_25
 70
0
 62
7
  6
CONTINUOUS
370
-3
390
F
  0
LAYER
  5
35D
100
AcDbSymbolTableRecord
100
AcDbLayerTableRecord
  2
0603_R_REF_55000_26
 70
0
 62
7
  6
CONTINUOUS
370
-3
390
F
  0
LAYER
  5
35E
100
AcDbSymbolTableRecord
100
AcDbLayerTableRecord
  2
0603_R_REF_55000_27
 70
0
 62
7
  6
CONTINUOUS
370
-3
390
F
  0
LAYER
  5
35F
100
AcDbSymbolTableRecord
100
AcDbLayerTableRecord
  2
0603_R_REF_55000_28
 70
0
 62
7
  6
CONTINUOUS
370
-3
390
F
  0
LAYER
  5
360
100
AcDbSymbolTableRecord
100
AcDbLayerTableRecord
  2
0603_R_REF_55000_29
 70
0
 62
7
  6
CONTINUOUS
370
-3
390
F
  0
LAYER
  5
361
100
AcDbSymbolTableRecord
100
AcDbLayerTableRecord
  2
0603_R_REF_55000_3
 70
0
 62
7
  6
CONTINUOUS
370
-3
390
F
  0
LAYER
  5
362
100
AcDbSymbolTableRecord
100
AcDbLayerTableRecord
  2
0603_R_REF_55000_30
 70
0
 62
7
  6
CONTINUOUS
370
-3
390
F
  0
LAYER
  5
363
100
AcDbSymbolTableRecord
100
AcDbLayerTableRecord
  2
0603_R_REF_55000_31
 70
0
 62
7
  6
CONTINUOUS
370
-3
390
F
  0
LAYER
  5
364
100
AcDbSymbolTableRecord
100
AcDbLayerTableRecord
  2
0603_R_REF_55000_32
 70
0
 62
7
  6
CONTINUOUS
370
-3
390
F
  0
LAYER
  5
365
100
AcDbSymbolTableRecord
100
AcDbLayerTableRecord
  2
0603_R_REF_55000_33
 70
0
 62
7
  6
CONTINUOUS
370
-3
390
F
  0
LAYER
  5
366
100
AcDbSymbolTableRecord
100
AcDbLayerTableRecord
  2
0603_R_REF_55000_34
 70
0
 62
7
  6
CONTINUOUS
370
-3
390
F
  0
LAYER
  5
367
100
AcDbSymbolTableRecord
100
AcDbLayerTableRecord
  2
0603_R_REF_55000_35
 70
0
 62
7
  6
CONTINUOUS
370
-3
390
F
  0
LAYER
  5
368
100
AcDbSymbolTableRecord
100
AcDbLayerTableRecord
  2
0603_R_REF_55000_36
 70
0
 62
7
  6
CONTINUOUS
370
-3
390
F
  0
LAYER
  5
369
100
AcDbSymbolTableRecord
100
AcDbLayerTableRecord
  2
0603_R_REF_55000_37
 70
0
 62
7
  6
CONTINUOUS
370
-3
390
F
  0
LAYER
  5
36A
100
AcDbSymbolTableRecord
100
AcDbLayerTableRecord
  2
0603_R_REF_55000_38
 70
0
 62
7
  6
CONTINUOUS
370
-3
390
F
  0
LAYER
  5
36B
100
AcDbSymbolTableRecord
100
AcDbLayerTableRecord
  2
0603_R_REF_55000_39
 70
0
 62
7
  6
CONTINUOUS
370
-3
390
F
  0
LAYER
  5
36C
100
AcDbSymbolTableRecord
100
AcDbLayerTableRecord
  2
0603_R_REF_55000_4
 70
0
 62
7
  6
CONTINUOUS
370
-3
390
F
  0
LAYER
  5
36D
100
AcDbSymbolTableRecord
100
AcDbLayerTableRecord
  2
0603_R_REF_55000_40
 70
0
 62
7
  6
CONTINUOUS
370
-3
390
F
  0
LAYER
  5
36E
100
AcDbSymbolTableRecord
100
AcDbLayerTableRecord
  2
0603_R_REF_55000_41
 70
0
 62
7
  6
CONTINUOUS
370
-3
390
F
  0
LAYER
  5
36F
100
AcDbSymbolTableRecord
100
AcDbLayerTableRecord
  2
0603_R_REF_55000_42
 70
0
 62
7
  6
CONTINUOUS
370
-3
390
F
  0
LAYER
  5
370
100
AcDbSymbolTableRecord
100
AcDbLayerTableRecord
  2
0603_R_REF_55000_43
 70
0
 62
7
  6
CONTINUOUS
370
-3
390
F
  0
LAYER
  5
371
100
AcDbSymbolTableRecord
100
AcDbLayerTableRecord
  2
0603_R_REF_55000_44
 70
0
 62
7
  6
CONTINUOUS
370
-3
390
F
  0
LAYER
  5
372
100
AcDbSymbolTableRecord
100
AcDbLayerTableRecord
  2
0603_R_REF_55000_45
 70
0
 62
7
  6
CONTINUOUS
370
-3
390
F
  0
LAYER
  5
373
100
AcDbSymbolTableRecord
100
AcDbLayerTableRecord
  2
0603_R_REF_55000_46
 70
0
 62
7
  6
CONTINUOUS
370
-3
390
F
  0
LAYER
  5
374
100
AcDbSymbolTableRecord
100
AcDbLayerTableRecord
  2
0603_R_REF_55000_47
 70
0
 62
7
  6
CONTINUOUS
370
-3
390
F
  0
LAYER
  5
375
100
AcDbSymbolTableRecord
100
AcDbLayerTableRecord
  2
0603_R_REF_55000_48
 70
0
 62
7
  6
CONTINUOUS
370
-3
390
F
  0
LAYER
  5
376
100
AcDbSymbolTableRecord
100
AcDbLayerTableRecord
  2
0603_R_REF_55000_49
 70
0
 62
7
  6
CONTINUOUS
370
-3
390
F
  0
LAYER
  5
377
100
AcDbSymbolTableRecord
100
AcDbLayerTableRecord
  2
0603_R_REF_55000_5
 70
0
 62
7
  6
CONTINUOUS
370
-3
390
F
  0
LAYER
  5
378
100
AcDbSymbolTableRecord
100
AcDbLayerTableRecord
  2
0603_R_REF_55000_50
 70
0
 62
7
  6
CONTINUOUS
370
-3
390
F
  0
LAYER
  5
379
100
AcDbSymbolTableRecord
100
AcDbLayerTableRecord
  2
0603_R_REF_55000_51
 70
0
 62
7
  6
CONTINUOUS
370
-3
390
F
  0
LAYER
  5
37A
100
AcDbSymbolTableRecord
100
AcDbLayerTableRecord
  2
0603_R_REF_55000_52
 70
0
 62
7
  6
CONTINUOUS
370
-3
390
F
  0
LAYER
  5
37B
100
AcDbSymbolTableRecord
100
AcDbLayerTableRecord
  2
0603_R_REF_55000_53
 70
0
 62
7
  6
CONTINUOUS
370
-3
390
F
  0
LAYER
  5
37C
100
AcDbSymbolTableRecord
100
AcDbLayerTableRecord
  2
0603_R_REF_55000_54
 70
0
 62
7
  6
CONTINUOUS
370
-3
390
F
  0
LAYER
  5
37D
100
AcDbSymbolTableRecord
100
AcDbLayerTableRecord
  2
0603_R_REF_55000_55
 70
0
 62
7
  6
CONTINUOUS
370
-3
390
F
  0
LAYER
  5
37E
100
AcDbSymbolTableRecord
100
AcDbLayerTableRecord
  2
0603_R_REF_55000_56
 70
0
 62
7
  6
CONTINUOUS
370
-3
390
F
  0
LAYER
  5
37F
100
AcDbSymbolTableRecord
100
AcDbLayerTableRecord
  2
0603_R_REF_55000_57
 70
0
 62
7
  6
CONTINUOUS
370
-3
390
F
  0
LAYER
  5
380
100
AcDbSymbolTableRecord
100
AcDbLayerTableRecord
  2
0603_R_REF_55000_58
 70
0
 62
7
  6
CONTINUOUS
370
-3
390
F
  0
LAYER
  5
381
100
AcDbSymbolTableRecord
100
AcDbLayerTableRecord
  2
0603_R_REF_55000_59
 70
0
 62
7
  6
CONTINUOUS
370
-3
390
F
  0
LAYER
  5
382
100
AcDbSymbolTableRecord
100
AcDbLayerTableRecord
  2
0603_R_REF_55000_6
 70
0
 62
7
  6
CONTINUOUS
370
-3
390
F
  0
LAYER
  5
383
100
AcDbSymbolTableRecord
100
AcDbLayerTableRecord
  2
0603_R_REF_55000_7
 70
0
 62
7
  6
CONTINUOUS
370
-3
390
F
  0
LAYER
  5
384
100
AcDbSymbolTableRecord
100
AcDbLayerTableRecord
  2
0603_R_REF_55000_8
 70
0
 62
7
  6
CONTINUOUS
370
-3
390
F
  0
LAYER
  5
385
100
AcDbSymbolTableRecord
100
AcDbLayerTableRecord
  2
0603_R_REF_55000_9
 70
0
 62
7
  6
CONTINUOUS
370
-3
390
F
  0
LAYER
  5
386
100
AcDbSymbolTableRecord
100
AcDbLayerTableRecord
  2
0612_ARRAY_C_YAGEO_130000
 70
0
 62
7
  6
CONTINUOUS
370
-3
390
F
  0
LAYER
  5
387
100
AcDbSymbolTableRecord
100
AcDbLayerTableRecord
  2
0612_ARRAY_C_YAGEO_130000_1
 70
0
 62
7
  6
CONTINUOUS
370
-3
390
F
  0
LAYER
  5
388
100
AcDbSymbolTableRecord
100
AcDbLayerTableRecord
  2
06___PRT_ALL_SURFS
 70
0
 62
7
  6
CONTINUOUS
370
-3
390
F
  0
LAYER
  5
389
100
AcDbSymbolTableRecord
100
AcDbLayerTableRecord
  2
06___PRT_ALL_SURFS_1
 70
0
 62
7
  6
CONTINUOUS
370
-3
390
F
  0
LAYER
  5
38A
100
AcDbSymbolTableRecord
100
AcDbLayerTableRecord
  2
06___PRT_ALL_SURFS_10
 70
0
 62
7
  6
CONTINUOUS
370
-3
390
F
  0
LAYER
  5
38B
100
AcDbSymbolTableRecord
100
AcDbLayerTableRecord
  2
06___PRT_ALL_SURFS_11
 70
0
 62
7
  6
CONTINUOUS
370
-3
390
F
  0
LAYER
  5
38C
100
AcDbSymbolTableRecord
100
AcDbLayerTableRecord
  2
06___PRT_ALL_SURFS_12
 70
0
 62
7
  6
CONTINUOUS
370
-3
390
F
  0
LAYER
  5
38D
100
AcDbSymbolTableRecord
100
AcDbLayerTableRecord
  2
06___PRT_ALL_SURFS_13
 70
0
 62
7
  6
CONTINUOUS
370
-3
390
F
  0
LAYER
  5
38E
100
AcDbSymbolTableRecord
100
AcDbLayerTableRecord
  2
06___PRT_ALL_SURFS_14
 70
0
 62
7
  6
CONTINUOUS
370
-3
390
F
  0
LAYER
  5
38F
100
AcDbSymbolTableRecord
100
AcDbLayerTableRecord
  2
06___PRT_ALL_SURFS_15
 70
0
 62
7
  6
CONTINUOUS
370
-3
390
F
  0
LAYER
  5
390
100
AcDbSymbolTableRecord
100
AcDbLayerTableRecord
  2
06___PRT_ALL_SURFS_16
 70
0
 62
7
  6
CONTINUOUS
370
-3
390
F
  0
LAYER
  5
391
100
AcDbSymbolTableRecord
100
AcDbLayerTableRecord
  2
06___PRT_ALL_SURFS_17
 70
0
 62
7
  6
CONTINUOUS
370
-3
390
F
  0
LAYER
  5
392
100
AcDbSymbolTableRecord
100
AcDbLayerTableRecord
  2
06___PRT_ALL_SURFS_19
 70
0
 62
7
  6
CONTINUOUS
370
-3
390
F
  0
LAYER
  5
393
100
AcDbSymbolTableRecord
100
AcDbLayerTableRecord
  2
06___PRT_ALL_SURFS_2
 70
0
 62
7
  6
CONTINUOUS
370
-3
390
F
  0
LAYER
  5
394
100
AcDbSymbolTableRecord
100
AcDbLayerTableRecord
  2
06___PRT_ALL_SURFS_20
 70
0
 62
7
  6
CONTINUOUS
370
-3
390
F
  0
LAYER
  5
395
100
AcDbSymbolTableRecord
100
AcDbLayerTableRecord
  2
06___PRT_ALL_SURFS_21
 70
0
 62
7
  6
CONTINUOUS
370
-3
390
F
  0
LAYER
  5
396
100
AcDbSymbolTableRecord
100
AcDbLayerTableRecord
  2
06___PRT_ALL_SURFS_22
 70
0
 62
7
  6
CONTINUOUS
370
-3
390
F
  0
LAYER
  5
397
100
AcDbSymbolTableRecord
100
AcDbLayerTableRecord
  2
06___PRT_ALL_SURFS_23
 70
0
 62
7
  6
CONTINUOUS
370
-3
390
F
  0
LAYER
  5
398
100
AcDbSymbolTableRecord
100
AcDbLayerTableRecord
  2
06___PRT_ALL_SURFS_24
 70
0
 62
7
  6
CONTINUOUS
370
-3
390
F
  0
LAYER
  5
399
100
AcDbSymbolTableRecord
100
AcDbLayerTableRecord
  2
06___PRT_ALL_SURFS_25
 70
0
 62
7
  6
CONTINUOUS
370
-3
390
F
  0
LAYER
  5
39A
100
AcDbSymbolTableRecord
100
AcDbLayerTableRecord
  2
06___PRT_ALL_SURFS_26
 70
0
 62
7
  6
CONTINUOUS
370
-3
390
F
  0
LAYER
  5
39B
100
AcDbSymbolTableRecord
100
AcDbLayerTableRecord
  2
06___PRT_ALL_SURFS_28
 70
0
 62
7
  6
CONTINUOUS
370
-3
390
F
  0
LAYER
  5
39C
100
AcDbSymbolTableRecord
100
AcDbLayerTableRecord
  2
06___PRT_ALL_SURFS_29
 70
0
 62
7
  6
CONTINUOUS
370
-3
390
F
  0
LAYER
  5
39D
100
AcDbSymbolTableRecord
100
AcDbLayerTableRecord
  2
06___PRT_ALL_SURFS_3
 70
0
 62
7
  6
CONTINUOUS
370
-3
390
F
  0
LAYER
  5
39E
100
AcDbSymbolTableRecord
100
AcDbLayerTableRecord
  2
06___PRT_ALL_SURFS_30
 70
0
 62
7
  6
CONTINUOUS
370
-3
390
F
  0
LAYER
  5
39F
100
AcDbSymbolTableRecord
100
AcDbLayerTableRecord
  2
06___PRT_ALL_SURFS_33
 70
0
 62
7
  6
CONTINUOUS
370
-3
390
F
  0
LAYER
  5
3A0
100
AcDbSymbolTableRecord
100
AcDbLayerTableRecord
  2
06___PRT_ALL_SURFS_34
 70
0
 62
7
  6
CONTINUOUS
370
-3
390
F
  0
LAYER
  5
3A1
100
AcDbSymbolTableRecord
100
AcDbLayerTableRecord
  2
06___PRT_ALL_SURFS_37
 70
0
 62
7
  6
CONTINUOUS
370
-3
390
F
  0
LAYER
  5
3A2
100
AcDbSymbolTableRecord
100
AcDbLayerTableRecord
  2
06___PRT_ALL_SURFS_38
 70
0
 62
7
  6
CONTINUOUS
370
-3
390
F
  0
LAYER
  5
3A3
100
AcDbSymbolTableRecord
100
AcDbLayerTableRecord
  2
06___PRT_ALL_SURFS_39
 70
0
 62
7
  6
CONTINUOUS
370
-3
390
F
  0
LAYER
  5
3A4
100
AcDbSymbolTableRecord
100
AcDbLayerTableRecord
  2
06___PRT_ALL_SURFS_4
 70
0
 62
7
  6
CONTINUOUS
370
-3
390
F
  0
LAYER
  5
3A5
100
AcDbSymbolTableRecord
100
AcDbLayerTableRecord
  2
06___PRT_ALL_SURFS_45
 70
0
 62
7
  6
CONTINUOUS
370
-3
390
F
  0
LAYER
  5
3A6
100
AcDbSymbolTableRecord
100
AcDbLayerTableRecord
  2
06___PRT_ALL_SURFS_46
 70
0
 62
7
  6
CONTINUOUS
370
-3
390
F
  0
LAYER
  5
3A7
100
AcDbSymbolTableRecord
100
AcDbLayerTableRecord
  2
06___PRT_ALL_SURFS_47
 70
0
 62
7
  6
CONTINUOUS
370
-3
390
F
  0
LAYER
  5
3A8
100
AcDbSymbolTableRecord
100
AcDbLayerTableRecord
  2
06___PRT_ALL_SURFS_49
 70
0
 62
7
  6
CONTINUOUS
370
-3
390
F
  0
LAYER
  5
3A9
100
AcDbSymbolTableRecord
100
AcDbLayerTableRecord
  2
06___PRT_ALL_SURFS_5
 70
0
 62
7
  6
CONTINUOUS
370
-3
390
F
  0
LAYER
  5
3AA
100
AcDbSymbolTableRecord
100
AcDbLayerTableRecord
  2
06___PRT_ALL_SURFS_54
 70
0
 62
7
  6
CONTINUOUS
370
-3
390
F
  0
LAYER
  5
3AB
100
AcDbSymbolTableRecord
100
AcDbLayerTableRecord
  2
06___PRT_ALL_SURFS_55
 70
0
 62
7
  6
CONTINUOUS
370
-3
390
F
  0
LAYER
  5
3AC
100
AcDbSymbolTableRecord
100
AcDbLayerTableRecord
  2
06___PRT_ALL_SURFS_57
 70
0
 62
7
  6
CONTINUOUS
370
-3
390
F
  0
LAYER
  5
3AD
100
AcDbSymbolTableRecord
100
AcDbLayerTableRecord
  2
06___PRT_ALL_SURFS_6
 70
0
 62
7
  6
CONTINUOUS
370
-3
390
F
  0
LAYER
  5
3AE
100
AcDbSymbolTableRecord
100
AcDbLayerTableRecord
  2
06___PRT_ALL_SURFS_62
 70
0
 62
7
  6
CONTINUOUS
370
-3
390
F
  0
LAYER
  5
3AF
100
AcDbSymbolTableRecord
100
AcDbLayerTableRecord
  2
06___PRT_ALL_SURFS_65
 70
0
 62
7
  6
CONTINUOUS
370
-3
390
F
  0
LAYER
  5
3B0
100
AcDbSymbolTableRecord
100
AcDbLayerTableRecord
  2
06___PRT_ALL_SURFS_69
 70
0
 62
7
  6
CONTINUOUS
370
-3
390
F
  0
LAYER
  5
3B1
100
AcDbSymbolTableRecord
100
AcDbLayerTableRecord
  2
06___PRT_ALL_SURFS_7
 70
0
 62
7
  6
CONTINUOUS
370
-3
390
F
  0
LAYER
  5
3B2
100
AcDbSymbolTableRecord
100
AcDbLayerTableRecord
  2
06___PRT_ALL_SURFS_70
 70
0
 62
7
  6
CONTINUOUS
370
-3
390
F
  0
LAYER
  5
3B3
100
AcDbSymbolTableRecord
100
AcDbLayerTableRecord
  2
06___PRT_ALL_SURFS_71
 70
0
 62
7
  6
CONTINUOUS
370
-3
390
F
  0
LAYER
  5
3B4
100
AcDbSymbolTableRecord
100
AcDbLayerTableRecord
  2
06___PRT_ALL_SURFS_72
 70
0
 62
7
  6
CONTINUOUS
370
-3
390
F
  0
LAYER
  5
3B5
100
AcDbSymbolTableRecord
100
AcDbLayerTableRecord
  2
06___PRT_ALL_SURFS_73
 70
0
 62
7
  6
CONTINUOUS
370
-3
390
F
  0
LAYER
  5
3B6
100
AcDbSymbolTableRecord
100
AcDbLayerTableRecord
  2
06___PRT_ALL_SURFS_74
 70
0
 62
7
  6
CONTINUOUS
370
-3
390
F
  0
LAYER
  5
3B7
100
AcDbSymbolTableRecord
100
AcDbLayerTableRecord
  2
06___PRT_ALL_SURFS_8
 70
0
 62
7
  6
CONTINUOUS
370
-3
390
F
  0
LAYER
  5
3B8
100
AcDbSymbolTableRecord
100
AcDbLayerTableRecord
  2
06___PRT_ALL_SURFS_9
 70
0
 62
7
  6
CONTINUOUS
370
-3
390
F
  0
LAYER
  5
3B9
100
AcDbSymbolTableRecord
100
AcDbLayerTableRecord
  2
0805_C_REF_145000
 70
0
 62
7
  6
CONTINUOUS
370
-3
390
F
  0
LAYER
  5
3BA
100
AcDbSymbolTableRecord
100
AcDbLayerTableRecord
  2
0805_C_REF_145000_1
 70
0
 62
7
  6
CONTINUOUS
370
-3
390
F
  0
LAYER
  5
3BB
100
AcDbSymbolTableRecord
100
AcDbLayerTableRecord
  2
0805_C_REF_145000_10
 70
0
 62
7
  6
CONTINUOUS
370
-3
390
F
  0
LAYER
  5
3BC
100
AcDbSymbolTableRecord
100
AcDbLayerTableRecord
  2
0805_C_REF_145000_11
 70
0
 62
7
  6
CONTINUOUS
370
-3
390
F
  0
LAYER
  5
3BD
100
AcDbSymbolTableRecord
100
AcDbLayerTableRecord
  2
0805_C_REF_145000_2
 70
0
 62
7
  6
CONTINUOUS
370
-3
390
F
  0
LAYER
  5
3BE
100
AcDbSymbolTableRecord
100
AcDbLayerTableRecord
  2
0805_C_REF_145000_3
 70
0
 62
7
  6
CONTINUOUS
370
-3
390
F
  0
LAYER
  5
3BF
100
AcDbSymbolTableRecord
100
AcDbLayerTableRecord
  2
0805_C_REF_145000_4
 70
0
 62
7
  6
CONTINUOUS
370
-3
390
F
  0
LAYER
  5
3C0
100
AcDbSymbolTableRecord
100
AcDbLayerTableRecord
  2
0805_C_REF_145000_5
 70
0
 62
7
  6
CONTINUOUS
370
-3
390
F
  0
LAYER
  5
3C1
100
AcDbSymbolTableRecord
100
AcDbLayerTableRecord
  2
0805_C_REF_145000_6
 70
0
 62
7
  6
CONTINUOUS
370
-3
390
F
  0
LAYER
  5
3C2
100
AcDbSymbolTableRecord
100
AcDbLayerTableRecord
  2
0805_C_REF_145000_7
 70
0
 62
7
  6
CONTINUOUS
370
-3
390
F
  0
LAYER
  5
3C3
100
AcDbSymbolTableRecord
100
AcDbLayerTableRecord
  2
0805_C_REF_145000_8
 70
0
 62
7
  6
CONTINUOUS
370
-3
390
F
  0
LAYER
  5
3C4
100
AcDbSymbolTableRecord
100
AcDbLayerTableRecord
  2
0805_C_REF_145000_9
 70
0
 62
7
  6
CONTINUOUS
370
-3
390
F
  0
LAYER
  5
3C5
100
AcDbSymbolTableRecord
100
AcDbLayerTableRecord
  2
0805_C_WAVE_145000
 70
0
 62
7
  6
CONTINUOUS
370
-3
390
F
  0
LAYER
  5
3C6
100
AcDbSymbolTableRecord
100
AcDbLayerTableRecord
  2
0805_R_REF_60000
 70
0
 62
7
  6
CONTINUOUS
370
-3
390
F
  0
LAYER
  5
3C7
100
AcDbSymbolTableRecord
100
AcDbLayerTableRecord
  2
0805_R_REF_60000_1
 70
0
 62
7
  6
CONTINUOUS
370
-3
390
F
  0
LAYER
  5
3C8
100
AcDbSymbolTableRecord
100
AcDbLayerTableRecord
  2
0805_R_REF_60000_2
 70
0
 62
7
  6
CONTINUOUS
370
-3
390
F
  0
LAYER
  5
3C9
100
AcDbSymbolTableRecord
100
AcDbLayerTableRecord
  2
0805_R_REF_60000_3
 70
0
 62
7
  6
CONTINUOUS
370
-3
390
F
  0
LAYER
  5
3CA
100
AcDbSymbolTableRecord
100
AcDbLayerTableRecord
  2
0805_R_REF_60000_4
 70
0
 62
7
  6
CONTINUOUS
370
-3
390
F
  0
LAYER
  5
3CB
100
AcDbSymbolTableRecord
100
AcDbLayerTableRecord
  2
0805_R_REF_60000_5
 70
0
 62
7
  6
CONTINUOUS
370
-3
390
F
  0
LAYER
  5
3CC
100
AcDbSymbolTableRecord
100
AcDbLayerTableRecord
  2
0805_R_WAVE_60000
 70
0
 62
7
  6
CONTINUOUS
370
-3
390
F
  0
LAYER
  5
3CD
100
AcDbSymbolTableRecord
100
AcDbLayerTableRecord
  2
0805_R_WAVE_60000_1
 70
0
 62
7
  6
CONTINUOUS
370
-3
390
F
  0
LAYER
  5
3CE
100
AcDbSymbolTableRecord
100
AcDbLayerTableRecord
  2
1206_C_REF_180000
 70
0
 62
7
  6
CONTINUOUS
370
-3
390
F
  0
LAYER
  5
3CF
100
AcDbSymbolTableRecord
100
AcDbLayerTableRecord
  2
1206_C_REF_180000_1
 70
0
 62
7
  6
CONTINUOUS
370
-3
390
F
  0
LAYER
  5
3D0
100
AcDbSymbolTableRecord
100
AcDbLayerTableRecord
  2
1206_C_REF_180000_10
 70
0
 62
7
  6
CONTINUOUS
370
-3
390
F
  0
LAYER
  5
3D1
100
AcDbSymbolTableRecord
100
AcDbLayerTableRecord
  2
1206_C_REF_180000_11
 70
0
 62
7
  6
CONTINUOUS
370
-3
390
F
  0
LAYER
  5
3D2
100
AcDbSymbolTableRecord
100
AcDbLayerTableRecord
  2
1206_C_REF_180000_2
 70
0
 62
7
  6
CONTINUOUS
370
-3
390
F
  0
LAYER
  5
3D3
100
AcDbSymbolTableRecord
100
AcDbLayerTableRecord
  2
1206_C_REF_180000_3
 70
0
 62
7
  6
CONTINUOUS
370
-3
390
F
  0
LAYER
  5
3D4
100
AcDbSymbolTableRecord
100
AcDbLayerTableRecord
  2
1206_C_REF_180000_4
 70
0
 62
7
  6
CONTINUOUS
370
-3
390
F
  0
LAYER
  5
3D5
100
AcDbSymbolTableRecord
100
AcDbLayerTableRecord
  2
1206_C_REF_180000_5
 70
0
 62
7
  6
CONTINUOUS
370
-3
390
F
  0
LAYER
  5
3D6
100
AcDbSymbolTableRecord
100
AcDbLayerTableRecord
  2
1206_C_REF_180000_6
 70
0
 62
7
  6
CONTINUOUS
370
-3
390
F
  0
LAYER
  5
3D7
100
AcDbSymbolTableRecord
100
AcDbLayerTableRecord
  2
1206_C_REF_180000_7
 70
0
 62
7
  6
CONTINUOUS
370
-3
390
F
  0
LAYER
  5
3D8
100
AcDbSymbolTableRecord
100
AcDbLayerTableRecord
  2
1206_C_REF_180000_8
 70
0
 62
7
  6
CONTINUOUS
370
-3
390
F
  0
LAYER
  5
3D9
100
AcDbSymbolTableRecord
100
AcDbLayerTableRecord
  2
1206_C_REF_180000_9
 70
0
 62
7
  6
CONTINUOUS
370
-3
390
F
  0
LAYER
  5
3DA
100
AcDbSymbolTableRecord
100
AcDbLayerTableRecord
  2
1206_R_REF_65000
 70
0
 62
7
  6
CONTINUOUS
370
-3
390
F
  0
LAYER
  5
3DB
100
AcDbSymbolTableRecord
100
AcDbLayerTableRecord
  2
1206_R_REF_65000_1
 70
0
 62
7
  6
CONTINUOUS
370
-3
390
F
  0
LAYER
  5
3DC
100
AcDbSymbolTableRecord
100
AcDbLayerTableRecord
  2
1206_R_REF_65000_10
 70
0
 62
7
  6
CONTINUOUS
370
-3
390
F
  0
LAYER
  5
3DD
100
AcDbSymbolTableRecord
100
AcDbLayerTableRecord
  2
1206_R_REF_65000_2
 70
0
 62
7
  6
CONTINUOUS
370
-3
390
F
  0
LAYER
  5
3DE
100
AcDbSymbolTableRecord
100
AcDbLayerTableRecord
  2
1206_R_REF_65000_3
 70
0
 62
7
  6
CONTINUOUS
370
-3
390
F
  0
LAYER
  5
3DF
100
AcDbSymbolTableRecord
100
AcDbLayerTableRecord
  2
1206_R_REF_65000_4
 70
0
 62
7
  6
CONTINUOUS
370
-3
390
F
  0
LAYER
  5
3E0
100
AcDbSymbolTableRecord
100
AcDbLayerTableRecord
  2
1206_R_REF_65000_5
 70
0
 62
7
  6
CONTINUOUS
370
-3
390
F
  0
LAYER
  5
3E1
100
AcDbSymbolTableRecord
100
AcDbLayerTableRecord
  2
1206_R_REF_65000_6
 70
0
 62
7
  6
CONTINUOUS
370
-3
390
F
  0
LAYER
  5
3E2
100
AcDbSymbolTableRecord
100
AcDbLayerTableRecord
  2
1206_R_REF_65000_7
 70
0
 62
7
  6
CONTINUOUS
370
-3
390
F
  0
LAYER
  5
3E3
100
AcDbSymbolTableRecord
100
AcDbLayerTableRecord
  2
1206_R_REF_65000_8
 70
0
 62
7
  6
CONTINUOUS
370
-3
390
F
  0
LAYER
  5
3E4
100
AcDbSymbolTableRecord
100
AcDbLayerTableRecord
  2
1206_R_REF_65000_9
 70
0
 62
7
  6
CONTINUOUS
370
-3
390
F
  0
LAYER
  5
3E5
100
AcDbSymbolTableRecord
100
AcDbLayerTableRecord
  2
1210_C_REF_250000
 70
0
 62
7
  6
CONTINUOUS
370
-3
390
F
  0
LAYER
  5
3E6
100
AcDbSymbolTableRecord
100
AcDbLayerTableRecord
  2
1210_C_REF_250000_1
 70
0
 62
7
  6
CONTINUOUS
370
-3
390
F
  0
LAYER
  5
3E7
100
AcDbSymbolTableRecord
100
AcDbLayerTableRecord
  2
1210_C_REF_250000_2
 70
0
 62
7
  6
CONTINUOUS
370
-3
390
F
  0
LAYER
  5
3E8
100
AcDbSymbolTableRecord
100
AcDbLayerTableRecord
  2
1210_C_REF_250000_3
 70
0
 62
7
  6
CONTINUOUS
370
-3
390
F
  0
LAYER
  5
3E9
100
AcDbSymbolTableRecord
100
AcDbLayerTableRecord
  2
2512_R_REF_65000
 70
0
 62
7
  6
CONTINUOUS
370
-3
390
F
  0
LAYER
  5
3EA
100
AcDbSymbolTableRecord
100
AcDbLayerTableRecord
  2
43001028E0-NUOVI_PULSANTI
 70
0
 62
7
  6
CONTINUOUS
370
-3
390
F
  0
LAYER
  5
3EB
100
AcDbSymbolTableRecord
100
AcDbLayerTableRecord
  2
43001102A0
 70
0
 62
7
  6
CONTINUOUS
370
-3
390
F
  0
LAYER
  5
3EC
100
AcDbSymbolTableRecord
100
AcDbLayerTableRecord
  2
43901028B0
 70
0
 62
7
  6
CONTINUOUS
370
-3
390
F
  0
LAYER
  5
3ED
100
AcDbSymbolTableRecord
100
AcDbLayerTableRecord
  2
43901028C0
 70
0
 62
7
  6
CONTINUOUS
370
-3
390
F
  0
LAYER
  5
3EE
100
AcDbSymbolTableRecord
100
AcDbLayerTableRecord
  2
43901028D0
 70
0
 62
7
  6
CONTINUOUS
370
-3
390
F
  0
LAYER
  5
3EF
100
AcDbSymbolTableRecord
100
AcDbLayerTableRecord
  2
43901028H0
 70
0
 62
7
  6
CONTINUOUS
370
-3
390
F
  0
LAYER
  5
3F0
100
AcDbSymbolTableRecord
100
AcDbLayerTableRecord
  2
ASM0001
 70
0
 62
7
  6
CONTINUOUS
370
-3
390
F
  0
LAYER
  5
3F1
100
AcDbSymbolTableRecord
100
AcDbLayerTableRecord
  2
ASSI
 70
0
 62
7
  6
CONTINUOUS
370
-3
390
F
  0
LAYER
  5
3F2
100
AcDbSymbolTableRecord
100
AcDbLayerTableRecord
  2
BGA9-1_45-1_45-0_66-0_5_65000
 70
0
 62
7
  6
CONTINUOUS
370
-3
390
F
  0
LAYER
  5
3F3
100
AcDbSymbolTableRecord
100
AcDbLayerTableRecord
  2
CAP-E-6_3-11-2_5_1120000
 70
0
 62
7
  6
CONTINUOUS
370
-3
390
F
  0
LAYER
  5
3F4
100
AcDbSymbolTableRecord
100
AcDbLayerTableRecord
  2
CAP-E-6_3-11-2_5_1120000_1
 70
0
 62
7
  6
CONTINUOUS
370
-3
390
F
  0
LAYER
  5
3F5
100
AcDbSymbolTableRecord
100
AcDbLayerTableRecord
  2
CAP-E-SMD-10_5-10_5-10_0_105000
 70
0
 62
7
  6
CONTINUOUS
370
-3
390
F
  0
LAYER
  5
3F6
100
AcDbSymbolTableRecord
100
AcDbLayerTableRecord
  2
CAP-E-SMD-10_5-10_5-10_0_1050_1
 70
0
 62
7
  6
CONTINUOUS
370
-3
390
F
  0
LAYER
  5
3F7
100
AcDbSymbolTableRecord
100
AcDbLayerTableRecord
  2
CAP-E-SMD-10_5-10_5-10_0_1050_2
 70
0
 62
7
  6
CONTINUOUS
370
-3
390
F
  0
LAYER
  5
3F8
100
AcDbSymbolTableRecord
100
AcDbLayerTableRecord
  2
CAP-E-SMD-10_5-10_5-10_0_1050_3
 70
0
 62
7
  6
CONTINUOUS
370
-3
390
F
  0
LAYER
  5
3F9
100
AcDbSymbolTableRecord
100
AcDbLayerTableRecord
  2
CAP-E-SMD-6_6-6_3-7_7_810000
 70
0
 62
7
  6
CONTINUOUS
370
-3
390
F
  0
LAYER
  5
3FA
100
AcDbSymbolTableRecord
100
AcDbLayerTableRecord
  2
CAP-E-SMD-6_6-6_3-8_0_810000
 70
0
 62
7
  6
CONTINUOUS
370
-3
390
F
  0
LAYER
  5
3FB
100
AcDbSymbolTableRecord
100
AcDbLayerTableRecord
  2
CAPC320X160X135L50N_180000
 70
0
 62
7
  6
CONTINUOUS
370
-3
390
F
  0
LAYER
  5
3FC
100
AcDbSymbolTableRecord
100
AcDbLayerTableRecord
  2
CARRIER
 70
0
 62
7
  6
CONTINUOUS
370
-3
390
F
  0
LAYER
  5
3FD
100
AcDbSymbolTableRecord
100
AcDbLayerTableRecord
  2
CN8F_P2_SMD_GREENCONN_CSFC210-0
 70
0
 62
7
  6
CONTINUOUS
370
-3
390
F
  0
LAYER
  5
3FE
100
AcDbSymbolTableRecord
100
AcDbLayerTableRecord
  2
CN_JST_ZH_S2B-ZR-SM4A-TF_370000
 70
0
 62
7
  6
CONTINUOUS
370
-3
390
F
  0
LAYER
  5
3FF
100
AcDbSymbolTableRecord
100
AcDbLayerTableRecord
  2
CN_M_THT_P5_R1_P2_SET_1750000
 70
0
 62
7
  6
CONTINUOUS
370
-3
390
F
  0
LAYER
  5
400
100
AcDbSymbolTableRecord
100
AcDbLayerTableRecord
  2
CN_M_THT_P5_R1_P3_SET_1750000
 70
0
 62
7
  6
CONTINUOUS
370
-3
390
F
  0
LAYER
  5
401
100
AcDbSymbolTableRecord
100
AcDbLayerTableRecord
  2
CN_SMD_ZH_B2B-ZR-SM4_2P_P_1_5_T
 70
0
 62
7
  6
CONTINUOUS
370
-3
390
F
  0
LAYER
  5
402
100
AcDbSymbolTableRecord
100
AcDbLayerTableRecord
  2
CN_STRIP_M_THT_P2_54_R1_P2_TET_
 70
0
 62
7
  6
CONTINUOUS
370
-3
390
F
  0
LAYER
  5
403
100
AcDbSymbolTableRecord
100
AcDbLayerTableRecord
  2
CN_STRIP_THT_P2_54_R1_P3_TET_85
 70
0
 62
7
  6
CONTINUOUS
370
-3
390
F
  0
LAYER
  5
404
100
AcDbSymbolTableRecord
100
AcDbLayerTableRecord
  2
CN_THT_SAURO_MSB04001_R1_P4_SET
 70
0
 62
7
  6
CONTINUOUS
370
-3
390
F
  0
LAYER
  5
405
100
AcDbSymbolTableRecord
100
AcDbLayerTableRecord
  2
CN_THT_SAURO_MSB04001_R1_P4_S_1
 70
0
 62
7
  6
CONTINUOUS
370
-3
390
F
  0
LAYER
  5
406
100
AcDbSymbolTableRecord
100
AcDbLayerTableRecord
  2
COLOR10
 70
0
 62
7
  6
CONTINUOUS
370
-3
390
F
  0
LAYER
  5
407
100
AcDbSymbolTableRecord
100
AcDbLayerTableRecord
  2
COLOR15
 70
0
 62
7
  6
CONTINUOUS
370
-3
390
F
  0
LAYER
  5
408
100
AcDbSymbolTableRecord
100
AcDbLayerTableRecord
  2
COLOR159
 70
0
 62
7
  6
CONTINUOUS
370
-3
390
F
  0
LAYER
  5
409
100
AcDbSymbolTableRecord
100
AcDbLayerTableRecord
  2
COLOR16
 70
0
 62
7
  6
CONTINUOUS
370
-3
390
F
  0
LAYER
  5
40A
100
AcDbSymbolTableRecord
100
AcDbLayerTableRecord
  2
COLOR160
 70
0
 62
7
  6
CONTINUOUS
370
-3
390
F
  0
LAYER
  5
40B
100
AcDbSymbolTableRecord
100
AcDbLayerTableRecord
  2
COLOR163
 70
0
 62
7
  6
CONTINUOUS
370
-3
390
F
  0
LAYER
  5
40C
100
AcDbSymbolTableRecord
100
AcDbLayerTableRecord
  2
COLOR167
 70
0
 62
7
  6
CONTINUOUS
370
-3
390
F
  0
LAYER
  5
40D
100
AcDbSymbolTableRecord
100
AcDbLayerTableRecord
  2
COLOR17
 70
0
 62
7
  6
CONTINUOUS
370
-3
390
F
  0
LAYER
  5
40E
100
AcDbSymbolTableRecord
100
AcDbLayerTableRecord
  2
COLOR2
 70
0
 62
7
  6
CONTINUOUS
370
-3
390
F
  0
LAYER
  5
40F
100
AcDbSymbolTableRecord
100
AcDbLayerTableRecord
  2
COLOR200
 70
0
 62
7
  6
CONTINUOUS
370
-3
390
F
  0
LAYER
  5
410
100
AcDbSymbolTableRecord
100
AcDbLayerTableRecord
  2
COLOR203
 70
0
 62
7
  6
CONTINUOUS
370
-3
390
F
  0
LAYER
  5
411
100
AcDbSymbolTableRecord
100
AcDbLayerTableRecord
  2
COLOR207
 70
0
 62
7
  6
CONTINUOUS
370
-3
390
F
  0
LAYER
  5
412
100
AcDbSymbolTableRecord
100
AcDbLayerTableRecord
  2
COLOR21
 70
0
 62
7
  6
CONTINUOUS
370
-3
390
F
  0
LAYER
  5
413
100
AcDbSymbolTableRecord
100
AcDbLayerTableRecord
  2
COLOR23
 70
0
 62
7
  6
CONTINUOUS
370
-3
390
F
  0
LAYER
  5
414
100
AcDbSymbolTableRecord
100
AcDbLayerTableRecord
  2
COLOR24
 70
0
 62
7
  6
CONTINUOUS
370
-3
390
F
  0
LAYER
  5
415
100
AcDbSymbolTableRecord
100
AcDbLayerTableRecord
  2
COLOR3
 70
0
 62
7
  6
CONTINUOUS
370
-3
390
F
  0
LAYER
  5
416
100
AcDbSymbolTableRecord
100
AcDbLayerTableRecord
  2
COLOR36
 70
0
 62
7
  6
CONTINUOUS
370
-3
390
F
  0
LAYER
  5
417
100
AcDbSymbolTableRecord
100
AcDbLayerTableRecord
  2
COLOR457
 70
0
 62
7
  6
CONTINUOUS
370
-3
390
F
  0
LAYER
  5
418
100
AcDbSymbolTableRecord
100
AcDbLayerTableRecord
  2
COLOR459
 70
0
 62
7
  6
CONTINUOUS
370
-3
390
F
  0
LAYER
  5
419
100
AcDbSymbolTableRecord
100
AcDbLayerTableRecord
  2
COLOR460
 70
0
 62
7
  6
CONTINUOUS
370
-3
390
F
  0
LAYER
  5
41A
100
AcDbSymbolTableRecord
100
AcDbLayerTableRecord
  2
COLOR461
 70
0
 62
7
  6
CONTINUOUS
370
-3
390
F
  0
LAYER
  5
41B
100
AcDbSymbolTableRecord
100
AcDbLayerTableRecord
  2
COLOR462
 70
0
 62
7
  6
CONTINUOUS
370
-3
390
F
  0
LAYER
  5
41C
100
AcDbSymbolTableRecord
100
AcDbLayerTableRecord
  2
COLOR464
 70
0
 62
7
  6
CONTINUOUS
370
-3
390
F
  0
LAYER
  5
41D
100
AcDbSymbolTableRecord
100
AcDbLayerTableRecord
  2
COLOR471
 70
0
 62
7
  6
CONTINUOUS
370
-3
390
F
  0
LAYER
  5
41E
100
AcDbSymbolTableRecord
100
AcDbLayerTableRecord
  2
COLOR5
 70
0
 62
7
  6
CONTINUOUS
370
-3
390
F
  0
LAYER
  5
41F
100
AcDbSymbolTableRecord
100
AcDbLayerTableRecord
  2
COLOR523
 70
0
 62
7
  6
CONTINUOUS
370
-3
390
F
  0
LAYER
  5
420
100
AcDbSymbolTableRecord
100
AcDbLayerTableRecord
  2
COLOR525
 70
0
 62
7
  6
CONTINUOUS
370
-3
390
F
  0
LAYER
  5
421
100
AcDbSymbolTableRecord
100
AcDbLayerTableRecord
  2
COLOR526
 70
0
 62
7
  6
CONTINUOUS
370
-3
390
F
  0
LAYER
  5
422
100
AcDbSymbolTableRecord
100
AcDbLayerTableRecord
  2
COLOR529
 70
0
 62
7
  6
CONTINUOUS
370
-3
390
F
  0
LAYER
  5
423
100
AcDbSymbolTableRecord
100
AcDbLayerTableRecord
  2
COLOR531
 70
0
 62
7
  6
CONTINUOUS
370
-3
390
F
  0
LAYER
  5
424
100
AcDbSymbolTableRecord
100
AcDbLayerTableRecord
  2
COLOR532
 70
0
 62
7
  6
CONTINUOUS
370
-3
390
F
  0
LAYER
  5
425
100
AcDbSymbolTableRecord
100
AcDbLayerTableRecord
  2
COLOR533
 70
0
 62
7
  6
CONTINUOUS
370
-3
390
F
  0
LAYER
  5
426
100
AcDbSymbolTableRecord
100
AcDbLayerTableRecord
  2
COLOR535
 70
0
 62
7
  6
CONTINUOUS
370
-3
390
F
  0
LAYER
  5
427
100
AcDbSymbolTableRecord
100
AcDbLayerTableRecord
  2
COLOR536
 70
0
 62
7
  6
CONTINUOUS
370
-3
390
F
  0
LAYER
  5
428
100
AcDbSymbolTableRecord
100
AcDbLayerTableRecord
  2
COLOR538
 70
0
 62
7
  6
CONTINUOUS
370
-3
390
F
  0
LAYER
  5
429
100
AcDbSymbolTableRecord
100
AcDbLayerTableRecord
  2
COLOR539
 70
0
 62
7
  6
CONTINUOUS
370
-3
390
F
  0
LAYER
  5
42A
100
AcDbSymbolTableRecord
100
AcDbLayerTableRecord
  2
COLOR540
 70
0
 62
7
  6
CONTINUOUS
370
-3
390
F
  0
LAYER
  5
42B
100
AcDbSymbolTableRecord
100
AcDbLayerTableRecord
  2
COLOR542
 70
0
 62
7
  6
CONTINUOUS
370
-3
390
F
  0
LAYER
  5
42C
100
AcDbSymbolTableRecord
100
AcDbLayerTableRecord
  2
COLOR543
 70
0
 62
7
  6
CONTINUOUS
370
-3
390
F
  0
LAYER
  5
42D
100
AcDbSymbolTableRecord
100
AcDbLayerTableRecord
  2
COLOR546
 70
0
 62
7
  6
CONTINUOUS
370
-3
390
F
  0
LAYER
  5
42E
100
AcDbSymbolTableRecord
100
AcDbLayerTableRecord
  2
COLOR549
 70
0
 62
7
  6
CONTINUOUS
370
-3
390
F
  0
LAYER
  5
42F
100
AcDbSymbolTableRecord
100
AcDbLayerTableRecord
  2
COLOR55
 70
0
 62
7
  6
CONTINUOUS
370
-3
390
F
  0
LAYER
  5
430
100
AcDbSymbolTableRecord
100
AcDbLayerTableRecord
  2
COLOR550
 70
0
 62
7
  6
CONTINUOUS
370
-3
390
F
  0
LAYER
  5
431
100
AcDbSymbolTableRecord
100
AcDbLayerTableRecord
  2
COLOR553
 70
0
 62
7
  6
CONTINUOUS
370
-3
390
F
  0
LAYER
  5
432
100
AcDbSymbolTableRecord
100
AcDbLayerTableRecord
  2
COLOR560
 70
0
 62
7
  6
CONTINUOUS
370
-3
390
F
  0
LAYER
  5
433
100
AcDbSymbolTableRecord
100
AcDbLayerTableRecord
  2
COLOR6
 70
0
 62
7
  6
CONTINUOUS
370
-3
390
F
  0
LAYER
  5
434
100
AcDbSymbolTableRecord
100
AcDbLayerTableRecord
  2
COLOR61
 70
0
 62
7
  6
CONTINUOUS
370
-3
390
F
  0
LAYER
  5
435
100
AcDbSymbolTableRecord
100
AcDbLayerTableRecord
  2
COLOR7
 70
0
 62
7
  6
CONTINUOUS
370
-3
390
F
  0
LAYER
  5
436
100
AcDbSymbolTableRecord
100
AcDbLayerTableRecord
  2
COLOR73
 70
0
 62
7
  6
CONTINUOUS
370
-3
390
F
  0
LAYER
  5
437
100
AcDbSymbolTableRecord
100
AcDbLayerTableRecord
  2
COLOR9
 70
0
 62
7
  6
CONTINUOUS
370
-3
390
F
  0
LAYER
  5
438
100
AcDbSymbolTableRecord
100
AcDbLayerTableRecord
  2
COORDINATE
 70
0
 62
7
  6
CONTINUOUS
370
-3
390
F
  0
LAYER
  5
439
100
AcDbSymbolTableRecord
100
AcDbLayerTableRecord
  2
COORD_ORIGINE
 70
0
 62
7
  6
CONTINUOUS
370
-3
390
F
  0
LAYER
  5
43A
100
AcDbSymbolTableRecord
100
AcDbLayerTableRecord
  2
COPY_PUBLISH
 70
0
 62
7
  6
CONTINUOUS
370
-3
390
F
  0
LAYER
  5
43B
100
AcDbSymbolTableRecord
100
AcDbLayerTableRecord
  2
COSMETICI
 70
0
 62
7
  6
CONTINUOUS
370
-3
390
F
  0
LAYER
  5
43C
100
AcDbSymbolTableRecord
100
AcDbLayerTableRecord
  2
CSFC208-0502BXXXR1SC_W_6_4_30_1
 70
0
 62
7
  6
CONTINUOUS
370
-3
390
F
  0
LAYER
  5
43D
100
AcDbSymbolTableRecord
100
AcDbLayerTableRecord
  2
CURVE
 70
0
 62
7
  6
CONTINUOUS
370
-3
390
F
  0
LAYER
  5
43E
100
AcDbSymbolTableRecord
100
AcDbLayerTableRecord
  2
DO-214AB_NP_265000
 70
0
 62
7
  6
CONTINUOUS
370
-3
390
F
  0
LAYER
  5
43F
100
AcDbSymbolTableRecord
100
AcDbLayerTableRecord
  2
DO-214AB_NP_265000_1
 70
0
 62
7
  6
CONTINUOUS
370
-3
390
F
  0
LAYER
  5
440
100
AcDbSymbolTableRecord
100
AcDbLayerTableRecord
  2
DO-214AC_230000
 70
0
 62
7
  6
CONTINUOUS
370
-3
390
F
  0
LAYER
  5
441
100
AcDbSymbolTableRecord
100
AcDbLayerTableRecord
  2
DO-214AC_230000_1
 70
0
 62
7
  6
CONTINUOUS
370
-3
390
F
  0
LAYER
  5
442
100
AcDbSymbolTableRecord
100
AcDbLayerTableRecord
  2
DO-214AC_230000_2
 70
0
 62
7
  6
CONTINUOUS
370
-3
390
F
  0
LAYER
  5
443
100
AcDbSymbolTableRecord
100
AcDbLayerTableRecord
  2
DO-214AC_230000_3
 70
0
 62
7
  6
CONTINUOUS
370
-3
390
F
  0
LAYER
  5
444
100
AcDbSymbolTableRecord
100
AcDbLayerTableRecord
  2
DO-214AC_230000_4
 70
0
 62
7
  6
CONTINUOUS
370
-3
390
F
  0
LAYER
  5
445
100
AcDbSymbolTableRecord
100
AcDbLayerTableRecord
  2
DO-214AC_230000_5
 70
0
 62
7
  6
CONTINUOUS
370
-3
390
F
  0
LAYER
  5
446
100
AcDbSymbolTableRecord
100
AcDbLayerTableRecord
  2
DO-214AC_230000_6
 70
0
 62
7
  6
CONTINUOUS
370
-3
390
F
  0
LAYER
  5
447
100
AcDbSymbolTableRecord
100
AcDbLayerTableRecord
  2
DPAK_TO252_240000
 70
0
 62
7
  6
CONTINUOUS
370
-3
390
F
  0
LAYER
  5
448
100
AcDbSymbolTableRecord
100
AcDbLayerTableRecord
  2
DPAK_TO252_240000_1
 70
0
 62
7
  6
CONTINUOUS
370
-3
390
F
  0
LAYER
  5
449
100
AcDbSymbolTableRecord
100
AcDbLayerTableRecord
  2
DRAFT
 70
0
 62
7
  6
CONTINUOUS
370
-3
390
F
  0
LAYER
  5
44A
100
AcDbSymbolTableRecord
100
AcDbLayerTableRecord
  2
FEMMINA
 70
0
 62
7
  6
CONTINUOUS
370
-3
390
F
  0
LAYER
  5
44B
100
AcDbSymbolTableRecord
100
AcDbLayerTableRecord
  2
GEOMETRIA_SOLIDA
 70
0
 62
7
  6
CONTINUOUS
370
-3
390
F
  0
LAYER
  5
44C
100
AcDbSymbolTableRecord
100
AcDbLayerTableRecord
  2
GEOMETRIA_SOLIDA_1
 70
0
 62
7
  6
CONTINUOUS
370
-3
390
F
  0
LAYER
  5
44D
100
AcDbSymbolTableRecord
100
AcDbLayerTableRecord
  2
GEOMETRIA_SOLIDA_10
 70
0
 62
7
  6
CONTINUOUS
370
-3
390
F
  0
LAYER
  5
44E
100
AcDbSymbolTableRecord
100
AcDbLayerTableRecord
  2
GEOMETRIA_SOLIDA_11
 70
0
 62
7
  6
CONTINUOUS
370
-3
390
F
  0
LAYER
  5
44F
100
AcDbSymbolTableRecord
100
AcDbLayerTableRecord
  2
GEOMETRIA_SOLIDA_12
 70
0
 62
7
  6
CONTINUOUS
370
-3
390
F
  0
LAYER
  5
450
100
AcDbSymbolTableRecord
100
AcDbLayerTableRecord
  2
GEOMETRIA_SOLIDA_13
 70
0
 62
7
  6
CONTINUOUS
370
-3
390
F
  0
LAYER
  5
451
100
AcDbSymbolTableRecord
100
AcDbLayerTableRecord
  2
GEOMETRIA_SOLIDA_14
 70
0
 62
7
  6
CONTINUOUS
370
-3
390
F
  0
LAYER
  5
452
100
AcDbSymbolTableRecord
100
AcDbLayerTableRecord
  2
GEOMETRIA_SOLIDA_15
 70
0
 62
7
  6
CONTINUOUS
370
-3
390
F
  0
LAYER
  5
453
100
AcDbSymbolTableRecord
100
AcDbLayerTableRecord
  2
GEOMETRIA_SOLIDA_16
 70
0
 62
7
  6
CONTINUOUS
370
-3
390
F
  0
LAYER
  5
454
100
AcDbSymbolTableRecord
100
AcDbLayerTableRecord
  2
GEOMETRIA_SOLIDA_17
 70
0
 62
7
  6
CONTINUOUS
370
-3
390
F
  0
LAYER
  5
455
100
AcDbSymbolTableRecord
100
AcDbLayerTableRecord
  2
GEOMETRIA_SOLIDA_18
 70
0
 62
7
  6
CONTINUOUS
370
-3
390
F
  0
LAYER
  5
456
100
AcDbSymbolTableRecord
100
AcDbLayerTableRecord
  2
GEOMETRIA_SOLIDA_19
 70
0
 62
7
  6
CONTINUOUS
370
-3
390
F
  0
LAYER
  5
457
100
AcDbSymbolTableRecord
100
AcDbLayerTableRecord
  2
GEOMETRIA_SOLIDA_2
 70
0
 62
7
  6
CONTINUOUS
370
-3
390
F
  0
LAYER
  5
458
100
AcDbSymbolTableRecord
100
AcDbLayerTableRecord
  2
GEOMETRIA_SOLIDA_20
 70
0
 62
7
  6
CONTINUOUS
370
-3
390
F
  0
LAYER
  5
459
100
AcDbSymbolTableRecord
100
AcDbLayerTableRecord
  2
GEOMETRIA_SOLIDA_21
 70
0
 62
7
  6
CONTINUOUS
370
-3
390
F
  0
LAYER
  5
45A
100
AcDbSymbolTableRecord
100
AcDbLayerTableRecord
  2
GEOMETRIA_SOLIDA_22
 70
0
 62
7
  6
CONTINUOUS
370
-3
390
F
  0
LAYER
  5
45B
100
AcDbSymbolTableRecord
100
AcDbLayerTableRecord
  2
GEOMETRIA_SOLIDA_23
 70
0
 62
7
  6
CONTINUOUS
370
-3
390
F
  0
LAYER
  5
45C
100
AcDbSymbolTableRecord
100
AcDbLayerTableRecord
  2
GEOMETRIA_SOLIDA_24
 70
0
 62
7
  6
CONTINUOUS
370
-3
390
F
  0
LAYER
  5
45D
100
AcDbSymbolTableRecord
100
AcDbLayerTableRecord
  2
GEOMETRIA_SOLIDA_25
 70
0
 62
7
  6
CONTINUOUS
370
-3
390
F
  0
LAYER
  5
45E
100
AcDbSymbolTableRecord
100
AcDbLayerTableRecord
  2
GEOMETRIA_SOLIDA_26
 70
0
 62
7
  6
CONTINUOUS
370
-3
390
F
  0
LAYER
  5
45F
100
AcDbSymbolTableRecord
100
AcDbLayerTableRecord
  2
GEOMETRIA_SOLIDA_27
 70
0
 62
7
  6
CONTINUOUS
370
-3
390
F
  0
LAYER
  5
460
100
AcDbSymbolTableRecord
100
AcDbLayerTableRecord
  2
GEOMETRIA_SOLIDA_28
 70
0
 62
7
  6
CONTINUOUS
370
-3
390
F
  0
LAYER
  5
461
100
AcDbSymbolTableRecord
100
AcDbLayerTableRecord
  2
GEOMETRIA_SOLIDA_29
 70
0
 62
7
  6
CONTINUOUS
370
-3
390
F
  0
LAYER
  5
462
100
AcDbSymbolTableRecord
100
AcDbLayerTableRecord
  2
GEOMETRIA_SOLIDA_3
 70
0
 62
7
  6
CONTINUOUS
370
-3
390
F
  0
LAYER
  5
463
100
AcDbSymbolTableRecord
100
AcDbLayerTableRecord
  2
GEOMETRIA_SOLIDA_30
 70
0
 62
7
  6
CONTINUOUS
370
-3
390
F
  0
LAYER
  5
464
100
AcDbSymbolTableRecord
100
AcDbLayerTableRecord
  2
GEOMETRIA_SOLIDA_31
 70
0
 62
7
  6
CONTINUOUS
370
-3
390
F
  0
LAYER
  5
465
100
AcDbSymbolTableRecord
100
AcDbLayerTableRecord
  2
GEOMETRIA_SOLIDA_32
 70
0
 62
7
  6
CONTINUOUS
370
-3
390
F
  0
LAYER
  5
466
100
AcDbSymbolTableRecord
100
AcDbLayerTableRecord
  2
GEOMETRIA_SOLIDA_33
 70
0
 62
7
  6
CONTINUOUS
370
-3
390
F
  0
LAYER
  5
467
100
AcDbSymbolTableRecord
100
AcDbLayerTableRecord
  2
GEOMETRIA_SOLIDA_34
 70
0
 62
7
  6
CONTINUOUS
370
-3
390
F
  0
LAYER
  5
468
100
AcDbSymbolTableRecord
100
AcDbLayerTableRecord
  2
GEOMETRIA_SOLIDA_4
 70
0
 62
7
  6
CONTINUOUS
370
-3
390
F
  0
LAYER
  5
469
100
AcDbSymbolTableRecord
100
AcDbLayerTableRecord
  2
GEOMETRIA_SOLIDA_5
 70
0
 62
7
  6
CONTINUOUS
370
-3
390
F
  0
LAYER
  5
46A
100
AcDbSymbolTableRecord
100
AcDbLayerTableRecord
  2
GEOMETRIA_SOLIDA_6
 70
0
 62
7
  6
CONTINUOUS
370
-3
390
F
  0
LAYER
  5
46B
100
AcDbSymbolTableRecord
100
AcDbLayerTableRecord
  2
GEOMETRIA_SOLIDA_7
 70
0
 62
7
  6
CONTINUOUS
370
-3
390
F
  0
LAYER
  5
46C
100
AcDbSymbolTableRecord
100
AcDbLayerTableRecord
  2
GEOMETRIA_SOLIDA_8
 70
0
 62
7
  6
CONTINUOUS
370
-3
390
F
  0
LAYER
  5
46D
100
AcDbSymbolTableRecord
100
AcDbLayerTableRecord
  2
GEOMETRIA_SOLIDA_9
 70
0
 62
7
  6
CONTINUOUS
370
-3
390
F
  0
LAYER
  5
46E
100
AcDbSymbolTableRecord
100
AcDbLayerTableRecord
  2
IGES
 70
0
 62
7
  6
CONTINUOUS
370
-3
390
F
  0
LAYER
  5
46F
100
AcDbSymbolTableRecord
100
AcDbLayerTableRecord
  2
IMPORT_IGES
 70
0
 62
7
  6
CONTINUOUS
370
-3
390
F
  0
LAYER
  5
470
100
AcDbSymbolTableRecord
100
AcDbLayerTableRecord
  2
IND-CHIP-0603-H1_0_REF_100000
 70
0
 62
7
  6
CONTINUOUS
370
-3
390
F
  0
LAYER
  5
471
100
AcDbSymbolTableRecord
100
AcDbLayerTableRecord
  2
IND-CHIP-0603-H1_0_REF_100000_1
 70
0
 62
7
  6
CONTINUOUS
370
-3
390
F
  0
LAYER
  5
472
100
AcDbSymbolTableRecord
100
AcDbLayerTableRecord
  2
IND-CHIP-0805_H1_1_REF_110000
 70
0
 62
7
  6
CONTINUOUS
370
-3
390
F
  0
LAYER
  5
473
100
AcDbSymbolTableRecord
100
AcDbLayerTableRecord
  2
IND-CHIP-0805_H1_1_REF_110000_1
 70
0
 62
7
  6
CONTINUOUS
370
-3
390
F
  0
LAYER
  5
474
100
AcDbSymbolTableRecord
100
AcDbLayerTableRecord
  2
IND-CHIP-1008-H2_1_210000
 70
0
 62
7
  6
CONTINUOUS
370
-3
390
F
  0
LAYER
  5
475
100
AcDbSymbolTableRecord
100
AcDbLayerTableRecord
  2
IND-CHIP-1008-H2_1_210000_1
 70
0
 62
7
  6
CONTINUOUS
370
-3
390
F
  0
LAYER
  5
476
100
AcDbSymbolTableRecord
100
AcDbLayerTableRecord
  2
IND-CHIP-2525_H3_0_300000
 70
0
 62
7
  6
CONTINUOUS
370
-3
390
F
  0
LAYER
  5
477
100
AcDbSymbolTableRecord
100
AcDbLayerTableRecord
  2
IND-CHIP-2525_H3_0_300000_1
 70
0
 62
7
  6
CONTINUOUS
370
-3
390
F
  0
LAYER
  5
478
100
AcDbSymbolTableRecord
100
AcDbLayerTableRecord
  2
IND-CM-9_2-6_0-5_0_520000
 70
0
 62
7
  6
CONTINUOUS
370
-3
390
F
  0
LAYER
  5
479
100
AcDbSymbolTableRecord
100
AcDbLayerTableRecord
  2
IND-PS-5_8-2_8_300000
 70
0
 62
7
  6
CONTINUOUS
370
-3
390
F
  0
LAYER
  5
47A
100
AcDbSymbolTableRecord
100
AcDbLayerTableRecord
  2
IND-PS-5_8-2_8_300000_1
 70
0
 62
7
  6
CONTINUOUS
370
-3
390
F
  0
LAYER
  5
47B
100
AcDbSymbolTableRecord
100
AcDbLayerTableRecord
  2
IND-PS-5_8-2_8_300000_2
 70
0
 62
7
  6
CONTINUOUS
370
-3
390
F
  0
LAYER
  5
47C
100
AcDbSymbolTableRecord
100
AcDbLayerTableRecord
  2
IND-PS-5_8-2_8_300000_3
 70
0
 62
7
  6
CONTINUOUS
370
-3
390
F
  0
LAYER
  5
47D
100
AcDbSymbolTableRecord
100
AcDbLayerTableRecord
  2
INTFCLR_19432
 70
0
 62
7
  6
CONTINUOUS
370
-3
390
F
  0
LAYER
  5
47E
100
AcDbSymbolTableRecord
100
AcDbLayerTableRecord
  2
INTFCLR_19721
 70
0
 62
7
  6
CONTINUOUS
370
-3
390
F
  0
LAYER
  5
47F
100
AcDbSymbolTableRecord
100
AcDbLayerTableRecord
  2
INTFCLR_19825
 70
0
 62
7
  6
CONTINUOUS
370
-3
390
F
  0
LAYER
  5
480
100
AcDbSymbolTableRecord
100
AcDbLayerTableRecord
  2
INTFCLR_19929
 70
0
 62
7
  6
CONTINUOUS
370
-3
390
F
  0
LAYER
  5
481
100
AcDbSymbolTableRecord
100
AcDbLayerTableRecord
  2
INTFCLR_20871
 70
0
 62
7
  6
CONTINUOUS
370
-3
390
F
  0
LAYER
  5
482
100
AcDbSymbolTableRecord
100
AcDbLayerTableRecord
  2
INTFCLR_20884
 70
0
 62
7
  6
CONTINUOUS
370
-3
390
F
  0
LAYER
  5
483
100
AcDbSymbolTableRecord
100
AcDbLayerTableRecord
  2
INTFCLR_20897
 70
0
 62
7
  6
CONTINUOUS
370
-3
390
F
  0
LAYER
  5
484
100
AcDbSymbolTableRecord
100
AcDbLayerTableRecord
  2
INTFCLR_20907
 70
0
 62
7
  6
CONTINUOUS
370
-3
390
F
  0
LAYER
  5
485
100
AcDbSymbolTableRecord
100
AcDbLayerTableRecord
  2
INTFCLR_20929
 70
0
 62
7
  6
CONTINUOUS
370
-3
390
F
  0
LAYER
  5
486
100
AcDbSymbolTableRecord
100
AcDbLayerTableRecord
  2
INTFCLR_20948
 70
0
 62
7
  6
CONTINUOUS
370
-3
390
F
  0
LAYER
  5
487
100
AcDbSymbolTableRecord
100
AcDbLayerTableRecord
  2
INTFCLR_20955
 70
0
 62
7
  6
CONTINUOUS
370
-3
390
F
  0
LAYER
  5
488
100
AcDbSymbolTableRecord
100
AcDbLayerTableRecord
  2
INTFCLR_20962
 70
0
 62
7
  6
CONTINUOUS
370
-3
390
F
  0
LAYER
  5
489
100
AcDbSymbolTableRecord
100
AcDbLayerTableRecord
  2
INTFCLR_20975
 70
0
 62
7
  6
CONTINUOUS
370
-3
390
F
  0
LAYER
  5
48A
100
AcDbSymbolTableRecord
100
AcDbLayerTableRecord
  2
INTFCLR_20982
 70
0
 62
7
  6
CONTINUOUS
370
-3
390
F
  0
LAYER
  5
48B
100
AcDbSymbolTableRecord
100
AcDbLayerTableRecord
  2
INTFCLR_20989
 70
0
 62
7
  6
CONTINUOUS
370
-3
390
F
  0
LAYER
  5
48C
100
AcDbSymbolTableRecord
100
AcDbLayerTableRecord
  2
INTFCLR_20996
 70
0
 62
7
  6
CONTINUOUS
370
-3
390
F
  0
LAYER
  5
48D
100
AcDbSymbolTableRecord
100
AcDbLayerTableRecord
  2
INTFCLR_21003
 70
0
 62
7
  6
CONTINUOUS
370
-3
390
F
  0
LAYER
  5
48E
100
AcDbSymbolTableRecord
100
AcDbLayerTableRecord
  2
INTFCLR_21010
 70
0
 62
7
  6
CONTINUOUS
370
-3
390
F
  0
LAYER
  5
48F
100
AcDbSymbolTableRecord
100
AcDbLayerTableRecord
  2
INTFCLR_21017
 70
0
 62
7
  6
CONTINUOUS
370
-3
390
F
  0
LAYER
  5
490
100
AcDbSymbolTableRecord
100
AcDbLayerTableRecord
  2
INTFCLR_21024
 70
0
 62
7
  6
CONTINUOUS
370
-3
390
F
  0
LAYER
  5
491
100
AcDbSymbolTableRecord
100
AcDbLayerTableRecord
  2
INTFCLR_21133
 70
0
 62
7
  6
CONTINUOUS
370
-3
390
F
  0
LAYER
  5
492
100
AcDbSymbolTableRecord
100
AcDbLayerTableRecord
  2
INTFCLR_21167
 70
0
 62
7
  6
CONTINUOUS
370
-3
390
F
  0
LAYER
  5
493
100
AcDbSymbolTableRecord
100
AcDbLayerTableRecord
  2
INTFCLR_21363
 70
0
 62
7
  6
CONTINUOUS
370
-3
390
F
  0
LAYER
  5
494
100
AcDbSymbolTableRecord
100
AcDbLayerTableRecord
  2
INTFCLR_21397
 70
0
 62
7
  6
CONTINUOUS
370
-3
390
F
  0
LAYER
  5
495
100
AcDbSymbolTableRecord
100
AcDbLayerTableRecord
  2
INTFCLR_21519
 70
0
 62
7
  6
CONTINUOUS
370
-3
390
F
  0
LAYER
  5
496
100
AcDbSymbolTableRecord
100
AcDbLayerTableRecord
  2
INTFCLR_21623
 70
0
 62
7
  6
CONTINUOUS
370
-3
390
F
  0
LAYER
  5
497
100
AcDbSymbolTableRecord
100
AcDbLayerTableRecord
  2
INTFCLR_21624
 70
0
 62
7
  6
CONTINUOUS
370
-3
390
F
  0
LAYER
  5
498
100
AcDbSymbolTableRecord
100
AcDbLayerTableRecord
  2
INTFCLR_21631
 70
0
 62
7
  6
CONTINUOUS
370
-3
390
F
  0
LAYER
  5
499
100
AcDbSymbolTableRecord
100
AcDbLayerTableRecord
  2
INTFCLR_21638
 70
0
 62
7
  6
CONTINUOUS
370
-3
390
F
  0
LAYER
  5
49A
100
AcDbSymbolTableRecord
100
AcDbLayerTableRecord
  2
INTFCLR_21645
 70
0
 62
7
  6
CONTINUOUS
370
-3
390
F
  0
LAYER
  5
49B
100
AcDbSymbolTableRecord
100
AcDbLayerTableRecord
  2
INTFCLR_23665
 70
0
 62
7
  6
CONTINUOUS
370
-3
390
F
  0
LAYER
  5
49C
100
AcDbSymbolTableRecord
100
AcDbLayerTableRecord
  2
INTFCLR_23672
 70
0
 62
7
  6
CONTINUOUS
370
-3
390
F
  0
LAYER
  5
49D
100
AcDbSymbolTableRecord
100
AcDbLayerTableRecord
  2
INTFCLR_23679
 70
0
 62
7
  6
CONTINUOUS
370
-3
390
F
  0
LAYER
  5
49E
100
AcDbSymbolTableRecord
100
AcDbLayerTableRecord
  2
INTFCLR_25446
 70
0
 62
7
  6
CONTINUOUS
370
-3
390
F
  0
LAYER
  5
49F
100
AcDbSymbolTableRecord
100
AcDbLayerTableRecord
  2
INTFCLR_25735
 70
0
 62
7
  6
CONTINUOUS
370
-3
390
F
  0
LAYER
  5
4A0
100
AcDbSymbolTableRecord
100
AcDbLayerTableRecord
  2
INTFCLR_25749
 70
0
 62
7
  6
CONTINUOUS
370
-3
390
F
  0
LAYER
  5
4A1
100
AcDbSymbolTableRecord
100
AcDbLayerTableRecord
  2
INTFCLR_25762
 70
0
 62
7
  6
CONTINUOUS
370
-3
390
F
  0
LAYER
  5
4A2
100
AcDbSymbolTableRecord
100
AcDbLayerTableRecord
  2
INTFCLR_26708
 70
0
 62
7
  6
CONTINUOUS
370
-3
390
F
  0
LAYER
  5
4A3
100
AcDbSymbolTableRecord
100
AcDbLayerTableRecord
  2
INTFCLR_26715
 70
0
 62
7
  6
CONTINUOUS
370
-3
390
F
  0
LAYER
  5
4A4
100
AcDbSymbolTableRecord
100
AcDbLayerTableRecord
  2
INTFCLR_26722
 70
0
 62
7
  6
CONTINUOUS
370
-3
390
F
  0
LAYER
  5
4A5
100
AcDbSymbolTableRecord
100
AcDbLayerTableRecord
  2
INTFCLR_26735
 70
0
 62
7
  6
CONTINUOUS
370
-3
390
F
  0
LAYER
  5
4A6
100
AcDbSymbolTableRecord
100
AcDbLayerTableRecord
  2
INTFCLR_26742
 70
0
 62
7
  6
CONTINUOUS
370
-3
390
F
  0
LAYER
  5
4A7
100
AcDbSymbolTableRecord
100
AcDbLayerTableRecord
  2
INTFCLR_26749
 70
0
 62
7
  6
CONTINUOUS
370
-3
390
F
  0
LAYER
  5
4A8
100
AcDbSymbolTableRecord
100
AcDbLayerTableRecord
  2
INTFCLR_26756
 70
0
 62
7
  6
CONTINUOUS
370
-3
390
F
  0
LAYER
  5
4A9
100
AcDbSymbolTableRecord
100
AcDbLayerTableRecord
  2
INTFCLR_26763
 70
0
 62
7
  6
CONTINUOUS
370
-3
390
F
  0
LAYER
  5
4AA
100
AcDbSymbolTableRecord
100
AcDbLayerTableRecord
  2
INTFCLR_26770
 70
0
 62
7
  6
CONTINUOUS
370
-3
390
F
  0
LAYER
  5
4AB
100
AcDbSymbolTableRecord
100
AcDbLayerTableRecord
  2
INTFCLR_26777
 70
0
 62
7
  6
CONTINUOUS
370
-3
390
F
  0
LAYER
  5
4AC
100
AcDbSymbolTableRecord
100
AcDbLayerTableRecord
  2
INTFCLR_26784
 70
0
 62
7
  6
CONTINUOUS
370
-3
390
F
  0
LAYER
  5
4AD
100
AcDbSymbolTableRecord
100
AcDbLayerTableRecord
  2
INTFCLR_26797
 70
0
 62
7
  6
CONTINUOUS
370
-3
390
F
  0
LAYER
  5
4AE
100
AcDbSymbolTableRecord
100
AcDbLayerTableRecord
  2
INTFCLR_26804
 70
0
 62
7
  6
CONTINUOUS
370
-3
390
F
  0
LAYER
  5
4AF
100
AcDbSymbolTableRecord
100
AcDbLayerTableRecord
  2
INTFCLR_26811
 70
0
 62
7
  6
CONTINUOUS
370
-3
390
F
  0
LAYER
  5
4B0
100
AcDbSymbolTableRecord
100
AcDbLayerTableRecord
  2
INTFCLR_26920
 70
0
 62
7
  6
CONTINUOUS
370
-3
390
F
  0
LAYER
  5
4B1
100
AcDbSymbolTableRecord
100
AcDbLayerTableRecord
  2
INTFCLR_26954
 70
0
 62
7
  6
CONTINUOUS
370
-3
390
F
  0
LAYER
  5
4B2
100
AcDbSymbolTableRecord
100
AcDbLayerTableRecord
  2
INTFCLR_27135
 70
0
 62
7
  6
CONTINUOUS
370
-3
390
F
  0
LAYER
  5
4B3
100
AcDbSymbolTableRecord
100
AcDbLayerTableRecord
  2
INTFCLR_27142
 70
0
 62
7
  6
CONTINUOUS
370
-3
390
F
  0
LAYER
  5
4B4
100
AcDbSymbolTableRecord
100
AcDbLayerTableRecord
  2
INTFCLR_27149
 70
0
 62
7
  6
CONTINUOUS
370
-3
390
F
  0
LAYER
  5
4B5
100
AcDbSymbolTableRecord
100
AcDbLayerTableRecord
  2
INTFCLR_27156
 70
0
 62
7
  6
CONTINUOUS
370
-3
390
F
  0
LAYER
  5
4B6
100
AcDbSymbolTableRecord
100
AcDbLayerTableRecord
  2
INTFCLR_27163
 70
0
 62
7
  6
CONTINUOUS
370
-3
390
F
  0
LAYER
  5
4B7
100
AcDbSymbolTableRecord
100
AcDbLayerTableRecord
  2
INTFCLR_27182
 70
0
 62
7
  6
CONTINUOUS
370
-3
390
F
  0
LAYER
  5
4B8
100
AcDbSymbolTableRecord
100
AcDbLayerTableRecord
  2
INTFCLR_27195
 70
0
 62
7
  6
CONTINUOUS
370
-3
390
F
  0
LAYER
  5
4B9
100
AcDbSymbolTableRecord
100
AcDbLayerTableRecord
  2
INTFCLR_27214
 70
0
 62
7
  6
CONTINUOUS
370
-3
390
F
  0
LAYER
  5
4BA
100
AcDbSymbolTableRecord
100
AcDbLayerTableRecord
  2
INTFCLR_27233
 70
0
 62
7
  6
CONTINUOUS
370
-3
390
F
  0
LAYER
  5
4BB
100
AcDbSymbolTableRecord
100
AcDbLayerTableRecord
  2
INTFCLR_27246
 70
0
 62
7
  6
CONTINUOUS
370
-3
390
F
  0
LAYER
  5
4BC
100
AcDbSymbolTableRecord
100
AcDbLayerTableRecord
  2
INTFCLR_5
 70
0
 62
7
  6
CONTINUOUS
370
-3
390
F
  0
LAYER
  5
4BD
100
AcDbSymbolTableRecord
100
AcDbLayerTableRecord
  2
INTF_1
 70
0
 62
7
  6
CONTINUOUS
370
-3
390
F
  0
LAYER
  5
4BE
100
AcDbSymbolTableRecord
100
AcDbLayerTableRecord
  2
INTF_11
 70
0
 62
7
  6
CONTINUOUS
370
-3
390
F
  0
LAYER
  5
4BF
100
AcDbSymbolTableRecord
100
AcDbLayerTableRecord
  2
INTF_2
 70
0
 62
7
  6
CONTINUOUS
370
-3
390
F
  0
LAYER
  5
4C0
100
AcDbSymbolTableRecord
100
AcDbLayerTableRecord
  2
INTF_5
 70
0
 62
7
  6
CONTINUOUS
370
-3
390
F
  0
LAYER
  5
4C1
100
AcDbSymbolTableRecord
100
AcDbLayerTableRecord
  2
INTF_8
 70
0
 62
7
  6
CONTINUOUS
370
-3
390
F
  0
LAYER
  5
4C2
100
AcDbSymbolTableRecord
100
AcDbLayerTableRecord
  2
INTF_BLANK
 70
0
 62
7
  6
CONTINUOUS
370
-3
390
F
  0
LAYER
  5
4C3
100
AcDbSymbolTableRecord
100
AcDbLayerTableRecord
  2
INTF_CYAN
 70
0
 62
7
  6
CONTINUOUS
370
-3
390
F
  0
LAYER
  5
4C4
100
AcDbSymbolTableRecord
100
AcDbLayerTableRecord
  2
INTF_YELLOW
 70
0
 62
7
  6
CONTINUOUS
370
-3
390
F
  0
LAYER
  5
4C5
100
AcDbSymbolTableRecord
100
AcDbLayerTableRecord
  2
JUMPER
 70
0
 62
7
  6
CONTINUOUS
370
-3
390
F
  0
LAYER
  5
4C6
100
AcDbSymbolTableRecord
100
AcDbLayerTableRecord
  2
K_THT_TE_RT424F48_1570000
 70
0
 62
7
  6
CONTINUOUS
370
-3
390
F
  0
LAYER
  5
4C7
100
AcDbSymbolTableRecord
100
AcDbLayerTableRecord
  2
LAYER_18
 70
0
 62
7
  6
CONTINUOUS
370
-3
390
F
  0
LAYER
  5
4C8
100
AcDbSymbolTableRecord
100
AcDbLayerTableRecord
  2
LITTELFUSE_449_SERIES_269000
 70
0
 62
7
  6
CONTINUOUS
370
-3
390
F
  0
LAYER
  5
4C9
100
AcDbSymbolTableRecord
100
AcDbLayerTableRecord
  2
LITTELFUSE_449_SERIES_269000_1
 70
0
 62
7
  6
CONTINUOUS
370
-3
390
F
  0
LAYER
  5
4CA
100
AcDbSymbolTableRecord
100
AcDbLayerTableRecord
  2
LQFP100-14_0-14_0-16_0-16_0-1_6
 70
0
 62
7
  6
CONTINUOUS
370
-3
390
F
  0
LAYER
  5
4CB
100
AcDbSymbolTableRecord
100
AcDbLayerTableRecord
  2
MINIMELF_R_REF_140000
 70
0
 62
7
  6
CONTINUOUS
370
-3
390
F
  0
LAYER
  5
4CC
100
AcDbSymbolTableRecord
100
AcDbLayerTableRecord
  2
MINIMELF_R_REF_140000_1
 70
0
 62
7
  6
CONTINUOUS
370
-3
390
F
  0
LAYER
  5
4CD
100
AcDbSymbolTableRecord
100
AcDbLayerTableRecord
  2
MINIMELF_R_REF_140000_2
 70
0
 62
7
  6
CONTINUOUS
370
-3
390
F
  0
LAYER
  5
4CE
100
AcDbSymbolTableRecord
100
AcDbLayerTableRecord
  2
MINIMELF_R_REF_140000_3
 70
0
 62
7
  6
CONTINUOUS
370
-3
390
F
  0
LAYER
  5
4CF
100
AcDbSymbolTableRecord
100
AcDbLayerTableRecord
  2
MINIMELF_R_WAVE_140000
 70
0
 62
7
  6
CONTINUOUS
370
-3
390
F
  0
LAYER
  5
4D0
100
AcDbSymbolTableRecord
100
AcDbLayerTableRecord
  2
MINIMELF_R_WAVE_140000_1
 70
0
 62
7
  6
CONTINUOUS
370
-3
390
F
  0
LAYER
  5
4D1
100
AcDbSymbolTableRecord
100
AcDbLayerTableRecord
  2
MINIMELF_R_WAVE_140000_2
 70
0
 62
7
  6
CONTINUOUS
370
-3
390
F
  0
LAYER
  5
4D2
100
AcDbSymbolTableRecord
100
AcDbLayerTableRecord
  2
MINIMELF_R_WAVE_140000_3
 70
0
 62
7
  6
CONTINUOUS
370
-3
390
F
  0
LAYER
  5
4D3
100
AcDbSymbolTableRecord
100
AcDbLayerTableRecord
  2
MSOP10-3_0-4_9-1_1-EXPAD-REF_11
 70
0
 62
7
  6
CONTINUOUS
370
-3
390
F
  0
LAYER
  5
4D4
100
AcDbSymbolTableRecord
100
AcDbLayerTableRecord
  2
MSOP10-3_0-4_9-1_1-EXPAD-REF__1
 70
0
 62
7
  6
CONTINUOUS
370
-3
390
F
  0
LAYER
  5
4D5
100
AcDbSymbolTableRecord
100
AcDbLayerTableRecord
  2
MSOP10-3_1-5_05-1_0-REF_110000
 70
0
 62
7
  6
CONTINUOUS
370
-3
390
F
  0
LAYER
  5
4D6
100
AcDbSymbolTableRecord
100
AcDbLayerTableRecord
  2
MSOP10-3_1-5_05-1_0-REF_11000_1
 70
0
 62
7
  6
CONTINUOUS
370
-3
390
F
  0
LAYER
  5
4D7
100
AcDbSymbolTableRecord
100
AcDbLayerTableRecord
  2
MSOP10-3_1-5_05-1_0-REF_11000_2
 70
0
 62
7
  6
CONTINUOUS
370
-3
390
F
  0
LAYER
  5
4D8
100
AcDbSymbolTableRecord
100
AcDbLayerTableRecord
  2
MSOP10-3_1-5_05-1_0-REF_11000_3
 70
0
 62
7
  6
CONTINUOUS
370
-3
390
F
  0
LAYER
  5
4D9
100
AcDbSymbolTableRecord
100
AcDbLayerTableRecord
  2
MSOP10-3_1-5_05-1_0-REF_11000_4
 70
0
 62
7
  6
CONTINUOUS
370
-3
390
F
  0
LAYER
  5
4DA
100
AcDbSymbolTableRecord
100
AcDbLayerTableRecord
  2
NONE
 70
0
 62
7
  6
CONTINUOUS
370
-3
390
F
  0
LAYER
  5
4DB
100
AcDbSymbolTableRecord
100
AcDbLayerTableRecord
  2
NONE_2
 70
0
 62
7
  6
CONTINUOUS
370
-3
390
F
  0
LAYER
  5
4DC
100
AcDbSymbolTableRecord
100
AcDbLayerTableRecord
  2
NONE_3
 70
0
 62
7
  6
CONTINUOUS
370
-3
390
F
  0
LAYER
  5
4DD
100
AcDbSymbolTableRecord
100
AcDbLayerTableRecord
  2
NONE_5
 70
0
 62
7
  6
CONTINUOUS
370
-3
390
F
  0
LAYER
  5
4DE
100
AcDbSymbolTableRecord
100
AcDbLayerTableRecord
  2
NONE_6
 70
0
 62
7
  6
CONTINUOUS
370
-3
390
F
  0
LAYER
  5
4DF
100
AcDbSymbolTableRecord
100
AcDbLayerTableRecord
  2
NONE_7
 70
0
 62
7
  6
CONTINUOUS
370
-3
390
F
  0
LAYER
  5
4E0
100
AcDbSymbolTableRecord
100
AcDbLayerTableRecord
  2
NONE_9
 70
0
 62
7
  6
CONTINUOUS
370
-3
390
F
  0
LAYER
  5
4E1
100
AcDbSymbolTableRecord
100
AcDbLayerTableRecord
  2
NOTE
 70
0
 62
7
  6
CONTINUOUS
370
-3
390
F
  0
LAYER
  5
4E2
100
AcDbSymbolTableRecord
100
AcDbLayerTableRecord
  2
PIANI
 70
0
 62
7
  6
CONTINUOUS
370
-3
390
F
  0
LAYER
  5
4E3
100
AcDbSymbolTableRecord
100
AcDbLayerTableRecord
  2
PIANI_ORIGINE
 70
0
 62
7
  6
CONTINUOUS
370
-3
390
F
  0
LAYER
  5
4E4
100
AcDbSymbolTableRecord
100
AcDbLayerTableRecord
  2
PRT0001
 70
0
 62
7
  6
CONTINUOUS
370
-3
390
F
  0
LAYER
  5
4E5
100
AcDbSymbolTableRecord
100
AcDbLayerTableRecord
  2
PS2911-1_210000
 70
0
 62
7
  6
CONTINUOUS
370
-3
390
F
  0
LAYER
  5
4E6
100
AcDbSymbolTableRecord
100
AcDbLayerTableRecord
  2
PS2911-1_210000_1
 70
0
 62
7
  6
CONTINUOUS
370
-3
390
F
  0
LAYER
  5
4E7
100
AcDbSymbolTableRecord
100
AcDbLayerTableRecord
  2
PUNTI
 70
0
 62
7
  6
CONTINUOUS
370
-3
390
F
  0
LAYER
  5
4E8
100
AcDbSymbolTableRecord
100
AcDbLayerTableRecord
  2
RACCORDO
 70
0
 62
7
  6
CONTINUOUS
370
-3
390
F
  0
LAYER
  5
4E9
100
AcDbSymbolTableRecord
100
AcDbLayerTableRecord
  2
RES-A-SMD-CONV-4-0603-B_60000
 70
0
 62
7
  6
CONTINUOUS
370
-3
390
F
  0
LAYER
  5
4EA
100
AcDbSymbolTableRecord
100
AcDbLayerTableRecord
  2
RES-A-SMD-CONV-4-0603-B_60000_1
 70
0
 62
7
  6
CONTINUOUS
370
-3
390
F
  0
LAYER
  5
4EB
100
AcDbSymbolTableRecord
100
AcDbLayerTableRecord
  2
RES-A-SMD-CONV-4-0603-B_60000_2
 70
0
 62
7
  6
CONTINUOUS
370
-3
390
F
  0
LAYER
  5
4EC
100
AcDbSymbolTableRecord
100
AcDbLayerTableRecord
  2
RGB____0____0____0__
 70
0
 62
7
  6
CONTINUOUS
370
-3
390
F
  0
LAYER
  5
4ED
100
AcDbSymbolTableRecord
100
AcDbLayerTableRecord
  2
RY_TE_IM_SERIES_GULLWINGS_58500
 70
0
 62
7
  6
CONTINUOUS
370
-3
390
F
  0
LAYER
  5
4EE
100
AcDbSymbolTableRecord
100
AcDbLayerTableRecord
  2
SC70-6_REF_H1_1_110000
 70
0
 62
7
  6
CONTINUOUS
370
-3
390
F
  0
LAYER
  5
4EF
100
AcDbSymbolTableRecord
100
AcDbLayerTableRecord
  2
SC70-6_REF_H1_1_110000_1
 70
0
 62
7
  6
CONTINUOUS
370
-3
390
F
  0
LAYER
  5
4F0
100
AcDbSymbolTableRecord
100
AcDbLayerTableRecord
  2
SC70-6_REF_H1_1_110000_2
 70
0
 62
7
  6
CONTINUOUS
370
-3
390
F
  0
LAYER
  5
4F1
100
AcDbSymbolTableRecord
100
AcDbLayerTableRecord
  2
SC70-6_REF_H1_1_110000_3
 70
0
 62
7
  6
CONTINUOUS
370
-3
390
F
  0
LAYER
  5
4F2
100
AcDbSymbolTableRecord
100
AcDbLayerTableRecord
  2
SIMBOLI
 70
0
 62
7
  6
CONTINUOUS
370
-3
390
F
  0
LAYER
  5
4F3
100
AcDbSymbolTableRecord
100
AcDbLayerTableRecord
  2
SMUSSO
 70
0
 62
7
  6
CONTINUOUS
370
-3
390
F
  0
LAYER
  5
4F4
100
AcDbSymbolTableRecord
100
AcDbLayerTableRecord
  2
SNAPLINE
 70
0
 62
7
  6
CONTINUOUS
370
-3
390
F
  0
LAYER
  5
4F5
100
AcDbSymbolTableRecord
100
AcDbLayerTableRecord
  2
SO8-5_0-6_2-1_75-EXPPAD1-REF_17
 70
0
 62
7
  6
CONTINUOUS
370
-3
390
F
  0
LAYER
  5
4F6
100
AcDbSymbolTableRecord
100
AcDbLayerTableRecord
  2
SO8-5_0-6_2-1_75-REF_175000
 70
0
 62
7
  6
CONTINUOUS
370
-3
390
F
  0
LAYER
  5
4F7
100
AcDbSymbolTableRecord
100
AcDbLayerTableRecord
  2
SO8-5_0-6_2-1_75-REF_175000_1
 70
0
 62
7
  6
CONTINUOUS
370
-3
390
F
  0
LAYER
  5
4F8
100
AcDbSymbolTableRecord
100
AcDbLayerTableRecord
  2
SO8-5_0-6_2-1_75-REF_175000_2
 70
0
 62
7
  6
CONTINUOUS
370
-3
390
F
  0
LAYER
  5
4F9
100
AcDbSymbolTableRecord
100
AcDbLayerTableRecord
  2
SO8W-5_5-8_1-2_16-REF_220000
 70
0
 62
7
  6
CONTINUOUS
370
-3
390
F
  0
LAYER
  5
4FA
100
AcDbSymbolTableRecord
100
AcDbLayerTableRecord
  2
SOD123_REF_140000
 70
0
 62
7
  6
CONTINUOUS
370
-3
390
F
  0
LAYER
  5
4FB
100
AcDbSymbolTableRecord
100
AcDbLayerTableRecord
  2
SOD123_REF_140000_1
 70
0
 62
7
  6
CONTINUOUS
370
-3
390
F
  0
LAYER
  5
4FC
100
AcDbSymbolTableRecord
100
AcDbLayerTableRecord
  2
SOD123_REF_140000_2
 70
0
 62
7
  6
CONTINUOUS
370
-3
390
F
  0
LAYER
  5
4FD
100
AcDbSymbolTableRecord
100
AcDbLayerTableRecord
  2
SOD123_REF_140000_3
 70
0
 62
7
  6
CONTINUOUS
370
-3
390
F
  0
LAYER
  5
4FE
100
AcDbSymbolTableRecord
100
AcDbLayerTableRecord
  2
SOD123_REF_140000_4
 70
0
 62
7
  6
CONTINUOUS
370
-3
390
F
  0
LAYER
  5
4FF
100
AcDbSymbolTableRecord
100
AcDbLayerTableRecord
  2
SOD323-REF_110000
 70
0
 62
7
  6
CONTINUOUS
370
-3
390
F
  0
LAYER
  5
500
100
AcDbSymbolTableRecord
100
AcDbLayerTableRecord
  2
SOD80_SOD-213AA_MINIMELF_REF_16
 70
0
 62
7
  6
CONTINUOUS
370
-3
390
F
  0
LAYER
  5
501
100
AcDbSymbolTableRecord
100
AcDbLayerTableRecord
  2
SOD80_SOD-213AA_MINIMELF_REF__1
 70
0
 62
7
  6
CONTINUOUS
370
-3
390
F
  0
LAYER
  5
502
100
AcDbSymbolTableRecord
100
AcDbLayerTableRecord
  2
SOD80_SOD-213AA_MINIMELF_REF__2
 70
0
 62
7
  6
CONTINUOUS
370
-3
390
F
  0
LAYER
  5
503
100
AcDbSymbolTableRecord
100
AcDbLayerTableRecord
  2
SOD80_SOD-213AA_MINIMELF_REF__3
 70
0
 62
7
  6
CONTINUOUS
370
-3
390
F
  0
LAYER
  5
504
100
AcDbSymbolTableRecord
100
AcDbLayerTableRecord
  2
SOD80_SOD-213AA_MINIMELF_WAVE_1
 70
0
 62
7
  6
CONTINUOUS
370
-3
390
F
  0
LAYER
  5
505
100
AcDbSymbolTableRecord
100
AcDbLayerTableRecord
  2
SOT143B_REF_110000
 70
0
 62
7
  6
CONTINUOUS
370
-3
390
F
  0
LAYER
  5
506
100
AcDbSymbolTableRecord
100
AcDbLayerTableRecord
  2
SOT223_REF_H1_8_180000
 70
0
 62
7
  6
CONTINUOUS
370
-3
390
F
  0
LAYER
  5
507
100
AcDbSymbolTableRecord
100
AcDbLayerTableRecord
  2
SOT223_REF_H1_8_180000_1
 70
0
 62
7
  6
CONTINUOUS
370
-3
390
F
  0
LAYER
  5
508
100
AcDbSymbolTableRecord
100
AcDbLayerTableRecord
  2
SOT23-5_REF_H1_5_150000
 70
0
 62
7
  6
CONTINUOUS
370
-3
390
F
  0
LAYER
  5
509
100
AcDbSymbolTableRecord
100
AcDbLayerTableRecord
  2
SOT23-5_REF_H1_5_150000_1
 70
0
 62
7
  6
CONTINUOUS
370
-3
390
F
  0
LAYER
  5
50A
100
AcDbSymbolTableRecord
100
AcDbLayerTableRecord
  2
SOT23-8_REF_H1_5_150000
 70
0
 62
7
  6
CONTINUOUS
370
-3
390
F
  0
LAYER
  5
50B
100
AcDbSymbolTableRecord
100
AcDbLayerTableRecord
  2
SOT323_H1_1_REF_110000
 70
0
 62
7
  6
CONTINUOUS
370
-3
390
F
  0
LAYER
  5
50C
100
AcDbSymbolTableRecord
100
AcDbLayerTableRecord
  2
SOT323_H1_1_REF_110000_1
 70
0
 62
7
  6
CONTINUOUS
370
-3
390
F
  0
LAYER
  5
50D
100
AcDbSymbolTableRecord
100
AcDbLayerTableRecord
  2
SOT323_H1_1_REF_110000_2
 70
0
 62
7
  6
CONTINUOUS
370
-3
390
F
  0
LAYER
  5
50E
100
AcDbSymbolTableRecord
100
AcDbLayerTableRecord
  2
SOT323_H1_1_REF_110000_3
 70
0
 62
7
  6
CONTINUOUS
370
-3
390
F
  0
LAYER
  5
50F
100
AcDbSymbolTableRecord
100
AcDbLayerTableRecord
  2
SOT323_H1_1_REF_110000_4
 70
0
 62
7
  6
CONTINUOUS
370
-3
390
F
  0
LAYER
  5
510
100
AcDbSymbolTableRecord
100
AcDbLayerTableRecord
  2
SOT323_H1_1_REF_110000_5
 70
0
 62
7
  6
CONTINUOUS
370
-3
390
F
  0
LAYER
  5
511
100
AcDbSymbolTableRecord
100
AcDbLayerTableRecord
  2
SOT666-1_7-1_7-0_6_REF_70000
 70
0
 62
7
  6
CONTINUOUS
370
-3
390
F
  0
LAYER
  5
512
100
AcDbSymbolTableRecord
100
AcDbLayerTableRecord
  2
SOT89_REF_H1_6_160000
 70
0
 62
7
  6
CONTINUOUS
370
-3
390
F
  0
LAYER
  5
513
100
AcDbSymbolTableRecord
100
AcDbLayerTableRecord
  2
SOT89_REF_H1_6_160000_1
 70
0
 62
7
  6
CONTINUOUS
370
-3
390
F
  0
LAYER
  5
514
100
AcDbSymbolTableRecord
100
AcDbLayerTableRecord
  2
SSOP8-3_0-4_9-1_1-REF_110000
 70
0
 62
7
  6
CONTINUOUS
370
-3
390
F
  0
LAYER
  5
515
100
AcDbSymbolTableRecord
100
AcDbLayerTableRecord
  2
SUB_SMA_143000
 70
0
 62
7
  6
CONTINUOUS
370
-3
390
F
  0
LAYER
  5
516
100
AcDbSymbolTableRecord
100
AcDbLayerTableRecord
  2
SUB_SMA_143000_1
 70
0
 62
7
  6
CONTINUOUS
370
-3
390
F
  0
LAYER
  5
517
100
AcDbSymbolTableRecord
100
AcDbLayerTableRecord
  2
SUB_SMA_143000_2
 70
0
 62
7
  6
CONTINUOUS
370
-3
390
F
  0
LAYER
  5
518
100
AcDbSymbolTableRecord
100
AcDbLayerTableRecord
  2
SUB_SMA_143000_3
 70
0
 62
7
  6
CONTINUOUS
370
-3
390
F
  0
LAYER
  5
519
100
AcDbSymbolTableRecord
100
AcDbLayerTableRecord
  2
SUB_SMA_143000_4
 70
0
 62
7
  6
CONTINUOUS
370
-3
390
F
  0
LAYER
  5
51A
100
AcDbSymbolTableRecord
100
AcDbLayerTableRecord
  2
SUB_SMA_143000_5
 70
0
 62
7
  6
CONTINUOUS
370
-3
390
F
  0
LAYER
  5
51B
100
AcDbSymbolTableRecord
100
AcDbLayerTableRecord
  2
SUB_SMA_143000_6
 70
0
 62
7
  6
CONTINUOUS
370
-3
390
F
  0
LAYER
  5
51C
100
AcDbSymbolTableRecord
100
AcDbLayerTableRecord
  2
SUPERFICI
 70
0
 62
7
  6
CONTINUOUS
370
-3
390
F
  0
LAYER
  5
51D
100
AcDbSymbolTableRecord
100
AcDbLayerTableRecord
  2
SUPERFICI_10
 70
0
 62
7
  6
CONTINUOUS
370
-3
390
F
  0
LAYER
  5
51E
100
AcDbSymbolTableRecord
100
AcDbLayerTableRecord
  2
SUPERFICI_11
 70
0
 62
7
  6
CONTINUOUS
370
-3
390
F
  0
LAYER
  5
51F
100
AcDbSymbolTableRecord
100
AcDbLayerTableRecord
  2
SUPERFICI_12
 70
0
 62
7
  6
CONTINUOUS
370
-3
390
F
  0
LAYER
  5
520
100
AcDbSymbolTableRecord
100
AcDbLayerTableRecord
  2
SUPERFICI_13
 70
0
 62
7
  6
CONTINUOUS
370
-3
390
F
  0
LAYER
  5
521
100
AcDbSymbolTableRecord
100
AcDbLayerTableRecord
  2
SUPERFICI_14
 70
0
 62
7
  6
CONTINUOUS
370
-3
390
F
  0
LAYER
  5
522
100
AcDbSymbolTableRecord
100
AcDbLayerTableRecord
  2
SUPERFICI_15
 70
0
 62
7
  6
CONTINUOUS
370
-3
390
F
  0
LAYER
  5
523
100
AcDbSymbolTableRecord
100
AcDbLayerTableRecord
  2
SUPERFICI_16
 70
0
 62
7
  6
CONTINUOUS
370
-3
390
F
  0
LAYER
  5
524
100
AcDbSymbolTableRecord
100
AcDbLayerTableRecord
  2
SUPERFICI_17
 70
0
 62
7
  6
CONTINUOUS
370
-3
390
F
  0
LAYER
  5
525
100
AcDbSymbolTableRecord
100
AcDbLayerTableRecord
  2
SUPERFICI_18
 70
0
 62
7
  6
CONTINUOUS
370
-3
390
F
  0
LAYER
  5
526
100
AcDbSymbolTableRecord
100
AcDbLayerTableRecord
  2
SUPERFICI_4
 70
0
 62
7
  6
CONTINUOUS
370
-3
390
F
  0
LAYER
  5
527
100
AcDbSymbolTableRecord
100
AcDbLayerTableRecord
  2
SUPERFICI_7
 70
0
 62
7
  6
CONTINUOUS
370
-3
390
F
  0
LAYER
  5
528
100
AcDbSymbolTableRecord
100
AcDbLayerTableRecord
  2
SWITCH_SMD_ALPS_SKPM_SERIES_500
 70
0
 62
7
  6
CONTINUOUS
370
-3
390
F
  0
LAYER
  5
529
100
AcDbSymbolTableRecord
100
AcDbLayerTableRecord
  2
SWITCH_SMD_ALPS_SKPM_SERIES_5_1
 70
0
 62
7
  6
CONTINUOUS
370
-3
390
F
  0
LAYER
  5
52A
100
AcDbSymbolTableRecord
100
AcDbLayerTableRecord
  2
SWITCH_SMD_ALPS_SKPM_SERIES_5_2
 70
0
 62
7
  6
CONTINUOUS
370
-3
390
F
  0
LAYER
  5
52B
100
AcDbSymbolTableRecord
100
AcDbLayerTableRecord
  2
SWITCH_SMD_ALPS_SKPM_SERIES_5_3
 70
0
 62
7
  6
CONTINUOUS
370
-3
390
F
  0
LAYER
  5
52C
100
AcDbSymbolTableRecord
100
AcDbLayerTableRecord
  2
SWITCH_SMD_ALPS_SKPM_SERIES_5_4
 70
0
 62
7
  6
CONTINUOUS
370
-3
390
F
  0
LAYER
  5
52D
100
AcDbSymbolTableRecord
100
AcDbLayerTableRecord
  2
SWITCH_SMD_ALPS_SKPM_SERIES_5_5
 70
0
 62
7
  6
CONTINUOUS
370
-3
390
F
  0
LAYER
  5
52E
100
AcDbSymbolTableRecord
100
AcDbLayerTableRecord
  2
SWITCH_SMD_ALPS_SKPM_SERIES_5_6
 70
0
 62
7
  6
CONTINUOUS
370
-3
390
F
  0
LAYER
  5
52F
100
AcDbSymbolTableRecord
100
AcDbLayerTableRecord
  2
SWITCH_SMD_ALPS_SKPM_SERIES_5_7
 70
0
 62
7
  6
CONTINUOUS
370
-3
390
F
  0
LAYER
  5
530
100
AcDbSymbolTableRecord
100
AcDbLayerTableRecord
  2
TP-RND-0_5_1000
 70
0
 62
7
  6
CONTINUOUS
370
-3
390
F
  0
LAYER
  5
531
100
AcDbSymbolTableRecord
100
AcDbLayerTableRecord
  2
TP-RND-0_5_1000_1
 70
0
 62
7
  6
CONTINUOUS
370
-3
390
F
  0
LAYER
  5
532
100
AcDbSymbolTableRecord
100
AcDbLayerTableRecord
  2
TP-RND-0_8_3500
 70
0
 62
7
  6
CONTINUOUS
370
-3
390
F
  0
LAYER
  5
533
100
AcDbSymbolTableRecord
100
AcDbLayerTableRecord
  2
TP-RND-0_8_3500_1
 70
0
 62
7
  6
CONTINUOUS
370
-3
390
F
  0
LAYER
  5
534
100
AcDbSymbolTableRecord
100
AcDbLayerTableRecord
  2
TP-RND-0_8_3500_2
 70
0
 62
7
  6
CONTINUOUS
370
-3
390
F
  0
LAYER
  5
535
100
AcDbSymbolTableRecord
100
AcDbLayerTableRecord
  2
TP-RND-1_0_3500
 70
0
 62
7
  6
CONTINUOUS
370
-3
390
F
  0
LAYER
  5
536
100
AcDbSymbolTableRecord
100
AcDbLayerTableRecord
  2
TP-RND-1_0_3500_1
 70
0
 62
7
  6
CONTINUOUS
370
-3
390
F
  0
LAYER
  5
537
100
AcDbSymbolTableRecord
100
AcDbLayerTableRecord
  2
TP-RND-1_0_3500_2
 70
0
 62
7
  6
CONTINUOUS
370
-3
390
F
  0
LAYER
  5
538
100
AcDbSymbolTableRecord
100
AcDbLayerTableRecord
  2
TP-RND-1_0_3500_3
 70
0
 62
7
  6
CONTINUOUS
370
-3
390
F
  0
LAYER
  5
539
100
AcDbSymbolTableRecord
100
AcDbLayerTableRecord
  2
TP-RND-1_0_3500_4
 70
0
 62
7
  6
CONTINUOUS
370
-3
390
F
  0
LAYER
  5
53A
100
AcDbSymbolTableRecord
100
AcDbLayerTableRecord
  2
TP-RND-1_0_3500_5
 70
0
 62
7
  6
CONTINUOUS
370
-3
390
F
  0
LAYER
  5
53B
100
AcDbSymbolTableRecord
100
AcDbLayerTableRecord
  2
TP-RND-1_0_3500_6
 70
0
 62
7
  6
CONTINUOUS
370
-3
390
F
  0
LAYER
  5
53C
100
AcDbSymbolTableRecord
100
AcDbLayerTableRecord
  2
TP-SQR-2_0_0
 70
0
 62
7
  6
CONTINUOUS
370
-3
390
F
  0
LAYER
  5
53D
100
AcDbSymbolTableRecord
100
AcDbLayerTableRecord
  2
TP-SQR-2_0_0_1
 70
0
 62
7
  6
CONTINUOUS
370
-3
390
F
  0
LAYER
  5
53E
100
AcDbSymbolTableRecord
100
AcDbLayerTableRecord
  2
TP-SQR-2_0_0_2
 70
0
 62
7
  6
CONTINUOUS
370
-3
390
F
  0
LAYER
  5
53F
100
AcDbSymbolTableRecord
100
AcDbLayerTableRecord
  2
TP-SQR-2_0_0_3
 70
0
 62
7
  6
CONTINUOUS
370
-3
390
F
  0
LAYER
  5
540
100
AcDbSymbolTableRecord
100
AcDbLayerTableRecord
  2
TP-SQR-2_0_0_4
 70
0
 62
7
  6
CONTINUOUS
370
-3
390
F
  0
LAYER
  5
541
100
AcDbSymbolTableRecord
100
AcDbLayerTableRecord
  2
TRASH
 70
0
 62
7
  6
CONTINUOUS
370
-3
390
F
  0
LAYER
  5
542
100
AcDbSymbolTableRecord
100
AcDbLayerTableRecord
  2
TRA_SMD_6_97X6_68_H_4_45_RF_SIG
 70
0
 62
7
  6
CONTINUOUS
370
-3
390
F
  0
LAYER
  5
543
100
AcDbSymbolTableRecord
100
AcDbLayerTableRecord
  2
TSSOP14-5_0-6_4-1_2-REF_120000
 70
0
 62
7
  6
CONTINUOUS
370
-3
390
F
  0
LAYER
  5
544
100
AcDbSymbolTableRecord
100
AcDbLayerTableRecord
  2
TSSOP16-5_0-6_4-1_1-REF_110000
 70
0
 62
7
  6
CONTINUOUS
370
-3
390
F
  0
LAYER
  5
545
100
AcDbSymbolTableRecord
100
AcDbLayerTableRecord
  2
VG_1210_C_REF_270000
 70
0
 62
7
  6
CONTINUOUS
370
-3
390
F
  0
LAYER
  5
546
100
AcDbSymbolTableRecord
100
AcDbLayerTableRecord
  2
VG_1210_C_REF_270000_1
 70
0
 62
7
  6
CONTINUOUS
370
-3
390
F
  0
LAYER
  5
547
100
AcDbSymbolTableRecord
100
AcDbLayerTableRecord
  2
VG_CN-SMT-JST-GH-R1-P3-TET_4050
 70
0
 62
7
  6
CONTINUOUS
370
-3
390
F
  0
LAYER
  5
548
100
AcDbSymbolTableRecord
100
AcDbLayerTableRecord
  2
VG_CN-SMT-JST-SFK-R1-P2-SET_350
 70
0
 62
7
  6
CONTINUOUS
370
-3
390
F
  0
LAYER
  5
549
100
AcDbSymbolTableRecord
100
AcDbLayerTableRecord
  2
VG_CN-SMT-JST-ZH-R1-P6-TET_5000
 70
0
 62
7
  6
CONTINUOUS
370
-3
390
F
  0
LAYER
  5
54A
100
AcDbSymbolTableRecord
100
AcDbLayerTableRecord
  2
VG_CN-SMT-MEZZANINE-M-P0_5-R2-P
 70
0
 62
7
  6
CONTINUOUS
370
-3
390
F
  0
LAYER
  5
54B
100
AcDbSymbolTableRecord
100
AcDbLayerTableRecord
  2
VG_CN-SMT-USB-TYPE_C-24P-H9_3-T
 70
0
 62
7
  6
CONTINUOUS
370
-3
390
F
  0
LAYER
  5
54C
100
AcDbSymbolTableRecord
100
AcDbLayerTableRecord
  2
VG_CN-STRIP-F-SMT-P2-R2-P10-TET
 70
0
 62
7
  6
CONTINUOUS
370
-3
390
F
  0
LAYER
  5
54D
100
AcDbSymbolTableRecord
100
AcDbLayerTableRecord
  2
VG_CN-THT-TIANLI-TL208V-R1-P6-S
 70
0
 62
7
  6
CONTINUOUS
370
-3
390
F
  0
LAYER
  5
54E
100
AcDbSymbolTableRecord
100
AcDbLayerTableRecord
  2
VG_CN-THT-TIANLI-TL208V-R1-P6_1
 70
0
 62
7
  6
CONTINUOUS
370
-3
390
F
  0
LAYER
  5
54F
100
AcDbSymbolTableRecord
100
AcDbLayerTableRecord
  2
VG_CN_JST_ZH_S6B-ZR-SM4A-TF_370
 70
0
 62
7
  6
CONTINUOUS
370
-3
390
F
  0
LAYER
  5
550
100
AcDbSymbolTableRecord
100
AcDbLayerTableRecord
  2
VG_CN_SMT-JST-ZH-R1-P3-SET_3700
 70
0
 62
7
  6
CONTINUOUS
370
-3
390
F
  0
LAYER
  5
551
100
AcDbSymbolTableRecord
100
AcDbLayerTableRecord
  2
VG_CN_SMT-KUNSHAN-CNT-R1-P2-SET
 70
0
 62
7
  6
CONTINUOUS
370
-3
390
F
  0
LAYER
  5
552
100
AcDbSymbolTableRecord
100
AcDbLayerTableRecord
  2
VG_CN_SMT-KUNSHAN-CNT-R1-P3-SET
 70
0
 62
7
  6
CONTINUOUS
370
-3
390
F
  0
LAYER
  5
553
100
AcDbSymbolTableRecord
100
AcDbLayerTableRecord
  2
VG_DETECTOR-2-KWAN-MX347-SMT_37
 70
0
 62
7
  6
CONTINUOUS
370
-3
390
F
  0
LAYER
  5
554
100
AcDbSymbolTableRecord
100
AcDbLayerTableRecord
  2
VG_DETECTOR-2-KWAN-MX347-SMT__1
 70
0
 62
7
  6
CONTINUOUS
370
-3
390
F
  0
LAYER
  5
555
100
AcDbSymbolTableRecord
100
AcDbLayerTableRecord
  2
VG_DETECTOR-2-WURTH-WS_DESV-SMT
 70
0
 62
7
  6
CONTINUOUS
370
-3
390
F
  0
LAYER
  5
556
100
AcDbSymbolTableRecord
100
AcDbLayerTableRecord
  2
VG_DETECTOR-2-WURTH-WS_DESV-S_1
 70
0
 62
7
  6
CONTINUOUS
370
-3
390
F
  0
LAYER
  5
557
100
AcDbSymbolTableRecord
100
AcDbLayerTableRecord
  2
VG_DIPSW-12-2_54-30_5-6_0-4_2-S
 70
0
 62
7
  6
CONTINUOUS
370
-3
390
F
  0
LAYER
  5
558
100
AcDbSymbolTableRecord
100
AcDbLayerTableRecord
  2
VG_DIPSW-6-1_27-8_8-6_2-2_3_SMT
 70
0
 62
7
  6
CONTINUOUS
370
-3
390
F
  0
LAYER
  5
559
100
AcDbSymbolTableRecord
100
AcDbLayerTableRecord
  2
VG_DO-214AA_1_135000
 70
0
 62
7
  6
CONTINUOUS
370
-3
390
F
  0
LAYER
  5
55A
100
AcDbSymbolTableRecord
100
AcDbLayerTableRecord
  2
VG_DO-214AA_1_135000_1
 70
0
 62
7
  6
CONTINUOUS
370
-3
390
F
  0
LAYER
  5
55B
100
AcDbSymbolTableRecord
100
AcDbLayerTableRecord
  2
VG_DO-214AA_1_135000_2
 70
0
 62
7
  6
CONTINUOUS
370
-3
390
F
  0
LAYER
  5
55C
100
AcDbSymbolTableRecord
100
AcDbLayerTableRecord
  2
VG_DO-214AA_1_135000_3
 70
0
 62
7
  6
CONTINUOUS
370
-3
390
F
  0
LAYER
  5
55D
100
AcDbSymbolTableRecord
100
AcDbLayerTableRecord
  2
VG_DO-214AA_265000
 70
0
 62
7
  6
CONTINUOUS
370
-3
390
F
  0
LAYER
  5
55E
100
AcDbSymbolTableRecord
100
AcDbLayerTableRecord
  2
VG_DO-214AA_265000_1
 70
0
 62
7
  6
CONTINUOUS
370
-3
390
F
  0
LAYER
  5
55F
100
AcDbSymbolTableRecord
100
AcDbLayerTableRecord
  2
VG_DO-214AA_265000_2
 70
0
 62
7
  6
CONTINUOUS
370
-3
390
F
  0
LAYER
  5
560
100
AcDbSymbolTableRecord
100
AcDbLayerTableRecord
  2
VG_DO-214AA_265000_3
 70
0
 62
7
  6
CONTINUOUS
370
-3
390
F
  0
LAYER
  5
561
100
AcDbSymbolTableRecord
100
AcDbLayerTableRecord
  2
VG_DO-214AA_NP_265000
 70
0
 62
7
  6
CONTINUOUS
370
-3
390
F
  0
LAYER
  5
562
100
AcDbSymbolTableRecord
100
AcDbLayerTableRecord
  2
VG_IND-PS-5_2-2_0-01_220000
 70
0
 62
7
  6
CONTINUOUS
370
-3
390
F
  0
LAYER
  5
563
100
AcDbSymbolTableRecord
100
AcDbLayerTableRecord
  2
VG_IND-PS-5_2-2_0-01_220000_1
 70
0
 62
7
  6
CONTINUOUS
370
-3
390
F
  0
LAYER
  5
564
100
AcDbSymbolTableRecord
100
AcDbLayerTableRecord
  2
VG_LED-SMT-3_2-2_4-2_4_140000
 70
0
 62
7
  6
CONTINUOUS
370
-3
390
F
  0
LAYER
  5
565
100
AcDbSymbolTableRecord
100
AcDbLayerTableRecord
  2
VG_LED-SMT-3_2-2_4-2_4_140000_1
 70
0
 62
7
  6
CONTINUOUS
370
-3
390
F
  0
LAYER
  5
566
100
AcDbSymbolTableRecord
100
AcDbLayerTableRecord
  2
VG_LED-SMT-3_2-2_4-2_4_140000_2
 70
0
 62
7
  6
CONTINUOUS
370
-3
390
F
  0
LAYER
  5
567
100
AcDbSymbolTableRecord
100
AcDbLayerTableRecord
  2
VG_LED-SMT-3_2-2_4-2_4_140000_3
 70
0
 62
7
  6
CONTINUOUS
370
-3
390
F
  0
LAYER
  5
568
100
AcDbSymbolTableRecord
100
AcDbLayerTableRecord
  2
VG_LED-THT-RND-5_0-5_0-4_0-0_5_
 70
0
 62
7
  6
CONTINUOUS
370
-3
390
F
  0
LAYER
  5
569
100
AcDbSymbolTableRecord
100
AcDbLayerTableRecord
  2
VG_MSOP8-3_1-5_05-1_1-REF_11000
 70
0
 62
7
  6
CONTINUOUS
370
-3
390
F
  0
LAYER
  5
56A
100
AcDbSymbolTableRecord
100
AcDbLayerTableRecord
  2
VG_PB-2-6-3_5-4_3-SMT_430000
 70
0
 62
7
  6
CONTINUOUS
370
-3
390
F
  0
LAYER
  5
56B
100
AcDbSymbolTableRecord
100
AcDbLayerTableRecord
  2
VG_PB-2-6-3_5-4_3-SMT_430000_1
 70
0
 62
7
  6
CONTINUOUS
370
-3
390
F
  0
LAYER
  5
56C
100
AcDbSymbolTableRecord
100
AcDbLayerTableRecord
  2
VG_PB-2-6-3_5-4_3-SMT_430000_2
 70
0
 62
7
  6
CONTINUOUS
370
-3
390
F
  0
LAYER
  5
56D
100
AcDbSymbolTableRecord
100
AcDbLayerTableRecord
  2
VG_PB-2-6-3_5-4_3-SMT_430000_3
 70
0
 62
7
  6
CONTINUOUS
370
-3
390
F
  0
LAYER
  5
56E
100
AcDbSymbolTableRecord
100
AcDbLayerTableRecord
  2
VG_PB-2-6-3_5-4_3-SMT_430000_4
 70
0
 62
7
  6
CONTINUOUS
370
-3
390
F
  0
LAYER
  5
56F
100
AcDbSymbolTableRecord
100
AcDbLayerTableRecord
  2
VG_PB-2-6-3_5-4_3-SMT_430000_5
 70
0
 62
7
  6
CONTINUOUS
370
-3
390
F
  0
LAYER
  5
570
100
AcDbSymbolTableRecord
100
AcDbLayerTableRecord
  2
VG_PB-2-6-3_5-4_3-SMT_430000_6
 70
0
 62
7
  6
CONTINUOUS
370
-3
390
F
  0
LAYER
  5
571
100
AcDbSymbolTableRecord
100
AcDbLayerTableRecord
  2
VG_PB-2-6-3_5-4_3-SMT_430000_7
 70
0
 62
7
  6
CONTINUOUS
370
-3
390
F
  0
LAYER
  5
572
100
AcDbSymbolTableRecord
100
AcDbLayerTableRecord
  2
VG_PTC-5_0-10_0-5_5-5_0-0_0-0_7
 70
0
 62
7
  6
CONTINUOUS
370
-3
390
F
  0
LAYER
  5
573
100
AcDbSymbolTableRecord
100
AcDbLayerTableRecord
  2
VG_P_TACTILE_12_9X6_6H5_8_THT_5
 70
0
 62
7
  6
CONTINUOUS
370
-3
390
F
  0
LAYER
  5
574
100
AcDbSymbolTableRecord
100
AcDbLayerTableRecord
  2
VG_RES-RAD-5_0-15_0-5_0-0_7_200
 70
0
 62
7
  6
CONTINUOUS
370
-3
390
F
  0
LAYER
  5
575
100
AcDbSymbolTableRecord
100
AcDbLayerTableRecord
  2
VG_RES-RAD-5_0-15_0-5_0-0_7_2_1
 70
0
 62
7
  6
CONTINUOUS
370
-3
390
F
  0
LAYER
  5
576
100
AcDbSymbolTableRecord
100
AcDbLayerTableRecord
  2
VG_RES-RAD-5_0-15_0-5_0-0_7_2_2
 70
0
 62
7
  6
CONTINUOUS
370
-3
390
F
  0
LAYER
  5
577
100
AcDbSymbolTableRecord
100
AcDbLayerTableRecord
  2
VG_SENSOR_OPT3004_65000
 70
0
 62
7
  6
CONTINUOUS
370
-3
390
F
  0
LAYER
  5
578
100
AcDbSymbolTableRecord
100
AcDbLayerTableRecord
  2
VG_SOD523_70000
 70
0
 62
7
  6
CONTINUOUS
370
-3
390
F
  0
LAYER
  5
579
100
AcDbSymbolTableRecord
100
AcDbLayerTableRecord
  2
VG_SOD523_70000_1
 70
0
 62
7
  6
CONTINUOUS
370
-3
390
F
  0
LAYER
  5
57A
100
AcDbSymbolTableRecord
100
AcDbLayerTableRecord
  2
VG_SOT23_H1_1_REF_110000
 70
0
 62
7
  6
CONTINUOUS
370
-3
390
F
  0
LAYER
  5
57B
100
AcDbSymbolTableRecord
100
AcDbLayerTableRecord
  2
VG_SOT23_H1_1_REF_110000_1
 70
0
 62
7
  6
CONTINUOUS
370
-3
390
F
  0
LAYER
  5
57C
100
AcDbSymbolTableRecord
100
AcDbLayerTableRecord
  2
VG_SOT23_H1_1_REF_110000_10
 70
0
 62
7
  6
CONTINUOUS
370
-3
390
F
  0
LAYER
  5
57D
100
AcDbSymbolTableRecord
100
AcDbLayerTableRecord
  2
VG_SOT23_H1_1_REF_110000_11
 70
0
 62
7
  6
CONTINUOUS
370
-3
390
F
  0
LAYER
  5
57E
100
AcDbSymbolTableRecord
100
AcDbLayerTableRecord
  2
VG_SOT23_H1_1_REF_110000_12
 70
0
 62
7
  6
CONTINUOUS
370
-3
390
F
  0
LAYER
  5
57F
100
AcDbSymbolTableRecord
100
AcDbLayerTableRecord
  2
VG_SOT23_H1_1_REF_110000_13
 70
0
 62
7
  6
CONTINUOUS
370
-3
390
F
  0
LAYER
  5
580
100
AcDbSymbolTableRecord
100
AcDbLayerTableRecord
  2
VG_SOT23_H1_1_REF_110000_14
 70
0
 62
7
  6
CONTINUOUS
370
-3
390
F
  0
LAYER
  5
581
100
AcDbSymbolTableRecord
100
AcDbLayerTableRecord
  2
VG_SOT23_H1_1_REF_110000_15
 70
0
 62
7
  6
CONTINUOUS
370
-3
390
F
  0
LAYER
  5
582
100
AcDbSymbolTableRecord
100
AcDbLayerTableRecord
  2
VG_SOT23_H1_1_REF_110000_16
 70
0
 62
7
  6
CONTINUOUS
370
-3
390
F
  0
LAYER
  5
583
100
AcDbSymbolTableRecord
100
AcDbLayerTableRecord
  2
VG_SOT23_H1_1_REF_110000_17
 70
0
 62
7
  6
CONTINUOUS
370
-3
390
F
  0
LAYER
  5
584
100
AcDbSymbolTableRecord
100
AcDbLayerTableRecord
  2
VG_SOT23_H1_1_REF_110000_18
 70
0
 62
7
  6
CONTINUOUS
370
-3
390
F
  0
LAYER
  5
585
100
AcDbSymbolTableRecord
100
AcDbLayerTableRecord
  2
VG_SOT23_H1_1_REF_110000_19
 70
0
 62
7
  6
CONTINUOUS
370
-3
390
F
  0
LAYER
  5
586
100
AcDbSymbolTableRecord
100
AcDbLayerTableRecord
  2
VG_SOT23_H1_1_REF_110000_2
 70
0
 62
7
  6
CONTINUOUS
370
-3
390
F
  0
LAYER
  5
587
100
AcDbSymbolTableRecord
100
AcDbLayerTableRecord
  2
VG_SOT23_H1_1_REF_110000_3
 70
0
 62
7
  6
CONTINUOUS
370
-3
390
F
  0
LAYER
  5
588
100
AcDbSymbolTableRecord
100
AcDbLayerTableRecord
  2
VG_SOT23_H1_1_REF_110000_4
 70
0
 62
7
  6
CONTINUOUS
370
-3
390
F
  0
LAYER
  5
589
100
AcDbSymbolTableRecord
100
AcDbLayerTableRecord
  2
VG_SOT23_H1_1_REF_110000_5
 70
0
 62
7
  6
CONTINUOUS
370
-3
390
F
  0
LAYER
  5
58A
100
AcDbSymbolTableRecord
100
AcDbLayerTableRecord
  2
VG_SOT23_H1_1_REF_110000_6
 70
0
 62
7
  6
CONTINUOUS
370
-3
390
F
  0
LAYER
  5
58B
100
AcDbSymbolTableRecord
100
AcDbLayerTableRecord
  2
VG_SOT23_H1_1_REF_110000_7
 70
0
 62
7
  6
CONTINUOUS
370
-3
390
F
  0
LAYER
  5
58C
100
AcDbSymbolTableRecord
100
AcDbLayerTableRecord
  2
VG_SOT23_H1_1_REF_110000_8
 70
0
 62
7
  6
CONTINUOUS
370
-3
390
F
  0
LAYER
  5
58D
100
AcDbSymbolTableRecord
100
AcDbLayerTableRecord
  2
VG_SOT23_H1_1_REF_110000_9
 70
0
 62
7
  6
CONTINUOUS
370
-3
390
F
  0
LAYER
  5
58E
100
AcDbSymbolTableRecord
100
AcDbLayerTableRecord
  2
VG_SOT23_H1_2_REF_120000
 70
0
 62
7
  6
CONTINUOUS
370
-3
390
F
  0
LAYER
  5
58F
100
AcDbSymbolTableRecord
100
AcDbLayerTableRecord
  2
VG_SOT23_H1_2_REF_120000_1
 70
0
 62
7
  6
CONTINUOUS
370
-3
390
F
  0
LAYER
  5
590
100
AcDbSymbolTableRecord
100
AcDbLayerTableRecord
  2
VG_SOT23_H1_2_REF_120000_2
 70
0
 62
7
  6
CONTINUOUS
370
-3
390
F
  0
LAYER
  5
591
100
AcDbSymbolTableRecord
100
AcDbLayerTableRecord
  2
VG_SOT23_H1_2_REF_120000_3
 70
0
 62
7
  6
CONTINUOUS
370
-3
390
F
  0
LAYER
  5
592
100
AcDbSymbolTableRecord
100
AcDbLayerTableRecord
  2
VG_STPS3L60_SMB_265000
 70
0
 62
7
  6
CONTINUOUS
370
-3
390
F
  0
LAYER
  5
593
100
AcDbSymbolTableRecord
100
AcDbLayerTableRecord
  2
VG_STPS3L60_SMB_265000_1
 70
0
 62
7
  6
CONTINUOUS
370
-3
390
F
  0
LAYER
  5
594
100
AcDbSymbolTableRecord
100
AcDbLayerTableRecord
  2
VG_STPS3L60_SMB_265000_2
 70
0
 62
7
  6
CONTINUOUS
370
-3
390
F
  0
LAYER
  5
595
100
AcDbSymbolTableRecord
100
AcDbLayerTableRecord
  2
VG_STPS3L60_SMB_265000_3
 70
0
 62
7
  6
CONTINUOUS
370
-3
390
F
  0
LAYER
  5
596
100
AcDbSymbolTableRecord
100
AcDbLayerTableRecord
  2
VG_TP-RND-1_0-8P-PROG-VIDEOCIT_
 70
0
 62
7
  6
CONTINUOUS
370
-3
390
F
  0
LAYER
  5
597
100
AcDbSymbolTableRecord
100
AcDbLayerTableRecord
  2
VG_UTQFN10-2_1-1_6-2_1-1_6-0_6-
 70
0
 62
7
  6
CONTINUOUS
370
-3
390
F
  0
LAYER
  5
598
100
AcDbSymbolTableRecord
100
AcDbLayerTableRecord
  2
VG_UTQFN10-2_1-1_6-2_1-1_6-0__1
 70
0
 62
7
  6
CONTINUOUS
370
-3
390
F
  0
LAYER
  5
599
100
AcDbSymbolTableRecord
100
AcDbLayerTableRecord
  2
VG_UTQFN10-2_1-1_6-2_1-1_6-0__2
 70
0
 62
7
  6
CONTINUOUS
370
-3
390
F
  0
LAYER
  5
59A
100
AcDbSymbolTableRecord
100
AcDbLayerTableRecord
  2
VG_UTQFN10-2_1-1_6-2_1-1_6-0__3
 70
0
 62
7
  6
CONTINUOUS
370
-3
390
F
  0
LAYER
  5
59B
100
AcDbSymbolTableRecord
100
AcDbLayerTableRecord
  2
VG_VAR_S05_D7_S4_3_H8_5_850000
 70
0
 62
7
  6
CONTINUOUS
370
-3
390
F
  0
LAYER
  5
59C
100
AcDbSymbolTableRecord
100
AcDbLayerTableRecord
  2
VG_VAR_S05_D7_S4_3_H8_5_85000_1
 70
0
 62
7
  6
CONTINUOUS
370
-3
390
F
  0
LAYER
  5
59D
100
AcDbSymbolTableRecord
100
AcDbLayerTableRecord
  2
WHITE
 70
0
 62
7
  6
CONTINUOUS
370
-3
390
F
  0
LAYER
  5
59E
100
AcDbSymbolTableRecord
100
AcDbLayerTableRecord
  2
WUERTH_744242471_350000
 70
0
 62
7
  6
CONTINUOUS
370
-3
390
F
  0
LAYER
  5
59F
100
AcDbSymbolTableRecord
100
AcDbLayerTableRecord
  2
WUERTH_744242471_350000_1
 70
0
 62
7
  6
CONTINUOUS
370
-3
390
F
  0
LAYER
  5
5A0
100
AcDbSymbolTableRecord
100
AcDbLayerTableRecord
  2
WUERTH_744242471_350000_2
 70
0
 62
7
  6
CONTINUOUS
370
-3
390
F
  0
LAYER
  5
5A1
100
AcDbSymbolTableRecord
100
AcDbLayerTableRecord
  2
X-SMD-3PIN-3_2-2_5_70000
 70
0
 62
7
  6
CONTINUOUS
370
-3
390
F
  0
LAYER
  5
5A2
100
AcDbSymbolTableRecord
100
AcDbLayerTableRecord
  2
_137
 70
0
 62
7
  6
CONTINUOUS
370
-3
390
F
  0
LAYER
  5
5A3
100
AcDbSymbolTableRecord
100
AcDbLayerTableRecord
  2
_1437
 70
0
 62
7
  6
CONTINUOUS
370
-3
390
F
  0
LAYER
  5
5A4
100
AcDbSymbolTableRecord
100
AcDbLayerTableRecord
  2
_151
 70
0
 62
7
  6
CONTINUOUS
370
-3
390
F
  0
LAYER
  5
5A5
100
AcDbSymbolTableRecord
100
AcDbLayerTableRecord
  2
_1676
 70
0
 62
7
  6
CONTINUOUS
370
-3
390
F
  0
LAYER
  5
5A6
100
AcDbSymbolTableRecord
100
AcDbLayerTableRecord
  2
_174
 70
0
 62
7
  6
CONTINUOUS
370
-3
390
F
  0
LAYER
  5
5A7
100
AcDbSymbolTableRecord
100
AcDbLayerTableRecord
  2
_1751
 70
0
 62
7
  6
CONTINUOUS
370
-3
390
F
  0
LAYER
  5
5A8
100
AcDbSymbolTableRecord
100
AcDbLayerTableRecord
  2
_1803
 70
0
 62
7
  6
CONTINUOUS
370
-3
390
F
  0
LAYER
  5
5A9
100
AcDbSymbolTableRecord
100
AcDbLayerTableRecord
  2
_1819
 70
0
 62
7
  6
CONTINUOUS
370
-3
390
F
  0
LAYER
  5
5AA
100
AcDbSymbolTableRecord
100
AcDbLayerTableRecord
  2
_1866
 70
0
 62
7
  6
CONTINUOUS
370
-3
390
F
  0
LAYER
  5
5AB
100
AcDbSymbolTableRecord
100
AcDbLayerTableRecord
  2
_1881
 70
0
 62
7
  6
CONTINUOUS
370
-3
390
F
  0
LAYER
  5
5AC
100
AcDbSymbolTableRecord
100
AcDbLayerTableRecord
  2
_1895
 70
0
 62
7
  6
CONTINUOUS
370
-3
390
F
  0
LAYER
  5
5AD
100
AcDbSymbolTableRecord
100
AcDbLayerTableRecord
  2
_195
 70
0
 62
7
  6
CONTINUOUS
370
-3
390
F
  0
LAYER
  5
5AE
100
AcDbSymbolTableRecord
100
AcDbLayerTableRecord
  2
_1950
 70
0
 62
7
  6
CONTINUOUS
370
-3
390
F
  0
LAYER
  5
5AF
100
AcDbSymbolTableRecord
100
AcDbLayerTableRecord
  2
_1969
 70
0
 62
7
  6
CONTINUOUS
370
-3
390
F
  0
LAYER
  5
5B0
100
AcDbSymbolTableRecord
100
AcDbLayerTableRecord
  2
_2031
 70
0
 62
7
  6
CONTINUOUS
370
-3
390
F
  0
LAYER
  5
5B1
100
AcDbSymbolTableRecord
100
AcDbLayerTableRecord
  2
_2108
 70
0
 62
7
  6
CONTINUOUS
370
-3
390
F
  0
LAYER
  5
5B2
100
AcDbSymbolTableRecord
100
AcDbLayerTableRecord
  2
_220
 70
0
 62
7
  6
CONTINUOUS
370
-3
390
F
  0
LAYER
  5
5B3
100
AcDbSymbolTableRecord
100
AcDbLayerTableRecord
  2
_2202
 70
0
 62
7
  6
CONTINUOUS
370
-3
390
F
  0
LAYER
  5
5B4
100
AcDbSymbolTableRecord
100
AcDbLayerTableRecord
  2
_222
 70
0
 62
7
  6
CONTINUOUS
370
-3
390
F
  0
LAYER
  5
5B5
100
AcDbSymbolTableRecord
100
AcDbLayerTableRecord
  2
_2238
 70
0
 62
7
  6
CONTINUOUS
370
-3
390
F
  0
LAYER
  5
5B6
100
AcDbSymbolTableRecord
100
AcDbLayerTableRecord
  2
_2301
 70
0
 62
7
  6
CONTINUOUS
370
-3
390
F
  0
LAYER
  5
5B7
100
AcDbSymbolTableRecord
100
AcDbLayerTableRecord
  2
_2348
 70
0
 62
7
  6
CONTINUOUS
370
-3
390
F
  0
LAYER
  5
5B8
100
AcDbSymbolTableRecord
100
AcDbLayerTableRecord
  2
_235
 70
0
 62
7
  6
CONTINUOUS
370
-3
390
F
  0
LAYER
  5
5B9
100
AcDbSymbolTableRecord
100
AcDbLayerTableRecord
  2
_2444
 70
0
 62
7
  6
CONTINUOUS
370
-3
390
F
  0
LAYER
  5
5BA
100
AcDbSymbolTableRecord
100
AcDbLayerTableRecord
  2
_2451
 70
0
 62
7
  6
CONTINUOUS
370
-3
390
F
  0
LAYER
  5
5BB
100
AcDbSymbolTableRecord
100
AcDbLayerTableRecord
  2
_2539
 70
0
 62
7
  6
CONTINUOUS
370
-3
390
F
  0
LAYER
  5
5BC
100
AcDbSymbolTableRecord
100
AcDbLayerTableRecord
  2
_257
 70
0
 62
7
  6
CONTINUOUS
370
-3
390
F
  0
LAYER
  5
5BD
100
AcDbSymbolTableRecord
100
AcDbLayerTableRecord
  2
_2601
 70
0
 62
7
  6
CONTINUOUS
370
-3
390
F
  0
LAYER
  5
5BE
100
AcDbSymbolTableRecord
100
AcDbLayerTableRecord
  2
_2622
 70
0
 62
7
  6
CONTINUOUS
370
-3
390
F
  0
LAYER
  5
5BF
100
AcDbSymbolTableRecord
100
AcDbLayerTableRecord
  2
_2647
 70
0
 62
7
  6
CONTINUOUS
370
-3
390
F
  0
LAYER
  5
5C0
100
AcDbSymbolTableRecord
100
AcDbLayerTableRecord
  2
_2656
 70
0
 62
7
  6
CONTINUOUS
370
-3
390
F
  0
LAYER
  5
5C1
100
AcDbSymbolTableRecord
100
AcDbLayerTableRecord
  2
_2707
 70
0
 62
7
  6
CONTINUOUS
370
-3
390
F
  0
LAYER
  5
5C2
100
AcDbSymbolTableRecord
100
AcDbLayerTableRecord
  2
_2766
 70
0
 62
7
  6
CONTINUOUS
370
-3
390
F
  0
LAYER
  5
5C3
100
AcDbSymbolTableRecord
100
AcDbLayerTableRecord
  2
_2804
 70
0
 62
7
  6
CONTINUOUS
370
-3
390
F
  0
LAYER
  5
5C4
100
AcDbSymbolTableRecord
100
AcDbLayerTableRecord
  2
_2861
 70
0
 62
7
  6
CONTINUOUS
370
-3
390
F
  0
LAYER
  5
5C5
100
AcDbSymbolTableRecord
100
AcDbLayerTableRecord
  2
_2882
 70
0
 62
7
  6
CONTINUOUS
370
-3
390
F
  0
LAYER
  5
5C6
100
AcDbSymbolTableRecord
100
AcDbLayerTableRecord
  2
_2903
 70
0
 62
7
  6
CONTINUOUS
370
-3
390
F
  0
LAYER
  5
5C7
100
AcDbSymbolTableRecord
100
AcDbLayerTableRecord
  2
_293
 70
0
 62
7
  6
CONTINUOUS
370
-3
390
F
  0
LAYER
  5
5C8
100
AcDbSymbolTableRecord
100
AcDbLayerTableRecord
  2
_2932
 70
0
 62
7
  6
CONTINUOUS
370
-3
390
F
  0
LAYER
  5
5C9
100
AcDbSymbolTableRecord
100
AcDbLayerTableRecord
  2
_2955
 70
0
 62
7
  6
CONTINUOUS
370
-3
390
F
  0
LAYER
  5
5CA
100
AcDbSymbolTableRecord
100
AcDbLayerTableRecord
  2
_2976
 70
0
 62
7
  6
CONTINUOUS
370
-3
390
F
  0
LAYER
  5
5CB
100
AcDbSymbolTableRecord
100
AcDbLayerTableRecord
  2
_2980
 70
0
 62
7
  6
CONTINUOUS
370
-3
390
F
  0
LAYER
  5
5CC
100
AcDbSymbolTableRecord
100
AcDbLayerTableRecord
  2
_3031
 70
0
 62
7
  6
CONTINUOUS
370
-3
390
F
  0
LAYER
  5
5CD
100
AcDbSymbolTableRecord
100
AcDbLayerTableRecord
  2
_3058
 70
0
 62
7
  6
CONTINUOUS
370
-3
390
F
  0
LAYER
  5
5CE
100
AcDbSymbolTableRecord
100
AcDbLayerTableRecord
  2
_3102
 70
0
 62
7
  6
CONTINUOUS
370
-3
390
F
  0
LAYER
  5
5CF
100
AcDbSymbolTableRecord
100
AcDbLayerTableRecord
  2
_3121
 70
0
 62
7
  6
CONTINUOUS
370
-3
390
F
  0
LAYER
  5
5D0
100
AcDbSymbolTableRecord
100
AcDbLayerTableRecord
  2
_315
 70
0
 62
7
  6
CONTINUOUS
370
-3
390
F
  0
LAYER
  5
5D1
100
AcDbSymbolTableRecord
100
AcDbLayerTableRecord
  2
_3150
 70
0
 62
7
  6
CONTINUOUS
370
-3
390
F
  0
LAYER
  5
5D2
100
AcDbSymbolTableRecord
100
AcDbLayerTableRecord
  2
_3171
 70
0
 62
7
  6
CONTINUOUS
370
-3
390
F
  0
LAYER
  5
5D3
100
AcDbSymbolTableRecord
100
AcDbLayerTableRecord
  2
_3179
 70
0
 62
7
  6
CONTINUOUS
370
-3
390
F
  0
LAYER
  5
5D4
100
AcDbSymbolTableRecord
100
AcDbLayerTableRecord
  2
_3222
 70
0
 62
7
  6
CONTINUOUS
370
-3
390
F
  0
LAYER
  5
5D5
100
AcDbSymbolTableRecord
100
AcDbLayerTableRecord
  2
_3244
 70
0
 62
7
  6
CONTINUOUS
370
-3
390
F
  0
LAYER
  5
5D6
100
AcDbSymbolTableRecord
100
AcDbLayerTableRecord
  2
_3279
 70
0
 62
7
  6
CONTINUOUS
370
-3
390
F
  0
LAYER
  5
5D7
100
AcDbSymbolTableRecord
100
AcDbLayerTableRecord
  2
_3308
 70
0
 62
7
  6
CONTINUOUS
370
-3
390
F
  0
LAYER
  5
5D8
100
AcDbSymbolTableRecord
100
AcDbLayerTableRecord
  2
_3339
 70
0
 62
7
  6
CONTINUOUS
370
-3
390
F
  0
LAYER
  5
5D9
100
AcDbSymbolTableRecord
100
AcDbLayerTableRecord
  2
_336
 70
0
 62
7
  6
CONTINUOUS
370
-3
390
F
  0
LAYER
  5
5DA
100
AcDbSymbolTableRecord
100
AcDbLayerTableRecord
  2
_3362
 70
0
 62
7
  6
CONTINUOUS
370
-3
390
F
  0
LAYER
  5
5DB
100
AcDbSymbolTableRecord
100
AcDbLayerTableRecord
  2
_3388
 70
0
 62
7
  6
CONTINUOUS
370
-3
390
F
  0
LAYER
  5
5DC
100
AcDbSymbolTableRecord
100
AcDbLayerTableRecord
  2
_3438
 70
0
 62
7
  6
CONTINUOUS
370
-3
390
F
  0
LAYER
  5
5DD
100
AcDbSymbolTableRecord
100
AcDbLayerTableRecord
  2
_3500
 70
0
 62
7
  6
CONTINUOUS
370
-3
390
F
  0
LAYER
  5
5DE
100
AcDbSymbolTableRecord
100
AcDbLayerTableRecord
  2
_3516
 70
0
 62
7
  6
CONTINUOUS
370
-3
390
F
  0
LAYER
  5
5DF
100
AcDbSymbolTableRecord
100
AcDbLayerTableRecord
  2
_3537
 70
0
 62
7
  6
CONTINUOUS
370
-3
390
F
  0
LAYER
  5
5E0
100
AcDbSymbolTableRecord
100
AcDbLayerTableRecord
  2
_3558
 70
0
 62
7
  6
CONTINUOUS
370
-3
390
F
  0
LAYER
  5
5E1
100
AcDbSymbolTableRecord
100
AcDbLayerTableRecord
  2
_3594
 70
0
 62
7
  6
CONTINUOUS
370
-3
390
F
  0
LAYER
  5
5E2
100
AcDbSymbolTableRecord
100
AcDbLayerTableRecord
  2
_3628
 70
0
 62
7
  6
CONTINUOUS
370
-3
390
F
  0
LAYER
  5
5E3
100
AcDbSymbolTableRecord
100
AcDbLayerTableRecord
  2
_366
 70
0
 62
7
  6
CONTINUOUS
370
-3
390
F
  0
LAYER
  5
5E4
100
AcDbSymbolTableRecord
100
AcDbLayerTableRecord
  2
_390
 70
0
 62
7
  6
CONTINUOUS
370
-3
390
F
  0
LAYER
  5
5E5
100
AcDbSymbolTableRecord
100
AcDbLayerTableRecord
  2
_449
 70
0
 62
7
  6
CONTINUOUS
370
-3
390
F
  0
LAYER
  5
5E6
100
AcDbSymbolTableRecord
100
AcDbLayerTableRecord
  2
_481
 70
0
 62
7
  6
CONTINUOUS
370
-3
390
F
  0
LAYER
  5
5E7
100
AcDbSymbolTableRecord
100
AcDbLayerTableRecord
  2
_503
 70
0
 62
7
  6
CONTINUOUS
370
-3
390
F
  0
LAYER
  5
5E8
100
AcDbSymbolTableRecord
100
AcDbLayerTableRecord
  2
_524
 70
0
 62
7
  6
CONTINUOUS
370
-3
390
F
  0
LAYER
  5
5E9
100
AcDbSymbolTableRecord
100
AcDbLayerTableRecord
  2
_549
 70
0
 62
7
  6
CONTINUOUS
370
-3
390
F
  0
LAYER
  5
5EA
100
AcDbSymbolTableRecord
100
AcDbLayerTableRecord
  2
_578
 70
0
 62
7
  6
CONTINUOUS
370
-3
390
F
  0
LAYER
  5
5EB
100
AcDbSymbolTableRecord
100
AcDbLayerTableRecord
  2
_59
 70
0
 62
7
  6
CONTINUOUS
370
-3
390
F
  0
LAYER
  5
5EC
100
AcDbSymbolTableRecord
100
AcDbLayerTableRecord
  2
_608
 70
0
 62
7
  6
CONTINUOUS
370
-3
390
F
  0
LAYER
  5
5ED
100
AcDbSymbolTableRecord
100
AcDbLayerTableRecord
  2
_638
 70
0
 62
7
  6
CONTINUOUS
370
-3
390
F
  0
LAYER
  5
5EE
100
AcDbSymbolTableRecord
100
AcDbLayerTableRecord
  2
_96
 70
0
 62
7
  6
CONTINUOUS
370
-3
390
F
  0
LAYER
  5
5EF
100
AcDbSymbolTableRecord
100
AcDbLayerTableRecord
  2
_CSFC08-_4_6_4_3_6-TERMINAL
 70
0
 62
7
  6
CONTINUOUS
370
-3
390
F
  0
LAYER
  5
5F0
100
AcDbSymbolTableRecord
100
AcDbLayerTableRecord
  2
_CSFC08-_4_6_4_3_6-TERMINAL_1
 70
0
 62
7
  6
CONTINUOUS
370
-3
390
F
  0
LAYER
  5
5F1
100
AcDbSymbolTableRecord
100
AcDbLayerTableRecord
  2
_CSFC08-_4_6_4_3_6-TERMINAL_2
 70
0
 62
7
  6
CONTINUOUS
370
-3
390
F
  0
LAYER
  5
5F2
100
AcDbSymbolTableRecord
100
AcDbLayerTableRecord
  2
_CSFC08-_4_6_4_3_6-TERMINAL_3
 70
0
 62
7
  6
CONTINUOUS
370
-3
390
F
  0
LAYER
  5
5F3
100
AcDbSymbolTableRecord
100
AcDbLayerTableRecord
  2
_CSFC08-_4_6_4_3_6-TERMINAL_4
 70
0
 62
7
  6
CONTINUOUS
370
-3
390
F
  0
LAYER
  5
5F4
100
AcDbSymbolTableRecord
100
AcDbLayerTableRecord
  2
_CSFC08-_4_6_4_3_6-TERMINAL_5
 70
0
 62
7
  6
CONTINUOUS
370
-3
390
F
  0
LAYER
  5
5F5
100
AcDbSymbolTableRecord
100
AcDbLayerTableRecord
  2
_CSFC08-_4_6_4_3_6-TERMINAL_6
 70
0
 62
7
  6
CONTINUOUS
370
-3
390
F
  0
LAYER
  5
5F6
100
AcDbSymbolTableRecord
100
AcDbLayerTableRecord
  2
_CSFC08-_4_6_4_3_6-TERMINAL_7
 70
0
 62
7
  6
CONTINUOUS
370
-3
390
F
  0
LAYER
  5
5F7
100
AcDbSymbolTableRecord
100
AcDbLayerTableRecord
  2
_CSFC08-_4_6_4_3_6-TERMINAL_8
 70
0
 62
7
  6
CONTINUOUS
370
-3
390
F
  0
LAYER
  5
5F8
100
AcDbSymbolTableRecord
100
AcDbLayerTableRecord
  2
_CSFC08-_4_6_4_3_6-TERMINAL_9
 70
0
 62
7
  6
CONTINUOUS
370
-3
390
F
  0
LAYER
  5
5F9
100
AcDbSymbolTableRecord
100
AcDbLayerTableRecord
  2
_CSFC2XX-_5_08_4_3_B_0_64_1_15
 70
0
 62
7
  6
CONTINUOUS
370
-3
390
F
  0
LAYER
  5
5FA
100
AcDbSymbolTableRecord
100
AcDbLayerTableRecord
  2
___SHELL
 70
0
 62
7
  6
CONTINUOUS
370
-3
390
F
  0
ENDTAB
  0
TABLE
  2
STYLE
  5
3
100
AcDbSymbolTable
 70
1
  0
STYLE
  5
11
100
AcDbSymbolTableRecord
100
AcDbTextStyleTableRecord
  2
STANDARD
 70
0
 40
0.0
 41
0.8
 50
0.0
 71
0
 42
0.2
  3
txt
  4

  0
STYLE
  5
5FB
100
AcDbSymbolTableRecord
100
AcDbTextStyleTableRecord
  2
TEXTSTYLE_1
 70
0
 40
0.0
 41
0.8
 50
0.0
 71
0
 42
0.2
  3
gdt
  4

  0
ENDTAB
  0
TABLE
  2
VIEW
  5
6
100
AcDbSymbolTable
 70
0
  0
ENDTAB
  0
TABLE
  2
UCS
  5
7
100
AcDbSymbolTable
 70
0
  0
ENDTAB
  0
TABLE
  2
APPID
  5
9
100
AcDbSymbolTable
 70
1
  0
APPID
  5
5FC
100
AcDbSymbolTableRecord
100
AcDbRegAppTableRecord
  2
ACAD
 70
0
  0
ENDTAB
  0
TABLE
  2
BLOCK_RECORD
  5
1
100
AcDbSymbolTable
 70
0
  0
BLOCK_RECORD
  5
5FD
100
AcDbSymbolTableRecord
100
AcDbBlockTableRecord
  2
*Model_Space
  0
BLOCK_RECORD
  5
5FE
100
AcDbSymbolTableRecord
100
AcDbBlockTableRecord
  2
*Paper_Space
  0
BLOCK_RECORD
  5
5FF
100
AcDbSymbolTableRecord
100
AcDbBlockTableRecord
  2
_FILLED
  0
ENDTAB
  0
TABLE
  2
DIMSTYLE
  5
A
100
AcDbSymbolTable
 70
1
100
AcDbDimStyleTable
 71
0
  0
DIMSTYLE
105
600
100
AcDbSymbolTableRecord
100
AcDbDimStyleTableRecord
  2
STANDARD
 70
0
  3

  4

 40
1.0
 41
3.0
 42
0.5
 43
0.38
 44
1.5
 45
0.0
 46
0.0
 47
0.01
 48
0.01
140
3.0
141
0.0
142
0.0
143
25.4
144
1.0
145
0.0
146
1.0
147
0.625
 71
1
 72
0
 73
0
 74
0
 75
0
 76
0
 77
1
 78
8
 79
2
170
0
171
1
172
0
173
0
174
0
175
0
176
0
177
0
178
0
270
2
179
2
271
2
272
2
273
2
274
2
275
0
280
0
281
0
282
0
283
1
284
8
285
0
286
0
287
3
288
0
340
11
278
44
341
5FF
342
5FF
343
5FF
344
5FF
  0
ENDTAB
  0
ENDSEC
  0
SECTION
  2
BLOCKS
  0
BLOCK
  5
20
100
AcDbEntity
  8
0
100
AcDbBlockBegin
  2
*Model_Space
 70
0
 10
0.0
 20
0.0
 30
0.0
  3
*Model_Space
  1

  0
ENDBLK
  5
21
100
AcDbEntity
  8
0
100
AcDbBlockEnd
  0
BLOCK
  5
1C
100
AcDbEntity
  8
0
100
AcDbBlockBegin
  2
*Paper_Space
 70
0
 10
0.0
 20
0.0
 30
0.0
  3
*Paper_Space
  1

  0
ENDBLK
  5
1D
100
AcDbEntity
  8
0
100
AcDbBlockEnd
  0
BLOCK
  5
601
100
AcDbEntity
  8
0
100
AcDbBlockBegin
  2
_FILLED
 70
64
 10
0.0
 20
0.0
 30
0.0
  3
_FILLED
  1

  0
SOLID
  5
602
100
AcDbEntity
  8
0
  6
BYBLOCK
 62
0
100
AcDbTrace
 10
0.0
 20
0.0
 30
0.0
 11
-1.0
 21
0.3166666667
 31
0.0
 12
-1.0
 22
-0.3166666667
 32
0.0
 13
-1.0
 23
-0.3166666667
 33
0.0
  0
ENDBLK
  5
603
100
AcDbEntity
  8
0
  6
BYBLOCK
 62
0
100
AcDbBlockEnd
  0
ENDSEC
  0
SECTION
  2
ENTITIES
  0
LINE
  5
604
100
AcDbEntity
  8
DRAFT
100
AcDbLine
 62
7
  6
CONTINUOUS
 10
-9.3380077942
 20
-24.4
 30
0.0
 11
-7.1380077942
 21
-24.4
 31
0.0
  0
LINE
  5
605
100
AcDbEntity
  8
DRAFT
100
AcDbLine
 62
7
  6
CONTINUOUS
 10
9.6619922058
 20
-24.4
 30
0.0
 11
11.8619922058
 21
-24.4
 31
0.0
  0
LINE
  5
606
100
AcDbEntity
  8
RACCORDO
100
AcDbLine
 62
250
  6
CONTINUOUS
 10
-9.3340579221
 20
-24.3868325431
 30
0.0
 11
-7.1419576663
 21
-24.3868325431
 31
0.0
  0
LINE
  5
607
100
AcDbEntity
  8
RACCORDO
100
AcDbLine
 62
250
  6
CONTINUOUS
 10
9.6659420779
 20
-24.3868325431
 30
0.0
 11
11.8580423337
 21
-24.3868325431
 31
0.0
  0
LINE
  5
608
100
AcDbEntity
  8
RACCORDO
100
AcDbLine
 62
250
  6
CONTINUOUS
 10
-9.3327717586
 20
-24.1368706193
 30
0.0
 11
-7.1432438298
 21
-24.1368706193
 31
0.0
  0
LINE
  5
609
100
AcDbEntity
  8
RACCORDO
100
AcDbLine
 62
250
  6
CONTINUOUS
 10
9.6672282414
 20
-24.1368706193
 30
0.0
 11
11.8567561702
 21
-24.1368706193
 31
0.0
  0
LINE
  5
60A
100
AcDbEntity
  8
RACCORDO
100
AcDbLine
 62
250
  6
CONTINUOUS
 10
11.8567561702
 20
-23.8443375673
 30
0.0
 11
9.6672282414
 21
-23.8443375673
 31
0.0
  0
LINE
  5
60B
100
AcDbEntity
  8
RACCORDO
100
AcDbLine
 62
250
  6
CONTINUOUS
 10
-7.1432438298
 20
-23.8443375673
 30
0.0
 11
-9.3327717586
 21
-23.8443375673
 31
0.0
  0
LINE
  5
60C
100
AcDbEntity
  8
DRAFT
100
AcDbLine
 62
7
  6
CONTINUOUS
 10
5.6619922058
 20
-23.8
 30
0.0
 11
-3.1380077942
 21
-23.8
 31
0.0
  0
LINE
  5
60D
100
AcDbEntity
  8
DRAFT
100
AcDbLine
 62
7
  6
CONTINUOUS
 10
4.7950007184
 20
-23.7825449351
 30
0.0
 11
-2.2710163069
 21
-23.7825449351
 31
0.0
  0
LINE
  5
60E
100
AcDbEntity
  8
RACCORDO
100
AcDbLine
 62
7
  6
CONTINUOUS
 10
5.2275425074
 20
-23.6603594806
 30
0.0
 11
5.0934356456
 21
-23.6603594806
 31
0.0
  0
LINE
  5
60F
100
AcDbEntity
  8
RACCORDO
100
AcDbLine
 62
7
  6
CONTINUOUS
 10
-2.569451234
 20
-23.6603594806
 30
0.0
 11
-2.7035580958
 21
-23.6603594806
 31
0.0
  0
LINE
  5
610
100
AcDbEntity
  8
RACCORDO
100
AcDbLine
 62
250
  6
CONTINUOUS
 10
11.8574106746
 20
-23.6278312164
 30
0.0
 11
9.666573737
 21
-23.6278312164
 31
0.0
  0
LINE
  5
611
100
AcDbEntity
  8
RACCORDO
100
AcDbLine
 62
250
  6
CONTINUOUS
 10
-7.1425893254
 20
-23.6278312164
 30
0.0
 11
-9.333426263
 21
-23.6278312164
 31
0.0
  0
LINE
  5
612
100
AcDbEntity
  8
RACCORDO
100
AcDbLine
 62
250
  6
CONTINUOUS
 10
-9.3373532898
 20
-23.1948185145
 30
0.0
 11
-7.1386622987
 21
-23.1948185145
 31
0.0
  0
LINE
  5
613
100
AcDbEntity
  8
RACCORDO
100
AcDbLine
 62
250
  6
CONTINUOUS
 10
9.6626467102
 20
-23.1948185145
 30
0.0
 11
11.8613377013
 21
-23.1948185145
 31
0.0
  0
LINE
  5
614
100
AcDbEntity
  8
RACCORDO
100
AcDbLine
 62
250
  6
CONTINUOUS
 10
-9.3380077942
 20
-22.9783121635
 30
0.0
 11
-7.1380077942
 21
-22.9783121635
 31
0.0
  0
LINE
  5
615
100
AcDbEntity
  8
RACCORDO
100
AcDbLine
 62
250
  6
CONTINUOUS
 10
9.6619922058
 20
-22.9783121635
 30
0.0
 11
11.8619922058
 21
-22.9783121635
 31
0.0
  0
LINE
  5
616
100
AcDbEntity
  8
RACCORDO
100
AcDbLine
 62
7
  6
CONTINUOUS
 10
12.0619566474
 20
-22.4
 30
0.0
 11
11.8619922058
 21
-22.4
 31
0.0
  0
LINE
  5
617
100
AcDbEntity
  8
RACCORDO
100
AcDbLine
 62
7
  6
CONTINUOUS
 10
-9.3380077942
 20
-22.4
 30
0.0
 11
-9.5379722358
 21
-22.4
 31
0.0
  0
LINE
  5
618
100
AcDbEntity
  8
DRAFT
100
AcDbLine
 62
7
  6
CONTINUOUS
 10
-9.3380077942
 20
-22.4
 30
0.0
 11
-3.1380077942
 21
-22.4
 31
0.0
  0
LINE
  5
619
100
AcDbEntity
  8
DRAFT
100
AcDbLine
 62
7
  6
CONTINUOUS
 10
5.6619922058
 20
-22.4
 30
0.0
 11
11.8619922058
 21
-22.4
 31
0.0
  0
LINE
  5
61A
100
AcDbEntity
  8
RACCORDO
100
AcDbLine
 62
7
  6
CONTINUOUS
 10
12.0445371388
 20
-22.3912731322
 30
0.0
 11
8.417169626
 21
-22.3912731322
 31
0.0
  0
LINE
  5
61B
100
AcDbEntity
  8
RACCORDO
100
AcDbLine
 62
7
  6
CONTINUOUS
 10
-5.8931852144
 20
-22.3912731322
 30
0.0
 11
-9.5205527272
 21
-22.3912731322
 31
0.0
  0
LINE
  5
61C
100
AcDbEntity
  8
DRAFT
100
AcDbLine
 62
7
  6
CONTINUOUS
 10
-2.2579462292
 20
-22.3380392387
 30
0.0
 11
-1.7380077942
 21
-22.3380392387
 31
0.0
  0
LINE
  5
61D
100
AcDbEntity
  8
DRAFT
100
AcDbLine
 62
7
  6
CONTINUOUS
 10
4.2619922058
 20
-22.3380392387
 30
0.0
 11
4.7819306407
 21
-22.3380392387
 31
0.0
  0
LINE
  5
61E
100
AcDbEntity
  8
RACCORDO
100
AcDbLine
 62
7
  6
CONTINUOUS
 10
5.2275425074
 20
-22.3301850577
 30
0.0
 11
5.0818278313
 21
-22.3301850577
 31
0.0
  0
LINE
  5
61F
100
AcDbEntity
  8
RACCORDO
100
AcDbLine
 62
7
  6
CONTINUOUS
 10
-2.5578434197
 20
-22.3301850577
 30
0.0
 11
-2.7035580958
 21
-22.3301850577
 31
0.0
  0
LINE
  5
620
100
AcDbEntity
  8
RACCORDO
100
AcDbLine
 62
250
  6
CONTINUOUS
 10
-5.8606205869
 20
-22.3126551668
 30
0.0
 11
-1.7887798047
 21
-22.3126551668
 31
0.0
  0
LINE
  5
621
100
AcDbEntity
  8
RACCORDO
100
AcDbLine
 62
250
  6
CONTINUOUS
 10
4.3127642163
 20
-22.3126551668
 30
0.0
 11
8.3846049985
 21
-22.3126551668
 31
0.0
  0
LINE
  5
622
100
AcDbEntity
  8
DRAFT
100
AcDbLine
 62
7
  6
CONTINUOUS
 10
4.2619922058
 20
-21.7
 30
0.0
 11
-1.7380077942
 21
-21.7
 31
0.0
  0
LINE
  5
623
100
AcDbEntity
  8
DRAFT
100
AcDbLine
 62
7
  6
CONTINUOUS
 10
4.2982348859
 20
-21.6637573199
 30
0.0
 11
-1.7742504743
 21
-21.6637573199
 31
0.0
  0
LINE
  5
624
100
AcDbEntity
  8
RACCORDO
100
AcDbLine
 62
7
  6
CONTINUOUS
 10
-6.0699551786
 20
22.3180526156
 30
0.0
 11
-6.9147872776
 21
21.4732205166
 31
0.0
  0
LINE
  5
625
100
AcDbEntity
  8
RACCORDO
100
AcDbLine
 62
7
  6
CONTINUOUS
 10
-6.8296812778
 20
21.4379684572
 30
0.0
 11
-6.7781865272
 21
21.4894632079
 31
0.0
  0
LINE
  5
626
100
AcDbEntity
  8
DRAFT
100
AcDbLine
 62
7
  6
CONTINUOUS
 10
-7.4009690013
 20
20.7370387929
 30
0.0
 11
-7.3880077942
 21
20.75
 31
0.0
  0
LINE
  5
627
100
AcDbEntity
  8
RACCORDO
100
AcDbLine
 62
250
  6
CONTINUOUS
 10
-6.9029017944
 20
21.2350964806
 30
0.0
 11
-6.9880077942
 21
21.1499904808
 31
0.0
  0
LINE
  5
628
100
AcDbEntity
  8
RACCORDO
100
AcDbLine
 62
7
  6
CONTINUOUS
 10
-1.7887798047
 20
22.3126551668
 30
0.0
 11
-1.7380077942
 21
22.3380392387
 31
0.0
  0
LINE
  5
629
100
AcDbEntity
  8
ASSI
100
AcDbLine
 62
7
  6
CONTINUOUS
 10
7.770718409
 20
-21.0863897615
 30
0.0
 11
1.2619922058
 21
-21.2
 31
0.0
  0
LINE
  5
62A
100
AcDbEntity
  8
RACCORDO
100
AcDbLine
 62
7
  6
CONTINUOUS
 10
7.770718409
 20
-21.0863897615
 30
0.0
 11
1.2619922058
 21
-21.2
 31
0.0
  0
LINE
  5
62B
100
AcDbEntity
  8
ASSI
100
AcDbLine
 62
250
  6
CONTINUOUS
 10
6.2968970187
 20
-20.612191562
 30
0.0
 11
1.2619922058
 21
-20.7000761524
 31
0.0
  0
LINE
  5
62C
100
AcDbEntity
  8
RACCORDO
100
AcDbLine
 62
250
  6
CONTINUOUS
 10
6.2968970187
 20
-20.612191562
 30
0.0
 11
1.2619922058
 21
-20.7000761524
 31
0.0
  0
LINE
  5
62D
100
AcDbEntity
  8
ASSI
100
AcDbLine
 62
250
  6
CONTINUOUS
 10
8.2619922058
 20
-20.5864659139
 30
0.0
 11
6.2968970187
 21
-20.612191562
 31
0.0
  0
LINE
  5
62E
100
AcDbEntity
  8
RACCORDO
100
AcDbLine
 62
250
  6
CONTINUOUS
 10
8.2619922058
 20
-20.5864659139
 30
0.0
 11
6.2968970187
 21
-20.612191562
 31
0.0
  0
LINE
  5
62F
100
AcDbEntity
  8
RACCORDO
100
AcDbLine
 62
250
  6
CONTINUOUS
 10
-6.601416563
 20
-21.3126932437
 30
0.0
 11
-1.8060825474
 21
-21.3126932437
 31
0.0
  0
LINE
  5
630
100
AcDbEntity
  8
RACCORDO
100
AcDbLine
 62
250
  6
CONTINUOUS
 10
4.330066959
 20
-21.3126932437
 30
0.0
 11
9.1254009746
 21
-21.3126932437
 31
0.0
  0
LINE
  5
631
100
AcDbEntity
  8
RACCORDO
100
AcDbLine
 62
250
  6
CONTINUOUS
 10
-6.9029017944
 20
-21.2611984931
 30
0.0
 11
-6.6529113136
 21
-21.2611984931
 31
0.0
  0
LINE
  5
632
100
AcDbEntity
  8
RACCORDO
100
AcDbLine
 62
250
  6
CONTINUOUS
 10
9.1768957252
 20
-21.2611984931
 30
0.0
 11
9.426886206
 21
-21.2611984931
 31
0.0
  0
LINE
  5
633
100
AcDbEntity
  8
RACCORDO
100
AcDbLine
 62
7
  6
CONTINUOUS
 10
-6.6529113136
 20
-20.9872686779
 30
0.0
 11
-6.1346570992
 21
-20.9872686779
 31
0.0
  0
LINE
  5
634
100
AcDbEntity
  8
RACCORDO
100
AcDbLine
 62
7
  6
CONTINUOUS
 10
8.6586415101
 20
-20.9872686778
 30
0.0
 11
9.1768957252
 21
-20.9872686779
 31
0.0
  0
LINE
  5
635
100
AcDbEntity
  8
RACCORDO
100
AcDbLine
 62
7
  6
CONTINUOUS
 10
9.262001725
 20
-20.9
 30
0.0
 11
8.8119826866
 21
-20.9
 31
0.0
  0
LINE
  5
636
100
AcDbEntity
  8
RACCORDO
100
AcDbLine
 62
7
  6
CONTINUOUS
 10
-6.287998275
 20
-20.9
 30
0.0
 11
-6.7380173134
 21
-20.9
 31
0.0
  0
LINE
  5
637
100
AcDbEntity
  8
RACCORDO
100
AcDbLine
 62
7
  6
CONTINUOUS
 10
-7.3880077942
 20
-20.75
 30
0.0
 11
-8.2380458704
 21
-20.75
 31
0.0
  0
LINE
  5
638
100
AcDbEntity
  8
RACCORDO
100
AcDbLine
 62
7
  6
CONTINUOUS
 10
9.9119922058
 20
-20.75
 30
0.0
 11
10.762030282
 21
-20.75
 31
0.0
  0
LINE
  5
639
100
AcDbEntity
  8
RACCORDO
100
AcDbLine
 62
7
  6
CONTINUOUS
 10
10.7490690749
 20
-20.7370387929
 30
0.0
 11
9.9249534129
 21
-20.7370387929
 31
0.0
  0
LINE
  5
63A
100
AcDbEntity
  8
RACCORDO
100
AcDbLine
 62
7
  6
CONTINUOUS
 10
-8.2250846633
 20
-20.7370387929
 30
0.0
 11
-7.4009690013
 21
-20.7370387929
 31
0.0
  0
LINE
  5
63B
100
AcDbEntity
  8
ASSI
100
AcDbLine
 62
250
  6
CONTINUOUS
 10
6.2968970187
 20
-20.287808438
 30
0.0
 11
8.2619922061
 21
-20.3135340861
 31
0.0
  0
LINE
  5
63C
100
AcDbEntity
  8
RACCORDO
100
AcDbLine
 62
250
  6
CONTINUOUS
 10
6.2968970187
 20
-20.287808438
 30
0.0
 11
8.2619922061
 21
-20.3135340861
 31
0.0
  0
LINE
  5
63D
100
AcDbEntity
  8
ASSI
100
AcDbLine
 62
7
  6
CONTINUOUS
 10
-4.4201392677
 20
-21.1008180262
 30
0.0
 11
1.2619922058
 21
-21.2
 31
0.0
  0
LINE
  5
63E
100
AcDbEntity
  8
RACCORDO
100
AcDbLine
 62
7
  6
CONTINUOUS
 10
-4.4201392677
 20
-21.1008180262
 30
0.0
 11
1.2619922058
 21
-21.2
 31
0.0
  0
LINE
  5
63F
100
AcDbEntity
  8
ASSI
100
AcDbLine
 62
250
  6
CONTINUOUS
 10
-4.4201392677
 20
-20.6008941786
 30
0.0
 11
1.2619922058
 21
-20.7000761524
 31
0.0
  0
LINE
  5
640
100
AcDbEntity
  8
RACCORDO
100
AcDbLine
 62
250
  6
CONTINUOUS
 10
-4.4201392677
 20
-20.6008941786
 30
0.0
 11
1.2619922058
 21
-20.7000761524
 31
0.0
  0
LINE
  5
641
100
AcDbEntity
  8
ASSI
100
AcDbLine
 62
250
  6
CONTINUOUS
 10
1.2619922058
 20
-20.1999238476
 30
0.0
 11
6.2968970187
 21
-20.287808438
 31
0.0
  0
LINE
  5
642
100
AcDbEntity
  8
RACCORDO
100
AcDbLine
 62
250
  6
CONTINUOUS
 10
1.2619922058
 20
-20.1999238476
 30
0.0
 11
6.2968970187
 21
-20.287808438
 31
0.0
  0
LINE
  5
643
100
AcDbEntity
  8
RACCORDO
100
AcDbLine
 62
7
  6
CONTINUOUS
 10
-1.7887798047
 20
-22.3126551668
 30
0.0
 11
-1.7380077942
 21
-22.3380392387
 31
0.0
  0
LINE
  5
644
100
AcDbEntity
  8
RACCORDO
100
AcDbLine
 62
7
  6
CONTINUOUS
 10
-6.9147872776
 20
-21.4732205166
 30
0.0
 11
-6.0699551786
 21
-22.3180526156
 31
0.0
  0
LINE
  5
645
100
AcDbEntity
  8
RACCORDO
100
AcDbLine
 62
7
  6
CONTINUOUS
 10
-6.8296812778
 20
-21.4379684572
 30
0.0
 11
-6.7781865272
 21
-21.4894632079
 31
0.0
  0
LINE
  5
646
100
AcDbEntity
  8
DRAFT
100
AcDbLine
 62
7
  6
CONTINUOUS
 10
-7.3880077942
 20
-20.75
 30
0.0
 11
-7.4009690013
 21
-20.7370387929
 31
0.0
  0
LINE
  5
647
100
AcDbEntity
  8
RACCORDO
100
AcDbLine
 62
250
  6
CONTINUOUS
 10
-6.9029017944
 20
-21.2350964806
 30
0.0
 11
-6.9880077942
 21
-21.1499904808
 31
0.0
  0
LINE
  5
648
100
AcDbEntity
  8
ASSI
100
AcDbLine
 62
7
  6
CONTINUOUS
 10
-5.8117353532
 20
20.5029411645
 30
0.0
 11
-6.7380077942
 21
19.5603594806
 31
0.0
  0
LINE
  5
649
100
AcDbEntity
  8
RACCORDO
100
AcDbLine
 62
7
  6
CONTINUOUS
 10
-5.8117353532
 20
20.5029411645
 30
0.0
 11
-6.7380077942
 21
19.5603594806
 31
0.0
  0
LINE
  5
64A
100
AcDbEntity
  8
ASSI
100
AcDbLine
 62
250
  6
CONTINUOUS
 10
-5.4638363318
 20
20.1524865323
 30
0.0
 11
-6.0336358415
 21
19.5726543387
 31
0.0
  0
LINE
  5
64B
100
AcDbEntity
  8
RACCORDO
100
AcDbLine
 62
250
  6
CONTINUOUS
 10
-5.4638363318
 20
20.1524865323
 30
0.0
 11
-6.0336358415
 21
19.5726543387
 31
0.0
  0
LINE
  5
64C
100
AcDbEntity
  8
RACCORDO
100
AcDbLine
 62
250
  6
CONTINUOUS
 10
-6.6529113136
 20
21.2611984931
 30
0.0
 11
-6.601416563
 21
21.3126932437
 31
0.0
  0
LINE
  5
64D
100
AcDbEntity
  8
RACCORDO
100
AcDbLine
 62
250
  6
CONTINUOUS
 10
-6.6507486355
 20
20.9872686779
 30
0.0
 11
-6.7380173134
 21
20.9
 31
0.0
  0
LINE
  5
64E
100
AcDbEntity
  8
ASSI
100
AcDbLine
 62
7
  6
CONTINUOUS
 10
-7.9800308589
 20
19.2579769353
 30
0.0
 11
-9.5951145754
 21
17.6428932188
 31
0.0
  0
LINE
  5
64F
100
AcDbEntity
  8
RACCORDO
100
AcDbLine
 62
7
  6
CONTINUOUS
 10
-7.9800308589
 20
19.2579769353
 30
0.0
 11
-9.5951145754
 21
17.6428932188
 31
0.0
  0
LINE
  5
650
100
AcDbEntity
  8
RACCORDO
100
AcDbLine
 62
250
  6
CONTINUOUS
 10
-6.287998275
 20
20.9
 30
0.0
 11
-6.2028922752
 21
20.9851059998
 31
0.0
  0
LINE
  5
651
100
AcDbEntity
  8
RACCORDO
100
AcDbLine
 62
250
  6
CONTINUOUS
 10
-6.0380077942
 20
20.6500095192
 30
0.0
 11
-5.9529017944
 21
20.735115519
 31
0.0
  0
LINE
  5
652
100
AcDbEntity
  8
ASSI
100
AcDbLine
 62
250
  6
CONTINUOUS
 10
-7.2903764842
 20
18.5508701541
 30
0.0
 11
-8.9054602006
 21
16.9357864376
 31
0.0
  0
LINE
  5
653
100
AcDbEntity
  8
RACCORDO
100
AcDbLine
 62
250
  6
CONTINUOUS
 10
-7.2903764842
 20
18.5508701541
 30
0.0
 11
-8.9054602006
 21
16.9357864376
 31
0.0
  0
LINE
  5
654
100
AcDbEntity
  8
RACCORDO
100
AcDbLine
 62
7
  6
CONTINUOUS
 10
1.2619922058
 20
-19.7
 30
0.0
 11
9.8143608958
 21
-19.5507178492
 31
0.0
  0
LINE
  5
655
100
AcDbEntity
  8
RACCORDO
100
AcDbLine
 62
250
  6
CONTINUOUS
 10
1.2619922058
 20
-18.7001523048
 30
0.0
 11
9.8143608958
 21
-18.5508701541
 31
0.0
  0
LINE
  5
656
100
AcDbEntity
  8
RACCORDO
100
AcDbLine
 62
7
  6
CONTINUOUS
 10
8.2268957252
 20
-19.7872686779
 30
0.0
 11
7.6492513645
 21
-19.7872686779
 31
0.0
  0
LINE
  5
657
100
AcDbEntity
  8
RACCORDO
100
AcDbLine
 62
7
  6
CONTINUOUS
 10
8.312001725
 20
-19.7
 30
0.0
 11
7.5619826866
 21
-19.7
 31
0.0
  0
LINE
  5
658
100
AcDbEntity
  8
ASSI
100
AcDbLine
 62
7
  6
CONTINUOUS
 10
-7.2903764842
 20
-19.5507178492
 30
0.0
 11
7.770718409
 21
-19.8136102385
 31
0.0
  0
LINE
  5
659
100
AcDbEntity
  8
RACCORDO
100
AcDbLine
 62
7
  6
CONTINUOUS
 10
-7.2903764842
 20
-19.5507178492
 30
0.0
 11
7.770718409
 21
-19.8136102385
 31
0.0
  0
LINE
  5
65A
100
AcDbEntity
  8
ASSI
100
AcDbLine
 62
250
  6
CONTINUOUS
 10
-7.2903764842
 20
-18.5508701541
 30
0.0
 11
1.2619922058
 21
-18.7001523048
 31
0.0
  0
LINE
  5
65B
100
AcDbEntity
  8
RACCORDO
100
AcDbLine
 62
250
  6
CONTINUOUS
 10
-7.2903764842
 20
-18.5508701541
 30
0.0
 11
1.2619922058
 21
-18.7001523048
 31
0.0
  0
LINE
  5
65C
100
AcDbEntity
  8
RACCORDO
100
AcDbLine
 62
250
  6
CONTINUOUS
 10
-6.6529113136
 20
-21.2611984931
 30
0.0
 11
-6.601416563
 21
-21.3126932437
 31
0.0
  0
LINE
  5
65D
100
AcDbEntity
  8
RACCORDO
100
AcDbLine
 62
250
  6
CONTINUOUS
 10
-6.6507486355
 20
-20.9872686779
 30
0.0
 11
-6.7380173134
 21
-20.9
 31
0.0
  0
LINE
  5
65E
100
AcDbEntity
  8
ASSI
100
AcDbLine
 62
7
  6
CONTINUOUS
 10
-9.5951145754
 20
-17.6428932188
 30
0.0
 11
-7.9800308589
 21
-19.2579769353
 31
0.0
  0
LINE
  5
65F
100
AcDbEntity
  8
RACCORDO
100
AcDbLine
 62
7
  6
CONTINUOUS
 10
-9.5951145754
 20
-17.6428932188
 30
0.0
 11
-7.9800308589
 21
-19.2579769353
 31
0.0
  0
LINE
  5
660
100
AcDbEntity
  8
RACCORDO
100
AcDbLine
 62
250
  6
CONTINUOUS
 10
-6.287998275
 20
-20.9
 30
0.0
 11
-6.2028922752
 21
-20.9851059998
 31
0.0
  0
LINE
  5
661
100
AcDbEntity
  8
RACCORDO
100
AcDbLine
 62
250
  6
CONTINUOUS
 10
-6.0380077942
 20
-20.6500095192
 30
0.0
 11
-5.9529017944
 21
-20.735115519
 31
0.0
  0
LINE
  5
662
100
AcDbEntity
  8
ASSI
100
AcDbLine
 62
250
  6
CONTINUOUS
 10
-8.9054602006
 20
-16.9357864376
 30
0.0
 11
-7.2903764842
 21
-18.5508701541
 31
0.0
  0
LINE
  5
663
100
AcDbEntity
  8
RACCORDO
100
AcDbLine
 62
250
  6
CONTINUOUS
 10
-8.9054602006
 20
-16.9357864376
 30
0.0
 11
-7.2903764842
 21
-18.5508701541
 31
0.0
  0
LINE
  5
664
100
AcDbEntity
  8
ASSI
100
AcDbLine
 62
7
  6
CONTINUOUS
 10
-6.7380077942
 20
-19.5603594806
 30
0.0
 11
-5.8117353532
 21
-20.5029411645
 31
0.0
  0
LINE
  5
665
100
AcDbEntity
  8
RACCORDO
100
AcDbLine
 62
7
  6
CONTINUOUS
 10
-6.7380077942
 20
-19.5603594806
 30
0.0
 11
-5.8117353532
 21
-20.5029411645
 31
0.0
  0
LINE
  5
666
100
AcDbEntity
  8
ASSI
100
AcDbLine
 62
250
  6
CONTINUOUS
 10
-6.0336358415
 20
-19.5726543387
 30
0.0
 11
-5.4638363318
 21
-20.1524865323
 31
0.0
  0
LINE
  5
667
100
AcDbEntity
  8
RACCORDO
100
AcDbLine
 62
250
  6
CONTINUOUS
 10
-6.0336358415
 20
-19.5726543387
 30
0.0
 11
-5.4638363318
 21
-20.1524865323
 31
0.0
  0
LINE
  5
668
100
AcDbEntity
  8
DRAFT
100
AcDbLine
 62
7
  6
CONTINUOUS
 10
-1.7380077942
 20
21.7
 30
0.0
 11
-1.7742504743
 21
21.6637573199
 31
0.0
  0
LINE
  5
669
100
AcDbEntity
  8
RACCORDO
100
AcDbLine
 62
7
  6
CONTINUOUS
 10
5.527496816
 20
22.3327574266
 30
0.0
 11
5.6619922058
 21
22.4
 31
0.0
  0
LINE
  5
66A
100
AcDbEntity
  8
RACCORDO
100
AcDbLine
 62
250
  6
CONTINUOUS
 10
9.3536656894
 20
21.4379684572
 30
0.0
 11
9.4387716892
 21
21.4732205166
 31
0.0
  0
LINE
  5
66B
100
AcDbEntity
  8
RACCORDO
100
AcDbLine
 62
7
  6
CONTINUOUS
 10
1.7532660026
 20
-16.9566282125
 30
0.0
 11
7.6654826871
 21
-16.8534300864
 31
0.0
  0
LINE
  5
66C
100
AcDbEntity
  8
ASSI
100
AcDbLine
 62
250
  6
CONTINUOUS
 10
-8.9054602006
 20
-16.9357864376
 30
0.0
 11
-9.8880077942
 21
-16.9357864376
 31
0.0
  0
LINE
  5
66D
100
AcDbEntity
  8
RACCORDO
100
AcDbLine
 62
250
  6
CONTINUOUS
 10
-8.9054602006
 20
-16.9357864376
 30
0.0
 11
-9.8880077942
 21
-16.9357864376
 31
0.0
  0
LINE
  5
66E
100
AcDbEntity
  8
RACCORDO
100
AcDbLine
 62
250
  6
CONTINUOUS
 10
11.4294446122
 20
-16.9357864376
 30
0.0
 11
12.4119922058
 21
-16.9357864376
 31
0.0
  0
LINE
  5
66F
100
AcDbEntity
  8
IMPORT_IGES
100
AcDbLine
 62
7
  6
CONTINUOUS
 10
-0.9520077942
 20
-16.85
 30
0.0
 11
-0.1520077942
 21
-16.85
 31
0.0
  0
LINE
  5
670
100
AcDbEntity
  8
IMPORT_IGES
100
AcDbLine
 62
7
  6
CONTINUOUS
 10
0.6479922058
 20
-16.85
 30
0.0
 11
5.0479922058
 21
-16.85
 31
0.0
  0
LINE
  5
671
100
AcDbEntity
  8
IMPORT_IGES
100
AcDbLine
 62
7
  6
CONTINUOUS
 10
-0.1520077942
 20
-16.6
 30
0.0
 11
0.6479922058
 21
-16.6
 31
0.0
  0
LINE
  5
672
100
AcDbEntity
  8
ASSI
100
AcDbLine
 62
7
  6
CONTINUOUS
 10
0.770718409
 20
-16.958373719
 30
0.0
 11
-5.2414982755
 21
-16.8534300864
 31
0.0
  0
LINE
  5
673
100
AcDbEntity
  8
RACCORDO
100
AcDbLine
 62
7
  6
CONTINUOUS
 10
0.770718409
 20
-16.958373719
 30
0.0
 11
-5.2414982755
 21
-16.8534300864
 31
0.0
  0
LINE
  5
674
100
AcDbEntity
  8
RACCORDO
100
AcDbLine
 62
250
  6
CONTINUOUS
 10
9.3536656894
 20
-21.4379684572
 30
0.0
 11
9.4387716892
 21
-21.4732205166
 31
0.0
  0
LINE
  5
675
100
AcDbEntity
  8
RACCORDO
100
AcDbLine
 62
7
  6
CONTINUOUS
 10
5.527496816
 20
-22.3327574266
 30
0.0
 11
5.6619922058
 21
-22.4
 31
0.0
  0
LINE
  5
676
100
AcDbEntity
  8
DRAFT
100
AcDbLine
 62
7
  6
CONTINUOUS
 10
-1.7380077942
 20
-21.7
 30
0.0
 11
-1.7742504743
 21
-21.6637573199
 31
0.0
  0
LINE
  5
677
100
AcDbEntity
  8
RACCORDO
100
AcDbLine
 62
250
  6
CONTINUOUS
 10
12.0619566257
 20
22.4
 30
0.0
 11
12.0445371388
 21
22.3912731322
 31
0.0
  0
LINE
  5
678
100
AcDbEntity
  8
RACCORDO
100
AcDbLine
 62
250
  6
CONTINUOUS
 10
9.426886206
 20
21.2611984931
 30
0.0
 11
9.5119922058
 21
21.2964505524
 31
0.0
  0
LINE
  5
679
100
AcDbEntity
  8
IMPORT_IGES
100
AcDbLine
 62
7
  6
CONTINUOUS
 10
5.068245432
 20
-14.8808721248
 30
0.0
 11
5.0479922058
 21
-14.8808721248
 31
0.0
  0
LINE
  5
67A
100
AcDbEntity
  8
IMPORT_IGES
100
AcDbLine
 62
7
  6
CONTINUOUS
 10
0.6479922058
 20
-14.7
 30
0.0
 11
-0.1520077942
 21
-14.7
 31
0.0
  0
LINE
  5
67B
100
AcDbEntity
  8
IMPORT_IGES
100
AcDbLine
 62
7
  6
CONTINUOUS
 10
5.0479922058
 20
-14.45
 30
0.0
 11
0.6479922058
 21
-14.45
 31
0.0
  0
LINE
  5
67C
100
AcDbEntity
  8
IMPORT_IGES
100
AcDbLine
 62
7
  6
CONTINUOUS
 10
-0.1520077942
 20
-14.45
 30
0.0
 11
-0.9520077942
 21
-14.45
 31
0.0
  0
LINE
  5
67D
100
AcDbEntity
  8
RACCORDO
100
AcDbLine
 62
250
  6
CONTINUOUS
 10
9.426886206
 20
-21.2611984931
 30
0.0
 11
9.5119922058
 21
-21.2964505524
 31
0.0
  0
LINE
  5
67E
100
AcDbEntity
  8
RACCORDO
100
AcDbLine
 62
250
  6
CONTINUOUS
 10
12.0445371388
 20
-22.3912731322
 30
0.0
 11
12.0619566257
 21
-22.4
 31
0.0
  0
LINE
  5
67F
100
AcDbEntity
  8
RACCORDO
100
AcDbLine
 62
7
  6
CONTINUOUS
 10
-7.1419576663
 20
24.3868325431
 30
0.0
 11
-7.1380077942
 21
24.4
 31
0.0
  0
LINE
  5
680
100
AcDbEntity
  8
RACCORDO
100
AcDbLine
 62
7
  6
CONTINUOUS
 10
5.6619922058
 20
23.8
 30
0.0
 11
5.527496816
 21
23.6655046102
 31
0.0
  0
LINE
  5
681
100
AcDbEntity
  8
RACCORDO
100
AcDbLine
 62
250
  6
CONTINUOUS
 10
12.4119922058
 20
22.0500399793
 30
0.0
 11
12.3945371409
 21
22.0413131115
 31
0.0
  0
LINE
  5
682
100
AcDbEntity
  8
RACCORDO
100
AcDbLine
 62
250
  6
CONTINUOUS
 10
6.7619922058
 20
-12.3827974362
 30
0.0
 11
5.6111565411
 21
-12.4823268579
 31
0.0
  0
LINE
  5
683
100
AcDbEntity
  8
RACCORDO
100
AcDbLine
 62
250
  6
CONTINUOUS
 10
6.7619922058
 20
-12.0451907151
 30
0.0
 11
5.3343557266
 21
-12.1686591108
 31
0.0
  0
LINE
  5
684
100
AcDbEntity
  8
RACCORDO
100
AcDbLine
 62
7
  6
CONTINUOUS
 10
6.2865171502
 20
-13.8628404988
 30
0.0
 11
6.7619922058
 21
-13.8628404988
 31
0.0
  0
LINE
  5
685
100
AcDbEntity
  8
RACCORDO
100
AcDbLine
 62
7
  6
CONTINUOUS
 10
5.5468573712
 20
-13.7937879538
 30
0.0
 11
6.7619922058
 21
-13.8064180403
 31
0.0
  0
LINE
  5
686
100
AcDbEntity
  8
RACCORDO
100
AcDbLine
 62
250
  6
CONTINUOUS
 10
5.6987899984
 20
-13.5237518362
 30
0.0
 11
6.7619922058
 21
-13.5348027381
 31
0.0
  0
LINE
  5
687
100
AcDbEntity
  8
ASSI
100
AcDbLine
 62
7
  6
CONTINUOUS
 10
-1.2380077942
 20
-13.2110194482
 30
0.0
 11
-3.7380077942
 21
-13.08
 31
0.0
  0
LINE
  5
688
100
AcDbEntity
  8
DRAFT
100
AcDbLine
 62
7
  6
CONTINUOUS
 10
-1.2380077942
 20
-13.2110194482
 30
0.0
 11
-3.7380077942
 21
-13.08
 31
0.0
  0
LINE
  5
689
100
AcDbEntity
  8
ASSI
100
AcDbLine
 62
7
  6
CONTINUOUS
 10
-3.7380077942
 20
-12.63
 30
0.0
 11
-5.4380077942
 21
-12.5409067752
 31
0.0
  0
LINE
  5
68A
100
AcDbEntity
  8
DRAFT
100
AcDbLine
 62
7
  6
CONTINUOUS
 10
-3.7380077942
 20
-12.63
 30
0.0
 11
-5.4380077942
 21
-12.5409067752
 31
0.0
  0
LINE
  5
68B
100
AcDbEntity
  8
RACCORDO
100
AcDbLine
 62
250
  6
CONTINUOUS
 10
12.3945371409
 20
-22.0413131115
 30
0.0
 11
12.4119922058
 21
-22.0500399793
 31
0.0
  0
LINE
  5
68C
100
AcDbEntity
  8
RACCORDO
100
AcDbLine
 62
7
  6
CONTINUOUS
 10
5.6619922058
 20
-23.8
 30
0.0
 11
5.527496816
 21
-23.6655046102
 31
0.0
  0
LINE
  5
68D
100
AcDbEntity
  8
RACCORDO
100
AcDbLine
 62
7
  6
CONTINUOUS
 10
-7.1419576663
 20
-24.3868325431
 30
0.0
 11
-7.1380077942
 21
-24.4
 31
0.0
  0
LINE
  5
68E
100
AcDbEntity
  8
RACCORDO
100
AcDbLine
 62
7
  6
CONTINUOUS
 10
3.806405098
 20
19.7444128922
 30
0.0
 11
3.7191031743
 21
19.6571109685
 31
0.0
  0
LINE
  5
68F
100
AcDbEntity
  8
RACCORDO
100
AcDbLine
 62
250
  6
CONTINUOUS
 10
4.5349549677
 20
19.7571297775
 30
0.0
 11
4.4226556053
 21
19.6448304151
 31
0.0
  0
LINE
  5
690
100
AcDbEntity
  8
DRAFT
100
AcDbLine
 62
7
  6
CONTINUOUS
 10
6.7619922058
 20
-11.9819055563
 30
0.0
 11
5.3343557266
 21
-12.105373952
 31
0.0
  0
LINE
  5
691
100
AcDbEntity
  8
0
100
AcDbLine
 62
7
  6
CONTINUOUS
 10
4.7619922058
 20
-11.9481357237
 30
0.0
 11
4.7145147863
 21
-11.9499420139
 31
0.0
  0
LINE
  5
692
100
AcDbEntity
  8
RACCORDO
100
AcDbLine
 62
7
  6
CONTINUOUS
 10
6.7619922058
 20
-11.7647661616
 30
0.0
 11
6.2865171502
 21
-11.7647661616
 31
0.0
  0
LINE
  5
693
100
AcDbEntity
  8
IMPORT_IGES
100
AcDbLine
 62
7
  6
CONTINUOUS
 10
-1.2380077942
 20
-16.089
 30
0.0
 11
-0.9520077942
 21
-16.375
 31
0.0
  0
LINE
  5
694
100
AcDbEntity
  8
RACCORDO
100
AcDbLine
 62
7
  6
CONTINUOUS
 10
3.7191031743
 20
-19.6571109685
 30
0.0
 11
3.806405098
 21
-19.7444128922
 31
0.0
  0
LINE
  5
695
100
AcDbEntity
  8
RACCORDO
100
AcDbLine
 62
250
  6
CONTINUOUS
 10
4.4226556053
 20
-19.6448304151
 30
0.0
 11
4.5349549677
 21
-19.7571297775
 31
0.0
  0
LINE
  5
696
100
AcDbEntity
  8
RACCORDO
100
AcDbLine
 62
7
  6
CONTINUOUS
 10
-9.3373532898
 20
-23.1948185145
 30
0.0
 11
-9.333426263
 21
-23.6278312164
 31
0.0
  0
LINE
  5
697
100
AcDbEntity
  8
ASSI
100
AcDbLine
 62
7
  6
CONTINUOUS
 10
-9.8880077942
 20
16.9357864376
 30
0.0
 11
-9.8880077942
 21
-16.9357864376
 31
0.0
  0
LINE
  5
698
100
AcDbEntity
  8
RACCORDO
100
AcDbLine
 62
7
  6
CONTINUOUS
 10
-9.8880077942
 20
16.9357864376
 30
0.0
 11
-9.8880077942
 21
-22.0500399793
 31
0.0
  0
LINE
  5
699
100
AcDbEntity
  8
RACCORDO
100
AcDbLine
 62
7
  6
CONTINUOUS
 10
-9.8880077942
 20
17.0256335048
 30
0.0
 11
-9.8880077942
 21
22.0500399793
 31
0.0
  0
LINE
  5
69A
100
AcDbEntity
  8
RACCORDO
100
AcDbLine
 62
7
  6
CONTINUOUS
 10
-9.8705527293
 20
-22.0413131115
 30
0.0
 11
-9.8705527293
 21
-17.1215145302
 31
0.0
  0
LINE
  5
69B
100
AcDbEntity
  8
RACCORDO
100
AcDbLine
 62
7
  6
CONTINUOUS
 10
-9.8705527293
 20
17.1196415273
 30
0.0
 11
-9.8705527293
 21
22.0413131115
 31
0.0
  0
LINE
  5
69C
100
AcDbEntity
  8
RACCORDO
100
AcDbLine
 62
7
  6
CONTINUOUS
 10
-9.3380077942
 20
-22.4
 30
0.0
 11
-9.3380077942
 21
-24.4
 31
0.0
  0
LINE
  5
69D
100
AcDbEntity
  8
RACCORDO
100
AcDbLine
 62
7
  6
CONTINUOUS
 10
-9.3380077942
 20
22.4
 30
0.0
 11
-9.3380077942
 21
24.4
 31
0.0
  0
LINE
  5
69E
100
AcDbEntity
  8
RACCORDO
100
AcDbLine
 62
7
  6
CONTINUOUS
 10
-9.3327717586
 20
24.1368706193
 30
0.0
 11
-9.3327717586
 21
23.8443375673
 31
0.0
  0
LINE
  5
69F
100
AcDbEntity
  8
RACCORDO
100
AcDbLine
 62
7
  6
CONTINUOUS
 10
-9.3327717586
 20
-23.8443375673
 30
0.0
 11
-9.3327717586
 21
-24.1368706193
 31
0.0
  0
LINE
  5
6A0
100
AcDbEntity
  8
ASSI
100
AcDbLine
 62
250
  6
CONTINUOUS
 10
-8.9054602006
 20
16.9357864376
 30
0.0
 11
-8.9054602006
 21
-16.9357864376
 31
0.0
  0
LINE
  5
6A1
100
AcDbEntity
  8
RACCORDO
100
AcDbLine
 62
250
  6
CONTINUOUS
 10
-8.9054602006
 20
16.9357864376
 30
0.0
 11
-8.9054602006
 21
-16.9357864376
 31
0.0
  0
LINE
  5
6A2
100
AcDbEntity
  8
RACCORDO
100
AcDbLine
 62
7
  6
CONTINUOUS
 10
-9.333426263
 20
23.6278312164
 30
0.0
 11
-9.3373532898
 21
23.1948185145
 31
0.0
  0
LINE
  5
6A3
100
AcDbEntity
  8
ASSI
100
AcDbLine
 62
250
  6
CONTINUOUS
 10
-2.4880077942
 20
-10.2
 30
0.0
 11
-5.4380077942
 21
-10.2
 31
0.0
  0
LINE
  5
6A4
100
AcDbEntity
  8
RACCORDO
100
AcDbLine
 62
250
  6
CONTINUOUS
 10
-2.4880077942
 20
-10.2
 30
0.0
 11
-5.4380077942
 21
-10.2
 31
0.0
  0
LINE
  5
6A5
100
AcDbEntity
  8
ASSI
100
AcDbLine
 62
7
  6
CONTINUOUS
 10
-2.4880077942
 20
-9.9999999999
 30
0.0
 11
-2.7585752878
 21
-9.9999972534
 31
0.0
  0
LINE
  5
6A6
100
AcDbEntity
  8
RACCORDO
100
AcDbLine
 62
7
  6
CONTINUOUS
 10
-2.4880077942
 20
-9.9999999999
 30
0.0
 11
-2.7585752878
 21
-9.9999972534
 31
0.0
  0
LINE
  5
6A7
100
AcDbEntity
  8
RACCORDO
100
AcDbLine
 62
7
  6
CONTINUOUS
 10
-8.4708247676
 20
18.7671830266
 30
0.0
 11
-8.4745097149
 21
20.4865399969
 31
0.0
  0
LINE
  5
6A8
100
AcDbEntity
  8
DRAFT
100
AcDbLine
 62
7
  6
CONTINUOUS
 10
-7.4009690013
 20
-20.7370387929
 30
0.0
 11
-7.4035302337
 21
-19.5419952091
 31
0.0
  0
LINE
  5
6A9
100
AcDbEntity
  8
RACCORDO
100
AcDbLine
 62
7
  6
CONTINUOUS
 10
-8.4880077942
 20
-20.5000380762
 30
0.0
 11
-8.4880077942
 21
-18.75
 31
0.0
  0
LINE
  5
6AA
100
AcDbEntity
  8
RACCORDO
100
AcDbLine
 62
7
  6
CONTINUOUS
 10
-8.4880077942
 20
18.75
 30
0.0
 11
-8.4880077942
 21
20.5000380762
 31
0.0
  0
LINE
  5
6AB
100
AcDbEntity
  8
DRAFT
100
AcDbLine
 62
7
  6
CONTINUOUS
 10
-7.3880077942
 20
20.75
 30
0.0
 11
-7.3880077942
 21
19.5437642381
 31
0.0
  0
LINE
  5
6AC
100
AcDbEntity
  8
DRAFT
100
AcDbLine
 62
7
  6
CONTINUOUS
 10
-7.3880077942
 20
-19.5437336488
 30
0.0
 11
-7.3880077942
 21
-20.75
 31
0.0
  0
LINE
  5
6AD
100
AcDbEntity
  8
RACCORDO
100
AcDbLine
 62
7
  6
CONTINUOUS
 10
-7.1432438298
 20
-24.1368706193
 30
0.0
 11
-7.1432438298
 21
-23.8443375673
 31
0.0
  0
LINE
  5
6AE
100
AcDbEntity
  8
RACCORDO
100
AcDbLine
 62
7
  6
CONTINUOUS
 10
-7.1432438298
 20
23.8443375673
 30
0.0
 11
-7.1432438298
 21
24.1368706193
 31
0.0
  0
LINE
  5
6AF
100
AcDbEntity
  8
RACCORDO
100
AcDbLine
 62
7
  6
CONTINUOUS
 10
-7.1380077942
 20
22.4
 30
0.0
 11
-7.1380077942
 21
24.4
 31
0.0
  0
LINE
  5
6B0
100
AcDbEntity
  8
RACCORDO
100
AcDbLine
 62
7
  6
CONTINUOUS
 10
-7.1380077942
 20
-22.4
 30
0.0
 11
-7.1380077942
 21
-24.4
 31
0.0
  0
LINE
  5
6B1
100
AcDbEntity
  8
RACCORDO
100
AcDbLine
 62
7
  6
CONTINUOUS
 10
-8.4745097149
 20
-20.4865399969
 30
0.0
 11
-8.4708247676
 21
-18.7671830266
 31
0.0
  0
LINE
  5
6B2
100
AcDbEntity
  8
RACCORDO
100
AcDbLine
 62
7
  6
CONTINUOUS
 10
-7.4035313156
 20
19.5414903771
 30
0.0
 11
-7.4009690013
 21
20.7370387929
 31
0.0
  0
LINE
  5
6B3
100
AcDbEntity
  8
RACCORDO
100
AcDbLine
 62
250
  6
CONTINUOUS
 10
9.3021709388
 20
21.4894632079
 30
0.0
 11
9.1254009746
 21
21.3126932437
 31
0.0
  0
LINE
  5
6B4
100
AcDbEntity
  8
RACCORDO
100
AcDbLine
 62
250
  6
CONTINUOUS
 10
7.6492513645
 20
19.7872686779
 30
0.0
 11
7.5619826866
 21
19.7
 31
0.0
  0
LINE
  5
6B5
100
AcDbEntity
  8
RACCORDO
100
AcDbLine
 62
250
  6
CONTINUOUS
 10
9.1768957252
 20
21.2611984931
 30
0.0
 11
9.3536656894
 21
21.4379684572
 31
0.0
  0
LINE
  5
6B6
100
AcDbEntity
  8
RACCORDO
100
AcDbLine
 62
250
  6
CONTINUOUS
 10
10.7490690749
 20
20.7370387929
 30
0.0
 11
10.762030282
 21
20.75
 31
0.0
  0
LINE
  5
6B7
100
AcDbEntity
  8
ASSI
100
AcDbLine
 62
7
  6
CONTINUOUS
 10
-2.1906257549
 20
-8.5450435795
 30
0.0
 11
-0.4880077942
 21
-8.5301850577
 31
0.0
  0
LINE
  5
6B8
100
AcDbEntity
  8
RACCORDO
100
AcDbLine
 62
7
  6
CONTINUOUS
 10
-2.1906257549
 20
-8.5450435795
 30
0.0
 11
-0.4880077942
 21
-8.5301850577
 31
0.0
  0
LINE
  5
6B9
100
AcDbEntity
  8
DRAFT
100
AcDbLine
 62
7
  6
CONTINUOUS
 10
0.2619922058
 20
-8.204907166
 30
0.0
 11
2.2619922058
 21
-8.204907166
 31
0.0
  0
LINE
  5
6BA
100
AcDbEntity
  8
DRAFT
100
AcDbLine
 62
7
  6
CONTINUOUS
 10
5.8528937944
 20
-16.5293495436
 30
0.0
 11
6.2044031801
 21
-16.8789333241
 31
0.0
  0
LINE
  5
6BB
100
AcDbEntity
  8
RACCORDO
100
AcDbLine
 62
250
  6
CONTINUOUS
 10
9.1254009746
 20
-21.3126932437
 30
0.0
 11
9.3021709388
 21
-21.4894632079
 31
0.0
  0
LINE
  5
6BC
100
AcDbEntity
  8
RACCORDO
100
AcDbLine
 62
250
  6
CONTINUOUS
 10
7.6492513645
 20
-19.7872686779
 30
0.0
 11
7.5619826866
 21
-19.7
 31
0.0
  0
LINE
  5
6BD
100
AcDbEntity
  8
RACCORDO
100
AcDbLine
 62
250
  6
CONTINUOUS
 10
9.3536656894
 20
-21.4379684572
 30
0.0
 11
9.1768957252
 21
-21.2611984931
 31
0.0
  0
LINE
  5
6BE
100
AcDbEntity
  8
RACCORDO
100
AcDbLine
 62
250
  6
CONTINUOUS
 10
10.762030282
 20
-20.75
 30
0.0
 11
10.7490690749
 21
-20.7370387929
 31
0.0
  0
LINE
  5
6BF
100
AcDbEntity
  8
RACCORDO
100
AcDbLine
 62
7
  6
CONTINUOUS
 10
-7.1425893254
 20
23.6278312164
 30
0.0
 11
-7.1386622987
 21
23.1948185145
 31
0.0
  0
LINE
  5
6C0
100
AcDbEntity
  8
RACCORDO
100
AcDbLine
 62
7
  6
CONTINUOUS
 10
-6.9880077942
 20
21.2964505524
 30
0.0
 11
-6.9880077942
 21
21.1499904808
 31
0.0
  0
LINE
  5
6C1
100
AcDbEntity
  8
RACCORDO
100
AcDbLine
 62
7
  6
CONTINUOUS
 10
-6.9880077942
 20
-21.1499904808
 30
0.0
 11
-6.9880077942
 21
-21.2964505524
 31
0.0
  0
LINE
  5
6C2
100
AcDbEntity
  8
RACCORDO
100
AcDbLine
 62
7
  6
CONTINUOUS
 10
-6.9029017944
 20
21.2611984931
 30
0.0
 11
-6.9029017944
 21
21.2350964806
 31
0.0
  0
LINE
  5
6C3
100
AcDbEntity
  8
RACCORDO
100
AcDbLine
 62
7
  6
CONTINUOUS
 10
-6.9029017944
 20
-21.2350964806
 30
0.0
 11
-6.9029017944
 21
-21.2611984931
 31
0.0
  0
LINE
  5
6C4
100
AcDbEntity
  8
RACCORDO
100
AcDbLine
 62
250
  6
CONTINUOUS
 10
-6.6529113136
 20
21.2611984931
 30
0.0
 11
-6.6529113136
 21
20.9872686779
 31
0.0
  0
LINE
  5
6C5
100
AcDbEntity
  8
RACCORDO
100
AcDbLine
 62
250
  6
CONTINUOUS
 10
-6.6529113136
 20
-20.9872686779
 30
0.0
 11
-6.6529113136
 21
-21.2611984931
 31
0.0
  0
LINE
  5
6C6
100
AcDbEntity
  8
RACCORDO
100
AcDbLine
 62
7
  6
CONTINUOUS
 10
-6.0380077942
 20
-20.6500095192
 30
0.0
 11
-6.0380077942
 21
-20.2726846557
 31
0.0
  0
LINE
  5
6C7
100
AcDbEntity
  8
RACCORDO
100
AcDbLine
 62
7
  6
CONTINUOUS
 10
-6.0380077942
 20
20.2726846557
 30
0.0
 11
-6.0380077942
 21
20.6500095192
 31
0.0
  0
LINE
  5
6C8
100
AcDbEntity
  8
RACCORDO
100
AcDbLine
 62
7
  6
CONTINUOUS
 10
-5.9529017944
 20
-20.735115519
 30
0.0
 11
-5.9529017944
 21
-20.3592891502
 31
0.0
  0
LINE
  5
6C9
100
AcDbEntity
  8
RACCORDO
100
AcDbLine
 62
7
  6
CONTINUOUS
 10
-5.9529017944
 20
20.3592891502
 30
0.0
 11
-5.9529017944
 21
20.735115519
 31
0.0
  0
LINE
  5
6CA
100
AcDbEntity
  8
RACCORDO
100
AcDbLine
 62
250
  6
CONTINUOUS
 10
-5.7029113136
 20
-20.7394408714
 30
0.0
 11
-5.7029113136
 21
-20.6051131971
 31
0.0
  0
LINE
  5
6CB
100
AcDbEntity
  8
RACCORDO
100
AcDbLine
 62
250
  6
CONTINUOUS
 10
-5.7029113136
 20
20.6050957594
 30
0.0
 11
-5.7029113136
 21
20.7394408748
 31
0.0
  0
LINE
  5
6CC
100
AcDbEntity
  8
ASSI
100
AcDbLine
 62
7
  6
CONTINUOUS
 10
-5.4380077942
 20
-16.6534605474
 30
0.0
 11
-5.4380077942
 21
-0.7465394526
 31
0.0
  0
LINE
  5
6CD
100
AcDbEntity
  8
RACCORDO
100
AcDbLine
 62
7
  6
CONTINUOUS
 10
-5.4380077942
 20
-16.6534605474
 30
0.0
 11
-5.4380077942
 21
-0.7465394526
 31
0.0
  0
LINE
  5
6CE
100
AcDbEntity
  8
ASSI
100
AcDbLine
 62
7
  6
CONTINUOUS
 10
-5.4380077942
 20
6.3465394526
 30
0.0
 11
-5.4380077942
 21
17.2534605474
 31
0.0
  0
LINE
  5
6CF
100
AcDbEntity
  8
RACCORDO
100
AcDbLine
 62
7
  6
CONTINUOUS
 10
-5.4380077942
 20
6.3465394526
 30
0.0
 11
-5.4380077942
 21
17.2534605474
 31
0.0
  0
LINE
  5
6D0
100
AcDbEntity
  8
RACCORDO
100
AcDbLine
 62
7
  6
CONTINUOUS
 10
-7.1386622987
 20
-23.1948185145
 30
0.0
 11
-7.1425893254
 21
-23.6278312164
 31
0.0
  0
LINE
  5
6D1
100
AcDbEntity
  8
RACCORDO
100
AcDbLine
 62
250
  6
CONTINUOUS
 10
10.9984941265
 20
20.4865399969
 30
0.0
 11
11.0119922058
 21
20.5000380762
 31
0.0
  0
LINE
  5
6D2
100
AcDbEntity
  8
RACCORDO
100
AcDbLine
 62
250
  6
CONTINUOUS
 10
6.3998631194
 20
-5.918185276
 30
0.0
 11
6.5726726113
 21
-5.9180827209
 31
0.0
  0
LINE
  5
6D3
100
AcDbEntity
  8
0
100
AcDbLine
 62
7
  6
CONTINUOUS
 10
3.1619922058
 20
-7.0112292129
 30
0.0
 11
-0.4880077942
 21
-7.0112292129
 31
0.0
  0
LINE
  5
6D4
100
AcDbEntity
  8
0
100
AcDbLine
 62
7
  6
CONTINUOUS
 10
3.1619922058
 20
-6.9669212487
 30
0.0
 11
-0.4880077942
 21
-6.9669212487
 31
0.0
  0
LINE
  5
6D5
100
AcDbEntity
  8
RACCORDO
100
AcDbLine
 62
7
  6
CONTINUOUS
 10
6.5737628912
 20
-6.7067022304
 30
0.0
 11
3.9309026706
 21
-6.7067022304
 31
0.0
  0
LINE
  5
6D6
100
AcDbEntity
  8
RACCORDO
100
AcDbLine
 62
250
  6
CONTINUOUS
 10
3.6376765413
 20
-6.4728038632
 30
0.0
 11
6.5737628912
 21
-6.4728038632
 31
0.0
  0
LINE
  5
6D7
100
AcDbEntity
  8
RACCORDO
100
AcDbLine
 62
250
  6
CONTINUOUS
 10
5.850669566
 20
-6.302703729
 30
0.0
 11
1.3234062285
 21
-6.302703729
 31
0.0
  0
LINE
  5
6D8
100
AcDbEntity
  8
RACCORDO
100
AcDbLine
 62
250
  6
CONTINUOUS
 10
1.2005781831
 20
-6.302703729
 30
0.0
 11
-0.4880077942
 21
-6.302703729
 31
0.0
  0
LINE
  5
6D9
100
AcDbEntity
  8
RACCORDO
100
AcDbLine
 62
250
  6
CONTINUOUS
 10
-0.4880077942
 20
-5.9388382507
 30
0.0
 11
0.9006238745
 21
-5.9388382507
 31
0.0
  0
LINE
  5
6DA
100
AcDbEntity
  8
RACCORDO
100
AcDbLine
 62
250
  6
CONTINUOUS
 10
1.6233605371
 20
-5.9388382507
 30
0.0
 11
5.850669566
 21
-5.9388382507
 31
0.0
  0
LINE
  5
6DB
100
AcDbEntity
  8
RACCORDO
100
AcDbLine
 62
7
  6
CONTINUOUS
 10
5.8120378972
 20
-5.6690751025
 30
0.0
 11
1.6619922058
 21
-5.6690751025
 31
0.0
  0
LINE
  5
6DC
100
AcDbEntity
  8
RACCORDO
100
AcDbLine
 62
7
  6
CONTINUOUS
 10
0.8619922058
 20
-5.6690751025
 30
0.0
 11
-0.4880077942
 21
-5.6690751025
 31
0.0
  0
LINE
  5
6DD
100
AcDbEntity
  8
RACCORDO
100
AcDbLine
 62
250
  6
CONTINUOUS
 10
6.3999390361
 20
-5.9527955711
 30
0.0
 11
6.5726726113
 21
-5.9528258147
 31
0.0
  0
LINE
  5
6DE
100
AcDbEntity
  8
RACCORDO
100
AcDbLine
 62
250
  6
CONTINUOUS
 10
11.0119922058
 20
-20.5000380762
 30
0.0
 11
10.9984941265
 21
-20.4865399969
 31
0.0
  0
LINE
  5
6DF
100
AcDbEntity
  8
ASSI
100
AcDbLine
 62
7
  6
CONTINUOUS
 10
-3.7380077942
 20
-12.63
 30
0.0
 11
-3.7380077942
 21
-16.8796736104
 31
0.0
  0
LINE
  5
6E0
100
AcDbEntity
  8
DRAFT
100
AcDbLine
 62
7
  6
CONTINUOUS
 10
-3.7380077942
 20
-12.63
 30
0.0
 11
-3.7380077942
 21
-16.8796736104
 31
0.0
  0
LINE
  5
6E1
100
AcDbEntity
  8
ASSI
100
AcDbLine
 62
7
  6
CONTINUOUS
 10
-0.1906257549
 20
-5.2275898439
 30
0.0
 11
3.0119922058
 21
-5.1996410204
 31
0.0
  0
LINE
  5
6E2
100
AcDbEntity
  8
RACCORDO
100
AcDbLine
 62
7
  6
CONTINUOUS
 10
-0.1906257549
 20
-5.2275898439
 30
0.0
 11
3.0119922058
 21
-5.1996410204
 31
0.0
  0
LINE
  5
6E3
100
AcDbEntity
  8
RACCORDO
100
AcDbLine
 62
7
  6
CONTINUOUS
 10
6.5619998212
 20
-4.3
 30
0.0
 11
3.0119922058
 21
-4.3
 31
0.0
  0
LINE
  5
6E4
100
AcDbEntity
  8
RACCORDO
100
AcDbLine
 62
7
  6
CONTINUOUS
 10
3.0119922058
 20
-4.2895277587
 30
0.0
 11
6.5724720625
 21
-4.2895277587
 31
0.0
  0
LINE
  5
6E5
100
AcDbEntity
  8
DRAFT
100
AcDbLine
 62
7
  6
CONTINUOUS
 10
-1.7742504743
 20
-21.6637573199
 30
0.0
 11
-1.7990534678
 21
-21.146569249
 31
0.0
  0
LINE
  5
6E6
100
AcDbEntity
  8
RACCORDO
100
AcDbLine
 62
7
  6
CONTINUOUS
 10
-2.2694855124
 20
23.6655963988
 30
0.0
 11
-2.2710163069
 21
23.7825449351
 31
0.0
  0
LINE
  5
6E7
100
AcDbEntity
  8
RACCORDO
100
AcDbLine
 62
250
  6
CONTINUOUS
 10
-2.5578434197
 20
22.3301850577
 30
0.0
 11
-2.569451234
 21
23.6603594806
 31
0.0
  0
LINE
  5
6E8
100
AcDbEntity
  8
RACCORDO
100
AcDbLine
 62
7
  6
CONTINUOUS
 10
-2.2578548462
 20
22.3328033174
 30
0.0
 11
-2.2694855124
 21
23.6655963988
 31
0.0
  0
LINE
  5
6E9
100
AcDbEntity
  8
DRAFT
100
AcDbLine
 62
7
  6
CONTINUOUS
 10
-3.1380077942
 20
-23.8
 30
0.0
 11
-3.1380077942
 21
-22.4
 31
0.0
  0
LINE
  5
6EA
100
AcDbEntity
  8
DRAFT
100
AcDbLine
 62
7
  6
CONTINUOUS
 10
-3.1380077942
 20
22.4
 30
0.0
 11
-3.1380077942
 21
23.8
 31
0.0
  0
LINE
  5
6EB
100
AcDbEntity
  8
RACCORDO
100
AcDbLine
 62
250
  6
CONTINUOUS
 10
-3.0035124044
 20
23.6655046102
 30
0.0
 11
-3.0035124044
 21
22.3327574266
 31
0.0
  0
LINE
  5
6EC
100
AcDbEntity
  8
RACCORDO
100
AcDbLine
 62
250
  6
CONTINUOUS
 10
-3.0035124044
 20
-22.3327574266
 30
0.0
 11
-3.0035124044
 21
-23.6655046102
 31
0.0
  0
LINE
  5
6ED
100
AcDbEntity
  8
RACCORDO
100
AcDbLine
 62
250
  6
CONTINUOUS
 10
-2.7035580958
 20
23.6603594806
 30
0.0
 11
-2.7035580958
 21
22.3301850577
 31
0.0
  0
LINE
  5
6EE
100
AcDbEntity
  8
RACCORDO
100
AcDbLine
 62
250
  6
CONTINUOUS
 10
-2.7035580958
 20
-22.3301850577
 30
0.0
 11
-2.7035580958
 21
-23.6603594806
 31
0.0
  0
LINE
  5
6EF
100
AcDbEntity
  8
ASSI
100
AcDbLine
 62
7
  6
CONTINUOUS
 10
-2.4880077942
 20
-8.8450321564
 30
0.0
 11
-2.4880077942
 21
-13.1455097241
 31
0.0
  0
LINE
  5
6F0
100
AcDbEntity
  8
RACCORDO
100
AcDbLine
 62
7
  6
CONTINUOUS
 10
-2.4880077942
 20
-8.8450321564
 30
0.0
 11
-2.4880077942
 21
-13.1455097241
 31
0.0
  0
LINE
  5
6F1
100
AcDbEntity
  8
RACCORDO
100
AcDbLine
 62
7
  6
CONTINUOUS
 10
-1.8060825474
 20
-21.3126932437
 30
0.0
 11
-1.8060825474
 21
-21.146446556
 31
0.0
  0
LINE
  5
6F2
100
AcDbEntity
  8
RACCORDO
100
AcDbLine
 62
7
  6
CONTINUOUS
 10
-1.8060825474
 20
21.146446556
 30
0.0
 11
-1.8060825474
 21
21.3126932437
 31
0.0
  0
LINE
  5
6F3
100
AcDbEntity
  8
DRAFT
100
AcDbLine
 62
7
  6
CONTINUOUS
 10
-1.7380077942
 20
22.3380392387
 30
0.0
 11
-1.7380077942
 21
21.7
 31
0.0
  0
LINE
  5
6F4
100
AcDbEntity
  8
DRAFT
100
AcDbLine
 62
7
  6
CONTINUOUS
 10
-1.7380077942
 20
-21.7
 30
0.0
 11
-1.7380077942
 21
-22.3380392387
 31
0.0
  0
LINE
  5
6F5
100
AcDbEntity
  8
RACCORDO
100
AcDbLine
 62
250
  6
CONTINUOUS
 10
-2.569451234
 20
-23.6603594806
 30
0.0
 11
-2.5578434197
 21
-22.3301850577
 31
0.0
  0
LINE
  5
6F6
100
AcDbEntity
  8
RACCORDO
100
AcDbLine
 62
7
  6
CONTINUOUS
 10
-2.2694855124
 20
-23.6655963988
 30
0.0
 11
-2.2578548462
 21
-22.3328033174
 31
0.0
  0
LINE
  5
6F7
100
AcDbEntity
  8
RACCORDO
100
AcDbLine
 62
7
  6
CONTINUOUS
 10
-2.2694855124
 20
-23.6655963988
 30
0.0
 11
-2.2710163069
 21
-23.7825449351
 31
0.0
  0
LINE
  5
6F8
100
AcDbEntity
  8
DRAFT
100
AcDbLine
 62
7
  6
CONTINUOUS
 10
-1.7990534678
 20
21.146569249
 30
0.0
 11
-1.7742504743
 21
21.6637573199
 31
0.0
  0
LINE
  5
6F9
100
AcDbEntity
  8
RACCORDO
100
AcDbLine
 62
7
  6
CONTINUOUS
 10
-9.3340579221
 20
-24.3868325431
 30
0.0
 11
-9.3380077942
 21
-24.4
 31
0.0
  0
LINE
  5
6FA
100
AcDbEntity
  8
RACCORDO
100
AcDbLine
 62
7
  6
CONTINUOUS
 10
7.5567564839
 20
-1.8103113639
 30
0.0
 11
7.8619922058
 21
-1.8049834545
 31
0.0
  0
LINE
  5
6FB
100
AcDbEntity
  8
ASSI
100
AcDbLine
 62
7
  6
CONTINUOUS
 10
-5.4380077942
 20
-2.8266169468
 30
0.0
 11
3.0119922058
 21
-2.9003589796
 31
0.0
  0
LINE
  5
6FC
100
AcDbEntity
  8
DRAFT
100
AcDbLine
 62
7
  6
CONTINUOUS
 10
-5.4380077942
 20
-2.8266169468
 30
0.0
 11
3.0119922058
 21
-2.9003589796
 31
0.0
  0
LINE
  5
6FD
100
AcDbEntity
  8
RACCORDO
100
AcDbLine
 62
7
  6
CONTINUOUS
 10
7.5567564839
 20
-3.1896886361
 30
0.0
 11
7.8619922058
 21
-3.1950165455
 31
0.0
  0
LINE
  5
6FE
100
AcDbEntity
  8
RACCORDO
100
AcDbLine
 62
7
  6
CONTINUOUS
 10
-9.3340579221
 20
24.3868325431
 30
0.0
 11
-9.3380077942
 21
24.4
 31
0.0
  0
LINE
  5
6FF
100
AcDbEntity
  8
ASSI
100
AcDbLine
 62
7
  6
CONTINUOUS
 10
-1.2380077942
 20
-16.9233112727
 30
0.0
 11
-1.2380077942
 21
-13.2110194482
 31
0.0
  0
LINE
  5
700
100
AcDbEntity
  8
DRAFT
100
AcDbLine
 62
7
  6
CONTINUOUS
 10
-1.2380077942
 20
-16.9233112727
 30
0.0
 11
-1.2380077942
 21
-13.2110194482
 31
0.0
  0
LINE
  5
701
100
AcDbEntity
  8
IMPORT_IGES
100
AcDbLine
 62
7
  6
CONTINUOUS
 10
-0.9520077942
 20
-14.45
 30
0.0
 11
-0.9520077942
 21
-14.925
 31
0.0
  0
LINE
  5
702
100
AcDbEntity
  8
IMPORT_IGES
100
AcDbLine
 62
7
  6
CONTINUOUS
 10
-0.9520077942
 20
-16.375
 30
0.0
 11
-0.9520077942
 21
-16.85
 31
0.0
  0
LINE
  5
703
100
AcDbEntity
  8
ASSI
100
AcDbLine
 62
7
  6
CONTINUOUS
 10
-0.4880077942
 20
-5.5275784209
 30
0.0
 11
-0.4880077942
 21
-8.5301850577
 31
0.0
  0
LINE
  5
704
100
AcDbEntity
  8
RACCORDO
100
AcDbLine
 62
7
  6
CONTINUOUS
 10
-0.4880077942
 20
-5.5275784209
 30
0.0
 11
-0.4880077942
 21
-8.5301850577
 31
0.0
  0
LINE
  5
705
100
AcDbEntity
  8
IMPORT_IGES
100
AcDbLine
 62
7
  6
CONTINUOUS
 10
-0.1520077942
 20
-16.85
 30
0.0
 11
-0.1520077942
 21
-14.45
 31
0.0
  0
LINE
  5
706
100
AcDbEntity
  8
RACCORDO
100
AcDbLine
 62
250
  6
CONTINUOUS
 10
8.3846049985
 20
22.3126551668
 30
0.0
 11
8.417169626
 21
22.3912731322
 31
0.0
  0
LINE
  5
707
100
AcDbEntity
  8
RACCORDO
100
AcDbLine
 62
250
  6
CONTINUOUS
 10
8.5613749626
 20
22.2394346502
 30
0.0
 11
8.5939395902
 21
22.3180526156
 31
0.0
  0
LINE
  5
708
100
AcDbEntity
  8
ASSI
100
AcDbLine
 62
7
  6
CONTINUOUS
 10
0.770718409
 20
-0.441626281
 30
0.0
 11
-5.2414982755
 21
-0.5465699136
 31
0.0
  0
LINE
  5
709
100
AcDbEntity
  8
RACCORDO
100
AcDbLine
 62
7
  6
CONTINUOUS
 10
0.770718409
 20
-0.441626281
 30
0.0
 11
-5.2414982755
 21
-0.5465699136
 31
0.0
  0
LINE
  5
70A
100
AcDbEntity
  8
RACCORDO
100
AcDbLine
 62
7
  6
CONTINUOUS
 10
1.7532660026
 20
-0.4433717875
 30
0.0
 11
7.6654826871
 21
-0.5465699136
 31
0.0
  0
LINE
  5
70B
100
AcDbEntity
  8
RACCORDO
100
AcDbLine
 62
250
  6
CONTINUOUS
 10
8.3846049985
 20
-22.3126551668
 30
0.0
 11
8.417169626
 21
-22.3912731322
 31
0.0
  0
LINE
  5
70C
100
AcDbEntity
  8
RACCORDO
100
AcDbLine
 62
250
  6
CONTINUOUS
 10
8.5613749626
 20
-22.2394346502
 30
0.0
 11
8.5939395902
 21
-22.3180526156
 31
0.0
  0
LINE
  5
70D
100
AcDbEntity
  8
RACCORDO
100
AcDbLine
 62
7
  6
CONTINUOUS
 10
0.8619922058
 20
-5.6690751025
 30
0.0
 11
0.9006238745
 21
-5.9388382507
 31
0.0
  0
LINE
  5
70E
100
AcDbEntity
  8
RACCORDO
100
AcDbLine
 62
250
  6
CONTINUOUS
 10
1.3211242881
 20
-5.2143970012
 30
0.0
 11
1.3234062285
 21
-6.302703729
 31
0.0
  0
LINE
  5
70F
100
AcDbEntity
  8
RACCORDO
100
AcDbLine
 62
250
  6
CONTINUOUS
 10
1.6212105587
 20
-5.211778188
 30
0.0
 11
1.6227483093
 21
-5.9451647164
 31
0.0
  0
LINE
  5
710
100
AcDbEntity
  8
IMPORT_IGES
100
AcDbLine
 62
7
  6
CONTINUOUS
 10
0.6479922058
 20
-14.45
 30
0.0
 11
0.6479922058
 21
-16.85
 31
0.0
  0
LINE
  5
711
100
AcDbEntity
  8
DRAFT
100
AcDbLine
 62
7
  6
CONTINUOUS
 10
0.8619922058
 20
-5.2184037862
 30
0.0
 11
0.8619922058
 21
-5.6690751025
 31
0.0
  0
LINE
  5
712
100
AcDbEntity
  8
ASSI
100
AcDbLine
 62
7
  6
CONTINUOUS
 10
1.2619922058
 20
-16.92
 30
0.0
 11
1.2619922058
 21
-14.38
 31
0.0
  0
LINE
  5
713
100
AcDbEntity
  8
CURVE
100
AcDbLine
 62
7
  6
CONTINUOUS
 10
1.2619922058
 20
-16.92
 30
0.0
 11
1.2619922058
 21
-14.38
 31
0.0
  0
LINE
  5
714
100
AcDbEntity
  8
ASSI
100
AcDbLine
 62
7
  6
CONTINUOUS
 10
1.2619922058
 20
5.5417024334
 30
0.0
 11
1.2619922058
 21
0.0582975666
 31
0.0
  0
LINE
  5
715
100
AcDbEntity
  8
RACCORDO
100
AcDbLine
 62
7
  6
CONTINUOUS
 10
1.2619922058
 20
0.0565520601
 30
0.0
 11
1.2619922058
 21
5.5434479399
 31
0.0
  0
LINE
  5
716
100
AcDbEntity
  8
ASSI
100
AcDbLine
 62
7
  6
CONTINUOUS
 10
1.2619922058
 20
-17.4582975666
 30
0.0
 11
1.2619922058
 21
-21.2
 31
0.0
  0
LINE
  5
717
100
AcDbEntity
  8
RACCORDO
100
AcDbLine
 62
7
  6
CONTINUOUS
 10
1.2619922058
 20
-17.4565520601
 30
0.0
 11
1.2619922058
 21
-21.2
 31
0.0
  0
LINE
  5
718
100
AcDbEntity
  8
ASSI
100
AcDbLine
 62
7
  6
CONTINUOUS
 10
1.2619922058
 20
18.0582975666
 30
0.0
 11
1.2619922058
 21
21.2
 31
0.0
  0
LINE
  5
719
100
AcDbEntity
  8
RACCORDO
100
AcDbLine
 62
7
  6
CONTINUOUS
 10
1.2619922058
 20
18.0565520601
 30
0.0
 11
1.2619922058
 21
21.2
 31
0.0
  0
LINE
  5
71A
100
AcDbEntity
  8
DRAFT
100
AcDbLine
 62
7
  6
CONTINUOUS
 10
1.6619922058
 20
-5.6690751025
 30
0.0
 11
1.6619922058
 21
-5.2114222919
 31
0.0
  0
LINE
  5
71B
100
AcDbEntity
  8
RACCORDO
100
AcDbLine
 62
250
  6
CONTINUOUS
 10
0.9012361023
 20
-5.9451647164
 30
0.0
 11
0.9027607065
 21
-5.2180480048
 31
0.0
  0
LINE
  5
71C
100
AcDbEntity
  8
RACCORDO
100
AcDbLine
 62
250
  6
CONTINUOUS
 10
1.2005781831
 20
-6.302703729
 30
0.0
 11
1.2028579594
 21
-5.2154290958
 31
0.0
  0
LINE
  5
71D
100
AcDbEntity
  8
RACCORDO
100
AcDbLine
 62
250
  6
CONTINUOUS
 10
3.6376765413
 20
-6.4728038632
 30
0.0
 11
3.6392340201
 21
-7.2155992318
 31
0.0
  0
LINE
  5
71E
100
AcDbEntity
  8
ASSI
100
AcDbLine
 62
7
  6
CONTINUOUS
 10
3.0119922058
 20
-2.9003589796
 30
0.0
 11
3.0119922058
 21
-5.1996410204
 31
0.0
  0
LINE
  5
71F
100
AcDbEntity
  8
DRAFT
100
AcDbLine
 62
7
  6
CONTINUOUS
 10
3.0119922058
 20
-2.9003589796
 30
0.0
 11
3.0119922058
 21
-5.1996410204
 31
0.0
  0
LINE
  5
720
100
AcDbEntity
  8
ASSI
100
AcDbLine
 62
7
  6
CONTINUOUS
 10
3.0119922058
 20
-16.85
 30
0.0
 11
3.0119922058
 21
-16.9346570649
 31
0.0
  0
LINE
  5
721
100
AcDbEntity
  8
DRAFT
100
AcDbLine
 62
7
  6
CONTINUOUS
 10
3.0119922058
 20
-16.85
 30
0.0
 11
3.0119922058
 21
-16.9346570649
 31
0.0
  0
LINE
  5
722
100
AcDbEntity
  8
0
100
AcDbLine
 62
7
  6
CONTINUOUS
 10
3.1619922058
 20
-7.0112292129
 30
0.0
 11
3.1619922058
 21
-6.9669212487
 31
0.0
  0
LINE
  5
723
100
AcDbEntity
  8
DRAFT
100
AcDbLine
 62
7
  6
CONTINUOUS
 10
3.1619922058
 20
-7.1785128431
 30
0.0
 11
3.1619922058
 21
-7.0112292129
 31
0.0
  0
LINE
  5
724
100
AcDbEntity
  8
0
100
AcDbLine
 62
7
  6
CONTINUOUS
 10
3.7619922058
 20
-13.1796529516
 30
0.0
 11
3.7619922058
 21
-12.9807028683
 31
0.0
  0
LINE
  5
725
100
AcDbEntity
  8
RACCORDO
100
AcDbLine
 62
7
  6
CONTINUOUS
 10
1.6619922058
 20
-5.6690751025
 30
0.0
 11
1.6233605371
 21
-5.9388382507
 31
0.0
  0
LINE
  5
726
100
AcDbEntity
  8
RACCORDO
100
AcDbLine
 62
250
  6
CONTINUOUS
 10
-6.037390551
 20
-22.2394346502
 30
0.0
 11
-6.0699551786
 21
-22.3180526156
 31
0.0
  0
LINE
  5
727
100
AcDbEntity
  8
RACCORDO
100
AcDbLine
 62
250
  6
CONTINUOUS
 10
-5.8606205869
 20
-22.3126551668
 30
0.0
 11
-5.8931852144
 21
-22.3912731322
 31
0.0
  0
LINE
  5
728
100
AcDbEntity
  8
RACCORDO
100
AcDbLine
 62
250
  6
CONTINUOUS
 10
-6.037390551
 20
22.2394346502
 30
0.0
 11
-6.0699551786
 21
22.3180526156
 31
0.0
  0
LINE
  5
729
100
AcDbEntity
  8
RACCORDO
100
AcDbLine
 62
250
  6
CONTINUOUS
 10
-5.8606205869
 20
22.3126551668
 30
0.0
 11
-5.8931852144
 21
22.3912731322
 31
0.0
  0
LINE
  5
72A
100
AcDbEntity
  8
DRAFT
100
AcDbLine
 62
7
  6
CONTINUOUS
 10
4.3230378794
 20
21.146569249
 30
0.0
 11
4.2982348859
 21
21.6637573199
 31
0.0
  0
LINE
  5
72B
100
AcDbEntity
  8
RACCORDO
100
AcDbLine
 62
7
  6
CONTINUOUS
 10
4.793469924
 20
-23.6655963988
 30
0.0
 11
4.7950007184
 21
-23.7825449351
 31
0.0
  0
LINE
  5
72C
100
AcDbEntity
  8
RACCORDO
100
AcDbLine
 62
7
  6
CONTINUOUS
 10
4.7818392578
 20
-22.3328033174
 30
0.0
 11
4.793469924
 21
-23.6655963988
 31
0.0
  0
LINE
  5
72D
100
AcDbEntity
  8
RACCORDO
100
AcDbLine
 62
250
  6
CONTINUOUS
 10
5.0818278313
 20
-22.3301850577
 30
0.0
 11
5.0934356456
 21
-23.6603594806
 31
0.0
  0
LINE
  5
72E
100
AcDbEntity
  8
RACCORDO
100
AcDbLine
 62
250
  6
CONTINUOUS
 10
3.938249861
 20
-6.7024693536
 30
0.0
 11
3.9394132821
 21
-7.2573300206
 31
0.0
  0
LINE
  5
72F
100
AcDbEntity
  8
DRAFT
100
AcDbLine
 62
7
  6
CONTINUOUS
 10
3.9759058559
 20
-7.0116796612
 30
0.0
 11
3.9759058559
 21
-6.7067022304
 31
0.0
  0
LINE
  5
730
100
AcDbEntity
  8
DRAFT
100
AcDbLine
 62
7
  6
CONTINUOUS
 10
4.2619922058
 20
-22.3380392387
 30
0.0
 11
4.2619922058
 21
-21.7
 31
0.0
  0
LINE
  5
731
100
AcDbEntity
  8
DRAFT
100
AcDbLine
 62
7
  6
CONTINUOUS
 10
4.2619922058
 20
21.7
 30
0.0
 11
4.2619922058
 21
22.3380392387
 31
0.0
  0
LINE
  5
732
100
AcDbEntity
  8
RACCORDO
100
AcDbLine
 62
7
  6
CONTINUOUS
 10
4.330066959
 20
21.3126932437
 30
0.0
 11
4.330066959
 21
21.146446556
 31
0.0
  0
LINE
  5
733
100
AcDbEntity
  8
RACCORDO
100
AcDbLine
 62
7
  6
CONTINUOUS
 10
4.330066959
 20
-21.146446556
 30
0.0
 11
4.330066959
 21
-21.3126932437
 31
0.0
  0
LINE
  5
734
100
AcDbEntity
  8
0
100
AcDbLine
 62
7
  6
CONTINUOUS
 10
4.7145147863
 20
-12.0471534847
 30
0.0
 11
4.7145147863
 21
-11.9499420139
 31
0.0
  0
LINE
  5
735
100
AcDbEntity
  8
0
100
AcDbLine
 62
250
  6
CONTINUOUS
 10
4.7619922058
 20
-12.0453471945
 30
0.0
 11
4.7619922058
 21
-11.9481357237
 31
0.0
  0
LINE
  5
736
100
AcDbEntity
  8
IMPORT_IGES
100
AcDbLine
 62
7
  6
CONTINUOUS
 10
5.0479922058
 20
-16.85
 30
0.0
 11
5.0479922058
 21
-14.45
 31
0.0
  0
LINE
  5
737
100
AcDbEntity
  8
RACCORDO
100
AcDbLine
 62
250
  6
CONTINUOUS
 10
5.2275425074
 20
-23.6603594806
 30
0.0
 11
5.2275425074
 21
-22.3301850577
 31
0.0
  0
LINE
  5
738
100
AcDbEntity
  8
RACCORDO
100
AcDbLine
 62
250
  6
CONTINUOUS
 10
5.2275425074
 20
22.3301850577
 30
0.0
 11
5.2275425074
 21
23.6603594806
 31
0.0
  0
LINE
  5
739
100
AcDbEntity
  8
RACCORDO
100
AcDbLine
 62
7
  6
CONTINUOUS
 10
5.3343557266
 20
-12.105373952
 30
0.0
 11
5.3343557266
 21
-12.1686591108
 31
0.0
  0
LINE
  5
73A
100
AcDbEntity
  8
RACCORDO
100
AcDbLine
 62
250
  6
CONTINUOUS
 10
5.527496816
 20
-23.6655046102
 30
0.0
 11
5.527496816
 21
-22.3327574266
 31
0.0
  0
LINE
  5
73B
100
AcDbEntity
  8
RACCORDO
100
AcDbLine
 62
250
  6
CONTINUOUS
 10
5.527496816
 20
22.3327574266
 30
0.0
 11
5.527496816
 21
23.6655046102
 31
0.0
  0
LINE
  5
73C
100
AcDbEntity
  8
DRAFT
100
AcDbLine
 62
7
  6
CONTINUOUS
 10
5.6619922058
 20
23.8
 30
0.0
 11
5.6619922058
 21
22.4
 31
0.0
  0
LINE
  5
73D
100
AcDbEntity
  8
DRAFT
100
AcDbLine
 62
7
  6
CONTINUOUS
 10
5.6619922058
 20
-22.4
 30
0.0
 11
5.6619922058
 21
-23.8
 31
0.0
  0
LINE
  5
73E
100
AcDbEntity
  8
RACCORDO
100
AcDbLine
 62
7
  6
CONTINUOUS
 10
4.793469924
 20
23.6655963988
 30
0.0
 11
4.7818392578
 21
22.3328033174
 31
0.0
  0
LINE
  5
73F
100
AcDbEntity
  8
RACCORDO
100
AcDbLine
 62
250
  6
CONTINUOUS
 10
5.0934356456
 20
23.6603594806
 30
0.0
 11
5.0818278313
 21
22.3301850577
 31
0.0
  0
LINE
  5
740
100
AcDbEntity
  8
RACCORDO
100
AcDbLine
 62
7
  6
CONTINUOUS
 10
4.793469924
 20
23.6655963988
 30
0.0
 11
4.7950007184
 21
23.7825449351
 31
0.0
  0
LINE
  5
741
100
AcDbEntity
  8
IMPORT_IGES
100
AcDbLine
 62
7
  6
CONTINUOUS
 10
5.068245432
 20
-14.8808721248
 30
0.0
 11
5.0479922058
 21
-16.2759034838
 31
0.0
  0
LINE
  5
742
100
AcDbEntity
  8
DRAFT
100
AcDbLine
 62
7
  6
CONTINUOUS
 10
4.2982348859
 20
-21.6637573199
 30
0.0
 11
4.3230378794
 21
-21.146569249
 31
0.0
  0
LINE
  5
743
100
AcDbEntity
  8
RACCORDO
100
AcDbLine
 62
7
  6
CONTINUOUS
 10
3.9759058559
 20
-7.0116796612
 30
0.0
 11
3.9394132821
 21
-7.2573300206
 31
0.0
  0
LINE
  5
744
100
AcDbEntity
  8
RACCORDO
100
AcDbLine
 62
7
  6
CONTINUOUS
 10
11.8580423337
 20
24.3868325431
 30
0.0
 11
11.8619922058
 21
24.4
 31
0.0
  0
LINE
  5
745
100
AcDbEntity
  8
RACCORDO
100
AcDbLine
 62
7
  6
CONTINUOUS
 10
11.8580423337
 20
-24.3868325431
 30
0.0
 11
11.8619922058
 21
-24.4
 31
0.0
  0
LINE
  5
746
100
AcDbEntity
  8
RACCORDO
100
AcDbLine
 62
250
  6
CONTINUOUS
 10
5.8120378972
 20
-5.6690751025
 30
0.0
 11
5.850669566
 21
-5.9388382507
 31
0.0
  0
LINE
  5
747
100
AcDbEntity
  8
RACCORDO
100
AcDbLine
 62
250
  6
CONTINUOUS
 10
6.1119922058
 20
-5.370763975
 30
0.0
 11
6.1513574918
 21
-5.6456499381
 31
0.0
  0
LINE
  5
748
100
AcDbEntity
  8
RACCORDO
100
AcDbLine
 62
250
  6
CONTINUOUS
 10
6.7653446994
 20
-19.7960613751
 30
0.0
 11
6.7619922058
 21
-19.6039971429
 31
0.0
  0
LINE
  5
749
100
AcDbEntity
  8
RACCORDO
100
AcDbLine
 62
250
  6
CONTINUOUS
 10
6.3998510365
 20
-5.9181852957
 30
0.0
 11
6.3999301063
 21
-5.9527955661
 31
0.0
  0
LINE
  5
74A
100
AcDbEntity
  8
RACCORDO
100
AcDbLine
 62
7
  6
CONTINUOUS
 10
5.7619922058
 20
-19.7785477922
 30
0.0
 11
5.7619922058
 21
-19.6214522078
 31
0.0
  0
LINE
  5
74B
100
AcDbEntity
  8
0
100
AcDbLine
 62
7
  6
CONTINUOUS
 10
5.7619922058
 20
-13.1796529516
 30
0.0
 11
5.7619922058
 21
-13.0018238406
 31
0.0
  0
LINE
  5
74C
100
AcDbEntity
  8
RACCORDO
100
AcDbLine
 62
7
  6
CONTINUOUS
 10
5.7619922058
 20
19.6214522078
 30
0.0
 11
5.7619922058
 21
19.7785477922
 31
0.0
  0
LINE
  5
74D
100
AcDbEntity
  8
RACCORDO
100
AcDbLine
 62
250
  6
CONTINUOUS
 10
5.850669566
 20
-5.9388382507
 30
0.0
 11
5.8506695624
 21
-6.3027037289
 31
0.0
  0
LINE
  5
74E
100
AcDbEntity
  8
RACCORDO
100
AcDbLine
 62
7
  6
CONTINUOUS
 10
6.1119922058
 20
-4.3
 30
0.0
 11
6.1119922058
 21
-5.370763975
 31
0.0
  0
LINE
  5
74F
100
AcDbEntity
  8
RACCORDO
100
AcDbLine
 62
250
  6
CONTINUOUS
 10
6.1513574918
 20
-4.3
 30
0.0
 11
6.1513574918
 21
-5.6456499381
 31
0.0
  0
LINE
  5
750
100
AcDbEntity
  8
ASSI
100
AcDbLine
 62
250
  6
CONTINUOUS
 10
6.2968970187
 20
20.612191562
 30
0.0
 11
6.2968970187
 21
20.287808438
 31
0.0
  0
LINE
  5
751
100
AcDbEntity
  8
RACCORDO
100
AcDbLine
 62
250
  6
CONTINUOUS
 10
6.2968970187
 20
20.612191562
 30
0.0
 11
6.2968970187
 21
20.287808438
 31
0.0
  0
LINE
  5
752
100
AcDbEntity
  8
ASSI
100
AcDbLine
 62
250
  6
CONTINUOUS
 10
6.2968970187
 20
-20.287808438
 30
0.0
 11
6.2968970187
 21
-20.612191562
 31
0.0
  0
LINE
  5
753
100
AcDbEntity
  8
RACCORDO
100
AcDbLine
 62
250
  6
CONTINUOUS
 10
6.2968970187
 20
-20.287808438
 30
0.0
 11
6.2968970187
 21
-20.612191562
 31
0.0
  0
LINE
  5
754
100
AcDbEntity
  8
RACCORDO
100
AcDbLine
 62
250
  6
CONTINUOUS
 10
6.4513118003
 20
-4.3
 30
0.0
 11
6.4513118003
 21
-5.6764611951
 31
0.0
  0
LINE
  5
755
100
AcDbEntity
  8
RACCORDO
100
AcDbLine
 62
250
  6
CONTINUOUS
 10
6.5726726113
 20
-5.9180827209
 30
0.0
 11
6.5726726113
 21
-4.3
 31
0.0
  0
LINE
  5
756
100
AcDbEntity
  8
RACCORDO
100
AcDbLine
 62
250
  6
CONTINUOUS
 10
6.5726726113
 20
-5.9180827209
 30
0.0
 11
6.5737628912
 21
-6.4728038632
 31
0.0
  0
LINE
  5
757
100
AcDbEntity
  8
RACCORDO
100
AcDbLine
 62
250
  6
CONTINUOUS
 10
6.5737628912
 20
-6.4728038632
 30
0.0
 11
6.5737628912
 21
-6.7067022149
 31
0.0
  0
LINE
  5
758
100
AcDbEntity
  8
RACCORDO
100
AcDbLine
 62
7
  6
CONTINUOUS
 10
6.7619922058
 20
-16.8692005714
 30
0.0
 11
6.7619922058
 21
-4.4999923846
 31
0.0
  0
LINE
  5
759
100
AcDbEntity
  8
RACCORDO
100
AcDbLine
 62
7
  6
CONTINUOUS
 10
6.7724644471
 20
-16.8690177778
 30
0.0
 11
6.7724644471
 21
-4.4895201433
 31
0.0
  0
LINE
  5
75A
100
AcDbEntity
  8
RACCORDO
100
AcDbLine
 62
7
  6
CONTINUOUS
 10
7.2619922058
 20
-2.8897343276
 30
0.0
 11
7.2619922058
 21
-2.1102656724
 31
0.0
  0
LINE
  5
75B
100
AcDbEntity
  8
DRAFT
100
AcDbLine
 62
7
  6
CONTINUOUS
 10
7.3619922058
 20
-16.8587275325
 30
0.0
 11
7.3619922058
 21
-3.1124986398
 31
0.0
  0
LINE
  5
75C
100
AcDbEntity
  8
DRAFT
100
AcDbLine
 62
7
  6
CONTINUOUS
 10
7.3619922058
 20
-1.8875013602
 30
0.0
 11
7.3619922058
 21
-0.5412724675
 31
0.0
  0
LINE
  5
75D
100
AcDbEntity
  8
DRAFT
100
AcDbLine
 62
7
  6
CONTINUOUS
 10
7.3619922058
 20
6.1412724675
 30
0.0
 11
7.3619922058
 21
17.4587275325
 31
0.0
  0
LINE
  5
75E
100
AcDbEntity
  8
RACCORDO
100
AcDbLine
 62
250
  6
CONTINUOUS
 10
6.7653446994
 20
19.7960613751
 30
0.0
 11
6.7619922058
 21
19.6039971429
 31
0.0
  0
LINE
  5
75F
100
AcDbEntity
  8
RACCORDO
100
AcDbLine
 62
7
  6
CONTINUOUS
 10
1.7532660026
 20
6.0433717875
 30
0.0
 11
7.6654826871
 21
6.1465699136
 31
0.0
  0
LINE
  5
760
100
AcDbEntity
  8
ASSI
100
AcDbLine
 62
7
  6
CONTINUOUS
 10
0.770718409
 20
6.041626281
 30
0.0
 11
-5.2414982755
 21
6.1465699136
 31
0.0
  0
LINE
  5
761
100
AcDbEntity
  8
RACCORDO
100
AcDbLine
 62
7
  6
CONTINUOUS
 10
0.770718409
 20
6.041626281
 30
0.0
 11
-5.2414982755
 21
6.1465699136
 31
0.0
  0
LINE
  5
762
100
AcDbEntity
  8
RACCORDO
100
AcDbLine
 62
250
  6
CONTINUOUS
 10
7.5567564839
 20
-3.1896886361
 30
0.0
 11
7.5567564839
 21
-1.8103113639
 31
0.0
  0
LINE
  5
763
100
AcDbEntity
  8
RACCORDO
100
AcDbLine
 62
7
  6
CONTINUOUS
 10
7.8619922058
 20
17.2534605474
 30
0.0
 11
7.8619922058
 21
6.3465394526
 31
0.0
  0
LINE
  5
764
100
AcDbEntity
  8
RACCORDO
100
AcDbLine
 62
7
  6
CONTINUOUS
 10
7.8619922058
 20
-0.7465394526
 30
0.0
 11
7.8619922058
 21
-16.6534605474
 31
0.0
  0
LINE
  5
765
100
AcDbEntity
  8
RACCORDO
100
AcDbLine
 62
250
  6
CONTINUOUS
 10
8.2268957252
 20
20.131252856
 30
0.0
 11
8.2268957252
 21
19.7872686779
 31
0.0
  0
LINE
  5
766
100
AcDbEntity
  8
RACCORDO
100
AcDbLine
 62
250
  6
CONTINUOUS
 10
8.2268957252
 20
-19.7872686779
 30
0.0
 11
8.2268957252
 21
-20.131252856
 31
0.0
  0
LINE
  5
767
100
AcDbEntity
  8
ASSI
100
AcDbLine
 62
7
  6
CONTINUOUS
 10
8.2619922058
 20
20.5864659139
 30
0.0
 11
8.2619922058
 21
20.3135340861
 31
0.0
  0
LINE
  5
768
100
AcDbEntity
  8
RACCORDO
100
AcDbLine
 62
7
  6
CONTINUOUS
 10
8.2619922058
 20
20.5864659139
 30
0.0
 11
8.2619922058
 21
20.3135340861
 31
0.0
  0
LINE
  5
769
100
AcDbEntity
  8
ASSI
100
AcDbLine
 62
7
  6
CONTINUOUS
 10
8.2619922058
 20
-20.3135340861
 30
0.0
 11
8.2619922058
 21
-20.5864659139
 31
0.0
  0
LINE
  5
76A
100
AcDbEntity
  8
RACCORDO
100
AcDbLine
 62
7
  6
CONTINUOUS
 10
8.2619922058
 20
-20.3135340861
 30
0.0
 11
8.2619922058
 21
-20.5864659139
 31
0.0
  0
LINE
  5
76B
100
AcDbEntity
  8
RACCORDO
100
AcDbLine
 62
7
  6
CONTINUOUS
 10
8.476886206
 20
20.735115519
 30
0.0
 11
8.476886206
 21
20.0350964806
 31
0.0
  0
LINE
  5
76C
100
AcDbEntity
  8
RACCORDO
100
AcDbLine
 62
7
  6
CONTINUOUS
 10
8.476886206
 20
-20.0350964806
 30
0.0
 11
8.476886206
 21
-20.735115519
 31
0.0
  0
LINE
  5
76D
100
AcDbEntity
  8
RACCORDO
100
AcDbLine
 62
7
  6
CONTINUOUS
 10
8.5619922058
 20
20.6500095192
 30
0.0
 11
8.5619922058
 21
19.9499904808
 31
0.0
  0
LINE
  5
76E
100
AcDbEntity
  8
RACCORDO
100
AcDbLine
 62
7
  6
CONTINUOUS
 10
8.5619922058
 20
-19.9499904808
 30
0.0
 11
8.5619922058
 21
-20.6500095192
 31
0.0
  0
LINE
  5
76F
100
AcDbEntity
  8
RACCORDO
100
AcDbLine
 62
250
  6
CONTINUOUS
 10
9.1768957252
 20
-21.2611984931
 30
0.0
 11
9.1768957252
 21
-20.9872686779
 31
0.0
  0
LINE
  5
770
100
AcDbEntity
  8
RACCORDO
100
AcDbLine
 62
250
  6
CONTINUOUS
 10
9.1768957252
 20
20.9872686779
 30
0.0
 11
9.1768957252
 21
21.2611984931
 31
0.0
  0
LINE
  5
771
100
AcDbEntity
  8
RACCORDO
100
AcDbLine
 62
250
  6
CONTINUOUS
 10
6.5619998212
 20
-4.3
 30
0.0
 11
6.5724720625
 21
-4.2895277587
 31
0.0
  0
LINE
  5
772
100
AcDbEntity
  8
RACCORDO
100
AcDbLine
 62
250
  6
CONTINUOUS
 10
6.7619922058
 20
-4.4999923846
 30
0.0
 11
6.7724644471
 21
-4.4895201433
 31
0.0
  0
LINE
  5
773
100
AcDbEntity
  8
RACCORDO
100
AcDbLine
 62
250
  6
CONTINUOUS
 10
-8.4745097149
 20
-20.4865399969
 30
0.0
 11
-8.4880077942
 21
-20.5000380762
 31
0.0
  0
LINE
  5
774
100
AcDbEntity
  8
RACCORDO
100
AcDbLine
 62
250
  6
CONTINUOUS
 10
-8.2250846633
 20
-20.7370387929
 30
0.0
 11
-8.2380458704
 21
-20.75
 31
0.0
  0
LINE
  5
775
100
AcDbEntity
  8
RACCORDO
100
AcDbLine
 62
250
  6
CONTINUOUS
 10
-8.4880077942
 20
20.5000380762
 30
0.0
 11
-8.4745097149
 21
20.4865399969
 31
0.0
  0
LINE
  5
776
100
AcDbEntity
  8
RACCORDO
100
AcDbLine
 62
250
  6
CONTINUOUS
 10
-8.2380458704
 20
20.75
 30
0.0
 11
-8.2250846633
 21
20.7370387929
 31
0.0
  0
LINE
  5
777
100
AcDbEntity
  8
RACCORDO
100
AcDbLine
 62
7
  6
CONTINUOUS
 10
9.6626467102
 20
-23.1948185145
 30
0.0
 11
9.666573737
 21
-23.6278312164
 31
0.0
  0
LINE
  5
778
100
AcDbEntity
  8
DRAFT
100
AcDbLine
 62
7
  6
CONTINUOUS
 10
9.9275157272
 20
19.5414903771
 30
0.0
 11
9.9249534129
 21
20.7370387929
 31
0.0
  0
LINE
  5
779
100
AcDbEntity
  8
RACCORDO
100
AcDbLine
 62
7
  6
CONTINUOUS
 10
10.9984941265
 20
-20.4865399969
 30
0.0
 11
10.9948091792
 21
-18.7671830266
 31
0.0
  0
LINE
  5
77A
100
AcDbEntity
  8
RACCORDO
100
AcDbLine
 62
7
  6
CONTINUOUS
 10
9.426886206
 20
-21.2611984931
 30
0.0
 11
9.426886206
 21
-21.2350964806
 31
0.0
  0
LINE
  5
77B
100
AcDbEntity
  8
RACCORDO
100
AcDbLine
 62
7
  6
CONTINUOUS
 10
9.426886206
 20
21.2350964806
 30
0.0
 11
9.426886206
 21
21.2611984931
 31
0.0
  0
LINE
  5
77C
100
AcDbEntity
  8
RACCORDO
100
AcDbLine
 62
7
  6
CONTINUOUS
 10
9.5119922058
 20
-21.2964505524
 30
0.0
 11
9.5119922058
 21
-21.1499904808
 31
0.0
  0
LINE
  5
77D
100
AcDbEntity
  8
RACCORDO
100
AcDbLine
 62
7
  6
CONTINUOUS
 10
9.5119922058
 20
21.1499904808
 30
0.0
 11
9.5119922058
 21
21.2964505524
 31
0.0
  0
LINE
  5
77E
100
AcDbEntity
  8
RACCORDO
100
AcDbLine
 62
7
  6
CONTINUOUS
 10
9.6619922058
 20
-22.4
 30
0.0
 11
9.6619922058
 21
-24.4
 31
0.0
  0
LINE
  5
77F
100
AcDbEntity
  8
RACCORDO
100
AcDbLine
 62
7
  6
CONTINUOUS
 10
9.6619922058
 20
22.4
 30
0.0
 11
9.6619922058
 21
24.4
 31
0.0
  0
LINE
  5
780
100
AcDbEntity
  8
RACCORDO
100
AcDbLine
 62
7
  6
CONTINUOUS
 10
9.6672282414
 20
24.1368706193
 30
0.0
 11
9.6672282414
 21
23.8443375673
 31
0.0
  0
LINE
  5
781
100
AcDbEntity
  8
RACCORDO
100
AcDbLine
 62
7
  6
CONTINUOUS
 10
9.6672282414
 20
-23.8443375673
 30
0.0
 11
9.6672282414
 21
-24.1368706193
 31
0.0
  0
LINE
  5
782
100
AcDbEntity
  8
DRAFT
100
AcDbLine
 62
7
  6
CONTINUOUS
 10
9.9119922058
 20
20.75
 30
0.0
 11
9.9119922058
 21
19.5437642381
 31
0.0
  0
LINE
  5
783
100
AcDbEntity
  8
DRAFT
100
AcDbLine
 62
7
  6
CONTINUOUS
 10
9.9119922058
 20
-19.5437642381
 30
0.0
 11
9.9119922058
 21
-20.75
 31
0.0
  0
LINE
  5
784
100
AcDbEntity
  8
RACCORDO
100
AcDbLine
 62
7
  6
CONTINUOUS
 10
11.0119922058
 20
20.5000380762
 30
0.0
 11
11.0119922058
 21
18.75
 31
0.0
  0
LINE
  5
785
100
AcDbEntity
  8
RACCORDO
100
AcDbLine
 62
7
  6
CONTINUOUS
 10
11.0119922058
 20
-18.75
 30
0.0
 11
11.0119922058
 21
-20.5000380762
 31
0.0
  0
LINE
  5
786
100
AcDbEntity
  8
DRAFT
100
AcDbLine
 62
7
  6
CONTINUOUS
 10
9.9249534129
 20
-20.7370387929
 30
0.0
 11
9.9275157272
 21
-19.5414903771
 31
0.0
  0
LINE
  5
787
100
AcDbEntity
  8
RACCORDO
100
AcDbLine
 62
7
  6
CONTINUOUS
 10
10.9948091792
 20
18.7671830266
 30
0.0
 11
10.9984941265
 21
20.4865399969
 31
0.0
  0
LINE
  5
788
100
AcDbEntity
  8
RACCORDO
100
AcDbLine
 62
7
  6
CONTINUOUS
 10
9.666573737
 20
23.6278312164
 30
0.0
 11
9.6626467102
 21
23.1948185145
 31
0.0
  0
LINE
  5
789
100
AcDbEntity
  8
IMPORT_IGES
100
AcDbLine
 62
7
  6
CONTINUOUS
 10
-0.9520077942
 20
-14.925
 30
0.0
 11
-1.2380077942
 21
-15.211
 31
0.0
  0
LINE
  5
78A
100
AcDbEntity
  8
RACCORDO
100
AcDbLine
 62
250
  6
CONTINUOUS
 10
-6.6529113136
 20
-21.2611984931
 30
0.0
 11
-6.8296812778
 21
-21.4379684572
 31
0.0
  0
LINE
  5
78B
100
AcDbEntity
  8
RACCORDO
100
AcDbLine
 62
250
  6
CONTINUOUS
 10
-6.7781865272
 20
-21.4894632079
 30
0.0
 11
-6.601416563
 21
-21.3126932437
 31
0.0
  0
LINE
  5
78C
100
AcDbEntity
  8
RACCORDO
100
AcDbLine
 62
250
  6
CONTINUOUS
 10
-6.8296812778
 20
21.4379684572
 30
0.0
 11
-6.6529113136
 21
21.2611984931
 31
0.0
  0
LINE
  5
78D
100
AcDbEntity
  8
RACCORDO
100
AcDbLine
 62
250
  6
CONTINUOUS
 10
-6.601416563
 20
21.3126932437
 30
0.0
 11
-6.7781865272
 21
21.4894632079
 31
0.0
  0
LINE
  5
78E
100
AcDbEntity
  8
RACCORDO
100
AcDbLine
 62
7
  6
CONTINUOUS
 10
11.8574106746
 20
23.6278312164
 30
0.0
 11
11.8613377013
 21
23.1948185145
 31
0.0
  0
LINE
  5
78F
100
AcDbEntity
  8
RACCORDO
100
AcDbLine
 62
250
  6
CONTINUOUS
 10
11.4294446122
 20
-16.9357864376
 30
0.0
 11
11.4294446122
 21
16.9357864376
 31
0.0
  0
LINE
  5
790
100
AcDbEntity
  8
RACCORDO
100
AcDbLine
 62
7
  6
CONTINUOUS
 10
11.8567561702
 20
-24.1368706193
 30
0.0
 11
11.8567561702
 21
-23.8443375673
 31
0.0
  0
LINE
  5
791
100
AcDbEntity
  8
RACCORDO
100
AcDbLine
 62
7
  6
CONTINUOUS
 10
11.8567561702
 20
23.8443375673
 30
0.0
 11
11.8567561702
 21
24.1368706193
 31
0.0
  0
LINE
  5
792
100
AcDbEntity
  8
RACCORDO
100
AcDbLine
 62
7
  6
CONTINUOUS
 10
11.8619922058
 20
22.4
 30
0.0
 11
11.8619922058
 21
24.4
 31
0.0
  0
LINE
  5
793
100
AcDbEntity
  8
RACCORDO
100
AcDbLine
 62
7
  6
CONTINUOUS
 10
11.8619922058
 20
-22.4
 30
0.0
 11
11.8619922058
 21
-24.4
 31
0.0
  0
LINE
  5
794
100
AcDbEntity
  8
RACCORDO
100
AcDbLine
 62
7
  6
CONTINUOUS
 10
12.3945371409
 20
-22.0413131115
 30
0.0
 11
12.3945371409
 21
-17.1196415273
 31
0.0
  0
LINE
  5
795
100
AcDbEntity
  8
RACCORDO
100
AcDbLine
 62
7
  6
CONTINUOUS
 10
12.3945371409
 20
17.1196415273
 30
0.0
 11
12.3945371409
 21
22.0413131115
 31
0.0
  0
LINE
  5
796
100
AcDbEntity
  8
RACCORDO
100
AcDbLine
 62
7
  6
CONTINUOUS
 10
12.4119922058
 20
-22.0500399793
 30
0.0
 11
12.4119922058
 21
22.0500399793
 31
0.0
  0
LINE
  5
797
100
AcDbEntity
  8
RACCORDO
100
AcDbLine
 62
7
  6
CONTINUOUS
 10
11.8613377013
 20
-23.1948185145
 30
0.0
 11
11.8574106746
 21
-23.6278312164
 31
0.0
  0
LINE
  5
798
100
AcDbEntity
  8
RACCORDO
100
AcDbLine
 62
7
  6
CONTINUOUS
 10
-3.1380077942
 20
-23.8
 30
0.0
 11
-3.0035124044
 21
-23.6655046102
 31
0.0
  0
LINE
  5
799
100
AcDbEntity
  8
RACCORDO
100
AcDbLine
 62
7
  6
CONTINUOUS
 10
-3.1380077942
 20
23.8
 30
0.0
 11
-3.0035124044
 21
23.6655046102
 31
0.0
  0
LINE
  5
79A
100
AcDbEntity
  8
RACCORDO
100
AcDbLine
 62
7
  6
CONTINUOUS
 10
9.6659420779
 20
-24.3868325431
 30
0.0
 11
9.6619922058
 21
-24.4
 31
0.0
  0
LINE
  5
79B
100
AcDbEntity
  8
RACCORDO
100
AcDbLine
 62
250
  6
CONTINUOUS
 10
-9.5379722141
 20
-22.4
 30
0.0
 11
-9.5205527272
 21
-22.3912731322
 31
0.0
  0
LINE
  5
79C
100
AcDbEntity
  8
RACCORDO
100
AcDbLine
 62
250
  6
CONTINUOUS
 10
-9.8880077942
 20
-22.0500399793
 30
0.0
 11
-9.8705527293
 21
-22.0413131115
 31
0.0
  0
LINE
  5
79D
100
AcDbEntity
  8
RACCORDO
100
AcDbLine
 62
250
  6
CONTINUOUS
 10
-9.8705527293
 20
22.0413131115
 30
0.0
 11
-9.8880077942
 21
22.0500399793
 31
0.0
  0
LINE
  5
79E
100
AcDbEntity
  8
RACCORDO
100
AcDbLine
 62
250
  6
CONTINUOUS
 10
-9.5205527272
 20
22.3912731322
 30
0.0
 11
-9.5379722141
 21
22.4
 31
0.0
  0
LINE
  5
79F
100
AcDbEntity
  8
RACCORDO
100
AcDbLine
 62
7
  6
CONTINUOUS
 10
9.6659420779
 20
24.3868325431
 30
0.0
 11
9.6619922058
 21
24.4
 31
0.0
  0
LINE
  5
7A0
100
AcDbEntity
  8
DRAFT
100
AcDbLine
 62
7
  6
CONTINUOUS
 10
4.2619922058
 20
-21.7
 30
0.0
 11
4.2982348859
 21
-21.6637573199
 31
0.0
  0
LINE
  5
7A1
100
AcDbEntity
  8
RACCORDO
100
AcDbLine
 62
250
  6
CONTINUOUS
 10
-6.9029017944
 20
-21.2611984931
 30
0.0
 11
-6.9880077942
 21
-21.2964505524
 31
0.0
  0
LINE
  5
7A2
100
AcDbEntity
  8
RACCORDO
100
AcDbLine
 62
250
  6
CONTINUOUS
 10
-6.8296812778
 20
-21.4379684572
 30
0.0
 11
-6.9147872776
 21
-21.4732205166
 31
0.0
  0
LINE
  5
7A3
100
AcDbEntity
  8
ASSI
100
AcDbLine
 62
7
  6
CONTINUOUS
 10
0.770718409
 20
17.558373719
 30
0.0
 11
-5.2414982755
 21
17.4534300864
 31
0.0
  0
LINE
  5
7A4
100
AcDbEntity
  8
RACCORDO
100
AcDbLine
 62
7
  6
CONTINUOUS
 10
0.770718409
 20
17.558373719
 30
0.0
 11
-5.2414982755
 21
17.4534300864
 31
0.0
  0
LINE
  5
7A5
100
AcDbEntity
  8
ASSI
100
AcDbLine
 62
250
  6
CONTINUOUS
 10
-8.9054602006
 20
16.9357864376
 30
0.0
 11
-9.8880077942
 21
16.9357864376
 31
0.0
  0
LINE
  5
7A6
100
AcDbEntity
  8
RACCORDO
100
AcDbLine
 62
250
  6
CONTINUOUS
 10
-8.9054602006
 20
16.9357864376
 30
0.0
 11
-9.8880077942
 21
16.9357864376
 31
0.0
  0
LINE
  5
7A7
100
AcDbEntity
  8
RACCORDO
100
AcDbLine
 62
250
  6
CONTINUOUS
 10
11.4294446122
 20
16.9357864376
 30
0.0
 11
12.4119922058
 21
16.9357864376
 31
0.0
  0
LINE
  5
7A8
100
AcDbEntity
  8
DRAFT
100
AcDbLine
 62
7
  6
CONTINUOUS
 10
1.6443309433
 20
17.5709460779
 30
0.0
 11
0.8737253974
 21
17.5709460779
 31
0.0
  0
LINE
  5
7A9
100
AcDbEntity
  8
DRAFT
100
AcDbLine
 62
7
  6
CONTINUOUS
 10
1.0567842206
 20
17.6547303896
 30
0.0
 11
1.464486039
 21
17.6547303896
 31
0.0
  0
LINE
  5
7AA
100
AcDbEntity
  8
RACCORDO
100
AcDbLine
 62
7
  6
CONTINUOUS
 10
1.7532660026
 20
17.5566282125
 30
0.0
 11
7.6654826871
 21
17.4534300864
 31
0.0
  0
LINE
  5
7AB
100
AcDbEntity
  8
RACCORDO
100
AcDbLine
 62
250
  6
CONTINUOUS
 10
-6.9029017944
 20
21.2611984931
 30
0.0
 11
-6.9880077942
 21
21.2964505524
 31
0.0
  0
LINE
  5
7AC
100
AcDbEntity
  8
RACCORDO
100
AcDbLine
 62
250
  6
CONTINUOUS
 10
-6.8296812778
 20
21.4379684572
 30
0.0
 11
-6.9147872776
 21
21.4732205166
 31
0.0
  0
LINE
  5
7AD
100
AcDbEntity
  8
DRAFT
100
AcDbLine
 62
7
  6
CONTINUOUS
 10
4.2619922058
 20
21.7
 30
0.0
 11
4.2982348859
 21
21.6637573199
 31
0.0
  0
LINE
  5
7AE
100
AcDbEntity
  8
RACCORDO
100
AcDbLine
 62
250
  6
CONTINUOUS
 10
8.2247330471
 20
-19.7872686779
 30
0.0
 11
8.312001725
 21
-19.7
 31
0.0
  0
LINE
  5
7AF
100
AcDbEntity
  8
RACCORDO
100
AcDbLine
 62
250
  6
CONTINUOUS
 10
9.8143608958
 20
-18.5508701541
 30
0.0
 11
11.4294446122
 21
-16.9357864376
 31
0.0
  0
LINE
  5
7B0
100
AcDbEntity
  8
RACCORDO
100
AcDbLine
 62
250
  6
CONTINUOUS
 10
8.476886206
 20
-20.0350964806
 30
0.0
 11
8.5619922058
 21
-19.9499904808
 31
0.0
  0
LINE
  5
7B1
100
AcDbEntity
  8
RACCORDO
100
AcDbLine
 62
7
  6
CONTINUOUS
 10
-3.0035124044
 20
-22.3327574266
 30
0.0
 11
-3.1380077942
 21
-22.4
 31
0.0
  0
LINE
  5
7B2
100
AcDbEntity
  8
ASSI
100
AcDbLine
 62
250
  6
CONTINUOUS
 10
1.2619922058
 20
18.7001523048
 30
0.0
 11
-7.2903764842
 21
18.5508701541
 31
0.0
  0
LINE
  5
7B3
100
AcDbEntity
  8
RACCORDO
100
AcDbLine
 62
250
  6
CONTINUOUS
 10
1.2619922058
 20
18.7001523048
 30
0.0
 11
-7.2903764842
 21
18.5508701541
 31
0.0
  0
LINE
  5
7B4
100
AcDbEntity
  8
ASSI
100
AcDbLine
 62
7
  6
CONTINUOUS
 10
7.770718409
 20
19.8136102385
 30
0.0
 11
-7.2903764842
 21
19.5507178492
 31
0.0
  0
LINE
  5
7B5
100
AcDbEntity
  8
RACCORDO
100
AcDbLine
 62
7
  6
CONTINUOUS
 10
7.770718409
 20
19.8136102385
 30
0.0
 11
-7.2903764842
 21
19.5507178492
 31
0.0
  0
LINE
  5
7B6
100
AcDbEntity
  8
ASSI
100
AcDbLine
 62
250
  6
CONTINUOUS
 10
6.2968970187
 20
20.287808438
 30
0.0
 11
1.2619922058
 21
20.1999238476
 31
0.0
  0
LINE
  5
7B7
100
AcDbEntity
  8
RACCORDO
100
AcDbLine
 62
250
  6
CONTINUOUS
 10
6.2968970187
 20
20.287808438
 30
0.0
 11
1.2619922058
 21
20.1999238476
 31
0.0
  0
LINE
  5
7B8
100
AcDbEntity
  8
ASSI
100
AcDbLine
 62
250
  6
CONTINUOUS
 10
8.2619922058
 20
20.3135340861
 30
0.0
 11
6.2968970187
 21
20.287808438
 31
0.0
  0
LINE
  5
7B9
100
AcDbEntity
  8
RACCORDO
100
AcDbLine
 62
250
  6
CONTINUOUS
 10
8.2619922058
 20
20.3135340861
 30
0.0
 11
6.2968970187
 21
20.287808438
 31
0.0
  0
LINE
  5
7BA
100
AcDbEntity
  8
RACCORDO
100
AcDbLine
 62
7
  6
CONTINUOUS
 10
7.5619826866
 20
19.7
 30
0.0
 11
8.312001725
 21
19.7
 31
0.0
  0
LINE
  5
7BB
100
AcDbEntity
  8
RACCORDO
100
AcDbLine
 62
7
  6
CONTINUOUS
 10
7.6492513645
 20
19.7872686779
 30
0.0
 11
8.2268957252
 21
19.7872686779
 31
0.0
  0
LINE
  5
7BC
100
AcDbEntity
  8
RACCORDO
100
AcDbLine
 62
250
  6
CONTINUOUS
 10
9.8143608958
 20
18.5508701541
 30
0.0
 11
1.2619922058
 21
18.7001523048
 31
0.0
  0
LINE
  5
7BD
100
AcDbEntity
  8
RACCORDO
100
AcDbLine
 62
7
  6
CONTINUOUS
 10
9.8143608958
 20
19.5507178492
 30
0.0
 11
1.2619922058
 21
19.7
 31
0.0
  0
LINE
  5
7BE
100
AcDbEntity
  8
RACCORDO
100
AcDbLine
 62
7
  6
CONTINUOUS
 10
-3.0035124044
 20
22.3327574266
 30
0.0
 11
-3.1380077942
 21
22.4
 31
0.0
  0
LINE
  5
7BF
100
AcDbEntity
  8
RACCORDO
100
AcDbLine
 62
250
  6
CONTINUOUS
 10
8.2247330471
 20
19.7872686779
 30
0.0
 11
8.312001725
 21
19.7
 31
0.0
  0
LINE
  5
7C0
100
AcDbEntity
  8
RACCORDO
100
AcDbLine
 62
250
  6
CONTINUOUS
 10
11.4294446122
 20
16.9357864376
 30
0.0
 11
9.8143608958
 21
18.5508701541
 31
0.0
  0
LINE
  5
7C1
100
AcDbEntity
  8
RACCORDO
100
AcDbLine
 62
250
  6
CONTINUOUS
 10
8.476886206
 20
20.0350964806
 30
0.0
 11
8.5619922058
 21
19.9499904808
 31
0.0
  0
LINE
  5
7C2
100
AcDbEntity
  8
RACCORDO
100
AcDbLine
 62
250
  6
CONTINUOUS
 10
8.5619922058
 20
-20.6500095192
 30
0.0
 11
8.476886206
 21
-20.735115519
 31
0.0
  0
LINE
  5
7C3
100
AcDbEntity
  8
RACCORDO
100
AcDbLine
 62
250
  6
CONTINUOUS
 10
8.8119826866
 20
-20.9
 30
0.0
 11
8.7268766868
 21
-20.9851059998
 31
0.0
  0
LINE
  5
7C4
100
AcDbEntity
  8
RACCORDO
100
AcDbLine
 62
7
  6
CONTINUOUS
 10
10.5040152705
 20
-19.2579769353
 30
0.0
 11
12.119098987
 21
-17.6428932188
 31
0.0
  0
LINE
  5
7C5
100
AcDbEntity
  8
RACCORDO
100
AcDbLine
 62
250
  6
CONTINUOUS
 10
9.1747330471
 20
-20.9872686779
 30
0.0
 11
9.262001725
 21
-20.9
 31
0.0
  0
LINE
  5
7C6
100
AcDbEntity
  8
RACCORDO
100
AcDbLine
 62
250
  6
CONTINUOUS
 10
9.1768957252
 20
-21.2611984931
 30
0.0
 11
9.1254009746
 21
-21.3126932437
 31
0.0
  0
LINE
  5
7C7
100
AcDbEntity
  8
RACCORDO
100
AcDbLine
 62
250
  6
CONTINUOUS
 10
9.426886206
 20
-21.2350964806
 30
0.0
 11
9.5119922058
 21
-21.1499904808
 31
0.0
  0
LINE
  5
7C8
100
AcDbEntity
  8
DRAFT
100
AcDbLine
 62
7
  6
CONTINUOUS
 10
9.9119922058
 20
-20.75
 30
0.0
 11
9.9249534129
 21
-20.7370387929
 31
0.0
  0
LINE
  5
7C9
100
AcDbEntity
  8
RACCORDO
100
AcDbLine
 62
7
  6
CONTINUOUS
 10
9.3536656894
 20
-21.4379684572
 30
0.0
 11
9.3021709388
 21
-21.4894632079
 31
0.0
  0
LINE
  5
7CA
100
AcDbEntity
  8
RACCORDO
100
AcDbLine
 62
7
  6
CONTINUOUS
 10
8.5939395902
 20
-22.3180526156
 30
0.0
 11
9.4387716892
 21
-21.4732205166
 31
0.0
  0
LINE
  5
7CB
100
AcDbEntity
  8
RACCORDO
100
AcDbLine
 62
7
  6
CONTINUOUS
 10
4.3127642163
 20
-22.3126551668
 30
0.0
 11
4.2619922058
 21
-22.3380392387
 31
0.0
  0
LINE
  5
7CC
100
AcDbEntity
  8
ASSI
100
AcDbLine
 62
250
  6
CONTINUOUS
 10
1.2619922058
 20
20.7000761524
 30
0.0
 11
-4.4201392677
 21
20.6008941786
 31
0.0
  0
LINE
  5
7CD
100
AcDbEntity
  8
RACCORDO
100
AcDbLine
 62
250
  6
CONTINUOUS
 10
1.2619922058
 20
20.7000761524
 30
0.0
 11
-4.4201392677
 21
20.6008941786
 31
0.0
  0
LINE
  5
7CE
100
AcDbEntity
  8
ASSI
100
AcDbLine
 62
7
  6
CONTINUOUS
 10
1.2619922058
 20
21.2
 30
0.0
 11
-4.4201392677
 21
21.1008180262
 31
0.0
  0
LINE
  5
7CF
100
AcDbEntity
  8
RACCORDO
100
AcDbLine
 62
7
  6
CONTINUOUS
 10
1.2619922058
 20
21.2
 30
0.0
 11
-4.4201392677
 21
21.1008180262
 31
0.0
  0
LINE
  5
7D0
100
AcDbEntity
  8
RACCORDO
100
AcDbLine
 62
7
  6
CONTINUOUS
 10
10.7490690749
 20
20.7370387929
 30
0.0
 11
9.9249534129
 21
20.7370387929
 31
0.0
  0
LINE
  5
7D1
100
AcDbEntity
  8
RACCORDO
100
AcDbLine
 62
7
  6
CONTINUOUS
 10
-8.2250846633
 20
20.7370387929
 30
0.0
 11
-7.4009690013
 21
20.7370387929
 31
0.0
  0
LINE
  5
7D2
100
AcDbEntity
  8
RACCORDO
100
AcDbLine
 62
7
  6
CONTINUOUS
 10
-7.3880077942
 20
20.75
 30
0.0
 11
-8.2380458704
 21
20.75
 31
0.0
  0
LINE
  5
7D3
100
AcDbEntity
  8
RACCORDO
100
AcDbLine
 62
7
  6
CONTINUOUS
 10
9.9119922058
 20
20.75
 30
0.0
 11
10.762030282
 21
20.75
 31
0.0
  0
LINE
  5
7D4
100
AcDbEntity
  8
RACCORDO
100
AcDbLine
 62
7
  6
CONTINUOUS
 10
-6.7380173134
 20
20.9
 30
0.0
 11
-6.287998275
 21
20.9
 31
0.0
  0
LINE
  5
7D5
100
AcDbEntity
  8
RACCORDO
100
AcDbLine
 62
7
  6
CONTINUOUS
 10
8.8119826866
 20
20.9
 30
0.0
 11
9.262001725
 21
20.9
 31
0.0
  0
LINE
  5
7D6
100
AcDbEntity
  8
RACCORDO
100
AcDbLine
 62
7
  6
CONTINUOUS
 10
9.1768957252
 20
20.9872686779
 30
0.0
 11
8.6586415108
 21
20.9872686779
 31
0.0
  0
LINE
  5
7D7
100
AcDbEntity
  8
RACCORDO
100
AcDbLine
 62
7
  6
CONTINUOUS
 10
-6.1346570985
 20
20.9872686778
 30
0.0
 11
-6.6529113136
 21
20.9872686779
 31
0.0
  0
LINE
  5
7D8
100
AcDbEntity
  8
RACCORDO
100
AcDbLine
 62
250
  6
CONTINUOUS
 10
9.426886206
 20
21.2611984931
 30
0.0
 11
9.1768957252
 21
21.2611984931
 31
0.0
  0
LINE
  5
7D9
100
AcDbEntity
  8
RACCORDO
100
AcDbLine
 62
250
  6
CONTINUOUS
 10
-6.6529113136
 20
21.2611984931
 30
0.0
 11
-6.9029017944
 21
21.2611984931
 31
0.0
  0
LINE
  5
7DA
100
AcDbEntity
  8
RACCORDO
100
AcDbLine
 62
250
  6
CONTINUOUS
 10
9.1254009746
 20
21.3126932437
 30
0.0
 11
4.330066959
 21
21.3126932437
 31
0.0
  0
LINE
  5
7DB
100
AcDbEntity
  8
RACCORDO
100
AcDbLine
 62
250
  6
CONTINUOUS
 10
-1.8060825474
 20
21.3126932437
 30
0.0
 11
-6.601416563
 21
21.3126932437
 31
0.0
  0
LINE
  5
7DC
100
AcDbEntity
  8
DRAFT
100
AcDbLine
 62
7
  6
CONTINUOUS
 10
-1.7742504743
 20
21.6637573199
 30
0.0
 11
4.2982348859
 21
21.6637573199
 31
0.0
  0
LINE
  5
7DD
100
AcDbEntity
  8
DRAFT
100
AcDbLine
 62
7
  6
CONTINUOUS
 10
-1.7380077942
 20
21.7
 30
0.0
 11
4.2619922058
 21
21.7
 31
0.0
  0
LINE
  5
7DE
100
AcDbEntity
  8
ASSI
100
AcDbLine
 62
250
  6
CONTINUOUS
 10
8.2619922058
 20
20.5864659139
 30
0.0
 11
6.2968970187
 21
20.612191562
 31
0.0
  0
LINE
  5
7DF
100
AcDbEntity
  8
RACCORDO
100
AcDbLine
 62
250
  6
CONTINUOUS
 10
8.2619922058
 20
20.5864659139
 30
0.0
 11
6.2968970187
 21
20.612191562
 31
0.0
  0
LINE
  5
7E0
100
AcDbEntity
  8
ASSI
100
AcDbLine
 62
250
  6
CONTINUOUS
 10
6.2968970187
 20
20.612191562
 30
0.0
 11
1.2619922058
 21
20.7000761524
 31
0.0
  0
LINE
  5
7E1
100
AcDbEntity
  8
RACCORDO
100
AcDbLine
 62
250
  6
CONTINUOUS
 10
6.2968970187
 20
20.612191562
 30
0.0
 11
1.2619922058
 21
20.7000761524
 31
0.0
  0
LINE
  5
7E2
100
AcDbEntity
  8
ASSI
100
AcDbLine
 62
7
  6
CONTINUOUS
 10
7.770718409
 20
21.0863897615
 30
0.0
 11
1.2619922058
 21
21.2
 31
0.0
  0
LINE
  5
7E3
100
AcDbEntity
  8
RACCORDO
100
AcDbLine
 62
7
  6
CONTINUOUS
 10
7.770718409
 20
21.0863897615
 30
0.0
 11
1.2619922058
 21
21.2
 31
0.0
  0
LINE
  5
7E4
100
AcDbEntity
  8
RACCORDO
100
AcDbLine
 62
7
  6
CONTINUOUS
 10
4.3127642163
 20
22.3126551668
 30
0.0
 11
4.2619922058
 21
22.3380392387
 31
0.0
  0
LINE
  5
7E5
100
AcDbEntity
  8
RACCORDO
100
AcDbLine
 62
250
  6
CONTINUOUS
 10
8.5619922058
 20
20.6500095192
 30
0.0
 11
8.476886206
 21
20.735115519
 31
0.0
  0
LINE
  5
7E6
100
AcDbEntity
  8
RACCORDO
100
AcDbLine
 62
250
  6
CONTINUOUS
 10
8.8119826866
 20
20.9
 30
0.0
 11
8.7268766868
 21
20.9851059998
 31
0.0
  0
LINE
  5
7E7
100
AcDbEntity
  8
RACCORDO
100
AcDbLine
 62
7
  6
CONTINUOUS
 10
12.119098987
 20
17.6428932188
 30
0.0
 11
10.5040152705
 21
19.2579769353
 31
0.0
  0
LINE
  5
7E8
100
AcDbEntity
  8
RACCORDO
100
AcDbLine
 62
250
  6
CONTINUOUS
 10
9.1747330471
 20
20.9872686779
 30
0.0
 11
9.262001725
 21
20.9
 31
0.0
  0
LINE
  5
7E9
100
AcDbEntity
  8
RACCORDO
100
AcDbLine
 62
250
  6
CONTINUOUS
 10
9.1768957252
 20
21.2611984931
 30
0.0
 11
9.1254009746
 21
21.3126932437
 31
0.0
  0
LINE
  5
7EA
100
AcDbEntity
  8
RACCORDO
100
AcDbLine
 62
250
  6
CONTINUOUS
 10
9.426886206
 20
21.2350964806
 30
0.0
 11
9.5119922058
 21
21.1499904808
 31
0.0
  0
LINE
  5
7EB
100
AcDbEntity
  8
DRAFT
100
AcDbLine
 62
7
  6
CONTINUOUS
 10
9.9249534129
 20
20.7370387929
 30
0.0
 11
9.9119922058
 21
20.75
 31
0.0
  0
LINE
  5
7EC
100
AcDbEntity
  8
RACCORDO
100
AcDbLine
 62
7
  6
CONTINUOUS
 10
9.3536656894
 20
21.4379684572
 30
0.0
 11
9.3021709388
 21
21.4894632079
 31
0.0
  0
LINE
  5
7ED
100
AcDbEntity
  8
RACCORDO
100
AcDbLine
 62
7
  6
CONTINUOUS
 10
9.4387716892
 20
21.4732205166
 30
0.0
 11
8.5939395902
 21
22.3180526156
 31
0.0
  0
LINE
  5
7EE
100
AcDbEntity
  8
RACCORDO
100
AcDbLine
 62
250
  6
CONTINUOUS
 10
8.3846049985
 20
22.3126551668
 30
0.0
 11
4.3127642163
 21
22.3126551668
 31
0.0
  0
LINE
  5
7EF
100
AcDbEntity
  8
RACCORDO
100
AcDbLine
 62
250
  6
CONTINUOUS
 10
-1.7887798047
 20
22.3126551668
 30
0.0
 11
-5.8606205869
 21
22.3126551668
 31
0.0
  0
LINE
  5
7F0
100
AcDbEntity
  8
RACCORDO
100
AcDbLine
 62
7
  6
CONTINUOUS
 10
5.2275425074
 20
22.3301850577
 30
0.0
 11
5.0818278313
 21
22.3301850577
 31
0.0
  0
LINE
  5
7F1
100
AcDbEntity
  8
RACCORDO
100
AcDbLine
 62
7
  6
CONTINUOUS
 10
-2.5578434197
 20
22.3301850577
 30
0.0
 11
-2.7035580958
 21
22.3301850577
 31
0.0
  0
LINE
  5
7F2
100
AcDbEntity
  8
DRAFT
100
AcDbLine
 62
7
  6
CONTINUOUS
 10
-2.2579462292
 20
22.3380392387
 30
0.0
 11
-1.7380077942
 21
22.3380392387
 31
0.0
  0
LINE
  5
7F3
100
AcDbEntity
  8
DRAFT
100
AcDbLine
 62
7
  6
CONTINUOUS
 10
4.2619922058
 20
22.3380392387
 30
0.0
 11
4.7819306407
 21
22.3380392387
 31
0.0
  0
LINE
  5
7F4
100
AcDbEntity
  8
RACCORDO
100
AcDbLine
 62
7
  6
CONTINUOUS
 10
-9.5205527272
 20
22.3912731322
 30
0.0
 11
-5.8931852144
 21
22.3912731322
 31
0.0
  0
LINE
  5
7F5
100
AcDbEntity
  8
RACCORDO
100
AcDbLine
 62
7
  6
CONTINUOUS
 10
8.417169626
 20
22.3912731322
 30
0.0
 11
12.0445371388
 21
22.3912731322
 31
0.0
  0
LINE
  5
7F6
100
AcDbEntity
  8
RACCORDO
100
AcDbLine
 62
7
  6
CONTINUOUS
 10
12.0619566257
 20
22.4
 30
0.0
 11
11.8619922058
 21
22.4
 31
0.0
  0
LINE
  5
7F7
100
AcDbEntity
  8
DRAFT
100
AcDbLine
 62
7
  6
CONTINUOUS
 10
11.8619922058
 20
22.4
 30
0.0
 11
5.6619922058
 21
22.4
 31
0.0
  0
LINE
  5
7F8
100
AcDbEntity
  8
DRAFT
100
AcDbLine
 62
7
  6
CONTINUOUS
 10
-3.1380077942
 20
22.4
 30
0.0
 11
-9.3380077942
 21
22.4
 31
0.0
  0
LINE
  5
7F9
100
AcDbEntity
  8
RACCORDO
100
AcDbLine
 62
7
  6
CONTINUOUS
 10
-9.3380077942
 20
22.4
 30
0.0
 11
-9.5379722141
 21
22.4
 31
0.0
  0
LINE
  5
7FA
100
AcDbEntity
  8
RACCORDO
100
AcDbLine
 62
250
  6
CONTINUOUS
 10
-9.3380077942
 20
22.9783121635
 30
0.0
 11
-7.1380077942
 21
22.9783121635
 31
0.0
  0
LINE
  5
7FB
100
AcDbEntity
  8
RACCORDO
100
AcDbLine
 62
250
  6
CONTINUOUS
 10
9.6619922058
 20
22.9783121635
 30
0.0
 11
11.8619922058
 21
22.9783121635
 31
0.0
  0
LINE
  5
7FC
100
AcDbEntity
  8
RACCORDO
100
AcDbLine
 62
250
  6
CONTINUOUS
 10
-9.3373532898
 20
23.1948185145
 30
0.0
 11
-7.1386622987
 21
23.1948185145
 31
0.0
  0
LINE
  5
7FD
100
AcDbEntity
  8
RACCORDO
100
AcDbLine
 62
250
  6
CONTINUOUS
 10
9.6626467102
 20
23.1948185145
 30
0.0
 11
11.8613377013
 21
23.1948185145
 31
0.0
  0
LINE
  5
7FE
100
AcDbEntity
  8
RACCORDO
100
AcDbLine
 62
250
  6
CONTINUOUS
 10
-9.333426263
 20
23.6278312164
 30
0.0
 11
-7.1425893254
 21
23.6278312164
 31
0.0
  0
LINE
  5
7FF
100
AcDbEntity
  8
RACCORDO
100
AcDbLine
 62
250
  6
CONTINUOUS
 10
9.666573737
 20
23.6278312164
 30
0.0
 11
11.8574106746
 21
23.6278312164
 31
0.0
  0
LINE
  5
800
100
AcDbEntity
  8
RACCORDO
100
AcDbLine
 62
7
  6
CONTINUOUS
 10
-2.7035580958
 20
23.6603594806
 30
0.0
 11
-2.569451234
 21
23.6603594806
 31
0.0
  0
LINE
  5
801
100
AcDbEntity
  8
RACCORDO
100
AcDbLine
 62
7
  6
CONTINUOUS
 10
5.0934356456
 20
23.6603594806
 30
0.0
 11
5.2275425074
 21
23.6603594806
 31
0.0
  0
LINE
  5
802
100
AcDbEntity
  8
DRAFT
100
AcDbLine
 62
7
  6
CONTINUOUS
 10
4.7950007184
 20
23.7825449351
 30
0.0
 11
-2.2710163069
 21
23.7825449351
 31
0.0
  0
LINE
  5
803
100
AcDbEntity
  8
DRAFT
100
AcDbLine
 62
7
  6
CONTINUOUS
 10
-3.1380077942
 20
23.8
 30
0.0
 11
5.6619922058
 21
23.8
 31
0.0
  0
LINE
  5
804
100
AcDbEntity
  8
RACCORDO
100
AcDbLine
 62
250
  6
CONTINUOUS
 10
-9.3327717586
 20
23.8443375673
 30
0.0
 11
-7.1432438298
 21
23.8443375673
 31
0.0
  0
LINE
  5
805
100
AcDbEntity
  8
RACCORDO
100
AcDbLine
 62
250
  6
CONTINUOUS
 10
9.6672282414
 20
23.8443375673
 30
0.0
 11
11.8567561702
 21
23.8443375673
 31
0.0
  0
LINE
  5
806
100
AcDbEntity
  8
RACCORDO
100
AcDbLine
 62
250
  6
CONTINUOUS
 10
11.8567561702
 20
24.1368706193
 30
0.0
 11
9.6672282414
 21
24.1368706193
 31
0.0
  0
LINE
  5
807
100
AcDbEntity
  8
RACCORDO
100
AcDbLine
 62
250
  6
CONTINUOUS
 10
-7.1432438298
 20
24.1368706193
 30
0.0
 11
-9.3327717586
 21
24.1368706193
 31
0.0
  0
LINE
  5
808
100
AcDbEntity
  8
RACCORDO
100
AcDbLine
 62
250
  6
CONTINUOUS
 10
11.8580423337
 20
24.3868325431
 30
0.0
 11
9.6659420779
 21
24.3868325431
 31
0.0
  0
LINE
  5
809
100
AcDbEntity
  8
RACCORDO
100
AcDbLine
 62
250
  6
CONTINUOUS
 10
-7.1419576663
 20
24.3868325431
 30
0.0
 11
-9.3340579221
 21
24.3868325431
 31
0.0
  0
LINE
  5
80A
100
AcDbEntity
  8
DRAFT
100
AcDbLine
 62
7
  6
CONTINUOUS
 10
11.8619922058
 20
24.4
 30
0.0
 11
9.6619922058
 21
24.4
 31
0.0
  0
LINE
  5
80B
100
AcDbEntity
  8
DRAFT
100
AcDbLine
 62
7
  6
CONTINUOUS
 10
-7.1380077942
 20
24.4
 30
0.0
 11
-9.3380077942
 21
24.4
 31
0.0
  0
ARC
  5
80C
100
AcDbEntity
  8
RACCORDO
100
AcDbCircle
 62
250
  6
CONTINUOUS
 10
-22.7237565835
 20
-2.1666829142
 30
0.0
 40
31.2793235916
100
AcDbArc
 50
338.04204104
 51
338.1626816843
  0
ARC
  5
80D
100
AcDbEntity
  8
ASSI
100
AcDbCircle
 62
7
  6
CONTINUOUS
 10
-8.8880077942
 20
-16.9357864376
 30
0.0
 40
1.0
100
AcDbArc
 50
180.0
 51
224.999972008
  0
ARC
  5
80E
100
AcDbEntity
  8
ASSI
100
AcDbCircle
 62
7
  6
CONTINUOUS
 10
-7.2729240778
 20
-18.5508701541
 30
0.0
 40
1.0
100
AcDbArc
 50
225.0
 51
269.0
  0
ARC
  5
80F
100
AcDbEntity
  8
RACCORDO
100
AcDbCircle
 62
7
  6
CONTINUOUS
 10
-8.8880077942
 20
-16.9357864376
 30
0.0
 40
1.0
100
AcDbArc
 50
180.0
 51
224.999972008
  0
ARC
  5
810
100
AcDbEntity
  8
RACCORDO
100
AcDbCircle
 62
7
  6
CONTINUOUS
 10
-7.2729240778
 20
-18.5508701541
 30
0.0
 40
1.0
100
AcDbArc
 50
225.0
 51
269.0
  0
ARC
  5
811
100
AcDbEntity
  8
RACCORDO
100
AcDbCircle
 62
7
  6
CONTINUOUS
 10
-9.5380539668
 20
-22.0500373002
 30
0.0
 40
0.3499538274
100
AcDbArc
 50
180.0004386314
 51
270.016288465
  0
ARC
  5
812
100
AcDbEntity
  8
RACCORDO
100
AcDbCircle
 62
250
  6
CONTINUOUS
 10
-6.6527234229
 20
-21.2611228586
 30
0.0
 40
0.250178383
100
AcDbArc
 50
180.0173217836
 51
187.547608523
  0
ARC
  5
813
100
AcDbEntity
  8
RACCORDO
100
AcDbCircle
 62
250
  6
CONTINUOUS
 10
-6.2029286863
 20
-20.7350791079
 30
0.0
 40
0.2500281814
100
AcDbArc
 50
270.0083439156
 51
359.9916560844
  0
ARC
  5
814
100
AcDbEntity
  8
RACCORDO
100
AcDbCircle
 62
250
  6
CONTINUOUS
 10
-5.8606263977
 20
-22.0626787146
 30
0.0
 40
0.2499764523
100
AcDbArc
 50
224.9986681333
 51
270.0013318667
  0
ARC
  5
815
100
AcDbEntity
  8
RACCORDO
100
AcDbCircle
 62
7
  6
CONTINUOUS
 10
-6.6529878212
 20
-21.2612506999
 30
0.0
 40
0.2498994665
100
AcDbArc
 50
187.547608523
 51
225.0039396747
  0
ARC
  5
816
100
AcDbEntity
  8
ASSI
100
AcDbCircle
 62
7
  6
CONTINUOUS
 10
-8.8880077942
 20
16.9357864376
 30
0.0
 40
1.0
100
AcDbArc
 50
135.0
 51
180.0
  0
ARC
  5
817
100
AcDbEntity
  8
ASSI
100
AcDbCircle
 62
7
  6
CONTINUOUS
 10
-7.2729240778
 20
18.5508701541
 30
0.0
 40
1.0
100
AcDbArc
 50
91.0
 51
135.0
  0
ARC
  5
818
100
AcDbEntity
  8
RACCORDO
100
AcDbCircle
 62
7
  6
CONTINUOUS
 10
-8.8880077942
 20
16.9357864376
 30
0.0
 40
1.0
100
AcDbArc
 50
135.0
 51
180.0
  0
ARC
  5
819
100
AcDbEntity
  8
RACCORDO
100
AcDbCircle
 62
7
  6
CONTINUOUS
 10
-7.2729240778
 20
18.5508701541
 30
0.0
 40
1.0
100
AcDbArc
 50
91.0
 51
135.0
  0
ARC
  5
81A
100
AcDbEntity
  8
RACCORDO
100
AcDbCircle
 62
7
  6
CONTINUOUS
 10
-9.5380539668
 20
22.0500373002
 30
0.0
 40
0.3499538274
100
AcDbArc
 50
89.983711535
 51
179.9995613686
  0
ARC
  5
81B
100
AcDbEntity
  8
RACCORDO
100
AcDbCircle
 62
7
  6
CONTINUOUS
 10
-6.6521372686
 20
21.2610830643
 30
0.0
 40
0.2507645524
100
AcDbArc
 50
170.004775555
 51
179.9736263375
  0
ARC
  5
81C
100
AcDbEntity
  8
RACCORDO
100
AcDbCircle
 62
250
  6
CONTINUOUS
 10
-6.2029286862
 20
20.735079108
 30
0.0
 40
0.2500281813
100
AcDbArc
 50
0.0083438894
 51
89.9916561106
  0
ARC
  5
81D
100
AcDbEntity
  8
RACCORDO
100
AcDbCircle
 62
250
  6
CONTINUOUS
 10
-5.8606263977
 20
22.0626787146
 30
0.0
 40
0.2499764523
100
AcDbArc
 50
89.9986681333
 51
135.0013318667
  0
ARC
  5
81E
100
AcDbEntity
  8
RACCORDO
100
AcDbCircle
 62
7
  6
CONTINUOUS
 10
-6.6529933157
 20
21.2612566563
 30
0.0
 40
0.2498913695
100
AcDbArc
 50
134.9961350814
 51
170.0099061023
  0
ARC
  5
81F
100
AcDbEntity
  8
DRAFT
100
AcDbCircle
 62
7
  6
CONTINUOUS
 10
2.2893170037
 20
-13.0159331002
 30
0.0
 40
5.0043156024
100
AcDbArc
 50
315.4060945063
 51
333.3701171825
  0
ARC
  5
820
100
AcDbEntity
  8
RACCORDO
100
AcDbCircle
 62
7
  6
CONTINUOUS
 10
2.2705785365
 20
-12.6975205199
 30
0.0
 40
4.9826015666
100
AcDbArc
 50
302.4612487114
 51
302.858561633
  0
ARC
  5
821
100
AcDbEntity
  8
RACCORDO
100
AcDbCircle
 62
7
  6
CONTINUOUS
 10
2.2715935573
 20
-12.6990892492
 30
0.0
 40
4.9807330975
100
AcDbArc
 50
302.8585445013
 51
303.5301632457
  0
ARC
  5
822
100
AcDbEntity
  8
RACCORDO
100
AcDbCircle
 62
7
  6
CONTINUOUS
 10
2.2739807722
 20
-12.7028126099
 30
0.0
 40
4.9763111346
100
AcDbArc
 50
303.891295762
 51
314.836604525
  0
ARC
  5
823
100
AcDbEntity
  8
DRAFT
100
AcDbCircle
 62
7
  6
CONTINUOUS
 10
2.2906192727
 20
-12.5938636387
 30
0.0
 40
4.9737885525
100
AcDbArc
 50
313.8355817814
 51
334.0461231925
  0
ARC
  5
824
100
AcDbEntity
  8
DRAFT
100
AcDbCircle
 62
7
  6
CONTINUOUS
 10
2.2914943282
 20
-12.7200467979
 30
0.0
 40
4.9517414396
100
AcDbArc
 50
314.8335080353
 51
334.5305901854
  0
ARC
  5
825
100
AcDbEntity
  8
RACCORDO
100
AcDbCircle
 62
7
  6
CONTINUOUS
 10
2.2631711869
 20
-12.6866430932
 30
0.0
 40
4.9169617621
100
AcDbArc
 50
300.9203815576
 51
302.0772959652
  0
ARC
  5
826
100
AcDbEntity
  8
SMUSSO
100
AcDbCircle
 62
7
  6
CONTINUOUS
 10
0.2628093805
 20
-13.0909452039
 30
0.0
 40
4.8860381062
100
AcDbArc
 50
90.0095825413
 51
98.842825029
  0
ARC
  5
827
100
AcDbEntity
  8
SMUSSO
100
AcDbCircle
 62
7
  6
CONTINUOUS
 10
0.2581645333
 20
-13.0675307109
 30
0.0
 40
4.8620480529
100
AcDbArc
 50
111.2909302853
 51
124.405670549
  0
ARC
  5
828
100
AcDbEntity
  8
DRAFT
100
AcDbCircle
 62
7
  6
CONTINUOUS
 10
2.2664357529
 20
-12.7770316733
 30
0.0
 40
4.6755582374
100
AcDbArc
 50
297.8851548073
 51
299.3985475605
  0
ARC
  5
829
100
AcDbEntity
  8
DRAFT
100
AcDbCircle
 62
7
  6
CONTINUOUS
 10
0.2540248702
 20
-12.8443347806
 30
0.0
 40
4.6683949709
100
AcDbArc
 50
122.220099094
 51
125.9735789138
  0
ARC
  5
82A
100
AcDbEntity
  8
DRAFT
100
AcDbCircle
 62
7
  6
CONTINUOUS
 10
2.3005287893
 20
-12.7335875304
 30
0.0
 40
4.6410020093
100
AcDbArc
 50
15.9534595305
 51
33.1449758722
  0
ARC
  5
82B
100
AcDbEntity
  8
ASSI
100
AcDbCircle
 62
7
  6
CONTINUOUS
 10
-4.3852344549
 20
-19.1011226359
 30
0.0
 40
2.0
100
AcDbArc
 50
224.5
 51
269.0
  0
ARC
  5
82C
100
AcDbEntity
  8
RACCORDO
100
AcDbCircle
 62
7
  6
CONTINUOUS
 10
-4.3852344549
 20
-19.1011226359
 30
0.0
 40
2.0
100
AcDbArc
 50
224.5
 51
269.0
  0
ARC
  5
82D
100
AcDbEntity
  8
RACCORDO
100
AcDbCircle
 62
7
  6
CONTINUOUS
 10
1.7619922058
 20
-17.4565520601
 30
0.0
 40
0.5
100
AcDbArc
 50
91.0
 51
180.0
  0
ARC
  5
82E
100
AcDbEntity
  8
ASSI
100
AcDbCircle
 62
7
  6
CONTINUOUS
 10
0.7619922058
 20
-17.4582975666
 30
0.0
 40
0.5
100
AcDbArc
 50
0.0
 51
89.0
  0
ARC
  5
82F
100
AcDbEntity
  8
RACCORDO
100
AcDbCircle
 62
7
  6
CONTINUOUS
 10
0.7619922058
 20
-17.4582975666
 30
0.0
 40
0.5
100
AcDbArc
 50
0.0
 51
89.0
  0
ARC
  5
830
100
AcDbEntity
  8
ASSI
100
AcDbCircle
 62
7
  6
CONTINUOUS
 10
-5.2380077942
 20
-16.6534605474
 30
0.0
 40
0.2
100
AcDbArc
 50
180.0
 51
269.0
  0
ARC
  5
831
100
AcDbEntity
  8
RACCORDO
100
AcDbCircle
 62
7
  6
CONTINUOUS
 10
-5.2380077942
 20
-16.6534605474
 30
0.0
 40
0.2
100
AcDbArc
 50
180.0
 51
269.0
  0
ARC
  5
832
100
AcDbEntity
  8
ASSI
100
AcDbCircle
 62
7
  6
CONTINUOUS
 10
-2.1880077942
 20
-8.8450321564
 30
0.0
 40
0.3
100
AcDbArc
 50
90.5
 51
180.0
  0
ARC
  5
833
100
AcDbEntity
  8
ASSI
100
AcDbCircle
 62
7
  6
CONTINUOUS
 10
-0.1880077942
 20
-5.5275784209
 30
0.0
 40
0.3
100
AcDbArc
 50
90.5
 51
180.0
  0
ARC
  5
834
100
AcDbEntity
  8
RACCORDO
100
AcDbCircle
 62
7
  6
CONTINUOUS
 10
-2.1880077942
 20
-8.8450321564
 30
0.0
 40
0.3
100
AcDbArc
 50
90.5
 51
180.0
  0
ARC
  5
835
100
AcDbEntity
  8
RACCORDO
100
AcDbCircle
 62
7
  6
CONTINUOUS
 10
-0.1880077942
 20
-5.5275784209
 30
0.0
 40
0.3
100
AcDbArc
 50
90.5
 51
180.0
  0
ARC
  5
836
100
AcDbEntity
  8
ASSI
100
AcDbCircle
 62
7
  6
CONTINUOUS
 10
-5.2380077942
 20
-0.7465394526
 30
0.0
 40
0.2
100
AcDbArc
 50
91.0
 51
180.0
  0
ARC
  5
837
100
AcDbEntity
  8
RACCORDO
100
AcDbCircle
 62
7
  6
CONTINUOUS
 10
-5.2380077942
 20
-0.7465394526
 30
0.0
 40
0.2
100
AcDbArc
 50
91.0
 51
180.0
  0
ARC
  5
838
100
AcDbEntity
  8
RACCORDO
100
AcDbCircle
 62
7
  6
CONTINUOUS
 10
9.7969084894
 20
-18.5508701541
 30
0.0
 40
1.0
100
AcDbArc
 50
271.0
 51
315.0
  0
ARC
  5
839
100
AcDbEntity
  8
RACCORDO
100
AcDbCircle
 62
7
  6
CONTINUOUS
 10
11.4119922058
 20
-16.9357864376
 30
0.0
 40
1.0
100
AcDbArc
 50
315.0
 51
360.0
  0
ARC
  5
83A
100
AcDbEntity
  8
RACCORDO
100
AcDbCircle
 62
7
  6
CONTINUOUS
 10
6.8568397182
 20
-19.3022654094
 30
0.0
 40
0.5
100
AcDbArc
 50
276.6523368134
 51
324.1258210615
  0
ARC
  5
83B
100
AcDbEntity
  8
ASSI
100
AcDbCircle
 62
7
  6
CONTINUOUS
 10
7.7619922058
 20
-20.3135340861
 30
0.0
 40
0.5
100
AcDbArc
 50
0.0
 51
89.0
  0
ARC
  5
83C
100
AcDbEntity
  8
ASSI
100
AcDbCircle
 62
7
  6
CONTINUOUS
 10
7.7619922058
 20
-20.5864659139
 30
0.0
 40
0.5
100
AcDbArc
 50
271.0
 51
360.0
  0
ARC
  5
83D
100
AcDbEntity
  8
RACCORDO
100
AcDbCircle
 62
7
  6
CONTINUOUS
 10
7.7619922058
 20
-20.3135340861
 30
0.0
 40
0.5
100
AcDbArc
 50
0.0
 51
89.0
  0
ARC
  5
83E
100
AcDbEntity
  8
RACCORDO
100
AcDbCircle
 62
7
  6
CONTINUOUS
 10
7.7619922058
 20
-20.5864659139
 30
0.0
 40
0.5
100
AcDbArc
 50
271.0
 51
360.0
  0
ARC
  5
83F
100
AcDbEntity
  8
RACCORDO
100
AcDbCircle
 62
7
  6
CONTINUOUS
 10
12.0620383784
 20
-22.0500373002
 30
0.0
 40
0.3499538274
100
AcDbArc
 50
269.983711535
 51
359.9995613686
  0
ARC
  5
840
100
AcDbEntity
  8
RACCORDO
100
AcDbCircle
 62
7
  6
CONTINUOUS
 10
6.2864649087
 20
-12.0659162144
 30
0.0
 40
0.3011500573
100
AcDbArc
 50
89.9900607117
 51
129.6166874273
  0
ARC
  5
841
100
AcDbEntity
  8
RACCORDO
100
AcDbCircle
 62
7
  6
CONTINUOUS
 10
6.2836810953
 20
-12.0624487462
 30
0.0
 40
0.2967038843
100
AcDbArc
 50
129.6295440069
 51
177.3617458082
  0
ARC
  5
842
100
AcDbEntity
  8
RACCORDO
100
AcDbCircle
 62
7
  6
CONTINUOUS
 10
9.1761216802
 20
-21.2610830643
 30
0.0
 40
0.2507645523
100
AcDbArc
 50
350.004775555
 51
359.9736263375
  0
ARC
  5
843
100
AcDbEntity
  8
RACCORDO
100
AcDbCircle
 62
250
  6
CONTINUOUS
 10
8.7269130978
 20
-20.735079108
 30
0.0
 40
0.2500281813
100
AcDbArc
 50
180.0083438919
 51
269.9916561081
  0
ARC
  5
844
100
AcDbEntity
  8
RACCORDO
100
AcDbCircle
 62
250
  6
CONTINUOUS
 10
8.3846108093
 20
-22.0626787146
 30
0.0
 40
0.2499764523
100
AcDbArc
 50
269.9986681333
 51
315.0013318667
  0
ARC
  5
845
100
AcDbEntity
  8
RACCORDO
100
AcDbCircle
 62
7
  6
CONTINUOUS
 10
9.1769777273
 20
-21.2612566563
 30
0.0
 40
0.2498913695
100
AcDbArc
 50
314.9961350815
 51
350.0099061023
  0
ARC
  5
846
100
AcDbEntity
  8
RACCORDO
100
AcDbCircle
 62
7
  6
CONTINUOUS
 10
7.6619922058
 20
-16.6534605474
 30
0.0
 40
0.2
100
AcDbArc
 50
271.0
 51
360.0
  0
ARC
  5
847
100
AcDbEntity
  8
RACCORDO
100
AcDbCircle
 62
250
  6
CONTINUOUS
 10
5.8570802086
 20
-5.6763218524
 30
0.0
 40
0.5942316081
100
AcDbArc
 50
335.9823037599
 51
359.9865645793
  0
ARC
  5
848
100
AcDbEntity
  8
RACCORDO
100
AcDbCircle
 62
7
  6
CONTINUOUS
 10
6.5737628912
 20
-6.4067022304
 30
0.0
 40
0.3
100
AcDbArc
 50
270.0
 51
308.9159383664
  0
ARC
  5
849
100
AcDbEntity
  8
RACCORDO
100
AcDbCircle
 62
7
  6
CONTINUOUS
 10
7.5619922058
 20
-2.8897343276
 30
0.0
 40
0.3
100
AcDbArc
 50
180.0
 51
268.9999999933
  0
ARC
  5
84A
100
AcDbEntity
  8
RACCORDO
100
AcDbCircle
 62
7
  6
CONTINUOUS
 10
7.5619922058
 20
-2.1102656724
 30
0.0
 40
0.3
100
AcDbArc
 50
91.0000000067
 51
180.0
  0
ARC
  5
84B
100
AcDbEntity
  8
RACCORDO
100
AcDbCircle
 62
7
  6
CONTINUOUS
 10
7.6619922058
 20
-0.7465394526
 30
0.0
 40
0.2
100
AcDbArc
 50
0.0
 51
89.0
  0
ARC
  5
84C
100
AcDbEntity
  8
RACCORDO
100
AcDbCircle
 62
7
  6
CONTINUOUS
 10
1.7619922058
 20
5.5434479399
 30
0.0
 40
0.5
100
AcDbArc
 50
91.0
 51
180.0
  0
ARC
  5
84D
100
AcDbEntity
  8
RACCORDO
100
AcDbCircle
 62
7
  6
CONTINUOUS
 10
1.7619922058
 20
0.0565520601
 30
0.0
 40
0.5
100
AcDbArc
 50
180.0
 51
269.0
  0
ARC
  5
84E
100
AcDbEntity
  8
ASSI
100
AcDbCircle
 62
7
  6
CONTINUOUS
 10
0.7619922058
 20
5.5417024334
 30
0.0
 40
0.5
100
AcDbArc
 50
0.0
 51
89.0
  0
ARC
  5
84F
100
AcDbEntity
  8
ASSI
100
AcDbCircle
 62
7
  6
CONTINUOUS
 10
0.7619922058
 20
0.0582975666
 30
0.0
 40
0.5
100
AcDbArc
 50
271.0
 51
360.0
  0
ARC
  5
850
100
AcDbEntity
  8
RACCORDO
100
AcDbCircle
 62
7
  6
CONTINUOUS
 10
0.7619922058
 20
5.5417024334
 30
0.0
 40
0.5
100
AcDbArc
 50
0.0
 51
89.0
  0
ARC
  5
851
100
AcDbEntity
  8
RACCORDO
100
AcDbCircle
 62
7
  6
CONTINUOUS
 10
0.7619922058
 20
0.0582975666
 30
0.0
 40
0.5
100
AcDbArc
 50
271.0
 51
360.0
  0
ARC
  5
852
100
AcDbEntity
  8
ASSI
100
AcDbCircle
 62
7
  6
CONTINUOUS
 10
-5.2380077942
 20
6.3465394526
 30
0.0
 40
0.2
100
AcDbArc
 50
180.0
 51
269.0
  0
ARC
  5
853
100
AcDbEntity
  8
RACCORDO
100
AcDbCircle
 62
7
  6
CONTINUOUS
 10
-5.2380077942
 20
6.3465394526
 30
0.0
 40
0.2
100
AcDbArc
 50
180.0
 51
269.0
  0
ARC
  5
854
100
AcDbEntity
  8
ASSI
100
AcDbCircle
 62
7
  6
CONTINUOUS
 10
-4.3852344549
 20
19.1011226359
 30
0.0
 40
2.0
100
AcDbArc
 50
91.0
 51
135.5
  0
ARC
  5
855
100
AcDbEntity
  8
RACCORDO
100
AcDbCircle
 62
7
  6
CONTINUOUS
 10
-4.3852344549
 20
19.1011226359
 30
0.0
 40
2.0
100
AcDbArc
 50
91.0
 51
135.5
  0
ARC
  5
856
100
AcDbEntity
  8
RACCORDO
100
AcDbCircle
 62
7
  6
CONTINUOUS
 10
1.7619922058
 20
18.0565520601
 30
0.0
 40
0.5
100
AcDbArc
 50
180.0
 51
269.0
  0
ARC
  5
857
100
AcDbEntity
  8
ASSI
100
AcDbCircle
 62
7
  6
CONTINUOUS
 10
0.7619922058
 20
18.0582975666
 30
0.0
 40
0.5
100
AcDbArc
 50
271.0
 51
360.0
  0
ARC
  5
858
100
AcDbEntity
  8
RACCORDO
100
AcDbCircle
 62
7
  6
CONTINUOUS
 10
0.7619922058
 20
18.0582975666
 30
0.0
 40
0.5
100
AcDbArc
 50
271.0
 51
360.0
  0
ARC
  5
859
100
AcDbEntity
  8
ASSI
100
AcDbCircle
 62
7
  6
CONTINUOUS
 10
-5.2380077942
 20
17.2534605474
 30
0.0
 40
0.2
100
AcDbArc
 50
91.0
 51
180.0
  0
ARC
  5
85A
100
AcDbEntity
  8
RACCORDO
100
AcDbCircle
 62
7
  6
CONTINUOUS
 10
-5.2380077942
 20
17.2534605474
 30
0.0
 40
0.2
100
AcDbArc
 50
91.0
 51
180.0
  0
ARC
  5
85B
100
AcDbEntity
  8
RACCORDO
100
AcDbCircle
 62
7
  6
CONTINUOUS
 10
7.6619922058
 20
6.3465394526
 30
0.0
 40
0.2
100
AcDbArc
 50
271.0
 51
360.0
  0
ARC
  5
85C
100
AcDbEntity
  8
RACCORDO
100
AcDbCircle
 62
7
  6
CONTINUOUS
 10
11.4119922058
 20
16.9357864376
 30
0.0
 40
1.0
100
AcDbArc
 50
0.0
 51
45.0
  0
ARC
  5
85D
100
AcDbEntity
  8
RACCORDO
100
AcDbCircle
 62
7
  6
CONTINUOUS
 10
9.7969084894
 20
18.5508701541
 30
0.0
 40
1.0
100
AcDbArc
 50
45.0
 51
89.0
  0
ARC
  5
85E
100
AcDbEntity
  8
RACCORDO
100
AcDbCircle
 62
7
  6
CONTINUOUS
 10
6.8568397182
 20
19.3022654094
 30
0.0
 40
0.5
100
AcDbArc
 50
35.87323039
 51
83.3483417688
  0
ARC
  5
85F
100
AcDbEntity
  8
ASSI
100
AcDbCircle
 62
7
  6
CONTINUOUS
 10
7.7619922058
 20
20.3135340861
 30
0.0
 40
0.5
100
AcDbArc
 50
271.0
 51
360.0
  0
ARC
  5
860
100
AcDbEntity
  8
ASSI
100
AcDbCircle
 62
7
  6
CONTINUOUS
 10
7.7619922058
 20
20.5864659139
 30
0.0
 40
0.5
100
AcDbArc
 50
0.0
 51
89.0
  0
ARC
  5
861
100
AcDbEntity
  8
RACCORDO
100
AcDbCircle
 62
7
  6
CONTINUOUS
 10
7.7619922058
 20
20.3135340861
 30
0.0
 40
0.5
100
AcDbArc
 50
271.0
 51
360.0
  0
ARC
  5
862
100
AcDbEntity
  8
RACCORDO
100
AcDbCircle
 62
7
  6
CONTINUOUS
 10
7.7619922058
 20
20.5864659139
 30
0.0
 40
0.5
100
AcDbArc
 50
0.0
 51
89.0
  0
ARC
  5
863
100
AcDbEntity
  8
RACCORDO
100
AcDbCircle
 62
7
  6
CONTINUOUS
 10
12.0620383784
 20
22.0500373002
 30
0.0
 40
0.3499538274
100
AcDbArc
 50
0.0004386314
 51
90.016288465
  0
ARC
  5
864
100
AcDbEntity
  8
RACCORDO
100
AcDbCircle
 62
250
  6
CONTINUOUS
 10
9.1767078344
 20
21.2611228586
 30
0.0
 40
0.250178383
100
AcDbArc
 50
0.0173217836
 51
7.547608523
  0
ARC
  5
865
100
AcDbEntity
  8
RACCORDO
100
AcDbCircle
 62
250
  6
CONTINUOUS
 10
8.7269130979
 20
20.7350791079
 30
0.0
 40
0.2500281814
100
AcDbArc
 50
90.0083439166
 51
179.9916560834
  0
ARC
  5
866
100
AcDbEntity
  8
RACCORDO
100
AcDbCircle
 62
250
  6
CONTINUOUS
 10
8.3846108093
 20
22.0626787146
 30
0.0
 40
0.2499764523
100
AcDbArc
 50
44.9986681333
 51
90.0013318667
  0
ARC
  5
867
100
AcDbEntity
  8
RACCORDO
100
AcDbCircle
 62
7
  6
CONTINUOUS
 10
9.1769722328
 20
21.2612506999
 30
0.0
 40
0.2498994665
100
AcDbArc
 50
7.547608523
 51
45.0039396747
  0
ARC
  5
868
100
AcDbEntity
  8
RACCORDO
100
AcDbCircle
 62
7
  6
CONTINUOUS
 10
7.6619922058
 20
17.2534605474
 30
0.0
 40
0.2
100
AcDbArc
 50
0.0
 51
89.0
  0
SPLINE
  5
869
100
AcDbEntity
  8
DRAFT
100
AcDbSpline
 62
7
  6
CONTINUOUS
 70
0
 71
3
 72
11
 73
7
 74
0
 42
0.0000001
 43
0.0000001
 44
0.0000000001
 40
0.0
 40
0.0
 40
0.0
 40
0.0
 40
0.249719683
 40
0.4995957592
 40
0.7496841776
 40
1.0
 40
1.0
 40
1.0
 40
1.0
 10
6.7621174104
 20
-14.0366632412
 30
0.0
 10
6.6941310499
 20
-14.2841008532
 30
0.0
 10
6.5164320029
 20
-14.7687330615
 30
0.0
 10
6.1331195428
 20
-15.4409267136
 30
0.0
 10
5.6435228126
 20
-16.040928541
 30
0.0
 10
5.2549105599
 20
-16.3818973035
 30
0.0
 10
5.0482003268
 20
-16.5349762331
 30
0.0
  0
SPLINE
  5
86A
100
AcDbEntity
  8
RACCORDO
100
AcDbSpline
 62
7
  6
CONTINUOUS
 70
0
 71
3
 72
9
 73
5
 74
0
 42
0.0000001
 43
0.0000001
 44
0.0000000001
 40
0.0
 40
0.0
 40
0.0
 40
0.0
 40
0.49962711
 40
1.0
 40
1.0
 40
1.0
 40
1.0
 10
6.76436501
 20
-14.6531066281
 30
0.0
 10
6.5843986487
 20
-15.0701041354
 30
0.0
 10
6.1038937978
 20
-15.8577006969
 30
0.0
 10
5.4235924652
 20
-16.480719062
 30
0.0
 10
5.048781896
 20
-16.7384167741
 30
0.0
  0
SPLINE
  5
86B
100
AcDbEntity
  8
RACCORDO
100
AcDbSpline
 62
7
  6
CONTINUOUS
 70
0
 71
3
 72
9
 73
5
 74
0
 42
0.0000001
 43
0.0000001
 44
0.0000000001
 40
0.0
 40
0.0
 40
0.0
 40
0.0
 40
0.5000089841
 40
1.0
 40
1.0
 40
1.0
 40
1.0
 10
6.0818143043
 20
-11.8640624345
 30
0.0
 10
6.0652850518
 20
-11.8906891155
 30
0.0
 10
6.0404827624
 20
-11.9495712622
 30
0.0
 10
6.0356366334
 20
-12.0132616754
 30
0.0
 10
6.0381123298
 20
-12.0445026207
 30
0.0
  0
SPLINE
  5
86C
100
AcDbEntity
  8
RACCORDO
100
AcDbSpline
 62
7
  6
CONTINUOUS
 70
0
 71
3
 72
9
 73
5
 74
0
 42
0.0000001
 43
0.0000001
 44
0.0000000001
 40
0.0
 40
0.0
 40
0.0
 40
0.0
 40
0.4997789301
 40
1.0
 40
1.0
 40
1.0
 40
1.0
 10
6.2865171502
 20
-13.8628404988
 30
0.0
 10
6.2537567708
 20
-13.8628404988
 30
0.0
 10
6.1877737317
 20
-13.8519754423
 30
0.0
 10
6.1287944507
 20
-13.8204082934
 30
0.0
 10
6.1028266998
 20
-13.8003878502
 30
0.0
  0
SPLINE
  5
86D
100
AcDbEntity
  8
DRAFT
100
AcDbSpline
 62
7
  6
CONTINUOUS
 70
0
 71
3
 72
11
 73
7
 74
0
 42
0.0000001
 43
0.0000001
 44
0.0000000001
 40
0.0
 40
0.0
 40
0.0
 40
0.0
 40
0.2503558487
 40
0.5004594746
 40
0.7503222348
 40
1.0
 40
1.0
 40
1.0
 40
1.0
 10
4.7668419386
 20
-8.8997827523
 30
0.0
 10
5.0081835296
 20
-9.0525478455
 30
0.0
 10
5.4636203072
 20
-9.4031773739
 30
0.0
 10
6.0377637402
 20
-10.0444369584
 30
0.0
 10
6.4842039972
 20
-10.7794450371
 30
0.0
 10
6.6866584537
 20
-11.3163012645
 30
0.0
 10
6.7621263594
 20
-11.5909759806
 30
0.0
  0
SPLINE
  5
86E
100
AcDbEntity
  8
ASSI
100
AcDbSpline
 62
7
  6
CONTINUOUS
 70
0
 71
3
 72
15
 73
11
 74
0
 42
0.0000001
 43
0.0000001
 44
0.0000000001
 40
0.0
 40
0.0
 40
0.0
 40
0.0
 40
0.1246986802
 40
0.2495494023
 40
0.3746834597
 40
0.5
 40
0.6253165403
 40
0.7504505977
 40
0.8753013198
 40
1.0
 40
1.0
 40
1.0
 40
1.0
 10
5.7619922058
 20
-13.1796529516
 30
0.0
 10
5.7619922058
 20
-13.3090431037
 30
0.0
 10
5.7098409126
 20
-13.5708494238
 30
0.0
 10
5.487143859
 20
-13.9013648678
 30
0.0
 10
5.1543464548
 20
-14.122512758
 30
0.0
 10
4.7619922058
 20
-14.2000247125
 30
0.0
 10
4.3696379568
 20
-14.122512758
 30
0.0
 10
4.0368405526
 20
-13.9013648678
 30
0.0
 10
3.814143499
 20
-13.5708494238
 30
0.0
 10
3.7619922058
 20
-13.3090431037
 30
0.0
 10
3.7619922058
 20
-13.1796529516
 30
0.0
  0
LINE
  5
86F
100
AcDbEntity
  8
DRAFT
100
AcDbLine
 62
7
  6
CONTINUOUS
 10
5.782714998
 20
-16.2316164639
 30
0.0
 11
5.8528937944
 21
-16.5293495436
 31
0.0
  0
SPLINE
  5
870
100
AcDbEntity
  8
DRAFT
100
AcDbSpline
 62
7
  6
CONTINUOUS
 70
0
 71
3
 72
15
 73
11
 74
0
 42
0.0000001
 43
0.0000001
 44
0.0000000001
 40
0.0
 40
0.0
 40
0.0
 40
0.0
 40
0.1252322336
 40
0.2504519727
 40
0.375599137
 40
0.5006744272
 40
0.6256526543
 40
0.750532099
 40
0.8753084789
 40
1.0
 40
1.0
 40
1.0
 40
1.0
 10
2.2619922058
 20
-8.204907166
 30
0.0
 10
2.5019732647
 20
-8.204907166
 30
0.0
 10
2.9826641926
 20
-8.2404782947
 30
0.0
 10
3.6872474481
 20
-8.399289302
 30
0.0
 10
4.3605954667
 20
-8.6601672047
 30
0.0
 10
4.9876668796
 20
-9.0172646937
 30
0.0
 10
5.5546991016
 20
-9.4627795417
 30
0.0
 10
6.0491830402
 20
-9.9869282664
 30
0.0
 10
6.4601572296
 20
-10.577972894
 30
0.0
 10
6.6726774595
 20
-11.008531622
 30
0.0
 10
6.7621628064
 20
-11.2300875675
 30
0.0
  0
SPLINE
  5
871
100
AcDbEntity
  8
RACCORDO
100
AcDbSpline
 62
7
  6
CONTINUOUS
 70
0
 71
3
 72
9
 73
5
 74
0
 42
0.0000001
 43
0.0000001
 44
0.0000000001
 40
0.0
 40
0.0
 40
0.0
 40
0.0
 40
0.4996563941
 40
1.0
 40
1.0
 40
1.0
 40
1.0
 10
6.7621610183
 20
-8.7834844118
 30
0.0
 10
6.3937404781
 20
-8.3679826198
 30
0.0
 10
5.5357224511
 20
-7.6361139675
 30
0.0
 10
4.5090529777
 20
-7.1697252981
 30
0.0
 10
3.9759058559
 20
-7.0116796612
 30
0.0
  0
SPLINE
  5
872
100
AcDbEntity
  8
ASSI
100
AcDbSpline
 62
7
  6
CONTINUOUS
 70
0
 71
3
 72
15
 73
11
 74
0
 42
0.0000001
 43
0.0000001
 44
0.0000000001
 40
0.0
 40
0.0
 40
0.0
 40
0.0
 40
0.1246986802
 40
0.2495494023
 40
0.3746834597
 40
0.5
 40
0.6253165403
 40
0.7504505977
 40
0.8753013198
 40
1.0
 40
1.0
 40
1.0
 40
1.0
 10
3.7619922058
 20
-13.1796529516
 30
0.0
 10
3.7619922058
 20
-13.0502627996
 30
0.0
 10
3.814143499
 20
-12.7884564794
 30
0.0
 10
4.0368405526
 20
-12.4579410354
 30
0.0
 10
4.3696379568
 20
-12.2367931453
 30
0.0
 10
4.7619922058
 20
-12.1592811908
 30
0.0
 10
5.1543464548
 20
-12.2367931453
 30
0.0
 10
5.487143859
 20
-12.4579410354
 30
0.0
 10
5.7098409126
 20
-12.7884564794
 30
0.0
 10
5.7619922058
 20
-13.0502627996
 30
0.0
 10
5.7619922058
 20
-13.1796529516
 30
0.0
  0
LINE
  5
873
100
AcDbEntity
  8
0
100
AcDbLine
 62
7
  6
CONTINUOUS
 10
4.7145147863
 20
-12.0471534847
 30
0.0
 11
4.7619922058
 21
-12.0453471945
 31
0.0
  0
SPLINE
  5
874
100
AcDbEntity
  8
RACCORDO
100
AcDbSpline
 62
7
  6
CONTINUOUS
 70
0
 71
3
 72
18
 73
14
 74
0
 42
0.0000001
 43
0.0000001
 44
0.0000000001
 40
0.0
 40
0.0
 40
0.0
 40
0.0
 40
0.1523413883
 40
0.3078683462
 40
0.4627056442
 40
0.6132237514
 40
0.7540000325
 40
0.8179490041
 40
0.8753650098
 40
0.9241572551
 40
0.961895503
 40
0.9870132041
 40
1.0
 40
1.0
 40
1.0
 40
1.0
 10
5.6111565411
 20
-12.4823268579
 30
0.0
 10
5.5996559523
 20
-12.4643742031
 30
0.0
 10
5.57534749
 20
-12.4287663851
 30
0.0
 10
5.5358906161
 20
-12.377378593
 30
0.0
 10
5.4938176802
 20
-12.3284458643
 30
0.0
 10
5.4507492253
 20
-12.2832104176
 30
0.0
 10
5.4149330322
 20
-12.2487062708
 30
0.0
 10
5.3880026647
 20
-12.2238051664
 30
0.0
 10
5.3704150142
 20
-12.2077175582
 30
0.0
 10
5.3556947189
 20
-12.1940567586
 30
0.0
 10
5.3443573206
 20
-12.1830678589
 30
0.0
 10
5.3376444003
 20
-12.1752362178
 30
0.0
 10
5.3343557266
 20
-12.1704766357
 30
0.0
 10
5.3343557266
 20
-12.1686591108
 30
0.0
  0
SPLINE
  5
875
100
AcDbEntity
  8
RACCORDO
100
AcDbSpline
 62
250
  6
CONTINUOUS
 70
0
 71
3
 72
11
 73
7
 74
0
 42
0.0000001
 43
0.0000001
 44
0.0000000001
 40
0.0
 40
0.0
 40
0.0
 40
0.0
 40
0.2519694693
 40
0.5029464395
 40
0.7523226656
 40
1.0
 40
1.0
 40
1.0
 40
1.0
 10
5.850669566
 20
-6.302703729
 30
0.0
 10
5.9082676769
 20
-6.3027364974
 30
0.0
 10
6.0239016663
 20
-6.2862740424
 30
0.0
 10
6.1825882161
 20
-6.2143786873
 30
0.0
 10
6.3140571027
 20
-6.101503066
 30
0.0
 10
6.3765224368
 20
-6.0043430698
 30
0.0
 10
6.3999390361
 20
-5.9527955711
 30
0.0
  0
SPLINE
  5
876
100
AcDbEntity
  8
RACCORDO
100
AcDbSpline
 62
7
  6
CONTINUOUS
 70
0
 71
3
 72
14
 73
10
 74
0
 42
0.0000001
 43
0.0000001
 44
0.0000000001
 40
0.0
 40
0.0
 40
0.0
 40
0.0
 40
0.0283266422
 40
0.0538618171
 40
0.0879304377
 40
0.1808827254
 40
0.3041276929
 40
0.6225409317
 40
1.0
 40
1.0
 40
1.0
 40
1.0
 10
3.9394132821
 20
-7.2573300206
 30
0.0
 10
3.93898787
 20
-7.2601944418
 30
0.0
 10
3.9324638486
 20
-7.2630735693
 30
0.0
 10
3.924063725
 20
-7.2640999283
 30
0.0
 10
3.9081996216
 20
-7.2646642145
 30
0.0
 10
3.8828225115
 20
-7.2626012453
 30
0.0
 10
3.8285507705
 20
-7.2553490439
 30
0.0
 10
3.7463131149
 20
-7.2396304954
 30
0.0
 10
3.6768162593
 20
-7.2243506892
 30
0.0
 10
3.6392340201
 20
-7.2155992318
 30
0.0
  0
SPLINE
  5
877
100
AcDbEntity
  8
RACCORDO
100
AcDbSpline
 62
7
  6
CONTINUOUS
 70
0
 71
3
 72
15
 73
11
 74
0
 42
0.0000001
 43
0.0000001
 44
0.0000000001
 40
0.0
 40
0.0
 40
0.0
 40
0.0
 40
0.3229935481
 40
0.4755282144
 40
0.6184941082
 40
0.7484373901
 40
0.8601203595
 40
0.9464848596
 40
0.9776606583
 40
1.0
 40
1.0
 40
1.0
 40
1.0
 10
3.6376765413
 20
-6.4728038632
 30
0.0
 10
3.6667918312
 20
-6.5011455734
 30
0.0
 10
3.7103271526
 20
-6.5421959828
 30
0.0
 10
3.7685046824
 20
-6.5938691156
 30
0.0
 10
3.8093707881
 20
-6.6284303127
 30
0.0
 10
3.8472625497
 20
-6.6585556051
 30
0.0
 10
3.8807032003
 20
-6.6826815655
 30
0.0
 10
3.9052896771
 20
-6.6980114081
 30
0.0
 10
3.9214154441
 20
-6.7050200978
 30
0.0
 10
3.9280730739
 20
-6.7066691301
 30
0.0
 10
3.9308832898
 20
-6.7066814249
 30
0.0
  0
SPLINE
  5
878
100
AcDbEntity
  8
RACCORDO
100
AcDbSpline
 62
7
  6
CONTINUOUS
 70
0
 71
3
 72
11
 73
7
 74
0
 42
0.0000001
 43
0.0000001
 44
0.0000000001
 40
0.0
 40
0.0
 40
0.0
 40
0.0
 40
0.2496848797
 40
0.4996051719
 40
0.7497263313
 40
1.0
 40
1.0
 40
1.0
 40
1.0
 10
6.7621703
 20
-9.1566120866
 30
0.0
 10
6.5333964897
 20
-8.8935880367
 30
0.0
 10
6.0279487095
 20
-8.4067233921
 30
0.0
 10
5.1539815626
 20
-7.8212391006
 30
0.0
 10
4.1903712588
 20
-7.3972399285
 30
0.0
 10
3.5074332433
 20
-7.2310807772
 30
0.0
 10
3.1619922058
 20
-7.1785128431
 30
0.0
  0
SPLINE
  5
879
100
AcDbEntity
  8
RACCORDO
100
AcDbSpline
 62
7
  6
CONTINUOUS
 70
0
 71
3
 72
15
 73
11
 74
0
 42
0.0000001
 43
0.0000001
 44
0.0000000001
 40
0.0
 40
0.0
 40
0.0
 40
0.0
 40
0.0229728982
 40
0.056253041
 40
0.1497355569
 40
0.2692656318
 40
0.4047544763
 40
0.5493909023
 40
0.6987337546
 40
1.0
 40
1.0
 40
1.0
 40
1.0
 10
1.6227483093
 20
-5.9451647164
 30
0.0
 10
1.6224872196
 20
-5.9487453591
 30
0.0
 10
1.6197133835
 20
-5.957254424
 30
0.0
 10
1.6093346261
 20
-5.9781837163
 30
0.0
 10
1.5876744677
 20
-6.0102064163
 30
0.0
 10
1.5545398359
 20
-6.0533845879
 30
0.0
 10
1.514411243
 20
-6.1012862977
 30
0.0
 10
1.4698694989
 20
-6.1514937332
 30
0.0
 10
1.4065335431
 20
-6.2196354179
 30
0.0
 10
1.3570755856
 20
-6.2697946115
 30
0.0
 10
1.3234062285
 20
-6.302703729
 30
0.0
  0
SPLINE
  5
87A
100
AcDbEntity
  8
RACCORDO
100
AcDbSpline
 62
7
  6
CONTINUOUS
 70
0
 71
3
 72
15
 73
11
 74
0
 42
0.0000001
 43
0.0000001
 44
0.0000000001
 40
0.0
 40
0.0
 40
0.0
 40
0.0
 40
0.3012687375
 40
0.4506134536
 40
0.5952511032
 40
0.7307388971
 40
0.8502657413
 40
0.9437453522
 40
0.9770263039
 40
1.0
 40
1.0
 40
1.0
 40
1.0
 10
1.2005781831
 20
-6.302703729
 30
0.0
 10
1.1669085493
 20
-6.269794341
 30
0.0
 10
1.1174501248
 20
-6.2196346568
 30
0.0
 10
1.0541136067
 20
-6.1514923097
 30
0.0
 10
1.0095717019
 20
-6.1012845982
 30
0.0
 10
0.9694434639
 20
-6.053383211
 30
0.0
 10
0.9363095952
 20
-6.0102058936
 30
0.0
 10
0.9146498656
 20
-5.9781838734
 30
0.0
 10
0.9042713468
 20
-5.9572547319
 30
0.0
 10
0.901497201
 20
-5.9487454832
 30
0.0
 10
0.9012361023
 20
-5.9451647164
 30
0.0
  0
SPLINE
  5
87B
100
AcDbEntity
  8
RACCORDO
100
AcDbSpline
 62
250
  6
CONTINUOUS
 70
0
 71
3
 72
9
 73
5
 74
0
 42
0.0000001
 43
0.0000001
 44
0.0000000001
 40
0.0
 40
0.0
 40
0.0
 40
0.0
 40
0.5288887248
 40
1.0
 40
1.0
 40
1.0
 40
1.0
 10
6.5726726113
 20
-5.9528258147
 30
0.0
 10
6.6061923395
 20
-5.9527589434
 30
0.0
 10
6.6695791897
 20
-5.9503390382
 30
0.0
 10
6.7326448623
 20
-5.9429438282
 30
0.0
 10
6.762023961
 20
-5.937617664
 30
0.0
  0
SPLINE
  5
87C
100
AcDbEntity
  8
RACCORDO
100
AcDbSpline
 62
250
  6
CONTINUOUS
 70
0
 71
3
 72
9
 73
5
 74
0
 42
0.0000001
 43
0.0000001
 44
0.0000000001
 40
0.0
 40
0.0
 40
0.0
 40
0.0
 40
0.268004256
 40
1.0
 40
1.0
 40
1.0
 40
1.0
 10
6.5737628912
 20
-6.4728038632
 30
0.0
 10
6.5906472165
 20
-6.4727701793
 30
0.0
 10
6.6536183042
 20
-6.4714308879
 30
0.0
 10
6.7166567127
 20
-6.4659411247
 30
0.0
 10
6.762046326
 20
-6.4577884186
 30
0.0
  0
SPLINE
  5
87D
100
AcDbEntity
  8
RACCORDO
100
AcDbSpline
 62
250
  6
CONTINUOUS
 70
0
 71
3
 72
9
 73
5
 74
0
 42
0.0000001
 43
0.0000001
 44
0.0000000001
 40
0.0
 40
0.0
 40
0.0
 40
0.0
 40
0.2690252016
 40
1.0
 40
1.0
 40
1.0
 40
1.0
 10
6.5726726113
 20
-5.9180827209
 30
0.0
 10
6.589666889
 20
-5.9180827209
 30
0.0
 10
6.652830109
 20
-5.9174975374
 30
0.0
 10
6.7160143201
 20
-5.9149606809
 30
0.0
 10
6.7620237452
 20
-5.9110472491
 30
0.0
  0
SPLINE
  5
87E
100
AcDbEntity
  8
RACCORDO
100
AcDbSpline
 62
250
  6
CONTINUOUS
 70
0
 71
3
 72
14
 73
10
 74
0
 42
0.0000001
 43
0.0000001
 44
0.0000000001
 40
0.0
 40
0.0
 40
0.0
 40
0.0
 40
0.373425376
 40
0.5428162038
 40
0.6919595945
 40
0.8155420123
 40
0.9093917031
 40
0.97047505
 40
1.0
 40
1.0
 40
1.0
 40
1.0
 10
6.4513118003
 20
-5.6764611951
 30
0.0
 10
6.4134389453
 20
-5.6764611947
 30
0.0
 10
6.3583590835
 20
-5.6754211732
 30
0.0
 10
6.2883116048
 20
-5.6716604383
 30
0.0
 10
6.2435294025
 20
-5.6679665278
 30
0.0
 10
6.2068424898
 20
-5.6636281622
 30
0.0
 10
6.178416439
 20
-5.6584830642
 30
0.0
 10
6.1615442032
 20
-5.6537889457
 30
0.0
 10
6.1518506973
 20
-5.6486034662
 30
0.0
 10
6.1513574918
 20
-5.6456499383
 30
0.0
  0
SPLINE
  5
87F
100
AcDbEntity
  8
RACCORDO
100
AcDbSpline
 62
250
  6
CONTINUOUS
 70
0
 71
3
 72
15
 73
11
 74
0
 42
0.0000001
 43
0.0000001
 44
0.0000000001
 40
0.0
 40
0.0
 40
0.0
 40
0.0
 40
0.0136331111
 40
0.0347208733
 40
0.1008660135
 40
0.1980385207
 40
0.3230853732
 40
0.4715529218
 40
0.638027792
 40
1.0
 40
1.0
 40
1.0
 40
1.0
 10
6.1256766735
 20
-5.7666623409
 30
0.0
 10
6.1259373028
 20
-5.7680703299
 30
0.0
 10
6.1279115206
 20
-5.7713078995
 30
0.0
 10
6.1351999727
 20
-5.7789324085
 30
0.0
 10
6.1508835389
 20
-5.7905513738
 30
0.0
 10
6.1763947162
 20
-5.8067888518
 30
0.0
 10
6.2102443271
 20
-5.8260952877
 30
0.0
 10
6.2510707073
 20
-5.8477407901
 30
0.0
 10
6.3146907258
 20
-5.8794977822
 30
0.0
 10
6.3651030234
 20
-5.902759261
 30
0.0
 10
6.3998958534
 20
-5.9180846652
 30
0.0
  0
SPLINE
  5
880
100
AcDbEntity
  8
RACCORDO
100
AcDbSpline
 62
250
  6
CONTINUOUS
 70
0
 71
3
 72
12
 73
8
 74
0
 42
0.0000001
 43
0.0000001
 44
0.0000000001
 40
0.0
 40
0.0
 40
0.0
 40
0.0
 40
0.0456264535
 40
0.1170460854
 40
0.3410530858
 40
0.6503607542
 40
1.0
 40
1.0
 40
1.0
 40
1.0
 10
6.1256766735
 20
-5.7666623409
 30
0.0
 10
6.1251314967
 20
-5.7717746635
 30
0.0
 10
6.1304808712
 20
-5.7849099917
 30
0.0
 10
6.1554446015
 20
-5.8138265421
 30
0.0
 10
6.2108897215
 20
-5.8549440401
 30
0.0
 10
6.2965829996
 20
-5.9051258877
 30
0.0
 10
6.3637234835
 20
-5.9372566191
 30
0.0
 10
6.3998892718
 20
-5.952885429
 30
0.0
  0
SPLINE
  5
881
100
AcDbEntity
  8
RACCORDO
100
AcDbSpline
 62
250
  6
CONTINUOUS
 70
0
 71
3
 72
9
 73
5
 74
0
 42
0.0000001
 43
0.0000001
 44
0.0000000001
 40
0.0
 40
0.0
 40
0.0
 40
0.0
 40
0.5065341009
 40
1.0
 40
1.0
 40
1.0
 40
1.0
 10
5.850669566
 20
-5.9388382507
 30
0.0
 10
5.9077455229
 20
-5.9389785023
 30
0.0
 10
6.022975492
 20
-5.9069610135
 30
0.0
 10
6.1023628951
 20
-5.8171398106
 30
0.0
 10
6.1256918605
 20
-5.766666842
 30
0.0
  0
SPLINE
  5
882
100
AcDbEntity
  8
RACCORDO
100
AcDbSpline
 62
250
  6
CONTINUOUS
 70
0
 71
3
 72
8
 73
4
 74
0
 42
0.0000001
 43
0.0000001
 44
0.0000000001
 40
0.0
 40
0.0
 40
0.0
 40
0.0
 40
1.0
 40
1.0
 40
1.0
 40
1.0
 10
6.1513574918
 20
-5.6456499381
 30
0.0
 10
6.151371986
 20
-5.6868861328
 30
0.0
 10
6.1424450534
 20
-5.7289872124
 30
0.0
 10
6.1256918605
 20
-5.766666842
 30
0.0
  0
SPLINE
  5
883
100
AcDbEntity
  8
RACCORDO
100
AcDbSpline
 62
250
  6
CONTINUOUS
 70
0
 71
3
 72
23
 73
19
 74
0
 42
0.0000001
 43
0.0000001
 44
0.0000000001
 40
0.0
 40
0.0
 40
0.0
 40
0.0
 40
0.1949122945
 40
0.3824778752
 40
0.5552159628
 40
0.6339902989
 40
0.7066743914
 40
0.7725362634
 40
0.8309712353
 40
0.8814081878
 40
0.9233543845
 40
0.9564394574
 40
0.9695480159
 40
0.9803201797
 40
0.9887424853
 40
0.9948070409
 40
0.9985204981
 40
1.0
 40
1.0
 40
1.0
 40
1.0
 10
9.8143608958
 20
18.5508701541
 30
0.0
 10
9.8154948671
 20
18.6158551197
 30
0.0
 10
9.8175046804
 20
18.7433794893
 30
0.0
 10
9.8197753788
 20
18.9285065504
 30
0.0
 10
9.8209983957
 20
19.074915576
 30
0.0
 10
9.8214963045
 20
19.183020153
 30
0.0
 10
9.8216252078
 20
19.2554870404
 30
0.0
 10
9.8215194357
 20
19.3211720192
 30
0.0
 10
9.8211832096
 20
19.3794366742
 30
0.0
 10
9.8206239665
 20
19.4297275698
 30
0.0
 10
9.8198468211
 20
19.4715525358
 30
0.0
 10
9.8189878357
 20
19.5009469773
 30
0.0
 10
9.818145335
 20
19.5199014237
 30
0.0
 10
9.8175128288
 20
19.5307035355
 30
0.0
 10
9.8168542438
 20
19.5389750392
 30
0.0
 10
9.8161445211
 20
19.545294683
 30
0.0
 10
9.8155002801
 20
19.5484664115
 30
0.0
 10
9.8148541708
 20
19.5507092391
 30
0.0
 10
9.8143608958
 20
19.5507178492
 30
0.0
  0
SPLINE
  5
884
100
AcDbEntity
  8
RACCORDO
100
AcDbSpline
 62
250
  6
CONTINUOUS
 70
0
 71
3
 72
23
 73
19
 74
0
 42
0.0000001
 43
0.0000001
 44
0.0000000001
 40
0.0
 40
0.0
 40
0.0
 40
0.0
 40
0.1949122948
 40
0.3824778763
 40
0.5552159641
 40
0.6339903001
 40
0.7066743926
 40
0.7725362647
 40
0.8309712365
 40
0.881408189
 40
0.9233543854
 40
0.9564394578
 40
0.9695480161
 40
0.9803201799
 40
0.9887424854
 40
0.9948070409
 40
0.998520498
 40
1.0
 40
1.0
 40
1.0
 40
1.0
 10
9.8143608958
 20
-18.5508701541
 30
0.0
 10
9.8154948671
 20
-18.6158551198
 30
0.0
 10
9.8175046805
 20
-18.7433794898
 30
0.0
 10
9.8197753788
 20
-18.9285065514
 30
0.0
 10
9.8209983957
 20
-19.0749155773
 30
0.0
 10
9.8214963045
 20
-19.1830201544
 30
0.0
 10
9.8216252078
 20
-19.2554870418
 30
0.0
 10
9.8215194356
 20
-19.3211720206
 30
0.0
 10
9.8211832095
 20
-19.3794366757
 30
0.0
 10
9.8206239665
 20
-19.4297275711
 30
0.0
 10
9.8198468213
 20
-19.4715525369
 30
0.0
 10
9.8189878359
 20
-19.5009469781
 30
0.0
 10
9.8181453349
 20
-19.5199014243
 30
0.0
 10
9.8175128284
 20
-19.5307035359
 30
0.0
 10
9.816854243
 20
-19.5389750395
 30
0.0
 10
9.8161445199
 20
-19.5452946831
 30
0.0
 10
9.8155002786
 20
-19.5484664117
 30
0.0
 10
9.8148541692
 20
-19.5507092391
 30
0.0
 10
9.8143608941
 20
-19.5507178493
 30
0.0
  0
SPLINE
  5
885
100
AcDbEntity
  8
RACCORDO
100
AcDbSpline
 62
250
  6
CONTINUOUS
 70
0
 71
3
 72
23
 73
19
 74
0
 42
0.0000001
 43
0.0000001
 44
0.0000000001
 40
0.0
 40
0.0
 40
0.0
 40
0.0
 40
0.1956140091
 40
0.3835053065
 40
0.5562920433
 40
0.6350166136
 40
0.7076174311
 40
0.7733739774
 40
0.8316913903
 40
0.8820077403
 40
0.9238379036
 40
0.9568163788
 40
0.9698760283
 40
0.980602008
 40
0.9889794687
 40
0.994997121
 40
0.9986512248
 40
1.0
 40
1.0
 40
1.0
 40
1.0
 10
9.8143608958
 20
-18.5508701541
 30
0.0
 10
9.8599075684
 20
-18.5964307038
 30
0.0
 10
9.9490970083
 20
-18.6858589057
 30
0.0
 10
10.0781504571
 20
-18.8158968641
 30
0.0
 10
10.1798024406
 20
-18.9188925774
 30
0.0
 10
10.2545807488
 20
-18.9950632022
 30
0.0
 10
10.3045627537
 20
-19.0461806696
 30
0.0
 10
10.3497348628
 20
-19.0926018861
 30
0.0
 10
10.3896656357
 20
-19.1338809228
 30
0.0
 10
10.4239855138
 20
-19.1696295501
 30
0.0
 10
10.4523579267
 20
-19.1995030768
 30
0.0
 10
10.4721452052
 20
-19.2206465644
 30
0.0
 10
10.4847420849
 20
-19.2344191581
 30
0.0
 10
10.49187021
 20
-19.2423401161
 30
0.0
 10
10.4971618002
 20
-19.2484858159
 30
0.0
 10
10.5012753222
 20
-19.2532805805
 30
0.0
 10
10.5028742506
 20
-19.255801756
 30
0.0
 10
10.5043293666
 20
-19.2576628392
 30
0.0
 10
10.5040152705
 20
-19.2579769353
 30
0.0
  0
SPLINE
  5
886
100
AcDbEntity
  8
RACCORDO
100
AcDbSpline
 62
250
  6
CONTINUOUS
 70
0
 71
3
 72
23
 73
19
 74
0
 42
0.0000001
 43
0.0000001
 44
0.0000000001
 40
0.0
 40
0.0
 40
0.0
 40
0.0
 40
0.1956140363
 40
0.3835053926
 40
0.5562921514
 40
0.6350167192
 40
0.7076175389
 40
0.7733740815
 40
0.83169148
 40
0.8820078246
 40
0.9238379697
 40
0.9568164268
 40
0.9698760745
 40
0.9806020477
 40
0.9889794965
 40
0.9949971357
 40
0.9986512288
 40
1.0
 40
1.0
 40
1.0
 40
1.0
 10
11.4294446122
 20
-16.9357864376
 30
0.0
 10
11.4749912912
 20
-16.9813469937
 30
0.0
 10
11.5641807511
 20
-17.0707752159
 30
0.0
 10
11.693234225
 20
-17.2008131996
 30
0.0
 10
11.7948862267
 20
-17.3038089314
 30
0.0
 10
11.8696645395
 20
-17.3799795618
 30
0.0
 10
11.9196465434
 20
-17.4310970283
 30
0.0
 10
11.9648186489
 20
-17.4775182411
 30
0.0
 10
12.004749416
 20
-17.5187972727
 30
0.0
 10
12.0390692852
 20
-17.5545458912
 30
0.0
 10
12.0674416882
 20
-17.5844194084
 30
0.0
 10
12.0872289574
 20
-17.6055628876
 30
0.0
 10
12.0998258318
 20
-17.6193354743
 30
0.0
 10
12.1069539524
 20
-17.6272564273
 30
0.0
 10
12.1122455363
 20
-17.6334021194
 30
0.0
 10
12.1163590482
 20
-17.6381968753
 30
0.0
 10
12.1179579743
 20
-17.6407180447
 30
0.0
 10
12.1194130821
 20
-17.6425791237
 30
0.0
 10
12.119098987
 20
-17.6428932188
 30
0.0
  0
SPLINE
  5
887
100
AcDbEntity
  8
RACCORDO
100
AcDbSpline
 62
250
  6
CONTINUOUS
 70
0
 71
3
 72
23
 73
19
 74
0
 42
0.0000001
 43
0.0000001
 44
0.0000000001
 40
0.0
 40
0.0
 40
0.0
 40
0.0
 40
0.1956140359
 40
0.3835053914
 40
0.5562921499
 40
0.6350167179
 40
0.7076175375
 40
0.77337408
 40
0.8316914785
 40
0.8820078231
 40
0.9238379686
 40
0.9568164261
 40
0.969876074
 40
0.9806020472
 40
0.9889794962
 40
0.9949971355
 40
0.9986512288
 40
1.0
 40
1.0
 40
1.0
 40
1.0
 10
11.4294446122
 20
16.9357864376
 30
0.0
 10
11.4749912911
 20
16.9813469936
 30
0.0
 10
11.5641807507
 20
17.0707752155
 30
0.0
 10
11.6932342243
 20
17.2008131989
 30
0.0
 10
11.7948862257
 20
17.3038089305
 30
0.0
 10
11.8696645385
 20
17.3799795608
 30
0.0
 10
11.9196465424
 20
17.4310970273
 30
0.0
 10
11.9648186479
 20
17.4775182401
 30
0.0
 10
12.004749415
 20
17.5187972716
 30
0.0
 10
12.0390692843
 20
17.5545458902
 30
0.0
 10
12.0674416874
 20
17.5844194076
 30
0.0
 10
12.0872289569
 20
17.605562887
 30
0.0
 10
12.0998258314
 20
17.6193354739
 30
0.0
 10
12.1069539521
 20
17.627256427
 30
0.0
 10
12.1122455361
 20
17.6334021192
 30
0.0
 10
12.1163590481
 20
17.6381968752
 30
0.0
 10
12.1179579743
 20
17.6407180447
 30
0.0
 10
12.1194130821
 20
17.6425791237
 30
0.0
 10
12.119098987
 20
17.6428932188
 30
0.0
  0
SPLINE
  5
888
100
AcDbEntity
  8
RACCORDO
100
AcDbSpline
 62
250
  6
CONTINUOUS
 70
0
 71
3
 72
23
 73
19
 74
0
 42
0.0000001
 43
0.0000001
 44
0.0000000001
 40
0.0
 40
0.0
 40
0.0
 40
0.0
 40
0.1956140094
 40
0.3835053075
 40
0.5562920444
 40
0.6350166146
 40
0.7076174322
 40
0.7733739785
 40
0.8316913914
 40
0.8820077415
 40
0.9238379044
 40
0.9568163793
 40
0.9698760287
 40
0.9806020083
 40
0.9889794689
 40
0.9949971211
 40
0.9986512248
 40
1.0
 40
1.0
 40
1.0
 40
1.0
 10
9.8143608958
 20
18.5508701541
 30
0.0
 10
9.8599075685
 20
18.5964307039
 30
0.0
 10
9.9490970086
 20
18.685858906
 30
0.0
 10
10.0781504576
 20
18.8158968647
 30
0.0
 10
10.1798024414
 20
18.9188925781
 30
0.0
 10
10.2545807495
 20
18.995063203
 30
0.0
 10
10.3045627544
 20
19.0461806704
 30
0.0
 10
10.3497348635
 20
19.0926018869
 30
0.0
 10
10.3896656365
 20
19.1338809236
 30
0.0
 10
10.4239855145
 20
19.1696295508
 30
0.0
 10
10.4523579273
 20
19.1995030774
 30
0.0
 10
10.4721452056
 20
19.2206465649
 30
0.0
 10
10.4847420852
 20
19.2344191584
 30
0.0
 10
10.4918702102
 20
19.2423401164
 30
0.0
 10
10.4971618003
 20
19.2484858161
 30
0.0
 10
10.5012753222
 20
19.2532805806
 30
0.0
 10
10.5028742506
 20
19.255801756
 30
0.0
 10
10.5043293666
 20
19.2576628392
 30
0.0
 10
10.5040152705
 20
19.2579769353
 30
0.0
  0
SPLINE
  5
889
100
AcDbEntity
  8
RACCORDO
100
AcDbSpline
 62
250
  6
CONTINUOUS
 70
0
 71
3
 72
18
 73
14
 74
0
 42
0.0000001
 43
0.0000001
 44
0.0000000001
 40
0.0
 40
0.0
 40
0.0
 40
0.0
 40
0.0058615613
 40
0.0210080184
 40
0.0454332293
 40
0.0789228506
 40
0.1211583362
 40
0.171769209
 40
0.2960983611
 40
0.4472216806
 40
0.6193315742
 40
0.8060841894
 40
1.0
 40
1.0
 40
1.0
 40
1.0
 10
-5.9529017944
 20
20.735115519
 30
0.0
 10
-5.9526828344
 20
20.7355524319
 30
0.0
 10
-5.9504666078
 20
20.7354730662
 30
0.0
 10
-5.9471256322
 20
20.7361787476
 30
0.0
 10
-5.9408120258
 20
20.7363777723
 30
0.0
 10
-5.9325708834
 20
20.7368412545
 30
0.0
 10
-5.922006274
 20
20.7371847246
 30
0.0
 10
-5.9039236506
 20
20.7377092555
 30
0.0
 10
-5.8767323132
 20
20.7382464769
 30
0.0
 10
-5.8394245727
 20
20.7387658545
 30
0.0
 10
-5.7969045511
 20
20.7391495763
 30
0.0
 10
-5.7508175206
 20
20.7393874711
 30
0.0
 10
-5.7190790821
 20
20.7394408667
 30
0.0
 10
-5.7029113136
 20
20.7394408748
 30
0.0
  0
SPLINE
  5
88A
100
AcDbEntity
  8
RACCORDO
100
AcDbSpline
 62
250
  6
CONTINUOUS
 70
0
 71
3
 72
18
 73
14
 74
0
 42
0.0000001
 43
0.0000001
 44
0.0000000001
 40
0.0
 40
0.0
 40
0.0
 40
0.0
 40
0.1963584
 40
0.3840238959
 40
0.5560754894
 40
0.7064982678
 40
0.8298738071
 40
0.880018599
 40
0.9218396285
 40
0.9549933617
 40
0.9791658311
 40
0.9941705154
 40
1.0
 40
1.0
 40
1.0
 40
1.0
 10
8.2380246418
 20
20.7394364892
 30
0.0
 10
8.2536676764
 20
20.7394242187
 30
0.0
 10
8.284261311
 20
20.7393508748
 30
0.0
 10
8.328560381
 20
20.739091449
 30
0.0
 10
8.3692006514
 20
20.7386966741
 30
0.0
 10
8.4047117946
 20
20.7381766982
 30
0.0
 10
8.4305239364
 20
20.7376451248
 30
0.0
 10
8.4476557286
 20
20.73713134
 30
0.0
 10
8.4576524894
 20
20.7367938454
 30
0.0
 10
8.465448145
 20
20.7363462694
 30
0.0
 10
8.4714185452
 20
20.7361421237
 30
0.0
 10
8.4745821726
 20
20.7354727064
 30
0.0
 10
8.4766792423
 20
20.7355312628
 30
0.0
 10
8.476886206
 20
20.735115519
 30
0.0
  0
SPLINE
  5
88B
100
AcDbEntity
  8
RACCORDO
100
AcDbSpline
 62
7
  6
CONTINUOUS
 70
0
 71
3
 72
11
 73
7
 74
0
 42
0.0000001
 43
0.0000001
 44
0.0000000001
 40
0.0
 40
0.0
 40
0.0
 40
0.0
 40
0.2497932629
 40
0.4998007449
 40
0.7499330302
 40
1.0
 40
1.0
 40
1.0
 40
1.0
 10
8.6586415108
 20
20.9872686779
 30
0.0
 10
8.6170691338
 20
20.9872669062
 30
0.0
 10
8.5334913271
 20
20.9714781954
 30
0.0
 10
8.4216527962
 20
20.9136519528
 30
0.0
 10
8.3237133894
 20
20.8354587947
 30
0.0
 10
8.2644190784
 20
20.7769842932
 30
0.0
 10
8.2349952902
 20
20.747551442
 30
0.0
  0
SPLINE
  5
88C
100
AcDbEntity
  8
RACCORDO
100
AcDbSpline
 62
7
  6
CONTINUOUS
 70
0
 71
3
 72
11
 73
7
 74
0
 42
0.0000001
 43
0.0000001
 44
0.0000000001
 40
0.0
 40
0.0
 40
0.0
 40
0.0
 40
0.2500857061
 40
0.500237098
 40
0.7502370368
 40
1.0
 40
1.0
 40
1.0
 40
1.0
 10
-5.7029113136
 20
20.7394408748
 30
0.0
 10
-5.7329646611
 20
20.7695943323
 30
0.0
 10
-5.7933327807
 20
20.8296840868
 30
0.0
 10
-5.8927765536
 20
20.9105589173
 30
0.0
 10
-6.0066488118
 20
20.9707405525
 30
0.0
 10
-6.0921393409
 20
20.987267118
 30
0.0
 10
-6.1346570985
 20
20.9872686778
 30
0.0
  0
SPLINE
  5
88D
100
AcDbEntity
  8
RACCORDO
100
AcDbSpline
 62
7
  6
CONTINUOUS
 70
0
 71
3
 72
11
 73
7
 74
0
 42
0.0000001
 43
0.0000001
 44
0.0000000001
 40
0.0
 40
0.0
 40
0.0
 40
0.0
 40
0.2500670439
 40
0.5002007352
 40
0.7502088559
 40
1.0
 40
1.0
 40
1.0
 40
1.0
 10
8.234991557
 20
-20.7475559378
 30
0.0
 10
8.2644026354
 20
-20.7770014608
 30
0.0
 10
8.3237205622
 20
-20.8354526627
 30
0.0
 10
8.4216533451
 20
-20.9136515659
 30
0.0
 10
8.5334917487
 20
-20.971480341
 30
0.0
 10
8.6170695182
 20
-20.9872671527
 30
0.0
 10
8.6586415101
 20
-20.9872686778
 30
0.0
  0
SPLINE
  5
88E
100
AcDbEntity
  8
RACCORDO
100
AcDbSpline
 62
7
  6
CONTINUOUS
 70
0
 71
3
 72
11
 73
7
 74
0
 42
0.0000001
 43
0.0000001
 44
0.0000000001
 40
0.0
 40
0.0
 40
0.0
 40
0.0
 40
0.249765887
 40
0.4997657559
 40
0.7499145698
 40
1.0
 40
1.0
 40
1.0
 40
1.0
 10
-6.1346570992
 20
-20.9872686779
 30
0.0
 10
-6.0921388542
 20
-20.9872668659
 30
0.0
 10
-6.0066483769
 20
-20.9707379987
 30
0.0
 10
-5.8927750429
 20
-20.9105604026
 30
0.0
 10
-5.7933276119
 20
-20.8296879049
 30
0.0
 10
-5.7329822925
 20
-20.7695766648
 30
0.0
 10
-5.7029113136
 20
-20.7394408714
 30
0.0
  0
SPLINE
  5
88F
100
AcDbEntity
  8
RACCORDO
100
AcDbSpline
 62
7
  6
CONTINUOUS
 70
0
 71
3
 72
11
 73
7
 74
0
 42
0.0000001
 43
0.0000001
 44
0.0000000001
 40
0.0
 40
0.0
 40
0.0
 40
0.0
 40
0.2162458226
 40
0.4463174394
 40
0.7054273804
 40
1.0
 40
1.0
 40
1.0
 40
1.0
 10
8.476886206
 20
20.0350964806
 30
0.0
 10
8.4766390701
 20
20.0070224866
 30
0.0
 10
8.466008254
 20
19.9487011488
 30
0.0
 10
8.4184597388
 20
19.8681747999
 30
0.0
 10
8.3359658002
 20
19.804203344
 30
0.0
 10
8.2629772558
 20
19.7872686779
 30
0.0
 10
8.2247330471
 20
19.7872686779
 30
0.0
  0
SPLINE
  5
890
100
AcDbEntity
  8
RACCORDO
100
AcDbSpline
 62
250
  6
CONTINUOUS
 70
0
 71
3
 72
18
 73
14
 74
0
 42
0.0000001
 43
0.0000001
 44
0.0000000001
 40
0.0
 40
0.0
 40
0.0
 40
0.0
 40
0.0058276417
 40
0.0208207722
 40
0.0449847902
 40
0.0781264688
 40
0.1199424103
 40
0.1700919695
 40
0.2934953083
 40
0.4439689632
 40
0.6160244928
 40
0.8036581776
 40
1.0
 40
1.0
 40
1.0
 40
1.0
 10
8.476886206
 20
-20.735115519
 30
0.0
 10
8.476678198
 20
-20.7355305782
 30
0.0
 10
8.4745852031
 20
-20.7354742121
 30
0.0
 10
8.4714206163
 20
-20.7361414552
 30
0.0
 10
8.4654541234
 20
-20.7363460741
 30
0.0
 10
8.4576599123
 20
-20.736793275
 30
0.0
 10
8.447664326
 20
-20.7371309126
 30
0.0
 10
8.4305302186
 20
-20.737644715
 30
0.0
 10
8.4047114311
 20
-20.7381764939
 30
0.0
 10
8.36919361
 20
-20.7386966309
 30
0.0
 10
8.328551428
 20
-20.7390914515
 30
0.0
 10
8.2842558017
 20
-20.739350786
 30
0.0
 10
8.2536659574
 20
-20.7394242352
 30
0.0
 10
8.2380242101
 20
-20.739436503
 30
0.0
  0
SPLINE
  5
891
100
AcDbEntity
  8
RACCORDO
100
AcDbSpline
 62
7
  6
CONTINUOUS
 70
0
 71
3
 72
11
 73
7
 74
0
 42
0.0000001
 43
0.0000001
 44
0.0000000001
 40
0.0
 40
0.0
 40
0.0
 40
0.0
 40
0.2164463725
 40
0.4466102416
 40
0.7055251429
 40
1.0
 40
1.0
 40
1.0
 40
1.0
 10
8.476886206
 20
-20.0350964806
 30
0.0
 10
8.4766401931
 20
-20.0071500605
 30
0.0
 10
8.4661053044
 20
-19.9491242112
 30
0.0
 10
8.4190324171
 20
-19.8688719152
 30
0.0
 10
8.3372875702
 20
-19.805139168
 30
0.0
 10
8.264918247
 20
-19.7872686779
 30
0.0
 10
8.2268957252
 20
-19.7872686779
 30
0.0
  0
SPLINE
  5
892
100
AcDbEntity
  8
RACCORDO
100
AcDbSpline
 62
250
  6
CONTINUOUS
 70
0
 71
3
 72
18
 73
14
 74
0
 42
0.0000001
 43
0.0000001
 44
0.0000000001
 40
0.0
 40
0.0
 40
0.0
 40
0.0
 40
0.1939267289
 40
0.3807110563
 40
0.5528252038
 40
0.7039016325
 40
0.8281990372
 40
0.8788051286
 40
0.9210435748
 40
0.9545450024
 40
0.9789785656
 40
0.9941364092
 40
1.0
 40
1.0
 40
1.0
 40
1.0
 10
-5.7029113136
 20
-20.7394408714
 30
0.0
 10
-5.7190799873
 20
-20.7394408341
 30
0.0
 10
-5.7508219708
 20
-20.7393875249
 30
0.0
 10
-5.7969128935
 20
-20.73914962
 30
0.0
 10
-5.8394319983
 20
-20.7387658567
 30
0.0
 10
-5.8767335042
 20
-20.7382466797
 30
0.0
 10
-5.9039179368
 20
-20.7377096338
 30
0.0
 10
-5.9219976631
 20
-20.7371851586
 30
0.0
 10
-5.9325633205
 20
-20.7368418195
 30
0.0
 10
-5.9408057812
 20
-20.73637797
 30
0.0
 10
-5.9471234587
 20
-20.7361794951
 30
0.0
 10
-5.950463411
 20
-20.7354714897
 30
0.0
 10
-5.9526839267
 20
-20.7355531664
 30
0.0
 10
-5.9529017944
 20
-20.735115519
 30
0.0
  0
SPLINE
  5
893
100
AcDbEntity
  8
RACCORDO
100
AcDbSpline
 62
250
  6
CONTINUOUS
 70
0
 71
3
 72
26
 73
22
 74
0
 42
0.0000001
 43
0.0000001
 44
0.0000000001
 40
0.0
 40
0.0
 40
0.0
 40
0.0
 40
0.1760601659
 40
0.3485227317
 40
0.5133448128
 40
0.5913927245
 40
0.6655744769
 40
0.7350518518
 40
0.7988577754
 40
0.8559356535
 40
0.9050952201
 40
0.9263251178
 40
0.9451291559
 40
0.961367524
 40
0.9749004957
 40
0.9855971178
 40
0.9933798693
 40
0.9961610434
 40
0.9981932683
 40
0.9994714447
 40
1.0
 40
1.0
 40
1.0
 40
1.0
 10
-6.601416563
 20
-21.3126932437
 30
0.0
 10
-6.557592794
 20
-21.3711234142
 30
0.0
 10
-6.4709028175
 20
-21.4868363659
 30
0.0
 10
-6.3433962814
 20
-21.657406957
 30
0.0
 10
-6.2403993928
 20
-21.7955339446
 30
0.0
 10
-6.161893079
 20
-21.9010637552
 30
0.0
 10
-6.1070583514
 20
-21.9749051318
 30
0.0
 10
-6.0558162389
 20
-22.0440551301
 30
0.0
 10
-6.0088783635
 20
-22.107563296
 30
0.0
 10
-5.9670437867
 20
-22.1643619423
 30
0.0
 10
-5.9357763902
 20
-22.207007417
 30
0.0
 10
-5.9139759802
 20
-22.2369049544
 30
0.0
 10
-5.9002619442
 20
-22.2557972585
 30
0.0
 10
-5.8884733417
 20
-22.2721386942
 30
0.0
 10
-5.8786978654
 20
-22.2857931581
 30
0.0
 10
-5.8710539724
 20
-22.2966378088
 30
0.0
 10
-5.8660005505
 20
-22.3038990077
 30
0.0
 10
-5.8631522509
 20
-22.3082380731
 30
0.0
 10
-5.861711257
 20
-22.3103871259
 30
0.0
 10
-5.8610579792
 20
-22.3117254244
 30
0.0
 10
-5.8605540386
 20
-22.3124462386
 30
0.0
 10
-5.8606205869
 20
-22.3126551668
 30
0.0
  0
SPLINE
  5
894
100
AcDbEntity
  8
RACCORDO
100
AcDbSpline
 62
7
  6
CONTINUOUS
 70
0
 71
3
 72
11
 73
7
 74
0
 42
0.0000001
 43
0.0000001
 44
0.0000000001
 40
0.0
 40
0.0
 40
0.0
 40
0.0
 40
0.2162458226
 40
0.4463174394
 40
0.7054273804
 40
1.0
 40
1.0
 40
1.0
 40
1.0
 10
-6.9029017944
 20
-21.2350964806
 30
0.0
 10
-6.9026546585
 20
-21.2070224866
 30
0.0
 10
-6.8920238424
 20
-21.1487011488
 30
0.0
 10
-6.8444753272
 20
-21.0681747999
 30
0.0
 10
-6.7619813886
 20
-21.004203344
 30
0.0
 10
-6.6889928442
 20
-20.9872686779
 30
0.0
 10
-6.6507486355
 20
-20.9872686779
 30
0.0
  0
SPLINE
  5
895
100
AcDbEntity
  8
RACCORDO
100
AcDbSpline
 62
250
  6
CONTINUOUS
 70
0
 71
3
 72
26
 73
22
 74
0
 42
0.0000001
 43
0.0000001
 44
0.0000000001
 40
0.0
 40
0.0
 40
0.0
 40
0.0
 40
0.1761051502
 40
0.3488168475
 40
0.5137008577
 40
0.5917591344
 40
0.6659590222
 40
0.7354072992
 40
0.7991858291
 40
0.8562047725
 40
0.9052811363
 40
0.9264738205
 40
0.9452451147
 40
0.9614525036
 40
0.9749535631
 40
0.9856230913
 40
0.99339005
 40
0.9961665885
 40
0.9981958245
 40
0.9994722687
 40
1.0
 40
1.0
 40
1.0
 40
1.0
 10
9.1254009746
 20
-21.3126932437
 30
0.0
 10
9.0815555209
 20
-21.3711304795
 30
0.0
 10
8.9947896206
 20
-21.4869390334
 30
0.0
 10
8.8672078949
 20
-21.6576378355
 30
0.0
 10
8.7641317903
 20
-21.7958720911
 30
0.0
 10
8.6856042125
 20
-21.9014328466
 30
0.0
 10
8.6307707988
 20
-21.9752748945
 30
0.0
 10
8.5795396199
 20
-22.0444131944
 30
0.0
 10
8.5326317717
 20
-22.1078840125
 30
0.0
 10
8.4908386865
 20
-22.1646258731
 30
0.0
 10
8.4596151672
 20
-22.2072112623
 30
0.0
 10
8.4378523336
 20
-22.2370575636
 30
0.0
 10
8.4241628676
 20
-22.2559159642
 30
0.0
 10
8.4123973933
 20
-22.272225157
 30
0.0
 10
8.4026435759
 20
-22.2858492365
 30
0.0
 10
8.3950175642
 20
-22.2966684779
 30
0.0
 10
8.3899752063
 20
-22.3039134745
 30
0.0
 10
8.3871323329
 20
-22.3082443037
 30
0.0
 10
8.3856933146
 20
-22.3103903424
 30
0.0
 10
8.385041616
 20
-22.3117262779
 30
0.0
 10
8.3845379671
 20
-22.3124467522
 30
0.0
 10
8.3846049985
 20
-22.3126551668
 30
0.0
  0
SPLINE
  5
896
100
AcDbEntity
  8
RACCORDO
100
AcDbSpline
 62
7
  6
CONTINUOUS
 70
0
 71
3
 72
11
 73
7
 74
0
 42
0.0000001
 43
0.0000001
 44
0.0000000001
 40
0.0
 40
0.0
 40
0.0
 40
0.0
 40
0.2164463725
 40
0.4466102416
 40
0.7055251429
 40
1.0
 40
1.0
 40
1.0
 40
1.0
 10
9.426886206
 20
-21.2350964806
 30
0.0
 10
9.4266401931
 20
-21.2071500605
 30
0.0
 10
9.4161053044
 20
-21.1491242112
 30
0.0
 10
9.3690324171
 20
-21.0688719152
 30
0.0
 10
9.2872875702
 20
-21.005139168
 30
0.0
 10
9.214918247
 20
-20.9872686779
 30
0.0
 10
9.1768957252
 20
-20.9872686779
 30
0.0
  0
SPLINE
  5
897
100
AcDbEntity
  8
RACCORDO
100
AcDbSpline
 62
250
  6
CONTINUOUS
 70
0
 71
3
 72
26
 73
22
 74
0
 42
0.0000001
 43
0.0000001
 44
0.0000000001
 40
0.0
 40
0.0
 40
0.0
 40
0.0
 40
0.1760601659
 40
0.3485227317
 40
0.5133448128
 40
0.5913927245
 40
0.6655744769
 40
0.7350518518
 40
0.7988577754
 40
0.8559356535
 40
0.9050952201
 40
0.9263251178
 40
0.9451291559
 40
0.961367524
 40
0.9749004957
 40
0.9855971178
 40
0.9933798693
 40
0.9961610434
 40
0.9981932683
 40
0.9994714447
 40
1.0
 40
1.0
 40
1.0
 40
1.0
 10
9.1254009746
 20
21.3126932437
 30
0.0
 10
9.0815772056
 20
21.3711234142
 30
0.0
 10
8.9948872291
 20
21.4868363659
 30
0.0
 10
8.867380693
 20
21.657406957
 30
0.0
 10
8.7643838044
 20
21.7955339446
 30
0.0
 10
8.6858774906
 20
21.9010637552
 30
0.0
 10
8.631042763
 20
21.9749051318
 30
0.0
 10
8.5798006505
 20
22.0440551301
 30
0.0
 10
8.5328627751
 20
22.107563296
 30
0.0
 10
8.4910281983
 20
22.1643619423
 30
0.0
 10
8.4597608018
 20
22.207007417
 30
0.0
 10
8.4379603918
 20
22.2369049544
 30
0.0
 10
8.4242463558
 20
22.2557972585
 30
0.0
 10
8.4124577533
 20
22.2721386942
 30
0.0
 10
8.402682277
 20
22.2857931581
 30
0.0
 10
8.395038384
 20
22.2966378088
 30
0.0
 10
8.3899849621
 20
22.3038990077
 30
0.0
 10
8.3871366625
 20
22.3082380731
 30
0.0
 10
8.3856956686
 20
22.3103871259
 30
0.0
 10
8.3850423908
 20
22.3117254244
 30
0.0
 10
8.3845384502
 20
22.3124462386
 30
0.0
 10
8.3846049985
 20
22.3126551668
 30
0.0
  0
SPLINE
  5
898
100
AcDbEntity
  8
RACCORDO
100
AcDbSpline
 62
7
  6
CONTINUOUS
 70
0
 71
3
 72
11
 73
7
 74
0
 42
0.0000001
 43
0.0000001
 44
0.0000000001
 40
0.0
 40
0.0
 40
0.0
 40
0.0
 40
0.2162458226
 40
0.4463174394
 40
0.7054273804
 40
1.0
 40
1.0
 40
1.0
 40
1.0
 10
9.426886206
 20
21.2350964806
 30
0.0
 10
9.4266390701
 20
21.2070224866
 30
0.0
 10
9.416008254
 20
21.1487011488
 30
0.0
 10
9.3684597388
 20
21.0681747999
 30
0.0
 10
9.2859658002
 20
21.004203344
 30
0.0
 10
9.2129772558
 20
20.9872686779
 30
0.0
 10
9.1747330471
 20
20.9872686779
 30
0.0
  0
SPLINE
  5
899
100
AcDbEntity
  8
RACCORDO
100
AcDbSpline
 62
250
  6
CONTINUOUS
 70
0
 71
3
 72
26
 73
22
 74
0
 42
0.0000001
 43
0.0000001
 44
0.0000000001
 40
0.0
 40
0.0
 40
0.0
 40
0.0
 40
0.1761051502
 40
0.3488168475
 40
0.5137008577
 40
0.5917591344
 40
0.6659590222
 40
0.7354072992
 40
0.7991858291
 40
0.8562047725
 40
0.9052811363
 40
0.9264738205
 40
0.9452451147
 40
0.9614525036
 40
0.9749535631
 40
0.9856230913
 40
0.99339005
 40
0.9961665885
 40
0.9981958245
 40
0.9994722687
 40
1.0
 40
1.0
 40
1.0
 40
1.0
 10
-6.601416563
 20
21.3126932437
 30
0.0
 10
-6.5575711093
 20
21.3711304795
 30
0.0
 10
-6.470805209
 20
21.4869390334
 30
0.0
 10
-6.3432234833
 20
21.6576378355
 30
0.0
 10
-6.2401473787
 20
21.7958720911
 30
0.0
 10
-6.1616198009
 20
21.9014328466
 30
0.0
 10
-6.1067863872
 20
21.9752748945
 30
0.0
 10
-6.0555552083
 20
22.0444131944
 30
0.0
 10
-6.0086473601
 20
22.1078840125
 30
0.0
 10
-5.9668542749
 20
22.1646258731
 30
0.0
 10
-5.9356307556
 20
22.2072112623
 30
0.0
 10
-5.913867922
 20
22.2370575636
 30
0.0
 10
-5.900178456
 20
22.2559159642
 30
0.0
 10
-5.8884129817
 20
22.272225157
 30
0.0
 10
-5.8786591643
 20
22.2858492365
 30
0.0
 10
-5.8710331526
 20
22.2966684779
 30
0.0
 10
-5.8659907947
 20
22.3039134745
 30
0.0
 10
-5.8631479213
 20
22.3082443037
 30
0.0
 10
-5.861708903
 20
22.3103903424
 30
0.0
 10
-5.8610572044
 20
22.3117262779
 30
0.0
 10
-5.8605535555
 20
22.3124467522
 30
0.0
 10
-5.8606205869
 20
22.3126551668
 30
0.0
  0
SPLINE
  5
89A
100
AcDbEntity
  8
RACCORDO
100
AcDbSpline
 62
7
  6
CONTINUOUS
 70
0
 71
3
 72
11
 73
7
 74
0
 42
0.0000001
 43
0.0000001
 44
0.0000000001
 40
0.0
 40
0.0
 40
0.0
 40
0.0
 40
0.2164463725
 40
0.4466102416
 40
0.7055251429
 40
1.0
 40
1.0
 40
1.0
 40
1.0
 10
-6.9029017944
 20
21.2350964806
 30
0.0
 10
-6.9026557815
 20
21.2071500605
 30
0.0
 10
-6.8921208928
 20
21.1491242112
 30
0.0
 10
-6.8450480055
 20
21.0688719152
 30
0.0
 10
-6.7633031586
 20
21.005139168
 30
0.0
 10
-6.6909338354
 20
20.9872686779
 30
0.0
 10
-6.6529113136
 20
20.9872686779
 30
0.0
  0
SPLINE
  5
89B
100
AcDbEntity
  8
RACCORDO
100
AcDbSpline
 62
250
  6
CONTINUOUS
 70
0
 71
3
 72
26
 73
22
 74
0
 42
0.0000001
 43
0.0000001
 44
0.0000000001
 40
0.0
 40
0.0
 40
0.0
 40
0.0
 40
0.1680197635
 40
0.3337558551
 40
0.4940368218
 40
0.5710060995
 40
0.6451215912
 40
0.7155348309
 40
0.7813571998
 40
0.8414267493
 40
0.8942501927
 40
0.9174637301
 40
0.9382513146
 40
0.9563775088
 40
0.9716069759
 40
0.9837148786
 40
0.9925534346
 40
0.9957117719
 40
0.9980114609
 40
0.9994407464
 40
1.0
 40
1.0
 40
1.0
 40
1.0
 10
9.3021709388
 20
-21.4894632079
 30
0.0
 10
9.2604208263
 20
-21.5312133778
 30
0.0
 10
9.1775303424
 20
-21.6141885636
 30
0.0
 10
9.0549638456
 20
-21.737141817
 30
0.0
 10
8.955104585
 20
-21.8375527841
 30
0.0
 10
8.8780345384
 20
-21.915220102
 30
0.0
 10
8.8232546807
 20
-21.9705162589
 30
0.0
 10
8.771283945
 20
-22.0230814046
 30
0.0
 10
8.7228433331
 20
-22.0721957223
 30
0.0
 10
8.678813317
 20
-22.1169780963
 30
0.0
 10
8.6453528795
 20
-22.1511546941
 30
0.0
 10
8.621611964
 20
-22.1755277939
 30
0.0
 10
8.606410504
 20
-22.1911991926
 30
0.0
 10
8.5932051457
 20
-22.204893263
 30
0.0
 10
8.5821504866
 20
-22.2164375455
 30
0.0
 10
8.5734418378
 20
-22.2256725656
 30
0.0
 10
8.5676339359
 20
-22.2318943167
 30
0.0
 10
8.5643508684
 20
-22.2356252558
 30
0.0
 10
8.5626585222
 20
-22.2374829284
 30
0.0
 10
8.5619289936
 20
-22.2386182029
 30
0.0
 10
8.5613022446
 20
-22.239252072
 30
0.0
 10
8.5613749626
 20
-22.2394346502
 30
0.0
  0
SPLINE
  5
89C
100
AcDbEntity
  8
RACCORDO
100
AcDbSpline
 62
250
  6
CONTINUOUS
 70
0
 71
3
 72
26
 73
22
 74
0
 42
0.0000001
 43
0.0000001
 44
0.0000000001
 40
0.0
 40
0.0
 40
0.0
 40
0.0
 40
0.0005591372
 40
0.0019886343
 40
0.0042896314
 40
0.0074511033
 40
0.016304305
 40
0.0284415698
 40
0.0437012386
 40
0.0618541597
 40
0.0826666619
 40
0.1059056475
 40
0.1588013846
 40
0.2188908914
 40
0.2847199791
 40
0.3551471606
 40
0.4292246359
 40
0.5061897255
 40
0.6664152914
 40
0.8319797883
 40
1.0
 40
1.0
 40
1.0
 40
1.0
 10
-6.037390551
 20
-22.2394346502
 30
0.0
 10
-6.0373176295
 20
-22.2392521972
 30
0.0
 10
-6.0379442986
 20
-22.2386178324
 30
0.0
 10
-6.0386738958
 20
-22.2374824059
 30
0.0
 10
-6.0403673758
 20
-22.2356232549
 30
0.0
 10
-6.0436548147
 20
-22.2318874589
 30
0.0
 10
-6.049474381
 20
-22.2256537106
 30
0.0
 10
-6.0582015253
 20
-22.2164004059
 30
0.0
 10
-6.0692774315
 20
-22.2048344427
 30
0.0
 10
-6.0825028872
 20
-22.1911198061
 30
0.0
 10
-6.0977233243
 20
-22.1754290661
 30
0.0
 10
-6.1214946993
 20
-22.1510254595
 30
0.0
 10
-6.1549845056
 20
-22.1168197249
 30
0.0
 10
-6.1990389912
 20
-22.072012627
 30
0.0
 10
-6.2474901392
 20
-22.0228886426
 30
0.0
 10
-6.2994568444
 20
-21.970328078
 30
0.0
 10
-6.3542296546
 20
-21.9150389081
 30
0.0
 10
-6.4312760056
 20
-21.8373963809
 30
0.0
 10
-6.5310779485
 20
-21.737042966
 30
0.0
 10
-6.65358835
 20
-21.6141461774
 30
0.0
 10
-6.7364362706
 20
-21.5312134653
 30
0.0
 10
-6.7781865272
 20
-21.4894632079
 30
0.0
  0
SPLINE
  5
89D
100
AcDbEntity
  8
RACCORDO
100
AcDbSpline
 62
250
  6
CONTINUOUS
 70
0
 71
3
 72
26
 73
22
 74
0
 42
0.0000001
 43
0.0000001
 44
0.0000000001
 40
0.0
 40
0.0
 40
0.0
 40
0.0
 40
0.0005591372
 40
0.0019886343
 40
0.0042896314
 40
0.0074511033
 40
0.016304305
 40
0.0284415698
 40
0.0437012386
 40
0.0618541597
 40
0.0826666619
 40
0.1059056475
 40
0.1588013846
 40
0.2188908914
 40
0.2847199791
 40
0.3551471606
 40
0.4292246359
 40
0.5061897255
 40
0.6664152914
 40
0.8319797883
 40
1.0
 40
1.0
 40
1.0
 40
1.0
 10
8.5613749626
 20
22.2394346502
 30
0.0
 10
8.5613020411
 20
22.2392521972
 30
0.0
 10
8.5619287102
 20
22.2386178324
 30
0.0
 10
8.5626583074
 20
22.2374824059
 30
0.0
 10
8.5643517874
 20
22.2356232549
 30
0.0
 10
8.5676392263
 20
22.2318874589
 30
0.0
 10
8.5734587926
 20
22.2256537106
 30
0.0
 10
8.5821859369
 20
22.2164004059
 30
0.0
 10
8.593261843
 20
22.2048344427
 30
0.0
 10
8.6064872988
 20
22.1911198061
 30
0.0
 10
8.6217077359
 20
22.1754290661
 30
0.0
 10
8.6454791109
 20
22.1510254595
 30
0.0
 10
8.6789689172
 20
22.1168197249
 30
0.0
 10
8.7230234028
 20
22.072012627
 30
0.0
 10
8.7714745508
 20
22.0228886426
 30
0.0
 10
8.823441256
 20
21.970328078
 30
0.0
 10
8.8782140662
 20
21.9150389081
 30
0.0
 10
8.9552604172
 20
21.8373963809
 30
0.0
 10
9.0550623601
 20
21.737042966
 30
0.0
 10
9.1775727616
 20
21.6141461774
 30
0.0
 10
9.2604206822
 20
21.5312134653
 30
0.0
 10
9.3021709388
 20
21.4894632079
 30
0.0
  0
SPLINE
  5
89E
100
AcDbEntity
  8
RACCORDO
100
AcDbSpline
 62
250
  6
CONTINUOUS
 70
0
 71
3
 72
26
 73
22
 74
0
 42
0.0000001
 43
0.0000001
 44
0.0000000001
 40
0.0
 40
0.0
 40
0.0
 40
0.0
 40
0.1680197635
 40
0.3337558551
 40
0.4940368218
 40
0.5710060995
 40
0.6451215912
 40
0.7155348309
 40
0.7813571998
 40
0.8414267493
 40
0.8942501927
 40
0.9174637301
 40
0.9382513146
 40
0.9563775088
 40
0.9716069759
 40
0.9837148786
 40
0.9925534346
 40
0.9957117719
 40
0.9980114609
 40
0.9994407464
 40
1.0
 40
1.0
 40
1.0
 40
1.0
 10
-6.7781865272
 20
21.4894632079
 30
0.0
 10
-6.7364364147
 20
21.5312133778
 30
0.0
 10
-6.6535459309
 20
21.6141885636
 30
0.0
 10
-6.530979434
 20
21.737141817
 30
0.0
 10
-6.4311201734
 20
21.8375527841
 30
0.0
 10
-6.3540501268
 20
21.915220102
 30
0.0
 10
-6.2992702691
 20
21.9705162589
 30
0.0
 10
-6.2472995334
 20
22.0230814046
 30
0.0
 10
-6.1988589215
 20
22.0721957223
 30
0.0
 10
-6.1548289054
 20
22.1169780963
 30
0.0
 10
-6.1213684679
 20
22.1511546941
 30
0.0
 10
-6.0976275524
 20
22.1755277939
 30
0.0
 10
-6.0824260924
 20
22.1911991926
 30
0.0
 10
-6.0692207341
 20
22.204893263
 30
0.0
 10
-6.058166075
 20
22.2164375455
 30
0.0
 10
-6.0494574262
 20
22.2256725656
 30
0.0
 10
-6.0436495243
 20
22.2318943167
 30
0.0
 10
-6.0403664568
 20
22.2356252558
 30
0.0
 10
-6.0386741106
 20
22.2374829284
 30
0.0
 10
-6.0379445821
 20
22.2386182029
 30
0.0
 10
-6.037317833
 20
22.239252072
 30
0.0
 10
-6.037390551
 20
22.2394346502
 30
0.0
  0
SPLINE
  5
89F
100
AcDbEntity
  8
ASSI
100
AcDbSpline
 62
250
  6
CONTINUOUS
 70
0
 71
3
 72
21
 73
17
 74
0
 42
0.0000001
 43
0.0000001
 44
0.0000000001
 40
0.0
 40
0.0
 40
0.0
 40
0.0
 40
0.1948110234
 40
0.3824960642
 40
0.5552418136
 40
0.7066424523
 40
0.7725321717
 40
0.8309736675
 40
0.8813936483
 40
0.923357347
 40
0.9564412493
 40
0.980304643
 40
0.9887294214
 40
0.9947997288
 40
0.9985188141
 40
1.0
 40
1.0
 40
1.0
 40
1.0
 10
-4.4201392677
 20
-20.6008941786
 30
0.0
 10
-4.4207059568
 20
-20.6333697121
 30
0.0
 10
-4.421710244
 20
-20.6971347916
 30
0.0
 10
-4.4228469789
 20
-20.7897024885
 30
0.0
 10
-4.4235583669
 20
-20.8750363223
 30
0.0
 10
-4.4237909947
 20
-20.940066631
 30
0.0
 10
-4.4237184653
 20
-20.9860383638
 30
0.0
 10
-4.4235510386
 20
-21.0151753129
 30
0.0
 10
-4.4232701844
 20
-21.0403165455
 30
0.0
 10
-4.42288397
 20
-21.0612439849
 30
0.0
 10
-4.4223969126
 20
-21.0776977999
 30
0.0
 10
-4.4218837869
 20
-21.0886504675
 30
0.0
 10
-4.4213847218
 20
-21.0949407219
 30
0.0
 10
-4.4210303982
 20
-21.0981024375
 30
0.0
 10
-4.4207077171
 20
-21.0996893539
 30
0.0
 10
-4.4203861855
 20
-21.1008137162
 30
0.0
 10
-4.4201392677
 20
-21.1008180262
 30
0.0
  0
SPLINE
  5
8A0
100
AcDbEntity
  8
ASSI
100
AcDbSpline
 62
250
  6
CONTINUOUS
 70
0
 71
3
 72
21
 73
17
 74
0
 42
0.0000001
 43
0.0000001
 44
0.0000000001
 40
0.0
 40
0.0
 40
0.0
 40
0.0
 40
0.1955202952
 40
0.3835332866
 40
0.556328294
 40
0.7075957252
 40
0.7733788947
 40
0.8317018375
 40
0.8820004319
 40
0.9238467018
 40
0.9568229413
 40
0.980590743
 40
0.988970058
 40
0.9949927272
 40
0.9986515325
 40
1.0
 40
1.0
 40
1.0
 40
1.0
 10
-5.4638363318
 20
-20.1524865323
 30
0.0
 10
-5.4867939352
 20
-20.1750537815
 30
0.0
 10
-5.5317753704
 20
-20.2193749772
 30
0.0
 10
-5.5968665171
 20
-20.2838224241
 30
0.0
 10
-5.6566156622
 20
-20.3433086958
 30
0.0
 10
-5.701951859
 20
-20.3887481356
 30
0.0
 10
-5.7338580342
 20
-20.4209604473
 30
0.0
 10
-5.7540074495
 20
-20.4414222762
 30
0.0
 10
-5.7713175321
 20
-20.4591383748
 30
0.0
 10
-5.7856533623
 20
-20.4739547845
 30
0.0
 10
-5.7968113834
 20
-20.4856896011
 30
0.0
 10
-5.8041834945
 20
-20.4935915329
 30
0.0
 10
-5.808257321
 20
-20.4982288423
 30
0.0
 10
-5.8103391001
 20
-20.500606609
 30
0.0
 10
-5.8111482041
 20
-20.5018601517
 30
0.0
 10
-5.8118909803
 20
-20.5027827972
 30
0.0
 10
-5.8117353622
 20
-20.5029411553
 30
0.0
  0
SPLINE
  5
8A1
100
AcDbEntity
  8
ASSI
100
AcDbSpline
 62
250
  6
CONTINUOUS
 70
0
 71
3
 72
21
 73
17
 74
0
 42
0.0000001
 43
0.0000001
 44
0.0000000001
 40
0.0
 40
0.0
 40
0.0
 40
0.0
 40
0.0014811835
 40
0.005200268
 40
0.0112705751
 40
0.0196953533
 40
0.043558747
 40
0.0766426495
 40
0.1186063485
 40
0.1690263296
 40
0.2274678257
 40
0.2933575453
 40
0.4447581846
 40
0.6175039346
 40
0.8051889761
 40
1.0
 40
1.0
 40
1.0
 40
1.0
 10
6.2968970187
 20
-21.1121154096
 30
0.0
 10
6.297143936
 20
-21.1121110996
 30
0.0
 10
6.2974654646
 20
-21.110986736
 30
0.0
 10
6.2977881455
 20
-21.1093998214
 30
0.0
 10
6.2981424671
 20
-21.106238105
 30
0.0
 10
6.2986415311
 20
-21.0999478511
 30
0.0
 10
6.2991546561
 20
-21.0889951832
 30
0.0
 10
6.2996417149
 20
-21.0725413684
 30
0.0
 10
6.3000279315
 20
-21.051613929
 30
0.0
 10
6.3003087886
 20
-21.0264726963
 30
0.0
 10
6.3004762175
 20
-20.9973357472
 30
0.0
 10
6.3005487494
 20
-20.9513640143
 30
0.0
 10
6.300316125
 20
-20.8863337056
 30
0.0
 10
6.2996047423
 20
-20.8009998717
 30
0.0
 10
6.2984680054
 20
-20.7084321748
 30
0.0
 10
6.2974637118
 20
-20.6446670954
 30
0.0
 10
6.2968970187
 20
-20.612191562
 30
0.0
  0
SPLINE
  5
8A2
100
AcDbEntity
  8
ASSI
100
AcDbSpline
 62
250
  6
CONTINUOUS
 70
0
 71
3
 72
21
 73
17
 74
0
 42
0.0000001
 43
0.0000001
 44
0.0000000001
 40
0.0
 40
0.0
 40
0.0
 40
0.0
 40
0.1948110149
 40
0.3824960383
 40
0.5552417851
 40
0.70664243
 40
0.7725321536
 40
0.8309736517
 40
0.8813936368
 40
0.9233573406
 40
0.9564412458
 40
0.9803046416
 40
0.9887294211
 40
0.9947997294
 40
0.998518815
 40
1.0
 40
1.0
 40
1.0
 40
1.0
 10
-4.4201392677
 20
20.6008941786
 30
0.0
 10
-4.4207059568
 20
20.6333697106
 30
0.0
 10
-4.4217102439
 20
20.6971347857
 30
0.0
 10
-4.4228469787
 20
20.7897024776
 30
0.0
 10
-4.4235583668
 20
20.8750363089
 30
0.0
 10
-4.4237909947
 20
20.9400666188
 30
0.0
 10
-4.4237184654
 20
20.9860383536
 30
0.0
 10
-4.4235510387
 20
21.0151753045
 30
0.0
 10
-4.4232701842
 20
21.040316539
 30
0.0
 10
-4.4228839698
 20
21.0612439804
 30
0.0
 10
-4.4223969126
 20
21.077697797
 30
0.0
 10
-4.4218837876
 20
21.0886504657
 30
0.0
 10
-4.4213847233
 20
21.0949407206
 30
0.0
 10
-4.4210304007
 20
21.0981024371
 30
0.0
 10
-4.4207077198
 20
21.0996893529
 30
0.0
 10
-4.4203861897
 20
21.1008137162
 30
0.0
 10
-4.4201392721
 20
21.1008180261
 30
0.0
  0
SPLINE
  5
8A3
100
AcDbEntity
  8
ASSI
100
AcDbSpline
 62
250
  6
CONTINUOUS
 70
0
 71
3
 72
21
 73
17
 74
0
 42
0.0000001
 43
0.0000001
 44
0.0000000001
 40
0.0
 40
0.0
 40
0.0
 40
0.0
 40
0.1955203075
 40
0.383533325
 40
0.556328336
 40
0.7075957577
 40
0.7733789207
 40
0.8317018602
 40
0.882000448
 40
0.9238467101
 40
0.9568229453
 40
0.9805907438
 40
0.9889700572
 40
0.9949927252
 40
0.9986515303
 40
1.0
 40
1.0
 40
1.0
 40
1.0
 10
-5.4638363318
 20
20.1524865323
 30
0.0
 10
-5.4867939367
 20
20.175053783
 30
0.0
 10
-5.5317753766
 20
20.2193749835
 30
0.0
 10
-5.5968665286
 20
20.2838224354
 30
0.0
 10
-5.6566156764
 20
20.3433087098
 30
0.0
 10
-5.7019518716
 20
20.3887481486
 30
0.0
 10
-5.7338580446
 20
20.4209604582
 30
0.0
 10
-5.7540074584
 20
20.4414222851
 30
0.0
 10
-5.7713175395
 20
20.4591383812
 30
0.0
 10
-5.7856533676
 20
20.4739547887
 30
0.0
 10
-5.7968113868
 20
20.4856896041
 30
0.0
 10
-5.8041834945
 20
20.4935915363
 30
0.0
 10
-5.8082573195
 20
20.4982288468
 30
0.0
 10
-5.8103390946
 20
20.5006066148
 30
0.0
 10
-5.8111482005
 20
20.5018601584
 30
0.0
 10
-5.8118909715
 20
20.5027828062
 30
0.0
 10
-5.8117353532
 20
20.5029411645
 30
0.0
  0
SPLINE
  5
8A4
100
AcDbEntity
  8
ASSI
100
AcDbSpline
 62
250
  6
CONTINUOUS
 70
0
 71
3
 72
21
 73
17
 74
0
 42
0.0000001
 43
0.0000001
 44
0.0000000001
 40
0.0
 40
0.0
 40
0.0
 40
0.0
 40
0.194811024
 40
0.3824960655
 40
0.5552418156
 40
0.706642455
 40
0.7725321747
 40
0.8309736709
 40
0.8813936521
 40
0.9233573511
 40
0.9564412537
 40
0.9803046474
 40
0.9887294256
 40
0.9947997326
 40
0.9985188169
 40
1.0
 40
1.0
 40
1.0
 40
1.0
 10
6.2968970187
 20
20.612191562
 30
0.0
 10
6.2974637137
 20
20.6446670954
 30
0.0
 10
6.2984680104
 20
20.7084321747
 30
0.0
 10
6.2996047485
 20
20.8009998716
 30
0.0
 10
6.3003161295
 20
20.8863337055
 30
0.0
 10
6.3005487528
 20
20.9513640143
 30
0.0
 10
6.30047622
 20
20.9973357471
 30
0.0
 10
6.3003087902
 20
21.0264726963
 30
0.0
 10
6.3000279321
 20
21.051613929
 30
0.0
 10
6.2996417145
 20
21.0725413685
 30
0.0
 10
6.299154655
 20
21.0889951832
 30
0.0
 10
6.29864153
 20
21.0999478512
 30
0.0
 10
6.2981424661
 20
21.106238105
 30
0.0
 10
6.2977881447
 20
21.1093998215
 30
0.0
 10
6.2974654639
 20
21.1109867357
 30
0.0
 10
6.2971439359
 20
21.1121110996
 30
0.0
 10
6.2968970187
 20
21.1121154096
 30
0.0
  0
SPLINE
  5
8A5
100
AcDbEntity
  8
ASSI
100
AcDbSpline
 62
250
  6
CONTINUOUS
 70
0
 71
3
 72
9
 73
5
 74
0
 42
0.0000001
 43
0.0000001
 44
0.0000000001
 40
0.0
 40
0.0
 40
0.0
 40
0.0
 40
0.4999754552
 40
1.0
 40
1.0
 40
1.0
 40
1.0
 10
-4.4201392677
 20
20.6008941786
 30
0.0
 10
-4.6130503213
 20
20.5975150948
 30
0.0
 10
-5.0013192994
 20
20.5148157773
 30
0.0
 10
-5.3285806637
 20
20.2901066886
 30
0.0
 10
-5.4638363318
 20
20.1524865323
 30
0.0
  0
SPLINE
  5
8A6
100
AcDbEntity
  8
ASSI
100
AcDbSpline
 62
250
  6
CONTINUOUS
 70
0
 71
3
 72
23
 73
19
 74
0
 42
0.0000001
 43
0.0000001
 44
0.0000000001
 40
0.0
 40
0.0
 40
0.0
 40
0.0
 40
0.1949122948
 40
0.3824778763
 40
0.5552159641
 40
0.6339903001
 40
0.7066743926
 40
0.7725362647
 40
0.8309712365
 40
0.881408189
 40
0.9233543854
 40
0.9564394578
 40
0.9695480161
 40
0.9803201799
 40
0.9887424854
 40
0.9948070409
 40
0.998520498
 40
1.0
 40
1.0
 40
1.0
 40
1.0
 10
-7.2903764842
 20
18.5508701541
 30
0.0
 10
-7.2915104555
 20
18.6158551198
 30
0.0
 10
-7.2935202689
 20
18.7433794898
 30
0.0
 10
-7.2957909672
 20
18.9285065514
 30
0.0
 10
-7.2970139841
 20
19.0749155773
 30
0.0
 10
-7.2975118929
 20
19.1830201544
 30
0.0
 10
-7.2976407962
 20
19.2554870418
 30
0.0
 10
-7.297535024
 20
19.3211720206
 30
0.0
 10
-7.2971987979
 20
19.3794366757
 30
0.0
 10
-7.2966395549
 20
19.4297275711
 30
0.0
 10
-7.2958624097
 20
19.4715525369
 30
0.0
 10
-7.2950034243
 20
19.5009469781
 30
0.0
 10
-7.2941609233
 20
19.5199014243
 30
0.0
 10
-7.2935284168
 20
19.5307035359
 30
0.0
 10
-7.2928698314
 20
19.5389750395
 30
0.0
 10
-7.2921601083
 20
19.5452946831
 30
0.0
 10
-7.291515867
 20
19.5484664117
 30
0.0
 10
-7.2908697576
 20
19.5507092391
 30
0.0
 10
-7.2903764825
 20
19.5507178493
 30
0.0
  0
SPLINE
  5
8A7
100
AcDbEntity
  8
ASSI
100
AcDbSpline
 62
250
  6
CONTINUOUS
 70
0
 71
3
 72
23
 73
19
 74
0
 42
0.0000001
 43
0.0000001
 44
0.0000000001
 40
0.0
 40
0.0
 40
0.0
 40
0.0
 40
0.1956140091
 40
0.3835053065
 40
0.5562920433
 40
0.6350166136
 40
0.7076174311
 40
0.7733739774
 40
0.8316913903
 40
0.8820077403
 40
0.9238379036
 40
0.9568163788
 40
0.9698760283
 40
0.980602008
 40
0.9889794687
 40
0.994997121
 40
0.9986512248
 40
1.0
 40
1.0
 40
1.0
 40
1.0
 10
-7.2903764842
 20
18.5508701541
 30
0.0
 10
-7.3359231568
 20
18.5964307038
 30
0.0
 10
-7.4251125967
 20
18.6858589057
 30
0.0
 10
-7.5541660455
 20
18.8158968641
 30
0.0
 10
-7.655818029
 20
18.9188925774
 30
0.0
 10
-7.7305963372
 20
18.9950632022
 30
0.0
 10
-7.7805783421
 20
19.0461806696
 30
0.0
 10
-7.8257504512
 20
19.0926018861
 30
0.0
 10
-7.8656812241
 20
19.1338809228
 30
0.0
 10
-7.9000011022
 20
19.1696295501
 30
0.0
 10
-7.9283735151
 20
19.1995030768
 30
0.0
 10
-7.9481607936
 20
19.2206465644
 30
0.0
 10
-7.9607576733
 20
19.2344191581
 30
0.0
 10
-7.9678857984
 20
19.2423401161
 30
0.0
 10
-7.9731773886
 20
19.2484858159
 30
0.0
 10
-7.9772909106
 20
19.2532805805
 30
0.0
 10
-7.978889839
 20
19.255801756
 30
0.0
 10
-7.980344955
 20
19.2576628392
 30
0.0
 10
-7.9800308589
 20
19.2579769353
 30
0.0
  0
SPLINE
  5
8A8
100
AcDbEntity
  8
ASSI
100
AcDbSpline
 62
250
  6
CONTINUOUS
 70
0
 71
3
 72
23
 73
19
 74
0
 42
0.0000001
 43
0.0000001
 44
0.0000000001
 40
0.0
 40
0.0
 40
0.0
 40
0.0
 40
0.1956140363
 40
0.3835053926
 40
0.5562921514
 40
0.6350167192
 40
0.7076175389
 40
0.7733740815
 40
0.83169148
 40
0.8820078246
 40
0.9238379697
 40
0.9568164268
 40
0.9698760745
 40
0.9806020477
 40
0.9889794965
 40
0.9949971357
 40
0.9986512288
 40
1.0
 40
1.0
 40
1.0
 40
1.0
 10
-8.9054602006
 20
16.9357864376
 30
0.0
 10
-8.9510068796
 20
16.9813469937
 30
0.0
 10
-9.0401963395
 20
17.0707752159
 30
0.0
 10
-9.1692498134
 20
17.2008131996
 30
0.0
 10
-9.2709018151
 20
17.3038089314
 30
0.0
 10
-9.3456801279
 20
17.3799795618
 30
0.0
 10
-9.3956621318
 20
17.4310970283
 30
0.0
 10
-9.4408342373
 20
17.4775182411
 30
0.0
 10
-9.4807650044
 20
17.5187972727
 30
0.0
 10
-9.5150848736
 20
17.5545458912
 30
0.0
 10
-9.5434572766
 20
17.5844194084
 30
0.0
 10
-9.5632445458
 20
17.6055628876
 30
0.0
 10
-9.5758414202
 20
17.6193354743
 30
0.0
 10
-9.5829695408
 20
17.6272564273
 30
0.0
 10
-9.5882611247
 20
17.6334021194
 30
0.0
 10
-9.5923746366
 20
17.6381968753
 30
0.0
 10
-9.5939735627
 20
17.6407180447
 30
0.0
 10
-9.5954286705
 20
17.6425791237
 30
0.0
 10
-9.5951145754
 20
17.6428932188
 30
0.0
  0
SPLINE
  5
8A9
100
AcDbEntity
  8
ASSI
100
AcDbSpline
 62
250
  6
CONTINUOUS
 70
0
 71
3
 72
23
 73
19
 74
0
 42
0.0000001
 43
0.0000001
 44
0.0000000001
 40
0.0
 40
0.0
 40
0.0
 40
0.0
 40
0.1956140359
 40
0.3835053914
 40
0.5562921499
 40
0.6350167179
 40
0.7076175375
 40
0.77337408
 40
0.8316914785
 40
0.8820078231
 40
0.9238379686
 40
0.9568164261
 40
0.969876074
 40
0.9806020472
 40
0.9889794962
 40
0.9949971355
 40
0.9986512288
 40
1.0
 40
1.0
 40
1.0
 40
1.0
 10
-8.9054602006
 20
-16.9357864376
 30
0.0
 10
-8.9510068795
 20
-16.9813469936
 30
0.0
 10
-9.0401963391
 20
-17.0707752155
 30
0.0
 10
-9.1692498127
 20
-17.2008131989
 30
0.0
 10
-9.2709018141
 20
-17.3038089305
 30
0.0
 10
-9.3456801269
 20
-17.3799795608
 30
0.0
 10
-9.3956621308
 20
-17.4310970273
 30
0.0
 10
-9.4408342363
 20
-17.4775182401
 30
0.0
 10
-9.4807650034
 20
-17.5187972716
 30
0.0
 10
-9.5150848727
 20
-17.5545458902
 30
0.0
 10
-9.5434572758
 20
-17.5844194076
 30
0.0
 10
-9.5632445453
 20
-17.605562887
 30
0.0
 10
-9.5758414198
 20
-17.6193354739
 30
0.0
 10
-9.5829695405
 20
-17.627256427
 30
0.0
 10
-9.5882611245
 20
-17.6334021192
 30
0.0
 10
-9.5923746365
 20
-17.6381968752
 30
0.0
 10
-9.5939735627
 20
-17.6407180447
 30
0.0
 10
-9.5954286705
 20
-17.6425791237
 30
0.0
 10
-9.5951145754
 20
-17.6428932188
 30
0.0
  0
SPLINE
  5
8AA
100
AcDbEntity
  8
ASSI
100
AcDbSpline
 62
250
  6
CONTINUOUS
 70
0
 71
3
 72
23
 73
19
 74
0
 42
0.0000001
 43
0.0000001
 44
0.0000000001
 40
0.0
 40
0.0
 40
0.0
 40
0.0
 40
0.1956140094
 40
0.3835053075
 40
0.5562920444
 40
0.6350166146
 40
0.7076174322
 40
0.7733739785
 40
0.8316913914
 40
0.8820077415
 40
0.9238379044
 40
0.9568163793
 40
0.9698760287
 40
0.9806020083
 40
0.9889794689
 40
0.9949971211
 40
0.9986512248
 40
1.0
 40
1.0
 40
1.0
 40
1.0
 10
-7.2903764842
 20
-18.5508701541
 30
0.0
 10
-7.3359231569
 20
-18.5964307039
 30
0.0
 10
-7.425112597
 20
-18.685858906
 30
0.0
 10
-7.554166046
 20
-18.8158968647
 30
0.0
 10
-7.6558180298
 20
-18.9188925781
 30
0.0
 10
-7.7305963379
 20
-18.995063203
 30
0.0
 10
-7.7805783428
 20
-19.0461806704
 30
0.0
 10
-7.8257504519
 20
-19.0926018869
 30
0.0
 10
-7.8656812249
 20
-19.1338809236
 30
0.0
 10
-7.9000011029
 20
-19.1696295508
 30
0.0
 10
-7.9283735157
 20
-19.1995030774
 30
0.0
 10
-7.948160794
 20
-19.2206465649
 30
0.0
 10
-7.9607576736
 20
-19.2344191584
 30
0.0
 10
-7.9678857986
 20
-19.2423401164
 30
0.0
 10
-7.9731773887
 20
-19.2484858161
 30
0.0
 10
-7.9772909106
 20
-19.2532805806
 30
0.0
 10
-7.9788898391
 20
-19.255801756
 30
0.0
 10
-7.980344955
 20
-19.2576628392
 30
0.0
 10
-7.9800308589
 20
-19.2579769353
 30
0.0
  0
SPLINE
  5
8AB
100
AcDbEntity
  8
ASSI
100
AcDbSpline
 62
250
  6
CONTINUOUS
 70
0
 71
3
 72
23
 73
19
 74
0
 42
0.0000001
 43
0.0000001
 44
0.0000000001
 40
0.0
 40
0.0
 40
0.0
 40
0.0
 40
0.1949122945
 40
0.3824778752
 40
0.5552159628
 40
0.6339902989
 40
0.7066743914
 40
0.7725362634
 40
0.8309712353
 40
0.8814081878
 40
0.9233543845
 40
0.9564394574
 40
0.9695480159
 40
0.9803201797
 40
0.9887424853
 40
0.9948070409
 40
0.9985204981
 40
1.0
 40
1.0
 40
1.0
 40
1.0
 10
-7.2903764842
 20
-18.5508701541
 30
0.0
 10
-7.2915104555
 20
-18.6158551197
 30
0.0
 10
-7.2935202689
 20
-18.7433794893
 30
0.0
 10
-7.2957909672
 20
-18.9285065504
 30
0.0
 10
-7.2970139841
 20
-19.074915576
 30
0.0
 10
-7.2975118929
 20
-19.183020153
 30
0.0
 10
-7.2976407962
 20
-19.2554870404
 30
0.0
 10
-7.2975350241
 20
-19.3211720192
 30
0.0
 10
-7.297198798
 20
-19.3794366742
 30
0.0
 10
-7.2966395549
 20
-19.4297275698
 30
0.0
 10
-7.2958624095
 20
-19.4715525358
 30
0.0
 10
-7.2950034241
 20
-19.5009469773
 30
0.0
 10
-7.2941609234
 20
-19.5199014237
 30
0.0
 10
-7.2935284172
 20
-19.5307035355
 30
0.0
 10
-7.2928698322
 20
-19.5389750392
 30
0.0
 10
-7.2921601095
 20
-19.545294683
 30
0.0
 10
-7.2915158685
 20
-19.5484664115
 30
0.0
 10
-7.2908697593
 20
-19.5507092391
 30
0.0
 10
-7.2903764842
 20
-19.5507178492
 30
0.0
  0
SPLINE
  5
8AC
100
AcDbEntity
  8
ASSI
100
AcDbSpline
 62
7
  6
CONTINUOUS
 70
0
 71
3
 72
8
 73
4
 74
0
 42
0.0000001
 43
0.0000001
 44
0.0000000001
 40
0.0
 40
0.0
 40
0.0
 40
0.0
 40
1.0
 40
1.0
 40
1.0
 40
1.0
 10
-2.7585752878
 20
-9.9999993877
 30
0.0
 10
-3.6517195742
 20
-10.0000098865
 30
0.0
 10
-4.5448639807
 20
-10.0004540482
 30
0.0
 10
-5.4380077959
 20
-10.0013716202
 30
0.0
  0
SPLINE
  5
8AD
100
AcDbEntity
  8
ASSI
100
AcDbSpline
 62
250
  6
CONTINUOUS
 70
0
 71
3
 72
21
 73
17
 74
0
 42
0.0000001
 43
0.0000001
 44
0.0000000001
 40
0.0
 40
0.0
 40
0.0
 40
0.0
 40
0.0014811831
 40
0.0052002663
 40
0.0112705715
 40
0.0196953477
 40
0.0435587379
 40
0.0766426368
 40
0.1186063291
 40
0.1690263051
 40
0.2274677998
 40
0.2933575157
 40
0.4447581514
 40
0.617503908
 40
0.805188968
 40
1.0
 40
1.0
 40
1.0
 40
1.0
 10
6.2968970187
 20
-19.7878845904
 30
0.0
 10
6.2971439359
 20
-19.7878889004
 30
0.0
 10
6.2974654647
 20
-19.7890132634
 30
0.0
 10
6.2977881454
 20
-19.7906001777
 30
0.0
 10
6.2981424671
 20
-19.793761893
 30
0.0
 10
6.2986415311
 20
-19.8000521458
 30
0.0
 10
6.299154656
 20
-19.8110048121
 30
0.0
 10
6.2996417146
 20
-19.8274586246
 30
0.0
 10
6.3000279314
 20
-19.8483860615
 30
0.0
 10
6.3003087885
 20
-19.873527292
 30
0.0
 10
6.3004762175
 20
-19.9026642395
 30
0.0
 10
6.3005487497
 20
-19.9486359708
 30
0.0
 10
6.300316125
 20
-20.0136662795
 30
0.0
 10
6.299604741
 20
-20.099000117
 30
0.0
 10
6.2984680073
 20
-20.1915678195
 30
0.0
 10
6.2974637192
 20
-20.2553329034
 30
0.0
 10
6.2968970293
 20
-20.2878084382
 30
0.0
  0
SPLINE
  5
8AE
100
AcDbEntity
  8
ASSI
100
AcDbSpline
 62
250
  6
CONTINUOUS
 70
0
 71
3
 72
9
 73
5
 74
0
 42
0.0000001
 43
0.0000001
 44
0.0000000001
 40
0.0
 40
0.0
 40
0.0
 40
0.0
 40
0.4999903036
 40
1.0
 40
1.0
 40
1.0
 40
1.0
 10
-5.4638363318
 20
-20.1524865323
 30
0.0
 10
-5.328589836
 20
-20.2900971733
 30
0.0
 10
-5.0013333246
 20
-20.5148099937
 30
0.0
 10
-4.6130635223
 20
-20.5975143708
 30
0.0
 10
-4.4201392677
 20
-20.6008941786
 30
0.0
  0
SPLINE
  5
8AF
100
AcDbEntity
  8
ASSI
100
AcDbSpline
 62
250
  6
CONTINUOUS
 70
0
 71
3
 72
21
 73
17
 74
0
 42
0.0000001
 43
0.0000001
 44
0.0000000001
 40
0.0
 40
0.0
 40
0.0
 40
0.0
 40
0.0014811835
 40
0.005200268
 40
0.0112705751
 40
0.0196953533
 40
0.043558747
 40
0.0766426495
 40
0.1186063485
 40
0.1690263296
 40
0.2274678257
 40
0.2933575453
 40
0.4447581846
 40
0.6175039346
 40
0.8051889761
 40
1.0
 40
1.0
 40
1.0
 40
1.0
 10
6.2968970187
 20
19.7878845904
 30
0.0
 10
6.297143936
 20
19.7878889004
 30
0.0
 10
6.2974654646
 20
19.789013264
 30
0.0
 10
6.2977881455
 20
19.7906001786
 30
0.0
 10
6.2981424671
 20
19.793761895
 30
0.0
 10
6.2986415311
 20
19.8000521489
 30
0.0
 10
6.2991546561
 20
19.8110048168
 30
0.0
 10
6.2996417149
 20
19.8274586316
 30
0.0
 10
6.3000279315
 20
19.848386071
 30
0.0
 10
6.3003087886
 20
19.8735273037
 30
0.0
 10
6.3004762175
 20
19.9026642528
 30
0.0
 10
6.3005487494
 20
19.9486359857
 30
0.0
 10
6.300316125
 20
20.0136662944
 30
0.0
 10
6.2996047423
 20
20.0990001283
 30
0.0
 10
6.2984680054
 20
20.1915678252
 30
0.0
 10
6.2974637118
 20
20.2553329046
 30
0.0
 10
6.2968970187
 20
20.287808438
 30
0.0
  0
SPLINE
  5
8B0
100
AcDbEntity
  8
RACCORDO
100
AcDbSpline
 62
250
  6
CONTINUOUS
 70
0
 71
3
 72
21
 73
17
 74
0
 42
0.0000001
 43
0.0000001
 44
0.0000000001
 40
0.0
 40
0.0
 40
0.0
 40
0.0
 40
0.1948110234
 40
0.3824960642
 40
0.5552418136
 40
0.7066424523
 40
0.7725321717
 40
0.8309736675
 40
0.8813936483
 40
0.923357347
 40
0.9564412493
 40
0.980304643
 40
0.9887294214
 40
0.9947997288
 40
0.9985188141
 40
1.0
 40
1.0
 40
1.0
 40
1.0
 10
-4.4201392677
 20
-20.6008941786
 30
0.0
 10
-4.4207059568
 20
-20.6333697121
 30
0.0
 10
-4.421710244
 20
-20.6971347916
 30
0.0
 10
-4.4228469789
 20
-20.7897024885
 30
0.0
 10
-4.4235583669
 20
-20.8750363223
 30
0.0
 10
-4.4237909947
 20
-20.940066631
 30
0.0
 10
-4.4237184653
 20
-20.9860383638
 30
0.0
 10
-4.4235510386
 20
-21.0151753129
 30
0.0
 10
-4.4232701844
 20
-21.0403165455
 30
0.0
 10
-4.42288397
 20
-21.0612439849
 30
0.0
 10
-4.4223969126
 20
-21.0776977999
 30
0.0
 10
-4.4218837869
 20
-21.0886504675
 30
0.0
 10
-4.4213847218
 20
-21.0949407219
 30
0.0
 10
-4.4210303982
 20
-21.0981024375
 30
0.0
 10
-4.4207077171
 20
-21.0996893539
 30
0.0
 10
-4.4203861855
 20
-21.1008137162
 30
0.0
 10
-4.4201392677
 20
-21.1008180262
 30
0.0
  0
SPLINE
  5
8B1
100
AcDbEntity
  8
RACCORDO
100
AcDbSpline
 62
250
  6
CONTINUOUS
 70
0
 71
3
 72
21
 73
17
 74
0
 42
0.0000001
 43
0.0000001
 44
0.0000000001
 40
0.0
 40
0.0
 40
0.0
 40
0.0
 40
0.1955202952
 40
0.3835332866
 40
0.556328294
 40
0.7075957252
 40
0.7733788947
 40
0.8317018375
 40
0.8820004319
 40
0.9238467018
 40
0.9568229413
 40
0.980590743
 40
0.988970058
 40
0.9949927272
 40
0.9986515325
 40
1.0
 40
1.0
 40
1.0
 40
1.0
 10
-5.4638363318
 20
-20.1524865323
 30
0.0
 10
-5.4867939352
 20
-20.1750537815
 30
0.0
 10
-5.5317753704
 20
-20.2193749772
 30
0.0
 10
-5.5968665171
 20
-20.2838224241
 30
0.0
 10
-5.6566156622
 20
-20.3433086958
 30
0.0
 10
-5.701951859
 20
-20.3887481356
 30
0.0
 10
-5.7338580342
 20
-20.4209604473
 30
0.0
 10
-5.7540074495
 20
-20.4414222762
 30
0.0
 10
-5.7713175321
 20
-20.4591383748
 30
0.0
 10
-5.7856533623
 20
-20.4739547845
 30
0.0
 10
-5.7968113834
 20
-20.4856896011
 30
0.0
 10
-5.8041834945
 20
-20.4935915329
 30
0.0
 10
-5.808257321
 20
-20.4982288423
 30
0.0
 10
-5.8103391001
 20
-20.500606609
 30
0.0
 10
-5.8111482041
 20
-20.5018601517
 30
0.0
 10
-5.8118909803
 20
-20.5027827972
 30
0.0
 10
-5.8117353622
 20
-20.5029411553
 30
0.0
  0
SPLINE
  5
8B2
100
AcDbEntity
  8
RACCORDO
100
AcDbSpline
 62
250
  6
CONTINUOUS
 70
0
 71
3
 72
21
 73
17
 74
0
 42
0.0000001
 43
0.0000001
 44
0.0000000001
 40
0.0
 40
0.0
 40
0.0
 40
0.0
 40
0.0014811835
 40
0.005200268
 40
0.0112705751
 40
0.0196953533
 40
0.043558747
 40
0.0766426495
 40
0.1186063485
 40
0.1690263296
 40
0.2274678257
 40
0.2933575453
 40
0.4447581846
 40
0.6175039346
 40
0.8051889761
 40
1.0
 40
1.0
 40
1.0
 40
1.0
 10
6.2968970187
 20
-21.1121154096
 30
0.0
 10
6.297143936
 20
-21.1121110996
 30
0.0
 10
6.2974654646
 20
-21.110986736
 30
0.0
 10
6.2977881455
 20
-21.1093998214
 30
0.0
 10
6.2981424671
 20
-21.106238105
 30
0.0
 10
6.2986415311
 20
-21.0999478511
 30
0.0
 10
6.2991546561
 20
-21.0889951832
 30
0.0
 10
6.2996417149
 20
-21.0725413684
 30
0.0
 10
6.3000279315
 20
-21.051613929
 30
0.0
 10
6.3003087886
 20
-21.0264726963
 30
0.0
 10
6.3004762175
 20
-20.9973357472
 30
0.0
 10
6.3005487494
 20
-20.9513640143
 30
0.0
 10
6.300316125
 20
-20.8863337056
 30
0.0
 10
6.2996047423
 20
-20.8009998717
 30
0.0
 10
6.2984680054
 20
-20.7084321748
 30
0.0
 10
6.2974637118
 20
-20.6446670954
 30
0.0
 10
6.2968970187
 20
-20.612191562
 30
0.0
  0
SPLINE
  5
8B3
100
AcDbEntity
  8
RACCORDO
100
AcDbSpline
 62
250
  6
CONTINUOUS
 70
0
 71
3
 72
21
 73
17
 74
0
 42
0.0000001
 43
0.0000001
 44
0.0000000001
 40
0.0
 40
0.0
 40
0.0
 40
0.0
 40
0.1948110149
 40
0.3824960383
 40
0.5552417851
 40
0.70664243
 40
0.7725321536
 40
0.8309736517
 40
0.8813936368
 40
0.9233573406
 40
0.9564412458
 40
0.9803046416
 40
0.9887294211
 40
0.9947997294
 40
0.998518815
 40
1.0
 40
1.0
 40
1.0
 40
1.0
 10
-4.4201392677
 20
20.6008941786
 30
0.0
 10
-4.4207059568
 20
20.6333697106
 30
0.0
 10
-4.4217102439
 20
20.6971347857
 30
0.0
 10
-4.4228469787
 20
20.7897024776
 30
0.0
 10
-4.4235583668
 20
20.8750363089
 30
0.0
 10
-4.4237909947
 20
20.9400666188
 30
0.0
 10
-4.4237184654
 20
20.9860383536
 30
0.0
 10
-4.4235510387
 20
21.0151753045
 30
0.0
 10
-4.4232701842
 20
21.040316539
 30
0.0
 10
-4.4228839698
 20
21.0612439804
 30
0.0
 10
-4.4223969126
 20
21.077697797
 30
0.0
 10
-4.4218837876
 20
21.0886504657
 30
0.0
 10
-4.4213847233
 20
21.0949407206
 30
0.0
 10
-4.4210304007
 20
21.0981024371
 30
0.0
 10
-4.4207077198
 20
21.0996893529
 30
0.0
 10
-4.4203861897
 20
21.1008137162
 30
0.0
 10
-4.4201392721
 20
21.1008180261
 30
0.0
  0
SPLINE
  5
8B4
100
AcDbEntity
  8
RACCORDO
100
AcDbSpline
 62
250
  6
CONTINUOUS
 70
0
 71
3
 72
21
 73
17
 74
0
 42
0.0000001
 43
0.0000001
 44
0.0000000001
 40
0.0
 40
0.0
 40
0.0
 40
0.0
 40
0.1955203075
 40
0.383533325
 40
0.556328336
 40
0.7075957577
 40
0.7733789207
 40
0.8317018602
 40
0.882000448
 40
0.9238467101
 40
0.9568229453
 40
0.9805907438
 40
0.9889700572
 40
0.9949927252
 40
0.9986515303
 40
1.0
 40
1.0
 40
1.0
 40
1.0
 10
-5.4638363318
 20
20.1524865323
 30
0.0
 10
-5.4867939367
 20
20.175053783
 30
0.0
 10
-5.5317753766
 20
20.2193749835
 30
0.0
 10
-5.5968665286
 20
20.2838224354
 30
0.0
 10
-5.6566156764
 20
20.3433087098
 30
0.0
 10
-5.7019518716
 20
20.3887481486
 30
0.0
 10
-5.7338580446
 20
20.4209604582
 30
0.0
 10
-5.7540074584
 20
20.4414222851
 30
0.0
 10
-5.7713175395
 20
20.4591383812
 30
0.0
 10
-5.7856533676
 20
20.4739547887
 30
0.0
 10
-5.7968113868
 20
20.4856896041
 30
0.0
 10
-5.8041834945
 20
20.4935915363
 30
0.0
 10
-5.8082573195
 20
20.4982288468
 30
0.0
 10
-5.8103390946
 20
20.5006066148
 30
0.0
 10
-5.8111482005
 20
20.5018601584
 30
0.0
 10
-5.8118909715
 20
20.5027828062
 30
0.0
 10
-5.8117353532
 20
20.5029411645
 30
0.0
  0
SPLINE
  5
8B5
100
AcDbEntity
  8
RACCORDO
100
AcDbSpline
 62
250
  6
CONTINUOUS
 70
0
 71
3
 72
21
 73
17
 74
0
 42
0.0000001
 43
0.0000001
 44
0.0000000001
 40
0.0
 40
0.0
 40
0.0
 40
0.0
 40
0.194811024
 40
0.3824960655
 40
0.5552418156
 40
0.706642455
 40
0.7725321747
 40
0.8309736709
 40
0.8813936521
 40
0.9233573511
 40
0.9564412537
 40
0.9803046474
 40
0.9887294256
 40
0.9947997326
 40
0.9985188169
 40
1.0
 40
1.0
 40
1.0
 40
1.0
 10
6.2968970187
 20
20.612191562
 30
0.0
 10
6.2974637137
 20
20.6446670954
 30
0.0
 10
6.2984680104
 20
20.7084321747
 30
0.0
 10
6.2996047485
 20
20.8009998716
 30
0.0
 10
6.3003161295
 20
20.8863337055
 30
0.0
 10
6.3005487528
 20
20.9513640143
 30
0.0
 10
6.30047622
 20
20.9973357471
 30
0.0
 10
6.3003087902
 20
21.0264726963
 30
0.0
 10
6.3000279321
 20
21.051613929
 30
0.0
 10
6.2996417145
 20
21.0725413685
 30
0.0
 10
6.299154655
 20
21.0889951832
 30
0.0
 10
6.29864153
 20
21.0999478512
 30
0.0
 10
6.2981424661
 20
21.106238105
 30
0.0
 10
6.2977881447
 20
21.1093998215
 30
0.0
 10
6.2974654639
 20
21.1109867357
 30
0.0
 10
6.2971439359
 20
21.1121110996
 30
0.0
 10
6.2968970187
 20
21.1121154096
 30
0.0
  0
SPLINE
  5
8B6
100
AcDbEntity
  8
RACCORDO
100
AcDbSpline
 62
250
  6
CONTINUOUS
 70
0
 71
3
 72
9
 73
5
 74
0
 42
0.0000001
 43
0.0000001
 44
0.0000000001
 40
0.0
 40
0.0
 40
0.0
 40
0.0
 40
0.4999754552
 40
1.0
 40
1.0
 40
1.0
 40
1.0
 10
-4.4201392677
 20
20.6008941786
 30
0.0
 10
-4.6130503213
 20
20.5975150948
 30
0.0
 10
-5.0013192994
 20
20.5148157773
 30
0.0
 10
-5.3285806637
 20
20.2901066886
 30
0.0
 10
-5.4638363318
 20
20.1524865323
 30
0.0
  0
SPLINE
  5
8B7
100
AcDbEntity
  8
RACCORDO
100
AcDbSpline
 62
250
  6
CONTINUOUS
 70
0
 71
3
 72
23
 73
19
 74
0
 42
0.0000001
 43
0.0000001
 44
0.0000000001
 40
0.0
 40
0.0
 40
0.0
 40
0.0
 40
0.1949122948
 40
0.3824778763
 40
0.5552159641
 40
0.6339903001
 40
0.7066743926
 40
0.7725362647
 40
0.8309712365
 40
0.881408189
 40
0.9233543854
 40
0.9564394578
 40
0.9695480161
 40
0.9803201799
 40
0.9887424854
 40
0.9948070409
 40
0.998520498
 40
1.0
 40
1.0
 40
1.0
 40
1.0
 10
-7.2903764842
 20
18.5508701541
 30
0.0
 10
-7.2915104555
 20
18.6158551198
 30
0.0
 10
-7.2935202689
 20
18.7433794898
 30
0.0
 10
-7.2957909672
 20
18.9285065514
 30
0.0
 10
-7.2970139841
 20
19.0749155773
 30
0.0
 10
-7.2975118929
 20
19.1830201544
 30
0.0
 10
-7.2976407962
 20
19.2554870418
 30
0.0
 10
-7.297535024
 20
19.3211720206
 30
0.0
 10
-7.2971987979
 20
19.3794366757
 30
0.0
 10
-7.2966395549
 20
19.4297275711
 30
0.0
 10
-7.2958624097
 20
19.4715525369
 30
0.0
 10
-7.2950034243
 20
19.5009469781
 30
0.0
 10
-7.2941609233
 20
19.5199014243
 30
0.0
 10
-7.2935284168
 20
19.5307035359
 30
0.0
 10
-7.2928698314
 20
19.5389750395
 30
0.0
 10
-7.2921601083
 20
19.5452946831
 30
0.0
 10
-7.291515867
 20
19.5484664117
 30
0.0
 10
-7.2908697576
 20
19.5507092391
 30
0.0
 10
-7.2903764825
 20
19.5507178493
 30
0.0
  0
SPLINE
  5
8B8
100
AcDbEntity
  8
RACCORDO
100
AcDbSpline
 62
250
  6
CONTINUOUS
 70
0
 71
3
 72
23
 73
19
 74
0
 42
0.0000001
 43
0.0000001
 44
0.0000000001
 40
0.0
 40
0.0
 40
0.0
 40
0.0
 40
0.1956140091
 40
0.3835053065
 40
0.5562920433
 40
0.6350166136
 40
0.7076174311
 40
0.7733739774
 40
0.8316913903
 40
0.8820077403
 40
0.9238379036
 40
0.9568163788
 40
0.9698760283
 40
0.980602008
 40
0.9889794687
 40
0.994997121
 40
0.9986512248
 40
1.0
 40
1.0
 40
1.0
 40
1.0
 10
-7.2903764842
 20
18.5508701541
 30
0.0
 10
-7.3359231568
 20
18.5964307038
 30
0.0
 10
-7.4251125967
 20
18.6858589057
 30
0.0
 10
-7.5541660455
 20
18.8158968641
 30
0.0
 10
-7.655818029
 20
18.9188925774
 30
0.0
 10
-7.7305963372
 20
18.9950632022
 30
0.0
 10
-7.7805783421
 20
19.0461806696
 30
0.0
 10
-7.8257504512
 20
19.0926018861
 30
0.0
 10
-7.8656812241
 20
19.1338809228
 30
0.0
 10
-7.9000011022
 20
19.1696295501
 30
0.0
 10
-7.9283735151
 20
19.1995030768
 30
0.0
 10
-7.9481607936
 20
19.2206465644
 30
0.0
 10
-7.9607576733
 20
19.2344191581
 30
0.0
 10
-7.9678857984
 20
19.2423401161
 30
0.0
 10
-7.9731773886
 20
19.2484858159
 30
0.0
 10
-7.9772909106
 20
19.2532805805
 30
0.0
 10
-7.978889839
 20
19.255801756
 30
0.0
 10
-7.980344955
 20
19.2576628392
 30
0.0
 10
-7.9800308589
 20
19.2579769353
 30
0.0
  0
SPLINE
  5
8B9
100
AcDbEntity
  8
RACCORDO
100
AcDbSpline
 62
250
  6
CONTINUOUS
 70
0
 71
3
 72
23
 73
19
 74
0
 42
0.0000001
 43
0.0000001
 44
0.0000000001
 40
0.0
 40
0.0
 40
0.0
 40
0.0
 40
0.1956140363
 40
0.3835053926
 40
0.5562921514
 40
0.6350167192
 40
0.7076175389
 40
0.7733740815
 40
0.83169148
 40
0.8820078246
 40
0.9238379697
 40
0.9568164268
 40
0.9698760745
 40
0.9806020477
 40
0.9889794965
 40
0.9949971357
 40
0.9986512288
 40
1.0
 40
1.0
 40
1.0
 40
1.0
 10
-8.9054602006
 20
16.9357864376
 30
0.0
 10
-8.9510068796
 20
16.9813469937
 30
0.0
 10
-9.0401963395
 20
17.0707752159
 30
0.0
 10
-9.1692498134
 20
17.2008131996
 30
0.0
 10
-9.2709018151
 20
17.3038089314
 30
0.0
 10
-9.3456801279
 20
17.3799795618
 30
0.0
 10
-9.3956621318
 20
17.4310970283
 30
0.0
 10
-9.4408342373
 20
17.4775182411
 30
0.0
 10
-9.4807650044
 20
17.5187972727
 30
0.0
 10
-9.5150848736
 20
17.5545458912
 30
0.0
 10
-9.5434572766
 20
17.5844194084
 30
0.0
 10
-9.5632445458
 20
17.6055628876
 30
0.0
 10
-9.5758414202
 20
17.6193354743
 30
0.0
 10
-9.5829695408
 20
17.6272564273
 30
0.0
 10
-9.5882611247
 20
17.6334021194
 30
0.0
 10
-9.5923746366
 20
17.6381968753
 30
0.0
 10
-9.5939735627
 20
17.6407180447
 30
0.0
 10
-9.5954286705
 20
17.6425791237
 30
0.0
 10
-9.5951145754
 20
17.6428932188
 30
0.0
  0
SPLINE
  5
8BA
100
AcDbEntity
  8
RACCORDO
100
AcDbSpline
 62
250
  6
CONTINUOUS
 70
0
 71
3
 72
23
 73
19
 74
0
 42
0.0000001
 43
0.0000001
 44
0.0000000001
 40
0.0
 40
0.0
 40
0.0
 40
0.0
 40
0.1956140359
 40
0.3835053914
 40
0.5562921499
 40
0.6350167179
 40
0.7076175375
 40
0.77337408
 40
0.8316914785
 40
0.8820078231
 40
0.9238379686
 40
0.9568164261
 40
0.969876074
 40
0.9806020472
 40
0.9889794962
 40
0.9949971355
 40
0.9986512288
 40
1.0
 40
1.0
 40
1.0
 40
1.0
 10
-8.9054602006
 20
-16.9357864376
 30
0.0
 10
-8.9510068795
 20
-16.9813469936
 30
0.0
 10
-9.0401963391
 20
-17.0707752155
 30
0.0
 10
-9.1692498127
 20
-17.2008131989
 30
0.0
 10
-9.2709018141
 20
-17.3038089305
 30
0.0
 10
-9.3456801269
 20
-17.3799795608
 30
0.0
 10
-9.3956621308
 20
-17.4310970273
 30
0.0
 10
-9.4408342363
 20
-17.4775182401
 30
0.0
 10
-9.4807650034
 20
-17.5187972716
 30
0.0
 10
-9.5150848727
 20
-17.5545458902
 30
0.0
 10
-9.5434572758
 20
-17.5844194076
 30
0.0
 10
-9.5632445453
 20
-17.605562887
 30
0.0
 10
-9.5758414198
 20
-17.6193354739
 30
0.0
 10
-9.5829695405
 20
-17.627256427
 30
0.0
 10
-9.5882611245
 20
-17.6334021192
 30
0.0
 10
-9.5923746365
 20
-17.6381968752
 30
0.0
 10
-9.5939735627
 20
-17.6407180447
 30
0.0
 10
-9.5954286705
 20
-17.6425791237
 30
0.0
 10
-9.5951145754
 20
-17.6428932188
 30
0.0
  0
SPLINE
  5
8BB
100
AcDbEntity
  8
RACCORDO
100
AcDbSpline
 62
250
  6
CONTINUOUS
 70
0
 71
3
 72
23
 73
19
 74
0
 42
0.0000001
 43
0.0000001
 44
0.0000000001
 40
0.0
 40
0.0
 40
0.0
 40
0.0
 40
0.1956140094
 40
0.3835053075
 40
0.5562920444
 40
0.6350166146
 40
0.7076174322
 40
0.7733739785
 40
0.8316913914
 40
0.8820077415
 40
0.9238379044
 40
0.9568163793
 40
0.9698760287
 40
0.9806020083
 40
0.9889794689
 40
0.9949971211
 40
0.9986512248
 40
1.0
 40
1.0
 40
1.0
 40
1.0
 10
-7.2903764842
 20
-18.5508701541
 30
0.0
 10
-7.3359231569
 20
-18.5964307039
 30
0.0
 10
-7.425112597
 20
-18.685858906
 30
0.0
 10
-7.554166046
 20
-18.8158968647
 30
0.0
 10
-7.6558180298
 20
-18.9188925781
 30
0.0
 10
-7.7305963379
 20
-18.995063203
 30
0.0
 10
-7.7805783428
 20
-19.0461806704
 30
0.0
 10
-7.8257504519
 20
-19.0926018869
 30
0.0
 10
-7.8656812249
 20
-19.1338809236
 30
0.0
 10
-7.9000011029
 20
-19.1696295508
 30
0.0
 10
-7.9283735157
 20
-19.1995030774
 30
0.0
 10
-7.948160794
 20
-19.2206465649
 30
0.0
 10
-7.9607576736
 20
-19.2344191584
 30
0.0
 10
-7.9678857986
 20
-19.2423401164
 30
0.0
 10
-7.9731773887
 20
-19.2484858161
 30
0.0
 10
-7.9772909106
 20
-19.2532805806
 30
0.0
 10
-7.9788898391
 20
-19.255801756
 30
0.0
 10
-7.980344955
 20
-19.2576628392
 30
0.0
 10
-7.9800308589
 20
-19.2579769353
 30
0.0
  0
SPLINE
  5
8BC
100
AcDbEntity
  8
RACCORDO
100
AcDbSpline
 62
250
  6
CONTINUOUS
 70
0
 71
3
 72
23
 73
19
 74
0
 42
0.0000001
 43
0.0000001
 44
0.0000000001
 40
0.0
 40
0.0
 40
0.0
 40
0.0
 40
0.1949122945
 40
0.3824778752
 40
0.5552159628
 40
0.6339902989
 40
0.7066743914
 40
0.7725362634
 40
0.8309712353
 40
0.8814081878
 40
0.9233543845
 40
0.9564394574
 40
0.9695480159
 40
0.9803201797
 40
0.9887424853
 40
0.9948070409
 40
0.9985204981
 40
1.0
 40
1.0
 40
1.0
 40
1.0
 10
-7.2903764842
 20
-18.5508701541
 30
0.0
 10
-7.2915104555
 20
-18.6158551197
 30
0.0
 10
-7.2935202689
 20
-18.7433794893
 30
0.0
 10
-7.2957909672
 20
-18.9285065504
 30
0.0
 10
-7.2970139841
 20
-19.074915576
 30
0.0
 10
-7.2975118929
 20
-19.183020153
 30
0.0
 10
-7.2976407962
 20
-19.2554870404
 30
0.0
 10
-7.2975350241
 20
-19.3211720192
 30
0.0
 10
-7.297198798
 20
-19.3794366742
 30
0.0
 10
-7.2966395549
 20
-19.4297275698
 30
0.0
 10
-7.2958624095
 20
-19.4715525358
 30
0.0
 10
-7.2950034241
 20
-19.5009469773
 30
0.0
 10
-7.2941609234
 20
-19.5199014237
 30
0.0
 10
-7.2935284172
 20
-19.5307035355
 30
0.0
 10
-7.2928698322
 20
-19.5389750392
 30
0.0
 10
-7.2921601095
 20
-19.545294683
 30
0.0
 10
-7.2915158685
 20
-19.5484664115
 30
0.0
 10
-7.2908697593
 20
-19.5507092391
 30
0.0
 10
-7.2903764842
 20
-19.5507178492
 30
0.0
  0
SPLINE
  5
8BD
100
AcDbEntity
  8
RACCORDO
100
AcDbSpline
 62
7
  6
CONTINUOUS
 70
0
 71
3
 72
8
 73
4
 74
0
 42
0.0000001
 43
0.0000001
 44
0.0000000001
 40
0.0
 40
0.0
 40
0.0
 40
0.0
 40
1.0
 40
1.0
 40
1.0
 40
1.0
 10
-2.7585752878
 20
-9.9999993877
 30
0.0
 10
-3.6517195742
 20
-10.0000098865
 30
0.0
 10
-4.5448639807
 20
-10.0004540482
 30
0.0
 10
-5.4380077959
 20
-10.0013716202
 30
0.0
  0
SPLINE
  5
8BE
100
AcDbEntity
  8
RACCORDO
100
AcDbSpline
 62
250
  6
CONTINUOUS
 70
0
 71
3
 72
21
 73
17
 74
0
 42
0.0000001
 43
0.0000001
 44
0.0000000001
 40
0.0
 40
0.0
 40
0.0
 40
0.0
 40
0.0014811831
 40
0.0052002663
 40
0.0112705715
 40
0.0196953477
 40
0.0435587379
 40
0.0766426368
 40
0.1186063291
 40
0.1690263051
 40
0.2274677998
 40
0.2933575157
 40
0.4447581514
 40
0.617503908
 40
0.805188968
 40
1.0
 40
1.0
 40
1.0
 40
1.0
 10
6.2968970187
 20
-19.7878845904
 30
0.0
 10
6.2971439359
 20
-19.7878889004
 30
0.0
 10
6.2974654647
 20
-19.7890132634
 30
0.0
 10
6.2977881454
 20
-19.7906001777
 30
0.0
 10
6.2981424671
 20
-19.793761893
 30
0.0
 10
6.2986415311
 20
-19.8000521458
 30
0.0
 10
6.299154656
 20
-19.8110048121
 30
0.0
 10
6.2996417146
 20
-19.8274586246
 30
0.0
 10
6.3000279314
 20
-19.8483860615
 30
0.0
 10
6.3003087885
 20
-19.873527292
 30
0.0
 10
6.3004762175
 20
-19.9026642395
 30
0.0
 10
6.3005487497
 20
-19.9486359708
 30
0.0
 10
6.300316125
 20
-20.0136662795
 30
0.0
 10
6.299604741
 20
-20.099000117
 30
0.0
 10
6.2984680073
 20
-20.1915678195
 30
0.0
 10
6.2974637192
 20
-20.2553329034
 30
0.0
 10
6.2968970293
 20
-20.2878084382
 30
0.0
  0
SPLINE
  5
8BF
100
AcDbEntity
  8
RACCORDO
100
AcDbSpline
 62
250
  6
CONTINUOUS
 70
0
 71
3
 72
9
 73
5
 74
0
 42
0.0000001
 43
0.0000001
 44
0.0000000001
 40
0.0
 40
0.0
 40
0.0
 40
0.0
 40
0.4999903036
 40
1.0
 40
1.0
 40
1.0
 40
1.0
 10
-5.4638363318
 20
-20.1524865323
 30
0.0
 10
-5.328589836
 20
-20.2900971733
 30
0.0
 10
-5.0013333246
 20
-20.5148099937
 30
0.0
 10
-4.6130635223
 20
-20.5975143708
 30
0.0
 10
-4.4201392677
 20
-20.6008941786
 30
0.0
  0
SPLINE
  5
8C0
100
AcDbEntity
  8
RACCORDO
100
AcDbSpline
 62
250
  6
CONTINUOUS
 70
0
 71
3
 72
21
 73
17
 74
0
 42
0.0000001
 43
0.0000001
 44
0.0000000001
 40
0.0
 40
0.0
 40
0.0
 40
0.0
 40
0.0014811835
 40
0.005200268
 40
0.0112705751
 40
0.0196953533
 40
0.043558747
 40
0.0766426495
 40
0.1186063485
 40
0.1690263296
 40
0.2274678257
 40
0.2933575453
 40
0.4447581846
 40
0.6175039346
 40
0.8051889761
 40
1.0
 40
1.0
 40
1.0
 40
1.0
 10
6.2968970187
 20
19.7878845904
 30
0.0
 10
6.297143936
 20
19.7878889004
 30
0.0
 10
6.2974654646
 20
19.789013264
 30
0.0
 10
6.2977881455
 20
19.7906001786
 30
0.0
 10
6.2981424671
 20
19.793761895
 30
0.0
 10
6.2986415311
 20
19.8000521489
 30
0.0
 10
6.2991546561
 20
19.8110048168
 30
0.0
 10
6.2996417149
 20
19.8274586316
 30
0.0
 10
6.3000279315
 20
19.848386071
 30
0.0
 10
6.3003087886
 20
19.8735273037
 30
0.0
 10
6.3004762175
 20
19.9026642528
 30
0.0
 10
6.3005487494
 20
19.9486359857
 30
0.0
 10
6.300316125
 20
20.0136662944
 30
0.0
 10
6.2996047423
 20
20.0990001283
 30
0.0
 10
6.2984680054
 20
20.1915678252
 30
0.0
 10
6.2974637118
 20
20.2553329046
 30
0.0
 10
6.2968970187
 20
20.287808438
 30
0.0
  0
ELLIPSE
  5
8C1
100
AcDbEntity
  8
0
100
AcDbEllipse
 62
7
  6
CONTINUOUS
 10
4.7619922058
 20
-12.942657619
 30
0.0
 11
0.7620269522
 21
0.672989491
 31
0.0
 40
0.9621923006
 41
0.9139328592
 42
2.4372339119
  0
ELLIPSE
  5
8C2
100
AcDbEntity
  8
0
100
AcDbEllipse
 62
7
  6
CONTINUOUS
 10
4.7619922058
 20
-12.942657619
 30
0.0
 11
0.7620269522
 21
0.672989491
 31
0.0
 40
0.9621923006
 41
0.2570522771
 42
0.8664375851
  0
ELLIPSE
  5
8C3
100
AcDbEntity
  8
RACCORDO
100
AcDbEllipse
 62
7
  6
CONTINUOUS
 10
5.8119465074
 20
-5.3706730858
 30
0.0
 11
0.2999318894
 21
-0.0083089295
 31
0.0
 40
0.9945135036
 41
-1.5429479775
 42
0.0275437628
  0
ELLIPSE
  5
8C4
100
AcDbEntity
  8
RACCORDO
100
AcDbEllipse
 62
7
  6
CONTINUOUS
 10
4.7619922058
 20
-13.0398690899
 30
0.0
 11
0.7620269522
 21
0.672989491
 31
0.0
 40
0.9621923006
 41
-0.7043587417
 42
-0.1479633775
  0
ELLIPSE
  5
8C5
100
AcDbEntity
  8
RACCORDO
100
AcDbEllipse
 62
7
  6
CONTINUOUS
 10
2.2619922058
 20
-12.9212414831
 30
0.0
 11
5.9701242336
 21
0.0
 31
0.0
 40
0.9821911923
 41
7.6211959414
 42
7.7026540958
  0
ELLIPSE
  5
8C6
100
AcDbEntity
  8
RACCORDO
100
AcDbEllipse
 62
7
  6
CONTINUOUS
 10
1.6234519269
 20
-6.2366020962
 30
0.0
 11
0.0005475303
 21
0.2999999998
 31
0.0
 40
0.0173593864
 41
0.1222047303
 42
0.2395265067
  0
ELLIPSE
  5
8C7
100
AcDbEntity
  8
RACCORDO
100
AcDbEllipse
 62
7
  6
CONTINUOUS
 10
0.9005324847
 20
-6.2366020962
 30
0.0
 11
-0.0005475303
 21
0.2999999998
 31
0.0
 40
0.0173593864
 41
-0.2395265067
 42
-0.1222047303
  0
ELLIPSE
  5
8C8
100
AcDbEntity
  8
RACCORDO
100
AcDbEllipse
 62
7
  6
CONTINUOUS
 10
6.5619845901
 20
-4.5000076157
 30
0.0
 11
-0.1414321262
 21
-0.1414321262
 31
0.0
 40
0.9999238505
 41
2.3562325664
 42
3.9269527408
  0
ELLIPSE
  5
8C9
100
AcDbEntity
  8
RACCORDO
100
AcDbEllipse
 62
7
  6
CONTINUOUS
 10
-9.5204994145
 20
-22.0412598048
 30
0.0
 11
0.3131138908
 21
0.1565450223
 31
0.0
 40
0.9998096356
 41
2.6780516535
 42
4.2486956813
  0
ELLIPSE
  5
8CA
100
AcDbEntity
  8
RACCORDO
100
AcDbEllipse
 62
7
  6
CONTINUOUS
 10
-9.5204994145
 20
22.0412598048
 30
0.0
 11
-0.3131138908
 21
0.1565450223
 31
0.0
 40
0.9998096356
 41
-1.1071030277
 42
0.4635410001
  0
ELLIPSE
  5
8CB
100
AcDbEntity
  8
RACCORDO
100
AcDbEllipse
 62
7
  6
CONTINUOUS
 10
-6.2880173138
 20
20.6499904804
 30
0.0
 11
0.1767901578
 21
0.1767901578
 31
0.0
 40
0.9999238505
 41
-0.7853600872
 42
0.7853600872
  0
ELLIPSE
  5
8CC
100
AcDbEntity
  8
RACCORDO
100
AcDbEllipse
 62
7
  6
CONTINUOUS
 10
8.8120017254
 20
20.6499904804
 30
0.0
 11
-0.1767901578
 21
0.1767901578
 31
0.0
 40
0.9999238505
 41
-0.7853600872
 42
0.7853600872
  0
ELLIPSE
  5
8CD
100
AcDbEntity
  8
RACCORDO
100
AcDbEllipse
 62
7
  6
CONTINUOUS
 10
-8.2379697122
 20
-20.499961918
 30
0.0
 11
0.1768305473
 21
0.1768305473
 31
0.0
 40
0.9996954599
 41
2.3563467834
 42
3.9268385237
  0
ELLIPSE
  5
8CE
100
AcDbEntity
  8
RACCORDO
100
AcDbEllipse
 62
7
  6
CONTINUOUS
 10
-8.2379697122
 20
20.499961918
 30
0.0
 11
0.1768305473
 21
-0.1768305473
 31
0.0
 40
0.9996954599
 41
2.3563467834
 42
3.9268385237
  0
ELLIPSE
  5
8CF
100
AcDbEntity
  8
RACCORDO
100
AcDbEllipse
 62
7
  6
CONTINUOUS
 10
10.7619541238
 20
20.499961918
 30
0.0
 11
0.1768305473
 21
0.1768305473
 31
0.0
 40
0.9996954599
 41
-0.7852458701
 42
0.7852458701
  0
ELLIPSE
  5
8D0
100
AcDbEntity
  8
RACCORDO
100
AcDbEllipse
 62
7
  6
CONTINUOUS
 10
10.7619541238
 20
-20.499961918
 30
0.0
 11
0.1768305473
 21
-0.1768305473
 31
0.0
 40
0.9996954599
 41
-0.7852458701
 42
0.7852458701
  0
ELLIPSE
  5
8D1
100
AcDbEntity
  8
RACCORDO
100
AcDbEllipse
 62
7
  6
CONTINUOUS
 10
12.0444838261
 20
22.0412598048
 30
0.0
 11
-0.3131138908
 21
-0.1565450223
 31
0.0
 40
0.9998096356
 41
2.6780516535
 42
4.2486956813
  0
ELLIPSE
  5
8D2
100
AcDbEntity
  8
RACCORDO
100
AcDbEllipse
 62
7
  6
CONTINUOUS
 10
11.8606831969
 20
-22.9783121635
 30
0.0
 11
0.0
 21
0.25
 31
0.0
 40
0.0052360356
 41
-2.617993878
 42
-1.5707963268
  0
ELLIPSE
  5
8D3
100
AcDbEntity
  8
RACCORDO
100
AcDbEllipse
 62
7
  6
CONTINUOUS
 10
9.6633012147
 20
-22.9783121635
 30
0.0
 11
0.0
 21
0.25
 31
0.0
 40
0.0052360356
 41
-4.7123889804
 42
-3.6651914292
  0
ELLIPSE
  5
8D4
100
AcDbEntity
  8
RACCORDO
100
AcDbEllipse
 62
7
  6
CONTINUOUS
 10
-7.1393168031
 20
-22.9783121635
 30
0.0
 11
0.0
 21
0.25
 31
0.0
 40
0.0052360356
 41
-2.617993878
 42
-1.5707963268
  0
ELLIPSE
  5
8D5
100
AcDbEntity
  8
RACCORDO
100
AcDbEllipse
 62
7
  6
CONTINUOUS
 10
-9.3366987853
 20
-22.9783121635
 30
0.0
 11
-0.0
 21
0.25
 31
0.0
 40
0.0052360356
 41
-4.7123889804
 42
-3.6651914292
  0
ELLIPSE
  5
8D6
100
AcDbEntity
  8
RACCORDO
100
AcDbEllipse
 62
7
  6
CONTINUOUS
 10
-7.1393168031
 20
22.9783121635
 30
0.0
 11
-0.0
 21
0.25
 31
0.0
 40
0.0052360356
 41
-1.5707963268
 42
-0.5235987756
  0
ELLIPSE
  5
8D7
100
AcDbEntity
  8
RACCORDO
100
AcDbEllipse
 62
7
  6
CONTINUOUS
 10
-9.3366987853
 20
22.9783121635
 30
0.0
 11
0.0
 21
0.25
 31
0.0
 40
0.0052360356
 41
0.5235987756
 42
1.5707963268
  0
ELLIPSE
  5
8D8
100
AcDbEntity
  8
RACCORDO
100
AcDbEllipse
 62
7
  6
CONTINUOUS
 10
11.8606831969
 20
22.9783121635
 30
0.0
 11
0.0
 21
0.25
 31
0.0
 40
0.0052360356
 41
-1.5707963268
 42
-0.5235987756
  0
ELLIPSE
  5
8D9
100
AcDbEntity
  8
RACCORDO
100
AcDbEllipse
 62
7
  6
CONTINUOUS
 10
9.6633012147
 20
22.9783121635
 30
0.0
 11
-0.0
 21
0.25
 31
0.0
 40
0.0052360356
 41
0.5235987756
 42
1.5707963268
  0
ELLIPSE
  5
8DA
100
AcDbEntity
  8
RACCORDO
100
AcDbEllipse
 62
7
  6
CONTINUOUS
 10
7.6492704033
 20
20.0372781975
 30
0.0
 11
-0.1767901578
 21
-0.1767901578
 31
0.0
 40
0.9999238505
 41
0.3597849201
 42
0.7853600872
  0
ELLIPSE
  5
8DB
100
AcDbEntity
  8
RACCORDO
100
AcDbEllipse
 62
7
  6
CONTINUOUS
 10
7.6492704033
 20
-20.0372781975
 30
0.0
 11
-0.1767901578
 21
0.1767901578
 31
0.0
 40
0.9999238505
 41
-0.7853600872
 42
-0.3597849218
  0
ELLIPSE
  5
8DC
100
AcDbEntity
  8
RACCORDO
100
AcDbEllipse
 62
7
  6
CONTINUOUS
 10
8.3119826862
 20
19.9500095196
 30
0.0
 11
0.1767901578
 21
-0.1767901578
 31
0.0
 40
0.9999238505
 41
-0.7853600872
 42
0.7853600872
  0
ELLIPSE
  5
8DD
100
AcDbEntity
  8
RACCORDO
100
AcDbEllipse
 62
7
  6
CONTINUOUS
 10
8.3119826862
 20
-19.9500095196
 30
0.0
 11
0.1767901578
 21
0.1767901578
 31
0.0
 40
0.9999238505
 41
-0.7853600872
 42
0.7853600872
  0
ELLIPSE
  5
8DE
100
AcDbEntity
  8
RACCORDO
100
AcDbEllipse
 62
7
  6
CONTINUOUS
 10
-5.8931773283
 20
-22.1412636126
 30
0.0
 11
0.0956751261
 21
0.230980187
 31
0.0
 40
0.9999553905
 41
-3.5342759634
 42
-2.7489093438
  0
ELLIPSE
  5
8DF
100
AcDbEntity
  8
RACCORDO
100
AcDbEllipse
 62
7
  6
CONTINUOUS
 10
-6.7379982746
 20
-21.1500095196
 30
0.0
 11
0.1767901578
 21
-0.1767901578
 31
0.0
 40
0.9999238505
 41
2.3562325664
 42
3.9269527408
  0
ELLIPSE
  5
8E0
100
AcDbEntity
  8
RACCORDO
100
AcDbEllipse
 62
7
  6
CONTINUOUS
 10
-6.7379982746
 20
-21.2964426663
 30
0.0
 11
0.230980187
 21
0.0956751261
 31
0.0
 40
0.9999553905
 41
2.7489093438
 42
3.5342759634
  0
ELLIPSE
  5
8E1
100
AcDbEntity
  8
RACCORDO
100
AcDbEllipse
 62
7
  6
CONTINUOUS
 10
7.5620017254
 20
-19.9500095196
 30
0.0
 11
-0.1767901578
 21
0.1767901578
 31
0.0
 40
0.9999238505
 41
-0.7853600872
 42
0.1730243623
  0
ELLIPSE
  5
8E2
100
AcDbEntity
  8
RACCORDO
100
AcDbEllipse
 62
7
  6
CONTINUOUS
 10
8.4171617398
 20
-22.1412636126
 30
0.0
 11
-0.0956751261
 21
0.230980187
 31
0.0
 40
0.9999553905
 41
-3.5342759634
 42
-2.7489093438
  0
ELLIPSE
  5
8E3
100
AcDbEntity
  8
RACCORDO
100
AcDbEllipse
 62
7
  6
CONTINUOUS
 10
9.2619826862
 20
-21.2964426663
 30
0.0
 11
0.230980187
 21
-0.0956751261
 31
0.0
 40
0.9999553905
 41
-0.3926833098
 42
0.3926833098
  0
ELLIPSE
  5
8E4
100
AcDbEntity
  8
RACCORDO
100
AcDbEllipse
 62
7
  6
CONTINUOUS
 10
9.2619826862
 20
-21.1500095196
 30
0.0
 11
0.1767901578
 21
0.1767901578
 31
0.0
 40
0.9999238505
 41
-0.7853600872
 42
0.7853600872
  0
ELLIPSE
  5
8E5
100
AcDbEntity
  8
RACCORDO
100
AcDbEllipse
 62
7
  6
CONTINUOUS
 10
9.2619826862
 20
21.2964426663
 30
0.0
 11
0.230980187
 21
0.0956751261
 31
0.0
 40
0.9999553905
 41
-0.3926833098
 42
0.3926833098
  0
ELLIPSE
  5
8E6
100
AcDbEntity
  8
RACCORDO
100
AcDbEllipse
 62
7
  6
CONTINUOUS
 10
9.2619826862
 20
21.1500095196
 30
0.0
 11
0.1767901578
 21
-0.1767901578
 31
0.0
 40
0.9999238505
 41
-0.7853600872
 42
0.7853600872
  0
ELLIPSE
  5
8E7
100
AcDbEntity
  8
RACCORDO
100
AcDbEllipse
 62
7
  6
CONTINUOUS
 10
8.4171617398
 20
22.1412636126
 30
0.0
 11
0.0956751261
 21
0.230980187
 31
0.0
 40
0.9999553905
 41
-0.3926833098
 42
0.3926833098
  0
ELLIPSE
  5
8E8
100
AcDbEntity
  8
RACCORDO
100
AcDbEllipse
 62
7
  6
CONTINUOUS
 10
7.5620017254
 20
19.9500095196
 30
0.0
 11
0.1767901578
 21
0.1767901578
 31
0.0
 40
0.9999238505
 41
-3.3146170184
 42
-2.3562325664
  0
ELLIPSE
  5
8E9
100
AcDbEntity
  8
RACCORDO
100
AcDbEllipse
 62
7
  6
CONTINUOUS
 10
-5.8931773283
 20
22.1412636126
 30
0.0
 11
-0.0956751261
 21
0.230980187
 31
0.0
 40
0.9999553905
 41
-0.3926833098
 42
0.3926833098
  0
ELLIPSE
  5
8EA
100
AcDbEntity
  8
RACCORDO
100
AcDbEllipse
 62
7
  6
CONTINUOUS
 10
-6.7379982746
 20
21.2964426663
 30
0.0
 11
0.230980187
 21
-0.0956751261
 31
0.0
 40
0.9999553905
 41
2.7489093438
 42
3.5342759634
  0
ELLIPSE
  5
8EB
100
AcDbEntity
  8
RACCORDO
100
AcDbEllipse
 62
7
  6
CONTINUOUS
 10
-6.7379982746
 20
21.1500095196
 30
0.0
 11
0.1767901578
 21
0.1767901578
 31
0.0
 40
0.9999238505
 41
2.3562325664
 42
3.9269527408
  0
ELLIPSE
  5
8EC
100
AcDbEntity
  8
RACCORDO
100
AcDbEllipse
 62
7
  6
CONTINUOUS
 10
10.7484558809
 20
20.4864636751
 30
0.0
 11
0.103686094
 21
0.228269306
 31
0.0
 40
0.9967487951
 41
-1.1453530451
 42
0.4251386952
  0
ELLIPSE
  5
8ED
100
AcDbEntity
  8
RACCORDO
100
AcDbEllipse
 62
7
  6
CONTINUOUS
 10
-8.2244714693
 20
20.4864636751
 30
0.0
 11
-0.103686094
 21
0.228269306
 31
0.0
 40
0.9967487951
 41
-0.4251386952
 42
1.1453530451
  0
ELLIPSE
  5
8EE
100
AcDbEntity
  8
RACCORDO
100
AcDbEllipse
 62
7
  6
CONTINUOUS
 10
10.7484558809
 20
-20.4864636751
 30
0.0
 11
-0.103686094
 21
0.228269306
 31
0.0
 40
0.9967487951
 41
-3.5667313488
 42
-1.9962396085
  0
ELLIPSE
  5
8EF
100
AcDbEntity
  8
RACCORDO
100
AcDbEllipse
 62
7
  6
CONTINUOUS
 10
-8.2244714693
 20
-20.4864636751
 30
0.0
 11
0.103686094
 21
0.228269306
 31
0.0
 40
0.9967487951
 41
-4.2869456987
 42
-2.7164539584
  0
ELLIPSE
  5
8F0
100
AcDbEntity
  8
RACCORDO
100
AcDbEllipse
 62
7
  6
CONTINUOUS
 10
-2.7035580958
 20
-22.332803118
 30
0.0
 11
0.3
 21
-0.0
 31
0.0
 40
0.0087268678
 41
1.5707963268
 42
3.1241393611
  0
ELLIPSE
  5
8F1
100
AcDbEntity
  8
RACCORDO
100
AcDbEllipse
 62
7
  6
CONTINUOUS
 10
-2.5578662663
 20
-22.332803118
 30
0.0
 11
0.3000114235
 21
0.0000001994
 31
0.0
 40
0.0087265355
 41
-0.0001523106
 42
1.5707201686
  0
ELLIPSE
  5
8F2
100
AcDbEntity
  8
RACCORDO
100
AcDbEllipse
 62
7
  6
CONTINUOUS
 10
5.0818506779
 20
-22.332803118
 30
0.0
 11
0.3000114235
 21
-0.0000001994
 31
0.0
 40
0.0087265355
 41
1.570872485
 42
3.1417449642
  0
ELLIPSE
  5
8F3
100
AcDbEntity
  8
RACCORDO
100
AcDbEllipse
 62
7
  6
CONTINUOUS
 10
5.2275425074
 20
-22.332803118
 30
0.0
 11
0.3
 21
0.0
 31
0.0
 40
0.0087268678
 41
0.0174532925
 42
1.5707963268
  0
ELLIPSE
  5
8F4
100
AcDbEntity
  8
RACCORDO
100
AcDbEllipse
 62
7
  6
CONTINUOUS
 10
5.0818506779
 20
22.332803118
 30
0.0
 11
0.3000114235
 21
0.0000001994
 31
0.0
 40
0.0087265355
 41
3.1414403429
 42
4.7123128222
  0
ELLIPSE
  5
8F5
100
AcDbEntity
  8
RACCORDO
100
AcDbEllipse
 62
7
  6
CONTINUOUS
 10
-2.5578662663
 20
22.332803118
 30
0.0
 11
0.3000114235
 21
-0.0000001994
 31
0.0
 40
0.0087265355
 41
-1.5707201686
 42
0.0001523106
  0
ELLIPSE
  5
8F6
100
AcDbEntity
  8
RACCORDO
100
AcDbEllipse
 62
7
  6
CONTINUOUS
 10
5.2275425074
 20
22.332803118
 30
0.0
 11
0.3
 21
-0.0
 31
0.0
 40
0.0087268678
 41
-1.5707963268
 42
-0.0174532925
  0
ELLIPSE
  5
8F7
100
AcDbEntity
  8
RACCORDO
100
AcDbEllipse
 62
7
  6
CONTINUOUS
 10
-2.7035580958
 20
22.332803118
 30
0.0
 11
0.3
 21
0.0
 31
0.0
 40
0.0087268678
 41
-3.1241393611
 42
-1.5707963268
  0
ELLIPSE
  5
8F8
100
AcDbEntity
  8
RACCORDO
100
AcDbEllipse
 62
7
  6
CONTINUOUS
 10
4.3126118941
 20
-21.3126932437
 30
0.0
 11
0.0
 21
1.0
 31
0.0
 40
0.0174550649
 41
-3.1328660073
 42
-1.5707963268
  0
ELLIPSE
  5
8F9
100
AcDbEntity
  8
RACCORDO
100
AcDbEllipse
 62
7
  6
CONTINUOUS
 10
4.3126118941
 20
21.3126932437
 30
0.0
 11
0.0
 21
1.0
 31
0.0
 40
0.0174550649
 41
-1.5707963268
 42
-0.0087266463
  0
ELLIPSE
  5
8FA
100
AcDbEntity
  8
RACCORDO
100
AcDbEllipse
 62
7
  6
CONTINUOUS
 10
-1.7886274825
 20
-21.3126932437
 30
0.0
 11
0.0
 21
1.0
 31
0.0
 40
0.0174550649
 41
-4.7123889804
 42
-3.1503192998
  0
ELLIPSE
  5
8FB
100
AcDbEntity
  8
RACCORDO
100
AcDbEllipse
 62
7
  6
CONTINUOUS
 10
-1.7886274825
 20
21.3126932437
 30
0.0
 11
0.0
 21
1.0
 31
0.0
 40
0.0174550649
 41
0.0087266463
 42
1.5707963268
  0
ELLIPSE
  5
8FC
100
AcDbEntity
  8
RACCORDO
100
AcDbEllipse
 62
7
  6
CONTINUOUS
 10
12.0444838261
 20
-22.0412598048
 30
0.0
 11
0.3131138908
 21
-0.1565450223
 31
0.0
 40
0.9998096356
 41
-1.1071030277
 42
0.4635410001
  0
ELLIPSE
  5
8FD
100
AcDbEntity
  8
RACCORDO
100
AcDbEllipse
 62
7
  6
CONTINUOUS
 10
6.5724568315
 20
-4.4895353743
 30
0.0
 11
0.1414321262
 21
0.1414321262
 31
0.0
 40
0.9999238505
 41
-0.7853600872
 42
0.7853600872
  0
ELLIPSE
  5
8FE
100
AcDbEntity
  8
RACCORDO
100
AcDbEllipse
 62
7
  6
CONTINUOUS
 10
8.8120017254
 20
-20.6499904804
 30
0.0
 11
-0.1767901578
 21
-0.1767901578
 31
0.0
 40
0.9999238505
 41
-0.7853600872
 42
0.7853600872
  0
ELLIPSE
  5
8FF
100
AcDbEntity
  8
RACCORDO
100
AcDbEllipse
 62
7
  6
CONTINUOUS
 10
5.2275425074
 20
-23.6655960001
 30
0.0
 11
0.3
 21
0.0
 31
0.0
 40
0.0174550649
 41
0.0174532925
 42
1.5707963268
  0
ELLIPSE
  5
900
100
AcDbEntity
  8
RACCORDO
100
AcDbEllipse
 62
7
  6
CONTINUOUS
 10
-2.7035580958
 20
-23.6655960001
 30
0.0
 11
0.3
 21
0.0
 31
0.0
 40
0.0174550649
 41
1.5707963268
 42
3.1241393611
  0
ELLIPSE
  5
901
100
AcDbEntity
  8
RACCORDO
100
AcDbEllipse
 62
7
  6
CONTINUOUS
 10
-2.5694969307
 20
-23.6655960001
 30
0.0
 11
0.3000114261
 21
0.0000007979
 31
0.0
 40
0.0174543999
 41
-0.0002285153
 42
1.5706439639
  0
ELLIPSE
  5
902
100
AcDbEntity
  8
RACCORDO
100
AcDbEllipse
 62
7
  6
CONTINUOUS
 10
5.0934813423
 20
-23.6655960001
 30
0.0
 11
0.3000114261
 21
-0.0000007979
 31
0.0
 40
0.0174543999
 41
1.5709486897
 42
3.1418211689
  0
ELLIPSE
  5
903
100
AcDbEntity
  8
RACCORDO
100
AcDbEllipse
 62
7
  6
CONTINUOUS
 10
-9.3340807675
 20
24.1368706193
 30
0.0
 11
0.0
 21
0.25
 31
0.0
 40
0.0052360356
 41
-1.5707963268
 42
-0.0174532925
  0
ELLIPSE
  5
904
100
AcDbEntity
  8
RACCORDO
100
AcDbEllipse
 62
7
  6
CONTINUOUS
 10
-9.3340807675
 20
23.8443375673
 30
0.0
 11
-0.0
 21
0.25
 31
0.0
 40
0.0052360356
 41
-2.617993878
 42
-1.5707963268
  0
ELLIPSE
  5
905
100
AcDbEntity
  8
RACCORDO
100
AcDbEllipse
 62
7
  6
CONTINUOUS
 10
-7.1419348209
 20
24.1368706193
 30
0.0
 11
-0.0
 21
0.25
 31
0.0
 40
0.0052360356
 41
0.0174532925
 42
1.5707963268
  0
ELLIPSE
  5
906
100
AcDbEntity
  8
RACCORDO
100
AcDbEllipse
 62
7
  6
CONTINUOUS
 10
-7.1419348209
 20
23.8443375673
 30
0.0
 11
-0.0
 21
0.25
 31
0.0
 40
0.0052360356
 41
1.5707963268
 42
2.617993878
  0
ELLIPSE
  5
907
100
AcDbEntity
  8
RACCORDO
100
AcDbEllipse
 62
7
  6
CONTINUOUS
 10
-2.7035580958
 20
23.6655960001
 30
0.0
 11
0.3
 21
0.0
 31
0.0
 40
0.0174550649
 41
-3.1241393611
 42
-1.5707963268
  0
ELLIPSE
  5
908
100
AcDbEntity
  8
RACCORDO
100
AcDbEllipse
 62
7
  6
CONTINUOUS
 10
5.2275425074
 20
23.6655960001
 30
0.0
 11
0.3
 21
0.0
 31
0.0
 40
0.0174550649
 41
-1.5707963268
 42
-0.0174532925
  0
ELLIPSE
  5
909
100
AcDbEntity
  8
RACCORDO
100
AcDbEllipse
 62
7
  6
CONTINUOUS
 10
5.0934813423
 20
23.6655960001
 30
0.0
 11
0.3000114261
 21
0.0000007979
 31
0.0
 40
0.0174543999
 41
3.1413641383
 42
4.7122366175
  0
ELLIPSE
  5
90A
100
AcDbEntity
  8
RACCORDO
100
AcDbEllipse
 62
7
  6
CONTINUOUS
 10
-6.2880173138
 20
-20.6499904804
 30
0.0
 11
0.1767901578
 21
-0.1767901578
 31
0.0
 40
0.9999238505
 41
-0.7853600872
 42
0.7853600872
  0
ELLIPSE
  5
90B
100
AcDbEntity
  8
RACCORDO
100
AcDbEllipse
 62
7
  6
CONTINUOUS
 10
-2.5694969307
 20
23.6655960001
 30
0.0
 11
0.3000114261
 21
-0.0000007979
 31
0.0
 40
0.0174543999
 41
-1.5706439639
 42
0.0002285153
  0
ELLIPSE
  5
90C
100
AcDbEntity
  8
RACCORDO
100
AcDbEllipse
 62
7
  6
CONTINUOUS
 10
9.6659192325
 20
24.1368706193
 30
0.0
 11
0.0
 21
0.25
 31
0.0
 40
0.0052360356
 41
-1.5707963268
 42
-0.0174532925
  0
ELLIPSE
  5
90D
100
AcDbEntity
  8
RACCORDO
100
AcDbEllipse
 62
7
  6
CONTINUOUS
 10
9.6659192325
 20
23.8443375673
 30
0.0
 11
-0.0
 21
0.25
 31
0.0
 40
0.0052360356
 41
-2.617993878
 42
-1.5707963268
  0
ELLIPSE
  5
90E
100
AcDbEntity
  8
RACCORDO
100
AcDbEllipse
 62
7
  6
CONTINUOUS
 10
11.8580651791
 20
24.1368706193
 30
0.0
 11
0.0
 21
0.25
 31
0.0
 40
0.0052360356
 41
0.0174532925
 42
1.5707963268
  0
ELLIPSE
  5
90F
100
AcDbEntity
  8
RACCORDO
100
AcDbEllipse
 62
7
  6
CONTINUOUS
 10
11.8580651791
 20
23.8443375673
 30
0.0
 11
-0.0
 21
0.25
 31
0.0
 40
0.0052360356
 41
1.5707963268
 42
2.617993878
  0
ELLIPSE
  5
910
100
AcDbEntity
  8
RACCORDO
100
AcDbEllipse
 62
7
  6
CONTINUOUS
 10
-7.1419348209
 20
-24.1368706193
 30
0.0
 11
0.0
 21
0.25
 31
0.0
 40
0.0052360356
 41
-4.7123889804
 42
-3.1590459461
  0
ELLIPSE
  5
911
100
AcDbEntity
  8
RACCORDO
100
AcDbEllipse
 62
7
  6
CONTINUOUS
 10
9.6659192325
 20
-23.8443375673
 30
0.0
 11
0.0
 21
0.25
 31
0.0
 40
0.0052360356
 41
-1.5707963268
 42
-0.5235987756
  0
ELLIPSE
  5
912
100
AcDbEntity
  8
RACCORDO
100
AcDbEllipse
 62
7
  6
CONTINUOUS
 10
9.6659192325
 20
-24.1368706193
 30
0.0
 11
0.0
 21
0.25
 31
0.0
 40
0.0052360356
 41
-3.1241393611
 42
-1.5707963268
  0
ELLIPSE
  5
913
100
AcDbEntity
  8
RACCORDO
100
AcDbEllipse
 62
7
  6
CONTINUOUS
 10
11.8580651791
 20
-23.8443375673
 30
0.0
 11
-0.0
 21
0.25
 31
0.0
 40
0.0052360356
 41
0.5235987756
 42
1.5707963268
  0
ELLIPSE
  5
914
100
AcDbEntity
  8
RACCORDO
100
AcDbEllipse
 62
7
  6
CONTINUOUS
 10
11.8580651791
 20
-24.1368706193
 30
0.0
 11
0.0
 21
0.25
 31
0.0
 40
0.0052360356
 41
-4.7123889804
 42
-3.1590459461
  0
ELLIPSE
  5
915
100
AcDbEntity
  8
RACCORDO
100
AcDbEllipse
 62
7
  6
CONTINUOUS
 10
-9.3340807675
 20
-23.8443375673
 30
0.0
 11
0.0
 21
0.25
 31
0.0
 40
0.0052360356
 41
-1.5707963268
 42
-0.5235987756
  0
ELLIPSE
  5
916
100
AcDbEntity
  8
RACCORDO
100
AcDbEllipse
 62
7
  6
CONTINUOUS
 10
-9.3340807675
 20
-24.1368706193
 30
0.0
 11
0.0
 21
0.25
 31
0.0
 40
0.0052360356
 41
-3.1241393611
 42
-1.5707963268
  0
ELLIPSE
  5
917
100
AcDbEntity
  8
RACCORDO
100
AcDbEllipse
 62
7
  6
CONTINUOUS
 10
-7.1419348209
 20
-23.8443375673
 30
0.0
 11
-0.0
 21
0.25
 31
0.0
 40
0.0052360356
 41
0.5235987756
 42
1.5707963268
  0
ENDSEC
  0
SECTION
  2
OBJECTS
  0
DICTIONARY
  5
C
100
AcDbDictionary
280
0
281
1
  3
ACAD_GROUP
350
D
  3
ACAD_MLINESTYLE
350
17
  3
ACAD_LAYOUT
350
1A
  3
ACAD_PLOTSETTINGS
350
19
  3
ACAD_PLOTSTYLENAME
350
E
  0
DICTIONARY
  5
D
102
{ACAD_REACTORS
330
C
102
}
100
AcDbDictionary
280
0
281
1
  0
ACDBDICTIONARYWDFLT
  5
E
102
{ACAD_REACTORS
330
C
102
}
100
AcDbDictionary
281
1
  3
Normal
350
F
100
AcDbDictionaryWithDefault
340
F
  0
DICTIONARY
  5
17
102
{ACAD_REACTORS
330
C
102
}
100
AcDbDictionary
280
0
281
1
  3
Standard
350
18
  0
DICTIONARY
  5
19
102
{ACAD_REACTORS
330
C
102
}
100
AcDbDictionary
281
1
  0
DICTIONARY
  5
1A
102
{ACAD_REACTORS
330
C
102
}
100
AcDbDictionary
281
1
  3
Model
350
918
  3
Layout1
350
919
  0
ACDBPLACEHOLDER
  5
F
102
{ACAD_REACTORS
330
E
102
}
  0
MLINESTYLE
  5
18
102
{ACAD_REACTORS
330
17
102
}
100
AcDbMlineStyle
  2
STANDARD
 70
0
  3

 62
256
 51
90.0
 52
90.0
 71
2
 49
0.5
 62
256
  6
BYLAYER
 49
-0.5
 62
256
  6
BYLAYER
  0
LAYOUT
  5
918
102
{ACAD_REACTORS
330
1A
102
}
100
AcDbPlotSettings
  1

  2
none_device
  4

  6

 40
0.0
 41
0.0
 42
0.0
 43
0.0
 44
210.0
 45
297.0
 46
0.0
 47
0.0
 48
0.0
 49
0.0
140
0.0
141
0.0
142
1.0
143
1.0
 70
1024
 72
1
 73
0
 74
0
  7

 75
0
147
1.0
148
0.0
149
0.0
100
AcDbLayout
  1
Model
 70
0
 71
0
 10
0.0
 20
0.0
 11
210.0
 21
297.0
 12
0.0
 22
0.0
 32
0.0
 14
0.0
 24
0.0
 34
0.0
 15
0.0
 25
0.0
 35
0.0
146
0.0
 13
0.0
 23
0.0
 33
0.0
 16
1.0
 26
0.0
 36
0.0
 17
0.0
 27
1.0
 37
0.0
 76
0
330
5FD
345
0
346
0
  0
LAYOUT
  5
919
102
{ACAD_REACTORS
330
1A
102
}
100
AcDbPlotSettings
  1

  2
none_device
  4

  6

 40
0.0
 41
0.0
 42
0.0
 43
0.0
 44
210.0
 45
297.0
 46
0.0
 47
0.0
 48
0.0
 49
0.0
140
0.0
141
0.0
142
1.0
143
1.0
 70
0
 72
1
 73
0
 74
0
  7

 75
0
147
1.0
148
0.0
149
0.0
100
AcDbLayout
  1
Layout1
 70
0
 71
1
 10
0.0
 20
0.0
 11
210.0
 21
297.0
 12
0.0
 22
0.0
 32
0.0
 14
0.0
 24
0.0
 34
0.0
 15
0.0
 25
0.0
 35
0.0
146
0.0
 13
0.0
 23
0.0
 33
0.0
 16
1.0
 26
0.0
 36
0.0
 17
0.0
 27
1.0
 37
0.0
 76
0
330
5FE
345
0
346
0
  0
ENDSEC
  0
EOF
