  0
SECTION
  2
HEADER
  9
$ACADVER
  1
AC1015
  9
$DWGCODEPAGE
  3
ANSI_1252
  9
$EXTMAX
 10
297.0
 20
210.0
 30
0.0
  9
$EXTMIN
 10
0.0
 20
0.0
 30
0.0
  9
$LIMMIN
 10
0.0
 20
0.0
  9
$LIMMAX
 10
297.0
 20
210.0
  9
$VIEWCTR
 10
148.5
 20
105.0
  9
$VIEWSIZE
 40
210.0
  9
$CLAYER
  8
0
  9
$LTSCALE
 40
16.335
  9
$CELTYPE
  6
BYLAYER
  9
$DIMSCALE
 40
1.0
  9
$DIMASZ
 40
3.0
  9
$DIMEXO
 40
1.85625
  9
$DIMDLI
 40
11.286
  9
$DIMEXE
 40
5.346
  9
$DIMCEN
 40
2.673
  9
$DIMLFAC
 40
1.0
  9
$DIMBLK
  1
_FILLED
  9
$DIMTXT
 40
3.0
  9
$DIMTOL
 70
1
  9
$DIMLIM
 70
0
  9
$DIMTFAC
 40
1.0
  9
$DIMTP
 40
0.01
  9
$DIMTM
 40
0.01
  9
$PDMODE
 70
3
  9
$PDSIZE
 40
3.0
  9
$HANDSEED
  5
6E5
  9
$TILEMODE
 70
1
  9
$MEASUREMENT
 70
1
  9
$INSUNITS
 70
4
  0
ENDSEC
  0
SECTION
  2
CLASSES
  0
CLASS
  1
ACDBDICTIONARYWDFLT
  2
AcDbDictionaryWithDefault
  3
AutoCAD 2000
 90
0
280
0
281
0
  0
CLASS
  1
ACDBPLACEHOLDER
  2
AcDbPlaceHolder
  3
AutoCAD 2000
 90
0
280
0
281
0
  0
CLASS
  1
LAYOUT
  2
AcDbLayout
  3
AutoCAD 2000
 90
0
280
0
281
0
  0
ENDSEC
  0
SECTION
  2
TABLES
  0
TABLE
  2
VPORT
  5
8
100
AcDbSymbolTable
 70
2
  0
VPORT
  5
1F4
100
AcDbSymbolTableRecord
100
AcDbViewportTableRecord
  2
*ACTIVE
 70
0
 10
0.0
 20
0.0
 11
1.0
 21
1.0
 12
148.5
 22
105.0
 13
0.0
 23
0.0
 14
1.0
 24
1.0
 15
0.0
 25
0.0
 16
0.0
 26
0.0
 36
1.0
 17
0.0
 27
0.0
 37
0.0
 40
210.0
 41
1.4142857143
 42
50.0
 43
0.0
 44
0.0
 50
0.0
 51
0.0
 71
0
 72
100
 73
1
 74
1
 75
0
 76
0
 77
0
 78
0
  0
ENDTAB
  0
TABLE
  2
LTYPE
  5
5
100
AcDbSymbolTable
 70
6
  0
LTYPE
  5
14
100
AcDbSymbolTableRecord
100
AcDbLinetypeTableRecord
  2
BYBLOCK
 70
0
  3

 72
65
 73
0
 40
0.0
  0
LTYPE
  5
15
100
AcDbSymbolTableRecord
100
AcDbLinetypeTableRecord
  2
BYLAYER
 70
0
  3

 72
65
 73
0
 40
0.0
  0
LTYPE
  5
16
100
AcDbSymbolTableRecord
100
AcDbLinetypeTableRecord
  2
CONTINUOUS
 70
64
  3
Solid line
 72
65
 73
0
 40
0.0
  0
LTYPE
  5
1F5
100
AcDbSymbolTableRecord
100
AcDbLinetypeTableRecord
  2
CENTER
 70
64
  3
____ _ ____ _ ____ _ ____ _ ____ _ ____ _ ____
 72
65
 73
4
 40
0.6
 49
0.375
 74
0
 49
-0.075
 74
0
 49
0.075
 74
0
 49
-0.075
 74
0
  0
LTYPE
  5
1F6
100
AcDbSymbolTableRecord
100
AcDbLinetypeTableRecord
  2
HIDDEN
 70
64
  3
- - - - - - - - - - - - - - - - - - - -
 72
65
 73
2
 40
0.2
 49
0.1
 74
0
 49
-0.1
 74
0
  0
LTYPE
  5
1F7
100
AcDbSymbolTableRecord
100
AcDbLinetypeTableRecord
  2
PHANTOM
 70
64
  3
_____ _ _ _____ _ _ _____ _ _ _____
 72
65
 73
6
 40
0.8
 49
0.45
 74
0
 49
-0.05
 74
0
 49
0.1
 74
0
 49
-0.05
 74
0
 49
0.1
 74
0
 49
-0.05
 74
0
  0
LTYPE
  5
1F8
100
AcDbSymbolTableRecord
100
AcDbLinetypeTableRecord
  2
DOT
 70
64
  3
. . . . . . . . . . . . . . . . . . . .
 72
65
 73
2
 40
0.2
 49
0.1
 74
0
 49
-0.1
 74
0
  0
LTYPE
  5
1F9
100
AcDbSymbolTableRecord
100
AcDbLinetypeTableRecord
  2
DASHED
 70
64
  3
- - - - - - - - - - - - - - - - - - - -
 72
65
 73
2
 40
0.2
 49
0.1
 74
0
 49
-0.1
 74
0
  0
ENDTAB
  0
TABLE
  2
LAYER
  5
2
100
AcDbSymbolTable
 70
36
  0
LAYER
  5
10
100
AcDbSymbolTableRecord
100
AcDbLayerTableRecord
  2
0
 70
0
 62
7
  6
CONTINUOUS
370
-3
390
F
  0
LAYER
  5
1FA
100
AcDbSymbolTableRecord
100
AcDbLayerTableRecord
  2
DEFAULT_1
 70
0
 62
7
  6
CENTER
370
-3
390
F
  0
LAYER
  5
1FB
100
AcDbSymbolTableRecord
100
AcDbLayerTableRecord
  2
DEFAULT_2
 70
0
 62
7
  6
HIDDEN
370
-3
390
F
  0
LAYER
  5
1FC
100
AcDbSymbolTableRecord
100
AcDbLayerTableRecord
  2
DEFAULT_3
 70
0
 62
7
  6
PHANTOM
370
-3
390
F
  0
LAYER
  5
1FD
100
AcDbSymbolTableRecord
100
AcDbLayerTableRecord
  2
ASSI
 70
0
 62
7
  6
CONTINUOUS
370
-3
390
F
  0
LAYER
  5
1FE
100
AcDbSymbolTableRecord
100
AcDbLayerTableRecord
  2
COORDINATE
 70
0
 62
7
  6
CONTINUOUS
370
-3
390
F
  0
LAYER
  5
1FF
100
AcDbSymbolTableRecord
100
AcDbLayerTableRecord
  2
COORD_ORIGINE
 70
0
 62
7
  6
CONTINUOUS
370
-3
390
F
  0
LAYER
  5
200
100
AcDbSymbolTableRecord
100
AcDbLayerTableRecord
  2
CORPO
 70
0
 62
7
  6
CONTINUOUS
370
-3
390
F
  0
LAYER
  5
201
100
AcDbSymbolTableRecord
100
AcDbLayerTableRecord
  2
COSMETICHE
 70
0
 62
7
  6
CONTINUOUS
370
-3
390
F
  0
LAYER
  5
202
100
AcDbSymbolTableRecord
100
AcDbLayerTableRecord
  2
CURVE
 70
0
 62
7
  6
CONTINUOUS
370
-3
390
F
  0
LAYER
  5
203
100
AcDbSymbolTableRecord
100
AcDbLayerTableRecord
  2
DRAFT
 70
0
 62
7
  6
CONTINUOUS
370
-3
390
F
  0
LAYER
  5
204
100
AcDbSymbolTableRecord
100
AcDbLayerTableRecord
  2
NOTE
 70
0
 62
7
  6
CONTINUOUS
370
-3
390
F
  0
LAYER
  5
205
100
AcDbSymbolTableRecord
100
AcDbLayerTableRecord
  2
PIANI
 70
0
 62
7
  6
CONTINUOUS
370
-3
390
F
  0
LAYER
  5
206
100
AcDbSymbolTableRecord
100
AcDbLayerTableRecord
  2
PIANI_ORIGINE
 70
0
 62
7
  6
CONTINUOUS
370
-3
390
F
  0
LAYER
  5
207
100
AcDbSymbolTableRecord
100
AcDbLayerTableRecord
  2
PIANI_RIFERIMENTO
 70
0
 62
7
  6
CONTINUOUS
370
-3
390
F
  0
LAYER
  5
208
100
AcDbSymbolTableRecord
100
AcDbLayerTableRecord
  2
PIANI_SFORMI
 70
0
 62
7
  6
CONTINUOUS
370
-3
390
F
  0
LAYER
  5
209
100
AcDbSymbolTableRecord
100
AcDbLayerTableRecord
  2
PUNTI
 70
0
 62
7
  6
CONTINUOUS
370
-3
390
F
  0
LAYER
  5
20A
100
AcDbSymbolTableRecord
100
AcDbLayerTableRecord
  2
RACCORDO
 70
0
 62
7
  6
CONTINUOUS
370
-3
390
F
  0
LAYER
  5
20B
100
AcDbSymbolTableRecord
100
AcDbLayerTableRecord
  2
SMUSSO
 70
0
 62
7
  6
CONTINUOUS
370
-3
390
F
  0
LAYER
  5
20C
100
AcDbSymbolTableRecord
100
AcDbLayerTableRecord
  2
SNAPLINE
 70
0
 62
7
  6
CONTINUOUS
370
-3
390
F
  0
LAYER
  5
20D
100
AcDbSymbolTableRecord
100
AcDbLayerTableRecord
  2
SUPERFICI
 70
0
 62
7
  6
CONTINUOUS
370
-3
390
F
  0
LAYER
  5
20E
100
AcDbSymbolTableRecord
100
AcDbLayerTableRecord
  2
TRASH
 70
0
 62
7
  6
CONTINUOUS
370
-3
390
F
  0
LAYER
  5
20F
100
AcDbSymbolTableRecord
100
AcDbLayerTableRecord
  2
XSEC_DATUMS
 70
0
 62
7
  6
CONTINUOUS
370
-3
390
F
  0
ENDTAB
  0
TABLE
  2
STYLE
  5
3
100
AcDbSymbolTable
 70
1
  0
STYLE
  5
11
100
AcDbSymbolTableRecord
100
AcDbTextStyleTableRecord
  2
STANDARD
 70
0
 40
0.0
 41
0.8
 50
0.0
 71
0
 42
0.2
  3
txt
  4

  0
STYLE
  5
210
100
AcDbSymbolTableRecord
100
AcDbTextStyleTableRecord
  2
TEXTSTYLE_1
 70
0
 40
0.0
 41
0.8
 50
0.0
 71
0
 42
0.2
  3
gdt
  4

  0
ENDTAB
  0
TABLE
  2
VIEW
  5
6
100
AcDbSymbolTable
 70
0
  0
ENDTAB
  0
TABLE
  2
UCS
  5
7
100
AcDbSymbolTable
 70
0
  0
ENDTAB
  0
TABLE
  2
APPID
  5
9
100
AcDbSymbolTable
 70
1
  0
APPID
  5
211
100
AcDbSymbolTableRecord
100
AcDbRegAppTableRecord
  2
ACAD
 70
0
  0
ENDTAB
  0
TABLE
  2
BLOCK_RECORD
  5
1
100
AcDbSymbolTable
 70
0
  0
BLOCK_RECORD
  5
212
100
AcDbSymbolTableRecord
100
AcDbBlockTableRecord
  2
*Model_Space
  0
BLOCK_RECORD
  5
213
100
AcDbSymbolTableRecord
100
AcDbBlockTableRecord
  2
*Paper_Space
  0
ENDTAB
  0
TABLE
  2
DIMSTYLE
  5
A
100
AcDbSymbolTable
 70
1
100
AcDbDimStyleTable
 71
0
  0
DIMSTYLE
105
214
100
AcDbSymbolTableRecord
100
AcDbDimStyleTableRecord
  2
STANDARD
 70
0
  3

  4

 40
1.0
 41
3.0
 42
0.0625
 43
0.38
 44
0.18
 45
0.0
 46
0.0
 47
0.01
 48
0.01
140
3.0
141
0.09
142
0.0
143
25.4
144
1.0
145
0.0
146
1.0
147
0.09
 71
1.0
 72
0.0
 73
0
 74
0
 75
0
 76
0
 77
1
 78
8
170
0
171
2
172
0
173
0
174
0
175
0
176
0
177
0
178
0
270
2
271
2
272
2
273
2
274
2
275
0
280
0
281
0
282
0
283
1
284
8
285
0
286
0
287
3
288
0
340
11
  0
ENDTAB
  0
ENDSEC
  0
SECTION
  2
BLOCKS
  0
BLOCK
  5
20
100
AcDbEntity
  8
0
100
AcDbBlockBegin
  2
*Model_Space
 70
0
 10
0.0
 20
0.0
 30
0.0
  3
*Model_Space
  1

  0
ENDBLK
  5
21
100
AcDbEntity
  8
0
100
AcDbBlockEnd
  0
BLOCK
  5
1C
100
AcDbEntity
  8
0
100
AcDbBlockBegin
  2
*Paper_Space
 70
0
 10
0.0
 20
0.0
 30
0.0
  3
*Paper_Space
  1

  0
ENDBLK
  5
1D
100
AcDbEntity
  8
0
100
AcDbBlockEnd
  0
ENDSEC
  0
SECTION
  2
ENTITIES
  0
LINE
  5
215
100
AcDbEntity
  8
RACCORDO
100
AcDbLine
 62
253
  6
CONTINUOUS
 10
-9.4293676032
 20
24.495628166
 11
-9.4249957692
 21
24.5
  0
LINE
  5
216
100
AcDbEntity
  8
RACCORDO
100
AcDbLine
 62
253
  6
CONTINUOUS
 10
-11.5748476749
 20
22.3912731322
 11
-11.5573926099
 21
22.4
  0
LINE
  5
217
100
AcDbEntity
  8
RACCORDO
100
AcDbLine
 62
7
  6
CONTINUOUS
 10
-11.3250042308
 20
-24.5
 11
-9.4249957692
 21
-24.5
  0
LINE
  5
218
100
AcDbEntity
  8
RACCORDO
100
AcDbLine
 62
7
  6
CONTINUOUS
 10
7.5749957692
 20
-24.5
 11
9.4750042308
 21
-24.5
  0
LINE
  5
219
100
AcDbEntity
  8
RACCORDO
100
AcDbLine
 62
253
  6
CONTINUOUS
 10
-11.3206323968
 20
-24.495628166
 11
-9.4293676032
 21
-24.495628166
  0
LINE
  5
21A
100
AcDbEntity
  8
RACCORDO
100
AcDbLine
 62
253
  6
CONTINUOUS
 10
7.5793676032
 20
-24.495628166
 11
9.4706323968
 21
-24.495628166
  0
LINE
  5
21B
100
AcDbEntity
  8
RACCORDO
100
AcDbLine
 62
253
  6
CONTINUOUS
 10
7.329371834
 20
-24.2456323968
 11
9.720628166
 21
-24.2456323968
  0
LINE
  5
21C
100
AcDbEntity
  8
RACCORDO
100
AcDbLine
 62
253
  6
CONTINUOUS
 10
-9.179371834
 20
-24.2456323968
 11
-11.570628166
 21
-24.2456323968
  0
LINE
  5
21D
100
AcDbEntity
  8
RACCORDO
100
AcDbLine
 62
253
  6
CONTINUOUS
 10
-9.179371834
 20
-23.8443375673
 11
-11.570628166
 21
-23.8443375673
  0
LINE
  5
21E
100
AcDbEntity
  8
RACCORDO
100
AcDbLine
 62
253
  6
CONTINUOUS
 10
-11.5573926099
 20
-22.4
 11
-11.5748476749
 21
-22.3912731322
  0
LINE
  5
21F
100
AcDbEntity
  8
RACCORDO
100
AcDbLine
 62
253
  6
CONTINUOUS
 10
-9.4293676032
 20
-24.495628166
 11
-9.4249957692
 21
-24.5
  0
LINE
  5
220
100
AcDbEntity
  8
RACCORDO
100
AcDbLine
 62
253
  6
CONTINUOUS
 10
-9.179371834
 20
24.2456323968
 11
-9.175
 21
24.2500042308
  0
LINE
  5
221
100
AcDbEntity
  8
RACCORDO
100
AcDbLine
 62
7
  6
CONTINUOUS
 10
-9.0090245667
 20
20.9917082642
 11
-9.1715127091
 21
20.9104703804
  0
LINE
  5
222
100
AcDbEntity
  8
RACCORDO
100
AcDbLine
 62
7
  6
CONTINUOUS
 10
-9.0090245667
 20
21.4362803622
 11
-9.175
 21
21.3876583452
  0
LINE
  5
223
100
AcDbEntity
  8
DRAFT
100
AcDbLine
 62
7
  6
CONTINUOUS
 10
-5.325
 20
-23.8
 11
3.475
 21
-23.8
  0
LINE
  5
224
100
AcDbEntity
  8
DRAFT
100
AcDbLine
 62
7
  6
CONTINUOUS
 10
-4.425
 20
-23.7941821702
 11
2.575
 21
-23.7941821702
  0
LINE
  5
225
100
AcDbEntity
  8
ASSI
100
AcDbLine
 62
253
  6
CONTINUOUS
 10
-5.2813493531
 20
-23.7563493531
 11
-4.425
 21
-23.7563493531
  0
LINE
  5
226
100
AcDbEntity
  8
ASSI
100
AcDbLine
 62
253
  6
CONTINUOUS
 10
2.575
 20
-23.7563493531
 11
3.4313493531
 21
-23.7563493531
  0
LINE
  5
227
100
AcDbEntity
  8
RACCORDO
100
AcDbLine
 62
7
  6
CONTINUOUS
 10
7.5793676032
 20
-23.7
 11
9.4706323968
 21
-23.7
  0
LINE
  5
228
100
AcDbEntity
  8
RACCORDO
100
AcDbLine
 62
253
  6
CONTINUOUS
 10
-9.4293676032
 20
-23.6278312164
 11
-11.3206323968
 21
-23.6278312164
  0
LINE
  5
229
100
AcDbEntity
  8
RACCORDO
100
AcDbLine
 62
7
  6
CONTINUOUS
 10
9.4757229979
 20
-23.1226497308
 11
7.5742770021
 21
-23.1226497308
  0
LINE
  5
22A
100
AcDbEntity
  8
RACCORDO
100
AcDbLine
 62
7
  6
CONTINUOUS
 10
-9.4242770021
 20
-23.1226497308
 11
-11.3257229979
 21
-23.1226497308
  0
LINE
  5
22B
100
AcDbEntity
  8
DRAFT
100
AcDbLine
 62
7
  6
CONTINUOUS
 10
-9.175
 20
-22.4
 11
-5.325
 21
-22.4
  0
LINE
  5
22C
100
AcDbEntity
  8
RACCORDO
100
AcDbLine
 62
7
  6
CONTINUOUS
 10
9.7073926099
 20
-22.4
 11
7.325
 21
-22.4
  0
LINE
  5
22D
100
AcDbEntity
  8
DRAFT
100
AcDbLine
 62
7
  6
CONTINUOUS
 10
3.475
 20
-22.4
 11
7.325
 21
-22.4
  0
LINE
  5
22E
100
AcDbEntity
  8
RACCORDO
100
AcDbLine
 62
7
  6
CONTINUOUS
 10
-9.175
 20
-22.4
 11
-11.5573926099
 21
-22.4
  0
LINE
  5
22F
100
AcDbEntity
  8
RACCORDO
100
AcDbLine
 62
7
  6
CONTINUOUS
 10
-11.5748476749
 20
-22.3912731322
 11
-8.171385213
 21
-22.3912731322
  0
LINE
  5
230
100
AcDbEntity
  8
RACCORDO
100
AcDbLine
 62
7
  6
CONTINUOUS
 10
6.321385213
 20
-22.3912731322
 11
9.7248476749
 21
-22.3912731322
  0
LINE
  5
231
100
AcDbEntity
  8
DRAFT
100
AcDbLine
 62
7
  6
CONTINUOUS
 10
2.575
 20
-22.3380392387
 11
2.075
 21
-22.3380392387
  0
LINE
  5
232
100
AcDbEntity
  8
DRAFT
100
AcDbLine
 62
7
  6
CONTINUOUS
 10
-3.925
 20
-22.3380392387
 11
-4.425
 21
-22.3380392387
  0
LINE
  5
233
100
AcDbEntity
  8
RACCORDO
100
AcDbLine
 62
253
  6
CONTINUOUS
 10
-8.1388205855
 20
-22.3126551668
 11
-3.925
 21
-22.3126551668
  0
LINE
  5
234
100
AcDbEntity
  8
RACCORDO
100
AcDbLine
 62
253
  6
CONTINUOUS
 10
2.075
 20
-22.3126551668
 11
6.2888205855
 21
-22.3126551668
  0
LINE
  5
235
100
AcDbEntity
  8
RACCORDO
100
AcDbLine
 62
7
  6
CONTINUOUS
 10
-9.0090245667
 20
-21.4362803622
 11
-9.175
 21
-21.3876583452
  0
LINE
  5
236
100
AcDbEntity
  8
RACCORDO
100
AcDbLine
 62
7
  6
CONTINUOUS
 10
-9.0090245667
 20
-20.9917082642
 11
-9.1715127091
 21
-20.9104703804
  0
LINE
  5
237
100
AcDbEntity
  8
RACCORDO
100
AcDbLine
 62
253
  6
CONTINUOUS
 10
-9.179371834
 20
-24.2456323968
 11
-9.175
 21
-24.2500042308
  0
LINE
  5
238
100
AcDbEntity
  8
0
100
AcDbLine
 62
7
  6
CONTINUOUS
 10
-9.8248860669
 20
20.9
 11
-10.575
 21
20.1489710538
  0
LINE
  5
239
100
AcDbEntity
  8
CORPO
100
AcDbLine
 62
7
  6
CONTINUOUS
 10
-9.725
 20
20.85
 11
-11.4893027805
 21
19.0856972195
  0
LINE
  5
23A
100
AcDbEntity
  8
ASSI
100
AcDbLine
 62
7
  6
CONTINUOUS
 10
-9.725
 20
20.85
 11
-11.4893027805
 21
19.0856972195
  0
LINE
  5
23B
100
AcDbEntity
  8
DRAFT
100
AcDbLine
 62
7
  6
CONTINUOUS
 10
-9.175
 20
21.3876583452
 11
-8.171385213
 21
22.3912731322
  0
LINE
  5
23C
100
AcDbEntity
  8
CORPO
100
AcDbLine
 62
7
  6
CONTINUOUS
 10
-11.0100175454
 20
19.3181305591
 11
-9.4781481045
 21
20.85
  0
LINE
  5
23D
100
AcDbEntity
  8
ASSI
100
AcDbLine
 62
7
  6
CONTINUOUS
 10
-11.0100175454
 20
19.3181305591
 11
-9.4781481045
 21
20.85
  0
LINE
  5
23E
100
AcDbEntity
  8
CORPO
100
AcDbLine
 62
253
  6
CONTINUOUS
 10
-11.0700765893
 20
18.9120480454
 11
-10.9086696175
 21
19.0734550172
  0
LINE
  5
23F
100
AcDbEntity
  8
ASSI
100
AcDbLine
 62
253
  6
CONTINUOUS
 10
-11.0700765893
 20
18.9120480454
 11
-10.9086696175
 21
19.0734550172
  0
LINE
  5
240
100
AcDbEntity
  8
CORPO
100
AcDbLine
 62
253
  6
CONTINUOUS
 10
-10.3630775039
 20
18.20504896
 11
-10.2016705321
 21
18.3664559318
  0
LINE
  5
241
100
AcDbEntity
  8
ASSI
100
AcDbLine
 62
253
  6
CONTINUOUS
 10
-10.3630775039
 20
18.20504896
 11
-10.2016705321
 21
18.3664559318
  0
LINE
  5
242
100
AcDbEntity
  8
0
100
AcDbLine
 62
7
  6
CONTINUOUS
 10
2.075
 20
-21.7
 11
-3.925
 21
-21.7
  0
LINE
  5
243
100
AcDbEntity
  8
RACCORDO
100
AcDbLine
 62
253
  6
CONTINUOUS
 10
-8.5091007192
 20
-21.3126932437
 11
-3.925
 21
-21.3126932437
  0
LINE
  5
244
100
AcDbEntity
  8
RACCORDO
100
AcDbLine
 62
253
  6
CONTINUOUS
 10
2.075
 20
-21.3126932437
 11
6.6591007192
 21
-21.3126932437
  0
LINE
  5
245
100
AcDbEntity
  8
0
100
AcDbLine
 62
7
  6
CONTINUOUS
 10
-3.925
 20
-21.0
 11
2.075
 21
-21.0
  0
LINE
  5
246
100
AcDbEntity
  8
RACCORDO
100
AcDbLine
 62
7
  6
CONTINUOUS
 10
-8.5091007192
 20
-20.9959955457
 11
-8.1668217019
 21
-20.9959955457
  0
LINE
  5
247
100
AcDbEntity
  8
RACCORDO
100
AcDbLine
 62
7
  6
CONTINUOUS
 10
6.3168217019
 20
-20.9959955457
 11
6.6591007192
 21
-20.9959955457
  0
LINE
  5
248
100
AcDbEntity
  8
DRAFT
100
AcDbLine
 62
7
  6
CONTINUOUS
 10
-9.1715127091
 20
-20.9104703804
 11
-8.2238376746
 21
-20.9104703804
  0
LINE
  5
249
100
AcDbEntity
  8
DRAFT
100
AcDbLine
 62
7
  6
CONTINUOUS
 10
6.3738376746
 20
-20.9104703804
 11
7.3215127091
 21
-20.9104703804
  0
LINE
  5
24A
100
AcDbEntity
  8
0
100
AcDbLine
 62
7
  6
CONTINUOUS
 10
-9.8248860669
 20
-20.9
 11
-9.175
 21
-20.9
  0
LINE
  5
24B
100
AcDbEntity
  8
0
100
AcDbLine
 62
7
  6
CONTINUOUS
 10
7.325
 20
-20.9
 11
7.9748860669
 21
-20.9
  0
LINE
  5
24C
100
AcDbEntity
  8
CORPO
100
AcDbLine
 62
7
  6
CONTINUOUS
 10
6.475
 20
-20.85
 11
7.875
 21
-20.85
  0
LINE
  5
24D
100
AcDbEntity
  8
ASSI
100
AcDbLine
 62
7
  6
CONTINUOUS
 10
6.475
 20
-20.85
 11
7.875
 21
-20.85
  0
LINE
  5
24E
100
AcDbEntity
  8
CORPO
100
AcDbLine
 62
7
  6
CONTINUOUS
 10
-8.325
 20
-20.85
 11
-9.725
 21
-20.85
  0
LINE
  5
24F
100
AcDbEntity
  8
ASSI
100
AcDbLine
 62
7
  6
CONTINUOUS
 10
-8.325
 20
-20.85
 11
-9.725
 21
-20.85
  0
LINE
  5
250
100
AcDbEntity
  8
RACCORDO
100
AcDbLine
 62
253
  6
CONTINUOUS
 10
5.4331782981
 20
-20.5829242832
 11
-7.2831782981
 21
-20.5829242832
  0
LINE
  5
251
100
AcDbEntity
  8
0
100
AcDbLine
 62
253
  6
CONTINUOUS
 10
6.475
 20
-20.4584032484
 11
6.4240220113
 21
-20.4584032484
  0
LINE
  5
252
100
AcDbEntity
  8
RACCORDO
100
AcDbLine
 62
253
  6
CONTINUOUS
 10
-8.2740220113
 20
-20.4584032484
 11
-8.325
 21
-20.4584032484
  0
LINE
  5
253
100
AcDbEntity
  8
CORPO
100
AcDbLine
 62
7
  6
CONTINUOUS
 10
-11.4893027805
 20
-19.0856972195
 11
-9.725
 21
-20.85
  0
LINE
  5
254
100
AcDbEntity
  8
ASSI
100
AcDbLine
 62
7
  6
CONTINUOUS
 10
-11.4893027805
 20
-19.0856972195
 11
-9.725
 21
-20.85
  0
LINE
  5
255
100
AcDbEntity
  8
DRAFT
100
AcDbLine
 62
7
  6
CONTINUOUS
 10
-8.171385213
 20
-22.3912731322
 11
-9.175
 21
-21.3876583452
  0
LINE
  5
256
100
AcDbEntity
  8
CORPO
100
AcDbLine
 62
7
  6
CONTINUOUS
 10
-9.4781481045
 20
-20.85
 11
-11.0100175454
 21
-19.3181305591
  0
LINE
  5
257
100
AcDbEntity
  8
ASSI
100
AcDbLine
 62
7
  6
CONTINUOUS
 10
-9.4781481045
 20
-20.85
 11
-11.0100175454
 21
-19.3181305591
  0
LINE
  5
258
100
AcDbEntity
  8
CORPO
100
AcDbLine
 62
253
  6
CONTINUOUS
 10
-10.9086696175
 20
-19.0734550172
 11
-11.0700765893
 21
-18.9120480454
  0
LINE
  5
259
100
AcDbEntity
  8
ASSI
100
AcDbLine
 62
253
  6
CONTINUOUS
 10
-10.9086696175
 20
-19.0734550172
 11
-11.0700765893
 21
-18.9120480454
  0
LINE
  5
25A
100
AcDbEntity
  8
CORPO
100
AcDbLine
 62
253
  6
CONTINUOUS
 10
-10.2016705321
 20
-18.3664559318
 11
-10.3630775039
 21
-18.20504896
  0
LINE
  5
25B
100
AcDbEntity
  8
ASSI
100
AcDbLine
 62
253
  6
CONTINUOUS
 10
-10.2016705321
 20
-18.3664559318
 11
-10.3630775039
 21
-18.20504896
  0
LINE
  5
25C
100
AcDbEntity
  8
0
100
AcDbLine
 62
7
  6
CONTINUOUS
 10
-9.8248860669
 20
-20.9
 11
-10.575
 21
-20.1489710538
  0
LINE
  5
25D
100
AcDbEntity
  8
DRAFT
100
AcDbLine
 62
7
  6
CONTINUOUS
 10
-8.1668217019
 20
20.9959955457
 11
-8.2238376746
 21
20.9104703804
  0
LINE
  5
25E
100
AcDbEntity
  8
CORPO
100
AcDbLine
 62
7
  6
CONTINUOUS
 10
-8.325
 20
19.7
 11
-8.4140208311
 21
19.6109791689
  0
LINE
  5
25F
100
AcDbEntity
  8
ASSI
100
AcDbLine
 62
7
  6
CONTINUOUS
 10
-8.325
 20
19.7
 11
-8.4140208311
 21
19.6109791689
  0
LINE
  5
260
100
AcDbEntity
  8
RACCORDO
100
AcDbLine
 62
7
  6
CONTINUOUS
 10
-8.1679784985
 20
19.7570215015
 11
-8.225
 21
19.7
  0
LINE
  5
261
100
AcDbEntity
  8
RACCORDO
100
AcDbLine
 62
253
  6
CONTINUOUS
 10
5.430294768
 20
-20.0829433217
 11
-7.280294768
 21
-20.0829433217
  0
LINE
  5
262
100
AcDbEntity
  8
DRAFT
100
AcDbLine
 62
7
  6
CONTINUOUS
 10
1.575
 20
-20.0532338935
 11
1.5163111231
 21
-20.0532338935
  0
LINE
  5
263
100
AcDbEntity
  8
DRAFT
100
AcDbLine
 62
7
  6
CONTINUOUS
 10
-3.3663111231
 20
-20.0532338935
 11
-3.425
 21
-20.0532338935
  0
LINE
  5
264
100
AcDbEntity
  8
DRAFT
100
AcDbLine
 62
7
  6
CONTINUOUS
 10
-4.425
 20
-20.0
 11
-4.324351018
 21
-20.0
  0
LINE
  5
265
100
AcDbEntity
  8
DRAFT
100
AcDbLine
 62
7
  6
CONTINUOUS
 10
2.474351018
 20
-20.0
 11
2.575
 21
-20.0
  0
LINE
  5
266
100
AcDbEntity
  8
RACCORDO
100
AcDbLine
 62
253
  6
CONTINUOUS
 10
6.475
 20
-19.959088481
 11
6.4267786853
 21
-19.959088481
  0
LINE
  5
267
100
AcDbEntity
  8
RACCORDO
100
AcDbLine
 62
253
  6
CONTINUOUS
 10
-8.2767786853
 20
-19.959088481
 11
-8.325
 21
-19.959088481
  0
LINE
  5
268
100
AcDbEntity
  8
RACCORDO
100
AcDbLine
 62
253
  6
CONTINUOUS
 10
6.3168217019
 20
-19.9570181168
 11
5.4331782981
 21
-19.9570181168
  0
LINE
  5
269
100
AcDbEntity
  8
RACCORDO
100
AcDbLine
 62
253
  6
CONTINUOUS
 10
-7.2831782981
 20
-19.9570181168
 11
-8.1668217019
 21
-19.9570181168
  0
LINE
  5
26A
100
AcDbEntity
  8
0
100
AcDbLine
 62
253
  6
CONTINUOUS
 10
5.3261048448
 20
-19.9266562329
 11
2.4742152066
 21
-19.9266562329
  0
LINE
  5
26B
100
AcDbEntity
  8
0
100
AcDbLine
 62
253
  6
CONTINUOUS
 10
-4.3242152066
 20
-19.9266562329
 11
-7.1761048448
 21
-19.9266562329
  0
LINE
  5
26C
100
AcDbEntity
  8
CORPO
100
AcDbLine
 62
7
  6
CONTINUOUS
 10
-6.675
 20
-19.9
 11
-4.325
 21
-19.9
  0
LINE
  5
26D
100
AcDbEntity
  8
ASSI
100
AcDbLine
 62
7
  6
CONTINUOUS
 10
-6.675
 20
-19.9
 11
-4.3194894948
 21
-19.9
  0
LINE
  5
26E
100
AcDbEntity
  8
CORPO
100
AcDbLine
 62
7
  6
CONTINUOUS
 10
2.475
 20
-19.9
 11
4.825
 21
-19.9
  0
LINE
  5
26F
100
AcDbEntity
  8
ASSI
100
AcDbLine
 62
7
  6
CONTINUOUS
 10
2.4694894948
 20
-19.9
 11
4.825
 21
-19.9
  0
LINE
  5
270
100
AcDbEntity
  8
CORPO
100
AcDbLine
 62
7
  6
CONTINUOUS
 10
-3.3265242349
 20
-19.8844866796
 11
1.4765242349
 21
-19.8844866796
  0
LINE
  5
271
100
AcDbEntity
  8
ASSI
100
AcDbLine
 62
7
  6
CONTINUOUS
 10
-3.3265242349
 20
-19.8844866796
 11
1.4765242349
 21
-19.8844866796
  0
LINE
  5
272
100
AcDbEntity
  8
CORPO
100
AcDbLine
 62
7
  6
CONTINUOUS
 10
-6.5859791689
 20
-19.8109791689
 11
4.7359791689
 21
-19.8109791689
  0
LINE
  5
273
100
AcDbEntity
  8
ASSI
100
AcDbLine
 62
7
  6
CONTINUOUS
 10
-6.5859791689
 20
-19.8109791689
 11
4.7359791689
 21
-19.8109791689
  0
LINE
  5
274
100
AcDbEntity
  8
RACCORDO
100
AcDbLine
 62
253
  6
CONTINUOUS
 10
6.3179784985
 20
-19.7570215015
 11
5.4320215015
 21
-19.7570215015
  0
LINE
  5
275
100
AcDbEntity
  8
RACCORDO
100
AcDbLine
 62
253
  6
CONTINUOUS
 10
-7.2820215015
 20
-19.7570215015
 11
-8.1679784985
 21
-19.7570215015
  0
LINE
  5
276
100
AcDbEntity
  8
CORPO
100
AcDbLine
 62
7
  6
CONTINUOUS
 10
-8.325
 20
-19.7
 11
-6.675
 21
-19.7
  0
LINE
  5
277
100
AcDbEntity
  8
ASSI
100
AcDbLine
 62
7
  6
CONTINUOUS
 10
-8.325
 20
-19.7
 11
-6.675
 21
-19.7
  0
LINE
  5
278
100
AcDbEntity
  8
CORPO
100
AcDbLine
 62
7
  6
CONTINUOUS
 10
4.825
 20
-19.7
 11
6.475
 21
-19.7
  0
LINE
  5
279
100
AcDbEntity
  8
ASSI
100
AcDbLine
 62
7
  6
CONTINUOUS
 10
4.825
 20
-19.7
 11
6.475
 21
-19.7
  0
LINE
  5
27A
100
AcDbEntity
  8
CORPO
100
AcDbLine
 62
7
  6
CONTINUOUS
 10
8.45301846
 20
-19.6109791689
 11
6.5640208311
 21
-19.6109791689
  0
LINE
  5
27B
100
AcDbEntity
  8
CORPO
100
AcDbLine
 62
7
  6
CONTINUOUS
 10
-6.5859791689
 20
-19.6109791689
 11
4.7359791689
 21
-19.6109791689
  0
LINE
  5
27C
100
AcDbEntity
  8
ASSI
100
AcDbLine
 62
7
  6
CONTINUOUS
 10
8.45301846
 20
-19.6109791689
 11
6.5640208311
 21
-19.6109791689
  0
LINE
  5
27D
100
AcDbEntity
  8
ASSI
100
AcDbLine
 62
7
  6
CONTINUOUS
 10
-6.5859791689
 20
-19.6109791689
 11
4.7359791689
 21
-19.6109791689
  0
LINE
  5
27E
100
AcDbEntity
  8
CORPO
100
AcDbLine
 62
7
  6
CONTINUOUS
 10
-8.4140208311
 20
-19.6109791689
 11
-10.30301846
 21
-19.6109791689
  0
LINE
  5
27F
100
AcDbEntity
  8
ASSI
100
AcDbLine
 62
7
  6
CONTINUOUS
 10
-8.4140208311
 20
-19.6109791689
 11
-10.30301846
 21
-19.6109791689
  0
LINE
  5
280
100
AcDbEntity
  8
CORPO
100
AcDbLine
 62
253
  6
CONTINUOUS
 10
8.3516705321
 20
-19.366303627
 11
2.4845454877
 21
-19.366303627
  0
LINE
  5
281
100
AcDbEntity
  8
ASSI
100
AcDbLine
 62
253
  6
CONTINUOUS
 10
8.3516705321
 20
-19.366303627
 11
2.4845454877
 21
-19.366303627
  0
LINE
  5
282
100
AcDbEntity
  8
CORPO
100
AcDbLine
 62
253
  6
CONTINUOUS
 10
-4.3345454877
 20
-19.366303627
 11
-10.2016705321
 21
-19.366303627
  0
LINE
  5
283
100
AcDbEntity
  8
ASSI
100
AcDbLine
 62
253
  6
CONTINUOUS
 10
-4.3345454877
 20
-19.366303627
 11
-10.2016705321
 21
-19.366303627
  0
LINE
  5
284
100
AcDbEntity
  8
CORPO
100
AcDbLine
 62
253
  6
CONTINUOUS
 10
8.3516705321
 20
-18.3664559318
 11
1.9158357334
 21
-18.3664559318
  0
LINE
  5
285
100
AcDbEntity
  8
ASSI
100
AcDbLine
 62
253
  6
CONTINUOUS
 10
8.3516705321
 20
-18.3664559318
 11
1.9158357334
 21
-18.3664559318
  0
LINE
  5
286
100
AcDbEntity
  8
CORPO
100
AcDbLine
 62
253
  6
CONTINUOUS
 10
-3.7658357334
 20
-18.3664559318
 11
-10.2016705321
 21
-18.3664559318
  0
LINE
  5
287
100
AcDbEntity
  8
ASSI
100
AcDbLine
 62
253
  6
CONTINUOUS
 10
-3.7658357334
 20
-18.3664559318
 11
-10.2016705321
 21
-18.3664559318
  0
LINE
  5
288
100
AcDbEntity
  8
CORPO
100
AcDbLine
 62
7
  6
CONTINUOUS
 10
1.8774659223
 20
-18.3
 11
-3.7274659223
 21
-18.3
  0
LINE
  5
289
100
AcDbEntity
  8
ASSI
100
AcDbLine
 62
7
  6
CONTINUOUS
 10
1.8774659223
 20
-18.3
 11
-3.7274659223
 21
-18.3
  0
LINE
  5
28A
100
AcDbEntity
  8
CORPO
100
AcDbLine
 62
7
  6
CONTINUOUS
 10
-8.325
 20
-19.7
 11
-8.4140208311
 21
-19.6109791689
  0
LINE
  5
28B
100
AcDbEntity
  8
ASSI
100
AcDbLine
 62
7
  6
CONTINUOUS
 10
-8.325
 20
-19.7
 11
-8.4140208311
 21
-19.6109791689
  0
LINE
  5
28C
100
AcDbEntity
  8
RACCORDO
100
AcDbLine
 62
7
  6
CONTINUOUS
 10
-8.1679784985
 20
-19.7570215015
 11
-8.225
 21
-19.7
  0
LINE
  5
28D
100
AcDbEntity
  8
DRAFT
100
AcDbLine
 62
7
  6
CONTINUOUS
 10
-8.1668217019
 20
-20.9959955457
 11
-8.2238376746
 21
-20.9104703804
  0
LINE
  5
28E
100
AcDbEntity
  8
CORPO
100
AcDbLine
 62
7
  6
CONTINUOUS
 10
-4.325
 20
19.9
 11
-4.3241663033
 21
19.9008336967
  0
LINE
  5
28F
100
AcDbEntity
  8
CORPO
100
AcDbLine
 62
7
  6
CONTINUOUS
 10
-3.7274659223
 20
17.7912732553
 11
-3.68339524
 21
17.8206532958
  0
LINE
  5
290
100
AcDbEntity
  8
ASSI
100
AcDbLine
 62
7
  6
CONTINUOUS
 10
-3.7274659223
 20
17.7912732553
 11
-3.68339524
 21
17.8206532958
  0
LINE
  5
291
100
AcDbEntity
  8
CORPO
100
AcDbLine
 62
7
  6
CONTINUOUS
 10
-3.7274659223
 20
-17.7912732553
 11
1.8774659223
 21
-17.7912732553
  0
LINE
  5
292
100
AcDbEntity
  8
ASSI
100
AcDbLine
 62
7
  6
CONTINUOUS
 10
-3.7274659223
 20
-17.7912732553
 11
1.8774659223
 21
-17.7912732553
  0
LINE
  5
293
100
AcDbEntity
  8
CORPO
100
AcDbLine
 62
253
  6
CONTINUOUS
 10
-11.6557738088
 20
-17.4980498746
 11
-10.6559261137
 21
-17.4980498746
  0
LINE
  5
294
100
AcDbEntity
  8
ASSI
100
AcDbLine
 62
253
  6
CONTINUOUS
 10
-11.6557738088
 20
-17.4980498746
 11
-10.6559261137
 21
-17.4980498746
  0
LINE
  5
295
100
AcDbEntity
  8
CORPO
100
AcDbLine
 62
253
  6
CONTINUOUS
 10
9.8057738088
 20
-17.4980498746
 11
8.8059261137
 21
-17.4980498746
  0
LINE
  5
296
100
AcDbEntity
  8
ASSI
100
AcDbLine
 62
253
  6
CONTINUOUS
 10
9.8057738088
 20
-17.4980498746
 11
8.8059261137
 21
-17.4980498746
  0
LINE
  5
297
100
AcDbEntity
  8
CORPO
100
AcDbLine
 62
7
  6
CONTINUOUS
 10
-3.68339524
 20
-17.8206532958
 11
-3.7274659223
 21
-17.7912732553
  0
LINE
  5
298
100
AcDbEntity
  8
ASSI
100
AcDbLine
 62
7
  6
CONTINUOUS
 10
-3.68339524
 20
-17.8206532958
 11
-3.7274659223
 21
-17.7912732553
  0
LINE
  5
299
100
AcDbEntity
  8
CORPO
100
AcDbLine
 62
7
  6
CONTINUOUS
 10
-4.325
 20
-19.9
 11
-4.3241663033
 21
-19.9008336967
  0
LINE
  5
29A
100
AcDbEntity
  8
DRAFT
100
AcDbLine
 62
7
  6
CONTINUOUS
 10
-9.1715127091
 20
20.9104703804
 11
-9.175
 21
20.9
  0
LINE
  5
29B
100
AcDbEntity
  8
CURVE
100
AcDbLine
 62
253
  6
CONTINUOUS
 10
10.0838633323
 20
-16.042857337
 11
10.0720188239
 21
-16.042857337
  0
LINE
  5
29C
100
AcDbEntity
  8
CURVE
100
AcDbLine
 62
253
  6
CONTINUOUS
 10
10.0980767424
 20
-15.9976189613
 11
10.0909700369
 21
-15.9976189613
  0
LINE
  5
29D
100
AcDbEntity
  8
CURVE
100
AcDbLine
 62
253
  6
CONTINUOUS
 10
9.88467921
 20
-15.523604
 11
9.8758987014
 21
-15.523604
  0
LINE
  5
29E
100
AcDbEntity
  8
CURVE
100
AcDbLine
 62
253
  6
CONTINUOUS
 10
-12.0121617663
 20
-15.4571428329
 11
-11.9789971429
 21
-15.4571428329
  0
LINE
  5
29F
100
AcDbEntity
  8
CURVE
100
AcDbLine
 62
253
  6
CONTINUOUS
 10
-11.9837349464
 20
-14.9142856658
 11
-11.9955794546
 21
-14.9142856658
  0
LINE
  5
2A0
100
AcDbEntity
  8
CURVE
100
AcDbLine
 62
253
  6
CONTINUOUS
 10
10.0838633323
 20
-14.685714221
 11
10.0720188239
 21
-14.685714221
  0
LINE
  5
2A1
100
AcDbEntity
  8
CURVE
100
AcDbLine
 62
253
  6
CONTINUOUS
 10
10.0980767424
 20
-14.6404762983
 11
10.0909700369
 21
-14.6404762983
  0
LINE
  5
2A2
100
AcDbEntity
  8
DRAFT
100
AcDbLine
 62
7
  6
CONTINUOUS
 10
-9.1715127091
 20
-20.9104703804
 11
-9.175
 21
-20.9
  0
LINE
  5
2A3
100
AcDbEntity
  8
CURVE
100
AcDbLine
 62
253
  6
CONTINUOUS
 10
-11.9789971429
 20
-13.4214286685
 11
-12.0121617663
 21
-12.8785713315
  0
LINE
  5
2A4
100
AcDbEntity
  8
ASSI
100
AcDbLine
 62
7
  6
CONTINUOUS
 10
3.475
 20
23.8
 11
3.4313493531
 21
23.7563493531
  0
LINE
  5
2A5
100
AcDbEntity
  8
CORPO
100
AcDbLine
 62
253
  6
CONTINUOUS
 10
9.6393027805
 20
19.0856972195
 11
9.2200765893
 21
18.9120480454
  0
LINE
  5
2A6
100
AcDbEntity
  8
ASSI
100
AcDbLine
 62
253
  6
CONTINUOUS
 10
9.6393027805
 20
19.0856972195
 11
9.2200765893
 21
18.9120480454
  0
LINE
  5
2A7
100
AcDbEntity
  8
0
100
AcDbLine
 62
7
  6
CONTINUOUS
 10
1.8137792639
 20
-13.5474643724
 11
1.9867714323
 21
-13.5011112606
  0
LINE
  5
2A8
100
AcDbEntity
  8
CURVE
100
AcDbLine
 62
253
  6
CONTINUOUS
 10
9.8758987014
 20
-14.138918
 11
9.8985902858
 21
-14.138918
  0
LINE
  5
2A9
100
AcDbEntity
  8
CURVE
100
AcDbLine
 62
253
  6
CONTINUOUS
 10
-11.993210553
 20
-13.964285779
 11
-11.9837349464
 21
-13.964285779
  0
LINE
  5
2AA
100
AcDbEntity
  8
ASSI
100
AcDbLine
 62
7
  6
CONTINUOUS
 10
-4.0156984692
 20
-13.45
 11
-3.6658014299
 21
-13.45
  0
LINE
  5
2AB
100
AcDbEntity
  8
0
100
AcDbLine
 62
7
  6
CONTINUOUS
 10
-3.6282798031
 20
-13.45
 11
-2.8343051603
 21
-13.45
  0
LINE
  5
2AC
100
AcDbEntity
  8
0
100
AcDbLine
 62
7
  6
CONTINUOUS
 10
0.9843051603
 20
-13.45
 11
1.7680029734
 21
-13.45
  0
LINE
  5
2AD
100
AcDbEntity
  8
ASSI
100
AcDbLine
 62
7
  6
CONTINUOUS
 10
1.8158014299
 20
-13.45
 11
2.1656984692
 21
-13.45
  0
LINE
  5
2AE
100
AcDbEntity
  8
0
100
AcDbLine
 62
253
  6
CONTINUOUS
 10
-4.1260110554
 20
-13.4
 11
-2.7239714452
 21
-13.4
  0
LINE
  5
2AF
100
AcDbEntity
  8
0
100
AcDbLine
 62
253
  6
CONTINUOUS
 10
0.8739714452
 20
-13.4
 11
2.2760110554
 21
-13.4
  0
LINE
  5
2B0
100
AcDbEntity
  8
CURVE
100
AcDbLine
 62
253
  6
CONTINUOUS
 10
10.0933389394
 20
-13.3285713315
 11
10.0980767424
 21
-13.3285713315
  0
LINE
  5
2B1
100
AcDbEntity
  8
CURVE
100
AcDbLine
 62
253
  6
CONTINUOUS
 10
10.1796014306
 20
-12.911198
 11
10.1289971429
 21
-12.911198
  0
LINE
  5
2B2
100
AcDbEntity
  8
0
100
AcDbLine
 62
253
  6
CONTINUOUS
 10
2.8586256189
 20
-12.896539715
 11
2.575
 21
-12.896539715
  0
LINE
  5
2B3
100
AcDbEntity
  8
0
100
AcDbLine
 62
253
  6
CONTINUOUS
 10
-4.425
 20
-12.896539715
 11
-4.7086256189
 21
-12.896539715
  0
LINE
  5
2B4
100
AcDbEntity
  8
RACCORDO
100
AcDbLine
 62
7
  6
CONTINUOUS
 10
2.910063789
 20
-12.8179674428
 11
2.575
 21
-12.8179674428
  0
LINE
  5
2B5
100
AcDbEntity
  8
RACCORDO
100
AcDbLine
 62
7
  6
CONTINUOUS
 10
-4.425
 20
-12.8179674428
 11
-4.760063789
 21
-12.8179674428
  0
LINE
  5
2B6
100
AcDbEntity
  8
0
100
AcDbLine
 62
7
  6
CONTINUOUS
 10
-3.8367714323
 20
-13.5011112606
 11
-3.6637792639
 21
-13.5474643724
  0
LINE
  5
2B7
100
AcDbEntity
  8
CORPO
100
AcDbLine
 62
253
  6
CONTINUOUS
 10
9.2200765893
 20
-18.9120480454
 11
9.6393027805
 21
-19.0856972195
  0
LINE
  5
2B8
100
AcDbEntity
  8
ASSI
100
AcDbLine
 62
253
  6
CONTINUOUS
 10
9.2200765893
 20
-18.9120480454
 11
9.6393027805
 21
-19.0856972195
  0
LINE
  5
2B9
100
AcDbEntity
  8
ASSI
100
AcDbLine
 62
7
  6
CONTINUOUS
 10
3.475
 20
-23.8
 11
3.4313493531
 21
-23.7563493531
  0
LINE
  5
2BA
100
AcDbEntity
  8
CURVE
100
AcDbLine
 62
253
  6
CONTINUOUS
 10
-12.0121617663
 20
-4.871428442
 11
-11.9789971429
 21
-5.414285326
  0
LINE
  5
2BB
100
AcDbEntity
  8
CURVE
100
AcDbLine
 62
253
  6
CONTINUOUS
 10
-11.9955794546
 20
-14.9142856658
 11
-12.0050550607
 21
-14.6428571105
  0
LINE
  5
2BC
100
AcDbEntity
  8
CURVE
100
AcDbLine
 62
253
  6
CONTINUOUS
 10
-12.0026861601
 20
-7.45
 11
-12.0074239632
 21
-7.314285326
  0
LINE
  5
2BD
100
AcDbEntity
  8
CURVE
100
AcDbLine
 62
253
  6
CONTINUOUS
 10
-11.98847275
 20
-6.5
 11
-11.9837349464
 21
-6.635714674
  0
LINE
  5
2BE
100
AcDbEntity
  8
CURVE
100
AcDbLine
 62
253
  6
CONTINUOUS
 10
-12.0121617663
 20
-10.028571558
 11
-12.0050550607
 21
-10.3
  0
LINE
  5
2BF
100
AcDbEntity
  8
CURVE
100
AcDbLine
 62
253
  6
CONTINUOUS
 10
-11.9789971429
 20
-10.3
 11
-12.0026861601
 21
-9.35
  0
LINE
  5
2C0
100
AcDbEntity
  8
CURVE
100
AcDbLine
 62
253
  6
CONTINUOUS
 10
-12.0026861601
 20
-16.0
 11
-12.0121617663
 21
-15.4571428329
  0
LINE
  5
2C1
100
AcDbEntity
  8
CURVE
100
AcDbLine
 62
253
  6
CONTINUOUS
 10
-12.0050550607
 20
-14.6428571105
 11
-12.0121617663
 21
-14.2357143342
  0
LINE
  5
2C2
100
AcDbEntity
  8
CURVE
100
AcDbLine
 62
253
  6
CONTINUOUS
 10
-11.9837349464
 20
-13.964285779
 11
-11.9789971429
 21
-14.2357143342
  0
LINE
  5
2C3
100
AcDbEntity
  8
CURVE
100
AcDbLine
 62
253
  6
CONTINUOUS
 10
-12.0074239632
 20
-7.314285326
 11
-12.0121617663
 21
-7.042856884
  0
LINE
  5
2C4
100
AcDbEntity
  8
CURVE
100
AcDbLine
 62
253
  6
CONTINUOUS
 10
-11.9837349464
 20
-7.992856884
 11
-11.9789971429
 21
-8.264285326
  0
LINE
  5
2C5
100
AcDbEntity
  8
CURVE
100
AcDbLine
 62
253
  6
CONTINUOUS
 10
-11.9837349464
 20
-6.635714674
 11
-11.9789971429
 21
-6.907143116
  0
LINE
  5
2C6
100
AcDbEntity
  8
RACCORDO
100
AcDbLine
 62
253
  6
CONTINUOUS
 10
-11.570628166
 20
-23.8443375673
 11
-11.575
 21
-23.4104851482
  0
LINE
  5
2C7
100
AcDbEntity
  8
RACCORDO
100
AcDbLine
 62
253
  6
CONTINUOUS
 10
-11.3206323968
 20
-23.6278312164
 11
-11.3257229979
 21
-23.1226497308
  0
LINE
  5
2C8
100
AcDbEntity
  8
CURVE
100
AcDbLine
 62
253
  6
CONTINUOUS
 10
-11.9892623838
 20
-4.328571558
 11
-11.9916312854
 21
-4.0119051933
  0
LINE
  5
2C9
100
AcDbEntity
  8
CURVE
100
AcDbLine
 62
253
  6
CONTINUOUS
 10
-11.9868934818
 20
-3.65
 11
-11.9892623838
 21
-3.2880948067
  0
LINE
  5
2CA
100
AcDbEntity
  8
CORPO
100
AcDbLine
 62
7
  6
CONTINUOUS
 10
-12.075
 20
17.6716990487
 11
-12.075
 21
-17.6716990487
  0
LINE
  5
2CB
100
AcDbEntity
  8
ASSI
100
AcDbLine
 62
7
  6
CONTINUOUS
 10
-12.075
 20
17.6716990487
 11
-12.075
 21
-17.6716990487
  0
LINE
  5
2CC
100
AcDbEntity
  8
RACCORDO
100
AcDbLine
 62
7
  6
CONTINUOUS
 10
-12.075
 20
21.8911779406
 11
-12.075
 21
-21.8911779406
  0
LINE
  5
2CD
100
AcDbEntity
  8
CURVE
100
AcDbLine
 62
253
  6
CONTINUOUS
 10
-12.0121617663
 20
-7.992856884
 11
-12.0121617663
 21
-8.807142663
  0
LINE
  5
2CE
100
AcDbEntity
  8
CURVE
100
AcDbLine
 62
253
  6
CONTINUOUS
 10
-12.0121617663
 20
-9.621428442
 11
-12.0121617663
 21
-10.028571558
  0
LINE
  5
2CF
100
AcDbEntity
  8
CURVE
100
AcDbLine
 62
253
  6
CONTINUOUS
 10
-12.0121617663
 20
-7.042856884
 11
-12.0121617663
 21
-6.907143116
  0
LINE
  5
2D0
100
AcDbEntity
  8
CURVE
100
AcDbLine
 62
253
  6
CONTINUOUS
 10
-11.9979483571
 20
-14.8238094807
 11
-11.9979483571
 21
-14.2357143342
  0
LINE
  5
2D1
100
AcDbEntity
  8
CURVE
100
AcDbLine
 62
253
  6
CONTINUOUS
 10
-11.9979483571
 20
-8.807142663
 11
-11.9979483571
 21
-8.264285326
  0
LINE
  5
2D2
100
AcDbEntity
  8
CURVE
100
AcDbLine
 62
253
  6
CONTINUOUS
 10
-11.98847275
 20
-12.5166665912
 11
-11.98847275
 21
-13.2404762983
  0
LINE
  5
2D3
100
AcDbEntity
  8
CURVE
100
AcDbLine
 62
253
  6
CONTINUOUS
 10
-11.9789971429
 20
-6.907143116
 11
-11.9789971429
 21
-7.042856884
  0
LINE
  5
2D4
100
AcDbEntity
  8
CURVE
100
AcDbLine
 62
253
  6
CONTINUOUS
 10
-11.9789971429
 20
-8.264285326
 11
-11.9789971429
 21
-8.807142663
  0
LINE
  5
2D5
100
AcDbEntity
  8
CURVE
100
AcDbLine
 62
253
  6
CONTINUOUS
 10
-11.9789971429
 20
-9.35
 11
-11.9789971429
 21
-10.3
  0
LINE
  5
2D6
100
AcDbEntity
  8
CURVE
100
AcDbLine
 62
253
  6
CONTINUOUS
 10
-11.9789971429
 20
-14.2357143342
 11
-11.9789971429
 21
-14.6428571105
  0
LINE
  5
2D7
100
AcDbEntity
  8
CORPO
100
AcDbLine
 62
253
  6
CONTINUOUS
 10
-11.6557738088
 20
-17.4980498746
 11
-11.6557738088
 21
17.4980498746
  0
LINE
  5
2D8
100
AcDbEntity
  8
ASSI
100
AcDbLine
 62
253
  6
CONTINUOUS
 10
-11.6557738088
 20
-17.4980498746
 11
-11.6557738088
 21
17.4980498746
  0
LINE
  5
2D9
100
AcDbEntity
  8
RACCORDO
100
AcDbLine
 62
7
  6
CONTINUOUS
 10
-11.575
 20
-22.399689968
 11
-11.575
 21
-24.2500042308
  0
LINE
  5
2DA
100
AcDbEntity
  8
RACCORDO
100
AcDbLine
 62
7
  6
CONTINUOUS
 10
-11.575
 20
22.399689968
 11
-11.575
 21
24.2500042308
  0
LINE
  5
2DB
100
AcDbEntity
  8
RACCORDO
100
AcDbLine
 62
253
  6
CONTINUOUS
 10
-11.570628166
 20
24.2456323968
 11
-11.570628166
 21
23.8443375673
  0
LINE
  5
2DC
100
AcDbEntity
  8
RACCORDO
100
AcDbLine
 62
253
  6
CONTINUOUS
 10
-11.570628166
 20
-23.8443375673
 11
-11.570628166
 21
-24.2456323968
  0
LINE
  5
2DD
100
AcDbEntity
  8
RACCORDO
100
AcDbLine
 62
253
  6
CONTINUOUS
 10
-11.3206323968
 20
-23.6278312164
 11
-11.3206323968
 21
-24.495628166
  0
LINE
  5
2DE
100
AcDbEntity
  8
RACCORDO
100
AcDbLine
 62
253
  6
CONTINUOUS
 10
-11.3206323968
 20
23.6278312164
 11
-11.3206323968
 21
24.495628166
  0
LINE
  5
2DF
100
AcDbEntity
  8
RACCORDO
100
AcDbLine
 62
253
  6
CONTINUOUS
 10
-11.575
 20
23.4104851482
 11
-11.570628166
 21
23.8443375673
  0
LINE
  5
2E0
100
AcDbEntity
  8
RACCORDO
100
AcDbLine
 62
253
  6
CONTINUOUS
 10
-11.3257229979
 20
23.1226497308
 11
-11.3206323968
 21
23.6278312164
  0
LINE
  5
2E1
100
AcDbEntity
  8
CURVE
100
AcDbLine
 62
253
  6
CONTINUOUS
 10
-11.9916312854
 20
-4.0119051933
 11
-11.9868934818
 21
-3.65
  0
LINE
  5
2E2
100
AcDbEntity
  8
CURVE
100
AcDbLine
 62
253
  6
CONTINUOUS
 10
-12.0121617663
 20
-6.907143116
 11
-12.0074239632
 21
-6.635714674
  0
LINE
  5
2E3
100
AcDbEntity
  8
CURVE
100
AcDbLine
 62
253
  6
CONTINUOUS
 10
-11.9789971429
 20
-7.042856884
 11
-11.9837349464
 21
-7.314285326
  0
LINE
  5
2E4
100
AcDbEntity
  8
CURVE
100
AcDbLine
 62
253
  6
CONTINUOUS
 10
-11.9979483571
 20
-8.264285326
 11
-11.993210553
 21
-7.992856884
  0
LINE
  5
2E5
100
AcDbEntity
  8
CURVE
100
AcDbLine
 62
253
  6
CONTINUOUS
 10
-12.0074239632
 20
-9.35
 11
-12.0121617663
 21
-9.621428442
  0
LINE
  5
2E6
100
AcDbEntity
  8
CURVE
100
AcDbLine
 62
253
  6
CONTINUOUS
 10
-11.9979483571
 20
-14.2357143342
 11
-11.993210553
 21
-13.964285779
  0
LINE
  5
2E7
100
AcDbEntity
  8
CURVE
100
AcDbLine
 62
253
  6
CONTINUOUS
 10
-11.9789971429
 20
-14.6428571105
 11
-11.9837349464
 21
-14.9142856658
  0
LINE
  5
2E8
100
AcDbEntity
  8
CURVE
100
AcDbLine
 62
253
  6
CONTINUOUS
 10
-12.0074239632
 20
-6.635714674
 11
-12.0026861601
 21
-6.5
  0
LINE
  5
2E9
100
AcDbEntity
  8
CURVE
100
AcDbLine
 62
253
  6
CONTINUOUS
 10
-11.9837349464
 20
-7.314285326
 11
-11.98847275
 21
-7.45
  0
LINE
  5
2EA
100
AcDbEntity
  8
CURVE
100
AcDbLine
 62
253
  6
CONTINUOUS
 10
-11.9789971429
 20
-5.414285326
 11
-12.0121617663
 21
-5.957143116
  0
LINE
  5
2EB
100
AcDbEntity
  8
CURVE
100
AcDbLine
 62
253
  6
CONTINUOUS
 10
-12.0121617663
 20
-12.8785713315
 11
-11.9789971429
 21
-12.335714221
  0
LINE
  5
2EC
100
AcDbEntity
  8
CORPO
100
AcDbLine
 62
253
  6
CONTINUOUS
 10
-1.502993541
 20
13.8245670413
 11
-1.2862459851
 21
14.0303262066
  0
LINE
  5
2ED
100
AcDbEntity
  8
ASSI
100
AcDbLine
 62
253
  6
CONTINUOUS
 10
-1.502993541
 20
13.8245670413
 11
-1.2862459851
 21
14.0303262066
  0
LINE
  5
2EE
100
AcDbEntity
  8
CORPO
100
AcDbLine
 62
253
  6
CONTINUOUS
 10
10.225
 20
17.6716990487
 11
9.8057738088
 21
17.4980498746
  0
LINE
  5
2EF
100
AcDbEntity
  8
ASSI
100
AcDbLine
 62
253
  6
CONTINUOUS
 10
10.225
 20
17.6716990487
 11
9.8057738088
 21
17.4980498746
  0
LINE
  5
2F0
100
AcDbEntity
  8
CURVE
100
AcDbLine
 62
253
  6
CONTINUOUS
 10
10.1394999196
 20
-12.328754
 11
10.1796014306
 21
-12.328754
  0
LINE
  5
2F1
100
AcDbEntity
  8
0
100
AcDbLine
 62
7
  6
CONTINUOUS
 10
-4.925
 20
-12.25
 11
-4.425
 21
-12.25
  0
LINE
  5
2F2
100
AcDbEntity
  8
0
100
AcDbLine
 62
7
  6
CONTINUOUS
 10
2.575
 20
-12.25
 11
3.075
 21
-12.25
  0
LINE
  5
2F3
100
AcDbEntity
  8
CURVE
100
AcDbLine
 62
253
  6
CONTINUOUS
 10
9.8985902858
 20
-12.152652
 11
9.8758987014
 21
-12.152652
  0
LINE
  5
2F4
100
AcDbEntity
  8
CURVE
100
AcDbLine
 62
253
  6
CONTINUOUS
 10
10.0862322338
 20
-11.5190476298
 11
10.0696499221
 21
-11.5190476298
  0
LINE
  5
2F5
100
AcDbEntity
  8
CURVE
100
AcDbLine
 62
253
  6
CONTINUOUS
 10
9.8758987014
 20
-11.348712
 11
9.8985902858
 21
-11.348712
  0
LINE
  5
2F6
100
AcDbEntity
  8
CURVE
100
AcDbLine
 62
253
  6
CONTINUOUS
 10
10.1713494969
 20
-10.87477
 11
10.1289971429
 21
-10.87477
  0
LINE
  5
2F7
100
AcDbEntity
  8
CORPO
100
AcDbLine
 62
253
  6
CONTINUOUS
 10
9.8057738088
 20
-17.4980498746
 11
10.225
 21
-17.6716990487
  0
LINE
  5
2F8
100
AcDbEntity
  8
ASSI
100
AcDbLine
 62
253
  6
CONTINUOUS
 10
9.8057738088
 20
-17.4980498746
 11
10.225
 21
-17.6716990487
  0
LINE
  5
2F9
100
AcDbEntity
  8
CORPO
100
AcDbLine
 62
253
  6
CONTINUOUS
 10
-1.5029935412
 20
-13.8245670411
 11
-1.2862459852
 21
-14.0303262057
  0
LINE
  5
2FA
100
AcDbEntity
  8
ASSI
100
AcDbLine
 62
253
  6
CONTINUOUS
 10
-1.5029935412
 20
-13.8245670411
 11
-1.2862459852
 21
-14.0303262057
  0
LINE
  5
2FB
100
AcDbEntity
  8
RACCORDO
100
AcDbLine
 62
253
  6
CONTINUOUS
 10
-9.4293676032
 20
23.6278312164
 11
-9.4242770021
 21
23.1226497308
  0
LINE
  5
2FC
100
AcDbEntity
  8
CORPO
100
AcDbLine
 62
253
  6
CONTINUOUS
 10
-10.6559261137
 20
-17.4980498746
 11
-10.6559261137
 21
17.4980498746
  0
LINE
  5
2FD
100
AcDbEntity
  8
ASSI
100
AcDbLine
 62
253
  6
CONTINUOUS
 10
-10.6559261137
 20
-17.4980498746
 11
-10.6559261137
 21
17.4980498746
  0
LINE
  5
2FE
100
AcDbEntity
  8
0
100
AcDbLine
 62
7
  6
CONTINUOUS
 10
-10.575
 20
-20.1489710538
 11
-10.575
 21
-20.0
  0
LINE
  5
2FF
100
AcDbEntity
  8
0
100
AcDbLine
 62
7
  6
CONTINUOUS
 10
-10.575
 20
20.0
 11
-10.575
 21
20.1489710538
  0
LINE
  5
300
100
AcDbEntity
  8
CORPO
100
AcDbLine
 62
253
  6
CONTINUOUS
 10
-10.2016705321
 20
19.366303627
 11
-10.2016705321
 21
18.3664559318
  0
LINE
  5
301
100
AcDbEntity
  8
ASSI
100
AcDbLine
 62
253
  6
CONTINUOUS
 10
-10.2016705321
 20
19.366303627
 11
-10.2016705321
 21
18.3664559318
  0
LINE
  5
302
100
AcDbEntity
  8
CORPO
100
AcDbLine
 62
253
  6
CONTINUOUS
 10
-10.2016705321
 20
-19.366303627
 11
-10.2016705321
 21
-18.3664559318
  0
LINE
  5
303
100
AcDbEntity
  8
ASSI
100
AcDbLine
 62
253
  6
CONTINUOUS
 10
-10.2016705321
 20
-19.366303627
 11
-10.2016705321
 21
-18.3664559318
  0
LINE
  5
304
100
AcDbEntity
  8
RACCORDO
100
AcDbLine
 62
253
  6
CONTINUOUS
 10
-9.4293676032
 20
-23.6278312164
 11
-9.4293676032
 21
-24.495628166
  0
LINE
  5
305
100
AcDbEntity
  8
RACCORDO
100
AcDbLine
 62
253
  6
CONTINUOUS
 10
-9.4293676032
 20
23.6278312164
 11
-9.4293676032
 21
24.495628166
  0
LINE
  5
306
100
AcDbEntity
  8
RACCORDO
100
AcDbLine
 62
253
  6
CONTINUOUS
 10
-9.179371834
 20
-24.2456323968
 11
-9.179371834
 21
-23.8443375673
  0
LINE
  5
307
100
AcDbEntity
  8
RACCORDO
100
AcDbLine
 62
253
  6
CONTINUOUS
 10
-9.179371834
 20
23.8443375673
 11
-9.179371834
 21
24.2456323968
  0
LINE
  5
308
100
AcDbEntity
  8
DRAFT
100
AcDbLine
 62
7
  6
CONTINUOUS
 10
-9.175
 20
-21.3876583452
 11
-9.175
 21
-20.9
  0
LINE
  5
309
100
AcDbEntity
  8
RACCORDO
100
AcDbLine
 62
7
  6
CONTINUOUS
 10
-9.175
 20
-22.4
 11
-9.175
 21
-24.2500042308
  0
LINE
  5
30A
100
AcDbEntity
  8
DRAFT
100
AcDbLine
 62
7
  6
CONTINUOUS
 10
-9.175
 20
20.9
 11
-9.175
 21
21.3876583452
  0
LINE
  5
30B
100
AcDbEntity
  8
RACCORDO
100
AcDbLine
 62
7
  6
CONTINUOUS
 10
-9.175
 20
22.4
 11
-9.175
 21
24.2500042308
  0
LINE
  5
30C
100
AcDbEntity
  8
RACCORDO
100
AcDbLine
 62
253
  6
CONTINUOUS
 10
-9.0090245667
 20
21.4362803622
 11
-9.0090245667
 21
20.9917082642
  0
LINE
  5
30D
100
AcDbEntity
  8
RACCORDO
100
AcDbLine
 62
253
  6
CONTINUOUS
 10
-9.0090245667
 20
-20.9917082642
 11
-9.0090245667
 21
-21.4362803622
  0
LINE
  5
30E
100
AcDbEntity
  8
RACCORDO
100
AcDbLine
 62
253
  6
CONTINUOUS
 10
-9.4242770021
 20
-23.1226497308
 11
-9.4293676032
 21
-23.6278312164
  0
LINE
  5
30F
100
AcDbEntity
  8
RACCORDO
100
AcDbLine
 62
7
  6
CONTINUOUS
 10
-8.2740220113
 20
20.4584032484
 11
-8.2238376746
 21
20.9104703804
  0
LINE
  5
310
100
AcDbEntity
  8
DRAFT
100
AcDbLine
 62
7
  6
CONTINUOUS
 10
3.475
 20
22.4
 11
3.4309327327
 21
22.3338981669
  0
LINE
  5
311
100
AcDbEntity
  8
CORPO
100
AcDbLine
 62
253
  6
CONTINUOUS
 10
-1.0643615326
 20
14.4119145381
 11
-1.2734038204
 21
14.1983315856
  0
LINE
  5
312
100
AcDbEntity
  8
ASSI
100
AcDbLine
 62
253
  6
CONTINUOUS
 10
-1.0643615326
 20
14.4119145381
 11
-1.2734038204
 21
14.1983315856
  0
LINE
  5
313
100
AcDbEntity
  8
CORPO
100
AcDbLine
 62
7
  6
CONTINUOUS
 10
4.825
 20
19.9
 11
4.7359791689
 21
19.8109791689
  0
LINE
  5
314
100
AcDbEntity
  8
ASSI
100
AcDbLine
 62
7
  6
CONTINUOUS
 10
4.825
 20
19.9
 11
4.7359791689
 21
19.8109791689
  0
LINE
  5
315
100
AcDbEntity
  8
RACCORDO
100
AcDbLine
 62
253
  6
CONTINUOUS
 10
9.4706323968
 20
24.495628166
 11
9.4750042308
 21
24.5
  0
LINE
  5
316
100
AcDbEntity
  8
CORPO
100
AcDbLine
 62
7
  6
CONTINUOUS
 10
4.825
 20
19.7
 11
4.7359791689
 21
19.6109791689
  0
LINE
  5
317
100
AcDbEntity
  8
ASSI
100
AcDbLine
 62
7
  6
CONTINUOUS
 10
4.825
 20
19.7
 11
4.7359791689
 21
19.6109791689
  0
LINE
  5
318
100
AcDbEntity
  8
RACCORDO
100
AcDbLine
 62
253
  6
CONTINUOUS
 10
9.720628166
 20
24.2456323968
 11
9.725
 21
24.2500042308
  0
LINE
  5
319
100
AcDbEntity
  8
0
100
AcDbLine
 62
7
  6
CONTINUOUS
 10
5.4320215015
 20
19.7570215015
 11
5.375
 21
19.7
  0
LINE
  5
31A
100
AcDbEntity
  8
CURVE
100
AcDbLine
 62
253
  6
CONTINUOUS
 10
9.8985902858
 20
-10.455181
 11
9.8758987014
 21
-10.455181
  0
LINE
  5
31B
100
AcDbEntity
  8
CURVE
100
AcDbLine
 62
253
  6
CONTINUOUS
 10
10.1028145455
 20
-10.3428571671
 11
10.0696499221
 21
-10.3428571671
  0
LINE
  5
31C
100
AcDbEntity
  8
CURVE
100
AcDbLine
 62
253
  6
CONTINUOUS
 10
10.1289971429
 20
-10.292325
 11
10.1796014306
 21
-10.292325
  0
LINE
  5
31D
100
AcDbEntity
  8
CURVE
100
AcDbLine
 62
253
  6
CONTINUOUS
 10
9.8985902858
 20
-9.423056
 11
9.8758987014
 21
-9.423056
  0
LINE
  5
31E
100
AcDbEntity
  8
CURVE
100
AcDbLine
 62
253
  6
CONTINUOUS
 10
-12.0026861601
 20
-9.35
 11
-12.0074239632
 21
-9.35
  0
LINE
  5
31F
100
AcDbEntity
  8
CURVE
100
AcDbLine
 62
253
  6
CONTINUOUS
 10
9.8758987014
 20
-9.034728
 11
9.8985902858
 21
-9.034728
  0
LINE
  5
320
100
AcDbEntity
  8
CORPO
100
AcDbLine
 62
7
  6
CONTINUOUS
 10
4.7359791689
 20
-19.8109791689
 11
4.825
 21
-19.9
  0
LINE
  5
321
100
AcDbEntity
  8
ASSI
100
AcDbLine
 62
7
  6
CONTINUOUS
 10
4.7359791689
 20
-19.8109791689
 11
4.825
 21
-19.9
  0
LINE
  5
322
100
AcDbEntity
  8
RACCORDO
100
AcDbLine
 62
253
  6
CONTINUOUS
 10
9.4706323968
 20
-24.495628166
 11
9.4750042308
 21
-24.5
  0
LINE
  5
323
100
AcDbEntity
  8
CORPO
100
AcDbLine
 62
7
  6
CONTINUOUS
 10
4.825
 20
-19.7
 11
4.7359791689
 21
-19.6109791689
  0
LINE
  5
324
100
AcDbEntity
  8
ASSI
100
AcDbLine
 62
7
  6
CONTINUOUS
 10
4.825
 20
-19.7
 11
4.7359791689
 21
-19.6109791689
  0
LINE
  5
325
100
AcDbEntity
  8
RACCORDO
100
AcDbLine
 62
253
  6
CONTINUOUS
 10
9.720628166
 20
-24.2456323968
 11
9.725
 21
-24.2500042308
  0
LINE
  5
326
100
AcDbEntity
  8
0
100
AcDbLine
 62
7
  6
CONTINUOUS
 10
5.4320215015
 20
-19.7570215015
 11
5.375
 21
-19.7
  0
LINE
  5
327
100
AcDbEntity
  8
CORPO
100
AcDbLine
 62
253
  6
CONTINUOUS
 10
-1.0643615328
 20
-14.411914538
 11
-1.2734038204
 21
-14.1983315856
  0
LINE
  5
328
100
AcDbEntity
  8
ASSI
100
AcDbLine
 62
253
  6
CONTINUOUS
 10
-1.0643615328
 20
-14.411914538
 11
-1.2734038204
 21
-14.1983315856
  0
LINE
  5
329
100
AcDbEntity
  8
DRAFT
100
AcDbLine
 62
7
  6
CONTINUOUS
 10
3.475
 20
-22.4
 11
3.4309327327
 21
-22.3338981669
  0
LINE
  5
32A
100
AcDbEntity
  8
RACCORDO
100
AcDbLine
 62
7
  6
CONTINUOUS
 10
-8.2238376746
 20
-20.9104703804
 11
-8.2740220113
 21
-20.4584032484
  0
LINE
  5
32B
100
AcDbEntity
  8
RACCORDO
100
AcDbLine
 62
253
  6
CONTINUOUS
 10
-9.179371834
 20
23.8443375673
 11
-9.175
 21
23.4104851482
  0
LINE
  5
32C
100
AcDbEntity
  8
RACCORDO
100
AcDbLine
 62
253
  6
CONTINUOUS
 10
-8.5091007192
 20
21.3126932437
 11
-8.5091007192
 21
20.9959955457
  0
LINE
  5
32D
100
AcDbEntity
  8
RACCORDO
100
AcDbLine
 62
253
  6
CONTINUOUS
 10
-8.5091007192
 20
-20.9959955457
 11
-8.5091007192
 21
-21.3126932437
  0
LINE
  5
32E
100
AcDbEntity
  8
CORPO
100
AcDbLine
 62
7
  6
CONTINUOUS
 10
-8.4140208311
 20
-20.85
 11
-8.4140208311
 21
-19.6109791689
  0
LINE
  5
32F
100
AcDbEntity
  8
ASSI
100
AcDbLine
 62
7
  6
CONTINUOUS
 10
-8.4140208311
 20
-20.85
 11
-8.4140208311
 21
-19.6109791689
  0
LINE
  5
330
100
AcDbEntity
  8
CORPO
100
AcDbLine
 62
7
  6
CONTINUOUS
 10
-8.4140208311
 20
19.6109791689
 11
-8.4140208311
 21
20.85
  0
LINE
  5
331
100
AcDbEntity
  8
ASSI
100
AcDbLine
 62
7
  6
CONTINUOUS
 10
-8.4140208311
 20
19.6109791689
 11
-8.4140208311
 21
20.85
  0
LINE
  5
332
100
AcDbEntity
  8
CORPO
100
AcDbLine
 62
7
  6
CONTINUOUS
 10
-8.325
 20
-20.85
 11
-8.325
 21
-19.7
  0
LINE
  5
333
100
AcDbEntity
  8
ASSI
100
AcDbLine
 62
7
  6
CONTINUOUS
 10
-8.325
 20
-20.85
 11
-8.325
 21
-19.7
  0
LINE
  5
334
100
AcDbEntity
  8
CORPO
100
AcDbLine
 62
7
  6
CONTINUOUS
 10
-8.325
 20
19.7
 11
-8.325
 21
20.85
  0
LINE
  5
335
100
AcDbEntity
  8
ASSI
100
AcDbLine
 62
7
  6
CONTINUOUS
 10
-8.325
 20
19.7
 11
-8.325
 21
20.85
  0
LINE
  5
336
100
AcDbEntity
  8
RACCORDO
100
AcDbLine
 62
7
  6
CONTINUOUS
 10
-8.2767786853
 20
19.959088481
 11
-8.2767786853
 21
19.7
  0
LINE
  5
337
100
AcDbEntity
  8
RACCORDO
100
AcDbLine
 62
7
  6
CONTINUOUS
 10
-8.2767786853
 20
-19.959088481
 11
-8.2767786853
 21
-19.7
  0
LINE
  5
338
100
AcDbEntity
  8
RACCORDO
100
AcDbLine
 62
7
  6
CONTINUOUS
 10
-8.1668217019
 20
-20.9959955457
 11
-8.1668217019
 21
-19.9570181168
  0
LINE
  5
339
100
AcDbEntity
  8
RACCORDO
100
AcDbLine
 62
7
  6
CONTINUOUS
 10
-8.1668217019
 20
19.9570181168
 11
-8.1668217019
 21
20.9959955457
  0
LINE
  5
33A
100
AcDbEntity
  8
RACCORDO
100
AcDbLine
 62
7
  6
CONTINUOUS
 10
-7.2831782981
 20
-20.5829242832
 11
-7.2831782981
 21
-19.9570181168
  0
LINE
  5
33B
100
AcDbEntity
  8
RACCORDO
100
AcDbLine
 62
7
  6
CONTINUOUS
 10
-7.2831782981
 20
19.9570181168
 11
-7.2831782981
 21
20.5829242832
  0
LINE
  5
33C
100
AcDbEntity
  8
RACCORDO
100
AcDbLine
 62
253
  6
CONTINUOUS
 10
-9.175
 20
-23.4104851482
 11
-9.179371834
 21
-23.8443375673
  0
LINE
  5
33D
100
AcDbEntity
  8
CORPO
100
AcDbLine
 62
253
  6
CONTINUOUS
 10
1.8248952884
 20
18.3
 11
2.4913653663
 21
19.4544039928
  0
LINE
  5
33E
100
AcDbEntity
  8
ASSI
100
AcDbLine
 62
253
  6
CONTINUOUS
 10
1.8248952884
 20
18.3
 11
2.4913653663
 21
19.4544039928
  0
LINE
  5
33F
100
AcDbEntity
  8
CORPO
100
AcDbLine
 62
7
  6
CONTINUOUS
 10
1.9158357334
 20
18.3664559318
 11
1.8774659223
 21
18.3
  0
LINE
  5
340
100
AcDbEntity
  8
ASSI
100
AcDbLine
 62
7
  6
CONTINUOUS
 10
1.9158357334
 20
18.3664559318
 11
1.8774659223
 21
18.3
  0
LINE
  5
341
100
AcDbEntity
  8
CORPO
100
AcDbLine
 62
253
  6
CONTINUOUS
 10
-0.7856384674
 20
9.5880854619
 11
-0.5765961796
 21
9.8016684144
  0
LINE
  5
342
100
AcDbEntity
  8
ASSI
100
AcDbLine
 62
253
  6
CONTINUOUS
 10
-0.7856384674
 20
9.5880854619
 11
-0.5765961796
 21
9.8016684144
  0
LINE
  5
343
100
AcDbEntity
  8
CORPO
100
AcDbLine
 62
253
  6
CONTINUOUS
 10
-0.347006459
 20
10.1754329587
 11
-0.5637540149
 21
9.9696737934
  0
LINE
  5
344
100
AcDbEntity
  8
ASSI
100
AcDbLine
 62
253
  6
CONTINUOUS
 10
-0.347006459
 20
10.1754329587
 11
-0.5637540149
 21
9.9696737934
  0
LINE
  5
345
100
AcDbEntity
  8
CURVE
100
AcDbLine
 62
253
  6
CONTINUOUS
 10
-12.0121617663
 20
-8.807142663
 11
-11.9979483571
 21
-8.807142663
  0
LINE
  5
346
100
AcDbEntity
  8
CURVE
100
AcDbLine
 62
253
  6
CONTINUOUS
 10
-11.993210553
 20
-7.992856884
 11
-11.9837349464
 21
-7.992856884
  0
LINE
  5
347
100
AcDbEntity
  8
CURVE
100
AcDbLine
 62
253
  6
CONTINUOUS
 10
-11.98847275
 20
-7.45
 11
-12.0026861601
 21
-7.45
  0
LINE
  5
348
100
AcDbEntity
  8
CURVE
100
AcDbLine
 62
253
  6
CONTINUOUS
 10
9.8758987014
 20
-7.226755
 11
9.8985902858
 21
-7.226755
  0
LINE
  5
349
100
AcDbEntity
  8
CORPO
100
AcDbLine
 62
253
  6
CONTINUOUS
 10
-0.3470064588
 20
-10.1754329589
 11
-0.5637540148
 21
-9.9696737943
  0
LINE
  5
34A
100
AcDbEntity
  8
ASSI
100
AcDbLine
 62
253
  6
CONTINUOUS
 10
-0.3470064588
 20
-10.1754329589
 11
-0.5637540148
 21
-9.9696737943
  0
LINE
  5
34B
100
AcDbEntity
  8
CORPO
100
AcDbLine
 62
253
  6
CONTINUOUS
 10
-0.7856384672
 20
-9.588085462
 11
-0.5765961796
 21
-9.8016684144
  0
LINE
  5
34C
100
AcDbEntity
  8
ASSI
100
AcDbLine
 62
253
  6
CONTINUOUS
 10
-0.7856384672
 20
-9.588085462
 11
-0.5765961796
 21
-9.8016684144
  0
LINE
  5
34D
100
AcDbEntity
  8
CORPO
100
AcDbLine
 62
253
  6
CONTINUOUS
 10
1.8248952884
 20
-18.3
 11
2.4913653663
 21
-19.4544039928
  0
LINE
  5
34E
100
AcDbEntity
  8
ASSI
100
AcDbLine
 62
253
  6
CONTINUOUS
 10
1.8248952884
 20
-18.3
 11
2.4913653663
 21
-19.4544039928
  0
LINE
  5
34F
100
AcDbEntity
  8
CORPO
100
AcDbLine
 62
7
  6
CONTINUOUS
 10
1.9158357334
 20
-18.3664559318
 11
1.8774659223
 21
-18.3
  0
LINE
  5
350
100
AcDbEntity
  8
ASSI
100
AcDbLine
 62
7
  6
CONTINUOUS
 10
1.9158357334
 20
-18.3664559318
 11
1.8774659223
 21
-18.3
  0
LINE
  5
351
100
AcDbEntity
  8
CORPO
100
AcDbLine
 62
7
  6
CONTINUOUS
 10
-6.675
 20
19.9
 11
-6.675
 21
19.7
  0
LINE
  5
352
100
AcDbEntity
  8
ASSI
100
AcDbLine
 62
7
  6
CONTINUOUS
 10
-6.675
 20
19.9
 11
-6.675
 21
19.7
  0
LINE
  5
353
100
AcDbEntity
  8
CORPO
100
AcDbLine
 62
7
  6
CONTINUOUS
 10
-6.675
 20
-19.7
 11
-6.675
 21
-19.9
  0
LINE
  5
354
100
AcDbEntity
  8
ASSI
100
AcDbLine
 62
7
  6
CONTINUOUS
 10
-6.675
 20
-19.7
 11
-6.675
 21
-19.9
  0
LINE
  5
355
100
AcDbEntity
  8
CORPO
100
AcDbLine
 62
7
  6
CONTINUOUS
 10
-6.5859791689
 20
19.8109791689
 11
-6.5859791689
 21
19.6109791689
  0
LINE
  5
356
100
AcDbEntity
  8
ASSI
100
AcDbLine
 62
7
  6
CONTINUOUS
 10
-6.5859791689
 20
19.8109791689
 11
-6.5859791689
 21
19.6109791689
  0
LINE
  5
357
100
AcDbEntity
  8
CORPO
100
AcDbLine
 62
7
  6
CONTINUOUS
 10
-6.5859791689
 20
-19.6109791689
 11
-6.5859791689
 21
-19.8109791689
  0
LINE
  5
358
100
AcDbEntity
  8
ASSI
100
AcDbLine
 62
7
  6
CONTINUOUS
 10
-6.5859791689
 20
-19.6109791689
 11
-6.5859791689
 21
-19.8109791689
  0
LINE
  5
359
100
AcDbEntity
  8
DRAFT
100
AcDbLine
 62
7
  6
CONTINUOUS
 10
-5.325
 20
23.8
 11
-5.325
 21
22.4
  0
LINE
  5
35A
100
AcDbEntity
  8
DRAFT
100
AcDbLine
 62
7
  6
CONTINUOUS
 10
-5.325
 20
-22.4
 11
-5.325
 21
-23.8
  0
LINE
  5
35B
100
AcDbEntity
  8
0
100
AcDbLine
 62
7
  6
CONTINUOUS
 10
5.430294768
 20
20.0829433217
 11
5.3261048448
 21
19.9266562329
  0
LINE
  5
35C
100
AcDbEntity
  8
CORPO
100
AcDbLine
 62
253
  6
CONTINUOUS
 10
9.0586696175
 20
19.0734550172
 11
8.3516705321
 21
18.3664559318
  0
LINE
  5
35D
100
AcDbEntity
  8
ASSI
100
AcDbLine
 62
253
  6
CONTINUOUS
 10
9.0586696175
 20
19.0734550172
 11
8.3516705321
 21
18.3664559318
  0
LINE
  5
35E
100
AcDbEntity
  8
CORPO
100
AcDbLine
 62
253
  6
CONTINUOUS
 10
9.2200765893
 20
18.9120480454
 11
8.5130775039
 21
18.20504896
  0
LINE
  5
35F
100
AcDbEntity
  8
ASSI
100
AcDbLine
 62
253
  6
CONTINUOUS
 10
9.2200765893
 20
18.9120480454
 11
8.5130775039
 21
18.20504896
  0
LINE
  5
360
100
AcDbEntity
  8
CURVE
100
AcDbLine
 62
253
  6
CONTINUOUS
 10
10.1374067525
 20
-6.866738
 11
10.1289971429
 21
-6.866738
  0
LINE
  5
361
100
AcDbEntity
  8
CURVE
100
AcDbLine
 62
253
  6
CONTINUOUS
 10
-12.0026861601
 20
-6.5
 11
-11.98847275
 21
-6.5
  0
LINE
  5
362
100
AcDbEntity
  8
CURVE
100
AcDbLine
 62
253
  6
CONTINUOUS
 10
9.8758987014
 20
-5.910407
 11
9.8985902858
 21
-5.910407
  0
LINE
  5
363
100
AcDbEntity
  8
CURVE
100
AcDbLine
 62
253
  6
CONTINUOUS
 10
10.1796014306
 20
-5.793739
 11
10.1374067525
 21
-5.793739
  0
LINE
  5
364
100
AcDbEntity
  8
CORPO
100
AcDbLine
 62
253
  6
CONTINUOUS
 10
9.0586696175
 20
-19.0734550172
 11
8.3516705321
 21
-18.3664559318
  0
LINE
  5
365
100
AcDbEntity
  8
ASSI
100
AcDbLine
 62
253
  6
CONTINUOUS
 10
9.0586696175
 20
-19.0734550172
 11
8.3516705321
 21
-18.3664559318
  0
LINE
  5
366
100
AcDbEntity
  8
CORPO
100
AcDbLine
 62
253
  6
CONTINUOUS
 10
9.2200765893
 20
-18.9120480454
 11
8.5130775039
 21
-18.20504896
  0
LINE
  5
367
100
AcDbEntity
  8
ASSI
100
AcDbLine
 62
253
  6
CONTINUOUS
 10
9.2200765893
 20
-18.9120480454
 11
8.5130775039
 21
-18.20504896
  0
LINE
  5
368
100
AcDbEntity
  8
0
100
AcDbLine
 62
7
  6
CONTINUOUS
 10
5.430294768
 20
-20.0829433217
 11
5.3261048448
 21
-19.9266562329
  0
LINE
  5
369
100
AcDbEntity
  8
ASSI
100
AcDbLine
 62
253
  6
CONTINUOUS
 10
-5.2809327327
 20
23.7507734247
 11
-5.2809327327
 21
22.3338981669
  0
LINE
  5
36A
100
AcDbEntity
  8
ASSI
100
AcDbLine
 62
253
  6
CONTINUOUS
 10
-5.2809327327
 20
-22.3338981669
 11
-5.2809327327
 21
-23.7507734247
  0
LINE
  5
36B
100
AcDbEntity
  8
CORPO
100
AcDbLine
 62
7
  6
CONTINUOUS
 10
-4.925
 20
-11.5507760423
 11
-4.925
 21
-12.4492239577
  0
LINE
  5
36C
100
AcDbEntity
  8
ASSI
100
AcDbLine
 62
7
  6
CONTINUOUS
 10
-4.925
 20
-11.5507760423
 11
-4.925
 21
-12.4492239577
  0
LINE
  5
36D
100
AcDbEntity
  8
CORPO
100
AcDbLine
 62
7
  6
CONTINUOUS
 10
-4.925
 20
11.5507760423
 11
-4.925
 21
12.4492239577
  0
LINE
  5
36E
100
AcDbEntity
  8
ASSI
100
AcDbLine
 62
7
  6
CONTINUOUS
 10
-4.925
 20
11.5507760423
 11
-4.925
 21
12.4492239577
  0
LINE
  5
36F
100
AcDbEntity
  8
DRAFT
100
AcDbLine
 62
7
  6
CONTINUOUS
 10
-4.425
 20
20.0445070257
 11
-4.425
 21
20.0
  0
LINE
  5
370
100
AcDbEntity
  8
DRAFT
100
AcDbLine
 62
7
  6
CONTINUOUS
 10
-4.425
 20
-20.0445070257
 11
-4.425
 21
-20.0
  0
LINE
  5
371
100
AcDbEntity
  8
ASSI
100
AcDbLine
 62
7
  6
CONTINUOUS
 10
-4.425
 20
-22.3339198952
 11
-4.425
 21
-23.7941821702
  0
LINE
  5
372
100
AcDbEntity
  8
0
100
AcDbLine
 62
7
  6
CONTINUOUS
 10
-4.425
 20
-13.2047531686
 11
-4.425
 21
-12.25
  0
LINE
  5
373
100
AcDbEntity
  8
0
100
AcDbLine
 62
7
  6
CONTINUOUS
 10
-4.425
 20
12.25
 11
-4.425
 21
13.2047531686
  0
LINE
  5
374
100
AcDbEntity
  8
ASSI
100
AcDbLine
 62
7
  6
CONTINUOUS
 10
-4.425
 20
22.3339198952
 11
-4.425
 21
23.7941821702
  0
LINE
  5
375
100
AcDbEntity
  8
RACCORDO
100
AcDbLine
 62
7
  6
CONTINUOUS
 10
-3.925
 20
-21.0
 11
-3.925
 21
-22.3380392387
  0
LINE
  5
376
100
AcDbEntity
  8
RACCORDO
100
AcDbLine
 62
7
  6
CONTINUOUS
 10
-3.925
 20
21.0
 11
-3.925
 21
22.3380392387
  0
LINE
  5
377
100
AcDbEntity
  8
CORPO
100
AcDbLine
 62
7
  6
CONTINUOUS
 10
-3.7274659223
 20
18.3
 11
-3.7274659223
 21
17.7912732553
  0
LINE
  5
378
100
AcDbEntity
  8
ASSI
100
AcDbLine
 62
7
  6
CONTINUOUS
 10
-3.7274659223
 20
18.3
 11
-3.7274659223
 21
17.7912732553
  0
LINE
  5
379
100
AcDbEntity
  8
CORPO
100
AcDbLine
 62
7
  6
CONTINUOUS
 10
-3.7274659223
 20
-18.3
 11
-3.7274659223
 21
-17.7912732553
  0
LINE
  5
37A
100
AcDbEntity
  8
ASSI
100
AcDbLine
 62
7
  6
CONTINUOUS
 10
-3.7274659223
 20
-18.3
 11
-3.7274659223
 21
-17.7912732553
  0
LINE
  5
37B
100
AcDbEntity
  8
CORPO
100
AcDbLine
 62
253
  6
CONTINUOUS
 10
-3.6748952884
 20
-17.8263198503
 11
-3.6748952884
 21
-18.3
  0
LINE
  5
37C
100
AcDbEntity
  8
ASSI
100
AcDbLine
 62
253
  6
CONTINUOUS
 10
-3.6748952884
 20
-17.8263198503
 11
-3.6748952884
 21
-18.3
  0
LINE
  5
37D
100
AcDbEntity
  8
CORPO
100
AcDbLine
 62
253
  6
CONTINUOUS
 10
-3.6748952884
 20
17.8263198503
 11
-3.6748952884
 21
18.3
  0
LINE
  5
37E
100
AcDbEntity
  8
ASSI
100
AcDbLine
 62
253
  6
CONTINUOUS
 10
-3.6748952884
 20
17.8263198503
 11
-3.6748952884
 21
18.3
  0
LINE
  5
37F
100
AcDbEntity
  8
ASSI
100
AcDbLine
 62
253
  6
CONTINUOUS
 10
-3.6658014299
 20
-13.45
 11
-3.6658014299
 21
-13.520120448
  0
LINE
  5
380
100
AcDbEntity
  8
ASSI
100
AcDbLine
 62
253
  6
CONTINUOUS
 10
-3.6658014299
 20
13.45
 11
-3.6658014299
 21
13.5200302588
  0
LINE
  5
381
100
AcDbEntity
  8
0
100
AcDbLine
 62
7
  6
CONTINUOUS
 10
-10.575
 20
-20.1489710538
 11
-10.5377799377
 21
-20.0372200623
  0
LINE
  5
382
100
AcDbEntity
  8
CURVE
100
AcDbLine
 62
253
  6
CONTINUOUS
 10
10.1289971429
 20
-5.171133
 11
10.1796014306
 21
-5.171133
  0
LINE
  5
383
100
AcDbEntity
  8
CURVE
100
AcDbLine
 62
253
  6
CONTINUOUS
 10
9.8985902858
 20
-4.425736
 11
9.8758987014
 21
-4.425736
  0
LINE
  5
384
100
AcDbEntity
  8
0
100
AcDbLine
 62
7
  6
CONTINUOUS
 10
-10.5377799377
 20
20.0372200623
 11
-10.575
 21
20.1489710538
  0
LINE
  5
385
100
AcDbEntity
  8
ASSI
100
AcDbLine
 62
7
  6
CONTINUOUS
 10
-3.4855125558
 20
13.4670326323
 11
-3.4890113216
 21
13.5019298054
  0
LINE
  5
386
100
AcDbEntity
  8
CORPO
100
AcDbLine
 62
7
  6
CONTINUOUS
 10
-4.3345454877
 20
19.366303627
 11
-4.3413653663
 21
19.4544039928
  0
LINE
  5
387
100
AcDbEntity
  8
ASSI
100
AcDbLine
 62
7
  6
CONTINUOUS
 10
-4.3345454877
 20
19.366303627
 11
-4.3413653663
 21
19.4544039928
  0
LINE
  5
388
100
AcDbEntity
  8
ASSI
100
AcDbLine
 62
7
  6
CONTINUOUS
 10
-3.4751045686
 20
13.4848579445
 11
-3.475
 21
13.4825492773
  0
LINE
  5
389
100
AcDbEntity
  8
CORPO
100
AcDbLine
 62
253
  6
CONTINUOUS
 10
-3.3260050333
 20
-20.0531791558
 11
-3.3265242349
 21
-19.8844866796
  0
LINE
  5
38A
100
AcDbEntity
  8
ASSI
100
AcDbLine
 62
253
  6
CONTINUOUS
 10
-3.3260052467
 20
-20.0531098401
 11
-3.3265242349
 21
-19.8844866796
  0
LINE
  5
38B
100
AcDbEntity
  8
0
100
AcDbLine
 62
7
  6
CONTINUOUS
 10
-2.675
 20
13.374499883
 11
-2.675
 21
10.625500117
  0
LINE
  5
38C
100
AcDbEntity
  8
0
100
AcDbLine
 62
7
  6
CONTINUOUS
 10
-2.675
 20
-10.625500117
 11
-2.675
 21
-13.374499883
  0
LINE
  5
38D
100
AcDbEntity
  8
0
100
AcDbLine
 62
7
  6
CONTINUOUS
 10
-2.306939
 20
13.0961738145
 11
-2.306939
 21
10.9038261855
  0
LINE
  5
38E
100
AcDbEntity
  8
0
100
AcDbLine
 62
7
  6
CONTINUOUS
 10
-2.306939
 20
-13.0961738145
 11
-2.306939
 21
-10.9038261855
  0
LINE
  5
38F
100
AcDbEntity
  8
CORPO
100
AcDbLine
 62
253
  6
CONTINUOUS
 10
-3.3265242349
 20
19.8844866796
 11
-3.3260050333
 21
20.0531791558
  0
LINE
  5
390
100
AcDbEntity
  8
ASSI
100
AcDbLine
 62
253
  6
CONTINUOUS
 10
-3.3265242349
 20
19.8844866796
 11
-3.3260052467
 21
20.0531098401
  0
LINE
  5
391
100
AcDbEntity
  8
CORPO
100
AcDbLine
 62
7
  6
CONTINUOUS
 10
-4.3345454877
 20
-19.366303627
 11
-4.3413653663
 21
-19.4544039928
  0
LINE
  5
392
100
AcDbEntity
  8
ASSI
100
AcDbLine
 62
7
  6
CONTINUOUS
 10
-4.3345454877
 20
-19.366303627
 11
-4.3413653663
 21
-19.4544039928
  0
LINE
  5
393
100
AcDbEntity
  8
ASSI
100
AcDbLine
 62
7
  6
CONTINUOUS
 10
-3.4855125558
 20
-13.4670326323
 11
-3.4890257387
 21
-13.5021435224
  0
LINE
  5
394
100
AcDbEntity
  8
ASSI
100
AcDbLine
 62
7
  6
CONTINUOUS
 10
-3.475
 20
-13.4825492773
 11
-3.4750717339
 21
-13.483149382
  0
LINE
  5
395
100
AcDbEntity
  8
0
100
AcDbLine
 62
7
  6
CONTINUOUS
 10
-9.8248860669
 20
-20.9
 11
-9.7874373907
 21
-20.7875626093
  0
LINE
  5
396
100
AcDbEntity
  8
CORPO
100
AcDbLine
 62
253
  6
CONTINUOUS
 10
-10.9086696175
 20
-19.0734550172
 11
-11.0100175454
 21
-19.3181305591
  0
LINE
  5
397
100
AcDbEntity
  8
ASSI
100
AcDbLine
 62
253
  6
CONTINUOUS
 10
-10.9086696175
 20
-19.0734550172
 11
-11.0100175454
 21
-19.3181305591
  0
LINE
  5
398
100
AcDbEntity
  8
RACCORDO
100
AcDbLine
 62
7
  6
CONTINUOUS
 10
6.2888205855
 20
22.3126551668
 11
6.321385213
 21
22.3912731322
  0
LINE
  5
399
100
AcDbEntity
  8
CORPO
100
AcDbLine
 62
253
  6
CONTINUOUS
 10
-10.2016705321
 20
-19.366303627
 11
-10.30301846
 21
-19.6109791689
  0
LINE
  5
39A
100
AcDbEntity
  8
ASSI
100
AcDbLine
 62
253
  6
CONTINUOUS
 10
-10.2016705321
 20
-19.366303627
 11
-10.30301846
 21
-19.6109791689
  0
LINE
  5
39B
100
AcDbEntity
  8
CURVE
100
AcDbLine
 62
253
  6
CONTINUOUS
 10
10.1289971429
 20
-3.323396
 11
10.1484843588
 21
-3.323396
  0
LINE
  5
39C
100
AcDbEntity
  8
CURVE
100
AcDbLine
 62
253
  6
CONTINUOUS
 10
10.1568939683
 20
-3.323396
 11
10.171191821
 21
-3.323396
  0
LINE
  5
39D
100
AcDbEntity
  8
CURVE
100
AcDbLine
 62
253
  6
CONTINUOUS
 10
9.8758987014
 20
-3.18
 11
9.8985902858
 21
-3.18
  0
LINE
  5
39E
100
AcDbEntity
  8
CURVE
100
AcDbLine
 62
253
  6
CONTINUOUS
 10
10.1796014306
 20
-2.70079
 11
10.1289971429
 21
-2.70079
  0
LINE
  5
39F
100
AcDbEntity
  8
CORPO
100
AcDbLine
 62
253
  6
CONTINUOUS
 10
-11.0100175454
 20
19.3181305591
 11
-10.9086696175
 21
19.0734550172
  0
LINE
  5
3A0
100
AcDbEntity
  8
ASSI
100
AcDbLine
 62
253
  6
CONTINUOUS
 10
-11.0100175454
 20
19.3181305591
 11
-10.9086696175
 21
19.0734550172
  0
LINE
  5
3A1
100
AcDbEntity
  8
RACCORDO
100
AcDbLine
 62
7
  6
CONTINUOUS
 10
6.2888205855
 20
-22.3126551668
 11
6.321385213
 21
-22.3912731322
  0
LINE
  5
3A2
100
AcDbEntity
  8
CORPO
100
AcDbLine
 62
253
  6
CONTINUOUS
 10
-10.30301846
 20
19.6109791689
 11
-10.2016705321
 21
19.366303627
  0
LINE
  5
3A3
100
AcDbEntity
  8
ASSI
100
AcDbLine
 62
253
  6
CONTINUOUS
 10
-10.30301846
 20
19.6109791689
 11
-10.2016705321
 21
19.366303627
  0
LINE
  5
3A4
100
AcDbEntity
  8
0
100
AcDbLine
 62
7
  6
CONTINUOUS
 10
-9.7874373907
 20
20.7875626093
 11
-9.8248860669
 21
20.9
  0
LINE
  5
3A5
100
AcDbEntity
  8
ASSI
100
AcDbLine
 62
7
  6
CONTINUOUS
 10
1.625
 20
13.4825492773
 11
1.6250717339
 21
13.483149382
  0
LINE
  5
3A6
100
AcDbEntity
  8
ASSI
100
AcDbLine
 62
7
  6
CONTINUOUS
 10
1.6355125558
 20
-13.4670326323
 11
1.6390113216
 21
-13.5019298054
  0
LINE
  5
3A7
100
AcDbEntity
  8
CORPO
100
AcDbLine
 62
7
  6
CONTINUOUS
 10
2.4845454877
 20
-19.366303627
 11
2.4913653663
 21
-19.4544039928
  0
LINE
  5
3A8
100
AcDbEntity
  8
ASSI
100
AcDbLine
 62
7
  6
CONTINUOUS
 10
2.4845454877
 20
-19.366303627
 11
2.4913653663
 21
-19.4544039928
  0
LINE
  5
3A9
100
AcDbEntity
  8
ASSI
100
AcDbLine
 62
7
  6
CONTINUOUS
 10
1.6251045686
 20
-13.4848579445
 11
1.625
 21
-13.4825492773
  0
LINE
  5
3AA
100
AcDbEntity
  8
CORPO
100
AcDbLine
 62
253
  6
CONTINUOUS
 10
1.4760050333
 20
20.0531791558
 11
1.4765242349
 21
19.8844866796
  0
LINE
  5
3AB
100
AcDbEntity
  8
ASSI
100
AcDbLine
 62
253
  6
CONTINUOUS
 10
1.4760052467
 20
20.0531098401
 11
1.4765242349
 21
19.8844866796
  0
LINE
  5
3AC
100
AcDbEntity
  8
0
100
AcDbLine
 62
7
  6
CONTINUOUS
 10
0.456939
 20
13.0961738145
 11
0.456939
 21
10.9038261855
  0
LINE
  5
3AD
100
AcDbEntity
  8
0
100
AcDbLine
 62
7
  6
CONTINUOUS
 10
0.456939
 20
-13.0961738145
 11
0.456939
 21
-10.9038261855
  0
LINE
  5
3AE
100
AcDbEntity
  8
0
100
AcDbLine
 62
7
  6
CONTINUOUS
 10
0.825
 20
13.374499883
 11
0.825
 21
10.625500117
  0
LINE
  5
3AF
100
AcDbEntity
  8
0
100
AcDbLine
 62
7
  6
CONTINUOUS
 10
0.825
 20
-10.625500117
 11
0.825
 21
-13.374499883
  0
LINE
  5
3B0
100
AcDbEntity
  8
ASSI
100
AcDbLine
 62
253
  6
CONTINUOUS
 10
1.8158014299
 20
-13.45
 11
1.8158014299
 21
-13.5200302588
  0
LINE
  5
3B1
100
AcDbEntity
  8
ASSI
100
AcDbLine
 62
253
  6
CONTINUOUS
 10
1.8158014299
 20
13.45
 11
1.8158014299
 21
13.520120448
  0
LINE
  5
3B2
100
AcDbEntity
  8
CORPO
100
AcDbLine
 62
253
  6
CONTINUOUS
 10
1.8248952884
 20
-17.8263198503
 11
1.8248952884
 21
-18.3
  0
LINE
  5
3B3
100
AcDbEntity
  8
ASSI
100
AcDbLine
 62
253
  6
CONTINUOUS
 10
1.8248952884
 20
-17.8263198503
 11
1.8248952884
 21
-18.3
  0
LINE
  5
3B4
100
AcDbEntity
  8
CORPO
100
AcDbLine
 62
253
  6
CONTINUOUS
 10
1.8248952884
 20
17.8263198503
 11
1.8248952884
 21
18.3
  0
LINE
  5
3B5
100
AcDbEntity
  8
ASSI
100
AcDbLine
 62
253
  6
CONTINUOUS
 10
1.8248952884
 20
17.8263198503
 11
1.8248952884
 21
18.3
  0
LINE
  5
3B6
100
AcDbEntity
  8
CORPO
100
AcDbLine
 62
7
  6
CONTINUOUS
 10
1.8774659223
 20
18.3
 11
1.8774659223
 21
17.7912732553
  0
LINE
  5
3B7
100
AcDbEntity
  8
ASSI
100
AcDbLine
 62
7
  6
CONTINUOUS
 10
1.8774659223
 20
18.3
 11
1.8774659223
 21
17.7912732553
  0
LINE
  5
3B8
100
AcDbEntity
  8
CORPO
100
AcDbLine
 62
7
  6
CONTINUOUS
 10
1.8774659223
 20
-18.3
 11
1.8774659223
 21
-17.7912732553
  0
LINE
  5
3B9
100
AcDbEntity
  8
ASSI
100
AcDbLine
 62
7
  6
CONTINUOUS
 10
1.8774659223
 20
-18.3
 11
1.8774659223
 21
-17.7912732553
  0
LINE
  5
3BA
100
AcDbEntity
  8
RACCORDO
100
AcDbLine
 62
7
  6
CONTINUOUS
 10
2.075
 20
-21.0
 11
2.075
 21
-22.3380392387
  0
LINE
  5
3BB
100
AcDbEntity
  8
RACCORDO
100
AcDbLine
 62
7
  6
CONTINUOUS
 10
2.075
 20
21.0
 11
2.075
 21
22.3380392387
  0
LINE
  5
3BC
100
AcDbEntity
  8
CORPO
100
AcDbLine
 62
253
  6
CONTINUOUS
 10
1.4765242349
 20
-19.8844866796
 11
1.4760050333
 21
-20.0531791558
  0
LINE
  5
3BD
100
AcDbEntity
  8
ASSI
100
AcDbLine
 62
253
  6
CONTINUOUS
 10
1.4765242349
 20
-19.8844866796
 11
1.4760052467
 21
-20.0531098401
  0
LINE
  5
3BE
100
AcDbEntity
  8
CORPO
100
AcDbLine
 62
7
  6
CONTINUOUS
 10
2.4845454877
 20
19.366303627
 11
2.4913653663
 21
19.4544039928
  0
LINE
  5
3BF
100
AcDbEntity
  8
ASSI
100
AcDbLine
 62
7
  6
CONTINUOUS
 10
2.4845454877
 20
19.366303627
 11
2.4913653663
 21
19.4544039928
  0
LINE
  5
3C0
100
AcDbEntity
  8
ASSI
100
AcDbLine
 62
7
  6
CONTINUOUS
 10
1.6355125558
 20
13.4670326323
 11
1.6390257387
 21
13.5021435224
  0
LINE
  5
3C1
100
AcDbEntity
  8
0
100
AcDbLine
 62
7
  6
CONTINUOUS
 10
7.9748860669
 20
20.9
 11
7.9374373907
 21
20.7875626093
  0
LINE
  5
3C2
100
AcDbEntity
  8
0
100
AcDbLine
 62
7
  6
CONTINUOUS
 10
8.725
 20
20.1489710538
 11
8.6877799377
 21
20.0372200623
  0
LINE
  5
3C3
100
AcDbEntity
  8
CORPO
100
AcDbLine
 62
253
  6
CONTINUOUS
 10
8.3516705321
 20
19.366303627
 11
8.45301846
 21
19.6109791689
  0
LINE
  5
3C4
100
AcDbEntity
  8
ASSI
100
AcDbLine
 62
253
  6
CONTINUOUS
 10
8.3516705321
 20
19.366303627
 11
8.45301846
 21
19.6109791689
  0
LINE
  5
3C5
100
AcDbEntity
  8
RACCORDO
100
AcDbLine
 62
7
  6
CONTINUOUS
 10
-8.1388205855
 20
-22.3126551668
 11
-8.171385213
 21
-22.3912731322
  0
LINE
  5
3C6
100
AcDbEntity
  8
CORPO
100
AcDbLine
 62
253
  6
CONTINUOUS
 10
9.0586696175
 20
19.0734550172
 11
9.1600175454
 21
19.3181305591
  0
LINE
  5
3C7
100
AcDbEntity
  8
ASSI
100
AcDbLine
 62
253
  6
CONTINUOUS
 10
9.0586696175
 20
19.0734550172
 11
9.1600175454
 21
19.3181305591
  0
LINE
  5
3C8
100
AcDbEntity
  8
CORPO
100
AcDbLine
 62
253
  6
CONTINUOUS
 10
8.45301846
 20
-19.6109791689
 11
8.3516705321
 21
-19.366303627
  0
LINE
  5
3C9
100
AcDbEntity
  8
ASSI
100
AcDbLine
 62
253
  6
CONTINUOUS
 10
8.45301846
 20
-19.6109791689
 11
8.3516705321
 21
-19.366303627
  0
LINE
  5
3CA
100
AcDbEntity
  8
RACCORDO
100
AcDbLine
 62
7
  6
CONTINUOUS
 10
-8.1388205855
 20
22.3126551668
 11
-8.171385213
 21
22.3912731322
  0
LINE
  5
3CB
100
AcDbEntity
  8
CORPO
100
AcDbLine
 62
253
  6
CONTINUOUS
 10
9.1600175454
 20
-19.3181305591
 11
9.0586696175
 21
-19.0734550172
  0
LINE
  5
3CC
100
AcDbEntity
  8
ASSI
100
AcDbLine
 62
253
  6
CONTINUOUS
 10
9.1600175454
 20
-19.3181305591
 11
9.0586696175
 21
-19.0734550172
  0
LINE
  5
3CD
100
AcDbEntity
  8
0
100
AcDbLine
 62
7
  6
CONTINUOUS
 10
7.9374373907
 20
-20.7875626093
 11
7.9748860669
 21
-20.9
  0
LINE
  5
3CE
100
AcDbEntity
  8
0
100
AcDbLine
 62
7
  6
CONTINUOUS
 10
8.6877799377
 20
-20.0372200623
 11
8.725
 21
-20.1489710538
  0
LINE
  5
3CF
100
AcDbEntity
  8
0
100
AcDbLine
 62
7
  6
CONTINUOUS
 10
2.575
 20
13.2047531686
 11
2.575
 21
12.25
  0
LINE
  5
3D0
100
AcDbEntity
  8
0
100
AcDbLine
 62
7
  6
CONTINUOUS
 10
2.575
 20
-12.25
 11
2.575
 21
-13.2047531686
  0
LINE
  5
3D1
100
AcDbEntity
  8
DRAFT
100
AcDbLine
 62
7
  6
CONTINUOUS
 10
2.575
 20
-20.0
 11
2.575
 21
-20.0445070257
  0
LINE
  5
3D2
100
AcDbEntity
  8
ASSI
100
AcDbLine
 62
7
  6
CONTINUOUS
 10
2.575
 20
-22.3339198952
 11
2.575
 21
-23.7941821702
  0
LINE
  5
3D3
100
AcDbEntity
  8
DRAFT
100
AcDbLine
 62
7
  6
CONTINUOUS
 10
2.575
 20
20.0
 11
2.575
 21
20.0445070257
  0
LINE
  5
3D4
100
AcDbEntity
  8
ASSI
100
AcDbLine
 62
7
  6
CONTINUOUS
 10
2.575
 20
22.3339198952
 11
2.575
 21
23.7941821702
  0
LINE
  5
3D5
100
AcDbEntity
  8
CORPO
100
AcDbLine
 62
7
  6
CONTINUOUS
 10
3.075
 20
-11.5507760423
 11
3.075
 21
-12.4492239577
  0
LINE
  5
3D6
100
AcDbEntity
  8
ASSI
100
AcDbLine
 62
7
  6
CONTINUOUS
 10
3.075
 20
-11.5507760423
 11
3.075
 21
-12.4492239577
  0
LINE
  5
3D7
100
AcDbEntity
  8
CORPO
100
AcDbLine
 62
7
  6
CONTINUOUS
 10
3.075
 20
11.5507760423
 11
3.075
 21
12.4492239577
  0
LINE
  5
3D8
100
AcDbEntity
  8
ASSI
100
AcDbLine
 62
7
  6
CONTINUOUS
 10
3.075
 20
11.5507760423
 11
3.075
 21
12.4492239577
  0
LINE
  5
3D9
100
AcDbEntity
  8
ASSI
100
AcDbLine
 62
253
  6
CONTINUOUS
 10
3.4309327327
 20
23.7507734247
 11
3.4309327327
 21
22.3338981669
  0
LINE
  5
3DA
100
AcDbEntity
  8
ASSI
100
AcDbLine
 62
253
  6
CONTINUOUS
 10
3.4309327327
 20
-22.3338981669
 11
3.4309327327
 21
-23.7507734247
  0
LINE
  5
3DB
100
AcDbEntity
  8
DRAFT
100
AcDbLine
 62
7
  6
CONTINUOUS
 10
3.475
 20
-23.8
 11
3.475
 21
-22.4
  0
LINE
  5
3DC
100
AcDbEntity
  8
DRAFT
100
AcDbLine
 62
7
  6
CONTINUOUS
 10
3.475
 20
22.4
 11
3.475
 21
23.8
  0
LINE
  5
3DD
100
AcDbEntity
  8
CORPO
100
AcDbLine
 62
7
  6
CONTINUOUS
 10
4.7359791689
 20
19.8109791689
 11
4.7359791689
 21
19.6109791689
  0
LINE
  5
3DE
100
AcDbEntity
  8
ASSI
100
AcDbLine
 62
7
  6
CONTINUOUS
 10
4.7359791689
 20
19.8109791689
 11
4.7359791689
 21
19.6109791689
  0
LINE
  5
3DF
100
AcDbEntity
  8
CORPO
100
AcDbLine
 62
7
  6
CONTINUOUS
 10
4.7359791689
 20
-19.6109791689
 11
4.7359791689
 21
-19.8109791689
  0
LINE
  5
3E0
100
AcDbEntity
  8
ASSI
100
AcDbLine
 62
7
  6
CONTINUOUS
 10
4.7359791689
 20
-19.6109791689
 11
4.7359791689
 21
-19.8109791689
  0
LINE
  5
3E1
100
AcDbEntity
  8
CORPO
100
AcDbLine
 62
7
  6
CONTINUOUS
 10
4.825
 20
19.9
 11
4.825
 21
19.7
  0
LINE
  5
3E2
100
AcDbEntity
  8
ASSI
100
AcDbLine
 62
7
  6
CONTINUOUS
 10
4.825
 20
19.9
 11
4.825
 21
19.7
  0
LINE
  5
3E3
100
AcDbEntity
  8
CORPO
100
AcDbLine
 62
7
  6
CONTINUOUS
 10
4.825
 20
-19.7
 11
4.825
 21
-19.9
  0
LINE
  5
3E4
100
AcDbEntity
  8
ASSI
100
AcDbLine
 62
7
  6
CONTINUOUS
 10
4.825
 20
-19.7
 11
4.825
 21
-19.9
  0
LINE
  5
3E5
100
AcDbEntity
  8
RACCORDO
100
AcDbLine
 62
7
  6
CONTINUOUS
 10
5.4331782981
 20
20.5829242832
 11
5.4331782981
 21
19.9570181168
  0
LINE
  5
3E6
100
AcDbEntity
  8
RACCORDO
100
AcDbLine
 62
7
  6
CONTINUOUS
 10
5.4331782981
 20
-19.9570181168
 11
5.4331782981
 21
-20.5829242832
  0
LINE
  5
3E7
100
AcDbEntity
  8
0
100
AcDbLine
 62
7
  6
CONTINUOUS
 10
-7.280294768
 20
-20.0829433217
 11
-7.1761048448
 21
-19.9266562329
  0
LINE
  5
3E8
100
AcDbEntity
  8
CORPO
100
AcDbLine
 62
253
  6
CONTINUOUS
 10
-11.0700765893
 20
-18.9120480454
 11
-10.3630775039
 21
-18.20504896
  0
LINE
  5
3E9
100
AcDbEntity
  8
ASSI
100
AcDbLine
 62
253
  6
CONTINUOUS
 10
-11.0700765893
 20
-18.9120480454
 11
-10.3630775039
 21
-18.20504896
  0
LINE
  5
3EA
100
AcDbEntity
  8
CORPO
100
AcDbLine
 62
253
  6
CONTINUOUS
 10
-10.9086696175
 20
-19.0734550172
 11
-10.2016705321
 21
-18.3664559318
  0
LINE
  5
3EB
100
AcDbEntity
  8
ASSI
100
AcDbLine
 62
253
  6
CONTINUOUS
 10
-10.9086696175
 20
-19.0734550172
 11
-10.2016705321
 21
-18.3664559318
  0
LINE
  5
3EC
100
AcDbEntity
  8
CURVE
100
AcDbLine
 62
253
  6
CONTINUOUS
 10
10.1702543358
 20
5.386478
 11
10.1579357903
 21
5.386471
  0
LINE
  5
3ED
100
AcDbEntity
  8
CURVE
100
AcDbLine
 62
253
  6
CONTINUOUS
 10
10.148570764
 20
5.378409
 11
10.1289974047
 21
5.378474
  0
LINE
  5
3EE
100
AcDbEntity
  8
CORPO
100
AcDbLine
 62
253
  6
CONTINUOUS
 10
-11.0700765893
 20
18.9120480454
 11
-10.3630775039
 21
18.20504896
  0
LINE
  5
3EF
100
AcDbEntity
  8
ASSI
100
AcDbLine
 62
253
  6
CONTINUOUS
 10
-11.0700765893
 20
18.9120480454
 11
-10.3630775039
 21
18.20504896
  0
LINE
  5
3F0
100
AcDbEntity
  8
CORPO
100
AcDbLine
 62
253
  6
CONTINUOUS
 10
-10.9086696175
 20
19.0734550172
 11
-10.2016705321
 21
18.3664559318
  0
LINE
  5
3F1
100
AcDbEntity
  8
ASSI
100
AcDbLine
 62
253
  6
CONTINUOUS
 10
-10.9086696175
 20
19.0734550172
 11
-10.2016705321
 21
18.3664559318
  0
LINE
  5
3F2
100
AcDbEntity
  8
0
100
AcDbLine
 62
7
  6
CONTINUOUS
 10
-7.280294768
 20
20.0829433217
 11
-7.1761048448
 21
19.9266562329
  0
LINE
  5
3F3
100
AcDbEntity
  8
RACCORDO
100
AcDbLine
 62
253
  6
CONTINUOUS
 10
7.329371834
 20
-23.8443375673
 11
7.325
 21
-23.4104851482
  0
LINE
  5
3F4
100
AcDbEntity
  8
RACCORDO
100
AcDbLine
 62
253
  6
CONTINUOUS
 10
7.5800948319
 20
-23.7
 11
7.5742770021
 21
-23.1226497308
  0
LINE
  5
3F5
100
AcDbEntity
  8
RACCORDO
100
AcDbLine
 62
7
  6
CONTINUOUS
 10
6.3168217019
 20
20.9959955457
 11
6.3168217019
 21
19.9570181168
  0
LINE
  5
3F6
100
AcDbEntity
  8
RACCORDO
100
AcDbLine
 62
7
  6
CONTINUOUS
 10
6.3168217019
 20
-19.9570181168
 11
6.3168217019
 21
-20.9959955457
  0
LINE
  5
3F7
100
AcDbEntity
  8
RACCORDO
100
AcDbLine
 62
7
  6
CONTINUOUS
 10
6.4267786853
 20
19.959088481
 11
6.4267786853
 21
19.7
  0
LINE
  5
3F8
100
AcDbEntity
  8
RACCORDO
100
AcDbLine
 62
7
  6
CONTINUOUS
 10
6.4267786853
 20
-19.959088481
 11
6.4267786853
 21
-19.7
  0
LINE
  5
3F9
100
AcDbEntity
  8
CORPO
100
AcDbLine
 62
7
  6
CONTINUOUS
 10
6.475
 20
20.85
 11
6.475
 21
19.7
  0
LINE
  5
3FA
100
AcDbEntity
  8
ASSI
100
AcDbLine
 62
7
  6
CONTINUOUS
 10
6.475
 20
20.85
 11
6.475
 21
19.7
  0
LINE
  5
3FB
100
AcDbEntity
  8
CORPO
100
AcDbLine
 62
7
  6
CONTINUOUS
 10
6.475
 20
-19.7
 11
6.475
 21
-20.85
  0
LINE
  5
3FC
100
AcDbEntity
  8
ASSI
100
AcDbLine
 62
7
  6
CONTINUOUS
 10
6.475
 20
-19.7
 11
6.475
 21
-20.85
  0
LINE
  5
3FD
100
AcDbEntity
  8
CORPO
100
AcDbLine
 62
7
  6
CONTINUOUS
 10
6.5640208311
 20
20.85
 11
6.5640208311
 21
19.6109791689
  0
LINE
  5
3FE
100
AcDbEntity
  8
ASSI
100
AcDbLine
 62
7
  6
CONTINUOUS
 10
6.5640208311
 20
20.85
 11
6.5640208311
 21
19.6109791689
  0
LINE
  5
3FF
100
AcDbEntity
  8
CORPO
100
AcDbLine
 62
7
  6
CONTINUOUS
 10
6.5640208311
 20
-19.6109791689
 11
6.5640208311
 21
-20.85
  0
LINE
  5
400
100
AcDbEntity
  8
ASSI
100
AcDbLine
 62
7
  6
CONTINUOUS
 10
6.5640208311
 20
-19.6109791689
 11
6.5640208311
 21
-20.85
  0
LINE
  5
401
100
AcDbEntity
  8
RACCORDO
100
AcDbLine
 62
253
  6
CONTINUOUS
 10
6.6591007192
 20
-21.3126932437
 11
6.6591007192
 21
-20.9959955457
  0
LINE
  5
402
100
AcDbEntity
  8
RACCORDO
100
AcDbLine
 62
253
  6
CONTINUOUS
 10
6.6591007192
 20
20.9959955457
 11
6.6591007192
 21
21.3126932437
  0
LINE
  5
403
100
AcDbEntity
  8
RACCORDO
100
AcDbLine
 62
253
  6
CONTINUOUS
 10
7.1590245667
 20
-21.4362803622
 11
7.1590245667
 21
-20.9917082642
  0
LINE
  5
404
100
AcDbEntity
  8
RACCORDO
100
AcDbLine
 62
253
  6
CONTINUOUS
 10
7.1590245667
 20
20.9917082642
 11
7.1590245667
 21
21.4362803622
  0
LINE
  5
405
100
AcDbEntity
  8
DRAFT
100
AcDbLine
 62
7
  6
CONTINUOUS
 10
7.325
 20
21.3876583452
 11
7.325
 21
20.9
  0
LINE
  5
406
100
AcDbEntity
  8
DRAFT
100
AcDbLine
 62
7
  6
CONTINUOUS
 10
7.325
 20
-20.9
 11
7.325
 21
-21.3876583452
  0
LINE
  5
407
100
AcDbEntity
  8
RACCORDO
100
AcDbLine
 62
7
  6
CONTINUOUS
 10
7.325
 20
-22.4
 11
7.325
 21
-24.2500042308
  0
LINE
  5
408
100
AcDbEntity
  8
RACCORDO
100
AcDbLine
 62
7
  6
CONTINUOUS
 10
7.325
 20
22.4
 11
7.325
 21
24.2500042308
  0
LINE
  5
409
100
AcDbEntity
  8
RACCORDO
100
AcDbLine
 62
253
  6
CONTINUOUS
 10
7.329371834
 20
24.2456323968
 11
7.329371834
 21
23.8443375673
  0
LINE
  5
40A
100
AcDbEntity
  8
RACCORDO
100
AcDbLine
 62
253
  6
CONTINUOUS
 10
7.329371834
 20
-23.8443375673
 11
7.329371834
 21
-24.2456323968
  0
LINE
  5
40B
100
AcDbEntity
  8
RACCORDO
100
AcDbLine
 62
253
  6
CONTINUOUS
 10
7.5793676032
 20
-23.7
 11
7.5793676032
 21
-24.495628166
  0
LINE
  5
40C
100
AcDbEntity
  8
RACCORDO
100
AcDbLine
 62
253
  6
CONTINUOUS
 10
7.5793676032
 20
23.6278312164
 11
7.5793676032
 21
24.495628166
  0
LINE
  5
40D
100
AcDbEntity
  8
RACCORDO
100
AcDbLine
 62
253
  6
CONTINUOUS
 10
7.325
 20
23.4104851482
 11
7.329371834
 21
23.8443375673
  0
LINE
  5
40E
100
AcDbEntity
  8
RACCORDO
100
AcDbLine
 62
253
  6
CONTINUOUS
 10
7.5742770021
 20
23.1226497308
 11
7.5793676032
 21
23.6278312164
  0
LINE
  5
40F
100
AcDbEntity
  8
CORPO
100
AcDbLine
 62
7
  6
CONTINUOUS
 10
-3.7658357334
 20
-18.3664559318
 11
-3.7274659223
 21
-18.3
  0
LINE
  5
410
100
AcDbEntity
  8
ASSI
100
AcDbLine
 62
7
  6
CONTINUOUS
 10
-3.7658357334
 20
-18.3664559318
 11
-3.7274659223
 21
-18.3
  0
LINE
  5
411
100
AcDbEntity
  8
CORPO
100
AcDbLine
 62
253
  6
CONTINUOUS
 10
-3.6748952884
 20
-18.3
 11
-4.3413653663
 21
-19.4544039928
  0
LINE
  5
412
100
AcDbEntity
  8
ASSI
100
AcDbLine
 62
253
  6
CONTINUOUS
 10
-3.6748952884
 20
-18.3
 11
-4.3413653663
 21
-19.4544039928
  0
LINE
  5
413
100
AcDbEntity
  8
CORPO
100
AcDbLine
 62
253
  6
CONTINUOUS
 10
-1.0643615326
 20
-9.5880854619
 11
-1.2734038204
 21
-9.8016684144
  0
LINE
  5
414
100
AcDbEntity
  8
ASSI
100
AcDbLine
 62
253
  6
CONTINUOUS
 10
-1.0643615326
 20
-9.5880854619
 11
-1.2734038204
 21
-9.8016684144
  0
LINE
  5
415
100
AcDbEntity
  8
CORPO
100
AcDbLine
 62
253
  6
CONTINUOUS
 10
-1.502993541
 20
-10.1754329587
 11
-1.2862459851
 21
-9.9696737934
  0
LINE
  5
416
100
AcDbEntity
  8
ASSI
100
AcDbLine
 62
253
  6
CONTINUOUS
 10
-1.502993541
 20
-10.1754329587
 11
-1.2862459851
 21
-9.9696737934
  0
LINE
  5
417
100
AcDbEntity
  8
CURVE
100
AcDbLine
 62
253
  6
CONTINUOUS
 10
10.1289974047
 20
5.958503
 11
10.1796193622
 21
5.958503
  0
LINE
  5
418
100
AcDbEntity
  8
CORPO
100
AcDbLine
 62
253
  6
CONTINUOUS
 10
-1.5029935412
 20
10.1754329589
 11
-1.2862459852
 21
9.9696737943
  0
LINE
  5
419
100
AcDbEntity
  8
ASSI
100
AcDbLine
 62
253
  6
CONTINUOUS
 10
-1.5029935412
 20
10.1754329589
 11
-1.2862459852
 21
9.9696737943
  0
LINE
  5
41A
100
AcDbEntity
  8
CORPO
100
AcDbLine
 62
253
  6
CONTINUOUS
 10
-1.0643615328
 20
9.588085462
 11
-1.2734038204
 21
9.8016684144
  0
LINE
  5
41B
100
AcDbEntity
  8
ASSI
100
AcDbLine
 62
253
  6
CONTINUOUS
 10
-1.0643615328
 20
9.588085462
 11
-1.2734038204
 21
9.8016684144
  0
LINE
  5
41C
100
AcDbEntity
  8
CORPO
100
AcDbLine
 62
7
  6
CONTINUOUS
 10
-3.7658357334
 20
18.3664559318
 11
-3.7274659223
 21
18.3
  0
LINE
  5
41D
100
AcDbEntity
  8
ASSI
100
AcDbLine
 62
7
  6
CONTINUOUS
 10
-3.7658357334
 20
18.3664559318
 11
-3.7274659223
 21
18.3
  0
LINE
  5
41E
100
AcDbEntity
  8
CORPO
100
AcDbLine
 62
253
  6
CONTINUOUS
 10
-3.6748952884
 20
18.3
 11
-4.3413653663
 21
19.4544039928
  0
LINE
  5
41F
100
AcDbEntity
  8
ASSI
100
AcDbLine
 62
253
  6
CONTINUOUS
 10
-3.6748952884
 20
18.3
 11
-4.3413653663
 21
19.4544039928
  0
LINE
  5
420
100
AcDbEntity
  8
CURVE
100
AcDbLine
 62
253
  6
CONTINUOUS
 10
10.0767566272
 20
-10.8857143342
 11
10.1028145455
 21
-11.2928571105
  0
LINE
  5
421
100
AcDbEntity
  8
CURVE
100
AcDbLine
 62
253
  6
CONTINUOUS
 10
10.1481320483
 20
-14.176491
 11
10.1699286163
 21
-14.606449
  0
LINE
  5
422
100
AcDbEntity
  8
CURVE
100
AcDbLine
 62
253
  6
CONTINUOUS
 10
10.1289971429
 20
-13.798889
 11
10.1397224388
 21
-14.015846
  0
LINE
  5
423
100
AcDbEntity
  8
CURVE
100
AcDbLine
 62
253
  6
CONTINUOUS
 10
10.1796014306
 20
-14.252884
 11
10.1289971429
 21
-13.20444
  0
LINE
  5
424
100
AcDbEntity
  8
CURVE
100
AcDbLine
 62
253
  6
CONTINUOUS
 10
9.8758987014
 20
-12.749279
 11
9.8985902858
 21
-13.319613
  0
LINE
  5
425
100
AcDbEntity
  8
CURVE
100
AcDbLine
 62
253
  6
CONTINUOUS
 10
9.8985902858
 20
-15.999343
 11
9.88467921
 21
-15.523604
  0
LINE
  5
426
100
AcDbEntity
  8
CORPO
100
AcDbLine
 62
253
  6
CONTINUOUS
 10
8.3516705321
 20
19.366303627
 11
8.3516705321
 21
18.3664559318
  0
LINE
  5
427
100
AcDbEntity
  8
ASSI
100
AcDbLine
 62
253
  6
CONTINUOUS
 10
8.3516705321
 20
19.366303627
 11
8.3516705321
 21
18.3664559318
  0
LINE
  5
428
100
AcDbEntity
  8
CORPO
100
AcDbLine
 62
253
  6
CONTINUOUS
 10
8.3516705321
 20
-19.366303627
 11
8.3516705321
 21
-18.3664559318
  0
LINE
  5
429
100
AcDbEntity
  8
ASSI
100
AcDbLine
 62
253
  6
CONTINUOUS
 10
8.3516705321
 20
-19.366303627
 11
8.3516705321
 21
-18.3664559318
  0
LINE
  5
42A
100
AcDbEntity
  8
0
100
AcDbLine
 62
7
  6
CONTINUOUS
 10
8.725
 20
20.1489710538
 11
8.725
 21
20.0
  0
LINE
  5
42B
100
AcDbEntity
  8
0
100
AcDbLine
 62
7
  6
CONTINUOUS
 10
8.725
 20
-20.0
 11
8.725
 21
-20.1489710538
  0
LINE
  5
42C
100
AcDbEntity
  8
CORPO
100
AcDbLine
 62
253
  6
CONTINUOUS
 10
8.8059261137
 20
17.4980498746
 11
8.8059261137
 21
-17.4980498746
  0
LINE
  5
42D
100
AcDbEntity
  8
ASSI
100
AcDbLine
 62
253
  6
CONTINUOUS
 10
8.8059261137
 20
17.4980498746
 11
8.8059261137
 21
-17.4980498746
  0
LINE
  5
42E
100
AcDbEntity
  8
RACCORDO
100
AcDbLine
 62
253
  6
CONTINUOUS
 10
9.4706323968
 20
-23.7
 11
9.4706323968
 21
-24.495628166
  0
LINE
  5
42F
100
AcDbEntity
  8
RACCORDO
100
AcDbLine
 62
253
  6
CONTINUOUS
 10
9.4706323968
 20
23.6278312164
 11
9.4706323968
 21
24.495628166
  0
LINE
  5
430
100
AcDbEntity
  8
CURVE
100
AcDbLine
 62
253
  6
CONTINUOUS
 10
9.8985902858
 20
14.3724
 11
9.8758987014
 21
13.824061
  0
LINE
  5
431
100
AcDbEntity
  8
CURVE
100
AcDbLine
 62
253
  6
CONTINUOUS
 10
10.1289971429
 20
15.068868
 11
10.17961924
 21
16.0
  0
LINE
  5
432
100
AcDbEntity
  8
CURVE
100
AcDbLine
 62
253
  6
CONTINUOUS
 10
10.17961924
 20
15.419971
 11
10.1447632732
 21
14.778839
  0
LINE
  5
433
100
AcDbEntity
  8
CURVE
100
AcDbLine
 62
253
  6
CONTINUOUS
 10
10.1289972651
 20
10.882587
 11
10.1623790644
 21
11.430963
  0
LINE
  5
434
100
AcDbEntity
  8
CURVE
100
AcDbLine
 62
253
  6
CONTINUOUS
 10
10.17961924
 20
11.134148
 11
10.1466524
 21
10.59258
  0
LINE
  5
435
100
AcDbEntity
  8
RACCORDO
100
AcDbLine
 62
7
  6
CONTINUOUS
 10
6.3738376746
 20
-20.9104703804
 11
6.4240220113
 21
-20.4584032484
  0
LINE
  5
436
100
AcDbEntity
  8
DRAFT
100
AcDbLine
 62
7
  6
CONTINUOUS
 10
-5.325
 20
-22.4
 11
-5.2809327327
 21
-22.3338981669
  0
LINE
  5
437
100
AcDbEntity
  8
0
100
AcDbLine
 62
7
  6
CONTINUOUS
 10
-7.2820215015
 20
-19.7570215015
 11
-7.225
 21
-19.7
  0
LINE
  5
438
100
AcDbEntity
  8
RACCORDO
100
AcDbLine
 62
253
  6
CONTINUOUS
 10
-11.570628166
 20
-24.2456323968
 11
-11.575
 21
-24.2500042308
  0
LINE
  5
439
100
AcDbEntity
  8
CORPO
100
AcDbLine
 62
7
  6
CONTINUOUS
 10
-6.675
 20
-19.7
 11
-6.5859791689
 21
-19.6109791689
  0
LINE
  5
43A
100
AcDbEntity
  8
ASSI
100
AcDbLine
 62
7
  6
CONTINUOUS
 10
-6.675
 20
-19.7
 11
-6.5859791689
 21
-19.6109791689
  0
LINE
  5
43B
100
AcDbEntity
  8
RACCORDO
100
AcDbLine
 62
253
  6
CONTINUOUS
 10
-11.3206323968
 20
-24.495628166
 11
-11.3250042308
 21
-24.5
  0
LINE
  5
43C
100
AcDbEntity
  8
CORPO
100
AcDbLine
 62
7
  6
CONTINUOUS
 10
-6.5859791689
 20
-19.8109791689
 11
-6.675
 21
-19.9
  0
LINE
  5
43D
100
AcDbEntity
  8
ASSI
100
AcDbLine
 62
7
  6
CONTINUOUS
 10
-6.5859791689
 20
-19.8109791689
 11
-6.675
 21
-19.9
  0
LINE
  5
43E
100
AcDbEntity
  8
CURVE
100
AcDbLine
 62
253
  6
CONTINUOUS
 10
9.8758987014
 20
7.7216
 11
9.8985902858
 21
7.7216
  0
LINE
  5
43F
100
AcDbEntity
  8
CURVE
100
AcDbLine
 62
253
  6
CONTINUOUS
 10
9.8985902858
 20
7.992
 11
9.8758987014
 21
7.992
  0
LINE
  5
440
100
AcDbEntity
  8
CURVE
100
AcDbLine
 62
253
  6
CONTINUOUS
 10
9.8985902858
 20
9.0424
 11
9.8758987014
 21
9.0424
  0
LINE
  5
441
100
AcDbEntity
  8
CURVE
100
AcDbLine
 62
253
  6
CONTINUOUS
 10
10.17961924
 20
9.174176
 11
10.1289972651
 21
9.174176
  0
LINE
  5
442
100
AcDbEntity
  8
0
100
AcDbLine
 62
7
  6
CONTINUOUS
 10
-7.2820215015
 20
19.7570215015
 11
-7.225
 21
19.7
  0
LINE
  5
443
100
AcDbEntity
  8
RACCORDO
100
AcDbLine
 62
253
  6
CONTINUOUS
 10
-11.570628166
 20
24.2456323968
 11
-11.575
 21
24.2500042308
  0
LINE
  5
444
100
AcDbEntity
  8
CORPO
100
AcDbLine
 62
7
  6
CONTINUOUS
 10
-6.675
 20
19.7
 11
-6.5859791689
 21
19.6109791689
  0
LINE
  5
445
100
AcDbEntity
  8
ASSI
100
AcDbLine
 62
7
  6
CONTINUOUS
 10
-6.675
 20
19.7
 11
-6.5859791689
 21
19.6109791689
  0
LINE
  5
446
100
AcDbEntity
  8
RACCORDO
100
AcDbLine
 62
253
  6
CONTINUOUS
 10
-11.3206323968
 20
24.495628166
 11
-11.3250042308
 21
24.5
  0
LINE
  5
447
100
AcDbEntity
  8
CORPO
100
AcDbLine
 62
7
  6
CONTINUOUS
 10
-6.675
 20
19.9
 11
-6.5859791689
 21
19.8109791689
  0
LINE
  5
448
100
AcDbEntity
  8
ASSI
100
AcDbLine
 62
7
  6
CONTINUOUS
 10
-6.675
 20
19.9
 11
-6.5859791689
 21
19.8109791689
  0
LINE
  5
449
100
AcDbEntity
  8
DRAFT
100
AcDbLine
 62
7
  6
CONTINUOUS
 10
-5.325
 20
22.4
 11
-5.2809327327
 21
22.3338981669
  0
LINE
  5
44A
100
AcDbEntity
  8
RACCORDO
100
AcDbLine
 62
7
  6
CONTINUOUS
 10
6.4240220113
 20
20.4584032484
 11
6.3738376746
 21
20.9104703804
  0
LINE
  5
44B
100
AcDbEntity
  8
CURVE
100
AcDbLine
 62
253
  6
CONTINUOUS
 10
10.1623790644
 20
9.754205
 11
10.1289974047
 21
10.30258
  0
LINE
  5
44C
100
AcDbEntity
  8
CURVE
100
AcDbLine
 62
253
  6
CONTINUOUS
 10
10.1466524
 20
10.59258
 11
10.17961924
 21
10.051012
  0
LINE
  5
44D
100
AcDbEntity
  8
CURVE
100
AcDbLine
 62
253
  6
CONTINUOUS
 10
10.138952517
 20
8.024362
 11
10.1289974047
 21
8.207475
  0
LINE
  5
44E
100
AcDbEntity
  8
CURVE
100
AcDbLine
 62
253
  6
CONTINUOUS
 10
10.1638532319
 20
7.56635
 11
10.1485706418
 21
7.84744
  0
LINE
  5
44F
100
AcDbEntity
  8
CURVE
100
AcDbLine
 62
253
  6
CONTINUOUS
 10
10.1289972651
 20
8.787497
 11
10.1796193622
 21
7.856372
  0
LINE
  5
450
100
AcDbEntity
  8
CURVE
100
AcDbLine
 62
253
  6
CONTINUOUS
 10
10.17961924
 20
13.557685
 11
10.1289972651
 21
14.488824
  0
LINE
  5
451
100
AcDbEntity
  8
CURVE
100
AcDbLine
 62
253
  6
CONTINUOUS
 10
10.1447632732
 20
14.778839
 11
10.17961924
 21
14.137714
  0
LINE
  5
452
100
AcDbEntity
  8
CURVE
100
AcDbLine
 62
253
  6
CONTINUOUS
 10
10.1481320483
 20
-8.151456
 11
10.169931478
 21
-8.581471
  0
LINE
  5
453
100
AcDbEntity
  8
CURVE
100
AcDbLine
 62
253
  6
CONTINUOUS
 10
10.1289971429
 20
-7.773964
 11
10.1397224388
 21
-7.990812
  0
LINE
  5
454
100
AcDbEntity
  8
CURVE
100
AcDbLine
 62
253
  6
CONTINUOUS
 10
10.1796014306
 20
-8.227849
 11
10.1289971429
 21
-7.179514
  0
LINE
  5
455
100
AcDbEntity
  8
CURVE
100
AcDbLine
 62
253
  6
CONTINUOUS
 10
9.8758987014
 20
14.993539
 11
9.8985902858
 21
14.4452
  0
LINE
  5
456
100
AcDbEntity
  8
CURVE
100
AcDbLine
 62
253
  6
CONTINUOUS
 10
9.8758987014
 20
-4.599557
 11
9.8985902858
 21
-5.16989
  0
LINE
  5
457
100
AcDbEntity
  8
CURVE
100
AcDbLine
 62
253
  6
CONTINUOUS
 10
9.8758987014
 20
-3.802869
 11
9.8985902858
 21
-4.425736
  0
LINE
  5
458
100
AcDbEntity
  8
CURVE
100
AcDbLine
 62
253
  6
CONTINUOUS
 10
10.1028145455
 20
-12.65
 11
10.0957078399
 21
-12.3785713315
  0
LINE
  5
459
100
AcDbEntity
  8
CURVE
100
AcDbLine
 62
253
  6
CONTINUOUS
 10
10.0696499221
 20
-12.3785713315
 11
10.0933389394
 21
-13.3285713315
  0
LINE
  5
45A
100
AcDbEntity
  8
CURVE
100
AcDbLine
 62
253
  6
CONTINUOUS
 10
10.0720188239
 20
-16.042857337
 11
10.0696499221
 21
-15.907142663
  0
LINE
  5
45B
100
AcDbEntity
  8
CURVE
100
AcDbLine
 62
253
  6
CONTINUOUS
 10
10.0720188239
 20
-14.685714221
 11
10.0696499221
 21
-14.55
  0
LINE
  5
45C
100
AcDbEntity
  8
CURVE
100
AcDbLine
 62
253
  6
CONTINUOUS
 10
10.0933389394
 20
-9.8
 11
10.1028145455
 21
-10.3428571671
  0
LINE
  5
45D
100
AcDbEntity
  8
CURVE
100
AcDbLine
 62
253
  6
CONTINUOUS
 10
10.0909700369
 20
-15.9976189613
 11
10.0886011363
 21
-15.771428442
  0
LINE
  5
45E
100
AcDbEntity
  8
CURVE
100
AcDbLine
 62
253
  6
CONTINUOUS
 10
10.0909700369
 20
-14.6404762983
 11
10.0886011363
 21
-14.414285779
  0
LINE
  5
45F
100
AcDbEntity
  8
RACCORDO
100
AcDbLine
 62
253
  6
CONTINUOUS
 10
9.4706323968
 20
23.6278312164
 11
9.4757229979
 21
23.1226497308
  0
LINE
  5
460
100
AcDbEntity
  8
RACCORDO
100
AcDbLine
 62
253
  6
CONTINUOUS
 10
9.720628166
 20
23.8443375673
 11
9.725
 21
23.4104851482
  0
LINE
  5
461
100
AcDbEntity
  8
RACCORDO
100
AcDbLine
 62
253
  6
CONTINUOUS
 10
9.720628166
 20
-24.2456323968
 11
9.720628166
 21
-23.8443375673
  0
LINE
  5
462
100
AcDbEntity
  8
RACCORDO
100
AcDbLine
 62
253
  6
CONTINUOUS
 10
9.720628166
 20
23.8443375673
 11
9.720628166
 21
24.2456323968
  0
LINE
  5
463
100
AcDbEntity
  8
RACCORDO
100
AcDbLine
 62
7
  6
CONTINUOUS
 10
9.725
 20
-22.399689968
 11
9.725
 21
-24.2500042308
  0
LINE
  5
464
100
AcDbEntity
  8
RACCORDO
100
AcDbLine
 62
7
  6
CONTINUOUS
 10
9.725
 20
22.399689968
 11
9.725
 21
24.2500042308
  0
LINE
  5
465
100
AcDbEntity
  8
CORPO
100
AcDbLine
 62
253
  6
CONTINUOUS
 10
9.8057738088
 20
17.4980498746
 11
9.8057738088
 21
-17.4980498746
  0
LINE
  5
466
100
AcDbEntity
  8
ASSI
100
AcDbLine
 62
253
  6
CONTINUOUS
 10
9.8057738088
 20
17.4980498746
 11
9.8057738088
 21
-17.4980498746
  0
LINE
  5
467
100
AcDbEntity
  8
CURVE
100
AcDbLine
 62
253
  6
CONTINUOUS
 10
9.8758987014
 20
-14.885852
 11
9.8758987014
 21
-14.138918
  0
LINE
  5
468
100
AcDbEntity
  8
CURVE
100
AcDbLine
 62
253
  6
CONTINUOUS
 10
9.8758987014
 20
-8.186432
 11
9.8758987014
 21
-7.226755
  0
LINE
  5
469
100
AcDbEntity
  8
CURVE
100
AcDbLine
 62
253
  6
CONTINUOUS
 10
9.8758987014
 20
-6.340243
 11
9.8758987014
 21
-5.910407
  0
LINE
  5
46A
100
AcDbEntity
  8
CURVE
100
AcDbLine
 62
253
  6
CONTINUOUS
 10
9.8758987014
 20
7.3056
 11
9.8758987014
 21
7.7216
  0
LINE
  5
46B
100
AcDbEntity
  8
CURVE
100
AcDbLine
 62
253
  6
CONTINUOUS
 10
9.8758987014
 20
7.992
 11
9.8758987014
 21
8.0648
  0
LINE
  5
46C
100
AcDbEntity
  8
CURVE
100
AcDbLine
 62
253
  6
CONTINUOUS
 10
9.8758987014
 20
9.3336
 11
9.8758987014
 21
10.1552
  0
LINE
  5
46D
100
AcDbEntity
  8
CURVE
100
AcDbLine
 62
253
  6
CONTINUOUS
 10
9.8826663618
 20
13.9876
 11
9.8826663618
 21
14.83
  0
LINE
  5
46E
100
AcDbEntity
  8
CURVE
100
AcDbLine
 62
253
  6
CONTINUOUS
 10
9.8840048336
 20
-5.536483
 11
9.8840048336
 21
-4.803298
  0
LINE
  5
46F
100
AcDbEntity
  8
CURVE
100
AcDbLine
 62
253
  6
CONTINUOUS
 10
9.8841347167
 20
-13.682941
 11
9.8841347167
 21
-12.956284
  0
LINE
  5
470
100
AcDbEntity
  8
CURVE
100
AcDbLine
 62
253
  6
CONTINUOUS
 10
9.8872444936
 20
11.164
 11
9.8872444936
 21
10.748
  0
LINE
  5
471
100
AcDbEntity
  8
CURVE
100
AcDbLine
 62
253
  6
CONTINUOUS
 10
9.8872444936
 20
-8.107346
 11
9.8872444936
 21
-7.226755
  0
LINE
  5
472
100
AcDbEntity
  8
CURVE
100
AcDbLine
 62
253
  6
CONTINUOUS
 10
9.8872444936
 20
15.584
 11
9.8872444936
 21
16.0
  0
LINE
  5
473
100
AcDbEntity
  8
CURVE
100
AcDbLine
 62
253
  6
CONTINUOUS
 10
9.8879706243
 20
9.396
 11
9.8879706243
 21
10.1552
  0
LINE
  5
474
100
AcDbEntity
  8
CURVE
100
AcDbLine
 62
253
  6
CONTINUOUS
 10
9.8985902858
 20
16.0
 11
9.8985902858
 21
15.584
  0
LINE
  5
475
100
AcDbEntity
  8
CURVE
100
AcDbLine
 62
253
  6
CONTINUOUS
 10
9.8985902858
 20
14.4452
 11
9.8985902858
 21
14.3724
  0
LINE
  5
476
100
AcDbEntity
  8
CURVE
100
AcDbLine
 62
253
  6
CONTINUOUS
 10
9.8985902858
 20
10.1552
 11
9.8985902858
 21
9.3336
  0
LINE
  5
477
100
AcDbEntity
  8
CURVE
100
AcDbLine
 62
253
  6
CONTINUOUS
 10
9.8985902858
 20
7.7216
 11
9.8985902858
 21
7.3056
  0
LINE
  5
478
100
AcDbEntity
  8
CURVE
100
AcDbLine
 62
253
  6
CONTINUOUS
 10
9.8985902858
 20
-5.910407
 11
9.8985902858
 21
-6.340243
  0
LINE
  5
479
100
AcDbEntity
  8
CURVE
100
AcDbLine
 62
253
  6
CONTINUOUS
 10
9.8985902858
 20
-7.226755
 11
9.8985902858
 21
-8.173742
  0
LINE
  5
47A
100
AcDbEntity
  8
CURVE
100
AcDbLine
 62
253
  6
CONTINUOUS
 10
9.8985902858
 20
-12.680447
 11
9.8985902858
 21
-11.624855
  0
LINE
  5
47B
100
AcDbEntity
  8
CURVE
100
AcDbLine
 62
253
  6
CONTINUOUS
 10
9.8985902858
 20
8.9696
 11
9.8985902858
 21
9.0424
  0
LINE
  5
47C
100
AcDbEntity
  8
CURVE
100
AcDbLine
 62
253
  6
CONTINUOUS
 10
9.8985902858
 20
10.748
 11
9.8985902858
 21
11.164
  0
LINE
  5
47D
100
AcDbEntity
  8
CURVE
100
AcDbLine
 62
253
  6
CONTINUOUS
 10
9.8985902858
 20
12.4224
 11
9.8985902858
 21
13.5456
  0
LINE
  5
47E
100
AcDbEntity
  8
CURVE
100
AcDbLine
 62
253
  6
CONTINUOUS
 10
10.0696499221
 20
-15.907142663
 11
10.0696499221
 21
-15.228571558
  0
LINE
  5
47F
100
AcDbEntity
  8
CURVE
100
AcDbLine
 62
253
  6
CONTINUOUS
 10
10.0696499221
 20
-14.55
 11
10.0696499221
 21
-13.871428442
  0
LINE
  5
480
100
AcDbEntity
  8
CURVE
100
AcDbLine
 62
253
  6
CONTINUOUS
 10
10.0696499221
 20
-13.3285713315
 11
10.0696499221
 21
-12.3785713315
  0
LINE
  5
481
100
AcDbEntity
  8
CURVE
100
AcDbLine
 62
253
  6
CONTINUOUS
 10
10.0767566272
 20
-11.835714221
 11
10.0767566272
 21
-10.8857143342
  0
LINE
  5
482
100
AcDbEntity
  8
CURVE
100
AcDbLine
 62
253
  6
CONTINUOUS
 10
10.0886011363
 20
-14.142857337
 11
10.0886011363
 21
-14.414285779
  0
LINE
  5
483
100
AcDbEntity
  8
CURVE
100
AcDbLine
 62
253
  6
CONTINUOUS
 10
10.0886011363
 20
-15.5
 11
10.0886011363
 21
-15.771428442
  0
LINE
  5
484
100
AcDbEntity
  8
CURVE
100
AcDbLine
 62
253
  6
CONTINUOUS
 10
10.1028145455
 20
-13.871428442
 11
10.1028145455
 21
-14.414285779
  0
LINE
  5
485
100
AcDbEntity
  8
CURVE
100
AcDbLine
 62
253
  6
CONTINUOUS
 10
10.1028145455
 20
-15.228571558
 11
10.1028145455
 21
-15.771428442
  0
LINE
  5
486
100
AcDbEntity
  8
CURVE
100
AcDbLine
 62
253
  6
CONTINUOUS
 10
10.1028145455
 20
-13.0571428895
 11
10.1028145455
 21
-12.65
  0
LINE
  5
487
100
AcDbEntity
  8
CURVE
100
AcDbLine
 62
253
  6
CONTINUOUS
 10
10.1289972651
 20
6.345182
 11
10.1289974047
 21
6.925211
  0
LINE
  5
488
100
AcDbEntity
  8
CURVE
100
AcDbLine
 62
253
  6
CONTINUOUS
 10
10.1289971429
 20
-2.70079
 11
10.1289971429
 21
-3.323396
  0
LINE
  5
489
100
AcDbEntity
  8
CURVE
100
AcDbLine
 62
253
  6
CONTINUOUS
 10
10.1289971429
 20
-7.179514
 11
10.1289971429
 21
-7.773964
  0
LINE
  5
48A
100
AcDbEntity
  8
CURVE
100
AcDbLine
 62
253
  6
CONTINUOUS
 10
10.1289971429
 20
-9.348431
 11
10.1289971429
 21
-9.975074
  0
LINE
  5
48B
100
AcDbEntity
  8
CURVE
100
AcDbLine
 62
253
  6
CONTINUOUS
 10
10.1289971429
 20
-13.20444
 11
10.1289971429
 21
-13.798889
  0
LINE
  5
48C
100
AcDbEntity
  8
CURVE
100
AcDbLine
 62
253
  6
CONTINUOUS
 10
10.1289971429
 20
-15.373574
 11
10.1289971429
 21
-16.0
  0
LINE
  5
48D
100
AcDbEntity
  8
CURVE
100
AcDbLine
 62
253
  6
CONTINUOUS
 10
10.1289971429
 20
-12.911198
 11
10.1289971429
 21
-12.027546
  0
LINE
  5
48E
100
AcDbEntity
  8
CURVE
100
AcDbLine
 62
253
  6
CONTINUOUS
 10
10.1289971429
 20
-10.87477
 11
10.1289971429
 21
-10.292325
  0
LINE
  5
48F
100
AcDbEntity
  8
CURVE
100
AcDbLine
 62
253
  6
CONTINUOUS
 10
10.1289971429
 20
-6.866738
 11
10.1289971429
 21
-5.171133
  0
LINE
  5
490
100
AcDbEntity
  8
CURVE
100
AcDbLine
 62
253
  6
CONTINUOUS
 10
10.1289972651
 20
9.174176
 11
10.1289972651
 21
9.754197
  0
LINE
  5
491
100
AcDbEntity
  8
CURVE
100
AcDbLine
 62
253
  6
CONTINUOUS
 10
10.1289972651
 20
11.430963
 11
10.1289972651
 21
12.010985
  0
LINE
  5
492
100
AcDbEntity
  8
CURVE
100
AcDbLine
 62
253
  6
CONTINUOUS
 10
10.1289975269
 20
3.637619
 11
10.1289974047
 21
4.290924
  0
LINE
  5
493
100
AcDbEntity
  8
CURVE
100
AcDbLine
 62
253
  6
CONTINUOUS
 10
10.1289974047
 20
5.378474
 11
10.1289974047
 21
5.958503
  0
LINE
  5
494
100
AcDbEntity
  8
CURVE
100
AcDbLine
 62
253
  6
CONTINUOUS
 10
10.1289974047
 20
8.207475
 11
10.1289972651
 21
8.787497
  0
LINE
  5
495
100
AcDbEntity
  8
CURVE
100
AcDbLine
 62
253
  6
CONTINUOUS
 10
10.1289974047
 20
10.30258
 11
10.1289972651
 21
10.882587
  0
LINE
  5
496
100
AcDbEntity
  8
CURVE
100
AcDbLine
 62
253
  6
CONTINUOUS
 10
10.1289972651
 20
12.590992
 11
10.1289971429
 21
13.171014
  0
LINE
  5
497
100
AcDbEntity
  8
CURVE
100
AcDbLine
 62
253
  6
CONTINUOUS
 10
10.1289972651
 20
14.488824
 11
10.1289971429
 21
15.068868
  0
LINE
  5
498
100
AcDbEntity
  8
CURVE
100
AcDbLine
 62
253
  6
CONTINUOUS
 10
10.1374067525
 20
-5.793739
 11
10.1374067525
 21
-6.866738
  0
LINE
  5
499
100
AcDbEntity
  8
CURVE
100
AcDbLine
 62
253
  6
CONTINUOUS
 10
10.138952517
 20
7.108317
 11
10.138952517
 21
8.024362
  0
LINE
  5
49A
100
AcDbEntity
  8
CURVE
100
AcDbLine
 62
253
  6
CONTINUOUS
 10
10.1397224388
 20
-7.990812
 11
10.1397224388
 21
-9.139549
  0
LINE
  5
49B
100
AcDbEntity
  8
CURVE
100
AcDbLine
 62
253
  6
CONTINUOUS
 10
10.1397224388
 20
-14.015846
 11
10.1397224388
 21
-15.164584
  0
LINE
  5
49C
100
AcDbEntity
  8
CURVE
100
AcDbLine
 62
253
  6
CONTINUOUS
 10
10.1481320483
 20
-15.007869
 11
10.1481320483
 21
-14.176491
  0
LINE
  5
49D
100
AcDbEntity
  8
CURVE
100
AcDbLine
 62
253
  6
CONTINUOUS
 10
10.1481320483
 20
-8.982943
 11
10.1481320483
 21
-8.151456
  0
LINE
  5
49E
100
AcDbEntity
  8
CURVE
100
AcDbLine
 62
253
  6
CONTINUOUS
 10
10.1484843588
 20
-3.58822
 11
10.1484843588
 21
-3.323396
  0
LINE
  5
49F
100
AcDbEntity
  8
CURVE
100
AcDbLine
 62
253
  6
CONTINUOUS
 10
10.1485706418
 20
4.872178
 11
10.148570764
 21
5.378409
  0
LINE
  5
4A0
100
AcDbEntity
  8
CURVE
100
AcDbLine
 62
253
  6
CONTINUOUS
 10
10.1485706418
 20
7.84744
 11
10.1485706418
 21
7.285246
  0
LINE
  5
4A1
100
AcDbEntity
  8
CURVE
100
AcDbLine
 62
253
  6
CONTINUOUS
 10
10.1568939683
 20
-3.323396
 11
10.1568939683
 21
-3.686612
  0
LINE
  5
4A2
100
AcDbEntity
  8
CURVE
100
AcDbLine
 62
253
  6
CONTINUOUS
 10
10.1579357903
 20
5.386471
 11
10.1579357903
 21
4.680795
  0
LINE
  5
4A3
100
AcDbEntity
  8
CURVE
100
AcDbLine
 62
253
  6
CONTINUOUS
 10
10.1702543358
 20
4.680795
 11
10.1702543358
 21
5.386478
  0
LINE
  5
4A4
100
AcDbEntity
  8
CURVE
100
AcDbLine
 62
253
  6
CONTINUOUS
 10
10.171191821
 20
-3.323396
 11
10.171191821
 21
-3.686612
  0
LINE
  5
4A5
100
AcDbEntity
  8
CURVE
100
AcDbLine
 62
253
  6
CONTINUOUS
 10
10.1796014306
 20
-5.171133
 11
10.1796014306
 21
-5.793739
  0
LINE
  5
4A6
100
AcDbEntity
  8
CURVE
100
AcDbLine
 62
253
  6
CONTINUOUS
 10
10.1796014306
 20
-10.292325
 11
10.1796014306
 21
-11.216139
  0
LINE
  5
4A7
100
AcDbEntity
  8
CURVE
100
AcDbLine
 62
253
  6
CONTINUOUS
 10
10.1796014306
 20
-12.328754
 11
10.1796014306
 21
-12.911198
  0
LINE
  5
4A8
100
AcDbEntity
  8
CURVE
100
AcDbLine
 62
253
  6
CONTINUOUS
 10
10.1796014306
 20
-14.991935
 11
10.1796014306
 21
-14.252884
  0
LINE
  5
4A9
100
AcDbEntity
  8
CURVE
100
AcDbLine
 62
253
  6
CONTINUOUS
 10
10.1796014306
 20
-8.9669
 11
10.1796014306
 21
-8.227849
  0
LINE
  5
4AA
100
AcDbEntity
  8
CURVE
100
AcDbLine
 62
253
  6
CONTINUOUS
 10
10.1796014306
 20
-3.58822
 11
10.1796014306
 21
-2.70079
  0
LINE
  5
4AB
100
AcDbEntity
  8
CURVE
100
AcDbLine
 62
253
  6
CONTINUOUS
 10
10.17961924
 20
16.0
 11
10.17961924
 21
15.419971
  0
LINE
  5
4AC
100
AcDbEntity
  8
CURVE
100
AcDbLine
 62
253
  6
CONTINUOUS
 10
10.17961924
 20
14.137714
 11
10.17961924
 21
13.557685
  0
LINE
  5
4AD
100
AcDbEntity
  8
CURVE
100
AcDbLine
 62
253
  6
CONTINUOUS
 10
10.17961924
 20
13.171006
 11
10.17961924
 21
12.590985
  0
LINE
  5
4AE
100
AcDbEntity
  8
CURVE
100
AcDbLine
 62
253
  6
CONTINUOUS
 10
10.17961924
 20
12.010985
 11
10.17961924
 21
11.134148
  0
LINE
  5
4AF
100
AcDbEntity
  8
CURVE
100
AcDbLine
 62
253
  6
CONTINUOUS
 10
10.17961924
 20
10.051012
 11
10.17961924
 21
9.174176
  0
LINE
  5
4B0
100
AcDbEntity
  8
CURVE
100
AcDbLine
 62
253
  6
CONTINUOUS
 10
10.1796193622
 20
7.856372
 11
10.1796193622
 21
7.276321
  0
LINE
  5
4B1
100
AcDbEntity
  8
CURVE
100
AcDbLine
 62
253
  6
CONTINUOUS
 10
10.1796193622
 20
5.958503
 11
10.1796193622
 21
4.600289
  0
LINE
  5
4B2
100
AcDbEntity
  8
RACCORDO
100
AcDbLine
 62
7
  6
CONTINUOUS
 10
10.225
 20
21.8911779406
 11
10.225
 21
-21.8911779406
  0
LINE
  5
4B3
100
AcDbEntity
  8
CORPO
100
AcDbLine
 62
7
  6
CONTINUOUS
 10
10.225
 20
-17.6716990487
 11
10.225
 21
17.6716990487
  0
LINE
  5
4B4
100
AcDbEntity
  8
ASSI
100
AcDbLine
 62
7
  6
CONTINUOUS
 10
10.225
 20
-17.6716990487
 11
10.225
 21
17.6716990487
  0
LINE
  5
4B5
100
AcDbEntity
  8
RACCORDO
100
AcDbLine
 62
253
  6
CONTINUOUS
 10
9.4757229979
 20
-23.1226497308
 11
9.4699051681
 21
-23.7
  0
LINE
  5
4B6
100
AcDbEntity
  8
RACCORDO
100
AcDbLine
 62
253
  6
CONTINUOUS
 10
9.725
 20
-23.4104851482
 11
9.720628166
 21
-23.8443375673
  0
LINE
  5
4B7
100
AcDbEntity
  8
CURVE
100
AcDbLine
 62
253
  6
CONTINUOUS
 10
10.0980767424
 20
-13.3285713315
 11
10.1028145455
 21
-13.0571428895
  0
LINE
  5
4B8
100
AcDbEntity
  8
CURVE
100
AcDbLine
 62
253
  6
CONTINUOUS
 10
10.0886011363
 20
-14.414285779
 11
10.0838633323
 21
-14.685714221
  0
LINE
  5
4B9
100
AcDbEntity
  8
CURVE
100
AcDbLine
 62
253
  6
CONTINUOUS
 10
10.0886011363
 20
-15.771428442
 11
10.0838633323
 21
-16.042857337
  0
LINE
  5
4BA
100
AcDbEntity
  8
CURVE
100
AcDbLine
 62
253
  6
CONTINUOUS
 10
10.1028145455
 20
-14.414285779
 11
10.0980767424
 21
-14.6404762983
  0
LINE
  5
4BB
100
AcDbEntity
  8
CURVE
100
AcDbLine
 62
253
  6
CONTINUOUS
 10
10.1028145455
 20
-15.771428442
 11
10.0980767424
 21
-15.9976189613
  0
LINE
  5
4BC
100
AcDbEntity
  8
CURVE
100
AcDbLine
 62
253
  6
CONTINUOUS
 10
9.8758987014
 20
-10.455181
 11
9.8985902858
 21
-9.423056
  0
LINE
  5
4BD
100
AcDbEntity
  8
CURVE
100
AcDbLine
 62
253
  6
CONTINUOUS
 10
9.8758987014
 20
8.0648
 11
9.8985902858
 21
8.9696
  0
LINE
  5
4BE
100
AcDbEntity
  8
CURVE
100
AcDbLine
 62
253
  6
CONTINUOUS
 10
9.88467921
 20
-15.523604
 11
9.8985902858
 21
-15.047866
  0
LINE
  5
4BF
100
AcDbEntity
  8
CURVE
100
AcDbLine
 62
253
  6
CONTINUOUS
 10
10.1289974047
 20
4.290924
 11
10.1485706418
 21
4.872178
  0
LINE
  5
4C0
100
AcDbEntity
  8
CURVE
100
AcDbLine
 62
253
  6
CONTINUOUS
 10
10.1497882082
 20
4.2550232093
 11
10.1289975269
 21
3.637619
  0
LINE
  5
4C1
100
AcDbEntity
  8
CURVE
100
AcDbLine
 62
253
  6
CONTINUOUS
 10
10.1796014306
 20
-11.216139
 11
10.1394999196
 21
-12.328754
  0
LINE
  5
4C2
100
AcDbEntity
  8
CURVE
100
AcDbLine
 62
253
  6
CONTINUOUS
 10
9.8985902858
 20
-3.18
 11
9.8758987014
 21
-3.802869
  0
LINE
  5
4C3
100
AcDbEntity
  8
CURVE
100
AcDbLine
 62
253
  6
CONTINUOUS
 10
10.1289971429
 20
-12.027546
 11
10.1713494969
 21
-10.87477
  0
LINE
  5
4C4
100
AcDbEntity
  8
CURVE
100
AcDbLine
 62
253
  6
CONTINUOUS
 10
9.8985902858
 20
-5.16989
 11
9.8758987014
 21
-5.740224
  0
LINE
  5
4C5
100
AcDbEntity
  8
CURVE
100
AcDbLine
 62
253
  6
CONTINUOUS
 10
9.8985902858
 20
-13.319613
 11
9.8758987014
 21
-13.889946
  0
LINE
  5
4C6
100
AcDbEntity
  8
CURVE
100
AcDbLine
 62
253
  6
CONTINUOUS
 10
10.1289971429
 20
-9.975074
 11
10.1796014306
 21
-8.9669
  0
LINE
  5
4C7
100
AcDbEntity
  8
CURVE
100
AcDbLine
 62
253
  6
CONTINUOUS
 10
10.1289971429
 20
-16.0
 11
10.1796014306
 21
-14.991935
  0
LINE
  5
4C8
100
AcDbEntity
  8
CURVE
100
AcDbLine
 62
253
  6
CONTINUOUS
 10
10.1397224388
 20
-9.139549
 11
10.1289971429
 21
-9.348431
  0
LINE
  5
4C9
100
AcDbEntity
  8
CURVE
100
AcDbLine
 62
253
  6
CONTINUOUS
 10
10.1397224388
 20
-15.164584
 11
10.1289971429
 21
-15.373574
  0
LINE
  5
4CA
100
AcDbEntity
  8
CURVE
100
AcDbLine
 62
253
  6
CONTINUOUS
 10
10.1289974047
 20
6.925211
 11
10.138952517
 21
7.108317
  0
LINE
  5
4CB
100
AcDbEntity
  8
CURVE
100
AcDbLine
 62
253
  6
CONTINUOUS
 10
10.1485706418
 20
7.285246
 11
10.1638532319
 21
7.56635
  0
LINE
  5
4CC
100
AcDbEntity
  8
CURVE
100
AcDbLine
 62
253
  6
CONTINUOUS
 10
10.1796193622
 20
7.276321
 11
10.1289972651
 21
6.345182
  0
LINE
  5
4CD
100
AcDbEntity
  8
CURVE
100
AcDbLine
 62
253
  6
CONTINUOUS
 10
10.169931478
 20
-8.581471
 11
10.1481320483
 21
-8.982943
  0
LINE
  5
4CE
100
AcDbEntity
  8
CURVE
100
AcDbLine
 62
253
  6
CONTINUOUS
 10
10.1699286163
 20
-14.606449
 11
10.1481320483
 21
-15.007869
  0
LINE
  5
4CF
100
AcDbEntity
  8
CORPO
100
AcDbLine
 62
253
  6
CONTINUOUS
 10
-0.7856384674
 20
-14.4119145381
 11
-0.5765961796
 21
-14.1983315856
  0
LINE
  5
4D0
100
AcDbEntity
  8
ASSI
100
AcDbLine
 62
253
  6
CONTINUOUS
 10
-0.7856384674
 20
-14.4119145381
 11
-0.5765961796
 21
-14.1983315856
  0
LINE
  5
4D1
100
AcDbEntity
  8
CORPO
100
AcDbLine
 62
253
  6
CONTINUOUS
 10
-0.347006459
 20
-13.8245670413
 11
-0.5637540149
 21
-14.0303262066
  0
LINE
  5
4D2
100
AcDbEntity
  8
ASSI
100
AcDbLine
 62
253
  6
CONTINUOUS
 10
-0.347006459
 20
-13.8245670413
 11
-0.5637540149
 21
-14.0303262066
  0
LINE
  5
4D3
100
AcDbEntity
  8
CURVE
100
AcDbLine
 62
253
  6
CONTINUOUS
 10
10.1289972651
 20
9.754197
 11
10.1623790644
 21
9.754205
  0
LINE
  5
4D4
100
AcDbEntity
  8
CURVE
100
AcDbLine
 62
253
  6
CONTINUOUS
 10
9.8758987014
 20
10.1552
 11
9.8985902858
 21
10.1552
  0
LINE
  5
4D5
100
AcDbEntity
  8
CURVE
100
AcDbLine
 62
253
  6
CONTINUOUS
 10
9.8985902858
 20
11.164
 11
9.8758987014
 21
11.164
  0
LINE
  5
4D6
100
AcDbEntity
  8
CORPO
100
AcDbLine
 62
253
  6
CONTINUOUS
 10
-0.3470064588
 20
13.8245670411
 11
-0.5637540148
 21
14.0303262057
  0
LINE
  5
4D7
100
AcDbEntity
  8
ASSI
100
AcDbLine
 62
253
  6
CONTINUOUS
 10
-0.3470064588
 20
13.8245670411
 11
-0.5637540148
 21
14.0303262057
  0
LINE
  5
4D8
100
AcDbEntity
  8
CORPO
100
AcDbLine
 62
253
  6
CONTINUOUS
 10
-0.7856384672
 20
14.411914538
 11
-0.5765961796
 21
14.1983315856
  0
LINE
  5
4D9
100
AcDbEntity
  8
ASSI
100
AcDbLine
 62
253
  6
CONTINUOUS
 10
-0.7856384672
 20
14.411914538
 11
-0.5765961796
 21
14.1983315856
  0
LINE
  5
4DA
100
AcDbEntity
  8
ASSI
100
AcDbLine
 62
7
  6
CONTINUOUS
 10
-5.325
 20
-23.8
 11
-5.2813493531
 21
-23.7563493531
  0
LINE
  5
4DB
100
AcDbEntity
  8
CORPO
100
AcDbLine
 62
253
  6
CONTINUOUS
 10
-12.075
 20
-17.6716990487
 11
-11.6557738088
 21
-17.4980498746
  0
LINE
  5
4DC
100
AcDbEntity
  8
ASSI
100
AcDbLine
 62
253
  6
CONTINUOUS
 10
-12.075
 20
-17.6716990487
 11
-11.6557738088
 21
-17.4980498746
  0
LINE
  5
4DD
100
AcDbEntity
  8
CURVE
100
AcDbLine
 62
253
  6
CONTINUOUS
 10
10.1623790644
 20
11.430963
 11
10.1289972651
 21
11.430963
  0
LINE
  5
4DE
100
AcDbEntity
  8
CURVE
100
AcDbLine
 62
253
  6
CONTINUOUS
 10
10.1289972651
 20
12.010985
 11
10.17961924
 21
12.010985
  0
LINE
  5
4DF
100
AcDbEntity
  8
0
100
AcDbLine
 62
7
  6
CONTINUOUS
 10
3.075
 20
12.25
 11
2.575
 21
12.25
  0
LINE
  5
4E0
100
AcDbEntity
  8
0
100
AcDbLine
 62
7
  6
CONTINUOUS
 10
-4.425
 20
12.25
 11
-4.925
 21
12.25
  0
LINE
  5
4E1
100
AcDbEntity
  8
RACCORDO
100
AcDbLine
 62
7
  6
CONTINUOUS
 10
-4.760063789
 20
12.8179674428
 11
-4.425
 21
12.8179674428
  0
LINE
  5
4E2
100
AcDbEntity
  8
RACCORDO
100
AcDbLine
 62
7
  6
CONTINUOUS
 10
2.575
 20
12.8179674428
 11
2.910063789
 21
12.8179674428
  0
LINE
  5
4E3
100
AcDbEntity
  8
0
100
AcDbLine
 62
253
  6
CONTINUOUS
 10
-4.7086256189
 20
12.896539715
 11
-4.425
 21
12.896539715
  0
LINE
  5
4E4
100
AcDbEntity
  8
0
100
AcDbLine
 62
253
  6
CONTINUOUS
 10
2.575
 20
12.896539715
 11
2.8586256189
 21
12.896539715
  0
LINE
  5
4E5
100
AcDbEntity
  8
CURVE
100
AcDbLine
 62
253
  6
CONTINUOUS
 10
9.8758987014
 20
12.984
 11
9.8985902858
 21
12.984
  0
LINE
  5
4E6
100
AcDbEntity
  8
CURVE
100
AcDbLine
 62
253
  6
CONTINUOUS
 10
10.17961924
 20
12.590985
 11
10.1289972651
 21
12.590992
  0
LINE
  5
4E7
100
AcDbEntity
  8
CURVE
100
AcDbLine
 62
253
  6
CONTINUOUS
 10
10.1289971429
 20
13.171014
 11
10.17961924
 21
13.171006
  0
LINE
  5
4E8
100
AcDbEntity
  8
CORPO
100
AcDbLine
 62
253
  6
CONTINUOUS
 10
-11.6557738088
 20
17.4980498746
 11
-12.075
 21
17.6716990487
  0
LINE
  5
4E9
100
AcDbEntity
  8
ASSI
100
AcDbLine
 62
253
  6
CONTINUOUS
 10
-11.6557738088
 20
17.4980498746
 11
-12.075
 21
17.6716990487
  0
LINE
  5
4EA
100
AcDbEntity
  8
ASSI
100
AcDbLine
 62
7
  6
CONTINUOUS
 10
-5.325
 20
23.8
 11
-5.2813493531
 21
23.7563493531
  0
LINE
  5
4EB
100
AcDbEntity
  8
DRAFT
100
AcDbLine
 62
7
  6
CONTINUOUS
 10
7.3215127091
 20
-20.9104703804
 11
7.325
 21
-20.9
  0
LINE
  5
4EC
100
AcDbEntity
  8
CORPO
100
AcDbLine
 62
253
  6
CONTINUOUS
 10
-11.4893027805
 20
-19.0856972195
 11
-11.0700765893
 21
-18.9120480454
  0
LINE
  5
4ED
100
AcDbEntity
  8
ASSI
100
AcDbLine
 62
253
  6
CONTINUOUS
 10
-11.4893027805
 20
-19.0856972195
 11
-11.0700765893
 21
-18.9120480454
  0
LINE
  5
4EE
100
AcDbEntity
  8
0
100
AcDbLine
 62
7
  6
CONTINUOUS
 10
-3.6637792639
 20
13.5474643724
 11
-3.8367714323
 21
13.5011112606
  0
LINE
  5
4EF
100
AcDbEntity
  8
0
100
AcDbLine
 62
253
  6
CONTINUOUS
 10
2.2760110554
 20
13.4
 11
0.8739714452
 21
13.4
  0
LINE
  5
4F0
100
AcDbEntity
  8
0
100
AcDbLine
 62
253
  6
CONTINUOUS
 10
-2.7239714452
 20
13.4
 11
-4.1260110554
 21
13.4
  0
LINE
  5
4F1
100
AcDbEntity
  8
ASSI
100
AcDbLine
 62
7
  6
CONTINUOUS
 10
2.1656984692
 20
13.45
 11
1.8158014299
 21
13.45
  0
LINE
  5
4F2
100
AcDbEntity
  8
0
100
AcDbLine
 62
7
  6
CONTINUOUS
 10
1.7782798031
 20
13.45
 11
0.9843051603
 21
13.45
  0
LINE
  5
4F3
100
AcDbEntity
  8
0
100
AcDbLine
 62
7
  6
CONTINUOUS
 10
-2.8343051603
 20
13.45
 11
-3.6180029734
 21
13.45
  0
LINE
  5
4F4
100
AcDbEntity
  8
ASSI
100
AcDbLine
 62
7
  6
CONTINUOUS
 10
-3.6658014299
 20
13.45
 11
-4.0156984692
 21
13.45
  0
LINE
  5
4F5
100
AcDbEntity
  8
0
100
AcDbLine
 62
7
  6
CONTINUOUS
 10
1.9867714323
 20
13.5011112606
 11
1.8137792639
 21
13.5474643724
  0
LINE
  5
4F6
100
AcDbEntity
  8
CORPO
100
AcDbLine
 62
253
  6
CONTINUOUS
 10
-11.0700765893
 20
18.9120480454
 11
-11.4893027805
 21
19.0856972195
  0
LINE
  5
4F7
100
AcDbEntity
  8
ASSI
100
AcDbLine
 62
253
  6
CONTINUOUS
 10
-11.0700765893
 20
18.9120480454
 11
-11.4893027805
 21
19.0856972195
  0
LINE
  5
4F8
100
AcDbEntity
  8
DRAFT
100
AcDbLine
 62
7
  6
CONTINUOUS
 10
7.3215127091
 20
20.9104703804
 11
7.325
 21
20.9
  0
LINE
  5
4F9
100
AcDbEntity
  8
DRAFT
100
AcDbLine
 62
7
  6
CONTINUOUS
 10
6.3168217019
 20
-20.9959955457
 11
6.3738376746
 21
-20.9104703804
  0
LINE
  5
4FA
100
AcDbEntity
  8
CORPO
100
AcDbLine
 62
7
  6
CONTINUOUS
 10
2.475
 20
-19.9
 11
2.4741663033
 21
-19.9008336967
  0
LINE
  5
4FB
100
AcDbEntity
  8
CORPO
100
AcDbLine
 62
7
  6
CONTINUOUS
 10
1.8774659223
 20
-17.7912732553
 11
1.83339524
 21
-17.8206532958
  0
LINE
  5
4FC
100
AcDbEntity
  8
ASSI
100
AcDbLine
 62
7
  6
CONTINUOUS
 10
1.8774659223
 20
-17.7912732553
 11
1.83339524
 21
-17.8206532958
  0
LINE
  5
4FD
100
AcDbEntity
  8
CURVE
100
AcDbLine
 62
253
  6
CONTINUOUS
 10
9.8758987014
 20
16.0
 11
9.8985902858
 21
16.0
  0
LINE
  5
4FE
100
AcDbEntity
  8
CORPO
100
AcDbLine
 62
7
  6
CONTINUOUS
 10
1.83339524
 20
17.8206532958
 11
1.8774659223
 21
17.7912732553
  0
LINE
  5
4FF
100
AcDbEntity
  8
ASSI
100
AcDbLine
 62
7
  6
CONTINUOUS
 10
1.83339524
 20
17.8206532958
 11
1.8774659223
 21
17.7912732553
  0
LINE
  5
500
100
AcDbEntity
  8
CORPO
100
AcDbLine
 62
7
  6
CONTINUOUS
 10
2.475
 20
19.9
 11
2.4741663033
 21
19.9008336967
  0
LINE
  5
501
100
AcDbEntity
  8
DRAFT
100
AcDbLine
 62
7
  6
CONTINUOUS
 10
6.3168217019
 20
20.9959955457
 11
6.3738376746
 21
20.9104703804
  0
LINE
  5
502
100
AcDbEntity
  8
RACCORDO
100
AcDbLine
 62
7
  6
CONTINUOUS
 10
6.3179784985
 20
-19.7570215015
 11
6.375
 21
-19.7
  0
LINE
  5
503
100
AcDbEntity
  8
CORPO
100
AcDbLine
 62
7
  6
CONTINUOUS
 10
6.475
 20
-19.7
 11
6.5640208311
 21
-19.6109791689
  0
LINE
  5
504
100
AcDbEntity
  8
ASSI
100
AcDbLine
 62
7
  6
CONTINUOUS
 10
6.475
 20
-19.7
 11
6.5640208311
 21
-19.6109791689
  0
LINE
  5
505
100
AcDbEntity
  8
CORPO
100
AcDbLine
 62
253
  6
CONTINUOUS
 10
-11.6557738088
 20
17.4980498746
 11
-10.6559261137
 21
17.4980498746
  0
LINE
  5
506
100
AcDbEntity
  8
ASSI
100
AcDbLine
 62
253
  6
CONTINUOUS
 10
-11.6557738088
 20
17.4980498746
 11
-10.6559261137
 21
17.4980498746
  0
LINE
  5
507
100
AcDbEntity
  8
CORPO
100
AcDbLine
 62
253
  6
CONTINUOUS
 10
9.8057738088
 20
17.4980498746
 11
8.8059261137
 21
17.4980498746
  0
LINE
  5
508
100
AcDbEntity
  8
ASSI
100
AcDbLine
 62
253
  6
CONTINUOUS
 10
9.8057738088
 20
17.4980498746
 11
8.8059261137
 21
17.4980498746
  0
LINE
  5
509
100
AcDbEntity
  8
CORPO
100
AcDbLine
 62
7
  6
CONTINUOUS
 10
1.8774659223
 20
17.7912732553
 11
-3.7274659223
 21
17.7912732553
  0
LINE
  5
50A
100
AcDbEntity
  8
ASSI
100
AcDbLine
 62
7
  6
CONTINUOUS
 10
1.8774659223
 20
17.7912732553
 11
-3.7274659223
 21
17.7912732553
  0
LINE
  5
50B
100
AcDbEntity
  8
CORPO
100
AcDbLine
 62
7
  6
CONTINUOUS
 10
-3.7274659223
 20
18.3
 11
1.8774659223
 21
18.3
  0
LINE
  5
50C
100
AcDbEntity
  8
ASSI
100
AcDbLine
 62
7
  6
CONTINUOUS
 10
-3.7274659223
 20
18.3
 11
1.8774659223
 21
18.3
  0
LINE
  5
50D
100
AcDbEntity
  8
CORPO
100
AcDbLine
 62
253
  6
CONTINUOUS
 10
-10.2016705321
 20
18.3664559318
 11
-3.7658357334
 21
18.3664559318
  0
LINE
  5
50E
100
AcDbEntity
  8
ASSI
100
AcDbLine
 62
253
  6
CONTINUOUS
 10
-10.2016705321
 20
18.3664559318
 11
-3.7658357334
 21
18.3664559318
  0
LINE
  5
50F
100
AcDbEntity
  8
CORPO
100
AcDbLine
 62
253
  6
CONTINUOUS
 10
1.9158357334
 20
18.3664559318
 11
8.3516705321
 21
18.3664559318
  0
LINE
  5
510
100
AcDbEntity
  8
ASSI
100
AcDbLine
 62
253
  6
CONTINUOUS
 10
1.9158357334
 20
18.3664559318
 11
8.3516705321
 21
18.3664559318
  0
LINE
  5
511
100
AcDbEntity
  8
RACCORDO
100
AcDbLine
 62
7
  6
CONTINUOUS
 10
6.3179784985
 20
19.7570215015
 11
6.375
 21
19.7
  0
LINE
  5
512
100
AcDbEntity
  8
CORPO
100
AcDbLine
 62
7
  6
CONTINUOUS
 10
6.475
 20
19.7
 11
6.5640208311
 21
19.6109791689
  0
LINE
  5
513
100
AcDbEntity
  8
ASSI
100
AcDbLine
 62
7
  6
CONTINUOUS
 10
6.475
 20
19.7
 11
6.5640208311
 21
19.6109791689
  0
LINE
  5
514
100
AcDbEntity
  8
0
100
AcDbLine
 62
7
  6
CONTINUOUS
 10
7.9748860669
 20
-20.9
 11
8.725
 21
-20.1489710538
  0
LINE
  5
515
100
AcDbEntity
  8
CORPO
100
AcDbLine
 62
253
  6
CONTINUOUS
 10
8.5130775039
 20
-18.20504896
 11
8.3516705321
 21
-18.3664559318
  0
LINE
  5
516
100
AcDbEntity
  8
ASSI
100
AcDbLine
 62
253
  6
CONTINUOUS
 10
8.5130775039
 20
-18.20504896
 11
8.3516705321
 21
-18.3664559318
  0
LINE
  5
517
100
AcDbEntity
  8
CORPO
100
AcDbLine
 62
253
  6
CONTINUOUS
 10
9.2200765893
 20
-18.9120480454
 11
9.0586696175
 21
-19.0734550172
  0
LINE
  5
518
100
AcDbEntity
  8
ASSI
100
AcDbLine
 62
253
  6
CONTINUOUS
 10
9.2200765893
 20
-18.9120480454
 11
9.0586696175
 21
-19.0734550172
  0
LINE
  5
519
100
AcDbEntity
  8
CORPO
100
AcDbLine
 62
7
  6
CONTINUOUS
 10
9.1600175454
 20
-19.3181305591
 11
7.6281481045
 21
-20.85
  0
LINE
  5
51A
100
AcDbEntity
  8
ASSI
100
AcDbLine
 62
7
  6
CONTINUOUS
 10
9.1600175454
 20
-19.3181305591
 11
7.6281481045
 21
-20.85
  0
LINE
  5
51B
100
AcDbEntity
  8
DRAFT
100
AcDbLine
 62
7
  6
CONTINUOUS
 10
7.325
 20
-21.3876583452
 11
6.321385213
 21
-22.3912731322
  0
LINE
  5
51C
100
AcDbEntity
  8
CORPO
100
AcDbLine
 62
7
  6
CONTINUOUS
 10
7.875
 20
-20.85
 11
9.6393027805
 21
-19.0856972195
  0
LINE
  5
51D
100
AcDbEntity
  8
ASSI
100
AcDbLine
 62
7
  6
CONTINUOUS
 10
7.875
 20
-20.85
 11
9.6393027805
 21
-19.0856972195
  0
LINE
  5
51E
100
AcDbEntity
  8
CORPO
100
AcDbLine
 62
253
  6
CONTINUOUS
 10
-10.2016705321
 20
19.366303627
 11
-4.3345454877
 21
19.366303627
  0
LINE
  5
51F
100
AcDbEntity
  8
ASSI
100
AcDbLine
 62
253
  6
CONTINUOUS
 10
-10.2016705321
 20
19.366303627
 11
-4.3345454877
 21
19.366303627
  0
LINE
  5
520
100
AcDbEntity
  8
CORPO
100
AcDbLine
 62
253
  6
CONTINUOUS
 10
2.4845454877
 20
19.366303627
 11
8.3516705321
 21
19.366303627
  0
LINE
  5
521
100
AcDbEntity
  8
ASSI
100
AcDbLine
 62
253
  6
CONTINUOUS
 10
2.4845454877
 20
19.366303627
 11
8.3516705321
 21
19.366303627
  0
LINE
  5
522
100
AcDbEntity
  8
CORPO
100
AcDbLine
 62
7
  6
CONTINUOUS
 10
-6.5859791689
 20
19.6109791689
 11
4.7359791689
 21
19.6109791689
  0
LINE
  5
523
100
AcDbEntity
  8
CORPO
100
AcDbLine
 62
7
  6
CONTINUOUS
 10
8.45301846
 20
19.6109791689
 11
6.5640208311
 21
19.6109791689
  0
LINE
  5
524
100
AcDbEntity
  8
ASSI
100
AcDbLine
 62
7
  6
CONTINUOUS
 10
-6.5859791689
 20
19.6109791689
 11
4.7359791689
 21
19.6109791689
  0
LINE
  5
525
100
AcDbEntity
  8
ASSI
100
AcDbLine
 62
7
  6
CONTINUOUS
 10
8.45301846
 20
19.6109791689
 11
6.5640208311
 21
19.6109791689
  0
LINE
  5
526
100
AcDbEntity
  8
CORPO
100
AcDbLine
 62
7
  6
CONTINUOUS
 10
-8.4140208311
 20
19.6109791689
 11
-10.30301846
 21
19.6109791689
  0
LINE
  5
527
100
AcDbEntity
  8
ASSI
100
AcDbLine
 62
7
  6
CONTINUOUS
 10
-8.4140208311
 20
19.6109791689
 11
-10.30301846
 21
19.6109791689
  0
LINE
  5
528
100
AcDbEntity
  8
CORPO
100
AcDbLine
 62
7
  6
CONTINUOUS
 10
6.475
 20
19.7
 11
4.825
 21
19.7
  0
LINE
  5
529
100
AcDbEntity
  8
ASSI
100
AcDbLine
 62
7
  6
CONTINUOUS
 10
6.475
 20
19.7
 11
4.825
 21
19.7
  0
LINE
  5
52A
100
AcDbEntity
  8
CORPO
100
AcDbLine
 62
7
  6
CONTINUOUS
 10
-6.675
 20
19.7
 11
-8.325
 21
19.7
  0
LINE
  5
52B
100
AcDbEntity
  8
ASSI
100
AcDbLine
 62
7
  6
CONTINUOUS
 10
-6.675
 20
19.7
 11
-8.325
 21
19.7
  0
LINE
  5
52C
100
AcDbEntity
  8
RACCORDO
100
AcDbLine
 62
253
  6
CONTINUOUS
 10
-8.1679784985
 20
19.7570215015
 11
-7.2820215015
 21
19.7570215015
  0
LINE
  5
52D
100
AcDbEntity
  8
RACCORDO
100
AcDbLine
 62
253
  6
CONTINUOUS
 10
5.4320215015
 20
19.7570215015
 11
6.3179784985
 21
19.7570215015
  0
LINE
  5
52E
100
AcDbEntity
  8
CORPO
100
AcDbLine
 62
7
  6
CONTINUOUS
 10
-6.5859791689
 20
19.8109791689
 11
4.7359791689
 21
19.8109791689
  0
LINE
  5
52F
100
AcDbEntity
  8
ASSI
100
AcDbLine
 62
7
  6
CONTINUOUS
 10
-6.5859791689
 20
19.8109791689
 11
4.7359791689
 21
19.8109791689
  0
LINE
  5
530
100
AcDbEntity
  8
CORPO
100
AcDbLine
 62
7
  6
CONTINUOUS
 10
-3.3265242349
 20
19.8844866796
 11
1.4765242349
 21
19.8844866796
  0
LINE
  5
531
100
AcDbEntity
  8
ASSI
100
AcDbLine
 62
7
  6
CONTINUOUS
 10
-3.3265242349
 20
19.8844866796
 11
1.4765242349
 21
19.8844866796
  0
LINE
  5
532
100
AcDbEntity
  8
CORPO
100
AcDbLine
 62
7
  6
CONTINUOUS
 10
-6.675
 20
19.9
 11
-4.325
 21
19.9
  0
LINE
  5
533
100
AcDbEntity
  8
ASSI
100
AcDbLine
 62
7
  6
CONTINUOUS
 10
-6.675
 20
19.9
 11
-4.3194894948
 21
19.9
  0
LINE
  5
534
100
AcDbEntity
  8
CORPO
100
AcDbLine
 62
7
  6
CONTINUOUS
 10
2.475
 20
19.9
 11
4.825
 21
19.9
  0
LINE
  5
535
100
AcDbEntity
  8
ASSI
100
AcDbLine
 62
7
  6
CONTINUOUS
 10
2.4694894948
 20
19.9
 11
4.825
 21
19.9
  0
LINE
  5
536
100
AcDbEntity
  8
0
100
AcDbLine
 62
253
  6
CONTINUOUS
 10
-7.1761048448
 20
19.9266562329
 11
-4.3242152066
 21
19.9266562329
  0
LINE
  5
537
100
AcDbEntity
  8
0
100
AcDbLine
 62
253
  6
CONTINUOUS
 10
2.4742152066
 20
19.9266562329
 11
5.3261048448
 21
19.9266562329
  0
LINE
  5
538
100
AcDbEntity
  8
RACCORDO
100
AcDbLine
 62
253
  6
CONTINUOUS
 10
-8.1668217019
 20
19.9570181168
 11
-7.2831782981
 21
19.9570181168
  0
LINE
  5
539
100
AcDbEntity
  8
RACCORDO
100
AcDbLine
 62
253
  6
CONTINUOUS
 10
5.4331782981
 20
19.9570181168
 11
6.3168217019
 21
19.9570181168
  0
LINE
  5
53A
100
AcDbEntity
  8
RACCORDO
100
AcDbLine
 62
253
  6
CONTINUOUS
 10
6.475
 20
19.959088481
 11
6.4267786853
 21
19.959088481
  0
LINE
  5
53B
100
AcDbEntity
  8
RACCORDO
100
AcDbLine
 62
253
  6
CONTINUOUS
 10
-8.2767786853
 20
19.959088481
 11
-8.325
 21
19.959088481
  0
LINE
  5
53C
100
AcDbEntity
  8
DRAFT
100
AcDbLine
 62
7
  6
CONTINUOUS
 10
-4.425
 20
20.0
 11
-4.324351018
 21
20.0
  0
LINE
  5
53D
100
AcDbEntity
  8
DRAFT
100
AcDbLine
 62
7
  6
CONTINUOUS
 10
2.474351018
 20
20.0
 11
2.575
 21
20.0
  0
LINE
  5
53E
100
AcDbEntity
  8
DRAFT
100
AcDbLine
 62
7
  6
CONTINUOUS
 10
1.575
 20
20.0532338935
 11
1.5163111231
 21
20.0532338935
  0
LINE
  5
53F
100
AcDbEntity
  8
DRAFT
100
AcDbLine
 62
7
  6
CONTINUOUS
 10
-3.3663111231
 20
20.0532338935
 11
-3.425
 21
20.0532338935
  0
LINE
  5
540
100
AcDbEntity
  8
RACCORDO
100
AcDbLine
 62
253
  6
CONTINUOUS
 10
-7.280294768
 20
20.0829433217
 11
5.430294768
 21
20.0829433217
  0
LINE
  5
541
100
AcDbEntity
  8
0
100
AcDbLine
 62
253
  6
CONTINUOUS
 10
6.475
 20
20.4584032484
 11
6.4240220113
 21
20.4584032484
  0
LINE
  5
542
100
AcDbEntity
  8
RACCORDO
100
AcDbLine
 62
253
  6
CONTINUOUS
 10
-8.2740220113
 20
20.4584032484
 11
-8.325
 21
20.4584032484
  0
LINE
  5
543
100
AcDbEntity
  8
RACCORDO
100
AcDbLine
 62
253
  6
CONTINUOUS
 10
-7.2831782981
 20
20.5829242832
 11
5.4331782981
 21
20.5829242832
  0
LINE
  5
544
100
AcDbEntity
  8
CORPO
100
AcDbLine
 62
253
  6
CONTINUOUS
 10
8.3516705321
 20
18.3664559318
 11
8.5130775039
 21
18.20504896
  0
LINE
  5
545
100
AcDbEntity
  8
ASSI
100
AcDbLine
 62
253
  6
CONTINUOUS
 10
8.3516705321
 20
18.3664559318
 11
8.5130775039
 21
18.20504896
  0
LINE
  5
546
100
AcDbEntity
  8
CORPO
100
AcDbLine
 62
253
  6
CONTINUOUS
 10
9.0586696175
 20
19.0734550172
 11
9.2200765893
 21
18.9120480454
  0
LINE
  5
547
100
AcDbEntity
  8
ASSI
100
AcDbLine
 62
253
  6
CONTINUOUS
 10
9.0586696175
 20
19.0734550172
 11
9.2200765893
 21
18.9120480454
  0
LINE
  5
548
100
AcDbEntity
  8
CORPO
100
AcDbLine
 62
7
  6
CONTINUOUS
 10
7.6281481045
 20
20.85
 11
9.1600175454
 21
19.3181305591
  0
LINE
  5
549
100
AcDbEntity
  8
ASSI
100
AcDbLine
 62
7
  6
CONTINUOUS
 10
7.6281481045
 20
20.85
 11
9.1600175454
 21
19.3181305591
  0
LINE
  5
54A
100
AcDbEntity
  8
DRAFT
100
AcDbLine
 62
7
  6
CONTINUOUS
 10
6.321385213
 20
22.3912731322
 11
7.325
 21
21.3876583452
  0
LINE
  5
54B
100
AcDbEntity
  8
CORPO
100
AcDbLine
 62
7
  6
CONTINUOUS
 10
9.6393027805
 20
19.0856972195
 11
7.875
 21
20.85
  0
LINE
  5
54C
100
AcDbEntity
  8
ASSI
100
AcDbLine
 62
7
  6
CONTINUOUS
 10
9.6393027805
 20
19.0856972195
 11
7.875
 21
20.85
  0
LINE
  5
54D
100
AcDbEntity
  8
0
100
AcDbLine
 62
7
  6
CONTINUOUS
 10
7.9748860669
 20
20.9
 11
8.725
 21
20.1489710538
  0
LINE
  5
54E
100
AcDbEntity
  8
RACCORDO
100
AcDbLine
 62
253
  6
CONTINUOUS
 10
7.329371834
 20
-24.2456323968
 11
7.325
 21
-24.2500042308
  0
LINE
  5
54F
100
AcDbEntity
  8
RACCORDO
100
AcDbLine
 62
7
  6
CONTINUOUS
 10
7.1590245667
 20
-20.9917082642
 11
7.3215127091
 21
-20.9104703804
  0
LINE
  5
550
100
AcDbEntity
  8
CORPO
100
AcDbLine
 62
7
  6
CONTINUOUS
 10
6.475
 20
20.85
 11
7.875
 21
20.85
  0
LINE
  5
551
100
AcDbEntity
  8
ASSI
100
AcDbLine
 62
7
  6
CONTINUOUS
 10
6.475
 20
20.85
 11
7.875
 21
20.85
  0
LINE
  5
552
100
AcDbEntity
  8
CORPO
100
AcDbLine
 62
7
  6
CONTINUOUS
 10
-8.325
 20
20.85
 11
-9.725
 21
20.85
  0
LINE
  5
553
100
AcDbEntity
  8
ASSI
100
AcDbLine
 62
7
  6
CONTINUOUS
 10
-8.325
 20
20.85
 11
-9.725
 21
20.85
  0
LINE
  5
554
100
AcDbEntity
  8
0
100
AcDbLine
 62
7
  6
CONTINUOUS
 10
-9.8248860669
 20
20.9
 11
-9.175
 21
20.9
  0
LINE
  5
555
100
AcDbEntity
  8
0
100
AcDbLine
 62
7
  6
CONTINUOUS
 10
7.325
 20
20.9
 11
7.9748860669
 21
20.9
  0
LINE
  5
556
100
AcDbEntity
  8
DRAFT
100
AcDbLine
 62
7
  6
CONTINUOUS
 10
7.3215127091
 20
20.9104703804
 11
6.3738376746
 21
20.9104703804
  0
LINE
  5
557
100
AcDbEntity
  8
DRAFT
100
AcDbLine
 62
7
  6
CONTINUOUS
 10
-8.2238376746
 20
20.9104703804
 11
-9.1715127091
 21
20.9104703804
  0
LINE
  5
558
100
AcDbEntity
  8
RACCORDO
100
AcDbLine
 62
7
  6
CONTINUOUS
 10
6.6591007192
 20
20.9959955457
 11
6.3168217019
 21
20.9959955457
  0
LINE
  5
559
100
AcDbEntity
  8
RACCORDO
100
AcDbLine
 62
7
  6
CONTINUOUS
 10
-8.1668217019
 20
20.9959955457
 11
-8.5091007192
 21
20.9959955457
  0
LINE
  5
55A
100
AcDbEntity
  8
0
100
AcDbLine
 62
7
  6
CONTINUOUS
 10
-3.925
 20
21.0
 11
2.075
 21
21.0
  0
LINE
  5
55B
100
AcDbEntity
  8
RACCORDO
100
AcDbLine
 62
253
  6
CONTINUOUS
 10
6.6591007192
 20
21.3126932437
 11
2.075
 21
21.3126932437
  0
LINE
  5
55C
100
AcDbEntity
  8
RACCORDO
100
AcDbLine
 62
253
  6
CONTINUOUS
 10
-3.925
 20
21.3126932437
 11
-8.5091007192
 21
21.3126932437
  0
LINE
  5
55D
100
AcDbEntity
  8
0
100
AcDbLine
 62
7
  6
CONTINUOUS
 10
-3.925
 20
21.7
 11
2.075
 21
21.7
  0
LINE
  5
55E
100
AcDbEntity
  8
RACCORDO
100
AcDbLine
 62
253
  6
CONTINUOUS
 10
6.2888205855
 20
22.3126551668
 11
2.075
 21
22.3126551668
  0
LINE
  5
55F
100
AcDbEntity
  8
RACCORDO
100
AcDbLine
 62
253
  6
CONTINUOUS
 10
-3.925
 20
22.3126551668
 11
-8.1388205855
 21
22.3126551668
  0
LINE
  5
560
100
AcDbEntity
  8
DRAFT
100
AcDbLine
 62
7
  6
CONTINUOUS
 10
2.575
 20
22.3380392387
 11
2.075
 21
22.3380392387
  0
LINE
  5
561
100
AcDbEntity
  8
DRAFT
100
AcDbLine
 62
7
  6
CONTINUOUS
 10
-3.925
 20
22.3380392387
 11
-4.425
 21
22.3380392387
  0
LINE
  5
562
100
AcDbEntity
  8
RACCORDO
100
AcDbLine
 62
7
  6
CONTINUOUS
 10
9.7248476749
 20
22.3912731322
 11
6.321385213
 21
22.3912731322
  0
LINE
  5
563
100
AcDbEntity
  8
RACCORDO
100
AcDbLine
 62
7
  6
CONTINUOUS
 10
-8.171385213
 20
22.3912731322
 11
-11.5748476749
 21
22.3912731322
  0
LINE
  5
564
100
AcDbEntity
  8
DRAFT
100
AcDbLine
 62
7
  6
CONTINUOUS
 10
-9.175
 20
22.4
 11
-5.325
 21
22.4
  0
LINE
  5
565
100
AcDbEntity
  8
RACCORDO
100
AcDbLine
 62
7
  6
CONTINUOUS
 10
9.7073926099
 20
22.4
 11
7.325
 21
22.4
  0
LINE
  5
566
100
AcDbEntity
  8
DRAFT
100
AcDbLine
 62
7
  6
CONTINUOUS
 10
3.475
 20
22.4
 11
7.325
 21
22.4
  0
LINE
  5
567
100
AcDbEntity
  8
RACCORDO
100
AcDbLine
 62
7
  6
CONTINUOUS
 10
-9.175
 20
22.4
 11
-11.5573926099
 21
22.4
  0
LINE
  5
568
100
AcDbEntity
  8
RACCORDO
100
AcDbLine
 62
7
  6
CONTINUOUS
 10
7.1590245667
 20
20.9917082642
 11
7.3215127091
 21
20.9104703804
  0
LINE
  5
569
100
AcDbEntity
  8
RACCORDO
100
AcDbLine
 62
253
  6
CONTINUOUS
 10
7.329371834
 20
24.2456323968
 11
7.325
 21
24.2500042308
  0
LINE
  5
56A
100
AcDbEntity
  8
RACCORDO
100
AcDbLine
 62
253
  6
CONTINUOUS
 10
7.5793676032
 20
-24.495628166
 11
7.5749957692
 21
-24.5
  0
LINE
  5
56B
100
AcDbEntity
  8
RACCORDO
100
AcDbLine
 62
7
  6
CONTINUOUS
 10
7.1590245667
 20
-21.4362803622
 11
7.325
 21
-21.3876583452
  0
LINE
  5
56C
100
AcDbEntity
  8
RACCORDO
100
AcDbLine
 62
7
  6
CONTINUOUS
 10
9.4757229979
 20
23.1226497308
 11
7.5742770021
 21
23.1226497308
  0
LINE
  5
56D
100
AcDbEntity
  8
RACCORDO
100
AcDbLine
 62
7
  6
CONTINUOUS
 10
-9.4242770021
 20
23.1226497308
 11
-11.3257229979
 21
23.1226497308
  0
LINE
  5
56E
100
AcDbEntity
  8
RACCORDO
100
AcDbLine
 62
253
  6
CONTINUOUS
 10
-11.3206323968
 20
23.6278312164
 11
-9.4293676032
 21
23.6278312164
  0
LINE
  5
56F
100
AcDbEntity
  8
RACCORDO
100
AcDbLine
 62
253
  6
CONTINUOUS
 10
7.5793676032
 20
23.6278312164
 11
9.4706323968
 21
23.6278312164
  0
LINE
  5
570
100
AcDbEntity
  8
ASSI
100
AcDbLine
 62
253
  6
CONTINUOUS
 10
-5.2813493531
 20
23.7563493531
 11
-4.425
 21
23.7563493531
  0
LINE
  5
571
100
AcDbEntity
  8
ASSI
100
AcDbLine
 62
253
  6
CONTINUOUS
 10
2.575
 20
23.7563493531
 11
3.4313493531
 21
23.7563493531
  0
LINE
  5
572
100
AcDbEntity
  8
DRAFT
100
AcDbLine
 62
7
  6
CONTINUOUS
 10
-4.425
 20
23.7941821702
 11
2.575
 21
23.7941821702
  0
LINE
  5
573
100
AcDbEntity
  8
DRAFT
100
AcDbLine
 62
7
  6
CONTINUOUS
 10
3.475
 20
23.8
 11
-5.325
 21
23.8
  0
LINE
  5
574
100
AcDbEntity
  8
RACCORDO
100
AcDbLine
 62
253
  6
CONTINUOUS
 10
7.329371834
 20
23.8443375673
 11
9.720628166
 21
23.8443375673
  0
LINE
  5
575
100
AcDbEntity
  8
RACCORDO
100
AcDbLine
 62
253
  6
CONTINUOUS
 10
-9.179371834
 20
23.8443375673
 11
-11.570628166
 21
23.8443375673
  0
LINE
  5
576
100
AcDbEntity
  8
RACCORDO
100
AcDbLine
 62
253
  6
CONTINUOUS
 10
7.329371834
 20
24.2456323968
 11
9.720628166
 21
24.2456323968
  0
LINE
  5
577
100
AcDbEntity
  8
RACCORDO
100
AcDbLine
 62
253
  6
CONTINUOUS
 10
-9.179371834
 20
24.2456323968
 11
-11.570628166
 21
24.2456323968
  0
LINE
  5
578
100
AcDbEntity
  8
RACCORDO
100
AcDbLine
 62
7
  6
CONTINUOUS
 10
7.1590245667
 20
21.4362803622
 11
7.325
 21
21.3876583452
  0
LINE
  5
579
100
AcDbEntity
  8
RACCORDO
100
AcDbLine
 62
253
  6
CONTINUOUS
 10
7.5793676032
 20
24.495628166
 11
7.5749957692
 21
24.5
  0
LINE
  5
57A
100
AcDbEntity
  8
RACCORDO
100
AcDbLine
 62
253
  6
CONTINUOUS
 10
9.7248476749
 20
-22.3912731322
 11
9.7073926099
 21
-22.4
  0
LINE
  5
57B
100
AcDbEntity
  8
RACCORDO
100
AcDbLine
 62
253
  6
CONTINUOUS
 10
9.4706323968
 20
24.495628166
 11
7.5793676032
 21
24.495628166
  0
LINE
  5
57C
100
AcDbEntity
  8
RACCORDO
100
AcDbLine
 62
253
  6
CONTINUOUS
 10
-9.4293676032
 20
24.495628166
 11
-11.3206323968
 21
24.495628166
  0
LINE
  5
57D
100
AcDbEntity
  8
RACCORDO
100
AcDbLine
 62
7
  6
CONTINUOUS
 10
9.4750042308
 20
24.5
 11
7.5749957692
 21
24.5
  0
LINE
  5
57E
100
AcDbEntity
  8
RACCORDO
100
AcDbLine
 62
7
  6
CONTINUOUS
 10
-9.4249957692
 20
24.5
 11
-11.3250042308
 21
24.5
  0
LINE
  5
57F
100
AcDbEntity
  8
RACCORDO
100
AcDbLine
 62
253
  6
CONTINUOUS
 10
9.7073926099
 20
22.4
 11
9.7248476749
 21
22.3912731322
  0
ARC
  5
580
100
AcDbEntity
  8
CORPO
100
AcDbCircle
 62
253
  6
CONTINUOUS
 10
-51.845508682
 20
-17.9795196927
 40
50.713264277
100
AcDbArc
 50
4.2759494458
 51
4.4663155117
  0
ARC
  5
581
100
AcDbEntity
  8
ASSI
100
AcDbCircle
 62
253
  6
CONTINUOUS
 10
-51.845508682
 20
-17.9795196927
 40
50.713264277
100
AcDbArc
 50
4.2759494458
 51
4.4663155117
  0
ARC
  5
582
100
AcDbEntity
  8
CORPO
100
AcDbCircle
 62
253
  6
CONTINUOUS
 10
-51.8455130129
 20
-6.0204799732
 40
50.7132686208
100
AcDbArc
 50
355.5336844929
 51
355.7240505425
  0
ARC
  5
583
100
AcDbEntity
  8
ASSI
100
AcDbCircle
 62
253
  6
CONTINUOUS
 10
-51.8455130129
 20
-6.0204799732
 40
50.7132686208
100
AcDbArc
 50
355.5336844929
 51
355.7240505425
  0
ARC
  5
584
100
AcDbEntity
  8
ASSI
100
AcDbCircle
 62
7
  6
CONTINUOUS
 10
-5.3606393364
 20
-21.2476627466
 40
7.9042514465
100
AcDbArc
 50
78.648580493
 51
78.9094842097
  0
ARC
  5
585
100
AcDbEntity
  8
ASSI
100
AcDbCircle
 62
7
  6
CONTINUOUS
 10
-4.5949812247
 20
-17.3506518156
 40
3.9327378166
100
AcDbArc
 50
78.9347159581
 51
79.4795591354
  0
ARC
  5
586
100
AcDbEntity
  8
CORPO
100
AcDbCircle
 62
253
  6
CONTINUOUS
 10
-9.6557738422
 20
-17.497923715
 40
1.9999999706
100
AcDbArc
 50
180.0036142072
 51
224.9963857928
  0
ARC
  5
587
100
AcDbEntity
  8
ASSI
100
AcDbCircle
 62
253
  6
CONTINUOUS
 10
-9.6557738422
 20
-17.497923715
 40
1.9999999706
100
AcDbArc
 50
180.0036142072
 51
224.9963857928
  0
ARC
  5
588
100
AcDbEntity
  8
CORPO
100
AcDbCircle
 62
253
  6
CONTINUOUS
 10
-10.2015383051
 20
-18.3661367074
 40
1.0001669283
100
AcDbArc
 50
225.0075747888
 51
269.9924252112
  0
ARC
  5
589
100
AcDbEntity
  8
ASSI
100
AcDbCircle
 62
253
  6
CONTINUOUS
 10
-10.2015383051
 20
-18.3661367074
 40
1.0001669283
100
AcDbArc
 50
225.0075747888
 51
269.9924252112
  0
ARC
  5
58A
100
AcDbEntity
  8
CORPO
100
AcDbCircle
 62
253
  6
CONTINUOUS
 10
-9.6560909638
 20
-17.4980550711
 40
0.9998351498
100
AcDbArc
 50
179.9997022166
 51
225.0002977834
  0
ARC
  5
58B
100
AcDbEntity
  8
ASSI
100
AcDbCircle
 62
253
  6
CONTINUOUS
 10
-9.6560909638
 20
-17.4980550711
 40
0.9998351498
100
AcDbArc
 50
179.9997022166
 51
225.0002977834
  0
ARC
  5
58C
100
AcDbEntity
  8
RACCORDO
100
AcDbCircle
 62
7
  6
CONTINUOUS
 10
-11.5573927659
 20
-21.8998729306
 40
0.5001270694
100
AcDbArc
 50
267.982455317
 51
270.0000178742
  0
ARC
  5
58D
100
AcDbEntity
  8
RACCORDO
100
AcDbCircle
 62
7
  6
CONTINUOUS
 10
-11.5574618824
 20
-21.9001237906
 40
0.499875135
100
AcDbArc
 50
243.4318543999
 51
267.9894638354
  0
ARC
  5
58E
100
AcDbEntity
  8
RACCORDO
100
AcDbCircle
 62
253
  6
CONTINUOUS
 10
-11.3206221828
 20
-24.2456221828
 40
0.2500059834
100
AcDbArc
 50
180.0023408263
 51
269.9976591737
  0
ARC
  5
58F
100
AcDbEntity
  8
RACCORDO
100
AcDbCircle
 62
253
  6
CONTINUOUS
 10
-9.4293778172
 20
-24.2456221828
 40
0.2500059834
100
AcDbArc
 50
270.0023408263
 51
359.9976591737
  0
ARC
  5
590
100
AcDbEntity
  8
RACCORDO
100
AcDbCircle
 62
7
  6
CONTINUOUS
 10
-11.3250053487
 20
-24.2500053487
 40
0.2499946513
100
AcDbArc
 50
179.9997437926
 51
270.0002562074
  0
ARC
  5
591
100
AcDbEntity
  8
RACCORDO
100
AcDbCircle
 62
7
  6
CONTINUOUS
 10
-9.4249946513
 20
-24.2500053487
 40
0.2499946513
100
AcDbArc
 50
269.9997437926
 51
0.0002562074
  0
ARC
  5
592
100
AcDbEntity
  8
CORPO
100
AcDbCircle
 62
253
  6
CONTINUOUS
 10
-3.425
 20
-12.0
 40
3.3748992489
100
AcDbArc
 50
45.6155593048
 51
314.3844406949
  0
ARC
  5
593
100
AcDbEntity
  8
ASSI
100
AcDbCircle
 62
253
  6
CONTINUOUS
 10
-3.425
 20
-12.0
 40
3.3748992489
100
AcDbArc
 50
45.6155593048
 51
314.3844406949
  0
ARC
  5
594
100
AcDbEntity
  8
CORPO
100
AcDbCircle
 62
253
  6
CONTINUOUS
 10
-3.425
 20
-12.0
 40
3.076040942
100
AcDbArc
 50
45.6155593004
 51
314.3844406992
  0
ARC
  5
595
100
AcDbEntity
  8
ASSI
100
AcDbCircle
 62
253
  6
CONTINUOUS
 10
-3.425
 20
-12.0
 40
3.076040942
100
AcDbArc
 50
45.6155593004
 51
314.3844406992
  0
ARC
  5
596
100
AcDbEntity
  8
CORPO
100
AcDbCircle
 62
253
  6
CONTINUOUS
 10
-3.425
 20
-12.0
 40
2.9489817301
100
AcDbArc
 50
43.5102096078
 51
316.4897903918
  0
ARC
  5
597
100
AcDbEntity
  8
ASSI
100
AcDbCircle
 62
253
  6
CONTINUOUS
 10
-3.425
 20
-12.0
 40
2.9489817301
100
AcDbArc
 50
43.5102096078
 51
316.4897903918
  0
ARC
  5
598
100
AcDbEntity
  8
CORPO
100
AcDbCircle
 62
253
  6
CONTINUOUS
 10
-3.425
 20
-12.0
 40
2.6501233097
100
AcDbArc
 50
43.51020962
 51
316.4897903809
  0
ARC
  5
599
100
AcDbEntity
  8
ASSI
100
AcDbCircle
 62
253
  6
CONTINUOUS
 10
-3.425
 20
-12.0
 40
2.6501233097
100
AcDbArc
 50
43.51020962
 51
316.4897903809
  0
CIRCLE
  5
59A
100
AcDbEntity
  8
CORPO
100
AcDbCircle
 62
253
  6
CONTINUOUS
 10
-3.425
 20
-12.0
 40
2.2609866986
  0
CIRCLE
  5
59B
100
AcDbEntity
  8
ASSI
100
AcDbCircle
 62
253
  6
CONTINUOUS
 10
-3.425
 20
-12.0
 40
2.2609866986
  0
ARC
  5
59C
100
AcDbEntity
  8
ASSI
100
AcDbCircle
 62
7
  6
CONTINUOUS
 10
-3.386739637
 20
-11.4225037779
 40
2.1172273126
100
AcDbArc
 50
258.6096307782
 51
259.5103135981
  0
CIRCLE
  5
59D
100
AcDbEntity
  8
CORPO
100
AcDbCircle
 62
253
  6
CONTINUOUS
 10
-3.425
 20
-12.0
 40
1.9632228556
  0
CIRCLE
  5
59E
100
AcDbEntity
  8
ASSI
100
AcDbCircle
 62
253
  6
CONTINUOUS
 10
-3.425
 20
-12.0
 40
1.9632228556
  0
CIRCLE
  5
59F
100
AcDbEntity
  8
CORPO
100
AcDbCircle
 62
7
  6
CONTINUOUS
 10
-3.425
 20
-12.0
 40
1.5658231586
  0
CIRCLE
  5
5A0
100
AcDbEntity
  8
ASSI
100
AcDbCircle
 62
7
  6
CONTINUOUS
 10
-3.425
 20
-12.0
 40
1.5658231586
  0
ARC
  5
5A1
100
AcDbEntity
  8
0
100
AcDbCircle
 62
7
  6
CONTINUOUS
 10
-4.225
 20
-14.95
 40
1.5
100
AcDbArc
 50
75.0
 51
79.3139677755
  0
ARC
  5
5A2
100
AcDbEntity
  8
CORPO
100
AcDbCircle
 62
253
  6
CONTINUOUS
 10
-0.9250000568
 20
-14.5576863958
 40
0.5005260441
100
AcDbArc
 50
45.886449325
 51
134.1135413453
  0
ARC
  5
5A3
100
AcDbEntity
  8
ASSI
100
AcDbCircle
 62
253
  6
CONTINUOUS
 10
-0.9250000568
 20
-14.5576881548
 40
0.5005260441
100
AcDbArc
 50
45.8865894813
 51
134.113401189
  0
ARC
  5
5A4
100
AcDbEntity
  8
ASSI
100
AcDbCircle
 62
7
  6
CONTINUOUS
 10
-3.5597293883
 20
-13.3688497434
 40
0.1517389919
100
AcDbArc
 50
285.5893797625
 51
289.1314685557
  0
ARC
  5
5A5
100
AcDbEntity
  8
CORPO
100
AcDbCircle
 62
253
  6
CONTINUOUS
 10
-51.8455086821
 20
6.0204803073
 40
50.7132642771
100
AcDbArc
 50
4.2759494458
 51
4.4663155117
  0
ARC
  5
5A6
100
AcDbEntity
  8
ASSI
100
AcDbCircle
 62
253
  6
CONTINUOUS
 10
-51.8455086821
 20
6.0204803073
 40
50.7132642771
100
AcDbArc
 50
4.2759494458
 51
4.4663155117
  0
ARC
  5
5A7
100
AcDbEntity
  8
CORPO
100
AcDbCircle
 62
253
  6
CONTINUOUS
 10
-51.8455130143
 20
17.979520027
 40
50.7132686222
100
AcDbArc
 50
355.5336844929
 51
355.7240505425
  0
ARC
  5
5A8
100
AcDbEntity
  8
ASSI
100
AcDbCircle
 62
253
  6
CONTINUOUS
 10
-51.8455130143
 20
17.979520027
 40
50.7132686222
100
AcDbArc
 50
355.5336844929
 51
355.7240505425
  0
ARC
  5
5A9
100
AcDbEntity
  8
CORPO
100
AcDbCircle
 62
253
  6
CONTINUOUS
 10
-3.425
 20
12.0
 40
3.3748992489
100
AcDbArc
 50
45.6155593048
 51
314.3844406949
  0
ARC
  5
5AA
100
AcDbEntity
  8
ASSI
100
AcDbCircle
 62
253
  6
CONTINUOUS
 10
-3.425
 20
12.0
 40
3.3748992489
100
AcDbArc
 50
45.6155593048
 51
314.3844406949
  0
ARC
  5
5AB
100
AcDbEntity
  8
CORPO
100
AcDbCircle
 62
253
  6
CONTINUOUS
 10
-3.425
 20
12.0
 40
3.076040942
100
AcDbArc
 50
45.6155593004
 51
314.3844406992
  0
ARC
  5
5AC
100
AcDbEntity
  8
ASSI
100
AcDbCircle
 62
253
  6
CONTINUOUS
 10
-3.425
 20
12.0
 40
3.076040942
100
AcDbArc
 50
45.6155593004
 51
314.3844406992
  0
ARC
  5
5AD
100
AcDbEntity
  8
CORPO
100
AcDbCircle
 62
253
  6
CONTINUOUS
 10
-3.425
 20
12.0
 40
2.9489817301
100
AcDbArc
 50
43.5102096078
 51
316.4897903918
  0
ARC
  5
5AE
100
AcDbEntity
  8
ASSI
100
AcDbCircle
 62
253
  6
CONTINUOUS
 10
-3.425
 20
12.0
 40
2.9489817301
100
AcDbArc
 50
43.5102096078
 51
316.4897903918
  0
ARC
  5
5AF
100
AcDbEntity
  8
CORPO
100
AcDbCircle
 62
253
  6
CONTINUOUS
 10
-3.425
 20
12.0
 40
2.6501233097
100
AcDbArc
 50
43.51020962
 51
316.4897903809
  0
ARC
  5
5B0
100
AcDbEntity
  8
ASSI
100
AcDbCircle
 62
253
  6
CONTINUOUS
 10
-3.425
 20
12.0
 40
2.6501233097
100
AcDbArc
 50
43.51020962
 51
316.4897903809
  0
CIRCLE
  5
5B1
100
AcDbEntity
  8
CORPO
100
AcDbCircle
 62
253
  6
CONTINUOUS
 10
-3.425
 20
12.0
 40
2.2609866986
  0
CIRCLE
  5
5B2
100
AcDbEntity
  8
ASSI
100
AcDbCircle
 62
253
  6
CONTINUOUS
 10
-3.425
 20
12.0
 40
2.2609866986
  0
ARC
  5
5B3
100
AcDbEntity
  8
ASSI
100
AcDbCircle
 62
7
  6
CONTINUOUS
 10
-3.3699989944
 20
11.3381831672
 40
2.2031933427
100
AcDbArc
 50
100.4962813997
 51
101.3840818439
  0
CIRCLE
  5
5B4
100
AcDbEntity
  8
CORPO
100
AcDbCircle
 62
253
  6
CONTINUOUS
 10
-3.425
 20
12.0
 40
1.9632228556
  0
CIRCLE
  5
5B5
100
AcDbEntity
  8
ASSI
100
AcDbCircle
 62
253
  6
CONTINUOUS
 10
-3.425
 20
12.0
 40
1.9632228556
  0
CIRCLE
  5
5B6
100
AcDbEntity
  8
CORPO
100
AcDbCircle
 62
7
  6
CONTINUOUS
 10
-3.425
 20
12.0
 40
1.5658231586
  0
CIRCLE
  5
5B7
100
AcDbEntity
  8
ASSI
100
AcDbCircle
 62
7
  6
CONTINUOUS
 10
-3.425
 20
12.0
 40
1.5658231586
  0
ARC
  5
5B8
100
AcDbEntity
  8
0
100
AcDbCircle
 62
7
  6
CONTINUOUS
 10
-4.225
 20
14.95
 40
1.5
100
AcDbArc
 50
280.6860069696
 51
285.0
  0
ARC
  5
5B9
100
AcDbEntity
  8
CORPO
100
AcDbCircle
 62
253
  6
CONTINUOUS
 10
-0.9250000568
 20
9.4423136042
 40
0.5005260441
100
AcDbArc
 50
45.886449325
 51
134.1135413453
  0
ARC
  5
5BA
100
AcDbEntity
  8
ASSI
100
AcDbCircle
 62
253
  6
CONTINUOUS
 10
-0.9250000568
 20
9.4423118452
 40
0.5005260441
100
AcDbArc
 50
45.8865894813
 51
134.113401189
  0
ARC
  5
5BB
100
AcDbEntity
  8
ASSI
100
AcDbCircle
 62
7
  6
CONTINUOUS
 10
-5.372787892
 20
21.2943487016
 40
7.9524157689
100
AcDbArc
 50
281.2396437433
 51
281.3710302954
  0
ARC
  5
5BC
100
AcDbEntity
  8
ASSI
100
AcDbCircle
 62
7
  6
CONTINUOUS
 10
-4.3042951342
 20
15.7539616694
 40
2.3097772326
100
AcDbArc
 50
278.3959461683
 51
280.1534908912
  0
ARC
  5
5BD
100
AcDbEntity
  8
CORPO
100
AcDbCircle
 62
253
  6
CONTINUOUS
 10
-9.6557738422
 20
17.497923715
 40
1.9999999706
100
AcDbArc
 50
135.0036142072
 51
179.9963857928
  0
ARC
  5
5BE
100
AcDbEntity
  8
ASSI
100
AcDbCircle
 62
253
  6
CONTINUOUS
 10
-9.6557738422
 20
17.497923715
 40
1.9999999706
100
AcDbArc
 50
135.0036142072
 51
179.9963857928
  0
ARC
  5
5BF
100
AcDbEntity
  8
CORPO
100
AcDbCircle
 62
253
  6
CONTINUOUS
 10
-10.2015383051
 20
18.3661367074
 40
1.0001669283
100
AcDbArc
 50
90.0075747888
 51
134.9924252112
  0
ARC
  5
5C0
100
AcDbEntity
  8
ASSI
100
AcDbCircle
 62
253
  6
CONTINUOUS
 10
-10.2015383051
 20
18.3661367074
 40
1.0001669283
100
AcDbArc
 50
90.0075747888
 51
134.9924252112
  0
ARC
  5
5C1
100
AcDbEntity
  8
CORPO
100
AcDbCircle
 62
253
  6
CONTINUOUS
 10
-9.6560909638
 20
17.4980550711
 40
0.9998351498
100
AcDbArc
 50
134.9997022166
 51
180.0002977834
  0
ARC
  5
5C2
100
AcDbEntity
  8
ASSI
100
AcDbCircle
 62
253
  6
CONTINUOUS
 10
-9.6560909638
 20
17.4980550711
 40
0.9998351498
100
AcDbArc
 50
134.9997022166
 51
180.0002977834
  0
ARC
  5
5C3
100
AcDbEntity
  8
RACCORDO
100
AcDbCircle
 62
7
  6
CONTINUOUS
 10
-11.5573927659
 20
21.8998729306
 40
0.5001270694
100
AcDbArc
 50
89.9999821257
 51
92.017544683
  0
ARC
  5
5C4
100
AcDbEntity
  8
RACCORDO
100
AcDbCircle
 62
7
  6
CONTINUOUS
 10
-11.5574618824
 20
21.9001237906
 40
0.499875135
100
AcDbArc
 50
92.0105361646
 51
116.5681456001
  0
ARC
  5
5C5
100
AcDbEntity
  8
RACCORDO
100
AcDbCircle
 62
253
  6
CONTINUOUS
 10
-9.4293778172
 20
24.2456221828
 40
0.2500059834
100
AcDbArc
 50
0.0023408215
 51
89.9976591785
  0
ARC
  5
5C6
100
AcDbEntity
  8
RACCORDO
100
AcDbCircle
 62
253
  6
CONTINUOUS
 10
-11.3206221828
 20
24.2456221828
 40
0.2500059834
100
AcDbArc
 50
90.0023408215
 51
179.9976591785
  0
ARC
  5
5C7
100
AcDbEntity
  8
RACCORDO
100
AcDbCircle
 62
7
  6
CONTINUOUS
 10
-9.4249946513
 20
24.2500053487
 40
0.2499946513
100
AcDbArc
 50
359.9997437926
 51
90.0002562074
  0
ARC
  5
5C8
100
AcDbEntity
  8
RACCORDO
100
AcDbCircle
 62
7
  6
CONTINUOUS
 10
-11.3250053487
 20
24.2500053487
 40
0.2499946513
100
AcDbArc
 50
89.9997437926
 51
180.0002562074
  0
ARC
  5
5C9
100
AcDbEntity
  8
ASSI
100
AcDbCircle
 62
7
  6
CONTINUOUS
 10
3.5227878909
 20
-21.2943486962
 40
7.9524157633
100
AcDbArc
 50
101.2396437432
 51
101.3710302955
  0
ARC
  5
5CA
100
AcDbEntity
  8
ASSI
100
AcDbCircle
 62
7
  6
CONTINUOUS
 10
2.4542951342
 20
-15.7539616694
 40
2.3097772326
100
AcDbArc
 50
98.3959461683
 51
100.1534908911
  0
ARC
  5
5CB
100
AcDbEntity
  8
CORPO
100
AcDbCircle
 62
253
  6
CONTINUOUS
 10
7.8057738422
 20
-17.497923715
 40
1.9999999706
100
AcDbArc
 50
315.0036142072
 51
359.9963857928
  0
ARC
  5
5CC
100
AcDbEntity
  8
ASSI
100
AcDbCircle
 62
253
  6
CONTINUOUS
 10
7.8057738422
 20
-17.497923715
 40
1.9999999706
100
AcDbArc
 50
315.0036142072
 51
359.9963857928
  0
ARC
  5
5CD
100
AcDbEntity
  8
CORPO
100
AcDbCircle
 62
253
  6
CONTINUOUS
 10
8.3515383051
 20
-18.3661367074
 40
1.0001669283
100
AcDbArc
 50
270.0075747888
 51
314.9924252112
  0
ARC
  5
5CE
100
AcDbEntity
  8
ASSI
100
AcDbCircle
 62
253
  6
CONTINUOUS
 10
8.3515383051
 20
-18.3661367074
 40
1.0001669283
100
AcDbArc
 50
270.0075747888
 51
314.9924252112
  0
ARC
  5
5CF
100
AcDbEntity
  8
CORPO
100
AcDbCircle
 62
253
  6
CONTINUOUS
 10
7.8060909638
 20
-17.4980550711
 40
0.9998351498
100
AcDbArc
 50
314.9997022166
 51
0.0002977834
  0
ARC
  5
5D0
100
AcDbEntity
  8
ASSI
100
AcDbCircle
 62
253
  6
CONTINUOUS
 10
7.8060909638
 20
-17.4980550711
 40
0.9998351498
100
AcDbArc
 50
314.9997022166
 51
0.0002977834
  0
ARC
  5
5D1
100
AcDbEntity
  8
RACCORDO
100
AcDbCircle
 62
7
  6
CONTINUOUS
 10
9.7073927659
 20
-21.8998729306
 40
0.5001270694
100
AcDbArc
 50
269.9999821258
 51
272.017544683
  0
ARC
  5
5D2
100
AcDbEntity
  8
RACCORDO
100
AcDbCircle
 62
7
  6
CONTINUOUS
 10
9.7074618824
 20
-21.9001237906
 40
0.499875135
100
AcDbArc
 50
272.0105361646
 51
296.5681456001
  0
ARC
  5
5D3
100
AcDbEntity
  8
RACCORDO
100
AcDbCircle
 62
253
  6
CONTINUOUS
 10
7.5793778172
 20
-24.2456221828
 40
0.2500059834
100
AcDbArc
 50
180.0023408215
 51
269.9976591785
  0
ARC
  5
5D4
100
AcDbEntity
  8
RACCORDO
100
AcDbCircle
 62
253
  6
CONTINUOUS
 10
9.4706221828
 20
-24.2456221828
 40
0.2500059834
100
AcDbArc
 50
270.0023408263
 51
359.9976591737
  0
ARC
  5
5D5
100
AcDbEntity
  8
RACCORDO
100
AcDbCircle
 62
7
  6
CONTINUOUS
 10
7.5749946513
 20
-24.2500053487
 40
0.2499946513
100
AcDbArc
 50
179.9997437926
 51
270.0002562074
  0
ARC
  5
5D6
100
AcDbEntity
  8
RACCORDO
100
AcDbCircle
 62
7
  6
CONTINUOUS
 10
9.4750053487
 20
-24.2500053487
 40
0.2499946513
100
AcDbArc
 50
269.9997437926
 51
0.0002562074
  0
ARC
  5
5D7
100
AcDbEntity
  8
CORPO
100
AcDbCircle
 62
253
  6
CONTINUOUS
 10
1.575
 20
-12.0
 40
3.3748992489
100
AcDbArc
 50
225.6155593048
 51
134.3844406949
  0
ARC
  5
5D8
100
AcDbEntity
  8
ASSI
100
AcDbCircle
 62
253
  6
CONTINUOUS
 10
1.575
 20
-12.0
 40
3.3748992489
100
AcDbArc
 50
225.6155593048
 51
134.3844406949
  0
ARC
  5
5D9
100
AcDbEntity
  8
CORPO
100
AcDbCircle
 62
253
  6
CONTINUOUS
 10
1.575
 20
-12.0
 40
3.076040942
100
AcDbArc
 50
225.6155593004
 51
134.3844406992
  0
ARC
  5
5DA
100
AcDbEntity
  8
ASSI
100
AcDbCircle
 62
253
  6
CONTINUOUS
 10
1.575
 20
-12.0
 40
3.076040942
100
AcDbArc
 50
225.6155593004
 51
134.3844406992
  0
ARC
  5
5DB
100
AcDbEntity
  8
CORPO
100
AcDbCircle
 62
253
  6
CONTINUOUS
 10
1.575
 20
-12.0
 40
2.9489817301
100
AcDbArc
 50
223.5102096078
 51
136.4897903918
  0
ARC
  5
5DC
100
AcDbEntity
  8
ASSI
100
AcDbCircle
 62
253
  6
CONTINUOUS
 10
1.575
 20
-12.0
 40
2.9489817301
100
AcDbArc
 50
223.5102096078
 51
136.4897903918
  0
ARC
  5
5DD
100
AcDbEntity
  8
CORPO
100
AcDbCircle
 62
253
  6
CONTINUOUS
 10
1.575
 20
-12.0
 40
2.6501233097
100
AcDbArc
 50
223.51020962
 51
136.4897903809
  0
ARC
  5
5DE
100
AcDbEntity
  8
ASSI
100
AcDbCircle
 62
253
  6
CONTINUOUS
 10
1.575
 20
-12.0
 40
2.6501233097
100
AcDbArc
 50
223.51020962
 51
136.4897903809
  0
CIRCLE
  5
5DF
100
AcDbEntity
  8
CORPO
100
AcDbCircle
 62
253
  6
CONTINUOUS
 10
1.575
 20
-12.0
 40
2.2609866986
  0
CIRCLE
  5
5E0
100
AcDbEntity
  8
ASSI
100
AcDbCircle
 62
253
  6
CONTINUOUS
 10
1.575
 20
-12.0
 40
2.2609866986
  0
ARC
  5
5E1
100
AcDbEntity
  8
ASSI
100
AcDbCircle
 62
7
  6
CONTINUOUS
 10
1.5199989944
 20
-11.3381831671
 40
2.2031933427
100
AcDbArc
 50
280.4962813997
 51
281.3840818439
  0
CIRCLE
  5
5E2
100
AcDbEntity
  8
CORPO
100
AcDbCircle
 62
253
  6
CONTINUOUS
 10
1.575
 20
-12.0
 40
1.9632228556
  0
CIRCLE
  5
5E3
100
AcDbEntity
  8
ASSI
100
AcDbCircle
 62
253
  6
CONTINUOUS
 10
1.575
 20
-12.0
 40
1.9632228556
  0
CIRCLE
  5
5E4
100
AcDbEntity
  8
CORPO
100
AcDbCircle
 62
7
  6
CONTINUOUS
 10
1.575
 20
-12.0
 40
1.5658231586
  0
CIRCLE
  5
5E5
100
AcDbEntity
  8
ASSI
100
AcDbCircle
 62
7
  6
CONTINUOUS
 10
1.575
 20
-12.0
 40
1.5658231586
  0
ARC
  5
5E6
100
AcDbEntity
  8
0
100
AcDbCircle
 62
7
  6
CONTINUOUS
 10
2.375
 20
-14.95
 40
1.5
100
AcDbArc
 50
100.6860069696
 51
105.0
  0
ARC
  5
5E7
100
AcDbEntity
  8
CORPO
100
AcDbCircle
 62
253
  6
CONTINUOUS
 10
-0.9249999432
 20
-9.4423136344
 40
0.5005260441
100
AcDbArc
 50
225.8864469177
 51
314.1135437525
  0
ARC
  5
5E8
100
AcDbEntity
  8
ASSI
100
AcDbCircle
 62
253
  6
CONTINUOUS
 10
-0.9249999432
 20
-9.4423287917
 40
0.500511234
100
AcDbArc
 50
225.885239127
 51
314.1147515433
  0
ARC
  5
5E9
100
AcDbEntity
  8
ASSI
100
AcDbCircle
 62
253
  6
CONTINUOUS
 10
-0.9250000001
 20
-14.5539280825
 40
0.1989682739
100
AcDbArc
 50
45.540007224
 51
134.459992731
  0
ARC
  5
5EA
100
AcDbEntity
  8
ASSI
100
AcDbCircle
 62
253
  6
CONTINUOUS
 10
-0.9249999999
 20
-9.4460719175
 40
0.198968274
100
AcDbArc
 50
225.5400072229
 51
314.4599927321
  0
ARC
  5
5EB
100
AcDbEntity
  8
CORPO
100
AcDbCircle
 62
253
  6
CONTINUOUS
 10
49.9955130134
 20
-17.9795200269
 40
50.7132686213
100
AcDbArc
 50
175.5336844929
 51
175.7240505425
  0
ARC
  5
5EC
100
AcDbEntity
  8
ASSI
100
AcDbCircle
 62
253
  6
CONTINUOUS
 10
49.9955130134
 20
-17.9795200269
 40
50.7132686213
100
AcDbArc
 50
175.5336844929
 51
175.7240505425
  0
ARC
  5
5ED
100
AcDbEntity
  8
CORPO
100
AcDbCircle
 62
253
  6
CONTINUOUS
 10
49.9955086822
 20
-6.0204803073
 40
50.7132642773
100
AcDbArc
 50
184.2759494458
 51
184.4663155117
  0
ARC
  5
5EE
100
AcDbEntity
  8
ASSI
100
AcDbCircle
 62
253
  6
CONTINUOUS
 10
49.9955086822
 20
-6.0204803073
 40
50.7132642773
100
AcDbArc
 50
184.2759494458
 51
184.4663155117
  0
ARC
  5
5EF
100
AcDbEntity
  8
CORPO
100
AcDbCircle
 62
253
  6
CONTINUOUS
 10
1.575
 20
12.0
 40
3.3748992489
100
AcDbArc
 50
225.6155593048
 51
134.3844406949
  0
ARC
  5
5F0
100
AcDbEntity
  8
ASSI
100
AcDbCircle
 62
253
  6
CONTINUOUS
 10
1.575
 20
12.0
 40
3.3748992489
100
AcDbArc
 50
225.6155593048
 51
134.3844406949
  0
ARC
  5
5F1
100
AcDbEntity
  8
CORPO
100
AcDbCircle
 62
253
  6
CONTINUOUS
 10
1.575
 20
12.0
 40
3.076040942
100
AcDbArc
 50
225.6155593004
 51
134.3844406992
  0
ARC
  5
5F2
100
AcDbEntity
  8
ASSI
100
AcDbCircle
 62
253
  6
CONTINUOUS
 10
1.575
 20
12.0
 40
3.076040942
100
AcDbArc
 50
225.6155593004
 51
134.3844406992
  0
ARC
  5
5F3
100
AcDbEntity
  8
CORPO
100
AcDbCircle
 62
253
  6
CONTINUOUS
 10
1.575
 20
12.0
 40
2.9489817301
100
AcDbArc
 50
223.5102096078
 51
136.4897903918
  0
ARC
  5
5F4
100
AcDbEntity
  8
ASSI
100
AcDbCircle
 62
253
  6
CONTINUOUS
 10
1.575
 20
12.0
 40
2.9489817301
100
AcDbArc
 50
223.5102096078
 51
136.4897903918
  0
ARC
  5
5F5
100
AcDbEntity
  8
CORPO
100
AcDbCircle
 62
253
  6
CONTINUOUS
 10
1.575
 20
12.0
 40
2.6501233097
100
AcDbArc
 50
223.51020962
 51
136.4897903809
  0
ARC
  5
5F6
100
AcDbEntity
  8
ASSI
100
AcDbCircle
 62
253
  6
CONTINUOUS
 10
1.575
 20
12.0
 40
2.6501233097
100
AcDbArc
 50
223.51020962
 51
136.4897903809
  0
CIRCLE
  5
5F7
100
AcDbEntity
  8
CORPO
100
AcDbCircle
 62
253
  6
CONTINUOUS
 10
1.575
 20
12.0
 40
2.2609866986
  0
CIRCLE
  5
5F8
100
AcDbEntity
  8
ASSI
100
AcDbCircle
 62
253
  6
CONTINUOUS
 10
1.575
 20
12.0
 40
2.2609866986
  0
ARC
  5
5F9
100
AcDbEntity
  8
ASSI
100
AcDbCircle
 62
7
  6
CONTINUOUS
 10
1.5367396369
 20
11.4225037777
 40
2.1172273128
100
AcDbArc
 50
78.6096307783
 51
79.5103135981
  0
CIRCLE
  5
5FA
100
AcDbEntity
  8
CORPO
100
AcDbCircle
 62
253
  6
CONTINUOUS
 10
1.575
 20
12.0
 40
1.9632228556
  0
CIRCLE
  5
5FB
100
AcDbEntity
  8
ASSI
100
AcDbCircle
 62
253
  6
CONTINUOUS
 10
1.575
 20
12.0
 40
1.9632228556
  0
CIRCLE
  5
5FC
100
AcDbEntity
  8
CORPO
100
AcDbCircle
 62
7
  6
CONTINUOUS
 10
1.575
 20
12.0
 40
1.5658231586
  0
CIRCLE
  5
5FD
100
AcDbEntity
  8
ASSI
100
AcDbCircle
 62
7
  6
CONTINUOUS
 10
1.575
 20
12.0
 40
1.5658231586
  0
ARC
  5
5FE
100
AcDbEntity
  8
0
100
AcDbCircle
 62
7
  6
CONTINUOUS
 10
2.375
 20
14.95
 40
1.5
100
AcDbArc
 50
255.0
 51
259.3139677755
  0
ARC
  5
5FF
100
AcDbEntity
  8
CORPO
100
AcDbCircle
 62
253
  6
CONTINUOUS
 10
-0.9249999432
 20
14.5576863656
 40
0.5005260441
100
AcDbArc
 50
225.8864469177
 51
314.1135437525
  0
ARC
  5
600
100
AcDbEntity
  8
ASSI
100
AcDbCircle
 62
253
  6
CONTINUOUS
 10
-0.9249999432
 20
14.5576712084
 40
0.500511234
100
AcDbArc
 50
225.8852391335
 51
314.1147515367
  0
ARC
  5
601
100
AcDbEntity
  8
ASSI
100
AcDbCircle
 62
253
  6
CONTINUOUS
 10
-0.9250000001
 20
9.4460719175
 40
0.1989682739
100
AcDbArc
 50
45.540007224
 51
134.459992731
  0
ARC
  5
602
100
AcDbEntity
  8
ASSI
100
AcDbCircle
 62
253
  6
CONTINUOUS
 10
-0.9249999999
 20
14.5539280825
 40
0.1989682739
100
AcDbArc
 50
225.5400072226
 51
314.4599927324
  0
ARC
  5
603
100
AcDbEntity
  8
ASSI
100
AcDbCircle
 62
7
  6
CONTINUOUS
 10
1.7097293883
 20
13.3688497433
 40
0.1517389919
100
AcDbArc
 50
105.5893797626
 51
109.1314685555
  0
ARC
  5
604
100
AcDbEntity
  8
ASSI
100
AcDbCircle
 62
7
  6
CONTINUOUS
 10
3.5106393366
 20
21.2476627478
 40
7.9042514476
100
AcDbArc
 50
258.6485804931
 51
258.9094842096
  0
ARC
  5
605
100
AcDbEntity
  8
ASSI
100
AcDbCircle
 62
7
  6
CONTINUOUS
 10
2.7449812247
 20
17.3506518155
 40
3.9327378165
100
AcDbArc
 50
258.9347159581
 51
259.4795591354
  0
ARC
  5
606
100
AcDbEntity
  8
CORPO
100
AcDbCircle
 62
253
  6
CONTINUOUS
 10
7.8057738422
 20
17.497923715
 40
1.9999999706
100
AcDbArc
 50
0.0036142072
 51
44.9963857928
  0
ARC
  5
607
100
AcDbEntity
  8
ASSI
100
AcDbCircle
 62
253
  6
CONTINUOUS
 10
7.8057738422
 20
17.497923715
 40
1.9999999706
100
AcDbArc
 50
0.0036142072
 51
44.9963857928
  0
ARC
  5
608
100
AcDbEntity
  8
CORPO
100
AcDbCircle
 62
253
  6
CONTINUOUS
 10
8.3515383051
 20
18.3661367074
 40
1.0001669283
100
AcDbArc
 50
45.0075747888
 51
89.9924252112
  0
ARC
  5
609
100
AcDbEntity
  8
ASSI
100
AcDbCircle
 62
253
  6
CONTINUOUS
 10
8.3515383051
 20
18.3661367074
 40
1.0001669283
100
AcDbArc
 50
45.0075747888
 51
89.9924252112
  0
ARC
  5
60A
100
AcDbEntity
  8
CORPO
100
AcDbCircle
 62
253
  6
CONTINUOUS
 10
7.8060909638
 20
17.4980550711
 40
0.9998351498
100
AcDbArc
 50
359.9997022166
 51
45.0002977834
  0
ARC
  5
60B
100
AcDbEntity
  8
ASSI
100
AcDbCircle
 62
253
  6
CONTINUOUS
 10
7.8060909638
 20
17.4980550711
 40
0.9998351498
100
AcDbArc
 50
359.9997022166
 51
45.0002977834
  0
ARC
  5
60C
100
AcDbEntity
  8
RACCORDO
100
AcDbCircle
 62
7
  6
CONTINUOUS
 10
9.7073927659
 20
21.8998729306
 40
0.5001270694
100
AcDbArc
 50
87.982455317
 51
90.0000178743
  0
ARC
  5
60D
100
AcDbEntity
  8
RACCORDO
100
AcDbCircle
 62
7
  6
CONTINUOUS
 10
9.7074618824
 20
21.9001237906
 40
0.499875135
100
AcDbArc
 50
63.4318543999
 51
87.9894638354
  0
ARC
  5
60E
100
AcDbEntity
  8
RACCORDO
100
AcDbCircle
 62
253
  6
CONTINUOUS
 10
9.4706221828
 20
24.2456221828
 40
0.2500059834
100
AcDbArc
 50
0.0023408263
 51
89.9976591737
  0
ARC
  5
60F
100
AcDbEntity
  8
RACCORDO
100
AcDbCircle
 62
253
  6
CONTINUOUS
 10
7.5793778172
 20
24.2456221828
 40
0.2500059834
100
AcDbArc
 50
90.0023408263
 51
179.9976591737
  0
ARC
  5
610
100
AcDbEntity
  8
RACCORDO
100
AcDbCircle
 62
7
  6
CONTINUOUS
 10
7.5749946513
 20
24.2500053487
 40
0.2499946513
100
AcDbArc
 50
89.9997437926
 51
180.0002562074
  0
ARC
  5
611
100
AcDbEntity
  8
RACCORDO
100
AcDbCircle
 62
7
  6
CONTINUOUS
 10
9.4750053487
 20
24.2500053487
 40
0.2499946513
100
AcDbArc
 50
359.9997437926
 51
90.0002562074
  0
ARC
  5
612
100
AcDbEntity
  8
CORPO
100
AcDbCircle
 62
253
  6
CONTINUOUS
 10
49.9955130144
 20
6.020479973
 40
50.7132686223
100
AcDbArc
 50
175.5336844929
 51
175.7240505425
  0
ARC
  5
613
100
AcDbEntity
  8
ASSI
100
AcDbCircle
 62
253
  6
CONTINUOUS
 10
49.9955130144
 20
6.020479973
 40
50.7132686223
100
AcDbArc
 50
175.5336844929
 51
175.7240505425
  0
ARC
  5
614
100
AcDbEntity
  8
CORPO
100
AcDbCircle
 62
253
  6
CONTINUOUS
 10
49.9955086817
 20
17.9795196926
 40
50.7132642767
100
AcDbArc
 50
184.2759494458
 51
184.4663155117
  0
ARC
  5
615
100
AcDbEntity
  8
ASSI
100
AcDbCircle
 62
253
  6
CONTINUOUS
 10
49.9955086817
 20
17.9795196926
 40
50.7132642767
100
AcDbArc
 50
184.2759494458
 51
184.4663155117
  0
SPLINE
  5
616
100
AcDbEntity
  8
ASSI
100
AcDbSpline
 62
7
  6
CONTINUOUS
 70
0
 71
3
 72
20
 73
16
 74
14
 42
0.0000001
 43
0.0000001
 44
0.0000000001
 12
0.4451253217
 22
-0.481128015
 32
0.0
 13
0.0252813737
 23
-0.6549668472
 33
0.0
 40
0.0
 40
0.0
 40
0.0
 40
0.0
 40
0.1613624194
 40
0.3205394016
 40
0.4750144272
 40
0.6215131146
 40
0.6903945975
 40
0.7553930767
 40
0.8155665889
 40
0.8697817855
 40
0.9167083814
 40
0.9548763341
 40
0.9828739203
 40
0.9927751655
 40
1.0
 40
1.0
 40
1.0
 40
1.0
 10
3.0029699877
 20
-23.2563578147
 30
0.0
 10
3.026912154
 20
-23.2822364749
 30
0.0
 10
3.0744723381
 20
-23.3336431907
 30
0.0
 10
3.1448358237
 20
-23.4099321919
 30
0.0
 10
3.2127437006
 20
-23.48406751
 30
0.0
 10
3.2669635948
 20
-23.5439864117
 30
0.0
 10
3.3076812955
 20
-23.5897547101
 30
0.0
 10
3.3356181382
 20
-23.6216470785
 30
0.0
 10
3.3611284811
 20
-23.6514045179
 30
0.0
 10
3.3836438841
 20
-23.678518785
 30
0.0
 10
3.40254486
 20
-23.702393376
 30
0.0
 10
3.4170677422
 20
-23.722366856
 30
0.0
 10
3.4259649314
 20
-23.736488781
 30
0.0
 10
3.4299427914
 20
-23.7455117382
 30
0.0
 10
3.4308718482
 20
-23.7491960824
 30
0.0
 10
3.4309327327
 20
-23.7507734247
 30
0.0
 11
3.0029699877
 21
-23.2563578147
 31
0.0
 11
3.0747765949
 21
-23.3340121936
 31
0.0
 11
3.1454877548
 21
-23.4107283322
 31
0.0
 11
3.2138431419
 21
-23.4854235788
 31
0.0
 11
3.2782052128
 21
-23.5566835667
 31
0.0
 11
3.3082005713
 21
-23.5904279314
 31
0.0
 11
3.3362534815
 21
-23.6224918804
 31
0.0
 11
3.3618924139
 21
-23.6524624993
 31
0.0
 11
3.3845479031
 21
-23.6798396365
 31
0.0
 11
3.4035453323
 21
-23.7040298781
 31
0.0
 11
3.4181216653
 21
-23.7243620891
 31
0.0
 11
3.4274856812
 21
-23.7401443506
 31
0.0
 11
3.4299846384
 21
-23.7461337523
 31
0.0
 11
3.4309327327
 21
-23.7507734247
 31
0.0
  0
SPLINE
  5
617
100
AcDbEntity
  8
ASSI
100
AcDbSpline
 62
7
  6
CONTINUOUS
 70
0
 71
3
 72
20
 73
16
 74
14
 42
0.0000001
 43
0.0000001
 44
0.0000000001
 12
0.0
 22
0.6558200277
 32
0.0
 13
0.4453734942
 23
0.4813962602
 33
0.0
 40
0.0
 40
0.0
 40
0.0
 40
0.0
 40
0.0070071177
 40
0.01668237
 40
0.0442826676
 40
0.0821596683
 40
0.1289001864
 40
0.183019437
 40
0.2431697754
 40
0.308202048
 40
0.3771610573
 40
0.52390693
 40
0.6787070216
 40
0.8382514921
 40
1.0
 40
1.0
 40
1.0
 40
1.0
 10
2.575
 20
-23.7511422903
 30
0.0
 10
2.575
 20
-23.7496104876
 30
0.0
 10
2.5758279741
 20
-23.7459920004
 30
0.0
 10
2.5796355706
 20
-23.7370905783
 30
0.0
 10
2.5883792568
 20
-23.7230895487
 30
0.0
 10
2.6027542088
 20
-23.7032307909
 30
0.0
 10
2.6215632505
 20
-23.6794198937
 30
0.0
 10
2.6440308218
 20
-23.6523275287
 30
0.0
 10
2.6695316812
 20
-23.6225575401
 30
0.0
 10
2.697488756
 20
-23.5906258882
 30
0.0
 10
2.7382738224
 20
-23.5447668792
 30
0.0
 10
2.7926145724
 20
-23.4847049887
 30
0.0
 10
2.8606966931
 20
-23.410374666
 30
0.0
 10
2.9312585792
 20
-23.333869156
 30
0.0
 10
2.978957155
 20
-23.282312857
 30
0.0
 10
3.0029699877
 20
-23.2563578147
 30
0.0
 11
2.575
 21
-23.7511422903
 31
0.0
 11
2.5758025423
 21
-23.7466175029
 31
0.0
 11
2.5781705536
 21
-23.7407307047
 31
0.0
 11
2.58732034
 21
-23.725112722
 31
0.0
 11
2.6017455395
 21
-23.7048898675
 31
0.0
 11
2.6206488336
 21
-23.6807590898
 31
0.0
 11
2.643257971
 21
-23.6533995643
 31
0.0
 11
2.6688888167
 21
-23.6234130939
 31
0.0
 11
2.6969635342
 21
-23.5913072182
 31
0.0
 11
2.72700367
 21
-23.5575009513
 31
0.0
 11
2.7915038336
 21
-23.4860751061
 31
0.0
 11
2.8600385246
 21
-23.4111784464
 31
0.0
 11
2.9309515595
 21
-23.3342415048
 31
0.0
 11
3.0029699877
 21
-23.2563578147
 31
0.0
  0
SPLINE
  5
618
100
AcDbEntity
  8
ASSI
100
AcDbSpline
 62
7
  6
CONTINUOUS
 70
0
 71
3
 72
20
 73
16
 74
14
 42
0.0000001
 43
0.0000001
 44
0.0000000001
 12
0.4453734937
 22
-0.4813962596
 32
0.0
 13
0.0
 23
-0.6558200269
 33
0.0
 40
0.0
 40
0.0
 40
0.0
 40
0.0
 40
0.1617484059
 40
0.321292825
 40
0.4760929288
 40
0.6228387844
 40
0.6917977694
 40
0.7568300229
 40
0.8169803595
 40
0.8710996206
 40
0.9178401742
 40
0.9557172281
 40
0.9833175966
 40
0.9929928691
 40
1.0
 40
1.0
 40
1.0
 40
1.0
 10
-4.8529699877
 20
-23.2563578147
 30
0.0
 10
-4.8289571701
 20
-23.2823128406
 30
0.0
 10
-4.7812586171
 20
-23.3338691148
 30
0.0
 10
-4.710696752
 20
-23.4103746019
 30
0.0
 10
-4.6426146391
 20
-23.4847049149
 30
0.0
 10
-4.5882738928
 20
-23.5447668001
 30
0.0
 10
-4.5474888349
 20
-23.5906257989
 30
0.0
 10
-4.5195317668
 20
-23.6225574434
 30
0.0
 10
-4.4940309065
 20
-23.6523274283
 30
0.0
 10
-4.4715633263
 20
-23.6794197982
 30
0.0
 10
-4.4527542694
 20
-23.7032307115
 30
0.0
 10
-4.4383792949
 20
-23.7230894948
 30
0.0
 10
-4.4296355826
 20
-23.7370905474
 30
0.0
 10
-4.4258279823
 20
-23.7459919915
 30
0.0
 10
-4.425
 20
-23.7496104847
 30
0.0
 10
-4.425
 20
-23.7511422903
 30
0.0
 11
-4.8529699877
 21
-23.2563578147
 31
0.0
 11
-4.7809516049
 21
-23.3342414555
 31
0.0
 11
-4.7100385928
 21
-23.411178372
 31
0.0
 11
-4.6415038959
 21
-23.4860750371
 31
0.0
 11
-4.5770037393
 21
-23.5575008734
 31
0.0
 11
-4.546963614
 21
-23.591307128
 31
0.0
 11
-4.5188889042
 21
-23.6234129939
 31
0.0
 11
-4.4932580572
 21
-23.6533994616
 31
0.0
 11
-4.4706489129
 21
-23.6807589903
 31
0.0
 11
-4.4517456023
 21
-23.7048897846
 31
0.0
 11
-4.4373203782
 21
-23.7251126644
 31
0.0
 11
-4.428170564
 21
-23.7407306846
 31
0.0
 11
-4.4258025478
 21
-23.746617495
 31
0.0
 11
-4.425
 21
-23.7511422903
 31
0.0
  0
SPLINE
  5
619
100
AcDbEntity
  8
ASSI
100
AcDbSpline
 62
7
  6
CONTINUOUS
 70
0
 71
3
 72
20
 73
16
 74
14
 42
0.0000001
 43
0.0000001
 44
0.0000000001
 12
0.0252813737
 22
0.6549668479
 32
0.0
 13
0.4451253222
 23
0.4811280155
 33
0.0
 40
0.0
 40
0.0
 40
0.0
 40
0.0
 40
0.0072248217
 40
0.0171260471
 40
0.0451235654
 40
0.0832914673
 40
0.1302180295
 40
0.1844332165
 40
0.2446067311
 40
0.3096052295
 40
0.3784867363
 40
0.5249854411
 40
0.6794604545
 40
0.8386374838
 40
1.0
 40
1.0
 40
1.0
 40
1.0
 10
-5.2809327327
 20
-23.7507734247
 30
0.0
 10
-5.2808718483
 20
-23.7491960852
 30
0.0
 10
-5.2799427991
 20
-23.7455117468
 30
0.0
 10
-5.2759649436
 20
-23.7364888107
 30
0.0
 10
-5.2670677788
 20
-23.7223669077
 30
0.0
 10
-5.2525449184
 20
-23.702393452
 30
0.0
 10
-5.2336439567
 20
-23.6785188763
 30
0.0
 10
-5.211128562
 20
-23.6514046138
 30
0.0
 10
-5.1856182196
 20
-23.6216471704
 30
0.0
 10
-5.1576813703
 20
-23.5897547946
 30
0.0
 10
-5.116963661
 20
-23.543986486
 30
0.0
 10
-5.062743763
 20
-23.4840675791
 30
0.0
 10
-4.9948358789
 20
-23.409932252
 30
0.0
 10
-4.9244723738
 20
-23.3336432295
 30
0.0
 10
-4.8769121683
 20
-23.2822364904
 30
0.0
 10
-4.8529699877
 20
-23.2563578147
 30
0.0
 11
-5.2809327327
 21
-23.7507734247
 31
0.0
 11
-5.2799846436
 21
-23.7461337599
 31
0.0
 11
-5.2774856915
 21
-23.74014437
 31
0.0
 11
-5.2681217022
 21
-23.7243621445
 31
0.0
 11
-5.2535453928
 21
-23.7040299575
 31
0.0
 11
-5.2345479791
 21
-23.6798397317
 31
0.0
 11
-5.2118924963
 21
-23.6524625974
 31
0.0
 11
-5.1862535649
 21
-23.6224919755
 31
0.0
 11
-5.1582006468
 21
-23.5904280166
 31
0.0
 11
-5.128205278
 21
-23.55668364
 31
0.0
 11
-5.0638431999
 21
-23.4854236431
 31
0.0
 11
-4.9954878187
 21
-23.4107284019
 31
0.0
 11
-4.924776638
 21
-23.3340122404
 31
0.0
 11
-4.8529699877
 21
-23.2563578147
 31
0.0
  0
SPLINE
  5
61A
100
AcDbEntity
  8
ASSI
100
AcDbSpline
 62
7
  6
CONTINUOUS
 70
0
 71
3
 72
20
 73
16
 74
14
 42
0.0000001
 43
0.0000001
 44
0.0000000001
 12
-0.0252813737
 22
-0.6549668482
 32
0.0
 13
-0.4451253224
 23
-0.4811280157
 33
0.0
 40
0.0
 40
0.0
 40
0.0
 40
0.0
 40
0.0072248101
 40
0.0171260486
 40
0.0451237695
 40
0.0832920408
 40
0.1302189132
 40
0.1844342364
 40
0.2446077607
 40
0.3096061118
 40
0.378487439
 40
0.5249858569
 40
0.6794608614
 40
0.838637846
 40
1.0
 40
1.0
 40
1.0
 40
1.0
 10
3.4309327327
 20
23.7507734247
 30
0.0
 10
3.4308718484
 20
23.7491960877
 30
0.0
 10
3.4299428042
 20
23.7455117479
 30
0.0
 10
3.4259649227
 20
23.7364887736
 30
0.0
 10
3.4170676872
 20
23.7223667645
 30
0.0
 10
3.4025446959
 20
23.7023931651
 30
0.0
 10
3.3836436218
 20
23.6785184514
 30
0.0
 10
3.3611281493
 20
23.6514041237
 30
0.0
 10
3.3356177946
 20
23.6216466915
 30
0.0
 10
3.3076809922
 20
23.5897543667
 30
0.0
 10
3.2669633693
 20
23.5439861607
 30
0.0
 10
3.2127435392
 20
23.4840673324
 30
0.0
 10
3.1448357039
 20
23.4099320613
 30
0.0
 10
3.0744722601
 20
23.3336431058
 30
0.0
 10
3.0269121146
 20
23.2822364324
 30
0.0
 10
3.0029699877
 20
23.2563578147
 30
0.0
 11
3.4309327327
 21
23.7507734247
 31
0.0
 11
3.4299846482
 21
23.7461337667
 31
0.0
 11
3.4274856912
 21
23.7401443696
 31
0.0
 11
3.4181216281
 21
23.7243620334
 31
0.0
 11
3.4035451651
 21
23.7040296586
 31
0.0
 11
3.3845476183
 21
23.6798392787
 31
0.0
 11
3.3618920667
 21
23.6524620856
 31
0.0
 11
3.33625312
 21
23.6224914684
 31
0.0
 11
3.3082002635
 21
23.5904275837
 31
0.0
 11
3.2782049717
 21
23.5566832963
 31
0.0
 11
3.2138430172
 21
23.4854234411
 31
0.0
 11
3.1454876386
 21
23.4107282053
 31
0.0
 11
3.0747764772
 21
23.3340120658
 31
0.0
 11
3.0029699877
 21
23.2563578147
 31
0.0
  0
SPLINE
  5
61B
100
AcDbEntity
  8
ASSI
100
AcDbSpline
 62
7
  6
CONTINUOUS
 70
0
 71
3
 72
20
 73
16
 74
14
 42
0.0000001
 43
0.0000001
 44
0.0000000001
 12
-0.445373495
 22
0.4813962611
 32
0.0
 13
0.0
 23
0.6558200289
 33
0.0
 40
0.0
 40
0.0
 40
0.0
 40
0.0
 40
0.1617482366
 40
0.3212927077
 40
0.4760927764
 40
0.6228383737
 40
0.691797223
 40
0.7568293683
 40
0.816979722
 40
0.871099107
 40
0.9178399145
 40
0.9557172384
 40
0.9833176649
 40
0.9929929087
 40
1.0
 40
1.0
 40
1.0
 40
1.0
 10
3.0029699877
 20
23.2563578147
 30
0.0
 10
2.9789571952
 20
23.2823128135
 30
0.0
 10
2.9312586592
 20
23.3338690689
 30
0.0
 10
2.8606968164
 20
23.4103745317
 30
0.0
 10
2.7926147387
 20
23.4847048057
 30
0.0
 10
2.7382740542
 20
23.5447666207
 30
0.0
 10
2.6974890673
 20
23.5906255359
 30
0.0
 10
2.6695320327
 20
23.622557144
 30
0.0
 10
2.6440311594
 20
23.6523271271
 30
0.0
 10
2.6215635148
 20
23.6794195565
 30
0.0
 10
2.602754372
 20
23.7032305811
 30
0.0
 10
2.5883793084
 20
23.7230894604
 30
0.0
 10
2.5796355787
 20
23.7370905742
 30
0.0
 10
2.5758279597
 20
23.7459920114
 30
0.0
 10
2.575
 20
23.7496104934
 30
0.0
 10
2.575
 20
23.7511422903
 30
0.0
 11
3.0029699877
 21
23.2563578147
 31
0.0
 11
2.9309516799
 21
23.334241374
 31
0.0
 11
2.8600386443
 21
23.4111783158
 31
0.0
 11
2.7915039624
 21
23.4860749638
 31
0.0
 11
2.7270039178
 21
23.5575006733
 31
0.0
 11
2.6969638506
 21
23.5913068608
 31
0.0
 11
2.6688891863
 21
23.6234126723
 31
0.0
 11
2.6432583246
 21
23.6533991423
 31
0.0
 11
2.6206491212
 21
23.6807587277
 31
0.0
 11
2.6017457044
 21
23.7048896505
 31
0.0
 11
2.5873203734
 21
23.7251126717
 31
0.0
 11
2.5781705425
 21
23.7407307262
 31
0.0
 11
2.5758025316
 21
23.7466175185
 31
0.0
 11
2.575
 21
23.7511422903
 31
0.0
  0
SPLINE
  5
61C
100
AcDbEntity
  8
ASSI
100
AcDbSpline
 62
7
  6
CONTINUOUS
 70
0
 71
3
 72
20
 73
16
 74
14
 42
0.0000001
 43
0.0000001
 44
0.0000000001
 12
0.0
 22
-0.655820028
 32
0.0
 13
-0.4453734945
 23
-0.4813962605
 33
0.0
 40
0.0
 40
0.0
 40
0.0
 40
0.0
 40
0.0070071055
 40
0.0166823709
 40
0.0442828746
 40
0.082160257
 40
0.1289011048
 40
0.1830205033
 40
0.243170855
 40
0.3082029787
 40
0.3771618017
 40
0.5239073782
 40
0.6787074564
 40
0.8382518717
 40
1.0
 40
1.0
 40
1.0
 40
1.0
 10
-4.425
 20
23.7511422903
 30
0.0
 10
-4.425
 20
23.7496104903
 30
0.0
 10
-4.4258279684
 20
23.7459920018
 30
0.0
 10
-4.4296355916
 20
23.7370905407
 30
0.0
 10
-4.4383793499
 20
23.7230894019
 30
0.0
 10
-4.4527544382
 20
23.7032304945
 30
0.0
 10
-4.4715635981
 20
23.6794194517
 30
0.0
 10
-4.4940312528
 20
23.6523270162
 30
0.0
 10
-4.5195321274
 20
23.622557037
 30
0.0
 10
-4.5474891546
 20
23.5906254371
 30
0.0
 10
-4.5882741319
 20
23.5447665336
 30
0.0
 10
-4.6426148114
 20
23.4847047253
 30
0.0
 10
-4.7106968797
 20
23.4103744627
 30
0.0
 10
-4.7812586996
 20
23.3338690249
 30
0.0
 10
-4.8289572113
 20
23.2823127961
 30
0.0
 10
-4.8529699877
 20
23.2563578147
 30
0.0
 11
-4.425
 21
23.7511422903
 31
0.0
 11
-4.4258025375
 21
23.7466175101
 31
0.0
 11
-4.4281705537
 21
23.7407307047
 31
0.0
 11
-4.4373204148
 21
23.7251126091
 31
0.0
 11
-4.4517457729
 21
23.7048895603
 31
0.0
 11
-4.4706492082
 21
23.6807586185
 31
0.0
 11
-4.4932584201
 21
23.6533990286
 31
0.0
 11
-4.5188892833
 21
23.6234125616
 31
0.0
 11
-4.5469639386
 21
23.5913067613
 31
0.0
 11
-4.5770039946
 21
23.5575005869
 31
0.0
 11
-4.6415040306
 21
23.4860748882
 31
0.0
 11
-4.7100387171
 21
23.4111782362
 31
0.0
 11
-4.780951728
 21
23.3342413217
 31
0.0
 11
-4.8529699877
 21
23.2563578147
 31
0.0
  0
SPLINE
  5
61D
100
AcDbEntity
  8
ASSI
100
AcDbSpline
 62
7
  6
CONTINUOUS
 70
0
 71
3
 72
20
 73
16
 74
14
 42
0.0000001
 43
0.0000001
 44
0.0000000001
 12
-0.4451253229
 22
0.4811280162
 32
0.0
 13
-0.0252813737
 23
0.6549668489
 33
0.0
 40
0.0
 40
0.0
 40
0.0
 40
0.0
 40
0.1613622567
 40
0.3205392927
 40
0.4750142876
 40
0.6215127267
 40
0.6903940797
 40
0.7553924524
 40
0.8155659793
 40
0.8697812898
 40
0.9167081239
 40
0.9548763397
 40
0.9828739863
 40
0.9927752037
 40
1.0
 40
1.0
 40
1.0
 40
1.0
 10
-4.8529699877
 20
23.2563578147
 30
0.0
 10
-4.8769121299
 20
23.2822364489
 30
0.0
 10
-4.9244722982
 20
23.3336431472
 30
0.0
 10
-4.9948357633
 20
23.4099321261
 30
0.0
 10
-5.0627436075
 20
23.4840674079
 30
0.0
 10
-5.1169634425
 20
23.5439862428
 30
0.0
 10
-5.157681075
 20
23.5897544604
 30
0.0
 10
-5.1856178848
 20
23.6216467934
 30
0.0
 10
-5.2111282387
 20
23.6514042296
 30
0.0
 10
-5.2336437016
 20
23.6785185518
 30
0.0
 10
-5.2525447595
 20
23.7023932482
 30
0.0
 10
-5.267067727
 20
23.7223668207
 30
0.0
 10
-5.2759649358
 20
23.7364888057
 30
0.0
 10
-5.2799428125
 20
23.7455117571
 30
0.0
 10
-5.2808718485
 20
23.7491960907
 30
0.0
 10
-5.2809327327
 20
23.7507734247
 30
0.0
 11
-4.8529699877
 21
23.2563578147
 31
0.0
 11
-4.9247765229
 21
23.3340121154
 31
0.0
 11
-4.995487707
 21
23.4107282799
 31
0.0
 11
-5.0638430809
 21
23.4854235117
 31
0.0
 11
-5.1282050442
 21
23.5566833778
 31
0.0
 11
-5.158200347
 21
23.5904276781
 31
0.0
 11
-5.1862532124
 21
23.6224915738
 31
0.0
 11
-5.211892158
 21
23.6524621942
 31
0.0
 11
-5.2345477018
 21
23.6798393833
 31
0.0
 11
-5.2535452308
 21
23.7040297451
 31
0.0
 11
-5.2681216682
 21
23.7243620936
 31
0.0
 11
-5.2774857022
 21
23.7401443905
 31
0.0
 11
-5.2799846538
 21
23.7461337747
 31
0.0
 11
-5.2809327327
 21
23.7507734247
 31
0.0
  0
SPLINE
  5
61E
100
AcDbEntity
  8
RACCORDO
100
AcDbSpline
 62
7
  6
CONTINUOUS
 70
0
 71
3
 72
9
 73
5
 74
3
 42
0.0000001
 43
0.0000001
 44
0.0000000001
 12
-0.2564987558
 22
0.3627440192
 32
0.0
 13
-0.2464566134
 23
0.369640329
 33
0.0
 40
0.0
 40
0.0
 40
0.0
 40
0.0
 40
0.5061130936
 40
1.0
 40
1.0
 40
1.0
 40
1.0
 10
-8.5091007192
 20
21.3126932437
 30
0.0
 10
-8.5523731788
 20
21.3738897429
 30
0.0
 10
-8.6378748093
 20
21.4948008151
 30
0.0
 10
-8.7219111895
 20
21.6167542715
 30
0.0
 10
-8.7624850876
 20
21.6776077777
 30
0.0
 11
-8.5091007192
 21
21.3126932437
 31
0.0
 11
-8.6385448437
 21
21.4965461037
 31
0.0
 11
-8.7624850876
 21
21.6776077777
 31
0.0
  0
SPLINE
  5
61F
100
AcDbEntity
  8
RACCORDO
100
AcDbSpline
 62
7
  6
CONTINUOUS
 70
0
 71
3
 72
9
 73
5
 74
3
 42
0.0000001
 43
0.0000001
 44
0.0000000001
 12
-0.2464566134
 22
-0.369640329
 32
0.0
 13
-0.2564987558
 23
-0.3627440192
 33
0.0
 40
0.0
 40
0.0
 40
0.0
 40
0.0
 40
0.4938869064
 40
1.0
 40
1.0
 40
1.0
 40
1.0
 10
6.9124850876
 20
21.6776077777
 30
0.0
 10
6.8719111895
 20
21.6167542715
 30
0.0
 10
6.7878748093
 20
21.4948008151
 30
0.0
 10
6.7023731788
 20
21.3738897429
 30
0.0
 10
6.6591007192
 20
21.3126932437
 30
0.0
 11
6.9124850876
 21
21.6776077777
 31
0.0
 11
6.7885448437
 21
21.4965461037
 31
0.0
 11
6.6591007192
 21
21.3126932437
 31
0.0
  0
SPLINE
  5
620
100
AcDbEntity
  8
RACCORDO
100
AcDbSpline
 62
7
  6
CONTINUOUS
 70
0
 71
3
 72
9
 73
5
 74
3
 42
0.0000001
 43
0.0000001
 44
0.0000000001
 12
0.2464566134
 22
0.369640329
 32
0.0
 13
0.2564987558
 23
0.3627440192
 33
0.0
 40
0.0
 40
0.0
 40
0.0
 40
0.0
 40
0.4938869064
 40
1.0
 40
1.0
 40
1.0
 40
1.0
 10
-8.7624850876
 20
-21.6776077777
 30
0.0
 10
-8.7219111895
 20
-21.6167542715
 30
0.0
 10
-8.6378748093
 20
-21.4948008151
 30
0.0
 10
-8.5523731788
 20
-21.3738897429
 30
0.0
 10
-8.5091007192
 20
-21.3126932437
 30
0.0
 11
-8.7624850876
 21
-21.6776077777
 31
0.0
 11
-8.6385448437
 21
-21.4965461037
 31
0.0
 11
-8.5091007192
 21
-21.3126932437
 31
0.0
  0
SPLINE
  5
621
100
AcDbEntity
  8
RACCORDO
100
AcDbSpline
 62
7
  6
CONTINUOUS
 70
0
 71
3
 72
9
 73
5
 74
3
 42
0.0000001
 43
0.0000001
 44
0.0000000001
 12
0.2564987558
 22
-0.3627440192
 32
0.0
 13
0.2464566134
 23
-0.369640329
 33
0.0
 40
0.0
 40
0.0
 40
0.0
 40
0.0
 40
0.5061130936
 40
1.0
 40
1.0
 40
1.0
 40
1.0
 10
6.6591007192
 20
-21.3126932437
 30
0.0
 10
6.7023731788
 20
-21.3738897429
 30
0.0
 10
6.7878748093
 20
-21.4948008151
 30
0.0
 10
6.8719111895
 20
-21.6167542715
 30
0.0
 10
6.9124850876
 20
-21.6776077777
 30
0.0
 11
6.6591007192
 21
-21.3126932437
 31
0.0
 11
6.7885448437
 21
-21.4965461037
 31
0.0
 11
6.9124850876
 21
-21.6776077777
 31
0.0
  0
SPLINE
  5
622
100
AcDbEntity
  8
RACCORDO
100
AcDbSpline
 62
253
  6
CONTINUOUS
 70
0
 71
3
 72
13
 73
9
 74
7
 42
0.0000001
 43
0.0000001
 44
0.0000000001
 12
-0.0012265939
 22
-0.3651868479
 32
0.0
 13
-0.3651877491
 23
-0.0009199789
 33
0.0
 40
0.0
 40
0.0
 40
0.0
 40
0.0
 40
0.1162399782
 40
0.2339778175
 40
0.3543713311
 40
0.4780980184
 40
0.7345386243
 40
1.0
 40
1.0
 40
1.0
 40
1.0
 10
9.720628166
 20
23.8443375673
 30
0.0
 10
9.7205806396
 20
23.8301877969
 30
0.0
 10
9.7172223551
 20
23.8016148029
 30
0.0
 10
9.7026650278
 20
23.7606547352
 30
0.0
 10
9.6791946141
 20
23.7229828841
 30
0.0
 10
9.636892224
 20
23.6786204872
 30
0.0
 10
9.5669652956
 20
23.6387874753
 30
0.0
 10
9.5029468109
 20
23.6279126226
 30
0.0
 10
9.4706323968
 20
23.6278312164
 30
0.0
 11
9.720628166
 21
23.8443375673
 31
0.0
 11
9.7157004657
 21
23.8021749995
 31
0.0
 11
9.701389741
 21
23.7616298799
 31
0.0
 11
9.6782441408
 21
23.7242490909
 31
0.0
 11
9.6471495847
 21
23.6914666636
 31
0.0
 11
9.5661334639
 21
23.6444924903
 31
0.0
 11
9.4706323968
 21
23.6278312164
 31
0.0
  0
SPLINE
  5
623
100
AcDbEntity
  8
RACCORDO
100
AcDbSpline
 62
253
  6
CONTINUOUS
 70
0
 71
3
 72
13
 73
9
 74
7
 42
0.0000001
 43
0.0000001
 44
0.0000000001
 12
0.0012265939
 22
-0.3651868488
 32
0.0
 13
0.36518775
 23
-0.0009199789
 33
0.0
 40
0.0
 40
0.0
 40
0.0
 40
0.0
 40
0.1162401487
 40
0.2339779758
 40
0.3543714899
 40
0.478098162
 40
0.7345387303
 40
1.0
 40
1.0
 40
1.0
 40
1.0
 10
7.329371834
 20
23.8443375673
 30
0.0
 10
7.3294193605
 20
23.8301877761
 30
0.0
 10
7.3327776481
 20
23.8016147615
 30
0.0
 10
7.3473350011
 20
23.7606546823
 30
0.0
 10
7.370805421
 20
23.7229828394
 30
0.0
 10
7.4131078178
 20
23.6786204573
 30
0.0
 10
7.483034735
 20
23.6387874669
 30
0.0
 10
7.547053202
 20
23.6279126226
 30
0.0
 10
7.5793676032
 20
23.6278312164
 30
0.0
 11
7.329371834
 21
23.8443375673
 31
0.0
 11
7.3342995465
 21
23.8021749381
 31
0.0
 11
7.3486102851
 21
23.761629828
 31
0.0
 11
7.3717558954
 21
23.7242490449
 31
0.0
 11
7.4028504554
 21
23.6914666288
 31
0.0
 11
7.4838665728
 21
23.6444924765
 31
0.0
 11
7.5793676032
 21
23.6278312164
 31
0.0
  0
SPLINE
  5
624
100
AcDbEntity
  8
RACCORDO
100
AcDbSpline
 62
253
  6
CONTINUOUS
 70
0
 71
3
 72
13
 73
9
 74
7
 42
0.0000001
 43
0.0000001
 44
0.0000000001
 12
-0.0012265939
 22
-0.3651868479
 32
0.0
 13
-0.3651877491
 23
-0.0009199789
 33
0.0
 40
0.0
 40
0.0
 40
0.0
 40
0.0
 40
0.1162399782
 40
0.2339778175
 40
0.3543713311
 40
0.4780980184
 40
0.7345386243
 40
1.0
 40
1.0
 40
1.0
 40
1.0
 10
-9.179371834
 20
23.8443375673
 30
0.0
 10
-9.1794193604
 20
23.8301877969
 30
0.0
 10
-9.1827776449
 20
23.8016148029
 30
0.0
 10
-9.1973349722
 20
23.7606547352
 30
0.0
 10
-9.2208053859
 20
23.7229828841
 30
0.0
 10
-9.263107776
 20
23.6786204872
 30
0.0
 10
-9.3330347044
 20
23.6387874753
 30
0.0
 10
-9.3970531891
 20
23.6279126226
 30
0.0
 10
-9.4293676032
 20
23.6278312164
 30
0.0
 11
-9.179371834
 21
23.8443375673
 31
0.0
 11
-9.1842995343
 21
23.8021749995
 31
0.0
 11
-9.198610259
 21
23.7616298799
 31
0.0
 11
-9.2217558592
 21
23.7242490909
 31
0.0
 11
-9.2528504153
 21
23.6914666636
 31
0.0
 11
-9.3338665361
 21
23.6444924903
 31
0.0
 11
-9.4293676032
 21
23.6278312164
 31
0.0
  0
SPLINE
  5
625
100
AcDbEntity
  8
RACCORDO
100
AcDbSpline
 62
253
  6
CONTINUOUS
 70
0
 71
3
 72
13
 73
9
 74
7
 42
0.0000001
 43
0.0000001
 44
0.0000000001
 12
0.0012265939
 22
-0.3651868479
 32
0.0
 13
0.3651877491
 23
-0.0009199789
 33
0.0
 40
0.0
 40
0.0
 40
0.0
 40
0.0
 40
0.1162399782
 40
0.2339778175
 40
0.3543713311
 40
0.4780980184
 40
0.7345386243
 40
1.0
 40
1.0
 40
1.0
 40
1.0
 10
-11.570628166
 20
23.8443375673
 30
0.0
 10
-11.5705806396
 20
23.8301877969
 30
0.0
 10
-11.5672223551
 20
23.8016148029
 30
0.0
 10
-11.5526650278
 20
23.7606547352
 30
0.0
 10
-11.5291946141
 20
23.7229828841
 30
0.0
 10
-11.486892224
 20
23.6786204872
 30
0.0
 10
-11.4169652956
 20
23.6387874753
 30
0.0
 10
-11.3529468109
 20
23.6279126226
 30
0.0
 10
-11.3206323968
 20
23.6278312164
 30
0.0
 11
-11.570628166
 21
23.8443375673
 31
0.0
 11
-11.5657004657
 21
23.8021749995
 31
0.0
 11
-11.551389741
 21
23.7616298799
 31
0.0
 11
-11.5282441408
 21
23.7242490909
 31
0.0
 11
-11.4971495847
 21
23.6914666636
 31
0.0
 11
-11.4161334639
 21
23.6444924903
 31
0.0
 11
-11.3206323968
 21
23.6278312164
 31
0.0
  0
SPLINE
  5
626
100
AcDbEntity
  8
RACCORDO
100
AcDbSpline
 62
7
  6
CONTINUOUS
 70
0
 71
3
 72
15
 73
11
 74
9
 42
0.0000001
 43
0.0000001
 44
0.0000000001
 12
0.0031741022
 22
0.3149998123
 32
0.0
 13
0.3150158039
 23
-0.0
 33
0.0
 40
0.0
 40
0.0
 40
0.0
 40
0.0
 40
0.0847129374
 40
0.1757006909
 40
0.2778081862
 40
0.3942292046
 40
0.5263924491
 40
0.6737522819
 40
0.8333934372
 40
1.0
 40
1.0
 40
1.0
 40
1.0
 10
7.329371834
 20
-23.8443375673
 30
0.0
 10
7.3294614632
 20
-23.8354427142
 30
0.0
 10
7.3327030547
 20
-23.8169151481
 30
0.0
 10
7.3462510165
 20
-23.7906750928
 30
0.0
 10
7.3681173207
 20
-23.7662437729
 30
0.0
 10
7.3979647126
 20
-23.7443139213
 30
0.0
 10
7.4353248417
 20
-23.7256847024
 30
0.0
 10
7.479297613
 20
-23.7113065128
 30
0.0
 10
7.5283081754
 20
-23.7021703171
 30
0.0
 10
7.5626002652
 20
-23.7
 30
0.0
 10
7.5800948319
 20
-23.7
 30
0.0
 11
7.329371834
 21
-23.8443375673
 31
0.0
 11
7.3338255818
 21
-23.8180259322
 31
0.0
 11
7.3466467936
 21
-23.7923907994
 31
0.0
 11
7.3677961599
 21
-23.7681560707
 31
0.0
 11
7.397129078
 21
-23.7461425298
 31
0.0
 11
7.4342515743
 21
-23.7272939361
 31
0.0
 11
7.4783052251
 21
-23.7126598996
 31
0.0
 11
7.5277144738
 21
-23.7032919418
 31
0.0
 11
7.5800948319
 21
-23.7
 31
0.0
  0
SPLINE
  5
627
100
AcDbEntity
  8
RACCORDO
100
AcDbSpline
 62
7
  6
CONTINUOUS
 70
0
 71
3
 72
15
 73
11
 74
9
 42
0.0000001
 43
0.0000001
 44
0.0000000001
 12
0.3142904289
 22
0.0
 32
0.0
 13
0.0031667933
 23
-0.3142744742
 33
0.0
 40
0.0
 40
0.0
 40
0.0
 40
0.0
 40
0.1666545511
 40
0.3262779792
 40
0.4735916211
 40
0.6057108254
 40
0.7221085607
 40
0.8242207343
 40
0.9152394685
 40
1.0
 40
1.0
 40
1.0
 40
1.0
 10
9.4706323968
 20
-23.7
 30
0.0
 10
9.4880917069
 20
-23.7
 30
0.0
 10
9.5223034732
 20
-23.7022700651
 30
0.0
 10
9.5711878482
 20
-23.7114284588
 30
0.0
 10
9.615028913
 20
-23.7258344539
 30
0.0
 10
9.6522691987
 20
-23.744460098
 30
0.0
 10
9.6820169748
 20
-23.7663702269
 30
0.0
 10
9.7038084606
 20
-23.7907682484
 30
0.0
 10
9.7173087823
 20
-23.8169652651
 30
0.0
 10
9.720538693
 20
-23.8354582101
 30
0.0
 10
9.720628166
 20
-23.8443375673
 30
0.0
 11
9.4706323968
 21
-23.7
 31
0.0
 11
9.5229016168
 21
-23.7033728661
 31
0.0
 11
9.57217892
 21
-23.7127849448
 31
0.0
 11
9.6160978905
 21
-23.7274391667
 31
0.0
 11
9.6530992753
 21
-23.7462838901
 31
0.0
 11
9.6823337071
 21
-23.7682757411
 31
0.0
 11
9.7034113806
 21
-23.7924766616
 31
0.0
 11
9.7161891944
 21
-23.8180705836
 31
0.0
 11
9.720628166
 21
-23.8443375673
 31
0.0
  0
SPLINE
  5
628
100
AcDbEntity
  8
RACCORDO
100
AcDbSpline
 62
253
  6
CONTINUOUS
 70
0
 71
3
 72
13
 73
9
 74
7
 42
0.0000001
 43
0.0000001
 44
0.0000000001
 12
0.0012265939
 22
0.3651868479
 32
0.0
 13
0.3651877491
 23
0.0009199789
 33
0.0
 40
0.0
 40
0.0
 40
0.0
 40
0.0
 40
0.1162399782
 40
0.2339778175
 40
0.3543713311
 40
0.4780980184
 40
0.7345386243
 40
1.0
 40
1.0
 40
1.0
 40
1.0
 10
-11.570628166
 20
-23.8443375673
 30
0.0
 10
-11.5705806396
 20
-23.8301877969
 30
0.0
 10
-11.5672223551
 20
-23.8016148029
 30
0.0
 10
-11.5526650278
 20
-23.7606547352
 30
0.0
 10
-11.5291946141
 20
-23.7229828841
 30
0.0
 10
-11.486892224
 20
-23.6786204872
 30
0.0
 10
-11.4169652956
 20
-23.6387874753
 30
0.0
 10
-11.3529468109
 20
-23.6279126226
 30
0.0
 10
-11.3206323968
 20
-23.6278312164
 30
0.0
 11
-11.570628166
 21
-23.8443375673
 31
0.0
 11
-11.5657004657
 21
-23.8021749995
 31
0.0
 11
-11.551389741
 21
-23.7616298799
 31
0.0
 11
-11.5282441408
 21
-23.7242490909
 31
0.0
 11
-11.4971495847
 21
-23.6914666636
 31
0.0
 11
-11.4161334639
 21
-23.6444924903
 31
0.0
 11
-11.3206323968
 21
-23.6278312164
 31
0.0
  0
SPLINE
  5
629
100
AcDbEntity
  8
RACCORDO
100
AcDbSpline
 62
253
  6
CONTINUOUS
 70
0
 71
3
 72
13
 73
9
 74
7
 42
0.0000001
 43
0.0000001
 44
0.0000000001
 12
-0.0012265939
 22
0.3651868486
 32
0.0
 13
-0.3651877498
 23
0.0009199789
 33
0.0
 40
0.0
 40
0.0
 40
0.0
 40
0.0
 40
0.1162401412
 40
0.2339779602
 40
0.3543714643
 40
0.4780981267
 40
0.7345386771
 40
1.0
 40
1.0
 40
1.0
 40
1.0
 10
-9.179371834
 20
-23.8443375673
 30
0.0
 10
-9.1794193605
 20
-23.830187777
 30
0.0
 10
-9.1827776477
 20
-23.8016147644
 30
0.0
 10
-9.1973349985
 20
-23.7606546878
 30
0.0
 10
-9.2208054152
 20
-23.722982847
 30
0.0
 10
-9.2631078067
 20
-23.6786204663
 30
0.0
 10
-9.333034724
 20
-23.6387874704
 30
0.0
 10
-9.3970531955
 20
-23.6279126226
 30
0.0
 10
-9.4293676032
 20
-23.6278312164
 30
0.0
 11
-9.179371834
 21
-23.8443375673
 31
0.0
 11
-9.1842995459
 21
-23.8021749409
 31
0.0
 11
-9.1986102825
 21
-23.7616298332
 31
0.0
 11
-9.2217558894
 21
-23.7242490524
 31
0.0
 11
-9.2528504455
 21
-23.6914666374
 31
0.0
 11
-9.3338665543
 21
-23.6444924834
 31
0.0
 11
-9.4293676032
 21
-23.6278312164
 31
0.0
  0
SPLINE
  5
62A
100
AcDbEntity
  8
CORPO
100
AcDbSpline
 62
253
  6
CONTINUOUS
 70
0
 71
3
 72
15
 73
11
 74
9
 42
0.0000001
 43
0.0000001
 44
0.0000000001
 12
-0.5540107654
 22
-0.5891711019
 32
0.0
 13
-0.5540135538
 23
0.5891684798
 33
0.0
 40
0.0
 40
0.0
 40
0.0
 40
0.0
 40
0.1249232896
 40
0.2499082622
 40
0.3749409099
 40
0.5000000384
 40
0.6250591683
 40
0.7500918137
 40
0.8750767965
 40
1.0
 40
1.0
 40
1.0
 40
1.0
 10
-0.5637541575
 20
-9.9696736589
 30
0.0
 10
-0.5868237733
 20
-9.9942073896
 30
0.0
 10
-0.6380521801
 20
-10.038785616
 30
0.0
 10
-0.7266817651
 20
-10.0887536845
 30
0.0
 10
-0.8236908232
 20
-10.1197239611
 30
0.0
 10
-0.9250000508
 20
-10.1302093159
 30
0.0
 10
-1.0263092854
 20
-10.1197239789
 30
0.0
 10
-1.1233183307
 20
-10.0887536868
 30
0.0
 10
-1.2119479515
 20
-10.0387856734
 30
0.0
 10
-1.2631761964
 20
-9.994207329
 30
0.0
 10
-1.2862459124
 20
-9.9696737243
 30
0.0
 11
-0.5637541575
 21
-9.9696736589
 31
0.0
 11
-0.6399999701
 21
-10.035957715
 31
0.0
 11
-0.7280610056
 21
-10.0855796487
 31
0.0
 11
-0.8243972962
 21
-10.1163074441
 31
0.0
 11
-0.9250000517
 21
-10.1267139539
 31
0.0
 11
-1.0256028095
 21
-10.1163074563
 31
0.0
 11
-1.1219390987
 21
-10.0855796621
 31
0.0
 11
-1.2100001377
 21
-10.0359577179
 31
0.0
 11
-1.2862459124
 21
-9.9696737243
 31
0.0
  0
SPLINE
  5
62B
100
AcDbEntity
  8
CORPO
100
AcDbSpline
 62
253
  6
CONTINUOUS
 70
0
 71
3
 72
15
 73
11
 74
9
 42
0.0000001
 43
0.0000001
 44
0.0000000001
 12
-0.8892569912
 22
-0.9367378133
 32
0.0
 13
-0.8892621061
 23
0.9367329576
 33
0.0
 40
0.0
 40
0.0
 40
0.0
 40
0.0
 40
0.1250019108
 40
0.2500026954
 40
0.3750017368
 40
0.5000000344
 40
0.624998334
 40
0.7499973762
 40
0.8749981767
 40
1.0
 40
1.0
 40
1.0
 40
1.0
 10
-0.3470064588
 20
-10.1754329589
 30
0.0
 10
-0.3840593998
 20
-10.2144642978
 30
0.0
 10
-0.466277109
 20
-10.285262499
 30
0.0
 10
-0.6082268431
 20
-10.3643814902
 30
0.0
 10
-0.7632747914
 20
-10.4132927633
 30
0.0
 10
-0.9250000673
 20
-10.4298283292
 30
0.0
 10
-1.0867253624
 20
-10.4132927977
 30
0.0
 10
-1.2417732754
 20
-10.3643814843
 30
0.0
 10
-1.3837231513
 20
-10.285262674
 30
0.0
 10
-1.4659404128
 20
-10.2144640678
 30
0.0
 10
-1.502993541
 20
-10.1754329587
 30
0.0
 11
-0.3470064588
 21
-10.1754329589
 31
0.0
 11
-0.4693815146
 21
-10.2807498066
 31
0.0
 11
-0.6104108065
 21
-10.3593472734
 31
0.0
 11
-0.7643881658
 21
-10.4078969257
 31
0.0
 11
-0.9250000696
 21
-10.4243164906
 31
0.0
 11
-1.0856119782
 21
-10.4078969479
 31
0.0
 11
-1.2395893412
 21
-10.3593473037
 31
0.0
 11
-1.3806186491
 21
-10.2807498233
 31
0.0
 11
-1.502993541
 21
-10.1754329587
 31
0.0
  0
SPLINE
  5
62C
100
AcDbEntity
  8
CORPO
100
AcDbSpline
 62
253
  6
CONTINUOUS
 70
0
 71
3
 72
15
 73
11
 74
9
 42
0.0000001
 43
0.0000001
 44
0.0000000001
 12
0.5540107654
 22
0.5891711019
 32
0.0
 13
0.5540135538
 23
-0.5891684798
 33
0.0
 40
0.0
 40
0.0
 40
0.0
 40
0.0
 40
0.1249232896
 40
0.2499082622
 40
0.3749409099
 40
0.5000000384
 40
0.6250591683
 40
0.7500918137
 40
0.8750767965
 40
1.0
 40
1.0
 40
1.0
 40
1.0
 10
-1.2862458425
 20
-14.0303263411
 30
0.0
 10
-1.2631762267
 20
-14.0057926104
 30
0.0
 10
-1.2119478199
 20
-13.961214384
 30
0.0
 10
-1.1233182349
 20
-13.9112463155
 30
0.0
 10
-1.0263091768
 20
-13.8802760389
 30
0.0
 10
-0.9249999492
 20
-13.8697906841
 30
0.0
 10
-0.8236907146
 20
-13.8802760211
 30
0.0
 10
-0.7266816693
 20
-13.9112463132
 30
0.0
 10
-0.6380520485
 20
-13.9612143266
 30
0.0
 10
-0.5868238036
 20
-14.005792671
 30
0.0
 10
-0.5637540876
 20
-14.0303262757
 30
0.0
 11
-1.2862458425
 21
-14.0303263411
 31
0.0
 11
-1.2100000299
 21
-13.964042285
 31
0.0
 11
-1.1219389944
 21
-13.9144203513
 31
0.0
 11
-1.0256027038
 21
-13.8836925559
 31
0.0
 11
-0.9249999483
 21
-13.8732860461
 31
0.0
 11
-0.8243971905
 21
-13.8836925437
 31
0.0
 11
-0.7280609013
 21
-13.9144203379
 31
0.0
 11
-0.6399998623
 21
-13.9640422821
 31
0.0
 11
-0.5637540876
 21
-14.0303262757
 31
0.0
  0
SPLINE
  5
62D
100
AcDbEntity
  8
CORPO
100
AcDbSpline
 62
253
  6
CONTINUOUS
 70
0
 71
3
 72
15
 73
11
 74
9
 42
0.0000001
 43
0.0000001
 44
0.0000000001
 12
0.8892569912
 22
0.9367378133
 32
0.0
 13
0.8892621061
 23
-0.9367329576
 33
0.0
 40
0.0
 40
0.0
 40
0.0
 40
0.0
 40
0.1250019108
 40
0.2500026954
 40
0.3750017368
 40
0.5000000344
 40
0.624998334
 40
0.7499973762
 40
0.8749981767
 40
1.0
 40
1.0
 40
1.0
 40
1.0
 10
-1.5029935412
 20
-13.8245670411
 30
0.0
 10
-1.4659406002
 20
-13.7855357022
 30
0.0
 10
-1.383722891
 20
-13.714737501
 30
0.0
 10
-1.2417731569
 20
-13.6356185098
 30
0.0
 10
-1.0867252086
 20
-13.5867072367
 30
0.0
 10
-0.9249999327
 20
-13.5701716708
 30
0.0
 10
-0.7632746376
 20
-13.5867072023
 30
0.0
 10
-0.6082267246
 20
-13.6356185157
 30
0.0
 10
-0.4662768487
 20
-13.714737326
 30
0.0
 10
-0.3840595872
 20
-13.7855359322
 30
0.0
 10
-0.347006459
 20
-13.8245670413
 30
0.0
 11
-1.5029935412
 21
-13.8245670411
 31
0.0
 11
-1.3806184854
 21
-13.7192501934
 31
0.0
 11
-1.2395891935
 21
-13.6406527266
 31
0.0
 11
-1.0856118342
 21
-13.5921030743
 31
0.0
 11
-0.9249999304
 21
-13.5756835094
 31
0.0
 11
-0.7643880218
 21
-13.5921030521
 31
0.0
 11
-0.6104106588
 21
-13.6406526963
 31
0.0
 11
-0.4693813509
 21
-13.7192501767
 31
0.0
 11
-0.347006459
 21
-13.8245670413
 31
0.0
  0
SPLINE
  5
62E
100
AcDbEntity
  8
CORPO
100
AcDbSpline
 62
253
  6
CONTINUOUS
 70
0
 71
3
 72
15
 73
11
 74
9
 42
0.0000001
 43
0.0000001
 44
0.0000000001
 12
0.2203290436
 22
0.215645592
 32
0.0
 13
0.2203327472
 23
-0.215641808
 33
0.0
 40
0.0
 40
0.0
 40
0.0
 40
0.0
 40
0.1250016148
 40
0.2500019218
 40
0.3750012408
 40
0.5000000198
 40
0.6249987984
 40
0.7499981166
 40
0.8749984213
 40
1.0
 40
1.0
 40
1.0
 40
1.0
 10
-1.0643615328
 20
9.588085462
 30
0.0
 10
-1.0551810374
 20
9.597070811
 30
0.0
 10
-1.0350346247
 20
9.6133157702
 30
0.0
 10
-1.0007427905
 20
9.6313987787
 30
0.0
 10
-0.9635969441
 20
9.6425467866
 30
0.0
 10
-0.9249999972
 20
9.6463106962
 30
0.0
 10
-0.8864030437
 20
9.6425467869
 30
0.0
 10
-0.84925722
 20
9.6313987562
 30
0.0
 10
-0.8149653138
 20
9.6133158172
 30
0.0
 10
-0.7948191144
 20
9.5970706507
 30
0.0
 10
-0.7856384674
 20
9.5880854619
 30
0.0
 11
-1.0643615328
 21
9.588085462
 31
0.0
 11
-1.0343557846
 21
9.6122684524
 31
0.0
 11
-1.0002669832
 21
9.6302430034
 31
0.0
 11
-0.9633550141
 21
9.641316121
 31
0.0
 11
-0.9249999961
 21
9.6450560615
 31
0.0
 11
-0.8866449785
 21
9.6413161174
 31
0.0
 11
-0.8497330109
 21
9.6302429959
 31
0.0
 11
-0.815644216
 21
9.6122684339
 31
0.0
 11
-0.7856384674
 21
9.5880854619
 31
0.0
  0
SPLINE
  5
62F
100
AcDbEntity
  8
CORPO
100
AcDbSpline
 62
253
  6
CONTINUOUS
 70
0
 71
3
 72
15
 73
11
 74
9
 42
0.0000001
 43
0.0000001
 44
0.0000000001
 12
0.5540107654
 22
0.5891711019
 32
0.0
 13
0.5540135538
 23
-0.5891684798
 33
0.0
 40
0.0
 40
0.0
 40
0.0
 40
0.0
 40
0.1249232896
 40
0.2499082622
 40
0.3749409099
 40
0.5000000384
 40
0.6250591683
 40
0.7500918137
 40
0.8750767965
 40
1.0
 40
1.0
 40
1.0
 40
1.0
 10
-1.2862458425
 20
9.9696736589
 30
0.0
 10
-1.2631762267
 20
9.9942073896
 30
0.0
 10
-1.2119478199
 20
10.038785616
 30
0.0
 10
-1.1233182349
 20
10.0887536845
 30
0.0
 10
-1.0263091768
 20
10.1197239611
 30
0.0
 10
-0.9249999492
 20
10.1302093159
 30
0.0
 10
-0.8236907146
 20
10.1197239789
 30
0.0
 10
-0.7266816693
 20
10.0887536868
 30
0.0
 10
-0.6380520485
 20
10.0387856734
 30
0.0
 10
-0.5868238036
 20
9.994207329
 30
0.0
 10
-0.5637540876
 20
9.9696737243
 30
0.0
 11
-1.2862458425
 21
9.9696736589
 31
0.0
 11
-1.2100000299
 21
10.035957715
 31
0.0
 11
-1.1219389944
 21
10.0855796487
 31
0.0
 11
-1.0256027038
 21
10.1163074441
 31
0.0
 11
-0.9249999483
 21
10.1267139539
 31
0.0
 11
-0.8243971905
 21
10.1163074563
 31
0.0
 11
-0.7280609013
 21
10.0855796621
 31
0.0
 11
-0.6399998623
 21
10.0359577179
 31
0.0
 11
-0.5637540876
 21
9.9696737243
 31
0.0
  0
SPLINE
  5
630
100
AcDbEntity
  8
CORPO
100
AcDbSpline
 62
253
  6
CONTINUOUS
 70
0
 71
3
 72
15
 73
11
 74
9
 42
0.0000001
 43
0.0000001
 44
0.0000000001
 12
-0.2203290436
 22
-0.215645592
 32
0.0
 13
-0.2203327472
 23
0.215641808
 33
0.0
 40
0.0
 40
0.0
 40
0.0
 40
0.0
 40
0.1250016148
 40
0.2500019218
 40
0.3750012408
 40
0.5000000198
 40
0.6249987984
 40
0.7499981166
 40
0.8749984213
 40
1.0
 40
1.0
 40
1.0
 40
1.0
 10
-0.7856384672
 20
14.411914538
 30
0.0
 10
-0.7948189626
 20
14.402929189
 30
0.0
 10
-0.8149653753
 20
14.3866842298
 30
0.0
 10
-0.8492572095
 20
14.3686012213
 30
0.0
 10
-0.8864030559
 20
14.3574532134
 30
0.0
 10
-0.9250000028
 20
14.3536893038
 30
0.0
 10
-0.9635969563
 20
14.3574532131
 30
0.0
 10
-1.00074278
 20
14.3686012438
 30
0.0
 10
-1.0350346862
 20
14.3866841828
 30
0.0
 10
-1.0551808856
 20
14.4029293493
 30
0.0
 10
-1.0643615326
 20
14.4119145381
 30
0.0
 11
-0.7856384672
 21
14.411914538
 31
0.0
 11
-0.8156442154
 21
14.3877315476
 31
0.0
 11
-0.8497330168
 21
14.3697569966
 31
0.0
 11
-0.8866449859
 21
14.358683879
 31
0.0
 11
-0.9250000039
 21
14.3549439385
 31
0.0
 11
-0.9633550215
 21
14.3586838826
 31
0.0
 11
-1.0002669891
 21
14.3697570041
 31
0.0
 11
-1.034355784
 21
14.3877315661
 31
0.0
 11
-1.0643615326
 21
14.4119145381
 31
0.0
  0
SPLINE
  5
631
100
AcDbEntity
  8
CORPO
100
AcDbSpline
 62
253
  6
CONTINUOUS
 70
0
 71
3
 72
15
 73
11
 74
9
 42
0.0000001
 43
0.0000001
 44
0.0000000001
 12
0.8892569912
 22
0.9367378133
 32
0.0
 13
0.8892621061
 23
-0.9367329576
 33
0.0
 40
0.0
 40
0.0
 40
0.0
 40
0.0
 40
0.1250019108
 40
0.2500026954
 40
0.3750017368
 40
0.5000000344
 40
0.624998334
 40
0.7499973762
 40
0.8749981767
 40
1.0
 40
1.0
 40
1.0
 40
1.0
 10
-1.5029935412
 20
10.1754329589
 30
0.0
 10
-1.4659406002
 20
10.2144642978
 30
0.0
 10
-1.383722891
 20
10.285262499
 30
0.0
 10
-1.2417731569
 20
10.3643814902
 30
0.0
 10
-1.0867252086
 20
10.4132927633
 30
0.0
 10
-0.9249999327
 20
10.4298283292
 30
0.0
 10
-0.7632746376
 20
10.4132927977
 30
0.0
 10
-0.6082267246
 20
10.3643814843
 30
0.0
 10
-0.4662768487
 20
10.285262674
 30
0.0
 10
-0.3840595872
 20
10.2144640678
 30
0.0
 10
-0.347006459
 20
10.1754329587
 30
0.0
 11
-1.5029935412
 21
10.1754329589
 31
0.0
 11
-1.3806184854
 21
10.2807498066
 31
0.0
 11
-1.2395891935
 21
10.3593472734
 31
0.0
 11
-1.0856118342
 21
10.4078969257
 31
0.0
 11
-0.9249999304
 21
10.4243164906
 31
0.0
 11
-0.7643880218
 21
10.4078969479
 31
0.0
 11
-0.6104106588
 21
10.3593473037
 31
0.0
 11
-0.4693813509
 21
10.2807498233
 31
0.0
 11
-0.347006459
 21
10.1754329587
 31
0.0
  0
SPLINE
  5
632
100
AcDbEntity
  8
CORPO
100
AcDbSpline
 62
253
  6
CONTINUOUS
 70
0
 71
3
 72
15
 73
11
 74
9
 42
0.0000001
 43
0.0000001
 44
0.0000000001
 12
0.2203290436
 22
0.215645592
 32
0.0
 13
0.2203327472
 23
-0.215641808
 33
0.0
 40
0.0
 40
0.0
 40
0.0
 40
0.0
 40
0.1250016148
 40
0.2500019218
 40
0.3750012408
 40
0.5000000198
 40
0.6249987984
 40
0.7499981166
 40
0.8749984213
 40
1.0
 40
1.0
 40
1.0
 40
1.0
 10
-1.0643615328
 20
-14.411914538
 30
0.0
 10
-1.0551810374
 20
-14.402929189
 30
0.0
 10
-1.0350346247
 20
-14.3866842298
 30
0.0
 10
-1.0007427905
 20
-14.3686012213
 30
0.0
 10
-0.9635969441
 20
-14.3574532134
 30
0.0
 10
-0.9249999972
 20
-14.3536893038
 30
0.0
 10
-0.8864030437
 20
-14.3574532131
 30
0.0
 10
-0.84925722
 20
-14.3686012438
 30
0.0
 10
-0.8149653138
 20
-14.3866841828
 30
0.0
 10
-0.7948191144
 20
-14.4029293493
 30
0.0
 10
-0.7856384674
 20
-14.4119145381
 30
0.0
 11
-1.0643615328
 21
-14.411914538
 31
0.0
 11
-1.0343557846
 21
-14.3877315476
 31
0.0
 11
-1.0002669832
 21
-14.3697569966
 31
0.0
 11
-0.9633550141
 21
-14.358683879
 31
0.0
 11
-0.9249999961
 21
-14.3549439385
 31
0.0
 11
-0.8866449785
 21
-14.3586838826
 31
0.0
 11
-0.8497330109
 21
-14.3697570041
 31
0.0
 11
-0.815644216
 21
-14.3877315661
 31
0.0
 11
-0.7856384674
 21
-14.4119145381
 31
0.0
  0
SPLINE
  5
633
100
AcDbEntity
  8
CORPO
100
AcDbSpline
 62
253
  6
CONTINUOUS
 70
0
 71
3
 72
15
 73
11
 74
9
 42
0.0000001
 43
0.0000001
 44
0.0000000001
 12
-0.5540107654
 22
-0.5891711019
 32
0.0
 13
-0.5540135538
 23
0.5891684798
 33
0.0
 40
0.0
 40
0.0
 40
0.0
 40
0.0
 40
0.1249232896
 40
0.2499082622
 40
0.3749409099
 40
0.5000000384
 40
0.6250591683
 40
0.7500918137
 40
0.8750767965
 40
1.0
 40
1.0
 40
1.0
 40
1.0
 10
-0.5637541575
 20
14.0303263411
 30
0.0
 10
-0.5868237733
 20
14.0057926104
 30
0.0
 10
-0.6380521801
 20
13.961214384
 30
0.0
 10
-0.7266817651
 20
13.9112463155
 30
0.0
 10
-0.8236908232
 20
13.8802760389
 30
0.0
 10
-0.9250000508
 20
13.8697906841
 30
0.0
 10
-1.0263092854
 20
13.8802760211
 30
0.0
 10
-1.1233183307
 20
13.9112463132
 30
0.0
 10
-1.2119479515
 20
13.9612143266
 30
0.0
 10
-1.2631761964
 20
14.005792671
 30
0.0
 10
-1.2862459124
 20
14.0303262757
 30
0.0
 11
-0.5637541575
 21
14.0303263411
 31
0.0
 11
-0.6399999701
 21
13.964042285
 31
0.0
 11
-0.7280610056
 21
13.9144203513
 31
0.0
 11
-0.8243972962
 21
13.8836925559
 31
0.0
 11
-0.9250000517
 21
13.8732860461
 31
0.0
 11
-1.0256028095
 21
13.8836925437
 31
0.0
 11
-1.1219390987
 21
13.9144203379
 31
0.0
 11
-1.2100001377
 21
13.9640422821
 31
0.0
 11
-1.2862459124
 21
14.0303262757
 31
0.0
  0
SPLINE
  5
634
100
AcDbEntity
  8
CORPO
100
AcDbSpline
 62
253
  6
CONTINUOUS
 70
0
 71
3
 72
15
 73
11
 74
9
 42
0.0000001
 43
0.0000001
 44
0.0000000001
 12
-0.8892569912
 22
-0.9367378133
 32
0.0
 13
-0.8892621061
 23
0.9367329576
 33
0.0
 40
0.0
 40
0.0
 40
0.0
 40
0.0
 40
0.1250019108
 40
0.2500026954
 40
0.3750017368
 40
0.5000000344
 40
0.624998334
 40
0.7499973762
 40
0.8749981767
 40
1.0
 40
1.0
 40
1.0
 40
1.0
 10
-0.3470064588
 20
13.8245670411
 30
0.0
 10
-0.3840593998
 20
13.7855357022
 30
0.0
 10
-0.466277109
 20
13.714737501
 30
0.0
 10
-0.6082268431
 20
13.6356185098
 30
0.0
 10
-0.7632747914
 20
13.5867072367
 30
0.0
 10
-0.9250000673
 20
13.5701716708
 30
0.0
 10
-1.0867253624
 20
13.5867072023
 30
0.0
 10
-1.2417732754
 20
13.6356185157
 30
0.0
 10
-1.3837231513
 20
13.714737326
 30
0.0
 10
-1.4659404128
 20
13.7855359322
 30
0.0
 10
-1.502993541
 20
13.8245670413
 30
0.0
 11
-0.3470064588
 21
13.8245670411
 31
0.0
 11
-0.4693815146
 21
13.7192501934
 31
0.0
 11
-0.6104108065
 21
13.6406527266
 31
0.0
 11
-0.7643881658
 21
13.5921030743
 31
0.0
 11
-0.9250000696
 21
13.5756835094
 31
0.0
 11
-1.0856119782
 21
13.5921030521
 31
0.0
 11
-1.2395893412
 21
13.6406526963
 31
0.0
 11
-1.3806186491
 21
13.7192501767
 31
0.0
 11
-1.502993541
 21
13.8245670413
 31
0.0
  0
SPLINE
  5
635
100
AcDbEntity
  8
CORPO
100
AcDbSpline
 62
253
  6
CONTINUOUS
 70
0
 71
3
 72
15
 73
11
 74
9
 42
0.0000001
 43
0.0000001
 44
0.0000000001
 12
-0.2203290436
 22
-0.215645592
 32
0.0
 13
-0.2203327472
 23
0.215641808
 33
0.0
 40
0.0
 40
0.0
 40
0.0
 40
0.0
 40
0.1250016148
 40
0.2500019218
 40
0.3750012408
 40
0.5000000198
 40
0.6249987984
 40
0.7499981166
 40
0.8749984213
 40
1.0
 40
1.0
 40
1.0
 40
1.0
 10
-0.7856384672
 20
-9.588085462
 30
0.0
 10
-0.7948189626
 20
-9.597070811
 30
0.0
 10
-0.8149653753
 20
-9.6133157702
 30
0.0
 10
-0.8492572095
 20
-9.6313987787
 30
0.0
 10
-0.8864030559
 20
-9.6425467866
 30
0.0
 10
-0.9250000028
 20
-9.6463106962
 30
0.0
 10
-0.9635969563
 20
-9.6425467869
 30
0.0
 10
-1.00074278
 20
-9.6313987562
 30
0.0
 10
-1.0350346862
 20
-9.6133158172
 30
0.0
 10
-1.0551808856
 20
-9.5970706507
 30
0.0
 10
-1.0643615326
 20
-9.5880854619
 30
0.0
 11
-0.7856384672
 21
-9.588085462
 31
0.0
 11
-0.8156442154
 21
-9.6122684524
 31
0.0
 11
-0.8497330168
 21
-9.6302430034
 31
0.0
 11
-0.8866449859
 21
-9.641316121
 31
0.0
 11
-0.9250000039
 21
-9.6450560615
 31
0.0
 11
-0.9633550215
 21
-9.6413161174
 31
0.0
 11
-1.0002669891
 21
-9.6302429959
 31
0.0
 11
-1.034355784
 21
-9.6122684339
 31
0.0
 11
-1.0643615326
 21
-9.5880854619
 31
0.0
  0
LINE
  5
636
100
AcDbEntity
  8
ASSI
100
AcDbLine
 62
7
  6
CONTINUOUS
 10
2.4744376828
 20
-20.0483171882
 11
2.4743899903
 21
-20.0214951431
  0
LINE
  5
637
100
AcDbEntity
  8
ASSI
100
AcDbLine
 62
7
  6
CONTINUOUS
 10
2.4743899903
 20
-20.0214951431
 11
2.4743184184
 21
-19.9820331387
  0
LINE
  5
638
100
AcDbEntity
  8
ASSI
100
AcDbLine
 62
7
  6
CONTINUOUS
 10
2.4743184184
 20
-19.9820331387
 11
2.4741647548
 21
-19.8999984249
  0
LINE
  5
639
100
AcDbEntity
  8
ASSI
100
AcDbLine
 62
7
  6
CONTINUOUS
 10
2.4744376828
 20
20.0483171882
 11
2.4743899903
 21
20.0214951412
  0
LINE
  5
63A
100
AcDbEntity
  8
ASSI
100
AcDbLine
 62
7
  6
CONTINUOUS
 10
2.4743899903
 20
20.0214951412
 11
2.4742442103
 21
19.9419982126
  0
LINE
  5
63B
100
AcDbEntity
  8
ASSI
100
AcDbLine
 62
7
  6
CONTINUOUS
 10
2.4742442103
 20
19.9419982126
 11
2.4741647548
 21
19.8999984249
  0
LINE
  5
63C
100
AcDbEntity
  8
ASSI
100
AcDbLine
 62
7
  6
CONTINUOUS
 10
-4.3244376828
 20
-20.0483171882
 11
-4.3243899903
 21
-20.0214951431
  0
LINE
  5
63D
100
AcDbEntity
  8
ASSI
100
AcDbLine
 62
7
  6
CONTINUOUS
 10
-4.3243899903
 20
-20.0214951431
 11
-4.3242442103
 21
-19.9419982134
  0
LINE
  5
63E
100
AcDbEntity
  8
ASSI
100
AcDbLine
 62
7
  6
CONTINUOUS
 10
-4.3242442103
 20
-19.9419982134
 11
-4.3241647548
 21
-19.8999984249
  0
LINE
  5
63F
100
AcDbEntity
  8
ASSI
100
AcDbLine
 62
7
  6
CONTINUOUS
 10
-4.3244376828
 20
20.0483171882
 11
-4.3243899903
 21
20.0214951412
  0
LINE
  5
640
100
AcDbEntity
  8
ASSI
100
AcDbLine
 62
7
  6
CONTINUOUS
 10
-4.3243899903
 20
20.0214951412
 11
-4.3243184184
 21
19.9820331373
  0
LINE
  5
641
100
AcDbEntity
  8
ASSI
100
AcDbLine
 62
7
  6
CONTINUOUS
 10
-4.3243184184
 20
19.9820331373
 11
-4.3241647548
 21
19.8999984249
  0
SPLINE
  5
642
100
AcDbEntity
  8
ASSI
100
AcDbSpline
 62
253
  6
CONTINUOUS
 70
0
 71
3
 72
11
 73
7
 74
5
 42
0.0000001
 43
0.0000001
 44
0.0000000001
 12
-0.5511288184
 22
-0.5861062519
 32
0.0
 13
-0.5511315923
 23
0.5861036435
 33
0.0
 40
0.0
 40
0.0
 40
0.0
 40
0.0
 40
0.2499288264
 40
0.5000000373
 40
0.7500712458
 40
1.0
 40
1.0
 40
1.0
 40
1.0
 10
-0.5637541575
 20
14.0303263411
 30
0.0
 10
-0.6096684838
 20
13.9814980586
 30
0.0
 10
-0.7225983526
 20
13.9014178242
 30
0.0
 10
-0.9250000226
 20
13.8592161775
 30
0.0
 10
-1.127401844
 20
13.9014177164
 30
0.0
 10
-1.2403313683
 20
13.9814982245
 30
0.0
 10
-1.2862459124
 20
14.0303262757
 30
0.0
 11
-0.5637541575
 21
14.0303263411
 31
0.0
 11
-0.7280610056
 21
13.9144203513
 31
0.0
 11
-0.9250000517
 21
13.8732860461
 31
0.0
 11
-1.1219390987
 21
13.9144203379
 31
0.0
 11
-1.2862459124
 21
14.0303262757
 31
0.0
  0
SPLINE
  5
643
100
AcDbEntity
  8
ASSI
100
AcDbSpline
 62
253
  6
CONTINUOUS
 70
0
 71
3
 72
11
 73
7
 74
5
 42
0.0000001
 43
0.0000001
 44
0.0000000001
 12
-0.884686059
 22
-0.9319228216
 32
0.0
 13
-0.8846911476
 23
0.9319179908
 33
0.0
 40
0.0
 40
0.0
 40
0.0
 40
0.0
 40
0.2500114796
 40
0.5000000395
 40
0.7499886012
 40
1.0
 40
1.0
 40
1.0
 40
1.0
 10
-0.3470064588
 20
13.8245670411
 30
0.0
 10
-0.4207336823
 20
13.7469032399
 30
0.0
 10
-0.6018013829
 20
13.6200199058
 30
0.0
 10
-0.9250000067
 20
13.5535163907
 30
0.0
 10
-1.2481989773
 20
13.6200196453
 30
0.0
 10
-1.4292659172
 20
13.7469036679
 30
0.0
 10
-1.502993541
 20
13.8245670413
 30
0.0
 11
-0.3470064588
 21
13.8245670411
 31
0.0
 11
-0.6104108065
 21
13.6406527266
 31
0.0
 11
-0.9250000696
 21
13.5756835094
 31
0.0
 11
-1.2395893412
 21
13.6406526963
 31
0.0
 11
-1.502993541
 21
13.8245670413
 31
0.0
  0
SPLINE
  5
644
100
AcDbEntity
  8
ASSI
100
AcDbSpline
 62
7
  6
CONTINUOUS
 70
0
 71
3
 72
15
 73
11
 74
9
 42
0.0000001
 43
0.0000001
 44
0.0000000001
 12
0.9857936253
 22
0.1418662597
 32
0.0
 13
0.9959493498
 23
0.0
 33
0.0
 40
0.0
 40
0.0
 40
0.0
 40
0.0
 40
0.0180776597
 40
0.0407612488
 40
0.1100448132
 40
0.2082216059
 40
0.332390725
 40
0.478674481
 40
0.6423760769
 40
1.0
 40
1.0
 40
1.0
 40
1.0
 10
-4.3222118969
 20
-19.9
 30
0.0
 10
-4.3162716163
 20
-19.89914513
 30
0.0
 10
-4.3027363503
 20
-19.8984183486
 30
0.0
 10
-4.2663213135
 20
-19.8956483229
 30
0.0
 10
-4.2031990167
 20
-19.8936164093
 30
0.0
 10
-4.1064351182
 20
-19.8908900746
 30
0.0
 10
-3.9840678455
 20
-19.8887391546
 30
0.0
 10
-3.8399497424
 20
-19.8868759606
 30
0.0
 10
-3.6183211245
 20
-19.8850121942
 30
0.0
 10
-3.4452493394
 20
-19.8844866796
 30
0.0
 10
-3.3265242349
 20
-19.8844866796
 30
0.0
 11
-4.3222118969
 21
-19.9
 31
0.0
 11
-4.304275034
 21
-19.8984416123
 31
0.0
 11
-4.2817358256
 21
-19.8969023733
 31
0.0
 11
-4.2127955168
 21
-19.8939635086
 31
0.0
 11
-4.1150530871
 21
-19.8912853866
 31
0.0
 11
-3.9914088706
 21
-19.8889561753
 31
0.0
 11
-3.8457300738
 21
-19.8870542474
 31
0.0
 11
-3.6826976642
 21
-19.8856452552
 31
0.0
 11
-3.3265242349
 21
-19.8844866796
 31
0.0
  0
SPLINE
  5
645
100
AcDbEntity
  8
ASSI
100
AcDbSpline
 62
7
  6
CONTINUOUS
 70
0
 71
3
 72
15
 73
11
 74
9
 42
0.0000001
 43
0.0000001
 44
0.0000000001
 12
-0.9959493498
 22
0.0
 32
0.0
 13
-0.9857936253
 23
0.1418662597
 33
0.0
 40
0.0
 40
0.0
 40
0.0
 40
0.0
 40
0.3576239231
 40
0.521325519
 40
0.667609275
 40
0.7917783941
 40
0.8899551868
 40
0.9592387512
 40
0.9819223403
 40
1.0
 40
1.0
 40
1.0
 40
1.0
 10
-3.3265242349
 20
19.8844866796
 30
0.0
 10
-3.4452493394
 20
19.8844866796
 30
0.0
 10
-3.6183211245
 20
19.8850121942
 30
0.0
 10
-3.8399497424
 20
19.8868759606
 30
0.0
 10
-3.9840678455
 20
19.8887391546
 30
0.0
 10
-4.1064351182
 20
19.8908900746
 30
0.0
 10
-4.2031990167
 20
19.8936164093
 30
0.0
 10
-4.2663213135
 20
19.8956483229
 30
0.0
 10
-4.3027363503
 20
19.8984183486
 30
0.0
 10
-4.3162716163
 20
19.89914513
 30
0.0
 10
-4.3222118969
 20
19.9
 30
0.0
 11
-3.3265242349
 21
19.8844866796
 31
0.0
 11
-3.6826976642
 21
19.8856452552
 31
0.0
 11
-3.8457300738
 21
19.8870542474
 31
0.0
 11
-3.9914088706
 21
19.8889561753
 31
0.0
 11
-4.1150530871
 21
19.8912853866
 31
0.0
 11
-4.2127955168
 21
19.8939635086
 31
0.0
 11
-4.2817358256
 21
19.8969023733
 31
0.0
 11
-4.304275034
 21
19.8984416123
 31
0.0
 11
-4.3222118969
 21
19.9
 31
0.0
  0
SPLINE
  5
646
100
AcDbEntity
  8
ASSI
100
AcDbSpline
 62
253
  6
CONTINUOUS
 70
0
 71
3
 72
11
 73
7
 74
5
 42
0.0000001
 43
0.0000001
 44
0.0000000001
 12
-0.5511288184
 22
-0.5861062519
 32
0.0
 13
-0.5511315923
 23
0.5861036435
 33
0.0
 40
0.0
 40
0.0
 40
0.0
 40
0.0
 40
0.2499288264
 40
0.5000000373
 40
0.7500712458
 40
1.0
 40
1.0
 40
1.0
 40
1.0
 10
-0.5637541575
 20
-9.9696736589
 30
0.0
 10
-0.6096684838
 20
-10.0185019414
 30
0.0
 10
-0.7225983526
 20
-10.0985821758
 30
0.0
 10
-0.9250000226
 20
-10.1407838225
 30
0.0
 10
-1.127401844
 20
-10.0985822836
 30
0.0
 10
-1.2403313683
 20
-10.0185017755
 30
0.0
 10
-1.2862459124
 20
-9.9696737243
 30
0.0
 11
-0.5637541575
 21
-9.9696736589
 31
0.0
 11
-0.7280610056
 21
-10.0855796487
 31
0.0
 11
-0.9250000517
 21
-10.1267139539
 31
0.0
 11
-1.1219390987
 21
-10.0855796621
 31
0.0
 11
-1.2862459124
 21
-9.9696737243
 31
0.0
  0
SPLINE
  5
647
100
AcDbEntity
  8
ASSI
100
AcDbSpline
 62
253
  6
CONTINUOUS
 70
0
 71
3
 72
11
 73
7
 74
5
 42
0.0000001
 43
0.0000001
 44
0.0000000001
 12
-0.884686059
 22
-0.9319228216
 32
0.0
 13
-0.8846911476
 23
0.9319179908
 33
0.0
 40
0.0
 40
0.0
 40
0.0
 40
0.0
 40
0.2500114796
 40
0.5000000395
 40
0.7499886012
 40
1.0
 40
1.0
 40
1.0
 40
1.0
 10
-0.3470064588
 20
-10.1754329589
 30
0.0
 10
-0.4207336823
 20
-10.2530967601
 30
0.0
 10
-0.6018013829
 20
-10.3799800942
 30
0.0
 10
-0.9250000067
 20
-10.4464836093
 30
0.0
 10
-1.2481989773
 20
-10.3799803547
 30
0.0
 10
-1.4292659172
 20
-10.2530963321
 30
0.0
 10
-1.502993541
 20
-10.1754329587
 30
0.0
 11
-0.3470064588
 21
-10.1754329589
 31
0.0
 11
-0.6104108065
 21
-10.3593472734
 31
0.0
 11
-0.9250000696
 21
-10.4243164906
 31
0.0
 11
-1.2395893412
 21
-10.3593473037
 31
0.0
 11
-1.502993541
 21
-10.1754329587
 31
0.0
  0
SPLINE
  5
648
100
AcDbEntity
  8
ASSI
100
AcDbSpline
 62
253
  6
CONTINUOUS
 70
0
 71
3
 72
11
 73
7
 74
5
 42
0.0000001
 43
0.0000001
 44
0.0000000001
 12
0.5511288184
 22
0.5861062519
 32
0.0
 13
0.5511315923
 23
-0.5861036435
 33
0.0
 40
0.0
 40
0.0
 40
0.0
 40
0.0
 40
0.2499288264
 40
0.5000000373
 40
0.7500712458
 40
1.0
 40
1.0
 40
1.0
 40
1.0
 10
-1.2862458425
 20
-14.0303263411
 30
0.0
 10
-1.2403315162
 20
-13.9814980586
 30
0.0
 10
-1.1274016474
 20
-13.9014178242
 30
0.0
 10
-0.9249999774
 20
-13.8592161775
 30
0.0
 10
-0.722598156
 20
-13.9014177164
 30
0.0
 10
-0.6096686317
 20
-13.9814982245
 30
0.0
 10
-0.5637540876
 20
-14.0303262757
 30
0.0
 11
-1.2862458425
 21
-14.0303263411
 31
0.0
 11
-1.1219389944
 21
-13.9144203513
 31
0.0
 11
-0.9249999483
 21
-13.8732860461
 31
0.0
 11
-0.7280609013
 21
-13.9144203379
 31
0.0
 11
-0.5637540876
 21
-14.0303262757
 31
0.0
  0
SPLINE
  5
649
100
AcDbEntity
  8
ASSI
100
AcDbSpline
 62
253
  6
CONTINUOUS
 70
0
 71
3
 72
11
 73
7
 74
5
 42
0.0000001
 43
0.0000001
 44
0.0000000001
 12
0.884686059
 22
0.9319228216
 32
0.0
 13
0.8846911476
 23
-0.9319179908
 33
0.0
 40
0.0
 40
0.0
 40
0.0
 40
0.0
 40
0.2500114796
 40
0.5000000395
 40
0.7499886012
 40
1.0
 40
1.0
 40
1.0
 40
1.0
 10
-1.5029935412
 20
-13.8245670411
 30
0.0
 10
-1.4292663177
 20
-13.7469032399
 30
0.0
 10
-1.2481986171
 20
-13.6200199058
 30
0.0
 10
-0.9249999933
 20
-13.5535163907
 30
0.0
 10
-0.6018010227
 20
-13.6200196453
 30
0.0
 10
-0.4207340828
 20
-13.7469036679
 30
0.0
 10
-0.347006459
 20
-13.8245670413
 30
0.0
 11
-1.5029935412
 21
-13.8245670411
 31
0.0
 11
-1.2395891935
 21
-13.6406527266
 31
0.0
 11
-0.9249999304
 21
-13.5756835094
 31
0.0
 11
-0.6104106588
 21
-13.6406526963
 31
0.0
 11
-0.347006459
 21
-13.8245670413
 31
0.0
  0
SPLINE
  5
64A
100
AcDbEntity
  8
ASSI
100
AcDbSpline
 62
253
  6
CONTINUOUS
 70
0
 71
3
 72
11
 73
7
 74
5
 42
0.0000001
 43
0.0000001
 44
0.0000000001
 12
0.5511288184
 22
0.5861062519
 32
0.0
 13
0.5511315923
 23
-0.5861036435
 33
0.0
 40
0.0
 40
0.0
 40
0.0
 40
0.0
 40
0.2499288264
 40
0.5000000373
 40
0.7500712458
 40
1.0
 40
1.0
 40
1.0
 40
1.0
 10
-1.2862458425
 20
9.9696736589
 30
0.0
 10
-1.2403315162
 20
10.0185019414
 30
0.0
 10
-1.1274016474
 20
10.0985821758
 30
0.0
 10
-0.9249999774
 20
10.1407838225
 30
0.0
 10
-0.722598156
 20
10.0985822836
 30
0.0
 10
-0.6096686317
 20
10.0185017755
 30
0.0
 10
-0.5637540876
 20
9.9696737243
 30
0.0
 11
-1.2862458425
 21
9.9696736589
 31
0.0
 11
-1.1219389944
 21
10.0855796487
 31
0.0
 11
-0.9249999483
 21
10.1267139539
 31
0.0
 11
-0.7280609013
 21
10.0855796621
 31
0.0
 11
-0.5637540876
 21
9.9696737243
 31
0.0
  0
SPLINE
  5
64B
100
AcDbEntity
  8
ASSI
100
AcDbSpline
 62
253
  6
CONTINUOUS
 70
0
 71
3
 72
11
 73
7
 74
5
 42
0.0000001
 43
0.0000001
 44
0.0000000001
 12
0.884686059
 22
0.9319228216
 32
0.0
 13
0.8846911476
 23
-0.9319179908
 33
0.0
 40
0.0
 40
0.0
 40
0.0
 40
0.0
 40
0.2500114796
 40
0.5000000395
 40
0.7499886012
 40
1.0
 40
1.0
 40
1.0
 40
1.0
 10
-1.5029935412
 20
10.1754329589
 30
0.0
 10
-1.4292663177
 20
10.2530967601
 30
0.0
 10
-1.2481986171
 20
10.3799800942
 30
0.0
 10
-0.9249999933
 20
10.4464836093
 30
0.0
 10
-0.6018010227
 20
10.3799803547
 30
0.0
 10
-0.4207340828
 20
10.2530963321
 30
0.0
 10
-0.347006459
 20
10.1754329587
 30
0.0
 11
-1.5029935412
 21
10.1754329589
 31
0.0
 11
-1.2395891935
 21
10.3593472734
 31
0.0
 11
-0.9249999304
 21
10.4243164906
 31
0.0
 11
-0.6104106588
 21
10.3593473037
 31
0.0
 11
-0.347006459
 21
10.1754329587
 31
0.0
  0
SPLINE
  5
64C
100
AcDbEntity
  8
CURVE
100
AcDbSpline
 62
253
  6
CONTINUOUS
 70
0
 71
3
 72
15
 73
11
 74
9
 42
0.0000001
 43
0.0000001
 44
0.0000000001
 12
0.0297942716
 22
0.0
 32
0.0
 13
0.0011033351
 23
1.7060017172
 33
0.0
 40
0.0
 40
0.0
 40
0.0
 40
0.0
 40
0.1248401019
 40
0.2498663855
 40
0.374885782
 40
0.5000299202
 40
0.6250550432
 40
0.7501198193
 40
0.875035251
 40
1.0
 40
1.0
 40
1.0
 40
1.0
 10
10.1640428909
 20
-4.7815268003
 30
0.0
 10
10.1652827308
 20
-4.7815268003
 30
0.0
 10
10.1677718024
 20
-4.7716793234
 30
0.0
 10
10.1713870562
 20
-4.7119708447
 30
0.0
 10
10.1745690392
 20
-4.5935070156
 30
0.0
 10
10.1768852547
 20
-4.4217447249
 30
0.0
 10
10.1783189406
 20
-4.22298974
 30
0.0
 10
10.1791543065
 20
-4.0142899176
 30
0.0
 10
10.1795020857
 20
-3.801448305
 30
0.0
 10
10.1795554688
 20
-3.6592834163
 30
0.0
 10
10.1796014281
 20
-3.5882200575
 30
0.0
 11
10.1640428909
 21
-4.7815268003
 31
0.0
 11
10.1677501132
 21
-4.7642105591
 31
0.0
 11
10.1713144417
 21
-4.7021878845
 31
0.0
 11
10.1744238105
 21
-4.584670781
 31
0.0
 11
10.1767387067
 21
-4.4171904032
 31
0.0
 11
10.1782192119
 21
-4.2213330331
 31
0.0
 11
10.1790732945
 21
-4.0135100265
 31
0.0
 11
10.1794574594
 21
-3.8013969153
 31
0.0
 11
10.1796014281
 21
-3.5882200575
 31
0.0
  0
SPLINE
  5
64D
100
AcDbEntity
  8
CURVE
100
AcDbSpline
 62
253
  6
CONTINUOUS
 70
0
 71
3
 72
15
 73
11
 74
9
 42
0.0000001
 43
0.0000001
 44
0.0000000001
 12
0.0011033351
 22
-1.7060017172
 32
0.0
 13
0.0297942716
 23
-0.0
 33
0.0
 40
0.0
 40
0.0
 40
0.0
 40
0.0
 40
0.124964749
 40
0.2498801807
 40
0.3749449568
 40
0.4999700798
 40
0.625114218
 40
0.7501336145
 40
0.8751598981
 40
1.0
 40
1.0
 40
1.0
 40
1.0
 10
10.1484843536
 20
-3.5882200575
 30
0.0
 10
10.148530313
 20
-3.6592834163
 30
0.0
 10
10.148583696
 20
-3.801448305
 30
0.0
 10
10.1489314752
 20
-4.0142899176
 30
0.0
 10
10.1497668411
 20
-4.22298974
 30
0.0
 10
10.151200527
 20
-4.4217447249
 30
0.0
 10
10.1535167425
 20
-4.5935070156
 30
0.0
 10
10.1566987255
 20
-4.7119708447
 30
0.0
 10
10.1603139793
 20
-4.7716793234
 30
0.0
 10
10.1628030509
 20
-4.7815268003
 30
0.0
 10
10.1640428909
 20
-4.7815268003
 30
0.0
 11
10.1484843536
 21
-3.5882200575
 31
0.0
 11
10.1486283223
 21
-3.8013969153
 31
0.0
 11
10.1490124872
 21
-4.0135100265
 31
0.0
 11
10.1498665698
 21
-4.2213330331
 31
0.0
 11
10.151347075
 21
-4.4171904032
 31
0.0
 11
10.1536619713
 21
-4.584670781
 31
0.0
 11
10.1567713401
 21
-4.7021878845
 31
0.0
 11
10.1603356685
 21
-4.7642105591
 31
0.0
 11
10.1640428909
 21
-4.7815268003
 31
0.0
  0
SPLINE
  5
64E
100
AcDbEntity
  8
CURVE
100
AcDbSpline
 62
253
  6
CONTINUOUS
 70
0
 71
3
 72
13
 73
9
 74
7
 42
0.0000001
 43
0.0000001
 44
0.0000000001
 12
-0.0119226138
 22
0.0
 32
0.0
 13
-0.0014887831
 23
0.6778031497
 33
0.0
 40
0.0
 40
0.0
 40
0.0
 40
0.0
 40
0.2490801906
 40
0.3745290044
 40
0.5000465587
 40
0.6245839973
 40
0.7501008193
 40
1.0
 40
1.0
 40
1.0
 40
1.0
 10
10.1640428909
 20
-4.1187598859
 30
0.0
 10
10.1630529952
 20
-4.1187598859
 30
0.0
 10
10.1615331605
 20
-4.110949299
 30
0.0
 10
10.1597088207
 20
-4.0639042122
 30
0.0
 10
10.1584905574
 20
-4.0123287258
 30
0.0
 10
10.1576655658
 20
-3.9389346122
 30
0.0
 10
10.1571002943
 20
-3.8288650197
 30
0.0
 10
10.1570179772
 20
-3.7430729482
 30
0.0
 10
10.156893962
 20
-3.6866121309
 30
0.0
 11
10.1640428909
 21
-4.1187598859
 31
0.0
 11
10.1610993244
 21
-4.0962409458
 31
0.0
 11
10.159734405
 21
-4.0611974199
 31
0.0
 11
10.1585533886
 21
-4.0085354483
 31
0.0
 11
10.1577338344
 21
-3.9375915065
 31
0.0
 11
10.1572791734
 21
-3.8558979327
 31
0.0
 11
10.156893962
 21
-3.6866121309
 31
0.0
  0
SPLINE
  5
64F
100
AcDbEntity
  8
CURVE
100
AcDbSpline
 62
253
  6
CONTINUOUS
 70
0
 71
3
 72
13
 73
9
 74
7
 42
0.0000001
 43
0.0000001
 44
0.0000000001
 12
-0.0014887831
 22
-0.6778031497
 32
0.0
 13
-0.0119226138
 23
0.0
 33
0.0
 40
0.0
 40
0.0
 40
0.0
 40
0.0
 40
0.2498991807
 40
0.3754160027
 40
0.4999534413
 40
0.6254709956
 40
0.7509198094
 40
1.0
 40
1.0
 40
1.0
 40
1.0
 10
10.1711918197
 20
-3.6866121309
 30
0.0
 10
10.1710678045
 20
-3.7430729482
 30
0.0
 10
10.1709854874
 20
-3.8288650197
 30
0.0
 10
10.1704202159
 20
-3.9389346122
 30
0.0
 10
10.1695952243
 20
-4.0123287258
 30
0.0
 10
10.168376961
 20
-4.0639042122
 30
0.0
 10
10.1665526212
 20
-4.110949299
 30
0.0
 10
10.1650327865
 20
-4.1187598859
 30
0.0
 10
10.1640428909
 20
-4.1187598859
 30
0.0
 11
10.1711918197
 21
-3.6866121309
 31
0.0
 11
10.1708066084
 21
-3.8558979327
 31
0.0
 11
10.1703519474
 21
-3.9375915065
 31
0.0
 11
10.1695323931
 21
-4.0085354483
 31
0.0
 11
10.1683513768
 21
-4.0611974199
 31
0.0
 11
10.1669864574
 21
-4.0962409458
 31
0.0
 11
10.1640428909
 21
-4.1187598859
 31
0.0
  0
SPLINE
  5
650
100
AcDbEntity
  8
ASSI
100
AcDbSpline
 62
7
  6
CONTINUOUS
 70
0
 71
3
 72
10
 73
6
 74
4
 42
0.0000001
 43
0.0000001
 44
0.0000000001
 12
0.0062888336
 22
0.0470030716
 32
0.0
 13
0.0447862335
 23
0.0155894663
 33
0.0
 40
0.0
 40
0.0
 40
0.0
 40
0.0
 40
0.1897115196
 40
0.5431533817
 40
1.0
 40
1.0
 40
1.0
 40
1.0
 10
1.6250710692
 20
13.4831494562
 30
0.0
 10
1.6254687573
 20
13.4861217976
 30
0.0
 10
1.6286468536
 20
13.494438204
 30
0.0
 10
1.6413738253
 20
13.5048210161
 30
0.0
 10
1.6531787836
 20
13.5098340485
 30
0.0
 10
1.65999893
 20
13.5122080468
 30
0.0
 11
1.6250710692
 21
13.4831494562
 31
0.0
 11
1.6281444385
 21
13.4916046985
 31
0.0
 11
1.6403417534
 21
13.5031004786
 31
0.0
 11
1.65999893
 21
13.5122080468
 31
0.0
  0
SPLINE
  5
651
100
AcDbEntity
  8
ASSI
100
AcDbSpline
 62
7
  6
CONTINUOUS
 70
0
 71
3
 72
10
 73
6
 74
4
 42
0.0000001
 43
0.0000001
 44
0.0000000001
 12
0.2456312694
 22
0.0688096463
 32
0.0
 13
0.2508305364
 23
-0.0464061412
 33
0.0
 40
0.0
 40
0.0
 40
0.0
 40
0.0
 40
0.2049734981
 40
0.4363815531
 40
1.0
 40
1.0
 40
1.0
 40
1.0
 10
1.6689508565
 20
13.5150066214
 30
0.0
 10
1.68573349
 20
13.519708006
 30
0.0
 10
1.7228599117
 20
13.5245141686
 30
0.0
 10
1.8079583817
 20
13.5234576353
 30
0.0
 10
1.8750746912
 20
13.5130657947
 30
0.0
 10
1.9221989303
 20
13.5043473422
 30
0.0
 11
1.6689508565
 21
13.5150066214
 31
0.0
 11
1.7206128968
 21
13.5230609267
 31
0.0
 11
1.7796421013
 21
13.5229993778
 31
0.0
 11
1.9221989303
 21
13.5043473422
 31
0.0
  0
SPLINE
  5
652
100
AcDbEntity
  8
ASSI
100
AcDbSpline
 62
7
  6
CONTINUOUS
 70
0
 71
3
 72
9
 73
5
 74
3
 42
0.0000001
 43
0.0000001
 44
0.0000000001
 12
0.0745103753
 22
0.0132623954
 32
0.0
 13
0.0742313294
 23
0.014744385
 33
0.0
 40
0.0
 40
0.0
 40
0.0
 40
0.0
 40
0.2555850131
 40
1.0
 40
1.0
 40
1.0
 40
1.0
 10
-3.897114267
 20
13.4803577888
 30
0.0
 10
-3.8907663553
 20
13.4814876787
 30
0.0
 10
-3.8659447822
 20
13.4859942009
 30
0.0
 10
-3.8411779882
 20
13.4907974284
 30
0.0
 10
-3.8227583502
 20
13.4944560754
 30
0.0
 11
-3.897114267
 21
13.4803577888
 31
0.0
 11
-3.8780818895
 21
13.4838106597
 31
0.0
 11
-3.8227583502
 21
13.4944560754
 31
0.0
  0
SPLINE
  5
653
100
AcDbEntity
  8
ASSI
100
AcDbSpline
 62
7
  6
CONTINUOUS
 70
0
 71
3
 72
13
 73
9
 74
7
 42
0.0000001
 43
0.0000001
 44
0.0000000001
 12
0.3012222307
 22
0.0556614932
 32
0.0
 13
0.1083490078
 23
-0.2865196793
 33
0.0
 40
0.0
 40
0.0
 40
0.0
 40
0.0
 40
0.3892763416
 40
0.6876992203
 40
0.8007131459
 40
0.8893963078
 40
0.9548531997
 40
1.0
 40
1.0
 40
1.0
 40
1.0
 10
-3.7713584933
 20
13.5045098872
 30
0.0
 10
-3.732272264
 20
13.5117324547
 30
0.0
 10
-3.6628536015
 20
13.5224911563
 30
0.0
 10
-3.5806499202
 20
13.5255488021
 30
0.0
 10
-3.5299562024
 20
13.5185344966
 30
0.0
 10
-3.5036268729
 20
13.5106573515
 30
0.0
 10
-3.4856981957
 20
13.5009549698
 30
0.0
 10
-3.477541537
 20
13.4922893515
 30
0.0
 10
-3.475911
 20
13.4879775359
 30
0.0
 11
-3.7713584933
 21
13.5045098872
 31
0.0
 11
-3.6533036012
 21
13.521306663
 31
0.0
 11
-3.5618966458
 21
13.5223944715
 31
0.0
 11
-3.5276677872
 21
13.5172142612
 31
0.0
 11
-3.5017761352
 21
13.508992867
 31
0.0
 11
-3.4844992528
 21
13.4988170726
 31
0.0
 11
-3.475911
 21
13.4879775359
 31
0.0
  0
LINE
  5
654
100
AcDbEntity
  8
ASSI
100
AcDbLine
 62
7
  6
CONTINUOUS
 10
-3.475911
 20
13.4879775359
 11
-3.4751056063
 21
13.4848575385
  0
SPLINE
  5
655
100
AcDbEntity
  8
ASSI
100
AcDbSpline
 62
7
  6
CONTINUOUS
 70
0
 71
3
 72
9
 73
5
 74
3
 42
0.0000001
 43
0.0000001
 44
0.0000000001
 12
0.089519202
 22
-0.0165767183
 32
0.0
 13
0.0900690403
 23
-0.0132681236
 33
0.0
 40
0.0
 40
0.0
 40
0.0
 40
0.0
 40
0.241425818
 40
1.0
 40
1.0
 40
1.0
 40
1.0
 10
2.0269171768
 20
13.484023988
 30
0.0
 10
2.034121259
 20
13.4826899721
 30
0.0
 10
2.0639798188
 20
13.4772676924
 30
0.0
 10
2.0939323823
 20
13.4723535727
 30
0.0
 10
2.1167070651
 20
13.4689986207
 30
0.0
 11
2.0269171768
 21
13.484023988
 31
0.0
 11
2.0485439926
 21
13.4801014343
 31
0.0
 11
2.1167070651
 21
13.4689986207
 31
0.0
  0
LINE
  5
656
100
AcDbEntity
  8
ASSI
100
AcDbLine
 62
253
  6
CONTINUOUS
 10
-3.8048762896
 20
13.498030996
 11
-3.8367714323
 21
13.5011112606
  0
SPLINE
  5
657
100
AcDbEntity
  8
ASSI
100
AcDbSpline
 62
7
  6
CONTINUOUS
 70
0
 71
3
 72
9
 73
5
 74
3
 42
0.0000001
 43
0.0000001
 44
0.0000000001
 12
-0.0002812969
 22
-0.0193526122
 32
0.0
 13
-0.0162427703
 23
-0.010524977
 33
0.0
 40
0.0
 40
0.0
 40
0.0
 40
0.0
 40
0.4441417306
 40
1.0
 40
1.0
 40
1.0
 40
1.0
 10
-3.475
 20
13.4825492773
 30
0.0
 10
-3.4750416452
 20
13.4796841764
 30
0.0
 10
-3.4773319533
 20
13.47319661
 30
0.0
 10
-3.4825029964
 20
13.4689827641
 30
0.0
 10
-3.4855125558
 20
13.4670326323
 30
0.0
 11
-3.475
 21
13.4825492773
 31
0.0
 11
-3.4776443472
 21
13.4743698968
 31
0.0
 11
-3.4855125558
 21
13.4670326323
 31
0.0
  0
SPLINE
  5
658
100
AcDbEntity
  8
ASSI
100
AcDbSpline
 62
7
  6
CONTINUOUS
 70
0
 71
3
 72
9
 73
5
 74
3
 42
0.0000001
 43
0.0000001
 44
0.0000000001
 12
-0.0162430115
 22
0.0105245903
 32
0.0
 13
-0.0002827724
 23
0.0193525829
 33
0.0
 40
0.0
 40
0.0
 40
0.0
 40
0.0
 40
0.5558295673
 40
1.0
 40
1.0
 40
1.0
 40
1.0
 10
1.6355125558
 20
13.4670326323
 30
0.0
 10
1.6325031071
 20
13.4689825918
 30
0.0
 10
1.6273320067
 20
13.4731964643
 30
0.0
 10
1.6250418664
 20
13.4796839956
 30
0.0
 10
1.625
 20
13.4825492773
 30
0.0
 11
1.6355125558
 21
13.4670326323
 31
0.0
 11
1.6276446687
 21
13.4743694206
 31
0.0
 11
1.625
 21
13.4825492773
 31
0.0
  0
LINE
  5
659
100
AcDbEntity
  8
ASSI
100
AcDbLine
 62
253
  6
CONTINUOUS
 10
1.9548762896
 20
13.498030996
 11
1.9867714323
 21
13.5011112606
  0
SPLINE
  5
65A
100
AcDbEntity
  8
ASSI
100
AcDbSpline
 62
7
  6
CONTINUOUS
 70
0
 71
3
 72
9
 73
5
 74
3
 42
0.0000001
 43
0.0000001
 44
0.0000000001
 12
-0.1258668415
 22
0.0
 32
0.0
 13
-0.1253086269
 23
0.0118410219
 33
0.0
 40
0.0
 40
0.0
 40
0.0
 40
0.0
 40
0.547990588
 40
1.0
 40
1.0
 40
1.0
 40
1.0
 10
1.8158014299
 20
13.45
 30
0.0
 10
1.7928101485
 20
13.45
 30
0.0
 10
1.7508638862
 20
13.4500840403
 30
0.0
 10
1.708890393
 20
13.4516416485
 30
0.0
 10
1.6900101667
 20
13.4534257329
 30
0.0
 11
1.8158014299
 21
13.45
 31
0.0
 11
1.7468296574
 21
13.4505346097
 31
0.0
 11
1.6900101667
 21
13.4534257329
 31
0.0
  0
SPLINE
  5
65B
100
AcDbEntity
  8
ASSI
100
AcDbSpline
 62
7
  6
CONTINUOUS
 70
0
 71
3
 72
9
 73
5
 74
3
 42
0.0000001
 43
0.0000001
 44
0.0000000001
 12
-0.0562649017
 22
0.0053167444
 32
0.0
 13
-0.0472697223
 23
0.030977093
 33
0.0
 40
0.0
 40
0.0
 40
0.0
 40
0.0
 40
0.5966932991
 40
1.0
 40
1.0
 40
1.0
 40
1.0
 10
1.6900101667
 20
13.4534257329
 30
0.0
 10
1.6788192035
 20
13.4544832215
 30
0.0
 10
1.6601685993
 20
13.4568223491
 30
0.0
 10
1.6418672877
 20
13.4628682093
 30
0.0
 10
1.6355125558
 20
13.4670326323
 30
0.0
 11
1.6900101667
 21
13.4534257329
 31
0.0
 11
1.6566861855
 21
13.4585944608
 31
0.0
 11
1.6355125558
 21
13.4670326323
 31
0.0
  0
LINE
  5
65C
100
AcDbEntity
  8
ASSI
100
AcDbLine
 62
253
  6
CONTINUOUS
 10
1.4653110915
 20
13.4500091368
 11
1.6265505919
 21
13.4661566764
  0
LINE
  5
65D
100
AcDbEntity
  8
ASSI
100
AcDbLine
 62
253
  6
CONTINUOUS
 10
1.6265505919
 20
13.4661566764
 11
1.6355125558
 21
13.4670326323
  0
SPLINE
  5
65E
100
AcDbEntity
  8
ASSI
100
AcDbSpline
 62
7
  6
CONTINUOUS
 70
0
 71
3
 72
9
 73
5
 74
3
 42
0.0000001
 43
0.0000001
 44
0.0000000001
 12
-0.0434124343
 22
-0.028382724
 32
0.0
 13
-0.0515660995
 23
-0.005581743
 33
0.0
 40
0.0
 40
0.0
 40
0.0
 40
0.0
 40
0.41035463
 40
1.0
 40
1.0
 40
1.0
 40
1.0
 10
-3.4855125558
 20
13.4670326323
 30
0.0
 10
-3.4914507203
 20
13.4631503049
 30
0.0
 10
-3.5081519999
 20
13.4574207974
 30
0.0
 10
-3.5252362008
 20
13.4549620008
 30
0.0
 10
-3.535371438
 20
13.4538649178
 30
0.0
 11
-3.4855125558
 21
13.4670326323
 31
0.0
 11
-3.5052220956
 21
13.4589988031
 31
0.0
 11
-3.535371438
 21
13.4538649178
 31
0.0
  0
SPLINE
  5
65F
100
AcDbEntity
  8
ASSI
100
AcDbSpline
 62
7
  6
CONTINUOUS
 70
0
 71
3
 72
9
 73
5
 74
3
 42
0.0000001
 43
0.0000001
 44
0.0000000001
 12
-0.1297648881
 22
-0.0140463263
 32
0.0
 13
-0.1305228925
 23
0.0
 33
0.0
 40
0.0
 40
0.0
 40
0.0
 40
0.0
 40
0.4482061373
 40
1.0
 40
1.0
 40
1.0
 40
1.0
 10
-3.535371438
 20
13.4538649178
 30
0.0
 10
-3.5547585778
 20
13.4517663679
 30
0.0
 10
-3.5983044131
 20
13.4501588919
 30
0.0
 10
-3.6417941863
 20
13.45
 30
0.0
 10
-3.6658014299
 20
13.45
 30
0.0
 11
-3.535371438
 21
13.4538649178
 31
0.0
 11
-3.5937823368
 21
13.450616411
 31
0.0
 11
-3.6658014299
 21
13.45
 31
0.0
  0
LINE
  5
660
100
AcDbEntity
  8
ASSI
100
AcDbLine
 62
253
  6
CONTINUOUS
 10
-3.3153110915
 20
13.4500091368
 11
-3.4767516046
 21
13.4661763302
  0
LINE
  5
661
100
AcDbEntity
  8
ASSI
100
AcDbLine
 62
253
  6
CONTINUOUS
 10
-3.4767516046
 20
13.4661763302
 11
-3.4855125558
 21
13.4670326323
  0
SPLINE
  5
662
100
AcDbEntity
  8
ASSI
100
AcDbSpline
 62
7
  6
CONTINUOUS
 70
0
 71
3
 72
10
 73
6
 74
4
 42
0.0000001
 43
0.0000001
 44
0.0000000001
 12
-0.0062888336
 22
-0.0470030716
 32
0.0
 13
-0.0447862335
 23
-0.0155894663
 33
0.0
 40
0.0
 40
0.0
 40
0.0
 40
0.0
 40
0.1897115196
 40
0.5431533817
 40
1.0
 40
1.0
 40
1.0
 40
1.0
 10
-3.4750710692
 20
-13.4831494562
 30
0.0
 10
-3.4754687573
 20
-13.4861217976
 30
0.0
 10
-3.4786468536
 20
-13.494438204
 30
0.0
 10
-3.4913738253
 20
-13.5048210161
 30
0.0
 10
-3.5031787836
 20
-13.5098340485
 30
0.0
 10
-3.50999893
 20
-13.5122080468
 30
0.0
 11
-3.4750710692
 21
-13.4831494562
 31
0.0
 11
-3.4781444385
 21
-13.4916046985
 31
0.0
 11
-3.4903417534
 21
-13.5031004786
 31
0.0
 11
-3.50999893
 21
-13.5122080468
 31
0.0
  0
SPLINE
  5
663
100
AcDbEntity
  8
ASSI
100
AcDbSpline
 62
7
  6
CONTINUOUS
 70
0
 71
3
 72
10
 73
6
 74
4
 42
0.0000001
 43
0.0000001
 44
0.0000000001
 12
-0.2456312694
 22
-0.0688096463
 32
0.0
 13
-0.2508305364
 23
0.0464061412
 33
0.0
 40
0.0
 40
0.0
 40
0.0
 40
0.0
 40
0.2049734981
 40
0.4363815531
 40
1.0
 40
1.0
 40
1.0
 40
1.0
 10
-3.5189508565
 20
-13.5150066214
 30
0.0
 10
-3.53573349
 20
-13.519708006
 30
0.0
 10
-3.5728599117
 20
-13.5245141686
 30
0.0
 10
-3.6579583817
 20
-13.5234576353
 30
0.0
 10
-3.7250746912
 20
-13.5130657947
 30
0.0
 10
-3.7721989303
 20
-13.5043473422
 30
0.0
 11
-3.5189508565
 21
-13.5150066214
 31
0.0
 11
-3.5706128968
 21
-13.5230609267
 31
0.0
 11
-3.6296421013
 21
-13.5229993778
 31
0.0
 11
-3.7721989303
 21
-13.5043473422
 31
0.0
  0
SPLINE
  5
664
100
AcDbEntity
  8
ASSI
100
AcDbSpline
 62
7
  6
CONTINUOUS
 70
0
 71
3
 72
9
 73
5
 74
3
 42
0.0000001
 43
0.0000001
 44
0.0000000001
 12
-0.0745103753
 22
-0.0132623954
 32
0.0
 13
-0.0742313294
 23
-0.014744385
 33
0.0
 40
0.0
 40
0.0
 40
0.0
 40
0.0
 40
0.2555850131
 40
1.0
 40
1.0
 40
1.0
 40
1.0
 10
2.047114267
 20
-13.4803577888
 30
0.0
 10
2.0407663553
 20
-13.4814876787
 30
0.0
 10
2.0159447822
 20
-13.4859942009
 30
0.0
 10
1.9911779882
 20
-13.4907974284
 30
0.0
 10
1.9727583502
 20
-13.4944560754
 30
0.0
 11
2.047114267
 21
-13.4803577888
 31
0.0
 11
2.0280818895
 21
-13.4838106597
 31
0.0
 11
1.9727583502
 21
-13.4944560754
 31
0.0
  0
SPLINE
  5
665
100
AcDbEntity
  8
ASSI
100
AcDbSpline
 62
7
  6
CONTINUOUS
 70
0
 71
3
 72
13
 73
9
 74
7
 42
0.0000001
 43
0.0000001
 44
0.0000000001
 12
-0.3012222307
 22
-0.0556614932
 32
0.0
 13
-0.1083490078
 23
0.2865196793
 33
0.0
 40
0.0
 40
0.0
 40
0.0
 40
0.0
 40
0.3892763416
 40
0.6876992203
 40
0.8007131459
 40
0.8893963078
 40
0.9548531997
 40
1.0
 40
1.0
 40
1.0
 40
1.0
 10
1.9213584933
 20
-13.5045098872
 30
0.0
 10
1.882272264
 20
-13.5117324547
 30
0.0
 10
1.8128536015
 20
-13.5224911563
 30
0.0
 10
1.7306499202
 20
-13.5255488021
 30
0.0
 10
1.6799562024
 20
-13.5185344966
 30
0.0
 10
1.6536268729
 20
-13.5106573515
 30
0.0
 10
1.6356981957
 20
-13.5009549698
 30
0.0
 10
1.627541537
 20
-13.4922893515
 30
0.0
 10
1.625911
 20
-13.4879775359
 30
0.0
 11
1.9213584933
 21
-13.5045098872
 31
0.0
 11
1.8033036012
 21
-13.521306663
 31
0.0
 11
1.7118966458
 21
-13.5223944715
 31
0.0
 11
1.6776677872
 21
-13.5172142612
 31
0.0
 11
1.6517761352
 21
-13.508992867
 31
0.0
 11
1.6344992528
 21
-13.4988170726
 31
0.0
 11
1.625911
 21
-13.4879775359
 31
0.0
  0
LINE
  5
666
100
AcDbEntity
  8
ASSI
100
AcDbLine
 62
7
  6
CONTINUOUS
 10
1.625911
 20
-13.4879775359
 11
1.6251056063
 21
-13.4848575385
  0
SPLINE
  5
667
100
AcDbEntity
  8
ASSI
100
AcDbSpline
 62
7
  6
CONTINUOUS
 70
0
 71
3
 72
9
 73
5
 74
3
 42
0.0000001
 43
0.0000001
 44
0.0000000001
 12
-0.089519202
 22
0.0165767183
 32
0.0
 13
-0.0900690403
 23
0.0132681236
 33
0.0
 40
0.0
 40
0.0
 40
0.0
 40
0.0
 40
0.241425818
 40
1.0
 40
1.0
 40
1.0
 40
1.0
 10
-3.8769171768
 20
-13.484023988
 30
0.0
 10
-3.884121259
 20
-13.4826899721
 30
0.0
 10
-3.9139798188
 20
-13.4772676924
 30
0.0
 10
-3.9439323823
 20
-13.4723535727
 30
0.0
 10
-3.9667070651
 20
-13.4689986207
 30
0.0
 11
-3.8769171768
 21
-13.484023988
 31
0.0
 11
-3.8985439926
 21
-13.4801014343
 31
0.0
 11
-3.9667070651
 21
-13.4689986207
 31
0.0
  0
LINE
  5
668
100
AcDbEntity
  8
ASSI
100
AcDbLine
 62
253
  6
CONTINUOUS
 10
1.9548762896
 20
-13.498030996
 11
1.9867714323
 21
-13.5011112606
  0
SPLINE
  5
669
100
AcDbEntity
  8
ASSI
100
AcDbSpline
 62
7
  6
CONTINUOUS
 70
0
 71
3
 72
9
 73
5
 74
3
 42
0.0000001
 43
0.0000001
 44
0.0000000001
 12
0.0002812969
 22
0.0193526122
 32
0.0
 13
0.0162427703
 23
0.010524977
 33
0.0
 40
0.0
 40
0.0
 40
0.0
 40
0.0
 40
0.4441417306
 40
1.0
 40
1.0
 40
1.0
 40
1.0
 10
1.625
 20
-13.4825492773
 30
0.0
 10
1.6250416452
 20
-13.4796841764
 30
0.0
 10
1.6273319533
 20
-13.47319661
 30
0.0
 10
1.6325029964
 20
-13.4689827641
 30
0.0
 10
1.6355125558
 20
-13.4670326323
 30
0.0
 11
1.625
 21
-13.4825492773
 31
0.0
 11
1.6276443472
 21
-13.4743698968
 31
0.0
 11
1.6355125558
 21
-13.4670326323
 31
0.0
  0
SPLINE
  5
66A
100
AcDbEntity
  8
ASSI
100
AcDbSpline
 62
7
  6
CONTINUOUS
 70
0
 71
3
 72
9
 73
5
 74
3
 42
0.0000001
 43
0.0000001
 44
0.0000000001
 12
0.0162430115
 22
-0.0105245903
 32
0.0
 13
0.0002827724
 23
-0.0193525829
 33
0.0
 40
0.0
 40
0.0
 40
0.0
 40
0.0
 40
0.5558295673
 40
1.0
 40
1.0
 40
1.0
 40
1.0
 10
-3.4855125558
 20
-13.4670326323
 30
0.0
 10
-3.4825031071
 20
-13.4689825918
 30
0.0
 10
-3.4773320067
 20
-13.4731964643
 30
0.0
 10
-3.4750418664
 20
-13.4796839956
 30
0.0
 10
-3.475
 20
-13.4825492773
 30
0.0
 11
-3.4855125558
 21
-13.4670326323
 31
0.0
 11
-3.4776446687
 21
-13.4743694206
 31
0.0
 11
-3.475
 21
-13.4825492773
 31
0.0
  0
LINE
  5
66B
100
AcDbEntity
  8
ASSI
100
AcDbLine
 62
253
  6
CONTINUOUS
 10
-3.8048762896
 20
-13.498030996
 11
-3.8367714323
 21
-13.5011112606
  0
SPLINE
  5
66C
100
AcDbEntity
  8
ASSI
100
AcDbSpline
 62
7
  6
CONTINUOUS
 70
0
 71
3
 72
9
 73
5
 74
3
 42
0.0000001
 43
0.0000001
 44
0.0000000001
 12
0.1258668415
 22
0.0
 32
0.0
 13
0.1253086269
 23
-0.0118410219
 33
0.0
 40
0.0
 40
0.0
 40
0.0
 40
0.0
 40
0.547990588
 40
1.0
 40
1.0
 40
1.0
 40
1.0
 10
-3.6658014299
 20
-13.45
 30
0.0
 10
-3.6428101485
 20
-13.45
 30
0.0
 10
-3.6008638862
 20
-13.4500840403
 30
0.0
 10
-3.558890393
 20
-13.4516416485
 30
0.0
 10
-3.5400101667
 20
-13.4534257329
 30
0.0
 11
-3.6658014299
 21
-13.45
 31
0.0
 11
-3.5968296574
 21
-13.4505346097
 31
0.0
 11
-3.5400101667
 21
-13.4534257329
 31
0.0
  0
SPLINE
  5
66D
100
AcDbEntity
  8
ASSI
100
AcDbSpline
 62
7
  6
CONTINUOUS
 70
0
 71
3
 72
9
 73
5
 74
3
 42
0.0000001
 43
0.0000001
 44
0.0000000001
 12
0.0562649017
 22
-0.0053167444
 32
0.0
 13
0.0472697223
 23
-0.030977093
 33
0.0
 40
0.0
 40
0.0
 40
0.0
 40
0.0
 40
0.5966932991
 40
1.0
 40
1.0
 40
1.0
 40
1.0
 10
-3.5400101667
 20
-13.4534257329
 30
0.0
 10
-3.5288192035
 20
-13.4544832215
 30
0.0
 10
-3.5101685993
 20
-13.4568223491
 30
0.0
 10
-3.4918672877
 20
-13.4628682093
 30
0.0
 10
-3.4855125558
 20
-13.4670326323
 30
0.0
 11
-3.5400101667
 21
-13.4534257329
 31
0.0
 11
-3.5066861855
 21
-13.4585944608
 31
0.0
 11
-3.4855125558
 21
-13.4670326323
 31
0.0
  0
LINE
  5
66E
100
AcDbEntity
  8
ASSI
100
AcDbLine
 62
253
  6
CONTINUOUS
 10
-3.3153110915
 20
-13.4500091368
 11
-3.4765505919
 21
-13.4661566764
  0
LINE
  5
66F
100
AcDbEntity
  8
ASSI
100
AcDbLine
 62
253
  6
CONTINUOUS
 10
-3.4765505919
 20
-13.4661566764
 11
-3.4855125558
 21
-13.4670326323
  0
SPLINE
  5
670
100
AcDbEntity
  8
ASSI
100
AcDbSpline
 62
7
  6
CONTINUOUS
 70
0
 71
3
 72
9
 73
5
 74
3
 42
0.0000001
 43
0.0000001
 44
0.0000000001
 12
0.0434124343
 22
0.028382724
 32
0.0
 13
0.0515660995
 23
0.005581743
 33
0.0
 40
0.0
 40
0.0
 40
0.0
 40
0.0
 40
0.41035463
 40
1.0
 40
1.0
 40
1.0
 40
1.0
 10
1.6355125558
 20
-13.4670326323
 30
0.0
 10
1.6414507203
 20
-13.4631503049
 30
0.0
 10
1.6581519999
 20
-13.4574207974
 30
0.0
 10
1.6752362008
 20
-13.4549620008
 30
0.0
 10
1.685371438
 20
-13.4538649178
 30
0.0
 11
1.6355125558
 21
-13.4670326323
 31
0.0
 11
1.6552220956
 21
-13.4589988031
 31
0.0
 11
1.685371438
 21
-13.4538649178
 31
0.0
  0
SPLINE
  5
671
100
AcDbEntity
  8
ASSI
100
AcDbSpline
 62
7
  6
CONTINUOUS
 70
0
 71
3
 72
9
 73
5
 74
3
 42
0.0000001
 43
0.0000001
 44
0.0000000001
 12
0.1297648881
 22
0.0140463263
 32
0.0
 13
0.1305228925
 23
0.0
 33
0.0
 40
0.0
 40
0.0
 40
0.0
 40
0.0
 40
0.4482061373
 40
1.0
 40
1.0
 40
1.0
 40
1.0
 10
1.685371438
 20
-13.4538649178
 30
0.0
 10
1.7047585778
 20
-13.4517663679
 30
0.0
 10
1.7483044131
 20
-13.4501588919
 30
0.0
 10
1.7917941863
 20
-13.45
 30
0.0
 10
1.8158014299
 20
-13.45
 30
0.0
 11
1.685371438
 21
-13.4538649178
 31
0.0
 11
1.7437823368
 21
-13.450616411
 31
0.0
 11
1.8158014299
 21
-13.45
 31
0.0
  0
LINE
  5
672
100
AcDbEntity
  8
ASSI
100
AcDbLine
 62
253
  6
CONTINUOUS
 10
1.4653110915
 20
-13.4500091368
 11
1.6267516046
 21
-13.4661763302
  0
LINE
  5
673
100
AcDbEntity
  8
ASSI
100
AcDbLine
 62
253
  6
CONTINUOUS
 10
1.6267516046
 20
-13.4661763302
 11
1.6355125558
 21
-13.4670326323
  0
ELLIPSE
  5
674
100
AcDbEntity
  8
DRAFT
100
AcDbEllipse
 62
7
  6
CONTINUOUS
 10
1.575
 20
-20.0445070257
 30
0.0
 11
1.0
 21
0.0
 31
0.0
 40
0.0087268678
 41
-1.5707963268
 42
-0.0
  0
ELLIPSE
  5
675
100
AcDbEntity
  8
DRAFT
100
AcDbEllipse
 62
7
  6
CONTINUOUS
 10
1.575
 20
20.0445070257
 30
0.0
 11
1.0
 21
-0.0
 31
0.0
 40
0.0087268678
 41
-0.0
 42
1.5707963268
  0
ELLIPSE
  5
676
100
AcDbEntity
  8
DRAFT
100
AcDbEllipse
 62
7
  6
CONTINUOUS
 10
-0.925
 20
-20.1823915368
 30
0.0
 11
15.0
 21
0.0
 31
0.0
 40
0.0087268678
 41
1.4073150204
 42
1.7342776332
  0
ELLIPSE
  5
677
100
AcDbEntity
  8
DRAFT
100
AcDbEllipse
 62
7
  6
CONTINUOUS
 10
-3.425
 20
-20.0445070257
 30
0.0
 11
1.0
 21
0.0
 31
0.0
 40
0.0087268678
 41
-3.1415926536
 42
-1.5707963268
  0
ELLIPSE
  5
678
100
AcDbEntity
  8
DRAFT
100
AcDbEllipse
 62
7
  6
CONTINUOUS
 10
-0.925
 20
20.1823915368
 30
0.0
 11
15.0
 21
0.0
 31
0.0
 40
0.0087268678
 41
-1.7342776332
 42
-1.4073150204
  0
ELLIPSE
  5
679
100
AcDbEntity
  8
DRAFT
100
AcDbEllipse
 62
7
  6
CONTINUOUS
 10
-3.425
 20
20.0445070257
 30
0.0
 11
1.0
 21
0.0
 31
0.0
 40
0.0087268678
 41
1.5707963268
 42
3.1415926536
  0
ELLIPSE
  5
67A
100
AcDbEntity
  8
RACCORDO
100
AcDbEllipse
 62
7
  6
CONTINUOUS
 10
-11.574923836
 20
-21.891254093
 30
0.0
 11
-0.4473055582
 21
0.2236357461
 31
0.0
 40
0.9998096356
 41
6.7467263073
 42
8.3176749331
  0
ELLIPSE
  5
67B
100
AcDbEntity
  8
ASSI
100
AcDbEllipse
 62
7
  6
CONTINUOUS
 10
-5.2813662764
 20
23.2563578147
 30
0.0
 11
0.0
 21
0.5
 31
0.0
 40
0.0058178298
 41
-0.149597008
 42
-0.0058177642
  0
ELLIPSE
  5
67C
100
AcDbEntity
  8
ASSI
100
AcDbEllipse
 62
7
  6
CONTINUOUS
 10
3.4313662764
 20
23.2563578147
 30
0.0
 11
0.0
 21
0.5
 31
0.0
 40
0.0058178298
 41
0.0058177642
 42
0.149597008
  0
ELLIPSE
  5
67D
100
AcDbEntity
  8
ASSI
100
AcDbEllipse
 62
7
  6
CONTINUOUS
 10
3.4313662764
 20
-23.2563578147
 30
0.0
 11
0.0
 21
0.5
 31
0.0
 40
0.0058178298
 41
-3.2911896616
 42
-3.1474104178
  0
ELLIPSE
  5
67E
100
AcDbEntity
  8
ASSI
100
AcDbEllipse
 62
7
  6
CONTINUOUS
 10
-5.2813662764
 20
-23.2563578147
 30
0.0
 11
-0.0
 21
0.5
 31
0.0
 40
0.0058178298
 41
-3.1357748894
 42
-2.9919956456
  0
ELLIPSE
  5
67F
100
AcDbEntity
  8
RACCORDO
100
AcDbEllipse
 62
7
  6
CONTINUOUS
 10
9.724923836
 20
21.891254093
 30
0.0
 11
0.4473055582
 21
-0.2236357461
 31
0.0
 40
0.9998096356
 41
6.7467263073
 42
8.3176749331
  0
ELLIPSE
  5
680
100
AcDbEntity
  8
DRAFT
100
AcDbEllipse
 62
7
  6
CONTINUOUS
 10
-4.8529699877
 20
22.3339198952
 30
0.0
 11
0.4279699877
 21
-0.0
 31
0.0
 40
0.0087268678
 41
-3.1357748894
 42
-0.0
  0
ELLIPSE
  5
681
100
AcDbEntity
  8
DRAFT
100
AcDbEllipse
 62
7
  6
CONTINUOUS
 10
3.0029699877
 20
22.3339198952
 30
0.0
 11
0.4279699877
 21
0.0
 31
0.0
 40
0.0087268678
 41
-3.1415926536
 42
-0.0058177642
  0
ELLIPSE
  5
682
100
AcDbEntity
  8
DRAFT
100
AcDbEllipse
 62
7
  6
CONTINUOUS
 10
-4.8529699877
 20
-22.3339198952
 30
0.0
 11
0.4279699877
 21
0.0
 31
0.0
 40
0.0087268678
 41
0.0
 42
3.1357748894
  0
ELLIPSE
  5
683
100
AcDbEntity
  8
DRAFT
100
AcDbEllipse
 62
7
  6
CONTINUOUS
 10
3.0029699877
 20
-22.3339198952
 30
0.0
 11
0.4279699877
 21
-0.0
 31
0.0
 40
0.0087268678
 41
0.0058177642
 42
3.1415926536
  0
ELLIPSE
  5
684
100
AcDbEntity
  8
0
100
AcDbEllipse
 62
7
  6
CONTINUOUS
 10
5.3261302296
 20
-19.4266752714
 30
0.0
 11
-0.0
 21
0.5
 31
0.0
 40
0.0058178298
 41
-4.1338639045
 42
-3.1503192998
  0
ELLIPSE
  5
685
100
AcDbEntity
  8
0
100
AcDbEllipse
 62
7
  6
CONTINUOUS
 10
-7.1761302296
 20
-19.4266752714
 30
0.0
 11
-0.0
 21
0.5
 31
0.0
 40
0.0058178298
 41
-3.1328660073
 42
-2.1493214027
  0
ELLIPSE
  5
686
100
AcDbEntity
  8
0
100
AcDbEllipse
 62
7
  6
CONTINUOUS
 10
-7.1761302296
 20
19.4266752714
 30
0.0
 11
-0.0
 21
0.5
 31
0.0
 40
0.0058178298
 41
-0.9922712509
 42
-0.0087266463
  0
ELLIPSE
  5
687
100
AcDbEntity
  8
0
100
AcDbEllipse
 62
7
  6
CONTINUOUS
 10
5.3261302296
 20
19.4266752714
 30
0.0
 11
-0.0
 21
0.5
 31
0.0
 40
0.0058178298
 41
0.0087266463
 42
0.9922712509
  0
ELLIPSE
  5
688
100
AcDbEntity
  8
RACCORDO
100
AcDbEllipse
 62
7
  6
CONTINUOUS
 10
9.724923836
 20
-21.891254093
 30
0.0
 11
-0.4473055582
 21
-0.2236357461
 31
0.0
 40
0.9998096356
 41
1.1071030277
 42
2.6780516535
  0
ELLIPSE
  5
689
100
AcDbEntity
  8
RACCORDO
100
AcDbEllipse
 62
7
  6
CONTINUOUS
 10
-11.574923836
 20
21.891254093
 30
0.0
 11
0.4473055582
 21
0.2236357461
 31
0.0
 40
0.9998096356
 41
1.1071030277
 42
2.6780516535
  0
ELLIPSE
  5
68A
100
AcDbEntity
  8
RACCORDO
100
AcDbEllipse
 62
7
  6
CONTINUOUS
 10
6.6591007192
 20
21.9363119056
 30
0.0
 11
-0.4999904798
 21
0.5000285596
 31
0.0
 40
0.0061705924
 41
-4.1747855617
 42
-3.1528749621
  0
ELLIPSE
  5
68B
100
AcDbEntity
  8
RACCORDO
100
AcDbEllipse
 62
7
  6
CONTINUOUS
 10
6.6591007192
 20
20.9916321118
 30
0.0
 11
0.5
 21
-0.0
 31
0.0
 40
0.0087268678
 41
0.0174532925
 42
1.5707963268
  0
ELLIPSE
  5
68C
100
AcDbEntity
  8
RACCORDO
100
AcDbEllipse
 62
7
  6
CONTINUOUS
 10
-8.5091007192
 20
20.9916321118
 30
0.0
 11
0.5
 21
0.0
 31
0.0
 40
0.0087268678
 41
1.5707963268
 42
3.1241393611
  0
ELLIPSE
  5
68D
100
AcDbEntity
  8
RACCORDO
100
AcDbEllipse
 62
7
  6
CONTINUOUS
 10
-8.5091007192
 20
21.9363119056
 30
0.0
 11
0.4999904798
 21
0.5000285596
 31
0.0
 40
0.0061705924
 41
-3.1303103451
 42
-2.1083997454
  0
ELLIPSE
  5
68E
100
AcDbEntity
  8
RACCORDO
100
AcDbEllipse
 62
7
  6
CONTINUOUS
 10
6.6591007192
 20
-20.9916321118
 30
0.0
 11
0.5
 21
0.0
 31
0.0
 40
0.0087268678
 41
-1.5707963268
 42
-0.0174532925
  0
ELLIPSE
  5
68F
100
AcDbEntity
  8
RACCORDO
100
AcDbEllipse
 62
7
  6
CONTINUOUS
 10
6.6591007192
 20
-21.9363119056
 30
0.0
 11
0.4999904798
 21
0.5000285596
 31
0.0
 40
0.0061705924
 41
0.0112823085
 42
1.0331929081
  0
ELLIPSE
  5
690
100
AcDbEntity
  8
RACCORDO
100
AcDbEllipse
 62
7
  6
CONTINUOUS
 10
-8.5091007192
 20
-21.9363119056
 30
0.0
 11
-0.4999904798
 21
0.5000285596
 31
0.0
 40
0.0061705924
 41
-1.0331929081
 42
-0.0112823085
  0
ELLIPSE
  5
691
100
AcDbEntity
  8
RACCORDO
100
AcDbEllipse
 62
7
  6
CONTINUOUS
 10
-8.5091007192
 20
-20.9916321118
 30
0.0
 11
0.5
 21
0.0
 31
0.0
 40
0.0087268678
 41
-3.1241393611
 42
-1.5707963268
  0
ELLIPSE
  5
692
100
AcDbEntity
  8
RACCORDO
100
AcDbEllipse
 62
7
  6
CONTINUOUS
 10
-9.1388902084
 20
21.3126932437
 30
0.0
 11
1.0000571192
 21
0.9999809595
 31
0.0
 40
0.0061705924
 41
-1.1910843375
 42
-0.0025556622
  0
ELLIPSE
  5
693
100
AcDbEntity
  8
RACCORDO
100
AcDbEllipse
 62
7
  6
CONTINUOUS
 10
7.2888902084
 20
21.3126932437
 30
0.0
 11
1.0000571192
 21
-0.9999809595
 31
0.0
 40
0.0061705924
 41
-3.1390369914
 42
-1.9505083161
  0
ELLIPSE
  5
694
100
AcDbEntity
  8
RACCORDO
100
AcDbEllipse
 62
7
  6
CONTINUOUS
 10
-9.1388902084
 20
-21.3126932437
 30
0.0
 11
1.0000571192
 21
-0.9999809595
 31
0.0
 40
0.0061705924
 41
0.0025556622
 42
1.1910843375
  0
ELLIPSE
  5
695
100
AcDbEntity
  8
RACCORDO
100
AcDbEllipse
 62
7
  6
CONTINUOUS
 10
7.2888902084
 20
-21.3126932437
 30
0.0
 11
1.0000571192
 21
0.9999809595
 31
0.0
 40
0.0061705924
 41
1.9505083161
 42
3.1390369914
  0
ELLIPSE
  5
696
100
AcDbEntity
  8
RACCORDO
100
AcDbEllipse
 62
7
  6
CONTINUOUS
 10
9.4749957691
 20
23.4113248654
 30
0.0
 11
-0.0029088041
 21
0.2886641433
 31
0.0
 40
0.8660144118
 41
-3.150319066
 42
-1.582431609
  0
ELLIPSE
  5
697
100
AcDbEntity
  8
RACCORDO
100
AcDbEllipse
 62
7
  6
CONTINUOUS
 10
7.5750042309
 20
23.4113248654
 30
0.0
 11
0.0029088041
 21
0.2886641433
 31
0.0
 40
0.8660144118
 41
-4.7007536982
 42
-3.1328662412
  0
ELLIPSE
  5
698
100
AcDbEntity
  8
RACCORDO
100
AcDbEllipse
 62
7
  6
CONTINUOUS
 10
-9.4250042309
 20
23.4113248654
 30
0.0
 11
-0.0029088041
 21
0.2886641433
 31
0.0
 40
0.8660144118
 41
-3.150319066
 42
-1.582431609
  0
ELLIPSE
  5
699
100
AcDbEntity
  8
RACCORDO
100
AcDbEllipse
 62
7
  6
CONTINUOUS
 10
-11.3249957691
 20
23.4113248654
 30
0.0
 11
0.0029088041
 21
0.2886641433
 31
0.0
 40
0.8660144118
 41
-4.7007536982
 42
-3.1328662412
  0
ELLIPSE
  5
69A
100
AcDbEntity
  8
RACCORDO
100
AcDbEllipse
 62
7
  6
CONTINUOUS
 10
7.5750042309
 20
-23.4113248654
 30
0.0
 11
-0.0029088041
 21
0.2886641433
 31
0.0
 40
0.8660144118
 41
-0.0087264124
 42
1.5591610446
  0
ELLIPSE
  5
69B
100
AcDbEntity
  8
RACCORDO
100
AcDbEllipse
 62
7
  6
CONTINUOUS
 10
9.4749957691
 20
-23.4113248654
 30
0.0
 11
0.0029088041
 21
0.2886641433
 31
0.0
 40
0.8660144118
 41
-1.5591610446
 42
0.0087264124
  0
ELLIPSE
  5
69C
100
AcDbEntity
  8
RACCORDO
100
AcDbEllipse
 62
7
  6
CONTINUOUS
 10
-8.2738697704
 20
-19.959088481
 30
0.0
 11
-0.0
 21
0.5
 31
0.0
 40
0.0058178298
 41
-4.7123889804
 42
-3.1939525311
  0
ELLIPSE
  5
69D
100
AcDbEntity
  8
RACCORDO
100
AcDbEllipse
 62
7
  6
CONTINUOUS
 10
-8.2738697704
 20
19.959088481
 30
0.0
 11
-0.0
 21
0.5
 31
0.0
 40
0.0058178298
 41
0.0523598776
 42
1.5707963268
  0
ELLIPSE
  5
69E
100
AcDbEntity
  8
RACCORDO
100
AcDbEllipse
 62
7
  6
CONTINUOUS
 10
6.4238697704
 20
19.959088481
 30
0.0
 11
0.0
 21
0.5
 31
0.0
 40
0.0058178298
 41
-1.5707963268
 42
-0.0523598776
  0
ELLIPSE
  5
69F
100
AcDbEntity
  8
RACCORDO
100
AcDbEllipse
 62
7
  6
CONTINUOUS
 10
-11.3249957691
 20
-23.4113248654
 30
0.0
 11
-0.0029088041
 21
0.2886641433
 31
0.0
 40
0.8660144118
 41
-0.0087264124
 42
1.5591610446
  0
ELLIPSE
  5
6A0
100
AcDbEntity
  8
RACCORDO
100
AcDbEllipse
 62
7
  6
CONTINUOUS
 10
6.4238697704
 20
-19.959088481
 30
0.0
 11
0.0
 21
0.5
 31
0.0
 40
0.0058178298
 41
-3.089232776
 42
-1.5707963268
  0
ELLIPSE
  5
6A1
100
AcDbEntity
  8
RACCORDO
100
AcDbEllipse
 62
7
  6
CONTINUOUS
 10
-9.4250042309
 20
-23.4113248654
 30
0.0
 11
0.0029088041
 21
0.2886641433
 31
0.0
 40
0.8660144118
 41
-1.5591610446
 42
0.0087264124
  0
ELLIPSE
  5
6A2
100
AcDbEntity
  8
RACCORDO
100
AcDbEllipse
 62
7
  6
CONTINUOUS
 10
5.4302693832
 20
-20.5829242832
 30
0.0
 11
0.0
 21
0.5
 31
0.0
 40
0.0058178298
 41
-1.5707963268
 42
-0.0087266463
  0
ELLIPSE
  5
6A3
100
AcDbEntity
  8
RACCORDO
100
AcDbEllipse
 62
7
  6
CONTINUOUS
 10
-7.2802693832
 20
-20.5829242832
 30
0.0
 11
0.0
 21
0.5
 31
0.0
 40
0.0058178298
 41
0.0087266463
 42
1.5707963268
  0
ELLIPSE
  5
6A4
100
AcDbEntity
  8
RACCORDO
100
AcDbEllipse
 62
7
  6
CONTINUOUS
 10
-7.2802693832
 20
20.5829242832
 30
0.0
 11
0.0
 21
0.5
 31
0.0
 40
0.0058178298
 41
-4.7123889804
 42
-3.1503192998
  0
ELLIPSE
  5
6A5
100
AcDbEntity
  8
RACCORDO
100
AcDbEllipse
 62
7
  6
CONTINUOUS
 10
5.4302693832
 20
20.5829242832
 30
0.0
 11
-0.0
 21
0.5
 31
0.0
 40
0.0058178298
 41
-3.1328660073
 42
-1.5707963268
  0
ELLIPSE
  5
6A6
100
AcDbEntity
  8
RACCORDO
100
AcDbEllipse
 62
7
  6
CONTINUOUS
 10
-7.2820147321
 20
-19.9570181168
 30
0.0
 11
-0.0
 21
0.2
 31
0.0
 40
0.0058178298
 41
0.0058177642
 42
1.5707963268
  0
ELLIPSE
  5
6A7
100
AcDbEntity
  8
RACCORDO
100
AcDbEllipse
 62
7
  6
CONTINUOUS
 10
-7.2820147321
 20
19.9570181168
 30
0.0
 11
-0.0
 21
0.2
 31
0.0
 40
0.0058178298
 41
-4.7123889804
 42
-3.1474104178
  0
ELLIPSE
  5
6A8
100
AcDbEntity
  8
RACCORDO
100
AcDbEllipse
 62
7
  6
CONTINUOUS
 10
-8.1679852679
 20
19.9570181168
 30
0.0
 11
-0.0
 21
0.2
 31
0.0
 40
0.0058178298
 41
-3.1357748894
 42
-1.5707963268
  0
ELLIPSE
  5
6A9
100
AcDbEntity
  8
RACCORDO
100
AcDbEllipse
 62
7
  6
CONTINUOUS
 10
6.3179852679
 20
19.9570181168
 30
0.0
 11
0.0
 21
0.2
 31
0.0
 40
0.0058178298
 41
-4.7123889804
 42
-3.1474104178
  0
ELLIPSE
  5
6AA
100
AcDbEntity
  8
RACCORDO
100
AcDbEllipse
 62
7
  6
CONTINUOUS
 10
5.4320147321
 20
19.9570181168
 30
0.0
 11
-0.0
 21
0.2
 31
0.0
 40
0.0058178298
 41
-3.1357748894
 42
-1.5707963268
  0
ELLIPSE
  5
6AB
100
AcDbEntity
  8
RACCORDO
100
AcDbEllipse
 62
7
  6
CONTINUOUS
 10
5.4320147321
 20
-19.9570181168
 30
0.0
 11
-0.0
 21
0.2
 31
0.0
 40
0.0058178298
 41
-1.5707963268
 42
-0.0058177642
  0
ELLIPSE
  5
6AC
100
AcDbEntity
  8
RACCORDO
100
AcDbEllipse
 62
7
  6
CONTINUOUS
 10
6.3179852679
 20
-19.9570181168
 30
0.0
 11
-0.0
 21
0.2
 31
0.0
 40
0.0058178298
 41
0.0058177642
 42
1.5707963268
  0
ELLIPSE
  5
6AD
100
AcDbEntity
  8
RACCORDO
100
AcDbEllipse
 62
7
  6
CONTINUOUS
 10
-8.1679852679
 20
-19.9570181168
 30
0.0
 11
-0.0
 21
0.2
 31
0.0
 40
0.0058178298
 41
-1.5707963268
 42
-0.0058177642
  0
ELLIPSE
  5
6AE
100
AcDbEntity
  8
CORPO
100
AcDbEllipse
 62
7
  6
CONTINUOUS
 10
1.974923836
 20
141.875642436
 30
0.0
 11
-0.4997620717
 21
162.4815824859
 31
0.0
 40
0.000109066
 41
3.2244642593
 42
3.2347883502
  0
ELLIPSE
  5
6AF
100
AcDbEntity
  8
CORPO
100
AcDbEllipse
 62
7
  6
CONTINUOUS
 10
1.974923836
 20
-141.875642436
 30
0.0
 11
0.4997620717
 21
162.4815824859
 31
0.0
 40
0.000109066
 41
-0.0931956966
 42
-0.0828716057
  0
ELLIPSE
  5
6B0
100
AcDbEntity
  8
CORPO
100
AcDbEllipse
 62
7
  6
CONTINUOUS
 10
-3.824923836
 20
141.875642436
 30
0.0
 11
0.4997620717
 21
162.4815824859
 31
0.0
 40
0.000109066
 41
-3.2347883502
 42
-3.2244642593
  0
ELLIPSE
  5
6B1
100
AcDbEntity
  8
CORPO
100
AcDbEllipse
 62
7
  6
CONTINUOUS
 10
-3.824923836
 20
-141.875642436
 30
0.0
 11
-0.4997620717
 21
162.4815824859
 31
0.0
 40
0.000109066
 41
6.3660569129
 42
6.3763810038
  0
ELLIPSE
  5
6B2
100
AcDbEntity
  8
CORPO
100
AcDbEllipse
 62
7
  6
CONTINUOUS
 10
-0.925
 20
-17.8206532958
 30
0.0
 11
2.75839524
 21
0.0
 31
0.0
 40
0.0058178298
 41
0.0
 42
3.1415926536
  0
ELLIPSE
  5
6B3
100
AcDbEntity
  8
CORPO
100
AcDbEllipse
 62
7
  6
CONTINUOUS
 10
-0.925
 20
17.8206532958
 30
0.0
 11
2.75839524
 21
-0.0
 31
0.0
 40
0.0058178298
 41
-3.1415926536
 42
-0.0
  0
ELLIPSE
  5
6B4
100
AcDbEntity
  8
CORPO
100
AcDbEllipse
 62
7
  6
CONTINUOUS
 10
8.2246953439
 20
17.6714466826
 30
0.0
 11
1.8480888181
 21
0.7655034529
 31
0.0
 40
0.9998215708
 41
-0.3926359958
 42
0.3926359958
  0
ELLIPSE
  5
6B5
100
AcDbEntity
  8
CORPO
100
AcDbEllipse
 62
7
  6
CONTINUOUS
 10
8.2246953439
 20
-17.6714466826
 30
0.0
 11
1.8480888181
 21
-0.7655034529
 31
0.0
 40
0.9998215708
 41
-0.3926359958
 42
0.3926359958
  0
ELLIPSE
  5
6B6
100
AcDbEntity
  8
CORPO
100
AcDbEllipse
 62
7
  6
CONTINUOUS
 10
-10.0746953439
 20
-17.6714466826
 30
0.0
 11
1.8480888181
 21
0.7655034529
 31
0.0
 40
0.9998215708
 41
2.7489566578
 42
3.5342286494
  0
ELLIPSE
  5
6B7
100
AcDbEntity
  8
CORPO
100
AcDbEllipse
 62
7
  6
CONTINUOUS
 10
-10.0746953439
 20
17.6714466826
 30
0.0
 11
1.8480888181
 21
-0.7655034529
 31
0.0
 40
0.9998215708
 41
2.7489566578
 42
3.5342286494
  0
ELLIPSE
  5
6B8
100
AcDbEntity
  8
CORPO
100
AcDbEllipse
 62
7
  6
CONTINUOUS
 10
-0.925
 20
17.8261802341
 30
0.0
 11
2.75
 21
-0.0
 31
0.0
 40
0.0058178298
 41
0.0087266463
 42
3.1328660073
  0
ELLIPSE
  5
6B9
100
AcDbEntity
  8
CORPO
100
AcDbEllipse
 62
7
  6
CONTINUOUS
 10
-0.925
 20
-17.8261802341
 30
0.0
 11
2.75
 21
0.0
 31
0.0
 40
0.0058178298
 41
-3.1328660073
 42
-0.0087266463
  0
ELLIPSE
  5
6BA
100
AcDbEntity
  8
CORPO
100
AcDbEllipse
 62
7
  6
CONTINUOUS
 10
-3.7571088656
 20
-18.3664559318
 30
0.0
 11
0.5774011102
 21
0.9999928594
 31
0.0
 40
0.0065449328
 41
-4.7086099199
 42
-3.1552668857
  0
ELLIPSE
  5
6BB
100
AcDbEntity
  8
CORPO
100
AcDbEllipse
 62
7
  6
CONTINUOUS
 10
-0.925
 20
-19.454484577
 30
0.0
 11
3.4163684853
 21
0.0
 31
0.0
 40
0.0174559514
 41
3.1402413834
 42
6.2845365774
  0
ELLIPSE
  5
6BC
100
AcDbEntity
  8
CORPO
100
AcDbEllipse
 62
7
  6
CONTINUOUS
 10
-0.925
 20
19.454484577
 30
0.0
 11
3.4163684853
 21
-0.0
 31
0.0
 40
0.0174559514
 41
-0.0013512702
 42
3.1429439238
  0
ELLIPSE
  5
6BD
100
AcDbEntity
  8
CORPO
100
AcDbEllipse
 62
7
  6
CONTINUOUS
 10
-3.7571088656
 20
18.3664559318
 30
0.0
 11
-0.5774011102
 21
0.9999928594
 31
0.0
 40
0.0065449328
 41
0.0136742321
 42
1.5670172664
  0
ELLIPSE
  5
6BE
100
AcDbEntity
  8
CORPO
100
AcDbEllipse
 62
7
  6
CONTINUOUS
 10
1.9071088656
 20
18.3664559318
 30
0.0
 11
0.5774011102
 21
0.9999928594
 31
0.0
 40
0.0065449328
 41
-1.5670172664
 42
-0.0136742321
  0
ELLIPSE
  5
6BF
100
AcDbEntity
  8
CORPO
100
AcDbEllipse
 62
7
  6
CONTINUOUS
 10
1.9071088656
 20
-18.3664559318
 30
0.0
 11
-0.5774011102
 21
0.9999928594
 31
0.0
 40
0.0065449328
 41
-3.1279184215
 42
-1.5745753872
  0
ELLIPSE
  5
6C0
100
AcDbEntity
  8
CORPO
100
AcDbEllipse
 62
7
  6
CONTINUOUS
 10
-10.3028922769
 20
-18.6108268408
 30
0.0
 11
0.3827517265
 21
0.924044409
 31
0.0
 40
0.9998215708
 41
-3.5342286494
 42
-2.7489566578
  0
ELLIPSE
  5
6C1
100
AcDbEntity
  8
CORPO
100
AcDbEllipse
 62
7
  6
CONTINUOUS
 10
8.4528922769
 20
-18.6108268408
 30
0.0
 11
-0.3827517265
 21
0.924044409
 31
0.0
 40
0.9998215708
 41
-3.5342286494
 42
-2.7489566578
  0
ELLIPSE
  5
6C2
100
AcDbEntity
  8
CORPO
100
AcDbEllipse
 62
7
  6
CONTINUOUS
 10
8.4528922769
 20
18.6108268408
 30
0.0
 11
0.3827517265
 21
0.924044409
 31
0.0
 40
0.9998215708
 41
-0.3926359958
 42
0.3926359958
  0
ELLIPSE
  5
6C3
100
AcDbEntity
  8
CORPO
100
AcDbEllipse
 62
7
  6
CONTINUOUS
 10
-10.3028922769
 20
18.6108268408
 30
0.0
 11
-0.3827517265
 21
0.924044409
 31
0.0
 40
0.9998215708
 41
-0.3926359958
 42
0.3926359958
  0
ELLIPSE
  5
6C4
100
AcDbEntity
  8
CORPO
100
AcDbEllipse
 62
7
  6
CONTINUOUS
 10
-3.3270043045
 20
19.9021566325
 30
0.0
 11
1.0000047088
 21
-0.0000084854
 31
0.0
 40
0.0176698676
 41
-3.0661730833
 42
-1.5703161095
  0
ELLIPSE
  5
6C5
100
AcDbEntity
  8
CORPO
100
AcDbEllipse
 62
7
  6
CONTINUOUS
 10
1.4770043045
 20
19.9021566325
 30
0.0
 11
1.0000047088
 21
0.0000084854
 31
0.0
 40
0.0176698676
 41
-1.5712765441
 42
-0.0754195703
  0
ELLIPSE
  5
6C6
100
AcDbEntity
  8
CORPO
100
AcDbEllipse
 62
7
  6
CONTINUOUS
 10
-3.3270043045
 20
-19.9021566325
 30
0.0
 11
1.0000047088
 21
0.0000084854
 31
0.0
 40
0.0176698676
 41
1.5703161095
 42
3.0661730833
  0
ELLIPSE
  5
6C7
100
AcDbEntity
  8
CORPO
100
AcDbEllipse
 62
7
  6
CONTINUOUS
 10
1.4770043045
 20
-19.9021566325
 30
0.0
 11
1.0000047088
 21
-0.0000084854
 31
0.0
 40
0.0176698676
 41
0.0754195703
 42
1.5712765441
  0
ELLIPSE
  5
6C8
100
AcDbEntity
  8
ASSI
100
AcDbEllipse
 62
7
  6
CONTINUOUS
 10
-0.925
 20
17.8261802341
 30
0.0
 11
2.75
 21
0.0
 31
0.0
 40
0.0058178298
 41
0.0087266463
 42
3.1328660073
  0
ELLIPSE
  5
6C9
100
AcDbEntity
  8
ASSI
100
AcDbEllipse
 62
7
  6
CONTINUOUS
 10
-0.925
 20
-17.8261802341
 30
0.0
 11
2.75
 21
0.0
 31
0.0
 40
0.0058178298
 41
-3.1328660073
 42
-0.0087266463
  0
ELLIPSE
  5
6CA
100
AcDbEntity
  8
ASSI
100
AcDbEllipse
 62
7
  6
CONTINUOUS
 10
-10.0746953439
 20
17.6714466826
 30
0.0
 11
1.8480888181
 21
-0.7655034529
 31
0.0
 40
0.9998215708
 41
2.7489566578
 42
3.5342286494
  0
ELLIPSE
  5
6CB
100
AcDbEntity
  8
ASSI
100
AcDbEllipse
 62
7
  6
CONTINUOUS
 10
-10.0746953439
 20
-17.6714466826
 30
0.0
 11
1.8480888181
 21
0.7655034529
 31
0.0
 40
0.9998215708
 41
2.7489566578
 42
3.5342286494
  0
ELLIPSE
  5
6CC
100
AcDbEntity
  8
ASSI
100
AcDbEllipse
 62
7
  6
CONTINUOUS
 10
8.2246953439
 20
-17.6714466826
 30
0.0
 11
1.8480888181
 21
-0.7655034529
 31
0.0
 40
0.9998215708
 41
-0.3926359958
 42
0.3926359958
  0
ELLIPSE
  5
6CD
100
AcDbEntity
  8
ASSI
100
AcDbEllipse
 62
7
  6
CONTINUOUS
 10
8.2246953439
 20
17.6714466826
 30
0.0
 11
1.8480888181
 21
0.7655034529
 31
0.0
 40
0.9998215708
 41
-0.3926359958
 42
0.3926359958
  0
ELLIPSE
  5
6CE
100
AcDbEntity
  8
ASSI
100
AcDbEllipse
 62
7
  6
CONTINUOUS
 10
-0.925
 20
-17.8206532958
 30
0.0
 11
2.75839524
 21
0.0
 31
0.0
 40
0.0058178298
 41
-0.0
 42
3.1415926536
  0
ELLIPSE
  5
6CF
100
AcDbEntity
  8
ASSI
100
AcDbEllipse
 62
7
  6
CONTINUOUS
 10
-0.925
 20
17.8206532958
 30
0.0
 11
2.75839524
 21
-0.0
 31
0.0
 40
0.0058178298
 41
3.1415926536
 42
6.2831853072
  0
ELLIPSE
  5
6D0
100
AcDbEntity
  8
ASSI
100
AcDbEllipse
 62
7
  6
CONTINUOUS
 10
1.4770043045
 20
-19.9021566325
 30
0.0
 11
1.0000047088
 21
-0.0000084854
 31
0.0
 40
0.0176698676
 41
0.1228361221
 42
1.5712765441
  0
ELLIPSE
  5
6D1
100
AcDbEntity
  8
ASSI
100
AcDbEllipse
 62
7
  6
CONTINUOUS
 10
1.4770043045
 20
19.9021566325
 30
0.0
 11
1.0000047088
 21
0.0000084854
 31
0.0
 40
0.0176698676
 41
-1.5712765441
 42
-0.1228361221
  0
ELLIPSE
  5
6D2
100
AcDbEntity
  8
ASSI
100
AcDbEllipse
 62
7
  6
CONTINUOUS
 10
-10.3028922769
 20
18.6108268408
 30
0.0
 11
-0.3827517265
 21
0.924044409
 31
0.0
 40
0.9998215708
 41
-0.3926359958
 42
0.3926359958
  0
ELLIPSE
  5
6D3
100
AcDbEntity
  8
ASSI
100
AcDbEllipse
 62
7
  6
CONTINUOUS
 10
8.4528922769
 20
18.6108268408
 30
0.0
 11
0.3827517265
 21
0.924044409
 31
0.0
 40
0.9998215708
 41
-0.3926359958
 42
0.3926359958
  0
ELLIPSE
  5
6D4
100
AcDbEntity
  8
ASSI
100
AcDbEllipse
 62
7
  6
CONTINUOUS
 10
8.4528922769
 20
-18.6108268408
 30
0.0
 11
-0.3827517265
 21
0.924044409
 31
0.0
 40
0.9998215708
 41
-3.5342286494
 42
-2.7489566578
  0
ELLIPSE
  5
6D5
100
AcDbEntity
  8
ASSI
100
AcDbEllipse
 62
7
  6
CONTINUOUS
 10
-10.3028922769
 20
-18.6108268408
 30
0.0
 11
0.3827517265
 21
0.924044409
 31
0.0
 40
0.9998215708
 41
-3.5342286494
 42
-2.7489566578
  0
ELLIPSE
  5
6D6
100
AcDbEntity
  8
ASSI
100
AcDbEllipse
 62
7
  6
CONTINUOUS
 10
-3.7571088656
 20
-18.3664559318
 30
0.0
 11
0.5774011102
 21
0.9999928594
 31
0.0
 40
0.0065449328
 41
-4.7086099199
 42
-3.1552668857
  0
ELLIPSE
  5
6D7
100
AcDbEntity
  8
ASSI
100
AcDbEllipse
 62
7
  6
CONTINUOUS
 10
-3.7571088656
 20
18.3664559318
 30
0.0
 11
-0.5774011102
 21
0.9999928594
 31
0.0
 40
0.0065449328
 41
0.0136742321
 42
1.5670172664
  0
ELLIPSE
  5
6D8
100
AcDbEntity
  8
ASSI
100
AcDbEllipse
 62
7
  6
CONTINUOUS
 10
1.9071088656
 20
18.3664559318
 30
0.0
 11
0.5774011102
 21
0.9999928594
 31
0.0
 40
0.0065449328
 41
-1.5670172664
 42
-0.0136742321
  0
ELLIPSE
  5
6D9
100
AcDbEntity
  8
ASSI
100
AcDbEllipse
 62
7
  6
CONTINUOUS
 10
1.9071088656
 20
-18.3664559318
 30
0.0
 11
-0.5774011102
 21
0.9999928594
 31
0.0
 40
0.0065449328
 41
-3.1279184215
 42
-1.5745753872
  0
ELLIPSE
  5
6DA
100
AcDbEntity
  8
ASSI
100
AcDbEllipse
 62
7
  6
CONTINUOUS
 10
-0.925
 20
-19.454484577
 30
0.0
 11
3.4163684853
 21
0.0
 31
0.0
 40
0.0174559514
 41
3.1402413834
 42
6.2845365774
  0
ELLIPSE
  5
6DB
100
AcDbEntity
  8
ASSI
100
AcDbEllipse
 62
7
  6
CONTINUOUS
 10
-0.925
 20
19.454484577
 30
0.0
 11
3.4163684853
 21
-0.0
 31
0.0
 40
0.0174559514
 41
-0.0013512702
 42
3.1429439238
  0
ELLIPSE
  5
6DC
100
AcDbEntity
  8
CURVE
100
AcDbEllipse
 62
253
  6
CONTINUOUS
 10
9.8929173897
 20
10.748
 30
0.0
 11
0.0
 21
0.325
 31
0.0
 40
0.0174550649
 41
-4.7123889804
 42
-1.5707963268
  0
ELLIPSE
  5
6DD
100
AcDbEntity
  8
CURVE
100
AcDbEllipse
 62
253
  6
CONTINUOUS
 10
9.8929173897
 20
15.584
 30
0.0
 11
-0.0
 21
0.325
 31
0.0
 40
0.0174550649
 41
-4.7123889804
 42
-1.5707963268
  0
ELLIPSE
  5
6DE
100
AcDbEntity
  8
CURVE
100
AcDbEllipse
 62
253
  6
CONTINUOUS
 10
9.8768063648
 20
12.1104
 30
0.0
 11
-0.0
 21
0.052
 31
0.0
 40
0.0174550649
 41
0.0
 42
6.2831853072
  0
ELLIPSE
  5
6DF
100
AcDbEntity
  8
CURVE
100
AcDbEllipse
 62
253
  6
CONTINUOUS
 10
10.1640950369
 20
4.600289
 30
0.0
 11
0.0
 21
0.8893898871
 31
0.0
 40
0.0174550649
 41
-4.313705714
 42
-1.5707963268
  0
ELLIPSE
  5
6E0
100
AcDbEntity
  8
CURVE
100
AcDbEllipse
 62
253
  6
CONTINUOUS
 10
10.1640950369
 20
4.680795
 30
0.0
 11
0.0
 21
0.352865
 31
0.0
 40
0.0174550649
 41
-4.7123889804
 42
-1.5707963268
  0
ELLIPSE
  5
6E1
100
AcDbEntity
  8
CURVE
100
AcDbEllipse
 62
253
  6
CONTINUOUS
 10
9.8872444936
 20
-6.340243
 30
0.0
 11
-0.0
 21
0.65
 31
0.0
 40
0.0174550649
 41
-4.7123889804
 42
-1.5707963268
  0
ELLIPSE
  5
6E2
100
AcDbEntity
  8
CURVE
100
AcDbEllipse
 62
253
  6
CONTINUOUS
 10
9.8872444936
 20
7.3056
 30
0.0
 11
-0.0
 21
0.65
 31
0.0
 40
0.0174550649
 41
1.5707963268
 42
4.7123889804
  0
ENDSEC
  0
SECTION
  2
OBJECTS
  0
DICTIONARY
  5
C
100
AcDbDictionary
280
0
281
1
  3
ACAD_GROUP
350
D
  3
ACAD_MLINESTYLE
350
17
  3
ACAD_LAYOUT
350
1A
  3
ACAD_PLOTSETTINGS
350
19
  3
ACAD_PLOTSTYLENAME
350
E
  0
DICTIONARY
  5
D
102
{ACAD_REACTORS
330
C
102
}
100
AcDbDictionary
280
0
281
1
  0
ACDBDICTIONARYWDFLT
  5
E
102
{ACAD_REACTORS
330
C
102
}
100
AcDbDictionary
281
1
  3
Normal
350
F
100
AcDbDictionaryWithDefault
340
F
  0
DICTIONARY
  5
17
102
{ACAD_REACTORS
330
C
102
}
100
AcDbDictionary
280
0
281
1
  3
Standard
350
18
  0
DICTIONARY
  5
19
102
{ACAD_REACTORS
330
C
102
}
100
AcDbDictionary
281
1
  0
DICTIONARY
  5
1A
102
{ACAD_REACTORS
330
C
102
}
100
AcDbDictionary
281
1
  3
Model
350
6E3
  3
Layout1
350
6E4
  0
ACDBPLACEHOLDER
  5
F
102
{ACAD_REACTORS
330
E
102
}
  0
MLINESTYLE
  5
18
102
{ACAD_REACTORS
330
17
102
}
100
AcDbMlineStyle
  2
STANDARD
 70
0
  3

 62
256
 51
90.0
 52
90.0
 71
2
 49
0.5
 62
256
  6
BYLAYER
 49
-0.5
 62
256
  6
BYLAYER
  0
LAYOUT
  5
6E3
102
{ACAD_REACTORS
330
1A
102
}
100
AcDbPlotSettings
  1

  2
none_device
  4
ISO_A4_(297.00_x_210.00_MM)
  6

 40
0.0
 41
0.0
 42
0.0
 43
0.0
 44
297.0
 45
210.0
 46
0.0
 47
0.0
 48
0.0
 49
0.0
140
0.0
141
0.0
142
1.0
143
1.0
 70
1024
 72
1
 73
0
 74
0
  7

 75
0
147
1.0
148
0.0
149
0.0
100
AcDbLayout
  1
Model
 70
0
 71
0
 10
0.0
 20
0.0
 11
297.0
 21
210.0
 12
0.0
 22
0.0
 32
0.0
 14
0.0
 24
0.0
 34
0.0
 15
0.0
 25
0.0
 35
0.0
146
0.0
 13
0.0
 23
0.0
 33
0.0
 16
1.0
 26
0.0
 36
0.0
 17
0.0
 27
1.0
 37
0.0
 76
0
330
212
345
0
346
0
  0
LAYOUT
  5
6E4
102
{ACAD_REACTORS
330
1A
102
}
100
AcDbPlotSettings
  1

  2
none_device
  4
ISO_A4_(297.00_x_210.00_MM)
  6

 40
0.0
 41
0.0
 42
0.0
 43
0.0
 44
297.0
 45
210.0
 46
0.0
 47
0.0
 48
0.0
 49
0.0
140
0.0
141
0.0
142
1.0
143
1.0
 70
0
 72
1
 73
0
 74
0
  7

 75
0
147
1.0
148
0.0
149
0.0
100
AcDbLayout
  1
Layout1
 70
0
 71
1
 10
0.0
 20
0.0
 11
297.0
 21
210.0
 12
0.0
 22
0.0
 32
0.0
 14
0.0
 24
0.0
 34
0.0
 15
0.0
 25
0.0
 35
0.0
146
0.0
 13
0.0
 23
0.0
 33
0.0
 16
1.0
 26
0.0
 36
0.0
 17
0.0
 27
1.0
 37
0.0
 76
0
330
213
345
0
346
0
  0
ENDSEC
  0
EOF
