  0
SECTION
  2
HEADER
  9
$ACADVER
  1
AC1024
  9
$DWGCODEPAGE
  3
ANSI_1252
  9
$EXTMAX
 10
297.0
 20
210.0
 30
0.0
  9
$EXTMIN
 10
0.0
 20
0.0
 30
0.0
  9
$LIMMIN
 10
0.0
 20
0.0
  9
$LIMMAX
 10
297.0
 20
210.0
  9
$VIEWCTR
 10
148.5
 20
105.0
  9
$VIEWSIZE
 40
210.0
  9
$CLAYER
  8
0
  9
$LTSCALE
 40
16.335
  9
$CELTYPE
  6
BYLAYER
  9
$DIMSCALE
 40
1.0
  9
$DIMASZ
 40
3.0
  9
$DIMEXO
 40
0.5
  9
$DIMDLI
 40
11.286
  9
$DIMEXE
 40
1.5
  9
$DIMCEN
 40
2.673
  9
$DIMLFAC
 40
1.0
  9
$DIMBLK
  1
_FILLED
  9
$DIMALT
 70
0
  9
$DIMALTF
 40
0.0393700787
  9
$DIMTXT
 40
3.0
  9
$DIMTOL
 70
1
  9
$DIMLIM
 70
0
  9
$DIMTFAC
 40
1.0
  9
$DIMTP
 40
0.01
  9
$DIMTM
 40
0.01
  9
$DIMGAP
 40
0.625
  9
$DIMDSEP
 70
44
  9
$AUNITS
 70
0
  9
$PDMODE
 70
3
  9
$PDSIZE
 40
3.0
  9
$HANDSEED
  5
767
  9
$TILEMODE
 70
1
  9
$MEASUREMENT
 70
1
  9
$INSUNITS
 70
4
  0
ENDSEC
  0
SECTION
  2
CLASSES
  0
CLASS
  1
ACDBDICTIONARYWDFLT
  2
AcDbDictionaryWithDefault
  3
AutoCAD 2000
 90
0
 91
1
280
0
281
0
  0
CLASS
  1
ACDBPLACEHOLDER
  2
AcDbPlaceHolder
  3
AutoCAD 2000
 90
0
 91
1
280
0
281
0
  0
CLASS
  1
LAYOUT
  2
AcDbLayout
  3
AutoCAD 2000
 90
0
 91
0
280
0
281
0
  0
ENDSEC
  0
SECTION
  2
TABLES
  0
TABLE
  2
VPORT
  5
8
100
AcDbSymbolTable
 70
2
  0
VPORT
  5
1F4
100
AcDbSymbolTableRecord
100
AcDbViewportTableRecord
  2
*ACTIVE
 70
0
 10
0.0
 20
0.0
 11
1.0
 21
1.0
 12
148.5
 22
105.0
 13
0.0
 23
0.0
 14
1.0
 24
1.0
 15
0.0
 25
0.0
 16
0.0
 26
0.0
 36
1.0
 17
0.0
 27
0.0
 37
0.0
 40
210.0
 41
1.4142857143
 42
50.0
 43
0.0
 44
0.0
 50
0.0
 51
0.0
 71
0
 72
100
 73
1
 74
1
 75
0
 76
0
 77
0
 78
0
  0
ENDTAB
  0
TABLE
  2
LTYPE
  5
5
100
AcDbSymbolTable
 70
6
  0
LTYPE
  5
14
100
AcDbSymbolTableRecord
100
AcDbLinetypeTableRecord
  2
BYBLOCK
 70
0
  3

 72
65
 73
0
 40
0.0
  0
LTYPE
  5
15
100
AcDbSymbolTableRecord
100
AcDbLinetypeTableRecord
  2
BYLAYER
 70
0
  3

 72
65
 73
0
 40
0.0
  0
LTYPE
  5
16
100
AcDbSymbolTableRecord
100
AcDbLinetypeTableRecord
  2
CONTINUOUS
 70
64
  3
Solid line
 72
65
 73
0
 40
0.0
  0
LTYPE
  5
1F5
100
AcDbSymbolTableRecord
100
AcDbLinetypeTableRecord
  2
CENTER
 70
64
  3
____ _ ____ _ ____ _ ____ _ ____ _ ____ _ ____
 72
65
 73
4
 40
0.6
 49
0.375
 74
0
 49
-0.075
 74
0
 49
0.075
 74
0
 49
-0.075
 74
0
  0
LTYPE
  5
1F6
100
AcDbSymbolTableRecord
100
AcDbLinetypeTableRecord
  2
HIDDEN
 70
64
  3
- - - - - - - - - - - - - - - - - - - -
 72
65
 73
2
 40
0.2
 49
0.1
 74
0
 49
-0.1
 74
0
  0
LTYPE
  5
1F7
100
AcDbSymbolTableRecord
100
AcDbLinetypeTableRecord
  2
PHANTOM
 70
64
  3
_____ _ _ _____ _ _ _____ _ _ _____
 72
65
 73
6
 40
0.8
 49
0.45
 74
0
 49
-0.05
 74
0
 49
0.1
 74
0
 49
-0.05
 74
0
 49
0.1
 74
0
 49
-0.05
 74
0
  0
LTYPE
  5
1F8
100
AcDbSymbolTableRecord
100
AcDbLinetypeTableRecord
  2
DOT
 70
64
  3
. . . . . . . . . . . . . . . . . . . .
 72
65
 73
2
 40
0.2
 49
0.1
 74
0
 49
-0.1
 74
0
  0
LTYPE
  5
1F9
100
AcDbSymbolTableRecord
100
AcDbLinetypeTableRecord
  2
DASHED
 70
64
  3
- - - - - - - - - - - - - - - - - - - -
 72
65
 73
2
 40
0.2
 49
0.1
 74
0
 49
-0.1
 74
0
  0
ENDTAB
  0
TABLE
  2
LAYER
  5
2
100
AcDbSymbolTable
 70
36
  0
LAYER
  5
10
100
AcDbSymbolTableRecord
100
AcDbLayerTableRecord
  2
0
 70
0
 62
7
  6
CONTINUOUS
370
-3
390
F
  0
LAYER
  5
1FA
100
AcDbSymbolTableRecord
100
AcDbLayerTableRecord
  2
DEFAULT_1
 70
0
 62
7
  6
CENTER
370
-3
390
F
  0
LAYER
  5
1FB
100
AcDbSymbolTableRecord
100
AcDbLayerTableRecord
  2
DEFAULT_2
 70
0
 62
7
  6
HIDDEN
370
-3
390
F
  0
LAYER
  5
1FC
100
AcDbSymbolTableRecord
100
AcDbLayerTableRecord
  2
DEFAULT_3
 70
0
 62
7
  6
PHANTOM
370
-3
390
F
  0
LAYER
  5
1FD
100
AcDbSymbolTableRecord
100
AcDbLayerTableRecord
  2
ASSI
 70
0
 62
7
  6
CONTINUOUS
370
-3
390
F
  0
LAYER
  5
1FE
100
AcDbSymbolTableRecord
100
AcDbLayerTableRecord
  2
COORDINATE
 70
0
 62
7
  6
CONTINUOUS
370
-3
390
F
  0
LAYER
  5
1FF
100
AcDbSymbolTableRecord
100
AcDbLayerTableRecord
  2
COORD_ORIGINE
 70
0
 62
7
  6
CONTINUOUS
370
-3
390
F
  0
LAYER
  5
200
100
AcDbSymbolTableRecord
100
AcDbLayerTableRecord
  2
COSMETICHE
 70
0
 62
7
  6
CONTINUOUS
370
-3
390
F
  0
LAYER
  5
201
100
AcDbSymbolTableRecord
100
AcDbLayerTableRecord
  2
CURVE
 70
0
 62
7
  6
CONTINUOUS
370
-3
390
F
  0
LAYER
  5
202
100
AcDbSymbolTableRecord
100
AcDbLayerTableRecord
  2
DRAFT
 70
0
 62
7
  6
CONTINUOUS
370
-3
390
F
  0
LAYER
  5
203
100
AcDbSymbolTableRecord
100
AcDbLayerTableRecord
  2
IMPORT_INC
 70
0
 62
7
  6
CONTINUOUS
370
-3
390
F
  0
LAYER
  5
204
100
AcDbSymbolTableRecord
100
AcDbLayerTableRecord
  2
INTF_1
 70
0
 62
7
  6
CONTINUOUS
370
-3
390
F
  0
LAYER
  5
205
100
AcDbSymbolTableRecord
100
AcDbLayerTableRecord
  2
INTF_11
 70
0
 62
7
  6
CONTINUOUS
370
-3
390
F
  0
LAYER
  5
206
100
AcDbSymbolTableRecord
100
AcDbLayerTableRecord
  2
INTF_GREEN
 70
0
 62
7
  6
CONTINUOUS
370
-3
390
F
  0
LAYER
  5
207
100
AcDbSymbolTableRecord
100
AcDbLayerTableRecord
  2
NOTE
 70
0
 62
7
  6
CONTINUOUS
370
-3
390
F
  0
LAYER
  5
208
100
AcDbSymbolTableRecord
100
AcDbLayerTableRecord
  2
PIANI
 70
0
 62
7
  6
CONTINUOUS
370
-3
390
F
  0
LAYER
  5
209
100
AcDbSymbolTableRecord
100
AcDbLayerTableRecord
  2
PIANI_ORIGINE
 70
0
 62
7
  6
CONTINUOUS
370
-3
390
F
  0
LAYER
  5
20A
100
AcDbSymbolTableRecord
100
AcDbLayerTableRecord
  2
PIANI_RIFERIMENTO
 70
0
 62
7
  6
CONTINUOUS
370
-3
390
F
  0
LAYER
  5
20B
100
AcDbSymbolTableRecord
100
AcDbLayerTableRecord
  2
PIANI_SFORMO
 70
0
 62
7
  6
CONTINUOUS
370
-3
390
F
  0
LAYER
  5
20C
100
AcDbSymbolTableRecord
100
AcDbLayerTableRecord
  2
PUNTI
 70
0
 62
7
  6
CONTINUOUS
370
-3
390
F
  0
LAYER
  5
20D
100
AcDbSymbolTableRecord
100
AcDbLayerTableRecord
  2
RACCORDO
 70
0
 62
7
  6
CONTINUOUS
370
-3
390
F
  0
LAYER
  5
20E
100
AcDbSymbolTableRecord
100
AcDbLayerTableRecord
  2
SMUSSO
 70
0
 62
7
  6
CONTINUOUS
370
-3
390
F
  0
LAYER
  5
20F
100
AcDbSymbolTableRecord
100
AcDbLayerTableRecord
  2
SUPERFICI
 70
0
 62
7
  6
CONTINUOUS
370
-3
390
F
  0
LAYER
  5
210
100
AcDbSymbolTableRecord
100
AcDbLayerTableRecord
  2
TRASH
 70
0
 62
7
  6
CONTINUOUS
370
-3
390
F
  0
LAYER
  5
211
100
AcDbSymbolTableRecord
100
AcDbLayerTableRecord
  2
XSEC_DATUMS
 70
0
 62
7
  6
CONTINUOUS
370
-3
390
F
  0
ENDTAB
  0
TABLE
  2
STYLE
  5
3
100
AcDbSymbolTable
 70
1
  0
STYLE
  5
11
100
AcDbSymbolTableRecord
100
AcDbTextStyleTableRecord
  2
STANDARD
 70
0
 40
0.0
 41
0.8
 50
0.0
 71
0
 42
0.2
  3
txt
  4

  0
STYLE
  5
212
100
AcDbSymbolTableRecord
100
AcDbTextStyleTableRecord
  2
TEXTSTYLE_1
 70
0
 40
0.0
 41
0.8
 50
0.0
 71
0
 42
0.2
  3
gdt
  4

  0
ENDTAB
  0
TABLE
  2
VIEW
  5
6
100
AcDbSymbolTable
 70
0
  0
ENDTAB
  0
TABLE
  2
UCS
  5
7
100
AcDbSymbolTable
 70
0
  0
ENDTAB
  0
TABLE
  2
APPID
  5
9
100
AcDbSymbolTable
 70
1
  0
APPID
  5
213
100
AcDbSymbolTableRecord
100
AcDbRegAppTableRecord
  2
ACAD
 70
0
  0
ENDTAB
  0
TABLE
  2
BLOCK_RECORD
  5
1
100
AcDbSymbolTable
 70
0
  0
BLOCK_RECORD
  5
214
100
AcDbSymbolTableRecord
100
AcDbBlockTableRecord
  2
*Model_Space
  0
BLOCK_RECORD
  5
215
100
AcDbSymbolTableRecord
100
AcDbBlockTableRecord
  2
*Paper_Space
  0
BLOCK_RECORD
  5
216
100
AcDbSymbolTableRecord
100
AcDbBlockTableRecord
  2
_FILLED
  0
ENDTAB
  0
TABLE
  2
DIMSTYLE
  5
A
100
AcDbSymbolTable
 70
1
100
AcDbDimStyleTable
 71
0
  0
DIMSTYLE
105
217
100
AcDbSymbolTableRecord
100
AcDbDimStyleTableRecord
  2
STANDARD
 70
0
  3

  4

 40
1.0
 41
3.0
 42
0.5
 43
0.38
 44
1.5
 45
0.0
 46
0.0
 47
0.01
 48
0.01
140
3.0
141
0.09
142
0.0
143
25.4
144
1.0
145
0.0
146
1.0
147
0.625
 71
1
 72
0
 73
0
 74
0
 75
0
 76
0
 77
1
 78
8
 79
2
170
0
171
1
172
0
173
0
174
0
175
0
176
0
177
0
178
0
270
2
179
2
271
2
272
2
273
2
274
2
275
0
280
0
281
0
282
0
283
1
284
8
285
0
286
0
287
3
288
0
340
11
278
44
341
216
342
216
343
216
344
216
  0
ENDTAB
  0
ENDSEC
  0
SECTION
  2
BLOCKS
  0
BLOCK
  5
20
100
AcDbEntity
  8
0
100
AcDbBlockBegin
  2
*Model_Space
 70
0
 10
0.0
 20
0.0
 30
0.0
  3
*Model_Space
  1

  0
ENDBLK
  5
21
100
AcDbEntity
  8
0
100
AcDbBlockEnd
  0
BLOCK
  5
1C
100
AcDbEntity
  8
0
100
AcDbBlockBegin
  2
*Paper_Space
 70
0
 10
0.0
 20
0.0
 30
0.0
  3
*Paper_Space
  1

  0
ENDBLK
  5
1D
100
AcDbEntity
  8
0
100
AcDbBlockEnd
  0
BLOCK
  5
218
100
AcDbEntity
  8
0
100
AcDbBlockBegin
  2
_FILLED
 70
64
 10
0.0
 20
0.0
  3
_FILLED
  1

  0
SOLID
  5
219
100
AcDbEntity
  8
0
  6
BYBLOCK
 62
0
100
AcDbTrace
 10
0.0
 20
0.0
 11
-1.0
 21
0.3166666667
 12
-1.0
 22
-0.3166666667
 13
-1.0
 23
-0.3166666667
  0
ENDBLK
  5
21A
100
AcDbEntity
  8
0
  6
BYBLOCK
 62
0
100
AcDbBlockEnd
  0
ENDSEC
  0
SECTION
  2
ENTITIES
  0
LINE
  5
21B
100
AcDbEntity
  8
RACCORDO
100
AcDbLine
 62
250
  6
CONTINUOUS
 10
-8.5043676032
 20
24.495628166
 11
-8.4999957692
 21
24.5
  0
LINE
  5
21C
100
AcDbEntity
  8
RACCORDO
100
AcDbLine
 62
250
  6
CONTINUOUS
 10
-10.6998629074
 20
22.3912731322
 11
-10.6824078424
 21
22.4
  0
LWPOLYLINE
  5
21D
100
AcDbEntity
  8
RACCORDO
100
AcDbPolyline
 62
7
  6
CONTINUOUS
 90
11
 70
0
 10
-10.8836664589
 20
22.352503122
 10
-10.8695971712
 20
22.3592350762
 10
-10.8499161851
 20
22.3676761448
 10
-10.8298547902
 20
22.375171735
 10
-10.8094578571
 20
22.3817047778
 10
-10.7887801245
 20
22.3872580713
 10
-10.7678599152
 20
22.3918216515
 10
-10.7467176429
 20
22.3953887516
 10
-10.7253915966
 20
22.3979479935
 10
-10.7039387579
 20
22.3994876502
 10
-10.6824078424
 20
22.4
  0
LINE
  5
21E
100
AcDbEntity
  8
RACCORDO
100
AcDbLine
 62
7
  6
CONTINUOUS
 10
-10.4000042308
 20
-24.5
 11
-8.4999957692
 21
-24.5
  0
LINE
  5
21F
100
AcDbEntity
  8
RACCORDO
100
AcDbLine
 62
7
  6
CONTINUOUS
 10
8.4999957692
 20
-24.5
 11
10.4000042308
 21
-24.5
  0
LINE
  5
220
100
AcDbEntity
  8
RACCORDO
100
AcDbLine
 62
250
  6
CONTINUOUS
 10
-10.3956323968
 20
-24.495628166
 11
-8.5043676032
 21
-24.495628166
  0
LINE
  5
221
100
AcDbEntity
  8
RACCORDO
100
AcDbLine
 62
250
  6
CONTINUOUS
 10
8.5043676032
 20
-24.495628166
 11
10.3956323968
 21
-24.495628166
  0
LINE
  5
222
100
AcDbEntity
  8
RACCORDO
100
AcDbLine
 62
250
  6
CONTINUOUS
 10
8.254371834
 20
-24.2456323968
 11
10.645628166
 21
-24.2456323968
  0
LINE
  5
223
100
AcDbEntity
  8
RACCORDO
100
AcDbLine
 62
250
  6
CONTINUOUS
 10
-8.254371834
 20
-24.2456323968
 11
-10.645628166
 21
-24.2456323968
  0
LINE
  5
224
100
AcDbEntity
  8
RACCORDO
100
AcDbLine
 62
250
  6
CONTINUOUS
 10
8.254371834
 20
-23.8443375673
 11
10.645628166
 21
-23.8443375673
  0
LINE
  5
225
100
AcDbEntity
  8
RACCORDO
100
AcDbLine
 62
250
  6
CONTINUOUS
 10
-8.254371834
 20
-23.8443375673
 11
-10.645628166
 21
-23.8443375673
  0
LINE
  5
226
100
AcDbEntity
  8
DRAFT
100
AcDbLine
 62
7
  6
CONTINUOUS
 10
-4.4
 20
-23.8
 11
4.4
 21
-23.8
  0
LINE
  5
227
100
AcDbEntity
  8
DRAFT
100
AcDbLine
 62
7
  6
CONTINUOUS
 10
-3.5
 20
-23.7941821702
 11
3.5
 21
-23.7941821702
  0
LINE
  5
228
100
AcDbEntity
  8
ASSI
100
AcDbLine
 62
250
  6
CONTINUOUS
 10
-4.3563493531
 20
-23.7563493531
 11
-3.5
 21
-23.7563493531
  0
LINE
  5
229
100
AcDbEntity
  8
ASSI
100
AcDbLine
 62
250
  6
CONTINUOUS
 10
3.5
 20
-23.7563493531
 11
4.3563493531
 21
-23.7563493531
  0
LINE
  5
22A
100
AcDbEntity
  8
RACCORDO
100
AcDbLine
 62
250
  6
CONTINUOUS
 10
10.3956323968
 20
-23.6278312164
 11
8.5043676032
 21
-23.6278312164
  0
LINE
  5
22B
100
AcDbEntity
  8
RACCORDO
100
AcDbLine
 62
250
  6
CONTINUOUS
 10
-8.5043676032
 20
-23.6278312164
 11
-10.3956323968
 21
-23.6278312164
  0
LINE
  5
22C
100
AcDbEntity
  8
ASSI
100
AcDbLine
 62
250
  6
CONTINUOUS
 10
-3.9358937422
 20
-23.2563578147
 11
-3.92
 21
-23.2563578147
  0
LINE
  5
22D
100
AcDbEntity
  8
ASSI
100
AcDbLine
 62
250
  6
CONTINUOUS
 10
3.92
 20
-23.2563578147
 11
3.9358937422
 21
-23.2563578147
  0
LINE
  5
22E
100
AcDbEntity
  8
RACCORDO
100
AcDbLine
 62
7
  6
CONTINUOUS
 10
10.4007229979
 20
-23.1226497308
 11
8.4992770021
 21
-23.1226497308
  0
LINE
  5
22F
100
AcDbEntity
  8
RACCORDO
100
AcDbLine
 62
7
  6
CONTINUOUS
 10
-8.4992770021
 20
-23.1226497308
 11
-10.4007229979
 21
-23.1226497308
  0
LWPOLYLINE
  5
230
100
AcDbEntity
  8
RACCORDO
100
AcDbPolyline
 62
7
  6
CONTINUOUS
 90
34
 70
0
 10
-10.4000042308
 20
-24.5
 10
-10.411899516
 20
-24.4997168498
 10
-10.4237678556
 20
-24.4988680342
 10
-10.4355823661
 20
-24.4974554741
 10
-10.4473162875
 20
-24.4954823677
 10
-10.4589430388
 20
-24.4929531817
 10
-10.470436279
 20
-24.4898736417
 10
-10.4817699738
 20
-24.4862507213
 10
-10.4929184493
 20
-24.4820926258
 10
-10.5038564463
 20
-24.4774087722
 10
-10.5145591876
 20
-24.4722097688
 10
-10.5250024283
 20
-24.4665073916
 10
-10.5351625059
 20
-24.4603145581
 10
-10.5450164051
 20
-24.4536452955
 10
-10.5545418038
 20
-24.4465147107
 10
-10.5637171191
 20
-24.4389389589
 10
-10.5725215661
 20
-24.4309352005
 10
-10.5809352005
 20
-24.4225215661
 10
-10.5889389589
 20
-24.4137171191
 10
-10.5965147107
 20
-24.4045418038
 10
-10.6036452955
 20
-24.3950164051
 10
-10.6103145581
 20
-24.3851625059
 10
-10.6165073916
 20
-24.3750024283
 10
-10.6222097688
 20
-24.3645591876
 10
-10.6274087722
 20
-24.3538564463
 10
-10.6320926258
 20
-24.3429184493
 10
-10.6362507213
 20
-24.3317699738
 10
-10.6398736417
 20
-24.320436279
 10
-10.6429531817
 20
-24.3089430388
 10
-10.6454823677
 20
-24.2973162875
 10
-10.6474554741
 20
-24.2855823661
 10
-10.6488680342
 20
-24.2737678556
 10
-10.6497168498
 20
-24.261899516
 10
-10.65
 20
-24.2500042308
  0
LWPOLYLINE
  5
231
100
AcDbEntity
  8
RACCORDO
100
AcDbPolyline
 62
7
  6
CONTINUOUS
 90
34
 70
0
 10
8.4999957692
 20
-24.5
 10
8.488100484
 20
-24.4997168498
 10
8.4762321444
 20
-24.4988680342
 10
8.4644176339
 20
-24.4974554741
 10
8.4526837125
 20
-24.4954823677
 10
8.4410569612
 20
-24.4929531817
 10
8.429563721
 20
-24.4898736417
 10
8.4182300262
 20
-24.4862507213
 10
8.4070815507
 20
-24.4820926258
 10
8.3961435537
 20
-24.4774087722
 10
8.3854408124
 20
-24.4722097688
 10
8.3749975717
 20
-24.4665073916
 10
8.3648374941
 20
-24.4603145581
 10
8.3549835949
 20
-24.4536452955
 10
8.3454581962
 20
-24.4465147107
 10
8.3362828809
 20
-24.4389389589
 10
8.3274784339
 20
-24.4309352005
 10
8.3190647995
 20
-24.4225215661
 10
8.3110610411
 20
-24.4137171191
 10
8.3034852893
 20
-24.4045418038
 10
8.2963547045
 20
-24.3950164051
 10
8.2896854419
 20
-24.3851625059
 10
8.2834926084
 20
-24.3750024283
 10
8.2777902312
 20
-24.3645591876
 10
8.2725912278
 20
-24.3538564463
 10
8.2679073742
 20
-24.3429184493
 10
8.2637492787
 20
-24.3317699738
 10
8.2601263583
 20
-24.320436279
 10
8.2570468183
 20
-24.3089430388
 10
8.2545176323
 20
-24.2973162875
 10
8.2525445259
 20
-24.2855823661
 10
8.2511319658
 20
-24.2737678556
 10
8.2502831502
 20
-24.261899516
 10
8.25
 20
-24.2500042308
  0
LWPOLYLINE
  5
232
100
AcDbEntity
  8
RACCORDO
100
AcDbPolyline
 62
250
  6
CONTINUOUS
 90
31
 70
0
 10
-10.3956323968
 20
-24.495628166
 10
-10.4086847368
 20
-24.4952867588
 10
-10.4217096311
 20
-24.4942634962
 10
-10.4346714057
 20
-24.492559892
 10
-10.4475371245
 20
-24.4901787618
 10
-10.4602685897
 20
-24.4871256484
 10
-10.4728227742
 20
-24.4834102087
 10
-10.4851625782
 20
-24.4790436576
 10
-10.4972569343
 20
-24.4740372277
 10
-10.5090730125
 20
-24.4684044791
 10
-10.520578613
 20
-24.4621606774
 10
-10.5317419314
 20
-24.4553229956
 10
-10.5425320106
 20
-24.4479103656
 10
-10.5529191364
 20
-24.4399432233
 10
-10.5628749736
 20
-24.4314433264
 10
-10.572372308
 20
-24.4224339046
 10
-10.5813851271
 20
-24.4129396114
 10
-10.5898886687
 20
-24.402986508
 10
-10.5978595768
 20
-24.3926019187
 10
-10.6052759837
 20
-24.3818143284
 10
-10.6121175595
 20
-24.3706533025
 10
-10.6183655387
 20
-24.3591494467
 10
-10.6240027869
 20
-24.347334301
 10
-10.6290138424
 20
-24.3352402638
 10
-10.6333849575
 20
-24.3229005077
 10
-10.637104147
 20
-24.3103488602
 10
-10.6401612081
 20
-24.2976197463
 10
-10.6425477509
 20
-24.2847481067
 10
-10.644257234
 20
-24.2717692492
 10
-10.645284977
 20
-24.2587187509
 10
-10.645628166
 20
-24.2456323968
  0
LWPOLYLINE
  5
233
100
AcDbEntity
  8
RACCORDO
100
AcDbPolyline
 62
250
  6
CONTINUOUS
 90
31
 70
0
 10
8.5043676032
 20
-24.495628166
 10
8.4912841172
 20
-24.4952851274
 10
8.4782364906
 20
-24.4942578375
 10
8.4652604845
 20
-24.492549112
 10
8.4523916636
 20
-24.490163634
 10
8.4396652991
 20
-24.4871079418
 10
8.4271162714
 20
-24.4833904104
 10
8.4147789751
 20
-24.4790212289
 10
8.4026872245
 20
-24.4740123724
 10
8.3908741607
 20
-24.4683775693
 10
8.3793721611
 20
-24.4621322634
 10
8.3682127506
 20
-24.455293572
 10
8.357426515
 20
-24.4478802386
 10
8.3470430174
 20
-24.4399125818
 10
8.3370907169
 20
-24.4314124395
 10
8.327596891
 20
-24.422403109
 10
8.3185875605
 20
-24.4129092831
 10
8.3100874182
 20
-24.4029569826
 10
8.3021197614
 20
-24.392573485
 10
8.294706428
 20
-24.3817872494
 10
8.2878677366
 20
-24.3706278389
 10
8.2816224307
 20
-24.3591258393
 10
8.2759876276
 20
-24.3473127755
 10
8.2709787711
 20
-24.3352210249
 10
8.2666095896
 20
-24.3228837286
 10
8.2628920582
 20
-24.3103347009
 10
8.259836366
 20
-24.2976083364
 10
8.257450888
 20
-24.2847395155
 10
8.2557421625
 20
-24.2717635094
 10
8.2547148726
 20
-24.2587158828
 10
8.254371834
 20
-24.2456323968
  0
LWPOLYLINE
  5
234
100
AcDbEntity
  8
RACCORDO
100
AcDbPolyline
 62
7
  6
CONTINUOUS
 90
11
 70
0
 10
-10.8836665627
 20
-22.3525030702
 10
-10.8695108605
 20
-22.3592745363
 10
-10.849823837
 20
-22.367713156
 10
-10.8297589462
 20
-22.3752049444
 10
-10.8093622186
 20
-22.3817328934
 10
-10.7886885466
 20
-22.3872803189
 10
-10.7677763556
 20
-22.3918377837
 10
-10.7466471556
 20
-22.3953989044
 10
-10.7253396075
 20
-22.3979529639
 10
-10.7039103021
 20
-22.3994890033
 10
-10.6824078424
 20
-22.4
  0
LINE
  5
235
100
AcDbEntity
  8
RACCORDO
100
AcDbLine
 62
250
  6
CONTINUOUS
 10
-10.6824078424
 20
-22.4
 11
-10.6998629074
 21
-22.3912731322
  0
LINE
  5
236
100
AcDbEntity
  8
RACCORDO
100
AcDbLine
 62
250
  6
CONTINUOUS
 10
-8.5043676032
 20
-24.495628166
 11
-8.4999957692
 21
-24.5
  0
LINE
  5
237
100
AcDbEntity
  8
RACCORDO
100
AcDbLine
 62
250
  6
CONTINUOUS
 10
-8.254371834
 20
24.2456323968
 11
-8.25
 21
24.2500042308
  0
LINE
  5
238
100
AcDbEntity
  8
RACCORDO
100
AcDbLine
 62
7
  6
CONTINUOUS
 10
-8.0840245667
 20
20.9917082642
 11
-8.2465127091
 21
20.9104703804
  0
LINE
  5
239
100
AcDbEntity
  8
RACCORDO
100
AcDbLine
 62
7
  6
CONTINUOUS
 10
-10.682892023
 20
-22.4
 11
-10.65
 21
-22.4
  0
LINE
  5
23A
100
AcDbEntity
  8
DRAFT
100
AcDbLine
 62
7
  6
CONTINUOUS
 10
4.4
 20
-22.4
 11
10.65
 21
-22.4
  0
LINE
  5
23B
100
AcDbEntity
  8
RACCORDO
100
AcDbLine
 62
7
  6
CONTINUOUS
 10
10.65
 20
-22.4
 11
10.6828874748
 21
-22.4
  0
LINE
  5
23C
100
AcDbEntity
  8
DRAFT
100
AcDbLine
 62
7
  6
CONTINUOUS
 10
-4.4
 20
-22.4
 11
-10.65
 21
-22.4
  0
LINE
  5
23D
100
AcDbEntity
  8
RACCORDO
100
AcDbLine
 62
7
  6
CONTINUOUS
 10
-10.6998629074
 20
-22.3912731322
 11
-7.2587268678
 21
-22.3912731322
  0
LINE
  5
23E
100
AcDbEntity
  8
RACCORDO
100
AcDbLine
 62
7
  6
CONTINUOUS
 10
7.2587268678
 20
-22.3912731322
 11
10.6998629074
 21
-22.3912731322
  0
LINE
  5
23F
100
AcDbEntity
  8
DRAFT
100
AcDbLine
 62
7
  6
CONTINUOUS
 10
3.5
 20
-22.3380392387
 11
3.0
 21
-22.3380392387
  0
LINE
  5
240
100
AcDbEntity
  8
DRAFT
100
AcDbLine
 62
7
  6
CONTINUOUS
 10
-3.0
 20
-22.3380392387
 11
-3.5
 21
-22.3380392387
  0
LINE
  5
241
100
AcDbEntity
  8
DRAFT
100
AcDbLine
 62
7
  6
CONTINUOUS
 10
-3.9358937422
 20
-22.3301850577
 11
-3.92
 21
-22.3301850577
  0
LINE
  5
242
100
AcDbEntity
  8
DRAFT
100
AcDbLine
 62
7
  6
CONTINUOUS
 10
3.92
 20
-22.3301850577
 11
3.9358937422
 21
-22.3301850577
  0
LINE
  5
243
100
AcDbEntity
  8
RACCORDO
100
AcDbLine
 62
250
  6
CONTINUOUS
 10
-7.3373448332
 20
-22.3126551668
 11
-3.0
 21
-22.3126551668
  0
LINE
  5
244
100
AcDbEntity
  8
RACCORDO
100
AcDbLine
 62
250
  6
CONTINUOUS
 10
3.0
 20
-22.3126551668
 11
7.3373448332
 21
-22.3126551668
  0
LINE
  5
245
100
AcDbEntity
  8
0
100
AcDbLine
 62
7
  6
CONTINUOUS
 10
3.0
 20
-21.7
 11
-3.0
 21
-21.7
  0
LINE
  5
246
100
AcDbEntity
  8
RACCORDO
100
AcDbLine
 62
250
  6
CONTINUOUS
 10
-7.5841007192
 20
-21.3126932437
 11
-3.0
 21
-21.3126932437
  0
LINE
  5
247
100
AcDbEntity
  8
RACCORDO
100
AcDbLine
 62
250
  6
CONTINUOUS
 10
3.0
 20
-21.3126932437
 11
7.5841007192
 21
-21.3126932437
  0
LINE
  5
248
100
AcDbEntity
  8
RACCORDO
100
AcDbLine
 62
7
  6
CONTINUOUS
 10
-8.0840245667
 20
-20.9917082642
 11
-8.2465127091
 21
-20.9104703804
  0
LINE
  5
249
100
AcDbEntity
  8
RACCORDO
100
AcDbLine
 62
250
  6
CONTINUOUS
 10
-8.254371834
 20
-24.2456323968
 11
-8.25
 21
-24.2500042308
  0
LINE
  5
24A
100
AcDbEntity
  8
DRAFT
100
AcDbLine
 62
7
  6
CONTINUOUS
 10
-8.9
 20
20.9
 11
-9.65
 21
20.15
  0
LINE
  5
24B
100
AcDbEntity
  8
ASSI
100
AcDbLine
 62
7
  6
CONTINUOUS
 10
-8.8
 20
20.85
 11
-10.5643027805
 21
19.0856972195
  0
LINE
  5
24C
100
AcDbEntity
  8
RACCORDO
100
AcDbLine
 62
7
  6
CONTINUOUS
 10
-8.25
 20
21.4
 11
-7.2587268678
 21
22.3912731322
  0
LINE
  5
24D
100
AcDbEntity
  8
ASSI
100
AcDbLine
 62
7
  6
CONTINUOUS
 10
-10.3897521312
 20
19.0133959733
 11
-8.5531481045
 21
20.85
  0
LINE
  5
24E
100
AcDbEntity
  8
ASSI
100
AcDbLine
 62
7
  6
CONTINUOUS
 10
-3.2239528279
 20
-19.8920993775
 11
-3.1214870368
 21
-19.8898925864
  0
LINE
  5
24F
100
AcDbEntity
  8
ASSI
100
AcDbLine
 62
7
  6
CONTINUOUS
 10
-3.1214870368
 20
-19.8898925864
 11
-3.0009620703
 21
-19.8880130796
  0
LINE
  5
250
100
AcDbEntity
  8
ASSI
100
AcDbLine
 62
7
  6
CONTINUOUS
 10
-3.0009620703
 20
-19.8880130796
 11
-2.864745561
 21
-19.8864962431
  0
LINE
  5
251
100
AcDbEntity
  8
ASSI
100
AcDbLine
 62
7
  6
CONTINUOUS
 10
-2.864745561
 20
-19.8864962431
 11
-2.716563145
 21
-19.8853877661
  0
LINE
  5
252
100
AcDbEntity
  8
ASSI
100
AcDbLine
 62
7
  6
CONTINUOUS
 10
-2.716563145
 20
-19.8853877661
 11
-2.5616489728
 21
-19.8847148304
  0
LINE
  5
253
100
AcDbEntity
  8
0
100
AcDbLine
 62
7
  6
CONTINUOUS
 10
-3.0
 20
-21.0
 11
3.0
 21
-21.0
  0
LINE
  5
254
100
AcDbEntity
  8
RACCORDO
100
AcDbLine
 62
7
  6
CONTINUOUS
 10
-7.5841007192
 20
-20.9959955457
 11
-7.2418217019
 21
-20.9959955457
  0
LINE
  5
255
100
AcDbEntity
  8
RACCORDO
100
AcDbLine
 62
7
  6
CONTINUOUS
 10
7.2418217019
 20
-20.9959955457
 11
7.5841007192
 21
-20.9959955457
  0
LINE
  5
256
100
AcDbEntity
  8
DRAFT
100
AcDbLine
 62
7
  6
CONTINUOUS
 10
-8.2465127091
 20
-20.9104703804
 11
-7.2988376746
 21
-20.9104703804
  0
LINE
  5
257
100
AcDbEntity
  8
DRAFT
100
AcDbLine
 62
7
  6
CONTINUOUS
 10
7.2988376746
 20
-20.9104703804
 11
8.2465127091
 21
-20.9104703804
  0
LINE
  5
258
100
AcDbEntity
  8
DRAFT
100
AcDbLine
 62
7
  6
CONTINUOUS
 10
-8.9
 20
-20.9
 11
-8.25
 21
-20.9
  0
LINE
  5
259
100
AcDbEntity
  8
DRAFT
100
AcDbLine
 62
7
  6
CONTINUOUS
 10
8.25
 20
-20.9
 11
8.9
 21
-20.9
  0
LINE
  5
25A
100
AcDbEntity
  8
ASSI
100
AcDbLine
 62
7
  6
CONTINUOUS
 10
7.4
 20
-20.85
 11
8.8
 21
-20.85
  0
LINE
  5
25B
100
AcDbEntity
  8
ASSI
100
AcDbLine
 62
7
  6
CONTINUOUS
 10
-7.4
 20
-20.85
 11
-8.8
 21
-20.85
  0
LINE
  5
25C
100
AcDbEntity
  8
RACCORDO
100
AcDbLine
 62
250
  6
CONTINUOUS
 10
7.4
 20
-20.443503758
 11
7.3506760157
 21
-20.443503758
  0
LINE
  5
25D
100
AcDbEntity
  8
RACCORDO
100
AcDbLine
 62
250
  6
CONTINUOUS
 10
-7.3506760157
 20
-20.443503758
 11
-7.4
 21
-20.443503758
  0
LINE
  5
25E
100
AcDbEntity
  8
RACCORDO
100
AcDbLine
 62
250
  6
CONTINUOUS
 10
6.5581782981
 20
-20.28553092
 11
-6.5581782981
 21
-20.28553092
  0
LINE
  5
25F
100
AcDbEntity
  8
RACCORDO
100
AcDbLine
 62
250
  6
CONTINUOUS
 10
7.4
 20
-20.243777851
 11
7.3517786853
 21
-20.243777851
  0
LINE
  5
260
100
AcDbEntity
  8
RACCORDO
100
AcDbLine
 62
250
  6
CONTINUOUS
 10
-7.3517786853
 20
-20.243777851
 11
-7.4
 21
-20.243777851
  0
LINE
  5
261
100
AcDbEntity
  8
RACCORDO
100
AcDbLine
 62
250
  6
CONTINUOUS
 10
6.557024886
 20
-20.0855385354
 11
-6.557024886
 21
-20.0855385354
  0
LINE
  5
262
100
AcDbEntity
  8
DRAFT
100
AcDbLine
 62
7
  6
CONTINUOUS
 10
2.5
 20
-20.0532338935
 11
2.4413111231
 21
-20.0532338935
  0
LINE
  5
263
100
AcDbEntity
  8
DRAFT
100
AcDbLine
 62
7
  6
CONTINUOUS
 10
-2.4413111231
 20
-20.0532338935
 11
-2.5
 21
-20.0532338935
  0
LINE
  5
264
100
AcDbEntity
  8
DRAFT
100
AcDbLine
 62
7
  6
CONTINUOUS
 10
-3.5
 20
-20.0
 11
-3.3993520779
 21
-20.0
  0
LINE
  5
265
100
AcDbEntity
  8
DRAFT
100
AcDbLine
 62
7
  6
CONTINUOUS
 10
3.3993520779
 20
-20.0
 11
3.5
 21
-20.0
  0
LINE
  5
266
100
AcDbEntity
  8
RACCORDO
100
AcDbLine
 62
250
  6
CONTINUOUS
 10
7.2418217019
 20
-19.9570181168
 11
6.5581782981
 21
-19.9570181168
  0
LINE
  5
267
100
AcDbEntity
  8
RACCORDO
100
AcDbLine
 62
250
  6
CONTINUOUS
 10
-6.5581782981
 20
-19.9570181168
 11
-7.2418217019
 21
-19.9570181168
  0
LINE
  5
268
100
AcDbEntity
  8
RACCORDO
100
AcDbLine
 62
250
  6
CONTINUOUS
 10
6.4493747267
 20
-19.9240610192
 11
3.3992104523
 21
-19.9240610192
  0
LINE
  5
269
100
AcDbEntity
  8
RACCORDO
100
AcDbLine
 62
250
  6
CONTINUOUS
 10
-3.3992104523
 20
-19.9240610192
 11
-6.4493747267
 21
-19.9240610192
  0
LINE
  5
26A
100
AcDbEntity
  8
ASSI
100
AcDbLine
 62
7
  6
CONTINUOUS
 10
-5.75
 20
-19.9
 11
-3.3944894944
 21
-19.9
  0
LINE
  5
26B
100
AcDbEntity
  8
ASSI
100
AcDbLine
 62
7
  6
CONTINUOUS
 10
3.3944895032
 20
-19.9
 11
5.75
 21
-19.9
  0
LINE
  5
26C
100
AcDbEntity
  8
ASSI
100
AcDbLine
 62
7
  6
CONTINUOUS
 10
-2.5616489728
 20
-19.8847148304
 11
2.4015242349
 21
-19.8844866796
  0
LINE
  5
26D
100
AcDbEntity
  8
ASSI
100
AcDbLine
 62
7
  6
CONTINUOUS
 10
-5.6609791689
 20
-19.8109791689
 11
5.6609791689
 21
-19.8109791689
  0
LINE
  5
26E
100
AcDbEntity
  8
RACCORDO
100
AcDbLine
 62
250
  6
CONTINUOUS
 10
7.2429784985
 20
-19.7570215015
 11
6.5570215015
 21
-19.7570215015
  0
LINE
  5
26F
100
AcDbEntity
  8
RACCORDO
100
AcDbLine
 62
250
  6
CONTINUOUS
 10
-6.5570215015
 20
-19.7570215015
 11
-7.2429784985
 21
-19.7570215015
  0
LINE
  5
270
100
AcDbEntity
  8
RACCORDO
100
AcDbLine
 62
250
  6
CONTINUOUS
 10
6.4482213147
 20
-19.7240686345
 11
5.75
 21
-19.7240686345
  0
LINE
  5
271
100
AcDbEntity
  8
RACCORDO
100
AcDbLine
 62
250
  6
CONTINUOUS
 10
-5.75
 20
-19.7240686345
 11
-6.4482213147
 21
-19.7240686345
  0
LINE
  5
272
100
AcDbEntity
  8
ASSI
100
AcDbLine
 62
7
  6
CONTINUOUS
 10
-7.4
 20
-19.7
 11
-5.75
 21
-19.7
  0
LINE
  5
273
100
AcDbEntity
  8
ASSI
100
AcDbLine
 62
7
  6
CONTINUOUS
 10
5.75
 20
-19.7
 11
7.4
 21
-19.7
  0
LINE
  5
274
100
AcDbEntity
  8
ASSI
100
AcDbLine
 62
7
  6
CONTINUOUS
 10
9.37801846
 20
-19.6109791689
 11
7.4890208311
 21
-19.6109791689
  0
LINE
  5
275
100
AcDbEntity
  8
ASSI
100
AcDbLine
 62
7
  6
CONTINUOUS
 10
-5.6609791689
 20
-19.6109791689
 11
5.6609791689
 21
-19.6109791689
  0
LINE
  5
276
100
AcDbEntity
  8
ASSI
100
AcDbLine
 62
7
  6
CONTINUOUS
 10
-7.4890208311
 20
-19.6109791689
 11
-9.37801846
 21
-19.6109791689
  0
LINE
  5
277
100
AcDbEntity
  8
ASSI
100
AcDbLine
 62
7
  6
CONTINUOUS
 10
2.4015242349
 20
-19.8844866796
 11
2.561648787
 21
-19.8847148299
  0
LINE
  5
278
100
AcDbEntity
  8
ASSI
100
AcDbLine
 62
7
  6
CONTINUOUS
 10
2.561648787
 20
-19.8847148299
 11
2.7165627915
 21
-19.885387764
  0
LINE
  5
279
100
AcDbEntity
  8
ASSI
100
AcDbLine
 62
7
  6
CONTINUOUS
 10
2.7165627915
 20
-19.885387764
 11
2.864745063
 21
-19.8864962385
  0
LINE
  5
27A
100
AcDbEntity
  8
ASSI
100
AcDbLine
 62
7
  6
CONTINUOUS
 10
2.864745063
 20
-19.8864962385
 11
3.0009614689
 21
-19.8880130717
  0
LINE
  5
27B
100
AcDbEntity
  8
ASSI
100
AcDbLine
 62
7
  6
CONTINUOUS
 10
3.0009614689
 20
-19.8880130717
 11
3.121486386
 21
-19.8898925745
  0
LWPOLYLINE
  5
27C
100
AcDbEntity
  8
ASSI
100
AcDbPolyline
 62
7
  6
CONTINUOUS
 90
8
 70
0
 10
3.121486386
 20
-19.8898925745
 10
3.2239521834
 20
-19.892099361
 10
3.2670063166
 20
-19.8933040838
 10
3.3047422312
 20
-19.8945746029
 10
3.3366725214
 20
-19.8958823145
 10
3.3626347188
 20
-19.8972176838
 10
3.3827912918
 20
-19.8985902457
 10
3.3971422405
 20
-19.9
  0
LWPOLYLINE
  5
27D
100
AcDbEntity
  8
ASSI
100
AcDbPolyline
 62
250
  6
CONTINUOUS
 90
10
 70
0
 10
-9.2839006568
 20
-19.3837586919
 10
-9.3710401569
 20
-19.3799441973
 10
-9.4575166857
 20
-19.3685517224
 10
-9.542672316
 20
-19.3496679429
 10
-9.6258591699
 20
-19.3234365298
 10
-9.7064443487
 20
-19.2900570559
 10
-9.7838147474
 20
-19.2497834774
 10
-9.8573817195
 20
-19.2029222023
 10
-9.9265855557
 20
-19.1498297586
 10
-9.9908997422
 20
-19.0909100822
  0
LINE
  5
27E
100
AcDbEntity
  8
DRAFT
100
AcDbLine
 62
7
  6
CONTINUOUS
 10
-8.9
 20
-20.9
 11
-10.2776691233
 21
-19.5223308767
  0
LINE
  5
27F
100
AcDbEntity
  8
ASSI
100
AcDbLine
 62
7
  6
CONTINUOUS
 10
-10.5643027805
 20
-19.0856972195
 11
-8.8
 21
-20.85
  0
LINE
  5
280
100
AcDbEntity
  8
RACCORDO
100
AcDbLine
 62
7
  6
CONTINUOUS
 10
-7.2587268678
 20
-22.3912731322
 11
-8.25
 21
-21.4
  0
LINE
  5
281
100
AcDbEntity
  8
ASSI
100
AcDbLine
 62
7
  6
CONTINUOUS
 10
-8.5531481045
 20
-20.85
 11
-10.0850175454
 21
-19.3181305591
  0
LINE
  5
282
100
AcDbEntity
  8
ASSI
100
AcDbLine
 62
250
  6
CONTINUOUS
 10
-10.1625316542
 20
-18.9192781701
 11
-9.9908997422
 21
-19.0909100822
  0
LINE
  5
283
100
AcDbEntity
  8
ASSI
100
AcDbLine
 62
250
  6
CONTINUOUS
 10
-9.4555325688
 20
-18.2122790847
 11
-9.2839006568
 21
-18.3839109968
  0
LINE
  5
284
100
AcDbEntity
  8
ASSI
100
AcDbLine
 62
7
  6
CONTINUOUS
 10
-3.6066335265
 20
23.6037158125
 11
-3.6349373073
 21
23.5711671333
  0
LINE
  5
285
100
AcDbEntity
  8
ASSI
100
AcDbLine
 62
7
  6
CONTINUOUS
 10
-3.6349373073
 20
23.5711671333
 11
-3.6671754095
 21
23.5346732434
  0
LINE
  5
286
100
AcDbEntity
  8
ASSI
100
AcDbLine
 62
7
  6
CONTINUOUS
 10
-3.6671754095
 20
23.5346732434
 11
-3.7035105693
 21
23.4939958359
  0
LINE
  5
287
100
AcDbEntity
  8
ASSI
100
AcDbLine
 62
7
  6
CONTINUOUS
 10
-3.7035105693
 20
23.4939958359
 11
-3.7648032034
 21
23.4261512551
  0
LINE
  5
288
100
AcDbEntity
  8
ASSI
100
AcDbLine
 62
7
  6
CONTINUOUS
 10
-3.7648032034
 20
23.4261512551
 11
-3.92
 21
23.2563578147
  0
LINE
  5
289
100
AcDbEntity
  8
ASSI
100
AcDbLine
 62
7
  6
CONTINUOUS
 10
-7.4
 20
19.7
 11
-7.4890208311
 21
19.6109791689
  0
LINE
  5
28A
100
AcDbEntity
  8
RACCORDO
100
AcDbLine
 62
7
  6
CONTINUOUS
 10
-7.2429784985
 20
19.7570215015
 11
-7.3
 21
19.7
  0
LINE
  5
28B
100
AcDbEntity
  8
0
100
AcDbLine
 62
7
  6
CONTINUOUS
 10
-11.0635399041
 20
15.8099029942
 11
-11.0539971429
 21
15.8194457554
  0
LINE
  5
28C
100
AcDbEntity
  8
0
100
AcDbLine
 62
7
  6
CONTINUOUS
 10
-11.0746395163
 20
15.588792668
 11
-11.0539971429
 21
15.6094350414
  0
LINE
  5
28D
100
AcDbEntity
  8
0
100
AcDbLine
 62
7
  6
CONTINUOUS
 10
-11.0857391285
 20
15.3676823418
 11
-11.0539971429
 21
15.3994243274
  0
LINE
  5
28E
100
AcDbEntity
  8
0
100
AcDbLine
 62
7
  6
CONTINUOUS
 10
-11.0968387406
 20
15.1465720156
 11
-11.0639594539
 21
15.1794513024
  0
LINE
  5
28F
100
AcDbEntity
  8
0
100
AcDbLine
 62
7
  6
CONTINUOUS
 10
-11.1046014306
 20
14.9287986117
 11
-11.0758651214
 21
14.9575349209
  0
LINE
  5
290
100
AcDbEntity
  8
0
100
AcDbLine
 62
7
  6
CONTINUOUS
 10
-11.0731320483
 20
14.9602679939
 11
-11.0647224388
 21
14.9686776035
  0
LINE
  5
291
100
AcDbEntity
  8
0
100
AcDbLine
 62
7
  6
CONTINUOUS
 10
-11.1046014306
 20
14.7187878977
 11
-11.0879231568
 21
14.7354661715
  0
LINE
  5
292
100
AcDbEntity
  8
0
100
AcDbLine
 62
7
  6
CONTINUOUS
 10
-11.0731320483
 20
14.7502572799
 11
-11.0647224388
 21
14.7586668895
  0
LINE
  5
293
100
AcDbEntity
  8
0
100
AcDbLine
 62
7
  6
CONTINUOUS
 10
-11.1046014306
 20
14.5087771837
 11
-11.0906827793
 21
14.5226958349
  0
LINE
  5
294
100
AcDbEntity
  8
0
100
AcDbLine
 62
7
  6
CONTINUOUS
 10
-11.0731320483
 20
14.5402465659
 11
-11.0647224388
 21
14.5486561755
  0
LINE
  5
295
100
AcDbEntity
  8
0
100
AcDbLine
 62
7
  6
CONTINUOUS
 10
-11.1046014306
 20
14.2987664697
 11
-11.0805500367
 21
14.3228178636
  0
LINE
  5
296
100
AcDbEntity
  8
0
100
AcDbLine
 62
7
  6
CONTINUOUS
 10
-11.0731320483
 20
14.3302358519
 11
-11.0647224388
 21
14.3386454614
  0
LINE
  5
297
100
AcDbEntity
  8
0
100
AcDbLine
 62
7
  6
CONTINUOUS
 10
-11.0970443532
 20
14.096312833
 11
-11.0647224388
 21
14.1286347474
  0
LINE
  5
298
100
AcDbEntity
  8
ASSI
100
AcDbLine
 62
7
  6
CONTINUOUS
 10
-10.47539011
 20
15.1092502494
 11
-2.6781668996
 21
19.6109791689
  0
LINE
  5
299
100
AcDbEntity
  8
ASSI
100
AcDbLine
 62
7
  6
CONTINUOUS
 10
-8.1293014639
 20
16.3797920206
 11
-8.7027401788
 21
16.0487170242
  0
LINE
  5
29A
100
AcDbEntity
  8
ASSI
100
AcDbLine
 62
250
  6
CONTINUOUS
 10
-8.7012687981
 20
16.046168518
 11
-10.248372717
 21
15.1529476539
  0
LWPOLYLINE
  5
29B
100
AcDbEntity
  8
ASSI
100
AcDbPolyline
 62
7
  6
CONTINUOUS
 90
7
 70
0
 10
-3.3971421731
 20
-19.9
 10
-3.3827914879
 20
-19.898590258
 10
-3.3626351204
 20
-19.8972177047
 10
-3.3366730706
 20
-19.89588234
 10
-3.3047428547
 20
-19.8945746279
 10
-3.2670069565
 20
-19.8933041044
 10
-3.2239528279
 20
-19.8920993775
  0
LINE
  5
29C
100
AcDbEntity
  8
ASSI
100
AcDbLine
 62
250
  6
CONTINUOUS
 10
-9.2839006568
 20
-19.3837586919
 11
-8.4196235578
 21
-19.3837586919
  0
LINE
  5
29D
100
AcDbEntity
  8
ASSI
100
AcDbLine
 62
250
  6
CONTINUOUS
 10
9.2839006568
 20
-19.3837586919
 11
8.4196235578
 21
-19.3837586919
  0
LINE
  5
29E
100
AcDbEntity
  8
ASSI
100
AcDbLine
 62
250
  6
CONTINUOUS
 10
1.5803764422
 20
-19.3837586919
 11
-1.5803764422
 21
-19.3837586919
  0
LINE
  5
29F
100
AcDbEntity
  8
ASSI
100
AcDbLine
 62
250
  6
CONTINUOUS
 10
-9.2839006568
 20
-18.3839109968
 11
-7.8509138036
 21
-18.3839109968
  0
LINE
  5
2A0
100
AcDbEntity
  8
ASSI
100
AcDbLine
 62
250
  6
CONTINUOUS
 10
9.2839006568
 20
-18.3839109968
 11
7.8509138036
 21
-18.3839109968
  0
LINE
  5
2A1
100
AcDbEntity
  8
ASSI
100
AcDbLine
 62
250
  6
CONTINUOUS
 10
2.1490861964
 20
-18.3839109968
 11
-2.1490861964
 21
-18.3839109968
  0
LINE
  5
2A2
100
AcDbEntity
  8
ASSI
100
AcDbLine
 62
7
  6
CONTINUOUS
 10
7.8024659223
 20
-18.3
 11
2.1975340777
 21
-18.3
  0
LINE
  5
2A3
100
AcDbEntity
  8
ASSI
100
AcDbLine
 62
7
  6
CONTINUOUS
 10
-2.1975340777
 20
-18.3
 11
-7.8024659223
 21
-18.3
  0
LINE
  5
2A4
100
AcDbEntity
  8
ASSI
100
AcDbLine
 62
7
  6
CONTINUOUS
 10
-7.8024659223
 20
-17.7912732553
 11
-2.1975340777
 21
-17.7912732553
  0
LINE
  5
2A5
100
AcDbEntity
  8
ASSI
100
AcDbLine
 62
7
  6
CONTINUOUS
 10
2.1975340777
 20
-17.7912732553
 11
7.8024659223
 21
-17.7912732553
  0
LINE
  5
2A6
100
AcDbEntity
  8
ASSI
100
AcDbLine
 62
7
  6
CONTINUOUS
 10
-7.75839524
 20
-17.8206532958
 11
-7.8024659223
 21
-17.7912732553
  0
LINE
  5
2A7
100
AcDbEntity
  8
ASSI
100
AcDbLine
 62
7
  6
CONTINUOUS
 10
-7.4
 20
-19.7
 11
-7.4890208311
 21
-19.6109791689
  0
LINE
  5
2A8
100
AcDbEntity
  8
RACCORDO
100
AcDbLine
 62
7
  6
CONTINUOUS
 10
-7.2429784985
 20
-19.7570215015
 11
-7.3
 21
-19.7
  0
LINE
  5
2A9
100
AcDbEntity
  8
ASSI
100
AcDbLine
 62
7
  6
CONTINUOUS
 10
-3.92
 20
-23.2563578147
 11
-3.7432572887
 21
-23.4499456538
  0
LINE
  5
2AA
100
AcDbEntity
  8
ASSI
100
AcDbLine
 62
7
  6
CONTINUOUS
 10
-3.7432572887
 20
-23.4499456538
 11
-3.7032779848
 21
-23.4942542213
  0
LINE
  5
2AB
100
AcDbEntity
  8
ASSI
100
AcDbLine
 62
7
  6
CONTINUOUS
 10
-3.7032779848
 20
-23.4942542213
 11
-3.6669259637
 21
-23.5349539066
  0
LINE
  5
2AC
100
AcDbEntity
  8
ASSI
100
AcDbLine
 62
7
  6
CONTINUOUS
 10
-3.6669259637
 20
-23.5349539066
 11
-3.6346591864
 21
-23.571483946
  0
LWPOLYLINE
  5
2AD
100
AcDbEntity
  8
ASSI
100
AcDbPolyline
 62
7
  6
CONTINUOUS
 90
19
 70
0
 10
-3.6346591864
 20
-23.571483946
 10
-3.6063333374
 20
-23.6040636679
 10
-3.5936228134
 20
-23.6188824439
 10
-3.581812291
 20
-23.6328175176
 10
-3.5709002565
 20
-23.6458631706
 10
-3.5608651496
 20
-23.6580251212
 10
-3.5516330636
 20
-23.6694112184
 10
-3.5431963272
 20
-23.6800349469
 10
-3.5355524993
 20
-23.6898828219
 10
-3.5286574079
 20
-23.6990222378
 10
-3.5224966697
 20
-23.7074752034
 10
-3.5170896473
 20
-23.71521971
 10
-3.512446052
 20
-23.7222571256
 10
-3.5085544916
 20
-23.7285775035
 10
-3.5054073027
 20
-23.7341907904
 10
-3.5030019302
 20
-23.7391281949
 10
-3.5013173336
 20
-23.7434001197
 10
-3.5003250533
 20
-23.746996162
 10
-3.5
 20
-23.7499163219
  0
LINE
  5
2AE
100
AcDbEntity
  8
RACCORDO
100
AcDbLine
 62
7
  6
CONTINUOUS
 10
-9.068456817
 20
20.581543183
 11
-8.9
 21
20.9
  0
LINE
  5
2AF
100
AcDbEntity
  8
DRAFT
100
AcDbLine
 62
7
  6
CONTINUOUS
 10
-7.2418217019
 20
20.9959955457
 11
-7.2988376746
 21
20.9104703804
  0
LINE
  5
2B0
100
AcDbEntity
  8
0
100
AcDbLine
 62
7
  6
CONTINUOUS
 10
-11.0873746757
 20
13.8959717965
 11
-11.0601426608
 21
13.9232038114
  0
LINE
  5
2B1
100
AcDbEntity
  8
0
100
AcDbLine
 62
7
  6
CONTINUOUS
 10
-11.0777049981
 20
13.6956307601
 11
-11.0539971429
 21
13.7193386153
  0
LINE
  5
2B2
100
AcDbEntity
  8
0
100
AcDbLine
 62
7
  6
CONTINUOUS
 10
-11.0680353205
 20
13.4952897237
 11
-11.0539971429
 21
13.5093279013
  0
LINE
  5
2B3
100
AcDbEntity
  8
0
100
AcDbLine
 62
7
  6
CONTINUOUS
 10
-11.0583656429
 20
13.2949486872
 11
-11.0539971429
 21
13.2993171873
  0
LINE
  5
2B4
100
AcDbEntity
  8
0
100
AcDbLine
 62
7
  6
CONTINUOUS
 10
-11.1046014306
 20
12.8286914716
 11
-11.0539971429
 21
12.8792957592
  0
LINE
  5
2B5
100
AcDbEntity
  8
0
100
AcDbLine
 62
7
  6
CONTINUOUS
 10
-11.1046014306
 20
12.6186807576
 11
-11.0539971429
 21
12.6692850452
  0
LINE
  5
2B6
100
AcDbEntity
  8
0
100
AcDbLine
 62
7
  6
CONTINUOUS
 10
-11.1046014306
 20
12.4086700435
 11
-11.0539971429
 21
12.4592743312
  0
LINE
  5
2B7
100
AcDbEntity
  8
0
100
AcDbLine
 62
7
  6
CONTINUOUS
 10
-11.0678647832
 20
12.2353959768
 11
-11.0539971429
 21
12.2492636172
  0
LINE
  5
2B8
100
AcDbEntity
  8
0
100
AcDbLine
 62
7
  6
CONTINUOUS
 10
-11.0757171292
 20
12.0175329169
 11
-11.0539971429
 21
12.0392529032
  0
LINE
  5
2B9
100
AcDbEntity
  8
0
100
AcDbLine
 62
7
  6
CONTINUOUS
 10
-11.0835694752
 20
11.7996698569
 11
-11.0615605924
 21
11.8216787397
  0
LINE
  5
2BA
100
AcDbEntity
  8
0
100
AcDbLine
 62
7
  6
CONTINUOUS
 10
-11.0914218211
 20
11.581806797
 11
-11.0695705516
 21
11.6036580664
  0
LINE
  5
2BB
100
AcDbEntity
  8
ASSI
100
AcDbLine
 62
7
  6
CONTINUOUS
 10
-2.7685988019
 20
19.5261019951
 11
-2.6781668996
 21
19.6109791689
  0
LINE
  5
2BC
100
AcDbEntity
  8
ASSI
100
AcDbLine
 62
7
  6
CONTINUOUS
 10
-7.202006682
 20
15.8444385144
 11
-2.347993318
 21
18.6469044367
  0
LINE
  5
2BD
100
AcDbEntity
  8
ASSI
100
AcDbLine
 62
250
  6
CONTINUOUS
 10
-8.2012772597
 20
15.1801577701
 11
-9.7483811786
 21
14.286936906
  0
LINE
  5
2BE
100
AcDbEntity
  8
ASSI
100
AcDbLine
 62
7
  6
CONTINUOUS
 10
-2.0442746102
 20
18.1208482034
 11
-6.8982879741
 21
15.3183822811
  0
LINE
  5
2BF
100
AcDbEntity
  8
ASSI
100
AcDbLine
 62
250
  6
CONTINUOUS
 10
10.7482288738
 20
-17.5052799993
 11
9.7483811786
 21
-17.5052799993
  0
LINE
  5
2C0
100
AcDbEntity
  8
ASSI
100
AcDbLine
 62
250
  6
CONTINUOUS
 10
-9.7483811786
 20
-17.5052799993
 11
-10.7482288738
 21
-17.5052799975
  0
LINE
  5
2C1
100
AcDbEntity
  8
DRAFT
100
AcDbLine
 62
7
  6
CONTINUOUS
 10
-7.2418217019
 20
-20.9959955457
 11
-7.2988376746
 21
-20.9104703804
  0
LINE
  5
2C2
100
AcDbEntity
  8
RACCORDO
100
AcDbLine
 62
7
  6
CONTINUOUS
 10
-9.068456817
 20
-20.581543183
 11
-8.9
 21
-20.9
  0
LINE
  5
2C3
100
AcDbEntity
  8
DRAFT
100
AcDbLine
 62
7
  6
CONTINUOUS
 10
-8.2465127091
 20
20.9104703804
 11
-8.25
 21
20.9
  0
LINE
  5
2C4
100
AcDbEntity
  8
0
100
AcDbLine
 62
7
  6
CONTINUOUS
 10
-11.0992741671
 20
11.363943737
 11
-11.0775805108
 21
11.3856373932
  0
LINE
  5
2C5
100
AcDbEntity
  8
0
100
AcDbLine
 62
7
  6
CONTINUOUS
 10
-11.1046014306
 20
11.1486057595
 11
-11.08559047
 21
11.16761672
  0
LINE
  5
2C6
100
AcDbEntity
  8
0
100
AcDbLine
 62
7
  6
CONTINUOUS
 10
-11.1046014306
 20
10.9385950455
 11
-11.0936004293
 21
10.9495960468
  0
LINE
  5
2C7
100
AcDbEntity
  8
0
100
AcDbLine
 62
7
  6
CONTINUOUS
 10
-11.1046014306
 20
10.7285843314
 11
-11.0539971429
 21
10.7791886191
  0
LINE
  5
2C8
100
AcDbEntity
  8
0
100
AcDbLine
 62
7
  6
CONTINUOUS
 10
-11.1046014306
 20
10.5185736174
 11
-11.0539971429
 21
10.5691779051
  0
LINE
  5
2C9
100
AcDbEntity
  8
0
100
AcDbLine
 62
7
  6
CONTINUOUS
 10
-11.1046014306
 20
10.3085629034
 11
-11.0539971429
 21
10.3591671911
  0
LINE
  5
2CA
100
AcDbEntity
  8
0
100
AcDbLine
 62
7
  6
CONTINUOUS
 10
-11.0558958275
 20
9.9372470785
 11
-11.0539971429
 21
9.9391457631
  0
LINE
  5
2CB
100
AcDbEntity
  8
0
100
AcDbLine
 62
7
  6
CONTINUOUS
 10
-11.0669941762
 20
9.7161380158
 11
-11.0539971429
 21
9.7291350491
  0
LINE
  5
2CC
100
AcDbEntity
  8
0
100
AcDbLine
 62
7
  6
CONTINUOUS
 10
-11.0780925249
 20
9.495028953
 11
-11.0539971429
 21
9.519124335
  0
LINE
  5
2CD
100
AcDbEntity
  8
0
100
AcDbLine
 62
7
  6
CONTINUOUS
 10
-11.0891908736
 20
9.2739198903
 11
-11.0561252088
 21
9.3069855551
  0
LINE
  5
2CE
100
AcDbEntity
  8
0
100
AcDbLine
 62
7
  6
CONTINUOUS
 10
-11.1002892223
 20
9.0528108276
 11
-11.0647224388
 21
9.0883776111
  0
LINE
  5
2CF
100
AcDbEntity
  8
RACCORDO
100
AcDbLine
 62
7
  6
CONTINUOUS
 10
9.5439339828
 20
20.1060660172
 11
9.65
 21
20.15
  0
LINE
  5
2D0
100
AcDbEntity
  8
ASSI
100
AcDbLine
 62
7
  6
CONTINUOUS
 10
7.0227540104
 20
-13.2321448553
 11
7.7969690383
 21
-13.0246945638
  0
LINE
  5
2D1
100
AcDbEntity
  8
0
100
AcDbLine
 62
250
  6
CONTINUOUS
 10
7.7783443412
 20
-13.0193322745
 11
7.0042249939
 21
-13.2267569285
  0
LINE
  5
2D2
100
AcDbEntity
  8
0
100
AcDbLine
 62
250
  6
CONTINUOUS
 10
-10.9059609467
 20
-15.592362
 11
-10.8881740261
 21
-15.592362
  0
LINE
  5
2D3
100
AcDbEntity
  8
0
100
AcDbLine
 62
250
  6
CONTINUOUS
 10
-11.0031387217
 20
-14.281784
 11
-10.9962506389
 21
-14.281784
  0
LINE
  5
2D4
100
AcDbEntity
  8
0
100
AcDbLine
 62
250
  6
CONTINUOUS
 10
-10.937562853
 20
-14.218117
 11
-10.9341338404
 21
-14.218117
  0
LINE
  5
2D5
100
AcDbEntity
  8
0
100
AcDbLine
 62
250
  6
CONTINUOUS
 10
-10.9962506389
 20
-14.18241
 11
-11.0031387217
 21
-14.18241
  0
LINE
  5
2D6
100
AcDbEntity
  8
0
100
AcDbLine
 62
7
  6
CONTINUOUS
 10
-7.0227540104
 20
-13.2321448553
 11
-7.7969676105
 21
-13.0246949463
  0
LINE
  5
2D7
100
AcDbEntity
  8
0
100
AcDbLine
 62
250
  6
CONTINUOUS
 10
-7.0042249939
 20
-13.2267569285
 11
-7.7783423345
 21
-13.0193328122
  0
LINE
  5
2D8
100
AcDbEntity
  8
DRAFT
100
AcDbLine
 62
7
  6
CONTINUOUS
 10
-8.2465127091
 20
-20.9104703804
 11
-8.25
 21
-20.9
  0
LINE
  5
2D9
100
AcDbEntity
  8
ASSI
100
AcDbLine
 62
7
  6
CONTINUOUS
 10
-6.8982879741
 20
15.3183822811
 11
-6.8748116639
 21
15.3658614838
  0
LINE
  5
2DA
100
AcDbEntity
  8
ASSI
100
AcDbLine
 62
7
  6
CONTINUOUS
 10
4.2347695105
 20
23.5869839406
 11
4.204532782
 21
23.5525121418
  0
LINE
  5
2DB
100
AcDbEntity
  8
ASSI
100
AcDbLine
 62
7
  6
CONTINUOUS
 10
4.204532782
 20
23.5525121418
 11
4.1703007854
 21
23.5140025987
  0
LINE
  5
2DC
100
AcDbEntity
  8
ASSI
100
AcDbLine
 62
7
  6
CONTINUOUS
 10
4.1703007854
 20
23.5140025987
 11
4.1321828484
 21
23.4715784625
  0
LINE
  5
2DD
100
AcDbEntity
  8
ASSI
100
AcDbLine
 62
7
  6
CONTINUOUS
 10
4.1321828484
 20
23.4715784625
 11
4.0689107927
 21
23.4017977263
  0
LINE
  5
2DE
100
AcDbEntity
  8
ASSI
100
AcDbLine
 62
7
  6
CONTINUOUS
 10
4.0689107927
 20
23.4017977263
 11
3.9358937422
 21
23.2563578147
  0
LINE
  5
2DF
100
AcDbEntity
  8
0
100
AcDbLine
 62
7
  6
CONTINUOUS
 10
-11.1046014306
 20
8.8384879053
 11
-11.0796192805
 21
8.8634700554
  0
LINE
  5
2E0
100
AcDbEntity
  8
0
100
AcDbLine
 62
7
  6
CONTINUOUS
 10
-11.0731320483
 20
8.8699572876
 11
-11.0647224388
 21
8.8783668971
  0
LINE
  5
2E1
100
AcDbEntity
  8
0
100
AcDbLine
 62
7
  6
CONTINUOUS
 10
-11.1046014306
 20
8.6284771913
 11
-11.0916773382
 21
8.6414012836
  0
LINE
  5
2E2
100
AcDbEntity
  8
0
100
AcDbLine
 62
7
  6
CONTINUOUS
 10
-11.0731320483
 20
8.6599465735
 11
-11.0647224388
 21
8.6683561831
  0
LINE
  5
2E3
100
AcDbEntity
  8
0
100
AcDbLine
 62
7
  6
CONTINUOUS
 10
-11.1046014306
 20
8.4184664773
 11
-11.0875332943
 21
8.4355346136
  0
LINE
  5
2E4
100
AcDbEntity
  8
0
100
AcDbLine
 62
7
  6
CONTINUOUS
 10
-11.0731320483
 20
8.4499358595
 11
-11.0647224388
 21
8.4583454691
  0
LINE
  5
2E5
100
AcDbEntity
  8
ASSI
100
AcDbLine
 62
7
  6
CONTINUOUS
 10
4.4
 20
23.8
 11
4.3563493531
 21
23.7563493531
  0
LINE
  5
2E6
100
AcDbEntity
  8
0
100
AcDbLine
 62
7
  6
CONTINUOUS
 10
-11.103708405
 20
8.2093487889
 11
-11.0774005639
 21
8.23565663
  0
LINE
  5
2E7
100
AcDbEntity
  8
0
100
AcDbLine
 62
7
  6
CONTINUOUS
 10
-11.0731320483
 20
8.2399251455
 11
-11.0647224388
 21
8.2483347551
  0
LINE
  5
2E8
100
AcDbEntity
  8
0
100
AcDbLine
 62
7
  6
CONTINUOUS
 10
-11.0940377683
 20
8.0090087116
 11
-11.0647224388
 21
8.0383240411
  0
LINE
  5
2E9
100
AcDbEntity
  8
0
100
AcDbLine
 62
7
  6
CONTINUOUS
 10
-11.0843671316
 20
7.8086686342
 11
-11.0570640431
 21
7.8359717227
  0
LINE
  5
2EA
100
AcDbEntity
  8
0
100
AcDbLine
 62
7
  6
CONTINUOUS
 10
-11.0746964949
 20
7.6083285569
 11
-11.0539971429
 21
7.6290279089
  0
LINE
  5
2EB
100
AcDbEntity
  8
0
100
AcDbLine
 62
7
  6
CONTINUOUS
 10
-11.0650258582
 20
7.4079884796
 11
-11.0539971429
 21
7.4190171949
  0
LINE
  5
2EC
100
AcDbEntity
  8
0
100
AcDbLine
 62
7
  6
CONTINUOUS
 10
-11.0553552215
 20
7.2076484023
 11
-11.0539971429
 21
7.2090064809
  0
LINE
  5
2ED
100
AcDbEntity
  8
0
100
AcDbLine
 62
7
  6
CONTINUOUS
 10
-11.0624067525
 20
6.7805754433
 11
-11.0539971429
 21
6.7889850529
  0
LINE
  5
2EE
100
AcDbEntity
  8
0
100
AcDbLine
 62
7
  6
CONTINUOUS
 10
-11.0624067525
 20
6.5705647293
 11
-11.0539971429
 21
6.5789743389
  0
LINE
  5
2EF
100
AcDbEntity
  8
ASSI
100
AcDbLine
 62
250
  6
CONTINUOUS
 10
10.5643027805
 20
19.0856972195
 11
10.1625316542
 21
18.9192781701
  0
LINE
  5
2F0
100
AcDbEntity
  8
0
100
AcDbLine
 62
250
  6
CONTINUOUS
 10
-10.9341338404
 20
-14.100497
 11
-10.937562853
 21
-14.100497
  0
LINE
  5
2F1
100
AcDbEntity
  8
0
100
AcDbLine
 62
250
  6
CONTINUOUS
 10
-10.9818015107
 20
-13.71193
 11
-10.9780375703
 21
-13.71193
  0
LINE
  5
2F2
100
AcDbEntity
  8
0
100
AcDbLine
 62
250
  6
CONTINUOUS
 10
-11.0047615889
 20
-13.656927
 11
-11.000965217
 21
-13.656927
  0
LINE
  5
2F3
100
AcDbEntity
  8
0
100
AcDbLine
 62
250
  6
CONTINUOUS
 10
-10.797116119
 20
-13.19459
 11
-10.7836665377
 21
-13.19459
  0
LINE
  5
2F4
100
AcDbEntity
  8
0
100
AcDbLine
 62
250
  6
CONTINUOUS
 10
-10.8722411475
 20
-13.19459
 11
-10.8587915662
 21
-13.19459
  0
LINE
  5
2F5
100
AcDbEntity
  8
0
100
AcDbLine
 62
250
  6
CONTINUOUS
 10
-11.0009554771
 20
-13.083924
 11
-11.004751849
 21
-13.083924
  0
LINE
  5
2F6
100
AcDbEntity
  8
0
100
AcDbLine
 62
250
  6
CONTINUOUS
 10
-10.9780375703
 20
-12.88859
 11
-10.9818015107
 21
-12.88859
  0
LINE
  5
2F7
100
AcDbEntity
  8
0
100
AcDbLine
 62
7
  6
CONTINUOUS
 10
-7.1304417793
 20
-12.85
 11
-6.75
 21
-12.85
  0
LINE
  5
2F8
100
AcDbEntity
  8
0
100
AcDbLine
 62
7
  6
CONTINUOUS
 10
7.1304508474
 20
-12.85
 11
6.75
 21
-12.85
  0
LINE
  5
2F9
100
AcDbEntity
  8
0
100
AcDbLine
 62
7
  6
CONTINUOUS
 10
-3.25
 20
-12.85
 11
-2.8695491526
 21
-12.85
  0
LINE
  5
2FA
100
AcDbEntity
  8
0
100
AcDbLine
 62
7
  6
CONTINUOUS
 10
3.25
 20
-12.85
 11
2.8695582207
 21
-12.85
  0
LINE
  5
2FB
100
AcDbEntity
  8
0
100
AcDbLine
 62
7
  6
CONTINUOUS
 10
1.35
 20
-12.85
 11
1.3421516476
 21
-12.85
  0
LINE
  5
2FC
100
AcDbEntity
  8
0
100
AcDbLine
 62
7
  6
CONTINUOUS
 10
-1.35
 20
-12.85
 11
-1.3421516476
 21
-12.85
  0
LINE
  5
2FD
100
AcDbEntity
  8
0
100
AcDbLine
 62
250
  6
CONTINUOUS
 10
-10.9899160213
 20
-12.432113
 11
-10.983414638
 21
-12.432113
  0
LINE
  5
2FE
100
AcDbEntity
  8
0
100
AcDbLine
 62
250
  6
CONTINUOUS
 10
-11.1046038212
 20
-13.171006
 11
-11.0539971429
 21
-13.171014
  0
LINE
  5
2FF
100
AcDbEntity
  8
0
100
AcDbLine
 62
250
  6
CONTINUOUS
 10
-11.053997265
 20
-12.590992
 11
-11.1046038212
 21
-12.590985
  0
LWPOLYLINE
  5
300
100
AcDbEntity
  8
0
100
AcDbPolyline
 62
7
  6
CONTINUOUS
 90
15
 70
0
 10
-3.8496512186
 20
-12.6630478787
 10
-3.7923950978
 20
-12.671061077
 10
-3.6416887281
 20
-12.6944726573
 10
-3.4907621654
 20
-12.7202347409
 10
-3.3399549156
 20
-12.7483530202
 10
-3.1889274727
 20
-12.7788218029
 10
-3.0366613192
 20
-12.8116240111
 10
-2.883293056
 20
-12.8466765468
 10
-2.7286860821
 20
-12.8840625081
 10
-2.5714120768
 20
-12.9240141117
 10
-2.4116950718
 20
-12.9664092031
 10
-2.2493110355
 20
-13.0113699368
 10
-2.0821595518
 20
-13.0594949933
 10
-1.909540482
 20
-13.1109839327
 10
-1.7883365058
 20
-13.1483272031
  0
LINE
  5
301
100
AcDbEntity
  8
ASSI
100
AcDbLine
 62
250
  6
CONTINUOUS
 10
10.1625316542
 20
-18.9192781701
 11
10.5643027805
 21
-19.0856972195
  0
LINE
  5
302
100
AcDbEntity
  8
ASSI
100
AcDbLine
 62
7
  6
CONTINUOUS
 10
2.24160476
 20
-17.8206532958
 11
2.1975340777
 21
-17.7912732553
  0
LINE
  5
303
100
AcDbEntity
  8
ASSI
100
AcDbLine
 62
250
  6
CONTINUOUS
 10
-5.5779935477
 20
-13.3745670597
 11
-5.3612459963
 21
-13.5803262192
  0
LINE
  5
304
100
AcDbEntity
  8
ASSI
100
AcDbLine
 62
7
  6
CONTINUOUS
 10
4.4
 20
-23.8
 11
4.3563493531
 21
-23.7563493531
  0
LINE
  5
305
100
AcDbEntity
  8
ASSI
100
AcDbLine
 62
250
  6
CONTINUOUS
 10
-5.1393615377
 20
-13.9619145484
 11
-5.348403826
 21
-13.7483315916
  0
LINE
  5
306
100
AcDbEntity
  8
ASSI
100
AcDbLine
 62
7
  6
CONTINUOUS
 10
3.9358937422
 20
-23.2563578147
 11
4.1120418073
 21
-23.4492891148
  0
LINE
  5
307
100
AcDbEntity
  8
ASSI
100
AcDbLine
 62
7
  6
CONTINUOUS
 10
4.1120418073
 20
-23.4492891148
 11
4.1519018608
 21
-23.4934596111
  0
LINE
  5
308
100
AcDbEntity
  8
ASSI
100
AcDbLine
 62
250
  6
CONTINUOUS
 10
-9.7483811786
 20
-9.0331115016
 11
-9.5492796492
 21
-9.2559902352
  0
LINE
  5
309
100
AcDbEntity
  8
ASSI
100
AcDbLine
 62
7
  6
CONTINUOUS
 10
4.1519018608
 20
-23.4934596111
 11
4.1881757598
 21
-23.5340628527
  0
LWPOLYLINE
  5
30A
100
AcDbEntity
  8
ASSI
100
AcDbPolyline
 62
7
  6
CONTINUOUS
 90
21
 70
0
 10
4.1881757598
 20
-23.5340628527
 10
4.2204038414
 20
-23.5705368404
 10
4.2350514679
 20
-23.58730795
 10
4.2487243743
 20
-23.6030935259
 10
4.2614435038
 20
-23.6179124102
 10
4.2732682897
 20
-23.631852822
 10
4.2842003781
 20
-23.644908998
 10
4.2942607814
 20
-23.6570867016
 10
4.3035215444
 20
-23.6684914417
 10
4.3119903043
 20
-23.6791357752
 10
4.3196702234
 20
-23.6890071452
 10
4.3266055283
 20
-23.6981733902
 10
4.3328107025
 20
-23.7066559506
 10
4.3382675506
 20
-23.714433386
 10
4.3429677159
 20
-23.7215092133
 10
4.3469227197
 20
-23.72787436
 10
4.3501399584
 20
-23.7335378987
 10
4.3526218053
 20
-23.7385305642
 10
4.3543887696
 20
-23.7428626013
 10
4.3554688398
 20
-23.7465237651
 10
4.3558866345
 20
-23.7495140557
  0
LINE
  5
30B
100
AcDbEntity
  8
0
100
AcDbLine
 62
250
  6
CONTINUOUS
 10
-10.9957697169
 20
-12.350161
 11
-10.945210685
 21
-12.619407
  0
LINE
  5
30C
100
AcDbEntity
  8
0
100
AcDbLine
 62
250
  6
CONTINUOUS
 10
-11.1046038212
 20
-10.051012
 11
-11.0716470224
 21
-10.59258
  0
LINE
  5
30D
100
AcDbEntity
  8
0
100
AcDbLine
 62
250
  6
CONTINUOUS
 10
-11.0539974046
 20
-10.30258
 11
-11.0873688967
 21
-9.754205
  0
LINE
  5
30E
100
AcDbEntity
  8
0
100
AcDbLine
 62
250
  6
CONTINUOUS
 10
-11.1046038212
 20
-14.137714
 11
-11.069758471
 21
-14.778839
  0
LINE
  5
30F
100
AcDbEntity
  8
0
100
AcDbLine
 62
250
  6
CONTINUOUS
 10
-11.053997265
 20
-14.488824
 11
-11.1046038212
 21
-13.557685
  0
LINE
  5
310
100
AcDbEntity
  8
0
100
AcDbLine
 62
250
  6
CONTINUOUS
 10
-11.053997265
 20
-8.787497
 11
-11.1046039433
 21
-7.856372
  0
LINE
  5
311
100
AcDbEntity
  8
0
100
AcDbLine
 62
250
  6
CONTINUOUS
 10
-11.0888426152
 20
-7.56635
 11
-11.07356468
 21
-7.84744
  0
LINE
  5
312
100
AcDbEntity
  8
0
100
AcDbLine
 62
250
  6
CONTINUOUS
 10
-11.0639494847
 20
-8.024362
 11
-11.0539974046
 21
-8.207475
  0
LINE
  5
313
100
AcDbEntity
  8
0
100
AcDbLine
 62
250
  6
CONTINUOUS
 10
-11.0731320483
 20
8.151456
 11
-11.094931478
 21
8.581471
  0
LINE
  5
314
100
AcDbEntity
  8
0
100
AcDbLine
 62
250
  6
CONTINUOUS
 10
-11.0539971429
 20
7.773964
 11
-11.0647224388
 21
7.990812
  0
LWPOLYLINE
  5
315
100
AcDbEntity
  8
0
100
AcDbPolyline
 62
250
  6
CONTINUOUS
 90
14
 70
0
 10
-11.0826339111
 20
4.7226606687
 10
-11.0830738709
 20
4.7315883841
 10
-11.0835187888
 20
4.7396793271
 10
-11.0839680461
 20
4.7469602571
 10
-11.0844210242
 20
4.753457933
 10
-11.0848771045
 20
4.7591991139
 10
-11.0853356685
 20
4.7642105591
 10
-11.0858612886
 20
4.7690729355
 10
-11.0863889245
 20
4.7730645828
 10
-11.0869181634
 20
4.776230213
 10
-11.0874485924
 20
4.7786145378
 10
-11.0879797985
 20
4.7802622694
 10
-11.088511369
 20
4.7812181196
 10
-11.0890428909
 20
4.7815268003
  0
LINE
  5
316
100
AcDbEntity
  8
0
100
AcDbLine
 62
250
  6
CONTINUOUS
 10
-11.1046014306
 20
8.227849
 11
-11.0539971429
 21
7.179514
  0
LWPOLYLINE
  5
317
100
AcDbEntity
  8
0
100
AcDbPolyline
 62
250
  6
CONTINUOUS
 90
22
 70
0
 10
-11.0834418547
 20
-3.7718046114
 10
-11.0839966394
 20
-3.7600953953
 10
-11.0845587899
 20
-3.7495979229
 10
-11.0851274822
 20
-3.7403280986
 10
-11.0857018919
 20
-3.7323018269
 10
-11.086281195
 20
-3.7255350123
 10
-11.0868645674
 20
-3.7200435593
 10
-11.0874511787
 20
-3.715840458
 10
-11.0880401743
 20
-3.7129270416
 10
-11.0886306935
 20
-3.7113017286
 10
-11.0892218754
 20
-3.7109629379
 10
-11.0898128593
 20
-3.711909088
 10
-11.0904027843
 20
-3.7141385976
 10
-11.0909907898
 20
-3.7176498856
 10
-11.091576015
 20
-3.7224413705
 10
-11.092157599
 20
-3.7285114712
 10
-11.0927346907
 20
-3.735855921
 10
-11.0933064764
 20
-3.7444597129
 10
-11.0938721523
 20
-3.7543051544
 10
-11.0944309144
 20
-3.7653745533
 10
-11.0949819586
 20
-3.7776502172
 10
-11.0960576778
 20
-3.8057495705
  0
LINE
  5
318
100
AcDbEntity
  8
0
100
AcDbLine
 62
250
  6
CONTINUOUS
 10
-11.0858968763
 20
4.0923141379
 11
-11.0854988716
 21
4.0833556651
  0
LINE
  5
319
100
AcDbEntity
  8
0
100
AcDbLine
 62
250
  6
CONTINUOUS
 10
-11.0817713401
 20
4.7021878845
 11
-11.0826339111
 21
4.7226606687
  0
LINE
  5
31A
100
AcDbEntity
  8
0
100
AcDbLine
 62
250
  6
CONTINUOUS
 10
-10.8061283094
 20
1.66989
 11
-10.7834436365
 21
1.099557
  0
LWPOLYLINE
  5
31B
100
AcDbEntity
  8
0
100
AcDbPolyline
 62
250
  6
CONTINUOUS
 90
9
 70
0
 10
-10.9977590504
 20
-14.5737999878
 10
-10.9975876252
 20
-14.5782346984
 10
-10.9974112396
 20
-14.5822168909
 10
-10.9972299271
 20
-14.5857037917
 10
-10.9970437213
 20
-14.5886526272
 10
-10.9968526558
 20
-14.5910206237
 10
-10.996656764
 20
-14.5927650076
 10
-10.9964560796
 20
-14.5938430052
 10
-10.9962506361
 20
-14.594211843
  0
LINE
  5
31C
100
AcDbEntity
  8
0
100
AcDbLine
 62
250
  6
CONTINUOUS
 10
-11.0823576792
 20
-3.7987946565
 11
-11.0834418547
 21
-3.7718046114
  0
LINE
  5
31D
100
AcDbEntity
  8
0
100
AcDbLine
 62
250
  6
CONTINUOUS
 10
-10.8061283094
 20
0.925736
 11
-10.7834436365
 21
0.302869
  0
LINE
  5
31E
100
AcDbEntity
  8
0
100
AcDbLine
 62
250
  6
CONTINUOUS
 10
-11.0854988716
 20
4.0833556651
 11
-11.0851110023
 21
4.0729664611
  0
LINE
  5
31F
100
AcDbEntity
  8
0
100
AcDbLine
 62
250
  6
CONTINUOUS
 10
-11.080936362
 20
4.6780981526
 11
-11.0817713401
 21
4.7021878845
  0
LWPOLYLINE
  5
320
100
AcDbEntity
  8
ASSI
100
AcDbPolyline
 62
250
  6
CONTINUOUS
 90
13
 70
0
 10
-10.7482288738
 20
-17.5052799993
 10
-10.743938805
 20
-17.6360814133
 10
-10.7311041839
 20
-17.7663159157
 10
-10.7097812234
 20
-17.8954260482
 10
-10.6800629926
 20
-18.0228573229
 10
-10.6420776473
 20
-18.1480665889
 10
-10.5959865856
 20
-18.2705239746
 10
-10.5419870943
 20
-18.3897053738
 10
-10.4803103453
 20
-18.5051006958
 10
-10.4112169719
 20
-18.6162211529
 10
-10.3350004905
 20
-18.7225921044
 10
-10.2519872238
 20
-18.8237557306
 10
-10.1625316542
 20
-18.9192781701
  0
LINE
  5
321
100
AcDbEntity
  8
0
100
AcDbLine
 62
250
  6
CONTINUOUS
 10
-11.0813128306
 20
-3.8304388024
 11
-11.0823576792
 21
-3.7987946565
  0
LINE
  5
322
100
AcDbEntity
  8
0
100
AcDbLine
 62
250
  6
CONTINUOUS
 10
-10.9981325237
 20
-14.562159197
 11
-10.9977590504
 21
-14.5737999878
  0
LINE
  5
323
100
AcDbEntity
  8
0
100
AcDbLine
 62
250
  6
CONTINUOUS
 10
-11.0851110023
 20
4.0729664611
 11
-11.0845912056
 21
4.0562543208
  0
LINE
  5
324
100
AcDbEntity
  8
0
100
AcDbLine
 62
250
  6
CONTINUOUS
 10
-11.0801353392
 20
4.6504254852
 11
-11.080936362
 21
4.6780981526
  0
LINE
  5
325
100
AcDbEntity
  8
0
100
AcDbLine
 62
250
  6
CONTINUOUS
 10
-11.0803132704
 20
-3.8665613336
 11
-11.0813128306
 21
-3.8304388024
  0
LINE
  5
326
100
AcDbEntity
  8
0
100
AcDbLine
 62
250
  6
CONTINUOUS
 10
-11.0278331549
 20
12.5
 11
-11.0207275318
 21
12.2285713315
  0
LINE
  5
327
100
AcDbEntity
  8
0
100
AcDbLine
 62
250
  6
CONTINUOUS
 10
-10.9946735827
 20
12.2285713315
 11
-11.018358992
 21
13.1785713315
  0
LINE
  5
328
100
AcDbEntity
  8
0
100
AcDbLine
 62
250
  6
CONTINUOUS
 10
-10.9984822129
 20
-14.5486814049
 11
-10.9981325237
 21
-14.562159197
  0
LINE
  5
329
100
AcDbEntity
  8
0
100
AcDbLine
 62
250
  6
CONTINUOUS
 10
-11.0845912056
 20
4.0562543208
 11
-11.0841762248
 21
4.0401402428
  0
LINE
  5
32A
100
AcDbEntity
  8
0
100
AcDbLine
 62
250
  6
CONTINUOUS
 10
-11.0790121339
 20
4.6023841097
 11
-11.0801353392
 21
4.6504254852
  0
LINE
  5
32B
100
AcDbEntity
  8
0
100
AcDbLine
 62
250
  6
CONTINUOUS
 10
-11.0789105553
 20
-3.9286554648
 11
-11.0803132704
 21
-3.8665613336
  0
LINE
  5
32C
100
AcDbEntity
  8
0
100
AcDbLine
 62
250
  6
CONTINUOUS
 10
-10.9989671971
 20
-14.5256846931
 11
-10.9984822129
 21
-14.5486814049
  0
LINE
  5
32D
100
AcDbEntity
  8
0
100
AcDbLine
 62
250
  6
CONTINUOUS
 10
-11.0841762248
 20
4.0401402428
 11
-11.0836695147
 21
4.0153674044
  0
LINE
  5
32E
100
AcDbEntity
  8
0
100
AcDbLine
 62
250
  6
CONTINUOUS
 10
-11.0121049871
 20
-10.93899
 11
-10.9246502593
 21
-15.875622
  0
LINE
  5
32F
100
AcDbEntity
  8
0
100
AcDbLine
 62
250
  6
CONTINUOUS
 10
-11.018358992
 20
9.65
 11
-11.0278331549
 21
10.1928571671
  0
LINE
  5
330
100
AcDbEntity
  8
0
100
AcDbLine
 62
250
  6
CONTINUOUS
 10
-11.0230960735
 20
15.214285779
 11
-11.0278331549
 21
15.485714221
  0
LINE
  5
331
100
AcDbEntity
  8
0
100
AcDbLine
 62
250
  6
CONTINUOUS
 10
-10.9946735827
 20
14.264285779
 11
-10.9994106647
 21
14.535714221
  0
LINE
  5
332
100
AcDbEntity
  8
0
100
AcDbLine
 62
250
  6
CONTINUOUS
 10
-10.9994106647
 20
15.892857337
 11
-10.9946735827
 21
15.621428442
  0
LINE
  5
333
100
AcDbEntity
  8
0
100
AcDbLine
 62
250
  6
CONTINUOUS
 10
-11.0772485957
 20
-4.0250329538
 11
-11.0789105553
 21
-3.9286554648
  0
LINE
  5
334
100
AcDbEntity
  8
0
100
AcDbLine
 62
250
  6
CONTINUOUS
 10
-11.0776914026
 20
4.5267028944
 11
-11.0790121339
 21
4.6023841097
  0
LINE
  5
335
100
AcDbEntity
  8
0
100
AcDbLine
 62
250
  6
CONTINUOUS
 10
-10.9997688638
 20
-14.4762097351
 11
-10.9989671971
 21
-14.5256846931
  0
LINE
  5
336
100
AcDbEntity
  8
0
100
AcDbLine
 62
250
  6
CONTINUOUS
 10
-11.0836695147
 20
4.0153674044
 11
-11.0832365454
 21
3.9866761124
  0
LINE
  5
337
100
AcDbEntity
  8
0
100
AcDbLine
 62
250
  6
CONTINUOUS
 10
-11.076347075
 20
4.4171904032
 11
-11.0776914026
 21
4.5267028944
  0
LINE
  5
338
100
AcDbEntity
  8
0
100
AcDbLine
 62
250
  6
CONTINUOUS
 10
-11.0755609382
 20
-4.1640480313
 11
-11.0772485957
 21
-4.0250329538
  0
LINE
  5
339
100
AcDbEntity
  8
RACCORDO
100
AcDbLine
 62
250
  6
CONTINUOUS
 10
-10.645628166
 20
-23.8443375673
 11
-10.65
 21
-23.4104851482
  0
LINE
  5
33A
100
AcDbEntity
  8
RACCORDO
100
AcDbLine
 62
250
  6
CONTINUOUS
 10
-10.3956323968
 20
-23.6278312164
 11
-10.4007229979
 21
-23.1226497308
  0
LINE
  5
33B
100
AcDbEntity
  8
0
100
AcDbLine
 62
250
  6
CONTINUOUS
 10
-11.001160029
 20
-14.3510554691
 11
-10.9997688638
 21
-14.4762097351
  0
LINE
  5
33C
100
AcDbEntity
  8
0
100
AcDbLine
 62
250
  6
CONTINUOUS
 10
-11.0832365454
 20
3.9866761124
 11
-11.0827338344
 21
3.9375915065
  0
LINE
  5
33D
100
AcDbEntity
  8
0
100
AcDbLine
 62
250
  6
CONTINUOUS
 10
-11.0747818697
 20
-4.255024
 11
-11.0755609382
 21
-4.1640480313
  0
LINE
  5
33E
100
AcDbEntity
  8
0
100
AcDbLine
 62
250
  6
CONTINUOUS
 10
-11.0748665698
 20
4.2213330331
 11
-11.076347075
 21
4.4171904032
  0
LINE
  5
33F
100
AcDbEntity
  8
0
100
AcDbLine
 62
250
  6
CONTINUOUS
 10
-11.0026971167
 20
-14.1198949622
 11
-11.001160029
 21
-14.3510554691
  0
LINE
  5
340
100
AcDbEntity
  8
0
100
AcDbLine
 62
250
  6
CONTINUOUS
 10
-11.0827338344
 20
3.9375915065
 11
-11.0822264751
 21
3.8406695016
  0
LINE
  5
341
100
AcDbEntity
  8
0
100
AcDbLine
 62
250
  6
CONTINUOUS
 10
-11.0736283223
 20
3.8013969153
 11
-11.0748665698
 21
4.2213330331
  0
LINE
  5
342
100
AcDbEntity
  8
0
100
AcDbLine
 62
250
  6
CONTINUOUS
 10
-11.0038507719
 20
-13.6569273296
 11
-11.0026971167
 21
-14.1198949622
  0
LINE
  5
343
100
AcDbEntity
  8
ASSI
100
AcDbLine
 62
7
  6
CONTINUOUS
 10
-11.15
 20
17.6716990487
 11
-11.15
 21
-17.6716990487
  0
LINE
  5
344
100
AcDbEntity
  8
RACCORDO
100
AcDbLine
 62
7
  6
CONTINUOUS
 10
-11.15
 20
21.9411874598
 11
-11.15
 21
-21.9411874598
  0
LINE
  5
345
100
AcDbEntity
  8
0
100
AcDbLine
 62
250
  6
CONTINUOUS
 10
-11.1046038212
 20
-9.174176
 11
-11.1046038212
 21
-10.051012
  0
LINE
  5
346
100
AcDbEntity
  8
0
100
AcDbLine
 62
250
  6
CONTINUOUS
 10
-11.1046038212
 20
-11.134148
 11
-11.1046038212
 21
-12.010985
  0
LINE
  5
347
100
AcDbEntity
  8
0
100
AcDbLine
 62
250
  6
CONTINUOUS
 10
-11.1046038212
 20
-12.590985
 11
-11.1046038212
 21
-13.171006
  0
LINE
  5
348
100
AcDbEntity
  8
0
100
AcDbLine
 62
250
  6
CONTINUOUS
 10
-11.1046038212
 20
-13.557685
 11
-11.1046038212
 21
-14.137714
  0
LINE
  5
349
100
AcDbEntity
  8
0
100
AcDbLine
 62
250
  6
CONTINUOUS
 10
-11.1046038212
 20
-15.419971
 11
-11.1046038212
 21
-16.0
  0
LINE
  5
34A
100
AcDbEntity
  8
0
100
AcDbLine
 62
250
  6
CONTINUOUS
 10
-11.1046039433
 20
-7.856372
 11
-11.1046039433
 21
-7.276321
  0
LINE
  5
34B
100
AcDbEntity
  8
0
100
AcDbLine
 62
250
  6
CONTINUOUS
 10
-11.1046014306
 20
14.991935
 11
-11.1046014306
 21
14.252884
  0
LINE
  5
34C
100
AcDbEntity
  8
0
100
AcDbLine
 62
250
  6
CONTINUOUS
 10
-11.1046014306
 20
8.9669
 11
-11.1046014306
 21
8.227849
  0
LINE
  5
34D
100
AcDbEntity
  8
0
100
AcDbLine
 62
250
  6
CONTINUOUS
 10
-11.1046014306
 20
5.171133
 11
-11.1046014306
 21
5.793739
  0
LINE
  5
34E
100
AcDbEntity
  8
0
100
AcDbLine
 62
250
  6
CONTINUOUS
 10
-11.1046014306
 20
10.292325
 11
-11.1046014306
 21
11.216139
  0
LINE
  5
34F
100
AcDbEntity
  8
0
100
AcDbLine
 62
250
  6
CONTINUOUS
 10
-11.1046014306
 20
12.328754
 11
-11.1046014306
 21
12.911198
  0
LINE
  5
350
100
AcDbEntity
  8
0
100
AcDbLine
 62
250
  6
CONTINUOUS
 10
-11.0952417694
 20
-4.680792
 11
-11.0952417694
 21
-5.386478
  0
LINE
  5
351
100
AcDbEntity
  8
0
100
AcDbLine
 62
250
  6
CONTINUOUS
 10
-11.082926976
 20
-5.386471
 11
-11.082926976
 21
-4.680792
  0
LINE
  5
352
100
AcDbEntity
  8
0
100
AcDbLine
 62
250
  6
CONTINUOUS
 10
-11.0818939683
 20
3.323396
 11
-11.0822264751
 21
3.8406695016
  0
LINE
  5
353
100
AcDbEntity
  8
0
100
AcDbLine
 62
250
  6
CONTINUOUS
 10
-11.07356468
 20
-7.84744
 11
-11.07356468
 21
-7.285246
  0
LINE
  5
354
100
AcDbEntity
  8
0
100
AcDbLine
 62
250
  6
CONTINUOUS
 10
-11.07356468
 20
-4.872178
 11
-11.0735648021
 21
-5.378409
  0
LINE
  5
355
100
AcDbEntity
  8
0
100
AcDbLine
 62
250
  6
CONTINUOUS
 10
-11.0736283223
 20
3.8013969153
 11
-11.0734843588
 21
3.323396
  0
LINE
  5
356
100
AcDbEntity
  8
0
100
AcDbLine
 62
250
  6
CONTINUOUS
 10
-11.0731320483
 20
15.007869
 11
-11.0731320483
 21
14.176491
  0
LINE
  5
357
100
AcDbEntity
  8
0
100
AcDbLine
 62
250
  6
CONTINUOUS
 10
-11.0731320483
 20
8.982943
 11
-11.0731320483
 21
8.151456
  0
LINE
  5
358
100
AcDbEntity
  8
0
100
AcDbLine
 62
250
  6
CONTINUOUS
 10
-11.0647224388
 20
7.990812
 11
-11.0647224388
 21
9.139549
  0
LINE
  5
359
100
AcDbEntity
  8
0
100
AcDbLine
 62
250
  6
CONTINUOUS
 10
-11.0647224388
 20
14.015846
 11
-11.0647224388
 21
15.164584
  0
LINE
  5
35A
100
AcDbEntity
  8
0
100
AcDbLine
 62
250
  6
CONTINUOUS
 10
-11.0639494847
 20
-7.108317
 11
-11.0639494847
 21
-8.024362
  0
LINE
  5
35B
100
AcDbEntity
  8
0
100
AcDbLine
 62
250
  6
CONTINUOUS
 10
-11.0624067525
 20
5.793739
 11
-11.0624067525
 21
6.866738
  0
LINE
  5
35C
100
AcDbEntity
  8
0
100
AcDbLine
 62
250
  6
CONTINUOUS
 10
-11.0539971429
 20
-15.068868
 11
-11.053997265
 21
-14.488824
  0
LINE
  5
35D
100
AcDbEntity
  8
0
100
AcDbLine
 62
250
  6
CONTINUOUS
 10
-11.0539971429
 20
-13.171014
 11
-11.053997265
 21
-12.590992
  0
LINE
  5
35E
100
AcDbEntity
  8
0
100
AcDbLine
 62
250
  6
CONTINUOUS
 10
-11.0539974046
 20
-8.207475
 11
-11.053997265
 21
-8.787497
  0
LINE
  5
35F
100
AcDbEntity
  8
0
100
AcDbLine
 62
250
  6
CONTINUOUS
 10
-11.053997265
 20
-10.882587
 11
-11.0539974046
 21
-10.30258
  0
LINE
  5
360
100
AcDbEntity
  8
0
100
AcDbLine
 62
250
  6
CONTINUOUS
 10
-11.0539975268
 20
-3.637619
 11
-11.0539974046
 21
-4.290924
  0
LINE
  5
361
100
AcDbEntity
  8
0
100
AcDbLine
 62
250
  6
CONTINUOUS
 10
-11.0539971429
 20
12.911198
 11
-11.0539971429
 21
12.027546
  0
LINE
  5
362
100
AcDbEntity
  8
0
100
AcDbLine
 62
250
  6
CONTINUOUS
 10
-11.0539971429
 20
10.87477
 11
-11.0539971429
 21
10.292325
  0
LINE
  5
363
100
AcDbEntity
  8
0
100
AcDbLine
 62
250
  6
CONTINUOUS
 10
-11.0539971429
 20
6.866738
 11
-11.0539971429
 21
5.171133
  0
LINE
  5
364
100
AcDbEntity
  8
0
100
AcDbLine
 62
250
  6
CONTINUOUS
 10
-11.0539974046
 20
-5.378474
 11
-11.0539974046
 21
-5.958503
  0
LINE
  5
365
100
AcDbEntity
  8
0
100
AcDbLine
 62
250
  6
CONTINUOUS
 10
-11.053997265
 20
-12.010985
 11
-11.053997265
 21
-11.430963
  0
LINE
  5
366
100
AcDbEntity
  8
0
100
AcDbLine
 62
250
  6
CONTINUOUS
 10
-11.053997265
 20
-9.754197
 11
-11.053997265
 21
-9.174176
  0
LINE
  5
367
100
AcDbEntity
  8
0
100
AcDbLine
 62
250
  6
CONTINUOUS
 10
-11.0539971429
 20
2.70079
 11
-11.0539971429
 21
3.323396
  0
LINE
  5
368
100
AcDbEntity
  8
0
100
AcDbLine
 62
250
  6
CONTINUOUS
 10
-11.0539971429
 20
7.179514
 11
-11.0539971429
 21
7.773964
  0
LINE
  5
369
100
AcDbEntity
  8
0
100
AcDbLine
 62
250
  6
CONTINUOUS
 10
-11.0539971429
 20
9.348431
 11
-11.0539971429
 21
9.975074
  0
LINE
  5
36A
100
AcDbEntity
  8
0
100
AcDbLine
 62
250
  6
CONTINUOUS
 10
-11.0539971429
 20
13.20444
 11
-11.0539971429
 21
13.798889
  0
LINE
  5
36B
100
AcDbEntity
  8
0
100
AcDbLine
 62
250
  6
CONTINUOUS
 10
-11.0539971429
 20
15.373574
 11
-11.0539971429
 21
16.0
  0
LINE
  5
36C
100
AcDbEntity
  8
0
100
AcDbLine
 62
250
  6
CONTINUOUS
 10
-11.053997265
 20
-6.345182
 11
-11.0539974046
 21
-6.925211
  0
LINE
  5
36D
100
AcDbEntity
  8
0
100
AcDbLine
 62
250
  6
CONTINUOUS
 10
-11.0278331549
 20
12.9071428895
 11
-11.0278331549
 21
12.5
  0
LINE
  5
36E
100
AcDbEntity
  8
0
100
AcDbLine
 62
250
  6
CONTINUOUS
 10
-11.0278331549
 20
13.721428442
 11
-11.0278331549
 21
14.535714221
  0
LINE
  5
36F
100
AcDbEntity
  8
0
100
AcDbLine
 62
250
  6
CONTINUOUS
 10
-11.0278331549
 20
15.485714221
 11
-11.0278331549
 21
15.621428442
  0
LINE
  5
370
100
AcDbEntity
  8
0
100
AcDbLine
 62
250
  6
CONTINUOUS
 10
-11.0136219105
 20
14.264285779
 11
-11.0136219105
 21
13.721428442
  0
LINE
  5
371
100
AcDbEntity
  8
0
100
AcDbLine
 62
250
  6
CONTINUOUS
 10
-11.004751849
 20
-13.083924
 11
-11.0047615889
 21
-13.656927
  0
LINE
  5
372
100
AcDbEntity
  8
0
100
AcDbLine
 62
250
  6
CONTINUOUS
 10
-11.0031387217
 20
-14.18241
 11
-11.0031387217
 21
-14.281784
  0
LINE
  5
373
100
AcDbEntity
  8
0
100
AcDbLine
 62
250
  6
CONTINUOUS
 10
-11.0017792054
 20
11.685714221
 11
-11.0017792054
 21
10.7357143342
  0
LINE
  5
374
100
AcDbEntity
  8
0
100
AcDbLine
 62
250
  6
CONTINUOUS
 10
-11.000965217
 20
-13.656927
 11
-11.0009554771
 21
-13.083924
  0
LINE
  5
375
100
AcDbEntity
  8
0
100
AcDbLine
 62
250
  6
CONTINUOUS
 10
-10.9962506389
 20
-12.372066
 11
-10.9962506389
 21
-14.809973
  0
LINE
  5
376
100
AcDbEntity
  8
0
100
AcDbLine
 62
250
  6
CONTINUOUS
 10
-10.9946735827
 20
15.621428442
 11
-10.9946735827
 21
15.485714221
  0
LINE
  5
377
100
AcDbEntity
  8
0
100
AcDbLine
 62
250
  6
CONTINUOUS
 10
-10.9946735827
 20
13.1785713315
 11
-10.9946735827
 21
12.2285713315
  0
LINE
  5
378
100
AcDbEntity
  8
0
100
AcDbLine
 62
250
  6
CONTINUOUS
 10
-10.9946735827
 20
13.721428442
 11
-10.9946735827
 21
14.264285779
  0
LINE
  5
379
100
AcDbEntity
  8
0
100
AcDbLine
 62
250
  6
CONTINUOUS
 10
-10.9899160213
 20
-12.082053
 11
-10.9899160213
 21
-12.432113
  0
LINE
  5
37A
100
AcDbEntity
  8
0
100
AcDbLine
 62
250
  6
CONTINUOUS
 10
-10.983414638
 20
-12.432113
 11
-10.983414638
 21
-12.082053
  0
LINE
  5
37B
100
AcDbEntity
  8
0
100
AcDbLine
 62
250
  6
CONTINUOUS
 10
-10.9818015107
 20
-12.88859
 11
-10.9818015107
 21
-13.71193
  0
LINE
  5
37C
100
AcDbEntity
  8
0
100
AcDbLine
 62
250
  6
CONTINUOUS
 10
-10.9780375703
 20
-13.71193
 11
-10.9780375703
 21
-12.88859
  0
LINE
  5
37D
100
AcDbEntity
  8
ASSI
100
AcDbLine
 62
7
  6
CONTINUOUS
 10
-10.9754493507
 20
14.2432004109
 11
-10.9754493507
 21
17.5993978025
  0
LINE
  5
37E
100
AcDbEntity
  8
0
100
AcDbLine
 62
250
  6
CONTINUOUS
 10
-10.937562853
 20
-12.928959
 11
-10.937562853
 21
-14.274826
  0
LINE
  5
37F
100
AcDbEntity
  8
0
100
AcDbLine
 62
250
  6
CONTINUOUS
 10
-10.9341338404
 20
-14.218117
 11
-10.9341338404
 21
-14.100497
  0
LINE
  5
380
100
AcDbEntity
  8
0
100
AcDbLine
 62
250
  6
CONTINUOUS
 10
-10.9059609467
 20
-11.407638
 11
-10.9059609467
 21
-15.592362
  0
LINE
  5
381
100
AcDbEntity
  8
0
100
AcDbLine
 62
250
  6
CONTINUOUS
 10
-10.8881740261
 20
-15.592362
 11
-10.8881740261
 21
-11.407638
  0
LINE
  5
382
100
AcDbEntity
  8
0
100
AcDbLine
 62
250
  6
CONTINUOUS
 10
-10.8346304049
 20
-10.8581264558
 11
-10.8346304049
 21
-9.36959
  0
LINE
  5
383
100
AcDbEntity
  8
0
100
AcDbLine
 62
250
  6
CONTINUOUS
 10
-10.8212772803
 20
-9.36959
 11
-10.8212772803
 21
-10.858126
  0
LINE
  5
384
100
AcDbEntity
  8
0
100
AcDbLine
 62
250
  6
CONTINUOUS
 10
-10.8061283094
 20
4.673742
 11
-10.8061283094
 21
3.726755
  0
LINE
  5
385
100
AcDbEntity
  8
0
100
AcDbLine
 62
250
  6
CONTINUOUS
 10
-10.8061283094
 20
2.840243
 11
-10.8061283094
 21
2.410407
  0
LINE
  5
386
100
AcDbEntity
  8
0
100
AcDbLine
 62
250
  6
CONTINUOUS
 10
-10.8061283094
 20
8.124855
 11
-10.8061283094
 21
9.180447
  0
LINE
  5
387
100
AcDbEntity
  8
0
100
AcDbLine
 62
250
  6
CONTINUOUS
 10
-10.7947859729
 20
3.726755
 11
-10.7947859729
 21
4.607346
  0
LINE
  5
388
100
AcDbEntity
  8
0
100
AcDbLine
 62
250
  6
CONTINUOUS
 10
-10.7916771432
 20
9.456284
 11
-10.7916771432
 21
10.182941
  0
LINE
  5
389
100
AcDbEntity
  8
0
100
AcDbLine
 62
250
  6
CONTINUOUS
 10
-10.7915472996
 20
1.303298
 11
-10.7915472996
 21
2.036483
  0
LINE
  5
38A
100
AcDbEntity
  8
0
100
AcDbLine
 62
250
  6
CONTINUOUS
 10
-10.7834436365
 20
2.410407
 11
-10.7834436365
 21
2.840243
  0
LINE
  5
38B
100
AcDbEntity
  8
0
100
AcDbLine
 62
250
  6
CONTINUOUS
 10
-10.7834436365
 20
3.726755
 11
-10.7834436365
 21
4.686432
  0
LINE
  5
38C
100
AcDbEntity
  8
0
100
AcDbLine
 62
250
  6
CONTINUOUS
 10
-10.7834436365
 20
10.638918
 11
-10.7834436365
 21
11.385852
  0
LINE
  5
38D
100
AcDbEntity
  8
ASSI
100
AcDbLine
 62
250
  6
CONTINUOUS
 10
-10.7482288738
 20
-17.5052799993
 11
-10.7482288738
 21
14.286936906
  0
LINE
  5
38E
100
AcDbEntity
  8
RACCORDO
100
AcDbLine
 62
7
  6
CONTINUOUS
 10
-10.65
 20
-22.4
 11
-10.65
 21
-24.2500042308
  0
LINE
  5
38F
100
AcDbEntity
  8
RACCORDO
100
AcDbLine
 62
7
  6
CONTINUOUS
 10
-10.65
 20
22.4
 11
-10.65
 21
24.2500042308
  0
LINE
  5
390
100
AcDbEntity
  8
RACCORDO
100
AcDbLine
 62
250
  6
CONTINUOUS
 10
-10.645628166
 20
24.2456323968
 11
-10.645628166
 21
23.8443375673
  0
LINE
  5
391
100
AcDbEntity
  8
RACCORDO
100
AcDbLine
 62
250
  6
CONTINUOUS
 10
-10.645628166
 20
-23.8443375673
 11
-10.645628166
 21
-24.2456323968
  0
LINE
  5
392
100
AcDbEntity
  8
0
100
AcDbLine
 62
250
  6
CONTINUOUS
 10
-11.096191821
 20
3.323396
 11
-11.0959822501
 21
3.794662096
  0
LINE
  5
393
100
AcDbEntity
  8
0
100
AcDbLine
 62
250
  6
CONTINUOUS
 10
-11.0035851661
 20
-13.0484324861
 11
-11.0036741048
 21
-13.0839235619
  0
LINE
  5
394
100
AcDbEntity
  8
0
100
AcDbLine
 62
250
  6
CONTINUOUS
 10
-11.1041998583
 20
-4.3989315587
 11
-11.1046039433
 21
-5.958503
  0
LINE
  5
395
100
AcDbEntity
  8
0
100
AcDbLine
 62
250
  6
CONTINUOUS
 10
-11.1035649121
 20
4.1528869186
 11
-11.1046014306
 21
2.70079
  0
LINE
  5
396
100
AcDbEntity
  8
0
100
AcDbLine
 62
250
  6
CONTINUOUS
 10
-11.0959822501
 20
3.794662096
 11
-11.0954966139
 21
3.9177618517
  0
LINE
  5
397
100
AcDbEntity
  8
0
100
AcDbLine
 62
250
  6
CONTINUOUS
 10
-11.001955848
 20
-12.668540168
 11
-11.0035851661
 21
-13.0484324861
  0
LINE
  5
398
100
AcDbEntity
  8
0
100
AcDbLine
 62
250
  6
CONTINUOUS
 10
-11.1030099323
 20
-4.2076656483
 11
-11.1041998583
 21
-4.3989315587
  0
LINE
  5
399
100
AcDbEntity
  8
0
100
AcDbLine
 62
250
  6
CONTINUOUS
 10
-11.1019975716
 20
4.3904669015
 11
-11.1035649121
 21
4.1528869186
  0
LINE
  5
39A
100
AcDbEntity
  8
RACCORDO
100
AcDbLine
 62
250
  6
CONTINUOUS
 10
-10.65
 20
23.4104851482
 11
-10.645628166
 21
23.8443375673
  0
LINE
  5
39B
100
AcDbEntity
  8
RACCORDO
100
AcDbLine
 62
250
  6
CONTINUOUS
 10
-10.4007229979
 20
23.1226497308
 11
-10.3956323968
 21
23.6278312164
  0
LINE
  5
39C
100
AcDbEntity
  8
0
100
AcDbLine
 62
250
  6
CONTINUOUS
 10
-11.0954966139
 20
3.9177618517
 11
-11.0950362726
 21
3.9709961011
  0
LINE
  5
39D
100
AcDbEntity
  8
0
100
AcDbLine
 62
250
  6
CONTINUOUS
 10
-11.0005132829
 20
-12.5087448499
 11
-11.001955848
 21
-12.668540168
  0
LINE
  5
39E
100
AcDbEntity
  8
0
100
AcDbLine
 62
250
  6
CONTINUOUS
 10
-11.1014613858
 20
-4.0637084042
 11
-11.1030099323
 21
-4.2076656483
  0
LINE
  5
39F
100
AcDbEntity
  8
0
100
AcDbLine
 62
250
  6
CONTINUOUS
 10
-11.1006906616
 20
4.5059530338
 11
-11.1019975716
 21
4.3904669015
  0
LINE
  5
3A0
100
AcDbEntity
  8
0
100
AcDbLine
 62
250
  6
CONTINUOUS
 10
-10.9993625467
 20
-12.4228196107
 11
-11.0005132829
 21
-12.5087448499
  0
LINE
  5
3A1
100
AcDbEntity
  8
0
100
AcDbLine
 62
250
  6
CONTINUOUS
 10
-11.0950362726
 20
3.9709961011
 11
-11.0945323931
 21
4.0085354483
  0
LINE
  5
3A2
100
AcDbEntity
  8
0
100
AcDbLine
 62
250
  6
CONTINUOUS
 10
-10.9989244509
 20
-12.396457109
 11
-10.9993625467
 21
-12.4228196107
  0
LINE
  5
3A3
100
AcDbEntity
  8
0
100
AcDbLine
 62
250
  6
CONTINUOUS
 10
-11.099896526
 20
-3.9623083266
 11
-11.1014613858
 21
-4.0637084042
  0
LINE
  5
3A4
100
AcDbEntity
  8
0
100
AcDbLine
 62
250
  6
CONTINUOUS
 10
-11.0278331549
 20
15.621428442
 11
-11.0230960735
 21
15.892857337
  0
LINE
  5
3A5
100
AcDbEntity
  8
0
100
AcDbLine
 62
250
  6
CONTINUOUS
 10
-10.9946735827
 20
15.485714221
 11
-10.9994106647
 21
15.214285779
  0
LINE
  5
3A6
100
AcDbEntity
  8
0
100
AcDbLine
 62
250
  6
CONTINUOUS
 10
-11.0088848281
 20
14.535714221
 11
-11.0136219105
 21
14.264285779
  0
LINE
  5
3A7
100
AcDbEntity
  8
0
100
AcDbLine
 62
250
  6
CONTINUOUS
 10
-11.0230960735
 20
13.1785713315
 11
-11.0278331549
 21
12.9071428895
  0
LINE
  5
3A8
100
AcDbEntity
  8
0
100
AcDbLine
 62
250
  6
CONTINUOUS
 10
-11.0994238105
 20
4.584670781
 11
-11.1006906616
 21
4.5059530338
  0
LINE
  5
3A9
100
AcDbEntity
  8
0
100
AcDbLine
 62
250
  6
CONTINUOUS
 10
-10.9248128881
 20
-11.268444
 11
-11.0116917384
 21
-16.00013
  0
LINE
  5
3AA
100
AcDbEntity
  8
0
100
AcDbLine
 62
250
  6
CONTINUOUS
 10
-11.0945323931
 20
4.0085354483
 11
-11.0940418962
 21
4.0343147679
  0
LINE
  5
3AB
100
AcDbEntity
  8
0
100
AcDbLine
 62
250
  6
CONTINUOUS
 10
-11.0985563206
 20
-3.8958002783
 11
-11.099896526
 21
-3.9623083266
  0
LINE
  5
3AC
100
AcDbEntity
  8
0
100
AcDbLine
 62
250
  6
CONTINUOUS
 10
-10.7834436365
 20
6.955181
 11
-10.8061283094
 21
5.923056
  0
LINE
  5
3AD
100
AcDbEntity
  8
0
100
AcDbLine
 62
250
  6
CONTINUOUS
 10
-11.098336126
 20
4.6352720693
 11
-11.0994238105
 21
4.584670781
  0
LWPOLYLINE
  5
3AE
100
AcDbEntity
  8
RACCORDO
100
AcDbPolyline
 62
7
  6
CONTINUOUS
 90
34
 70
0
 10
-10.65
 20
24.2500042308
 10
-10.6497168498
 20
24.261899516
 10
-10.6488680342
 20
24.2737678556
 10
-10.6474554741
 20
24.2855823661
 10
-10.6454823677
 20
24.2973162875
 10
-10.6429531817
 20
24.3089430388
 10
-10.6398736417
 20
24.320436279
 10
-10.6362507213
 20
24.3317699738
 10
-10.6320926258
 20
24.3429184493
 10
-10.6274087722
 20
24.3538564463
 10
-10.6222097688
 20
24.3645591876
 10
-10.6165073916
 20
24.3750024283
 10
-10.6103145581
 20
24.3851625059
 10
-10.6036452955
 20
24.3950164051
 10
-10.5965147107
 20
24.4045418038
 10
-10.5889389589
 20
24.4137171191
 10
-10.5809352005
 20
24.4225215661
 10
-10.5725215661
 20
24.4309352005
 10
-10.5637171191
 20
24.4389389589
 10
-10.5545418038
 20
24.4465147107
 10
-10.5450164051
 20
24.4536452955
 10
-10.5351625059
 20
24.4603145581
 10
-10.5250024283
 20
24.4665073916
 10
-10.5145591876
 20
24.4722097688
 10
-10.5038564463
 20
24.4774087722
 10
-10.4929184493
 20
24.4820926258
 10
-10.4817699738
 20
24.4862507213
 10
-10.470436279
 20
24.4898736417
 10
-10.4589430388
 20
24.4929531817
 10
-10.4473162875
 20
24.4954823677
 10
-10.4355823661
 20
24.4974554741
 10
-10.4237678556
 20
24.4988680342
 10
-10.411899516
 20
24.4997168498
 10
-10.4000042308
 20
24.5
  0
LINE
  5
3AF
100
AcDbEntity
  8
0
100
AcDbLine
 62
250
  6
CONTINUOUS
 10
-11.0940418962
 20
4.0343147679
 11
-11.0936355623
 21
4.0511022627
  0
LWPOLYLINE
  5
3B0
100
AcDbEntity
  8
RACCORDO
100
AcDbPolyline
 62
250
  6
CONTINUOUS
 90
31
 70
0
 10
-10.645628166
 20
24.2456323968
 10
-10.6452851274
 20
24.2587158828
 10
-10.6442578375
 20
24.2717635094
 10
-10.642549112
 20
24.2847395155
 10
-10.640163634
 20
24.2976083364
 10
-10.6371079418
 20
24.3103347009
 10
-10.6333904104
 20
24.3228837286
 10
-10.6290212289
 20
24.3352210249
 10
-10.6240123724
 20
24.3473127755
 10
-10.6183775693
 20
24.3591258393
 10
-10.6121322634
 20
24.3706278389
 10
-10.605293572
 20
24.3817872494
 10
-10.5978802386
 20
24.392573485
 10
-10.5899125818
 20
24.4029569826
 10
-10.5814124395
 20
24.4129092831
 10
-10.572403109
 20
24.422403109
 10
-10.5629092831
 20
24.4314124395
 10
-10.5529569826
 20
24.4399125818
 10
-10.542573485
 20
24.4478802386
 10
-10.5317872494
 20
24.455293572
 10
-10.5206278389
 20
24.4621322634
 10
-10.5091258393
 20
24.4683775693
 10
-10.4973127755
 20
24.4740123724
 10
-10.4852210249
 20
24.4790212289
 10
-10.4728837286
 20
24.4833904104
 10
-10.4603347009
 20
24.4871079418
 10
-10.4476083364
 20
24.490163634
 10
-10.4347395155
 20
24.492549112
 10
-10.4217635094
 20
24.4942578375
 10
-10.4087158828
 20
24.4952851274
 10
-10.3956323968
 20
24.495628166
  0
LINE
  5
3B1
100
AcDbEntity
  8
0
100
AcDbLine
 62
250
  6
CONTINUOUS
 10
-11.0975545944
 20
4.6647043821
 11
-11.098336126
 21
4.6352720693
  0
LINE
  5
3B2
100
AcDbEntity
  8
0
100
AcDbLine
 62
250
  6
CONTINUOUS
 10
-11.0970928781
 20
-3.8384616756
 11
-11.0985563206
 21
-3.8958002783
  0
LINE
  5
3B3
100
AcDbEntity
  8
0
100
AcDbLine
 62
250
  6
CONTINUOUS
 10
-10.8061283094
 20
11.547866
 11
-10.7922214707
 21
12.023604
  0
LINE
  5
3B4
100
AcDbEntity
  8
0
100
AcDbLine
 62
250
  6
CONTINUOUS
 10
-11.0936355623
 20
4.0511022627
 11
-11.0931645581
 21
4.0672512393
  0
LINE
  5
3B5
100
AcDbEntity
  8
0
100
AcDbLine
 62
250
  6
CONTINUOUS
 10
-11.0967357562
 20
4.6905961892
 11
-11.0975545944
 21
4.6647043821
  0
LINE
  5
3B6
100
AcDbEntity
  8
0
100
AcDbLine
 62
250
  6
CONTINUOUS
 10
-11.0960576778
 20
-3.8057495705
 11
-11.0970928781
 21
-3.8384616756
  0
LINE
  5
3B7
100
AcDbEntity
  8
0
100
AcDbLine
 62
250
  6
CONTINUOUS
 10
-11.0747818348
 20
-4.255022
 11
-11.0539975268
 21
-3.637619
  0
LINE
  5
3B8
100
AcDbEntity
  8
0
100
AcDbLine
 62
250
  6
CONTINUOUS
 10
-11.0539974046
 20
-4.290924
 11
-11.07356468
 21
-4.872178
  0
LINE
  5
3B9
100
AcDbEntity
  8
0
100
AcDbLine
 62
250
  6
CONTINUOUS
 10
-11.0230960735
 20
15.892857337
 11
-11.018358992
 21
16.028571558
  0
LINE
  5
3BA
100
AcDbEntity
  8
0
100
AcDbLine
 62
250
  6
CONTINUOUS
 10
-10.9994106647
 20
15.214285779
 11
-11.0041477466
 21
15.078571558
  0
LINE
  5
3BB
100
AcDbEntity
  8
0
100
AcDbLine
 62
250
  6
CONTINUOUS
 10
-11.0931645581
 20
4.0672512393
 11
-11.0927821827
 21
4.0783367237
  0
LINE
  5
3BC
100
AcDbEntity
  8
0
100
AcDbLine
 62
250
  6
CONTINUOUS
 10
-11.1046014306
 20
11.216139
 11
-11.0644999196
 21
12.328754
  0
LINE
  5
3BD
100
AcDbEntity
  8
0
100
AcDbLine
 62
250
  6
CONTINUOUS
 10
-10.7834436365
 20
0.302869
 11
-10.8061283094
 21
-0.32
  0
LINE
  5
3BE
100
AcDbEntity
  8
0
100
AcDbLine
 62
250
  6
CONTINUOUS
 10
-11.0539971429
 20
12.027546
 11
-11.0963494969
 21
10.87477
  0
LINE
  5
3BF
100
AcDbEntity
  8
0
100
AcDbLine
 62
250
  6
CONTINUOUS
 10
-10.7834436365
 20
10.389946
 11
-10.8061283094
 21
9.819613
  0
LINE
  5
3C0
100
AcDbEntity
  8
0
100
AcDbLine
 62
250
  6
CONTINUOUS
 10
-10.7834436365
 20
2.240224
 11
-10.8061283094
 21
1.66989
  0
LWPOLYLINE
  5
3C1
100
AcDbEntity
  8
0
100
AcDbPolyline
 62
250
  6
CONTINUOUS
 90
17
 70
0
 10
-11.0927821827
 20
4.0783367237
 10
-11.0923891037
 20
4.0880169238
 10
-11.0921889054
 20
4.0923141379
 10
-11.0919864574
 20
4.0962409458
 10
-11.0917676995
 20
4.1000267408
 10
-11.0915467747
 20
4.103400823
 10
-11.0913239253
 20
4.1063821336
 10
-11.0910993937
 20
4.1089896139
 10
-11.0908734222
 20
4.1112422052
 10
-11.0906462531
 20
4.1131588488
 10
-11.0904181287
 20
4.1147584859
 10
-11.0901892914
 20
4.1160600579
 10
-11.0899599833
 20
4.1170825061
 10
-11.0897304469
 20
4.1178447717
 10
-11.0895009245
 20
4.118365796
 10
-11.0892716584
 20
4.1186645203
 10
-11.0890428909
 20
4.1187598859
  0
LWPOLYLINE
  5
3C2
100
AcDbEntity
  8
ASSI
100
AcDbPolyline
 62
250
  6
CONTINUOUS
 90
13
 70
0
 10
-10.7482288738
 20
14.286936906
 10
-10.7444094188
 20
14.3743188449
 10
-10.7329734201
 20
14.4610130858
 10
-10.7140133848
 20
14.5463573526
 10
-10.6876823942
 20
14.6296916989
 10
-10.6541848223
 20
14.7103902575
 10
-10.6137671821
 20
14.7878629542
 10
-10.5666837084
 20
14.8615919144
 10
-10.5133315984
 20
14.9309288869
 10
-10.454291891
 20
14.9951679553
 10
-10.3901227458
 20
15.0538093654
 10
-10.321298065
 20
15.1065183403
 10
-10.248372717
 20
15.1529476539
  0
LINE
  5
3C3
100
AcDbEntity
  8
0
100
AcDbLine
 62
250
  6
CONTINUOUS
 10
-11.0539971429
 20
16.0
 11
-11.1046014306
 21
14.991935
  0
LINE
  5
3C4
100
AcDbEntity
  8
0
100
AcDbLine
 62
250
  6
CONTINUOUS
 10
-11.0539971429
 20
9.975074
 11
-11.1046014306
 21
8.9669
  0
LINE
  5
3C5
100
AcDbEntity
  8
0
100
AcDbLine
 62
250
  6
CONTINUOUS
 10
-11.0647224388
 20
15.164584
 11
-11.0539971429
 21
15.373574
  0
LINE
  5
3C6
100
AcDbEntity
  8
0
100
AcDbLine
 62
250
  6
CONTINUOUS
 10
-11.0647224388
 20
9.139549
 11
-11.0539971429
 21
9.348431
  0
LINE
  5
3C7
100
AcDbEntity
  8
0
100
AcDbLine
 62
250
  6
CONTINUOUS
 10
-11.0949286163
 20
14.606449
 11
-11.0731320483
 21
15.007869
  0
LINE
  5
3C8
100
AcDbEntity
  8
0
100
AcDbLine
 62
250
  6
CONTINUOUS
 10
-11.094931478
 20
8.581471
 11
-11.0731320483
 21
8.982943
  0
LINE
  5
3C9
100
AcDbEntity
  8
0
100
AcDbLine
 62
250
  6
CONTINUOUS
 10
-11.1046039433
 20
-7.276321
 11
-11.053997265
 21
-6.345182
  0
LINE
  5
3CA
100
AcDbEntity
  8
0
100
AcDbLine
 62
250
  6
CONTINUOUS
 10
-11.07356468
 20
-7.285246
 11
-11.0888426152
 21
-7.56635
  0
LINE
  5
3CB
100
AcDbEntity
  8
0
100
AcDbLine
 62
250
  6
CONTINUOUS
 10
-11.0539974046
 20
-6.925211
 11
-11.0639494847
 21
-7.108317
  0
LINE
  5
3CC
100
AcDbEntity
  8
ASSI
100
AcDbLine
 62
7
  6
CONTINUOUS
 10
-8.1293014639
 20
16.3797920206
 11
-8.1188127861
 21
16.426348557
  0
LINE
  5
3CD
100
AcDbEntity
  8
0
100
AcDbLine
 62
7
  6
CONTINUOUS
 10
-11.0624067525
 20
6.3605540153
 11
-11.0539971429
 21
6.3689636249
  0
LINE
  5
3CE
100
AcDbEntity
  8
0
100
AcDbLine
 62
7
  6
CONTINUOUS
 10
-11.0624067525
 20
6.1505433013
 11
-11.0539971429
 21
6.1589529108
  0
LINE
  5
3CF
100
AcDbEntity
  8
0
100
AcDbLine
 62
7
  6
CONTINUOUS
 10
-11.0624067525
 20
5.9405325873
 11
-11.0539971429
 21
5.9489421968
  0
LINE
  5
3D0
100
AcDbEntity
  8
0
100
AcDbLine
 62
7
  6
CONTINUOUS
 10
-11.1046014306
 20
5.6883271951
 11
-11.0539971429
 21
5.7389314828
  0
LINE
  5
3D1
100
AcDbEntity
  8
0
100
AcDbLine
 62
7
  6
CONTINUOUS
 10
-11.1046014306
 20
5.4783164811
 11
-11.0539971429
 21
5.5289207688
  0
LINE
  5
3D2
100
AcDbEntity
  8
0
100
AcDbLine
 62
7
  6
CONTINUOUS
 10
-11.1046014306
 20
5.2683057671
 11
-11.0539971429
 21
5.3189100548
  0
LINE
  5
3D3
100
AcDbEntity
  8
ASSI
100
AcDbLine
 62
7
  6
CONTINUOUS
 10
-4.5595935227
 20
11.2786384359
 11
-3.9921264314
 21
11.8461055272
  0
LINE
  5
3D4
100
AcDbEntity
  8
0
100
AcDbLine
 62
250
  6
CONTINUOUS
 10
-4.5407829172
 20
11.2833069057
 11
-3.9739560104
 21
11.8501338125
  0
LINE
  5
3D5
100
AcDbEntity
  8
0
100
AcDbLine
 62
7
  6
CONTINUOUS
 10
-11.098069984
 20
4.6448050717
 11
-11.0804827155
 21
4.6623923402
  0
LINE
  5
3D6
100
AcDbEntity
  8
0
100
AcDbLine
 62
7
  6
CONTINUOUS
 10
-11.1015806648
 20
4.4312836769
 11
-11.0767831957
 21
4.456081146
  0
LINE
  5
3D7
100
AcDbEntity
  8
0
100
AcDbLine
 62
7
  6
CONTINUOUS
 10
-11.1032274115
 20
4.2196262162
 11
-11.0750293146
 21
4.2478243131
  0
LINE
  5
3D8
100
AcDbEntity
  8
0
100
AcDbLine
 62
7
  6
CONTINUOUS
 10
-11.1040840411
 20
4.0087588725
 11
-11.0943496882
 21
4.0184932254
  0
LINE
  5
3D9
100
AcDbEntity
  8
0
100
AcDbLine
 62
7
  6
CONTINUOUS
 10
-11.0839301503
 20
4.0289127633
 11
-11.0740989673
 21
4.0387439463
  0
LINE
  5
3DA
100
AcDbEntity
  8
0
100
AcDbLine
 62
7
  6
CONTINUOUS
 10
-11.1044597722
 20
3.7983724275
 11
-11.0959519203
 21
3.8068802793
  0
LINE
  5
3DB
100
AcDbEntity
  8
0
100
AcDbLine
 62
7
  6
CONTINUOUS
 10
-11.0821702992
 20
3.8206619004
 11
-11.073666167
 21
3.8291660326
  0
LINE
  5
3DC
100
AcDbEntity
  8
0
100
AcDbLine
 62
7
  6
CONTINUOUS
 10
1.1177895964
 20
14.3547572011
 11
1.1109927238
 21
14.3508330249
  0
LINE
  5
3DD
100
AcDbEntity
  8
0
100
AcDbLine
 62
7
  6
CONTINUOUS
 10
-0.2049832979
 20
13.5910539146
 11
-0.5344555434
 21
13.4008330249
  0
LINE
  5
3DE
100
AcDbEntity
  8
0
100
AcDbLine
 62
7
  6
CONTINUOUS
 10
-3.5655444566
 20
11.6508330249
 11
-3.8950245554
 21
11.4606076012
  0
LINE
  5
3DF
100
AcDbEntity
  8
0
100
AcDbLine
 62
250
  6
CONTINUOUS
 10
6.7788537804
 20
16.8334907976
 11
5.2176039671
 21
15.9321027976
  0
LINE
  5
3E0
100
AcDbEntity
  8
ASSI
100
AcDbLine
 62
250
  6
CONTINUOUS
 10
11.15
 20
17.6716990487
 11
10.7482288738
 21
17.5052799993
  0
LWPOLYLINE
  5
3E1
100
AcDbEntity
  8
0
100
AcDbPolyline
 62
7
  6
CONTINUOUS
 90
15
 70
0
 10
-2.9527506234
 20
11.788755203
 10
-3.0063470616
 20
11.7670649208
 10
-3.1485683964
 20
11.7119867592
 10
-3.2921556755
 20
11.6588340967
 10
-3.4368177247
 20
11.607781616
 10
-3.5828457182
 20
11.5586546344
 10
-3.7311131794
 20
11.5109291032
 10
-3.8814602593
 20
11.464601358
 10
-4.034046807
 20
11.4196750633
 10
-4.1902258927
 20
11.3756371643
 10
-4.3497424221
 20
11.332493888
 10
-4.5128514895
 20
11.2902390074
 10
-4.6816714489
 20
11.2483407869
 10
-4.8569084183
 20
11.2066219816
 10
-4.9795227996
 20
11.1785940524
  0
LINE
  5
3E2
100
AcDbEntity
  8
0
100
AcDbLine
 62
7
  6
CONTINUOUS
 10
-2.2030309617
 20
-13.0246945638
 11
-2.9772459896
 21
-13.2321448553
  0
LINE
  5
3E3
100
AcDbEntity
  8
0
100
AcDbLine
 62
250
  6
CONTINUOUS
 10
-2.2216556588
 20
-13.0193322745
 11
-2.9957750061
 21
-13.2267569285
  0
LWPOLYLINE
  5
3E4
100
AcDbEntity
  8
RACCORDO
100
AcDbPolyline
 62
7
  6
CONTINUOUS
 90
10
 70
0
 10
3.3084889983
 20
-11.15
 10
3.2527054835
 20
-11.1505406376
 10
3.1981626674
 20
-11.1522532066
 10
3.1448605498
 20
-11.155137707
 10
3.0927736956
 20
-11.159183891
 10
3.0419275399
 20
-11.1644020063
 10
2.9923983886
 20
-11.1708227966
 10
2.9442116768
 20
-11.1784565097
 10
2.8973419694
 20
-11.1872928978
 10
2.8517892662
 20
-11.1973319608
  0
LWPOLYLINE
  5
3E5
100
AcDbEntity
  8
RACCORDO
100
AcDbPolyline
 62
7
  6
CONTINUOUS
 90
10
 70
0
 10
-6.6915110017
 20
-11.15
 10
-6.7472945165
 20
-11.1505406376
 10
-6.8018373326
 20
-11.1522532066
 10
-6.8551394502
 20
-11.155137707
 10
-6.9072263044
 20
-11.159183891
 10
-6.9580724601
 20
-11.1644020063
 10
-7.0076016114
 20
-11.1708227966
 10
-7.0557883232
 20
-11.1784565097
 10
-7.1026580306
 20
-11.1872928978
 10
-7.1482107338
 20
-11.1973319608
  0
LINE
  5
3E6
100
AcDbEntity
  8
0
100
AcDbLine
 62
250
  6
CONTINUOUS
 10
-10.983414638
 20
-12.082053
 11
-10.9899160213
 21
-12.082053
  0
LINE
  5
3E7
100
AcDbEntity
  8
0
100
AcDbLine
 62
250
  6
CONTINUOUS
 10
-11.1046038212
 20
-12.010985
 11
-11.053997265
 21
-12.010985
  0
LINE
  5
3E8
100
AcDbEntity
  8
0
100
AcDbLine
 62
250
  6
CONTINUOUS
 10
-11.053997265
 20
-11.430963
 11
-11.0873688967
 21
-11.430963
  0
LINE
  5
3E9
100
AcDbEntity
  8
0
100
AcDbLine
 62
250
  6
CONTINUOUS
 10
-10.8881740261
 20
-11.407638
 11
-10.9059609467
 21
-11.407638
  0
LINE
  5
3EA
100
AcDbEntity
  8
RACCORDO
100
AcDbLine
 62
250
  6
CONTINUOUS
 10
-8.65
 20
-11.1973319608
 11
-7.1482107338
 21
-11.1973319608
  0
LINE
  5
3EB
100
AcDbEntity
  8
RACCORDO
100
AcDbLine
 62
250
  6
CONTINUOUS
 10
8.65
 20
-11.1973319608
 11
7.1482107338
 21
-11.1973319608
  0
LINE
  5
3EC
100
AcDbEntity
  8
RACCORDO
100
AcDbLine
 62
250
  6
CONTINUOUS
 10
1.35
 20
-11.1973319608
 11
2.8517892662
 21
-11.1973319608
  0
LINE
  5
3ED
100
AcDbEntity
  8
RACCORDO
100
AcDbLine
 62
250
  6
CONTINUOUS
 10
-1.35
 20
-11.1973319608
 11
-2.8517892662
 21
-11.1973319608
  0
LINE
  5
3EE
100
AcDbEntity
  8
RACCORDO
100
AcDbLine
 62
7
  6
CONTINUOUS
 10
-8.65
 20
-11.15
 11
-6.8314542314
 21
-11.15
  0
LINE
  5
3EF
100
AcDbEntity
  8
RACCORDO
100
AcDbLine
 62
7
  6
CONTINUOUS
 10
8.65
 20
-11.15
 11
5.7979772308
 21
-11.15
  0
LINE
  5
3F0
100
AcDbEntity
  8
RACCORDO
100
AcDbLine
 62
7
  6
CONTINUOUS
 10
4.2020227692
 20
-11.15
 11
3.3084889983
 21
-11.15
  0
LINE
  5
3F1
100
AcDbEntity
  8
RACCORDO
100
AcDbLine
 62
7
  6
CONTINUOUS
 10
1.35
 20
-11.15
 11
3.1685457686
 21
-11.15
  0
LINE
  5
3F2
100
AcDbEntity
  8
RACCORDO
100
AcDbLine
 62
7
  6
CONTINUOUS
 10
-1.35
 20
-11.15
 11
-4.2020227692
 21
-11.15
  0
LINE
  5
3F3
100
AcDbEntity
  8
RACCORDO
100
AcDbLine
 62
7
  6
CONTINUOUS
 10
-5.7979772308
 20
-11.15
 11
-6.6915110017
 21
-11.15
  0
LWPOLYLINE
  5
3F4
100
AcDbEntity
  8
0
100
AcDbPolyline
 62
7
  6
CONTINUOUS
 90
15
 70
0
 10
6.1503487814
 20
-12.6630478787
 10
6.2076049022
 20
-12.671061077
 10
6.3583112719
 20
-12.6944726573
 10
6.5092378346
 20
-12.7202347409
 10
6.6600450844
 20
-12.7483530202
 10
6.8110725273
 20
-12.7788218029
 10
6.9633386808
 20
-12.8116240111
 10
7.116706944
 20
-12.8466765468
 10
7.2713139179
 20
-12.8840625081
 10
7.4285879232
 20
-12.9240141117
 10
7.5883049282
 20
-12.9664092031
 10
7.7506889645
 20
-13.0113699368
 10
7.9178404482
 20
-13.0594949933
 10
8.090459518
 20
-13.1109839327
 10
8.2116634942
 20
-13.1483272031
  0
LWPOLYLINE
  5
3F5
100
AcDbEntity
  8
RACCORDO
100
AcDbPolyline
 62
7
  6
CONTINUOUS
 90
10
 70
0
 10
-2.8517892662
 20
-11.1973319608
 10
-2.8973419694
 20
-11.1872928978
 10
-2.9442116768
 20
-11.1784565097
 10
-2.9923983886
 20
-11.1708227966
 10
-3.0419275399
 20
-11.1644020063
 10
-3.0927736956
 20
-11.159183891
 10
-3.1448605498
 20
-11.155137707
 10
-3.1981626674
 20
-11.1522532066
 10
-3.2527054835
 20
-11.1505406376
 10
-3.3084889983
 20
-11.15
  0
LWPOLYLINE
  5
3F6
100
AcDbEntity
  8
RACCORDO
100
AcDbPolyline
 62
7
  6
CONTINUOUS
 90
10
 70
0
 10
-2.8517892662
 20
-11.1973319608
 10
-2.7165006791
 20
-11.2302867889
 10
-2.579212848
 20
-11.265165932
 10
-2.439925773
 20
-11.30196939
 10
-2.299092017
 20
-11.3405708391
 10
-2.1562590171
 20
-11.3810966031
 10
-2.0100690844
 20
-11.4239256537
 10
-1.8600696558
 20
-11.4691843149
 10
-1.7067132943
 20
-11.5167462628
 10
-1.55
 20
-11.5666114973
  0
LINE
  5
3F7
100
AcDbEntity
  8
ASSI
100
AcDbLine
 62
7
  6
CONTINUOUS
 10
2.2030323895
 20
-13.0246949463
 11
2.9772459896
 21
-13.2321448553
  0
LINE
  5
3F8
100
AcDbEntity
  8
0
100
AcDbLine
 62
250
  6
CONTINUOUS
 10
2.9957750061
 20
-13.2267569285
 11
2.2216576655
 21
-13.0193328122
  0
LINE
  5
3F9
100
AcDbEntity
  8
ASSI
100
AcDbLine
 62
250
  6
CONTINUOUS
 10
10.7482288738
 20
-17.5052799993
 11
11.15
 21
-17.6716990487
  0
LINE
  5
3FA
100
AcDbEntity
  8
ASSI
100
AcDbLine
 62
250
  6
CONTINUOUS
 10
-2.2501047116
 20
-18.3
 11
-1.5735564447
 21
-19.4718605929
  0
LINE
  5
3FB
100
AcDbEntity
  8
ASSI
100
AcDbLine
 62
7
  6
CONTINUOUS
 10
-2.1490861964
 20
-18.3839109968
 11
-2.1975340777
 21
-18.3
  0
LINE
  5
3FC
100
AcDbEntity
  8
0
100
AcDbLine
 62
7
  6
CONTINUOUS
 10
-6.9498426932
 20
-9.8890565312
 11
-6.75
 21
-10.2351942293
  0
LINE
  5
3FD
100
AcDbEntity
  8
0
100
AcDbLine
 62
250
  6
CONTINUOUS
 10
-5.5
 20
-15.4005860746
 11
-4.55
 21
-17.3005860746
  0
LINE
  5
3FE
100
AcDbEntity
  8
0
100
AcDbLine
 62
250
  6
CONTINUOUS
 10
-11.0017792054
 20
10.7357143342
 11
-11.0278331549
 21
11.1428571105
  0
LINE
  5
3FF
100
AcDbEntity
  8
0
100
AcDbLine
 62
250
  6
CONTINUOUS
 10
-11.0731320483
 20
14.176491
 11
-11.0949286163
 21
14.606449
  0
LINE
  5
400
100
AcDbEntity
  8
0
100
AcDbLine
 62
250
  6
CONTINUOUS
 10
-11.0539971429
 20
13.798889
 11
-11.0647224388
 21
14.015846
  0
LINE
  5
401
100
AcDbEntity
  8
0
100
AcDbLine
 62
250
  6
CONTINUOUS
 10
-11.1046014306
 20
14.252884
 11
-11.0539971429
 21
13.20444
  0
LINE
  5
402
100
AcDbEntity
  8
0
100
AcDbLine
 62
250
  6
CONTINUOUS
 10
-10.8061283094
 20
9.819613
 11
-10.7834436365
 21
9.249279
  0
LINE
  5
403
100
AcDbEntity
  8
0
100
AcDbLine
 62
250
  6
CONTINUOUS
 10
-11.018358992
 20
15.078571558
 11
-11.0230960735
 21
15.214285779
  0
LINE
  5
404
100
AcDbEntity
  8
0
100
AcDbLine
 62
250
  6
CONTINUOUS
 10
-11.0041477466
 20
16.028571558
 11
-10.9994106647
 21
15.892857337
  0
LWPOLYLINE
  5
405
100
AcDbEntity
  8
RACCORDO
100
AcDbPolyline
 62
250
  6
CONTINUOUS
 90
31
 70
0
 10
-10.645628166
 20
23.8443375673
 10
-10.6452496104
 20
23.833039595
 10
-10.6441904828
 20
23.821769291
 10
-10.6424531063
 20
23.8105574212
 10
-10.6400414049
 20
23.7994336121
 10
-10.6369615346
 20
23.78842936
 10
-10.6332224836
 20
23.7775778202
 10
-10.6288349392
 20
23.7669096972
 10
-10.6238105402
 20
23.7564530239
 10
-10.6181628596
 20
23.746236105
 10
-10.6119071671
 20
23.7362866999
 10
-10.6050605925
 20
23.7266321754
 10
-10.5976419842
 20
23.7172991519
 10
-10.5896716801
 20
23.7083132018
 10
-10.5811713853
 20
23.6996987826
 10
-10.5721642949
 20
23.6914794042
 10
-10.5626749912
 20
23.6836775075
 10
-10.5527294041
 20
23.6763144193
 10
-10.5423547212
 20
23.6694102704
 10
-10.5315792888
 20
23.6629839239
 10
-10.5204325308
 20
23.6570529269
 10
-10.5089448938
 20
23.6516334796
 10
-10.497147737
 20
23.6467403776
 10
-10.4850733006
 20
23.6423869945
 10
-10.472754621
 20
23.6385852371
 10
-10.4602253856
 20
23.6353454907
 10
-10.4475197828
 20
23.6326765842
 10
-10.434672462
 20
23.6305857918
 10
-10.4217184947
 20
23.6290788219
 10
-10.408693281
 20
23.6281597935
 10
-10.3956323968
 20
23.6278312164
  0
LWPOLYLINE
  5
406
100
AcDbEntity
  8
RACCORDO
100
AcDbPolyline
 62
250
  6
CONTINUOUS
 90
31
 70
0
 10
-8.254371834
 20
-23.8443375673
 10
-8.2547511657
 20
-23.8330274168
 10
-8.2558121477
 20
-23.8217481519
 10
-8.2575518825
 20
-23.810530574
 10
-8.2599656195
 20
-23.7994053159
 10
-8.2630467671
 20
-23.7884027584
 10
-8.2667869113
 20
-23.7775529472
 10
-8.2711758387
 20
-23.7668855107
 10
-8.276201564
 20
-23.7564295797
 10
-8.281850363
 20
-23.7462137069
 10
-8.2881068099
 20
-23.7362657898
 10
-8.2949538199
 20
-23.7266129942
 10
-8.302372695
 20
-23.7172816797
 10
-8.3103431759
 20
-23.7082973282
 10
-8.3188434969
 20
-23.6996844742
 10
-8.3278504455
 20
-23.6914666374
 10
-8.3373394254
 20
-23.6836662592
 10
-8.3472845243
 20
-23.6763046407
 10
-8.3576585842
 20
-23.6694018849
 10
-8.3684332757
 20
-23.6629768418
 10
-8.3795791754
 20
-23.6570470569
 10
-8.3910658462
 20
-23.6516287232
 10
-8.4028619204
 20
-23.646736637
 10
-8.4149351853
 20
-23.6423841576
 10
-8.4272526715
 20
-23.6385831707
 10
-8.4397807423
 20
-23.6353440559
 10
-8.4524851864
 20
-23.6326756587
 10
-8.4653313105
 20
-23.6305852658
 10
-8.4782840345
 20
-23.6290785857
 10
-8.4913079873
 20
-23.6281597328
 10
-8.5043676032
 20
-23.6278312164
  0
LWPOLYLINE
  5
407
100
AcDbEntity
  8
ASSI
100
AcDbPolyline
 62
250
  6
CONTINUOUS
 90
13
 70
0
 10
-9.7483811786
 20
-17.5052799993
 10
-9.7462039831
 20
-17.5709517479
 10
-9.7398206688
 20
-17.6358707182
 10
-9.7292312356
 20
-17.7000369101
 10
-9.7143526421
 20
-17.7637487145
 10
-9.6952679298
 20
-17.8267077405
 10
-9.6722262228
 20
-17.8880188157
 10
-9.6451566655
 20
-17.9476505443
 10
-9.6141301136
 20
-18.0056343221
 10
-9.5796082588
 20
-18.0611691635
 10
-9.5417449983
 20
-18.1139880735
 10
-9.500386435
 20
-18.1643580472
 10
-9.4555325688
 20
-18.2122790847
  0
LINE
  5
408
100
AcDbEntity
  8
0
100
AcDbLine
 62
250
  6
CONTINUOUS
 10
-10.7922214707
 20
12.023604
 11
-10.8061283094
 21
12.499343
  0
LINE
  5
409
100
AcDbEntity
  8
RACCORDO
100
AcDbLine
 62
250
  6
CONTINUOUS
 10
-10.3956323968
 20
-23.6278312164
 11
-10.3956323968
 21
-24.495628166
  0
LINE
  5
40A
100
AcDbEntity
  8
RACCORDO
100
AcDbLine
 62
250
  6
CONTINUOUS
 10
-10.3956323968
 20
23.6278312164
 11
-10.3956323968
 21
24.495628166
  0
LINE
  5
40B
100
AcDbEntity
  8
DRAFT
100
AcDbLine
 62
7
  6
CONTINUOUS
 10
-10.2776691233
 20
-19.3723308767
 11
-10.2776691233
 21
-19.5223308767
  0
LINE
  5
40C
100
AcDbEntity
  8
ASSI
100
AcDbLine
 62
250
  6
CONTINUOUS
 10
-9.7483811786
 20
14.286936906
 11
-9.7483811786
 21
-9.0331115016
  0
LINE
  5
40D
100
AcDbEntity
  8
ASSI
100
AcDbLine
 62
250
  6
CONTINUOUS
 10
-9.7483811786
 20
-14.0668884984
 11
-9.7483811786
 21
-17.5052799993
  0
LINE
  5
40E
100
AcDbEntity
  8
DRAFT
100
AcDbLine
 62
7
  6
CONTINUOUS
 10
-9.65
 20
20.15
 11
-9.65
 21
20.0
  0
LINE
  5
40F
100
AcDbEntity
  8
ASSI
100
AcDbLine
 62
250
  6
CONTINUOUS
 10
-9.2839006568
 20
-18.3839109968
 11
-9.2839006568
 21
-19.3837586919
  0
LINE
  5
410
100
AcDbEntity
  8
ASSI
100
AcDbLine
 62
7
  6
CONTINUOUS
 10
-9.0
 20
-12.4513878189
 11
-9.0
 21
-10.6486121811
  0
LWPOLYLINE
  5
411
100
AcDbEntity
  8
RACCORDO
100
AcDbPolyline
 62
250
  6
CONTINUOUS
 90
31
 70
0
 10
-10.645628166
 20
-23.8443375673
 10
-10.6452496104
 20
-23.833039595
 10
-10.6441904828
 20
-23.821769291
 10
-10.6424531063
 20
-23.8105574212
 10
-10.6400414049
 20
-23.7994336121
 10
-10.6369615346
 20
-23.78842936
 10
-10.6332224836
 20
-23.7775778202
 10
-10.6288349392
 20
-23.7669096972
 10
-10.6238105402
 20
-23.7564530239
 10
-10.6181628596
 20
-23.746236105
 10
-10.6119071671
 20
-23.7362866999
 10
-10.6050605925
 20
-23.7266321754
 10
-10.5976419842
 20
-23.7172991519
 10
-10.5896716801
 20
-23.7083132018
 10
-10.5811713853
 20
-23.6996987826
 10
-10.5721642949
 20
-23.6914794042
 10
-10.5626749912
 20
-23.6836775075
 10
-10.5527294041
 20
-23.6763144193
 10
-10.5423547212
 20
-23.6694102704
 10
-10.5315792888
 20
-23.6629839239
 10
-10.5204325308
 20
-23.6570529269
 10
-10.5089448938
 20
-23.6516334796
 10
-10.497147737
 20
-23.6467403776
 10
-10.4850733006
 20
-23.6423869945
 10
-10.472754621
 20
-23.6385852371
 10
-10.4602253856
 20
-23.6353454907
 10
-10.4475197828
 20
-23.6326765842
 10
-10.434672462
 20
-23.6305857918
 10
-10.4217184947
 20
-23.6290788219
 10
-10.408693281
 20
-23.6281597935
 10
-10.3956323968
 20
-23.6278312164
  0
LWPOLYLINE
  5
412
100
AcDbEntity
  8
RACCORDO
100
AcDbPolyline
 62
250
  6
CONTINUOUS
 90
31
 70
0
 10
-8.254371834
 20
23.8443375673
 10
-8.2547503896
 20
23.833039595
 10
-8.2558095172
 20
23.821769291
 10
-8.2575468937
 20
23.8105574212
 10
-8.2599585951
 20
23.7994336121
 10
-8.2630384654
 20
23.78842936
 10
-8.2667775164
 20
23.7775778202
 10
-8.2711650608
 20
23.7669096972
 10
-8.2761894598
 20
23.7564530239
 10
-8.2818371404
 20
23.746236105
 10
-8.2880928329
 20
23.7362866999
 10
-8.2949394075
 20
23.7266321754
 10
-8.3023580158
 20
23.7172991519
 10
-8.3103283199
 20
23.7083132018
 10
-8.3188286147
 20
23.6996987826
 10
-8.3278357051
 20
23.6914794042
 10
-8.3373250088
 20
23.6836775075
 10
-8.3472705959
 20
23.6763144193
 10
-8.3576452788
 20
23.6694102704
 10
-8.3684207112
 20
23.6629839239
 10
-8.3795674692
 20
23.6570529269
 10
-8.3910551062
 20
23.6516334796
 10
-8.402852263
 20
23.6467403776
 10
-8.4149266994
 20
23.6423869945
 10
-8.427245379
 20
23.6385852371
 10
-8.4397746144
 20
23.6353454907
 10
-8.4524802172
 20
23.6326765842
 10
-8.465327538
 20
23.6305857918
 10
-8.4782815053
 20
23.6290788219
 10
-8.491306719
 20
23.6281597935
 10
-8.5043676032
 20
23.6278312164
  0
LINE
  5
413
100
AcDbEntity
  8
0
100
AcDbLine
 62
250
  6
CONTINUOUS
 10
-11.069758471
 20
-14.778839
 11
-11.1046038212
 21
-15.419971
  0
LINE
  5
414
100
AcDbEntity
  8
0
100
AcDbLine
 62
250
  6
CONTINUOUS
 10
-11.1046038212
 20
-16.0
 11
-11.0539971429
 21
-15.068868
  0
LINE
  5
415
100
AcDbEntity
  8
0
100
AcDbLine
 62
250
  6
CONTINUOUS
 10
-11.0716470224
 20
-10.59258
 11
-11.1046038212
 21
-11.134148
  0
LINE
  5
416
100
AcDbEntity
  8
0
100
AcDbLine
 62
250
  6
CONTINUOUS
 10
-11.0873688967
 20
-11.430963
 11
-11.053997265
 21
-10.882587
  0
LINE
  5
417
100
AcDbEntity
  8
RACCORDO
100
AcDbLine
 62
7
  6
CONTINUOUS
 10
-7.3506760157
 20
20.443503758
 11
-7.2988376746
 21
20.9104703804
  0
LINE
  5
418
100
AcDbEntity
  8
DRAFT
100
AcDbLine
 62
7
  6
CONTINUOUS
 10
4.4
 20
22.4
 11
4.3558866345
 21
22.3338290185
  0
LWPOLYLINE
  5
419
100
AcDbEntity
  8
0
100
AcDbPolyline
 62
7
  6
CONTINUOUS
 90
15
 70
0
 10
0.5815036686
 20
14.3892545848
 10
0.4957896138
 20
14.296938341
 10
0.3719905371
 20
14.1659865081
 10
0.2512558245
 20
14.0406959322
 10
0.1330786072
 20
13.9205428046
 10
0.0159382792
 20
13.8039556985
 10
-0.1002983581
 20
13.6907166145
 10
-0.2154981062
 20
13.5810435522
 10
-0.330781975
 20
13.4740190837
 10
-0.4462267982
 20
13.3695029769
 10
-0.5617557423
 20
13.267635464
 10
-0.6782593164
 20
13.1679198137
 10
-0.7960343571
 20
13.0701904489
 10
-0.9147840279
 20
12.9746129466
 10
-0.9602967738
 20
12.9390975386
  0
LINE
  5
41A
100
AcDbEntity
  8
0
100
AcDbLine
 62
7
  6
CONTINUOUS
 10
-11.1046014281
 20
3.5882200575
 11
-11.096191821
 21
3.5966296646
  0
LINE
  5
41B
100
AcDbEntity
  8
0
100
AcDbLine
 62
7
  6
CONTINUOUS
 10
-11.0818939633
 20
3.6109275223
 11
-11.0735025793
 21
3.6193189063
  0
LINE
  5
41C
100
AcDbEntity
  8
0
100
AcDbLine
 62
7
  6
CONTINUOUS
 10
-11.1046014306
 20
3.378209341
 11
-11.096191821
 21
3.3866189506
  0
LINE
  5
41D
100
AcDbEntity
  8
0
100
AcDbLine
 62
7
  6
CONTINUOUS
 10
-11.081893967
 20
3.4009168046
 11
-11.0734843571
 21
3.4093264145
  0
LINE
  5
41E
100
AcDbEntity
  8
0
100
AcDbLine
 62
7
  6
CONTINUOUS
 10
-11.1046014306
 20
3.168198627
 11
-11.0539971429
 21
3.2188029147
  0
LINE
  5
41F
100
AcDbEntity
  8
ASSI
100
AcDbLine
 62
7
  6
CONTINUOUS
 10
5.75
 20
19.9
 11
5.6609791689
 21
19.8109791689
  0
LINE
  5
420
100
AcDbEntity
  8
RACCORDO
100
AcDbLine
 62
250
  6
CONTINUOUS
 10
10.3956323968
 20
24.495628166
 11
10.4000042308
 21
24.5
  0
LINE
  5
421
100
AcDbEntity
  8
0
100
AcDbLine
 62
7
  6
CONTINUOUS
 10
-11.1046014306
 20
2.958187913
 11
-11.0539971429
 21
3.0087922007
  0
LINE
  5
422
100
AcDbEntity
  8
ASSI
100
AcDbLine
 62
7
  6
CONTINUOUS
 10
5.75
 20
19.7
 11
5.6609791689
 21
19.6109791689
  0
LINE
  5
423
100
AcDbEntity
  8
0
100
AcDbLine
 62
7
  6
CONTINUOUS
 10
-11.1046014306
 20
2.748177199
 11
-11.0539971429
 21
2.7987814866
  0
LINE
  5
424
100
AcDbEntity
  8
RACCORDO
100
AcDbLine
 62
250
  6
CONTINUOUS
 10
10.645628166
 20
24.2456323968
 11
10.65
 21
24.2500042308
  0
LINE
  5
425
100
AcDbEntity
  8
RACCORDO
100
AcDbLine
 62
7
  6
CONTINUOUS
 10
6.5570215015
 20
19.7570215015
 11
6.5
 21
19.7
  0
LWPOLYLINE
  5
426
100
AcDbEntity
  8
RACCORDO
100
AcDbPolyline
 62
7
  6
CONTINUOUS
 90
10
 70
0
 10
0.2648914983
 20
11.8993453393
 10
0.3129311203
 20
11.9277053026
 10
0.3593103002
 20
11.956459839
 10
0.4040290379
 20
11.9856089484
 10
0.4471144849
 20
12.0151564736
 10
0.4885394897
 20
12.0450985719
 10
0.5282225978
 20
12.075423715
 10
0.5661366578
 20
12.1061280604
 10
0.6023088211
 20
12.1372154507
 10
0.6367390877
 20
12.1686858858
  0
LWPOLYLINE
  5
427
100
AcDbEntity
  8
0
100
AcDbPolyline
 62
250
  6
CONTINUOUS
 90
16
 70
0
 10
-11.0890428909
 20
4.7815268003
 10
-11.0895744128
 20
4.7812181196
 10
-11.0901059832
 20
4.7802622694
 10
-11.0906371894
 20
4.7786145378
 10
-11.0911676183
 20
4.776230213
 10
-11.0916968572
 20
4.7730645828
 10
-11.0922244931
 20
4.7690729355
 10
-11.0927501132
 20
4.7642105591
 10
-11.0932086772
 20
4.7591991139
 10
-11.0936647576
 20
4.753457933
 10
-11.0941177357
 20
4.7469602571
 10
-11.094566993
 20
4.7396793271
 10
-11.0950119108
 20
4.7315883841
 10
-11.0954518706
 20
4.7226606687
 10
-11.0958862538
 20
4.7128694219
 10
-11.0967357562
 20
4.6905961892
  0
LINE
  5
428
100
AcDbEntity
  8
0
100
AcDbLine
 62
250
  6
CONTINUOUS
 10
7.7425354147
 20
16.5238472448
 11
5.0039223328
 21
14.9427082448
  0
LINE
  5
429
100
AcDbEntity
  8
RACCORDO
100
AcDbLine
 62
250
  6
CONTINUOUS
 10
1.9373267434
 20
12.9195805189
 11
0.6367390877
 21
12.1686858858
  0
LINE
  5
42A
100
AcDbEntity
  8
RACCORDO
100
AcDbLine
 62
250
  6
CONTINUOUS
 10
-4.3846587042
 20
9.2695805189
 11
-3.0840710485
 21
10.0204751521
  0
LINE
  5
42B
100
AcDbEntity
  8
RACCORDO
100
AcDbLine
 62
7
  6
CONTINUOUS
 10
1.9609927238
 20
12.8785898385
 11
0.3860858902
 21
11.9693169542
  0
LINE
  5
42C
100
AcDbEntity
  8
RACCORDO
100
AcDbLine
 62
7
  6
CONTINUOUS
 10
-4.3609927238
 20
9.2285898385
 11
-1.8909971382
 21
10.6546424547
  0
LINE
  5
42D
100
AcDbEntity
  8
RACCORDO
100
AcDbLine
 62
7
  6
CONTINUOUS
 10
-0.5090028618
 20
11.4525372222
 11
0.2648914983
 21
11.8993453393
  0
LINE
  5
42E
100
AcDbEntity
  8
0
100
AcDbLine
 62
250
  6
CONTINUOUS
 10
8.2637733304
 20
15.9587586919
 11
5.2326844171
 21
14.2087586919
  0
LWPOLYLINE
  5
42F
100
AcDbEntity
  8
RACCORDO
100
AcDbPolyline
 62
7
  6
CONTINUOUS
 90
10
 70
0
 10
-3.0840710485
 20
10.0204751521
 10
-3.0396017189
 20
10.03455742
 10
-2.9945931675
 20
10.0503397372
 10
-2.9490453945
 20
10.0678221037
 10
-2.902941496
 20
10.0870261118
 10
-2.8562983759
 20
10.1079301692
 10
-2.809166745
 20
10.1304694982
 10
-2.7615635069
 20
10.1546225063
 10
-2.713471758
 20
10.1804107862
 10
-2.6648914983
 20
10.2078343376
  0
LWPOLYLINE
  5
430
100
AcDbEntity
  8
RACCORDO
100
AcDbPolyline
 62
7
  6
CONTINUOUS
 90
10
 70
0
 10
-3.0840710485
 20
10.0204751521
 10
-3.2177118159
 20
9.9813705768
 10
-3.3540461368
 20
9.9429328853
 10
-3.4930740112
 20
9.9051620773
 10
-3.6343403461
 20
9.8681750348
 10
-3.7783002345
 20
9.831854876
 10
-3.9263189554
 20
9.7958509555
 10
-4.0788516017
 20
9.7600463916
 10
-4.2354430805
 20
9.7245580659
 10
-4.3960933917
 20
9.6893859786
  0
LINE
  5
431
100
AcDbEntity
  8
0
100
AcDbLine
 62
250
  6
CONTINUOUS
 10
-11.0873688967
 20
-9.754205
 11
-11.053997265
 21
-9.754197
  0
LINE
  5
432
100
AcDbEntity
  8
0
100
AcDbLine
 62
250
  6
CONTINUOUS
 10
-10.8346304049
 20
-9.36959
 11
-10.8212772803
 21
-9.36959
  0
LINE
  5
433
100
AcDbEntity
  8
0
100
AcDbLine
 62
250
  6
CONTINUOUS
 10
-11.053997265
 20
-9.174176
 11
-11.1046038212
 21
-9.174176
  0
LINE
  5
434
100
AcDbEntity
  8
0
100
AcDbLine
 62
250
  6
CONTINUOUS
 10
-10.8722411475
 20
-8.85959
 11
-10.8587915662
 21
-8.85959
  0
LINE
  5
435
100
AcDbEntity
  8
0
100
AcDbLine
 62
250
  6
CONTINUOUS
 10
-10.7971161269
 20
-8.85959
 11
-10.7836665377
 21
-8.85959
  0
LWPOLYLINE
  5
436
100
AcDbEntity
  8
RACCORDO
100
AcDbPolyline
 62
7
  6
CONTINUOUS
 90
10
 70
0
 10
7.1482107338
 20
-11.1973319608
 10
7.1026580306
 20
-11.1872928978
 10
7.0557883232
 20
-11.1784565097
 10
7.0076016114
 20
-11.1708227966
 10
6.9580724601
 20
-11.1644020063
 10
6.9072263044
 20
-11.159183891
 10
6.8551394502
 20
-11.155137707
 10
6.8018373326
 20
-11.1522532066
 10
6.7472945165
 20
-11.1505406376
 10
6.6915110017
 20
-11.15
  0
LWPOLYLINE
  5
437
100
AcDbEntity
  8
RACCORDO
100
AcDbPolyline
 62
7
  6
CONTINUOUS
 90
10
 70
0
 10
7.1482107338
 20
-11.1973319608
 10
7.2834993209
 20
-11.2302867889
 10
7.420787152
 20
-11.265165932
 10
7.560074227
 20
-11.30196939
 10
7.700907983
 20
-11.3405708391
 10
7.8437409829
 20
-11.3810966031
 10
7.9899309156
 20
-11.4239256537
 10
8.1399303442
 20
-11.4691843149
 10
8.2932867057
 20
-11.5167462628
 10
8.45
 20
-11.5666114973
  0
LINE
  5
438
100
AcDbEntity
  8
ASSI
100
AcDbLine
 62
250
  6
CONTINUOUS
 10
-0.5779935473
 20
-13.3745670587
 11
-0.3612459981
 21
-13.5803262211
  0
LINE
  5
439
100
AcDbEntity
  8
ASSI
100
AcDbLine
 62
250
  6
CONTINUOUS
 10
-4.4220064527
 20
-9.7254329413
 11
-4.6387540019
 21
-9.5196737789
  0
LINE
  5
43A
100
AcDbEntity
  8
ASSI
100
AcDbLine
 62
7
  6
CONTINUOUS
 10
5.6609791689
 20
-19.8109791689
 11
5.75
 21
-19.9
  0
LINE
  5
43B
100
AcDbEntity
  8
RACCORDO
100
AcDbLine
 62
250
  6
CONTINUOUS
 10
10.3956323968
 20
-24.495628166
 11
10.4000042308
 21
-24.5
  0
LINE
  5
43C
100
AcDbEntity
  8
ASSI
100
AcDbLine
 62
7
  6
CONTINUOUS
 10
5.75
 20
-19.7
 11
5.6609791689
 21
-19.6109791689
  0
LINE
  5
43D
100
AcDbEntity
  8
RACCORDO
100
AcDbLine
 62
250
  6
CONTINUOUS
 10
10.645628166
 20
-24.2456323968
 11
10.65
 21
-24.2500042308
  0
LINE
  5
43E
100
AcDbEntity
  8
RACCORDO
100
AcDbLine
 62
7
  6
CONTINUOUS
 10
6.5570215015
 20
-19.7570215015
 11
6.5
 21
-19.7
  0
LINE
  5
43F
100
AcDbEntity
  8
ASSI
100
AcDbLine
 62
250
  6
CONTINUOUS
 10
-4.8606384629
 20
-9.1380854517
 11
-4.651596173
 21
-9.3516684075
  0
LINE
  5
440
100
AcDbEntity
  8
ASSI
100
AcDbLine
 62
250
  6
CONTINUOUS
 10
-0.1393615371
 20
-13.9619145483
 11
-0.348403827
 21
-13.7483315925
  0
LINE
  5
441
100
AcDbEntity
  8
DRAFT
100
AcDbLine
 62
7
  6
CONTINUOUS
 10
4.4
 20
-22.4
 11
4.3558866345
 21
-22.3338290185
  0
LWPOLYLINE
  5
442
100
AcDbEntity
  8
0
100
AcDbPolyline
 62
7
  6
CONTINUOUS
 90
19
 70
0
 10
-8.65
 20
-11.5666114973
 10
-8.6491935472
 20
-11.5721524429
 10
-8.6468064155
 20
-11.5770489005
 10
-8.6428956466
 20
-11.58130087
 10
-8.6375363338
 20
-11.5849128596
 10
-8.6308017381
 20
-11.5878803612
 10
-8.6227451177
 20
-11.5901898503
 10
-8.613448422
 20
-11.5918372597
 10
-8.6029953564
 20
-11.5928266566
 10
-8.591421576
 20
-11.5931567174
 10
-8.578811466
 20
-11.592826546
 10
-8.5652575922
 20
-11.5918370386
 10
-8.5507902988
 20
-11.5901895602
 10
-8.5355007212
 20
-11.5878800671
 10
-8.5194976099
 20
-11.584912603
 10
-8.5028315825
 20
-11.5813006644
 10
-8.4855977162
 20
-11.5770487499
 10
-8.4679422008
 20
-11.5721523609
 10
-8.45
 20
-11.5666114973
  0
LINE
  5
443
100
AcDbEntity
  8
RACCORDO
100
AcDbLine
 62
7
  6
CONTINUOUS
 10
-7.2988376746
 20
-20.9104703804
 11
-7.3506760157
 21
-20.443503758
  0
LINE
  5
444
100
AcDbEntity
  8
RACCORDO
100
AcDbLine
 62
250
  6
CONTINUOUS
 10
-8.5043676032
 20
23.6278312164
 11
-8.4992770021
 21
23.1226497308
  0
LINE
  5
445
100
AcDbEntity
  8
RACCORDO
100
AcDbLine
 62
250
  6
CONTINUOUS
 10
-8.254371834
 20
23.8443375673
 11
-8.25
 21
23.4104851482
  0
LINE
  5
446
100
AcDbEntity
  8
0
100
AcDbLine
 62
7
  6
CONTINUOUS
 10
-8.65
 20
-12.867688821
 11
-8.65
 21
-11.5666114973
  0
LINE
  5
447
100
AcDbEntity
  8
RACCORDO
100
AcDbLine
 62
7
  6
CONTINUOUS
 10
-8.65
 20
-11.5666114973
 11
-8.65
 21
-11.15
  0
LINE
  5
448
100
AcDbEntity
  8
RACCORDO
100
AcDbLine
 62
250
  6
CONTINUOUS
 10
-8.5043676032
 20
-23.6278312164
 11
-8.5043676032
 21
-24.495628166
  0
LINE
  5
449
100
AcDbEntity
  8
RACCORDO
100
AcDbLine
 62
250
  6
CONTINUOUS
 10
-8.5043676032
 20
23.6278312164
 11
-8.5043676032
 21
24.495628166
  0
LINE
  5
44A
100
AcDbEntity
  8
0
100
AcDbLine
 62
250
  6
CONTINUOUS
 10
-8.45
 20
-13.0184913639
 11
-8.45
 21
-11.5666114973
  0
LINE
  5
44B
100
AcDbEntity
  8
RACCORDO
100
AcDbLine
 62
250
  6
CONTINUOUS
 10
-8.254371834
 20
-24.2456323968
 11
-8.254371834
 21
-23.8443375673
  0
LINE
  5
44C
100
AcDbEntity
  8
RACCORDO
100
AcDbLine
 62
250
  6
CONTINUOUS
 10
-8.254371834
 20
23.8443375673
 11
-8.254371834
 21
24.2456323968
  0
LINE
  5
44D
100
AcDbEntity
  8
DRAFT
100
AcDbLine
 62
7
  6
CONTINUOUS
 10
-8.25
 20
-21.4
 11
-8.25
 21
-20.9
  0
LINE
  5
44E
100
AcDbEntity
  8
RACCORDO
100
AcDbLine
 62
7
  6
CONTINUOUS
 10
-8.25
 20
-22.4
 11
-8.25
 21
-24.2500042308
  0
LINE
  5
44F
100
AcDbEntity
  8
DRAFT
100
AcDbLine
 62
7
  6
CONTINUOUS
 10
-8.25
 20
20.9
 11
-8.25
 21
21.4
  0
LINE
  5
450
100
AcDbEntity
  8
RACCORDO
100
AcDbLine
 62
7
  6
CONTINUOUS
 10
-8.25
 20
22.4
 11
-8.25
 21
24.2500042308
  0
LINE
  5
451
100
AcDbEntity
  8
RACCORDO
100
AcDbLine
 62
250
  6
CONTINUOUS
 10
-8.0840245667
 20
21.5659754333
 11
-8.0840245667
 21
20.9917082642
  0
LINE
  5
452
100
AcDbEntity
  8
RACCORDO
100
AcDbLine
 62
250
  6
CONTINUOUS
 10
-8.0840245667
 20
-20.9917082642
 11
-8.0840245667
 21
-21.5659754333
  0
LINE
  5
453
100
AcDbEntity
  8
ASSI
100
AcDbLine
 62
7
  6
CONTINUOUS
 10
-7.8024659223
 20
-18.3
 11
-7.8024659223
 21
-17.7912732553
  0
LINE
  5
454
100
AcDbEntity
  8
ASSI
100
AcDbLine
 62
250
  6
CONTINUOUS
 10
-7.7498952884
 20
-17.8263198503
 11
-7.7498952884
 21
-18.3
  0
LINE
  5
455
100
AcDbEntity
  8
RACCORDO
100
AcDbLine
 62
250
  6
CONTINUOUS
 10
-7.5841007192
 20
21.3126932437
 11
-7.5841007192
 21
20.9959955457
  0
LINE
  5
456
100
AcDbEntity
  8
RACCORDO
100
AcDbLine
 62
250
  6
CONTINUOUS
 10
-7.5841007192
 20
-20.9959955457
 11
-7.5841007192
 21
-21.3126932437
  0
LINE
  5
457
100
AcDbEntity
  8
0
100
AcDbLine
 62
7
  6
CONTINUOUS
 10
-7.55
 20
-13.2982194971
 11
-7.55
 21
-13.0908697181
  0
LINE
  5
458
100
AcDbEntity
  8
ASSI
100
AcDbLine
 62
7
  6
CONTINUOUS
 10
-7.4890208311
 20
-20.85
 11
-7.4890208311
 21
-19.6109791689
  0
LINE
  5
459
100
AcDbEntity
  8
ASSI
100
AcDbLine
 62
7
  6
CONTINUOUS
 10
-7.4890208311
 20
19.6109791689
 11
-7.4890208311
 21
20.85
  0
LINE
  5
45A
100
AcDbEntity
  8
ASSI
100
AcDbLine
 62
7
  6
CONTINUOUS
 10
-7.4
 20
-20.85
 11
-7.4
 21
-19.7
  0
LINE
  5
45B
100
AcDbEntity
  8
ASSI
100
AcDbLine
 62
7
  6
CONTINUOUS
 10
-7.4
 20
19.7
 11
-7.4
 21
20.85
  0
LINE
  5
45C
100
AcDbEntity
  8
RACCORDO
100
AcDbLine
 62
7
  6
CONTINUOUS
 10
-7.3517786853
 20
20.243777851
 11
-7.3517786853
 21
19.7
  0
LINE
  5
45D
100
AcDbEntity
  8
RACCORDO
100
AcDbLine
 62
7
  6
CONTINUOUS
 10
-7.3517786853
 20
-20.243777851
 11
-7.3517786853
 21
-19.7
  0
LINE
  5
45E
100
AcDbEntity
  8
RACCORDO
100
AcDbLine
 62
7
  6
CONTINUOUS
 10
-7.2418217019
 20
-20.9959955457
 11
-7.2418217019
 21
-19.9570181168
  0
LINE
  5
45F
100
AcDbEntity
  8
RACCORDO
100
AcDbLine
 62
7
  6
CONTINUOUS
 10
-7.2418217019
 20
19.9570181168
 11
-7.2418217019
 21
20.9959955457
  0
LINE
  5
460
100
AcDbEntity
  8
RACCORDO
100
AcDbLine
 62
250
  6
CONTINUOUS
 10
-8.4992770021
 20
-23.1226497308
 11
-8.5043676032
 21
-23.6278312164
  0
LINE
  5
461
100
AcDbEntity
  8
RACCORDO
100
AcDbLine
 62
250
  6
CONTINUOUS
 10
-8.25
 20
-23.4104851482
 11
-8.254371834
 21
-23.8443375673
  0
LWPOLYLINE
  5
462
100
AcDbEntity
  8
RACCORDO
100
AcDbPolyline
 62
7
  6
CONTINUOUS
 90
34
 70
0
 10
-8.25
 20
-24.2500042308
 10
-8.2502831502
 20
-24.261899516
 10
-8.2511319658
 20
-24.2737678556
 10
-8.2525445259
 20
-24.2855823661
 10
-8.2545176323
 20
-24.2973162875
 10
-8.2570468183
 20
-24.3089430388
 10
-8.2601263583
 20
-24.320436279
 10
-8.2637492787
 20
-24.3317699738
 10
-8.2679073742
 20
-24.3429184493
 10
-8.2725912278
 20
-24.3538564463
 10
-8.2777902312
 20
-24.3645591876
 10
-8.2834926084
 20
-24.3750024283
 10
-8.2896854419
 20
-24.3851625059
 10
-8.2963547045
 20
-24.3950164051
 10
-8.3034852893
 20
-24.4045418038
 10
-8.3110610411
 20
-24.4137171191
 10
-8.3190647995
 20
-24.4225215661
 10
-8.3274784339
 20
-24.4309352005
 10
-8.3362828809
 20
-24.4389389589
 10
-8.3454581962
 20
-24.4465147107
 10
-8.3549835949
 20
-24.4536452955
 10
-8.3648374941
 20
-24.4603145581
 10
-8.3749975717
 20
-24.4665073916
 10
-8.3854408124
 20
-24.4722097688
 10
-8.3961435537
 20
-24.4774087722
 10
-8.4070815507
 20
-24.4820926258
 10
-8.4182300262
 20
-24.4862507213
 10
-8.429563721
 20
-24.4898736417
 10
-8.4410569612
 20
-24.4929531817
 10
-8.4526837125
 20
-24.4954823677
 10
-8.4644176339
 20
-24.4974554741
 10
-8.4762321444
 20
-24.4988680342
 10
-8.488100484
 20
-24.4997168498
 10
-8.4999957692
 20
-24.5
  0
LWPOLYLINE
  5
463
100
AcDbEntity
  8
RACCORDO
100
AcDbPolyline
 62
250
  6
CONTINUOUS
 90
31
 70
0
 10
-8.254371834
 20
-24.2456323968
 10
-8.254715023
 20
-24.2587187509
 10
-8.255742766
 20
-24.2717692492
 10
-8.2574522491
 20
-24.2847481067
 10
-8.2598387919
 20
-24.2976197463
 10
-8.262895853
 20
-24.3103488602
 10
-8.2666150425
 20
-24.3229005077
 10
-8.2709861576
 20
-24.3352402638
 10
-8.2759972131
 20
-24.347334301
 10
-8.2816344613
 20
-24.3591494467
 10
-8.2878824405
 20
-24.3706533025
 10
-8.2947240163
 20
-24.3818143284
 10
-8.3021404232
 20
-24.3926019187
 10
-8.3101113313
 20
-24.402986508
 10
-8.3186148729
 20
-24.4129396114
 10
-8.327627692
 20
-24.4224339046
 10
-8.3371250264
 20
-24.4314433264
 10
-8.3470808636
 20
-24.4399432233
 10
-8.3574679894
 20
-24.4479103656
 10
-8.3682580686
 20
-24.4553229956
 10
-8.379421387
 20
-24.4621606774
 10
-8.3909269875
 20
-24.4684044791
 10
-8.4027430657
 20
-24.4740372277
 10
-8.4148374218
 20
-24.4790436576
 10
-8.4271772258
 20
-24.4834102087
 10
-8.4397314103
 20
-24.4871256484
 10
-8.4524628755
 20
-24.4901787618
 10
-8.4653285943
 20
-24.492559892
 10
-8.4782903689
 20
-24.4942634962
 10
-8.4913152632
 20
-24.4952867588
 10
-8.5043676032
 20
-24.495628166
  0
LINE
  5
464
100
AcDbEntity
  8
0
100
AcDbLine
 62
250
  6
CONTINUOUS
 10
-10.937562853
 20
-14.274826
 11
-10.9962506389
 21
-14.568876
  0
LWPOLYLINE
  5
465
100
AcDbEntity
  8
ASSI
100
AcDbPolyline
 62
250
  6
CONTINUOUS
 90
16
 70
0
 10
-2.5775142007
 20
13.7083660785
 10
-2.5845670932
 20
13.6895747699
 10
-2.5932128084
 20
13.671891506
 10
-2.6034513464
 20
13.6553162867
 10
-2.6154158735
 20
13.6397085949
 10
-2.6289732234
 20
13.6252089477
 10
-2.6437238967
 20
13.6122388967
 10
-2.6596980173
 20
13.6008484236
 10
-2.6768654614
 20
13.5909875467
 10
-2.6947363581
 20
13.5829278714
 10
-2.7133477112
 20
13.5767228226
 10
-2.7326625169
 20
13.5723189754
 10
-2.7520798933
 20
13.5698276616
 10
-2.7713995463
 20
13.5692859915
 10
-2.79082177
 20
13.5706568547
 10
-2.8103465644
 20
13.5739402511
  0
LWPOLYLINE
  5
466
100
AcDbEntity
  8
ASSI
100
AcDbPolyline
 62
250
  6
CONTINUOUS
 90
16
 70
0
 10
-2.2925957158
 20
13.6181518464
 10
-2.3099062956
 20
13.572185165
 10
-2.3316221122
 20
13.5281504455
 10
-2.3575451563
 20
13.4864644569
 10
-2.3874456669
 20
13.4475319439
 10
-2.4210060653
 20
13.4117055906
 10
-2.4579037095
 20
13.3793228502
 10
-2.4978074956
 20
13.3507287182
 10
-2.5403259368
 20
13.326188053
 10
-2.5850396818
 20
13.3059055025
 10
-2.631520172
 20
13.2900955491
 10
-2.6793267572
 20
13.2789360581
 10
-2.7280104837
 20
13.2725068278
 10
-2.7771132987
 20
13.270876639
 10
-2.8261667422
 20
13.2741019315
 10
-2.8746702842
 20
13.2821214853
  0
LWPOLYLINE
  5
467
100
AcDbEntity
  8
RACCORDO
100
AcDbPolyline
 62
7
  6
CONTINUOUS
 90
10
 70
0
 10
1.5794818944
 20
13.1393859786
 10
1.4686911829
 20
13.0178387274
 10
1.3596572001
 20
12.8999659912
 10
1.2523799461
 20
12.78576777
 10
1.1471878889
 20
12.6755795223
 10
1.0437525606
 20
12.5690657897
 10
0.9410885567
 20
12.4652201972
 10
0.8388674092
 20
12.3637072866
 10
0.7374175862
 20
12.2648625161
 10
0.6367390877
 20
12.1686858858
  0
LINE
  5
468
100
AcDbEntity
  8
RACCORDO
100
AcDbLine
 62
7
  6
CONTINUOUS
 10
1.0150551176
 20
-10.6225359525
 11
1.3421516476
 21
-10.8113852222
  0
LINE
  5
469
100
AcDbEntity
  8
RACCORDO
100
AcDbLine
 62
250
  6
CONTINUOUS
 10
1.3421516476
 20
-10.7713462339
 11
1.0326802857
 21
-10.5920082658
  0
LWPOLYLINE
  5
46A
100
AcDbEntity
  8
ASSI
100
AcDbPolyline
 62
250
  6
CONTINUOUS
 90
3
 70
0
 10
-5.3484038273
 20
-13.7483315928
 10
-5.3497839685
 20
-13.7299767563
 10
-5.3612459991
 20
-13.5803262223
  0
LINE
  5
46B
100
AcDbEntity
  8
ASSI
100
AcDbLine
 62
250
  6
CONTINUOUS
 10
-4.6515961731
 20
-9.3516684076
 11
-4.6387540016
 21
-9.5196737785
  0
LINE
  5
46C
100
AcDbEntity
  8
0
100
AcDbLine
 62
7
  6
CONTINUOUS
 10
-6.75
 20
-9.9705255187
 11
-6.75
 21
-11.15
  0
LINE
  5
46D
100
AcDbEntity
  8
0
100
AcDbLine
 62
7
  6
CONTINUOUS
 10
-6.75
 20
-12.7665003775
 11
-6.75
 21
-13.1294744813
  0
LINE
  5
46E
100
AcDbEntity
  8
RACCORDO
100
AcDbLine
 62
7
  6
CONTINUOUS
 10
-6.5581782981
 20
-20.28553092
 11
-6.5581782981
 21
-19.9570181168
  0
LINE
  5
46F
100
AcDbEntity
  8
RACCORDO
100
AcDbLine
 62
7
  6
CONTINUOUS
 10
-6.5581782981
 20
19.9570181168
 11
-6.5581782981
 21
20.28553092
  0
LINE
  5
470
100
AcDbEntity
  8
COSMETICHE
100
AcDbLine
 62
7
  6
CONTINUOUS
 10
-6.5
 20
-12.9844124925
 11
-6.5
 21
-12.7186560606
  0
LINE
  5
471
100
AcDbEntity
  8
COSMETICHE
100
AcDbLine
 62
7
  6
CONTINUOUS
 10
-6.5
 20
-11.15
 11
-6.5
 21
-10.1155875075
  0
LINE
  5
472
100
AcDbEntity
  8
RACCORDO
100
AcDbLine
 62
7
  6
CONTINUOUS
 10
-6.4482213147
 20
19.7240686345
 11
-6.4482213147
 21
19.7
  0
LINE
  5
473
100
AcDbEntity
  8
RACCORDO
100
AcDbLine
 62
7
  6
CONTINUOUS
 10
-6.4482213147
 20
-19.7
 11
-6.4482213147
 21
-19.7240686345
  0
LINE
  5
474
100
AcDbEntity
  8
0
100
AcDbLine
 62
250
  6
CONTINUOUS
 10
-5.962981695
 20
1.9
 11
-5.962981695
 21
0.0
  0
LINE
  5
475
100
AcDbEntity
  8
ASSI
100
AcDbLine
 62
7
  6
CONTINUOUS
 10
-5.75
 20
19.9
 11
-5.75
 21
19.7
  0
LINE
  5
476
100
AcDbEntity
  8
ASSI
100
AcDbLine
 62
7
  6
CONTINUOUS
 10
-5.75
 20
-19.7
 11
-5.75
 21
-19.9
  0
LINE
  5
477
100
AcDbEntity
  8
ASSI
100
AcDbLine
 62
7
  6
CONTINUOUS
 10
-5.6609791689
 20
19.8109791689
 11
-5.6609791689
 21
19.6109791689
  0
LINE
  5
478
100
AcDbEntity
  8
ASSI
100
AcDbLine
 62
7
  6
CONTINUOUS
 10
-5.6609791689
 20
-19.6109791689
 11
-5.6609791689
 21
-19.8109791689
  0
LINE
  5
479
100
AcDbEntity
  8
0
100
AcDbLine
 62
250
  6
CONTINUOUS
 10
-5.5965531454
 20
-1.5428571105
 11
-5.5965531454
 21
-1.2714285553
  0
LINE
  5
47A
100
AcDbEntity
  8
0
100
AcDbLine
 62
250
  6
CONTINUOUS
 10
-5.5
 20
-17.3005860746
 11
-5.5
 21
-15.4005860746
  0
LINE
  5
47B
100
AcDbEntity
  8
0
100
AcDbLine
 62
250
  6
CONTINUOUS
 10
-5.4744102446
 20
0.5428571671
 11
-5.4744102446
 21
1.3571428895
  0
LINE
  5
47C
100
AcDbEntity
  8
ASSI
100
AcDbLine
 62
7
  6
CONTINUOUS
 10
-8.4196235578
 20
-19.3837586919
 11
-8.4264435553
 21
-19.4718605929
  0
LWPOLYLINE
  5
47D
100
AcDbEntity
  8
ASSI
100
AcDbPolyline
 62
7
  6
CONTINUOUS
 90
18
 70
0
 10
-3.5
 20
23.7499163219
 10
-3.5003230063
 20
23.7470113652
 10
-3.5013112815
 20
23.7434218616
 10
-3.5029931858
 20
23.739147811
 10
-3.5054014196
 20
23.7341999501
 10
-3.5085599982
 20
23.7285675423
 10
-3.5124708266
 20
23.722218378
 10
-3.5171434961
 20
23.7151386538
 10
-3.5225902422
 20
23.7073421732
 10
-3.5287940427
 20
23.6988381364
 10
-3.5357317444
 20
23.6896488036
 10
-3.54341781
 20
23.6797519146
 10
-3.5518911448
 20
23.6690898891
 10
-3.5611483115
 20
23.6576805076
 10
-3.5711974952
 20
23.6455059896
 10
-3.5821174294
 20
23.632455413
 10
-3.5939294816
 20
23.6185236421
 10
-3.6066335265
 20
23.6037158125
  0
LINE
  5
47E
100
AcDbEntity
  8
ASSI
100
AcDbLine
 62
250
  6
CONTINUOUS
 10
-2.8103465644
 20
13.5739402511
 11
-2.8746777202
 21
13.2820877308
  0
LWPOLYLINE
  5
47F
100
AcDbEntity
  8
ASSI
100
AcDbPolyline
 62
250
  6
CONTINUOUS
 90
31
 70
0
 10
-2.1023154714
 20
13.3389374547
 10
-2.1081240751
 20
13.3165602344
 10
-2.1152326251
 20
13.2936365598
 10
-2.1237492721
 20
13.2702581014
 10
-2.1338133999
 20
13.2464525556
 10
-2.1454976901
 20
13.2224173822
 10
-2.1587717504
 20
13.1985023363
 10
-2.173694665
 20
13.1748265924
 10
-2.1903056251
 20
13.1515283691
 10
-2.2084642076
 20
13.1289575834
 10
-2.2281577871
 20
13.1072401751
 10
-2.2493686921
 20
13.0864885469
 10
-2.2718730749
 20
13.0669818661
 10
-2.2955954567
 20
13.0488186699
 10
-2.3204719673
 20
13.0320716039
 10
-2.3462386548
 20
13.016916908
 10
-2.3728004524
 20
13.0033951806
 10
-2.4000479789
 20
12.9915447257
 10
-2.4276569942
 20
12.9814597679
 10
-2.4555163376
 20
12.9731202105
 10
-2.4835078954
 20
12.9665043118
 10
-2.5112773294
 20
12.9616100319
 10
-2.5387146531
 20
12.9583548777
 10
-2.5657257084
 20
12.9566547129
 10
-2.5919829299
 20
12.9564131199
 10
-2.6174051604
 20
12.9574980722
 10
-2.6419372471
 20
12.9597820421
 10
-2.6653110454
 20
12.9631012268
 10
-2.6874223116
 20
12.9672845053
 10
-2.7083252324
 20
12.9721942672
 10
-2.728011414
 20
12.977691586
  0
LINE
  5
480
100
AcDbEntity
  8
ASSI
100
AcDbLine
 62
250
  6
CONTINUOUS
 10
-2.8128408016
 20
12.6911248122
 11
-2.7280115445
 21
12.9776911455
  0
LINE
  5
481
100
AcDbEntity
  8
0
100
AcDbLine
 62
250
  6
CONTINUOUS
 10
-5.4744102446
 20
1.3571428895
 11
-5.3522674457
 21
1.6285714447
  0
LWPOLYLINE
  5
482
100
AcDbEntity
  8
RACCORDO
100
AcDbPolyline
 62
7
  6
CONTINUOUS
 90
4
 70
0
 10
7.8908834737
 20
21.7591165263
 10
7.843380061
 20
21.6866457638
 10
7.818929804
 20
21.6499179842
 10
7.7939545568
 20
21.6129888844
  0
LINE
  5
483
100
AcDbEntity
  8
RACCORDO
100
AcDbLine
 62
7
  6
CONTINUOUS
 10
6.557024886
 20
20.0855385354
 11
6.4493747267
 21
19.9240610192
  0
LINE
  5
484
100
AcDbEntity
  8
RACCORDO
100
AcDbLine
 62
7
  6
CONTINUOUS
 10
7.7939545568
 20
21.6129888844
 11
7.7427848301
 21
21.5385902446
  0
LINE
  5
485
100
AcDbEntity
  8
RACCORDO
100
AcDbLine
 62
7
  6
CONTINUOUS
 10
7.7427848301
 20
21.5385902446
 11
7.6904803352
 21
21.4636002076
  0
LWPOLYLINE
  5
486
100
AcDbEntity
  8
RACCORDO
100
AcDbPolyline
 62
7
  6
CONTINUOUS
 90
3
 70
0
 10
7.6904803352
 20
21.4636002076
 10
7.6108850697
 20
21.3504165494
 10
7.5841007192
 20
21.3126932437
  0
LINE
  5
487
100
AcDbEntity
  8
0
100
AcDbLine
 62
250
  6
CONTINUOUS
 10
-6.4515531454
 20
1.3571428895
 11
-5.962981695
 21
1.9
  0
LINE
  5
488
100
AcDbEntity
  8
ASSI
100
AcDbLine
 62
250
  6
CONTINUOUS
 10
9.9908997422
 20
19.0909100822
 11
9.2839006568
 21
18.3839109968
  0
LINE
  5
489
100
AcDbEntity
  8
ASSI
100
AcDbLine
 62
250
  6
CONTINUOUS
 10
10.1625316542
 20
18.9192781701
 11
9.4555325688
 21
18.2122790847
  0
LINE
  5
48A
100
AcDbEntity
  8
0
100
AcDbLine
 62
250
  6
CONTINUOUS
 10
2.3836046228
 20
8.2466045576
 11
-0.5608817501
 21
6.5466045576
  0
LINE
  5
48B
100
AcDbEntity
  8
0
100
AcDbLine
 62
250
  6
CONTINUOUS
 10
-11.0952417694
 20
-5.386478
 11
-11.082926976
 21
-5.386471
  0
LINE
  5
48C
100
AcDbEntity
  8
0
100
AcDbLine
 62
250
  6
CONTINUOUS
 10
-11.0539974046
 20
-5.958503
 11
-11.1046039433
 21
-5.958503
  0
LINE
  5
48D
100
AcDbEntity
  8
0
100
AcDbLine
 62
250
  6
CONTINUOUS
 10
-11.0735648021
 20
-5.378409
 11
-11.0539974046
 21
-5.378474
  0
LINE
  5
48E
100
AcDbEntity
  8
ASSI
100
AcDbLine
 62
250
  6
CONTINUOUS
 10
4.4220064527
 20
-13.3745670587
 11
4.6387540019
 21
-13.5803262211
  0
LINE
  5
48F
100
AcDbEntity
  8
ASSI
100
AcDbLine
 62
250
  6
CONTINUOUS
 10
0.5779935473
 20
-9.7254329413
 11
0.3612459981
 21
-9.5196737789
  0
LINE
  5
490
100
AcDbEntity
  8
ASSI
100
AcDbLine
 62
250
  6
CONTINUOUS
 10
9.9908997422
 20
-19.0909100822
 11
9.2839006568
 21
-18.3839109968
  0
LINE
  5
491
100
AcDbEntity
  8
ASSI
100
AcDbLine
 62
250
  6
CONTINUOUS
 10
10.1625316542
 20
-18.9192781701
 11
9.4555325688
 21
-18.2122790847
  0
LINE
  5
492
100
AcDbEntity
  8
ASSI
100
AcDbLine
 62
250
  6
CONTINUOUS
 10
0.1393615371
 20
-9.1380854517
 11
0.348403827
 21
-9.3516684075
  0
LINE
  5
493
100
AcDbEntity
  8
ASSI
100
AcDbLine
 62
250
  6
CONTINUOUS
 10
4.8606384629
 20
-13.9619145483
 11
4.651596173
 21
-13.7483315925
  0
LINE
  5
494
100
AcDbEntity
  8
RACCORDO
100
AcDbLine
 62
7
  6
CONTINUOUS
 10
7.5841007192
 20
-21.3126932437
 11
7.6375346208
 21
-21.3881838872
  0
LINE
  5
495
100
AcDbEntity
  8
RACCORDO
100
AcDbLine
 62
7
  6
CONTINUOUS
 10
7.6375346208
 20
-21.3881838872
 11
7.7167764984
 21
-21.5011382645
  0
LWPOLYLINE
  5
496
100
AcDbEntity
  8
RACCORDO
100
AcDbPolyline
 62
7
  6
CONTINUOUS
 90
5
 70
0
 10
7.7167764984
 20
-21.5011382645
 10
7.7685136093
 20
-21.5758926167
 10
7.7939545568
 20
-21.6129888844
 10
7.818929804
 20
-21.6499179842
 10
7.843380061
 20
-21.6866457638
  0
LINE
  5
497
100
AcDbEntity
  8
RACCORDO
100
AcDbLine
 62
7
  6
CONTINUOUS
 10
6.557024886
 20
-20.0855385354
 11
6.4493747267
 21
-19.9240610192
  0
LINE
  5
498
100
AcDbEntity
  8
RACCORDO
100
AcDbLine
 62
7
  6
CONTINUOUS
 10
7.843380061
 20
-21.6866457638
 11
7.8908834737
 21
-21.7591165263
  0
LWPOLYLINE
  5
499
100
AcDbEntity
  8
RACCORDO
100
AcDbPolyline
 62
250
  6
CONTINUOUS
 90
3
 70
0
 10
-1.2700452723
 20
-10.3064862218
 10
-1.0884960011
 20
-10.6208397571
 10
-1.0870430525
 20
-10.6233946239
  0
LINE
  5
49A
100
AcDbEntity
  8
ASSI
100
AcDbLine
 62
7
  6
CONTINUOUS
 10
-3.3994386924
 20
20.0483181605
 11
-3.3991631131
 21
19.8991631132
  0
LINE
  5
49B
100
AcDbEntity
  8
0
100
AcDbLine
 62
250
  6
CONTINUOUS
 10
-5.107981746
 20
-1.8142856658
 11
-5.107981746
 21
-1.0
  0
LINE
  5
49C
100
AcDbEntity
  8
0
100
AcDbLine
 62
250
  6
CONTINUOUS
 10
-4.6194103465
 20
1.3571428895
 11
-4.6194103465
 21
0.5428571671
  0
LINE
  5
49D
100
AcDbEntity
  8
0
100
AcDbLine
 62
250
  6
CONTINUOUS
 10
-4.55
 20
-17.3005860746
 11
-4.55
 21
-15.4005860746
  0
LINE
  5
49E
100
AcDbEntity
  8
DRAFT
100
AcDbLine
 62
7
  6
CONTINUOUS
 10
-4.4
 20
23.8
 11
-4.4
 21
22.4
  0
LINE
  5
49F
100
AcDbEntity
  8
DRAFT
100
AcDbLine
 62
7
  6
CONTINUOUS
 10
-4.4
 20
-22.4
 11
-4.4
 21
-23.8
  0
LINE
  5
4A0
100
AcDbEntity
  8
0
100
AcDbLine
 62
250
  6
CONTINUOUS
 10
-4.3751245449
 20
-2.6285714164
 11
-4.3751245449
 21
-2.0857142776
  0
LINE
  5
4A1
100
AcDbEntity
  8
ASSI
100
AcDbLine
 62
250
  6
CONTINUOUS
 10
-4.3558866345
 20
23.7495140557
 11
-4.3558866345
 21
22.3338290185
  0
LINE
  5
4A2
100
AcDbEntity
  8
ASSI
100
AcDbLine
 62
250
  6
CONTINUOUS
 10
-4.3558866345
 20
-22.3338290185
 11
-4.3558866345
 21
-23.7495140557
  0
LINE
  5
4A3
100
AcDbEntity
  8
ASSI
100
AcDbLine
 62
250
  6
CONTINUOUS
 10
-3.9358937422
 20
23.2563578147
 11
-3.9358937422
 21
22.3301850577
  0
LINE
  5
4A4
100
AcDbEntity
  8
ASSI
100
AcDbLine
 62
250
  6
CONTINUOUS
 10
-3.9358937422
 20
-22.3301850577
 11
-3.9358937422
 21
-23.2563578147
  0
LINE
  5
4A5
100
AcDbEntity
  8
ASSI
100
AcDbLine
 62
250
  6
CONTINUOUS
 10
-3.92
 20
-23.2563578147
 11
-3.92
 21
-22.3301850577
  0
LINE
  5
4A6
100
AcDbEntity
  8
ASSI
100
AcDbLine
 62
250
  6
CONTINUOUS
 10
-3.92
 20
22.3301850577
 11
-3.92
 21
23.2563578147
  0
LINE
  5
4A7
100
AcDbEntity
  8
0
100
AcDbLine
 62
250
  6
CONTINUOUS
 10
-3.8865531454
 20
-2.3571428329
 11
-3.8865531454
 21
-1.5428571105
  0
LINE
  5
4A8
100
AcDbEntity
  8
DRAFT
100
AcDbLine
 62
7
  6
CONTINUOUS
 10
-3.5
 20
20.0445070257
 11
-3.5
 21
20.0
  0
LINE
  5
4A9
100
AcDbEntity
  8
DRAFT
100
AcDbLine
 62
7
  6
CONTINUOUS
 10
-3.5
 20
-20.0445070257
 11
-3.5
 21
-20.0
  0
LINE
  5
4AA
100
AcDbEntity
  8
ASSI
100
AcDbLine
 62
7
  6
CONTINUOUS
 10
-3.5
 20
-22.3338503421
 11
-3.5
 21
-23.7941821702
  0
LINE
  5
4AB
100
AcDbEntity
  8
COSMETICHE
100
AcDbLine
 62
7
  6
CONTINUOUS
 10
-3.5
 20
-12.9844124925
 11
-3.5
 21
-12.7186579086
  0
LINE
  5
4AC
100
AcDbEntity
  8
COSMETICHE
100
AcDbLine
 62
7
  6
CONTINUOUS
 10
-3.5
 20
-11.15
 11
-3.5
 21
-10.1155875075
  0
LINE
  5
4AD
100
AcDbEntity
  8
ASSI
100
AcDbLine
 62
7
  6
CONTINUOUS
 10
-3.5
 20
22.3338503421
 11
-3.5
 21
23.7941821702
  0
LINE
  5
4AE
100
AcDbEntity
  8
ASSI
100
AcDbLine
 62
7
  6
CONTINUOUS
 10
-3.3994386924
 20
-20.0483181605
 11
-3.3991631131
 21
-19.8991631131
  0
LINE
  5
4AF
100
AcDbEntity
  8
ASSI
100
AcDbLine
 62
250
  6
CONTINUOUS
 10
-5.3484038249
 20
-9.3516684096
 11
-5.3612459981
 21
-9.5196737787
  0
LINE
  5
4B0
100
AcDbEntity
  8
ASSI
100
AcDbLine
 62
250
  6
CONTINUOUS
 10
-4.6515961748
 20
-13.7483315908
 11
-4.6387540012
 21
-13.580326222
  0
LWPOLYLINE
  5
4B1
100
AcDbEntity
  8
ASSI
100
AcDbPolyline
 62
250
  6
CONTINUOUS
 90
31
 70
0
 10
-1.8117264836
 20
13.269118431
 10
-1.8208652603
 20
13.2332652574
 10
-1.8324174781
 20
13.1968557759
 10
-1.8463831371
 20
13.1598899865
 10
-1.8626985115
 20
13.1220574003
 10
-1.881427327
 20
13.0836685061
 10
-1.9027607611
 20
13.0456547707
 10
-1.9268211262
 20
13.0080090341
 10
-1.9534861098
 20
12.9707384563
 10
-1.9825799518
 20
12.9347959841
 10
-2.0142097871
 20
12.9002423013
 10
-2.0482684808
 20
12.867016724
 10
-2.0842588689
 20
12.8358901478
 10
-2.1222473028
 20
12.8069605765
 10
-2.1621674311
 20
12.7801300064
 10
-2.2033230344
 20
12.7558753212
 10
-2.2457687574
 20
12.7342964332
 10
-2.2894499554
 20
12.7152934302
 10
-2.3335064755
 20
12.6990434589
 10
-2.3779527458
 20
12.6856610173
 10
-2.4227743382
 20
12.6750316074
 10
-2.4670678151
 20
12.6669888816
 10
-2.5107942059
 20
12.6616389659
 10
-2.5539924811
 20
12.6588757344
 10
-2.5958761153
 20
12.6582144616
 10
-2.6363739184
 20
12.6597266721
 10
-2.6755570803
 20
12.6633408413
 10
-2.7128526452
 20
12.6683576699
 10
-2.7480696277
 20
12.674544058
 10
-2.7813990132
 20
12.6821331054
 10
-2.8128408016
 20
12.6911248122
  0
LINE
  5
4B2
100
AcDbEntity
  8
0
100
AcDbLine
 62
250
  6
CONTINUOUS
 10
-4.1308389471
 20
0.0
 11
-3.6422673438
 21
1.9
  0
LWPOLYLINE
  5
4B3
100
AcDbEntity
  8
ASSI
100
AcDbPolyline
 62
250
  6
CONTINUOUS
 90
16
 70
0
 10
-0.6025585293
 20
9.3219861929
 10
-0.5859805589
 20
9.3706268713
 10
-0.5645075566
 20
9.4172829503
 10
-0.53838441
 20
9.4614827205
 10
-0.5078590744
 20
9.502755454
 10
-0.473258411
 20
9.5406839087
 10
-0.434967559
 20
9.5748934784
 10
-0.3933764082
 20
9.6049954604
 10
-0.3489089354
 20
9.6306554374
 10
-0.3020460328
 20
9.6516486092
 10
-0.2532869444
 20
9.6677478682
 10
-0.2031395231
 20
9.6787441047
 10
-0.1521157396
 20
9.6845467634
 10
-0.1007408175
 20
9.6850955161
 10
-0.0495519961
 20
9.6803401369
 10
0.0008840307
 20
9.670357406
  0
LINE
  5
4B4
100
AcDbEntity
  8
0
100
AcDbLine
 62
250
  6
CONTINUOUS
 10
-4.6194103465
 20
0.5428571671
 11
-4.7415531454
 21
0.2714285836
  0
LINE
  5
4B5
100
AcDbEntity
  8
0
100
AcDbLine
 62
250
  6
CONTINUOUS
 10
-6.2072674202
 20
-1.0
 11
-6.4515531454
 21
-1.4071428895
  0
LINE
  5
4B6
100
AcDbEntity
  8
0
100
AcDbLine
 62
250
  6
CONTINUOUS
 10
-6.4515531454
 20
-2.9
 11
-5.5965531454
 21
-1.5428571105
  0
LINE
  5
4B7
100
AcDbEntity
  8
0
100
AcDbLine
 62
250
  6
CONTINUOUS
 10
-5.3522674457
 20
1.6285714447
 11
-5.107981746
 21
1.9
  0
LINE
  5
4B8
100
AcDbEntity
  8
0
100
AcDbLine
 62
250
  6
CONTINUOUS
 10
-4.7415531454
 20
0.2714285836
 11
-4.9858388451
 21
0.0
  0
LINE
  5
4B9
100
AcDbEntity
  8
0
100
AcDbLine
 62
250
  6
CONTINUOUS
 10
-5.5965531454
 20
-1.2714285553
 11
-5.8408388451
 21
-1.0
  0
LINE
  5
4BA
100
AcDbEntity
  8
0
100
AcDbLine
 62
250
  6
CONTINUOUS
 10
-4.3751245449
 20
-2.0857142776
 11
-4.6194103465
 21
-1.8142856658
  0
LINE
  5
4BB
100
AcDbEntity
  8
0
100
AcDbLine
 62
250
  6
CONTINUOUS
 10
-3.5201245449
 20
-2.9
 11
-3.7644103465
 21
-2.6285714164
  0
LINE
  5
4BC
100
AcDbEntity
  8
0
100
AcDbLine
 62
250
  6
CONTINUOUS
 10
-5.107981746
 20
0.0
 11
-5.3522674457
 21
0.2714285836
  0
LINE
  5
4BD
100
AcDbEntity
  8
0
100
AcDbLine
 62
250
  6
CONTINUOUS
 10
-5.3522674457
 20
0.2714285836
 11
-5.4744102446
 21
0.5428571671
  0
LINE
  5
4BE
100
AcDbEntity
  8
0
100
AcDbLine
 62
250
  6
CONTINUOUS
 10
-3.7644103465
 20
-2.6285714164
 11
-3.8865531454
 21
-2.3571428329
  0
LINE
  5
4BF
100
AcDbEntity
  8
0
100
AcDbLine
 62
250
  6
CONTINUOUS
 10
-4.7415531454
 20
1.6285714447
 11
-4.6194103465
 21
1.3571428895
  0
LINE
  5
4C0
100
AcDbEntity
  8
0
100
AcDbLine
 62
250
  6
CONTINUOUS
 10
-3.1536959443
 20
-1.2714285553
 11
-3.0315531454
 21
-1.5428571105
  0
LINE
  5
4C1
100
AcDbEntity
  8
ASSI
100
AcDbLine
 62
7
  6
CONTINUOUS
 10
-1.5803764422
 20
-19.3837586919
 11
-1.5735564447
 21
-19.4718605929
  0
LINE
  5
4C2
100
AcDbEntity
  8
ASSI
100
AcDbLine
 62
250
  6
CONTINUOUS
 10
-2.4010052467
 20
-20.0531098401
 11
-2.4015242349
 21
-19.8844866796
  0
LINE
  5
4C3
100
AcDbEntity
  8
0
100
AcDbLine
 62
7
  6
CONTINUOUS
 10
-3.25
 20
-9.9705255187
 11
-3.25
 21
-11.15
  0
LINE
  5
4C4
100
AcDbEntity
  8
0
100
AcDbLine
 62
7
  6
CONTINUOUS
 10
-3.25
 20
-12.7665008265
 11
-3.25
 21
-13.1294744813
  0
LINE
  5
4C5
100
AcDbEntity
  8
0
100
AcDbLine
 62
250
  6
CONTINUOUS
 10
-3.0315531454
 20
-1.5428571105
 11
-3.0315531454
 21
-2.3571428329
  0
LINE
  5
4C6
100
AcDbEntity
  8
RACCORDO
100
AcDbLine
 62
7
  6
CONTINUOUS
 10
-3.0
 20
-21.0
 11
-3.0
 21
-22.3380392387
  0
LINE
  5
4C7
100
AcDbEntity
  8
RACCORDO
100
AcDbLine
 62
7
  6
CONTINUOUS
 10
-3.0
 20
21.0
 11
-3.0
 21
22.3380392387
  0
LINE
  5
4C8
100
AcDbEntity
  8
0
100
AcDbLine
 62
7
  6
CONTINUOUS
 10
-2.45
 20
-13.2982195017
 11
-2.45
 21
-13.0908697181
  0
LINE
  5
4C9
100
AcDbEntity
  8
ASSI
100
AcDbLine
 62
250
  6
CONTINUOUS
 10
-2.3935208225
 20
18.6206191198
 11
-2.3935352888
 21
19.4980069565
  0
LINE
  5
4CA
100
AcDbEntity
  8
ASSI
100
AcDbLine
 62
7
  6
CONTINUOUS
 10
-2.3479810197
 20
19.3927908573
 11
-2.347993318
 21
18.6469044367
  0
LINE
  5
4CB
100
AcDbEntity
  8
SMUSSO
100
AcDbLine
 62
7
  6
CONTINUOUS
 10
-2.2581415713
 20
8.9883927817
 11
-2.2581415713
 21
9.3863448016
  0
LINE
  5
4CC
100
AcDbEntity
  8
ASSI
100
AcDbLine
 62
250
  6
CONTINUOUS
 10
-2.2501047116
 20
-17.8263198503
 11
-2.2501047116
 21
-18.3
  0
LINE
  5
4CD
100
AcDbEntity
  8
ASSI
100
AcDbLine
 62
7
  6
CONTINUOUS
 10
-2.1975340777
 20
-18.3
 11
-2.1975340777
 21
-17.7912732553
  0
LINE
  5
4CE
100
AcDbEntity
  8
ASSI
100
AcDbLine
 62
250
  6
CONTINUOUS
 10
-2.4015242349
 20
19.8844866796
 11
-2.4010052467
 21
20.0531098401
  0
LWPOLYLINE
  5
4CF
100
AcDbEntity
  8
ASSI
100
AcDbPolyline
 62
250
  6
CONTINUOUS
 90
31
 70
0
 10
-0.9882735164
 20
9.530881569
 10
-0.9791347404
 20
9.5667347403
 10
-0.9675825234
 20
9.6031442196
 10
-0.9536168655
 20
9.6401100069
 10
-0.9373014925
 20
9.6779425912
 10
-0.9185726785
 20
9.7163314835
 10
-0.8972392461
 20
9.7543452172
 10
-0.8731788829
 20
9.7919909525
 10
-0.8465139013
 20
9.8292615292
 10
-0.8174200613
 20
9.8652040006
 10
-0.785790228
 20
9.8997576831
 10
-0.7517315364
 20
9.9329832603
 10
-0.7157411502
 20
9.9641098367
 10
-0.677752718
 20
9.9930394085
 10
-0.6378325913
 20
10.0198699796
 10
-0.5966769892
 20
10.0441246659
 10
-0.5542312671
 20
10.0657035552
 10
-0.5105500697
 20
10.0847065597
 10
-0.4664935498
 20
10.1009565327
 10
-0.4220472792
 20
10.1143389759
 10
-0.3772256862
 20
10.1249683876
 10
-0.3329322082
 20
10.1330111149
 10
-0.289205816
 20
10.138361032
 10
-0.2460075388
 20
10.1411242648
 10
-0.2041239026
 20
10.1417855386
 10
-0.163626097
 20
10.1402733288
 10
-0.1244429323
 20
10.1366591601
 10
-0.0871473645
 20
10.1316423317
 10
-0.0519303789
 20
10.1254559434
 10
-0.0186009902
 20
10.1178668954
 10
0.0128408016
 20
10.1088751878
  0
LINE
  5
4D0
100
AcDbEntity
  8
ASSI
100
AcDbLine
 62
250
  6
CONTINUOUS
 10
-0.0733518545
 20
9.3809013173
 11
0.0008926025
 21
9.6703908452
  0
LWPOLYLINE
  5
4D1
100
AcDbEntity
  8
ASSI
100
AcDbPolyline
 62
250
  6
CONTINUOUS
 90
31
 70
0
 10
-0.6976845286
 20
9.4610625453
 10
-0.6918759253
 20
9.4834397642
 10
-0.6847673758
 20
9.5063634374
 10
-0.6762507295
 20
9.5297418946
 10
-0.6661866025
 20
9.553547439
 10
-0.6545023133
 20
9.5775826113
 10
-0.6412282541
 20
9.6014976562
 10
-0.6263053406
 20
9.6251733991
 10
-0.6096943818
 20
9.6484716218
 10
-0.5915358006
 20
9.671042407
 10
-0.5718422224
 20
9.692759815
 10
-0.5506313187
 20
9.7135114432
 10
-0.5281269371
 20
9.7330181241
 10
-0.5044045564
 20
9.7511813207
 10
-0.4795280468
 20
9.7679283873
 10
-0.45376136
 20
9.7830830839
 10
-0.4271995629
 20
9.7966048121
 10
-0.3999520368
 20
9.808455268
 10
-0.3723430216
 20
9.8185402268
 10
-0.344483678
 20
9.8268797853
 10
-0.3164921197
 20
9.8334956851
 10
-0.2887226851
 20
9.838389966
 10
-0.2612853604
 20
9.8416451211
 10
-0.234274304
 20
9.8433452866
 10
-0.2080170811
 20
9.8435868803
 10
-0.1825948491
 20
9.8425019284
 10
-0.1580627607
 20
9.8402179588
 10
-0.1346889606
 20
9.8368987741
 10
-0.1125776925
 20
9.8327154956
 10
-0.0916747697
 20
9.8278057333
 10
-0.071988586
 20
9.822308414
  0
LINE
  5
4D2
100
AcDbEntity
  8
0
100
AcDbLine
 62
250
  6
CONTINUOUS
 10
-0.5608817501
 20
6.5466045576
 11
0.0613614363
 21
8.8688477441
  0
LINE
  5
4D3
100
AcDbEntity
  8
ASSI
100
AcDbLine
 62
250
  6
CONTINUOUS
 10
0.0128408016
 20
10.1088751878
 11
-0.0719884555
 21
9.8223088545
  0
LWPOLYLINE
  5
4D4
100
AcDbEntity
  8
ASSI
100
AcDbPolyline
 62
250
  6
CONTINUOUS
 90
16
 70
0
 10
-0.3147333225
 20
9.241539663
 10
-0.3079561444
 20
9.2614623025
 10
-0.2994209939
 20
9.2802007663
 10
-0.2891278711
 20
9.2977550544
 10
-0.2769306104
 20
9.3142824265
 10
-0.2629753775
 20
9.3296256229
 10
-0.2477006689
 20
9.3433128642
 10
-0.2310669872
 20
9.3552924549
 10
-0.2131138299
 20
9.3656160905
 10
-0.1943981859
 20
9.3739670785
 10
-0.1748780967
 20
9.3802810662
 10
-0.1545955207
 20
9.3846224063
 10
-0.1342333221
 20
9.3868674649
 10
-0.1140191222
 20
9.3869750306
 10
-0.0937252996
 20
9.3849863147
 10
-0.0733518544
 20
9.3809013172
  0
LINE
  5
4D5
100
AcDbEntity
  8
ASSI
100
AcDbLine
 62
250
  6
CONTINUOUS
 10
-9.9908997422
 20
-19.0909100822
 11
-10.0850175454
 21
-19.3181305591
  0
LINE
  5
4D6
100
AcDbEntity
  8
0
100
AcDbLine
 62
250
  6
CONTINUOUS
 10
-3.8865531454
 20
-1.5428571105
 11
-3.7644103465
 21
-1.2714285553
  0
LINE
  5
4D7
100
AcDbEntity
  8
0
100
AcDbLine
 62
250
  6
CONTINUOUS
 10
-3.0315531454
 20
-2.3571428329
 11
-3.1536959443
 21
-2.6285714164
  0
LWPOLYLINE
  5
4D8
100
AcDbEntity
  8
ASSI
100
AcDbPolyline
 62
250
  6
CONTINUOUS
 90
55
 70
0
 10
-9.7483811786
 20
-9.0331115016
 10
-9.7780860291
 20
-9.0680407327
 10
-9.8079362086
 20
-9.1041660396
 10
-9.8379043776
 20
-9.1414874223
 10
-9.8678815656
 20
-9.1798628179
 10
-9.8979201002
 20
-9.2194342893
 10
-9.9282303015
 20
-9.2606280258
 10
-9.9587904716
 20
-9.3034293962
 10
-9.9895499517
 20
-9.3478530317
 10
-10.0206648517
 20
-9.3943690155
 10
-10.0521009018
 20
-9.4429643307
 10
-10.0837930529
 20
-9.4936519941
 10
-10.1158360284
 20
-9.5469411392
 10
-10.1481799817
 20
-9.6028218554
 10
-10.1807374313
 20
-9.6613040533
 10
-10.2135285405
 20
-9.7229265973
 10
-10.2464876392
 20
-9.7876827101
 10
-10.279496355
 20
-9.8555791691
 10
-10.3124789469
 20
-9.9271751708
 10
-10.3453756952
 20
-10.0025007084
 10
-10.3780139056
 20
-10.0815257887
 10
-10.4101478076
 20
-10.1647196284
 10
-10.4418242257
 20
-10.2523449786
 10
-10.4727388638
 20
-10.3441390881
 10
-10.5022027739
 20
-10.4397829198
 10
-10.530281508
 20
-10.5391086112
 10
-10.5568047296
 20
-10.6422840249
 10
-10.5809586215
 20
-10.7494937115
 10
-10.6033373581
 20
-10.8597850366
 10
-10.6235106397
 20
-10.9741106346
 10
-10.6397102953
 20
-11.0955129598
 10
-10.6528442843
 20
-11.2264312578
 10
-10.6628925509
 20
-11.364426283
 10
-10.6674639771
 20
-11.5052227521
 10
-10.665617308
 20
-11.6489171537
 10
-10.6585509865
 20
-11.7954129993
 10
-10.6470151699
 20
-11.9401455406
 10
-10.6299965846
 20
-12.0813210147
 10
-10.6068343624
 20
-12.2207331844
 10
-10.5792344897
 20
-12.3591985905
 10
-10.5472839568
 20
-12.4972171437
 10
-10.509942759
 20
-12.6342889332
 10
-10.4681174369
 20
-12.7697307673
 10
-10.4216673987
 20
-12.9042837646
 10
-10.3704005567
 20
-13.0372068065
 10
-10.3157270844
 20
-13.1655933458
 10
-10.2579725153
 20
-13.2890326491
 10
-10.1971844756
 20
-13.4079354498
 10
-10.1347627071
 20
-13.5206274011
 10
-10.0714104958
 20
-13.6264064643
 10
-10.0071193078
 20
-13.725974678
 10
-9.9423464454
 20
-13.8197638114
 10
-9.8774551115
 20
-13.9079177874
 10
-9.8127042589
 20
-13.9902926831
 10
-9.7483811786
 20
-14.0668884984
  0
LINE
  5
4D9
100
AcDbEntity
  8
0
100
AcDbLine
 62
250
  6
CONTINUOUS
 10
-3.7644103465
 20
-1.2714285553
 11
-3.5201245449
 21
-1.0
  0
LINE
  5
4DA
100
AcDbEntity
  8
0
100
AcDbLine
 62
250
  6
CONTINUOUS
 10
-5.107981746
 20
-2.9
 11
-4.6194103465
 21
-2.9
  0
LINE
  5
4DB
100
AcDbEntity
  8
0
100
AcDbLine
 62
250
  6
CONTINUOUS
 10
-3.397981746
 20
-2.9
 11
-3.5201245449
 21
-2.9
  0
LINE
  5
4DC
100
AcDbEntity
  8
0
100
AcDbLine
 62
250
  6
CONTINUOUS
 10
-5.5965531454
 20
-2.9
 11
-6.4515531454
 21
-2.9
  0
LINE
  5
4DD
100
AcDbEntity
  8
0
100
AcDbLine
 62
250
  6
CONTINUOUS
 10
-4.6194103465
 20
-1.8142856658
 11
-5.107981746
 21
-1.8142856658
  0
LINE
  5
4DE
100
AcDbEntity
  8
0
100
AcDbLine
 62
250
  6
CONTINUOUS
 10
-0.7922674117
 20
-2.1761904627
 11
-0.4665531454
 21
-2.4476190463
  0
LINE
  5
4DF
100
AcDbEntity
  8
ASSI
100
AcDbLine
 62
250
  6
CONTINUOUS
 10
5.5779935477
 20
-9.7254329403
 11
5.3612459963
 21
-9.5196737808
  0
LINE
  5
4E0
100
AcDbEntity
  8
ASSI
100
AcDbLine
 62
250
  6
CONTINUOUS
 10
5.1393615377
 20
-9.1380854516
 11
5.3484038259
 21
-9.3516684085
  0
LINE
  5
4E1
100
AcDbEntity
  8
0
100
AcDbLine
 62
250
  6
CONTINUOUS
 10
-3.397981746
 20
-1.0
 11
-3.1536959443
 21
-1.2714285553
  0
LINE
  5
4E2
100
AcDbEntity
  8
0
100
AcDbLine
 62
250
  6
CONTINUOUS
 10
-4.9858388451
 20
1.9
 11
-4.7415531454
 21
1.6285714447
  0
LINE
  5
4E3
100
AcDbEntity
  8
ASSI
100
AcDbLine
 62
250
  6
CONTINUOUS
 10
9.7483811786
 20
-14.0668884984
 11
9.5492796492
 21
-13.8440097648
  0
LINE
  5
4E4
100
AcDbEntity
  8
ASSI
100
AcDbLine
 62
250
  6
CONTINUOUS
 10
7.7498952884
 20
-18.3
 11
8.4264435553
 21
-19.4718605929
  0
LINE
  5
4E5
100
AcDbEntity
  8
ASSI
100
AcDbLine
 62
7
  6
CONTINUOUS
 10
7.8509138036
 20
-18.3839109968
 11
7.8024659223
 21
-18.3
  0
LINE
  5
4E6
100
AcDbEntity
  8
0
100
AcDbLine
 62
250
  6
CONTINUOUS
 10
-3.6422673438
 20
1.9
 11
-3.1536959443
 21
0.0
  0
LINE
  5
4E7
100
AcDbEntity
  8
0
100
AcDbLine
 62
250
  6
CONTINUOUS
 10
-2.5429815421
 20
-1.0
 11
-2.0544103465
 21
-2.9
  0
LWPOLYLINE
  5
4E8
100
AcDbEntity
  8
ASSI
100
AcDbPolyline
 62
250
  6
CONTINUOUS
 90
3
 70
0
 10
-0.3484038269
 20
-13.7483315924
 10
-0.3497839644
 20
-13.7299768052
 10
-0.3612459984
 20
-13.5803262215
  0
LINE
  5
4E9
100
AcDbEntity
  8
ASSI
100
AcDbLine
 62
250
  6
CONTINUOUS
 10
0.3484038269
 20
-9.3516684076
 11
0.3612459984
 21
-9.5196737785
  0
LINE
  5
4EA
100
AcDbEntity
  8
0
100
AcDbLine
 62
250
  6
CONTINUOUS
 10
-1.55
 20
-13.0184913527
 11
-1.55
 21
-11.5666114973
  0
LINE
  5
4EB
100
AcDbEntity
  8
0
100
AcDbLine
 62
7
  6
CONTINUOUS
 10
-1.35
 20
-10.232311179
 11
-1.35
 21
-11.15
  0
LINE
  5
4EC
100
AcDbEntity
  8
0
100
AcDbLine
 62
7
  6
CONTINUOUS
 10
-1.35
 20
-12.8676888002
 11
-1.35
 21
-11.5666114973
  0
LINE
  5
4ED
100
AcDbEntity
  8
RACCORDO
100
AcDbLine
 62
7
  6
CONTINUOUS
 10
-1.35
 20
-11.5666114973
 11
-1.35
 21
-11.15
  0
LINE
  5
4EE
100
AcDbEntity
  8
ASSI
100
AcDbLine
 62
7
  6
CONTINUOUS
 10
-1.0
 20
-12.4513878189
 11
-1.0
 21
-10.6486121811
  0
LINE
  5
4EF
100
AcDbEntity
  8
0
100
AcDbLine
 62
7
  6
CONTINUOUS
 10
-1.343140724
 20
-12.8616622005
 11
-1.3421516476
 21
-12.85
  0
LWPOLYLINE
  5
4F0
100
AcDbEntity
  8
ASSI
100
AcDbPolyline
 62
7
  6
CONTINUOUS
 90
18
 70
0
 10
-4.3558866345
 20
-23.7495140557
 10
-4.3554688398
 20
-23.7465237651
 10
-4.3543887696
 20
-23.7428626013
 10
-4.3526218053
 20
-23.7385305642
 10
-4.3501399584
 20
-23.7335378987
 10
-4.3469227197
 20
-23.72787436
 10
-4.3429677159
 20
-23.7215092133
 10
-4.3382675506
 20
-23.714433386
 10
-4.3328107025
 20
-23.7066559506
 10
-4.3266055283
 20
-23.6981733902
 10
-4.3196702234
 20
-23.6890071452
 10
-4.3119903043
 20
-23.6791357752
 10
-4.3035215444
 20
-23.6684914417
 10
-4.2942607814
 20
-23.6570867016
 10
-4.2842003781
 20
-23.644908998
 10
-4.2732682897
 20
-23.631852822
 10
-4.2614435038
 20
-23.6179124102
 10
-4.2487243743
 20
-23.6030935259
  0
LINE
  5
4F1
100
AcDbEntity
  8
0
100
AcDbLine
 62
250
  6
CONTINUOUS
 10
-2.0544103465
 20
-2.9
 11
-1.5658387432
 21
-1.0
  0
LINE
  5
4F2
100
AcDbEntity
  8
ASSI
100
AcDbLine
 62
250
  6
CONTINUOUS
 10
-9.2839006568
 20
-19.3837586919
 11
-9.37801846
 21
-19.6109791689
  0
LINE
  5
4F3
100
AcDbEntity
  8
0
100
AcDbLine
 62
250
  6
CONTINUOUS
 10
-4.6194103465
 20
-2.9
 11
-4.3751245449
 21
-2.6285714164
  0
LINE
  5
4F4
100
AcDbEntity
  8
0
100
AcDbLine
 62
250
  6
CONTINUOUS
 10
-3.1536959443
 20
-2.6285714164
 11
-3.397981746
 21
-2.9
  0
LINE
  5
4F5
100
AcDbEntity
  8
0
100
AcDbLine
 62
250
  6
CONTINUOUS
 10
3.2482288738
 20
4.321428597
 11
3.6768003215
 21
4.75
  0
LINE
  5
4F6
100
AcDbEntity
  8
0
100
AcDbLine
 62
250
  6
CONTINUOUS
 10
4.2125145753
 20
4.5357142985
 11
4.4268002768
 21
4.75
  0
LINE
  5
4F7
100
AcDbEntity
  8
0
100
AcDbLine
 62
250
  6
CONTINUOUS
 10
-5.107981746
 20
-1.0
 11
-4.3751245449
 21
-1.0
  0
LINE
  5
4F8
100
AcDbEntity
  8
0
100
AcDbLine
 62
250
  6
CONTINUOUS
 10
-3.5201245449
 20
-1.0
 11
-3.397981746
 21
-1.0
  0
LINE
  5
4F9
100
AcDbEntity
  8
0
100
AcDbLine
 62
250
  6
CONTINUOUS
 10
-5.8408388451
 20
-1.0
 11
-6.2072674202
 21
-1.0
  0
LINE
  5
4FA
100
AcDbEntity
  8
0
100
AcDbLine
 62
250
  6
CONTINUOUS
 10
-10.8061283094
 20
-0.32
 11
-10.7834436365
 21
-0.32
  0
LINE
  5
4FB
100
AcDbEntity
  8
0
100
AcDbLine
 62
250
  6
CONTINUOUS
 10
-4.9858388451
 20
0.0
 11
-5.107981746
 21
0.0
  0
LWPOLYLINE
  5
4FC
100
AcDbEntity
  8
0
100
AcDbPolyline
 62
250
  6
CONTINUOUS
 90
15
 70
0
 10
-11.0890428909
 20
4.1187598859
 10
-11.0888141233
 20
4.1186645203
 10
-11.0885848572
 20
4.118365796
 10
-11.0883553348
 20
4.1178447717
 10
-11.0881257984
 20
4.1170825061
 10
-11.0878964904
 20
4.1160600579
 10
-11.087667653
 20
4.1147584859
 10
-11.0874395286
 20
4.1131588488
 10
-11.0872123595
 20
4.1112422052
 10
-11.086986388
 20
4.1089896139
 10
-11.0867618564
 20
4.1063821336
 10
-11.0865390071
 20
4.103400823
 10
-11.0863180823
 20
4.1000267408
 10
-11.0860993244
 20
4.0962409458
 10
-11.0858968763
 20
4.0923141379
  0
LINE
  5
4FD
100
AcDbEntity
  8
ASSI
100
AcDbLine
 62
250
  6
CONTINUOUS
 10
-9.7483811786
 20
14.286936906
 11
-10.248372717
 21
15.1529476539
  0
LINE
  5
4FE
100
AcDbEntity
  8
RACCORDO
100
AcDbLine
 62
7
  6
CONTINUOUS
 10
10.2776691233
 20
-19.5223308767
 11
10.2246401536
 21
-19.4253598464
  0
LWPOLYLINE
  5
4FF
100
AcDbEntity
  8
0
100
AcDbPolyline
 62
7
  6
CONTINUOUS
 90
19
 70
0
 10
-4.5692984725
 20
9.5893859786
 10
-4.5713705134
 20
9.5945877234
 10
-4.5717514558
 20
9.6000216493
 10
-4.5704907152
 20
9.6056592261
 10
-4.5676556488
 20
9.61146676
 10
-4.5633074327
 20
9.6174037361
 10
-4.5574851864
 20
9.6234319845
 10
-4.5502574449
 20
9.6295072672
 10
-4.5416988582
 20
9.6355911543
 10
-4.5318402986
 20
9.6416642454
 10
-4.5207550645
 20
9.6476831869
 10
-4.5085234058
 20
9.6536026812
 10
-4.4951714176
 20
9.6594091906
 10
-4.4807754343
 20
9.6650539472
 10
-4.4654320503
 20
9.6704858784
 10
-4.4491923364
 20
9.6756911152
 10
-4.432141075
 20
9.680625914
 10
-4.4144024633
 20
9.6852133641
 10
-4.3960933917
 20
9.6893859786
  0
LWPOLYLINE
  5
500
100
AcDbEntity
  8
0
100
AcDbPolyline
 62
7
  6
CONTINUOUS
 90
19
 70
0
 10
1.35
 20
-11.5666114973
 10
1.3508064528
 20
-11.5721524429
 10
1.3531935845
 20
-11.5770489005
 10
1.3571043534
 20
-11.58130087
 10
1.3624636662
 20
-11.5849128596
 10
1.3691982619
 20
-11.5878803612
 10
1.3772548823
 20
-11.5901898503
 10
1.386551578
 20
-11.5918372597
 10
1.3970046436
 20
-11.5928266566
 10
1.408578424
 20
-11.5931567174
 10
1.421188534
 20
-11.592826546
 10
1.4347424078
 20
-11.5918370386
 10
1.4492097012
 20
-11.5901895602
 10
1.4644992788
 20
-11.5878800671
 10
1.4805023901
 20
-11.584912603
 10
1.4971684175
 20
-11.5813006644
 10
1.5144022838
 20
-11.5770487499
 10
1.5320577992
 20
-11.5721523609
 10
1.55
 20
-11.5666114973
  0
LINE
  5
501
100
AcDbEntity
  8
0
100
AcDbLine
 62
7
  6
CONTINUOUS
 10
1.3431407252
 20
-12.8616622151
 11
1.3421516476
 21
-12.85
  0
LINE
  5
502
100
AcDbEntity
  8
0
100
AcDbLine
 62
250
  6
CONTINUOUS
 10
0.7482288738
 20
3.0
 11
0.7482288738
 21
5.0
  0
LINE
  5
503
100
AcDbEntity
  8
ASSI
100
AcDbLine
 62
7
  6
CONTINUOUS
 10
1.0
 20
-12.4513878189
 11
1.0
 21
-10.6486121811
  0
LINE
  5
504
100
AcDbEntity
  8
0
100
AcDbLine
 62
7
  6
CONTINUOUS
 10
1.3421516476
 20
-10.2392068077
 11
1.3421516476
 21
-12.85
  0
LINE
  5
505
100
AcDbEntity
  8
0
100
AcDbLine
 62
7
  6
CONTINUOUS
 10
1.35
 20
-12.867688821
 11
1.35
 21
-11.5666114973
  0
LINE
  5
506
100
AcDbEntity
  8
RACCORDO
100
AcDbLine
 62
7
  6
CONTINUOUS
 10
1.35
 20
-11.5666114973
 11
1.35
 21
-11.15
  0
LINE
  5
507
100
AcDbEntity
  8
0
100
AcDbLine
 62
250
  6
CONTINUOUS
 10
1.55
 20
-13.0184913639
 11
1.55
 21
-11.5666114973
  0
LINE
  5
508
100
AcDbEntity
  8
ASSI
100
AcDbLine
 62
250
  6
CONTINUOUS
 10
-0.3484038249
 20
-9.3516684096
 11
-0.3612459981
 21
-9.5196737787
  0
LINE
  5
509
100
AcDbEntity
  8
ASSI
100
AcDbLine
 62
250
  6
CONTINUOUS
 10
0.3484038249
 20
-13.7483315904
 11
0.3612459981
 21
-13.5803262213
  0
LWPOLYLINE
  5
50A
100
AcDbEntity
  8
ASSI
100
AcDbPolyline
 62
7
  6
CONTINUOUS
 90
19
 70
0
 10
4.3558866345
 20
23.7495140557
 10
4.3554710816
 20
23.74653862
 10
4.354394934
 20
23.7428837287
 10
4.3526304114
 20
23.7385493818
 10
4.3501453883
 20
23.7335460891
 10
4.3469165201
 20
23.7278633407
 10
4.342942196
 20
23.7214696077
 10
4.3382131378
 20
23.7143519984
 10
4.3327170619
 20
23.7065234045
 10
4.3264696976
 20
23.6979909718
 10
4.3194931985
 20
23.6887767021
 10
4.3117728811
 20
23.6788585936
 10
4.303269212
 20
23.6681777872
 10
4.2939844229
 20
23.6567507605
 10
4.2839105199
 20
23.6445610358
 10
4.272970975
 20
23.6315003206
 10
4.2611450751
 20
23.6175635088
 10
4.248432664
 20
23.6027557066
 10
4.2347695105
 20
23.5869839406
  0
LWPOLYLINE
  5
50B
100
AcDbEntity
  8
0
100
AcDbPolyline
 62
7
  6
CONTINUOUS
 90
19
 70
0
 10
-1.35
 20
-11.5666114973
 10
-1.3508064323
 20
-11.5721523609
 10
-1.3531934894
 20
-11.5770487499
 10
-1.3571041113
 20
-11.5813006644
 10
-1.3624631177
 20
-11.584912603
 10
-1.3691972714
 20
-11.5878800671
 10
-1.3772536088
 20
-11.5901895602
 10
-1.3865506579
 20
-11.5918370386
 10
-1.3970045549
 20
-11.592826546
 10
-1.4085788635
 20
-11.5931567174
 10
-1.4211884286
 20
-11.5928266566
 10
-1.4347411029
 20
-11.5918372597
 10
-1.4492075186
 20
-11.5901898503
 10
-1.4644971842
 20
-11.5878803612
 10
-1.48050091
 20
-11.5849128596
 10
-1.4971675333
 20
-11.58130087
 10
-1.5144017582
 20
-11.5770489005
 10
-1.5320575716
 20
-11.5721524429
 10
-1.55
 20
-11.5666114973
  0
LINE
  5
50C
100
AcDbEntity
  8
ASSI
100
AcDbLine
 62
250
  6
CONTINUOUS
 10
9.2839006568
 20
19.3837586919
 11
9.37801846
 21
19.6109791689
  0
LINE
  5
50D
100
AcDbEntity
  8
ASSI
100
AcDbLine
 62
250
  6
CONTINUOUS
 10
9.9908997422
 20
19.0909100822
 11
10.0850175454
 21
19.3181305591
  0
LINE
  5
50E
100
AcDbEntity
  8
0
100
AcDbLine
 62
250
  6
CONTINUOUS
 10
4.1053717692
 20
4.321428597
 11
4.2125145753
 21
4.5357142985
  0
LINE
  5
50F
100
AcDbEntity
  8
RACCORDO
100
AcDbLine
 62
7
  6
CONTINUOUS
 10
-10.2776691233
 20
-19.5223308767
 11
-10.2246401536
 21
-19.4253598464
  0
LINE
  5
510
100
AcDbEntity
  8
0
100
AcDbLine
 62
250
  6
CONTINUOUS
 10
4.7482288738
 20
3.4642857239
 11
4.5339431723
 21
3.25
  0
LWPOLYLINE
  5
511
100
AcDbEntity
  8
ASSI
100
AcDbPolyline
 62
250
  6
CONTINUOUS
 90
55
 70
0
 10
-9.5492796491
 20
-9.2559902351
 10
-9.5844817376
 20
-9.2878645185
 10
-9.6198624927
 20
-9.3207757541
 10
-9.6553900544
 20
-9.3547479148
 10
-9.6909290895
 20
-9.3897064679
 10
-9.7265507254
 20
-9.4257696252
 10
-9.7625163316
 20
-9.4632651732
 10
-9.7987753054
 20
-9.5022368193
 10
-9.8352707945
 20
-9.542716294
 10
-9.8722210845
 20
-9.5850433467
 10
-9.909552405
 20
-9.6292764758
 10
-9.9471807867
 20
-9.6754606019
 10
-9.9852710795
 20
-9.7239448908
 10
-10.0237201816
 20
-9.7748016945
 10
-10.0624100059
 20
-9.8280879729
 10
-10.1014393103
 20
-9.8841584823
 10
-10.1406671335
 20
-9.9430944894
 10
-10.1799338362
 20
-10.0049640958
 10
-10.2192597229
 20
-10.0701281832
 10
-10.2584725315
 20
-10.1386951368
 10
-10.2973438492
 20
-10.2107152185
 10
-10.3357563529
 20
-10.2864786562
 10
-10.373577341
 20
-10.3662689335
 10
-10.4104197899
 20
-10.4499470692
 10
-10.4457837512
 20
-10.5371432127
 10
-10.4793857709
 20
-10.6276548951
 10
-10.5110153867
 20
-10.7217129557
 10
-10.540280967
 20
-10.8195471698
 10
-10.566802543
 20
-10.9202491453
 10
-10.5904117769
 20
-11.0246462481
 10
-10.610705309
 20
-11.1355523583
 10
-10.6273454762
 20
-11.254811345
 10
-10.6392106595
 20
-11.3803792908
 10
-10.6447379814
 20
-11.5090495032
 10
-10.6431743055
 20
-11.6405638689
 10
-10.634603147
 20
-11.7743806554
 10
-10.6195188573
 20
-11.9067664096
 10
-10.5982464241
 20
-12.0356973198
 10
-10.5709064011
 20
-12.1625486347
 10
-10.537916706
 20
-12.288820644
 10
-10.4991873602
 20
-12.4148012847
 10
-10.4547102942
 20
-12.5396369588
 10
-10.4048095054
 20
-12.6631865382
 10
-10.3491682021
 20
-12.7859757488
 10
-10.288031457
 20
-12.9069384791
 10
-10.2228422395
 20
-13.0237607975
 10
-10.1540118165
 20
-13.1362674365
 10
-10.0817062793
 20
-13.2445236244
 10
-10.0074695376
 20
-13.3469336867
 10
-9.9321557068
 20
-13.443189614
 10
-9.8558175088
 20
-13.5339328323
 10
-9.778977028
 20
-13.6191892712
 10
-9.7020620006
 20
-13.6991156051
 10
-9.6253865899
 20
-13.7739806545
 10
-9.5492796491
 20
-13.8440097649
  0
LINE
  5
512
100
AcDbEntity
  8
0
100
AcDbLine
 62
250
  6
CONTINUOUS
 10
-1.0772675476
 20
-2.3119047403
 11
-0.7922674117
 21
-2.1761904627
  0
LINE
  5
513
100
AcDbEntity
  8
0
100
AcDbLine
 62
250
  6
CONTINUOUS
 10
-3.9679818139
 20
0.5428571671
 11
-3.3165530775
 21
0.5428571671
  0
LINE
  5
514
100
AcDbEntity
  8
0
100
AcDbLine
 62
250
  6
CONTINUOUS
 10
-10.7834436365
 20
0.925736
 11
-10.8061283094
 21
0.925736
  0
LINE
  5
515
100
AcDbEntity
  8
0
100
AcDbLine
 62
250
  6
CONTINUOUS
 10
-5.107981746
 20
1.9
 11
-4.9858388451
 21
1.9
  0
LINE
  5
516
100
AcDbEntity
  8
ASSI
100
AcDbLine
 62
7
  6
CONTINUOUS
 10
-5.3150018342
 20
10.164692165
 11
-4.4273088837
 21
8.6271628732
  0
LINE
  5
517
100
AcDbEntity
  8
ASSI
100
AcDbLine
 62
7
  6
CONTINUOUS
 10
-6.2068625657
 20
11.7257301888
 11
-8.7027401788
 21
16.0487170242
  0
LINE
  5
518
100
AcDbEntity
  8
0
100
AcDbLine
 62
7
  6
CONTINUOUS
 10
-5.2197717209
 20
10.7160386939
 11
-4.5692984725
 21
9.5893859786
  0
LINE
  5
519
100
AcDbEntity
  8
RACCORDO
100
AcDbLine
 62
7
  6
CONTINUOUS
 10
-4.3609927238
 20
9.2285898385
 11
-4.5692984725
 21
9.5893859786
  0
LINE
  5
51A
100
AcDbEntity
  8
0
100
AcDbLine
 62
250
  6
CONTINUOUS
 10
-5.1216697366
 20
10.9461210728
 11
-4.3960933917
 21
9.6893859786
  0
LINE
  5
51B
100
AcDbEntity
  8
ASSI
100
AcDbLine
 62
7
  6
CONTINUOUS
 10
-7.202006682
 20
15.8444385144
 11
-6.8982879741
 21
15.3183822811
  0
LINE
  5
51C
100
AcDbEntity
  8
ASSI
100
AcDbLine
 62
250
  6
CONTINUOUS
 10
-6.8702837664
 20
15.3750188412
 11
-7.1564791763
 21
15.8707238321
  0
LINE
  5
51D
100
AcDbEntity
  8
ASSI
100
AcDbLine
 62
7
  6
CONTINUOUS
 10
-4.3787996387
 20
11.4594323198
 11
-4.4822732561
 21
11.6386538823
  0
LINE
  5
51E
100
AcDbEntity
  8
ASSI
100
AcDbLine
 62
250
  6
CONTINUOUS
 10
9.37801846
 20
-19.6109791689
 11
9.2839006568
 21
-19.3837586919
  0
LINE
  5
51F
100
AcDbEntity
  8
ASSI
100
AcDbLine
 62
250
  6
CONTINUOUS
 10
10.0850175454
 20
-19.3181305591
 11
9.9908997422
 21
-19.0909100822
  0
LWPOLYLINE
  5
520
100
AcDbEntity
  8
ASSI
100
AcDbPolyline
 62
250
  6
CONTINUOUS
 90
3
 70
0
 10
4.6515961731
 20
-13.7483315924
 10
4.6502160356
 20
-13.7299768052
 10
4.6387540016
 20
-13.5803262215
  0
LINE
  5
521
100
AcDbEntity
  8
ASSI
100
AcDbLine
 62
250
  6
CONTINUOUS
 10
2.4010052467
 20
20.0531098401
 11
2.4015242349
 21
19.8844866796
  0
LINE
  5
522
100
AcDbEntity
  8
ASSI
100
AcDbLine
 62
7
  6
CONTINUOUS
 10
3.3994386924
 20
-20.0483181605
 11
3.3991631131
 21
-19.8991631132
  0
LINE
  5
523
100
AcDbEntity
  8
ASSI
100
AcDbLine
 62
7
  6
CONTINUOUS
 10
2.1975340777
 20
-18.3
 11
2.1975340777
 21
-17.7912732553
  0
LINE
  5
524
100
AcDbEntity
  8
ASSI
100
AcDbLine
 62
250
  6
CONTINUOUS
 10
2.2501047116
 20
-17.8263198503
 11
2.2501047116
 21
-18.3
  0
LINE
  5
525
100
AcDbEntity
  8
ASSI
100
AcDbLine
 62
7
  6
CONTINUOUS
 10
2.45
 20
-13.0908697181
 11
2.45
 21
-13.2982194971
  0
LINE
  5
526
100
AcDbEntity
  8
RACCORDO
100
AcDbLine
 62
7
  6
CONTINUOUS
 10
3.0
 20
-21.0
 11
3.0
 21
-22.3380392387
  0
LINE
  5
527
100
AcDbEntity
  8
RACCORDO
100
AcDbLine
 62
7
  6
CONTINUOUS
 10
3.0
 20
21.0
 11
3.0
 21
22.3380392387
  0
LINE
  5
528
100
AcDbEntity
  8
0
100
AcDbLine
 62
7
  6
CONTINUOUS
 10
3.25
 20
-9.9705255187
 11
3.25
 21
-11.15
  0
LINE
  5
529
100
AcDbEntity
  8
0
100
AcDbLine
 62
7
  6
CONTINUOUS
 10
3.25
 20
-12.7665003775
 11
3.25
 21
-13.1294744813
  0
LINE
  5
52A
100
AcDbEntity
  8
DRAFT
100
AcDbLine
 62
7
  6
CONTINUOUS
 10
3.5
 20
-20.0
 11
3.5
 21
-20.0445070257
  0
LINE
  5
52B
100
AcDbEntity
  8
ASSI
100
AcDbLine
 62
7
  6
CONTINUOUS
 10
3.5
 20
-22.3338503421
 11
3.5
 21
-23.7941821702
  0
LINE
  5
52C
100
AcDbEntity
  8
COSMETICHE
100
AcDbLine
 62
7
  6
CONTINUOUS
 10
3.5
 20
-12.9844124925
 11
3.5
 21
-12.7186560606
  0
LINE
  5
52D
100
AcDbEntity
  8
COSMETICHE
100
AcDbLine
 62
7
  6
CONTINUOUS
 10
3.5
 20
-11.15
 11
3.5
 21
-10.1155875075
  0
LINE
  5
52E
100
AcDbEntity
  8
DRAFT
100
AcDbLine
 62
7
  6
CONTINUOUS
 10
3.5
 20
20.0
 11
3.5
 21
20.0445070257
  0
LINE
  5
52F
100
AcDbEntity
  8
ASSI
100
AcDbLine
 62
7
  6
CONTINUOUS
 10
3.5
 20
22.3338503421
 11
3.5
 21
23.7941821702
  0
LINE
  5
530
100
AcDbEntity
  8
0
100
AcDbLine
 62
250
  6
CONTINUOUS
 10
3.6768003215
 20
4.75
 11
3.6768003215
 21
3.25
  0
LINE
  5
531
100
AcDbEntity
  8
ASSI
100
AcDbLine
 62
7
  6
CONTINUOUS
 10
3.3994386924
 20
20.0483181605
 11
3.3991631131
 21
19.8991631131
  0
LINE
  5
532
100
AcDbEntity
  8
ASSI
100
AcDbLine
 62
250
  6
CONTINUOUS
 10
2.4015242349
 20
-19.8844866796
 11
2.4010052467
 21
-20.0531098401
  0
LINE
  5
533
100
AcDbEntity
  8
ASSI
100
AcDbLine
 62
7
  6
CONTINUOUS
 10
1.5803764422
 20
-19.3837586919
 11
1.5735564447
 21
-19.4718605929
  0
LINE
  5
534
100
AcDbEntity
  8
0
100
AcDbLine
 62
250
  6
CONTINUOUS
 10
4.8553716798
 20
3.6785714477
 11
4.7482288738
 21
3.4642857239
  0
LINE
  5
535
100
AcDbEntity
  8
ASSI
100
AcDbLine
 62
7
  6
CONTINUOUS
 10
-7.8509138036
 20
-18.3839109968
 11
-7.8024659223
 21
-18.3
  0
LINE
  5
536
100
AcDbEntity
  8
ASSI
100
AcDbLine
 62
250
  6
CONTINUOUS
 10
-7.7498952884
 20
-18.3
 11
-8.4264435553
 21
-19.4718605929
  0
LINE
  5
537
100
AcDbEntity
  8
ASSI
100
AcDbLine
 62
250
  6
CONTINUOUS
 10
-9.7483811786
 20
-14.0668884984
 11
-9.5492796492
 21
-13.8440097648
  0
LWPOLYLINE
  5
538
100
AcDbEntity
  8
ASSI
100
AcDbPolyline
 62
250
  6
CONTINUOUS
 90
31
 70
0
 10
-4.4220064527
 20
-9.7254329413
 10
-4.4478474093
 20
-9.7519133346
 10
-4.4760566298
 20
-9.7776687777
 10
-4.5066341142
 20
-9.8026992704
 10
-4.5396799214
 20
-9.8273055643
 10
-4.5750939925
 20
-9.8511869079
 10
-4.6125761506
 20
-9.8734410465
 10
-4.6522358988
 20
-9.8940130272
 10
-4.6939637342
 20
-9.912957803
 10
-4.7371309709
 20
-9.9295379773
 10
-4.7818000486
 20
-9.9436474294
 10
-4.8279085278
 20
-9.95539228
 10
-4.8746404042
 20
-9.9643534958
 10
-4.9220041384
 20
-9.9704130272
 10
-4.9699912699
 20
-9.9736889237
 10
-5.017760413
 20
-9.9741163007
 10
-5.0653089352
 20
-9.9715813093
 10
-5.1126394689
 20
-9.9661977985
 10
-5.158918526
 20
-9.9582424306
 10
-5.2041013526
 20
-9.9476088333
 10
-5.2482327025
 20
-9.934403379
 10
-5.290613349
 20
-9.9192218474
 10
-5.3311564796
 20
-9.9019918159
 10
-5.3699489069
 20
-9.8827857071
 10
-5.4065518416
 20
-9.8624165685
 10
-5.440867872
 20
-9.8408580555
 10
-5.47299441
 20
-9.8181365127
 10
-5.5027849018
 20
-9.7951440217
 10
-5.5301904963
 20
-9.7721779429
 10
-5.5552600447
 20
-9.748940916
 10
-5.577993547
 20
-9.7254329409
  0
LINE
  5
539
100
AcDbEntity
  8
ASSI
100
AcDbLine
 62
250
  6
CONTINUOUS
 10
-5.1393615371
 20
-9.1380854519
 11
-5.3484038257
 21
-9.3516684088
  0
LWPOLYLINE
  5
53A
100
AcDbEntity
  8
ASSI
100
AcDbPolyline
 62
250
  6
CONTINUOUS
 90
31
 70
0
 10
-4.6387543303
 20
-9.5196734671
 10
-4.6549733351
 20
-9.5361483956
 10
-4.6725913528
 20
-9.5524465947
 10
-4.6916562093
 20
-9.5684346007
 10
-4.7122747661
 20
-9.5840187358
 10
-4.7344112376
 20
-9.5989916545
 10
-4.7578644269
 20
-9.6130656558
 10
-4.7826259155
 20
-9.6261079893
 10
-4.8086605345
 20
-9.6379793589
 10
-4.8356717154
 20
-9.648446939
 10
-4.8635855548
 20
-9.6574079753
 10
-4.8923305473
 20
-9.6647739598
 10
-4.9215732515
 20
-9.6704150504
 10
-4.9511990324
 20
-9.6742836506
 10
-4.9811162541
 20
-9.6763487825
 10
-5.0110082074
 20
-9.6765897936
 10
-5.0407722626
 20
-9.675019058
 10
-5.0702945411
 20
-9.6716580938
 10
-5.0992471301
 20
-9.6665874202
 10
-5.12754381
 20
-9.6598800216
 10
-5.1550931619
 20
-9.6516137835
 10
-5.1815893399
 20
-9.6419676417
 10
-5.2069783392
 20
-9.6310680303
 10
-5.2312206847
 20
-9.6190348926
 10
-5.254080905
 20
-9.6061155114
 10
-5.2755547289
 20
-9.5924648031
 10
-5.2956581566
 20
-9.5782207869
 10
-5.3142408696
 20
-9.5636593931
 10
-5.3312981508
 20
-9.5489809392
 10
-5.3469457324
 20
-9.5342775053
 10
-5.3612458085
 20
-9.5196736022
  0
LINE
  5
53B
100
AcDbEntity
  8
ASSI
100
AcDbLine
 62
250
  6
CONTINUOUS
 10
-5.577993547
 20
-9.7254329409
 11
-5.3612459965
 21
-9.5196737804
  0
LWPOLYLINE
  5
53C
100
AcDbEntity
  8
ASSI
100
AcDbPolyline
 62
250
  6
CONTINUOUS
 90
16
 70
0
 10
-4.8606384629
 20
-9.1380854517
 10
-4.8764689509
 20
-9.1519504086
 10
-4.8932298086
 20
-9.1639108444
 10
-4.9109210359
 20
-9.173966759
 10
-4.9297478487
 20
-9.1821812577
 10
-4.9495050312
 20
-9.1884912352
 10
-4.9695769355
 20
-9.1927073761
 10
-4.9899719167
 20
-9.1947651648
 10
-5.0106816196
 20
-9.1947291169
 10
-5.0310653317
 20
-9.1926034631
 10
-5.0511272165
 20
-9.188311496
 10
-5.0708631103
 20
-9.181929923
 10
-5.0896198096
 20
-9.1736930968
 10
-5.1071795799
 20
-9.1636791349
 10
-5.1237601557
 20
-9.1518099199
 10
-5.139361537
 20
-9.1380854516
  0
LINE
  5
53D
100
AcDbEntity
  8
0
100
AcDbLine
 62
250
  6
CONTINUOUS
 10
-0.4665531454
 20
-2.4476190463
 11
-0.1408388791
 21
-2.3119047403
  0
LINE
  5
53E
100
AcDbEntity
  8
0
100
AcDbLine
 62
250
  6
CONTINUOUS
 10
-10.8061283094
 20
2.410407
 11
-10.7834436365
 21
2.410407
  0
LINE
  5
53F
100
AcDbEntity
  8
0
100
AcDbLine
 62
250
  6
CONTINUOUS
 10
-11.1046014306
 20
2.70079
 11
-11.0539971429
 21
2.70079
  0
LINE
  5
540
100
AcDbEntity
  8
0
100
AcDbLine
 62
250
  6
CONTINUOUS
 10
9.7483811786
 20
3.0
 11
0.7482288738
 21
3.0
  0
LINE
  5
541
100
AcDbEntity
  8
0
100
AcDbLine
 62
250
  6
CONTINUOUS
 10
4.5339431723
 20
3.25
 11
4.4268002768
 21
3.25
  0
LINE
  5
542
100
AcDbEntity
  8
0
100
AcDbLine
 62
250
  6
CONTINUOUS
 10
-11.0539971429
 20
3.323396
 11
-11.0734843588
 21
3.323396
  0
LINE
  5
543
100
AcDbEntity
  8
0
100
AcDbLine
 62
250
  6
CONTINUOUS
 10
-11.0818939683
 20
3.323396
 11
-11.096191821
 21
3.323396
  0
LINE
  5
544
100
AcDbEntity
  8
0
100
AcDbLine
 62
250
  6
CONTINUOUS
 10
-10.8061283094
 20
3.726755
 11
-10.7834436365
 21
3.726755
  0
LINE
  5
545
100
AcDbEntity
  8
0
100
AcDbLine
 62
7
  6
CONTINUOUS
 10
-2.1252367877
 20
9.1561469637
 11
-2.7155444566
 21
10.1785898385
  0
LINE
  5
546
100
AcDbEntity
  8
0
100
AcDbLine
 62
7
  6
CONTINUOUS
 10
-3.5237948699
 20
11.5785206195
 11
-3.7058521256
 21
11.8938530363
  0
LINE
  5
547
100
AcDbEntity
  8
COSMETICHE
100
AcDbLine
 62
7
  6
CONTINUOUS
 10
-3.4169934427
 20
11.8935351213
 11
-3.28336706
 21
11.6620874372
  0
LINE
  5
548
100
AcDbEntity
  8
COSMETICHE
100
AcDbLine
 62
7
  6
CONTINUOUS
 10
-2.4990381057
 20
10.3035898385
 11
-1.9810827687
 21
9.4064648787
  0
LINE
  5
549
100
AcDbEntity
  8
ASSI
100
AcDbLine
 62
250
  6
CONTINUOUS
 10
-2.8746777146
 20
13.2820877296
 11
-2.7767642094
 21
13.0794577635
  0
LINE
  5
54A
100
AcDbEntity
  8
ASSI
100
AcDbLine
 62
250
  6
CONTINUOUS
 10
-2.7767642094
 20
13.0794577635
 11
-2.7280115475
 21
12.9776911464
  0
LINE
  5
54B
100
AcDbEntity
  8
ASSI
100
AcDbLine
 62
250
  6
CONTINUOUS
 10
5.3484038273
 20
-9.3516684072
 11
5.3612459991
 21
-9.5196737777
  0
LINE
  5
54C
100
AcDbEntity
  8
ASSI
100
AcDbLine
 62
250
  6
CONTINUOUS
 10
3.92
 20
23.2563578147
 11
3.92
 21
22.3301850577
  0
LINE
  5
54D
100
AcDbEntity
  8
ASSI
100
AcDbLine
 62
250
  6
CONTINUOUS
 10
3.92
 20
-22.3301850577
 11
3.92
 21
-23.2563578147
  0
LINE
  5
54E
100
AcDbEntity
  8
ASSI
100
AcDbLine
 62
250
  6
CONTINUOUS
 10
3.9358937422
 20
-23.2563578147
 11
3.9358937422
 21
-22.3301850577
  0
LINE
  5
54F
100
AcDbEntity
  8
ASSI
100
AcDbLine
 62
250
  6
CONTINUOUS
 10
3.9358937422
 20
22.3301850577
 11
3.9358937422
 21
23.2563578147
  0
LINE
  5
550
100
AcDbEntity
  8
0
100
AcDbLine
 62
250
  6
CONTINUOUS
 10
4.1053717692
 20
3.6785714477
 11
4.1053717692
 21
4.321428597
  0
LINE
  5
551
100
AcDbEntity
  8
ASSI
100
AcDbLine
 62
250
  6
CONTINUOUS
 10
4.3558866345
 20
-23.7495140557
 11
4.3558866345
 21
-22.3338290185
  0
LINE
  5
552
100
AcDbEntity
  8
ASSI
100
AcDbLine
 62
250
  6
CONTINUOUS
 10
4.3558866345
 20
22.3338290185
 11
4.3558866345
 21
23.7495140557
  0
LINE
  5
553
100
AcDbEntity
  8
DRAFT
100
AcDbLine
 62
7
  6
CONTINUOUS
 10
4.4
 20
-23.8
 11
4.4
 21
-22.4
  0
LINE
  5
554
100
AcDbEntity
  8
DRAFT
100
AcDbLine
 62
7
  6
CONTINUOUS
 10
4.4
 20
22.4
 11
4.4
 21
23.8
  0
LINE
  5
555
100
AcDbEntity
  8
0
100
AcDbLine
 62
250
  6
CONTINUOUS
 10
4.8553716798
 20
4.321428597
 11
4.8553716798
 21
3.6785714477
  0
LINE
  5
556
100
AcDbEntity
  8
0
100
AcDbLine
 62
250
  6
CONTINUOUS
 10
5.2839430828
 20
3.25
 11
5.2839430828
 21
4.321428597
  0
LINE
  5
557
100
AcDbEntity
  8
ASSI
100
AcDbLine
 62
250
  6
CONTINUOUS
 10
4.6515961748
 20
-9.3516684092
 11
4.6387540012
 21
-9.519673778
  0
LWPOLYLINE
  5
558
100
AcDbEntity
  8
RACCORDO
100
AcDbPolyline
 62
7
  6
CONTINUOUS
 90
4
 70
0
 10
-7.8908834737
 20
-21.7591165263
 10
-7.843380061
 20
-21.6866457638
 10
-7.818929804
 20
-21.6499179842
 10
-7.7939545568
 20
-21.6129888844
  0
LWPOLYLINE
  5
559
100
AcDbEntity
  8
ASSI
100
AcDbPolyline
 62
250
  6
CONTINUOUS
 90
31
 70
0
 10
-5.5779935477
 20
-13.3745670597
 10
-5.5521525909
 20
-13.3480866665
 10
-5.5239433702
 20
-13.3223312236
 10
-5.4933658858
 20
-13.2973007309
 10
-5.4603200786
 20
-13.272694437
 10
-5.4249060075
 20
-13.2488130934
 10
-5.3874238494
 20
-13.2265589548
 10
-5.3477641012
 20
-13.2059869741
 10
-5.3060362659
 20
-13.1870421984
 10
-5.2628690291
 20
-13.170462024
 10
-5.2181999514
 20
-13.156352572
 10
-5.1720914723
 20
-13.1446077213
 10
-5.1253595959
 20
-13.1356465055
 10
-5.0779958617
 20
-13.1295869741
 10
-5.0300087302
 20
-13.1263110776
 10
-4.9822395871
 20
-13.1258837006
 10
-4.934691065
 20
-13.128418692
 10
-4.8873605313
 20
-13.1338022028
 10
-4.8410814742
 20
-13.1417575706
 10
-4.7958986476
 20
-13.1523911679
 10
-4.7517672977
 20
-13.1655966222
 10
-4.7093866511
 20
-13.1807781539
 10
-4.6688435205
 20
-13.1980081854
 10
-4.6300510933
 20
-13.2172142942
 10
-4.5934481585
 20
-13.2375834328
 10
-4.5591321281
 20
-13.2591419458
 10
-4.5270055901
 20
-13.2818634886
 10
-4.4972150983
 20
-13.3048559796
 10
-4.4698095037
 20
-13.3278220583
 10
-4.4447399551
 20
-13.3510590851
 10
-4.4220064527
 20
-13.3745670601
  0
LWPOLYLINE
  5
55A
100
AcDbEntity
  8
ASSI
100
AcDbPolyline
 62
250
  6
CONTINUOUS
 90
16
 70
0
 10
-4.6515976903
 20
-9.3516668584
 10
-4.690274969
 20
-9.3855019392
 10
-4.7321991706
 20
-9.4151707903
 10
-4.7769223613
 20
-9.4403873431
 10
-4.8239944416
 20
-9.4608679128
 10
-4.8729237204
 20
-9.4764145876
 10
-4.9231893538
 20
-9.4868955187
 10
-4.974259336
 20
-9.492169025
 10
-5.0255992837
 20
-9.4921574807
 10
-5.0766803317
 20
-9.4869066491
 10
-5.1269565682
 20
-9.4764694716
 10
-5.1758836247
 20
-9.4609187802
 10
-5.222972844
 20
-9.4404321368
 10
-5.2677392051
 20
-9.4152199073
 10
-5.3096923318
 20
-9.3855072148
 10
-5.3483798428
 20
-9.3516438998
  0
LINE
  5
55B
100
AcDbEntity
  8
0
100
AcDbLine
 62
7
  6
CONTINUOUS
 10
-6.8112159322
 20
-10.1291651246
 11
-6.75
 21
-10.0938220897
  0
LINE
  5
55C
100
AcDbEntity
  8
0
100
AcDbLine
 62
250
  6
CONTINUOUS
 10
5.2839430828
 20
4.321428597
 11
6.1410860677
 21
4.321428597
  0
LINE
  5
55D
100
AcDbEntity
  8
0
100
AcDbLine
 62
250
  6
CONTINUOUS
 10
6.6768004556
 20
4.321428597
 11
7.5339432617
 21
4.321428597
  0
LINE
  5
55E
100
AcDbEntity
  8
0
100
AcDbLine
 62
250
  6
CONTINUOUS
 10
4.4268002768
 20
4.75
 11
4.5339431723
 21
4.75
  0
LINE
  5
55F
100
AcDbEntity
  8
0
100
AcDbLine
 62
250
  6
CONTINUOUS
 10
0.7482288738
 20
5.0
 11
9.7483811786
 21
5.0
  0
LINE
  5
560
100
AcDbEntity
  8
0
100
AcDbLine
 62
250
  6
CONTINUOUS
 10
-11.0539971429
 20
5.171133
 11
-11.1046014306
 21
5.171133
  0
LINE
  5
561
100
AcDbEntity
  8
0
100
AcDbLine
 62
250
  6
CONTINUOUS
 10
-10.8061283094
 20
5.534728
 11
-10.7834436365
 21
5.534728
  0
LINE
  5
562
100
AcDbEntity
  8
0
100
AcDbLine
 62
250
  6
CONTINUOUS
 10
4.4268002768
 20
3.25
 11
4.2125145753
 21
3.4642857239
  0
LINE
  5
563
100
AcDbEntity
  8
ASSI
100
AcDbLine
 62
250
  6
CONTINUOUS
 10
-0.6025608355
 20
9.3219868374
 11
-0.6976851616
 21
9.4610626894
  0
LINE
  5
564
100
AcDbEntity
  8
RACCORDO
100
AcDbLine
 62
7
  6
CONTINUOUS
 10
-7.843380061
 20
21.6866457638
 11
-7.8908834737
 21
21.7591165263
  0
LINE
  5
565
100
AcDbEntity
  8
0
100
AcDbLine
 62
250
  6
CONTINUOUS
 10
4.2125145753
 20
3.4642857239
 11
4.1053717692
 21
3.6785714477
  0
LINE
  5
566
100
AcDbEntity
  8
ASSI
100
AcDbLine
 62
250
  6
CONTINUOUS
 10
0.0008926017
 20
9.6703908454
 11
-0.0719884523
 21
9.8223088535
  0
LINE
  5
567
100
AcDbEntity
  8
ASSI
100
AcDbLine
 62
7
  6
CONTINUOUS
 10
-2.3935352888
 20
19.4980069565
 11
-2.3479810197
 21
19.3927908573
  0
LINE
  5
568
100
AcDbEntity
  8
ASSI
100
AcDbLine
 62
7
  6
CONTINUOUS
 10
8.4196235578
 20
-19.3837586919
 11
8.4264435553
 21
-19.4718605929
  0
LINE
  5
569
100
AcDbEntity
  8
ASSI
100
AcDbLine
 62
7
  6
CONTINUOUS
 10
5.6609791689
 20
19.8109791689
 11
5.6609791689
 21
19.6109791689
  0
LINE
  5
56A
100
AcDbEntity
  8
ASSI
100
AcDbLine
 62
7
  6
CONTINUOUS
 10
5.6609791689
 20
-19.6109791689
 11
5.6609791689
 21
-19.8109791689
  0
LINE
  5
56B
100
AcDbEntity
  8
0
100
AcDbLine
 62
250
  6
CONTINUOUS
 10
5.7482288142
 20
4.321428597
 11
5.7482288142
 21
3.25
  0
LINE
  5
56C
100
AcDbEntity
  8
ASSI
100
AcDbLine
 62
7
  6
CONTINUOUS
 10
5.75
 20
19.9
 11
5.75
 21
19.7
  0
LINE
  5
56D
100
AcDbEntity
  8
ASSI
100
AcDbLine
 62
7
  6
CONTINUOUS
 10
5.75
 20
-19.7
 11
5.75
 21
-19.9
  0
LINE
  5
56E
100
AcDbEntity
  8
0
100
AcDbLine
 62
250
  6
CONTINUOUS
 10
6.2482288738
 20
4.2142857015
 11
6.2482288738
 21
3.25
  0
LINE
  5
56F
100
AcDbEntity
  8
RACCORDO
100
AcDbLine
 62
7
  6
CONTINUOUS
 10
6.4482213147
 20
-19.7240686345
 11
6.4482213147
 21
-19.7
  0
LINE
  5
570
100
AcDbEntity
  8
RACCORDO
100
AcDbLine
 62
7
  6
CONTINUOUS
 10
6.4482213147
 20
19.7
 11
6.4482213147
 21
19.7240686345
  0
LINE
  5
571
100
AcDbEntity
  8
COSMETICHE
100
AcDbLine
 62
7
  6
CONTINUOUS
 10
6.5
 20
-12.9844124925
 11
6.5
 21
-12.7186579086
  0
LINE
  5
572
100
AcDbEntity
  8
COSMETICHE
100
AcDbLine
 62
7
  6
CONTINUOUS
 10
6.5
 20
-11.15
 11
6.5
 21
-10.1155875075
  0
LINE
  5
573
100
AcDbEntity
  8
RACCORDO
100
AcDbLine
 62
7
  6
CONTINUOUS
 10
6.5581782981
 20
20.28553092
 11
6.5581782981
 21
19.9570181168
  0
LINE
  5
574
100
AcDbEntity
  8
RACCORDO
100
AcDbLine
 62
7
  6
CONTINUOUS
 10
6.5581782981
 20
-19.9570181168
 11
6.5581782981
 21
-20.28553092
  0
LINE
  5
575
100
AcDbEntity
  8
0
100
AcDbLine
 62
250
  6
CONTINUOUS
 10
6.6768004556
 20
3.25
 11
6.6768004556
 21
4.321428597
  0
LINE
  5
576
100
AcDbEntity
  8
0
100
AcDbLine
 62
7
  6
CONTINUOUS
 10
6.75
 20
-9.9705255187
 11
6.75
 21
-11.15
  0
LINE
  5
577
100
AcDbEntity
  8
0
100
AcDbLine
 62
7
  6
CONTINUOUS
 10
6.75
 20
-12.7665008265
 11
6.75
 21
-13.1294744813
  0
LINE
  5
578
100
AcDbEntity
  8
0
100
AcDbLine
 62
250
  6
CONTINUOUS
 10
7.1410861869
 20
4.321428597
 11
7.1410861869
 21
3.25
  0
LINE
  5
579
100
AcDbEntity
  8
RACCORDO
100
AcDbLine
 62
7
  6
CONTINUOUS
 10
7.2418217019
 20
20.9959955457
 11
7.2418217019
 21
19.9570181168
  0
LINE
  5
57A
100
AcDbEntity
  8
RACCORDO
100
AcDbLine
 62
7
  6
CONTINUOUS
 10
7.2418217019
 20
-19.9570181168
 11
7.2418217019
 21
-20.9959955457
  0
LINE
  5
57B
100
AcDbEntity
  8
RACCORDO
100
AcDbLine
 62
7
  6
CONTINUOUS
 10
7.3517786853
 20
20.243777851
 11
7.3517786853
 21
19.7
  0
LINE
  5
57C
100
AcDbEntity
  8
RACCORDO
100
AcDbLine
 62
7
  6
CONTINUOUS
 10
7.3517786853
 20
-20.243777851
 11
7.3517786853
 21
-19.7
  0
LINE
  5
57D
100
AcDbEntity
  8
ASSI
100
AcDbLine
 62
7
  6
CONTINUOUS
 10
7.4
 20
20.85
 11
7.4
 21
19.7
  0
LINE
  5
57E
100
AcDbEntity
  8
ASSI
100
AcDbLine
 62
7
  6
CONTINUOUS
 10
7.4
 20
-19.7
 11
7.4
 21
-20.85
  0
LINE
  5
57F
100
AcDbEntity
  8
ASSI
100
AcDbLine
 62
250
  6
CONTINUOUS
 10
5.3484038249
 20
-13.7483315904
 11
5.3612459981
 21
-13.5803262213
  0
LWPOLYLINE
  5
580
100
AcDbEntity
  8
ASSI
100
AcDbPolyline
 62
7
  6
CONTINUOUS
 90
19
 70
0
 10
3.5
 20
-23.7499163219
 10
3.5003250533
 20
-23.746996162
 10
3.5013173336
 20
-23.7434001197
 10
3.5030019302
 20
-23.7391281949
 10
3.5054073027
 20
-23.7341907904
 10
3.5085544916
 20
-23.7285775035
 10
3.512446052
 20
-23.7222571256
 10
3.5170896473
 20
-23.71521971
 10
3.5224966697
 20
-23.7074752034
 10
3.5286574079
 20
-23.6990222378
 10
3.5355524993
 20
-23.6898828219
 10
3.5431963272
 20
-23.6800349469
 10
3.5516330636
 20
-23.6694112184
 10
3.5608651496
 20
-23.6580251212
 10
3.5709002565
 20
-23.6458631706
 10
3.581812291
 20
-23.6328175176
 10
3.5936228134
 20
-23.6188824439
 10
3.6063333374
 20
-23.6040636679
 10
3.6200049382
 20
-23.5882704955
  0
LINE
  5
581
100
AcDbEntity
  8
RACCORDO
100
AcDbLine
 62
250
  6
CONTINUOUS
 10
1.2699614049
 20
-10.3065707438
 11
1.0870430525
 21
-10.6233946239
  0
LINE
  5
582
100
AcDbEntity
  8
RACCORDO
100
AcDbLine
 62
7
  6
CONTINUOUS
 10
-6.557024886
 20
-20.0855385354
 11
-6.4493747267
 21
-19.9240610192
  0
LINE
  5
583
100
AcDbEntity
  8
RACCORDO
100
AcDbLine
 62
7
  6
CONTINUOUS
 10
-7.7939545568
 20
-21.6129888844
 11
-7.7427848301
 21
-21.5385902446
  0
LINE
  5
584
100
AcDbEntity
  8
RACCORDO
100
AcDbLine
 62
7
  6
CONTINUOUS
 10
-7.7427848301
 20
-21.5385902446
 11
-7.6904803352
 21
-21.4636002076
  0
LWPOLYLINE
  5
585
100
AcDbEntity
  8
RACCORDO
100
AcDbPolyline
 62
7
  6
CONTINUOUS
 90
3
 70
0
 10
-7.6904803352
 20
-21.4636002076
 10
-7.6108850697
 20
-21.3504165494
 10
-7.5841007192
 20
-21.3126932437
  0
LWPOLYLINE
  5
586
100
AcDbEntity
  8
ASSI
100
AcDbPolyline
 62
250
  6
CONTINUOUS
 90
31
 70
0
 10
0.5779935473
 20
-9.7254329413
 10
0.5521525907
 20
-9.7519133346
 10
0.5239433702
 20
-9.7776687777
 10
0.4933658858
 20
-9.8026992704
 10
0.4603200786
 20
-9.8273055643
 10
0.4249060075
 20
-9.8511869079
 10
0.3874238494
 20
-9.8734410465
 10
0.3477641012
 20
-9.8940130272
 10
0.3060362658
 20
-9.912957803
 10
0.2628690291
 20
-9.9295379773
 10
0.2181999514
 20
-9.9436474294
 10
0.1720914722
 20
-9.95539228
 10
0.1253595958
 20
-9.9643534958
 10
0.0779958616
 20
-9.9704130272
 10
0.0300087301
 20
-9.9736889237
 10
-0.017760413
 20
-9.9741163007
 10
-0.0653089352
 20
-9.9715813093
 10
-0.1126394689
 20
-9.9661977985
 10
-0.158918526
 20
-9.9582424306
 10
-0.2041013526
 20
-9.9476088333
 10
-0.2482327025
 20
-9.934403379
 10
-0.290613349
 20
-9.9192218474
 10
-0.3311564796
 20
-9.9019918159
 10
-0.3699489069
 20
-9.8827857071
 10
-0.4065518416
 20
-9.8624165685
 10
-0.440867872
 20
-9.8408580555
 10
-0.47299441
 20
-9.8181365127
 10
-0.5027849018
 20
-9.7951440217
 10
-0.5301904963
 20
-9.7721779429
 10
-0.5552600447
 20
-9.748940916
 10
-0.577993547
 20
-9.7254329409
  0
LINE
  5
587
100
AcDbEntity
  8
ASSI
100
AcDbLine
 62
250
  6
CONTINUOUS
 10
-0.139361537
 20
-9.1380854516
 11
-0.348403827
 21
-9.3516684075
  0
LINE
  5
588
100
AcDbEntity
  8
ASSI
100
AcDbLine
 62
250
  6
CONTINUOUS
 10
-4.8606384628
 20
-13.961914549
 11
-4.6515961726
 21
-13.7483315929
  0
LWPOLYLINE
  5
589
100
AcDbEntity
  8
ASSI
100
AcDbPolyline
 62
250
  6
CONTINUOUS
 90
31
 70
0
 10
-5.3612456698
 20
-13.5803265342
 10
-5.345026665
 20
-13.5638516057
 10
-5.3274086473
 20
-13.5475534065
 10
-5.3083437908
 20
-13.5315654006
 10
-5.287725234
 20
-13.5159812655
 10
-5.2655887625
 20
-13.5010083467
 10
-5.2421355732
 20
-13.4869343454
 10
-5.2173740846
 20
-13.4738920119
 10
-5.1913394656
 20
-13.4620206423
 10
-5.1643282847
 20
-13.4515530622
 10
-5.1364144453
 20
-13.4425920259
 10
-5.1076694528
 20
-13.4352260413
 10
-5.0784267486
 20
-13.4295849507
 10
-5.0488009677
 20
-13.4257163505
 10
-5.018883746
 20
-13.4236512186
 10
-4.9889917927
 20
-13.4234102075
 10
-4.9592277375
 20
-13.4249809432
 10
-4.929705459
 20
-13.4283419073
 10
-4.9007528699
 20
-13.4334125809
 10
-4.8724561901
 20
-13.4401199795
 10
-4.8449068381
 20
-13.4483862177
 10
-4.8184106601
 20
-13.4580323594
 10
-4.7930216608
 20
-13.4689319709
 10
-4.7687793153
 20
-13.4809651085
 10
-4.745919095
 20
-13.4938844898
 10
-4.7244452712
 20
-13.507535198
 10
-4.7043418435
 20
-13.5217792142
 10
-4.6857591304
 20
-13.5363406081
 10
-4.6687018487
 20
-13.5510190624
 10
-4.6530542665
 20
-13.565722497
 10
-4.6387541897
 20
-13.580326401
  0
LWPOLYLINE
  5
58A
100
AcDbEntity
  8
ASSI
100
AcDbPolyline
 62
250
  6
CONTINUOUS
 90
31
 70
0
 10
0.3612456697
 20
-9.5196734671
 10
0.3450266649
 20
-9.5361483956
 10
0.3274086472
 20
-9.5524465947
 10
0.3083437907
 20
-9.5684346007
 10
0.2877252339
 20
-9.5840187358
 10
0.2655887624
 20
-9.5989916545
 10
0.2421355731
 20
-9.6130656558
 10
0.2173740845
 20
-9.6261079893
 10
0.1913394655
 20
-9.6379793589
 10
0.1643282846
 20
-9.648446939
 10
0.1364144452
 20
-9.6574079753
 10
0.1076694527
 20
-9.6647739598
 10
0.0784267485
 20
-9.6704150504
 10
0.0488009676
 20
-9.6742836506
 10
0.0188837459
 20
-9.6763487825
 10
-0.0110082074
 20
-9.6765897936
 10
-0.0407722626
 20
-9.675019058
 10
-0.0702945411
 20
-9.6716580938
 10
-0.0992471301
 20
-9.6665874202
 10
-0.12754381
 20
-9.6598800216
 10
-0.1550931619
 20
-9.6516137835
 10
-0.1815893399
 20
-9.6419676417
 10
-0.2069783392
 20
-9.6310680303
 10
-0.2312206847
 20
-9.6190348926
 10
-0.254080905
 20
-9.6061155114
 10
-0.2755547288
 20
-9.5924648032
 10
-0.2956581565
 20
-9.578220787
 10
-0.3142408696
 20
-9.5636593931
 10
-0.3312981512
 20
-9.5489809389
 10
-0.3469457334
 20
-9.5342775043
 10
-0.3612458102
 20
-9.5196736004
  0
LINE
  5
58B
100
AcDbEntity
  8
ASSI
100
AcDbLine
 62
250
  6
CONTINUOUS
 10
-9.4555325688
 20
-18.2122790847
 11
-10.1625316542
 21
-18.9192781701
  0
LINE
  5
58C
100
AcDbEntity
  8
ASSI
100
AcDbLine
 62
250
  6
CONTINUOUS
 10
-9.2839006568
 20
-18.3839109968
 11
-9.9908997422
 21
-19.0909100822
  0
LINE
  5
58D
100
AcDbEntity
  8
ASSI
100
AcDbLine
 62
250
  6
CONTINUOUS
 10
-4.4220064527
 20
-13.3745670601
 11
-4.6387540012
 21
-13.580326222
  0
LINE
  5
58E
100
AcDbEntity
  8
ASSI
100
AcDbLine
 62
250
  6
CONTINUOUS
 10
-0.577993547
 20
-9.7254329409
 11
-0.3612459981
 21
-9.5196737787
  0
LWPOLYLINE
  5
58F
100
AcDbEntity
  8
ASSI
100
AcDbPolyline
 62
250
  6
CONTINUOUS
 90
16
 70
0
 10
0.1393615371
 20
-9.1380854517
 10
0.1235310491
 20
-9.1519504086
 10
0.1067701914
 20
-9.1639108444
 10
0.0890789641
 20
-9.173966759
 10
0.0702521513
 20
-9.1821812577
 10
0.0504949688
 20
-9.1884912352
 10
0.0304230645
 20
-9.1927073761
 10
0.0100280833
 20
-9.1947651648
 10
-0.0106816196
 20
-9.1947291169
 10
-0.0310653317
 20
-9.1926034631
 10
-0.0511272165
 20
-9.188311496
 10
-0.0708631103
 20
-9.181929923
 10
-0.0896198096
 20
-9.1736930968
 10
-0.1071795799
 20
-9.1636791349
 10
-0.1237601557
 20
-9.1518099199
 10
-0.139361537
 20
-9.1380854516
  0
LWPOLYLINE
  5
590
100
AcDbEntity
  8
ASSI
100
AcDbPolyline
 62
250
  6
CONTINUOUS
 90
16
 70
0
 10
-5.1393615373
 20
-13.9619145488
 10
-5.1235310492
 20
-13.948049592
 10
-5.1067701915
 20
-13.9360891563
 10
-5.0890789642
 20
-13.9260332417
 10
-5.0702521513
 20
-13.917818743
 10
-5.0504949688
 20
-13.9115087655
 10
-5.0304230645
 20
-13.9072926246
 10
-5.0100280834
 20
-13.9052348358
 10
-4.9893183804
 20
-13.9052708837
 10
-4.9689346683
 20
-13.9073965375
 10
-4.9488727835
 20
-13.9116885046
 10
-4.9291368897
 20
-13.9180700776
 10
-4.9103801904
 20
-13.9263069039
 10
-4.8928204201
 20
-13.9363208657
 10
-4.8762398442
 20
-13.9481900807
 10
-4.8606384628
 20
-13.961914549
  0
LWPOLYLINE
  5
591
100
AcDbEntity
  8
ASSI
100
AcDbPolyline
 62
250
  6
CONTINUOUS
 90
16
 70
0
 10
-5.3484023097
 20
-13.7483331424
 10
-5.309725031
 20
-13.7144980617
 10
-5.2678008294
 20
-13.6848292106
 10
-5.2230776386
 20
-13.6596126579
 10
-5.1760055583
 20
-13.6391320883
 10
-5.1270762796
 20
-13.6235854134
 10
-5.0768106462
 20
-13.6131044823
 10
-5.025740664
 20
-13.607830976
 10
-4.9744007163
 20
-13.6078425204
 10
-4.9233196683
 20
-13.6130933519
 10
-4.8730434319
 20
-13.6235305294
 10
-4.8241163754
 20
-13.6390812208
 10
-4.777027156
 20
-13.6595678642
 10
-4.7322607949
 20
-13.6847800937
 10
-4.6903076681
 20
-13.7144927863
 10
-4.6516201569
 20
-13.7483561013
  0
LWPOLYLINE
  5
592
100
AcDbEntity
  8
ASSI
100
AcDbPolyline
 62
250
  6
CONTINUOUS
 90
16
 70
0
 10
0.3484023097
 20
-9.3516668584
 10
0.309725031
 20
-9.3855019392
 10
0.2678008294
 20
-9.4151707903
 10
0.2230776387
 20
-9.4403873431
 10
0.1760055584
 20
-9.4608679128
 10
0.1270762796
 20
-9.4764145876
 10
0.0768106462
 20
-9.4868955187
 10
0.025740664
 20
-9.492169025
 10
-0.0255992837
 20
-9.4921574807
 10
-0.0766803317
 20
-9.4869066491
 10
-0.1269565682
 20
-9.4764694716
 10
-0.1758836246
 20
-9.4609187802
 10
-0.222972844
 20
-9.4404321368
 10
-0.2677392051
 20
-9.4152199072
 10
-0.309692332
 20
-9.3855072146
 10
-0.3483798431
 20
-9.3516438995
  0
LINE
  5
593
100
AcDbEntity
  8
0
100
AcDbLine
 62
250
  6
CONTINUOUS
 10
-11.1046014306
 20
5.793739
 11
-11.0624067525
 21
5.793739
  0
LINE
  5
594
100
AcDbEntity
  8
0
100
AcDbLine
 62
250
  6
CONTINUOUS
 10
-10.8061283094
 20
5.923056
 11
-10.7834436365
 21
5.923056
  0
LINE
  5
595
100
AcDbEntity
  8
0
100
AcDbLine
 62
250
  6
CONTINUOUS
 10
-11.0624067525
 20
6.866738
 11
-11.0539971429
 21
6.866738
  0
LINE
  5
596
100
AcDbEntity
  8
0
100
AcDbLine
 62
250
  6
CONTINUOUS
 10
-10.8061283094
 20
6.955181
 11
-10.7834436365
 21
6.955181
  0
LINE
  5
597
100
AcDbEntity
  8
0
100
AcDbLine
 62
250
  6
CONTINUOUS
 10
4.5339431723
 20
4.75
 11
4.7482288738
 21
4.5357142985
  0
LINE
  5
598
100
AcDbEntity
  8
0
100
AcDbLine
 62
250
  6
CONTINUOUS
 10
6.1410860677
 20
4.321428597
 11
6.2482288738
 21
4.2142857015
  0
LINE
  5
599
100
AcDbEntity
  8
RACCORDO
100
AcDbLine
 62
7
  6
CONTINUOUS
 10
-7.5841007192
 20
21.3126932437
 11
-7.6375346208
 21
21.3881838872
  0
LINE
  5
59A
100
AcDbEntity
  8
RACCORDO
100
AcDbLine
 62
7
  6
CONTINUOUS
 10
-7.6375346208
 20
21.3881838872
 11
-7.7167764984
 21
21.5011382645
  0
LWPOLYLINE
  5
59B
100
AcDbEntity
  8
RACCORDO
100
AcDbPolyline
 62
7
  6
CONTINUOUS
 90
5
 70
0
 10
-7.7167764984
 20
21.5011382645
 10
-7.7685136093
 20
21.5758926167
 10
-7.7939545568
 20
21.6129888844
 10
-7.818929804
 20
21.6499179842
 10
-7.843380061
 20
21.6866457638
  0
LINE
  5
59C
100
AcDbEntity
  8
ASSI
100
AcDbLine
 62
250
  6
CONTINUOUS
 10
-2.2294577996
 20
13.5250512366
 11
-2.1023148383
 21
13.3389373107
  0
LINE
  5
59D
100
AcDbEntity
  8
ASSI
100
AcDbLine
 62
250
  6
CONTINUOUS
 10
-2.2925969269
 20
13.6181522338
 11
-2.2294577996
 21
13.5250512366
  0
LINE
  5
59E
100
AcDbEntity
  8
RACCORDO
100
AcDbLine
 62
7
  6
CONTINUOUS
 10
-6.557024886
 20
20.0855385354
 11
-6.4493747267
 21
19.9240610192
  0
LINE
  5
59F
100
AcDbEntity
  8
COSMETICHE
100
AcDbLine
 62
7
  6
CONTINUOUS
 10
-0.8189172313
 20
13.3935351213
 11
-0.6852899246
 21
13.1620858368
  0
LINE
  5
5A0
100
AcDbEntity
  8
COSMETICHE
100
AcDbLine
 62
7
  6
CONTINUOUS
 10
0.0990381057
 20
11.8035898385
 11
0.6169934427
 21
10.9064648787
  0
LINE
  5
5A1
100
AcDbEntity
  8
0
100
AcDbLine
 62
7
  6
CONTINUOUS
 10
0.9058521256
 20
10.9061469637
 11
0.3155444566
 21
11.9285898385
  0
LINE
  5
5A2
100
AcDbEntity
  8
0
100
AcDbLine
 62
7
  6
CONTINUOUS
 10
-0.4927057321
 20
13.3285202307
 11
-0.6747632123
 21
13.6438530363
  0
LINE
  5
5A3
100
AcDbEntity
  8
ASSI
100
AcDbLine
 62
7
  6
CONTINUOUS
 10
0.0379299206
 20
14.0094323198
 11
-0.0655436968
 21
14.1886538823
  0
LINE
  5
5A4
100
AcDbEntity
  8
ASSI
100
AcDbLine
 62
250
  6
CONTINUOUS
 10
-2.1073254121
 20
18.1249141281
 11
-2.3935208225
 21
18.6206191198
  0
LINE
  5
5A5
100
AcDbEntity
  8
ASSI
100
AcDbLine
 62
7
  6
CONTINUOUS
 10
-2.347993318
 20
18.6469044367
 11
-2.0442746102
 21
18.1208482034
  0
LINE
  5
5A6
100
AcDbEntity
  8
0
100
AcDbLine
 62
250
  6
CONTINUOUS
 10
4.7482288738
 20
4.5357142985
 11
4.8553716798
 21
4.321428597
  0
LWPOLYLINE
  5
5A7
100
AcDbEntity
  8
RACCORDO
100
AcDbPolyline
 62
250
  6
CONTINUOUS
 90
31
 70
0
 10
8.254371834
 20
23.8443375673
 10
8.2547511885
 20
23.8330270596
 10
8.2558122363
 20
23.8217474404
 10
8.2575520796
 20
23.8105295141
 10
8.2599659648
 20
23.7994039253
 10
8.2630473009
 20
23.7884010484
 10
8.2667876826
 20
23.7775509057
 10
8.271176909
 20
23.7668831095
 10
8.2762029911
 20
23.756426816
 10
8.2818521875
 20
23.7462106168
 10
8.2881090593
 20
23.7362624252
 10
8.2949565249
 20
23.7266093946
 10
8.3023758889
 20
23.7172778785
 10
8.3103468926
 20
23.7082933575
 10
8.3188477641
 20
23.699680372
 10
8.3278552844
 20
23.6914624468
 10
8.3373448482
 20
23.6836620286
 10
8.3472905438
 20
23.676300415
 10
8.3576652233
 20
23.6693977011
 10
8.3684405758
 20
23.6629727275
 10
8.3795871553
 20
23.6570430559
 10
8.3910744696
 20
23.6516249047
 10
8.4028711116
 20
23.6467330775
 10
8.4149448924
 20
23.6423809129
 10
8.4272628811
 20
23.6385802779
 10
8.4397919133
 20
23.6353414408
 10
8.4524973112
 20
23.6326734007
 10
8.4653429626
 20
23.6305836414
 10
8.4782932772
 20
23.6290777228
 10
8.4913133412
 20
23.6281594768
 10
8.5043676032
 20
23.6278312164
  0
LINE
  5
5A8
100
AcDbEntity
  8
RACCORDO
100
AcDbLine
 62
250
  6
CONTINUOUS
 10
8.254371834
 20
-23.8443375673
 11
8.25
 21
-23.4104851482
  0
LINE
  5
5A9
100
AcDbEntity
  8
RACCORDO
100
AcDbLine
 62
250
  6
CONTINUOUS
 10
8.5043676032
 20
-23.6278312164
 11
8.4992770021
 21
-23.1226497308
  0
LINE
  5
5AA
100
AcDbEntity
  8
ASSI
100
AcDbLine
 62
7
  6
CONTINUOUS
 10
7.4890208311
 20
20.85
 11
7.4890208311
 21
19.6109791689
  0
LINE
  5
5AB
100
AcDbEntity
  8
ASSI
100
AcDbLine
 62
7
  6
CONTINUOUS
 10
7.4890208311
 20
-19.6109791689
 11
7.4890208311
 21
-20.85
  0
LINE
  5
5AC
100
AcDbEntity
  8
ASSI
100
AcDbLine
 62
7
  6
CONTINUOUS
 10
7.55
 20
-13.0908697181
 11
7.55
 21
-13.2982195017
  0
LINE
  5
5AD
100
AcDbEntity
  8
RACCORDO
100
AcDbLine
 62
250
  6
CONTINUOUS
 10
7.5841007192
 20
-21.3126932437
 11
7.5841007192
 21
-20.9959955457
  0
LINE
  5
5AE
100
AcDbEntity
  8
RACCORDO
100
AcDbLine
 62
250
  6
CONTINUOUS
 10
7.5841007192
 20
20.9959955457
 11
7.5841007192
 21
21.3126932437
  0
LINE
  5
5AF
100
AcDbEntity
  8
0
100
AcDbLine
 62
250
  6
CONTINUOUS
 10
7.6410860677
 20
4.2142857015
 11
7.6410860677
 21
3.25
  0
LINE
  5
5B0
100
AcDbEntity
  8
ASSI
100
AcDbLine
 62
250
  6
CONTINUOUS
 10
7.7498952884
 20
-17.8263198503
 11
7.7498952884
 21
-18.3
  0
LINE
  5
5B1
100
AcDbEntity
  8
ASSI
100
AcDbLine
 62
7
  6
CONTINUOUS
 10
7.8024659223
 20
-18.3
 11
7.8024659223
 21
-17.7912732553
  0
LINE
  5
5B2
100
AcDbEntity
  8
RACCORDO
100
AcDbLine
 62
250
  6
CONTINUOUS
 10
8.0840245667
 20
-21.5659754333
 11
8.0840245667
 21
-20.9917082642
  0
LINE
  5
5B3
100
AcDbEntity
  8
RACCORDO
100
AcDbLine
 62
250
  6
CONTINUOUS
 10
8.0840245667
 20
20.9917082642
 11
8.0840245667
 21
21.5659754333
  0
LINE
  5
5B4
100
AcDbEntity
  8
DRAFT
100
AcDbLine
 62
7
  6
CONTINUOUS
 10
8.25
 20
21.4
 11
8.25
 21
20.9
  0
LINE
  5
5B5
100
AcDbEntity
  8
DRAFT
100
AcDbLine
 62
7
  6
CONTINUOUS
 10
8.25
 20
-20.9
 11
8.25
 21
-21.4
  0
LINE
  5
5B6
100
AcDbEntity
  8
RACCORDO
100
AcDbLine
 62
7
  6
CONTINUOUS
 10
8.25
 20
-22.4
 11
8.25
 21
-24.2500042308
  0
LINE
  5
5B7
100
AcDbEntity
  8
RACCORDO
100
AcDbLine
 62
7
  6
CONTINUOUS
 10
8.25
 20
22.4
 11
8.25
 21
24.2500042308
  0
LINE
  5
5B8
100
AcDbEntity
  8
RACCORDO
100
AcDbLine
 62
250
  6
CONTINUOUS
 10
8.254371834
 20
24.2456323968
 11
8.254371834
 21
23.8443375673
  0
LINE
  5
5B9
100
AcDbEntity
  8
RACCORDO
100
AcDbLine
 62
250
  6
CONTINUOUS
 10
8.254371834
 20
-23.8443375673
 11
8.254371834
 21
-24.2456323968
  0
LINE
  5
5BA
100
AcDbEntity
  8
0
100
AcDbLine
 62
250
  6
CONTINUOUS
 10
8.45
 20
-13.0184913527
 11
8.45
 21
-11.5666114973
  0
LINE
  5
5BB
100
AcDbEntity
  8
RACCORDO
100
AcDbLine
 62
250
  6
CONTINUOUS
 10
8.5043676032
 20
-23.6278312164
 11
8.5043676032
 21
-24.495628166
  0
LINE
  5
5BC
100
AcDbEntity
  8
RACCORDO
100
AcDbLine
 62
250
  6
CONTINUOUS
 10
8.5043676032
 20
23.6278312164
 11
8.5043676032
 21
24.495628166
  0
LINE
  5
5BD
100
AcDbEntity
  8
0
100
AcDbLine
 62
7
  6
CONTINUOUS
 10
8.65
 20
-12.8676888002
 11
8.65
 21
-11.5666114973
  0
LINE
  5
5BE
100
AcDbEntity
  8
RACCORDO
100
AcDbLine
 62
7
  6
CONTINUOUS
 10
8.65
 20
-11.5666114973
 11
8.65
 21
-11.15
  0
LINE
  5
5BF
100
AcDbEntity
  8
ASSI
100
AcDbLine
 62
7
  6
CONTINUOUS
 10
9.0
 20
-12.4513878189
 11
9.0
 21
-10.6486121811
  0
LINE
  5
5C0
100
AcDbEntity
  8
RACCORDO
100
AcDbLine
 62
250
  6
CONTINUOUS
 10
8.25
 20
23.4104851482
 11
8.254371834
 21
23.8443375673
  0
LINE
  5
5C1
100
AcDbEntity
  8
RACCORDO
100
AcDbLine
 62
250
  6
CONTINUOUS
 10
8.4992770021
 20
23.1226497308
 11
8.5043676032
 21
23.6278312164
  0
LWPOLYLINE
  5
5C2
100
AcDbEntity
  8
RACCORDO
100
AcDbPolyline
 62
7
  6
CONTINUOUS
 90
34
 70
0
 10
8.25
 20
24.2500042308
 10
8.2502831502
 20
24.261899516
 10
8.2511319658
 20
24.2737678556
 10
8.2525445259
 20
24.2855823661
 10
8.2545176323
 20
24.2973162875
 10
8.2570468183
 20
24.3089430388
 10
8.2601263583
 20
24.320436279
 10
8.2637492787
 20
24.3317699738
 10
8.2679073742
 20
24.3429184493
 10
8.2725912278
 20
24.3538564463
 10
8.2777902312
 20
24.3645591876
 10
8.2834926084
 20
24.3750024283
 10
8.2896854419
 20
24.3851625059
 10
8.2963547045
 20
24.3950164051
 10
8.3034852893
 20
24.4045418038
 10
8.3110610411
 20
24.4137171191
 10
8.3190647995
 20
24.4225215661
 10
8.3274784339
 20
24.4309352005
 10
8.3362828809
 20
24.4389389589
 10
8.3454581962
 20
24.4465147107
 10
8.3549835949
 20
24.4536452955
 10
8.3648374941
 20
24.4603145581
 10
8.3749975717
 20
24.4665073916
 10
8.3854408124
 20
24.4722097688
 10
8.3961435537
 20
24.4774087722
 10
8.4070815507
 20
24.4820926258
 10
8.4182300262
 20
24.4862507213
 10
8.429563721
 20
24.4898736417
 10
8.4410569612
 20
24.4929531817
 10
8.4526837125
 20
24.4954823677
 10
8.4644176339
 20
24.4974554741
 10
8.4762321444
 20
24.4988680342
 10
8.488100484
 20
24.4997168498
 10
8.4999957692
 20
24.5
  0
LWPOLYLINE
  5
5C3
100
AcDbEntity
  8
RACCORDO
100
AcDbPolyline
 62
250
  6
CONTINUOUS
 90
31
 70
0
 10
8.254371834
 20
24.2456323968
 10
8.254715023
 20
24.2587187509
 10
8.255742766
 20
24.2717692492
 10
8.2574522491
 20
24.2847481067
 10
8.2598387919
 20
24.2976197463
 10
8.262895853
 20
24.3103488602
 10
8.2666150425
 20
24.3229005077
 10
8.2709861576
 20
24.3352402638
 10
8.2759972131
 20
24.347334301
 10
8.2816344613
 20
24.3591494467
 10
8.2878824405
 20
24.3706533025
 10
8.2947240163
 20
24.3818143284
 10
8.3021404232
 20
24.3926019187
 10
8.3101113313
 20
24.402986508
 10
8.3186148729
 20
24.4129396114
 10
8.327627692
 20
24.4224339046
 10
8.3371250264
 20
24.4314433264
 10
8.3470808636
 20
24.4399432233
 10
8.3574679894
 20
24.4479103656
 10
8.3682580686
 20
24.4553229956
 10
8.379421387
 20
24.4621606774
 10
8.3909269875
 20
24.4684044791
 10
8.4027430657
 20
24.4740372277
 10
8.4148374218
 20
24.4790436576
 10
8.4271772258
 20
24.4834102087
 10
8.4397314103
 20
24.4871256484
 10
8.4524628755
 20
24.4901787618
 10
8.4653285943
 20
24.492559892
 10
8.4782903689
 20
24.4942634962
 10
8.4913152632
 20
24.4952867588
 10
8.5043676032
 20
24.495628166
  0
LWPOLYLINE
  5
5C4
100
AcDbEntity
  8
RACCORDO
100
AcDbPolyline
 62
250
  6
CONTINUOUS
 90
31
 70
0
 10
8.254371834
 20
-23.8443375673
 10
8.2547503896
 20
-23.833039595
 10
8.2558095172
 20
-23.821769291
 10
8.2575468937
 20
-23.8105574212
 10
8.2599585951
 20
-23.7994336121
 10
8.2630384654
 20
-23.78842936
 10
8.2667775164
 20
-23.7775778202
 10
8.2711650608
 20
-23.7669096972
 10
8.2761894598
 20
-23.7564530239
 10
8.2818371404
 20
-23.746236105
 10
8.2880928329
 20
-23.7362866999
 10
8.2949394075
 20
-23.7266321754
 10
8.3023580158
 20
-23.7172991519
 10
8.3103283199
 20
-23.7083132018
 10
8.3188286147
 20
-23.6996987826
 10
8.3278357051
 20
-23.6914794042
 10
8.3373250088
 20
-23.6836775075
 10
8.3472705959
 20
-23.6763144193
 10
8.3576452788
 20
-23.6694102704
 10
8.3684207112
 20
-23.6629839239
 10
8.3795674692
 20
-23.6570529269
 10
8.3910551062
 20
-23.6516334796
 10
8.402852263
 20
-23.6467403776
 10
8.4149266994
 20
-23.6423869945
 10
8.427245379
 20
-23.6385852371
 10
8.4397746144
 20
-23.6353454907
 10
8.4524802172
 20
-23.6326765842
 10
8.465327538
 20
-23.6305857918
 10
8.4782815053
 20
-23.6290788219
 10
8.491306719
 20
-23.6281597935
 10
8.5043676032
 20
-23.6278312164
  0
LINE
  5
5C5
100
AcDbEntity
  8
DRAFT
100
AcDbLine
 62
7
  6
CONTINUOUS
 10
-4.4
 20
-22.4
 11
-4.3558866345
 21
-22.3338290185
  0
LWPOLYLINE
  5
5C6
100
AcDbEntity
  8
ASSI
100
AcDbPolyline
 62
250
  6
CONTINUOUS
 90
31
 70
0
 10
-0.5779935473
 20
-13.3745670587
 10
-0.5521525907
 20
-13.3480866654
 10
-0.5239433702
 20
-13.3223312223
 10
-0.4933658858
 20
-13.2973007296
 10
-0.4603200786
 20
-13.2726944357
 10
-0.4249060075
 20
-13.2488130921
 10
-0.3874238494
 20
-13.2265589535
 10
-0.3477641012
 20
-13.2059869728
 10
-0.3060362658
 20
-13.187042197
 10
-0.2628690291
 20
-13.1704620227
 10
-0.2181999514
 20
-13.1563525706
 10
-0.1720914722
 20
-13.14460772
 10
-0.1253595958
 20
-13.1356465042
 10
-0.0779958616
 20
-13.1295869728
 10
-0.0300087301
 20
-13.1263110763
 10
0.017760413
 20
-13.1258836993
 10
0.0653089352
 20
-13.1284186907
 10
0.1126394689
 20
-13.1338022015
 10
0.158918526
 20
-13.1417575694
 10
0.2041013526
 20
-13.1523911667
 10
0.2482327025
 20
-13.165596621
 10
0.290613349
 20
-13.1807781526
 10
0.3311564796
 20
-13.1980081841
 10
0.3699489069
 20
-13.2172142929
 10
0.4065518416
 20
-13.2375834315
 10
0.440867872
 20
-13.2591419445
 10
0.47299441
 20
-13.2818634873
 10
0.5027849018
 20
-13.3048559783
 10
0.5301904963
 20
-13.3278220571
 10
0.5552600447
 20
-13.351059084
 10
0.577993547
 20
-13.3745670591
  0
LINE
  5
5C7
100
AcDbEntity
  8
RACCORDO
100
AcDbLine
 62
250
  6
CONTINUOUS
 10
-1.0326802857
 20
-10.5920082658
 11
-1.35
 21
-10.7759205565
  0
LINE
  5
5C8
100
AcDbEntity
  8
RACCORDO
100
AcDbLine
 62
7
  6
CONTINUOUS
 10
-1.35
 20
-10.8159164705
 11
-1.0150551176
 21
-10.6225359525
  0
LWPOLYLINE
  5
5C9
100
AcDbEntity
  8
RACCORDO
100
AcDbPolyline
 62
7
  6
CONTINUOUS
 90
10
 70
0
 10
-8.45
 20
-11.5666114973
 10
-8.2932788037
 20
-11.5167438457
 10
-8.1399162366
 20
-11.4691800531
 10
-7.9899122988
 20
-11.4239201196
 10
-7.8437191812
 20
-11.3810903264
 10
-7.7008846929
 20
-11.3405643923
 10
-7.5600522612
 20
-11.3019634731
 10
-7.4207696954
 20
-11.2651612874
 10
-7.2834891862
 20
-11.2302841166
 10
-7.1482107338
 20
-11.1973319608
  0
LINE
  5
5CA
100
AcDbEntity
  8
0
100
AcDbLine
 62
250
  6
CONTINUOUS
 10
-10.8061283094
 20
7.848712
 11
-10.7834436365
 21
7.848712
  0
LINE
  5
5CB
100
AcDbEntity
  8
0
100
AcDbLine
 62
250
  6
CONTINUOUS
 10
-10.7834436365
 20
8.652652
 11
-10.8061283094
 21
8.652652
  0
LINE
  5
5CC
100
AcDbEntity
  8
ASSI
100
AcDbLine
 62
250
  6
CONTINUOUS
 10
-0.9882735164
 20
9.530881569
 11
-0.6976851661
 21
9.4610627022
  0
LINE
  5
5CD
100
AcDbEntity
  8
0
100
AcDbLine
 62
250
  6
CONTINUOUS
 10
2.3836046228
 20
8.2466045576
 11
0.0613614363
 21
8.8688477441
  0
LINE
  5
5CE
100
AcDbEntity
  8
ASSI
100
AcDbLine
 62
250
  6
CONTINUOUS
 10
-0.3147333225
 20
9.2415396631
 11
-0.6025608348
 21
9.32198684
  0
LINE
  5
5CF
100
AcDbEntity
  8
0
100
AcDbLine
 62
250
  6
CONTINUOUS
 10
7.5339432617
 20
4.321428597
 11
7.6410860677
 21
4.2142857015
  0
LINE
  5
5D0
100
AcDbEntity
  8
0
100
AcDbLine
 62
7
  6
CONTINUOUS
 10
1.1113441562
 20
14.3640145264
 11
1.1177895964
 21
14.3547572011
  0
LINE
  5
5D1
100
AcDbEntity
  8
DRAFT
100
AcDbLine
 62
7
  6
CONTINUOUS
 10
-4.4
 20
22.4
 11
-4.3558866345
 21
22.3338290185
  0
LINE
  5
5D2
100
AcDbEntity
  8
0
100
AcDbLine
 62
250
  6
CONTINUOUS
 10
0.8539055495
 20
14.3961210728
 11
1.5794818944
 21
13.1393859786
  0
LINE
  5
5D3
100
AcDbEntity
  8
0
100
AcDbLine
 62
7
  6
CONTINUOUS
 10
1.1022137267
 20
14.3660386939
 11
1.7526869752
 21
13.2393859786
  0
LINE
  5
5D4
100
AcDbEntity
  8
RACCORDO
100
AcDbLine
 62
7
  6
CONTINUOUS
 10
1.9609927238
 20
12.8785898385
 11
1.7526869752
 21
13.2393859786
  0
LINE
  5
5D5
100
AcDbEntity
  8
0
100
AcDbLine
 62
7
  6
CONTINUOUS
 10
2.4229727484
 20
12.0941136685
 11
1.1177895964
 21
14.3547572011
  0
LINE
  5
5D6
100
AcDbEntity
  8
ASSI
100
AcDbLine
 62
7
  6
CONTINUOUS
 10
0.7213406646
 20
15.7257301888
 11
-1.3958377995
 21
19.3927908573
  0
LINE
  5
5D7
100
AcDbEntity
  8
ASSI
100
AcDbLine
 62
7
  6
CONTINUOUS
 10
1.6273088837
 20
14.1728371268
 11
2.5150018342
 21
12.635307835
  0
LWPOLYLINE
  5
5D8
100
AcDbEntity
  8
RACCORDO
100
AcDbPolyline
 62
250
  6
CONTINUOUS
 90
31
 70
0
 10
10.645628166
 20
-23.8443375673
 10
10.6452488343
 20
-23.8330274168
 10
10.6441878523
 20
-23.8217481519
 10
10.6424481175
 20
-23.810530574
 10
10.6400343805
 20
-23.7994053159
 10
10.6369532329
 20
-23.7884027584
 10
10.6332130887
 20
-23.7775529472
 10
10.6288241613
 20
-23.7668855107
 10
10.623798436
 20
-23.7564295797
 10
10.618149637
 20
-23.7462137069
 10
10.6118931901
 20
-23.7362657898
 10
10.6050461801
 20
-23.7266129942
 10
10.597627305
 20
-23.7172816797
 10
10.5896568241
 20
-23.7082973282
 10
10.5811565031
 20
-23.6996844742
 10
10.5721495545
 20
-23.6914666374
 10
10.5626605746
 20
-23.6836662592
 10
10.5527154757
 20
-23.6763046407
 10
10.5423414158
 20
-23.6694018849
 10
10.5315667243
 20
-23.6629768418
 10
10.5204208246
 20
-23.6570470569
 10
10.5089341538
 20
-23.6516287232
 10
10.4971380796
 20
-23.646736637
 10
10.4850648147
 20
-23.6423841576
 10
10.4727473285
 20
-23.6385831707
 10
10.4602192577
 20
-23.6353440559
 10
10.4475148136
 20
-23.6326756587
 10
10.4346686895
 20
-23.6305852658
 10
10.4217159655
 20
-23.6290785857
 10
10.4086920127
 20
-23.6281597328
 10
10.3956323968
 20
-23.6278312164
  0
LINE
  5
5D9
100
AcDbEntity
  8
RACCORDO
100
AcDbLine
 62
250
  6
CONTINUOUS
 10
10.3956323968
 20
23.6278312164
 11
10.4007229979
 21
23.1226497308
  0
LINE
  5
5DA
100
AcDbEntity
  8
RACCORDO
100
AcDbLine
 62
250
  6
CONTINUOUS
 10
10.645628166
 20
23.8443375673
 11
10.65
 21
23.4104851482
  0
LINE
  5
5DB
100
AcDbEntity
  8
ASSI
100
AcDbLine
 62
250
  6
CONTINUOUS
 10
9.2839006568
 20
19.3837586919
 11
9.2839006568
 21
18.3839109968
  0
LINE
  5
5DC
100
AcDbEntity
  8
ASSI
100
AcDbLine
 62
250
  6
CONTINUOUS
 10
9.2839006568
 20
-19.3837586919
 11
9.2839006568
 21
-18.3839109968
  0
LINE
  5
5DD
100
AcDbEntity
  8
DRAFT
100
AcDbLine
 62
7
  6
CONTINUOUS
 10
9.65
 20
20.15
 11
9.65
 21
20.0
  0
LINE
  5
5DE
100
AcDbEntity
  8
ASSI
100
AcDbLine
 62
250
  6
CONTINUOUS
 10
9.7483811786
 20
17.5052799993
 11
9.7483811786
 21
-9.0331115016
  0
LINE
  5
5DF
100
AcDbEntity
  8
ASSI
100
AcDbLine
 62
250
  6
CONTINUOUS
 10
9.7483811786
 20
-14.0668884984
 11
9.7483811786
 21
-17.5052799993
  0
LINE
  5
5E0
100
AcDbEntity
  8
DRAFT
100
AcDbLine
 62
7
  6
CONTINUOUS
 10
10.2776691233
 20
-19.5223308767
 11
10.2776691233
 21
-19.3723308767
  0
LINE
  5
5E1
100
AcDbEntity
  8
RACCORDO
100
AcDbLine
 62
250
  6
CONTINUOUS
 10
10.3956323968
 20
-23.6278312164
 11
10.3956323968
 21
-24.495628166
  0
LINE
  5
5E2
100
AcDbEntity
  8
RACCORDO
100
AcDbLine
 62
250
  6
CONTINUOUS
 10
10.3956323968
 20
23.6278312164
 11
10.3956323968
 21
24.495628166
  0
LINE
  5
5E3
100
AcDbEntity
  8
RACCORDO
100
AcDbLine
 62
250
  6
CONTINUOUS
 10
10.645628166
 20
-24.2456323968
 11
10.645628166
 21
-23.8443375673
  0
LINE
  5
5E4
100
AcDbEntity
  8
RACCORDO
100
AcDbLine
 62
250
  6
CONTINUOUS
 10
10.645628166
 20
23.8443375673
 11
10.645628166
 21
24.2456323968
  0
LINE
  5
5E5
100
AcDbEntity
  8
RACCORDO
100
AcDbLine
 62
7
  6
CONTINUOUS
 10
10.65
 20
-22.4
 11
10.65
 21
-24.2500042308
  0
LINE
  5
5E6
100
AcDbEntity
  8
RACCORDO
100
AcDbLine
 62
7
  6
CONTINUOUS
 10
10.65
 20
22.4
 11
10.65
 21
24.2500042308
  0
LINE
  5
5E7
100
AcDbEntity
  8
ASSI
100
AcDbLine
 62
250
  6
CONTINUOUS
 10
10.7482288738
 20
17.5052799993
 11
10.7482288738
 21
-17.5052799993
  0
LINE
  5
5E8
100
AcDbEntity
  8
RACCORDO
100
AcDbLine
 62
250
  6
CONTINUOUS
 10
10.4007229979
 20
-23.1226497308
 11
10.3956323968
 21
-23.6278312164
  0
LINE
  5
5E9
100
AcDbEntity
  8
RACCORDO
100
AcDbLine
 62
250
  6
CONTINUOUS
 10
10.65
 20
-23.4104851482
 11
10.645628166
 21
-23.8443375673
  0
LWPOLYLINE
  5
5EA
100
AcDbEntity
  8
ASSI
100
AcDbPolyline
 62
250
  6
CONTINUOUS
 90
13
 70
0
 10
9.7483811786
 20
-17.5052799993
 10
9.7462035032
 20
-17.5709372717
 10
9.7398237476
 20
-17.6358382875
 10
9.7292419118
 20
-17.6999830467
 10
9.7143768578
 20
-17.7636654361
 10
9.6953097237
 20
-17.8265915688
 10
9.6722839237
 20
-17.8878797846
 10
9.6452306481
 20
-17.9475017678
 10
9.6142187068
 20
-18.0054858341
 10
9.5796979437
 20
-18.0610352703
 10
9.5418183071
 20
-18.1138845052
 10
9.5004298488
 20
-18.16429911
 10
9.4555325688
 20
-18.2122790847
  0
LWPOLYLINE
  5
5EB
100
AcDbEntity
  8
RACCORDO
100
AcDbPolyline
 62
250
  6
CONTINUOUS
 90
31
 70
0
 10
10.645628166
 20
23.8443375673
 10
10.6452496104
 20
23.833039595
 10
10.6441904828
 20
23.821769291
 10
10.6424531063
 20
23.8105574212
 10
10.6400414049
 20
23.7994336121
 10
10.6369615346
 20
23.78842936
 10
10.6332224836
 20
23.7775778202
 10
10.6288349392
 20
23.7669096972
 10
10.6238105402
 20
23.7564530239
 10
10.6181628596
 20
23.746236105
 10
10.6119071671
 20
23.7362866999
 10
10.6050605925
 20
23.7266321754
 10
10.5976419842
 20
23.7172991519
 10
10.5896716801
 20
23.7083132018
 10
10.5811713853
 20
23.6996987826
 10
10.5721642949
 20
23.6914794042
 10
10.5626749912
 20
23.6836775075
 10
10.5527294041
 20
23.6763144193
 10
10.5423547212
 20
23.6694102704
 10
10.5315792888
 20
23.6629839239
 10
10.5204325308
 20
23.6570529269
 10
10.5089448938
 20
23.6516334796
 10
10.497147737
 20
23.6467403776
 10
10.4850733006
 20
23.6423869945
 10
10.472754621
 20
23.6385852371
 10
10.4602253856
 20
23.6353454907
 10
10.4475197828
 20
23.6326765842
 10
10.434672462
 20
23.6305857918
 10
10.4217184947
 20
23.6290788219
 10
10.408693281
 20
23.6281597935
 10
10.3956323968
 20
23.6278312164
  0
LINE
  5
5EC
100
AcDbEntity
  8
RACCORDO
100
AcDbLine
 62
7
  6
CONTINUOUS
 10
7.2988376746
 20
-20.9104703804
 11
7.3506760157
 21
-20.443503758
  0
LWPOLYLINE
  5
5ED
100
AcDbEntity
  8
0
100
AcDbPolyline
 62
7
  6
CONTINUOUS
 90
19
 70
0
 10
8.65
 20
-11.5666114973
 10
8.6491935677
 20
-11.5721523609
 10
8.6468065106
 20
-11.5770487499
 10
8.6428958887
 20
-11.5813006644
 10
8.6375368823
 20
-11.584912603
 10
8.6308027286
 20
-11.5878800671
 10
8.6227463912
 20
-11.5901895602
 10
8.6134493421
 20
-11.5918370386
 10
8.6029954451
 20
-11.592826546
 10
8.5914211365
 20
-11.5931567174
 10
8.5788115714
 20
-11.5928266566
 10
8.5652588971
 20
-11.5918372597
 10
8.5507924814
 20
-11.5901898503
 10
8.5355028158
 20
-11.5878803612
 10
8.51949909
 20
-11.5849128596
 10
8.5028324667
 20
-11.58130087
 10
8.4855982418
 20
-11.5770489005
 10
8.4679424284
 20
-11.5721524429
 10
8.45
 20
-11.5666114973
  0
LINE
  5
5EE
100
AcDbEntity
  8
SMUSSO
100
AcDbLine
 62
7
  6
CONTINUOUS
 10
6.9498426932
 20
-9.8890565312
 11
6.75
 21
-10.2351942293
  0
LWPOLYLINE
  5
5EF
100
AcDbEntity
  8
ASSI
100
AcDbPolyline
 62
250
  6
CONTINUOUS
 90
31
 70
0
 10
5.5779935477
 20
-9.7254329403
 10
5.5521525909
 20
-9.7519133335
 10
5.5239433702
 20
-9.7776687764
 10
5.4933658858
 20
-9.8026992691
 10
5.4603200786
 20
-9.827305563
 10
5.4249060075
 20
-9.8511869066
 10
5.3874238494
 20
-9.8734410452
 10
5.3477641012
 20
-9.8940130259
 10
5.3060362659
 20
-9.9129578016
 10
5.2628690291
 20
-9.929537976
 10
5.2181999514
 20
-9.943647428
 10
5.1720914723
 20
-9.9553922787
 10
5.1253595959
 20
-9.9643534945
 10
5.0779958617
 20
-9.9704130259
 10
5.0300087302
 20
-9.9736889224
 10
4.9822395871
 20
-9.9741162994
 10
4.934691065
 20
-9.971581308
 10
4.8873605313
 20
-9.9661977972
 10
4.8410814742
 20
-9.9582424294
 10
4.7958986476
 20
-9.9476088321
 10
4.7517672977
 20
-9.9344033778
 10
4.7093866511
 20
-9.9192218461
 10
4.6688435205
 20
-9.9019918146
 10
4.6300510933
 20
-9.8827857058
 10
4.5934481585
 20
-9.8624165672
 10
4.5591321281
 20
-9.8408580542
 10
4.5270055901
 20
-9.8181365114
 10
4.4972150983
 20
-9.7951440204
 10
4.4698095037
 20
-9.7721779417
 10
4.4447399551
 20
-9.7489409149
 10
4.4220064527
 20
-9.7254329399
  0
LINE
  5
5F0
100
AcDbEntity
  8
ASSI
100
AcDbLine
 62
250
  6
CONTINUOUS
 10
4.8606384628
 20
-9.138085451
 11
4.6515961726
 21
-9.3516684071
  0
LINE
  5
5F1
100
AcDbEntity
  8
ASSI
100
AcDbLine
 62
250
  6
CONTINUOUS
 10
0.139361537
 20
-13.9619145484
 11
0.348403827
 21
-13.7483315925
  0
LWPOLYLINE
  5
5F2
100
AcDbEntity
  8
ASSI
100
AcDbPolyline
 62
250
  6
CONTINUOUS
 90
31
 70
0
 10
-0.3612456697
 20
-13.5803265329
 10
-0.3450266649
 20
-13.5638516044
 10
-0.3274086472
 20
-13.5475534053
 10
-0.3083437907
 20
-13.5315653993
 10
-0.2877252339
 20
-13.5159812642
 10
-0.2655887624
 20
-13.5010083455
 10
-0.2421355731
 20
-13.4869343442
 10
-0.2173740845
 20
-13.4738920107
 10
-0.1913394655
 20
-13.4620206411
 10
-0.1643282846
 20
-13.451553061
 10
-0.1364144452
 20
-13.4425920247
 10
-0.1076694527
 20
-13.4352260402
 10
-0.0784267485
 20
-13.4295849496
 10
-0.0488009676
 20
-13.4257163494
 10
-0.0188837459
 20
-13.4236512175
 10
0.0110082074
 20
-13.4234102064
 10
0.0407722626
 20
-13.424980942
 10
0.0702945411
 20
-13.4283419062
 10
0.0992471301
 20
-13.4334125798
 10
0.12754381
 20
-13.4401199784
 10
0.1550931619
 20
-13.4483862165
 10
0.1815893399
 20
-13.4580323583
 10
0.2069783392
 20
-13.4689319697
 10
0.2312206847
 20
-13.4809651074
 10
0.254080905
 20
-13.4938844886
 10
0.2755547288
 20
-13.5075351968
 10
0.2956581565
 20
-13.521779213
 10
0.3142408696
 20
-13.5363406069
 10
0.3312981512
 20
-13.5510190611
 10
0.3469457334
 20
-13.5657224957
 10
0.3612458102
 20
-13.5803263996
  0
LWPOLYLINE
  5
5F3
100
AcDbEntity
  8
ASSI
100
AcDbPolyline
 62
250
  6
CONTINUOUS
 90
31
 70
0
 10
5.3612456698
 20
-9.5196734658
 10
5.345026665
 20
-9.5361483943
 10
5.3274086473
 20
-9.5524465935
 10
5.3083437908
 20
-9.5684345994
 10
5.287725234
 20
-9.5840187345
 10
5.2655887625
 20
-9.5989916533
 10
5.2421355732
 20
-9.6130656546
 10
5.2173740846
 20
-9.6261079881
 10
5.1913394656
 20
-9.6379793577
 10
5.1643282847
 20
-9.6484469378
 10
5.1364144453
 20
-9.6574079741
 10
5.1076694528
 20
-9.6647739587
 10
5.0784267486
 20
-9.6704150493
 10
5.0488009677
 20
-9.6742836495
 10
5.018883746
 20
-9.6763487814
 10
4.9889917927
 20
-9.6765897925
 10
4.9592277375
 20
-9.6750190568
 10
4.929705459
 20
-9.6716580927
 10
4.9007528699
 20
-9.6665874191
 10
4.8724561901
 20
-9.6598800205
 10
4.8449068381
 20
-9.6516137823
 10
4.8184106601
 20
-9.6419676406
 10
4.7930216608
 20
-9.6310680291
 10
4.7687793153
 20
-9.6190348915
 10
4.745919095
 20
-9.6061155102
 10
4.7244452712
 20
-9.592464802
 10
4.7043418435
 20
-9.5782207858
 10
4.6857591304
 20
-9.5636593919
 10
4.6687018487
 20
-9.5489809376
 10
4.6530542665
 20
-9.534277503
 10
4.6387541897
 20
-9.519673599
  0
LINE
  5
5F4
100
AcDbEntity
  8
RACCORDO
100
AcDbLine
 62
7
  6
CONTINUOUS
 10
-6.5570215015
 20
-19.7570215015
 11
-6.5
 21
-19.7
  0
LINE
  5
5F5
100
AcDbEntity
  8
RACCORDO
100
AcDbLine
 62
250
  6
CONTINUOUS
 10
-10.645628166
 20
-24.2456323968
 11
-10.65
 21
-24.2500042308
  0
LINE
  5
5F6
100
AcDbEntity
  8
ASSI
100
AcDbLine
 62
7
  6
CONTINUOUS
 10
-5.75
 20
-19.7
 11
-5.6609791689
 21
-19.6109791689
  0
LINE
  5
5F7
100
AcDbEntity
  8
RACCORDO
100
AcDbLine
 62
250
  6
CONTINUOUS
 10
-10.3956323968
 20
-24.495628166
 11
-10.4000042308
 21
-24.5
  0
LINE
  5
5F8
100
AcDbEntity
  8
ASSI
100
AcDbLine
 62
7
  6
CONTINUOUS
 10
-5.6609791689
 20
-19.8109791689
 11
-5.75
 21
-19.9
  0
LINE
  5
5F9
100
AcDbEntity
  8
ASSI
100
AcDbLine
 62
250
  6
CONTINUOUS
 10
0.577993547
 20
-13.3745670591
 11
0.3612459981
 21
-13.5803262213
  0
LINE
  5
5FA
100
AcDbEntity
  8
ASSI
100
AcDbLine
 62
250
  6
CONTINUOUS
 10
4.4220064527
 20
-9.7254329399
 11
4.6387540012
 21
-9.519673778
  0
LWPOLYLINE
  5
5FB
100
AcDbEntity
  8
ASSI
100
AcDbPolyline
 62
250
  6
CONTINUOUS
 90
16
 70
0
 10
5.1393615373
 20
-9.1380854512
 10
5.1235310492
 20
-9.151950408
 10
5.1067701915
 20
-9.1639108437
 10
5.0890789642
 20
-9.1739667583
 10
5.0702521513
 20
-9.182181257
 10
5.0504949688
 20
-9.1884912345
 10
5.0304230645
 20
-9.1927073754
 10
5.0100280834
 20
-9.1947651642
 10
4.9893183804
 20
-9.1947291163
 10
4.9689346683
 20
-9.1926034625
 10
4.9488727835
 20
-9.1883114954
 10
4.9291368897
 20
-9.1819299224
 10
4.9103801904
 20
-9.1736930961
 10
4.8928204201
 20
-9.1636791343
 10
4.8762398442
 20
-9.1518099193
 10
4.8606384628
 20
-9.138085451
  0
LWPOLYLINE
  5
5FC
100
AcDbEntity
  8
ASSI
100
AcDbPolyline
 62
250
  6
CONTINUOUS
 90
16
 70
0
 10
-0.1393615371
 20
-13.9619145483
 10
-0.1235310491
 20
-13.9480495914
 10
-0.1067701914
 20
-13.9360891556
 10
-0.0890789641
 20
-13.926033241
 10
-0.0702521513
 20
-13.9178187423
 10
-0.0504949688
 20
-13.9115087648
 10
-0.0304230645
 20
-13.9072926239
 10
-0.0100280833
 20
-13.9052348352
 10
0.0106816196
 20
-13.9052708831
 10
0.0310653317
 20
-13.9073965369
 10
0.0511272165
 20
-13.911688504
 10
0.0708631103
 20
-13.918070077
 10
0.0896198096
 20
-13.9263069032
 10
0.1071795799
 20
-13.9363208651
 10
0.1237601557
 20
-13.9481900801
 10
0.139361537
 20
-13.9619145484
  0
LWPOLYLINE
  5
5FD
100
AcDbEntity
  8
ASSI
100
AcDbPolyline
 62
250
  6
CONTINUOUS
 90
16
 70
0
 10
-0.3484023097
 20
-13.7483331416
 10
-0.309725031
 20
-13.7144980608
 10
-0.2678008294
 20
-13.6848292097
 10
-0.2230776387
 20
-13.6596126569
 10
-0.1760055584
 20
-13.6391320872
 10
-0.1270762796
 20
-13.6235854124
 10
-0.0768106462
 20
-13.6131044813
 10
-0.025740664
 20
-13.607830975
 10
0.0255992837
 20
-13.6078425193
 10
0.0766803317
 20
-13.6130933509
 10
0.1269565682
 20
-13.6235305284
 10
0.1758836246
 20
-13.6390812198
 10
0.222972844
 20
-13.6595678632
 10
0.2677392051
 20
-13.6847800928
 10
0.309692332
 20
-13.7144927854
 10
0.3483798431
 20
-13.7483561005
  0
LWPOLYLINE
  5
5FE
100
AcDbEntity
  8
ASSI
100
AcDbPolyline
 62
250
  6
CONTINUOUS
 90
16
 70
0
 10
5.3484023097
 20
-9.3516668576
 10
5.309725031
 20
-9.3855019383
 10
5.2678008294
 20
-9.4151707894
 10
5.2230776386
 20
-9.4403873421
 10
5.1760055583
 20
-9.4608679117
 10
5.1270762796
 20
-9.4764145866
 10
5.0768106462
 20
-9.4868955177
 10
5.025740664
 20
-9.492169024
 10
4.9744007163
 20
-9.4921574796
 10
4.9233196683
 20
-9.4869066481
 10
4.8730434319
 20
-9.4764694706
 10
4.8241163754
 20
-9.4609187792
 10
4.777027156
 20
-9.4404321358
 10
4.7322607949
 20
-9.4152199063
 10
4.6903076681
 20
-9.3855072137
 10
4.6516201569
 20
-9.3516438987
  0
LWPOLYLINE
  5
5FF
100
AcDbEntity
  8
0
100
AcDbPolyline
 62
7
  6
CONTINUOUS
 90
15
 70
0
 10
-8.2116627774
 20
-13.1483275849
 10
-8.0902711363
 20
-13.1109273896
 10
-7.9175820744
 20
-13.059419314
 10
-7.7503774583
 20
-13.0112818487
 10
-7.5879564221
 20
-12.9663147965
 10
-7.4282163693
 20
-12.9239175649
 10
-7.2709329465
 20
-12.8839679601
 10
-7.116330507
 20
-12.846588176
 10
-6.9629795137
 20
-12.8115442019
 10
-6.8107433106
 20
-12.77875301
 10
-6.6597585538
 20
-12.748297628
 10
-6.5090056738
 20
-12.7201931287
 10
-6.3581448142
 20
-12.6944445364
 10
-6.2075158315
 20
-12.6710468269
 10
-6.1503476632
 20
-12.6630466161
  0
LINE
  5
600
100
AcDbEntity
  8
0
100
AcDbLine
 62
250
  6
CONTINUOUS
 10
-11.0278331549
 20
10.1928571671
 11
-10.9946735827
 21
10.1928571671
  0
LINE
  5
601
100
AcDbEntity
  8
0
100
AcDbLine
 62
250
  6
CONTINUOUS
 10
-11.0539971429
 20
10.292325
 11
-11.1046014306
 21
10.292325
  0
LINE
  5
602
100
AcDbEntity
  8
0
100
AcDbLine
 62
250
  6
CONTINUOUS
 10
-10.8061283094
 20
10.638918
 11
-10.7834436365
 21
10.638918
  0
LINE
  5
603
100
AcDbEntity
  8
0
100
AcDbLine
 62
250
  6
CONTINUOUS
 10
-11.0963494969
 20
10.87477
 11
-11.0539971429
 21
10.87477
  0
LINE
  5
604
100
AcDbEntity
  8
ASSI
100
AcDbLine
 62
7
  6
CONTINUOUS
 10
-7.202006682
 20
15.8444385144
 11
-8.1293014639
 21
16.3797920206
  0
LINE
  5
605
100
AcDbEntity
  8
ASSI
100
AcDbLine
 62
250
  6
CONTINUOUS
 10
-7.1564791761
 20
15.8707238322
 11
-8.1188127861
 21
16.426348557
  0
LINE
  5
606
100
AcDbEntity
  8
RACCORDO
100
AcDbLine
 62
7
  6
CONTINUOUS
 10
-6.5570215015
 20
19.7570215015
 11
-6.5
 21
19.7
  0
LINE
  5
607
100
AcDbEntity
  8
RACCORDO
100
AcDbLine
 62
250
  6
CONTINUOUS
 10
-10.645628166
 20
24.2456323968
 11
-10.65
 21
24.2500042308
  0
LINE
  5
608
100
AcDbEntity
  8
ASSI
100
AcDbLine
 62
7
  6
CONTINUOUS
 10
-5.75
 20
19.7
 11
-5.6609791689
 21
19.6109791689
  0
LINE
  5
609
100
AcDbEntity
  8
RACCORDO
100
AcDbLine
 62
250
  6
CONTINUOUS
 10
-10.3956323968
 20
24.495628166
 11
-10.4000042308
 21
24.5
  0
LINE
  5
60A
100
AcDbEntity
  8
ASSI
100
AcDbLine
 62
7
  6
CONTINUOUS
 10
-5.75
 20
19.9
 11
-5.6609791689
 21
19.8109791689
  0
LWPOLYLINE
  5
60B
100
AcDbEntity
  8
0
100
AcDbPolyline
 62
7
  6
CONTINUOUS
 90
19
 70
0
 10
1.7526869752
 20
13.2393859786
 10
1.7492180938
 20
13.2437813519
 10
1.7447025483
 20
13.2468282427
 10
1.7391897383
 20
13.2485551718
 10
1.7327424424
 20
13.2490035903
 10
1.7254263606
 20
13.2482062242
 10
1.7172943782
 20
13.2461779902
 10
1.7084194988
 20
13.2429563407
 10
1.6988721801
 20
13.2385866508
 10
1.6886839618
 20
13.2330856017
 10
1.6779283719
 20
13.2264946098
 10
1.6666851266
 20
13.2188607344
 10
1.6549798221
 20
13.2102003295
 10
1.6428934061
 20
13.200555461
 10
1.6305180372
 20
13.1899840061
 10
1.6178908034
 20
13.1785229618
 10
1.6050917946
 20
13.1662237627
 10
1.5922498643
 20
13.1531556077
 10
1.5794818944
 20
13.1393859786
  0
LINE
  5
60C
100
AcDbEntity
  8
RACCORDO
100
AcDbLine
 62
7
  6
CONTINUOUS
 10
7.3506760157
 20
20.443503758
 11
7.2988376746
 21
20.9104703804
  0
LINE
  5
60D
100
AcDbEntity
  8
RACCORDO
100
AcDbLine
 62
7
  6
CONTINUOUS
 10
11.15
 20
21.9411874598
 11
11.15
 21
-21.9411874598
  0
LINE
  5
60E
100
AcDbEntity
  8
ASSI
100
AcDbLine
 62
7
  6
CONTINUOUS
 10
11.15
 20
-17.6716990487
 11
11.15
 21
17.6716990487
  0
LWPOLYLINE
  5
60F
100
AcDbEntity
  8
RACCORDO
100
AcDbPolyline
 62
7
  6
CONTINUOUS
 90
34
 70
0
 10
10.65
 20
-24.2500042308
 10
10.6497168498
 20
-24.261899516
 10
10.6488680342
 20
-24.2737678556
 10
10.6474554741
 20
-24.2855823661
 10
10.6454823677
 20
-24.2973162875
 10
10.6429531817
 20
-24.3089430388
 10
10.6398736417
 20
-24.320436279
 10
10.6362507213
 20
-24.3317699738
 10
10.6320926258
 20
-24.3429184493
 10
10.6274087722
 20
-24.3538564463
 10
10.6222097688
 20
-24.3645591876
 10
10.6165073916
 20
-24.3750024283
 10
10.6103145581
 20
-24.3851625059
 10
10.6036452955
 20
-24.3950164051
 10
10.5965147107
 20
-24.4045418038
 10
10.5889389589
 20
-24.4137171191
 10
10.5809352005
 20
-24.4225215661
 10
10.5725215661
 20
-24.4309352005
 10
10.5637171191
 20
-24.4389389589
 10
10.5545418038
 20
-24.4465147107
 10
10.5450164051
 20
-24.4536452955
 10
10.5351625059
 20
-24.4603145581
 10
10.5250024283
 20
-24.4665073916
 10
10.5145591876
 20
-24.4722097688
 10
10.5038564463
 20
-24.4774087722
 10
10.4929184493
 20
-24.4820926258
 10
10.4817699738
 20
-24.4862507213
 10
10.470436279
 20
-24.4898736417
 10
10.4589430388
 20
-24.4929531817
 10
10.4473162875
 20
-24.4954823677
 10
10.4355823661
 20
-24.4974554741
 10
10.4237678556
 20
-24.4988680342
 10
10.411899516
 20
-24.4997168498
 10
10.4000042308
 20
-24.5
  0
LWPOLYLINE
  5
610
100
AcDbEntity
  8
RACCORDO
100
AcDbPolyline
 62
250
  6
CONTINUOUS
 90
31
 70
0
 10
10.645628166
 20
-24.2456323968
 10
10.6452867588
 20
-24.2586847368
 10
10.6442634962
 20
-24.2717096311
 10
10.642559892
 20
-24.2846714057
 10
10.6401787618
 20
-24.2975371245
 10
10.6371256484
 20
-24.3102685897
 10
10.6334102087
 20
-24.3228227742
 10
10.6290436576
 20
-24.3351625782
 10
10.6240372277
 20
-24.3472569343
 10
10.6184044791
 20
-24.3590730125
 10
10.6121606774
 20
-24.370578613
 10
10.6053229956
 20
-24.3817419314
 10
10.5979103656
 20
-24.3925320106
 10
10.5899432233
 20
-24.4029191364
 10
10.5814433264
 20
-24.4128749736
 10
10.5724339046
 20
-24.422372308
 10
10.5629396114
 20
-24.4313851271
 10
10.552986508
 20
-24.4398886687
 10
10.5426019187
 20
-24.4478595768
 10
10.5318143284
 20
-24.4552759837
 10
10.5206533025
 20
-24.4621175595
 10
10.5091494467
 20
-24.4683655387
 10
10.497334301
 20
-24.4740027869
 10
10.4852402638
 20
-24.4790138424
 10
10.4729005077
 20
-24.4833849575
 10
10.4603488602
 20
-24.487104147
 10
10.4476197463
 20
-24.4901612081
 10
10.4347481067
 20
-24.4925477509
 10
10.4217692492
 20
-24.494257234
 10
10.4087187509
 20
-24.495284977
 10
10.3956323968
 20
-24.495628166
  0
LWPOLYLINE
  5
611
100
AcDbEntity
  8
ASSI
100
AcDbPolyline
 62
250
  6
CONTINUOUS
 90
13
 70
0
 10
10.7482288738
 20
-17.5052799993
 10
10.7439389411
 20
-17.6360793331
 10
10.7311046556
 20
-17.7663123287
 10
10.7097821202
 20
-17.8954215366
 10
10.6800642661
 20
-18.0228525683
 10
10.6420791557
 20
-18.1480621446
 10
10.5959882076
 20
-18.2705200591
 10
10.5419886735
 20
-18.3897021729
 10
10.4803116835
 20
-18.5050983806
 10
10.4112179959
 20
-18.616219623
 10
10.3350012011
 20
-18.7225911805
 10
10.2519875883
 20
-18.8237553162
 10
10.1625316542
 20
-18.9192781701
  0
LINE
  5
612
100
AcDbEntity
  8
ASSI
100
AcDbLine
 62
7
  6
CONTINUOUS
 10
2.1490861964
 20
-18.3839109968
 11
2.1975340777
 21
-18.3
  0
LINE
  5
613
100
AcDbEntity
  8
ASSI
100
AcDbLine
 62
250
  6
CONTINUOUS
 10
2.2501047116
 20
-18.3
 11
1.5735564447
 21
-19.4718605929
  0
LINE
  5
614
100
AcDbEntity
  8
ASSI
100
AcDbLine
 62
7
  6
CONTINUOUS
 10
-4.2487243743
 20
-23.6030935259
 11
-4.2204038414
 21
-23.5705368404
  0
LINE
  5
615
100
AcDbEntity
  8
ASSI
100
AcDbLine
 62
7
  6
CONTINUOUS
 10
-4.2204038414
 20
-23.5705368404
 11
-4.1881757598
 21
-23.5340628527
  0
LINE
  5
616
100
AcDbEntity
  8
ASSI
100
AcDbLine
 62
7
  6
CONTINUOUS
 10
-4.1881757598
 20
-23.5340628527
 11
-4.1519018608
 21
-23.4934596111
  0
LINE
  5
617
100
AcDbEntity
  8
ASSI
100
AcDbLine
 62
7
  6
CONTINUOUS
 10
-4.1519018608
 20
-23.4934596111
 11
-4.0908785061
 21
-23.4259194318
  0
LINE
  5
618
100
AcDbEntity
  8
ASSI
100
AcDbLine
 62
7
  6
CONTINUOUS
 10
-3.957938791
 20
-23.2805221269
 11
-3.9358937422
 21
-23.2563578147
  0
LWPOLYLINE
  5
619
100
AcDbEntity
  8
ASSI
100
AcDbPolyline
 62
7
  6
CONTINUOUS
 90
3
 70
0
 10
-4.0908785061
 20
-23.4259194318
 10
-4.00245098
 20
-23.3290146442
 10
-3.957938791
 20
-23.2805221269
  0
LWPOLYLINE
  5
61A
100
AcDbEntity
  8
ASSI
100
AcDbPolyline
 62
250
  6
CONTINUOUS
 90
31
 70
0
 10
4.4220064527
 20
-13.3745670587
 10
4.4478474093
 20
-13.3480866654
 10
4.4760566298
 20
-13.3223312223
 10
4.5066341142
 20
-13.2973007296
 10
4.5396799214
 20
-13.2726944357
 10
4.5750939925
 20
-13.2488130921
 10
4.6125761506
 20
-13.2265589535
 10
4.6522358988
 20
-13.2059869728
 10
4.6939637342
 20
-13.187042197
 10
4.7371309709
 20
-13.1704620227
 10
4.7818000486
 20
-13.1563525706
 10
4.8279085278
 20
-13.14460772
 10
4.8746404042
 20
-13.1356465042
 10
4.9220041384
 20
-13.1295869728
 10
4.9699912699
 20
-13.1263110763
 10
5.017760413
 20
-13.1258836993
 10
5.0653089352
 20
-13.1284186907
 10
5.1126394689
 20
-13.1338022015
 10
5.158918526
 20
-13.1417575694
 10
5.2041013526
 20
-13.1523911667
 10
5.2482327025
 20
-13.165596621
 10
5.290613349
 20
-13.1807781526
 10
5.3311564796
 20
-13.1980081841
 10
5.3699489069
 20
-13.2172142929
 10
5.4065518416
 20
-13.2375834315
 10
5.440867872
 20
-13.2591419445
 10
5.47299441
 20
-13.2818634873
 10
5.5027849018
 20
-13.3048559783
 10
5.5301904963
 20
-13.3278220571
 10
5.5552600447
 20
-13.351059084
 10
5.577993547
 20
-13.3745670591
  0
LINE
  5
61B
100
AcDbEntity
  8
ASSI
100
AcDbLine
 62
250
  6
CONTINUOUS
 10
-11.15
 20
-17.6716990487
 11
-10.7482288738
 21
-17.5052799993
  0
LWPOLYLINE
  5
61C
100
AcDbEntity
  8
RACCORDO
100
AcDbPolyline
 62
7
  6
CONTINUOUS
 90
10
 70
0
 10
1.55
 20
-11.5666114973
 10
1.7067211963
 20
-11.5167438457
 10
1.8600837634
 20
-11.4691800531
 10
2.0100877012
 20
-11.4239201196
 10
2.1562808188
 20
-11.3810903264
 10
2.2991153071
 20
-11.3405643923
 10
2.4399477388
 20
-11.3019634731
 10
2.5792303046
 20
-11.2651612874
 10
2.7165108138
 20
-11.2302841166
 10
2.8517892662
 20
-11.1973319608
  0
LINE
  5
61D
100
AcDbEntity
  8
0
100
AcDbLine
 62
250
  6
CONTINUOUS
 10
-10.9946735827
 20
11.3690476298
 11
-11.0112533688
 21
11.3690476298
  0
LINE
  5
61E
100
AcDbEntity
  8
0
100
AcDbLine
 62
250
  6
CONTINUOUS
 10
-10.7834436365
 20
12.023604
 11
-10.7922214707
 21
12.023604
  0
LINE
  5
61F
100
AcDbEntity
  8
RACCORDO
100
AcDbLine
 62
250
  6
CONTINUOUS
 10
2.4778699117
 20
12.2982698575
 11
2.3051031178
 21
12.2982698575
  0
LINE
  5
620
100
AcDbEntity
  8
0
100
AcDbLine
 62
250
  6
CONTINUOUS
 10
-11.0644999196
 20
12.328754
 11
-11.1046014306
 21
12.328754
  0
LINE
  5
621
100
AcDbEntity
  8
RACCORDO
100
AcDbLine
 62
250
  6
CONTINUOUS
 10
2.5084384959
 20
12.4982622421
 11
2.1896374607
 21
12.4982622421
  0
LINE
  5
622
100
AcDbEntity
  8
RACCORDO
100
AcDbLine
 62
250
  6
CONTINUOUS
 10
2.3583784374
 20
12.2059942971
 11
2.4573720695
 21
12.2058100661
  0
LINE
  5
623
100
AcDbEntity
  8
ASSI
100
AcDbLine
 62
250
  6
CONTINUOUS
 10
-1.8117264836
 20
13.269118431
 11
-2.1023148339
 21
13.3389372978
  0
LINE
  5
624
100
AcDbEntity
  8
ASSI
100
AcDbLine
 62
250
  6
CONTINUOUS
 10
-2.5775142007
 20
13.7083660785
 11
-2.2925969266
 21
13.6181522349
  0
LINE
  5
625
100
AcDbEntity
  8
ASSI
100
AcDbLine
 62
250
  6
CONTINUOUS
 10
-10.9754493507
 20
17.5993978025
 11
-11.15
 21
17.6716990487
  0
LWPOLYLINE
  5
626
100
AcDbEntity
  8
ASSI
100
AcDbPolyline
 62
7
  6
CONTINUOUS
 90
3
 70
0
 10
-3.9358937422
 20
23.2563578147
 10
-3.9577748128
 20
23.2803434882
 10
-4.0020898437
 20
23.3286200094
  0
LINE
  5
627
100
AcDbEntity
  8
ASSI
100
AcDbLine
 62
7
  6
CONTINUOUS
 10
-4.0020898437
 20
23.3286200094
 11
-4.1117852591
 21
23.4490045729
  0
LINE
  5
628
100
AcDbEntity
  8
ASSI
100
AcDbLine
 62
7
  6
CONTINUOUS
 10
-4.1117852591
 20
23.4490045729
 11
-4.1516779641
 21
23.4932109369
  0
LINE
  5
629
100
AcDbEntity
  8
ASSI
100
AcDbLine
 62
7
  6
CONTINUOUS
 10
-4.1516779641
 20
23.4932109369
 11
-4.1879348667
 21
23.5337918862
  0
LINE
  5
62A
100
AcDbEntity
  8
ASSI
100
AcDbLine
 62
7
  6
CONTINUOUS
 10
-4.1879348667
 20
23.5337918862
 11
-4.2201343847
 21
23.5702300231
  0
LWPOLYLINE
  5
62B
100
AcDbEntity
  8
ASSI
100
AcDbPolyline
 62
7
  6
CONTINUOUS
 90
19
 70
0
 10
-4.2201343847
 20
23.5702300231
 10
-4.248432664
 20
23.6027557066
 10
-4.2611450751
 20
23.6175635088
 10
-4.272970975
 20
23.6315003206
 10
-4.2839105199
 20
23.6445610358
 10
-4.2939844229
 20
23.6567507605
 10
-4.303269212
 20
23.6681777872
 10
-4.3117728811
 20
23.6788585936
 10
-4.3194931985
 20
23.6887767021
 10
-4.3264696976
 20
23.6979909718
 10
-4.3327170619
 20
23.7065234045
 10
-4.3382131378
 20
23.7143519984
 10
-4.342942196
 20
23.7214696077
 10
-4.3469165201
 20
23.7278633407
 10
-4.3501453883
 20
23.7335460891
 10
-4.3526304114
 20
23.7385493818
 10
-4.354394934
 20
23.7428837287
 10
-4.3554710816
 20
23.74653862
 10
-4.3558866345
 20
23.7495140557
  0
LINE
  5
62C
100
AcDbEntity
  8
DRAFT
100
AcDbLine
 62
7
  6
CONTINUOUS
 10
8.2465127091
 20
-20.9104703804
 11
8.25
 21
-20.9
  0
LINE
  5
62D
100
AcDbEntity
  8
ASSI
100
AcDbLine
 62
250
  6
CONTINUOUS
 10
9.7483811786
 20
-9.0331115016
 11
9.5492796492
 21
-9.2559902352
  0
LINE
  5
62E
100
AcDbEntity
  8
ASSI
100
AcDbLine
 62
250
  6
CONTINUOUS
 10
5.1393615372
 20
-13.9619145481
 11
5.3484038257
 21
-13.7483315912
  0
LWPOLYLINE
  5
62F
100
AcDbEntity
  8
ASSI
100
AcDbPolyline
 62
250
  6
CONTINUOUS
 90
31
 70
0
 10
4.6387543303
 20
-13.5803265329
 10
4.6549733351
 20
-13.5638516044
 10
4.6725913528
 20
-13.5475534053
 10
4.6916562093
 20
-13.5315653993
 10
4.7122747661
 20
-13.5159812642
 10
4.7344112376
 20
-13.5010083455
 10
4.7578644269
 20
-13.4869343442
 10
4.7826259155
 20
-13.4738920107
 10
4.8086605345
 20
-13.4620206411
 10
4.8356717154
 20
-13.451553061
 10
4.8635855548
 20
-13.4425920247
 10
4.8923305473
 20
-13.4352260402
 10
4.9215732515
 20
-13.4295849496
 10
4.9511990324
 20
-13.4257163494
 10
4.9811162541
 20
-13.4236512175
 10
5.0110082074
 20
-13.4234102064
 10
5.0407722626
 20
-13.424980942
 10
5.0702945411
 20
-13.4283419062
 10
5.0992471301
 20
-13.4334125798
 10
5.12754381
 20
-13.4401199784
 10
5.1550931619
 20
-13.4483862165
 10
5.1815893399
 20
-13.4580323583
 10
5.2069783392
 20
-13.4689319697
 10
5.2312206847
 20
-13.4809651074
 10
5.254080905
 20
-13.4938844886
 10
5.2755547289
 20
-13.5075351969
 10
5.2956581566
 20
-13.5217792131
 10
5.3142408696
 20
-13.5363406069
 10
5.3312981508
 20
-13.5510190608
 10
5.3469457324
 20
-13.5657224947
 10
5.3612458085
 20
-13.5803263978
  0
LINE
  5
630
100
AcDbEntity
  8
ASSI
100
AcDbLine
 62
7
  6
CONTINUOUS
 10
-4.4
 20
-23.8
 11
-4.3563493531
 21
-23.7563493531
  0
LINE
  5
631
100
AcDbEntity
  8
ASSI
100
AcDbLine
 62
250
  6
CONTINUOUS
 10
5.577993547
 20
-13.3745670591
 11
5.3612459965
 21
-13.5803262196
  0
LWPOLYLINE
  5
632
100
AcDbEntity
  8
ASSI
100
AcDbPolyline
 62
250
  6
CONTINUOUS
 90
16
 70
0
 10
4.8606384629
 20
-13.9619145483
 10
4.8764689509
 20
-13.9480495914
 10
4.8932298086
 20
-13.9360891556
 10
4.9109210359
 20
-13.926033241
 10
4.9297478487
 20
-13.9178187423
 10
4.9495050312
 20
-13.9115087648
 10
4.9695769355
 20
-13.9072926239
 10
4.9899719167
 20
-13.9052348352
 10
5.0106816196
 20
-13.9052708831
 10
5.0310653317
 20
-13.9073965369
 10
5.0511272165
 20
-13.911688504
 10
5.0708631103
 20
-13.918070077
 10
5.0896198096
 20
-13.9263069032
 10
5.1071795799
 20
-13.9363208651
 10
5.1237601557
 20
-13.9481900801
 10
5.139361537
 20
-13.9619145484
  0
LWPOLYLINE
  5
633
100
AcDbEntity
  8
ASSI
100
AcDbPolyline
 62
250
  6
CONTINUOUS
 90
16
 70
0
 10
4.6515976903
 20
-13.7483331416
 10
4.690274969
 20
-13.7144980608
 10
4.7321991706
 20
-13.6848292097
 10
4.7769223613
 20
-13.6596126569
 10
4.8239944416
 20
-13.6391320872
 10
4.8729237204
 20
-13.6235854124
 10
4.9231893538
 20
-13.6131044813
 10
4.974259336
 20
-13.607830975
 10
5.0255992837
 20
-13.6078425193
 10
5.0766803317
 20
-13.6130933509
 10
5.1269565682
 20
-13.6235305284
 10
5.1758836247
 20
-13.6390812198
 10
5.222972844
 20
-13.6595678632
 10
5.267739205
 20
-13.6847800927
 10
5.3096923317
 20
-13.7144927852
 10
5.3483798427
 20
-13.7483561002
  0
LINE
  5
634
100
AcDbEntity
  8
ASSI
100
AcDbLine
 62
7
  6
CONTINUOUS
 10
-2.1975340777
 20
-17.7912732553
 11
-2.24160476
 21
-17.8206532958
  0
LINE
  5
635
100
AcDbEntity
  8
ASSI
100
AcDbLine
 62
250
  6
CONTINUOUS
 10
-10.5643027805
 20
-19.0856972195
 11
-10.1625316542
 21
-18.9192781701
  0
LWPOLYLINE
  5
636
100
AcDbEntity
  8
0
100
AcDbPolyline
 62
7
  6
CONTINUOUS
 90
15
 70
0
 10
1.7883372226
 20
-13.1483275849
 10
1.9097288637
 20
-13.1109273896
 10
2.0824179256
 20
-13.059419314
 10
2.2496225417
 20
-13.0112818487
 10
2.4120435779
 20
-12.9663147965
 10
2.5717836307
 20
-12.9239175649
 10
2.7290670535
 20
-12.8839679601
 10
2.883669493
 20
-12.846588176
 10
3.0370204863
 20
-12.8115442019
 10
3.1892566894
 20
-12.77875301
 10
3.3402414462
 20
-12.748297628
 10
3.4909943262
 20
-12.7201931287
 10
3.6418551858
 20
-12.6944445364
 10
3.7924841685
 20
-12.6710468269
 10
3.8496523368
 20
-12.6630466161
  0
LINE
  5
637
100
AcDbEntity
  8
0
100
AcDbLine
 62
250
  6
CONTINUOUS
 10
-0.5028493115
 20
13.8541781995
 11
0.271448636
 21
14.0616507092
  0
LINE
  5
638
100
AcDbEntity
  8
ASSI
100
AcDbLine
 62
7
  6
CONTINUOUS
 10
-0.4902755036
 20
13.867900103
 11
0.2848975311
 21
14.0756070916
  0
LINE
  5
639
100
AcDbEntity
  8
0
100
AcDbLine
 62
250
  6
CONTINUOUS
 10
-11.1046014306
 20
12.911198
 11
-11.0539971429
 21
12.911198
  0
LINE
  5
63A
100
AcDbEntity
  8
0
100
AcDbLine
 62
250
  6
CONTINUOUS
 10
-11.018358992
 20
13.1785713315
 11
-11.0230960735
 21
13.1785713315
  0
LINE
  5
63B
100
AcDbEntity
  8
0
100
AcDbLine
 62
250
  6
CONTINUOUS
 10
-11.0136219105
 20
13.721428442
 11
-11.0278331549
 21
13.721428442
  0
LINE
  5
63C
100
AcDbEntity
  8
ASSI
100
AcDbLine
 62
250
  6
CONTINUOUS
 10
-9.7483811786
 20
14.286936906
 11
-10.7482288738
 21
14.286936906
  0
LINE
  5
63D
100
AcDbEntity
  8
0
100
AcDbLine
 62
250
  6
CONTINUOUS
 10
-10.9994106647
 20
14.535714221
 11
-11.0088848281
 21
14.535714221
  0
LINE
  5
63E
100
AcDbEntity
  8
ASSI
100
AcDbLine
 62
250
  6
CONTINUOUS
 10
-10.3897521312
 20
19.0133959733
 11
-10.5643027805
 21
19.0856972195
  0
LINE
  5
63F
100
AcDbEntity
  8
ASSI
100
AcDbLine
 62
7
  6
CONTINUOUS
 10
-4.4
 20
23.8
 11
-4.3563493531
 21
23.7563493531
  0
LINE
  5
640
100
AcDbEntity
  8
0
100
AcDbLine
 62
250
  6
CONTINUOUS
 10
6.7482288738
 20
15.0837586919
 11
7.6232288738
 21
13.5682142353
  0
LINE
  5
641
100
AcDbEntity
  8
DRAFT
100
AcDbLine
 62
7
  6
CONTINUOUS
 10
8.2465127091
 20
20.9104703804
 11
8.25
 21
20.9
  0
LINE
  5
642
100
AcDbEntity
  8
ASSI
100
AcDbLine
 62
250
  6
CONTINUOUS
 10
-10.7482288738
 20
14.286936906
 11
-10.9754493507
 21
14.2432004109
  0
LINE
  5
643
100
AcDbEntity
  8
0
100
AcDbLine
 62
250
  6
CONTINUOUS
 10
-11.0041477466
 20
15.078571558
 11
-11.018358992
 21
15.078571558
  0
LINE
  5
644
100
AcDbEntity
  8
0
100
AcDbLine
 62
250
  6
CONTINUOUS
 10
-11.018358992
 20
16.028571558
 11
-11.0041477466
 21
16.028571558
  0
LINE
  5
645
100
AcDbEntity
  8
RACCORDO
100
AcDbLine
 62
7
  6
CONTINUOUS
 10
-9.5439339828
 20
20.1060660172
 11
-9.65
 21
20.15
  0
LINE
  5
646
100
AcDbEntity
  8
RACCORDO
100
AcDbLine
 62
7
  6
CONTINUOUS
 10
9.068456817
 20
-20.581543183
 11
8.9
 21
-20.9
  0
LINE
  5
647
100
AcDbEntity
  8
DRAFT
100
AcDbLine
 62
7
  6
CONTINUOUS
 10
7.2418217019
 20
-20.9959955457
 11
7.2988376746
 21
-20.9104703804
  0
LWPOLYLINE
  5
648
100
AcDbEntity
  8
ASSI
100
AcDbPolyline
 62
250
  6
CONTINUOUS
 90
46
 70
0
 10
9.7483811786
 20
-14.0668884984
 10
9.803857129
 20
-14.0010408524
 10
9.859735291
 20
-13.9308635923
 10
9.9158318548
 20
-13.856356718
 10
9.9719158011
 20
-13.7777396498
 10
10.0278223944
 20
-13.6947929675
 10
10.083448152
 20
-13.6068584099
 10
10.1387430209
 20
-13.5136365605
 10
10.1932827396
 20
-13.4154268358
 10
10.2464174338
 20
-13.3124692247
 10
10.2981997362
 20
-13.2041303071
 10
10.3481321838
 20
-13.091043503
 10
10.3949261248
 20
-12.9753490611
 10
10.4385305151
 20
-12.857127357
 10
10.4789523075
 20
-12.7362980152
 10
10.5153384022
 20
-12.6147601573
 10
10.5479847039
 20
-12.4931686395
 10
10.5770072299
 20
-12.3708686057
 10
10.6016972778
 20
-12.2477946096
 10
10.6228684265
 20
-12.1249851569
 10
10.6405356812
 20
-12.0014017418
 10
10.6533838986
 20
-11.8738634005
 10
10.6619886532
 20
-11.7396977041
 10
10.6669058365
 20
-11.6015770814
 10
10.6670396206
 20
-11.4643378556
 10
10.661221417
 20
-11.3292319565
 10
10.650121351
 20
-11.1950074542
 10
10.6353029586
 20
-11.0627448823
 10
10.6165914872
 20
-10.933554444
 10
10.5929707851
 20
-10.806325936
 10
10.5652822865
 20
-10.6788092815
 10
10.5333404012
 20
-10.5497908652
 10
10.4965170318
 20
-10.4204843024
 10
10.4555207797
 20
-10.2922803617
 10
10.4102004878
 20
-10.1647700011
 10
10.3604071279
 20
-10.0383622625
 10
10.3072965278
 20
-9.9156750407
 10
10.2510903943
 20
-9.7970039857
 10
10.1918482385
 20
-9.6820534474
 10
10.1308201832
 20
-9.5725543698
 10
10.0685805535
 20
-9.4690982143
 10
10.0051557338
 20
-9.3710935195
 10
9.941101972
 20
-9.2784968449
 10
9.876807593
 20
-9.1912937103
 10
9.8124745831
 20
-9.1094985959
 10
9.7483811786
 20
-9.0331115016
  0
LWPOLYLINE
  5
649
100
AcDbEntity
  8
ASSI
100
AcDbPolyline
 62
250
  6
CONTINUOUS
 90
46
 70
0
 10
9.5492796491
 20
-13.8440097649
 10
9.6149318665
 20
-13.7838479031
 10
9.6811126285
 20
-13.7200337711
 10
9.7476071474
 20
-13.6524148082
 10
9.8141290613
 20
-13.5808956212
 10
9.8804922272
 20
-13.5052845861
 10
9.9465929683
 20
-13.4252768023
 10
10.0123130146
 20
-13.3405074967
 10
10.0771436645
 20
-13.2510517816
 10
10.1404036676
 20
-13.1573049441
 10
10.2020881118
 20
-13.0587634872
 10
10.2615591915
 20
-12.9557887434
 10
10.3174276199
 20
-12.8502776612
 10
10.3695004709
 20
-12.7425947437
 10
10.4177631142
 20
-12.6326104962
 10
10.4614475124
 20
-12.5217205306
 10
10.500429366
 20
-12.4107750409
 10
10.534970648
 20
-12.299342269
 10
10.5649653616
 20
-12.1869878527
 10
10.590326837
 20
-12.0748926913
 10
10.6112156901
 20
-11.962281801
 10
10.6274501728
 20
-11.8457835878
 10
10.6387412786
 20
-11.72322734
 10
10.6444404999
 20
-11.5972287418
 10
10.6438697222
 20
-11.4716975976
 10
10.636839326
 20
-11.3481319852
 10
10.6237988938
 20
-11.2257364052
 10
10.6055065941
 20
-11.1049595258
 10
10.5823527916
 20
-10.9870072837
 10
10.554314529
 20
-10.8711141717
 10
10.5212454361
 20
-10.7547086052
 10
10.4827022663
 20
-10.6369506438
 10
10.4387559753
 20
-10.5192329612
 10
10.3897901574
 20
-10.4023231504
 10
10.3355549146
 20
-10.2859783425
 10
10.2761625992
 20
-10.1709434577
 10
10.2128461279
 20
-10.0592664481
 10
10.1458745621
 20
-9.951082203
 10
10.0753761521
 20
-9.8464239774
 10
10.0027902027
 20
-9.7468727066
 10
9.928804564
 20
-9.6526852695
 10
9.8534697009
 20
-9.5633756914
 10
9.7774750368
 20
-9.4791998993
 10
9.7012925693
 20
-9.4001028664
 10
9.6251276321
 20
-9.325765152
 10
9.5492796491
 20
-9.2559902351
  0
LINE
  5
64A
100
AcDbEntity
  8
ASSI
100
AcDbLine
 62
250
  6
CONTINUOUS
 10
-10.248372717
 20
15.1529476539
 11
-10.47539011
 21
15.1092502494
  0
LINE
  5
64B
100
AcDbEntity
  8
ASSI
100
AcDbLine
 62
250
  6
CONTINUOUS
 10
10.7482288738
 20
17.5052799993
 11
9.7483811786
 21
17.5052799993
  0
LINE
  5
64C
100
AcDbEntity
  8
ASSI
100
AcDbLine
 62
7
  6
CONTINUOUS
 10
-2.0971309609
 20
18.1242567237
 11
-2.0442746102
 21
18.1208482034
  0
LINE
  5
64D
100
AcDbEntity
  8
DRAFT
100
AcDbLine
 62
7
  6
CONTINUOUS
 10
7.2418217019
 20
20.9959955457
 11
7.2988376746
 21
20.9104703804
  0
LINE
  5
64E
100
AcDbEntity
  8
RACCORDO
100
AcDbLine
 62
7
  6
CONTINUOUS
 10
9.068456817
 20
20.581543183
 11
8.9
 21
20.9
  0
LINE
  5
64F
100
AcDbEntity
  8
ASSI
100
AcDbLine
 62
7
  6
CONTINUOUS
 10
3.6200049382
 20
-23.5882704955
 11
3.6502909879
 21
-23.5537230001
  0
LINE
  5
650
100
AcDbEntity
  8
ASSI
100
AcDbLine
 62
7
  6
CONTINUOUS
 10
3.6502909879
 20
-23.5537230001
 11
3.6846044794
 21
-23.5151081377
  0
LINE
  5
651
100
AcDbEntity
  8
ASSI
100
AcDbLine
 62
7
  6
CONTINUOUS
 10
3.6846044794
 20
-23.5151081377
 11
3.7228219393
 21
-23.4725639888
  0
LINE
  5
652
100
AcDbEntity
  8
ASSI
100
AcDbLine
 62
7
  6
CONTINUOUS
 10
3.7228219393
 20
-23.4725639888
 11
3.7862094737
 21
-23.4026472274
  0
LINE
  5
653
100
AcDbEntity
  8
ASSI
100
AcDbLine
 62
7
  6
CONTINUOUS
 10
3.7862094737
 20
-23.4026472274
 11
3.92
 21
-23.2563578147
  0
LINE
  5
654
100
AcDbEntity
  8
RACCORDO
100
AcDbLine
 62
7
  6
CONTINUOUS
 10
7.2429784985
 20
-19.7570215015
 11
7.3
 21
-19.7
  0
LINE
  5
655
100
AcDbEntity
  8
ASSI
100
AcDbLine
 62
7
  6
CONTINUOUS
 10
7.4
 20
-19.7
 11
7.4890208311
 21
-19.6109791689
  0
LINE
  5
656
100
AcDbEntity
  8
ASSI
100
AcDbLine
 62
250
  6
CONTINUOUS
 10
9.4555325688
 20
-18.2122790847
 11
9.2839006568
 21
-18.3839109968
  0
LINE
  5
657
100
AcDbEntity
  8
ASSI
100
AcDbLine
 62
7
  6
CONTINUOUS
 10
7.8024659223
 20
-17.7912732553
 11
7.75839524
 21
-17.8206532958
  0
LWPOLYLINE
  5
658
100
AcDbEntity
  8
ASSI
100
AcDbPolyline
 62
7
  6
CONTINUOUS
 90
7
 70
0
 10
3.3971421731
 20
19.9
 10
3.3827914879
 20
19.898590258
 10
3.3626351204
 20
19.8972177047
 10
3.3366730706
 20
19.89588234
 10
3.3047428547
 20
19.8945746279
 10
3.2670069565
 20
19.8933041044
 10
3.2239528279
 20
19.8920993775
  0
LINE
  5
659
100
AcDbEntity
  8
ASSI
100
AcDbLine
 62
7
  6
CONTINUOUS
 10
3.2239528279
 20
19.8920993775
 11
3.1214870368
 21
19.8898925864
  0
LINE
  5
65A
100
AcDbEntity
  8
ASSI
100
AcDbLine
 62
7
  6
CONTINUOUS
 10
3.1214870368
 20
19.8898925864
 11
3.0009620703
 21
19.8880130796
  0
LINE
  5
65B
100
AcDbEntity
  8
ASSI
100
AcDbLine
 62
7
  6
CONTINUOUS
 10
3.0009620703
 20
19.8880130796
 11
2.864745561
 21
19.8864962431
  0
LINE
  5
65C
100
AcDbEntity
  8
ASSI
100
AcDbLine
 62
7
  6
CONTINUOUS
 10
2.864745561
 20
19.8864962431
 11
2.716563145
 21
19.8853877661
  0
LINE
  5
65D
100
AcDbEntity
  8
ASSI
100
AcDbLine
 62
7
  6
CONTINUOUS
 10
2.716563145
 20
19.8853877661
 11
2.5616489728
 21
19.8847148304
  0
LINE
  5
65E
100
AcDbEntity
  8
ASSI
100
AcDbLine
 62
250
  6
CONTINUOUS
 10
-0.8133607405
 20
18.3839109968
 11
9.2839006568
 21
18.3839109968
  0
LINE
  5
65F
100
AcDbEntity
  8
ASSI
100
AcDbLine
 62
250
  6
CONTINUOUS
 10
-1.3906230764
 20
19.3837586919
 11
9.2839006568
 21
19.3837586919
  0
LINE
  5
660
100
AcDbEntity
  8
ASSI
100
AcDbLine
 62
7
  6
CONTINUOUS
 10
-2.3479810197
 20
19.3927908573
 11
-1.3958377995
 21
19.3927908573
  0
LINE
  5
661
100
AcDbEntity
  8
ASSI
100
AcDbLine
 62
7
  6
CONTINUOUS
 10
-7.4890208311
 20
19.6109791689
 11
-5.6609791689
 21
19.6109791689
  0
LINE
  5
662
100
AcDbEntity
  8
ASSI
100
AcDbLine
 62
7
  6
CONTINUOUS
 10
9.37801846
 20
19.6109791689
 11
7.4890208311
 21
19.6109791689
  0
LINE
  5
663
100
AcDbEntity
  8
ASSI
100
AcDbLine
 62
7
  6
CONTINUOUS
 10
-2.6781668996
 20
19.6109791689
 11
5.6609791689
 21
19.6109791689
  0
LINE
  5
664
100
AcDbEntity
  8
ASSI
100
AcDbLine
 62
7
  6
CONTINUOUS
 10
7.4
 20
19.7
 11
5.75
 21
19.7
  0
LINE
  5
665
100
AcDbEntity
  8
ASSI
100
AcDbLine
 62
7
  6
CONTINUOUS
 10
-5.75
 20
19.7
 11
-7.4
 21
19.7
  0
LINE
  5
666
100
AcDbEntity
  8
RACCORDO
100
AcDbLine
 62
250
  6
CONTINUOUS
 10
-6.4482213147
 20
19.7240686345
 11
-5.75
 21
19.7240686345
  0
LINE
  5
667
100
AcDbEntity
  8
RACCORDO
100
AcDbLine
 62
250
  6
CONTINUOUS
 10
5.75
 20
19.7240686345
 11
6.4482213147
 21
19.7240686345
  0
LINE
  5
668
100
AcDbEntity
  8
RACCORDO
100
AcDbLine
 62
250
  6
CONTINUOUS
 10
-7.2429784985
 20
19.7570215015
 11
-6.5570215015
 21
19.7570215015
  0
LINE
  5
669
100
AcDbEntity
  8
RACCORDO
100
AcDbLine
 62
250
  6
CONTINUOUS
 10
6.5570215015
 20
19.7570215015
 11
7.2429784985
 21
19.7570215015
  0
LINE
  5
66A
100
AcDbEntity
  8
ASSI
100
AcDbLine
 62
7
  6
CONTINUOUS
 10
-5.6609791689
 20
19.8109791689
 11
5.6609791689
 21
19.8109791689
  0
LINE
  5
66B
100
AcDbEntity
  8
ASSI
100
AcDbLine
 62
7
  6
CONTINUOUS
 10
-5.75
 20
19.9
 11
-3.3944895032
 21
19.9
  0
LINE
  5
66C
100
AcDbEntity
  8
ASSI
100
AcDbLine
 62
7
  6
CONTINUOUS
 10
3.3944894944
 20
19.9
 11
5.75
 21
19.9
  0
LINE
  5
66D
100
AcDbEntity
  8
RACCORDO
100
AcDbLine
 62
250
  6
CONTINUOUS
 10
-6.4493747267
 20
19.9240610192
 11
-3.3992104523
 21
19.9240610192
  0
LINE
  5
66E
100
AcDbEntity
  8
RACCORDO
100
AcDbLine
 62
250
  6
CONTINUOUS
 10
3.3992104523
 20
19.9240610192
 11
6.4493747267
 21
19.9240610192
  0
LINE
  5
66F
100
AcDbEntity
  8
RACCORDO
100
AcDbLine
 62
250
  6
CONTINUOUS
 10
-7.2418217019
 20
19.9570181168
 11
-6.5581782981
 21
19.9570181168
  0
LINE
  5
670
100
AcDbEntity
  8
RACCORDO
100
AcDbLine
 62
250
  6
CONTINUOUS
 10
6.5581782981
 20
19.9570181168
 11
7.2418217019
 21
19.9570181168
  0
LINE
  5
671
100
AcDbEntity
  8
ASSI
100
AcDbLine
 62
7
  6
CONTINUOUS
 10
2.5616489728
 20
19.8847148304
 11
-2.4823012121
 21
19.8845455419
  0
LINE
  5
672
100
AcDbEntity
  8
ASSI
100
AcDbLine
 62
7
  6
CONTINUOUS
 10
-2.4823012121
 20
19.8845455419
 11
-2.6395669596
 21
19.8849945435
  0
LINE
  5
673
100
AcDbEntity
  8
ASSI
100
AcDbLine
 62
7
  6
CONTINUOUS
 10
-2.6395669596
 20
19.8849945435
 11
-2.7921292211
 21
19.8858914101
  0
LINE
  5
674
100
AcDbEntity
  8
ASSI
100
AcDbLine
 62
7
  6
CONTINUOUS
 10
-2.7921292211
 20
19.8858914101
 11
-2.9343285598
 21
19.8872040639
  0
LINE
  5
675
100
AcDbEntity
  8
ASSI
100
AcDbLine
 62
7
  6
CONTINUOUS
 10
-2.9343285598
 20
19.8872040639
 11
-3.0633678771
 21
19.888908574
  0
LWPOLYLINE
  5
676
100
AcDbEntity
  8
ASSI
100
AcDbPolyline
 62
7
  6
CONTINUOUS
 90
9
 70
0
 10
-3.0633678771
 20
19.888908574
 10
-3.175378394
 20
19.8909630696
 10
-3.2239521834
 20
19.892099361
 10
-3.2670063166
 20
19.8933040838
 10
-3.3047422312
 20
19.8945746029
 10
-3.3366725214
 20
19.8958823145
 10
-3.3626347188
 20
19.8972176838
 10
-3.3827912918
 20
19.8985902457
 10
-3.3971422405
 20
19.9
  0
LWPOLYLINE
  5
677
100
AcDbEntity
  8
ASSI
100
AcDbPolyline
 62
250
  6
CONTINUOUS
 90
10
 70
0
 10
9.2839006568
 20
19.3837586919
 10
9.3710401569
 20
19.3799441973
 10
9.4575166857
 20
19.3685517224
 10
9.542672316
 20
19.3496679429
 10
9.6258591699
 20
19.3234365298
 10
9.7064443487
 20
19.2900570559
 10
9.7838147474
 20
19.2497834774
 10
9.8573817195
 20
19.2029222023
 10
9.9265855557
 20
19.1498297586
 10
9.9908997422
 20
19.0909100822
  0
LINE
  5
678
100
AcDbEntity
  8
RACCORDO
100
AcDbLine
 62
7
  6
CONTINUOUS
 10
7.2429784985
 20
19.7570215015
 11
7.3
 21
19.7
  0
LINE
  5
679
100
AcDbEntity
  8
ASSI
100
AcDbLine
 62
7
  6
CONTINUOUS
 10
7.4
 20
19.7
 11
7.4890208311
 21
19.6109791689
  0
LINE
  5
67A
100
AcDbEntity
  8
ASSI
100
AcDbLine
 62
250
  6
CONTINUOUS
 10
9.2839006568
 20
18.3839109968
 11
9.4555325688
 21
18.2122790847
  0
LWPOLYLINE
  5
67B
100
AcDbEntity
  8
ASSI
100
AcDbPolyline
 62
250
  6
CONTINUOUS
 90
13
 70
0
 10
9.4555325688
 20
18.2122790847
 10
9.5004298488
 20
18.16429911
 10
9.5418183071
 20
18.1138845052
 10
9.5796979437
 20
18.0610352703
 10
9.6142187067
 20
18.0054858341
 10
9.6452306481
 20
17.9475017678
 10
9.6722839237
 20
17.8878797846
 10
9.6953097237
 20
17.8265915688
 10
9.7143768579
 20
17.7636654361
 10
9.7292419119
 20
17.6999830467
 10
9.7398237476
 20
17.6358382875
 10
9.7462035032
 20
17.5709372717
 10
9.7483811786
 20
17.5052799993
  0
LINE
  5
67C
100
AcDbEntity
  8
ASSI
100
AcDbLine
 62
7
  6
CONTINUOUS
 10
3.92
 20
23.2563578147
 11
3.7865516394
 21
23.4022714213
  0
LINE
  5
67D
100
AcDbEntity
  8
ASSI
100
AcDbLine
 62
7
  6
CONTINUOUS
 10
3.7865516394
 20
23.4022714213
 11
3.7230597168
 21
23.4723003634
  0
LINE
  5
67E
100
AcDbEntity
  8
ASSI
100
AcDbLine
 62
7
  6
CONTINUOUS
 10
3.7230597168
 20
23.4723003634
 11
3.6848436115
 21
23.5148406349
  0
LINE
  5
67F
100
AcDbEntity
  8
ASSI
100
AcDbLine
 62
7
  6
CONTINUOUS
 10
3.6848436115
 20
23.5148406349
 11
3.65055353
 21
23.5534262836
  0
LWPOLYLINE
  5
680
100
AcDbEntity
  8
ASSI
100
AcDbPolyline
 62
7
  6
CONTINUOUS
 90
20
 70
0
 10
3.65055353
 20
23.5534262836
 10
3.6202955175
 20
23.5879364094
 10
3.6066335265
 20
23.6037158125
 10
3.5939294816
 20
23.6185236421
 10
3.5821174294
 20
23.632455413
 10
3.5711974952
 20
23.6455059896
 10
3.5611483115
 20
23.6576805076
 10
3.5518911448
 20
23.6690898891
 10
3.54341781
 20
23.6797519146
 10
3.5357317444
 20
23.6896488036
 10
3.5287940427
 20
23.6988381364
 10
3.5225902422
 20
23.7073421732
 10
3.5171434961
 20
23.7151386538
 10
3.5124708266
 20
23.722218378
 10
3.5085599982
 20
23.7285675423
 10
3.5054014196
 20
23.7341999501
 10
3.5029931858
 20
23.739147811
 10
3.5013112815
 20
23.7434218616
 10
3.5003230063
 20
23.7470113652
 10
3.5
 20
23.7499163219
  0
LINE
  5
681
100
AcDbEntity
  8
ASSI
100
AcDbLine
 62
250
  6
CONTINUOUS
 10
10.1625316542
 20
-18.9192781701
 11
9.9908997422
 21
-19.0909100822
  0
LINE
  5
682
100
AcDbEntity
  8
ASSI
100
AcDbLine
 62
7
  6
CONTINUOUS
 10
10.0850175454
 20
-19.3181305591
 11
8.5531481045
 21
-20.85
  0
LINE
  5
683
100
AcDbEntity
  8
RACCORDO
100
AcDbLine
 62
7
  6
CONTINUOUS
 10
7.2587268678
 20
-22.3912731322
 11
8.25
 21
-21.4
  0
LINE
  5
684
100
AcDbEntity
  8
ASSI
100
AcDbLine
 62
7
  6
CONTINUOUS
 10
8.8
 20
-20.85
 11
10.5643027805
 21
-19.0856972195
  0
LINE
  5
685
100
AcDbEntity
  8
DRAFT
100
AcDbLine
 62
7
  6
CONTINUOUS
 10
10.2776691233
 20
-19.5223308767
 11
8.9
 21
-20.9
  0
LWPOLYLINE
  5
686
100
AcDbEntity
  8
ASSI
100
AcDbPolyline
 62
250
  6
CONTINUOUS
 90
10
 70
0
 10
9.9908997422
 20
-19.0909100822
 10
9.9265855557
 20
-19.1498297586
 10
9.8573817195
 20
-19.2029222023
 10
9.7838147474
 20
-19.2497834774
 10
9.7064443487
 20
-19.2900570559
 10
9.6258591699
 20
-19.3234365298
 10
9.542672316
 20
-19.3496679429
 10
9.4575166857
 20
-19.3685517224
 10
9.3710401569
 20
-19.3799441973
 10
9.2839006568
 20
-19.3837586919
  0
LINE
  5
687
100
AcDbEntity
  8
DRAFT
100
AcDbLine
 62
7
  6
CONTINUOUS
 10
-3.5
 20
20.0
 11
-3.3993520779
 21
20.0
  0
LINE
  5
688
100
AcDbEntity
  8
DRAFT
100
AcDbLine
 62
7
  6
CONTINUOUS
 10
3.3993520779
 20
20.0
 11
3.5
 21
20.0
  0
LINE
  5
689
100
AcDbEntity
  8
DRAFT
100
AcDbLine
 62
7
  6
CONTINUOUS
 10
2.5
 20
20.0532338935
 11
2.4413111231
 21
20.0532338935
  0
LINE
  5
68A
100
AcDbEntity
  8
DRAFT
100
AcDbLine
 62
7
  6
CONTINUOUS
 10
-2.4413111231
 20
20.0532338935
 11
-2.5
 21
20.0532338935
  0
LINE
  5
68B
100
AcDbEntity
  8
RACCORDO
100
AcDbLine
 62
250
  6
CONTINUOUS
 10
-6.557024886
 20
20.0855385354
 11
6.557024886
 21
20.0855385354
  0
LINE
  5
68C
100
AcDbEntity
  8
RACCORDO
100
AcDbLine
 62
250
  6
CONTINUOUS
 10
7.4
 20
20.243777851
 11
7.3517786853
 21
20.243777851
  0
LINE
  5
68D
100
AcDbEntity
  8
RACCORDO
100
AcDbLine
 62
250
  6
CONTINUOUS
 10
-7.3517786853
 20
20.243777851
 11
-7.4
 21
20.243777851
  0
LINE
  5
68E
100
AcDbEntity
  8
RACCORDO
100
AcDbLine
 62
250
  6
CONTINUOUS
 10
-6.5581782981
 20
20.28553092
 11
6.5581782981
 21
20.28553092
  0
LINE
  5
68F
100
AcDbEntity
  8
RACCORDO
100
AcDbLine
 62
250
  6
CONTINUOUS
 10
7.4
 20
20.443503758
 11
7.3506760157
 21
20.443503758
  0
LINE
  5
690
100
AcDbEntity
  8
RACCORDO
100
AcDbLine
 62
250
  6
CONTINUOUS
 10
-7.3506760157
 20
20.443503758
 11
-7.4
 21
20.443503758
  0
LINE
  5
691
100
AcDbEntity
  8
ASSI
100
AcDbLine
 62
7
  6
CONTINUOUS
 10
7.4
 20
20.85
 11
8.8
 21
20.85
  0
LINE
  5
692
100
AcDbEntity
  8
ASSI
100
AcDbLine
 62
7
  6
CONTINUOUS
 10
-7.4
 20
20.85
 11
-8.8
 21
20.85
  0
LINE
  5
693
100
AcDbEntity
  8
DRAFT
100
AcDbLine
 62
7
  6
CONTINUOUS
 10
-8.9
 20
20.9
 11
-8.25
 21
20.9
  0
LINE
  5
694
100
AcDbEntity
  8
DRAFT
100
AcDbLine
 62
7
  6
CONTINUOUS
 10
8.25
 20
20.9
 11
8.9
 21
20.9
  0
LINE
  5
695
100
AcDbEntity
  8
DRAFT
100
AcDbLine
 62
7
  6
CONTINUOUS
 10
8.2465127091
 20
20.9104703804
 11
7.2988376746
 21
20.9104703804
  0
LINE
  5
696
100
AcDbEntity
  8
DRAFT
100
AcDbLine
 62
7
  6
CONTINUOUS
 10
-7.2988376746
 20
20.9104703804
 11
-8.2465127091
 21
20.9104703804
  0
LINE
  5
697
100
AcDbEntity
  8
RACCORDO
100
AcDbLine
 62
7
  6
CONTINUOUS
 10
7.5841007192
 20
20.9959955457
 11
7.2418217019
 21
20.9959955457
  0
LINE
  5
698
100
AcDbEntity
  8
RACCORDO
100
AcDbLine
 62
7
  6
CONTINUOUS
 10
-7.2418217019
 20
20.9959955457
 11
-7.5841007192
 21
20.9959955457
  0
LINE
  5
699
100
AcDbEntity
  8
0
100
AcDbLine
 62
7
  6
CONTINUOUS
 10
-3.0
 20
21.0
 11
3.0
 21
21.0
  0
LINE
  5
69A
100
AcDbEntity
  8
RACCORDO
100
AcDbLine
 62
250
  6
CONTINUOUS
 10
7.5841007192
 20
21.3126932437
 11
3.0
 21
21.3126932437
  0
LINE
  5
69B
100
AcDbEntity
  8
RACCORDO
100
AcDbLine
 62
250
  6
CONTINUOUS
 10
-3.0
 20
21.3126932437
 11
-7.5841007192
 21
21.3126932437
  0
LINE
  5
69C
100
AcDbEntity
  8
0
100
AcDbLine
 62
7
  6
CONTINUOUS
 10
-3.0
 20
21.7
 11
3.0
 21
21.7
  0
LINE
  5
69D
100
AcDbEntity
  8
ASSI
100
AcDbLine
 62
250
  6
CONTINUOUS
 10
9.9908997422
 20
19.0909100822
 11
10.1625316542
 21
18.9192781701
  0
LINE
  5
69E
100
AcDbEntity
  8
ASSI
100
AcDbLine
 62
7
  6
CONTINUOUS
 10
8.5531481045
 20
20.85
 11
10.0850175454
 21
19.3181305591
  0
LINE
  5
69F
100
AcDbEntity
  8
ASSI
100
AcDbLine
 62
7
  6
CONTINUOUS
 10
10.5643027805
 20
19.0856972195
 11
8.8
 21
20.85
  0
LINE
  5
6A0
100
AcDbEntity
  8
RACCORDO
100
AcDbLine
 62
7
  6
CONTINUOUS
 10
8.25
 20
21.4
 11
7.2587268678
 21
22.3912731322
  0
LINE
  5
6A1
100
AcDbEntity
  8
DRAFT
100
AcDbLine
 62
7
  6
CONTINUOUS
 10
9.65
 20
20.15
 11
8.9
 21
20.9
  0
LWPOLYLINE
  5
6A2
100
AcDbEntity
  8
ASSI
100
AcDbPolyline
 62
250
  6
CONTINUOUS
 90
13
 70
0
 10
10.1625316542
 20
18.9192781701
 10
10.2519875883
 20
18.8237553162
 10
10.3350012011
 20
18.7225911805
 10
10.4112179959
 20
18.616219623
 10
10.4803116835
 20
18.5050983806
 10
10.5419886735
 20
18.3897021729
 10
10.5959882076
 20
18.2705200591
 10
10.6420791557
 20
18.1480621446
 10
10.6800642661
 20
18.0228525683
 10
10.7097821202
 20
17.8954215366
 10
10.7311046556
 20
17.7663123287
 10
10.7439389411
 20
17.6360793331
 10
10.7482288738
 20
17.5052799993
  0
LINE
  5
6A3
100
AcDbEntity
  8
RACCORDO
100
AcDbLine
 62
250
  6
CONTINUOUS
 10
8.254371834
 20
-24.2456323968
 11
8.25
 21
-24.2500042308
  0
LINE
  5
6A4
100
AcDbEntity
  8
RACCORDO
100
AcDbLine
 62
250
  6
CONTINUOUS
 10
8.5043676032
 20
-24.495628166
 11
8.4999957692
 21
-24.5
  0
LINE
  5
6A5
100
AcDbEntity
  8
RACCORDO
100
AcDbLine
 62
7
  6
CONTINUOUS
 10
8.0840245667
 20
-20.9917082642
 11
8.2465127091
 21
-20.9104703804
  0
LINE
  5
6A6
100
AcDbEntity
  8
RACCORDO
100
AcDbLine
 62
250
  6
CONTINUOUS
 10
7.3373448332
 20
22.3126551668
 11
3.0
 21
22.3126551668
  0
LINE
  5
6A7
100
AcDbEntity
  8
RACCORDO
100
AcDbLine
 62
250
  6
CONTINUOUS
 10
-3.0
 20
22.3126551668
 11
-7.3373448332
 21
22.3126551668
  0
LINE
  5
6A8
100
AcDbEntity
  8
DRAFT
100
AcDbLine
 62
7
  6
CONTINUOUS
 10
-3.9358937422
 20
22.3301850577
 11
-3.92
 21
22.3301850577
  0
LINE
  5
6A9
100
AcDbEntity
  8
DRAFT
100
AcDbLine
 62
7
  6
CONTINUOUS
 10
3.92
 20
22.3301850577
 11
3.9358937422
 21
22.3301850577
  0
LINE
  5
6AA
100
AcDbEntity
  8
DRAFT
100
AcDbLine
 62
7
  6
CONTINUOUS
 10
3.5
 20
22.3380392387
 11
3.0
 21
22.3380392387
  0
LINE
  5
6AB
100
AcDbEntity
  8
DRAFT
100
AcDbLine
 62
7
  6
CONTINUOUS
 10
-3.0
 20
22.3380392387
 11
-3.5
 21
22.3380392387
  0
LINE
  5
6AC
100
AcDbEntity
  8
RACCORDO
100
AcDbLine
 62
7
  6
CONTINUOUS
 10
10.6998629074
 20
22.3912731322
 11
7.2587268678
 21
22.3912731322
  0
LINE
  5
6AD
100
AcDbEntity
  8
RACCORDO
100
AcDbLine
 62
7
  6
CONTINUOUS
 10
-7.2587268678
 20
22.3912731322
 11
-10.6998629074
 21
22.3912731322
  0
LINE
  5
6AE
100
AcDbEntity
  8
RACCORDO
100
AcDbLine
 62
7
  6
CONTINUOUS
 10
-10.6824078424
 20
22.4
 11
-10.65
 21
22.4
  0
LINE
  5
6AF
100
AcDbEntity
  8
DRAFT
100
AcDbLine
 62
7
  6
CONTINUOUS
 10
4.4
 20
22.4
 11
10.65
 21
22.4
  0
LINE
  5
6B0
100
AcDbEntity
  8
RACCORDO
100
AcDbLine
 62
7
  6
CONTINUOUS
 10
10.65
 20
22.4
 11
10.6824078424
 21
22.4
  0
LINE
  5
6B1
100
AcDbEntity
  8
DRAFT
100
AcDbLine
 62
7
  6
CONTINUOUS
 10
-4.4
 20
22.4
 11
-10.65
 21
22.4
  0
LINE
  5
6B2
100
AcDbEntity
  8
RACCORDO
100
AcDbLine
 62
7
  6
CONTINUOUS
 10
10.4007229979
 20
23.1226497308
 11
8.4992770021
 21
23.1226497308
  0
LINE
  5
6B3
100
AcDbEntity
  8
RACCORDO
100
AcDbLine
 62
7
  6
CONTINUOUS
 10
-8.4992770021
 20
23.1226497308
 11
-10.4007229979
 21
23.1226497308
  0
LINE
  5
6B4
100
AcDbEntity
  8
ASSI
100
AcDbLine
 62
250
  6
CONTINUOUS
 10
-3.9358937422
 20
23.2563578147
 11
-3.92
 21
23.2563578147
  0
LINE
  5
6B5
100
AcDbEntity
  8
ASSI
100
AcDbLine
 62
250
  6
CONTINUOUS
 10
3.92
 20
23.2563578147
 11
3.9358937422
 21
23.2563578147
  0
LINE
  5
6B6
100
AcDbEntity
  8
RACCORDO
100
AcDbLine
 62
7
  6
CONTINUOUS
 10
8.0840245667
 20
20.9917082642
 11
8.2465127091
 21
20.9104703804
  0
LINE
  5
6B7
100
AcDbEntity
  8
RACCORDO
100
AcDbLine
 62
250
  6
CONTINUOUS
 10
8.254371834
 20
24.2456323968
 11
8.25
 21
24.2500042308
  0
LINE
  5
6B8
100
AcDbEntity
  8
RACCORDO
100
AcDbLine
 62
250
  6
CONTINUOUS
 10
8.5043676032
 20
24.495628166
 11
8.4999957692
 21
24.5
  0
LINE
  5
6B9
100
AcDbEntity
  8
RACCORDO
100
AcDbLine
 62
250
  6
CONTINUOUS
 10
10.6998629074
 20
-22.3912731322
 11
10.6824078424
 21
-22.4
  0
LWPOLYLINE
  5
6BA
100
AcDbEntity
  8
RACCORDO
100
AcDbPolyline
 62
7
  6
CONTINUOUS
 90
11
 70
0
 10
10.883667383
 20
-22.35250266
 10
10.8695983443
 20
-22.3592345029
 10
10.8499172646
 20
-22.367675635
 10
10.8298557694
 20
-22.3751712897
 10
10.8094587271
 20
-22.3817043981
 10
10.7887808768
 20
-22.3872577575
 10
10.7678605409
 20
-22.3918214033
 10
10.7467181301
 20
-22.3953885686
 10
10.7253919328
 20
-22.3979478745
 10
10.7039389315
 20
-22.3994875925
 10
10.6824078424
 20
-22.4
  0
LINE
  5
6BB
100
AcDbEntity
  8
RACCORDO
100
AcDbLine
 62
250
  6
CONTINUOUS
 10
-10.3956323968
 20
23.6278312164
 11
-8.5043676032
 21
23.6278312164
  0
LINE
  5
6BC
100
AcDbEntity
  8
RACCORDO
100
AcDbLine
 62
250
  6
CONTINUOUS
 10
8.5043676032
 20
23.6278312164
 11
10.3956323968
 21
23.6278312164
  0
LINE
  5
6BD
100
AcDbEntity
  8
ASSI
100
AcDbLine
 62
250
  6
CONTINUOUS
 10
-4.3563493531
 20
23.7563493531
 11
-3.5
 21
23.7563493531
  0
LINE
  5
6BE
100
AcDbEntity
  8
ASSI
100
AcDbLine
 62
250
  6
CONTINUOUS
 10
3.5
 20
23.7563493531
 11
4.3563493531
 21
23.7563493531
  0
LINE
  5
6BF
100
AcDbEntity
  8
DRAFT
100
AcDbLine
 62
7
  6
CONTINUOUS
 10
-3.5
 20
23.7941821702
 11
3.5
 21
23.7941821702
  0
LINE
  5
6C0
100
AcDbEntity
  8
DRAFT
100
AcDbLine
 62
7
  6
CONTINUOUS
 10
4.4
 20
23.8
 11
-4.4
 21
23.8
  0
LINE
  5
6C1
100
AcDbEntity
  8
RACCORDO
100
AcDbLine
 62
250
  6
CONTINUOUS
 10
8.254371834
 20
23.8443375673
 11
10.645628166
 21
23.8443375673
  0
LINE
  5
6C2
100
AcDbEntity
  8
RACCORDO
100
AcDbLine
 62
250
  6
CONTINUOUS
 10
-8.254371834
 20
23.8443375673
 11
-10.645628166
 21
23.8443375673
  0
LINE
  5
6C3
100
AcDbEntity
  8
RACCORDO
100
AcDbLine
 62
250
  6
CONTINUOUS
 10
8.254371834
 20
24.2456323968
 11
10.645628166
 21
24.2456323968
  0
LINE
  5
6C4
100
AcDbEntity
  8
RACCORDO
100
AcDbLine
 62
250
  6
CONTINUOUS
 10
-8.254371834
 20
24.2456323968
 11
-10.645628166
 21
24.2456323968
  0
LINE
  5
6C5
100
AcDbEntity
  8
RACCORDO
100
AcDbLine
 62
250
  6
CONTINUOUS
 10
10.3956323968
 20
24.495628166
 11
8.5043676032
 21
24.495628166
  0
LINE
  5
6C6
100
AcDbEntity
  8
RACCORDO
100
AcDbLine
 62
250
  6
CONTINUOUS
 10
-8.5043676032
 20
24.495628166
 11
-10.3956323968
 21
24.495628166
  0
LINE
  5
6C7
100
AcDbEntity
  8
RACCORDO
100
AcDbLine
 62
7
  6
CONTINUOUS
 10
10.4000042308
 20
24.5
 11
8.4999957692
 21
24.5
  0
LINE
  5
6C8
100
AcDbEntity
  8
RACCORDO
100
AcDbLine
 62
7
  6
CONTINUOUS
 10
-8.4999957692
 20
24.5
 11
-10.4000042308
 21
24.5
  0
LWPOLYLINE
  5
6C9
100
AcDbEntity
  8
RACCORDO
100
AcDbPolyline
 62
7
  6
CONTINUOUS
 90
34
 70
0
 10
-8.4999957692
 20
24.5
 10
-8.488100484
 20
24.4997168498
 10
-8.4762321444
 20
24.4988680342
 10
-8.4644176339
 20
24.4974554741
 10
-8.4526837125
 20
24.4954823677
 10
-8.4410569612
 20
24.4929531817
 10
-8.429563721
 20
24.4898736417
 10
-8.4182300262
 20
24.4862507213
 10
-8.4070815507
 20
24.4820926258
 10
-8.3961435537
 20
24.4774087722
 10
-8.3854408124
 20
24.4722097688
 10
-8.3749975717
 20
24.4665073916
 10
-8.3648374941
 20
24.4603145581
 10
-8.3549835949
 20
24.4536452955
 10
-8.3454581962
 20
24.4465147107
 10
-8.3362828809
 20
24.4389389589
 10
-8.3274784339
 20
24.4309352005
 10
-8.3190647995
 20
24.4225215661
 10
-8.3110610411
 20
24.4137171191
 10
-8.3034852893
 20
24.4045418038
 10
-8.2963547045
 20
24.3950164051
 10
-8.2896854419
 20
24.3851625059
 10
-8.2834926084
 20
24.3750024283
 10
-8.2777902312
 20
24.3645591876
 10
-8.2725912278
 20
24.3538564463
 10
-8.2679073742
 20
24.3429184493
 10
-8.2637492787
 20
24.3317699738
 10
-8.2601263583
 20
24.320436279
 10
-8.2570468183
 20
24.3089430388
 10
-8.2545176323
 20
24.2973162875
 10
-8.2525445259
 20
24.2855823661
 10
-8.2511319658
 20
24.2737678556
 10
-8.2502831502
 20
24.261899516
 10
-8.25
 20
24.2500042308
  0
LWPOLYLINE
  5
6CA
100
AcDbEntity
  8
RACCORDO
100
AcDbPolyline
 62
7
  6
CONTINUOUS
 90
34
 70
0
 10
10.4000042308
 20
24.5
 10
10.411899516
 20
24.4997168498
 10
10.4237678556
 20
24.4988680342
 10
10.4355823661
 20
24.4974554741
 10
10.4473162875
 20
24.4954823677
 10
10.4589430388
 20
24.4929531817
 10
10.470436279
 20
24.4898736417
 10
10.4817699738
 20
24.4862507213
 10
10.4929184493
 20
24.4820926258
 10
10.5038564463
 20
24.4774087722
 10
10.5145591876
 20
24.4722097688
 10
10.5250024283
 20
24.4665073916
 10
10.5351625059
 20
24.4603145581
 10
10.5450164051
 20
24.4536452955
 10
10.5545418038
 20
24.4465147107
 10
10.5637171191
 20
24.4389389589
 10
10.5725215661
 20
24.4309352005
 10
10.5809352005
 20
24.4225215661
 10
10.5889389589
 20
24.4137171191
 10
10.5965147107
 20
24.4045418038
 10
10.6036452955
 20
24.3950164051
 10
10.6103145581
 20
24.3851625059
 10
10.6165073916
 20
24.3750024283
 10
10.6222097688
 20
24.3645591876
 10
10.6274087722
 20
24.3538564463
 10
10.6320926258
 20
24.3429184493
 10
10.6362507213
 20
24.3317699738
 10
10.6398736417
 20
24.320436279
 10
10.6429531817
 20
24.3089430388
 10
10.6454823677
 20
24.2973162875
 10
10.6474554741
 20
24.2855823661
 10
10.6488680342
 20
24.2737678556
 10
10.6497168498
 20
24.261899516
 10
10.65
 20
24.2500042308
  0
LWPOLYLINE
  5
6CB
100
AcDbEntity
  8
RACCORDO
100
AcDbPolyline
 62
250
  6
CONTINUOUS
 90
31
 70
0
 10
-8.5043676032
 20
24.495628166
 10
-8.4912841172
 20
24.4952851274
 10
-8.4782364906
 20
24.4942578375
 10
-8.4652604845
 20
24.492549112
 10
-8.4523916636
 20
24.490163634
 10
-8.4396652991
 20
24.4871079418
 10
-8.4271162714
 20
24.4833904104
 10
-8.4147789751
 20
24.4790212289
 10
-8.4026872245
 20
24.4740123724
 10
-8.3908741607
 20
24.4683775693
 10
-8.3793721611
 20
24.4621322634
 10
-8.3682127506
 20
24.455293572
 10
-8.357426515
 20
24.4478802386
 10
-8.3470430174
 20
24.4399125818
 10
-8.3370907169
 20
24.4314124395
 10
-8.327596891
 20
24.422403109
 10
-8.3185875605
 20
24.4129092831
 10
-8.3100874182
 20
24.4029569826
 10
-8.3021197614
 20
24.392573485
 10
-8.294706428
 20
24.3817872494
 10
-8.2878677366
 20
24.3706278389
 10
-8.2816224307
 20
24.3591258393
 10
-8.2759876276
 20
24.3473127755
 10
-8.2709787711
 20
24.3352210249
 10
-8.2666095896
 20
24.3228837286
 10
-8.2628920582
 20
24.3103347009
 10
-8.259836366
 20
24.2976083364
 10
-8.257450888
 20
24.2847395155
 10
-8.2557421625
 20
24.2717635094
 10
-8.2547148726
 20
24.2587158828
 10
-8.254371834
 20
24.2456323968
  0
LWPOLYLINE
  5
6CC
100
AcDbEntity
  8
RACCORDO
100
AcDbPolyline
 62
250
  6
CONTINUOUS
 90
31
 70
0
 10
10.3956323968
 20
24.495628166
 10
10.4086847368
 20
24.4952867588
 10
10.4217096311
 20
24.4942634962
 10
10.4346714057
 20
24.492559892
 10
10.4475371245
 20
24.4901787618
 10
10.4602685897
 20
24.4871256484
 10
10.4728227742
 20
24.4834102087
 10
10.4851625782
 20
24.4790436576
 10
10.4972569343
 20
24.4740372277
 10
10.5090730125
 20
24.4684044791
 10
10.520578613
 20
24.4621606774
 10
10.5317419314
 20
24.4553229956
 10
10.5425320106
 20
24.4479103656
 10
10.5529191364
 20
24.4399432233
 10
10.5628749736
 20
24.4314433264
 10
10.572372308
 20
24.4224339046
 10
10.5813851271
 20
24.4129396114
 10
10.5898886687
 20
24.402986508
 10
10.5978595768
 20
24.3926019187
 10
10.6052759837
 20
24.3818143284
 10
10.6121175595
 20
24.3706533025
 10
10.6183655387
 20
24.3591494467
 10
10.6240027869
 20
24.347334301
 10
10.6290138424
 20
24.3352402638
 10
10.6333849575
 20
24.3229005077
 10
10.637104147
 20
24.3103488602
 10
10.6401612081
 20
24.2976197463
 10
10.6425477509
 20
24.2847481067
 10
10.644257234
 20
24.2717692492
 10
10.645284977
 20
24.2587187509
 10
10.645628166
 20
24.2456323968
  0
LWPOLYLINE
  5
6CD
100
AcDbEntity
  8
RACCORDO
100
AcDbPolyline
 62
7
  6
CONTINUOUS
 90
11
 70
0
 10
10.8836670517
 20
22.3525028256
 10
10.8695978633
 20
22.359234736
 10
10.8499168264
 20
22.3676758378
 10
10.8298553757
 20
22.375171463
 10
10.8094583804
 20
22.3817045428
 10
10.7887805794
 20
22.3872578746
 10
10.7678602952
 20
22.3918214941
 10
10.7467179399
 20
22.3953886342
 10
10.7253918024
 20
22.3979479162
 10
10.7039388646
 20
22.3994876122
 10
10.6824078424
 20
22.4
  0
LINE
  5
6CE
100
AcDbEntity
  8
RACCORDO
100
AcDbLine
 62
250
  6
CONTINUOUS
 10
10.6824078424
 20
22.4
 11
10.6998629074
 21
22.3912731322
  0
ARC
  5
6CF
100
AcDbEntity
  8
ASSI
100
AcDbCircle
 62
250
  6
CONTINUOUS
 10
-7.5
 20
-11.55
 40
3.3748973659
100
AcDbArc
 50
45.6155594791
 51
131.7749809217
  0
ARC
  5
6D0
100
AcDbEntity
  8
ASSI
100
AcDbCircle
 62
250
  6
CONTINUOUS
 10
-7.5
 20
-11.55
 40
3.3748966382
100
AcDbArc
 50
228.2250190783
 51
314.3844405113
  0
ARC
  5
6D1
100
AcDbEntity
  8
ASSI
100
AcDbCircle
 62
250
  6
CONTINUOUS
 10
-7.5
 20
-11.55
 40
3.0760409277
100
AcDbArc
 50
45.6155594224
 51
131.7749809217
  0
ARC
  5
6D2
100
AcDbEntity
  8
ASSI
100
AcDbCircle
 62
250
  6
CONTINUOUS
 10
-7.5
 20
-11.55
 40
3.0760409222
100
AcDbArc
 50
228.2250190783
 51
314.3844405145
  0
ARC
  5
6D3
100
AcDbEntity
  8
ASSI
100
AcDbCircle
 62
250
  6
CONTINUOUS
 10
-7.5
 20
-11.55
 40
2.9489817148
100
AcDbArc
 50
43.5102099848
 51
316.4897899876
  0
ARC
  5
6D4
100
AcDbEntity
  8
ASSI
100
AcDbCircle
 62
250
  6
CONTINUOUS
 10
-7.5
 20
-11.55
 40
2.6501217491
100
AcDbArc
 50
43.5102099883
 51
316.4897899929
  0
CIRCLE
  5
6D5
100
AcDbEntity
  8
ASSI
100
AcDbCircle
 62
250
  6
CONTINUOUS
 10
-7.5
 20
-11.55
 40
2.4451585243
  0
CIRCLE
  5
6D6
100
AcDbEntity
  8
ASSI
100
AcDbCircle
 62
250
  6
CONTINUOUS
 10
-7.5
 20
-11.55
 40
2.1473996246
  0
CIRCLE
  5
6D7
100
AcDbEntity
  8
ASSI
100
AcDbCircle
 62
7
  6
CONTINUOUS
 10
-7.5
 20
-11.55
 40
1.75
  0
ARC
  5
6D8
100
AcDbEntity
  8
DRAFT
100
AcDbCircle
 62
7
  6
CONTINUOUS
 10
-4.75
 20
-18.0
 40
0.7805440373
100
AcDbArc
 50
11.7721121025
 51
14.4251140757
  0
ARC
  5
6D9
100
AcDbEntity
  8
DRAFT
100
AcDbCircle
 62
7
  6
CONTINUOUS
 10
-4.75
 20
-18.0
 40
0.7805440373
100
AcDbArc
 50
165.5135340327
 51
168.2910617387
  0
ARC
  5
6DA
100
AcDbEntity
  8
DRAFT
100
AcDbCircle
 62
7
  6
CONTINUOUS
 10
-4.75
 20
-18.0
 40
0.75
100
AcDbArc
 50
12.2545500822
 51
15.0192441308
  0
ARC
  5
6DB
100
AcDbEntity
  8
DRAFT
100
AcDbCircle
 62
7
  6
CONTINUOUS
 10
-4.75
 20
-18.0
 40
0.75
100
AcDbArc
 50
164.9180972942
 51
167.8082630083
  0
ARC
  5
6DC
100
AcDbEntity
  8
ASSI
100
AcDbCircle
 62
250
  6
CONTINUOUS
 10
-2.5
 20
-11.55
 40
3.3748961649
100
AcDbArc
 50
225.6155594883
 51
314.3844405205
  0
ARC
  5
6DD
100
AcDbEntity
  8
ASSI
100
AcDbCircle
 62
250
  6
CONTINUOUS
 10
-2.5
 20
-11.55
 40
3.3748961649
100
AcDbArc
 50
45.6155594791
 51
134.3844405205
  0
ARC
  5
6DE
100
AcDbEntity
  8
ASSI
100
AcDbCircle
 62
250
  6
CONTINUOUS
 10
-2.5
 20
-11.55
 40
3.0760409189
100
AcDbArc
 50
225.6155594324
 51
314.3844405245
  0
ARC
  5
6DF
100
AcDbEntity
  8
ASSI
100
AcDbCircle
 62
250
  6
CONTINUOUS
 10
-2.5
 20
-11.55
 40
3.0760409189
100
AcDbArc
 50
45.6155594224
 51
134.3844405245
  0
ARC
  5
6E0
100
AcDbEntity
  8
ASSI
100
AcDbCircle
 62
250
  6
CONTINUOUS
 10
-2.5
 20
-11.55
 40
2.9489817177
100
AcDbArc
 50
43.5102099848
 51
136.4897900076
  0
ARC
  5
6E1
100
AcDbEntity
  8
ASSI
100
AcDbCircle
 62
250
  6
CONTINUOUS
 10
-2.5
 20
-11.55
 40
2.9489817177
100
AcDbArc
 50
223.5102100048
 51
316.4897900076
  0
ARC
  5
6E2
100
AcDbEntity
  8
ASSI
100
AcDbCircle
 62
250
  6
CONTINUOUS
 10
-2.5
 20
-11.55
 40
2.6501219928
100
AcDbArc
 50
43.5102099883
 51
136.4897900133
  0
ARC
  5
6E3
100
AcDbEntity
  8
ASSI
100
AcDbCircle
 62
250
  6
CONTINUOUS
 10
-2.5
 20
-11.55
 40
2.6501219928
100
AcDbArc
 50
223.5102100087
 51
316.4897900133
  0
CIRCLE
  5
6E4
100
AcDbEntity
  8
ASSI
100
AcDbCircle
 62
250
  6
CONTINUOUS
 10
-2.5
 20
-11.55
 40
2.4451585243
  0
CIRCLE
  5
6E5
100
AcDbEntity
  8
ASSI
100
AcDbCircle
 62
250
  6
CONTINUOUS
 10
-2.5
 20
-11.55
 40
2.1473996246
  0
CIRCLE
  5
6E6
100
AcDbEntity
  8
ASSI
100
AcDbCircle
 62
7
  6
CONTINUOUS
 10
-2.5
 20
-11.55
 40
1.75
  0
ARC
  5
6E7
100
AcDbEntity
  8
ASSI
100
AcDbCircle
 62
250
  6
CONTINUOUS
 10
-3.5650635095
 20
10.15
 40
3.5061323475
100
AcDbArc
 50
77.5694381491
 51
145.3294079958
  0
ARC
  5
6E8
100
AcDbEntity
  8
ASSI
100
AcDbCircle
 62
250
  6
CONTINUOUS
 10
-3.5650635095
 20
10.15
 40
3.3748993522
100
AcDbArc
 50
146.3886477174
 51
344.3844358084
  0
ARC
  5
6E9
100
AcDbEntity
  8
ASSI
100
AcDbCircle
 62
250
  6
CONTINUOUS
 10
-3.5650635095
 20
10.15
 40
3.2072739381
100
AcDbArc
 50
77.5694380022
 51
147.8842525574
  0
ARC
  5
6EA
100
AcDbEntity
  8
ASSI
100
AcDbCircle
 62
250
  6
CONTINUOUS
 10
-3.5650635095
 20
10.15
 40
3.0760409428
100
AcDbArc
 50
149.1855703838
 51
344.3844358078
  0
ARC
  5
6EB
100
AcDbEntity
  8
ASSI
100
AcDbCircle
 62
250
  6
CONTINUOUS
 10
-3.5650635095
 20
10.15
 40
2.9489817151
100
AcDbArc
 50
73.5102145163
 51
346.4897854702
  0
ARC
  5
6EC
100
AcDbEntity
  8
ASSI
100
AcDbCircle
 62
250
  6
CONTINUOUS
 10
-3.5650635095
 20
10.15
 40
2.6501217843
100
AcDbArc
 50
73.5102146522
 51
346.4897853534
  0
CIRCLE
  5
6ED
100
AcDbEntity
  8
ASSI
100
AcDbCircle
 62
250
  6
CONTINUOUS
 10
-3.5650635095
 20
10.15
 40
2.4451616875
  0
CIRCLE
  5
6EE
100
AcDbEntity
  8
ASSI
100
AcDbCircle
 62
250
  6
CONTINUOUS
 10
-3.5650635095
 20
10.15
 40
2.1473996696
  0
CIRCLE
  5
6EF
100
AcDbEntity
  8
ASSI
100
AcDbCircle
 62
7
  6
CONTINUOUS
 10
-3.5650635095
 20
10.15
 40
1.75
  0
ARC
  5
6F0
100
AcDbEntity
  8
DRAFT
100
AcDbCircle
 62
7
  6
CONTINUOUS
 10
4.75
 20
-18.0
 40
0.7805440373
100
AcDbArc
 50
165.5748859243
 51
168.2278878975
  0
ARC
  5
6F1
100
AcDbEntity
  8
DRAFT
100
AcDbCircle
 62
7
  6
CONTINUOUS
 10
4.75
 20
-18.0
 40
0.7805440373
100
AcDbArc
 50
11.7089382613
 51
14.4864659673
  0
ARC
  5
6F2
100
AcDbEntity
  8
DRAFT
100
AcDbCircle
 62
7
  6
CONTINUOUS
 10
4.75
 20
-18.0
 40
0.75
100
AcDbArc
 50
12.1917369917
 51
15.0819027058
  0
ARC
  5
6F3
100
AcDbEntity
  8
DRAFT
100
AcDbCircle
 62
7
  6
CONTINUOUS
 10
4.75
 20
-18.0
 40
0.75
100
AcDbArc
 50
164.9807558692
 51
167.7454499178
  0
ARC
  5
6F4
100
AcDbEntity
  8
ASSI
100
AcDbCircle
 62
250
  6
CONTINUOUS
 10
2.5
 20
-11.55
 40
3.3748961649
100
AcDbArc
 50
225.6155594791
 51
314.3844405205
  0
ARC
  5
6F5
100
AcDbEntity
  8
ASSI
100
AcDbCircle
 62
250
  6
CONTINUOUS
 10
2.5
 20
-11.55
 40
3.3748961649
100
AcDbArc
 50
45.6155594883
 51
134.3844405205
  0
ARC
  5
6F6
100
AcDbEntity
  8
ASSI
100
AcDbCircle
 62
250
  6
CONTINUOUS
 10
2.5
 20
-11.55
 40
3.0760409189
100
AcDbArc
 50
225.6155594224
 51
314.3844405245
  0
ARC
  5
6F7
100
AcDbEntity
  8
ASSI
100
AcDbCircle
 62
250
  6
CONTINUOUS
 10
2.5
 20
-11.55
 40
3.0760409189
100
AcDbArc
 50
45.6155594324
 51
134.3844405245
  0
ARC
  5
6F8
100
AcDbEntity
  8
ASSI
100
AcDbCircle
 62
250
  6
CONTINUOUS
 10
2.5
 20
-11.55
 40
2.9489817177
100
AcDbArc
 50
43.5102100048
 51
136.4897900076
  0
ARC
  5
6F9
100
AcDbEntity
  8
ASSI
100
AcDbCircle
 62
250
  6
CONTINUOUS
 10
2.5
 20
-11.55
 40
2.9489817177
100
AcDbArc
 50
223.5102099848
 51
316.4897900076
  0
ARC
  5
6FA
100
AcDbEntity
  8
ASSI
100
AcDbCircle
 62
250
  6
CONTINUOUS
 10
2.5
 20
-11.55
 40
2.6501219928
100
AcDbArc
 50
43.5102100087
 51
136.4897900133
  0
ARC
  5
6FB
100
AcDbEntity
  8
ASSI
100
AcDbCircle
 62
250
  6
CONTINUOUS
 10
2.5
 20
-11.55
 40
2.6501219928
100
AcDbArc
 50
223.5102099883
 51
316.4897900133
  0
CIRCLE
  5
6FC
100
AcDbEntity
  8
ASSI
100
AcDbCircle
 62
250
  6
CONTINUOUS
 10
2.5
 20
-11.55
 40
2.4451585243
  0
CIRCLE
  5
6FD
100
AcDbEntity
  8
ASSI
100
AcDbCircle
 62
250
  6
CONTINUOUS
 10
2.5
 20
-11.55
 40
2.1473996246
  0
CIRCLE
  5
6FE
100
AcDbEntity
  8
ASSI
100
AcDbCircle
 62
7
  6
CONTINUOUS
 10
2.5
 20
-11.55
 40
1.75
  0
ARC
  5
6FF
100
AcDbEntity
  8
ASSI
100
AcDbCircle
 62
250
  6
CONTINUOUS
 10
7.5
 20
-11.55
 40
3.3748973611
100
AcDbArc
 50
225.6155594791
 51
311.7749809217
  0
ARC
  5
700
100
AcDbEntity
  8
ASSI
100
AcDbCircle
 62
250
  6
CONTINUOUS
 10
7.5
 20
-11.55
 40
3.3748966458
100
AcDbArc
 50
48.2250190783
 51
134.3844405113
  0
ARC
  5
701
100
AcDbEntity
  8
ASSI
100
AcDbCircle
 62
250
  6
CONTINUOUS
 10
7.5
 20
-11.55
 40
3.0760409277
100
AcDbArc
 50
225.6155594224
 51
311.7749809217
  0
ARC
  5
702
100
AcDbEntity
  8
ASSI
100
AcDbCircle
 62
250
  6
CONTINUOUS
 10
7.5
 20
-11.55
 40
3.0760409223
100
AcDbArc
 50
48.2250190783
 51
134.3844405145
  0
ARC
  5
703
100
AcDbEntity
  8
ASSI
100
AcDbCircle
 62
250
  6
CONTINUOUS
 10
7.5
 20
-11.55
 40
2.9489817148
100
AcDbArc
 50
223.5102099848
 51
136.4897899876
  0
ARC
  5
704
100
AcDbEntity
  8
ASSI
100
AcDbCircle
 62
250
  6
CONTINUOUS
 10
7.5
 20
-11.55
 40
2.6501217491
100
AcDbArc
 50
223.5102099883
 51
136.4897899929
  0
CIRCLE
  5
705
100
AcDbEntity
  8
ASSI
100
AcDbCircle
 62
250
  6
CONTINUOUS
 10
7.5
 20
-11.55
 40
2.4451585243
  0
CIRCLE
  5
706
100
AcDbEntity
  8
ASSI
100
AcDbCircle
 62
250
  6
CONTINUOUS
 10
7.5
 20
-11.55
 40
2.1473996246
  0
CIRCLE
  5
707
100
AcDbEntity
  8
ASSI
100
AcDbCircle
 62
7
  6
CONTINUOUS
 10
7.5
 20
-11.55
 40
1.75
  0
ARC
  5
708
100
AcDbEntity
  8
ASSI
100
AcDbCircle
 62
250
  6
CONTINUOUS
 10
0.7650635095
 20
12.65
 40
3.5061323475
100
AcDbArc
 50
94.6705920042
 51
162.4305618464
  0
ARC
  5
709
100
AcDbEntity
  8
ASSI
100
AcDbCircle
 62
250
  6
CONTINUOUS
 10
0.7650635095
 20
12.65
 40
3.3748993522
100
AcDbArc
 50
255.6155641884
 51
93.6113522826
  0
ARC
  5
70A
100
AcDbEntity
  8
ASSI
100
AcDbCircle
 62
250
  6
CONTINUOUS
 10
0.7650635095
 20
12.65
 40
3.2072739381
100
AcDbArc
 50
92.1157474426
 51
162.4305618902
  0
ARC
  5
70B
100
AcDbEntity
  8
ASSI
100
AcDbCircle
 62
250
  6
CONTINUOUS
 10
0.7650635095
 20
12.65
 40
3.0760409428
100
AcDbArc
 50
255.6155641085
 51
90.8144296162
  0
ARC
  5
70C
100
AcDbEntity
  8
ASSI
100
AcDbCircle
 62
250
  6
CONTINUOUS
 10
0.7650635095
 20
12.65
 40
2.9489817151
100
AcDbArc
 50
253.5102145194
 51
166.4897854689
  0
ARC
  5
70D
100
AcDbEntity
  8
ASSI
100
AcDbCircle
 62
250
  6
CONTINUOUS
 10
0.7650635095
 20
12.65
 40
2.6501217843
100
AcDbArc
 50
253.5102146524
 51
166.4897853536
  0
CIRCLE
  5
70E
100
AcDbEntity
  8
ASSI
100
AcDbCircle
 62
250
  6
CONTINUOUS
 10
0.7650635095
 20
12.65
 40
2.4451616876
  0
CIRCLE
  5
70F
100
AcDbEntity
  8
0
100
AcDbCircle
 62
250
  6
CONTINUOUS
 10
6.7482288738
 20
15.0837586919
 40
2.25
  0
CIRCLE
  5
710
100
AcDbEntity
  8
ASSI
100
AcDbCircle
 62
250
  6
CONTINUOUS
 10
0.7650635095
 20
12.65
 40
2.1473996696
  0
CIRCLE
  5
711
100
AcDbEntity
  8
ASSI
100
AcDbCircle
 62
7
  6
CONTINUOUS
 10
0.7650635095
 20
12.65
 40
1.75
  0
ELLIPSE
  5
712
100
AcDbEntity
  8
DRAFT
100
AcDbEllipse
 62
7
  6
CONTINUOUS
 10
0.0
 20
-20.1823915368
 30
0.0
 11
15.0
 21
-0.0
 31
0.0
 40
0.0087268678
 41
1.4073150204
 42
1.7342776332
  0
ELLIPSE
  5
713
100
AcDbEntity
  8
DRAFT
100
AcDbEllipse
 62
7
  6
CONTINUOUS
 10
2.5
 20
-20.0445070257
 30
0.0
 11
1.0
 21
-0.0
 31
0.0
 40
0.0087268678
 41
-1.5707963268
 42
0.0
  0
ELLIPSE
  5
714
100
AcDbEntity
  8
DRAFT
100
AcDbEllipse
 62
7
  6
CONTINUOUS
 10
-2.5
 20
-20.0445070257
 30
0.0
 11
1.0
 21
-0.0
 31
0.0
 40
0.0087268678
 41
3.1415926536
 42
4.7123889804
  0
ELLIPSE
  5
715
100
AcDbEntity
  8
DRAFT
100
AcDbEllipse
 62
7
  6
CONTINUOUS
 10
-0.0
 20
20.1823915368
 30
0.0
 11
15.0
 21
-0.0
 31
0.0
 40
0.0087268678
 41
-1.7342776332
 42
-1.4073150204
  0
ELLIPSE
  5
716
100
AcDbEntity
  8
DRAFT
100
AcDbEllipse
 62
7
  6
CONTINUOUS
 10
-2.5
 20
20.0445070257
 30
0.0
 11
1.0
 21
-0.0
 31
0.0
 40
0.0087268678
 41
1.5707963268
 42
3.1415926536
  0
ELLIPSE
  5
717
100
AcDbEntity
  8
DRAFT
100
AcDbEllipse
 62
7
  6
CONTINUOUS
 10
2.5
 20
20.0445070257
 30
0.0
 11
1.0
 21
0.0
 31
0.0
 40
0.0087268678
 41
-0.0
 42
1.5707963268
  0
ELLIPSE
  5
718
100
AcDbEntity
  8
RACCORDO
100
AcDbEllipse
 62
7
  6
CONTINUOUS
 10
6.4493848806
 20
-19.7240686345
 30
0.0
 11
-0.0
 21
0.2
 31
0.0
 40
0.0058178298
 41
-4.7123889804
 42
-3.1503192999
  0
ELLIPSE
  5
719
100
AcDbEntity
  8
RACCORDO
100
AcDbEllipse
 62
7
  6
CONTINUOUS
 10
7.3506151194
 20
-20.243777851
 30
0.0
 11
0.0
 21
0.2
 31
0.0
 40
0.0058178298
 41
-3.089232776
 42
-1.5707963268
  0
ELLIPSE
  5
71A
100
AcDbEntity
  8
RACCORDO
100
AcDbEllipse
 62
7
  6
CONTINUOUS
 10
-7.3506151194
 20
-20.243777851
 30
0.0
 11
0.0
 21
0.2
 31
0.0
 40
0.0058178298
 41
-4.7123889804
 42
-3.1939525311
  0
ELLIPSE
  5
71B
100
AcDbEntity
  8
RACCORDO
100
AcDbEllipse
 62
7
  6
CONTINUOUS
 10
-6.4493848806
 20
-19.7240686345
 30
0.0
 11
-0.0
 21
0.2
 31
0.0
 40
0.0058178298
 41
-3.1328660073
 42
-1.5707963268
  0
ELLIPSE
  5
71C
100
AcDbEntity
  8
RACCORDO
100
AcDbEllipse
 62
7
  6
CONTINUOUS
 10
-6.4493848806
 20
19.7240686345
 30
0.0
 11
0.0
 21
0.2
 31
0.0
 40
0.0058178298
 41
-1.5707963268
 42
-0.0087266463
  0
ELLIPSE
  5
71D
100
AcDbEntity
  8
RACCORDO
100
AcDbEllipse
 62
7
  6
CONTINUOUS
 10
-7.3506151194
 20
20.243777851
 30
0.0
 11
0.0
 21
0.2
 31
0.0
 40
0.0058178298
 41
0.0523598776
 42
1.5707963268
  0
ELLIPSE
  5
71E
100
AcDbEntity
  8
RACCORDO
100
AcDbEllipse
 62
7
  6
CONTINUOUS
 10
-10.6999314524
 20
21.9412559969
 30
0.0
 11
0.4025750024
 21
0.2012721715
 31
0.0
 40
0.9998096356
 41
1.1071030277
 42
2.6780516535
  0
ELLIPSE
  5
71F
100
AcDbEntity
  8
RACCORDO
100
AcDbEllipse
 62
7
  6
CONTINUOUS
 10
7.3506151194
 20
20.243777851
 30
0.0
 11
0.0
 21
0.2
 31
0.0
 40
0.0058178298
 41
-1.5707963268
 42
-0.0523598776
  0
ELLIPSE
  5
720
100
AcDbEntity
  8
RACCORDO
100
AcDbEllipse
 62
7
  6
CONTINUOUS
 10
6.4493848806
 20
19.7240686345
 30
0.0
 11
0.0
 21
0.2
 31
0.0
 40
0.0058178298
 41
0.0087266463
 42
1.5707963268
  0
ELLIPSE
  5
721
100
AcDbEntity
  8
ASSI
100
AcDbEllipse
 62
7
  6
CONTINUOUS
 10
-4.3563662764
 20
23.2563578147
 30
0.0
 11
-0.0
 21
0.5
 31
0.0
 40
0.0058178298
 41
-0.1656433349
 42
-0.0058177642
  0
ELLIPSE
  5
722
100
AcDbEntity
  8
ASSI
100
AcDbEllipse
 62
7
  6
CONTINUOUS
 10
4.3563662764
 20
23.2563578147
 30
0.0
 11
-0.0
 21
0.5
 31
0.0
 40
0.0058178298
 41
0.0058177642
 42
0.1656433349
  0
ELLIPSE
  5
723
100
AcDbEntity
  8
ASSI
100
AcDbEllipse
 62
7
  6
CONTINUOUS
 10
4.3563662764
 20
-23.2563578147
 30
0.0
 11
0.0
 21
0.5
 31
0.0
 40
0.0058178298
 41
-3.3072359885
 42
-3.1474104178
  0
ELLIPSE
  5
724
100
AcDbEntity
  8
ASSI
100
AcDbEllipse
 62
7
  6
CONTINUOUS
 10
-4.3563662764
 20
-23.2563578147
 30
0.0
 11
0.0
 21
0.5
 31
0.0
 40
0.0058178298
 41
-3.1357748894
 42
-2.9759493187
  0
ELLIPSE
  5
725
100
AcDbEntity
  8
RACCORDO
100
AcDbEllipse
 62
7
  6
CONTINUOUS
 10
-10.6999314524
 20
-21.9412559969
 30
0.0
 11
-0.4025750024
 21
0.2012721715
 31
0.0
 40
0.9998096356
 41
6.7467263073
 42
8.3176749331
  0
ELLIPSE
  5
726
100
AcDbEntity
  8
RACCORDO
100
AcDbEllipse
 62
7
  6
CONTINUOUS
 10
10.6999314524
 20
21.9412559969
 30
0.0
 11
0.4025750024
 21
-0.2012721715
 31
0.0
 40
0.9998096356
 41
6.7467263073
 42
8.3176749331
  0
ELLIPSE
  5
727
100
AcDbEntity
  8
DRAFT
100
AcDbEllipse
 62
7
  6
CONTINUOUS
 10
3.92
 20
22.3338503421
 30
0.0
 11
0.42
 21
0.0
 31
0.0
 40
0.0087268678
 41
3.1415926536
 42
4.7123889804
  0
ELLIPSE
  5
728
100
AcDbEntity
  8
DRAFT
100
AcDbEllipse
 62
7
  6
CONTINUOUS
 10
3.9358937422
 20
22.3338503421
 30
0.0
 11
0.42
 21
-0.0
 31
0.0
 40
0.0087268678
 41
-1.5707963268
 42
-0.0058177642
  0
ELLIPSE
  5
729
100
AcDbEntity
  8
DRAFT
100
AcDbEllipse
 62
7
  6
CONTINUOUS
 10
-3.92
 20
22.3338503421
 30
0.0
 11
0.42
 21
-0.0
 31
0.0
 40
0.0087268678
 41
-1.5707963268
 42
-0.0
  0
ELLIPSE
  5
72A
100
AcDbEntity
  8
DRAFT
100
AcDbEllipse
 62
7
  6
CONTINUOUS
 10
-3.9358937422
 20
22.3338503421
 30
0.0
 11
0.42
 21
-0.0
 31
0.0
 40
0.0087268678
 41
-3.1357748894
 42
-1.5707963268
  0
ELLIPSE
  5
72B
100
AcDbEntity
  8
DRAFT
100
AcDbEllipse
 62
7
  6
CONTINUOUS
 10
3.9358937422
 20
-22.3338503421
 30
0.0
 11
0.42
 21
0.0
 31
0.0
 40
0.0087268678
 41
0.0058177642
 42
1.5707963268
  0
ELLIPSE
  5
72C
100
AcDbEntity
  8
DRAFT
100
AcDbEllipse
 62
7
  6
CONTINUOUS
 10
3.92
 20
-22.3338503421
 30
0.0
 11
0.42
 21
0.0
 31
0.0
 40
0.0087268678
 41
1.5707963268
 42
3.1415926536
  0
ELLIPSE
  5
72D
100
AcDbEntity
  8
DRAFT
100
AcDbEllipse
 62
7
  6
CONTINUOUS
 10
-3.92
 20
-22.3338503421
 30
0.0
 11
0.42
 21
0.0
 31
0.0
 40
0.0087268678
 41
-0.0
 42
1.5707963268
  0
ELLIPSE
  5
72E
100
AcDbEntity
  8
DRAFT
100
AcDbEllipse
 62
7
  6
CONTINUOUS
 10
-3.9358937422
 20
-22.3338503421
 30
0.0
 11
0.42
 21
0.0
 31
0.0
 40
0.0087268678
 41
1.5707963268
 42
3.1357748894
  0
ELLIPSE
  5
72F
100
AcDbEntity
  8
RACCORDO
100
AcDbEllipse
 62
7
  6
CONTINUOUS
 10
10.6999314524
 20
-21.9412559969
 30
0.0
 11
-0.4025750024
 21
-0.2012721715
 31
0.0
 40
0.9998096356
 41
1.1071030277
 42
2.6780516535
  0
ELLIPSE
  5
730
100
AcDbEntity
  8
RACCORDO
100
AcDbEllipse
 62
7
  6
CONTINUOUS
 10
7.5841007192
 20
20.9916321118
 30
0.0
 11
0.5
 21
0.0
 31
0.0
 40
0.0087268678
 41
0.0174532925
 42
1.5707963268
  0
ELLIPSE
  5
731
100
AcDbEntity
  8
RACCORDO
100
AcDbEllipse
 62
7
  6
CONTINUOUS
 10
-7.5841007192
 20
20.9916321118
 30
0.0
 11
0.5
 21
-0.0
 31
0.0
 40
0.0087268678
 41
1.5707963268
 42
3.1241393611
  0
ELLIPSE
  5
732
100
AcDbEntity
  8
RACCORDO
100
AcDbEllipse
 62
7
  6
CONTINUOUS
 10
7.5841007192
 20
-20.9916321118
 30
0.0
 11
0.5
 21
-0.0
 31
0.0
 40
0.0087268678
 41
-1.5707963268
 42
-0.0174532925
  0
ELLIPSE
  5
733
100
AcDbEntity
  8
RACCORDO
100
AcDbEllipse
 62
7
  6
CONTINUOUS
 10
-7.5841007192
 20
-20.9916321118
 30
0.0
 11
0.5
 21
-0.0
 31
0.0
 40
0.0087268678
 41
-3.1241393611
 42
-1.5707963268
  0
ELLIPSE
  5
734
100
AcDbEntity
  8
RACCORDO
100
AcDbEllipse
 62
7
  6
CONTINUOUS
 10
10.3999957691
 20
23.4113248654
 30
0.0
 11
-0.0029088041
 21
0.2886641433
 31
0.0
 40
0.8660144118
 41
-3.150319066
 42
-1.582431609
  0
ELLIPSE
  5
735
100
AcDbEntity
  8
RACCORDO
100
AcDbEllipse
 62
7
  6
CONTINUOUS
 10
8.5000042309
 20
23.4113248654
 30
0.0
 11
0.0029088041
 21
0.2886641433
 31
0.0
 40
0.8660144118
 41
-4.7007536982
 42
-3.1328662412
  0
ELLIPSE
  5
736
100
AcDbEntity
  8
RACCORDO
100
AcDbEllipse
 62
7
  6
CONTINUOUS
 10
-8.5000042309
 20
23.4113248654
 30
0.0
 11
-0.0029088041
 21
0.2886641433
 31
0.0
 40
0.8660144118
 41
-3.150319066
 42
-1.582431609
  0
ELLIPSE
  5
737
100
AcDbEntity
  8
RACCORDO
100
AcDbEllipse
 62
7
  6
CONTINUOUS
 10
-10.3999957691
 20
23.4113248654
 30
0.0
 11
0.0029088041
 21
0.2886641433
 31
0.0
 40
0.8660144118
 41
-4.7007536982
 42
-3.1328662412
  0
ELLIPSE
  5
738
100
AcDbEntity
  8
RACCORDO
100
AcDbEllipse
 62
7
  6
CONTINUOUS
 10
8.5000042309
 20
-23.4113248654
 30
0.0
 11
-0.0029088041
 21
0.2886641433
 31
0.0
 40
0.8660144118
 41
-0.0087264124
 42
1.5591610446
  0
ELLIPSE
  5
739
100
AcDbEntity
  8
RACCORDO
100
AcDbEllipse
 62
7
  6
CONTINUOUS
 10
10.3999957691
 20
-23.4113248654
 30
0.0
 11
0.0029088041
 21
0.2886641433
 31
0.0
 40
0.8660144118
 41
-1.5591610446
 42
0.0087264124
  0
ELLIPSE
  5
73A
100
AcDbEntity
  8
RACCORDO
100
AcDbEllipse
 62
7
  6
CONTINUOUS
 10
-10.3999957691
 20
-23.4113248654
 30
0.0
 11
-0.0029088041
 21
0.2886641433
 31
0.0
 40
0.8660144118
 41
-0.0087264124
 42
1.5591610446
  0
ELLIPSE
  5
73B
100
AcDbEntity
  8
RACCORDO
100
AcDbEllipse
 62
7
  6
CONTINUOUS
 10
-8.5000042309
 20
-23.4113248654
 30
0.0
 11
0.0029088041
 21
0.2886641433
 31
0.0
 40
0.8660144118
 41
-1.5591610446
 42
0.0087264124
  0
ELLIPSE
  5
73C
100
AcDbEntity
  8
RACCORDO
100
AcDbEllipse
 62
7
  6
CONTINUOUS
 10
-6.5570147321
 20
19.9570181168
 30
0.0
 11
0.0
 21
0.2
 31
0.0
 40
0.0058178298
 41
-4.7123889804
 42
-3.1474104178
  0
ELLIPSE
  5
73D
100
AcDbEntity
  8
RACCORDO
100
AcDbEllipse
 62
7
  6
CONTINUOUS
 10
-7.2429852679
 20
19.9570181168
 30
0.0
 11
0.0
 21
0.2
 31
0.0
 40
0.0058178298
 41
-3.1357748894
 42
-1.5707963268
  0
ELLIPSE
  5
73E
100
AcDbEntity
  8
RACCORDO
100
AcDbEllipse
 62
7
  6
CONTINUOUS
 10
7.2429852679
 20
19.9570181168
 30
0.0
 11
0.0
 21
0.2
 31
0.0
 40
0.0058178298
 41
-4.7123889804
 42
-3.1474104178
  0
ELLIPSE
  5
73F
100
AcDbEntity
  8
RACCORDO
100
AcDbEllipse
 62
7
  6
CONTINUOUS
 10
6.5570147321
 20
19.9570181168
 30
0.0
 11
0.0
 21
0.2
 31
0.0
 40
0.0058178298
 41
-3.1357748894
 42
-1.5707963268
  0
ELLIPSE
  5
740
100
AcDbEntity
  8
RACCORDO
100
AcDbEllipse
 62
7
  6
CONTINUOUS
 10
6.5570147321
 20
-19.9570181168
 30
0.0
 11
-0.0
 21
0.2
 31
0.0
 40
0.0058178298
 41
-1.5707963268
 42
-0.0058177642
  0
ELLIPSE
  5
741
100
AcDbEntity
  8
RACCORDO
100
AcDbEllipse
 62
7
  6
CONTINUOUS
 10
7.2429852679
 20
-19.9570181168
 30
0.0
 11
-0.0
 21
0.2
 31
0.0
 40
0.0058178298
 41
0.0058177642
 42
1.5707963268
  0
ELLIPSE
  5
742
100
AcDbEntity
  8
RACCORDO
100
AcDbEllipse
 62
7
  6
CONTINUOUS
 10
-7.2429852679
 20
-19.9570181168
 30
0.0
 11
0.0
 21
0.2
 31
0.0
 40
0.0058178298
 41
-1.5707963268
 42
-0.0058177642
  0
ELLIPSE
  5
743
100
AcDbEntity
  8
RACCORDO
100
AcDbEllipse
 62
7
  6
CONTINUOUS
 10
-6.5570147321
 20
-19.9570181168
 30
0.0
 11
-0.0
 21
0.2
 31
0.0
 40
0.0058178298
 41
0.0058177642
 42
1.5707963268
  0
ELLIPSE
  5
744
100
AcDbEntity
  8
ASSI
100
AcDbEllipse
 62
7
  6
CONTINUOUS
 10
5.0
 20
-17.8261802341
 30
0.0
 11
2.75
 21
-0.0
 31
0.0
 40
0.0058178298
 41
-3.1328660073
 42
-0.0087266463
  0
ELLIPSE
  5
745
100
AcDbEntity
  8
ASSI
100
AcDbEllipse
 62
7
  6
CONTINUOUS
 10
-5.0
 20
-17.8261802341
 30
0.0
 11
2.75
 21
-0.0
 31
0.0
 40
0.0058178298
 41
-3.1328660073
 42
-0.0087266463
  0
ELLIPSE
  5
746
100
AcDbEntity
  8
ASSI
100
AcDbEllipse
 62
7
  6
CONTINUOUS
 10
-5.0
 20
-17.8206532958
 30
0.0
 11
2.75839524
 21
-0.0
 31
0.0
 40
0.0058178298
 41
0.0
 42
3.1415926536
  0
ELLIPSE
  5
747
100
AcDbEntity
  8
ASSI
100
AcDbEllipse
 62
7
  6
CONTINUOUS
 10
5.0
 20
-17.8206532958
 30
0.0
 11
2.75839524
 21
-0.0
 31
0.0
 40
0.0058178298
 41
0.0
 42
3.1415926536
  0
ELLIPSE
  5
748
100
AcDbEntity
  8
ASSI
100
AcDbEllipse
 62
7
  6
CONTINUOUS
 10
-9.1496953439
 20
17.6714466826
 30
0.0
 11
1.8480888181
 21
-0.7655034529
 31
0.0
 40
0.9998215708
 41
2.7489566578
 42
3.5342286494
  0
ELLIPSE
  5
749
100
AcDbEntity
  8
ASSI
100
AcDbEllipse
 62
7
  6
CONTINUOUS
 10
-9.1496953439
 20
-17.6714466826
 30
0.0
 11
1.8480888181
 21
0.7655034529
 31
0.0
 40
0.9998215708
 41
2.7489566578
 42
3.5342286494
  0
ELLIPSE
  5
74A
100
AcDbEntity
  8
ASSI
100
AcDbEllipse
 62
7
  6
CONTINUOUS
 10
9.1496953439
 20
-17.6714466826
 30
0.0
 11
1.8480888181
 21
-0.7655034529
 31
0.0
 40
0.9998215708
 41
-0.3926359958
 42
0.3926359958
  0
ELLIPSE
  5
74B
100
AcDbEntity
  8
ASSI
100
AcDbEllipse
 62
7
  6
CONTINUOUS
 10
9.1496953439
 20
17.6714466826
 30
0.0
 11
1.8480888181
 21
0.7655034529
 31
0.0
 40
0.9998215708
 41
-0.3926359958
 42
0.3926359958
  0
ELLIPSE
  5
74C
100
AcDbEntity
  8
ASSI
100
AcDbEllipse
 62
7
  6
CONTINUOUS
 10
-4.4859713124
 20
16.7450591037
 30
0.0
 11
2.3888403515
 21
1.37919762
 31
0.0
 40
0.0058178298
 41
-3.1415926536
 42
-0.0
  0
ELLIPSE
  5
74D
100
AcDbEntity
  8
ASSI
100
AcDbEllipse
 62
7
  6
CONTINUOUS
 10
-4.4887347815
 20
16.7498455727
 30
0.0
 11
2.3815698604
 21
1.375
 31
0.0
 40
0.0058178298
 41
0.0087266463
 42
3.1328659484
  0
ELLIPSE
  5
74E
100
AcDbEntity
  8
ASSI
100
AcDbEllipse
 62
7
  6
CONTINUOUS
 10
-5.0
 20
-19.4719414149
 30
0.0
 11
3.4264466835
 21
-0.0
 31
0.0
 40
0.0174559514
 41
3.1402413834
 42
6.2845365774
  0
ELLIPSE
  5
74F
100
AcDbEntity
  8
ASSI
100
AcDbEllipse
 62
7
  6
CONTINUOUS
 10
5.0
 20
-19.4719414149
 30
0.0
 11
3.4264466835
 21
-0.0
 31
0.0
 40
0.0174559514
 41
3.1402413834
 42
6.2845365774
  0
ELLIPSE
  5
750
100
AcDbEntity
  8
ASSI
100
AcDbEllipse
 62
7
  6
CONTINUOUS
 10
-7.9167854636
 20
19.4984928419
 30
0.0
 11
5.523355324
 21
-0.0009717924
 31
0.0
 40
0.0142509148
 41
0.0061729626
 42
0.3706970866
  0
ELLIPSE
  5
751
100
AcDbEntity
  8
ASSI
100
AcDbEllipse
 62
7
  6
CONTINUOUS
 10
-8.9751446946
 20
17.5991454363
 30
0.0
 11
1.8480888181
 21
-0.7655034529
 31
0.0
 40
0.9998215708
 41
2.7489566578
 42
3.5342286494
  0
ELLIPSE
  5
752
100
AcDbEntity
  8
ASSI
100
AcDbEllipse
 62
7
  6
CONTINUOUS
 10
-9.9752970227
 20
14.2432590481
 30
0.0
 11
0.9821292984
 21
0.1890449919
 31
0.0
 40
0.9998420535
 41
1.9042848537
 42
2.9514628664
  0
ELLIPSE
  5
753
100
AcDbEntity
  8
ASSI
100
AcDbEllipse
 62
7
  6
CONTINUOUS
 10
-7.8421869358
 20
-18.3839109968
 30
0.0
 11
0.5774011102
 21
0.9999928594
 31
0.0
 40
0.0065449328
 41
-4.7086099199
 42
-3.1552668857
  0
ELLIPSE
  5
754
100
AcDbEntity
  8
ASSI
100
AcDbEllipse
 62
7
  6
CONTINUOUS
 10
2.1578130642
 20
-18.3839109968
 30
0.0
 11
0.5774011102
 21
0.9999928594
 31
0.0
 40
0.0065449328
 41
-4.7086099199
 42
-3.1552668857
  0
ELLIPSE
  5
755
100
AcDbEntity
  8
ASSI
100
AcDbEllipse
 62
7
  6
CONTINUOUS
 10
-2.1578130642
 20
-18.3839109968
 30
0.0
 11
-0.5774011102
 21
0.9999928594
 31
0.0
 40
0.0065449328
 41
-3.1279184215
 42
-1.5745753872
  0
ELLIPSE
  5
756
100
AcDbEntity
  8
ASSI
100
AcDbEllipse
 62
7
  6
CONTINUOUS
 10
7.8421869358
 20
-18.3839109968
 30
0.0
 11
-0.5774011102
 21
0.9999928594
 31
0.0
 40
0.0065449328
 41
-3.1279184215
 42
-1.5745753872
  0
ELLIPSE
  5
757
100
AcDbEntity
  8
ASSI
100
AcDbEllipse
 62
7
  6
CONTINUOUS
 10
9.3778922769
 20
18.6108268408
 30
0.0
 11
0.3827517265
 21
0.924044409
 31
0.0
 40
0.9998215708
 41
-0.3926359958
 42
0.3926359958
  0
ELLIPSE
  5
758
100
AcDbEntity
  8
ASSI
100
AcDbEllipse
 62
7
  6
CONTINUOUS
 10
9.3778922769
 20
-18.6108268408
 30
0.0
 11
-0.3827517265
 21
0.924044409
 31
0.0
 40
0.9998215708
 41
-3.5342286494
 42
-2.7489566578
  0
ELLIPSE
  5
759
100
AcDbEntity
  8
ASSI
100
AcDbEllipse
 62
7
  6
CONTINUOUS
 10
-9.3778922769
 20
-18.6108268408
 30
0.0
 11
0.3827517265
 21
0.924044409
 31
0.0
 40
0.9998215708
 41
-3.5342286494
 42
-2.7489566578
  0
ELLIPSE
  5
75A
100
AcDbEntity
  8
ASSI
100
AcDbEllipse
 62
7
  6
CONTINUOUS
 10
-5.2561243511
 20
18.0790032964
 30
0.0
 11
2.8626780625
 21
1.65276795
 31
0.0
 40
0.0058178626
 41
0.5143695673
 42
3.136224804
  0
ELLIPSE
  5
75B
100
AcDbEntity
  8
0
100
AcDbEllipse
 62
250
  6
CONTINUOUS
 10
-11.0890843465
 20
-4.680795
 30
0.0
 11
-0.0
 21
0.352865
 31
0.0
 40
0.0174497484
 41
-1.5707963268
 42
1.5707963268
  0
ELLIPSE
  5
75C
100
AcDbEntity
  8
0
100
AcDbEllipse
 62
250
  6
CONTINUOUS
 10
-10.7947859729
 20
2.840243
 30
0.0
 11
0.0
 21
0.65
 31
0.0
 40
0.0174497484
 41
-1.5707963268
 42
1.5707963268
  0
ELLIPSE
  5
75D
100
AcDbEntity
  8
0
100
AcDbEllipse
 62
250
  6
CONTINUOUS
 10
-10.9396774294
 20
-12.6353
 30
0.0
 11
-0.0
 21
0.317592
 31
0.0
 40
0.0174550649
 41
0.0
 42
6.2831853072
  0
ELLIPSE
  5
75E
100
AcDbEntity
  8
0
100
AcDbEllipse
 62
250
  6
CONTINUOUS
 10
-10.9980742917
 20
-12.210087
 30
0.0
 11
0.0
 21
0.192582
 31
0.0
 40
0.0174550649
 41
0.0
 42
6.2831853072
  0
ELLIPSE
  5
75F
100
AcDbEntity
  8
0
100
AcDbEllipse
 62
250
  6
CONTINUOUS
 10
-10.9396774294
 20
-12.6353
 30
0.0
 11
-0.0
 21
0.14051
 31
0.0
 40
0.0174550649
 41
0.0
 42
6.2831853072
  0
ELLIPSE
  5
760
100
AcDbEntity
  8
0
100
AcDbEllipse
 62
250
  6
CONTINUOUS
 10
-10.8279538426
 20
-13.44959
 30
0.0
 11
0.0
 21
2.5500000352
 31
0.0
 40
0.0174550649
 41
1.470628907
 42
4.8125564002
  0
ELLIPSE
  5
761
100
AcDbEntity
  8
0
100
AcDbEllipse
 62
250
  6
CONTINUOUS
 10
-10.8279538426
 20
-13.44959
 30
0.0
 11
0.0
 21
1.7850001745
 31
0.0
 40
0.0174550649
 41
1.427448772
 42
4.8557365352
  0
ELLIPSE
  5
762
100
AcDbEntity
  8
0
100
AcDbEllipse
 62
250
  6
CONTINUOUS
 10
-10.8279538426
 20
-9.11459
 30
0.0
 11
0.0
 21
2.5500000352
 31
0.0
 40
0.0174550649
 41
1.470628907
 42
4.8125564002
  0
ELLIPSE
  5
763
100
AcDbEntity
  8
0
100
AcDbEllipse
 62
250
  6
CONTINUOUS
 10
-10.8279538426
 20
-9.11459
 30
0.0
 11
0.0
 21
1.7850001745
 31
0.0
 40
0.0174550649
 41
1.427448772
 42
2.9256321763
  0
ELLIPSE
  5
764
100
AcDbEntity
  8
0
100
AcDbEllipse
 62
250
  6
CONTINUOUS
 10
-10.8279538426
 20
-9.11459
 30
0.0
 11
0.0
 21
1.7849997292
 31
0.0
 40
0.0174550649
 41
-2.9256321216
 42
-1.427448736
  0
ENDSEC
  0
SECTION
  2
OBJECTS
  0
DICTIONARY
  5
C
100
AcDbDictionary
280
0
281
1
  3
ACAD_GROUP
350
D
  3
ACAD_MLINESTYLE
350
17
  3
ACAD_LAYOUT
350
1A
  3
ACAD_PLOTSETTINGS
350
19
  3
ACAD_PLOTSTYLENAME
350
E
  0
DICTIONARY
  5
D
102
{ACAD_REACTORS
330
C
102
}
100
AcDbDictionary
280
0
281
1
  0
ACDBDICTIONARYWDFLT
  5
E
102
{ACAD_REACTORS
330
C
102
}
100
AcDbDictionary
281
1
  3
Normal
350
F
100
AcDbDictionaryWithDefault
340
F
  0
DICTIONARY
  5
17
102
{ACAD_REACTORS
330
C
102
}
100
AcDbDictionary
280
0
281
1
  3
Standard
350
18
  0
DICTIONARY
  5
19
102
{ACAD_REACTORS
330
C
102
}
100
AcDbDictionary
281
1
  0
DICTIONARY
  5
1A
102
{ACAD_REACTORS
330
C
102
}
100
AcDbDictionary
281
1
  3
Model
350
765
  3
Layout1
350
766
  0
ACDBPLACEHOLDER
  5
F
102
{ACAD_REACTORS
330
E
102
}
  0
MLINESTYLE
  5
18
102
{ACAD_REACTORS
330
17
102
}
100
AcDbMlineStyle
  2
STANDARD
 70
0
  3

 62
256
 51
90.0
 52
90.0
 71
2
 49
0.5
 62
256
  6
BYLAYER
 49
-0.5
 62
256
  6
BYLAYER
  0
LAYOUT
  5
765
102
{ACAD_REACTORS
330
1A
102
}
100
AcDbPlotSettings
  1

  2
none_device
  4
ISO_A4_(297.00_x_210.00_MM)
  6

 40
0.0
 41
0.0
 42
0.0
 43
0.0
 44
297.0
 45
210.0
 46
0.0
 47
0.0
 48
0.0
 49
0.0
140
0.0
141
0.0
142
1.0
143
1.0
 70
1024
 72
1
 73
0
 74
0
  7

 75
0
147
1.0
148
0.0
149
0.0
100
AcDbLayout
  1
Model
 70
0
 71
0
 10
0.0
 20
0.0
 11
297.0
 21
210.0
 12
0.0
 22
0.0
 32
0.0
 14
0.0
 24
0.0
 34
0.0
 15
0.0
 25
0.0
 35
0.0
146
0.0
 13
0.0
 23
0.0
 33
0.0
 16
1.0
 26
0.0
 36
0.0
 17
0.0
 27
1.0
 37
0.0
 76
0
330
214
345
0
346
0
  0
LAYOUT
  5
766
102
{ACAD_REACTORS
330
1A
102
}
100
AcDbPlotSettings
  1

  2
none_device
  4
ISO_A4_(297.00_x_210.00_MM)
  6

 40
0.0
 41
0.0
 42
0.0
 43
0.0
 44
297.0
 45
210.0
 46
0.0
 47
0.0
 48
0.0
 49
0.0
140
0.0
141
0.0
142
1.0
143
1.0
 70
0
 72
1
 73
0
 74
0
  7

 75
0
147
1.0
148
0.0
149
0.0
100
AcDbLayout
  1
Layout1
 70
0
 71
1
 10
0.0
 20
0.0
 11
297.0
 21
210.0
 12
0.0
 22
0.0
 32
0.0
 14
0.0
 24
0.0
 34
0.0
 15
0.0
 25
0.0
 35
0.0
146
0.0
 13
0.0
 23
0.0
 33
0.0
 16
1.0
 26
0.0
 36
0.0
 17
0.0
 27
1.0
 37
0.0
 76
0
330
215
345
0
346
0
  0
ENDSEC
  0
EOF
