  0
SECTION
  2
HEADER
  9
$ACADVER
  1
AC1024
  9
$DWGCODEPAGE
  3
ANSI_1252
  9
$EXTMAX
 10
210.0
 20
297.0
 30
0.0
  9
$EXTMIN
 10
0.0
 20
0.0
 30
0.0
  9
$LIMMIN
 10
0.0
 20
0.0
  9
$LIMMAX
 10
210.0
 20
297.0
  9
$VIEWCTR
 10
105.0
 20
148.5
  9
$VIEWSIZE
 40
297.0
  9
$CLAYER
  8
0
  9
$LTSCALE
 40
19.36
  9
$CELTYPE
  6
BYLAYER
  9
$DIMSCALE
 40
1.0
  9
$DIMASZ
 40
3.0
  9
$DIMEXO
 40
0.5
  9
$DIMDLI
 40
13.376
  9
$DIMEXE
 40
1.5
  9
$DIMCEN
 40
3.168
  9
$DIMLFAC
 40
1.0
  9
$DIMBLK
  1
_FILLED
  9
$DIMALT
 70
0
  9
$DIMALTF
 40
0.0393700787
  9
$DIMTXT
 40
3.0
  9
$DIMTOL
 70
1
  9
$DIMLIM
 70
0
  9
$DIMTFAC
 40
1.0
  9
$DIMTP
 40
0.01
  9
$DIMTM
 40
0.01
  9
$DIMGAP
 40
0.625
  9
$DIMDSEP
 70
44
  9
$AUNITS
 70
0
  9
$PDMODE
 70
3
  9
$PDSIZE
 40
3.0
  9
$HANDSEED
  5
88E
  9
$TILEMODE
 70
1
  9
$MEASUREMENT
 70
1
  9
$INSUNITS
 70
4
  0
ENDSEC
  0
SECTION
  2
CLASSES
  0
CLASS
  1
ACDBDICTIONARYWDFLT
  2
AcDbDictionaryWithDefault
  3
AutoCAD 2000
 90
0
 91
1
280
0
281
0
  0
CLASS
  1
ACDBPLACEHOLDER
  2
AcDbPlaceHolder
  3
AutoCAD 2000
 90
0
 91
1
280
0
281
0
  0
CLASS
  1
LAYOUT
  2
AcDbLayout
  3
AutoCAD 2000
 90
0
 91
0
280
0
281
0
  0
ENDSEC
  0
SECTION
  2
TABLES
  0
TABLE
  2
VPORT
  5
8
100
AcDbSymbolTable
 70
2
  0
VPORT
  5
1F4
100
AcDbSymbolTableRecord
100
AcDbViewportTableRecord
  2
*ACTIVE
 70
0
 10
0.0
 20
0.0
 11
1.0
 21
1.0
 12
105.0
 22
148.5
 13
0.0
 23
0.0
 14
1.0
 24
1.0
 15
0.0
 25
0.0
 16
0.0
 26
0.0
 36
1.0
 17
0.0
 27
0.0
 37
0.0
 40
297.0
 41
0.7070707071
 42
50.0
 43
0.0
 44
0.0
 50
0.0
 51
0.0
 71
0
 72
100
 73
1
 74
1
 75
0
 76
0
 77
0
 78
0
  0
ENDTAB
  0
TABLE
  2
LTYPE
  5
5
100
AcDbSymbolTable
 70
6
  0
LTYPE
  5
14
100
AcDbSymbolTableRecord
100
AcDbLinetypeTableRecord
  2
BYBLOCK
 70
0
  3

 72
65
 73
0
 40
0.0
  0
LTYPE
  5
15
100
AcDbSymbolTableRecord
100
AcDbLinetypeTableRecord
  2
BYLAYER
 70
0
  3

 72
65
 73
0
 40
0.0
  0
LTYPE
  5
16
100
AcDbSymbolTableRecord
100
AcDbLinetypeTableRecord
  2
CONTINUOUS
 70
64
  3
Solid line
 72
65
 73
0
 40
0.0
  0
LTYPE
  5
1F5
100
AcDbSymbolTableRecord
100
AcDbLinetypeTableRecord
  2
CENTER
 70
64
  3
____ _ ____ _ ____ _ ____ _ ____ _ ____ _ ____
 72
65
 73
4
 40
0.6
 49
0.375
 74
0
 49
-0.075
 74
0
 49
0.075
 74
0
 49
-0.075
 74
0
  0
LTYPE
  5
1F6
100
AcDbSymbolTableRecord
100
AcDbLinetypeTableRecord
  2
HIDDEN
 70
64
  3
- - - - - - - - - - - - - - - - - - - -
 72
65
 73
2
 40
0.2
 49
0.1
 74
0
 49
-0.1
 74
0
  0
LTYPE
  5
1F7
100
AcDbSymbolTableRecord
100
AcDbLinetypeTableRecord
  2
PHANTOM
 70
64
  3
_____ _ _ _____ _ _ _____ _ _ _____
 72
65
 73
6
 40
0.8
 49
0.45
 74
0
 49
-0.05
 74
0
 49
0.1
 74
0
 49
-0.05
 74
0
 49
0.1
 74
0
 49
-0.05
 74
0
  0
LTYPE
  5
1F8
100
AcDbSymbolTableRecord
100
AcDbLinetypeTableRecord
  2
DOT
 70
64
  3
. . . . . . . . . . . . . . . . . . . .
 72
65
 73
2
 40
0.2
 49
0.1
 74
0
 49
-0.1
 74
0
  0
LTYPE
  5
1F9
100
AcDbSymbolTableRecord
100
AcDbLinetypeTableRecord
  2
DASHED
 70
64
  3
- - - - - - - - - - - - - - - - - - - -
 72
65
 73
2
 40
0.2
 49
0.1
 74
0
 49
-0.1
 74
0
  0
ENDTAB
  0
TABLE
  2
LAYER
  5
2
100
AcDbSymbolTable
 70
36
  0
LAYER
  5
10
100
AcDbSymbolTableRecord
100
AcDbLayerTableRecord
  2
0
 70
0
 62
7
  6
CONTINUOUS
370
-3
390
F
  0
LAYER
  5
1FA
100
AcDbSymbolTableRecord
100
AcDbLayerTableRecord
  2
DEFAULT_1
 70
0
 62
7
  6
CENTER
370
-3
390
F
  0
LAYER
  5
1FB
100
AcDbSymbolTableRecord
100
AcDbLayerTableRecord
  2
DEFAULT_2
 70
0
 62
7
  6
HIDDEN
370
-3
390
F
  0
LAYER
  5
1FC
100
AcDbSymbolTableRecord
100
AcDbLayerTableRecord
  2
DEFAULT_3
 70
0
 62
7
  6
PHANTOM
370
-3
390
F
  0
LAYER
  5
1FD
100
AcDbSymbolTableRecord
100
AcDbLayerTableRecord
  2
0603_C_REF_90000
 70
0
 62
7
  6
CONTINUOUS
370
-3
390
F
  0
LAYER
  5
1FE
100
AcDbSymbolTableRecord
100
AcDbLayerTableRecord
  2
0603_C_REF_90000_1
 70
0
 62
7
  6
CONTINUOUS
370
-3
390
F
  0
LAYER
  5
1FF
100
AcDbSymbolTableRecord
100
AcDbLayerTableRecord
  2
0603_C_REF_90000_1_1
 70
0
 62
7
  6
CONTINUOUS
370
-3
390
F
  0
LAYER
  5
200
100
AcDbSymbolTableRecord
100
AcDbLayerTableRecord
  2
0603_C_REF_90000_1_2
 70
0
 62
7
  6
CONTINUOUS
370
-3
390
F
  0
LAYER
  5
201
100
AcDbSymbolTableRecord
100
AcDbLayerTableRecord
  2
0603_C_REF_90000_2
 70
0
 62
7
  6
CONTINUOUS
370
-3
390
F
  0
LAYER
  5
202
100
AcDbSymbolTableRecord
100
AcDbLayerTableRecord
  2
0603_C_REF_90000_2_1
 70
0
 62
7
  6
CONTINUOUS
370
-3
390
F
  0
LAYER
  5
203
100
AcDbSymbolTableRecord
100
AcDbLayerTableRecord
  2
0603_C_REF_90000_3
 70
0
 62
7
  6
CONTINUOUS
370
-3
390
F
  0
LAYER
  5
204
100
AcDbSymbolTableRecord
100
AcDbLayerTableRecord
  2
0603_C_REF_90000_3_1
 70
0
 62
7
  6
CONTINUOUS
370
-3
390
F
  0
LAYER
  5
205
100
AcDbSymbolTableRecord
100
AcDbLayerTableRecord
  2
0603_C_REF_90000_4
 70
0
 62
7
  6
CONTINUOUS
370
-3
390
F
  0
LAYER
  5
206
100
AcDbSymbolTableRecord
100
AcDbLayerTableRecord
  2
0603_C_REF_90000_4_1
 70
0
 62
7
  6
CONTINUOUS
370
-3
390
F
  0
LAYER
  5
207
100
AcDbSymbolTableRecord
100
AcDbLayerTableRecord
  2
0603_C_REF_90000_5
 70
0
 62
7
  6
CONTINUOUS
370
-3
390
F
  0
LAYER
  5
208
100
AcDbSymbolTableRecord
100
AcDbLayerTableRecord
  2
0603_C_REF_90000_5_1
 70
0
 62
7
  6
CONTINUOUS
370
-3
390
F
  0
LAYER
  5
209
100
AcDbSymbolTableRecord
100
AcDbLayerTableRecord
  2
0603_R_REF_55000
 70
0
 62
7
  6
CONTINUOUS
370
-3
390
F
  0
LAYER
  5
20A
100
AcDbSymbolTableRecord
100
AcDbLayerTableRecord
  2
0603_R_REF_55000_1
 70
0
 62
7
  6
CONTINUOUS
370
-3
390
F
  0
LAYER
  5
20B
100
AcDbSymbolTableRecord
100
AcDbLayerTableRecord
  2
0603_R_REF_55000_1_1
 70
0
 62
7
  6
CONTINUOUS
370
-3
390
F
  0
LAYER
  5
20C
100
AcDbSymbolTableRecord
100
AcDbLayerTableRecord
  2
0603_R_REF_55000_1_2
 70
0
 62
7
  6
CONTINUOUS
370
-3
390
F
  0
LAYER
  5
20D
100
AcDbSymbolTableRecord
100
AcDbLayerTableRecord
  2
0603_R_REF_55000_2
 70
0
 62
7
  6
CONTINUOUS
370
-3
390
F
  0
LAYER
  5
20E
100
AcDbSymbolTableRecord
100
AcDbLayerTableRecord
  2
0603_R_REF_55000_2_1
 70
0
 62
7
  6
CONTINUOUS
370
-3
390
F
  0
LAYER
  5
20F
100
AcDbSymbolTableRecord
100
AcDbLayerTableRecord
  2
0603_R_REF_55000_3
 70
0
 62
7
  6
CONTINUOUS
370
-3
390
F
  0
LAYER
  5
210
100
AcDbSymbolTableRecord
100
AcDbLayerTableRecord
  2
0603_R_REF_55000_3_1
 70
0
 62
7
  6
CONTINUOUS
370
-3
390
F
  0
LAYER
  5
211
100
AcDbSymbolTableRecord
100
AcDbLayerTableRecord
  2
0603_R_REF_55000_4
 70
0
 62
7
  6
CONTINUOUS
370
-3
390
F
  0
LAYER
  5
212
100
AcDbSymbolTableRecord
100
AcDbLayerTableRecord
  2
0603_R_REF_55000_4_1
 70
0
 62
7
  6
CONTINUOUS
370
-3
390
F
  0
LAYER
  5
213
100
AcDbSymbolTableRecord
100
AcDbLayerTableRecord
  2
0603_R_REF_55000_5
 70
0
 62
7
  6
CONTINUOUS
370
-3
390
F
  0
LAYER
  5
214
100
AcDbSymbolTableRecord
100
AcDbLayerTableRecord
  2
0603_R_REF_55000_5_1
 70
0
 62
7
  6
CONTINUOUS
370
-3
390
F
  0
LAYER
  5
215
100
AcDbSymbolTableRecord
100
AcDbLayerTableRecord
  2
06___PRT_ALL_SURFS
 70
0
 62
7
  6
CONTINUOUS
370
-3
390
F
  0
LAYER
  5
216
100
AcDbSymbolTableRecord
100
AcDbLayerTableRecord
  2
06___PRT_ALL_SURFS_1
 70
0
 62
7
  6
CONTINUOUS
370
-3
390
F
  0
LAYER
  5
217
100
AcDbSymbolTableRecord
100
AcDbLayerTableRecord
  2
06___PRT_ALL_SURFS_10
 70
0
 62
7
  6
CONTINUOUS
370
-3
390
F
  0
LAYER
  5
218
100
AcDbSymbolTableRecord
100
AcDbLayerTableRecord
  2
06___PRT_ALL_SURFS_11
 70
0
 62
7
  6
CONTINUOUS
370
-3
390
F
  0
LAYER
  5
219
100
AcDbSymbolTableRecord
100
AcDbLayerTableRecord
  2
06___PRT_ALL_SURFS_12
 70
0
 62
7
  6
CONTINUOUS
370
-3
390
F
  0
LAYER
  5
21A
100
AcDbSymbolTableRecord
100
AcDbLayerTableRecord
  2
06___PRT_ALL_SURFS_13
 70
0
 62
7
  6
CONTINUOUS
370
-3
390
F
  0
LAYER
  5
21B
100
AcDbSymbolTableRecord
100
AcDbLayerTableRecord
  2
06___PRT_ALL_SURFS_14
 70
0
 62
7
  6
CONTINUOUS
370
-3
390
F
  0
LAYER
  5
21C
100
AcDbSymbolTableRecord
100
AcDbLayerTableRecord
  2
06___PRT_ALL_SURFS_15
 70
0
 62
7
  6
CONTINUOUS
370
-3
390
F
  0
LAYER
  5
21D
100
AcDbSymbolTableRecord
100
AcDbLayerTableRecord
  2
06___PRT_ALL_SURFS_17
 70
0
 62
7
  6
CONTINUOUS
370
-3
390
F
  0
LAYER
  5
21E
100
AcDbSymbolTableRecord
100
AcDbLayerTableRecord
  2
06___PRT_ALL_SURFS_19
 70
0
 62
7
  6
CONTINUOUS
370
-3
390
F
  0
LAYER
  5
21F
100
AcDbSymbolTableRecord
100
AcDbLayerTableRecord
  2
06___PRT_ALL_SURFS_2
 70
0
 62
7
  6
CONTINUOUS
370
-3
390
F
  0
LAYER
  5
220
100
AcDbSymbolTableRecord
100
AcDbLayerTableRecord
  2
06___PRT_ALL_SURFS_20
 70
0
 62
7
  6
CONTINUOUS
370
-3
390
F
  0
LAYER
  5
221
100
AcDbSymbolTableRecord
100
AcDbLayerTableRecord
  2
06___PRT_ALL_SURFS_21
 70
0
 62
7
  6
CONTINUOUS
370
-3
390
F
  0
LAYER
  5
222
100
AcDbSymbolTableRecord
100
AcDbLayerTableRecord
  2
06___PRT_ALL_SURFS_22
 70
0
 62
7
  6
CONTINUOUS
370
-3
390
F
  0
LAYER
  5
223
100
AcDbSymbolTableRecord
100
AcDbLayerTableRecord
  2
06___PRT_ALL_SURFS_23
 70
0
 62
7
  6
CONTINUOUS
370
-3
390
F
  0
LAYER
  5
224
100
AcDbSymbolTableRecord
100
AcDbLayerTableRecord
  2
06___PRT_ALL_SURFS_24
 70
0
 62
7
  6
CONTINUOUS
370
-3
390
F
  0
LAYER
  5
225
100
AcDbSymbolTableRecord
100
AcDbLayerTableRecord
  2
06___PRT_ALL_SURFS_25
 70
0
 62
7
  6
CONTINUOUS
370
-3
390
F
  0
LAYER
  5
226
100
AcDbSymbolTableRecord
100
AcDbLayerTableRecord
  2
06___PRT_ALL_SURFS_26
 70
0
 62
7
  6
CONTINUOUS
370
-3
390
F
  0
LAYER
  5
227
100
AcDbSymbolTableRecord
100
AcDbLayerTableRecord
  2
06___PRT_ALL_SURFS_28
 70
0
 62
7
  6
CONTINUOUS
370
-3
390
F
  0
LAYER
  5
228
100
AcDbSymbolTableRecord
100
AcDbLayerTableRecord
  2
06___PRT_ALL_SURFS_3
 70
0
 62
7
  6
CONTINUOUS
370
-3
390
F
  0
LAYER
  5
229
100
AcDbSymbolTableRecord
100
AcDbLayerTableRecord
  2
06___PRT_ALL_SURFS_4
 70
0
 62
7
  6
CONTINUOUS
370
-3
390
F
  0
LAYER
  5
22A
100
AcDbSymbolTableRecord
100
AcDbLayerTableRecord
  2
06___PRT_ALL_SURFS_5
 70
0
 62
7
  6
CONTINUOUS
370
-3
390
F
  0
LAYER
  5
22B
100
AcDbSymbolTableRecord
100
AcDbLayerTableRecord
  2
06___PRT_ALL_SURFS_6
 70
0
 62
7
  6
CONTINUOUS
370
-3
390
F
  0
LAYER
  5
22C
100
AcDbSymbolTableRecord
100
AcDbLayerTableRecord
  2
06___PRT_ALL_SURFS_7
 70
0
 62
7
  6
CONTINUOUS
370
-3
390
F
  0
LAYER
  5
22D
100
AcDbSymbolTableRecord
100
AcDbLayerTableRecord
  2
06___PRT_ALL_SURFS_8
 70
0
 62
7
  6
CONTINUOUS
370
-3
390
F
  0
LAYER
  5
22E
100
AcDbSymbolTableRecord
100
AcDbLayerTableRecord
  2
0805_C_REF_145000
 70
0
 62
7
  6
CONTINUOUS
370
-3
390
F
  0
LAYER
  5
22F
100
AcDbSymbolTableRecord
100
AcDbLayerTableRecord
  2
0805_C_REF_145000_1
 70
0
 62
7
  6
CONTINUOUS
370
-3
390
F
  0
LAYER
  5
230
100
AcDbSymbolTableRecord
100
AcDbLayerTableRecord
  2
0805_C_REF_145000_1_1
 70
0
 62
7
  6
CONTINUOUS
370
-3
390
F
  0
LAYER
  5
231
100
AcDbSymbolTableRecord
100
AcDbLayerTableRecord
  2
0805_C_REF_145000_1_2
 70
0
 62
7
  6
CONTINUOUS
370
-3
390
F
  0
LAYER
  5
232
100
AcDbSymbolTableRecord
100
AcDbLayerTableRecord
  2
0805_R_REF_60000
 70
0
 62
7
  6
CONTINUOUS
370
-3
390
F
  0
LAYER
  5
233
100
AcDbSymbolTableRecord
100
AcDbLayerTableRecord
  2
0805_R_REF_60000_1
 70
0
 62
7
  6
CONTINUOUS
370
-3
390
F
  0
LAYER
  5
234
100
AcDbSymbolTableRecord
100
AcDbLayerTableRecord
  2
0805_R_REF_60000_2
 70
0
 62
7
  6
CONTINUOUS
370
-3
390
F
  0
LAYER
  5
235
100
AcDbSymbolTableRecord
100
AcDbLayerTableRecord
  2
0805_R_REF_60000_3
 70
0
 62
7
  6
CONTINUOUS
370
-3
390
F
  0
LAYER
  5
236
100
AcDbSymbolTableRecord
100
AcDbLayerTableRecord
  2
1206_C_REF_180000
 70
0
 62
7
  6
CONTINUOUS
370
-3
390
F
  0
LAYER
  5
237
100
AcDbSymbolTableRecord
100
AcDbLayerTableRecord
  2
1206_C_REF_180000_1
 70
0
 62
7
  6
CONTINUOUS
370
-3
390
F
  0
LAYER
  5
238
100
AcDbSymbolTableRecord
100
AcDbLayerTableRecord
  2
1206_R_REF_65000
 70
0
 62
7
  6
CONTINUOUS
370
-3
390
F
  0
LAYER
  5
239
100
AcDbSymbolTableRecord
100
AcDbLayerTableRecord
  2
1206_R_REF_65000_1
 70
0
 62
7
  6
CONTINUOUS
370
-3
390
F
  0
LAYER
  5
23A
100
AcDbSymbolTableRecord
100
AcDbLayerTableRecord
  2
3216-CF-RF-VIMAR_100000
 70
0
 62
7
  6
CONTINUOUS
370
-3
390
F
  0
LAYER
  5
23B
100
AcDbSymbolTableRecord
100
AcDbLayerTableRecord
  2
3216-CF-RF-VIMAR_100000_1
 70
0
 62
7
  6
CONTINUOUS
370
-3
390
F
  0
LAYER
  5
23C
100
AcDbSymbolTableRecord
100
AcDbLayerTableRecord
  2
3216-CF-RF-VIMAR_100000_1_1
 70
0
 62
7
  6
CONTINUOUS
370
-3
390
F
  0
LAYER
  5
23D
100
AcDbSymbolTableRecord
100
AcDbLayerTableRecord
  2
3216-CF-RF-VIMAR_100000_1_2
 70
0
 62
7
  6
CONTINUOUS
370
-3
390
F
  0
LAYER
  5
23E
100
AcDbSymbolTableRecord
100
AcDbLayerTableRecord
  2
3216-R1-RF-VIMAR_60000
 70
0
 62
7
  6
CONTINUOUS
370
-3
390
F
  0
LAYER
  5
23F
100
AcDbSymbolTableRecord
100
AcDbLayerTableRecord
  2
43000913A0
 70
0
 62
7
  6
CONTINUOUS
370
-3
390
F
  0
LAYER
  5
240
100
AcDbSymbolTableRecord
100
AcDbLayerTableRecord
  2
43000943A0
 70
0
 62
7
  6
CONTINUOUS
370
-3
390
F
  0
LAYER
  5
241
100
AcDbSymbolTableRecord
100
AcDbLayerTableRecord
  2
43000943B0
 70
0
 62
7
  6
CONTINUOUS
370
-3
390
F
  0
LAYER
  5
242
100
AcDbSymbolTableRecord
100
AcDbLayerTableRecord
  2
43000953A0
 70
0
 62
7
  6
CONTINUOUS
370
-3
390
F
  0
LAYER
  5
243
100
AcDbSymbolTableRecord
100
AcDbLayerTableRecord
  2
43000953B0
 70
0
 62
7
  6
CONTINUOUS
370
-3
390
F
  0
LAYER
  5
244
100
AcDbSymbolTableRecord
100
AcDbLayerTableRecord
  2
ASSI
 70
0
 62
7
  6
CONTINUOUS
370
-3
390
F
  0
LAYER
  5
245
100
AcDbSymbolTableRecord
100
AcDbLayerTableRecord
  2
CAP-E-6_3-11-2_5_1120000
 70
0
 62
7
  6
CONTINUOUS
370
-3
390
F
  0
LAYER
  5
246
100
AcDbSymbolTableRecord
100
AcDbLayerTableRecord
  2
CAP-E-6_3-11-2_5_1120000_1
 70
0
 62
7
  6
CONTINUOUS
370
-3
390
F
  0
LAYER
  5
247
100
AcDbSymbolTableRecord
100
AcDbLayerTableRecord
  2
CN_STH_USB_TYPE-C_24P_90_SHORT
 70
0
 62
7
  6
CONTINUOUS
370
-3
390
F
  0
LAYER
  5
248
100
AcDbSymbolTableRecord
100
AcDbLayerTableRecord
  2
COLOR16
 70
0
 62
7
  6
CONTINUOUS
370
-3
390
F
  0
LAYER
  5
249
100
AcDbSymbolTableRecord
100
AcDbLayerTableRecord
  2
COLOR21
 70
0
 62
7
  6
CONTINUOUS
370
-3
390
F
  0
LAYER
  5
24A
100
AcDbSymbolTableRecord
100
AcDbLayerTableRecord
  2
COLOR23
 70
0
 62
7
  6
CONTINUOUS
370
-3
390
F
  0
LAYER
  5
24B
100
AcDbSymbolTableRecord
100
AcDbLayerTableRecord
  2
COLOR24
 70
0
 62
7
  6
CONTINUOUS
370
-3
390
F
  0
LAYER
  5
24C
100
AcDbSymbolTableRecord
100
AcDbLayerTableRecord
  2
COLOR25
 70
0
 62
7
  6
CONTINUOUS
370
-3
390
F
  0
LAYER
  5
24D
100
AcDbSymbolTableRecord
100
AcDbLayerTableRecord
  2
COLOR29
 70
0
 62
7
  6
CONTINUOUS
370
-3
390
F
  0
LAYER
  5
24E
100
AcDbSymbolTableRecord
100
AcDbLayerTableRecord
  2
COLOR30
 70
0
 62
7
  6
CONTINUOUS
370
-3
390
F
  0
LAYER
  5
24F
100
AcDbSymbolTableRecord
100
AcDbLayerTableRecord
  2
COLOR31
 70
0
 62
7
  6
CONTINUOUS
370
-3
390
F
  0
LAYER
  5
250
100
AcDbSymbolTableRecord
100
AcDbLayerTableRecord
  2
COLOR32
 70
0
 62
7
  6
CONTINUOUS
370
-3
390
F
  0
LAYER
  5
251
100
AcDbSymbolTableRecord
100
AcDbLayerTableRecord
  2
COLOR33
 70
0
 62
7
  6
CONTINUOUS
370
-3
390
F
  0
LAYER
  5
252
100
AcDbSymbolTableRecord
100
AcDbLayerTableRecord
  2
COLOR34
 70
0
 62
7
  6
CONTINUOUS
370
-3
390
F
  0
LAYER
  5
253
100
AcDbSymbolTableRecord
100
AcDbLayerTableRecord
  2
COLOR35
 70
0
 62
7
  6
CONTINUOUS
370
-3
390
F
  0
LAYER
  5
254
100
AcDbSymbolTableRecord
100
AcDbLayerTableRecord
  2
COLOR36
 70
0
 62
7
  6
CONTINUOUS
370
-3
390
F
  0
LAYER
  5
255
100
AcDbSymbolTableRecord
100
AcDbLayerTableRecord
  2
COLOR37
 70
0
 62
7
  6
CONTINUOUS
370
-3
390
F
  0
LAYER
  5
256
100
AcDbSymbolTableRecord
100
AcDbLayerTableRecord
  2
COLOR38
 70
0
 62
7
  6
CONTINUOUS
370
-3
390
F
  0
LAYER
  5
257
100
AcDbSymbolTableRecord
100
AcDbLayerTableRecord
  2
COLOR39
 70
0
 62
7
  6
CONTINUOUS
370
-3
390
F
  0
LAYER
  5
258
100
AcDbSymbolTableRecord
100
AcDbLayerTableRecord
  2
COLOR40
 70
0
 62
7
  6
CONTINUOUS
370
-3
390
F
  0
LAYER
  5
259
100
AcDbSymbolTableRecord
100
AcDbLayerTableRecord
  2
COLOR41
 70
0
 62
7
  6
CONTINUOUS
370
-3
390
F
  0
LAYER
  5
25A
100
AcDbSymbolTableRecord
100
AcDbLayerTableRecord
  2
COLOR42
 70
0
 62
7
  6
CONTINUOUS
370
-3
390
F
  0
LAYER
  5
25B
100
AcDbSymbolTableRecord
100
AcDbLayerTableRecord
  2
COLOR43
 70
0
 62
7
  6
CONTINUOUS
370
-3
390
F
  0
LAYER
  5
25C
100
AcDbSymbolTableRecord
100
AcDbLayerTableRecord
  2
COLOR44
 70
0
 62
7
  6
CONTINUOUS
370
-3
390
F
  0
LAYER
  5
25D
100
AcDbSymbolTableRecord
100
AcDbLayerTableRecord
  2
COLOR46
 70
0
 62
7
  6
CONTINUOUS
370
-3
390
F
  0
LAYER
  5
25E
100
AcDbSymbolTableRecord
100
AcDbLayerTableRecord
  2
COLOR47
 70
0
 62
7
  6
CONTINUOUS
370
-3
390
F
  0
LAYER
  5
25F
100
AcDbSymbolTableRecord
100
AcDbLayerTableRecord
  2
COLOR5
 70
0
 62
7
  6
CONTINUOUS
370
-3
390
F
  0
LAYER
  5
260
100
AcDbSymbolTableRecord
100
AcDbLayerTableRecord
  2
COLOR6
 70
0
 62
7
  6
CONTINUOUS
370
-3
390
F
  0
LAYER
  5
261
100
AcDbSymbolTableRecord
100
AcDbLayerTableRecord
  2
COLORE_MATERIALE
 70
0
 62
7
  6
CONTINUOUS
370
-3
390
F
  0
LAYER
  5
262
100
AcDbSymbolTableRecord
100
AcDbLayerTableRecord
  2
COORDINATE
 70
0
 62
7
  6
CONTINUOUS
370
-3
390
F
  0
LAYER
  5
263
100
AcDbSymbolTableRecord
100
AcDbLayerTableRecord
  2
COORD_ORIGINE
 70
0
 62
7
  6
CONTINUOUS
370
-3
390
F
  0
LAYER
  5
264
100
AcDbSymbolTableRecord
100
AcDbLayerTableRecord
  2
COPY_PUBLISH
 70
0
 62
7
  6
CONTINUOUS
370
-3
390
F
  0
LAYER
  5
265
100
AcDbSymbolTableRecord
100
AcDbLayerTableRecord
  2
COSMETICI
 70
0
 62
7
  6
CONTINUOUS
370
-3
390
F
  0
LAYER
  5
266
100
AcDbSymbolTableRecord
100
AcDbLayerTableRecord
  2
CR_MR2P5_MSB_SW_PTH_1000000
 70
0
 62
7
  6
CONTINUOUS
370
-3
390
F
  0
LAYER
  5
267
100
AcDbSymbolTableRecord
100
AcDbLayerTableRecord
  2
CURVE
 70
0
 62
7
  6
CONTINUOUS
370
-3
390
F
  0
LAYER
  5
268
100
AcDbSymbolTableRecord
100
AcDbLayerTableRecord
  2
DB-SMD-ABS_145000
 70
0
 62
7
  6
CONTINUOUS
370
-3
390
F
  0
LAYER
  5
269
100
AcDbSymbolTableRecord
100
AcDbLayerTableRecord
  2
DRAFT
 70
0
 62
7
  6
CONTINUOUS
370
-3
390
F
  0
LAYER
  5
26A
100
AcDbSymbolTableRecord
100
AcDbLayerTableRecord
  2
E2_MARK_10000
 70
0
 62
7
  6
CONTINUOUS
370
-3
390
F
  0
LAYER
  5
26B
100
AcDbSymbolTableRecord
100
AcDbLayerTableRecord
  2
FIDUCIAL_1_2_MM_RUOTATO_45_1000
 70
0
 62
7
  6
CONTINUOUS
370
-3
390
F
  0
LAYER
  5
26C
100
AcDbSymbolTableRecord
100
AcDbLayerTableRecord
  2
FIDUCIAL_1_2_MM_RUOTATO_45_100_
 70
0
 62
7
  6
CONTINUOUS
370
-3
390
F
  0
LAYER
  5
26D
100
AcDbSymbolTableRecord
100
AcDbLayerTableRecord
  2
FIDUCIAL_1_2_MM_RUOTATO_45_10_1
 70
0
 62
7
  6
CONTINUOUS
370
-3
390
F
  0
LAYER
  5
26E
100
AcDbSymbolTableRecord
100
AcDbLayerTableRecord
  2
FIDUCIAL_1_2_MM_RUOTATO_45_10_2
 70
0
 62
7
  6
CONTINUOUS
370
-3
390
F
  0
LAYER
  5
26F
100
AcDbSymbolTableRecord
100
AcDbLayerTableRecord
  2
FIDUCIAL_1_2_MM_RUOTATO_45_10_3
 70
0
 62
7
  6
CONTINUOUS
370
-3
390
F
  0
LAYER
  5
270
100
AcDbSymbolTableRecord
100
AcDbLayerTableRecord
  2
FIDUCIAL_1_2_MM_RUOTATO_45_10__
 70
0
 62
7
  6
CONTINUOUS
370
-3
390
F
  0
LAYER
  5
271
100
AcDbSymbolTableRecord
100
AcDbLayerTableRecord
  2
GEOMETRIA_SOLIDA
 70
0
 62
7
  6
CONTINUOUS
370
-3
390
F
  0
LAYER
  5
272
100
AcDbSymbolTableRecord
100
AcDbLayerTableRecord
  2
GEOMETRIA_SOLIDA_1
 70
0
 62
7
  6
CONTINUOUS
370
-3
390
F
  0
LAYER
  5
273
100
AcDbSymbolTableRecord
100
AcDbLayerTableRecord
  2
GEOMETRIA_SOLIDA_1_1
 70
0
 62
7
  6
CONTINUOUS
370
-3
390
F
  0
LAYER
  5
274
100
AcDbSymbolTableRecord
100
AcDbLayerTableRecord
  2
GEOMETRIA_SOLIDA_2
 70
0
 62
7
  6
CONTINUOUS
370
-3
390
F
  0
LAYER
  5
275
100
AcDbSymbolTableRecord
100
AcDbLayerTableRecord
  2
GEOMETRIA_SOLIDA_3
 70
0
 62
7
  6
CONTINUOUS
370
-3
390
F
  0
LAYER
  5
276
100
AcDbSymbolTableRecord
100
AcDbLayerTableRecord
  2
IMPORT_IGES
 70
0
 62
7
  6
CONTINUOUS
370
-3
390
F
  0
LAYER
  5
277
100
AcDbSymbolTableRecord
100
AcDbLayerTableRecord
  2
IND-RAD-7_8-9_5-5_0-0_7_950000
 70
0
 62
7
  6
CONTINUOUS
370
-3
390
F
  0
LAYER
  5
278
100
AcDbSymbolTableRecord
100
AcDbLayerTableRecord
  2
INTFCLR_10207
 70
0
 62
7
  6
CONTINUOUS
370
-3
390
F
  0
LAYER
  5
279
100
AcDbSymbolTableRecord
100
AcDbLayerTableRecord
  2
INTFCLR_10389
 70
0
 62
7
  6
CONTINUOUS
370
-3
390
F
  0
LAYER
  5
27A
100
AcDbSymbolTableRecord
100
AcDbLayerTableRecord
  2
INTFCLR_10571
 70
0
 62
7
  6
CONTINUOUS
370
-3
390
F
  0
LAYER
  5
27B
100
AcDbSymbolTableRecord
100
AcDbLayerTableRecord
  2
INTFCLR_10821
 70
0
 62
7
  6
CONTINUOUS
370
-3
390
F
  0
LAYER
  5
27C
100
AcDbSymbolTableRecord
100
AcDbLayerTableRecord
  2
INTFCLR_11003
 70
0
 62
7
  6
CONTINUOUS
370
-3
390
F
  0
LAYER
  5
27D
100
AcDbSymbolTableRecord
100
AcDbLayerTableRecord
  2
INTFCLR_11325
 70
0
 62
7
  6
CONTINUOUS
370
-3
390
F
  0
LAYER
  5
27E
100
AcDbSymbolTableRecord
100
AcDbLayerTableRecord
  2
INTFCLR_11507
 70
0
 62
7
  6
CONTINUOUS
370
-3
390
F
  0
LAYER
  5
27F
100
AcDbSymbolTableRecord
100
AcDbLayerTableRecord
  2
INTFCLR_11689
 70
0
 62
7
  6
CONTINUOUS
370
-3
390
F
  0
LAYER
  5
280
100
AcDbSymbolTableRecord
100
AcDbLayerTableRecord
  2
INTFCLR_11871
 70
0
 62
7
  6
CONTINUOUS
370
-3
390
F
  0
LAYER
  5
281
100
AcDbSymbolTableRecord
100
AcDbLayerTableRecord
  2
INTFCLR_12053
 70
0
 62
7
  6
CONTINUOUS
370
-3
390
F
  0
LAYER
  5
282
100
AcDbSymbolTableRecord
100
AcDbLayerTableRecord
  2
INTFCLR_14087
 70
0
 62
7
  6
CONTINUOUS
370
-3
390
F
  0
LAYER
  5
283
100
AcDbSymbolTableRecord
100
AcDbLayerTableRecord
  2
INTFCLR_14455
 70
0
 62
7
  6
CONTINUOUS
370
-3
390
F
  0
LAYER
  5
284
100
AcDbSymbolTableRecord
100
AcDbLayerTableRecord
  2
INTFCLR_14637
 70
0
 62
7
  6
CONTINUOUS
370
-3
390
F
  0
LAYER
  5
285
100
AcDbSymbolTableRecord
100
AcDbLayerTableRecord
  2
INTFCLR_3
 70
0
 62
7
  6
CONTINUOUS
370
-3
390
F
  0
LAYER
  5
286
100
AcDbSymbolTableRecord
100
AcDbLayerTableRecord
  2
INTFCLR_31
 70
0
 62
7
  6
CONTINUOUS
370
-3
390
F
  0
LAYER
  5
287
100
AcDbSymbolTableRecord
100
AcDbLayerTableRecord
  2
INTFCLR_39199
 70
0
 62
7
  6
CONTINUOUS
370
-3
390
F
  0
LAYER
  5
288
100
AcDbSymbolTableRecord
100
AcDbLayerTableRecord
  2
INTFCLR_5113
 70
0
 62
7
  6
CONTINUOUS
370
-3
390
F
  0
LAYER
  5
289
100
AcDbSymbolTableRecord
100
AcDbLayerTableRecord
  2
INTFCLR_5481
 70
0
 62
7
  6
CONTINUOUS
370
-3
390
F
  0
LAYER
  5
28A
100
AcDbSymbolTableRecord
100
AcDbLayerTableRecord
  2
INTFCLR_5663
 70
0
 62
7
  6
CONTINUOUS
370
-3
390
F
  0
LAYER
  5
28B
100
AcDbSymbolTableRecord
100
AcDbLayerTableRecord
  2
INTFCLR_5845
 70
0
 62
7
  6
CONTINUOUS
370
-3
390
F
  0
LAYER
  5
28C
100
AcDbSymbolTableRecord
100
AcDbLayerTableRecord
  2
INTFCLR_9533
 70
0
 62
7
  6
CONTINUOUS
370
-3
390
F
  0
LAYER
  5
28D
100
AcDbSymbolTableRecord
100
AcDbLayerTableRecord
  2
INTF_1
 70
0
 62
7
  6
CONTINUOUS
370
-3
390
F
  0
LAYER
  5
28E
100
AcDbSymbolTableRecord
100
AcDbLayerTableRecord
  2
INTF_11
 70
0
 62
7
  6
CONTINUOUS
370
-3
390
F
  0
LAYER
  5
28F
100
AcDbSymbolTableRecord
100
AcDbLayerTableRecord
  2
INTF_2
 70
0
 62
7
  6
CONTINUOUS
370
-3
390
F
  0
LAYER
  5
290
100
AcDbSymbolTableRecord
100
AcDbLayerTableRecord
  2
INTF_3
 70
0
 62
7
  6
CONTINUOUS
370
-3
390
F
  0
LAYER
  5
291
100
AcDbSymbolTableRecord
100
AcDbLayerTableRecord
  2
INTF_6
 70
0
 62
7
  6
CONTINUOUS
370
-3
390
F
  0
LAYER
  5
292
100
AcDbSymbolTableRecord
100
AcDbLayerTableRecord
  2
INTF_8
 70
0
 62
7
  6
CONTINUOUS
370
-3
390
F
  0
LAYER
  5
293
100
AcDbSymbolTableRecord
100
AcDbLayerTableRecord
  2
INTF_BLANK
 70
0
 62
7
  6
CONTINUOUS
370
-3
390
F
  0
LAYER
  5
294
100
AcDbSymbolTableRecord
100
AcDbLayerTableRecord
  2
INTF_GREEN
 70
0
 62
7
  6
CONTINUOUS
370
-3
390
F
  0
LAYER
  5
295
100
AcDbSymbolTableRecord
100
AcDbLayerTableRecord
  2
LOGO_RESIST-RESTYLING_10000
 70
0
 62
7
  6
CONTINUOUS
370
-3
390
F
  0
LAYER
  5
296
100
AcDbSymbolTableRecord
100
AcDbLayerTableRecord
  2
MINIMELF_R_REF_140000
 70
0
 62
7
  6
CONTINUOUS
370
-3
390
F
  0
LAYER
  5
297
100
AcDbSymbolTableRecord
100
AcDbLayerTableRecord
  2
NO-PB_MARK_10000
 70
0
 62
7
  6
CONTINUOUS
370
-3
390
F
  0
LAYER
  5
298
100
AcDbSymbolTableRecord
100
AcDbLayerTableRecord
  2
NONE
 70
0
 62
7
  6
CONTINUOUS
370
-3
390
F
  0
LAYER
  5
299
100
AcDbSymbolTableRecord
100
AcDbLayerTableRecord
  2
NOTE
 70
0
 62
7
  6
CONTINUOUS
370
-3
390
F
  0
LAYER
  5
29A
100
AcDbSymbolTableRecord
100
AcDbLayerTableRecord
  2
PIANI
 70
0
 62
7
  6
CONTINUOUS
370
-3
390
F
  0
LAYER
  5
29B
100
AcDbSymbolTableRecord
100
AcDbLayerTableRecord
  2
PIANI_ORIGINE
 70
0
 62
7
  6
CONTINUOUS
370
-3
390
F
  0
LAYER
  5
29C
100
AcDbSymbolTableRecord
100
AcDbLayerTableRecord
  2
PIANI_RIFERIMENTO
 70
0
 62
7
  6
CONTINUOUS
370
-3
390
F
  0
LAYER
  5
29D
100
AcDbSymbolTableRecord
100
AcDbLayerTableRecord
  2
PTC_EPCOS_B57153S0100M051_13000
 70
0
 62
7
  6
CONTINUOUS
370
-3
390
F
  0
LAYER
  5
29E
100
AcDbSymbolTableRecord
100
AcDbLayerTableRecord
  2
PUNTI
 70
0
 62
7
  6
CONTINUOUS
370
-3
390
F
  0
LAYER
  5
29F
100
AcDbSymbolTableRecord
100
AcDbLayerTableRecord
  2
RACCORDO
 70
0
 62
7
  6
CONTINUOUS
370
-3
390
F
  0
LAYER
  5
2A0
100
AcDbSymbolTableRecord
100
AcDbLayerTableRecord
  2
RESC1608N_45000
 70
0
 62
7
  6
CONTINUOUS
370
-3
390
F
  0
LAYER
  5
2A1
100
AcDbSymbolTableRecord
100
AcDbLayerTableRecord
  2
RESC1608N_45000_1
 70
0
 62
7
  6
CONTINUOUS
370
-3
390
F
  0
LAYER
  5
2A2
100
AcDbSymbolTableRecord
100
AcDbLayerTableRecord
  2
RESC1608N_45000_1_1
 70
0
 62
7
  6
CONTINUOUS
370
-3
390
F
  0
LAYER
  5
2A3
100
AcDbSymbolTableRecord
100
AcDbLayerTableRecord
  2
RESC1608N_45000_1_2
 70
0
 62
7
  6
CONTINUOUS
370
-3
390
F
  0
LAYER
  5
2A4
100
AcDbSymbolTableRecord
100
AcDbLayerTableRecord
  2
RESC1608N_45000_2
 70
0
 62
7
  6
CONTINUOUS
370
-3
390
F
  0
LAYER
  5
2A5
100
AcDbSymbolTableRecord
100
AcDbLayerTableRecord
  2
RESC1608N_45000_2_1
 70
0
 62
7
  6
CONTINUOUS
370
-3
390
F
  0
LAYER
  5
2A6
100
AcDbSymbolTableRecord
100
AcDbLayerTableRecord
  2
RESC1608N_45000_3
 70
0
 62
7
  6
CONTINUOUS
370
-3
390
F
  0
LAYER
  5
2A7
100
AcDbSymbolTableRecord
100
AcDbLayerTableRecord
  2
RESC1608N_45000_3_1
 70
0
 62
7
  6
CONTINUOUS
370
-3
390
F
  0
LAYER
  5
2A8
100
AcDbSymbolTableRecord
100
AcDbLayerTableRecord
  2
SIMBOLI
 70
0
 62
7
  6
CONTINUOUS
370
-3
390
F
  0
LAYER
  5
2A9
100
AcDbSymbolTableRecord
100
AcDbLayerTableRecord
  2
SMUSSO
 70
0
 62
7
  6
CONTINUOUS
370
-3
390
F
  0
LAYER
  5
2AA
100
AcDbSymbolTableRecord
100
AcDbLayerTableRecord
  2
SNAPLINE
 70
0
 62
7
  6
CONTINUOUS
370
-3
390
F
  0
LAYER
  5
2AB
100
AcDbSymbolTableRecord
100
AcDbLayerTableRecord
  2
SOD123_REF_140000
 70
0
 62
7
  6
CONTINUOUS
370
-3
390
F
  0
LAYER
  5
2AC
100
AcDbSymbolTableRecord
100
AcDbLayerTableRecord
  2
SOT323_H1_1_REF_110000
 70
0
 62
7
  6
CONTINUOUS
370
-3
390
F
  0
LAYER
  5
2AD
100
AcDbSymbolTableRecord
100
AcDbLayerTableRecord
  2
SUB_SMA_143000
 70
0
 62
7
  6
CONTINUOUS
370
-3
390
F
  0
LAYER
  5
2AE
100
AcDbSymbolTableRecord
100
AcDbLayerTableRecord
  2
SUB_SMA_143000_1
 70
0
 62
7
  6
CONTINUOUS
370
-3
390
F
  0
LAYER
  5
2AF
100
AcDbSymbolTableRecord
100
AcDbLayerTableRecord
  2
SUPERFICI
 70
0
 62
7
  6
CONTINUOUS
370
-3
390
F
  0
LAYER
  5
2B0
100
AcDbSymbolTableRecord
100
AcDbLayerTableRecord
  2
TRASH
 70
0
 62
7
  6
CONTINUOUS
370
-3
390
F
  0
LAYER
  5
2B1
100
AcDbSymbolTableRecord
100
AcDbLayerTableRecord
  2
UMT-250_REF_300000
 70
0
 62
7
  6
CONTINUOUS
370
-3
390
F
  0
LAYER
  5
2B2
100
AcDbSymbolTableRecord
100
AcDbLayerTableRecord
  2
VG_CAP-E-8_0-12_0-3_5-0_6_14000
 70
0
 62
7
  6
CONTINUOUS
370
-3
390
F
  0
LAYER
  5
2B3
100
AcDbSymbolTableRecord
100
AcDbLayerTableRecord
  2
VG_CAP-E-8_0-12_0-3_5-0_6_140_1
 70
0
 62
7
  6
CONTINUOUS
370
-3
390
F
  0
LAYER
  5
2B4
100
AcDbSymbolTableRecord
100
AcDbLayerTableRecord
  2
VG_CAP-RND-10_0-7_0-5_0-10_0-0_
 70
0
 62
7
  6
CONTINUOUS
370
-3
390
F
  0
LAYER
  5
2B5
100
AcDbSymbolTableRecord
100
AcDbLayerTableRecord
  2
VG_CAP-RND-10_0-7_0-5_0-10_0-_1
 70
0
 62
7
  6
CONTINUOUS
370
-3
390
F
  0
LAYER
  5
2B6
100
AcDbSymbolTableRecord
100
AcDbLayerTableRecord
  2
VG_CN_STH_USB_TYPE-C_24P_RIGHT_
 70
0
 62
7
  6
CONTINUOUS
370
-3
390
F
  0
LAYER
  5
2B7
100
AcDbSymbolTableRecord
100
AcDbLayerTableRecord
  2
VG_CN_STH_USB_TYPE-C_24P_RIGH_1
 70
0
 62
7
  6
CONTINUOUS
370
-3
390
F
  0
LAYER
  5
2B8
100
AcDbSymbolTableRecord
100
AcDbLayerTableRecord
  2
VG_CN_THT_USB_TYPE-A_4P_VERTICA
 70
0
 62
7
  6
CONTINUOUS
370
-3
390
F
  0
LAYER
  5
2B9
100
AcDbSymbolTableRecord
100
AcDbLayerTableRecord
  2
VG_CN_THT_USB_TYPE-A_4P_VERTI_1
 70
0
 62
7
  6
CONTINUOUS
370
-3
390
F
  0
LAYER
  5
2BA
100
AcDbSymbolTableRecord
100
AcDbLayerTableRecord
  2
VG_FUSE-6_1X2_69H2_69-F_269000
 70
0
 62
7
  6
CONTINUOUS
370
-3
390
F
  0
LAYER
  5
2BB
100
AcDbSymbolTableRecord
100
AcDbLayerTableRecord
  2
VG_INSOP24D-9_4-13_43-1_6-0_75-
 70
0
 62
7
  6
CONTINUOUS
370
-3
390
F
  0
LAYER
  5
2BC
100
AcDbSymbolTableRecord
100
AcDbLayerTableRecord
  2
VG_PAD_SMD_REC_P1_0X1_4_1_14X1_
 70
0
 62
7
  6
CONTINUOUS
370
-3
390
F
  0
LAYER
  5
2BD
100
AcDbSymbolTableRecord
100
AcDbLayerTableRecord
  2
VG_PAD_SMD_REC_P1_0X1_4_1_14X_1
 70
0
 62
7
  6
CONTINUOUS
370
-3
390
F
  0
LAYER
  5
2BE
100
AcDbSymbolTableRecord
100
AcDbLayerTableRecord
  2
VG_PAD_SMD_REC_P1_0X1_4_1_14X_2
 70
0
 62
7
  6
CONTINUOUS
370
-3
390
F
  0
LAYER
  5
2BF
100
AcDbSymbolTableRecord
100
AcDbLayerTableRecord
  2
VG_PAD_SMD_REC_P1_0X1_4_1_14X_3
 70
0
 62
7
  6
CONTINUOUS
370
-3
390
F
  0
LAYER
  5
2C0
100
AcDbSymbolTableRecord
100
AcDbLayerTableRecord
  2
VG_PAD_SMD_REC_P1_0X1_4_1_14X_4
 70
0
 62
7
  6
CONTINUOUS
370
-3
390
F
  0
LAYER
  5
2C1
100
AcDbSymbolTableRecord
100
AcDbLayerTableRecord
  2
VG_PAD_SMD_REC_P1_0X1_4_1_14X_5
 70
0
 62
7
  6
CONTINUOUS
370
-3
390
F
  0
LAYER
  5
2C2
100
AcDbSymbolTableRecord
100
AcDbLayerTableRecord
  2
VG_PAD_SMD_REC_P1_0X1_4_1_14X_6
 70
0
 62
7
  6
CONTINUOUS
370
-3
390
F
  0
LAYER
  5
2C3
100
AcDbSymbolTableRecord
100
AcDbLayerTableRecord
  2
VG_PAD_SMD_REC_P1_0X1_4_1_14X_7
 70
0
 62
7
  6
CONTINUOUS
370
-3
390
F
  0
LAYER
  5
2C4
100
AcDbSymbolTableRecord
100
AcDbLayerTableRecord
  2
VG_PAD_SMD_REC_P1_0X1_4_1_14X_8
 70
0
 62
7
  6
CONTINUOUS
370
-3
390
F
  0
LAYER
  5
2C5
100
AcDbSymbolTableRecord
100
AcDbLayerTableRecord
  2
VG_PAD_SMD_REC_P1_0X1_4_1_14X_9
 70
0
 62
7
  6
CONTINUOUS
370
-3
390
F
  0
LAYER
  5
2C6
100
AcDbSymbolTableRecord
100
AcDbLayerTableRecord
  2
VG_PAD_SMD_REC_P1_0X1_4_1_14_10
 70
0
 62
7
  6
CONTINUOUS
370
-3
390
F
  0
LAYER
  5
2C7
100
AcDbSymbolTableRecord
100
AcDbLayerTableRecord
  2
VG_PAD_SMD_REC_P1_0X1_4_1_14_11
 70
0
 62
7
  6
CONTINUOUS
370
-3
390
F
  0
LAYER
  5
2C8
100
AcDbSymbolTableRecord
100
AcDbLayerTableRecord
  2
VG_POWER56_110000
 70
0
 62
7
  6
CONTINUOUS
370
-3
390
F
  0
LAYER
  5
2C9
100
AcDbSymbolTableRecord
100
AcDbLayerTableRecord
  2
VG_TRA_RM6S_1250000
 70
0
 62
7
  6
CONTINUOUS
370
-3
390
F
  0
LAYER
  5
2CA
100
AcDbSymbolTableRecord
100
AcDbLayerTableRecord
  2
XSEC_DATUMS
 70
0
 62
7
  6
CONTINUOUS
370
-3
390
F
  0
LAYER
  5
2CB
100
AcDbSymbolTableRecord
100
AcDbLayerTableRecord
  2
___SHELL
 70
0
 62
7
  6
CONTINUOUS
370
-3
390
F
  0
LAYER
  5
2CC
100
AcDbSymbolTableRecord
100
AcDbLayerTableRecord
  2
___SHELL_1
 70
0
 62
7
  6
CONTINUOUS
370
-3
390
F
  0
LAYER
  5
2CD
100
AcDbSymbolTableRecord
100
AcDbLayerTableRecord
  2
___SHELL_10
 70
0
 62
7
  6
CONTINUOUS
370
-3
390
F
  0
LAYER
  5
2CE
100
AcDbSymbolTableRecord
100
AcDbLayerTableRecord
  2
___SHELL_11
 70
0
 62
7
  6
CONTINUOUS
370
-3
390
F
  0
LAYER
  5
2CF
100
AcDbSymbolTableRecord
100
AcDbLayerTableRecord
  2
___SHELL_12
 70
0
 62
7
  6
CONTINUOUS
370
-3
390
F
  0
LAYER
  5
2D0
100
AcDbSymbolTableRecord
100
AcDbLayerTableRecord
  2
___SHELL_13
 70
0
 62
7
  6
CONTINUOUS
370
-3
390
F
  0
LAYER
  5
2D1
100
AcDbSymbolTableRecord
100
AcDbLayerTableRecord
  2
___SHELL_14
 70
0
 62
7
  6
CONTINUOUS
370
-3
390
F
  0
LAYER
  5
2D2
100
AcDbSymbolTableRecord
100
AcDbLayerTableRecord
  2
___SHELL_15
 70
0
 62
7
  6
CONTINUOUS
370
-3
390
F
  0
LAYER
  5
2D3
100
AcDbSymbolTableRecord
100
AcDbLayerTableRecord
  2
___SHELL_16
 70
0
 62
7
  6
CONTINUOUS
370
-3
390
F
  0
LAYER
  5
2D4
100
AcDbSymbolTableRecord
100
AcDbLayerTableRecord
  2
___SHELL_17
 70
0
 62
7
  6
CONTINUOUS
370
-3
390
F
  0
LAYER
  5
2D5
100
AcDbSymbolTableRecord
100
AcDbLayerTableRecord
  2
___SHELL_18
 70
0
 62
7
  6
CONTINUOUS
370
-3
390
F
  0
LAYER
  5
2D6
100
AcDbSymbolTableRecord
100
AcDbLayerTableRecord
  2
___SHELL_19
 70
0
 62
7
  6
CONTINUOUS
370
-3
390
F
  0
LAYER
  5
2D7
100
AcDbSymbolTableRecord
100
AcDbLayerTableRecord
  2
___SHELL_2
 70
0
 62
7
  6
CONTINUOUS
370
-3
390
F
  0
LAYER
  5
2D8
100
AcDbSymbolTableRecord
100
AcDbLayerTableRecord
  2
___SHELL_20
 70
0
 62
7
  6
CONTINUOUS
370
-3
390
F
  0
LAYER
  5
2D9
100
AcDbSymbolTableRecord
100
AcDbLayerTableRecord
  2
___SHELL_21
 70
0
 62
7
  6
CONTINUOUS
370
-3
390
F
  0
LAYER
  5
2DA
100
AcDbSymbolTableRecord
100
AcDbLayerTableRecord
  2
___SHELL_22
 70
0
 62
7
  6
CONTINUOUS
370
-3
390
F
  0
LAYER
  5
2DB
100
AcDbSymbolTableRecord
100
AcDbLayerTableRecord
  2
___SHELL_23
 70
0
 62
7
  6
CONTINUOUS
370
-3
390
F
  0
LAYER
  5
2DC
100
AcDbSymbolTableRecord
100
AcDbLayerTableRecord
  2
___SHELL_24
 70
0
 62
7
  6
CONTINUOUS
370
-3
390
F
  0
LAYER
  5
2DD
100
AcDbSymbolTableRecord
100
AcDbLayerTableRecord
  2
___SHELL_25
 70
0
 62
7
  6
CONTINUOUS
370
-3
390
F
  0
LAYER
  5
2DE
100
AcDbSymbolTableRecord
100
AcDbLayerTableRecord
  2
___SHELL_26
 70
0
 62
7
  6
CONTINUOUS
370
-3
390
F
  0
LAYER
  5
2DF
100
AcDbSymbolTableRecord
100
AcDbLayerTableRecord
  2
___SHELL_27
 70
0
 62
7
  6
CONTINUOUS
370
-3
390
F
  0
LAYER
  5
2E0
100
AcDbSymbolTableRecord
100
AcDbLayerTableRecord
  2
___SHELL_28
 70
0
 62
7
  6
CONTINUOUS
370
-3
390
F
  0
LAYER
  5
2E1
100
AcDbSymbolTableRecord
100
AcDbLayerTableRecord
  2
___SHELL_29
 70
0
 62
7
  6
CONTINUOUS
370
-3
390
F
  0
LAYER
  5
2E2
100
AcDbSymbolTableRecord
100
AcDbLayerTableRecord
  2
___SHELL_3
 70
0
 62
7
  6
CONTINUOUS
370
-3
390
F
  0
LAYER
  5
2E3
100
AcDbSymbolTableRecord
100
AcDbLayerTableRecord
  2
___SHELL_30
 70
0
 62
7
  6
CONTINUOUS
370
-3
390
F
  0
LAYER
  5
2E4
100
AcDbSymbolTableRecord
100
AcDbLayerTableRecord
  2
___SHELL_31
 70
0
 62
7
  6
CONTINUOUS
370
-3
390
F
  0
LAYER
  5
2E5
100
AcDbSymbolTableRecord
100
AcDbLayerTableRecord
  2
___SHELL_32
 70
0
 62
7
  6
CONTINUOUS
370
-3
390
F
  0
LAYER
  5
2E6
100
AcDbSymbolTableRecord
100
AcDbLayerTableRecord
  2
___SHELL_33
 70
0
 62
7
  6
CONTINUOUS
370
-3
390
F
  0
LAYER
  5
2E7
100
AcDbSymbolTableRecord
100
AcDbLayerTableRecord
  2
___SHELL_34
 70
0
 62
7
  6
CONTINUOUS
370
-3
390
F
  0
LAYER
  5
2E8
100
AcDbSymbolTableRecord
100
AcDbLayerTableRecord
  2
___SHELL_35
 70
0
 62
7
  6
CONTINUOUS
370
-3
390
F
  0
LAYER
  5
2E9
100
AcDbSymbolTableRecord
100
AcDbLayerTableRecord
  2
___SHELL_36
 70
0
 62
7
  6
CONTINUOUS
370
-3
390
F
  0
LAYER
  5
2EA
100
AcDbSymbolTableRecord
100
AcDbLayerTableRecord
  2
___SHELL_37
 70
0
 62
7
  6
CONTINUOUS
370
-3
390
F
  0
LAYER
  5
2EB
100
AcDbSymbolTableRecord
100
AcDbLayerTableRecord
  2
___SHELL_38
 70
0
 62
7
  6
CONTINUOUS
370
-3
390
F
  0
LAYER
  5
2EC
100
AcDbSymbolTableRecord
100
AcDbLayerTableRecord
  2
___SHELL_39
 70
0
 62
7
  6
CONTINUOUS
370
-3
390
F
  0
LAYER
  5
2ED
100
AcDbSymbolTableRecord
100
AcDbLayerTableRecord
  2
___SHELL_4
 70
0
 62
7
  6
CONTINUOUS
370
-3
390
F
  0
LAYER
  5
2EE
100
AcDbSymbolTableRecord
100
AcDbLayerTableRecord
  2
___SHELL_40
 70
0
 62
7
  6
CONTINUOUS
370
-3
390
F
  0
LAYER
  5
2EF
100
AcDbSymbolTableRecord
100
AcDbLayerTableRecord
  2
___SHELL_41
 70
0
 62
7
  6
CONTINUOUS
370
-3
390
F
  0
LAYER
  5
2F0
100
AcDbSymbolTableRecord
100
AcDbLayerTableRecord
  2
___SHELL_42
 70
0
 62
7
  6
CONTINUOUS
370
-3
390
F
  0
LAYER
  5
2F1
100
AcDbSymbolTableRecord
100
AcDbLayerTableRecord
  2
___SHELL_43
 70
0
 62
7
  6
CONTINUOUS
370
-3
390
F
  0
LAYER
  5
2F2
100
AcDbSymbolTableRecord
100
AcDbLayerTableRecord
  2
___SHELL_44
 70
0
 62
7
  6
CONTINUOUS
370
-3
390
F
  0
LAYER
  5
2F3
100
AcDbSymbolTableRecord
100
AcDbLayerTableRecord
  2
___SHELL_45
 70
0
 62
7
  6
CONTINUOUS
370
-3
390
F
  0
LAYER
  5
2F4
100
AcDbSymbolTableRecord
100
AcDbLayerTableRecord
  2
___SHELL_46
 70
0
 62
7
  6
CONTINUOUS
370
-3
390
F
  0
LAYER
  5
2F5
100
AcDbSymbolTableRecord
100
AcDbLayerTableRecord
  2
___SHELL_47
 70
0
 62
7
  6
CONTINUOUS
370
-3
390
F
  0
LAYER
  5
2F6
100
AcDbSymbolTableRecord
100
AcDbLayerTableRecord
  2
___SHELL_48
 70
0
 62
7
  6
CONTINUOUS
370
-3
390
F
  0
LAYER
  5
2F7
100
AcDbSymbolTableRecord
100
AcDbLayerTableRecord
  2
___SHELL_49
 70
0
 62
7
  6
CONTINUOUS
370
-3
390
F
  0
LAYER
  5
2F8
100
AcDbSymbolTableRecord
100
AcDbLayerTableRecord
  2
___SHELL_5
 70
0
 62
7
  6
CONTINUOUS
370
-3
390
F
  0
LAYER
  5
2F9
100
AcDbSymbolTableRecord
100
AcDbLayerTableRecord
  2
___SHELL_50
 70
0
 62
7
  6
CONTINUOUS
370
-3
390
F
  0
LAYER
  5
2FA
100
AcDbSymbolTableRecord
100
AcDbLayerTableRecord
  2
___SHELL_51
 70
0
 62
7
  6
CONTINUOUS
370
-3
390
F
  0
LAYER
  5
2FB
100
AcDbSymbolTableRecord
100
AcDbLayerTableRecord
  2
___SHELL_52
 70
0
 62
7
  6
CONTINUOUS
370
-3
390
F
  0
LAYER
  5
2FC
100
AcDbSymbolTableRecord
100
AcDbLayerTableRecord
  2
___SHELL_53
 70
0
 62
7
  6
CONTINUOUS
370
-3
390
F
  0
LAYER
  5
2FD
100
AcDbSymbolTableRecord
100
AcDbLayerTableRecord
  2
___SHELL_54
 70
0
 62
7
  6
CONTINUOUS
370
-3
390
F
  0
LAYER
  5
2FE
100
AcDbSymbolTableRecord
100
AcDbLayerTableRecord
  2
___SHELL_6
 70
0
 62
7
  6
CONTINUOUS
370
-3
390
F
  0
LAYER
  5
2FF
100
AcDbSymbolTableRecord
100
AcDbLayerTableRecord
  2
___SHELL_7
 70
0
 62
7
  6
CONTINUOUS
370
-3
390
F
  0
LAYER
  5
300
100
AcDbSymbolTableRecord
100
AcDbLayerTableRecord
  2
___SHELL_8
 70
0
 62
7
  6
CONTINUOUS
370
-3
390
F
  0
LAYER
  5
301
100
AcDbSymbolTableRecord
100
AcDbLayerTableRecord
  2
___SHELL_9
 70
0
 62
7
  6
CONTINUOUS
370
-3
390
F
  0
ENDTAB
  0
TABLE
  2
STYLE
  5
3
100
AcDbSymbolTable
 70
1
  0
STYLE
  5
11
100
AcDbSymbolTableRecord
100
AcDbTextStyleTableRecord
  2
STANDARD
 70
0
 40
0.0
 41
0.8
 50
0.0
 71
0
 42
0.2
  3
txt
  4

  0
STYLE
  5
302
100
AcDbSymbolTableRecord
100
AcDbTextStyleTableRecord
  2
TEXTSTYLE_1
 70
0
 40
0.0
 41
0.8
 50
0.0
 71
0
 42
0.2
  3
gdt
  4

  0
ENDTAB
  0
TABLE
  2
VIEW
  5
6
100
AcDbSymbolTable
 70
0
  0
ENDTAB
  0
TABLE
  2
UCS
  5
7
100
AcDbSymbolTable
 70
0
  0
ENDTAB
  0
TABLE
  2
APPID
  5
9
100
AcDbSymbolTable
 70
1
  0
APPID
  5
303
100
AcDbSymbolTableRecord
100
AcDbRegAppTableRecord
  2
ACAD
 70
0
  0
ENDTAB
  0
TABLE
  2
BLOCK_RECORD
  5
1
100
AcDbSymbolTable
 70
0
  0
BLOCK_RECORD
  5
304
100
AcDbSymbolTableRecord
100
AcDbBlockTableRecord
  2
*Model_Space
  0
BLOCK_RECORD
  5
305
100
AcDbSymbolTableRecord
100
AcDbBlockTableRecord
  2
*Paper_Space
  0
BLOCK_RECORD
  5
306
100
AcDbSymbolTableRecord
100
AcDbBlockTableRecord
  2
_FILLED
  0
ENDTAB
  0
TABLE
  2
DIMSTYLE
  5
A
100
AcDbSymbolTable
 70
1
100
AcDbDimStyleTable
 71
0
  0
DIMSTYLE
105
307
100
AcDbSymbolTableRecord
100
AcDbDimStyleTableRecord
  2
STANDARD
 70
0
  3

  4

 40
1.0
 41
3.0
 42
0.5
 43
0.38
 44
1.5
 45
0.0
 46
0.0
 47
0.01
 48
0.01
140
3.0
141
0.09
142
0.0
143
25.4
144
1.0
145
0.0
146
1.0
147
0.625
 71
1.0
 72
0.0
 73
0
 74
0
 75
0
 76
0
 77
1
 78
8
 79
2
170
0
171
1
172
0
173
0
174
0
175
0
176
0
177
0
178
0
270
2
179
2
271
2
272
2
273
2
274
2
275
0
280
0
281
0
282
0
283
1
284
8
285
0
286
0
287
3
288
0
340
11
278
44
341
306
342
306
343
306
344
306
  0
ENDTAB
  0
ENDSEC
  0
SECTION
  2
BLOCKS
  0
BLOCK
  5
20
100
AcDbEntity
  8
0
100
AcDbBlockBegin
  2
*Model_Space
 70
0
 10
0.0
 20
0.0
 30
0.0
  3
*Model_Space
  1

  0
ENDBLK
  5
21
100
AcDbEntity
  8
0
100
AcDbBlockEnd
  0
BLOCK
  5
1C
100
AcDbEntity
  8
0
100
AcDbBlockBegin
  2
*Paper_Space
 70
0
 10
0.0
 20
0.0
 30
0.0
  3
*Paper_Space
  1

  0
ENDBLK
  5
1D
100
AcDbEntity
  8
0
100
AcDbBlockEnd
  0
BLOCK
  5
308
100
AcDbEntity
  8
0
100
AcDbBlockBegin
  2
_FILLED
 70
64
 10
0.0
 20
0.0
  3
_FILLED
  1

  0
SOLID
  5
309
100
AcDbEntity
  8
0
  6
BYBLOCK
 62
0
100
AcDbTrace
 10
0.0
 20
0.0
 11
-1.0
 21
0.3166666667
 12
-1.0
 22
-0.3166666667
 13
-1.0
 23
-0.3166666667
  0
ENDBLK
  5
30A
100
AcDbEntity
  8
0
  6
BYBLOCK
 62
0
100
AcDbBlockEnd
  0
ENDSEC
  0
SECTION
  2
ENTITIES
  0
LINE
  5
30B
100
AcDbEntity
  8
ASSI
100
AcDbLine
 62
250
  6
CONTINUOUS
 10
-10.2216029582
 20
22.392895367
 11
-10.2073926099
 21
22.4
  0
LINE
  5
30C
100
AcDbEntity
  8
ASSI
100
AcDbLine
 62
7
  6
CONTINUOUS
 10
-9.9706323968
 20
-24.495628166
 11
-8.0793676032
 21
-24.495628166
  0
LINE
  5
30D
100
AcDbEntity
  8
ASSI
100
AcDbLine
 62
7
  6
CONTINUOUS
 10
8.9293676032
 20
-24.495628166
 11
10.8206323968
 21
-24.495628166
  0
LINE
  5
30E
100
AcDbEntity
  8
ASSI
100
AcDbLine
 62
250
  6
CONTINUOUS
 10
-10.220628166
 20
-24.2456323968
 11
-7.829371834
 21
-24.2456323968
  0
LINE
  5
30F
100
AcDbEntity
  8
ASSI
100
AcDbLine
 62
250
  6
CONTINUOUS
 10
8.679371834
 20
-24.2456323968
 11
11.070628166
 21
-24.2456323968
  0
LINE
  5
310
100
AcDbEntity
  8
ASSI
100
AcDbLine
 62
250
  6
CONTINUOUS
 10
-10.220628166
 20
-23.8443375673
 11
-7.829371834
 21
-23.8443375673
  0
LINE
  5
311
100
AcDbEntity
  8
ASSI
100
AcDbLine
 62
250
  6
CONTINUOUS
 10
8.679371834
 20
-23.8443375673
 11
11.070628166
 21
-23.8443375673
  0
LINE
  5
312
100
AcDbEntity
  8
ASSI
100
AcDbLine
 62
7
  6
CONTINUOUS
 10
-3.975
 20
-23.8
 11
4.825
 21
-23.8
  0
LINE
  5
313
100
AcDbEntity
  8
ASSI
100
AcDbLine
 62
7
  6
CONTINUOUS
 10
3.925
 20
-23.7941821702
 11
-3.075
 21
-23.7941821702
  0
LINE
  5
314
100
AcDbEntity
  8
ASSI
100
AcDbLine
 62
7
  6
CONTINUOUS
 10
4.7813493531
 20
-23.7563493531
 11
3.925
 21
-23.7563493531
  0
LINE
  5
315
100
AcDbEntity
  8
ASSI
100
AcDbLine
 62
7
  6
CONTINUOUS
 10
-3.075
 20
-23.7563493531
 11
-3.9313493531
 21
-23.7563493531
  0
LINE
  5
316
100
AcDbEntity
  8
ASSI
100
AcDbLine
 62
250
  6
CONTINUOUS
 10
10.8206323968
 20
-23.6278312164
 11
8.9293676032
 21
-23.6278312164
  0
LINE
  5
317
100
AcDbEntity
  8
ASSI
100
AcDbLine
 62
250
  6
CONTINUOUS
 10
-8.0793676032
 20
-23.6278312164
 11
-9.9706323968
 21
-23.6278312164
  0
LINE
  5
318
100
AcDbEntity
  8
ASSI
100
AcDbLine
 62
250
  6
CONTINUOUS
 10
-10.2073926099
 20
-22.4
 11
-10.2216029582
 21
-22.392895367
  0
LINE
  5
319
100
AcDbEntity
  8
ASSI
100
AcDbLine
 62
7
  6
CONTINUOUS
 10
-9.9757229979
 20
-23.1226497308
 11
-8.0742770021
 21
-23.1226497308
  0
LINE
  5
31A
100
AcDbEntity
  8
ASSI
100
AcDbLine
 62
7
  6
CONTINUOUS
 10
8.9242770021
 20
-23.1226497308
 11
10.8257229979
 21
-23.1226497308
  0
LINE
  5
31B
100
AcDbEntity
  8
ASSI
100
AcDbLine
 62
7
  6
CONTINUOUS
 10
-10.2073926099
 20
-22.4
 11
-3.975
 21
-22.4
  0
LINE
  5
31C
100
AcDbEntity
  8
ASSI
100
AcDbLine
 62
7
  6
CONTINUOUS
 10
4.825
 20
-22.4
 11
11.0573926099
 21
-22.4
  0
LINE
  5
31D
100
AcDbEntity
  8
ASSI
100
AcDbLine
 62
7
  6
CONTINUOUS
 10
-10.2248476749
 20
-22.3912731322
 11
-6.8337268678
 21
-22.3912731322
  0
LINE
  5
31E
100
AcDbEntity
  8
ASSI
100
AcDbLine
 62
7
  6
CONTINUOUS
 10
7.6837268678
 20
-22.3912731322
 11
11.0748476749
 21
-22.3912731322
  0
LINE
  5
31F
100
AcDbEntity
  8
ASSI
100
AcDbLine
 62
7
  6
CONTINUOUS
 10
-3.075
 20
-22.3380392387
 11
-2.575
 21
-22.3380392387
  0
LINE
  5
320
100
AcDbEntity
  8
ASSI
100
AcDbLine
 62
7
  6
CONTINUOUS
 10
3.425
 20
-22.3380392387
 11
3.925
 21
-22.3380392387
  0
LINE
  5
321
100
AcDbEntity
  8
ASSI
100
AcDbLine
 62
250
  6
CONTINUOUS
 10
-6.9123448332
 20
-22.3126551668
 11
-2.575
 21
-22.3126551668
  0
LINE
  5
322
100
AcDbEntity
  8
ASSI
100
AcDbLine
 62
250
  6
CONTINUOUS
 10
3.425
 20
-22.3126551668
 11
7.7623448332
 21
-22.3126551668
  0
LINE
  5
323
100
AcDbEntity
  8
ASSI
100
AcDbLine
 62
7
  6
CONTINUOUS
 10
3.425
 20
-21.7
 11
-2.575
 21
-21.7
  0
LINE
  5
324
100
AcDbEntity
  8
ASSI
100
AcDbLine
 62
7
  6
CONTINUOUS
 10
-8.5336917237
 20
20.8413082763
 11
-9.166430278
 21
20.208569722
  0
LINE
  5
325
100
AcDbEntity
  8
ASSI
100
AcDbLine
 62
7
  6
CONTINUOUS
 10
-8.375
 20
20.85
 11
-10.1393027805
 21
19.0856972195
  0
LINE
  5
326
100
AcDbEntity
  8
ASSI
100
AcDbLine
 62
7
  6
CONTINUOUS
 10
-7.825
 20
21.4
 11
-6.8337268678
 21
22.3912731322
  0
LINE
  5
327
100
AcDbEntity
  8
ASSI
100
AcDbLine
 62
7
  6
CONTINUOUS
 10
-9.6600175454
 20
19.3181305591
 11
-8.1281481045
 21
20.85
  0
LINE
  5
328
100
AcDbEntity
  8
ASSI
100
AcDbLine
 62
7
  6
CONTINUOUS
 10
-9.4720343051
 20
18.864298871
 11
-9.5109204431
 21
18.825412733
  0
LINE
  5
329
100
AcDbEntity
  8
ASSI
100
AcDbLine
 62
250
  6
CONTINUOUS
 10
-7.1591007192
 20
-21.3126932437
 11
-2.575
 21
-21.3126932437
  0
LINE
  5
32A
100
AcDbEntity
  8
ASSI
100
AcDbLine
 62
250
  6
CONTINUOUS
 10
3.425
 20
-21.3126932437
 11
8.0091007192
 21
-21.3126932437
  0
LINE
  5
32B
100
AcDbEntity
  8
ASSI
100
AcDbLine
 62
7
  6
CONTINUOUS
 10
3.425
 20
-21.0
 11
-2.575
 21
-21.0
  0
LINE
  5
32C
100
AcDbEntity
  8
ASSI
100
AcDbLine
 62
7
  6
CONTINUOUS
 10
-8.3920984942
 20
-20.9
 11
-6.475
 21
-20.9
  0
LINE
  5
32D
100
AcDbEntity
  8
ASSI
100
AcDbLine
 62
7
  6
CONTINUOUS
 10
7.325
 20
-20.9
 11
9.2420984942
 21
-20.9
  0
LINE
  5
32E
100
AcDbEntity
  8
ASSI
100
AcDbLine
 62
7
  6
CONTINUOUS
 10
-8.375
 20
-20.85
 11
-6.975
 21
-20.85
  0
LINE
  5
32F
100
AcDbEntity
  8
ASSI
100
AcDbLine
 62
7
  6
CONTINUOUS
 10
7.825
 20
-20.85
 11
9.225
 21
-20.85
  0
LINE
  5
330
100
AcDbEntity
  8
ASSI
100
AcDbLine
 62
250
  6
CONTINUOUS
 10
-6.475
 20
-20.5829242832
 11
7.325
 21
-20.5829242832
  0
LINE
  5
331
100
AcDbEntity
  8
ASSI
100
AcDbLine
 62
7
  6
CONTINUOUS
 10
-6.975
 20
-20.4335707644
 11
-6.9267786853
 21
-20.4335707644
  0
LINE
  5
332
100
AcDbEntity
  8
ASSI
100
AcDbLine
 62
7
  6
CONTINUOUS
 10
7.7767786853
 20
-20.4335707644
 11
7.825
 21
-20.4335707644
  0
LINE
  5
333
100
AcDbEntity
  8
ASSI
100
AcDbLine
 62
7
  6
CONTINUOUS
 10
-6.130294768
 20
-20.0829433217
 11
6.980294768
 21
-20.0829433217
  0
LINE
  5
334
100
AcDbEntity
  8
ASSI
100
AcDbLine
 62
7
  6
CONTINUOUS
 10
-2.075
 20
-20.0532338935
 11
-2.0163111231
 21
-20.0532338935
  0
LINE
  5
335
100
AcDbEntity
  8
ASSI
100
AcDbLine
 62
7
  6
CONTINUOUS
 10
2.8663111231
 20
-20.0532338935
 11
2.925
 21
-20.0532338935
  0
LINE
  5
336
100
AcDbEntity
  8
ASSI
100
AcDbLine
 62
7
  6
CONTINUOUS
 10
3.925
 20
-20.0
 11
2.925
 21
-20.0
  0
LINE
  5
337
100
AcDbEntity
  8
ASSI
100
AcDbLine
 62
7
  6
CONTINUOUS
 10
-2.075
 20
-20.0
 11
-3.075
 21
-20.0
  0
LINE
  5
338
100
AcDbEntity
  8
ASSI
100
AcDbLine
 62
7
  6
CONTINUOUS
 10
-6.0232213147
 20
-19.9223308767
 11
-2.075
 21
-19.9223308767
  0
LINE
  5
339
100
AcDbEntity
  8
ASSI
100
AcDbLine
 62
7
  6
CONTINUOUS
 10
2.925
 20
-19.9223308767
 11
6.8732213147
 21
-19.9223308767
  0
LINE
  5
33A
100
AcDbEntity
  8
ASSI
100
AcDbLine
 62
7
  6
CONTINUOUS
 10
3.925
 20
-19.9
 11
2.925
 21
-19.9
  0
LINE
  5
33B
100
AcDbEntity
  8
ASSI
100
AcDbLine
 62
7
  6
CONTINUOUS
 10
-2.075
 20
-19.9
 11
-3.075
 21
-19.9
  0
LINE
  5
33C
100
AcDbEntity
  8
ASSI
100
AcDbLine
 62
7
  6
CONTINUOUS
 10
2.0231173983
 20
-19.8825449351
 11
-1.1731173983
 21
-19.8825449351
  0
LINE
  5
33D
100
AcDbEntity
  8
ASSI
100
AcDbLine
 62
7
  6
CONTINUOUS
 10
3.8359791689
 20
-19.8109791689
 11
-2.9859791689
 21
-19.8109791689
  0
LINE
  5
33E
100
AcDbEntity
  8
ASSI
100
AcDbLine
 62
7
  6
CONTINUOUS
 10
7.4617914795
 20
-19.7564431031
 11
7.1882085205
 21
-19.7564431031
  0
LINE
  5
33F
100
AcDbEntity
  8
ASSI
100
AcDbLine
 62
7
  6
CONTINUOUS
 10
-6.3382085205
 20
-19.7564431031
 11
-6.6117914795
 21
-19.7564431031
  0
LINE
  5
340
100
AcDbEntity
  8
ASSI
100
AcDbLine
 62
7
  6
CONTINUOUS
 10
-6.975
 20
-19.7
 11
-3.075
 21
-19.7
  0
LINE
  5
341
100
AcDbEntity
  8
ASSI
100
AcDbLine
 62
7
  6
CONTINUOUS
 10
3.925
 20
-19.7
 11
7.825
 21
-19.7
  0
LINE
  5
342
100
AcDbEntity
  8
ASSI
100
AcDbLine
 62
7
  6
CONTINUOUS
 10
-9.166430278
 20
-20.208569722
 11
-8.5336917237
 21
-20.8413082763
  0
LINE
  5
343
100
AcDbEntity
  8
ASSI
100
AcDbLine
 62
7
  6
CONTINUOUS
 10
-10.1393027805
 20
-19.0856972195
 11
-8.375
 21
-20.85
  0
LINE
  5
344
100
AcDbEntity
  8
ASSI
100
AcDbLine
 62
7
  6
CONTINUOUS
 10
-7.825
 20
-21.4
 11
-6.8337268678
 21
-22.3912731322
  0
LINE
  5
345
100
AcDbEntity
  8
ASSI
100
AcDbLine
 62
7
  6
CONTINUOUS
 10
-8.1281481045
 20
-20.85
 11
-9.6600175454
 21
-19.3181305591
  0
LINE
  5
346
100
AcDbEntity
  8
ASSI
100
AcDbLine
 62
7
  6
CONTINUOUS
 10
-9.5109204431
 20
-18.825412733
 11
-9.4720343051
 21
-18.864298871
  0
LINE
  5
347
100
AcDbEntity
  8
ASSI
100
AcDbLine
 62
250
  6
CONTINUOUS
 10
-6.9267786853
 20
19.8482179301
 11
-6.8188103287
 21
19.9561862866
  0
LINE
  5
348
100
AcDbEntity
  8
ASSI
100
AcDbLine
 62
7
  6
CONTINUOUS
 10
-6.975
 20
19.7
 11
-7.0640208311
 21
19.6109791689
  0
LINE
  5
349
100
AcDbEntity
  8
ASSI
100
AcDbLine
 62
250
  6
CONTINUOUS
 10
-6.6750033846
 20
19.7
 11
-6.6188137134
 21
19.7561896713
  0
LINE
  5
34A
100
AcDbEntity
  8
CURVE
100
AcDbLine
 62
7
  6
CONTINUOUS
 10
-10.6454435479
 20
15.6781185452
 11
-10.6292852826
 21
15.6942768105
  0
LINE
  5
34B
100
AcDbEntity
  8
ASSI
100
AcDbLine
 62
7
  6
CONTINUOUS
 10
-8.534444827
 20
17.6989230612
 11
-8.3315449016
 21
17.9018229866
  0
LINE
  5
34C
100
AcDbEntity
  8
CURVE
100
AcDbLine
 62
7
  6
CONTINUOUS
 10
-10.648420188
 20
14.6795355571
 11
-10.6400105785
 21
14.6879451667
  0
LINE
  5
34D
100
AcDbEntity
  8
CURVE
100
AcDbLine
 62
7
  6
CONTINUOUS
 10
-10.6798895703
 20
14.6480661749
 11
-10.6672718752
 21
14.66068387
  0
LINE
  5
34E
100
AcDbEntity
  8
ASSI
100
AcDbLine
 62
7
  6
CONTINUOUS
 10
3.8359791689
 20
-19.6109791689
 11
-2.9859791689
 21
-19.6109791689
  0
LINE
  5
34F
100
AcDbEntity
  8
ASSI
100
AcDbLine
 62
7
  6
CONTINUOUS
 10
-8.95301846
 20
-19.6109791689
 11
-7.0640208311
 21
-19.6109791689
  0
LINE
  5
350
100
AcDbEntity
  8
ASSI
100
AcDbLine
 62
7
  6
CONTINUOUS
 10
7.9140208311
 20
-19.6109791689
 11
9.80301846
 21
-19.6109791689
  0
LINE
  5
351
100
AcDbEntity
  8
ASSI
100
AcDbLine
 62
7
  6
CONTINUOUS
 10
-8.7650352197
 20
-19.1571474807
 11
-8.5475351287
 21
-19.1571474807
  0
LINE
  5
352
100
AcDbEntity
  8
ASSI
100
AcDbLine
 62
7
  6
CONTINUOUS
 10
-6.6024648713
 20
-19.1571474807
 11
-3.5475351287
 21
-19.1571474807
  0
LINE
  5
353
100
AcDbEntity
  8
ASSI
100
AcDbLine
 62
7
  6
CONTINUOUS
 10
-1.6024648713
 20
-19.1571474807
 11
1.4524648713
 21
-19.1571474807
  0
LINE
  5
354
100
AcDbEntity
  8
ASSI
100
AcDbLine
 62
7
  6
CONTINUOUS
 10
3.3975351287
 20
-19.1571474807
 11
9.6150352197
 21
-19.1571474807
  0
LINE
  5
355
100
AcDbEntity
  8
ASSI
100
AcDbLine
 62
250
  6
CONTINUOUS
 10
-6.9267786853
 20
-19.8482179301
 11
-6.8188103287
 21
-19.9561862866
  0
LINE
  5
356
100
AcDbEntity
  8
ASSI
100
AcDbLine
 62
7
  6
CONTINUOUS
 10
-6.975
 20
-19.7
 11
-7.0640208311
 21
-19.6109791689
  0
LINE
  5
357
100
AcDbEntity
  8
ASSI
100
AcDbLine
 62
250
  6
CONTINUOUS
 10
-6.6750033846
 20
-19.7
 11
-6.6188137134
 21
-19.7561896713
  0
LINE
  5
358
100
AcDbEntity
  8
ASSI
100
AcDbLine
 62
7
  6
CONTINUOUS
 10
-8.534444827
 20
-17.6989230612
 11
-8.3315449016
 21
-17.9018229866
  0
LINE
  5
359
100
AcDbEntity
  8
ASSI
100
AcDbLine
 62
7
  6
CONTINUOUS
 10
-8.5475351287
 20
19.1571474807
 11
-8.3315449016
 21
19.5891608362
  0
LINE
  5
35A
100
AcDbEntity
  8
ASSI
100
AcDbLine
 62
250
  6
CONTINUOUS
 10
-8.7021485408
 20
20.5228514592
 11
-8.5336917237
 21
20.8413082763
  0
LINE
  5
35B
100
AcDbEntity
  8
ASSI
100
AcDbLine
 62
250
  6
CONTINUOUS
 10
-8.4674531526
 20
20.7575468474
 11
-8.3920984942
 21
20.9
  0
LINE
  5
35C
100
AcDbEntity
  8
CURVE
100
AcDbLine
 62
7
  6
CONTINUOUS
 10
-10.652243799
 20
13.6801055983
 11
-10.6292852826
 21
13.7030641147
  0
LINE
  5
35D
100
AcDbEntity
  8
CURVE
100
AcDbLine
 62
7
  6
CONTINUOUS
 10
-10.6798895703
 20
12.6568534791
 11
-10.6292852826
 21
12.7074577668
  0
LINE
  5
35E
100
AcDbEntity
  8
ASSI
100
AcDbLine
 62
7
  6
CONTINUOUS
 10
-10.2484586789
 20
13.3966204025
 11
-10.528631018
 21
13.2565449016
  0
LINE
  5
35F
100
AcDbEntity
  8
ASSI
100
AcDbLine
 62
7
  6
CONTINUOUS
 10
-8.5475351287
 20
-17.65
 11
-6.6024648713
 21
-17.65
  0
LINE
  5
360
100
AcDbEntity
  8
ASSI
100
AcDbLine
 62
7
  6
CONTINUOUS
 10
-3.5475351287
 20
-17.65
 11
-1.6024648713
 21
-17.65
  0
LINE
  5
361
100
AcDbEntity
  8
ASSI
100
AcDbLine
 62
7
  6
CONTINUOUS
 10
1.4524648713
 20
-17.65
 11
3.3975351287
 21
-17.65
  0
LINE
  5
362
100
AcDbEntity
  8
CURVE
100
AcDbLine
 62
250
  6
CONTINUOUS
 10
11.4568914391
 20
-17.07041
 11
11.4434439062
 21
-17.07041
  0
LINE
  5
363
100
AcDbEntity
  8
CURVE
100
AcDbLine
 62
250
  6
CONTINUOUS
 10
11.5320050257
 20
-17.07041
 11
11.5185574928
 21
-17.07041
  0
LINE
  5
364
100
AcDbEntity
  8
CURVE
100
AcDbLine
 62
250
  6
CONTINUOUS
 10
-1.085
 20
-16.62816
 11
-8.065
 21
-16.62816
  0
LINE
  5
365
100
AcDbEntity
  8
CURVE
100
AcDbLine
 62
250
  6
CONTINUOUS
 10
11.4944000114
 20
-16.56041
 11
11.4810489205
 21
-16.56041
  0
LINE
  5
366
100
AcDbEntity
  8
CURVE
100
AcDbLine
 62
250
  6
CONTINUOUS
 10
3.415
 20
-16.25316
 11
-1.085
 21
-16.25316
  0
LINE
  5
367
100
AcDbEntity
  8
CURVE
100
AcDbLine
 62
250
  6
CONTINUOUS
 10
5.011567
 20
-16.22316
 11
5.351702
 21
-16.22316
  0
LINE
  5
368
100
AcDbEntity
  8
CURVE
100
AcDbLine
 62
250
  6
CONTINUOUS
 10
3.415
 20
-16.06316
 11
-1.085
 21
-16.06316
  0
LINE
  5
369
100
AcDbEntity
  8
ASSI
100
AcDbLine
 62
7
  6
CONTINUOUS
 10
-10.0966176626
 20
-13.4725351287
 11
-10.528631018
 21
-13.2565449016
  0
LINE
  5
36A
100
AcDbEntity
  8
ASSI
100
AcDbLine
 62
250
  6
CONTINUOUS
 10
-8.5336917237
 20
-20.8413082763
 11
-8.7021485408
 21
-20.5228514592
  0
LINE
  5
36B
100
AcDbEntity
  8
ASSI
100
AcDbLine
 62
250
  6
CONTINUOUS
 10
-8.3920984942
 20
-20.9
 11
-8.4674531526
 21
-20.7575468474
  0
LINE
  5
36C
100
AcDbEntity
  8
ASSI
100
AcDbLine
 62
7
  6
CONTINUOUS
 10
-8.5475351287
 20
-19.1571474807
 11
-8.3315449016
 21
-19.5891608362
  0
LINE
  5
36D
100
AcDbEntity
  8
ASSI
100
AcDbLine
 62
7
  6
CONTINUOUS
 10
-9.1867474857
 20
13.3966204025
 11
-9.3268229866
 21
13.2565449016
  0
LINE
  5
36E
100
AcDbEntity
  8
CURVE
100
AcDbLine
 62
7
  6
CONTINUOUS
 10
-10.6632468811
 20
11.6778898204
 11
-10.6413261003
 21
11.6998106012
  0
LINE
  5
36F
100
AcDbEntity
  8
CURVE
100
AcDbLine
 62
7
  6
CONTINUOUS
 10
-10.6798895703
 20
10.6656407833
 11
-10.6292852826
 21
10.716245071
  0
LINE
  5
370
100
AcDbEntity
  8
ASSI
100
AcDbLine
 62
7
  6
CONTINUOUS
 10
-3.534444827
 20
17.6989230612
 11
-3.3315449016
 21
17.9018229866
  0
LINE
  5
371
100
AcDbEntity
  8
CURVE
100
AcDbLine
 62
7
  6
CONTINUOUS
 10
-10.6427313177
 20
9.707192688
 11
-10.6292852826
 21
9.720638723
  0
LINE
  5
372
100
AcDbEntity
  8
ASSI
100
AcDbLine
 62
250
  6
CONTINUOUS
 10
9.9103642609
 20
20.1646357391
 11
10.016430278
 21
20.208569722
  0
LINE
  5
373
100
AcDbEntity
  8
ASSI
100
AcDbLine
 62
250
  6
CONTINUOUS
 10
10.0275037048
 20
20.0474962952
 11
10.075
 21
20.0671699049
  0
LINE
  5
374
100
AcDbEntity
  8
CURVE
100
AcDbLine
 62
250
  6
CONTINUOUS
 10
3.415
 20
-15.88316
 11
-1.085
 21
-15.88316
  0
LINE
  5
375
100
AcDbEntity
  8
CURVE
100
AcDbLine
 62
250
  6
CONTINUOUS
 10
3.415
 20
-15.69316
 11
-1.085
 21
-15.69316
  0
LINE
  5
376
100
AcDbEntity
  8
CURVE
100
AcDbLine
 62
250
  6
CONTINUOUS
 10
3.415
 20
-15.50316
 11
-1.085
 21
-15.50316
  0
LINE
  5
377
100
AcDbEntity
  8
CURVE
100
AcDbLine
 62
250
  6
CONTINUOUS
 10
5.351702
 20
-15.406017
 11
4.860395
 21
-15.406017
  0
LINE
  5
378
100
AcDbEntity
  8
CURVE
100
AcDbLine
 62
250
  6
CONTINUOUS
 10
3.415
 20
-15.31316
 11
-1.085
 21
-15.31316
  0
LINE
  5
379
100
AcDbEntity
  8
CURVE
100
AcDbLine
 62
250
  6
CONTINUOUS
 10
7.279138
 20
-15.201731
 11
8.186167
 21
-15.201731
  0
LINE
  5
37A
100
AcDbEntity
  8
CURVE
100
AcDbLine
 62
250
  6
CONTINUOUS
 10
8.753059
 20
-15.201731
 11
9.660088
 21
-15.201731
  0
LINE
  5
37B
100
AcDbEntity
  8
CURVE
100
AcDbLine
 62
250
  6
CONTINUOUS
 10
3.415
 20
-15.12316
 11
-1.085
 21
-15.12316
  0
LINE
  5
37C
100
AcDbEntity
  8
CURVE
100
AcDbLine
 62
250
  6
CONTINUOUS
 10
3.415
 20
-14.93316
 11
-1.085
 21
-14.93316
  0
LINE
  5
37D
100
AcDbEntity
  8
CURVE
100
AcDbLine
 62
250
  6
CONTINUOUS
 10
3.415
 20
-14.75316
 11
-1.085
 21
-14.75316
  0
LINE
  5
37E
100
AcDbEntity
  8
CURVE
100
AcDbLine
 62
250
  6
CONTINUOUS
 10
-1.085
 20
-14.37816
 11
-8.065
 21
-14.37816
  0
LINE
  5
37F
100
AcDbEntity
  8
ASSI
100
AcDbLine
 62
250
  6
CONTINUOUS
 10
10.016430278
 20
-20.208569722
 11
9.9103642609
 21
-20.1646357391
  0
LINE
  5
380
100
AcDbEntity
  8
ASSI
100
AcDbLine
 62
250
  6
CONTINUOUS
 10
10.075
 20
-20.0671699049
 11
10.0275037048
 21
-20.0474962952
  0
LINE
  5
381
100
AcDbEntity
  8
ASSI
100
AcDbLine
 62
7
  6
CONTINUOUS
 10
-9.1239230612
 20
-13.459444827
 11
-9.3268229866
 21
-13.2565449016
  0
LINE
  5
382
100
AcDbEntity
  8
ASSI
100
AcDbLine
 62
7
  6
CONTINUOUS
 10
-3.534444827
 20
-17.6989230612
 11
-3.3315449016
 21
-17.9018229866
  0
LINE
  5
383
100
AcDbEntity
  8
CURVE
100
AcDbLine
 62
250
  6
CONTINUOUS
 10
-7.0178571373
 20
12.9428571373
 11
-6.8321428239
 21
13.128571412
  0
LINE
  5
384
100
AcDbEntity
  8
CURVE
100
AcDbLine
 62
7
  6
CONTINUOUS
 10
-10.648420188
 20
8.7058974697
 11
-10.6400105785
 21
8.7143070793
  0
LINE
  5
385
100
AcDbEntity
  8
CURVE
100
AcDbLine
 62
7
  6
CONTINUOUS
 10
-10.6798895703
 20
8.6744280875
 11
-10.6643271432
 21
8.6899905145
  0
LINE
  5
386
100
AcDbEntity
  8
ASSI
100
AcDbLine
 62
7
  6
CONTINUOUS
 10
4.825
 20
23.8
 11
4.7813493531
 21
23.7563493531
  0
LINE
  5
387
100
AcDbEntity
  8
CURVE
100
AcDbLine
 62
7
  6
CONTINUOUS
 10
-10.6546077974
 20
7.7041035124
 11
-10.6292852826
 21
7.7294260272
  0
LINE
  5
388
100
AcDbEntity
  8
ASSI
100
AcDbLine
 62
7
  6
CONTINUOUS
 10
-9.1863093364
 20
8.3970585518
 11
-9.3268229866
 21
8.2565449016
  0
LINE
  5
389
100
AcDbEntity
  8
ASSI
100
AcDbLine
 62
250
  6
CONTINUOUS
 10
10.9893027805
 20
19.0856972195
 11
10.3609204431
 21
18.825412733
  0
LINE
  5
38A
100
AcDbEntity
  8
CURVE
100
AcDbLine
 62
250
  6
CONTINUOUS
 10
-6.275
 20
12.5714285493
 11
-7.575
 21
12.2
  0
LINE
  5
38B
100
AcDbEntity
  8
ASSI
100
AcDbLine
 62
7
  6
CONTINUOUS
 10
-6.325
 20
-13.818
 11
7.175
 21
-13.818
  0
LINE
  5
38C
100
AcDbEntity
  8
ASSI
100
AcDbLine
 62
7
  6
CONTINUOUS
 10
-6.325
 20
-13.55
 11
7.175
 21
-13.55
  0
LINE
  5
38D
100
AcDbEntity
  8
ASSI
100
AcDbLine
 62
7
  6
CONTINUOUS
 10
10.9466176626
 20
-13.4725351287
 11
9.925
 21
-13.4725351287
  0
LINE
  5
38E
100
AcDbEntity
  8
ASSI
100
AcDbLine
 62
7
  6
CONTINUOUS
 10
-10.0966176626
 20
-13.4725351287
 11
-9.075
 21
-13.4725351287
  0
LINE
  5
38F
100
AcDbEntity
  8
ASSI
100
AcDbLine
 62
7
  6
CONTINUOUS
 10
9.9739230612
 20
-13.459444827
 11
9.925
 21
-13.459444827
  0
LINE
  5
390
100
AcDbEntity
  8
ASSI
100
AcDbLine
 62
7
  6
CONTINUOUS
 10
-9.1239230612
 20
-13.459444827
 11
-9.075
 21
-13.459444827
  0
LINE
  5
391
100
AcDbEntity
  8
CURVE
100
AcDbLine
 62
250
  6
CONTINUOUS
 10
-10.6797457914
 20
-13.390935
 11
-10.629136832
 21
-13.390935
  0
LINE
  5
392
100
AcDbEntity
  8
ASSI
100
AcDbLine
 62
250
  6
CONTINUOUS
 10
11.378631018
 20
-13.2565449016
 11
10.1768229866
 21
-13.2565449016
  0
LINE
  5
393
100
AcDbEntity
  8
ASSI
100
AcDbLine
 62
250
  6
CONTINUOUS
 10
-10.528631018
 20
-13.2565449016
 11
-9.3268229866
 21
-13.2565449016
  0
LINE
  5
394
100
AcDbEntity
  8
CURVE
100
AcDbLine
 62
250
  6
CONTINUOUS
 10
-10.629136832
 20
-12.785664
 11
-10.6797457914
 21
-12.785664
  0
LINE
  5
395
100
AcDbEntity
  8
CURVE
100
AcDbLine
 62
250
  6
CONTINUOUS
 10
11.4568914391
 20
-12.73541
 11
11.4434439062
 21
-12.73541
  0
LINE
  5
396
100
AcDbEntity
  8
CURVE
100
AcDbLine
 62
250
  6
CONTINUOUS
 10
11.5320050257
 20
-12.73541
 11
11.5185574928
 21
-12.73541
  0
LINE
  5
397
100
AcDbEntity
  8
ASSI
100
AcDbLine
 62
250
  6
CONTINUOUS
 10
10.3609204431
 20
-18.825412733
 11
10.9893027805
 21
-19.0856972195
  0
LINE
  5
398
100
AcDbEntity
  8
ASSI
100
AcDbLine
 62
7
  6
CONTINUOUS
 10
4.825
 20
-23.8
 11
4.7813493531
 21
-23.7563493531
  0
LINE
  5
399
100
AcDbEntity
  8
ASSI
100
AcDbLine
 62
7
  6
CONTINUOUS
 10
-9.1239230612
 20
-8.459444827
 11
-9.3268229866
 21
-8.2565449016
  0
LINE
  5
39A
100
AcDbEntity
  8
CURVE
100
AcDbLine
 62
250
  6
CONTINUOUS
 10
-10.6621815499
 20
-11.750162
 11
-10.629136832
 21
-11.880779
  0
LINE
  5
39B
100
AcDbEntity
  8
CURVE
100
AcDbLine
 62
250
  6
CONTINUOUS
 10
-10.629136832
 20
-12.459827
 11
-10.6797427546
 21
-12.198005
  0
LINE
  5
39C
100
AcDbEntity
  8
CURVE
100
AcDbLine
 62
250
  6
CONTINUOUS
 10
-10.6658375324
 20
-8.233126
 11
-10.6470570327
 21
-8.5345
  0
LINE
  5
39D
100
AcDbEntity
  8
CURVE
100
AcDbLine
 62
250
  6
CONTINUOUS
 10
-10.6449091301
 20
-14.790021
 11
-10.6797427546
 21
-14.22041
  0
LINE
  5
39E
100
AcDbEntity
  8
CURVE
100
AcDbLine
 62
250
  6
CONTINUOUS
 10
-10.6392395763
 20
-8.658312
 11
-10.629136832
 21
-8.825329
  0
LINE
  5
39F
100
AcDbEntity
  8
CURVE
100
AcDbLine
 62
250
  6
CONTINUOUS
 10
-10.629136832
 20
-9.424033
 11
-10.6797427546
 21
-8.514517
  0
LINE
  5
3A0
100
AcDbEntity
  8
CURVE
100
AcDbLine
 62
250
  6
CONTINUOUS
 10
-10.6797427546
 20
-13.615552
 11
-10.629136832
 21
-14.547617
  0
LINE
  5
3A1
100
AcDbEntity
  8
CURVE
100
AcDbLine
 62
250
  6
CONTINUOUS
 10
-10.6516461953
 20
-10.994355
 11
-10.6797427546
 21
-10.389084
  0
LINE
  5
3A2
100
AcDbEntity
  8
CURVE
100
AcDbLine
 62
250
  6
CONTINUOUS
 10
-10.6620437981
 20
-10.235548
 11
-10.629136832
 21
-10.955216
  0
LINE
  5
3A3
100
AcDbEntity
  8
CURVE
100
AcDbLine
 62
250
  6
CONTINUOUS
 10
-10.6214161443
 20
-1.6579786206
 11
-10.6003855002
 21
-2.2018127306
  0
LINE
  5
3A4
100
AcDbEntity
  8
CURVE
100
AcDbLine
 62
250
  6
CONTINUOUS
 10
-10.580103163
 20
-2.7262962353
 11
-10.5583041299
 21
-3.29
  0
LINE
  5
3A5
100
AcDbEntity
  8
CURVE
100
AcDbLine
 62
250
  6
CONTINUOUS
 10
-10.5583041299
 20
-2.290000718
 11
-10.5679313219
 21
-2.0240457986
  0
LINE
  5
3A6
100
AcDbEntity
  8
CURVE
100
AcDbLine
 62
250
  6
CONTINUOUS
 10
-10.5839920517
 20
-1.5803623781
 11
-10.5921994531
 21
-1.3536291216
  0
LINE
  5
3A7
100
AcDbEntity
  8
ASSI
100
AcDbLine
 62
7
  6
CONTINUOUS
 10
-10.725
 20
-21.8911779406
 11
-10.725
 21
21.8911779406
  0
LINE
  5
3A8
100
AcDbEntity
  8
CURVE
100
AcDbLine
 62
250
  6
CONTINUOUS
 10
-10.6798895703
 20
14.991935
 11
-10.6798895703
 21
14.252884
  0
LINE
  5
3A9
100
AcDbEntity
  8
CURVE
100
AcDbLine
 62
250
  6
CONTINUOUS
 10
-10.6798895703
 20
8.9669
 11
-10.6798895703
 21
8.227849
  0
LINE
  5
3AA
100
AcDbEntity
  8
CURVE
100
AcDbLine
 62
250
  6
CONTINUOUS
 10
-10.6798895703
 20
3.58822
 11
-10.6798895703
 21
2.70079
  0
LINE
  5
3AB
100
AcDbEntity
  8
CURVE
100
AcDbLine
 62
250
  6
CONTINUOUS
 10
-10.6798895703
 20
5.171133
 11
-10.6798895703
 21
5.793739
  0
LINE
  5
3AC
100
AcDbEntity
  8
CURVE
100
AcDbLine
 62
250
  6
CONTINUOUS
 10
-10.6798895703
 20
10.292325
 11
-10.6798895703
 21
11.216139
  0
LINE
  5
3AD
100
AcDbEntity
  8
CURVE
100
AcDbLine
 62
250
  6
CONTINUOUS
 10
-10.6798895703
 20
12.328754
 11
-10.6798895703
 21
12.911198
  0
LINE
  5
3AE
100
AcDbEntity
  8
CURVE
100
AcDbLine
 62
250
  6
CONTINUOUS
 10
-10.6797457914
 20
-12.785664
 11
-10.6797457914
 21
-13.390935
  0
LINE
  5
3AF
100
AcDbEntity
  8
CURVE
100
AcDbLine
 62
250
  6
CONTINUOUS
 10
-10.6797427546
 20
-16.00026
 11
-10.6797427546
 21
-15.342748
  0
LINE
  5
3B0
100
AcDbEntity
  8
CURVE
100
AcDbLine
 62
250
  6
CONTINUOUS
 10
-10.6797427546
 20
-14.22041
 11
-10.6797427546
 21
-13.615552
  0
LINE
  5
3B1
100
AcDbEntity
  8
CURVE
100
AcDbLine
 62
250
  6
CONTINUOUS
 10
-10.6797427546
 20
-12.198005
 11
-10.6797427546
 21
-11.593234
  0
LINE
  5
3B2
100
AcDbEntity
  8
CURVE
100
AcDbLine
 62
250
  6
CONTINUOUS
 10
-10.6797427546
 20
-10.389084
 11
-10.6797427546
 21
-9.790227
  0
LINE
  5
3B3
100
AcDbEntity
  8
CURVE
100
AcDbLine
 62
250
  6
CONTINUOUS
 10
-10.6797427546
 20
-8.514517
 11
-10.6797427546
 21
-7.92899
  0
LINE
  5
3B4
100
AcDbEntity
  8
CURVE
100
AcDbLine
 62
250
  6
CONTINUOUS
 10
-10.6714799607
 20
3.323396
 11
-10.6714799607
 21
3.686612
  0
LINE
  5
3B5
100
AcDbEntity
  8
CURVE
100
AcDbLine
 62
250
  6
CONTINUOUS
 10
-10.6572292184
 20
-5.9328946758
 11
-10.6572292184
 21
-6.2788012718
  0
LINE
  5
3B6
100
AcDbEntity
  8
CURVE
100
AcDbLine
 62
250
  6
CONTINUOUS
 10
-10.657182108
 20
3.323396
 11
-10.657182108
 21
3.686612
  0
LINE
  5
3B7
100
AcDbEntity
  8
CURVE
100
AcDbLine
 62
250
  6
CONTINUOUS
 10
-10.6489411903
 20
-6.2587313832
 11
-10.6489411903
 21
-5.9341993273
  0
LINE
  5
3B8
100
AcDbEntity
  8
CURVE
100
AcDbLine
 62
250
  6
CONTINUOUS
 10
-10.6487724985
 20
3.58822
 11
-10.6487724985
 21
3.323396
  0
LINE
  5
3B9
100
AcDbEntity
  8
CURVE
100
AcDbLine
 62
250
  6
CONTINUOUS
 10
-10.648420188
 20
15.007869
 11
-10.648420188
 21
14.176491
  0
LINE
  5
3BA
100
AcDbEntity
  8
CURVE
100
AcDbLine
 62
250
  6
CONTINUOUS
 10
-10.648420188
 20
8.982943
 11
-10.648420188
 21
8.151456
  0
LINE
  5
3BB
100
AcDbEntity
  8
CURVE
100
AcDbLine
 62
250
  6
CONTINUOUS
 10
-10.6470570327
 20
-8.5345
 11
-10.6470570327
 21
-7.954996
  0
LINE
  5
3BC
100
AcDbEntity
  8
CURVE
100
AcDbLine
 62
250
  6
CONTINUOUS
 10
-10.6400105785
 20
7.990812
 11
-10.6400105785
 21
9.139549
  0
LINE
  5
3BD
100
AcDbEntity
  8
CURVE
100
AcDbLine
 62
250
  6
CONTINUOUS
 10
-10.6400105785
 20
14.015846
 11
-10.6400105785
 21
15.164584
  0
LINE
  5
3BE
100
AcDbEntity
  8
CURVE
100
AcDbLine
 62
250
  6
CONTINUOUS
 10
-10.6392395763
 20
-7.834033
 11
-10.6392395763
 21
-8.658312
  0
LINE
  5
3BF
100
AcDbEntity
  8
CURVE
100
AcDbLine
 62
250
  6
CONTINUOUS
 10
-10.6376948922
 20
5.793739
 11
-10.6376948922
 21
6.866738
  0
LINE
  5
3C0
100
AcDbEntity
  8
CURVE
100
AcDbLine
 62
250
  6
CONTINUOUS
 10
-10.6292852826
 20
12.911198
 11
-10.6292852826
 21
12.027546
  0
LINE
  5
3C1
100
AcDbEntity
  8
CURVE
100
AcDbLine
 62
250
  6
CONTINUOUS
 10
-10.6292852826
 20
10.87477
 11
-10.6292852826
 21
10.292325
  0
LINE
  5
3C2
100
AcDbEntity
  8
CURVE
100
AcDbLine
 62
250
  6
CONTINUOUS
 10
-10.6292852826
 20
6.866738
 11
-10.6292852826
 21
5.171133
  0
LINE
  5
3C3
100
AcDbEntity
  8
CURVE
100
AcDbLine
 62
250
  6
CONTINUOUS
 10
-10.6292852826
 20
2.70079
 11
-10.6292852826
 21
3.323396
  0
LINE
  5
3C4
100
AcDbEntity
  8
CURVE
100
AcDbLine
 62
250
  6
CONTINUOUS
 10
-10.6292852826
 20
7.179514
 11
-10.6292852826
 21
7.773964
  0
LINE
  5
3C5
100
AcDbEntity
  8
CURVE
100
AcDbLine
 62
250
  6
CONTINUOUS
 10
-10.6292852826
 20
9.348431
 11
-10.6292852826
 21
9.975074
  0
LINE
  5
3C6
100
AcDbEntity
  8
CURVE
100
AcDbLine
 62
250
  6
CONTINUOUS
 10
-10.6292852826
 20
13.20444
 11
-10.6292852826
 21
13.798889
  0
LINE
  5
3C7
100
AcDbEntity
  8
CURVE
100
AcDbLine
 62
250
  6
CONTINUOUS
 10
-10.6292852826
 20
15.373574
 11
-10.6292852826
 21
16.0
  0
LINE
  5
3C8
100
AcDbEntity
  8
CURVE
100
AcDbLine
 62
250
  6
CONTINUOUS
 10
-10.629136832
 20
-13.390935
 11
-10.629136832
 21
-12.785664
  0
LINE
  5
3C9
100
AcDbEntity
  8
CURVE
100
AcDbLine
 62
250
  6
CONTINUOUS
 10
-10.6291368258
 20
-6.8615673444
 11
-10.6291368258
 21
-6.2587313832
  0
LINE
  5
3CA
100
AcDbEntity
  8
CURVE
100
AcDbLine
 62
250
  6
CONTINUOUS
 10
-10.6291368258
 20
-5.3318417383
 11
-10.6291368258
 21
-4.7496410148
  0
LINE
  5
3CB
100
AcDbEntity
  8
CURVE
100
AcDbLine
 62
250
  6
CONTINUOUS
 10
-10.629136832
 20
-7.039304
 11
-10.629136832
 21
-7.677235
  0
LINE
  5
3CC
100
AcDbEntity
  8
CURVE
100
AcDbLine
 62
250
  6
CONTINUOUS
 10
-10.629136832
 20
-8.825329
 11
-10.629136832
 21
-9.424033
  0
LINE
  5
3CD
100
AcDbEntity
  8
CURVE
100
AcDbLine
 62
250
  6
CONTINUOUS
 10
-10.629136832
 20
-9.519077
 11
-10.629136832
 21
-10.111193
  0
LINE
  5
3CE
100
AcDbEntity
  8
CURVE
100
AcDbLine
 62
250
  6
CONTINUOUS
 10
-10.629136832
 20
-10.955216
 11
-10.629136832
 21
-11.040105
  0
LINE
  5
3CF
100
AcDbEntity
  8
CURVE
100
AcDbLine
 62
250
  6
CONTINUOUS
 10
-10.629136832
 20
-11.880779
 11
-10.629136832
 21
-12.459827
  0
LINE
  5
3D0
100
AcDbEntity
  8
CURVE
100
AcDbLine
 62
250
  6
CONTINUOUS
 10
-10.629136832
 20
-14.547617
 11
-10.629136832
 21
-15.081013
  0
LINE
  5
3D1
100
AcDbEntity
  8
CURVE
100
AcDbLine
 62
250
  6
CONTINUOUS
 10
-10.5994370156
 20
11.742857337
 11
-10.5994370156
 21
11.335714221
  0
LINE
  5
3D2
100
AcDbEntity
  8
CURVE
100
AcDbLine
 62
250
  6
CONTINUOUS
 10
-10.5994370156
 20
10.25
 11
-10.5994370156
 21
9.842857337
  0
LINE
  5
3D3
100
AcDbEntity
  8
CURVE
100
AcDbLine
 62
250
  6
CONTINUOUS
 10
-10.5994370156
 20
8.7571428895
 11
-10.5994370156
 21
8.35
  0
LINE
  5
3D4
100
AcDbEntity
  8
CURVE
100
AcDbLine
 62
250
  6
CONTINUOUS
 10
-10.5994370156
 20
15.542856884
 11
-10.5994370156
 21
16.085714674
  0
LINE
  5
3D5
100
AcDbEntity
  8
CURVE
100
AcDbLine
 62
250
  6
CONTINUOUS
 10
-10.5662774433
 20
15.542856884
 11
-10.5710145253
 21
15.271428442
  0
LINE
  5
3D6
100
AcDbEntity
  8
CURVE
100
AcDbLine
 62
250
  6
CONTINUOUS
 10
-10.5946999341
 20
12.014285779
 11
-10.5994370156
 21
11.742857337
  0
LINE
  5
3D7
100
AcDbEntity
  8
CURVE
100
AcDbLine
 62
250
  6
CONTINUOUS
 10
-10.5946999341
 20
10.521428442
 11
-10.5994370156
 21
10.25
  0
LINE
  5
3D8
100
AcDbEntity
  8
CURVE
100
AcDbLine
 62
250
  6
CONTINUOUS
 10
-10.5946999341
 20
9.0285713315
 11
-10.5994370156
 21
8.7571428895
  0
LINE
  5
3D9
100
AcDbEntity
  8
CURVE
100
AcDbLine
 62
250
  6
CONTINUOUS
 10
-10.5852257712
 20
9.571428442
 11
-10.5804886887
 21
9.842857337
  0
LINE
  5
3DA
100
AcDbEntity
  8
CURVE
100
AcDbLine
 62
250
  6
CONTINUOUS
 10
-10.5718040389
 20
12.964285779
 11
-10.5702250115
 21
13.0095237017
  0
LINE
  5
3DB
100
AcDbEntity
  8
CURVE
100
AcDbLine
 62
250
  6
CONTINUOUS
 10
-10.5678564706
 20
12.8738094807
 11
-10.5694354979
 21
12.828571558
  0
LINE
  5
3DC
100
AcDbEntity
  8
CURVE
100
AcDbLine
 62
250
  6
CONTINUOUS
 10
-10.6798895703
 20
11.216139
 11
-10.6397880593
 21
12.328754
  0
LINE
  5
3DD
100
AcDbEntity
  8
CURVE
100
AcDbLine
 62
250
  6
CONTINUOUS
 10
-10.6292852826
 20
12.027546
 11
-10.6716376366
 21
10.87477
  0
LINE
  5
3DE
100
AcDbEntity
  8
CURVE
100
AcDbLine
 62
250
  6
CONTINUOUS
 10
-10.6292852826
 20
16.0
 11
-10.6798895703
 21
14.991935
  0
LINE
  5
3DF
100
AcDbEntity
  8
CURVE
100
AcDbLine
 62
250
  6
CONTINUOUS
 10
-10.6292852826
 20
9.975074
 11
-10.6798895703
 21
8.9669
  0
LINE
  5
3E0
100
AcDbEntity
  8
CURVE
100
AcDbLine
 62
250
  6
CONTINUOUS
 10
-10.6400105785
 20
15.164584
 11
-10.6292852826
 21
15.373574
  0
LINE
  5
3E1
100
AcDbEntity
  8
CURVE
100
AcDbLine
 62
250
  6
CONTINUOUS
 10
-10.6400105785
 20
9.139549
 11
-10.6292852826
 21
9.348431
  0
LINE
  5
3E2
100
AcDbEntity
  8
CURVE
100
AcDbLine
 62
250
  6
CONTINUOUS
 10
-10.6702167559
 20
14.606449
 11
-10.648420188
 21
15.007869
  0
LINE
  5
3E3
100
AcDbEntity
  8
CURVE
100
AcDbLine
 62
250
  6
CONTINUOUS
 10
-10.6702196177
 20
8.581471
 11
-10.648420188
 21
8.982943
  0
LINE
  5
3E4
100
AcDbEntity
  8
CURVE
100
AcDbLine
 62
250
  6
CONTINUOUS
 10
-10.5994370156
 20
14.185714674
 11
-10.5662774433
 21
14.728571558
  0
LINE
  5
3E5
100
AcDbEntity
  8
ASSI
100
AcDbLine
 62
7
  6
CONTINUOUS
 10
-9.1455995878
 20
10.991317581
 11
-9.1808298148
 21
10.7915170353
  0
LINE
  5
3E6
100
AcDbEntity
  8
ASSI
100
AcDbLine
 62
7
  6
CONTINUOUS
 10
-3.5475351287
 20
19.1571474807
 11
-3.3315449016
 21
19.5891608362
  0
LINE
  5
3E7
100
AcDbEntity
  8
CURVE
100
AcDbLine
 62
7
  6
CONTINUOUS
 10
-10.6376948922
 20
6.7254100697
 11
-10.6292852826
 21
6.7338196793
  0
LINE
  5
3E8
100
AcDbEntity
  8
ASSI
100
AcDbLine
 62
7
  6
CONTINUOUS
 10
2.925
 20
19.9
 11
2.9229803239
 21
19.8979803239
  0
LINE
  5
3E9
100
AcDbEntity
  8
CURVE
100
AcDbLine
 62
7
  6
CONTINUOUS
 10
-10.6798895703
 20
5.6876090437
 11
-10.6292852826
 21
5.7382133314
  0
LINE
  5
3EA
100
AcDbEntity
  8
ASSI
100
AcDbLine
 62
7
  6
CONTINUOUS
 10
1.465555173
 20
17.6989230612
 11
1.6684550984
 21
17.9018229866
  0
LINE
  5
3EB
100
AcDbEntity
  8
ASSI
100
AcDbLine
 62
7
  6
CONTINUOUS
 10
3.8359791689
 20
19.8109791689
 11
3.925
 21
19.9
  0
LINE
  5
3EC
100
AcDbEntity
  8
ASSI
100
AcDbLine
 62
7
  6
CONTINUOUS
 10
3.925
 20
19.7
 11
3.8359791689
 21
19.6109791689
  0
LINE
  5
3ED
100
AcDbEntity
  8
CURVE
100
AcDbLine
 62
250
  6
CONTINUOUS
 10
-7.5130952369
 20
8.2071425915
 11
-7.482142853
 21
8.2380954742
  0
LINE
  5
3EE
100
AcDbEntity
  8
CURVE
100
AcDbLine
 62
7
  6
CONTINUOUS
 10
-10.6716685769
 20
4.7002236892
 11
-10.6575873582
 21
4.7143049079
  0
LINE
  5
3EF
100
AcDbEntity
  8
CURVE
100
AcDbLine
 62
250
  6
CONTINUOUS
 10
-6.4607142746
 20
8.7952380657
 11
-6.275
 21
8.9809522629
  0
LINE
  5
3F0
100
AcDbEntity
  8
ASSI
100
AcDbLine
 62
7
  6
CONTINUOUS
 10
-10.2475823135
 20
8.3970585518
 11
-10.528631018
 21
8.2565449016
  0
LINE
  5
3F1
100
AcDbEntity
  8
ASSI
100
AcDbLine
 62
250
  6
CONTINUOUS
 10
11.575
 20
17.6716990487
 11
10.9466176626
 21
17.4114145622
  0
LINE
  5
3F2
100
AcDbEntity
  8
ASSI
100
AcDbLine
 62
7
  6
CONTINUOUS
 10
7.175
 20
-12.05
 11
-6.325
 21
-12.05
  0
LINE
  5
3F3
100
AcDbEntity
  8
ASSI
100
AcDbLine
 62
7
  6
CONTINUOUS
 10
7.175
 20
-11.782
 11
-6.325
 21
-11.782
  0
LINE
  5
3F4
100
AcDbEntity
  8
ASSI
100
AcDbLine
 62
250
  6
CONTINUOUS
 10
11.378631018
 20
-11.7434550984
 11
10.1768229866
 21
-11.7434550984
  0
LINE
  5
3F5
100
AcDbEntity
  8
ASSI
100
AcDbLine
 62
250
  6
CONTINUOUS
 10
-10.528631018
 20
-11.7434550984
 11
-9.3268229866
 21
-11.7434550984
  0
LINE
  5
3F6
100
AcDbEntity
  8
ASSI
100
AcDbLine
 62
7
  6
CONTINUOUS
 10
9.9739230612
 20
-11.540555173
 11
9.925
 21
-11.540555173
  0
LINE
  5
3F7
100
AcDbEntity
  8
ASSI
100
AcDbLine
 62
7
  6
CONTINUOUS
 10
-9.1239230612
 20
-11.540555173
 11
-9.075
 21
-11.540555173
  0
LINE
  5
3F8
100
AcDbEntity
  8
ASSI
100
AcDbLine
 62
7
  6
CONTINUOUS
 10
10.9466176626
 20
-11.5274648713
 11
9.925
 21
-11.5274648713
  0
LINE
  5
3F9
100
AcDbEntity
  8
ASSI
100
AcDbLine
 62
7
  6
CONTINUOUS
 10
-10.0966176626
 20
-11.5274648713
 11
-9.075
 21
-11.5274648713
  0
LINE
  5
3FA
100
AcDbEntity
  8
ASSI
100
AcDbLine
 62
250
  6
CONTINUOUS
 10
10.9466176626
 20
-17.4114145622
 11
11.575
 21
-17.6716990487
  0
LINE
  5
3FB
100
AcDbEntity
  8
ASSI
100
AcDbLine
 62
7
  6
CONTINUOUS
 10
-10.0966176626
 20
-8.4725351287
 11
-10.528631018
 21
-8.2565449016
  0
LINE
  5
3FC
100
AcDbEntity
  8
ASSI
100
AcDbLine
 62
7
  6
CONTINUOUS
 10
2.925
 20
-19.9
 11
2.9229803239
 21
-19.8979803239
  0
LINE
  5
3FD
100
AcDbEntity
  8
ASSI
100
AcDbLine
 62
7
  6
CONTINUOUS
 10
1.465555173
 20
-17.6989230612
 11
1.6684550984
 21
-17.9018229866
  0
LINE
  5
3FE
100
AcDbEntity
  8
ASSI
100
AcDbLine
 62
7
  6
CONTINUOUS
 10
3.925
 20
-19.9
 11
3.8359791689
 21
-19.8109791689
  0
LINE
  5
3FF
100
AcDbEntity
  8
ASSI
100
AcDbLine
 62
7
  6
CONTINUOUS
 10
3.925
 20
-19.7
 11
3.8359791689
 21
-19.6109791689
  0
LINE
  5
400
100
AcDbEntity
  8
ASSI
100
AcDbLine
 62
7
  6
CONTINUOUS
 10
-3.5475351287
 20
-19.1571474807
 11
-3.3315449016
 21
-19.5891608362
  0
LINE
  5
401
100
AcDbEntity
  8
CURVE
100
AcDbLine
 62
250
  6
CONTINUOUS
 10
-10.5757516073
 20
10.385714221
 11
-10.5852257712
 21
10.521428442
  0
LINE
  5
402
100
AcDbEntity
  8
CURVE
100
AcDbLine
 62
250
  6
CONTINUOUS
 10
-10.573383066
 20
6.5857143342
 11
-10.5994370156
 21
6.9928571105
  0
LINE
  5
403
100
AcDbEntity
  8
CURVE
100
AcDbLine
 62
250
  6
CONTINUOUS
 10
-10.5662774433
 20
13.642856884
 11
-10.5994370156
 21
14.185714674
  0
LINE
  5
404
100
AcDbEntity
  8
CURVE
100
AcDbLine
 62
250
  6
CONTINUOUS
 10
-10.648420188
 20
8.151456
 11
-10.6702196177
 21
8.581471
  0
LINE
  5
405
100
AcDbEntity
  8
CURVE
100
AcDbLine
 62
250
  6
CONTINUOUS
 10
-10.648420188
 20
14.176491
 11
-10.6702167559
 21
14.606449
  0
LINE
  5
406
100
AcDbEntity
  8
CURVE
100
AcDbLine
 62
250
  6
CONTINUOUS
 10
-10.6292852826
 20
7.773964
 11
-10.6400105785
 21
7.990812
  0
LINE
  5
407
100
AcDbEntity
  8
CURVE
100
AcDbLine
 62
250
  6
CONTINUOUS
 10
-10.6292852826
 20
13.798889
 11
-10.6400105785
 21
14.015846
  0
LINE
  5
408
100
AcDbEntity
  8
CURVE
100
AcDbLine
 62
250
  6
CONTINUOUS
 10
-10.6798895703
 20
8.227849
 11
-10.6292852826
 21
7.179514
  0
LINE
  5
409
100
AcDbEntity
  8
CURVE
100
AcDbLine
 62
250
  6
CONTINUOUS
 10
-10.6798895703
 20
14.252884
 11
-10.6292852826
 21
13.20444
  0
LINE
  5
40A
100
AcDbEntity
  8
CURVE
100
AcDbLine
 62
250
  6
CONTINUOUS
 10
-10.5702250115
 20
12.828571558
 11
-10.5718040389
 21
12.8738094807
  0
LINE
  5
40B
100
AcDbEntity
  8
CURVE
100
AcDbLine
 62
250
  6
CONTINUOUS
 10
-10.5694354979
 20
13.0095237017
 11
-10.5678564706
 21
12.964285779
  0
LINE
  5
40C
100
AcDbEntity
  8
CURVE
100
AcDbLine
 62
250
  6
CONTINUOUS
 10
-10.5994370156
 20
8.35
 11
-10.5923313924
 21
8.0785713315
  0
LINE
  5
40D
100
AcDbEntity
  8
CURVE
100
AcDbLine
 62
250
  6
CONTINUOUS
 10
-10.5994370156
 20
11.335714221
 11
-10.5923313924
 21
11.064285779
  0
LINE
  5
40E
100
AcDbEntity
  8
CURVE
100
AcDbLine
 62
250
  6
CONTINUOUS
 10
-10.5662774433
 20
8.0785713315
 11
-10.5899628526
 21
9.0285713315
  0
LINE
  5
40F
100
AcDbEntity
  8
CURVE
100
AcDbLine
 62
250
  6
CONTINUOUS
 10
-10.5662774433
 20
11.064285779
 11
-10.5899628526
 21
12.014285779
  0
LINE
  5
410
100
AcDbEntity
  8
CURVE
100
AcDbLine
 62
250
  6
CONTINUOUS
 10
-10.5899628526
 20
5.5
 11
-10.5994370156
 21
6.0428571671
  0
LINE
  5
411
100
AcDbEntity
  8
CURVE
100
AcDbLine
 62
250
  6
CONTINUOUS
 10
-10.5994370156
 20
9.842857337
 11
-10.5946999341
 21
9.571428442
  0
LINE
  5
412
100
AcDbEntity
  8
CURVE
100
AcDbLine
 62
250
  6
CONTINUOUS
 10
-10.5662774433
 20
9.842857337
 11
-10.5757516073
 21
10.385714221
  0
LINE
  5
413
100
AcDbEntity
  8
CURVE
100
AcDbLine
 62
250
  6
CONTINUOUS
 10
-10.5946999341
 20
15.271428442
 11
-10.5994370156
 21
15.542856884
  0
LINE
  5
414
100
AcDbEntity
  8
ASSI
100
AcDbLine
 62
250
  6
CONTINUOUS
 10
-10.220628166
 20
-23.8443375673
 11
-10.225
 21
-23.4104851482
  0
LINE
  5
415
100
AcDbEntity
  8
ASSI
100
AcDbLine
 62
250
  6
CONTINUOUS
 10
-9.9706323968
 20
-23.6278312164
 11
-9.9757229979
 21
-23.1226497308
  0
LINE
  5
416
100
AcDbEntity
  8
ASSI
100
AcDbLine
 62
250
  6
CONTINUOUS
 10
-10.2206238859
 20
-24.2470868299
 11
-10.220628166
 21
-24.2456323968
  0
LINE
  5
417
100
AcDbEntity
  8
CURVE
100
AcDbLine
 62
250
  6
CONTINUOUS
 10
-10.5804886887
 20
9.842857337
 11
-10.5804886887
 21
10.4309525967
  0
LINE
  5
418
100
AcDbEntity
  8
CURVE
100
AcDbLine
 62
250
  6
CONTINUOUS
 10
-10.5757516073
 20
13.8238094807
 11
-10.5757516073
 21
14.5476189613
  0
LINE
  5
419
100
AcDbEntity
  8
CURVE
100
AcDbLine
 62
250
  6
CONTINUOUS
 10
-10.573383066
 20
7.535714221
 11
-10.573383066
 21
6.5857143342
  0
LINE
  5
41A
100
AcDbEntity
  8
CURVE
100
AcDbLine
 62
250
  6
CONTINUOUS
 10
-10.5718040389
 20
12.8738094807
 11
-10.5718040389
 21
12.964285779
  0
LINE
  5
41B
100
AcDbEntity
  8
CURVE
100
AcDbLine
 62
250
  6
CONTINUOUS
 10
-10.5678564706
 20
12.964285779
 11
-10.5678564706
 21
12.8738094807
  0
LINE
  5
41C
100
AcDbEntity
  8
CURVE
100
AcDbLine
 62
250
  6
CONTINUOUS
 10
-10.5662774433
 20
16.085714674
 11
-10.5662774433
 21
15.542856884
  0
LINE
  5
41D
100
AcDbEntity
  8
CURVE
100
AcDbLine
 62
250
  6
CONTINUOUS
 10
-10.5662774433
 20
12.014285779
 11
-10.5662774433
 21
11.064285779
  0
LINE
  5
41E
100
AcDbEntity
  8
CURVE
100
AcDbLine
 62
250
  6
CONTINUOUS
 10
-10.5662774433
 20
9.0285713315
 11
-10.5662774433
 21
8.0785713315
  0
LINE
  5
41F
100
AcDbEntity
  8
CURVE
100
AcDbLine
 62
250
  6
CONTINUOUS
 10
-10.5583041299
 20
-3.29
 11
-10.5583041299
 21
-2.290000718
  0
LINE
  5
420
100
AcDbEntity
  8
ASSI
100
AcDbLine
 62
7
  6
CONTINUOUS
 10
-10.225
 20
-22.399689968
 11
-10.225
 21
-23.8443375673
  0
LINE
  5
421
100
AcDbEntity
  8
ASSI
100
AcDbLine
 62
7
  6
CONTINUOUS
 10
-10.225
 20
22.399689968
 11
-10.225
 21
23.8443375673
  0
LINE
  5
422
100
AcDbEntity
  8
ASSI
100
AcDbLine
 62
7
  6
CONTINUOUS
 10
-10.220628166
 20
24.2456323968
 11
-10.220628166
 21
23.8443375673
  0
LINE
  5
423
100
AcDbEntity
  8
ASSI
100
AcDbLine
 62
7
  6
CONTINUOUS
 10
-10.220628166
 20
-23.8443375673
 11
-10.220628166
 21
-24.2456323968
  0
LINE
  5
424
100
AcDbEntity
  8
ASSI
100
AcDbLine
 62
7
  6
CONTINUOUS
 10
-10.0966176626
 20
17.4114145622
 11
-10.0966176626
 21
14.6
  0
LINE
  5
425
100
AcDbEntity
  8
ASSI
100
AcDbLine
 62
7
  6
CONTINUOUS
 10
-10.0966176626
 20
10.4
 11
-10.0966176626
 21
9.6
  0
LINE
  5
426
100
AcDbEntity
  8
ASSI
100
AcDbLine
 62
7
  6
CONTINUOUS
 10
-10.0966176626
 20
5.4
 11
-10.0966176626
 21
3.4725351287
  0
LINE
  5
427
100
AcDbEntity
  8
ASSI
100
AcDbLine
 62
7
  6
CONTINUOUS
 10
-10.0966176626
 20
1.5274648713
 11
-10.0966176626
 21
-1.5274648713
  0
LINE
  5
428
100
AcDbEntity
  8
ASSI
100
AcDbLine
 62
7
  6
CONTINUOUS
 10
-10.0966176626
 20
-3.4725351287
 11
-10.0966176626
 21
-6.5274648713
  0
LINE
  5
429
100
AcDbEntity
  8
ASSI
100
AcDbLine
 62
7
  6
CONTINUOUS
 10
-10.0966176626
 20
-8.4725351287
 11
-10.0966176626
 21
-11.5274648713
  0
LINE
  5
42A
100
AcDbEntity
  8
ASSI
100
AcDbLine
 62
7
  6
CONTINUOUS
 10
-10.0966176626
 20
-13.4725351287
 11
-10.0966176626
 21
-17.4114145622
  0
LINE
  5
42B
100
AcDbEntity
  8
ASSI
100
AcDbLine
 62
250
  6
CONTINUOUS
 10
-9.9706323968
 20
-23.6278312164
 11
-9.9706323968
 21
-24.495628166
  0
LINE
  5
42C
100
AcDbEntity
  8
ASSI
100
AcDbLine
 62
250
  6
CONTINUOUS
 10
-9.9706323968
 20
23.7
 11
-9.9706323968
 21
24.495628166
  0
LINE
  5
42D
100
AcDbEntity
  8
ASSI
100
AcDbLine
 62
7
  6
CONTINUOUS
 10
-9.225
 20
-20.0671699049
 11
-9.225
 21
-20.0
  0
LINE
  5
42E
100
AcDbEntity
  8
ASSI
100
AcDbLine
 62
7
  6
CONTINUOUS
 10
-9.225
 20
-13.3583678882
 11
-9.225
 21
-11.6416321118
  0
LINE
  5
42F
100
AcDbEntity
  8
ASSI
100
AcDbLine
 62
7
  6
CONTINUOUS
 10
-9.225
 20
-8.3583678882
 11
-9.225
 21
-6.6416321118
  0
LINE
  5
430
100
AcDbEntity
  8
ASSI
100
AcDbLine
 62
7
  6
CONTINUOUS
 10
-9.225
 20
-3.3583678882
 11
-9.225
 21
-2.4730176027
  0
LINE
  5
431
100
AcDbEntity
  8
ASSI
100
AcDbLine
 62
7
  6
CONTINUOUS
 10
-9.225
 20
11.8730176027
 11
-9.225
 21
13.3583678882
  0
LINE
  5
432
100
AcDbEntity
  8
ASSI
100
AcDbLine
 62
7
  6
CONTINUOUS
 10
-9.225
 20
20.0
 11
-9.225
 21
20.0671699049
  0
LINE
  5
433
100
AcDbEntity
  8
ASSI
100
AcDbLine
 62
7
  6
CONTINUOUS
 10
-9.075
 20
3.4725351287
 11
-9.075
 21
1.5274648713
  0
LINE
  5
434
100
AcDbEntity
  8
ASSI
100
AcDbLine
 62
7
  6
CONTINUOUS
 10
-9.075
 20
-1.5274648713
 11
-9.075
 21
-3.4725351287
  0
LINE
  5
435
100
AcDbEntity
  8
ASSI
100
AcDbLine
 62
7
  6
CONTINUOUS
 10
-9.075
 20
-6.5274648713
 11
-9.075
 21
-8.4725351287
  0
LINE
  5
436
100
AcDbEntity
  8
ASSI
100
AcDbLine
 62
7
  6
CONTINUOUS
 10
-9.075
 20
-11.5274648713
 11
-9.075
 21
-13.4725351287
  0
LINE
  5
437
100
AcDbEntity
  8
ASSI
100
AcDbLine
 62
7
  6
CONTINUOUS
 10
-9.0696499221
 20
14.6
 11
-9.0696499221
 21
11.859426232
  0
LINE
  5
438
100
AcDbEntity
  8
ASSI
100
AcDbLine
 62
7
  6
CONTINUOUS
 10
-8.925
 20
5.4
 11
-8.925
 21
9.6
  0
LINE
  5
439
100
AcDbEntity
  8
ASSI
100
AcDbLine
 62
7
  6
CONTINUOUS
 10
-8.925
 20
10.4
 11
-8.925
 21
14.6
  0
LINE
  5
43A
100
AcDbEntity
  8
ASSI
100
AcDbLine
 62
250
  6
CONTINUOUS
 10
-10.225
 20
23.4104851482
 11
-10.220628166
 21
23.8443375673
  0
LINE
  5
43B
100
AcDbEntity
  8
ASSI
100
AcDbLine
 62
250
  6
CONTINUOUS
 10
-9.9757229979
 20
23.1226497308
 11
-9.9699051681
 21
23.7
  0
LINE
  5
43C
100
AcDbEntity
  8
CURVE
100
AcDbLine
 62
250
  6
CONTINUOUS
 10
-10.629136832
 20
-11.040105
 11
-10.6621815499
 21
-11.750162
  0
LINE
  5
43D
100
AcDbEntity
  8
CURVE
100
AcDbLine
 62
250
  6
CONTINUOUS
 10
-10.6797427546
 20
-11.593234
 11
-10.6516461953
 21
-10.994355
  0
LINE
  5
43E
100
AcDbEntity
  8
CURVE
100
AcDbLine
 62
250
  6
CONTINUOUS
 10
-10.629136832
 20
-15.081013
 11
-10.6797427546
 21
-16.00026
  0
LINE
  5
43F
100
AcDbEntity
  8
CURVE
100
AcDbLine
 62
250
  6
CONTINUOUS
 10
-10.6797427546
 20
-7.92899
 11
-10.629136832
 21
-7.039304
  0
LINE
  5
440
100
AcDbEntity
  8
CURVE
100
AcDbLine
 62
250
  6
CONTINUOUS
 10
-10.6797427546
 20
-15.342748
 11
-10.6449091301
 21
-14.790021
  0
LINE
  5
441
100
AcDbEntity
  8
CURVE
100
AcDbLine
 62
250
  6
CONTINUOUS
 10
-10.629136832
 20
-7.677235
 11
-10.6392395763
 21
-7.834033
  0
LINE
  5
442
100
AcDbEntity
  8
CURVE
100
AcDbLine
 62
250
  6
CONTINUOUS
 10
-10.6470570327
 20
-7.954996
 11
-10.6658375324
 21
-8.233126
  0
LINE
  5
443
100
AcDbEntity
  8
ASSI
100
AcDbLine
 62
7
  6
CONTINUOUS
 10
-6.875
 20
20.9
 11
-6.9267786853
 21
20.4335707644
  0
LINE
  5
444
100
AcDbEntity
  8
CURVE
100
AcDbLine
 62
7
  6
CONTINUOUS
 10
-10.6572458974
 20
3.7190400208
 11
-10.6488598986
 21
3.7274260196
  0
LINE
  5
445
100
AcDbEntity
  8
CURVE
100
AcDbLine
 62
7
  6
CONTINUOUS
 10
-10.6798258413
 20
3.6964600769
 11
-10.671444096
 21
3.7048418222
  0
LINE
  5
446
100
AcDbEntity
  8
CURVE
100
AcDbLine
 62
7
  6
CONTINUOUS
 10
-10.6798895703
 20
2.70079
 11
-10.6292852826
 21
2.7513942877
  0
LINE
  5
447
100
AcDbEntity
  8
ASSI
100
AcDbLine
 62
250
  6
CONTINUOUS
 10
6.8732213147
 20
19.8482179301
 11
6.9811896713
 21
19.9561862866
  0
LINE
  5
448
100
AcDbEntity
  8
ASSI
100
AcDbLine
 62
7
  6
CONTINUOUS
 10
-9.1239230612
 20
3.459444827
 11
-9.3268229866
 21
3.2565449016
  0
LINE
  5
449
100
AcDbEntity
  8
ASSI
100
AcDbLine
 62
250
  6
CONTINUOUS
 10
7.1249966154
 20
19.7
 11
7.1811862866
 21
19.7561896713
  0
LINE
  5
44A
100
AcDbEntity
  8
CURVE
100
AcDbLine
 62
250
  6
CONTINUOUS
 10
-7.3583333269
 20
8.1452380657
 11
-7.4202380948
 21
8.1142858028
  0
LINE
  5
44B
100
AcDbEntity
  8
CURVE
100
AcDbLine
 62
250
  6
CONTINUOUS
 10
11.5279728445
 20
-9.5
 11
11.4407108124
 21
-9.5
  0
LINE
  5
44C
100
AcDbEntity
  8
ASSI
100
AcDbLine
 62
7
  6
CONTINUOUS
 10
-6.325
 20
-8.818
 11
7.175
 21
-8.818
  0
LINE
  5
44D
100
AcDbEntity
  8
ASSI
100
AcDbLine
 62
250
  6
CONTINUOUS
 10
6.9811896713
 20
-19.9561862866
 11
6.8732213147
 21
-19.8482179301
  0
LINE
  5
44E
100
AcDbEntity
  8
ASSI
100
AcDbLine
 62
7
  6
CONTINUOUS
 10
-9.1239230612
 20
-3.459444827
 11
-9.3268229866
 21
-3.2565449016
  0
LINE
  5
44F
100
AcDbEntity
  8
ASSI
100
AcDbLine
 62
250
  6
CONTINUOUS
 10
7.1811862866
 20
-19.7561896713
 11
7.1249966154
 21
-19.7
  0
LINE
  5
450
100
AcDbEntity
  8
ASSI
100
AcDbLine
 62
7
  6
CONTINUOUS
 10
-9.1499594518
 20
-1.5665915636
 11
-9.1455995878
 21
-1.591317581
  0
LINE
  5
451
100
AcDbEntity
  8
ASSI
100
AcDbLine
 62
7
  6
CONTINUOUS
 10
-6.9267786853
 20
-20.4335707644
 11
-6.875
 21
-20.9
  0
LINE
  5
452
100
AcDbEntity
  8
ASSI
100
AcDbLine
 62
250
  6
CONTINUOUS
 10
-8.0800948319
 20
23.7
 11
-8.0742770021
 21
23.1226497308
  0
LINE
  5
453
100
AcDbEntity
  8
ASSI
100
AcDbLine
 62
250
  6
CONTINUOUS
 10
-7.829371834
 20
23.8443375673
 11
-7.825
 21
23.4104851482
  0
LINE
  5
454
100
AcDbEntity
  8
ASSI
100
AcDbLine
 62
7
  6
CONTINUOUS
 10
-8.5475351287
 20
19.1571474807
 11
-8.5475351287
 21
17.65
  0
LINE
  5
455
100
AcDbEntity
  8
ASSI
100
AcDbLine
 62
7
  6
CONTINUOUS
 10
-8.5475351287
 20
-19.1571474807
 11
-8.5475351287
 21
-17.65
  0
LINE
  5
456
100
AcDbEntity
  8
ASSI
100
AcDbLine
 62
7
  6
CONTINUOUS
 10
-8.534444827
 20
17.6989230612
 11
-8.534444827
 21
17.65
  0
LINE
  5
457
100
AcDbEntity
  8
ASSI
100
AcDbLine
 62
7
  6
CONTINUOUS
 10
-8.534444827
 20
-17.6989230612
 11
-8.534444827
 21
-17.65
  0
LINE
  5
458
100
AcDbEntity
  8
ASSI
100
AcDbLine
 62
250
  6
CONTINUOUS
 10
-8.3315449016
 20
19.5891608362
 11
-8.3315449016
 21
17.9018229866
  0
LINE
  5
459
100
AcDbEntity
  8
ASSI
100
AcDbLine
 62
250
  6
CONTINUOUS
 10
-8.3315449016
 20
-19.5891608362
 11
-8.3315449016
 21
-17.9018229866
  0
LINE
  5
45A
100
AcDbEntity
  8
ASSI
100
AcDbLine
 62
250
  6
CONTINUOUS
 10
-8.0793676032
 20
-23.6278312164
 11
-8.0793676032
 21
-24.495628166
  0
LINE
  5
45B
100
AcDbEntity
  8
ASSI
100
AcDbLine
 62
250
  6
CONTINUOUS
 10
-8.0793676032
 20
23.7
 11
-8.0793676032
 21
24.495628166
  0
LINE
  5
45C
100
AcDbEntity
  8
ASSI
100
AcDbLine
 62
7
  6
CONTINUOUS
 10
-7.829371834
 20
-24.2456323968
 11
-7.829371834
 21
-23.8443375673
  0
LINE
  5
45D
100
AcDbEntity
  8
ASSI
100
AcDbLine
 62
7
  6
CONTINUOUS
 10
-7.829371834
 20
23.8443375673
 11
-7.829371834
 21
24.2456323968
  0
LINE
  5
45E
100
AcDbEntity
  8
ASSI
100
AcDbLine
 62
7
  6
CONTINUOUS
 10
-7.825
 20
-21.4
 11
-7.825
 21
-20.9
  0
LINE
  5
45F
100
AcDbEntity
  8
ASSI
100
AcDbLine
 62
7
  6
CONTINUOUS
 10
-7.825
 20
20.9
 11
-7.825
 21
21.4
  0
LINE
  5
460
100
AcDbEntity
  8
ASSI
100
AcDbLine
 62
7
  6
CONTINUOUS
 10
-7.825
 20
-22.4
 11
-7.825
 21
-23.8443375673
  0
LINE
  5
461
100
AcDbEntity
  8
ASSI
100
AcDbLine
 62
7
  6
CONTINUOUS
 10
-7.825
 20
22.4
 11
-7.825
 21
23.8443375673
  0
LINE
  5
462
100
AcDbEntity
  8
CURVE
100
AcDbLine
 62
250
  6
CONTINUOUS
 10
-7.703571412
 20
0.65
 11
-7.703571412
 21
-0.65
  0
LINE
  5
463
100
AcDbEntity
  8
ASSI
100
AcDbLine
 62
250
  6
CONTINUOUS
 10
-7.6590245667
 20
21.5659754333
 11
-7.6590245667
 21
20.9
  0
LINE
  5
464
100
AcDbEntity
  8
ASSI
100
AcDbLine
 62
250
  6
CONTINUOUS
 10
-7.6590245667
 20
-20.9
 11
-7.6590245667
 21
-21.5659754333
  0
LINE
  5
465
100
AcDbEntity
  8
CURVE
100
AcDbLine
 62
250
  6
CONTINUOUS
 10
-7.575
 20
13.5
 11
-7.575
 21
13.128571412
  0
LINE
  5
466
100
AcDbEntity
  8
CURVE
100
AcDbLine
 62
250
  6
CONTINUOUS
 10
-7.575
 20
8.7952380657
 11
-7.575
 21
9.4452380657
  0
LINE
  5
467
100
AcDbEntity
  8
CURVE
100
AcDbLine
 62
250
  6
CONTINUOUS
 10
-7.5130952369
 20
8.1761903286
 11
-7.5130952369
 21
8.2071425915
  0
LINE
  5
468
100
AcDbEntity
  8
CURVE
100
AcDbLine
 62
250
  6
CONTINUOUS
 10
-7.3583333269
 20
8.1761903286
 11
-7.3583333269
 21
8.1452380657
  0
LINE
  5
469
100
AcDbEntity
  8
CURVE
100
AcDbLine
 62
250
  6
CONTINUOUS
 10
-7.325
 20
11.5
 11
-7.325
 21
11.25
  0
LINE
  5
46A
100
AcDbEntity
  8
CURVE
100
AcDbLine
 62
250
  6
CONTINUOUS
 10
-7.325
 20
10.97
 11
-7.325
 21
10.72
  0
LINE
  5
46B
100
AcDbEntity
  8
CURVE
100
AcDbLine
 62
250
  6
CONTINUOUS
 10
-7.325
 20
10.44
 11
-7.325
 21
10.2
  0
LINE
  5
46C
100
AcDbEntity
  8
CURVE
100
AcDbLine
 62
250
  6
CONTINUOUS
 10
-7.2964285687
 20
7.0309522629
 11
-7.2964285687
 21
7.6809522629
  0
LINE
  5
46D
100
AcDbEntity
  8
CURVE
100
AcDbLine
 62
250
  6
CONTINUOUS
 10
-7.203571412
 20
6.5357141972
 11
-7.203571412
 21
6.0404761314
  0
LINE
  5
46E
100
AcDbEntity
  8
ASSI
100
AcDbLine
 62
250
  6
CONTINUOUS
 10
-7.1591007192
 20
21.3126932437
 11
-7.1591007192
 21
20.9
  0
LINE
  5
46F
100
AcDbEntity
  8
ASSI
100
AcDbLine
 62
250
  6
CONTINUOUS
 10
-7.1591007192
 20
-20.9
 11
-7.1591007192
 21
-21.3126932437
  0
LINE
  5
470
100
AcDbEntity
  8
ASSI
100
AcDbLine
 62
7
  6
CONTINUOUS
 10
-7.0640208311
 20
-20.85
 11
-7.0640208311
 21
-19.6109791689
  0
LINE
  5
471
100
AcDbEntity
  8
ASSI
100
AcDbLine
 62
7
  6
CONTINUOUS
 10
-7.0640208311
 20
19.6109791689
 11
-7.0640208311
 21
20.85
  0
LINE
  5
472
100
AcDbEntity
  8
ASSI
100
AcDbLine
 62
250
  6
CONTINUOUS
 10
-8.0742770021
 20
-23.1226497308
 11
-8.0793676032
 21
-23.6278312164
  0
LINE
  5
473
100
AcDbEntity
  8
ASSI
100
AcDbLine
 62
250
  6
CONTINUOUS
 10
-7.825
 20
-23.4104851482
 11
-7.829371834
 21
-23.8443375673
  0
LINE
  5
474
100
AcDbEntity
  8
CURVE
100
AcDbLine
 62
250
  6
CONTINUOUS
 10
-10.6797427546
 20
-9.790227
 11
-10.629136832
 21
-9.519077
  0
LINE
  5
475
100
AcDbEntity
  8
CURVE
100
AcDbLine
 62
250
  6
CONTINUOUS
 10
-10.629136832
 20
-10.111193
 11
-10.6620437981
 21
-10.235548
  0
LINE
  5
476
100
AcDbEntity
  8
ASSI
100
AcDbLine
 62
7
  6
CONTINUOUS
 10
1.4524648713
 20
19.1571474807
 11
1.6684550984
 21
19.5891608362
  0
LINE
  5
477
100
AcDbEntity
  8
ASSI
100
AcDbLine
 62
7
  6
CONTINUOUS
 10
4.825
 20
22.4
 11
4.7809327327
 21
22.3338981669
  0
LINE
  5
478
100
AcDbEntity
  8
ASSI
100
AcDbLine
 62
7
  6
CONTINUOUS
 10
0.168
 20
10.143
 11
0.875
 21
10.85
  0
LINE
  5
479
100
AcDbEntity
  8
ASSI
100
AcDbLine
 62
7
  6
CONTINUOUS
 10
-10.0966176626
 20
3.4725351287
 11
-10.528631018
 21
3.2565449016
  0
LINE
  5
47A
100
AcDbEntity
  8
CURVE
100
AcDbLine
 62
250
  6
CONTINUOUS
 10
-0.675
 20
8.15
 11
-2.575
 21
7.2
  0
LINE
  5
47B
100
AcDbEntity
  8
CURVE
100
AcDbLine
 62
250
  6
CONTINUOUS
 10
-6.275
 20
6.2880954742
 11
-7.575
 21
5.91666646
  0
LINE
  5
47C
100
AcDbEntity
  8
ASSI
100
AcDbLine
 62
7
  6
CONTINUOUS
 10
-6.325
 20
-8.55
 11
7.175
 21
-8.55
  0
LINE
  5
47D
100
AcDbEntity
  8
ASSI
100
AcDbLine
 62
7
  6
CONTINUOUS
 10
10.9466176626
 20
-8.4725351287
 11
9.925
 21
-8.4725351287
  0
LINE
  5
47E
100
AcDbEntity
  8
ASSI
100
AcDbLine
 62
7
  6
CONTINUOUS
 10
-10.0966176626
 20
-8.4725351287
 11
-9.075
 21
-8.4725351287
  0
LINE
  5
47F
100
AcDbEntity
  8
ASSI
100
AcDbLine
 62
7
  6
CONTINUOUS
 10
9.9739230612
 20
-8.459444827
 11
9.925
 21
-8.459444827
  0
LINE
  5
480
100
AcDbEntity
  8
ASSI
100
AcDbLine
 62
7
  6
CONTINUOUS
 10
-9.1239230612
 20
-8.459444827
 11
-9.075
 21
-8.459444827
  0
LINE
  5
481
100
AcDbEntity
  8
ASSI
100
AcDbLine
 62
250
  6
CONTINUOUS
 10
11.378631018
 20
-8.2565449016
 11
10.1768229866
 21
-8.2565449016
  0
LINE
  5
482
100
AcDbEntity
  8
ASSI
100
AcDbLine
 62
250
  6
CONTINUOUS
 10
-10.528631018
 20
-8.2565449016
 11
-9.3268229866
 21
-8.2565449016
  0
LINE
  5
483
100
AcDbEntity
  8
CURVE
100
AcDbLine
 62
250
  6
CONTINUOUS
 10
11.5061573365
 20
-8.25
 11
11.4625263204
 21
-8.25
  0
LINE
  5
484
100
AcDbEntity
  8
ASSI
100
AcDbLine
 62
7
  6
CONTINUOUS
 10
-5.075
 20
-7.35
 11
1.625
 21
-7.35
  0
LINE
  5
485
100
AcDbEntity
  8
ASSI
100
AcDbLine
 62
7
  6
CONTINUOUS
 10
-5.075
 20
-7.2887579355
 11
1.625
 21
-7.2887579355
  0
LINE
  5
486
100
AcDbEntity
  8
ASSI
100
AcDbLine
 62
7
  6
CONTINUOUS
 10
7.175
 20
-7.05
 11
-6.325
 21
-7.05
  0
LINE
  5
487
100
AcDbEntity
  8
ASSI
100
AcDbLine
 62
7
  6
CONTINUOUS
 10
-10.0966176626
 20
-3.4725351287
 11
-10.528631018
 21
-3.2565449016
  0
LINE
  5
488
100
AcDbEntity
  8
CURVE
100
AcDbLine
 62
250
  6
CONTINUOUS
 10
4.784809
 20
-16.018874
 11
5.011567
 21
-16.22316
  0
LINE
  5
489
100
AcDbEntity
  8
CURVE
100
AcDbLine
 62
250
  6
CONTINUOUS
 10
5.578459
 20
-15.610303
 11
5.351702
 21
-15.406017
  0
LINE
  5
48A
100
AcDbEntity
  8
ASSI
100
AcDbLine
 62
7
  6
CONTINUOUS
 10
4.825
 20
-22.4
 11
4.7809327327
 21
-22.3338981669
  0
LINE
  5
48B
100
AcDbEntity
  8
ASSI
100
AcDbLine
 62
7
  6
CONTINUOUS
 10
1.4524648713
 20
-19.1571474807
 11
1.6684550984
 21
-19.5891608362
  0
LINE
  5
48C
100
AcDbEntity
  8
ASSI
100
AcDbLine
 62
7
  6
CONTINUOUS
 10
-6.975
 20
-20.85
 11
-6.975
 21
-19.7
  0
LINE
  5
48D
100
AcDbEntity
  8
ASSI
100
AcDbLine
 62
7
  6
CONTINUOUS
 10
-6.975
 20
19.7
 11
-6.975
 21
20.85
  0
LINE
  5
48E
100
AcDbEntity
  8
ASSI
100
AcDbLine
 62
7
  6
CONTINUOUS
 10
-6.9267786853
 20
20.4335707644
 11
-6.9267786853
 21
19.8482179301
  0
LINE
  5
48F
100
AcDbEntity
  8
ASSI
100
AcDbLine
 62
7
  6
CONTINUOUS
 10
-6.9267786853
 20
-20.4335707644
 11
-6.9267786853
 21
-19.8482179301
  0
LINE
  5
490
100
AcDbEntity
  8
CURVE
100
AcDbLine
 62
250
  6
CONTINUOUS
 10
-6.8321428239
 20
13.128571412
 11
-6.8321428239
 21
13.5
  0
LINE
  5
491
100
AcDbEntity
  8
ASSI
100
AcDbLine
 62
7
  6
CONTINUOUS
 10
-6.8188103287
 20
-20.9
 11
-6.8188103287
 21
-19.9561862866
  0
LINE
  5
492
100
AcDbEntity
  8
ASSI
100
AcDbLine
 62
7
  6
CONTINUOUS
 10
-6.8188103287
 20
19.9561862866
 11
-6.8188103287
 21
20.9
  0
LINE
  5
493
100
AcDbEntity
  8
ASSI
100
AcDbLine
 62
250
  6
CONTINUOUS
 10
-6.8184550984
 20
19.5891608362
 11
-6.8184550984
 21
17.9018229866
  0
LINE
  5
494
100
AcDbEntity
  8
ASSI
100
AcDbLine
 62
250
  6
CONTINUOUS
 10
-6.8184550984
 20
-19.5891608362
 11
-6.8184550984
 21
-17.9018229866
  0
LINE
  5
495
100
AcDbEntity
  8
CURVE
100
AcDbLine
 62
250
  6
CONTINUOUS
 10
-6.6821429014
 20
0.2785714507
 11
-6.6821429014
 21
0.4642857254
  0
LINE
  5
496
100
AcDbEntity
  8
ASSI
100
AcDbLine
 62
7
  6
CONTINUOUS
 10
-6.615555173
 20
17.6989230612
 11
-6.615555173
 21
17.65
  0
LINE
  5
497
100
AcDbEntity
  8
ASSI
100
AcDbLine
 62
7
  6
CONTINUOUS
 10
-6.615555173
 20
-17.6989230612
 11
-6.615555173
 21
-17.65
  0
LINE
  5
498
100
AcDbEntity
  8
ASSI
100
AcDbLine
 62
7
  6
CONTINUOUS
 10
-6.6024648713
 20
19.1571474807
 11
-6.6024648713
 21
17.65
  0
LINE
  5
499
100
AcDbEntity
  8
ASSI
100
AcDbLine
 62
7
  6
CONTINUOUS
 10
-6.6024648713
 20
-19.1571474807
 11
-6.6024648713
 21
-17.65
  0
LINE
  5
49A
100
AcDbEntity
  8
CURVE
100
AcDbLine
 62
250
  6
CONTINUOUS
 10
-6.575
 20
11.5
 11
-6.575
 21
10.2
  0
LINE
  5
49B
100
AcDbEntity
  8
ASSI
100
AcDbLine
 62
250
  6
CONTINUOUS
 10
-6.475
 20
20.9
 11
-6.475
 21
20.5829242832
  0
LINE
  5
49C
100
AcDbEntity
  8
ASSI
100
AcDbLine
 62
250
  6
CONTINUOUS
 10
-6.475
 20
-20.5829242832
 11
-6.475
 21
-20.9
  0
LINE
  5
49D
100
AcDbEntity
  8
ASSI
100
AcDbLine
 62
250
  6
CONTINUOUS
 10
-6.325
 20
-12.05
 11
-6.325
 21
-11.782
  0
LINE
  5
49E
100
AcDbEntity
  8
ASSI
100
AcDbLine
 62
250
  6
CONTINUOUS
 10
-6.325
 20
-7.05
 11
-6.325
 21
-6.782
  0
LINE
  5
49F
100
AcDbEntity
  8
ASSI
100
AcDbLine
 62
250
  6
CONTINUOUS
 10
-6.325
 20
-2.05
 11
-6.325
 21
-1.782
  0
LINE
  5
4A0
100
AcDbEntity
  8
ASSI
100
AcDbLine
 62
250
  6
CONTINUOUS
 10
-6.325
 20
1.45
 11
-6.325
 21
1.182
  0
LINE
  5
4A1
100
AcDbEntity
  8
ASSI
100
AcDbLine
 62
250
  6
CONTINUOUS
 10
-6.325
 20
2.95
 11
-6.325
 21
3.218
  0
LINE
  5
4A2
100
AcDbEntity
  8
ASSI
100
AcDbLine
 62
250
  6
CONTINUOUS
 10
-6.325
 20
-3.55
 11
-6.325
 21
-3.818
  0
LINE
  5
4A3
100
AcDbEntity
  8
ASSI
100
AcDbLine
 62
250
  6
CONTINUOUS
 10
-6.325
 20
-8.55
 11
-6.325
 21
-8.818
  0
LINE
  5
4A4
100
AcDbEntity
  8
ASSI
100
AcDbLine
 62
250
  6
CONTINUOUS
 10
-6.325
 20
-13.55
 11
-6.325
 21
-13.818
  0
LINE
  5
4A5
100
AcDbEntity
  8
CURVE
100
AcDbLine
 62
250
  6
CONTINUOUS
 10
-6.3107143521
 20
-0.278571412
 11
-6.3107143521
 21
0.2785714507
  0
LINE
  5
4A6
100
AcDbEntity
  8
CURVE
100
AcDbLine
 62
250
  6
CONTINUOUS
 10
-6.275
 20
13.5
 11
-6.275
 21
12.9428571373
  0
LINE
  5
4A7
100
AcDbEntity
  8
CURVE
100
AcDbLine
 62
250
  6
CONTINUOUS
 10
-6.275
 20
8.9809522629
 11
-6.275
 21
9.2595238686
  0
LINE
  5
4A8
100
AcDbEntity
  8
ASSI
100
AcDbLine
 62
7
  6
CONTINUOUS
 10
-6.1311896713
 20
20.1086060399
 11
-6.1311896713
 21
19.9561862866
  0
LINE
  5
4A9
100
AcDbEntity
  8
ASSI
100
AcDbLine
 62
7
  6
CONTINUOUS
 10
-6.1311896713
 20
-19.9561862866
 11
-6.1311896713
 21
-20.1086060399
  0
LINE
  5
4AA
100
AcDbEntity
  8
ASSI
100
AcDbLine
 62
7
  6
CONTINUOUS
 10
-6.0232213147
 20
19.9223308767
 11
-6.0232213147
 21
19.8482179301
  0
LINE
  5
4AB
100
AcDbEntity
  8
ASSI
100
AcDbLine
 62
7
  6
CONTINUOUS
 10
-6.0232213147
 20
-19.8482179301
 11
-6.0232213147
 21
-19.9223308767
  0
LINE
  5
4AC
100
AcDbEntity
  8
CURVE
100
AcDbLine
 62
250
  6
CONTINUOUS
 10
-5.6607143521
 20
0.2785714507
 11
-5.6607143521
 21
-0.278571412
  0
LINE
  5
4AD
100
AcDbEntity
  8
CURVE
100
AcDbLine
 62
250
  6
CONTINUOUS
 10
-6.3107143521
 20
0.2785714507
 11
-6.2178570986
 21
0.4642857254
  0
LINE
  5
4AE
100
AcDbEntity
  8
CURVE
100
AcDbLine
 62
250
  6
CONTINUOUS
 10
-7.1464285493
 20
0.65
 11
-7.3321428239
 21
0.3714285493
  0
LINE
  5
4AF
100
AcDbEntity
  8
ASSI
100
AcDbLine
 62
7
  6
CONTINUOUS
 10
6.980294768
 20
20.0829433217
 11
6.8732213147
 21
19.9223308767
  0
LINE
  5
4B0
100
AcDbEntity
  8
CURVE
100
AcDbLine
 62
250
  6
CONTINUOUS
 10
-7.3321428239
 20
-0.65
 11
-6.6821429014
 21
0.2785714507
  0
LINE
  5
4B1
100
AcDbEntity
  8
ASSI
100
AcDbLine
 62
7
  6
CONTINUOUS
 10
5.882
 20
14.857
 11
5.175
 21
14.15
  0
LINE
  5
4B2
100
AcDbEntity
  8
CURVE
100
AcDbLine
 62
250
  6
CONTINUOUS
 10
-8.075
 20
0.2785714507
 11
-7.703571412
 21
0.65
  0
LINE
  5
4B3
100
AcDbEntity
  8
ASSI
100
AcDbLine
 62
7
  6
CONTINUOUS
 10
-9.1239230612
 20
-1.540555173
 11
-9.3268229866
 21
-1.7434550984
  0
LINE
  5
4B4
100
AcDbEntity
  8
CURVE
100
AcDbLine
 62
250
  6
CONTINUOUS
 10
7.610714294
 20
10.9571429014
 11
7.796428588
 21
11.05
  0
LINE
  5
4B5
100
AcDbEntity
  8
CURVE
100
AcDbLine
 62
250
  6
CONTINUOUS
 10
8.5392857254
 20
10.4928570986
 11
8.3535714507
 21
10.4
  0
LINE
  5
4B6
100
AcDbEntity
  8
ASSI
100
AcDbLine
 62
7
  6
CONTINUOUS
 10
10.9466176626
 20
11.5274648713
 11
11.378631018
 21
11.7434550984
  0
LINE
  5
4B7
100
AcDbEntity
  8
CURVE
100
AcDbLine
 62
250
  6
CONTINUOUS
 10
-10.6791515081
 20
-6.8615673444
 11
-10.6291368258
 21
-6.8615673444
  0
LINE
  5
4B8
100
AcDbEntity
  8
ASSI
100
AcDbLine
 62
7
  6
CONTINUOUS
 10
7.175
 20
-6.782
 11
-6.325
 21
-6.782
  0
LINE
  5
4B9
100
AcDbEntity
  8
ASSI
100
AcDbLine
 62
250
  6
CONTINUOUS
 10
11.378631018
 20
-6.7434550984
 11
10.1768229866
 21
-6.7434550984
  0
LINE
  5
4BA
100
AcDbEntity
  8
ASSI
100
AcDbLine
 62
250
  6
CONTINUOUS
 10
-10.528631018
 20
-6.7434550984
 11
-9.3268229866
 21
-6.7434550984
  0
LINE
  5
4BB
100
AcDbEntity
  8
ASSI
100
AcDbLine
 62
7
  6
CONTINUOUS
 10
9.9739230612
 20
-6.540555173
 11
9.925
 21
-6.540555173
  0
LINE
  5
4BC
100
AcDbEntity
  8
ASSI
100
AcDbLine
 62
7
  6
CONTINUOUS
 10
-9.1239230612
 20
-6.540555173
 11
-9.075
 21
-6.540555173
  0
LINE
  5
4BD
100
AcDbEntity
  8
ASSI
100
AcDbLine
 62
7
  6
CONTINUOUS
 10
10.9466176626
 20
-6.5274648713
 11
9.925
 21
-6.5274648713
  0
LINE
  5
4BE
100
AcDbEntity
  8
ASSI
100
AcDbLine
 62
7
  6
CONTINUOUS
 10
-10.0966176626
 20
-6.5274648713
 11
-9.075
 21
-6.5274648713
  0
LINE
  5
4BF
100
AcDbEntity
  8
CURVE
100
AcDbLine
 62
250
  6
CONTINUOUS
 10
-10.6572292184
 20
-6.2788012718
 11
-10.6711215322
 21
-6.2788012718
  0
LINE
  5
4C0
100
AcDbEntity
  8
CURVE
100
AcDbLine
 62
250
  6
CONTINUOUS
 10
-10.6291368258
 20
-6.2587313832
 11
-10.6489411903
 21
-6.2587313832
  0
LINE
  5
4C1
100
AcDbEntity
  8
CURVE
100
AcDbLine
 62
250
  6
CONTINUOUS
 10
11.5061573365
 20
-5.75
 11
11.4625263204
 21
-5.75
  0
LINE
  5
4C2
100
AcDbEntity
  8
CURVE
100
AcDbLine
 62
250
  6
CONTINUOUS
 10
-10.6527592238
 20
-5.30544429
 11
-10.6530582607
 21
-5.30544429
  0
LINE
  5
4C3
100
AcDbEntity
  8
ASSI
100
AcDbLine
 62
7
  6
CONTINUOUS
 10
10.9466176626
 20
-11.5274648713
 11
11.378631018
 21
-11.7434550984
  0
LINE
  5
4C4
100
AcDbEntity
  8
CURVE
100
AcDbLine
 62
250
  6
CONTINUOUS
 10
8.186167
 20
-15.201731
 11
8.299545
 21
-15.303874
  0
LINE
  5
4C5
100
AcDbEntity
  8
ASSI
100
AcDbLine
 62
7
  6
CONTINUOUS
 10
-9.1239230612
 20
1.540555173
 11
-9.3268229866
 21
1.7434550984
  0
LINE
  5
4C6
100
AcDbEntity
  8
ASSI
100
AcDbLine
 62
7
  6
CONTINUOUS
 10
6.980294768
 20
-20.0829433217
 11
6.8732213147
 21
-19.9223308767
  0
LINE
  5
4C7
100
AcDbEntity
  8
CURVE
100
AcDbLine
 62
250
  6
CONTINUOUS
 10
-6.2178570986
 20
-0.464285706
 11
-6.3107143521
 21
-0.278571412
  0
LINE
  5
4C8
100
AcDbEntity
  8
ASSI
100
AcDbLine
 62
250
  6
CONTINUOUS
 10
-5.075
 20
-2.1112420645
 11
-5.075
 21
-2.05
  0
LINE
  5
4C9
100
AcDbEntity
  8
ASSI
100
AcDbLine
 62
250
  6
CONTINUOUS
 10
-5.075
 20
-7.2887579355
 11
-5.075
 21
-7.35
  0
LINE
  5
4CA
100
AcDbEntity
  8
ASSI
100
AcDbLine
 62
7
  6
CONTINUOUS
 10
-3.975
 20
23.8
 11
-3.975
 21
22.4
  0
LINE
  5
4CB
100
AcDbEntity
  8
ASSI
100
AcDbLine
 62
7
  6
CONTINUOUS
 10
-3.975
 20
-22.4
 11
-3.975
 21
-23.8
  0
LINE
  5
4CC
100
AcDbEntity
  8
ASSI
100
AcDbLine
 62
7
  6
CONTINUOUS
 10
-3.9309327327
 20
-23.7507734247
 11
-3.9309327327
 21
-22.3338981669
  0
LINE
  5
4CD
100
AcDbEntity
  8
ASSI
100
AcDbLine
 62
7
  6
CONTINUOUS
 10
-3.9309327327
 20
22.3338981669
 11
-3.9309327327
 21
23.7507734247
  0
LINE
  5
4CE
100
AcDbEntity
  8
CURVE
100
AcDbLine
 62
250
  6
CONTINUOUS
 10
-3.7107141972
 20
0.2785714507
 11
-3.7107141972
 21
0.4642857254
  0
LINE
  5
4CF
100
AcDbEntity
  8
ASSI
100
AcDbLine
 62
7
  6
CONTINUOUS
 10
-3.5475351287
 20
19.1571474807
 11
-3.5475351287
 21
17.65
  0
LINE
  5
4D0
100
AcDbEntity
  8
ASSI
100
AcDbLine
 62
7
  6
CONTINUOUS
 10
-3.5475351287
 20
-19.1571474807
 11
-3.5475351287
 21
-17.65
  0
LINE
  5
4D1
100
AcDbEntity
  8
ASSI
100
AcDbLine
 62
7
  6
CONTINUOUS
 10
-3.534444827
 20
17.6989230612
 11
-3.534444827
 21
17.65
  0
LINE
  5
4D2
100
AcDbEntity
  8
ASSI
100
AcDbLine
 62
7
  6
CONTINUOUS
 10
-3.534444827
 20
-17.6989230612
 11
-3.534444827
 21
-17.65
  0
LINE
  5
4D3
100
AcDbEntity
  8
CURVE
100
AcDbLine
 62
250
  6
CONTINUOUS
 10
-5.6607143521
 20
-0.278571412
 11
-5.7535714507
 21
-0.464285706
  0
LINE
  5
4D4
100
AcDbEntity
  8
CURVE
100
AcDbLine
 62
250
  6
CONTINUOUS
 10
-4.175
 20
0.65
 11
-4.3607141972
 21
0.3714285493
  0
LINE
  5
4D5
100
AcDbEntity
  8
CURVE
100
AcDbLine
 62
250
  6
CONTINUOUS
 10
-6.2178570986
 20
0.4642857254
 11
-6.0321429014
 21
0.65
  0
LINE
  5
4D6
100
AcDbEntity
  8
CURVE
100
AcDbLine
 62
250
  6
CONTINUOUS
 10
-5.7535714507
 20
-0.464285706
 11
-5.9392856479
 21
-0.65
  0
LINE
  5
4D7
100
AcDbEntity
  8
ASSI
100
AcDbLine
 62
7
  6
CONTINUOUS
 10
0.168
 20
5.143
 11
0.875
 21
5.85
  0
LINE
  5
4D8
100
AcDbEntity
  8
CURVE
100
AcDbLine
 62
250
  6
CONTINUOUS
 10
8.725
 20
7.4285716057
 11
7.425
 21
7.0571425915
  0
LINE
  5
4D9
100
AcDbEntity
  8
CURVE
100
AcDbLine
 62
250
  6
CONTINUOUS
 10
11.5279728445
 20
-4.5
 11
11.4407108124
 21
-4.5
  0
LINE
  5
4DA
100
AcDbEntity
  8
ASSI
100
AcDbLine
 62
7
  6
CONTINUOUS
 10
-6.325
 20
-3.818
 11
7.175
 21
-3.818
  0
LINE
  5
4DB
100
AcDbEntity
  8
ASSI
100
AcDbLine
 62
7
  6
CONTINUOUS
 10
-6.325
 20
-3.55
 11
7.175
 21
-3.55
  0
LINE
  5
4DC
100
AcDbEntity
  8
ASSI
100
AcDbLine
 62
7
  6
CONTINUOUS
 10
10.9466176626
 20
-3.4725351287
 11
9.925
 21
-3.4725351287
  0
LINE
  5
4DD
100
AcDbEntity
  8
ASSI
100
AcDbLine
 62
7
  6
CONTINUOUS
 10
-10.0966176626
 20
-3.4725351287
 11
-9.075
 21
-3.4725351287
  0
LINE
  5
4DE
100
AcDbEntity
  8
ASSI
100
AcDbLine
 62
7
  6
CONTINUOUS
 10
9.9739230612
 20
-3.459444827
 11
9.925
 21
-3.459444827
  0
LINE
  5
4DF
100
AcDbEntity
  8
ASSI
100
AcDbLine
 62
7
  6
CONTINUOUS
 10
-9.1239230612
 20
-3.459444827
 11
-9.075
 21
-3.459444827
  0
LINE
  5
4E0
100
AcDbEntity
  8
CURVE
100
AcDbLine
 62
250
  6
CONTINUOUS
 10
9.660088
 20
-15.201731
 11
9.773467
 21
-15.303874
  0
LINE
  5
4E1
100
AcDbEntity
  8
CURVE
100
AcDbLine
 62
250
  6
CONTINUOUS
 10
-6.0321429014
 20
-0.65
 11
-6.2178570986
 21
-0.464285706
  0
LINE
  5
4E2
100
AcDbEntity
  8
CURVE
100
AcDbLine
 62
250
  6
CONTINUOUS
 10
-6.6821429014
 20
0.4642857254
 11
-6.8678571761
 21
0.65
  0
LINE
  5
4E3
100
AcDbEntity
  8
CURVE
100
AcDbLine
 62
250
  6
CONTINUOUS
 10
-5.9392856479
 20
0.65
 11
-5.7535714507
 21
0.4642857254
  0
LINE
  5
4E4
100
AcDbEntity
  8
CURVE
100
AcDbLine
 62
250
  6
CONTINUOUS
 10
-5.7535714507
 20
0.4642857254
 11
-5.6607143521
 21
0.2785714507
  0
LINE
  5
4E5
100
AcDbEntity
  8
ASSI
100
AcDbLine
 62
250
  6
CONTINUOUS
 10
-3.3315449016
 20
19.5891608362
 11
-3.3315449016
 21
17.9018229866
  0
LINE
  5
4E6
100
AcDbEntity
  8
ASSI
100
AcDbLine
 62
250
  6
CONTINUOUS
 10
-3.3315449016
 20
-19.5891608362
 11
-3.3315449016
 21
-17.9018229866
  0
LINE
  5
4E7
100
AcDbEntity
  8
ASSI
100
AcDbLine
 62
7
  6
CONTINUOUS
 10
-3.075
 20
-23.7511422903
 11
-3.075
 21
-22.3339198952
  0
LINE
  5
4E8
100
AcDbEntity
  8
ASSI
100
AcDbLine
 62
7
  6
CONTINUOUS
 10
-3.075
 20
-19.9
 11
-3.075
 21
-19.7
  0
LINE
  5
4E9
100
AcDbEntity
  8
ASSI
100
AcDbLine
 62
7
  6
CONTINUOUS
 10
-3.075
 20
-20.0
 11
-3.075
 21
-20.0445070257
  0
LINE
  5
4EA
100
AcDbEntity
  8
ASSI
100
AcDbLine
 62
7
  6
CONTINUOUS
 10
-3.075
 20
20.0
 11
-3.075
 21
20.0445070257
  0
LINE
  5
4EB
100
AcDbEntity
  8
ASSI
100
AcDbLine
 62
7
  6
CONTINUOUS
 10
-3.075
 20
19.7
 11
-3.075
 21
19.9
  0
LINE
  5
4EC
100
AcDbEntity
  8
ASSI
100
AcDbLine
 62
7
  6
CONTINUOUS
 10
-3.075
 20
-23.7563493531
 11
-3.075
 21
-23.7941821702
  0
LINE
  5
4ED
100
AcDbEntity
  8
ASSI
100
AcDbLine
 62
7
  6
CONTINUOUS
 10
-3.075
 20
23.7563493531
 11
-3.075
 21
23.7941821702
  0
LINE
  5
4EE
100
AcDbEntity
  8
ASSI
100
AcDbLine
 62
7
  6
CONTINUOUS
 10
-3.075
 20
22.3339198952
 11
-3.075
 21
23.7511422903
  0
LINE
  5
4EF
100
AcDbEntity
  8
ASSI
100
AcDbLine
 62
7
  6
CONTINUOUS
 10
-2.9859791689
 20
-19.8109791689
 11
-2.9859791689
 21
-19.6109791689
  0
LINE
  5
4F0
100
AcDbEntity
  8
ASSI
100
AcDbLine
 62
7
  6
CONTINUOUS
 10
-2.9859791689
 20
19.6109791689
 11
-2.9859791689
 21
19.8109791689
  0
LINE
  5
4F1
100
AcDbEntity
  8
CURVE
100
AcDbLine
 62
250
  6
CONTINUOUS
 10
-2.9059522629
 20
-0.65
 11
-2.9059522629
 21
0.0
  0
LINE
  5
4F2
100
AcDbEntity
  8
CURVE
100
AcDbLine
 62
250
  6
CONTINUOUS
 10
-2.575
 20
12.9
 11
-2.575
 21
12.2214285553
  0
LINE
  5
4F3
100
AcDbEntity
  8
ASSI
100
AcDbLine
 62
7
  6
CONTINUOUS
 10
-2.575
 20
-21.0
 11
-2.575
 21
-22.3380392387
  0
LINE
  5
4F4
100
AcDbEntity
  8
ASSI
100
AcDbLine
 62
7
  6
CONTINUOUS
 10
-2.575
 20
21.0
 11
-2.575
 21
22.3380392387
  0
LINE
  5
4F5
100
AcDbEntity
  8
CURVE
100
AcDbLine
 62
250
  6
CONTINUOUS
 10
-2.3178574085
 20
-0.278571412
 11
-2.3178574085
 21
0.2785714507
  0
LINE
  5
4F6
100
AcDbEntity
  8
ASSI
100
AcDbLine
 62
7
  6
CONTINUOUS
 10
-2.075
 20
-20.0532338935
 11
-2.075
 21
-19.9
  0
LINE
  5
4F7
100
AcDbEntity
  8
ASSI
100
AcDbLine
 62
7
  6
CONTINUOUS
 10
-2.075
 20
19.9
 11
-2.075
 21
20.0532338935
  0
LINE
  5
4F8
100
AcDbEntity
  8
ASSI
100
AcDbLine
 62
250
  6
CONTINUOUS
 10
-2.0729803239
 20
-20.0532338935
 11
-2.0729803239
 21
-19.8979803239
  0
LINE
  5
4F9
100
AcDbEntity
  8
ASSI
100
AcDbLine
 62
250
  6
CONTINUOUS
 10
-2.0729803239
 20
19.8979803239
 11
-2.0729803239
 21
20.0532338935
  0
LINE
  5
4FA
100
AcDbEntity
  8
ASSI
100
AcDbLine
 62
250
  6
CONTINUOUS
 10
-1.8184550984
 20
19.5891608362
 11
-1.8184550984
 21
17.9018229866
  0
LINE
  5
4FB
100
AcDbEntity
  8
ASSI
100
AcDbLine
 62
250
  6
CONTINUOUS
 10
-1.8184550984
 20
-19.5891608362
 11
-1.8184550984
 21
-17.9018229866
  0
LINE
  5
4FC
100
AcDbEntity
  8
CURVE
100
AcDbLine
 62
250
  6
CONTINUOUS
 10
-1.6678574085
 20
0.2785714507
 11
-1.6678574085
 21
-0.278571412
  0
LINE
  5
4FD
100
AcDbEntity
  8
ASSI
100
AcDbLine
 62
7
  6
CONTINUOUS
 10
-1.615555173
 20
17.6989230612
 11
-1.615555173
 21
17.65
  0
LINE
  5
4FE
100
AcDbEntity
  8
ASSI
100
AcDbLine
 62
7
  6
CONTINUOUS
 10
-1.615555173
 20
-17.6989230612
 11
-1.615555173
 21
-17.65
  0
LINE
  5
4FF
100
AcDbEntity
  8
ASSI
100
AcDbLine
 62
7
  6
CONTINUOUS
 10
-1.6024648713
 20
19.1571474807
 11
-1.6024648713
 21
17.65
  0
LINE
  5
500
100
AcDbEntity
  8
ASSI
100
AcDbLine
 62
7
  6
CONTINUOUS
 10
-1.6024648713
 20
-19.1571474807
 11
-1.6024648713
 21
-17.65
  0
LINE
  5
501
100
AcDbEntity
  8
CURVE
100
AcDbLine
 62
250
  6
CONTINUOUS
 10
-3.3392858028
 20
-0.3714285687
 11
-3.0607141972
 21
0.65
  0
LINE
  5
502
100
AcDbEntity
  8
CURVE
100
AcDbLine
 62
250
  6
CONTINUOUS
 10
-2.3178574085
 20
0.2785714507
 11
-2.225
 21
0.4642857254
  0
LINE
  5
503
100
AcDbEntity
  8
CURVE
100
AcDbLine
 62
250
  6
CONTINUOUS
 10
-4.3607141972
 20
-0.65
 11
-3.7107141972
 21
0.2785714507
  0
LINE
  5
504
100
AcDbEntity
  8
ASSI
100
AcDbLine
 62
7
  6
CONTINUOUS
 10
5.882
 20
9.857
 11
5.175
 21
9.15
  0
LINE
  5
505
100
AcDbEntity
  8
CURVE
100
AcDbLine
 62
250
  6
CONTINUOUS
 10
8.5392857254
 20
12.35
 11
8.725
 21
12.5357142746
  0
LINE
  5
506
100
AcDbEntity
  8
ASSI
100
AcDbLine
 62
250
  6
CONTINUOUS
 10
4.6338189057
 20
8.3950136038
 11
4.7388053019
 21
8.5
  0
LINE
  5
507
100
AcDbEntity
  8
CURVE
100
AcDbLine
 62
250
  6
CONTINUOUS
 10
7.9821428627
 20
11.4214285493
 11
8.1678571761
 21
11.6071429014
  0
LINE
  5
508
100
AcDbEntity
  8
CURVE
100
AcDbLine
 62
250
  6
CONTINUOUS
 10
7.425
 20
10.7714285493
 11
7.610714294
 21
10.9571429014
  0
LINE
  5
509
100
AcDbEntity
  8
CURVE
100
AcDbLine
 62
250
  6
CONTINUOUS
 10
-2.225
 20
0.4642857254
 11
-2.0392858028
 21
0.65
  0
LINE
  5
50A
100
AcDbEntity
  8
ASSI
100
AcDbLine
 62
7
  6
CONTINUOUS
 10
-9.1239230612
 20
-6.540555173
 11
-9.3268229866
 21
-6.7434550984
  0
LINE
  5
50B
100
AcDbEntity
  8
CURVE
100
AcDbLine
 62
250
  6
CONTINUOUS
 10
8.5392857254
 20
11.4523809671
 11
8.725
 21
11.6071429014
  0
LINE
  5
50C
100
AcDbEntity
  8
ASSI
100
AcDbLine
 62
7
  6
CONTINUOUS
 10
-10.0966176626
 20
-1.5274648713
 11
-10.528631018
 21
-1.7434550984
  0
LINE
  5
50D
100
AcDbEntity
  8
ASSI
100
AcDbLine
 62
250
  6
CONTINUOUS
 10
-9.075
 20
-2.4598943032
 11
-9.225
 21
-2.4730176027
  0
LINE
  5
50E
100
AcDbEntity
  8
ASSI
100
AcDbLine
 62
250
  6
CONTINUOUS
 10
11.378631018
 20
-3.2565449016
 11
10.1768229866
 21
-3.2565449016
  0
LINE
  5
50F
100
AcDbEntity
  8
ASSI
100
AcDbLine
 62
250
  6
CONTINUOUS
 10
-10.528631018
 20
-3.2565449016
 11
-9.3268229866
 21
-3.2565449016
  0
LINE
  5
510
100
AcDbEntity
  8
CURVE
100
AcDbLine
 62
250
  6
CONTINUOUS
 10
11.4531436922
 20
-3.092362
 11
11.4353594806
 21
-3.092362
  0
LINE
  5
511
100
AcDbEntity
  8
ASSI
100
AcDbLine
 62
7
  6
CONTINUOUS
 10
1.625
 20
-2.75
 11
-5.075
 21
-2.75
  0
LINE
  5
512
100
AcDbEntity
  8
CURVE
100
AcDbLine
 62
250
  6
CONTINUOUS
 10
11.53708598
 20
-2.417947
 11
11.5305855868
 21
-2.417947
  0
LINE
  5
513
100
AcDbEntity
  8
ASSI
100
AcDbLine
 62
7
  6
CONTINUOUS
 10
1.625
 20
-2.1112420645
 11
-5.075
 21
-2.1112420645
  0
LINE
  5
514
100
AcDbEntity
  8
CURVE
100
AcDbLine
 62
250
  6
CONTINUOUS
 10
11.5305855868
 20
-2.067887
 11
11.53708598
 21
-2.067887
  0
LINE
  5
515
100
AcDbEntity
  8
ASSI
100
AcDbLine
 62
7
  6
CONTINUOUS
 10
7.175
 20
-2.05
 11
-6.325
 21
-2.05
  0
LINE
  5
516
100
AcDbEntity
  8
ASSI
100
AcDbLine
 62
7
  6
CONTINUOUS
 10
7.175
 20
-1.782
 11
-6.325
 21
-1.782
  0
LINE
  5
517
100
AcDbEntity
  8
ASSI
100
AcDbLine
 62
250
  6
CONTINUOUS
 10
11.378631018
 20
-1.7434550984
 11
10.1768229866
 21
-1.7434550984
  0
LINE
  5
518
100
AcDbEntity
  8
ASSI
100
AcDbLine
 62
250
  6
CONTINUOUS
 10
-10.528631018
 20
-1.7434550984
 11
-9.3268229866
 21
-1.7434550984
  0
LINE
  5
519
100
AcDbEntity
  8
CURVE
100
AcDbLine
 62
250
  6
CONTINUOUS
 10
11.5289727052
 20
-1.61141
 11
11.5252093381
 21
-1.61141
  0
LINE
  5
51A
100
AcDbEntity
  8
ASSI
100
AcDbLine
 62
7
  6
CONTINUOUS
 10
-10.0966176626
 20
1.5274648713
 11
-10.528631018
 21
1.7434550984
  0
LINE
  5
51B
100
AcDbEntity
  8
CURVE
100
AcDbLine
 62
250
  6
CONTINUOUS
 10
-3.7107141972
 20
0.4642857254
 11
-3.8964287043
 21
0.65
  0
LINE
  5
51C
100
AcDbEntity
  8
CURVE
100
AcDbLine
 62
250
  6
CONTINUOUS
 10
-2.0392858028
 20
-0.65
 11
-2.225
 21
-0.464285706
  0
LINE
  5
51D
100
AcDbEntity
  8
ASSI
100
AcDbLine
 62
7
  6
CONTINUOUS
 10
-9.1863093364
 20
6.6029414482
 11
-9.3268229866
 21
6.7434550984
  0
LINE
  5
51E
100
AcDbEntity
  8
CURVE
100
AcDbLine
 62
250
  6
CONTINUOUS
 10
-2.225
 20
-0.464285706
 11
-2.3178574085
 21
-0.278571412
  0
LINE
  5
51F
100
AcDbEntity
  8
ASSI
100
AcDbLine
 62
250
  6
CONTINUOUS
 10
-1.1731173983
 20
-20.0522359337
 11
-1.1731173983
 21
-19.8825449351
  0
LINE
  5
520
100
AcDbEntity
  8
ASSI
100
AcDbLine
 62
250
  6
CONTINUOUS
 10
-1.1731173983
 20
19.8825449351
 11
-1.1731173983
 21
20.0522359337
  0
LINE
  5
521
100
AcDbEntity
  8
CURVE
100
AcDbLine
 62
250
  6
CONTINUOUS
 10
-1.085
 20
-14.37816
 11
-1.085
 21
-16.62816
  0
LINE
  5
522
100
AcDbEntity
  8
ASSI
100
AcDbLine
 62
7
  6
CONTINUOUS
 10
0.168
 20
5.143
 11
0.168
 21
9.857
  0
LINE
  5
523
100
AcDbEntity
  8
ASSI
100
AcDbLine
 62
7
  6
CONTINUOUS
 10
0.168
 20
10.143
 11
0.168
 21
14.857
  0
LINE
  5
524
100
AcDbEntity
  8
CURVE
100
AcDbLine
 62
250
  6
CONTINUOUS
 10
-0.925
 20
-0.65
 11
-0.5535716057
 21
0.65
  0
LINE
  5
525
100
AcDbEntity
  8
ASSI
100
AcDbLine
 62
250
  6
CONTINUOUS
 10
-9.4720343051
 20
-18.864298871
 11
-9.6600175454
 21
-19.3181305591
  0
LINE
  5
526
100
AcDbEntity
  8
ASSI
100
AcDbLine
 62
250
  6
CONTINUOUS
 10
-8.7650352197
 20
-19.1571474807
 11
-8.95301846
 21
-19.6109791689
  0
LINE
  5
527
100
AcDbEntity
  8
CURVE
100
AcDbLine
 62
250
  6
CONTINUOUS
 10
-1.6678574085
 20
-0.278571412
 11
-1.7607141972
 21
-0.464285706
  0
LINE
  5
528
100
AcDbEntity
  8
CURVE
100
AcDbLine
 62
250
  6
CONTINUOUS
 10
8.725
 20
10.6785714507
 11
8.5392857254
 21
10.4928570986
  0
LINE
  5
529
100
AcDbEntity
  8
ASSI
100
AcDbLine
 62
7
  6
CONTINUOUS
 10
9.9739230612
 20
11.540555173
 11
10.1768229866
 21
11.7434550984
  0
LINE
  5
52A
100
AcDbEntity
  8
CURVE
100
AcDbLine
 62
250
  6
CONTINUOUS
 10
-1.7607141972
 20
-0.464285706
 11
-1.9464283943
 21
-0.65
  0
LINE
  5
52B
100
AcDbEntity
  8
CURVE
100
AcDbLine
 62
250
  6
CONTINUOUS
 10
8.3535714507
 20
8.2642858028
 11
8.2607142746
 21
8.1714287043
  0
LINE
  5
52C
100
AcDbEntity
  8
ASSI
100
AcDbLine
 62
7
  6
CONTINUOUS
 10
10.9466176626
 20
6.5274648713
 11
11.378631018
 21
6.7434550984
  0
LINE
  5
52D
100
AcDbEntity
  8
CURVE
100
AcDbLine
 62
250
  6
CONTINUOUS
 10
-0.1821425915
 20
-0.2476190329
 11
0.0345238686
 21
-0.1547618955
  0
LINE
  5
52E
100
AcDbEntity
  8
ASSI
100
AcDbLine
 62
250
  6
CONTINUOUS
 10
-9.1455995878
 20
-1.591317581
 11
-9.1774741303
 21
-1.5941062421
  0
LINE
  5
52F
100
AcDbEntity
  8
ASSI
100
AcDbLine
 62
7
  6
CONTINUOUS
 10
9.9739230612
 20
-1.540555173
 11
9.925
 21
-1.540555173
  0
LINE
  5
530
100
AcDbEntity
  8
ASSI
100
AcDbLine
 62
7
  6
CONTINUOUS
 10
-9.1239230612
 20
-1.540555173
 11
-9.075
 21
-1.540555173
  0
LINE
  5
531
100
AcDbEntity
  8
ASSI
100
AcDbLine
 62
7
  6
CONTINUOUS
 10
10.9466176626
 20
-1.5274648713
 11
9.925
 21
-1.5274648713
  0
LINE
  5
532
100
AcDbEntity
  8
ASSI
100
AcDbLine
 62
7
  6
CONTINUOUS
 10
-10.0966176626
 20
-1.5274648713
 11
-9.075
 21
-1.5274648713
  0
LINE
  5
533
100
AcDbEntity
  8
CURVE
100
AcDbLine
 62
250
  6
CONTINUOUS
 10
11.5519195481
 20
-1.416076
 11
11.5481237544
 21
-1.416076
  0
LINE
  5
534
100
AcDbEntity
  8
CURVE
100
AcDbLine
 62
250
  6
CONTINUOUS
 10
11.5481334928
 20
-0.843073
 11
11.5519292865
 21
-0.843073
  0
LINE
  5
535
100
AcDbEntity
  8
CURVE
100
AcDbLine
 62
250
  6
CONTINUOUS
 10
11.5252093381
 20
-0.78807
 11
11.5289727052
 21
-0.78807
  0
LINE
  5
536
100
AcDbEntity
  8
CURVE
100
AcDbLine
 62
250
  6
CONTINUOUS
 10
6.1630954742
 20
-0.65
 11
6.0702386856
 21
-0.65
  0
LINE
  5
537
100
AcDbEntity
  8
CURVE
100
AcDbLine
 62
250
  6
CONTINUOUS
 10
3.1297613144
 20
-0.65
 11
3.0369045258
 21
-0.65
  0
LINE
  5
538
100
AcDbEntity
  8
CURVE
100
AcDbLine
 62
250
  6
CONTINUOUS
 10
-1.9464283943
 20
-0.65
 11
-2.0392858028
 21
-0.65
  0
LINE
  5
539
100
AcDbEntity
  8
CURVE
100
AcDbLine
 62
250
  6
CONTINUOUS
 10
-3.7107141972
 20
-0.65
 11
-4.3607141972
 21
-0.65
  0
LINE
  5
53A
100
AcDbEntity
  8
CURVE
100
AcDbLine
 62
250
  6
CONTINUOUS
 10
-5.9392856479
 20
-0.65
 11
-6.0321429014
 21
-0.65
  0
LINE
  5
53B
100
AcDbEntity
  8
CURVE
100
AcDbLine
 62
250
  6
CONTINUOUS
 10
-6.6821429014
 20
-0.65
 11
-7.3321428239
 21
-0.65
  0
LINE
  5
53C
100
AcDbEntity
  8
CURVE
100
AcDbLine
 62
250
  6
CONTINUOUS
 10
1.8297619343
 20
-0.65
 11
2.2011903286
 21
-0.65
  0
LINE
  5
53D
100
AcDbEntity
  8
CURVE
100
AcDbLine
 62
250
  6
CONTINUOUS
 10
4.9559522629
 20
-0.65
 11
5.2345238686
 21
-0.65
  0
LINE
  5
53E
100
AcDbEntity
  8
CURVE
100
AcDbLine
 62
250
  6
CONTINUOUS
 10
7.8345238686
 20
-0.65
 11
8.3916670799
 21
-0.65
  0
LINE
  5
53F
100
AcDbEntity
  8
CURVE
100
AcDbLine
 62
250
  6
CONTINUOUS
 10
11.4847407854
 20
-0.399503
 11
11.481312295
 21
-0.399503
  0
LINE
  5
540
100
AcDbEntity
  8
CURVE
100
AcDbLine
 62
250
  6
CONTINUOUS
 10
-2.6892858028
 20
-0.3714285687
 11
-3.3392858028
 21
-0.3714285687
  0
LINE
  5
541
100
AcDbEntity
  8
CURVE
100
AcDbLine
 62
250
  6
CONTINUOUS
 10
11.5503066665
 20
-0.31759
 11
11.5434196328
 21
-0.31759
  0
LINE
  5
542
100
AcDbEntity
  8
CURVE
100
AcDbLine
 62
250
  6
CONTINUOUS
 10
-10.6455661746
 20
-0.2900000008
 11
-10.6630185685
 21
-0.2900000008
  0
LINE
  5
543
100
AcDbEntity
  8
CURVE
100
AcDbLine
 62
250
  6
CONTINUOUS
 10
-10.5583041299
 20
-0.2900000008
 11
-10.5757565426
 21
-0.2900000008
  0
LINE
  5
544
100
AcDbEntity
  8
CURVE
100
AcDbLine
 62
250
  6
CONTINUOUS
 10
11.481312295
 20
-0.281883
 11
11.4847407854
 21
-0.281883
  0
LINE
  5
545
100
AcDbEntity
  8
CURVE
100
AcDbLine
 62
250
  6
CONTINUOUS
 10
11.5434196328
 20
-0.218216
 11
11.5503066665
 21
-0.218216
  0
LINE
  5
546
100
AcDbEntity
  8
CURVE
100
AcDbLine
 62
250
  6
CONTINUOUS
 10
-5.2892858028
 20
-0.1857142746
 11
-4.7321429014
 21
-0.1857142746
  0
LINE
  5
547
100
AcDbEntity
  8
CURVE
100
AcDbLine
 62
250
  6
CONTINUOUS
 10
5.2345238686
 20
0.0928571761
 11
4.8321432114
 21
0.0928571761
  0
LINE
  5
548
100
AcDbEntity
  8
CURVE
100
AcDbLine
 62
250
  6
CONTINUOUS
 10
2.2011903286
 20
0.0928571761
 11
1.8297619343
 21
0.0928571761
  0
LINE
  5
549
100
AcDbEntity
  8
CURVE
100
AcDbLine
 62
250
  6
CONTINUOUS
 10
6.8130954742
 20
0.0928571761
 11
7.4630954742
 21
0.0928571761
  0
LINE
  5
54A
100
AcDbEntity
  8
ASSI
100
AcDbLine
 62
7
  6
CONTINUOUS
 10
10.9466176626
 20
-6.5274648713
 11
11.378631018
 21
-6.7434550984
  0
LINE
  5
54B
100
AcDbEntity
  8
CURVE
100
AcDbLine
 62
250
  6
CONTINUOUS
 10
0.0345238686
 20
-0.1547618955
 11
0.2821425915
 21
-0.3404761896
  0
LINE
  5
54C
100
AcDbEntity
  8
ASSI
100
AcDbLine
 62
7
  6
CONTINUOUS
 10
9.9739230612
 20
-11.540555173
 11
10.1768229866
 21
-11.7434550984
  0
LINE
  5
54D
100
AcDbEntity
  8
CURVE
100
AcDbLine
 62
250
  6
CONTINUOUS
 10
-1.9464283943
 20
0.65
 11
-1.7607141972
 21
0.4642857254
  0
LINE
  5
54E
100
AcDbEntity
  8
CURVE
100
AcDbLine
 62
250
  6
CONTINUOUS
 10
-1.7607141972
 20
0.4642857254
 11
-1.6678574085
 21
0.2785714507
  0
LINE
  5
54F
100
AcDbEntity
  8
ASSI
100
AcDbLine
 62
250
  6
CONTINUOUS
 10
-9.6600175454
 20
19.3181305591
 11
-9.4720343051
 21
18.864298871
  0
LINE
  5
550
100
AcDbEntity
  8
ASSI
100
AcDbLine
 62
250
  6
CONTINUOUS
 10
-8.95301846
 20
19.6109791689
 11
-8.7650352197
 21
19.1571474807
  0
LINE
  5
551
100
AcDbEntity
  8
CURVE
100
AcDbLine
 62
250
  6
CONTINUOUS
 10
-1.2964283943
 20
0.65
 11
-0.925
 21
-0.65
  0
LINE
  5
552
100
AcDbEntity
  8
ASSI
100
AcDbLine
 62
7
  6
CONTINUOUS
 10
0.875
 20
5.85
 11
0.875
 21
9.15
  0
LINE
  5
553
100
AcDbEntity
  8
ASSI
100
AcDbLine
 62
7
  6
CONTINUOUS
 10
0.875
 20
10.85
 11
0.875
 21
14.15
  0
LINE
  5
554
100
AcDbEntity
  8
ASSI
100
AcDbLine
 62
7
  6
CONTINUOUS
 10
1.4524648713
 20
19.1571474807
 11
1.4524648713
 21
17.65
  0
LINE
  5
555
100
AcDbEntity
  8
ASSI
100
AcDbLine
 62
7
  6
CONTINUOUS
 10
1.4524648713
 20
-19.1571474807
 11
1.4524648713
 21
-17.65
  0
LINE
  5
556
100
AcDbEntity
  8
ASSI
100
AcDbLine
 62
7
  6
CONTINUOUS
 10
1.465555173
 20
17.6989230612
 11
1.465555173
 21
17.65
  0
LINE
  5
557
100
AcDbEntity
  8
ASSI
100
AcDbLine
 62
7
  6
CONTINUOUS
 10
1.465555173
 20
-17.6989230612
 11
1.465555173
 21
-17.65
  0
LINE
  5
558
100
AcDbEntity
  8
ASSI
100
AcDbLine
 62
250
  6
CONTINUOUS
 10
1.625
 20
-2.1112420645
 11
1.625
 21
-2.05
  0
LINE
  5
559
100
AcDbEntity
  8
ASSI
100
AcDbLine
 62
250
  6
CONTINUOUS
 10
1.625
 20
-7.2887579355
 11
1.625
 21
-7.35
  0
LINE
  5
55A
100
AcDbEntity
  8
ASSI
100
AcDbLine
 62
250
  6
CONTINUOUS
 10
1.6684550984
 20
19.5891608362
 11
1.6684550984
 21
17.9018229866
  0
LINE
  5
55B
100
AcDbEntity
  8
ASSI
100
AcDbLine
 62
250
  6
CONTINUOUS
 10
1.6684550984
 20
-19.5891608362
 11
1.6684550984
 21
-17.9018229866
  0
LINE
  5
55C
100
AcDbEntity
  8
CURVE
100
AcDbLine
 62
250
  6
CONTINUOUS
 10
1.8297619343
 20
0.0928571761
 11
1.8297619343
 21
0.65
  0
LINE
  5
55D
100
AcDbEntity
  8
ASSI
100
AcDbLine
 62
250
  6
CONTINUOUS
 10
2.0231173983
 20
20.0522359337
 11
2.0231173983
 21
19.8825449351
  0
LINE
  5
55E
100
AcDbEntity
  8
ASSI
100
AcDbLine
 62
250
  6
CONTINUOUS
 10
2.0231173983
 20
-19.8825449351
 11
2.0231173983
 21
-20.0522359337
  0
LINE
  5
55F
100
AcDbEntity
  8
ASSI
100
AcDbLine
 62
250
  6
CONTINUOUS
 10
9.6150352197
 20
19.1571474807
 11
9.80301846
 21
19.6109791689
  0
LINE
  5
560
100
AcDbEntity
  8
CURVE
100
AcDbLine
 62
250
  6
CONTINUOUS
 10
2.8511909485
 20
0.4642857254
 11
3.0369045258
 21
0.65
  0
LINE
  5
561
100
AcDbEntity
  8
ASSI
100
AcDbLine
 62
7
  6
CONTINUOUS
 10
-9.1239230612
 20
-11.540555173
 11
-9.3268229866
 21
-11.7434550984
  0
LINE
  5
562
100
AcDbEntity
  8
CURVE
100
AcDbLine
 62
250
  6
CONTINUOUS
 10
2.2011903286
 20
-0.65
 11
2.3869045258
 21
-0.464285706
  0
LINE
  5
563
100
AcDbEntity
  8
ASSI
100
AcDbLine
 62
7
  6
CONTINUOUS
 10
-10.0966176626
 20
-6.5274648713
 11
-10.528631018
 21
-6.7434550984
  0
LINE
  5
564
100
AcDbEntity
  8
CURVE
100
AcDbLine
 62
250
  6
CONTINUOUS
 10
0.2821425915
 20
-0.3404761896
 11
0.5297619343
 21
-0.2476190329
  0
LINE
  5
565
100
AcDbEntity
  8
CURVE
100
AcDbLine
 62
250
  6
CONTINUOUS
 10
7.8345238686
 20
0.2785714507
 11
8.3916670799
 21
0.2785714507
  0
LINE
  5
566
100
AcDbEntity
  8
CURVE
100
AcDbLine
 62
250
  6
CONTINUOUS
 10
-3.8964287043
 20
0.65
 11
-4.175
 21
0.65
  0
LINE
  5
567
100
AcDbEntity
  8
CURVE
100
AcDbLine
 62
250
  6
CONTINUOUS
 10
-6.8678571761
 20
0.65
 11
-7.1464285493
 21
0.65
  0
LINE
  5
568
100
AcDbEntity
  8
CURVE
100
AcDbLine
 62
250
  6
CONTINUOUS
 10
-6.0321429014
 20
0.65
 11
-5.9392856479
 21
0.65
  0
LINE
  5
569
100
AcDbEntity
  8
CURVE
100
AcDbLine
 62
250
  6
CONTINUOUS
 10
-2.0392858028
 20
0.65
 11
-1.9464283943
 21
0.65
  0
LINE
  5
56A
100
AcDbEntity
  8
CURVE
100
AcDbLine
 62
250
  6
CONTINUOUS
 10
1.8297619343
 20
0.65
 11
2.3869045258
 21
0.65
  0
LINE
  5
56B
100
AcDbEntity
  8
CURVE
100
AcDbLine
 62
250
  6
CONTINUOUS
 10
3.0369045258
 20
0.65
 11
3.1297613144
 21
0.65
  0
LINE
  5
56C
100
AcDbEntity
  8
CURVE
100
AcDbLine
 62
250
  6
CONTINUOUS
 10
6.0702386856
 20
0.65
 11
6.1630954742
 21
0.65
  0
LINE
  5
56D
100
AcDbEntity
  8
CURVE
100
AcDbLine
 62
250
  6
CONTINUOUS
 10
11.4353594806
 20
1.092362
 11
11.4531436922
 21
1.092362
  0
LINE
  5
56E
100
AcDbEntity
  8
ASSI
100
AcDbLine
 62
7
  6
CONTINUOUS
 10
-6.325
 20
1.182
 11
7.175
 21
1.182
  0
LINE
  5
56F
100
AcDbEntity
  8
ASSI
100
AcDbLine
 62
7
  6
CONTINUOUS
 10
-6.325
 20
1.45
 11
7.175
 21
1.45
  0
LINE
  5
570
100
AcDbEntity
  8
ASSI
100
AcDbLine
 62
7
  6
CONTINUOUS
 10
10.9466176626
 20
1.5274648713
 11
9.925
 21
1.5274648713
  0
LINE
  5
571
100
AcDbEntity
  8
ASSI
100
AcDbLine
 62
7
  6
CONTINUOUS
 10
-10.0966176626
 20
1.5274648713
 11
-9.075
 21
1.5274648713
  0
LINE
  5
572
100
AcDbEntity
  8
ASSI
100
AcDbLine
 62
7
  6
CONTINUOUS
 10
9.9739230612
 20
1.540555173
 11
9.925
 21
1.540555173
  0
LINE
  5
573
100
AcDbEntity
  8
ASSI
100
AcDbLine
 62
7
  6
CONTINUOUS
 10
-9.1239230612
 20
1.540555173
 11
-9.075
 21
1.540555173
  0
LINE
  5
574
100
AcDbEntity
  8
ASSI
100
AcDbLine
 62
7
  6
CONTINUOUS
 10
4.7350456915
 20
1.6
 11
-6.774874725
 21
1.6
  0
LINE
  5
575
100
AcDbEntity
  8
ASSI
100
AcDbLine
 62
250
  6
CONTINUOUS
 10
11.378631018
 20
1.7434550984
 11
10.1768229866
 21
1.7434550984
  0
LINE
  5
576
100
AcDbEntity
  8
ASSI
100
AcDbLine
 62
250
  6
CONTINUOUS
 10
-10.528631018
 20
1.7434550984
 11
-9.3268229866
 21
1.7434550984
  0
LINE
  5
577
100
AcDbEntity
  8
ASSI
100
AcDbLine
 62
7
  6
CONTINUOUS
 10
-9.3317195259
 20
2.0
 11
-9.075
 21
2.0
  0
LINE
  5
578
100
AcDbEntity
  8
ASSI
100
AcDbLine
 62
7
  6
CONTINUOUS
 10
-9.075
 20
2.0209460779
 11
-9.3318747381
 21
2.0209460779
  0
LINE
  5
579
100
AcDbEntity
  8
ASSI
100
AcDbLine
 62
7
  6
CONTINUOUS
 10
-10.2475823135
 20
6.6029414482
 11
-10.528631018
 21
6.7434550984
  0
LINE
  5
57A
100
AcDbEntity
  8
CURVE
100
AcDbLine
 62
250
  6
CONTINUOUS
 10
-7.4511904739
 20
8.1142858028
 11
-7.5130952369
 21
8.1761903286
  0
LINE
  5
57B
100
AcDbEntity
  8
CURVE
100
AcDbLine
 62
250
  6
CONTINUOUS
 10
-7.389285706
 20
8.2071425915
 11
-7.3583333269
 21
8.1761903286
  0
LINE
  5
57C
100
AcDbEntity
  8
CURVE
100
AcDbLine
 62
250
  6
CONTINUOUS
 10
2.3869045258
 20
-0.0928571373
 11
2.2011903286
 21
0.0928571761
  0
LINE
  5
57D
100
AcDbEntity
  8
CURVE
100
AcDbLine
 62
250
  6
CONTINUOUS
 10
3.0369045258
 20
-0.65
 11
2.8511909485
 21
-0.464285706
  0
LINE
  5
57E
100
AcDbEntity
  8
ASSI
100
AcDbLine
 62
7
  6
CONTINUOUS
 10
-9.1867474857
 20
11.6033795975
 11
-9.3268229866
 21
11.7434550984
  0
LINE
  5
57F
100
AcDbEntity
  8
ASSI
100
AcDbLine
 62
250
  6
CONTINUOUS
 10
9.80301846
 20
-19.6109791689
 11
9.6150352197
 21
-19.1571474807
  0
LINE
  5
580
100
AcDbEntity
  8
CURVE
100
AcDbLine
 62
250
  6
CONTINUOUS
 10
2.3869045258
 20
-0.464285706
 11
2.3869045258
 21
-0.0928571373
  0
LINE
  5
581
100
AcDbEntity
  8
CURVE
100
AcDbLine
 62
250
  6
CONTINUOUS
 10
2.7583329201
 20
-0.278571412
 11
2.7583329201
 21
0.2785714507
  0
LINE
  5
582
100
AcDbEntity
  8
ASSI
100
AcDbLine
 62
250
  6
CONTINUOUS
 10
2.9229803239
 20
20.0532338935
 11
2.9229803239
 21
19.8979803239
  0
LINE
  5
583
100
AcDbEntity
  8
ASSI
100
AcDbLine
 62
250
  6
CONTINUOUS
 10
2.9229803239
 20
-19.8979803239
 11
2.9229803239
 21
-20.0532338935
  0
LINE
  5
584
100
AcDbEntity
  8
ASSI
100
AcDbLine
 62
7
  6
CONTINUOUS
 10
2.925
 20
-20.0532338935
 11
2.925
 21
-19.9
  0
LINE
  5
585
100
AcDbEntity
  8
ASSI
100
AcDbLine
 62
7
  6
CONTINUOUS
 10
2.925
 20
19.9
 11
2.925
 21
20.0532338935
  0
LINE
  5
586
100
AcDbEntity
  8
ASSI
100
AcDbLine
 62
250
  6
CONTINUOUS
 10
3.1815449016
 20
19.5891608362
 11
3.1815449016
 21
17.9018229866
  0
LINE
  5
587
100
AcDbEntity
  8
ASSI
100
AcDbLine
 62
250
  6
CONTINUOUS
 10
3.1815449016
 20
-19.5891608362
 11
3.1815449016
 21
-17.9018229866
  0
LINE
  5
588
100
AcDbEntity
  8
ASSI
100
AcDbLine
 62
7
  6
CONTINUOUS
 10
3.384444827
 20
17.6989230612
 11
3.384444827
 21
17.65
  0
LINE
  5
589
100
AcDbEntity
  8
ASSI
100
AcDbLine
 62
7
  6
CONTINUOUS
 10
3.384444827
 20
-17.6989230612
 11
3.384444827
 21
-17.65
  0
LINE
  5
58A
100
AcDbEntity
  8
ASSI
100
AcDbLine
 62
7
  6
CONTINUOUS
 10
3.3975351287
 20
19.1571474807
 11
3.3975351287
 21
17.65
  0
LINE
  5
58B
100
AcDbEntity
  8
ASSI
100
AcDbLine
 62
7
  6
CONTINUOUS
 10
3.3975351287
 20
-19.1571474807
 11
3.3975351287
 21
-17.65
  0
LINE
  5
58C
100
AcDbEntity
  8
CURVE
100
AcDbLine
 62
250
  6
CONTINUOUS
 10
3.4083329201
 20
0.2785714507
 11
3.4083329201
 21
-0.278571412
  0
LINE
  5
58D
100
AcDbEntity
  8
CURVE
100
AcDbLine
 62
250
  6
CONTINUOUS
 10
3.415
 20
-14.75316
 11
3.415
 21
-16.25316
  0
LINE
  5
58E
100
AcDbEntity
  8
ASSI
100
AcDbLine
 62
7
  6
CONTINUOUS
 10
3.425
 20
-21.0
 11
3.425
 21
-22.3380392387
  0
LINE
  5
58F
100
AcDbEntity
  8
ASSI
100
AcDbLine
 62
7
  6
CONTINUOUS
 10
3.425
 20
21.0
 11
3.425
 21
22.3380392387
  0
LINE
  5
590
100
AcDbEntity
  8
ASSI
100
AcDbLine
 62
7
  6
CONTINUOUS
 10
3.8359791689
 20
-19.8109791689
 11
3.8359791689
 21
-19.6109791689
  0
LINE
  5
591
100
AcDbEntity
  8
ASSI
100
AcDbLine
 62
7
  6
CONTINUOUS
 10
3.8359791689
 20
19.6109791689
 11
3.8359791689
 21
19.8109791689
  0
LINE
  5
592
100
AcDbEntity
  8
ASSI
100
AcDbLine
 62
250
  6
CONTINUOUS
 10
10.3220343051
 20
18.864298871
 11
10.5100175454
 21
19.3181305591
  0
LINE
  5
593
100
AcDbEntity
  8
CURVE
100
AcDbLine
 62
250
  6
CONTINUOUS
 10
2.7583329201
 20
0.2785714507
 11
2.8511909485
 21
0.4642857254
  0
LINE
  5
594
100
AcDbEntity
  8
ASSI
100
AcDbLine
 62
7
  6
CONTINUOUS
 10
-6.6024648713
 20
-19.1571474807
 11
-6.8184550984
 21
-19.5891608362
  0
LINE
  5
595
100
AcDbEntity
  8
CURVE
100
AcDbLine
 62
250
  6
CONTINUOUS
 10
3.4083329201
 20
-0.278571412
 11
3.3154761314
 21
-0.464285706
  0
LINE
  5
596
100
AcDbEntity
  8
CURVE
100
AcDbLine
 62
250
  6
CONTINUOUS
 10
4.5226193428
 20
0.5261904836
 11
3.7797613144
 21
-0.6190476185
  0
LINE
  5
597
100
AcDbEntity
  8
ASSI
100
AcDbLine
 62
7
  6
CONTINUOUS
 10
9.9739230612
 20
6.540555173
 11
10.1768229866
 21
6.7434550984
  0
LINE
  5
598
100
AcDbEntity
  8
CURVE
100
AcDbLine
 62
250
  6
CONTINUOUS
 10
3.3154761314
 20
-0.464285706
 11
3.1297613144
 21
-0.65
  0
LINE
  5
599
100
AcDbEntity
  8
CURVE
100
AcDbLine
 62
250
  6
CONTINUOUS
 10
5.2345238686
 20
0.65
 11
4.9559522629
 21
0.3714285493
  0
LINE
  5
59A
100
AcDbEntity
  8
CURVE
100
AcDbLine
 62
250
  6
CONTINUOUS
 10
5.8845238686
 20
0.4642857254
 11
6.0702386856
 21
0.65
  0
LINE
  5
59B
100
AcDbEntity
  8
ASSI
100
AcDbLine
 62
7
  6
CONTINUOUS
 10
10.9466176626
 20
1.5274648713
 11
11.378631018
 21
1.7434550984
  0
LINE
  5
59C
100
AcDbEntity
  8
CURVE
100
AcDbLine
 62
250
  6
CONTINUOUS
 10
-10.6798895703
 20
2.70079
 11
-10.6292852826
 21
2.70079
  0
LINE
  5
59D
100
AcDbEntity
  8
ASSI
100
AcDbLine
 62
7
  6
CONTINUOUS
 10
7.175
 20
2.95
 11
-6.325
 21
2.95
  0
LINE
  5
59E
100
AcDbEntity
  8
ASSI
100
AcDbLine
 62
7
  6
CONTINUOUS
 10
7.175
 20
3.218
 11
-6.325
 21
3.218
  0
LINE
  5
59F
100
AcDbEntity
  8
ASSI
100
AcDbLine
 62
250
  6
CONTINUOUS
 10
11.378631018
 20
3.2565449016
 11
10.1768229866
 21
3.2565449016
  0
LINE
  5
5A0
100
AcDbEntity
  8
ASSI
100
AcDbLine
 62
250
  6
CONTINUOUS
 10
-10.528631018
 20
3.2565449016
 11
-9.3268229866
 21
3.2565449016
  0
LINE
  5
5A1
100
AcDbEntity
  8
CURVE
100
AcDbLine
 62
250
  6
CONTINUOUS
 10
-10.657182108
 20
3.323396
 11
-10.6714799607
 21
3.323396
  0
LINE
  5
5A2
100
AcDbEntity
  8
CURVE
100
AcDbLine
 62
250
  6
CONTINUOUS
 10
-10.6292852826
 20
3.323396
 11
-10.6487724985
 21
3.323396
  0
LINE
  5
5A3
100
AcDbEntity
  8
ASSI
100
AcDbLine
 62
7
  6
CONTINUOUS
 10
9.9739230612
 20
3.459444827
 11
9.925
 21
3.459444827
  0
LINE
  5
5A4
100
AcDbEntity
  8
ASSI
100
AcDbLine
 62
7
  6
CONTINUOUS
 10
-9.1239230612
 20
3.459444827
 11
-9.075
 21
3.459444827
  0
LINE
  5
5A5
100
AcDbEntity
  8
ASSI
100
AcDbLine
 62
7
  6
CONTINUOUS
 10
10.9466176626
 20
3.4725351287
 11
9.925
 21
3.4725351287
  0
LINE
  5
5A6
100
AcDbEntity
  8
ASSI
100
AcDbLine
 62
7
  6
CONTINUOUS
 10
-10.0966176626
 20
3.4725351287
 11
-9.075
 21
3.4725351287
  0
LINE
  5
5A7
100
AcDbEntity
  8
ASSI
100
AcDbLine
 62
7
  6
CONTINUOUS
 10
10.9466176626
 20
-1.5274648713
 11
11.378631018
 21
-1.7434550984
  0
LINE
  5
5A8
100
AcDbEntity
  8
CURVE
100
AcDbLine
 62
250
  6
CONTINUOUS
 10
-7.575
 20
9.4452380657
 11
-6.6464285493
 21
8.7952380657
  0
LINE
  5
5A9
100
AcDbEntity
  8
ASSI
100
AcDbLine
 62
7
  6
CONTINUOUS
 10
9.9739230612
 20
-6.540555173
 11
10.1768229866
 21
-6.7434550984
  0
LINE
  5
5AA
100
AcDbEntity
  8
CURVE
100
AcDbLine
 62
250
  6
CONTINUOUS
 10
3.1297613144
 20
0.65
 11
3.3154761314
 21
0.4642857254
  0
LINE
  5
5AB
100
AcDbEntity
  8
CURVE
100
AcDbLine
 62
250
  6
CONTINUOUS
 10
4.7702386856
 20
-0.464285706
 11
4.9559522629
 21
-0.65
  0
LINE
  5
5AC
100
AcDbEntity
  8
CURVE
100
AcDbLine
 62
250
  6
CONTINUOUS
 10
5.4202386856
 20
-0.0928571373
 11
5.2345238686
 21
0.0928571761
  0
LINE
  5
5AD
100
AcDbEntity
  8
CURVE
100
AcDbLine
 62
250
  6
CONTINUOUS
 10
6.0702386856
 20
-0.65
 11
5.8845238686
 21
-0.464285706
  0
LINE
  5
5AE
100
AcDbEntity
  8
CURVE
100
AcDbLine
 62
250
  6
CONTINUOUS
 10
2.8511909485
 20
-0.464285706
 11
2.7583329201
 21
-0.278571412
  0
LINE
  5
5AF
100
AcDbEntity
  8
ASSI
100
AcDbLine
 62
7
  6
CONTINUOUS
 10
-6.6024648713
 20
19.1571474807
 11
-6.8184550984
 21
19.5891608362
  0
LINE
  5
5B0
100
AcDbEntity
  8
CURVE
100
AcDbLine
 62
250
  6
CONTINUOUS
 10
3.3154761314
 20
0.4642857254
 11
3.4083329201
 21
0.2785714507
  0
LINE
  5
5B1
100
AcDbEntity
  8
ASSI
100
AcDbLine
 62
250
  6
CONTINUOUS
 10
10.5100175454
 20
-19.3181305591
 11
10.3220343051
 21
-18.864298871
  0
LINE
  5
5B2
100
AcDbEntity
  8
ASSI
100
AcDbLine
 62
7
  6
CONTINUOUS
 10
3.925
 20
-23.7511422903
 11
3.925
 21
-22.3339198952
  0
LINE
  5
5B3
100
AcDbEntity
  8
ASSI
100
AcDbLine
 62
7
  6
CONTINUOUS
 10
3.925
 20
-20.0445070257
 11
3.925
 21
-20.0
  0
LINE
  5
5B4
100
AcDbEntity
  8
ASSI
100
AcDbLine
 62
7
  6
CONTINUOUS
 10
3.925
 20
20.0445070257
 11
3.925
 21
20.0
  0
LINE
  5
5B5
100
AcDbEntity
  8
ASSI
100
AcDbLine
 62
7
  6
CONTINUOUS
 10
3.925
 20
-19.9
 11
3.925
 21
-19.7
  0
LINE
  5
5B6
100
AcDbEntity
  8
ASSI
100
AcDbLine
 62
7
  6
CONTINUOUS
 10
3.925
 20
19.7
 11
3.925
 21
19.9
  0
LINE
  5
5B7
100
AcDbEntity
  8
ASSI
100
AcDbLine
 62
7
  6
CONTINUOUS
 10
3.925
 20
-23.7563493531
 11
3.925
 21
-23.7941821702
  0
LINE
  5
5B8
100
AcDbEntity
  8
ASSI
100
AcDbLine
 62
7
  6
CONTINUOUS
 10
3.925
 20
23.7563493531
 11
3.925
 21
23.7941821702
  0
LINE
  5
5B9
100
AcDbEntity
  8
ASSI
100
AcDbLine
 62
7
  6
CONTINUOUS
 10
3.925
 20
22.3339198952
 11
3.925
 21
23.7511422903
  0
LINE
  5
5BA
100
AcDbEntity
  8
CURVE
100
AcDbLine
 62
250
  6
CONTINUOUS
 10
4.7702386856
 20
0.0
 11
4.7702386856
 21
-0.464285706
  0
LINE
  5
5BB
100
AcDbEntity
  8
ASSI
100
AcDbLine
 62
7
  6
CONTINUOUS
 10
4.7809327327
 20
-23.7507734247
 11
4.7809327327
 21
-22.3338981669
  0
LINE
  5
5BC
100
AcDbEntity
  8
ASSI
100
AcDbLine
 62
7
  6
CONTINUOUS
 10
4.7809327327
 20
22.3338981669
 11
4.7809327327
 21
23.7507734247
  0
LINE
  5
5BD
100
AcDbEntity
  8
CURVE
100
AcDbLine
 62
250
  6
CONTINUOUS
 10
4.784809
 20
-15.50816
 11
4.784809
 21
-16.018874
  0
LINE
  5
5BE
100
AcDbEntity
  8
ASSI
100
AcDbLine
 62
7
  6
CONTINUOUS
 10
4.825
 20
-23.8
 11
4.825
 21
-22.4
  0
LINE
  5
5BF
100
AcDbEntity
  8
ASSI
100
AcDbLine
 62
7
  6
CONTINUOUS
 10
4.825
 20
22.4
 11
4.825
 21
23.8
  0
LINE
  5
5C0
100
AcDbEntity
  8
ASSI
100
AcDbLine
 62
7
  6
CONTINUOUS
 10
5.035
 20
7.5000456915
 11
5.035
 21
5.85
  0
LINE
  5
5C1
100
AcDbEntity
  8
ASSI
100
AcDbLine
 62
7
  6
CONTINUOUS
 10
5.035
 20
2.95
 11
5.035
 21
1.8999543085
  0
LINE
  5
5C2
100
AcDbEntity
  8
ASSI
100
AcDbLine
 62
7
  6
CONTINUOUS
 10
5.175
 20
14.15
 11
5.175
 21
10.85
  0
LINE
  5
5C3
100
AcDbEntity
  8
ASSI
100
AcDbLine
 62
7
  6
CONTINUOUS
 10
5.175
 20
9.15
 11
5.175
 21
5.85
  0
LINE
  5
5C4
100
AcDbEntity
  8
CURVE
100
AcDbLine
 62
250
  6
CONTINUOUS
 10
5.4202386856
 20
-0.464285706
 11
5.4202386856
 21
-0.0928571373
  0
LINE
  5
5C5
100
AcDbEntity
  8
CURVE
100
AcDbLine
 62
250
  6
CONTINUOUS
 10
5.578459
 20
-16.018874
 11
5.578459
 21
-15.610303
  0
LINE
  5
5C6
100
AcDbEntity
  8
ASSI
100
AcDbLine
 62
7
  6
CONTINUOUS
 10
5.6300136038
 20
2.0011810943
 11
5.6300136038
 21
2.95
  0
LINE
  5
5C7
100
AcDbEntity
  8
CURVE
100
AcDbLine
 62
250
  6
CONTINUOUS
 10
4.9559522629
 20
0.3714285493
 11
4.7702386856
 21
0.0
  0
LINE
  5
5C8
100
AcDbEntity
  8
CURVE
100
AcDbLine
 62
250
  6
CONTINUOUS
 10
5.7916670799
 20
0.2785714507
 11
5.8845238686
 21
0.4642857254
  0
LINE
  5
5C9
100
AcDbEntity
  8
CURVE
100
AcDbLine
 62
250
  6
CONTINUOUS
 10
5.2345238686
 20
-0.65
 11
5.4202386856
 21
-0.464285706
  0
LINE
  5
5CA
100
AcDbEntity
  8
CURVE
100
AcDbLine
 62
250
  6
CONTINUOUS
 10
6.3488090515
 20
-0.464285706
 11
6.1630954742
 21
-0.65
  0
LINE
  5
5CB
100
AcDbEntity
  8
CURVE
100
AcDbLine
 62
250
  6
CONTINUOUS
 10
11.5211832637
 20
5.0
 11
11.4577571
 21
5.0
  0
LINE
  5
5CC
100
AcDbEntity
  8
ASSI
100
AcDbLine
 62
7
  6
CONTINUOUS
 10
5.882
 20
5.143
 11
0.168
 21
5.143
  0
LINE
  5
5CD
100
AcDbEntity
  8
CURVE
100
AcDbLine
 62
250
  6
CONTINUOUS
 10
-10.6292852826
 20
5.171133
 11
-10.6798895703
 21
5.171133
  0
LINE
  5
5CE
100
AcDbEntity
  8
ASSI
100
AcDbLine
 62
7
  6
CONTINUOUS
 10
-10.2144393508
 20
5.4
 11
-8.925
 21
5.4
  0
LINE
  5
5CF
100
AcDbEntity
  8
CURVE
100
AcDbLine
 62
250
  6
CONTINUOUS
 10
-7.2964285687
 20
7.6809522629
 11
-6.275
 21
7.4023806572
  0
LINE
  5
5D0
100
AcDbEntity
  8
CURVE
100
AcDbLine
 62
250
  6
CONTINUOUS
 10
-7.575
 20
6.6595238686
 11
-6.275
 21
6.2880954742
  0
LINE
  5
5D1
100
AcDbEntity
  8
CURVE
100
AcDbLine
 62
250
  6
CONTINUOUS
 10
-7.4511904739
 20
8.1142858028
 11
-7.5440476185
 21
8.1452380657
  0
LINE
  5
5D2
100
AcDbEntity
  8
CURVE
100
AcDbLine
 62
250
  6
CONTINUOUS
 10
-7.5440476185
 20
8.1452380657
 11
-7.667857147
 21
8.2071425915
  0
LINE
  5
5D3
100
AcDbEntity
  8
CURVE
100
AcDbLine
 62
250
  6
CONTINUOUS
 10
-7.4511904739
 20
8.2380954742
 11
-7.389285706
 21
8.2071425915
  0
LINE
  5
5D4
100
AcDbEntity
  8
CURVE
100
AcDbLine
 62
250
  6
CONTINUOUS
 10
-6.275
 20
9.2595238686
 11
-6.5535714507
 21
9.4452380657
  0
LINE
  5
5D5
100
AcDbEntity
  8
CURVE
100
AcDbLine
 62
250
  6
CONTINUOUS
 10
-7.575
 20
13.128571412
 11
-7.389285706
 21
12.9428571373
  0
LINE
  5
5D6
100
AcDbEntity
  8
CURVE
100
AcDbLine
 62
250
  6
CONTINUOUS
 10
6.1630954742
 20
0.65
 11
6.3488090515
 21
0.4642857254
  0
LINE
  5
5D7
100
AcDbEntity
  8
ASSI
100
AcDbLine
 62
250
  6
CONTINUOUS
 10
5.6300136038
 20
2.0011810943
 11
5.735
 21
1.8961946981
  0
LINE
  5
5D8
100
AcDbEntity
  8
CURVE
100
AcDbLine
 62
250
  6
CONTINUOUS
 10
5.8845238686
 20
-0.464285706
 11
5.7916670799
 21
-0.278571412
  0
LINE
  5
5D9
100
AcDbEntity
  8
ASSI
100
AcDbLine
 62
7
  6
CONTINUOUS
 10
5.735
 20
1.8961946981
 11
5.735
 21
2.95
  0
LINE
  5
5DA
100
AcDbEntity
  8
CURVE
100
AcDbLine
 62
250
  6
CONTINUOUS
 10
5.7916670799
 20
-0.278571412
 11
5.7916670799
 21
0.2785714507
  0
LINE
  5
5DB
100
AcDbEntity
  8
ASSI
100
AcDbLine
 62
7
  6
CONTINUOUS
 10
5.882
 20
14.857
 11
5.882
 21
10.143
  0
LINE
  5
5DC
100
AcDbEntity
  8
ASSI
100
AcDbLine
 62
7
  6
CONTINUOUS
 10
5.882
 20
9.857
 11
5.882
 21
5.143
  0
LINE
  5
5DD
100
AcDbEntity
  8
CURVE
100
AcDbLine
 62
250
  6
CONTINUOUS
 10
6.4416670799
 20
0.2785714507
 11
6.4416670799
 21
-0.278571412
  0
LINE
  5
5DE
100
AcDbEntity
  8
CURVE
100
AcDbLine
 62
250
  6
CONTINUOUS
 10
6.8130954742
 20
-0.65
 11
6.8130954742
 21
0.65
  0
LINE
  5
5DF
100
AcDbEntity
  8
ASSI
100
AcDbLine
 62
7
  6
CONTINUOUS
 10
6.8732213147
 20
-19.9223308767
 11
6.8732213147
 21
-19.8482179301
  0
LINE
  5
5E0
100
AcDbEntity
  8
ASSI
100
AcDbLine
 62
7
  6
CONTINUOUS
 10
6.8732213147
 20
19.8482179301
 11
6.8732213147
 21
19.9223308767
  0
LINE
  5
5E1
100
AcDbEntity
  8
ASSI
100
AcDbLine
 62
7
  6
CONTINUOUS
 10
6.9811896713
 20
-20.1086060399
 11
6.9811896713
 21
-19.9561862866
  0
LINE
  5
5E2
100
AcDbEntity
  8
ASSI
100
AcDbLine
 62
7
  6
CONTINUOUS
 10
6.9811896713
 20
19.9561862866
 11
6.9811896713
 21
20.1086060399
  0
LINE
  5
5E3
100
AcDbEntity
  8
ASSI
100
AcDbLine
 62
250
  6
CONTINUOUS
 10
7.175
 20
3.218
 11
7.175
 21
2.95
  0
LINE
  5
5E4
100
AcDbEntity
  8
ASSI
100
AcDbLine
 62
250
  6
CONTINUOUS
 10
7.175
 20
1.45
 11
7.175
 21
1.182
  0
LINE
  5
5E5
100
AcDbEntity
  8
ASSI
100
AcDbLine
 62
250
  6
CONTINUOUS
 10
7.175
 20
-1.782
 11
7.175
 21
-2.05
  0
LINE
  5
5E6
100
AcDbEntity
  8
ASSI
100
AcDbLine
 62
250
  6
CONTINUOUS
 10
7.175
 20
-3.55
 11
7.175
 21
-3.818
  0
LINE
  5
5E7
100
AcDbEntity
  8
ASSI
100
AcDbLine
 62
250
  6
CONTINUOUS
 10
7.175
 20
-6.782
 11
7.175
 21
-7.05
  0
LINE
  5
5E8
100
AcDbEntity
  8
ASSI
100
AcDbLine
 62
250
  6
CONTINUOUS
 10
7.175
 20
-8.55
 11
7.175
 21
-8.818
  0
LINE
  5
5E9
100
AcDbEntity
  8
ASSI
100
AcDbLine
 62
250
  6
CONTINUOUS
 10
7.175
 20
-11.782
 11
7.175
 21
-12.05
  0
LINE
  5
5EA
100
AcDbEntity
  8
ASSI
100
AcDbLine
 62
250
  6
CONTINUOUS
 10
7.175
 20
-13.55
 11
7.175
 21
-13.818
  0
LINE
  5
5EB
100
AcDbEntity
  8
CURVE
100
AcDbLine
 62
250
  6
CONTINUOUS
 10
7.279138
 20
-16.22316
 11
7.279138
 21
-15.201731
  0
LINE
  5
5EC
100
AcDbEntity
  8
ASSI
100
AcDbLine
 62
250
  6
CONTINUOUS
 10
7.325
 20
-20.9
 11
7.325
 21
-20.5829242832
  0
LINE
  5
5ED
100
AcDbEntity
  8
ASSI
100
AcDbLine
 62
250
  6
CONTINUOUS
 10
7.325
 20
20.5829242832
 11
7.325
 21
20.9
  0
LINE
  5
5EE
100
AcDbEntity
  8
CURVE
100
AcDbLine
 62
250
  6
CONTINUOUS
 10
7.425
 20
11.9785714507
 11
7.425
 21
11.5142856479
  0
LINE
  5
5EF
100
AcDbEntity
  8
CURVE
100
AcDbLine
 62
250
  6
CONTINUOUS
 10
7.425
 20
10.6785714507
 11
7.425
 21
10.7714285493
  0
LINE
  5
5F0
100
AcDbEntity
  8
CURVE
100
AcDbLine
 62
250
  6
CONTINUOUS
 10
7.425
 20
12.35
 11
7.425
 21
13.0
  0
LINE
  5
5F1
100
AcDbEntity
  8
CURVE
100
AcDbLine
 62
250
  6
CONTINUOUS
 10
7.4630954742
 20
0.65
 11
7.4630954742
 21
-0.65
  0
LINE
  5
5F2
100
AcDbEntity
  8
CURVE
100
AcDbLine
 62
250
  6
CONTINUOUS
 10
6.4416670799
 20
-0.278571412
 11
6.3488090515
 21
-0.464285706
  0
LINE
  5
5F3
100
AcDbEntity
  8
ASSI
100
AcDbLine
 62
7
  6
CONTINUOUS
 10
-1.6024648713
 20
-19.1571474807
 11
-1.8184550984
 21
-19.5891608362
  0
LINE
  5
5F4
100
AcDbEntity
  8
CURVE
100
AcDbLine
 62
250
  6
CONTINUOUS
 10
8.3916670799
 20
0.2785714507
 11
7.8345238686
 21
-0.65
  0
LINE
  5
5F5
100
AcDbEntity
  8
ASSI
100
AcDbLine
 62
7
  6
CONTINUOUS
 10
-6.130294768
 20
-20.0829433217
 11
-6.0232213147
 21
-19.9223308767
  0
LINE
  5
5F6
100
AcDbEntity
  8
ASSI
100
AcDbLine
 62
7
  6
CONTINUOUS
 10
9.9739230612
 20
1.540555173
 11
10.1768229866
 21
1.7434550984
  0
LINE
  5
5F7
100
AcDbEntity
  8
ASSI
100
AcDbLine
 62
7
  6
CONTINUOUS
 10
-10.0966176626
 20
-11.5274648713
 11
-10.528631018
 21
-11.7434550984
  0
LINE
  5
5F8
100
AcDbEntity
  8
CURVE
100
AcDbLine
 62
250
  6
CONTINUOUS
 10
-10.6798895703
 20
5.793739
 11
-10.6376948922
 21
5.793739
  0
LINE
  5
5F9
100
AcDbEntity
  8
ASSI
100
AcDbLine
 62
7
  6
CONTINUOUS
 10
5.175
 20
5.85
 11
0.875
 21
5.85
  0
LINE
  5
5FA
100
AcDbEntity
  8
CURVE
100
AcDbLine
 62
250
  6
CONTINUOUS
 10
-10.5994370156
 20
6.0428571671
 11
-10.5662774433
 21
6.0428571671
  0
LINE
  5
5FB
100
AcDbEntity
  8
ASSI
100
AcDbLine
 62
7
  6
CONTINUOUS
 10
10.9466176626
 20
6.5274648713
 11
9.925
 21
6.5274648713
  0
LINE
  5
5FC
100
AcDbEntity
  8
ASSI
100
AcDbLine
 62
7
  6
CONTINUOUS
 10
9.9739230612
 20
6.540555173
 11
9.925
 21
6.540555173
  0
LINE
  5
5FD
100
AcDbEntity
  8
ASSI
100
AcDbLine
 62
7
  6
CONTINUOUS
 10
-9.1863093364
 20
6.6029414482
 11
-10.2475823135
 21
6.6029414482
  0
LINE
  5
5FE
100
AcDbEntity
  8
ASSI
100
AcDbLine
 62
250
  6
CONTINUOUS
 10
-10.528631018
 20
6.7434550984
 11
-9.3268229866
 21
6.7434550984
  0
LINE
  5
5FF
100
AcDbEntity
  8
ASSI
100
AcDbLine
 62
250
  6
CONTINUOUS
 10
10.1768229866
 20
6.7434550984
 11
11.378631018
 21
6.7434550984
  0
LINE
  5
600
100
AcDbEntity
  8
CURVE
100
AcDbLine
 62
250
  6
CONTINUOUS
 10
-10.6376948922
 20
6.866738
 11
-10.6292852826
 21
6.866738
  0
LINE
  5
601
100
AcDbEntity
  8
CURVE
100
AcDbLine
 62
250
  6
CONTINUOUS
 10
-2.575
 20
7.2
 11
-0.675
 21
7.2
  0
LINE
  5
602
100
AcDbEntity
  8
CURVE
100
AcDbLine
 62
250
  6
CONTINUOUS
 10
-10.5662774433
 20
7.2190476298
 11
-10.5828572295
 21
7.2190476298
  0
LINE
  5
603
100
AcDbEntity
  8
CURVE
100
AcDbLine
 62
250
  6
CONTINUOUS
 10
-7.575
 20
7.2476193428
 11
-6.925
 21
7.2476193428
  0
LINE
  5
604
100
AcDbEntity
  8
ASSI
100
AcDbLine
 62
7
  6
CONTINUOUS
 10
-8.925
 20
7.3790539221
 11
-9.3332823956
 21
7.3790539221
  0
LINE
  5
605
100
AcDbEntity
  8
ASSI
100
AcDbLine
 62
7
  6
CONTINUOUS
 10
-9.3333092614
 20
7.4
 11
-8.925
 21
7.4
  0
LINE
  5
606
100
AcDbEntity
  8
ASSI
100
AcDbLine
 62
7
  6
CONTINUOUS
 10
-10.2484586789
 20
11.6033795975
 11
-10.528631018
 21
11.7434550984
  0
LINE
  5
607
100
AcDbEntity
  8
ASSI
100
AcDbLine
 62
7
  6
CONTINUOUS
 10
9.9739230612
 20
-1.540555173
 11
10.1768229866
 21
-1.7434550984
  0
LINE
  5
608
100
AcDbEntity
  8
ASSI
100
AcDbLine
 62
7
  6
CONTINUOUS
 10
0.168
 20
9.857
 11
0.875
 21
9.15
  0
LINE
  5
609
100
AcDbEntity
  8
ASSI
100
AcDbLine
 62
7
  6
CONTINUOUS
 10
-6.130294768
 20
20.0829433217
 11
-6.0232213147
 21
19.9223308767
  0
LINE
  5
60A
100
AcDbEntity
  8
CURVE
100
AcDbLine
 62
250
  6
CONTINUOUS
 10
6.3488090515
 20
0.4642857254
 11
6.4416670799
 21
0.2785714507
  0
LINE
  5
60B
100
AcDbEntity
  8
ASSI
100
AcDbLine
 62
7
  6
CONTINUOUS
 10
-1.6024648713
 20
19.1571474807
 11
-1.8184550984
 21
19.5891608362
  0
LINE
  5
60C
100
AcDbEntity
  8
ASSI
100
AcDbLine
 62
250
  6
CONTINUOUS
 10
8.679371834
 20
-23.8443375673
 11
8.675
 21
-23.4104851482
  0
LINE
  5
60D
100
AcDbEntity
  8
ASSI
100
AcDbLine
 62
250
  6
CONTINUOUS
 10
8.9293676032
 20
-23.6278312164
 11
8.9242770021
 21
-23.1226497308
  0
LINE
  5
60E
100
AcDbEntity
  8
ASSI
100
AcDbLine
 62
7
  6
CONTINUOUS
 10
7.6688103287
 20
20.9
 11
7.6688103287
 21
19.9561862866
  0
LINE
  5
60F
100
AcDbEntity
  8
ASSI
100
AcDbLine
 62
7
  6
CONTINUOUS
 10
7.6688103287
 20
-19.9561862866
 11
7.6688103287
 21
-20.9
  0
LINE
  5
610
100
AcDbEntity
  8
CURVE
100
AcDbLine
 62
250
  6
CONTINUOUS
 10
7.770445
 20
-15.201731
 11
7.770445
 21
-16.22316
  0
LINE
  5
611
100
AcDbEntity
  8
ASSI
100
AcDbLine
 62
7
  6
CONTINUOUS
 10
7.7767786853
 20
20.4335707644
 11
7.7767786853
 21
19.8482179301
  0
LINE
  5
612
100
AcDbEntity
  8
ASSI
100
AcDbLine
 62
7
  6
CONTINUOUS
 10
7.7767786853
 20
-20.4335707644
 11
7.7767786853
 21
-19.8482179301
  0
LINE
  5
613
100
AcDbEntity
  8
CURVE
100
AcDbLine
 62
250
  6
CONTINUOUS
 10
7.796428588
 20
7.6761903286
 11
7.796428588
 21
7.1809522629
  0
LINE
  5
614
100
AcDbEntity
  8
ASSI
100
AcDbLine
 62
7
  6
CONTINUOUS
 10
7.825
 20
20.85
 11
7.825
 21
19.7
  0
LINE
  5
615
100
AcDbEntity
  8
ASSI
100
AcDbLine
 62
7
  6
CONTINUOUS
 10
7.825
 20
-19.7
 11
7.825
 21
-20.85
  0
LINE
  5
616
100
AcDbEntity
  8
ASSI
100
AcDbLine
 62
7
  6
CONTINUOUS
 10
7.9140208311
 20
20.85
 11
7.9140208311
 21
19.6109791689
  0
LINE
  5
617
100
AcDbEntity
  8
ASSI
100
AcDbLine
 62
7
  6
CONTINUOUS
 10
7.9140208311
 20
-19.6109791689
 11
7.9140208311
 21
-20.85
  0
LINE
  5
618
100
AcDbEntity
  8
ASSI
100
AcDbLine
 62
250
  6
CONTINUOUS
 10
8.0091007192
 20
-21.3126932437
 11
8.0091007192
 21
-20.9
  0
LINE
  5
619
100
AcDbEntity
  8
ASSI
100
AcDbLine
 62
250
  6
CONTINUOUS
 10
8.0091007192
 20
20.9
 11
8.0091007192
 21
21.3126932437
  0
LINE
  5
61A
100
AcDbEntity
  8
CURVE
100
AcDbLine
 62
250
  6
CONTINUOUS
 10
8.1678571761
 20
11.6071429014
 11
8.1678571761
 21
11.7928571761
  0
LINE
  5
61B
100
AcDbEntity
  8
CURVE
100
AcDbLine
 62
250
  6
CONTINUOUS
 10
8.299545
 20
-15.303874
 11
8.299545
 21
-16.22316
  0
LINE
  5
61C
100
AcDbEntity
  8
CURVE
100
AcDbLine
 62
250
  6
CONTINUOUS
 10
8.3535714507
 20
9.0071429014
 11
8.3535714507
 21
8.2642858028
  0
LINE
  5
61D
100
AcDbEntity
  8
ASSI
100
AcDbLine
 62
250
  6
CONTINUOUS
 10
8.5090245667
 20
-21.5659754333
 11
8.5090245667
 21
-20.9
  0
LINE
  5
61E
100
AcDbEntity
  8
ASSI
100
AcDbLine
 62
250
  6
CONTINUOUS
 10
8.5090245667
 20
20.9
 11
8.5090245667
 21
21.5659754333
  0
LINE
  5
61F
100
AcDbEntity
  8
ASSI
100
AcDbLine
 62
7
  6
CONTINUOUS
 10
8.675
 20
21.4
 11
8.675
 21
20.9
  0
LINE
  5
620
100
AcDbEntity
  8
ASSI
100
AcDbLine
 62
7
  6
CONTINUOUS
 10
8.675
 20
-20.9
 11
8.675
 21
-21.4
  0
LINE
  5
621
100
AcDbEntity
  8
ASSI
100
AcDbLine
 62
7
  6
CONTINUOUS
 10
8.675
 20
-22.4
 11
8.675
 21
-23.8443375673
  0
LINE
  5
622
100
AcDbEntity
  8
ASSI
100
AcDbLine
 62
7
  6
CONTINUOUS
 10
8.675
 20
22.4
 11
8.675
 21
23.8443375673
  0
LINE
  5
623
100
AcDbEntity
  8
ASSI
100
AcDbLine
 62
7
  6
CONTINUOUS
 10
8.679371834
 20
24.2456323968
 11
8.679371834
 21
23.8443375673
  0
LINE
  5
624
100
AcDbEntity
  8
ASSI
100
AcDbLine
 62
7
  6
CONTINUOUS
 10
8.679371834
 20
-23.8443375673
 11
8.679371834
 21
-24.2456323968
  0
LINE
  5
625
100
AcDbEntity
  8
CURVE
100
AcDbLine
 62
250
  6
CONTINUOUS
 10
8.725
 20
10.7714285493
 11
8.725
 21
10.6785714507
  0
LINE
  5
626
100
AcDbEntity
  8
CURVE
100
AcDbLine
 62
250
  6
CONTINUOUS
 10
8.725
 20
11.6071429014
 11
8.725
 21
11.9785714507
  0
LINE
  5
627
100
AcDbEntity
  8
CURVE
100
AcDbLine
 62
250
  6
CONTINUOUS
 10
8.725
 20
12.5357142746
 11
8.725
 21
12.814285706
  0
LINE
  5
628
100
AcDbEntity
  8
CURVE
100
AcDbLine
 62
250
  6
CONTINUOUS
 10
8.753059
 20
-16.22316
 11
8.753059
 21
-15.201731
  0
LINE
  5
629
100
AcDbEntity
  8
ASSI
100
AcDbLine
 62
250
  6
CONTINUOUS
 10
8.9293676032
 20
-23.6278312164
 11
8.9293676032
 21
-24.495628166
  0
LINE
  5
62A
100
AcDbEntity
  8
ASSI
100
AcDbLine
 62
250
  6
CONTINUOUS
 10
8.9293676032
 20
23.6278312164
 11
8.9293676032
 21
24.495628166
  0
LINE
  5
62B
100
AcDbEntity
  8
CURVE
100
AcDbLine
 62
250
  6
CONTINUOUS
 10
9.244367
 20
-15.201731
 11
9.244367
 21
-16.22316
  0
LINE
  5
62C
100
AcDbEntity
  8
ASSI
100
AcDbLine
 62
250
  6
CONTINUOUS
 10
8.675
 20
23.4104851482
 11
8.679371834
 21
23.8443375673
  0
LINE
  5
62D
100
AcDbEntity
  8
ASSI
100
AcDbLine
 62
250
  6
CONTINUOUS
 10
8.9242770021
 20
23.1226497308
 11
8.9293676032
 21
23.6278312164
  0
LINE
  5
62E
100
AcDbEntity
  8
ASSI
100
AcDbLine
 62
7
  6
CONTINUOUS
 10
-3.975
 20
-22.4
 11
-3.9309327327
 21
-22.3338981669
  0
LINE
  5
62F
100
AcDbEntity
  8
ASSI
100
AcDbLine
 62
7
  6
CONTINUOUS
 10
-6.615555173
 20
-17.6989230612
 11
-6.8184550984
 21
-17.9018229866
  0
LINE
  5
630
100
AcDbEntity
  8
ASSI
100
AcDbLine
 62
7
  6
CONTINUOUS
 10
10.9466176626
 20
-3.4725351287
 11
11.378631018
 21
-3.2565449016
  0
LINE
  5
631
100
AcDbEntity
  8
ASSI
100
AcDbLine
 62
7
  6
CONTINUOUS
 10
0.875
 20
7.8
 11
4.7350456915
 21
7.8
  0
LINE
  5
632
100
AcDbEntity
  8
CURVE
100
AcDbLine
 62
250
  6
CONTINUOUS
 10
-7.4202380948
 20
8.1142858028
 11
-7.4511904739
 21
8.1142858028
  0
LINE
  5
633
100
AcDbEntity
  8
CURVE
100
AcDbLine
 62
250
  6
CONTINUOUS
 10
-2.575
 20
8.15
 11
-0.675
 21
8.15
  0
LINE
  5
634
100
AcDbEntity
  8
CURVE
100
AcDbLine
 62
250
  6
CONTINUOUS
 10
8.2607142746
 20
8.1714287043
 11
7.425
 21
8.1714287043
  0
LINE
  5
635
100
AcDbEntity
  8
CURVE
100
AcDbLine
 62
250
  6
CONTINUOUS
 10
-7.482142853
 20
8.2380954742
 11
-7.4511904739
 21
8.2380954742
  0
LINE
  5
636
100
AcDbEntity
  8
ASSI
100
AcDbLine
 62
250
  6
CONTINUOUS
 10
-10.528631018
 20
8.2565449016
 11
-9.3268229866
 21
8.2565449016
  0
LINE
  5
637
100
AcDbEntity
  8
ASSI
100
AcDbLine
 62
250
  6
CONTINUOUS
 10
10.1768229866
 20
8.2565449016
 11
11.378631018
 21
8.2565449016
  0
LINE
  5
638
100
AcDbEntity
  8
ASSI
100
AcDbLine
 62
7
  6
CONTINUOUS
 10
4.6338189057
 20
8.3950136038
 11
0.875
 21
8.3950136038
  0
LINE
  5
639
100
AcDbEntity
  8
ASSI
100
AcDbLine
 62
7
  6
CONTINUOUS
 10
-8.925
 20
8.3950136038
 11
-9.1863093364
 21
8.3950136038
  0
LINE
  5
63A
100
AcDbEntity
  8
ASSI
100
AcDbLine
 62
7
  6
CONTINUOUS
 10
-9.1863093364
 20
8.3970585518
 11
-10.2475823135
 21
8.3970585518
  0
LINE
  5
63B
100
AcDbEntity
  8
ASSI
100
AcDbLine
 62
7
  6
CONTINUOUS
 10
9.9739230612
 20
8.459444827
 11
9.925
 21
8.459444827
  0
LINE
  5
63C
100
AcDbEntity
  8
ASSI
100
AcDbLine
 62
7
  6
CONTINUOUS
 10
10.9466176626
 20
8.4725351287
 11
9.925
 21
8.4725351287
  0
LINE
  5
63D
100
AcDbEntity
  8
ASSI
100
AcDbLine
 62
7
  6
CONTINUOUS
 10
4.7388053019
 20
8.5
 11
0.875
 21
8.5
  0
LINE
  5
63E
100
AcDbEntity
  8
ASSI
100
AcDbLine
 62
7
  6
CONTINUOUS
 10
-8.925
 20
8.5
 11
-9.1858530224
 21
8.5
  0
LINE
  5
63F
100
AcDbEntity
  8
CURVE
100
AcDbLine
 62
250
  6
CONTINUOUS
 10
8.3535714507
 20
8.6047619343
 11
7.425
 21
8.6047619343
  0
LINE
  5
640
100
AcDbEntity
  8
CURVE
100
AcDbLine
 62
250
  6
CONTINUOUS
 10
-6.6464285493
 20
8.7952380657
 11
-6.4607142746
 21
8.7952380657
  0
LINE
  5
641
100
AcDbEntity
  8
CURVE
100
AcDbLine
 62
250
  6
CONTINUOUS
 10
11.4747430049
 20
9.0
 11
11.5009216146
 21
9.0
  0
LINE
  5
642
100
AcDbEntity
  8
CURVE
100
AcDbLine
 62
250
  6
CONTINUOUS
 10
7.425
 20
9.0071429014
 11
8.3535714507
 21
9.0071429014
  0
LINE
  5
643
100
AcDbEntity
  8
CURVE
100
AcDbLine
 62
250
  6
CONTINUOUS
 10
-10.5899628526
 20
9.0285713315
 11
-10.5946999341
 21
9.0285713315
  0
LINE
  5
644
100
AcDbEntity
  8
ASSI
100
AcDbLine
 62
7
  6
CONTINUOUS
 10
0.875
 20
9.15
 11
5.175
 21
9.15
  0
LINE
  5
645
100
AcDbEntity
  8
ASSI
100
AcDbLine
 62
7
  6
CONTINUOUS
 10
10.9466176626
 20
3.4725351287
 11
11.378631018
 21
3.2565449016
  0
LINE
  5
646
100
AcDbEntity
  8
ASSI
100
AcDbLine
 62
7
  6
CONTINUOUS
 10
5.882
 20
5.143
 11
5.175
 21
5.85
  0
LINE
  5
647
100
AcDbEntity
  8
ASSI
100
AcDbLine
 62
7
  6
CONTINUOUS
 10
-6.615555173
 20
17.6989230612
 11
-6.8184550984
 21
17.9018229866
  0
LINE
  5
648
100
AcDbEntity
  8
ASSI
100
AcDbLine
 62
7
  6
CONTINUOUS
 10
-3.975
 20
22.4
 11
-3.9309327327
 21
22.3338981669
  0
LINE
  5
649
100
AcDbEntity
  8
ASSI
100
AcDbLine
 62
250
  6
CONTINUOUS
 10
10.8206323968
 20
23.6278312164
 11
10.8257229979
 21
23.1226497308
  0
LINE
  5
64A
100
AcDbEntity
  8
CURVE
100
AcDbLine
 62
250
  6
CONTINUOUS
 10
9.773467
 20
-15.303874
 11
9.773467
 21
-16.22316
  0
LINE
  5
64B
100
AcDbEntity
  8
ASSI
100
AcDbLine
 62
7
  6
CONTINUOUS
 10
9.925
 20
-13.4725351287
 11
9.925
 21
-11.5274648713
  0
LINE
  5
64C
100
AcDbEntity
  8
ASSI
100
AcDbLine
 62
7
  6
CONTINUOUS
 10
9.925
 20
-8.4725351287
 11
9.925
 21
-6.5274648713
  0
LINE
  5
64D
100
AcDbEntity
  8
ASSI
100
AcDbLine
 62
7
  6
CONTINUOUS
 10
9.925
 20
-3.4725351287
 11
9.925
 21
-1.5274648713
  0
LINE
  5
64E
100
AcDbEntity
  8
ASSI
100
AcDbLine
 62
7
  6
CONTINUOUS
 10
9.925
 20
1.5274648713
 11
9.925
 21
3.4725351287
  0
LINE
  5
64F
100
AcDbEntity
  8
ASSI
100
AcDbLine
 62
7
  6
CONTINUOUS
 10
9.925
 20
6.5274648713
 11
9.925
 21
8.4725351287
  0
LINE
  5
650
100
AcDbEntity
  8
ASSI
100
AcDbLine
 62
7
  6
CONTINUOUS
 10
9.925
 20
11.5274648713
 11
9.925
 21
13.4725351287
  0
LINE
  5
651
100
AcDbEntity
  8
ASSI
100
AcDbLine
 62
7
  6
CONTINUOUS
 10
10.075
 20
-20.0671699049
 11
10.075
 21
-20.0
  0
LINE
  5
652
100
AcDbEntity
  8
ASSI
100
AcDbLine
 62
7
  6
CONTINUOUS
 10
10.075
 20
-13.3583678882
 11
10.075
 21
-11.6416321118
  0
LINE
  5
653
100
AcDbEntity
  8
ASSI
100
AcDbLine
 62
7
  6
CONTINUOUS
 10
10.075
 20
-8.3583678882
 11
10.075
 21
-6.6416321118
  0
LINE
  5
654
100
AcDbEntity
  8
ASSI
100
AcDbLine
 62
7
  6
CONTINUOUS
 10
10.075
 20
-3.3583678882
 11
10.075
 21
-1.6416321118
  0
LINE
  5
655
100
AcDbEntity
  8
ASSI
100
AcDbLine
 62
7
  6
CONTINUOUS
 10
10.075
 20
1.6416321118
 11
10.075
 21
3.3583678882
  0
LINE
  5
656
100
AcDbEntity
  8
ASSI
100
AcDbLine
 62
7
  6
CONTINUOUS
 10
10.075
 20
6.6416321118
 11
10.075
 21
8.3583678882
  0
LINE
  5
657
100
AcDbEntity
  8
ASSI
100
AcDbLine
 62
7
  6
CONTINUOUS
 10
10.075
 20
11.6416321118
 11
10.075
 21
13.3583678882
  0
LINE
  5
658
100
AcDbEntity
  8
ASSI
100
AcDbLine
 62
7
  6
CONTINUOUS
 10
10.075
 20
20.0
 11
10.075
 21
20.0671699049
  0
LINE
  5
659
100
AcDbEntity
  8
ASSI
100
AcDbLine
 62
250
  6
CONTINUOUS
 10
10.8206323968
 20
-23.6278312164
 11
10.8206323968
 21
-24.495628166
  0
LINE
  5
65A
100
AcDbEntity
  8
ASSI
100
AcDbLine
 62
250
  6
CONTINUOUS
 10
10.8206323968
 20
23.6278312164
 11
10.8206323968
 21
24.495628166
  0
LINE
  5
65B
100
AcDbEntity
  8
ASSI
100
AcDbLine
 62
7
  6
CONTINUOUS
 10
10.9466176626
 20
-17.4114145622
 11
10.9466176626
 21
-13.4725351287
  0
LINE
  5
65C
100
AcDbEntity
  8
ASSI
100
AcDbLine
 62
7
  6
CONTINUOUS
 10
10.9466176626
 20
-11.5274648713
 11
10.9466176626
 21
-8.4725351287
  0
LINE
  5
65D
100
AcDbEntity
  8
ASSI
100
AcDbLine
 62
7
  6
CONTINUOUS
 10
10.9466176626
 20
-6.5274648713
 11
10.9466176626
 21
-3.4725351287
  0
LINE
  5
65E
100
AcDbEntity
  8
ASSI
100
AcDbLine
 62
7
  6
CONTINUOUS
 10
10.9466176626
 20
-1.5274648713
 11
10.9466176626
 21
1.5274648713
  0
LINE
  5
65F
100
AcDbEntity
  8
ASSI
100
AcDbLine
 62
7
  6
CONTINUOUS
 10
10.9466176626
 20
3.4725351287
 11
10.9466176626
 21
6.5274648713
  0
LINE
  5
660
100
AcDbEntity
  8
ASSI
100
AcDbLine
 62
7
  6
CONTINUOUS
 10
10.9466176626
 20
8.4725351287
 11
10.9466176626
 21
11.5274648713
  0
LINE
  5
661
100
AcDbEntity
  8
ASSI
100
AcDbLine
 62
7
  6
CONTINUOUS
 10
10.9466176626
 20
13.4725351287
 11
10.9466176626
 21
17.4114145622
  0
LINE
  5
662
100
AcDbEntity
  8
ASSI
100
AcDbLine
 62
7
  6
CONTINUOUS
 10
11.070628166
 20
-24.2456323968
 11
11.070628166
 21
-23.8443375673
  0
LINE
  5
663
100
AcDbEntity
  8
ASSI
100
AcDbLine
 62
7
  6
CONTINUOUS
 10
11.070628166
 20
23.8443375673
 11
11.070628166
 21
24.2456323968
  0
LINE
  5
664
100
AcDbEntity
  8
ASSI
100
AcDbLine
 62
7
  6
CONTINUOUS
 10
11.075
 20
-22.399689968
 11
11.075
 21
-23.8443375673
  0
LINE
  5
665
100
AcDbEntity
  8
ASSI
100
AcDbLine
 62
7
  6
CONTINUOUS
 10
11.075
 20
22.399689968
 11
11.075
 21
23.8443375673
  0
LINE
  5
666
100
AcDbEntity
  8
ASSI
100
AcDbLine
 62
250
  6
CONTINUOUS
 10
10.8257229979
 20
-23.1226497308
 11
10.8206323968
 21
-23.6278312164
  0
LINE
  5
667
100
AcDbEntity
  8
CURVE
100
AcDbLine
 62
250
  6
CONTINUOUS
 10
11.5516426708
 20
11.8617021143
 11
11.5532788339
 21
11.8936170042
  0
LINE
  5
668
100
AcDbEntity
  8
CURVE
100
AcDbLine
 62
250
  6
CONTINUOUS
 10
11.5271002242
 20
11.223404251
 11
11.5249186732
 21
11.1914893612
  0
LINE
  5
669
100
AcDbEntity
  8
CURVE
100
AcDbLine
 62
250
  6
CONTINUOUS
 10
11.5538242226
 20
11.7021276653
 11
11.551097282
 21
11.6702127755
  0
LINE
  5
66A
100
AcDbEntity
  8
CURVE
100
AcDbLine
 62
250
  6
CONTINUOUS
 10
11.5249186732
 20
11.0
 11
11.5276456114
 21
11.0319148926
  0
LINE
  5
66B
100
AcDbEntity
  8
ASSI
100
AcDbLine
 62
7
  6
CONTINUOUS
 10
7.7767786853
 20
-20.4335707644
 11
7.725
 21
-20.9
  0
LINE
  5
66C
100
AcDbEntity
  8
ASSI
100
AcDbLine
 62
250
  6
CONTINUOUS
 10
-6.2749966154
 20
-19.7
 11
-6.3311862866
 21
-19.7561896713
  0
LINE
  5
66D
100
AcDbEntity
  8
ASSI
100
AcDbLine
 62
7
  6
CONTINUOUS
 10
9.9739230612
 20
-3.459444827
 11
10.1768229866
 21
-3.2565449016
  0
LINE
  5
66E
100
AcDbEntity
  8
ASSI
100
AcDbLine
 62
250
  6
CONTINUOUS
 10
-6.0232213147
 20
-19.8482179301
 11
-6.1311896713
 21
-19.9561862866
  0
LINE
  5
66F
100
AcDbEntity
  8
CURVE
100
AcDbLine
 62
250
  6
CONTINUOUS
 10
-10.5946999341
 20
9.571428442
 11
-10.5852257712
 21
9.571428442
  0
LINE
  5
670
100
AcDbEntity
  8
ASSI
100
AcDbLine
 62
7
  6
CONTINUOUS
 10
-10.2144393508
 20
9.6
 11
-8.925
 21
9.6
  0
LINE
  5
671
100
AcDbEntity
  8
ASSI
100
AcDbLine
 62
7
  6
CONTINUOUS
 10
0.168
 20
9.857
 11
5.882
 21
9.857
  0
LINE
  5
672
100
AcDbEntity
  8
ASSI
100
AcDbLine
 62
7
  6
CONTINUOUS
 10
5.882
 20
10.143
 11
0.168
 21
10.143
  0
LINE
  5
673
100
AcDbEntity
  8
CURVE
100
AcDbLine
 62
250
  6
CONTINUOUS
 10
-10.6292852826
 20
10.292325
 11
-10.6798895703
 21
10.292325
  0
LINE
  5
674
100
AcDbEntity
  8
CURVE
100
AcDbLine
 62
250
  6
CONTINUOUS
 10
8.3535714507
 20
10.4
 11
7.796428588
 21
10.4
  0
LINE
  5
675
100
AcDbEntity
  8
ASSI
100
AcDbLine
 62
7
  6
CONTINUOUS
 10
-10.2153121041
 20
10.4
 11
-8.925
 21
10.4
  0
LINE
  5
676
100
AcDbEntity
  8
CURVE
100
AcDbLine
 62
250
  6
CONTINUOUS
 10
-10.5852257712
 20
10.521428442
 11
-10.5946999341
 21
10.521428442
  0
LINE
  5
677
100
AcDbEntity
  8
ASSI
100
AcDbLine
 62
7
  6
CONTINUOUS
 10
5.175
 20
10.85
 11
0.875
 21
10.85
  0
LINE
  5
678
100
AcDbEntity
  8
CURVE
100
AcDbLine
 62
250
  6
CONTINUOUS
 10
-10.6716376366
 20
10.87477
 11
-10.6292852826
 21
10.87477
  0
LINE
  5
679
100
AcDbEntity
  8
CURVE
100
AcDbLine
 62
250
  6
CONTINUOUS
 10
11.5412803034
 20
11.0
 11
11.5380079788
 21
11.0
  0
LINE
  5
67A
100
AcDbEntity
  8
CURVE
100
AcDbLine
 62
250
  6
CONTINUOUS
 10
11.5227371229
 20
11.0
 11
11.5249186732
 21
11.0
  0
LINE
  5
67B
100
AcDbEntity
  8
CURVE
100
AcDbLine
 62
250
  6
CONTINUOUS
 10
7.796428588
 20
11.05
 11
8.3535714507
 21
11.05
  0
LINE
  5
67C
100
AcDbEntity
  8
ASSI
100
AcDbLine
 62
250
  6
CONTINUOUS
 10
-9.1829516247
 20
10.9945854608
 11
-9.1455995878
 21
10.991317581
  0
LINE
  5
67D
100
AcDbEntity
  8
ASSI
100
AcDbLine
 62
250
  6
CONTINUOUS
 10
-9.225
 20
11.8730176027
 11
-9.0696499221
 21
11.859426232
  0
LINE
  5
67E
100
AcDbEntity
  8
CURVE
100
AcDbLine
 62
250
  6
CONTINUOUS
 10
7.425
 20
7.8
 11
8.725
 21
7.4285716057
  0
LINE
  5
67F
100
AcDbEntity
  8
CURVE
100
AcDbLine
 62
250
  6
CONTINUOUS
 10
-7.575
 20
12.2
 11
-6.275
 21
11.8285714507
  0
LINE
  5
680
100
AcDbEntity
  8
ASSI
100
AcDbLine
 62
250
  6
CONTINUOUS
 10
-6.2749966154
 20
19.7
 11
-6.3311862866
 21
19.7561896713
  0
LINE
  5
681
100
AcDbEntity
  8
ASSI
100
AcDbLine
 62
7
  6
CONTINUOUS
 10
9.9739230612
 20
3.459444827
 11
10.1768229866
 21
3.2565449016
  0
LINE
  5
682
100
AcDbEntity
  8
ASSI
100
AcDbLine
 62
250
  6
CONTINUOUS
 10
-6.0232213147
 20
19.8482179301
 11
-6.1311896713
 21
19.9561862866
  0
LINE
  5
683
100
AcDbEntity
  8
ASSI
100
AcDbLine
 62
7
  6
CONTINUOUS
 10
0.168
 20
14.857
 11
0.875
 21
14.15
  0
LINE
  5
684
100
AcDbEntity
  8
CURVE
100
AcDbLine
 62
250
  6
CONTINUOUS
 10
11.4923874525
 20
-1.880593
 11
11.5429387841
 21
-2.149839
  0
LINE
  5
685
100
AcDbEntity
  8
ASSI
100
AcDbLine
 62
7
  6
CONTINUOUS
 10
7.725
 20
20.9
 11
7.7767786853
 21
20.4335707644
  0
LINE
  5
686
100
AcDbEntity
  8
CURVE
100
AcDbLine
 62
250
  6
CONTINUOUS
 10
11.5200101842
 20
11.0319148926
 11
11.5227371229
 21
11.0
  0
LINE
  5
687
100
AcDbEntity
  8
CURVE
100
AcDbLine
 62
250
  6
CONTINUOUS
 10
11.551097282
 20
12.5
 11
11.5538242226
 21
12.4680851102
  0
LINE
  5
688
100
AcDbEntity
  8
CURVE
100
AcDbLine
 62
250
  6
CONTINUOUS
 10
11.5227371229
 20
11.1914893612
 11
11.5205555718
 21
11.223404251
  0
LINE
  5
689
100
AcDbEntity
  8
CURVE
100
AcDbLine
 62
250
  6
CONTINUOUS
 10
11.5532788339
 20
12.3085106611
 11
11.5516426708
 21
12.3404255509
  0
LINE
  5
68A
100
AcDbEntity
  8
CURVE
100
AcDbLine
 62
250
  6
CONTINUOUS
 10
11.5178286332
 20
11.0957446806
 11
11.5200101842
 21
11.0319148926
  0
LINE
  5
68B
100
AcDbEntity
  8
CURVE
100
AcDbLine
 62
250
  6
CONTINUOUS
 10
11.5205555718
 20
11.223404251
 11
11.5189194087
 21
11.287234053
  0
LINE
  5
68C
100
AcDbEntity
  8
CURVE
100
AcDbLine
 62
250
  6
CONTINUOUS
 10
11.5538242226
 20
12.4680851102
 11
11.5560057713
 21
12.3723404408
  0
LINE
  5
68D
100
AcDbEntity
  8
CURVE
100
AcDbLine
 62
250
  6
CONTINUOUS
 10
11.4718301583
 20
1.375622
 11
11.5592715663
 21
-3.56101
  0
LINE
  5
68E
100
AcDbEntity
  8
CURVE
100
AcDbLine
 62
250
  6
CONTINUOUS
 10
11.5156470825
 20
11.223404251
 11
11.5178286332
 21
11.0957446806
  0
LINE
  5
68F
100
AcDbEntity
  8
CURVE
100
AcDbLine
 62
250
  6
CONTINUOUS
 10
11.5543696082
 20
12.2446808815
 11
11.5532788339
 21
12.3085106611
  0
LINE
  5
690
100
AcDbEntity
  8
CURVE
100
AcDbLine
 62
250
  6
CONTINUOUS
 10
11.4894701819
 20
5.0
 11
11.5095053699
 21
3.521087
  0
LINE
  5
691
100
AcDbEntity
  8
CURVE
100
AcDbLine
 62
250
  6
CONTINUOUS
 10
11.5560057713
 20
12.3723404408
 11
11.5576419344
 21
12.2446808815
  0
LINE
  5
692
100
AcDbEntity
  8
CURVE
100
AcDbLine
 62
250
  6
CONTINUOUS
 10
11.5189194087
 20
11.287234053
 11
11.5178286332
 21
11.3829787225
  0
LINE
  5
693
100
AcDbEntity
  8
ASSI
100
AcDbLine
 62
250
  6
CONTINUOUS
 10
11.070628166
 20
23.8443375673
 11
11.075
 21
23.4104851482
  0
LINE
  5
694
100
AcDbEntity
  8
CURVE
100
AcDbLine
 62
250
  6
CONTINUOUS
 10
11.5140109194
 20
14.0
 11
11.4878323097
 21
16.5980762114
  0
LINE
  5
695
100
AcDbEntity
  8
CURVE
100
AcDbLine
 62
250
  6
CONTINUOUS
 10
11.5145563071
 20
11.3510638326
 11
11.5156470825
 21
11.223404251
  0
LINE
  5
696
100
AcDbEntity
  8
CURVE
100
AcDbLine
 62
250
  6
CONTINUOUS
 10
11.554914997
 20
12.1489362121
 11
11.5543696082
 21
12.2446808815
  0
LINE
  5
697
100
AcDbEntity
  8
CURVE
100
AcDbLine
 62
250
  6
CONTINUOUS
 10
11.5576419344
 20
12.2446808815
 11
11.5581873232
 21
12.1489362121
  0
LINE
  5
698
100
AcDbEntity
  8
ASSI
100
AcDbLine
 62
250
  6
CONTINUOUS
 10
11.0706238859
 20
24.2470868299
 11
11.070628166
 21
24.2456323968
  0
LINE
  5
699
100
AcDbEntity
  8
CURVE
100
AcDbLine
 62
250
  6
CONTINUOUS
 10
11.4353594806
 20
-3.092362
 11
11.4353594806
 21
1.092362
  0
LINE
  5
69A
100
AcDbEntity
  8
CURVE
100
AcDbLine
 62
250
  6
CONTINUOUS
 10
11.4407108124
 20
-4.5
 11
11.4407108124
 21
-9.5
  0
LINE
  5
69B
100
AcDbEntity
  8
CURVE
100
AcDbLine
 62
250
  6
CONTINUOUS
 10
11.4458406841
 20
4.405307
 11
11.4458406841
 21
5.0
  0
LINE
  5
69C
100
AcDbEntity
  8
CURVE
100
AcDbLine
 62
250
  6
CONTINUOUS
 10
11.4531436922
 20
1.092362
 11
11.4531436922
 21
-3.092362
  0
LINE
  5
69D
100
AcDbEntity
  8
CURVE
100
AcDbLine
 62
250
  6
CONTINUOUS
 10
11.4577571
 20
5.275321
 11
11.4577571
 21
4.724679
  0
LINE
  5
69E
100
AcDbEntity
  8
CURVE
100
AcDbLine
 62
250
  6
CONTINUOUS
 10
11.4625263204
 20
-5.75
 11
11.4625263204
 21
-8.25
  0
LINE
  5
69F
100
AcDbEntity
  8
CURVE
100
AcDbLine
 62
250
  6
CONTINUOUS
 10
11.4747430049
 20
9.0
 11
11.4747430049
 21
14.0
  0
LINE
  5
6A0
100
AcDbEntity
  8
CURVE
100
AcDbLine
 62
250
  6
CONTINUOUS
 10
11.4810489205
 20
-16.56041
 11
11.4810489205
 21
-15.071874
  0
LINE
  5
6A1
100
AcDbEntity
  8
CURVE
100
AcDbLine
 62
250
  6
CONTINUOUS
 10
11.481312295
 20
-0.399503
 11
11.481312295
 21
-0.281883
  0
LINE
  5
6A2
100
AcDbEntity
  8
CURVE
100
AcDbLine
 62
250
  6
CONTINUOUS
 10
11.4847407854
 20
-0.225174
 11
11.4847407854
 21
-1.571041
  0
LINE
  5
6A3
100
AcDbEntity
  8
CURVE
100
AcDbLine
 62
250
  6
CONTINUOUS
 10
11.4944000114
 20
-16.56041
 11
11.4944000114
 21
-15.071874
  0
LINE
  5
6A4
100
AcDbEntity
  8
CURVE
100
AcDbLine
 62
250
  6
CONTINUOUS
 10
11.5009216146
 20
9.0
 11
11.5009216146
 21
14.0
  0
LINE
  5
6A5
100
AcDbEntity
  8
CURVE
100
AcDbLine
 62
250
  6
CONTINUOUS
 10
11.5061573365
 20
-5.75
 11
11.5061573365
 21
-8.25
  0
LINE
  5
6A6
100
AcDbEntity
  8
CURVE
100
AcDbLine
 62
250
  6
CONTINUOUS
 10
11.5140109194
 20
12.5
 11
11.5145563071
 21
11.3510638326
  0
LINE
  5
6A7
100
AcDbEntity
  8
CURVE
100
AcDbLine
 62
250
  6
CONTINUOUS
 10
11.5178286332
 20
11.3829787225
 11
11.5172832456
 21
12.5
  0
LINE
  5
6A8
100
AcDbEntity
  8
CURVE
100
AcDbLine
 62
250
  6
CONTINUOUS
 10
11.5211832637
 20
5.275321
 11
11.5211832637
 21
4.724679
  0
LINE
  5
6A9
100
AcDbEntity
  8
CURVE
100
AcDbLine
 62
250
  6
CONTINUOUS
 10
11.5252093381
 20
-1.61141
 11
11.5252093381
 21
-0.78807
  0
LINE
  5
6AA
100
AcDbEntity
  8
CURVE
100
AcDbLine
 62
250
  6
CONTINUOUS
 10
11.5279728445
 20
-4.5
 11
11.5279728445
 21
-9.5
  0
LINE
  5
6AB
100
AcDbEntity
  8
CURVE
100
AcDbLine
 62
250
  6
CONTINUOUS
 10
11.5289727052
 20
-0.78807
 11
11.5289727052
 21
-1.61141
  0
LINE
  5
6AC
100
AcDbEntity
  8
CURVE
100
AcDbLine
 62
250
  6
CONTINUOUS
 10
11.5305855868
 20
-2.417947
 11
11.5305855868
 21
-2.067887
  0
LINE
  5
6AD
100
AcDbEntity
  8
CURVE
100
AcDbLine
 62
250
  6
CONTINUOUS
 10
11.53708598
 20
-2.067887
 11
11.53708598
 21
-2.417947
  0
LINE
  5
6AE
100
AcDbEntity
  8
CURVE
100
AcDbLine
 62
250
  6
CONTINUOUS
 10
11.5380079788
 20
11.0
 11
11.5380079788
 21
12.5
  0
LINE
  5
6AF
100
AcDbEntity
  8
CURVE
100
AcDbLine
 62
250
  6
CONTINUOUS
 10
11.5412803034
 20
12.3404255509
 11
11.5412803034
 21
11.8617021143
  0
LINE
  5
6B0
100
AcDbEntity
  8
CURVE
100
AcDbLine
 62
250
  6
CONTINUOUS
 10
11.5412803034
 20
11.6702127755
 11
11.5412803034
 21
11.0
  0
LINE
  5
6B1
100
AcDbEntity
  8
CURVE
100
AcDbLine
 62
250
  6
CONTINUOUS
 10
11.5434196328
 20
0.309973
 11
11.5434196328
 21
-2.127934
  0
LINE
  5
6B2
100
AcDbEntity
  8
CURVE
100
AcDbLine
 62
250
  6
CONTINUOUS
 10
11.5481237544
 20
-1.416076
 11
11.5481334928
 21
-0.843073
  0
LINE
  5
6B3
100
AcDbEntity
  8
CURVE
100
AcDbLine
 62
250
  6
CONTINUOUS
 10
11.5503066665
 20
-0.218216
 11
11.5503066665
 21
-0.31759
  0
LINE
  5
6B4
100
AcDbEntity
  8
CURVE
100
AcDbLine
 62
250
  6
CONTINUOUS
 10
11.5519292865
 20
-0.843073
 11
11.5519195481
 21
-1.416076
  0
LINE
  5
6B5
100
AcDbEntity
  8
CURVE
100
AcDbLine
 62
250
  6
CONTINUOUS
 10
11.554914997
 20
12.0531914532
 11
11.554914997
 21
12.1489362121
  0
LINE
  5
6B6
100
AcDbEntity
  8
CURVE
100
AcDbLine
 62
250
  6
CONTINUOUS
 10
11.5581873232
 20
12.1489362121
 11
11.5581873232
 21
12.0212765634
  0
LINE
  5
6B7
100
AcDbEntity
  8
ASSI
100
AcDbLine
 62
7
  6
CONTINUOUS
 10
11.575
 20
-21.8911779406
 11
11.575
 21
21.8911779406
  0
LINE
  5
6B8
100
AcDbEntity
  8
CURVE
100
AcDbLine
 62
250
  6
CONTINUOUS
 10
11.5330994894
 20
11.3510638326
 11
11.5336448766
 21
12.5
  0
LINE
  5
6B9
100
AcDbEntity
  8
CURVE
100
AcDbLine
 62
250
  6
CONTINUOUS
 10
11.5303725504
 20
12.5
 11
11.5298271632
 21
11.3829787225
  0
LINE
  5
6BA
100
AcDbEntity
  8
CURVE
100
AcDbLine
 62
250
  6
CONTINUOUS
 10
11.5543696082
 20
11.9574467838
 11
11.554914997
 21
12.0531914532
  0
LINE
  5
6BB
100
AcDbEntity
  8
CURVE
100
AcDbLine
 62
250
  6
CONTINUOUS
 10
11.5581873232
 20
12.0212765634
 11
11.5576419344
 21
11.925531894
  0
LINE
  5
6BC
100
AcDbEntity
  8
CURVE
100
AcDbLine
 62
250
  6
CONTINUOUS
 10
11.5320087135
 20
11.223404251
 11
11.5330994894
 21
11.3510638326
  0
LINE
  5
6BD
100
AcDbEntity
  8
ASSI
100
AcDbLine
 62
250
  6
CONTINUOUS
 10
11.075
 20
-23.4104851482
 11
11.070628166
 21
-23.8443375673
  0
LINE
  5
6BE
100
AcDbEntity
  8
CURVE
100
AcDbLine
 62
250
  6
CONTINUOUS
 10
11.4616537001
 20
14.0
 11
11.4878323097
 21
16.5980762114
  0
LINE
  5
6BF
100
AcDbEntity
  8
CURVE
100
AcDbLine
 62
250
  6
CONTINUOUS
 10
11.5298271632
 20
11.3829787225
 11
11.5287363873
 21
11.287234053
  0
LINE
  5
6C0
100
AcDbEntity
  8
CURVE
100
AcDbLine
 62
250
  6
CONTINUOUS
 10
11.5576419344
 20
11.925531894
 11
11.5560057713
 21
11.7978723347
  0
LINE
  5
6C1
100
AcDbEntity
  8
CURVE
100
AcDbLine
 62
250
  6
CONTINUOUS
 10
11.5095053699
 20
6.478913
 11
11.4894701819
 21
5.0
  0
LINE
  5
6C2
100
AcDbEntity
  8
CURVE
100
AcDbLine
 62
250
  6
CONTINUOUS
 10
11.5298271632
 20
11.0957446806
 11
11.5320087135
 21
11.223404251
  0
LINE
  5
6C3
100
AcDbEntity
  8
CURVE
100
AcDbLine
 62
250
  6
CONTINUOUS
 10
11.5532788339
 20
11.8936170042
 11
11.5543696082
 21
11.9574467838
  0
LINE
  5
6C4
100
AcDbEntity
  8
CURVE
100
AcDbLine
 62
250
  6
CONTINUOUS
 10
11.5588583806
 20
1.50013
 11
11.4719927623
 21
-3.231556
  0
LINE
  5
6C5
100
AcDbEntity
  8
CURVE
100
AcDbLine
 62
250
  6
CONTINUOUS
 10
11.5560057713
 20
11.7978723347
 11
11.5538242226
 21
11.7021276653
  0
LINE
  5
6C6
100
AcDbEntity
  8
CURVE
100
AcDbLine
 62
250
  6
CONTINUOUS
 10
11.5287363873
 20
11.287234053
 11
11.5271002242
 21
11.223404251
  0
LINE
  5
6C7
100
AcDbEntity
  8
CURVE
100
AcDbLine
 62
250
  6
CONTINUOUS
 10
11.5276456114
 20
11.0319148926
 11
11.5298271632
 21
11.0957446806
  0
LINE
  5
6C8
100
AcDbEntity
  8
CURVE
100
AcDbLine
 62
250
  6
CONTINUOUS
 10
11.5434196328
 20
0.068876
 11
11.4847407854
 21
-0.225174
  0
LINE
  5
6C9
100
AcDbEntity
  8
ASSI
100
AcDbLine
 62
7
  6
CONTINUOUS
 10
3.3975351287
 20
-19.1571474807
 11
3.1815449016
 21
-19.5891608362
  0
LINE
  5
6CA
100
AcDbEntity
  8
CURVE
100
AcDbLine
 62
250
  6
CONTINUOUS
 10
5.011567
 20
-15.099588
 11
4.784809
 21
-15.50816
  0
LINE
  5
6CB
100
AcDbEntity
  8
ASSI
100
AcDbLine
 62
7
  6
CONTINUOUS
 10
-1.615555173
 20
-17.6989230612
 11
-1.8184550984
 21
-17.9018229866
  0
LINE
  5
6CC
100
AcDbEntity
  8
ASSI
100
AcDbLine
 62
7
  6
CONTINUOUS
 10
-3.075
 20
-19.7
 11
-2.9859791689
 21
-19.6109791689
  0
LINE
  5
6CD
100
AcDbEntity
  8
ASSI
100
AcDbLine
 62
7
  6
CONTINUOUS
 10
-3.075
 20
-19.9
 11
-2.9859791689
 21
-19.8109791689
  0
LINE
  5
6CE
100
AcDbEntity
  8
ASSI
100
AcDbLine
 62
7
  6
CONTINUOUS
 10
-2.075
 20
-19.9
 11
-2.0729803239
 21
-19.8979803239
  0
LINE
  5
6CF
100
AcDbEntity
  8
ASSI
100
AcDbLine
 62
7
  6
CONTINUOUS
 10
10.9466176626
 20
-8.4725351287
 11
11.378631018
 21
-8.2565449016
  0
LINE
  5
6D0
100
AcDbEntity
  8
ASSI
100
AcDbLine
 62
250
  6
CONTINUOUS
 10
-10.725
 20
-17.6716990487
 11
-10.0966176626
 21
-17.4114145622
  0
LINE
  5
6D1
100
AcDbEntity
  8
CURVE
100
AcDbLine
 62
250
  6
CONTINUOUS
 10
11.5249186732
 20
11.1914893612
 11
11.5227371229
 21
11.1914893612
  0
LINE
  5
6D2
100
AcDbEntity
  8
CURVE
100
AcDbLine
 62
250
  6
CONTINUOUS
 10
7.517857147
 20
11.4214285493
 11
7.9821428627
 21
11.4214285493
  0
LINE
  5
6D3
100
AcDbEntity
  8
CURVE
100
AcDbLine
 62
250
  6
CONTINUOUS
 10
8.2607142746
 20
11.4523809671
 11
8.5392857254
 21
11.4523809671
  0
LINE
  5
6D4
100
AcDbEntity
  8
ASSI
100
AcDbLine
 62
7
  6
CONTINUOUS
 10
10.9466176626
 20
11.5274648713
 11
9.925
 21
11.5274648713
  0
LINE
  5
6D5
100
AcDbEntity
  8
ASSI
100
AcDbLine
 62
7
  6
CONTINUOUS
 10
9.9739230612
 20
11.540555173
 11
9.925
 21
11.540555173
  0
LINE
  5
6D6
100
AcDbEntity
  8
ASSI
100
AcDbLine
 62
7
  6
CONTINUOUS
 10
-9.1867474857
 20
11.6033795975
 11
-10.2484586789
 21
11.6033795975
  0
LINE
  5
6D7
100
AcDbEntity
  8
CURVE
100
AcDbLine
 62
250
  6
CONTINUOUS
 10
11.551097282
 20
11.6702127755
 11
11.5412803034
 21
11.6702127755
  0
LINE
  5
6D8
100
AcDbEntity
  8
ASSI
100
AcDbLine
 62
250
  6
CONTINUOUS
 10
11.378631018
 20
11.7434550984
 11
10.1768229866
 21
11.7434550984
  0
LINE
  5
6D9
100
AcDbEntity
  8
ASSI
100
AcDbLine
 62
250
  6
CONTINUOUS
 10
-10.528631018
 20
11.7434550984
 11
-9.3268229866
 21
11.7434550984
  0
LINE
  5
6DA
100
AcDbEntity
  8
CURVE
100
AcDbLine
 62
250
  6
CONTINUOUS
 10
11.5412803034
 20
11.8617021143
 11
11.5516426708
 21
11.8617021143
  0
LINE
  5
6DB
100
AcDbEntity
  8
CURVE
100
AcDbLine
 62
250
  6
CONTINUOUS
 10
-10.5899628526
 20
12.014285779
 11
-10.5946999341
 21
12.014285779
  0
LINE
  5
6DC
100
AcDbEntity
  8
CURVE
100
AcDbLine
 62
250
  6
CONTINUOUS
 10
-10.6397880593
 20
12.328754
 11
-10.6798895703
 21
12.328754
  0
LINE
  5
6DD
100
AcDbEntity
  8
CURVE
100
AcDbLine
 62
250
  6
CONTINUOUS
 10
11.5516426708
 20
12.3404255509
 11
11.5412803034
 21
12.3404255509
  0
LINE
  5
6DE
100
AcDbEntity
  8
CURVE
100
AcDbLine
 62
250
  6
CONTINUOUS
 10
8.3535714507
 20
12.35
 11
8.5392857254
 21
12.35
  0
LINE
  5
6DF
100
AcDbEntity
  8
CURVE
100
AcDbLine
 62
250
  6
CONTINUOUS
 10
11.5172832456
 20
12.5
 11
11.5140109194
 21
12.5
  0
LINE
  5
6E0
100
AcDbEntity
  8
CURVE
100
AcDbLine
 62
250
  6
CONTINUOUS
 10
11.5336448766
 20
12.5
 11
11.5303725504
 21
12.5
  0
LINE
  5
6E1
100
AcDbEntity
  8
CURVE
100
AcDbLine
 62
250
  6
CONTINUOUS
 10
11.5380079788
 20
12.5
 11
11.551097282
 21
12.5
  0
LINE
  5
6E2
100
AcDbEntity
  8
CURVE
100
AcDbLine
 62
250
  6
CONTINUOUS
 10
-10.5694354979
 20
12.828571558
 11
-10.5702250115
 21
12.828571558
  0
LINE
  5
6E3
100
AcDbEntity
  8
ASSI
100
AcDbLine
 62
250
  6
CONTINUOUS
 10
-10.0966176626
 20
17.4114145622
 11
-10.725
 21
17.6716990487
  0
LINE
  5
6E4
100
AcDbEntity
  8
ASSI
100
AcDbLine
 62
7
  6
CONTINUOUS
 10
10.9466176626
 20
8.4725351287
 11
11.378631018
 21
8.2565449016
  0
LINE
  5
6E5
100
AcDbEntity
  8
CURVE
100
AcDbLine
 62
250
  6
CONTINUOUS
 10
7.796428588
 20
10.4
 11
7.610714294
 21
10.4928570986
  0
LINE
  5
6E6
100
AcDbEntity
  8
ASSI
100
AcDbLine
 62
7
  6
CONTINUOUS
 10
5.882
 20
10.143
 11
5.175
 21
10.85
  0
LINE
  5
6E7
100
AcDbEntity
  8
ASSI
100
AcDbLine
 62
7
  6
CONTINUOUS
 10
-1.615555173
 20
17.6989230612
 11
-1.8184550984
 21
17.9018229866
  0
LINE
  5
6E8
100
AcDbEntity
  8
ASSI
100
AcDbLine
 62
7
  6
CONTINUOUS
 10
-3.075
 20
19.7
 11
-2.9859791689
 21
19.6109791689
  0
LINE
  5
6E9
100
AcDbEntity
  8
ASSI
100
AcDbLine
 62
7
  6
CONTINUOUS
 10
-2.9859791689
 20
19.8109791689
 11
-3.075
 21
19.9
  0
LINE
  5
6EA
100
AcDbEntity
  8
ASSI
100
AcDbLine
 62
7
  6
CONTINUOUS
 10
-2.075
 20
19.9
 11
-2.0729803239
 21
19.8979803239
  0
LINE
  5
6EB
100
AcDbEntity
  8
CURVE
100
AcDbLine
 62
250
  6
CONTINUOUS
 10
7.610714294
 20
10.4928570986
 11
7.425
 21
10.6785714507
  0
LINE
  5
6EC
100
AcDbEntity
  8
ASSI
100
AcDbLine
 62
7
  6
CONTINUOUS
 10
3.3975351287
 20
19.1571474807
 11
3.1815449016
 21
19.5891608362
  0
LINE
  5
6ED
100
AcDbEntity
  8
ASSI
100
AcDbLine
 62
7
  6
CONTINUOUS
 10
9.9739230612
 20
-8.459444827
 11
10.1768229866
 21
-8.2565449016
  0
LINE
  5
6EE
100
AcDbEntity
  8
ASSI
100
AcDbLine
 62
7
  6
CONTINUOUS
 10
-3.975
 20
-23.8
 11
-3.9313493531
 21
-23.7563493531
  0
LINE
  5
6EF
100
AcDbEntity
  8
CURVE
100
AcDbLine
 62
250
  6
CONTINUOUS
 10
5.351702
 20
-14.79316
 11
5.011567
 21
-15.099588
  0
LINE
  5
6F0
100
AcDbEntity
  8
ASSI
100
AcDbLine
 62
250
  6
CONTINUOUS
 10
-10.1393027805
 20
-19.0856972195
 11
-9.5109204431
 21
-18.825412733
  0
LINE
  5
6F1
100
AcDbEntity
  8
CURVE
100
AcDbLine
 62
250
  6
CONTINUOUS
 10
-0.675
 20
12.9
 11
-2.575
 21
12.9
  0
LINE
  5
6F2
100
AcDbEntity
  8
CURVE
100
AcDbLine
 62
250
  6
CONTINUOUS
 10
-10.6798895703
 20
12.911198
 11
-10.6292852826
 21
12.911198
  0
LINE
  5
6F3
100
AcDbEntity
  8
CURVE
100
AcDbLine
 62
250
  6
CONTINUOUS
 10
-7.389285706
 20
12.9428571373
 11
-7.0178571373
 21
12.9428571373
  0
LINE
  5
6F4
100
AcDbEntity
  8
CURVE
100
AcDbLine
 62
250
  6
CONTINUOUS
 10
-10.5702250115
 20
13.0095237017
 11
-10.5694354979
 21
13.0095237017
  0
LINE
  5
6F5
100
AcDbEntity
  8
ASSI
100
AcDbLine
 62
250
  6
CONTINUOUS
 10
11.378631018
 20
13.2565449016
 11
10.1768229866
 21
13.2565449016
  0
LINE
  5
6F6
100
AcDbEntity
  8
ASSI
100
AcDbLine
 62
250
  6
CONTINUOUS
 10
-10.528631018
 20
13.2565449016
 11
-9.3268229866
 21
13.2565449016
  0
LINE
  5
6F7
100
AcDbEntity
  8
ASSI
100
AcDbLine
 62
7
  6
CONTINUOUS
 10
-9.1867474857
 20
13.3966204025
 11
-10.2484586789
 21
13.3966204025
  0
LINE
  5
6F8
100
AcDbEntity
  8
ASSI
100
AcDbLine
 62
7
  6
CONTINUOUS
 10
9.9739230612
 20
13.459444827
 11
9.925
 21
13.459444827
  0
LINE
  5
6F9
100
AcDbEntity
  8
ASSI
100
AcDbLine
 62
7
  6
CONTINUOUS
 10
10.9466176626
 20
13.4725351287
 11
9.925
 21
13.4725351287
  0
LINE
  5
6FA
100
AcDbEntity
  8
CURVE
100
AcDbLine
 62
250
  6
CONTINUOUS
 10
-6.8321428239
 20
13.5
 11
-6.275
 21
13.5
  0
LINE
  5
6FB
100
AcDbEntity
  8
CURVE
100
AcDbLine
 62
250
  6
CONTINUOUS
 10
11.4747430049
 20
14.0
 11
11.4616537001
 21
14.0
  0
LINE
  5
6FC
100
AcDbEntity
  8
CURVE
100
AcDbLine
 62
250
  6
CONTINUOUS
 10
11.5009216146
 20
14.0
 11
11.5140109194
 21
14.0
  0
LINE
  5
6FD
100
AcDbEntity
  8
ASSI
100
AcDbLine
 62
7
  6
CONTINUOUS
 10
0.875
 20
14.15
 11
5.175
 21
14.15
  0
LINE
  5
6FE
100
AcDbEntity
  8
ASSI
100
AcDbLine
 62
7
  6
CONTINUOUS
 10
-10.2153121041
 20
14.6
 11
-8.925
 21
14.6
  0
LINE
  5
6FF
100
AcDbEntity
  8
ASSI
100
AcDbLine
 62
250
  6
CONTINUOUS
 10
-9.5109204431
 20
18.825412733
 11
-10.1393027805
 21
19.0856972195
  0
LINE
  5
700
100
AcDbEntity
  8
CURVE
100
AcDbLine
 62
250
  6
CONTINUOUS
 10
8.3535714507
 20
11.05
 11
8.5392857254
 21
10.9571429014
  0
LINE
  5
701
100
AcDbEntity
  8
ASSI
100
AcDbLine
 62
7
  6
CONTINUOUS
 10
9.9739230612
 20
8.459444827
 11
10.1768229866
 21
8.2565449016
  0
LINE
  5
702
100
AcDbEntity
  8
CURVE
100
AcDbLine
 62
250
  6
CONTINUOUS
 10
7.425
 20
11.5142856479
 11
7.517857147
 21
11.4214285493
  0
LINE
  5
703
100
AcDbEntity
  8
CURVE
100
AcDbLine
 62
250
  6
CONTINUOUS
 10
8.5392857254
 20
10.9571429014
 11
8.725
 21
10.7714285493
  0
LINE
  5
704
100
AcDbEntity
  8
ASSI
100
AcDbLine
 62
7
  6
CONTINUOUS
 10
-3.975
 20
23.8
 11
-3.9313493531
 21
23.7563493531
  0
LINE
  5
705
100
AcDbEntity
  8
CURVE
100
AcDbLine
 62
250
  6
CONTINUOUS
 10
8.1678571761
 20
11.6071429014
 11
8.2607142746
 21
11.4523809671
  0
LINE
  5
706
100
AcDbEntity
  8
ASSI
100
AcDbLine
 62
7
  6
CONTINUOUS
 10
3.384444827
 20
-17.6989230612
 11
3.1815449016
 21
-17.9018229866
  0
LINE
  5
707
100
AcDbEntity
  8
CURVE
100
AcDbLine
 62
250
  6
CONTINUOUS
 10
5.351702
 20
-16.22316
 11
5.578459
 21
-16.018874
  0
LINE
  5
708
100
AcDbEntity
  8
ASSI
100
AcDbLine
 62
250
  6
CONTINUOUS
 10
-9.1775037048
 20
-20.0474962952
 11
-9.225
 21
-20.0671699049
  0
LINE
  5
709
100
AcDbEntity
  8
ASSI
100
AcDbLine
 62
250
  6
CONTINUOUS
 10
-9.0603642609
 20
-20.1646357391
 11
-9.166430278
 21
-20.208569722
  0
LINE
  5
70A
100
AcDbEntity
  8
ASSI
100
AcDbLine
 62
7
  6
CONTINUOUS
 10
0.168
 20
14.857
 11
5.882
 21
14.857
  0
LINE
  5
70B
100
AcDbEntity
  8
CURVE
100
AcDbLine
 62
250
  6
CONTINUOUS
 10
-10.5710145253
 20
15.271428442
 11
-10.5946999341
 21
15.271428442
  0
LINE
  5
70C
100
AcDbEntity
  8
ASSI
100
AcDbLine
 62
250
  6
CONTINUOUS
 10
-9.225
 20
20.0671699049
 11
-9.1775037048
 21
20.0474962952
  0
LINE
  5
70D
100
AcDbEntity
  8
ASSI
100
AcDbLine
 62
250
  6
CONTINUOUS
 10
-9.166430278
 20
20.208569722
 11
-9.0603642609
 21
20.1646357391
  0
LINE
  5
70E
100
AcDbEntity
  8
CURVE
100
AcDbLine
 62
250
  6
CONTINUOUS
 10
8.725
 20
12.814285706
 11
8.4464285493
 21
13.0
  0
LINE
  5
70F
100
AcDbEntity
  8
CURVE
100
AcDbLine
 62
250
  6
CONTINUOUS
 10
7.425
 20
13.0
 11
8.3535714507
 21
12.35
  0
LINE
  5
710
100
AcDbEntity
  8
ASSI
100
AcDbLine
 62
7
  6
CONTINUOUS
 10
3.384444827
 20
17.6989230612
 11
3.1815449016
 21
17.9018229866
  0
LINE
  5
711
100
AcDbEntity
  8
ASSI
100
AcDbLine
 62
250
  6
CONTINUOUS
 10
9.3174531526
 20
-20.7575468474
 11
9.2420984942
 21
-20.9
  0
LINE
  5
712
100
AcDbEntity
  8
ASSI
100
AcDbLine
 62
250
  6
CONTINUOUS
 10
9.5521485408
 20
-20.5228514592
 11
9.3836917237
 21
-20.8413082763
  0
LINE
  5
713
100
AcDbEntity
  8
ASSI
100
AcDbLine
 62
7
  6
CONTINUOUS
 10
9.9739230612
 20
-13.459444827
 11
10.1768229866
 21
-13.2565449016
  0
LINE
  5
714
100
AcDbEntity
  8
ASSI
100
AcDbLine
 62
7
  6
CONTINUOUS
 10
10.9466176626
 20
-13.4725351287
 11
11.378631018
 21
-13.2565449016
  0
LINE
  5
715
100
AcDbEntity
  8
ASSI
100
AcDbLine
 62
7
  6
CONTINUOUS
 10
3.3975351287
 20
17.65
 11
1.4524648713
 21
17.65
  0
LINE
  5
716
100
AcDbEntity
  8
ASSI
100
AcDbLine
 62
7
  6
CONTINUOUS
 10
-1.6024648713
 20
17.65
 11
-3.5475351287
 21
17.65
  0
LINE
  5
717
100
AcDbEntity
  8
ASSI
100
AcDbLine
 62
7
  6
CONTINUOUS
 10
-6.6024648713
 20
17.65
 11
-8.5475351287
 21
17.65
  0
LINE
  5
718
100
AcDbEntity
  8
ASSI
100
AcDbLine
 62
7
  6
CONTINUOUS
 10
10.9466176626
 20
13.4725351287
 11
11.378631018
 21
13.2565449016
  0
LINE
  5
719
100
AcDbEntity
  8
ASSI
100
AcDbLine
 62
7
  6
CONTINUOUS
 10
9.9739230612
 20
13.459444827
 11
10.1768229866
 21
13.2565449016
  0
LINE
  5
71A
100
AcDbEntity
  8
ASSI
100
AcDbLine
 62
250
  6
CONTINUOUS
 10
9.2420984942
 20
20.9
 11
9.3174531526
 21
20.7575468474
  0
LINE
  5
71B
100
AcDbEntity
  8
ASSI
100
AcDbLine
 62
250
  6
CONTINUOUS
 10
9.3836917237
 20
20.8413082763
 11
9.5521485408
 21
20.5228514592
  0
LINE
  5
71C
100
AcDbEntity
  8
ASSI
100
AcDbLine
 62
250
  6
CONTINUOUS
 10
7.5250033846
 20
-19.7
 11
7.4688137134
 21
-19.7561896713
  0
LINE
  5
71D
100
AcDbEntity
  8
ASSI
100
AcDbLine
 62
7
  6
CONTINUOUS
 10
7.825
 20
-19.7
 11
7.9140208311
 21
-19.6109791689
  0
LINE
  5
71E
100
AcDbEntity
  8
ASSI
100
AcDbLine
 62
250
  6
CONTINUOUS
 10
7.7767786853
 20
-19.8482179301
 11
7.6688103287
 21
-19.9561862866
  0
LINE
  5
71F
100
AcDbEntity
  8
ASSI
100
AcDbLine
 62
7
  6
CONTINUOUS
 10
9.6150352197
 20
19.1571474807
 11
3.3975351287
 21
19.1571474807
  0
LINE
  5
720
100
AcDbEntity
  8
ASSI
100
AcDbLine
 62
7
  6
CONTINUOUS
 10
1.4524648713
 20
19.1571474807
 11
-1.6024648713
 21
19.1571474807
  0
LINE
  5
721
100
AcDbEntity
  8
ASSI
100
AcDbLine
 62
7
  6
CONTINUOUS
 10
-3.5475351287
 20
19.1571474807
 11
-6.6024648713
 21
19.1571474807
  0
LINE
  5
722
100
AcDbEntity
  8
ASSI
100
AcDbLine
 62
7
  6
CONTINUOUS
 10
-8.5475351287
 20
19.1571474807
 11
-8.7650352197
 21
19.1571474807
  0
LINE
  5
723
100
AcDbEntity
  8
ASSI
100
AcDbLine
 62
7
  6
CONTINUOUS
 10
3.8359791689
 20
19.6109791689
 11
-2.9859791689
 21
19.6109791689
  0
LINE
  5
724
100
AcDbEntity
  8
ASSI
100
AcDbLine
 62
7
  6
CONTINUOUS
 10
-8.95301846
 20
19.6109791689
 11
-7.0640208311
 21
19.6109791689
  0
LINE
  5
725
100
AcDbEntity
  8
ASSI
100
AcDbLine
 62
7
  6
CONTINUOUS
 10
7.9140208311
 20
19.6109791689
 11
9.80301846
 21
19.6109791689
  0
LINE
  5
726
100
AcDbEntity
  8
ASSI
100
AcDbLine
 62
7
  6
CONTINUOUS
 10
7.825
 20
19.7
 11
3.925
 21
19.7
  0
LINE
  5
727
100
AcDbEntity
  8
ASSI
100
AcDbLine
 62
7
  6
CONTINUOUS
 10
-3.075
 20
19.7
 11
-6.975
 21
19.7
  0
LINE
  5
728
100
AcDbEntity
  8
ASSI
100
AcDbLine
 62
7
  6
CONTINUOUS
 10
-6.6117914795
 20
19.7564431031
 11
-6.3382085205
 21
19.7564431031
  0
LINE
  5
729
100
AcDbEntity
  8
ASSI
100
AcDbLine
 62
7
  6
CONTINUOUS
 10
7.1882085205
 20
19.7564431031
 11
7.4617914795
 21
19.7564431031
  0
LINE
  5
72A
100
AcDbEntity
  8
ASSI
100
AcDbLine
 62
7
  6
CONTINUOUS
 10
3.8359791689
 20
19.8109791689
 11
-2.9859791689
 21
19.8109791689
  0
LINE
  5
72B
100
AcDbEntity
  8
ASSI
100
AcDbLine
 62
7
  6
CONTINUOUS
 10
2.0231173983
 20
19.8825449351
 11
-1.1731173983
 21
19.8825449351
  0
LINE
  5
72C
100
AcDbEntity
  8
ASSI
100
AcDbLine
 62
7
  6
CONTINUOUS
 10
3.925
 20
19.9
 11
2.925
 21
19.9
  0
LINE
  5
72D
100
AcDbEntity
  8
ASSI
100
AcDbLine
 62
7
  6
CONTINUOUS
 10
-2.075
 20
19.9
 11
-3.075
 21
19.9
  0
LINE
  5
72E
100
AcDbEntity
  8
ASSI
100
AcDbLine
 62
7
  6
CONTINUOUS
 10
6.8732213147
 20
19.9223308767
 11
2.925
 21
19.9223308767
  0
LINE
  5
72F
100
AcDbEntity
  8
ASSI
100
AcDbLine
 62
7
  6
CONTINUOUS
 10
-2.075
 20
19.9223308767
 11
-6.0232213147
 21
19.9223308767
  0
LINE
  5
730
100
AcDbEntity
  8
ASSI
100
AcDbLine
 62
7
  6
CONTINUOUS
 10
3.925
 20
20.0
 11
2.925
 21
20.0
  0
LINE
  5
731
100
AcDbEntity
  8
ASSI
100
AcDbLine
 62
7
  6
CONTINUOUS
 10
-2.075
 20
20.0
 11
-3.075
 21
20.0
  0
LINE
  5
732
100
AcDbEntity
  8
ASSI
100
AcDbLine
 62
7
  6
CONTINUOUS
 10
-2.075
 20
20.0532338935
 11
-2.0163111231
 21
20.0532338935
  0
LINE
  5
733
100
AcDbEntity
  8
ASSI
100
AcDbLine
 62
7
  6
CONTINUOUS
 10
2.8663111231
 20
20.0532338935
 11
2.925
 21
20.0532338935
  0
LINE
  5
734
100
AcDbEntity
  8
ASSI
100
AcDbLine
 62
7
  6
CONTINUOUS
 10
6.980294768
 20
20.0829433217
 11
-6.130294768
 21
20.0829433217
  0
LINE
  5
735
100
AcDbEntity
  8
ASSI
100
AcDbLine
 62
250
  6
CONTINUOUS
 10
7.5250033846
 20
19.7
 11
7.4688137134
 21
19.7561896713
  0
LINE
  5
736
100
AcDbEntity
  8
ASSI
100
AcDbLine
 62
7
  6
CONTINUOUS
 10
7.825
 20
19.7
 11
7.9140208311
 21
19.6109791689
  0
LINE
  5
737
100
AcDbEntity
  8
ASSI
100
AcDbLine
 62
250
  6
CONTINUOUS
 10
7.7767786853
 20
19.8482179301
 11
7.6688103287
 21
19.9561862866
  0
LINE
  5
738
100
AcDbEntity
  8
ASSI
100
AcDbLine
 62
7
  6
CONTINUOUS
 10
10.3220343051
 20
-18.864298871
 11
10.3609204431
 21
-18.825412733
  0
LINE
  5
739
100
AcDbEntity
  8
ASSI
100
AcDbLine
 62
7
  6
CONTINUOUS
 10
10.5100175454
 20
-19.3181305591
 11
8.9781481045
 21
-20.85
  0
LINE
  5
73A
100
AcDbEntity
  8
ASSI
100
AcDbLine
 62
7
  6
CONTINUOUS
 10
7.6837268678
 20
-22.3912731322
 11
8.675
 21
-21.4
  0
LINE
  5
73B
100
AcDbEntity
  8
ASSI
100
AcDbLine
 62
7
  6
CONTINUOUS
 10
9.225
 20
-20.85
 11
10.9893027805
 21
-19.0856972195
  0
LINE
  5
73C
100
AcDbEntity
  8
ASSI
100
AcDbLine
 62
7
  6
CONTINUOUS
 10
9.3836917237
 20
-20.8413082763
 11
10.016430278
 21
-20.208569722
  0
LINE
  5
73D
100
AcDbEntity
  8
ASSI
100
AcDbLine
 62
7
  6
CONTINUOUS
 10
-6.975
 20
20.4335707644
 11
-6.9267786853
 21
20.4335707644
  0
LINE
  5
73E
100
AcDbEntity
  8
ASSI
100
AcDbLine
 62
7
  6
CONTINUOUS
 10
7.7767786853
 20
20.4335707644
 11
7.825
 21
20.4335707644
  0
LINE
  5
73F
100
AcDbEntity
  8
ASSI
100
AcDbLine
 62
250
  6
CONTINUOUS
 10
7.325
 20
20.5829242832
 11
-6.475
 21
20.5829242832
  0
LINE
  5
740
100
AcDbEntity
  8
ASSI
100
AcDbLine
 62
7
  6
CONTINUOUS
 10
-8.375
 20
20.85
 11
-6.975
 21
20.85
  0
LINE
  5
741
100
AcDbEntity
  8
ASSI
100
AcDbLine
 62
7
  6
CONTINUOUS
 10
7.825
 20
20.85
 11
9.225
 21
20.85
  0
LINE
  5
742
100
AcDbEntity
  8
ASSI
100
AcDbLine
 62
7
  6
CONTINUOUS
 10
-8.3920984942
 20
20.9
 11
-6.475
 21
20.9
  0
LINE
  5
743
100
AcDbEntity
  8
ASSI
100
AcDbLine
 62
7
  6
CONTINUOUS
 10
7.325
 20
20.9
 11
9.2420984942
 21
20.9
  0
LINE
  5
744
100
AcDbEntity
  8
ASSI
100
AcDbLine
 62
7
  6
CONTINUOUS
 10
3.425
 20
21.0
 11
-2.575
 21
21.0
  0
LINE
  5
745
100
AcDbEntity
  8
ASSI
100
AcDbLine
 62
250
  6
CONTINUOUS
 10
8.0091007192
 20
21.3126932437
 11
3.425
 21
21.3126932437
  0
LINE
  5
746
100
AcDbEntity
  8
ASSI
100
AcDbLine
 62
250
  6
CONTINUOUS
 10
-2.575
 20
21.3126932437
 11
-7.1591007192
 21
21.3126932437
  0
LINE
  5
747
100
AcDbEntity
  8
ASSI
100
AcDbLine
 62
7
  6
CONTINUOUS
 10
-2.575
 20
21.7
 11
3.425
 21
21.7
  0
LINE
  5
748
100
AcDbEntity
  8
ASSI
100
AcDbLine
 62
7
  6
CONTINUOUS
 10
10.3609204431
 20
18.825412733
 11
10.3220343051
 21
18.864298871
  0
LINE
  5
749
100
AcDbEntity
  8
ASSI
100
AcDbLine
 62
7
  6
CONTINUOUS
 10
8.9781481045
 20
20.85
 11
10.5100175454
 21
19.3181305591
  0
LINE
  5
74A
100
AcDbEntity
  8
ASSI
100
AcDbLine
 62
7
  6
CONTINUOUS
 10
10.9893027805
 20
19.0856972195
 11
9.225
 21
20.85
  0
LINE
  5
74B
100
AcDbEntity
  8
ASSI
100
AcDbLine
 62
7
  6
CONTINUOUS
 10
7.6837268678
 20
22.3912731322
 11
8.675
 21
21.4
  0
LINE
  5
74C
100
AcDbEntity
  8
ASSI
100
AcDbLine
 62
7
  6
CONTINUOUS
 10
10.016430278
 20
20.208569722
 11
9.3836917237
 21
20.8413082763
  0
LINE
  5
74D
100
AcDbEntity
  8
ASSI
100
AcDbLine
 62
250
  6
CONTINUOUS
 10
7.7623448332
 20
22.3126551668
 11
3.425
 21
22.3126551668
  0
LINE
  5
74E
100
AcDbEntity
  8
ASSI
100
AcDbLine
 62
250
  6
CONTINUOUS
 10
-2.575
 20
22.3126551668
 11
-6.9123448332
 21
22.3126551668
  0
LINE
  5
74F
100
AcDbEntity
  8
ASSI
100
AcDbLine
 62
7
  6
CONTINUOUS
 10
-3.075
 20
22.3380392387
 11
-2.575
 21
22.3380392387
  0
LINE
  5
750
100
AcDbEntity
  8
ASSI
100
AcDbLine
 62
7
  6
CONTINUOUS
 10
3.425
 20
22.3380392387
 11
3.925
 21
22.3380392387
  0
LINE
  5
751
100
AcDbEntity
  8
ASSI
100
AcDbLine
 62
7
  6
CONTINUOUS
 10
11.0748476749
 20
22.3912731322
 11
7.6837268678
 21
22.3912731322
  0
LINE
  5
752
100
AcDbEntity
  8
ASSI
100
AcDbLine
 62
7
  6
CONTINUOUS
 10
-6.8337268678
 20
22.3912731322
 11
-10.2248476749
 21
22.3912731322
  0
LINE
  5
753
100
AcDbEntity
  8
ASSI
100
AcDbLine
 62
7
  6
CONTINUOUS
 10
-10.2073926099
 20
22.4
 11
-3.975
 21
22.4
  0
LINE
  5
754
100
AcDbEntity
  8
ASSI
100
AcDbLine
 62
7
  6
CONTINUOUS
 10
4.825
 20
22.4
 11
11.0573926099
 21
22.4
  0
LINE
  5
755
100
AcDbEntity
  8
ASSI
100
AcDbLine
 62
7
  6
CONTINUOUS
 10
-9.9757229979
 20
23.1226497308
 11
-8.0742770021
 21
23.1226497308
  0
LINE
  5
756
100
AcDbEntity
  8
ASSI
100
AcDbLine
 62
7
  6
CONTINUOUS
 10
8.9242770021
 20
23.1226497308
 11
10.8257229979
 21
23.1226497308
  0
LINE
  5
757
100
AcDbEntity
  8
ASSI
100
AcDbLine
 62
250
  6
CONTINUOUS
 10
8.9293676032
 20
23.6278312164
 11
10.8206323968
 21
23.6278312164
  0
LINE
  5
758
100
AcDbEntity
  8
ASSI
100
AcDbLine
 62
7
  6
CONTINUOUS
 10
-8.0793676032
 20
23.7
 11
-9.9706323968
 21
23.7
  0
LINE
  5
759
100
AcDbEntity
  8
ASSI
100
AcDbLine
 62
250
  6
CONTINUOUS
 10
11.0716029582
 20
-22.392895367
 11
11.0573926099
 21
-22.4
  0
LINE
  5
75A
100
AcDbEntity
  8
ASSI
100
AcDbLine
 62
250
  6
CONTINUOUS
 10
-9.9720868299
 20
24.4956238859
 11
-9.9706323968
 21
24.495628166
  0
LINE
  5
75B
100
AcDbEntity
  8
ASSI
100
AcDbLine
 62
7
  6
CONTINUOUS
 10
4.7813493531
 20
23.7563493531
 11
3.925
 21
23.7563493531
  0
LINE
  5
75C
100
AcDbEntity
  8
ASSI
100
AcDbLine
 62
7
  6
CONTINUOUS
 10
-3.075
 20
23.7563493531
 11
-3.9313493531
 21
23.7563493531
  0
LINE
  5
75D
100
AcDbEntity
  8
ASSI
100
AcDbLine
 62
7
  6
CONTINUOUS
 10
3.925
 20
23.7941821702
 11
-3.075
 21
23.7941821702
  0
LINE
  5
75E
100
AcDbEntity
  8
ASSI
100
AcDbLine
 62
7
  6
CONTINUOUS
 10
4.825
 20
23.8
 11
-3.975
 21
23.8
  0
LINE
  5
75F
100
AcDbEntity
  8
ASSI
100
AcDbLine
 62
250
  6
CONTINUOUS
 10
8.679371834
 20
23.8443375673
 11
11.070628166
 21
23.8443375673
  0
LINE
  5
760
100
AcDbEntity
  8
ASSI
100
AcDbLine
 62
250
  6
CONTINUOUS
 10
-10.220628166
 20
24.2456323968
 11
-7.829371834
 21
24.2456323968
  0
LINE
  5
761
100
AcDbEntity
  8
ASSI
100
AcDbLine
 62
250
  6
CONTINUOUS
 10
8.679371834
 20
24.2456323968
 11
11.070628166
 21
24.2456323968
  0
LINE
  5
762
100
AcDbEntity
  8
ASSI
100
AcDbLine
 62
7
  6
CONTINUOUS
 10
10.8206323968
 20
24.495628166
 11
8.9293676032
 21
24.495628166
  0
LINE
  5
763
100
AcDbEntity
  8
ASSI
100
AcDbLine
 62
7
  6
CONTINUOUS
 10
-8.0793676032
 20
24.495628166
 11
-9.9706323968
 21
24.495628166
  0
LINE
  5
764
100
AcDbEntity
  8
ASSI
100
AcDbLine
 62
250
  6
CONTINUOUS
 10
11.0573926099
 20
22.4
 11
11.0716029582
 21
22.392895367
  0
ARC
  5
765
100
AcDbEntity
  8
CURVE
100
AcDbCircle
 62
250
  6
CONTINUOUS
 10
-158.7791341903
 20
-0.3341472592
 40
148.2208366349
100
AcDbArc
 50
359.346743993
 51
0.0170654254
  0
ARC
  5
766
100
AcDbEntity
  8
CURVE
100
AcDbCircle
 62
250
  6
CONTINUOUS
 10
-8.065
 20
-14.94316
 40
0.565
100
AcDbArc
 50
90.0
 51
270.0
  0
ARC
  5
767
100
AcDbEntity
  8
CURVE
100
AcDbCircle
 62
250
  6
CONTINUOUS
 10
-8.065
 20
-16.06816
 40
0.56
100
AcDbArc
 50
270.0
 51
90.0
  0
ARC
  5
768
100
AcDbEntity
  8
ASSI
100
AcDbCircle
 62
7
  6
CONTINUOUS
 10
-10.2073927659
 20
-21.8998729306
 40
0.5001270694
100
AcDbArc
 50
267.982455317
 51
270.0000178742
  0
ARC
  5
769
100
AcDbEntity
  8
ASSI
100
AcDbCircle
 62
7
  6
CONTINUOUS
 10
11.0574457681
 20
-21.9000605207
 40
0.4999389315
100
AcDbArc
 50
269.9999821258
 51
296.5635961261
  0
ARC
  5
76A
100
AcDbEntity
  8
ASSI
100
AcDbCircle
 62
250
  6
CONTINUOUS
 10
-8.0793986578
 20
-24.2453421631
 40
0.2502860048
100
AcDbArc
 50
270.0071090513
 51
276.1745301587
  0
ARC
  5
76B
100
AcDbEntity
  8
ASSI
100
AcDbCircle
 62
250
  6
CONTINUOUS
 10
-9.9706013422
 20
-24.2453421631
 40
0.2502860048
100
AcDbArc
 50
263.8289973675
 51
269.9928909487
  0
ARC
  5
76C
100
AcDbEntity
  8
ASSI
100
AcDbCircle
 62
7
  6
CONTINUOUS
 10
-9.9706205516
 20
-24.2456209549
 40
0.2500076156
100
AcDbArc
 50
180.3359454732
 51
263.8289973675
  0
ARC
  5
76D
100
AcDbEntity
  8
ASSI
100
AcDbCircle
 62
7
  6
CONTINUOUS
 10
8.9293778172
 20
-24.2456221828
 40
0.2500059834
100
AcDbArc
 50
180.0023408215
 51
269.9976591785
  0
ARC
  5
76E
100
AcDbEntity
  8
ASSI
100
AcDbCircle
 62
7
  6
CONTINUOUS
 10
10.8206221828
 20
-24.2456221828
 40
0.2500059834
100
AcDbArc
 50
270.0023408215
 51
359.9976591785
  0
ARC
  5
76F
100
AcDbEntity
  8
ASSI
100
AcDbCircle
 62
7
  6
CONTINUOUS
 10
-8.0793775768
 20
-24.2456217794
 40
0.250005743
100
AcDbArc
 50
276.1745301587
 51
359.9975667322
  0
ARC
  5
770
100
AcDbEntity
  8
ASSI
100
AcDbCircle
 62
7
  6
CONTINUOUS
 10
8.9249923615
 20
-24.2500076385
 40
0.249991413
100
AcDbArc
 50
201.8177557666
 51
269.9938814446
  0
ARC
  5
771
100
AcDbEntity
  8
ASSI
100
AcDbCircle
 62
7
  6
CONTINUOUS
 10
10.8250076385
 20
-24.2500076385
 40
0.249991413
100
AcDbArc
 50
291.8177557666
 51
359.9938814447
  0
ARC
  5
772
100
AcDbEntity
  8
ASSI
100
AcDbCircle
 62
7
  6
CONTINUOUS
 10
-8.0749909246
 20
-24.2500091487
 40
0.2499895178
100
AcDbArc
 50
297.2722650006
 51
359.9938814447
  0
ARC
  5
773
100
AcDbEntity
  8
ASSI
100
AcDbCircle
 62
7
  6
CONTINUOUS
 10
-9.9750090754
 20
-24.2500091487
 40
0.2499895178
100
AcDbArc
 50
201.8175568426
 51
269.9938814446
  0
ARC
  5
774
100
AcDbEntity
  8
ASSI
100
AcDbCircle
 62
250
  6
CONTINUOUS
 10
7.208449269
 20
-19.9568431122
 40
0.2104721796
100
AcDbArc
 50
167.243420941
 51
179.8901860976
  0
ARC
  5
775
100
AcDbEntity
  8
ASSI
100
AcDbCircle
 62
250
  6
CONTINUOUS
 10
-6.358448713
 20
-19.9568427915
 40
0.210471623
100
AcDbArc
 50
0.1097268864
 51
12.756258876
  0
ARC
  5
776
100
AcDbEntity
  8
ASSI
100
AcDbCircle
 62
250
  6
CONTINUOUS
 10
7.4415512868
 20
-19.9568427917
 40
0.2104716232
100
AcDbArc
 50
0.1097269267
 51
12.7562589845
  0
ARC
  5
777
100
AcDbEntity
  8
ASSI
100
AcDbCircle
 62
250
  6
CONTINUOUS
 10
-6.3311957566
 20
-19.9561957566
 40
0.2000060855
100
AcDbArc
 50
0.0027128556
 51
89.9972871444
  0
ARC
  5
778
100
AcDbEntity
  8
ASSI
100
AcDbCircle
 62
250
  6
CONTINUOUS
 10
7.4688042434
 20
-19.9561957566
 40
0.2000060855
100
AcDbArc
 50
0.0027128552
 51
89.9972871448
  0
ARC
  5
779
100
AcDbEntity
  8
ASSI
100
AcDbCircle
 62
250
  6
CONTINUOUS
 10
7.1811957565
 20
-19.9561957565
 40
0.2000060855
100
AcDbArc
 50
90.002712842
 51
179.997287158
  0
ARC
  5
77A
100
AcDbEntity
  8
ASSI
100
AcDbCircle
 62
250
  6
CONTINUOUS
 10
-6.6188052734
 20
-19.9561945441
 40
0.2000050555
100
AcDbArc
 50
90.0131290378
 51
179.997634482
  0
ARC
  5
77B
100
AcDbEntity
  8
ASSI
100
AcDbCircle
 62
7
  6
CONTINUOUS
 10
-5.075
 20
-5.15
 40
2.2
100
AcDbArc
 50
239.7339471567
 51
270.0
  0
ARC
  5
77C
100
AcDbEntity
  8
ASSI
100
AcDbCircle
 62
7
  6
CONTINUOUS
 10
1.625
 20
-5.15
 40
2.2
100
AcDbArc
 50
270.0
 51
300.2660528433
  0
ARC
  5
77D
100
AcDbEntity
  8
ASSI
100
AcDbCircle
 62
7
  6
CONTINUOUS
 10
1.625
 20
-4.25
 40
2.2
100
AcDbArc
 50
18.5538075916
 51
90.0
  0
ARC
  5
77E
100
AcDbEntity
  8
ASSI
100
AcDbCircle
 62
7
  6
CONTINUOUS
 10
-5.075
 20
-4.25
 40
2.2
100
AcDbArc
 50
90.0
 51
150.2191953438
  0
ARC
  5
77F
100
AcDbEntity
  8
ASSI
100
AcDbCircle
 62
7
  6
CONTINUOUS
 10
1.625
 20
-4.25
 40
2.1387579355
100
AcDbArc
 50
19.1062128925
 51
90.0
  0
ARC
  5
780
100
AcDbEntity
  8
ASSI
100
AcDbCircle
 62
7
  6
CONTINUOUS
 10
1.625
 20
-5.15
 40
2.1387579355
100
AcDbArc
 50
270.0
 51
297.3172133779
  0
ARC
  5
781
100
AcDbEntity
  8
ASSI
100
AcDbCircle
 62
7
  6
CONTINUOUS
 10
-5.075
 20
-5.15
 40
2.1387579355
100
AcDbArc
 50
242.6827866221
 51
270.0
  0
ARC
  5
782
100
AcDbEntity
  8
ASSI
100
AcDbCircle
 62
7
  6
CONTINUOUS
 10
-5.075
 20
-4.25
 40
2.1387579355
100
AcDbArc
 50
90.0
 51
151.1381167927
  0
ARC
  5
783
100
AcDbEntity
  8
ASSI
100
AcDbCircle
 62
7
  6
CONTINUOUS
 10
1.625
 20
-4.25
 40
1.5
100
AcDbArc
 50
27.819628696
 51
90.0
  0
ARC
  5
784
100
AcDbEntity
  8
ASSI
100
AcDbCircle
 62
7
  6
CONTINUOUS
 10
-5.075
 20
-4.25
 40
1.5
100
AcDbArc
 50
90.0
 51
152.0187581943
  0
ARC
  5
785
100
AcDbEntity
  8
ASSI
100
AcDbCircle
 62
7
  6
CONTINUOUS
 10
7.175
 20
-12.8
 40
1.018
100
AcDbArc
 50
270.0
 51
90.0
  0
ARC
  5
786
100
AcDbEntity
  8
ASSI
100
AcDbCircle
 62
7
  6
CONTINUOUS
 10
-6.325
 20
-12.8
 40
1.018
100
AcDbArc
 50
90.0
 51
270.0
  0
ARC
  5
787
100
AcDbEntity
  8
ASSI
100
AcDbCircle
 62
7
  6
CONTINUOUS
 10
7.175
 20
-7.8
 40
1.018
100
AcDbArc
 50
270.0
 51
90.0
  0
ARC
  5
788
100
AcDbEntity
  8
ASSI
100
AcDbCircle
 62
7
  6
CONTINUOUS
 10
-6.325
 20
-7.8
 40
1.018
100
AcDbArc
 50
90.0
 51
270.0
  0
ARC
  5
789
100
AcDbEntity
  8
ASSI
100
AcDbCircle
 62
7
  6
CONTINUOUS
 10
7.175
 20
-2.8
 40
1.018
100
AcDbArc
 50
270.0
 51
90.0
  0
ARC
  5
78A
100
AcDbEntity
  8
ASSI
100
AcDbCircle
 62
7
  6
CONTINUOUS
 10
-6.325
 20
-2.8
 40
1.018
100
AcDbArc
 50
90.0
 51
270.0
  0
ARC
  5
78B
100
AcDbEntity
  8
ASSI
100
AcDbCircle
 62
7
  6
CONTINUOUS
 10
7.175
 20
-12.8
 40
0.75
100
AcDbArc
 50
270.0
 51
90.0
  0
ARC
  5
78C
100
AcDbEntity
  8
ASSI
100
AcDbCircle
 62
7
  6
CONTINUOUS
 10
-6.325
 20
-12.8
 40
0.75
100
AcDbArc
 50
90.0
 51
270.0
  0
ARC
  5
78D
100
AcDbEntity
  8
ASSI
100
AcDbCircle
 62
7
  6
CONTINUOUS
 10
7.175
 20
-7.8
 40
0.75
100
AcDbArc
 50
270.0
 51
90.0
  0
ARC
  5
78E
100
AcDbEntity
  8
ASSI
100
AcDbCircle
 62
7
  6
CONTINUOUS
 10
-6.325
 20
-7.8
 40
0.75
100
AcDbArc
 50
90.0
 51
270.0
  0
ARC
  5
78F
100
AcDbEntity
  8
ASSI
100
AcDbCircle
 62
7
  6
CONTINUOUS
 10
7.175
 20
-2.8
 40
0.75
100
AcDbArc
 50
270.0
 51
90.0
  0
ARC
  5
790
100
AcDbEntity
  8
ASSI
100
AcDbCircle
 62
7
  6
CONTINUOUS
 10
-6.325
 20
-2.8
 40
0.75
100
AcDbArc
 50
90.0
 51
270.0
  0
ARC
  5
791
100
AcDbEntity
  8
CURVE
100
AcDbCircle
 62
250
  6
CONTINUOUS
 10
81.806129106
 20
-5.9836150161
 40
92.4777217524
100
AcDbArc
 50
179.8891047583
 51
180.182886808
  0
ARC
  5
792
100
AcDbEntity
  8
ASSI
100
AcDbCircle
 62
7
  6
CONTINUOUS
 10
7.175
 20
2.2
 40
1.018
100
AcDbArc
 50
270.0
 51
90.0
  0
ARC
  5
793
100
AcDbEntity
  8
ASSI
100
AcDbCircle
 62
7
  6
CONTINUOUS
 10
-6.325
 20
2.2
 40
1.018
100
AcDbArc
 50
90.0
 51
270.0
  0
ARC
  5
794
100
AcDbEntity
  8
ASSI
100
AcDbCircle
 62
7
  6
CONTINUOUS
 10
7.175
 20
2.2
 40
0.75
100
AcDbArc
 50
270.0
 51
90.0
  0
ARC
  5
795
100
AcDbEntity
  8
ASSI
100
AcDbCircle
 62
7
  6
CONTINUOUS
 10
-6.325
 20
2.2
 40
0.75
100
AcDbArc
 50
90.0
 51
270.0
  0
ARC
  5
796
100
AcDbEntity
  8
ASSI
100
AcDbCircle
 62
7
  6
CONTINUOUS
 10
11.0573927659
 20
21.8998729306
 40
0.5001270694
100
AcDbArc
 50
87.982455317
 51
90.0000178742
  0
ARC
  5
797
100
AcDbEntity
  8
ASSI
100
AcDbCircle
 62
7
  6
CONTINUOUS
 10
-10.2074457681
 20
21.9000605207
 40
0.4999389315
100
AcDbArc
 50
89.9999821258
 51
116.5635961261
  0
ARC
  5
798
100
AcDbEntity
  8
ASSI
100
AcDbCircle
 62
250
  6
CONTINUOUS
 10
8.9293986578
 20
24.2453421631
 40
0.2502860048
100
AcDbArc
 50
90.0071090513
 51
96.1745301587
  0
ARC
  5
799
100
AcDbEntity
  8
ASSI
100
AcDbCircle
 62
250
  6
CONTINUOUS
 10
-9.9703421631
 20
24.2456013422
 40
0.2502860048
100
AcDbArc
 50
173.8289973674
 51
179.9928909487
  0
ARC
  5
79A
100
AcDbEntity
  8
ASSI
100
AcDbCircle
 62
250
  6
CONTINUOUS
 10
10.8206013422
 20
24.2453421631
 40
0.2502860048
100
AcDbArc
 50
83.8289973674
 51
89.9928909487
  0
ARC
  5
79B
100
AcDbEntity
  8
ASSI
100
AcDbCircle
 62
7
  6
CONTINUOUS
 10
10.8206205516
 20
24.2456209549
 40
0.2500076156
100
AcDbArc
 50
0.3359454732
 51
83.8289973674
  0
ARC
  5
79C
100
AcDbEntity
  8
ASSI
100
AcDbCircle
 62
7
  6
CONTINUOUS
 10
-9.9706209549
 20
24.2456205516
 40
0.2500076156
100
AcDbArc
 50
90.3359454732
 51
173.8289973674
  0
ARC
  5
79D
100
AcDbEntity
  8
ASSI
100
AcDbCircle
 62
7
  6
CONTINUOUS
 10
-8.0793778172
 20
24.2456221828
 40
0.2500059834
100
AcDbArc
 50
0.0023408215
 51
89.9976591785
  0
ARC
  5
79E
100
AcDbEntity
  8
ASSI
100
AcDbCircle
 62
7
  6
CONTINUOUS
 10
8.9293775768
 20
24.2456217794
 40
0.250005743
100
AcDbArc
 50
96.1745301587
 51
179.9975667322
  0
ARC
  5
79F
100
AcDbEntity
  8
ASSI
100
AcDbCircle
 62
7
  6
CONTINUOUS
 10
-8.0749923615
 20
24.2500076385
 40
0.249991413
100
AcDbArc
 50
21.8177557666
 51
89.9938814446
  0
ARC
  5
7A0
100
AcDbEntity
  8
ASSI
100
AcDbCircle
 62
7
  6
CONTINUOUS
 10
-9.9750091487
 20
24.2500090754
 40
0.2499895178
100
AcDbArc
 50
111.8175568426
 51
179.9938814447
  0
ARC
  5
7A1
100
AcDbEntity
  8
ASSI
100
AcDbCircle
 62
7
  6
CONTINUOUS
 10
10.8250090754
 20
24.2500091487
 40
0.2499895178
100
AcDbArc
 50
21.8175568426
 51
89.9938814446
  0
ARC
  5
7A2
100
AcDbEntity
  8
ASSI
100
AcDbCircle
 62
7
  6
CONTINUOUS
 10
8.9249909246
 20
24.2500091487
 40
0.2499895178
100
AcDbArc
 50
117.2722650006
 51
179.9938814447
  0
ARC
  5
7A3
100
AcDbEntity
  8
ASSI
100
AcDbCircle
 62
250
  6
CONTINUOUS
 10
-6.5915512868
 20
19.9568427917
 40
0.2104716232
100
AcDbArc
 50
180.1097269268
 51
192.7562589844
  0
ARC
  5
7A4
100
AcDbEntity
  8
ASSI
100
AcDbCircle
 62
250
  6
CONTINUOUS
 10
7.208448713
 20
19.9568427915
 40
0.210471623
100
AcDbArc
 50
180.1097268864
 51
192.756258876
  0
ARC
  5
7A5
100
AcDbEntity
  8
ASSI
100
AcDbCircle
 62
250
  6
CONTINUOUS
 10
-6.6188042434
 20
19.9561957566
 40
0.2000060855
100
AcDbArc
 50
180.0027128552
 51
269.9972871448
  0
ARC
  5
7A6
100
AcDbEntity
  8
ASSI
100
AcDbCircle
 62
250
  6
CONTINUOUS
 10
7.1811957566
 20
19.9561957566
 40
0.2000060855
100
AcDbArc
 50
180.0027128556
 51
269.9972871444
  0
ARC
  5
7A7
100
AcDbEntity
  8
ASSI
100
AcDbCircle
 62
250
  6
CONTINUOUS
 10
-6.3311947266
 20
19.9561945441
 40
0.2000050555
100
AcDbArc
 50
270.0131290125
 51
359.9976344622
  0
ARC
  5
7A8
100
AcDbEntity
  8
ASSI
100
AcDbCircle
 62
250
  6
CONTINUOUS
 10
7.4688052734
 20
19.9561945441
 40
0.2000050555
100
AcDbArc
 50
270.0131290378
 51
359.997634482
  0
SPLINE
  5
7A9
100
AcDbEntity
  8
ASSI
100
AcDbSpline
 62
7
  6
CONTINUOUS
 70
0
 71
3
 72
8
 73
4
 74
0
 42
0.0000001
 43
0.0000001
 44
0.0000000001
 40
0.0
 40
0.0
 40
0.0
 40
0.0
 40
1.0
 40
1.0
 40
1.0
 40
1.0
 10
-7.9604408901
 20
-24.4722096181
 30
0.0
 10
-7.9953652646
 20
-24.4902149205
 30
0.0
 10
-8.03570324
 20
-24.5
 30
0.0
 10
-8.0749957692
 20
-24.5
 30
0.0
  0
SPLINE
  5
7AA
100
AcDbEntity
  8
ASSI
100
AcDbSpline
 62
7
  6
CONTINUOUS
 70
0
 71
3
 72
8
 73
4
 74
0
 42
0.0000001
 43
0.0000001
 44
0.0000000001
 40
0.0
 40
0.0
 40
0.0
 40
0.0
 40
1.0
 40
1.0
 40
1.0
 40
1.0
 10
-10.2070923408
 20
-24.3429183352
 30
0.0
 10
-10.2188141948
 20
-24.3136359964
 30
0.0
 10
-10.225
 20
-24.2815455882
 30
0.0
 10
-10.225
 20
-24.2500042308
 30
0.0
  0
SPLINE
  5
7AB
100
AcDbEntity
  8
ASSI
100
AcDbSpline
 62
7
  6
CONTINUOUS
 70
0
 71
3
 72
8
 73
4
 74
0
 42
0.0000001
 43
0.0000001
 44
0.0000000001
 40
0.0
 40
0.0
 40
0.0
 40
0.0
 40
1.0
 40
1.0
 40
1.0
 40
1.0
 10
8.6929076592
 20
-24.3429183352
 30
0.0
 10
8.6811858052
 20
-24.3136359964
 30
0.0
 10
8.675
 20
-24.2815455882
 30
0.0
 10
8.675
 20
-24.2500042308
 30
0.0
  0
SPLINE
  5
7AC
100
AcDbEntity
  8
ASSI
100
AcDbSpline
 62
7
  6
CONTINUOUS
 70
0
 71
3
 72
8
 73
4
 74
0
 42
0.0000001
 43
0.0000001
 44
0.0000000001
 40
0.0
 40
0.0
 40
0.0
 40
0.0
 40
1.0
 40
1.0
 40
1.0
 40
1.0
 10
10.9179183352
 20
-24.4820923408
 30
0.0
 10
10.8886359964
 20
-24.4938141948
 30
0.0
 10
10.8565455882
 20
-24.5
 30
0.0
 10
10.8250042308
 20
-24.5
 30
0.0
  0
SPLINE
  5
7AD
100
AcDbEntity
  8
ASSI
100
AcDbSpline
 62
7
  6
CONTINUOUS
 70
0
 71
3
 72
8
 73
4
 74
0
 42
0.0000001
 43
0.0000001
 44
0.0000000001
 40
0.0
 40
0.0
 40
0.0
 40
0.0
 40
1.0
 40
1.0
 40
1.0
 40
1.0
 10
-7.8429076592
 20
24.3429183352
 30
0.0
 10
-7.8311858052
 20
24.3136359964
 30
0.0
 10
-7.825
 20
24.2815455882
 30
0.0
 10
-7.825
 20
24.2500042308
 30
0.0
  0
SPLINE
  5
7AE
100
AcDbEntity
  8
ASSI
100
AcDbSpline
 62
7
  6
CONTINUOUS
 70
0
 71
3
 72
8
 73
4
 74
0
 42
0.0000001
 43
0.0000001
 44
0.0000000001
 40
0.0
 40
0.0
 40
0.0
 40
0.0
 40
1.0
 40
1.0
 40
1.0
 40
1.0
 10
-10.0679183352
 20
24.4820923408
 30
0.0
 10
-10.0386359964
 20
24.4938141948
 30
0.0
 10
-10.0065455882
 20
24.5
 30
0.0
 10
-9.9750042308
 20
24.5
 30
0.0
  0
SPLINE
  5
7AF
100
AcDbEntity
  8
ASSI
100
AcDbSpline
 62
7
  6
CONTINUOUS
 70
0
 71
3
 72
8
 73
4
 74
0
 42
0.0000001
 43
0.0000001
 44
0.0000000001
 40
0.0
 40
0.0
 40
0.0
 40
0.0
 40
1.0
 40
1.0
 40
1.0
 40
1.0
 10
11.0570923408
 20
24.3429183352
 30
0.0
 10
11.0688141948
 20
24.3136359964
 30
0.0
 10
11.075
 20
24.2815455882
 30
0.0
 10
11.075
 20
24.2500042308
 30
0.0
  0
SPLINE
  5
7B0
100
AcDbEntity
  8
ASSI
100
AcDbSpline
 62
7
  6
CONTINUOUS
 70
0
 71
3
 72
8
 73
4
 74
0
 42
0.0000001
 43
0.0000001
 44
0.0000000001
 40
0.0
 40
0.0
 40
0.0
 40
0.0
 40
1.0
 40
1.0
 40
1.0
 40
1.0
 10
8.8104408901
 20
24.4722096181
 30
0.0
 10
8.8453652646
 20
24.4902149205
 30
0.0
 10
8.88570324
 20
24.5
 30
0.0
 10
8.9249957692
 20
24.5
 30
0.0
  0
SPLINE
  5
7B1
100
AcDbEntity
  8
ASSI
100
AcDbSpline
 62
7
  6
CONTINUOUS
 70
0
 71
3
 72
17
 73
13
 74
0
 42
0.0000001
 43
0.0000001
 44
0.0000000001
 40
0.0
 40
0.0
 40
0.0
 40
0.0
 40
0.1613758369
 40
0.3205660549
 40
0.4750539253
 40
0.6215647943
 40
0.7554548524
 40
0.8698492582
 40
0.9167797561
 40
0.9549508825
 40
0.9829507967
 40
1.0
 40
1.0
 40
1.0
 40
1.0
 10
-3.5029699877
 20
23.2563578147
 30
0.0
 10
-3.526912154
 20
23.2822364749
 30
0.0
 10
-3.5744722604
 20
23.3336431593
 30
0.0
 10
-3.6448360885
 20
23.4099322988
 30
0.0
 10
-3.7127427696
 20
23.4840671341
 30
0.0
 10
-3.7764952248
 20
23.5545176877
 30
0.0
 10
-3.8336473669
 20
23.6190990508
 30
0.0
 10
-3.8755000595
 20
23.668223725
 30
0.0
 10
-3.9025123123
 20
23.7023789228
 30
0.0
 10
-3.917157817
 20
23.7224038858
 30
0.0
 10
-3.9265990213
 20
23.7377330091
 30
0.0
 10
-3.9307890689
 20
23.7470515132
 30
0.0
 10
-3.9309327327
 20
23.7507734247
 30
0.0
  0
SPLINE
  5
7B2
100
AcDbEntity
  8
ASSI
100
AcDbSpline
 62
7
  6
CONTINUOUS
 70
0
 71
3
 72
10
 73
6
 74
0
 42
0.0000001
 43
0.0000001
 44
0.0000000001
 40
0.0
 40
0.0
 40
0.0
 40
0.0
 40
0.1435729037
 40
0.3588355398
 40
1.0
 40
1.0
 40
1.0
 40
1.0
 10
-3.075
 20
23.7511422903
 30
0.0
 10
-3.075
 20
23.7489077556
 30
0.0
 10
-3.0766992591
 20
23.7434282642
 30
0.0
 10
-3.083785838
 20
23.729628971
 30
0.0
 10
-3.0915613756
 20
23.71868682
 30
0.0
 10
-3.097465772
 20
23.7106421206
 30
0.0
  0
SPLINE
  5
7B3
100
AcDbEntity
  8
ASSI
100
AcDbSpline
 62
7
  6
CONTINUOUS
 70
0
 71
3
 72
12
 73
8
 74
0
 42
0.0000001
 43
0.0000001
 44
0.0000000001
 40
0.0
 40
0.0
 40
0.0
 40
0.0
 40
0.0841735916
 40
0.1886316942
 40
0.436310239
 40
0.7123784467
 40
1.0
 40
1.0
 40
1.0
 40
1.0
 10
-3.097465772
 20
23.7106421206
 30
0.0
 10
-3.1075777071
 20
23.6968646786
 30
0.0
 10
-3.1315551605
 20
23.6669694836
 30
0.0
 10
-3.189034592
 20
23.5995672742
 30
0.0
 10
-3.2742582942
 20
23.5046483544
 30
0.0
 10
-3.3855803984
 20
23.3832251693
 30
0.0
 10
-3.4633122355
 20
23.2992231711
 30
0.0
 10
-3.5029699877
 20
23.2563578147
 30
0.0
  0
SPLINE
  5
7B4
100
AcDbEntity
  8
ASSI
100
AcDbSpline
 62
7
  6
CONTINUOUS
 70
0
 71
3
 72
18
 73
14
 74
0
 42
0.0000001
 43
0.0000001
 44
0.0000000001
 40
0.0
 40
0.0
 40
0.0
 40
0.0
 40
0.1617626362
 40
0.3213210916
 40
0.4761348144
 40
0.6228935805
 40
0.7568955454
 40
0.8170511739
 40
0.8711751963
 40
0.917919862
 40
0.9558002483
 40
0.983403045
 40
1.0
 40
1.0
 40
1.0
 40
1.0
 10
4.3529699877
 20
23.2563578147
 30
0.0
 10
4.3289571701
 20
23.2823128406
 30
0.0
 10
4.2812584608
 20
23.3338690226
 30
0.0
 10
4.2106972839
 20
23.4103749159
 30
0.0
 10
4.1426127694
 20
23.4847038112
 30
0.0
 10
4.07874232
 20
23.5553126307
 30
0.0
 10
4.0293387242
 20
23.611111514
 30
0.0
 10
3.9940345371
 20
23.6523252473
 30
0.0
 10
3.9715506371
 20
23.679425806
 30
0.0
 10
3.9527917146
 20
23.7032132799
 30
0.0
 10
3.9382806161
 20
23.7231353787
 30
0.0
 10
3.9290485276
 20
23.7382783969
 30
0.0
 10
3.925
 20
23.7475144044
 30
0.0
 10
3.925
 20
23.7511422903
 30
0.0
  0
SPLINE
  5
7B5
100
AcDbEntity
  8
ASSI
100
AcDbSpline
 62
7
  6
CONTINUOUS
 70
0
 71
3
 72
10
 73
6
 74
0
 42
0.0000001
 43
0.0000001
 44
0.0000000001
 40
0.0
 40
0.0
 40
0.0
 40
0.0
 40
0.1456809477
 40
0.3619050252
 40
1.0
 40
1.0
 40
1.0
 40
1.0
 10
4.7809327327
 20
23.7507734247
 30
0.0
 10
4.7808440861
 20
23.7484768485
 30
0.0
 10
4.779020573
 20
23.7429241477
 30
0.0
 10
4.7717310809
 20
23.7289807843
 30
0.0
 10
4.7638532473
 20
23.7179398669
 30
0.0
 10
4.7578812927
 20
23.7098359161
 30
0.0
  0
SPLINE
  5
7B6
100
AcDbEntity
  8
ASSI
100
AcDbSpline
 62
7
  6
CONTINUOUS
 70
0
 71
3
 72
12
 73
8
 74
0
 42
0.0000001
 43
0.0000001
 44
0.0000000001
 40
0.0
 40
0.0
 40
0.0
 40
0.0
 40
0.0845788223
 40
0.1892265324
 40
0.4368995548
 40
0.7127161813
 40
1.0
 40
1.0
 40
1.0
 40
1.0
 10
4.7578812927
 20
23.7098359161
 30
0.0
 10
4.747710741
 20
23.6960344631
 30
0.0
 10
4.7236731456
 20
23.6661149395
 30
0.0
 10
4.6661828969
 20
23.5987557263
 30
0.0
 10
4.5811006325
 20
23.5040105778
 30
0.0
 10
4.470038908
 20
23.3828790321
 30
0.0
 10
4.3925161152
 20
23.299102518
 30
0.0
 10
4.3529699877
 20
23.2563578147
 30
0.0
  0
SPLINE
  5
7B7
100
AcDbEntity
  8
ASSI
100
AcDbSpline
 62
7
  6
CONTINUOUS
 70
0
 71
3
 72
10
 73
6
 74
0
 42
0.0000001
 43
0.0000001
 44
0.0000000001
 40
0.0
 40
0.0
 40
0.0
 40
0.0
 40
0.1455807527
 40
0.361787674
 40
1.0
 40
1.0
 40
1.0
 40
1.0
 10
-3.9309327327
 20
-23.7507734247
 30
0.0
 10
-3.9308438378
 20
-23.7484704164
 30
0.0
 10
-3.9290112776
 20
-23.7429007921
 30
0.0
 10
-3.9216899436
 20
-23.7289125855
 30
0.0
 10
-3.9137795818
 20
-23.71783462
 30
0.0
 10
-3.9077831343
 20
-23.7097027583
 30
0.0
  0
SPLINE
  5
7B8
100
AcDbEntity
  8
ASSI
100
AcDbSpline
 62
7
  6
CONTINUOUS
 70
0
 71
3
 72
12
 73
8
 74
0
 42
0.0000001
 43
0.0000001
 44
0.0000000001
 40
0.0
 40
0.0
 40
0.0
 40
0.0
 40
0.0846456713
 40
0.1893243912
 40
0.4369961344
 40
0.7127717656
 40
1.0
 40
1.0
 40
1.0
 40
1.0
 10
-3.9077831343
 20
-23.7097027583
 30
0.0
 10
-3.8976029943
 20
-23.6958973359
 30
0.0
 10
-3.873555572
 20
-23.6659738652
 30
0.0
 10
-3.8160637222
 20
-23.5986218787
 30
0.0
 10
-3.731004855
 20
-23.503905459
 30
0.0
 10
-3.61998609
 20
-23.3828220186
 30
0.0
 10
-3.5424977116
 20
-23.2990826259
 30
0.0
 10
-3.5029699877
 20
-23.2563578147
 30
0.0
  0
SPLINE
  5
7B9
100
AcDbEntity
  8
ASSI
100
AcDbSpline
 62
7
  6
CONTINUOUS
 70
0
 71
3
 72
18
 73
14
 74
0
 42
0.0000001
 43
0.0000001
 44
0.0000000001
 40
0.0
 40
0.0
 40
0.0
 40
0.0
 40
0.1617624672
 40
0.321320975
 40
0.476134663
 40
0.622893171
 40
0.7568948923
 40
0.817050538
 40
0.8711746843
 40
0.9179196041
 40
0.9558002605
 40
0.9834031153
 40
1.0
 40
1.0
 40
1.0
 40
1.0
 10
-3.5029699877
 20
-23.2563578147
 30
0.0
 10
-3.4789571952
 20
-23.2823128135
 30
0.0
 10
-3.431258503
 20
-23.3338689767
 30
0.0
 10
-3.3606973482
 20
-23.4103748456
 30
0.0
 10
-3.2926128695
 20
-23.4847037025
 30
0.0
 10
-3.2287424953
 20
-23.555312432
 30
0.0
 10
-3.1793389735
 20
-23.6111112393
 30
0.0
 10
-3.1440347898
 20
-23.6523249461
 30
0.0
 10
-3.1215508265
 20
-23.6794255646
 30
0.0
 10
-3.1027918146
 20
-23.7032131486
 30
0.0
 10
-3.0882806364
 20
-23.7231353468
 30
0.0
 10
-3.0790485134
 20
-23.7382784116
 30
0.0
 10
-3.075
 20
-23.7475144197
 30
0.0
 10
-3.075
 20
-23.7511422903
 30
0.0
  0
SPLINE
  5
7BA
100
AcDbEntity
  8
ASSI
100
AcDbSpline
 62
7
  6
CONTINUOUS
 70
0
 71
3
 72
10
 73
6
 74
0
 42
0.0000001
 43
0.0000001
 44
0.0000000001
 40
0.0
 40
0.0
 40
0.0
 40
0.0
 40
0.1434700817
 40
0.3587154943
 40
1.0
 40
1.0
 40
1.0
 40
1.0
 10
3.925
 20
-23.7511422903
 30
0.0
 10
3.925
 20
-23.7489013725
 30
0.0
 10
3.9267082889
 20
-23.7434047466
 30
0.0
 10
3.9338269278
 20
-23.7295601405
 30
0.0
 10
3.9416354521
 20
-23.7185804115
 30
0.0
 10
3.9475647032
 20
-23.7105073734
 30
0.0
  0
SPLINE
  5
7BB
100
AcDbEntity
  8
ASSI
100
AcDbSpline
 62
7
  6
CONTINUOUS
 70
0
 71
3
 72
12
 73
8
 74
0
 42
0.0000001
 43
0.0000001
 44
0.0000000001
 40
0.0
 40
0.0
 40
0.0
 40
0.0
 40
0.0842423689
 40
0.1887323742
 40
0.4364095735
 40
0.7124356034
 40
1.0
 40
1.0
 40
1.0
 40
1.0
 10
3.9475647032
 20
-23.7105073734
 30
0.0
 10
3.9576866233
 20
-23.6967257601
 30
0.0
 10
3.9816743436
 20
-23.6668263027
 30
0.0
 10
4.0391557683
 20
-23.5994311551
 30
0.0
 10
4.1243557993
 20
-23.5045413227
 30
0.0
 10
4.2356342188
 20
-23.3831670765
 30
0.0
 10
4.313330994
 20
-23.2992028954
 30
0.0
 10
4.3529699877
 20
-23.2563578147
 30
0.0
  0
SPLINE
  5
7BC
100
AcDbEntity
  8
ASSI
100
AcDbSpline
 62
7
  6
CONTINUOUS
 70
0
 71
3
 72
17
 73
13
 74
0
 42
0.0000001
 43
0.0000001
 44
0.0000000001
 40
0.0
 40
0.0
 40
0.0
 40
0.0
 40
0.1613756745
 40
0.3205659466
 40
0.4750537865
 40
0.6215644074
 40
0.7554542293
 40
0.8698487639
 40
0.9167795001
 40
0.9549508897
 40
0.9829508644
 40
1.0
 40
1.0
 40
1.0
 40
1.0
 10
4.3529699877
 20
-23.2563578147
 30
0.0
 10
4.3769121299
 20
-23.2822364489
 30
0.0
 10
4.4244722204
 20
-23.3336431158
 30
0.0
 10
4.4948360283
 20
-23.4099322329
 30
0.0
 10
4.5627426758
 20
-23.4840670325
 30
0.0
 10
4.626495059
 20
-23.5545174998
 30
0.0
 10
4.6836471452
 20
-23.6190988087
 30
0.0
 10
4.7254998735
 20
-23.66822349
 30
0.0
 10
4.752512214
 20
-23.7023787942
 30
0.0
 10
4.7671577959
 20
-23.7224038528
 30
0.0
 10
4.7765990343
 20
-23.7377330223
 30
0.0
 10
4.7807890695
 20
-23.747051528
 30
0.0
 10
4.7809327327
 20
-23.7507734247
 30
0.0
  0
SPLINE
  5
7BD
100
AcDbEntity
  8
ASSI
100
AcDbSpline
 62
250
  6
CONTINUOUS
 70
0
 71
3
 72
11
 73
7
 74
0
 42
0.0000001
 43
0.0000001
 44
0.0000000001
 40
0.0
 40
0.0
 40
0.0
 40
0.0
 40
0.2441403432
 40
0.4918426694
 40
0.7443193242
 40
1.0
 40
1.0
 40
1.0
 40
1.0
 10
-6.3382085205
 20
19.7564431031
 30
0.0
 10
-6.3134363583
 20
19.7564898779
 30
0.0
 10
-6.2629737021
 20
19.7671691652
 30
0.0
 10
-6.1998150426
 20
19.8120644462
 30
0.0
 10
-6.1578325512
 20
19.8784301797
 30
0.0
 10
-6.1480217656
 20
19.9304965862
 30
0.0
 10
-6.147977476
 20
19.9564397185
 30
0.0
  0
SPLINE
  5
7BE
100
AcDbEntity
  8
ASSI
100
AcDbSpline
 62
250
  6
CONTINUOUS
 70
0
 71
3
 72
11
 73
7
 74
0
 42
0.0000001
 43
0.0000001
 44
0.0000000001
 40
0.0
 40
0.0
 40
0.0
 40
0.0
 40
0.2554275244
 40
0.5072309173
 40
0.7549754016
 40
1.0
 40
1.0
 40
1.0
 40
1.0
 10
-6.7968280927
 20
19.9103698196
 30
0.0
 10
-6.7919549729
 20
19.8888913319
 30
0.0
 10
-6.7753629674
 20
19.8474621677
 30
0.0
 10
-6.7322960115
 20
19.7971054103
 30
0.0
 10
-6.6757559619
 20
19.7641804672
 30
0.0
 10
-6.632918811
 20
19.7564829957
 30
0.0
 10
-6.6117914795
 20
19.7564431031
 30
0.0
  0
SPLINE
  5
7BF
100
AcDbEntity
  8
ASSI
100
AcDbSpline
 62
7
  6
CONTINUOUS
 70
0
 71
3
 72
9
 73
5
 74
0
 42
0.0000001
 43
0.0000001
 44
0.0000000001
 40
0.0
 40
0.0
 40
0.0
 40
0.0
 40
0.5096581785
 40
1.0
 40
1.0
 40
1.0
 40
1.0
 10
8.0091007192
 20
-21.3126932437
 30
0.0
 10
8.0622329483
 20
-21.3878335627
 30
0.0
 10
8.1664792083
 20
-21.5352598413
 30
0.0
 10
8.2680465455
 20
-21.6846119837
 30
0.0
 10
8.3158834737
 20
-21.7591165263
 30
0.0
  0
SPLINE
  5
7C0
100
AcDbEntity
  8
ASSI
100
AcDbSpline
 62
7
  6
CONTINUOUS
 70
0
 71
3
 72
9
 73
5
 74
0
 42
0.0000001
 43
0.0000001
 44
0.0000000001
 40
0.0
 40
0.0
 40
0.0
 40
0.0
 40
0.4903418215
 40
1.0
 40
1.0
 40
1.0
 40
1.0
 10
-7.4658834737
 20
-21.7591165263
 30
0.0
 10
-7.4180465455
 20
-21.6846119837
 30
0.0
 10
-7.3164792083
 20
-21.5352598413
 30
0.0
 10
-7.2122329483
 20
-21.3878335627
 30
0.0
 10
-7.1591007192
 20
-21.3126932437
 30
0.0
  0
SPLINE
  5
7C1
100
AcDbEntity
  8
ASSI
100
AcDbSpline
 62
7
  6
CONTINUOUS
 70
0
 71
3
 72
9
 73
5
 74
0
 42
0.0000001
 43
0.0000001
 44
0.0000000001
 40
0.0
 40
0.0
 40
0.0
 40
0.0
 40
0.4903418215
 40
1.0
 40
1.0
 40
1.0
 40
1.0
 10
8.3158834737
 20
21.7591165263
 30
0.0
 10
8.2680465455
 20
21.6846119837
 30
0.0
 10
8.1664792083
 20
21.5352598413
 30
0.0
 10
8.0622329483
 20
21.3878335627
 30
0.0
 10
8.0091007192
 20
21.3126932437
 30
0.0
  0
SPLINE
  5
7C2
100
AcDbEntity
  8
ASSI
100
AcDbSpline
 62
7
  6
CONTINUOUS
 70
0
 71
3
 72
9
 73
5
 74
0
 42
0.0000001
 43
0.0000001
 44
0.0000000001
 40
0.0
 40
0.0
 40
0.0
 40
0.0
 40
0.5096581785
 40
1.0
 40
1.0
 40
1.0
 40
1.0
 10
-7.1591007192
 20
21.3126932437
 30
0.0
 10
-7.2122329483
 20
21.3878335627
 30
0.0
 10
-7.3164792083
 20
21.5352598413
 30
0.0
 10
-7.4180465455
 20
21.6846119837
 30
0.0
 10
-7.4658834737
 20
21.7591165263
 30
0.0
  0
SPLINE
  5
7C3
100
AcDbEntity
  8
ASSI
100
AcDbSpline
 62
250
  6
CONTINUOUS
 70
0
 71
3
 72
11
 73
7
 74
0
 42
0.0000001
 43
0.0000001
 44
0.0000000001
 40
0.0
 40
0.0
 40
0.0
 40
0.0
 40
0.2441403426
 40
0.4918426686
 40
0.7443193237
 40
1.0
 40
1.0
 40
1.0
 40
1.0
 10
7.4617914795
 20
19.7564431031
 30
0.0
 10
7.4865636416
 20
19.7564898779
 30
0.0
 10
7.5370262977
 20
19.7671691652
 30
0.0
 10
7.600184957
 20
19.8120644463
 30
0.0
 10
7.6421674483
 20
19.8784301797
 30
0.0
 10
7.6519782342
 20
19.9304965861
 30
0.0
 10
7.652022524
 20
19.9564397185
 30
0.0
  0
SPLINE
  5
7C4
100
AcDbEntity
  8
ASSI
100
AcDbSpline
 62
250
  6
CONTINUOUS
 70
0
 71
3
 72
11
 73
7
 74
0
 42
0.0000001
 43
0.0000001
 44
0.0000000001
 40
0.0
 40
0.0
 40
0.0
 40
0.0
 40
0.2554275244
 40
0.5072309173
 40
0.7549754016
 40
1.0
 40
1.0
 40
1.0
 40
1.0
 10
7.0031719072
 20
19.9103698199
 30
0.0
 10
7.008045027
 20
19.8888913322
 30
0.0
 10
7.0246370324
 20
19.8474621679
 30
0.0
 10
7.0677039884
 20
19.7971054103
 30
0.0
 10
7.124244038
 20
19.7641804672
 30
0.0
 10
7.1670811889
 20
19.7564829957
 30
0.0
 10
7.1882085205
 20
19.7564431031
 30
0.0
  0
SPLINE
  5
7C5
100
AcDbEntity
  8
ASSI
100
AcDbSpline
 62
250
  6
CONTINUOUS
 70
0
 71
3
 72
11
 73
7
 74
0
 42
0.0000001
 43
0.0000001
 44
0.0000000001
 40
0.0
 40
0.0
 40
0.0
 40
0.0
 40
0.2441403426
 40
0.4918426686
 40
0.7443193237
 40
1.0
 40
1.0
 40
1.0
 40
1.0
 10
-6.6117914795
 20
-19.7564431031
 30
0.0
 10
-6.6365636416
 20
-19.7564898779
 30
0.0
 10
-6.6870262977
 20
-19.7671691652
 30
0.0
 10
-6.750184957
 20
-19.8120644463
 30
0.0
 10
-6.7921674483
 20
-19.8784301797
 30
0.0
 10
-6.8019782342
 20
-19.9304965861
 30
0.0
 10
-6.802022524
 20
-19.9564397185
 30
0.0
  0
SPLINE
  5
7C6
100
AcDbEntity
  8
ASSI
100
AcDbSpline
 62
250
  6
CONTINUOUS
 70
0
 71
3
 72
11
 73
7
 74
0
 42
0.0000001
 43
0.0000001
 44
0.0000000001
 40
0.0
 40
0.0
 40
0.0
 40
0.0
 40
0.2554275244
 40
0.5072309173
 40
0.7549754016
 40
1.0
 40
1.0
 40
1.0
 40
1.0
 10
-6.1531719072
 20
-19.9103698199
 30
0.0
 10
-6.158045027
 20
-19.8888913322
 30
0.0
 10
-6.1746370324
 20
-19.8474621679
 30
0.0
 10
-6.2177039884
 20
-19.7971054103
 30
0.0
 10
-6.274244038
 20
-19.7641804672
 30
0.0
 10
-6.3170811889
 20
-19.7564829957
 30
0.0
 10
-6.3382085205
 20
-19.7564431031
 30
0.0
  0
SPLINE
  5
7C7
100
AcDbEntity
  8
ASSI
100
AcDbSpline
 62
250
  6
CONTINUOUS
 70
0
 71
3
 72
11
 73
7
 74
0
 42
0.0000001
 43
0.0000001
 44
0.0000000001
 40
0.0
 40
0.0
 40
0.0
 40
0.0
 40
0.2554275244
 40
0.5072309173
 40
0.7549754016
 40
1.0
 40
1.0
 40
1.0
 40
1.0
 10
7.6468280927
 20
-19.9103698196
 30
0.0
 10
7.6419549729
 20
-19.8888913319
 30
0.0
 10
7.6253629674
 20
-19.8474621677
 30
0.0
 10
7.5822960115
 20
-19.7971054103
 30
0.0
 10
7.5257559619
 20
-19.7641804672
 30
0.0
 10
7.482918811
 20
-19.7564829957
 30
0.0
 10
7.4617914795
 20
-19.7564431031
 30
0.0
  0
SPLINE
  5
7C8
100
AcDbEntity
  8
ASSI
100
AcDbSpline
 62
250
  6
CONTINUOUS
 70
0
 71
3
 72
11
 73
7
 74
0
 42
0.0000001
 43
0.0000001
 44
0.0000000001
 40
0.0
 40
0.0
 40
0.0
 40
0.0
 40
0.2554276355
 40
0.5072310521
 40
0.7549754751
 40
1.0
 40
1.0
 40
1.0
 40
1.0
 10
7.0031721801
 20
-19.9103688705
 30
0.0
 10
7.008045402
 20
-19.888890486
 30
0.0
 10
7.0246375294
 20
-19.8474615605
 30
0.0
 10
7.067704452
 20
-19.7971051264
 30
0.0
 10
7.1242443122
 20
-19.7641804104
 30
0.0
 10
7.1670812793
 20
-19.7564829958
 30
0.0
 10
7.1882085205
 20
-19.7564431031
 30
0.0
  0
SPLINE
  5
7C9
100
AcDbEntity
  8
ASSI
100
AcDbSpline
 62
250
  6
CONTINUOUS
 70
0
 71
3
 72
11
 73
7
 74
0
 42
0.0000001
 43
0.0000001
 44
0.0000000001
 40
0.0
 40
0.0
 40
0.0
 40
0.0
 40
0.2331615336
 40
0.476670328
 40
0.7338124407
 40
1.0
 40
1.0
 40
1.0
 40
1.0
 10
-10.220628166
 20
-23.8443375673
 30
0.0
 10
-10.2205330946
 20
-23.8160324888
 30
0.0
 10
-10.206602622
 20
-23.7574897042
 30
0.0
 10
-10.1496713294
 20
-23.6858275835
 30
0.0
 10
-10.0670024088
 20
-23.638830569
 30
0.0
 10
-10.0029468109
 20
-23.6279126226
 30
0.0
 10
-9.9706323968
 20
-23.6278312164
 30
0.0
  0
SPLINE
  5
7CA
100
AcDbEntity
  8
ASSI
100
AcDbSpline
 62
250
  6
CONTINUOUS
 70
0
 71
3
 72
11
 73
7
 74
0
 42
0.0000001
 43
0.0000001
 44
0.0000000001
 40
0.0
 40
0.0
 40
0.0
 40
0.0
 40
0.2331616889
 40
0.47667047
 40
0.7338125459
 40
1.0
 40
1.0
 40
1.0
 40
1.0
 10
-7.829371834
 20
-23.8443375673
 30
0.0
 10
-7.8294669055
 20
-23.81603247
 30
0.0
 10
-7.8433973942
 20
-23.7574896677
 30
0.0
 10
-7.9003287106
 20
-23.6858275516
 30
0.0
 10
-7.982997622
 20
-23.6388305607
 30
0.0
 10
-8.047053202
 20
-23.6279126226
 30
0.0
 10
-8.0793676032
 20
-23.6278312164
 30
0.0
  0
SPLINE
  5
7CB
100
AcDbEntity
  8
ASSI
100
AcDbSpline
 62
250
  6
CONTINUOUS
 70
0
 71
3
 72
11
 73
7
 74
0
 42
0.0000001
 43
0.0000001
 44
0.0000000001
 40
0.0
 40
0.0
 40
0.0
 40
0.0
 40
0.2331615336
 40
0.476670328
 40
0.7338124407
 40
1.0
 40
1.0
 40
1.0
 40
1.0
 10
8.679371834
 20
-23.8443375673
 30
0.0
 10
8.6794669054
 20
-23.8160324888
 30
0.0
 10
8.693397378
 20
-23.7574897042
 30
0.0
 10
8.7503286706
 20
-23.6858275835
 30
0.0
 10
8.8329975912
 20
-23.638830569
 30
0.0
 10
8.8970531891
 20
-23.6279126226
 30
0.0
 10
8.9293676032
 20
-23.6278312164
 30
0.0
  0
SPLINE
  5
7CC
100
AcDbEntity
  8
ASSI
100
AcDbSpline
 62
250
  6
CONTINUOUS
 70
0
 71
3
 72
11
 73
7
 74
0
 42
0.0000001
 43
0.0000001
 44
0.0000000001
 40
0.0
 40
0.0
 40
0.0
 40
0.0
 40
0.2331615336
 40
0.476670328
 40
0.7338124407
 40
1.0
 40
1.0
 40
1.0
 40
1.0
 10
11.070628166
 20
-23.8443375673
 30
0.0
 10
11.0705330946
 20
-23.8160324888
 30
0.0
 10
11.056602622
 20
-23.7574897042
 30
0.0
 10
10.9996713294
 20
-23.6858275835
 30
0.0
 10
10.9170024088
 20
-23.638830569
 30
0.0
 10
10.8529468109
 20
-23.6279126226
 30
0.0
 10
10.8206323968
 20
-23.6278312164
 30
0.0
  0
SPLINE
  5
7CD
100
AcDbEntity
  8
ASSI
100
AcDbSpline
 62
7
  6
CONTINUOUS
 70
0
 71
3
 72
11
 73
7
 74
0
 42
0.0000001
 43
0.0000001
 44
0.0000000001
 40
0.0
 40
0.0
 40
0.0
 40
0.0
 40
0.1745701445
 40
0.3928928066
 40
0.6729070309
 40
1.0
 40
1.0
 40
1.0
 40
1.0
 10
-7.829371834
 20
23.8443375673
 30
0.0
 10
-7.8295557006
 20
23.8260905381
 30
0.0
 10
-7.8449844948
 20
23.7849987903
 30
0.0
 10
-7.9007360925
 20
23.7390512139
 30
0.0
 10
-7.9821059767
 20
23.707533478
 30
0.0
 10
-8.0459035447
 20
23.7
 30
0.0
 10
-8.0800948319
 20
23.7
 30
0.0
  0
SPLINE
  5
7CE
100
AcDbEntity
  8
ASSI
100
AcDbSpline
 62
7
  6
CONTINUOUS
 70
0
 71
3
 72
11
 73
7
 74
0
 42
0.0000001
 43
0.0000001
 44
0.0000000001
 40
0.0
 40
0.0
 40
0.0
 40
0.0
 40
0.3271229332
 40
0.6070446177
 40
0.8253479641
 40
1.0
 40
1.0
 40
1.0
 40
1.0
 10
-9.9706323968
 20
23.7
 30
0.0
 10
-10.0047484588
 20
23.7
 30
0.0
 10
-10.0683801002
 20
23.7076881447
 30
0.0
 10
-10.1495154871
 20
23.7392056107
 30
0.0
 10
-10.2050792199
 20
23.7851175878
 30
0.0
 10
-10.2204446347
 20
23.8261238115
 30
0.0
 10
-10.220628166
 20
23.8443375673
 30
0.0
  0
SPLINE
  5
7CF
100
AcDbEntity
  8
ASSI
100
AcDbSpline
 62
250
  6
CONTINUOUS
 70
0
 71
3
 72
10
 73
6
 74
0
 42
0.0000001
 43
0.0000001
 44
0.0000000001
 40
0.0
 40
0.0
 40
0.0
 40
0.0
 40
0.0703887207
 40
0.2612213898
 40
1.0
 40
1.0
 40
1.0
 40
1.0
 10
-6.3311862866
 20
-19.7561896713
 30
0.0
 10
-6.3313029322
 20
-19.7563062745
 30
0.0
 10
-6.3320156502
 20
-19.7561801688
 30
0.0
 10
-6.3342088977
 20
-19.7565254837
 30
0.0
 10
-6.3364777248
 20
-19.7564120785
 30
0.0
 10
-6.3382085205
 20
-19.7564431031
 30
0.0
  0
SPLINE
  5
7D0
100
AcDbEntity
  8
ASSI
100
AcDbSpline
 62
250
  6
CONTINUOUS
 70
0
 71
3
 72
10
 73
6
 74
0
 42
0.0000001
 43
0.0000001
 44
0.0000000001
 40
0.0
 40
0.0
 40
0.0
 40
0.0
 40
0.0703777998
 40
0.261187029
 40
1.0
 40
1.0
 40
1.0
 40
1.0
 10
-6.6188137134
 20
-19.7561896713
 30
0.0
 10
-6.6186971293
 20
-19.7563062998
 30
0.0
 10
-6.6179844087
 20
-19.7561801281
 30
0.0
 10
-6.6157913
 20
-19.7565255674
 30
0.0
 10
-6.6135223558
 20
-19.7564120769
 30
0.0
 10
-6.6117914795
 20
-19.7564431031
 30
0.0
  0
SPLINE
  5
7D1
100
AcDbEntity
  8
ASSI
100
AcDbSpline
 62
250
  6
CONTINUOUS
 70
0
 71
3
 72
11
 73
7
 74
0
 42
0.0000001
 43
0.0000001
 44
0.0000000001
 40
0.0
 40
0.0
 40
0.0
 40
0.0
 40
0.2331615336
 40
0.476670328
 40
0.7338124407
 40
1.0
 40
1.0
 40
1.0
 40
1.0
 10
11.070628166
 20
23.8443375673
 30
0.0
 10
11.0705330946
 20
23.8160324888
 30
0.0
 10
11.056602622
 20
23.7574897042
 30
0.0
 10
10.9996713294
 20
23.6858275835
 30
0.0
 10
10.9170024088
 20
23.638830569
 30
0.0
 10
10.8529468109
 20
23.6279126226
 30
0.0
 10
10.8206323968
 20
23.6278312164
 30
0.0
  0
SPLINE
  5
7D2
100
AcDbEntity
  8
ASSI
100
AcDbSpline
 62
250
  6
CONTINUOUS
 70
0
 71
3
 72
11
 73
7
 74
0
 42
0.0000001
 43
0.0000001
 44
0.0000000001
 40
0.0
 40
0.0
 40
0.0
 40
0.0
 40
0.2331616734
 40
0.4766704348
 40
0.7338124928
 40
1.0
 40
1.0
 40
1.0
 40
1.0
 10
8.679371834
 20
23.8443375673
 30
0.0
 10
8.6794669055
 20
23.8160324719
 30
0.0
 10
8.693397392
 20
23.757489674
 30
0.0
 10
8.750328701
 20
23.6858275607
 30
0.0
 10
8.832997611
 20
23.6388305642
 30
0.0
 10
8.8970531955
 20
23.6279126226
 30
0.0
 10
8.9293676032
 20
23.6278312164
 30
0.0
  0
SPLINE
  5
7D3
100
AcDbEntity
  8
ASSI
100
AcDbSpline
 62
7
  6
CONTINUOUS
 70
0
 71
3
 72
15
 73
11
 74
0
 42
0.0000001
 43
0.0000001
 44
0.0000000001
 40
0.0
 40
0.0
 40
0.0
 40
0.0
 40
0.3056919473
 40
0.4536967285
 40
0.5951470986
 40
0.7264362331
 40
0.8424211159
 40
0.935996767
 40
0.9719669498
 40
1.0
 40
1.0
 40
1.0
 40
1.0
 10
7.325
 20
20.5829242832
 30
0.0
 10
7.2866817476
 20
20.5367151777
 30
0.0
 10
7.2297944742
 20
20.4681466352
 30
0.0
 10
7.1561382389
 20
20.3774023621
 30
0.0
 10
7.1049011827
 20
20.3125880211
 30
0.0
 10
7.0588308838
 20
20.2516860945
 30
0.0
 10
7.0206093158
 20
20.1967757155
 30
0.0
 10
6.9957443911
 20
20.1552282517
 30
0.0
 10
6.9839853804
 20
20.1265764532
 30
0.0
 10
6.9812856898
 20
20.1141101455
 30
0.0
 10
6.9811896713
 20
20.1086060399
 30
0.0
  0
SPLINE
  5
7D4
100
AcDbEntity
  8
ASSI
100
AcDbSpline
 62
7
  6
CONTINUOUS
 70
0
 71
3
 72
15
 73
11
 74
0
 42
0.0000001
 43
0.0000001
 44
0.0000000001
 40
0.0
 40
0.0
 40
0.0
 40
0.0
 40
0.0280330502
 40
0.064003233
 40
0.1575788841
 40
0.2735637669
 40
0.4048529014
 40
0.5463032715
 40
0.6943080527
 40
1.0
 40
1.0
 40
1.0
 40
1.0
 10
-6.1311896713
 20
20.1086060399
 30
0.0
 10
-6.1312856898
 20
20.1141101455
 30
0.0
 10
-6.1339853804
 20
20.1265764532
 30
0.0
 10
-6.1457443911
 20
20.1552282517
 30
0.0
 10
-6.1706093158
 20
20.1967757155
 30
0.0
 10
-6.2088308838
 20
20.2516860945
 30
0.0
 10
-6.2549011827
 20
20.3125880211
 30
0.0
 10
-6.3061382389
 20
20.3774023621
 30
0.0
 10
-6.3797944742
 20
20.4681466352
 30
0.0
 10
-6.4366817476
 20
20.5367151777
 30
0.0
 10
-6.475
 20
20.5829242832
 30
0.0
  0
SPLINE
  5
7D5
100
AcDbEntity
  8
ASSI
100
AcDbSpline
 62
250
  6
CONTINUOUS
 70
0
 71
3
 72
16
 73
12
 74
0
 42
0.0000001
 43
0.0000001
 44
0.0000000001
 40
0.0
 40
0.0
 40
0.0
 40
0.0
 40
0.1841086499
 40
0.3624370164
 40
0.5292024308
 40
0.6785608811
 40
0.804788996
 40
0.9025926535
 40
0.9677658085
 40
0.9876698573
 40
1.0
 40
1.0
 40
1.0
 40
1.0
 10
7.325
 20
-20.0564380262
 30
0.0
 10
7.3173922207
 20
-20.0375728034
 30
0.0
 10
7.3026249386
 20
-20.0003501984
 30
0.0
 10
7.2807132131
 20
-19.9461429716
 30
0.0
 10
7.2599939423
 20
-19.8955887111
 30
0.0
 10
7.2409200018
 20
-19.8506045564
 30
0.0
 10
7.224091521
 20
-19.8128882622
 30
0.0
 10
7.2099856465
 20
-19.7843186114
 30
0.0
 10
7.199793497
 20
-19.7666152968
 30
0.0
 10
7.1928155987
 20
-19.7585470504
 30
0.0
 10
7.1895687924
 20
-19.756517597
 30
0.0
 10
7.1882085205
 20
-19.7564431031
 30
0.0
  0
SPLINE
  5
7D6
100
AcDbEntity
  8
ASSI
100
AcDbSpline
 62
250
  6
CONTINUOUS
 70
0
 71
3
 72
16
 73
12
 74
0
 42
0.0000001
 43
0.0000001
 44
0.0000000001
 40
0.0
 40
0.0
 40
0.0
 40
0.0
 40
0.0123313989
 40
0.0322309414
 40
0.0974037069
 40
0.1952076889
 40
0.321437754
 40
0.4707987857
 40
0.6375654196
 40
0.815894027
 40
1.0
 40
1.0
 40
1.0
 40
1.0
 10
7.4617914795
 20
-19.7564431031
 30
0.0
 10
7.4604310663
 20
-19.7565175603
 30
0.0
 10
7.45718409
 20
-19.7585460824
 30
0.0
 10
7.4502089206
 20
-19.7666166108
 30
0.0
 10
7.4400131533
 20
-19.7843162029
 30
0.0
 10
7.4259095074
 20
-19.8128879062
 30
0.0
 10
7.4090799862
 20
-19.8506040072
 30
0.0
 10
7.3900060555
 20
-19.895588983
 30
0.0
 10
7.3692863879
 20
-19.9461435347
 30
0.0
 10
7.347375075
 20
-20.0003508055
 30
0.0
 10
7.3326069285
 20
-20.0375727756
 30
0.0
 10
7.325
 20
-20.0564380262
 30
0.0
  0
LINE
  5
7D7
100
AcDbEntity
  8
ASSI
100
AcDbLine
 62
250
  6
CONTINUOUS
 10
6.997977476
 20
-19.9564397185
 11
6.9811896713
 21
-19.9561862866
  0
SPLINE
  5
7D8
100
AcDbEntity
  8
ASSI
100
AcDbSpline
 62
250
  6
CONTINUOUS
 70
0
 71
3
 72
12
 73
8
 74
0
 42
0.0000001
 43
0.0000001
 44
0.0000000001
 40
0.0
 40
0.0
 40
0.0
 40
0.0
 40
0.3207938879
 40
0.6138546996
 40
0.8498374615
 40
0.9371691231
 40
1.0
 40
1.0
 40
1.0
 40
1.0
 10
7.325
 20
-20.0564380262
 30
0.0
 10
7.290443495
 20
-20.0443011014
 30
0.0
 10
7.2242335439
 20
-20.0212924096
 30
0.0
 10
7.1323265613
 20
-19.9902747064
 30
0.0
 10
7.0650669567
 20
-19.9692859462
 30
0.0
 10
7.0222091203
 20
-19.9590778233
 30
0.0
 10
7.0051508467
 20
-19.9564933488
 30
0.0
 10
6.997977476
 20
-19.9564397185
 30
0.0
  0
SPLINE
  5
7D9
100
AcDbEntity
  8
ASSI
100
AcDbSpline
 62
250
  6
CONTINUOUS
 70
0
 71
3
 72
12
 73
8
 74
0
 42
0.0000001
 43
0.0000001
 44
0.0000000001
 40
0.0
 40
0.0
 40
0.0
 40
0.0
 40
0.0628288346
 40
0.1501593795
 40
0.3861447612
 40
0.6792078725
 40
1.0
 40
1.0
 40
1.0
 40
1.0
 10
7.652022524
 20
-19.9564397185
 30
0.0
 10
7.6448493864
 20
-19.9564933508
 30
0.0
 10
7.6277914526
 20
-19.959077596
 30
0.0
 10
7.5849336861
 20
-19.9692858214
 30
0.0
 10
7.5176736643
 20
-19.9902746435
 30
0.0
 10
7.4257662
 20
-20.0212921017
 30
0.0
 10
7.3595566538
 20
-20.044302129
 30
0.0
 10
7.325
 20
-20.0564380262
 30
0.0
  0
LINE
  5
7DA
100
AcDbEntity
  8
ASSI
100
AcDbLine
 62
250
  6
CONTINUOUS
 10
7.6688103287
 20
-19.9561862866
 11
7.652022524
 21
-19.9564397185
  0
SPLINE
  5
7DB
100
AcDbEntity
  8
ASSI
100
AcDbSpline
 62
250
  6
CONTINUOUS
 70
0
 71
3
 72
16
 73
12
 74
0
 42
0.0000001
 43
0.0000001
 44
0.0000000001
 40
0.0
 40
0.0
 40
0.0
 40
0.0
 40
0.0123313984
 40
0.0322309426
 40
0.0974037091
 40
0.1952076939
 40
0.3214377619
 40
0.470798796
 40
0.6375654247
 40
0.8158940252
 40
1.0
 40
1.0
 40
1.0
 40
1.0
 10
-6.3382085205
 20
-19.7564431031
 30
0.0
 10
-6.3395689336
 20
-19.7565175603
 30
0.0
 10
-6.3428159099
 20
-19.7585460828
 30
0.0
 10
-6.3497910803
 20
-19.7666166104
 30
0.0
 10
-6.3599868466
 20
-19.7843162042
 30
0.0
 10
-6.3740904936
 20
-19.8128879075
 30
0.0
 10
-6.3909200148
 20
-19.8506040095
 30
0.0
 10
-6.4099939452
 20
-19.8955889854
 30
0.0
 10
-6.4307136128
 20
-19.946143536
 30
0.0
 10
-6.4526249257
 20
-20.0003508056
 30
0.0
 10
-6.4673930692
 20
-20.0375727763
 30
0.0
 10
-6.475
 20
-20.0564380262
 30
0.0
  0
SPLINE
  5
7DC
100
AcDbEntity
  8
ASSI
100
AcDbSpline
 62
250
  6
CONTINUOUS
 70
0
 71
3
 72
16
 73
12
 74
0
 42
0.0000001
 43
0.0000001
 44
0.0000000001
 40
0.0
 40
0.0
 40
0.0
 40
0.0
 40
0.012331472
 40
0.0322310204
 40
0.0974033839
 40
0.1952071603
 40
0.3214368411
 40
0.4707968133
 40
0.637561806
 40
0.8158906406
 40
1.0
 40
1.0
 40
1.0
 40
1.0
 10
-6.6117914795
 20
-19.7564431031
 30
0.0
 10
-6.6104310586
 20
-19.7565175661
 30
0.0
 10
-6.6071840884
 20
-19.7585461105
 30
0.0
 10
-6.6002088706
 20
-19.7666165419
 30
0.0
 10
-6.5900132532
 20
-19.7843161695
 30
0.0
 10
-6.5759095993
 20
-19.8128877281
 30
0.0
 10
-6.5590801778
 20
-19.8506036805
 30
0.0
 10
-6.5400061575
 20
-19.8955882474
 30
0.0
 10
-6.5192871913
 20
-19.9461427909
 30
0.0
 10
-6.497374519
 20
-20.000349747
 30
0.0
 10
-6.4826089212
 20
-20.0375731759
 30
0.0
 10
-6.475
 20
-20.0564380262
 30
0.0
  0
SPLINE
  5
7DD
100
AcDbEntity
  8
ASSI
100
AcDbSpline
 62
250
  6
CONTINUOUS
 70
0
 71
3
 72
12
 73
8
 74
0
 42
0.0000001
 43
0.0000001
 44
0.0000000001
 40
0.0
 40
0.0
 40
0.0
 40
0.0
 40
0.0628288354
 40
0.1501593815
 40
0.3861447667
 40
0.6792078753
 40
1.0
 40
1.0
 40
1.0
 40
1.0
 10
-6.147977476
 20
-19.9564397185
 30
0.0
 10
-6.1551506137
 20
-19.9564933508
 30
0.0
 10
-6.1722085477
 20
-19.9590775961
 30
0.0
 10
-6.2150663148
 20
-19.9692858216
 30
0.0
 10
-6.2823263369
 20
-19.9902746436
 30
0.0
 10
-6.3742338004
 20
-20.0212921034
 30
0.0
 10
-6.4404433475
 20
-20.0443021261
 30
0.0
 10
-6.475
 20
-20.0564380262
 30
0.0
  0
LINE
  5
7DE
100
AcDbEntity
  8
ASSI
100
AcDbLine
 62
250
  6
CONTINUOUS
 10
-6.1311896713
 20
-19.9561862866
 11
-6.147977476
 21
-19.9564397185
  0
LINE
  5
7DF
100
AcDbEntity
  8
ASSI
100
AcDbLine
 62
250
  6
CONTINUOUS
 10
-6.8188103287
 20
-19.9561862866
 11
-6.802022524
 21
-19.9564397185
  0
SPLINE
  5
7E0
100
AcDbEntity
  8
ASSI
100
AcDbSpline
 62
250
  6
CONTINUOUS
 70
0
 71
3
 72
12
 73
8
 74
0
 42
0.0000001
 43
0.0000001
 44
0.0000000001
 40
0.0
 40
0.0
 40
0.0
 40
0.0
 40
0.0628288509
 40
0.1501591179
 40
0.386144064
 40
0.6792054304
 40
1.0
 40
1.0
 40
1.0
 40
1.0
 10
-6.802022524
 20
-19.9564397185
 30
0.0
 10
-6.7948493845
 20
-19.9564933491
 30
0.0
 10
-6.7777914796
 20
-19.9590775911
 30
0.0
 10
-6.7349337979
 20
-19.9692858182
 30
0.0
 10
-6.6676739635
 20
-19.990274325
 30
0.0
 10
-6.5757668533
 20
-20.0212928767
 30
0.0
 10
-6.5095560724
 20
-20.044299632
 30
0.0
 10
-6.475
 20
-20.0564380262
 30
0.0
  0
SPLINE
  5
7E1
100
AcDbEntity
  8
ASSI
100
AcDbSpline
 62
250
  6
CONTINUOUS
 70
0
 71
3
 72
16
 73
12
 74
0
 42
0.0000001
 43
0.0000001
 44
0.0000000001
 40
0.0
 40
0.0
 40
0.0
 40
0.0
 40
0.0123313989
 40
0.0322309414
 40
0.0974037069
 40
0.1952076889
 40
0.321437754
 40
0.4707987857
 40
0.6375654196
 40
0.815894027
 40
1.0
 40
1.0
 40
1.0
 40
1.0
 10
-6.6117914795
 20
19.7564431031
 30
0.0
 10
-6.6104310663
 20
19.7565175603
 30
0.0
 10
-6.60718409
 20
19.7585460824
 30
0.0
 10
-6.6002089206
 20
19.7666166108
 30
0.0
 10
-6.5900131533
 20
19.7843162029
 30
0.0
 10
-6.5759095074
 20
19.8128879062
 30
0.0
 10
-6.5590799862
 20
19.8506040072
 30
0.0
 10
-6.5400060555
 20
19.895588983
 30
0.0
 10
-6.5192863879
 20
19.9461435347
 30
0.0
 10
-6.497375075
 20
20.0003508055
 30
0.0
 10
-6.4826069285
 20
20.0375727756
 30
0.0
 10
-6.475
 20
20.0564380262
 30
0.0
  0
SPLINE
  5
7E2
100
AcDbEntity
  8
ASSI
100
AcDbSpline
 62
250
  6
CONTINUOUS
 70
0
 71
3
 72
16
 73
12
 74
0
 42
0.0000001
 43
0.0000001
 44
0.0000000001
 40
0.0
 40
0.0
 40
0.0
 40
0.0
 40
0.0123314411
 40
0.0322311249
 40
0.0974034334
 40
0.1952072669
 40
0.321436928
 40
0.470796826
 40
0.6375617497
 40
0.8158905875
 40
1.0
 40
1.0
 40
1.0
 40
1.0
 10
-6.3382085205
 20
19.7564431031
 30
0.0
 10
-6.3395689379
 20
19.7565175676
 30
0.0
 10
-6.3428159032
 20
19.7585461407
 30
0.0
 10
-6.3497912019
 20
19.766616496
 30
0.0
 10
-6.3599867
 20
19.7843162421
 30
0.0
 10
-6.3740904461
 20
19.8128877307
 30
0.0
 10
-6.3909198143
 20
19.8506037127
 30
0.0
 10
-6.4099938528
 20
19.8955882481
 30
0.0
 10
-6.430712796
 20
19.9461427854
 30
0.0
 10
-6.452625492
 20
20.0003497297
 30
0.0
 10
-6.4673910455
 20
20.037573183
 30
0.0
 10
-6.475
 20
20.0564380262
 30
0.0
  0
SPLINE
  5
7E3
100
AcDbEntity
  8
ASSI
100
AcDbSpline
 62
250
  6
CONTINUOUS
 70
0
 71
3
 72
12
 73
8
 74
0
 42
0.0000001
 43
0.0000001
 44
0.0000000001
 40
0.0
 40
0.0
 40
0.0
 40
0.0
 40
0.0628288346
 40
0.1501593795
 40
0.3861447612
 40
0.6792078725
 40
1.0
 40
1.0
 40
1.0
 40
1.0
 10
-6.802022524
 20
19.9564397185
 30
0.0
 10
-6.7948493864
 20
19.9564933508
 30
0.0
 10
-6.7777914526
 20
19.959077596
 30
0.0
 10
-6.7349336861
 20
19.9692858214
 30
0.0
 10
-6.6676736643
 20
19.9902746435
 30
0.0
 10
-6.5757662
 20
20.0212921017
 30
0.0
 10
-6.5095566538
 20
20.044302129
 30
0.0
 10
-6.475
 20
20.0564380262
 30
0.0
  0
LINE
  5
7E4
100
AcDbEntity
  8
ASSI
100
AcDbLine
 62
250
  6
CONTINUOUS
 10
-6.8188103287
 20
19.9561862866
 11
-6.802022524
 21
19.9564397185
  0
SPLINE
  5
7E5
100
AcDbEntity
  8
ASSI
100
AcDbSpline
 62
250
  6
CONTINUOUS
 70
0
 71
3
 72
10
 73
6
 74
0
 42
0.0000001
 43
0.0000001
 44
0.0000000001
 40
0.0
 40
0.0
 40
0.0
 40
0.0
 40
0.0703887245
 40
0.2612213982
 40
1.0
 40
1.0
 40
1.0
 40
1.0
 10
-6.6188137134
 20
19.7561896713
 30
0.0
 10
-6.6186970678
 20
19.7563062745
 30
0.0
 10
-6.6179843498
 20
19.7561801688
 30
0.0
 10
-6.6157911023
 20
19.7565254837
 30
0.0
 10
-6.6135222752
 20
19.7564120785
 30
0.0
 10
-6.6117914795
 20
19.7564431031
 30
0.0
  0
SPLINE
  5
7E6
100
AcDbEntity
  8
ASSI
100
AcDbSpline
 62
250
  6
CONTINUOUS
 70
0
 71
3
 72
10
 73
6
 74
0
 42
0.0000001
 43
0.0000001
 44
0.0000000001
 40
0.0
 40
0.0
 40
0.0
 40
0.0
 40
0.0703887293
 40
0.2612214086
 40
1.0
 40
1.0
 40
1.0
 40
1.0
 10
-6.3311862866
 20
19.7561896713
 30
0.0
 10
-6.3313029322
 20
19.7563062745
 30
0.0
 10
-6.3320156502
 20
19.7561801688
 30
0.0
 10
-6.3342088978
 20
19.7565254836
 30
0.0
 10
-6.3364777249
 20
19.7564120785
 30
0.0
 10
-6.3382085205
 20
19.7564431031
 30
0.0
  0
LINE
  5
7E7
100
AcDbEntity
  8
ASSI
100
AcDbLine
 62
250
  6
CONTINUOUS
 10
-6.1311896713
 20
19.9561862866
 11
-6.147977476
 21
19.9564397185
  0
SPLINE
  5
7E8
100
AcDbEntity
  8
ASSI
100
AcDbSpline
 62
250
  6
CONTINUOUS
 70
0
 71
3
 72
12
 73
8
 74
0
 42
0.0000001
 43
0.0000001
 44
0.0000000001
 40
0.0
 40
0.0
 40
0.0
 40
0.0
 40
0.0628289143
 40
0.1501591664
 40
0.3861441151
 40
0.6792053881
 40
1.0
 40
1.0
 40
1.0
 40
1.0
 10
-6.147977476
 20
19.9564397185
 30
0.0
 10
-6.1551506228
 20
19.956493349
 30
0.0
 10
-6.172208532
 20
19.9590776009
 30
0.0
 10
-6.2150662231
 20
19.96928581
 30
0.0
 10
-6.2823260428
 20
19.9902743292
 30
0.0
 10
-6.3742331428
 20
20.0212928902
 30
0.0
 10
-6.4404439372
 20
20.04429959
 30
0.0
 10
-6.475
 20
20.0564380262
 30
0.0
  0
SPLINE
  5
7E9
100
AcDbEntity
  8
ASSI
100
AcDbSpline
 62
250
  6
CONTINUOUS
 70
0
 71
3
 72
16
 73
12
 74
0
 42
0.0000001
 43
0.0000001
 44
0.0000000001
 40
0.0
 40
0.0
 40
0.0
 40
0.0
 40
0.0123313984
 40
0.0322309426
 40
0.0974037091
 40
0.1952076939
 40
0.3214377619
 40
0.470798796
 40
0.6375654247
 40
0.8158940252
 40
1.0
 40
1.0
 40
1.0
 40
1.0
 10
7.1882085205
 20
19.7564431031
 30
0.0
 10
7.1895689336
 20
19.7565175603
 30
0.0
 10
7.1928159099
 20
19.7585460828
 30
0.0
 10
7.1997910803
 20
19.7666166104
 30
0.0
 10
7.2099868466
 20
19.7843162042
 30
0.0
 10
7.2240904936
 20
19.8128879075
 30
0.0
 10
7.2409200148
 20
19.8506040095
 30
0.0
 10
7.2599939452
 20
19.8955889854
 30
0.0
 10
7.2807136128
 20
19.946143536
 30
0.0
 10
7.3026249257
 20
20.0003508056
 30
0.0
 10
7.3173930692
 20
20.0375727763
 30
0.0
 10
7.325
 20
20.0564380262
 30
0.0
  0
SPLINE
  5
7EA
100
AcDbEntity
  8
ASSI
100
AcDbSpline
 62
250
  6
CONTINUOUS
 70
0
 71
3
 72
16
 73
12
 74
0
 42
0.0000001
 43
0.0000001
 44
0.0000000001
 40
0.0
 40
0.0
 40
0.0
 40
0.0
 40
0.012331472
 40
0.0322310204
 40
0.0974033839
 40
0.1952071603
 40
0.3214368411
 40
0.4707968133
 40
0.637561806
 40
0.8158906406
 40
1.0
 40
1.0
 40
1.0
 40
1.0
 10
7.4617914795
 20
19.7564431031
 30
0.0
 10
7.4604310586
 20
19.7565175661
 30
0.0
 10
7.4571840884
 20
19.7585461105
 30
0.0
 10
7.4502088706
 20
19.7666165419
 30
0.0
 10
7.4400132532
 20
19.7843161695
 30
0.0
 10
7.4259095993
 20
19.8128877281
 30
0.0
 10
7.4090801778
 20
19.8506036805
 30
0.0
 10
7.3900061575
 20
19.8955882474
 30
0.0
 10
7.3692871913
 20
19.9461427909
 30
0.0
 10
7.347374519
 20
20.000349747
 30
0.0
 10
7.3326089212
 20
20.0375731759
 30
0.0
 10
7.325
 20
20.0564380262
 30
0.0
  0
SPLINE
  5
7EB
100
AcDbEntity
  8
ASSI
100
AcDbSpline
 62
250
  6
CONTINUOUS
 70
0
 71
3
 72
12
 73
8
 74
0
 42
0.0000001
 43
0.0000001
 44
0.0000000001
 40
0.0
 40
0.0
 40
0.0
 40
0.0
 40
0.0628288354
 40
0.1501593815
 40
0.3861447667
 40
0.6792078753
 40
1.0
 40
1.0
 40
1.0
 40
1.0
 10
6.997977476
 20
19.9564397185
 30
0.0
 10
7.0051506137
 20
19.9564933508
 30
0.0
 10
7.0222085477
 20
19.9590775961
 30
0.0
 10
7.0650663148
 20
19.9692858216
 30
0.0
 10
7.1323263369
 20
19.9902746436
 30
0.0
 10
7.2242338004
 20
20.0212921034
 30
0.0
 10
7.2904433475
 20
20.0443021261
 30
0.0
 10
7.325
 20
20.0564380262
 30
0.0
  0
LINE
  5
7EC
100
AcDbEntity
  8
ASSI
100
AcDbLine
 62
250
  6
CONTINUOUS
 10
6.9811896713
 20
19.9561862866
 11
6.997977476
 21
19.9564397185
  0
SPLINE
  5
7ED
100
AcDbEntity
  8
ASSI
100
AcDbSpline
 62
7
  6
CONTINUOUS
 70
0
 71
3
 72
15
 73
11
 74
0
 42
0.0000001
 43
0.0000001
 44
0.0000000001
 40
0.0
 40
0.0
 40
0.0
 40
0.0
 40
0.3056919473
 40
0.4536967285
 40
0.5951470986
 40
0.7264362331
 40
0.8424211159
 40
0.935996767
 40
0.9719669498
 40
1.0
 40
1.0
 40
1.0
 40
1.0
 10
-6.475
 20
-20.5829242832
 30
0.0
 10
-6.4366817476
 20
-20.5367151777
 30
0.0
 10
-6.3797944742
 20
-20.4681466352
 30
0.0
 10
-6.3061382389
 20
-20.3774023621
 30
0.0
 10
-6.2549011827
 20
-20.3125880211
 30
0.0
 10
-6.2088308838
 20
-20.2516860945
 30
0.0
 10
-6.1706093158
 20
-20.1967757155
 30
0.0
 10
-6.1457443911
 20
-20.1552282517
 30
0.0
 10
-6.1339853804
 20
-20.1265764532
 30
0.0
 10
-6.1312856898
 20
-20.1141101455
 30
0.0
 10
-6.1311896713
 20
-20.1086060399
 30
0.0
  0
LINE
  5
7EE
100
AcDbEntity
  8
ASSI
100
AcDbLine
 62
250
  6
CONTINUOUS
 10
7.6688103287
 20
19.9561862866
 11
7.652022524
 21
19.9564397185
  0
SPLINE
  5
7EF
100
AcDbEntity
  8
ASSI
100
AcDbSpline
 62
250
  6
CONTINUOUS
 70
0
 71
3
 72
12
 73
8
 74
0
 42
0.0000001
 43
0.0000001
 44
0.0000000001
 40
0.0
 40
0.0
 40
0.0
 40
0.0
 40
0.0628288509
 40
0.1501591179
 40
0.386144064
 40
0.6792054304
 40
1.0
 40
1.0
 40
1.0
 40
1.0
 10
7.652022524
 20
19.9564397185
 30
0.0
 10
7.6448493845
 20
19.9564933491
 30
0.0
 10
7.6277914796
 20
19.9590775911
 30
0.0
 10
7.5849337979
 20
19.9692858182
 30
0.0
 10
7.5176739635
 20
19.990274325
 30
0.0
 10
7.4257668533
 20
20.0212928767
 30
0.0
 10
7.3595560724
 20
20.044299632
 30
0.0
 10
7.325
 20
20.0564380262
 30
0.0
  0
SPLINE
  5
7F0
100
AcDbEntity
  8
ASSI
100
AcDbSpline
 62
250
  6
CONTINUOUS
 70
0
 71
3
 72
10
 73
6
 74
0
 42
0.0000001
 43
0.0000001
 44
0.0000000001
 40
0.0
 40
0.0
 40
0.0
 40
0.0
 40
0.0703887207
 40
0.2612213898
 40
1.0
 40
1.0
 40
1.0
 40
1.0
 10
7.1811862866
 20
19.7561896713
 30
0.0
 10
7.1813029322
 20
19.7563062745
 30
0.0
 10
7.1820156502
 20
19.7561801688
 30
0.0
 10
7.1842088977
 20
19.7565254837
 30
0.0
 10
7.1864777248
 20
19.7564120785
 30
0.0
 10
7.1882085205
 20
19.7564431031
 30
0.0
  0
SPLINE
  5
7F1
100
AcDbEntity
  8
ASSI
100
AcDbSpline
 62
250
  6
CONTINUOUS
 70
0
 71
3
 72
10
 73
6
 74
0
 42
0.0000001
 43
0.0000001
 44
0.0000000001
 40
0.0
 40
0.0
 40
0.0
 40
0.0
 40
0.0703777998
 40
0.261187029
 40
1.0
 40
1.0
 40
1.0
 40
1.0
 10
7.4688137134
 20
19.7561896713
 30
0.0
 10
7.4686971293
 20
19.7563062998
 30
0.0
 10
7.4679844087
 20
19.7561801281
 30
0.0
 10
7.4657913
 20
19.7565255674
 30
0.0
 10
7.4635223558
 20
19.7564120769
 30
0.0
 10
7.4617914795
 20
19.7564431031
 30
0.0
  0
SPLINE
  5
7F2
100
AcDbEntity
  8
ASSI
100
AcDbSpline
 62
7
  6
CONTINUOUS
 70
0
 71
3
 72
15
 73
11
 74
0
 42
0.0000001
 43
0.0000001
 44
0.0000000001
 40
0.0
 40
0.0
 40
0.0
 40
0.0
 40
0.0280330502
 40
0.064003233
 40
0.1575788841
 40
0.2735637669
 40
0.4048529014
 40
0.5463032715
 40
0.6943080527
 40
1.0
 40
1.0
 40
1.0
 40
1.0
 10
6.9811896713
 20
-20.1086060399
 30
0.0
 10
6.9812856898
 20
-20.1141101455
 30
0.0
 10
6.9839853804
 20
-20.1265764532
 30
0.0
 10
6.9957443911
 20
-20.1552282517
 30
0.0
 10
7.0206093158
 20
-20.1967757155
 30
0.0
 10
7.0588308838
 20
-20.2516860945
 30
0.0
 10
7.1049011827
 20
-20.3125880211
 30
0.0
 10
7.1561382389
 20
-20.3774023621
 30
0.0
 10
7.2297944742
 20
-20.4681466352
 30
0.0
 10
7.2866817476
 20
-20.5367151777
 30
0.0
 10
7.325
 20
-20.5829242832
 30
0.0
  0
SPLINE
  5
7F3
100
AcDbEntity
  8
ASSI
100
AcDbSpline
 62
250
  6
CONTINUOUS
 70
0
 71
3
 72
10
 73
6
 74
0
 42
0.0000001
 43
0.0000001
 44
0.0000000001
 40
0.0
 40
0.0
 40
0.0
 40
0.0
 40
0.0703887245
 40
0.2612213982
 40
1.0
 40
1.0
 40
1.0
 40
1.0
 10
7.4688137134
 20
-19.7561896713
 30
0.0
 10
7.4686970678
 20
-19.7563062745
 30
0.0
 10
7.4679843498
 20
-19.7561801688
 30
0.0
 10
7.4657911023
 20
-19.7565254837
 30
0.0
 10
7.4635222752
 20
-19.7564120785
 30
0.0
 10
7.4617914795
 20
-19.7564431031
 30
0.0
  0
SPLINE
  5
7F4
100
AcDbEntity
  8
CURVE
100
AcDbSpline
 62
250
  6
CONTINUOUS
 70
0
 71
3
 72
19
 73
15
 74
0
 42
0.0000001
 43
0.0000001
 44
0.0000000001
 40
0.0
 40
0.0
 40
0.0
 40
0.0
 40
0.125
 40
0.15625
 40
0.1875
 40
0.25
 40
0.375
 40
0.4375
 40
0.5
 40
0.5625
 40
0.625
 40
0.6875
 40
0.75
 40
1.0
 40
1.0
 40
1.0
 40
1.0
 10
11.4398824675
 20
3.608188
 30
0.0
 10
11.4403133189
 20
3.6350635098
 30
0.0
 10
11.4408430241
 20
3.6692520694
 30
0.0
 10
11.4415052478
 20
3.7084958238
 30
0.0
 10
11.4418900314
 20
3.73846103
 30
0.0
 10
11.4425399293
 20
3.792666918
 30
0.0
 10
11.4432707523
 20
3.8542061504
 30
0.0
 10
11.4438155623
 20
3.9201735374
 30
0.0
 10
11.4442969417
 20
3.9672075014
 30
0.0
 10
11.4445802403
 20
4.0217936931
 30
0.0
 10
11.4449264213
 20
4.0742088869
 30
0.0
 10
11.4452191533
 20
4.1277558448
 30
0.0
 10
11.4455925396
 20
4.2383424319
 30
0.0
 10
11.4457524472
 20
4.3308632634
 30
0.0
 10
11.4458406761
 20
4.4053069731
 30
0.0
  0
SPLINE
  5
7F5
100
AcDbEntity
  8
CURVE
100
AcDbSpline
 62
250
  6
CONTINUOUS
 70
0
 71
3
 72
57
 73
53
 74
0
 42
0.0000001
 43
0.0000001
 44
0.0000000001
 40
0.0
 40
0.0
 40
0.0
 40
0.0
 40
0.0625
 40
0.09375
 40
0.125
 40
0.1328125
 40
0.140625
 40
0.15625
 40
0.171875
 40
0.1875
 40
0.21875
 40
0.25
 40
0.265625
 40
0.28125
 40
0.28515625
 40
0.2890625
 40
0.296875
 40
0.3125
 40
0.34375
 40
0.375
 40
0.40625
 40
0.421875
 40
0.4296875
 40
0.4375
 40
0.453125
 40
0.46875
 40
0.5
 40
0.53125
 40
0.546875
 40
0.5625
 40
0.5703125
 40
0.578125
 40
0.59375
 40
0.625
 40
0.65625
 40
0.6875
 40
0.703125
 40
0.7109375
 40
0.71484375
 40
0.71875
 40
0.734375
 40
0.75
 40
0.78125
 40
0.8125
 40
0.828125
 40
0.84375
 40
0.859375
 40
0.8671875
 40
0.875
 40
0.90625
 40
0.9375
 40
1.0
 40
1.0
 40
1.0
 40
1.0
 10
11.4645581631
 20
3.788588
 30
0.0
 10
11.4653049883
 20
3.7480085177
 30
0.0
 10
11.4664246493
 20
3.6870958901
 30
0.0
 10
11.4679198373
 20
3.60605267
 30
0.0
 10
11.4687565558
 20
3.5601403273
 30
0.0
 10
11.4693212156
 20
3.5300475235
 30
0.0
 10
11.4696813175
 20
3.5087558692
 30
0.0
 10
11.4702505564
 20
3.4911069773
 30
0.0
 10
11.4709058017
 20
3.4678322073
 30
0.0
 10
11.471789264
 20
3.4375392632
 30
0.0
 10
11.4728896809
 20
3.399362713
 30
0.0
 10
11.4739934895
 20
3.3615025397
 30
0.0
 10
11.4748715251
 20
3.3307033926
 30
0.0
 10
11.4753751693
 20
3.3143862718
 30
0.0
 10
11.4756954664
 20
3.3019090373
 30
0.0
 10
11.4759459069
 20
3.2974075583
 30
0.0
 10
11.4763779527
 20
3.2888860927
 30
0.0
 10
11.47724647
 20
3.2723027431
 30
0.0
 10
11.4784848454
 20
3.2483522708
 30
0.0
 10
11.4799721257
 20
3.2198091013
 30
0.0
 10
11.481210578
 20
3.1957117666
 30
0.0
 10
11.4820789474
 20
3.1794111274
 30
0.0
 10
11.4825729523
 20
3.1692170356
 30
0.0
 10
11.4830890202
 20
3.1678300247
 30
0.0
 10
11.4837265491
 20
3.1630794026
 30
0.0
 10
11.4847508279
 20
3.1571721396
 30
0.0
 10
11.4860296561
 20
3.1491525023
 30
0.0
 10
11.4873092745
 20
3.1415579336
 30
0.0
 10
11.4883322891
 20
3.1349705607
 30
0.0
 10
11.4889729786
 20
3.1319202131
 30
0.0
 10
11.4894825672
 20
3.1270476396
 30
0.0
 10
11.4900029634
 20
3.131050839
 30
0.0
 10
11.4909117732
 20
3.1365053491
 30
0.0
 10
11.4922110244
 20
3.1451150744
 30
0.0
 10
11.4937698643
 20
3.1550677643
 30
0.0
 10
11.4950685004
 20
3.1635348498
 30
0.0
 10
11.4959784942
 20
3.1692639414
 30
0.0
 10
11.4964321726
 20
3.1723798306
 30
0.0
 10
11.4966935422
 20
3.1737577312
 30
0.0
 10
11.4970525207
 20
3.182089348
 30
0.0
 10
11.4976048478
 20
3.1919618268
 30
0.0
 10
11.4985764099
 20
3.2114731433
 30
0.0
 10
11.4997945913
 20
3.2351601804
 30
0.0
 10
11.5010107989
 20
3.2592053477
 30
0.0
 10
11.5019855189
 20
3.2781436559
 30
0.0
 10
11.5027124813
 20
3.2930259856
 30
0.0
 10
11.5033311447
 20
3.3032900261
 30
0.0
 10
11.5037732549
 20
3.3202806802
 30
0.0
 10
11.504450005
 20
3.3435087162
 30
0.0
 10
11.5054594365
 20
3.3792971149
 30
0.0
 10
11.5072582433
 20
3.44221256
 30
0.0
 10
11.5086063895
 20
3.4895585281
 30
0.0
 10
11.5095053667
 20
3.5210870881
 30
0.0
  0
SPLINE
  5
7F6
100
AcDbEntity
  8
CURVE
100
AcDbSpline
 62
250
  6
CONTINUOUS
 70
0
 71
3
 72
57
 73
53
 74
0
 42
0.0000001
 43
0.0000001
 44
0.0000000001
 40
0.0
 40
0.0
 40
0.0
 40
0.0
 40
0.0625
 40
0.09375
 40
0.125
 40
0.1328125
 40
0.140625
 40
0.15625
 40
0.171875
 40
0.1875
 40
0.21875
 40
0.25
 40
0.265625
 40
0.28125
 40
0.28515625
 40
0.2890625
 40
0.296875
 40
0.3125
 40
0.34375
 40
0.375
 40
0.40625
 40
0.421875
 40
0.4296875
 40
0.4375
 40
0.453125
 40
0.46875
 40
0.5
 40
0.53125
 40
0.546875
 40
0.5625
 40
0.5703125
 40
0.578125
 40
0.59375
 40
0.625
 40
0.65625
 40
0.6875
 40
0.703125
 40
0.7109375
 40
0.71484375
 40
0.71875
 40
0.734375
 40
0.75
 40
0.78125
 40
0.8125
 40
0.828125
 40
0.84375
 40
0.859375
 40
0.8671875
 40
0.875
 40
0.90625
 40
0.9375
 40
1.0
 40
1.0
 40
1.0
 40
1.0
 10
11.5095053699
 20
6.478913
 30
0.0
 10
11.5086289377
 20
6.5098317575
 30
0.0
 10
11.507314698
 20
6.5562591619
 30
0.0
 10
11.5055607438
 20
6.6179652955
 30
0.0
 10
11.5045772095
 20
6.653044506
 30
0.0
 10
11.5039166672
 20
6.6758455883
 30
0.0
 10
11.503487884
 20
6.6924422379
 30
0.0
 10
11.5028674939
 20
6.7030111184
 30
0.0
 10
11.5021427546
 20
6.7180729863
 30
0.0
 10
11.5011694972
 20
6.7373157664
 30
0.0
 10
11.4999556399
 20
6.761719042
 30
0.0
 10
11.498739598
 20
6.7857727536
 30
0.0
 10
11.497769836
 20
6.8055748362
 30
0.0
 10
11.497218417
 20
6.8156128064
 30
0.0
 10
11.4968602042
 20
6.8240519272
 30
0.0
 10
11.496598964
 20
6.8255081665
 30
0.0
 10
11.4961455763
 20
6.8287600234
 30
0.0
 10
11.495236118
 20
6.8347618481
 30
0.0
 10
11.4939382727
 20
6.8436181422
 30
0.0
 10
11.4923803627
 20
6.8540380282
 30
0.0
 10
11.4910819155
 20
6.8630371445
 30
0.0
 10
11.490173616
 20
6.8687640365
 30
0.0
 10
11.4896535925
 20
6.8729231933
 30
0.0
 10
11.4891435658
 20
6.8682034578
 30
0.0
 10
11.4885026065
 20
6.8653452266
 30
0.0
 10
11.4874790044
 20
6.8590646372
 30
0.0
 10
11.4861987099
 20
6.851853794
 30
0.0
 10
11.4849191667
 20
6.8442176511
 30
0.0
 10
11.4838943624
 20
6.8386175413
 30
0.0
 10
11.4832564084
 20
6.8340581113
 30
0.0
 10
11.4827402208
 20
6.8328258334
 30
0.0
 10
11.4822452918
 20
6.82277998
 30
0.0
 10
11.4813754457
 20
6.8067398946
 30
0.0
 10
11.4801348099
 20
6.7830141681
 30
0.0
 10
11.4786449434
 20
6.7549172647
 30
0.0
 10
11.4774043979
 20
6.7313383757
 30
0.0
 10
11.476534378
 20
6.7150156283
 30
0.0
 10
11.47610156
 20
6.706623803
 30
0.0
 10
11.4758507119
 20
6.7021974662
 30
0.0
 10
11.4755292798
 20
6.6898164215
 30
0.0
 10
11.4750241531
 20
6.6736505628
 30
0.0
 10
11.4741433128
 20
6.6431147707
 30
0.0
 10
11.473036095
 20
6.6055882439
 30
0.0
 10
11.4719320934
 20
6.5677344736
 30
0.0
 10
11.4710461073
 20
6.5377222711
 30
0.0
 10
11.4703880423
 20
6.5145970241
 30
0.0
 10
11.4698193999
 20
6.4972667964
 30
0.0
 10
11.4694476685
 20
6.4754326061
 30
0.0
 10
11.4688686781
 20
6.4447310958
 30
0.0
 10
11.4680091588
 20
6.3978197334
 30
0.0
 10
11.4664744129
 20
6.3150648226
 30
0.0
 10
11.4653248635
 20
6.2528539495
 30
0.0
 10
11.4645581617
 20
6.2114121874
 30
0.0
  0
SPLINE
  5
7F7
100
AcDbEntity
  8
CURVE
100
AcDbSpline
 62
250
  6
CONTINUOUS
 70
0
 71
3
 72
114
 73
110
 74
0
 42
0.0000001
 43
0.0000001
 44
0.0000000001
 40
0.0
 40
0.0
 40
0.0
 40
0.0
 40
0.015625
 40
0.03125
 40
0.046875
 40
0.0546875
 40
0.05859375
 40
0.0625
 40
0.06640625
 40
0.0703125
 40
0.078125
 40
0.09375
 40
0.109375
 40
0.1171875
 40
0.12109375
 40
0.125
 40
0.12890625
 40
0.1328125
 40
0.140625
 40
0.15625
 40
0.171875
 40
0.1796875
 40
0.18359375
 40
0.1875
 40
0.19140625
 40
0.1953125
 40
0.203125
 40
0.21875
 40
0.234375
 40
0.2421875
 40
0.24609375
 40
0.25
 40
0.25390625
 40
0.2578125
 40
0.265625
 40
0.28125
 40
0.296875
 40
0.3046875
 40
0.30859375
 40
0.3125
 40
0.31640625
 40
0.3203125
 40
0.328125
 40
0.34375
 40
0.359375
 40
0.3671875
 40
0.375
 40
0.3828125
 40
0.390625
 40
0.40625
 40
0.421875
 40
0.4296875
 40
0.4375
 40
0.4453125
 40
0.453125
 40
0.46875
 40
0.484375
 40
0.5
 40
0.53125
 40
0.546875
 40
0.5625
 40
0.578125
 40
0.59375
 40
0.609375
 40
0.6171875
 40
0.625
 40
0.6328125
 40
0.640625
 40
0.65625
 40
0.671875
 40
0.6796875
 40
0.6875
 40
0.6953125
 40
0.703125
 40
0.71875
 40
0.734375
 40
0.7421875
 40
0.74609375
 40
0.75
 40
0.75390625
 40
0.7578125
 40
0.765625
 40
0.78125
 40
0.796875
 40
0.8046875
 40
0.80859375
 40
0.8125
 40
0.81640625
 40
0.8203125
 40
0.828125
 40
0.84375
 40
0.859375
 40
0.8671875
 40
0.87109375
 40
0.875
 40
0.87890625
 40
0.8828125
 40
0.890625
 40
0.90625
 40
0.921875
 40
0.9296875
 40
0.93359375
 40
0.9375
 40
0.94140625
 40
0.9453125
 40
0.953125
 40
0.96875
 40
0.984375
 40
1.0
 40
1.0
 40
1.0
 40
1.0
 10
11.4894701819
 20
7.499913
 30
0.0
 10
11.4887639863
 20
7.4959454621
 30
0.0
 10
11.4873516558
 20
7.487992815
 30
0.0
 10
11.4852327957
 20
7.4761692724
 30
0.0
 10
11.4834681417
 20
7.4660088216
 30
0.0
 10
11.4822308117
 20
7.4594961283
 30
0.0
 10
11.4815269994
 20
7.4548389149
 30
0.0
 10
11.4809900319
 20
7.4539817075
 30
0.0
 10
11.4804878809
 20
7.4430495267
 30
0.0
 10
11.4798061952
 20
7.4319884857
 30
0.0
 10
11.4786189733
 20
7.4109844707
 30
0.0
 10
11.4769194112
 20
7.3819155334
 30
0.0
 10
11.4752230616
 20
7.3522369135
 30
0.0
 10
11.4740313421
 20
7.3320864542
 30
0.0
 10
11.4733567241
 20
7.3196841115
 30
0.0
 10
11.4728328883
 20
7.312867288
 30
0.0
 10
11.4723773592
 20
7.2965546275
 30
0.0
 10
11.4717461523
 20
7.2781175762
 30
0.0
 10
11.4706527314
 20
7.2442999574
 30
0.0
 10
11.4690841585
 20
7.1968742472
 30
0.0
 10
11.4675204413
 20
7.1488655163
 30
0.0
 10
11.4664202224
 20
7.1158641265
 30
0.0
 10
11.465799698
 20
7.0961444298
 30
0.0
 10
11.4653113931
 20
7.0837671585
 30
0.0
 10
11.4649106486
 20
7.0621707619
 30
0.0
 10
11.4643457668
 20
7.0365919707
 30
0.0
 10
11.4633715975
 20
6.99032378
 30
0.0
 10
11.4619713069
 20
6.9250674721
 30
0.0
 10
11.4605781184
 20
6.8593139845
 30
0.0
 10
11.4595940062
 20
6.8137418453
 30
0.0
 10
11.4590447489
 20
6.787069259
 30
0.0
 10
11.4585960657
 20
6.7688288245
 30
0.0
 10
11.4582877972
 20
6.7438480512
 30
0.0
 10
11.4578277796
 20
6.7128920244
 30
0.0
 10
11.4570457225
 20
6.6576176193
 30
0.0
 10
11.4559153046
 20
6.5792756305
 30
0.0
 10
11.454793901
 20
6.5005456786
 30
0.0
 10
11.453999224
 20
6.4458144218
 30
0.0
 10
11.4535590377
 20
6.4140048762
 30
0.0
 10
11.4531899233
 20
6.3916428536
 30
0.0
 10
11.4529697501
 20
6.3635675554
 30
0.0
 10
11.452624278
 20
6.3281256253
 30
0.0
 10
11.452043441
 20
6.2651848035
 30
0.0
 10
11.4512048488
 20
6.1756638976
 30
0.0
 10
11.450356339
 20
6.0863122887
 30
0.0
 10
11.4497083936
 20
6.0141090458
 30
0.0
 10
11.4491357979
 20
5.9620209027
 30
0.0
 10
11.4488943176
 20
5.9020365812
 30
0.0
 10
11.4484561323
 20
5.8248251019
 30
0.0
 10
11.4479521996
 20
5.7272940782
 30
0.0
 10
11.4474183356
 20
5.6303702328
 30
0.0
 10
11.4470280403
 20
5.5521872683
 30
0.0
 10
11.44664289
 20
5.4951174022
 30
0.0
 10
11.446609057
 20
5.4321000513
 30
0.0
 10
11.4464422744
 20
5.3501595897
 30
0.0
 10
11.4462680426
 20
5.2469826776
 30
0.0
 10
11.4460770896
 20
5.1236527817
 30
0.0
 10
11.4456527592
 20
4.9582429766
 30
0.0
 10
11.4462105365
 20
4.7976880371
 30
0.0
 10
11.4464867992
 20
4.6361317215
 30
0.0
 10
11.4465564322
 20
4.5131137475
 30
0.0
 10
11.4473170789
 20
4.3979994107
 30
0.0
 10
11.4478965116
 20
4.2808640197
 30
0.0
 10
11.4484075739
 20
4.1834016769
 30
0.0
 10
11.4488393467
 20
4.1060811704
 30
0.0
 10
11.4490774863
 20
4.0460523975
 30
0.0
 10
11.4496469246
 20
3.993852513
 30
0.0
 10
11.4502899447
 20
3.9215023205
 30
0.0
 10
11.4511372048
 20
3.832119958
 30
0.0
 10
11.4519558141
 20
3.741954016
 30
0.0
 10
11.4526446753
 20
3.6708575507
 30
0.0
 10
11.4530765904
 20
3.6148964846
 30
0.0
 10
11.453830442
 20
3.5689721427
 30
0.0
 10
11.4547232348
 20
3.5042420144
 30
0.0
 10
11.455876955
 20
3.4244700865
 30
0.0
 10
11.4570201869
 20
3.3445073192
 30
0.0
 10
11.4578160641
 20
3.2881356322
 30
0.0
 10
11.4582815149
 20
3.2566623485
 30
0.0
 10
11.4585998644
 20
3.2309537018
 30
0.0
 10
11.4590358363
 20
3.2132902362
 30
0.0
 10
11.4595760944
 20
3.1869318604
 30
0.0
 10
11.4605407652
 20
3.1421209962
 30
0.0
 10
11.4619080217
 20
3.0773495413
 30
0.0
 10
11.4632820489
 20
3.0130945994
 30
0.0
 10
11.4642372408
 20
2.967560617
 30
0.0
 10
11.4647923943
 20
2.9423385699
 30
0.0
 10
11.4651826642
 20
2.9211886412
 30
0.0
 10
11.4656726501
 20
2.9085736003
 30
0.0
 10
11.4662911756
 20
2.8887755502
 30
0.0
 10
11.467389873
 20
2.8555258088
 30
0.0
 10
11.4689503763
 20
2.8072206941
 30
0.0
 10
11.4705161319
 20
2.7594768564
 30
0.0
 10
11.471607476
 20
2.7254413272
 30
0.0
 10
11.4722375568
 20
2.7068780865
 30
0.0
 10
11.4726920891
 20
2.6904744259
 30
0.0
 10
11.4732155067
 20
2.6835528688
 30
0.0
 10
11.4738893637
 20
2.6710156726
 30
0.0
 10
11.4750798627
 20
2.6506269785
 30
0.0
 10
11.4767742784
 20
2.6206092648
 30
0.0
 10
11.4784724555
 20
2.5912005359
 30
0.0
 10
11.4796576885
 20
2.5699592632
 30
0.0
 10
11.4803398207
 20
2.5587618333
 30
0.0
 10
11.4808378486
 20
2.5477296294
 30
0.0
 10
11.4813877333
 20
2.5467637312
 30
0.0
 10
11.4821028247
 20
2.5419646201
 30
0.0
 10
11.4833626626
 20
2.5352021972
 30
0.0
 10
11.485158022
 20
2.5246857267
 30
0.0
 10
11.4873143525
 20
2.512434643
 30
0.0
 10
11.4887515445
 20
2.5041970289
 30
0.0
 10
11.4894701857
 20
2.500087
 30
0.0
  0
SPLINE
  5
7F8
100
AcDbEntity
  8
CURVE
100
AcDbSpline
 62
250
  6
CONTINUOUS
 70
0
 71
3
 72
114
 73
110
 74
0
 42
0.0000001
 43
0.0000001
 44
0.0000000001
 40
0.0
 40
0.0
 40
0.0
 40
0.0
 40
0.015625
 40
0.03125
 40
0.046875
 40
0.0546875
 40
0.05859375
 40
0.0625
 40
0.06640625
 40
0.0703125
 40
0.078125
 40
0.09375
 40
0.109375
 40
0.1171875
 40
0.12109375
 40
0.125
 40
0.12890625
 40
0.1328125
 40
0.140625
 40
0.15625
 40
0.171875
 40
0.1796875
 40
0.18359375
 40
0.1875
 40
0.19140625
 40
0.1953125
 40
0.203125
 40
0.21875
 40
0.234375
 40
0.2421875
 40
0.24609375
 40
0.25
 40
0.25390625
 40
0.2578125
 40
0.265625
 40
0.28125
 40
0.296875
 40
0.3046875
 40
0.30859375
 40
0.3125
 40
0.31640625
 40
0.3203125
 40
0.328125
 40
0.34375
 40
0.359375
 40
0.3671875
 40
0.375
 40
0.3828125
 40
0.390625
 40
0.40625
 40
0.421875
 40
0.4296875
 40
0.4375
 40
0.4453125
 40
0.453125
 40
0.46875
 40
0.484375
 40
0.5
 40
0.53125
 40
0.546875
 40
0.5625
 40
0.578125
 40
0.59375
 40
0.609375
 40
0.6171875
 40
0.625
 40
0.6328125
 40
0.640625
 40
0.65625
 40
0.671875
 40
0.6796875
 40
0.6875
 40
0.6953125
 40
0.703125
 40
0.71875
 40
0.734375
 40
0.7421875
 40
0.74609375
 40
0.75
 40
0.75390625
 40
0.7578125
 40
0.765625
 40
0.78125
 40
0.796875
 40
0.8046875
 40
0.80859375
 40
0.8125
 40
0.81640625
 40
0.8203125
 40
0.828125
 40
0.84375
 40
0.859375
 40
0.8671875
 40
0.87109375
 40
0.875
 40
0.87890625
 40
0.8828125
 40
0.890625
 40
0.90625
 40
0.921875
 40
0.9296875
 40
0.93359375
 40
0.9375
 40
0.94140625
 40
0.9453125
 40
0.953125
 40
0.96875
 40
0.984375
 40
1.0
 40
1.0
 40
1.0
 40
1.0
 10
11.4894701819
 20
2.500087
 30
0.0
 10
11.4901763775
 20
2.5040545379
 30
0.0
 10
11.4915887079
 20
2.512007185
 30
0.0
 10
11.493707568
 20
2.5238307276
 30
0.0
 10
11.495472222
 20
2.5339911784
 30
0.0
 10
11.496709552
 20
2.5405038717
 30
0.0
 10
11.4974133643
 20
2.5451610851
 30
0.0
 10
11.4979503318
 20
2.5460182925
 30
0.0
 10
11.4984524828
 20
2.5569504733
 30
0.0
 10
11.4991341685
 20
2.5680115143
 30
0.0
 10
11.5003213904
 20
2.5890155293
 30
0.0
 10
11.5020209525
 20
2.6180844666
 30
0.0
 10
11.5037173021
 20
2.6477630865
 30
0.0
 10
11.5049090216
 20
2.6679135458
 30
0.0
 10
11.5055836396
 20
2.6803158885
 30
0.0
 10
11.5061074754
 20
2.687132712
 30
0.0
 10
11.5065630045
 20
2.7034453725
 30
0.0
 10
11.5071942114
 20
2.7218824238
 30
0.0
 10
11.5082876323
 20
2.7557000426
 30
0.0
 10
11.5098562052
 20
2.8031257528
 30
0.0
 10
11.5114199225
 20
2.8511344837
 30
0.0
 10
11.5125201413
 20
2.8841358735
 30
0.0
 10
11.5131406657
 20
2.9038555702
 30
0.0
 10
11.5136289706
 20
2.9162328415
 30
0.0
 10
11.5140297151
 20
2.9378292381
 30
0.0
 10
11.5145945969
 20
2.9634080293
 30
0.0
 10
11.5155687662
 20
3.00967622
 30
0.0
 10
11.5169690568
 20
3.0749325279
 30
0.0
 10
11.5183622453
 20
3.1406860155
 30
0.0
 10
11.5193463575
 20
3.1862581547
 30
0.0
 10
11.5198956148
 20
3.212930741
 30
0.0
 10
11.520344298
 20
3.2311711755
 30
0.0
 10
11.5206525665
 20
3.2561519488
 30
0.0
 10
11.5211125841
 20
3.2871079756
 30
0.0
 10
11.5218946412
 20
3.3423823807
 30
0.0
 10
11.5230250591
 20
3.4207243695
 30
0.0
 10
11.5241464627
 20
3.4994543214
 30
0.0
 10
11.5249411397
 20
3.5541855782
 30
0.0
 10
11.525381326
 20
3.5859951238
 30
0.0
 10
11.5257504404
 20
3.6083571464
 30
0.0
 10
11.5259706136
 20
3.6364324446
 30
0.0
 10
11.5263160857
 20
3.6718743747
 30
0.0
 10
11.5268969227
 20
3.7348151965
 30
0.0
 10
11.5277355149
 20
3.8243361024
 30
0.0
 10
11.5285840247
 20
3.9136877113
 30
0.0
 10
11.5292319701
 20
3.9858909542
 30
0.0
 10
11.5298045658
 20
4.0379790973
 30
0.0
 10
11.5300460461
 20
4.0979634188
 30
0.0
 10
11.5304842314
 20
4.1751748981
 30
0.0
 10
11.5309881641
 20
4.2727059218
 30
0.0
 10
11.5315220281
 20
4.3696297672
 30
0.0
 10
11.5319123234
 20
4.4478127317
 30
0.0
 10
11.5322974737
 20
4.5048825978
 30
0.0
 10
11.5323313067
 20
4.5678999487
 30
0.0
 10
11.5324980893
 20
4.6498404103
 30
0.0
 10
11.5326723211
 20
4.7530173224
 30
0.0
 10
11.5328632741
 20
4.8763472183
 30
0.0
 10
11.5332876045
 20
5.0417570234
 30
0.0
 10
11.5327298272
 20
5.2023119629
 30
0.0
 10
11.5324535645
 20
5.3638682785
 30
0.0
 10
11.5323839315
 20
5.4868862525
 30
0.0
 10
11.5316232848
 20
5.6020005893
 30
0.0
 10
11.5310438521
 20
5.7191359803
 30
0.0
 10
11.5305327898
 20
5.8165983231
 30
0.0
 10
11.530101017
 20
5.8939188296
 30
0.0
 10
11.5298628774
 20
5.9539476025
 30
0.0
 10
11.5292934391
 20
6.006147487
 30
0.0
 10
11.528650419
 20
6.0784976795
 30
0.0
 10
11.5278031589
 20
6.167880042
 30
0.0
 10
11.5269845496
 20
6.258045984
 30
0.0
 10
11.5262956884
 20
6.3291424493
 30
0.0
 10
11.5258637733
 20
6.3851035154
 30
0.0
 10
11.5251099217
 20
6.4310278573
 30
0.0
 10
11.5242171289
 20
6.4957579856
 30
0.0
 10
11.5230634088
 20
6.5755299135
 30
0.0
 10
11.5219201768
 20
6.6554926808
 30
0.0
 10
11.5211242996
 20
6.7118643678
 30
0.0
 10
11.5206588488
 20
6.7433376515
 30
0.0
 10
11.5203404993
 20
6.7690462982
 30
0.0
 10
11.5199045274
 20
6.7867097638
 30
0.0
 10
11.5193642693
 20
6.8130681396
 30
0.0
 10
11.5183995985
 20
6.8578790038
 30
0.0
 10
11.517032342
 20
6.9226504587
 30
0.0
 10
11.5156583148
 20
6.9869054006
 30
0.0
 10
11.5147031229
 20
7.032439383
 30
0.0
 10
11.5141479694
 20
7.0576614301
 30
0.0
 10
11.5137576995
 20
7.0788113588
 30
0.0
 10
11.5132677136
 20
7.0914263997
 30
0.0
 10
11.5126491881
 20
7.1112244498
 30
0.0
 10
11.5115504907
 20
7.1444741912
 30
0.0
 10
11.5099899874
 20
7.1927793059
 30
0.0
 10
11.5084242318
 20
7.2405231436
 30
0.0
 10
11.5073328877
 20
7.2745586728
 30
0.0
 10
11.5067028069
 20
7.2931219135
 30
0.0
 10
11.5062482746
 20
7.3095255741
 30
0.0
 10
11.505724857
 20
7.3164471312
 30
0.0
 10
11.505051
 20
7.3289843274
 30
0.0
 10
11.503860501
 20
7.3493730215
 30
0.0
 10
11.5021660853
 20
7.3793907352
 30
0.0
 10
11.5004679082
 20
7.4087994641
 30
0.0
 10
11.4992826752
 20
7.4300407368
 30
0.0
 10
11.4986005431
 20
7.4412381667
 30
0.0
 10
11.4981025151
 20
7.4522703706
 30
0.0
 10
11.4975526304
 20
7.4532362688
 30
0.0
 10
11.496837539
 20
7.4580353799
 30
0.0
 10
11.4955777011
 20
7.4647978028
 30
0.0
 10
11.4937823417
 20
7.4753142733
 30
0.0
 10
11.4916260112
 20
7.487565357
 30
0.0
 10
11.4901888192
 20
7.4958029711
 30
0.0
 10
11.489470178
 20
7.499913
 30
0.0
  0
SPLINE
  5
7F9
100
AcDbEntity
  8
CURVE
100
AcDbSpline
 62
250
  6
CONTINUOUS
 70
0
 71
3
 72
9
 73
5
 74
0
 42
0.0000001
 43
0.0000001
 44
0.0000000001
 40
0.0
 40
0.0
 40
0.0
 40
0.0
 40
0.7057072392
 40
1.0
 40
1.0
 40
1.0
 40
1.0
 10
11.5460930376
 20
-2.103542891
 30
0.0
 10
11.5482670362
 20
-1.9799494041
 30
0.0
 10
11.5500317856
 20
-1.7325225721
 30
0.0
 10
11.5506625176
 20
-1.4885277581
 30
0.0
 10
11.550841968
 20
-1.4160764381
 30
0.0
  0
SPLINE
  5
7FA
100
AcDbEntity
  8
CURVE
100
AcDbSpline
 62
250
  6
CONTINUOUS
 70
0
 71
3
 72
10
 73
6
 74
0
 42
0.0000001
 43
0.0000001
 44
0.0000000001
 40
0.0
 40
0.0
 40
0.0
 40
0.0
 40
0.3450797927
 40
0.6331185764
 40
1.0
 40
1.0
 40
1.0
 40
1.0
 10
11.5510186083
 20
-0.8430726704
 30
0.0
 10
11.550940566
 20
-0.7183597546
 30
0.0
 10
11.5504387996
 20
-0.4855171293
 30
0.0
 10
11.5488079024
 20
-0.154167444
 30
0.0
 10
11.5457351682
 20
0.094211843
 30
0.0
 10
11.54341963
 20
0.094211843
 30
0.0
  0
SPLINE
  5
7FB
100
AcDbEntity
  8
CURVE
100
AcDbSpline
 62
250
  6
CONTINUOUS
 70
0
 71
3
 72
34
 73
30
 74
0
 42
0.0000001
 43
0.0000001
 44
0.0000000001
 40
0.0
 40
0.0
 40
0.0
 40
0.0
 40
0.03125
 40
0.0625
 40
0.09375
 40
0.125
 40
0.15625
 40
0.1875
 40
0.21875
 40
0.25
 40
0.28125
 40
0.3125
 40
0.34375
 40
0.375
 40
0.4375
 40
0.5
 40
0.625
 40
0.65625
 40
0.6875
 40
0.71875
 40
0.75
 40
0.78125
 40
0.8125
 40
0.84375
 40
0.875
 40
0.90625
 40
0.9375
 40
0.96875
 40
1.0
 40
1.0
 40
1.0
 40
1.0
 10
11.5452430078
 20
-2.097331
 30
0.0
 10
11.5451342036
 20
-2.0979422824
 30
0.0
 10
11.5449177861
 20
-2.099484791
 30
0.0
 10
11.5445860141
 20
-2.0998788908
 30
0.0
 10
11.5442792521
 20
-2.1069918116
 30
0.0
 10
11.5439541937
 20
-2.1107361731
 30
0.0
 10
11.5436773108
 20
-2.1212359508
 30
0.0
 10
11.5433723764
 20
-2.1284283361
 30
0.0
 10
11.5431314727
 20
-2.1420948747
 30
0.0
 10
11.5428501023
 20
-2.1529251355
 30
0.0
 10
11.5426665679
 20
-2.1686263546
 30
0.0
 10
11.54243301
 20
-2.1821217649
 30
0.0
 10
11.5423017101
 20
-2.1995694524
 30
0.0
 10
11.5420734963
 20
-2.2210178805
 30
0.0
 10
11.5419311896
 20
-2.2515613866
 30
0.0
 10
11.5418403617
 20
-2.3027219364
 30
0.0
 10
11.5419595452
 20
-2.3472900286
 30
0.0
 10
11.5422960155
 20
-2.3796968549
 30
0.0
 10
11.5424255604
 20
-2.3970787785
 30
0.0
 10
11.5426630035
 20
-2.4109055393
 30
0.0
 10
11.5428522806
 20
-2.4270249328
 30
0.0
 10
11.5431263237
 20
-2.4375289583
 30
0.0
 10
11.5433615121
 20
-2.4509633016
 30
0.0
 10
11.543667353
 20
-2.4582917417
 30
0.0
 10
11.5439430899
 20
-2.4688266949
 30
0.0
 10
11.5442685902
 20
-2.472641499
 30
0.0
 10
11.5445727337
 20
-2.4798140692
 30
0.0
 10
11.5449125412
 20
-2.4802757243
 30
0.0
 10
11.5451322864
 20
-2.4818617639
 30
0.0
 10
11.5452430081
 20
-2.482495
 30
0.0
  0
SPLINE
  5
7FC
100
AcDbEntity
  8
CURVE
100
AcDbSpline
 62
250
  6
CONTINUOUS
 70
0
 71
3
 72
34
 73
30
 74
0
 42
0.0000001
 43
0.0000001
 44
0.0000000001
 40
0.0
 40
0.0
 40
0.0
 40
0.0
 40
0.03125
 40
0.0625
 40
0.09375
 40
0.125
 40
0.15625
 40
0.1875
 40
0.21875
 40
0.25
 40
0.28125
 40
0.3125
 40
0.34375
 40
0.375
 40
0.4375
 40
0.5
 40
0.625
 40
0.65625
 40
0.6875
 40
0.71875
 40
0.75
 40
0.78125
 40
0.8125
 40
0.84375
 40
0.875
 40
0.90625
 40
0.9375
 40
0.96875
 40
1.0
 40
1.0
 40
1.0
 40
1.0
 10
11.5452430078
 20
-2.482495
 30
0.0
 10
11.5453518121
 20
-2.4818837176
 30
0.0
 10
11.5455682296
 20
-2.480341209
 30
0.0
 10
11.5459000016
 20
-2.4799471092
 30
0.0
 10
11.5462067636
 20
-2.4728341884
 30
0.0
 10
11.546531822
 20
-2.4690898269
 30
0.0
 10
11.5468087049
 20
-2.4585900492
 30
0.0
 10
11.5471136393
 20
-2.4513976639
 30
0.0
 10
11.547354543
 20
-2.4377311253
 30
0.0
 10
11.5476359134
 20
-2.4269008645
 30
0.0
 10
11.5478194478
 20
-2.4111996454
 30
0.0
 10
11.5480530057
 20
-2.3977042351
 30
0.0
 10
11.5481843055
 20
-2.3802565476
 30
0.0
 10
11.5484125194
 20
-2.3588081195
 30
0.0
 10
11.5485548261
 20
-2.3282646134
 30
0.0
 10
11.5486456539
 20
-2.2771040636
 30
0.0
 10
11.5485264705
 20
-2.2325359714
 30
0.0
 10
11.5481900002
 20
-2.2001291451
 30
0.0
 10
11.5480604553
 20
-2.1827472215
 30
0.0
 10
11.5478230121
 20
-2.1689204607
 30
0.0
 10
11.5476337351
 20
-2.1528010672
 30
0.0
 10
11.547359692
 20
-2.1422970417
 30
0.0
 10
11.5471245036
 20
-2.1288626984
 30
0.0
 10
11.5468186627
 20
-2.1215342583
 30
0.0
 10
11.5465429257
 20
-2.1109993051
 30
0.0
 10
11.5462174254
 20
-2.107184501
 30
0.0
 10
11.545913282
 20
-2.1000119308
 30
0.0
 10
11.5455734745
 20
-2.0995502757
 30
0.0
 10
11.5453537293
 20
-2.0979642361
 30
0.0
 10
11.5452430075
 20
-2.097331
 30
0.0
  0
SPLINE
  5
7FD
100
AcDbEntity
  8
CURVE
100
AcDbSpline
 62
250
  6
CONTINUOUS
 70
0
 71
3
 72
24
 73
20
 74
0
 42
0.0000001
 43
0.0000001
 44
0.0000000001
 40
0.0
 40
0.0
 40
0.0
 40
0.0
 40
0.0625
 40
0.09375
 40
0.125
 40
0.25
 40
0.375
 40
0.5
 40
0.625
 40
0.6875
 40
0.71875
 40
0.75
 40
0.78125
 40
0.8125
 40
0.84375
 40
0.875
 40
0.90625
 40
0.9375
 40
1.0
 40
1.0
 40
1.0
 40
1.0
 10
11.4868550397
 20
-2.00521
 30
0.0
 10
11.4870138093
 20
-2.004318003
 30
0.0
 10
11.4872579894
 20
-2.0046921041
 30
0.0
 10
11.4875594599
 20
-1.9983425188
 30
0.0
 10
11.4880233264
 20
-1.9915597473
 30
0.0
 10
11.4886346009
 20
-1.9659429449
 30
0.0
 10
11.4891762293
 20
-1.9204629819
 30
0.0
 10
11.4893743048
 20
-1.864389142
 30
0.0
 10
11.4892042301
 20
-1.8192152319
 30
0.0
 10
11.4889592593
 20
-1.7901537926
 30
0.0
 10
11.4887391669
 20
-1.7763696408
 30
0.0
 10
11.4885988781
 20
-1.7646758208
 30
0.0
 10
11.4883995219
 20
-1.7569936331
 30
0.0
 10
11.4882277609
 20
-1.7471980419
 30
0.0
 10
11.4880046868
 20
-1.7418444326
 30
0.0
 10
11.4878033875
 20
-1.7341785417
 30
0.0
 10
11.4875663021
 20
-1.7313197949
 30
0.0
 10
11.4872684337
 20
-1.7247170916
 30
0.0
 10
11.4870166071
 20
-1.7251140324
 30
0.0
 10
11.4868550395
 20
-1.72419
 30
0.0
  0
SPLINE
  5
7FE
100
AcDbEntity
  8
CURVE
100
AcDbSpline
 62
250
  6
CONTINUOUS
 70
0
 71
3
 72
24
 73
20
 74
0
 42
0.0000001
 43
0.0000001
 44
0.0000000001
 40
0.0
 40
0.0
 40
0.0
 40
0.0
 40
0.0625
 40
0.09375
 40
0.125
 40
0.25
 40
0.375
 40
0.5
 40
0.625
 40
0.6875
 40
0.71875
 40
0.75
 40
0.78125
 40
0.8125
 40
0.84375
 40
0.875
 40
0.90625
 40
0.9375
 40
1.0
 40
1.0
 40
1.0
 40
1.0
 10
11.4868550397
 20
-1.72419
 30
0.0
 10
11.4866962701
 20
-1.725081997
 30
0.0
 10
11.4864520899
 20
-1.7247078959
 30
0.0
 10
11.4861506195
 20
-1.7310574812
 30
0.0
 10
11.485686753
 20
-1.7378402527
 30
0.0
 10
11.4850754784
 20
-1.7634570551
 30
0.0
 10
11.48453385
 20
-1.8089370181
 30
0.0
 10
11.4843357745
 20
-1.865010858
 30
0.0
 10
11.4845058492
 20
-1.9101847681
 30
0.0
 10
11.48475082
 20
-1.9392462074
 30
0.0
 10
11.4849709124
 20
-1.9530303592
 30
0.0
 10
11.4851112013
 20
-1.9647241792
 30
0.0
 10
11.4853105574
 20
-1.9724063669
 30
0.0
 10
11.4854823185
 20
-1.9822019581
 30
0.0
 10
11.4857053926
 20
-1.9875555674
 30
0.0
 10
11.4859066919
 20
-1.9952214583
 30
0.0
 10
11.4861437772
 20
-1.9980802051
 30
0.0
 10
11.4864416456
 20
-2.0046829084
 30
0.0
 10
11.4866934722
 20
-2.0042859676
 30
0.0
 10
11.4868550399
 20
-2.00521
 30
0.0
  0
SPLINE
  5
7FF
100
AcDbEntity
  8
CURVE
100
AcDbSpline
 62
250
  6
CONTINUOUS
 70
0
 71
3
 72
37
 73
33
 74
0
 42
0.0000001
 43
0.0000001
 44
0.0000000001
 40
0.0
 40
0.0
 40
0.0
 40
0.0
 40
0.03125
 40
0.0625
 40
0.09375
 40
0.125
 40
0.15625
 40
0.1875
 40
0.21875
 40
0.25
 40
0.28125
 40
0.3125
 40
0.34375
 40
0.375
 40
0.40625
 40
0.4375
 40
0.5
 40
0.5625
 40
0.59375
 40
0.625
 40
0.65625
 40
0.6875
 40
0.71875
 40
0.75
 40
0.78125
 40
0.8125
 40
0.84375
 40
0.875
 40
0.90625
 40
0.9375
 40
0.96875
 40
1.0
 40
1.0
 40
1.0
 40
1.0
 10
11.4868550397
 20
-1.547108
 30
0.0
 10
11.4866756078
 20
-1.5481160817
 30
0.0
 10
11.486318708
 20
-1.5506598731
 30
0.0
 10
11.4857715741
 20
-1.5513097924
 30
0.0
 10
11.485265685
 20
-1.5630398989
 30
0.0
 10
11.4847296222
 20
-1.569214811
 30
0.0
 10
11.4842730094
 20
-1.5865303136
 30
0.0
 10
11.4837701268
 20
-1.5983912949
 30
0.0
 10
11.4833728733
 20
-1.6209297709
 30
0.0
 10
11.4829087569
 20
-1.6387878829
 30
0.0
 10
11.4826064632
 20
-1.6646899564
 30
0.0
 10
11.4822198872
 20
-1.6869128097
 30
0.0
 10
11.4820086176
 20
-1.715808582
 30
0.0
 10
11.4817067207
 20
-1.7418803906
 30
0.0
 10
11.4815920267
 20
-1.772575135
 30
0.0
 10
11.4813411599
 20
-1.8112063405
 30
0.0
 10
11.4812941302
 20
-1.8651514099
 30
0.0
 10
11.4813379246
 20
-1.9168394297
 30
0.0
 10
11.4815864768
 20
-1.9558205728
 30
0.0
 10
11.4816991485
 20
-1.9864695306
 30
0.0
 10
11.4820000315
 20
-2.0126507228
 30
0.0
 10
11.4822073862
 20
-2.0414604738
 30
0.0
 10
11.4826006429
 20
-2.0642237555
 30
0.0
 10
11.4829123337
 20
-2.0908170616
 30
0.0
 10
11.4833643861
 20
-2.1081367391
 30
0.0
 10
11.4837522091
 20
-2.1302924113
 30
0.0
 10
11.484256588
 20
-2.1423777331
 30
0.0
 10
11.4847113107
 20
-2.1597512528
 30
0.0
 10
11.4852481023
 20
-2.1660423315
 30
0.0
 10
11.485749673
 20
-2.1778708079
 30
0.0
 10
11.4863100585
 20
-2.1786321343
 30
0.0
 10
11.4866724461
 20
-2.1812477138
 30
0.0
 10
11.4868550402
 20
-2.182292
 30
0.0
  0
SPLINE
  5
800
100
AcDbEntity
  8
CURVE
100
AcDbSpline
 62
250
  6
CONTINUOUS
 70
0
 71
3
 72
37
 73
33
 74
0
 42
0.0000001
 43
0.0000001
 44
0.0000000001
 40
0.0
 40
0.0
 40
0.0
 40
0.0
 40
0.03125
 40
0.0625
 40
0.09375
 40
0.125
 40
0.15625
 40
0.1875
 40
0.21875
 40
0.25
 40
0.28125
 40
0.3125
 40
0.34375
 40
0.375
 40
0.40625
 40
0.4375
 40
0.5
 40
0.5625
 40
0.59375
 40
0.625
 40
0.65625
 40
0.6875
 40
0.71875
 40
0.75
 40
0.78125
 40
0.8125
 40
0.84375
 40
0.875
 40
0.90625
 40
0.9375
 40
0.96875
 40
1.0
 40
1.0
 40
1.0
 40
1.0
 10
11.4868550397
 20
-2.182292
 30
0.0
 10
11.4870344716
 20
-2.1812839183
 30
0.0
 10
11.4873913713
 20
-2.1787401269
 30
0.0
 10
11.4879385052
 20
-2.1780902076
 30
0.0
 10
11.4884443943
 20
-2.1663601011
 30
0.0
 10
11.4889804571
 20
-2.160185189
 30
0.0
 10
11.48943707
 20
-2.1428696864
 30
0.0
 10
11.4899399526
 20
-2.1310087051
 30
0.0
 10
11.490337206
 20
-2.1084702291
 30
0.0
 10
11.4908013225
 20
-2.0906121171
 30
0.0
 10
11.4911036162
 20
-2.0647100436
 30
0.0
 10
11.4914901921
 20
-2.0424871903
 30
0.0
 10
11.4917014617
 20
-2.013591418
 30
0.0
 10
11.4920033587
 20
-1.9875196094
 30
0.0
 10
11.4921180527
 20
-1.956824865
 30
0.0
 10
11.4923689194
 20
-1.9181936595
 30
0.0
 10
11.4924159492
 20
-1.8642485901
 30
0.0
 10
11.4923721547
 20
-1.8125605703
 30
0.0
 10
11.4921236026
 20
-1.7735794272
 30
0.0
 10
11.4920109308
 20
-1.7429304694
 30
0.0
 10
11.4917100478
 20
-1.7167492772
 30
0.0
 10
11.4915026931
 20
-1.6879395262
 30
0.0
 10
11.4911094364
 20
-1.6651762445
 30
0.0
 10
11.4907977456
 20
-1.6385829384
 30
0.0
 10
11.4903456932
 20
-1.6212632609
 30
0.0
 10
11.4899578702
 20
-1.5991075887
 30
0.0
 10
11.4894534913
 20
-1.5870222669
 30
0.0
 10
11.4889987687
 20
-1.5696487472
 30
0.0
 10
11.488461977
 20
-1.5633576685
 30
0.0
 10
11.4879604063
 20
-1.5515291921
 30
0.0
 10
11.4874000208
 20
-1.5507678657
 30
0.0
 10
11.4870376333
 20
-1.5481522862
 30
0.0
 10
11.4868550392
 20
-1.547108
 30
0.0
  0
SPLINE
  5
801
100
AcDbEntity
  8
CURVE
100
AcDbSpline
 62
250
  6
CONTINUOUS
 70
0
 71
3
 72
40
 73
36
 74
0
 42
0.0000001
 43
0.0000001
 44
0.0000000001
 40
0.0
 40
0.0
 40
0.0
 40
0.0
 40
0.0625
 40
0.09375
 40
0.125
 40
0.1328125
 40
0.140625
 40
0.15625
 40
0.171875
 40
0.1875
 40
0.21875
 40
0.25
 40
0.265625
 40
0.28125
 40
0.3125
 40
0.34375
 40
0.375
 40
0.40625
 40
0.421875
 40
0.4296875
 40
0.4375
 40
0.453125
 40
0.46875
 40
0.5
 40
0.53125
 40
0.5625
 40
0.625
 40
0.6875
 40
0.71875
 40
0.75
 40
0.8125
 40
0.84375
 40
0.875
 40
0.9375
 40
1.0
 40
1.0
 40
1.0
 40
1.0
 10
11.4810489205
 20
-15.071874
 30
0.0
 10
11.4801331426
 20
-15.089404324
 30
0.0
 10
11.4787591104
 20
-15.1156540235
 30
0.0
 10
11.4769285291
 20
-15.1508367688
 30
0.0
 10
11.4758960866
 20
-15.1702836644
 30
0.0
 10
11.4752121307
 20
-15.1837919759
 30
0.0
 10
11.4747458073
 20
-15.1915002334
 30
0.0
 10
11.4742383794
 20
-15.2105933249
 30
0.0
 10
11.4736118619
 20
-15.2312977546
 30
0.0
 10
11.4727825224
 20
-15.2596645989
 30
0.0
 10
11.4717447291
 20
-15.29493432
 30
0.0
 10
11.4707038903
 20
-15.3300082055
 30
0.0
 10
11.4698794235
 20
-15.3586883868
 30
0.0
 10
11.4690245762
 20
-15.3850409451
 30
0.0
 10
11.4681736159
 20
-15.4346624739
 30
0.0
 10
11.4671012263
 20
-15.4902858146
 30
0.0
 10
11.4660435717
 20
-15.5470188116
 30
0.0
 10
11.4651557737
 20
-15.5938661996
 30
0.0
 10
11.4645413489
 20
-15.6270771265
 30
0.0
 10
11.4641801169
 20
-15.64546768
 30
0.0
 10
11.4639198129
 20
-15.6696967451
 30
0.0
 10
11.4635597774
 20
-15.697981417
 30
0.0
 10
11.4630036602
 20
-15.7443704896
 30
0.0
 10
11.4622975879
 20
-15.8018614871
 30
0.0
 10
11.461472836
 20
-15.8715279349
 30
0.0
 10
11.4602762896
 20
-15.96186126
 30
0.0
 10
11.4594508479
 20
-16.0922493295
 30
0.0
 10
11.4585149245
 20
-16.2195449326
 30
0.0
 10
11.4577400877
 20
-16.3211861135
 30
0.0
 10
11.4574954468
 20
-16.431782336
 30
0.0
 10
11.4571324899
 20
-16.540142369
 30
0.0
 10
11.4567268343
 20
-16.6484946893
 30
0.0
 10
11.4566497282
 20
-16.7598594463
 30
0.0
 10
11.4568081309
 20
-16.9014783957
 30
0.0
 10
11.4568572041
 20
-17.0140381638
 30
0.0
 10
11.4568914469
 20
-17.0704099717
 30
0.0
  0
SPLINE
  5
802
100
AcDbEntity
  8
CURVE
100
AcDbSpline
 62
250
  6
CONTINUOUS
 70
0
 71
3
 72
108
 73
104
 74
0
 42
0.0000001
 43
0.0000001
 44
0.0000000001
 40
0.0
 40
0.0
 40
0.0
 40
0.0
 40
0.03125
 40
0.0625
 40
0.09375
 40
0.125
 40
0.140625
 40
0.15625
 40
0.1640625
 40
0.171875
 40
0.17578125
 40
0.1796875
 40
0.1875
 40
0.203125
 40
0.21875
 40
0.2265625
 40
0.23046875
 40
0.234375
 40
0.2421875
 40
0.25
 40
0.265625
 40
0.28125
 40
0.296875
 40
0.3046875
 40
0.3125
 40
0.328125
 40
0.3359375
 40
0.34375
 40
0.34765625
 40
0.3515625
 40
0.359375
 40
0.3671875
 40
0.375
 40
0.3828125
 40
0.390625
 40
0.3984375
 40
0.40625
 40
0.41015625
 40
0.412109375
 40
0.4140625
 40
0.41796875
 40
0.421875
 40
0.4375
 40
0.4453125
 40
0.453125
 40
0.4609375
 40
0.46484375
 40
0.46875
 40
0.4765625
 40
0.484375
 40
0.4921875
 40
0.5
 40
0.515625
 40
0.5234375
 40
0.52734375
 40
0.529296875
 40
0.53125
 40
0.53515625
 40
0.5390625
 40
0.546875
 40
0.5546875
 40
0.5625
 40
0.578125
 40
0.58203125
 40
0.5859375
 40
0.587890625
 40
0.58984375
 40
0.59375
 40
0.6015625
 40
0.609375
 40
0.625
 40
0.6328125
 40
0.640625
 40
0.6484375
 40
0.65234375
 40
0.65625
 40
0.6640625
 40
0.671875
 40
0.6875
 40
0.6953125
 40
0.703125
 40
0.71875
 40
0.734375
 40
0.75
 40
0.7578125
 40
0.765625
 40
0.76953125
 40
0.7734375
 40
0.78125
 40
0.796875
 40
0.8125
 40
0.8203125
 40
0.82421875
 40
0.828125
 40
0.8359375
 40
0.84375
 40
0.859375
 40
0.875
 40
0.8828125
 40
0.890625
 40
0.90625
 40
0.9375
 40
1.0
 40
1.0
 40
1.0
 40
1.0
 10
11.5320050257
 20
-17.07041
 30
0.0
 10
11.5320087616
 20
-16.9822807024
 30
0.0
 10
11.5319825679
 20
-16.8062135635
 30
0.0
 10
11.532145271
 20
-16.5409641178
 30
0.0
 10
11.5309682077
 20
-16.2832014807
 30
0.0
 10
11.5303299525
 20
-16.0660644624
 30
0.0
 10
11.5290579302
 20
-15.9046577689
 30
0.0
 10
11.5283458056
 20
-15.802471156
 30
0.0
 10
11.5277675261
 20
-15.7207839661
 30
0.0
 10
11.5273861062
 20
-15.670227936
 30
0.0
 10
11.5271311039
 20
-15.6285712742
 30
0.0
 10
11.5266915634
 20
-15.5913631927
 30
0.0
 10
11.5259385269
 20
-15.5258618405
 30
0.0
 10
11.5248549154
 20
-15.4324565207
 30
0.0
 10
11.5237719048
 20
-15.3391165808
 30
0.0
 10
11.5230180271
 20
-15.2735236966
 30
0.0
 10
11.5225798086
 20
-15.2364594511
 30
0.0
 10
11.5221697039
 20
-15.1978227099
 30
0.0
 10
11.5214555078
 20
-15.1607987476
 30
0.0
 10
11.5203844069
 20
-15.0975618849
 30
0.0
 10
11.519024151
 20
-15.0196661366
 30
0.0
 10
11.5173870472
 20
-14.9266674386
 30
0.0
 10
11.5160672897
 20
-14.846047417
 30
0.0
 10
11.5147553398
 20
-14.7993374212
 30
0.0
 10
11.5134881311
 20
-14.7495217892
 30
0.0
 10
11.5122086189
 20
-14.7005539532
 30
0.0
 10
11.5109324615
 20
-14.6513719563
 30
0.0
 10
11.5101367291
 20
-14.6204621137
 30
0.0
 10
11.5094948261
 20
-14.5961984069
 30
0.0
 10
11.5088726985
 20
-14.5702149063
 30
0.0
 10
11.5079533697
 20
-14.5500537753
 30
0.0
 10
11.5068749945
 20
-14.5237024407
 30
0.0
 10
11.5057899708
 20
-14.4979288041
 30
0.0
 10
11.5047067214
 20
-14.4720023528
 30
0.0
 10
11.5036230236
 20
-14.4461094623
 30
0.0
 10
11.5025393448
 20
-14.4202351434
 30
0.0
 10
11.5016365896
 20
-14.3985833382
 30
0.0
 10
11.5010040007
 20
-14.3836076824
 30
0.0
 10
11.50064356
 20
-14.3747675132
 30
0.0
 10
11.5002624805
 20
-14.3715419454
 30
0.0
 10
11.4997931861
 20
-14.3655907746
 30
0.0
 10
11.4986610679
 20
-14.3528885863
 30
0.0
 10
11.4973422196
 20
-14.3375414182
 30
0.0
 10
11.4958340689
 20
-14.3202312847
 30
0.0
 10
11.4947029596
 20
-14.3072842663
 30
0.0
 10
11.4937607291
 20
-14.2962808592
 30
0.0
 10
11.4930060774
 20
-14.2879744828
 30
0.0
 10
11.4922546067
 20
-14.2778540894
 30
0.0
 10
11.4912924944
 20
-14.2781882885
 30
0.0
 10
11.4901392063
 20
-14.2778749614
 30
0.0
 10
11.488985586
 20
-14.2777639391
 30
0.0
 10
11.4874475349
 20
-14.2774894383
 30
0.0
 10
11.4859094931
 20
-14.2775691542
 30
0.0
 10
11.4845636102
 20
-14.2767920834
 30
0.0
 10
11.4838908091
 20
-14.2775188115
 30
0.0
 10
11.4835061246
 20
-14.2761431791
 30
0.0
 10
11.4831222935
 20
-14.281506307
 30
0.0
 10
11.4826422794
 20
-14.2864338271
 30
0.0
 10
11.4818743846
 20
-14.2953109449
 30
0.0
 10
11.4809144592
 20
-14.3060647593
 30
0.0
 10
11.47976263
 20
-14.3191241061
 30
0.0
 10
11.4782265457
 20
-14.336441974
 30
0.0
 10
11.4768839673
 20
-14.3518208833
 30
0.0
 10
11.4757301279
 20
-14.3645633434
 30
0.0
 10
11.4752537459
 20
-14.3704976269
 30
0.0
 10
11.4748624234
 20
-14.3737891795
 30
0.0
 10
11.4745084611
 20
-14.382404289
 30
0.0
 10
11.473885733
 20
-14.3970114291
 30
0.0
 10
11.4729978608
 20
-14.4181258547
 30
0.0
 10
11.4715761728
 20
-14.4517578593
 30
0.0
 10
11.4701554734
 20
-14.4855056575
 30
0.0
 10
11.4687326274
 20
-14.5190193823
 30
0.0
 10
11.4676709443
 20
-14.5447411027
 30
0.0
 10
11.4667689313
 20
-14.5643186441
 30
0.0
 10
11.4661421277
 20
-14.5901713669
 30
0.0
 10
11.4654987828
 20
-14.6142457176
 30
0.0
 10
11.4647001527
 20
-14.6449380849
 30
0.0
 10
11.4634199003
 20
-14.6937662718
 30
0.0
 10
11.4621365508
 20
-14.7423538909
 30
0.0
 10
11.4608643256
 20
-14.7918729139
 30
0.0
 10
11.4595517326
 20
-14.8379870786
 30
0.0
 10
11.4581998449
 20
-14.9200019667
 30
0.0
 10
11.4565301146
 20
-15.0142686938
 30
0.0
 10
11.4551400513
 20
-15.0934023369
 30
0.0
 10
11.4540484246
 20
-15.1573975316
 30
0.0
 10
11.4533144088
 20
-15.1953848092
 30
0.0
 10
11.4529133724
 20
-15.2330474039
 30
0.0
 10
11.4524798746
 20
-15.2694418523
 30
0.0
 10
11.45173629
 20
-15.3337203197
 30
0.0
 10
11.4506668718
 20
-15.4252606851
 30
0.0
 10
11.4495974302
 20
-15.5168247691
 30
0.0
 10
11.4488538784
 20
-15.5810700305
 30
0.0
 10
11.4484203289
 20
-15.6175166599
 30
0.0
 10
11.448159639
 20
-15.6592602253
 30
0.0
 10
11.4477743396
 20
-15.7096201812
 30
0.0
 10
11.4471925378
 20
-15.7912470446
 30
0.0
 10
11.4464429545
 20
-15.8926766226
 30
0.0
 10
11.4457393486
 20
-15.9952085382
 30
0.0
 10
11.4450839831
 20
-16.0750716614
 30
0.0
 10
11.4448621541
 20
-16.1650248738
 30
0.0
 10
11.4443002534
 20
-16.3178188049
 30
0.0
 10
11.4429847847
 20
-16.625923985
 30
0.0
 10
11.4434385
 20
-16.8929223005
 30
0.0
 10
11.4434439063
 20
-17.0704100894
 30
0.0
  0
SPLINE
  5
803
100
AcDbEntity
  8
CURVE
100
AcDbSpline
 62
250
  6
CONTINUOUS
 70
0
 71
3
 72
38
 73
34
 74
0
 42
0.0000001
 43
0.0000001
 44
0.0000000001
 40
0.0
 40
0.0
 40
0.0
 40
0.0
 40
0.125
 40
0.1875
 40
0.25
 40
0.28125
 40
0.3125
 40
0.375
 40
0.4375
 40
0.46875
 40
0.5
 40
0.53125
 40
0.546875
 40
0.5625
 40
0.5703125
 40
0.578125
 40
0.59375
 40
0.625
 40
0.65625
 40
0.6875
 40
0.71875
 40
0.734375
 40
0.75
 40
0.78125
 40
0.8125
 40
0.828125
 40
0.84375
 40
0.859375
 40
0.8671875
 40
0.875
 40
0.90625
 40
0.9375
 40
1.0
 40
1.0
 40
1.0
 40
1.0
 10
11.5185574928
 20
-17.07041
 30
0.0
 10
11.5186286991
 20
-16.9598377742
 30
0.0
 10
11.5189757232
 20
-16.7931171773
 30
0.0
 10
11.5184775633
 20
-16.5742720808
 30
0.0
 10
11.5179747212
 20
-16.439067146
 30
0.0
 10
11.517745856
 20
-16.3283672352
 30
0.0
 10
11.5169765507
 20
-16.2265525762
 30
0.0
 10
11.5160508591
 20
-16.0990282321
 30
0.0
 10
11.5152346689
 20
-15.9684451172
 30
0.0
 10
11.5140447605
 20
-15.8778256611
 30
0.0
 10
11.5132250924
 20
-15.807962242
 30
0.0
 10
11.5125232233
 20
-15.7503025513
 30
0.0
 10
11.5119704961
 20
-15.7037806316
 30
0.0
 10
11.5116125277
 20
-15.6754099372
 30
0.0
 10
11.5113539942
 20
-15.6511187105
 30
0.0
 10
11.5109941073
 20
-15.632641764
 30
0.0
 10
11.5103821113
 20
-15.5992839064
 30
0.0
 10
11.5094977397
 20
-15.552224205
 30
0.0
 10
11.5084442343
 20
-15.4952382811
 30
0.0
 10
11.5073759132
 20
-15.4393584767
 30
0.0
 10
11.5065285807
 20
-15.3895334764
 30
0.0
 10
11.505675665
 20
-15.3629763407
 30
0.0
 10
11.5048532933
 20
-15.3340988028
 30
0.0
 10
11.5038150608
 20
-15.2987763158
 30
0.0
 10
11.5027797198
 20
-15.2632565899
 30
0.0
 10
11.5019527216
 20
-15.2346946342
 30
0.0
 10
11.5013269142
 20
-15.2138300359
 30
0.0
 10
11.500823406
 20
-15.1946475487
 30
0.0
 10
11.5003465422
 20
-15.1866866158
 30
0.0
 10
11.4996502929
 20
-15.1728458827
 30
0.0
 10
11.4985979363
 20
-15.1528808274
 30
0.0
 10
11.4967330555
 20
-15.1167915263
 30
0.0
 10
11.4953330504
 20
-15.0898586211
 30
0.0
 10
11.4944000124
 20
-15.0718735574
 30
0.0
  0
SPLINE
  5
804
100
AcDbEntity
  8
CURVE
100
AcDbSpline
 62
250
  6
CONTINUOUS
 70
0
 71
3
 72
108
 73
104
 74
0
 42
0.0000001
 43
0.0000001
 44
0.0000000001
 40
0.0
 40
0.0
 40
0.0
 40
0.0
 40
0.03125
 40
0.0625
 40
0.09375
 40
0.125
 40
0.140625
 40
0.15625
 40
0.1640625
 40
0.171875
 40
0.17578125
 40
0.1796875
 40
0.1875
 40
0.203125
 40
0.21875
 40
0.2265625
 40
0.23046875
 40
0.234375
 40
0.2421875
 40
0.25
 40
0.265625
 40
0.28125
 40
0.296875
 40
0.3046875
 40
0.3125
 40
0.328125
 40
0.3359375
 40
0.34375
 40
0.34765625
 40
0.3515625
 40
0.359375
 40
0.3671875
 40
0.375
 40
0.3828125
 40
0.390625
 40
0.3984375
 40
0.40625
 40
0.41015625
 40
0.412109375
 40
0.4140625
 40
0.41796875
 40
0.421875
 40
0.4375
 40
0.4453125
 40
0.453125
 40
0.4609375
 40
0.46484375
 40
0.46875
 40
0.4765625
 40
0.484375
 40
0.4921875
 40
0.5
 40
0.515625
 40
0.5234375
 40
0.52734375
 40
0.529296875
 40
0.53125
 40
0.53515625
 40
0.5390625
 40
0.546875
 40
0.5546875
 40
0.5625
 40
0.578125
 40
0.58203125
 40
0.5859375
 40
0.587890625
 40
0.58984375
 40
0.59375
 40
0.6015625
 40
0.609375
 40
0.625
 40
0.6328125
 40
0.640625
 40
0.6484375
 40
0.65234375
 40
0.65625
 40
0.6640625
 40
0.671875
 40
0.6875
 40
0.6953125
 40
0.703125
 40
0.71875
 40
0.734375
 40
0.75
 40
0.7578125
 40
0.765625
 40
0.76953125
 40
0.7734375
 40
0.78125
 40
0.796875
 40
0.8125
 40
0.8203125
 40
0.82421875
 40
0.828125
 40
0.8359375
 40
0.84375
 40
0.859375
 40
0.875
 40
0.8828125
 40
0.890625
 40
0.90625
 40
0.9375
 40
1.0
 40
1.0
 40
1.0
 40
1.0
 10
11.5320050257
 20
-12.73541
 30
0.0
 10
11.5320087616
 20
-12.6472807024
 30
0.0
 10
11.5319825679
 20
-12.4712135635
 30
0.0
 10
11.532145271
 20
-12.2059641178
 30
0.0
 10
11.5309682077
 20
-11.9482014807
 30
0.0
 10
11.5303299525
 20
-11.7310644624
 30
0.0
 10
11.5290579302
 20
-11.5696577689
 30
0.0
 10
11.5283458056
 20
-11.467471156
 30
0.0
 10
11.5277675261
 20
-11.3857839661
 30
0.0
 10
11.5273861062
 20
-11.335227936
 30
0.0
 10
11.5271311039
 20
-11.2935712742
 30
0.0
 10
11.5266915634
 20
-11.2563631927
 30
0.0
 10
11.5259385269
 20
-11.1908618405
 30
0.0
 10
11.5248549154
 20
-11.0974565207
 30
0.0
 10
11.5237719048
 20
-11.0041165808
 30
0.0
 10
11.5230180271
 20
-10.9385236966
 30
0.0
 10
11.5225798086
 20
-10.9014594511
 30
0.0
 10
11.5221697039
 20
-10.8628227099
 30
0.0
 10
11.5214555078
 20
-10.8257987476
 30
0.0
 10
11.5203844069
 20
-10.7625618849
 30
0.0
 10
11.519024151
 20
-10.6846661366
 30
0.0
 10
11.5173870472
 20
-10.5916674386
 30
0.0
 10
11.5160672897
 20
-10.511047417
 30
0.0
 10
11.5147553398
 20
-10.4643374212
 30
0.0
 10
11.5134881311
 20
-10.4145217892
 30
0.0
 10
11.5122086189
 20
-10.3655539532
 30
0.0
 10
11.5109324615
 20
-10.3163719563
 30
0.0
 10
11.5101367291
 20
-10.2854621137
 30
0.0
 10
11.5094948261
 20
-10.2611984069
 30
0.0
 10
11.5088726985
 20
-10.2352149063
 30
0.0
 10
11.5079533697
 20
-10.2150537753
 30
0.0
 10
11.5068749945
 20
-10.1887024407
 30
0.0
 10
11.5057899708
 20
-10.1629288041
 30
0.0
 10
11.5047067214
 20
-10.1370023528
 30
0.0
 10
11.5036230236
 20
-10.1111094623
 30
0.0
 10
11.5025393448
 20
-10.0852351434
 30
0.0
 10
11.5016365896
 20
-10.0635833382
 30
0.0
 10
11.5010040007
 20
-10.0486076824
 30
0.0
 10
11.50064356
 20
-10.0397675132
 30
0.0
 10
11.5002624805
 20
-10.0365419454
 30
0.0
 10
11.4997931861
 20
-10.0305907746
 30
0.0
 10
11.4986610679
 20
-10.0178885863
 30
0.0
 10
11.4973422196
 20
-10.0025414182
 30
0.0
 10
11.4958340689
 20
-9.9852312847
 30
0.0
 10
11.4947029596
 20
-9.9722842663
 30
0.0
 10
11.4937607291
 20
-9.9612808592
 30
0.0
 10
11.4930060774
 20
-9.9529744828
 30
0.0
 10
11.4922546067
 20
-9.9428540894
 30
0.0
 10
11.4912924944
 20
-9.9431882885
 30
0.0
 10
11.4901392063
 20
-9.9428749614
 30
0.0
 10
11.488985586
 20
-9.9427639391
 30
0.0
 10
11.4874475349
 20
-9.9424894383
 30
0.0
 10
11.4859094931
 20
-9.9425691542
 30
0.0
 10
11.4845636102
 20
-9.9417920834
 30
0.0
 10
11.4838908091
 20
-9.9425188115
 30
0.0
 10
11.4835061246
 20
-9.9411431791
 30
0.0
 10
11.4831222935
 20
-9.946506307
 30
0.0
 10
11.4826422794
 20
-9.9514338271
 30
0.0
 10
11.4818743846
 20
-9.9603109449
 30
0.0
 10
11.4809144592
 20
-9.9710647593
 30
0.0
 10
11.47976263
 20
-9.9841241061
 30
0.0
 10
11.4782265457
 20
-10.001441974
 30
0.0
 10
11.4768839673
 20
-10.0168208833
 30
0.0
 10
11.4757301279
 20
-10.0295633434
 30
0.0
 10
11.4752537459
 20
-10.0354976269
 30
0.0
 10
11.4748624234
 20
-10.0387891795
 30
0.0
 10
11.4745084611
 20
-10.047404289
 30
0.0
 10
11.473885733
 20
-10.0620114291
 30
0.0
 10
11.4729978608
 20
-10.0831258547
 30
0.0
 10
11.4715761728
 20
-10.1167578593
 30
0.0
 10
11.4701554734
 20
-10.1505056575
 30
0.0
 10
11.4687326274
 20
-10.1840193823
 30
0.0
 10
11.4676709443
 20
-10.2097411027
 30
0.0
 10
11.4667689313
 20
-10.2293186441
 30
0.0
 10
11.4661421277
 20
-10.2551713669
 30
0.0
 10
11.4654987828
 20
-10.2792457176
 30
0.0
 10
11.4647001527
 20
-10.3099380849
 30
0.0
 10
11.4634199003
 20
-10.3587662718
 30
0.0
 10
11.4621365508
 20
-10.4073538909
 30
0.0
 10
11.4608643256
 20
-10.4568729139
 30
0.0
 10
11.4595517326
 20
-10.5029870786
 30
0.0
 10
11.4581998449
 20
-10.5850019667
 30
0.0
 10
11.4565301146
 20
-10.6792686938
 30
0.0
 10
11.4551400513
 20
-10.7584023369
 30
0.0
 10
11.4540484246
 20
-10.8223975316
 30
0.0
 10
11.4533144088
 20
-10.8603848092
 30
0.0
 10
11.4529133724
 20
-10.8980474039
 30
0.0
 10
11.4524798746
 20
-10.9344418523
 30
0.0
 10
11.45173629
 20
-10.9987203197
 30
0.0
 10
11.4506668718
 20
-11.0902606851
 30
0.0
 10
11.4495974302
 20
-11.1818247691
 30
0.0
 10
11.4488538784
 20
-11.2460700305
 30
0.0
 10
11.4484203289
 20
-11.2825166599
 30
0.0
 10
11.448159639
 20
-11.3242602253
 30
0.0
 10
11.4477743396
 20
-11.3746201812
 30
0.0
 10
11.4471925378
 20
-11.4562470446
 30
0.0
 10
11.4464429545
 20
-11.5576766226
 30
0.0
 10
11.4457393486
 20
-11.6602085382
 30
0.0
 10
11.4450839831
 20
-11.7400716614
 30
0.0
 10
11.4448621541
 20
-11.8300248738
 30
0.0
 10
11.4443002534
 20
-11.9828188049
 30
0.0
 10
11.4429847847
 20
-12.290923985
 30
0.0
 10
11.4434385
 20
-12.5579223005
 30
0.0
 10
11.4434439063
 20
-12.7354100894
 30
0.0
  0
SPLINE
  5
805
100
AcDbEntity
  8
CURVE
100
AcDbSpline
 62
250
  6
CONTINUOUS
 70
0
 71
3
 72
97
 73
93
 74
0
 42
0.0000001
 43
0.0000001
 44
0.0000000001
 40
0.0
 40
0.0
 40
0.0
 40
0.0
 40
0.0625
 40
0.09375
 40
0.125
 40
0.140625
 40
0.15625
 40
0.171875
 40
0.17578125
 40
0.1796875
 40
0.1875
 40
0.203125
 40
0.21875
 40
0.2265625
 40
0.234375
 40
0.2421875
 40
0.25
 40
0.265625
 40
0.28125
 40
0.296875
 40
0.3046875
 40
0.3125
 40
0.328125
 40
0.34375
 40
0.34765625
 40
0.3515625
 40
0.359375
 40
0.3671875
 40
0.375
 40
0.390625
 40
0.3984375
 40
0.40625
 40
0.41015625
 40
0.412109375
 40
0.4140625
 40
0.41796875
 40
0.421875
 40
0.4375
 40
0.453125
 40
0.4609375
 40
0.46484375
 40
0.46875
 40
0.4765625
 40
0.484375
 40
0.4921875
 40
0.5
 40
0.515625
 40
0.5234375
 40
0.53125
 40
0.53515625
 40
0.5390625
 40
0.546875
 40
0.5625
 40
0.578125
 40
0.58203125
 40
0.5859375
 40
0.587890625
 40
0.58984375
 40
0.59375
 40
0.6015625
 40
0.609375
 40
0.625
 40
0.6328125
 40
0.640625
 40
0.6484375
 40
0.65234375
 40
0.65625
 40
0.671875
 40
0.6875
 40
0.6953125
 40
0.703125
 40
0.71875
 40
0.734375
 40
0.75
 40
0.7578125
 40
0.765625
 40
0.7734375
 40
0.78125
 40
0.796875
 40
0.8125
 40
0.8203125
 40
0.82421875
 40
0.828125
 40
0.8359375
 40
0.84375
 40
0.859375
 40
0.875
 40
0.8828125
 40
0.890625
 40
0.90625
 40
0.9375
 40
1.0
 40
1.0
 40
1.0
 40
1.0
 10
11.5185574928
 20
-12.73541
 30
0.0
 10
11.5186535951
 20
-12.6099533673
 30
0.0
 10
11.5191285808
 20
-12.4222578419
 30
0.0
 10
11.5182032767
 20
-12.169643477
 30
0.0
 10
11.5178329313
 20
-12.011548363
 30
0.0
 10
11.5169657744
 20
-11.8931461352
 30
0.0
 10
11.5164036905
 20
-11.8029303983
 30
0.0
 10
11.5159313562
 20
-11.736483095
 30
0.0
 10
11.515673497
 20
-11.6906026229
 30
0.0
 10
11.5153720752
 20
-11.6636952504
 30
0.0
 10
11.5148553816
 20
-11.6162954495
 30
0.0
 10
11.5141096307
 20
-11.5488491137
 30
0.0
 10
11.5133737874
 20
-11.4809262091
 30
0.0
 10
11.5127674284
 20
-11.4275175183
 30
0.0
 10
11.5123597676
 20
-11.3849580428
 30
0.0
 10
11.5117725153
 20
-11.3519455803
 30
0.0
 10
11.5110217373
 20
-11.3062171846
 30
0.0
 10
11.5100748591
 20
-11.2494945875
 30
0.0
 10
11.508930615
 20
-11.1818932311
 30
0.0
 10
11.5080149201
 20
-11.1234223704
 30
0.0
 10
11.5070696576
 20
-11.0886325536
 30
0.0
 10
11.5061616874
 20
-11.05173485
 30
0.0
 10
11.5050129155
 20
-11.0064382811
 30
0.0
 10
11.5039867798
 20
-10.965070724
 30
0.0
 10
11.5032966622
 20
-10.9380806475
 30
0.0
 10
11.5028492078
 20
-10.91878543
 30
0.0
 10
11.5021982231
 20
-10.9041360096
 30
0.0
 10
11.5014330621
 20
-10.8849017649
 30
0.0
 10
11.5004072336
 20
-10.8598367504
 30
0.0
 10
11.4993830465
 20
-10.834597746
 30
0.0
 10
11.4983581454
 20
-10.8094452274
 30
0.0
 10
11.4977179996
 20
-10.7936536802
 30
0.0
 10
11.4972691772
 20
-10.782730247
 30
0.0
 10
11.4970138168
 20
-10.7762856808
 30
0.0
 10
11.4967364415
 20
-10.7738630753
 30
0.0
 10
11.4963972473
 20
-10.7694598699
 30
0.0
 10
11.4955769869
 20
-10.7600258004
 30
0.0
 10
11.4943492133
 20
-10.7453697278
 30
0.0
 10
11.492983713
 20
-10.7294401342
 30
0.0
 10
11.4920281656
 20
-10.7180153662
 30
0.0
 10
11.4914820118
 20
-10.7118502521
 30
0.0
 10
11.4909362497
 20
-10.7043362398
 30
0.0
 10
11.4902512668
 20
-10.7046063052
 30
0.0
 10
11.4894294402
 20
-10.7044020131
 30
0.0
 10
11.4886075723
 20
-10.7043368186
 30
0.0
 10
11.4875117652
 20
-10.7042125326
 30
0.0
 10
11.4864159392
 20
-10.7040342117
 30
0.0
 10
11.4853201575
 20
-10.7040460155
 30
0.0
 10
11.4846351991
 20
-10.7036231102
 30
0.0
 10
11.484088923
 20
-10.7110131919
 30
0.0
 10
11.4835423482
 20
-10.7170546638
 30
0.0
 10
11.4825860203
 20
-10.7282629324
 30
0.0
 10
11.4812194321
 20
-10.7438832359
 30
0.0
 10
11.4799906573
 20
-10.7582611814
 30
0.0
 10
11.4791697526
 20
-10.7675094456
 30
0.0
 10
11.4788302574
 20
-10.7718358125
 30
0.0
 10
11.4785527172
 20
-10.7741955929
 30
0.0
 10
11.4782969143
 20
-10.7805822873
 30
0.0
 10
11.4778473421
 20
-10.791404008
 30
0.0
 10
11.4772061121
 20
-10.8070504834
 30
0.0
 10
11.4761794843
 20
-10.8319707362
 30
0.0
 10
11.4751535646
 20
-10.8569776374
 30
0.0
 10
11.4741260154
 20
-10.8818101743
 30
0.0
 10
11.4733595337
 20
-10.9008710216
 30
0.0
 10
11.4727075442
 20
-10.9153728975
 30
0.0
 10
11.4722587618
 20
-10.9345667023
 30
0.0
 10
11.4715667927
 20
-10.9613999657
 30
0.0
 10
11.4705377364
 20
-11.0025403786
 30
0.0
 10
11.4693861229
 20
-11.0475564981
 30
0.0
 10
11.4684750637
 20
-11.084288589
 30
0.0
 10
11.4675296523
 20
-11.1187002591
 30
0.0
 10
11.4665927405
 20
-11.1782190085
 30
0.0
 10
11.4654269072
 20
-11.2467977565
 30
0.0
 10
11.4644606276
 20
-11.3044374056
 30
0.0
 10
11.4636957779
 20
-11.3507933386
 30
0.0
 10
11.4630944697
 20
-11.3845332317
 30
0.0
 10
11.4626983044
 20
-11.4259463859
 30
0.0
 10
11.4620983438
 20
-11.4784806876
 30
0.0
 10
11.4613735879
 20
-11.5450896915
 30
0.0
 10
11.4606377277
 20
-11.611288235
 30
0.0
 10
11.4601283082
 20
-11.6578303934
 30
0.0
 10
11.459830801
 20
-11.6842007455
 30
0.0
 10
11.4596571409
 20
-11.714916211
 30
0.0
 10
11.4593974694
 20
-11.751819808
 30
0.0
 10
11.4590069179
 20
-11.8117160399
 30
0.0
 10
11.4585021923
 20
-11.8861706936
 30
0.0
 10
11.4580324576
 20
-11.9612247963
 30
0.0
 10
11.4575859207
 20
-12.0201619098
 30
0.0
 10
11.4574712082
 20
-12.0842246626
 30
0.0
 10
11.4571365782
 20
-12.1940330661
 30
0.0
 10
11.4563318373
 20
-12.414357233
 30
0.0
 10
11.4567978466
 20
-12.6074592298
 30
0.0
 10
11.456891439
 20
-12.735409967
 30
0.0
  0
SPLINE
  5
806
100
AcDbEntity
  8
CURVE
100
AcDbSpline
 62
250
  6
CONTINUOUS
 70
0
 71
3
 72
9
 73
5
 74
0
 42
0.0000001
 43
0.0000001
 44
0.0000000001
 40
0.0
 40
0.0
 40
0.0
 40
0.0
 40
0.6975631748
 40
1.0
 40
1.0
 40
1.0
 40
1.0
 10
-10.6630185685
 20
-0.2900000008
 30
0.0
 10
-10.6630185685
 20
-1.7042135628
 30
0.0
 10
-10.6245370596
 20
-3.8707016056
 30
0.0
 10
-10.588787493
 20
-3.0845494863
 30
0.0
 10
-10.580103163
 20
-2.7262962353
 30
0.0
  0
SPLINE
  5
807
100
AcDbEntity
  8
CURVE
100
AcDbSpline
 62
250
  6
CONTINUOUS
 70
0
 71
3
 72
9
 73
5
 74
0
 42
0.0000001
 43
0.0000001
 44
0.0000000001
 40
0.0
 40
0.0
 40
0.0
 40
0.0
 40
0.1738893459
 40
1.0
 40
1.0
 40
1.0
 40
1.0
 10
-10.6003855002
 20
-2.2018127306
 30
0.0
 10
-10.603695896
 20
-2.2601630555
 30
0.0
 10
-10.6235334437
 20
-2.4721418002
 30
0.0
 10
-10.6455661746
 20
-1.2328093804
 30
0.0
 10
-10.6455661746
 20
-0.2900000008
 30
0.0
  0
SPLINE
  5
808
100
AcDbEntity
  8
CURVE
100
AcDbSpline
 62
250
  6
CONTINUOUS
 70
0
 71
3
 72
8
 73
4
 74
0
 42
0.0000001
 43
0.0000001
 44
0.0000000001
 40
0.0
 40
0.0
 40
0.0
 40
0.0
 40
1.0
 40
1.0
 40
1.0
 40
1.0
 10
-10.6368399589
 20
-0.2900000008
 30
0.0
 10
-10.6368399589
 20
-0.8328519725
 30
0.0
 10
-10.6300520876
 20
-1.4346739068
 30
0.0
 10
-10.6214161394
 20
-1.6579780036
 30
0.0
  0
SPLINE
  5
809
100
AcDbEntity
  8
CURVE
100
AcDbSpline
 62
250
  6
CONTINUOUS
 70
0
 71
3
 72
10
 73
6
 74
0
 42
0.0000001
 43
0.0000001
 44
0.0000000001
 40
0.0
 40
0.0
 40
0.0
 40
0.0
 40
0.2135266792
 40
0.6067633396
 40
1.0
 40
1.0
 40
1.0
 40
1.0
 10
-10.5921994531
 20
-1.3536291216
 30
0.0
 10
-10.5874611431
 20
-1.0821301737
 30
0.0
 10
-10.5781491272
 20
0.0300583709
 30
0.0
 10
-10.6103863969
 20
1.9874407432
 30
0.0
 10
-10.6368399589
 20
0.4171067803
 30
0.0
 10
-10.6368399589
 20
-0.2900000008
 30
0.0
  0
SPLINE
  5
80A
100
AcDbEntity
  8
CURVE
100
AcDbSpline
 62
250
  6
CONTINUOUS
 70
0
 71
3
 72
8
 73
4
 74
0
 42
0.0000001
 43
0.0000001
 44
0.0000000001
 40
0.0
 40
0.0
 40
0.0
 40
0.0
 40
1.0
 40
1.0
 40
1.0
 40
1.0
 10
-10.5757565426
 20
-0.2900000008
 30
0.0
 10
-10.5757565426
 20
-0.7479783556
 30
0.0
 10
-10.5788322935
 20
-1.2305923035
 30
0.0
 10
-10.5839920517
 20
-1.5803623781
 30
0.0
  0
SPLINE
  5
80B
100
AcDbEntity
  8
CURVE
100
AcDbSpline
 62
250
  6
CONTINUOUS
 70
0
 71
3
 72
55
 73
51
 74
0
 42
0.0000001
 43
0.0000001
 44
0.0000000001
 40
0.0
 40
0.0
 40
0.0
 40
0.0
 40
0.03125
 40
0.046875
 40
0.0625
 40
0.078125
 40
0.09375
 40
0.109375
 40
0.125
 40
0.140625
 40
0.15625
 40
0.171875
 40
0.1875
 40
0.203125
 40
0.21875
 40
0.234375
 40
0.25
 40
0.265625
 40
0.28125
 40
0.3125
 40
0.34375
 40
0.375
 40
0.40625
 40
0.4375
 40
0.46875
 40
0.5
 40
0.53125
 40
0.5625
 40
0.59375
 40
0.625
 40
0.65625
 40
0.6875
 40
0.71875
 40
0.734375
 40
0.75
 40
0.765625
 40
0.78125
 40
0.796875
 40
0.8125
 40
0.828125
 40
0.84375
 40
0.859375
 40
0.875
 40
0.890625
 40
0.90625
 40
0.921875
 40
0.9375
 40
0.953125
 40
0.96875
 40
1.0
 40
1.0
 40
1.0
 40
1.0
 10
-10.6106612445
 20
0.209993
 30
0.0
 10
-10.610943732
 20
0.2084059328
 30
0.0
 10
-10.6113682054
 20
0.2062389598
 30
0.0
 10
-10.6119312014
 20
0.2024951511
 30
0.0
 10
-10.6123608697
 20
0.2018235731
 30
0.0
 10
-10.6127623373
 20
0.1930341366
 30
0.0
 10
-10.6131723472
 20
0.186556704
 30
0.0
 10
-10.6135763889
 20
0.1789491142
 30
0.0
 10
-10.6139957611
 20
0.1735501493
 30
0.0
 10
-10.6143597791
 20
0.1604468421
 30
0.0
 10
-10.6147398948
 20
0.1495405786
 30
0.0
 10
-10.6151109739
 20
0.1375504826
 30
0.0
 10
-10.6155021017
 20
0.1276986727
 30
0.0
 10
-10.6158220711
 20
0.110377551
 30
0.0
 10
-10.6161630873
 20
0.0951531918
 30
0.0
 10
-10.6164910746
 20
0.0790110945
 30
0.0
 10
-10.6168501306
 20
0.0644431871
 30
0.0
 10
-10.6170979408
 20
0.0444962579
 30
0.0
 10
-10.6174595047
 20
0.0194928931
 30
0.0
 10
-10.6179559466
 20
-0.010257815
 30
0.0
 10
-10.6182914135
 20
-0.0555642659
 30
0.0
 10
-10.6187681526
 20
-0.0966375358
 30
0.0
 10
-10.6189400664
 20
-0.1450379287
 30
0.0
 10
-10.6192694455
 20
-0.1903195008
 30
0.0
 10
-10.6192737888
 20
-0.2407492328
 30
0.0
 10
-10.6194435089
 20
-0.2902341505
 30
0.0
 10
-10.6192767575
 20
-0.3383501652
 30
0.0
 10
-10.6192754765
 20
-0.3877521329
 30
0.0
 10
-10.6189487851
 20
-0.4333791915
 30
0.0
 10
-10.6187801223
 20
-0.4817224667
 30
0.0
 10
-10.6183047554
 20
-0.5229757845
 30
0.0
 10
-10.6179762809
 20
-0.5681004803
 30
0.0
 10
-10.6174684976
 20
-0.5987080983
 30
0.0
 10
-10.6171030377
 20
-0.6240951842
 30
0.0
 10
-10.6168470752
 20
-0.6446303011
 30
0.0
 10
-10.6164981996
 20
-0.6587357122
 30
0.0
 10
-10.6161756549
 20
-0.6746870312
 30
0.0
 10
-10.6158407001
 20
-0.6896844245
 30
0.0
 10
-10.6155290546
 20
-0.7066516124
 30
0.0
 10
-10.6151365819
 20
-0.7166935477
 30
0.0
 10
-10.6147667583
 20
-0.7287277914
 30
0.0
 10
-10.6143871657
 20
-0.7397180538
 30
0.0
 10
-10.614024
 20
-0.7528919331
 30
0.0
 10
-10.6136048956
 20
-0.7583753261
 30
0.0
 10
-10.6132015224
 20
-0.7660635072
 30
0.0
 10
-10.6127911631
 20
-0.7726230223
 30
0.0
 10
-10.612393017
 20
-0.7814924133
 30
0.0
 10
-10.6119530041
 20
-0.7822509668
 30
0.0
 10
-10.6113810103
 20
-0.7861082794
 30
0.0
 10
-10.6109487097
 20
-0.7883609345
 30
0.0
 10
-10.6106612438
 20
-0.790005
 30
0.0
  0
SPLINE
  5
80C
100
AcDbEntity
  8
CURVE
100
AcDbSpline
 62
250
  6
CONTINUOUS
 70
0
 71
3
 72
55
 73
51
 74
0
 42
0.0000001
 43
0.0000001
 44
0.0000000001
 40
0.0
 40
0.0
 40
0.0
 40
0.0
 40
0.03125
 40
0.046875
 40
0.0625
 40
0.078125
 40
0.09375
 40
0.109375
 40
0.125
 40
0.140625
 40
0.15625
 40
0.171875
 40
0.1875
 40
0.203125
 40
0.21875
 40
0.234375
 40
0.25
 40
0.265625
 40
0.28125
 40
0.3125
 40
0.34375
 40
0.375
 40
0.40625
 40
0.4375
 40
0.46875
 40
0.5
 40
0.53125
 40
0.5625
 40
0.59375
 40
0.625
 40
0.65625
 40
0.6875
 40
0.71875
 40
0.734375
 40
0.75
 40
0.765625
 40
0.78125
 40
0.796875
 40
0.8125
 40
0.828125
 40
0.84375
 40
0.859375
 40
0.875
 40
0.890625
 40
0.90625
 40
0.921875
 40
0.9375
 40
0.953125
 40
0.96875
 40
1.0
 40
1.0
 40
1.0
 40
1.0
 10
-10.6106612445
 20
-0.790005
 30
0.0
 10
-10.610378757
 20
-0.7884179328
 30
0.0
 10
-10.6099542837
 20
-0.7862509598
 30
0.0
 10
-10.6093912876
 20
-0.7825071511
 30
0.0
 10
-10.6089616194
 20
-0.7818355731
 30
0.0
 10
-10.6085601517
 20
-0.7730461366
 30
0.0
 10
-10.6081501419
 20
-0.766568704
 30
0.0
 10
-10.6077461002
 20
-0.7589611142
 30
0.0
 10
-10.6073267279
 20
-0.7535621493
 30
0.0
 10
-10.60696271
 20
-0.7404588421
 30
0.0
 10
-10.6065825943
 20
-0.7295525786
 30
0.0
 10
-10.6062115152
 20
-0.7175624826
 30
0.0
 10
-10.6058203873
 20
-0.7077106727
 30
0.0
 10
-10.605500418
 20
-0.690389551
 30
0.0
 10
-10.6051594018
 20
-0.6751651918
 30
0.0
 10
-10.6048314144
 20
-0.6590230945
 30
0.0
 10
-10.6044723584
 20
-0.6444551871
 30
0.0
 10
-10.6042245483
 20
-0.6245082579
 30
0.0
 10
-10.6038629844
 20
-0.5995048931
 30
0.0
 10
-10.6033665425
 20
-0.569754185
 30
0.0
 10
-10.6030310755
 20
-0.5244477341
 30
0.0
 10
-10.6025543365
 20
-0.4833744642
 30
0.0
 10
-10.6023824226
 20
-0.4349740713
 30
0.0
 10
-10.6020530435
 20
-0.3896924992
 30
0.0
 10
-10.6020487003
 20
-0.3392627672
 30
0.0
 10
-10.6018789802
 20
-0.2897778495
 30
0.0
 10
-10.6020457316
 20
-0.2416618348
 30
0.0
 10
-10.6020470125
 20
-0.1922598671
 30
0.0
 10
-10.602373704
 20
-0.1466328085
 30
0.0
 10
-10.6025423667
 20
-0.0982895333
 30
0.0
 10
-10.6030177336
 20
-0.0570362155
 30
0.0
 10
-10.6033462081
 20
-0.0119115197
 30
0.0
 10
-10.6038539915
 20
0.0186960983
 30
0.0
 10
-10.6042194514
 20
0.0440831842
 30
0.0
 10
-10.6044754139
 20
0.0646183011
 30
0.0
 10
-10.6048242894
 20
0.0787237122
 30
0.0
 10
-10.6051468342
 20
0.0946750312
 30
0.0
 10
-10.605481789
 20
0.1096724245
 30
0.0
 10
-10.6057934345
 20
0.1266396124
 30
0.0
 10
-10.6061859071
 20
0.1366815477
 30
0.0
 10
-10.6065557307
 20
0.1487157914
 30
0.0
 10
-10.6069353234
 20
0.1597060538
 30
0.0
 10
-10.607298489
 20
0.1728799331
 30
0.0
 10
-10.6077175935
 20
0.1783633261
 30
0.0
 10
-10.6081209667
 20
0.1860515072
 30
0.0
 10
-10.608531326
 20
0.1926110223
 30
0.0
 10
-10.6089294721
 20
0.2014804133
 30
0.0
 10
-10.609369485
 20
0.2022389668
 30
0.0
 10
-10.6099414788
 20
0.2060962794
 30
0.0
 10
-10.6103737794
 20
0.2083489345
 30
0.0
 10
-10.6106612453
 20
0.209993
 30
0.0
  0
SPLINE
  5
80D
100
AcDbEntity
  8
CURVE
100
AcDbSpline
 62
250
  6
CONTINUOUS
 70
0
 71
3
 72
13
 73
9
 74
0
 42
0.0000001
 43
0.0000001
 44
0.0000000001
 40
0.0
 40
0.0
 40
0.0
 40
0.0
 40
0.2490801906
 40
0.3745290044
 40
0.5000465587
 40
0.6245839973
 40
0.7501008193
 40
1.0
 40
1.0
 40
1.0
 40
1.0
 10
-10.6643310306
 20
4.1187598859
 30
0.0
 10
-10.6633411349
 20
4.1187598859
 30
0.0
 10
-10.6618213002
 20
4.110949299
 30
0.0
 10
-10.6599969604
 20
4.0639042122
 30
0.0
 10
-10.6587786971
 20
4.0123287258
 30
0.0
 10
-10.6579537055
 20
3.9389346122
 30
0.0
 10
-10.657388434
 20
3.8288650197
 30
0.0
 10
-10.6573061169
 20
3.7430729482
 30
0.0
 10
-10.6571821017
 20
3.6866121309
 30
0.0
  0
SPLINE
  5
80E
100
AcDbEntity
  8
CURVE
100
AcDbSpline
 62
250
  6
CONTINUOUS
 70
0
 71
3
 72
13
 73
9
 74
0
 42
0.0000001
 43
0.0000001
 44
0.0000000001
 40
0.0
 40
0.0
 40
0.0
 40
0.0
 40
0.2498991807
 40
0.3754160027
 40
0.4999534413
 40
0.6254709956
 40
0.7509198094
 40
1.0
 40
1.0
 40
1.0
 40
1.0
 10
-10.6714799594
 20
3.6866121309
 30
0.0
 10
-10.6713559442
 20
3.7430729482
 30
0.0
 10
-10.6712736271
 20
3.8288650197
 30
0.0
 10
-10.6707083556
 20
3.9389346122
 30
0.0
 10
-10.669883364
 20
4.0123287258
 30
0.0
 10
-10.6686651007
 20
4.0639042122
 30
0.0
 10
-10.6668407609
 20
4.110949299
 30
0.0
 10
-10.6653209262
 20
4.1187598859
 30
0.0
 10
-10.6643310306
 20
4.1187598859
 30
0.0
  0
SPLINE
  5
80F
100
AcDbEntity
  8
CURVE
100
AcDbSpline
 62
250
  6
CONTINUOUS
 70
0
 71
3
 72
15
 73
11
 74
0
 42
0.0000001
 43
0.0000001
 44
0.0000000001
 40
0.0
 40
0.0
 40
0.0
 40
0.0
 40
0.1248401019
 40
0.2498663855
 40
0.374885782
 40
0.5000299202
 40
0.6250550432
 40
0.7501198193
 40
0.875035251
 40
1.0
 40
1.0
 40
1.0
 40
1.0
 10
-10.6643310306
 20
4.7815268003
 30
0.0
 10
-10.6655708705
 20
4.7815268003
 30
0.0
 10
-10.6680599421
 20
4.7716793234
 30
0.0
 10
-10.6716751959
 20
4.7119708447
 30
0.0
 10
-10.6748571789
 20
4.5935070156
 30
0.0
 10
-10.6771733944
 20
4.4217447249
 30
0.0
 10
-10.6786070803
 20
4.22298974
 30
0.0
 10
-10.6794424462
 20
4.0142899176
 30
0.0
 10
-10.6797902254
 20
3.801448305
 30
0.0
 10
-10.6798436085
 20
3.6592834163
 30
0.0
 10
-10.6798895678
 20
3.5882200575
 30
0.0
  0
SPLINE
  5
810
100
AcDbEntity
  8
CURVE
100
AcDbSpline
 62
250
  6
CONTINUOUS
 70
0
 71
3
 72
15
 73
11
 74
0
 42
0.0000001
 43
0.0000001
 44
0.0000000001
 40
0.0
 40
0.0
 40
0.0
 40
0.0
 40
0.124964749
 40
0.2498801807
 40
0.3749449568
 40
0.4999700798
 40
0.625114218
 40
0.7501336145
 40
0.8751598981
 40
1.0
 40
1.0
 40
1.0
 40
1.0
 10
-10.6487724933
 20
3.5882200575
 30
0.0
 10
-10.6488184526
 20
3.6592834163
 30
0.0
 10
-10.6488718357
 20
3.801448305
 30
0.0
 10
-10.6492196149
 20
4.0142899176
 30
0.0
 10
-10.6500549808
 20
4.22298974
 30
0.0
 10
-10.6514886667
 20
4.4217447249
 30
0.0
 10
-10.6538048822
 20
4.5935070156
 30
0.0
 10
-10.6569868652
 20
4.7119708447
 30
0.0
 10
-10.660602119
 20
4.7716793234
 30
0.0
 10
-10.6630911906
 20
4.7815268003
 30
0.0
 10
-10.6643310306
 20
4.7815268003
 30
0.0
  0
SPLINE
  5
811
100
AcDbEntity
  8
CURVE
100
AcDbSpline
 62
250
  6
CONTINUOUS
 70
0
 71
3
 72
17
 73
13
 74
0
 42
0.0000001
 43
0.0000001
 44
0.0000000001
 40
0.0
 40
0.0
 40
0.0
 40
0.0
 40
0.0559780952
 40
0.1687540387
 40
0.321006234
 40
0.4122750837
 40
0.516613223
 40
0.6013931059
 40
0.6776022439
 40
0.8103422694
 40
0.9200404832
 40
1.0
 40
1.0
 40
1.0
 40
1.0
 10
-10.6530582607
 20
-5.30544429
 30
0.0
 10
-10.6531335455
 20
-5.2720129691
 30
0.0
 10
-10.6543015841
 20
-5.1870348741
 30
0.0
 10
-10.6565281916
 20
-5.0461085976
 30
0.0
 10
-10.6599557081
 20
-4.942341904
 30
0.0
 10
-10.6635313836
 20
-4.8961162199
 30
0.0
 10
-10.6664991196
 20
-4.8917734095
 30
0.0
 10
-10.669270961
 20
-4.9146605038
 30
0.0
 10
-10.6722162587
 20
-4.970130962
 30
0.0
 10
-10.6751027147
 20
-5.0743158343
 30
0.0
 10
-10.677359999
 20
-5.2214167671
 30
0.0
 10
-10.6783335451
 20
-5.3225578116
 30
0.0
 10
-10.6786187063
 20
-5.3678501192
 30
0.0
  0
SPLINE
  5
812
100
AcDbEntity
  8
CURVE
100
AcDbSpline
 62
250
  6
CONTINUOUS
 70
0
 71
3
 72
9
 73
5
 74
0
 42
0.0000001
 43
0.0000001
 44
0.0000000001
 40
0.0
 40
0.0
 40
0.0
 40
0.0
 40
0.2426586216
 40
1.0
 40
1.0
 40
1.0
 40
1.0
 10
-10.642833703
 20
-4.9565587397
 30
0.0
 10
-10.6437532978
 20
-4.9709135121
 30
0.0
 10
-10.6474668457
 20
-5.0257465269
 30
0.0
 10
-10.6516574374
 20
-5.1471222466
 30
0.0
 10
-10.6527592238
 20
-5.30544429
 30
0.0
  0
LINE
  5
813
100
AcDbEntity
  8
CURVE
100
AcDbLine
 62
250
  6
CONTINUOUS
 10
-10.6291368258
 20
-4.7496410148
 11
-10.642833703
 21
-4.9565587397
  0
SPLINE
  5
814
100
AcDbEntity
  8
CURVE
100
AcDbSpline
 62
250
  6
CONTINUOUS
 70
0
 71
3
 72
9
 73
5
 74
0
 42
0.0000001
 43
0.0000001
 44
0.0000000001
 40
0.0
 40
0.0
 40
0.0
 40
0.0
 40
0.5586214172
 40
1.0
 40
1.0
 40
1.0
 40
1.0
 10
-10.6444822009
 20
-5.5965120355
 30
0.0
 10
-10.6416886776
 20
-5.5363777493
 30
0.0
 10
-10.636515861
 20
-5.4572958168
 30
0.0
 10
-10.6314028769
 20
-5.3691717641
 30
0.0
 10
-10.6291368258
 20
-5.3318417383
 30
0.0
  0
SPLINE
  5
815
100
AcDbEntity
  8
CURVE
100
AcDbSpline
 62
250
  6
CONTINUOUS
 70
0
 71
3
 72
9
 73
5
 74
0
 42
0.0000001
 43
0.0000001
 44
0.0000000001
 40
0.0
 40
0.0
 40
0.0
 40
0.0
 40
0.3559141631
 40
1.0
 40
1.0
 40
1.0
 40
1.0
 10
-10.6489411903
 20
-5.9341993273
 30
0.0
 10
-10.6489411903
 20
-5.881454293
 30
0.0
 10
-10.6483837816
 20
-5.7297209739
 30
0.0
 10
-10.6460418353
 20
-5.6300496388
 30
0.0
 10
-10.6444822009
 20
-5.5965120355
 30
0.0
  0
SPLINE
  5
816
100
AcDbEntity
  8
CURVE
100
AcDbSpline
 62
250
  6
CONTINUOUS
 70
0
 71
3
 72
9
 73
5
 74
0
 42
0.0000001
 43
0.0000001
 44
0.0000000001
 40
0.0
 40
0.0
 40
0.0
 40
0.0
 40
0.2957417834
 40
1.0
 40
1.0
 40
1.0
 40
1.0
 10
-10.6786187063
 20
-5.3678501192
 30
0.0
 10
-10.6794978649
 20
-5.5072850092
 30
0.0
 10
-10.6809309459
 20
-6.0084690297
 30
0.0
 10
-10.6800483143
 20
-6.5122819938
 30
0.0
 10
-10.6791515081
 20
-6.8615673444
 30
0.0
  0
SPLINE
  5
817
100
AcDbEntity
  8
CURVE
100
AcDbSpline
 62
250
  6
CONTINUOUS
 70
0
 71
3
 72
10
 73
6
 74
0
 42
0.0000001
 43
0.0000001
 44
0.0000000001
 40
0.0
 40
0.0
 40
0.0
 40
0.0
 40
0.2929210355
 40
0.5275938042
 40
1.0
 40
1.0
 40
1.0
 40
1.0
 10
-10.6650933579
 20
-5.4627200261
 30
0.0
 10
-10.6638442933
 20
-5.4616156828
 30
0.0
 10
-10.6615232198
 20
-5.4770528399
 30
0.0
 10
-10.6579333787
 20
-5.6287671311
 30
0.0
 10
-10.6572742061
 20
-5.8174861236
 30
0.0
 10
-10.6572292184
 20
-5.9328946758
 30
0.0
  0
SPLINE
  5
818
100
AcDbEntity
  8
CURVE
100
AcDbSpline
 62
250
  6
CONTINUOUS
 70
0
 71
3
 72
9
 73
5
 74
0
 42
0.0000001
 43
0.0000001
 44
0.0000000001
 40
0.0
 40
0.0
 40
0.0
 40
0.0
 40
0.5013510385
 40
1.0
 40
1.0
 40
1.0
 40
1.0
 10
-10.6714194306
 20
-5.804625691
 30
0.0
 10
-10.6712396857
 20
-5.7159162323
 30
0.0
 10
-10.6698762763
 20
-5.5364909894
 30
0.0
 10
-10.6666433609
 20
-5.4641091071
 30
0.0
 10
-10.6650933579
 20
-5.4627200261
 30
0.0
  0
ELLIPSE
  5
819
100
AcDbEntity
  8
ASSI
100
AcDbEllipse
 62
7
  6
CONTINUOUS
 10
4.7349543016
 20
1.9000456984
 30
0.0
 11
0.2121966568
 21
-0.2121966568
 31
0.0
 40
0.9996954599
 41
-0.7852458701
 42
0.7852458701
  0
ELLIPSE
  5
81A
100
AcDbEntity
  8
ASSI
100
AcDbEllipse
 62
7
  6
CONTINUOUS
 10
4.7349543016
 20
7.4999543016
 30
0.0
 11
0.2121966568
 21
0.2121966568
 31
0.0
 40
0.9996954599
 41
-0.7852458701
 42
0.7852458701
  0
ELLIPSE
  5
81B
100
AcDbEntity
  8
ASSI
100
AcDbEllipse
 62
7
  6
CONTINUOUS
 10
0.425
 20
-20.1823915368
 30
0.0
 11
15.0
 21
-0.0
 31
0.0
 40
0.0087268678
 41
1.4073150204
 42
1.7342776332
  0
ELLIPSE
  5
81C
100
AcDbEntity
  8
ASSI
100
AcDbEllipse
 62
7
  6
CONTINUOUS
 10
2.925
 20
-20.0445070257
 30
0.0
 11
1.0
 21
0.0
 31
0.0
 40
0.0087268678
 41
-1.5707963268
 42
-0.0
  0
ELLIPSE
  5
81D
100
AcDbEntity
  8
ASSI
100
AcDbEllipse
 62
7
  6
CONTINUOUS
 10
-2.075
 20
-20.0445070257
 30
0.0
 11
1.0
 21
-0.0
 31
0.0
 40
0.0087268678
 41
-3.1415926536
 42
-1.5707963268
  0
ELLIPSE
  5
81E
100
AcDbEntity
  8
ASSI
100
AcDbEllipse
 62
7
  6
CONTINUOUS
 10
0.425
 20
20.1823915368
 30
0.0
 11
15.0
 21
-0.0
 31
0.0
 40
0.0087268678
 41
-1.7342776332
 42
-1.4073150204
  0
ELLIPSE
  5
81F
100
AcDbEntity
  8
ASSI
100
AcDbEllipse
 62
7
  6
CONTINUOUS
 10
-2.075
 20
20.0445070257
 30
0.0
 11
1.0
 21
0.0
 31
0.0
 40
0.0087268678
 41
1.5707963268
 42
3.1415926536
  0
ELLIPSE
  5
820
100
AcDbEntity
  8
ASSI
100
AcDbEllipse
 62
7
  6
CONTINUOUS
 10
2.925
 20
20.0445070257
 30
0.0
 11
1.0
 21
0.0
 31
0.0
 40
0.0087268678
 41
0.0
 42
1.5707963268
  0
ELLIPSE
  5
821
100
AcDbEntity
  8
ASSI
100
AcDbEllipse
 62
7
  6
CONTINUOUS
 10
-10.224923836
 20
21.891254093
 30
0.0
 11
0.4473055582
 21
0.2236357461
 31
0.0
 40
0.9998096356
 41
1.1071030277
 42
2.6780516535
  0
ELLIPSE
  5
822
100
AcDbEntity
  8
ASSI
100
AcDbEllipse
 62
7
  6
CONTINUOUS
 10
11.074923836
 20
21.891254093
 30
0.0
 11
0.4473055582
 21
-0.2236357461
 31
0.0
 40
0.9998096356
 41
6.7467263073
 42
8.3176749331
  0
ELLIPSE
  5
823
100
AcDbEntity
  8
ASSI
100
AcDbEllipse
 62
7
  6
CONTINUOUS
 10
-10.224923836
 20
-21.891254093
 30
0.0
 11
-0.4473055582
 21
0.2236357461
 31
0.0
 40
0.9998096356
 41
6.7467263073
 42
8.3176749331
  0
ELLIPSE
  5
824
100
AcDbEntity
  8
ASSI
100
AcDbEllipse
 62
7
  6
CONTINUOUS
 10
11.074923836
 20
-21.891254093
 30
0.0
 11
-0.4473055582
 21
-0.2236357461
 31
0.0
 40
0.9998096356
 41
1.1071030277
 42
2.6780516535
  0
ELLIPSE
  5
825
100
AcDbEntity
  8
ASSI
100
AcDbEllipse
 62
7
  6
CONTINUOUS
 10
-14.0704115624
 20
11.8595594916
 30
0.0
 11
4.9817380396
 21
-0.4358456031
 31
0.0
 40
0.9998465296
 41
-0.0872531377
 42
0.0872531377
  0
ELLIPSE
  5
826
100
AcDbEntity
  8
ASSI
100
AcDbEllipse
 62
7
  6
CONTINUOUS
 10
-14.0704115624
 20
-2.4595594916
 30
0.0
 11
4.9817380396
 21
0.4358456031
 31
0.0
 40
0.9998465296
 41
-0.0419110883
 42
0.0872531377
  0
ELLIPSE
  5
827
100
AcDbEntity
  8
ASSI
100
AcDbEllipse
 62
7
  6
CONTINUOUS
 10
-6.2232246994
 20
19.8482246994
 30
0.0
 11
-0.1414261429
 21
0.1414261429
 31
0.0
 40
0.9999661546
 41
-3.191340031
 42
-2.3562114132
  0
ELLIPSE
  5
828
100
AcDbEntity
  8
ASSI
100
AcDbEllipse
 62
7
  6
CONTINUOUS
 10
-6.7267753006
 20
19.8482246994
 30
0.0
 11
0.1414261429
 21
0.1414261429
 31
0.0
 40
0.9999661546
 41
-3.926973894
 42
-3.0918452763
  0
ELLIPSE
  5
829
100
AcDbEntity
  8
ASSI
100
AcDbEllipse
 62
7
  6
CONTINUOUS
 10
7.5767753006
 20
19.8482246994
 30
0.0
 11
0.1414261429
 21
-0.1414261429
 31
0.0
 40
0.9999661546
 41
-0.0497473774
 42
0.7853812404
  0
ELLIPSE
  5
82A
100
AcDbEntity
  8
ASSI
100
AcDbEllipse
 62
7
  6
CONTINUOUS
 10
7.0732246994
 20
19.8482246994
 30
0.0
 11
0.1414261429
 21
0.1414261429
 31
0.0
 40
0.9999661546
 41
-3.926973894
 42
-3.0918452763
  0
ELLIPSE
  5
82B
100
AcDbEntity
  8
ASSI
100
AcDbEllipse
 62
7
  6
CONTINUOUS
 10
-6.7267753006
 20
-19.8482246994
 30
0.0
 11
-0.1414261429
 21
0.1414261429
 31
0.0
 40
0.9999661546
 41
0.0872639409
 42
0.7853812404
  0
ELLIPSE
  5
82C
100
AcDbEntity
  8
ASSI
100
AcDbEllipse
 62
7
  6
CONTINUOUS
 10
-6.7267753006
 20
-19.8482246994
 30
0.0
 11
0.1414261429
 21
-0.1414261429
 31
0.0
 40
0.9999661546
 41
3.0918452762
 42
3.2288565945
  0
ELLIPSE
  5
82D
100
AcDbEntity
  8
ASSI
100
AcDbEllipse
 62
7
  6
CONTINUOUS
 10
-6.2232246994
 20
-19.8482246994
 30
0.0
 11
0.1414261429
 21
0.1414261429
 31
0.0
 40
0.9999661546
 41
-0.7853812404
 42
0.0497473773
  0
ELLIPSE
  5
82E
100
AcDbEntity
  8
ASSI
100
AcDbEllipse
 62
7
  6
CONTINUOUS
 10
7.5767753006
 20
-19.8482246994
 30
0.0
 11
0.1414261429
 21
0.1414261429
 31
0.0
 40
0.9999661546
 41
-0.7853812404
 42
0.0497473773
  0
ELLIPSE
  5
82F
100
AcDbEntity
  8
ASSI
100
AcDbEllipse
 62
7
  6
CONTINUOUS
 10
7.0732246994
 20
-19.8482246994
 30
0.0
 11
0.1414261429
 21
-0.1414261429
 31
0.0
 40
0.9999661546
 41
3.0918452763
 42
3.926973894
  0
ELLIPSE
  5
830
100
AcDbEntity
  8
ASSI
100
AcDbEllipse
 62
7
  6
CONTINUOUS
 10
9.8749695344
 20
-20.0671446683
 30
0.0
 11
0.1848088818
 21
-0.0765503453
 31
0.0
 40
0.9998215708
 41
-0.3926359958
 42
0.3926359958
  0
ELLIPSE
  5
831
100
AcDbEntity
  8
ASSI
100
AcDbEllipse
 62
7
  6
CONTINUOUS
 10
9.2423886718
 20
-20.6997255308
 30
0.0
 11
0.0936819326
 21
0.17709969
 31
0.0
 40
0.9982470613
 41
-2.6557566863
 42
-1.8701277145
  0
ELLIPSE
  5
832
100
AcDbEntity
  8
ASSI
100
AcDbEllipse
 62
7
  6
CONTINUOUS
 10
-9.9749957691
 20
-23.4113248654
 30
0.0
 11
-0.0029088041
 21
0.2886641433
 31
0.0
 40
0.8660144118
 41
-0.0087264124
 42
1.5591610446
  0
ELLIPSE
  5
833
100
AcDbEntity
  8
ASSI
100
AcDbEllipse
 62
7
  6
CONTINUOUS
 10
-8.0750042309
 20
-23.4113248654
 30
0.0
 11
0.0029088041
 21
0.2886641433
 31
0.0
 40
0.8660144118
 41
-1.5591610446
 42
0.0087264124
  0
ELLIPSE
  5
834
100
AcDbEntity
  8
ASSI
100
AcDbEllipse
 62
7
  6
CONTINUOUS
 10
9.2423886718
 20
20.6997255308
 30
0.0
 11
-0.0936819326
 21
0.17709969
 31
0.0
 40
0.9982470613
 41
-1.2714649391
 42
-0.4858359672
  0
ELLIPSE
  5
835
100
AcDbEntity
  8
ASSI
100
AcDbEllipse
 62
7
  6
CONTINUOUS
 10
9.8749695344
 20
20.0671446683
 30
0.0
 11
0.1848088818
 21
0.0765503453
 31
0.0
 40
0.9998215708
 41
-0.3926359958
 42
0.3926359958
  0
ELLIPSE
  5
836
100
AcDbEntity
  8
ASSI
100
AcDbEllipse
 62
7
  6
CONTINUOUS
 10
-8.3923886718
 20
20.6997255308
 30
0.0
 11
0.0936819326
 21
0.17709969
 31
0.0
 40
0.9982470613
 41
0.4858359672
 42
1.2714649391
  0
ELLIPSE
  5
837
100
AcDbEntity
  8
ASSI
100
AcDbEllipse
 62
7
  6
CONTINUOUS
 10
-9.0249695344
 20
20.0671446683
 30
0.0
 11
0.1848088818
 21
-0.0765503453
 31
0.0
 40
0.9998215708
 41
2.7489566578
 42
3.5342286494
  0
ELLIPSE
  5
838
100
AcDbEntity
  8
ASSI
100
AcDbEllipse
 62
7
  6
CONTINUOUS
 10
-8.3923886718
 20
-20.6997255308
 30
0.0
 11
-0.0936819326
 21
0.17709969
 31
0.0
 40
0.9982470613
 41
-4.4130575927
 42
-3.6274286208
  0
ELLIPSE
  5
839
100
AcDbEntity
  8
ASSI
100
AcDbEllipse
 62
7
  6
CONTINUOUS
 10
-9.0249695344
 20
-20.0671446683
 30
0.0
 11
0.1848088818
 21
0.0765503453
 31
0.0
 40
0.9998215708
 41
2.7489566578
 42
3.5342286494
  0
ELLIPSE
  5
83A
100
AcDbEntity
  8
ASSI
100
AcDbEllipse
 62
7
  6
CONTINUOUS
 10
4.7311801625
 20
1.9038198375
 30
0.0
 11
-0.7124986079
 21
0.7124986079
 31
0.0
 40
0.9924325091
 41
-2.8216083518
 42
-2.3599925885
  0
ELLIPSE
  5
83B
100
AcDbEntity
  8
ASSI
100
AcDbEllipse
 62
7
  6
CONTINUOUS
 10
4.7311801625
 20
7.4961801625
 30
0.0
 11
0.7124986079
 21
0.7124986079
 31
0.0
 40
0.9924325091
 41
0.3311531227
 42
0.7816000651
  0
ELLIPSE
  5
83C
100
AcDbEntity
  8
ASSI
100
AcDbEllipse
 62
7
  6
CONTINUOUS
 10
8.9250042309
 20
-23.4113248654
 30
0.0
 11
-0.0029088041
 21
0.2886641433
 31
0.0
 40
0.8660144118
 41
-0.0087264124
 42
1.5591610446
  0
ELLIPSE
  5
83D
100
AcDbEntity
  8
ASSI
100
AcDbEllipse
 62
7
  6
CONTINUOUS
 10
10.8249957691
 20
-23.4113248654
 30
0.0
 11
0.0029088041
 21
0.2886641433
 31
0.0
 40
0.8660144118
 41
-1.5591610446
 42
0.0087264124
  0
ELLIPSE
  5
83E
100
AcDbEntity
  8
ASSI
100
AcDbEllipse
 62
7
  6
CONTINUOUS
 10
-14.2257616402
 20
11.8731508623
 30
0.0
 11
4.9817380396
 21
-0.4358456031
 31
0.0
 40
0.9998465296
 41
6.3252086398
 42
6.3704384448
  0
ELLIPSE
  5
83F
100
AcDbEntity
  8
ASSI
100
AcDbEllipse
 62
7
  6
CONTINUOUS
 10
4.3529699877
 20
-22.3339198952
 30
0.0
 11
0.4279699877
 21
0.0
 31
0.0
 40
0.0087268678
 41
0.0058177642
 42
3.1415926536
  0
ELLIPSE
  5
840
100
AcDbEntity
  8
ASSI
100
AcDbEllipse
 62
7
  6
CONTINUOUS
 10
-3.5029699877
 20
-22.3339198952
 30
0.0
 11
0.4279699877
 21
0.0
 31
0.0
 40
0.0087268678
 41
0.0
 42
3.1357748894
  0
ELLIPSE
  5
841
100
AcDbEntity
  8
ASSI
100
AcDbEllipse
 62
7
  6
CONTINUOUS
 10
4.7813662764
 20
-23.2563578147
 30
0.0
 11
0.0
 21
0.5
 31
0.0
 40
0.0058178298
 41
-3.2911896616
 42
-3.1474104178
  0
ELLIPSE
  5
842
100
AcDbEntity
  8
ASSI
100
AcDbEllipse
 62
7
  6
CONTINUOUS
 10
4.3529699877
 20
22.3339198952
 30
0.0
 11
0.4279699877
 21
0.0
 31
0.0
 40
0.0087268678
 41
3.1415926536
 42
6.277367543
  0
ELLIPSE
  5
843
100
AcDbEntity
  8
ASSI
100
AcDbEllipse
 62
7
  6
CONTINUOUS
 10
-8.0750042309
 20
23.4113248654
 30
0.0
 11
-0.0029088041
 21
0.2886641433
 31
0.0
 40
0.8660144118
 41
-3.150319066
 42
-1.582431609
  0
ELLIPSE
  5
844
100
AcDbEntity
  8
ASSI
100
AcDbEllipse
 62
7
  6
CONTINUOUS
 10
-9.9749957691
 20
23.4113248654
 30
0.0
 11
0.0029088041
 21
0.2886641433
 31
0.0
 40
0.8660144118
 41
-4.7007536982
 42
-3.1328662412
  0
ELLIPSE
  5
845
100
AcDbEntity
  8
ASSI
100
AcDbEllipse
 62
7
  6
CONTINUOUS
 10
-3.5029699877
 20
22.3339198952
 30
0.0
 11
0.4279699877
 21
0.0
 31
0.0
 40
0.0087268678
 41
-3.1357748894
 42
0.0
  0
ELLIPSE
  5
846
100
AcDbEntity
  8
ASSI
100
AcDbEllipse
 62
7
  6
CONTINUOUS
 10
-3.9313662764
 20
-23.2563578147
 30
0.0
 11
0.0
 21
0.5
 31
0.0
 40
0.0058178298
 41
-3.1357748894
 42
-2.9919956456
  0
ELLIPSE
  5
847
100
AcDbEntity
  8
ASSI
100
AcDbEllipse
 62
7
  6
CONTINUOUS
 10
10.8249957691
 20
23.4113248654
 30
0.0
 11
-0.0029088041
 21
0.2886641433
 31
0.0
 40
0.8660144118
 41
-3.150319066
 42
-1.582431609
  0
ELLIPSE
  5
848
100
AcDbEntity
  8
ASSI
100
AcDbEllipse
 62
7
  6
CONTINUOUS
 10
4.6261937662
 20
2.0088062338
 30
0.0
 11
0.7124986079
 21
-0.7124986079
 31
0.0
 40
0.9924325091
 41
0.1986785235
 42
0.7816000651
  0
ELLIPSE
  5
849
100
AcDbEntity
  8
ASSI
100
AcDbEllipse
 62
7
  6
CONTINUOUS
 10
8.9250042309
 20
23.4113248654
 30
0.0
 11
0.0029088041
 21
0.2886641433
 31
0.0
 40
0.8660144118
 41
-4.7007536982
 42
-3.1328662411
  0
ELLIPSE
  5
84A
100
AcDbEntity
  8
ASSI
100
AcDbEllipse
 62
7
  6
CONTINUOUS
 10
4.6261937662
 20
7.3911937662
 30
0.0
 11
0.7124986079
 21
0.7124986079
 31
0.0
 40
0.9924325091
 41
0.2106612933
 42
0.7816000651
  0
ELLIPSE
  5
84B
100
AcDbEntity
  8
ASSI
100
AcDbEllipse
 62
7
  6
CONTINUOUS
 10
-14.2257616402
 20
-2.4731508623
 30
0.0
 11
-4.9817380396
 21
-0.4358456031
 31
0.0
 40
0.9998465296
 41
3.0543395159
 42
3.2094440549
  0
ELLIPSE
  5
84C
100
AcDbEntity
  8
ASSI
100
AcDbEllipse
 62
7
  6
CONTINUOUS
 10
-9.1697391171
 20
7.5
 30
0.0
 11
-0.0
 21
2.1
 31
0.0
 40
0.0087268678
 41
0.0
 42
1.1294349931
  0
ELLIPSE
  5
84D
100
AcDbEntity
  8
ASSI
100
AcDbEllipse
 62
7
  6
CONTINUOUS
 10
-9.1701754605
 20
12.5
 30
0.0
 11
0.0
 21
2.1
 31
0.0
 40
0.0087268678
 41
-4.2712583897
 42
-3.1415926536
  0
ELLIPSE
  5
84E
100
AcDbEntity
  8
ASSI
100
AcDbEllipse
 62
7
  6
CONTINUOUS
 10
-9.1701754605
 20
12.5
 30
0.0
 11
-0.0
 21
2.1
 31
0.0
 40
0.0087268678
 41
-0.0
 42
1.1296657361
  0
ELLIPSE
  5
84F
100
AcDbEntity
  8
ASSI
100
AcDbEllipse
 62
7
  6
CONTINUOUS
 10
-9.1697391171
 20
7.5
 30
0.0
 11
-0.0
 21
2.1
 31
0.0
 40
0.0087268678
 41
-4.2710276467
 42
-3.1415926536
  0
ELLIPSE
  5
850
100
AcDbEntity
  8
ASSI
100
AcDbEllipse
 62
7
  6
CONTINUOUS
 10
9.5746953439
 20
-17.6714466826
 30
0.0
 11
1.8480888181
 21
-0.7655034529
 31
0.0
 40
0.9998215708
 41
-0.3926359958
 42
0.3926359958
  0
ELLIPSE
  5
851
100
AcDbEntity
  8
ASSI
100
AcDbEllipse
 62
7
  6
CONTINUOUS
 10
9.5746953439
 20
17.6714466826
 30
0.0
 11
1.8480888181
 21
0.7655034529
 31
0.0
 40
0.9998215708
 41
-0.3926359958
 42
0.3926359958
  0
ELLIPSE
  5
852
100
AcDbEntity
  8
ASSI
100
AcDbEllipse
 62
7
  6
CONTINUOUS
 10
-8.7246953439
 20
17.6714466826
 30
0.0
 11
1.8480888181
 21
-0.7655034529
 31
0.0
 40
0.9998215708
 41
2.7489566578
 42
3.5342286494
  0
ELLIPSE
  5
853
100
AcDbEntity
  8
ASSI
100
AcDbEllipse
 62
7
  6
CONTINUOUS
 10
-8.7246953439
 20
-17.6714466826
 30
0.0
 11
1.8480888181
 21
0.7655034529
 31
0.0
 40
0.9998215708
 41
2.7489566578
 42
3.5342286494
  0
ELLIPSE
  5
854
100
AcDbEntity
  8
ASSI
100
AcDbEllipse
 62
7
  6
CONTINUOUS
 10
10.1767653695
 20
-12.5
 30
0.0
 11
0.0
 21
0.7565737096
 31
0.0
 40
0.0087268678
 41
-3.1328660073
 42
-0.0087266463
  0
ELLIPSE
  5
855
100
AcDbEntity
  8
ASSI
100
AcDbEllipse
 62
7
  6
CONTINUOUS
 10
10.1767653695
 20
-7.5
 30
0.0
 11
0.0
 21
0.7565737096
 31
0.0
 40
0.0087268678
 41
-3.1328660073
 42
-0.0087266463
  0
ELLIPSE
  5
856
100
AcDbEntity
  8
ASSI
100
AcDbEllipse
 62
7
  6
CONTINUOUS
 10
10.1767653695
 20
-2.5
 30
0.0
 11
0.0
 21
0.7565737096
 31
0.0
 40
0.0087268678
 41
-3.1328660073
 42
-0.0087266463
  0
ELLIPSE
  5
857
100
AcDbEntity
  8
ASSI
100
AcDbEllipse
 62
7
  6
CONTINUOUS
 10
10.1767653695
 20
2.5
 30
0.0
 11
0.0
 21
0.7565737096
 31
0.0
 40
0.0087268678
 41
-3.1328660073
 42
-0.0087266463
  0
ELLIPSE
  5
858
100
AcDbEntity
  8
ASSI
100
AcDbEllipse
 62
7
  6
CONTINUOUS
 10
10.1767653695
 20
7.5
 30
0.0
 11
0.0
 21
0.7565737096
 31
0.0
 40
0.0087268678
 41
-3.1328660073
 42
-0.0087266463
  0
ELLIPSE
  5
859
100
AcDbEntity
  8
ASSI
100
AcDbEllipse
 62
7
  6
CONTINUOUS
 10
10.1767653695
 20
12.5
 30
0.0
 11
0.0
 21
0.7565737096
 31
0.0
 40
0.0087268678
 41
-3.1328660073
 42
-0.0087266463
  0
ELLIPSE
  5
85A
100
AcDbEntity
  8
ASSI
100
AcDbEllipse
 62
7
  6
CONTINUOUS
 10
-9.3267653695
 20
12.5
 30
0.0
 11
0.0
 21
0.7565737096
 31
0.0
 40
0.0087268678
 41
0.0087266463
 42
3.1328660073
  0
ELLIPSE
  5
85B
100
AcDbEntity
  8
ASSI
100
AcDbEllipse
 62
7
  6
CONTINUOUS
 10
-9.3267653695
 20
7.5
 30
0.0
 11
0.0
 21
0.7565737096
 31
0.0
 40
0.0087268678
 41
0.0087266463
 42
3.1328660073
  0
ELLIPSE
  5
85C
100
AcDbEntity
  8
ASSI
100
AcDbEllipse
 62
7
  6
CONTINUOUS
 10
-9.3267653695
 20
2.5
 30
0.0
 11
0.0
 21
0.7565737096
 31
0.0
 40
0.0087268678
 41
0.0087266463
 42
3.1328660073
  0
ELLIPSE
  5
85D
100
AcDbEntity
  8
ASSI
100
AcDbEllipse
 62
7
  6
CONTINUOUS
 10
-9.3267653695
 20
-2.5
 30
0.0
 11
0.0
 21
0.7565737096
 31
0.0
 40
0.0087268678
 41
0.0087266463
 42
3.1328660073
  0
ELLIPSE
  5
85E
100
AcDbEntity
  8
ASSI
100
AcDbEllipse
 62
7
  6
CONTINUOUS
 10
-9.3267653695
 20
-7.5
 30
0.0
 11
0.0
 21
0.7565737096
 31
0.0
 40
0.0087268678
 41
0.0087266463
 42
3.1328660073
  0
ELLIPSE
  5
85F
100
AcDbEntity
  8
ASSI
100
AcDbEllipse
 62
7
  6
CONTINUOUS
 10
-9.3267653695
 20
-12.5
 30
0.0
 11
0.0
 21
0.7565737096
 31
0.0
 40
0.0087268678
 41
0.0087266463
 42
3.1328660073
  0
ELLIPSE
  5
860
100
AcDbEntity
  8
ASSI
100
AcDbEllipse
 62
7
  6
CONTINUOUS
 10
-7.575
 20
17.9017653695
 30
0.0
 11
0.7565737096
 21
-0.0
 31
0.0
 40
0.0087268678
 41
0.0087266463
 42
3.1328660073
  0
ELLIPSE
  5
861
100
AcDbEntity
  8
ASSI
100
AcDbEllipse
 62
7
  6
CONTINUOUS
 10
-2.575
 20
17.9017653695
 30
0.0
 11
0.7565737096
 21
0.0
 31
0.0
 40
0.0087268678
 41
0.0087266463
 42
3.1328660073
  0
ELLIPSE
  5
862
100
AcDbEntity
  8
ASSI
100
AcDbEllipse
 62
7
  6
CONTINUOUS
 10
2.425
 20
17.9017653695
 30
0.0
 11
0.7565737096
 21
0.0
 31
0.0
 40
0.0087268678
 41
0.0087266463
 42
3.1328660073
  0
ELLIPSE
  5
863
100
AcDbEntity
  8
ASSI
100
AcDbEllipse
 62
7
  6
CONTINUOUS
 10
2.425
 20
-17.9017653695
 30
0.0
 11
0.7565737096
 21
-0.0
 31
0.0
 40
0.0087268678
 41
-3.1328660073
 42
-0.0087266463
  0
ELLIPSE
  5
864
100
AcDbEntity
  8
ASSI
100
AcDbEllipse
 62
7
  6
CONTINUOUS
 10
-2.575
 20
-17.9017653695
 30
0.0
 11
0.7565737096
 21
-0.0
 31
0.0
 40
0.0087268678
 41
-3.1328660073
 42
-0.0087266463
  0
ELLIPSE
  5
865
100
AcDbEntity
  8
ASSI
100
AcDbEllipse
 62
7
  6
CONTINUOUS
 10
-7.575
 20
-17.9017653695
 30
0.0
 11
0.7565737096
 21
0.0
 31
0.0
 40
0.0087268678
 41
-3.1328660073
 42
-0.0087266463
  0
ELLIPSE
  5
866
100
AcDbEntity
  8
ASSI
100
AcDbEllipse
 62
7
  6
CONTINUOUS
 10
-8.7649090366
 20
18.1569951527
 30
0.0
 11
0.3827517265
 21
-0.924044409
 31
0.0
 40
0.9998215708
 41
2.7489566578
 42
3.5342286494
  0
ELLIPSE
  5
867
100
AcDbEntity
  8
ASSI
100
AcDbEllipse
 62
7
  6
CONTINUOUS
 10
-8.7649090366
 20
-18.1569951527
 30
0.0
 11
-0.3827517265
 21
-0.924044409
 31
0.0
 40
0.9998215708
 41
-0.3926359958
 42
0.3926359958
  0
ELLIPSE
  5
868
100
AcDbEntity
  8
ASSI
100
AcDbEllipse
 62
7
  6
CONTINUOUS
 10
9.6149090366
 20
18.1569951527
 30
0.0
 11
0.3827517265
 21
0.924044409
 31
0.0
 40
0.9998215708
 41
-0.3926359958
 42
0.3926359958
  0
ELLIPSE
  5
869
100
AcDbEntity
  8
ASSI
100
AcDbEllipse
 62
7
  6
CONTINUOUS
 10
-10.2144393508
 20
7.5
 30
0.0
 11
-0.0
 21
2.1
 31
0.0
 40
0.0174550649
 41
-4.2710276467
 42
-3.1415926536
  0
ELLIPSE
  5
86A
100
AcDbEntity
  8
ASSI
100
AcDbEllipse
 62
7
  6
CONTINUOUS
 10
-1.1731173983
 20
19.8982544935
 30
0.0
 11
0.9
 21
-0.0
 31
0.0
 40
0.0174550649
 41
-3.1241393611
 42
-1.5707963268
  0
ELLIPSE
  5
86B
100
AcDbEntity
  8
ASSI
100
AcDbEllipse
 62
7
  6
CONTINUOUS
 10
2.0231173983
 20
19.8982544935
 30
0.0
 11
0.9
 21
0.0
 31
0.0
 40
0.0174550649
 41
-1.5707963268
 42
-0.0174532925
  0
ELLIPSE
  5
86C
100
AcDbEntity
  8
ASSI
100
AcDbEllipse
 62
7
  6
CONTINUOUS
 10
-10.2153121041
 20
12.5
 30
0.0
 11
0.0
 21
2.1
 31
0.0
 40
0.0174550649
 41
-0.0
 42
1.1296657361
  0
ELLIPSE
  5
86D
100
AcDbEntity
  8
ASSI
100
AcDbEllipse
 62
7
  6
CONTINUOUS
 10
-10.2153121041
 20
12.5
 30
0.0
 11
0.0
 21
2.1
 31
0.0
 40
0.0174550649
 41
-4.2712583897
 42
-3.1415926536
  0
ELLIPSE
  5
86E
100
AcDbEntity
  8
ASSI
100
AcDbEllipse
 62
7
  6
CONTINUOUS
 10
-1.1731173983
 20
-19.8982544935
 30
0.0
 11
0.9
 21
0.0
 31
0.0
 40
0.0174550649
 41
1.5707963268
 42
3.1241393611
  0
ELLIPSE
  5
86F
100
AcDbEntity
  8
ASSI
100
AcDbEllipse
 62
7
  6
CONTINUOUS
 10
2.0231173983
 20
-19.8982544935
 30
0.0
 11
0.9
 21
-0.0
 31
0.0
 40
0.0174550649
 41
0.0174532925
 42
1.5707963268
  0
ELLIPSE
  5
870
100
AcDbEntity
  8
ASSI
100
AcDbEllipse
 62
7
  6
CONTINUOUS
 10
-10.2144393508
 20
7.5
 30
0.0
 11
-0.0
 21
2.1
 31
0.0
 40
0.0174550649
 41
0.0
 42
1.1294349931
  0
ELLIPSE
  5
871
100
AcDbEntity
  8
ASSI
100
AcDbEllipse
 62
7
  6
CONTINUOUS
 10
8.9463130065
 20
-17.4111621961
 30
0.0
 11
1.8480888181
 21
-0.7655034529
 31
0.0
 40
0.9998215708
 41
-0.3926359958
 42
0.3926359958
  0
ELLIPSE
  5
872
100
AcDbEntity
  8
ASSI
100
AcDbEllipse
 62
7
  6
CONTINUOUS
 10
8.9463130065
 20
17.4111621961
 30
0.0
 11
-1.8480888181
 21
-0.7655034529
 31
0.0
 40
0.9998215708
 41
2.7489566578
 42
3.5342286494
  0
ELLIPSE
  5
873
100
AcDbEntity
  8
ASSI
100
AcDbEllipse
 62
7
  6
CONTINUOUS
 10
-8.0963130065
 20
17.4111621961
 30
0.0
 11
-1.8480888181
 21
0.7655034529
 31
0.0
 40
0.9998215708
 41
-0.3926359958
 42
0.3926359958
  0
ELLIPSE
  5
874
100
AcDbEntity
  8
ASSI
100
AcDbEllipse
 62
7
  6
CONTINUOUS
 10
-8.0963130065
 20
-17.4111621961
 30
0.0
 11
1.8480888181
 21
0.7655034529
 31
0.0
 40
0.9998215708
 41
2.7489566578
 42
3.5342286494
  0
ELLIPSE
  5
875
100
AcDbEntity
  8
ASSI
100
AcDbEllipse
 62
7
  6
CONTINUOUS
 10
-8.9528922769
 20
-18.6108268408
 30
0.0
 11
0.3827517265
 21
0.924044409
 31
0.0
 40
0.9998215708
 41
-3.5342286494
 42
-2.7489566578
  0
ELLIPSE
  5
876
100
AcDbEntity
  8
ASSI
100
AcDbEllipse
 62
7
  6
CONTINUOUS
 10
9.8028922769
 20
-18.6108268408
 30
0.0
 11
-0.3827517265
 21
0.924044409
 31
0.0
 40
0.9998215708
 41
-3.5342286494
 42
-2.7489566578
  0
ELLIPSE
  5
877
100
AcDbEntity
  8
ASSI
100
AcDbEllipse
 62
7
  6
CONTINUOUS
 10
9.8028922769
 20
18.6108268408
 30
0.0
 11
0.3827517265
 21
0.924044409
 31
0.0
 40
0.9998215708
 41
-0.3926359958
 42
0.3926359958
  0
ELLIPSE
  5
878
100
AcDbEntity
  8
ASSI
100
AcDbEllipse
 62
7
  6
CONTINUOUS
 10
-8.9528922769
 20
18.6108268408
 30
0.0
 11
-0.3827517265
 21
0.924044409
 31
0.0
 40
0.9998215708
 41
-0.3926359958
 42
0.3926359958
  0
ELLIPSE
  5
879
100
AcDbEntity
  8
ASSI
100
AcDbEllipse
 62
7
  6
CONTINUOUS
 10
11.378515775
 20
-12.5
 30
0.0
 11
-0.0
 21
0.7565737096
 31
0.0
 40
0.0174550649
 41
-3.1328660073
 42
-0.0087266463
  0
ELLIPSE
  5
87A
100
AcDbEntity
  8
ASSI
100
AcDbEllipse
 62
7
  6
CONTINUOUS
 10
9.6149090366
 20
-18.1569951527
 30
0.0
 11
-0.3827517265
 21
0.924044409
 31
0.0
 40
0.9998215708
 41
2.7489566578
 42
3.5342286494
  0
ELLIPSE
  5
87B
100
AcDbEntity
  8
ASSI
100
AcDbEllipse
 62
7
  6
CONTINUOUS
 10
11.378515775
 20
-7.5
 30
0.0
 11
0.0
 21
0.7565737096
 31
0.0
 40
0.0174550649
 41
-3.1328660073
 42
-0.0087266463
  0
ELLIPSE
  5
87C
100
AcDbEntity
  8
ASSI
100
AcDbEllipse
 62
7
  6
CONTINUOUS
 10
11.378515775
 20
-2.5
 30
0.0
 11
0.0
 21
0.7565737096
 31
0.0
 40
0.0174550649
 41
-3.1328660073
 42
-0.0087266463
  0
ELLIPSE
  5
87D
100
AcDbEntity
  8
ASSI
100
AcDbEllipse
 62
7
  6
CONTINUOUS
 10
11.378515775
 20
2.5
 30
0.0
 11
0.0
 21
0.7565737096
 31
0.0
 40
0.0174550649
 41
-3.1328660073
 42
-0.0087266463
  0
ELLIPSE
  5
87E
100
AcDbEntity
  8
ASSI
100
AcDbEllipse
 62
7
  6
CONTINUOUS
 10
11.378515775
 20
7.5
 30
0.0
 11
-0.0
 21
0.7565737096
 31
0.0
 40
0.0174550649
 41
-3.1328660073
 42
-0.0087266463
  0
ELLIPSE
  5
87F
100
AcDbEntity
  8
ASSI
100
AcDbEllipse
 62
7
  6
CONTINUOUS
 10
11.378515775
 20
12.5
 30
0.0
 11
0.0
 21
0.7565737096
 31
0.0
 40
0.0174550649
 41
-3.1328660073
 42
-0.0087266463
  0
ELLIPSE
  5
880
100
AcDbEntity
  8
ASSI
100
AcDbEllipse
 62
7
  6
CONTINUOUS
 10
-10.528515775
 20
12.5
 30
0.0
 11
-0.0
 21
0.7565737096
 31
0.0
 40
0.0174550649
 41
0.0087266463
 42
3.1328660073
  0
ELLIPSE
  5
881
100
AcDbEntity
  8
ASSI
100
AcDbEllipse
 62
7
  6
CONTINUOUS
 10
-10.528515775
 20
7.5
 30
0.0
 11
-0.0
 21
0.7565737096
 31
0.0
 40
0.0174550649
 41
0.0087266463
 42
3.1328660073
  0
ELLIPSE
  5
882
100
AcDbEntity
  8
ASSI
100
AcDbEllipse
 62
7
  6
CONTINUOUS
 10
-10.528515775
 20
2.5
 30
0.0
 11
0.0
 21
0.7565737096
 31
0.0
 40
0.0174550649
 41
0.0087266463
 42
3.1328660073
  0
ELLIPSE
  5
883
100
AcDbEntity
  8
ASSI
100
AcDbEllipse
 62
7
  6
CONTINUOUS
 10
-10.528515775
 20
-2.5
 30
0.0
 11
-0.0
 21
0.7565737096
 31
0.0
 40
0.0174550649
 41
0.0087266463
 42
3.1328660073
  0
ELLIPSE
  5
884
100
AcDbEntity
  8
ASSI
100
AcDbEllipse
 62
7
  6
CONTINUOUS
 10
-10.528515775
 20
-7.5
 30
0.0
 11
0.0
 21
0.7565737096
 31
0.0
 40
0.0174550649
 41
0.0087266463
 42
3.1328660073
  0
ELLIPSE
  5
885
100
AcDbEntity
  8
ASSI
100
AcDbEllipse
 62
7
  6
CONTINUOUS
 10
-10.528515775
 20
-12.5
 30
0.0
 11
0.0
 21
0.7565737096
 31
0.0
 40
0.0174550649
 41
0.0087266463
 42
3.1328660073
  0
ELLIPSE
  5
886
100
AcDbEntity
  8
ASSI
100
AcDbEllipse
 62
7
  6
CONTINUOUS
 10
-7.575
 20
19.5890455932
 30
0.0
 11
0.7565737096
 21
-0.0
 31
0.0
 40
0.0174550649
 41
0.0087266463
 42
3.1328660073
  0
ELLIPSE
  5
887
100
AcDbEntity
  8
ASSI
100
AcDbEllipse
 62
7
  6
CONTINUOUS
 10
-2.575
 20
19.5890455932
 30
0.0
 11
0.7565737096
 21
-0.0
 31
0.0
 40
0.0174550649
 41
0.0087266463
 42
3.1328660073
  0
ELLIPSE
  5
888
100
AcDbEntity
  8
ASSI
100
AcDbEllipse
 62
7
  6
CONTINUOUS
 10
2.425
 20
19.5890455932
 30
0.0
 11
0.7565737096
 21
-0.0
 31
0.0
 40
0.0174550649
 41
0.0087266463
 42
3.1328660073
  0
ELLIPSE
  5
889
100
AcDbEntity
  8
ASSI
100
AcDbEllipse
 62
7
  6
CONTINUOUS
 10
2.425
 20
-19.5890455932
 30
0.0
 11
0.7565737096
 21
-0.0
 31
0.0
 40
0.0174550649
 41
-3.1328660073
 42
-0.0087266463
  0
ELLIPSE
  5
88A
100
AcDbEntity
  8
ASSI
100
AcDbEllipse
 62
7
  6
CONTINUOUS
 10
-2.575
 20
-19.5890455932
 30
0.0
 11
0.7565737096
 21
-0.0
 31
0.0
 40
0.0174550649
 41
-3.1328660073
 42
-0.0087266463
  0
ELLIPSE
  5
88B
100
AcDbEntity
  8
ASSI
100
AcDbEllipse
 62
7
  6
CONTINUOUS
 10
-7.575
 20
-19.5890455932
 30
0.0
 11
0.7565737096
 21
-0.0
 31
0.0
 40
0.0174550649
 41
-3.1328660073
 42
-0.0087266463
  0
ENDSEC
  0
SECTION
  2
OBJECTS
  0
DICTIONARY
  5
C
100
AcDbDictionary
280
0
281
1
  3
ACAD_GROUP
350
D
  3
ACAD_MLINESTYLE
350
17
  3
ACAD_LAYOUT
350
1A
  3
ACAD_PLOTSETTINGS
350
19
  3
ACAD_PLOTSTYLENAME
350
E
  0
DICTIONARY
  5
D
102
{ACAD_REACTORS
330
C
102
}
100
AcDbDictionary
280
0
281
1
  0
ACDBDICTIONARYWDFLT
  5
E
102
{ACAD_REACTORS
330
C
102
}
100
AcDbDictionary
281
1
  3
Normal
350
F
100
AcDbDictionaryWithDefault
340
F
  0
DICTIONARY
  5
17
102
{ACAD_REACTORS
330
C
102
}
100
AcDbDictionary
280
0
281
1
  3
Standard
350
18
  0
DICTIONARY
  5
19
102
{ACAD_REACTORS
330
C
102
}
100
AcDbDictionary
281
1
  0
DICTIONARY
  5
1A
102
{ACAD_REACTORS
330
C
102
}
100
AcDbDictionary
281
1
  3
Model
350
88C
  3
Layout1
350
88D
  0
ACDBPLACEHOLDER
  5
F
102
{ACAD_REACTORS
330
E
102
}
  0
MLINESTYLE
  5
18
102
{ACAD_REACTORS
330
17
102
}
100
AcDbMlineStyle
  2
STANDARD
 70
0
  3

 62
256
 51
90.0
 52
90.0
 71
2
 49
0.5
 62
256
  6
BYLAYER
 49
-0.5
 62
256
  6
BYLAYER
  0
LAYOUT
  5
88C
102
{ACAD_REACTORS
330
1A
102
}
100
AcDbPlotSettings
  1

  2
none_device
  4

  6

 40
0.0
 41
0.0
 42
0.0
 43
0.0
 44
210.0
 45
297.0
 46
0.0
 47
0.0
 48
0.0
 49
0.0
140
0.0
141
0.0
142
1.0
143
1.0
 70
1024
 72
1
 73
0
 74
0
  7

 75
0
147
1.0
148
0.0
149
0.0
100
AcDbLayout
  1
Model
 70
0
 71
0
 10
0.0
 20
0.0
 11
210.0
 21
297.0
 12
0.0
 22
0.0
 32
0.0
 14
0.0
 24
0.0
 34
0.0
 15
0.0
 25
0.0
 35
0.0
146
0.0
 13
0.0
 23
0.0
 33
0.0
 16
1.0
 26
0.0
 36
0.0
 17
0.0
 27
1.0
 37
0.0
 76
0
330
304
345
0
346
0
  0
LAYOUT
  5
88D
102
{ACAD_REACTORS
330
1A
102
}
100
AcDbPlotSettings
  1

  2
none_device
  4

  6

 40
0.0
 41
0.0
 42
0.0
 43
0.0
 44
210.0
 45
297.0
 46
0.0
 47
0.0
 48
0.0
 49
0.0
140
0.0
141
0.0
142
1.0
143
1.0
 70
0
 72
1
 73
0
 74
0
  7

 75
0
147
1.0
148
0.0
149
0.0
100
AcDbLayout
  1
Layout1
 70
0
 71
1
 10
0.0
 20
0.0
 11
210.0
 21
297.0
 12
0.0
 22
0.0
 32
0.0
 14
0.0
 24
0.0
 34
0.0
 15
0.0
 25
0.0
 35
0.0
146
0.0
 13
0.0
 23
0.0
 33
0.0
 16
1.0
 26
0.0
 36
0.0
 17
0.0
 27
1.0
 37
0.0
 76
0
330
305
345
0
346
0
  0
ENDSEC
  0
EOF
