  0
SECTION
  2
HEADER
  9
$ACADVER
  1
AC1015
  9
$DWGCODEPAGE
  3
ANSI_1252
  9
$EXTMAX
 10
297.0
 20
210.0
 30
0.0
  9
$EXTMIN
 10
0.0
 20
0.0
 30
0.0
  9
$LIMMIN
 10
0.0
 20
0.0
  9
$LIMMAX
 10
297.0
 20
210.0
  9
$VIEWCTR
 10
148.5
 20
105.0
  9
$VIEWSIZE
 40
210.0
  9
$CLAYER
  8
0
  9
$LTSCALE
 40
16.335
  9
$CELTYPE
  6
BYLAYER
  9
$DIMSCALE
 40
1.0
  9
$DIMASZ
 40
3.0
  9
$DIMEXO
 40
1.85625
  9
$DIMDLI
 40
11.286
  9
$DIMEXE
 40
5.346
  9
$DIMCEN
 40
2.673
  9
$DIMLFAC
 40
1.0
  9
$DIMBLK
  1
_FILLED
  9
$DIMTXT
 40
3.0
  9
$DIMTOL
 70
1
  9
$DIMLIM
 70
0
  9
$DIMTFAC
 40
1.0
  9
$DIMTP
 40
0.01
  9
$DIMTM
 40
0.01
  9
$PDMODE
 70
3
  9
$PDSIZE
 40
3.0
  9
$HANDSEED
  5
40C
  9
$TILEMODE
 70
1
  9
$MEASUREMENT
 70
1
  9
$INSUNITS
 70
4
  0
ENDSEC
  0
SECTION
  2
CLASSES
  0
CLASS
  1
ACDBDICTIONARYWDFLT
  2
AcDbDictionaryWithDefault
  3
AutoCAD 2000
 90
0
280
0
281
0
  0
CLASS
  1
ACDBPLACEHOLDER
  2
AcDbPlaceHolder
  3
AutoCAD 2000
 90
0
280
0
281
0
  0
CLASS
  1
LAYOUT
  2
AcDbLayout
  3
AutoCAD 2000
 90
0
280
0
281
0
  0
ENDSEC
  0
SECTION
  2
TABLES
  0
TABLE
  2
VPORT
  5
8
100
AcDbSymbolTable
 70
2
  0
VPORT
  5
1F4
100
AcDbSymbolTableRecord
100
AcDbViewportTableRecord
  2
*ACTIVE
 70
0
 10
0.0
 20
0.0
 11
1.0
 21
1.0
 12
148.5
 22
105.0
 13
0.0
 23
0.0
 14
1.0
 24
1.0
 15
0.0
 25
0.0
 16
0.0
 26
0.0
 36
1.0
 17
0.0
 27
0.0
 37
0.0
 40
210.0
 41
1.4142857143
 42
50.0
 43
0.0
 44
0.0
 50
0.0
 51
0.0
 71
0
 72
100
 73
1
 74
1
 75
0
 76
0
 77
0
 78
0
  0
ENDTAB
  0
TABLE
  2
LTYPE
  5
5
100
AcDbSymbolTable
 70
6
  0
LTYPE
  5
14
100
AcDbSymbolTableRecord
100
AcDbLinetypeTableRecord
  2
BYBLOCK
 70
0
  3

 72
65
 73
0
 40
0.0
  0
LTYPE
  5
15
100
AcDbSymbolTableRecord
100
AcDbLinetypeTableRecord
  2
BYLAYER
 70
0
  3

 72
65
 73
0
 40
0.0
  0
LTYPE
  5
16
100
AcDbSymbolTableRecord
100
AcDbLinetypeTableRecord
  2
CONTINUOUS
 70
64
  3
Solid line
 72
65
 73
0
 40
0.0
  0
LTYPE
  5
1F5
100
AcDbSymbolTableRecord
100
AcDbLinetypeTableRecord
  2
CENTER
 70
64
  3
____ _ ____ _ ____ _ ____ _ ____ _ ____ _ ____
 72
65
 73
4
 40
0.6
 49
0.375
 74
0
 49
-0.075
 74
0
 49
0.075
 74
0
 49
-0.075
 74
0
  0
LTYPE
  5
1F6
100
AcDbSymbolTableRecord
100
AcDbLinetypeTableRecord
  2
HIDDEN
 70
64
  3
- - - - - - - - - - - - - - - - - - - -
 72
65
 73
2
 40
0.2
 49
0.1
 74
0
 49
-0.1
 74
0
  0
LTYPE
  5
1F7
100
AcDbSymbolTableRecord
100
AcDbLinetypeTableRecord
  2
PHANTOM
 70
64
  3
_____ _ _ _____ _ _ _____ _ _ _____
 72
65
 73
6
 40
0.8
 49
0.45
 74
0
 49
-0.05
 74
0
 49
0.1
 74
0
 49
-0.05
 74
0
 49
0.1
 74
0
 49
-0.05
 74
0
  0
LTYPE
  5
1F8
100
AcDbSymbolTableRecord
100
AcDbLinetypeTableRecord
  2
DOT
 70
64
  3
. . . . . . . . . . . . . . . . . . . .
 72
65
 73
2
 40
0.2
 49
0.1
 74
0
 49
-0.1
 74
0
  0
LTYPE
  5
1F9
100
AcDbSymbolTableRecord
100
AcDbLinetypeTableRecord
  2
DASHED
 70
64
  3
- - - - - - - - - - - - - - - - - - - -
 72
65
 73
2
 40
0.2
 49
0.1
 74
0
 49
-0.1
 74
0
  0
ENDTAB
  0
TABLE
  2
LAYER
  5
2
100
AcDbSymbolTable
 70
36
  0
LAYER
  5
10
100
AcDbSymbolTableRecord
100
AcDbLayerTableRecord
  2
0
 70
0
 62
7
  6
CONTINUOUS
370
-3
390
F
  0
LAYER
  5
1FA
100
AcDbSymbolTableRecord
100
AcDbLayerTableRecord
  2
DEFAULT_1
 70
0
 62
7
  6
CENTER
370
-3
390
F
  0
LAYER
  5
1FB
100
AcDbSymbolTableRecord
100
AcDbLayerTableRecord
  2
DEFAULT_2
 70
0
 62
7
  6
HIDDEN
370
-3
390
F
  0
LAYER
  5
1FC
100
AcDbSymbolTableRecord
100
AcDbLayerTableRecord
  2
DEFAULT_3
 70
0
 62
7
  6
PHANTOM
370
-3
390
F
  0
LAYER
  5
1FD
100
AcDbSymbolTableRecord
100
AcDbLayerTableRecord
  2
ASSI
 70
0
 62
7
  6
CONTINUOUS
370
-3
390
F
  0
LAYER
  5
1FE
100
AcDbSymbolTableRecord
100
AcDbLayerTableRecord
  2
COORDINATE
 70
0
 62
7
  6
CONTINUOUS
370
-3
390
F
  0
LAYER
  5
1FF
100
AcDbSymbolTableRecord
100
AcDbLayerTableRecord
  2
COORD_ORIGINE
 70
0
 62
7
  6
CONTINUOUS
370
-3
390
F
  0
LAYER
  5
200
100
AcDbSymbolTableRecord
100
AcDbLayerTableRecord
  2
CURVE
 70
0
 62
7
  6
CONTINUOUS
370
-3
390
F
  0
LAYER
  5
201
100
AcDbSymbolTableRecord
100
AcDbLayerTableRecord
  2
DRAFT
 70
0
 62
7
  6
CONTINUOUS
370
-3
390
F
  0
LAYER
  5
202
100
AcDbSymbolTableRecord
100
AcDbLayerTableRecord
  2
IMPORT_INCISIONI
 70
0
 62
7
  6
CONTINUOUS
370
-3
390
F
  0
LAYER
  5
203
100
AcDbSymbolTableRecord
100
AcDbLayerTableRecord
  2
NOTE
 70
0
 62
7
  6
CONTINUOUS
370
-3
390
F
  0
LAYER
  5
204
100
AcDbSymbolTableRecord
100
AcDbLayerTableRecord
  2
PIANI
 70
0
 62
7
  6
CONTINUOUS
370
-3
390
F
  0
LAYER
  5
205
100
AcDbSymbolTableRecord
100
AcDbLayerTableRecord
  2
PIANI_ORIGINE
 70
0
 62
7
  6
CONTINUOUS
370
-3
390
F
  0
LAYER
  5
206
100
AcDbSymbolTableRecord
100
AcDbLayerTableRecord
  2
PIANI_RIFERIMENTO
 70
0
 62
7
  6
CONTINUOUS
370
-3
390
F
  0
LAYER
  5
207
100
AcDbSymbolTableRecord
100
AcDbLayerTableRecord
  2
PUNTI
 70
0
 62
7
  6
CONTINUOUS
370
-3
390
F
  0
LAYER
  5
208
100
AcDbSymbolTableRecord
100
AcDbLayerTableRecord
  2
RACCORDO
 70
0
 62
7
  6
CONTINUOUS
370
-3
390
F
  0
LAYER
  5
209
100
AcDbSymbolTableRecord
100
AcDbLayerTableRecord
  2
SMUSSO
 70
0
 62
7
  6
CONTINUOUS
370
-3
390
F
  0
LAYER
  5
20A
100
AcDbSymbolTableRecord
100
AcDbLayerTableRecord
  2
SNAPLINE
 70
0
 62
7
  6
CONTINUOUS
370
-3
390
F
  0
LAYER
  5
20B
100
AcDbSymbolTableRecord
100
AcDbLayerTableRecord
  2
SUPERFICI
 70
0
 62
7
  6
CONTINUOUS
370
-3
390
F
  0
LAYER
  5
20C
100
AcDbSymbolTableRecord
100
AcDbLayerTableRecord
  2
TRASH
 70
0
 62
7
  6
CONTINUOUS
370
-3
390
F
  0
LAYER
  5
20D
100
AcDbSymbolTableRecord
100
AcDbLayerTableRecord
  2
XSEC_DATUMS
 70
0
 62
7
  6
CONTINUOUS
370
-3
390
F
  0
ENDTAB
  0
TABLE
  2
STYLE
  5
3
100
AcDbSymbolTable
 70
1
  0
STYLE
  5
11
100
AcDbSymbolTableRecord
100
AcDbTextStyleTableRecord
  2
STANDARD
 70
0
 40
0.0
 41
0.8
 50
0.0
 71
0
 42
0.2
  3
txt
  4

  0
STYLE
  5
20E
100
AcDbSymbolTableRecord
100
AcDbTextStyleTableRecord
  2
TEXTSTYLE_1
 70
0
 40
0.0
 41
0.8
 50
0.0
 71
0
 42
0.2
  3
gdt
  4

  0
ENDTAB
  0
TABLE
  2
VIEW
  5
6
100
AcDbSymbolTable
 70
0
  0
ENDTAB
  0
TABLE
  2
UCS
  5
7
100
AcDbSymbolTable
 70
0
  0
ENDTAB
  0
TABLE
  2
APPID
  5
9
100
AcDbSymbolTable
 70
1
  0
APPID
  5
20F
100
AcDbSymbolTableRecord
100
AcDbRegAppTableRecord
  2
ACAD
 70
0
  0
ENDTAB
  0
TABLE
  2
BLOCK_RECORD
  5
1
100
AcDbSymbolTable
 70
0
  0
BLOCK_RECORD
  5
210
100
AcDbSymbolTableRecord
100
AcDbBlockTableRecord
  2
*Model_Space
  0
BLOCK_RECORD
  5
211
100
AcDbSymbolTableRecord
100
AcDbBlockTableRecord
  2
*Paper_Space
  0
ENDTAB
  0
TABLE
  2
DIMSTYLE
  5
A
100
AcDbSymbolTable
 70
1
100
AcDbDimStyleTable
 71
0
  0
DIMSTYLE
105
212
100
AcDbSymbolTableRecord
100
AcDbDimStyleTableRecord
  2
STANDARD
 70
0
  3

  4

 40
1.0
 41
3.0
 42
0.0625
 43
0.38
 44
0.18
 45
0.0
 46
0.0
 47
0.01
 48
0.01
140
3.0
141
0.09
142
0.0
143
25.4
144
1.0
145
0.0
146
1.0
147
0.09
 71
1.0
 72
0.0
 73
0
 74
0
 75
0
 76
0
 77
1
 78
8
170
0
171
2
172
0
173
0
174
0
175
0
176
0
177
0
178
0
270
2
271
2
272
2
273
2
274
2
275
0
280
0
281
0
282
0
283
1
284
8
285
0
286
0
287
3
288
0
340
11
  0
ENDTAB
  0
ENDSEC
  0
SECTION
  2
BLOCKS
  0
BLOCK
  5
20
100
AcDbEntity
  8
0
100
AcDbBlockBegin
  2
*Model_Space
 70
0
 10
0.0
 20
0.0
 30
0.0
  3
*Model_Space
  1

  0
ENDBLK
  5
21
100
AcDbEntity
  8
0
100
AcDbBlockEnd
  0
BLOCK
  5
1C
100
AcDbEntity
  8
0
100
AcDbBlockBegin
  2
*Paper_Space
 70
0
 10
0.0
 20
0.0
 30
0.0
  3
*Paper_Space
  1

  0
ENDBLK
  5
1D
100
AcDbEntity
  8
0
100
AcDbBlockEnd
  0
ENDSEC
  0
SECTION
  2
ENTITIES
  0
LINE
  5
213
100
AcDbEntity
  8
RACCORDO
100
AcDbLine
 62
253
  6
CONTINUOUS
 10
-10.6998629074
 20
22.3912731322
 11
-10.6824078424
 21
22.4
  0
LINE
  5
214
100
AcDbEntity
  8
RACCORDO
100
AcDbLine
 62
7
  6
CONTINUOUS
 10
-10.4000042308
 20
-24.5
 11
-8.4999957692
 21
-24.5
  0
LINE
  5
215
100
AcDbEntity
  8
RACCORDO
100
AcDbLine
 62
7
  6
CONTINUOUS
 10
8.4999957692
 20
-24.5
 11
10.4000042308
 21
-24.5
  0
LINE
  5
216
100
AcDbEntity
  8
RACCORDO
100
AcDbLine
 62
253
  6
CONTINUOUS
 10
-10.3956323968
 20
-24.495628166
 11
-8.5043676032
 21
-24.495628166
  0
LINE
  5
217
100
AcDbEntity
  8
RACCORDO
100
AcDbLine
 62
253
  6
CONTINUOUS
 10
8.5043676032
 20
-24.495628166
 11
10.3956323968
 21
-24.495628166
  0
LINE
  5
218
100
AcDbEntity
  8
RACCORDO
100
AcDbLine
 62
253
  6
CONTINUOUS
 10
8.254371834
 20
-24.2456323968
 11
10.645628166
 21
-24.2456323968
  0
LINE
  5
219
100
AcDbEntity
  8
RACCORDO
100
AcDbLine
 62
253
  6
CONTINUOUS
 10
-8.254371834
 20
-24.2456323968
 11
-10.645628166
 21
-24.2456323968
  0
LINE
  5
21A
100
AcDbEntity
  8
RACCORDO
100
AcDbLine
 62
253
  6
CONTINUOUS
 10
-8.254371834
 20
-23.8443375673
 11
-10.645628166
 21
-23.8443375673
  0
LINE
  5
21B
100
AcDbEntity
  8
DRAFT
100
AcDbLine
 62
7
  6
CONTINUOUS
 10
-4.4
 20
-23.8
 11
4.4
 21
-23.8
  0
LINE
  5
21C
100
AcDbEntity
  8
DRAFT
100
AcDbLine
 62
7
  6
CONTINUOUS
 10
-3.5
 20
-23.7941821702
 11
3.5
 21
-23.7941821702
  0
LINE
  5
21D
100
AcDbEntity
  8
ASSI
100
AcDbLine
 62
253
  6
CONTINUOUS
 10
-4.3563493531
 20
-23.7563493531
 11
-3.5
 21
-23.7563493531
  0
LINE
  5
21E
100
AcDbEntity
  8
ASSI
100
AcDbLine
 62
253
  6
CONTINUOUS
 10
3.5
 20
-23.7563493531
 11
4.3563493531
 21
-23.7563493531
  0
LINE
  5
21F
100
AcDbEntity
  8
RACCORDO
100
AcDbLine
 62
7
  6
CONTINUOUS
 10
8.5043676032
 20
-23.7
 11
10.3956323968
 21
-23.7
  0
LINE
  5
220
100
AcDbEntity
  8
RACCORDO
100
AcDbLine
 62
253
  6
CONTINUOUS
 10
-8.5043676032
 20
-23.6278312164
 11
-10.3956323968
 21
-23.6278312164
  0
LINE
  5
221
100
AcDbEntity
  8
RACCORDO
100
AcDbLine
 62
253
  6
CONTINUOUS
 10
-10.6824078424
 20
-22.4
 11
-10.6998629074
 21
-22.3912731322
  0
LINE
  5
222
100
AcDbEntity
  8
RACCORDO
100
AcDbLine
 62
253
  6
CONTINUOUS
 10
-8.5043676032
 20
24.495628166
 11
-8.4999957692
 21
24.5
  0
LINE
  5
223
100
AcDbEntity
  8
RACCORDO
100
AcDbLine
 62
253
  6
CONTINUOUS
 10
-8.254371834
 20
24.2456323968
 11
-8.25
 21
24.2500042308
  0
LINE
  5
224
100
AcDbEntity
  8
RACCORDO
100
AcDbLine
 62
7
  6
CONTINUOUS
 10
-8.0840245667
 20
20.9917082642
 11
-8.2465127091
 21
20.9104703804
  0
LINE
  5
225
100
AcDbEntity
  8
RACCORDO
100
AcDbLine
 62
7
  6
CONTINUOUS
 10
10.4007229979
 20
-23.1226497308
 11
8.4992770021
 21
-23.1226497308
  0
LINE
  5
226
100
AcDbEntity
  8
RACCORDO
100
AcDbLine
 62
7
  6
CONTINUOUS
 10
-8.4992770021
 20
-23.1226497308
 11
-10.4007229979
 21
-23.1226497308
  0
LINE
  5
227
100
AcDbEntity
  8
RACCORDO
100
AcDbLine
 62
7
  6
CONTINUOUS
 10
-10.682892023
 20
-22.4
 11
-10.65
 21
-22.4
  0
LINE
  5
228
100
AcDbEntity
  8
DRAFT
100
AcDbLine
 62
7
  6
CONTINUOUS
 10
4.4
 20
-22.4
 11
10.65
 21
-22.4
  0
LINE
  5
229
100
AcDbEntity
  8
RACCORDO
100
AcDbLine
 62
7
  6
CONTINUOUS
 10
10.65
 20
-22.4
 11
10.6828874748
 21
-22.4
  0
LINE
  5
22A
100
AcDbEntity
  8
DRAFT
100
AcDbLine
 62
7
  6
CONTINUOUS
 10
-4.4
 20
-22.4
 11
-10.65
 21
-22.4
  0
LINE
  5
22B
100
AcDbEntity
  8
RACCORDO
100
AcDbLine
 62
7
  6
CONTINUOUS
 10
-10.6998629074
 20
-22.3912731322
 11
-7.2587268678
 21
-22.3912731322
  0
LINE
  5
22C
100
AcDbEntity
  8
DRAFT
100
AcDbLine
 62
7
  6
CONTINUOUS
 10
-3.5
 20
-22.3912731322
 11
-3.0
 21
-22.3912731322
  0
LINE
  5
22D
100
AcDbEntity
  8
DRAFT
100
AcDbLine
 62
7
  6
CONTINUOUS
 10
3.0
 20
-22.3912731322
 11
3.5
 21
-22.3912731322
  0
LINE
  5
22E
100
AcDbEntity
  8
RACCORDO
100
AcDbLine
 62
7
  6
CONTINUOUS
 10
7.2587268678
 20
-22.3912731322
 11
10.6998629074
 21
-22.3912731322
  0
LINE
  5
22F
100
AcDbEntity
  8
RACCORDO
100
AcDbLine
 62
253
  6
CONTINUOUS
 10
-7.3373448332
 20
-22.3126551668
 11
-3.0
 21
-22.3126551668
  0
LINE
  5
230
100
AcDbEntity
  8
RACCORDO
100
AcDbLine
 62
253
  6
CONTINUOUS
 10
3.0
 20
-22.3126551668
 11
7.3373448332
 21
-22.3126551668
  0
LINE
  5
231
100
AcDbEntity
  8
0
100
AcDbLine
 62
7
  6
CONTINUOUS
 10
3.0
 20
-21.7
 11
-3.0
 21
-21.7
  0
LINE
  5
232
100
AcDbEntity
  8
RACCORDO
100
AcDbLine
 62
7
  6
CONTINUOUS
 10
-8.0840245667
 20
-20.9917082642
 11
-8.2465127091
 21
-20.9104703804
  0
LINE
  5
233
100
AcDbEntity
  8
RACCORDO
100
AcDbLine
 62
253
  6
CONTINUOUS
 10
-8.5043676032
 20
-24.495628166
 11
-8.4999957692
 21
-24.5
  0
LINE
  5
234
100
AcDbEntity
  8
RACCORDO
100
AcDbLine
 62
253
  6
CONTINUOUS
 10
-8.254371834
 20
-24.2456323968
 11
-8.25
 21
-24.2500042308
  0
LINE
  5
235
100
AcDbEntity
  8
SMUSSO
100
AcDbLine
 62
7
  6
CONTINUOUS
 10
-9.65
 20
20.1489710538
 11
-8.8998860669
 21
20.9
  0
LINE
  5
236
100
AcDbEntity
  8
SMUSSO
100
AcDbLine
 62
7
  6
CONTINUOUS
 10
-9.4946499221
 20
19.6825418182
 11
-9.2184401888
 21
19.959088481
  0
LINE
  5
237
100
AcDbEntity
  8
RACCORDO
100
AcDbLine
 62
7
  6
CONTINUOUS
 10
-8.25
 20
21.4
 11
-7.2587268678
 21
22.3912731322
  0
LINE
  5
238
100
AcDbEntity
  8
RACCORDO
100
AcDbLine
 62
253
  6
CONTINUOUS
 10
-7.5841007192
 20
-21.3126932437
 11
-3.0
 21
-21.3126932437
  0
LINE
  5
239
100
AcDbEntity
  8
RACCORDO
100
AcDbLine
 62
253
  6
CONTINUOUS
 10
3.0
 20
-21.3126932437
 11
7.5841007192
 21
-21.3126932437
  0
LINE
  5
23A
100
AcDbEntity
  8
0
100
AcDbLine
 62
7
  6
CONTINUOUS
 10
-3.0
 20
-21.0
 11
3.0
 21
-21.0
  0
LINE
  5
23B
100
AcDbEntity
  8
RACCORDO
100
AcDbLine
 62
7
  6
CONTINUOUS
 10
7.5841007192
 20
-20.9959955457
 11
7.0429818832
 21
-20.9959955457
  0
LINE
  5
23C
100
AcDbEntity
  8
RACCORDO
100
AcDbLine
 62
7
  6
CONTINUOUS
 10
-7.0429818832
 20
-20.9959955457
 11
-7.5841007192
 21
-20.9959955457
  0
LINE
  5
23D
100
AcDbEntity
  8
DRAFT
100
AcDbLine
 62
7
  6
CONTINUOUS
 10
-8.2465127091
 20
-20.9104703804
 11
-7.2988376746
 21
-20.9104703804
  0
LINE
  5
23E
100
AcDbEntity
  8
DRAFT
100
AcDbLine
 62
7
  6
CONTINUOUS
 10
7.2988376746
 20
-20.9104703804
 11
8.2465127091
 21
-20.9104703804
  0
LINE
  5
23F
100
AcDbEntity
  8
SMUSSO
100
AcDbLine
 62
7
  6
CONTINUOUS
 10
-8.8998860669
 20
-20.9
 11
-8.25
 21
-20.9
  0
LINE
  5
240
100
AcDbEntity
  8
SMUSSO
100
AcDbLine
 62
7
  6
CONTINUOUS
 10
8.25
 20
-20.9
 11
8.8998860669
 21
-20.9
  0
LINE
  5
241
100
AcDbEntity
  8
0
100
AcDbLine
 62
7
  6
CONTINUOUS
 10
-8.8370478331
 20
-20.7113319946
 11
-7.3209441873
 21
-20.7113319946
  0
LINE
  5
242
100
AcDbEntity
  8
0
100
AcDbLine
 62
7
  6
CONTINUOUS
 10
7.3209441873
 20
-20.7113319946
 11
8.8370478331
 21
-20.7113319946
  0
LINE
  5
243
100
AcDbEntity
  8
RACCORDO
100
AcDbLine
 62
253
  6
CONTINUOUS
 10
6.7570181168
 20
-20.5829242832
 11
-6.7570181168
 21
-20.5829242832
  0
LINE
  5
244
100
AcDbEntity
  8
RACCORDO
100
AcDbLine
 62
253
  6
CONTINUOUS
 10
6.555294768
 20
-20.0829433217
 11
-6.555294768
 21
-20.0829433217
  0
LINE
  5
245
100
AcDbEntity
  8
RACCORDO
100
AcDbLine
 62
253
  6
CONTINUOUS
 10
6.5570215015
 20
-20.0003998616
 11
7.2429784985
 21
-20.0003998616
  0
LINE
  5
246
100
AcDbEntity
  8
RACCORDO
100
AcDbLine
 62
253
  6
CONTINUOUS
 10
-6.5570215015
 20
-20.0003998616
 11
-7.2429784985
 21
-20.0003998616
  0
LINE
  5
247
100
AcDbEntity
  8
RACCORDO
100
AcDbLine
 62
7
  6
CONTINUOUS
 10
4.0415223701
 20
-20.0
 11
-4.0415223701
 21
-20.0
  0
LINE
  5
248
100
AcDbEntity
  8
DRAFT
100
AcDbLine
 62
7
  6
CONTINUOUS
 10
-6.4790558127
 20
-19.968583276
 11
-4.2712013363
 21
-19.968583276
  0
LINE
  5
249
100
AcDbEntity
  8
DRAFT
100
AcDbLine
 62
7
  6
CONTINUOUS
 10
4.2712013363
 20
-19.968583276
 11
6.4790558127
 21
-19.968583276
  0
LINE
  5
24A
100
AcDbEntity
  8
RACCORDO
100
AcDbLine
 62
7
  6
CONTINUOUS
 10
-7.2587268678
 20
-22.3912731322
 11
-8.25
 21
-21.4
  0
LINE
  5
24B
100
AcDbEntity
  8
SMUSSO
100
AcDbLine
 62
7
  6
CONTINUOUS
 10
-9.65
 20
-20.1489710538
 11
-8.8998860669
 21
-20.9
  0
LINE
  5
24C
100
AcDbEntity
  8
0
100
AcDbLine
 62
7
  6
CONTINUOUS
 10
-9.5871617663
 20
-19.9603030484
 11
-8.8370478331
 21
-20.7113319946
  0
LINE
  5
24D
100
AcDbEntity
  8
RACCORDO
100
AcDbLine
 62
253
  6
CONTINUOUS
 10
9.5871617663
 20
-19.824454269
 11
7.3209441873
 21
-19.824454269
  0
LINE
  5
24E
100
AcDbEntity
  8
RACCORDO
100
AcDbLine
 62
253
  6
CONTINUOUS
 10
6.4790558127
 20
-19.824454269
 11
4.2712013363
 21
-19.824454269
  0
LINE
  5
24F
100
AcDbEntity
  8
RACCORDO
100
AcDbLine
 62
253
  6
CONTINUOUS
 10
-4.2712013363
 20
-19.824454269
 11
-6.4790558127
 21
-19.824454269
  0
LINE
  5
250
100
AcDbEntity
  8
RACCORDO
100
AcDbLine
 62
253
  6
CONTINUOUS
 10
-7.3209441873
 20
-19.824454269
 11
-9.5871617663
 21
-19.824454269
  0
LINE
  5
251
100
AcDbEntity
  8
RACCORDO
100
AcDbLine
 62
253
  6
CONTINUOUS
 10
7.0429818832
 20
-19.803438311
 11
6.7570181168
 21
-19.803438311
  0
LINE
  5
252
100
AcDbEntity
  8
RACCORDO
100
AcDbLine
 62
253
  6
CONTINUOUS
 10
-6.7570181168
 20
-19.803438311
 11
-7.0429818832
 21
-19.803438311
  0
LINE
  5
253
100
AcDbEntity
  8
RACCORDO
100
AcDbLine
 62
253
  6
CONTINUOUS
 10
9.5785103949
 20
-19.3244733075
 11
7.3238277175
 21
-19.3244733075
  0
LINE
  5
254
100
AcDbEntity
  8
RACCORDO
100
AcDbLine
 62
253
  6
CONTINUOUS
 10
6.4761722825
 20
-19.3244733075
 11
4.2755266925
 21
-19.3244733075
  0
LINE
  5
255
100
AcDbEntity
  8
RACCORDO
100
AcDbLine
 62
253
  6
CONTINUOUS
 10
-4.2755266925
 20
-19.3244733075
 11
-6.4761722825
 21
-19.3244733075
  0
LINE
  5
256
100
AcDbEntity
  8
RACCORDO
100
AcDbLine
 62
253
  6
CONTINUOUS
 10
-7.3238277175
 20
-19.3244733075
 11
-9.5785103949
 21
-19.3244733075
  0
LINE
  5
257
100
AcDbEntity
  8
DRAFT
100
AcDbLine
 62
7
  6
CONTINUOUS
 10
-9.529560052
 20
-19.3
 11
-7.3401430257
 21
-19.3
  0
LINE
  5
258
100
AcDbEntity
  8
DRAFT
100
AcDbLine
 62
7
  6
CONTINUOUS
 10
-6.4598569743
 20
-19.3
 11
-4.3
 21
-19.3
  0
LINE
  5
259
100
AcDbEntity
  8
DRAFT
100
AcDbLine
 62
7
  6
CONTINUOUS
 10
4.3
 20
-19.3
 11
6.4598569743
 21
-19.3
  0
LINE
  5
25A
100
AcDbEntity
  8
DRAFT
100
AcDbLine
 62
7
  6
CONTINUOUS
 10
7.3401430257
 20
-19.3
 11
9.529560052
 21
-19.3
  0
LINE
  5
25B
100
AcDbEntity
  8
RACCORDO
100
AcDbLine
 62
7
  6
CONTINUOUS
 10
-7.2429784985
 20
20.9942603263
 11
-7.2988376746
 21
20.9104703804
  0
LINE
  5
25C
100
AcDbEntity
  8
RACCORDO
100
AcDbLine
 62
253
  6
CONTINUOUS
 10
4.2415147547
 20
-17.5584776299
 11
-4.2415147547
 21
-17.5584776299
  0
LINE
  5
25D
100
AcDbEntity
  8
RACCORDO
100
AcDbLine
 62
253
  6
CONTINUOUS
 10
4.0415223701
 20
-17.3584852453
 11
-4.0415223701
 21
-17.3584852453
  0
LINE
  5
25E
100
AcDbEntity
  8
RACCORDO
100
AcDbLine
 62
7
  6
CONTINUOUS
 10
-4.1000076154
 20
-17.3
 11
4.1000076154
 21
-17.3
  0
LINE
  5
25F
100
AcDbEntity
  8
RACCORDO
100
AcDbLine
 62
7
  6
CONTINUOUS
 10
7.1403416921
 20
-16.8526539614
 11
6.6596583079
 21
-16.8526539614
  0
LINE
  5
260
100
AcDbEntity
  8
RACCORDO
100
AcDbLine
 62
7
  6
CONTINUOUS
 10
-6.6596583079
 20
-16.8526539614
 11
-7.1403416921
 21
-16.8526539614
  0
LINE
  5
261
100
AcDbEntity
  8
DRAFT
100
AcDbLine
 62
7
  6
CONTINUOUS
 10
-3.5226898563
 20
-16.2
 11
3.5226898563
 21
-16.2
  0
LINE
  5
262
100
AcDbEntity
  8
RACCORDO
100
AcDbLine
 62
7
  6
CONTINUOUS
 10
-4.2712013363
 20
-19.968583276
 11
-4.2415147547
 21
-19.9982698575
  0
LINE
  5
263
100
AcDbEntity
  8
RACCORDO
100
AcDbLine
 62
7
  6
CONTINUOUS
 10
-4.3
 20
-19.3
 11
-4.2755266925
 21
-19.3244733075
  0
LINE
  5
264
100
AcDbEntity
  8
RACCORDO
100
AcDbLine
 62
7
  6
CONTINUOUS
 10
-7.2429784985
 20
-20.9942603263
 11
-7.2988376746
 21
-20.9104703804
  0
LINE
  5
265
100
AcDbEntity
  8
RACCORDO
100
AcDbLine
 62
7
  6
CONTINUOUS
 10
-7.3401430257
 20
-19.3
 11
-7.3238277175
 21
-19.3244733075
  0
LINE
  5
266
100
AcDbEntity
  8
DRAFT
100
AcDbLine
 62
7
  6
CONTINUOUS
 10
-8.25
 20
20.9
 11
-8.2465127091
 21
20.9104703804
  0
LINE
  5
267
100
AcDbEntity
  8
RACCORDO
100
AcDbLine
 62
7
  6
CONTINUOUS
 10
-3.5113449281
 20
-15.5
 11
-3.4
 21
-15.5
  0
LINE
  5
268
100
AcDbEntity
  8
RACCORDO
100
AcDbLine
 62
7
  6
CONTINUOUS
 10
3.4
 20
-15.5
 11
3.5113449281
 21
-15.5
  0
LINE
  5
269
100
AcDbEntity
  8
DRAFT
100
AcDbLine
 62
7
  6
CONTINUOUS
 10
3.5017453736
 20
-15.1
 11
3.4
 21
-15.1
  0
LINE
  5
26A
100
AcDbEntity
  8
DRAFT
100
AcDbLine
 62
7
  6
CONTINUOUS
 10
-3.4
 20
-15.1
 11
-3.5017453736
 21
-15.1
  0
LINE
  5
26B
100
AcDbEntity
  8
DRAFT
100
AcDbLine
 62
7
  6
CONTINUOUS
 10
3.5
 20
-14.9
 11
3.4
 21
-14.9
  0
LINE
  5
26C
100
AcDbEntity
  8
DRAFT
100
AcDbLine
 62
7
  6
CONTINUOUS
 10
-3.4
 20
-14.9
 11
-3.5
 21
-14.9
  0
LINE
  5
26D
100
AcDbEntity
  8
RACCORDO
100
AcDbLine
 62
253
  6
CONTINUOUS
 10
9.529560052
 20
-14.7131093409
 11
3.5226898563
 21
-14.7131093409
  0
LINE
  5
26E
100
AcDbEntity
  8
RACCORDO
100
AcDbLine
 62
253
  6
CONTINUOUS
 10
-3.5226898563
 20
-14.7131093409
 11
-9.529560052
 21
-14.7131093409
  0
LINE
  5
26F
100
AcDbEntity
  8
RACCORDO
100
AcDbLine
 62
253
  6
CONTINUOUS
 10
-4.3
 20
-17.4999923846
 11
-4.2415147547
 21
-17.5584776299
  0
LINE
  5
270
100
AcDbEntity
  8
RACCORDO
100
AcDbLine
 62
253
  6
CONTINUOUS
 10
-4.1000076154
 20
-17.3
 11
-4.0415223701
 21
-17.3584852453
  0
LINE
  5
271
100
AcDbEntity
  8
DRAFT
100
AcDbLine
 62
7
  6
CONTINUOUS
 10
-8.2465127091
 20
-20.9104703804
 11
-8.25
 21
-20.9
  0
LINE
  5
272
100
AcDbEntity
  8
ASSI
100
AcDbLine
 62
7
  6
CONTINUOUS
 10
4.4
 20
23.8
 11
4.3563493531
 21
23.7563493531
  0
LINE
  5
273
100
AcDbEntity
  8
RACCORDO
100
AcDbLine
 62
253
  6
CONTINUOUS
 10
9.5209086807
 20
-14.2131283793
 11
3.5183645
 21
-14.2131283793
  0
LINE
  5
274
100
AcDbEntity
  8
RACCORDO
100
AcDbLine
 62
253
  6
CONTINUOUS
 10
-3.5183645
 20
-14.2131283793
 11
-9.5209086807
 21
-14.2131283793
  0
LINE
  5
275
100
AcDbEntity
  8
DRAFT
100
AcDbLine
 62
7
  6
CONTINUOUS
 10
-9.4946499221
 20
-14.2
 11
-3.5052361207
 21
-14.2
  0
LINE
  5
276
100
AcDbEntity
  8
DRAFT
100
AcDbLine
 62
7
  6
CONTINUOUS
 10
3.5052361207
 20
-14.2
 11
9.4946499221
 21
-14.2
  0
LINE
  5
277
100
AcDbEntity
  8
DRAFT
100
AcDbLine
 62
7
  6
CONTINUOUS
 10
-3.5052361207
 20
-14.0
 11
-3.382729781
 21
-14.0
  0
LINE
  5
278
100
AcDbEntity
  8
DRAFT
100
AcDbLine
 62
7
  6
CONTINUOUS
 10
3.382729781
 20
-14.0
 11
3.5052361207
 21
-14.0
  0
LINE
  5
279
100
AcDbEntity
  8
RACCORDO
100
AcDbLine
 62
7
  6
CONTINUOUS
 10
-3.1
 20
-13.8
 11
3.1
 21
-13.8
  0
LINE
  5
27A
100
AcDbEntity
  8
RACCORDO
100
AcDbLine
 62
7
  6
CONTINUOUS
 10
9.529560052
 20
-19.3
 11
9.5785103949
 21
-19.3244733075
  0
LINE
  5
27B
100
AcDbEntity
  8
ASSI
100
AcDbLine
 62
7
  6
CONTINUOUS
 10
4.4
 20
-23.8
 11
4.3563493531
 21
-23.7563493531
  0
LINE
  5
27C
100
AcDbEntity
  8
RACCORDO
100
AcDbLine
 62
253
  6
CONTINUOUS
 10
-10.645628166
 20
-23.8443375673
 11
-10.65
 21
-23.4104851482
  0
LINE
  5
27D
100
AcDbEntity
  8
RACCORDO
100
AcDbLine
 62
7
  6
CONTINUOUS
 10
-11.15
 20
21.9411874598
 11
-11.15
 21
-21.9411874598
  0
LINE
  5
27E
100
AcDbEntity
  8
RACCORDO
100
AcDbLine
 62
253
  6
CONTINUOUS
 10
-10.65
 20
23.4104851482
 11
-10.645628166
 21
23.8443375673
  0
LINE
  5
27F
100
AcDbEntity
  8
RACCORDO
100
AcDbLine
 62
253
  6
CONTINUOUS
 10
-10.3956323968
 20
-23.6278312164
 11
-10.4007229979
 21
-23.1226497308
  0
LINE
  5
280
100
AcDbEntity
  8
RACCORDO
100
AcDbLine
 62
7
  6
CONTINUOUS
 10
-10.65
 20
-22.4
 11
-10.65
 21
-24.2500042308
  0
LINE
  5
281
100
AcDbEntity
  8
RACCORDO
100
AcDbLine
 62
7
  6
CONTINUOUS
 10
-10.65
 20
22.4
 11
-10.65
 21
24.2500042308
  0
LINE
  5
282
100
AcDbEntity
  8
RACCORDO
100
AcDbLine
 62
253
  6
CONTINUOUS
 10
-10.645628166
 20
24.2456323968
 11
-10.645628166
 21
23.8443375673
  0
LINE
  5
283
100
AcDbEntity
  8
RACCORDO
100
AcDbLine
 62
253
  6
CONTINUOUS
 10
-10.645628166
 20
-23.8443375673
 11
-10.645628166
 21
-24.2456323968
  0
LINE
  5
284
100
AcDbEntity
  8
RACCORDO
100
AcDbLine
 62
253
  6
CONTINUOUS
 10
-10.3956323968
 20
-23.6278312164
 11
-10.3956323968
 21
-24.495628166
  0
LINE
  5
285
100
AcDbEntity
  8
RACCORDO
100
AcDbLine
 62
253
  6
CONTINUOUS
 10
-10.3956323968
 20
23.6278312164
 11
-10.3956323968
 21
24.495628166
  0
LINE
  5
286
100
AcDbEntity
  8
SMUSSO
100
AcDbLine
 62
7
  6
CONTINUOUS
 10
-9.65
 20
20.1489710538
 11
-9.65
 21
-20.1489710538
  0
LINE
  5
287
100
AcDbEntity
  8
RACCORDO
100
AcDbLine
 62
7
  6
CONTINUOUS
 10
-9.5871617663
 20
-19.9603030484
 11
-9.5871617663
 21
-19.824454269
  0
LINE
  5
288
100
AcDbEntity
  8
RACCORDO
100
AcDbLine
 62
7
  6
CONTINUOUS
 10
-9.529560052
 20
-19.3
 11
-9.529560052
 21
-14.7131093409
  0
LINE
  5
289
100
AcDbEntity
  8
DRAFT
100
AcDbLine
 62
7
  6
CONTINUOUS
 10
-9.4946499221
 20
-14.2
 11
-9.4946499221
 21
19.6825418182
  0
LINE
  5
28A
100
AcDbEntity
  8
RACCORDO
100
AcDbLine
 62
253
  6
CONTINUOUS
 10
-10.4007229979
 20
23.1226497308
 11
-10.3956323968
 21
23.6278312164
  0
LINE
  5
28B
100
AcDbEntity
  8
RACCORDO
100
AcDbLine
 62
7
  6
CONTINUOUS
 10
-7.3490220113
 20
20.4584032484
 11
-7.2988376746
 21
20.9104703804
  0
LINE
  5
28C
100
AcDbEntity
  8
RACCORDO
100
AcDbLine
 62
253
  6
CONTINUOUS
 10
10.3956323968
 20
24.495628166
 11
10.4000042308
 21
24.5
  0
LINE
  5
28D
100
AcDbEntity
  8
RACCORDO
100
AcDbLine
 62
253
  6
CONTINUOUS
 10
10.645628166
 20
24.2456323968
 11
10.65
 21
24.2500042308
  0
LINE
  5
28E
100
AcDbEntity
  8
RACCORDO
100
AcDbLine
 62
253
  6
CONTINUOUS
 10
10.3956323968
 20
-24.495628166
 11
10.4000042308
 21
-24.5
  0
LINE
  5
28F
100
AcDbEntity
  8
RACCORDO
100
AcDbLine
 62
253
  6
CONTINUOUS
 10
10.645628166
 20
-24.2456323968
 11
10.65
 21
-24.2500042308
  0
LINE
  5
290
100
AcDbEntity
  8
0
100
AcDbLine
 62
7
  6
CONTINUOUS
 10
-7.2988376746
 20
-20.9104703804
 11
-7.3209441873
 21
-20.7113319946
  0
LINE
  5
291
100
AcDbEntity
  8
RACCORDO
100
AcDbLine
 62
253
  6
CONTINUOUS
 10
-7.3401430257
 20
-17.0555341192
 11
-7.2429784985
 21
-20.0003998616
  0
LINE
  5
292
100
AcDbEntity
  8
RACCORDO
100
AcDbLine
 62
253
  6
CONTINUOUS
 10
-7.1403416921
 20
-16.8526539614
 11
-7.0429818832
 21
-19.803438311
  0
LINE
  5
293
100
AcDbEntity
  8
RACCORDO
100
AcDbLine
 62
253
  6
CONTINUOUS
 10
-8.5043676032
 20
23.6278312164
 11
-8.4992770021
 21
23.1226497308
  0
LINE
  5
294
100
AcDbEntity
  8
RACCORDO
100
AcDbLine
 62
253
  6
CONTINUOUS
 10
-8.254371834
 20
23.8443375673
 11
-8.25
 21
23.4104851482
  0
LINE
  5
295
100
AcDbEntity
  8
RACCORDO
100
AcDbLine
 62
253
  6
CONTINUOUS
 10
-8.5043676032
 20
-23.6278312164
 11
-8.5043676032
 21
-24.495628166
  0
LINE
  5
296
100
AcDbEntity
  8
RACCORDO
100
AcDbLine
 62
253
  6
CONTINUOUS
 10
-8.5043676032
 20
23.6278312164
 11
-8.5043676032
 21
24.495628166
  0
LINE
  5
297
100
AcDbEntity
  8
RACCORDO
100
AcDbLine
 62
253
  6
CONTINUOUS
 10
-8.254371834
 20
-24.2456323968
 11
-8.254371834
 21
-23.8443375673
  0
LINE
  5
298
100
AcDbEntity
  8
RACCORDO
100
AcDbLine
 62
253
  6
CONTINUOUS
 10
-8.254371834
 20
23.8443375673
 11
-8.254371834
 21
24.2456323968
  0
LINE
  5
299
100
AcDbEntity
  8
DRAFT
100
AcDbLine
 62
7
  6
CONTINUOUS
 10
-8.25
 20
-21.4
 11
-8.25
 21
-20.9
  0
LINE
  5
29A
100
AcDbEntity
  8
RACCORDO
100
AcDbLine
 62
7
  6
CONTINUOUS
 10
-8.25
 20
-22.4
 11
-8.25
 21
-24.2500042308
  0
LINE
  5
29B
100
AcDbEntity
  8
DRAFT
100
AcDbLine
 62
7
  6
CONTINUOUS
 10
-8.25
 20
20.9
 11
-8.25
 21
21.4
  0
LINE
  5
29C
100
AcDbEntity
  8
RACCORDO
100
AcDbLine
 62
7
  6
CONTINUOUS
 10
-8.25
 20
22.4
 11
-8.25
 21
24.2500042308
  0
LINE
  5
29D
100
AcDbEntity
  8
RACCORDO
100
AcDbLine
 62
253
  6
CONTINUOUS
 10
-8.0840245667
 20
21.5659754333
 11
-8.0840245667
 21
20.9917082642
  0
LINE
  5
29E
100
AcDbEntity
  8
RACCORDO
100
AcDbLine
 62
253
  6
CONTINUOUS
 10
-8.0840245667
 20
-20.9917082642
 11
-8.0840245667
 21
-21.5659754333
  0
LINE
  5
29F
100
AcDbEntity
  8
RACCORDO
100
AcDbLine
 62
253
  6
CONTINUOUS
 10
-7.5841007192
 20
21.3126932437
 11
-7.5841007192
 21
20.9959955457
  0
LINE
  5
2A0
100
AcDbEntity
  8
RACCORDO
100
AcDbLine
 62
253
  6
CONTINUOUS
 10
-7.5841007192
 20
-20.9959955457
 11
-7.5841007192
 21
-21.3126932437
  0
LINE
  5
2A1
100
AcDbEntity
  8
RACCORDO
100
AcDbLine
 62
7
  6
CONTINUOUS
 10
-7.3517786853
 20
19.959088481
 11
-7.3517786853
 21
16.7028801578
  0
LINE
  5
2A2
100
AcDbEntity
  8
RACCORDO
100
AcDbLine
 62
7
  6
CONTINUOUS
 10
-7.3401430257
 20
-19.3
 11
-7.3401430257
 21
-17.0555341192
  0
LINE
  5
2A3
100
AcDbEntity
  8
RACCORDO
100
AcDbLine
 62
7
  6
CONTINUOUS
 10
-7.3209441873
 20
-20.7113319946
 11
-7.3209441873
 21
-19.824454269
  0
LINE
  5
2A4
100
AcDbEntity
  8
RACCORDO
100
AcDbLine
 62
253
  6
CONTINUOUS
 10
-7.2429784985
 20
20.9942603263
 11
-7.2429784985
 21
20.0003998616
  0
LINE
  5
2A5
100
AcDbEntity
  8
RACCORDO
100
AcDbLine
 62
253
  6
CONTINUOUS
 10
-7.2429784985
 20
-20.0003998616
 11
-7.2429784985
 21
-20.9942603263
  0
LINE
  5
2A6
100
AcDbEntity
  8
RACCORDO
100
AcDbLine
 62
253
  6
CONTINUOUS
 10
-8.4992770021
 20
-23.1226497308
 11
-8.5043676032
 21
-23.6278312164
  0
LINE
  5
2A7
100
AcDbEntity
  8
RACCORDO
100
AcDbLine
 62
253
  6
CONTINUOUS
 10
-8.25
 20
-23.4104851482
 11
-8.254371834
 21
-23.8443375673
  0
LINE
  5
2A8
100
AcDbEntity
  8
RACCORDO
100
AcDbLine
 62
253
  6
CONTINUOUS
 10
-7.2429784985
 20
20.0003998616
 11
-7.3517786853
 21
16.7028801578
  0
LINE
  5
2A9
100
AcDbEntity
  8
RACCORDO
100
AcDbLine
 62
253
  6
CONTINUOUS
 10
-7.0429818832
 20
19.803438311
 11
-7.1519773517
 21
16.5
  0
LINE
  5
2AA
100
AcDbEntity
  8
DRAFT
100
AcDbLine
 62
7
  6
CONTINUOUS
 10
4.4
 20
22.4
 11
4.3559327327
 21
22.3338981669
  0
LINE
  5
2AB
100
AcDbEntity
  8
RACCORDO
100
AcDbLine
 62
7
  6
CONTINUOUS
 10
9.4946499221
 20
-14.2
 11
9.5209086807
 21
-14.2131283793
  0
LINE
  5
2AC
100
AcDbEntity
  8
RACCORDO
100
AcDbLine
 62
7
  6
CONTINUOUS
 10
3.5052361207
 20
-14.2
 11
3.5183645
 21
-14.2131283793
  0
LINE
  5
2AD
100
AcDbEntity
  8
DRAFT
100
AcDbLine
 62
7
  6
CONTINUOUS
 10
4.4
 20
-22.4
 11
4.3559327327
 21
-22.3338981669
  0
LINE
  5
2AE
100
AcDbEntity
  8
RACCORDO
100
AcDbLine
 62
253
  6
CONTINUOUS
 10
-6.7570181168
 20
19.803438311
 11
-6.6480226483
 21
16.5
  0
LINE
  5
2AF
100
AcDbEntity
  8
RACCORDO
100
AcDbLine
 62
253
  6
CONTINUOUS
 10
-6.5570215015
 20
20.0003998616
 11
-6.4482213147
 21
16.7028801578
  0
LINE
  5
2B0
100
AcDbEntity
  8
RACCORDO
100
AcDbLine
 62
253
  6
CONTINUOUS
 10
-7.0429818832
 20
20.9959955457
 11
-7.0429818832
 21
19.803438311
  0
LINE
  5
2B1
100
AcDbEntity
  8
RACCORDO
100
AcDbLine
 62
253
  6
CONTINUOUS
 10
-7.0429818832
 20
-19.803438311
 11
-7.0429818832
 21
-20.9959955457
  0
LINE
  5
2B2
100
AcDbEntity
  8
RACCORDO
100
AcDbLine
 62
253
  6
CONTINUOUS
 10
-6.7570181168
 20
-20.5829242832
 11
-6.7570181168
 21
-19.803438311
  0
LINE
  5
2B3
100
AcDbEntity
  8
RACCORDO
100
AcDbLine
 62
253
  6
CONTINUOUS
 10
-6.7570181168
 20
19.803438311
 11
-6.7570181168
 21
20.5829242832
  0
LINE
  5
2B4
100
AcDbEntity
  8
RACCORDO
100
AcDbLine
 62
253
  6
CONTINUOUS
 10
-6.5570215015
 20
20.1837995929
 11
-6.5570215015
 21
20.0003998616
  0
LINE
  5
2B5
100
AcDbEntity
  8
RACCORDO
100
AcDbLine
 62
253
  6
CONTINUOUS
 10
-6.5570215015
 20
-20.0003998616
 11
-6.5570215015
 21
-20.1837995929
  0
LINE
  5
2B6
100
AcDbEntity
  8
RACCORDO
100
AcDbLine
 62
7
  6
CONTINUOUS
 10
-6.4790558127
 20
-19.968583276
 11
-6.4790558127
 21
-19.824454269
  0
LINE
  5
2B7
100
AcDbEntity
  8
RACCORDO
100
AcDbLine
 62
7
  6
CONTINUOUS
 10
-6.4598569743
 20
-17.0555341192
 11
-6.4598569743
 21
-19.3
  0
LINE
  5
2B8
100
AcDbEntity
  8
RACCORDO
100
AcDbLine
 62
7
  6
CONTINUOUS
 10
-6.4482213147
 20
19.4266752714
 11
-6.4482213147
 21
16.7028801578
  0
LINE
  5
2B9
100
AcDbEntity
  8
DRAFT
100
AcDbLine
 62
7
  6
CONTINUOUS
 10
-5.6113449281
 20
-4.5728476191
 11
-5.6113449281
 21
4.5728476191
  0
LINE
  5
2BA
100
AcDbEntity
  8
DRAFT
100
AcDbLine
 62
7
  6
CONTINUOUS
 10
-5.6
 20
-4.6046172479
 11
-5.6
 21
4.6046172479
  0
LINE
  5
2BB
100
AcDbEntity
  8
0
100
AcDbLine
 62
7
  6
CONTINUOUS
 10
-5.4377115186
 20
-3.0812
 11
-5.4377115186
 21
3.0812
  0
LINE
  5
2BC
100
AcDbEntity
  8
RACCORDO
100
AcDbLine
 62
253
  6
CONTINUOUS
 10
-6.6596583079
 20
-16.8526539614
 11
-6.7570181168
 21
-19.803438311
  0
LINE
  5
2BD
100
AcDbEntity
  8
RACCORDO
100
AcDbLine
 62
253
  6
CONTINUOUS
 10
-6.4598569743
 20
-17.0555341192
 11
-6.5570215015
 21
-20.0003998616
  0
LINE
  5
2BE
100
AcDbEntity
  8
DRAFT
100
AcDbLine
 62
7
  6
CONTINUOUS
 10
-5.6113449281
 20
4.5728476191
 11
-5.6
 21
4.6046172479
  0
LINE
  5
2BF
100
AcDbEntity
  8
RACCORDO
100
AcDbLine
 62
7
  6
CONTINUOUS
 10
6.555294768
 20
20.0829433217
 11
6.4511048448
 21
19.9266562329
  0
LINE
  5
2C0
100
AcDbEntity
  8
0
100
AcDbLine
 62
7
  6
CONTINUOUS
 10
-5.4377115186
 20
3.0812
 11
-0.0
 21
6.25
  0
LINE
  5
2C1
100
AcDbEntity
  8
0
100
AcDbLine
 62
7
  6
CONTINUOUS
 10
-0.0
 20
-6.25
 11
-5.4377115186
 21
-3.0812
  0
LINE
  5
2C2
100
AcDbEntity
  8
0
100
AcDbLine
 62
7
  6
CONTINUOUS
 10
6.555294768
 20
-20.0829433217
 11
6.4790558127
 21
-19.968583276
  0
LINE
  5
2C3
100
AcDbEntity
  8
RACCORDO
100
AcDbLine
 62
7
  6
CONTINUOUS
 10
6.4598569743
 20
-19.3
 11
6.4761722825
 21
-19.3244733075
  0
LINE
  5
2C4
100
AcDbEntity
  8
DRAFT
100
AcDbLine
 62
7
  6
CONTINUOUS
 10
-5.6113449281
 20
-4.5728476191
 11
-5.6
 21
-4.6046172479
  0
LINE
  5
2C5
100
AcDbEntity
  8
DRAFT
100
AcDbLine
 62
7
  6
CONTINUOUS
 10
-4.4
 20
23.8
 11
-4.4
 21
22.4
  0
LINE
  5
2C6
100
AcDbEntity
  8
DRAFT
100
AcDbLine
 62
7
  6
CONTINUOUS
 10
-4.4
 20
-22.4
 11
-4.4
 21
-23.8
  0
LINE
  5
2C7
100
AcDbEntity
  8
ASSI
100
AcDbLine
 62
253
  6
CONTINUOUS
 10
-4.3559327327
 20
-22.3338981669
 11
-4.3559327327
 21
-23.7507734247
  0
LINE
  5
2C8
100
AcDbEntity
  8
ASSI
100
AcDbLine
 62
253
  6
CONTINUOUS
 10
-4.3559327327
 20
22.3338981669
 11
-4.3559327327
 21
23.7507734247
  0
LINE
  5
2C9
100
AcDbEntity
  8
RACCORDO
100
AcDbLine
 62
7
  6
CONTINUOUS
 10
-4.3
 20
-19.3
 11
-4.3
 21
-17.4999923846
  0
LINE
  5
2CA
100
AcDbEntity
  8
RACCORDO
100
AcDbLine
 62
7
  6
CONTINUOUS
 10
-4.2712013363
 20
-19.824454269
 11
-4.2712013363
 21
-19.968583276
  0
LINE
  5
2CB
100
AcDbEntity
  8
RACCORDO
100
AcDbLine
 62
253
  6
CONTINUOUS
 10
-4.2415147547
 20
-17.5584776299
 11
-4.2415147547
 21
-19.9982698575
  0
LINE
  5
2CC
100
AcDbEntity
  8
RACCORDO
100
AcDbLine
 62
253
  6
CONTINUOUS
 10
-4.0415223701
 20
-20.0
 11
-4.0415223701
 21
-17.3584852453
  0
LINE
  5
2CD
100
AcDbEntity
  8
RACCORDO
100
AcDbLine
 62
7
  6
CONTINUOUS
 10
-3.5226898563
 20
-14.7131093409
 11
-3.5226898563
 21
-16.2
  0
LINE
  5
2CE
100
AcDbEntity
  8
DRAFT
100
AcDbLine
 62
7
  6
CONTINUOUS
 10
-3.5113449281
 20
-15.5
 11
-3.5113449281
 21
-16.2
  0
LINE
  5
2CF
100
AcDbEntity
  8
DRAFT
100
AcDbLine
 62
7
  6
CONTINUOUS
 10
-3.5052361207
 20
-14.2
 11
-3.5052361207
 21
-14.0
  0
LINE
  5
2D0
100
AcDbEntity
  8
DRAFT
100
AcDbLine
 62
7
  6
CONTINUOUS
 10
-3.5017453736
 20
-15.5
 11
-3.5017453736
 21
-15.1
  0
LINE
  5
2D1
100
AcDbEntity
  8
RACCORDO
100
AcDbLine
 62
7
  6
CONTINUOUS
 10
-3.5
 20
-22.3339198952
 11
-3.5
 21
-23.7511422903
  0
LINE
  5
2D2
100
AcDbEntity
  8
ASSI
100
AcDbLine
 62
7
  6
CONTINUOUS
 10
-3.5
 20
-22.3339198952
 11
-3.5
 21
-23.7941821702
  0
LINE
  5
2D3
100
AcDbEntity
  8
DRAFT
100
AcDbLine
 62
7
  6
CONTINUOUS
 10
-3.5
 20
-14.9
 11
-3.5
 21
-14.0
  0
LINE
  5
2D4
100
AcDbEntity
  8
ASSI
100
AcDbLine
 62
7
  6
CONTINUOUS
 10
-3.5
 20
22.3339198952
 11
-3.5
 21
23.7941821702
  0
LINE
  5
2D5
100
AcDbEntity
  8
RACCORDO
100
AcDbLine
 62
7
  6
CONTINUOUS
 10
-3.4
 20
-15.5
 11
-3.4
 21
-14.1
  0
LINE
  5
2D6
100
AcDbEntity
  8
RACCORDO
100
AcDbLine
 62
7
  6
CONTINUOUS
 10
-3.0
 20
-21.0
 11
-3.0
 21
-22.3912731322
  0
LINE
  5
2D7
100
AcDbEntity
  8
RACCORDO
100
AcDbLine
 62
7
  6
CONTINUOUS
 10
-3.0
 20
21.0
 11
-3.0
 21
22.3912731322
  0
LINE
  5
2D8
100
AcDbEntity
  8
DRAFT
100
AcDbLine
 62
7
  6
CONTINUOUS
 10
-3.5017453736
 20
-15.1
 11
-3.5
 21
-14.9
  0
LINE
  5
2D9
100
AcDbEntity
  8
0
100
AcDbLine
 62
7
  6
CONTINUOUS
 10
-9.65
 20
-20.1489710538
 11
-9.5871617663
 21
-19.9603030484
  0
LINE
  5
2DA
100
AcDbEntity
  8
0
100
AcDbLine
 62
7
  6
CONTINUOUS
 10
-8.8998860669
 20
-20.9
 11
-8.8370478331
 21
-20.7113319946
  0
LINE
  5
2DB
100
AcDbEntity
  8
SMUSSO
100
AcDbLine
 62
7
  6
CONTINUOUS
 10
-9.4946499221
 20
19.6825418182
 11
-9.65
 21
20.1489710538
  0
LINE
  5
2DC
100
AcDbEntity
  8
SMUSSO
100
AcDbLine
 62
7
  6
CONTINUOUS
 10
-8.7528067577
 20
20.4584032484
 11
-8.8998860669
 21
20.9
  0
LINE
  5
2DD
100
AcDbEntity
  8
SMUSSO
100
AcDbLine
 62
7
  6
CONTINUOUS
 10
8.7528067577
 20
20.4584032484
 11
8.8998860669
 21
20.9
  0
LINE
  5
2DE
100
AcDbEntity
  8
0
100
AcDbLine
 62
7
  6
CONTINUOUS
 10
8.8998860669
 20
-20.9
 11
8.8370478331
 21
-20.7113319946
  0
LINE
  5
2DF
100
AcDbEntity
  8
DRAFT
100
AcDbLine
 62
7
  6
CONTINUOUS
 10
3.5017453736
 20
-15.1
 11
3.5
 21
-14.9
  0
LINE
  5
2E0
100
AcDbEntity
  8
RACCORDO
100
AcDbLine
 62
7
  6
CONTINUOUS
 10
3.0
 20
-21.0
 11
3.0
 21
-22.3912731322
  0
LINE
  5
2E1
100
AcDbEntity
  8
RACCORDO
100
AcDbLine
 62
7
  6
CONTINUOUS
 10
3.0
 20
21.0
 11
3.0
 21
22.3912731322
  0
LINE
  5
2E2
100
AcDbEntity
  8
RACCORDO
100
AcDbLine
 62
7
  6
CONTINUOUS
 10
3.4
 20
-14.1
 11
3.4
 21
-15.5
  0
LINE
  5
2E3
100
AcDbEntity
  8
ASSI
100
AcDbLine
 62
7
  6
CONTINUOUS
 10
3.5
 20
-22.3339198952
 11
3.5
 21
-23.7941821702
  0
LINE
  5
2E4
100
AcDbEntity
  8
DRAFT
100
AcDbLine
 62
7
  6
CONTINUOUS
 10
3.5
 20
-14.9
 11
3.5
 21
-14.0
  0
LINE
  5
2E5
100
AcDbEntity
  8
RACCORDO
100
AcDbLine
 62
7
  6
CONTINUOUS
 10
3.5
 20
22.3339198952
 11
3.5
 21
23.7511422903
  0
LINE
  5
2E6
100
AcDbEntity
  8
ASSI
100
AcDbLine
 62
7
  6
CONTINUOUS
 10
3.5
 20
22.3339198952
 11
3.5
 21
23.7941821702
  0
LINE
  5
2E7
100
AcDbEntity
  8
DRAFT
100
AcDbLine
 62
7
  6
CONTINUOUS
 10
3.5017453736
 20
-15.5
 11
3.5017453736
 21
-15.1
  0
LINE
  5
2E8
100
AcDbEntity
  8
DRAFT
100
AcDbLine
 62
7
  6
CONTINUOUS
 10
3.5052361207
 20
-14.2
 11
3.5052361207
 21
-14.0
  0
LINE
  5
2E9
100
AcDbEntity
  8
DRAFT
100
AcDbLine
 62
7
  6
CONTINUOUS
 10
3.5113449281
 20
-15.5
 11
3.5113449281
 21
-16.2
  0
LINE
  5
2EA
100
AcDbEntity
  8
RACCORDO
100
AcDbLine
 62
7
  6
CONTINUOUS
 10
3.5226898563
 20
-14.7131093409
 11
3.5226898563
 21
-16.2
  0
LINE
  5
2EB
100
AcDbEntity
  8
SMUSSO
100
AcDbLine
 62
7
  6
CONTINUOUS
 10
9.4946499221
 20
19.6825418182
 11
9.65
 21
20.1489710538
  0
LINE
  5
2EC
100
AcDbEntity
  8
0
100
AcDbLine
 62
7
  6
CONTINUOUS
 10
9.65
 20
-20.1489710538
 11
9.5871617663
 21
-19.9603030484
  0
LINE
  5
2ED
100
AcDbEntity
  8
RACCORDO
100
AcDbLine
 62
253
  6
CONTINUOUS
 10
4.0415223701
 20
-20.0
 11
4.0415223701
 21
-17.3584852453
  0
LINE
  5
2EE
100
AcDbEntity
  8
RACCORDO
100
AcDbLine
 62
253
  6
CONTINUOUS
 10
4.2415147547
 20
-19.9982698575
 11
4.2415147547
 21
-17.5584776299
  0
LINE
  5
2EF
100
AcDbEntity
  8
RACCORDO
100
AcDbLine
 62
7
  6
CONTINUOUS
 10
4.2712013363
 20
-19.824454269
 11
4.2712013363
 21
-19.968583276
  0
LINE
  5
2F0
100
AcDbEntity
  8
RACCORDO
100
AcDbLine
 62
7
  6
CONTINUOUS
 10
4.3
 20
-19.3
 11
4.3
 21
-17.4999923846
  0
LINE
  5
2F1
100
AcDbEntity
  8
ASSI
100
AcDbLine
 62
253
  6
CONTINUOUS
 10
4.3559327327
 20
-22.3338981669
 11
4.3559327327
 21
-23.7507734247
  0
LINE
  5
2F2
100
AcDbEntity
  8
ASSI
100
AcDbLine
 62
253
  6
CONTINUOUS
 10
4.3559327327
 20
22.3338981669
 11
4.3559327327
 21
23.7507734247
  0
LINE
  5
2F3
100
AcDbEntity
  8
DRAFT
100
AcDbLine
 62
7
  6
CONTINUOUS
 10
4.4
 20
-23.8
 11
4.4
 21
-22.4
  0
LINE
  5
2F4
100
AcDbEntity
  8
DRAFT
100
AcDbLine
 62
7
  6
CONTINUOUS
 10
4.4
 20
22.4
 11
4.4
 21
23.8
  0
LINE
  5
2F5
100
AcDbEntity
  8
0
100
AcDbLine
 62
7
  6
CONTINUOUS
 10
5.4377115186
 20
3.0812
 11
5.4377115186
 21
-3.0812
  0
LINE
  5
2F6
100
AcDbEntity
  8
DRAFT
100
AcDbLine
 62
7
  6
CONTINUOUS
 10
5.6
 20
4.6046172479
 11
5.6
 21
-4.6046172479
  0
LINE
  5
2F7
100
AcDbEntity
  8
DRAFT
100
AcDbLine
 62
7
  6
CONTINUOUS
 10
5.6113449281
 20
4.5728476191
 11
5.6113449281
 21
-4.5728476191
  0
LINE
  5
2F8
100
AcDbEntity
  8
RACCORDO
100
AcDbLine
 62
7
  6
CONTINUOUS
 10
-6.4598569743
 20
-19.3
 11
-6.4761722825
 21
-19.3244733075
  0
LINE
  5
2F9
100
AcDbEntity
  8
0
100
AcDbLine
 62
7
  6
CONTINUOUS
 10
-6.555294768
 20
-20.0829433217
 11
-6.4790558127
 21
-19.968583276
  0
LINE
  5
2FA
100
AcDbEntity
  8
0
100
AcDbLine
 62
7
  6
CONTINUOUS
 10
5.4377115186
 20
-3.0812
 11
-0.0
 21
-6.25
  0
LINE
  5
2FB
100
AcDbEntity
  8
0
100
AcDbLine
 62
7
  6
CONTINUOUS
 10
-0.0
 20
6.25
 11
5.4377115186
 21
3.0812
  0
LINE
  5
2FC
100
AcDbEntity
  8
RACCORDO
100
AcDbLine
 62
7
  6
CONTINUOUS
 10
-6.555294768
 20
20.0829433217
 11
-6.4511048448
 21
19.9266562329
  0
LINE
  5
2FD
100
AcDbEntity
  8
RACCORDO
100
AcDbLine
 62
253
  6
CONTINUOUS
 10
6.5570215015
 20
-20.0003998616
 11
6.4598569743
 21
-17.0555341192
  0
LINE
  5
2FE
100
AcDbEntity
  8
RACCORDO
100
AcDbLine
 62
253
  6
CONTINUOUS
 10
6.7570181168
 20
-19.803438311
 11
6.6596583079
 21
-16.8526539614
  0
LINE
  5
2FF
100
AcDbEntity
  8
RACCORDO
100
AcDbLine
 62
7
  6
CONTINUOUS
 10
6.4482213147
 20
16.7028801578
 11
6.4482213147
 21
19.4266752714
  0
LINE
  5
300
100
AcDbEntity
  8
RACCORDO
100
AcDbLine
 62
7
  6
CONTINUOUS
 10
6.4598569743
 20
-19.3
 11
6.4598569743
 21
-17.0555341192
  0
LINE
  5
301
100
AcDbEntity
  8
RACCORDO
100
AcDbLine
 62
7
  6
CONTINUOUS
 10
6.4790558127
 20
-19.968583276
 11
6.4790558127
 21
-19.824454269
  0
LINE
  5
302
100
AcDbEntity
  8
RACCORDO
100
AcDbLine
 62
253
  6
CONTINUOUS
 10
6.5570215015
 20
-20.1837995929
 11
6.5570215015
 21
-20.0003998616
  0
LINE
  5
303
100
AcDbEntity
  8
RACCORDO
100
AcDbLine
 62
253
  6
CONTINUOUS
 10
6.5570215015
 20
20.0003998616
 11
6.5570215015
 21
20.1837995929
  0
LINE
  5
304
100
AcDbEntity
  8
RACCORDO
100
AcDbLine
 62
253
  6
CONTINUOUS
 10
6.7570181168
 20
-20.5829242832
 11
6.7570181168
 21
-19.803438311
  0
LINE
  5
305
100
AcDbEntity
  8
RACCORDO
100
AcDbLine
 62
253
  6
CONTINUOUS
 10
6.7570181168
 20
19.803438311
 11
6.7570181168
 21
20.5829242832
  0
LINE
  5
306
100
AcDbEntity
  8
RACCORDO
100
AcDbLine
 62
253
  6
CONTINUOUS
 10
7.0429818832
 20
-20.9959955457
 11
7.0429818832
 21
-19.803438311
  0
LINE
  5
307
100
AcDbEntity
  8
RACCORDO
100
AcDbLine
 62
253
  6
CONTINUOUS
 10
7.0429818832
 20
19.803438311
 11
7.0429818832
 21
20.9959955457
  0
LINE
  5
308
100
AcDbEntity
  8
RACCORDO
100
AcDbLine
 62
253
  6
CONTINUOUS
 10
7.2429784985
 20
-20.9942603263
 11
7.2429784985
 21
-20.0003998616
  0
LINE
  5
309
100
AcDbEntity
  8
RACCORDO
100
AcDbLine
 62
253
  6
CONTINUOUS
 10
7.2429784985
 20
20.0003998616
 11
7.2429784985
 21
20.9942603263
  0
LINE
  5
30A
100
AcDbEntity
  8
RACCORDO
100
AcDbLine
 62
7
  6
CONTINUOUS
 10
7.3209441873
 20
-20.7113319946
 11
7.3209441873
 21
-19.824454269
  0
LINE
  5
30B
100
AcDbEntity
  8
RACCORDO
100
AcDbLine
 62
7
  6
CONTINUOUS
 10
7.3401430257
 20
-17.0555341192
 11
7.3401430257
 21
-19.3
  0
LINE
  5
30C
100
AcDbEntity
  8
RACCORDO
100
AcDbLine
 62
7
  6
CONTINUOUS
 10
7.3517786853
 20
19.959088481
 11
7.3517786853
 21
16.7028801578
  0
LINE
  5
30D
100
AcDbEntity
  8
RACCORDO
100
AcDbLine
 62
253
  6
CONTINUOUS
 10
6.4482213147
 20
16.7028801578
 11
6.5570215015
 21
20.0003998616
  0
LINE
  5
30E
100
AcDbEntity
  8
RACCORDO
100
AcDbLine
 62
253
  6
CONTINUOUS
 10
6.6480226483
 20
16.5
 11
6.7570181168
 21
19.803438311
  0
LINE
  5
30F
100
AcDbEntity
  8
DRAFT
100
AcDbLine
 62
7
  6
CONTINUOUS
 10
5.6113449281
 20
-4.5728476191
 11
5.6
 21
-4.6046172479
  0
LINE
  5
310
100
AcDbEntity
  8
DRAFT
100
AcDbLine
 62
7
  6
CONTINUOUS
 10
5.6113449281
 20
4.5728476191
 11
5.6
 21
4.6046172479
  0
LINE
  5
311
100
AcDbEntity
  8
RACCORDO
100
AcDbLine
 62
253
  6
CONTINUOUS
 10
7.1519773517
 20
16.5
 11
7.0429818832
 21
19.803438311
  0
LINE
  5
312
100
AcDbEntity
  8
RACCORDO
100
AcDbLine
 62
253
  6
CONTINUOUS
 10
7.3517786853
 20
16.7028801578
 11
7.2429784985
 21
20.0003998616
  0
LINE
  5
313
100
AcDbEntity
  8
RACCORDO
100
AcDbLine
 62
253
  6
CONTINUOUS
 10
8.254371834
 20
-23.8443375673
 11
8.25
 21
-23.4104851482
  0
LINE
  5
314
100
AcDbEntity
  8
RACCORDO
100
AcDbLine
 62
253
  6
CONTINUOUS
 10
8.5050948319
 20
-23.7
 11
8.4992770021
 21
-23.1226497308
  0
LINE
  5
315
100
AcDbEntity
  8
RACCORDO
100
AcDbLine
 62
253
  6
CONTINUOUS
 10
7.5841007192
 20
-21.3126932437
 11
7.5841007192
 21
-20.9959955457
  0
LINE
  5
316
100
AcDbEntity
  8
RACCORDO
100
AcDbLine
 62
253
  6
CONTINUOUS
 10
7.5841007192
 20
20.9959955457
 11
7.5841007192
 21
21.3126932437
  0
LINE
  5
317
100
AcDbEntity
  8
RACCORDO
100
AcDbLine
 62
253
  6
CONTINUOUS
 10
8.0840245667
 20
-21.5659754333
 11
8.0840245667
 21
-20.9917082642
  0
LINE
  5
318
100
AcDbEntity
  8
RACCORDO
100
AcDbLine
 62
253
  6
CONTINUOUS
 10
8.0840245667
 20
20.9917082642
 11
8.0840245667
 21
21.5659754333
  0
LINE
  5
319
100
AcDbEntity
  8
DRAFT
100
AcDbLine
 62
7
  6
CONTINUOUS
 10
8.25
 20
21.4
 11
8.25
 21
20.9
  0
LINE
  5
31A
100
AcDbEntity
  8
DRAFT
100
AcDbLine
 62
7
  6
CONTINUOUS
 10
8.25
 20
-20.9
 11
8.25
 21
-21.4
  0
LINE
  5
31B
100
AcDbEntity
  8
RACCORDO
100
AcDbLine
 62
7
  6
CONTINUOUS
 10
8.25
 20
-22.4
 11
8.25
 21
-24.2500042308
  0
LINE
  5
31C
100
AcDbEntity
  8
RACCORDO
100
AcDbLine
 62
7
  6
CONTINUOUS
 10
8.25
 20
22.4
 11
8.25
 21
24.2500042308
  0
LINE
  5
31D
100
AcDbEntity
  8
RACCORDO
100
AcDbLine
 62
253
  6
CONTINUOUS
 10
8.254371834
 20
24.2456323968
 11
8.254371834
 21
23.8443375673
  0
LINE
  5
31E
100
AcDbEntity
  8
RACCORDO
100
AcDbLine
 62
253
  6
CONTINUOUS
 10
8.254371834
 20
-23.8443375673
 11
8.254371834
 21
-24.2456323968
  0
LINE
  5
31F
100
AcDbEntity
  8
RACCORDO
100
AcDbLine
 62
253
  6
CONTINUOUS
 10
8.5043676032
 20
-23.7
 11
8.5043676032
 21
-24.495628166
  0
LINE
  5
320
100
AcDbEntity
  8
RACCORDO
100
AcDbLine
 62
253
  6
CONTINUOUS
 10
8.5043676032
 20
23.6278312164
 11
8.5043676032
 21
24.495628166
  0
LINE
  5
321
100
AcDbEntity
  8
RACCORDO
100
AcDbLine
 62
253
  6
CONTINUOUS
 10
8.25
 20
23.4104851482
 11
8.254371834
 21
23.8443375673
  0
LINE
  5
322
100
AcDbEntity
  8
RACCORDO
100
AcDbLine
 62
253
  6
CONTINUOUS
 10
8.4992770021
 20
23.1226497308
 11
8.5043676032
 21
23.6278312164
  0
LINE
  5
323
100
AcDbEntity
  8
RACCORDO
100
AcDbLine
 62
253
  6
CONTINUOUS
 10
7.0429818832
 20
-19.803438311
 11
7.1403416921
 21
-16.8526539614
  0
LINE
  5
324
100
AcDbEntity
  8
RACCORDO
100
AcDbLine
 62
253
  6
CONTINUOUS
 10
7.2429784985
 20
-20.0003998616
 11
7.3401430257
 21
-17.0555341192
  0
LINE
  5
325
100
AcDbEntity
  8
DRAFT
100
AcDbLine
 62
7
  6
CONTINUOUS
 10
-4.4
 20
-22.4
 11
-4.3559327327
 21
-22.3338981669
  0
LINE
  5
326
100
AcDbEntity
  8
RACCORDO
100
AcDbLine
 62
7
  6
CONTINUOUS
 10
-3.5052361207
 20
-14.2
 11
-3.5183645
 21
-14.2131283793
  0
LINE
  5
327
100
AcDbEntity
  8
RACCORDO
100
AcDbLine
 62
7
  6
CONTINUOUS
 10
-9.4946499221
 20
-14.2
 11
-9.5209086807
 21
-14.2131283793
  0
LINE
  5
328
100
AcDbEntity
  8
DRAFT
100
AcDbLine
 62
7
  6
CONTINUOUS
 10
-4.4
 20
22.4
 11
-4.3559327327
 21
22.3338981669
  0
LINE
  5
329
100
AcDbEntity
  8
RACCORDO
100
AcDbLine
 62
253
  6
CONTINUOUS
 10
10.3956323968
 20
23.6278312164
 11
10.4007229979
 21
23.1226497308
  0
LINE
  5
32A
100
AcDbEntity
  8
RACCORDO
100
AcDbLine
 62
253
  6
CONTINUOUS
 10
10.645628166
 20
23.8443375673
 11
10.65
 21
23.4104851482
  0
LINE
  5
32B
100
AcDbEntity
  8
DRAFT
100
AcDbLine
 62
7
  6
CONTINUOUS
 10
9.4946499221
 20
-14.2
 11
9.4946499221
 21
19.6825418182
  0
LINE
  5
32C
100
AcDbEntity
  8
RACCORDO
100
AcDbLine
 62
7
  6
CONTINUOUS
 10
9.529560052
 20
-19.3
 11
9.529560052
 21
-14.7131093409
  0
LINE
  5
32D
100
AcDbEntity
  8
RACCORDO
100
AcDbLine
 62
7
  6
CONTINUOUS
 10
9.5871617663
 20
-19.9603030484
 11
9.5871617663
 21
-19.824454269
  0
LINE
  5
32E
100
AcDbEntity
  8
SMUSSO
100
AcDbLine
 62
7
  6
CONTINUOUS
 10
9.65
 20
20.1489710538
 11
9.65
 21
-20.1489710538
  0
LINE
  5
32F
100
AcDbEntity
  8
RACCORDO
100
AcDbLine
 62
253
  6
CONTINUOUS
 10
10.3956323968
 20
-23.7
 11
10.3956323968
 21
-24.495628166
  0
LINE
  5
330
100
AcDbEntity
  8
RACCORDO
100
AcDbLine
 62
253
  6
CONTINUOUS
 10
10.3956323968
 20
23.6278312164
 11
10.3956323968
 21
24.495628166
  0
LINE
  5
331
100
AcDbEntity
  8
RACCORDO
100
AcDbLine
 62
253
  6
CONTINUOUS
 10
10.645628166
 20
-24.2456323968
 11
10.645628166
 21
-23.8443375673
  0
LINE
  5
332
100
AcDbEntity
  8
RACCORDO
100
AcDbLine
 62
253
  6
CONTINUOUS
 10
10.645628166
 20
23.8443375673
 11
10.645628166
 21
24.2456323968
  0
LINE
  5
333
100
AcDbEntity
  8
RACCORDO
100
AcDbLine
 62
7
  6
CONTINUOUS
 10
10.65
 20
-22.4
 11
10.65
 21
-24.2500042308
  0
LINE
  5
334
100
AcDbEntity
  8
RACCORDO
100
AcDbLine
 62
7
  6
CONTINUOUS
 10
10.65
 20
22.4
 11
10.65
 21
24.2500042308
  0
LINE
  5
335
100
AcDbEntity
  8
RACCORDO
100
AcDbLine
 62
7
  6
CONTINUOUS
 10
11.15
 20
21.9411874598
 11
11.15
 21
-21.9411874598
  0
LINE
  5
336
100
AcDbEntity
  8
RACCORDO
100
AcDbLine
 62
253
  6
CONTINUOUS
 10
10.4007229979
 20
-23.1226497308
 11
10.3949051681
 21
-23.7
  0
LINE
  5
337
100
AcDbEntity
  8
RACCORDO
100
AcDbLine
 62
253
  6
CONTINUOUS
 10
10.65
 20
-23.4104851482
 11
10.645628166
 21
-23.8443375673
  0
LINE
  5
338
100
AcDbEntity
  8
0
100
AcDbLine
 62
7
  6
CONTINUOUS
 10
7.2988376746
 20
-20.9104703804
 11
7.3209441873
 21
-20.7113319946
  0
LINE
  5
339
100
AcDbEntity
  8
RACCORDO
100
AcDbLine
 62
253
  6
CONTINUOUS
 10
-10.645628166
 20
-24.2456323968
 11
-10.65
 21
-24.2500042308
  0
LINE
  5
33A
100
AcDbEntity
  8
RACCORDO
100
AcDbLine
 62
253
  6
CONTINUOUS
 10
-10.3956323968
 20
-24.495628166
 11
-10.4000042308
 21
-24.5
  0
LINE
  5
33B
100
AcDbEntity
  8
RACCORDO
100
AcDbLine
 62
253
  6
CONTINUOUS
 10
-10.645628166
 20
24.2456323968
 11
-10.65
 21
24.2500042308
  0
LINE
  5
33C
100
AcDbEntity
  8
RACCORDO
100
AcDbLine
 62
253
  6
CONTINUOUS
 10
-10.3956323968
 20
24.495628166
 11
-10.4000042308
 21
24.5
  0
LINE
  5
33D
100
AcDbEntity
  8
RACCORDO
100
AcDbLine
 62
7
  6
CONTINUOUS
 10
7.3490220113
 20
20.4584032484
 11
7.2988376746
 21
20.9104703804
  0
LINE
  5
33E
100
AcDbEntity
  8
RACCORDO
100
AcDbLine
 62
7
  6
CONTINUOUS
 10
-9.529560052
 20
-19.3
 11
-9.5785103949
 21
-19.3244733075
  0
LINE
  5
33F
100
AcDbEntity
  8
DRAFT
100
AcDbLine
 62
7
  6
CONTINUOUS
 10
8.25
 20
-20.9
 11
8.2465127091
 21
-20.9104703804
  0
LINE
  5
340
100
AcDbEntity
  8
ASSI
100
AcDbLine
 62
7
  6
CONTINUOUS
 10
-4.4
 20
-23.8
 11
-4.3563493531
 21
-23.7563493531
  0
LINE
  5
341
100
AcDbEntity
  8
ASSI
100
AcDbLine
 62
7
  6
CONTINUOUS
 10
-4.4
 20
23.8
 11
-4.3563493531
 21
23.7563493531
  0
LINE
  5
342
100
AcDbEntity
  8
DRAFT
100
AcDbLine
 62
7
  6
CONTINUOUS
 10
8.2465127091
 20
20.9104703804
 11
8.25
 21
20.9
  0
LINE
  5
343
100
AcDbEntity
  8
RACCORDO
100
AcDbLine
 62
253
  6
CONTINUOUS
 10
4.1000076154
 20
-17.3
 11
4.0415223701
 21
-17.3584852453
  0
LINE
  5
344
100
AcDbEntity
  8
RACCORDO
100
AcDbLine
 62
253
  6
CONTINUOUS
 10
4.3
 20
-17.4999923846
 11
4.2415147547
 21
-17.5584776299
  0
LINE
  5
345
100
AcDbEntity
  8
RACCORDO
100
AcDbLine
 62
7
  6
CONTINUOUS
 10
7.1519773517
 20
16.5
 11
6.6480226483
 21
16.5
  0
LINE
  5
346
100
AcDbEntity
  8
RACCORDO
100
AcDbLine
 62
7
  6
CONTINUOUS
 10
-6.6480226483
 20
16.5
 11
-7.1519773517
 21
16.5
  0
LINE
  5
347
100
AcDbEntity
  8
RACCORDO
100
AcDbLine
 62
7
  6
CONTINUOUS
 10
7.3401430257
 20
-19.3
 11
7.3238277175
 21
-19.3244733075
  0
LINE
  5
348
100
AcDbEntity
  8
RACCORDO
100
AcDbLine
 62
7
  6
CONTINUOUS
 10
7.2429784985
 20
-20.9942603263
 11
7.2988376746
 21
-20.9104703804
  0
LINE
  5
349
100
AcDbEntity
  8
RACCORDO
100
AcDbLine
 62
7
  6
CONTINUOUS
 10
4.3
 20
-19.3
 11
4.2755266925
 21
-19.3244733075
  0
LINE
  5
34A
100
AcDbEntity
  8
RACCORDO
100
AcDbLine
 62
7
  6
CONTINUOUS
 10
4.2712013363
 20
-19.968583276
 11
4.2415147547
 21
-19.9982698575
  0
LINE
  5
34B
100
AcDbEntity
  8
RACCORDO
100
AcDbLine
 62
7
  6
CONTINUOUS
 10
7.2429784985
 20
20.9942603263
 11
7.2988376746
 21
20.9104703804
  0
LINE
  5
34C
100
AcDbEntity
  8
RACCORDO
100
AcDbLine
 62
253
  6
CONTINUOUS
 10
-6.4482213147
 20
19.4266752714
 11
6.4482213147
 21
19.4266752714
  0
LINE
  5
34D
100
AcDbEntity
  8
RACCORDO
100
AcDbLine
 62
253
  6
CONTINUOUS
 10
-7.0429818832
 20
19.803438311
 11
-6.7570181168
 21
19.803438311
  0
LINE
  5
34E
100
AcDbEntity
  8
RACCORDO
100
AcDbLine
 62
253
  6
CONTINUOUS
 10
6.7570181168
 20
19.803438311
 11
7.0429818832
 21
19.803438311
  0
LINE
  5
34F
100
AcDbEntity
  8
RACCORDO
100
AcDbLine
 62
253
  6
CONTINUOUS
 10
-6.4511048448
 20
19.9266562329
 11
6.4511048448
 21
19.9266562329
  0
LINE
  5
350
100
AcDbEntity
  8
SMUSSO
100
AcDbLine
 62
253
  6
CONTINUOUS
 10
9.2184401888
 20
19.959088481
 11
7.3517786853
 21
19.959088481
  0
LINE
  5
351
100
AcDbEntity
  8
SMUSSO
100
AcDbLine
 62
253
  6
CONTINUOUS
 10
-7.3517786853
 20
19.959088481
 11
-9.2184401888
 21
19.959088481
  0
LINE
  5
352
100
AcDbEntity
  8
RACCORDO
100
AcDbLine
 62
253
  6
CONTINUOUS
 10
6.5570215015
 20
20.0003998616
 11
7.2429784985
 21
20.0003998616
  0
LINE
  5
353
100
AcDbEntity
  8
RACCORDO
100
AcDbLine
 62
253
  6
CONTINUOUS
 10
-6.5570215015
 20
20.0003998616
 11
-7.2429784985
 21
20.0003998616
  0
LINE
  5
354
100
AcDbEntity
  8
RACCORDO
100
AcDbLine
 62
253
  6
CONTINUOUS
 10
-6.555294768
 20
20.0829433217
 11
6.555294768
 21
20.0829433217
  0
LINE
  5
355
100
AcDbEntity
  8
0
100
AcDbLine
 62
7
  6
CONTINUOUS
 10
9.5871617663
 20
-19.9603030484
 11
8.8370478331
 21
-20.7113319946
  0
LINE
  5
356
100
AcDbEntity
  8
SMUSSO
100
AcDbLine
 62
7
  6
CONTINUOUS
 10
9.65
 20
-20.1489710538
 11
8.8998860669
 21
-20.9
  0
LINE
  5
357
100
AcDbEntity
  8
RACCORDO
100
AcDbLine
 62
7
  6
CONTINUOUS
 10
7.2587268678
 20
-22.3912731322
 11
8.25
 21
-21.4
  0
LINE
  5
358
100
AcDbEntity
  8
SMUSSO
100
AcDbLine
 62
253
  6
CONTINUOUS
 10
8.7528067577
 20
20.4584032484
 11
7.3490220113
 21
20.4584032484
  0
LINE
  5
359
100
AcDbEntity
  8
SMUSSO
100
AcDbLine
 62
253
  6
CONTINUOUS
 10
-7.3490220113
 20
20.4584032484
 11
-8.7528067577
 21
20.4584032484
  0
LINE
  5
35A
100
AcDbEntity
  8
RACCORDO
100
AcDbLine
 62
253
  6
CONTINUOUS
 10
-6.7570181168
 20
20.5829242832
 11
6.7570181168
 21
20.5829242832
  0
LINE
  5
35B
100
AcDbEntity
  8
SMUSSO
100
AcDbLine
 62
7
  6
CONTINUOUS
 10
-8.8998860669
 20
20.9
 11
-8.25
 21
20.9
  0
LINE
  5
35C
100
AcDbEntity
  8
SMUSSO
100
AcDbLine
 62
7
  6
CONTINUOUS
 10
8.25
 20
20.9
 11
8.8998860669
 21
20.9
  0
LINE
  5
35D
100
AcDbEntity
  8
DRAFT
100
AcDbLine
 62
7
  6
CONTINUOUS
 10
8.2465127091
 20
20.9104703804
 11
7.2988376746
 21
20.9104703804
  0
LINE
  5
35E
100
AcDbEntity
  8
DRAFT
100
AcDbLine
 62
7
  6
CONTINUOUS
 10
-7.2988376746
 20
20.9104703804
 11
-8.2465127091
 21
20.9104703804
  0
LINE
  5
35F
100
AcDbEntity
  8
RACCORDO
100
AcDbLine
 62
7
  6
CONTINUOUS
 10
-7.5841007192
 20
20.9959955457
 11
-7.0429818832
 21
20.9959955457
  0
LINE
  5
360
100
AcDbEntity
  8
RACCORDO
100
AcDbLine
 62
7
  6
CONTINUOUS
 10
7.0429818832
 20
20.9959955457
 11
7.5841007192
 21
20.9959955457
  0
LINE
  5
361
100
AcDbEntity
  8
0
100
AcDbLine
 62
7
  6
CONTINUOUS
 10
-3.0
 20
21.0
 11
3.0
 21
21.0
  0
LINE
  5
362
100
AcDbEntity
  8
RACCORDO
100
AcDbLine
 62
253
  6
CONTINUOUS
 10
7.5841007192
 20
21.3126932437
 11
3.0
 21
21.3126932437
  0
LINE
  5
363
100
AcDbEntity
  8
RACCORDO
100
AcDbLine
 62
253
  6
CONTINUOUS
 10
-3.0
 20
21.3126932437
 11
-7.5841007192
 21
21.3126932437
  0
LINE
  5
364
100
AcDbEntity
  8
0
100
AcDbLine
 62
7
  6
CONTINUOUS
 10
-3.0
 20
21.7
 11
3.0
 21
21.7
  0
LINE
  5
365
100
AcDbEntity
  8
RACCORDO
100
AcDbLine
 62
7
  6
CONTINUOUS
 10
8.25
 20
21.4
 11
7.2587268678
 21
22.3912731322
  0
LINE
  5
366
100
AcDbEntity
  8
SMUSSO
100
AcDbLine
 62
7
  6
CONTINUOUS
 10
9.4946499221
 20
19.6825418182
 11
9.2184401888
 21
19.959088481
  0
LINE
  5
367
100
AcDbEntity
  8
SMUSSO
100
AcDbLine
 62
7
  6
CONTINUOUS
 10
9.65
 20
20.1489710538
 11
8.8998860669
 21
20.9
  0
LINE
  5
368
100
AcDbEntity
  8
RACCORDO
100
AcDbLine
 62
253
  6
CONTINUOUS
 10
8.254371834
 20
-24.2456323968
 11
8.25
 21
-24.2500042308
  0
LINE
  5
369
100
AcDbEntity
  8
RACCORDO
100
AcDbLine
 62
253
  6
CONTINUOUS
 10
8.5043676032
 20
-24.495628166
 11
8.4999957692
 21
-24.5
  0
LINE
  5
36A
100
AcDbEntity
  8
RACCORDO
100
AcDbLine
 62
7
  6
CONTINUOUS
 10
8.0840245667
 20
-20.9917082642
 11
8.2465127091
 21
-20.9104703804
  0
LINE
  5
36B
100
AcDbEntity
  8
RACCORDO
100
AcDbLine
 62
253
  6
CONTINUOUS
 10
7.3373448332
 20
22.3126551668
 11
3.0
 21
22.3126551668
  0
LINE
  5
36C
100
AcDbEntity
  8
RACCORDO
100
AcDbLine
 62
253
  6
CONTINUOUS
 10
-3.0
 20
22.3126551668
 11
-7.3373448332
 21
22.3126551668
  0
LINE
  5
36D
100
AcDbEntity
  8
RACCORDO
100
AcDbLine
 62
7
  6
CONTINUOUS
 10
10.6998629074
 20
22.3912731322
 11
7.2587268678
 21
22.3912731322
  0
LINE
  5
36E
100
AcDbEntity
  8
DRAFT
100
AcDbLine
 62
7
  6
CONTINUOUS
 10
3.5
 20
22.3912731322
 11
3.0
 21
22.3912731322
  0
LINE
  5
36F
100
AcDbEntity
  8
DRAFT
100
AcDbLine
 62
7
  6
CONTINUOUS
 10
-3.0
 20
22.3912731322
 11
-3.5
 21
22.3912731322
  0
LINE
  5
370
100
AcDbEntity
  8
RACCORDO
100
AcDbLine
 62
7
  6
CONTINUOUS
 10
-7.2587268678
 20
22.3912731322
 11
-10.6998629074
 21
22.3912731322
  0
LINE
  5
371
100
AcDbEntity
  8
RACCORDO
100
AcDbLine
 62
7
  6
CONTINUOUS
 10
-10.6824078424
 20
22.4
 11
-10.65
 21
22.4
  0
LINE
  5
372
100
AcDbEntity
  8
DRAFT
100
AcDbLine
 62
7
  6
CONTINUOUS
 10
4.4
 20
22.4
 11
10.65
 21
22.4
  0
LINE
  5
373
100
AcDbEntity
  8
RACCORDO
100
AcDbLine
 62
7
  6
CONTINUOUS
 10
10.65
 20
22.4
 11
10.6824078424
 21
22.4
  0
LINE
  5
374
100
AcDbEntity
  8
DRAFT
100
AcDbLine
 62
7
  6
CONTINUOUS
 10
-4.4
 20
22.4
 11
-10.65
 21
22.4
  0
LINE
  5
375
100
AcDbEntity
  8
RACCORDO
100
AcDbLine
 62
7
  6
CONTINUOUS
 10
10.4007229979
 20
23.1226497308
 11
8.4992770021
 21
23.1226497308
  0
LINE
  5
376
100
AcDbEntity
  8
RACCORDO
100
AcDbLine
 62
7
  6
CONTINUOUS
 10
-8.4992770021
 20
23.1226497308
 11
-10.4007229979
 21
23.1226497308
  0
LINE
  5
377
100
AcDbEntity
  8
RACCORDO
100
AcDbLine
 62
253
  6
CONTINUOUS
 10
-10.3956323968
 20
23.6278312164
 11
-8.5043676032
 21
23.6278312164
  0
LINE
  5
378
100
AcDbEntity
  8
RACCORDO
100
AcDbLine
 62
253
  6
CONTINUOUS
 10
8.5043676032
 20
23.6278312164
 11
10.3956323968
 21
23.6278312164
  0
LINE
  5
379
100
AcDbEntity
  8
ASSI
100
AcDbLine
 62
253
  6
CONTINUOUS
 10
-4.3563493531
 20
23.7563493531
 11
-3.5
 21
23.7563493531
  0
LINE
  5
37A
100
AcDbEntity
  8
ASSI
100
AcDbLine
 62
253
  6
CONTINUOUS
 10
3.5
 20
23.7563493531
 11
4.3563493531
 21
23.7563493531
  0
LINE
  5
37B
100
AcDbEntity
  8
DRAFT
100
AcDbLine
 62
7
  6
CONTINUOUS
 10
-3.5
 20
23.7941821702
 11
3.5
 21
23.7941821702
  0
LINE
  5
37C
100
AcDbEntity
  8
DRAFT
100
AcDbLine
 62
7
  6
CONTINUOUS
 10
4.4
 20
23.8
 11
-4.4
 21
23.8
  0
LINE
  5
37D
100
AcDbEntity
  8
RACCORDO
100
AcDbLine
 62
253
  6
CONTINUOUS
 10
8.254371834
 20
23.8443375673
 11
10.645628166
 21
23.8443375673
  0
LINE
  5
37E
100
AcDbEntity
  8
RACCORDO
100
AcDbLine
 62
253
  6
CONTINUOUS
 10
-8.254371834
 20
23.8443375673
 11
-10.645628166
 21
23.8443375673
  0
LINE
  5
37F
100
AcDbEntity
  8
RACCORDO
100
AcDbLine
 62
7
  6
CONTINUOUS
 10
8.0840245667
 20
20.9917082642
 11
8.2465127091
 21
20.9104703804
  0
LINE
  5
380
100
AcDbEntity
  8
RACCORDO
100
AcDbLine
 62
253
  6
CONTINUOUS
 10
8.254371834
 20
24.2456323968
 11
8.25
 21
24.2500042308
  0
LINE
  5
381
100
AcDbEntity
  8
RACCORDO
100
AcDbLine
 62
253
  6
CONTINUOUS
 10
8.5043676032
 20
24.495628166
 11
8.4999957692
 21
24.5
  0
LINE
  5
382
100
AcDbEntity
  8
RACCORDO
100
AcDbLine
 62
253
  6
CONTINUOUS
 10
10.6998629074
 20
-22.3912731322
 11
10.6824078424
 21
-22.4
  0
LINE
  5
383
100
AcDbEntity
  8
RACCORDO
100
AcDbLine
 62
253
  6
CONTINUOUS
 10
8.254371834
 20
24.2456323968
 11
10.645628166
 21
24.2456323968
  0
LINE
  5
384
100
AcDbEntity
  8
RACCORDO
100
AcDbLine
 62
253
  6
CONTINUOUS
 10
-8.254371834
 20
24.2456323968
 11
-10.645628166
 21
24.2456323968
  0
LINE
  5
385
100
AcDbEntity
  8
RACCORDO
100
AcDbLine
 62
253
  6
CONTINUOUS
 10
10.3956323968
 20
24.495628166
 11
8.5043676032
 21
24.495628166
  0
LINE
  5
386
100
AcDbEntity
  8
RACCORDO
100
AcDbLine
 62
253
  6
CONTINUOUS
 10
-8.5043676032
 20
24.495628166
 11
-10.3956323968
 21
24.495628166
  0
LINE
  5
387
100
AcDbEntity
  8
RACCORDO
100
AcDbLine
 62
7
  6
CONTINUOUS
 10
10.4000042308
 20
24.5
 11
8.4999957692
 21
24.5
  0
LINE
  5
388
100
AcDbEntity
  8
RACCORDO
100
AcDbLine
 62
7
  6
CONTINUOUS
 10
-8.4999957692
 20
24.5
 11
-10.4000042308
 21
24.5
  0
LINE
  5
389
100
AcDbEntity
  8
RACCORDO
100
AcDbLine
 62
253
  6
CONTINUOUS
 10
10.6824078424
 20
22.4
 11
10.6998629074
 21
22.3912731322
  0
ARC
  5
38A
100
AcDbEntity
  8
RACCORDO
100
AcDbCircle
 62
7
  6
CONTINUOUS
 10
-10.6824677738
 20
-21.9501104357
 40
0.4498895683
100
AcDbArc
 50
243.4345017646
 51
270.0076325678
  0
ARC
  5
38B
100
AcDbEntity
  8
RACCORDO
100
AcDbCircle
 62
7
  6
CONTINUOUS
 10
-3.1
 20
-14.1
 40
0.3
100
AcDbArc
 50
90.0
 51
180.0
  0
ARC
  5
38C
100
AcDbEntity
  8
RACCORDO
100
AcDbCircle
 62
253
  6
CONTINUOUS
 10
-8.5043778172
 20
-24.2456221828
 40
0.2500059834
100
AcDbArc
 50
270.0023408263
 51
359.9976591737
  0
ARC
  5
38D
100
AcDbEntity
  8
RACCORDO
100
AcDbCircle
 62
253
  6
CONTINUOUS
 10
-10.3956221828
 20
-24.2456221828
 40
0.2500059834
100
AcDbArc
 50
180.0023408263
 51
269.9976591737
  0
ARC
  5
38E
100
AcDbEntity
  8
RACCORDO
100
AcDbCircle
 62
7
  6
CONTINUOUS
 10
-8.4999946513
 20
-24.2500053487
 40
0.2499946513
100
AcDbArc
 50
269.9997437926
 51
0.0002562074
  0
ARC
  5
38F
100
AcDbEntity
  8
RACCORDO
100
AcDbCircle
 62
7
  6
CONTINUOUS
 10
-10.4000053487
 20
-24.2500053487
 40
0.2499946513
100
AcDbArc
 50
179.9997437926
 51
270.0002562074
  0
ARC
  5
390
100
AcDbEntity
  8
RACCORDO
100
AcDbCircle
 62
253
  6
CONTINUOUS
 10
-4.0415026861
 20
-17.5584973139
 40
0.2000120696
100
AcDbArc
 50
90.0056387084
 51
179.9943612916
  0
ARC
  5
391
100
AcDbEntity
  8
RACCORDO
100
AcDbCircle
 62
7
  6
CONTINUOUS
 10
-10.6824679006
 20
21.950110973
 40
0.449889031
100
AcDbArc
 50
89.992351277
 51
116.5654995769
  0
ARC
  5
392
100
AcDbEntity
  8
RACCORDO
100
AcDbCircle
 62
253
  6
CONTINUOUS
 10
-8.5043778172
 20
24.2456221828
 40
0.2500059834
100
AcDbArc
 50
0.0023408215
 51
89.9976591785
  0
ARC
  5
393
100
AcDbEntity
  8
RACCORDO
100
AcDbCircle
 62
253
  6
CONTINUOUS
 10
-10.3956221828
 20
24.2456221828
 40
0.2500059834
100
AcDbArc
 50
90.0023408215
 51
179.9976591785
  0
ARC
  5
394
100
AcDbEntity
  8
RACCORDO
100
AcDbCircle
 62
7
  6
CONTINUOUS
 10
-8.4999946513
 20
24.2500053487
 40
0.2499946513
100
AcDbArc
 50
359.9997437926
 51
90.0002562074
  0
ARC
  5
395
100
AcDbEntity
  8
RACCORDO
100
AcDbCircle
 62
7
  6
CONTINUOUS
 10
-10.4000053487
 20
24.2500053487
 40
0.2499946513
100
AcDbArc
 50
89.9997437926
 51
180.0002562074
  0
ARC
  5
396
100
AcDbEntity
  8
RACCORDO
100
AcDbCircle
 62
7
  6
CONTINUOUS
 10
10.6824667957
 20
-21.9501062898
 40
0.4498937141
100
AcDbArc
 50
269.9924920607
 51
296.565490773
  0
ARC
  5
397
100
AcDbEntity
  8
RACCORDO
100
AcDbCircle
 62
7
  6
CONTINUOUS
 10
3.1
 20
-14.1
 40
0.3
100
AcDbArc
 50
0.0
 51
90.0
  0
ARC
  5
398
100
AcDbEntity
  8
RACCORDO
100
AcDbCircle
 62
253
  6
CONTINUOUS
 10
8.5043778172
 20
-24.2456221828
 40
0.2500059834
100
AcDbArc
 50
180.0023408215
 51
269.9976591785
  0
ARC
  5
399
100
AcDbEntity
  8
RACCORDO
100
AcDbCircle
 62
253
  6
CONTINUOUS
 10
10.3956221828
 20
-24.2456221828
 40
0.2500059834
100
AcDbArc
 50
270.0023408263
 51
359.9976591737
  0
ARC
  5
39A
100
AcDbEntity
  8
RACCORDO
100
AcDbCircle
 62
7
  6
CONTINUOUS
 10
8.4999946513
 20
-24.2500053487
 40
0.2499946513
100
AcDbArc
 50
179.9997437926
 51
270.0002562074
  0
ARC
  5
39B
100
AcDbEntity
  8
RACCORDO
100
AcDbCircle
 62
7
  6
CONTINUOUS
 10
10.4000053487
 20
-24.2500053487
 40
0.2499946513
100
AcDbArc
 50
269.9997437926
 51
0.0002562074
  0
ARC
  5
39C
100
AcDbEntity
  8
RACCORDO
100
AcDbCircle
 62
253
  6
CONTINUOUS
 10
4.0415026864
 20
-17.5584973136
 40
0.2000120693
100
AcDbArc
 50
0.0056386433
 51
89.9943613567
  0
CIRCLE
  5
39D
100
AcDbEntity
  8
DRAFT
100
AcDbCircle
 62
7
  6
CONTINUOUS
 10
-0.0
 20
-0.0
 40
7.65
  0
CIRCLE
  5
39E
100
AcDbEntity
  8
RACCORDO
100
AcDbCircle
 62
253
  6
CONTINUOUS
 10
-0.0
 20
-0.0
 40
7.6473590931
  0
CIRCLE
  5
39F
100
AcDbEntity
  8
RACCORDO
100
AcDbCircle
 62
253
  6
CONTINUOUS
 10
-0.0
 20
-0.0
 40
7.347370515
  0
ARC
  5
3A0
100
AcDbEntity
  8
DRAFT
100
AcDbCircle
 62
7
  6
CONTINUOUS
 10
-0.0
 20
-0.0
 40
7.25
100
AcDbArc
 50
320.5711429466
 51
39.4288570534
  0
ARC
  5
3A1
100
AcDbEntity
  8
DRAFT
100
AcDbCircle
 62
7
  6
CONTINUOUS
 10
-0.0
 20
-0.0
 40
7.25
100
AcDbArc
 50
140.5711429466
 51
219.4288570534
  0
ARC
  5
3A2
100
AcDbEntity
  8
DRAFT
100
AcDbCircle
 62
7
  6
CONTINUOUS
 10
-0.0
 20
-0.0
 40
7.2386550719
100
AcDbArc
 50
320.8224109434
 51
39.1775890566
  0
ARC
  5
3A3
100
AcDbEntity
  8
DRAFT
100
AcDbCircle
 62
7
  6
CONTINUOUS
 10
-0.0
 20
-0.0
 40
7.2386550719
100
AcDbArc
 50
140.8224109434
 51
219.1775890566
  0
ARC
  5
3A4
100
AcDbEntity
  8
0
100
AcDbCircle
 62
7
  6
CONTINUOUS
 10
-0.0
 20
-0.0
 40
4.65
100
AcDbArc
 50
156.1979505538
 51
156.1154273186
  0
ARC
  5
3A5
100
AcDbEntity
  8
RACCORDO
100
AcDbCircle
 62
7
  6
CONTINUOUS
 10
10.6824671622
 20
21.9501078441
 40
0.4498921598
100
AcDbArc
 50
63.4345097794
 51
90.0075546355
  0
ARC
  5
3A6
100
AcDbEntity
  8
RACCORDO
100
AcDbCircle
 62
253
  6
CONTINUOUS
 10
10.3956221828
 20
24.2456221828
 40
0.2500059834
100
AcDbArc
 50
0.0023408263
 51
89.9976591737
  0
ARC
  5
3A7
100
AcDbEntity
  8
RACCORDO
100
AcDbCircle
 62
253
  6
CONTINUOUS
 10
8.5043778172
 20
24.2456221828
 40
0.2500059834
100
AcDbArc
 50
90.0023408263
 51
179.9976591737
  0
ARC
  5
3A8
100
AcDbEntity
  8
RACCORDO
100
AcDbCircle
 62
7
  6
CONTINUOUS
 10
8.4999946513
 20
24.2500053487
 40
0.2499946513
100
AcDbArc
 50
89.9997437926
 51
180.0002562074
  0
ARC
  5
3A9
100
AcDbEntity
  8
RACCORDO
100
AcDbCircle
 62
7
  6
CONTINUOUS
 10
10.4000053487
 20
24.2500053487
 40
0.2499946513
100
AcDbArc
 50
359.9997437926
 51
90.0002562074
  0
SPLINE
  5
3AA
100
AcDbEntity
  8
0
100
AcDbSpline
 62
7
  6
CONTINUOUS
 70
0
 71
3
 72
27
 73
23
 74
21
 42
0.0000001
 43
0.0000001
 44
0.0000000001
 12
-4.4789125685
 22
-11.171244319
 32
0.0
 13
8.6204148107
 23
8.399155072
 33
0.0
 40
0.0
 40
0.0
 40
0.0
 40
0.0
 40
0.0624983279
 40
0.0937754406
 40
0.1250469678
 40
0.1875430585
 40
0.2500392201
 40
0.2813139969
 40
0.3125883806
 40
0.3750821833
 40
0.437575486
 40
0.5000671825
 40
0.562558627
 40
0.6250502752
 40
0.687542315
 40
0.7188169654
 40
0.7500898725
 40
0.8125666253
 40
0.8750302573
 40
0.9062895627
 40
0.9375461796
 40
1.0
 40
1.0
 40
1.0
 40
1.0
 10
-4.2517879942
 20
1.882763621
 30
0.0
 10
-4.3450961763
 20
1.6500355908
 30
0.0
 10
-4.4570213712
 20
1.2885689808
 30
0.0
 10
-4.5458980327
 20
0.7944228684
 30
0.0
 10
-4.5942206658
 20
0.2945778968
 30
0.0
 10
-4.577502414
 20
-0.335106709
 30
0.0
 10
-4.4575054983
 20
-0.9535515891
 30
0.0
 10
-4.3014024288
 20
-1.4308493189
 30
0.0
 10
-4.1062658589
 20
-1.8935394694
 30
0.0
 10
-3.7908115803
 20
-2.4389775339
 30
0.0
 10
-3.3084305434
 20
-3.0206062389
 30
0.0
 10
-2.7350190846
 20
-3.512921526
 30
0.0
 10
-2.0865034107
 20
-3.9010757784
 30
0.0
 10
-1.3814122781
 20
-4.1731237747
 30
0.0
 10
-0.7631655325
 20
-4.2957549894
 30
0.0
 10
-0.262061621
 20
-4.3287807477
 30
0.0
 10
0.2399652038
 20
-4.318174652
 30
0.0
 10
0.8628253518
 20
-4.2228136302
 30
0.0
 10
1.4593689481
 20
-4.0199016266
 30
0.0
 10
1.9090777703
 20
-3.7968043203
 30
0.0
 10
2.3371555843
 20
-3.5349177827
 30
0.0
 10
2.6308892673
 20
-3.2960613744
 30
0.0
 10
2.8103485467
 20
-3.121208267
 30
0.0
 11
-4.2517879942
 21
1.882763621
 31
0.0
 11
-4.4741752163
 21
1.1641798059
 31
0.0
 11
-4.5408299118
 21
0.7936869064
 31
0.0
 11
-4.5770081445
 21
0.4190559358
 31
0.0
 11
-4.5568503128
 21
-0.3328562464
 31
0.0
 11
-4.4135178262
 21
-1.0712567818
 31
0.0
 11
-4.2965201608
 21
-1.4290251666
 31
0.0
 11
-4.1502060468
 21
-1.7758324463
 31
0.0
 11
-3.7734925059
 21
-2.4268499197
 31
0.0
 11
-3.2932531873
 21
-3.005726405
 31
0.0
 11
-2.7225000559
 21
-3.4955626767
 31
0.0
 11
-2.0770751259
 21
-3.8817243094
 31
0.0
 11
-1.3753026121
 21
-4.1523036414
 31
0.0
 11
-0.6375279874
 21
-4.298568905
 31
0.0
 11
-0.2619315359
 21
-4.3233243385
 31
0.0
 11
0.1143741329
 21
-4.3153384693
 31
0.0
 11
0.8576249148
 21
-4.20129258
 31
0.0
 11
1.5693476498
 21
-3.9591325681
 31
0.0
 11
1.9063864077
 21
-3.7919458499
 31
0.0
 11
2.227257574
 21
-3.5955689913
 31
0.0
 11
2.8103485467
 21
-3.121208267
 31
0.0
  0
SPLINE
  5
3AB
100
AcDbEntity
  8
0
100
AcDbSpline
 62
7
  6
CONTINUOUS
 70
0
 71
3
 72
26
 73
22
 74
20
 42
0.0000001
 43
0.0000001
 44
0.0000000001
 12
9.2537212707
 22
7.69482385
 32
0.0
 13
-11.5775940263
 23
-3.2864856609
 33
0.0
 40
0.0
 40
0.0
 40
0.0
 40
0.0
 40
0.0624600235
 40
0.0937190362
 40
0.1249793245
 40
0.1874431846
 40
0.2499217805
 40
0.2811962371
 40
0.3124724222
 40
0.3749669116
 40
0.4374627227
 40
0.4999581307
 40
0.5624541784
 40
0.624952292
 40
0.6874503912
 40
0.7499480702
 40
0.8124456916
 40
0.8749467669
 40
0.9062218902
 40
0.9375000218
 40
1.0
 40
1.0
 40
1.0
 40
1.0
 10
2.8103485467
 20
-3.121208267
 30
0.0
 10
3.0030110959
 20
-2.9610019743
 30
0.0
 10
3.2712714728
 20
-2.6938331202
 30
0.0
 10
3.5764734152
 20
-2.2954636639
 30
0.0
 10
3.8453450392
 20
-1.8715461267
 30
0.0
 10
4.10948563
 20
-1.2995001367
 30
0.0
 10
4.269452862
 20
-0.6900431554
 30
0.0
 10
4.3324416508
 20
-0.1918787082
 30
0.0
 10
4.3520181386
 20
0.3099250114
 30
0.0
 10
4.2946645995
 20
0.9376034425
 30
0.0
 10
4.0978193007
 20
1.6672701077
 30
0.0
 10
3.779571435
 20
2.352819067
 30
0.0
 10
3.3499029593
 20
2.9745490464
 30
0.0
 10
2.8218010727
 20
3.515132874
 30
0.0
 10
2.2107990317
 20
3.95980432
 30
0.0
 10
1.5344206147
 20
4.2967517603
 30
0.0
 10
0.8118079187
 20
4.5173707616
 30
0.0
 10
0.1872480354
 20
4.5998467776
 30
0.0
 10
-0.3149125533
 20
4.6040322466
 30
0.0
 10
-0.8156421016
 20
4.5672972896
 30
0.0
 10
-1.1868169884
 20
4.49376707
 30
0.0
 10
-1.4280167796
 20
4.4252986427
 30
0.0
 11
2.8103485467
 21
-3.121208267
 31
0.0
 11
3.3430821207
 21
-2.5908695392
 31
0.0
 11
3.57192601
 21
-2.2922744623
 31
0.0
 11
3.7734191881
 21
-1.9745629667
 31
0.0
 11
4.0886313438
 21
-1.2920859013
 31
0.0
 11
4.2797460615
 21
-0.5648476425
 31
0.0
 11
4.3270111044
 21
-0.1914384255
 31
0.0
 11
4.3416688548
 21
0.18468554
 31
0.0
 11
4.2733266389
 21
0.9336964571
 31
0.0
 11
4.0775853058
 21
1.6599176844
 31
0.0
 11
3.761003497
 21
2.3421790722
 31
0.0
 11
3.3335037843
 21
2.9610168705
 31
0.0
 11
2.807985071
 21
3.4991466945
 31
0.0
 11
2.1999012434
 21
3.941851364
 31
0.0
 11
1.526716617
 21
4.2773632355
 31
0.0
 11
0.8073663629
 21
4.4970901742
 31
0.0
 11
0.0616611762
 21
4.5957361185
 31
0.0
 11
-0.3147220847
 21
4.5989154103
 31
0.0
 11
-0.6901446042
 21
4.5713535508
 31
0.0
 11
-1.4280167796
 21
4.4252986427
 31
0.0
  0
SPLINE
  5
3AC
100
AcDbEntity
  8
RACCORDO
100
AcDbSpline
 62
253
  6
CONTINUOUS
 70
0
 71
3
 72
13
 73
9
 74
7
 42
0.0000001
 43
0.0000001
 44
0.0000000001
 12
0.0003184499
 22
0.310438796
 32
0.0
 13
0.3104388057
 23
0.0003088579
 33
0.0
 40
0.0
 40
0.0
 40
0.0
 40
0.0
 40
0.124331333
 40
0.2488209819
 40
0.3736003526
 40
0.4987329167
 40
0.7488886428
 40
1.0
 40
1.0
 40
1.0
 40
1.0
 10
6.5570215015
 20
-20.0003998616
 30
0.0
 10
6.5570346992
 20
-19.9875341052
 30
0.0
 10
6.5596408183
 20
-19.9617152815
 30
0.0
 10
6.5711296169
 20
-19.9245490894
 30
0.0
 10
6.5897659809
 20
-19.8902813838
 30
0.0
 10
6.6230778273
 20
-19.8503092953
 30
0.0
 10
6.6786394267
 20
-19.8136739541
 30
0.0
 10
6.7310332136
 20
-19.8034641636
 30
0.0
 10
6.7570181168
 20
-19.803438311
 30
0.0
 11
6.5570215015
 21
-20.0003998616
 31
0.0
 11
6.5608989349
 21
-19.9619978268
 31
0.0
 11
6.5723035283
 21
-19.925072465
 31
0.0
 11
6.5907974502
 21
-19.891035987
 31
0.0
 11
6.6156709125
 21
-19.8611976832
 31
0.0
 11
6.6805299681
 21
-19.8184884242
 31
0.0
 11
6.7570181168
 21
-19.803438311
 31
0.0
  0
SPLINE
  5
3AD
100
AcDbEntity
  8
RACCORDO
100
AcDbSpline
 62
253
  6
CONTINUOUS
 70
0
 71
3
 72
13
 73
9
 74
7
 42
0.0000001
 43
0.0000001
 44
0.0000000001
 12
-0.3104388057
 22
0.0003088579
 32
0.0
 13
-0.0003184499
 23
0.310438796
 33
0.0
 40
0.0
 40
0.0
 40
0.0
 40
0.0
 40
0.2511113572
 40
0.5012670833
 40
0.6263996474
 40
0.7511790181
 40
0.875668667
 40
1.0
 40
1.0
 40
1.0
 40
1.0
 10
-7.0429818832
 20
19.803438311
 30
0.0
 10
-7.0689667864
 20
19.8034641636
 30
0.0
 10
-7.1213605733
 20
19.8136739541
 30
0.0
 10
-7.1769221727
 20
19.8503092953
 30
0.0
 10
-7.2102340191
 20
19.8902813838
 30
0.0
 10
-7.2288703831
 20
19.9245490894
 30
0.0
 10
-7.2403591817
 20
19.9617152815
 30
0.0
 10
-7.2429653008
 20
19.9875341052
 30
0.0
 10
-7.2429784985
 20
20.0003998616
 30
0.0
 11
-7.0429818832
 21
19.803438311
 31
0.0
 11
-7.1194700319
 21
19.8184884242
 31
0.0
 11
-7.1843290875
 21
19.8611976832
 31
0.0
 11
-7.2092025498
 21
19.891035987
 31
0.0
 11
-7.2276964717
 21
19.925072465
 31
0.0
 11
-7.2391010651
 21
19.9619978268
 31
0.0
 11
-7.2429784985
 21
20.0003998616
 31
0.0
  0
SPLINE
  5
3AE
100
AcDbEntity
  8
RACCORDO
100
AcDbSpline
 62
7
  6
CONTINUOUS
 70
0
 71
3
 72
13
 73
9
 74
7
 42
0.0000001
 43
0.0000001
 44
0.0000000001
 12
0.2404631898
 22
-0.3802056866
 32
0.0
 13
0.0034684619
 23
-0.4498520641
 33
0.0
 40
0.0
 40
0.0
 40
0.0
 40
0.0
 40
0.2817068086
 40
0.5530901411
 40
0.6807341157
 40
0.7998364256
 40
0.9072592649
 40
1.0
 40
1.0
 40
1.0
 40
1.0
 10
-6.7570181168
 20
20.5829242832
 30
0.0
 10
-6.7344380776
 20
20.5472221063
 30
0.0
 10
-6.6901118765
 20
20.4771294593
 30
0.0
 10
-6.6375719199
 20
20.3895555204
 30
0.0
 10
-6.601032911
 20
20.3209692343
 30
0.0
 10
-6.5786740173
 20
20.2727280083
 30
0.0
 10
-6.5625557468
 20
20.227604309
 30
0.0
 10
-6.557128724
 20
20.19770613
 30
0.0
 10
-6.5570215015
 20
20.1837995929
 30
0.0
 11
-6.7570181168
 21
20.5829242832
 31
0.0
 11
-6.6897094469
 21
20.4755460946
 31
0.0
 11
-6.6277072327
 21
20.370376174
 31
0.0
 11
-6.600918544
 21
20.3195852048
 31
0.0
 11
-6.5787285444
 21
20.2708161403
 31
0.0
 11
-6.5631619655
 21
20.2250660941
 31
0.0
 11
-6.5570215015
 21
20.1837995929
 31
0.0
  0
SPLINE
  5
3AF
100
AcDbEntity
  8
RACCORDO
100
AcDbSpline
 62
253
  6
CONTINUOUS
 70
0
 71
3
 72
13
 73
9
 74
7
 42
0.0000001
 43
0.0000001
 44
0.0000000001
 12
-0.0003184499
 22
-0.310438796
 32
0.0
 13
-0.3104388057
 23
-0.0003088579
 33
0.0
 40
0.0
 40
0.0
 40
0.0
 40
0.0
 40
0.124331333
 40
0.2488209819
 40
0.3736003526
 40
0.4987329167
 40
0.7488886428
 40
1.0
 40
1.0
 40
1.0
 40
1.0
 10
-6.5570215015
 20
20.0003998616
 30
0.0
 10
-6.5570346992
 20
19.9875341052
 30
0.0
 10
-6.5596408183
 20
19.9617152815
 30
0.0
 10
-6.5711296169
 20
19.9245490894
 30
0.0
 10
-6.5897659809
 20
19.8902813838
 30
0.0
 10
-6.6230778273
 20
19.8503092953
 30
0.0
 10
-6.6786394267
 20
19.8136739541
 30
0.0
 10
-6.7310332136
 20
19.8034641636
 30
0.0
 10
-6.7570181168
 20
19.803438311
 30
0.0
 11
-6.5570215015
 21
20.0003998616
 31
0.0
 11
-6.5608989349
 21
19.9619978268
 31
0.0
 11
-6.5723035283
 21
19.925072465
 31
0.0
 11
-6.5907974502
 21
19.891035987
 31
0.0
 11
-6.6156709125
 21
19.8611976832
 31
0.0
 11
-6.6805299681
 21
19.8184884242
 31
0.0
 11
-6.7570181168
 21
19.803438311
 31
0.0
  0
SPLINE
  5
3B0
100
AcDbEntity
  8
RACCORDO
100
AcDbSpline
 62
253
  6
CONTINUOUS
 70
0
 71
3
 72
13
 73
9
 74
7
 42
0.0000001
 43
0.0000001
 44
0.0000000001
 12
0.3104388025
 22
0.0003088579
 32
0.0
 13
0.0003184499
 23
0.3104387928
 33
0.0
 40
0.0
 40
0.0
 40
0.0
 40
0.0
 40
0.2511115874
 40
0.5012675322
 40
0.6264002129
 40
0.751179626
 40
0.8756693292
 40
1.0
 40
1.0
 40
1.0
 40
1.0
 10
7.0429818832
 20
19.803438311
 30
0.0
 10
7.06896681
 20
19.8034641636
 30
0.0
 10
7.1213606437
 20
19.8136739719
 30
0.0
 10
7.1769222787
 20
19.8503093759
 30
0.0
 10
7.2102341108
 20
19.8902815268
 30
0.0
 10
7.2288704595
 20
19.9245492657
 30
0.0
 10
7.2403591968
 20
19.9617154154
 30
0.0
 10
7.2429653008
 20
19.9875341738
 30
0.0
 10
7.2429784985
 20
20.0003998616
 30
0.0
 11
7.0429818832
 21
19.803438311
 31
0.0
 11
7.1194700987
 21
19.8184884506
 31
0.0
 11
7.1843291873
 21
19.8611977815
 31
0.0
 11
7.2092026457
 21
19.8910361351
 31
0.0
 11
7.2276965442
 21
19.9250726403
 31
0.0
 11
7.2391011032
 21
19.96199803
 31
0.0
 11
7.2429784985
 21
20.0003998616
 31
0.0
  0
SPLINE
  5
3B1
100
AcDbEntity
  8
RACCORDO
100
AcDbSpline
 62
253
  6
CONTINUOUS
 70
0
 71
3
 72
13
 73
9
 74
7
 42
0.0000001
 43
0.0000001
 44
0.0000000001
 12
0.0003184499
 22
-0.3104387928
 32
0.0
 13
0.3104388025
 23
-0.0003088579
 33
0.0
 40
0.0
 40
0.0
 40
0.0
 40
0.0
 40
0.1243306708
 40
0.248820374
 40
0.3735997871
 40
0.4987324678
 40
0.7488884126
 40
1.0
 40
1.0
 40
1.0
 40
1.0
 10
6.5570215015
 20
20.0003998616
 30
0.0
 10
6.5570346992
 20
19.9875341738
 30
0.0
 10
6.5596408032
 20
19.9617154154
 30
0.0
 10
6.5711295405
 20
19.9245492657
 30
0.0
 10
6.5897658892
 20
19.8902815268
 30
0.0
 10
6.6230777213
 20
19.8503093759
 30
0.0
 10
6.6786393563
 20
19.8136739719
 30
0.0
 10
6.73103319
 20
19.8034641636
 30
0.0
 10
6.7570181168
 20
19.803438311
 30
0.0
 11
6.5570215015
 21
20.0003998616
 31
0.0
 11
6.5608988968
 21
19.96199803
 31
0.0
 11
6.5723034558
 21
19.9250726403
 31
0.0
 11
6.5907973543
 21
19.8910361351
 31
0.0
 11
6.6156708127
 21
19.8611977815
 31
0.0
 11
6.6805299013
 21
19.8184884506
 31
0.0
 11
6.7570181168
 21
19.803438311
 31
0.0
  0
SPLINE
  5
3B2
100
AcDbEntity
  8
RACCORDO
100
AcDbSpline
 62
7
  6
CONTINUOUS
 70
0
 71
3
 72
13
 73
9
 74
7
 42
0.0000001
 43
0.0000001
 44
0.0000000001
 12
0.0034684618
 22
0.4498520596
 32
0.0
 13
0.2404631874
 23
0.3802056829
 33
0.0
 40
0.0
 40
0.0
 40
0.0
 40
0.0
 40
0.0927402131
 40
0.2001625348
 40
0.3192652175
 40
0.4469092846
 40
0.71829281
 40
1.0
 40
1.0
 40
1.0
 40
1.0
 10
6.5570215015
 20
20.1837995929
 30
0.0
 10
6.5571287234
 20
20.1977060515
 30
0.0
 10
6.5625557326
 20
20.2276040698
 30
0.0
 10
6.578673884
 20
20.2727277023
 30
0.0
 10
6.6010327656
 20
20.3209689282
 30
0.0
 10
6.6375718046
 20
20.3895553078
 30
0.0
 10
6.6901117911
 20
20.4771293452
 30
0.0
 10
6.7344380472
 20
20.5472220584
 30
0.0
 10
6.7570181168
 20
20.5829242832
 30
0.0
 11
6.5570215015
 21
20.1837995929
 31
0.0
 11
6.5631619294
 21
20.2250658617
 31
0.0
 11
6.5787283759
 21
20.2708157064
 31
0.0
 11
6.6009184179
 21
20.3195849353
 31
0.0
 11
6.6277071149
 21
20.3703759465
 31
0.0
 11
6.6897093538
 21
20.4755459519
 31
0.0
 11
6.7570181168
 21
20.5829242832
 31
0.0
  0
SPLINE
  5
3B3
100
AcDbEntity
  8
ASSI
100
AcDbSpline
 62
7
  6
CONTINUOUS
 70
0
 71
3
 72
20
 73
16
 74
14
 42
0.0000001
 43
0.0000001
 44
0.0000000001
 12
0.4451253217
 22
-0.481128015
 32
0.0
 13
0.0252813737
 23
-0.6549668472
 33
0.0
 40
0.0
 40
0.0
 40
0.0
 40
0.0
 40
0.1613624194
 40
0.3205394016
 40
0.4750144272
 40
0.6215131146
 40
0.6903945975
 40
0.7553930767
 40
0.8155665889
 40
0.8697817855
 40
0.9167083814
 40
0.9548763341
 40
0.9828739203
 40
0.9927751655
 40
1.0
 40
1.0
 40
1.0
 40
1.0
 10
3.9279699877
 20
-23.2563578147
 30
0.0
 10
3.951912154
 20
-23.2822364749
 30
0.0
 10
3.9994723381
 20
-23.3336431907
 30
0.0
 10
4.0698358237
 20
-23.4099321919
 30
0.0
 10
4.1377437006
 20
-23.48406751
 30
0.0
 10
4.1919635948
 20
-23.5439864117
 30
0.0
 10
4.2326812955
 20
-23.5897547101
 30
0.0
 10
4.2606181382
 20
-23.6216470785
 30
0.0
 10
4.2861284811
 20
-23.6514045179
 30
0.0
 10
4.3086438841
 20
-23.678518785
 30
0.0
 10
4.32754486
 20
-23.702393376
 30
0.0
 10
4.3420677422
 20
-23.722366856
 30
0.0
 10
4.3509649314
 20
-23.736488781
 30
0.0
 10
4.3549427914
 20
-23.7455117382
 30
0.0
 10
4.3558718482
 20
-23.7491960824
 30
0.0
 10
4.3559327327
 20
-23.7507734247
 30
0.0
 11
3.9279699877
 21
-23.2563578147
 31
0.0
 11
3.9997765949
 21
-23.3340121936
 31
0.0
 11
4.0704877548
 21
-23.4107283322
 31
0.0
 11
4.1388431419
 21
-23.4854235788
 31
0.0
 11
4.2032052128
 21
-23.5566835667
 31
0.0
 11
4.2332005713
 21
-23.5904279314
 31
0.0
 11
4.2612534815
 21
-23.6224918804
 31
0.0
 11
4.2868924139
 21
-23.6524624993
 31
0.0
 11
4.3095479031
 21
-23.6798396365
 31
0.0
 11
4.3285453323
 21
-23.7040298781
 31
0.0
 11
4.3431216653
 21
-23.7243620891
 31
0.0
 11
4.3524856812
 21
-23.7401443506
 31
0.0
 11
4.3549846384
 21
-23.7461337523
 31
0.0
 11
4.3559327327
 21
-23.7507734247
 31
0.0
  0
SPLINE
  5
3B4
100
AcDbEntity
  8
ASSI
100
AcDbSpline
 62
7
  6
CONTINUOUS
 70
0
 71
3
 72
20
 73
16
 74
14
 42
0.0000001
 43
0.0000001
 44
0.0000000001
 12
0.0
 22
0.6558200277
 32
0.0
 13
0.4453734942
 23
0.4813962602
 33
0.0
 40
0.0
 40
0.0
 40
0.0
 40
0.0
 40
0.0070071177
 40
0.01668237
 40
0.0442826676
 40
0.0821596683
 40
0.1289001864
 40
0.183019437
 40
0.2431697754
 40
0.308202048
 40
0.3771610573
 40
0.52390693
 40
0.6787070216
 40
0.8382514921
 40
1.0
 40
1.0
 40
1.0
 40
1.0
 10
3.5
 20
-23.7511422903
 30
0.0
 10
3.5
 20
-23.7496104876
 30
0.0
 10
3.5008279741
 20
-23.7459920004
 30
0.0
 10
3.5046355706
 20
-23.7370905783
 30
0.0
 10
3.5133792568
 20
-23.7230895487
 30
0.0
 10
3.5277542088
 20
-23.7032307909
 30
0.0
 10
3.5465632505
 20
-23.6794198937
 30
0.0
 10
3.5690308218
 20
-23.6523275287
 30
0.0
 10
3.5945316812
 20
-23.6225575401
 30
0.0
 10
3.622488756
 20
-23.5906258882
 30
0.0
 10
3.6632738224
 20
-23.5447668792
 30
0.0
 10
3.7176145724
 20
-23.4847049887
 30
0.0
 10
3.7856966931
 20
-23.410374666
 30
0.0
 10
3.8562585792
 20
-23.333869156
 30
0.0
 10
3.903957155
 20
-23.282312857
 30
0.0
 10
3.9279699877
 20
-23.2563578147
 30
0.0
 11
3.5
 21
-23.7511422903
 31
0.0
 11
3.5008025423
 21
-23.7466175029
 31
0.0
 11
3.5031705536
 21
-23.7407307047
 31
0.0
 11
3.51232034
 21
-23.725112722
 31
0.0
 11
3.5267455395
 21
-23.7048898675
 31
0.0
 11
3.5456488336
 21
-23.6807590898
 31
0.0
 11
3.568257971
 21
-23.6533995643
 31
0.0
 11
3.5938888167
 21
-23.6234130939
 31
0.0
 11
3.6219635342
 21
-23.5913072182
 31
0.0
 11
3.65200367
 21
-23.5575009513
 31
0.0
 11
3.7165038336
 21
-23.4860751061
 31
0.0
 11
3.7850385246
 21
-23.4111784464
 31
0.0
 11
3.8559515595
 21
-23.3342415048
 31
0.0
 11
3.9279699877
 21
-23.2563578147
 31
0.0
  0
SPLINE
  5
3B5
100
AcDbEntity
  8
ASSI
100
AcDbSpline
 62
7
  6
CONTINUOUS
 70
0
 71
3
 72
20
 73
16
 74
14
 42
0.0000001
 43
0.0000001
 44
0.0000000001
 12
0.4453734937
 22
-0.4813962596
 32
0.0
 13
0.0
 23
-0.6558200269
 33
0.0
 40
0.0
 40
0.0
 40
0.0
 40
0.0
 40
0.1617484059
 40
0.321292825
 40
0.4760929288
 40
0.6228387844
 40
0.6917977694
 40
0.7568300229
 40
0.8169803595
 40
0.8710996206
 40
0.9178401742
 40
0.9557172281
 40
0.9833175966
 40
0.9929928691
 40
1.0
 40
1.0
 40
1.0
 40
1.0
 10
-3.9279699877
 20
-23.2563578147
 30
0.0
 10
-3.9039571701
 20
-23.2823128406
 30
0.0
 10
-3.8562586171
 20
-23.3338691148
 30
0.0
 10
-3.785696752
 20
-23.4103746019
 30
0.0
 10
-3.7176146391
 20
-23.4847049149
 30
0.0
 10
-3.6632738928
 20
-23.5447668001
 30
0.0
 10
-3.6224888349
 20
-23.5906257989
 30
0.0
 10
-3.5945317668
 20
-23.6225574434
 30
0.0
 10
-3.5690309065
 20
-23.6523274283
 30
0.0
 10
-3.5465633263
 20
-23.6794197982
 30
0.0
 10
-3.5277542694
 20
-23.7032307115
 30
0.0
 10
-3.5133792949
 20
-23.7230894948
 30
0.0
 10
-3.5046355826
 20
-23.7370905474
 30
0.0
 10
-3.5008279823
 20
-23.7459919915
 30
0.0
 10
-3.5
 20
-23.7496104847
 30
0.0
 10
-3.5
 20
-23.7511422903
 30
0.0
 11
-3.9279699877
 21
-23.2563578147
 31
0.0
 11
-3.8559516049
 21
-23.3342414555
 31
0.0
 11
-3.7850385928
 21
-23.411178372
 31
0.0
 11
-3.7165038959
 21
-23.4860750371
 31
0.0
 11
-3.6520037393
 21
-23.5575008734
 31
0.0
 11
-3.621963614
 21
-23.591307128
 31
0.0
 11
-3.5938889042
 21
-23.6234129939
 31
0.0
 11
-3.5682580572
 21
-23.6533994616
 31
0.0
 11
-3.5456489129
 21
-23.6807589903
 31
0.0
 11
-3.5267456023
 21
-23.7048897846
 31
0.0
 11
-3.5123203782
 21
-23.7251126644
 31
0.0
 11
-3.503170564
 21
-23.7407306846
 31
0.0
 11
-3.5008025478
 21
-23.746617495
 31
0.0
 11
-3.5
 21
-23.7511422903
 31
0.0
  0
SPLINE
  5
3B6
100
AcDbEntity
  8
ASSI
100
AcDbSpline
 62
7
  6
CONTINUOUS
 70
0
 71
3
 72
20
 73
16
 74
14
 42
0.0000001
 43
0.0000001
 44
0.0000000001
 12
0.0252813737
 22
0.6549668479
 32
0.0
 13
0.4451253222
 23
0.4811280155
 33
0.0
 40
0.0
 40
0.0
 40
0.0
 40
0.0
 40
0.0072248217
 40
0.0171260471
 40
0.0451235654
 40
0.0832914673
 40
0.1302180295
 40
0.1844332165
 40
0.2446067311
 40
0.3096052295
 40
0.3784867363
 40
0.5249854411
 40
0.6794604545
 40
0.8386374838
 40
1.0
 40
1.0
 40
1.0
 40
1.0
 10
-4.3559327327
 20
-23.7507734247
 30
0.0
 10
-4.3558718483
 20
-23.7491960852
 30
0.0
 10
-4.3549427991
 20
-23.7455117468
 30
0.0
 10
-4.3509649436
 20
-23.7364888107
 30
0.0
 10
-4.3420677788
 20
-23.7223669077
 30
0.0
 10
-4.3275449184
 20
-23.702393452
 30
0.0
 10
-4.3086439567
 20
-23.6785188763
 30
0.0
 10
-4.286128562
 20
-23.6514046138
 30
0.0
 10
-4.2606182196
 20
-23.6216471704
 30
0.0
 10
-4.2326813703
 20
-23.5897547946
 30
0.0
 10
-4.191963661
 20
-23.543986486
 30
0.0
 10
-4.137743763
 20
-23.4840675791
 30
0.0
 10
-4.0698358789
 20
-23.409932252
 30
0.0
 10
-3.9994723738
 20
-23.3336432295
 30
0.0
 10
-3.9519121683
 20
-23.2822364904
 30
0.0
 10
-3.9279699877
 20
-23.2563578147
 30
0.0
 11
-4.3559327327
 21
-23.7507734247
 31
0.0
 11
-4.3549846436
 21
-23.7461337599
 31
0.0
 11
-4.3524856915
 21
-23.74014437
 31
0.0
 11
-4.3431217022
 21
-23.7243621445
 31
0.0
 11
-4.3285453928
 21
-23.7040299575
 31
0.0
 11
-4.3095479791
 21
-23.6798397317
 31
0.0
 11
-4.2868924963
 21
-23.6524625974
 31
0.0
 11
-4.2612535649
 21
-23.6224919755
 31
0.0
 11
-4.2332006468
 21
-23.5904280166
 31
0.0
 11
-4.203205278
 21
-23.55668364
 31
0.0
 11
-4.1388431999
 21
-23.4854236431
 31
0.0
 11
-4.0704878187
 21
-23.4107284019
 31
0.0
 11
-3.999776638
 21
-23.3340122404
 31
0.0
 11
-3.9279699877
 21
-23.2563578147
 31
0.0
  0
SPLINE
  5
3B7
100
AcDbEntity
  8
ASSI
100
AcDbSpline
 62
7
  6
CONTINUOUS
 70
0
 71
3
 72
20
 73
16
 74
14
 42
0.0000001
 43
0.0000001
 44
0.0000000001
 12
-0.4453734945
 22
0.4813962605
 32
0.0
 13
0.0
 23
0.655820028
 33
0.0
 40
0.0
 40
0.0
 40
0.0
 40
0.0
 40
0.1617481283
 40
0.3212925436
 40
0.4760926218
 40
0.6228381983
 40
0.6917970213
 40
0.756829145
 40
0.8169794967
 40
0.8710988952
 40
0.917839743
 40
0.9557171254
 40
0.9833176291
 40
0.9929928945
 40
1.0
 40
1.0
 40
1.0
 40
1.0
 10
3.9279699877
 20
23.2563578147
 30
0.0
 10
3.9039572113
 20
23.2823127961
 30
0.0
 10
3.8562586996
 20
23.3338690249
 30
0.0
 10
3.7856968797
 20
23.4103744627
 30
0.0
 10
3.7176148114
 20
23.4847047253
 30
0.0
 10
3.6632741319
 20
23.5447665336
 30
0.0
 10
3.6224891546
 20
23.5906254371
 30
0.0
 10
3.5945321274
 20
23.622557037
 30
0.0
 10
3.5690312528
 20
23.6523270162
 30
0.0
 10
3.5465635981
 20
23.6794194517
 30
0.0
 10
3.5277544382
 20
23.7032304945
 30
0.0
 10
3.5133793499
 20
23.7230894019
 30
0.0
 10
3.5046355916
 20
23.7370905407
 30
0.0
 10
3.5008279684
 20
23.7459920018
 30
0.0
 10
3.5
 20
23.7496104903
 30
0.0
 10
3.5
 20
23.7511422903
 30
0.0
 11
3.9279699877
 21
23.2563578147
 31
0.0
 11
3.855951728
 21
23.3342413217
 31
0.0
 11
3.7850387171
 21
23.4111782362
 31
0.0
 11
3.7165040306
 21
23.4860748882
 31
0.0
 11
3.6520039946
 21
23.5575005869
 31
0.0
 11
3.6219639386
 21
23.5913067613
 31
0.0
 11
3.5938892833
 21
23.6234125616
 31
0.0
 11
3.5682584201
 21
23.6533990286
 31
0.0
 11
3.5456492082
 21
23.6807586185
 31
0.0
 11
3.5267457729
 21
23.7048895603
 31
0.0
 11
3.5123204148
 21
23.7251126091
 31
0.0
 11
3.5031705537
 21
23.7407307047
 31
0.0
 11
3.5008025375
 21
23.7466175101
 31
0.0
 11
3.5
 21
23.7511422903
 31
0.0
  0
SPLINE
  5
3B8
100
AcDbEntity
  8
ASSI
100
AcDbSpline
 62
7
  6
CONTINUOUS
 70
0
 71
3
 72
20
 73
16
 74
14
 42
0.0000001
 43
0.0000001
 44
0.0000000001
 12
-0.0252813737
 22
-0.6549668489
 32
0.0
 13
-0.4451253229
 23
-0.4811280162
 33
0.0
 40
0.0
 40
0.0
 40
0.0
 40
0.0
 40
0.0072247963
 40
0.0171260137
 40
0.0451236603
 40
0.0832918761
 40
0.1302187102
 40
0.1844340207
 40
0.2446075476
 40
0.3096059203
 40
0.3784872733
 40
0.5249857124
 40
0.6794607073
 40
0.8386377433
 40
1.0
 40
1.0
 40
1.0
 40
1.0
 10
4.3559327327
 20
23.7507734247
 30
0.0
 10
4.3558718485
 20
23.7491960907
 30
0.0
 10
4.3549428125
 20
23.7455117571
 30
0.0
 10
4.3509649358
 20
23.7364888057
 30
0.0
 10
4.342067727
 20
23.7223668207
 30
0.0
 10
4.3275447595
 20
23.7023932482
 30
0.0
 10
4.3086437016
 20
23.6785185518
 30
0.0
 10
4.2861282387
 20
23.6514042296
 30
0.0
 10
4.2606178848
 20
23.6216467934
 30
0.0
 10
4.232681075
 20
23.5897544604
 30
0.0
 10
4.1919634425
 20
23.5439862428
 30
0.0
 10
4.1377436075
 20
23.4840674079
 30
0.0
 10
4.0698357633
 20
23.4099321261
 30
0.0
 10
3.9994722982
 20
23.3336431472
 30
0.0
 10
3.9519121299
 20
23.2822364489
 30
0.0
 10
3.9279699877
 20
23.2563578147
 30
0.0
 11
4.3559327327
 21
23.7507734247
 31
0.0
 11
4.3549846538
 21
23.7461337747
 31
0.0
 11
4.3524857022
 21
23.7401443905
 31
0.0
 11
4.3431216682
 21
23.7243620936
 31
0.0
 11
4.3285452308
 21
23.7040297451
 31
0.0
 11
4.3095477018
 21
23.6798393833
 31
0.0
 11
4.286892158
 21
23.6524621942
 31
0.0
 11
4.2612532124
 21
23.6224915738
 31
0.0
 11
4.233200347
 21
23.5904276781
 31
0.0
 11
4.2032050442
 21
23.5566833778
 31
0.0
 11
4.1388430809
 21
23.4854235117
 31
0.0
 11
4.070487707
 21
23.4107282799
 31
0.0
 11
3.9997765229
 21
23.3340121154
 31
0.0
 11
3.9279699877
 21
23.2563578147
 31
0.0
  0
SPLINE
  5
3B9
100
AcDbEntity
  8
RACCORDO
100
AcDbSpline
 62
253
  6
CONTINUOUS
 70
0
 71
3
 72
13
 73
9
 74
7
 42
0.0000001
 43
0.0000001
 44
0.0000000001
 12
-0.0003184499
 22
0.3104387928
 32
0.0
 13
-0.3104388025
 23
0.0003088579
 33
0.0
 40
0.0
 40
0.0
 40
0.0
 40
0.0
 40
0.1243306708
 40
0.248820374
 40
0.3735997871
 40
0.4987324678
 40
0.7488884126
 40
1.0
 40
1.0
 40
1.0
 40
1.0
 10
-6.5570215015
 20
-20.0003998616
 30
0.0
 10
-6.5570346992
 20
-19.9875341738
 30
0.0
 10
-6.5596408032
 20
-19.9617154154
 30
0.0
 10
-6.5711295405
 20
-19.9245492657
 30
0.0
 10
-6.5897658892
 20
-19.8902815268
 30
0.0
 10
-6.6230777213
 20
-19.8503093759
 30
0.0
 10
-6.6786393563
 20
-19.8136739719
 30
0.0
 10
-6.73103319
 20
-19.8034641636
 30
0.0
 10
-6.7570181168
 20
-19.803438311
 30
0.0
 11
-6.5570215015
 21
-20.0003998616
 31
0.0
 11
-6.5608988968
 21
-19.96199803
 31
0.0
 11
-6.5723034558
 21
-19.9250726403
 31
0.0
 11
-6.5907973543
 21
-19.8910361351
 31
0.0
 11
-6.6156708127
 21
-19.8611977815
 31
0.0
 11
-6.6805299013
 21
-19.8184884506
 31
0.0
 11
-6.7570181168
 21
-19.803438311
 31
0.0
  0
SPLINE
  5
3BA
100
AcDbEntity
  8
ASSI
100
AcDbSpline
 62
7
  6
CONTINUOUS
 70
0
 71
3
 72
20
 73
16
 74
14
 42
0.0000001
 43
0.0000001
 44
0.0000000001
 12
-0.4451253224
 22
0.4811280157
 32
0.0
 13
-0.0252813737
 23
0.6549668482
 33
0.0
 40
0.0
 40
0.0
 40
0.0
 40
0.0
 40
0.161362154
 40
0.3205391386
 40
0.4750141431
 40
0.621512561
 40
0.6903938882
 40
0.7553922393
 40
0.8155657636
 40
0.8697810868
 40
0.9167079592
 40
0.9548762305
 40
0.9828739514
 40
0.9927751899
 40
1.0
 40
1.0
 40
1.0
 40
1.0
 10
-3.9279699877
 20
23.2563578147
 30
0.0
 10
-3.9519121146
 20
23.2822364324
 30
0.0
 10
-3.9994722601
 20
23.3336431058
 30
0.0
 10
-4.0698357039
 20
23.4099320613
 30
0.0
 10
-4.1377435392
 20
23.4840673324
 30
0.0
 10
-4.1919633693
 20
23.5439861607
 30
0.0
 10
-4.2326809922
 20
23.5897543667
 30
0.0
 10
-4.2606177946
 20
23.6216466915
 30
0.0
 10
-4.2861281493
 20
23.6514041237
 30
0.0
 10
-4.3086436218
 20
23.6785184514
 30
0.0
 10
-4.3275446959
 20
23.7023931651
 30
0.0
 10
-4.3420676872
 20
23.7223667645
 30
0.0
 10
-4.3509649227
 20
23.7364887736
 30
0.0
 10
-4.3549428042
 20
23.7455117479
 30
0.0
 10
-4.3558718484
 20
23.7491960877
 30
0.0
 10
-4.3559327327
 20
23.7507734247
 30
0.0
 11
-3.9279699877
 21
23.2563578147
 31
0.0
 11
-3.9997764772
 21
23.3340120658
 31
0.0
 11
-4.0704876386
 21
23.4107282053
 31
0.0
 11
-4.1388430172
 21
23.4854234411
 31
0.0
 11
-4.2032049717
 21
23.5566832963
 31
0.0
 11
-4.2332002635
 21
23.5904275837
 31
0.0
 11
-4.26125312
 21
23.6224914684
 31
0.0
 11
-4.2868920667
 21
23.6524620856
 31
0.0
 11
-4.3095476183
 21
23.6798392787
 31
0.0
 11
-4.3285451651
 21
23.7040296586
 31
0.0
 11
-4.3431216281
 21
23.7243620334
 31
0.0
 11
-4.3524856912
 21
23.7401443696
 31
0.0
 11
-4.3549846482
 21
23.7461337667
 31
0.0
 11
-4.3559327327
 21
23.7507734247
 31
0.0
  0
SPLINE
  5
3BB
100
AcDbEntity
  8
ASSI
100
AcDbSpline
 62
7
  6
CONTINUOUS
 70
0
 71
3
 72
20
 73
16
 74
14
 42
0.0000001
 43
0.0000001
 44
0.0000000001
 12
0.0
 22
-0.6558200289
 32
0.0
 13
-0.445373495
 23
-0.4813962611
 33
0.0
 40
0.0
 40
0.0
 40
0.0
 40
0.0
 40
0.0070070913
 40
0.0166823351
 40
0.0442827616
 40
0.0821600855
 40
0.128900893
 40
0.183020278
 40
0.2431706317
 40
0.308202777
 40
0.3771616263
 40
0.5239072236
 40
0.6787072923
 40
0.8382517634
 40
1.0
 40
1.0
 40
1.0
 40
1.0
 10
-3.5
 20
23.7511422903
 30
0.0
 10
-3.5
 20
23.7496104934
 30
0.0
 10
-3.5008279597
 20
23.7459920114
 30
0.0
 10
-3.5046355787
 20
23.7370905742
 30
0.0
 10
-3.5133793084
 20
23.7230894604
 30
0.0
 10
-3.527754372
 20
23.7032305811
 30
0.0
 10
-3.5465635148
 20
23.6794195565
 30
0.0
 10
-3.5690311594
 20
23.6523271271
 30
0.0
 10
-3.5945320327
 20
23.622557144
 30
0.0
 10
-3.6224890673
 20
23.5906255359
 30
0.0
 10
-3.6632740542
 20
23.5447666207
 30
0.0
 10
-3.7176147387
 20
23.4847048057
 30
0.0
 10
-3.7856968164
 20
23.4103745317
 30
0.0
 10
-3.8562586592
 20
23.3338690689
 30
0.0
 10
-3.9039571952
 20
23.2823128135
 30
0.0
 10
-3.9279699877
 20
23.2563578147
 30
0.0
 11
-3.5
 21
23.7511422903
 31
0.0
 11
-3.5008025316
 21
23.7466175185
 31
0.0
 11
-3.5031705425
 21
23.7407307262
 31
0.0
 11
-3.5123203734
 21
23.7251126717
 31
0.0
 11
-3.5267457044
 21
23.7048896505
 31
0.0
 11
-3.5456491212
 21
23.6807587277
 31
0.0
 11
-3.5682583246
 21
23.6533991423
 31
0.0
 11
-3.5938891863
 21
23.6234126723
 31
0.0
 11
-3.6219638506
 21
23.5913068608
 31
0.0
 11
-3.6520039178
 21
23.5575006733
 31
0.0
 11
-3.7165039624
 21
23.4860749638
 31
0.0
 11
-3.7850386443
 21
23.4111783158
 31
0.0
 11
-3.8559516799
 21
23.334241374
 31
0.0
 11
-3.9279699877
 21
23.2563578147
 31
0.0
  0
SPLINE
  5
3BC
100
AcDbEntity
  8
RACCORDO
100
AcDbSpline
 62
7
  6
CONTINUOUS
 70
0
 71
3
 72
13
 73
9
 74
7
 42
0.0000001
 43
0.0000001
 44
0.0000000001
 12
-0.0034684618
 22
-0.4498520596
 32
0.0
 13
-0.2404631874
 23
-0.3802056829
 33
0.0
 40
0.0
 40
0.0
 40
0.0
 40
0.0
 40
0.0927402131
 40
0.2001625348
 40
0.3192652175
 40
0.4469092846
 40
0.71829281
 40
1.0
 40
1.0
 40
1.0
 40
1.0
 10
-6.5570215015
 20
-20.1837995929
 30
0.0
 10
-6.5571287234
 20
-20.1977060515
 30
0.0
 10
-6.5625557326
 20
-20.2276040698
 30
0.0
 10
-6.578673884
 20
-20.2727277023
 30
0.0
 10
-6.6010327656
 20
-20.3209689282
 30
0.0
 10
-6.6375718046
 20
-20.3895553078
 30
0.0
 10
-6.6901117911
 20
-20.4771293452
 30
0.0
 10
-6.7344380472
 20
-20.5472220584
 30
0.0
 10
-6.7570181168
 20
-20.5829242832
 30
0.0
 11
-6.5570215015
 21
-20.1837995929
 31
0.0
 11
-6.5631619294
 21
-20.2250658617
 31
0.0
 11
-6.5787283759
 21
-20.2708157064
 31
0.0
 11
-6.6009184179
 21
-20.3195849353
 31
0.0
 11
-6.6277071149
 21
-20.3703759465
 31
0.0
 11
-6.6897093538
 21
-20.4755459519
 31
0.0
 11
-6.7570181168
 21
-20.5829242832
 31
0.0
  0
SPLINE
  5
3BD
100
AcDbEntity
  8
RACCORDO
100
AcDbSpline
 62
253
  6
CONTINUOUS
 70
0
 71
3
 72
13
 73
9
 74
7
 42
0.0000001
 43
0.0000001
 44
0.0000000001
 12
-0.3104388025
 22
-0.0003088579
 32
0.0
 13
-0.0003184499
 23
-0.3104387928
 33
0.0
 40
0.0
 40
0.0
 40
0.0
 40
0.0
 40
0.2511115874
 40
0.5012675322
 40
0.6264002129
 40
0.751179626
 40
0.8756693292
 40
1.0
 40
1.0
 40
1.0
 40
1.0
 10
-7.0429818832
 20
-19.803438311
 30
0.0
 10
-7.06896681
 20
-19.8034641636
 30
0.0
 10
-7.1213606437
 20
-19.8136739719
 30
0.0
 10
-7.1769222787
 20
-19.8503093759
 30
0.0
 10
-7.2102341108
 20
-19.8902815268
 30
0.0
 10
-7.2288704595
 20
-19.9245492657
 30
0.0
 10
-7.2403591968
 20
-19.9617154154
 30
0.0
 10
-7.2429653008
 20
-19.9875341738
 30
0.0
 10
-7.2429784985
 20
-20.0003998616
 30
0.0
 11
-7.0429818832
 21
-19.803438311
 31
0.0
 11
-7.1194700987
 21
-19.8184884506
 31
0.0
 11
-7.1843291873
 21
-19.8611977815
 31
0.0
 11
-7.2092026457
 21
-19.8910361351
 31
0.0
 11
-7.2276965442
 21
-19.9250726403
 31
0.0
 11
-7.2391011032
 21
-19.96199803
 31
0.0
 11
-7.2429784985
 21
-20.0003998616
 31
0.0
  0
SPLINE
  5
3BE
100
AcDbEntity
  8
RACCORDO
100
AcDbSpline
 62
253
  6
CONTINUOUS
 70
0
 71
3
 72
13
 73
9
 74
7
 42
0.0000001
 43
0.0000001
 44
0.0000000001
 12
0.3104388057
 22
-0.0003088579
 32
0.0
 13
0.0003184499
 23
-0.310438796
 33
0.0
 40
0.0
 40
0.0
 40
0.0
 40
0.0
 40
0.2511113572
 40
0.5012670833
 40
0.6263996474
 40
0.7511790181
 40
0.875668667
 40
1.0
 40
1.0
 40
1.0
 40
1.0
 10
7.0429818832
 20
-19.803438311
 30
0.0
 10
7.0689667864
 20
-19.8034641636
 30
0.0
 10
7.1213605733
 20
-19.8136739541
 30
0.0
 10
7.1769221727
 20
-19.8503092953
 30
0.0
 10
7.2102340191
 20
-19.8902813838
 30
0.0
 10
7.2288703831
 20
-19.9245490894
 30
0.0
 10
7.2403591817
 20
-19.9617152815
 30
0.0
 10
7.2429653008
 20
-19.9875341052
 30
0.0
 10
7.2429784985
 20
-20.0003998616
 30
0.0
 11
7.0429818832
 21
-19.803438311
 31
0.0
 11
7.1194700319
 21
-19.8184884242
 31
0.0
 11
7.1843290875
 21
-19.8611976832
 31
0.0
 11
7.2092025498
 21
-19.891035987
 31
0.0
 11
7.2276964717
 21
-19.925072465
 31
0.0
 11
7.2391010651
 21
-19.9619978268
 31
0.0
 11
7.2429784985
 21
-20.0003998616
 31
0.0
  0
SPLINE
  5
3BF
100
AcDbEntity
  8
RACCORDO
100
AcDbSpline
 62
7
  6
CONTINUOUS
 70
0
 71
3
 72
13
 73
9
 74
7
 42
0.0000001
 43
0.0000001
 44
0.0000000001
 12
-0.2404631898
 22
0.3802056866
 32
0.0
 13
-0.0034684619
 23
0.4498520641
 33
0.0
 40
0.0
 40
0.0
 40
0.0
 40
0.0
 40
0.2817068086
 40
0.5530901411
 40
0.6807341157
 40
0.7998364256
 40
0.9072592649
 40
1.0
 40
1.0
 40
1.0
 40
1.0
 10
6.7570181168
 20
-20.5829242832
 30
0.0
 10
6.7344380776
 20
-20.5472221063
 30
0.0
 10
6.6901118765
 20
-20.4771294593
 30
0.0
 10
6.6375719199
 20
-20.3895555204
 30
0.0
 10
6.601032911
 20
-20.3209692343
 30
0.0
 10
6.5786740173
 20
-20.2727280083
 30
0.0
 10
6.5625557468
 20
-20.227604309
 30
0.0
 10
6.557128724
 20
-20.19770613
 30
0.0
 10
6.5570215015
 20
-20.1837995929
 30
0.0
 11
6.7570181168
 21
-20.5829242832
 31
0.0
 11
6.6897094469
 21
-20.4755460946
 31
0.0
 11
6.6277072327
 21
-20.370376174
 31
0.0
 11
6.600918544
 21
-20.3195852048
 31
0.0
 11
6.5787285444
 21
-20.2708161403
 31
0.0
 11
6.5631619655
 21
-20.2250660941
 31
0.0
 11
6.5570215015
 21
-20.1837995929
 31
0.0
  0
SPLINE
  5
3C0
100
AcDbEntity
  8
RACCORDO
100
AcDbSpline
 62
7
  6
CONTINUOUS
 70
0
 71
3
 72
10
 73
6
 74
4
 42
0.0000001
 43
0.0000001
 44
0.0000000001
 12
-0.3127578542
 22
0.4423063991
 32
0.0
 13
-0.292680328
 23
0.455840599
 33
0.0
 40
0.0
 40
0.0
 40
0.0
 40
0.0
 40
0.5096488713
 40
0.7586453896
 40
1.0
 40
1.0
 40
1.0
 40
1.0
 10
-7.5841007192
 20
21.3126932437
 30
0.0
 10
-7.6372329483
 20
21.3878335627
 30
0.0
 10
-7.716355377
 20
21.4996676405
 30
0.0
 10
-7.8184797954
 20
21.6485895888
 30
0.0
 10
-7.8673368915
 20
21.7224434496
 30
0.0
 10
-7.8908834737
 20
21.7591165263
 30
0.0
 11
-7.5841007192
 21
21.3126932437
 31
0.0
 11
-7.7427970122
 21
21.5386078259
 31
0.0
 11
-7.8189457104
 21
21.649941607
 31
0.0
 11
-7.8908834737
 21
21.7591165263
 31
0.0
  0
SPLINE
  5
3C1
100
AcDbEntity
  8
RACCORDO
100
AcDbSpline
 62
7
  6
CONTINUOUS
 70
0
 71
3
 72
10
 73
6
 74
4
 42
0.0000001
 43
0.0000001
 44
0.0000000001
 12
-0.292680328
 22
-0.455840599
 32
0.0
 13
-0.3127578542
 23
-0.4423063992
 33
0.0
 40
0.0
 40
0.0
 40
0.0
 40
0.0
 40
0.2413546104
 40
0.4903511287
 40
1.0
 40
1.0
 40
1.0
 40
1.0
 10
7.8908834737
 20
21.7591165263
 30
0.0
 10
7.8673368915
 20
21.7224434496
 30
0.0
 10
7.8184797954
 20
21.6485895888
 30
0.0
 10
7.716355377
 20
21.4996676405
 30
0.0
 10
7.6372329483
 20
21.3878335627
 30
0.0
 10
7.5841007192
 20
21.3126932437
 30
0.0
 11
7.8908834737
 21
21.7591165263
 31
0.0
 11
7.8189457104
 21
21.649941607
 31
0.0
 11
7.7427970122
 21
21.5386078259
 31
0.0
 11
7.5841007192
 21
21.3126932437
 31
0.0
  0
SPLINE
  5
3C2
100
AcDbEntity
  8
RACCORDO
100
AcDbSpline
 62
7
  6
CONTINUOUS
 70
0
 71
3
 72
10
 73
6
 74
4
 42
0.0000001
 43
0.0000001
 44
0.0000000001
 12
0.292680328
 22
0.455840599
 32
0.0
 13
0.3127578542
 23
0.4423063992
 33
0.0
 40
0.0
 40
0.0
 40
0.0
 40
0.0
 40
0.2413546104
 40
0.4903511287
 40
1.0
 40
1.0
 40
1.0
 40
1.0
 10
-7.8908834737
 20
-21.7591165263
 30
0.0
 10
-7.8673368915
 20
-21.7224434496
 30
0.0
 10
-7.8184797954
 20
-21.6485895888
 30
0.0
 10
-7.716355377
 20
-21.4996676405
 30
0.0
 10
-7.6372329483
 20
-21.3878335627
 30
0.0
 10
-7.5841007192
 20
-21.3126932437
 30
0.0
 11
-7.8908834737
 21
-21.7591165263
 31
0.0
 11
-7.8189457104
 21
-21.649941607
 31
0.0
 11
-7.7427970122
 21
-21.5386078259
 31
0.0
 11
-7.5841007192
 21
-21.3126932437
 31
0.0
  0
SPLINE
  5
3C3
100
AcDbEntity
  8
RACCORDO
100
AcDbSpline
 62
7
  6
CONTINUOUS
 70
0
 71
3
 72
10
 73
6
 74
4
 42
0.0000001
 43
0.0000001
 44
0.0000000001
 12
0.3127578542
 22
-0.4423063992
 32
0.0
 13
0.292680328
 23
-0.455840599
 33
0.0
 40
0.0
 40
0.0
 40
0.0
 40
0.0
 40
0.5096488713
 40
0.7586453896
 40
1.0
 40
1.0
 40
1.0
 40
1.0
 10
7.5841007192
 20
-21.3126932437
 30
0.0
 10
7.6372329483
 20
-21.3878335627
 30
0.0
 10
7.716355377
 20
-21.4996676405
 30
0.0
 10
7.8184797954
 20
-21.6485895888
 30
0.0
 10
7.8673368915
 20
-21.7224434496
 30
0.0
 10
7.8908834737
 20
-21.7591165263
 30
0.0
 11
7.5841007192
 21
-21.3126932437
 31
0.0
 11
7.7427970122
 21
-21.5386078259
 31
0.0
 11
7.8189457104
 21
-21.649941607
 31
0.0
 11
7.8908834737
 21
-21.7591165263
 31
0.0
  0
SPLINE
  5
3C4
100
AcDbEntity
  8
RACCORDO
100
AcDbSpline
 62
253
  6
CONTINUOUS
 70
0
 71
3
 72
13
 73
9
 74
7
 42
0.0000001
 43
0.0000001
 44
0.0000000001
 12
-0.0012265939
 22
-0.3651868479
 32
0.0
 13
-0.3651877491
 23
-0.0009199789
 33
0.0
 40
0.0
 40
0.0
 40
0.0
 40
0.0
 40
0.1162399782
 40
0.2339778175
 40
0.3543713311
 40
0.4780980184
 40
0.7345386243
 40
1.0
 40
1.0
 40
1.0
 40
1.0
 10
10.645628166
 20
23.8443375673
 30
0.0
 10
10.6455806396
 20
23.8301877969
 30
0.0
 10
10.6422223551
 20
23.8016148029
 30
0.0
 10
10.6276650278
 20
23.7606547352
 30
0.0
 10
10.6041946141
 20
23.7229828841
 30
0.0
 10
10.561892224
 20
23.6786204872
 30
0.0
 10
10.4919652956
 20
23.6387874753
 30
0.0
 10
10.4279468109
 20
23.6279126226
 30
0.0
 10
10.3956323968
 20
23.6278312164
 30
0.0
 11
10.645628166
 21
23.8443375673
 31
0.0
 11
10.6407004657
 21
23.8021749995
 31
0.0
 11
10.626389741
 21
23.7616298799
 31
0.0
 11
10.6032441408
 21
23.7242490909
 31
0.0
 11
10.5721495847
 21
23.6914666636
 31
0.0
 11
10.4911334639
 21
23.6444924903
 31
0.0
 11
10.3956323968
 21
23.6278312164
 31
0.0
  0
SPLINE
  5
3C5
100
AcDbEntity
  8
RACCORDO
100
AcDbSpline
 62
253
  6
CONTINUOUS
 70
0
 71
3
 72
13
 73
9
 74
7
 42
0.0000001
 43
0.0000001
 44
0.0000000001
 12
0.0012265939
 22
-0.3651868488
 32
0.0
 13
0.36518775
 23
-0.0009199789
 33
0.0
 40
0.0
 40
0.0
 40
0.0
 40
0.0
 40
0.1162401487
 40
0.2339779758
 40
0.3543714899
 40
0.478098162
 40
0.7345387303
 40
1.0
 40
1.0
 40
1.0
 40
1.0
 10
8.254371834
 20
23.8443375673
 30
0.0
 10
8.2544193605
 20
23.8301877761
 30
0.0
 10
8.2577776481
 20
23.8016147615
 30
0.0
 10
8.2723350011
 20
23.7606546823
 30
0.0
 10
8.295805421
 20
23.7229828394
 30
0.0
 10
8.3381078178
 20
23.6786204573
 30
0.0
 10
8.408034735
 20
23.6387874669
 30
0.0
 10
8.472053202
 20
23.6279126226
 30
0.0
 10
8.5043676032
 20
23.6278312164
 30
0.0
 11
8.254371834
 21
23.8443375673
 31
0.0
 11
8.2592995465
 21
23.8021749381
 31
0.0
 11
8.2736102851
 21
23.761629828
 31
0.0
 11
8.2967558954
 21
23.7242490449
 31
0.0
 11
8.3278504554
 21
23.6914666288
 31
0.0
 11
8.4088665728
 21
23.6444924765
 31
0.0
 11
8.5043676032
 21
23.6278312164
 31
0.0
  0
SPLINE
  5
3C6
100
AcDbEntity
  8
RACCORDO
100
AcDbSpline
 62
253
  6
CONTINUOUS
 70
0
 71
3
 72
13
 73
9
 74
7
 42
0.0000001
 43
0.0000001
 44
0.0000000001
 12
-0.0012265939
 22
-0.3651868479
 32
0.0
 13
-0.3651877491
 23
-0.0009199789
 33
0.0
 40
0.0
 40
0.0
 40
0.0
 40
0.0
 40
0.1162399782
 40
0.2339778175
 40
0.3543713311
 40
0.4780980184
 40
0.7345386243
 40
1.0
 40
1.0
 40
1.0
 40
1.0
 10
-8.254371834
 20
23.8443375673
 30
0.0
 10
-8.2544193604
 20
23.8301877969
 30
0.0
 10
-8.2577776449
 20
23.8016148029
 30
0.0
 10
-8.2723349722
 20
23.7606547352
 30
0.0
 10
-8.2958053859
 20
23.7229828841
 30
0.0
 10
-8.338107776
 20
23.6786204872
 30
0.0
 10
-8.4080347044
 20
23.6387874753
 30
0.0
 10
-8.4720531891
 20
23.6279126226
 30
0.0
 10
-8.5043676032
 20
23.6278312164
 30
0.0
 11
-8.254371834
 21
23.8443375673
 31
0.0
 11
-8.2592995343
 21
23.8021749995
 31
0.0
 11
-8.273610259
 21
23.7616298799
 31
0.0
 11
-8.2967558592
 21
23.7242490909
 31
0.0
 11
-8.3278504153
 21
23.6914666636
 31
0.0
 11
-8.4088665361
 21
23.6444924903
 31
0.0
 11
-8.5043676032
 21
23.6278312164
 31
0.0
  0
SPLINE
  5
3C7
100
AcDbEntity
  8
RACCORDO
100
AcDbSpline
 62
253
  6
CONTINUOUS
 70
0
 71
3
 72
13
 73
9
 74
7
 42
0.0000001
 43
0.0000001
 44
0.0000000001
 12
0.0012265939
 22
-0.3651868479
 32
0.0
 13
0.3651877491
 23
-0.0009199789
 33
0.0
 40
0.0
 40
0.0
 40
0.0
 40
0.0
 40
0.1162399782
 40
0.2339778175
 40
0.3543713311
 40
0.4780980184
 40
0.7345386243
 40
1.0
 40
1.0
 40
1.0
 40
1.0
 10
-10.645628166
 20
23.8443375673
 30
0.0
 10
-10.6455806396
 20
23.8301877969
 30
0.0
 10
-10.6422223551
 20
23.8016148029
 30
0.0
 10
-10.6276650278
 20
23.7606547352
 30
0.0
 10
-10.6041946141
 20
23.7229828841
 30
0.0
 10
-10.561892224
 20
23.6786204872
 30
0.0
 10
-10.4919652956
 20
23.6387874753
 30
0.0
 10
-10.4279468109
 20
23.6279126226
 30
0.0
 10
-10.3956323968
 20
23.6278312164
 30
0.0
 11
-10.645628166
 21
23.8443375673
 31
0.0
 11
-10.6407004657
 21
23.8021749995
 31
0.0
 11
-10.626389741
 21
23.7616298799
 31
0.0
 11
-10.6032441408
 21
23.7242490909
 31
0.0
 11
-10.5721495847
 21
23.6914666636
 31
0.0
 11
-10.4911334639
 21
23.6444924903
 31
0.0
 11
-10.3956323968
 21
23.6278312164
 31
0.0
  0
SPLINE
  5
3C8
100
AcDbEntity
  8
RACCORDO
100
AcDbSpline
 62
253
  6
CONTINUOUS
 70
0
 71
3
 72
13
 73
9
 74
7
 42
0.0000001
 43
0.0000001
 44
0.0000000001
 12
-0.0012265939
 22
0.3651868486
 32
0.0
 13
-0.3651877498
 23
0.0009199789
 33
0.0
 40
0.0
 40
0.0
 40
0.0
 40
0.0
 40
0.1162401412
 40
0.2339779602
 40
0.3543714643
 40
0.4780981267
 40
0.7345386771
 40
1.0
 40
1.0
 40
1.0
 40
1.0
 10
-8.254371834
 20
-23.8443375673
 30
0.0
 10
-8.2544193605
 20
-23.830187777
 30
0.0
 10
-8.2577776477
 20
-23.8016147644
 30
0.0
 10
-8.2723349985
 20
-23.7606546878
 30
0.0
 10
-8.2958054152
 20
-23.722982847
 30
0.0
 10
-8.3381078067
 20
-23.6786204663
 30
0.0
 10
-8.408034724
 20
-23.6387874704
 30
0.0
 10
-8.4720531955
 20
-23.6279126226
 30
0.0
 10
-8.5043676032
 20
-23.6278312164
 30
0.0
 11
-8.254371834
 21
-23.8443375673
 31
0.0
 11
-8.2592995459
 21
-23.8021749409
 31
0.0
 11
-8.2736102825
 21
-23.7616298332
 31
0.0
 11
-8.2967558894
 21
-23.7242490524
 31
0.0
 11
-8.3278504455
 21
-23.6914666374
 31
0.0
 11
-8.4088665543
 21
-23.6444924834
 31
0.0
 11
-8.5043676032
 21
-23.6278312164
 31
0.0
  0
SPLINE
  5
3C9
100
AcDbEntity
  8
RACCORDO
100
AcDbSpline
 62
7
  6
CONTINUOUS
 70
0
 71
3
 72
15
 73
11
 74
9
 42
0.0000001
 43
0.0000001
 44
0.0000000001
 12
0.0031741022
 22
0.3149998123
 32
0.0
 13
0.3150158039
 23
-0.0
 33
0.0
 40
0.0
 40
0.0
 40
0.0
 40
0.0
 40
0.0847129374
 40
0.1757006909
 40
0.2778081862
 40
0.3942292046
 40
0.5263924491
 40
0.6737522819
 40
0.8333934372
 40
1.0
 40
1.0
 40
1.0
 40
1.0
 10
8.254371834
 20
-23.8443375673
 30
0.0
 10
8.2544614632
 20
-23.8354427142
 30
0.0
 10
8.2577030547
 20
-23.8169151481
 30
0.0
 10
8.2712510165
 20
-23.7906750928
 30
0.0
 10
8.2931173207
 20
-23.7662437729
 30
0.0
 10
8.3229647126
 20
-23.7443139213
 30
0.0
 10
8.3603248417
 20
-23.7256847024
 30
0.0
 10
8.404297613
 20
-23.7113065128
 30
0.0
 10
8.4533081754
 20
-23.7021703171
 30
0.0
 10
8.4876002652
 20
-23.7
 30
0.0
 10
8.5050948319
 20
-23.7
 30
0.0
 11
8.254371834
 21
-23.8443375673
 31
0.0
 11
8.2588255818
 21
-23.8180259322
 31
0.0
 11
8.2716467936
 21
-23.7923907994
 31
0.0
 11
8.2927961599
 21
-23.7681560707
 31
0.0
 11
8.322129078
 21
-23.7461425298
 31
0.0
 11
8.3592515743
 21
-23.7272939361
 31
0.0
 11
8.4033052251
 21
-23.7126598996
 31
0.0
 11
8.4527144738
 21
-23.7032919418
 31
0.0
 11
8.5050948319
 21
-23.7
 31
0.0
  0
SPLINE
  5
3CA
100
AcDbEntity
  8
RACCORDO
100
AcDbSpline
 62
7
  6
CONTINUOUS
 70
0
 71
3
 72
15
 73
11
 74
9
 42
0.0000001
 43
0.0000001
 44
0.0000000001
 12
0.3142904289
 22
0.0
 32
0.0
 13
0.0031667933
 23
-0.3142744742
 33
0.0
 40
0.0
 40
0.0
 40
0.0
 40
0.0
 40
0.1666545511
 40
0.3262779792
 40
0.4735916211
 40
0.6057108254
 40
0.7221085607
 40
0.8242207343
 40
0.9152394685
 40
1.0
 40
1.0
 40
1.0
 40
1.0
 10
10.3956323968
 20
-23.7
 30
0.0
 10
10.4130917069
 20
-23.7
 30
0.0
 10
10.4473034732
 20
-23.7022700651
 30
0.0
 10
10.4961878482
 20
-23.7114284588
 30
0.0
 10
10.540028913
 20
-23.7258344539
 30
0.0
 10
10.5772691987
 20
-23.744460098
 30
0.0
 10
10.6070169748
 20
-23.7663702269
 30
0.0
 10
10.6288084606
 20
-23.7907682484
 30
0.0
 10
10.6423087823
 20
-23.8169652651
 30
0.0
 10
10.645538693
 20
-23.8354582101
 30
0.0
 10
10.645628166
 20
-23.8443375673
 30
0.0
 11
10.3956323968
 21
-23.7
 31
0.0
 11
10.4479016168
 21
-23.7033728661
 31
0.0
 11
10.49717892
 21
-23.7127849448
 31
0.0
 11
10.5410978905
 21
-23.7274391667
 31
0.0
 11
10.5780992753
 21
-23.7462838901
 31
0.0
 11
10.6073337071
 21
-23.7682757411
 31
0.0
 11
10.6284113806
 21
-23.7924766616
 31
0.0
 11
10.6411891944
 21
-23.8180705836
 31
0.0
 11
10.645628166
 21
-23.8443375673
 31
0.0
  0
SPLINE
  5
3CB
100
AcDbEntity
  8
RACCORDO
100
AcDbSpline
 62
253
  6
CONTINUOUS
 70
0
 71
3
 72
13
 73
9
 74
7
 42
0.0000001
 43
0.0000001
 44
0.0000000001
 12
0.0012265939
 22
0.3651868479
 32
0.0
 13
0.3651877491
 23
0.0009199789
 33
0.0
 40
0.0
 40
0.0
 40
0.0
 40
0.0
 40
0.1162399782
 40
0.2339778175
 40
0.3543713311
 40
0.4780980184
 40
0.7345386243
 40
1.0
 40
1.0
 40
1.0
 40
1.0
 10
-10.645628166
 20
-23.8443375673
 30
0.0
 10
-10.6455806396
 20
-23.8301877969
 30
0.0
 10
-10.6422223551
 20
-23.8016148029
 30
0.0
 10
-10.6276650278
 20
-23.7606547352
 30
0.0
 10
-10.6041946141
 20
-23.7229828841
 30
0.0
 10
-10.561892224
 20
-23.6786204872
 30
0.0
 10
-10.4919652956
 20
-23.6387874753
 30
0.0
 10
-10.4279468109
 20
-23.6279126226
 30
0.0
 10
-10.3956323968
 20
-23.6278312164
 30
0.0
 11
-10.645628166
 21
-23.8443375673
 31
0.0
 11
-10.6407004657
 21
-23.8021749995
 31
0.0
 11
-10.626389741
 21
-23.7616298799
 31
0.0
 11
-10.6032441408
 21
-23.7242490909
 31
0.0
 11
-10.5721495847
 21
-23.6914666636
 31
0.0
 11
-10.4911334639
 21
-23.6444924903
 31
0.0
 11
-10.3956323968
 21
-23.6278312164
 31
0.0
  0
ELLIPSE
  5
3CC
100
AcDbEntity
  8
RACCORDO
100
AcDbEllipse
 62
7
  6
CONTINUOUS
 10
6.659860359
 20
-17.0557392838
 30
0.0
 11
-0.0066971749
 21
0.2029782006
 31
0.0
 40
0.9847915895
 41
-0.0324813299
 42
1.5373047583
  0
ELLIPSE
  5
3CD
100
AcDbEntity
  8
RACCORDO
100
AcDbEllipse
 62
7
  6
CONTINUOUS
 10
-10.6999314524
 20
-21.9412559969
 30
0.0
 11
-0.4025750024
 21
0.2012721715
 31
0.0
 40
0.9998096356
 41
6.7467263073
 42
8.3176749331
  0
ELLIPSE
  5
3CE
100
AcDbEntity
  8
RACCORDO
100
AcDbEllipse
 62
7
  6
CONTINUOUS
 10
-10.6999314524
 20
21.9412559969
 30
0.0
 11
0.4025750024
 21
0.2012721715
 31
0.0
 40
0.9998096356
 41
1.1071030277
 42
2.6780516535
  0
ELLIPSE
  5
3CF
100
AcDbEntity
  8
RACCORDO
100
AcDbEllipse
 62
7
  6
CONTINUOUS
 10
4.0999923843
 20
-17.5000076157
 30
0.0
 11
0.1414321262
 21
0.1414321262
 31
0.0
 40
0.9999238505
 41
-0.7853600872
 42
0.7853600872
  0
ELLIPSE
  5
3D0
100
AcDbEntity
  8
RACCORDO
100
AcDbEllipse
 62
7
  6
CONTINUOUS
 10
-7.0429818832
 20
20.9942501721
 30
0.0
 11
0.2
 21
-0.0
 31
0.0
 40
0.0087268678
 41
1.5707963268
 42
3.1357748894
  0
ELLIPSE
  5
3D1
100
AcDbEntity
  8
RACCORDO
100
AcDbEllipse
 62
7
  6
CONTINUOUS
 10
-7.1517753006
 20
16.7030853224
 30
0.0
 11
0.0066971749
 21
0.2029782006
 31
0.0
 40
0.9847915895
 41
-4.6788974118
 42
-3.1091113237
  0
ELLIPSE
  5
3D2
100
AcDbEntity
  8
RACCORDO
100
AcDbEllipse
 62
7
  6
CONTINUOUS
 10
-6.6482246994
 20
16.7030853224
 30
0.0
 11
-0.0066971749
 21
0.2029782006
 31
0.0
 40
0.9847915895
 41
-3.1740739835
 42
-1.6042878953
  0
ELLIPSE
  5
3D3
100
AcDbEntity
  8
ASSI
100
AcDbEllipse
 62
7
  6
CONTINUOUS
 10
-4.3563662764
 20
23.2563578147
 30
0.0
 11
0.0
 21
0.5
 31
0.0
 40
0.0058178298
 41
-0.149597008
 42
-0.0058177642
  0
ELLIPSE
  5
3D4
100
AcDbEntity
  8
ASSI
100
AcDbEllipse
 62
7
  6
CONTINUOUS
 10
4.3563662764
 20
23.2563578147
 30
0.0
 11
-0.0
 21
0.5
 31
0.0
 40
0.0058178298
 41
0.0058177642
 42
0.149597008
  0
ELLIPSE
  5
3D5
100
AcDbEntity
  8
ASSI
100
AcDbEllipse
 62
7
  6
CONTINUOUS
 10
4.3563662764
 20
-23.2563578147
 30
0.0
 11
-0.0
 21
0.5
 31
0.0
 40
0.0058178298
 41
-3.2911896616
 42
-3.1474104178
  0
ELLIPSE
  5
3D6
100
AcDbEntity
  8
ASSI
100
AcDbEllipse
 62
7
  6
CONTINUOUS
 10
-4.3563662764
 20
-23.2563578147
 30
0.0
 11
-0.0
 21
0.5
 31
0.0
 40
0.0058178298
 41
-3.1357748894
 42
-2.9919956456
  0
ELLIPSE
  5
3D7
100
AcDbEntity
  8
RACCORDO
100
AcDbEllipse
 62
7
  6
CONTINUOUS
 10
4.0415223701
 20
-19.9982546264
 30
0.0
 11
0.2
 21
-0.0
 31
0.0
 40
0.0087268678
 41
-1.5707963268
 42
-0.0087266463
  0
ELLIPSE
  5
3D8
100
AcDbEntity
  8
RACCORDO
100
AcDbEllipse
 62
7
  6
CONTINUOUS
 10
-4.0415223701
 20
-19.9982546264
 30
0.0
 11
0.2
 21
-0.0
 31
0.0
 40
0.0087268678
 41
-3.1328660073
 42
-1.5707963268
  0
ELLIPSE
  5
3D9
100
AcDbEntity
  8
RACCORDO
100
AcDbEllipse
 62
7
  6
CONTINUOUS
 10
-4.0999923843
 20
-17.5000076157
 30
0.0
 11
-0.1414321262
 21
0.1414321262
 31
0.0
 40
0.9999238505
 41
-0.7853600872
 42
0.7853600872
  0
ELLIPSE
  5
3DA
100
AcDbEntity
  8
RACCORDO
100
AcDbEllipse
 62
7
  6
CONTINUOUS
 10
-9.5208325195
 20
-14.7131093409
 30
0.0
 11
0.0
 21
0.5
 31
0.0
 40
0.0174550649
 41
0.0087266463
 42
1.5707963268
  0
ELLIPSE
  5
3DB
100
AcDbEntity
  8
RACCORDO
100
AcDbEllipse
 62
7
  6
CONTINUOUS
 10
9.5208325195
 20
-14.7131093409
 30
0.0
 11
0.0
 21
0.5
 31
0.0
 40
0.0174550649
 41
-1.5707963268
 42
-0.0087266463
  0
ELLIPSE
  5
3DC
100
AcDbEntity
  8
RACCORDO
100
AcDbEllipse
 62
7
  6
CONTINUOUS
 10
-9.5784342338
 20
-19.824454269
 30
0.0
 11
0.0
 21
0.5
 31
0.0
 40
0.0174550649
 41
0.0087266463
 42
1.5707963268
  0
ELLIPSE
  5
3DD
100
AcDbEntity
  8
RACCORDO
100
AcDbEllipse
 62
7
  6
CONTINUOUS
 10
-7.3238531022
 20
-19.824454269
 30
0.0
 11
0.0
 21
0.5
 31
0.0
 40
0.0058178298
 41
-1.5707963268
 42
-0.0087266463
  0
ELLIPSE
  5
3DE
100
AcDbEntity
  8
RACCORDO
100
AcDbEllipse
 62
7
  6
CONTINUOUS
 10
7.1517753006
 20
16.7030853224
 30
0.0
 11
-0.0066971749
 21
0.2029782006
 31
0.0
 40
0.9847915895
 41
-3.1740739835
 42
-1.6042878953
  0
ELLIPSE
  5
3DF
100
AcDbEntity
  8
RACCORDO
100
AcDbEllipse
 62
7
  6
CONTINUOUS
 10
-6.4761468978
 20
-19.824454269
 30
0.0
 11
-0.0
 21
0.5
 31
0.0
 40
0.0058178298
 41
0.0087266463
 42
1.5707963268
  0
ELLIPSE
  5
3E0
100
AcDbEntity
  8
RACCORDO
100
AcDbEllipse
 62
7
  6
CONTINUOUS
 10
7.0429818832
 20
20.9942501721
 30
0.0
 11
0.2
 21
-0.0
 31
0.0
 40
0.0087268678
 41
0.0058177642
 42
1.5707963268
  0
ELLIPSE
  5
3E1
100
AcDbEntity
  8
RACCORDO
100
AcDbEllipse
 62
7
  6
CONTINUOUS
 10
-4.2755647702
 20
-19.824454269
 30
0.0
 11
0.0
 21
0.5
 31
0.0
 40
0.0087268678
 41
-1.5707963268
 42
-0.0087266463
  0
ELLIPSE
  5
3E2
100
AcDbEntity
  8
RACCORDO
100
AcDbEllipse
 62
7
  6
CONTINUOUS
 10
4.2755647702
 20
-19.824454269
 30
0.0
 11
0.0
 21
0.5
 31
0.0
 40
0.0087268678
 41
0.0087266463
 42
1.5707963268
  0
ELLIPSE
  5
3E3
100
AcDbEntity
  8
RACCORDO
100
AcDbEllipse
 62
7
  6
CONTINUOUS
 10
6.4761468978
 20
-19.824454269
 30
0.0
 11
0.0
 21
0.5
 31
0.0
 40
0.0058178298
 41
-1.5707963268
 42
-0.0087266463
  0
ELLIPSE
  5
3E4
100
AcDbEntity
  8
RACCORDO
100
AcDbEllipse
 62
7
  6
CONTINUOUS
 10
7.3238531022
 20
-19.824454269
 30
0.0
 11
-0.0
 21
0.5
 31
0.0
 40
0.0058178298
 41
0.0087266463
 42
1.5707963268
  0
ELLIPSE
  5
3E5
100
AcDbEntity
  8
RACCORDO
100
AcDbEllipse
 62
7
  6
CONTINUOUS
 10
6.6482246994
 20
16.7030853224
 30
0.0
 11
0.0066971749
 21
0.2029782006
 31
0.0
 40
0.9847915895
 41
-4.6788974118
 42
-3.1091113237
  0
ELLIPSE
  5
3E6
100
AcDbEntity
  8
RACCORDO
100
AcDbEllipse
 62
7
  6
CONTINUOUS
 10
9.5784342338
 20
-19.824454269
 30
0.0
 11
0.0
 21
0.5
 31
0.0
 40
0.0174550649
 41
-1.5707963268
 42
-0.0087266463
  0
ELLIPSE
  5
3E7
100
AcDbEntity
  8
DRAFT
100
AcDbEllipse
 62
7
  6
CONTINUOUS
 10
3.9279699877
 20
-22.3339198952
 30
0.0
 11
0.4279699877
 21
-0.0
 31
0.0
 40
0.0087268678
 41
0.0058177642
 42
3.1415926536
  0
ELLIPSE
  5
3E8
100
AcDbEntity
  8
DRAFT
100
AcDbEllipse
 62
7
  6
CONTINUOUS
 10
-3.9279699877
 20
-22.3339198952
 30
0.0
 11
0.4279699877
 21
0.0
 31
0.0
 40
0.0087268678
 41
-0.0
 42
3.1357748894
  0
ELLIPSE
  5
3E9
100
AcDbEntity
  8
RACCORDO
100
AcDbEllipse
 62
7
  6
CONTINUOUS
 10
-6.659860359
 20
-17.0557392838
 30
0.0
 11
0.0066971749
 21
0.2029782006
 31
0.0
 40
0.9847915895
 41
-1.5373047583
 42
0.0324813299
  0
ELLIPSE
  5
3EA
100
AcDbEntity
  8
DRAFT
100
AcDbEllipse
 62
7
  6
CONTINUOUS
 10
3.9279699877
 20
22.3339198952
 30
0.0
 11
0.4279699877
 21
0.0
 31
0.0
 40
0.0087268678
 41
-3.1415926536
 42
-0.0058177642
  0
ELLIPSE
  5
3EB
100
AcDbEntity
  8
DRAFT
100
AcDbEllipse
 62
7
  6
CONTINUOUS
 10
-3.9279699877
 20
22.3339198952
 30
0.0
 11
0.4279699877
 21
0.0
 31
0.0
 40
0.0087268678
 41
-3.1357748894
 42
-0.0
  0
ELLIPSE
  5
3EC
100
AcDbEntity
  8
RACCORDO
100
AcDbEllipse
 62
7
  6
CONTINUOUS
 10
-7.140139641
 20
-17.0557392838
 30
0.0
 11
-0.0066971749
 21
0.2029782006
 31
0.0
 40
0.9847915895
 41
-0.0324813299
 42
1.5373047583
  0
ELLIPSE
  5
3ED
100
AcDbEntity
  8
RACCORDO
100
AcDbEllipse
 62
7
  6
CONTINUOUS
 10
-7.0429818832
 20
-20.9942501721
 30
0.0
 11
0.2
 21
-0.0
 31
0.0
 40
0.0087268678
 41
-3.1357748894
 42
-1.5707963268
  0
ELLIPSE
  5
3EE
100
AcDbEntity
  8
RACCORDO
100
AcDbEllipse
 62
7
  6
CONTINUOUS
 10
7.0429818832
 20
-20.9942501721
 30
0.0
 11
0.2
 21
-0.0
 31
0.0
 40
0.0087268678
 41
-1.5707963268
 42
-0.0058177642
  0
ELLIPSE
  5
3EF
100
AcDbEntity
  8
RACCORDO
100
AcDbEllipse
 62
7
  6
CONTINUOUS
 10
7.140139641
 20
-17.0557392838
 30
0.0
 11
0.0066971749
 21
0.2029782006
 31
0.0
 40
0.9847915895
 41
-1.5373047583
 42
0.0324813299
  0
ELLIPSE
  5
3F0
100
AcDbEntity
  8
RACCORDO
100
AcDbEllipse
 62
7
  6
CONTINUOUS
 10
-3.5183264224
 20
-14.7131093409
 30
0.0
 11
-0.0
 21
0.5
 31
0.0
 40
0.0087268678
 41
0.0087266463
 42
1.5707963268
  0
ELLIPSE
  5
3F1
100
AcDbEntity
  8
RACCORDO
100
AcDbEllipse
 62
7
  6
CONTINUOUS
 10
10.6999314524
 20
-21.9412559969
 30
0.0
 11
-0.4025750024
 21
-0.2012721715
 31
0.0
 40
0.9998096356
 41
1.1071030277
 42
2.6780516535
  0
ELLIPSE
  5
3F2
100
AcDbEntity
  8
RACCORDO
100
AcDbEllipse
 62
7
  6
CONTINUOUS
 10
3.5183264224
 20
-14.7131093409
 30
0.0
 11
0.0
 21
0.5
 31
0.0
 40
0.0087268678
 41
-1.5707963268
 42
-0.0087266463
  0
ELLIPSE
  5
3F3
100
AcDbEntity
  8
RACCORDO
100
AcDbEllipse
 62
7
  6
CONTINUOUS
 10
7.5841007192
 20
20.9916321118
 30
0.0
 11
0.5
 21
0.0
 31
0.0
 40
0.0087268678
 41
0.0174532925
 42
1.5707963268
  0
ELLIPSE
  5
3F4
100
AcDbEntity
  8
RACCORDO
100
AcDbEllipse
 62
7
  6
CONTINUOUS
 10
-7.5841007192
 20
20.9916321118
 30
0.0
 11
0.5
 21
0.0
 31
0.0
 40
0.0087268678
 41
1.5707963268
 42
3.1241393611
  0
ELLIPSE
  5
3F5
100
AcDbEntity
  8
RACCORDO
100
AcDbEllipse
 62
7
  6
CONTINUOUS
 10
7.5841007192
 20
-20.9916321118
 30
0.0
 11
0.5
 21
0.0
 31
0.0
 40
0.0087268678
 41
-1.5707963268
 42
-0.0174532925
  0
ELLIPSE
  5
3F6
100
AcDbEntity
  8
RACCORDO
100
AcDbEllipse
 62
7
  6
CONTINUOUS
 10
-7.5841007192
 20
-20.9916321118
 30
0.0
 11
0.5
 21
0.0
 31
0.0
 40
0.0087268678
 41
-3.1241393611
 42
-1.5707963268
  0
ELLIPSE
  5
3F7
100
AcDbEntity
  8
RACCORDO
100
AcDbEllipse
 62
7
  6
CONTINUOUS
 10
10.6999314524
 20
21.9412559969
 30
0.0
 11
0.4025750024
 21
-0.2012721715
 31
0.0
 40
0.9998096356
 41
6.7467263073
 42
8.3176749331
  0
ELLIPSE
  5
3F8
100
AcDbEntity
  8
RACCORDO
100
AcDbEllipse
 62
7
  6
CONTINUOUS
 10
10.3999957691
 20
23.4113248654
 30
0.0
 11
-0.0029088041
 21
0.2886641433
 31
0.0
 40
0.8660144118
 41
-3.150319066
 42
-1.582431609
  0
ELLIPSE
  5
3F9
100
AcDbEntity
  8
RACCORDO
100
AcDbEllipse
 62
7
  6
CONTINUOUS
 10
8.5000042309
 20
23.4113248654
 30
0.0
 11
0.0029088041
 21
0.2886641433
 31
0.0
 40
0.8660144118
 41
-4.7007536982
 42
-3.1328662412
  0
ELLIPSE
  5
3FA
100
AcDbEntity
  8
SMUSSO
100
AcDbEllipse
 62
7
  6
CONTINUOUS
 10
-9.2533396855
 20
19.959088481
 30
0.0
 11
0.5003049578
 21
0.499695042
 31
0.0
 40
0.0348994837
 41
-1.535868456
 42
-0.0174320068
  0
ELLIPSE
  5
3FB
100
AcDbEntity
  8
RACCORDO
100
AcDbEllipse
 62
7
  6
CONTINUOUS
 10
-8.5000042309
 20
23.4113248654
 30
0.0
 11
-0.0029088041
 21
0.2886641433
 31
0.0
 40
0.8660144118
 41
-3.150319066
 42
-1.582431609
  0
ELLIPSE
  5
3FC
100
AcDbEntity
  8
RACCORDO
100
AcDbEllipse
 62
7
  6
CONTINUOUS
 10
-10.3999957691
 20
23.4113248654
 30
0.0
 11
0.0029088041
 21
0.2886641433
 31
0.0
 40
0.8660144118
 41
-4.7007536982
 42
-3.1328662411
  0
ELLIPSE
  5
3FD
100
AcDbEntity
  8
SMUSSO
100
AcDbEllipse
 62
7
  6
CONTINUOUS
 10
9.2533396855
 20
19.959088481
 30
0.0
 11
0.5003049578
 21
-0.499695042
 31
0.0
 40
0.0348994837
 41
-3.1241606468
 42
-1.6057241976
  0
ELLIPSE
  5
3FE
100
AcDbEntity
  8
RACCORDO
100
AcDbEllipse
 62
7
  6
CONTINUOUS
 10
6.4511302296
 20
19.4266752714
 30
0.0
 11
0.0
 21
0.5
 31
0.0
 40
0.0058178298
 41
0.0087266463
 42
1.5707963268
  0
ELLIPSE
  5
3FF
100
AcDbEntity
  8
RACCORDO
100
AcDbEllipse
 62
7
  6
CONTINUOUS
 10
-6.4511302296
 20
19.4266752714
 30
0.0
 11
0.0
 21
0.5
 31
0.0
 40
0.0058178298
 41
-1.5707963268
 42
-0.0087266463
  0
ELLIPSE
  5
400
100
AcDbEntity
  8
RACCORDO
100
AcDbEllipse
 62
7
  6
CONTINUOUS
 10
-7.3488697704
 20
19.959088481
 30
0.0
 11
0.0
 21
0.5
 31
0.0
 40
0.0058178298
 41
0.0523598776
 42
1.5707963268
  0
ELLIPSE
  5
401
100
AcDbEntity
  8
RACCORDO
100
AcDbEllipse
 62
7
  6
CONTINUOUS
 10
7.3488697704
 20
19.959088481
 30
0.0
 11
-0.0
 21
0.5
 31
0.0
 40
0.0058178298
 41
-1.5707963268
 42
-0.0523598776
  0
ELLIPSE
  5
402
100
AcDbEntity
  8
RACCORDO
100
AcDbEllipse
 62
7
  6
CONTINUOUS
 10
6.5552693832
 20
-20.5829242832
 30
0.0
 11
-0.0
 21
0.5
 31
0.0
 40
0.0058178298
 41
-0.6464131586
 42
-0.0087266463
  0
ELLIPSE
  5
403
100
AcDbEntity
  8
RACCORDO
100
AcDbEllipse
 62
7
  6
CONTINUOUS
 10
-6.5552693832
 20
-20.5829242832
 30
0.0
 11
0.0
 21
0.5
 31
0.0
 40
0.0058178298
 41
0.0087266463
 42
0.6464131586
  0
ELLIPSE
  5
404
100
AcDbEntity
  8
RACCORDO
100
AcDbEllipse
 62
7
  6
CONTINUOUS
 10
6.5552693832
 20
20.5829242832
 30
0.0
 11
-0.0
 21
0.5
 31
0.0
 40
0.0058178298
 41
-3.1328660073
 42
-2.495179495
  0
ELLIPSE
  5
405
100
AcDbEntity
  8
RACCORDO
100
AcDbEllipse
 62
7
  6
CONTINUOUS
 10
-6.5552693832
 20
20.5829242832
 30
0.0
 11
0.0
 21
0.5
 31
0.0
 40
0.0058178298
 41
-3.7880058122
 42
-3.1503192998
  0
ELLIPSE
  5
406
100
AcDbEntity
  8
RACCORDO
100
AcDbEllipse
 62
7
  6
CONTINUOUS
 10
-8.5000042309
 20
-23.4113248654
 30
0.0
 11
0.0029088041
 21
0.2886641433
 31
0.0
 40
0.8660144118
 41
-1.5591610446
 42
0.0087264124
  0
ELLIPSE
  5
407
100
AcDbEntity
  8
RACCORDO
100
AcDbEllipse
 62
7
  6
CONTINUOUS
 10
8.5000042309
 20
-23.4113248654
 30
0.0
 11
-0.0029088041
 21
0.2886641433
 31
0.0
 40
0.8660144118
 41
-0.0087264124
 42
1.5591610446
  0
ELLIPSE
  5
408
100
AcDbEntity
  8
RACCORDO
100
AcDbEllipse
 62
7
  6
CONTINUOUS
 10
10.3999957691
 20
-23.4113248654
 30
0.0
 11
0.0029088041
 21
0.2886641433
 31
0.0
 40
0.8660144118
 41
-1.5591610446
 42
0.0087264124
  0
ELLIPSE
  5
409
100
AcDbEntity
  8
RACCORDO
100
AcDbEllipse
 62
7
  6
CONTINUOUS
 10
-10.3999957691
 20
-23.4113248654
 30
0.0
 11
-0.0029088041
 21
0.2886641433
 31
0.0
 40
0.8660144118
 41
-0.0087264124
 42
1.5591610446
  0
ENDSEC
  0
SECTION
  2
OBJECTS
  0
DICTIONARY
  5
C
100
AcDbDictionary
280
0
281
1
  3
ACAD_GROUP
350
D
  3
ACAD_MLINESTYLE
350
17
  3
ACAD_LAYOUT
350
1A
  3
ACAD_PLOTSETTINGS
350
19
  3
ACAD_PLOTSTYLENAME
350
E
  0
DICTIONARY
  5
D
102
{ACAD_REACTORS
330
C
102
}
100
AcDbDictionary
280
0
281
1
  0
ACDBDICTIONARYWDFLT
  5
E
102
{ACAD_REACTORS
330
C
102
}
100
AcDbDictionary
281
1
  3
Normal
350
F
100
AcDbDictionaryWithDefault
340
F
  0
DICTIONARY
  5
17
102
{ACAD_REACTORS
330
C
102
}
100
AcDbDictionary
280
0
281
1
  3
Standard
350
18
  0
DICTIONARY
  5
19
102
{ACAD_REACTORS
330
C
102
}
100
AcDbDictionary
281
1
  0
DICTIONARY
  5
1A
102
{ACAD_REACTORS
330
C
102
}
100
AcDbDictionary
281
1
  3
Model
350
40A
  3
Layout1
350
40B
  0
ACDBPLACEHOLDER
  5
F
102
{ACAD_REACTORS
330
E
102
}
  0
MLINESTYLE
  5
18
102
{ACAD_REACTORS
330
17
102
}
100
AcDbMlineStyle
  2
STANDARD
 70
0
  3

 62
256
 51
90.0
 52
90.0
 71
2
 49
0.5
 62
256
  6
BYLAYER
 49
-0.5
 62
256
  6
BYLAYER
  0
LAYOUT
  5
40A
102
{ACAD_REACTORS
330
1A
102
}
100
AcDbPlotSettings
  1

  2
none_device
  4
ISO_A4_(297.00_x_210.00_MM)
  6

 40
0.0
 41
0.0
 42
0.0
 43
0.0
 44
297.0
 45
210.0
 46
0.0
 47
0.0
 48
0.0
 49
0.0
140
0.0
141
0.0
142
1.0
143
1.0
 70
1024
 72
1
 73
0
 74
0
  7

 75
0
147
1.0
148
0.0
149
0.0
100
AcDbLayout
  1
Model
 70
0
 71
0
 10
0.0
 20
0.0
 11
297.0
 21
210.0
 12
0.0
 22
0.0
 32
0.0
 14
0.0
 24
0.0
 34
0.0
 15
0.0
 25
0.0
 35
0.0
146
0.0
 13
0.0
 23
0.0
 33
0.0
 16
1.0
 26
0.0
 36
0.0
 17
0.0
 27
1.0
 37
0.0
 76
0
330
210
345
0
346
0
  0
LAYOUT
  5
40B
102
{ACAD_REACTORS
330
1A
102
}
100
AcDbPlotSettings
  1

  2
none_device
  4
ISO_A4_(297.00_x_210.00_MM)
  6

 40
0.0
 41
0.0
 42
0.0
 43
0.0
 44
297.0
 45
210.0
 46
0.0
 47
0.0
 48
0.0
 49
0.0
140
0.0
141
0.0
142
1.0
143
1.0
 70
0
 72
1
 73
0
 74
0
  7

 75
0
147
1.0
148
0.0
149
0.0
100
AcDbLayout
  1
Layout1
 70
0
 71
1
 10
0.0
 20
0.0
 11
297.0
 21
210.0
 12
0.0
 22
0.0
 32
0.0
 14
0.0
 24
0.0
 34
0.0
 15
0.0
 25
0.0
 35
0.0
146
0.0
 13
0.0
 23
0.0
 33
0.0
 16
1.0
 26
0.0
 36
0.0
 17
0.0
 27
1.0
 37
0.0
 76
0
330
211
345
0
346
0
  0
ENDSEC
  0
EOF
