  0
SECTION
  2
HEADER
  9
$ACADVER
  1
AC1015
  9
$DWGCODEPAGE
  3
ANSI_1252
  9
$EXTMAX
 10
297.0
 20
210.0
 30
0.0
  9
$EXTMIN
 10
0.0
 20
0.0
 30
0.0
  9
$LIMMIN
 10
0.0
 20
0.0
  9
$LIMMAX
 10
297.0
 20
210.0
  9
$VIEWCTR
 10
148.5
 20
105.0
  9
$VIEWSIZE
 40
210.0
  9
$CLAYER
  8
0
  9
$LTSCALE
 40
16.335
  9
$CELTYPE
  6
BYLAYER
  9
$DIMSCALE
 40
1.0
  9
$DIMASZ
 40
3.0
  9
$DIMEXO
 40
1.85625
  9
$DIMDLI
 40
11.286
  9
$DIMEXE
 40
5.346
  9
$DIMCEN
 40
2.673
  9
$DIMLFAC
 40
1.0
  9
$DIMBLK
  1
_FILLED
  9
$DIMTXT
 40
3.0
  9
$DIMTOL
 70
1
  9
$DIMLIM
 70
0
  9
$DIMTFAC
 40
1.0
  9
$DIMTP
 40
0.01
  9
$DIMTM
 40
0.01
  9
$PDMODE
 70
3
  9
$PDSIZE
 40
3.0
  9
$HANDSEED
  5
67F
  9
$TILEMODE
 70
1
  9
$MEASUREMENT
 70
1
  9
$INSUNITS
 70
4
  0
ENDSEC
  0
SECTION
  2
CLASSES
  0
CLASS
  1
ACDBDICTIONARYWDFLT
  2
AcDbDictionaryWithDefault
  3
AutoCAD 2000
 90
0
280
0
281
0
  0
CLASS
  1
ACDBPLACEHOLDER
  2
AcDbPlaceHolder
  3
AutoCAD 2000
 90
0
280
0
281
0
  0
CLASS
  1
LAYOUT
  2
AcDbLayout
  3
AutoCAD 2000
 90
0
280
0
281
0
  0
ENDSEC
  0
SECTION
  2
TABLES
  0
TABLE
  2
VPORT
  5
8
100
AcDbSymbolTable
 70
2
  0
VPORT
  5
1F4
100
AcDbSymbolTableRecord
100
AcDbViewportTableRecord
  2
*ACTIVE
 70
0
 10
0.0
 20
0.0
 11
1.0
 21
1.0
 12
148.5
 22
105.0
 13
0.0
 23
0.0
 14
1.0
 24
1.0
 15
0.0
 25
0.0
 16
0.0
 26
0.0
 36
1.0
 17
0.0
 27
0.0
 37
0.0
 40
210.0
 41
1.4142857143
 42
50.0
 43
0.0
 44
0.0
 50
0.0
 51
0.0
 71
0
 72
100
 73
1
 74
1
 75
0
 76
0
 77
0
 78
0
  0
ENDTAB
  0
TABLE
  2
LTYPE
  5
5
100
AcDbSymbolTable
 70
6
  0
LTYPE
  5
14
100
AcDbSymbolTableRecord
100
AcDbLinetypeTableRecord
  2
BYBLOCK
 70
0
  3

 72
65
 73
0
 40
0.0
  0
LTYPE
  5
15
100
AcDbSymbolTableRecord
100
AcDbLinetypeTableRecord
  2
BYLAYER
 70
0
  3

 72
65
 73
0
 40
0.0
  0
LTYPE
  5
16
100
AcDbSymbolTableRecord
100
AcDbLinetypeTableRecord
  2
CONTINUOUS
 70
64
  3
Solid line
 72
65
 73
0
 40
0.0
  0
LTYPE
  5
1F5
100
AcDbSymbolTableRecord
100
AcDbLinetypeTableRecord
  2
CENTER
 70
64
  3
____ _ ____ _ ____ _ ____ _ ____ _ ____ _ ____
 72
65
 73
4
 40
0.6
 49
0.375
 74
0
 49
-0.075
 74
0
 49
0.075
 74
0
 49
-0.075
 74
0
  0
LTYPE
  5
1F6
100
AcDbSymbolTableRecord
100
AcDbLinetypeTableRecord
  2
HIDDEN
 70
64
  3
- - - - - - - - - - - - - - - - - - - -
 72
65
 73
2
 40
0.2
 49
0.1
 74
0
 49
-0.1
 74
0
  0
LTYPE
  5
1F7
100
AcDbSymbolTableRecord
100
AcDbLinetypeTableRecord
  2
PHANTOM
 70
64
  3
_____ _ _ _____ _ _ _____ _ _ _____
 72
65
 73
6
 40
0.8
 49
0.45
 74
0
 49
-0.05
 74
0
 49
0.1
 74
0
 49
-0.05
 74
0
 49
0.1
 74
0
 49
-0.05
 74
0
  0
LTYPE
  5
1F8
100
AcDbSymbolTableRecord
100
AcDbLinetypeTableRecord
  2
DOT
 70
64
  3
. . . . . . . . . . . . . . . . . . . .
 72
65
 73
2
 40
0.2
 49
0.1
 74
0
 49
-0.1
 74
0
  0
LTYPE
  5
1F9
100
AcDbSymbolTableRecord
100
AcDbLinetypeTableRecord
  2
DASHED
 70
64
  3
- - - - - - - - - - - - - - - - - - - -
 72
65
 73
2
 40
0.2
 49
0.1
 74
0
 49
-0.1
 74
0
  0
ENDTAB
  0
TABLE
  2
LAYER
  5
2
100
AcDbSymbolTable
 70
36
  0
LAYER
  5
10
100
AcDbSymbolTableRecord
100
AcDbLayerTableRecord
  2
0
 70
0
 62
7
  6
CONTINUOUS
370
-3
390
F
  0
LAYER
  5
1FA
100
AcDbSymbolTableRecord
100
AcDbLayerTableRecord
  2
DEFAULT_1
 70
0
 62
7
  6
CENTER
370
-3
390
F
  0
LAYER
  5
1FB
100
AcDbSymbolTableRecord
100
AcDbLayerTableRecord
  2
DEFAULT_2
 70
0
 62
7
  6
HIDDEN
370
-3
390
F
  0
LAYER
  5
1FC
100
AcDbSymbolTableRecord
100
AcDbLayerTableRecord
  2
DEFAULT_3
 70
0
 62
7
  6
PHANTOM
370
-3
390
F
  0
LAYER
  5
1FD
100
AcDbSymbolTableRecord
100
AcDbLayerTableRecord
  2
ASSI
 70
0
 62
7
  6
CONTINUOUS
370
-3
390
F
  0
LAYER
  5
1FE
100
AcDbSymbolTableRecord
100
AcDbLayerTableRecord
  2
COLORE
 70
0
 62
7
  6
CONTINUOUS
370
-3
390
F
  0
LAYER
  5
1FF
100
AcDbSymbolTableRecord
100
AcDbLayerTableRecord
  2
COORDINATE
 70
0
 62
7
  6
CONTINUOUS
370
-3
390
F
  0
LAYER
  5
200
100
AcDbSymbolTableRecord
100
AcDbLayerTableRecord
  2
COORD_ORIGINE
 70
0
 62
7
  6
CONTINUOUS
370
-3
390
F
  0
LAYER
  5
201
100
AcDbSymbolTableRecord
100
AcDbLayerTableRecord
  2
COPY_PUBLISH
 70
0
 62
7
  6
CONTINUOUS
370
-3
390
F
  0
LAYER
  5
202
100
AcDbSymbolTableRecord
100
AcDbLayerTableRecord
  2
COSMETICHE
 70
0
 62
7
  6
CONTINUOUS
370
-3
390
F
  0
LAYER
  5
203
100
AcDbSymbolTableRecord
100
AcDbLayerTableRecord
  2
COSMETICI
 70
0
 62
7
  6
CONTINUOUS
370
-3
390
F
  0
LAYER
  5
204
100
AcDbSymbolTableRecord
100
AcDbLayerTableRecord
  2
CURVE
 70
0
 62
7
  6
CONTINUOUS
370
-3
390
F
  0
LAYER
  5
205
100
AcDbSymbolTableRecord
100
AcDbLayerTableRecord
  2
DRAFT
 70
0
 62
7
  6
CONTINUOUS
370
-3
390
F
  0
LAYER
  5
206
100
AcDbSymbolTableRecord
100
AcDbLayerTableRecord
  2
IMPORT_IGES
 70
0
 62
7
  6
CONTINUOUS
370
-3
390
F
  0
LAYER
  5
207
100
AcDbSymbolTableRecord
100
AcDbLayerTableRecord
  2
NOTE
 70
0
 62
7
  6
CONTINUOUS
370
-3
390
F
  0
LAYER
  5
208
100
AcDbSymbolTableRecord
100
AcDbLayerTableRecord
  2
PIANI
 70
0
 62
7
  6
CONTINUOUS
370
-3
390
F
  0
LAYER
  5
209
100
AcDbSymbolTableRecord
100
AcDbLayerTableRecord
  2
PIANI_ORIGINE
 70
0
 62
7
  6
CONTINUOUS
370
-3
390
F
  0
LAYER
  5
20A
100
AcDbSymbolTableRecord
100
AcDbLayerTableRecord
  2
PUNTI
 70
0
 62
7
  6
CONTINUOUS
370
-3
390
F
  0
LAYER
  5
20B
100
AcDbSymbolTableRecord
100
AcDbLayerTableRecord
  2
RACCORDO
 70
0
 62
7
  6
CONTINUOUS
370
-3
390
F
  0
LAYER
  5
20C
100
AcDbSymbolTableRecord
100
AcDbLayerTableRecord
  2
SIMBOLI
 70
0
 62
7
  6
CONTINUOUS
370
-3
390
F
  0
LAYER
  5
20D
100
AcDbSymbolTableRecord
100
AcDbLayerTableRecord
  2
SMUSSO
 70
0
 62
7
  6
CONTINUOUS
370
-3
390
F
  0
LAYER
  5
20E
100
AcDbSymbolTableRecord
100
AcDbLayerTableRecord
  2
SNAPLINE
 70
0
 62
7
  6
CONTINUOUS
370
-3
390
F
  0
LAYER
  5
20F
100
AcDbSymbolTableRecord
100
AcDbLayerTableRecord
  2
SUPERFICI
 70
0
 62
7
  6
CONTINUOUS
370
-3
390
F
  0
LAYER
  5
210
100
AcDbSymbolTableRecord
100
AcDbLayerTableRecord
  2
TRASH
 70
0
 62
7
  6
CONTINUOUS
370
-3
390
F
  0
LAYER
  5
211
100
AcDbSymbolTableRecord
100
AcDbLayerTableRecord
  2
XSEC_DATUMS
 70
0
 62
7
  6
CONTINUOUS
370
-3
390
F
  0
ENDTAB
  0
TABLE
  2
STYLE
  5
3
100
AcDbSymbolTable
 70
1
  0
STYLE
  5
11
100
AcDbSymbolTableRecord
100
AcDbTextStyleTableRecord
  2
STANDARD
 70
0
 40
0.0
 41
0.8
 50
0.0
 71
0
 42
0.2
  3
txt
  4

  0
STYLE
  5
212
100
AcDbSymbolTableRecord
100
AcDbTextStyleTableRecord
  2
TEXTSTYLE_1
 70
0
 40
0.0
 41
0.8
 50
0.0
 71
0
 42
0.2
  3
gdt
  4

  0
ENDTAB
  0
TABLE
  2
VIEW
  5
6
100
AcDbSymbolTable
 70
0
  0
ENDTAB
  0
TABLE
  2
UCS
  5
7
100
AcDbSymbolTable
 70
0
  0
ENDTAB
  0
TABLE
  2
APPID
  5
9
100
AcDbSymbolTable
 70
1
  0
APPID
  5
213
100
AcDbSymbolTableRecord
100
AcDbRegAppTableRecord
  2
ACAD
 70
0
  0
ENDTAB
  0
TABLE
  2
BLOCK_RECORD
  5
1
100
AcDbSymbolTable
 70
0
  0
BLOCK_RECORD
  5
214
100
AcDbSymbolTableRecord
100
AcDbBlockTableRecord
  2
*Model_Space
  0
BLOCK_RECORD
  5
215
100
AcDbSymbolTableRecord
100
AcDbBlockTableRecord
  2
*Paper_Space
  0
ENDTAB
  0
TABLE
  2
DIMSTYLE
  5
A
100
AcDbSymbolTable
 70
1
100
AcDbDimStyleTable
 71
0
  0
DIMSTYLE
105
216
100
AcDbSymbolTableRecord
100
AcDbDimStyleTableRecord
  2
STANDARD
 70
0
  3

  4

 40
1.0
 41
3.0
 42
0.0625
 43
0.38
 44
0.18
 45
0.0
 46
0.0
 47
0.01
 48
0.01
140
3.0
141
0.09
142
0.0
143
25.4
144
1.0
145
0.0
146
1.0
147
0.09
 71
1.0
 72
0.0
 73
0
 74
0
 75
0
 76
0
 77
1
 78
8
170
0
171
2
172
0
173
0
174
0
175
0
176
0
177
0
178
0
270
2
271
2
272
2
273
2
274
2
275
0
280
0
281
0
282
0
283
1
284
8
285
0
286
0
287
3
288
0
340
11
  0
ENDTAB
  0
ENDSEC
  0
SECTION
  2
BLOCKS
  0
BLOCK
  5
20
100
AcDbEntity
  8
0
100
AcDbBlockBegin
  2
*Model_Space
 70
0
 10
0.0
 20
0.0
 30
0.0
  3
*Model_Space
  1

  0
ENDBLK
  5
21
100
AcDbEntity
  8
0
100
AcDbBlockEnd
  0
BLOCK
  5
1C
100
AcDbEntity
  8
0
100
AcDbBlockBegin
  2
*Paper_Space
 70
0
 10
0.0
 20
0.0
 30
0.0
  3
*Paper_Space
  1

  0
ENDBLK
  5
1D
100
AcDbEntity
  8
0
100
AcDbBlockEnd
  0
ENDSEC
  0
SECTION
  2
ENTITIES
  0
LINE
  5
217
100
AcDbEntity
  8
SMUSSO
100
AcDbLine
 62
7
  6
CONTINUOUS
 10
-15.2761825974
 20
26.0762739664
 11
-14.6761825974
 21
26.6762739664
  0
LINE
  5
218
100
AcDbEntity
  8
SMUSSO
100
AcDbLine
 62
7
  6
CONTINUOUS
 10
-14.65
 20
26.650091369
 11
-15.25
 21
26.050091369
  0
LINE
  5
219
100
AcDbEntity
  8
DRAFT
100
AcDbLine
 62
7
  6
CONTINUOUS
 10
-15.25
 20
25.05
 11
-15.2761825974
 21
25.0238174026
  0
LINE
  5
21A
100
AcDbEntity
  8
RACCORDO
100
AcDbLine
 62
7
  6
CONTINUOUS
 10
-12.2281050106
 20
27.1980775868
 11
-12.25
 21
27.1761825974
  0
LINE
  5
21B
100
AcDbEntity
  8
DRAFT
100
AcDbLine
 62
7
  6
CONTINUOUS
 10
-12.0
 20
27.15
 11
-11.9476348052
 21
27.2023651948
  0
LINE
  5
21C
100
AcDbEntity
  8
DRAFT
100
AcDbLine
 62
7
  6
CONTINUOUS
 10
-12.0
 20
27.0
 11
-11.9476348052
 21
27.0523651948
  0
LINE
  5
21D
100
AcDbEntity
  8
RACCORDO
100
AcDbLine
 62
253
  6
CONTINUOUS
 10
-10.5218569132
 20
28.2781050106
 11
-10.4999619238
 21
28.3
  0
LINE
  5
21E
100
AcDbEntity
  8
RACCORDO
100
AcDbLine
 62
253
  6
CONTINUOUS
 10
-10.2718949894
 20
28.0281430868
 11
-10.25
 21
28.0500380762
  0
LINE
  5
21F
100
AcDbEntity
  8
DRAFT
100
AcDbLine
 62
7
  6
CONTINUOUS
 10
-15.25
 20
22.85
 11
-15.2761825974
 21
22.8238174026
  0
LINE
  5
220
100
AcDbEntity
  8
RACCORDO
100
AcDbLine
 62
7
  6
CONTINUOUS
 10
-19.5007615242
 20
-28.75
 11
-7.17064049
 21
-28.75
  0
LINE
  5
221
100
AcDbEntity
  8
RACCORDO
100
AcDbLine
 62
7
  6
CONTINUOUS
 10
7.17064049
 20
-28.75
 11
19.5007615242
 21
-28.75
  0
LINE
  5
222
100
AcDbEntity
  8
RACCORDO
100
AcDbLine
 62
7
  6
CONTINUOUS
 10
-12.0000380762
 20
-28.3
 11
-10.4999619238
 21
-28.3
  0
LINE
  5
223
100
AcDbEntity
  8
RACCORDO
100
AcDbLine
 62
7
  6
CONTINUOUS
 10
10.4999619238
 20
-28.3
 11
12.0000380762
 21
-28.3
  0
LINE
  5
224
100
AcDbEntity
  8
RACCORDO
100
AcDbLine
 62
253
  6
CONTINUOUS
 10
-11.9781430868
 20
-28.2781050106
 11
-10.5218569132
 21
-28.2781050106
  0
LINE
  5
225
100
AcDbEntity
  8
RACCORDO
100
AcDbLine
 62
253
  6
CONTINUOUS
 10
10.5218569132
 20
-28.2781050106
 11
11.9781430868
 21
-28.2781050106
  0
LINE
  5
226
100
AcDbEntity
  8
RACCORDO
100
AcDbLine
 62
253
  6
CONTINUOUS
 10
10.2718949894
 20
-28.0281430868
 11
12.2281050106
 21
-28.0281430868
  0
LINE
  5
227
100
AcDbEntity
  8
RACCORDO
100
AcDbLine
 62
253
  6
CONTINUOUS
 10
-10.2718949894
 20
-28.0281430868
 11
-12.2281050106
 21
-28.0281430868
  0
LINE
  5
228
100
AcDbEntity
  8
RACCORDO
100
AcDbLine
 62
7
  6
CONTINUOUS
 10
11.9781430868
 20
-27.2023651948
 11
11.9476348052
 21
-27.2023651948
  0
LINE
  5
229
100
AcDbEntity
  8
RACCORDO
100
AcDbLine
 62
7
  6
CONTINUOUS
 10
10.5523651948
 20
-27.2023651948
 11
10.5218569132
 21
-27.2023651948
  0
LINE
  5
22A
100
AcDbEntity
  8
RACCORDO
100
AcDbLine
 62
7
  6
CONTINUOUS
 10
-10.5218569132
 20
-27.2023651948
 11
-10.5523651948
 21
-27.2023651948
  0
LINE
  5
22B
100
AcDbEntity
  8
DRAFT
100
AcDbLine
 62
7
  6
CONTINUOUS
 10
14.6761825974
 20
-27.1761825974
 11
12.25
 21
-27.1761825974
  0
LINE
  5
22C
100
AcDbEntity
  8
DRAFT
100
AcDbLine
 62
7
  6
CONTINUOUS
 10
10.25
 20
-27.1761825974
 11
7.8238174026
 21
-27.1761825974
  0
LINE
  5
22D
100
AcDbEntity
  8
DRAFT
100
AcDbLine
 62
7
  6
CONTINUOUS
 10
-7.8238174026
 20
-27.1761825974
 11
-10.25
 21
-27.1761825974
  0
LINE
  5
22E
100
AcDbEntity
  8
DRAFT
100
AcDbLine
 62
7
  6
CONTINUOUS
 10
-12.25
 20
-27.1761825974
 11
-14.6761825974
 21
-27.1761825974
  0
LINE
  5
22F
100
AcDbEntity
  8
DRAFT
100
AcDbLine
 62
7
  6
CONTINUOUS
 10
14.65
 20
-27.15
 11
12.0
 21
-27.15
  0
LINE
  5
230
100
AcDbEntity
  8
DRAFT
100
AcDbLine
 62
7
  6
CONTINUOUS
 10
10.5
 20
-27.15
 11
7.85
 21
-27.15
  0
LINE
  5
231
100
AcDbEntity
  8
DRAFT
100
AcDbLine
 62
7
  6
CONTINUOUS
 10
-7.85
 20
-27.15
 11
-10.5
 21
-27.15
  0
LINE
  5
232
100
AcDbEntity
  8
DRAFT
100
AcDbLine
 62
7
  6
CONTINUOUS
 10
-12.0
 20
-27.15
 11
-14.65
 21
-27.15
  0
LINE
  5
233
100
AcDbEntity
  8
DRAFT
100
AcDbLine
 62
7
  6
CONTINUOUS
 10
-12.0
 20
-27.0523651948
 11
-10.5523651948
 21
-27.0523651948
  0
LINE
  5
234
100
AcDbEntity
  8
DRAFT
100
AcDbLine
 62
7
  6
CONTINUOUS
 10
10.5523651948
 20
-27.0523651948
 11
11.9476348052
 21
-27.0523651948
  0
LINE
  5
235
100
AcDbEntity
  8
DRAFT
100
AcDbLine
 62
7
  6
CONTINUOUS
 10
-12.0
 20
-27.0
 11
-10.5
 21
-27.0
  0
LINE
  5
236
100
AcDbEntity
  8
DRAFT
100
AcDbLine
 62
7
  6
CONTINUOUS
 10
10.5
 20
-27.0
 11
12.0
 21
-27.0
  0
LINE
  5
237
100
AcDbEntity
  8
SMUSSO
100
AcDbLine
 62
7
  6
CONTINUOUS
 10
-14.6761825974
 20
-26.6762739664
 11
-15.2761825974
 21
-26.0762739664
  0
LINE
  5
238
100
AcDbEntity
  8
SMUSSO
100
AcDbLine
 62
7
  6
CONTINUOUS
 10
-15.25
 20
-26.050091369
 11
-14.65
 21
-26.650091369
  0
LINE
  5
239
100
AcDbEntity
  8
DRAFT
100
AcDbLine
 62
7
  6
CONTINUOUS
 10
-15.25
 20
-25.05
 11
-15.2761825974
 21
-25.0238174026
  0
LINE
  5
23A
100
AcDbEntity
  8
RACCORDO
100
AcDbLine
 62
7
  6
CONTINUOUS
 10
-12.2281050106
 20
-27.1980775868
 11
-12.25
 21
-27.1761825974
  0
LINE
  5
23B
100
AcDbEntity
  8
RACCORDO
100
AcDbLine
 62
253
  6
CONTINUOUS
 10
-10.4999619238
 20
-28.3
 11
-10.5218569132
 21
-28.2781050106
  0
LINE
  5
23C
100
AcDbEntity
  8
RACCORDO
100
AcDbLine
 62
253
  6
CONTINUOUS
 10
-10.25
 20
-28.0500380762
 11
-10.2718949894
 21
-28.0281430868
  0
LINE
  5
23D
100
AcDbEntity
  8
DRAFT
100
AcDbLine
 62
7
  6
CONTINUOUS
 10
-15.25
 20
-22.85
 11
-15.2761825974
 21
-22.8238174026
  0
LINE
  5
23E
100
AcDbEntity
  8
RACCORDO
100
AcDbLine
 62
7
  6
CONTINUOUS
 10
-24.5
 20
23.7507615242
 11
-24.5
 21
-23.7507615242
  0
LINE
  5
23F
100
AcDbEntity
  8
DRAFT
100
AcDbLine
 62
7
  6
CONTINUOUS
 10
-7.8238174026
 20
27.1761825974
 11
-7.85
 21
27.15
  0
LINE
  5
240
100
AcDbEntity
  8
SMUSSO
100
AcDbLine
 62
7
  6
CONTINUOUS
 10
-7.85
 20
26.650091369
 11
-7.8238174026
 21
26.6762739664
  0
LINE
  5
241
100
AcDbEntity
  8
SMUSSO
100
AcDbLine
 62
7
  6
CONTINUOUS
 10
-7.25
 20
26.0499999722
 11
-7.2238174026
 21
26.0761825696
  0
LINE
  5
242
100
AcDbEntity
  8
DRAFT
100
AcDbLine
 62
7
  6
CONTINUOUS
 10
8.75
 20
-25.3
 11
13.75
 21
-25.3
  0
LINE
  5
243
100
AcDbEntity
  8
DRAFT
100
AcDbLine
 62
7
  6
CONTINUOUS
 10
-8.75
 20
-25.3
 11
-13.75
 21
-25.3
  0
LINE
  5
244
100
AcDbEntity
  8
DRAFT
100
AcDbLine
 62
7
  6
CONTINUOUS
 10
7.25
 20
-25.05
 11
15.25
 21
-25.05
  0
LINE
  5
245
100
AcDbEntity
  8
DRAFT
100
AcDbLine
 62
7
  6
CONTINUOUS
 10
-7.25
 20
-25.05
 11
-15.25
 21
-25.05
  0
LINE
  5
246
100
AcDbEntity
  8
DRAFT
100
AcDbLine
 62
7
  6
CONTINUOUS
 10
-15.2761825974
 20
-25.0238174026
 11
-7.2238174026
 21
-25.0238174026
  0
LINE
  5
247
100
AcDbEntity
  8
DRAFT
100
AcDbLine
 62
7
  6
CONTINUOUS
 10
7.2238174026
 20
-25.0238174026
 11
15.2761825974
 21
-25.0238174026
  0
LINE
  5
248
100
AcDbEntity
  8
DRAFT
100
AcDbLine
 62
7
  6
CONTINUOUS
 10
15.2761825974
 20
-24.0761825974
 11
7.2238174026
 21
-24.0761825974
  0
LINE
  5
249
100
AcDbEntity
  8
DRAFT
100
AcDbLine
 62
7
  6
CONTINUOUS
 10
-7.2238174026
 20
-24.0761825974
 11
-15.2761825974
 21
-24.0761825974
  0
LINE
  5
24A
100
AcDbEntity
  8
DRAFT
100
AcDbLine
 62
7
  6
CONTINUOUS
 10
15.25
 20
-24.05
 11
7.25
 21
-24.05
  0
LINE
  5
24B
100
AcDbEntity
  8
DRAFT
100
AcDbLine
 62
7
  6
CONTINUOUS
 10
-7.25
 20
-24.05
 11
-15.25
 21
-24.05
  0
LINE
  5
24C
100
AcDbEntity
  8
DRAFT
100
AcDbLine
 62
7
  6
CONTINUOUS
 10
-15.25
 20
-22.85
 11
-7.25
 21
-22.85
  0
LINE
  5
24D
100
AcDbEntity
  8
DRAFT
100
AcDbLine
 62
7
  6
CONTINUOUS
 10
7.25
 20
-22.85
 11
15.25
 21
-22.85
  0
LINE
  5
24E
100
AcDbEntity
  8
DRAFT
100
AcDbLine
 62
7
  6
CONTINUOUS
 10
-15.2761825974
 20
-22.8238174026
 11
-7.2238174026
 21
-22.8238174026
  0
LINE
  5
24F
100
AcDbEntity
  8
DRAFT
100
AcDbLine
 62
7
  6
CONTINUOUS
 10
7.2238174026
 20
-22.8238174026
 11
15.2761825974
 21
-22.8238174026
  0
LINE
  5
250
100
AcDbEntity
  8
DRAFT
100
AcDbLine
 62
7
  6
CONTINUOUS
 10
-7.8238174026
 20
-27.1761825974
 11
-7.85
 21
-27.15
  0
LINE
  5
251
100
AcDbEntity
  8
SMUSSO
100
AcDbLine
 62
7
  6
CONTINUOUS
 10
-7.8238174026
 20
-26.6762739664
 11
-7.85
 21
-26.650091369
  0
LINE
  5
252
100
AcDbEntity
  8
SMUSSO
100
AcDbLine
 62
7
  6
CONTINUOUS
 10
-7.2238174026
 20
-26.0761825696
 11
-7.25
 21
-26.0499999722
  0
LINE
  5
253
100
AcDbEntity
  8
RACCORDO
100
AcDbLine
 62
253
  6
CONTINUOUS
 10
-22.0280042679
 20
5.6414783172
 11
-22.0280042679
 21
-5.6414783172
  0
LINE
  5
254
100
AcDbEntity
  8
RACCORDO
100
AcDbLine
 62
253
  6
CONTINUOUS
 10
-21.5280804203
 20
5.507524126
 11
-21.5280804203
 21
-5.507524126
  0
LINE
  5
255
100
AcDbEntity
  8
RACCORDO
100
AcDbLine
 62
253
  6
CONTINUOUS
 10
-21.5280042679
 20
-21.3329812793
 11
-21.5280042679
 21
-7.1772746771
  0
LINE
  5
256
100
AcDbEntity
  8
RACCORDO
100
AcDbLine
 62
253
  6
CONTINUOUS
 10
-21.5280042679
 20
7.1772746771
 11
-21.5280042679
 21
21.3329812793
  0
LINE
  5
257
100
AcDbEntity
  8
DRAFT
100
AcDbLine
 62
7
  6
CONTINUOUS
 10
-21.5139640519
 20
-3.3742696634
 11
-21.5139640519
 21
3.3742696634
  0
LINE
  5
258
100
AcDbEntity
  8
RACCORDO
100
AcDbLine
 62
253
  6
CONTINUOUS
 10
-21.0280804203
 20
-20.8327524272
 11
-21.0280804203
 21
-7.1772746771
  0
LINE
  5
259
100
AcDbEntity
  8
RACCORDO
100
AcDbLine
 62
253
  6
CONTINUOUS
 10
-21.0280804203
 20
7.1773532877
 11
-21.0280804203
 21
20.8327524272
  0
LINE
  5
25A
100
AcDbEntity
  8
0
100
AcDbLine
 62
7
  6
CONTINUOUS
 10
-20.212781
 20
11.625
 11
-20.212781
 21
10.375
  0
LINE
  5
25B
100
AcDbEntity
  8
0
100
AcDbLine
 62
7
  6
CONTINUOUS
 10
-20.049139
 20
11.42312
 11
-20.049139
 21
10.375
  0
LINE
  5
25C
100
AcDbEntity
  8
0
100
AcDbLine
 62
7
  6
CONTINUOUS
 10
-17.879615
 20
15.269556
 11
-18.370666
 21
13.54891
  0
LINE
  5
25D
100
AcDbEntity
  8
0
100
AcDbLine
 62
7
  6
CONTINUOUS
 10
-17.358179
 20
15.269556
 11
-18.161694
 21
12.76982
  0
LINE
  5
25E
100
AcDbEntity
  8
0
100
AcDbLine
 62
7
  6
CONTINUOUS
 10
-19.178666
 20
11.424838
 11
-19.5303
 21
10.375
  0
LINE
  5
25F
100
AcDbEntity
  8
0
100
AcDbLine
 62
7
  6
CONTINUOUS
 10
-19.255243
 20
11.625
 11
-19.612151
 21
10.563102
  0
LINE
  5
260
100
AcDbEntity
  8
0
100
AcDbLine
 62
7
  6
CONTINUOUS
 10
-18.560561
 20
10.738829
 11
-18.691151
 21
10.375
  0
LINE
  5
261
100
AcDbEntity
  8
0
100
AcDbLine
 62
7
  6
CONTINUOUS
 10
-18.306304
 20
11.443689
 11
-18.508316
 21
10.888546
  0
LINE
  5
262
100
AcDbEntity
  8
0
100
AcDbLine
 62
7
  6
CONTINUOUS
 10
-18.395195
 20
11.625
 11
-18.865231
 21
10.375
  0
LINE
  5
263
100
AcDbEntity
  8
RACCORDO
100
AcDbLine
 62
253
  6
CONTINUOUS
 10
-22.0280042679
 20
5.6414783172
 11
-21.862889746
 21
5.9274650582
  0
LINE
  5
264
100
AcDbEntity
  8
RACCORDO
100
AcDbLine
 62
253
  6
CONTINUOUS
 10
-21.5280804203
 20
5.507524126
 11
-21.429942994
 21
5.6775031344
  0
LINE
  5
265
100
AcDbEntity
  8
DRAFT
100
AcDbLine
 62
7
  6
CONTINUOUS
 10
-7.25
 20
24.05
 11
-7.2238174026
 21
24.0761825974
  0
LINE
  5
266
100
AcDbEntity
  8
RACCORDO
100
AcDbLine
 62
7
  6
CONTINUOUS
 10
-4.0803958661
 20
20.8570360608
 11
-4.041865793
 21
20.8789407483
  0
LINE
  5
267
100
AcDbEntity
  8
RACCORDO
100
AcDbLine
 62
7
  6
CONTINUOUS
 10
-4.041865793
 20
20.8789407483
 11
-4.0104184572
 21
20.8966215058
  0
LINE
  5
268
100
AcDbEntity
  8
RACCORDO
100
AcDbLine
 62
253
  6
CONTINUOUS
 10
21.5280042679
 20
-21.3329812793
 11
18.7450409561
 21
-21.3329812793
  0
LINE
  5
269
100
AcDbEntity
  8
RACCORDO
100
AcDbLine
 62
253
  6
CONTINUOUS
 10
17.2549590439
 20
-21.3329812793
 11
-17.2549590439
 21
-21.3329812793
  0
LINE
  5
26A
100
AcDbEntity
  8
RACCORDO
100
AcDbLine
 62
253
  6
CONTINUOUS
 10
-18.7450409561
 20
-21.3329812793
 11
-21.5280042679
 21
-21.3329812793
  0
LINE
  5
26B
100
AcDbEntity
  8
RACCORDO
100
AcDbLine
 62
253
  6
CONTINUOUS
 10
-21.0286895005
 20
-20.8336665119
 11
21.0286895005
 21
-20.8336665119
  0
LINE
  5
26C
100
AcDbEntity
  8
DRAFT
100
AcDbLine
 62
7
  6
CONTINUOUS
 10
0.5209460779
 20
-20.6855533243
 11
-0.5209460779
 21
-20.6855533243
  0
LINE
  5
26D
100
AcDbEntity
  8
DRAFT
100
AcDbLine
 62
7
  6
CONTINUOUS
 10
20.9425406317
 20
-20.5759243729
 11
0.5574593683
 21
-20.5759243729
  0
LINE
  5
26E
100
AcDbEntity
  8
DRAFT
100
AcDbLine
 62
7
  6
CONTINUOUS
 10
-0.5574593683
 20
-20.5759243729
 11
-20.9425406317
 21
-20.5759243729
  0
LINE
  5
26F
100
AcDbEntity
  8
DRAFT
100
AcDbLine
 62
7
  6
CONTINUOUS
 10
-7.25
 20
-24.05
 11
-7.2238174026
 21
-24.0761825974
  0
LINE
  5
270
100
AcDbEntity
  8
RACCORDO
100
AcDbLine
 62
253
  6
CONTINUOUS
 10
-21.862889746
 20
-5.9274650582
 11
-22.0280042679
 21
-5.6414783172
  0
LINE
  5
271
100
AcDbEntity
  8
RACCORDO
100
AcDbLine
 62
253
  6
CONTINUOUS
 10
-21.4299818339
 20
-5.6774358618
 11
-21.5280804203
 21
-5.507524126
  0
LINE
  5
272
100
AcDbEntity
  8
0
100
AcDbLine
 62
7
  6
CONTINUOUS
 10
-19.178666
 20
11.424838
 11
-19.178666
 21
10.375
  0
LINE
  5
273
100
AcDbEntity
  8
0
100
AcDbLine
 62
7
  6
CONTINUOUS
 10
-19.014958
 20
11.625
 11
-19.014958
 21
10.375
  0
LINE
  5
274
100
AcDbEntity
  8
0
100
AcDbLine
 62
7
  6
CONTINUOUS
 10
-17.58739
 20
11.625
 11
-17.58739
 21
10.375
  0
LINE
  5
275
100
AcDbEntity
  8
0
100
AcDbLine
 62
7
  6
CONTINUOUS
 10
-17.418466
 20
11.48054
 11
-17.418466
 21
10.51946
  0
LINE
  5
276
100
AcDbEntity
  8
0
100
AcDbLine
 62
7
  6
CONTINUOUS
 10
-17.16454
 20
15.269706
 11
-17.16454
 21
12.76982
  0
LINE
  5
277
100
AcDbEntity
  8
0
100
AcDbLine
 62
7
  6
CONTINUOUS
 10
-16.642747
 20
15.269706
 11
-16.642747
 21
12.76982
  0
LINE
  5
278
100
AcDbEntity
  8
0
100
AcDbLine
 62
7
  6
CONTINUOUS
 10
-16.321671
 20
11.625
 11
-16.321671
 21
10.375
  0
LINE
  5
279
100
AcDbEntity
  8
0
100
AcDbLine
 62
7
  6
CONTINUOUS
 10
-16.152756
 20
11.475283
 11
-16.152756
 21
11.092246
  0
LINE
  5
27A
100
AcDbEntity
  8
0
100
AcDbLine
 62
7
  6
CONTINUOUS
 10
-16.152756
 20
10.942529
 11
-16.152756
 21
10.524717
  0
LINE
  5
27B
100
AcDbEntity
  8
0
100
AcDbLine
 62
7
  6
CONTINUOUS
 10
-15.750061
 20
14.4021
 11
-15.862664
 21
12.76982
  0
LINE
  5
27C
100
AcDbEntity
  8
0
100
AcDbLine
 62
7
  6
CONTINUOUS
 10
-16.136138
 20
15.269556
 11
-16.36185
 21
12.76982
  0
LINE
  5
27D
100
AcDbEntity
  8
0
100
AcDbLine
 62
7
  6
CONTINUOUS
 10
-12.718092
 20
14.582692
 11
-12.977901
 21
13.655008
  0
LINE
  5
27E
100
AcDbEntity
  8
0
100
AcDbLine
 62
7
  6
CONTINUOUS
 10
-13.084636
 20
13.268856
 11
-13.228619
 21
12.76982
  0
LINE
  5
27F
100
AcDbEntity
  8
0
100
AcDbLine
 62
7
  6
CONTINUOUS
 10
-12.960674
 20
15.269556
 11
-13.74475
 21
12.76982
  0
LINE
  5
280
100
AcDbEntity
  8
0
100
AcDbLine
 62
7
  6
CONTINUOUS
 10
-14.576702
 20
15.269556
 11
-15.098495
 21
13.881695
  0
LINE
  5
281
100
AcDbEntity
  8
0
100
AcDbLine
 62
7
  6
CONTINUOUS
 10
-14.444342
 20
14.395296
 11
-15.064753
 21
12.76982
  0
LINE
  5
282
100
AcDbEntity
  8
DRAFT
100
AcDbLine
 62
7
  6
CONTINUOUS
 10
-7.8360359481
 20
19.0139640519
 11
-7.85
 21
19.0
  0
LINE
  5
283
100
AcDbEntity
  8
DRAFT
100
AcDbLine
 62
7
  6
CONTINUOUS
 10
-6.3482544935
 20
19.0017455065
 11
-6.35
 21
19.0
  0
LINE
  5
284
100
AcDbEntity
  8
DRAFT
100
AcDbLine
 62
7
  6
CONTINUOUS
 10
5.0607746675
 20
-17.7620957304
 11
3.9392253325
 21
-17.7620957304
  0
LINE
  5
285
100
AcDbEntity
  8
DRAFT
100
AcDbLine
 62
7
  6
CONTINUOUS
 10
-3.9392253325
 20
-17.7620957304
 11
-5.0607746675
 21
-17.7620957304
  0
LINE
  5
286
100
AcDbEntity
  8
DRAFT
100
AcDbLine
 62
7
  6
CONTINUOUS
 10
4.0314191169
 20
-17.3
 11
4.9685808831
 21
-17.3
  0
LINE
  5
287
100
AcDbEntity
  8
DRAFT
100
AcDbLine
 62
7
  6
CONTINUOUS
 10
-4.0314191169
 20
-17.3
 11
-4.9685808831
 21
-17.3
  0
LINE
  5
288
100
AcDbEntity
  8
0
100
AcDbLine
 62
7
  6
CONTINUOUS
 10
11.9624896007
 20
-16.7041634566
 11
11.45
 21
-16.7041634566
  0
LINE
  5
289
100
AcDbEntity
  8
0
100
AcDbLine
 62
7
  6
CONTINUOUS
 10
-14.444342
 20
14.395296
 11
-14.337138
 21
12.76982
  0
LINE
  5
28A
100
AcDbEntity
  8
0
100
AcDbLine
 62
7
  6
CONTINUOUS
 10
-15.468557
 20
11.092246
 11
-15.468557
 21
10.942529
  0
LINE
  5
28B
100
AcDbEntity
  8
0
100
AcDbLine
 62
7
  6
CONTINUOUS
 10
-15.411107
 20
11.625
 11
-15.411107
 21
11.475283
  0
LINE
  5
28C
100
AcDbEntity
  8
0
100
AcDbLine
 62
7
  6
CONTINUOUS
 10
-15.398905
 20
10.524717
 11
-15.398905
 21
10.375
  0
LINE
  5
28D
100
AcDbEntity
  8
SMUSSO
100
AcDbLine
 62
7
  6
CONTINUOUS
 10
-15.2761825974
 20
-26.0762739664
 11
-15.2761825974
 21
-25.0238174026
  0
LINE
  5
28E
100
AcDbEntity
  8
DRAFT
100
AcDbLine
 62
7
  6
CONTINUOUS
 10
-15.2761825974
 20
-24.0761825974
 11
-15.2761825974
 21
-22.8238174026
  0
LINE
  5
28F
100
AcDbEntity
  8
DRAFT
100
AcDbLine
 62
7
  6
CONTINUOUS
 10
-15.2761825974
 20
22.8238174026
 11
-15.2761825974
 21
24.0761825974
  0
LINE
  5
290
100
AcDbEntity
  8
SMUSSO
100
AcDbLine
 62
7
  6
CONTINUOUS
 10
-15.2761825974
 20
25.0238174026
 11
-15.2761825974
 21
26.0762739664
  0
LINE
  5
291
100
AcDbEntity
  8
SMUSSO
100
AcDbLine
 62
7
  6
CONTINUOUS
 10
-15.25
 20
-26.050091369
 11
-15.25
 21
-25.05
  0
LINE
  5
292
100
AcDbEntity
  8
DRAFT
100
AcDbLine
 62
7
  6
CONTINUOUS
 10
-15.25
 20
-24.05
 11
-15.25
 21
-22.85
  0
LINE
  5
293
100
AcDbEntity
  8
DRAFT
100
AcDbLine
 62
7
  6
CONTINUOUS
 10
-15.25
 20
22.85
 11
-15.25
 21
24.05
  0
LINE
  5
294
100
AcDbEntity
  8
SMUSSO
100
AcDbLine
 62
7
  6
CONTINUOUS
 10
-15.25
 20
25.05
 11
-15.25
 21
26.050091369
  0
LINE
  5
295
100
AcDbEntity
  8
SMUSSO
100
AcDbLine
 62
7
  6
CONTINUOUS
 10
-14.6761825974
 20
-27.1761825974
 11
-14.6761825974
 21
-26.6762739664
  0
LINE
  5
296
100
AcDbEntity
  8
SMUSSO
100
AcDbLine
 62
7
  6
CONTINUOUS
 10
-14.6761825974
 20
26.6762739664
 11
-14.6761825974
 21
27.1761825974
  0
LINE
  5
297
100
AcDbEntity
  8
0
100
AcDbLine
 62
7
  6
CONTINUOUS
 10
-14.667667
 20
11.625
 11
-14.667667
 21
10.375
  0
LINE
  5
298
100
AcDbEntity
  8
SMUSSO
100
AcDbLine
 62
7
  6
CONTINUOUS
 10
-14.65
 20
-27.15
 11
-14.65
 21
-26.650091369
  0
LINE
  5
299
100
AcDbEntity
  8
SMUSSO
100
AcDbLine
 62
7
  6
CONTINUOUS
 10
-14.65
 20
26.650091369
 11
-14.65
 21
27.15
  0
LINE
  5
29A
100
AcDbEntity
  8
0
100
AcDbLine
 62
7
  6
CONTINUOUS
 10
-14.498804
 20
11.625
 11
-14.498804
 21
10.375
  0
LINE
  5
29B
100
AcDbEntity
  8
0
100
AcDbLine
 62
7
  6
CONTINUOUS
 10
-14.209843
 20
11.625
 11
-14.209843
 21
10.375
  0
LINE
  5
29C
100
AcDbEntity
  8
0
100
AcDbLine
 62
7
  6
CONTINUOUS
 10
-14.046125
 20
11.39015
 11
-14.046125
 21
10.375
  0
LINE
  5
29D
100
AcDbEntity
  8
DRAFT
100
AcDbLine
 62
7
  6
CONTINUOUS
 10
-13.75
 20
-25.3
 11
-13.75
 21
-25.05
  0
LINE
  5
29E
100
AcDbEntity
  8
DRAFT
100
AcDbLine
 62
7
  6
CONTINUOUS
 10
-13.75
 20
25.05
 11
-13.75
 21
25.3
  0
LINE
  5
29F
100
AcDbEntity
  8
0
100
AcDbLine
 62
7
  6
CONTINUOUS
 10
-13.381052
 20
11.625
 11
-13.381052
 21
10.609645
  0
LINE
  5
2A0
100
AcDbEntity
  8
0
100
AcDbLine
 62
7
  6
CONTINUOUS
 10
-13.217415
 20
11.625
 11
-13.217415
 21
10.375
  0
LINE
  5
2A1
100
AcDbEntity
  8
DRAFT
100
AcDbLine
 62
7
  6
CONTINUOUS
 10
-7.8360359481
 20
20.7903688829
 11
-7.9074593683
 21
20.5759243729
  0
LINE
  5
2A2
100
AcDbEntity
  8
RACCORDO
100
AcDbLine
 62
7
  6
CONTINUOUS
 10
-20.9425406317
 20
-20.5759243729
 11
-21.0280804203
 21
-20.8327524272
  0
LINE
  5
2A3
100
AcDbEntity
  8
0
100
AcDbLine
 62
7
  6
CONTINUOUS
 10
-10.724319
 20
10.738829
 11
-10.85492
 21
10.375
  0
LINE
  5
2A4
100
AcDbEntity
  8
0
100
AcDbLine
 62
7
  6
CONTINUOUS
 10
-10.470083
 20
11.443689
 11
-10.672085
 21
10.888546
  0
LINE
  5
2A5
100
AcDbEntity
  8
0
100
AcDbLine
 62
7
  6
CONTINUOUS
 10
-10.558893
 20
11.625
 11
-11.02899
 21
10.375
  0
LINE
  5
2A6
100
AcDbEntity
  8
0
100
AcDbLine
 62
7
  6
CONTINUOUS
 10
-7.985763
 20
11.625
 11
-8.344335
 21
11.024313
  0
LINE
  5
2A7
100
AcDbEntity
  8
0
100
AcDbLine
 62
7
  6
CONTINUOUS
 10
-7.787219
 20
11.625
 11
-8.259115
 21
10.878134
  0
LINE
  5
2A8
100
AcDbEntity
  8
SMUSSO
100
AcDbLine
 62
7
  6
CONTINUOUS
 10
7.2238174026
 20
26.0762739664
 11
7.8238174026
 21
26.6762739664
  0
LINE
  5
2A9
100
AcDbEntity
  8
SMUSSO
100
AcDbLine
 62
7
  6
CONTINUOUS
 10
7.85
 20
26.650091369
 11
7.25
 21
26.050091369
  0
LINE
  5
2AA
100
AcDbEntity
  8
RACCORDO
100
AcDbLine
 62
7
  6
CONTINUOUS
 10
-5.2089304955
 20
14.0918784286
 11
-5.1232552409
 21
14.1264265566
  0
LINE
  5
2AB
100
AcDbEntity
  8
DRAFT
100
AcDbLine
 62
7
  6
CONTINUOUS
 10
-5.6664934336
 20
13.7150141941
 11
-4.7762915913
 21
14.0739837398
  0
LINE
  5
2AC
100
AcDbEntity
  8
RACCORDO
100
AcDbLine
 62
253
  6
CONTINUOUS
 10
4.9685808831
 20
-15.8437138263
 11
4.0314191169
 21
-15.8437138263
  0
LINE
  5
2AD
100
AcDbEntity
  8
RACCORDO
100
AcDbLine
 62
253
  6
CONTINUOUS
 10
-4.0314191169
 20
-15.8437138263
 11
-4.9685808831
 21
-15.8437138263
  0
LINE
  5
2AE
100
AcDbEntity
  8
0
100
AcDbLine
 62
7
  6
CONTINUOUS
 10
4.75
 20
-15.5
 11
-5.7432825
 21
-15.5
  0
LINE
  5
2AF
100
AcDbEntity
  8
RACCORDO
100
AcDbLine
 62
253
  6
CONTINUOUS
 10
4.9771560991
 20
-15.3437899788
 11
4.0228439009
 21
-15.3437899788
  0
LINE
  5
2B0
100
AcDbEntity
  8
RACCORDO
100
AcDbLine
 62
253
  6
CONTINUOUS
 10
-4.0228439009
 20
-15.3437899788
 11
-4.9771560991
 21
-15.3437899788
  0
LINE
  5
2B1
100
AcDbEntity
  8
0
100
AcDbLine
 62
7
  6
CONTINUOUS
 10
10.0
 20
-15.3
 11
4.95
 21
-15.3
  0
LINE
  5
2B2
100
AcDbEntity
  8
DRAFT
100
AcDbLine
 62
7
  6
CONTINUOUS
 10
-5.0209460779
 20
-15.3
 11
-3.9790539221
 21
-15.3
  0
LINE
  5
2B3
100
AcDbEntity
  8
DRAFT
100
AcDbLine
 62
7
  6
CONTINUOUS
 10
3.9790539221
 20
-15.3
 11
4.95
 21
-15.3
  0
LINE
  5
2B4
100
AcDbEntity
  8
0
100
AcDbLine
 62
7
  6
CONTINUOUS
 10
4.95
 20
-15.1932825
 11
-6.05
 21
-15.1932825
  0
LINE
  5
2B5
100
AcDbEntity
  8
0
100
AcDbLine
 62
7
  6
CONTINUOUS
 10
12.1989841002
 20
-14.35
 11
12.3683017671
 21
-14.35
  0
LINE
  5
2B6
100
AcDbEntity
  8
0
100
AcDbLine
 62
7
  6
CONTINUOUS
 10
12.1989841002
 20
-13.65
 11
12.3683017671
 21
-13.65
  0
LINE
  5
2B7
100
AcDbEntity
  8
0
100
AcDbLine
 62
7
  6
CONTINUOUS
 10
4.95
 20
-12.8067175
 11
-6.05
 21
-12.8067175
  0
LINE
  5
2B8
100
AcDbEntity
  8
0
100
AcDbLine
 62
7
  6
CONTINUOUS
 10
-6.05
 20
-15.1932825
 11
-5.7432825
 21
-15.5
  0
LINE
  5
2B9
100
AcDbEntity
  8
RACCORDO
100
AcDbLine
 62
7
  6
CONTINUOUS
 10
-5.0209460779
 20
-15.3
 11
-4.9771560991
 21
-15.3437899788
  0
LINE
  5
2BA
100
AcDbEntity
  8
SMUSSO
100
AcDbLine
 62
7
  6
CONTINUOUS
 10
7.8238174026
 20
-26.6762739664
 11
7.2238174026
 21
-26.0762739664
  0
LINE
  5
2BB
100
AcDbEntity
  8
SMUSSO
100
AcDbLine
 62
7
  6
CONTINUOUS
 10
7.25
 20
-26.050091369
 11
7.85
 21
-26.650091369
  0
LINE
  5
2BC
100
AcDbEntity
  8
0
100
AcDbLine
 62
7
  6
CONTINUOUS
 10
-18.203656
 20
11.625
 11
-17.751028
 21
10.375
  0
LINE
  5
2BD
100
AcDbEntity
  8
0
100
AcDbLine
 62
7
  6
CONTINUOUS
 10
-18.059186
 20
10.738829
 11
-17.935591
 21
10.375
  0
LINE
  5
2BE
100
AcDbEntity
  8
0
100
AcDbLine
 62
7
  6
CONTINUOUS
 10
-19.970779
 20
11.625
 11
-19.612151
 21
10.563102
  0
LINE
  5
2BF
100
AcDbEntity
  8
0
100
AcDbLine
 62
7
  6
CONTINUOUS
 10
-20.049139
 20
11.42312
 11
-19.697438
 21
10.375
  0
LINE
  5
2C0
100
AcDbEntity
  8
0
100
AcDbLine
 62
7
  6
CONTINUOUS
 10
-18.306304
 20
11.443689
 11
-18.120073
 21
10.888546
  0
LINE
  5
2C1
100
AcDbEntity
  8
RACCORDO
100
AcDbLine
 62
7
  6
CONTINUOUS
 10
-20.9425406317
 20
20.5759243729
 11
-21.0280804203
 21
20.8327524272
  0
LINE
  5
2C2
100
AcDbEntity
  8
0
100
AcDbLine
 62
7
  6
CONTINUOUS
 10
-19.413989
 20
15.269556
 11
-18.621524
 21
12.76982
  0
LINE
  5
2C3
100
AcDbEntity
  8
0
100
AcDbLine
 62
7
  6
CONTINUOUS
 10
-18.847161
 20
15.269556
 11
-18.370666
 21
13.54891
  0
LINE
  5
2C4
100
AcDbEntity
  8
0
100
AcDbLine
 62
7
  6
CONTINUOUS
 10
-14.060439
 20
15.269556
 11
-13.826686
 21
12.76982
  0
LINE
  5
2C5
100
AcDbEntity
  8
0
100
AcDbLine
 62
7
  6
CONTINUOUS
 10
-12.442708
 20
11.625
 11
-12.442708
 21
10.375
  0
LINE
  5
2C6
100
AcDbEntity
  8
0
100
AcDbLine
 62
7
  6
CONTINUOUS
 10
-12.273794
 20
11.625
 11
-12.273794
 21
10.375
  0
LINE
  5
2C7
100
AcDbEntity
  8
RACCORDO
100
AcDbLine
 62
7
  6
CONTINUOUS
 10
-12.25
 20
-28.0500380762
 11
-12.25
 21
-27.1761825974
  0
LINE
  5
2C8
100
AcDbEntity
  8
RACCORDO
100
AcDbLine
 62
7
  6
CONTINUOUS
 10
-12.25
 20
27.1761825974
 11
-12.25
 21
28.0500380762
  0
LINE
  5
2C9
100
AcDbEntity
  8
RACCORDO
100
AcDbLine
 62
253
  6
CONTINUOUS
 10
-12.2281050106
 20
28.0281430868
 11
-12.2281050106
 21
27.1980775868
  0
LINE
  5
2CA
100
AcDbEntity
  8
RACCORDO
100
AcDbLine
 62
253
  6
CONTINUOUS
 10
-12.2281050106
 20
-27.1980775868
 11
-12.2281050106
 21
-28.0281430868
  0
LINE
  5
2CB
100
AcDbEntity
  8
0
100
AcDbLine
 62
7
  6
CONTINUOUS
 10
-12.092728
 20
11.625
 11
-12.092728
 21
11.475283
  0
LINE
  5
2CC
100
AcDbEntity
  8
RACCORDO
100
AcDbLine
 62
7
  6
CONTINUOUS
 10
-12.0
 20
-27.2023484854
 11
-12.0
 21
-27.0523651948
  0
LINE
  5
2CD
100
AcDbEntity
  8
DRAFT
100
AcDbLine
 62
7
  6
CONTINUOUS
 10
-12.0
 20
-27.0
 11
-12.0
 21
-27.0523651948
  0
LINE
  5
2CE
100
AcDbEntity
  8
DRAFT
100
AcDbLine
 62
7
  6
CONTINUOUS
 10
-12.0
 20
27.0
 11
-12.0
 21
27.15
  0
LINE
  5
2CF
100
AcDbEntity
  8
RACCORDO
100
AcDbLine
 62
253
  6
CONTINUOUS
 10
-11.9781430868
 20
-27.2023651948
 11
-11.9781430868
 21
-28.2781050106
  0
LINE
  5
2D0
100
AcDbEntity
  8
RACCORDO
100
AcDbLine
 62
253
  6
CONTINUOUS
 10
-11.9781430868
 20
27.2023651948
 11
-11.9781430868
 21
28.2781050106
  0
LINE
  5
2D1
100
AcDbEntity
  8
DRAFT
100
AcDbLine
 62
7
  6
CONTINUOUS
 10
-11.9476348052
 20
27.0523651948
 11
-11.9476348052
 21
27.2023651948
  0
LINE
  5
2D2
100
AcDbEntity
  8
0
100
AcDbLine
 62
7
  6
CONTINUOUS
 10
-11.669659
 20
11.475283
 11
-11.669659
 21
10.375
  0
LINE
  5
2D3
100
AcDbEntity
  8
0
100
AcDbLine
 62
7
  6
CONTINUOUS
 10
-11.5356974979
 20
15.2403505884
 11
-11.5356974979
 21
12.7698202193
  0
LINE
  5
2D4
100
AcDbEntity
  8
0
100
AcDbLine
 62
7
  6
CONTINUOUS
 10
-11.500805
 20
11.475283
 11
-11.500805
 21
10.375
  0
LINE
  5
2D5
100
AcDbEntity
  8
0
100
AcDbLine
 62
7
  6
CONTINUOUS
 10
-11.077736
 20
11.625
 11
-11.077736
 21
11.475283
  0
LINE
  5
2D6
100
AcDbEntity
  8
0
100
AcDbLine
 62
7
  6
CONTINUOUS
 10
-11.0333060231
 20
14.843701075
 11
-11.0333060231
 21
14.1574749227
  0
LINE
  5
2D7
100
AcDbEntity
  8
0
100
AcDbLine
 62
7
  6
CONTINUOUS
 10
-11.0160041564
 20
13.7480786386
 11
-11.0160041564
 21
12.7698202193
  0
LINE
  5
2D8
100
AcDbEntity
  8
DRAFT
100
AcDbLine
 62
7
  6
CONTINUOUS
 10
-10.5523651948
 20
27.2023651948
 11
-10.5523651948
 21
27.0523651948
  0
LINE
  5
2D9
100
AcDbEntity
  8
DRAFT
100
AcDbLine
 62
7
  6
CONTINUOUS
 10
-10.5523651948
 20
-27.0523651948
 11
-10.5523651948
 21
-27.2023651948
  0
LINE
  5
2DA
100
AcDbEntity
  8
RACCORDO
100
AcDbLine
 62
253
  6
CONTINUOUS
 10
-10.5218569132
 20
-27.2023651948
 11
-10.5218569132
 21
-28.2781050106
  0
LINE
  5
2DB
100
AcDbEntity
  8
RACCORDO
100
AcDbLine
 62
253
  6
CONTINUOUS
 10
-10.5218569132
 20
27.2023651948
 11
-10.5218569132
 21
28.2781050106
  0
LINE
  5
2DC
100
AcDbEntity
  8
DRAFT
100
AcDbLine
 62
7
  6
CONTINUOUS
 10
-10.5
 20
27.15
 11
-10.5
 21
27.0
  0
LINE
  5
2DD
100
AcDbEntity
  8
DRAFT
100
AcDbLine
 62
7
  6
CONTINUOUS
 10
-10.5
 20
-27.0
 11
-10.5
 21
-27.15
  0
LINE
  5
2DE
100
AcDbEntity
  8
RACCORDO
100
AcDbLine
 62
253
  6
CONTINUOUS
 10
-10.2718949894
 20
-28.0281430868
 11
-10.2718949894
 21
-27.1980775868
  0
LINE
  5
2DF
100
AcDbEntity
  8
RACCORDO
100
AcDbLine
 62
253
  6
CONTINUOUS
 10
-10.2718949894
 20
27.1980775868
 11
-10.2718949894
 21
28.0281430868
  0
LINE
  5
2E0
100
AcDbEntity
  8
RACCORDO
100
AcDbLine
 62
7
  6
CONTINUOUS
 10
-10.25
 20
28.0500380762
 11
-10.25
 21
27.1761825974
  0
LINE
  5
2E1
100
AcDbEntity
  8
RACCORDO
100
AcDbLine
 62
7
  6
CONTINUOUS
 10
-10.25
 20
-27.1761825974
 11
-10.25
 21
-28.0500380762
  0
LINE
  5
2E2
100
AcDbEntity
  8
0
100
AcDbLine
 62
7
  6
CONTINUOUS
 10
-10.1941936028
 20
13.9514458678
 11
-10.1941936028
 21
13.9366746099
  0
LINE
  5
2E3
100
AcDbEntity
  8
0
100
AcDbLine
 62
7
  6
CONTINUOUS
 10
-9.759823
 20
11.625
 11
-9.759823
 21
10.375
  0
LINE
  5
2E4
100
AcDbEntity
  8
0
100
AcDbLine
 62
7
  6
CONTINUOUS
 10
-9.590898
 20
11.625
 11
-9.590898
 21
10.524717
  0
LINE
  5
2E5
100
AcDbEntity
  8
DRAFT
100
AcDbLine
 62
7
  6
CONTINUOUS
 10
-6.1467267152
 20
18.1892899476
 11
-6.1098533507
 21
18.3
  0
LINE
  5
2E6
100
AcDbEntity
  8
RACCORDO
100
AcDbLine
 62
7
  6
CONTINUOUS
 10
-5.15
 20
18.3
 11
-5.205129433
 21
18.1344772037
  0
LINE
  5
2E7
100
AcDbEntity
  8
RACCORDO
100
AcDbLine
 62
253
  6
CONTINUOUS
 10
4.2545287435
 20
21.3329812793
 11
3.943584033
 21
20.9430322178
  0
LINE
  5
2E8
100
AcDbEntity
  8
RACCORDO
100
AcDbLine
 62
253
  6
CONTINUOUS
 10
3.943584033
 20
20.9430322178
 11
3.9427398953
 21
20.9421005896
  0
LINE
  5
2E9
100
AcDbEntity
  8
DRAFT
100
AcDbLine
 62
7
  6
CONTINUOUS
 10
7.25
 20
25.05
 11
7.2238174026
 21
25.0238174026
  0
LINE
  5
2EA
100
AcDbEntity
  8
RACCORDO
100
AcDbLine
 62
7
  6
CONTINUOUS
 10
10.2718949894
 20
27.1980775868
 11
10.25
 21
27.1761825974
  0
LINE
  5
2EB
100
AcDbEntity
  8
DRAFT
100
AcDbLine
 62
7
  6
CONTINUOUS
 10
10.5
 20
27.15
 11
10.5523651948
 21
27.2023651948
  0
LINE
  5
2EC
100
AcDbEntity
  8
DRAFT
100
AcDbLine
 62
7
  6
CONTINUOUS
 10
10.5
 20
27.0
 11
10.5523651948
 21
27.0523651948
  0
LINE
  5
2ED
100
AcDbEntity
  8
RACCORDO
100
AcDbLine
 62
253
  6
CONTINUOUS
 10
11.9781430868
 20
28.2781050106
 11
12.0000380762
 21
28.3
  0
LINE
  5
2EE
100
AcDbEntity
  8
RACCORDO
100
AcDbLine
 62
253
  6
CONTINUOUS
 10
12.2281050106
 20
28.0281430868
 11
12.25
 21
28.0500380762
  0
LINE
  5
2EF
100
AcDbEntity
  8
DRAFT
100
AcDbLine
 62
7
  6
CONTINUOUS
 10
7.25
 20
22.85
 11
7.2238174026
 21
22.8238174026
  0
LINE
  5
2F0
100
AcDbEntity
  8
0
100
AcDbLine
 62
7
  6
CONTINUOUS
 10
10.0
 20
-12.7
 11
4.95
 21
-12.7
  0
LINE
  5
2F1
100
AcDbEntity
  8
DRAFT
100
AcDbLine
 62
7
  6
CONTINUOUS
 10
-5.0209460779
 20
-12.7
 11
-3.9790539221
 21
-12.7
  0
LINE
  5
2F2
100
AcDbEntity
  8
DRAFT
100
AcDbLine
 62
7
  6
CONTINUOUS
 10
3.9790539221
 20
-12.7
 11
4.95
 21
-12.7
  0
LINE
  5
2F3
100
AcDbEntity
  8
RACCORDO
100
AcDbLine
 62
253
  6
CONTINUOUS
 10
-4.9771560991
 20
-12.6562100212
 11
-4.0228439009
 21
-12.6562100212
  0
LINE
  5
2F4
100
AcDbEntity
  8
RACCORDO
100
AcDbLine
 62
253
  6
CONTINUOUS
 10
4.0228439009
 20
-12.6562100212
 11
4.9771560991
 21
-12.6562100212
  0
LINE
  5
2F5
100
AcDbEntity
  8
0
100
AcDbLine
 62
7
  6
CONTINUOUS
 10
-5.7432825
 20
-12.5
 11
4.75
 21
-12.5
  0
LINE
  5
2F6
100
AcDbEntity
  8
RACCORDO
100
AcDbLine
 62
253
  6
CONTINUOUS
 10
-4.9685808831
 20
-12.1562861737
 11
-4.0314191169
 21
-12.1562861737
  0
LINE
  5
2F7
100
AcDbEntity
  8
RACCORDO
100
AcDbLine
 62
253
  6
CONTINUOUS
 10
4.0314191169
 20
-12.1562861737
 11
4.9685808831
 21
-12.1562861737
  0
LINE
  5
2F8
100
AcDbEntity
  8
0
100
AcDbLine
 62
7
  6
CONTINUOUS
 10
11.9624896007
 20
-11.2958365434
 11
11.45
 21
-11.2958365434
  0
LINE
  5
2F9
100
AcDbEntity
  8
DRAFT
100
AcDbLine
 62
7
  6
CONTINUOUS
 10
4.0314191169
 20
-10.7
 11
4.9685808831
 21
-10.7
  0
LINE
  5
2FA
100
AcDbEntity
  8
DRAFT
100
AcDbLine
 62
7
  6
CONTINUOUS
 10
-4.0314191169
 20
-10.7
 11
-4.9685808831
 21
-10.7
  0
LINE
  5
2FB
100
AcDbEntity
  8
DRAFT
100
AcDbLine
 62
7
  6
CONTINUOUS
 10
-5.0645837402
 20
-10.2188123506
 11
-3.9354162598
 21
-10.2188123506
  0
LINE
  5
2FC
100
AcDbEntity
  8
DRAFT
100
AcDbLine
 62
7
  6
CONTINUOUS
 10
5.0645837402
 20
-10.2188123506
 11
3.9354162598
 21
-10.2188123506
  0
LINE
  5
2FD
100
AcDbEntity
  8
DRAFT
100
AcDbLine
 62
253
  6
CONTINUOUS
 10
20.9335007086
 20
-9.5
 11
0.5664992914
 21
-9.5
  0
LINE
  5
2FE
100
AcDbEntity
  8
DRAFT
100
AcDbLine
 62
253
  6
CONTINUOUS
 10
-0.5664992914
 20
-9.5
 11
-20.9335007086
 21
-9.5
  0
LINE
  5
2FF
100
AcDbEntity
  8
DRAFT
100
AcDbLine
 62
7
  6
CONTINUOUS
 10
7.25
 20
-25.05
 11
7.2238174026
 21
-25.0238174026
  0
LINE
  5
300
100
AcDbEntity
  8
RACCORDO
100
AcDbLine
 62
7
  6
CONTINUOUS
 10
10.2718949894
 20
-27.1980775868
 11
10.25
 21
-27.1761825974
  0
LINE
  5
301
100
AcDbEntity
  8
RACCORDO
100
AcDbLine
 62
7
  6
CONTINUOUS
 10
-3.9790539221
 20
-12.7
 11
-4.0228439009
 21
-12.6562100212
  0
LINE
  5
302
100
AcDbEntity
  8
DRAFT
100
AcDbLine
 62
7
  6
CONTINUOUS
 10
10.5
 20
-27.15
 11
10.5523651948
 21
-27.2023651948
  0
LINE
  5
303
100
AcDbEntity
  8
DRAFT
100
AcDbLine
 62
7
  6
CONTINUOUS
 10
10.5
 20
-27.0
 11
10.5523651948
 21
-27.0523651948
  0
LINE
  5
304
100
AcDbEntity
  8
RACCORDO
100
AcDbLine
 62
253
  6
CONTINUOUS
 10
12.0000380762
 20
-28.3
 11
11.9781430868
 21
-28.2781050106
  0
LINE
  5
305
100
AcDbEntity
  8
RACCORDO
100
AcDbLine
 62
253
  6
CONTINUOUS
 10
12.25
 20
-28.0500380762
 11
12.2281050106
 21
-28.0281430868
  0
LINE
  5
306
100
AcDbEntity
  8
DRAFT
100
AcDbLine
 62
7
  6
CONTINUOUS
 10
7.25
 20
-22.85
 11
7.2238174026
 21
-22.8238174026
  0
LINE
  5
307
100
AcDbEntity
  8
0
100
AcDbLine
 62
7
  6
CONTINUOUS
 10
-15.750061
 20
14.4021
 11
-15.137935
 21
12.76982
  0
LINE
  5
308
100
AcDbEntity
  8
0
100
AcDbLine
 62
7
  6
CONTINUOUS
 10
-8.957154
 20
10.524717
 11
-8.957154
 21
10.375
  0
LINE
  5
309
100
AcDbEntity
  8
DRAFT
100
AcDbLine
 62
7
  6
CONTINUOUS
 10
-8.75
 20
-25.3
 11
-8.75
 21
-25.05
  0
LINE
  5
30A
100
AcDbEntity
  8
DRAFT
100
AcDbLine
 62
7
  6
CONTINUOUS
 10
-8.75
 20
25.05
 11
-8.75
 21
25.3
  0
LINE
  5
30B
100
AcDbEntity
  8
0
100
AcDbLine
 62
7
  6
CONTINUOUS
 10
-8.427938
 20
10.878134
 11
-8.427938
 21
10.375
  0
LINE
  5
30C
100
AcDbEntity
  8
0
100
AcDbLine
 62
7
  6
CONTINUOUS
 10
-8.259115
 20
10.878134
 11
-8.259115
 21
10.375
  0
LINE
  5
30D
100
AcDbEntity
  8
SMUSSO
100
AcDbLine
 62
7
  6
CONTINUOUS
 10
-7.85
 20
27.15
 11
-7.85
 21
26.650091369
  0
LINE
  5
30E
100
AcDbEntity
  8
SMUSSO
100
AcDbLine
 62
7
  6
CONTINUOUS
 10
-7.85
 20
-26.650091369
 11
-7.85
 21
-27.15
  0
LINE
  5
30F
100
AcDbEntity
  8
DRAFT
100
AcDbLine
 62
7
  6
CONTINUOUS
 10
-7.85
 20
16.0
 11
-7.85
 21
19.0
  0
LINE
  5
310
100
AcDbEntity
  8
DRAFT
100
AcDbLine
 62
7
  6
CONTINUOUS
 10
-7.8360359481
 20
20.7903688829
 11
-7.8360359481
 21
19.0139640519
  0
LINE
  5
311
100
AcDbEntity
  8
SMUSSO
100
AcDbLine
 62
7
  6
CONTINUOUS
 10
-7.8238174026
 20
27.1761825974
 11
-7.8238174026
 21
26.6762739664
  0
LINE
  5
312
100
AcDbEntity
  8
SMUSSO
100
AcDbLine
 62
7
  6
CONTINUOUS
 10
-7.8238174026
 20
-26.6762739664
 11
-7.8238174026
 21
-27.1761825974
  0
LINE
  5
313
100
AcDbEntity
  8
SMUSSO
100
AcDbLine
 62
7
  6
CONTINUOUS
 10
-7.25
 20
26.050091369
 11
-7.25
 21
25.05
  0
LINE
  5
314
100
AcDbEntity
  8
DRAFT
100
AcDbLine
 62
7
  6
CONTINUOUS
 10
-7.25
 20
24.05
 11
-7.25
 21
22.85
  0
LINE
  5
315
100
AcDbEntity
  8
DRAFT
100
AcDbLine
 62
7
  6
CONTINUOUS
 10
-7.25
 20
-22.85
 11
-7.25
 21
-24.05
  0
LINE
  5
316
100
AcDbEntity
  8
SMUSSO
100
AcDbLine
 62
7
  6
CONTINUOUS
 10
-7.25
 20
-25.05
 11
-7.25
 21
-26.050091369
  0
LINE
  5
317
100
AcDbEntity
  8
SMUSSO
100
AcDbLine
 62
7
  6
CONTINUOUS
 10
-7.2238174026
 20
26.0762739664
 11
-7.2238174026
 21
25.0238174026
  0
LINE
  5
318
100
AcDbEntity
  8
DRAFT
100
AcDbLine
 62
7
  6
CONTINUOUS
 10
-7.2238174026
 20
24.0761825974
 11
-7.2238174026
 21
22.8238174026
  0
LINE
  5
319
100
AcDbEntity
  8
DRAFT
100
AcDbLine
 62
7
  6
CONTINUOUS
 10
-7.2238174026
 20
-22.8238174026
 11
-7.2238174026
 21
-24.0761825974
  0
LINE
  5
31A
100
AcDbEntity
  8
SMUSSO
100
AcDbLine
 62
7
  6
CONTINUOUS
 10
-7.2238174026
 20
-25.0238174026
 11
-7.2238174026
 21
-26.0762739664
  0
LINE
  5
31B
100
AcDbEntity
  8
DRAFT
100
AcDbLine
 62
7
  6
CONTINUOUS
 10
-6.55
 20
18.1794346951
 11
-6.55
 21
16.0
  0
LINE
  5
31C
100
AcDbEntity
  8
RACCORDO
100
AcDbLine
 62
253
  6
CONTINUOUS
 10
-6.5480538547
 20
16.0
 11
-6.5480538547
 21
18.1735915111
  0
LINE
  5
31D
100
AcDbEntity
  8
RACCORDO
100
AcDbLine
 62
253
  6
CONTINUOUS
 10
-6.4016833977
 20
16.0
 11
-6.4016833977
 21
18.155519884
  0
LINE
  5
31E
100
AcDbEntity
  8
DRAFT
100
AcDbLine
 62
7
  6
CONTINUOUS
 10
-6.35
 20
18.1843223248
 11
-6.35
 21
19.0
  0
LINE
  5
31F
100
AcDbEntity
  8
RACCORDO
100
AcDbLine
 62
7
  6
CONTINUOUS
 10
-0.4159046804
 20
20.8317092643
 11
-0.3598533507
 21
21.0
  0
LINE
  5
320
100
AcDbEntity
  8
DRAFT
100
AcDbLine
 62
7
  6
CONTINUOUS
 10
14.6761825974
 20
27.1761825974
 11
14.65
 21
27.15
  0
LINE
  5
321
100
AcDbEntity
  8
SMUSSO
100
AcDbLine
 62
7
  6
CONTINUOUS
 10
14.65
 20
26.650091369
 11
14.6761825974
 21
26.6762739664
  0
LINE
  5
322
100
AcDbEntity
  8
SMUSSO
100
AcDbLine
 62
7
  6
CONTINUOUS
 10
15.25
 20
26.0499999722
 11
15.2761825974
 21
26.0761825696
  0
LINE
  5
323
100
AcDbEntity
  8
DRAFT
100
AcDbLine
 62
7
  6
CONTINUOUS
 10
15.25
 20
24.05
 11
15.2761825974
 21
24.0761825974
  0
LINE
  5
324
100
AcDbEntity
  8
DRAFT
100
AcDbLine
 62
7
  6
CONTINUOUS
 10
-0.5209460779
 20
8.1463125001
 11
-0.5669284905
 21
8.103396375
  0
LINE
  5
325
100
AcDbEntity
  8
0
100
AcDbLine
 62
7
  6
CONTINUOUS
 10
14.4166667461
 20
12.6914893389
 11
14.1666667461
 21
12.606382966
  0
LINE
  5
326
100
AcDbEntity
  8
0
100
AcDbLine
 62
7
  6
CONTINUOUS
 10
16.4583334923
 20
13.2446808815
 11
16.5833334923
 21
13.2872340679
  0
LINE
  5
327
100
AcDbEntity
  8
0
100
AcDbLine
 62
7
  6
CONTINUOUS
 10
17.0
 20
12.4787234068
 11
16.875
 21
12.4361702204
  0
LINE
  5
328
100
AcDbEntity
  8
RACCORDO
100
AcDbLine
 62
253
  6
CONTINUOUS
 10
-21.5280042679
 20
-7.1772746771
 11
-21.0280804203
 21
-7.1772746774
  0
LINE
  5
329
100
AcDbEntity
  8
RACCORDO
100
AcDbLine
 62
253
  6
CONTINUOUS
 10
21.5280042679
 20
-7.1772746771
 11
21.0280804203
 21
-7.1772746771
  0
LINE
  5
32A
100
AcDbEntity
  8
DRAFT
100
AcDbLine
 62
7
  6
CONTINUOUS
 10
14.6761825974
 20
-27.1761825974
 11
14.65
 21
-27.15
  0
LINE
  5
32B
100
AcDbEntity
  8
SMUSSO
100
AcDbLine
 62
7
  6
CONTINUOUS
 10
14.6761825974
 20
-26.6762739664
 11
14.65
 21
-26.650091369
  0
LINE
  5
32C
100
AcDbEntity
  8
RACCORDO
100
AcDbLine
 62
7
  6
CONTINUOUS
 10
3.9790539221
 20
-15.3
 11
4.0228439009
 21
-15.3437899788
  0
LINE
  5
32D
100
AcDbEntity
  8
SMUSSO
100
AcDbLine
 62
7
  6
CONTINUOUS
 10
15.2761825974
 20
-26.0761825696
 11
15.25
 21
-26.0499999722
  0
LINE
  5
32E
100
AcDbEntity
  8
DRAFT
100
AcDbLine
 62
7
  6
CONTINUOUS
 10
15.25
 20
-24.05
 11
15.2761825974
 21
-24.0761825974
  0
LINE
  5
32F
100
AcDbEntity
  8
0
100
AcDbLine
 62
7
  6
CONTINUOUS
 10
-15.614777
 20
15.269556
 11
-15.098495
 21
13.881695
  0
LINE
  5
330
100
AcDbEntity
  8
0
100
AcDbLine
 62
7
  6
CONTINUOUS
 10
-10.222894
 20
10.738829
 11
-10.099289
 21
10.375
  0
LINE
  5
331
100
AcDbEntity
  8
0
100
AcDbLine
 62
7
  6
CONTINUOUS
 10
-10.470083
 20
11.443689
 11
-10.283842
 21
10.888546
  0
LINE
  5
332
100
AcDbEntity
  8
DRAFT
100
AcDbLine
 62
7
  6
CONTINUOUS
 10
-0.5574593683
 20
-20.5759243729
 11
-0.5209460779
 21
-20.6855533243
  0
LINE
  5
333
100
AcDbEntity
  8
0
100
AcDbLine
 62
7
  6
CONTINUOUS
 10
-12.455902
 20
15.269556
 11
-11.688921
 21
12.76982
  0
LINE
  5
334
100
AcDbEntity
  8
0
100
AcDbLine
 62
7
  6
CONTINUOUS
 10
-12.374041
 20
13.268856
 11
-12.238869
 21
12.76982
  0
LINE
  5
335
100
AcDbEntity
  8
0
100
AcDbLine
 62
7
  6
CONTINUOUS
 10
-12.718092
 20
14.582692
 11
-12.478321
 21
13.655008
  0
LINE
  5
336
100
AcDbEntity
  8
DRAFT
100
AcDbLine
 62
7
  6
CONTINUOUS
 10
-3.9392253325
 20
-17.7620957304
 11
-4.0314191169
 21
-17.3
  0
LINE
  5
337
100
AcDbEntity
  8
DRAFT
100
AcDbLine
 62
7
  6
CONTINUOUS
 10
-5.0645837402
 20
-10.2188123506
 11
-4.9685808831
 21
-10.7
  0
LINE
  5
338
100
AcDbEntity
  8
DRAFT
100
AcDbLine
 62
7
  6
CONTINUOUS
 10
-6.1098533507
 20
19.0017455065
 11
-6.1098533507
 21
18.3
  0
LINE
  5
339
100
AcDbEntity
  8
0
100
AcDbLine
 62
7
  6
CONTINUOUS
 10
-6.05
 20
-12.8067175
 11
-6.05
 21
-15.1932825
  0
LINE
  5
33A
100
AcDbEntity
  8
RACCORDO
100
AcDbLine
 62
253
  6
CONTINUOUS
 10
-5.9009748491
 20
16.0
 11
-5.9009748491
 21
18.1292788609
  0
LINE
  5
33B
100
AcDbEntity
  8
0
100
AcDbLine
 62
7
  6
CONTINUOUS
 10
-5.7432825
 20
-15.5
 11
-5.7432825
 21
-12.5
  0
LINE
  5
33C
100
AcDbEntity
  8
RACCORDO
100
AcDbLine
 62
253
  6
CONTINUOUS
 10
-5.5474214585
 20
16.0
 11
-5.5474214585
 21
18.1216039193
  0
LINE
  5
33D
100
AcDbEntity
  8
RACCORDO
100
AcDbLine
 62
253
  6
CONTINUOUS
 10
-5.4550913568
 20
16.0
 11
-5.4550913568
 21
18.1216039193
  0
LINE
  5
33E
100
AcDbEntity
  8
RACCORDO
100
AcDbLine
 62
253
  6
CONTINUOUS
 10
-5.205129433
 20
16.0
 11
-5.205129433
 21
18.1344772037
  0
LINE
  5
33F
100
AcDbEntity
  8
DRAFT
100
AcDbLine
 62
7
  6
CONTINUOUS
 10
-5.15
 20
19.6900879265
 11
-5.15
 21
18.3
  0
LINE
  5
340
100
AcDbEntity
  8
DRAFT
100
AcDbLine
 62
7
  6
CONTINUOUS
 10
-5.0645837402
 20
-10.2188123506
 11
-5.0645837402
 21
-12.5
  0
LINE
  5
341
100
AcDbEntity
  8
DRAFT
100
AcDbLine
 62
7
  6
CONTINUOUS
 10
-5.0209460779
 20
-15.3
 11
-5.0209460779
 21
-12.7
  0
LINE
  5
342
100
AcDbEntity
  8
RACCORDO
100
AcDbLine
 62
7
  6
CONTINUOUS
 10
-4.9685808831
 20
-17.3
 11
-4.9685808831
 21
-15.8437138263
  0
LINE
  5
343
100
AcDbEntity
  8
RACCORDO
100
AcDbLine
 62
7
  6
CONTINUOUS
 10
-4.9685808831
 20
-12.1562861737
 11
-4.9685808831
 21
-10.7
  0
LINE
  5
344
100
AcDbEntity
  8
RACCORDO
100
AcDbLine
 62
253
  6
CONTINUOUS
 10
-4.2545287435
 20
21.3329812793
 11
-4.2545287435
 21
20.8336665119
  0
LINE
  5
345
100
AcDbEntity
  8
RACCORDO
100
AcDbLine
 62
7
  6
CONTINUOUS
 10
-4.0314191169
 20
-17.3
 11
-4.0314191169
 21
-15.8437138263
  0
LINE
  5
346
100
AcDbEntity
  8
RACCORDO
100
AcDbLine
 62
7
  6
CONTINUOUS
 10
-4.0314191169
 20
-12.1562861737
 11
-4.0314191169
 21
-10.7
  0
LINE
  5
347
100
AcDbEntity
  8
DRAFT
100
AcDbLine
 62
7
  6
CONTINUOUS
 10
-3.9790539221
 20
-15.3
 11
-3.9790539221
 21
-12.7
  0
LINE
  5
348
100
AcDbEntity
  8
DRAFT
100
AcDbLine
 62
7
  6
CONTINUOUS
 10
-3.9354162598
 20
-10.2188123506
 11
-3.9354162598
 21
-12.5
  0
LINE
  5
349
100
AcDbEntity
  8
DRAFT
100
AcDbLine
 62
7
  6
CONTINUOUS
 10
-7.6474779891
 20
0.5208321836
 11
-7.6037052271
 21
0.5679552283
  0
LINE
  5
34A
100
AcDbEntity
  8
0
100
AcDbLine
 62
7
  6
CONTINUOUS
 10
13.6666667461
 20
13.1595745087
 11
13.7916667461
 21
13.2446808815
  0
LINE
  5
34B
100
AcDbEntity
  8
0
100
AcDbLine
 62
7
  6
CONTINUOUS
 10
16.4166665077
 20
13.4574468136
 11
16.2083334923
 21
13.3297872543
  0
LINE
  5
34C
100
AcDbEntity
  8
RACCORDO
100
AcDbLine
 62
253
  6
CONTINUOUS
 10
-21.862889746
 20
-5.9274650582
 11
-21.429942994
 21
-5.6775031344
  0
LINE
  5
34D
100
AcDbEntity
  8
0
100
AcDbLine
 62
7
  6
CONTINUOUS
 10
13.75
 20
13.4574468136
 11
13.5833332539
 21
13.3723404408
  0
LINE
  5
34E
100
AcDbEntity
  8
0
100
AcDbLine
 62
7
  6
CONTINUOUS
 10
14.5
 20
11.7978723347
 11
14.4166667461
 21
11.7553191483
  0
LINE
  5
34F
100
AcDbEntity
  8
0
100
AcDbLine
 62
7
  6
CONTINUOUS
 10
14.4166667461
 20
11.5425531901
 11
14.5833334923
 21
11.6276595742
  0
LINE
  5
350
100
AcDbEntity
  8
0
100
AcDbLine
 62
7
  6
CONTINUOUS
 10
17.0
 20
11.7553191483
 11
16.875
 21
11.7127659619
  0
LINE
  5
351
100
AcDbEntity
  8
RACCORDO
100
AcDbLine
 62
253
  6
CONTINUOUS
 10
-21.862889746
 20
5.9274650582
 11
-21.4299429942
 21
5.6775031342
  0
LINE
  5
352
100
AcDbEntity
  8
RACCORDO
100
AcDbLine
 62
7
  6
CONTINUOUS
 10
5.0209460779
 20
-12.7
 11
4.9771560991
 21
-12.6562100212
  0
LINE
  5
353
100
AcDbEntity
  8
0
100
AcDbLine
 62
7
  6
CONTINUOUS
 10
11.45
 20
-16.75
 11
10.0
 21
-15.3
  0
LINE
  5
354
100
AcDbEntity
  8
DRAFT
100
AcDbLine
 62
7
  6
CONTINUOUS
 10
-7.6474779891
 20
-0.5208321836
 11
-7.6037052271
 21
-0.5679552283
  0
LINE
  5
355
100
AcDbEntity
  8
0
100
AcDbLine
 62
7
  6
CONTINUOUS
 10
-14.046125
 20
11.39015
 11
-13.407174
 21
10.375
  0
LINE
  5
356
100
AcDbEntity
  8
0
100
AcDbLine
 62
7
  6
CONTINUOUS
 10
-14.00959
 20
11.625
 11
-13.381052
 21
10.609645
  0
LINE
  5
357
100
AcDbEntity
  8
0
100
AcDbLine
 62
7
  6
CONTINUOUS
 10
-10.367415
 20
11.625
 11
-9.914695
 21
10.375
  0
LINE
  5
358
100
AcDbEntity
  8
RACCORDO
100
AcDbLine
 62
7
  6
CONTINUOUS
 10
-2.5
 20
10.4250284336
 11
-2.5
 21
11.0141999893
  0
LINE
  5
359
100
AcDbEntity
  8
RACCORDO
100
AcDbLine
 62
7
  6
CONTINUOUS
 10
-2.4161475531
 20
10.9477357763
 11
-2.4161475531
 21
10.3577848158
  0
LINE
  5
35A
100
AcDbEntity
  8
DRAFT
100
AcDbLine
 62
7
  6
CONTINUOUS
 10
-0.5209460779
 20
-20.6855533243
 11
-0.5209460779
 21
-15.5
  0
LINE
  5
35B
100
AcDbEntity
  8
DRAFT
100
AcDbLine
 62
7
  6
CONTINUOUS
 10
-0.5209460779
 20
-12.5
 11
-0.5209460779
 21
-2.5982908197
  0
LINE
  5
35C
100
AcDbEntity
  8
DRAFT
100
AcDbLine
 62
7
  6
CONTINUOUS
 10
-0.5209460779
 20
2.5982908197
 11
-0.5209460779
 21
8.1463125001
  0
LINE
  5
35D
100
AcDbEntity
  8
RACCORDO
100
AcDbLine
 62
7
  6
CONTINUOUS
 10
-0.3598533507
 20
21.0
 11
-0.3598533507
 21
22.0962952155
  0
LINE
  5
35E
100
AcDbEntity
  8
RACCORDO
100
AcDbLine
 62
253
  6
CONTINUOUS
 10
-0.3370703764
 20
19.8852038188
 11
-0.3370703764
 21
21.8661469415
  0
LINE
  5
35F
100
AcDbEntity
  8
RACCORDO
100
AcDbLine
 62
253
  6
CONTINUOUS
 10
-0.0371160678
 20
19.8852038188
 11
-0.0371160678
 21
22.1615892674
  0
LINE
  5
360
100
AcDbEntity
  8
RACCORDO
100
AcDbLine
 62
253
  6
CONTINUOUS
 10
0.0371160678
 20
22.1615892674
 11
0.0371160678
 21
19.8852038188
  0
LINE
  5
361
100
AcDbEntity
  8
RACCORDO
100
AcDbLine
 62
253
  6
CONTINUOUS
 10
0.3370703764
 20
21.8661469415
 11
0.3370703764
 21
19.8852038188
  0
LINE
  5
362
100
AcDbEntity
  8
RACCORDO
100
AcDbLine
 62
7
  6
CONTINUOUS
 10
0.3598533507
 20
22.0962952155
 11
0.3598533507
 21
21.0
  0
LINE
  5
363
100
AcDbEntity
  8
RACCORDO
100
AcDbLine
 62
253
  6
CONTINUOUS
 10
-0.425756622
 20
17.9866702007
 11
-0.3461265296
 21
19.2090557404
  0
LINE
  5
364
100
AcDbEntity
  8
RACCORDO
100
AcDbLine
 62
253
  6
CONTINUOUS
 10
-0.1272611437
 20
17.6744982433
 11
-0.046172221
 21
18.9192779926
  0
LINE
  5
365
100
AcDbEntity
  8
RACCORDO
100
AcDbLine
 62
253
  6
CONTINUOUS
 10
0.0371160678
 20
22.1615892674
 11
0.0528155676
 21
22.3201819401
  0
LINE
  5
366
100
AcDbEntity
  8
RACCORDO
100
AcDbLine
 62
253
  6
CONTINUOUS
 10
0.3370703764
 20
21.8661469415
 11
0.3598533507
 21
22.0962952155
  0
LINE
  5
367
100
AcDbEntity
  8
DRAFT
100
AcDbLine
 62
7
  6
CONTINUOUS
 10
-4.0314191169
 20
-10.7
 11
-3.9354162598
 21
-10.2188123506
  0
LINE
  5
368
100
AcDbEntity
  8
DRAFT
100
AcDbLine
 62
7
  6
CONTINUOUS
 10
-4.9685808831
 20
-17.3
 11
-5.0607746675
 21
-17.7620957304
  0
LINE
  5
369
100
AcDbEntity
  8
0
100
AcDbLine
 62
7
  6
CONTINUOUS
 10
10.75
 20
13.5
 11
10.5
 21
13.2021276951
  0
LINE
  5
36A
100
AcDbEntity
  8
0
100
AcDbLine
 62
7
  6
CONTINUOUS
 10
10.5
 20
12.8617020845
 11
10.75
 21
13.1595745087
  0
LINE
  5
36B
100
AcDbEntity
  8
0
100
AcDbLine
 62
7
  6
CONTINUOUS
 10
12.3333333731
 20
13.5
 11
11.3333333135
 21
12.3510638475
  0
LINE
  5
36C
100
AcDbEntity
  8
0
100
AcDbLine
 62
7
  6
CONTINUOUS
 10
13.5833332539
 20
13.3723404408
 11
13.4166667461
 21
13.2021276951
  0
LINE
  5
36D
100
AcDbEntity
  8
0
100
AcDbLine
 62
7
  6
CONTINUOUS
 10
14.5
 20
12.5212765932
 11
14.6666665077
 21
12.6489361525
  0
LINE
  5
36E
100
AcDbEntity
  8
0
100
AcDbLine
 62
7
  6
CONTINUOUS
 10
16.3333334923
 20
13.1595745087
 11
16.4583334923
 21
13.2446808815
  0
LINE
  5
36F
100
AcDbEntity
  8
0
100
AcDbLine
 62
7
  6
CONTINUOUS
 10
14.5833334923
 20
11.6276595742
 11
14.7083334923
 21
11.7127659619
  0
LINE
  5
370
100
AcDbEntity
  8
0
100
AcDbLine
 62
7
  6
CONTINUOUS
 10
17.125
 20
12.5638297796
 11
17.0
 21
12.4787234068
  0
LINE
  5
371
100
AcDbEntity
  8
0
100
AcDbLine
 62
7
  6
CONTINUOUS
 10
17.0416665077
 20
12.2659574747
 11
17.2916665077
 21
12.4361702204
  0
LINE
  5
372
100
AcDbEntity
  8
0
100
AcDbLine
 62
7
  6
CONTINUOUS
 10
17.125
 20
11.8404255211
 11
17.0
 21
11.7553191483
  0
LINE
  5
373
100
AcDbEntity
  8
0
100
AcDbLine
 62
7
  6
CONTINUOUS
 10
17.0416665077
 20
11.5425531901
 11
17.25
 21
11.6702127606
  0
LINE
  5
374
100
AcDbEntity
  8
RACCORDO
100
AcDbLine
 62
253
  6
CONTINUOUS
 10
-21.0280804203
 20
-7.1772746771
 11
-20.9328180757
 21
-7.1517492088
  0
LINE
  5
375
100
AcDbEntity
  8
RACCORDO
100
AcDbLine
 62
7
  6
CONTINUOUS
 10
21.4324498087
 20
5.4818999808
 11
21.5280804203
 21
5.507524126
  0
LINE
  5
376
100
AcDbEntity
  8
RACCORDO
100
AcDbLine
 62
7
  6
CONTINUOUS
 10
-21.4324498087
 20
-5.4818999808
 11
-21.5280804203
 21
-5.507524126
  0
LINE
  5
377
100
AcDbEntity
  8
RACCORDO
100
AcDbLine
 62
253
  6
CONTINUOUS
 10
21.4299818339
 20
5.6774358618
 11
21.33434542
 21
5.6518878417
  0
LINE
  5
378
100
AcDbEntity
  8
RACCORDO
100
AcDbLine
 62
253
  6
CONTINUOUS
 10
-21.4299818339
 20
-5.6774358618
 11
-21.33434542
 21
-5.6518878417
  0
LINE
  5
379
100
AcDbEntity
  8
SMUSSO
100
AcDbLine
 62
7
  6
CONTINUOUS
 10
7.6037052271
 20
-0.5679552283
 11
3.6359033873
 21
-0.5679552283
  0
LINE
  5
37A
100
AcDbEntity
  8
SMUSSO
100
AcDbLine
 62
7
  6
CONTINUOUS
 10
-3.6359033873
 20
-0.5679552283
 11
-7.6037052271
 21
-0.5679552283
  0
LINE
  5
37B
100
AcDbEntity
  8
DRAFT
100
AcDbLine
 62
7
  6
CONTINUOUS
 10
7.6474779891
 20
-0.5208321836
 11
2.5983136525
 21
-0.5208321836
  0
LINE
  5
37C
100
AcDbEntity
  8
DRAFT
100
AcDbLine
 62
7
  6
CONTINUOUS
 10
-2.5983136525
 20
-0.5208321836
 11
-7.6474779891
 21
-0.5208321836
  0
LINE
  5
37D
100
AcDbEntity
  8
RACCORDO
100
AcDbLine
 62
7
  6
CONTINUOUS
 10
-21.4324498087
 20
5.4818999808
 11
-21.5280804203
 21
5.507524126
  0
LINE
  5
37E
100
AcDbEntity
  8
RACCORDO
100
AcDbLine
 62
253
  6
CONTINUOUS
 10
-21.429942994
 20
5.6775031344
 11
-21.33434542
 21
5.6518878417
  0
LINE
  5
37F
100
AcDbEntity
  8
RACCORDO
100
AcDbLine
 62
253
  6
CONTINUOUS
 10
21.429942994
 20
-5.6775031344
 11
21.33434542
 21
-5.6518878417
  0
LINE
  5
380
100
AcDbEntity
  8
RACCORDO
100
AcDbLine
 62
7
  6
CONTINUOUS
 10
21.4324498087
 20
-5.4818999808
 11
21.5280804203
 21
-5.507524126
  0
LINE
  5
381
100
AcDbEntity
  8
RACCORDO
100
AcDbLine
 62
253
  6
CONTINUOUS
 10
21.0280804203
 20
-7.1773532877
 11
20.9328180757
 21
-7.1517492088
  0
LINE
  5
382
100
AcDbEntity
  8
0
100
AcDbLine
 62
7
  6
CONTINUOUS
 10
-8.899734
 20
11.625
 11
-8.427938
 21
10.878134
  0
LINE
  5
383
100
AcDbEntity
  8
0
100
AcDbLine
 62
7
  6
CONTINUOUS
 10
-8.703009
 20
11.625
 11
-8.344335
 21
11.024313
  0
LINE
  5
384
100
AcDbEntity
  8
RACCORDO
100
AcDbLine
 62
7
  6
CONTINUOUS
 10
-6.5480538547
 20
18.1735915111
 11
-6.55
 21
18.1794346951
  0
LINE
  5
385
100
AcDbEntity
  8
RACCORDO
100
AcDbLine
 62
253
  6
CONTINUOUS
 10
-0.3598533507
 20
22.0962952155
 11
-0.3370703764
 21
21.8661469415
  0
LINE
  5
386
100
AcDbEntity
  8
RACCORDO
100
AcDbLine
 62
253
  6
CONTINUOUS
 10
-0.0528155676
 20
22.3201819401
 11
-0.0371160678
 21
22.1615892674
  0
LINE
  5
387
100
AcDbEntity
  8
RACCORDO
100
AcDbLine
 62
253
  6
CONTINUOUS
 10
0.046172221
 20
18.9192779926
 11
0.1272611437
 21
17.6744982433
  0
LINE
  5
388
100
AcDbEntity
  8
RACCORDO
100
AcDbLine
 62
253
  6
CONTINUOUS
 10
0.3461265296
 20
19.2090557404
 11
0.425756622
 21
17.9866702007
  0
LINE
  5
389
100
AcDbEntity
  8
DRAFT
100
AcDbLine
 62
7
  6
CONTINUOUS
 10
0.5209460779
 20
8.1463125001
 11
0.5209460779
 21
2.5982908197
  0
LINE
  5
38A
100
AcDbEntity
  8
DRAFT
100
AcDbLine
 62
7
  6
CONTINUOUS
 10
0.5209460779
 20
-2.5982908197
 11
0.5209460779
 21
-12.5
  0
LINE
  5
38B
100
AcDbEntity
  8
DRAFT
100
AcDbLine
 62
7
  6
CONTINUOUS
 10
0.5209460779
 20
-15.5
 11
0.5209460779
 21
-20.6855533243
  0
LINE
  5
38C
100
AcDbEntity
  8
RACCORDO
100
AcDbLine
 62
7
  6
CONTINUOUS
 10
2.4161475531
 20
10.9477357763
 11
2.4161475531
 21
10.3577848158
  0
LINE
  5
38D
100
AcDbEntity
  8
RACCORDO
100
AcDbLine
 62
7
  6
CONTINUOUS
 10
2.5
 20
10.4250284336
 11
2.5
 21
11.0141999893
  0
LINE
  5
38E
100
AcDbEntity
  8
RACCORDO
100
AcDbLine
 62
7
  6
CONTINUOUS
 10
6.5480538547
 20
18.1735915111
 11
6.55
 21
18.1794346951
  0
LINE
  5
38F
100
AcDbEntity
  8
0
100
AcDbLine
 62
7
  6
CONTINUOUS
 10
15.4166665077
 20
13.5
 11
15.1666665077
 21
13.2021276951
  0
LINE
  5
390
100
AcDbEntity
  8
0
100
AcDbLine
 62
7
  6
CONTINUOUS
 10
15.1666665077
 20
12.8617020845
 11
15.4166665077
 21
13.1595745087
  0
LINE
  5
391
100
AcDbEntity
  8
0
100
AcDbLine
 62
7
  6
CONTINUOUS
 10
11.625
 20
12.3510638475
 11
12.3333333731
 21
13.1595745087
  0
LINE
  5
392
100
AcDbEntity
  8
0
100
AcDbLine
 62
7
  6
CONTINUOUS
 10
14.5
 20
12.7765957117
 11
14.4166667461
 21
12.6914893389
  0
LINE
  5
393
100
AcDbEntity
  8
0
100
AcDbLine
 62
7
  6
CONTINUOUS
 10
14.5833334923
 20
11.8829787374
 11
14.5
 21
11.7978723347
  0
LINE
  5
394
100
AcDbEntity
  8
RACCORDO
100
AcDbLine
 62
253
  6
CONTINUOUS
 10
21.0280804203
 20
7.1772746771
 11
20.9328180757
 21
7.1517492088
  0
LINE
  5
395
100
AcDbEntity
  8
DRAFT
100
AcDbLine
 62
7
  6
CONTINUOUS
 10
-7.6474779891
 20
0.5208321836
 11
-2.5983136525
 21
0.5208321836
  0
LINE
  5
396
100
AcDbEntity
  8
DRAFT
100
AcDbLine
 62
7
  6
CONTINUOUS
 10
2.5983136525
 20
0.5208321836
 11
7.6474779891
 21
0.5208321836
  0
LINE
  5
397
100
AcDbEntity
  8
SMUSSO
100
AcDbLine
 62
7
  6
CONTINUOUS
 10
7.6037052271
 20
0.5679552283
 11
3.6359033873
 21
0.5679552283
  0
LINE
  5
398
100
AcDbEntity
  8
SMUSSO
100
AcDbLine
 62
7
  6
CONTINUOUS
 10
-3.6359033873
 20
0.5679552283
 11
-7.6037052271
 21
0.5679552283
  0
LINE
  5
399
100
AcDbEntity
  8
RACCORDO
100
AcDbLine
 62
253
  6
CONTINUOUS
 10
-21.0280804203
 20
7.1773532877
 11
-20.9328180757
 21
7.1517492088
  0
LINE
  5
39A
100
AcDbEntity
  8
DRAFT
100
AcDbLine
 62
7
  6
CONTINUOUS
 10
5.0607746675
 20
-17.7620957304
 11
4.9685808831
 21
-17.3
  0
LINE
  5
39B
100
AcDbEntity
  8
DRAFT
100
AcDbLine
 62
7
  6
CONTINUOUS
 10
3.9354162598
 20
-10.2188123506
 11
4.0314191169
 21
-10.7
  0
LINE
  5
39C
100
AcDbEntity
  8
DRAFT
100
AcDbLine
 62
7
  6
CONTINUOUS
 10
3.9354162598
 20
-10.2188123506
 11
3.9354162598
 21
-12.5
  0
LINE
  5
39D
100
AcDbEntity
  8
DRAFT
100
AcDbLine
 62
7
  6
CONTINUOUS
 10
3.9790539221
 20
-15.3
 11
3.9790539221
 21
-12.7
  0
LINE
  5
39E
100
AcDbEntity
  8
RACCORDO
100
AcDbLine
 62
7
  6
CONTINUOUS
 10
4.0314191169
 20
-17.3
 11
4.0314191169
 21
-15.8437138263
  0
LINE
  5
39F
100
AcDbEntity
  8
RACCORDO
100
AcDbLine
 62
7
  6
CONTINUOUS
 10
4.0314191169
 20
-12.1562861737
 11
4.0314191169
 21
-10.7
  0
LINE
  5
3A0
100
AcDbEntity
  8
RACCORDO
100
AcDbLine
 62
253
  6
CONTINUOUS
 10
4.2545287435
 20
20.8336665119
 11
4.2545287435
 21
21.3329812793
  0
LINE
  5
3A1
100
AcDbEntity
  8
0
100
AcDbLine
 62
7
  6
CONTINUOUS
 10
4.75
 20
-12.5
 11
4.75
 21
-15.5
  0
LINE
  5
3A2
100
AcDbEntity
  8
0
100
AcDbLine
 62
7
  6
CONTINUOUS
 10
4.95
 20
-12.7
 11
4.95
 21
-15.3
  0
LINE
  5
3A3
100
AcDbEntity
  8
RACCORDO
100
AcDbLine
 62
7
  6
CONTINUOUS
 10
4.9685808831
 20
-17.3
 11
4.9685808831
 21
-15.8437138263
  0
LINE
  5
3A4
100
AcDbEntity
  8
RACCORDO
100
AcDbLine
 62
7
  6
CONTINUOUS
 10
4.9685808831
 20
-12.1562861737
 11
4.9685808831
 21
-10.7
  0
LINE
  5
3A5
100
AcDbEntity
  8
DRAFT
100
AcDbLine
 62
7
  6
CONTINUOUS
 10
5.0645837402
 20
-10.2188123506
 11
5.0645837402
 21
-12.7
  0
LINE
  5
3A6
100
AcDbEntity
  8
DRAFT
100
AcDbLine
 62
7
  6
CONTINUOUS
 10
5.15
 20
18.3
 11
5.15
 21
19.6900879283
  0
LINE
  5
3A7
100
AcDbEntity
  8
RACCORDO
100
AcDbLine
 62
253
  6
CONTINUOUS
 10
5.205129433
 20
18.1344772037
 11
5.205129433
 21
16.0
  0
LINE
  5
3A8
100
AcDbEntity
  8
RACCORDO
100
AcDbLine
 62
253
  6
CONTINUOUS
 10
5.4550913568
 20
18.1216039193
 11
5.4550913568
 21
16.0
  0
LINE
  5
3A9
100
AcDbEntity
  8
RACCORDO
100
AcDbLine
 62
253
  6
CONTINUOUS
 10
5.5474214585
 20
18.1216039193
 11
5.5474214585
 21
16.0
  0
LINE
  5
3AA
100
AcDbEntity
  8
RACCORDO
100
AcDbLine
 62
253
  6
CONTINUOUS
 10
5.9009748491
 20
18.1292788609
 11
5.9009748491
 21
16.0
  0
LINE
  5
3AB
100
AcDbEntity
  8
DRAFT
100
AcDbLine
 62
7
  6
CONTINUOUS
 10
6.1098533507
 20
19.0017455065
 11
6.1098533507
 21
18.3
  0
LINE
  5
3AC
100
AcDbEntity
  8
DRAFT
100
AcDbLine
 62
7
  6
CONTINUOUS
 10
6.35
 20
18.1843223248
 11
6.35
 21
19.0
  0
LINE
  5
3AD
100
AcDbEntity
  8
RACCORDO
100
AcDbLine
 62
253
  6
CONTINUOUS
 10
6.4016833977
 20
18.155519884
 11
6.4016833977
 21
16.0
  0
LINE
  5
3AE
100
AcDbEntity
  8
RACCORDO
100
AcDbLine
 62
253
  6
CONTINUOUS
 10
6.5480538547
 20
18.1735915111
 11
6.5480538547
 21
16.0
  0
LINE
  5
3AF
100
AcDbEntity
  8
DRAFT
100
AcDbLine
 62
7
  6
CONTINUOUS
 10
6.55
 20
18.1794346951
 11
6.55
 21
16.0
  0
LINE
  5
3B0
100
AcDbEntity
  8
DRAFT
100
AcDbLine
 62
7
  6
CONTINUOUS
 10
4.9685808831
 20
-10.7
 11
5.0645837402
 21
-10.2188123506
  0
LINE
  5
3B1
100
AcDbEntity
  8
DRAFT
100
AcDbLine
 62
7
  6
CONTINUOUS
 10
0.5574593683
 20
-20.5759243729
 11
0.5209460779
 21
-20.6855533243
  0
LINE
  5
3B2
100
AcDbEntity
  8
0
100
AcDbLine
 62
7
  6
CONTINUOUS
 10
13.5833332539
 20
13.0319149494
 11
13.6666667461
 21
13.1595745087
  0
LINE
  5
3B3
100
AcDbEntity
  8
0
100
AcDbLine
 62
7
  6
CONTINUOUS
 10
14.6666665077
 20
12.6489361525
 11
14.75
 21
12.7765957117
  0
LINE
  5
3B4
100
AcDbEntity
  8
0
100
AcDbLine
 62
7
  6
CONTINUOUS
 10
14.7083334923
 20
11.7127659619
 11
14.7916665077
 21
11.8404255211
  0
LINE
  5
3B5
100
AcDbEntity
  8
0
100
AcDbLine
 62
7
  6
CONTINUOUS
 10
16.25
 20
13.0319149494
 11
16.3333334923
 21
13.1595745087
  0
LINE
  5
3B6
100
AcDbEntity
  8
0
100
AcDbLine
 62
7
  6
CONTINUOUS
 10
16.2083334923
 20
13.3297872543
 11
16.0833334923
 21
13.1595745087
  0
LINE
  5
3B7
100
AcDbEntity
  8
0
100
AcDbLine
 62
7
  6
CONTINUOUS
 10
17.25
 20
11.6702127606
 11
17.375
 21
11.8404255211
  0
LINE
  5
3B8
100
AcDbEntity
  8
DRAFT
100
AcDbLine
 62
7
  6
CONTINUOUS
 10
7.6474779891
 20
-0.5208321836
 11
7.6037052271
 21
-0.5679552283
  0
LINE
  5
3B9
100
AcDbEntity
  8
0
100
AcDbLine
 62
7
  6
CONTINUOUS
 10
-5.7432825
 20
-12.5
 11
-6.05
 21
-12.8067175
  0
LINE
  5
3BA
100
AcDbEntity
  8
RACCORDO
100
AcDbLine
 62
7
  6
CONTINUOUS
 10
-4.9771560991
 20
-12.6562100212
 11
-5.0209460779
 21
-12.7
  0
LINE
  5
3BB
100
AcDbEntity
  8
DRAFT
100
AcDbLine
 62
7
  6
CONTINUOUS
 10
-15.25
 20
-24.05
 11
-15.2761825974
 21
-24.0761825974
  0
LINE
  5
3BC
100
AcDbEntity
  8
RACCORDO
100
AcDbLine
 62
253
  6
CONTINUOUS
 10
21.862889746
 20
5.9274650582
 11
21.429942994
 21
5.6775031344
  0
LINE
  5
3BD
100
AcDbEntity
  8
RACCORDO
100
AcDbLine
 62
253
  6
CONTINUOUS
 10
21.862889746
 20
-5.9274650582
 11
21.4299429942
 21
-5.6775031342
  0
LINE
  5
3BE
100
AcDbEntity
  8
DRAFT
100
AcDbLine
 62
7
  6
CONTINUOUS
 10
0.5209460779
 20
8.1463125001
 11
0.5669284905
 21
8.103396375
  0
LINE
  5
3BF
100
AcDbEntity
  8
DRAFT
100
AcDbLine
 62
7
  6
CONTINUOUS
 10
-15.25
 20
24.05
 11
-15.2761825974
 21
24.0761825974
  0
LINE
  5
3C0
100
AcDbEntity
  8
DRAFT
100
AcDbLine
 62
7
  6
CONTINUOUS
 10
7.6474779891
 20
0.5208321836
 11
7.6037052271
 21
0.5679552283
  0
LINE
  5
3C1
100
AcDbEntity
  8
RACCORDO
100
AcDbLine
 62
7
  6
CONTINUOUS
 10
0.4159046804
 20
20.8317092643
 11
0.3598533507
 21
21.0
  0
LINE
  5
3C2
100
AcDbEntity
  8
SMUSSO
100
AcDbLine
 62
7
  6
CONTINUOUS
 10
7.2238174026
 20
-26.0762739664
 11
7.2238174026
 21
-25.0238174026
  0
LINE
  5
3C3
100
AcDbEntity
  8
DRAFT
100
AcDbLine
 62
7
  6
CONTINUOUS
 10
7.2238174026
 20
-24.0761825974
 11
7.2238174026
 21
-22.8238174026
  0
LINE
  5
3C4
100
AcDbEntity
  8
DRAFT
100
AcDbLine
 62
7
  6
CONTINUOUS
 10
7.2238174026
 20
22.8238174026
 11
7.2238174026
 21
24.0761825974
  0
LINE
  5
3C5
100
AcDbEntity
  8
SMUSSO
100
AcDbLine
 62
7
  6
CONTINUOUS
 10
7.2238174026
 20
25.0238174026
 11
7.2238174026
 21
26.0762739664
  0
LINE
  5
3C6
100
AcDbEntity
  8
SMUSSO
100
AcDbLine
 62
7
  6
CONTINUOUS
 10
7.25
 20
-26.050091369
 11
7.25
 21
-25.05
  0
LINE
  5
3C7
100
AcDbEntity
  8
DRAFT
100
AcDbLine
 62
7
  6
CONTINUOUS
 10
7.25
 20
-24.05
 11
7.25
 21
-22.85
  0
LINE
  5
3C8
100
AcDbEntity
  8
DRAFT
100
AcDbLine
 62
7
  6
CONTINUOUS
 10
7.25
 20
22.85
 11
7.25
 21
24.05
  0
LINE
  5
3C9
100
AcDbEntity
  8
SMUSSO
100
AcDbLine
 62
7
  6
CONTINUOUS
 10
7.25
 20
25.05
 11
7.25
 21
26.050091369
  0
LINE
  5
3CA
100
AcDbEntity
  8
SMUSSO
100
AcDbLine
 62
7
  6
CONTINUOUS
 10
7.8238174026
 20
-27.1761825974
 11
7.8238174026
 21
-26.6762739664
  0
LINE
  5
3CB
100
AcDbEntity
  8
SMUSSO
100
AcDbLine
 62
7
  6
CONTINUOUS
 10
7.8238174026
 20
26.6762739664
 11
7.8238174026
 21
27.1761825974
  0
LINE
  5
3CC
100
AcDbEntity
  8
DRAFT
100
AcDbLine
 62
7
  6
CONTINUOUS
 10
7.8360359481
 20
20.7903688829
 11
7.8360359481
 21
19.0139640519
  0
LINE
  5
3CD
100
AcDbEntity
  8
SMUSSO
100
AcDbLine
 62
7
  6
CONTINUOUS
 10
7.85
 20
-27.15
 11
7.85
 21
-26.650091369
  0
LINE
  5
3CE
100
AcDbEntity
  8
DRAFT
100
AcDbLine
 62
7
  6
CONTINUOUS
 10
7.85
 20
16.0
 11
7.85
 21
19.0
  0
LINE
  5
3CF
100
AcDbEntity
  8
SMUSSO
100
AcDbLine
 62
7
  6
CONTINUOUS
 10
7.85
 20
26.650091369
 11
7.85
 21
27.15
  0
LINE
  5
3D0
100
AcDbEntity
  8
DRAFT
100
AcDbLine
 62
7
  6
CONTINUOUS
 10
8.75
 20
-25.3
 11
8.75
 21
-25.05
  0
LINE
  5
3D1
100
AcDbEntity
  8
DRAFT
100
AcDbLine
 62
7
  6
CONTINUOUS
 10
8.75
 20
25.05
 11
8.75
 21
25.3
  0
LINE
  5
3D2
100
AcDbEntity
  8
0
100
AcDbLine
 62
7
  6
CONTINUOUS
 10
9.5
 20
15.0
 11
9.5
 21
10.0
  0
LINE
  5
3D3
100
AcDbEntity
  8
0
100
AcDbLine
 62
7
  6
CONTINUOUS
 10
10.0
 20
-12.7
 11
10.0
 21
-15.3
  0
LINE
  5
3D4
100
AcDbEntity
  8
RACCORDO
100
AcDbLine
 62
7
  6
CONTINUOUS
 10
10.25
 20
-28.0500380762
 11
10.25
 21
-27.1761825974
  0
LINE
  5
3D5
100
AcDbEntity
  8
RACCORDO
100
AcDbLine
 62
7
  6
CONTINUOUS
 10
10.25
 20
27.1761825974
 11
10.25
 21
28.0500380762
  0
LINE
  5
3D6
100
AcDbEntity
  8
RACCORDO
100
AcDbLine
 62
253
  6
CONTINUOUS
 10
10.2718949894
 20
28.0281430868
 11
10.2718949894
 21
27.1980775868
  0
LINE
  5
3D7
100
AcDbEntity
  8
RACCORDO
100
AcDbLine
 62
253
  6
CONTINUOUS
 10
10.2718949894
 20
-27.1980775868
 11
10.2718949894
 21
-28.0281430868
  0
LINE
  5
3D8
100
AcDbEntity
  8
DRAFT
100
AcDbLine
 62
7
  6
CONTINUOUS
 10
4.0314191169
 20
-17.3
 11
3.9392253325
 21
-17.7620957304
  0
LINE
  5
3D9
100
AcDbEntity
  8
0
100
AcDbLine
 62
7
  6
CONTINUOUS
 10
13.4166667461
 20
13.2021276951
 11
13.375
 21
13.0319149494
  0
LINE
  5
3DA
100
AcDbEntity
  8
0
100
AcDbLine
 62
7
  6
CONTINUOUS
 10
16.0833334923
 20
13.1595745087
 11
16.0
 21
12.9468084574
  0
LINE
  5
3DB
100
AcDbEntity
  8
0
100
AcDbLine
 62
7
  6
CONTINUOUS
 10
14.5833334923
 20
12.9468084574
 11
14.5
 21
12.7765957117
  0
LINE
  5
3DC
100
AcDbEntity
  8
0
100
AcDbLine
 62
7
  6
CONTINUOUS
 10
14.625
 20
11.9680851102
 11
14.5833334923
 21
11.8829787374
  0
LINE
  5
3DD
100
AcDbEntity
  8
0
100
AcDbLine
 62
7
  6
CONTINUOUS
 10
17.2083334923
 20
12.6914893389
 11
17.125
 21
12.5638297796
  0
LINE
  5
3DE
100
AcDbEntity
  8
0
100
AcDbLine
 62
7
  6
CONTINUOUS
 10
17.2083334923
 20
11.9680851102
 11
17.125
 21
11.8404255211
  0
LINE
  5
3DF
100
AcDbEntity
  8
SMUSSO
100
AcDbLine
 62
7
  6
CONTINUOUS
 10
-15.25
 20
-26.0499999722
 11
-15.2761825974
 21
-26.0761825696
  0
LINE
  5
3E0
100
AcDbEntity
  8
RACCORDO
100
AcDbLine
 62
7
  6
CONTINUOUS
 10
-4.0228439009
 20
-15.3437899788
 11
-3.9790539221
 21
-15.3
  0
LINE
  5
3E1
100
AcDbEntity
  8
SMUSSO
100
AcDbLine
 62
7
  6
CONTINUOUS
 10
-14.65
 20
-26.650091369
 11
-14.6761825974
 21
-26.6762739664
  0
LINE
  5
3E2
100
AcDbEntity
  8
DRAFT
100
AcDbLine
 62
7
  6
CONTINUOUS
 10
-14.6761825974
 20
-27.1761825974
 11
-14.65
 21
-27.15
  0
LINE
  5
3E3
100
AcDbEntity
  8
0
100
AcDbLine
 62
7
  6
CONTINUOUS
 10
14.25
 20
11.5
 11
14.4166667461
 21
11.5425531901
  0
LINE
  5
3E4
100
AcDbEntity
  8
0
100
AcDbLine
 62
7
  6
CONTINUOUS
 10
16.8333334923
 20
11.5
 11
17.0416665077
 21
11.5425531901
  0
LINE
  5
3E5
100
AcDbEntity
  8
0
100
AcDbLine
 62
7
  6
CONTINUOUS
 10
16.8333334923
 20
12.2234042287
 11
17.0416665077
 21
12.2659574747
  0
LINE
  5
3E6
100
AcDbEntity
  8
0
100
AcDbLine
 62
7
  6
CONTINUOUS
 10
14.4166667461
 20
11.7553191483
 11
14.2083332539
 21
11.7127659619
  0
LINE
  5
3E7
100
AcDbEntity
  8
0
100
AcDbLine
 62
7
  6
CONTINUOUS
 10
16.625
 20
13.5
 11
16.4166665077
 21
13.4574468136
  0
LINE
  5
3E8
100
AcDbEntity
  8
0
100
AcDbLine
 62
7
  6
CONTINUOUS
 10
13.7916667461
 20
13.2446808815
 11
14.0
 21
13.2872340679
  0
LINE
  5
3E9
100
AcDbEntity
  8
RACCORDO
100
AcDbLine
 62
253
  6
CONTINUOUS
 10
-21.5280042679
 20
7.1772746771
 11
-21.0280804203
 21
7.1772746771
  0
LINE
  5
3EA
100
AcDbEntity
  8
RACCORDO
100
AcDbLine
 62
253
  6
CONTINUOUS
 10
21.5280042679
 20
7.1772746771
 11
21.0280804203
 21
7.1772746774
  0
LINE
  5
3EB
100
AcDbEntity
  8
DRAFT
100
AcDbLine
 62
253
  6
CONTINUOUS
 10
20.9335007086
 20
9.5
 11
4.5189557456
 21
9.5
  0
LINE
  5
3EC
100
AcDbEntity
  8
DRAFT
100
AcDbLine
 62
253
  6
CONTINUOUS
 10
-4.5189557456
 20
9.5
 11
-20.9335007086
 21
9.5
  0
LINE
  5
3ED
100
AcDbEntity
  8
0
100
AcDbLine
 62
7
  6
CONTINUOUS
 10
19.0
 20
10.0
 11
9.5
 21
10.0
  0
LINE
  5
3EE
100
AcDbEntity
  8
DRAFT
100
AcDbLine
 62
7
  6
CONTINUOUS
 10
-2.3478713764
 20
10.1
 11
2.3478713764
 21
10.1
  0
LINE
  5
3EF
100
AcDbEntity
  8
SMUSSO
100
AcDbLine
 62
7
  6
CONTINUOUS
 10
-15.2761825974
 20
26.0761825696
 11
-15.25
 21
26.0499999722
  0
LINE
  5
3F0
100
AcDbEntity
  8
SMUSSO
100
AcDbLine
 62
7
  6
CONTINUOUS
 10
-14.6761825974
 20
26.6762739664
 11
-14.65
 21
26.650091369
  0
LINE
  5
3F1
100
AcDbEntity
  8
DRAFT
100
AcDbLine
 62
7
  6
CONTINUOUS
 10
-14.6761825974
 20
27.1761825974
 11
-14.65
 21
27.15
  0
LINE
  5
3F2
100
AcDbEntity
  8
RACCORDO
100
AcDbLine
 62
253
  6
CONTINUOUS
 10
-3.942711358
 20
20.9421233536
 11
-4.2545287435
 21
21.3329812793
  0
LINE
  5
3F3
100
AcDbEntity
  8
0
100
AcDbLine
 62
7
  6
CONTINUOUS
 10
10.5
 20
13.2021276951
 11
10.5
 21
12.8617020845
  0
LINE
  5
3F4
100
AcDbEntity
  8
DRAFT
100
AcDbLine
 62
7
  6
CONTINUOUS
 10
10.5
 20
-27.15
 11
10.5
 21
-27.0
  0
LINE
  5
3F5
100
AcDbEntity
  8
DRAFT
100
AcDbLine
 62
7
  6
CONTINUOUS
 10
10.5
 20
27.0
 11
10.5
 21
27.15
  0
LINE
  5
3F6
100
AcDbEntity
  8
RACCORDO
100
AcDbLine
 62
253
  6
CONTINUOUS
 10
10.5218569132
 20
-27.2023651948
 11
10.5218569132
 21
-28.2781050106
  0
LINE
  5
3F7
100
AcDbEntity
  8
RACCORDO
100
AcDbLine
 62
253
  6
CONTINUOUS
 10
10.5218569132
 20
27.2023651948
 11
10.5218569132
 21
28.2781050106
  0
LINE
  5
3F8
100
AcDbEntity
  8
DRAFT
100
AcDbLine
 62
7
  6
CONTINUOUS
 10
10.5523651948
 20
-27.2023651948
 11
10.5523651948
 21
-27.0523651948
  0
LINE
  5
3F9
100
AcDbEntity
  8
DRAFT
100
AcDbLine
 62
7
  6
CONTINUOUS
 10
10.5523651948
 20
27.0523651948
 11
10.5523651948
 21
27.2023651948
  0
LINE
  5
3FA
100
AcDbEntity
  8
0
100
AcDbLine
 62
7
  6
CONTINUOUS
 10
10.75
 20
13.1595745087
 11
10.75
 21
11.5
  0
LINE
  5
3FB
100
AcDbEntity
  8
0
100
AcDbLine
 62
7
  6
CONTINUOUS
 10
11.0
 20
11.5
 11
11.0
 21
13.5
  0
LINE
  5
3FC
100
AcDbEntity
  8
0
100
AcDbLine
 62
7
  6
CONTINUOUS
 10
11.3333333135
 20
12.3510638475
 11
11.3333333135
 21
12.0957446694
  0
LINE
  5
3FD
100
AcDbEntity
  8
0
100
AcDbLine
 62
7
  6
CONTINUOUS
 10
11.45
 20
-16.75
 11
11.45
 21
-11.25
  0
LINE
  5
3FE
100
AcDbEntity
  8
DRAFT
100
AcDbLine
 62
7
  6
CONTINUOUS
 10
11.9476348052
 20
27.2023651948
 11
11.9476348052
 21
27.0523651948
  0
LINE
  5
3FF
100
AcDbEntity
  8
DRAFT
100
AcDbLine
 62
7
  6
CONTINUOUS
 10
11.9476348052
 20
-27.0523651948
 11
11.9476348052
 21
-27.2023651948
  0
LINE
  5
400
100
AcDbEntity
  8
0
100
AcDbLine
 62
7
  6
CONTINUOUS
 10
11.9624896007
 20
-16.7041634566
 11
11.9624896007
 21
-11.2958365434
  0
LINE
  5
401
100
AcDbEntity
  8
RACCORDO
100
AcDbLine
 62
253
  6
CONTINUOUS
 10
11.9781430868
 20
-27.2023651948
 11
11.9781430868
 21
-28.2781050106
  0
LINE
  5
402
100
AcDbEntity
  8
RACCORDO
100
AcDbLine
 62
253
  6
CONTINUOUS
 10
11.9781430868
 20
27.2023651948
 11
11.9781430868
 21
28.2781050106
  0
LINE
  5
403
100
AcDbEntity
  8
DRAFT
100
AcDbLine
 62
7
  6
CONTINUOUS
 10
12.0
 20
27.15
 11
12.0
 21
27.0
  0
LINE
  5
404
100
AcDbEntity
  8
DRAFT
100
AcDbLine
 62
7
  6
CONTINUOUS
 10
12.0
 20
-27.0
 11
12.0
 21
-27.15
  0
LINE
  5
405
100
AcDbEntity
  8
RACCORDO
100
AcDbLine
 62
253
  6
CONTINUOUS
 10
12.2281050106
 20
-28.0281430868
 11
12.2281050106
 21
-27.1980775868
  0
LINE
  5
406
100
AcDbEntity
  8
RACCORDO
100
AcDbLine
 62
253
  6
CONTINUOUS
 10
12.2281050106
 20
27.1980775868
 11
12.2281050106
 21
28.0281430868
  0
LINE
  5
407
100
AcDbEntity
  8
RACCORDO
100
AcDbLine
 62
7
  6
CONTINUOUS
 10
12.25
 20
28.0500380762
 11
12.25
 21
27.1761825974
  0
LINE
  5
408
100
AcDbEntity
  8
RACCORDO
100
AcDbLine
 62
7
  6
CONTINUOUS
 10
12.25
 20
-27.1761825974
 11
12.25
 21
-28.0500380762
  0
LINE
  5
409
100
AcDbEntity
  8
0
100
AcDbLine
 62
7
  6
CONTINUOUS
 10
12.3333333731
 20
13.1595745087
 11
12.3333333731
 21
12.3510638475
  0
LINE
  5
40A
100
AcDbEntity
  8
0
100
AcDbLine
 62
7
  6
CONTINUOUS
 10
12.3333333731
 20
12.0957446694
 11
12.3333333731
 21
11.5
  0
LINE
  5
40B
100
AcDbEntity
  8
0
100
AcDbLine
 62
7
  6
CONTINUOUS
 10
12.5833332539
 20
11.5
 11
12.5833332539
 21
12.0957446694
  0
LINE
  5
40C
100
AcDbEntity
  8
0
100
AcDbLine
 62
7
  6
CONTINUOUS
 10
12.5833332539
 20
12.3510638475
 11
12.5833332539
 21
13.5
  0
LINE
  5
40D
100
AcDbEntity
  8
0
100
AcDbLine
 62
7
  6
CONTINUOUS
 10
13.0
 20
12.0957446694
 11
13.0
 21
12.3510638475
  0
LINE
  5
40E
100
AcDbEntity
  8
0
100
AcDbLine
 62
7
  6
CONTINUOUS
 10
14.75
 20
12.7765957117
 11
14.7916665077
 21
12.9468084574
  0
LINE
  5
40F
100
AcDbEntity
  8
0
100
AcDbLine
 62
7
  6
CONTINUOUS
 10
14.7916665077
 20
11.8404255211
 11
14.8333334923
 21
11.9680851102
  0
LINE
  5
410
100
AcDbEntity
  8
0
100
AcDbLine
 62
7
  6
CONTINUOUS
 10
16.2083334923
 20
12.904255271
 11
16.25
 21
13.0319149494
  0
LINE
  5
411
100
AcDbEntity
  8
0
100
AcDbLine
 62
7
  6
CONTINUOUS
 10
17.25
 20
12.8191488981
 11
17.2083334923
 21
12.6914893389
  0
LINE
  5
412
100
AcDbEntity
  8
0
100
AcDbLine
 62
7
  6
CONTINUOUS
 10
17.25
 20
12.0957446694
 11
17.2083334923
 21
11.9680851102
  0
LINE
  5
413
100
AcDbEntity
  8
RACCORDO
100
AcDbLine
 62
7
  6
CONTINUOUS
 10
20.9425406317
 20
20.5759243729
 11
21.0280804203
 21
20.8327524272
  0
LINE
  5
414
100
AcDbEntity
  8
0
100
AcDbLine
 62
7
  6
CONTINUOUS
 10
17.375
 20
11.8404255211
 11
17.4583334923
 21
12.053191483
  0
LINE
  5
415
100
AcDbEntity
  8
DRAFT
100
AcDbLine
 62
7
  6
CONTINUOUS
 10
-7.25
 20
-22.85
 11
-7.2238174026
 21
-22.8238174026
  0
LINE
  5
416
100
AcDbEntity
  8
RACCORDO
100
AcDbLine
 62
253
  6
CONTINUOUS
 10
-12.2281050106
 20
-28.0281430868
 11
-12.25
 21
-28.0500380762
  0
LINE
  5
417
100
AcDbEntity
  8
RACCORDO
100
AcDbLine
 62
253
  6
CONTINUOUS
 10
-11.9781430868
 20
-28.2781050106
 11
-12.0000380762
 21
-28.3
  0
LINE
  5
418
100
AcDbEntity
  8
DRAFT
100
AcDbLine
 62
7
  6
CONTINUOUS
 10
-10.5
 20
-27.0
 11
-10.5523651948
 21
-27.0523651948
  0
LINE
  5
419
100
AcDbEntity
  8
DRAFT
100
AcDbLine
 62
7
  6
CONTINUOUS
 10
-10.5
 20
-27.15
 11
-10.5523651948
 21
-27.2023651948
  0
LINE
  5
41A
100
AcDbEntity
  8
RACCORDO
100
AcDbLine
 62
7
  6
CONTINUOUS
 10
4.0228439009
 20
-12.6562100212
 11
3.9790539221
 21
-12.7
  0
LINE
  5
41B
100
AcDbEntity
  8
RACCORDO
100
AcDbLine
 62
7
  6
CONTINUOUS
 10
-10.2718949894
 20
-27.1980775868
 11
-10.25
 21
-27.1761825974
  0
LINE
  5
41C
100
AcDbEntity
  8
DRAFT
100
AcDbLine
 62
7
  6
CONTINUOUS
 10
-7.25
 20
-25.05
 11
-7.2238174026
 21
-25.0238174026
  0
LINE
  5
41D
100
AcDbEntity
  8
SMUSSO
100
AcDbLine
 62
7
  6
CONTINUOUS
 10
-7.85
 20
-26.650091369
 11
-7.25
 21
-26.050091369
  0
LINE
  5
41E
100
AcDbEntity
  8
SMUSSO
100
AcDbLine
 62
7
  6
CONTINUOUS
 10
-7.2238174026
 20
-26.0762739664
 11
-7.8238174026
 21
-26.6762739664
  0
LINE
  5
41F
100
AcDbEntity
  8
0
100
AcDbLine
 62
7
  6
CONTINUOUS
 10
14.0416667461
 20
13.5
 11
13.75
 21
13.4574468136
  0
LINE
  5
420
100
AcDbEntity
  8
0
100
AcDbLine
 62
7
  6
CONTINUOUS
 10
-8.259115
 20
10.375
 11
-8.427938
 21
10.375
  0
LINE
  5
421
100
AcDbEntity
  8
0
100
AcDbLine
 62
7
  6
CONTINUOUS
 10
-8.957154
 20
10.375
 11
-9.759823
 21
10.375
  0
LINE
  5
422
100
AcDbEntity
  8
0
100
AcDbLine
 62
7
  6
CONTINUOUS
 10
-9.914695
 20
10.375
 11
-10.099289
 21
10.375
  0
LINE
  5
423
100
AcDbEntity
  8
0
100
AcDbLine
 62
7
  6
CONTINUOUS
 10
-10.85492
 20
10.375
 11
-11.02899
 21
10.375
  0
LINE
  5
424
100
AcDbEntity
  8
0
100
AcDbLine
 62
7
  6
CONTINUOUS
 10
-11.500805
 20
10.375
 11
-11.669659
 21
10.375
  0
LINE
  5
425
100
AcDbEntity
  8
0
100
AcDbLine
 62
7
  6
CONTINUOUS
 10
-12.273794
 20
10.375
 11
-12.442708
 21
10.375
  0
LINE
  5
426
100
AcDbEntity
  8
0
100
AcDbLine
 62
7
  6
CONTINUOUS
 10
-13.217415
 20
10.375
 11
-13.407174
 21
10.375
  0
LINE
  5
427
100
AcDbEntity
  8
0
100
AcDbLine
 62
7
  6
CONTINUOUS
 10
-14.046125
 20
10.375
 11
-14.209843
 21
10.375
  0
LINE
  5
428
100
AcDbEntity
  8
0
100
AcDbLine
 62
7
  6
CONTINUOUS
 10
-14.498804
 20
10.375
 11
-14.667667
 21
10.375
  0
LINE
  5
429
100
AcDbEntity
  8
0
100
AcDbLine
 62
7
  6
CONTINUOUS
 10
-15.398905
 20
10.375
 11
-16.321671
 21
10.375
  0
LINE
  5
42A
100
AcDbEntity
  8
0
100
AcDbLine
 62
7
  6
CONTINUOUS
 10
-17.0807487364
 20
10.375
 11
-17.58739
 21
10.375
  0
LINE
  5
42B
100
AcDbEntity
  8
0
100
AcDbLine
 62
7
  6
CONTINUOUS
 10
-17.751028
 20
10.375
 11
-17.935591
 21
10.375
  0
LINE
  5
42C
100
AcDbEntity
  8
0
100
AcDbLine
 62
7
  6
CONTINUOUS
 10
-18.691151
 20
10.375
 11
-18.865231
 21
10.375
  0
LINE
  5
42D
100
AcDbEntity
  8
0
100
AcDbLine
 62
7
  6
CONTINUOUS
 10
-19.014958
 20
10.375
 11
-19.178666
 21
10.375
  0
LINE
  5
42E
100
AcDbEntity
  8
0
100
AcDbLine
 62
7
  6
CONTINUOUS
 10
-19.5303
 20
10.375
 11
-19.697438
 21
10.375
  0
LINE
  5
42F
100
AcDbEntity
  8
0
100
AcDbLine
 62
7
  6
CONTINUOUS
 10
-20.049139
 20
10.375
 11
-20.212781
 21
10.375
  0
LINE
  5
430
100
AcDbEntity
  8
0
100
AcDbLine
 62
7
  6
CONTINUOUS
 10
-17.0850531438
 20
10.51946
 11
-17.418466
 21
10.51946
  0
LINE
  5
431
100
AcDbEntity
  8
0
100
AcDbLine
 62
7
  6
CONTINUOUS
 10
-8.957154
 20
10.524717
 11
-9.590898
 21
10.524717
  0
LINE
  5
432
100
AcDbEntity
  8
0
100
AcDbLine
 62
7
  6
CONTINUOUS
 10
-15.398905
 20
10.524717
 11
-16.152756
 21
10.524717
  0
LINE
  5
433
100
AcDbEntity
  8
0
100
AcDbLine
 62
7
  6
CONTINUOUS
 10
-10.222894
 20
10.738829
 11
-10.724319
 21
10.738829
  0
LINE
  5
434
100
AcDbEntity
  8
0
100
AcDbLine
 62
7
  6
CONTINUOUS
 10
-18.059186
 20
10.738829
 11
-18.560561
 21
10.738829
  0
LINE
  5
435
100
AcDbEntity
  8
0
100
AcDbLine
 62
7
  6
CONTINUOUS
 10
-10.283842
 20
10.888546
 11
-10.672085
 21
10.888546
  0
LINE
  5
436
100
AcDbEntity
  8
0
100
AcDbLine
 62
7
  6
CONTINUOUS
 10
-18.120073
 20
10.888546
 11
-18.508316
 21
10.888546
  0
LINE
  5
437
100
AcDbEntity
  8
0
100
AcDbLine
 62
7
  6
CONTINUOUS
 10
-15.468557
 20
10.942529
 11
-16.152756
 21
10.942529
  0
LINE
  5
438
100
AcDbEntity
  8
0
100
AcDbLine
 62
7
  6
CONTINUOUS
 10
-15.468557
 20
11.092246
 11
-16.152756
 21
11.092246
  0
LINE
  5
439
100
AcDbEntity
  8
0
100
AcDbLine
 62
7
  6
CONTINUOUS
 10
-11.077736
 20
11.475283
 11
-11.500805
 21
11.475283
  0
LINE
  5
43A
100
AcDbEntity
  8
0
100
AcDbLine
 62
7
  6
CONTINUOUS
 10
-11.669659
 20
11.475283
 11
-12.092728
 21
11.475283
  0
LINE
  5
43B
100
AcDbEntity
  8
0
100
AcDbLine
 62
7
  6
CONTINUOUS
 10
-15.411107
 20
11.475283
 11
-16.152756
 21
11.475283
  0
LINE
  5
43C
100
AcDbEntity
  8
0
100
AcDbLine
 62
7
  6
CONTINUOUS
 10
-17.0850531438
 20
11.48054
 11
-17.418466
 21
11.48054
  0
LINE
  5
43D
100
AcDbEntity
  8
0
100
AcDbLine
 62
7
  6
CONTINUOUS
 10
10.75
 20
11.5
 11
11.0
 21
11.5
  0
LINE
  5
43E
100
AcDbEntity
  8
0
100
AcDbLine
 62
7
  6
CONTINUOUS
 10
12.3333333731
 20
11.5
 11
12.5833332539
 21
11.5
  0
LINE
  5
43F
100
AcDbEntity
  8
0
100
AcDbLine
 62
7
  6
CONTINUOUS
 10
13.9166667461
 20
11.5
 11
14.25
 21
11.5
  0
LINE
  5
440
100
AcDbEntity
  8
0
100
AcDbLine
 62
7
  6
CONTINUOUS
 10
15.4166665077
 20
11.5
 11
15.6666665077
 21
11.5
  0
LINE
  5
441
100
AcDbEntity
  8
0
100
AcDbLine
 62
7
  6
CONTINUOUS
 10
16.6666665077
 20
11.5
 11
16.8333334923
 21
11.5
  0
LINE
  5
442
100
AcDbEntity
  8
0
100
AcDbLine
 62
7
  6
CONTINUOUS
 10
-7.787219
 20
11.625
 11
-7.985763
 21
11.625
  0
LINE
  5
443
100
AcDbEntity
  8
0
100
AcDbLine
 62
7
  6
CONTINUOUS
 10
-8.703009
 20
11.625
 11
-8.899734
 21
11.625
  0
LINE
  5
444
100
AcDbEntity
  8
0
100
AcDbLine
 62
7
  6
CONTINUOUS
 10
-9.590898
 20
11.625
 11
-9.759823
 21
11.625
  0
LINE
  5
445
100
AcDbEntity
  8
0
100
AcDbLine
 62
7
  6
CONTINUOUS
 10
-10.367415
 20
11.625
 11
-10.558893
 21
11.625
  0
LINE
  5
446
100
AcDbEntity
  8
0
100
AcDbLine
 62
7
  6
CONTINUOUS
 10
-11.077736
 20
11.625
 11
-12.092728
 21
11.625
  0
LINE
  5
447
100
AcDbEntity
  8
0
100
AcDbLine
 62
7
  6
CONTINUOUS
 10
-12.273794
 20
11.625
 11
-12.442708
 21
11.625
  0
LINE
  5
448
100
AcDbEntity
  8
0
100
AcDbLine
 62
7
  6
CONTINUOUS
 10
-13.217415
 20
11.625
 11
-13.381052
 21
11.625
  0
LINE
  5
449
100
AcDbEntity
  8
0
100
AcDbLine
 62
7
  6
CONTINUOUS
 10
-14.00959
 20
11.625
 11
-14.209843
 21
11.625
  0
LINE
  5
44A
100
AcDbEntity
  8
0
100
AcDbLine
 62
7
  6
CONTINUOUS
 10
-14.498804
 20
11.625
 11
-14.667667
 21
11.625
  0
LINE
  5
44B
100
AcDbEntity
  8
0
100
AcDbLine
 62
7
  6
CONTINUOUS
 10
-15.411107
 20
11.625
 11
-16.321671
 21
11.625
  0
LINE
  5
44C
100
AcDbEntity
  8
0
100
AcDbLine
 62
7
  6
CONTINUOUS
 10
-17.0754340192
 20
11.625
 11
-17.58739
 21
11.625
  0
LINE
  5
44D
100
AcDbEntity
  8
0
100
AcDbLine
 62
7
  6
CONTINUOUS
 10
-18.203656
 20
11.625
 11
-18.395195
 21
11.625
  0
LINE
  5
44E
100
AcDbEntity
  8
0
100
AcDbLine
 62
7
  6
CONTINUOUS
 10
-19.014958
 20
11.625
 11
-19.255243
 21
11.625
  0
LINE
  5
44F
100
AcDbEntity
  8
0
100
AcDbLine
 62
7
  6
CONTINUOUS
 10
-19.970779
 20
11.625
 11
-20.212781
 21
11.625
  0
LINE
  5
450
100
AcDbEntity
  8
0
100
AcDbLine
 62
7
  6
CONTINUOUS
 10
16.875
 20
11.7127659619
 11
16.625
 21
11.7127659619
  0
LINE
  5
451
100
AcDbEntity
  8
0
100
AcDbLine
 62
7
  6
CONTINUOUS
 10
14.2083332539
 20
11.7127659619
 11
13.9583332539
 21
11.7127659619
  0
LINE
  5
452
100
AcDbEntity
  8
0
100
AcDbLine
 62
7
  6
CONTINUOUS
 10
16.2916665077
 20
11.9680851102
 11
16.0833334923
 21
11.9680851102
  0
LINE
  5
453
100
AcDbEntity
  8
0
100
AcDbLine
 62
7
  6
CONTINUOUS
 10
13.5416667461
 20
11.9680851102
 11
13.3333332539
 21
11.9680851102
  0
LINE
  5
454
100
AcDbEntity
  8
0
100
AcDbLine
 62
7
  6
CONTINUOUS
 10
11.3333333135
 20
12.0957446694
 11
12.3333333731
 21
12.0957446694
  0
LINE
  5
455
100
AcDbEntity
  8
0
100
AcDbLine
 62
7
  6
CONTINUOUS
 10
12.5833332539
 20
12.0957446694
 11
13.0
 21
12.0957446694
  0
LINE
  5
456
100
AcDbEntity
  8
0
100
AcDbLine
 62
7
  6
CONTINUOUS
 10
16.625
 20
12.2234042287
 11
16.8333334923
 21
12.2234042287
  0
LINE
  5
457
100
AcDbEntity
  8
0
100
AcDbLine
 62
7
  6
CONTINUOUS
 10
13.0
 20
12.3510638475
 11
12.5833332539
 21
12.3510638475
  0
LINE
  5
458
100
AcDbEntity
  8
0
100
AcDbLine
 62
7
  6
CONTINUOUS
 10
12.3333333731
 20
12.3510638475
 11
11.625
 21
12.3510638475
  0
LINE
  5
459
100
AcDbEntity
  8
0
100
AcDbLine
 62
7
  6
CONTINUOUS
 10
16.875
 20
12.4361702204
 11
16.5833334923
 21
12.4361702204
  0
LINE
  5
45A
100
AcDbEntity
  8
0
100
AcDbLine
 62
7
  6
CONTINUOUS
 10
14.0
 20
12.4361702204
 11
14.1666667461
 21
12.4361702204
  0
LINE
  5
45B
100
AcDbEntity
  8
0
100
AcDbLine
 62
7
  6
CONTINUOUS
 10
14.1666667461
 20
12.606382966
 11
14.0
 21
12.606382966
  0
LINE
  5
45C
100
AcDbEntity
  8
0
100
AcDbLine
 62
7
  6
CONTINUOUS
 10
-11.688921
 20
12.76982
 11
-12.238869
 21
12.76982
  0
LINE
  5
45D
100
AcDbEntity
  8
0
100
AcDbLine
 62
7
  6
CONTINUOUS
 10
-13.228619
 20
12.76982
 11
-13.74475
 21
12.76982
  0
LINE
  5
45E
100
AcDbEntity
  8
0
100
AcDbLine
 62
7
  6
CONTINUOUS
 10
-13.826686
 20
12.76982
 11
-14.337138
 21
12.76982
  0
LINE
  5
45F
100
AcDbEntity
  8
0
100
AcDbLine
 62
7
  6
CONTINUOUS
 10
-15.064753
 20
12.76982
 11
-15.137935
 21
12.76982
  0
LINE
  5
460
100
AcDbEntity
  8
0
100
AcDbLine
 62
7
  6
CONTINUOUS
 10
-15.862664
 20
12.76982
 11
-16.36185
 21
12.76982
  0
LINE
  5
461
100
AcDbEntity
  8
0
100
AcDbLine
 62
7
  6
CONTINUOUS
 10
-16.642747
 20
12.76982
 11
-17.16454
 21
12.76982
  0
LINE
  5
462
100
AcDbEntity
  8
0
100
AcDbLine
 62
7
  6
CONTINUOUS
 10
-18.161694
 20
12.76982
 11
-18.621524
 21
12.76982
  0
LINE
  5
463
100
AcDbEntity
  8
0
100
AcDbLine
 62
7
  6
CONTINUOUS
 10
-9.7150462393
 20
12.7698202193
 11
-10.2169503376
 21
12.7698202193
  0
LINE
  5
464
100
AcDbEntity
  8
0
100
AcDbLine
 62
7
  6
CONTINUOUS
 10
-11.0160041564
 20
12.7698202193
 11
-11.5356974979
 21
12.7698202193
  0
LINE
  5
465
100
AcDbEntity
  8
0
100
AcDbLine
 62
7
  6
CONTINUOUS
 10
13.375
 20
13.0319149494
 11
13.5833332539
 21
13.0319149494
  0
LINE
  5
466
100
AcDbEntity
  8
0
100
AcDbLine
 62
7
  6
CONTINUOUS
 10
-12.374041
 20
13.268856
 11
-13.084636
 21
13.268856
  0
LINE
  5
467
100
AcDbEntity
  8
0
100
AcDbLine
 62
7
  6
CONTINUOUS
 10
14.0
 20
13.2872340679
 11
14.1666667461
 21
13.2872340679
  0
LINE
  5
468
100
AcDbEntity
  8
0
100
AcDbLine
 62
7
  6
CONTINUOUS
 10
16.5833334923
 20
13.2872340679
 11
16.875
 21
13.2872340679
  0
LINE
  5
469
100
AcDbEntity
  8
0
100
AcDbLine
 62
7
  6
CONTINUOUS
 10
16.8333334923
 20
13.5
 11
16.625
 21
13.5
  0
LINE
  5
46A
100
AcDbEntity
  8
0
100
AcDbLine
 62
7
  6
CONTINUOUS
 10
15.6666665077
 20
13.5
 11
15.4166665077
 21
13.5
  0
LINE
  5
46B
100
AcDbEntity
  8
0
100
AcDbLine
 62
7
  6
CONTINUOUS
 10
14.125
 20
13.5
 11
14.0416667461
 21
13.5
  0
LINE
  5
46C
100
AcDbEntity
  8
0
100
AcDbLine
 62
7
  6
CONTINUOUS
 10
12.5833332539
 20
13.5
 11
12.3333333731
 21
13.5
  0
LINE
  5
46D
100
AcDbEntity
  8
0
100
AcDbLine
 62
7
  6
CONTINUOUS
 10
11.0
 20
13.5
 11
10.75
 21
13.5
  0
LINE
  5
46E
100
AcDbEntity
  8
DRAFT
100
AcDbLine
 62
7
  6
CONTINUOUS
 10
-7.25
 20
22.85
 11
-7.2238174026
 21
22.8238174026
  0
LINE
  5
46F
100
AcDbEntity
  8
RACCORDO
100
AcDbLine
 62
253
  6
CONTINUOUS
 10
-12.25
 20
28.0500380762
 11
-12.2281050106
 21
28.0281430868
  0
LINE
  5
470
100
AcDbEntity
  8
RACCORDO
100
AcDbLine
 62
253
  6
CONTINUOUS
 10
-12.0000380762
 20
28.3
 11
-11.9781430868
 21
28.2781050106
  0
LINE
  5
471
100
AcDbEntity
  8
DRAFT
100
AcDbLine
 62
7
  6
CONTINUOUS
 10
-10.5
 20
27.0
 11
-10.5523651948
 21
27.0523651948
  0
LINE
  5
472
100
AcDbEntity
  8
DRAFT
100
AcDbLine
 62
7
  6
CONTINUOUS
 10
-10.5
 20
27.15
 11
-10.5523651948
 21
27.2023651948
  0
LINE
  5
473
100
AcDbEntity
  8
RACCORDO
100
AcDbLine
 62
7
  6
CONTINUOUS
 10
-10.2718949894
 20
27.1980775868
 11
-10.25
 21
27.1761825974
  0
LINE
  5
474
100
AcDbEntity
  8
DRAFT
100
AcDbLine
 62
7
  6
CONTINUOUS
 10
-7.25
 20
25.05
 11
-7.2238174026
 21
25.0238174026
  0
LINE
  5
475
100
AcDbEntity
  8
SMUSSO
100
AcDbLine
 62
7
  6
CONTINUOUS
 10
-7.25
 20
26.050091369
 11
-7.85
 21
26.650091369
  0
LINE
  5
476
100
AcDbEntity
  8
SMUSSO
100
AcDbLine
 62
7
  6
CONTINUOUS
 10
-7.8238174026
 20
26.6762739664
 11
-7.2238174026
 21
26.0762739664
  0
LINE
  5
477
100
AcDbEntity
  8
RACCORDO
100
AcDbLine
 62
7
  6
CONTINUOUS
 10
5.15
 20
18.3
 11
5.205129433
 21
18.1344772037
  0
LINE
  5
478
100
AcDbEntity
  8
DRAFT
100
AcDbLine
 62
7
  6
CONTINUOUS
 10
6.1467267152
 20
18.1892899476
 11
6.1098533507
 21
18.3
  0
LINE
  5
479
100
AcDbEntity
  8
RACCORDO
100
AcDbLine
 62
7
  6
CONTINUOUS
 10
20.9425406317
 20
-20.5759243729
 11
21.0280804203
 21
-20.8327524272
  0
LINE
  5
47A
100
AcDbEntity
  8
DRAFT
100
AcDbLine
 62
7
  6
CONTINUOUS
 10
13.75
 20
-25.3
 11
13.75
 21
-25.05
  0
LINE
  5
47B
100
AcDbEntity
  8
DRAFT
100
AcDbLine
 62
7
  6
CONTINUOUS
 10
13.75
 20
25.05
 11
13.75
 21
25.3
  0
LINE
  5
47C
100
AcDbEntity
  8
0
100
AcDbLine
 62
7
  6
CONTINUOUS
 10
14.0
 20
12.606382966
 11
14.0
 21
12.4361702204
  0
LINE
  5
47D
100
AcDbEntity
  8
0
100
AcDbLine
 62
7
  6
CONTINUOUS
 10
14.5833334923
 20
13.0319149494
 11
14.5833334923
 21
12.9468084574
  0
LINE
  5
47E
100
AcDbEntity
  8
0
100
AcDbLine
 62
7
  6
CONTINUOUS
 10
14.625
 20
12.1382978559
 11
14.625
 21
11.9680851102
  0
LINE
  5
47F
100
AcDbEntity
  8
SMUSSO
100
AcDbLine
 62
7
  6
CONTINUOUS
 10
14.65
 20
27.15
 11
14.65
 21
26.650091369
  0
LINE
  5
480
100
AcDbEntity
  8
SMUSSO
100
AcDbLine
 62
7
  6
CONTINUOUS
 10
14.65
 20
-26.650091369
 11
14.65
 21
-27.15
  0
LINE
  5
481
100
AcDbEntity
  8
SMUSSO
100
AcDbLine
 62
7
  6
CONTINUOUS
 10
14.6761825974
 20
27.1761825974
 11
14.6761825974
 21
26.6762739664
  0
LINE
  5
482
100
AcDbEntity
  8
SMUSSO
100
AcDbLine
 62
7
  6
CONTINUOUS
 10
14.6761825974
 20
-26.6762739664
 11
14.6761825974
 21
-27.1761825974
  0
LINE
  5
483
100
AcDbEntity
  8
0
100
AcDbLine
 62
7
  6
CONTINUOUS
 10
14.7916665077
 20
12.9468084574
 11
14.7916665077
 21
13.0319149494
  0
LINE
  5
484
100
AcDbEntity
  8
0
100
AcDbLine
 62
7
  6
CONTINUOUS
 10
14.8333334923
 20
11.9680851102
 11
14.8333334923
 21
12.1382978559
  0
LINE
  5
485
100
AcDbEntity
  8
0
100
AcDbLine
 62
7
  6
CONTINUOUS
 10
15.1666665077
 20
13.2021276951
 11
15.1666665077
 21
12.8617020845
  0
LINE
  5
486
100
AcDbEntity
  8
SMUSSO
100
AcDbLine
 62
7
  6
CONTINUOUS
 10
15.25
 20
26.050091369
 11
15.25
 21
25.05
  0
LINE
  5
487
100
AcDbEntity
  8
DRAFT
100
AcDbLine
 62
7
  6
CONTINUOUS
 10
15.25
 20
24.05
 11
15.25
 21
22.85
  0
LINE
  5
488
100
AcDbEntity
  8
DRAFT
100
AcDbLine
 62
7
  6
CONTINUOUS
 10
15.25
 20
-22.85
 11
15.25
 21
-24.05
  0
LINE
  5
489
100
AcDbEntity
  8
SMUSSO
100
AcDbLine
 62
7
  6
CONTINUOUS
 10
15.25
 20
-25.05
 11
15.25
 21
-26.050091369
  0
LINE
  5
48A
100
AcDbEntity
  8
SMUSSO
100
AcDbLine
 62
7
  6
CONTINUOUS
 10
15.2761825974
 20
26.0762739664
 11
15.2761825974
 21
25.0238174026
  0
LINE
  5
48B
100
AcDbEntity
  8
DRAFT
100
AcDbLine
 62
7
  6
CONTINUOUS
 10
15.2761825974
 20
24.0761825974
 11
15.2761825974
 21
22.8238174026
  0
LINE
  5
48C
100
AcDbEntity
  8
DRAFT
100
AcDbLine
 62
7
  6
CONTINUOUS
 10
15.2761825974
 20
-22.8238174026
 11
15.2761825974
 21
-24.0761825974
  0
LINE
  5
48D
100
AcDbEntity
  8
SMUSSO
100
AcDbLine
 62
7
  6
CONTINUOUS
 10
15.2761825974
 20
-25.0238174026
 11
15.2761825974
 21
-26.0762739664
  0
LINE
  5
48E
100
AcDbEntity
  8
0
100
AcDbLine
 62
7
  6
CONTINUOUS
 10
15.4166665077
 20
13.1595745087
 11
15.4166665077
 21
11.5
  0
LINE
  5
48F
100
AcDbEntity
  8
0
100
AcDbLine
 62
7
  6
CONTINUOUS
 10
15.6666665077
 20
11.5
 11
15.6666665077
 21
13.5
  0
LINE
  5
490
100
AcDbEntity
  8
0
100
AcDbLine
 62
7
  6
CONTINUOUS
 10
16.0
 20
12.9468084574
 11
16.0
 21
12.7765957117
  0
LINE
  5
491
100
AcDbEntity
  8
0
100
AcDbLine
 62
7
  6
CONTINUOUS
 10
16.2083334923
 20
12.8191488981
 11
16.2083334923
 21
12.904255271
  0
LINE
  5
492
100
AcDbEntity
  8
0
100
AcDbLine
 62
7
  6
CONTINUOUS
 10
17.4583334923
 20
12.053191483
 11
17.5
 21
12.3510638475
  0
LINE
  5
493
100
AcDbEntity
  8
0
100
AcDbLine
 62
7
  6
CONTINUOUS
 10
17.2916665077
 20
12.3510638475
 11
17.25
 21
12.0957446694
  0
LINE
  5
494
100
AcDbEntity
  8
RACCORDO
100
AcDbLine
 62
7
  6
CONTINUOUS
 10
4.9771560991
 20
-15.3437899788
 11
5.0209460779
 21
-15.3
  0
LINE
  5
495
100
AcDbEntity
  8
0
100
AcDbLine
 62
7
  6
CONTINUOUS
 10
11.45
 20
-11.25
 11
10.0
 21
-12.7
  0
LINE
  5
496
100
AcDbEntity
  8
0
100
AcDbLine
 62
7
  6
CONTINUOUS
 10
-12.478321
 20
13.655008
 11
-12.977901
 21
13.655008
  0
LINE
  5
497
100
AcDbEntity
  8
0
100
AcDbLine
 62
7
  6
CONTINUOUS
 10
-10.7362312837
 20
13.7480786386
 11
-11.0160041564
 21
13.7480786386
  0
LINE
  5
498
100
AcDbEntity
  8
0
100
AcDbLine
 62
7
  6
CONTINUOUS
 10
-10.7351065686
 20
14.1574749227
 11
-11.0333060231
 21
14.1574749227
  0
LINE
  5
499
100
AcDbEntity
  8
0
100
AcDbLine
 62
7
  6
CONTINUOUS
 10
19.0
 20
15.0
 11
9.5
 21
15.0
  0
LINE
  5
49A
100
AcDbEntity
  8
0
100
AcDbLine
 62
7
  6
CONTINUOUS
 10
-12.455902
 20
15.269556
 11
-12.960674
 21
15.269556
  0
LINE
  5
49B
100
AcDbEntity
  8
0
100
AcDbLine
 62
7
  6
CONTINUOUS
 10
-14.060439
 20
15.269556
 11
-14.576702
 21
15.269556
  0
LINE
  5
49C
100
AcDbEntity
  8
0
100
AcDbLine
 62
7
  6
CONTINUOUS
 10
-15.614777
 20
15.269556
 11
-16.136138
 21
15.269556
  0
LINE
  5
49D
100
AcDbEntity
  8
0
100
AcDbLine
 62
7
  6
CONTINUOUS
 10
-17.358179
 20
15.269556
 11
-17.879615
 21
15.269556
  0
LINE
  5
49E
100
AcDbEntity
  8
0
100
AcDbLine
 62
7
  6
CONTINUOUS
 10
-18.847161
 20
15.269556
 11
-19.413989
 21
15.269556
  0
LINE
  5
49F
100
AcDbEntity
  8
0
100
AcDbLine
 62
7
  6
CONTINUOUS
 10
-16.642747
 20
15.269706
 11
-17.16454
 21
15.269706
  0
LINE
  5
4A0
100
AcDbEntity
  8
RACCORDO
100
AcDbLine
 62
253
  6
CONTINUOUS
 10
5.4550913568
 20
16.0
 11
5.1230612827
 21
16.0
  0
LINE
  5
4A1
100
AcDbEntity
  8
RACCORDO
100
AcDbLine
 62
253
  6
CONTINUOUS
 10
-5.1230612827
 20
16.0
 11
-5.4550913568
 21
16.0
  0
LINE
  5
4A2
100
AcDbEntity
  8
RACCORDO
100
AcDbLine
 62
253
  6
CONTINUOUS
 10
-5.5474214585
 20
16.0
 11
-6.55
 21
16.0
  0
LINE
  5
4A3
100
AcDbEntity
  8
RACCORDO
100
AcDbLine
 62
253
  6
CONTINUOUS
 10
5.5474214585
 20
16.0
 11
6.55
 21
16.0
  0
LINE
  5
4A4
100
AcDbEntity
  8
DRAFT
100
AcDbLine
 62
253
  6
CONTINUOUS
 10
7.85
 20
16.0
 11
7.9124968828
 21
16.0
  0
LINE
  5
4A5
100
AcDbEntity
  8
DRAFT
100
AcDbLine
 62
253
  6
CONTINUOUS
 10
-7.85
 20
16.0
 11
-7.9124968828
 21
16.0
  0
LINE
  5
4A6
100
AcDbEntity
  8
0
100
AcDbLine
 62
7
  6
CONTINUOUS
 10
14.4166667461
 20
13.4574468136
 11
14.125
 21
13.5
  0
LINE
  5
4A7
100
AcDbEntity
  8
0
100
AcDbLine
 62
7
  6
CONTINUOUS
 10
14.1666667461
 20
12.4361702204
 11
14.4166667461
 21
12.393617034
  0
LINE
  5
4A8
100
AcDbEntity
  8
0
100
AcDbLine
 62
7
  6
CONTINUOUS
 10
13.9583332539
 20
11.7127659619
 11
13.75
 21
11.7553191483
  0
LINE
  5
4A9
100
AcDbEntity
  8
0
100
AcDbLine
 62
7
  6
CONTINUOUS
 10
16.4583334923
 20
11.5425531901
 11
16.6666665077
 21
11.5
  0
LINE
  5
4AA
100
AcDbEntity
  8
0
100
AcDbLine
 62
7
  6
CONTINUOUS
 10
16.4166665077
 20
12.2659574747
 11
16.625
 21
12.2234042287
  0
LINE
  5
4AB
100
AcDbEntity
  8
0
100
AcDbLine
 62
7
  6
CONTINUOUS
 10
14.1666667461
 20
13.2872340679
 11
14.375
 21
13.2446808815
  0
LINE
  5
4AC
100
AcDbEntity
  8
0
100
AcDbLine
 62
7
  6
CONTINUOUS
 10
17.0416665077
 20
13.4574468136
 11
16.8333334923
 21
13.5
  0
LINE
  5
4AD
100
AcDbEntity
  8
0
100
AcDbLine
 62
7
  6
CONTINUOUS
 10
13.75
 20
11.5425531901
 11
13.9166667461
 21
11.5
  0
LINE
  5
4AE
100
AcDbEntity
  8
0
100
AcDbLine
 62
7
  6
CONTINUOUS
 10
16.625
 20
11.7127659619
 11
16.5
 21
11.7553191483
  0
LINE
  5
4AF
100
AcDbEntity
  8
DRAFT
100
AcDbLine
 62
7
  6
CONTINUOUS
 10
5.6664934336
 20
13.7150141941
 11
4.7762915913
 21
14.0739837398
  0
LINE
  5
4B0
100
AcDbEntity
  8
RACCORDO
100
AcDbLine
 62
7
  6
CONTINUOUS
 10
5.2089304955
 20
14.0918784286
 11
5.1232552409
 21
14.1264265566
  0
LINE
  5
4B1
100
AcDbEntity
  8
0
100
AcDbLine
 62
7
  6
CONTINUOUS
 10
13.5833332539
 20
11.6276595742
 11
13.75
 21
11.5425531901
  0
LINE
  5
4B2
100
AcDbEntity
  8
0
100
AcDbLine
 62
7
  6
CONTINUOUS
 10
13.75
 20
11.7553191483
 11
13.6666667461
 21
11.7978723347
  0
LINE
  5
4B3
100
AcDbEntity
  8
DRAFT
100
AcDbLine
 62
7
  6
CONTINUOUS
 10
7.9074593683
 20
20.5759243729
 11
7.8360359481
 21
20.7903688829
  0
LINE
  5
4B4
100
AcDbEntity
  8
0
100
AcDbLine
 62
7
  6
CONTINUOUS
 10
13.3333332539
 20
11.9680851102
 11
13.375
 21
11.8404255211
  0
LINE
  5
4B5
100
AcDbEntity
  8
0
100
AcDbLine
 62
7
  6
CONTINUOUS
 10
17.25
 20
12.904255271
 11
17.25
 21
12.8191488981
  0
LINE
  5
4B6
100
AcDbEntity
  8
0
100
AcDbLine
 62
7
  6
CONTINUOUS
 10
17.2916665077
 20
12.4361702204
 11
17.2916665077
 21
12.3510638475
  0
LINE
  5
4B7
100
AcDbEntity
  8
0
100
AcDbLine
 62
7
  6
CONTINUOUS
 10
17.5
 20
12.3510638475
 11
17.5
 21
12.6489361525
  0
LINE
  5
4B8
100
AcDbEntity
  8
0
100
AcDbLine
 62
7
  6
CONTINUOUS
 10
19.0
 20
15.0
 11
19.0
 21
10.0
  0
LINE
  5
4B9
100
AcDbEntity
  8
RACCORDO
100
AcDbLine
 62
7
  6
CONTINUOUS
 10
5.9009748491
 20
18.1292788609
 11
6.4016833977
 21
18.155519884
  0
LINE
  5
4BA
100
AcDbEntity
  8
DRAFT
100
AcDbLine
 62
7
  6
CONTINUOUS
 10
-6.55
 20
18.1794346951
 11
-6.1467267152
 21
18.1892899476
  0
LINE
  5
4BB
100
AcDbEntity
  8
RACCORDO
100
AcDbLine
 62
7
  6
CONTINUOUS
 10
0.1272611437
 20
17.6744982433
 11
-0.1272611437
 21
17.6744982433
  0
LINE
  5
4BC
100
AcDbEntity
  8
RACCORDO
100
AcDbLine
 62
7
  6
CONTINUOUS
 10
-5.5474214585
 20
18.1216039193
 11
-5.4550913568
 21
18.1216039193
  0
LINE
  5
4BD
100
AcDbEntity
  8
RACCORDO
100
AcDbLine
 62
7
  6
CONTINUOUS
 10
5.5474214585
 20
18.1216039193
 11
5.4550913568
 21
18.1216039193
  0
LINE
  5
4BE
100
AcDbEntity
  8
DRAFT
100
AcDbLine
 62
7
  6
CONTINUOUS
 10
-6.1098533507
 20
18.3
 11
-5.15
 21
18.3
  0
LINE
  5
4BF
100
AcDbEntity
  8
DRAFT
100
AcDbLine
 62
7
  6
CONTINUOUS
 10
6.1098533507
 20
18.3
 11
5.15
 21
18.3
  0
LINE
  5
4C0
100
AcDbEntity
  8
RACCORDO
100
AcDbLine
 62
253
  6
CONTINUOUS
 10
-0.046172221
 20
18.9192779926
 11
0.046172221
 21
18.9192779926
  0
LINE
  5
4C1
100
AcDbEntity
  8
DRAFT
100
AcDbLine
 62
7
  6
CONTINUOUS
 10
7.85
 20
19.0
 11
6.35
 21
19.0
  0
LINE
  5
4C2
100
AcDbEntity
  8
DRAFT
100
AcDbLine
 62
7
  6
CONTINUOUS
 10
-6.35
 20
19.0
 11
-7.85
 21
19.0
  0
LINE
  5
4C3
100
AcDbEntity
  8
DRAFT
100
AcDbLine
 62
7
  6
CONTINUOUS
 10
-6.3482544935
 20
19.0017455065
 11
-5.5937339076
 21
19.0017455065
  0
LINE
  5
4C4
100
AcDbEntity
  8
DRAFT
100
AcDbLine
 62
7
  6
CONTINUOUS
 10
6.3482544935
 20
19.0017455065
 11
5.5937339076
 21
19.0017455065
  0
LINE
  5
4C5
100
AcDbEntity
  8
DRAFT
100
AcDbLine
 62
7
  6
CONTINUOUS
 10
-7.8360359481
 20
19.0139640519
 11
-5.5732730266
 21
19.0139640519
  0
LINE
  5
4C6
100
AcDbEntity
  8
DRAFT
100
AcDbLine
 62
7
  6
CONTINUOUS
 10
5.5732730266
 20
19.0139640519
 11
7.8360359481
 21
19.0139640519
  0
LINE
  5
4C7
100
AcDbEntity
  8
RACCORDO
100
AcDbLine
 62
253
  6
CONTINUOUS
 10
0.3370703764
 20
19.8852038188
 11
-0.3370703764
 21
19.8852038188
  0
LINE
  5
4C8
100
AcDbEntity
  8
DRAFT
100
AcDbLine
 62
7
  6
CONTINUOUS
 10
6.55
 20
18.1794346951
 11
6.1467267152
 21
18.1892899476
  0
LINE
  5
4C9
100
AcDbEntity
  8
RACCORDO
100
AcDbLine
 62
7
  6
CONTINUOUS
 10
-5.9009748491
 20
18.1292788609
 11
-6.4016833977
 21
18.155519884
  0
LINE
  5
4CA
100
AcDbEntity
  8
0
100
AcDbLine
 62
7
  6
CONTINUOUS
 10
16.5833334923
 20
12.4361702204
 11
16.4583334923
 21
12.4787234068
  0
LINE
  5
4CB
100
AcDbEntity
  8
0
100
AcDbLine
 62
7
  6
CONTINUOUS
 10
16.875
 20
13.2872340679
 11
17.0
 21
13.2446808815
  0
LINE
  5
4CC
100
AcDbEntity
  8
0
100
AcDbLine
 62
7
  6
CONTINUOUS
 10
14.7083334923
 20
12.4361702204
 11
14.5
 21
12.5212765932
  0
LINE
  5
4CD
100
AcDbEntity
  8
0
100
AcDbLine
 62
7
  6
CONTINUOUS
 10
14.5833334923
 20
13.3723404408
 11
14.4166667461
 21
13.4574468136
  0
LINE
  5
4CE
100
AcDbEntity
  8
RACCORDO
100
AcDbLine
 62
7
  6
CONTINUOUS
 10
4.0104196803
 20
20.8966206529
 11
4.041280958
 21
20.8792711837
  0
LINE
  5
4CF
100
AcDbEntity
  8
RACCORDO
100
AcDbLine
 62
7
  6
CONTINUOUS
 10
4.041280958
 20
20.8792711837
 11
4.0803956484
 21
20.8570363025
  0
LINE
  5
4D0
100
AcDbEntity
  8
0
100
AcDbLine
 62
7
  6
CONTINUOUS
 10
16.25
 20
11.6702127606
 11
16.4583334923
 21
11.5425531901
  0
LINE
  5
4D1
100
AcDbEntity
  8
0
100
AcDbLine
 62
7
  6
CONTINUOUS
 10
16.2083334923
 20
12.393617034
 11
16.4166665077
 21
12.2659574747
  0
LINE
  5
4D2
100
AcDbEntity
  8
0
100
AcDbLine
 62
7
  6
CONTINUOUS
 10
13.4583332539
 20
11.7127659619
 11
13.5833332539
 21
11.6276595742
  0
LINE
  5
4D3
100
AcDbEntity
  8
0
100
AcDbLine
 62
7
  6
CONTINUOUS
 10
14.4166667461
 20
12.393617034
 11
14.5416665077
 21
12.3085106611
  0
LINE
  5
4D4
100
AcDbEntity
  8
0
100
AcDbLine
 62
7
  6
CONTINUOUS
 10
16.5
 20
11.7553191483
 11
16.375
 21
11.8404255211
  0
LINE
  5
4D5
100
AcDbEntity
  8
0
100
AcDbLine
 62
7
  6
CONTINUOUS
 10
14.375
 20
13.2446808815
 11
14.5
 21
13.1595745087
  0
LINE
  5
4D6
100
AcDbEntity
  8
0
100
AcDbLine
 62
7
  6
CONTINUOUS
 10
16.4583334923
 20
12.4787234068
 11
16.3333334923
 21
12.5638297796
  0
LINE
  5
4D7
100
AcDbEntity
  8
DRAFT
100
AcDbLine
 62
7
  6
CONTINUOUS
 10
6.3482544935
 20
19.0017455065
 11
6.35
 21
19.0
  0
LINE
  5
4D8
100
AcDbEntity
  8
DRAFT
100
AcDbLine
 62
7
  6
CONTINUOUS
 10
7.8360359481
 20
19.0139640519
 11
7.85
 21
19.0
  0
LINE
  5
4D9
100
AcDbEntity
  8
0
100
AcDbLine
 62
7
  6
CONTINUOUS
 10
13.6666667461
 20
11.7978723347
 11
13.5833332539
 21
11.8829787374
  0
LINE
  5
4DA
100
AcDbEntity
  8
0
100
AcDbLine
 62
7
  6
CONTINUOUS
 10
14.75
 20
13.2021276951
 11
14.5833334923
 21
13.3723404408
  0
LINE
  5
4DB
100
AcDbEntity
  8
0
100
AcDbLine
 62
7
  6
CONTINUOUS
 10
16.125
 20
11.8404255211
 11
16.25
 21
11.6702127606
  0
LINE
  5
4DC
100
AcDbEntity
  8
0
100
AcDbLine
 62
7
  6
CONTINUOUS
 10
13.375
 20
11.8404255211
 11
13.4583332539
 21
11.7127659619
  0
LINE
  5
4DD
100
AcDbEntity
  8
0
100
AcDbLine
 62
7
  6
CONTINUOUS
 10
14.7916665077
 20
12.3085106611
 11
14.7083334923
 21
12.4361702204
  0
LINE
  5
4DE
100
AcDbEntity
  8
0
100
AcDbLine
 62
7
  6
CONTINUOUS
 10
14.5
 20
13.1595745087
 11
14.5833334923
 21
13.0319149494
  0
LINE
  5
4DF
100
AcDbEntity
  8
0
100
AcDbLine
 62
7
  6
CONTINUOUS
 10
16.375
 20
11.8404255211
 11
16.2916665077
 21
11.9680851102
  0
LINE
  5
4E0
100
AcDbEntity
  8
0
100
AcDbLine
 62
7
  6
CONTINUOUS
 10
13.5833332539
 20
11.8829787374
 11
13.5416667461
 21
11.9680851102
  0
LINE
  5
4E1
100
AcDbEntity
  8
0
100
AcDbLine
 62
7
  6
CONTINUOUS
 10
14.5416665077
 20
12.3085106611
 11
14.625
 21
12.1382978559
  0
LINE
  5
4E2
100
AcDbEntity
  8
0
100
AcDbLine
 62
7
  6
CONTINUOUS
 10
16.0
 20
12.7765957117
 11
16.0833334923
 21
12.5638297796
  0
LINE
  5
4E3
100
AcDbEntity
  8
0
100
AcDbLine
 62
7
  6
CONTINUOUS
 10
16.0833334923
 20
11.9680851102
 11
16.125
 21
11.8404255211
  0
LINE
  5
4E4
100
AcDbEntity
  8
0
100
AcDbLine
 62
7
  6
CONTINUOUS
 10
16.25
 20
12.6914893389
 11
16.2083334923
 21
12.8191488981
  0
LINE
  5
4E5
100
AcDbEntity
  8
0
100
AcDbLine
 62
7
  6
CONTINUOUS
 10
14.8333334923
 20
12.1382978559
 11
14.7916665077
 21
12.3085106611
  0
LINE
  5
4E6
100
AcDbEntity
  8
0
100
AcDbLine
 62
7
  6
CONTINUOUS
 10
14.7916665077
 20
13.0319149494
 11
14.75
 21
13.2021276951
  0
LINE
  5
4E7
100
AcDbEntity
  8
0
100
AcDbLine
 62
7
  6
CONTINUOUS
 10
17.5
 20
12.6489361525
 11
17.4583334923
 21
12.9468084574
  0
LINE
  5
4E8
100
AcDbEntity
  8
RACCORDO
100
AcDbLine
 62
253
  6
CONTINUOUS
 10
21.0280804203
 20
20.8327524272
 11
21.0280804203
 21
7.1772746771
  0
LINE
  5
4E9
100
AcDbEntity
  8
RACCORDO
100
AcDbLine
 62
253
  6
CONTINUOUS
 10
21.0280804203
 20
-7.1773532877
 11
21.0280804203
 21
-20.8327524272
  0
LINE
  5
4EA
100
AcDbEntity
  8
DRAFT
100
AcDbLine
 62
7
  6
CONTINUOUS
 10
21.5139640519
 20
3.3742696634
 11
21.5139640519
 21
-3.3742696634
  0
LINE
  5
4EB
100
AcDbEntity
  8
RACCORDO
100
AcDbLine
 62
253
  6
CONTINUOUS
 10
21.5280042679
 20
21.3329812793
 11
21.5280042679
 21
7.1772746771
  0
LINE
  5
4EC
100
AcDbEntity
  8
RACCORDO
100
AcDbLine
 62
253
  6
CONTINUOUS
 10
21.5280042679
 20
-7.1772746771
 11
21.5280042679
 21
-21.3329812793
  0
LINE
  5
4ED
100
AcDbEntity
  8
RACCORDO
100
AcDbLine
 62
253
  6
CONTINUOUS
 10
21.5280804203
 20
-5.507524126
 11
21.5280804203
 21
5.507524126
  0
LINE
  5
4EE
100
AcDbEntity
  8
RACCORDO
100
AcDbLine
 62
253
  6
CONTINUOUS
 10
22.0280042679
 20
-5.6414783172
 11
22.0280042679
 21
5.6414783172
  0
LINE
  5
4EF
100
AcDbEntity
  8
RACCORDO
100
AcDbLine
 62
253
  6
CONTINUOUS
 10
21.5280804203
 20
-5.507524126
 11
21.429942994
 21
-5.6775031344
  0
LINE
  5
4F0
100
AcDbEntity
  8
RACCORDO
100
AcDbLine
 62
253
  6
CONTINUOUS
 10
22.0280042679
 20
-5.6414783172
 11
21.862889746
 21
-5.9274650582
  0
LINE
  5
4F1
100
AcDbEntity
  8
DRAFT
100
AcDbLine
 62
7
  6
CONTINUOUS
 10
7.25
 20
-24.05
 11
7.2238174026
 21
-24.0761825974
  0
LINE
  5
4F2
100
AcDbEntity
  8
RACCORDO
100
AcDbLine
 62
253
  6
CONTINUOUS
 10
-4.6038308413
 20
20.3527962574
 11
-0.4241681808
 21
20.3527962574
  0
LINE
  5
4F3
100
AcDbEntity
  8
RACCORDO
100
AcDbLine
 62
253
  6
CONTINUOUS
 10
0.4241681808
 20
20.3527962574
 11
4.6038308381
 21
20.3527962574
  0
LINE
  5
4F4
100
AcDbEntity
  8
DRAFT
100
AcDbLine
 62
7
  6
CONTINUOUS
 10
20.9425406317
 20
20.5759243729
 11
7.9074593683
 21
20.5759243729
  0
LINE
  5
4F5
100
AcDbEntity
  8
DRAFT
100
AcDbLine
 62
7
  6
CONTINUOUS
 10
-7.9074593683
 20
20.5759243729
 11
-20.9425406317
 21
20.5759243729
  0
LINE
  5
4F6
100
AcDbEntity
  8
RACCORDO
100
AcDbLine
 62
7
  6
CONTINUOUS
 10
-7.8360359481
 20
20.7903688829
 11
-4.3310415461
 21
20.7903688829
  0
LINE
  5
4F7
100
AcDbEntity
  8
RACCORDO
100
AcDbLine
 62
7
  6
CONTINUOUS
 10
4.3310415462
 20
20.7903688829
 11
7.8360359481
 21
20.7903688829
  0
LINE
  5
4F8
100
AcDbEntity
  8
RACCORDO
100
AcDbLine
 62
253
  6
CONTINUOUS
 10
-4.09651016
 20
20.8317092643
 11
-0.4159046804
 21
20.8317092643
  0
LINE
  5
4F9
100
AcDbEntity
  8
RACCORDO
100
AcDbLine
 62
253
  6
CONTINUOUS
 10
0.4159046804
 20
20.8317092643
 11
4.0965101614
 21
20.8317092643
  0
LINE
  5
4FA
100
AcDbEntity
  8
RACCORDO
100
AcDbLine
 62
253
  6
CONTINUOUS
 10
21.0286895005
 20
20.8336665119
 11
4.2545177573
 21
20.8336665119
  0
LINE
  5
4FB
100
AcDbEntity
  8
RACCORDO
100
AcDbLine
 62
253
  6
CONTINUOUS
 10
-4.2549559952
 20
20.8336665119
 11
-21.0286895005
 21
20.8336665119
  0
LINE
  5
4FC
100
AcDbEntity
  8
DRAFT
100
AcDbLine
 62
7
  6
CONTINUOUS
 10
3.866331916
 20
21.0
 11
0.3598533507
 21
21.0
  0
LINE
  5
4FD
100
AcDbEntity
  8
DRAFT
100
AcDbLine
 62
7
  6
CONTINUOUS
 10
-0.3598533507
 20
21.0
 11
-3.866331916
 21
21.0
  0
LINE
  5
4FE
100
AcDbEntity
  8
RACCORDO
100
AcDbLine
 62
253
  6
CONTINUOUS
 10
-21.5280042679
 20
21.3329812793
 11
-18.7450409561
 21
21.3329812793
  0
LINE
  5
4FF
100
AcDbEntity
  8
RACCORDO
100
AcDbLine
 62
253
  6
CONTINUOUS
 10
-17.2549590439
 20
21.3329812793
 11
-4.2545350221
 21
21.3329812793
  0
LINE
  5
500
100
AcDbEntity
  8
RACCORDO
100
AcDbLine
 62
253
  6
CONTINUOUS
 10
4.2545294416
 20
21.3329812793
 11
17.2549590439
 21
21.3329812793
  0
LINE
  5
501
100
AcDbEntity
  8
RACCORDO
100
AcDbLine
 62
253
  6
CONTINUOUS
 10
18.7450409561
 20
21.3329812793
 11
21.5280042679
 21
21.3329812793
  0
LINE
  5
502
100
AcDbEntity
  8
RACCORDO
100
AcDbLine
 62
253
  6
CONTINUOUS
 10
-0.3370703764
 20
21.8661469415
 11
0.3370703764
 21
21.8661469415
  0
LINE
  5
503
100
AcDbEntity
  8
RACCORDO
100
AcDbLine
 62
253
  6
CONTINUOUS
 10
-0.0371160678
 20
22.1615892674
 11
0.0371160678
 21
22.1615892674
  0
LINE
  5
504
100
AcDbEntity
  8
RACCORDO
100
AcDbLine
 62
7
  6
CONTINUOUS
 10
-1.1449850216
 20
22.2165727725
 11
-0.3354433129
 21
22.2165727725
  0
LINE
  5
505
100
AcDbEntity
  8
RACCORDO
100
AcDbLine
 62
7
  6
CONTINUOUS
 10
0.3354433129
 20
22.2165727725
 11
1.1449850216
 21
22.2165727725
  0
LINE
  5
506
100
AcDbEntity
  8
DRAFT
100
AcDbLine
 62
7
  6
CONTINUOUS
 10
15.2761825974
 20
22.8238174026
 11
7.2238174026
 21
22.8238174026
  0
LINE
  5
507
100
AcDbEntity
  8
DRAFT
100
AcDbLine
 62
7
  6
CONTINUOUS
 10
-7.2238174026
 20
22.8238174026
 11
-15.2761825974
 21
22.8238174026
  0
LINE
  5
508
100
AcDbEntity
  8
DRAFT
100
AcDbLine
 62
7
  6
CONTINUOUS
 10
15.25
 20
22.85
 11
7.25
 21
22.85
  0
LINE
  5
509
100
AcDbEntity
  8
DRAFT
100
AcDbLine
 62
7
  6
CONTINUOUS
 10
-7.25
 20
22.85
 11
-15.25
 21
22.85
  0
LINE
  5
50A
100
AcDbEntity
  8
0
100
AcDbLine
 62
7
  6
CONTINUOUS
 10
17.25
 20
13.3297872543
 11
17.0416665077
 21
13.4574468136
  0
LINE
  5
50B
100
AcDbEntity
  8
0
100
AcDbLine
 62
7
  6
CONTINUOUS
 10
17.0
 20
13.2446808815
 11
17.125
 21
13.1595745087
  0
LINE
  5
50C
100
AcDbEntity
  8
DRAFT
100
AcDbLine
 62
7
  6
CONTINUOUS
 10
7.25
 20
24.05
 11
7.2238174026
 21
24.0761825974
  0
LINE
  5
50D
100
AcDbEntity
  8
0
100
AcDbLine
 62
7
  6
CONTINUOUS
 10
16.0833334923
 20
12.5638297796
 11
16.2083334923
 21
12.393617034
  0
LINE
  5
50E
100
AcDbEntity
  8
0
100
AcDbLine
 62
7
  6
CONTINUOUS
 10
17.375
 20
13.1595745087
 11
17.25
 21
13.3297872543
  0
LINE
  5
50F
100
AcDbEntity
  8
0
100
AcDbLine
 62
7
  6
CONTINUOUS
 10
16.3333334923
 20
12.5638297796
 11
16.25
 21
12.6914893389
  0
LINE
  5
510
100
AcDbEntity
  8
0
100
AcDbLine
 62
7
  6
CONTINUOUS
 10
17.125
 20
13.1595745087
 11
17.2083334923
 21
13.0319149494
  0
LINE
  5
511
100
AcDbEntity
  8
RACCORDO
100
AcDbLine
 62
253
  6
CONTINUOUS
 10
21.4299818339
 20
5.6774358618
 11
21.5280804203
 21
5.507524126
  0
LINE
  5
512
100
AcDbEntity
  8
RACCORDO
100
AcDbLine
 62
253
  6
CONTINUOUS
 10
21.862889746
 20
5.9274650582
 11
22.0280042679
 21
5.6414783172
  0
LINE
  5
513
100
AcDbEntity
  8
0
100
AcDbLine
 62
7
  6
CONTINUOUS
 10
17.4583334923
 20
12.9468084574
 11
17.375
 21
13.1595745087
  0
LINE
  5
514
100
AcDbEntity
  8
0
100
AcDbLine
 62
7
  6
CONTINUOUS
 10
17.2083334923
 20
13.0319149494
 11
17.25
 21
12.904255271
  0
LINE
  5
515
100
AcDbEntity
  8
RACCORDO
100
AcDbLine
 62
7
  6
CONTINUOUS
 10
24.5
 20
-23.7507615242
 11
24.5
 21
23.7507615242
  0
LINE
  5
516
100
AcDbEntity
  8
SMUSSO
100
AcDbLine
 62
7
  6
CONTINUOUS
 10
7.25
 20
-26.0499999722
 11
7.2238174026
 21
-26.0761825696
  0
LINE
  5
517
100
AcDbEntity
  8
SMUSSO
100
AcDbLine
 62
7
  6
CONTINUOUS
 10
7.85
 20
-26.650091369
 11
7.8238174026
 21
-26.6762739664
  0
LINE
  5
518
100
AcDbEntity
  8
DRAFT
100
AcDbLine
 62
7
  6
CONTINUOUS
 10
7.8238174026
 20
-27.1761825974
 11
7.85
 21
-27.15
  0
LINE
  5
519
100
AcDbEntity
  8
DRAFT
100
AcDbLine
 62
7
  6
CONTINUOUS
 10
-15.25
 20
24.05
 11
-7.25
 21
24.05
  0
LINE
  5
51A
100
AcDbEntity
  8
DRAFT
100
AcDbLine
 62
7
  6
CONTINUOUS
 10
7.25
 20
24.05
 11
15.25
 21
24.05
  0
LINE
  5
51B
100
AcDbEntity
  8
DRAFT
100
AcDbLine
 62
7
  6
CONTINUOUS
 10
-15.2761825974
 20
24.0761825974
 11
-7.2238174026
 21
24.0761825974
  0
LINE
  5
51C
100
AcDbEntity
  8
DRAFT
100
AcDbLine
 62
7
  6
CONTINUOUS
 10
7.2238174026
 20
24.0761825974
 11
15.2761825974
 21
24.0761825974
  0
LINE
  5
51D
100
AcDbEntity
  8
DRAFT
100
AcDbLine
 62
7
  6
CONTINUOUS
 10
15.2761825974
 20
25.0238174026
 11
7.2238174026
 21
25.0238174026
  0
LINE
  5
51E
100
AcDbEntity
  8
DRAFT
100
AcDbLine
 62
7
  6
CONTINUOUS
 10
-7.2238174026
 20
25.0238174026
 11
-15.2761825974
 21
25.0238174026
  0
LINE
  5
51F
100
AcDbEntity
  8
DRAFT
100
AcDbLine
 62
7
  6
CONTINUOUS
 10
7.25
 20
25.05
 11
15.25
 21
25.05
  0
LINE
  5
520
100
AcDbEntity
  8
DRAFT
100
AcDbLine
 62
7
  6
CONTINUOUS
 10
-7.25
 20
25.05
 11
-15.25
 21
25.05
  0
LINE
  5
521
100
AcDbEntity
  8
DRAFT
100
AcDbLine
 62
7
  6
CONTINUOUS
 10
8.75
 20
25.3
 11
13.75
 21
25.3
  0
LINE
  5
522
100
AcDbEntity
  8
DRAFT
100
AcDbLine
 62
7
  6
CONTINUOUS
 10
-8.75
 20
25.3
 11
-13.75
 21
25.3
  0
LINE
  5
523
100
AcDbEntity
  8
SMUSSO
100
AcDbLine
 62
7
  6
CONTINUOUS
 10
7.2238174026
 20
26.0761825696
 11
7.25
 21
26.0499999722
  0
LINE
  5
524
100
AcDbEntity
  8
SMUSSO
100
AcDbLine
 62
7
  6
CONTINUOUS
 10
7.8238174026
 20
26.6762739664
 11
7.85
 21
26.650091369
  0
LINE
  5
525
100
AcDbEntity
  8
DRAFT
100
AcDbLine
 62
7
  6
CONTINUOUS
 10
7.8238174026
 20
27.1761825974
 11
7.85
 21
27.15
  0
LINE
  5
526
100
AcDbEntity
  8
DRAFT
100
AcDbLine
 62
7
  6
CONTINUOUS
 10
15.25
 20
-22.85
 11
15.2761825974
 21
-22.8238174026
  0
LINE
  5
527
100
AcDbEntity
  8
RACCORDO
100
AcDbLine
 62
253
  6
CONTINUOUS
 10
10.2718949894
 20
-28.0281430868
 11
10.25
 21
-28.0500380762
  0
LINE
  5
528
100
AcDbEntity
  8
RACCORDO
100
AcDbLine
 62
253
  6
CONTINUOUS
 10
10.5218569132
 20
-28.2781050106
 11
10.4999619238
 21
-28.3
  0
LINE
  5
529
100
AcDbEntity
  8
DRAFT
100
AcDbLine
 62
7
  6
CONTINUOUS
 10
12.0
 20
-27.0
 11
11.9476348052
 21
-27.0523651948
  0
LINE
  5
52A
100
AcDbEntity
  8
DRAFT
100
AcDbLine
 62
7
  6
CONTINUOUS
 10
12.0
 20
-27.15
 11
11.9476348052
 21
-27.2023651948
  0
LINE
  5
52B
100
AcDbEntity
  8
RACCORDO
100
AcDbLine
 62
7
  6
CONTINUOUS
 10
12.2281050106
 20
-27.1980775868
 11
12.25
 21
-27.1761825974
  0
LINE
  5
52C
100
AcDbEntity
  8
DRAFT
100
AcDbLine
 62
7
  6
CONTINUOUS
 10
15.25
 20
-25.05
 11
15.2761825974
 21
-25.0238174026
  0
LINE
  5
52D
100
AcDbEntity
  8
SMUSSO
100
AcDbLine
 62
7
  6
CONTINUOUS
 10
14.65
 20
-26.650091369
 11
15.25
 21
-26.050091369
  0
LINE
  5
52E
100
AcDbEntity
  8
SMUSSO
100
AcDbLine
 62
7
  6
CONTINUOUS
 10
15.2761825974
 20
-26.0762739664
 11
14.6761825974
 21
-26.6762739664
  0
LINE
  5
52F
100
AcDbEntity
  8
DRAFT
100
AcDbLine
 62
7
  6
CONTINUOUS
 10
12.0
 20
27.0
 11
10.5
 21
27.0
  0
LINE
  5
530
100
AcDbEntity
  8
DRAFT
100
AcDbLine
 62
7
  6
CONTINUOUS
 10
-10.5
 20
27.0
 11
-12.0
 21
27.0
  0
LINE
  5
531
100
AcDbEntity
  8
DRAFT
100
AcDbLine
 62
7
  6
CONTINUOUS
 10
11.9476348052
 20
27.0523651948
 11
10.5523651948
 21
27.0523651948
  0
LINE
  5
532
100
AcDbEntity
  8
DRAFT
100
AcDbLine
 62
7
  6
CONTINUOUS
 10
-10.5523651948
 20
27.0523651948
 11
-11.9476348052
 21
27.0523651948
  0
LINE
  5
533
100
AcDbEntity
  8
DRAFT
100
AcDbLine
 62
7
  6
CONTINUOUS
 10
-14.65
 20
27.15
 11
-12.0
 21
27.15
  0
LINE
  5
534
100
AcDbEntity
  8
DRAFT
100
AcDbLine
 62
7
  6
CONTINUOUS
 10
-10.5
 20
27.15
 11
-7.85
 21
27.15
  0
LINE
  5
535
100
AcDbEntity
  8
DRAFT
100
AcDbLine
 62
7
  6
CONTINUOUS
 10
7.85
 20
27.15
 11
10.5
 21
27.15
  0
LINE
  5
536
100
AcDbEntity
  8
DRAFT
100
AcDbLine
 62
7
  6
CONTINUOUS
 10
12.0
 20
27.15
 11
14.65
 21
27.15
  0
LINE
  5
537
100
AcDbEntity
  8
DRAFT
100
AcDbLine
 62
7
  6
CONTINUOUS
 10
-14.6761825974
 20
27.1761825974
 11
-12.25
 21
27.1761825974
  0
LINE
  5
538
100
AcDbEntity
  8
DRAFT
100
AcDbLine
 62
7
  6
CONTINUOUS
 10
-10.25
 20
27.1761825974
 11
-7.8238174026
 21
27.1761825974
  0
LINE
  5
539
100
AcDbEntity
  8
DRAFT
100
AcDbLine
 62
7
  6
CONTINUOUS
 10
7.8238174026
 20
27.1761825974
 11
10.25
 21
27.1761825974
  0
LINE
  5
53A
100
AcDbEntity
  8
DRAFT
100
AcDbLine
 62
7
  6
CONTINUOUS
 10
12.25
 20
27.1761825974
 11
14.6761825974
 21
27.1761825974
  0
LINE
  5
53B
100
AcDbEntity
  8
RACCORDO
100
AcDbLine
 62
7
  6
CONTINUOUS
 10
-11.9781430868
 20
27.2023651948
 11
-11.9476348052
 21
27.2023651948
  0
LINE
  5
53C
100
AcDbEntity
  8
RACCORDO
100
AcDbLine
 62
7
  6
CONTINUOUS
 10
-10.5523651948
 20
27.2023651948
 11
-10.5218569132
 21
27.2023651948
  0
LINE
  5
53D
100
AcDbEntity
  8
RACCORDO
100
AcDbLine
 62
7
  6
CONTINUOUS
 10
10.5218569132
 20
27.2023651948
 11
10.5523651948
 21
27.2023651948
  0
LINE
  5
53E
100
AcDbEntity
  8
RACCORDO
100
AcDbLine
 62
7
  6
CONTINUOUS
 10
11.9476348052
 20
27.2023651948
 11
11.9781430868
 21
27.2023651948
  0
LINE
  5
53F
100
AcDbEntity
  8
RACCORDO
100
AcDbLine
 62
253
  6
CONTINUOUS
 10
-10.2718949894
 20
28.0281430868
 11
-12.2281050106
 21
28.0281430868
  0
LINE
  5
540
100
AcDbEntity
  8
RACCORDO
100
AcDbLine
 62
253
  6
CONTINUOUS
 10
10.2718949894
 20
28.0281430868
 11
12.2281050106
 21
28.0281430868
  0
LINE
  5
541
100
AcDbEntity
  8
RACCORDO
100
AcDbLine
 62
253
  6
CONTINUOUS
 10
11.9781430868
 20
28.2781050106
 11
10.5218569132
 21
28.2781050106
  0
LINE
  5
542
100
AcDbEntity
  8
RACCORDO
100
AcDbLine
 62
253
  6
CONTINUOUS
 10
-10.5218569132
 20
28.2781050106
 11
-11.9781430868
 21
28.2781050106
  0
LINE
  5
543
100
AcDbEntity
  8
RACCORDO
100
AcDbLine
 62
7
  6
CONTINUOUS
 10
12.0000380762
 20
28.3
 11
10.4999619238
 21
28.3
  0
LINE
  5
544
100
AcDbEntity
  8
RACCORDO
100
AcDbLine
 62
7
  6
CONTINUOUS
 10
-10.4999619238
 20
28.3
 11
-12.0000380762
 21
28.3
  0
LINE
  5
545
100
AcDbEntity
  8
RACCORDO
100
AcDbLine
 62
7
  6
CONTINUOUS
 10
19.5007615242
 20
28.75
 11
7.17064049
 21
28.75
  0
LINE
  5
546
100
AcDbEntity
  8
RACCORDO
100
AcDbLine
 62
7
  6
CONTINUOUS
 10
-7.17064049
 20
28.75
 11
-19.5007615242
 21
28.75
  0
LINE
  5
547
100
AcDbEntity
  8
DRAFT
100
AcDbLine
 62
7
  6
CONTINUOUS
 10
15.25
 20
22.85
 11
15.2761825974
 21
22.8238174026
  0
LINE
  5
548
100
AcDbEntity
  8
RACCORDO
100
AcDbLine
 62
253
  6
CONTINUOUS
 10
10.25
 20
28.0500380762
 11
10.2718949894
 21
28.0281430868
  0
LINE
  5
549
100
AcDbEntity
  8
RACCORDO
100
AcDbLine
 62
253
  6
CONTINUOUS
 10
10.4999619238
 20
28.3
 11
10.5218569132
 21
28.2781050106
  0
LINE
  5
54A
100
AcDbEntity
  8
DRAFT
100
AcDbLine
 62
7
  6
CONTINUOUS
 10
12.0
 20
27.0
 11
11.9476348052
 21
27.0523651948
  0
LINE
  5
54B
100
AcDbEntity
  8
DRAFT
100
AcDbLine
 62
7
  6
CONTINUOUS
 10
12.0
 20
27.15
 11
11.9476348052
 21
27.2023651948
  0
LINE
  5
54C
100
AcDbEntity
  8
RACCORDO
100
AcDbLine
 62
7
  6
CONTINUOUS
 10
12.2281050106
 20
27.1980775868
 11
12.25
 21
27.1761825974
  0
LINE
  5
54D
100
AcDbEntity
  8
DRAFT
100
AcDbLine
 62
7
  6
CONTINUOUS
 10
15.25
 20
25.05
 11
15.2761825974
 21
25.0238174026
  0
LINE
  5
54E
100
AcDbEntity
  8
SMUSSO
100
AcDbLine
 62
7
  6
CONTINUOUS
 10
15.25
 20
26.050091369
 11
14.65
 21
26.650091369
  0
LINE
  5
54F
100
AcDbEntity
  8
SMUSSO
100
AcDbLine
 62
7
  6
CONTINUOUS
 10
14.6761825974
 20
26.6762739664
 11
15.2761825974
 21
26.0762739664
  0
ARC
  5
550
100
AcDbEntity
  8
DRAFT
100
AcDbCircle
 62
7
  6
CONTINUOUS
 10
-6.7415468082
 20
-0.2249641779
 40
15.2045649549
100
AcDbArc
 50
165.060319421
 51
166.3069316189
  0
ARC
  5
551
100
AcDbEntity
  8
SMUSSO
100
AcDbCircle
 62
7
  6
CONTINUOUS
 10
-3.9243154043
 20
-5.8656792764
 40
8.4327978902
100
AcDbArc
 50
39.0695144853
 51
39.3322673519
  0
ARC
  5
552
100
AcDbEntity
  8
SMUSSO
100
AcDbCircle
 62
7
  6
CONTINUOUS
 10
-5.8654695116
 20
-3.9242336517
 40
8.4325118567
100
AcDbArc
 50
50.6689832471
 51
50.9298429558
  0
ARC
  5
553
100
AcDbEntity
  8
DRAFT
100
AcDbCircle
 62
7
  6
CONTINUOUS
 10
-15.0000338851
 20
-0.0011754158
 40
7.4183569574
100
AcDbArc
 50
4.4001091261
 51
150.1178104231
  0
ARC
  5
554
100
AcDbEntity
  8
RACCORDO
100
AcDbCircle
 62
7
  6
CONTINUOUS
 10
-4.0
 20
-29.7321374946
 40
3.0
100
AcDbArc
 50
82.3377443392
 51
154.9470712452
  0
ARC
  5
555
100
AcDbEntity
  8
RACCORDO
100
AcDbCircle
 62
253
  6
CONTINUOUS
 10
-24.0277650569
 20
-7.1773126029
 40
2.9996846368
100
AcDbArc
 50
0.0007244046
 51
30.0007592135
  0
ARC
  5
556
100
AcDbEntity
  8
RACCORDO
100
AcDbCircle
 62
7
  6
CONTINUOUS
 10
-23.9318838896
 20
-7.1509509799
 40
2.9990659201
100
AcDbArc
 50
359.9847502028
 51
29.9896362609
  0
ARC
  5
557
100
AcDbEntity
  8
SMUSSO
100
AcDbCircle
 62
7
  6
CONTINUOUS
 10
-0.0001598484
 20
-0.000128917
 40
2.679836098
100
AcDbArc
 50
101.8550467807
 51
168.1363674813
  0
ARC
  5
558
100
AcDbEntity
  8
RACCORDO
100
AcDbCircle
 62
253
  6
CONTINUOUS
 10
-24.0276112396
 20
-7.1772713904
 40
2.4996069717
100
AcDbArc
 50
359.9999246619
 51
30.0000753381
  0
CIRCLE
  5
559
100
AcDbEntity
  8
DRAFT
100
AcDbCircle
 62
7
  6
CONTINUOUS
 10
-22.7
 20
-18.5
 40
1.0
  0
ARC
  5
55A
100
AcDbEntity
  8
RACCORDO
100
AcDbCircle
 62
7
  6
CONTINUOUS
 10
-18.0
 20
-22.0
 40
1.0
100
AcDbArc
 50
138.1626168654
 51
180.0
  0
ARC
  5
55B
100
AcDbEntity
  8
DRAFT
100
AcDbCircle
 62
7
  6
CONTINUOUS
 10
-18.0
 20
-22.0
 40
1.0
100
AcDbArc
 50
180.0
 51
360.0
  0
ARC
  5
55C
100
AcDbEntity
  8
RACCORDO
100
AcDbCircle
 62
7
  6
CONTINUOUS
 10
-18.0
 20
-22.0
 40
1.0
100
AcDbArc
 50
0.0
 51
41.8373831346
  0
CIRCLE
  5
55D
100
AcDbEntity
  8
RACCORDO
100
AcDbCircle
 62
253
  6
CONTINUOUS
 10
-18.0
 20
-22.0
 40
0.9789625322
  0
CIRCLE
  5
55E
100
AcDbEntity
  8
RACCORDO
100
AcDbCircle
 62
253
  6
CONTINUOUS
 10
-22.7
 20
-18.5
 40
0.9789625322
  0
CIRCLE
  5
55F
100
AcDbEntity
  8
RACCORDO
100
AcDbCircle
 62
253
  6
CONTINUOUS
 10
-22.7
 20
-18.5
 40
0.6790082237
  0
CIRCLE
  5
560
100
AcDbEntity
  8
RACCORDO
100
AcDbCircle
 62
253
  6
CONTINUOUS
 10
-18.0
 20
-22.0
 40
0.6790082237
  0
ARC
  5
561
100
AcDbEntity
  8
RACCORDO
100
AcDbCircle
 62
7
  6
CONTINUOUS
 10
-7.1706516968
 20
-28.2500585434
 40
0.4999434378
100
AcDbArc
 50
270.001284353
 51
334.9457868923
  0
ARC
  5
562
100
AcDbEntity
  8
RACCORDO
100
AcDbCircle
 62
253
  6
CONTINUOUS
 10
-10.5219612284
 20
-28.0280390594
 40
0.250067482
100
AcDbArc
 50
270.0239009941
 51
359.976164985
  0
ARC
  5
563
100
AcDbEntity
  8
RACCORDO
100
AcDbCircle
 62
253
  6
CONTINUOUS
 10
-11.9780390198
 20
-28.0280390198
 40
0.2500674113
100
AcDbArc
 50
180.0238441207
 51
269.9761558793
  0
ARC
  5
564
100
AcDbEntity
  8
DRAFT
100
AcDbCircle
 62
7
  6
CONTINUOUS
 10
-15.0000349993
 20
0.0011728433
 40
7.4183552881
100
AcDbArc
 50
209.8821766372
 51
355.5999113446
  0
ARC
  5
565
100
AcDbEntity
  8
DRAFT
100
AcDbCircle
 62
7
  6
CONTINUOUS
 10
-15.0
 20
0.0
 40
7.3709460779
100
AcDbArc
 50
355.948094861
 51
4.051905139
  0
ARC
  5
566
100
AcDbEntity
  8
DRAFT
100
AcDbCircle
 62
7
  6
CONTINUOUS
 10
-15.0
 20
0.0
 40
7.3360359481
100
AcDbArc
 50
207.3844082666
 51
152.6155917334
  0
CIRCLE
  5
567
100
AcDbEntity
  8
DRAFT
100
AcDbCircle
 62
7
  6
CONTINUOUS
 10
-15.0
 20
0.0
 40
6.4610927272
  0
CIRCLE
  5
568
100
AcDbEntity
  8
DRAFT
100
AcDbCircle
 62
7
  6
CONTINUOUS
 10
-15.0
 20
0.0
 40
6.4
  0
CIRCLE
  5
569
100
AcDbEntity
  8
DRAFT
100
AcDbCircle
 62
7
  6
CONTINUOUS
 10
-15.0
 20
0.0
 40
6.35
  0
ARC
  5
56A
100
AcDbEntity
  8
RACCORDO
100
AcDbCircle
 62
253
  6
CONTINUOUS
 10
-24.0277650557
 20
7.1773126081
 40
2.999684637
100
AcDbArc
 50
330.0007244051
 51
0.0007769925
  0
ARC
  5
56B
100
AcDbEntity
  8
RACCORDO
100
AcDbCircle
 62
7
  6
CONTINUOUS
 10
-23.9318838896
 20
7.1509509799
 40
2.9990659201
100
AcDbArc
 50
330.0103637391
 51
0.0152497972
  0
ARC
  5
56C
100
AcDbEntity
  8
RACCORDO
100
AcDbCircle
 62
253
  6
CONTINUOUS
 10
-24.0276112396
 20
7.1772713904
 40
2.4996069717
100
AcDbArc
 50
329.9999246619
 51
0.0000753381
  0
CIRCLE
  5
56D
100
AcDbEntity
  8
DRAFT
100
AcDbCircle
 62
7
  6
CONTINUOUS
 10
-22.7
 20
18.5
 40
1.0
  0
ARC
  5
56E
100
AcDbEntity
  8
RACCORDO
100
AcDbCircle
 62
7
  6
CONTINUOUS
 10
-18.0
 20
22.0
 40
1.0
100
AcDbArc
 50
318.1626168654
 51
360.0
  0
ARC
  5
56F
100
AcDbEntity
  8
DRAFT
100
AcDbCircle
 62
7
  6
CONTINUOUS
 10
-18.0
 20
22.0
 40
1.0
100
AcDbArc
 50
0.0
 51
180.0
  0
ARC
  5
570
100
AcDbEntity
  8
RACCORDO
100
AcDbCircle
 62
7
  6
CONTINUOUS
 10
-18.0
 20
22.0
 40
1.0
100
AcDbArc
 50
180.0
 51
221.8373831346
  0
CIRCLE
  5
571
100
AcDbEntity
  8
RACCORDO
100
AcDbCircle
 62
253
  6
CONTINUOUS
 10
-18.0
 20
22.0
 40
0.9789625322
  0
CIRCLE
  5
572
100
AcDbEntity
  8
RACCORDO
100
AcDbCircle
 62
253
  6
CONTINUOUS
 10
-22.7
 20
18.5
 40
0.9789625322
  0
CIRCLE
  5
573
100
AcDbEntity
  8
RACCORDO
100
AcDbCircle
 62
253
  6
CONTINUOUS
 10
-18.0
 20
22.0
 40
0.6790082237
  0
CIRCLE
  5
574
100
AcDbEntity
  8
RACCORDO
100
AcDbCircle
 62
253
  6
CONTINUOUS
 10
-22.7
 20
18.5
 40
0.6790082237
  0
ARC
  5
575
100
AcDbEntity
  8
DRAFT
100
AcDbCircle
 62
7
  6
CONTINUOUS
 10
-6.7415468082
 20
0.2249641779
 40
15.2045649549
100
AcDbArc
 50
193.6930683811
 51
194.939680579
  0
ARC
  5
576
100
AcDbEntity
  8
RACCORDO
100
AcDbCircle
 62
253
  6
CONTINUOUS
 10
-0.1155929328
 20
13.020704863
 40
8.9521079735
100
AcDbArc
 50
60.2171841694
 51
60.7799205123
  0
ARC
  5
577
100
AcDbEntity
  8
SMUSSO
100
AcDbCircle
 62
7
  6
CONTINUOUS
 10
-3.9243155118
 20
5.8656793235
 40
8.4327980032
100
AcDbArc
 50
320.6677328636
 51
320.9304857259
  0
ARC
  5
578
100
AcDbEntity
  8
SMUSSO
100
AcDbCircle
 62
7
  6
CONTINUOUS
 10
-5.8654699319
 20
3.9242346045
 40
8.4325128601
100
AcDbArc
 50
309.0701551883
 51
309.3310148587
  0
ARC
  5
579
100
AcDbEntity
  8
SMUSSO
100
AcDbCircle
 62
7
  6
CONTINUOUS
 10
-0.0002817594
 20
0.0000386518
 40
2.679696282
100
AcDbArc
 50
191.8622796416
 51
258.147108341
  0
ARC
  5
57A
100
AcDbEntity
  8
DRAFT
100
AcDbCircle
 62
7
  6
CONTINUOUS
 10
-0.0000678696
 20
15.997375011
 40
7.9143053814
100
AcDbArc
 50
235.1816034181
 51
265.892683715
  0
ARC
  5
57B
100
AcDbEntity
  8
DRAFT
100
AcDbCircle
 62
7
  6
CONTINUOUS
 10
-0.0035619714
 20
15.9933430675
 40
7.9089665899
100
AcDbArc
 50
179.9517387004
 51
235.1857065661
  0
ARC
  5
57C
100
AcDbEntity
  8
RACCORDO
100
AcDbCircle
 62
253
  6
CONTINUOUS
 10
-1.8110808138
 20
16.3670101182
 40
6.8729901833
100
AcDbArc
 50
307.9555085843
 51
308.8474982978
  0
ARC
  5
57D
100
AcDbEntity
  8
RACCORDO
100
AcDbCircle
 62
253
  6
CONTINUOUS
 10
-2.1084669021
 20
16.3363569018
 40
6.5587402646
100
AcDbArc
 50
308.7874286978
 51
309.6743611644
  0
ARC
  5
57E
100
AcDbEntity
  8
RACCORDO
100
AcDbCircle
 62
7
  6
CONTINUOUS
 10
-4.0
 20
29.7321374946
 40
3.0
100
AcDbArc
 50
205.0529287548
 51
277.6622556608
  0
ARC
  5
57F
100
AcDbEntity
  8
RACCORDO
100
AcDbCircle
 62
7
  6
CONTINUOUS
 10
-4.3311248066
 20
21.2951327413
 40
0.5047638653
100
AcDbArc
 50
270.009450894
 51
299.78311799
  0
ARC
  5
580
100
AcDbEntity
  8
RACCORDO
100
AcDbCircle
 62
7
  6
CONTINUOUS
 10
-4.2552680709
 20
21.3341427228
 40
0.5013690105
100
AcDbArc
 50
299.2807320778
 51
308.5653260272
  0
ARC
  5
581
100
AcDbEntity
  8
RACCORDO
100
AcDbCircle
 62
7
  6
CONTINUOUS
 10
-7.1706517198
 20
28.2500585072
 40
0.4999434378
100
AcDbArc
 50
25.0542157429
 51
89.9987130119
  0
ARC
  5
582
100
AcDbEntity
  8
RACCORDO
100
AcDbCircle
 62
253
  6
CONTINUOUS
 10
-4.251973537
 20
21.3284568459
 40
0.4947969318
100
AcDbArc
 50
269.7041145762
 51
299.1921807423
  0
ARC
  5
583
100
AcDbEntity
  8
RACCORDO
100
AcDbCircle
 62
253
  6
CONTINUOUS
 10
-11.9780387857
 20
28.0280389662
 40
0.2500675178
100
AcDbArc
 50
90.0238977453
 51
179.976143631
  0
ARC
  5
584
100
AcDbEntity
  8
RACCORDO
100
AcDbCircle
 62
253
  6
CONTINUOUS
 10
-10.5219609802
 20
28.0280390198
 40
0.2500674113
100
AcDbArc
 50
0.0238441153
 51
89.9761558847
  0
ARC
  5
585
100
AcDbEntity
  8
DRAFT
100
AcDbCircle
 62
7
  6
CONTINUOUS
 10
6.7415468081
 20
-0.2249641779
 40
15.204564955
100
AcDbArc
 50
13.6930683811
 51
14.939680579
  0
ARC
  5
586
100
AcDbEntity
  8
0
100
AcDbCircle
 62
7
  6
CONTINUOUS
 10
3.3165441495
 20
-14.0
 40
8.889332904
100
AcDbArc
 50
357.7435080961
 51
2.2564919039
  0
ARC
  5
587
100
AcDbEntity
  8
SMUSSO
100
AcDbCircle
 62
7
  6
CONTINUOUS
 10
3.9243154041
 20
-5.865679276
 40
8.4327978899
100
AcDbArc
 50
140.6677326491
 51
140.9304855157
  0
ARC
  5
588
100
AcDbEntity
  8
SMUSSO
100
AcDbCircle
 62
7
  6
CONTINUOUS
 10
5.8654695098
 20
-3.9242336487
 40
8.4325118533
100
AcDbArc
 50
129.0701570477
 51
129.3310167565
  0
ARC
  5
589
100
AcDbEntity
  8
0
100
AcDbCircle
 62
7
  6
CONTINUOUS
 10
4.45
 20
-14.0
 40
7.9843597113
100
AcDbArc
 50
4.1806628664
 51
19.7966293547
  0
ARC
  5
58A
100
AcDbEntity
  8
0
100
AcDbCircle
 62
7
  6
CONTINUOUS
 10
4.45
 20
-14.0
 40
7.9843597113
100
AcDbArc
 50
340.2033706453
 51
355.8193371336
  0
ARC
  5
58B
100
AcDbEntity
  8
0
100
AcDbCircle
 62
7
  6
CONTINUOUS
 10
5.0031278708
 20
-14.1848716759
 40
7.4206245986
100
AcDbArc
 50
356.9316842948
 51
357.421017169
  0
ARC
  5
58C
100
AcDbEntity
  8
0
100
AcDbCircle
 62
7
  6
CONTINUOUS
 10
5.0031277943
 20
-13.8151260251
 40
7.420624552
100
AcDbArc
 50
2.5789650739
 51
3.068297948
  0
ARC
  5
58D
100
AcDbEntity
  8
DRAFT
100
AcDbCircle
 62
7
  6
CONTINUOUS
 10
15.000034199
 20
-0.0011751227
 40
7.4183566231
100
AcDbArc
 50
29.8821888217
 51
175.5998933173
  0
ARC
  5
58E
100
AcDbEntity
  8
RACCORDO
100
AcDbCircle
 62
7
  6
CONTINUOUS
 10
4.0
 20
-29.7321374946
 40
3.0
100
AcDbArc
 50
25.0529287548
 51
97.6622556608
  0
ARC
  5
58F
100
AcDbEntity
  8
RACCORDO
100
AcDbCircle
 62
253
  6
CONTINUOUS
 10
24.0277650557
 20
-7.1773126081
 40
2.999684637
100
AcDbArc
 50
150.0007244051
 51
180.0007769925
  0
ARC
  5
590
100
AcDbEntity
  8
RACCORDO
100
AcDbCircle
 62
7
  6
CONTINUOUS
 10
23.9318838896
 20
-7.1509509799
 40
2.9990659201
100
AcDbArc
 50
150.0103637391
 51
180.0152497972
  0
ARC
  5
591
100
AcDbEntity
  8
SMUSSO
100
AcDbCircle
 62
7
  6
CONTINUOUS
 10
0.0001541021
 20
-0.0001234005
 40
2.6798369001
100
AcDbArc
 50
11.863491836
 51
78.1448087514
  0
ARC
  5
592
100
AcDbEntity
  8
RACCORDO
100
AcDbCircle
 62
253
  6
CONTINUOUS
 10
24.0276112396
 20
-7.1772713904
 40
2.4996069717
100
AcDbArc
 50
149.9999246619
 51
180.0000753381
  0
CIRCLE
  5
593
100
AcDbEntity
  8
DRAFT
100
AcDbCircle
 62
7
  6
CONTINUOUS
 10
22.7
 20
-18.5
 40
1.0
  0
ARC
  5
594
100
AcDbEntity
  8
RACCORDO
100
AcDbCircle
 62
7
  6
CONTINUOUS
 10
18.0
 20
-22.0
 40
1.0
100
AcDbArc
 50
138.1626168654
 51
180.0
  0
ARC
  5
595
100
AcDbEntity
  8
DRAFT
100
AcDbCircle
 62
7
  6
CONTINUOUS
 10
18.0
 20
-22.0
 40
1.0
100
AcDbArc
 50
180.0
 51
360.0
  0
ARC
  5
596
100
AcDbEntity
  8
RACCORDO
100
AcDbCircle
 62
7
  6
CONTINUOUS
 10
18.0
 20
-22.0
 40
1.0
100
AcDbArc
 50
0.0
 51
41.8373831346
  0
CIRCLE
  5
597
100
AcDbEntity
  8
RACCORDO
100
AcDbCircle
 62
253
  6
CONTINUOUS
 10
18.0
 20
-22.0
 40
0.9789625322
  0
CIRCLE
  5
598
100
AcDbEntity
  8
RACCORDO
100
AcDbCircle
 62
253
  6
CONTINUOUS
 10
22.7
 20
-18.5
 40
0.9789625322
  0
CIRCLE
  5
599
100
AcDbEntity
  8
RACCORDO
100
AcDbCircle
 62
253
  6
CONTINUOUS
 10
22.7
 20
-18.5
 40
0.6790082237
  0
CIRCLE
  5
59A
100
AcDbEntity
  8
RACCORDO
100
AcDbCircle
 62
253
  6
CONTINUOUS
 10
18.0
 20
-22.0
 40
0.6790082237
  0
ARC
  5
59B
100
AcDbEntity
  8
RACCORDO
100
AcDbCircle
 62
7
  6
CONTINUOUS
 10
7.1706516968
 20
-28.2500585434
 40
0.4999434378
100
AcDbArc
 50
205.0542131077
 51
269.998715647
  0
ARC
  5
59C
100
AcDbEntity
  8
RACCORDO
100
AcDbCircle
 62
253
  6
CONTINUOUS
 10
11.9780387715
 20
-28.0280390593
 40
0.2500674821
100
AcDbArc
 50
270.0239010098
 51
359.9761649724
  0
ARC
  5
59D
100
AcDbEntity
  8
RACCORDO
100
AcDbCircle
 62
253
  6
CONTINUOUS
 10
10.5219609802
 20
-28.0280390198
 40
0.2500674113
100
AcDbArc
 50
180.0238441187
 51
269.9761558813
  0
ARC
  5
59E
100
AcDbEntity
  8
DRAFT
100
AcDbCircle
 62
7
  6
CONTINUOUS
 10
0.0
 20
0.0
 40
27.0
100
AcDbArc
 50
262.3377443392
 51
277.6622556608
  0
ARC
  5
59F
100
AcDbEntity
  8
DRAFT
100
AcDbCircle
 62
7
  6
CONTINUOUS
 10
0.0
 20
0.0
 40
27.0
100
AcDbArc
 50
82.3377443392
 51
97.6622556608
  0
ARC
  5
5A0
100
AcDbEntity
  8
DRAFT
100
AcDbCircle
 62
7
  6
CONTINUOUS
 10
6.7415468082
 20
0.2249641779
 40
15.2045649549
100
AcDbArc
 50
345.060319421
 51
346.3069316189
  0
ARC
  5
5A1
100
AcDbEntity
  8
SMUSSO
100
AcDbCircle
 62
7
  6
CONTINUOUS
 10
3.9243155128
 20
5.8656793241
 40
8.4327980044
100
AcDbArc
 50
219.0695142733
 51
219.3322671355
  0
ARC
  5
5A2
100
AcDbEntity
  8
SMUSSO
100
AcDbCircle
 62
7
  6
CONTINUOUS
 10
5.8654696001
 20
3.9242338532
 40
8.4325120687
100
AcDbArc
 50
230.6689836495
 51
230.9298433501
  0
ARC
  5
5A3
100
AcDbEntity
  8
SMUSSO
100
AcDbCircle
 62
7
  6
CONTINUOUS
 10
0.0001650782
 20
0.000133142
 40
2.6798340013
100
AcDbArc
 50
281.8549187173
 51
348.136256076
  0
ARC
  5
5A4
100
AcDbEntity
  8
DRAFT
100
AcDbCircle
 62
7
  6
CONTINUOUS
 10
0.0
 20
0.0
 40
2.65
100
AcDbArc
 50
101.3372377744
 51
168.6652737371
  0
ARC
  5
5A5
100
AcDbEntity
  8
DRAFT
100
AcDbCircle
 62
7
  6
CONTINUOUS
 10
0.0
 20
0.0
 40
2.65
100
AcDbArc
 50
11.3347262629
 51
78.6627622256
  0
ARC
  5
5A6
100
AcDbEntity
  8
DRAFT
100
AcDbCircle
 62
7
  6
CONTINUOUS
 10
0.0
 20
0.0
 40
2.65
100
AcDbArc
 50
281.3372377744
 51
348.6652737371
  0
ARC
  5
5A7
100
AcDbEntity
  8
DRAFT
100
AcDbCircle
 62
7
  6
CONTINUOUS
 10
0.0
 20
0.0
 40
2.65
100
AcDbArc
 50
191.3347262629
 51
258.6627622256
  0
CIRCLE
  5
5A8
100
AcDbEntity
  8
DRAFT
100
AcDbCircle
 62
7
  6
CONTINUOUS
 10
-0.0
 20
0.0
 40
1.6
  0
ARC
  5
5A9
100
AcDbEntity
  8
DRAFT
100
AcDbCircle
 62
7
  6
CONTINUOUS
 10
0.0000678638
 20
15.9973750273
 40
7.914305398
100
AcDbArc
 50
274.1073163181
 51
304.8183965488
  0
ARC
  5
5AA
100
AcDbEntity
  8
DRAFT
100
AcDbCircle
 62
7
  6
CONTINUOUS
 10
0.0035614264
 20
15.9933431081
 40
7.9089669325
100
AcDbArc
 50
304.8142965079
 51
0.0482597374
  0
ARC
  5
5AB
100
AcDbEntity
  8
DRAFT
100
AcDbCircle
 62
7
  6
CONTINUOUS
 10
0.0
 20
16.0
 40
7.8709460779
100
AcDbArc
 50
266.2050500246
 51
273.7949499754
  0
ARC
  5
5AC
100
AcDbEntity
  8
DRAFT
100
AcDbCircle
 62
7
  6
CONTINUOUS
 10
0.0
 20
16.0
 40
7.85
100
AcDbArc
 50
180.0
 51
360.0
  0
ARC
  5
5AD
100
AcDbEntity
  8
RACCORDO
100
AcDbCircle
 62
253
  6
CONTINUOUS
 10
1.8110834951
 20
16.367013501
 40
6.8729944997
100
AcDbArc
 50
231.1525019823
 51
232.0444911356
  0
ARC
  5
5AE
100
AcDbEntity
  8
RACCORDO
100
AcDbCircle
 62
253
  6
CONTINUOUS
 10
0.0
 20
16.0
 40
6.8221480601
100
AcDbArc
 50
51.4179421306
 51
128.5820945067
  0
ARC
  5
5AF
100
AcDbEntity
  8
RACCORDO
100
AcDbCircle
 62
253
  6
CONTINUOUS
 10
2.1084678553
 20
16.3363580691
 40
6.5587417717
100
AcDbArc
 50
230.3256389364
 51
231.212571199
  0
ARC
  5
5B0
100
AcDbEntity
  8
DRAFT
100
AcDbCircle
 62
7
  6
CONTINUOUS
 10
0.0
 20
16.0
 40
6.55
100
AcDbArc
 50
180.0
 51
200.9068174685
  0
ARC
  5
5B1
100
AcDbEntity
  8
DRAFT
100
AcDbCircle
 62
7
  6
CONTINUOUS
 10
0.0
 20
16.0
 40
6.55
100
AcDbArc
 50
339.0931825315
 51
360.0
  0
ARC
  5
5B2
100
AcDbEntity
  8
RACCORDO
100
AcDbCircle
 62
253
  6
CONTINUOUS
 10
0.0
 20
16.0
 40
6.5480538547
100
AcDbArc
 50
180.0
 51
200.8553667361
  0
ARC
  5
5B3
100
AcDbEntity
  8
RACCORDO
100
AcDbCircle
 62
253
  6
CONTINUOUS
 10
0.0
 20
16.0
 40
6.5480538547
100
AcDbArc
 50
339.1446332639
 51
360.0
  0
ARC
  5
5B4
100
AcDbEntity
  8
RACCORDO
100
AcDbCircle
 62
253
  6
CONTINUOUS
 10
0.0
 20
16.0
 40
6.4016833977
100
AcDbArc
 50
180.0
 51
200.6682927427
  0
ARC
  5
5B5
100
AcDbEntity
  8
RACCORDO
100
AcDbCircle
 62
253
  6
CONTINUOUS
 10
0.0
 20
16.0
 40
6.4016833977
100
AcDbArc
 50
339.3317072573
 51
360.0
  0
ARC
  5
5B6
100
AcDbEntity
  8
DRAFT
100
AcDbCircle
 62
7
  6
CONTINUOUS
 10
0.0
 20
16.0
 40
6.35
100
AcDbArc
 50
291.6998006075
 51
339.0821930722
  0
ARC
  5
5B7
100
AcDbEntity
  8
DRAFT
100
AcDbCircle
 62
7
  6
CONTINUOUS
 10
0.0
 20
16.0
 40
6.35
100
AcDbArc
 50
200.9178069267
 51
248.3001993925
  0
ARC
  5
5B8
100
AcDbEntity
  8
RACCORDO
100
AcDbCircle
 62
7
  6
CONTINUOUS
 10
0.0
 20
16.0
 40
6.3360359481
100
AcDbArc
 50
129.6224635689
 51
151.5959704931
  0
ARC
  5
5B9
100
AcDbEntity
  8
RACCORDO
100
AcDbCircle
 62
7
  6
CONTINUOUS
 10
0.0
 20
16.0
 40
6.3360359481
100
AcDbArc
 50
28.4040295069
 51
50.3775505117
  0
ARC
  5
5BA
100
AcDbEntity
  8
RACCORDO
100
AcDbCircle
 62
7
  6
CONTINUOUS
 10
0.0
 20
16.0
 40
6.3221480601
100
AcDbArc
 50
51.4179467138
 51
128.5820532862
  0
ARC
  5
5BB
100
AcDbEntity
  8
DRAFT
100
AcDbCircle
 62
7
  6
CONTINUOUS
 10
0.0
 20
16.0
 40
6.1377814546
100
AcDbArc
 50
285.9348638917
 51
293.1819049501
  0
ARC
  5
5BC
100
AcDbEntity
  8
DRAFT
100
AcDbCircle
 62
7
  6
CONTINUOUS
 10
0.0
 20
16.0
 40
6.1377814546
100
AcDbArc
 50
246.8180950499
 51
254.0651263923
  0
ARC
  5
5BD
100
AcDbEntity
  8
DRAFT
100
AcDbCircle
 62
7
  6
CONTINUOUS
 10
0.0
 20
16.0
 40
6.1098533507
100
AcDbArc
 50
201.9615156776
 51
245.8469721158
  0
ARC
  5
5BE
100
AcDbEntity
  8
DRAFT
100
AcDbCircle
 62
7
  6
CONTINUOUS
 10
0.0
 20
16.0
 40
6.1098533507
100
AcDbArc
 50
294.1530278842
 51
338.0384843224
  0
ARC
  5
5BF
100
AcDbEntity
  8
RACCORDO
100
AcDbCircle
 62
253
  6
CONTINUOUS
 10
0.0
 20
16.0
 40
5.9009748491
100
AcDbArc
 50
180.0
 51
200.3036598069
  0
ARC
  5
5C0
100
AcDbEntity
  8
RACCORDO
100
AcDbCircle
 62
253
  6
CONTINUOUS
 10
0.0
 20
16.0
 40
5.9009748491
100
AcDbArc
 50
339.6963401931
 51
360.0
  0
ARC
  5
5C1
100
AcDbEntity
  8
RACCORDO
100
AcDbCircle
 62
253
  6
CONTINUOUS
 10
0.0
 20
16.0
 40
5.5474214585
100
AcDbArc
 50
180.0
 51
200.1186585675
  0
ARC
  5
5C2
100
AcDbEntity
  8
RACCORDO
100
AcDbCircle
 62
253
  6
CONTINUOUS
 10
0.0
 20
16.0
 40
5.5474214585
100
AcDbArc
 50
339.8813414325
 51
360.0
  0
ARC
  5
5C3
100
AcDbEntity
  8
RACCORDO
100
AcDbCircle
 62
253
  6
CONTINUOUS
 10
0.0
 20
16.0
 40
5.4550913568
100
AcDbArc
 50
180.0
 51
200.08745627
  0
ARC
  5
5C4
100
AcDbEntity
  8
RACCORDO
100
AcDbCircle
 62
253
  6
CONTINUOUS
 10
0.0
 20
16.0
 40
5.4550913568
100
AcDbArc
 50
339.91254373
 51
360.0
  0
ARC
  5
5C5
100
AcDbEntity
  8
RACCORDO
100
AcDbCircle
 62
253
  6
CONTINUOUS
 10
0.0
 20
16.0
 40
5.205129433
100
AcDbArc
 50
180.0
 51
200.1392061887
  0
ARC
  5
5C6
100
AcDbEntity
  8
RACCORDO
100
AcDbCircle
 62
253
  6
CONTINUOUS
 10
0.0
 20
16.0
 40
5.205129433
100
AcDbArc
 50
339.8607938113
 51
360.0
  0
ARC
  5
5C7
100
AcDbEntity
  8
RACCORDO
100
AcDbCircle
 62
7
  6
CONTINUOUS
 10
0.0
 20
16.0
 40
5.1779281039
100
AcDbArc
 50
247.2766160029
 51
292.7233839962
  0
ARC
  5
5C8
100
AcDbEntity
  8
RACCORDO
100
AcDbCircle
 62
7
  6
CONTINUOUS
 10
0.0
 20
16.0
 40
5.15
100
AcDbArc
 50
201.9615156776
 51
246.193573803
  0
ARC
  5
5C9
100
AcDbEntity
  8
RACCORDO
100
AcDbCircle
 62
7
  6
CONTINUOUS
 10
0.0
 20
16.0
 40
5.15
100
AcDbArc
 50
293.8064261971
 51
338.0384843224
  0
ARC
  5
5CA
100
AcDbEntity
  8
DRAFT
100
AcDbCircle
 62
7
  6
CONTINUOUS
 10
0.0
 20
16.0023911616
 40
5.1229848322
100
AcDbArc
 50
180.0267390639
 51
359.9732610145
  0
ARC
  5
5CB
100
AcDbEntity
  8
RACCORDO
100
AcDbCircle
 62
7
  6
CONTINUOUS
 10
4.3311250626
 20
21.2951332324
 40
0.5047643564
100
AcDbArc
 50
240.2168493876
 51
269.990520064
  0
ARC
  5
5CC
100
AcDbEntity
  8
RACCORDO
100
AcDbCircle
 62
7
  6
CONTINUOUS
 10
4.2549959195
 20
21.3336764295
 40
0.5008347614
100
AcDbArc
 50
231.4257626739
 51
240.7684549753
  0
ARC
  5
5CD
100
AcDbEntity
  8
RACCORDO
100
AcDbCircle
 62
253
  6
CONTINUOUS
 10
4.2519666738
 20
21.3284315359
 40
0.4947716576
100
AcDbArc
 50
240.7781554118
 51
270.296695322
  0
ARC
  5
5CE
100
AcDbEntity
  8
RACCORDO
100
AcDbCircle
 62
7
  6
CONTINUOUS
 10
4.0
 20
29.7321374946
 40
3.0
100
AcDbArc
 50
262.3377443392
 51
334.9470712452
  0
ARC
  5
5CF
100
AcDbEntity
  8
RACCORDO
100
AcDbCircle
 62
7
  6
CONTINUOUS
 10
7.1706517198
 20
28.2500585072
 40
0.4999434378
100
AcDbArc
 50
90.0012869882
 51
154.9457842571
  0
ARC
  5
5D0
100
AcDbEntity
  8
RACCORDO
100
AcDbCircle
 62
253
  6
CONTINUOUS
 10
10.5219612143
 20
28.0280389662
 40
0.2500675178
100
AcDbArc
 50
90.0238977439
 51
179.9761436358
  0
ARC
  5
5D1
100
AcDbEntity
  8
RACCORDO
100
AcDbCircle
 62
253
  6
CONTINUOUS
 10
11.9780390198
 20
28.0280390198
 40
0.2500674113
100
AcDbArc
 50
0.0238441164
 51
89.9761558836
  0
ARC
  5
5D2
100
AcDbEntity
  8
DRAFT
100
AcDbCircle
 62
7
  6
CONTINUOUS
 10
15.0000342953
 20
0.0011751579
 40
7.4183567186
100
AcDbArc
 50
184.400106897
 51
330.1178105718
  0
ARC
  5
5D3
100
AcDbEntity
  8
DRAFT
100
AcDbCircle
 62
7
  6
CONTINUOUS
 10
15.0
 20
0.0
 40
7.3709460779
100
AcDbArc
 50
175.948094861
 51
184.051905139
  0
ARC
  5
5D4
100
AcDbEntity
  8
DRAFT
100
AcDbCircle
 62
7
  6
CONTINUOUS
 10
15.0
 20
0.0
 40
7.3360359481
100
AcDbArc
 50
27.3844082666
 51
332.6155917334
  0
CIRCLE
  5
5D5
100
AcDbEntity
  8
DRAFT
100
AcDbCircle
 62
7
  6
CONTINUOUS
 10
15.0
 20
0.0
 40
6.4610927272
  0
CIRCLE
  5
5D6
100
AcDbEntity
  8
DRAFT
100
AcDbCircle
 62
7
  6
CONTINUOUS
 10
15.0
 20
0.0
 40
6.4
  0
CIRCLE
  5
5D7
100
AcDbEntity
  8
DRAFT
100
AcDbCircle
 62
7
  6
CONTINUOUS
 10
15.0
 20
0.0
 40
6.35
  0
ARC
  5
5D8
100
AcDbEntity
  8
RACCORDO
100
AcDbCircle
 62
253
  6
CONTINUOUS
 10
24.0277650569
 20
7.1773126029
 40
2.9996846368
100
AcDbArc
 50
180.0007244046
 51
210.0007592135
  0
ARC
  5
5D9
100
AcDbEntity
  8
RACCORDO
100
AcDbCircle
 62
7
  6
CONTINUOUS
 10
23.9318838896
 20
7.1509509799
 40
2.9990659201
100
AcDbArc
 50
179.9847502028
 51
209.9896362609
  0
ARC
  5
5DA
100
AcDbEntity
  8
RACCORDO
100
AcDbCircle
 62
253
  6
CONTINUOUS
 10
24.0276112396
 20
7.1772713904
 40
2.4996069717
100
AcDbArc
 50
179.9999246619
 51
210.0000753381
  0
CIRCLE
  5
5DB
100
AcDbEntity
  8
DRAFT
100
AcDbCircle
 62
7
  6
CONTINUOUS
 10
22.7
 20
18.5
 40
1.0
  0
ARC
  5
5DC
100
AcDbEntity
  8
RACCORDO
100
AcDbCircle
 62
7
  6
CONTINUOUS
 10
18.0
 20
22.0
 40
1.0
100
AcDbArc
 50
318.1626168654
 51
360.0
  0
ARC
  5
5DD
100
AcDbEntity
  8
DRAFT
100
AcDbCircle
 62
7
  6
CONTINUOUS
 10
18.0
 20
22.0
 40
1.0
100
AcDbArc
 50
0.0
 51
180.0
  0
ARC
  5
5DE
100
AcDbEntity
  8
RACCORDO
100
AcDbCircle
 62
7
  6
CONTINUOUS
 10
18.0
 20
22.0
 40
1.0
100
AcDbArc
 50
180.0
 51
221.8373831346
  0
CIRCLE
  5
5DF
100
AcDbEntity
  8
RACCORDO
100
AcDbCircle
 62
253
  6
CONTINUOUS
 10
18.0
 20
22.0
 40
0.9789625322
  0
CIRCLE
  5
5E0
100
AcDbEntity
  8
RACCORDO
100
AcDbCircle
 62
253
  6
CONTINUOUS
 10
22.7
 20
18.5
 40
0.9789625322
  0
CIRCLE
  5
5E1
100
AcDbEntity
  8
RACCORDO
100
AcDbCircle
 62
253
  6
CONTINUOUS
 10
18.0
 20
22.0
 40
0.6790082237
  0
CIRCLE
  5
5E2
100
AcDbEntity
  8
RACCORDO
100
AcDbCircle
 62
253
  6
CONTINUOUS
 10
22.7
 20
18.5
 40
0.6790082237
  0
SPLINE
  5
5E3
100
AcDbEntity
  8
0
100
AcDbSpline
 62
7
  6
CONTINUOUS
 70
0
 71
3
 72
9
 73
5
 74
3
 42
0.0000001
 43
0.0000001
 44
0.0000000001
 12
0.0671665773
 22
0.1623362863
 32
0.0
 13
0.0268785514
 23
0.1736144074
 33
0.0
 40
0.0
 40
0.0
 40
0.0
 40
0.0
 40
0.257265485
 40
1.0
 40
1.0
 40
1.0
 40
1.0
 10
12.3683017671
 20
-13.65
 30
0.0
 10
12.3740616478
 20
-13.6360788255
 30
0.0
 10
12.3949844905
 20
-13.5813780983
 30
0.0
 10
12.4095818642
 20
-13.5242090019
 30
0.0
 10
12.4162364068
 20
-13.4812258644
 30
0.0
 11
12.3683017671
 21
-13.65
 31
0.0
 11
12.3844084439
 21
-13.607770237
 31
0.0
 11
12.4162364068
 21
-13.4812258644
 31
0.0
  0
SPLINE
  5
5E4
100
AcDbEntity
  8
0
100
AcDbSpline
 62
7
  6
CONTINUOUS
 70
0
 71
3
 72
9
 73
5
 74
3
 42
0.0000001
 43
0.0000001
 44
0.0000000001
 12
-0.026880305
 22
0.1736257344
 32
0.0
 13
-0.0671709594
 23
0.1623468775
 33
0.0
 40
0.0
 40
0.0
 40
0.0
 40
0.0
 40
0.2439671914
 40
1.0
 40
1.0
 40
1.0
 40
1.0
 10
12.4162364105
 20
-14.5187741357
 30
0.0
 10
12.4140504397
 20
-14.5046544748
 30
0.0
 10
12.4033988968
 20
-14.4470425448
 30
0.0
 10
12.3852295835
 20
-14.3909131886
 30
0.0
 10
12.3683017671
 20
-14.35
 30
0.0
 11
12.4162364105
 21
-14.5187741357
 31
0.0
 11
12.4084057281
 21
-14.4766318761
 31
0.0
 11
12.3683017671
 21
-14.35
 31
0.0
  0
LINE
  5
5E5
100
AcDbEntity
  8
DRAFT
100
AcDbLine
 62
7
  6
CONTINUOUS
 10
-6.1187612338
 20
13.6626380332
 11
-5.9297688874
 21
13.7335295572
  0
LINE
  5
5E6
100
AcDbEntity
  8
DRAFT
100
AcDbLine
 62
7
  6
CONTINUOUS
 10
-5.9297688874
 20
13.7335295572
 11
-5.7411701128
 21
13.8042734579
  0
LINE
  5
5E7
100
AcDbEntity
  8
DRAFT
100
AcDbLine
 62
7
  6
CONTINUOUS
 10
6.1187612338
 20
13.6626380332
 11
5.9297688893
 21
13.7335295565
  0
LINE
  5
5E8
100
AcDbEntity
  8
DRAFT
100
AcDbLine
 62
7
  6
CONTINUOUS
 10
5.9297688893
 20
13.7335295565
 11
5.7411701128
 21
13.8042734579
  0
SPLINE
  5
5E9
100
AcDbEntity
  8
RACCORDO
100
AcDbSpline
 62
253
  6
CONTINUOUS
 70
0
 71
3
 72
11
 73
7
 74
5
 42
0.0000001
 43
0.0000001
 44
0.0000000001
 12
-0.4642061309
 22
-0.0013856515
 32
0.0
 13
-0.0014282975
 23
-0.4642060016
 33
0.0
 40
0.0
 40
0.0
 40
0.0
 40
0.0
 40
0.2516505515
 40
0.5024910824
 40
0.7518802998
 40
1.0
 40
1.0
 40
1.0
 40
1.0
 10
-0.0371160678
 20
22.1615892674
 30
0.0
 10
-0.0760553108
 20
22.1614730341
 30
0.0
 10
-0.1545866487
 20
22.1459801481
 30
0.0
 10
-0.2541055914
 20
22.0803595621
 30
0.0
 10
-0.3210622391
 20
21.9823228888
 30
0.0
 10
-0.3369522468
 20
21.9045398262
 30
0.0
 10
-0.3370703764
 20
21.8661469415
 30
0.0
 11
-0.0371160678
 21
22.1615892674
 31
0.0
 11
-0.1516981512
 21
22.1388417502
 31
0.0
 11
-0.2489031006
 21
22.0747325387
 31
0.0
 11
-0.3139834279
 21
21.9789886037
 31
0.0
 11
-0.3370703764
 21
21.8661469415
 31
0.0
  0
LINE
  5
5EA
100
AcDbEntity
  8
RACCORDO
100
AcDbLine
 62
7
  6
CONTINUOUS
 10
-5.5343282331
 20
13.9523879326
 11
-5.989667848
 21
13.7404802734
  0
LINE
  5
5EB
100
AcDbEntity
  8
RACCORDO
100
AcDbLine
 62
7
  6
CONTINUOUS
 10
5.5343282331
 20
13.9523879326
 11
5.989667848
 21
13.7404802734
  0
SPLINE
  5
5EC
100
AcDbEntity
  8
RACCORDO
100
AcDbSpline
 62
253
  6
CONTINUOUS
 70
0
 71
3
 72
11
 73
7
 74
5
 42
0.0000001
 43
0.0000001
 44
0.0000000001
 12
-0.0014282971
 22
0.4642058545
 32
0.0
 13
-0.4642059838
 23
0.0013856511
 33
0.0
 40
0.0
 40
0.0
 40
0.0
 40
0.0
 40
0.2481496331
 40
0.4975322067
 40
0.74835862
 40
1.0
 40
1.0
 40
1.0
 40
1.0
 10
0.3370703764
 20
21.8661469415
 30
0.0
 10
0.3369522326
 20
21.9045444457
 30
0.0
 10
0.3210584837
 20
21.9823311224
 30
0.0
 10
0.2540979456
 20
22.0803663127
 30
0.0
 10
0.1545815428
 20
22.1459818052
 30
0.0
 10
0.0760538793
 20
22.1614730384
 30
0.0
 10
0.0371160678
 20
22.1615892674
 30
0.0
 11
0.3370703764
 21
21.8661469415
 31
0.0
 11
0.3139773651
 21
21.9790015089
 31
0.0
 11
0.2488951297
 21
22.0747403733
 31
0.0
 11
0.1516941454
 21
22.1388436266
 31
0.0
 11
0.0371160678
 21
22.1615892674
 31
0.0
  0
SPLINE
  5
5ED
100
AcDbEntity
  8
RACCORDO
100
AcDbSpline
 62
7
  6
CONTINUOUS
 70
0
 71
3
 72
11
 73
7
 74
5
 42
0.0000001
 43
0.0000001
 44
0.0000000001
 12
-0.5388482213
 22
0.2256635382
 32
0.0
 13
-0.0000000011
 23
-0.5841929802
 33
0.0
 40
0.0
 40
0.0
 40
0.0
 40
0.0
 40
0.2500480542
 40
0.5000091284
 40
0.7499655298
 40
1.0
 40
1.0
 40
1.0
 40
1.0
 10
-2.0001431348
 20
11.2239800158
 30
0.0
 10
-2.0450557845
 20
11.2427889253
 30
0.0
 10
-2.1458879472
 20
11.2584105448
 30
0.0
 10
-2.2889762097
 20
11.2075375055
 30
0.0
 10
-2.3915005374
 20
11.0954754998
 30
0.0
 10
-2.4161475531
 20
10.9964252371
 30
0.0
 10
-2.4161475531
 20
10.9477357763
 30
0.0
 11
-2.0001431348
 21
11.2239800158
 31
0.0
 11
-2.1445465496
 21
11.2460241638
 31
0.0
 11
-2.2822174337
 21
11.1973397131
 31
0.0
 11
-2.3805668597
 21
11.0894043563
 31
0.0
 11
-2.4161475531
 21
10.9477357763
 31
0.0
  0
SPLINE
  5
5EE
100
AcDbEntity
  8
RACCORDO
100
AcDbSpline
 62
7
  6
CONTINUOUS
 70
0
 71
3
 72
11
 73
7
 74
5
 42
0.0000001
 43
0.0000001
 44
0.0000000001
 12
-0.0000000004
 22
0.5841934266
 32
0.0
 13
-0.538848633
 23
-0.2256637109
 33
0.0
 40
0.0
 40
0.0
 40
0.0
 40
0.0
 40
0.2500908374
 40
0.5000901229
 40
0.7500027916
 40
1.0
 40
1.0
 40
1.0
 40
1.0
 10
2.4161475531
 20
10.9477357763
 30
0.0
 10
2.4161475531
 20
10.9964362507
 30
0.0
 10
2.3914899264
 20
11.0955073225
 30
0.0
 10
2.2889383562
 20
11.2075612158
 30
0.0
 10
2.1458561857
 20
11.258410228
 30
0.0
 10
2.045046686
 20
11.242785115
 30
0.0
 10
2.0001431347
 20
11.2239800158
 30
0.0
 11
2.4161475531
 21
10.9477357763
 31
0.0
 11
2.380550871
 21
11.0894344076
 31
0.0
 11
2.2821673087
 21
11.1973727012
 31
0.0
 11
2.1445160179
 21
11.2460280702
 31
0.0
 11
2.0001431347
 21
11.2239800158
 31
0.0
  0
SPLINE
  5
5EF
100
AcDbEntity
  8
RACCORDO
100
AcDbSpline
 62
253
  6
CONTINUOUS
 70
0
 71
3
 72
11
 73
7
 74
5
 42
0.0000001
 43
0.0000001
 44
0.0000000001
 12
-0.0021489743
 22
-0.4596101504
 32
0.0
 13
-0.4596107984
 23
-0.0020056097
 33
0.0
 40
0.0
 40
0.0
 40
0.0
 40
0.0
 40
0.2458650315
 40
0.4943894878
 40
0.7461943788
 40
1.0
 40
1.0
 40
1.0
 40
1.0
 10
0.3461265296
 20
19.2090557404
 30
0.0
 10
0.3459504104
 20
19.1713883857
 30
0.0
 10
0.3298466998
 20
19.0948697607
 30
0.0
 10
0.2626561387
 20
18.9988003466
 30
0.0
 10
0.163246772
 20
18.9346386448
 30
0.0
 10
0.0850561558
 20
18.9194476709
 30
0.0
 10
0.046172221
 20
18.9192779926
 30
0.0
 11
0.3461265296
 21
19.2090557404
 31
0.0
 11
0.322906227
 21
19.0984638637
 31
0.0
 11
0.2577945347
 21
19.0046131428
 31
0.0
 11
0.1606479186
 21
18.9417104956
 31
0.0
 11
0.046172221
 21
18.9192779926
 31
0.0
  0
SPLINE
  5
5F0
100
AcDbEntity
  8
RACCORDO
100
AcDbSpline
 62
7
  6
CONTINUOUS
 70
0
 71
3
 72
11
 73
7
 74
5
 42
0.0000001
 43
0.0000001
 44
0.0000000001
 12
0.0003002734
 22
-0.476747577
 32
0.0
 13
-0.4767476716
 23
0.0
 33
0.0
 40
0.0
 40
0.0
 40
0.0
 40
0.0
 40
0.2500209872
 40
0.5000503525
 40
0.7500232901
 40
1.0
 40
1.0
 40
1.0
 40
1.0
 10
0.425756622
 20
17.9866702007
 30
0.0
 10
0.4257816469
 20
17.9469379008
 30
0.0
 10
0.4111123101
 20
17.8666794805
 30
0.0
 10
0.3467126743
 20
17.7630174511
 30
0.0
 10
0.2474047829
 20
17.6915379082
 30
0.0
 10
0.1669864152
 20
17.6744982433
 30
0.0
 10
0.1272611437
 20
17.6744982433
 30
0.0
 11
0.425756622
 21
17.9866702007
 31
0.0
 11
0.4040461067
 21
17.8694671287
 31
0.0
 11
0.3408876499
 21
17.7683737652
 31
0.0
 11
0.2438508557
 21
17.6991906268
 31
0.0
 11
0.1272611437
 21
17.6744982433
 31
0.0
  0
SPLINE
  5
5F1
100
AcDbEntity
  8
RACCORDO
100
AcDbSpline
 62
7
  6
CONTINUOUS
 70
0
 71
3
 72
11
 73
7
 74
5
 42
0.0000001
 43
0.0000001
 44
0.0000000001
 12
0.5395198882
 22
0.2380289099
 32
0.0
 13
-0.0
 23
-0.5896943884
 33
0.0
 40
0.0
 40
0.0
 40
0.0
 40
0.0
 40
0.2500481804
 40
0.5000061381
 40
0.7499676092
 40
1.0
 40
1.0
 40
1.0
 40
1.0
 10
2.0787867578
 20
11.2881908341
 30
0.0
 10
2.1237554132
 20
11.3080303994
 30
0.0
 10
2.2253502635
 20
11.325504757
 30
0.0
 10
2.3704941749
 20
11.2758259684
 30
0.0
 10
2.4748690792
 20
11.163363491
 30
0.0
 10
2.5
 20
11.0633475552
 30
0.0
 10
2.5
 20
11.0141999893
 30
0.0
 11
2.0787867578
 21
11.2881908341
 31
0.0
 11
2.2241614412
 21
11.3128544982
 31
0.0
 11
2.3636999237
 21
11.2653632398
 31
0.0
 11
2.4637483704
 21
11.157116638
 31
0.0
 11
2.5
 21
11.0141999893
 31
0.0
  0
SPLINE
  5
5F2
100
AcDbEntity
  8
RACCORDO
100
AcDbSpline
 62
7
  6
CONTINUOUS
 70
0
 71
3
 72
11
 73
7
 74
5
 42
0.0000001
 43
0.0000001
 44
0.0000000001
 12
0.0
 22
0.5896943884
 32
0.0
 13
0.5395198882
 23
-0.2380289099
 33
0.0
 40
0.0
 40
0.0
 40
0.0
 40
0.0
 40
0.2500323908
 40
0.4999938619
 40
0.7499518196
 40
1.0
 40
1.0
 40
1.0
 40
1.0
 10
-2.5
 20
11.0141999893
 30
0.0
 10
-2.5
 20
11.0633475552
 30
0.0
 10
-2.4748690792
 20
11.1633634911
 30
0.0
 10
-2.3704941749
 20
11.2758259684
 30
0.0
 10
-2.2253502635
 20
11.325504757
 30
0.0
 10
-2.1237554132
 20
11.3080303994
 30
0.0
 10
-2.0787867578
 20
11.2881908341
 30
0.0
 11
-2.5
 21
11.0141999893
 31
0.0
 11
-2.4637483704
 21
11.157116638
 31
0.0
 11
-2.3636999237
 21
11.2653632398
 31
0.0
 11
-2.2241614412
 21
11.3128544982
 31
0.0
 11
-2.0787867578
 21
11.2881908341
 31
0.0
  0
SPLINE
  5
5F3
100
AcDbEntity
  8
RACCORDO
100
AcDbSpline
 62
253
  6
CONTINUOUS
 70
0
 71
3
 72
11
 73
7
 74
5
 42
0.0000001
 43
0.0000001
 44
0.0000000001
 12
0.0021489755
 22
-0.4596101476
 32
0.0
 13
0.4596107954
 23
-0.0020056493
 33
0.0
 40
0.0
 40
0.0
 40
0.0
 40
0.0
 40
0.2458648339
 40
0.4943891851
 40
0.7461942066
 40
1.0
 40
1.0
 40
1.0
 40
1.0
 10
-0.3461265296
 20
19.2090557404
 30
0.0
 10
-0.3459504104
 20
19.1713884162
 30
0.0
 10
-0.3298467293
 20
19.0948698382
 30
0.0
 10
-0.2626562156
 20
18.9988004253
 30
0.0
 10
-0.1632468428
 20
18.9346386755
 30
0.0
 10
-0.0850561821
 20
18.9194476715
 30
0.0
 10
-0.0461722212
 20
18.9192779897
 30
0.0
 11
-0.3461265296
 21
19.2090557404
 31
0.0
 11
-0.3229062667
 21
19.0984639488
 31
0.0
 11
-0.2577946353
 21
19.0046132454
 31
0.0
 11
-0.1606479909
 21
18.9417105329
 31
0.0
 11
-0.0461722212
 21
18.9192779897
 31
0.0
  0
SPLINE
  5
5F4
100
AcDbEntity
  8
RACCORDO
100
AcDbSpline
 62
7
  6
CONTINUOUS
 70
0
 71
3
 72
11
 73
7
 74
5
 42
0.0000001
 43
0.0000001
 44
0.0000000001
 12
-0.4767476723
 22
0.0
 32
0.0
 13
0.0003002734
 23
0.4767475777
 33
0.0
 40
0.0
 40
0.0
 40
0.0
 40
0.0
 40
0.2499767941
 40
0.4999498717
 40
0.7499791485
 40
1.0
 40
1.0
 40
1.0
 40
1.0
 10
-0.1272611437
 20
17.6744982433
 30
0.0
 10
-0.1669864286
 20
17.6744982433
 30
0.0
 10
-0.2474048326
 20
17.6915379243
 30
0.0
 10
-0.3467127268
 20
17.7630175061
 30
0.0
 10
-0.4111123311
 20
17.8666795374
 30
0.0
 10
-0.4257816469
 20
17.9469379223
 30
0.0
 10
-0.425756622
 20
17.9866702007
 30
0.0
 11
-0.1272611437
 21
17.6744982433
 31
0.0
 11
-0.243850893
 21
17.699190645
 31
0.0
 11
-0.3408877252
 21
17.7683738454
 31
0.0
 11
-0.404046134
 21
17.8694671893
 31
0.0
 11
-0.425756622
 21
17.9866702007
 31
0.0
  0
SPLINE
  5
5F5
100
AcDbEntity
  8
RACCORDO
100
AcDbSpline
 62
253
  6
CONTINUOUS
 70
0
 71
3
 72
11
 73
7
 74
5
 42
0.0000001
 43
0.0000001
 44
0.0000000001
 12
0.000005105
 22
-0.676254653
 32
0.0
 13
0.0439086971
 23
-0.6748276684
 33
0.0
 40
0.0
 40
0.0
 40
0.0
 40
0.0
 40
0.3327679606
 40
0.6301547481
 40
0.8607282121
 40
1.0
 40
1.0
 40
1.0
 40
1.0
 10
0.3370703764
 20
19.8852038188
 30
0.0
 10
0.3370709426
 20
19.8101918583
 30
0.0
 10
0.3374807853
 20
19.6681454057
 30
0.0
 10
0.3390937643
 20
19.4741188994
 30
0.0
 10
0.3418451483
 20
19.3237531057
 30
0.0
 10
0.3440881153
 20
19.2403838924
 30
0.0
 10
0.3461265296
 20
19.2090557404
 30
0.0
 11
0.3370703764
 21
19.8852038188
 31
0.0
 11
0.3377188124
 21
19.6601688713
 31
0.0
 11
0.3395958036
 21
19.4590684319
 31
0.0
 11
0.3425006552
 21
19.3031691145
 31
0.0
 11
0.3461265296
 21
19.2090557404
 31
0.0
  0
SPLINE
  5
5F6
100
AcDbEntity
  8
RACCORDO
100
AcDbSpline
 62
253
  6
CONTINUOUS
 70
0
 71
3
 72
11
 73
7
 74
5
 42
0.0000001
 43
0.0000001
 44
0.0000000001
 12
0.0439086991
 22
0.6748276683
 32
0.0
 13
0.0000051048
 23
0.676254653
 33
0.0
 40
0.0
 40
0.0
 40
0.0
 40
0.0
 40
0.1392717878
 40
0.3698452518
 40
0.6672320394
 40
1.0
 40
1.0
 40
1.0
 40
1.0
 10
-0.3461265296
 20
19.2090557404
 30
0.0
 10
-0.3440881152
 20
19.2403838924
 30
0.0
 10
-0.3418451484
 20
19.3237531057
 30
0.0
 10
-0.3390937643
 20
19.4741188994
 30
0.0
 10
-0.3374807854
 20
19.6681454057
 30
0.0
 10
-0.3370709426
 20
19.8101918583
 30
0.0
 10
-0.3370703764
 20
19.8852038188
 30
0.0
 11
-0.3461265296
 21
19.2090557404
 31
0.0
 11
-0.3425006552
 21
19.3031691145
 31
0.0
 11
-0.3395958036
 21
19.4590684318
 31
0.0
 11
-0.3377188124
 21
19.6601688714
 31
0.0
 11
-0.3370703764
 21
19.8852038188
 31
0.0
  0
SPLINE
  5
5F7
100
AcDbEntity
  8
RACCORDO
100
AcDbSpline
 62
7
  6
CONTINUOUS
 70
0
 71
3
 72
9
 73
5
 74
3
 42
0.0000001
 43
0.0000001
 44
0.0000000001
 12
-0.3283697549
 22
-0.1324135002
 32
0.0
 13
-0.3210048332
 23
-0.1493851667
 33
0.0
 40
0.0
 40
0.0
 40
0.0
 40
0.0
 40
0.5410496412
 40
1.0
 40
1.0
 40
1.0
 40
1.0
 10
-5.2089304955
 20
14.0918784286
 30
0.0
 10
-5.2681519415
 20
14.0679976696
 30
0.0
 10
-5.37717403
 20
14.0227819952
 30
0.0
 10
-5.4852198053
 20
13.9752413913
 30
0.0
 10
-5.5343282331
 20
13.9523879326
 30
0.0
 11
-5.2089304955
 21
14.0918784286
 31
0.0
 11
-5.3858388645
 21
14.0183892332
 31
0.0
 11
-5.5343282331
 21
13.9523879326
 31
0.0
  0
SPLINE
  5
5F8
100
AcDbEntity
  8
RACCORDO
100
AcDbSpline
 62
7
  6
CONTINUOUS
 70
0
 71
3
 72
17
 73
13
 74
11
 42
0.0000001
 43
0.0000001
 44
0.0000000001
 12
-0.1568982072
 22
0.1955952285
 32
0.0
 13
-0.2325525022
 23
-0.0937756609
 33
0.0
 40
0.0
 40
0.0
 40
0.0
 40
0.0
 40
0.0080172066
 40
0.0243577431
 40
0.0495322894
 40
0.0835095712
 40
0.1768780834
 40
0.3009266048
 40
0.4512496699
 40
0.6223351169
 40
0.8079393774
 40
1.0
 40
1.0
 40
1.0
 40
1.0
 10
-4.8868819575
 20
14.2078624081
 30
0.0
 10
-4.8873012526
 20
14.2083851173
 30
0.0
 10
-4.8896578506
 20
14.2085394271
 30
0.0
 10
-4.8935558303
 20
14.2081356141
 30
0.0
 10
-4.8998598419
 20
14.2068697251
 30
0.0
 10
-4.9121561068
 20
14.2037523236
 30
0.0
 10
-4.9323088873
 20
14.1976137566
 30
0.0
 10
-4.9614374337
 20
14.1878662572
 30
0.0
 10
-4.9965190543
 20
14.1753652464
 30
0.0
 10
-5.0362347863
 20
14.160587731
 30
0.0
 10
-5.0790312892
 20
14.1440859781
 30
0.0
 10
-5.1083671814
 20
14.1324300939
 30
0.0
 10
-5.1232552409
 20
14.1264265566
 30
0.0
 11
-4.8868819575
 21
14.2078624081
 31
0.0
 11
-4.8888049327
 21
14.2084484673
 31
0.0
 11
-4.8928915651
 21
14.2081522184
 31
0.0
 11
-4.899093859
 21
14.2069780038
 31
0.0
 11
-4.9073638185
 21
14.2049301657
 31
0.0
 11
-4.9298111851
 21
14.1982791655
 31
0.0
 11
-4.9593306976
 21
14.1884753879
 31
0.0
 11
-4.994854301
 21
14.1758717733
 31
0.0
 11
-5.0350692761
 21
14.1609349711
 31
0.0
 11
-5.0784993064
 21
14.1442079316
 31
0.0
 11
-5.1232552409
 21
14.1264265566
 31
0.0
  0
SPLINE
  5
5F9
100
AcDbEntity
  8
RACCORDO
100
AcDbSpline
 62
7
  6
CONTINUOUS
 70
0
 71
3
 72
14
 73
10
 74
8
 42
0.0000001
 43
0.0000001
 44
0.0000000001
 12
-0.1348851071
 22
-0.0627753785
 32
0.0
 13
0.0066124964
 23
-0.1486304651
 33
0.0
 40
0.0
 40
0.0
 40
0.0
 40
0.0
 40
0.4111314294
 40
0.5795742072
 40
0.7208451518
 40
0.8339165588
 40
0.9179404335
 40
0.9727201483
 40
1.0
 40
1.0
 40
1.0
 40
1.0
 10
-5.989667848
 20
13.7404802734
 30
0.0
 10
-6.0081530169
 20
13.7318772963
 30
0.0
 10
-6.0341211411
 20
13.719531848
 30
0.0
 10
-6.0660192146
 20
13.7034219969
 30
0.0
 10
-6.0845598177
 20
13.693557817
 30
0.0
 10
-6.0990582426
 20
13.685275219
 30
0.0
 10
-6.1097736621
 20
13.6784452654
 30
0.0
 10
-6.1159487965
 20
13.6736100592
 30
0.0
 10
-6.1190991731
 20
13.6701779152
 30
0.0
 10
-6.1190390438
 20
13.6688263762
 30
0.0
 11
-5.989667848
 21
13.7404802734
 31
0.0
 11
-6.0448331918
 21
13.7140568178
 31
0.0
 11
-6.0671851834
 21
13.7027247049
 31
0.0
 11
-6.0857175934
 21
13.6928098972
 31
0.0
 11
-6.1002830497
 21
13.6843930509
 31
0.0
 11
-6.1107450714
 21
13.6775507104
 31
0.0
 11
-6.1170155303
 21
13.6723445934
 31
0.0
 11
-6.1190390438
 21
13.6688263762
 31
0.0
  0
SPLINE
  5
5FA
100
AcDbEntity
  8
RACCORDO
100
AcDbSpline
 62
7
  6
CONTINUOUS
 70
0
 71
3
 72
9
 73
5
 74
3
 42
0.0000001
 43
0.0000001
 44
0.0000000001
 12
-0.3210048333
 22
0.1493851667
 32
0.0
 13
-0.3283697549
 23
0.1324135002
 33
0.0
 40
0.0
 40
0.0
 40
0.0
 40
0.0
 40
0.458949742
 40
1.0
 40
1.0
 40
1.0
 40
1.0
 10
5.5343282331
 20
13.9523879326
 30
0.0
 10
5.4852198713
 20
13.9752413605
 30
0.0
 10
5.3771740972
 20
14.0227819669
 30
0.0
 10
5.2681520091
 20
14.0679976424
 30
0.0
 10
5.2089304955
 20
14.0918784286
 30
0.0
 11
5.5343282331
 21
13.9523879326
 31
0.0
 11
5.3858390652
 21
14.0183891471
 31
0.0
 11
5.2089304955
 21
14.0918784286
 31
0.0
  0
SPLINE
  5
5FB
100
AcDbEntity
  8
RACCORDO
100
AcDbSpline
 62
7
  6
CONTINUOUS
 70
0
 71
3
 72
14
 73
10
 74
8
 42
0.0000001
 43
0.0000001
 44
0.0000000001
 12
0.0066124965
 22
0.1486304671
 32
0.0
 13
-0.1348851089
 23
0.0627753793
 33
0.0
 40
0.0
 40
0.0
 40
0.0
 40
0.0
 40
0.0272797849
 40
0.0820593487
 40
0.1660830972
 40
0.2791543303
 40
0.4204252611
 40
0.5888683213
 40
1.0
 40
1.0
 40
1.0
 40
1.0
 10
6.1190390438
 20
13.6688263762
 30
0.0
 10
6.119099173
 20
13.6701779119
 30
0.0
 10
6.1159488146
 20
13.6736100523
 30
0.0
 10
6.1097736895
 20
13.6784452495
 30
0.0
 10
6.09905829
 20
13.6852751895
 30
0.0
 10
6.0845598796
 20
13.6935577834
 30
0.0
 10
6.0660192731
 20
13.703421967
 30
0.0
 10
6.0341211754
 20
13.7195318285
 30
0.0
 10
6.0081530284
 20
13.731877291
 30
0.0
 10
5.989667848
 20
13.7404802734
 30
0.0
 11
6.1190390438
 21
13.6688263762
 31
0.0
 11
6.1170155405
 21
13.6723445879
 31
0.0
 11
6.1107451013
 21
13.6775506936
 31
0.0
 11
6.100283095
 21
13.6843930235
 31
0.0
 11
6.0857176621
 21
13.6928098592
 31
0.0
 11
6.0671852546
 21
13.7027246678
 31
0.0
 11
6.0448332252
 21
13.7140567996
 31
0.0
 11
5.989667848
 21
13.7404802734
 31
0.0
  0
SPLINE
  5
5FC
100
AcDbEntity
  8
RACCORDO
100
AcDbSpline
 62
7
  6
CONTINUOUS
 70
0
 71
3
 72
17
 73
13
 74
11
 42
0.0000001
 43
0.0000001
 44
0.0000000001
 12
-0.2325525022
 22
0.0937756609
 32
0.0
 13
-0.1568982072
 23
-0.1955952286
 33
0.0
 40
0.0
 40
0.0
 40
0.0
 40
0.0
 40
0.1920606226
 40
0.3776648831
 40
0.5487503301
 40
0.6990733952
 40
0.8231219166
 40
0.9164904288
 40
0.9504677106
 40
0.9756422569
 40
0.9919827934
 40
1.0
 40
1.0
 40
1.0
 40
1.0
 10
5.1232552409
 20
14.1264265566
 30
0.0
 10
5.1083671814
 20
14.1324300939
 30
0.0
 10
5.0790312892
 20
14.1440859781
 30
0.0
 10
5.0362347863
 20
14.160587731
 30
0.0
 10
4.9965190543
 20
14.1753652464
 30
0.0
 10
4.9614374337
 20
14.1878662572
 30
0.0
 10
4.9323088873
 20
14.1976137566
 30
0.0
 10
4.9121561068
 20
14.2037523236
 30
0.0
 10
4.8998598419
 20
14.2068697251
 30
0.0
 10
4.8935558303
 20
14.2081356141
 30
0.0
 10
4.8896578506
 20
14.2085394271
 30
0.0
 10
4.8873012526
 20
14.2083851173
 30
0.0
 10
4.8868819575
 20
14.2078624081
 30
0.0
 11
5.1232552409
 21
14.1264265566
 31
0.0
 11
5.0784993064
 21
14.1442079316
 31
0.0
 11
5.0350692761
 21
14.1609349711
 31
0.0
 11
4.994854301
 21
14.1758717733
 31
0.0
 11
4.9593306976
 21
14.1884753879
 31
0.0
 11
4.9298111851
 21
14.1982791655
 31
0.0
 11
4.9073638185
 21
14.2049301657
 31
0.0
 11
4.899093859
 21
14.2069780038
 31
0.0
 11
4.8928915651
 21
14.2081522184
 31
0.0
 11
4.8888049327
 21
14.2084484673
 31
0.0
 11
4.8868819575
 21
14.2078624081
 31
0.0
  0
SPLINE
  5
5FD
100
AcDbEntity
  8
RACCORDO
100
AcDbSpline
 62
253
  6
CONTINUOUS
 70
0
 71
3
 72
11
 73
7
 74
5
 42
0.0000001
 43
0.0000001
 44
0.0000000001
 12
0.0440033326
 22
0.9649976914
 32
0.0
 13
0.0000078625
 23
0.9660004336
 33
0.0
 40
0.0
 40
0.0
 40
0.0
 40
0.0
 40
0.1392439598
 40
0.3698092107
 40
0.6672097175
 40
1.0
 40
1.0
 40
1.0
 40
1.0
 10
-0.046172221
 20
18.9192779926
 30
0.0
 10
-0.0441298216
 20
18.9640680258
 30
0.0
 10
-0.0418937995
 20
19.0831464916
 30
0.0
 10
-0.0391381562
 20
19.2979596035
 30
0.0
 10
-0.0375265645
 20
19.5751251295
 30
0.0
 10
-0.03711694
 20
19.7780452998
 30
0.0
 10
-0.0371160678
 20
19.8852038188
 30
0.0
 11
-0.046172221
 21
18.9192779926
 31
0.0
 11
-0.042546438
 21
19.0537388417
 31
0.0
 11
-0.0396415284
 21
19.2764460296
 31
0.0
 11
-0.0377643737
 21
19.5637289153
 31
0.0
 11
-0.0371160678
 21
19.8852038188
 31
0.0
  0
SPLINE
  5
5FE
100
AcDbEntity
  8
RACCORDO
100
AcDbSpline
 62
253
  6
CONTINUOUS
 70
0
 71
3
 72
11
 73
7
 74
5
 42
0.0000001
 43
0.0000001
 44
0.0000000001
 12
0.0000078625
 22
-0.9660004336
 32
0.0
 13
0.0440033294
 23
-0.9649976915
 33
0.0
 40
0.0
 40
0.0
 40
0.0
 40
0.0
 40
0.3327902825
 40
0.6301907893
 40
0.8607560403
 40
1.0
 40
1.0
 40
1.0
 40
1.0
 10
0.0371160678
 20
19.8852038188
 30
0.0
 10
0.03711694
 20
19.7780452998
 30
0.0
 10
0.0375265645
 20
19.5751251295
 30
0.0
 10
0.0391381563
 20
19.2979596035
 30
0.0
 10
0.0418937994
 20
19.0831464916
 30
0.0
 10
0.0441298218
 20
18.9640680258
 30
0.0
 10
0.046172221
 20
18.9192779926
 30
0.0
 11
0.0371160678
 21
19.8852038188
 31
0.0
 11
0.0377643737
 21
19.5637289153
 31
0.0
 11
0.0396415284
 21
19.2764460296
 31
0.0
 11
0.042546438
 21
19.0537388416
 31
0.0
 11
0.046172221
 21
18.9192779926
 31
0.0
  0
LINE
  5
5FF
100
AcDbEntity
  8
DRAFT
100
AcDbLine
 62
7
  6
CONTINUOUS
 10
5.5732730266
 20
19.0139640519
 11
5.5937339076
 21
19.0017455065
  0
LINE
  5
600
100
AcDbEntity
  8
DRAFT
100
AcDbLine
 62
7
  6
CONTINUOUS
 10
-5.5937339076
 20
19.0017455065
 11
-5.5732730266
 21
19.0139640519
  0
SPLINE
  5
601
100
AcDbEntity
  8
0
100
AcDbSpline
 62
7
  6
CONTINUOUS
 70
0
 71
3
 72
15
 73
11
 74
9
 42
0.0000001
 43
0.0000001
 44
0.0000000001
 12
0.9148367146
 22
-0.0042000222
 32
0.0
 13
-0.0157721255
 23
-0.9147103884
 33
0.0
 40
0.0
 40
0.0
 40
0.0
 40
0.0
 40
0.1618114576
 40
0.3162251443
 40
0.4295257688
 40
0.5447398301
 40
0.6658075644
 40
0.7939188568
 40
0.8850706895
 40
1.0
 40
1.0
 40
1.0
 40
1.0
 10
-17.0754340192
 20
11.625
 30
0.0
 10
-17.0260903318
 20
11.6247734628
 30
0.0
 10
-16.9292757207
 20
11.6122778144
 30
0.0
 10
-16.8067804396
 20
11.5595076199
 30
0.0
 10
-16.7176448261
 20
11.4828261984
 30
0.0
 10
-16.6488015527
 20
11.4002989275
 30
0.0
 10
-16.6019702864
 20
11.2985864788
 30
0.0
 10
-16.5710533022
 20
11.199165412
 30
0.0
 10
-16.5565901478
 20
11.0979988716
 30
0.0
 10
-16.554955948
 20
11.0350423447
 30
0.0
 10
-16.5555601745
 20
11.0
 30
0.0
 11
-17.0754340192
 21
11.625
 31
0.0
 11
-16.9287471189
 21
11.6050849171
 31
0.0
 11
-16.7997236656
 21
11.5475636878
 31
0.0
 11
-16.7201037707
 21
11.4811969268
 31
0.0
 11
-16.6537976648
 21
11.3992620299
 31
0.0
 11
-16.6050916397
 21
11.2997877072
 31
0.0
 11
-16.5712562171
 21
11.1875758188
 31
0.0
 11
-16.5590443288
 21
11.1050849171
 31
0.0
 11
-16.5555601745
 21
11.0
 31
0.0
  0
SPLINE
  5
602
100
AcDbEntity
  8
0
100
AcDbSpline
 62
7
  6
CONTINUOUS
 70
0
 71
3
 72
15
 73
11
 74
9
 42
0.0000001
 43
0.0000001
 44
0.0000000001
 12
0.015862948
 22
-0.9199776754
 32
0.0
 13
-0.9201047217
 23
0.0042258174
 33
0.0
 40
0.0
 40
0.0
 40
0.0
 40
0.0
 40
0.1142712884
 40
0.2049012357
 40
0.3322790332
 40
0.4526536001
 40
0.567208009
 40
0.6798599363
 40
0.8333895351
 40
1.0
 40
1.0
 40
1.0
 40
1.0
 10
-16.5555601745
 20
11.0
 30
0.0
 10
-16.554955948
 20
10.9649576553
 30
0.0
 10
-16.556590145
 20
10.9020011298
 30
0.0
 10
-16.5710533111
 20
10.8008345836
 30
0.0
 10
-16.6019702386
 20
10.7014135444
 30
0.0
 10
-16.648801715
 20
10.5997009935
 30
0.0
 10
-16.7176442562
 20
10.5171740791
 30
0.0
 10
-16.8067828506
 20
10.440491206
 30
0.0
 10
-16.9309047672
 20
10.387021143
 30
0.0
 10
-17.0296490445
 20
10.3747653115
 30
0.0
 10
-17.0807487364
 20
10.375
 30
0.0
 11
-16.5555601745
 21
11.0
 31
0.0
 11
-16.5590443288
 21
10.8949150829
 31
0.0
 11
-16.5712562171
 21
10.8124241812
 31
0.0
 11
-16.6050916397
 21
10.7002122928
 31
0.0
 11
-16.6537976648
 21
10.6007379701
 31
0.0
 11
-16.7201037707
 21
10.5188030732
 31
0.0
 11
-16.7997236656
 21
10.4524363122
 31
0.0
 11
-16.9287471189
 21
10.3949150829
 31
0.0
 11
-17.0807487364
 21
10.375
 31
0.0
  0
SPLINE
  5
603
100
AcDbEntity
  8
0
100
AcDbSpline
 62
7
  6
CONTINUOUS
 70
0
 71
3
 72
14
 73
10
 74
8
 42
0.0000001
 43
0.0000001
 44
0.0000000001
 12
0.670727336
 22
0.0165108802
 32
0.0
 13
-0.0180972384
 23
0.6706869374
 33
0.0
 40
0.0
 40
0.0
 40
0.0
 40
0.0
 40
0.1344237333
 40
0.2464954433
 40
0.3932340687
 40
0.5898708157
 40
0.7257765
 40
0.8770593497
 40
1.0
 40
1.0
 40
1.0
 40
1.0
 10
-17.0850531438
 20
10.51946
 30
0.0
 10
-17.054999253
 20
10.5201998181
 30
0.0
 10
-16.9997699407
 20
10.528268134
 30
0.0
 10
-16.9174557703
 20
10.5610056073
 30
0.0
 10
-16.8347471937
 20
10.623192594
 30
0.0
 10
-16.7753418114
 20
10.7158887237
 30
0.0
 10
-16.7453852152
 20
10.820291044
 30
0.0
 10
-16.7306914974
 20
10.9110498928
 30
0.0
 10
-16.728576524
 20
10.9725151039
 30
0.0
 10
-16.7293181527
 20
11.0
 30
0.0
 11
-17.0850531438
 21
10.51946
 31
0.0
 11
-16.9958417408
 21
10.5327031945
 31
0.0
 11
-16.9260580772
 21
10.5607056207
 31
0.0
 11
-16.8474238273
 21
10.6199454104
 31
0.0
 11
-16.775026941
 21
10.7302365548
 31
0.0
 11
-16.7480152143
 21
10.817327133
 31
0.0
 11
-16.7320224929
 21
10.9175596442
 31
0.0
 11
-16.7293181527
 21
11.0
 31
0.0
  0
SPLINE
  5
604
100
AcDbEntity
  8
0
100
AcDbSpline
 62
7
  6
CONTINUOUS
 70
0
 71
3
 72
14
 73
10
 74
8
 42
0.0000001
 43
0.0000001
 44
0.0000000001
 12
0.0180972384
 22
0.6706869374
 32
0.0
 13
-0.670727336
 23
0.0165108802
 33
0.0
 40
0.0
 40
0.0
 40
0.0
 40
0.0
 40
0.1229406503
 40
0.2742235
 40
0.4101291843
 40
0.6067659313
 40
0.7535045567
 40
0.8655762667
 40
1.0
 40
1.0
 40
1.0
 40
1.0
 10
-16.7293181527
 20
11.0
 30
0.0
 10
-16.728576524
 20
11.0274848961
 30
0.0
 10
-16.7306914974
 20
11.0889501072
 30
0.0
 10
-16.7453852152
 20
11.179708956
 30
0.0
 10
-16.7753418114
 20
11.2841112763
 30
0.0
 10
-16.8347471937
 20
11.376807406
 30
0.0
 10
-16.9174557703
 20
11.4389943927
 30
0.0
 10
-16.9997699407
 20
11.471731866
 30
0.0
 10
-17.054999253
 20
11.4798001819
 30
0.0
 10
-17.0850531438
 20
11.48054
 30
0.0
 11
-16.7293181527
 21
11.0
 31
0.0
 11
-16.7320224929
 21
11.0824403558
 31
0.0
 11
-16.7480152143
 21
11.182672867
 31
0.0
 11
-16.775026941
 21
11.2697634452
 31
0.0
 11
-16.8474238273
 21
11.3800545896
 31
0.0
 11
-16.9260580772
 21
11.4392943793
 31
0.0
 11
-16.9958417408
 21
11.4672968055
 31
0.0
 11
-17.0850531438
 21
11.48054
 31
0.0
  0
SPLINE
  5
605
100
AcDbEntity
  8
0
100
AcDbSpline
 62
7
  6
CONTINUOUS
 70
0
 71
3
 72
9
 73
5
 74
3
 42
0.0000001
 43
0.0000001
 44
0.0000000001
 12
0.6224215667
 22
0.0139022391
 32
0.0
 13
-0.009302656
 23
0.6226110076
 33
0.0
 40
0.0
 40
0.0
 40
0.0
 40
0.0
 40
0.4795375456
 40
1.0
 40
1.0
 40
1.0
 40
1.0
 10
-10.7351065686
 20
14.1574749227
 30
0.0
 10
-10.6356150651
 20
14.1596971379
 30
0.0
 10
-10.4045295707
 20
14.201786923
 30
0.0
 10
-10.3281609854
 20
14.4377118105
 30
0.0
 10
-10.3297748798
 20
14.5457270282
 30
0.0
 11
-10.7351065686
 21
14.1574749227
 31
0.0
 11
-10.4495648449
 21
14.2446379972
 31
0.0
 11
-10.3297748798
 21
14.5457270282
 31
0.0
  0
SPLINE
  5
606
100
AcDbEntity
  8
0
100
AcDbSpline
 62
7
  6
CONTINUOUS
 70
0
 71
3
 72
9
 73
5
 74
3
 42
0.0000001
 43
0.0000001
 44
0.0000000001
 12
-0.0068852608
 22
0.4608151847
 32
0.0
 13
-0.4578287515
 23
0.0531366947
 33
0.0
 40
0.0
 40
0.0
 40
0.0
 40
0.0
 40
0.4988583545
 40
1.0
 40
1.0
 40
1.0
 40
1.0
 10
-10.3297748581
 20
14.5457270286
 30
0.0
 10
-10.3309197814
 20
14.6223541968
 30
0.0
 10
-10.3933072571
 20
14.7821648344
 30
0.0
 10
-10.5480625622
 20
14.8495412981
 30
0.0
 10
-10.6245415802
 20
14.858417635
 30
0.0
 11
-10.3297748581
 21
14.5457270286
 31
0.0
 11
-10.4161514348
 21
14.7587968033
 31
0.0
 11
-10.6245415802
 21
14.858417635
 31
0.0
  0
SPLINE
  5
607
100
AcDbEntity
  8
0
100
AcDbSpline
 62
7
  6
CONTINUOUS
 70
0
 71
3
 72
9
 73
5
 74
3
 42
0.0000001
 43
0.0000001
 44
0.0000000001
 12
-0.4071565714
 22
0.0472555598
 32
0.0
 13
-0.4040495301
 23
-0.0689447657
 33
0.0
 40
0.0
 40
0.0
 40
0.0
 40
0.0
 40
0.7295958321
 40
1.0
 40
1.0
 40
1.0
 40
1.0
 10
-10.6245415802
 20
14.8584176348
 30
0.0
 10
-10.7235614927
 20
14.8699101213
 30
0.0
 10
-10.8617825694
 20
14.8703531218
 30
0.0
 10
-10.9968871308
 20
14.8499153924
 30
0.0
 10
-11.0333060231
 20
14.843701075
 30
0.0
 11
-10.6245415802
 21
14.8584176348
 31
0.0
 11
-10.9235935832
 21
14.859441521
 31
0.0
 11
-11.0333060231
 21
14.843701075
 31
0.0
  0
SPLINE
  5
608
100
AcDbEntity
  8
0
100
AcDbSpline
 62
7
  6
CONTINUOUS
 70
0
 71
3
 72
9
 73
5
 74
3
 42
0.0000001
 43
0.0000001
 44
0.0000000001
 12
1.2826781724
 22
0.1887038006
 32
0.0
 13
1.2193490006
 23
-0.4405229088
 33
0.0
 40
0.0
 40
0.0
 40
0.0
 40
0.0
 40
0.7042582166
 40
1.0
 40
1.0
 40
1.0
 40
1.0
 10
-11.5356974979
 20
15.2403505884
 30
0.0
 10
-11.2345852839
 20
15.2846493224
 30
0.0
 10
-10.8002577723
 20
15.3282478811
 30
0.0
 10
-10.3681966228
 20
15.2574592661
 30
0.0
 10
-10.2479924734
 20
15.2140322558
 30
0.0
 11
-11.5356974979
 21
15.2403505884
 31
0.0
 11
-10.6239519159
 21
15.2893249
 31
0.0
 11
-10.2479924734
 21
15.2140322558
 31
0.0
  0
SPLINE
  5
609
100
AcDbEntity
  8
0
100
AcDbSpline
 62
7
  6
CONTINUOUS
 70
0
 71
3
 72
17
 73
13
 74
11
 42
0.0000001
 43
0.0000001
 44
0.0000000001
 12
1.4649525003
 22
-0.528486789
 32
0.0
 13
-1.5445596186
 23
-0.1992980153
 33
0.0
 40
0.0
 40
0.0
 40
0.0
 40
0.0
 40
0.0799595168
 40
0.1896577306
 40
0.3223977561
 40
0.3986068941
 40
0.483386777
 40
0.5877249163
 40
0.678993766
 40
0.8312459613
 40
0.9440219048
 40
1.0
 40
1.0
 40
1.0
 40
1.0
 10
-10.2479924734
 20
15.2140322558
 30
0.0
 10
-10.2089468421
 20
15.1999464064
 30
0.0
 10
-10.1217550839
 20
15.1518570245
 30
0.0
 10
-9.9949421857
 20
15.0403559737
 30
0.0
 10
-9.9051264019
 20
14.8977762995
 30
0.0
 10
-9.8573063817
 20
14.7522900724
 30
0.0
 10
-9.8375758559
 20
14.6153719113
 30
0.0
 10
-9.8413197096
 20
14.468777318
 30
0.0
 10
-9.8811699869
 20
14.2921528838
 30
0.0
 10
-9.970625267
 20
14.122846928
 30
0.0
 10
-10.0921151121
 20
14.0128611976
 30
0.0
 10
-10.165373101
 20
13.9551646422
 30
0.0
 10
-10.1941936028
 20
13.9514458678
 30
0.0
 11
-10.2479924734
 21
15.2140322558
 31
0.0
 11
-10.1376649549
 21
15.1562863382
 31
0.0
 11
-10.0095388205
 21
15.0432817635
 31
0.0
 11
-9.8992323904
 21
14.8684459781
 31
0.0
 11
-9.8618922895
 21
14.7557874583
 31
0.0
 11
-9.8423639848
 21
14.6252064282
 31
0.0
 11
-9.8471268163
 21
14.4627837334
 31
0.0
 11
-9.8788533735
 21
14.3242309191
 31
0.0
 11
-9.9916792825
 21
14.1156823854
 31
0.0
 11
-10.1178049472
 21
13.9934557329
 31
0.0
 11
-10.1941936028
 21
13.9514458678
 31
0.0
  0
SPLINE
  5
60A
100
AcDbEntity
  8
0
100
AcDbSpline
 62
7
  6
CONTINUOUS
 70
0
 71
3
 72
8
 73
4
 74
2
 42
0.0000001
 43
0.0000001
 44
0.0000000001
 12
0.0534892126
 22
-0.0213288235
 32
0.0
 13
0.0477909677
 23
-0.0310331722
 33
0.0
 40
0.0
 40
0.0
 40
0.0
 40
0.0
 40
1.0
 40
1.0
 40
1.0
 40
1.0
 10
-10.1941936028
 20
13.9366746099
 30
0.0
 10
-10.1763638653
 20
13.9295650021
 30
0.0
 10
-10.1595109643
 20
13.9207088595
 30
0.0
 10
-10.1435806417
 20
13.9103644688
 30
0.0
 11
-10.1941936028
 21
13.9366746099
 31
0.0
 11
-10.1435806417
 21
13.9103644688
 31
0.0
  0
SPLINE
  5
60B
100
AcDbEntity
  8
0
100
AcDbSpline
 62
7
  6
CONTINUOUS
 70
0
 71
3
 72
9
 73
5
 74
3
 42
0.0000001
 43
0.0000001
 44
0.0000000001
 12
0.4353123363
 22
-0.2826710428
 32
0.0
 13
0.1378787111
 23
-0.5060856006
 33
0.0
 40
0.0
 40
0.0
 40
0.0
 40
0.0
 40
0.7306208118
 40
1.0
 40
1.0
 40
1.0
 40
1.0
 10
-10.1435806417
 20
13.9103644688
 30
0.0
 10
-10.0375645575
 20
13.8415226865
 30
0.0
 10
-9.9483853976
 20
13.6570842266
 30
0.0
 10
-9.9057920043
 20
13.4917819666
 30
0.0
 10
-9.8934114526
 20
13.4463389905
 30
0.0
 11
-10.1435806417
 21
13.9103644688
 31
0.0
 11
-9.9321200547
 21
13.582228565
 31
0.0
 11
-9.8934114526
 21
13.4463389905
 31
0.0
  0
SPLINE
  5
60C
100
AcDbEntity
  8
0
100
AcDbSpline
 62
7
  6
CONTINUOUS
 70
0
 71
3
 72
9
 73
5
 74
3
 42
0.0000001
 43
0.0000001
 44
0.0000000001
 12
0.1839071061
 22
-0.6750334846
 32
0.0
 13
0.1833763941
 23
-0.6751778588
 33
0.0
 40
0.0
 40
0.0
 40
0.0
 40
0.0
 40
0.8019701115
 40
1.0
 40
1.0
 40
1.0
 40
1.0
 10
-9.8934114522
 20
13.4463389906
 30
0.0
 10
-9.8442487848
 20
13.2658867643
 30
0.0
 10
-9.786393137
 20
13.0399538449
 30
0.0
 10
-9.7271509083
 20
12.8143886847
 30
0.0
 10
-9.7150462393
 20
12.7698202193
 30
0.0
 11
-9.8934114522
 21
13.4463389906
 31
0.0
 11
-9.7505599962
 21
12.9037403937
 31
0.0
 11
-9.7150462393
 21
12.7698202193
 31
0.0
  0
SPLINE
  5
60D
100
AcDbEntity
  8
0
100
AcDbSpline
 62
7
  6
CONTINUOUS
 70
0
 71
3
 72
9
 73
5
 74
3
 42
0.0000001
 43
0.0000001
 44
0.0000000001
 12
-0.2187805082
 22
0.7609650526
 32
0.0
 13
-0.2785184169
 23
0.7411900998
 33
0.0
 40
0.0
 40
0.0
 40
0.0
 40
0.0
 40
0.4412847491
 40
1.0
 40
1.0
 40
1.0
 40
1.0
 10
-10.2169503376
 20
12.7698202193
 30
0.0
 10
-10.2491318382
 20
12.8817543101
 30
0.0
 10
-10.3251180511
 20
13.1343695011
 30
0.0
 10
-10.3933059099
 20
13.3899414406
 30
0.0
 10
-10.4451767389
 20
13.5279795115
 30
0.0
 11
-10.2169503376
 21
12.7698202193
 31
0.0
 11
-10.3146763611
 21
13.1052805467
 31
0.0
 11
-10.4451767389
 21
13.5279795115
 31
0.0
  0
SPLINE
  5
60E
100
AcDbEntity
  8
0
100
AcDbSpline
 62
7
  6
CONTINUOUS
 70
0
 71
3
 72
9
 73
5
 74
3
 42
0.0000001
 43
0.0000001
 44
0.0000000001
 12
-0.1347745162
 22
0.3586597975
 32
0.0
 13
-0.3831023317
 23
0.0
 33
0.0
 40
0.0
 40
0.0
 40
0.0
 40
0.0
 40
0.6439294631
 40
1.0
 40
1.0
 40
1.0
 40
1.0
 10
-10.4451767115
 20
13.5279795218
 30
0.0
 10
-10.4741051388
 20
13.6049633921
 30
0.0
 10
-10.5600118553
 20
13.7205569097
 30
0.0
 10
-10.6907607994
 20
13.7480786386
 30
0.0
 10
-10.7362312837
 20
13.7480786386
 30
0.0
 11
-10.4451767115
 21
13.5279795218
 31
0.0
 11
-10.6033344828
 21
13.7173129952
 31
0.0
 11
-10.7362312837
 21
13.7480786386
 31
0.0
  0
SPLINE
  5
60F
100
AcDbEntity
  8
SMUSSO
100
AcDbSpline
 62
7
  6
CONTINUOUS
 70
0
 71
3
 72
15
 73
11
 74
9
 42
0.0000001
 43
0.0000001
 44
0.0000000001
 12
4.5848944676
 22
-0.7175489987
 32
0.0
 13
0.7136951719
 23
-4.5854959433
 33
0.0
 40
0.0
 40
0.0
 40
0.0
 40
0.0
 40
0.1247568529
 40
0.2495643074
 40
0.3744413129
 40
0.4993997444
 40
0.624443307
 40
0.7495672971
 40
0.8747591979
 40
1.0
 40
1.0
 40
1.0
 40
1.0
 10
0.5678419759
 20
3.6427936348
 30
0.0
 10
0.758507644
 20
3.6129539165
 30
0.0
 10
1.1358775984
 20
3.5229833638
 30
0.0
 10
1.6733027437
 20
3.3008658679
 30
0.0
 10
2.1695787359
 20
2.9968908315
 30
0.0
 10
2.6122014924
 20
2.6185233207
 30
0.0
 10
2.9901889322
 20
2.1750730144
 30
0.0
 10
3.2940749267
 20
1.6774420898
 30
0.0
 10
3.5162084914
 20
1.1381543264
 30
0.0
 10
3.6061066031
 20
0.7593852827
 30
0.0
 10
3.6359011883
 20
0.567954886
 30
0.0
 11
0.5678419759
 21
3.6427936348
 31
0.0
 11
1.1310087061
 21
3.5084899259
 31
0.0
 11
1.666302495
 21
3.2872959427
 31
0.0
 11
2.1604854198
 21
2.9846022898
 31
0.0
 11
2.6012907358
 21
2.6078145568
 31
0.0
 11
2.9777299735
 21
2.1661923485
 31
0.0
 11
3.2803783453
 21
1.6706381615
 31
0.0
 11
3.5016284139
 21
1.1334375548
 31
0.0
 11
3.6359011883
 21
0.567954886
 31
0.0
  0
SPLINE
  5
610
100
AcDbEntity
  8
SMUSSO
100
AcDbSpline
 62
7
  6
CONTINUOUS
 70
0
 71
3
 72
15
 73
11
 74
9
 42
0.0000001
 43
0.0000001
 44
0.0000000001
 12
-0.7133815643
 22
-4.5855412813
 32
0.0
 13
-4.5847529385
 23
-0.7184306454
 33
0.0
 40
0.0
 40
0.0
 40
0.0
 40
0.0
 40
0.1252438469
 40
0.2504376065
 40
0.3755659006
 40
0.5006094981
 40
0.625572362
 40
0.7504598975
 40
0.8752432358
 40
1.0
 40
1.0
 40
1.0
 40
1.0
 10
3.6358970865
 20
-0.5679542479
 30
0.0
 10
3.6061148694
 20
-0.7593911913
 30
0.0
 10
3.5161904283
 20
-1.1381630178
 30
0.0
 10
3.2940596934
 20
-1.6774652592
 30
0.0
 10
2.990156114
 20
-2.1750967238
 30
0.0
 10
2.6121661032
 20
-2.6185622464
 30
0.0
 10
2.1695114687
 20
-2.9969280652
 30
0.0
 10
1.673251538
 20
-3.3008997419
 30
0.0
 10
1.1358378016
 20
-3.5229962278
 30
0.0
 10
0.7585045595
 20
-3.6129360151
 30
0.0
 10
0.5678449125
 20
-3.642812376
 30
0.0
 11
3.6358970865
 21
-0.5679542479
 31
0.0
 11
3.5016170222
 21
-1.1334492683
 31
0.0
 11
3.2803610143
 21
-1.6706562951
 31
0.0
 11
2.9776961996
 21
-2.166223342
 31
0.0
 11
2.6012565575
 21
-2.6078448566
 31
0.0
 11
2.1604282688
 21
-2.9846367132
 31
0.0
 11
1.6662018273
 21
-3.2873520589
 31
0.0
 11
1.1310061806
 21
-3.5084893784
 31
0.0
 11
0.5678449125
 21
-3.642812376
 31
0.0
  0
SPLINE
  5
611
100
AcDbEntity
  8
SMUSSO
100
AcDbSpline
 62
7
  6
CONTINUOUS
 70
0
 71
3
 72
15
 73
11
 74
9
 42
0.0000001
 43
0.0000001
 44
0.0000000001
 12
-4.5843731491
 22
0.7208481862
 32
0.0
 13
-0.7133848613
 23
4.5855404608
 33
0.0
 40
0.0
 40
0.0
 40
0.0
 40
0.0
 40
0.1248916321
 40
0.2496768805
 40
0.3745215697
 40
0.4994727415
 40
0.6244945199
 40
0.749602623
 40
0.8747764876
 40
1.0
 40
1.0
 40
1.0
 40
1.0
 10
-0.5678490579
 20
-3.6428386934
 30
0.0
 10
-0.7586990062
 20
-3.6128293912
 30
0.0
 10
-1.1362299228
 20
-3.522852545
 30
0.0
 10
-1.6737827962
 20
-3.3006802486
 30
0.0
 10
-2.1698818863
 20
-2.9966080396
 30
0.0
 10
-2.6124355662
 20
-2.6183114836
 30
0.0
 10
-2.9903138394
 20
-2.1748579245
 30
0.0
 10
-3.2941426102
 20
-1.6772964568
 30
0.0
 10
-3.5162140358
 20
-1.1380711282
 30
0.0
 10
-3.6061194522
 20
-0.7593600576
 30
0.0
 10
-3.6358969715
 20
-0.56795423
 30
0.0
 11
-0.5678490579
 21
-3.6428386934
 31
0.0
 11
-1.1315946203
 21
-3.5082679325
 31
0.0
 11
-1.6667800864
 21
-3.2870828669
 31
0.0
 11
-2.1607750291
 21
-2.9843703459
 31
0.0
 11
-2.6015307569
 21
-2.6075771689
 31
0.0
 11
-2.9778600282
 21
-2.1659946774
 31
0.0
 11
-3.2804461025
 21
-1.6704893794
 31
0.0
 11
-3.5016459627
 21
-1.1333591204
 31
0.0
 11
-3.6358969715
 21
-0.56795423
 31
0.0
  0
LINE
  5
612
100
AcDbEntity
  8
SMUSSO
100
AcDbLine
 62
7
  6
CONTINUOUS
 10
3.6359033873
 20
0.5679552283
 11
2.6227559278
 21
0.5508004228
  0
LINE
  5
613
100
AcDbEntity
  8
SMUSSO
100
AcDbLine
 62
7
  6
CONTINUOUS
 10
2.622755928
 20
-0.5508004228
 11
3.6359033873
 21
-0.5679552283
  0
LINE
  5
614
100
AcDbEntity
  8
SMUSSO
100
AcDbLine
 62
7
  6
CONTINUOUS
 10
-2.6227559278
 20
0.5508004228
 11
-3.6359033873
 21
0.5679552283
  0
LINE
  5
615
100
AcDbEntity
  8
SMUSSO
100
AcDbLine
 62
7
  6
CONTINUOUS
 10
-3.6359033873
 20
-0.5679552283
 11
-2.622755928
 21
-0.5508004228
  0
LINE
  5
616
100
AcDbEntity
  8
SMUSSO
100
AcDbLine
 62
7
  6
CONTINUOUS
 10
-0.5678431213
 20
3.6428009403
 11
-0.5506975133
 21
2.6225560058
  0
LINE
  5
617
100
AcDbEntity
  8
SMUSSO
100
AcDbLine
 62
7
  6
CONTINUOUS
 10
0.5506975133
 20
2.6225560058
 11
0.5678431213
 21
3.6428009402
  0
LINE
  5
618
100
AcDbEntity
  8
SMUSSO
100
AcDbLine
 62
7
  6
CONTINUOUS
 10
-0.5506975133
 20
-2.6225560042
 11
-0.5678431228
 21
-3.64280103
  0
LINE
  5
619
100
AcDbEntity
  8
SMUSSO
100
AcDbLine
 62
7
  6
CONTINUOUS
 10
0.5678431219
 20
-3.642800976
 11
0.5506975133
 21
-2.6225560055
  0
SPLINE
  5
61A
100
AcDbEntity
  8
RACCORDO
100
AcDbSpline
 62
7
  6
CONTINUOUS
 70
0
 71
3
 72
15
 73
11
 74
9
 42
0.0000001
 43
0.0000001
 44
0.0000000001
 12
1.1205289344
 22
-1.2515989772
 32
0.0
 13
1.1205289344
 23
1.2515989772
 33
0.0
 40
0.0
 40
0.0
 40
0.0
 40
0.0
 40
0.1260339464
 40
0.249930036
 40
0.373903001
 40
0.4999999994
 40
0.6260969978
 40
0.7500699632
 40
0.8739660536
 40
1.0
 40
1.0
 40
1.0
 40
1.0
 10
-18.744968761
 20
21.3329812793
 30
0.0
 10
-18.6978938664
 20
21.2803999598
 30
0.0
 10
-18.5933962595
 20
21.1854910588
 30
0.0
 10
-18.411288545
 20
21.0792892637
 30
0.0
 10
-18.2110461369
 20
21.0129113901
 30
0.0
 10
-18.000000001
 20
20.9901376841
 30
0.0
 10
-17.7889538649
 20
21.01291139
 30
0.0
 10
-17.588711456
 20
21.0792892631
 30
0.0
 10
-17.4066037409
 20
21.1854910585
 30
0.0
 10
-17.3021061336
 20
21.2803999598
 30
0.0
 10
-17.255031239
 20
21.3329812793
 30
0.0
 11
-18.744968761
 21
21.3329812793
 31
0.0
 11
-18.5881209877
 21
21.1907619287
 31
0.0
 11
-18.4083279643
 21
21.0859089119
 31
0.0
 11
-18.2106108455
 21
21.0204764875
 31
0.0
 11
-18.000000001
 21
20.9977717834
 31
0.0
 11
-17.7893891565
 21
21.0204764872
 31
0.0
 11
-17.5916720369
 21
21.0859089113
 31
0.0
 11
-17.4118790123
 21
21.1907619286
 31
0.0
 11
-17.255031239
 21
21.3329812793
 31
0.0
  0
LINE
  5
61B
100
AcDbEntity
  8
RACCORDO
100
AcDbLine
 62
7
  6
CONTINUOUS
 10
-21.0286895005
 20
20.8336665119
 11
-21.5280042679
 21
21.3329812793
  0
LINE
  5
61C
100
AcDbEntity
  8
RACCORDO
100
AcDbLine
 62
7
  6
CONTINUOUS
 10
-21.5280804203
 20
5.507524126
 11
-22.0280042679
 21
5.6414783172
  0
LINE
  5
61D
100
AcDbEntity
  8
RACCORDO
100
AcDbLine
 62
7
  6
CONTINUOUS
 10
-21.5280804203
 20
-5.507524126
 11
-22.0280042679
 21
-5.6414783172
  0
LINE
  5
61E
100
AcDbEntity
  8
RACCORDO
100
AcDbLine
 62
7
  6
CONTINUOUS
 10
-21.5280042679
 20
-21.3329812793
 11
-21.0286895005
 21
-20.8336665119
  0
SPLINE
  5
61F
100
AcDbEntity
  8
RACCORDO
100
AcDbSpline
 62
7
  6
CONTINUOUS
 70
0
 71
3
 72
15
 73
11
 74
9
 42
0.0000001
 43
0.0000001
 44
0.0000000001
 12
-1.1205289344
 22
1.2515989772
 32
0.0
 13
-1.1205289344
 23
-1.2515989772
 33
0.0
 40
0.0
 40
0.0
 40
0.0
 40
0.0
 40
0.1260339464
 40
0.249930036
 40
0.373903001
 40
0.4999999994
 40
0.6260969978
 40
0.7500699632
 40
0.8739660536
 40
1.0
 40
1.0
 40
1.0
 40
1.0
 10
-17.255031239
 20
-21.3329812793
 30
0.0
 10
-17.3021061336
 20
-21.2803999598
 30
0.0
 10
-17.4066037405
 20
-21.1854910588
 30
0.0
 10
-17.588711455
 20
-21.0792892637
 30
0.0
 10
-17.7889538631
 20
-21.0129113901
 30
0.0
 10
-17.999999999
 20
-20.9901376841
 30
0.0
 10
-18.2110461351
 20
-21.01291139
 30
0.0
 10
-18.411288544
 20
-21.0792892631
 30
0.0
 10
-18.5933962591
 20
-21.1854910585
 30
0.0
 10
-18.6978938664
 20
-21.2803999598
 30
0.0
 10
-18.744968761
 20
-21.3329812793
 30
0.0
 11
-17.255031239
 21
-21.3329812793
 31
0.0
 11
-17.4118790123
 21
-21.1907619287
 31
0.0
 11
-17.5916720357
 21
-21.0859089119
 31
0.0
 11
-17.7893891545
 21
-21.0204764875
 31
0.0
 11
-17.999999999
 21
-20.9977717834
 31
0.0
 11
-18.2106108435
 21
-21.0204764872
 31
0.0
 11
-18.4083279631
 21
-21.0859089113
 31
0.0
 11
-18.5881209877
 21
-21.1907619286
 31
0.0
 11
-18.744968761
 21
-21.3329812793
 31
0.0
  0
LINE
  5
620
100
AcDbEntity
  8
RACCORDO
100
AcDbLine
 62
7
  6
CONTINUOUS
 10
21.0286895005
 20
-20.8336665119
 11
21.5280042679
 21
-21.3329812793
  0
SPLINE
  5
621
100
AcDbEntity
  8
RACCORDO
100
AcDbSpline
 62
7
  6
CONTINUOUS
 70
0
 71
3
 72
15
 73
11
 74
9
 42
0.0000001
 43
0.0000001
 44
0.0000000001
 12
-1.1205289344
 22
1.2515989772
 32
0.0
 13
-1.1205289344
 23
-1.2515989772
 33
0.0
 40
0.0
 40
0.0
 40
0.0
 40
0.0
 40
0.1260339464
 40
0.249930036
 40
0.373903001
 40
0.4999999994
 40
0.6260969978
 40
0.7500699632
 40
0.8739660536
 40
1.0
 40
1.0
 40
1.0
 40
1.0
 10
18.744968761
 20
-21.3329812793
 30
0.0
 10
18.6978938664
 20
-21.2803999598
 30
0.0
 10
18.5933962595
 20
-21.1854910588
 30
0.0
 10
18.411288545
 20
-21.0792892637
 30
0.0
 10
18.2110461369
 20
-21.0129113901
 30
0.0
 10
18.000000001
 20
-20.9901376841
 30
0.0
 10
17.7889538649
 20
-21.01291139
 30
0.0
 10
17.588711456
 20
-21.0792892631
 30
0.0
 10
17.4066037409
 20
-21.1854910585
 30
0.0
 10
17.3021061336
 20
-21.2803999598
 30
0.0
 10
17.255031239
 20
-21.3329812793
 30
0.0
 11
18.744968761
 21
-21.3329812793
 31
0.0
 11
18.5881209877
 21
-21.1907619287
 31
0.0
 11
18.4083279643
 21
-21.0859089119
 31
0.0
 11
18.2106108455
 21
-21.0204764875
 31
0.0
 11
18.000000001
 21
-20.9977717834
 31
0.0
 11
17.7893891565
 21
-21.0204764872
 31
0.0
 11
17.5916720369
 21
-21.0859089113
 31
0.0
 11
17.4118790123
 21
-21.1907619286
 31
0.0
 11
17.255031239
 21
-21.3329812793
 31
0.0
  0
LINE
  5
622
100
AcDbEntity
  8
RACCORDO
100
AcDbLine
 62
7
  6
CONTINUOUS
 10
21.5280804203
 20
-5.507524126
 11
22.0280042679
 21
-5.6414783172
  0
LINE
  5
623
100
AcDbEntity
  8
RACCORDO
100
AcDbLine
 62
7
  6
CONTINUOUS
 10
21.5280804203
 20
5.507524126
 11
22.0280042679
 21
5.6414783172
  0
LINE
  5
624
100
AcDbEntity
  8
RACCORDO
100
AcDbLine
 62
7
  6
CONTINUOUS
 10
21.5280042679
 20
21.3329812793
 11
21.0286895005
 21
20.8336665119
  0
SPLINE
  5
625
100
AcDbEntity
  8
RACCORDO
100
AcDbSpline
 62
7
  6
CONTINUOUS
 70
0
 71
3
 72
15
 73
11
 74
9
 42
0.0000001
 43
0.0000001
 44
0.0000000001
 12
1.1205289344
 22
-1.2515989772
 32
0.0
 13
1.1205289344
 23
1.2515989772
 33
0.0
 40
0.0
 40
0.0
 40
0.0
 40
0.0
 40
0.1260339464
 40
0.249930036
 40
0.373903001
 40
0.4999999994
 40
0.6260969978
 40
0.7500699632
 40
0.8739660536
 40
1.0
 40
1.0
 40
1.0
 40
1.0
 10
17.255031239
 20
21.3329812793
 30
0.0
 10
17.3021061336
 20
21.2803999598
 30
0.0
 10
17.4066037405
 20
21.1854910588
 30
0.0
 10
17.588711455
 20
21.0792892637
 30
0.0
 10
17.7889538631
 20
21.0129113901
 30
0.0
 10
17.999999999
 20
20.9901376841
 30
0.0
 10
18.2110461351
 20
21.01291139
 30
0.0
 10
18.411288544
 20
21.0792892631
 30
0.0
 10
18.5933962591
 20
21.1854910585
 30
0.0
 10
18.6978938664
 20
21.2803999598
 30
0.0
 10
18.744968761
 20
21.3329812793
 30
0.0
 11
17.255031239
 21
21.3329812793
 31
0.0
 11
17.4118790123
 21
21.1907619287
 31
0.0
 11
17.5916720357
 21
21.0859089119
 31
0.0
 11
17.7893891545
 21
21.0204764875
 31
0.0
 11
17.999999999
 21
20.9977717834
 31
0.0
 11
18.2106108435
 21
21.0204764872
 31
0.0
 11
18.4083279631
 21
21.0859089113
 31
0.0
 11
18.5881209877
 21
21.1907619286
 31
0.0
 11
18.744968761
 21
21.3329812793
 31
0.0
  0
LINE
  5
626
100
AcDbEntity
  8
RACCORDO
100
AcDbLine
 62
7
  6
CONTINUOUS
 10
-12.0
 20
-27.2023484854
 11
-11.9781430868
 21
-27.2023651948
  0
SPLINE
  5
627
100
AcDbEntity
  8
RACCORDO
100
AcDbSpline
 62
253
  6
CONTINUOUS
 70
0
 71
3
 72
8
 73
4
 74
2
 42
0.0000001
 43
0.0000001
 44
0.0000000001
 12
0.0759768635
 22
0.0434880668
 32
0.0
 13
0.0764000824
 23
0.0427401819
 33
0.0
 40
0.0
 40
0.0
 40
0.0
 40
0.0
 40
1.0
 40
1.0
 40
1.0
 40
1.0
 10
-4.3310415461
 20
20.7903688829
 30
0.0
 10
-4.305715925
 20
20.8048649051
 30
0.0
 10
-4.2804226894
 20
20.8194197846
 30
0.0
 10
-4.2549559952
 20
20.8336665119
 30
0.0
 11
-4.3310415461
 21
20.7903688829
 31
0.0
 11
-4.2549559952
 21
20.8336665119
 31
0.0
  0
SPLINE
  5
628
100
AcDbEntity
  8
SMUSSO
100
AcDbSpline
 62
7
  6
CONTINUOUS
 70
0
 71
3
 72
15
 73
11
 74
9
 42
0.0000001
 43
0.0000001
 44
0.0000000001
 12
0.7136975617
 22
4.5854956354
 32
0.0
 13
4.5848937945
 23
0.7175537088
 33
0.0
 40
0.0
 40
0.0
 40
0.0
 40
0.0
 40
0.1252408004
 40
0.2504326944
 40
0.3755566835
 40
0.5006002478
 40
0.6255586822
 40
0.7504356905
 40
0.8752431469
 40
1.0
 40
1.0
 40
1.0
 40
1.0
 10
-3.6359010524
 20
0.5679548648
 30
0.0
 10
-3.6061063678
 20
0.759385246
 30
0.0
 10
-3.5162084448
 20
1.1381543124
 30
0.0
 10
-3.2940748864
 20
1.6774420849
 30
0.0
 10
-2.990188997
 20
2.1750730658
 30
0.0
 10
-2.6122015764
 20
2.6185234112
 30
0.0
 10
-2.1695788168
 20
2.9968909564
 30
0.0
 10
-1.6733027955
 20
3.3008659611
 30
0.0
 10
-1.1358776432
 20
3.5229835591
 30
0.0
 10
-0.7585076254
 20
3.6129537783
 30
0.0
 10
-0.5678419849
 20
3.6427936925
 30
0.0
 11
-3.6359010524
 21
0.5679548648
 31
0.0
 11
-3.5016283191
 21
1.1334375434
 31
0.0
 11
-3.280378326
 21
1.6706381558
 31
0.0
 11
-2.9777300279
 21
2.1661923915
 31
0.0
 11
-2.6012908181
 21
2.6078146445
 31
0.0
 11
-2.1604854963
 21
2.9846024037
 31
0.0
 11
-1.6663025484
 21
3.2872960592
 31
0.0
 11
-1.1310087335
 21
3.5084900218
 31
0.0
 11
-0.5678419849
 21
3.6427936925
 31
0.0
  0
ELLIPSE
  5
629
100
AcDbEntity
  8
DRAFT
100
AcDbEllipse
 62
7
  6
CONTINUOUS
 10
-0.8559996014
 20
18.1227773529
 30
0.0
 11
-2.5700871559
 21
6.3735109228
 31
0.0
 40
0.942904759
 41
-4.3898742718
 42
-4.3728393399
  0
ELLIPSE
  5
62A
100
AcDbEntity
  8
DRAFT
100
AcDbEllipse
 62
7
  6
CONTINUOUS
 10
2.6007975158
 20
16.0
 30
0.0
 11
7.8087376202
 21
0.0
 31
0.0
 40
0.942904759
 41
-2.2826212818
 42
-2.2685244207
  0
ELLIPSE
  5
62B
100
AcDbEntity
  8
DRAFT
100
AcDbEllipse
 62
7
  6
CONTINUOUS
 10
-2.6007975158
 20
16.0
 30
0.0
 11
7.8087376202
 21
-0.0
 31
0.0
 40
0.942904759
 41
-0.8730682329
 42
-0.8589713718
  0
ELLIPSE
  5
62C
100
AcDbEntity
  8
DRAFT
100
AcDbEllipse
 62
7
  6
CONTINUOUS
 10
0.8559996014
 20
18.1227773529
 30
0.0
 11
2.5700871559
 21
6.3735109228
 31
0.0
 40
0.942904759
 41
-1.9103459673
 42
-1.8933110353
  0
ELLIPSE
  5
62D
100
AcDbEntity
  8
RACCORDO
100
AcDbEllipse
 62
7
  6
CONTINUOUS
 10
8.2751672693
 20
0.0
 30
0.0
 11
-0.0
 21
498.8
 31
0.0
 40
0.0174550649
 41
1.5299814749
 42
1.5347286232
  0
ELLIPSE
  5
62E
100
AcDbEntity
  8
RACCORDO
100
AcDbEllipse
 62
7
  6
CONTINUOUS
 10
0.9232906907
 20
13.7103487371
 30
0.0
 11
-2.7721245915
 21
6.8745397692
 31
0.0
 40
0.942904759
 41
1.2131012967
 42
1.2139427264
  0
ELLIPSE
  5
62F
100
AcDbEntity
  8
RACCORDO
100
AcDbEllipse
 62
7
  6
CONTINUOUS
 10
-8.2751672693
 20
0.0
 30
0.0
 11
-0.0
 21
498.8
 31
0.0
 40
0.0174550649
 41
-1.5347286232
 42
-1.5299814749
  0
ELLIPSE
  5
630
100
AcDbEntity
  8
RACCORDO
100
AcDbEllipse
 62
7
  6
CONTINUOUS
 10
13.8251672693
 20
0.0
 30
0.0
 11
0.0
 21
498.8
 31
0.0
 40
0.0174550649
 41
1.5312423157
 42
1.5387138386
  0
ELLIPSE
  5
631
100
AcDbEntity
  8
RACCORDO
100
AcDbEllipse
 62
7
  6
CONTINUOUS
 10
-0.9232906907
 20
13.7103487371
 30
0.0
 11
2.7721245915
 21
6.8745397692
 31
0.0
 40
0.942904759
 41
-1.2139427264
 42
-1.2131012967
  0
ELLIPSE
  5
632
100
AcDbEntity
  8
RACCORDO
100
AcDbEllipse
 62
7
  6
CONTINUOUS
 10
0.0598076523
 20
22.0953720164
 30
0.0
 11
0.0300136675
 21
0.3031910442
 31
0.0
 40
0.9846622838
 41
-1.4705984321
 42
-0.6697560477
  0
ELLIPSE
  5
633
100
AcDbEntity
  8
RACCORDO
100
AcDbEllipse
 62
7
  6
CONTINUOUS
 10
-13.8251672693
 20
0.0
 30
0.0
 11
0.0
 21
498.8
 31
0.0
 40
0.0174550649
 41
-1.5387138386
 42
-1.5312423157
  0
ELLIPSE
  5
634
100
AcDbEntity
  8
RACCORDO
100
AcDbEllipse
 62
7
  6
CONTINUOUS
 10
-0.0598076523
 20
22.0953720164
 30
0.0
 11
-0.0300136675
 21
0.3031910442
 31
0.0
 40
0.9846622838
 41
6.9529413549
 42
7.7537837393
  0
ELLIPSE
  5
635
100
AcDbEntity
  8
RACCORDO
100
AcDbEllipse
 62
7
  6
CONTINUOUS
 10
-0.72152271
 20
17.7892906327
 30
0.0
 11
-2.1663284032
 21
5.3722371665
 31
0.0
 40
0.942904759
 41
-4.4029886673
 42
-4.3728393399
  0
ELLIPSE
  5
636
100
AcDbEntity
  8
RACCORDO
100
AcDbEllipse
 62
7
  6
CONTINUOUS
 10
0.72152271
 20
17.7892906327
 30
0.0
 11
2.1663284032
 21
5.3722371665
 31
0.0
 40
0.942904759
 41
-1.9103459673
 42
-1.8801966399
  0
ELLIPSE
  5
637
100
AcDbEntity
  8
RACCORDO
100
AcDbEllipse
 62
7
  6
CONTINUOUS
 10
0.4154479167
 20
20.3323944969
 30
0.0
 11
-0.0
 21
0.5
 31
0.0
 40
0.0174550649
 41
-1.5299814749
 42
-0.0523598776
  0
ELLIPSE
  5
638
100
AcDbEntity
  8
RACCORDO
100
AcDbEllipse
 62
7
  6
CONTINUOUS
 10
-0.4154479167
 20
20.3323944969
 30
0.0
 11
-0.0
 21
0.5
 31
0.0
 40
0.0174550649
 41
0.0523598776
 42
1.5299814749
  0
ELLIPSE
  5
639
100
AcDbEntity
  8
RACCORDO
100
AcDbEllipse
 62
7
  6
CONTINUOUS
 10
-5.5474214585
 20
18.147807809
 30
0.0
 11
0.5
 21
0.0
 31
0.0
 40
0.0524077793
 41
-2.3561944902
 42
-1.5707963268
  0
ELLIPSE
  5
63A
100
AcDbEntity
  8
RACCORDO
100
AcDbEllipse
 62
7
  6
CONTINUOUS
 10
-6.0481300071
 20
18.1740488321
 30
0.0
 11
0.5
 21
-0.0
 31
0.0
 40
0.0524077793
 41
-3.1241393611
 42
-2.3561944902
  0
ELLIPSE
  5
63B
100
AcDbEntity
  8
RACCORDO
100
AcDbEllipse
 62
7
  6
CONTINUOUS
 10
-5.4550913568
 20
18.1347058641
 30
0.0
 11
0.25
 21
0.0
 31
0.0
 40
0.0524077793
 41
-1.5707963268
 42
-0.0174532925
  0
ELLIPSE
  5
63C
100
AcDbEntity
  8
RACCORDO
100
AcDbEllipse
 62
7
  6
CONTINUOUS
 10
5.5474214585
 20
18.147807809
 30
0.0
 11
0.5
 21
-0.0
 31
0.0
 40
0.0524077793
 41
-1.5707963268
 42
-0.7853981634
  0
ELLIPSE
  5
63D
100
AcDbEntity
  8
RACCORDO
100
AcDbEllipse
 62
7
  6
CONTINUOUS
 10
5.4550913568
 20
18.1347058641
 30
0.0
 11
0.25
 21
0.0
 31
0.0
 40
0.0524077793
 41
-3.1241393611
 42
-1.5707963268
  0
ELLIPSE
  5
63E
100
AcDbEntity
  8
RACCORDO
100
AcDbEllipse
 62
7
  6
CONTINUOUS
 10
6.0481300071
 20
18.1740488321
 30
0.0
 11
0.5
 21
0.0
 31
0.0
 40
0.0524077793
 41
-0.7853981634
 42
-0.0174532925
  0
ELLIPSE
  5
63F
100
AcDbEntity
  8
RACCORDO
100
AcDbEllipse
 62
7
  6
CONTINUOUS
 10
19.4992383598
 20
23.7492383598
 30
0.0
 11
3.5366109458
 21
3.5366109458
 31
0.0
 40
0.9996954599
 41
-0.7852458701
 42
0.7852458701
  0
ELLIPSE
  5
640
100
AcDbEntity
  8
RACCORDO
100
AcDbEllipse
 62
7
  6
CONTINUOUS
 10
19.4992383598
 20
-23.7492383598
 30
0.0
 11
3.5366109458
 21
-3.5366109458
 31
0.0
 40
0.9996954599
 41
-0.7852458701
 42
0.7852458701
  0
ELLIPSE
  5
641
100
AcDbEntity
  8
RACCORDO
100
AcDbEllipse
 62
7
  6
CONTINUOUS
 10
-19.4992383598
 20
-23.7492383598
 30
0.0
 11
-3.5366109458
 21
-3.5366109458
 31
0.0
 40
0.9996954599
 41
-0.7852458701
 42
0.7852458701
  0
ELLIPSE
  5
642
100
AcDbEntity
  8
RACCORDO
100
AcDbEllipse
 62
7
  6
CONTINUOUS
 10
-19.4992383598
 20
23.7492383598
 30
0.0
 11
-3.5366109458
 21
3.5366109458
 31
0.0
 40
0.9996954599
 41
-0.7852458701
 42
0.7852458701
  0
ELLIPSE
  5
643
100
AcDbEntity
  8
RACCORDO
100
AcDbEllipse
 62
7
  6
CONTINUOUS
 10
11.9781430868
 20
-27.1980014286
 30
0.0
 11
0.25
 21
-0.0
 31
0.0
 40
0.0174550649
 41
-1.5707963268
 42
-0.0174532925
  0
ELLIPSE
  5
644
100
AcDbEntity
  8
RACCORDO
100
AcDbEllipse
 62
7
  6
CONTINUOUS
 10
10.5218569132
 20
-27.1980014286
 30
0.0
 11
0.25
 21
0.0
 31
0.0
 40
0.0174550649
 41
-3.1241393611
 42
-1.5707963268
  0
ELLIPSE
  5
645
100
AcDbEntity
  8
RACCORDO
100
AcDbEllipse
 62
7
  6
CONTINUOUS
 10
-29.6594577109
 20
-0.0
 30
0.0
 11
-0.0
 21
500.0
 31
0.0
 40
0.0174550649
 41
-1.5564923406
 42
-1.5517951834
  0
ELLIPSE
  5
646
100
AcDbEntity
  8
RACCORDO
100
AcDbEllipse
 62
7
  6
CONTINUOUS
 10
11.9781430868
 20
27.1980014286
 30
0.0
 11
0.25
 21
-0.0
 31
0.0
 40
0.0174550649
 41
0.0174532925
 42
1.5707963268
  0
ELLIPSE
  5
647
100
AcDbEntity
  8
RACCORDO
100
AcDbEllipse
 62
7
  6
CONTINUOUS
 10
10.5218569132
 20
27.1980014286
 30
0.0
 11
0.25
 21
-0.0
 31
0.0
 40
0.0174550649
 41
1.5707963268
 42
3.1241393611
  0
ELLIPSE
  5
648
100
AcDbEntity
  8
SMUSSO
100
AcDbEllipse
 62
7
  6
CONTINUOUS
 10
8.1594577109
 20
0.0
 30
0.0
 11
-0.0
 21
500.0
 31
0.0
 40
0.0174550649
 41
1.5545888245
 42
1.5635106605
  0
ELLIPSE
  5
649
100
AcDbEntity
  8
RACCORDO
100
AcDbEllipse
 62
7
  6
CONTINUOUS
 10
-10.5218569132
 20
-27.1980014286
 30
0.0
 11
0.25
 21
-0.0
 31
0.0
 40
0.0174550649
 41
-1.5707963268
 42
-0.0174532925
  0
ELLIPSE
  5
64A
100
AcDbEntity
  8
RACCORDO
100
AcDbEllipse
 62
7
  6
CONTINUOUS
 10
-11.9781430868
 20
-27.1980014286
 30
0.0
 11
0.25
 21
0.0
 31
0.0
 40
0.0174550649
 41
-3.1241393611
 42
-1.6583357412
  0
ELLIPSE
  5
64B
100
AcDbEntity
  8
SMUSSO
100
AcDbEllipse
 62
7
  6
CONTINUOUS
 10
-8.1594577109
 20
0.0
 30
0.0
 11
-0.0
 21
500.0
 31
0.0
 40
0.0174550649
 41
-1.5635106605
 42
-1.5545888245
  0
ELLIPSE
  5
64C
100
AcDbEntity
  8
RACCORDO
100
AcDbEllipse
 62
7
  6
CONTINUOUS
 10
-11.9781430868
 20
27.1980014286
 30
0.0
 11
0.25
 21
-0.0
 31
0.0
 40
0.0174550649
 41
1.5707963268
 42
3.1241393611
  0
ELLIPSE
  5
64D
100
AcDbEntity
  8
RACCORDO
100
AcDbEllipse
 62
7
  6
CONTINUOUS
 10
-10.5218569132
 20
27.1980014286
 30
0.0
 11
0.25
 21
-0.0
 31
0.0
 40
0.0174550649
 41
0.0174532925
 42
1.5707963268
  0
ELLIPSE
  5
64E
100
AcDbEntity
  8
RACCORDO
100
AcDbEllipse
 62
7
  6
CONTINUOUS
 10
29.6594577109
 20
0.0
 30
0.0
 11
-0.0
 21
500.0
 31
0.0
 40
0.0174550649
 41
1.5517951834
 42
1.5564923406
  0
ELLIPSE
  5
64F
100
AcDbEntity
  8
RACCORDO
100
AcDbEllipse
 62
7
  6
CONTINUOUS
 10
34.6745069614
 20
0.0
 30
0.0
 11
-288.7521061155
 21
499.980949928
 31
0.0
 40
0.0151153781
 41
1.550763005
 42
1.5511030018
  0
ELLIPSE
  5
650
100
AcDbEntity
  8
RACCORDO
100
AcDbEllipse
 62
7
  6
CONTINUOUS
 10
34.6745069614
 20
-0.0
 30
0.0
 11
288.7521061155
 21
499.980949928
 31
0.0
 40
0.0151153781
 41
-4.6926956554
 42
-4.6923556586
  0
ELLIPSE
  5
651
100
AcDbEntity
  8
RACCORDO
100
AcDbEllipse
 62
7
  6
CONTINUOUS
 10
29.6594577109
 20
0.0
 30
0.0
 11
-0.0
 21
500.0
 31
0.0
 40
0.0174550649
 41
-4.6980849942
 42
-4.693387837
  0
ELLIPSE
  5
652
100
AcDbEntity
  8
SMUSSO
100
AcDbEllipse
 62
7
  6
CONTINUOUS
 10
-8.1594577109
 20
0.0
 30
0.0
 11
-0.0
 21
500.0
 31
0.0
 40
0.0174550649
 41
-1.5897974701
 42
-1.5780819932
  0
ELLIPSE
  5
653
100
AcDbEntity
  8
SMUSSO
100
AcDbEllipse
 62
7
  6
CONTINUOUS
 10
8.1594577109
 20
0.0
 30
0.0
 11
-0.0
 21
500.0
 31
0.0
 40
0.0174550649
 41
-4.7051033139
 42
-4.693387837
  0
ELLIPSE
  5
654
100
AcDbEntity
  8
RACCORDO
100
AcDbEllipse
 62
7
  6
CONTINUOUS
 10
-29.6594577109
 20
-0.0
 30
0.0
 11
-0.0
 21
500.0
 31
0.0
 40
0.0174550649
 41
-1.5897974701
 42
-1.585100313
  0
ELLIPSE
  5
655
100
AcDbEntity
  8
RACCORDO
100
AcDbEllipse
 62
7
  6
CONTINUOUS
 10
-34.6745069614
 20
0.0
 30
0.0
 11
-288.7521061155
 21
499.980949928
 31
0.0
 40
0.0151153781
 41
-1.5908296486
 42
-1.5904896518
  0
ELLIPSE
  5
656
100
AcDbEntity
  8
DRAFT
100
AcDbEllipse
 62
7
  6
CONTINUOUS
 10
30.1594577109
 20
0.0
 30
0.0
 11
-0.0
 21
500.0
 31
0.0
 40
0.0174550649
 41
-4.7049993069
 42
-4.7014249608
  0
ELLIPSE
  5
657
100
AcDbEntity
  8
DRAFT
100
AcDbEllipse
 62
7
  6
CONTINUOUS
 10
30.1594577109
 20
0.0
 30
0.0
 11
-0.0
 21
500.0
 31
0.0
 40
0.0174550649
 41
1.5598323072
 42
1.5634066533
  0
ELLIPSE
  5
658
100
AcDbEntity
  8
DRAFT
100
AcDbEllipse
 62
7
  6
CONTINUOUS
 10
-30.1594577109
 20
0.0
 30
0.0
 11
-0.0
 21
500.0
 31
0.0
 40
0.0174550649
 41
-1.5634066533
 42
-1.5598323072
  0
ELLIPSE
  5
659
100
AcDbEntity
  8
DRAFT
100
AcDbEllipse
 62
7
  6
CONTINUOUS
 10
-30.1594577109
 20
0.0
 30
0.0
 11
-0.0
 21
500.0
 31
0.0
 40
0.0174550649
 41
-1.5817603464
 42
-1.5781860003
  0
ELLIPSE
  5
65A
100
AcDbEntity
  8
RACCORDO
100
AcDbEllipse
 62
7
  6
CONTINUOUS
 10
4.0226915844
 20
-15.8437138263
 30
0.0
 11
-0.0
 21
0.5
 31
0.0
 40
0.0174550649
 41
-1.5707963268
 42
-0.0174532925
  0
ELLIPSE
  5
65B
100
AcDbEntity
  8
RACCORDO
100
AcDbEllipse
 62
7
  6
CONTINUOUS
 10
4.0226915844
 20
-12.1562861737
 30
0.0
 11
-0.0
 21
0.5
 31
0.0
 40
0.0174550649
 41
-3.1241393611
 42
-1.5707963268
  0
ELLIPSE
  5
65C
100
AcDbEntity
  8
RACCORDO
100
AcDbEllipse
 62
7
  6
CONTINUOUS
 10
4.9773084156
 20
-15.8437138263
 30
0.0
 11
0.0
 21
0.5
 31
0.0
 40
0.0174550649
 41
0.0174532925
 42
1.5707963268
  0
ELLIPSE
  5
65D
100
AcDbEntity
  8
RACCORDO
100
AcDbEllipse
 62
7
  6
CONTINUOUS
 10
4.9773084156
 20
-12.1562861737
 30
0.0
 11
0.0
 21
0.5
 31
0.0
 40
0.0174550649
 41
-4.7123889804
 42
-3.1590459461
  0
ELLIPSE
  5
65E
100
AcDbEntity
  8
RACCORDO
100
AcDbEllipse
 62
7
  6
CONTINUOUS
 10
-4.0226915844
 20
-15.8437138263
 30
0.0
 11
0.0
 21
0.5
 31
0.0
 40
0.0174550649
 41
0.0174532925
 42
1.5707963268
  0
ELLIPSE
  5
65F
100
AcDbEntity
  8
RACCORDO
100
AcDbEllipse
 62
7
  6
CONTINUOUS
 10
-4.0226915844
 20
-12.1562861737
 30
0.0
 11
0.0
 21
0.5
 31
0.0
 40
0.0174550649
 41
-4.7123889804
 42
-3.1590459461
  0
ELLIPSE
  5
660
100
AcDbEntity
  8
RACCORDO
100
AcDbEllipse
 62
7
  6
CONTINUOUS
 10
-4.9773084156
 20
-15.8437138263
 30
0.0
 11
0.0
 21
0.5
 31
0.0
 40
0.0174550649
 41
-1.5707963268
 42
-0.0174532925
  0
ELLIPSE
  5
661
100
AcDbEntity
  8
RACCORDO
100
AcDbEllipse
 62
7
  6
CONTINUOUS
 10
-4.9773084156
 20
-12.1562861737
 30
0.0
 11
-0.0
 21
0.5
 31
0.0
 40
0.0174550649
 41
-3.1241393611
 42
-1.5707963268
  0
ELLIPSE
  5
662
100
AcDbEntity
  8
DRAFT
100
AcDbEllipse
 62
7
  6
CONTINUOUS
 10
2.9238835095
 20
-5.7
 30
0.0
 11
-0.0
 21
200.0
 31
0.0
 40
0.0174550649
 41
-4.693387837
 42
-4.6783822675
  0
ELLIPSE
  5
663
100
AcDbEntity
  8
DRAFT
100
AcDbEllipse
 62
7
  6
CONTINUOUS
 10
2.9238835095
 20
-5.7
 30
0.0
 11
-0.0
 21
200.0
 31
0.0
 40
0.0174550649
 41
-4.6633692473
 42
-4.6379406051
  0
ELLIPSE
  5
664
100
AcDbEntity
  8
DRAFT
100
AcDbEllipse
 62
7
  6
CONTINUOUS
 10
-24.4238835095
 20
-5.7
 30
0.0
 11
-0.0
 21
200.0
 31
0.0
 40
0.0174550649
 41
-1.645244702
 42
-1.5897974701
  0
ELLIPSE
  5
665
100
AcDbEntity
  8
RACCORDO
100
AcDbEllipse
 62
7
  6
CONTINUOUS
 10
-11.999961918
 20
28.049961918
 30
0.0
 11
0.1768305473
 21
-0.1768305473
 31
0.0
 40
0.9996954599
 41
2.3563467834
 42
3.9268385237
  0
ELLIPSE
  5
666
100
AcDbEntity
  8
RACCORDO
100
AcDbEllipse
 62
7
  6
CONTINUOUS
 10
-10.500038082
 20
28.049961918
 30
0.0
 11
0.1768305473
 21
0.1768305473
 31
0.0
 40
0.9996954599
 41
-0.7852458701
 42
0.7852458702
  0
ELLIPSE
  5
667
100
AcDbEntity
  8
RACCORDO
100
AcDbEllipse
 62
7
  6
CONTINUOUS
 10
11.999961918
 20
28.049961918
 30
0.0
 11
0.1768305473
 21
0.1768305473
 31
0.0
 40
0.9996954599
 41
-0.7852458702
 42
0.7852458701
  0
ELLIPSE
  5
668
100
AcDbEntity
  8
RACCORDO
100
AcDbEllipse
 62
7
  6
CONTINUOUS
 10
10.500038082
 20
28.049961918
 30
0.0
 11
0.1768305473
 21
-0.1768305473
 31
0.0
 40
0.9996954599
 41
2.3563467834
 42
3.9268385237
  0
ELLIPSE
  5
669
100
AcDbEntity
  8
RACCORDO
100
AcDbEllipse
 62
7
  6
CONTINUOUS
 10
11.999961918
 20
-28.049961918
 30
0.0
 11
0.1768305473
 21
-0.1768305473
 31
0.0
 40
0.9996954599
 41
-0.7852458702
 42
0.7852458701
  0
ELLIPSE
  5
66A
100
AcDbEntity
  8
RACCORDO
100
AcDbEllipse
 62
7
  6
CONTINUOUS
 10
10.500038082
 20
-28.049961918
 30
0.0
 11
0.1768305473
 21
0.1768305473
 31
0.0
 40
0.9996954599
 41
-3.9268385237
 42
-2.3563467834
  0
ELLIPSE
  5
66B
100
AcDbEntity
  8
RACCORDO
100
AcDbEllipse
 62
7
  6
CONTINUOUS
 10
-10.500038082
 20
-28.049961918
 30
0.0
 11
0.1768305473
 21
-0.1768305473
 31
0.0
 40
0.9996954599
 41
-0.7852458701
 42
0.7852458702
  0
ELLIPSE
  5
66C
100
AcDbEntity
  8
RACCORDO
100
AcDbEllipse
 62
7
  6
CONTINUOUS
 10
-11.999961918
 20
-28.049961918
 30
0.0
 11
0.1768305473
 21
0.1768305473
 31
0.0
 40
0.9996954599
 41
-3.9268385237
 42
-2.3563467834
  0
ELLIPSE
  5
66D
100
AcDbEntity
  8
DRAFT
100
AcDbEllipse
 62
7
  6
CONTINUOUS
 10
-2.9238835095
 20
-5.7
 30
0.0
 11
-0.0
 21
200.0
 31
0.0
 40
0.0174550649
 41
-1.6048030397
 42
-1.5897974701
  0
ELLIPSE
  5
66E
100
AcDbEntity
  8
DRAFT
100
AcDbEllipse
 62
7
  6
CONTINUOUS
 10
-2.9238835095
 20
-5.7
 30
0.0
 11
-0.0
 21
200.0
 31
0.0
 40
0.0174550649
 41
-1.645244702
 42
-1.6198160599
  0
ELLIPSE
  5
66F
100
AcDbEntity
  8
DRAFT
100
AcDbEllipse
 62
7
  6
CONTINUOUS
 10
24.4238835095
 20
-5.7
 30
0.0
 11
-0.0
 21
200.0
 31
0.0
 40
0.0174550649
 41
-4.693387837
 42
-4.6379406051
  0
ELLIPSE
  5
670
100
AcDbEntity
  8
DRAFT
100
AcDbEllipse
 62
7
  6
CONTINUOUS
 10
1.5761164905
 20
-5.7
 30
0.0
 11
-0.0
 21
200.0
 31
0.0
 40
0.0174550649
 41
-1.6311434272
 42
-1.6188148514
  0
ELLIPSE
  5
671
100
AcDbEntity
  8
DRAFT
100
AcDbEllipse
 62
7
  6
CONTINUOUS
 10
7.4238835095
 20
-5.7
 30
0.0
 11
-0.0
 21
200.0
 31
0.0
 40
0.0174550649
 41
-4.6633693299
 42
-4.65204188
  0
ELLIPSE
  5
672
100
AcDbEntity
  8
DRAFT
100
AcDbEllipse
 62
7
  6
CONTINUOUS
 10
-1.5761164905
 20
-5.7
 30
0.0
 11
-0.0
 21
200.0
 31
0.0
 40
0.0174550649
 41
-4.6633693299
 42
-4.65204188
  0
ELLIPSE
  5
673
100
AcDbEntity
  8
DRAFT
100
AcDbEllipse
 62
7
  6
CONTINUOUS
 10
-7.4238835095
 20
-5.7
 30
0.0
 11
-0.0
 21
200.0
 31
0.0
 40
0.0174550649
 41
-1.6311434272
 42
-1.6198159773
  0
ELLIPSE
  5
674
100
AcDbEntity
  8
RACCORDO
100
AcDbEllipse
 62
7
  6
CONTINUOUS
 10
-21.5280042679
 20
-20.8322951063
 30
0.0
 11
0.5
 21
0.0
 31
0.0
 40
0.0524077793
 41
-0.0523598776
 42
-0.0174532925
  0
ELLIPSE
  5
675
100
AcDbEntity
  8
RACCORDO
100
AcDbEllipse
 62
7
  6
CONTINUOUS
 10
21.5280042679
 20
-20.8322951063
 30
0.0
 11
0.5
 21
0.0
 31
0.0
 40
0.0524077793
 41
-3.1241393611
 42
-3.089232776
  0
ELLIPSE
  5
676
100
AcDbEntity
  8
RACCORDO
100
AcDbEllipse
 62
7
  6
CONTINUOUS
 10
-21.5280042679
 20
20.8322951063
 30
0.0
 11
0.5
 21
-0.0
 31
0.0
 40
0.0524077793
 41
0.0174532925
 42
0.0523598776
  0
ELLIPSE
  5
677
100
AcDbEntity
  8
RACCORDO
100
AcDbEllipse
 62
7
  6
CONTINUOUS
 10
21.5280042679
 20
20.8322951063
 30
0.0
 11
0.5
 21
-0.0
 31
0.0
 40
0.0524077793
 41
3.089232776
 42
3.1241393611
  0
ELLIPSE
  5
678
100
AcDbEntity
  8
DRAFT
100
AcDbEllipse
 62
7
  6
CONTINUOUS
 10
4.4261164905
 20
5.7
 30
0.0
 11
-0.0
 21
200.0
 31
0.0
 40
0.0174550649
 41
-1.5192735344
 42
-1.4963479515
  0
ELLIPSE
  5
679
100
AcDbEntity
  8
DRAFT
100
AcDbEllipse
 62
7
  6
CONTINUOUS
 10
24.4238835095
 20
5.7
 30
0.0
 11
-0.0
 21
200.0
 31
0.0
 40
0.0174550649
 41
1.4963479515
 42
1.5517951834
  0
ELLIPSE
  5
67A
100
AcDbEntity
  8
DRAFT
100
AcDbEllipse
 62
7
  6
CONTINUOUS
 10
-24.4238835095
 20
5.7
 30
0.0
 11
-0.0
 21
200.0
 31
0.0
 40
0.0174550649
 41
-1.5517951834
 42
-1.4963479515
  0
ELLIPSE
  5
67B
100
AcDbEntity
  8
DRAFT
100
AcDbEllipse
 62
7
  6
CONTINUOUS
 10
-4.4261164905
 20
5.7
 30
0.0
 11
-0.0
 21
200.0
 31
0.0
 40
0.0174550649
 41
1.4963479515
 42
1.5192735344
  0
ELLIPSE
  5
67C
100
AcDbEntity
  8
RACCORDO
100
AcDbEllipse
 62
7
  6
CONTINUOUS
 10
-34.6745069614
 20
0.0
 30
0.0
 11
288.7521061155
 21
499.980949928
 31
0.0
 40
0.0151153781
 41
-1.5511030018
 42
-1.550763005
  0
ENDSEC
  0
SECTION
  2
OBJECTS
  0
DICTIONARY
  5
C
100
AcDbDictionary
280
0
281
1
  3
ACAD_GROUP
350
D
  3
ACAD_MLINESTYLE
350
17
  3
ACAD_LAYOUT
350
1A
  3
ACAD_PLOTSETTINGS
350
19
  3
ACAD_PLOTSTYLENAME
350
E
  0
DICTIONARY
  5
D
102
{ACAD_REACTORS
330
C
102
}
100
AcDbDictionary
280
0
281
1
  0
ACDBDICTIONARYWDFLT
  5
E
102
{ACAD_REACTORS
330
C
102
}
100
AcDbDictionary
281
1
  3
Normal
350
F
100
AcDbDictionaryWithDefault
340
F
  0
DICTIONARY
  5
17
102
{ACAD_REACTORS
330
C
102
}
100
AcDbDictionary
280
0
281
1
  3
Standard
350
18
  0
DICTIONARY
  5
19
102
{ACAD_REACTORS
330
C
102
}
100
AcDbDictionary
281
1
  0
DICTIONARY
  5
1A
102
{ACAD_REACTORS
330
C
102
}
100
AcDbDictionary
281
1
  3
Model
350
67D
  3
Layout1
350
67E
  0
ACDBPLACEHOLDER
  5
F
102
{ACAD_REACTORS
330
E
102
}
  0
MLINESTYLE
  5
18
102
{ACAD_REACTORS
330
17
102
}
100
AcDbMlineStyle
  2
STANDARD
 70
0
  3

 62
256
 51
90.0
 52
90.0
 71
2
 49
0.5
 62
256
  6
BYLAYER
 49
-0.5
 62
256
  6
BYLAYER
  0
LAYOUT
  5
67D
102
{ACAD_REACTORS
330
1A
102
}
100
AcDbPlotSettings
  1

  2
none_device
  4
ISO_A4_(297.00_x_210.00_MM)
  6

 40
0.0
 41
0.0
 42
0.0
 43
0.0
 44
297.0
 45
210.0
 46
0.0
 47
0.0
 48
0.0
 49
0.0
140
0.0
141
0.0
142
1.0
143
1.0
 70
1024
 72
1
 73
0
 74
0
  7

 75
0
147
1.0
148
0.0
149
0.0
100
AcDbLayout
  1
Model
 70
0
 71
0
 10
0.0
 20
0.0
 11
297.0
 21
210.0
 12
0.0
 22
0.0
 32
0.0
 14
0.0
 24
0.0
 34
0.0
 15
0.0
 25
0.0
 35
0.0
146
0.0
 13
0.0
 23
0.0
 33
0.0
 16
1.0
 26
0.0
 36
0.0
 17
0.0
 27
1.0
 37
0.0
 76
0
330
214
345
0
346
0
  0
LAYOUT
  5
67E
102
{ACAD_REACTORS
330
1A
102
}
100
AcDbPlotSettings
  1

  2
none_device
  4
ISO_A4_(297.00_x_210.00_MM)
  6

 40
0.0
 41
0.0
 42
0.0
 43
0.0
 44
297.0
 45
210.0
 46
0.0
 47
0.0
 48
0.0
 49
0.0
140
0.0
141
0.0
142
1.0
143
1.0
 70
0
 72
1
 73
0
 74
0
  7

 75
0
147
1.0
148
0.0
149
0.0
100
AcDbLayout
  1
Layout1
 70
0
 71
1
 10
0.0
 20
0.0
 11
297.0
 21
210.0
 12
0.0
 22
0.0
 32
0.0
 14
0.0
 24
0.0
 34
0.0
 15
0.0
 25
0.0
 35
0.0
146
0.0
 13
0.0
 23
0.0
 33
0.0
 16
1.0
 26
0.0
 36
0.0
 17
0.0
 27
1.0
 37
0.0
 76
0
330
215
345
0
346
0
  0
ENDSEC
  0
EOF
