  0
SECTION
  2
HEADER
  9
$ACADVER
  1
AC1024
  9
$DWGCODEPAGE
  3
ANSI_1252
  9
$EXTMAX
 10
297.0
 20
210.0
 30
0.0
  9
$EXTMIN
 10
0.0
 20
0.0
 30
0.0
  9
$LIMMIN
 10
0.0
 20
0.0
  9
$LIMMAX
 10
297.0
 20
210.0
  9
$VIEWCTR
 10
148.5
 20
105.0
  9
$VIEWSIZE
 40
210.0
  9
$CLAYER
  8
0
  9
$LTSCALE
 40
16.335
  9
$CELTYPE
  6
BYLAYER
  9
$DIMSCALE
 40
1.0
  9
$DIMASZ
 40
3.0
  9
$DIMEXO
 40
0.5
  9
$DIMDLI
 40
11.286
  9
$DIMEXE
 40
1.5
  9
$DIMCEN
 40
2.673
  9
$DIMLFAC
 40
1.0
  9
$DIMBLK
  1
_FILLED
  9
$DIMALT
 70
0
  9
$DIMALTF
 40
0.0393700787
  9
$DIMTXT
 40
3.0
  9
$DIMTOL
 70
1
  9
$DIMLIM
 70
0
  9
$DIMTFAC
 40
1.0
  9
$DIMTP
 40
0.01
  9
$DIMTM
 40
0.01
  9
$DIMGAP
 40
0.625
  9
$DIMDSEP
 70
44
  9
$AUNITS
 70
0
  9
$PDMODE
 70
3
  9
$PDSIZE
 40
3.0
  9
$HANDSEED
  5
82C
  9
$TILEMODE
 70
1
  9
$MEASUREMENT
 70
1
  9
$INSUNITS
 70
4
  0
ENDSEC
  0
SECTION
  2
CLASSES
  0
CLASS
  1
ACDBDICTIONARYWDFLT
  2
AcDbDictionaryWithDefault
  3
AutoCAD 2000
 90
0
 91
1
280
0
281
0
  0
CLASS
  1
ACDBPLACEHOLDER
  2
AcDbPlaceHolder
  3
AutoCAD 2000
 90
0
 91
1
280
0
281
0
  0
CLASS
  1
LAYOUT
  2
AcDbLayout
  3
AutoCAD 2000
 90
0
 91
0
280
0
281
0
  0
ENDSEC
  0
SECTION
  2
TABLES
  0
TABLE
  2
VPORT
  5
8
100
AcDbSymbolTable
 70
2
  0
VPORT
  5
1F4
100
AcDbSymbolTableRecord
100
AcDbViewportTableRecord
  2
*ACTIVE
 70
0
 10
0.0
 20
0.0
 11
1.0
 21
1.0
 12
148.5
 22
105.0
 13
0.0
 23
0.0
 14
1.0
 24
1.0
 15
0.0
 25
0.0
 16
0.0
 26
0.0
 36
1.0
 17
0.0
 27
0.0
 37
0.0
 40
210.0
 41
1.4142857143
 42
50.0
 43
0.0
 44
0.0
 50
0.0
 51
0.0
 71
0
 72
100
 73
1
 74
1
 75
0
 76
0
 77
0
 78
0
  0
ENDTAB
  0
TABLE
  2
LTYPE
  5
5
100
AcDbSymbolTable
 70
6
  0
LTYPE
  5
14
100
AcDbSymbolTableRecord
100
AcDbLinetypeTableRecord
  2
BYBLOCK
 70
0
  3

 72
65
 73
0
 40
0.0
  0
LTYPE
  5
15
100
AcDbSymbolTableRecord
100
AcDbLinetypeTableRecord
  2
BYLAYER
 70
0
  3

 72
65
 73
0
 40
0.0
  0
LTYPE
  5
16
100
AcDbSymbolTableRecord
100
AcDbLinetypeTableRecord
  2
CONTINUOUS
 70
64
  3
Solid line
 72
65
 73
0
 40
0.0
  0
LTYPE
  5
1F5
100
AcDbSymbolTableRecord
100
AcDbLinetypeTableRecord
  2
CENTER
 70
64
  3
____ _ ____ _ ____ _ ____ _ ____ _ ____ _ ____
 72
65
 73
4
 40
0.6
 49
0.375
 74
0
 49
-0.075
 74
0
 49
0.075
 74
0
 49
-0.075
 74
0
  0
LTYPE
  5
1F6
100
AcDbSymbolTableRecord
100
AcDbLinetypeTableRecord
  2
HIDDEN
 70
64
  3
- - - - - - - - - - - - - - - - - - - -
 72
65
 73
2
 40
0.2
 49
0.1
 74
0
 49
-0.1
 74
0
  0
LTYPE
  5
1F7
100
AcDbSymbolTableRecord
100
AcDbLinetypeTableRecord
  2
PHANTOM
 70
64
  3
_____ _ _ _____ _ _ _____ _ _ _____
 72
65
 73
6
 40
0.8
 49
0.45
 74
0
 49
-0.05
 74
0
 49
0.1
 74
0
 49
-0.05
 74
0
 49
0.1
 74
0
 49
-0.05
 74
0
  0
LTYPE
  5
1F8
100
AcDbSymbolTableRecord
100
AcDbLinetypeTableRecord
  2
DOT
 70
64
  3
. . . . . . . . . . . . . . . . . . . .
 72
65
 73
2
 40
0.2
 49
0.1
 74
0
 49
-0.1
 74
0
  0
LTYPE
  5
1F9
100
AcDbSymbolTableRecord
100
AcDbLinetypeTableRecord
  2
DASHED
 70
64
  3
- - - - - - - - - - - - - - - - - - - -
 72
65
 73
2
 40
0.2
 49
0.1
 74
0
 49
-0.1
 74
0
  0
ENDTAB
  0
TABLE
  2
LAYER
  5
2
100
AcDbSymbolTable
 70
36
  0
LAYER
  5
10
100
AcDbSymbolTableRecord
100
AcDbLayerTableRecord
  2
0
 70
0
 62
7
  6
CONTINUOUS
370
-3
390
F
  0
LAYER
  5
1FA
100
AcDbSymbolTableRecord
100
AcDbLayerTableRecord
  2
DEFAULT_1
 70
0
 62
7
  6
CENTER
370
-3
390
F
  0
LAYER
  5
1FB
100
AcDbSymbolTableRecord
100
AcDbLayerTableRecord
  2
DEFAULT_2
 70
0
 62
7
  6
HIDDEN
370
-3
390
F
  0
LAYER
  5
1FC
100
AcDbSymbolTableRecord
100
AcDbLayerTableRecord
  2
DEFAULT_3
 70
0
 62
7
  6
PHANTOM
370
-3
390
F
  0
LAYER
  5
1FD
100
AcDbSymbolTableRecord
100
AcDbLayerTableRecord
  2
ASSI
 70
0
 62
7
  6
CONTINUOUS
370
-3
390
F
  0
LAYER
  5
1FE
100
AcDbSymbolTableRecord
100
AcDbLayerTableRecord
  2
COORDINATE
 70
0
 62
7
  6
CONTINUOUS
370
-3
390
F
  0
LAYER
  5
1FF
100
AcDbSymbolTableRecord
100
AcDbLayerTableRecord
  2
COORD_ORIGINE
 70
0
 62
7
  6
CONTINUOUS
370
-3
390
F
  0
LAYER
  5
200
100
AcDbSymbolTableRecord
100
AcDbLayerTableRecord
  2
CURVE
 70
0
 62
7
  6
CONTINUOUS
370
-3
390
F
  0
LAYER
  5
201
100
AcDbSymbolTableRecord
100
AcDbLayerTableRecord
  2
DRAFT
 70
0
 62
7
  6
CONTINUOUS
370
-3
390
F
  0
LAYER
  5
202
100
AcDbSymbolTableRecord
100
AcDbLayerTableRecord
  2
IMPORT
 70
0
 62
7
  6
CONTINUOUS
370
-3
390
F
  0
LAYER
  5
203
100
AcDbSymbolTableRecord
100
AcDbLayerTableRecord
  2
INTF_1
 70
0
 62
7
  6
CONTINUOUS
370
-3
390
F
  0
LAYER
  5
204
100
AcDbSymbolTableRecord
100
AcDbLayerTableRecord
  2
INTF_11
 70
0
 62
7
  6
CONTINUOUS
370
-3
390
F
  0
LAYER
  5
205
100
AcDbSymbolTableRecord
100
AcDbLayerTableRecord
  2
NOTE
 70
0
 62
7
  6
CONTINUOUS
370
-3
390
F
  0
LAYER
  5
206
100
AcDbSymbolTableRecord
100
AcDbLayerTableRecord
  2
PIANI
 70
0
 62
7
  6
CONTINUOUS
370
-3
390
F
  0
LAYER
  5
207
100
AcDbSymbolTableRecord
100
AcDbLayerTableRecord
  2
PIANI_ORIGINE
 70
0
 62
7
  6
CONTINUOUS
370
-3
390
F
  0
LAYER
  5
208
100
AcDbSymbolTableRecord
100
AcDbLayerTableRecord
  2
PIANI_RIFERIMENTO
 70
0
 62
7
  6
CONTINUOUS
370
-3
390
F
  0
LAYER
  5
209
100
AcDbSymbolTableRecord
100
AcDbLayerTableRecord
  2
PIANI_SFORMO
 70
0
 62
7
  6
CONTINUOUS
370
-3
390
F
  0
LAYER
  5
20A
100
AcDbSymbolTableRecord
100
AcDbLayerTableRecord
  2
PUNTI
 70
0
 62
7
  6
CONTINUOUS
370
-3
390
F
  0
LAYER
  5
20B
100
AcDbSymbolTableRecord
100
AcDbLayerTableRecord
  2
RACCORDO
 70
0
 62
7
  6
CONTINUOUS
370
-3
390
F
  0
LAYER
  5
20C
100
AcDbSymbolTableRecord
100
AcDbLayerTableRecord
  2
SMUSSO
 70
0
 62
7
  6
CONTINUOUS
370
-3
390
F
  0
LAYER
  5
20D
100
AcDbSymbolTableRecord
100
AcDbLayerTableRecord
  2
SNAPLINE
 70
0
 62
7
  6
CONTINUOUS
370
-3
390
F
  0
LAYER
  5
20E
100
AcDbSymbolTableRecord
100
AcDbLayerTableRecord
  2
SUPERFICI
 70
0
 62
7
  6
CONTINUOUS
370
-3
390
F
  0
LAYER
  5
20F
100
AcDbSymbolTableRecord
100
AcDbLayerTableRecord
  2
TRASH
 70
0
 62
7
  6
CONTINUOUS
370
-3
390
F
  0
LAYER
  5
210
100
AcDbSymbolTableRecord
100
AcDbLayerTableRecord
  2
XSEC_DATUMS
 70
0
 62
7
  6
CONTINUOUS
370
-3
390
F
  0
ENDTAB
  0
TABLE
  2
STYLE
  5
3
100
AcDbSymbolTable
 70
1
  0
STYLE
  5
11
100
AcDbSymbolTableRecord
100
AcDbTextStyleTableRecord
  2
STANDARD
 70
0
 40
0.0
 41
0.8
 50
0.0
 71
0
 42
0.2
  3
txt
  4

  0
STYLE
  5
211
100
AcDbSymbolTableRecord
100
AcDbTextStyleTableRecord
  2
TEXTSTYLE_1
 70
0
 40
0.0
 41
0.8
 50
0.0
 71
0
 42
0.2
  3
gdt
  4

  0
ENDTAB
  0
TABLE
  2
VIEW
  5
6
100
AcDbSymbolTable
 70
0
  0
ENDTAB
  0
TABLE
  2
UCS
  5
7
100
AcDbSymbolTable
 70
0
  0
ENDTAB
  0
TABLE
  2
APPID
  5
9
100
AcDbSymbolTable
 70
1
  0
APPID
  5
212
100
AcDbSymbolTableRecord
100
AcDbRegAppTableRecord
  2
ACAD
 70
0
  0
ENDTAB
  0
TABLE
  2
BLOCK_RECORD
  5
1
100
AcDbSymbolTable
 70
0
  0
BLOCK_RECORD
  5
213
100
AcDbSymbolTableRecord
100
AcDbBlockTableRecord
  2
*Model_Space
  0
BLOCK_RECORD
  5
214
100
AcDbSymbolTableRecord
100
AcDbBlockTableRecord
  2
*Paper_Space
  0
BLOCK_RECORD
  5
215
100
AcDbSymbolTableRecord
100
AcDbBlockTableRecord
  2
_FILLED
  0
ENDTAB
  0
TABLE
  2
DIMSTYLE
  5
A
100
AcDbSymbolTable
 70
1
100
AcDbDimStyleTable
 71
0
  0
DIMSTYLE
105
216
100
AcDbSymbolTableRecord
100
AcDbDimStyleTableRecord
  2
STANDARD
 70
0
  3

  4

 40
1.0
 41
3.0
 42
0.5
 43
0.38
 44
1.5
 45
0.0
 46
0.0
 47
0.01
 48
0.01
140
3.0
141
0.09
142
0.0
143
25.4
144
1.0
145
0.0
146
1.0
147
0.625
 71
1
 72
0
 73
0
 74
0
 75
0
 76
0
 77
1
 78
8
 79
2
170
0
171
1
172
0
173
0
174
0
175
0
176
0
177
0
178
0
270
2
179
2
271
2
272
2
273
2
274
2
275
0
280
0
281
0
282
0
283
1
284
8
285
0
286
0
287
3
288
0
340
11
278
44
341
215
342
215
343
215
344
215
  0
ENDTAB
  0
ENDSEC
  0
SECTION
  2
BLOCKS
  0
BLOCK
  5
20
100
AcDbEntity
  8
0
100
AcDbBlockBegin
  2
*Model_Space
 70
0
 10
0.0
 20
0.0
 30
0.0
  3
*Model_Space
  1

  0
ENDBLK
  5
21
100
AcDbEntity
  8
0
100
AcDbBlockEnd
  0
BLOCK
  5
1C
100
AcDbEntity
  8
0
100
AcDbBlockBegin
  2
*Paper_Space
 70
0
 10
0.0
 20
0.0
 30
0.0
  3
*Paper_Space
  1

  0
ENDBLK
  5
1D
100
AcDbEntity
  8
0
100
AcDbBlockEnd
  0
BLOCK
  5
217
100
AcDbEntity
  8
0
100
AcDbBlockBegin
  2
_FILLED
 70
64
 10
0.0
 20
0.0
  3
_FILLED
  1

  0
SOLID
  5
218
100
AcDbEntity
  8
0
  6
BYBLOCK
 62
0
100
AcDbTrace
 10
0.0
 20
0.0
 11
-1.0
 21
0.1333333333
 12
-1.0
 22
-0.1333333333
 13
-1.0
 23
-0.1333333333
  0
ENDBLK
  5
219
100
AcDbEntity
  8
0
  6
BYBLOCK
 62
0
100
AcDbBlockEnd
  0
ENDSEC
  0
SECTION
  2
ENTITIES
  0
LINE
  5
21A
100
AcDbEntity
  8
RACCORDO
100
AcDbLine
 62
250
  6
CONTINUOUS
 10
-10.4293676032
 20
24.495628166
 11
-10.4249957692
 21
24.5
  0
LINE
  5
21B
100
AcDbEntity
  8
RACCORDO
100
AcDbLine
 62
250
  6
CONTINUOUS
 10
-10.179371834
 20
24.2456323968
 11
-10.175
 21
24.2500042308
  0
LINE
  5
21C
100
AcDbEntity
  8
RACCORDO
100
AcDbLine
 62
250
  6
CONTINUOUS
 10
-12.6248629074
 20
22.3912731322
 11
-12.6074078424
 21
22.4
  0
LWPOLYLINE
  5
21D
100
AcDbEntity
  8
RACCORDO
100
AcDbPolyline
 62
7
  6
CONTINUOUS
 90
11
 70
0
 10
-12.808667383
 20
22.35250266
 10
-12.7945983443
 20
22.3592345029
 10
-12.7749172646
 20
22.367675635
 10
-12.7548557694
 20
22.3751712897
 10
-12.7344587271
 20
22.3817043981
 10
-12.7137808768
 20
22.3872577575
 10
-12.6928605409
 20
22.3918214033
 10
-12.6717181301
 20
22.3953885686
 10
-12.6503919328
 20
22.3979478745
 10
-12.6289389315
 20
22.3994875925
 10
-12.6074078424
 20
22.4
  0
LINE
  5
21E
100
AcDbEntity
  8
RACCORDO
100
AcDbLine
 62
7
  6
CONTINUOUS
 10
-12.3250042308
 20
-24.5
 11
-10.4249957692
 21
-24.5
  0
LINE
  5
21F
100
AcDbEntity
  8
RACCORDO
100
AcDbLine
 62
7
  6
CONTINUOUS
 10
6.5749957692
 20
-24.5
 11
8.4750042308
 21
-24.5
  0
LINE
  5
220
100
AcDbEntity
  8
RACCORDO
100
AcDbLine
 62
250
  6
CONTINUOUS
 10
-12.3206323968
 20
-24.495628166
 11
-10.4293676032
 21
-24.495628166
  0
LINE
  5
221
100
AcDbEntity
  8
RACCORDO
100
AcDbLine
 62
250
  6
CONTINUOUS
 10
6.5793676032
 20
-24.495628166
 11
8.4706323968
 21
-24.495628166
  0
LINE
  5
222
100
AcDbEntity
  8
RACCORDO
100
AcDbLine
 62
250
  6
CONTINUOUS
 10
6.329371834
 20
-24.2456323968
 11
8.720628166
 21
-24.2456323968
  0
LINE
  5
223
100
AcDbEntity
  8
RACCORDO
100
AcDbLine
 62
250
  6
CONTINUOUS
 10
-10.179371834
 20
-24.2456323968
 11
-12.570628166
 21
-24.2456323968
  0
LWPOLYLINE
  5
224
100
AcDbEntity
  8
RACCORDO
100
AcDbPolyline
 62
7
  6
CONTINUOUS
 90
34
 70
0
 10
-12.3250042308
 20
-24.5
 10
-12.336899516
 20
-24.4997168498
 10
-12.3487678556
 20
-24.4988680342
 10
-12.3605823661
 20
-24.4974554741
 10
-12.3723162875
 20
-24.4954823677
 10
-12.3839430388
 20
-24.4929531817
 10
-12.395436279
 20
-24.4898736417
 10
-12.4067699738
 20
-24.4862507213
 10
-12.4179184493
 20
-24.4820926258
 10
-12.4288564463
 20
-24.4774087722
 10
-12.4395591876
 20
-24.4722097688
 10
-12.4500024283
 20
-24.4665073916
 10
-12.4601625059
 20
-24.4603145581
 10
-12.4700164051
 20
-24.4536452955
 10
-12.4795418038
 20
-24.4465147107
 10
-12.4887171191
 20
-24.4389389589
 10
-12.4975215661
 20
-24.4309352005
 10
-12.5059352005
 20
-24.4225215661
 10
-12.5139389589
 20
-24.4137171191
 10
-12.5215147107
 20
-24.4045418038
 10
-12.5286452955
 20
-24.3950164051
 10
-12.5353145581
 20
-24.3851625059
 10
-12.5415073916
 20
-24.3750024283
 10
-12.5472097688
 20
-24.3645591876
 10
-12.5524087722
 20
-24.3538564463
 10
-12.5570926258
 20
-24.3429184493
 10
-12.5612507213
 20
-24.3317699738
 10
-12.5648736417
 20
-24.320436279
 10
-12.5679531817
 20
-24.3089430388
 10
-12.5704823677
 20
-24.2973162875
 10
-12.5724554741
 20
-24.2855823661
 10
-12.5738680342
 20
-24.2737678556
 10
-12.5747168498
 20
-24.261899516
 10
-12.575
 20
-24.2500042308
  0
LWPOLYLINE
  5
225
100
AcDbEntity
  8
RACCORDO
100
AcDbPolyline
 62
7
  6
CONTINUOUS
 90
34
 70
0
 10
6.5749957692
 20
-24.5
 10
6.563100484
 20
-24.4997168498
 10
6.5512321444
 20
-24.4988680342
 10
6.5394176339
 20
-24.4974554741
 10
6.5276837125
 20
-24.4954823677
 10
6.5160569612
 20
-24.4929531817
 10
6.504563721
 20
-24.4898736417
 10
6.4932300262
 20
-24.4862507213
 10
6.4820815507
 20
-24.4820926258
 10
6.4711435537
 20
-24.4774087722
 10
6.4604408124
 20
-24.4722097688
 10
6.4499975717
 20
-24.4665073916
 10
6.4398374941
 20
-24.4603145581
 10
6.4299835949
 20
-24.4536452955
 10
6.4204581962
 20
-24.4465147107
 10
6.4112828809
 20
-24.4389389589
 10
6.4024784339
 20
-24.4309352005
 10
6.3940647995
 20
-24.4225215661
 10
6.3860610411
 20
-24.4137171191
 10
6.3784852893
 20
-24.4045418038
 10
6.3713547045
 20
-24.3950164051
 10
6.3646854419
 20
-24.3851625059
 10
6.3584926084
 20
-24.3750024283
 10
6.3527902312
 20
-24.3645591876
 10
6.3475912278
 20
-24.3538564463
 10
6.3429073742
 20
-24.3429184493
 10
6.3387492787
 20
-24.3317699738
 10
6.3351263583
 20
-24.320436279
 10
6.3320468183
 20
-24.3089430388
 10
6.3295176323
 20
-24.2973162875
 10
6.3275445259
 20
-24.2855823661
 10
6.3261319658
 20
-24.2737678556
 10
6.3252831502
 20
-24.261899516
 10
6.325
 20
-24.2500042308
  0
LWPOLYLINE
  5
226
100
AcDbEntity
  8
RACCORDO
100
AcDbPolyline
 62
250
  6
CONTINUOUS
 90
31
 70
0
 10
-12.3206323968
 20
-24.495628166
 10
-12.3336847368
 20
-24.4952867588
 10
-12.3467096311
 20
-24.4942634962
 10
-12.3596714057
 20
-24.492559892
 10
-12.3725371245
 20
-24.4901787618
 10
-12.3852685897
 20
-24.4871256484
 10
-12.3978227742
 20
-24.4834102087
 10
-12.4101625782
 20
-24.4790436576
 10
-12.4222569343
 20
-24.4740372277
 10
-12.4340730125
 20
-24.4684044791
 10
-12.445578613
 20
-24.4621606774
 10
-12.4567419314
 20
-24.4553229956
 10
-12.4675320106
 20
-24.4479103656
 10
-12.4779191364
 20
-24.4399432233
 10
-12.4878749736
 20
-24.4314433264
 10
-12.497372308
 20
-24.4224339046
 10
-12.5063851271
 20
-24.4129396114
 10
-12.5148886687
 20
-24.402986508
 10
-12.5228595768
 20
-24.3926019187
 10
-12.5302759837
 20
-24.3818143284
 10
-12.5371175595
 20
-24.3706533025
 10
-12.5433655387
 20
-24.3591494467
 10
-12.5490027869
 20
-24.347334301
 10
-12.5540138424
 20
-24.3352402638
 10
-12.5583849575
 20
-24.3229005077
 10
-12.562104147
 20
-24.3103488602
 10
-12.5651612081
 20
-24.2976197463
 10
-12.5675477509
 20
-24.2847481067
 10
-12.569257234
 20
-24.2717692492
 10
-12.570284977
 20
-24.2587187509
 10
-12.570628166
 20
-24.2456323968
  0
LWPOLYLINE
  5
227
100
AcDbEntity
  8
RACCORDO
100
AcDbPolyline
 62
250
  6
CONTINUOUS
 90
31
 70
0
 10
6.5793676032
 20
-24.495628166
 10
6.5662841172
 20
-24.4952851274
 10
6.5532364906
 20
-24.4942578375
 10
6.5402604845
 20
-24.492549112
 10
6.5273916636
 20
-24.490163634
 10
6.5146652991
 20
-24.4871079418
 10
6.5021162714
 20
-24.4833904104
 10
6.4897789751
 20
-24.4790212289
 10
6.4776872245
 20
-24.4740123724
 10
6.4658741607
 20
-24.4683775693
 10
6.4543721611
 20
-24.4621322634
 10
6.4432127506
 20
-24.455293572
 10
6.432426515
 20
-24.4478802386
 10
6.4220430174
 20
-24.4399125818
 10
6.4120907169
 20
-24.4314124395
 10
6.402596891
 20
-24.422403109
 10
6.3935875605
 20
-24.4129092831
 10
6.3850874182
 20
-24.4029569826
 10
6.3771197614
 20
-24.392573485
 10
6.369706428
 20
-24.3817872494
 10
6.3628677366
 20
-24.3706278389
 10
6.3566224307
 20
-24.3591258393
 10
6.3509876276
 20
-24.3473127755
 10
6.3459787711
 20
-24.3352210249
 10
6.3416095896
 20
-24.3228837286
 10
6.3378920582
 20
-24.3103347009
 10
6.334836366
 20
-24.2976083364
 10
6.332450888
 20
-24.2847395155
 10
6.3307421625
 20
-24.2717635094
 10
6.3297148726
 20
-24.2587158828
 10
6.329371834
 20
-24.2456323968
  0
LWPOLYLINE
  5
228
100
AcDbEntity
  8
RACCORDO
100
AcDbPolyline
 62
7
  6
CONTINUOUS
 90
11
 70
0
 10
-12.8086670517
 20
-22.3525028256
 10
-12.7945978633
 20
-22.359234736
 10
-12.7749168264
 20
-22.3676758378
 10
-12.7548553757
 20
-22.375171463
 10
-12.7344583804
 20
-22.3817045428
 10
-12.7137805794
 20
-22.3872578746
 10
-12.6928602952
 20
-22.3918214941
 10
-12.6717179399
 20
-22.3953886342
 10
-12.6503918024
 20
-22.3979479162
 10
-12.6289388646
 20
-22.3994876122
 10
-12.6074078424
 20
-22.4
  0
LINE
  5
229
100
AcDbEntity
  8
RACCORDO
100
AcDbLine
 62
250
  6
CONTINUOUS
 10
-12.6074078424
 20
-22.4
 11
-12.6248629074
 21
-22.3912731322
  0
LINE
  5
22A
100
AcDbEntity
  8
RACCORDO
100
AcDbLine
 62
250
  6
CONTINUOUS
 10
-10.4293676032
 20
-24.495628166
 11
-10.4249957692
 21
-24.5
  0
LINE
  5
22B
100
AcDbEntity
  8
RACCORDO
100
AcDbLine
 62
250
  6
CONTINUOUS
 10
-10.179371834
 20
-24.2456323968
 11
-10.175
 21
-24.2500042308
  0
LINE
  5
22C
100
AcDbEntity
  8
0
100
AcDbLine
 62
7
  6
CONTINUOUS
 10
-10.8248860669
 20
20.9
 11
-11.575
 21
20.1489710538
  0
LINE
  5
22D
100
AcDbEntity
  8
RACCORDO
100
AcDbLine
 62
7
  6
CONTINUOUS
 10
-10.725
 20
20.85
 11
-12.4893027805
 21
19.0856972195
  0
LINE
  5
22E
100
AcDbEntity
  8
0
100
AcDbLine
 62
7
  6
CONTINUOUS
 10
-10.725
 20
20.85
 11
-12.4893027805
 21
19.0856972195
  0
LINE
  5
22F
100
AcDbEntity
  8
RACCORDO
100
AcDbLine
 62
7
  6
CONTINUOUS
 10
-10.175
 20
21.4
 11
-9.1837268678
 21
22.3912731322
  0
LINE
  5
230
100
AcDbEntity
  8
RACCORDO
100
AcDbLine
 62
7
  6
CONTINUOUS
 10
-10.0090245667
 20
20.9917082642
 11
-10.1715127091
 21
20.9104703804
  0
LINE
  5
231
100
AcDbEntity
  8
RACCORDO
100
AcDbLine
 62
250
  6
CONTINUOUS
 10
6.329371834
 20
-23.8443375673
 11
8.720628166
 21
-23.8443375673
  0
LINE
  5
232
100
AcDbEntity
  8
RACCORDO
100
AcDbLine
 62
250
  6
CONTINUOUS
 10
-10.179371834
 20
-23.8443375673
 11
-12.570628166
 21
-23.8443375673
  0
LINE
  5
233
100
AcDbEntity
  8
DRAFT
100
AcDbLine
 62
7
  6
CONTINUOUS
 10
-6.325
 20
-23.8
 11
2.475
 21
-23.8
  0
LINE
  5
234
100
AcDbEntity
  8
DRAFT
100
AcDbLine
 62
7
  6
CONTINUOUS
 10
1.575
 20
-23.7941821702
 11
-5.425
 21
-23.7941821702
  0
LINE
  5
235
100
AcDbEntity
  8
ASSI
100
AcDbLine
 62
250
  6
CONTINUOUS
 10
2.4313493531
 20
-23.7563493531
 11
1.575
 21
-23.7563493531
  0
LINE
  5
236
100
AcDbEntity
  8
ASSI
100
AcDbLine
 62
250
  6
CONTINUOUS
 10
-5.425
 20
-23.7563493531
 11
-6.2813493531
 21
-23.7563493531
  0
LINE
  5
237
100
AcDbEntity
  8
RACCORDO
100
AcDbLine
 62
250
  6
CONTINUOUS
 10
8.4706323968
 20
-23.6278312164
 11
6.5793676032
 21
-23.6278312164
  0
LINE
  5
238
100
AcDbEntity
  8
RACCORDO
100
AcDbLine
 62
250
  6
CONTINUOUS
 10
-10.4293676032
 20
-23.6278312164
 11
-12.3206323968
 21
-23.6278312164
  0
LINE
  5
239
100
AcDbEntity
  8
RACCORDO
100
AcDbLine
 62
7
  6
CONTINUOUS
 10
-12.3257229979
 20
-23.1226497308
 11
-10.4242770021
 21
-23.1226497308
  0
LINE
  5
23A
100
AcDbEntity
  8
RACCORDO
100
AcDbLine
 62
7
  6
CONTINUOUS
 10
6.5742770021
 20
-23.1226497308
 11
8.4757229979
 21
-23.1226497308
  0
LINE
  5
23B
100
AcDbEntity
  8
RACCORDO
100
AcDbLine
 62
7
  6
CONTINUOUS
 10
8.7574078424
 20
-22.4
 11
8.725
 21
-22.4
  0
LINE
  5
23C
100
AcDbEntity
  8
DRAFT
100
AcDbLine
 62
7
  6
CONTINUOUS
 10
2.475
 20
-22.4
 11
8.725
 21
-22.4
  0
LINE
  5
23D
100
AcDbEntity
  8
DRAFT
100
AcDbLine
 62
7
  6
CONTINUOUS
 10
-6.325
 20
-22.4
 11
-12.575
 21
-22.4
  0
LINE
  5
23E
100
AcDbEntity
  8
RACCORDO
100
AcDbLine
 62
7
  6
CONTINUOUS
 10
-12.575
 20
-22.4
 11
-12.6074078424
 21
-22.4
  0
LINE
  5
23F
100
AcDbEntity
  8
RACCORDO
100
AcDbLine
 62
7
  6
CONTINUOUS
 10
-12.6248629074
 20
-22.3912731322
 11
-9.1837268678
 21
-22.3912731322
  0
LINE
  5
240
100
AcDbEntity
  8
RACCORDO
100
AcDbLine
 62
7
  6
CONTINUOUS
 10
5.3337268678
 20
-22.3912731322
 11
8.7748629074
 21
-22.3912731322
  0
LINE
  5
241
100
AcDbEntity
  8
DRAFT
100
AcDbLine
 62
7
  6
CONTINUOUS
 10
-5.425
 20
-22.3380392387
 11
-4.925
 21
-22.3380392387
  0
LINE
  5
242
100
AcDbEntity
  8
DRAFT
100
AcDbLine
 62
7
  6
CONTINUOUS
 10
1.075
 20
-22.3380392387
 11
1.575
 21
-22.3380392387
  0
LINE
  5
243
100
AcDbEntity
  8
RACCORDO
100
AcDbLine
 62
7
  6
CONTINUOUS
 10
-10.0090245667
 20
-20.9917082642
 11
-10.1715127091
 21
-20.9104703804
  0
LINE
  5
244
100
AcDbEntity
  8
RACCORDO
100
AcDbLine
 62
7
  6
CONTINUOUS
 10
-12.4893027805
 20
-19.0856972195
 11
-10.725
 21
-20.85
  0
LINE
  5
245
100
AcDbEntity
  8
0
100
AcDbLine
 62
7
  6
CONTINUOUS
 10
-12.4893027805
 20
-19.0856972195
 11
-10.725
 21
-20.85
  0
LINE
  5
246
100
AcDbEntity
  8
RACCORDO
100
AcDbLine
 62
7
  6
CONTINUOUS
 10
-9.1837268678
 20
-22.3912731322
 11
-10.175
 21
-21.4
  0
LINE
  5
247
100
AcDbEntity
  8
0
100
AcDbLine
 62
7
  6
CONTINUOUS
 10
-10.8248860669
 20
-20.9
 11
-11.575
 21
-20.1489710538
  0
LINE
  5
248
100
AcDbEntity
  8
RACCORDO
100
AcDbLine
 62
7
  6
CONTINUOUS
 10
-12.3147521312
 20
19.0133959733
 11
-10.6526987537
 21
20.6754493507
  0
LINE
  5
249
100
AcDbEntity
  8
0
100
AcDbLine
 62
7
  6
CONTINUOUS
 10
-12.3147521312
 20
19.0133959733
 11
-10.6526987537
 21
20.6754493507
  0
LINE
  5
24A
100
AcDbEntity
  8
DRAFT
100
AcDbLine
 62
7
  6
CONTINUOUS
 10
-9.325
 20
20.7644701819
 11
-9.4140208311
 21
20.6754493507
  0
LINE
  5
24B
100
AcDbEntity
  8
0
100
AcDbLine
 62
7
  6
CONTINUOUS
 10
-9.325
 20
20.7644701819
 11
-9.4140208311
 21
20.6754493507
  0
LINE
  5
24C
100
AcDbEntity
  8
DRAFT
100
AcDbLine
 62
7
  6
CONTINUOUS
 10
-9.325
 20
19.7
 11
-9.4140208311
 21
19.6109791689
  0
LINE
  5
24D
100
AcDbEntity
  8
0
100
AcDbLine
 62
7
  6
CONTINUOUS
 10
-9.325
 20
19.7
 11
-9.4140208311
 21
19.6109791689
  0
LINE
  5
24E
100
AcDbEntity
  8
RACCORDO
100
AcDbLine
 62
7
  6
CONTINUOUS
 10
-9.1679784985
 20
19.7570215015
 11
-9.225
 21
19.7
  0
LINE
  5
24F
100
AcDbEntity
  8
RACCORDO
100
AcDbLine
 62
250
  6
CONTINUOUS
 10
-9.2623448332
 20
-22.3126551668
 11
-4.925
 21
-22.3126551668
  0
LINE
  5
250
100
AcDbEntity
  8
RACCORDO
100
AcDbLine
 62
250
  6
CONTINUOUS
 10
1.075
 20
-22.3126551668
 11
5.4123448332
 21
-22.3126551668
  0
LINE
  5
251
100
AcDbEntity
  8
0
100
AcDbLine
 62
7
  6
CONTINUOUS
 10
1.075
 20
-21.7
 11
-4.925
 21
-21.7
  0
LINE
  5
252
100
AcDbEntity
  8
RACCORDO
100
AcDbLine
 62
250
  6
CONTINUOUS
 10
-9.5091007192
 20
-21.3126932437
 11
-4.925
 21
-21.3126932437
  0
LINE
  5
253
100
AcDbEntity
  8
RACCORDO
100
AcDbLine
 62
250
  6
CONTINUOUS
 10
1.075
 20
-21.3126932437
 11
5.6591007192
 21
-21.3126932437
  0
LINE
  5
254
100
AcDbEntity
  8
0
100
AcDbLine
 62
7
  6
CONTINUOUS
 10
1.075
 20
-21.0
 11
-4.925
 21
-21.0
  0
LINE
  5
255
100
AcDbEntity
  8
RACCORDO
100
AcDbLine
 62
7
  6
CONTINUOUS
 10
-9.5091007192
 20
-20.9959955457
 11
-9.1668217019
 21
-20.9959955457
  0
LINE
  5
256
100
AcDbEntity
  8
RACCORDO
100
AcDbLine
 62
7
  6
CONTINUOUS
 10
5.3168217019
 20
-20.9959955457
 11
5.6591007192
 21
-20.9959955457
  0
LINE
  5
257
100
AcDbEntity
  8
DRAFT
100
AcDbLine
 62
7
  6
CONTINUOUS
 10
-10.1715127091
 20
-20.9104703804
 11
-9.2238376746
 21
-20.9104703804
  0
LINE
  5
258
100
AcDbEntity
  8
DRAFT
100
AcDbLine
 62
7
  6
CONTINUOUS
 10
5.3738376746
 20
-20.9104703804
 11
6.3215127091
 21
-20.9104703804
  0
LINE
  5
259
100
AcDbEntity
  8
0
100
AcDbLine
 62
7
  6
CONTINUOUS
 10
6.9748860669
 20
-20.9
 11
6.325
 21
-20.9
  0
LINE
  5
25A
100
AcDbEntity
  8
0
100
AcDbLine
 62
7
  6
CONTINUOUS
 10
-10.175
 20
-20.9
 11
-10.8248860669
 21
-20.9
  0
LINE
  5
25B
100
AcDbEntity
  8
DRAFT
100
AcDbLine
 62
7
  6
CONTINUOUS
 10
-10.725
 20
-20.85
 11
-9.4105298181
 21
-20.85
  0
LINE
  5
25C
100
AcDbEntity
  8
0
100
AcDbLine
 62
7
  6
CONTINUOUS
 10
-10.725
 20
-20.85
 11
-9.4105298181
 21
-20.85
  0
LINE
  5
25D
100
AcDbEntity
  8
DRAFT
100
AcDbLine
 62
7
  6
CONTINUOUS
 10
5.5605298181
 20
-20.85
 11
6.875
 21
-20.85
  0
LINE
  5
25E
100
AcDbEntity
  8
0
100
AcDbLine
 62
7
  6
CONTINUOUS
 10
5.5605298181
 20
-20.85
 11
6.875
 21
-20.85
  0
LINE
  5
25F
100
AcDbEntity
  8
DRAFT
100
AcDbLine
 62
7
  6
CONTINUOUS
 10
-10.6526987537
 20
-20.6754493507
 11
-9.4140208311
 21
-20.6754493507
  0
LINE
  5
260
100
AcDbEntity
  8
0
100
AcDbLine
 62
7
  6
CONTINUOUS
 10
-10.6526987537
 20
-20.6754493507
 11
-9.4140208311
 21
-20.6754493507
  0
LINE
  5
261
100
AcDbEntity
  8
DRAFT
100
AcDbLine
 62
7
  6
CONTINUOUS
 10
5.5640208311
 20
-20.6754493507
 11
6.8026987537
 21
-20.6754493507
  0
LINE
  5
262
100
AcDbEntity
  8
0
100
AcDbLine
 62
7
  6
CONTINUOUS
 10
5.5640208311
 20
-20.6754493507
 11
6.8026987537
 21
-20.6754493507
  0
LINE
  5
263
100
AcDbEntity
  8
RACCORDO
100
AcDbLine
 62
250
  6
CONTINUOUS
 10
4.6331782981
 20
-20.5829242832
 11
-8.4831782981
 21
-20.5829242832
  0
LINE
  5
264
100
AcDbEntity
  8
RACCORDO
100
AcDbLine
 62
250
  6
CONTINUOUS
 10
-9.325
 20
-20.4584032484
 11
-9.2740220113
 21
-20.4584032484
  0
LINE
  5
265
100
AcDbEntity
  8
RACCORDO
100
AcDbLine
 62
250
  6
CONTINUOUS
 10
5.4240220113
 20
-20.4584032484
 11
5.475
 21
-20.4584032484
  0
LINE
  5
266
100
AcDbEntity
  8
RACCORDO
100
AcDbLine
 62
7
  6
CONTINUOUS
 10
-10.6526987537
 20
-20.6754493507
 11
-12.3147521312
 21
-19.0133959733
  0
LINE
  5
267
100
AcDbEntity
  8
0
100
AcDbLine
 62
7
  6
CONTINUOUS
 10
-10.6526987537
 20
-20.6754493507
 11
-12.3147521312
 21
-19.0133959733
  0
LINE
  5
268
100
AcDbEntity
  8
DRAFT
100
AcDbLine
 62
7
  6
CONTINUOUS
 10
-9.325
 20
-20.7644701819
 11
-9.4140208311
 21
-20.6754493507
  0
LINE
  5
269
100
AcDbEntity
  8
0
100
AcDbLine
 62
7
  6
CONTINUOUS
 10
-9.325
 20
-20.7644701819
 11
-9.4140208311
 21
-20.6754493507
  0
LINE
  5
26A
100
AcDbEntity
  8
DRAFT
100
AcDbLine
 62
7
  6
CONTINUOUS
 10
-9.325
 20
-19.7
 11
-9.4140208311
 21
-19.6109791689
  0
LINE
  5
26B
100
AcDbEntity
  8
0
100
AcDbLine
 62
7
  6
CONTINUOUS
 10
-9.325
 20
-19.7
 11
-9.4140208311
 21
-19.6109791689
  0
LINE
  5
26C
100
AcDbEntity
  8
RACCORDO
100
AcDbLine
 62
7
  6
CONTINUOUS
 10
-9.1679784985
 20
-19.7570215015
 11
-9.225
 21
-19.7
  0
LINE
  5
26D
100
AcDbEntity
  8
DRAFT
100
AcDbLine
 62
7
  6
CONTINUOUS
 10
-9.1668217019
 20
20.9959955457
 11
-9.2238376746
 21
20.9104703804
  0
LINE
  5
26E
100
AcDbEntity
  8
ASSI
100
AcDbLine
 62
7
  6
CONTINUOUS
 10
-5.5188557177
 20
23.6234472841
 11
-5.5454024235
 21
23.5930775533
  0
LINE
  5
26F
100
AcDbEntity
  8
ASSI
100
AcDbLine
 62
7
  6
CONTINUOUS
 10
-5.5454024235
 20
23.5930775533
 11
-5.5758085508
 21
23.5588298205
  0
LINE
  5
270
100
AcDbEntity
  8
ASSI
100
AcDbLine
 62
7
  6
CONTINUOUS
 10
-5.5758085508
 20
23.5588298205
 11
-5.6100783499
 21
23.5207160551
  0
LINE
  5
271
100
AcDbEntity
  8
ASSI
100
AcDbLine
 62
7
  6
CONTINUOUS
 10
-5.6100783499
 20
23.5207160551
 11
-5.6685718225
 21
23.4564018309
  0
LINE
  5
272
100
AcDbEntity
  8
ASSI
100
AcDbLine
 62
7
  6
CONTINUOUS
 10
-5.6685718225
 20
23.4564018309
 11
-5.8529699877
 21
23.2563578147
  0
LINE
  5
273
100
AcDbEntity
  8
RACCORDO
100
AcDbLine
 62
250
  6
CONTINUOUS
 10
4.630294768
 20
-20.0829433217
 11
-8.480294768
 21
-20.0829433217
  0
LINE
  5
274
100
AcDbEntity
  8
DRAFT
100
AcDbLine
 62
7
  6
CONTINUOUS
 10
-4.425
 20
-20.0532338935
 11
-4.3663111231
 21
-20.0532338935
  0
LINE
  5
275
100
AcDbEntity
  8
DRAFT
100
AcDbLine
 62
7
  6
CONTINUOUS
 10
0.5163111231
 20
-20.0532338935
 11
0.575
 21
-20.0532338935
  0
LINE
  5
276
100
AcDbEntity
  8
DRAFT
100
AcDbLine
 62
7
  6
CONTINUOUS
 10
1.575
 20
-20.0
 11
1.475
 21
-20.0
  0
LINE
  5
277
100
AcDbEntity
  8
DRAFT
100
AcDbLine
 62
7
  6
CONTINUOUS
 10
-5.325
 20
-20.0
 11
-5.425
 21
-20.0
  0
LINE
  5
278
100
AcDbEntity
  8
RACCORDO
100
AcDbLine
 62
250
  6
CONTINUOUS
 10
-9.325
 20
-19.959088481
 11
-9.2767786853
 21
-19.959088481
  0
LINE
  5
279
100
AcDbEntity
  8
RACCORDO
100
AcDbLine
 62
250
  6
CONTINUOUS
 10
5.4267786853
 20
-19.959088481
 11
5.475
 21
-19.959088481
  0
LINE
  5
27A
100
AcDbEntity
  8
RACCORDO
100
AcDbLine
 62
250
  6
CONTINUOUS
 10
5.3168217019
 20
-19.9570181168
 11
4.6331782981
 21
-19.9570181168
  0
LINE
  5
27B
100
AcDbEntity
  8
RACCORDO
100
AcDbLine
 62
250
  6
CONTINUOUS
 10
-8.4831782981
 20
-19.9570181168
 11
-9.1668217019
 21
-19.9570181168
  0
LINE
  5
27C
100
AcDbEntity
  8
RACCORDO
100
AcDbLine
 62
250
  6
CONTINUOUS
 10
4.5261048448
 20
-19.9266562329
 11
1.475
 21
-19.9266562329
  0
LINE
  5
27D
100
AcDbEntity
  8
RACCORDO
100
AcDbLine
 62
250
  6
CONTINUOUS
 10
-5.325
 20
-19.9266562329
 11
-8.3761048448
 21
-19.9266562329
  0
LINE
  5
27E
100
AcDbEntity
  8
0
100
AcDbLine
 62
7
  6
CONTINUOUS
 10
-7.675
 20
-19.9
 11
-5.3182016106
 21
-19.9
  0
LINE
  5
27F
100
AcDbEntity
  8
RACCORDO
100
AcDbLine
 62
7
  6
CONTINUOUS
 10
-7.675
 20
-19.9
 11
-5.3182016106
 21
-19.9
  0
LINE
  5
280
100
AcDbEntity
  8
RACCORDO
100
AcDbLine
 62
7
  6
CONTINUOUS
 10
1.4682016106
 20
-19.9
 11
3.825
 21
-19.9
  0
LINE
  5
281
100
AcDbEntity
  8
0
100
AcDbLine
 62
7
  6
CONTINUOUS
 10
1.4682016106
 20
-19.9
 11
3.825
 21
-19.9
  0
LINE
  5
282
100
AcDbEntity
  8
RACCORDO
100
AcDbLine
 62
7
  6
CONTINUOUS
 10
-4.325
 20
-19.8843869511
 11
0.475
 21
-19.8843869511
  0
LINE
  5
283
100
AcDbEntity
  8
0
100
AcDbLine
 62
7
  6
CONTINUOUS
 10
-4.325
 20
-19.8843869511
 11
0.475
 21
-19.8843869511
  0
LINE
  5
284
100
AcDbEntity
  8
DRAFT
100
AcDbLine
 62
7
  6
CONTINUOUS
 10
-7.5859791689
 20
-19.8109791689
 11
3.7359791689
 21
-19.8109791689
  0
LINE
  5
285
100
AcDbEntity
  8
0
100
AcDbLine
 62
7
  6
CONTINUOUS
 10
-7.5859791689
 20
-19.8109791689
 11
3.7359791689
 21
-19.8109791689
  0
LINE
  5
286
100
AcDbEntity
  8
RACCORDO
100
AcDbLine
 62
250
  6
CONTINUOUS
 10
5.3179784985
 20
-19.7570215015
 11
4.6320215015
 21
-19.7570215015
  0
LINE
  5
287
100
AcDbEntity
  8
RACCORDO
100
AcDbLine
 62
250
  6
CONTINUOUS
 10
-8.4820215015
 20
-19.7570215015
 11
-9.1679784985
 21
-19.7570215015
  0
LINE
  5
288
100
AcDbEntity
  8
DRAFT
100
AcDbLine
 62
7
  6
CONTINUOUS
 10
5.475
 20
-19.7
 11
3.825
 21
-19.7
  0
LINE
  5
289
100
AcDbEntity
  8
0
100
AcDbLine
 62
7
  6
CONTINUOUS
 10
5.475
 20
-19.7
 11
3.825
 21
-19.7
  0
LINE
  5
28A
100
AcDbEntity
  8
DRAFT
100
AcDbLine
 62
7
  6
CONTINUOUS
 10
-7.675
 20
-19.7
 11
-9.325
 21
-19.7
  0
LINE
  5
28B
100
AcDbEntity
  8
0
100
AcDbLine
 62
7
  6
CONTINUOUS
 10
-7.675
 20
-19.7
 11
-9.325
 21
-19.7
  0
LINE
  5
28C
100
AcDbEntity
  8
DRAFT
100
AcDbLine
 62
7
  6
CONTINUOUS
 10
-9.4140208311
 20
-19.6109791689
 11
-7.5859791689
 21
-19.6109791689
  0
LINE
  5
28D
100
AcDbEntity
  8
0
100
AcDbLine
 62
7
  6
CONTINUOUS
 10
-9.4140208311
 20
-19.6109791689
 11
-7.5859791689
 21
-19.6109791689
  0
LINE
  5
28E
100
AcDbEntity
  8
DRAFT
100
AcDbLine
 62
7
  6
CONTINUOUS
 10
3.7359791689
 20
-19.6109791689
 11
5.5640208311
 21
-19.6109791689
  0
LINE
  5
28F
100
AcDbEntity
  8
0
100
AcDbLine
 62
7
  6
CONTINUOUS
 10
3.7359791689
 20
-19.6109791689
 11
5.5640208311
 21
-19.6109791689
  0
LINE
  5
290
100
AcDbEntity
  8
ASSI
100
AcDbLine
 62
7
  6
CONTINUOUS
 10
-5.8529699877
 20
-23.2563578147
 11
-5.7576562519
 21
-23.3594453617
  0
LINE
  5
291
100
AcDbEntity
  8
ASSI
100
AcDbLine
 62
7
  6
CONTINUOUS
 10
-5.7576562519
 20
-23.3594453617
 11
-5.668670406
 21
-23.4562934323
  0
LINE
  5
292
100
AcDbEntity
  8
ASSI
100
AcDbLine
 62
7
  6
CONTINUOUS
 10
-5.668670406
 20
-23.4562934323
 11
-5.6102228577
 21
-23.520556369
  0
LINE
  5
293
100
AcDbEntity
  8
ASSI
100
AcDbLine
 62
7
  6
CONTINUOUS
 10
-5.6102228577
 20
-23.520556369
 11
-5.5759962094
 21
-23.5586202787
  0
LINE
  5
294
100
AcDbEntity
  8
ASSI
100
AcDbLine
 62
7
  6
CONTINUOUS
 10
-5.5759962094
 20
-23.5586202787
 11
-5.5456235004
 21
-23.5928267546
  0
LWPOLYLINE
  5
295
100
AcDbEntity
  8
ASSI
100
AcDbPolyline
 62
7
  6
CONTINUOUS
 90
18
 70
0
 10
-5.5456235004
 20
-23.5928267546
 10
-5.5190894927
 20
-23.6231776604
 10
-5.5071916901
 20
-23.6369976396
 10
-5.4961841112
 20
-23.6499368786
 10
-5.4860539485
 20
-23.6619971292
 10
-5.4767508381
 20
-23.673257628
 10
-5.4682706493
 20
-23.6837199248
 10
-5.4606000818
 20
-23.69338247
 10
-5.4536918512
 20
-23.7023198506
 10
-5.4475307956
 20
-23.7105515976
 10
-5.4421299958
 20
-23.7180581801
 10
-5.4374904908
 20
-23.7248555929
 10
-5.4336022674
 20
-23.7309357306
 10
-5.4304545678
 20
-23.7363066986
 10
-5.4280384326
 20
-23.7410088074
 10
-5.4263372585
 20
-23.7450554941
 10
-5.4253309496
 20
-23.7484333218
 10
-5.425
 20
-23.7511422903
  0
LINE
  5
296
100
AcDbEntity
  8
DRAFT
100
AcDbLine
 62
7
  6
CONTINUOUS
 10
-9.1668217019
 20
-20.9959955457
 11
-9.2238376746
 21
-20.9104703804
  0
LINE
  5
297
100
AcDbEntity
  8
DRAFT
100
AcDbLine
 62
7
  6
CONTINUOUS
 10
-10.1715127091
 20
20.9104703804
 11
-10.175
 21
20.9
  0
LINE
  5
298
100
AcDbEntity
  8
ASSI
100
AcDbLine
 62
7
  6
CONTINUOUS
 10
2.475
 20
23.8
 11
2.4313493531
 21
23.7563493531
  0
LINE
  5
299
100
AcDbEntity
  8
0
100
AcDbLine
 62
250
  6
CONTINUOUS
 10
9.094555307
 20
-15.9802144294
 11
9.0803440616
 21
-15.9802144294
  0
LINE
  5
29A
100
AcDbEntity
  8
0
100
AcDbLine
 62
250
  6
CONTINUOUS
 10
9.0803440616
 20
-14.9257144294
 11
9.094555307
 21
-14.9257144294
  0
LINE
  5
29B
100
AcDbEntity
  8
ASSI
100
AcDbLine
 62
7
  6
CONTINUOUS
 10
2.475
 20
-23.8
 11
2.4313493531
 21
-23.7563493531
  0
LINE
  5
29C
100
AcDbEntity
  8
DRAFT
100
AcDbLine
 62
7
  6
CONTINUOUS
 10
-10.1715127091
 20
-20.9104703804
 11
-10.175
 21
-20.9
  0
LINE
  5
29D
100
AcDbEntity
  8
0
100
AcDbLine
 62
7
  6
CONTINUOUS
 10
-13.075
 20
17.6716990487
 11
-13.075
 21
-17.6716990487
  0
LINE
  5
29E
100
AcDbEntity
  8
RACCORDO
100
AcDbLine
 62
7
  6
CONTINUOUS
 10
-13.075
 20
-21.9411874598
 11
-13.075
 21
21.9411874598
  0
LINE
  5
29F
100
AcDbEntity
  8
0
100
AcDbLine
 62
250
  6
CONTINUOUS
 10
-12.958051065
 20
12.3912140236
 11
-12.958051065
 21
11.5666429882
  0
LINE
  5
2A0
100
AcDbEntity
  8
0
100
AcDbLine
 62
250
  6
CONTINUOUS
 10
-12.958051065
 20
3.9737143103
 11
-12.958051065
 21
4.4890713794
  0
LINE
  5
2A1
100
AcDbEntity
  8
0
100
AcDbLine
 62
250
  6
CONTINUOUS
 10
-12.958051065
 20
5.2792857471
 11
-12.958051065
 21
5.8977143676
  0
LINE
  5
2A2
100
AcDbEntity
  8
0
100
AcDbLine
 62
250
  6
CONTINUOUS
 10
-12.9483261008
 20
5.2792857471
 11
-12.9483261008
 21
5.6915712647
  0
LINE
  5
2A3
100
AcDbEntity
  8
0
100
AcDbLine
 62
250
  6
CONTINUOUS
 10
-12.9418427907
 20
13.4906425295
 11
-12.9418427907
 21
12.9409282765
  0
LINE
  5
2A4
100
AcDbEntity
  8
0
100
AcDbLine
 62
250
  6
CONTINUOUS
 10
-12.9418427907
 20
3.4240000573
 11
-12.9418427907
 21
2.8742857184
  0
LINE
  5
2A5
100
AcDbEntity
  8
0
100
AcDbLine
 62
250
  6
CONTINUOUS
 10
-12.9353594806
 20
14.5557140236
 11
-12.9353594806
 21
14.0403574705
  0
LINE
  5
2A6
100
AcDbEntity
  8
0
100
AcDbLine
 62
250
  6
CONTINUOUS
 10
-12.9353594806
 20
5.8977143676
 11
-12.9353594806
 21
5.2792857471
  0
LINE
  5
2A7
100
AcDbEntity
  8
0
100
AcDbLine
 62
250
  6
CONTINUOUS
 10
-12.9353594806
 20
4.4890713794
 11
-12.9353594806
 21
3.9737143103
  0
LINE
  5
2A8
100
AcDbEntity
  8
0
100
AcDbLine
 62
250
  6
CONTINUOUS
 10
-12.958051065
 20
4.4890713794
 11
-12.9548094103
 21
4.6952141383
  0
LINE
  5
2A9
100
AcDbEntity
  8
0
100
AcDbLine
 62
250
  6
CONTINUOUS
 10
-12.958051065
 20
14.9679995413
 11
-12.9483261008
 21
15.380285059
  0
LWPOLYLINE
  5
2AA
100
AcDbEntity
  8
RACCORDO
100
AcDbPolyline
 62
7
  6
CONTINUOUS
 90
34
 70
0
 10
-12.575
 20
24.2500042308
 10
-12.5747168498
 20
24.261899516
 10
-12.5738680342
 20
24.2737678556
 10
-12.5724554741
 20
24.2855823661
 10
-12.5704823677
 20
24.2973162875
 10
-12.5679531817
 20
24.3089430388
 10
-12.5648736417
 20
24.320436279
 10
-12.5612507213
 20
24.3317699738
 10
-12.5570926258
 20
24.3429184493
 10
-12.5524087722
 20
24.3538564463
 10
-12.5472097688
 20
24.3645591876
 10
-12.5415073916
 20
24.3750024283
 10
-12.5353145581
 20
24.3851625059
 10
-12.5286452955
 20
24.3950164051
 10
-12.5215147107
 20
24.4045418038
 10
-12.5139389589
 20
24.4137171191
 10
-12.5059352005
 20
24.4225215661
 10
-12.4975215661
 20
24.4309352005
 10
-12.4887171191
 20
24.4389389589
 10
-12.4795418038
 20
24.4465147107
 10
-12.4700164051
 20
24.4536452955
 10
-12.4601625059
 20
24.4603145581
 10
-12.4500024283
 20
24.4665073916
 10
-12.4395591876
 20
24.4722097688
 10
-12.4288564463
 20
24.4774087722
 10
-12.4179184493
 20
24.4820926258
 10
-12.4067699738
 20
24.4862507213
 10
-12.395436279
 20
24.4898736417
 10
-12.3839430388
 20
24.4929531817
 10
-12.3723162875
 20
24.4954823677
 10
-12.3605823661
 20
24.4974554741
 10
-12.3487678556
 20
24.4988680342
 10
-12.336899516
 20
24.4997168498
 10
-12.3250042308
 20
24.5
  0
LWPOLYLINE
  5
2AB
100
AcDbEntity
  8
RACCORDO
100
AcDbPolyline
 62
250
  6
CONTINUOUS
 90
31
 70
0
 10
-12.570628166
 20
24.2456323968
 10
-12.5702867588
 20
24.2586847368
 10
-12.5692634962
 20
24.2717096311
 10
-12.567559892
 20
24.2846714057
 10
-12.5651787618
 20
24.2975371245
 10
-12.5621256484
 20
24.3102685897
 10
-12.5584102087
 20
24.3228227742
 10
-12.5540436576
 20
24.3351625782
 10
-12.5490372277
 20
24.3472569343
 10
-12.5434044791
 20
24.3590730125
 10
-12.5371606774
 20
24.370578613
 10
-12.5303229956
 20
24.3817419314
 10
-12.5229103656
 20
24.3925320106
 10
-12.5149432233
 20
24.4029191364
 10
-12.5064433264
 20
24.4128749736
 10
-12.4974339046
 20
24.422372308
 10
-12.4879396114
 20
24.4313851271
 10
-12.477986508
 20
24.4398886687
 10
-12.4676019187
 20
24.4478595768
 10
-12.4568143284
 20
24.4552759837
 10
-12.4456533025
 20
24.4621175595
 10
-12.4341494467
 20
24.4683655387
 10
-12.422334301
 20
24.4740027869
 10
-12.4102402638
 20
24.4790138424
 10
-12.3979005077
 20
24.4833849575
 10
-12.3853488602
 20
24.487104147
 10
-12.3726197463
 20
24.4901612081
 10
-12.3597481067
 20
24.4925477509
 10
-12.3467692492
 20
24.494257234
 10
-12.3337187509
 20
24.495284977
 10
-12.3206323968
 20
24.495628166
  0
LINE
  5
2AC
100
AcDbEntity
  8
0
100
AcDbLine
 62
250
  6
CONTINUOUS
 10
-12.958051065
 20
8.3714285059
 11
-12.9353594806
 21
9.0929285059
  0
LINE
  5
2AD
100
AcDbEntity
  8
0
100
AcDbLine
 62
250
  6
CONTINUOUS
 10
-12.958051065
 20
1.5
 11
-12.9450844454
 21
1.9122857327
  0
LINE
  5
2AE
100
AcDbEntity
  8
0
100
AcDbLine
 62
250
  6
CONTINUOUS
 10
-12.958051065
 20
13.215785059
 11
-12.9353594806
 21
13.6280719528
  0
LINE
  5
2AF
100
AcDbEntity
  8
0
100
AcDbLine
 62
250
  6
CONTINUOUS
 10
-12.958051065
 20
3.1491429309
 11
-12.9353594806
 21
3.5614286206
  0
LINE
  5
2B0
100
AcDbEntity
  8
ASSI
100
AcDbLine
 62
7
  6
CONTINUOUS
 10
2.3362377117
 20
23.6224696064
 11
2.3096745345
 21
23.5920986856
  0
LINE
  5
2B1
100
AcDbEntity
  8
ASSI
100
AcDbLine
 62
7
  6
CONTINUOUS
 10
2.3096745345
 20
23.5920986856
 11
2.2792797782
 21
23.5578770694
  0
LINE
  5
2B2
100
AcDbEntity
  8
ASSI
100
AcDbLine
 62
7
  6
CONTINUOUS
 10
2.2792797782
 20
23.5578770694
 11
2.24505861
 21
23.5198277667
  0
LINE
  5
2B3
100
AcDbEntity
  8
ASSI
100
AcDbLine
 62
7
  6
CONTINUOUS
 10
2.24505861
 20
23.5198277667
 11
2.1867198582
 21
23.4556932073
  0
LINE
  5
2B4
100
AcDbEntity
  8
ASSI
100
AcDbLine
 62
7
  6
CONTINUOUS
 10
2.1867198582
 20
23.4556932073
 11
2.0029699877
 21
23.2563578147
  0
LINE
  5
2B5
100
AcDbEntity
  8
RACCORDO
100
AcDbLine
 62
250
  6
CONTINUOUS
 10
8.6393027805
 20
19.0856972195
 11
8.4647521312
 21
19.0133959733
  0
LINE
  5
2B6
100
AcDbEntity
  8
0
100
AcDbLine
 62
250
  6
CONTINUOUS
 10
8.6393027805
 20
19.0856972195
 11
8.4647521312
 21
19.0133959733
  0
LINE
  5
2B7
100
AcDbEntity
  8
0
100
AcDbLine
 62
250
  6
CONTINUOUS
 10
9.094555307
 20
-14.3231427853
 11
9.0992923884
 21
-14.3231427853
  0
LINE
  5
2B8
100
AcDbEntity
  8
RACCORDO
100
AcDbLine
 62
250
  6
CONTINUOUS
 10
8.4647521312
 20
-19.0133959733
 11
8.6393027805
 21
-19.0856972195
  0
LINE
  5
2B9
100
AcDbEntity
  8
0
100
AcDbLine
 62
250
  6
CONTINUOUS
 10
8.4647521312
 20
-19.0133959733
 11
8.6393027805
 21
-19.0856972195
  0
LINE
  5
2BA
100
AcDbEntity
  8
ASSI
100
AcDbLine
 62
7
  6
CONTINUOUS
 10
2.0029699877
 20
-23.2563578147
 11
2.0979712025
 21
-23.3591070645
  0
LINE
  5
2BB
100
AcDbEntity
  8
ASSI
100
AcDbLine
 62
7
  6
CONTINUOUS
 10
2.0979712025
 20
-23.3591070645
 11
2.1866279299
 21
-23.4555921064
  0
LINE
  5
2BC
100
AcDbEntity
  8
ASSI
100
AcDbLine
 62
7
  6
CONTINUOUS
 10
2.1866279299
 20
-23.4555921064
 11
2.2449221498
 21
-23.5196770081
  0
LINE
  5
2BD
100
AcDbEntity
  8
ASSI
100
AcDbLine
 62
7
  6
CONTINUOUS
 10
2.2449221498
 20
-23.5196770081
 11
2.2791007772
 21
-23.5576772686
  0
LINE
  5
2BE
100
AcDbEntity
  8
ASSI
100
AcDbLine
 62
7
  6
CONTINUOUS
 10
2.2791007772
 20
-23.5576772686
 11
2.3094621874
 21
-23.5918579051
  0
LWPOLYLINE
  5
2BF
100
AcDbEntity
  8
ASSI
100
AcDbPolyline
 62
7
  6
CONTINUOUS
 90
18
 70
0
 10
2.3094621874
 20
-23.5918579051
 10
2.3360120715
 20
-23.6222095469
 10
2.3479264894
 20
-23.6360382845
 10
2.3589567081
 20
-23.6489916989
 10
2.3691144665
 20
-23.6610710839
 10
2.3784472137
 20
-23.6723523989
 10
2.3869585062
 20
-23.6828353457
 10
2.3946635086
 20
-23.6925202225
 10
2.4016108951
 20
-23.7014838836
 10
2.4078161451
 20
-23.709745993
 10
2.4132668343
 20
-23.7172868866
 10
2.4179632158
 20
-23.7241244261
 10
2.4219153347
 20
-23.7302512888
 10
2.4251336376
 20
-23.7356747975
 10
2.427627049
 20
-23.7404347823
 10
2.4294117387
 20
-23.7445445202
 10
2.4305072846
 20
-23.7479907344
 10
2.4309327327
 20
-23.7507734247
  0
LINE
  5
2C0
100
AcDbEntity
  8
0
100
AcDbLine
 62
250
  6
CONTINUOUS
 10
-12.9353594806
 20
2.7368571551
 11
-12.958051065
 21
3.1491429309
  0
LINE
  5
2C1
100
AcDbEntity
  8
0
100
AcDbLine
 62
250
  6
CONTINUOUS
 10
-12.9353594806
 20
12.8035002294
 11
-12.958051065
 21
13.215785059
  0
LWPOLYLINE
  5
2C2
100
AcDbEntity
  8
RACCORDO
100
AcDbPolyline
 62
250
  6
CONTINUOUS
 90
31
 70
0
 10
-12.570628166
 20
23.8443375673
 10
-12.5702488343
 20
23.8330274168
 10
-12.5691878523
 20
23.8217481519
 10
-12.5674481175
 20
23.810530574
 10
-12.5650343805
 20
23.7994053159
 10
-12.5619532329
 20
23.7884027584
 10
-12.5582130887
 20
23.7775529472
 10
-12.5538241613
 20
23.7668855107
 10
-12.548798436
 20
23.7564295797
 10
-12.543149637
 20
23.7462137069
 10
-12.5368931901
 20
23.7362657898
 10
-12.5300461801
 20
23.7266129942
 10
-12.522627305
 20
23.7172816797
 10
-12.5146568241
 20
23.7082973282
 10
-12.5061565031
 20
23.6996844742
 10
-12.4971495545
 20
23.6914666374
 10
-12.4876605746
 20
23.6836662592
 10
-12.4777154757
 20
23.6763046407
 10
-12.4673414158
 20
23.6694018849
 10
-12.4565667243
 20
23.6629768418
 10
-12.4454208246
 20
23.6570470569
 10
-12.4339341538
 20
23.6516287232
 10
-12.4221380796
 20
23.646736637
 10
-12.4100648147
 20
23.6423841576
 10
-12.3977473285
 20
23.6385831707
 10
-12.3852192577
 20
23.6353440559
 10
-12.3725148136
 20
23.6326756587
 10
-12.3596686895
 20
23.6305852658
 10
-12.3467159655
 20
23.6290785857
 10
-12.3336920127
 20
23.6281597328
 10
-12.3206323968
 20
23.6278312164
  0
LINE
  5
2C3
100
AcDbEntity
  8
0
100
AcDbLine
 62
250
  6
CONTINUOUS
 10
-12.9450844454
 20
1.9122857327
 11
-12.958051065
 21
2.3245714654
  0
LINE
  5
2C4
100
AcDbEntity
  8
0
100
AcDbLine
 62
250
  6
CONTINUOUS
 10
-12.958051065
 20
15.7925719528
 11
-12.9483261008
 21
15.380285059
  0
LINE
  5
2C5
100
AcDbEntity
  8
0
100
AcDbLine
 62
250
  6
CONTINUOUS
 10
-11.7151489418
 20
14.4285714507
 11
-11.7025551139
 21
13.871428588
  0
LINE
  5
2C6
100
AcDbEntity
  8
0
100
AcDbLine
 62
250
  6
CONTINUOUS
 10
-11.6433487773
 20
-0.7714285553
 11
-11.6486077409
 21
-0.5
  0
LINE
  5
2C7
100
AcDbEntity
  8
0
100
AcDbLine
 62
250
  6
CONTINUOUS
 10
-11.8109373499
 20
16.6142857254
 11
-11.8145355881
 21
16.8
  0
LINE
  5
2C8
100
AcDbEntity
  8
0
100
AcDbLine
 62
250
  6
CONTINUOUS
 10
-11.7133498242
 20
13.5
 11
-11.7151489418
 21
13.592857147
  0
LINE
  5
2C9
100
AcDbEntity
  8
0
100
AcDbLine
 62
250
  6
CONTINUOUS
 10
-11.7025551139
 20
14.7071428239
 11
-11.7043542316
 21
14.8
  0
LINE
  5
2CA
100
AcDbEntity
  8
0
100
AcDbLine
 62
250
  6
CONTINUOUS
 10
-12.9386011356
 20
4.6952141383
 11
-12.9353594806
 21
4.4890713794
  0
LINE
  5
2CB
100
AcDbEntity
  8
0
100
AcDbLine
 62
250
  6
CONTINUOUS
 10
-11.7305792181
 20
-2.4
 11
-11.7516150659
 21
-0.5
  0
LINE
  5
2CC
100
AcDbEntity
  8
0
100
AcDbLine
 62
250
  6
CONTINUOUS
 10
-11.8517423049
 20
13.5
 11
-11.8661352534
 21
14.8
  0
LINE
  5
2CD
100
AcDbEntity
  8
RACCORDO
100
AcDbLine
 62
250
  6
CONTINUOUS
 10
-12.570628166
 20
-23.8443375673
 11
-12.575
 21
-23.4104851482
  0
LINE
  5
2CE
100
AcDbEntity
  8
RACCORDO
100
AcDbLine
 62
250
  6
CONTINUOUS
 10
-12.3206323968
 20
-23.6278312164
 11
-12.3257229979
 21
-23.1226497308
  0
LINE
  5
2CF
100
AcDbEntity
  8
RACCORDO
100
AcDbLine
 62
7
  6
CONTINUOUS
 10
-12.9004493507
 20
-17.5993978025
 11
-12.9004493507
 21
17.5993978025
  0
LINE
  5
2D0
100
AcDbEntity
  8
0
100
AcDbLine
 62
7
  6
CONTINUOUS
 10
-12.9004493507
 20
-17.5993978025
 11
-12.9004493507
 21
17.5993978025
  0
LINE
  5
2D1
100
AcDbEntity
  8
RACCORDO
100
AcDbLine
 62
7
  6
CONTINUOUS
 10
-12.575
 20
-22.4
 11
-12.575
 21
-24.2500042308
  0
LINE
  5
2D2
100
AcDbEntity
  8
RACCORDO
100
AcDbLine
 62
7
  6
CONTINUOUS
 10
-12.575
 20
22.4
 11
-12.575
 21
24.2500042308
  0
LINE
  5
2D3
100
AcDbEntity
  8
RACCORDO
100
AcDbLine
 62
250
  6
CONTINUOUS
 10
-12.570628166
 20
24.2456323968
 11
-12.570628166
 21
23.8443375673
  0
LINE
  5
2D4
100
AcDbEntity
  8
RACCORDO
100
AcDbLine
 62
250
  6
CONTINUOUS
 10
-12.570628166
 20
-23.8443375673
 11
-12.570628166
 21
-24.2456323968
  0
LINE
  5
2D5
100
AcDbEntity
  8
RACCORDO
100
AcDbLine
 62
250
  6
CONTINUOUS
 10
-12.3206323968
 20
-23.6278312164
 11
-12.3206323968
 21
-24.495628166
  0
LINE
  5
2D6
100
AcDbEntity
  8
RACCORDO
100
AcDbLine
 62
250
  6
CONTINUOUS
 10
-12.3206323968
 20
23.6278312164
 11
-12.3206323968
 21
24.495628166
  0
LINE
  5
2D7
100
AcDbEntity
  8
RACCORDO
100
AcDbLine
 62
7
  6
CONTINUOUS
 10
-11.975
 20
-5.1001523048
 11
-11.975
 21
18.5001523048
  0
LINE
  5
2D8
100
AcDbEntity
  8
0
100
AcDbLine
 62
7
  6
CONTINUOUS
 10
-11.975
 20
-5.1001523048
 11
-11.975
 21
18.5001523048
  0
LINE
  5
2D9
100
AcDbEntity
  8
0
100
AcDbLine
 62
250
  6
CONTINUOUS
 10
-11.8805282011
 20
14.8
 11
-11.8805282011
 21
13.5
  0
LINE
  5
2DA
100
AcDbEntity
  8
0
100
AcDbLine
 62
250
  6
CONTINUOUS
 10
-11.8397232468
 20
15.5
 11
-11.8397232468
 21
16.8
  0
LINE
  5
2DB
100
AcDbEntity
  8
0
100
AcDbLine
 62
250
  6
CONTINUOUS
 10
-11.8336139741
 20
7.9
 11
-11.8336139741
 21
11.5
  0
LINE
  5
2DC
100
AcDbEntity
  8
0
100
AcDbLine
 62
250
  6
CONTINUOUS
 10
-11.8161589092
 20
6.9
 11
-11.8161589092
 21
7.9
  0
LINE
  5
2DD
100
AcDbEntity
  8
0
100
AcDbLine
 62
250
  6
CONTINUOUS
 10
-11.8109373499
 20
16.4285714507
 11
-11.8109373499
 21
16.6142857254
  0
LINE
  5
2DE
100
AcDbEntity
  8
0
100
AcDbLine
 62
250
  6
CONTINUOUS
 10
-11.8100496364
 20
10.0
 11
-11.8100496364
 21
13.5
  0
LINE
  5
2DF
100
AcDbEntity
  8
0
100
AcDbLine
 62
250
  6
CONTINUOUS
 10
-11.7995765975
 20
15.5
 11
-11.7995765975
 21
10.0
  0
LINE
  5
2E0
100
AcDbEntity
  8
0
100
AcDbLine
 62
250
  6
CONTINUOUS
 10
-11.7891035585
 20
10.0
 11
-11.7891035585
 21
15.5
  0
LINE
  5
2E1
100
AcDbEntity
  8
0
100
AcDbLine
 62
250
  6
CONTINUOUS
 10
-11.7786305196
 20
13.5
 11
-11.7786305196
 21
10.0
  0
LINE
  5
2E2
100
AcDbEntity
  8
0
100
AcDbLine
 62
250
  6
CONTINUOUS
 10
-11.7777577663
 20
15.5
 11
-11.7777577663
 21
16.8
  0
LINE
  5
2E3
100
AcDbEntity
  8
0
100
AcDbLine
 62
250
  6
CONTINUOUS
 10
-11.7726509126
 20
-0.5
 11
-11.7726509126
 21
-2.4
  0
LINE
  5
2E4
100
AcDbEntity
  8
0
100
AcDbLine
 62
250
  6
CONTINUOUS
 10
-11.7725212468
 20
7.9
 11
-11.7725212468
 21
6.9
  0
LINE
  5
2E5
100
AcDbEntity
  8
0
100
AcDbLine
 62
250
  6
CONTINUOUS
 10
-11.7550661819
 20
11.5
 11
-11.7550661819
 21
7.9
  0
LINE
  5
2E6
100
AcDbEntity
  8
0
100
AcDbLine
 62
250
  6
CONTINUOUS
 10
-11.7543692267
 20
16.8
 11
-11.7543692267
 21
15.5
  0
LINE
  5
2E7
100
AcDbEntity
  8
0
100
AcDbLine
 62
250
  6
CONTINUOUS
 10
-11.7295418895
 20
14.8
 11
-11.7295418895
 21
13.5
  0
LINE
  5
2E8
100
AcDbEntity
  8
0
100
AcDbLine
 62
250
  6
CONTINUOUS
 10
-11.7151489418
 20
14.6142857254
 11
-11.7151489418
 21
14.4285714507
  0
LINE
  5
2E9
100
AcDbEntity
  8
0
100
AcDbLine
 62
250
  6
CONTINUOUS
 10
-11.7025551139
 20
13.871428588
 11
-11.7025551139
 21
13.685714294
  0
LINE
  5
2EA
100
AcDbEntity
  8
0
100
AcDbLine
 62
250
  6
CONTINUOUS
 10
-11.6854204728
 20
-2.4
 11
-11.6854204728
 21
-0.5
  0
LINE
  5
2EB
100
AcDbEntity
  8
0
100
AcDbLine
 62
250
  6
CONTINUOUS
 10
-11.6433487773
 20
-1.0428571105
 11
-11.6433487773
 21
-0.7714285553
  0
LINE
  5
2EC
100
AcDbEntity
  8
RACCORDO
100
AcDbLine
 62
250
  6
CONTINUOUS
 10
-11.5976659647
 20
18.1228182695
 11
-11.5976659647
 21
5.1946658545
  0
LINE
  5
2ED
100
AcDbEntity
  8
0
100
AcDbLine
 62
250
  6
CONTINUOUS
 10
-11.5976659647
 20
18.1228182695
 11
-11.5976659647
 21
5.1946658545
  0
LINE
  5
2EE
100
AcDbEntity
  8
RACCORDO
100
AcDbLine
 62
250
  6
CONTINUOUS
 10
-11.5976659647
 20
1.0053341455
 11
-11.5976659647
 21
-4.7228182695
  0
LINE
  5
2EF
100
AcDbEntity
  8
0
100
AcDbLine
 62
250
  6
CONTINUOUS
 10
-11.5976659647
 20
1.0053341455
 11
-11.5976659647
 21
-4.7228182695
  0
LINE
  5
2F0
100
AcDbEntity
  8
DRAFT
100
AcDbLine
 62
7
  6
CONTINUOUS
 10
-11.575
 20
-20.1489710538
 11
-11.575
 21
-20.0
  0
LINE
  5
2F1
100
AcDbEntity
  8
DRAFT
100
AcDbLine
 62
7
  6
CONTINUOUS
 10
-11.575
 20
20.0
 11
-11.575
 21
20.1489710538
  0
LINE
  5
2F2
100
AcDbEntity
  8
RACCORDO
100
AcDbLine
 62
250
  6
CONTINUOUS
 10
-12.575
 20
23.4104851482
 11
-12.570628166
 21
23.8443375673
  0
LINE
  5
2F3
100
AcDbEntity
  8
RACCORDO
100
AcDbLine
 62
250
  6
CONTINUOUS
 10
-12.3257229979
 20
23.1226497308
 11
-12.3206323968
 21
23.6278312164
  0
LINE
  5
2F4
100
AcDbEntity
  8
0
100
AcDbLine
 62
250
  6
CONTINUOUS
 10
-11.8517423049
 20
14.8
 11
-11.8661352534
 21
13.5
  0
LINE
  5
2F5
100
AcDbEntity
  8
0
100
AcDbLine
 62
250
  6
CONTINUOUS
 10
-11.7305792181
 20
-0.5
 11
-11.7516150659
 21
-2.4
  0
LINE
  5
2F6
100
AcDbEntity
  8
0
100
AcDbLine
 62
250
  6
CONTINUOUS
 10
-11.819932944
 20
16.8
 11
-11.8235311807
 21
16.5214285493
  0
LINE
  5
2F7
100
AcDbEntity
  8
0
100
AcDbLine
 62
250
  6
CONTINUOUS
 10
-11.6564961841
 20
-0.5
 11
-11.6617551455
 21
-0.9071428895
  0
LINE
  5
2F8
100
AcDbEntity
  8
0
100
AcDbLine
 62
250
  6
CONTINUOUS
 10
-11.8235311807
 20
15.5
 11
-11.8109373499
 21
16.4285714507
  0
LINE
  5
2F9
100
AcDbEntity
  8
0
100
AcDbLine
 62
250
  6
CONTINUOUS
 10
-11.6617551455
 20
-2.4
 11
-11.6433487773
 21
-1.0428571105
  0
LWPOLYLINE
  5
2FA
100
AcDbEntity
  8
RACCORDO
100
AcDbPolyline
 62
250
  6
CONTINUOUS
 90
58
 70
0
 10
-11.5976659647
 20
18.1228182695
 10
-11.5972780869
 20
18.1503630757
 10
-11.5961315278
 20
18.1778869729
 10
-11.5942271575
 20
18.2053690679
 10
-11.5915664217
 20
18.2327884993
 10
-11.5881513401
 20
18.2601244532
 10
-11.5839845052
 20
18.2873561791
 10
-11.5790690798
 20
18.3144630058
 10
-11.5734087952
 20
18.3414243565
 10
-11.5670079482
 20
18.3682197652
 10
-11.5598713976
 20
18.3948288918
 10
-11.5520045606
 20
18.4212315373
 10
-11.5434134089
 20
18.4474076599
 10
-11.5341044639
 20
18.4733373895
 10
-11.5240847921
 20
18.499001043
 10
-11.5133619992
 20
18.5243791393
 10
-11.5019442249
 20
18.5494524142
 10
-11.4898401362
 20
18.5742018347
 10
-11.4770589213
 20
18.5986086138
 10
-11.4636102824
 20
18.6226542245
 10
-11.449504428
 20
18.646320414
 10
-11.434752066
 20
18.6695892175
 10
-11.4193643946
 20
18.6924429717
 10
-11.4033530945
 20
18.7148643287
 10
-11.3867303198
 20
18.7368362686
 10
-11.3695086887
 20
18.7583421126
 10
-11.3517012739
 20
18.7793655359
 10
-11.333321593
 20
18.7998905798
 10
-11.3143835977
 20
18.8199016638
 10
-11.2949016638
 20
18.8393835977
 10
-11.2748905798
 20
18.858321593
 10
-11.2543655359
 20
18.8767012739
 10
-11.2333421126
 20
18.8945086887
 10
-11.2118362686
 20
18.9117303198
 10
-11.1898643287
 20
18.9283530945
 10
-11.1674429717
 20
18.9443643946
 10
-11.1445892175
 20
18.959752066
 10
-11.121320414
 20
18.974504428
 10
-11.0976542245
 20
18.9886102824
 10
-11.0736086138
 20
19.0020589213
 10
-11.0492018347
 20
19.0148401362
 10
-11.0244524142
 20
19.0269442249
 10
-10.9993791393
 20
19.0383619992
 10
-10.974001043
 20
19.0490847921
 10
-10.9483373895
 20
19.0591044639
 10
-10.9224076599
 20
19.0684134089
 10
-10.8962315373
 20
19.0770045606
 10
-10.8698288918
 20
19.0848713976
 10
-10.8432197652
 20
19.0920079482
 10
-10.8164243565
 20
19.0984087952
 10
-10.7894630058
 20
19.1040690798
 10
-10.7623561791
 20
19.1089845052
 10
-10.7351244532
 20
19.1131513401
 10
-10.7077884993
 20
19.1165664217
 10
-10.6803690679
 20
19.1192271575
 10
-10.6528869729
 20
19.1211315278
 10
-10.6253630757
 20
19.1222780869
 10
-10.5978182695
 20
19.1226659647
  0
LWPOLYLINE
  5
2FB
100
AcDbEntity
  8
0
100
AcDbPolyline
 62
250
  6
CONTINUOUS
 90
58
 70
0
 10
-11.5976659647
 20
18.1228182695
 10
-11.5972780869
 20
18.1503630757
 10
-11.5961315278
 20
18.1778869729
 10
-11.5942271575
 20
18.2053690679
 10
-11.5915664217
 20
18.2327884993
 10
-11.5881513401
 20
18.2601244532
 10
-11.5839845052
 20
18.2873561791
 10
-11.5790690798
 20
18.3144630058
 10
-11.5734087952
 20
18.3414243565
 10
-11.5670079482
 20
18.3682197652
 10
-11.5598713976
 20
18.3948288918
 10
-11.5520045606
 20
18.4212315373
 10
-11.5434134089
 20
18.4474076599
 10
-11.5341044639
 20
18.4733373895
 10
-11.5240847921
 20
18.499001043
 10
-11.5133619992
 20
18.5243791393
 10
-11.5019442249
 20
18.5494524142
 10
-11.4898401362
 20
18.5742018347
 10
-11.4770589213
 20
18.5986086138
 10
-11.4636102824
 20
18.6226542245
 10
-11.449504428
 20
18.646320414
 10
-11.434752066
 20
18.6695892175
 10
-11.4193643946
 20
18.6924429717
 10
-11.4033530945
 20
18.7148643287
 10
-11.3867303198
 20
18.7368362686
 10
-11.3695086887
 20
18.7583421126
 10
-11.3517012739
 20
18.7793655359
 10
-11.333321593
 20
18.7998905798
 10
-11.3143835977
 20
18.8199016638
 10
-11.2949016638
 20
18.8393835977
 10
-11.2748905798
 20
18.858321593
 10
-11.2543655359
 20
18.8767012739
 10
-11.2333421126
 20
18.8945086887
 10
-11.2118362686
 20
18.9117303198
 10
-11.1898643287
 20
18.9283530945
 10
-11.1674429717
 20
18.9443643946
 10
-11.1445892175
 20
18.959752066
 10
-11.121320414
 20
18.974504428
 10
-11.0976542245
 20
18.9886102824
 10
-11.0736086138
 20
19.0020589213
 10
-11.0492018347
 20
19.0148401362
 10
-11.0244524142
 20
19.0269442249
 10
-10.9993791393
 20
19.0383619992
 10
-10.974001043
 20
19.0490847921
 10
-10.9483373895
 20
19.0591044639
 10
-10.9224076599
 20
19.0684134089
 10
-10.8962315373
 20
19.0770045606
 10
-10.8698288918
 20
19.0848713976
 10
-10.8432197652
 20
19.0920079482
 10
-10.8164243565
 20
19.0984087952
 10
-10.7894630058
 20
19.1040690798
 10
-10.7623561791
 20
19.1089845052
 10
-10.7351244532
 20
19.1131513401
 10
-10.7077884993
 20
19.1165664217
 10
-10.6803690679
 20
19.1192271575
 10
-10.6528869729
 20
19.1211315278
 10
-10.6253630757
 20
19.1222780869
 10
-10.5978182695
 20
19.1226659647
  0
LINE
  5
2FC
100
AcDbEntity
  8
0
100
AcDbLine
 62
250
  6
CONTINUOUS
 10
-11.7615657002
 20
16.4285714507
 11
-11.7543692267
 21
16.8
  0
LINE
  5
2FD
100
AcDbEntity
  8
0
100
AcDbLine
 62
250
  6
CONTINUOUS
 10
-11.711550705
 20
14.8
 11
-11.7151489418
 21
14.6142857254
  0
LINE
  5
2FE
100
AcDbEntity
  8
0
100
AcDbLine
 62
250
  6
CONTINUOUS
 10
-11.7025551139
 20
13.685714294
 11
-11.7061533492
 21
13.5
  0
LWPOLYLINE
  5
2FF
100
AcDbEntity
  8
RACCORDO
100
AcDbPolyline
 62
250
  6
CONTINUOUS
 90
31
 70
0
 10
-12.570628166
 20
-23.8443375673
 10
-12.5702496104
 20
-23.833039595
 10
-12.5691904828
 20
-23.821769291
 10
-12.5674531063
 20
-23.8105574212
 10
-12.5650414049
 20
-23.7994336121
 10
-12.5619615346
 20
-23.78842936
 10
-12.5582224836
 20
-23.7775778202
 10
-12.5538349392
 20
-23.7669096972
 10
-12.5488105402
 20
-23.7564530239
 10
-12.5431628596
 20
-23.746236105
 10
-12.5369071671
 20
-23.7362866999
 10
-12.5300605925
 20
-23.7266321754
 10
-12.5226419842
 20
-23.7172991519
 10
-12.5146716801
 20
-23.7083132018
 10
-12.5061713853
 20
-23.6996987826
 10
-12.4971642949
 20
-23.6914794042
 10
-12.4876749912
 20
-23.6836775075
 10
-12.4777294041
 20
-23.6763144193
 10
-12.4673547212
 20
-23.6694102704
 10
-12.4565792888
 20
-23.6629839239
 10
-12.4454325308
 20
-23.6570529269
 10
-12.4339448938
 20
-23.6516334796
 10
-12.422147737
 20
-23.6467403776
 10
-12.4100733006
 20
-23.6423869945
 10
-12.397754621
 20
-23.6385852371
 10
-12.3852253856
 20
-23.6353454907
 10
-12.3725197828
 20
-23.6326765842
 10
-12.359672462
 20
-23.6305857918
 10
-12.3467184947
 20
-23.6290788219
 10
-12.333693281
 20
-23.6281597935
 10
-12.3206323968
 20
-23.6278312164
  0
LINE
  5
300
100
AcDbEntity
  8
RACCORDO
100
AcDbLine
 62
7
  6
CONTINUOUS
 10
-9.2238376746
 20
20.9104703804
 11
-9.2740220113
 21
20.4584032484
  0
LINE
  5
301
100
AcDbEntity
  8
DRAFT
100
AcDbLine
 62
7
  6
CONTINUOUS
 10
3.825
 20
19.9
 11
3.7359791689
 21
19.8109791689
  0
LINE
  5
302
100
AcDbEntity
  8
0
100
AcDbLine
 62
7
  6
CONTINUOUS
 10
3.825
 20
19.9
 11
3.7359791689
 21
19.8109791689
  0
LINE
  5
303
100
AcDbEntity
  8
RACCORDO
100
AcDbLine
 62
250
  6
CONTINUOUS
 10
8.4706323968
 20
24.495628166
 11
8.4750042308
 21
24.5
  0
LINE
  5
304
100
AcDbEntity
  8
DRAFT
100
AcDbLine
 62
7
  6
CONTINUOUS
 10
3.825
 20
19.7
 11
3.7359791689
 21
19.6109791689
  0
LINE
  5
305
100
AcDbEntity
  8
0
100
AcDbLine
 62
7
  6
CONTINUOUS
 10
3.825
 20
19.7
 11
3.7359791689
 21
19.6109791689
  0
LINE
  5
306
100
AcDbEntity
  8
RACCORDO
100
AcDbLine
 62
250
  6
CONTINUOUS
 10
9.225
 20
17.6716990487
 11
9.0504493507
 21
17.5993978025
  0
LINE
  5
307
100
AcDbEntity
  8
0
100
AcDbLine
 62
250
  6
CONTINUOUS
 10
9.225
 20
17.6716990487
 11
9.0504493507
 21
17.5993978025
  0
LINE
  5
308
100
AcDbEntity
  8
0
100
AcDbLine
 62
250
  6
CONTINUOUS
 10
9.1808033297
 20
-12.911198
 11
9.1301990421
 21
-12.911198
  0
LINE
  5
309
100
AcDbEntity
  8
0
100
AcDbLine
 62
250
  6
CONTINUOUS
 10
9.0732384386
 20
-12.6660713927
 11
9.085081143
 21
-12.6660713927
  0
LINE
  5
30A
100
AcDbEntity
  8
0
100
AcDbLine
 62
250
  6
CONTINUOUS
 10
9.0921867652
 20
-12.6158570471
 11
9.0992923884
 21
-12.6158570471
  0
LINE
  5
30B
100
AcDbEntity
  8
0
100
AcDbLine
 62
250
  6
CONTINUOUS
 10
9.1407018187
 20
-12.328754
 11
9.1808033297
 21
-12.328754
  0
LINE
  5
30C
100
AcDbEntity
  8
RACCORDO
100
AcDbLine
 62
250
  6
CONTINUOUS
 10
9.0504493507
 20
-17.5993978025
 11
9.225
 21
-17.6716990487
  0
LINE
  5
30D
100
AcDbEntity
  8
0
100
AcDbLine
 62
250
  6
CONTINUOUS
 10
9.0504493507
 20
-17.5993978025
 11
9.225
 21
-17.6716990487
  0
LINE
  5
30E
100
AcDbEntity
  8
DRAFT
100
AcDbLine
 62
7
  6
CONTINUOUS
 10
3.7359791689
 20
-19.8109791689
 11
3.825
 21
-19.9
  0
LINE
  5
30F
100
AcDbEntity
  8
0
100
AcDbLine
 62
7
  6
CONTINUOUS
 10
3.7359791689
 20
-19.8109791689
 11
3.825
 21
-19.9
  0
LINE
  5
310
100
AcDbEntity
  8
RACCORDO
100
AcDbLine
 62
250
  6
CONTINUOUS
 10
8.4706323968
 20
-24.495628166
 11
8.4750042308
 21
-24.5
  0
LINE
  5
311
100
AcDbEntity
  8
DRAFT
100
AcDbLine
 62
7
  6
CONTINUOUS
 10
3.825
 20
-19.7
 11
3.7359791689
 21
-19.6109791689
  0
LINE
  5
312
100
AcDbEntity
  8
0
100
AcDbLine
 62
7
  6
CONTINUOUS
 10
3.825
 20
-19.7
 11
3.7359791689
 21
-19.6109791689
  0
LINE
  5
313
100
AcDbEntity
  8
RACCORDO
100
AcDbLine
 62
7
  6
CONTINUOUS
 10
-9.2740220113
 20
-20.4584032484
 11
-9.2238376746
 21
-20.9104703804
  0
LWPOLYLINE
  5
314
100
AcDbEntity
  8
RACCORDO
100
AcDbPolyline
 62
250
  6
CONTINUOUS
 90
31
 70
0
 10
-10.179371834
 20
-23.8443375673
 10
-10.1797511885
 20
-23.8330270596
 10
-10.1808122363
 20
-23.8217474404
 10
-10.1825520796
 20
-23.8105295141
 10
-10.1849659648
 20
-23.7994039253
 10
-10.1880473009
 20
-23.7884010484
 10
-10.1917876826
 20
-23.7775509057
 10
-10.196176909
 20
-23.7668831095
 10
-10.2012029911
 20
-23.756426816
 10
-10.2068521875
 20
-23.7462106168
 10
-10.2131090593
 20
-23.7362624252
 10
-10.2199565249
 20
-23.7266093946
 10
-10.2273758889
 20
-23.7172778785
 10
-10.2353468926
 20
-23.7082933575
 10
-10.2438477641
 20
-23.699680372
 10
-10.2528552844
 20
-23.6914624468
 10
-10.2623448482
 20
-23.6836620286
 10
-10.2722905438
 20
-23.676300415
 10
-10.2826652233
 20
-23.6693977011
 10
-10.2934405758
 20
-23.6629727275
 10
-10.3045871553
 20
-23.6570430559
 10
-10.3160744696
 20
-23.6516249047
 10
-10.3278711116
 20
-23.6467330775
 10
-10.3399448924
 20
-23.6423809129
 10
-10.3522628811
 20
-23.6385802779
 10
-10.3647919133
 20
-23.6353414408
 10
-10.3774973112
 20
-23.6326734007
 10
-10.3903429626
 20
-23.6305836414
 10
-10.4032932772
 20
-23.6290777228
 10
-10.4163133412
 20
-23.6281594768
 10
-10.4293676032
 20
-23.6278312164
  0
LINE
  5
315
100
AcDbEntity
  8
RACCORDO
100
AcDbLine
 62
250
  6
CONTINUOUS
 10
-10.4293676032
 20
23.6278312164
 11
-10.4242770021
 21
23.1226497308
  0
LINE
  5
316
100
AcDbEntity
  8
RACCORDO
100
AcDbLine
 62
250
  6
CONTINUOUS
 10
-10.179371834
 20
23.8443375673
 11
-10.175
 21
23.4104851482
  0
LINE
  5
317
100
AcDbEntity
  8
RACCORDO
100
AcDbLine
 62
250
  6
CONTINUOUS
 10
-10.5978182695
 20
1.2646781665
 11
-10.5978182695
 21
-5.7226659647
  0
LINE
  5
318
100
AcDbEntity
  8
0
100
AcDbLine
 62
250
  6
CONTINUOUS
 10
-10.5978182695
 20
1.2646781665
 11
-10.5978182695
 21
-5.7226659647
  0
LINE
  5
319
100
AcDbEntity
  8
RACCORDO
100
AcDbLine
 62
250
  6
CONTINUOUS
 10
-10.5978182695
 20
4.9353218335
 11
-10.5978182695
 21
19.1226659647
  0
LINE
  5
31A
100
AcDbEntity
  8
0
100
AcDbLine
 62
250
  6
CONTINUOUS
 10
-10.5978182695
 20
4.9353218335
 11
-10.5978182695
 21
19.1226659647
  0
LINE
  5
31B
100
AcDbEntity
  8
RACCORDO
100
AcDbLine
 62
250
  6
CONTINUOUS
 10
-10.4293676032
 20
-23.6278312164
 11
-10.4293676032
 21
-24.495628166
  0
LINE
  5
31C
100
AcDbEntity
  8
RACCORDO
100
AcDbLine
 62
250
  6
CONTINUOUS
 10
-10.4293676032
 20
23.6278312164
 11
-10.4293676032
 21
24.495628166
  0
LINE
  5
31D
100
AcDbEntity
  8
0
100
AcDbLine
 62
7
  6
CONTINUOUS
 10
-10.325
 20
1.3377823851
 11
-10.325
 21
4.8622176149
  0
LINE
  5
31E
100
AcDbEntity
  8
RACCORDO
100
AcDbLine
 62
250
  6
CONTINUOUS
 10
-10.179371834
 20
-24.2456323968
 11
-10.179371834
 21
-23.8443375673
  0
LINE
  5
31F
100
AcDbEntity
  8
RACCORDO
100
AcDbLine
 62
250
  6
CONTINUOUS
 10
-10.179371834
 20
23.8443375673
 11
-10.179371834
 21
24.2456323968
  0
LINE
  5
320
100
AcDbEntity
  8
DRAFT
100
AcDbLine
 62
7
  6
CONTINUOUS
 10
-10.175
 20
-21.4
 11
-10.175
 21
-20.9
  0
LINE
  5
321
100
AcDbEntity
  8
RACCORDO
100
AcDbLine
 62
7
  6
CONTINUOUS
 10
-10.175
 20
-22.4
 11
-10.175
 21
-24.2500042308
  0
LINE
  5
322
100
AcDbEntity
  8
DRAFT
100
AcDbLine
 62
7
  6
CONTINUOUS
 10
-10.175
 20
20.9
 11
-10.175
 21
21.4
  0
LINE
  5
323
100
AcDbEntity
  8
RACCORDO
100
AcDbLine
 62
7
  6
CONTINUOUS
 10
-10.175
 20
22.4
 11
-10.175
 21
24.2500042308
  0
LINE
  5
324
100
AcDbEntity
  8
RACCORDO
100
AcDbLine
 62
250
  6
CONTINUOUS
 10
-10.0090245667
 20
21.5659754333
 11
-10.0090245667
 21
20.9917082642
  0
LINE
  5
325
100
AcDbEntity
  8
RACCORDO
100
AcDbLine
 62
250
  6
CONTINUOUS
 10
-10.0090245667
 20
-20.9917082642
 11
-10.0090245667
 21
-21.5659754333
  0
LINE
  5
326
100
AcDbEntity
  8
RACCORDO
100
AcDbLine
 62
250
  6
CONTINUOUS
 10
-9.5091007192
 20
21.3126932437
 11
-9.5091007192
 21
20.9959955457
  0
LINE
  5
327
100
AcDbEntity
  8
RACCORDO
100
AcDbLine
 62
250
  6
CONTINUOUS
 10
-9.5091007192
 20
-20.9959955457
 11
-9.5091007192
 21
-21.3126932437
  0
LINE
  5
328
100
AcDbEntity
  8
DRAFT
100
AcDbLine
 62
7
  6
CONTINUOUS
 10
-9.4140208311
 20
-20.6754493507
 11
-9.4140208311
 21
-19.6109791689
  0
LINE
  5
329
100
AcDbEntity
  8
0
100
AcDbLine
 62
7
  6
CONTINUOUS
 10
-9.4140208311
 20
-20.6754493507
 11
-9.4140208311
 21
-19.6109791689
  0
LINE
  5
32A
100
AcDbEntity
  8
DRAFT
100
AcDbLine
 62
7
  6
CONTINUOUS
 10
-9.4140208311
 20
19.6109791689
 11
-9.4140208311
 21
20.6754493507
  0
LINE
  5
32B
100
AcDbEntity
  8
0
100
AcDbLine
 62
7
  6
CONTINUOUS
 10
-9.4140208311
 20
19.6109791689
 11
-9.4140208311
 21
20.6754493507
  0
LINE
  5
32C
100
AcDbEntity
  8
DRAFT
100
AcDbLine
 62
7
  6
CONTINUOUS
 10
-9.325
 20
20.7644701819
 11
-9.325
 21
19.7
  0
LINE
  5
32D
100
AcDbEntity
  8
0
100
AcDbLine
 62
7
  6
CONTINUOUS
 10
-9.325
 20
20.7644701819
 11
-9.325
 21
19.7
  0
LINE
  5
32E
100
AcDbEntity
  8
DRAFT
100
AcDbLine
 62
7
  6
CONTINUOUS
 10
-9.325
 20
-19.7
 11
-9.325
 21
-20.7644701819
  0
LINE
  5
32F
100
AcDbEntity
  8
0
100
AcDbLine
 62
7
  6
CONTINUOUS
 10
-9.325
 20
-19.7
 11
-9.325
 21
-20.7644701819
  0
LINE
  5
330
100
AcDbEntity
  8
RACCORDO
100
AcDbLine
 62
7
  6
CONTINUOUS
 10
-9.2767786853
 20
-19.959088481
 11
-9.2767786853
 21
-19.7
  0
LINE
  5
331
100
AcDbEntity
  8
RACCORDO
100
AcDbLine
 62
7
  6
CONTINUOUS
 10
-9.2767786853
 20
19.7
 11
-9.2767786853
 21
19.959088481
  0
LINE
  5
332
100
AcDbEntity
  8
RACCORDO
100
AcDbLine
 62
7
  6
CONTINUOUS
 10
-9.1668217019
 20
-20.9959955457
 11
-9.1668217019
 21
-19.9570181168
  0
LINE
  5
333
100
AcDbEntity
  8
RACCORDO
100
AcDbLine
 62
7
  6
CONTINUOUS
 10
-9.1668217019
 20
19.9570181168
 11
-9.1668217019
 21
20.9959955457
  0
LINE
  5
334
100
AcDbEntity
  8
RACCORDO
100
AcDbLine
 62
250
  6
CONTINUOUS
 10
-10.4242770021
 20
-23.1226497308
 11
-10.4293676032
 21
-23.6278312164
  0
LINE
  5
335
100
AcDbEntity
  8
RACCORDO
100
AcDbLine
 62
250
  6
CONTINUOUS
 10
-10.175
 20
-23.4104851482
 11
-10.179371834
 21
-23.8443375673
  0
LWPOLYLINE
  5
336
100
AcDbEntity
  8
RACCORDO
100
AcDbPolyline
 62
7
  6
CONTINUOUS
 90
34
 70
0
 10
-10.175
 20
-24.2500042308
 10
-10.1752831502
 20
-24.261899516
 10
-10.1761319658
 20
-24.2737678556
 10
-10.1775445259
 20
-24.2855823661
 10
-10.1795176323
 20
-24.2973162875
 10
-10.1820468183
 20
-24.3089430388
 10
-10.1851263583
 20
-24.320436279
 10
-10.1887492787
 20
-24.3317699738
 10
-10.1929073742
 20
-24.3429184493
 10
-10.1975912278
 20
-24.3538564463
 10
-10.2027902312
 20
-24.3645591876
 10
-10.2084926084
 20
-24.3750024283
 10
-10.2146854419
 20
-24.3851625059
 10
-10.2213547045
 20
-24.3950164051
 10
-10.2284852893
 20
-24.4045418038
 10
-10.2360610411
 20
-24.4137171191
 10
-10.2440647995
 20
-24.4225215661
 10
-10.2524784339
 20
-24.4309352005
 10
-10.2612828809
 20
-24.4389389589
 10
-10.2704581962
 20
-24.4465147107
 10
-10.2799835949
 20
-24.4536452955
 10
-10.2898374941
 20
-24.4603145581
 10
-10.2999975717
 20
-24.4665073916
 10
-10.3104408124
 20
-24.4722097688
 10
-10.3211435537
 20
-24.4774087722
 10
-10.3320815507
 20
-24.4820926258
 10
-10.3432300262
 20
-24.4862507213
 10
-10.354563721
 20
-24.4898736417
 10
-10.3660569612
 20
-24.4929531817
 10
-10.3776837125
 20
-24.4954823677
 10
-10.3894176339
 20
-24.4974554741
 10
-10.4012321444
 20
-24.4988680342
 10
-10.413100484
 20
-24.4997168498
 10
-10.4249957692
 20
-24.5
  0
LWPOLYLINE
  5
337
100
AcDbEntity
  8
RACCORDO
100
AcDbPolyline
 62
250
  6
CONTINUOUS
 90
31
 70
0
 10
-10.179371834
 20
-24.2456323968
 10
-10.179715023
 20
-24.2587187509
 10
-10.180742766
 20
-24.2717692492
 10
-10.1824522491
 20
-24.2847481067
 10
-10.1848387919
 20
-24.2976197463
 10
-10.187895853
 20
-24.3103488602
 10
-10.1916150425
 20
-24.3229005077
 10
-10.1959861576
 20
-24.3352402638
 10
-10.2009972131
 20
-24.347334301
 10
-10.2066344613
 20
-24.3591494467
 10
-10.2128824405
 20
-24.3706533025
 10
-10.2197240163
 20
-24.3818143284
 10
-10.2271404232
 20
-24.3926019187
 10
-10.2351113313
 20
-24.402986508
 10
-10.2436148729
 20
-24.4129396114
 10
-10.252627692
 20
-24.4224339046
 10
-10.2621250264
 20
-24.4314433264
 10
-10.2720808636
 20
-24.4399432233
 10
-10.2824679894
 20
-24.4479103656
 10
-10.2932580686
 20
-24.4553229956
 10
-10.304421387
 20
-24.4621606774
 10
-10.3159269875
 20
-24.4684044791
 10
-10.3277430657
 20
-24.4740372277
 10
-10.3398374218
 20
-24.4790436576
 10
-10.3521772258
 20
-24.4834102087
 10
-10.3647314103
 20
-24.4871256484
 10
-10.3774628755
 20
-24.4901787618
 10
-10.3903285943
 20
-24.492559892
 10
-10.4032903689
 20
-24.4942634962
 10
-10.4163152632
 20
-24.4952867588
 10
-10.4293676032
 20
-24.495628166
  0
LWPOLYLINE
  5
338
100
AcDbEntity
  8
RACCORDO
100
AcDbPolyline
 62
250
  6
CONTINUOUS
 90
31
 70
0
 10
-10.179371834
 20
23.8443375673
 10
-10.1797503896
 20
23.833039595
 10
-10.1808095172
 20
23.821769291
 10
-10.1825468937
 20
23.8105574212
 10
-10.1849585951
 20
23.7994336121
 10
-10.1880384654
 20
23.78842936
 10
-10.1917775164
 20
23.7775778202
 10
-10.1961650608
 20
23.7669096972
 10
-10.2011894598
 20
23.7564530239
 10
-10.2068371404
 20
23.746236105
 10
-10.2130928329
 20
23.7362866999
 10
-10.2199394075
 20
23.7266321754
 10
-10.2273580158
 20
23.7172991519
 10
-10.2353283199
 20
23.7083132018
 10
-10.2438286147
 20
23.6996987826
 10
-10.2528357051
 20
23.6914794042
 10
-10.2623250088
 20
23.6836775075
 10
-10.2722705959
 20
23.6763144193
 10
-10.2826452788
 20
23.6694102704
 10
-10.2934207112
 20
23.6629839239
 10
-10.3045674692
 20
23.6570529269
 10
-10.3160551062
 20
23.6516334796
 10
-10.327852263
 20
23.6467403776
 10
-10.3399266994
 20
23.6423869945
 10
-10.352245379
 20
23.6385852371
 10
-10.3647746144
 20
23.6353454907
 10
-10.3774802172
 20
23.6326765842
 10
-10.390327538
 20
23.6305857918
 10
-10.4032815053
 20
23.6290788219
 10
-10.416306719
 20
23.6281597935
 10
-10.4293676032
 20
23.6278312164
  0
LINE
  5
339
100
AcDbEntity
  8
DRAFT
100
AcDbLine
 62
7
  6
CONTINUOUS
 10
2.475
 20
22.4
 11
2.4309327327
 21
22.3338981669
  0
LINE
  5
33A
100
AcDbEntity
  8
RACCORDO
100
AcDbLine
 62
250
  6
CONTINUOUS
 10
8.720628166
 20
24.2456323968
 11
8.725
 21
24.2500042308
  0
LINE
  5
33B
100
AcDbEntity
  8
DRAFT
100
AcDbLine
 62
7
  6
CONTINUOUS
 10
5.5605298181
 20
20.85
 11
5.475
 21
20.7644701819
  0
LINE
  5
33C
100
AcDbEntity
  8
0
100
AcDbLine
 62
7
  6
CONTINUOUS
 10
5.5605298181
 20
20.85
 11
5.475
 21
20.7644701819
  0
LINE
  5
33D
100
AcDbEntity
  8
RACCORDO
100
AcDbLine
 62
7
  6
CONTINUOUS
 10
4.6320215015
 20
19.7570215015
 11
4.575
 21
19.7
  0
LINE
  5
33E
100
AcDbEntity
  8
0
100
AcDbLine
 62
7
  6
CONTINUOUS
 10
-10.325
 20
4.8277217249
 11
-10.4696758185
 21
4.7218131513
  0
LINE
  5
33F
100
AcDbEntity
  8
0
100
AcDbLine
 62
250
  6
CONTINUOUS
 10
9.1725513961
 20
-10.87477
 11
9.1301990421
 21
-10.87477
  0
LINE
  5
340
100
AcDbEntity
  8
0
100
AcDbLine
 62
250
  6
CONTINUOUS
 10
9.0708698977
 20
-10.8081428691
 11
9.0874496838
 21
-10.8081428691
  0
LINE
  5
341
100
AcDbEntity
  8
0
100
AcDbLine
 62
250
  6
CONTINUOUS
 10
9.1301990421
 20
-10.292325
 11
9.1808033297
 21
-10.292325
  0
LINE
  5
342
100
AcDbEntity
  8
0
100
AcDbLine
 62
250
  6
CONTINUOUS
 10
9.1040294699
 20
-9.5025714555
 11
9.0708698977
 21
-9.5025714555
  0
LINE
  5
343
100
AcDbEntity
  8
RACCORDO
100
AcDbLine
 62
250
  6
CONTINUOUS
 10
8.720628166
 20
-24.2456323968
 11
8.725
 21
-24.2500042308
  0
LINE
  5
344
100
AcDbEntity
  8
DRAFT
100
AcDbLine
 62
7
  6
CONTINUOUS
 10
5.5605298181
 20
-20.85
 11
5.475
 21
-20.7644701819
  0
LINE
  5
345
100
AcDbEntity
  8
0
100
AcDbLine
 62
7
  6
CONTINUOUS
 10
5.5605298181
 20
-20.85
 11
5.475
 21
-20.7644701819
  0
LINE
  5
346
100
AcDbEntity
  8
RACCORDO
100
AcDbLine
 62
7
  6
CONTINUOUS
 10
4.6320215015
 20
-19.7570215015
 11
4.575
 21
-19.7
  0
LINE
  5
347
100
AcDbEntity
  8
DRAFT
100
AcDbLine
 62
7
  6
CONTINUOUS
 10
2.475
 20
-22.4
 11
2.4309327327
 21
-22.3338981669
  0
LINE
  5
348
100
AcDbEntity
  8
RACCORDO
100
AcDbLine
 62
7
  6
CONTINUOUS
 10
-8.3377618536
 20
-6.0593000519
 11
-8.5060660785
 21
-5.7226659647
  0
LINE
  5
349
100
AcDbEntity
  8
0
100
AcDbLine
 62
7
  6
CONTINUOUS
 10
-8.3377618536
 20
-6.0593000519
 11
-8.5060660785
 21
-5.7226659647
  0
LINE
  5
34A
100
AcDbEntity
  8
SMUSSO
100
AcDbLine
 62
7
  6
CONTINUOUS
 10
-7.7602304926
 20
-5.059364421
 11
-7.9372176149
 21
-4.7053632162
  0
LINE
  5
34B
100
AcDbEntity
  8
0
100
AcDbLine
 62
7
  6
CONTINUOUS
 10
-7.7602304926
 20
-5.059364421
 11
-7.9372176149
 21
-4.7053632162
  0
LINE
  5
34C
100
AcDbEntity
  8
RACCORDO
100
AcDbLine
 62
7
  6
CONTINUOUS
 10
-8.4831782981
 20
-20.5829242832
 11
-8.4831782981
 21
-19.9570181168
  0
LINE
  5
34D
100
AcDbEntity
  8
RACCORDO
100
AcDbLine
 62
7
  6
CONTINUOUS
 10
-8.4831782981
 20
19.9570181168
 11
-8.4831782981
 21
20.5829242832
  0
LINE
  5
34E
100
AcDbEntity
  8
SMUSSO
100
AcDbLine
 62
7
  6
CONTINUOUS
 10
-7.9372176149
 20
-4.3
 11
-7.9372176149
 21
-4.7053632162
  0
LINE
  5
34F
100
AcDbEntity
  8
0
100
AcDbLine
 62
7
  6
CONTINUOUS
 10
-7.9372176149
 20
-4.3
 11
-7.9372176149
 21
-4.7053632162
  0
LINE
  5
350
100
AcDbEntity
  8
SMUSSO
100
AcDbLine
 62
250
  6
CONTINUOUS
 10
-7.7602304926
 20
-5.059364421
 11
-7.7602304926
 21
-4.4647695074
  0
LINE
  5
351
100
AcDbEntity
  8
0
100
AcDbLine
 62
250
  6
CONTINUOUS
 10
-7.7602304926
 20
-5.059364421
 11
-7.7602304926
 21
-4.4647695074
  0
LINE
  5
352
100
AcDbEntity
  8
DRAFT
100
AcDbLine
 62
7
  6
CONTINUOUS
 10
-7.675
 20
-19.7
 11
-7.675
 21
-19.9
  0
LINE
  5
353
100
AcDbEntity
  8
0
100
AcDbLine
 62
7
  6
CONTINUOUS
 10
-7.675
 20
-19.7
 11
-7.675
 21
-19.9
  0
LINE
  5
354
100
AcDbEntity
  8
DRAFT
100
AcDbLine
 62
7
  6
CONTINUOUS
 10
-7.675
 20
19.7
 11
-7.675
 21
19.9
  0
LINE
  5
355
100
AcDbEntity
  8
0
100
AcDbLine
 62
7
  6
CONTINUOUS
 10
-7.675
 20
19.7
 11
-7.675
 21
19.9
  0
LINE
  5
356
100
AcDbEntity
  8
DRAFT
100
AcDbLine
 62
7
  6
CONTINUOUS
 10
-7.5859791689
 20
19.8109791689
 11
-7.5859791689
 21
19.6109791689
  0
LINE
  5
357
100
AcDbEntity
  8
0
100
AcDbLine
 62
7
  6
CONTINUOUS
 10
-7.5859791689
 20
19.8109791689
 11
-7.5859791689
 21
19.6109791689
  0
LINE
  5
358
100
AcDbEntity
  8
DRAFT
100
AcDbLine
 62
7
  6
CONTINUOUS
 10
-7.5859791689
 20
-19.6109791689
 11
-7.5859791689
 21
-19.8109791689
  0
LINE
  5
359
100
AcDbEntity
  8
0
100
AcDbLine
 62
7
  6
CONTINUOUS
 10
-7.5859791689
 20
-19.6109791689
 11
-7.5859791689
 21
-19.8109791689
  0
LWPOLYLINE
  5
35A
100
AcDbEntity
  8
ASSI
100
AcDbPolyline
 62
7
  6
CONTINUOUS
 90
17
 70
0
 10
-5.425
 20
23.7511422903
 10
-5.4253322899
 20
23.7484239112
 10
-5.4263412067
 20
23.7450420801
 10
-5.4280441065
 20
23.7409967968
 10
-5.4304584565
 20
23.7363008225
 10
-5.4335988805
 20
23.7309413961
 10
-5.437474165
 20
23.7248802347
 10
-5.442093142
 20
23.7181121007
 10
-5.4474652334
 20
23.7106422318
 10
-5.4535942983
 20
23.7024480575
 10
-5.4604689952
 20
23.6935501651
 10
-5.4681047436
 20
23.6839279673
 10
-5.4765547325
 20
23.6734971318
 10
-5.4858381101
 20
23.6622548999
 10
-5.4959578944
 20
23.6502040303
 10
-5.5069598219
 20
23.6372684665
 10
-5.5188557177
 20
23.6234472841
  0
LINE
  5
35B
100
AcDbEntity
  8
RACCORDO
100
AcDbLine
 62
7
  6
CONTINUOUS
 10
4.630294768
 20
20.0829433217
 11
4.5261048448
 21
19.9266562329
  0
LWPOLYLINE
  5
35C
100
AcDbEntity
  8
RACCORDO
100
AcDbPolyline
 62
7
  6
CONTINUOUS
 90
3
 70
0
 10
5.8689545568
 20
21.6129888844
 10
5.8177848301
 20
21.5385902446
 10
5.7917764984
 20
21.5011382645
  0
LINE
  5
35D
100
AcDbEntity
  8
RACCORDO
100
AcDbLine
 62
7
  6
CONTINUOUS
 10
5.7917764984
 20
21.5011382645
 11
5.7125346208
 21
21.3881838872
  0
LINE
  5
35E
100
AcDbEntity
  8
RACCORDO
100
AcDbLine
 62
7
  6
CONTINUOUS
 10
5.7125346208
 20
21.3881838872
 11
5.6591007192
 21
21.3126932437
  0
LINE
  5
35F
100
AcDbEntity
  8
RACCORDO
100
AcDbLine
 62
250
  6
CONTINUOUS
 10
6.7478182695
 20
19.1226659647
 11
7.1251523048
 21
19.5
  0
LINE
  5
360
100
AcDbEntity
  8
0
100
AcDbLine
 62
250
  6
CONTINUOUS
 10
6.7478182695
 20
19.1226659647
 11
7.1251523048
 21
19.5
  0
LINE
  5
361
100
AcDbEntity
  8
RACCORDO
100
AcDbLine
 62
250
  6
CONTINUOUS
 10
7.7476659647
 20
18.1228182695
 11
8.125
 21
18.5001523048
  0
LINE
  5
362
100
AcDbEntity
  8
0
100
AcDbLine
 62
250
  6
CONTINUOUS
 10
7.7476659647
 20
18.1228182695
 11
8.125
 21
18.5001523048
  0
LWPOLYLINE
  5
363
100
AcDbEntity
  8
SMUSSO
100
AcDbPolyline
 62
7
  6
CONTINUOUS
 90
40
 70
0
 10
-5.3191861662
 20
-6.1
 10
-5.3519260729
 20
-6.0861394337
 10
-5.3844298324
 20
-6.0730791326
 10
-5.4166974446
 20
-6.0608190969
 10
-5.4487198039
 20
-6.0493712958
 10
-5.480506016
 20
-6.03872376
 10
-5.5120833977
 20
-6.0288405818
 10
-5.5434379846
 20
-6.0197226654
 10
-5.5745837412
 20
-6.0113691066
 10
-5.605589878
 20
-6.0037412849
 10
-5.6364657112
 20
-5.9968340324
 10
-5.6672019246
 20
-5.990652517
 10
-5.6978397802
 20
-5.9851736214
 10
-5.7283865089
 20
-5.9803950206
 10
-5.7588348798
 20
-5.9763190397
 10
-5.7892044622
 20
-5.9729295364
 10
-5.8194893818
 20
-5.9702252952
 10
-5.8496955129
 20
-5.9682075316
 10
-5.879860047
 20
-5.9668637492
 10
-5.9099676039
 20
-5.9661897779
 10
-5.9400335639
 20
-5.9661897879
 10
-5.9701412583
 20
-5.9668637928
 10
-6.0003061858
 20
-5.9682076426
 10
-6.0305128478
 20
-5.9702254873
 10
-6.06079808
 20
-5.9729297916
 10
-6.0911676577
 20
-5.9763193486
 10
-6.1216158056
 20
-5.9803953651
 10
-6.1521620335
 20
-5.9851739253
 10
-6.1827988812
 20
-5.9906526403
 10
-6.2135338089
 20
-5.996833899
 10
-6.2444087079
 20
-6.0037409528
 10
-6.2754145559
 20
-6.011368686
 10
-6.3065603751
 20
-6.0197222142
 10
-6.3379151234
 20
-6.0288401355
 10
-6.3694927202
 20
-6.038723357
 10
-6.401279246
 20
-6.0493709716
 10
-6.4333019003
 20
-6.0608188555
 10
-6.4655697496
 20
-6.0730789676
 10
-6.4980737274
 20
-6.0861393491
 10
-6.5308138338
 20
-6.1
  0
LWPOLYLINE
  5
364
100
AcDbEntity
  8
0
100
AcDbPolyline
 62
7
  6
CONTINUOUS
 90
40
 70
0
 10
-5.3191861662
 20
-6.1
 10
-5.3519260729
 20
-6.0861394337
 10
-5.3844298324
 20
-6.0730791326
 10
-5.4166974446
 20
-6.0608190969
 10
-5.4487198039
 20
-6.0493712958
 10
-5.480506016
 20
-6.03872376
 10
-5.5120833977
 20
-6.0288405818
 10
-5.5434379846
 20
-6.0197226654
 10
-5.5745837412
 20
-6.0113691066
 10
-5.605589878
 20
-6.0037412849
 10
-5.6364657112
 20
-5.9968340324
 10
-5.6672019246
 20
-5.990652517
 10
-5.6978397802
 20
-5.9851736214
 10
-5.7283865089
 20
-5.9803950206
 10
-5.7588348798
 20
-5.9763190397
 10
-5.7892044622
 20
-5.9729295364
 10
-5.8194893818
 20
-5.9702252952
 10
-5.8496955129
 20
-5.9682075316
 10
-5.879860047
 20
-5.9668637492
 10
-5.9099676039
 20
-5.9661897779
 10
-5.9400335639
 20
-5.9661897879
 10
-5.9701412583
 20
-5.9668637928
 10
-6.0003061858
 20
-5.9682076426
 10
-6.0305128478
 20
-5.9702254873
 10
-6.06079808
 20
-5.9729297916
 10
-6.0911676577
 20
-5.9763193486
 10
-6.1216158056
 20
-5.9803953651
 10
-6.1521620335
 20
-5.9851739253
 10
-6.1827988812
 20
-5.9906526403
 10
-6.2135338089
 20
-5.996833899
 10
-6.2444087079
 20
-6.0037409528
 10
-6.2754145559
 20
-6.011368686
 10
-6.3065603751
 20
-6.0197222142
 10
-6.3379151234
 20
-6.0288401355
 10
-6.3694927202
 20
-6.038723357
 10
-6.401279246
 20
-6.0493709716
 10
-6.4333019003
 20
-6.0608188555
 10
-6.4655697496
 20
-6.0730789676
 10
-6.4980737274
 20
-6.0861393491
 10
-6.5308138338
 20
-6.1
  0
LINE
  5
365
100
AcDbEntity
  8
DRAFT
100
AcDbLine
 62
7
  6
CONTINUOUS
 10
-7.925
 20
-4.3
 11
-7.7602304926
 21
-4.4647695074
  0
LINE
  5
366
100
AcDbEntity
  8
0
100
AcDbLine
 62
7
  6
CONTINUOUS
 10
-7.925
 20
-4.3
 11
-7.7602304926
 21
-4.4647695074
  0
LINE
  5
367
100
AcDbEntity
  8
RACCORDO
100
AcDbLine
 62
7
  6
CONTINUOUS
 10
5.6591007192
 20
-21.3126932437
 11
5.7125346208
 21
-21.3881838872
  0
LINE
  5
368
100
AcDbEntity
  8
RACCORDO
100
AcDbLine
 62
7
  6
CONTINUOUS
 10
5.7125346208
 20
-21.3881838872
 11
5.7917764984
 21
-21.5011382645
  0
LWPOLYLINE
  5
369
100
AcDbEntity
  8
RACCORDO
100
AcDbPolyline
 62
7
  6
CONTINUOUS
 90
7
 70
0
 10
5.7917764984
 20
-21.5011382645
 10
5.8435136093
 20
-21.5758926167
 10
5.8689545568
 20
-21.6129888844
 10
5.893929804
 20
-21.6499179842
 10
5.918380061
 20
-21.6866457638
 10
5.9423646176
 20
-21.7230689603
 10
5.9658834737
 20
-21.7591165263
  0
LINE
  5
36A
100
AcDbEntity
  8
RACCORDO
100
AcDbLine
 62
7
  6
CONTINUOUS
 10
4.630294768
 20
-20.0829433217
 11
4.5261048448
 21
-19.9266562329
  0
LINE
  5
36B
100
AcDbEntity
  8
DRAFT
100
AcDbLine
 62
7
  6
CONTINUOUS
 10
-6.325
 20
23.8
 11
-6.325
 21
22.4
  0
LINE
  5
36C
100
AcDbEntity
  8
DRAFT
100
AcDbLine
 62
7
  6
CONTINUOUS
 10
-6.325
 20
-22.4
 11
-6.325
 21
-23.8
  0
LINE
  5
36D
100
AcDbEntity
  8
ASSI
100
AcDbLine
 62
250
  6
CONTINUOUS
 10
-6.2809327327
 20
-23.7507734247
 11
-6.2809327327
 21
-22.3338981669
  0
LINE
  5
36E
100
AcDbEntity
  8
ASSI
100
AcDbLine
 62
250
  6
CONTINUOUS
 10
-6.2809327327
 20
22.3338981669
 11
-6.2809327327
 21
23.7507734247
  0
LINE
  5
36F
100
AcDbEntity
  8
DRAFT
100
AcDbLine
 62
7
  6
CONTINUOUS
 10
-5.425
 20
-20.0
 11
-5.425
 21
-20.0445070257
  0
LINE
  5
370
100
AcDbEntity
  8
ASSI
100
AcDbLine
 62
7
  6
CONTINUOUS
 10
-5.425
 20
-22.3339198952
 11
-5.425
 21
-23.7941821702
  0
LINE
  5
371
100
AcDbEntity
  8
DRAFT
100
AcDbLine
 62
7
  6
CONTINUOUS
 10
-5.425
 20
20.0
 11
-5.425
 21
20.0445070257
  0
LINE
  5
372
100
AcDbEntity
  8
ASSI
100
AcDbLine
 62
7
  6
CONTINUOUS
 10
-5.425
 20
22.3339198952
 11
-5.425
 21
23.7941821702
  0
LWPOLYLINE
  5
373
100
AcDbEntity
  8
RACCORDO
100
AcDbPolyline
 62
7
  6
CONTINUOUS
 90
5
 70
0
 10
5.9658834737
 20
21.7591165263
 10
5.9423646176
 20
21.7230689603
 10
5.918380061
 20
21.6866457638
 10
5.893929804
 20
21.6499179842
 10
5.8689545568
 20
21.6129888844
  0
LINE
  5
374
100
AcDbEntity
  8
SMUSSO
100
AcDbLine
 62
7
  6
CONTINUOUS
 10
4.3717425312
 20
-6.0721379038
 11
4.3305362361
 21
-6.0741892164
  0
LINE
  5
375
100
AcDbEntity
  8
0
100
AcDbLine
 62
7
  6
CONTINUOUS
 10
4.3717425312
 20
-6.0721379038
 11
4.3305362361
 21
-6.0741892164
  0
LINE
  5
376
100
AcDbEntity
  8
SMUSSO
100
AcDbLine
 62
7
  6
CONTINUOUS
 10
-3.6282574688
 20
-6.0721379038
 11
-3.6694637639
 21
-6.0741892164
  0
LINE
  5
377
100
AcDbEntity
  8
0
100
AcDbLine
 62
7
  6
CONTINUOUS
 10
-3.6282574688
 20
-6.0721379038
 11
-3.6694637639
 21
-6.0741892164
  0
LINE
  5
378
100
AcDbEntity
  8
SMUSSO
100
AcDbLine
 62
7
  6
CONTINUOUS
 10
4.3305362361
 20
-6.0741892164
 11
4.2833563144
 21
-6.0761999002
  0
LINE
  5
379
100
AcDbEntity
  8
0
100
AcDbLine
 62
7
  6
CONTINUOUS
 10
4.3305362361
 20
-6.0741892164
 11
4.2833563144
 21
-6.0761999002
  0
LINE
  5
37A
100
AcDbEntity
  8
SMUSSO
100
AcDbLine
 62
7
  6
CONTINUOUS
 10
-3.6694637639
 20
-6.0741892164
 11
-3.7166436856
 21
-6.0761999002
  0
LINE
  5
37B
100
AcDbEntity
  8
0
100
AcDbLine
 62
7
  6
CONTINUOUS
 10
-3.6694637639
 20
-6.0741892164
 11
-3.7166436856
 21
-6.0761999002
  0
LINE
  5
37C
100
AcDbEntity
  8
SMUSSO
100
AcDbLine
 62
7
  6
CONTINUOUS
 10
4.2833563144
 20
-6.0761999002
 11
4.2302924466
 21
-6.0781659659
  0
LINE
  5
37D
100
AcDbEntity
  8
0
100
AcDbLine
 62
7
  6
CONTINUOUS
 10
4.2833563144
 20
-6.0761999002
 11
4.2302924466
 21
-6.0781659659
  0
LINE
  5
37E
100
AcDbEntity
  8
SMUSSO
100
AcDbLine
 62
7
  6
CONTINUOUS
 10
-3.7166436856
 20
-6.0761999002
 11
-3.7697075534
 21
-6.0781659659
  0
LINE
  5
37F
100
AcDbEntity
  8
0
100
AcDbLine
 62
7
  6
CONTINUOUS
 10
-3.7166436856
 20
-6.0761999002
 11
-3.7697075534
 21
-6.0781659659
  0
LINE
  5
380
100
AcDbEntity
  8
SMUSSO
100
AcDbLine
 62
7
  6
CONTINUOUS
 10
4.2302924466
 20
-6.0781659659
 11
4.1399687816
 21
-6.0810181643
  0
LINE
  5
381
100
AcDbEntity
  8
0
100
AcDbLine
 62
7
  6
CONTINUOUS
 10
4.2302924466
 20
-6.0781659659
 11
4.1399687816
 21
-6.0810181643
  0
LINE
  5
382
100
AcDbEntity
  8
SMUSSO
100
AcDbLine
 62
7
  6
CONTINUOUS
 10
-3.7697075534
 20
-6.0781659659
 11
-3.8600312184
 21
-6.0810181643
  0
LINE
  5
383
100
AcDbEntity
  8
0
100
AcDbLine
 62
7
  6
CONTINUOUS
 10
-3.7697075534
 20
-6.0781659659
 11
-3.8600312184
 21
-6.0810181643
  0
LINE
  5
384
100
AcDbEntity
  8
SMUSSO
100
AcDbLine
 62
7
  6
CONTINUOUS
 10
4.1399687816
 20
-6.0810181643
 11
4.0373144856
 21
-6.0837390177
  0
LINE
  5
385
100
AcDbEntity
  8
0
100
AcDbLine
 62
7
  6
CONTINUOUS
 10
4.1399687816
 20
-6.0810181643
 11
4.0373144856
 21
-6.0837390177
  0
LINE
  5
386
100
AcDbEntity
  8
SMUSSO
100
AcDbLine
 62
7
  6
CONTINUOUS
 10
-3.8600312184
 20
-6.0810181643
 11
-3.9626855144
 21
-6.0837390177
  0
LINE
  5
387
100
AcDbEntity
  8
0
100
AcDbLine
 62
7
  6
CONTINUOUS
 10
-3.8600312184
 20
-6.0810181643
 11
-3.9626855144
 21
-6.0837390177
  0
LINE
  5
388
100
AcDbEntity
  8
SMUSSO
100
AcDbLine
 62
7
  6
CONTINUOUS
 10
4.0373144856
 20
-6.0837390177
 11
3.9229350361
 21
-6.0863136079
  0
LINE
  5
389
100
AcDbEntity
  8
0
100
AcDbLine
 62
7
  6
CONTINUOUS
 10
4.0373144856
 20
-6.0837390177
 11
3.9229350361
 21
-6.0863136079
  0
LINE
  5
38A
100
AcDbEntity
  8
SMUSSO
100
AcDbLine
 62
7
  6
CONTINUOUS
 10
-3.9626855144
 20
-6.0837390177
 11
-4.0770649639
 21
-6.0863136079
  0
LINE
  5
38B
100
AcDbEntity
  8
0
100
AcDbLine
 62
7
  6
CONTINUOUS
 10
-3.9626855144
 20
-6.0837390177
 11
-4.0770649639
 21
-6.0863136079
  0
LINE
  5
38C
100
AcDbEntity
  8
SMUSSO
100
AcDbLine
 62
7
  6
CONTINUOUS
 10
3.9229350361
 20
-6.0863136079
 11
3.7975332966
 21
-6.0887249672
  0
LINE
  5
38D
100
AcDbEntity
  8
0
100
AcDbLine
 62
7
  6
CONTINUOUS
 10
3.9229350361
 20
-6.0863136079
 11
3.7975332966
 21
-6.0887249672
  0
LINE
  5
38E
100
AcDbEntity
  8
SMUSSO
100
AcDbLine
 62
7
  6
CONTINUOUS
 10
-4.0770649639
 20
-6.0863136079
 11
-4.2024667034
 21
-6.0887249672
  0
LINE
  5
38F
100
AcDbEntity
  8
0
100
AcDbLine
 62
7
  6
CONTINUOUS
 10
-4.0770649639
 20
-6.0863136079
 11
-4.2024667034
 21
-6.0887249672
  0
LINE
  5
390
100
AcDbEntity
  8
SMUSSO
100
AcDbLine
 62
7
  6
CONTINUOUS
 10
3.7975332966
 20
-6.0887249672
 11
3.6618227543
 21
-6.0909599196
  0
LINE
  5
391
100
AcDbEntity
  8
0
100
AcDbLine
 62
7
  6
CONTINUOUS
 10
3.7975332966
 20
-6.0887249672
 11
3.6618227543
 21
-6.0909599196
  0
LINE
  5
392
100
AcDbEntity
  8
SMUSSO
100
AcDbLine
 62
7
  6
CONTINUOUS
 10
-4.2024667034
 20
-6.0887249672
 11
-4.3381772457
 21
-6.0909599196
  0
LINE
  5
393
100
AcDbEntity
  8
0
100
AcDbLine
 62
7
  6
CONTINUOUS
 10
-4.2024667034
 20
-6.0887249672
 11
-4.3381772457
 21
-6.0909599196
  0
LINE
  5
394
100
AcDbEntity
  8
SMUSSO
100
AcDbLine
 62
7
  6
CONTINUOUS
 10
3.6618227543
 20
-6.0909599196
 11
3.5166729494
 21
-6.0930050399
  0
LINE
  5
395
100
AcDbEntity
  8
0
100
AcDbLine
 62
7
  6
CONTINUOUS
 10
3.6618227543
 20
-6.0909599196
 11
3.5166729494
 21
-6.0930050399
  0
LINE
  5
396
100
AcDbEntity
  8
SMUSSO
100
AcDbLine
 62
7
  6
CONTINUOUS
 10
-4.3381772457
 20
-6.0909599196
 11
-4.4833270506
 21
-6.0930050399
  0
LINE
  5
397
100
AcDbEntity
  8
0
100
AcDbLine
 62
7
  6
CONTINUOUS
 10
-4.3381772457
 20
-6.0909599196
 11
-4.4833270506
 21
-6.0930050399
  0
LINE
  5
398
100
AcDbEntity
  8
SMUSSO
100
AcDbLine
 62
7
  6
CONTINUOUS
 10
3.5166729494
 20
-6.0930050399
 11
3.3629044181
 21
-6.094847978
  0
LINE
  5
399
100
AcDbEntity
  8
0
100
AcDbLine
 62
7
  6
CONTINUOUS
 10
3.5166729494
 20
-6.0930050399
 11
3.3629044181
 21
-6.094847978
  0
LINE
  5
39A
100
AcDbEntity
  8
SMUSSO
100
AcDbLine
 62
7
  6
CONTINUOUS
 10
-4.4833270506
 20
-6.0930050399
 11
-4.6370955819
 21
-6.094847978
  0
LINE
  5
39B
100
AcDbEntity
  8
0
100
AcDbLine
 62
7
  6
CONTINUOUS
 10
-4.4833270506
 20
-6.0930050399
 11
-4.6370955819
 21
-6.094847978
  0
LINE
  5
39C
100
AcDbEntity
  8
SMUSSO
100
AcDbLine
 62
7
  6
CONTINUOUS
 10
3.3629044181
 20
-6.094847978
 11
3.2014317394
 21
-6.0964778961
  0
LINE
  5
39D
100
AcDbEntity
  8
0
100
AcDbLine
 62
7
  6
CONTINUOUS
 10
3.3629044181
 20
-6.094847978
 11
3.2014317394
 21
-6.0964778961
  0
LINE
  5
39E
100
AcDbEntity
  8
SMUSSO
100
AcDbLine
 62
7
  6
CONTINUOUS
 10
-4.6370955819
 20
-6.094847978
 11
-4.7985682606
 21
-6.0964778961
  0
LINE
  5
39F
100
AcDbEntity
  8
0
100
AcDbLine
 62
7
  6
CONTINUOUS
 10
-4.6370955819
 20
-6.094847978
 11
-4.7985682606
 21
-6.0964778961
  0
LINE
  5
3A0
100
AcDbEntity
  8
SMUSSO
100
AcDbLine
 62
7
  6
CONTINUOUS
 10
3.2014317394
 20
-6.0964778961
 11
3.0332765389
 21
-6.0978854026
  0
LINE
  5
3A1
100
AcDbEntity
  8
0
100
AcDbLine
 62
7
  6
CONTINUOUS
 10
3.2014317394
 20
-6.0964778961
 11
3.0332765389
 21
-6.0978854026
  0
LINE
  5
3A2
100
AcDbEntity
  8
SMUSSO
100
AcDbLine
 62
7
  6
CONTINUOUS
 10
-4.7985682606
 20
-6.0964778961
 11
-4.9667234611
 21
-6.0978854026
  0
LINE
  5
3A3
100
AcDbEntity
  8
0
100
AcDbLine
 62
7
  6
CONTINUOUS
 10
-4.7985682606
 20
-6.0964778961
 11
-4.9667234611
 21
-6.0978854026
  0
LINE
  5
3A4
100
AcDbEntity
  8
SMUSSO
100
AcDbLine
 62
7
  6
CONTINUOUS
 10
3.0332765389
 20
-6.0978854026
 11
2.85937763
 21
-6.099061934
  0
LINE
  5
3A5
100
AcDbEntity
  8
0
100
AcDbLine
 62
7
  6
CONTINUOUS
 10
3.0332765389
 20
-6.0978854026
 11
2.85937763
 21
-6.099061934
  0
LINE
  5
3A6
100
AcDbEntity
  8
SMUSSO
100
AcDbLine
 62
7
  6
CONTINUOUS
 10
-4.9667234611
 20
-6.0978854026
 11
-5.14062237
 21
-6.099061934
  0
LINE
  5
3A7
100
AcDbEntity
  8
0
100
AcDbLine
 62
7
  6
CONTINUOUS
 10
-4.9667234611
 20
-6.0978854026
 11
-5.14062237
 21
-6.099061934
  0
LINE
  5
3A8
100
AcDbEntity
  8
SMUSSO
100
AcDbLine
 62
7
  6
CONTINUOUS
 10
2.85937763
 20
-6.099061934
 11
2.6808138338
 21
-6.1
  0
LINE
  5
3A9
100
AcDbEntity
  8
0
100
AcDbLine
 62
7
  6
CONTINUOUS
 10
2.85937763
 20
-6.099061934
 11
2.6808138338
 21
-6.1
  0
LINE
  5
3AA
100
AcDbEntity
  8
SMUSSO
100
AcDbLine
 62
7
  6
CONTINUOUS
 10
-5.14062237
 20
-6.099061934
 11
-5.3191861662
 21
-6.1
  0
LINE
  5
3AB
100
AcDbEntity
  8
0
100
AcDbLine
 62
7
  6
CONTINUOUS
 10
-5.14062237
 20
-6.099061934
 11
-5.3191861662
 21
-6.1
  0
LINE
  5
3AC
100
AcDbEntity
  8
0
100
AcDbLine
 62
250
  6
CONTINUOUS
 10
9.1386086516
 20
-6.866738
 11
9.1301990421
 21
-6.866738
  0
LINE
  5
3AD
100
AcDbEntity
  8
SMUSSO
100
AcDbLine
 62
7
  6
CONTINUOUS
 10
7.1251523048
 20
-6.1
 11
2.6808138338
 21
-6.1
  0
LINE
  5
3AE
100
AcDbEntity
  8
0
100
AcDbLine
 62
7
  6
CONTINUOUS
 10
7.1251523048
 20
-6.1
 11
2.6808138338
 21
-6.1
  0
LINE
  5
3AF
100
AcDbEntity
  8
SMUSSO
100
AcDbLine
 62
7
  6
CONTINUOUS
 10
1.4691861662
 20
-6.1
 11
-5.3191861662
 21
-6.1
  0
LINE
  5
3B0
100
AcDbEntity
  8
0
100
AcDbLine
 62
7
  6
CONTINUOUS
 10
1.4691861662
 20
-6.1
 11
-5.3191861662
 21
-6.1
  0
LINE
  5
3B1
100
AcDbEntity
  8
SMUSSO
100
AcDbLine
 62
7
  6
CONTINUOUS
 10
-6.5308138338
 20
-6.1
 11
-10.9751523048
 21
-6.1
  0
LINE
  5
3B2
100
AcDbEntity
  8
0
100
AcDbLine
 62
7
  6
CONTINUOUS
 10
-6.5308138338
 20
-6.1
 11
-10.9751523048
 21
-6.1
  0
LINE
  5
3B3
100
AcDbEntity
  8
0
100
AcDbLine
 62
250
  6
CONTINUOUS
 10
9.1808033297
 20
-5.793739
 11
9.1386086516
 21
-5.793739
  0
LINE
  5
3B4
100
AcDbEntity
  8
RACCORDO
100
AcDbLine
 62
250
  6
CONTINUOUS
 10
-10.5978182695
 20
-5.7226659647
 11
-8.5060660785
 21
-5.7226659647
  0
LINE
  5
3B5
100
AcDbEntity
  8
0
100
AcDbLine
 62
250
  6
CONTINUOUS
 10
-10.5978182695
 20
-5.7226659647
 11
-8.5060660785
 21
-5.7226659647
  0
LINE
  5
3B6
100
AcDbEntity
  8
RACCORDO
100
AcDbLine
 62
250
  6
CONTINUOUS
 10
-3.3439339215
 20
-5.7226659647
 11
-0.5060660785
 21
-5.7226659647
  0
LINE
  5
3B7
100
AcDbEntity
  8
0
100
AcDbLine
 62
250
  6
CONTINUOUS
 10
-3.3439339215
 20
-5.7226659647
 11
-0.5060660785
 21
-5.7226659647
  0
LINE
  5
3B8
100
AcDbEntity
  8
RACCORDO
100
AcDbLine
 62
250
  6
CONTINUOUS
 10
4.6560660785
 20
-5.7226659647
 11
6.7478182695
 21
-5.7226659647
  0
LINE
  5
3B9
100
AcDbEntity
  8
0
100
AcDbLine
 62
250
  6
CONTINUOUS
 10
4.6560660785
 20
-5.7226659647
 11
6.7478182695
 21
-5.7226659647
  0
LINE
  5
3BA
100
AcDbEntity
  8
SMUSSO
100
AcDbLine
 62
7
  6
CONTINUOUS
 10
-6.5308138338
 20
-6.1
 11
-6.7679022101
 21
-6.0986959756
  0
LINE
  5
3BB
100
AcDbEntity
  8
0
100
AcDbLine
 62
7
  6
CONTINUOUS
 10
-6.5308138338
 20
-6.1
 11
-6.7679022101
 21
-6.0986959756
  0
LINE
  5
3BC
100
AcDbEntity
  8
SMUSSO
100
AcDbLine
 62
7
  6
CONTINUOUS
 10
1.4691861662
 20
-6.1
 11
1.2320977899
 21
-6.0986959756
  0
LINE
  5
3BD
100
AcDbEntity
  8
0
100
AcDbLine
 62
7
  6
CONTINUOUS
 10
1.4691861662
 20
-6.1
 11
1.2320977899
 21
-6.0986959756
  0
LINE
  5
3BE
100
AcDbEntity
  8
SMUSSO
100
AcDbLine
 62
7
  6
CONTINUOUS
 10
-6.7679022101
 20
-6.0986959756
 11
-6.9400012331
 21
-6.0974415805
  0
LINE
  5
3BF
100
AcDbEntity
  8
0
100
AcDbLine
 62
7
  6
CONTINUOUS
 10
-6.7679022101
 20
-6.0986959756
 11
-6.9400012331
 21
-6.0974415805
  0
LINE
  5
3C0
100
AcDbEntity
  8
SMUSSO
100
AcDbLine
 62
7
  6
CONTINUOUS
 10
1.2320977899
 20
-6.0986959756
 11
1.0599987669
 21
-6.0974415805
  0
LINE
  5
3C1
100
AcDbEntity
  8
0
100
AcDbLine
 62
7
  6
CONTINUOUS
 10
1.2320977899
 20
-6.0986959756
 11
1.0599987669
 21
-6.0974415805
  0
LINE
  5
3C2
100
AcDbEntity
  8
SMUSSO
100
AcDbLine
 62
7
  6
CONTINUOUS
 10
-6.9400012331
 20
-6.0974415805
 11
-7.1060363061
 21
-6.0959589546
  0
LINE
  5
3C3
100
AcDbEntity
  8
0
100
AcDbLine
 62
7
  6
CONTINUOUS
 10
-6.9400012331
 20
-6.0974415805
 11
-7.1060363061
 21
-6.0959589546
  0
LINE
  5
3C4
100
AcDbEntity
  8
SMUSSO
100
AcDbLine
 62
7
  6
CONTINUOUS
 10
1.0599987669
 20
-6.0974415805
 11
0.8939636939
 21
-6.0959589546
  0
LINE
  5
3C5
100
AcDbEntity
  8
0
100
AcDbLine
 62
7
  6
CONTINUOUS
 10
1.0599987669
 20
-6.0974415805
 11
0.8939636939
 21
-6.0959589546
  0
LINE
  5
3C6
100
AcDbEntity
  8
SMUSSO
100
AcDbLine
 62
7
  6
CONTINUOUS
 10
-7.1060363061
 20
-6.0959589546
 11
-7.2650504849
 21
-6.0942569328
  0
LINE
  5
3C7
100
AcDbEntity
  8
0
100
AcDbLine
 62
7
  6
CONTINUOUS
 10
-7.1060363061
 20
-6.0959589546
 11
-7.2650504849
 21
-6.0942569328
  0
LINE
  5
3C8
100
AcDbEntity
  8
SMUSSO
100
AcDbLine
 62
7
  6
CONTINUOUS
 10
0.8939636939
 20
-6.0959589546
 11
0.7349495151
 21
-6.0942569328
  0
LINE
  5
3C9
100
AcDbEntity
  8
0
100
AcDbLine
 62
7
  6
CONTINUOUS
 10
0.8939636939
 20
-6.0959589546
 11
0.7349495151
 21
-6.0942569328
  0
LINE
  5
3CA
100
AcDbEntity
  8
SMUSSO
100
AcDbLine
 62
7
  6
CONTINUOUS
 10
-7.2650504849
 20
-6.0942569328
 11
-7.4160442442
 21
-6.0923453404
  0
LINE
  5
3CB
100
AcDbEntity
  8
0
100
AcDbLine
 62
7
  6
CONTINUOUS
 10
-7.2650504849
 20
-6.0942569328
 11
-7.4160442442
 21
-6.0923453404
  0
LINE
  5
3CC
100
AcDbEntity
  8
SMUSSO
100
AcDbLine
 62
7
  6
CONTINUOUS
 10
0.7349495151
 20
-6.0942569328
 11
0.5839557558
 21
-6.0923453404
  0
LINE
  5
3CD
100
AcDbEntity
  8
0
100
AcDbLine
 62
7
  6
CONTINUOUS
 10
0.7349495151
 20
-6.0942569328
 11
0.5839557558
 21
-6.0923453404
  0
LWPOLYLINE
  5
3CE
100
AcDbEntity
  8
RACCORDO
100
AcDbPolyline
 62
250
  6
CONTINUOUS
 90
58
 70
0
 10
-10.5978182695
 20
-5.7226659647
 10
-10.6253630757
 20
-5.7222780869
 10
-10.6528869729
 20
-5.7211315278
 10
-10.6803690679
 20
-5.7192271575
 10
-10.7077884993
 20
-5.7165664217
 10
-10.7351244532
 20
-5.7131513401
 10
-10.7623561791
 20
-5.7089845052
 10
-10.7894630058
 20
-5.7040690798
 10
-10.8164243565
 20
-5.6984087952
 10
-10.8432197652
 20
-5.6920079482
 10
-10.8698288918
 20
-5.6848713976
 10
-10.8962315373
 20
-5.6770045606
 10
-10.9224076599
 20
-5.6684134089
 10
-10.9483373895
 20
-5.6591044639
 10
-10.974001043
 20
-5.6490847921
 10
-10.9993791393
 20
-5.6383619992
 10
-11.0244524142
 20
-5.6269442249
 10
-11.0492018347
 20
-5.6148401362
 10
-11.0736086138
 20
-5.6020589213
 10
-11.0976542245
 20
-5.5886102824
 10
-11.121320414
 20
-5.574504428
 10
-11.1445892175
 20
-5.559752066
 10
-11.1674429717
 20
-5.5443643946
 10
-11.1898643287
 20
-5.5283530945
 10
-11.2118362686
 20
-5.5117303198
 10
-11.2333421126
 20
-5.4945086887
 10
-11.2543655359
 20
-5.4767012739
 10
-11.2748905798
 20
-5.458321593
 10
-11.2949016638
 20
-5.4393835977
 10
-11.3143835977
 20
-5.4199016638
 10
-11.333321593
 20
-5.3998905798
 10
-11.3517012739
 20
-5.3793655359
 10
-11.3695086887
 20
-5.3583421126
 10
-11.3867303198
 20
-5.3368362686
 10
-11.4033530945
 20
-5.3148643287
 10
-11.4193643946
 20
-5.2924429717
 10
-11.434752066
 20
-5.2695892175
 10
-11.449504428
 20
-5.246320414
 10
-11.4636102824
 20
-5.2226542245
 10
-11.4770589213
 20
-5.1986086138
 10
-11.4898401362
 20
-5.1742018347
 10
-11.5019442249
 20
-5.1494524142
 10
-11.5133619992
 20
-5.1243791393
 10
-11.5240847921
 20
-5.099001043
 10
-11.5341044639
 20
-5.0733373895
 10
-11.5434134089
 20
-5.0474076599
 10
-11.5520045606
 20
-5.0212315373
 10
-11.5598713976
 20
-4.9948288918
 10
-11.5670079482
 20
-4.9682197652
 10
-11.5734087952
 20
-4.9414243565
 10
-11.5790690798
 20
-4.9144630058
 10
-11.5839845052
 20
-4.8873561791
 10
-11.5881513401
 20
-4.8601244532
 10
-11.5915664217
 20
-4.8327884993
 10
-11.5942271575
 20
-4.8053690679
 10
-11.5961315278
 20
-4.7778869729
 10
-11.5972780869
 20
-4.7503630757
 10
-11.5976659647
 20
-4.7228182695
  0
LWPOLYLINE
  5
3CF
100
AcDbEntity
  8
0
100
AcDbPolyline
 62
250
  6
CONTINUOUS
 90
58
 70
0
 10
-10.5978182695
 20
-5.7226659647
 10
-10.6253630757
 20
-5.7222780869
 10
-10.6528869729
 20
-5.7211315278
 10
-10.6803690679
 20
-5.7192271575
 10
-10.7077884993
 20
-5.7165664217
 10
-10.7351244532
 20
-5.7131513401
 10
-10.7623561791
 20
-5.7089845052
 10
-10.7894630058
 20
-5.7040690798
 10
-10.8164243565
 20
-5.6984087952
 10
-10.8432197652
 20
-5.6920079482
 10
-10.8698288918
 20
-5.6848713976
 10
-10.8962315373
 20
-5.6770045606
 10
-10.9224076599
 20
-5.6684134089
 10
-10.9483373895
 20
-5.6591044639
 10
-10.974001043
 20
-5.6490847921
 10
-10.9993791393
 20
-5.6383619992
 10
-11.0244524142
 20
-5.6269442249
 10
-11.0492018347
 20
-5.6148401362
 10
-11.0736086138
 20
-5.6020589213
 10
-11.0976542245
 20
-5.5886102824
 10
-11.121320414
 20
-5.574504428
 10
-11.1445892175
 20
-5.559752066
 10
-11.1674429717
 20
-5.5443643946
 10
-11.1898643287
 20
-5.5283530945
 10
-11.2118362686
 20
-5.5117303198
 10
-11.2333421126
 20
-5.4945086887
 10
-11.2543655359
 20
-5.4767012739
 10
-11.2748905798
 20
-5.458321593
 10
-11.2949016638
 20
-5.4393835977
 10
-11.3143835977
 20
-5.4199016638
 10
-11.333321593
 20
-5.3998905798
 10
-11.3517012739
 20
-5.3793655359
 10
-11.3695086887
 20
-5.3583421126
 10
-11.3867303198
 20
-5.3368362686
 10
-11.4033530945
 20
-5.3148643287
 10
-11.4193643946
 20
-5.2924429717
 10
-11.434752066
 20
-5.2695892175
 10
-11.449504428
 20
-5.246320414
 10
-11.4636102824
 20
-5.2226542245
 10
-11.4770589213
 20
-5.1986086138
 10
-11.4898401362
 20
-5.1742018347
 10
-11.5019442249
 20
-5.1494524142
 10
-11.5133619992
 20
-5.1243791393
 10
-11.5240847921
 20
-5.099001043
 10
-11.5341044639
 20
-5.0733373895
 10
-11.5434134089
 20
-5.0474076599
 10
-11.5520045606
 20
-5.0212315373
 10
-11.5598713976
 20
-4.9948288918
 10
-11.5670079482
 20
-4.9682197652
 10
-11.5734087952
 20
-4.9414243565
 10
-11.5790690798
 20
-4.9144630058
 10
-11.5839845052
 20
-4.8873561791
 10
-11.5881513401
 20
-4.8601244532
 10
-11.5915664217
 20
-4.8327884993
 10
-11.5942271575
 20
-4.8053690679
 10
-11.5961315278
 20
-4.7778869729
 10
-11.5972780869
 20
-4.7503630757
 10
-11.5976659647
 20
-4.7228182695
  0
LINE
  5
3D0
100
AcDbEntity
  8
SMUSSO
100
AcDbLine
 62
7
  6
CONTINUOUS
 10
-7.4160442442
 20
-6.0923453404
 11
-7.5581406139
 21
-6.0902355307
  0
LINE
  5
3D1
100
AcDbEntity
  8
0
100
AcDbLine
 62
7
  6
CONTINUOUS
 10
-7.4160442442
 20
-6.0923453404
 11
-7.5581406139
 21
-6.0902355307
  0
LINE
  5
3D2
100
AcDbEntity
  8
SMUSSO
100
AcDbLine
 62
7
  6
CONTINUOUS
 10
0.5839557558
 20
-6.0923453404
 11
0.4418593861
 21
-6.0902355307
  0
LINE
  5
3D3
100
AcDbEntity
  8
0
100
AcDbLine
 62
7
  6
CONTINUOUS
 10
0.5839557558
 20
-6.0923453404
 11
0.4418593861
 21
-6.0902355307
  0
LINE
  5
3D4
100
AcDbEntity
  8
SMUSSO
100
AcDbLine
 62
7
  6
CONTINUOUS
 10
-7.5581406139
 20
-6.0902355307
 11
-7.6905057244
 21
-6.0879402935
  0
LINE
  5
3D5
100
AcDbEntity
  8
0
100
AcDbLine
 62
7
  6
CONTINUOUS
 10
-7.5581406139
 20
-6.0902355307
 11
-7.6905057244
 21
-6.0879402935
  0
LINE
  5
3D6
100
AcDbEntity
  8
SMUSSO
100
AcDbLine
 62
7
  6
CONTINUOUS
 10
0.4418593861
 20
-6.0902355307
 11
0.3094942756
 21
-6.0879402935
  0
LINE
  5
3D7
100
AcDbEntity
  8
0
100
AcDbLine
 62
7
  6
CONTINUOUS
 10
0.4418593861
 20
-6.0902355307
 11
0.3094942756
 21
-6.0879402935
  0
LINE
  5
3D8
100
AcDbEntity
  8
SMUSSO
100
AcDbLine
 62
7
  6
CONTINUOUS
 10
-7.6905057244
 20
-6.0879402935
 11
-7.8123122501
 21
-6.0854729195
  0
LINE
  5
3D9
100
AcDbEntity
  8
0
100
AcDbLine
 62
7
  6
CONTINUOUS
 10
-7.6905057244
 20
-6.0879402935
 11
-7.8123122501
 21
-6.0854729195
  0
LINE
  5
3DA
100
AcDbEntity
  8
SMUSSO
100
AcDbLine
 62
7
  6
CONTINUOUS
 10
0.3094942756
 20
-6.0879402935
 11
0.1876877499
 21
-6.0854729195
  0
LINE
  5
3DB
100
AcDbEntity
  8
0
100
AcDbLine
 62
7
  6
CONTINUOUS
 10
0.3094942756
 20
-6.0879402935
 11
0.1876877499
 21
-6.0854729195
  0
LINE
  5
3DC
100
AcDbEntity
  8
SMUSSO
100
AcDbLine
 62
7
  6
CONTINUOUS
 10
-7.8123122501
 20
-6.0854729195
 11
-7.9228578042
 21
-6.0828477655
  0
LINE
  5
3DD
100
AcDbEntity
  8
0
100
AcDbLine
 62
7
  6
CONTINUOUS
 10
-7.8123122501
 20
-6.0854729195
 11
-7.9228578042
 21
-6.0828477655
  0
LINE
  5
3DE
100
AcDbEntity
  8
SMUSSO
100
AcDbLine
 62
7
  6
CONTINUOUS
 10
0.1876877499
 20
-6.0854729195
 11
0.0771421958
 21
-6.0828477655
  0
LINE
  5
3DF
100
AcDbEntity
  8
0
100
AcDbLine
 62
7
  6
CONTINUOUS
 10
0.1876877499
 20
-6.0854729195
 11
0.0771421958
 21
-6.0828477655
  0
LINE
  5
3E0
100
AcDbEntity
  8
SMUSSO
100
AcDbLine
 62
7
  6
CONTINUOUS
 10
-7.9228578042
 20
-6.0828477655
 11
-8.021468879
 21
-6.0800813786
  0
LINE
  5
3E1
100
AcDbEntity
  8
0
100
AcDbLine
 62
7
  6
CONTINUOUS
 10
-7.9228578042
 20
-6.0828477655
 11
-8.021468879
 21
-6.0800813786
  0
LINE
  5
3E2
100
AcDbEntity
  8
SMUSSO
100
AcDbLine
 62
7
  6
CONTINUOUS
 10
0.0771421958
 20
-6.0828477655
 11
-0.021468879
 21
-6.0800813786
  0
LINE
  5
3E3
100
AcDbEntity
  8
0
100
AcDbLine
 62
7
  6
CONTINUOUS
 10
0.0771421958
 20
-6.0828477655
 11
-0.021468879
 21
-6.0800813786
  0
LINE
  5
3E4
100
AcDbEntity
  8
SMUSSO
100
AcDbLine
 62
7
  6
CONTINUOUS
 10
-8.021468879
 20
-6.0800813786
 11
-8.1075426239
 21
-6.0771892598
  0
LINE
  5
3E5
100
AcDbEntity
  8
0
100
AcDbLine
 62
7
  6
CONTINUOUS
 10
-8.021468879
 20
-6.0800813786
 11
-8.1075426239
 21
-6.0771892598
  0
LINE
  5
3E6
100
AcDbEntity
  8
SMUSSO
100
AcDbLine
 62
7
  6
CONTINUOUS
 10
-0.021468879
 20
-6.0800813786
 11
-0.1075426239
 21
-6.0771892598
  0
LINE
  5
3E7
100
AcDbEntity
  8
0
100
AcDbLine
 62
7
  6
CONTINUOUS
 10
-0.021468879
 20
-6.0800813786
 11
-0.1075426239
 21
-6.0771892598
  0
LINE
  5
3E8
100
AcDbEntity
  8
SMUSSO
100
AcDbLine
 62
7
  6
CONTINUOUS
 10
-8.1075426239
 20
-6.0771892598
 11
-8.1576877292
 21
-6.075199885
  0
LINE
  5
3E9
100
AcDbEntity
  8
0
100
AcDbLine
 62
7
  6
CONTINUOUS
 10
-8.1075426239
 20
-6.0771892598
 11
-8.1576877292
 21
-6.075199885
  0
LINE
  5
3EA
100
AcDbEntity
  8
SMUSSO
100
AcDbLine
 62
7
  6
CONTINUOUS
 10
-0.1075426239
 20
-6.0771892598
 11
-0.1576877292
 21
-6.075199885
  0
LINE
  5
3EB
100
AcDbEntity
  8
0
100
AcDbLine
 62
7
  6
CONTINUOUS
 10
-0.1075426239
 20
-6.0771892598
 11
-0.1576877292
 21
-6.075199885
  0
LWPOLYLINE
  5
3EC
100
AcDbEntity
  8
SMUSSO
100
AcDbPolyline
 62
7
  6
CONTINUOUS
 90
15
 70
0
 10
-8.1576877292
 20
-6.075199885
 10
-8.2019024675
 20
-6.0731678922
 10
-8.2217425312
 20
-6.0721379038
 10
-8.2400550221
 20
-6.071099204
 10
-8.2568413454
 20
-6.0700518401
 10
-8.2720618243
 20
-6.0689979453
 10
-8.2857099657
 20
-6.0679375391
 10
-8.2977922627
 20
-6.066870602
 10
-8.3082885174
 20
-6.0657992088
 10
-8.3171978086
 20
-6.0647233612
 10
-8.3245210574
 20
-6.0636430576
 10
-8.3302408298
 20
-6.0625603678
 10
-8.3343513142
 20
-6.061475982
 10
-8.3368583221
 20
-6.06038921
 10
-8.3377618536
 20
-6.0593000519
  0
LWPOLYLINE
  5
3ED
100
AcDbEntity
  8
0
100
AcDbPolyline
 62
7
  6
CONTINUOUS
 90
15
 70
0
 10
-8.1576877292
 20
-6.075199885
 10
-8.2019024675
 20
-6.0731678922
 10
-8.2217425312
 20
-6.0721379038
 10
-8.2400550221
 20
-6.071099204
 10
-8.2568413454
 20
-6.0700518401
 10
-8.2720618243
 20
-6.0689979453
 10
-8.2857099657
 20
-6.0679375391
 10
-8.2977922627
 20
-6.066870602
 10
-8.3082885174
 20
-6.0657992088
 10
-8.3171978086
 20
-6.0647233612
 10
-8.3245210574
 20
-6.0636430576
 10
-8.3302408298
 20
-6.0625603678
 10
-8.3343513142
 20
-6.061475982
 10
-8.3368583221
 20
-6.06038921
 10
-8.3377618536
 20
-6.0593000519
  0
LWPOLYLINE
  5
3EE
100
AcDbEntity
  8
SMUSSO
100
AcDbPolyline
 62
7
  6
CONTINUOUS
 90
15
 70
0
 10
-0.1576877292
 20
-6.075199885
 10
-0.2019024675
 20
-6.0731678922
 10
-0.2217425312
 20
-6.0721379038
 10
-0.2400550221
 20
-6.071099204
 10
-0.2568413454
 20
-6.0700518401
 10
-0.2720618243
 20
-6.0689979453
 10
-0.2857099657
 20
-6.0679375391
 10
-0.2977922627
 20
-6.066870602
 10
-0.3082885174
 20
-6.0657992088
 10
-0.3171978086
 20
-6.0647233612
 10
-0.3245210574
 20
-6.0636430576
 10
-0.3302408298
 20
-6.0625603678
 10
-0.3343513142
 20
-6.061475982
 10
-0.3368583221
 20
-6.06038921
 10
-0.3377618536
 20
-6.0593000519
  0
LWPOLYLINE
  5
3EF
100
AcDbEntity
  8
0
100
AcDbPolyline
 62
7
  6
CONTINUOUS
 90
15
 70
0
 10
-0.1576877292
 20
-6.075199885
 10
-0.2019024675
 20
-6.0731678922
 10
-0.2217425312
 20
-6.0721379038
 10
-0.2400550221
 20
-6.071099204
 10
-0.2568413454
 20
-6.0700518401
 10
-0.2720618243
 20
-6.0689979453
 10
-0.2857099657
 20
-6.0679375391
 10
-0.2977922627
 20
-6.066870602
 10
-0.3082885174
 20
-6.0657992088
 10
-0.3171978086
 20
-6.0647233612
 10
-0.3245210574
 20
-6.0636430576
 10
-0.3302408298
 20
-6.0625603678
 10
-0.3343513142
 20
-6.061475982
 10
-0.3368583221
 20
-6.06038921
 10
-0.3377618536
 20
-6.0593000519
  0
LWPOLYLINE
  5
3F0
100
AcDbEntity
  8
SMUSSO
100
AcDbPolyline
 62
7
  6
CONTINUOUS
 90
14
 70
0
 10
-7.6265160442
 20
-5.0711133161
 10
-7.6608975733
 20
-5.069500771
 10
-7.6762337631
 20
-5.0686832024
 10
-7.6903168443
 20
-5.0678581339
 10
-7.7031349246
 20
-5.0670273936
 10
-7.71467755
 20
-5.066191005
 10
-7.7249362467
 20
-5.0653489446
 10
-7.7339034304
 20
-5.0645029701
 10
-7.7415715821
 20
-5.0636530758
 10
-7.7479341625
 20
-5.0627992675
 10
-7.7529858755
 20
-5.0619433203
 10
-7.756721794
 20
-5.061085826
 10
-7.7591377054
 20
-5.0602261929
 10
-7.7602304926
 20
-5.059364421
  0
LWPOLYLINE
  5
3F1
100
AcDbEntity
  8
0
100
AcDbPolyline
 62
7
  6
CONTINUOUS
 90
14
 70
0
 10
-7.6265160442
 20
-5.0711133161
 10
-7.6608975733
 20
-5.069500771
 10
-7.6762337631
 20
-5.0686832024
 10
-7.6903168443
 20
-5.0678581339
 10
-7.7031349246
 20
-5.0670273936
 10
-7.71467755
 20
-5.066191005
 10
-7.7249362467
 20
-5.0653489446
 10
-7.7339034304
 20
-5.0645029701
 10
-7.7415715821
 20
-5.0636530758
 10
-7.7479341625
 20
-5.0627992675
 10
-7.7529858755
 20
-5.0619433203
 10
-7.756721794
 20
-5.061085826
 10
-7.7591377054
 20
-5.0602261929
 10
-7.7602304926
 20
-5.059364421
  0
LINE
  5
3F2
100
AcDbEntity
  8
SMUSSO
100
AcDbLine
 62
250
  6
CONTINUOUS
 10
-4.0897695074
 20
-5.059364421
 11
-3.5122381464
 21
-6.0593000519
  0
LINE
  5
3F3
100
AcDbEntity
  8
0
100
AcDbLine
 62
250
  6
CONTINUOUS
 10
-4.0897695074
 20
-5.059364421
 11
-3.5122381464
 21
-6.0593000519
  0
LINE
  5
3F4
100
AcDbEntity
  8
RACCORDO
100
AcDbLine
 62
7
  6
CONTINUOUS
 10
-3.9027049703
 20
-4.7228182695
 11
-3.9127823851
 21
-4.7053632162
  0
LINE
  5
3F5
100
AcDbEntity
  8
0
100
AcDbLine
 62
7
  6
CONTINUOUS
 10
-3.9027049703
 20
-4.7228182695
 11
-3.9127823851
 21
-4.7053632162
  0
LINE
  5
3F6
100
AcDbEntity
  8
RACCORDO
100
AcDbLine
 62
7
  6
CONTINUOUS
 10
-5.325
 20
20.048308349
 11
-5.325
 21
19.9
  0
LINE
  5
3F7
100
AcDbEntity
  8
0
100
AcDbLine
 62
7
  6
CONTINUOUS
 10
-5.325
 20
20.048308349
 11
-5.325
 21
19.8979303954
  0
LINE
  5
3F8
100
AcDbEntity
  8
RACCORDO
100
AcDbLine
 62
7
  6
CONTINUOUS
 10
-5.325
 20
-19.9
 11
-5.325
 21
-20.048308349
  0
LINE
  5
3F9
100
AcDbEntity
  8
0
100
AcDbLine
 62
7
  6
CONTINUOUS
 10
-5.325
 20
-19.8979303954
 11
-5.325
 21
-20.048308349
  0
LINE
  5
3FA
100
AcDbEntity
  8
RACCORDO
100
AcDbLine
 62
7
  6
CONTINUOUS
 10
-4.925
 20
-21.0
 11
-4.925
 21
-22.3380392387
  0
LINE
  5
3FB
100
AcDbEntity
  8
RACCORDO
100
AcDbLine
 62
7
  6
CONTINUOUS
 10
-4.925
 20
21.0
 11
-4.925
 21
22.3380392387
  0
LINE
  5
3FC
100
AcDbEntity
  8
RACCORDO
100
AcDbLine
 62
250
  6
CONTINUOUS
 10
-4.325
 20
20.0531777909
 11
-4.325
 21
19.8843869511
  0
LINE
  5
3FD
100
AcDbEntity
  8
0
100
AcDbLine
 62
250
  6
CONTINUOUS
 10
-4.325
 20
20.0532338935
 11
-4.325
 21
19.8843869511
  0
LINE
  5
3FE
100
AcDbEntity
  8
RACCORDO
100
AcDbLine
 62
250
  6
CONTINUOUS
 10
-4.325
 20
-19.8843869511
 11
-4.325
 21
-20.0531777909
  0
LINE
  5
3FF
100
AcDbEntity
  8
0
100
AcDbLine
 62
250
  6
CONTINUOUS
 10
-4.325
 20
-19.8843869511
 11
-4.325
 21
-20.0532338935
  0
LINE
  5
400
100
AcDbEntity
  8
SMUSSO
100
AcDbLine
 62
250
  6
CONTINUOUS
 10
-4.0897695074
 20
-5.059364421
 11
-4.0897695074
 21
-4.4647695074
  0
LINE
  5
401
100
AcDbEntity
  8
0
100
AcDbLine
 62
250
  6
CONTINUOUS
 10
-4.0897695074
 20
-5.059364421
 11
-4.0897695074
 21
-4.4647695074
  0
LINE
  5
402
100
AcDbEntity
  8
SMUSSO
100
AcDbLine
 62
7
  6
CONTINUOUS
 10
-3.9127823851
 20
-4.7053632162
 11
-3.9127823851
 21
-4.3
  0
LINE
  5
403
100
AcDbEntity
  8
0
100
AcDbLine
 62
7
  6
CONTINUOUS
 10
-3.9127823851
 20
-4.7053632162
 11
-3.9127823851
 21
-4.3
  0
LINE
  5
404
100
AcDbEntity
  8
0
100
AcDbLine
 62
7
  6
CONTINUOUS
 10
-11.575
 20
-20.1489710538
 11
-11.5377799377
 21
-20.0372200623
  0
LINE
  5
405
100
AcDbEntity
  8
0
100
AcDbLine
 62
7
  6
CONTINUOUS
 10
-10.8248860669
 20
-20.9
 11
-10.7874373907
 21
-20.7875626093
  0
LINE
  5
406
100
AcDbEntity
  8
RACCORDO
100
AcDbLine
 62
7
  6
CONTINUOUS
 10
-7.9472950297
 20
-4.7228182695
 11
-7.9372176149
 21
-4.7053632162
  0
LINE
  5
407
100
AcDbEntity
  8
0
100
AcDbLine
 62
7
  6
CONTINUOUS
 10
-7.9472950297
 20
-4.7228182695
 11
-7.9372176149
 21
-4.7053632162
  0
LINE
  5
408
100
AcDbEntity
  8
SMUSSO
100
AcDbLine
 62
250
  6
CONTINUOUS
 10
-8.3377618536
 20
-6.0593000519
 11
-7.7602304926
 21
-5.059364421
  0
LINE
  5
409
100
AcDbEntity
  8
0
100
AcDbLine
 62
250
  6
CONTINUOUS
 10
-8.3377618536
 20
-6.0593000519
 11
-7.7602304926
 21
-5.059364421
  0
LINE
  5
40A
100
AcDbEntity
  8
RACCORDO
100
AcDbLine
 62
250
  6
CONTINUOUS
 10
-11.5976659647
 20
-4.7228182695
 11
-11.975
 21
-5.1001523048
  0
LINE
  5
40B
100
AcDbEntity
  8
0
100
AcDbLine
 62
250
  6
CONTINUOUS
 10
-11.5976659647
 20
-4.7228182695
 11
-11.975
 21
-5.1001523048
  0
LINE
  5
40C
100
AcDbEntity
  8
0
100
AcDbLine
 62
7
  6
CONTINUOUS
 10
7.7758987014
 20
14.4053686754
 11
7.7934695923
 21
14.4229395662
  0
LINE
  5
40D
100
AcDbEntity
  8
0
100
AcDbLine
 62
7
  6
CONTINUOUS
 10
7.7758987014
 20
14.1953579614
 11
7.7934695923
 21
14.2129288522
  0
LINE
  5
40E
100
AcDbEntity
  8
0
100
AcDbLine
 62
7
  6
CONTINUOUS
 10
7.7758987014
 20
13.9853472474
 11
7.7934695923
 21
14.0029181382
  0
LINE
  5
40F
100
AcDbEntity
  8
0
100
AcDbLine
 62
7
  6
CONTINUOUS
 10
7.7758987014
 20
13.7753365334
 11
7.7934695923
 21
13.7929074242
  0
LINE
  5
410
100
AcDbEntity
  8
0
100
AcDbLine
 62
7
  6
CONTINUOUS
 10
7.7758987014
 20
13.5653258194
 11
7.7934695923
 21
13.5828967102
  0
LINE
  5
411
100
AcDbEntity
  8
0
100
AcDbLine
 62
7
  6
CONTINUOUS
 10
7.7758987014
 20
13.3553151053
 11
7.7934695923
 21
13.3728859962
  0
LINE
  5
412
100
AcDbEntity
  8
0
100
AcDbLine
 62
7
  6
CONTINUOUS
 10
7.7758987014
 20
13.1453043913
 11
7.7934695923
 21
13.1628752822
  0
LINE
  5
413
100
AcDbEntity
  8
0
100
AcDbLine
 62
7
  6
CONTINUOUS
 10
7.7758987014
 20
12.9352936773
 11
7.7934695923
 21
12.9528645681
  0
LINE
  5
414
100
AcDbEntity
  8
SMUSSO
100
AcDbLine
 62
7
  6
CONTINUOUS
 10
3.8108975733
 20
-5.069500771
 11
3.7765160442
 21
-5.0711133161
  0
LINE
  5
415
100
AcDbEntity
  8
0
100
AcDbLine
 62
7
  6
CONTINUOUS
 10
3.8108975733
 20
-5.069500771
 11
3.7765160442
 21
-5.0711133161
  0
LINE
  5
416
100
AcDbEntity
  8
SMUSSO
100
AcDbLine
 62
7
  6
CONTINUOUS
 10
-4.1891024267
 20
-5.069500771
 11
-4.2234839558
 21
-5.0711133161
  0
LINE
  5
417
100
AcDbEntity
  8
0
100
AcDbLine
 62
7
  6
CONTINUOUS
 10
-4.1891024267
 20
-5.069500771
 11
-4.2234839558
 21
-5.0711133161
  0
LINE
  5
418
100
AcDbEntity
  8
SMUSSO
100
AcDbLine
 62
7
  6
CONTINUOUS
 10
3.7765160442
 20
-5.0711133161
 11
3.7372749094
 21
-5.0726907786
  0
LINE
  5
419
100
AcDbEntity
  8
0
100
AcDbLine
 62
7
  6
CONTINUOUS
 10
3.7765160442
 20
-5.0711133161
 11
3.7372749094
 21
-5.0726907786
  0
LINE
  5
41A
100
AcDbEntity
  8
SMUSSO
100
AcDbLine
 62
7
  6
CONTINUOUS
 10
-4.2234839558
 20
-5.0711133161
 11
-4.2627250906
 21
-5.0726907786
  0
LINE
  5
41B
100
AcDbEntity
  8
0
100
AcDbLine
 62
7
  6
CONTINUOUS
 10
-4.2234839558
 20
-5.0711133161
 11
-4.2627250906
 21
-5.0726907786
  0
LINE
  5
41C
100
AcDbEntity
  8
SMUSSO
100
AcDbLine
 62
7
  6
CONTINUOUS
 10
3.7372749094
 20
-5.0726907786
 11
3.6932919426
 21
-5.0742298167
  0
LINE
  5
41D
100
AcDbEntity
  8
0
100
AcDbLine
 62
7
  6
CONTINUOUS
 10
3.7372749094
 20
-5.0726907786
 11
3.6932919426
 21
-5.0742298167
  0
LINE
  5
41E
100
AcDbEntity
  8
SMUSSO
100
AcDbLine
 62
7
  6
CONTINUOUS
 10
-4.2627250906
 20
-5.0726907786
 11
-4.3067080574
 21
-5.0742298167
  0
LINE
  5
41F
100
AcDbEntity
  8
0
100
AcDbLine
 62
7
  6
CONTINUOUS
 10
-4.2627250906
 20
-5.0726907786
 11
-4.3067080574
 21
-5.0742298167
  0
LINE
  5
420
100
AcDbEntity
  8
SMUSSO
100
AcDbLine
 62
7
  6
CONTINUOUS
 10
3.6932919426
 20
-5.0742298167
 11
3.6187166292
 21
-5.0764554073
  0
LINE
  5
421
100
AcDbEntity
  8
0
100
AcDbLine
 62
7
  6
CONTINUOUS
 10
3.6932919426
 20
-5.0742298167
 11
3.6187166292
 21
-5.0764554073
  0
LINE
  5
422
100
AcDbEntity
  8
SMUSSO
100
AcDbLine
 62
7
  6
CONTINUOUS
 10
-4.3067080574
 20
-5.0742298167
 11
-4.3812833708
 21
-5.0764554073
  0
LINE
  5
423
100
AcDbEntity
  8
0
100
AcDbLine
 62
7
  6
CONTINUOUS
 10
-4.3067080574
 20
-5.0742298167
 11
-4.3812833708
 21
-5.0764554073
  0
LINE
  5
424
100
AcDbEntity
  8
SMUSSO
100
AcDbLine
 62
7
  6
CONTINUOUS
 10
3.6187166292
 20
-5.0764554073
 11
3.5342879435
 21
-5.0785686516
  0
LINE
  5
425
100
AcDbEntity
  8
0
100
AcDbLine
 62
7
  6
CONTINUOUS
 10
3.6187166292
 20
-5.0764554073
 11
3.5342879435
 21
-5.0785686516
  0
LINE
  5
426
100
AcDbEntity
  8
SMUSSO
100
AcDbLine
 62
7
  6
CONTINUOUS
 10
-4.3812833708
 20
-5.0764554073
 11
-4.4657120565
 21
-5.0785686516
  0
LINE
  5
427
100
AcDbEntity
  8
0
100
AcDbLine
 62
7
  6
CONTINUOUS
 10
-4.3812833708
 20
-5.0764554073
 11
-4.4657120565
 21
-5.0785686516
  0
LINE
  5
428
100
AcDbEntity
  8
SMUSSO
100
AcDbLine
 62
7
  6
CONTINUOUS
 10
3.5342879435
 20
-5.0785686516
 11
3.4405243217
 21
-5.0805569942
  0
LINE
  5
429
100
AcDbEntity
  8
0
100
AcDbLine
 62
7
  6
CONTINUOUS
 10
3.5342879435
 20
-5.0785686516
 11
3.4405243217
 21
-5.0805569942
  0
LINE
  5
42A
100
AcDbEntity
  8
SMUSSO
100
AcDbLine
 62
7
  6
CONTINUOUS
 10
-4.4657120565
 20
-5.0785686516
 11
-4.5594756783
 21
-5.0805569942
  0
LINE
  5
42B
100
AcDbEntity
  8
0
100
AcDbLine
 62
7
  6
CONTINUOUS
 10
-4.4657120565
 20
-5.0785686516
 11
-4.5594756783
 21
-5.0805569942
  0
LINE
  5
42C
100
AcDbEntity
  8
SMUSSO
100
AcDbLine
 62
7
  6
CONTINUOUS
 10
3.4405243217
 20
-5.0805569942
 11
3.3381075362
 21
-5.0824064091
  0
LINE
  5
42D
100
AcDbEntity
  8
0
100
AcDbLine
 62
7
  6
CONTINUOUS
 10
3.4405243217
 20
-5.0805569942
 11
3.3381075362
 21
-5.0824064091
  0
LINE
  5
42E
100
AcDbEntity
  8
SMUSSO
100
AcDbLine
 62
7
  6
CONTINUOUS
 10
-4.5594756783
 20
-5.0805569942
 11
-4.6618924638
 21
-5.0824064091
  0
LINE
  5
42F
100
AcDbEntity
  8
0
100
AcDbLine
 62
7
  6
CONTINUOUS
 10
-4.5594756783
 20
-5.0805569942
 11
-4.6618924638
 21
-5.0824064091
  0
LINE
  5
430
100
AcDbEntity
  8
SMUSSO
100
AcDbLine
 62
7
  6
CONTINUOUS
 10
3.3381075362
 20
-5.0824064091
 11
3.2276141201
 21
-5.0841067442
  0
LINE
  5
431
100
AcDbEntity
  8
0
100
AcDbLine
 62
7
  6
CONTINUOUS
 10
3.3381075362
 20
-5.0824064091
 11
3.2276141201
 21
-5.0841067442
  0
LINE
  5
432
100
AcDbEntity
  8
SMUSSO
100
AcDbLine
 62
7
  6
CONTINUOUS
 10
-4.6618924638
 20
-5.0824064091
 11
-4.7723858799
 21
-5.0841067442
  0
LINE
  5
433
100
AcDbEntity
  8
0
100
AcDbLine
 62
7
  6
CONTINUOUS
 10
-4.6618924638
 20
-5.0824064091
 11
-4.7723858799
 21
-5.0841067442
  0
LINE
  5
434
100
AcDbEntity
  8
SMUSSO
100
AcDbLine
 62
7
  6
CONTINUOUS
 10
3.2276141201
 20
-5.0841067442
 11
3.0690888485
 21
-5.0861213579
  0
LINE
  5
435
100
AcDbEntity
  8
0
100
AcDbLine
 62
7
  6
CONTINUOUS
 10
3.2276141201
 20
-5.0841067442
 11
3.0690888485
 21
-5.0861213579
  0
LINE
  5
436
100
AcDbEntity
  8
SMUSSO
100
AcDbLine
 62
7
  6
CONTINUOUS
 10
-4.7723858799
 20
-5.0841067442
 11
-4.9309111515
 21
-5.0861213579
  0
LINE
  5
437
100
AcDbEntity
  8
0
100
AcDbLine
 62
7
  6
CONTINUOUS
 10
-4.7723858799
 20
-5.0841067442
 11
-4.9309111515
 21
-5.0861213579
  0
LINE
  5
438
100
AcDbEntity
  8
SMUSSO
100
AcDbLine
 62
7
  6
CONTINUOUS
 10
3.0690888485
 20
-5.0861213579
 11
2.899332385
 21
-5.0878285918
  0
LINE
  5
439
100
AcDbEntity
  8
0
100
AcDbLine
 62
7
  6
CONTINUOUS
 10
3.0690888485
 20
-5.0861213579
 11
2.899332385
 21
-5.0878285918
  0
LINE
  5
43A
100
AcDbEntity
  8
SMUSSO
100
AcDbLine
 62
7
  6
CONTINUOUS
 10
-4.9309111515
 20
-5.0861213579
 11
-5.100667615
 21
-5.0878285918
  0
LINE
  5
43B
100
AcDbEntity
  8
0
100
AcDbLine
 62
7
  6
CONTINUOUS
 10
-4.9309111515
 20
-5.0861213579
 11
-5.100667615
 21
-5.0878285918
  0
LINE
  5
43C
100
AcDbEntity
  8
SMUSSO
100
AcDbLine
 62
7
  6
CONTINUOUS
 10
2.899332385
 20
-5.0878285918
 11
2.7203125341
 21
-5.0892080542
  0
LINE
  5
43D
100
AcDbEntity
  8
0
100
AcDbLine
 62
7
  6
CONTINUOUS
 10
2.899332385
 20
-5.0878285918
 11
2.7203125341
 21
-5.0892080542
  0
LINE
  5
43E
100
AcDbEntity
  8
SMUSSO
100
AcDbLine
 62
7
  6
CONTINUOUS
 10
-5.100667615
 20
-5.0878285918
 11
-5.2796874659
 21
-5.0892080542
  0
LINE
  5
43F
100
AcDbEntity
  8
0
100
AcDbLine
 62
7
  6
CONTINUOUS
 10
-5.100667615
 20
-5.0878285918
 11
-5.2796874659
 21
-5.0892080542
  0
LINE
  5
440
100
AcDbEntity
  8
SMUSSO
100
AcDbLine
 62
7
  6
CONTINUOUS
 10
2.7203125341
 20
-5.0892080542
 11
2.5340437587
 21
-5.0902446328
  0
LINE
  5
441
100
AcDbEntity
  8
0
100
AcDbLine
 62
7
  6
CONTINUOUS
 10
2.7203125341
 20
-5.0892080542
 11
2.5340437587
 21
-5.0902446328
  0
LINE
  5
442
100
AcDbEntity
  8
SMUSSO
100
AcDbLine
 62
7
  6
CONTINUOUS
 10
-5.2796874659
 20
-5.0892080542
 11
-5.4659562413
 21
-5.0902446328
  0
LINE
  5
443
100
AcDbEntity
  8
0
100
AcDbLine
 62
7
  6
CONTINUOUS
 10
-5.2796874659
 20
-5.0892080542
 11
-5.4659562413
 21
-5.0902446328
  0
LINE
  5
444
100
AcDbEntity
  8
SMUSSO
100
AcDbLine
 62
7
  6
CONTINUOUS
 10
2.5340437587
 20
-5.0902446328
 11
2.3426200887
 21
-5.0909268061
  0
LINE
  5
445
100
AcDbEntity
  8
0
100
AcDbLine
 62
7
  6
CONTINUOUS
 10
2.5340437587
 20
-5.0902446328
 11
2.3426200887
 21
-5.0909268061
  0
LINE
  5
446
100
AcDbEntity
  8
SMUSSO
100
AcDbLine
 62
7
  6
CONTINUOUS
 10
-5.4659562413
 20
-5.0902446328
 11
-5.6573799113
 21
-5.0909268061
  0
LINE
  5
447
100
AcDbEntity
  8
0
100
AcDbLine
 62
7
  6
CONTINUOUS
 10
-5.4659562413
 20
-5.0902446328
 11
-5.6573799113
 21
-5.0909268061
  0
LINE
  5
448
100
AcDbEntity
  8
SMUSSO
100
AcDbLine
 62
7
  6
CONTINUOUS
 10
2.3426200887
 20
-5.0909268061
 11
2.1482506208
 21
-5.091246699
  0
LINE
  5
449
100
AcDbEntity
  8
0
100
AcDbLine
 62
7
  6
CONTINUOUS
 10
2.3426200887
 20
-5.0909268061
 11
2.1482506208
 21
-5.091246699
  0
LINE
  5
44A
100
AcDbEntity
  8
SMUSSO
100
AcDbLine
 62
7
  6
CONTINUOUS
 10
-5.6573799113
 20
-5.0909268061
 11
-5.8517493792
 21
-5.091246699
  0
LINE
  5
44B
100
AcDbEntity
  8
0
100
AcDbLine
 62
7
  6
CONTINUOUS
 10
-5.6573799113
 20
-5.0909268061
 11
-5.8517493792
 21
-5.091246699
  0
LINE
  5
44C
100
AcDbEntity
  8
0
100
AcDbLine
 62
250
  6
CONTINUOUS
 10
9.1301990421
 20
-5.171133
 11
9.1808033297
 21
-5.171133
  0
LINE
  5
44D
100
AcDbEntity
  8
RACCORDO
100
AcDbLine
 62
250
  6
CONTINUOUS
 10
-3.9027049703
 20
-4.7228182695
 11
0.0527049703
 21
-4.7228182695
  0
LINE
  5
44E
100
AcDbEntity
  8
0
100
AcDbLine
 62
250
  6
CONTINUOUS
 10
-3.9027049703
 20
-4.7228182695
 11
0.0527049703
 21
-4.7228182695
  0
LINE
  5
44F
100
AcDbEntity
  8
RACCORDO
100
AcDbLine
 62
250
  6
CONTINUOUS
 10
4.0972950297
 20
-4.7228182695
 11
7.7476659647
 21
-4.7228182695
  0
LINE
  5
450
100
AcDbEntity
  8
0
100
AcDbLine
 62
250
  6
CONTINUOUS
 10
4.0972950297
 20
-4.7228182695
 11
7.7476659647
 21
-4.7228182695
  0
LINE
  5
451
100
AcDbEntity
  8
RACCORDO
100
AcDbLine
 62
250
  6
CONTINUOUS
 10
-7.9472950297
 20
-4.7228182695
 11
-11.5976659647
 21
-4.7228182695
  0
LINE
  5
452
100
AcDbEntity
  8
0
100
AcDbLine
 62
250
  6
CONTINUOUS
 10
-7.9472950297
 20
-4.7228182695
 11
-11.5976659647
 21
-4.7228182695
  0
LINE
  5
453
100
AcDbEntity
  8
DRAFT
100
AcDbLine
 62
7
  6
CONTINUOUS
 10
-7.9372176149
 20
-4.3
 11
-3.9127823851
 21
-4.3
  0
LINE
  5
454
100
AcDbEntity
  8
0
100
AcDbLine
 62
7
  6
CONTINUOUS
 10
-7.9372176149
 20
-4.3
 11
-3.9127823851
 21
-4.3
  0
LINE
  5
455
100
AcDbEntity
  8
DRAFT
100
AcDbLine
 62
7
  6
CONTINUOUS
 10
4.0872176149
 20
-4.3
 11
0.0627823851
 21
-4.3
  0
LINE
  5
456
100
AcDbEntity
  8
0
100
AcDbLine
 62
7
  6
CONTINUOUS
 10
4.0872176149
 20
-4.3
 11
0.0627823851
 21
-4.3
  0
LINE
  5
457
100
AcDbEntity
  8
SMUSSO
100
AcDbLine
 62
7
  6
CONTINUOUS
 10
-5.8517493792
 20
-5.091246699
 11
-6.0470026319
 21
-5.0912009423
  0
LINE
  5
458
100
AcDbEntity
  8
0
100
AcDbLine
 62
7
  6
CONTINUOUS
 10
-5.8517493792
 20
-5.091246699
 11
-6.0470026319
 21
-5.0912009423
  0
LINE
  5
459
100
AcDbEntity
  8
SMUSSO
100
AcDbLine
 62
7
  6
CONTINUOUS
 10
2.1482506208
 20
-5.091246699
 11
1.9529973681
 21
-5.0912009423
  0
LINE
  5
45A
100
AcDbEntity
  8
0
100
AcDbLine
 62
7
  6
CONTINUOUS
 10
2.1482506208
 20
-5.091246699
 11
1.9529973681
 21
-5.0912009423
  0
LINE
  5
45B
100
AcDbEntity
  8
SMUSSO
100
AcDbLine
 62
7
  6
CONTINUOUS
 10
-6.0470026319
 20
-5.0912009423
 11
-6.2408547907
 21
-5.0907899005
  0
LINE
  5
45C
100
AcDbEntity
  8
0
100
AcDbLine
 62
7
  6
CONTINUOUS
 10
-6.0470026319
 20
-5.0912009423
 11
-6.2408547907
 21
-5.0907899005
  0
LINE
  5
45D
100
AcDbEntity
  8
SMUSSO
100
AcDbLine
 62
7
  6
CONTINUOUS
 10
1.9529973681
 20
-5.0912009423
 11
1.7591452093
 21
-5.0907899005
  0
LINE
  5
45E
100
AcDbEntity
  8
0
100
AcDbLine
 62
7
  6
CONTINUOUS
 10
1.9529973681
 20
-5.0912009423
 11
1.7591452093
 21
-5.0907899005
  0
LINE
  5
45F
100
AcDbEntity
  8
SMUSSO
100
AcDbLine
 62
7
  6
CONTINUOUS
 10
-6.2408547907
 20
-5.0907899005
 11
-6.4311690393
 21
-5.090018427
  0
LINE
  5
460
100
AcDbEntity
  8
0
100
AcDbLine
 62
7
  6
CONTINUOUS
 10
-6.2408547907
 20
-5.0907899005
 11
-6.4311690393
 21
-5.090018427
  0
LINE
  5
461
100
AcDbEntity
  8
SMUSSO
100
AcDbLine
 62
7
  6
CONTINUOUS
 10
1.7591452093
 20
-5.0907899005
 11
1.5688309607
 21
-5.090018427
  0
LINE
  5
462
100
AcDbEntity
  8
0
100
AcDbLine
 62
7
  6
CONTINUOUS
 10
1.7591452093
 20
-5.0907899005
 11
1.5688309607
 21
-5.090018427
  0
LINE
  5
463
100
AcDbEntity
  8
SMUSSO
100
AcDbLine
 62
7
  6
CONTINUOUS
 10
-6.4311690393
 20
-5.090018427
 11
-6.6158303219
 21
-5.088894808
  0
LINE
  5
464
100
AcDbEntity
  8
0
100
AcDbLine
 62
7
  6
CONTINUOUS
 10
-6.4311690393
 20
-5.090018427
 11
-6.6158303219
 21
-5.088894808
  0
LINE
  5
465
100
AcDbEntity
  8
SMUSSO
100
AcDbLine
 62
7
  6
CONTINUOUS
 10
1.5688309607
 20
-5.090018427
 11
1.3841696781
 21
-5.088894808
  0
LINE
  5
466
100
AcDbEntity
  8
0
100
AcDbLine
 62
7
  6
CONTINUOUS
 10
1.5688309607
 20
-5.090018427
 11
1.3841696781
 21
-5.088894808
  0
LINE
  5
467
100
AcDbEntity
  8
SMUSSO
100
AcDbLine
 62
7
  6
CONTINUOUS
 10
-6.6158303219
 20
-5.088894808
 11
-6.7927083093
 21
-5.0874317479
  0
LINE
  5
468
100
AcDbEntity
  8
0
100
AcDbLine
 62
7
  6
CONTINUOUS
 10
-6.6158303219
 20
-5.088894808
 11
-6.7927083093
 21
-5.0874317479
  0
LINE
  5
469
100
AcDbEntity
  8
SMUSSO
100
AcDbLine
 62
7
  6
CONTINUOUS
 10
1.3841696781
 20
-5.088894808
 11
1.2072916907
 21
-5.0874317479
  0
LINE
  5
46A
100
AcDbEntity
  8
0
100
AcDbLine
 62
7
  6
CONTINUOUS
 10
1.3841696781
 20
-5.088894808
 11
1.2072916907
 21
-5.0874317479
  0
LINE
  5
46B
100
AcDbEntity
  8
SMUSSO
100
AcDbLine
 62
7
  6
CONTINUOUS
 10
-6.7927083093
 20
-5.0874317479
 11
-6.9598539303
 21
-5.0856457245
  0
LINE
  5
46C
100
AcDbEntity
  8
0
100
AcDbLine
 62
7
  6
CONTINUOUS
 10
-6.7927083093
 20
-5.0874317479
 11
-6.9598539303
 21
-5.0856457245
  0
LINE
  5
46D
100
AcDbEntity
  8
SMUSSO
100
AcDbLine
 62
7
  6
CONTINUOUS
 10
1.2072916907
 20
-5.0874317479
 11
1.0401460697
 21
-5.0856457245
  0
LINE
  5
46E
100
AcDbEntity
  8
0
100
AcDbLine
 62
7
  6
CONTINUOUS
 10
1.2072916907
 20
-5.0874317479
 11
1.0401460697
 21
-5.0856457245
  0
LINE
  5
46F
100
AcDbEntity
  8
SMUSSO
100
AcDbLine
 62
7
  6
CONTINUOUS
 10
-6.9598539303
 20
-5.0856457245
 11
-7.1152930237
 21
-5.0835574395
  0
LINE
  5
470
100
AcDbEntity
  8
0
100
AcDbLine
 62
7
  6
CONTINUOUS
 10
-6.9598539303
 20
-5.0856457245
 11
-7.1152930237
 21
-5.0835574395
  0
LINE
  5
471
100
AcDbEntity
  8
SMUSSO
100
AcDbLine
 62
7
  6
CONTINUOUS
 10
1.0401460697
 20
-5.0856457245
 11
0.8847069763
 21
-5.0835574395
  0
LINE
  5
472
100
AcDbEntity
  8
0
100
AcDbLine
 62
7
  6
CONTINUOUS
 10
1.0401460697
 20
-5.0856457245
 11
0.8847069763
 21
-5.0835574395
  0
LINE
  5
473
100
AcDbEntity
  8
SMUSSO
100
AcDbLine
 62
7
  6
CONTINUOUS
 10
-7.1152930237
 20
-5.0835574395
 11
-7.2231739462
 21
-5.0818061259
  0
LINE
  5
474
100
AcDbEntity
  8
0
100
AcDbLine
 62
7
  6
CONTINUOUS
 10
-7.1152930237
 20
-5.0835574395
 11
-7.2231739462
 21
-5.0818061259
  0
LINE
  5
475
100
AcDbEntity
  8
SMUSSO
100
AcDbLine
 62
7
  6
CONTINUOUS
 10
0.8847069763
 20
-5.0835574395
 11
0.7768260538
 21
-5.0818061259
  0
LINE
  5
476
100
AcDbEntity
  8
0
100
AcDbLine
 62
7
  6
CONTINUOUS
 10
0.8847069763
 20
-5.0835574395
 11
0.7768260538
 21
-5.0818061259
  0
LINE
  5
477
100
AcDbEntity
  8
SMUSSO
100
AcDbLine
 62
7
  6
CONTINUOUS
 10
-7.2231739462
 20
-5.0818061259
 11
-7.3227748485
 21
-5.0799091303
  0
LINE
  5
478
100
AcDbEntity
  8
0
100
AcDbLine
 62
7
  6
CONTINUOUS
 10
-7.2231739462
 20
-5.0818061259
 11
-7.3227748485
 21
-5.0799091303
  0
LINE
  5
479
100
AcDbEntity
  8
SMUSSO
100
AcDbLine
 62
7
  6
CONTINUOUS
 10
0.7768260538
 20
-5.0818061259
 11
0.6772251515
 21
-5.0799091303
  0
LINE
  5
47A
100
AcDbEntity
  8
0
100
AcDbLine
 62
7
  6
CONTINUOUS
 10
0.7768260538
 20
-5.0818061259
 11
0.6772251515
 21
-5.0799091303
  0
LINE
  5
47B
100
AcDbEntity
  8
SMUSSO
100
AcDbLine
 62
7
  6
CONTINUOUS
 10
-7.3227748485
 20
-5.0799091303
 11
-7.4134950216
 21
-5.0778776498
  0
LINE
  5
47C
100
AcDbEntity
  8
0
100
AcDbLine
 62
7
  6
CONTINUOUS
 10
-7.3227748485
 20
-5.0799091303
 11
-7.4134950216
 21
-5.0778776498
  0
LINE
  5
47D
100
AcDbEntity
  8
SMUSSO
100
AcDbLine
 62
7
  6
CONTINUOUS
 10
0.6772251515
 20
-5.0799091303
 11
0.5865049784
 21
-5.0778776498
  0
LINE
  5
47E
100
AcDbEntity
  8
0
100
AcDbLine
 62
7
  6
CONTINUOUS
 10
0.6772251515
 20
-5.0799091303
 11
0.5865049784
 21
-5.0778776498
  0
LINE
  5
47F
100
AcDbEntity
  8
SMUSSO
100
AcDbLine
 62
7
  6
CONTINUOUS
 10
-7.4134950216
 20
-5.0778776498
 11
-7.4946967399
 21
-5.0757254797
  0
LINE
  5
480
100
AcDbEntity
  8
0
100
AcDbLine
 62
7
  6
CONTINUOUS
 10
-7.4134950216
 20
-5.0778776498
 11
-7.4946967399
 21
-5.0757254797
  0
LINE
  5
481
100
AcDbEntity
  8
SMUSSO
100
AcDbLine
 62
7
  6
CONTINUOUS
 10
0.5865049784
 20
-5.0778776498
 11
0.5053032601
 21
-5.0757254797
  0
LINE
  5
482
100
AcDbEntity
  8
0
100
AcDbLine
 62
7
  6
CONTINUOUS
 10
0.5865049784
 20
-5.0778776498
 11
0.5053032601
 21
-5.0757254797
  0
LINE
  5
483
100
AcDbEntity
  8
SMUSSO
100
AcDbLine
 62
7
  6
CONTINUOUS
 10
-7.4946967399
 20
-5.0757254797
 11
-7.5658683128
 21
-5.0734657186
  0
LINE
  5
484
100
AcDbEntity
  8
0
100
AcDbLine
 62
7
  6
CONTINUOUS
 10
-7.4946967399
 20
-5.0757254797
 11
-7.5658683128
 21
-5.0734657186
  0
LINE
  5
485
100
AcDbEntity
  8
SMUSSO
100
AcDbLine
 62
7
  6
CONTINUOUS
 10
0.5053032601
 20
-5.0757254797
 11
0.4341316872
 21
-5.0734657186
  0
LINE
  5
486
100
AcDbEntity
  8
0
100
AcDbLine
 62
7
  6
CONTINUOUS
 10
0.5053032601
 20
-5.0757254797
 11
0.4341316872
 21
-5.0734657186
  0
LWPOLYLINE
  5
487
100
AcDbEntity
  8
SMUSSO
100
AcDbPolyline
 62
7
  6
CONTINUOUS
 90
3
 70
0
 10
-7.5658683128
 20
-5.0734657186
 10
-7.6074959693
 20
-5.0719066487
 10
-7.6265160442
 20
-5.0711133161
  0
LWPOLYLINE
  5
488
100
AcDbEntity
  8
0
100
AcDbPolyline
 62
7
  6
CONTINUOUS
 90
3
 70
0
 10
-7.5658683128
 20
-5.0734657186
 10
-7.6074959693
 20
-5.0719066487
 10
-7.6265160442
 20
-5.0711133161
  0
LINE
  5
489
100
AcDbEntity
  8
SMUSSO
100
AcDbLine
 62
7
  6
CONTINUOUS
 10
0.4341316872
 20
-5.0734657186
 11
0.3925040307
 21
-5.0719066487
  0
LINE
  5
48A
100
AcDbEntity
  8
0
100
AcDbLine
 62
7
  6
CONTINUOUS
 10
0.4341316872
 20
-5.0734657186
 11
0.3925040307
 21
-5.0719066487
  0
LWPOLYLINE
  5
48B
100
AcDbEntity
  8
SMUSSO
100
AcDbPolyline
 62
7
  6
CONTINUOUS
 90
15
 70
0
 10
0.3925040307
 20
-5.0719066487
 10
0.3556791176
 20
-5.0703107935
 10
0.3391024267
 20
-5.069500771
 10
0.3237662369
 20
-5.0686832024
 10
0.3096831557
 20
-5.0678581339
 10
0.2968650754
 20
-5.0670273936
 10
0.28532245
 20
-5.066191005
 10
0.2750637533
 20
-5.0653489446
 10
0.2660965696
 20
-5.0645029701
 10
0.2584284179
 20
-5.0636530758
 10
0.2520658375
 20
-5.0627992675
 10
0.2470141245
 20
-5.0619433203
 10
0.243278206
 20
-5.061085826
 10
0.2408622946
 20
-5.0602261929
 10
0.2397695074
 20
-5.059364421
  0
LWPOLYLINE
  5
48C
100
AcDbEntity
  8
0
100
AcDbPolyline
 62
7
  6
CONTINUOUS
 90
15
 70
0
 10
0.3925040307
 20
-5.0719066487
 10
0.3556791176
 20
-5.0703107935
 10
0.3391024267
 20
-5.069500771
 10
0.3237662369
 20
-5.0686832024
 10
0.3096831557
 20
-5.0678581339
 10
0.2968650754
 20
-5.0670273936
 10
0.28532245
 20
-5.066191005
 10
0.2750637533
 20
-5.0653489446
 10
0.2660965696
 20
-5.0645029701
 10
0.2584284179
 20
-5.0636530758
 10
0.2520658375
 20
-5.0627992675
 10
0.2470141245
 20
-5.0619433203
 10
0.243278206
 20
-5.061085826
 10
0.2408622946
 20
-5.0602261929
 10
0.2397695074
 20
-5.059364421
  0
LWPOLYLINE
  5
48D
100
AcDbEntity
  8
SMUSSO
100
AcDbPolyline
 62
7
  6
CONTINUOUS
 90
40
 70
0
 10
2.6808138338
 20
-6.1
 10
2.6480739271
 20
-6.0861394337
 10
2.6155701676
 20
-6.0730791326
 10
2.5833025554
 20
-6.0608190969
 10
2.5512801961
 20
-6.0493712958
 10
2.519493984
 20
-6.03872376
 10
2.4879166023
 20
-6.0288405818
 10
2.4565620154
 20
-6.0197226654
 10
2.4254162588
 20
-6.0113691066
 10
2.394410122
 20
-6.0037412849
 10
2.3635342888
 20
-5.9968340324
 10
2.3327980754
 20
-5.990652517
 10
2.3021602198
 20
-5.9851736214
 10
2.2716134911
 20
-5.9803950206
 10
2.2411651202
 20
-5.9763190397
 10
2.2107955378
 20
-5.9729295364
 10
2.1805106182
 20
-5.9702252952
 10
2.1503044871
 20
-5.9682075316
 10
2.120139953
 20
-5.9668637492
 10
2.0900323961
 20
-5.9661897779
 10
2.0599664361
 20
-5.9661897879
 10
2.0298587417
 20
-5.9668637928
 10
1.9996938142
 20
-5.9682076426
 10
1.9694871522
 20
-5.9702254873
 10
1.93920192
 20
-5.9729297916
 10
1.9088323423
 20
-5.9763193486
 10
1.8783841944
 20
-5.9803953651
 10
1.8478379665
 20
-5.9851739253
 10
1.8172011188
 20
-5.9906526403
 10
1.7864661911
 20
-5.996833899
 10
1.7555912921
 20
-6.0037409528
 10
1.7245854441
 20
-6.011368686
 10
1.6934396249
 20
-6.0197222142
 10
1.6620848766
 20
-6.0288401355
 10
1.6305072798
 20
-6.038723357
 10
1.598720754
 20
-6.0493709716
 10
1.5666980997
 20
-6.0608188555
 10
1.5344302504
 20
-6.0730789676
 10
1.5019262726
 20
-6.0861393491
 10
1.4691861662
 20
-6.1
  0
LWPOLYLINE
  5
48E
100
AcDbEntity
  8
0
100
AcDbPolyline
 62
7
  6
CONTINUOUS
 90
40
 70
0
 10
2.6808138338
 20
-6.1
 10
2.6480739271
 20
-6.0861394337
 10
2.6155701676
 20
-6.0730791326
 10
2.5833025554
 20
-6.0608190969
 10
2.5512801961
 20
-6.0493712958
 10
2.519493984
 20
-6.03872376
 10
2.4879166023
 20
-6.0288405818
 10
2.4565620154
 20
-6.0197226654
 10
2.4254162588
 20
-6.0113691066
 10
2.394410122
 20
-6.0037412849
 10
2.3635342888
 20
-5.9968340324
 10
2.3327980754
 20
-5.990652517
 10
2.3021602198
 20
-5.9851736214
 10
2.2716134911
 20
-5.9803950206
 10
2.2411651202
 20
-5.9763190397
 10
2.2107955378
 20
-5.9729295364
 10
2.1805106182
 20
-5.9702252952
 10
2.1503044871
 20
-5.9682075316
 10
2.120139953
 20
-5.9668637492
 10
2.0900323961
 20
-5.9661897779
 10
2.0599664361
 20
-5.9661897879
 10
2.0298587417
 20
-5.9668637928
 10
1.9996938142
 20
-5.9682076426
 10
1.9694871522
 20
-5.9702254873
 10
1.93920192
 20
-5.9729297916
 10
1.9088323423
 20
-5.9763193486
 10
1.8783841944
 20
-5.9803953651
 10
1.8478379665
 20
-5.9851739253
 10
1.8172011188
 20
-5.9906526403
 10
1.7864661911
 20
-5.996833899
 10
1.7555912921
 20
-6.0037409528
 10
1.7245854441
 20
-6.011368686
 10
1.6934396249
 20
-6.0197222142
 10
1.6620848766
 20
-6.0288401355
 10
1.6305072798
 20
-6.038723357
 10
1.598720754
 20
-6.0493709716
 10
1.5666980997
 20
-6.0608188555
 10
1.5344302504
 20
-6.0730789676
 10
1.5019262726
 20
-6.0861393491
 10
1.4691861662
 20
-6.1
  0
LINE
  5
48F
100
AcDbEntity
  8
0
100
AcDbLine
 62
7
  6
CONTINUOUS
 10
-10.325
 20
1.3722782751
 11
-10.4696758185
 21
1.4781868487
  0
LINE
  5
490
100
AcDbEntity
  8
0
100
AcDbLine
 62
7
  6
CONTINUOUS
 10
-11.5377799377
 20
20.0372200623
 11
-11.575
 21
20.1489710538
  0
LINE
  5
491
100
AcDbEntity
  8
0
100
AcDbLine
 62
7
  6
CONTINUOUS
 10
-10.7874373907
 20
20.7875626093
 11
-10.8248860669
 21
20.9
  0
LWPOLYLINE
  5
492
100
AcDbEntity
  8
ASSI
100
AcDbPolyline
 62
7
  6
CONTINUOUS
 90
17
 70
0
 10
-6.2809327327
 20
-23.7507734247
 10
-6.2805066314
 20
-23.7479880297
 10
-6.2794093029
 20
-23.7445381423
 10
-6.2776217143
 20
-23.7404237625
 10
-6.275124195
 20
-23.735657832
 10
-6.2719006534
 20
-23.7302274091
 10
-6.2679426829
 20
-23.7240936689
 10
-6.2632403763
 20
-23.7172495321
 10
-6.2577837712
 20
-23.7097020781
 10
-6.2515725949
 20
-23.70143372
 10
-6.2446191733
 20
-23.6924637589
 10
-6.2369084242
 20
-23.6827728937
 10
-6.2283924483
 20
-23.6722856337
 10
-6.2190570925
 20
-23.6610025701
 10
-6.2088985218
 20
-23.6489231118
 10
-6.197867965
 20
-23.6359699945
 10
-6.1859530912
 20
-23.6221414657
  0
LINE
  5
493
100
AcDbEntity
  8
DRAFT
100
AcDbLine
 62
7
  6
CONTINUOUS
 10
-10.725
 20
-20.85
 11
-10.6526987537
 21
-20.6754493507
  0
LINE
  5
494
100
AcDbEntity
  8
0
100
AcDbLine
 62
7
  6
CONTINUOUS
 10
-10.725
 20
-20.85
 11
-10.6526987537
 21
-20.6754493507
  0
LINE
  5
495
100
AcDbEntity
  8
0
100
AcDbLine
 62
7
  6
CONTINUOUS
 10
7.7758987014
 20
12.7252829633
 11
7.7934695923
 21
12.7428538541
  0
LINE
  5
496
100
AcDbEntity
  8
RACCORDO
100
AcDbLine
 62
250
  6
CONTINUOUS
 10
-10.5978182695
 20
-5.7226659647
 11
-10.9751523048
 21
-6.1
  0
LINE
  5
497
100
AcDbEntity
  8
0
100
AcDbLine
 62
250
  6
CONTINUOUS
 10
-10.5978182695
 20
-5.7226659647
 11
-10.9751523048
 21
-6.1
  0
LINE
  5
498
100
AcDbEntity
  8
0
100
AcDbLine
 62
7
  6
CONTINUOUS
 10
7.7758987014
 20
12.5152722493
 11
7.7934695923
 21
12.5328431401
  0
LINE
  5
499
100
AcDbEntity
  8
0
100
AcDbLine
 62
7
  6
CONTINUOUS
 10
7.7758987014
 20
12.3052615353
 11
7.7934695923
 21
12.3228324261
  0
LINE
  5
49A
100
AcDbEntity
  8
0
100
AcDbLine
 62
7
  6
CONTINUOUS
 10
7.7758987014
 20
12.0952508213
 11
7.7934695923
 21
12.1128217121
  0
LINE
  5
49B
100
AcDbEntity
  8
0
100
AcDbLine
 62
7
  6
CONTINUOUS
 10
7.7758987014
 20
11.8852401073
 11
7.7934695923
 21
11.9028109981
  0
LINE
  5
49C
100
AcDbEntity
  8
0
100
AcDbLine
 62
7
  6
CONTINUOUS
 10
7.7758987014
 20
11.6752293932
 11
7.7934695923
 21
11.6928002841
  0
LINE
  5
49D
100
AcDbEntity
  8
0
100
AcDbLine
 62
7
  6
CONTINUOUS
 10
7.7758987014
 20
11.4652186792
 11
7.7934695923
 21
11.4827895701
  0
LINE
  5
49E
100
AcDbEntity
  8
0
100
AcDbLine
 62
7
  6
CONTINUOUS
 10
7.7758987014
 20
11.2552079652
 11
7.7934695923
 21
11.272778856
  0
LINE
  5
49F
100
AcDbEntity
  8
0
100
AcDbLine
 62
7
  6
CONTINUOUS
 10
7.7758987014
 20
11.0451972512
 11
7.7934695923
 21
11.062768142
  0
LINE
  5
4A0
100
AcDbEntity
  8
0
100
AcDbLine
 62
7
  6
CONTINUOUS
 10
7.7758987014
 20
10.8351865372
 11
7.7934695923
 21
10.852757428
  0
LINE
  5
4A1
100
AcDbEntity
  8
0
100
AcDbLine
 62
7
  6
CONTINUOUS
 10
7.7758987014
 20
10.6251758232
 11
7.7934695923
 21
10.642746714
  0
LINE
  5
4A2
100
AcDbEntity
  8
0
100
AcDbLine
 62
250
  6
CONTINUOUS
 10
9.1301990421
 20
-3.323396
 11
9.1496862579
 21
-3.323396
  0
LINE
  5
4A3
100
AcDbEntity
  8
0
100
AcDbLine
 62
250
  6
CONTINUOUS
 10
9.1580958675
 20
-3.323396
 11
9.1723937202
 21
-3.323396
  0
LINE
  5
4A4
100
AcDbEntity
  8
0
100
AcDbLine
 62
250
  6
CONTINUOUS
 10
9.1808033297
 20
-2.70079
 11
9.1301990421
 21
-2.70079
  0
LINE
  5
4A5
100
AcDbEntity
  8
0
100
AcDbLine
 62
250
  6
CONTINUOUS
 10
7.9253302661
 20
-2.4
 11
7.9148123411
 21
-2.4
  0
LINE
  5
4A6
100
AcDbEntity
  8
0
100
AcDbLine
 62
250
  6
CONTINUOUS
 10
-11.6433487773
 20
-2.4
 11
-11.6617551455
 21
-2.4
  0
LINE
  5
4A7
100
AcDbEntity
  8
0
100
AcDbLine
 62
250
  6
CONTINUOUS
 10
-11.6722730683
 20
-2.4
 11
-11.6854204728
 21
-2.4
  0
LINE
  5
4A8
100
AcDbEntity
  8
0
100
AcDbLine
 62
250
  6
CONTINUOUS
 10
7.8065011709
 20
-2.2890208311
 11
7.7933537664
 21
-2.2890208311
  0
LINE
  5
4A9
100
AcDbEntity
  8
RACCORDO
100
AcDbLine
 62
7
  6
CONTINUOUS
 10
-11.5976659647
 20
1.0053341455
 11
-11.9389462101
 21
1.0845120243
  0
LINE
  5
4AA
100
AcDbEntity
  8
0
100
AcDbLine
 62
7
  6
CONTINUOUS
 10
-11.5976659647
 20
1.0053341455
 11
-11.9389462101
 21
1.0845120243
  0
LINE
  5
4AB
100
AcDbEntity
  8
DRAFT
100
AcDbLine
 62
7
  6
CONTINUOUS
 10
0.075
 20
-4.3
 11
0.2397695074
 21
-4.4647695074
  0
LINE
  5
4AC
100
AcDbEntity
  8
0
100
AcDbLine
 62
7
  6
CONTINUOUS
 10
0.075
 20
-4.3
 11
0.2397695074
 21
-4.4647695074
  0
LINE
  5
4AD
100
AcDbEntity
  8
RACCORDO
100
AcDbLine
 62
7
  6
CONTINUOUS
 10
-0.5060660785
 20
-5.7226659647
 11
-0.3377618536
 21
-6.0593000519
  0
LINE
  5
4AE
100
AcDbEntity
  8
0
100
AcDbLine
 62
7
  6
CONTINUOUS
 10
-0.5060660785
 20
-5.7226659647
 11
-0.3377618536
 21
-6.0593000519
  0
LINE
  5
4AF
100
AcDbEntity
  8
SMUSSO
100
AcDbLine
 62
7
  6
CONTINUOUS
 10
0.0627823851
 20
-4.7053632162
 11
0.2397695074
 21
-5.059364421
  0
LINE
  5
4B0
100
AcDbEntity
  8
0
100
AcDbLine
 62
7
  6
CONTINUOUS
 10
0.0627823851
 20
-4.7053632162
 11
0.2397695074
 21
-5.059364421
  0
LINE
  5
4B1
100
AcDbEntity
  8
DRAFT
100
AcDbLine
 62
7
  6
CONTINUOUS
 10
-10.725
 20
20.85
 11
-10.6526987537
 21
20.6754493507
  0
LINE
  5
4B2
100
AcDbEntity
  8
0
100
AcDbLine
 62
7
  6
CONTINUOUS
 10
-10.725
 20
20.85
 11
-10.6526987537
 21
20.6754493507
  0
LINE
  5
4B3
100
AcDbEntity
  8
SMUSSO
100
AcDbLine
 62
7
  6
CONTINUOUS
 10
0.0627823851
 20
-4.7053632162
 11
0.0627823851
 21
-4.3
  0
LINE
  5
4B4
100
AcDbEntity
  8
0
100
AcDbLine
 62
7
  6
CONTINUOUS
 10
0.0627823851
 20
-4.7053632162
 11
0.0627823851
 21
-4.3
  0
LINE
  5
4B5
100
AcDbEntity
  8
SMUSSO
100
AcDbLine
 62
250
  6
CONTINUOUS
 10
0.2397695074
 20
-4.4647695074
 11
0.2397695074
 21
-5.059364421
  0
LINE
  5
4B6
100
AcDbEntity
  8
0
100
AcDbLine
 62
250
  6
CONTINUOUS
 10
0.2397695074
 20
-4.4647695074
 11
0.2397695074
 21
-5.059364421
  0
LWPOLYLINE
  5
4B7
100
AcDbEntity
  8
ASSI
100
AcDbPolyline
 62
7
  6
CONTINUOUS
 90
17
 70
0
 10
2.4309327327
 20
23.7507734247
 10
2.4305058115
 20
23.7479814955
 10
2.4294077005
 20
23.7445314173
 10
2.4276214372
 20
23.7404231902
 10
2.425130014
 20
23.7356694746
 10
2.4219191573
 20
23.73025761
 10
2.4179800271
 20
23.7241496156
 10
2.4133040725
 20
23.7173410493
 10
2.407881764
 20
23.7098363532
 10
2.4017078213
 20
23.7016108734
 10
2.3947926931
 20
23.6926849926
 10
2.3871207612
 20
23.6830383283
 10
2.3786380254
 20
23.672585078
 10
2.3693239331
 20
23.6613209741
 10
2.359175878
 20
23.6492502843
 10
2.3481507556
 20
23.6363000104
 10
2.3362377117
 20
23.6224696064
  0
LINE
  5
4B8
100
AcDbEntity
  8
0
100
AcDbLine
 62
7
  6
CONTINUOUS
 10
6.9748860669
 20
20.9
 11
6.9374373907
 21
20.7875626093
  0
LINE
  5
4B9
100
AcDbEntity
  8
DRAFT
100
AcDbLine
 62
7
  6
CONTINUOUS
 10
6.875
 20
20.85
 11
6.8026987537
 21
20.6754493507
  0
LINE
  5
4BA
100
AcDbEntity
  8
0
100
AcDbLine
 62
7
  6
CONTINUOUS
 10
6.875
 20
20.85
 11
6.8026987537
 21
20.6754493507
  0
LINE
  5
4BB
100
AcDbEntity
  8
SMUSSO
100
AcDbLine
 62
7
  6
CONTINUOUS
 10
-4.0897695074
 20
-5.059364421
 11
-3.9127823851
 21
-4.7053632162
  0
LINE
  5
4BC
100
AcDbEntity
  8
0
100
AcDbLine
 62
7
  6
CONTINUOUS
 10
-4.0897695074
 20
-5.059364421
 11
-3.9127823851
 21
-4.7053632162
  0
LINE
  5
4BD
100
AcDbEntity
  8
RACCORDO
100
AcDbLine
 62
7
  6
CONTINUOUS
 10
-3.5122381464
 20
-6.0593000519
 11
-3.3439339215
 21
-5.7226659647
  0
LINE
  5
4BE
100
AcDbEntity
  8
0
100
AcDbLine
 62
7
  6
CONTINUOUS
 10
-3.5122381464
 20
-6.0593000519
 11
-3.3439339215
 21
-5.7226659647
  0
LINE
  5
4BF
100
AcDbEntity
  8
RACCORDO
100
AcDbLine
 62
7
  6
CONTINUOUS
 10
7.7476659647
 20
1.0053341455
 11
8.0889462101
 21
1.0845120243
  0
LINE
  5
4C0
100
AcDbEntity
  8
0
100
AcDbLine
 62
7
  6
CONTINUOUS
 10
7.7476659647
 20
1.0053341455
 11
8.0889462101
 21
1.0845120243
  0
LINE
  5
4C1
100
AcDbEntity
  8
0
100
AcDbLine
 62
250
  6
CONTINUOUS
 10
7.9279597457
 20
-0.5
 11
7.9174418229
 21
-0.5
  0
LINE
  5
4C2
100
AcDbEntity
  8
0
100
AcDbLine
 62
250
  6
CONTINUOUS
 10
7.9016649388
 20
-0.5
 11
7.880629091
 21
-0.5
  0
LINE
  5
4C3
100
AcDbEntity
  8
0
100
AcDbLine
 62
250
  6
CONTINUOUS
 10
-11.7621329887
 20
-0.5
 11
-11.7831688364
 21
-0.5
  0
LINE
  5
4C4
100
AcDbEntity
  8
0
100
AcDbLine
 62
250
  6
CONTINUOUS
 10
-11.6486077409
 20
-0.5
 11
-11.6564961841
 21
-0.5
  0
LWPOLYLINE
  5
4C5
100
AcDbEntity
  8
0
100
AcDbPolyline
 62
250
  6
CONTINUOUS
 90
15
 70
0
 10
9.16524479
 20
-4.1187598859
 10
9.1650160225
 20
-4.1186645203
 10
9.1647867564
 20
-4.118365796
 10
9.164557234
 20
-4.1178447717
 10
9.1643276976
 20
-4.1170825061
 10
9.1640983895
 20
-4.1160600579
 10
9.1638695522
 20
-4.1147584859
 10
9.1636414278
 20
-4.1131588488
 10
9.1634142587
 20
-4.1112422052
 10
9.1631882872
 20
-4.1089896139
 10
9.1629637556
 20
-4.1063821336
 10
9.1627409062
 20
-4.103400823
 10
9.1625199814
 20
-4.1000267408
 10
9.1623012235
 20
-4.0962409458
 10
9.1620987755
 20
-4.0923141379
  0
LINE
  5
4C6
100
AcDbEntity
  8
DRAFT
100
AcDbLine
 62
7
  6
CONTINUOUS
 10
6.875
 20
-20.85
 11
6.8026987537
 21
-20.6754493507
  0
LINE
  5
4C7
100
AcDbEntity
  8
0
100
AcDbLine
 62
7
  6
CONTINUOUS
 10
6.875
 20
-20.85
 11
6.8026987537
 21
-20.6754493507
  0
LINE
  5
4C8
100
AcDbEntity
  8
0
100
AcDbLine
 62
7
  6
CONTINUOUS
 10
6.9374373907
 20
-20.7875626093
 11
6.9748860669
 21
-20.9
  0
LINE
  5
4C9
100
AcDbEntity
  8
RACCORDO
100
AcDbLine
 62
250
  6
CONTINUOUS
 10
0.475
 20
20.0531777909
 11
0.475
 21
19.8843869511
  0
LINE
  5
4CA
100
AcDbEntity
  8
0
100
AcDbLine
 62
250
  6
CONTINUOUS
 10
0.475
 20
20.0532338935
 11
0.475
 21
19.8843869511
  0
LINE
  5
4CB
100
AcDbEntity
  8
RACCORDO
100
AcDbLine
 62
250
  6
CONTINUOUS
 10
0.475
 20
-19.8843869511
 11
0.475
 21
-20.0531777909
  0
LINE
  5
4CC
100
AcDbEntity
  8
0
100
AcDbLine
 62
250
  6
CONTINUOUS
 10
0.475
 20
-19.8843869511
 11
0.475
 21
-20.0532338935
  0
LINE
  5
4CD
100
AcDbEntity
  8
RACCORDO
100
AcDbLine
 62
7
  6
CONTINUOUS
 10
1.075
 20
-21.0
 11
1.075
 21
-22.3380392387
  0
LINE
  5
4CE
100
AcDbEntity
  8
RACCORDO
100
AcDbLine
 62
7
  6
CONTINUOUS
 10
1.075
 20
21.0
 11
1.075
 21
22.3380392387
  0
LINE
  5
4CF
100
AcDbEntity
  8
RACCORDO
100
AcDbLine
 62
7
  6
CONTINUOUS
 10
1.475
 20
20.048308349
 11
1.475
 21
19.9
  0
LINE
  5
4D0
100
AcDbEntity
  8
0
100
AcDbLine
 62
7
  6
CONTINUOUS
 10
1.475
 20
20.048308349
 11
1.475
 21
19.8979303954
  0
LINE
  5
4D1
100
AcDbEntity
  8
RACCORDO
100
AcDbLine
 62
7
  6
CONTINUOUS
 10
1.475
 20
-19.9
 11
1.475
 21
-20.048308349
  0
LINE
  5
4D2
100
AcDbEntity
  8
0
100
AcDbLine
 62
7
  6
CONTINUOUS
 10
1.475
 20
-19.8979303954
 11
1.475
 21
-20.048308349
  0
LINE
  5
4D3
100
AcDbEntity
  8
DRAFT
100
AcDbLine
 62
7
  6
CONTINUOUS
 10
1.575
 20
20.0445070257
 11
1.575
 21
20.0
  0
LINE
  5
4D4
100
AcDbEntity
  8
DRAFT
100
AcDbLine
 62
7
  6
CONTINUOUS
 10
1.575
 20
-20.0445070257
 11
1.575
 21
-20.0
  0
LINE
  5
4D5
100
AcDbEntity
  8
ASSI
100
AcDbLine
 62
7
  6
CONTINUOUS
 10
1.575
 20
-22.3339198952
 11
1.575
 21
-23.7941821702
  0
LINE
  5
4D6
100
AcDbEntity
  8
ASSI
100
AcDbLine
 62
7
  6
CONTINUOUS
 10
1.575
 20
22.3339198952
 11
1.575
 21
23.7941821702
  0
LINE
  5
4D7
100
AcDbEntity
  8
0
100
AcDbLine
 62
7
  6
CONTINUOUS
 10
7.725
 20
20.1489710538
 11
7.6877799377
 21
20.0372200623
  0
LWPOLYLINE
  5
4D8
100
AcDbEntity
  8
SMUSSO
100
AcDbPolyline
 62
7
  6
CONTINUOUS
 90
13
 70
0
 10
-3.5122381464
 20
-6.0593000519
 10
-3.5131416779
 20
-6.06038921
 10
-3.5156486858
 20
-6.061475982
 10
-3.5197591702
 20
-6.0625603678
 10
-3.5254789426
 20
-6.0636430576
 10
-3.5328021914
 20
-6.0647233612
 10
-3.5417114826
 20
-6.0657992088
 10
-3.5522077373
 20
-6.066870602
 10
-3.5642900343
 20
-6.0679375391
 10
-3.5779381757
 20
-6.0689979453
 10
-3.5931586546
 20
-6.0700518401
 10
-3.6099449779
 20
-6.071099204
 10
-3.6282574688
 20
-6.0721379038
  0
LWPOLYLINE
  5
4D9
100
AcDbEntity
  8
0
100
AcDbPolyline
 62
7
  6
CONTINUOUS
 90
13
 70
0
 10
-3.5122381464
 20
-6.0593000519
 10
-3.5131416779
 20
-6.06038921
 10
-3.5156486858
 20
-6.061475982
 10
-3.5197591702
 20
-6.0625603678
 10
-3.5254789426
 20
-6.0636430576
 10
-3.5328021914
 20
-6.0647233612
 10
-3.5417114826
 20
-6.0657992088
 10
-3.5522077373
 20
-6.066870602
 10
-3.5642900343
 20
-6.0679375391
 10
-3.5779381757
 20
-6.0689979453
 10
-3.5931586546
 20
-6.0700518401
 10
-3.6099449779
 20
-6.071099204
 10
-3.6282574688
 20
-6.0721379038
  0
LINE
  5
4DA
100
AcDbEntity
  8
DRAFT
100
AcDbLine
 62
7
  6
CONTINUOUS
 10
-3.925
 20
-4.3
 11
-4.0897695074
 21
-4.4647695074
  0
LINE
  5
4DB
100
AcDbEntity
  8
0
100
AcDbLine
 62
7
  6
CONTINUOUS
 10
-3.925
 20
-4.3
 11
-4.0897695074
 21
-4.4647695074
  0
LWPOLYLINE
  5
4DC
100
AcDbEntity
  8
SMUSSO
100
AcDbPolyline
 62
7
  6
CONTINUOUS
 90
13
 70
0
 10
-4.0897695074
 20
-5.059364421
 10
-4.0908622946
 20
-5.0602261929
 10
-4.093278206
 20
-5.061085826
 10
-4.0970141245
 20
-5.0619433203
 10
-4.1020658375
 20
-5.0627992675
 10
-4.1084284179
 20
-5.0636530758
 10
-4.1160965696
 20
-5.0645029701
 10
-4.1250637533
 20
-5.0653489446
 10
-4.13532245
 20
-5.066191005
 10
-4.1468650754
 20
-5.0670273936
 10
-4.1596831557
 20
-5.0678581339
 10
-4.1737662369
 20
-5.0686832024
 10
-4.1891024267
 20
-5.069500771
  0
LWPOLYLINE
  5
4DD
100
AcDbEntity
  8
0
100
AcDbPolyline
 62
7
  6
CONTINUOUS
 90
13
 70
0
 10
-4.0897695074
 20
-5.059364421
 10
-4.0908622946
 20
-5.0602261929
 10
-4.093278206
 20
-5.061085826
 10
-4.0970141245
 20
-5.0619433203
 10
-4.1020658375
 20
-5.0627992675
 10
-4.1084284179
 20
-5.0636530758
 10
-4.1160965696
 20
-5.0645029701
 10
-4.1250637533
 20
-5.0653489446
 10
-4.13532245
 20
-5.066191005
 10
-4.1468650754
 20
-5.0670273936
 10
-4.1596831557
 20
-5.0678581339
 10
-4.1737662369
 20
-5.0686832024
 10
-4.1891024267
 20
-5.069500771
  0
LINE
  5
4DE
100
AcDbEntity
  8
0
100
AcDbLine
 62
250
  6
CONTINUOUS
 10
-12.9353594806
 20
1.5
 11
-12.958051065
 21
1.5
  0
LINE
  5
4DF
100
AcDbEntity
  8
0
100
AcDbLine
 62
250
  6
CONTINUOUS
 10
-10.4696758185
 20
4.7218131513
 11
-11.9389462101
 21
5.1154879757
  0
LINE
  5
4E0
100
AcDbEntity
  8
RACCORDO
100
AcDbLine
 62
7
  6
CONTINUOUS
 10
-10.5978182695
 20
4.9353218335
 11
-10.325
 21
4.8622176149
  0
LINE
  5
4E1
100
AcDbEntity
  8
0
100
AcDbLine
 62
7
  6
CONTINUOUS
 10
-10.5978182695
 20
4.9353218335
 11
-10.325
 21
4.8622176149
  0
LINE
  5
4E2
100
AcDbEntity
  8
RACCORDO
100
AcDbLine
 62
250
  6
CONTINUOUS
 10
7.1251523048
 20
-6.1
 11
6.7478182695
 21
-5.7226659647
  0
LINE
  5
4E3
100
AcDbEntity
  8
0
100
AcDbLine
 62
250
  6
CONTINUOUS
 10
7.1251523048
 20
-6.1
 11
6.7478182695
 21
-5.7226659647
  0
LINE
  5
4E4
100
AcDbEntity
  8
SMUSSO
100
AcDbLine
 62
250
  6
CONTINUOUS
 10
3.9102304926
 20
-5.059364421
 11
4.4877618536
 21
-6.0593000519
  0
LINE
  5
4E5
100
AcDbEntity
  8
0
100
AcDbLine
 62
250
  6
CONTINUOUS
 10
3.9102304926
 20
-5.059364421
 11
4.4877618536
 21
-6.0593000519
  0
LINE
  5
4E6
100
AcDbEntity
  8
RACCORDO
100
AcDbLine
 62
7
  6
CONTINUOUS
 10
4.0972950297
 20
-4.7228182695
 11
4.0872176149
 21
-4.7053632162
  0
LINE
  5
4E7
100
AcDbEntity
  8
0
100
AcDbLine
 62
7
  6
CONTINUOUS
 10
4.0972950297
 20
-4.7228182695
 11
4.0872176149
 21
-4.7053632162
  0
LINE
  5
4E8
100
AcDbEntity
  8
0
100
AcDbLine
 62
7
  6
CONTINUOUS
 10
7.6877799377
 20
-20.0372200623
 11
7.725
 21
-20.1489710538
  0
LINE
  5
4E9
100
AcDbEntity
  8
ASSI
100
AcDbLine
 62
250
  6
CONTINUOUS
 10
2.4309327327
 20
-23.7507734247
 11
2.4309327327
 21
-22.3338981669
  0
LINE
  5
4EA
100
AcDbEntity
  8
ASSI
100
AcDbLine
 62
250
  6
CONTINUOUS
 10
2.4309327327
 20
22.3338981669
 11
2.4309327327
 21
23.7507734247
  0
LINE
  5
4EB
100
AcDbEntity
  8
DRAFT
100
AcDbLine
 62
7
  6
CONTINUOUS
 10
2.475
 20
-23.8
 11
2.475
 21
-22.4
  0
LINE
  5
4EC
100
AcDbEntity
  8
DRAFT
100
AcDbLine
 62
7
  6
CONTINUOUS
 10
2.475
 20
22.4
 11
2.475
 21
23.8
  0
LINE
  5
4ED
100
AcDbEntity
  8
DRAFT
100
AcDbLine
 62
7
  6
CONTINUOUS
 10
3.7359791689
 20
19.8109791689
 11
3.7359791689
 21
19.6109791689
  0
LINE
  5
4EE
100
AcDbEntity
  8
0
100
AcDbLine
 62
7
  6
CONTINUOUS
 10
3.7359791689
 20
19.8109791689
 11
3.7359791689
 21
19.6109791689
  0
LINE
  5
4EF
100
AcDbEntity
  8
DRAFT
100
AcDbLine
 62
7
  6
CONTINUOUS
 10
3.7359791689
 20
-19.8109791689
 11
3.7359791689
 21
-19.6109791689
  0
LINE
  5
4F0
100
AcDbEntity
  8
0
100
AcDbLine
 62
7
  6
CONTINUOUS
 10
3.7359791689
 20
-19.8109791689
 11
3.7359791689
 21
-19.6109791689
  0
LINE
  5
4F1
100
AcDbEntity
  8
DRAFT
100
AcDbLine
 62
7
  6
CONTINUOUS
 10
3.825
 20
-19.7
 11
3.825
 21
-19.9
  0
LINE
  5
4F2
100
AcDbEntity
  8
0
100
AcDbLine
 62
7
  6
CONTINUOUS
 10
3.825
 20
-19.7
 11
3.825
 21
-19.9
  0
LINE
  5
4F3
100
AcDbEntity
  8
DRAFT
100
AcDbLine
 62
7
  6
CONTINUOUS
 10
3.825
 20
19.7
 11
3.825
 21
19.9
  0
LINE
  5
4F4
100
AcDbEntity
  8
0
100
AcDbLine
 62
7
  6
CONTINUOUS
 10
3.825
 20
19.7
 11
3.825
 21
19.9
  0
LINE
  5
4F5
100
AcDbEntity
  8
SMUSSO
100
AcDbLine
 62
250
  6
CONTINUOUS
 10
3.9102304926
 20
-4.4647695074
 11
3.9102304926
 21
-5.059364421
  0
LINE
  5
4F6
100
AcDbEntity
  8
0
100
AcDbLine
 62
250
  6
CONTINUOUS
 10
3.9102304926
 20
-4.4647695074
 11
3.9102304926
 21
-5.059364421
  0
LINE
  5
4F7
100
AcDbEntity
  8
RACCORDO
100
AcDbLine
 62
7
  6
CONTINUOUS
 10
0.0527049703
 20
-4.7228182695
 11
0.0627823851
 21
-4.7053632162
  0
LINE
  5
4F8
100
AcDbEntity
  8
0
100
AcDbLine
 62
7
  6
CONTINUOUS
 10
0.0527049703
 20
-4.7228182695
 11
0.0627823851
 21
-4.7053632162
  0
LINE
  5
4F9
100
AcDbEntity
  8
SMUSSO
100
AcDbLine
 62
250
  6
CONTINUOUS
 10
-0.3377618536
 20
-6.0593000519
 11
0.2397695074
 21
-5.059364421
  0
LINE
  5
4FA
100
AcDbEntity
  8
0
100
AcDbLine
 62
250
  6
CONTINUOUS
 10
-0.3377618536
 20
-6.0593000519
 11
0.2397695074
 21
-5.059364421
  0
LWPOLYLINE
  5
4FB
100
AcDbEntity
  8
RACCORDO
100
AcDbPolyline
 62
7
  6
CONTINUOUS
 90
5
 70
0
 10
-9.8158834737
 20
-21.7591165263
 10
-9.7923646176
 20
-21.7230689603
 10
-9.768380061
 20
-21.6866457638
 10
-9.743929804
 20
-21.6499179842
 10
-9.7189545568
 20
-21.6129888844
  0
LINE
  5
4FC
100
AcDbEntity
  8
0
100
AcDbLine
 62
7
  6
CONTINUOUS
 10
6.475
 20
1.3722782751
 11
6.6196758185
 21
1.4781868487
  0
LINE
  5
4FD
100
AcDbEntity
  8
0
100
AcDbLine
 62
250
  6
CONTINUOUS
 10
8.0889462101
 20
5.1154879757
 11
6.6196758185
 21
4.7218131513
  0
LINE
  5
4FE
100
AcDbEntity
  8
RACCORDO
100
AcDbLine
 62
7
  6
CONTINUOUS
 10
6.7478182695
 20
4.9353218335
 11
6.475
 21
4.8622176149
  0
LINE
  5
4FF
100
AcDbEntity
  8
0
100
AcDbLine
 62
7
  6
CONTINUOUS
 10
6.7478182695
 20
4.9353218335
 11
6.475
 21
4.8622176149
  0
LINE
  5
500
100
AcDbEntity
  8
RACCORDO
100
AcDbLine
 62
7
  6
CONTINUOUS
 10
-10.5978182695
 20
1.2646781665
 11
-10.325
 21
1.3377823851
  0
LINE
  5
501
100
AcDbEntity
  8
0
100
AcDbLine
 62
7
  6
CONTINUOUS
 10
-10.5978182695
 20
1.2646781665
 11
-10.325
 21
1.3377823851
  0
LINE
  5
502
100
AcDbEntity
  8
0
100
AcDbLine
 62
250
  6
CONTINUOUS
 10
-12.958051065
 20
2.3245714654
 11
-12.9353594806
 21
2.3245714654
  0
LINE
  5
503
100
AcDbEntity
  8
0
100
AcDbLine
 62
250
  6
CONTINUOUS
 10
-12.9353594806
 20
3.9737143103
 11
-12.958051065
 21
3.9737143103
  0
LINE
  5
504
100
AcDbEntity
  8
RACCORDO
100
AcDbLine
 62
7
  6
CONTINUOUS
 10
6.7478182695
 20
1.2646781665
 11
6.475
 21
1.3377823851
  0
LINE
  5
505
100
AcDbEntity
  8
0
100
AcDbLine
 62
7
  6
CONTINUOUS
 10
6.7478182695
 20
1.2646781665
 11
6.475
 21
1.3377823851
  0
LINE
  5
506
100
AcDbEntity
  8
0
100
AcDbLine
 62
250
  6
CONTINUOUS
 10
8.0889462101
 20
1.0845120243
 11
6.6196758185
 21
1.4781868487
  0
LINE
  5
507
100
AcDbEntity
  8
RACCORDO
100
AcDbLine
 62
250
  6
CONTINUOUS
 10
8.125
 20
-5.1001523048
 11
7.7476659647
 21
-4.7228182695
  0
LINE
  5
508
100
AcDbEntity
  8
0
100
AcDbLine
 62
250
  6
CONTINUOUS
 10
8.125
 20
-5.1001523048
 11
7.7476659647
 21
-4.7228182695
  0
LINE
  5
509
100
AcDbEntity
  8
SMUSSO
100
AcDbLine
 62
7
  6
CONTINUOUS
 10
4.0872176149
 20
-4.7053632162
 11
4.0872176149
 21
-4.3
  0
LINE
  5
50A
100
AcDbEntity
  8
0
100
AcDbLine
 62
7
  6
CONTINUOUS
 10
4.0872176149
 20
-4.7053632162
 11
4.0872176149
 21
-4.3
  0
LINE
  5
50B
100
AcDbEntity
  8
RACCORDO
100
AcDbLine
 62
7
  6
CONTINUOUS
 10
4.6331782981
 20
20.5829242832
 11
4.6331782981
 21
19.9570181168
  0
LINE
  5
50C
100
AcDbEntity
  8
RACCORDO
100
AcDbLine
 62
7
  6
CONTINUOUS
 10
4.6331782981
 20
-19.9570181168
 11
4.6331782981
 21
-20.5829242832
  0
LINE
  5
50D
100
AcDbEntity
  8
RACCORDO
100
AcDbLine
 62
7
  6
CONTINUOUS
 10
5.3168217019
 20
20.9959955457
 11
5.3168217019
 21
19.9570181168
  0
LINE
  5
50E
100
AcDbEntity
  8
RACCORDO
100
AcDbLine
 62
7
  6
CONTINUOUS
 10
5.3168217019
 20
-19.9570181168
 11
5.3168217019
 21
-20.9959955457
  0
LINE
  5
50F
100
AcDbEntity
  8
RACCORDO
100
AcDbLine
 62
7
  6
CONTINUOUS
 10
5.4267786853
 20
19.959088481
 11
5.4267786853
 21
19.7
  0
LINE
  5
510
100
AcDbEntity
  8
RACCORDO
100
AcDbLine
 62
7
  6
CONTINUOUS
 10
5.4267786853
 20
-19.7
 11
5.4267786853
 21
-19.959088481
  0
LINE
  5
511
100
AcDbEntity
  8
DRAFT
100
AcDbLine
 62
7
  6
CONTINUOUS
 10
5.475
 20
-20.7644701819
 11
5.475
 21
-19.7
  0
LINE
  5
512
100
AcDbEntity
  8
0
100
AcDbLine
 62
7
  6
CONTINUOUS
 10
5.475
 20
-20.7644701819
 11
5.475
 21
-19.7
  0
LINE
  5
513
100
AcDbEntity
  8
DRAFT
100
AcDbLine
 62
7
  6
CONTINUOUS
 10
5.475
 20
19.7
 11
5.475
 21
20.7644701819
  0
LINE
  5
514
100
AcDbEntity
  8
0
100
AcDbLine
 62
7
  6
CONTINUOUS
 10
5.475
 20
19.7
 11
5.475
 21
20.7644701819
  0
LINE
  5
515
100
AcDbEntity
  8
DRAFT
100
AcDbLine
 62
7
  6
CONTINUOUS
 10
5.5640208311
 20
20.6754493507
 11
5.5640208311
 21
19.6109791689
  0
LINE
  5
516
100
AcDbEntity
  8
0
100
AcDbLine
 62
7
  6
CONTINUOUS
 10
5.5640208311
 20
20.6754493507
 11
5.5640208311
 21
19.6109791689
  0
LINE
  5
517
100
AcDbEntity
  8
DRAFT
100
AcDbLine
 62
7
  6
CONTINUOUS
 10
5.5640208311
 20
-19.6109791689
 11
5.5640208311
 21
-20.6754493507
  0
LINE
  5
518
100
AcDbEntity
  8
0
100
AcDbLine
 62
7
  6
CONTINUOUS
 10
5.5640208311
 20
-19.6109791689
 11
5.5640208311
 21
-20.6754493507
  0
LINE
  5
519
100
AcDbEntity
  8
RACCORDO
100
AcDbLine
 62
250
  6
CONTINUOUS
 10
5.6591007192
 20
-21.3126932437
 11
5.6591007192
 21
-20.9959955457
  0
LINE
  5
51A
100
AcDbEntity
  8
RACCORDO
100
AcDbLine
 62
250
  6
CONTINUOUS
 10
5.6591007192
 20
20.9959955457
 11
5.6591007192
 21
21.3126932437
  0
LWPOLYLINE
  5
51B
100
AcDbEntity
  8
RACCORDO
100
AcDbPolyline
 62
7
  6
CONTINUOUS
 90
34
 70
0
 10
6.325
 20
24.2500042308
 10
6.3252831502
 20
24.261899516
 10
6.3261319658
 20
24.2737678556
 10
6.3275445259
 20
24.2855823661
 10
6.3295176323
 20
24.2973162875
 10
6.3320468183
 20
24.3089430388
 10
6.3351263583
 20
24.320436279
 10
6.3387492787
 20
24.3317699738
 10
6.3429073742
 20
24.3429184493
 10
6.3475912278
 20
24.3538564463
 10
6.3527902312
 20
24.3645591876
 10
6.3584926084
 20
24.3750024283
 10
6.3646854419
 20
24.3851625059
 10
6.3713547045
 20
24.3950164051
 10
6.3784852893
 20
24.4045418038
 10
6.3860610411
 20
24.4137171191
 10
6.3940647995
 20
24.4225215661
 10
6.4024784339
 20
24.4309352005
 10
6.4112828809
 20
24.4389389589
 10
6.4204581962
 20
24.4465147107
 10
6.4299835949
 20
24.4536452955
 10
6.4398374941
 20
24.4603145581
 10
6.4499975717
 20
24.4665073916
 10
6.4604408124
 20
24.4722097688
 10
6.4711435537
 20
24.4774087722
 10
6.4820815507
 20
24.4820926258
 10
6.4932300262
 20
24.4862507213
 10
6.504563721
 20
24.4898736417
 10
6.5160569612
 20
24.4929531817
 10
6.5276837125
 20
24.4954823677
 10
6.5394176339
 20
24.4974554741
 10
6.5512321444
 20
24.4988680342
 10
6.563100484
 20
24.4997168498
 10
6.5749957692
 20
24.5
  0
LWPOLYLINE
  5
51C
100
AcDbEntity
  8
RACCORDO
100
AcDbPolyline
 62
250
  6
CONTINUOUS
 90
31
 70
0
 10
6.329371834
 20
24.2456323968
 10
6.329715023
 20
24.2587187509
 10
6.330742766
 20
24.2717692492
 10
6.3324522491
 20
24.2847481067
 10
6.3348387919
 20
24.2976197463
 10
6.337895853
 20
24.3103488602
 10
6.3416150425
 20
24.3229005077
 10
6.3459861576
 20
24.3352402638
 10
6.3509972131
 20
24.347334301
 10
6.3566344613
 20
24.3591494467
 10
6.3628824405
 20
24.3706533025
 10
6.3697240163
 20
24.3818143284
 10
6.3771404232
 20
24.3926019187
 10
6.3851113313
 20
24.402986508
 10
6.3936148729
 20
24.4129396114
 10
6.402627692
 20
24.4224339046
 10
6.4121250264
 20
24.4314433264
 10
6.4220808636
 20
24.4399432233
 10
6.4324679894
 20
24.4479103656
 10
6.4432580686
 20
24.4553229956
 10
6.454421387
 20
24.4621606774
 10
6.4659269875
 20
24.4684044791
 10
6.4777430657
 20
24.4740372277
 10
6.4898374218
 20
24.4790436576
 10
6.5021772258
 20
24.4834102087
 10
6.5147314103
 20
24.4871256484
 10
6.5274628755
 20
24.4901787618
 10
6.5403285943
 20
24.492559892
 10
6.5532903689
 20
24.4942634962
 10
6.5663152632
 20
24.4952867588
 10
6.5793676032
 20
24.495628166
  0
LWPOLYLINE
  5
51D
100
AcDbEntity
  8
ASSI
100
AcDbPolyline
 62
7
  6
CONTINUOUS
 90
17
 70
0
 10
1.575
 20
-23.7511422903
 10
1.5753315447
 20
-23.7484305787
 10
1.5763396308
 20
-23.7450489996
 10
1.5780437493
 20
-23.7409975528
 10
1.5804640862
 20
-23.7362893315
 10
1.5836171662
 20
-23.7309112426
 10
1.5875114232
 20
-23.7248240072
 10
1.5921570622
 20
-23.7180197616
 10
1.597564002
 20
-23.7105063695
 10
1.6037312086
 20
-23.7022681433
 10
1.6106456837
 20
-23.6933242583
 10
1.6183221868
 20
-23.6836555391
 10
1.6268072318
 20
-23.6731887725
 10
1.6361130937
 20
-23.6619264116
 10
1.6462441775
 20
-23.6498660033
 10
1.657252199
 20
-23.6369269746
 10
1.6691505693
 20
-23.623107111
  0
LWPOLYLINE
  5
51E
100
AcDbEntity
  8
0
100
AcDbPolyline
 62
250
  6
CONTINUOUS
 90
10
 70
0
 10
7.8245632104
 20
13.3420303195
 10
7.8245310846
 20
13.3418372101
 10
7.824498967
 20
13.341574913
 10
7.8244668811
 20
13.3412449209
 10
7.8244348506
 20
13.3408487266
 10
7.8244028992
 20
13.3403878228
 10
7.8243710505
 20
13.3398637021
 10
7.8243393282
 20
13.3392778575
 10
7.8243077559
 20
13.3386317815
 10
7.8242451561
 20
13.3371649065
  0
LWPOLYLINE
  5
51F
100
AcDbEntity
  8
0
100
AcDbPolyline
 62
250
  6
CONTINUOUS
 90
7
 70
0
 10
7.8267764628
 20
11.859431
 10
7.8260518504
 20
11.8553599931
 10
7.8253548382
 20
11.8433020356
 10
7.8247119753
 20
11.8237164115
 10
7.8241385239
 20
11.7968224384
 10
7.8236763847
 20
11.7645851945
 10
7.8231194544
 20
11.6879230354
  0
LWPOLYLINE
  5
520
100
AcDbEntity
  8
0
100
AcDbPolyline
 62
250
  6
CONTINUOUS
 90
7
 70
0
 10
7.8267765675
 20
11.784496
 10
7.826305974
 20
11.7818521185
 10
7.8258533053
 20
11.7740211786
 10
7.8254358033
 20
11.7613014583
 10
7.8250633801
 20
11.7438353918
 10
7.8247632476
 20
11.7228991825
 10
7.8244015539
 20
11.6731115826
  0
LWPOLYLINE
  5
521
100
AcDbEntity
  8
0
100
AcDbPolyline
 62
250
  6
CONTINUOUS
 90
7
 70
0
 10
7.8267765675
 20
11.506848
 10
7.827247161
 20
11.5094918815
 10
7.8276998297
 20
11.5173228214
 10
7.8281173317
 20
11.5300425417
 10
7.8284897549
 20
11.5475086082
 10
7.8287898874
 20
11.5684448175
 10
7.8291515811
 20
11.6182324174
  0
LWPOLYLINE
  5
522
100
AcDbEntity
  8
0
100
AcDbPolyline
 62
250
  6
CONTINUOUS
 90
7
 70
0
 10
7.8267764628
 20
11.431913
 10
7.8275010752
 20
11.4359840069
 10
7.8281980874
 20
11.4480419644
 10
7.8288409503
 20
11.4676275885
 10
7.8294144017
 20
11.4945215616
 10
7.8298765409
 20
11.5267588055
 10
7.8304334712
 20
11.6034209646
  0
LINE
  5
523
100
AcDbEntity
  8
0
100
AcDbLine
 62
250
  6
CONTINUOUS
 10
7.8708664911
 20
13.5702617819
 11
7.838682854
 21
13.411634521
  0
LINE
  5
524
100
AcDbEntity
  8
0
100
AcDbLine
 62
250
  6
CONTINUOUS
 10
7.8814329695
 20
13.6223488001
 11
7.8740331968
 21
13.5858758386
  0
LINE
  5
525
100
AcDbEntity
  8
0
100
AcDbLine
 62
250
  6
CONTINUOUS
 10
7.8360169445
 20
13.3984933674
 11
7.8245632104
 21
13.3420303195
  0
LINE
  5
526
100
AcDbEntity
  8
0
100
AcDbLine
 62
250
  6
CONTINUOUS
 10
7.82591516
 20
13.2054864389
 11
7.8383580471
 21
13.2668132741
  0
LINE
  5
527
100
AcDbEntity
  8
0
100
AcDbLine
 62
250
  6
CONTINUOUS
 10
7.8711383682
 20
13.428378
 11
7.8813298231
 21
13.478611
  0
LINE
  5
528
100
AcDbEntity
  8
0
100
AcDbLine
 62
250
  6
CONTINUOUS
 10
7.8410218674
 20
13.279931
 11
7.8679664806
 21
13.41274
  0
LINE
  5
529
100
AcDbEntity
  8
SMUSSO
100
AcDbLine
 62
7
  6
CONTINUOUS
 10
4.0872176149
 20
-4.7053632162
 11
3.9102304926
 21
-5.059364421
  0
LINE
  5
52A
100
AcDbEntity
  8
0
100
AcDbLine
 62
7
  6
CONTINUOUS
 10
4.0872176149
 20
-4.7053632162
 11
3.9102304926
 21
-5.059364421
  0
LINE
  5
52B
100
AcDbEntity
  8
RACCORDO
100
AcDbLine
 62
7
  6
CONTINUOUS
 10
-8.480294768
 20
-20.0829433217
 11
-8.3761048448
 21
-19.9266562329
  0
LWPOLYLINE
  5
52C
100
AcDbEntity
  8
RACCORDO
100
AcDbPolyline
 62
7
  6
CONTINUOUS
 90
3
 70
0
 10
-9.7189545568
 20
-21.6129888844
 10
-9.6677848301
 20
-21.5385902446
 10
-9.6417764984
 20
-21.5011382645
  0
LINE
  5
52D
100
AcDbEntity
  8
RACCORDO
100
AcDbLine
 62
7
  6
CONTINUOUS
 10
-9.6417764984
 20
-21.5011382645
 11
-9.5625346208
 21
-21.3881838872
  0
LINE
  5
52E
100
AcDbEntity
  8
RACCORDO
100
AcDbLine
 62
7
  6
CONTINUOUS
 10
-9.5625346208
 20
-21.3881838872
 11
-9.5091007192
 21
-21.3126932437
  0
LINE
  5
52F
100
AcDbEntity
  8
0
100
AcDbLine
 62
250
  6
CONTINUOUS
 10
-10.4696758185
 20
1.4781868487
 11
-11.9389462101
 21
1.0845120243
  0
LINE
  5
530
100
AcDbEntity
  8
0
100
AcDbLine
 62
250
  6
CONTINUOUS
 10
9.1714436686
 20
5.386478
 11
9.1591288751
 21
5.386471
  0
LINE
  5
531
100
AcDbEntity
  8
0
100
AcDbLine
 62
250
  6
CONTINUOUS
 10
-12.9548094103
 20
4.6952141383
 11
-12.9386011356
 21
4.6952141383
  0
LINE
  5
532
100
AcDbEntity
  8
0
100
AcDbLine
 62
250
  6
CONTINUOUS
 10
-12.9353594806
 20
5.2792857471
 11
-12.958051065
 21
5.2792857471
  0
LINE
  5
533
100
AcDbEntity
  8
0
100
AcDbLine
 62
250
  6
CONTINUOUS
 10
9.1497667013
 20
5.378409
 11
9.1301993038
 21
5.378474
  0
LINE
  5
534
100
AcDbEntity
  8
RACCORDO
100
AcDbLine
 62
250
  6
CONTINUOUS
 10
-11.975
 20
18.5001523048
 11
-11.5976659647
 21
18.1228182695
  0
LINE
  5
535
100
AcDbEntity
  8
0
100
AcDbLine
 62
250
  6
CONTINUOUS
 10
-11.975
 20
18.5001523048
 11
-11.5976659647
 21
18.1228182695
  0
LINE
  5
536
100
AcDbEntity
  8
RACCORDO
100
AcDbLine
 62
7
  6
CONTINUOUS
 10
-9.5091007192
 20
21.3126932437
 11
-9.5625346208
 21
21.3881838872
  0
LINE
  5
537
100
AcDbEntity
  8
RACCORDO
100
AcDbLine
 62
7
  6
CONTINUOUS
 10
-9.5625346208
 20
21.3881838872
 11
-9.6417764984
 21
21.5011382645
  0
LWPOLYLINE
  5
538
100
AcDbEntity
  8
RACCORDO
100
AcDbPolyline
 62
7
  6
CONTINUOUS
 90
7
 70
0
 10
-9.6417764984
 20
21.5011382645
 10
-9.6935136093
 20
21.5758926167
 10
-9.7189545568
 20
21.6129888844
 10
-9.743929804
 20
21.6499179842
 10
-9.768380061
 20
21.6866457638
 10
-9.7923646176
 20
21.7230689603
 10
-9.8158834737
 20
21.7591165263
  0
LINE
  5
539
100
AcDbEntity
  8
RACCORDO
100
AcDbLine
 62
7
  6
CONTINUOUS
 10
-8.480294768
 20
20.0829433217
 11
-8.3761048448
 21
19.9266562329
  0
LWPOLYLINE
  5
53A
100
AcDbEntity
  8
RACCORDO
100
AcDbPolyline
 62
250
  6
CONTINUOUS
 90
31
 70
0
 10
6.329371834
 20
23.8443375673
 10
6.3297511657
 20
23.8330274168
 10
6.3308121477
 20
23.8217481519
 10
6.3325518825
 20
23.810530574
 10
6.3349656195
 20
23.7994053159
 10
6.3380467671
 20
23.7884027584
 10
6.3417869113
 20
23.7775529472
 10
6.3461758387
 20
23.7668855107
 10
6.351201564
 20
23.7564295797
 10
6.356850363
 20
23.7462137069
 10
6.3631068099
 20
23.7362657898
 10
6.3699538199
 20
23.7266129942
 10
6.377372695
 20
23.7172816797
 10
6.3853431759
 20
23.7082973282
 10
6.3938434969
 20
23.6996844742
 10
6.4028504455
 20
23.6914666374
 10
6.4123394254
 20
23.6836662592
 10
6.4222845243
 20
23.6763046407
 10
6.4326585842
 20
23.6694018849
 10
6.4434332757
 20
23.6629768418
 10
6.4545791754
 20
23.6570470569
 10
6.4660658462
 20
23.6516287232
 10
6.4778619204
 20
23.646736637
 10
6.4899351853
 20
23.6423841576
 10
6.5022526715
 20
23.6385831707
 10
6.5147807423
 20
23.6353440559
 10
6.5274851864
 20
23.6326756587
 10
6.5403313105
 20
23.6305852658
 10
6.5532840345
 20
23.6290785857
 10
6.5663079873
 20
23.6281597328
 10
6.5793676032
 20
23.6278312164
  0
LINE
  5
53B
100
AcDbEntity
  8
RACCORDO
100
AcDbLine
 62
250
  6
CONTINUOUS
 10
6.329371834
 20
-23.8443375673
 11
6.325
 21
-23.4104851482
  0
LINE
  5
53C
100
AcDbEntity
  8
RACCORDO
100
AcDbLine
 62
250
  6
CONTINUOUS
 10
6.5793676032
 20
-23.6278312164
 11
6.5742770021
 21
-23.1226497308
  0
LINE
  5
53D
100
AcDbEntity
  8
RACCORDO
100
AcDbLine
 62
250
  6
CONTINUOUS
 10
6.1590245667
 20
-21.5659754333
 11
6.1590245667
 21
-20.9917082642
  0
LINE
  5
53E
100
AcDbEntity
  8
RACCORDO
100
AcDbLine
 62
250
  6
CONTINUOUS
 10
6.1590245667
 20
20.9917082642
 11
6.1590245667
 21
21.5659754333
  0
LINE
  5
53F
100
AcDbEntity
  8
DRAFT
100
AcDbLine
 62
7
  6
CONTINUOUS
 10
6.325
 20
21.4
 11
6.325
 21
20.9
  0
LINE
  5
540
100
AcDbEntity
  8
DRAFT
100
AcDbLine
 62
7
  6
CONTINUOUS
 10
6.325
 20
-20.9
 11
6.325
 21
-21.4
  0
LINE
  5
541
100
AcDbEntity
  8
RACCORDO
100
AcDbLine
 62
7
  6
CONTINUOUS
 10
6.325
 20
-22.4
 11
6.325
 21
-24.2500042308
  0
LINE
  5
542
100
AcDbEntity
  8
RACCORDO
100
AcDbLine
 62
7
  6
CONTINUOUS
 10
6.325
 20
22.4
 11
6.325
 21
24.2500042308
  0
LINE
  5
543
100
AcDbEntity
  8
RACCORDO
100
AcDbLine
 62
250
  6
CONTINUOUS
 10
6.329371834
 20
24.2456323968
 11
6.329371834
 21
23.8443375673
  0
LINE
  5
544
100
AcDbEntity
  8
RACCORDO
100
AcDbLine
 62
250
  6
CONTINUOUS
 10
6.329371834
 20
-23.8443375673
 11
6.329371834
 21
-24.2456323968
  0
LINE
  5
545
100
AcDbEntity
  8
0
100
AcDbLine
 62
7
  6
CONTINUOUS
 10
6.475
 20
4.8622176149
 11
6.475
 21
1.3377823851
  0
LINE
  5
546
100
AcDbEntity
  8
RACCORDO
100
AcDbLine
 62
250
  6
CONTINUOUS
 10
6.5793676032
 20
-23.6278312164
 11
6.5793676032
 21
-24.495628166
  0
LINE
  5
547
100
AcDbEntity
  8
RACCORDO
100
AcDbLine
 62
250
  6
CONTINUOUS
 10
6.5793676032
 20
23.6278312164
 11
6.5793676032
 21
24.495628166
  0
LINE
  5
548
100
AcDbEntity
  8
RACCORDO
100
AcDbLine
 62
250
  6
CONTINUOUS
 10
6.7478182695
 20
-5.7226659647
 11
6.7478182695
 21
1.2646781665
  0
LINE
  5
549
100
AcDbEntity
  8
0
100
AcDbLine
 62
250
  6
CONTINUOUS
 10
6.7478182695
 20
-5.7226659647
 11
6.7478182695
 21
1.2646781665
  0
LINE
  5
54A
100
AcDbEntity
  8
RACCORDO
100
AcDbLine
 62
250
  6
CONTINUOUS
 10
6.7478182695
 20
4.9353218335
 11
6.7478182695
 21
19.1226659647
  0
LINE
  5
54B
100
AcDbEntity
  8
0
100
AcDbLine
 62
250
  6
CONTINUOUS
 10
6.7478182695
 20
4.9353218335
 11
6.7478182695
 21
19.1226659647
  0
LINE
  5
54C
100
AcDbEntity
  8
DRAFT
100
AcDbLine
 62
7
  6
CONTINUOUS
 10
7.725
 20
-20.1489710538
 11
7.725
 21
-20.0
  0
LINE
  5
54D
100
AcDbEntity
  8
DRAFT
100
AcDbLine
 62
7
  6
CONTINUOUS
 10
7.725
 20
20.0
 11
7.725
 21
20.1489710538
  0
LINE
  5
54E
100
AcDbEntity
  8
RACCORDO
100
AcDbLine
 62
250
  6
CONTINUOUS
 10
7.7476659647
 20
-4.7228182695
 11
7.7476659647
 21
1.0053341455
  0
LINE
  5
54F
100
AcDbEntity
  8
0
100
AcDbLine
 62
250
  6
CONTINUOUS
 10
7.7476659647
 20
-4.7228182695
 11
7.7476659647
 21
1.0053341455
  0
LINE
  5
550
100
AcDbEntity
  8
RACCORDO
100
AcDbLine
 62
250
  6
CONTINUOUS
 10
7.7476659647
 20
5.1946658545
 11
7.7476659647
 21
18.1228182695
  0
LINE
  5
551
100
AcDbEntity
  8
0
100
AcDbLine
 62
250
  6
CONTINUOUS
 10
7.7476659647
 20
5.1946658545
 11
7.7476659647
 21
18.1228182695
  0
LINE
  5
552
100
AcDbEntity
  8
0
100
AcDbLine
 62
250
  6
CONTINUOUS
 10
7.8202667577
 20
11.8186510602
 11
7.819745329
 21
11.727360169
  0
LINE
  5
553
100
AcDbEntity
  8
0
100
AcDbLine
 62
250
  6
CONTINUOUS
 10
7.823532488
 20
13.2968730231
 11
7.8234456151
 21
13.2823668847
  0
LINE
  5
554
100
AcDbEntity
  8
RACCORDO
100
AcDbLine
 62
250
  6
CONTINUOUS
 10
6.325
 20
23.4104851482
 11
6.329371834
 21
23.8443375673
  0
LINE
  5
555
100
AcDbEntity
  8
RACCORDO
100
AcDbLine
 62
250
  6
CONTINUOUS
 10
6.5742770021
 20
23.1226497308
 11
6.5793676032
 21
23.6278312164
  0
LINE
  5
556
100
AcDbEntity
  8
0
100
AcDbLine
 62
250
  6
CONTINUOUS
 10
7.820991936
 20
11.8885914999
 11
7.8202667577
 21
11.8186510602
  0
LINE
  5
557
100
AcDbEntity
  8
0
100
AcDbLine
 62
250
  6
CONTINUOUS
 10
7.8236774068
 20
13.3105814671
 11
7.823532488
 21
13.2968730231
  0
LINE
  5
558
100
AcDbEntity
  8
0
100
AcDbLine
 62
250
  6
CONTINUOUS
 10
7.8870047235
 20
11.10054845
 11
7.8873326852
 21
11.1271663336
  0
LINE
  5
559
100
AcDbEntity
  8
0
100
AcDbLine
 62
250
  6
CONTINUOUS
 10
7.8863498322
 20
11.5861900972
 11
7.8855471849
 21
11.5180955669
  0
LINE
  5
55A
100
AcDbEntity
  8
0
100
AcDbLine
 62
250
  6
CONTINUOUS
 10
7.8874185886
 20
11.4253464256
 11
7.8884497033
 21
11.5112256525
  0
LINE
  5
55B
100
AcDbEntity
  8
0
100
AcDbLine
 62
250
  6
CONTINUOUS
 10
7.8125493202
 20
14.8831265382
 11
7.8111131191
 21
14.7993831668
  0
LINE
  5
55C
100
AcDbEntity
  8
0
100
AcDbLine
 62
250
  6
CONTINUOUS
 10
7.8217688935
 20
11.9396153595
 11
7.820991936
 21
11.8885914999
  0
LINE
  5
55D
100
AcDbEntity
  8
0
100
AcDbLine
 62
250
  6
CONTINUOUS
 10
7.8238423055
 20
13.3213211733
 11
7.8236774068
 21
13.3105814671
  0
LINE
  5
55E
100
AcDbEntity
  8
0
100
AcDbLine
 62
250
  6
CONTINUOUS
 10
7.8855471849
 20
11.5180955669
 11
7.885066013
 21
11.4891110436
  0
LINE
  5
55F
100
AcDbEntity
  8
0
100
AcDbLine
 62
250
  6
CONTINUOUS
 10
7.8867095064
 20
11.0828913436
 11
7.8870047235
 21
11.10054845
  0
LINE
  5
560
100
AcDbEntity
  8
0
100
AcDbLine
 62
250
  6
CONTINUOUS
 10
7.8279725364
 20
11.2403334311
 11
7.8113727518
 21
10.3386702872
  0
LINE
  5
561
100
AcDbEntity
  8
0
100
AcDbLine
 62
250
  6
CONTINUOUS
 10
7.896638267
 20
14.9701405
 11
7.8708664911
 21
13.5702617819
  0
LINE
  5
562
100
AcDbEntity
  8
0
100
AcDbLine
 62
250
  6
CONTINUOUS
 10
7.8679664806
 20
13.41274
 11
7.8530515319
 21
12.602586
  0
LINE
  5
563
100
AcDbEntity
  8
0
100
AcDbLine
 62
250
  6
CONTINUOUS
 10
7.8515835819
 20
12.5228497802
 11
7.8361053635
 21
11.6820975708
  0
LINE
  5
564
100
AcDbEntity
  8
0
100
AcDbLine
 62
250
  6
CONTINUOUS
 10
7.8387789365
 20
11.667827
 11
7.853014812
 21
12.442341
  0
LINE
  5
565
100
AcDbEntity
  8
0
100
AcDbLine
 62
250
  6
CONTINUOUS
 10
7.854480884
 20
12.522113
 11
7.8711383682
 21
13.428378
  0
LINE
  5
566
100
AcDbEntity
  8
0
100
AcDbLine
 62
250
  6
CONTINUOUS
 10
7.8127834279
 20
10.2534999339
 11
7.8363801466
 21
11.5373002763
  0
LINE
  5
567
100
AcDbEntity
  8
0
100
AcDbLine
 62
250
  6
CONTINUOUS
 10
7.8740331968
 20
13.5858758386
 11
7.8994764416
 21
14.9701405
  0
LWPOLYLINE
  5
568
100
AcDbEntity
  8
0
100
AcDbPolyline
 62
250
  6
CONTINUOUS
 90
3
 70
0
 10
7.8865136557
 20
11.3727981468
 10
7.8867069035
 20
11.3826021892
 10
7.8874185886
 20
11.4253464256
  0
LINE
  5
569
100
AcDbEntity
  8
0
100
AcDbLine
 62
250
  6
CONTINUOUS
 10
7.8224389074
 20
11.9728504448
 11
7.8217688935
 21
11.9396153595
  0
LINE
  5
56A
100
AcDbEntity
  8
0
100
AcDbLine
 62
250
  6
CONTINUOUS
 10
7.823977128
 20
13.3279765991
 11
7.8238423055
 21
13.3213211733
  0
LINE
  5
56B
100
AcDbEntity
  8
0
100
AcDbLine
 62
250
  6
CONTINUOUS
 10
7.885066013
 20
11.4891110436
 11
7.8846668413
 21
11.4704000395
  0
LINE
  5
56C
100
AcDbEntity
  8
0
100
AcDbLine
 62
250
  6
CONTINUOUS
 10
7.8863773215
 20
11.0675422293
 11
7.8867095064
 21
11.0828913436
  0
LINE
  5
56D
100
AcDbEntity
  8
0
100
AcDbLine
 62
250
  6
CONTINUOUS
 10
7.8229201926
 20
11.992230151
 11
7.8224389074
 21
11.9728504448
  0
LINE
  5
56E
100
AcDbEntity
  8
0
100
AcDbLine
 62
250
  6
CONTINUOUS
 10
7.8240929378
 20
13.3325481619
 11
7.823977128
 21
13.3279765991
  0
LINE
  5
56F
100
AcDbEntity
  8
0
100
AcDbLine
 62
250
  6
CONTINUOUS
 10
7.8846668413
 20
11.4704000395
 11
7.8843815324
 21
11.4595997756
  0
LINE
  5
570
100
AcDbEntity
  8
0
100
AcDbLine
 62
250
  6
CONTINUOUS
 10
7.8861380862
 20
11.0587139174
 11
7.8863773215
 21
11.0675422293
  0
LINE
  5
571
100
AcDbEntity
  8
0
100
AcDbLine
 62
250
  6
CONTINUOUS
 10
7.8234248345
 20
12.0091515245
 11
7.8229201926
 21
11.992230151
  0
LINE
  5
572
100
AcDbEntity
  8
0
100
AcDbLine
 62
250
  6
CONTINUOUS
 10
7.8241834402
 20
13.3354750189
 11
7.8240929378
 21
13.3325481619
  0
LWPOLYLINE
  5
573
100
AcDbEntity
  8
RACCORDO
100
AcDbPolyline
 62
250
  6
CONTINUOUS
 90
31
 70
0
 10
6.329371834
 20
-23.8443375673
 10
6.3297503896
 20
-23.833039595
 10
6.3308095172
 20
-23.821769291
 10
6.3325468937
 20
-23.8105574212
 10
6.3349585951
 20
-23.7994336121
 10
6.3380384654
 20
-23.78842936
 10
6.3417775164
 20
-23.7775778202
 10
6.3461650608
 20
-23.7669096972
 10
6.3511894598
 20
-23.7564530239
 10
6.3568371404
 20
-23.746236105
 10
6.3630928329
 20
-23.7362866999
 10
6.3699394075
 20
-23.7266321754
 10
6.3773580158
 20
-23.7172991519
 10
6.3853283199
 20
-23.7083132018
 10
6.3938286147
 20
-23.6996987826
 10
6.4028357051
 20
-23.6914794042
 10
6.4123250088
 20
-23.6836775075
 10
6.4222705959
 20
-23.6763144193
 10
6.4326452788
 20
-23.6694102704
 10
6.4434207112
 20
-23.6629839239
 10
6.4545674692
 20
-23.6570529269
 10
6.4660551062
 20
-23.6516334796
 10
6.477852263
 20
-23.6467403776
 10
6.4899266994
 20
-23.6423869945
 10
6.502245379
 20
-23.6385852371
 10
6.5147746144
 20
-23.6353454907
 10
6.5274802172
 20
-23.6326765842
 10
6.540327538
 20
-23.6305857918
 10
6.5532815053
 20
-23.6290788219
 10
6.566306719
 20
-23.6281597935
 10
6.5793676032
 20
-23.6278312164
  0
LWPOLYLINE
  5
574
100
AcDbEntity
  8
0
100
AcDbPolyline
 62
250
  6
CONTINUOUS
 90
3
 70
0
 10
7.8843815324
 20
11.4595997756
 10
7.8840802708
 20
11.4502829364
 10
7.8839234977
 20
11.4462194886
  0
LINE
  5
575
100
AcDbEntity
  8
0
100
AcDbLine
 62
250
  6
CONTINUOUS
 10
7.8242451561
 20
13.3371649065
 11
7.8241834402
 21
13.3354750189
  0
LWPOLYLINE
  5
576
100
AcDbEntity
  8
0
100
AcDbPolyline
 62
250
  6
CONTINUOUS
 90
8
 70
0
 10
7.9699561932
 20
10.928126
 10
7.9636765736
 20
10.807918064
 10
7.9579821156
 20
10.6143873028
 10
7.9531300277
 20
10.3562751548
 10
7.9492872053
 20
10.0397761207
 10
7.9467507227
 20
9.6893575688
 10
7.9455639123
 20
9.3161395686
 10
7.9457987196
 20
8.9295900283
  0
LINE
  5
577
100
AcDbEntity
  8
RACCORDO
100
AcDbLine
 62
7
  6
CONTINUOUS
 10
5.4240220113
 20
-20.4584032484
 11
5.3738376746
 21
-20.9104703804
  0
LINE
  5
578
100
AcDbEntity
  8
RACCORDO
100
AcDbLine
 62
7
  6
CONTINUOUS
 10
4.6560660785
 20
-5.7226659647
 11
4.4877618536
 21
-6.0593000519
  0
LINE
  5
579
100
AcDbEntity
  8
0
100
AcDbLine
 62
7
  6
CONTINUOUS
 10
4.6560660785
 20
-5.7226659647
 11
4.4877618536
 21
-6.0593000519
  0
LINE
  5
57A
100
AcDbEntity
  8
DRAFT
100
AcDbLine
 62
7
  6
CONTINUOUS
 10
-6.325
 20
-22.4
 11
-6.2809327327
 21
-22.3338981669
  0
LWPOLYLINE
  5
57B
100
AcDbEntity
  8
SMUSSO
100
AcDbPolyline
 62
7
  6
CONTINUOUS
 90
13
 70
0
 10
4.4877618536
 20
-6.0593000519
 10
4.4868583221
 20
-6.06038921
 10
4.4843513142
 20
-6.061475982
 10
4.4802408298
 20
-6.0625603678
 10
4.4745210574
 20
-6.0636430576
 10
4.4671978086
 20
-6.0647233612
 10
4.4582885174
 20
-6.0657992088
 10
4.4477922627
 20
-6.066870602
 10
4.4357099657
 20
-6.0679375391
 10
4.4220618243
 20
-6.0689979453
 10
4.4068413454
 20
-6.0700518401
 10
4.3900550221
 20
-6.071099204
 10
4.3717425312
 20
-6.0721379038
  0
LWPOLYLINE
  5
57C
100
AcDbEntity
  8
0
100
AcDbPolyline
 62
7
  6
CONTINUOUS
 90
13
 70
0
 10
4.4877618536
 20
-6.0593000519
 10
4.4868583221
 20
-6.06038921
 10
4.4843513142
 20
-6.061475982
 10
4.4802408298
 20
-6.0625603678
 10
4.4745210574
 20
-6.0636430576
 10
4.4671978086
 20
-6.0647233612
 10
4.4582885174
 20
-6.0657992088
 10
4.4477922627
 20
-6.066870602
 10
4.4357099657
 20
-6.0679375391
 10
4.4220618243
 20
-6.0689979453
 10
4.4068413454
 20
-6.0700518401
 10
4.3900550221
 20
-6.071099204
 10
4.3717425312
 20
-6.0721379038
  0
LINE
  5
57D
100
AcDbEntity
  8
DRAFT
100
AcDbLine
 62
7
  6
CONTINUOUS
 10
4.075
 20
-4.3
 11
3.9102304926
 21
-4.4647695074
  0
LINE
  5
57E
100
AcDbEntity
  8
0
100
AcDbLine
 62
7
  6
CONTINUOUS
 10
4.075
 20
-4.3
 11
3.9102304926
 21
-4.4647695074
  0
LWPOLYLINE
  5
57F
100
AcDbEntity
  8
SMUSSO
100
AcDbPolyline
 62
7
  6
CONTINUOUS
 90
13
 70
0
 10
3.9102304926
 20
-5.059364421
 10
3.9091377054
 20
-5.0602261929
 10
3.906721794
 20
-5.061085826
 10
3.9029858755
 20
-5.0619433203
 10
3.8979341625
 20
-5.0627992675
 10
3.8915715821
 20
-5.0636530758
 10
3.8839034304
 20
-5.0645029701
 10
3.8749362467
 20
-5.0653489446
 10
3.86467755
 20
-5.066191005
 10
3.8531349246
 20
-5.0670273936
 10
3.8403168443
 20
-5.0678581339
 10
3.8262337631
 20
-5.0686832024
 10
3.8108975733
 20
-5.069500771
  0
LWPOLYLINE
  5
580
100
AcDbEntity
  8
0
100
AcDbPolyline
 62
7
  6
CONTINUOUS
 90
13
 70
0
 10
3.9102304926
 20
-5.059364421
 10
3.9091377054
 20
-5.0602261929
 10
3.906721794
 20
-5.061085826
 10
3.9029858755
 20
-5.0619433203
 10
3.8979341625
 20
-5.0627992675
 10
3.8915715821
 20
-5.0636530758
 10
3.8839034304
 20
-5.0645029701
 10
3.8749362467
 20
-5.0653489446
 10
3.86467755
 20
-5.066191005
 10
3.8531349246
 20
-5.0670273936
 10
3.8403168443
 20
-5.0678581339
 10
3.8262337631
 20
-5.0686832024
 10
3.8108975733
 20
-5.069500771
  0
LINE
  5
581
100
AcDbEntity
  8
RACCORDO
100
AcDbLine
 62
7
  6
CONTINUOUS
 10
-11.5976659647
 20
5.1946658545
 11
-11.9389462101
 21
5.1154879757
  0
LINE
  5
582
100
AcDbEntity
  8
0
100
AcDbLine
 62
7
  6
CONTINUOUS
 10
-11.5976659647
 20
5.1946658545
 11
-11.9389462101
 21
5.1154879757
  0
LINE
  5
583
100
AcDbEntity
  8
0
100
AcDbLine
 62
250
  6
CONTINUOUS
 10
9.1301993038
 20
5.958503
 11
9.1808058425
 21
5.958503
  0
LINE
  5
584
100
AcDbEntity
  8
0
100
AcDbLine
 62
250
  6
CONTINUOUS
 10
-11.7725212468
 20
6.9
 11
-11.8161589092
 21
6.9
  0
LINE
  5
585
100
AcDbEntity
  8
0
100
AcDbLine
 62
250
  6
CONTINUOUS
 10
-12.958051065
 20
7.7186425295
 11
-12.9353594806
 21
7.7186425295
  0
LINE
  5
586
100
AcDbEntity
  8
RACCORDO
100
AcDbLine
 62
7
  6
CONTINUOUS
 10
7.7476659647
 20
5.1946658545
 11
8.0889462101
 21
5.1154879757
  0
LINE
  5
587
100
AcDbEntity
  8
0
100
AcDbLine
 62
7
  6
CONTINUOUS
 10
7.7476659647
 20
5.1946658545
 11
8.0889462101
 21
5.1154879757
  0
LINE
  5
588
100
AcDbEntity
  8
0
100
AcDbLine
 62
7
  6
CONTINUOUS
 10
6.475
 20
4.8277217249
 11
6.6196758185
 21
4.7218131513
  0
LINE
  5
589
100
AcDbEntity
  8
RACCORDO
100
AcDbLine
 62
250
  6
CONTINUOUS
 10
-10.9751523048
 20
19.5
 11
-10.5978182695
 21
19.1226659647
  0
LINE
  5
58A
100
AcDbEntity
  8
0
100
AcDbLine
 62
250
  6
CONTINUOUS
 10
-10.9751523048
 20
19.5
 11
-10.5978182695
 21
19.1226659647
  0
LINE
  5
58B
100
AcDbEntity
  8
DRAFT
100
AcDbLine
 62
7
  6
CONTINUOUS
 10
-6.325
 20
22.4
 11
-6.2809327327
 21
22.3338981669
  0
LINE
  5
58C
100
AcDbEntity
  8
RACCORDO
100
AcDbLine
 62
7
  6
CONTINUOUS
 10
5.3738376746
 20
20.9104703804
 11
5.4240220113
 21
20.4584032484
  0
LINE
  5
58D
100
AcDbEntity
  8
0
100
AcDbLine
 62
250
  6
CONTINUOUS
 10
9.0779755204
 20
-10.105142911
 11
9.1040294699
 21
-10.5570713927
  0
LINE
  5
58E
100
AcDbEntity
  8
0
100
AcDbLine
 62
250
  6
CONTINUOUS
 10
9.1401513839
 20
8.024362
 11
9.1301993038
 21
8.207475
  0
LINE
  5
58F
100
AcDbEntity
  8
0
100
AcDbLine
 62
250
  6
CONTINUOUS
 10
9.1650445143
 20
7.56635
 11
9.1497665791
 21
7.84744
  0
LINE
  5
590
100
AcDbEntity
  8
0
100
AcDbLine
 62
250
  6
CONTINUOUS
 10
9.1301991642
 20
8.787497
 11
9.1808058425
 21
7.856372
  0
LWPOLYLINE
  5
591
100
AcDbEntity
  8
0
100
AcDbPolyline
 62
250
  6
CONTINUOUS
 90
12
 70
0
 10
7.8291126282
 20
12.0337323289
 10
7.8289049832
 20
12.0376574564
 10
7.8286957145
 20
12.041225913
 10
7.8284850478
 20
12.0444340852
 10
7.8282732087
 20
12.0472783591
 10
7.8280604227
 20
12.0497551211
 10
7.8278469157
 20
12.0518607573
 10
7.8276329131
 20
12.0535916541
 10
7.8274186406
 20
12.0549441977
 10
7.8272043239
 20
12.0559147744
 10
7.8269901885
 20
12.0564997705
 10
7.8267764601
 20
12.0566955723
  0
LINE
  5
592
100
AcDbEntity
  8
0
100
AcDbLine
 62
250
  6
CONTINUOUS
 10
9.1493339475
 20
-14.176491
 11
9.1711305154
 21
-14.606449
  0
LINE
  5
593
100
AcDbEntity
  8
0
100
AcDbLine
 62
250
  6
CONTINUOUS
 10
9.1493339475
 20
-8.151456
 11
9.1711333772
 21
-8.581471
  0
LINE
  5
594
100
AcDbEntity
  8
0
100
AcDbLine
 62
250
  6
CONTINUOUS
 10
9.1301990421
 20
-13.798889
 11
9.1409243379
 21
-14.015846
  0
LINE
  5
595
100
AcDbEntity
  8
0
100
AcDbLine
 62
250
  6
CONTINUOUS
 10
9.1301990421
 20
-7.773964
 11
9.1409243379
 21
-7.990812
  0
LWPOLYLINE
  5
596
100
AcDbEntity
  8
0
100
AcDbPolyline
 62
250
  6
CONTINUOUS
 90
14
 70
0
 10
9.1588358103
 20
-4.7226606687
 10
9.1592757701
 20
-4.7315883841
 10
9.1597206879
 20
-4.7396793271
 10
9.1601699452
 20
-4.7469602571
 10
9.1606229233
 20
-4.753457933
 10
9.1610790037
 20
-4.7591991139
 10
9.1615375677
 20
-4.7642105591
 10
9.1620631878
 20
-4.7690729355
 10
9.1625908237
 20
-4.7730645828
 10
9.1631200626
 20
-4.776230213
 10
9.1636504915
 20
-4.7786145378
 10
9.1641816977
 20
-4.7802622694
 10
9.1647132681
 20
-4.7812181196
 10
9.16524479
 20
-4.7815268003
  0
LINE
  5
597
100
AcDbEntity
  8
0
100
AcDbLine
 62
250
  6
CONTINUOUS
 10
9.1808033297
 20
-14.252884
 11
9.1301990421
 21
-13.20444
  0
LINE
  5
598
100
AcDbEntity
  8
0
100
AcDbLine
 62
250
  6
CONTINUOUS
 10
9.1808033297
 20
-8.227849
 11
9.1301990421
 21
-7.179514
  0
LINE
  5
599
100
AcDbEntity
  8
0
100
AcDbLine
 62
250
  6
CONTINUOUS
 10
7.884168638
 20
13.6380393095
 11
7.8839234977
 21
13.6430051984
  0
LWPOLYLINE
  5
59A
100
AcDbEntity
  8
0
100
AcDbPolyline
 62
250
  6
CONTINUOUS
 90
22
 70
0
 10
9.1596437538
 20
3.7718046114
 10
9.1601985386
 20
3.7600953953
 10
9.1607606891
 20
3.7495979229
 10
9.1613293813
 20
3.7403280986
 10
9.1619037911
 20
3.7323018269
 10
9.1624830942
 20
3.7255350123
 10
9.1630664666
 20
3.7200435593
 10
9.1636530779
 20
3.715840458
 10
9.1642420735
 20
3.7129270416
 10
9.1648325926
 20
3.7113017286
 10
9.1654237745
 20
3.7109629379
 10
9.1660147584
 20
3.711909088
 10
9.1666046835
 20
3.7141385976
 10
9.167192689
 20
3.7176498856
 10
9.1677779142
 20
3.7224413705
 10
9.1683594982
 20
3.7285114712
 10
9.1689365898
 20
3.735855921
 10
9.1695083756
 20
3.7444597129
 10
9.1700740515
 20
3.7543051544
 10
9.1706328135
 20
3.7653745533
 10
9.1711838578
 20
3.7776502172
 10
9.172259577
 20
3.8057495705
  0
LINE
  5
59B
100
AcDbEntity
  8
0
100
AcDbLine
 62
250
  6
CONTINUOUS
 10
7.8295221447
 20
12.0248265165
 11
7.8291126282
 21
12.0337323289
  0
LWPOLYLINE
  5
59C
100
AcDbEntity
  8
0
100
AcDbPolyline
 62
250
  6
CONTINUOUS
 90
21
 70
0
 10
7.8831716394
 20
11.047757986
 10
7.8833086693
 20
11.0446491863
 10
7.8834480227
 20
11.0418958983
 10
7.8835894092
 20
11.0395008488
 10
7.8837325382
 20
11.0374667649
 10
7.8838771195
 20
11.0357963735
 10
7.8840228626
 20
11.0344924015
 10
7.8841694771
 20
11.0335575759
 10
7.8843166725
 20
11.0329946237
 10
7.8844641585
 20
11.0328062719
 10
7.884611654
 20
11.0329943632
 10
7.8847588591
 20
11.033557108
 10
7.8849054833
 20
11.0344917844
 10
7.8850512362
 20
11.0357956707
 10
7.8851958272
 20
11.037466045
 10
7.8853389659
 20
11.0395001854
 10
7.8854803618
 20
11.0418953703
 10
7.8856197244
 20
11.0446488778
 10
7.8857567632
 20
11.047757986
 10
7.885886587
 20
11.0510930989
 10
7.8861380862
 20
11.0587139174
  0
LWPOLYLINE
  5
59D
100
AcDbEntity
  8
0
100
AcDbPolyline
 62
250
  6
CONTINUOUS
 90
15
 70
0
 10
7.8239842704
 20
11.2669481459
 10
7.8242507802
 20
11.2608729464
 10
7.8245214637
 20
11.2554204747
 10
7.8247958148
 20
11.2505943128
 10
7.8250733277
 20
11.2463980425
 10
7.8253534961
 20
11.2428352457
 10
7.825635814
 20
11.2399095043
 10
7.8259197754
 20
11.2376244002
 10
7.8262048743
 20
11.2359835151
 10
7.8264906045
 20
11.2349904311
 10
7.8267764601
 20
11.23464873
 10
7.8270771695
 20
11.2349954346
 10
7.8273770338
 20
11.2360626068
 10
7.8276756303
 20
11.2378440159
 10
7.8279725364
 20
11.2403334311
  0
LINE
  5
59E
100
AcDbEntity
  8
0
100
AcDbLine
 62
250
  6
CONTINUOUS
 10
9.1620987755
 20
-4.0923141379
 11
9.1617007707
 21
-4.0833556651
  0
LINE
  5
59F
100
AcDbEntity
  8
0
100
AcDbLine
 62
250
  6
CONTINUOUS
 10
7.8844095743
 20
13.6324211442
 11
7.884168638
 21
13.6380393095
  0
LINE
  5
5A0
100
AcDbEntity
  8
0
100
AcDbLine
 62
250
  6
CONTINUOUS
 10
9.1579732392
 20
-4.7021878845
 11
9.1588358103
 21
-4.7226606687
  0
LINE
  5
5A1
100
AcDbEntity
  8
0
100
AcDbLine
 62
250
  6
CONTINUOUS
 10
9.1585595784
 20
3.7987946565
 11
9.1596437538
 21
3.7718046114
  0
LINE
  5
5A2
100
AcDbEntity
  8
0
100
AcDbLine
 62
250
  6
CONTINUOUS
 10
7.8299224589
 20
12.0145373856
 11
7.8295221447
 21
12.0248265165
  0
LINE
  5
5A3
100
AcDbEntity
  8
0
100
AcDbLine
 62
250
  6
CONTINUOUS
 10
7.8847085837
 20
13.6245128187
 11
7.8844095743
 21
13.6324211442
  0
LINE
  5
5A4
100
AcDbEntity
  8
0
100
AcDbLine
 62
250
  6
CONTINUOUS
 10
9.1617007707
 20
-4.0833556651
 11
9.1613129015
 21
-4.0729664611
  0
LINE
  5
5A5
100
AcDbEntity
  8
0
100
AcDbLine
 62
250
  6
CONTINUOUS
 10
7.8234832098
 20
11.2804113827
 11
7.8239842704
 21
11.2669481459
  0
LINE
  5
5A6
100
AcDbEntity
  8
0
100
AcDbLine
 62
250
  6
CONTINUOUS
 10
7.8829146362
 20
11.0547477782
 11
7.8831716394
 21
11.047757986
  0
LWPOLYLINE
  5
5A7
100
AcDbEntity
  8
RACCORDO
100
AcDbPolyline
 62
250
  6
CONTINUOUS
 90
31
 70
0
 10
8.720628166
 20
-23.8443375673
 10
8.7202496104
 20
-23.833039595
 10
8.7191904828
 20
-23.821769291
 10
8.7174531063
 20
-23.8105574212
 10
8.7150414049
 20
-23.7994336121
 10
8.7119615346
 20
-23.78842936
 10
8.7082224836
 20
-23.7775778202
 10
8.7038349392
 20
-23.7669096972
 10
8.6988105402
 20
-23.7564530239
 10
8.6931628596
 20
-23.746236105
 10
8.6869071671
 20
-23.7362866999
 10
8.6800605925
 20
-23.7266321754
 10
8.6726419842
 20
-23.7172991519
 10
8.6646716801
 20
-23.7083132018
 10
8.6561713853
 20
-23.6996987826
 10
8.6471642949
 20
-23.6914794042
 10
8.6376749912
 20
-23.6836775075
 10
8.6277294041
 20
-23.6763144193
 10
8.6173547212
 20
-23.6694102704
 10
8.6065792888
 20
-23.6629839239
 10
8.5954325308
 20
-23.6570529269
 10
8.5839448938
 20
-23.6516334796
 10
8.572147737
 20
-23.6467403776
 10
8.5600733006
 20
-23.6423869945
 10
8.547754621
 20
-23.6385852371
 10
8.5352253856
 20
-23.6353454907
 10
8.5225197828
 20
-23.6326765842
 10
8.509672462
 20
-23.6305857918
 10
8.4967184947
 20
-23.6290788219
 10
8.483693281
 20
-23.6281597935
 10
8.4706323968
 20
-23.6278312164
  0
LINE
  5
5A8
100
AcDbEntity
  8
0
100
AcDbLine
 62
250
  6
CONTINUOUS
 10
9.1571382612
 20
-4.6780981526
 11
9.1579732392
 21
-4.7021878845
  0
LINE
  5
5A9
100
AcDbEntity
  8
0
100
AcDbLine
 62
250
  6
CONTINUOUS
 10
7.8303117659
 20
12.0028938462
 11
7.8299224589
 21
12.0145373856
  0
LINE
  5
5AA
100
AcDbEntity
  8
0
100
AcDbLine
 62
250
  6
CONTINUOUS
 10
9.0803440616
 20
-15.9802144294
 11
9.0756069796
 21
-15.8295716441
  0
LINE
  5
5AB
100
AcDbEntity
  8
0
100
AcDbLine
 62
250
  6
CONTINUOUS
 10
9.094555307
 20
-14.9257144294
 11
9.0992923884
 21
-15.0763572147
  0
LINE
  5
5AC
100
AcDbEntity
  8
0
100
AcDbLine
 62
250
  6
CONTINUOUS
 10
9.1575147297
 20
3.8304388024
 11
9.1585595784
 21
3.7987946565
  0
LINE
  5
5AD
100
AcDbEntity
  8
0
100
AcDbLine
 62
250
  6
CONTINUOUS
 10
7.8851435491
 20
13.6111038904
 11
7.8847085837
 21
13.6245128187
  0
LINE
  5
5AE
100
AcDbEntity
  8
0
100
AcDbLine
 62
250
  6
CONTINUOUS
 10
7.823002134
 20
11.2960669907
 11
7.8234832098
 21
11.2804113827
  0
LINE
  5
5AF
100
AcDbEntity
  8
0
100
AcDbLine
 62
250
  6
CONTINUOUS
 10
9.1613129015
 20
-4.0729664611
 11
9.1607931048
 21
-4.0562543208
  0
LINE
  5
5B0
100
AcDbEntity
  8
0
100
AcDbLine
 62
250
  6
CONTINUOUS
 10
7.8826690572
 20
11.0629810577
 11
7.8829146362
 21
11.0547477782
  0
LINE
  5
5B1
100
AcDbEntity
  8
0
100
AcDbLine
 62
250
  6
CONTINUOUS
 10
7.8839237131
 20
13.4904306346
 11
7.8841776263
 21
13.4819826805
  0
LINE
  5
5B2
100
AcDbEntity
  8
0
100
AcDbLine
 62
250
  6
CONTINUOUS
 10
9.1563372384
 20
-4.6504254852
 11
9.1571382612
 21
-4.6780981526
  0
LINE
  5
5B3
100
AcDbEntity
  8
0
100
AcDbLine
 62
250
  6
CONTINUOUS
 10
9.1565151695
 20
3.8665613336
 11
9.1575147297
 21
3.8304388024
  0
LINE
  5
5B4
100
AcDbEntity
  8
0
100
AcDbLine
 62
250
  6
CONTINUOUS
 10
7.8308711393
 20
11.9829522612
 11
7.8303117659
 21
12.0028938462
  0
LINE
  5
5B5
100
AcDbEntity
  8
0
100
AcDbLine
 62
250
  6
CONTINUOUS
 10
7.885693072
 20
13.5906449971
 11
7.8851435491
 21
13.6111038904
  0
LINE
  5
5B6
100
AcDbEntity
  8
0
100
AcDbLine
 62
250
  6
CONTINUOUS
 10
9.1607931048
 20
-4.0562543208
 11
9.160378124
 21
-4.0401402428
  0
LINE
  5
5B7
100
AcDbEntity
  8
0
100
AcDbLine
 62
250
  6
CONTINUOUS
 10
9.1040294699
 20
-13.5699283559
 11
9.0969238467
 21
-13.2686427853
  0
LINE
  5
5B8
100
AcDbEntity
  8
0
100
AcDbLine
 62
250
  6
CONTINUOUS
 10
7.8841776263
 20
13.4819826805
 11
7.8844987435
 21
13.4691021677
  0
LINE
  5
5B9
100
AcDbEntity
  8
0
100
AcDbLine
 62
250
  6
CONTINUOUS
 10
7.8223235478
 20
11.3234080964
 11
7.823002134
 21
11.2960669907
  0
LINE
  5
5BA
100
AcDbEntity
  8
0
100
AcDbLine
 62
250
  6
CONTINUOUS
 10
7.9121828615
 20
-1.0428571105
 11
7.9305892253
 21
-1.8571428329
  0
LINE
  5
5BB
100
AcDbEntity
  8
0
100
AcDbLine
 62
250
  6
CONTINUOUS
 10
9.0708698977
 20
-13.2686427853
 11
9.094555307
 21
-14.3231427853
  0
LINE
  5
5BC
100
AcDbEntity
  8
0
100
AcDbLine
 62
250
  6
CONTINUOUS
 10
7.882325782
 20
11.0775055143
 11
7.8826690572
 21
11.0629810577
  0
LINE
  5
5BD
100
AcDbEntity
  8
0
100
AcDbLine
 62
250
  6
CONTINUOUS
 10
7.831395593
 20
11.9601258746
 11
7.8308711393
 21
11.9829522612
  0
LINE
  5
5BE
100
AcDbEntity
  8
0
100
AcDbLine
 62
250
  6
CONTINUOUS
 10
9.1552140331
 20
-4.6023841097
 11
9.1563372384
 21
-4.6504254852
  0
LINE
  5
5BF
100
AcDbEntity
  8
0
100
AcDbLine
 62
250
  6
CONTINUOUS
 10
9.1551124544
 20
3.9286554648
 11
9.1565151695
 21
3.8665613336
  0
LINE
  5
5C0
100
AcDbEntity
  8
0
100
AcDbLine
 62
250
  6
CONTINUOUS
 10
7.8863926095
 20
13.5580475312
 11
7.885693072
 21
13.5906449971
  0
LINE
  5
5C1
100
AcDbEntity
  8
0
100
AcDbLine
 62
250
  6
CONTINUOUS
 10
7.9148123411
 20
-2.4
 11
7.9121828615
 21
-2.2642857082
  0
LINE
  5
5C2
100
AcDbEntity
  8
0
100
AcDbLine
 62
250
  6
CONTINUOUS
 10
7.9305892253
 20
-0.6357143342
 11
7.9279597457
 21
-0.5
  0
LINE
  5
5C3
100
AcDbEntity
  8
0
100
AcDbLine
 62
250
  6
CONTINUOUS
 10
7.8844987435
 20
13.4691021677
 11
7.8849020857
 21
13.4491119022
  0
LINE
  5
5C4
100
AcDbEntity
  8
0
100
AcDbLine
 62
250
  6
CONTINUOUS
 10
9.160378124
 20
-4.0401402428
 11
9.1598714139
 21
-4.0153674044
  0
LINE
  5
5C5
100
AcDbEntity
  8
0
100
AcDbLine
 62
250
  6
CONTINUOUS
 10
7.8217042136
 20
11.3550314595
 11
7.8223235478
 21
11.3234080964
  0
LINE
  5
5C6
100
AcDbEntity
  8
0
100
AcDbLine
 62
250
  6
CONTINUOUS
 10
7.8725359744
 20
11.344233
 11
7.8753232982
 21
11.187437
  0
LINE
  5
5C7
100
AcDbEntity
  8
0
100
AcDbLine
 62
250
  6
CONTINUOUS
 10
7.8775631046
 20
11.0614540594
 11
7.8969711684
 21
9.9697090822
  0
LINE
  5
5C8
100
AcDbEntity
  8
0
100
AcDbLine
 62
250
  6
CONTINUOUS
 10
7.8111131191
 20
14.7993831668
 11
7.8360169445
 21
13.3984933674
  0
LINE
  5
5C9
100
AcDbEntity
  8
0
100
AcDbLine
 62
250
  6
CONTINUOUS
 10
7.8383580471
 20
13.2668132741
 11
7.8515835819
 21
12.5228497802
  0
LINE
  5
5CA
100
AcDbEntity
  8
0
100
AcDbLine
 62
250
  6
CONTINUOUS
 10
7.853014812
 20
12.442341
 11
7.8693593048
 21
11.522946
  0
LINE
  5
5CB
100
AcDbEntity
  8
0
100
AcDbLine
 62
250
  6
CONTINUOUS
 10
7.8722257055
 20
11.522946
 11
7.8661023193
 21
11.867743
  0
LINE
  5
5CC
100
AcDbEntity
  8
0
100
AcDbLine
 62
250
  6
CONTINUOUS
 10
7.8640009274
 20
11.986057
 11
7.854480884
 21
12.522113
  0
LINE
  5
5CD
100
AcDbEntity
  8
0
100
AcDbLine
 62
250
  6
CONTINUOUS
 10
7.8998107871
 20
9.9697090822
 11
7.8775629019
 21
11.2224119606
  0
LINE
  5
5CE
100
AcDbEntity
  8
0
100
AcDbLine
 62
250
  6
CONTINUOUS
 10
7.838682854
 20
13.411634521
 11
7.8125493202
 21
14.8831265382
  0
LINE
  5
5CF
100
AcDbEntity
  8
0
100
AcDbLine
 62
250
  6
CONTINUOUS
 10
7.8530515319
 20
12.602586
 11
7.8410218674
 21
13.279931
  0
LINE
  5
5D0
100
AcDbEntity
  8
0
100
AcDbLine
 62
250
  6
CONTINUOUS
 10
7.8868415921
 20
11.3558891173
 11
7.8865136557
 21
11.3727981468
  0
LINE
  5
5D1
100
AcDbEntity
  8
0
100
AcDbLine
 62
250
  6
CONTINUOUS
 10
7.8820176456
 20
11.0944236578
 11
7.882325782
 21
11.0775055143
  0
LINE
  5
5D2
100
AcDbEntity
  8
0
100
AcDbLine
 62
250
  6
CONTINUOUS
 10
7.8113727518
 20
10.3386702872
 11
7.8127834279
 21
10.2534999339
  0
LINE
  5
5D3
100
AcDbEntity
  8
0
100
AcDbLine
 62
250
  6
CONTINUOUS
 10
7.8320264203
 20
11.9256728252
 11
7.831395593
 21
11.9601258746
  0
LINE
  5
5D4
100
AcDbEntity
  8
0
100
AcDbLine
 62
250
  6
CONTINUOUS
 10
9.0756069796
 20
-15.8295716441
 11
9.0708698977
 21
-15.5282855706
  0
LINE
  5
5D5
100
AcDbEntity
  8
0
100
AcDbLine
 62
250
  6
CONTINUOUS
 10
9.0992923884
 20
-15.0763572147
 11
9.1040294699
 21
-15.3776427853
  0
LINE
  5
5D6
100
AcDbEntity
  8
0
100
AcDbLine
 62
250
  6
CONTINUOUS
 10
9.0708698977
 20
-12.5154286073
 11
9.0732384386
 21
-12.6660713927
  0
LINE
  5
5D7
100
AcDbEntity
  8
0
100
AcDbLine
 62
250
  6
CONTINUOUS
 10
9.094555307
 20
-8.9
 11
9.1040294699
 21
-9.5025714555
  0
LINE
  5
5D8
100
AcDbEntity
  8
0
100
AcDbLine
 62
250
  6
CONTINUOUS
 10
9.1538933017
 20
-4.5267028944
 11
9.1552140331
 21
-4.6023841097
  0
LINE
  5
5D9
100
AcDbEntity
  8
0
100
AcDbLine
 62
250
  6
CONTINUOUS
 10
9.1534504949
 20
4.0250329538
 11
9.1551124544
 21
3.9286554648
  0
LWPOLYLINE
  5
5DA
100
AcDbEntity
  8
0
100
AcDbPolyline
 62
250
  6
CONTINUOUS
 90
6
 70
0
 10
7.8236691594
 20
11.5273795758
 10
7.8241385239
 20
11.4945215616
 10
7.8247011414
 20
11.4680415908
 10
7.8253428072
 20
11.4483275072
 10
7.8260390806
 20
11.436130214
 10
7.8267764631
 20
11.431913
  0
LWPOLYLINE
  5
5DB
100
AcDbEntity
  8
0
100
AcDbPolyline
 62
250
  6
CONTINUOUS
 90
6
 70
0
 10
7.8247585552
 20
11.5688479716
 10
7.8250633801
 20
11.5475086082
 10
7.8254287673
 20
11.530311412
 10
7.8258454919
 20
11.5175082648
 10
7.8262976808
 20
11.5095868345
 10
7.8267765677
 20
11.506848
  0
LWPOLYLINE
  5
5DC
100
AcDbEntity
  8
0
100
AcDbPolyline
 62
250
  6
CONTINUOUS
 90
6
 70
0
 10
7.8287945798
 20
11.7224960284
 10
7.8284897549
 20
11.7438353918
 10
7.8281243677
 20
11.761032588
 10
7.8277076432
 20
11.7738357352
 10
7.8272554543
 20
11.7817571655
 10
7.8267765673
 20
11.784496
  0
LWPOLYLINE
  5
5DD
100
AcDbEntity
  8
0
100
AcDbPolyline
 62
250
  6
CONTINUOUS
 90
6
 70
0
 10
7.8298837662
 20
11.7639644242
 10
7.8294144017
 20
11.7968224384
 10
7.8288517842
 20
11.8233024092
 10
7.8282101184
 20
11.8430164928
 10
7.827513845
 20
11.855213786
 10
7.8267764625
 20
11.859431
  0
LINE
  5
5DE
100
AcDbEntity
  8
0
100
AcDbLine
 62
250
  6
CONTINUOUS
 10
7.8873243135
 20
13.5007713928
 11
7.8863926095
 21
13.5580475312
  0
LINE
  5
5DF
100
AcDbEntity
  8
0
100
AcDbLine
 62
250
  6
CONTINUOUS
 10
7.8849020857
 20
13.4491119022
 11
7.8854816679
 21
13.4116568136
  0
LINE
  5
5E0
100
AcDbEntity
  8
0
100
AcDbLine
 62
250
  6
CONTINUOUS
 10
9.1598714139
 20
-4.0153674044
 11
9.1594384445
 21
-3.9866761124
  0
LINE
  5
5E1
100
AcDbEntity
  8
0
100
AcDbLine
 62
250
  6
CONTINUOUS
 10
7.8209847352
 20
11.4031386303
 11
7.8217042136
 21
11.3550314595
  0
LINE
  5
5E2
100
AcDbEntity
  8
0
100
AcDbLine
 62
250
  6
CONTINUOUS
 10
7.8872152503
 20
11.3296350709
 11
7.8868415921
 21
11.3558891173
  0
LINE
  5
5E3
100
AcDbEntity
  8
0
100
AcDbLine
 62
250
  6
CONTINUOUS
 10
7.8816701739
 20
11.120221329
 11
7.8820176456
 21
11.0944236578
  0
LINE
  5
5E4
100
AcDbEntity
  8
0
100
AcDbLine
 62
250
  6
CONTINUOUS
 10
7.8328199992
 20
11.8664294401
 11
7.8320264203
 21
11.9256728252
  0
LINE
  5
5E5
100
AcDbEntity
  8
0
100
AcDbLine
 62
250
  6
CONTINUOUS
 10
9.1525489742
 20
-4.4171904032
 11
9.1538933017
 21
-4.5267028944
  0
LINE
  5
5E6
100
AcDbEntity
  8
0
100
AcDbLine
 62
250
  6
CONTINUOUS
 10
9.1517628374
 20
4.1640480313
 11
9.1534504949
 21
4.0250329538
  0
LINE
  5
5E7
100
AcDbEntity
  8
RACCORDO
100
AcDbLine
 62
250
  6
CONTINUOUS
 10
8.4706323968
 20
23.6278312164
 11
8.4757229979
 21
23.1226497308
  0
LINE
  5
5E8
100
AcDbEntity
  8
RACCORDO
100
AcDbLine
 62
250
  6
CONTINUOUS
 10
8.720628166
 20
23.8443375673
 11
8.725
 21
23.4104851482
  0
LINE
  5
5E9
100
AcDbEntity
  8
0
100
AcDbLine
 62
250
  6
CONTINUOUS
 10
7.8854816679
 20
13.4116568136
 11
7.8861898875
 21
13.3483450412
  0
LINE
  5
5EA
100
AcDbEntity
  8
0
100
AcDbLine
 62
250
  6
CONTINUOUS
 10
9.0898182255
 20
-12.364785822
 11
9.0921867652
 21
-12.6158570471
  0
LINE
  5
5EB
100
AcDbEntity
  8
0
100
AcDbLine
 62
250
  6
CONTINUOUS
 10
7.8885301518
 20
13.3940123273
 11
7.8873243135
 21
13.5007713928
  0
LINE
  5
5EC
100
AcDbEntity
  8
0
100
AcDbLine
 62
250
  6
CONTINUOUS
 10
7.820279599
 20
11.4711943262
 11
7.8209847352
 21
11.4031386303
  0
LINE
  5
5ED
100
AcDbEntity
  8
0
100
AcDbLine
 62
250
  6
CONTINUOUS
 10
9.1594384445
 20
-3.9866761124
 11
9.1589357335
 21
-3.9375915065
  0
LINE
  5
5EE
100
AcDbEntity
  8
0
100
AcDbLine
 62
250
  6
CONTINUOUS
 10
7.8889203378
 20
13.348333428
 11
7.8885301518
 21
13.3940123273
  0
LINE
  5
5EF
100
AcDbEntity
  8
0
100
AcDbLine
 62
250
  6
CONTINUOUS
 10
9.1509837689
 20
4.255024
 11
9.1517628374
 21
4.1640480313
  0
LINE
  5
5F0
100
AcDbEntity
  8
0
100
AcDbLine
 62
250
  6
CONTINUOUS
 10
7.8875525316
 20
11.293095379
 11
7.8872152503
 21
11.3296350709
  0
LINE
  5
5F1
100
AcDbEntity
  8
0
100
AcDbLine
 62
250
  6
CONTINUOUS
 10
7.8334955146
 20
11.788781586
 11
7.8328199992
 21
11.8664294401
  0
LINE
  5
5F2
100
AcDbEntity
  8
0
100
AcDbLine
 62
250
  6
CONTINUOUS
 10
7.8813501401
 20
11.1568616041
 11
7.8816701739
 21
11.120221329
  0
LINE
  5
5F3
100
AcDbEntity
  8
0
100
AcDbLine
 62
250
  6
CONTINUOUS
 10
9.151068469
 20
-4.2213330331
 11
9.1525489742
 21
-4.4171904032
  0
LINE
  5
5F4
100
AcDbEntity
  8
0
100
AcDbLine
 62
250
  6
CONTINUOUS
 10
7.8231169027
 20
11.6041526593
 11
7.8236691594
 21
11.5273795758
  0
LINE
  5
5F5
100
AcDbEntity
  8
0
100
AcDbLine
 62
250
  6
CONTINUOUS
 10
7.8243998967
 20
11.6187076104
 11
7.8247585552
 21
11.5688479716
  0
LINE
  5
5F6
100
AcDbEntity
  8
0
100
AcDbLine
 62
250
  6
CONTINUOUS
 10
7.8291532383
 20
11.6726363896
 11
7.8287945798
 21
11.7224960284
  0
LINE
  5
5F7
100
AcDbEntity
  8
0
100
AcDbLine
 62
250
  6
CONTINUOUS
 10
7.8304360229
 20
11.6871913407
 11
7.8298837662
 21
11.7639644242
  0
LINE
  5
5F8
100
AcDbEntity
  8
0
100
AcDbLine
 62
250
  6
CONTINUOUS
 10
7.8197460137
 20
11.5640763936
 11
7.820279599
 21
11.4711943262
  0
LINE
  5
5F9
100
AcDbEntity
  8
0
100
AcDbLine
 62
250
  6
CONTINUOUS
 10
9.1589357335
 20
-3.9375915065
 11
9.1584283743
 21
-3.8406695016
  0
LINE
  5
5FA
100
AcDbEntity
  8
0
100
AcDbLine
 62
250
  6
CONTINUOUS
 10
7.8877586057
 20
11.2468969215
 11
7.8875525316
 21
11.293095379
  0
LINE
  5
5FB
100
AcDbEntity
  8
0
100
AcDbLine
 62
250
  6
CONTINUOUS
 10
7.8877115941
 20
13.1044879089
 11
7.8883533809
 21
12.9034894386
  0
LINE
  5
5FC
100
AcDbEntity
  8
0
100
AcDbLine
 62
250
  6
CONTINUOUS
 10
7.8339010317
 20
11.6938705347
 11
7.8334955146
 21
11.788781586
  0
LINE
  5
5FD
100
AcDbEntity
  8
0
100
AcDbLine
 62
250
  6
CONTINUOUS
 10
7.8811564748
 20
11.2061757082
 11
7.8813501401
 21
11.1568616041
  0
LINE
  5
5FE
100
AcDbEntity
  8
0
100
AcDbLine
 62
250
  6
CONTINUOUS
 10
9.1584283743
 20
-3.8406695016
 11
9.1580958612
 21
-3.6866121309
  0
LINE
  5
5FF
100
AcDbEntity
  8
0
100
AcDbLine
 62
250
  6
CONTINUOUS
 10
7.8883533809
 20
12.9034894386
 11
7.8886889156
 21
12.7180095207
  0
LINE
  5
600
100
AcDbEntity
  8
0
100
AcDbLine
 62
250
  6
CONTINUOUS
 10
9.1498786344
 20
-3.8439758624
 11
9.151068469
 21
-4.2213330331
  0
LWPOLYLINE
  5
601
100
AcDbEntity
  8
0
100
AcDbPolyline
 62
250
  6
CONTINUOUS
 90
3
 70
0
 10
7.891239019
 20
12.7180095207
 10
7.8912106442
 20
12.7418547053
 10
7.8903117087
 20
13.1044879089
  0
LINE
  5
602
100
AcDbEntity
  8
0
100
AcDbLine
 62
250
  6
CONTINUOUS
 10
7.7758987014
 20
10.432736
 11
7.7758987014
 21
14.567264
  0
LINE
  5
603
100
AcDbEntity
  8
0
100
AcDbLine
 62
250
  6
CONTINUOUS
 10
7.7933537664
 20
-2.2890208311
 11
7.7933537664
 21
-0.3890208311
  0
LINE
  5
604
100
AcDbEntity
  8
0
100
AcDbLine
 62
250
  6
CONTINUOUS
 10
7.7934695923
 20
14.567264
 11
7.7934695923
 21
10.432736
  0
LINE
  5
605
100
AcDbEntity
  8
0
100
AcDbLine
 62
250
  6
CONTINUOUS
 10
7.8196776287
 20
13.2787052741
 11
7.8196776287
 21
13.0142628749
  0
LINE
  5
606
100
AcDbEntity
  8
0
100
AcDbLine
 62
250
  6
CONTINUOUS
 10
7.8234248345
 20
13.0142628749
 11
7.8234248345
 21
12.0091515245
  0
LINE
  5
607
100
AcDbEntity
  8
0
100
AcDbLine
 62
250
  6
CONTINUOUS
 10
7.82591516
 20
12.0537697512
 11
7.82591516
 21
13.2054864389
  0
LINE
  5
608
100
AcDbEntity
  8
0
100
AcDbLine
 62
250
  6
CONTINUOUS
 10
7.8275370165
 20
-0.3890208311
 11
7.8275370165
 21
-2.2890208311
  0
LINE
  5
609
100
AcDbEntity
  8
0
100
AcDbLine
 62
250
  6
CONTINUOUS
 10
7.8640009274
 20
12.741818
 11
7.8640009274
 21
11.986057
  0
LINE
  5
60A
100
AcDbEntity
  8
0
100
AcDbLine
 62
250
  6
CONTINUOUS
 10
7.8688790495
 20
11.522946
 11
7.8688790495
 21
11.507094
  0
LINE
  5
60B
100
AcDbEntity
  8
0
100
AcDbLine
 62
250
  6
CONTINUOUS
 10
7.8688790519
 20
11.3637484973
 11
7.8688790519
 21
11.0387283195
  0
LINE
  5
60C
100
AcDbEntity
  8
0
100
AcDbLine
 62
250
  6
CONTINUOUS
 10
7.8689819838
 20
11.867743
 11
7.8689819838
 21
12.741818
  0
LINE
  5
60D
100
AcDbEntity
  8
0
100
AcDbLine
 62
250
  6
CONTINUOUS
 10
7.871118455
 20
11.163617
 11
7.871118455
 21
11.351808
  0
LINE
  5
60E
100
AcDbEntity
  8
0
100
AcDbLine
 62
250
  6
CONTINUOUS
 10
7.8753232982
 20
11.187437
 11
7.8753232982
 21
11.163617
  0
LINE
  5
60F
100
AcDbEntity
  8
0
100
AcDbLine
 62
250
  6
CONTINUOUS
 10
7.8775631046
 20
11.0387283195
 11
7.8775631046
 21
11.0614540594
  0
LINE
  5
610
100
AcDbEntity
  8
0
100
AcDbLine
 62
250
  6
CONTINUOUS
 10
7.8775629019
 20
11.2224119606
 11
7.8775629019
 21
11.3173817459
  0
LINE
  5
611
100
AcDbEntity
  8
0
100
AcDbLine
 62
250
  6
CONTINUOUS
 10
7.8775626863
 20
11.460728
 11
7.8775626863
 21
11.522946
  0
LINE
  5
612
100
AcDbEntity
  8
0
100
AcDbLine
 62
250
  6
CONTINUOUS
 10
7.8813298231
 20
13.478611
 11
7.8813298231
 21
11.440618
  0
LINE
  5
613
100
AcDbEntity
  8
0
100
AcDbLine
 62
250
  6
CONTINUOUS
 10
7.8814329695
 20
13.7942594773
 11
7.8814329695
 21
13.6223488001
  0
LINE
  5
614
100
AcDbEntity
  8
0
100
AcDbLine
 62
250
  6
CONTINUOUS
 10
7.8839234977
 20
11.4462194886
 11
7.8839234977
 21
13.1044879089
  0
LINE
  5
615
100
AcDbEntity
  8
0
100
AcDbLine
 62
250
  6
CONTINUOUS
 10
7.8839234977
 20
13.6430051984
 11
7.8839234977
 21
13.7942594773
  0
LINE
  5
616
100
AcDbEntity
  8
0
100
AcDbLine
 62
250
  6
CONTINUOUS
 10
7.8839237131
 20
13.3483450412
 11
7.8839237131
 21
13.4904306346
  0
LINE
  5
617
100
AcDbEntity
  8
0
100
AcDbLine
 62
250
  6
CONTINUOUS
 10
7.8861025072
 20
12.7180095207
 11
7.8861025072
 21
12.016393857
  0
LINE
  5
618
100
AcDbEntity
  8
0
100
AcDbLine
 62
250
  6
CONTINUOUS
 10
7.8885930435
 20
12.159121
 11
7.8885930435
 21
12.57533
  0
LINE
  5
619
100
AcDbEntity
  8
0
100
AcDbLine
 62
250
  6
CONTINUOUS
 10
7.8897349544
 20
12.57533
 11
7.8897349544
 21
12.159121
  0
LINE
  5
61A
100
AcDbEntity
  8
0
100
AcDbLine
 62
250
  6
CONTINUOUS
 10
7.8905663631
 20
13.1044879089
 11
7.8905663631
 21
13.348333428
  0
LINE
  5
61B
100
AcDbEntity
  8
0
100
AcDbLine
 62
250
  6
CONTINUOUS
 10
7.8911470149
 20
-0.5
 11
7.8911470149
 21
-2.4
  0
LINE
  5
61C
100
AcDbEntity
  8
0
100
AcDbLine
 62
250
  6
CONTINUOUS
 10
7.8922252585
 20
12.016393857
 11
7.8922252585
 21
12.7180095207
  0
LINE
  5
61D
100
AcDbEntity
  8
0
100
AcDbLine
 62
250
  6
CONTINUOUS
 10
7.9121828615
 20
-0.7714285553
 11
7.9121828615
 21
-1.0428571105
  0
LINE
  5
61E
100
AcDbEntity
  8
0
100
AcDbLine
 62
250
  6
CONTINUOUS
 10
7.9305892253
 20
-1.8571428329
 11
7.9305892253
 21
-2.1285714164
  0
LINE
  5
61F
100
AcDbEntity
  8
0
100
AcDbLine
 62
250
  6
CONTINUOUS
 10
7.9699561932
 20
9.43959
 11
7.9699561932
 21
10.928126
  0
LINE
  5
620
100
AcDbEntity
  8
0
100
AcDbLine
 62
250
  6
CONTINUOUS
 10
7.9833072841
 20
9.43959
 11
7.9833072841
 21
10.928126
  0
LWPOLYLINE
  5
621
100
AcDbEntity
  8
0
100
AcDbPolyline
 62
250
  6
CONTINUOUS
 90
18
 70
0
 10
8.0209122984
 20
13.26459
 10
8.0209333956
 20
13.7622613275
 10
8.0192670563
 20
14.2506893796
 10
8.0159767511
 20
14.7112700834
 10
8.0110897051
 20
15.1333618239
 10
8.004963003
 20
15.4861233712
 10
7.9977571719
 20
15.7639802734
 10
7.9895981516
 20
15.9589573178
 10
7.9810821023
 20
16.056808
 10
7.97239654
 20
16.0580168369
 10
7.9637235479
 20
15.9599708879
 10
7.9556968405
 20
15.7698341351
 10
7.9484675369
 20
15.4939862824
 10
7.9422123135
 20
15.1360599162
 10
7.9373882245
 20
14.7222078567
 10
7.9340589088
 20
14.2625484567
 10
7.932335914
 20
13.7657319029
 10
7.9323511791
 20
13.2645899106
  0
LWPOLYLINE
  5
622
100
AcDbEntity
  8
0
100
AcDbPolyline
 62
250
  6
CONTINUOUS
 90
18
 70
0
 10
8.0209122984
 20
8.92959
 10
8.0209333956
 20
9.4272613275
 10
8.0192670563
 20
9.9156893796
 10
8.0159767511
 20
10.3762700834
 10
8.0110897051
 20
10.7983618239
 10
8.004963003
 20
11.1511233712
 10
7.9977571719
 20
11.4289802734
 10
7.9895981516
 20
11.6239573178
 10
7.9810821023
 20
11.721808
 10
7.97239654
 20
11.7230168369
 10
7.9637235479
 20
11.6249708879
 10
7.9556968405
 20
11.4348341351
 10
7.9484675369
 20
11.1589862824
 10
7.9422123135
 20
10.8010599162
 10
7.9373882245
 20
10.3872078567
 10
7.9340589088
 20
9.9275484567
 10
7.932335914
 20
9.4307319029
 10
7.9323511791
 20
8.9295899106
  0
LINE
  5
623
100
AcDbEntity
  8
RACCORDO
100
AcDbLine
 62
7
  6
CONTINUOUS
 10
8.125
 20
-5.1001523048
 11
8.125
 21
18.5001523048
  0
LINE
  5
624
100
AcDbEntity
  8
0
100
AcDbLine
 62
7
  6
CONTINUOUS
 10
8.125
 20
-5.1001523048
 11
8.125
 21
18.5001523048
  0
LINE
  5
625
100
AcDbEntity
  8
RACCORDO
100
AcDbLine
 62
250
  6
CONTINUOUS
 10
8.4706323968
 20
-23.6278312164
 11
8.4706323968
 21
-24.495628166
  0
LINE
  5
626
100
AcDbEntity
  8
RACCORDO
100
AcDbLine
 62
250
  6
CONTINUOUS
 10
8.4706323968
 20
23.6278312164
 11
8.4706323968
 21
24.495628166
  0
LINE
  5
627
100
AcDbEntity
  8
RACCORDO
100
AcDbLine
 62
250
  6
CONTINUOUS
 10
8.720628166
 20
-24.2456323968
 11
8.720628166
 21
-23.8443375673
  0
LINE
  5
628
100
AcDbEntity
  8
RACCORDO
100
AcDbLine
 62
250
  6
CONTINUOUS
 10
8.720628166
 20
23.8443375673
 11
8.720628166
 21
24.2456323968
  0
LINE
  5
629
100
AcDbEntity
  8
RACCORDO
100
AcDbLine
 62
7
  6
CONTINUOUS
 10
8.725
 20
-22.4
 11
8.725
 21
-24.2500042308
  0
LINE
  5
62A
100
AcDbEntity
  8
RACCORDO
100
AcDbLine
 62
7
  6
CONTINUOUS
 10
8.725
 20
22.4
 11
8.725
 21
24.2500042308
  0
LINE
  5
62B
100
AcDbEntity
  8
RACCORDO
100
AcDbLine
 62
7
  6
CONTINUOUS
 10
9.0504493507
 20
17.5993978025
 11
9.0504493507
 21
-17.5993978025
  0
LINE
  5
62C
100
AcDbEntity
  8
0
100
AcDbLine
 62
7
  6
CONTINUOUS
 10
9.0504493507
 20
17.5993978025
 11
9.0504493507
 21
-17.5993978025
  0
LINE
  5
62D
100
AcDbEntity
  8
0
100
AcDbLine
 62
250
  6
CONTINUOUS
 10
9.0708698977
 20
-11.762214178
 11
9.0708698977
 21
-12.5154286073
  0
LINE
  5
62E
100
AcDbEntity
  8
0
100
AcDbLine
 62
250
  6
CONTINUOUS
 10
9.0708698977
 20
-15.5282855706
 11
9.0708698977
 21
-15.3776427853
  0
LINE
  5
62F
100
AcDbEntity
  8
0
100
AcDbLine
 62
250
  6
CONTINUOUS
 10
9.0708698977
 20
-14.3231427853
 11
9.0708698977
 21
-13.2686427853
  0
LINE
  5
630
100
AcDbEntity
  8
0
100
AcDbLine
 62
250
  6
CONTINUOUS
 10
9.0779755204
 20
-11.1596427853
 11
9.0779755204
 21
-10.105142911
  0
LINE
  5
631
100
AcDbEntity
  8
0
100
AcDbLine
 62
250
  6
CONTINUOUS
 10
9.0898182255
 20
-12.364785822
 11
9.0898182255
 21
-12.0635
  0
LINE
  5
632
100
AcDbEntity
  8
0
100
AcDbLine
 62
250
  6
CONTINUOUS
 10
9.1040294699
 20
-15.3776427853
 11
9.1040294699
 21
-15.5282855706
  0
LINE
  5
633
100
AcDbEntity
  8
0
100
AcDbLine
 62
250
  6
CONTINUOUS
 10
9.1040294699
 20
-14.0218572147
 11
9.1040294699
 21
-13.5699283559
  0
LINE
  5
634
100
AcDbEntity
  8
0
100
AcDbLine
 62
250
  6
CONTINUOUS
 10
9.1040294699
 20
-12.364785822
 11
9.1040294699
 21
-11.762214178
  0
LINE
  5
635
100
AcDbEntity
  8
0
100
AcDbLine
 62
250
  6
CONTINUOUS
 10
9.1301991642
 20
6.345182
 11
9.1301993038
 21
6.925211
  0
LINE
  5
636
100
AcDbEntity
  8
0
100
AcDbLine
 62
250
  6
CONTINUOUS
 10
9.1301991642
 20
12.010985
 11
9.1301991642
 21
11.430963
  0
LINE
  5
637
100
AcDbEntity
  8
0
100
AcDbLine
 62
250
  6
CONTINUOUS
 10
9.1301991642
 20
9.754197
 11
9.1301991642
 21
9.174176
  0
LINE
  5
638
100
AcDbEntity
  8
0
100
AcDbLine
 62
250
  6
CONTINUOUS
 10
9.1301990421
 20
-2.70079
 11
9.1301990421
 21
-3.323396
  0
LINE
  5
639
100
AcDbEntity
  8
0
100
AcDbLine
 62
250
  6
CONTINUOUS
 10
9.1301990421
 20
-7.179514
 11
9.1301990421
 21
-7.773964
  0
LINE
  5
63A
100
AcDbEntity
  8
0
100
AcDbLine
 62
250
  6
CONTINUOUS
 10
9.1301990421
 20
-9.348431
 11
9.1301990421
 21
-9.975074
  0
LINE
  5
63B
100
AcDbEntity
  8
0
100
AcDbLine
 62
250
  6
CONTINUOUS
 10
9.1301990421
 20
-13.20444
 11
9.1301990421
 21
-13.798889
  0
LINE
  5
63C
100
AcDbEntity
  8
0
100
AcDbLine
 62
250
  6
CONTINUOUS
 10
9.1301990421
 20
-15.373574
 11
9.1301990421
 21
-16.0
  0
LINE
  5
63D
100
AcDbEntity
  8
0
100
AcDbLine
 62
250
  6
CONTINUOUS
 10
9.1301990421
 20
-12.911198
 11
9.1301990421
 21
-12.027546
  0
LINE
  5
63E
100
AcDbEntity
  8
0
100
AcDbLine
 62
250
  6
CONTINUOUS
 10
9.1301990421
 20
-10.87477
 11
9.1301990421
 21
-10.292325
  0
LINE
  5
63F
100
AcDbEntity
  8
0
100
AcDbLine
 62
250
  6
CONTINUOUS
 10
9.1301990421
 20
-6.866738
 11
9.1301990421
 21
-5.171133
  0
LINE
  5
640
100
AcDbEntity
  8
0
100
AcDbLine
 62
250
  6
CONTINUOUS
 10
9.1301993038
 20
5.378474
 11
9.1301993038
 21
5.958503
  0
LINE
  5
641
100
AcDbEntity
  8
0
100
AcDbLine
 62
250
  6
CONTINUOUS
 10
9.130199426
 20
3.637619
 11
9.1301993038
 21
4.290924
  0
LINE
  5
642
100
AcDbEntity
  8
0
100
AcDbLine
 62
250
  6
CONTINUOUS
 10
9.1301993038
 20
8.207475
 11
9.1301991642
 21
8.787497
  0
LINE
  5
643
100
AcDbEntity
  8
0
100
AcDbLine
 62
250
  6
CONTINUOUS
 10
9.1301990421
 20
15.068868
 11
9.1301991642
 21
14.488824
  0
LINE
  5
644
100
AcDbEntity
  8
0
100
AcDbLine
 62
250
  6
CONTINUOUS
 10
9.1301990421
 20
13.171014
 11
9.1301991642
 21
12.590992
  0
LINE
  5
645
100
AcDbEntity
  8
0
100
AcDbLine
 62
250
  6
CONTINUOUS
 10
9.1301991642
 20
10.882587
 11
9.1301993038
 21
10.30258
  0
LINE
  5
646
100
AcDbEntity
  8
0
100
AcDbLine
 62
250
  6
CONTINUOUS
 10
9.1386086516
 20
-5.793739
 11
9.1386086516
 21
-6.866738
  0
LINE
  5
647
100
AcDbEntity
  8
0
100
AcDbLine
 62
250
  6
CONTINUOUS
 10
9.1401513839
 20
7.108317
 11
9.1401513839
 21
8.024362
  0
LINE
  5
648
100
AcDbEntity
  8
0
100
AcDbLine
 62
250
  6
CONTINUOUS
 10
9.1409243379
 20
-7.990812
 11
9.1409243379
 21
-9.139549
  0
LINE
  5
649
100
AcDbEntity
  8
0
100
AcDbLine
 62
250
  6
CONTINUOUS
 10
9.1409243379
 20
-14.015846
 11
9.1409243379
 21
-15.164584
  0
LINE
  5
64A
100
AcDbEntity
  8
0
100
AcDbLine
 62
250
  6
CONTINUOUS
 10
9.1493339475
 20
-15.007869
 11
9.1493339475
 21
-14.176491
  0
LINE
  5
64B
100
AcDbEntity
  8
0
100
AcDbLine
 62
250
  6
CONTINUOUS
 10
9.1493339475
 20
-8.982943
 11
9.1493339475
 21
-8.151456
  0
LINE
  5
64C
100
AcDbEntity
  8
0
100
AcDbLine
 62
250
  6
CONTINUOUS
 10
9.1498786344
 20
-3.8439758624
 11
9.1496862579
 21
-3.323396
  0
LINE
  5
64D
100
AcDbEntity
  8
0
100
AcDbLine
 62
250
  6
CONTINUOUS
 10
9.1497665791
 20
4.872178
 11
9.1497667013
 21
5.378409
  0
LINE
  5
64E
100
AcDbEntity
  8
0
100
AcDbLine
 62
250
  6
CONTINUOUS
 10
9.1497665791
 20
7.84744
 11
9.1497665791
 21
7.285246
  0
LINE
  5
64F
100
AcDbEntity
  8
0
100
AcDbLine
 62
250
  6
CONTINUOUS
 10
9.1580958675
 20
-3.323396
 11
9.1580958675
 21
-3.686612
  0
LINE
  5
650
100
AcDbEntity
  8
0
100
AcDbLine
 62
250
  6
CONTINUOUS
 10
9.1591288751
 20
5.386471
 11
9.1591288751
 21
4.680792
  0
LINE
  5
651
100
AcDbEntity
  8
0
100
AcDbLine
 62
250
  6
CONTINUOUS
 10
9.1714436686
 20
4.680792
 11
9.1714436686
 21
5.386478
  0
LINE
  5
652
100
AcDbEntity
  8
0
100
AcDbLine
 62
250
  6
CONTINUOUS
 10
9.1808033297
 20
-5.171133
 11
9.1808033297
 21
-5.793739
  0
LINE
  5
653
100
AcDbEntity
  8
0
100
AcDbLine
 62
250
  6
CONTINUOUS
 10
9.1808033297
 20
-10.292325
 11
9.1808033297
 21
-11.216139
  0
LINE
  5
654
100
AcDbEntity
  8
0
100
AcDbLine
 62
250
  6
CONTINUOUS
 10
9.1808033297
 20
-12.328754
 11
9.1808033297
 21
-12.911198
  0
LINE
  5
655
100
AcDbEntity
  8
0
100
AcDbLine
 62
250
  6
CONTINUOUS
 10
9.1808033297
 20
-14.991935
 11
9.1808033297
 21
-14.252884
  0
LINE
  5
656
100
AcDbEntity
  8
0
100
AcDbLine
 62
250
  6
CONTINUOUS
 10
9.1808033297
 20
-8.9669
 11
9.1808033297
 21
-8.227849
  0
LINE
  5
657
100
AcDbEntity
  8
0
100
AcDbLine
 62
250
  6
CONTINUOUS
 10
9.1808058425
 20
7.856372
 11
9.1808058425
 21
7.276321
  0
LINE
  5
658
100
AcDbEntity
  8
0
100
AcDbLine
 62
250
  6
CONTINUOUS
 10
9.1808057203
 20
9.174176
 11
9.1808057203
 21
10.051012
  0
LINE
  5
659
100
AcDbEntity
  8
0
100
AcDbLine
 62
250
  6
CONTINUOUS
 10
9.1808057203
 20
11.134148
 11
9.1808057203
 21
12.010985
  0
LINE
  5
65A
100
AcDbEntity
  8
0
100
AcDbLine
 62
250
  6
CONTINUOUS
 10
9.1808057203
 20
12.590985
 11
9.1808057203
 21
13.171006
  0
LINE
  5
65B
100
AcDbEntity
  8
0
100
AcDbLine
 62
250
  6
CONTINUOUS
 10
9.1808057203
 20
13.557685
 11
9.1808057203
 21
14.137714
  0
LINE
  5
65C
100
AcDbEntity
  8
0
100
AcDbLine
 62
250
  6
CONTINUOUS
 10
9.1808057203
 20
15.419971
 11
9.1808057203
 21
16.0
  0
LINE
  5
65D
100
AcDbEntity
  8
0
100
AcDbLine
 62
7
  6
CONTINUOUS
 10
9.225
 20
-17.6716990487
 11
9.225
 21
17.6716990487
  0
LINE
  5
65E
100
AcDbEntity
  8
RACCORDO
100
AcDbLine
 62
7
  6
CONTINUOUS
 10
9.225
 20
-21.9411874598
 11
9.225
 21
21.9411874598
  0
LWPOLYLINE
  5
65F
100
AcDbEntity
  8
0
100
AcDbPolyline
 62
250
  6
CONTINUOUS
 90
8
 70
0
 10
8.0074647655
 20
8.92959
 10
8.0077089014
 20
9.3086947743
 10
8.0065493374
 20
9.6821939578
 10
8.0040384489
 20
10.0332172606
 10
8.0002187564
 20
10.3506343253
 10
7.995385546
 20
10.6099068143
 10
7.9897052597
 20
10.804800292
 10
7.9833072852
 20
10.9281264426
  0
LWPOLYLINE
  5
660
100
AcDbEntity
  8
0
100
AcDbPolyline
 62
250
  6
CONTINUOUS
 90
18
 70
0
 10
8.0074647655
 20
13.26459
 10
8.0077361132
 20
13.6188204925
 10
8.0067525851
 20
13.9751628212
 10
8.0045386356
 20
14.3128952277
 10
8.0011847032
 20
14.6182215116
 10
7.9969104669
 20
14.8746215586
 10
7.9917410754
 20
15.0805867685
 10
7.985954475
 20
15.2227860396
 10
7.9797870454
 20
15.2954106027
 10
7.9735989309
 20
15.2961111949
 10
7.9674265407
 20
15.2248836942
 10
7.9616301784
 20
15.0839957974
 10
7.9564466222
 20
14.8792027047
 10
7.952087618
 20
14.6188701118
 10
7.9487797722
 20
14.3192080114
 10
7.9465425472
 20
13.9819795481
 10
7.9455344508
 20
13.6258627027
 10
7.9457987118
 20
13.264590033
  0
LINE
  5
661
100
AcDbEntity
  8
0
100
AcDbLine
 62
250
  6
CONTINUOUS
 10
7.8196260151
 20
11.6785484603
 11
7.8197460137
 21
11.5640763936
  0
LINE
  5
662
100
AcDbEntity
  8
0
100
AcDbLine
 62
250
  6
CONTINUOUS
 10
7.8231194544
 20
11.6879230354
 11
7.8231169027
 21
11.6041526593
  0
LINE
  5
663
100
AcDbEntity
  8
0
100
AcDbLine
 62
250
  6
CONTINUOUS
 10
7.8244015539
 20
11.6731115826
 11
7.8243998967
 21
11.6187076104
  0
LINE
  5
664
100
AcDbEntity
  8
0
100
AcDbLine
 62
250
  6
CONTINUOUS
 10
7.8291515811
 20
11.6182324174
 11
7.8291532383
 21
11.6726363896
  0
LINE
  5
665
100
AcDbEntity
  8
0
100
AcDbLine
 62
250
  6
CONTINUOUS
 10
7.8304334712
 20
11.6034209646
 11
7.8304360229
 21
11.6871913407
  0
LINE
  5
666
100
AcDbEntity
  8
0
100
AcDbLine
 62
250
  6
CONTINUOUS
 10
7.8877555174
 20
11.1977827565
 11
7.8877586057
 21
11.2468969215
  0
LINE
  5
667
100
AcDbEntity
  8
0
100
AcDbLine
 62
250
  6
CONTINUOUS
 10
9.1723937202
 20
-3.323396
 11
9.1723614468
 21
-3.7020250568
  0
LINE
  5
668
100
AcDbEntity
  8
0
100
AcDbLine
 62
250
  6
CONTINUOUS
 10
7.8811955691
 20
11.2566499866
 11
7.8811564748
 21
11.2061757082
  0
LINE
  5
669
100
AcDbEntity
  8
0
100
AcDbLine
 62
250
  6
CONTINUOUS
 10
7.819745329
 20
11.727360169
 11
7.8196260151
 21
11.6785484603
  0
LINE
  5
66A
100
AcDbEntity
  8
0
100
AcDbLine
 62
250
  6
CONTINUOUS
 10
7.8234456151
 20
13.2823668847
 11
7.8234343857
 21
13.2787052741
  0
LINE
  5
66B
100
AcDbEntity
  8
0
100
AcDbLine
 62
250
  6
CONTINUOUS
 10
9.1804017575
 20
4.3989315587
 11
9.1808058425
 21
5.958503
  0
LINE
  5
66C
100
AcDbEntity
  8
0
100
AcDbLine
 62
250
  6
CONTINUOUS
 10
7.8884270028
 20
12.0164054703
 11
7.8877914867
 21
11.8130588503
  0
LINE
  5
66D
100
AcDbEntity
  8
0
100
AcDbLine
 62
250
  6
CONTINUOUS
 10
9.1723614468
 20
-3.7020250568
 11
9.1718742199
 21
-3.8871690543
  0
LINE
  5
66E
100
AcDbEntity
  8
0
100
AcDbLine
 62
250
  6
CONTINUOUS
 10
9.1796020104
 20
-4.1872362349
 11
9.1808033297
 21
-2.70079
  0
LINE
  5
66F
100
AcDbEntity
  8
0
100
AcDbLine
 62
250
  6
CONTINUOUS
 10
7.8877914867
 20
11.8130588503
 11
7.8870825618
 21
11.6780779368
  0
LINE
  5
670
100
AcDbEntity
  8
0
100
AcDbLine
 62
250
  6
CONTINUOUS
 10
7.8894422093
 20
11.6345452119
 11
7.8909629819
 21
12.0164054703
  0
LINE
  5
671
100
AcDbEntity
  8
0
100
AcDbLine
 62
250
  6
CONTINUOUS
 10
7.8814024662
 20
11.2968676103
 11
7.8811955691
 21
11.2566499866
  0
LINE
  5
672
100
AcDbEntity
  8
0
100
AcDbLine
 62
250
  6
CONTINUOUS
 10
7.8875239176
 20
11.1490134144
 11
7.8877555174
 21
11.1977827565
  0
LINE
  5
673
100
AcDbEntity
  8
0
100
AcDbLine
 62
250
  6
CONTINUOUS
 10
9.1792118315
 20
4.2076656483
 11
9.1804017575
 21
4.3989315587
  0
LINE
  5
674
100
AcDbEntity
  8
0
100
AcDbLine
 62
250
  6
CONTINUOUS
 10
9.1781994708
 20
-4.3904669015
 11
9.1796020104
 21
-4.1872362349
  0
LINE
  5
675
100
AcDbEntity
  8
0
100
AcDbLine
 62
250
  6
CONTINUOUS
 10
9.1718742199
 20
-3.8871690543
 11
9.171405767
 21
-3.9545891942
  0
LINE
  5
676
100
AcDbEntity
  8
0
100
AcDbLine
 62
250
  6
CONTINUOUS
 10
7.8870825618
 20
11.6780779368
 11
7.8863498322
 21
11.5861900972
  0
LINE
  5
677
100
AcDbEntity
  8
0
100
AcDbLine
 62
250
  6
CONTINUOUS
 10
7.8884497033
 20
11.5112256525
 11
7.8894422093
 21
11.6345452119
  0
LINE
  5
678
100
AcDbEntity
  8
0
100
AcDbLine
 62
250
  6
CONTINUOUS
 10
7.8873326852
 20
11.1271663336
 11
7.8875239176
 21
11.1490134144
  0
LINE
  5
679
100
AcDbEntity
  8
RACCORDO
100
AcDbLine
 62
250
  6
CONTINUOUS
 10
8.4757229979
 20
-23.1226497308
 11
8.4706323968
 21
-23.6278312164
  0
LINE
  5
67A
100
AcDbEntity
  8
RACCORDO
100
AcDbLine
 62
250
  6
CONTINUOUS
 10
8.725
 20
-23.4104851482
 11
8.720628166
 21
-23.8443375673
  0
LINE
  5
67B
100
AcDbEntity
  8
0
100
AcDbLine
 62
250
  6
CONTINUOUS
 10
9.177663285
 20
4.0637084042
 11
9.1792118315
 21
4.2076656483
  0
LINE
  5
67C
100
AcDbEntity
  8
0
100
AcDbLine
 62
250
  6
CONTINUOUS
 10
9.1768925608
 20
-4.5059530338
 11
9.1781994708
 21
-4.3904669015
  0
LINE
  5
67D
100
AcDbEntity
  8
0
100
AcDbLine
 62
250
  6
CONTINUOUS
 10
9.171405767
 20
-3.9545891942
 11
9.1709503503
 21
-3.9942009963
  0
LWPOLYLINE
  5
67E
100
AcDbEntity
  8
RACCORDO
100
AcDbPolyline
 62
250
  6
CONTINUOUS
 90
58
 70
0
 10
7.7476659647
 20
-4.7228182695
 10
7.7472780869
 20
-4.7503630757
 10
7.7461315278
 20
-4.7778869729
 10
7.7442271575
 20
-4.8053690679
 10
7.7415664217
 20
-4.8327884993
 10
7.7381513401
 20
-4.8601244532
 10
7.7339845052
 20
-4.8873561791
 10
7.7290690798
 20
-4.9144630058
 10
7.7234087952
 20
-4.9414243565
 10
7.7170079482
 20
-4.9682197652
 10
7.7098713976
 20
-4.9948288918
 10
7.7020045606
 20
-5.0212315373
 10
7.6934134089
 20
-5.0474076599
 10
7.6841044639
 20
-5.0733373895
 10
7.6740847921
 20
-5.099001043
 10
7.6633619992
 20
-5.1243791393
 10
7.6519442249
 20
-5.1494524142
 10
7.6398401362
 20
-5.1742018347
 10
7.6270589213
 20
-5.1986086138
 10
7.6136102824
 20
-5.2226542245
 10
7.599504428
 20
-5.246320414
 10
7.584752066
 20
-5.2695892175
 10
7.5693643946
 20
-5.2924429717
 10
7.5533530945
 20
-5.3148643287
 10
7.5367303198
 20
-5.3368362686
 10
7.5195086887
 20
-5.3583421126
 10
7.5017012739
 20
-5.3793655359
 10
7.483321593
 20
-5.3998905798
 10
7.4643835977
 20
-5.4199016638
 10
7.4449016638
 20
-5.4393835977
 10
7.4248905798
 20
-5.458321593
 10
7.4043655359
 20
-5.4767012739
 10
7.3833421126
 20
-5.4945086887
 10
7.3618362686
 20
-5.5117303198
 10
7.3398643287
 20
-5.5283530945
 10
7.3174429717
 20
-5.5443643946
 10
7.2945892175
 20
-5.559752066
 10
7.271320414
 20
-5.574504428
 10
7.2476542245
 20
-5.5886102824
 10
7.2236086138
 20
-5.6020589213
 10
7.1992018347
 20
-5.6148401362
 10
7.1744524142
 20
-5.6269442249
 10
7.1493791393
 20
-5.6383619992
 10
7.124001043
 20
-5.6490847921
 10
7.0983373895
 20
-5.6591044639
 10
7.0724076599
 20
-5.6684134089
 10
7.0462315373
 20
-5.6770045606
 10
7.0198288918
 20
-5.6848713976
 10
6.9932197652
 20
-5.6920079482
 10
6.9664243565
 20
-5.6984087952
 10
6.9394630058
 20
-5.7040690798
 10
6.9123561791
 20
-5.7089845052
 10
6.8851244532
 20
-5.7131513401
 10
6.8577884993
 20
-5.7165664217
 10
6.8303690679
 20
-5.7192271575
 10
6.8028869729
 20
-5.7211315278
 10
6.7753630757
 20
-5.7222780869
 10
6.7478182695
 20
-5.7226659647
  0
LWPOLYLINE
  5
67F
100
AcDbEntity
  8
0
100
AcDbPolyline
 62
250
  6
CONTINUOUS
 90
58
 70
0
 10
7.7476659647
 20
-4.7228182695
 10
7.7472780869
 20
-4.7503630757
 10
7.7461315278
 20
-4.7778869729
 10
7.7442271575
 20
-4.8053690679
 10
7.7415664217
 20
-4.8327884993
 10
7.7381513401
 20
-4.8601244532
 10
7.7339845052
 20
-4.8873561791
 10
7.7290690798
 20
-4.9144630058
 10
7.7234087952
 20
-4.9414243565
 10
7.7170079482
 20
-4.9682197652
 10
7.7098713976
 20
-4.9948288918
 10
7.7020045606
 20
-5.0212315373
 10
7.6934134089
 20
-5.0474076599
 10
7.6841044639
 20
-5.0733373895
 10
7.6740847921
 20
-5.099001043
 10
7.6633619992
 20
-5.1243791393
 10
7.6519442249
 20
-5.1494524142
 10
7.6398401362
 20
-5.1742018347
 10
7.6270589213
 20
-5.1986086138
 10
7.6136102824
 20
-5.2226542245
 10
7.599504428
 20
-5.246320414
 10
7.584752066
 20
-5.2695892175
 10
7.5693643946
 20
-5.2924429717
 10
7.5533530945
 20
-5.3148643287
 10
7.5367303198
 20
-5.3368362686
 10
7.5195086887
 20
-5.3583421126
 10
7.5017012739
 20
-5.3793655359
 10
7.483321593
 20
-5.3998905798
 10
7.4643835977
 20
-5.4199016638
 10
7.4449016638
 20
-5.4393835977
 10
7.4248905798
 20
-5.458321593
 10
7.4043655359
 20
-5.4767012739
 10
7.3833421126
 20
-5.4945086887
 10
7.3618362686
 20
-5.5117303198
 10
7.3398643287
 20
-5.5283530945
 10
7.3174429717
 20
-5.5443643946
 10
7.2945892175
 20
-5.559752066
 10
7.271320414
 20
-5.574504428
 10
7.2476542245
 20
-5.5886102824
 10
7.2236086138
 20
-5.6020589213
 10
7.1992018347
 20
-5.6148401362
 10
7.1744524142
 20
-5.6269442249
 10
7.1493791393
 20
-5.6383619992
 10
7.124001043
 20
-5.6490847921
 10
7.0983373895
 20
-5.6591044639
 10
7.0724076599
 20
-5.6684134089
 10
7.0462315373
 20
-5.6770045606
 10
7.0198288918
 20
-5.6848713976
 10
6.9932197652
 20
-5.6920079482
 10
6.9664243565
 20
-5.6984087952
 10
6.9394630058
 20
-5.7040690798
 10
6.9123561791
 20
-5.7089845052
 10
6.8851244532
 20
-5.7131513401
 10
6.8577884993
 20
-5.7165664217
 10
6.8303690679
 20
-5.7192271575
 10
6.8028869729
 20
-5.7211315278
 10
6.7753630757
 20
-5.7222780869
 10
6.7478182695
 20
-5.7226659647
  0
LINE
  5
680
100
AcDbEntity
  8
0
100
AcDbLine
 62
250
  6
CONTINUOUS
 10
9.085081143
 20
-12.6660713927
 11
9.0898182255
 21
-12.364785822
  0
LINE
  5
681
100
AcDbEntity
  8
0
100
AcDbLine
 62
250
  6
CONTINUOUS
 10
9.0708698977
 20
-15.3776427853
 11
9.0756069796
 21
-15.0763572147
  0
LINE
  5
682
100
AcDbEntity
  8
0
100
AcDbLine
 62
250
  6
CONTINUOUS
 10
9.0992923884
 20
-14.3231427853
 11
9.1040294699
 21
-14.0218572147
  0
LINE
  5
683
100
AcDbEntity
  8
0
100
AcDbLine
 62
250
  6
CONTINUOUS
 10
9.1040294699
 20
-15.5282855706
 11
9.0992923884
 21
-15.8295716441
  0
LINE
  5
684
100
AcDbEntity
  8
0
100
AcDbLine
 62
250
  6
CONTINUOUS
 10
9.1760984251
 20
3.9623083266
 11
9.177663285
 21
4.0637084042
  0
LINE
  5
685
100
AcDbEntity
  8
0
100
AcDbLine
 62
250
  6
CONTINUOUS
 10
9.1756257096
 20
-4.584670781
 11
9.1768925608
 21
-4.5059530338
  0
LINE
  5
686
100
AcDbEntity
  8
0
100
AcDbLine
 62
250
  6
CONTINUOUS
 10
9.1709503503
 20
-3.9942009963
 11
9.170497485
 21
-4.0219361053
  0
LINE
  5
687
100
AcDbEntity
  8
0
100
AcDbLine
 62
250
  6
CONTINUOUS
 10
9.0992923884
 20
-12.6158570471
 11
9.1040294699
 21
-12.364785822
  0
LINE
  5
688
100
AcDbEntity
  8
0
100
AcDbLine
 62
250
  6
CONTINUOUS
 10
7.8170190937
 20
-0.9318779416
 11
7.8275370165
 21
-0.3890208311
  0
LINE
  5
689
100
AcDbEntity
  8
0
100
AcDbLine
 62
250
  6
CONTINUOUS
 10
7.9174418229
 20
-0.5
 11
7.9121828615
 21
-0.7714285553
  0
LINE
  5
68A
100
AcDbEntity
  8
0
100
AcDbLine
 62
250
  6
CONTINUOUS
 10
7.9305892253
 20
-2.1285714164
 11
7.9253302661
 21
-2.4
  0
LINE
  5
68B
100
AcDbEntity
  8
0
100
AcDbLine
 62
250
  6
CONTINUOUS
 10
9.1747582198
 20
3.8958002783
 11
9.1760984251
 21
3.9623083266
  0
LINE
  5
68C
100
AcDbEntity
  8
0
100
AcDbLine
 62
250
  6
CONTINUOUS
 10
9.170497485
 20
-4.0219361053
 11
9.1701114561
 21
-4.0401402428
  0
LINE
  5
68D
100
AcDbEntity
  8
0
100
AcDbLine
 62
250
  6
CONTINUOUS
 10
9.1745380251
 20
-4.6352720693
 11
9.1756257096
 21
-4.584670781
  0
LWPOLYLINE
  5
68E
100
AcDbEntity
  8
RACCORDO
100
AcDbPolyline
 62
7
  6
CONTINUOUS
 90
34
 70
0
 10
8.725
 20
-24.2500042308
 10
8.7247168498
 20
-24.261899516
 10
8.7238680342
 20
-24.2737678556
 10
8.7224554741
 20
-24.2855823661
 10
8.7204823677
 20
-24.2973162875
 10
8.7179531817
 20
-24.3089430388
 10
8.7148736417
 20
-24.320436279
 10
8.7112507213
 20
-24.3317699738
 10
8.7070926258
 20
-24.3429184493
 10
8.7024087722
 20
-24.3538564463
 10
8.6972097688
 20
-24.3645591876
 10
8.6915073916
 20
-24.3750024283
 10
8.6853145581
 20
-24.3851625059
 10
8.6786452955
 20
-24.3950164051
 10
8.6715147107
 20
-24.4045418038
 10
8.6639389589
 20
-24.4137171191
 10
8.6559352005
 20
-24.4225215661
 10
8.6475215661
 20
-24.4309352005
 10
8.6387171191
 20
-24.4389389589
 10
8.6295418038
 20
-24.4465147107
 10
8.6200164051
 20
-24.4536452955
 10
8.6101625059
 20
-24.4603145581
 10
8.6000024283
 20
-24.4665073916
 10
8.5895591876
 20
-24.4722097688
 10
8.5788564463
 20
-24.4774087722
 10
8.5679184493
 20
-24.4820926258
 10
8.5567699738
 20
-24.4862507213
 10
8.545436279
 20
-24.4898736417
 10
8.5339430388
 20
-24.4929531817
 10
8.5223162875
 20
-24.4954823677
 10
8.5105823661
 20
-24.4974554741
 10
8.4987678556
 20
-24.4988680342
 10
8.486899516
 20
-24.4997168498
 10
8.4750042308
 20
-24.5
  0
LWPOLYLINE
  5
68F
100
AcDbEntity
  8
RACCORDO
100
AcDbPolyline
 62
250
  6
CONTINUOUS
 90
31
 70
0
 10
8.720628166
 20
-24.2456323968
 10
8.7202851274
 20
-24.2587158828
 10
8.7192578375
 20
-24.2717635094
 10
8.717549112
 20
-24.2847395155
 10
8.715163634
 20
-24.2976083364
 10
8.7121079418
 20
-24.3103347009
 10
8.7083904104
 20
-24.3228837286
 10
8.7040212289
 20
-24.3352210249
 10
8.6990123724
 20
-24.3473127755
 10
8.6933775693
 20
-24.3591258393
 10
8.6871322634
 20
-24.3706278389
 10
8.680293572
 20
-24.3817872494
 10
8.6728802386
 20
-24.392573485
 10
8.6649125818
 20
-24.4029569826
 10
8.6564124395
 20
-24.4129092831
 10
8.647403109
 20
-24.422403109
 10
8.6379092831
 20
-24.4314124395
 10
8.6279569826
 20
-24.4399125818
 10
8.617573485
 20
-24.4478802386
 10
8.6067872494
 20
-24.455293572
 10
8.5956278389
 20
-24.4621322634
 10
8.5841258393
 20
-24.4683775693
 10
8.5723127755
 20
-24.4740123724
 10
8.5602210249
 20
-24.4790212289
 10
8.5478837286
 20
-24.4833904104
 10
8.5353347009
 20
-24.4871079418
 10
8.5226083364
 20
-24.490163634
 10
8.5097395155
 20
-24.492549112
 10
8.4967635094
 20
-24.4942578375
 10
8.4837158828
 20
-24.4952851274
 10
8.4706323968
 20
-24.495628166
  0
LINE
  5
690
100
AcDbEntity
  8
0
100
AcDbLine
 62
250
  6
CONTINUOUS
 10
9.1701114561
 20
-4.0401402428
 11
9.1696964753
 21
-4.0562543208
  0
LINE
  5
691
100
AcDbEntity
  8
0
100
AcDbLine
 62
250
  6
CONTINUOUS
 10
9.1732947772
 20
3.8384616756
 11
9.1747582198
 21
3.8958002783
  0
LINE
  5
692
100
AcDbEntity
  8
0
100
AcDbLine
 62
250
  6
CONTINUOUS
 10
9.1737564936
 20
-4.6647043821
 11
9.1745380251
 21
-4.6352720693
  0
LINE
  5
693
100
AcDbEntity
  8
0
100
AcDbLine
 62
250
  6
CONTINUOUS
 10
9.0756069796
 20
-15.0763572147
 11
9.0803440616
 21
-14.9257144294
  0
LINE
  5
694
100
AcDbEntity
  8
0
100
AcDbLine
 62
250
  6
CONTINUOUS
 10
9.0992923884
 20
-15.8295716441
 11
9.094555307
 21
-15.9802144294
  0
LINE
  5
695
100
AcDbEntity
  8
0
100
AcDbLine
 62
250
  6
CONTINUOUS
 10
9.172259577
 20
3.8057495705
 11
9.1732947772
 21
3.8384616756
  0
LINE
  5
696
100
AcDbEntity
  8
0
100
AcDbLine
 62
250
  6
CONTINUOUS
 10
9.1696964753
 20
-4.0562543208
 11
9.1691766785
 21
-4.0729664611
  0
LINE
  5
697
100
AcDbEntity
  8
0
100
AcDbLine
 62
250
  6
CONTINUOUS
 10
9.1729376553
 20
-4.6905961892
 11
9.1737564936
 21
-4.6647043821
  0
LWPOLYLINE
  5
698
100
AcDbEntity
  8
RACCORDO
100
AcDbPolyline
 62
250
  6
CONTINUOUS
 90
31
 70
0
 10
8.720628166
 20
23.8443375673
 10
8.7202496104
 20
23.833039595
 10
8.7191904828
 20
23.821769291
 10
8.7174531063
 20
23.8105574212
 10
8.7150414049
 20
23.7994336121
 10
8.7119615346
 20
23.78842936
 10
8.7082224836
 20
23.7775778202
 10
8.7038349392
 20
23.7669096972
 10
8.6988105402
 20
23.7564530239
 10
8.6931628596
 20
23.746236105
 10
8.6869071671
 20
23.7362866999
 10
8.6800605925
 20
23.7266321754
 10
8.6726419842
 20
23.7172991519
 10
8.6646716801
 20
23.7083132018
 10
8.6561713853
 20
23.6996987826
 10
8.6471642949
 20
23.6914794042
 10
8.6376749912
 20
23.6836775075
 10
8.6277294041
 20
23.6763144193
 10
8.6173547212
 20
23.6694102704
 10
8.6065792888
 20
23.6629839239
 10
8.5954325308
 20
23.6570529269
 10
8.5839448938
 20
23.6516334796
 10
8.572147737
 20
23.6467403776
 10
8.5600733006
 20
23.6423869945
 10
8.547754621
 20
23.6385852371
 10
8.5352253856
 20
23.6353454907
 10
8.5225197828
 20
23.6326765842
 10
8.509672462
 20
23.6305857918
 10
8.4967184947
 20
23.6290788219
 10
8.483693281
 20
23.6281597935
 10
8.4706323968
 20
23.6278312164
  0
LINE
  5
699
100
AcDbEntity
  8
0
100
AcDbLine
 62
250
  6
CONTINUOUS
 10
9.1301993038
 20
4.290924
 11
9.1497665791
 21
4.872178
  0
LINE
  5
69A
100
AcDbEntity
  8
0
100
AcDbLine
 62
250
  6
CONTINUOUS
 10
9.150983734
 20
4.255022
 11
9.130199426
 21
3.637619
  0
LINE
  5
69B
100
AcDbEntity
  8
0
100
AcDbLine
 62
250
  6
CONTINUOUS
 10
9.1808033297
 20
-11.216139
 11
9.1407018187
 21
-12.328754
  0
LINE
  5
69C
100
AcDbEntity
  8
0
100
AcDbLine
 62
250
  6
CONTINUOUS
 10
9.1301990421
 20
-12.027546
 11
9.1725513961
 21
-10.87477
  0
LINE
  5
69D
100
AcDbEntity
  8
0
100
AcDbLine
 62
250
  6
CONTINUOUS
 10
9.1691766785
 20
-4.0729664611
 11
9.1687888093
 21
-4.0833556651
  0
LWPOLYLINE
  5
69E
100
AcDbEntity
  8
0
100
AcDbPolyline
 62
250
  6
CONTINUOUS
 90
16
 70
0
 10
9.1687888093
 20
-4.0833556651
 10
9.1683908046
 20
-4.0923141379
 10
9.1681883565
 20
-4.0962409458
 10
9.1679695986
 20
-4.1000267408
 10
9.1677486738
 20
-4.103400823
 10
9.1675258245
 20
-4.1063821336
 10
9.1673012929
 20
-4.1089896139
 10
9.1670753214
 20
-4.1112422052
 10
9.1668481523
 20
-4.1131588488
 10
9.1666200279
 20
-4.1147584859
 10
9.1663911905
 20
-4.1160600579
 10
9.1661618825
 20
-4.1170825061
 10
9.1659323461
 20
-4.1178447717
 10
9.1657028237
 20
-4.118365796
 10
9.1654735576
 20
-4.1186645203
 10
9.16524479
 20
-4.1187598859
  0
LINE
  5
69F
100
AcDbEntity
  8
0
100
AcDbLine
 62
250
  6
CONTINUOUS
 10
9.1301990421
 20
-9.975074
 11
9.1808033297
 21
-8.9669
  0
LINE
  5
6A0
100
AcDbEntity
  8
0
100
AcDbLine
 62
250
  6
CONTINUOUS
 10
9.1409243379
 20
-9.139549
 11
9.1301990421
 21
-9.348431
  0
LINE
  5
6A1
100
AcDbEntity
  8
0
100
AcDbLine
 62
250
  6
CONTINUOUS
 10
9.1808057203
 20
16.0
 11
9.1301990421
 21
15.068868
  0
LINE
  5
6A2
100
AcDbEntity
  8
0
100
AcDbLine
 62
250
  6
CONTINUOUS
 10
9.1459603702
 20
14.778839
 11
9.1808057203
 21
15.419971
  0
LINE
  5
6A3
100
AcDbEntity
  8
0
100
AcDbLine
 62
250
  6
CONTINUOUS
 10
9.1301993038
 20
6.925211
 11
9.1401513839
 21
7.108317
  0
LINE
  5
6A4
100
AcDbEntity
  8
0
100
AcDbLine
 62
250
  6
CONTINUOUS
 10
9.1497665791
 20
7.285246
 11
9.1650445143
 21
7.56635
  0
LINE
  5
6A5
100
AcDbEntity
  8
0
100
AcDbLine
 62
250
  6
CONTINUOUS
 10
9.1808058425
 20
7.276321
 11
9.1301991642
 21
6.345182
  0
LINE
  5
6A6
100
AcDbEntity
  8
0
100
AcDbLine
 62
250
  6
CONTINUOUS
 10
9.1711333772
 20
-8.581471
 11
9.1493339475
 21
-8.982943
  0
LINE
  5
6A7
100
AcDbEntity
  8
0
100
AcDbLine
 62
250
  6
CONTINUOUS
 10
9.1635707958
 20
11.430963
 11
9.1301991642
 21
10.882587
  0
LINE
  5
6A8
100
AcDbEntity
  8
0
100
AcDbLine
 62
250
  6
CONTINUOUS
 10
9.1478489216
 20
10.59258
 11
9.1808057203
 21
11.134148
  0
LINE
  5
6A9
100
AcDbEntity
  8
RACCORDO
100
AcDbLine
 62
7
  6
CONTINUOUS
 10
-8.4820215015
 20
-19.7570215015
 11
-8.425
 21
-19.7
  0
LINE
  5
6AA
100
AcDbEntity
  8
DRAFT
100
AcDbLine
 62
7
  6
CONTINUOUS
 10
-9.4105298181
 20
-20.85
 11
-9.325
 21
-20.7644701819
  0
LINE
  5
6AB
100
AcDbEntity
  8
0
100
AcDbLine
 62
7
  6
CONTINUOUS
 10
-9.4105298181
 20
-20.85
 11
-9.325
 21
-20.7644701819
  0
LINE
  5
6AC
100
AcDbEntity
  8
RACCORDO
100
AcDbLine
 62
250
  6
CONTINUOUS
 10
-12.570628166
 20
-24.2456323968
 11
-12.575
 21
-24.2500042308
  0
LINE
  5
6AD
100
AcDbEntity
  8
0
100
AcDbLine
 62
7
  6
CONTINUOUS
 10
9.1301990421
 20
-2.7676644122
 11
9.1808033297
 21
-2.7170601245
  0
LINE
  5
6AE
100
AcDbEntity
  8
DRAFT
100
AcDbLine
 62
7
  6
CONTINUOUS
 10
-7.675
 20
-19.7
 11
-7.5859791689
 21
-19.6109791689
  0
LINE
  5
6AF
100
AcDbEntity
  8
0
100
AcDbLine
 62
7
  6
CONTINUOUS
 10
-7.675
 20
-19.7
 11
-7.5859791689
 21
-19.6109791689
  0
LINE
  5
6B0
100
AcDbEntity
  8
RACCORDO
100
AcDbLine
 62
250
  6
CONTINUOUS
 10
-12.3206323968
 20
-24.495628166
 11
-12.3250042308
 21
-24.5
  0
LINE
  5
6B1
100
AcDbEntity
  8
DRAFT
100
AcDbLine
 62
7
  6
CONTINUOUS
 10
-7.675
 20
-19.9
 11
-7.5859791689
 21
-19.8109791689
  0
LINE
  5
6B2
100
AcDbEntity
  8
0
100
AcDbLine
 62
7
  6
CONTINUOUS
 10
-7.675
 20
-19.9
 11
-7.5859791689
 21
-19.8109791689
  0
LINE
  5
6B3
100
AcDbEntity
  8
0
100
AcDbLine
 62
7
  6
CONTINUOUS
 10
9.1301990421
 20
-3.1876858402
 11
9.1808033285
 21
-3.1370815537
  0
LINE
  5
6B4
100
AcDbEntity
  8
0
100
AcDbLine
 62
7
  6
CONTINUOUS
 10
9.1723937202
 20
-3.5655125901
 11
9.1808033274
 21
-3.5571029829
  0
LINE
  5
6B5
100
AcDbEntity
  8
0
100
AcDbLine
 62
7
  6
CONTINUOUS
 10
9.1496862528
 20
-3.5882200575
 11
9.158095863
 21
-3.5798104472
  0
LINE
  5
6B6
100
AcDbEntity
  8
0
100
AcDbLine
 62
7
  6
CONTINUOUS
 10
9.1502013045
 20
-4.0077264338
 11
9.1596072259
 21
-3.9983205124
  0
LINE
  5
6B7
100
AcDbEntity
  8
0
100
AcDbLine
 62
7
  6
CONTINUOUS
 10
9.1710481867
 20
-3.9868795515
 11
9.1803564833
 21
-3.977571255
  0
LINE
  5
6B8
100
AcDbEntity
  8
0
100
AcDbLine
 62
7
  6
CONTINUOUS
 10
9.1526400178
 20
-4.4253091485
 11
9.1780992314
 21
-4.3998499349
  0
LWPOLYLINE
  5
6B9
100
AcDbEntity
  8
0
100
AcDbPolyline
 62
250
  6
CONTINUOUS
 90
16
 70
0
 10
9.16524479
 20
-4.7815268003
 10
9.1657763119
 20
-4.7812181196
 10
9.1663078824
 20
-4.7802622694
 10
9.1668390885
 20
-4.7786145378
 10
9.1673695175
 20
-4.776230213
 10
9.1678987564
 20
-4.7730645828
 10
9.1684263923
 20
-4.7690729355
 10
9.1689520124
 20
-4.7642105591
 10
9.1694105764
 20
-4.7591991139
 10
9.1698666567
 20
-4.753457933
 10
9.1703196348
 20
-4.7469602571
 10
9.1707688921
 20
-4.7396793271
 10
9.17121381
 20
-4.7315883841
 10
9.1716537698
 20
-4.7226606687
 10
9.1720881529
 20
-4.7128694219
 10
9.1729376553
 20
-4.6905961892
  0
LINE
  5
6BA
100
AcDbEntity
  8
0
100
AcDbLine
 62
250
  6
CONTINUOUS
 10
-11.7550661819
 20
7.9
 11
-11.7725212468
 21
7.9
  0
LINE
  5
6BB
100
AcDbEntity
  8
0
100
AcDbLine
 62
250
  6
CONTINUOUS
 10
-11.8161589092
 20
7.9
 11
-11.8336139741
 21
7.9
  0
LINE
  5
6BC
100
AcDbEntity
  8
0
100
AcDbLine
 62
250
  6
CONTINUOUS
 10
-12.9353594806
 20
8.3714285059
 11
-12.958051065
 21
8.3714285059
  0
LINE
  5
6BD
100
AcDbEntity
  8
0
100
AcDbLine
 62
250
  6
CONTINUOUS
 10
7.9457987118
 20
8.92959
 11
7.9323511789
 21
8.92959
  0
LINE
  5
6BE
100
AcDbEntity
  8
0
100
AcDbLine
 62
250
  6
CONTINUOUS
 10
8.0209122984
 20
8.92959
 11
8.0074647655
 21
8.92959
  0
LINE
  5
6BF
100
AcDbEntity
  8
0
100
AcDbLine
 62
250
  6
CONTINUOUS
 10
-12.9353594806
 20
9.0929285059
 11
-12.958051065
 21
9.0929285059
  0
LINE
  5
6C0
100
AcDbEntity
  8
0
100
AcDbLine
 62
250
  6
CONTINUOUS
 10
9.1301991642
 20
9.174176
 11
9.1808057203
 21
9.174176
  0
LINE
  5
6C1
100
AcDbEntity
  8
0
100
AcDbLine
 62
250
  6
CONTINUOUS
 10
7.9833072841
 20
9.43959
 11
7.9699561932
 21
9.43959
  0
LINE
  5
6C2
100
AcDbEntity
  8
RACCORDO
100
AcDbLine
 62
7
  6
CONTINUOUS
 10
-8.4820215015
 20
19.7570215015
 11
-8.425
 21
19.7
  0
LINE
  5
6C3
100
AcDbEntity
  8
DRAFT
100
AcDbLine
 62
7
  6
CONTINUOUS
 10
-9.4105298181
 20
20.85
 11
-9.325
 21
20.7644701819
  0
LINE
  5
6C4
100
AcDbEntity
  8
0
100
AcDbLine
 62
7
  6
CONTINUOUS
 10
-9.4105298181
 20
20.85
 11
-9.325
 21
20.7644701819
  0
LINE
  5
6C5
100
AcDbEntity
  8
RACCORDO
100
AcDbLine
 62
250
  6
CONTINUOUS
 10
-12.570628166
 20
24.2456323968
 11
-12.575
 21
24.2500042308
  0
LINE
  5
6C6
100
AcDbEntity
  8
DRAFT
100
AcDbLine
 62
7
  6
CONTINUOUS
 10
-7.675
 20
19.7
 11
-7.5859791689
 21
19.6109791689
  0
LINE
  5
6C7
100
AcDbEntity
  8
0
100
AcDbLine
 62
7
  6
CONTINUOUS
 10
-7.675
 20
19.7
 11
-7.5859791689
 21
19.6109791689
  0
LINE
  5
6C8
100
AcDbEntity
  8
RACCORDO
100
AcDbLine
 62
250
  6
CONTINUOUS
 10
-12.3206323968
 20
24.495628166
 11
-12.3250042308
 21
24.5
  0
LINE
  5
6C9
100
AcDbEntity
  8
DRAFT
100
AcDbLine
 62
7
  6
CONTINUOUS
 10
-7.5859791689
 20
19.8109791689
 11
-7.675
 21
19.9
  0
LINE
  5
6CA
100
AcDbEntity
  8
0
100
AcDbLine
 62
7
  6
CONTINUOUS
 10
-7.5859791689
 20
19.8109791689
 11
-7.675
 21
19.9
  0
LINE
  5
6CB
100
AcDbEntity
  8
0
100
AcDbLine
 62
250
  6
CONTINUOUS
 10
9.1301993038
 20
10.30258
 11
9.1635707958
 21
9.754205
  0
LINE
  5
6CC
100
AcDbEntity
  8
0
100
AcDbLine
 62
250
  6
CONTINUOUS
 10
9.1808057203
 20
10.051012
 11
9.1478489216
 21
10.59258
  0
LINE
  5
6CD
100
AcDbEntity
  8
0
100
AcDbLine
 62
250
  6
CONTINUOUS
 10
9.1301991642
 20
14.488824
 11
9.1808057203
 21
13.557685
  0
LINE
  5
6CE
100
AcDbEntity
  8
0
100
AcDbLine
 62
250
  6
CONTINUOUS
 10
9.1808057203
 20
14.137714
 11
9.1459603702
 21
14.778839
  0
LINE
  5
6CF
100
AcDbEntity
  8
0
100
AcDbLine
 62
250
  6
CONTINUOUS
 10
9.1301990421
 20
-16.0
 11
9.1808033297
 21
-14.991935
  0
LINE
  5
6D0
100
AcDbEntity
  8
0
100
AcDbLine
 62
250
  6
CONTINUOUS
 10
9.1409243379
 20
-15.164584
 11
9.1301990421
 21
-15.373574
  0
LINE
  5
6D1
100
AcDbEntity
  8
0
100
AcDbLine
 62
250
  6
CONTINUOUS
 10
9.1711305154
 20
-14.606449
 11
9.1493339475
 21
-15.007869
  0
LINE
  5
6D2
100
AcDbEntity
  8
ASSI
100
AcDbLine
 62
7
  6
CONTINUOUS
 10
-6.1859530912
 20
-23.6221414657
 11
-6.1594035537
 21
-23.5917914252
  0
LINE
  5
6D3
100
AcDbEntity
  8
ASSI
100
AcDbLine
 62
7
  6
CONTINUOUS
 10
-6.1594035537
 20
-23.5917914252
 11
-6.1290449926
 21
-23.5576149814
  0
LINE
  5
6D4
100
AcDbEntity
  8
ASSI
100
AcDbLine
 62
7
  6
CONTINUOUS
 10
-6.1290449926
 20
-23.5576149814
 11
-6.0948677157
 21
-23.5196167203
  0
LINE
  5
6D5
100
AcDbEntity
  8
ASSI
100
AcDbLine
 62
7
  6
CONTINUOUS
 10
-6.0948677157
 20
-23.5196167203
 11
-6.0365702427
 21
-23.4555289435
  0
LINE
  5
6D6
100
AcDbEntity
  8
ASSI
100
AcDbLine
 62
7
  6
CONTINUOUS
 10
-6.0365702427
 20
-23.4555289435
 11
-5.8529699877
 21
-23.2563578147
  0
LINE
  5
6D7
100
AcDbEntity
  8
0
100
AcDbLine
 62
7
  6
CONTINUOUS
 10
9.1301990421
 20
-5.2877929803
 11
9.1808033297
 21
-5.2371886926
  0
LINE
  5
6D8
100
AcDbEntity
  8
0
100
AcDbLine
 62
7
  6
CONTINUOUS
 10
9.1301990421
 20
-5.7078144083
 11
9.1808033297
 21
-5.6572101207
  0
LINE
  5
6D9
100
AcDbEntity
  8
0
100
AcDbLine
 62
7
  6
CONTINUOUS
 10
9.1301990421
 20
-6.1278358364
 11
9.1386086516
 21
-6.1194262268
  0
LINE
  5
6DA
100
AcDbEntity
  8
0
100
AcDbLine
 62
7
  6
CONTINUOUS
 10
9.1301990421
 20
-6.5478572644
 11
9.1386086516
 21
-6.5394476548
  0
LINE
  5
6DB
100
AcDbEntity
  8
RACCORDO
100
AcDbLine
 62
250
  6
CONTINUOUS
 10
-13.075
 20
-17.6716990487
 11
-12.9004493507
 21
-17.5993978025
  0
LINE
  5
6DC
100
AcDbEntity
  8
0
100
AcDbLine
 62
250
  6
CONTINUOUS
 10
-13.075
 20
-17.6716990487
 11
-12.9004493507
 21
-17.5993978025
  0
LWPOLYLINE
  5
6DD
100
AcDbEntity
  8
0
100
AcDbPolyline
 62
250
  6
CONTINUOUS
 90
14
 70
0
 10
7.8267764601
 20
12.0566955723
 10
7.8267100823
 20
12.0566782248
 10
7.8266436949
 20
12.056626194
 10
7.826577306
 20
12.0565394973
 10
7.8265109241
 20
12.0564181522
 10
7.8264445573
 20
12.0562621762
 10
7.8263782139
 20
12.0560715867
 10
7.8263119022
 20
12.0558464012
 10
7.8262456304
 20
12.0555866373
 10
7.8261794068
 20
12.0552923122
 10
7.8261132397
 20
12.0549634437
 10
7.8260471374
 20
12.054600049
 10
7.825981108
 20
12.0542021457
 10
7.82591516
 20
12.0537697512
  0
LINE
  5
6DE
100
AcDbEntity
  8
0
100
AcDbLine
 62
250
  6
CONTINUOUS
 10
9.1635707958
 20
9.754205
 11
9.1301991642
 21
9.754197
  0
LINE
  5
6DF
100
AcDbEntity
  8
0
100
AcDbLine
 62
250
  6
CONTINUOUS
 10
7.8969711684
 20
9.9697090822
 11
7.8998107871
 21
9.9697090822
  0
LINE
  5
6E0
100
AcDbEntity
  8
0
100
AcDbLine
 62
250
  6
CONTINUOUS
 10
7.7934695923
 20
10.432736
 11
7.7758987014
 21
10.432736
  0
LINE
  5
6E1
100
AcDbEntity
  8
0
100
AcDbLine
 62
250
  6
CONTINUOUS
 10
-12.958051065
 20
10.9138570118
 11
-12.9353594806
 21
10.9138570118
  0
LINE
  5
6E2
100
AcDbEntity
  8
0
100
AcDbLine
 62
250
  6
CONTINUOUS
 10
7.8688790519
 20
11.0387283195
 11
7.8775631046
 21
11.0387283195
  0
LINE
  5
6E3
100
AcDbEntity
  8
0
100
AcDbLine
 62
250
  6
CONTINUOUS
 10
7.8753232982
 20
11.163617
 11
7.871118455
 21
11.163617
  0
LINE
  5
6E4
100
AcDbEntity
  8
0
100
AcDbLine
 62
250
  6
CONTINUOUS
 10
9.1301991642
 20
11.430963
 11
9.1635707958
 21
11.430963
  0
LINE
  5
6E5
100
AcDbEntity
  8
0
100
AcDbLine
 62
250
  6
CONTINUOUS
 10
-11.8336139741
 20
11.5
 11
-11.7550661819
 21
11.5
  0
LINE
  5
6E6
100
AcDbEntity
  8
0
100
AcDbLine
 62
250
  6
CONTINUOUS
 10
7.8775626863
 20
11.522946
 11
7.8722257055
 21
11.522946
  0
LINE
  5
6E7
100
AcDbEntity
  8
0
100
AcDbLine
 62
250
  6
CONTINUOUS
 10
7.8693593048
 20
11.522946
 11
7.8688790495
 21
11.522946
  0
LINE
  5
6E8
100
AcDbEntity
  8
RACCORDO
100
AcDbLine
 62
250
  6
CONTINUOUS
 10
-12.9004493507
 20
17.5993978025
 11
-13.075
 21
17.6716990487
  0
LINE
  5
6E9
100
AcDbEntity
  8
0
100
AcDbLine
 62
250
  6
CONTINUOUS
 10
-12.9004493507
 20
17.5993978025
 11
-13.075
 21
17.6716990487
  0
LINE
  5
6EA
100
AcDbEntity
  8
ASSI
100
AcDbLine
 62
7
  6
CONTINUOUS
 10
-5.8529699877
 20
23.2563578147
 11
-5.9480434203
 21
23.3591857006
  0
LINE
  5
6EB
100
AcDbEntity
  8
ASSI
100
AcDbLine
 62
7
  6
CONTINUOUS
 10
-5.9480434203
 20
23.3591857006
 11
-6.0366667144
 21
23.4556350132
  0
LINE
  5
6EC
100
AcDbEntity
  8
ASSI
100
AcDbLine
 62
7
  6
CONTINUOUS
 10
-6.0366667144
 20
23.4556350132
 11
-6.0950092035
 21
23.5197730418
  0
LINE
  5
6ED
100
AcDbEntity
  8
ASSI
100
AcDbLine
 62
7
  6
CONTINUOUS
 10
-6.0950092035
 20
23.5197730418
 11
-6.1292293299
 21
23.5578207413
  0
LINE
  5
6EE
100
AcDbEntity
  8
ASSI
100
AcDbLine
 62
7
  6
CONTINUOUS
 10
-6.1292293299
 20
23.5578207413
 11
-6.1596214988
 21
23.5920385457
  0
LWPOLYLINE
  5
6EF
100
AcDbEntity
  8
ASSI
100
AcDbPolyline
 62
7
  6
CONTINUOUS
 90
18
 70
0
 10
-6.1596214988
 20
23.5920385457
 10
-6.186184351
 20
23.6224079992
 10
-6.1980977873
 20
23.6362381892
 10
-6.20912319
 20
23.6491881602
 10
-6.219271948
 20
23.6612588713
 10
-6.2285883497
 20
23.6725244939
 10
-6.2370752357
 20
23.6829815422
 10
-6.244752274
 20
23.692633502
 10
-6.2516728146
 20
23.7015650018
 10
-6.2578521255
 20
23.7097961262
 10
-6.2632798184
 20
23.7173067906
 10
-6.2679611755
 20
23.7241213695
 10
-6.2719056421
 20
23.7302356312
 10
-6.2751212873
 20
23.7356538073
 10
-6.2776164863
 20
23.7404129678
 10
-6.279405432
 20
23.7445254691
 10
-6.2805052012
 20
23.7479789548
 10
-6.2809327327
 20
23.7507734247
  0
LINE
  5
6F0
100
AcDbEntity
  8
0
100
AcDbLine
 62
250
  6
CONTINUOUS
 10
7.8813298231
 20
11.440618
 11
7.8775626863
 21
11.460728
  0
LINE
  5
6F1
100
AcDbEntity
  8
0
100
AcDbLine
 62
250
  6
CONTINUOUS
 10
7.871118455
 20
11.351808
 11
7.8725359744
 21
11.344233
  0
LINE
  5
6F2
100
AcDbEntity
  8
0
100
AcDbLine
 62
250
  6
CONTINUOUS
 10
7.8775629019
 20
11.3173817459
 11
7.8814024662
 21
11.2968676103
  0
LINE
  5
6F3
100
AcDbEntity
  8
0
100
AcDbLine
 62
250
  6
CONTINUOUS
 10
7.8363801466
 20
11.5373002763
 11
7.8688790519
 21
11.3637484973
  0
LINE
  5
6F4
100
AcDbEntity
  8
0
100
AcDbLine
 62
250
  6
CONTINUOUS
 10
7.8361053635
 20
11.6820975708
 11
7.8339010317
 21
11.6938705347
  0
LINE
  5
6F5
100
AcDbEntity
  8
0
100
AcDbLine
 62
250
  6
CONTINUOUS
 10
7.8688790495
 20
11.507094
 11
7.8387789365
 21
11.667827
  0
LINE
  5
6F6
100
AcDbEntity
  8
DRAFT
100
AcDbLine
 62
7
  6
CONTINUOUS
 10
6.3215127091
 20
-20.9104703804
 11
6.325
 21
-20.9
  0
LINE
  5
6F7
100
AcDbEntity
  8
0
100
AcDbLine
 62
7
  6
CONTINUOUS
 10
9.1301990421
 20
-7.3879001204
 11
9.139794869
 21
-7.3783042935
  0
LINE
  5
6F8
100
AcDbEntity
  8
0
100
AcDbLine
 62
7
  6
CONTINUOUS
 10
9.1317994265
 20
-7.806321164
 11
9.1591361423
 21
-7.7789844482
  0
LINE
  5
6F9
100
AcDbEntity
  8
0
100
AcDbLine
 62
7
  6
CONTINUOUS
 10
9.1521011067
 20
-8.2060409119
 11
9.1784774157
 21
-8.1796646028
  0
LINE
  5
6FA
100
AcDbEntity
  8
0
100
AcDbLine
 62
7
  6
CONTINUOUS
 10
9.1409243379
 20
-8.2172176806
 11
9.1493339475
 21
-8.208808071
  0
LINE
  5
6FB
100
AcDbEntity
  8
ASSI
100
AcDbLine
 62
7
  6
CONTINUOUS
 10
-6.325
 20
-23.8
 11
-6.2813493531
 21
-23.7563493531
  0
LINE
  5
6FC
100
AcDbEntity
  8
0
100
AcDbLine
 62
7
  6
CONTINUOUS
 10
9.1696658676
 20
-8.608497579
 11
9.1808033297
 21
-8.5973601168
  0
LINE
  5
6FD
100
AcDbEntity
  8
0
100
AcDbLine
 62
7
  6
CONTINUOUS
 10
9.1409243379
 20
-8.6372391086
 11
9.1493339475
 21
-8.6288294991
  0
LINE
  5
6FE
100
AcDbEntity
  8
0
100
AcDbLine
 62
7
  6
CONTINUOUS
 10
9.1409243379
 20
-9.0572605367
 11
9.1781355526
 21
-9.020049322
  0
LINE
  5
6FF
100
AcDbEntity
  8
0
100
AcDbLine
 62
7
  6
CONTINUOUS
 10
9.1301990421
 20
-9.4880072606
 11
9.1559388551
 21
-9.4622674475
  0
LINE
  5
700
100
AcDbEntity
  8
RACCORDO
100
AcDbLine
 62
250
  6
CONTINUOUS
 10
-12.4893027805
 20
-19.0856972195
 11
-12.3147521312
 21
-19.0133959733
  0
LINE
  5
701
100
AcDbEntity
  8
0
100
AcDbLine
 62
250
  6
CONTINUOUS
 10
-12.4893027805
 20
-19.0856972195
 11
-12.3147521312
 21
-19.0133959733
  0
LINE
  5
702
100
AcDbEntity
  8
0
100
AcDbLine
 62
250
  6
CONTINUOUS
 10
7.8861025072
 20
12.016393857
 11
7.8884270028
 21
12.0164054703
  0
LINE
  5
703
100
AcDbEntity
  8
0
100
AcDbLine
 62
250
  6
CONTINUOUS
 10
7.8661023193
 20
11.867743
 11
7.8689819838
 21
11.867743
  0
LINE
  5
704
100
AcDbEntity
  8
0
100
AcDbLine
 62
250
  6
CONTINUOUS
 10
-12.958051065
 20
11.9789285059
 11
-12.9353594806
 21
11.9789285059
  0
LINE
  5
705
100
AcDbEntity
  8
0
100
AcDbLine
 62
250
  6
CONTINUOUS
 10
9.1808057203
 20
12.010985
 11
9.1301991642
 21
12.010985
  0
LINE
  5
706
100
AcDbEntity
  8
0
100
AcDbLine
 62
250
  6
CONTINUOUS
 10
7.8897349544
 20
12.159121
 11
7.8885930435
 21
12.159121
  0
LINE
  5
707
100
AcDbEntity
  8
0
100
AcDbLine
 62
250
  6
CONTINUOUS
 10
7.8885930435
 20
12.57533
 11
7.8897349544
 21
12.57533
  0
LINE
  5
708
100
AcDbEntity
  8
0
100
AcDbLine
 62
250
  6
CONTINUOUS
 10
7.8886889156
 20
12.7180095207
 11
7.8861025072
 21
12.7180095207
  0
LINE
  5
709
100
AcDbEntity
  8
0
100
AcDbLine
 62
250
  6
CONTINUOUS
 10
7.8922252585
 20
12.7180095207
 11
7.891239019
 21
12.7180095207
  0
LINE
  5
70A
100
AcDbEntity
  8
0
100
AcDbLine
 62
250
  6
CONTINUOUS
 10
7.8689819838
 20
12.741818
 11
7.8640009274
 21
12.741818
  0
LINE
  5
70B
100
AcDbEntity
  8
0
100
AcDbLine
 62
250
  6
CONTINUOUS
 10
7.8196776287
 20
13.0142628749
 11
7.8234248345
 21
13.0142628749
  0
LINE
  5
70C
100
AcDbEntity
  8
0
100
AcDbLine
 62
250
  6
CONTINUOUS
 10
7.8839234977
 20
13.1044879089
 11
7.8877115941
 21
13.1044879089
  0
LINE
  5
70D
100
AcDbEntity
  8
0
100
AcDbLine
 62
250
  6
CONTINUOUS
 10
7.8903117087
 20
13.1044879089
 11
7.8905663631
 21
13.1044879089
  0
LINE
  5
70E
100
AcDbEntity
  8
0
100
AcDbLine
 62
250
  6
CONTINUOUS
 10
7.9457987118
 20
13.26459
 11
7.9323511789
 21
13.26459
  0
LINE
  5
70F
100
AcDbEntity
  8
0
100
AcDbLine
 62
250
  6
CONTINUOUS
 10
8.0209122984
 20
13.26459
 11
8.0074647655
 21
13.26459
  0
LINE
  5
710
100
AcDbEntity
  8
0
100
AcDbLine
 62
250
  6
CONTINUOUS
 10
7.8234343857
 20
13.2787052741
 11
7.8196776287
 21
13.2787052741
  0
LINE
  5
711
100
AcDbEntity
  8
0
100
AcDbLine
 62
250
  6
CONTINUOUS
 10
7.8905663631
 20
13.348333428
 11
7.8889203378
 21
13.348333428
  0
LINE
  5
712
100
AcDbEntity
  8
0
100
AcDbLine
 62
250
  6
CONTINUOUS
 10
7.8861898875
 20
13.3483450412
 11
7.8839237131
 21
13.3483450412
  0
LINE
  5
713
100
AcDbEntity
  8
0
100
AcDbLine
 62
250
  6
CONTINUOUS
 10
9.1301991642
 20
12.590992
 11
9.1808057203
 21
12.590985
  0
LINE
  5
714
100
AcDbEntity
  8
0
100
AcDbLine
 62
250
  6
CONTINUOUS
 10
9.1808057203
 20
13.171006
 11
9.1301990421
 21
13.171014
  0
LINE
  5
715
100
AcDbEntity
  8
0
100
AcDbLine
 62
250
  6
CONTINUOUS
 10
7.8909629819
 20
12.0164054703
 11
7.8922252585
 21
12.016393857
  0
LINE
  5
716
100
AcDbEntity
  8
RACCORDO
100
AcDbLine
 62
250
  6
CONTINUOUS
 10
-12.3147521312
 20
19.0133959733
 11
-12.4893027805
 21
19.0856972195
  0
LINE
  5
717
100
AcDbEntity
  8
0
100
AcDbLine
 62
250
  6
CONTINUOUS
 10
-12.3147521312
 20
19.0133959733
 11
-12.4893027805
 21
19.0856972195
  0
LINE
  5
718
100
AcDbEntity
  8
ASSI
100
AcDbLine
 62
7
  6
CONTINUOUS
 10
-6.325
 20
23.8
 11
-6.2813493531
 21
23.7563493531
  0
LINE
  5
719
100
AcDbEntity
  8
DRAFT
100
AcDbLine
 62
7
  6
CONTINUOUS
 10
6.3215127091
 20
20.9104703804
 11
6.325
 21
20.9
  0
LINE
  5
71A
100
AcDbEntity
  8
0
100
AcDbLine
 62
7
  6
CONTINUOUS
 10
9.1301990421
 20
-9.9080286886
 11
9.1337421577
 21
-9.9044855729
  0
LINE
  5
71B
100
AcDbEntity
  8
0
100
AcDbLine
 62
7
  6
CONTINUOUS
 10
9.1301990421
 20
-10.3280501166
 11
9.1659241587
 21
-10.292325
  0
LINE
  5
71C
100
AcDbEntity
  8
0
100
AcDbLine
 62
7
  6
CONTINUOUS
 10
9.1301990421
 20
-10.7480715446
 11
9.1808033297
 21
-10.697467257
  0
LINE
  5
71D
100
AcDbEntity
  8
0
100
AcDbLine
 62
7
  6
CONTINUOUS
 10
9.1629791967
 20
-11.135312818
 11
9.1808033297
 21
-11.117488685
  0
LINE
  5
71E
100
AcDbEntity
  8
0
100
AcDbLine
 62
7
  6
CONTINUOUS
 10
9.1469592783
 20
-11.5713541644
 11
9.1687871944
 21
-11.5495262483
  0
LINE
  5
71F
100
AcDbEntity
  8
0
100
AcDbLine
 62
7
  6
CONTINUOUS
 10
9.1309393599
 20
-12.0073955109
 11
9.1530825025
 21
-11.9852523683
  0
LINE
  5
720
100
AcDbEntity
  8
0
100
AcDbLine
 62
7
  6
CONTINUOUS
 10
9.1301990421
 20
-12.4281572567
 11
9.1808033297
 21
-12.3775529691
  0
LINE
  5
721
100
AcDbEntity
  8
0
100
AcDbLine
 62
250
  6
CONTINUOUS
 10
-11.7061533492
 20
13.5
 11
-11.7133498242
 21
13.5
  0
LINE
  5
722
100
AcDbEntity
  8
0
100
AcDbLine
 62
250
  6
CONTINUOUS
 10
-11.8100496364
 20
13.5
 11
-11.851069039
 21
13.5
  0
LINE
  5
723
100
AcDbEntity
  8
0
100
AcDbLine
 62
250
  6
CONTINUOUS
 10
-11.737611117
 20
13.5
 11
-11.7786305196
 21
13.5
  0
LINE
  5
724
100
AcDbEntity
  8
0
100
AcDbLine
 62
250
  6
CONTINUOUS
 10
7.8839234977
 20
13.7942594773
 11
7.8814329695
 21
13.7942594773
  0
LINE
  5
725
100
AcDbEntity
  8
0
100
AcDbLine
 62
250
  6
CONTINUOUS
 10
-12.9353594806
 20
14.0403574705
 11
-12.958051065
 21
14.0403574705
  0
LINE
  5
726
100
AcDbEntity
  8
0
100
AcDbLine
 62
250
  6
CONTINUOUS
 10
7.7758987014
 20
14.567264
 11
7.7934695923
 21
14.567264
  0
LINE
  5
727
100
AcDbEntity
  8
0
100
AcDbLine
 62
250
  6
CONTINUOUS
 10
-11.7043542316
 20
14.8
 11
-11.711550705
 21
14.8
  0
LINE
  5
728
100
AcDbEntity
  8
0
100
AcDbLine
 62
250
  6
CONTINUOUS
 10
-11.7223454153
 20
14.8
 11
-11.7367383637
 21
14.8
  0
LINE
  5
729
100
AcDbEntity
  8
0
100
AcDbLine
 62
250
  6
CONTINUOUS
 10
-11.8733317269
 20
14.8
 11
-11.8877246754
 21
14.8
  0
LINE
  5
72A
100
AcDbEntity
  8
0
100
AcDbLine
 62
250
  6
CONTINUOUS
 10
7.8994764416
 20
14.9701405
 11
7.896638267
 21
14.9701405
  0
LINE
  5
72B
100
AcDbEntity
  8
DRAFT
100
AcDbLine
 62
7
  6
CONTINUOUS
 10
5.3168217019
 20
-20.9959955457
 11
5.3738376746
 21
-20.9104703804
  0
LINE
  5
72C
100
AcDbEntity
  8
ASSI
100
AcDbLine
 62
7
  6
CONTINUOUS
 10
1.6691505693
 20
-23.623107111
 11
1.69568447
 21
-23.5927575937
  0
LINE
  5
72D
100
AcDbEntity
  8
ASSI
100
AcDbLine
 62
7
  6
CONTINUOUS
 10
1.69568447
 20
-23.5927575937
 11
1.7260546648
 21
-23.5585549825
  0
LINE
  5
72E
100
AcDbEntity
  8
ASSI
100
AcDbLine
 62
7
  6
CONTINUOUS
 10
1.7260546648
 20
-23.5585549825
 11
1.760280314
 21
-23.5204927224
  0
LWPOLYLINE
  5
72F
100
AcDbEntity
  8
ASSI
100
AcDbPolyline
 62
7
  6
CONTINUOUS
 90
3
 70
0
 10
1.760280314
 20
-23.5204927224
 10
1.8187315094
 20
-23.456226527
 10
1.8400407643
 20
-23.4329296911
  0
LINE
  5
730
100
AcDbEntity
  8
0
100
AcDbLine
 62
7
  6
CONTINUOUS
 10
9.1301990421
 20
-12.8481786848
 11
9.1808033297
 21
-12.7975743971
  0
LINE
  5
731
100
AcDbEntity
  8
0
100
AcDbLine
 62
7
  6
CONTINUOUS
 10
9.1301990421
 20
-13.2682001128
 11
9.1331347958
 21
-13.2652643591
  0
LINE
  5
732
100
AcDbEntity
  8
0
100
AcDbLine
 62
7
  6
CONTINUOUS
 10
9.1301990421
 20
-13.6882215408
 11
9.1524741509
 21
-13.6659464319
  0
LINE
  5
733
100
AcDbEntity
  8
0
100
AcDbLine
 62
7
  6
CONTINUOUS
 10
9.1409243379
 20
-14.0975176729
 11
9.1718135061
 21
-14.0666285048
  0
LINE
  5
734
100
AcDbEntity
  8
0
100
AcDbLine
 62
7
  6
CONTINUOUS
 10
9.1653833203
 20
-14.4930801186
 11
9.1808033297
 21
-14.4776601092
  0
LINE
  5
735
100
AcDbEntity
  8
0
100
AcDbLine
 62
7
  6
CONTINUOUS
 10
9.1409243379
 20
-14.517539101
 11
9.1493339475
 21
-14.5091294914
  0
LINE
  5
736
100
AcDbEntity
  8
0
100
AcDbLine
 62
7
  6
CONTINUOUS
 10
9.1538536474
 20
-14.9246312195
 11
9.1808033297
 21
-14.8976815372
  0
LINE
  5
737
100
AcDbEntity
  8
0
100
AcDbLine
 62
7
  6
CONTINUOUS
 10
9.1409243379
 20
-14.937560529
 11
9.1493339475
 21
-14.9291509194
  0
LINE
  5
738
100
AcDbEntity
  8
0
100
AcDbLine
 62
250
  6
CONTINUOUS
 10
-12.9483261008
 20
15.380285059
 11
-12.9353594806
 21
15.380285059
  0
LINE
  5
739
100
AcDbEntity
  8
0
100
AcDbLine
 62
250
  6
CONTINUOUS
 10
-11.8100496364
 20
15.5
 11
-11.7995765975
 21
15.5
  0
LINE
  5
73A
100
AcDbEntity
  8
0
100
AcDbLine
 62
250
  6
CONTINUOUS
 10
-11.7891035585
 20
15.5
 11
-11.7786305196
 21
15.5
  0
LINE
  5
73B
100
AcDbEntity
  8
0
100
AcDbLine
 62
250
  6
CONTINUOUS
 10
-11.7687621737
 20
15.5
 11
-11.7777577663
 21
15.5
  0
LINE
  5
73C
100
AcDbEntity
  8
0
100
AcDbLine
 62
250
  6
CONTINUOUS
 10
-11.8109373499
 20
15.5
 11
-11.8235311807
 21
15.5
  0
LINE
  5
73D
100
AcDbEntity
  8
0
100
AcDbLine
 62
250
  6
CONTINUOUS
 10
-11.8307276542
 20
15.5
 11
-11.8397232468
 21
15.5
  0
LINE
  5
73E
100
AcDbEntity
  8
0
100
AcDbLine
 62
250
  6
CONTINUOUS
 10
-11.8145355881
 20
16.8
 11
-11.819932944
 21
16.8
  0
LINE
  5
73F
100
AcDbEntity
  8
ASSI
100
AcDbLine
 62
7
  6
CONTINUOUS
 10
1.8399351585
 20
23.4330451413
 11
1.7786988569
 21
23.5001465147
  0
LINE
  5
740
100
AcDbEntity
  8
ASSI
100
AcDbLine
 62
7
  6
CONTINUOUS
 10
1.7786988569
 20
23.5001465147
 11
1.7425126788
 21
23.5402068228
  0
LINE
  5
741
100
AcDbEntity
  8
ASSI
100
AcDbLine
 62
7
  6
CONTINUOUS
 10
1.7425126788
 20
23.5402068228
 11
1.7101782774
 21
23.5763715137
  0
LWPOLYLINE
  5
742
100
AcDbEntity
  8
ASSI
100
AcDbPolyline
 62
7
  6
CONTINUOUS
 90
19
 70
0
 10
1.7101782774
 20
23.5763715137
 10
1.6817089698
 20
23.6086779017
 10
1.6689110457
 20
23.6233833596
 10
1.6570146366
 20
23.637204436
 10
1.6460123303
 20
23.6501397805
 10
1.6358917472
 20
23.6621907435
 10
1.6266059276
 20
23.6734345977
 10
1.6181516162
 20
23.6838693892
 10
1.6105105725
 20
23.6934970717
 10
1.6036302672
 20
23.7024007789
 10
1.5974956417
 20
23.7106007946
 10
1.5921179781
 20
23.7180768349
 10
1.587493414
 20
23.7248511814
 10
1.5836126205
 20
23.7309188156
 10
1.5804672686
 20
23.736284756
 10
1.5780490489
 20
23.74098634
 10
1.5763434198
 20
23.7450360132
 10
1.575332847
 20
23.74842133
 10
1.575
 20
23.7511422903
  0
LINE
  5
743
100
AcDbEntity
  8
DRAFT
100
AcDbLine
 62
7
  6
CONTINUOUS
 10
5.3168217019
 20
20.9959955457
 11
5.3738376746
 21
20.9104703804
  0
LWPOLYLINE
  5
744
100
AcDbEntity
  8
ASSI
100
AcDbPolyline
 62
7
  6
CONTINUOUS
 90
3
 70
0
 10
1.8400407643
 20
-23.4329296911
 10
1.93120115
 20
-23.3339713061
 10
2.0029699877
 20
-23.2563578147
  0
LINE
  5
745
100
AcDbEntity
  8
0
100
AcDbLine
 62
7
  6
CONTINUOUS
 10
9.1304839512
 20
-15.3680223438
 11
9.1635856459
 21
-15.3349206491
  0
LINE
  5
746
100
AcDbEntity
  8
0
100
AcDbLine
 62
7
  6
CONTINUOUS
 10
9.1301990421
 20
-15.7883286809
 11
9.1413864215
 21
-15.7771413014
  0
LINE
  5
747
100
AcDbEntity
  8
RACCORDO
100
AcDbLine
 62
7
  6
CONTINUOUS
 10
5.3179784985
 20
-19.7570215015
 11
5.375
 21
-19.7
  0
LINE
  5
748
100
AcDbEntity
  8
DRAFT
100
AcDbLine
 62
7
  6
CONTINUOUS
 10
5.475
 20
-19.7
 11
5.5640208311
 21
-19.6109791689
  0
LINE
  5
749
100
AcDbEntity
  8
0
100
AcDbLine
 62
7
  6
CONTINUOUS
 10
5.475
 20
-19.7
 11
5.5640208311
 21
-19.6109791689
  0
LINE
  5
74A
100
AcDbEntity
  8
DRAFT
100
AcDbLine
 62
7
  6
CONTINUOUS
 10
5.475
 20
-20.7644701819
 11
5.5640208311
 21
-20.6754493507
  0
LINE
  5
74B
100
AcDbEntity
  8
0
100
AcDbLine
 62
7
  6
CONTINUOUS
 10
5.475
 20
-20.7644701819
 11
5.5640208311
 21
-20.6754493507
  0
LINE
  5
74C
100
AcDbEntity
  8
RACCORDO
100
AcDbLine
 62
250
  6
CONTINUOUS
 10
7.7476659647
 20
18.1228182695
 11
-11.5976659647
 21
18.1228182695
  0
LINE
  5
74D
100
AcDbEntity
  8
0
100
AcDbLine
 62
250
  6
CONTINUOUS
 10
7.7476659647
 20
18.1228182695
 11
-11.5976659647
 21
18.1228182695
  0
LINE
  5
74E
100
AcDbEntity
  8
RACCORDO
100
AcDbLine
 62
7
  6
CONTINUOUS
 10
5.3179784985
 20
19.7570215015
 11
5.375
 21
19.7
  0
LINE
  5
74F
100
AcDbEntity
  8
DRAFT
100
AcDbLine
 62
7
  6
CONTINUOUS
 10
5.475
 20
19.7
 11
5.5640208311
 21
19.6109791689
  0
LINE
  5
750
100
AcDbEntity
  8
0
100
AcDbLine
 62
7
  6
CONTINUOUS
 10
5.475
 20
19.7
 11
5.5640208311
 21
19.6109791689
  0
LINE
  5
751
100
AcDbEntity
  8
DRAFT
100
AcDbLine
 62
7
  6
CONTINUOUS
 10
5.475
 20
20.7644701819
 11
5.5640208311
 21
20.6754493507
  0
LINE
  5
752
100
AcDbEntity
  8
0
100
AcDbLine
 62
7
  6
CONTINUOUS
 10
5.475
 20
20.7644701819
 11
5.5640208311
 21
20.6754493507
  0
LINE
  5
753
100
AcDbEntity
  8
ASSI
100
AcDbLine
 62
7
  6
CONTINUOUS
 10
2.0029699877
 20
23.2563578147
 11
1.9075813664
 21
23.3595269016
  0
LINE
  5
754
100
AcDbEntity
  8
ASSI
100
AcDbLine
 62
7
  6
CONTINUOUS
 10
1.9075813664
 20
23.3595269016
 11
1.8399351585
 21
23.4330451413
  0
LINE
  5
755
100
AcDbEntity
  8
0
100
AcDbLine
 62
7
  6
CONTINUOUS
 10
6.9748860669
 20
-20.9
 11
7.725
 21
-20.1489710538
  0
LINE
  5
756
100
AcDbEntity
  8
RACCORDO
100
AcDbLine
 62
7
  6
CONTINUOUS
 10
8.4647521312
 20
-19.0133959733
 11
6.8026987537
 21
-20.6754493507
  0
LINE
  5
757
100
AcDbEntity
  8
0
100
AcDbLine
 62
7
  6
CONTINUOUS
 10
8.4647521312
 20
-19.0133959733
 11
6.8026987537
 21
-20.6754493507
  0
LINE
  5
758
100
AcDbEntity
  8
RACCORDO
100
AcDbLine
 62
7
  6
CONTINUOUS
 10
5.3337268678
 20
-22.3912731322
 11
6.325
 21
-21.4
  0
LINE
  5
759
100
AcDbEntity
  8
RACCORDO
100
AcDbLine
 62
7
  6
CONTINUOUS
 10
6.875
 20
-20.85
 11
8.6393027805
 21
-19.0856972195
  0
LINE
  5
75A
100
AcDbEntity
  8
0
100
AcDbLine
 62
7
  6
CONTINUOUS
 10
6.875
 20
-20.85
 11
8.6393027805
 21
-19.0856972195
  0
LINE
  5
75B
100
AcDbEntity
  8
RACCORDO
100
AcDbLine
 62
250
  6
CONTINUOUS
 10
6.7478182695
 20
19.1226659647
 11
-10.5978182695
 21
19.1226659647
  0
LINE
  5
75C
100
AcDbEntity
  8
0
100
AcDbLine
 62
250
  6
CONTINUOUS
 10
6.7478182695
 20
19.1226659647
 11
-10.5978182695
 21
19.1226659647
  0
LINE
  5
75D
100
AcDbEntity
  8
RACCORDO
100
AcDbLine
 62
7
  6
CONTINUOUS
 10
7.1251523048
 20
19.5
 11
-10.9751523048
 21
19.5
  0
LINE
  5
75E
100
AcDbEntity
  8
0
100
AcDbLine
 62
7
  6
CONTINUOUS
 10
7.1251523048
 20
19.5
 11
-10.9751523048
 21
19.5
  0
LINE
  5
75F
100
AcDbEntity
  8
DRAFT
100
AcDbLine
 62
7
  6
CONTINUOUS
 10
5.5640208311
 20
19.6109791689
 11
3.7359791689
 21
19.6109791689
  0
LINE
  5
760
100
AcDbEntity
  8
0
100
AcDbLine
 62
7
  6
CONTINUOUS
 10
5.5640208311
 20
19.6109791689
 11
3.7359791689
 21
19.6109791689
  0
LINE
  5
761
100
AcDbEntity
  8
DRAFT
100
AcDbLine
 62
7
  6
CONTINUOUS
 10
-7.5859791689
 20
19.6109791689
 11
-9.4140208311
 21
19.6109791689
  0
LINE
  5
762
100
AcDbEntity
  8
0
100
AcDbLine
 62
7
  6
CONTINUOUS
 10
-7.5859791689
 20
19.6109791689
 11
-9.4140208311
 21
19.6109791689
  0
LINE
  5
763
100
AcDbEntity
  8
DRAFT
100
AcDbLine
 62
7
  6
CONTINUOUS
 10
-9.325
 20
19.7
 11
-7.675
 21
19.7
  0
LINE
  5
764
100
AcDbEntity
  8
0
100
AcDbLine
 62
7
  6
CONTINUOUS
 10
-9.325
 20
19.7
 11
-7.675
 21
19.7
  0
LINE
  5
765
100
AcDbEntity
  8
DRAFT
100
AcDbLine
 62
7
  6
CONTINUOUS
 10
3.825
 20
19.7
 11
5.475
 21
19.7
  0
LINE
  5
766
100
AcDbEntity
  8
0
100
AcDbLine
 62
7
  6
CONTINUOUS
 10
3.825
 20
19.7
 11
5.475
 21
19.7
  0
LINE
  5
767
100
AcDbEntity
  8
RACCORDO
100
AcDbLine
 62
250
  6
CONTINUOUS
 10
-9.1679784985
 20
19.7570215015
 11
-8.4820215015
 21
19.7570215015
  0
LINE
  5
768
100
AcDbEntity
  8
RACCORDO
100
AcDbLine
 62
250
  6
CONTINUOUS
 10
4.6320215015
 20
19.7570215015
 11
5.3179784985
 21
19.7570215015
  0
LINE
  5
769
100
AcDbEntity
  8
DRAFT
100
AcDbLine
 62
7
  6
CONTINUOUS
 10
3.7359791689
 20
19.8109791689
 11
-7.5859791689
 21
19.8109791689
  0
LINE
  5
76A
100
AcDbEntity
  8
0
100
AcDbLine
 62
7
  6
CONTINUOUS
 10
3.7359791689
 20
19.8109791689
 11
-7.5859791689
 21
19.8109791689
  0
LINE
  5
76B
100
AcDbEntity
  8
RACCORDO
100
AcDbLine
 62
7
  6
CONTINUOUS
 10
-4.325
 20
19.8843869511
 11
0.475
 21
19.8843869511
  0
LINE
  5
76C
100
AcDbEntity
  8
0
100
AcDbLine
 62
7
  6
CONTINUOUS
 10
-4.325
 20
19.8843869511
 11
0.475
 21
19.8843869511
  0
LINE
  5
76D
100
AcDbEntity
  8
0
100
AcDbLine
 62
7
  6
CONTINUOUS
 10
-7.675
 20
19.9
 11
-5.3182016106
 21
19.9
  0
LINE
  5
76E
100
AcDbEntity
  8
RACCORDO
100
AcDbLine
 62
7
  6
CONTINUOUS
 10
-7.675
 20
19.9
 11
-5.3182016106
 21
19.9
  0
LINE
  5
76F
100
AcDbEntity
  8
RACCORDO
100
AcDbLine
 62
7
  6
CONTINUOUS
 10
1.4682016106
 20
19.9
 11
3.825
 21
19.9
  0
LINE
  5
770
100
AcDbEntity
  8
0
100
AcDbLine
 62
7
  6
CONTINUOUS
 10
1.4682016106
 20
19.9
 11
3.825
 21
19.9
  0
LINE
  5
771
100
AcDbEntity
  8
RACCORDO
100
AcDbLine
 62
250
  6
CONTINUOUS
 10
-8.3761048448
 20
19.9266562329
 11
-5.325
 21
19.9266562329
  0
LINE
  5
772
100
AcDbEntity
  8
RACCORDO
100
AcDbLine
 62
250
  6
CONTINUOUS
 10
1.475
 20
19.9266562329
 11
4.5261048448
 21
19.9266562329
  0
LINE
  5
773
100
AcDbEntity
  8
RACCORDO
100
AcDbLine
 62
250
  6
CONTINUOUS
 10
-9.1668217019
 20
19.9570181168
 11
-8.4831782981
 21
19.9570181168
  0
LINE
  5
774
100
AcDbEntity
  8
RACCORDO
100
AcDbLine
 62
250
  6
CONTINUOUS
 10
4.6331782981
 20
19.9570181168
 11
5.3168217019
 21
19.9570181168
  0
LINE
  5
775
100
AcDbEntity
  8
RACCORDO
100
AcDbLine
 62
250
  6
CONTINUOUS
 10
-9.325
 20
19.959088481
 11
-9.2767786853
 21
19.959088481
  0
LINE
  5
776
100
AcDbEntity
  8
RACCORDO
100
AcDbLine
 62
250
  6
CONTINUOUS
 10
5.4267786853
 20
19.959088481
 11
5.475
 21
19.959088481
  0
LINE
  5
777
100
AcDbEntity
  8
DRAFT
100
AcDbLine
 62
7
  6
CONTINUOUS
 10
1.575
 20
20.0
 11
1.475
 21
20.0
  0
LINE
  5
778
100
AcDbEntity
  8
DRAFT
100
AcDbLine
 62
7
  6
CONTINUOUS
 10
-5.325
 20
20.0
 11
-5.425
 21
20.0
  0
LINE
  5
779
100
AcDbEntity
  8
DRAFT
100
AcDbLine
 62
7
  6
CONTINUOUS
 10
-4.425
 20
20.0532338935
 11
-4.3663111231
 21
20.0532338935
  0
LINE
  5
77A
100
AcDbEntity
  8
DRAFT
100
AcDbLine
 62
7
  6
CONTINUOUS
 10
0.5163111231
 20
20.0532338935
 11
0.575
 21
20.0532338935
  0
LINE
  5
77B
100
AcDbEntity
  8
RACCORDO
100
AcDbLine
 62
250
  6
CONTINUOUS
 10
-8.480294768
 20
20.0829433217
 11
4.630294768
 21
20.0829433217
  0
LINE
  5
77C
100
AcDbEntity
  8
RACCORDO
100
AcDbLine
 62
250
  6
CONTINUOUS
 10
-9.325
 20
20.4584032484
 11
-9.2740220113
 21
20.4584032484
  0
LINE
  5
77D
100
AcDbEntity
  8
RACCORDO
100
AcDbLine
 62
250
  6
CONTINUOUS
 10
5.4240220113
 20
20.4584032484
 11
5.475
 21
20.4584032484
  0
LINE
  5
77E
100
AcDbEntity
  8
RACCORDO
100
AcDbLine
 62
250
  6
CONTINUOUS
 10
-8.4831782981
 20
20.5829242832
 11
4.6331782981
 21
20.5829242832
  0
LINE
  5
77F
100
AcDbEntity
  8
DRAFT
100
AcDbLine
 62
7
  6
CONTINUOUS
 10
6.8026987537
 20
20.6754493507
 11
5.5640208311
 21
20.6754493507
  0
LINE
  5
780
100
AcDbEntity
  8
0
100
AcDbLine
 62
7
  6
CONTINUOUS
 10
6.8026987537
 20
20.6754493507
 11
5.5640208311
 21
20.6754493507
  0
LINE
  5
781
100
AcDbEntity
  8
DRAFT
100
AcDbLine
 62
7
  6
CONTINUOUS
 10
-9.4140208311
 20
20.6754493507
 11
-10.6526987537
 21
20.6754493507
  0
LINE
  5
782
100
AcDbEntity
  8
0
100
AcDbLine
 62
7
  6
CONTINUOUS
 10
-9.4140208311
 20
20.6754493507
 11
-10.6526987537
 21
20.6754493507
  0
LINE
  5
783
100
AcDbEntity
  8
DRAFT
100
AcDbLine
 62
7
  6
CONTINUOUS
 10
6.875
 20
20.85
 11
5.5605298181
 21
20.85
  0
LINE
  5
784
100
AcDbEntity
  8
0
100
AcDbLine
 62
7
  6
CONTINUOUS
 10
6.875
 20
20.85
 11
5.5605298181
 21
20.85
  0
LINE
  5
785
100
AcDbEntity
  8
DRAFT
100
AcDbLine
 62
7
  6
CONTINUOUS
 10
-9.4105298181
 20
20.85
 11
-10.725
 21
20.85
  0
LINE
  5
786
100
AcDbEntity
  8
0
100
AcDbLine
 62
7
  6
CONTINUOUS
 10
-9.4105298181
 20
20.85
 11
-10.725
 21
20.85
  0
LINE
  5
787
100
AcDbEntity
  8
0
100
AcDbLine
 62
7
  6
CONTINUOUS
 10
6.9748860669
 20
20.9
 11
6.325
 21
20.9
  0
LINE
  5
788
100
AcDbEntity
  8
0
100
AcDbLine
 62
7
  6
CONTINUOUS
 10
-10.175
 20
20.9
 11
-10.8248860669
 21
20.9
  0
LINE
  5
789
100
AcDbEntity
  8
DRAFT
100
AcDbLine
 62
7
  6
CONTINUOUS
 10
6.3215127091
 20
20.9104703804
 11
5.3738376746
 21
20.9104703804
  0
LINE
  5
78A
100
AcDbEntity
  8
DRAFT
100
AcDbLine
 62
7
  6
CONTINUOUS
 10
-9.2238376746
 20
20.9104703804
 11
-10.1715127091
 21
20.9104703804
  0
LWPOLYLINE
  5
78B
100
AcDbEntity
  8
RACCORDO
100
AcDbPolyline
 62
250
  6
CONTINUOUS
 90
58
 70
0
 10
6.7478182695
 20
19.1226659647
 10
6.7753630757
 20
19.1222780869
 10
6.8028869729
 20
19.1211315278
 10
6.8303690679
 20
19.1192271575
 10
6.8577884993
 20
19.1165664217
 10
6.8851244532
 20
19.1131513401
 10
6.9123561791
 20
19.1089845052
 10
6.9394630058
 20
19.1040690798
 10
6.9664243565
 20
19.0984087952
 10
6.9932197652
 20
19.0920079482
 10
7.0198288918
 20
19.0848713976
 10
7.0462315373
 20
19.0770045606
 10
7.0724076599
 20
19.0684134089
 10
7.0983373895
 20
19.0591044639
 10
7.124001043
 20
19.0490847921
 10
7.1493791393
 20
19.0383619992
 10
7.1744524142
 20
19.0269442249
 10
7.1992018347
 20
19.0148401362
 10
7.2236086138
 20
19.0020589213
 10
7.2476542245
 20
18.9886102824
 10
7.271320414
 20
18.974504428
 10
7.2945892175
 20
18.959752066
 10
7.3174429717
 20
18.9443643946
 10
7.3398643287
 20
18.9283530945
 10
7.3618362686
 20
18.9117303198
 10
7.3833421126
 20
18.8945086887
 10
7.4043655359
 20
18.8767012739
 10
7.4248905798
 20
18.858321593
 10
7.4449016638
 20
18.8393835977
 10
7.4643835977
 20
18.8199016638
 10
7.483321593
 20
18.7998905798
 10
7.5017012739
 20
18.7793655359
 10
7.5195086887
 20
18.7583421126
 10
7.5367303198
 20
18.7368362686
 10
7.5533530945
 20
18.7148643287
 10
7.5693643946
 20
18.6924429717
 10
7.584752066
 20
18.6695892175
 10
7.599504428
 20
18.646320414
 10
7.6136102824
 20
18.6226542245
 10
7.6270589213
 20
18.5986086138
 10
7.6398401362
 20
18.5742018347
 10
7.6519442249
 20
18.5494524142
 10
7.6633619992
 20
18.5243791393
 10
7.6740847921
 20
18.499001043
 10
7.6841044639
 20
18.4733373895
 10
7.6934134089
 20
18.4474076599
 10
7.7020045606
 20
18.4212315373
 10
7.7098713976
 20
18.3948288918
 10
7.7170079482
 20
18.3682197652
 10
7.7234087952
 20
18.3414243565
 10
7.7290690798
 20
18.3144630058
 10
7.7339845052
 20
18.2873561791
 10
7.7381513401
 20
18.2601244532
 10
7.7415664217
 20
18.2327884993
 10
7.7442271575
 20
18.2053690679
 10
7.7461315278
 20
18.1778869729
 10
7.7472780869
 20
18.1503630757
 10
7.7476659647
 20
18.1228182695
  0
LWPOLYLINE
  5
78C
100
AcDbEntity
  8
0
100
AcDbPolyline
 62
250
  6
CONTINUOUS
 90
58
 70
0
 10
6.7478182695
 20
19.1226659647
 10
6.7753630757
 20
19.1222780869
 10
6.8028869729
 20
19.1211315278
 10
6.8303690679
 20
19.1192271575
 10
6.8577884993
 20
19.1165664217
 10
6.8851244532
 20
19.1131513401
 10
6.9123561791
 20
19.1089845052
 10
6.9394630058
 20
19.1040690798
 10
6.9664243565
 20
19.0984087952
 10
6.9932197652
 20
19.0920079482
 10
7.0198288918
 20
19.0848713976
 10
7.0462315373
 20
19.0770045606
 10
7.0724076599
 20
19.0684134089
 10
7.0983373895
 20
19.0591044639
 10
7.124001043
 20
19.0490847921
 10
7.1493791393
 20
19.0383619992
 10
7.1744524142
 20
19.0269442249
 10
7.1992018347
 20
19.0148401362
 10
7.2236086138
 20
19.0020589213
 10
7.2476542245
 20
18.9886102824
 10
7.271320414
 20
18.974504428
 10
7.2945892175
 20
18.959752066
 10
7.3174429717
 20
18.9443643946
 10
7.3398643287
 20
18.9283530945
 10
7.3618362686
 20
18.9117303198
 10
7.3833421126
 20
18.8945086887
 10
7.4043655359
 20
18.8767012739
 10
7.4248905798
 20
18.858321593
 10
7.4449016638
 20
18.8393835977
 10
7.4643835977
 20
18.8199016638
 10
7.483321593
 20
18.7998905798
 10
7.5017012739
 20
18.7793655359
 10
7.5195086887
 20
18.7583421126
 10
7.5367303198
 20
18.7368362686
 10
7.5533530945
 20
18.7148643287
 10
7.5693643946
 20
18.6924429717
 10
7.584752066
 20
18.6695892175
 10
7.599504428
 20
18.646320414
 10
7.6136102824
 20
18.6226542245
 10
7.6270589213
 20
18.5986086138
 10
7.6398401362
 20
18.5742018347
 10
7.6519442249
 20
18.5494524142
 10
7.6633619992
 20
18.5243791393
 10
7.6740847921
 20
18.499001043
 10
7.6841044639
 20
18.4733373895
 10
7.6934134089
 20
18.4474076599
 10
7.7020045606
 20
18.4212315373
 10
7.7098713976
 20
18.3948288918
 10
7.7170079482
 20
18.3682197652
 10
7.7234087952
 20
18.3414243565
 10
7.7290690798
 20
18.3144630058
 10
7.7339845052
 20
18.2873561791
 10
7.7381513401
 20
18.2601244532
 10
7.7415664217
 20
18.2327884993
 10
7.7442271575
 20
18.2053690679
 10
7.7461315278
 20
18.1778869729
 10
7.7472780869
 20
18.1503630757
 10
7.7476659647
 20
18.1228182695
  0
LINE
  5
78D
100
AcDbEntity
  8
RACCORDO
100
AcDbLine
 62
7
  6
CONTINUOUS
 10
6.8026987537
 20
20.6754493507
 11
8.4647521312
 21
19.0133959733
  0
LINE
  5
78E
100
AcDbEntity
  8
0
100
AcDbLine
 62
7
  6
CONTINUOUS
 10
6.8026987537
 20
20.6754493507
 11
8.4647521312
 21
19.0133959733
  0
LINE
  5
78F
100
AcDbEntity
  8
RACCORDO
100
AcDbLine
 62
7
  6
CONTINUOUS
 10
8.6393027805
 20
19.0856972195
 11
6.875
 21
20.85
  0
LINE
  5
790
100
AcDbEntity
  8
0
100
AcDbLine
 62
7
  6
CONTINUOUS
 10
8.6393027805
 20
19.0856972195
 11
6.875
 21
20.85
  0
LINE
  5
791
100
AcDbEntity
  8
RACCORDO
100
AcDbLine
 62
7
  6
CONTINUOUS
 10
6.325
 20
21.4
 11
5.3337268678
 21
22.3912731322
  0
LINE
  5
792
100
AcDbEntity
  8
0
100
AcDbLine
 62
7
  6
CONTINUOUS
 10
6.9748860669
 20
20.9
 11
7.725
 21
20.1489710538
  0
LINE
  5
793
100
AcDbEntity
  8
RACCORDO
100
AcDbLine
 62
250
  6
CONTINUOUS
 10
6.329371834
 20
-24.2456323968
 11
6.325
 21
-24.2500042308
  0
LINE
  5
794
100
AcDbEntity
  8
RACCORDO
100
AcDbLine
 62
250
  6
CONTINUOUS
 10
6.5793676032
 20
-24.495628166
 11
6.5749957692
 21
-24.5
  0
LINE
  5
795
100
AcDbEntity
  8
RACCORDO
100
AcDbLine
 62
7
  6
CONTINUOUS
 10
6.1590245667
 20
-20.9917082642
 11
6.3215127091
 21
-20.9104703804
  0
LINE
  5
796
100
AcDbEntity
  8
RACCORDO
100
AcDbLine
 62
7
  6
CONTINUOUS
 10
5.6591007192
 20
20.9959955457
 11
5.3168217019
 21
20.9959955457
  0
LINE
  5
797
100
AcDbEntity
  8
RACCORDO
100
AcDbLine
 62
7
  6
CONTINUOUS
 10
-9.1668217019
 20
20.9959955457
 11
-9.5091007192
 21
20.9959955457
  0
LINE
  5
798
100
AcDbEntity
  8
0
100
AcDbLine
 62
7
  6
CONTINUOUS
 10
1.075
 20
21.0
 11
-4.925
 21
21.0
  0
LINE
  5
799
100
AcDbEntity
  8
RACCORDO
100
AcDbLine
 62
250
  6
CONTINUOUS
 10
5.6591007192
 20
21.3126932437
 11
1.075
 21
21.3126932437
  0
LINE
  5
79A
100
AcDbEntity
  8
RACCORDO
100
AcDbLine
 62
250
  6
CONTINUOUS
 10
-4.925
 20
21.3126932437
 11
-9.5091007192
 21
21.3126932437
  0
LINE
  5
79B
100
AcDbEntity
  8
0
100
AcDbLine
 62
7
  6
CONTINUOUS
 10
-4.925
 20
21.7
 11
1.075
 21
21.7
  0
LINE
  5
79C
100
AcDbEntity
  8
RACCORDO
100
AcDbLine
 62
250
  6
CONTINUOUS
 10
5.4123448332
 20
22.3126551668
 11
1.075
 21
22.3126551668
  0
LINE
  5
79D
100
AcDbEntity
  8
RACCORDO
100
AcDbLine
 62
250
  6
CONTINUOUS
 10
-4.925
 20
22.3126551668
 11
-9.2623448332
 21
22.3126551668
  0
LINE
  5
79E
100
AcDbEntity
  8
DRAFT
100
AcDbLine
 62
7
  6
CONTINUOUS
 10
-5.425
 20
22.3380392387
 11
-4.925
 21
22.3380392387
  0
LINE
  5
79F
100
AcDbEntity
  8
DRAFT
100
AcDbLine
 62
7
  6
CONTINUOUS
 10
1.075
 20
22.3380392387
 11
1.575
 21
22.3380392387
  0
LINE
  5
7A0
100
AcDbEntity
  8
RACCORDO
100
AcDbLine
 62
7
  6
CONTINUOUS
 10
8.7748629074
 20
22.3912731322
 11
5.3337268678
 21
22.3912731322
  0
LINE
  5
7A1
100
AcDbEntity
  8
RACCORDO
100
AcDbLine
 62
7
  6
CONTINUOUS
 10
-9.1837268678
 20
22.3912731322
 11
-12.6248629074
 21
22.3912731322
  0
LINE
  5
7A2
100
AcDbEntity
  8
RACCORDO
100
AcDbLine
 62
7
  6
CONTINUOUS
 10
8.757892023
 20
22.4
 11
8.725
 21
22.4
  0
LINE
  5
7A3
100
AcDbEntity
  8
DRAFT
100
AcDbLine
 62
7
  6
CONTINUOUS
 10
2.475
 20
22.4
 11
8.725
 21
22.4
  0
LINE
  5
7A4
100
AcDbEntity
  8
DRAFT
100
AcDbLine
 62
7
  6
CONTINUOUS
 10
-6.325
 20
22.4
 11
-12.575
 21
22.4
  0
LINE
  5
7A5
100
AcDbEntity
  8
RACCORDO
100
AcDbLine
 62
7
  6
CONTINUOUS
 10
-12.575
 20
22.4
 11
-12.6078874748
 21
22.4
  0
LINE
  5
7A6
100
AcDbEntity
  8
RACCORDO
100
AcDbLine
 62
7
  6
CONTINUOUS
 10
6.1590245667
 20
20.9917082642
 11
6.3215127091
 21
20.9104703804
  0
LINE
  5
7A7
100
AcDbEntity
  8
RACCORDO
100
AcDbLine
 62
250
  6
CONTINUOUS
 10
6.329371834
 20
24.2456323968
 11
6.325
 21
24.2500042308
  0
LINE
  5
7A8
100
AcDbEntity
  8
RACCORDO
100
AcDbLine
 62
250
  6
CONTINUOUS
 10
6.5793676032
 20
24.495628166
 11
6.5749957692
 21
24.5
  0
LINE
  5
7A9
100
AcDbEntity
  8
RACCORDO
100
AcDbLine
 62
250
  6
CONTINUOUS
 10
8.7748629074
 20
-22.3912731322
 11
8.7574078424
 21
-22.4
  0
LWPOLYLINE
  5
7AA
100
AcDbEntity
  8
RACCORDO
100
AcDbPolyline
 62
7
  6
CONTINUOUS
 90
11
 70
0
 10
8.9586664589
 20
-22.352503122
 10
8.9445971712
 20
-22.3592350762
 10
8.9249161851
 20
-22.3676761448
 10
8.9048547902
 20
-22.375171735
 10
8.8844578571
 20
-22.3817047778
 10
8.8637801245
 20
-22.3872580713
 10
8.8428599152
 20
-22.3918216515
 10
8.8217176429
 20
-22.3953887516
 10
8.8003915966
 20
-22.3979479935
 10
8.7789387579
 20
-22.3994876502
 10
8.7574078424
 20
-22.4
  0
LINE
  5
7AB
100
AcDbEntity
  8
RACCORDO
100
AcDbLine
 62
7
  6
CONTINUOUS
 10
-12.3257229979
 20
23.1226497308
 11
-10.4242770021
 21
23.1226497308
  0
LINE
  5
7AC
100
AcDbEntity
  8
RACCORDO
100
AcDbLine
 62
7
  6
CONTINUOUS
 10
6.5742770021
 20
23.1226497308
 11
8.4757229979
 21
23.1226497308
  0
LINE
  5
7AD
100
AcDbEntity
  8
RACCORDO
100
AcDbLine
 62
250
  6
CONTINUOUS
 10
-12.3206323968
 20
23.6278312164
 11
-10.4293676032
 21
23.6278312164
  0
LINE
  5
7AE
100
AcDbEntity
  8
RACCORDO
100
AcDbLine
 62
250
  6
CONTINUOUS
 10
6.5793676032
 20
23.6278312164
 11
8.4706323968
 21
23.6278312164
  0
LINE
  5
7AF
100
AcDbEntity
  8
ASSI
100
AcDbLine
 62
250
  6
CONTINUOUS
 10
2.4313493531
 20
23.7563493531
 11
1.575
 21
23.7563493531
  0
LINE
  5
7B0
100
AcDbEntity
  8
ASSI
100
AcDbLine
 62
250
  6
CONTINUOUS
 10
-5.425
 20
23.7563493531
 11
-6.2813493531
 21
23.7563493531
  0
LINE
  5
7B1
100
AcDbEntity
  8
DRAFT
100
AcDbLine
 62
7
  6
CONTINUOUS
 10
1.575
 20
23.7941821702
 11
-5.425
 21
23.7941821702
  0
LINE
  5
7B2
100
AcDbEntity
  8
DRAFT
100
AcDbLine
 62
7
  6
CONTINUOUS
 10
2.475
 20
23.8
 11
-6.325
 21
23.8
  0
LINE
  5
7B3
100
AcDbEntity
  8
RACCORDO
100
AcDbLine
 62
250
  6
CONTINUOUS
 10
6.329371834
 20
23.8443375673
 11
8.720628166
 21
23.8443375673
  0
LINE
  5
7B4
100
AcDbEntity
  8
RACCORDO
100
AcDbLine
 62
250
  6
CONTINUOUS
 10
-10.179371834
 20
23.8443375673
 11
-12.570628166
 21
23.8443375673
  0
LINE
  5
7B5
100
AcDbEntity
  8
RACCORDO
100
AcDbLine
 62
250
  6
CONTINUOUS
 10
6.329371834
 20
24.2456323968
 11
8.720628166
 21
24.2456323968
  0
LINE
  5
7B6
100
AcDbEntity
  8
RACCORDO
100
AcDbLine
 62
250
  6
CONTINUOUS
 10
-10.179371834
 20
24.2456323968
 11
-12.570628166
 21
24.2456323968
  0
LINE
  5
7B7
100
AcDbEntity
  8
RACCORDO
100
AcDbLine
 62
250
  6
CONTINUOUS
 10
8.4706323968
 20
24.495628166
 11
6.5793676032
 21
24.495628166
  0
LINE
  5
7B8
100
AcDbEntity
  8
RACCORDO
100
AcDbLine
 62
250
  6
CONTINUOUS
 10
-10.4293676032
 20
24.495628166
 11
-12.3206323968
 21
24.495628166
  0
LINE
  5
7B9
100
AcDbEntity
  8
RACCORDO
100
AcDbLine
 62
7
  6
CONTINUOUS
 10
8.4750042308
 20
24.5
 11
6.5749957692
 21
24.5
  0
LINE
  5
7BA
100
AcDbEntity
  8
RACCORDO
100
AcDbLine
 62
7
  6
CONTINUOUS
 10
-10.4249957692
 20
24.5
 11
-12.3250042308
 21
24.5
  0
LWPOLYLINE
  5
7BB
100
AcDbEntity
  8
RACCORDO
100
AcDbPolyline
 62
7
  6
CONTINUOUS
 90
34
 70
0
 10
-10.4249957692
 20
24.5
 10
-10.413100484
 20
24.4997168498
 10
-10.4012321444
 20
24.4988680342
 10
-10.3894176339
 20
24.4974554741
 10
-10.3776837125
 20
24.4954823677
 10
-10.3660569612
 20
24.4929531817
 10
-10.354563721
 20
24.4898736417
 10
-10.3432300262
 20
24.4862507213
 10
-10.3320815507
 20
24.4820926258
 10
-10.3211435537
 20
24.4774087722
 10
-10.3104408124
 20
24.4722097688
 10
-10.2999975717
 20
24.4665073916
 10
-10.2898374941
 20
24.4603145581
 10
-10.2799835949
 20
24.4536452955
 10
-10.2704581962
 20
24.4465147107
 10
-10.2612828809
 20
24.4389389589
 10
-10.2524784339
 20
24.4309352005
 10
-10.2440647995
 20
24.4225215661
 10
-10.2360610411
 20
24.4137171191
 10
-10.2284852893
 20
24.4045418038
 10
-10.2213547045
 20
24.3950164051
 10
-10.2146854419
 20
24.3851625059
 10
-10.2084926084
 20
24.3750024283
 10
-10.2027902312
 20
24.3645591876
 10
-10.1975912278
 20
24.3538564463
 10
-10.1929073742
 20
24.3429184493
 10
-10.1887492787
 20
24.3317699738
 10
-10.1851263583
 20
24.320436279
 10
-10.1820468183
 20
24.3089430388
 10
-10.1795176323
 20
24.2973162875
 10
-10.1775445259
 20
24.2855823661
 10
-10.1761319658
 20
24.2737678556
 10
-10.1752831502
 20
24.261899516
 10
-10.175
 20
24.2500042308
  0
LWPOLYLINE
  5
7BC
100
AcDbEntity
  8
RACCORDO
100
AcDbPolyline
 62
7
  6
CONTINUOUS
 90
34
 70
0
 10
8.4750042308
 20
24.5
 10
8.486899516
 20
24.4997168498
 10
8.4987678556
 20
24.4988680342
 10
8.5105823661
 20
24.4974554741
 10
8.5223162875
 20
24.4954823677
 10
8.5339430388
 20
24.4929531817
 10
8.545436279
 20
24.4898736417
 10
8.5567699738
 20
24.4862507213
 10
8.5679184493
 20
24.4820926258
 10
8.5788564463
 20
24.4774087722
 10
8.5895591876
 20
24.4722097688
 10
8.6000024283
 20
24.4665073916
 10
8.6101625059
 20
24.4603145581
 10
8.6200164051
 20
24.4536452955
 10
8.6295418038
 20
24.4465147107
 10
8.6387171191
 20
24.4389389589
 10
8.6475215661
 20
24.4309352005
 10
8.6559352005
 20
24.4225215661
 10
8.6639389589
 20
24.4137171191
 10
8.6715147107
 20
24.4045418038
 10
8.6786452955
 20
24.3950164051
 10
8.6853145581
 20
24.3851625059
 10
8.6915073916
 20
24.3750024283
 10
8.6972097688
 20
24.3645591876
 10
8.7024087722
 20
24.3538564463
 10
8.7070926258
 20
24.3429184493
 10
8.7112507213
 20
24.3317699738
 10
8.7148736417
 20
24.320436279
 10
8.7179531817
 20
24.3089430388
 10
8.7204823677
 20
24.2973162875
 10
8.7224554741
 20
24.2855823661
 10
8.7238680342
 20
24.2737678556
 10
8.7247168498
 20
24.261899516
 10
8.725
 20
24.2500042308
  0
LWPOLYLINE
  5
7BD
100
AcDbEntity
  8
RACCORDO
100
AcDbPolyline
 62
250
  6
CONTINUOUS
 90
31
 70
0
 10
-10.4293676032
 20
24.495628166
 10
-10.4162841172
 20
24.4952851274
 10
-10.4032364906
 20
24.4942578375
 10
-10.3902604845
 20
24.492549112
 10
-10.3773916636
 20
24.490163634
 10
-10.3646652991
 20
24.4871079418
 10
-10.3521162714
 20
24.4833904104
 10
-10.3397789751
 20
24.4790212289
 10
-10.3276872245
 20
24.4740123724
 10
-10.3158741607
 20
24.4683775693
 10
-10.3043721611
 20
24.4621322634
 10
-10.2932127506
 20
24.455293572
 10
-10.282426515
 20
24.4478802386
 10
-10.2720430174
 20
24.4399125818
 10
-10.2620907169
 20
24.4314124395
 10
-10.252596891
 20
24.422403109
 10
-10.2435875605
 20
24.4129092831
 10
-10.2350874182
 20
24.4029569826
 10
-10.2271197614
 20
24.392573485
 10
-10.219706428
 20
24.3817872494
 10
-10.2128677366
 20
24.3706278389
 10
-10.2066224307
 20
24.3591258393
 10
-10.2009876276
 20
24.3473127755
 10
-10.1959787711
 20
24.3352210249
 10
-10.1916095896
 20
24.3228837286
 10
-10.1878920582
 20
24.3103347009
 10
-10.184836366
 20
24.2976083364
 10
-10.182450888
 20
24.2847395155
 10
-10.1807421625
 20
24.2717635094
 10
-10.1797148726
 20
24.2587158828
 10
-10.179371834
 20
24.2456323968
  0
LWPOLYLINE
  5
7BE
100
AcDbEntity
  8
RACCORDO
100
AcDbPolyline
 62
7
  6
CONTINUOUS
 90
11
 70
0
 10
8.9586665626
 20
22.3525030702
 10
8.9445972946
 20
22.3592350157
 10
8.9249162987
 20
22.3676760906
 10
8.9048548934
 20
22.3751716873
 10
8.8844579488
 20
22.3817047368
 10
8.8637802039
 20
22.3872580372
 10
8.8428599813
 20
22.3918216243
 10
8.8217176944
 20
22.3953887314
 10
8.8003916322
 20
22.3979479803
 10
8.7789387763
 20
22.3994876437
 10
8.7574078424
 20
22.4
  0
LINE
  5
7BF
100
AcDbEntity
  8
RACCORDO
100
AcDbLine
 62
250
  6
CONTINUOUS
 10
8.7574078424
 20
22.4
 11
8.7748629074
 21
22.3912731322
  0
LWPOLYLINE
  5
7C0
100
AcDbEntity
  8
RACCORDO
100
AcDbPolyline
 62
250
  6
CONTINUOUS
 90
31
 70
0
 10
8.4706323968
 20
24.495628166
 10
8.4836847368
 20
24.4952867588
 10
8.4967096311
 20
24.4942634962
 10
8.5096714057
 20
24.492559892
 10
8.5225371245
 20
24.4901787618
 10
8.5352685897
 20
24.4871256484
 10
8.5478227742
 20
24.4834102087
 10
8.5601625782
 20
24.4790436576
 10
8.5722569343
 20
24.4740372277
 10
8.5840730125
 20
24.4684044791
 10
8.595578613
 20
24.4621606774
 10
8.6067419314
 20
24.4553229956
 10
8.6175320106
 20
24.4479103656
 10
8.6279191364
 20
24.4399432233
 10
8.6378749736
 20
24.4314433264
 10
8.647372308
 20
24.4224339046
 10
8.6563851271
 20
24.4129396114
 10
8.6648886687
 20
24.402986508
 10
8.6728595768
 20
24.3926019187
 10
8.6802759837
 20
24.3818143284
 10
8.6871175595
 20
24.3706533025
 10
8.6933655387
 20
24.3591494467
 10
8.6990027869
 20
24.347334301
 10
8.7040138424
 20
24.3352402638
 10
8.7083849575
 20
24.3229005077
 10
8.712104147
 20
24.3103488602
 10
8.7151612081
 20
24.2976197463
 10
8.7175477509
 20
24.2847481067
 10
8.719257234
 20
24.2717692492
 10
8.720284977
 20
24.2587187509
 10
8.720628166
 20
24.2456323968
  0
ELLIPSE
  5
7C1
100
AcDbEntity
  8
DRAFT
100
AcDbEllipse
 62
7
  6
CONTINUOUS
 10
-1.925
 20
20.1823915368
 30
0.0
 11
15.0
 21
-0.0
 31
0.0
 40
0.0087268678
 41
-1.7342776332
 42
-1.4073150204
  0
ELLIPSE
  5
7C2
100
AcDbEntity
  8
DRAFT
100
AcDbEllipse
 62
7
  6
CONTINUOUS
 10
-4.425
 20
20.0445070257
 30
0.0
 11
1.0
 21
0.0
 31
0.0
 40
0.0087268678
 41
1.5707963268
 42
3.1415926536
  0
ELLIPSE
  5
7C3
100
AcDbEntity
  8
DRAFT
100
AcDbEllipse
 62
7
  6
CONTINUOUS
 10
0.575
 20
20.0445070257
 30
0.0
 11
1.0
 21
-0.0
 31
0.0
 40
0.0087268678
 41
-0.0
 42
1.5707963268
  0
ELLIPSE
  5
7C4
100
AcDbEntity
  8
DRAFT
100
AcDbEllipse
 62
7
  6
CONTINUOUS
 10
-1.925
 20
-20.1823915368
 30
0.0
 11
15.0
 21
0.0
 31
0.0
 40
0.0087268678
 41
1.4073150204
 42
1.7342776332
  0
ELLIPSE
  5
7C5
100
AcDbEntity
  8
DRAFT
100
AcDbEllipse
 62
7
  6
CONTINUOUS
 10
0.575
 20
-20.0445070257
 30
0.0
 11
1.0
 21
0.0
 31
0.0
 40
0.0087268678
 41
-1.5707963268
 42
-0.0
  0
ELLIPSE
  5
7C6
100
AcDbEntity
  8
DRAFT
100
AcDbEllipse
 62
7
  6
CONTINUOUS
 10
-4.425
 20
-20.0445070257
 30
0.0
 11
1.0
 21
0.0
 31
0.0
 40
0.0087268678
 41
-3.1415926536
 42
-1.5707963268
  0
ELLIPSE
  5
7C7
100
AcDbEntity
  8
RACCORDO
100
AcDbEllipse
 62
7
  6
CONTINUOUS
 10
8.7749314524
 20
-21.9412559969
 30
0.0
 11
-0.4025750024
 21
-0.2012721715
 31
0.0
 40
0.9998096356
 41
1.1071030277
 42
2.6780516535
  0
ELLIPSE
  5
7C8
100
AcDbEntity
  8
RACCORDO
100
AcDbEllipse
 62
7
  6
CONTINUOUS
 10
-12.6249314524
 20
-21.9412559969
 30
0.0
 11
-0.4025750024
 21
0.2012721715
 31
0.0
 40
0.9998096356
 41
6.7467263073
 42
8.3176749331
  0
ELLIPSE
  5
7C9
100
AcDbEntity
  8
RACCORDO
100
AcDbEllipse
 62
7
  6
CONTINUOUS
 10
8.7749314524
 20
21.9412559969
 30
0.0
 11
0.4025750024
 21
-0.2012721715
 31
0.0
 40
0.9998096356
 41
6.7467263073
 42
8.3176749331
  0
ELLIPSE
  5
7CA
100
AcDbEntity
  8
DRAFT
100
AcDbEllipse
 62
7
  6
CONTINUOUS
 10
2.0029699877
 20
22.3339198952
 30
0.0
 11
0.4279699877
 21
0.0
 31
0.0
 40
0.0087268678
 41
3.1415926536
 42
6.277367543
  0
ELLIPSE
  5
7CB
100
AcDbEntity
  8
ASSI
100
AcDbEllipse
 62
7
  6
CONTINUOUS
 10
2.4313662764
 20
-23.2563578147
 30
0.0
 11
0.0
 21
0.5
 31
0.0
 40
0.0058178298
 41
-3.2911896616
 42
-3.1474104178
  0
ELLIPSE
  5
7CC
100
AcDbEntity
  8
ASSI
100
AcDbEllipse
 62
7
  6
CONTINUOUS
 10
-6.2813662764
 20
-23.2563578147
 30
0.0
 11
-0.0
 21
0.5
 31
0.0
 40
0.0058178298
 41
-3.1357748894
 42
-2.9919956456
  0
ELLIPSE
  5
7CD
100
AcDbEntity
  8
ASSI
100
AcDbEllipse
 62
7
  6
CONTINUOUS
 10
-6.2813662764
 20
23.2563578147
 30
0.0
 11
-0.0
 21
0.5
 31
0.0
 40
0.0058178298
 41
-0.149597008
 42
-0.0058177642
  0
ELLIPSE
  5
7CE
100
AcDbEntity
  8
ASSI
100
AcDbEllipse
 62
7
  6
CONTINUOUS
 10
2.4313662764
 20
23.2563578147
 30
0.0
 11
0.0
 21
0.5
 31
0.0
 40
0.0058178298
 41
0.0058177642
 42
0.149597008
  0
ELLIPSE
  5
7CF
100
AcDbEntity
  8
DRAFT
100
AcDbEllipse
 62
7
  6
CONTINUOUS
 10
-5.8529699877
 20
22.3339198952
 30
0.0
 11
0.4279699877
 21
0.0
 31
0.0
 40
0.0087268678
 41
-3.1357748894
 42
0.0
  0
ELLIPSE
  5
7D0
100
AcDbEntity
  8
DRAFT
100
AcDbEllipse
 62
7
  6
CONTINUOUS
 10
-5.8529699877
 20
-22.3339198952
 30
0.0
 11
0.4279699877
 21
0.0
 31
0.0
 40
0.0087268678
 41
-0.0
 42
3.1357748894
  0
ELLIPSE
  5
7D1
100
AcDbEntity
  8
DRAFT
100
AcDbEllipse
 62
7
  6
CONTINUOUS
 10
2.0029699877
 20
-22.3339198952
 30
0.0
 11
0.4279699877
 21
0.0
 31
0.0
 40
0.0087268678
 41
0.0058177642
 42
3.1415926536
  0
ELLIPSE
  5
7D2
100
AcDbEntity
  8
RACCORDO
100
AcDbEllipse
 62
7
  6
CONTINUOUS
 10
4.5261302296
 20
19.4266752714
 30
0.0
 11
-0.0
 21
0.5
 31
0.0
 40
0.0058178298
 41
0.0087266463
 42
0.9923144385
  0
ELLIPSE
  5
7D3
100
AcDbEntity
  8
RACCORDO
100
AcDbEllipse
 62
7
  6
CONTINUOUS
 10
-8.3761302296
 20
19.4266752714
 30
0.0
 11
0.0
 21
0.5
 31
0.0
 40
0.0058178298
 41
-0.9923144385
 42
-0.0087266463
  0
ELLIPSE
  5
7D4
100
AcDbEntity
  8
RACCORDO
100
AcDbEllipse
 62
7
  6
CONTINUOUS
 10
-8.3761302296
 20
-19.4266752714
 30
0.0
 11
-0.0
 21
0.5
 31
0.0
 40
0.0058178298
 41
-3.1328660073
 42
-2.1492782151
  0
ELLIPSE
  5
7D5
100
AcDbEntity
  8
RACCORDO
100
AcDbEllipse
 62
7
  6
CONTINUOUS
 10
4.5261302296
 20
-19.4266752714
 30
0.0
 11
-0.0
 21
0.5
 31
0.0
 40
0.0058178298
 41
-4.133907092
 42
-3.1503192998
  0
ELLIPSE
  5
7D6
100
AcDbEntity
  8
RACCORDO
100
AcDbEllipse
 62
7
  6
CONTINUOUS
 10
-12.6249314524
 20
21.9412559969
 30
0.0
 11
0.4025750024
 21
0.2012721715
 31
0.0
 40
0.9998096356
 41
1.1071030277
 42
2.6780516535
  0
ELLIPSE
  5
7D7
100
AcDbEntity
  8
RACCORDO
100
AcDbEllipse
 62
7
  6
CONTINUOUS
 10
5.4238697704
 20
-19.959088481
 30
0.0
 11
-0.0
 21
0.5
 31
0.0
 40
0.0058178298
 41
-3.089232776
 42
-1.5707963268
  0
ELLIPSE
  5
7D8
100
AcDbEntity
  8
RACCORDO
100
AcDbEllipse
 62
7
  6
CONTINUOUS
 10
-9.2738697704
 20
-19.959088481
 30
0.0
 11
-0.0
 21
0.5
 31
0.0
 40
0.0058178298
 41
-4.7123889804
 42
-3.1939525311
  0
ELLIPSE
  5
7D9
100
AcDbEntity
  8
RACCORDO
100
AcDbEllipse
 62
7
  6
CONTINUOUS
 10
-9.5091007192
 20
-20.9916321118
 30
0.0
 11
0.5
 21
0.0
 31
0.0
 40
0.0087268678
 41
-3.1241393611
 42
-1.5707963268
  0
ELLIPSE
  5
7DA
100
AcDbEntity
  8
RACCORDO
100
AcDbEllipse
 62
7
  6
CONTINUOUS
 10
5.6591007192
 20
-20.9916321118
 30
0.0
 11
0.5
 21
0.0
 31
0.0
 40
0.0087268678
 41
-1.5707963268
 42
-0.0174532925
  0
ELLIPSE
  5
7DB
100
AcDbEntity
  8
RACCORDO
100
AcDbEllipse
 62
7
  6
CONTINUOUS
 10
-9.5091007192
 20
20.9916321118
 30
0.0
 11
0.5
 21
0.0
 31
0.0
 40
0.0087268678
 41
1.5707963268
 42
3.1241393611
  0
ELLIPSE
  5
7DC
100
AcDbEntity
  8
RACCORDO
100
AcDbEllipse
 62
7
  6
CONTINUOUS
 10
5.6591007192
 20
20.9916321118
 30
0.0
 11
0.5
 21
-0.0
 31
0.0
 40
0.0087268678
 41
0.0174532925
 42
1.5707963268
  0
ELLIPSE
  5
7DD
100
AcDbEntity
  8
RACCORDO
100
AcDbEllipse
 62
7
  6
CONTINUOUS
 10
5.4238697704
 20
19.959088481
 30
0.0
 11
-0.0
 21
0.5
 31
0.0
 40
0.0058178298
 41
-1.5707963268
 42
-0.0523598776
  0
ELLIPSE
  5
7DE
100
AcDbEntity
  8
RACCORDO
100
AcDbEllipse
 62
7
  6
CONTINUOUS
 10
-9.2738697704
 20
19.959088481
 30
0.0
 11
-0.0
 21
0.5
 31
0.0
 40
0.0058178298
 41
0.0523598776
 42
1.5707963268
  0
ELLIPSE
  5
7DF
100
AcDbEntity
  8
RACCORDO
100
AcDbEllipse
 62
7
  6
CONTINUOUS
 10
-12.3249957691
 20
-23.4113248654
 30
0.0
 11
-0.0029088041
 21
0.2886641433
 31
0.0
 40
0.8660144118
 41
-0.0087264124
 42
1.5591610446
  0
ELLIPSE
  5
7E0
100
AcDbEntity
  8
RACCORDO
100
AcDbEllipse
 62
7
  6
CONTINUOUS
 10
-10.4250042309
 20
-23.4113248654
 30
0.0
 11
0.0029088041
 21
0.2886641433
 31
0.0
 40
0.8660144118
 41
-1.5591610446
 42
0.0087264124
  0
ELLIPSE
  5
7E1
100
AcDbEntity
  8
RACCORDO
100
AcDbEllipse
 62
7
  6
CONTINUOUS
 10
-8.4802693832
 20
20.5829242832
 30
0.0
 11
0.0
 21
0.5
 31
0.0
 40
0.0058178298
 41
-4.7123889804
 42
-3.1503192998
  0
ELLIPSE
  5
7E2
100
AcDbEntity
  8
RACCORDO
100
AcDbEllipse
 62
7
  6
CONTINUOUS
 10
4.6302693832
 20
-20.5829242832
 30
0.0
 11
0.0
 21
0.5
 31
0.0
 40
0.0058178298
 41
-1.5707963268
 42
-0.0087266463
  0
ELLIPSE
  5
7E3
100
AcDbEntity
  8
RACCORDO
100
AcDbEllipse
 62
7
  6
CONTINUOUS
 10
4.6320147321
 20
19.9570181168
 30
0.0
 11
-0.0
 21
0.2
 31
0.0
 40
0.0058178298
 41
-3.1357748894
 42
-1.5707963268
  0
ELLIPSE
  5
7E4
100
AcDbEntity
  8
RACCORDO
100
AcDbEllipse
 62
7
  6
CONTINUOUS
 10
5.3179852679
 20
19.9570181168
 30
0.0
 11
0.0
 21
0.2
 31
0.0
 40
0.0058178298
 41
-4.7123889804
 42
-3.1474104178
  0
ELLIPSE
  5
7E5
100
AcDbEntity
  8
RACCORDO
100
AcDbEllipse
 62
7
  6
CONTINUOUS
 10
-9.1679852679
 20
19.9570181168
 30
0.0
 11
0.0
 21
0.2
 31
0.0
 40
0.0058178298
 41
-3.1357748894
 42
-1.5707963268
  0
ELLIPSE
  5
7E6
100
AcDbEntity
  8
RACCORDO
100
AcDbEllipse
 62
7
  6
CONTINUOUS
 10
-8.4820147321
 20
19.9570181168
 30
0.0
 11
0.0
 21
0.2
 31
0.0
 40
0.0058178298
 41
-4.7123889804
 42
-3.1474104178
  0
ELLIPSE
  5
7E7
100
AcDbEntity
  8
RACCORDO
100
AcDbEllipse
 62
7
  6
CONTINUOUS
 10
6.5750042309
 20
-23.4113248654
 30
0.0
 11
-0.0029088041
 21
0.2886641433
 31
0.0
 40
0.8660144118
 41
-0.0087264124
 42
1.5591610446
  0
ELLIPSE
  5
7E8
100
AcDbEntity
  8
RACCORDO
100
AcDbEllipse
 62
7
  6
CONTINUOUS
 10
8.4749957691
 20
-23.4113248654
 30
0.0
 11
0.0029088041
 21
0.2886641433
 31
0.0
 40
0.8660144118
 41
-1.5591610446
 42
0.0087264124
  0
ELLIPSE
  5
7E9
100
AcDbEntity
  8
RACCORDO
100
AcDbEllipse
 62
7
  6
CONTINUOUS
 10
-8.4820147321
 20
-19.9570181168
 30
0.0
 11
0.0
 21
0.2
 31
0.0
 40
0.0058178298
 41
0.0058177642
 42
1.5707963268
  0
ELLIPSE
  5
7EA
100
AcDbEntity
  8
RACCORDO
100
AcDbEllipse
 62
7
  6
CONTINUOUS
 10
-9.1679852679
 20
-19.9570181168
 30
0.0
 11
-0.0
 21
0.2
 31
0.0
 40
0.0058178298
 41
-1.5707963268
 42
-0.0058177642
  0
ELLIPSE
  5
7EB
100
AcDbEntity
  8
RACCORDO
100
AcDbEllipse
 62
7
  6
CONTINUOUS
 10
5.3179852679
 20
-19.9570181168
 30
0.0
 11
0.0
 21
0.2
 31
0.0
 40
0.0058178298
 41
0.0058177642
 42
1.5707963268
  0
ELLIPSE
  5
7EC
100
AcDbEntity
  8
RACCORDO
100
AcDbEllipse
 62
7
  6
CONTINUOUS
 10
4.6320147321
 20
-19.9570181168
 30
0.0
 11
0.0
 21
0.2
 31
0.0
 40
0.0058178298
 41
-1.5707963268
 42
-0.0058177642
  0
ELLIPSE
  5
7ED
100
AcDbEntity
  8
RACCORDO
100
AcDbEllipse
 62
7
  6
CONTINUOUS
 10
6.5750042309
 20
23.4113248654
 30
0.0
 11
0.0029088041
 21
0.2886641433
 31
0.0
 40
0.8660144118
 41
-4.7007536982
 42
-3.1328662411
  0
ELLIPSE
  5
7EE
100
AcDbEntity
  8
RACCORDO
100
AcDbEllipse
 62
7
  6
CONTINUOUS
 10
8.4749957691
 20
23.4113248654
 30
0.0
 11
-0.0029088041
 21
0.2886641433
 31
0.0
 40
0.8660144118
 41
-3.150319066
 42
-1.582431609
  0
ELLIPSE
  5
7EF
100
AcDbEntity
  8
RACCORDO
100
AcDbEllipse
 62
7
  6
CONTINUOUS
 10
-12.3249957691
 20
23.4113248654
 30
0.0
 11
0.0029088041
 21
0.2886641433
 31
0.0
 40
0.8660144118
 41
-4.7007536982
 42
-3.1328662411
  0
ELLIPSE
  5
7F0
100
AcDbEntity
  8
RACCORDO
100
AcDbEllipse
 62
7
  6
CONTINUOUS
 10
-10.4250042309
 20
23.4113248654
 30
0.0
 11
-0.0029088041
 21
0.2886641433
 31
0.0
 40
0.8660144118
 41
-3.150319066
 42
-1.582431609
  0
ELLIPSE
  5
7F1
100
AcDbEntity
  8
RACCORDO
100
AcDbEllipse
 62
7
  6
CONTINUOUS
 10
-11.0746953439
 20
17.6714466826
 30
0.0
 11
1.8480888181
 21
-0.7655034529
 31
0.0
 40
0.9998215708
 41
2.7489566578
 42
3.5342286494
  0
ELLIPSE
  5
7F2
100
AcDbEntity
  8
RACCORDO
100
AcDbEllipse
 62
7
  6
CONTINUOUS
 10
-11.0746953439
 20
-17.6714466826
 30
0.0
 11
1.8480888181
 21
0.7655034529
 31
0.0
 40
0.9998215708
 41
2.7489566578
 42
3.5342286494
  0
ELLIPSE
  5
7F3
100
AcDbEntity
  8
RACCORDO
100
AcDbEllipse
 62
7
  6
CONTINUOUS
 10
7.2246953439
 20
-17.6714466826
 30
0.0
 11
1.8480888181
 21
-0.7655034529
 31
0.0
 40
0.9998215708
 41
-0.3926359958
 42
0.3926359958
  0
ELLIPSE
  5
7F4
100
AcDbEntity
  8
RACCORDO
100
AcDbEllipse
 62
7
  6
CONTINUOUS
 10
7.2246953439
 20
17.6714466826
 30
0.0
 11
1.8480888181
 21
0.7655034529
 31
0.0
 40
0.9998215708
 41
-0.3926359958
 42
0.3926359958
  0
ELLIPSE
  5
7F5
100
AcDbEntity
  8
DRAFT
100
AcDbEllipse
 62
7
  6
CONTINUOUS
 10
-5.925
 20
-4.4646297395
 30
0.0
 11
1.8353003752
 21
-0.0
 31
0.0
 40
0.0087268678
 41
-3.1328660073
 42
-0.0087266463
  0
ELLIPSE
  5
7F6
100
AcDbEntity
  8
DRAFT
100
AcDbEllipse
 62
7
  6
CONTINUOUS
 10
2.075
 20
-4.4646297395
 30
0.0
 11
1.8353003752
 21
0.0
 31
0.0
 40
0.0087268678
 41
-3.1328660073
 42
-0.0087266463
  0
ELLIPSE
  5
7F7
100
AcDbEntity
  8
RACCORDO
100
AcDbEllipse
 62
7
  6
CONTINUOUS
 10
-10.5978182695
 20
4.9265949657
 30
0.0
 11
0.9999976196
 21
-0.2679777991
 31
0.0
 40
0.0081421982
 41
1.5729782569
 42
3.1263212912
  0
ELLIPSE
  5
7F8
100
AcDbEntity
  8
RACCORDO
100
AcDbEllipse
 62
7
  6
CONTINUOUS
 10
6.7478182695
 20
4.9265949657
 30
0.0
 11
0.9999976196
 21
0.2679777991
 31
0.0
 40
0.0081421982
 41
0.0152713624
 42
1.5686143967
  0
ELLIPSE
  5
7F9
100
AcDbEntity
  8
RACCORDO
100
AcDbEllipse
 62
7
  6
CONTINUOUS
 10
-10.9001446946
 20
17.5991454363
 30
0.0
 11
-1.8480888181
 21
0.7655034529
 31
0.0
 40
0.9998215708
 41
-0.3926359958
 42
0.3926359958
  0
ELLIPSE
  5
7FA
100
AcDbEntity
  8
RACCORDO
100
AcDbEllipse
 62
7
  6
CONTINUOUS
 10
6.7478182695
 20
1.2734050343
 30
0.0
 11
0.9999976196
 21
-0.2679777991
 31
0.0
 40
0.0081421982
 41
-1.5686143967
 42
-0.0152713624
  0
ELLIPSE
  5
7FB
100
AcDbEntity
  8
RACCORDO
100
AcDbEllipse
 62
7
  6
CONTINUOUS
 10
-10.9001446946
 20
-17.5991454363
 30
0.0
 11
1.8480888181
 21
0.7655034529
 31
0.0
 40
0.9998215708
 41
2.7489566578
 42
3.5342286494
  0
ELLIPSE
  5
7FC
100
AcDbEntity
  8
RACCORDO
100
AcDbEllipse
 62
7
  6
CONTINUOUS
 10
-10.5978182695
 20
1.2734050343
 30
0.0
 11
0.9999976196
 21
0.2679777991
 31
0.0
 40
0.0081421982
 41
-3.1263212912
 42
-1.5729782569
  0
ELLIPSE
  5
7FD
100
AcDbEntity
  8
RACCORDO
100
AcDbEllipse
 62
7
  6
CONTINUOUS
 10
7.0501446946
 20
-17.5991454363
 30
0.0
 11
1.8480888181
 21
-0.7655034529
 31
0.0
 40
0.9998215708
 41
-0.3926359958
 42
0.3926359958
  0
ELLIPSE
  5
7FE
100
AcDbEntity
  8
RACCORDO
100
AcDbEllipse
 62
7
  6
CONTINUOUS
 10
-3.9215092596
 20
-4.7228182695
 30
0.0
 11
-0.5774690812
 21
0.9999668392
 31
0.0
 40
0.0141024672
 41
-3.1322831899
 42
-1.5789401556
  0
ELLIPSE
  5
7FF
100
AcDbEntity
  8
RACCORDO
100
AcDbEllipse
 62
7
  6
CONTINUOUS
 10
7.0501446946
 20
17.5991454363
 30
0.0
 11
-1.8480888181
 21
-0.7655034529
 31
0.0
 40
0.9998215708
 41
2.7489566578
 42
3.5342286494
  0
ELLIPSE
  5
800
100
AcDbEntity
  8
RACCORDO
100
AcDbEllipse
 62
7
  6
CONTINUOUS
 10
0.475
 20
-19.902056904
 30
0.0
 11
1.0
 21
0.0
 31
0.0
 40
0.0176699529
 41
0.1166713885
 42
1.5707963268
  0
ELLIPSE
  5
801
100
AcDbEntity
  8
RACCORDO
100
AcDbEllipse
 62
7
  6
CONTINUOUS
 10
-4.325
 20
-19.902056904
 30
0.0
 11
1.0
 21
0.0
 31
0.0
 40
0.0176699529
 41
1.5707963268
 42
3.0249212651
  0
ELLIPSE
  5
802
100
AcDbEntity
  8
RACCORDO
100
AcDbEllipse
 62
7
  6
CONTINUOUS
 10
0.475
 20
19.902056904
 30
0.0
 11
1.0
 21
-0.0
 31
0.0
 40
0.0176699529
 41
-1.5707963268
 42
-0.1166713885
  0
ELLIPSE
  5
803
100
AcDbEntity
  8
RACCORDO
100
AcDbEllipse
 62
7
  6
CONTINUOUS
 10
-4.325
 20
19.902056904
 30
0.0
 11
1.0
 21
-0.0
 31
0.0
 40
0.0176699529
 41
-3.0249212651
 42
-1.5707963268
  0
ELLIPSE
  5
804
100
AcDbEntity
  8
RACCORDO
100
AcDbEllipse
 62
7
  6
CONTINUOUS
 10
0.0715092596
 20
-4.7228182695
 30
0.0
 11
0.5774690812
 21
0.9999668392
 31
0.0
 40
0.0141024672
 41
-4.7042451516
 42
-3.1509021173
  0
ELLIPSE
  5
805
100
AcDbEntity
  8
RACCORDO
100
AcDbEllipse
 62
7
  6
CONTINUOUS
 10
-7.9284907404
 20
-4.7228182695
 30
0.0
 11
0.5774690812
 21
0.9999668392
 31
0.0
 40
0.0141024672
 41
-4.7042451516
 42
-3.1509021173
  0
ELLIPSE
  5
806
100
AcDbEntity
  8
RACCORDO
100
AcDbEllipse
 62
7
  6
CONTINUOUS
 10
4.0784907404
 20
-4.7228182695
 30
0.0
 11
-0.5774690812
 21
0.9999668392
 31
0.0
 40
0.0141024672
 41
-3.1322831899
 42
-1.5789401556
  0
ELLIPSE
  5
807
100
AcDbEntity
  8
RACCORDO
100
AcDbEllipse
 62
7
  6
CONTINUOUS
 10
7.124847672
 20
-5.099847672
 30
0.0
 11
0.7073221892
 21
-0.7073221892
 31
0.0
 40
0.9996954599
 41
-0.7852458701
 42
0.7852458701
  0
ELLIPSE
  5
808
100
AcDbEntity
  8
RACCORDO
100
AcDbEllipse
 62
7
  6
CONTINUOUS
 10
-10.974847672
 20
18.499847672
 30
0.0
 11
0.7073221892
 21
-0.7073221892
 31
0.0
 40
0.9996954599
 41
2.3563467834
 42
3.9268385237
  0
ELLIPSE
  5
809
100
AcDbEntity
  8
RACCORDO
100
AcDbEllipse
 62
7
  6
CONTINUOUS
 10
7.124847672
 20
18.499847672
 30
0.0
 11
0.7073221892
 21
0.7073221892
 31
0.0
 40
0.9996954599
 41
-0.7852458701
 42
0.7852458701
  0
ELLIPSE
  5
80A
100
AcDbEntity
  8
RACCORDO
100
AcDbEllipse
 62
7
  6
CONTINUOUS
 10
-10.974847672
 20
-5.099847672
 30
0.0
 11
0.7073221892
 21
0.7073221892
 31
0.0
 40
0.9996954599
 41
-3.9268385237
 42
-2.3563467834
  0
ELLIPSE
  5
80B
100
AcDbEntity
  8
0
100
AcDbEllipse
 62
7
  6
CONTINUOUS
 10
6.6195854004
 20
3.1
 30
0.0
 11
-0.0
 21
1.6218462458
 31
0.0
 40
0.0087268916
 41
-3.1352043015
 42
-0.0063883521
  0
ELLIPSE
  5
80C
100
AcDbEntity
  8
0
100
AcDbEllipse
 62
7
  6
CONTINUOUS
 10
-10.4695854004
 20
3.1
 30
0.0
 11
-0.0
 21
1.6218462458
 31
0.0
 40
0.0087268916
 41
0.0063883521
 42
3.1352043015
  0
ELLIPSE
  5
80D
100
AcDbEntity
  8
0
100
AcDbEllipse
 62
7
  6
CONTINUOUS
 10
2.075
 20
-4.4646297395
 30
0.0
 11
1.8353003752
 21
0.0
 31
0.0
 40
0.0087268678
 41
-3.1328660073
 42
-0.0087266463
  0
ELLIPSE
  5
80E
100
AcDbEntity
  8
0
100
AcDbEllipse
 62
7
  6
CONTINUOUS
 10
-5.925
 20
-4.4646297395
 30
0.0
 11
1.8353003752
 21
-0.0
 31
0.0
 40
0.0087268678
 41
-3.1328660073
 42
-0.0087266463
  0
ELLIPSE
  5
80F
100
AcDbEntity
  8
0
100
AcDbEllipse
 62
7
  6
CONTINUOUS
 10
7.2246953439
 20
17.6714466826
 30
0.0
 11
1.8480888181
 21
0.7655034529
 31
0.0
 40
0.9998215708
 41
-0.3926359958
 42
0.3926359958
  0
ELLIPSE
  5
810
100
AcDbEntity
  8
0
100
AcDbEllipse
 62
7
  6
CONTINUOUS
 10
7.2246953439
 20
-17.6714466826
 30
0.0
 11
1.8480888181
 21
-0.7655034529
 31
0.0
 40
0.9998215708
 41
-0.3926359958
 42
0.3926359958
  0
ELLIPSE
  5
811
100
AcDbEntity
  8
0
100
AcDbEllipse
 62
7
  6
CONTINUOUS
 10
-11.0746953439
 20
-17.6714466826
 30
0.0
 11
1.8480888181
 21
0.7655034529
 31
0.0
 40
0.9998215708
 41
2.7489566578
 42
3.5342286494
  0
ELLIPSE
  5
812
100
AcDbEntity
  8
0
100
AcDbEllipse
 62
7
  6
CONTINUOUS
 10
-11.0746953439
 20
17.6714466826
 30
0.0
 11
1.8480888181
 21
-0.7655034529
 31
0.0
 40
0.9998215708
 41
2.7489566578
 42
3.5342286494
  0
ELLIPSE
  5
813
100
AcDbEntity
  8
0
100
AcDbEllipse
 62
7
  6
CONTINUOUS
 10
-10.9001446946
 20
17.5991454363
 30
0.0
 11
-1.8480888181
 21
0.7655034529
 31
0.0
 40
0.9998215708
 41
-0.3926359958
 42
0.3926359958
  0
ELLIPSE
  5
814
100
AcDbEntity
  8
0
100
AcDbEllipse
 62
7
  6
CONTINUOUS
 10
6.7478182695
 20
4.9265949657
 30
0.0
 11
0.9999976196
 21
0.2679777991
 31
0.0
 40
0.0081421982
 41
0.0152713624
 42
1.5686143967
  0
ELLIPSE
  5
815
100
AcDbEntity
  8
0
100
AcDbEllipse
 62
7
  6
CONTINUOUS
 10
-10.5978182695
 20
4.9265949657
 30
0.0
 11
0.9999976196
 21
-0.2679777991
 31
0.0
 40
0.0081421982
 41
1.5729782569
 42
3.1263212912
  0
ELLIPSE
  5
816
100
AcDbEntity
  8
0
100
AcDbEllipse
 62
7
  6
CONTINUOUS
 10
-7.9284907404
 20
-4.7228182695
 30
0.0
 11
0.5774690812
 21
0.9999668392
 31
0.0
 40
0.0141024672
 41
-4.7042451516
 42
-3.1509021173
  0
ELLIPSE
  5
817
100
AcDbEntity
  8
0
100
AcDbEllipse
 62
7
  6
CONTINUOUS
 10
-10.5978182695
 20
1.2734050343
 30
0.0
 11
0.9999976196
 21
0.2679777991
 31
0.0
 40
0.0081421982
 41
-3.1263212912
 42
-1.5729782569
  0
ELLIPSE
  5
818
100
AcDbEntity
  8
0
100
AcDbEllipse
 62
7
  6
CONTINUOUS
 10
6.7478182695
 20
1.2734050343
 30
0.0
 11
0.9999976196
 21
-0.2679777991
 31
0.0
 40
0.0081421982
 41
-1.5686143967
 42
-0.0152713624
  0
ELLIPSE
  5
819
100
AcDbEntity
  8
0
100
AcDbEllipse
 62
7
  6
CONTINUOUS
 10
4.0784907404
 20
-4.7228182695
 30
0.0
 11
-0.5774690812
 21
0.9999668392
 31
0.0
 40
0.0141024672
 41
-3.1322831899
 42
-1.5789401556
  0
ELLIPSE
  5
81A
100
AcDbEntity
  8
0
100
AcDbEllipse
 62
7
  6
CONTINUOUS
 10
0.0715092596
 20
-4.7228182695
 30
0.0
 11
0.5774690812
 21
0.9999668392
 31
0.0
 40
0.0141024672
 41
-4.7042451516
 42
-3.1509021173
  0
ELLIPSE
  5
81B
100
AcDbEntity
  8
0
100
AcDbEllipse
 62
7
  6
CONTINUOUS
 10
-3.9215092596
 20
-4.7228182695
 30
0.0
 11
-0.5774690812
 21
0.9999668392
 31
0.0
 40
0.0141024672
 41
-3.1322831899
 42
-1.5789401556
  0
ELLIPSE
  5
81C
100
AcDbEntity
  8
0
100
AcDbEllipse
 62
7
  6
CONTINUOUS
 10
-10.974847672
 20
-5.099847672
 30
0.0
 11
0.7073221892
 21
0.7073221892
 31
0.0
 40
0.9996954599
 41
-3.9268385237
 42
-2.3563467834
  0
ELLIPSE
  5
81D
100
AcDbEntity
  8
0
100
AcDbEllipse
 62
7
  6
CONTINUOUS
 10
7.124847672
 20
18.499847672
 30
0.0
 11
0.7073221892
 21
0.7073221892
 31
0.0
 40
0.9996954599
 41
-0.7852458701
 42
0.7852458701
  0
ELLIPSE
  5
81E
100
AcDbEntity
  8
0
100
AcDbEllipse
 62
7
  6
CONTINUOUS
 10
-10.974847672
 20
18.499847672
 30
0.0
 11
0.7073221892
 21
-0.7073221892
 31
0.0
 40
0.9996954599
 41
2.3563467834
 42
3.9268385237
  0
ELLIPSE
  5
81F
100
AcDbEntity
  8
0
100
AcDbEllipse
 62
7
  6
CONTINUOUS
 10
7.124847672
 20
-5.099847672
 30
0.0
 11
0.7073221892
 21
-0.7073221892
 31
0.0
 40
0.9996954599
 41
-0.7852458701
 42
0.7852458701
  0
ELLIPSE
  5
820
100
AcDbEntity
  8
0
100
AcDbEllipse
 62
7
  6
CONTINUOUS
 10
0.475
 20
-19.902056904
 30
0.0
 11
1.0
 21
0.0
 31
0.0
 40
0.0176699529
 41
0.1166713885
 42
1.5707963268
  0
ELLIPSE
  5
821
100
AcDbEntity
  8
0
100
AcDbEllipse
 62
7
  6
CONTINUOUS
 10
-4.325
 20
-19.902056904
 30
0.0
 11
1.0
 21
0.0
 31
0.0
 40
0.0176699529
 41
1.5707963268
 42
3.0249212651
  0
ELLIPSE
  5
822
100
AcDbEntity
  8
0
100
AcDbEllipse
 62
7
  6
CONTINUOUS
 10
0.475
 20
19.902056904
 30
0.0
 11
1.0
 21
-0.0
 31
0.0
 40
0.0176699529
 41
-1.5707963268
 42
-0.1166713885
  0
ELLIPSE
  5
823
100
AcDbEntity
  8
0
100
AcDbEllipse
 62
7
  6
CONTINUOUS
 10
-11.9388037394
 20
3.1
 30
0.0
 11
0.0
 21
2.0155045024
 31
0.0
 40
0.0174552558
 41
0.0040496413
 42
3.1375430123
  0
ELLIPSE
  5
824
100
AcDbEntity
  8
0
100
AcDbEllipse
 62
7
  6
CONTINUOUS
 10
8.0888037394
 20
3.1
 30
0.0
 11
-0.0
 21
2.0155045024
 31
0.0
 40
0.0174552558
 41
-3.1375430123
 42
-0.0040496413
  0
ELLIPSE
  5
825
100
AcDbEntity
  8
0
100
AcDbEllipse
 62
7
  6
CONTINUOUS
 10
-4.325
 20
19.902056904
 30
0.0
 11
1.0
 21
0.0
 31
0.0
 40
0.0176699529
 41
-3.0249212651
 42
-1.5707963268
  0
ELLIPSE
  5
826
100
AcDbEntity
  8
0
100
AcDbEllipse
 62
7
  6
CONTINUOUS
 10
7.0501446946
 20
17.5991454363
 30
0.0
 11
-1.8480888181
 21
-0.7655034529
 31
0.0
 40
0.9998215708
 41
2.7489566578
 42
3.5342286494
  0
ELLIPSE
  5
827
100
AcDbEntity
  8
0
100
AcDbEllipse
 62
7
  6
CONTINUOUS
 10
7.0501446946
 20
-17.5991454363
 30
0.0
 11
1.8480888181
 21
-0.7655034529
 31
0.0
 40
0.9998215708
 41
-0.3926359958
 42
0.3926359958
  0
ELLIPSE
  5
828
100
AcDbEntity
  8
0
100
AcDbEllipse
 62
7
  6
CONTINUOUS
 10
-10.9001446946
 20
-17.5991454363
 30
0.0
 11
1.8480888181
 21
0.7655034529
 31
0.0
 40
0.9998215708
 41
2.7489566578
 42
3.5342286494
  0
ELLIPSE
  5
829
100
AcDbEntity
  8
0
100
AcDbEllipse
 62
250
  6
CONTINUOUS
 10
9.1652862457
 20
4.680795
 30
0.0
 11
0.0
 21
0.352865
 31
0.0
 40
0.0174497484
 41
-4.7123889804
 42
-1.5707963268
  0
ENDSEC
  0
SECTION
  2
OBJECTS
  0
DICTIONARY
  5
C
100
AcDbDictionary
280
0
281
1
  3
ACAD_GROUP
350
D
  3
ACAD_MLINESTYLE
350
17
  3
ACAD_LAYOUT
350
1A
  3
ACAD_PLOTSETTINGS
350
19
  3
ACAD_PLOTSTYLENAME
350
E
  0
DICTIONARY
  5
D
102
{ACAD_REACTORS
330
C
102
}
100
AcDbDictionary
280
0
281
1
  0
ACDBDICTIONARYWDFLT
  5
E
102
{ACAD_REACTORS
330
C
102
}
100
AcDbDictionary
281
1
  3
Normal
350
F
100
AcDbDictionaryWithDefault
340
F
  0
DICTIONARY
  5
17
102
{ACAD_REACTORS
330
C
102
}
100
AcDbDictionary
280
0
281
1
  3
Standard
350
18
  0
DICTIONARY
  5
19
102
{ACAD_REACTORS
330
C
102
}
100
AcDbDictionary
281
1
  0
DICTIONARY
  5
1A
102
{ACAD_REACTORS
330
C
102
}
100
AcDbDictionary
281
1
  3
Model
350
82A
  3
Layout1
350
82B
  0
ACDBPLACEHOLDER
  5
F
102
{ACAD_REACTORS
330
E
102
}
  0
MLINESTYLE
  5
18
102
{ACAD_REACTORS
330
17
102
}
100
AcDbMlineStyle
  2
STANDARD
 70
0
  3

 62
256
 51
90.0
 52
90.0
 71
2
 49
0.5
 62
256
  6
BYLAYER
 49
-0.5
 62
256
  6
BYLAYER
  0
LAYOUT
  5
82A
102
{ACAD_REACTORS
330
1A
102
}
100
AcDbPlotSettings
  1

  2
none_device
  4
ISO_A4_(297.00_x_210.00_MM)
  6

 40
0.0
 41
0.0
 42
0.0
 43
0.0
 44
297.0
 45
210.0
 46
0.0
 47
0.0
 48
0.0
 49
0.0
140
0.0
141
0.0
142
1.0
143
1.0
 70
1024
 72
1
 73
0
 74
0
  7

 75
0
147
1.0
148
0.0
149
0.0
100
AcDbLayout
  1
Model
 70
0
 71
0
 10
0.0
 20
0.0
 11
297.0
 21
210.0
 12
0.0
 22
0.0
 32
0.0
 14
0.0
 24
0.0
 34
0.0
 15
0.0
 25
0.0
 35
0.0
146
0.0
 13
0.0
 23
0.0
 33
0.0
 16
1.0
 26
0.0
 36
0.0
 17
0.0
 27
1.0
 37
0.0
 76
0
330
213
345
0
346
0
  0
LAYOUT
  5
82B
102
{ACAD_REACTORS
330
1A
102
}
100
AcDbPlotSettings
  1

  2
none_device
  4
ISO_A4_(297.00_x_210.00_MM)
  6

 40
0.0
 41
0.0
 42
0.0
 43
0.0
 44
297.0
 45
210.0
 46
0.0
 47
0.0
 48
0.0
 49
0.0
140
0.0
141
0.0
142
1.0
143
1.0
 70
0
 72
1
 73
0
 74
0
  7

 75
0
147
1.0
148
0.0
149
0.0
100
AcDbLayout
  1
Layout1
 70
0
 71
1
 10
0.0
 20
0.0
 11
297.0
 21
210.0
 12
0.0
 22
0.0
 32
0.0
 14
0.0
 24
0.0
 34
0.0
 15
0.0
 25
0.0
 35
0.0
146
0.0
 13
0.0
 23
0.0
 33
0.0
 16
1.0
 26
0.0
 36
0.0
 17
0.0
 27
1.0
 37
0.0
 76
0
330
214
345
0
346
0
  0
ENDSEC
  0
EOF
