  0
SECTION
  2
HEADER
  9
$ACADVER
  1
AC1015
  9
$DWGCODEPAGE
  3
ANSI_1252
  9
$EXTMAX
 10
297.0
 20
210.0
 30
0.0
  9
$EXTMIN
 10
0.0
 20
0.0
 30
0.0
  9
$LIMMIN
 10
0.0
 20
0.0
  9
$LIMMAX
 10
297.0
 20
210.0
  9
$VIEWCTR
 10
148.5
 20
105.0
  9
$VIEWSIZE
 40
210.0
  9
$CLAYER
  8
0
  9
$LTSCALE
 40
16.335
  9
$CELTYPE
  6
BYLAYER
  9
$DIMSCALE
 40
1.0
  9
$DIMASZ
 40
3.0
  9
$DIMEXO
 40
1.85625
  9
$DIMDLI
 40
11.286
  9
$DIMEXE
 40
5.346
  9
$DIMCEN
 40
2.673
  9
$DIMLFAC
 40
1.0
  9
$DIMBLK
  1
_FILLED
  9
$DIMTXT
 40
3.0
  9
$DIMTOL
 70
1
  9
$DIMLIM
 70
0
  9
$DIMTFAC
 40
1.0
  9
$DIMTP
 40
0.01
  9
$DIMTM
 40
0.01
  9
$PDMODE
 70
3
  9
$PDSIZE
 40
3.0
  9
$HANDSEED
  5
A0D
  9
$TILEMODE
 70
1
  9
$MEASUREMENT
 70
1
  9
$INSUNITS
 70
4
  0
ENDSEC
  0
SECTION
  2
CLASSES
  0
CLASS
  1
ACDBDICTIONARYWDFLT
  2
AcDbDictionaryWithDefault
  3
AutoCAD 2000
 90
0
280
0
281
0
  0
CLASS
  1
ACDBPLACEHOLDER
  2
AcDbPlaceHolder
  3
AutoCAD 2000
 90
0
280
0
281
0
  0
CLASS
  1
LAYOUT
  2
AcDbLayout
  3
AutoCAD 2000
 90
0
280
0
281
0
  0
ENDSEC
  0
SECTION
  2
TABLES
  0
TABLE
  2
VPORT
  5
8
100
AcDbSymbolTable
 70
2
  0
VPORT
  5
1F4
100
AcDbSymbolTableRecord
100
AcDbViewportTableRecord
  2
*ACTIVE
 70
0
 10
0.0
 20
0.0
 11
1.0
 21
1.0
 12
148.5
 22
105.0
 13
0.0
 23
0.0
 14
1.0
 24
1.0
 15
0.0
 25
0.0
 16
0.0
 26
0.0
 36
1.0
 17
0.0
 27
0.0
 37
0.0
 40
210.0
 41
1.4142857143
 42
50.0
 43
0.0
 44
0.0
 50
0.0
 51
0.0
 71
0
 72
100
 73
1
 74
1
 75
0
 76
0
 77
0
 78
0
  0
ENDTAB
  0
TABLE
  2
LTYPE
  5
5
100
AcDbSymbolTable
 70
6
  0
LTYPE
  5
14
100
AcDbSymbolTableRecord
100
AcDbLinetypeTableRecord
  2
BYBLOCK
 70
0
  3

 72
65
 73
0
 40
0.0
  0
LTYPE
  5
15
100
AcDbSymbolTableRecord
100
AcDbLinetypeTableRecord
  2
BYLAYER
 70
0
  3

 72
65
 73
0
 40
0.0
  0
LTYPE
  5
16
100
AcDbSymbolTableRecord
100
AcDbLinetypeTableRecord
  2
CONTINUOUS
 70
64
  3
Solid line
 72
65
 73
0
 40
0.0
  0
LTYPE
  5
1F5
100
AcDbSymbolTableRecord
100
AcDbLinetypeTableRecord
  2
CENTER
 70
64
  3
____ _ ____ _ ____ _ ____ _ ____ _ ____ _ ____
 72
65
 73
4
 40
0.6
 49
0.375
 74
0
 49
-0.075
 74
0
 49
0.075
 74
0
 49
-0.075
 74
0
  0
LTYPE
  5
1F6
100
AcDbSymbolTableRecord
100
AcDbLinetypeTableRecord
  2
HIDDEN
 70
64
  3
- - - - - - - - - - - - - - - - - - - -
 72
65
 73
2
 40
0.2
 49
0.1
 74
0
 49
-0.1
 74
0
  0
LTYPE
  5
1F7
100
AcDbSymbolTableRecord
100
AcDbLinetypeTableRecord
  2
PHANTOM
 70
64
  3
_____ _ _ _____ _ _ _____ _ _ _____
 72
65
 73
6
 40
0.8
 49
0.45
 74
0
 49
-0.05
 74
0
 49
0.1
 74
0
 49
-0.05
 74
0
 49
0.1
 74
0
 49
-0.05
 74
0
  0
LTYPE
  5
1F8
100
AcDbSymbolTableRecord
100
AcDbLinetypeTableRecord
  2
DOT
 70
64
  3
. . . . . . . . . . . . . . . . . . . .
 72
65
 73
2
 40
0.2
 49
0.1
 74
0
 49
-0.1
 74
0
  0
LTYPE
  5
1F9
100
AcDbSymbolTableRecord
100
AcDbLinetypeTableRecord
  2
DASHED
 70
64
  3
- - - - - - - - - - - - - - - - - - - -
 72
65
 73
2
 40
0.2
 49
0.1
 74
0
 49
-0.1
 74
0
  0
ENDTAB
  0
TABLE
  2
LAYER
  5
2
100
AcDbSymbolTable
 70
36
  0
LAYER
  5
10
100
AcDbSymbolTableRecord
100
AcDbLayerTableRecord
  2
0
 70
0
 62
7
  6
CONTINUOUS
370
-3
390
F
  0
LAYER
  5
1FA
100
AcDbSymbolTableRecord
100
AcDbLayerTableRecord
  2
DEFAULT_1
 70
0
 62
7
  6
CENTER
370
-3
390
F
  0
LAYER
  5
1FB
100
AcDbSymbolTableRecord
100
AcDbLayerTableRecord
  2
DEFAULT_2
 70
0
 62
7
  6
HIDDEN
370
-3
390
F
  0
LAYER
  5
1FC
100
AcDbSymbolTableRecord
100
AcDbLayerTableRecord
  2
DEFAULT_3
 70
0
 62
7
  6
PHANTOM
370
-3
390
F
  0
LAYER
  5
1FD
100
AcDbSymbolTableRecord
100
AcDbLayerTableRecord
  2
ASSI
 70
0
 62
7
  6
CONTINUOUS
370
-3
390
F
  0
LAYER
  5
1FE
100
AcDbSymbolTableRecord
100
AcDbLayerTableRecord
  2
COLOR1
 70
0
 62
7
  6
CONTINUOUS
370
-3
390
F
  0
LAYER
  5
1FF
100
AcDbSymbolTableRecord
100
AcDbLayerTableRecord
  2
COORDINATE
 70
0
 62
7
  6
CONTINUOUS
370
-3
390
F
  0
LAYER
  5
200
100
AcDbSymbolTableRecord
100
AcDbLayerTableRecord
  2
COORD_ORIGINE
 70
0
 62
7
  6
CONTINUOUS
370
-3
390
F
  0
LAYER
  5
201
100
AcDbSymbolTableRecord
100
AcDbLayerTableRecord
  2
COPY_PUBLISH
 70
0
 62
7
  6
CONTINUOUS
370
-3
390
F
  0
LAYER
  5
202
100
AcDbSymbolTableRecord
100
AcDbLayerTableRecord
  2
COSMETIC
 70
0
 62
7
  6
CONTINUOUS
370
-3
390
F
  0
LAYER
  5
203
100
AcDbSymbolTableRecord
100
AcDbLayerTableRecord
  2
CURVE
 70
0
 62
7
  6
CONTINUOUS
370
-3
390
F
  0
LAYER
  5
204
100
AcDbSymbolTableRecord
100
AcDbLayerTableRecord
  2
DRAFT
 70
0
 62
7
  6
CONTINUOUS
370
-3
390
F
  0
LAYER
  5
205
100
AcDbSymbolTableRecord
100
AcDbLayerTableRecord
  2
IMPORT
 70
0
 62
7
  6
CONTINUOUS
370
-3
390
F
  0
LAYER
  5
206
100
AcDbSymbolTableRecord
100
AcDbLayerTableRecord
  2
IMPORT_IGES
 70
0
 62
7
  6
CONTINUOUS
370
-3
390
F
  0
LAYER
  5
207
100
AcDbSymbolTableRecord
100
AcDbLayerTableRecord
  2
INTFCLR_2
 70
0
 62
7
  6
CONTINUOUS
370
-3
390
F
  0
LAYER
  5
208
100
AcDbSymbolTableRecord
100
AcDbLayerTableRecord
  2
INTF_5
 70
0
 62
7
  6
CONTINUOUS
370
-3
390
F
  0
LAYER
  5
209
100
AcDbSymbolTableRecord
100
AcDbLayerTableRecord
  2
INTF_CYAN
 70
0
 62
7
  6
CONTINUOUS
370
-3
390
F
  0
LAYER
  5
20A
100
AcDbSymbolTableRecord
100
AcDbLayerTableRecord
  2
INTF_YELLOW
 70
0
 62
7
  6
CONTINUOUS
370
-3
390
F
  0
LAYER
  5
20B
100
AcDbSymbolTableRecord
100
AcDbLayerTableRecord
  2
LAY0001
 70
0
 62
7
  6
CONTINUOUS
370
-3
390
F
  0
LAYER
  5
20C
100
AcDbSymbolTableRecord
100
AcDbLayerTableRecord
  2
NOTE
 70
0
 62
7
  6
CONTINUOUS
370
-3
390
F
  0
LAYER
  5
20D
100
AcDbSymbolTableRecord
100
AcDbLayerTableRecord
  2
PIANI
 70
0
 62
7
  6
CONTINUOUS
370
-3
390
F
  0
LAYER
  5
20E
100
AcDbSymbolTableRecord
100
AcDbLayerTableRecord
  2
PIANI_ORIGINE
 70
0
 62
7
  6
CONTINUOUS
370
-3
390
F
  0
LAYER
  5
20F
100
AcDbSymbolTableRecord
100
AcDbLayerTableRecord
  2
PIANI_RIFERIMENTO
 70
0
 62
7
  6
CONTINUOUS
370
-3
390
F
  0
LAYER
  5
210
100
AcDbSymbolTableRecord
100
AcDbLayerTableRecord
  2
PUNTI
 70
0
 62
7
  6
CONTINUOUS
370
-3
390
F
  0
LAYER
  5
211
100
AcDbSymbolTableRecord
100
AcDbLayerTableRecord
  2
RACCORDO
 70
0
 62
7
  6
CONTINUOUS
370
-3
390
F
  0
LAYER
  5
212
100
AcDbSymbolTableRecord
100
AcDbLayerTableRecord
  2
SMUSSO
 70
0
 62
7
  6
CONTINUOUS
370
-3
390
F
  0
LAYER
  5
213
100
AcDbSymbolTableRecord
100
AcDbLayerTableRecord
  2
SNAPLINE
 70
0
 62
7
  6
CONTINUOUS
370
-3
390
F
  0
LAYER
  5
214
100
AcDbSymbolTableRecord
100
AcDbLayerTableRecord
  2
SUPERFICI
 70
0
 62
7
  6
CONTINUOUS
370
-3
390
F
  0
LAYER
  5
215
100
AcDbSymbolTableRecord
100
AcDbLayerTableRecord
  2
TRASH
 70
0
 62
7
  6
CONTINUOUS
370
-3
390
F
  0
LAYER
  5
216
100
AcDbSymbolTableRecord
100
AcDbLayerTableRecord
  2
XSEC_DATUMS
 70
0
 62
7
  6
CONTINUOUS
370
-3
390
F
  0
ENDTAB
  0
TABLE
  2
STYLE
  5
3
100
AcDbSymbolTable
 70
1
  0
STYLE
  5
11
100
AcDbSymbolTableRecord
100
AcDbTextStyleTableRecord
  2
STANDARD
 70
0
 40
0.0
 41
0.8
 50
0.0
 71
0
 42
0.2
  3
txt
  4

  0
STYLE
  5
217
100
AcDbSymbolTableRecord
100
AcDbTextStyleTableRecord
  2
TEXTSTYLE_1
 70
0
 40
0.0
 41
0.8
 50
0.0
 71
0
 42
0.2
  3
gdt
  4

  0
ENDTAB
  0
TABLE
  2
VIEW
  5
6
100
AcDbSymbolTable
 70
0
  0
ENDTAB
  0
TABLE
  2
UCS
  5
7
100
AcDbSymbolTable
 70
0
  0
ENDTAB
  0
TABLE
  2
APPID
  5
9
100
AcDbSymbolTable
 70
1
  0
APPID
  5
218
100
AcDbSymbolTableRecord
100
AcDbRegAppTableRecord
  2
ACAD
 70
0
  0
ENDTAB
  0
TABLE
  2
BLOCK_RECORD
  5
1
100
AcDbSymbolTable
 70
0
  0
BLOCK_RECORD
  5
219
100
AcDbSymbolTableRecord
100
AcDbBlockTableRecord
  2
*Model_Space
  0
BLOCK_RECORD
  5
21A
100
AcDbSymbolTableRecord
100
AcDbBlockTableRecord
  2
*Paper_Space
  0
ENDTAB
  0
TABLE
  2
DIMSTYLE
  5
A
100
AcDbSymbolTable
 70
1
100
AcDbDimStyleTable
 71
0
  0
DIMSTYLE
105
21B
100
AcDbSymbolTableRecord
100
AcDbDimStyleTableRecord
  2
STANDARD
 70
0
  3

  4

 40
1.0
 41
3.0
 42
0.0625
 43
0.38
 44
0.18
 45
0.0
 46
0.0
 47
0.01
 48
0.01
140
3.0
141
0.09
142
0.0
143
25.4
144
1.0
145
0.0
146
1.0
147
0.09
 71
1.0
 72
0.0
 73
0
 74
0
 75
0
 76
0
 77
1
 78
8
170
0
171
2
172
0
173
0
174
0
175
0
176
0
177
0
178
0
270
2
271
2
272
2
273
2
274
2
275
0
280
0
281
0
282
0
283
1
284
8
285
0
286
0
287
3
288
0
340
11
  0
ENDTAB
  0
ENDSEC
  0
SECTION
  2
BLOCKS
  0
BLOCK
  5
20
100
AcDbEntity
  8
0
100
AcDbBlockBegin
  2
*Model_Space
 70
0
 10
0.0
 20
0.0
 30
0.0
  3
*Model_Space
  1

  0
ENDBLK
  5
21
100
AcDbEntity
  8
0
100
AcDbBlockEnd
  0
BLOCK
  5
1C
100
AcDbEntity
  8
0
100
AcDbBlockBegin
  2
*Paper_Space
 70
0
 10
0.0
 20
0.0
 30
0.0
  3
*Paper_Space
  1

  0
ENDBLK
  5
1D
100
AcDbEntity
  8
0
100
AcDbBlockEnd
  0
ENDSEC
  0
SECTION
  2
ENTITIES
  0
LINE
  5
21C
100
AcDbEntity
  8
RACCORDO
100
AcDbLine
 62
253
  6
CONTINUOUS
 10
-10.5998476749
 20
22.3412731322
 11
-10.5823926099
 21
22.35
  0
LINE
  5
21D
100
AcDbEntity
  8
ASSI
100
AcDbLine
 62
253
  6
CONTINUOUS
 10
-10.5998476749
 20
22.3412731322
 11
-10.5823926099
 21
22.35
  0
LINE
  5
21E
100
AcDbEntity
  8
RACCORDO
100
AcDbLine
 62
253
  6
CONTINUOUS
 10
-10.3206323968
 20
-24.495628166
 11
-8.5543676032
 21
-24.495628166
  0
LINE
  5
21F
100
AcDbEntity
  8
ASSI
100
AcDbLine
 62
7
  6
CONTINUOUS
 10
-10.3206323968
 20
-24.495628166
 11
-8.5543676032
 21
-24.495628166
  0
LINE
  5
220
100
AcDbEntity
  8
RACCORDO
100
AcDbLine
 62
253
  6
CONTINUOUS
 10
8.5543676032
 20
-24.495628166
 11
10.3206323968
 21
-24.495628166
  0
LINE
  5
221
100
AcDbEntity
  8
ASSI
100
AcDbLine
 62
7
  6
CONTINUOUS
 10
8.5543676032
 20
-24.495628166
 11
10.3206323968
 21
-24.495628166
  0
LINE
  5
222
100
AcDbEntity
  8
RACCORDO
100
AcDbLine
 62
253
  6
CONTINUOUS
 10
8.304371834
 20
-24.2456323968
 11
10.570628166
 21
-24.2456323968
  0
LINE
  5
223
100
AcDbEntity
  8
ASSI
100
AcDbLine
 62
253
  6
CONTINUOUS
 10
8.304371834
 20
-24.2456323968
 11
10.570628166
 21
-24.2456323968
  0
LINE
  5
224
100
AcDbEntity
  8
RACCORDO
100
AcDbLine
 62
253
  6
CONTINUOUS
 10
-8.304371834
 20
-24.2456323968
 11
-10.570628166
 21
-24.2456323968
  0
LINE
  5
225
100
AcDbEntity
  8
ASSI
100
AcDbLine
 62
253
  6
CONTINUOUS
 10
-8.304371834
 20
-24.2456323968
 11
-10.570628166
 21
-24.2456323968
  0
LINE
  5
226
100
AcDbEntity
  8
RACCORDO
100
AcDbLine
 62
253
  6
CONTINUOUS
 10
-8.304371834
 20
-23.8443375673
 11
-10.570628166
 21
-23.8443375673
  0
LINE
  5
227
100
AcDbEntity
  8
ASSI
100
AcDbLine
 62
253
  6
CONTINUOUS
 10
-8.304371834
 20
-23.8443375673
 11
-10.570628166
 21
-23.8443375673
  0
LINE
  5
228
100
AcDbEntity
  8
DRAFT
100
AcDbLine
 62
7
  6
CONTINUOUS
 10
-4.4
 20
-23.8
 11
4.4
 21
-23.8
  0
LINE
  5
229
100
AcDbEntity
  8
ASSI
100
AcDbLine
 62
7
  6
CONTINUOUS
 10
-4.4
 20
-23.8
 11
4.4
 21
-23.8
  0
LINE
  5
22A
100
AcDbEntity
  8
DRAFT
100
AcDbLine
 62
7
  6
CONTINUOUS
 10
-3.5
 20
-23.7941821702
 11
3.5
 21
-23.7941821702
  0
LINE
  5
22B
100
AcDbEntity
  8
ASSI
100
AcDbLine
 62
7
  6
CONTINUOUS
 10
-3.5
 20
-23.7941821702
 11
3.5
 21
-23.7941821702
  0
LINE
  5
22C
100
AcDbEntity
  8
ASSI
100
AcDbLine
 62
7
  6
CONTINUOUS
 10
-4.3563493531
 20
-23.7563493531
 11
-3.5567500259
 21
-23.7563493531
  0
LINE
  5
22D
100
AcDbEntity
  8
ASSI
100
AcDbLine
 62
7
  6
CONTINUOUS
 10
3.5567500259
 20
-23.7563493531
 11
4.3563493531
 21
-23.7563493531
  0
LINE
  5
22E
100
AcDbEntity
  8
RACCORDO
100
AcDbLine
 62
7
  6
CONTINUOUS
 10
8.5543676032
 20
-23.7
 11
10.3206323968
 21
-23.7
  0
LINE
  5
22F
100
AcDbEntity
  8
ASSI
100
AcDbLine
 62
7
  6
CONTINUOUS
 10
8.5543676032
 20
-23.7
 11
10.3206323968
 21
-23.7
  0
LINE
  5
230
100
AcDbEntity
  8
RACCORDO
100
AcDbLine
 62
253
  6
CONTINUOUS
 10
-8.5543676032
 20
-23.6278312164
 11
-10.3206323968
 21
-23.6278312164
  0
LINE
  5
231
100
AcDbEntity
  8
ASSI
100
AcDbLine
 62
253
  6
CONTINUOUS
 10
-8.5543676032
 20
-23.6278312164
 11
-10.3206323968
 21
-23.6278312164
  0
LINE
  5
232
100
AcDbEntity
  8
RACCORDO
100
AcDbLine
 62
253
  6
CONTINUOUS
 10
-10.5823926099
 20
-22.35
 11
-10.5998476749
 21
-22.3412731322
  0
LINE
  5
233
100
AcDbEntity
  8
ASSI
100
AcDbLine
 62
253
  6
CONTINUOUS
 10
-10.5823926099
 20
-22.35
 11
-10.5998476749
 21
-22.3412731322
  0
LINE
  5
234
100
AcDbEntity
  8
ASSI
100
AcDbLine
 62
7
  6
CONTINUOUS
 10
-3.5
 20
23.7941821702
 11
-3.5567500259
 21
23.7563493531
  0
LINE
  5
235
100
AcDbEntity
  8
RACCORDO
100
AcDbLine
 62
7
  6
CONTINUOUS
 10
-8.0840245667
 20
20.9917082642
 11
-8.2465127091
 21
20.9104703804
  0
LINE
  5
236
100
AcDbEntity
  8
ASSI
100
AcDbLine
 62
7
  6
CONTINUOUS
 10
-8.0840245667
 20
20.9917082642
 11
-8.2465127091
 21
20.9104703804
  0
LINE
  5
237
100
AcDbEntity
  8
RACCORDO
100
AcDbLine
 62
7
  6
CONTINUOUS
 10
-7.4985274262
 20
22.2626551668
 11
-7.3087268678
 21
22.3412731322
  0
LINE
  5
238
100
AcDbEntity
  8
ASSI
100
AcDbLine
 62
7
  6
CONTINUOUS
 10
-7.4985274262
 20
22.2626551668
 11
-7.3087268678
 21
22.3412731322
  0
LINE
  5
239
100
AcDbEntity
  8
RACCORDO
100
AcDbLine
 62
7
  6
CONTINUOUS
 10
10.3257229979
 20
-23.1226497308
 11
8.5492770021
 21
-23.1226497308
  0
LINE
  5
23A
100
AcDbEntity
  8
ASSI
100
AcDbLine
 62
7
  6
CONTINUOUS
 10
10.3257229979
 20
-23.1226497308
 11
8.5492770021
 21
-23.1226497308
  0
LINE
  5
23B
100
AcDbEntity
  8
RACCORDO
100
AcDbLine
 62
7
  6
CONTINUOUS
 10
-8.5492770021
 20
-23.1226497308
 11
-10.3257229979
 21
-23.1226497308
  0
LINE
  5
23C
100
AcDbEntity
  8
ASSI
100
AcDbLine
 62
7
  6
CONTINUOUS
 10
-8.5492770021
 20
-23.1226497308
 11
-10.3257229979
 21
-23.1226497308
  0
LINE
  5
23D
100
AcDbEntity
  8
RACCORDO
100
AcDbLine
 62
7
  6
CONTINUOUS
 10
-10.5829255348
 20
-22.35
 11
-10.575
 21
-22.35
  0
LINE
  5
23E
100
AcDbEntity
  8
DRAFT
100
AcDbLine
 62
7
  6
CONTINUOUS
 10
4.4
 20
-22.35
 11
10.575
 21
-22.35
  0
LINE
  5
23F
100
AcDbEntity
  8
RACCORDO
100
AcDbLine
 62
7
  6
CONTINUOUS
 10
10.575
 20
-22.35
 11
10.5829255348
 21
-22.35
  0
LINE
  5
240
100
AcDbEntity
  8
DRAFT
100
AcDbLine
 62
7
  6
CONTINUOUS
 10
-4.4
 20
-22.35
 11
-10.575
 21
-22.35
  0
LINE
  5
241
100
AcDbEntity
  8
ASSI
100
AcDbLine
 62
7
  6
CONTINUOUS
 10
4.4
 20
-22.35
 11
10.5829255348
 21
-22.35
  0
LINE
  5
242
100
AcDbEntity
  8
ASSI
100
AcDbLine
 62
7
  6
CONTINUOUS
 10
-4.4
 20
-22.35
 11
-10.5829255348
 21
-22.35
  0
LINE
  5
243
100
AcDbEntity
  8
DRAFT
100
AcDbLine
 62
7
  6
CONTINUOUS
 10
-10.5998476749
 20
-22.3412731322
 11
-7.3087268678
 21
-22.3412731322
  0
LINE
  5
244
100
AcDbEntity
  8
ASSI
100
AcDbLine
 62
7
  6
CONTINUOUS
 10
-10.5998476749
 20
-22.3412731322
 11
-7.3087268678
 21
-22.3412731322
  0
LINE
  5
245
100
AcDbEntity
  8
DRAFT
100
AcDbLine
 62
7
  6
CONTINUOUS
 10
-3.5
 20
-22.3412731322
 11
-3.0
 21
-22.3412731322
  0
LINE
  5
246
100
AcDbEntity
  8
ASSI
100
AcDbLine
 62
7
  6
CONTINUOUS
 10
-3.5
 20
-22.3412731322
 11
-3.0
 21
-22.3412731322
  0
LINE
  5
247
100
AcDbEntity
  8
DRAFT
100
AcDbLine
 62
7
  6
CONTINUOUS
 10
3.0
 20
-22.3412731322
 11
3.5
 21
-22.3412731322
  0
LINE
  5
248
100
AcDbEntity
  8
ASSI
100
AcDbLine
 62
7
  6
CONTINUOUS
 10
3.0
 20
-22.3412731322
 11
3.5
 21
-22.3412731322
  0
LINE
  5
249
100
AcDbEntity
  8
DRAFT
100
AcDbLine
 62
7
  6
CONTINUOUS
 10
7.3087268678
 20
-22.3412731322
 11
10.5998476749
 21
-22.3412731322
  0
LINE
  5
24A
100
AcDbEntity
  8
ASSI
100
AcDbLine
 62
7
  6
CONTINUOUS
 10
7.3087268678
 20
-22.3412731322
 11
10.5998476749
 21
-22.3412731322
  0
LINE
  5
24B
100
AcDbEntity
  8
RACCORDO
100
AcDbLine
 62
253
  6
CONTINUOUS
 10
-7.4985274262
 20
-22.2626551668
 11
-3.0786179654
 21
-22.2626551668
  0
LINE
  5
24C
100
AcDbEntity
  8
ASSI
100
AcDbLine
 62
253
  6
CONTINUOUS
 10
-7.4985274262
 20
-22.2626551668
 11
-3.0786179654
 21
-22.2626551668
  0
LINE
  5
24D
100
AcDbEntity
  8
RACCORDO
100
AcDbLine
 62
253
  6
CONTINUOUS
 10
3.0786179654
 20
-22.2626551668
 11
7.4985274262
 21
-22.2626551668
  0
LINE
  5
24E
100
AcDbEntity
  8
ASSI
100
AcDbLine
 62
253
  6
CONTINUOUS
 10
3.0786179654
 20
-22.2626551668
 11
7.4985274262
 21
-22.2626551668
  0
LINE
  5
24F
100
AcDbEntity
  8
DRAFT
100
AcDbLine
 62
7
  6
CONTINUOUS
 10
3.0
 20
-21.7
 11
-3.0
 21
-21.7
  0
LINE
  5
250
100
AcDbEntity
  8
ASSI
100
AcDbLine
 62
7
  6
CONTINUOUS
 10
3.0
 20
-21.7
 11
-3.0
 21
-21.7
  0
LINE
  5
251
100
AcDbEntity
  8
RACCORDO
100
AcDbLine
 62
7
  6
CONTINUOUS
 10
-7.4985274262
 20
-22.2626551668
 11
-7.3087268678
 21
-22.3412731322
  0
LINE
  5
252
100
AcDbEntity
  8
ASSI
100
AcDbLine
 62
7
  6
CONTINUOUS
 10
-7.4985274262
 20
-22.2626551668
 11
-7.3087268678
 21
-22.3412731322
  0
LINE
  5
253
100
AcDbEntity
  8
RACCORDO
100
AcDbLine
 62
7
  6
CONTINUOUS
 10
-8.0840245667
 20
-20.9917082642
 11
-8.2465127091
 21
-20.9104703804
  0
LINE
  5
254
100
AcDbEntity
  8
ASSI
100
AcDbLine
 62
7
  6
CONTINUOUS
 10
-8.0840245667
 20
-20.9917082642
 11
-8.2465127091
 21
-20.9104703804
  0
LINE
  5
255
100
AcDbEntity
  8
ASSI
100
AcDbLine
 62
7
  6
CONTINUOUS
 10
-3.5
 20
-23.7941821702
 11
-3.5567500259
 21
-23.7563493531
  0
LINE
  5
256
100
AcDbEntity
  8
SMUSSO
100
AcDbLine
 62
7
  6
CONTINUOUS
 10
-9.6674550649
 20
20.1990396502
 11
-8.9673487273
 21
20.9
  0
LINE
  5
257
100
AcDbEntity
  8
ASSI
100
AcDbLine
 62
7
  6
CONTINUOUS
 10
-9.6674550649
 20
20.1990396502
 11
-8.9673487273
 21
20.9
  0
LINE
  5
258
100
AcDbEntity
  8
SMUSSO
100
AcDbLine
 62
7
  6
CONTINUOUS
 10
-8.9045104936
 20
20.7113319946
 11
-9.6046168312
 21
20.0103716448
  0
LINE
  5
259
100
AcDbEntity
  8
ASSI
100
AcDbLine
 62
7
  6
CONTINUOUS
 10
-8.9045104936
 20
20.7113319946
 11
-9.6046168312
 21
20.0103716448
  0
LINE
  5
25A
100
AcDbEntity
  8
DRAFT
100
AcDbLine
 62
7
  6
CONTINUOUS
 10
3.0722163905
 20
-21.6277836095
 11
-3.0722163905
 21
-21.6277836095
  0
LINE
  5
25B
100
AcDbEntity
  8
ASSI
100
AcDbLine
 62
7
  6
CONTINUOUS
 10
3.0722163905
 20
-21.6277836095
 11
-3.0722163905
 21
-21.6277836095
  0
LINE
  5
25C
100
AcDbEntity
  8
RACCORDO
100
AcDbLine
 62
253
  6
CONTINUOUS
 10
-7.5841007192
 20
-21.2626932437
 11
-3.0872686779
 21
-21.2626932437
  0
LINE
  5
25D
100
AcDbEntity
  8
ASSI
100
AcDbLine
 62
253
  6
CONTINUOUS
 10
-7.5841007192
 20
-21.2626932437
 11
-3.0872686779
 21
-21.2626932437
  0
LINE
  5
25E
100
AcDbEntity
  8
RACCORDO
100
AcDbLine
 62
253
  6
CONTINUOUS
 10
3.0872686779
 20
-21.2626932437
 11
7.5841007192
 21
-21.2626932437
  0
LINE
  5
25F
100
AcDbEntity
  8
ASSI
100
AcDbLine
 62
253
  6
CONTINUOUS
 10
3.0872686779
 20
-21.2626932437
 11
7.5841007192
 21
-21.2626932437
  0
LINE
  5
260
100
AcDbEntity
  8
DRAFT
100
AcDbLine
 62
7
  6
CONTINUOUS
 10
-3.0872686779
 20
-21.0
 11
3.0872686779
 21
-21.0
  0
LINE
  5
261
100
AcDbEntity
  8
ASSI
100
AcDbLine
 62
7
  6
CONTINUOUS
 10
-3.0872686779
 20
-21.0
 11
3.0872686779
 21
-21.0
  0
LINE
  5
262
100
AcDbEntity
  8
RACCORDO
100
AcDbLine
 62
7
  6
CONTINUOUS
 10
7.5841007192
 20
-20.9959955457
 11
7.0429818832
 21
-20.9959955457
  0
LINE
  5
263
100
AcDbEntity
  8
ASSI
100
AcDbLine
 62
7
  6
CONTINUOUS
 10
7.5841007192
 20
-20.9959955457
 11
7.0429818832
 21
-20.9959955457
  0
LINE
  5
264
100
AcDbEntity
  8
RACCORDO
100
AcDbLine
 62
7
  6
CONTINUOUS
 10
-7.0429818832
 20
-20.9959955457
 11
-7.5841007192
 21
-20.9959955457
  0
LINE
  5
265
100
AcDbEntity
  8
ASSI
100
AcDbLine
 62
7
  6
CONTINUOUS
 10
-7.0429818832
 20
-20.9959955457
 11
-7.5841007192
 21
-20.9959955457
  0
LINE
  5
266
100
AcDbEntity
  8
DRAFT
100
AcDbLine
 62
7
  6
CONTINUOUS
 10
-8.2465127091
 20
-20.9104703804
 11
-7.2988376746
 21
-20.9104703804
  0
LINE
  5
267
100
AcDbEntity
  8
ASSI
100
AcDbLine
 62
7
  6
CONTINUOUS
 10
-8.2465127091
 20
-20.9104703804
 11
-7.2988376746
 21
-20.9104703804
  0
LINE
  5
268
100
AcDbEntity
  8
DRAFT
100
AcDbLine
 62
7
  6
CONTINUOUS
 10
7.2988376746
 20
-20.9104703804
 11
8.2465127091
 21
-20.9104703804
  0
LINE
  5
269
100
AcDbEntity
  8
ASSI
100
AcDbLine
 62
7
  6
CONTINUOUS
 10
7.2988376746
 20
-20.9104703804
 11
8.2465127091
 21
-20.9104703804
  0
LINE
  5
26A
100
AcDbEntity
  8
SMUSSO
100
AcDbLine
 62
7
  6
CONTINUOUS
 10
-8.9673487273
 20
-20.9
 11
-8.25
 21
-20.9
  0
LINE
  5
26B
100
AcDbEntity
  8
ASSI
100
AcDbLine
 62
7
  6
CONTINUOUS
 10
-8.9673487273
 20
-20.9
 11
-8.25
 21
-20.9
  0
LINE
  5
26C
100
AcDbEntity
  8
SMUSSO
100
AcDbLine
 62
7
  6
CONTINUOUS
 10
8.25
 20
-20.9
 11
8.9673487273
 21
-20.9
  0
LINE
  5
26D
100
AcDbEntity
  8
ASSI
100
AcDbLine
 62
7
  6
CONTINUOUS
 10
8.25
 20
-20.9
 11
8.9673487273
 21
-20.9
  0
LINE
  5
26E
100
AcDbEntity
  8
RACCORDO
100
AcDbLine
 62
253
  6
CONTINUOUS
 10
6.7570181168
 20
-20.5829242832
 11
-6.7570181168
 21
-20.5829242832
  0
LINE
  5
26F
100
AcDbEntity
  8
ASSI
100
AcDbLine
 62
253
  6
CONTINUOUS
 10
6.7570181168
 20
-20.5829242832
 11
-6.7570181168
 21
-20.5829242832
  0
LINE
  5
270
100
AcDbEntity
  8
SMUSSO
100
AcDbLine
 62
7
  6
CONTINUOUS
 10
8.8119986495
 20
-20.4335707644
 11
7.3517786853
 21
-20.4335707644
  0
LINE
  5
271
100
AcDbEntity
  8
ASSI
100
AcDbLine
 62
7
  6
CONTINUOUS
 10
8.8119986495
 20
-20.4335707644
 11
7.3517786853
 21
-20.4335707644
  0
LINE
  5
272
100
AcDbEntity
  8
SMUSSO
100
AcDbLine
 62
7
  6
CONTINUOUS
 10
-7.3517786853
 20
-20.4335707644
 11
-8.8119986495
 21
-20.4335707644
  0
LINE
  5
273
100
AcDbEntity
  8
ASSI
100
AcDbLine
 62
7
  6
CONTINUOUS
 10
-7.3517786853
 20
-20.4335707644
 11
-8.8119986495
 21
-20.4335707644
  0
LINE
  5
274
100
AcDbEntity
  8
RACCORDO
100
AcDbLine
 62
253
  6
CONTINUOUS
 10
6.555294768
 20
-20.0829433217
 11
-6.555294768
 21
-20.0829433217
  0
LINE
  5
275
100
AcDbEntity
  8
ASSI
100
AcDbLine
 62
7
  6
CONTINUOUS
 10
6.555294768
 20
-20.0829433217
 11
-6.555294768
 21
-20.0829433217
  0
LINE
  5
276
100
AcDbEntity
  8
RACCORDO
100
AcDbLine
 62
253
  6
CONTINUOUS
 10
7.2429784985
 20
-19.9267239376
 11
7.0429818832
 21
-19.9267239376
  0
LINE
  5
277
100
AcDbEntity
  8
ASSI
100
AcDbLine
 62
253
  6
CONTINUOUS
 10
7.2429784985
 20
-19.9267239376
 11
7.0429818832
 21
-19.9267239376
  0
LINE
  5
278
100
AcDbEntity
  8
RACCORDO
100
AcDbLine
 62
253
  6
CONTINUOUS
 10
-6.7570181168
 20
-19.9267239376
 11
-6.5570215015
 21
-19.9267239376
  0
LINE
  5
279
100
AcDbEntity
  8
ASSI
100
AcDbLine
 62
253
  6
CONTINUOUS
 10
-6.7570181168
 20
-19.9267239376
 11
-6.5570215015
 21
-19.9267239376
  0
LINE
  5
27A
100
AcDbEntity
  8
RACCORDO
100
AcDbLine
 62
253
  6
CONTINUOUS
 10
6.5570215015
 20
-19.9267239376
 11
6.7570181168
 21
-19.9267239376
  0
LINE
  5
27B
100
AcDbEntity
  8
ASSI
100
AcDbLine
 62
253
  6
CONTINUOUS
 10
6.5570215015
 20
-19.9267239376
 11
6.7570181168
 21
-19.9267239376
  0
LINE
  5
27C
100
AcDbEntity
  8
RACCORDO
100
AcDbLine
 62
253
  6
CONTINUOUS
 10
-7.0429818832
 20
-19.9267239376
 11
-7.2429784985
 21
-19.9267239376
  0
LINE
  5
27D
100
AcDbEntity
  8
ASSI
100
AcDbLine
 62
253
  6
CONTINUOUS
 10
-7.0429818832
 20
-19.9267239376
 11
-7.2429784985
 21
-19.9267239376
  0
LINE
  5
27E
100
AcDbEntity
  8
DRAFT
100
AcDbLine
 62
7
  6
CONTINUOUS
 10
-6.4482213147
 20
-19.9223308767
 11
6.4482213147
 21
-19.9223308767
  0
LINE
  5
27F
100
AcDbEntity
  8
ASSI
100
AcDbLine
 62
7
  6
CONTINUOUS
 10
-6.4482213147
 20
-19.9223308767
 11
6.4482213147
 21
-19.9223308767
  0
LINE
  5
280
100
AcDbEntity
  8
SMUSSO
100
AcDbLine
 62
7
  6
CONTINUOUS
 10
-8.9673487273
 20
-20.9
 11
-9.6674550649
 21
-20.1990396502
  0
LINE
  5
281
100
AcDbEntity
  8
ASSI
100
AcDbLine
 62
7
  6
CONTINUOUS
 10
-8.9673487273
 20
-20.9
 11
-9.6674550649
 21
-20.1990396502
  0
LINE
  5
282
100
AcDbEntity
  8
SMUSSO
100
AcDbLine
 62
7
  6
CONTINUOUS
 10
-9.5121049871
 20
-19.7326104146
 11
-8.8119986495
 21
-20.4335707644
  0
LINE
  5
283
100
AcDbEntity
  8
ASSI
100
AcDbLine
 62
7
  6
CONTINUOUS
 10
-9.5121049871
 20
-19.7326104146
 11
-8.8119986495
 21
-20.4335707644
  0
LINE
  5
284
100
AcDbEntity
  8
RACCORDO
100
AcDbLine
 62
7
  6
CONTINUOUS
 10
-3.5
 20
22.3412731322
 11
-3.5576357838
 21
22.2836373484
  0
LINE
  5
285
100
AcDbEntity
  8
ASSI
100
AcDbLine
 62
7
  6
CONTINUOUS
 10
-3.5
 20
22.3412731322
 11
-3.5576357838
 21
22.2836373484
  0
LINE
  5
286
100
AcDbEntity
  8
DRAFT
100
AcDbLine
 62
7
  6
CONTINUOUS
 10
6.0
 20
-18.8839326584
 11
6.7019074668
 21
-18.7085226158
  0
LINE
  5
287
100
AcDbEntity
  8
ASSI
100
AcDbLine
 62
7
  6
CONTINUOUS
 10
6.0
 20
-18.8839326584
 11
6.7019074668
 21
-18.7085226158
  0
LINE
  5
288
100
AcDbEntity
  8
DRAFT
100
AcDbLine
 62
7
  6
CONTINUOUS
 10
-11.1
 20
-19.1874886635
 11
-9.6674550649
 21
-19.1874886635
  0
LINE
  5
289
100
AcDbEntity
  8
ASSI
100
AcDbLine
 62
7
  6
CONTINUOUS
 10
-11.1
 20
-19.1874886635
 11
-9.6674550649
 21
-19.1874886635
  0
LINE
  5
28A
100
AcDbEntity
  8
DRAFT
100
AcDbLine
 62
7
  6
CONTINUOUS
 10
9.6674550649
 20
-19.1874886635
 11
11.1
 21
-19.1874886635
  0
LINE
  5
28B
100
AcDbEntity
  8
ASSI
100
AcDbLine
 62
7
  6
CONTINUOUS
 10
9.6674550649
 20
-19.1874886635
 11
11.1
 21
-19.1874886635
  0
LINE
  5
28C
100
AcDbEntity
  8
DRAFT
100
AcDbLine
 62
7
  6
CONTINUOUS
 10
-11.0825449351
 20
-19.1
 11
-9.65
 21
-19.1
  0
LINE
  5
28D
100
AcDbEntity
  8
ASSI
100
AcDbLine
 62
7
  6
CONTINUOUS
 10
-11.0825449351
 20
-19.1
 11
-9.65
 21
-19.1
  0
LINE
  5
28E
100
AcDbEntity
  8
DRAFT
100
AcDbLine
 62
7
  6
CONTINUOUS
 10
9.65
 20
-19.1
 11
11.0825449351
 21
-19.1
  0
LINE
  5
28F
100
AcDbEntity
  8
ASSI
100
AcDbLine
 62
7
  6
CONTINUOUS
 10
9.65
 20
-19.1
 11
11.0825449351
 21
-19.1
  0
LINE
  5
290
100
AcDbEntity
  8
DRAFT
100
AcDbLine
 62
7
  6
CONTINUOUS
 10
-11.1
 20
-19.0
 11
-7.75
 21
-19.0
  0
LINE
  5
291
100
AcDbEntity
  8
ASSI
100
AcDbLine
 62
7
  6
CONTINUOUS
 10
-11.1
 20
-19.0
 11
-7.75
 21
-19.0
  0
LINE
  5
292
100
AcDbEntity
  8
DRAFT
100
AcDbLine
 62
7
  6
CONTINUOUS
 10
7.75
 20
-19.0
 11
11.1
 21
-19.0
  0
LINE
  5
293
100
AcDbEntity
  8
ASSI
100
AcDbLine
 62
7
  6
CONTINUOUS
 10
7.75
 20
-19.0
 11
11.1
 21
-19.0
  0
LINE
  5
294
100
AcDbEntity
  8
DRAFT
100
AcDbLine
 62
7
  6
CONTINUOUS
 10
-7.7979977728
 20
-18.9520022272
 11
7.7979977728
 21
-18.9520022272
  0
LINE
  5
295
100
AcDbEntity
  8
ASSI
100
AcDbLine
 62
7
  6
CONTINUOUS
 10
-7.7979977728
 20
-18.9520022272
 11
7.7979977728
 21
-18.9520022272
  0
LINE
  5
296
100
AcDbEntity
  8
DRAFT
100
AcDbLine
 62
7
  6
CONTINUOUS
 10
6.0
 20
-18.8839326584
 11
-6.0
 21
-18.8839326584
  0
LINE
  5
297
100
AcDbEntity
  8
ASSI
100
AcDbLine
 62
7
  6
CONTINUOUS
 10
6.0
 20
-18.8839326584
 11
-6.0
 21
-18.8839326584
  0
LINE
  5
298
100
AcDbEntity
  8
DRAFT
100
AcDbLine
 62
7
  6
CONTINUOUS
 10
10.8085226158
 20
-18.7085226158
 11
6.7019074668
 21
-18.7085226158
  0
LINE
  5
299
100
AcDbEntity
  8
ASSI
100
AcDbLine
 62
7
  6
CONTINUOUS
 10
10.8085226158
 20
-18.7085226158
 11
6.7019074668
 21
-18.7085226158
  0
LINE
  5
29A
100
AcDbEntity
  8
DRAFT
100
AcDbLine
 62
7
  6
CONTINUOUS
 10
-6.7019074668
 20
-18.7085226158
 11
-10.8085226158
 21
-18.7085226158
  0
LINE
  5
29B
100
AcDbEntity
  8
ASSI
100
AcDbLine
 62
7
  6
CONTINUOUS
 10
-6.7019074668
 20
-18.7085226158
 11
-10.8085226158
 21
-18.7085226158
  0
LINE
  5
29C
100
AcDbEntity
  8
DRAFT
100
AcDbLine
 62
7
  6
CONTINUOUS
 10
-6.0
 20
-18.8839326584
 11
-6.7019074668
 21
-18.7085226158
  0
LINE
  5
29D
100
AcDbEntity
  8
ASSI
100
AcDbLine
 62
7
  6
CONTINUOUS
 10
-6.0
 20
-18.8839326584
 11
-6.7019074668
 21
-18.7085226158
  0
LINE
  5
29E
100
AcDbEntity
  8
DRAFT
100
AcDbLine
 62
7
  6
CONTINUOUS
 10
-7.75
 20
-19.0
 11
-7.7979977728
 21
-18.9520022272
  0
LINE
  5
29F
100
AcDbEntity
  8
ASSI
100
AcDbLine
 62
7
  6
CONTINUOUS
 10
-7.75
 20
-19.0
 11
-7.7979977728
 21
-18.9520022272
  0
LINE
  5
2A0
100
AcDbEntity
  8
DRAFT
100
AcDbLine
 62
7
  6
CONTINUOUS
 10
-8.778184492
 20
-17.221815508
 11
-8.7867049498
 21
-17.2132950502
  0
LINE
  5
2A1
100
AcDbEntity
  8
ASSI
100
AcDbLine
 62
7
  6
CONTINUOUS
 10
-8.778184492
 20
-17.221815508
 11
-8.7867049498
 21
-17.2132950502
  0
LINE
  5
2A2
100
AcDbEntity
  8
RACCORDO
100
AcDbLine
 62
7
  6
CONTINUOUS
 10
-3.5
 20
-22.3412731322
 11
-3.5576357838
 21
-22.2836373484
  0
LINE
  5
2A3
100
AcDbEntity
  8
ASSI
100
AcDbLine
 62
7
  6
CONTINUOUS
 10
-3.5
 20
-22.3412731322
 11
-3.5576357838
 21
-22.2836373484
  0
LINE
  5
2A4
100
AcDbEntity
  8
RACCORDO
100
AcDbLine
 62
7
  6
CONTINUOUS
 10
-8.0840245667
 20
21.6833288495
 11
-8.25
 21
21.4
  0
LINE
  5
2A5
100
AcDbEntity
  8
ASSI
100
AcDbLine
 62
7
  6
CONTINUOUS
 10
-8.0840245667
 20
21.6833288495
 11
-8.25
 21
21.4
  0
LINE
  5
2A6
100
AcDbEntity
  8
RACCORDO
100
AcDbLine
 62
7
  6
CONTINUOUS
 10
-7.2429784985
 20
20.9942603263
 11
-7.2988376746
 21
20.9104703804
  0
LINE
  5
2A7
100
AcDbEntity
  8
ASSI
100
AcDbLine
 62
7
  6
CONTINUOUS
 10
-7.2429784985
 20
20.9942603263
 11
-7.2988376746
 21
20.9104703804
  0
LINE
  5
2A8
100
AcDbEntity
  8
RACCORDO
100
AcDbLine
 62
7
  6
CONTINUOUS
 10
-3.0786179654
 20
22.2626551668
 11
-3.0
 21
22.3412731322
  0
LINE
  5
2A9
100
AcDbEntity
  8
ASSI
100
AcDbLine
 62
7
  6
CONTINUOUS
 10
-3.0786179654
 20
22.2626551668
 11
-3.0
 21
22.3412731322
  0
LINE
  5
2AA
100
AcDbEntity
  8
DRAFT
100
AcDbLine
 62
7
  6
CONTINUOUS
 10
-3.0722163905
 20
21.6277836095
 11
-3.0
 21
21.7
  0
LINE
  5
2AB
100
AcDbEntity
  8
ASSI
100
AcDbLine
 62
7
  6
CONTINUOUS
 10
-3.0722163905
 20
21.6277836095
 11
-3.0
 21
21.7
  0
LINE
  5
2AC
100
AcDbEntity
  8
RACCORDO
100
AcDbLine
 62
7
  6
CONTINUOUS
 10
-4.531416724
 20
19.968583276
 11
-4.5025952137
 21
19.9974047863
  0
LINE
  5
2AD
100
AcDbEntity
  8
ASSI
100
AcDbLine
 62
7
  6
CONTINUOUS
 10
-4.531416724
 20
19.968583276
 11
-4.5025952137
 21
19.9974047863
  0
LINE
  5
2AE
100
AcDbEntity
  8
DRAFT
100
AcDbLine
 62
7
  6
CONTINUOUS
 10
9.4522218454
 20
-15.1244352298
 11
9.55
 21
-15.1
  0
LINE
  5
2AF
100
AcDbEntity
  8
ASSI
100
AcDbLine
 62
7
  6
CONTINUOUS
 10
9.4522218454
 20
-15.1244352298
 11
9.55
 21
-15.1
  0
LINE
  5
2B0
100
AcDbEntity
  8
DRAFT
100
AcDbLine
 62
7
  6
CONTINUOUS
 10
9.55
 20
-17.2015400355
 11
8.7867049498
 21
-17.2132950502
  0
LINE
  5
2B1
100
AcDbEntity
  8
ASSI
100
AcDbLine
 62
7
  6
CONTINUOUS
 10
9.55
 20
-17.2015400355
 11
8.7867049498
 21
-17.2132950502
  0
LINE
  5
2B2
100
AcDbEntity
  8
DRAFT
100
AcDbLine
 62
7
  6
CONTINUOUS
 10
9.8414773842
 20
-17.6914773842
 11
6.7019074668
 21
-17.6914773842
  0
LINE
  5
2B3
100
AcDbEntity
  8
ASSI
100
AcDbLine
 62
7
  6
CONTINUOUS
 10
9.8414773842
 20
-17.6914773842
 11
6.7019074668
 21
-17.6914773842
  0
LINE
  5
2B4
100
AcDbEntity
  8
DRAFT
100
AcDbLine
 62
7
  6
CONTINUOUS
 10
-6.7019074668
 20
-17.6914773842
 11
-9.8414773842
 21
-17.6914773842
  0
LINE
  5
2B5
100
AcDbEntity
  8
ASSI
100
AcDbLine
 62
7
  6
CONTINUOUS
 10
-6.7019074668
 20
-17.6914773842
 11
-9.8414773842
 21
-17.6914773842
  0
LINE
  5
2B6
100
AcDbEntity
  8
DRAFT
100
AcDbLine
 62
7
  6
CONTINUOUS
 10
6.0
 20
-17.5160673416
 11
-6.0
 21
-17.5160673416
  0
LINE
  5
2B7
100
AcDbEntity
  8
ASSI
100
AcDbLine
 62
7
  6
CONTINUOUS
 10
6.0
 20
-17.5160673416
 11
-6.0
 21
-17.5160673416
  0
LINE
  5
2B8
100
AcDbEntity
  8
DRAFT
100
AcDbLine
 62
7
  6
CONTINUOUS
 10
7.7979977728
 20
-17.4479977728
 11
-7.7979977728
 21
-17.4479977728
  0
LINE
  5
2B9
100
AcDbEntity
  8
ASSI
100
AcDbLine
 62
7
  6
CONTINUOUS
 10
7.7979977728
 20
-17.4479977728
 11
-7.7979977728
 21
-17.4479977728
  0
LINE
  5
2BA
100
AcDbEntity
  8
DRAFT
100
AcDbLine
 62
7
  6
CONTINUOUS
 10
-9.4522218454
 20
-17.3755647702
 11
-7.7255647702
 21
-17.3755647702
  0
LINE
  5
2BB
100
AcDbEntity
  8
ASSI
100
AcDbLine
 62
7
  6
CONTINUOUS
 10
-9.4522218454
 20
-17.3755647702
 11
-7.7255647702
 21
-17.3755647702
  0
LINE
  5
2BC
100
AcDbEntity
  8
DRAFT
100
AcDbLine
 62
7
  6
CONTINUOUS
 10
7.7255647702
 20
-17.3755647702
 11
9.4522218454
 21
-17.3755647702
  0
LINE
  5
2BD
100
AcDbEntity
  8
ASSI
100
AcDbLine
 62
7
  6
CONTINUOUS
 10
7.7255647702
 20
-17.3755647702
 11
9.4522218454
 21
-17.3755647702
  0
LINE
  5
2BE
100
AcDbEntity
  8
DRAFT
100
AcDbLine
 62
7
  6
CONTINUOUS
 10
-9.55
 20
-17.2218742881
 11
-8.778184492
 21
-17.221815508
  0
LINE
  5
2BF
100
AcDbEntity
  8
ASSI
100
AcDbLine
 62
7
  6
CONTINUOUS
 10
-9.55
 20
-17.2218742881
 11
-8.778184492
 21
-17.221815508
  0
LINE
  5
2C0
100
AcDbEntity
  8
DRAFT
100
AcDbLine
 62
7
  6
CONTINUOUS
 10
8.778184492
 20
-16.85
 11
7.7255647702
 21
-16.85
  0
LINE
  5
2C1
100
AcDbEntity
  8
ASSI
100
AcDbLine
 62
7
  6
CONTINUOUS
 10
8.778184492
 20
-16.85
 11
7.7255647702
 21
-16.85
  0
LINE
  5
2C2
100
AcDbEntity
  8
DRAFT
100
AcDbLine
 62
7
  6
CONTINUOUS
 10
-7.7255647702
 20
-16.85
 11
-8.778184492
 21
-16.85
  0
LINE
  5
2C3
100
AcDbEntity
  8
ASSI
100
AcDbLine
 62
7
  6
CONTINUOUS
 10
-7.7255647702
 20
-16.85
 11
-8.778184492
 21
-16.85
  0
LINE
  5
2C4
100
AcDbEntity
  8
DRAFT
100
AcDbLine
 62
7
  6
CONTINUOUS
 10
8.778184492
 20
-17.221815508
 11
9.55
 21
-17.2218742881
  0
LINE
  5
2C5
100
AcDbEntity
  8
ASSI
100
AcDbLine
 62
7
  6
CONTINUOUS
 10
8.778184492
 20
-17.221815508
 11
9.55
 21
-17.2218742881
  0
LINE
  5
2C6
100
AcDbEntity
  8
DRAFT
100
AcDbLine
 62
7
  6
CONTINUOUS
 10
-8.7867049498
 20
-17.2132950502
 11
-9.55
 21
-17.2015400355
  0
LINE
  5
2C7
100
AcDbEntity
  8
ASSI
100
AcDbLine
 62
7
  6
CONTINUOUS
 10
-8.7867049498
 20
-17.2132950502
 11
-9.55
 21
-17.2015400355
  0
LINE
  5
2C8
100
AcDbEntity
  8
DRAFT
100
AcDbLine
 62
7
  6
CONTINUOUS
 10
-9.4522218454
 20
-15.1244352298
 11
-9.55
 21
-15.1
  0
LINE
  5
2C9
100
AcDbEntity
  8
ASSI
100
AcDbLine
 62
7
  6
CONTINUOUS
 10
-9.4522218454
 20
-15.1244352298
 11
-9.55
 21
-15.1
  0
LINE
  5
2CA
100
AcDbEntity
  8
RACCORDO
100
AcDbLine
 62
7
  6
CONTINUOUS
 10
-3.0786179654
 20
-22.2626551668
 11
-3.0
 21
-22.3412731322
  0
LINE
  5
2CB
100
AcDbEntity
  8
ASSI
100
AcDbLine
 62
7
  6
CONTINUOUS
 10
-3.0786179654
 20
-22.2626551668
 11
-3.0
 21
-22.3412731322
  0
LINE
  5
2CC
100
AcDbEntity
  8
DRAFT
100
AcDbLine
 62
7
  6
CONTINUOUS
 10
-3.0722163905
 20
-21.6277836095
 11
-3.0
 21
-21.7
  0
LINE
  5
2CD
100
AcDbEntity
  8
ASSI
100
AcDbLine
 62
7
  6
CONTINUOUS
 10
-3.0722163905
 20
-21.6277836095
 11
-3.0
 21
-21.7
  0
LINE
  5
2CE
100
AcDbEntity
  8
DRAFT
100
AcDbLine
 62
7
  6
CONTINUOUS
 10
-9.8414773842
 20
-14.8085226158
 11
-9.55
 21
-15.1
  0
LINE
  5
2CF
100
AcDbEntity
  8
ASSI
100
AcDbLine
 62
7
  6
CONTINUOUS
 10
-9.8414773842
 20
-14.8085226158
 11
-9.55
 21
-15.1
  0
LINE
  5
2D0
100
AcDbEntity
  8
DRAFT
100
AcDbLine
 62
7
  6
CONTINUOUS
 10
-9.5872686779
 20
-14.8085226158
 11
-9.5
 21
-14.8957912937
  0
LINE
  5
2D1
100
AcDbEntity
  8
ASSI
100
AcDbLine
 62
7
  6
CONTINUOUS
 10
-9.5872686779
 20
-14.8085226158
 11
-9.5
 21
-14.8957912937
  0
LINE
  5
2D2
100
AcDbEntity
  8
RACCORDO
100
AcDbLine
 62
7
  6
CONTINUOUS
 10
-7.2429784985
 20
-20.9942603263
 11
-7.2988376746
 21
-20.9104703804
  0
LINE
  5
2D3
100
AcDbEntity
  8
ASSI
100
AcDbLine
 62
7
  6
CONTINUOUS
 10
-7.2429784985
 20
-20.9942603263
 11
-7.2988376746
 21
-20.9104703804
  0
LINE
  5
2D4
100
AcDbEntity
  8
RACCORDO
100
AcDbLine
 62
7
  6
CONTINUOUS
 10
-8.0840245667
 20
-21.6833288495
 11
-8.25
 21
-21.4
  0
LINE
  5
2D5
100
AcDbEntity
  8
ASSI
100
AcDbLine
 62
7
  6
CONTINUOUS
 10
-8.0840245667
 20
-21.6833288495
 11
-8.25
 21
-21.4
  0
LINE
  5
2D6
100
AcDbEntity
  8
DRAFT
100
AcDbLine
 62
7
  6
CONTINUOUS
 10
-8.25
 20
20.9
 11
-8.2465127091
 21
20.9104703804
  0
LINE
  5
2D7
100
AcDbEntity
  8
ASSI
100
AcDbLine
 62
7
  6
CONTINUOUS
 10
-8.25
 20
20.9
 11
-8.2465127091
 21
20.9104703804
  0
LINE
  5
2D8
100
AcDbEntity
  8
RACCORDO
100
AcDbLine
 62
253
  6
CONTINUOUS
 10
-4.5602153878
 20
17.5397731892
 11
-4.5043253562
 21
17.5956632207
  0
LINE
  5
2D9
100
AcDbEntity
  8
ASSI
100
AcDbLine
 62
253
  6
CONTINUOUS
 10
-4.5602153878
 20
17.5397731892
 11
-4.5043253562
 21
17.5956632207
  0
LINE
  5
2DA
100
AcDbEntity
  8
RACCORDO
100
AcDbLine
 62
253
  6
CONTINUOUS
 10
-4.2602268108
 20
17.2397846122
 11
-4.2043367793
 21
17.2956746438
  0
LINE
  5
2DB
100
AcDbEntity
  8
ASSI
100
AcDbLine
 62
253
  6
CONTINUOUS
 10
-4.2602268108
 20
17.2397846122
 11
-4.2043367793
 21
17.2956746438
  0
LINE
  5
2DC
100
AcDbEntity
  8
DRAFT
100
AcDbLine
 62
7
  6
CONTINUOUS
 10
-6.0
 20
-17.5160673416
 11
-6.7019074668
 21
-17.6914773842
  0
LINE
  5
2DD
100
AcDbEntity
  8
ASSI
100
AcDbLine
 62
7
  6
CONTINUOUS
 10
-6.0
 20
-17.5160673416
 11
-6.7019074668
 21
-17.6914773842
  0
LINE
  5
2DE
100
AcDbEntity
  8
DRAFT
100
AcDbLine
 62
7
  6
CONTINUOUS
 10
-9.4522218454
 20
-17.3755647702
 11
-9.55
 21
-17.4
  0
LINE
  5
2DF
100
AcDbEntity
  8
ASSI
100
AcDbLine
 62
7
  6
CONTINUOUS
 10
-9.4522218454
 20
-17.3755647702
 11
-9.55
 21
-17.4
  0
LINE
  5
2E0
100
AcDbEntity
  8
DRAFT
100
AcDbLine
 62
7
  6
CONTINUOUS
 10
-8.7867049498
 20
-15.3867049498
 11
-9.55
 21
-15.3984599645
  0
LINE
  5
2E1
100
AcDbEntity
  8
ASSI
100
AcDbLine
 62
7
  6
CONTINUOUS
 10
-8.7867049498
 20
-15.3867049498
 11
-9.55
 21
-15.3984599645
  0
LINE
  5
2E2
100
AcDbEntity
  8
DRAFT
100
AcDbLine
 62
7
  6
CONTINUOUS
 10
-8.778184492
 20
-15.65
 11
-7.7255647702
 21
-15.65
  0
LINE
  5
2E3
100
AcDbEntity
  8
ASSI
100
AcDbLine
 62
7
  6
CONTINUOUS
 10
-8.778184492
 20
-15.65
 11
-7.7255647702
 21
-15.65
  0
LINE
  5
2E4
100
AcDbEntity
  8
DRAFT
100
AcDbLine
 62
7
  6
CONTINUOUS
 10
7.7255647702
 20
-15.65
 11
8.778184492
 21
-15.65
  0
LINE
  5
2E5
100
AcDbEntity
  8
ASSI
100
AcDbLine
 62
7
  6
CONTINUOUS
 10
7.7255647702
 20
-15.65
 11
8.778184492
 21
-15.65
  0
LINE
  5
2E6
100
AcDbEntity
  8
DRAFT
100
AcDbLine
 62
7
  6
CONTINUOUS
 10
8.778184492
 20
-15.378184492
 11
9.55
 21
-15.3781257119
  0
LINE
  5
2E7
100
AcDbEntity
  8
ASSI
100
AcDbLine
 62
7
  6
CONTINUOUS
 10
8.778184492
 20
-15.378184492
 11
9.55
 21
-15.3781257119
  0
LINE
  5
2E8
100
AcDbEntity
  8
DRAFT
100
AcDbLine
 62
7
  6
CONTINUOUS
 10
-9.4522218454
 20
-15.1244352298
 11
-7.7255647702
 21
-15.1244352298
  0
LINE
  5
2E9
100
AcDbEntity
  8
ASSI
100
AcDbLine
 62
7
  6
CONTINUOUS
 10
-9.4522218454
 20
-15.1244352298
 11
-7.7255647702
 21
-15.1244352298
  0
LINE
  5
2EA
100
AcDbEntity
  8
DRAFT
100
AcDbLine
 62
7
  6
CONTINUOUS
 10
7.7255647702
 20
-15.1244352298
 11
9.4522218454
 21
-15.1244352298
  0
LINE
  5
2EB
100
AcDbEntity
  8
ASSI
100
AcDbLine
 62
7
  6
CONTINUOUS
 10
7.7255647702
 20
-15.1244352298
 11
9.4522218454
 21
-15.1244352298
  0
LINE
  5
2EC
100
AcDbEntity
  8
DRAFT
100
AcDbLine
 62
7
  6
CONTINUOUS
 10
-9.5
 20
-14.8957912937
 11
-7.9542087063
 21
-14.8957912937
  0
LINE
  5
2ED
100
AcDbEntity
  8
ASSI
100
AcDbLine
 62
7
  6
CONTINUOUS
 10
-9.5
 20
-14.8957912937
 11
-7.9542087063
 21
-14.8957912937
  0
LINE
  5
2EE
100
AcDbEntity
  8
DRAFT
100
AcDbLine
 62
7
  6
CONTINUOUS
 10
9.5
 20
-14.8957912937
 11
7.9542087063
 21
-14.8957912937
  0
LINE
  5
2EF
100
AcDbEntity
  8
ASSI
100
AcDbLine
 62
7
  6
CONTINUOUS
 10
9.5
 20
-14.8957912937
 11
7.9542087063
 21
-14.8957912937
  0
LINE
  5
2F0
100
AcDbEntity
  8
DRAFT
100
AcDbLine
 62
7
  6
CONTINUOUS
 10
-9.8414773842
 20
-14.8085226158
 11
-9.5872686779
 21
-14.8085226158
  0
LINE
  5
2F1
100
AcDbEntity
  8
ASSI
100
AcDbLine
 62
7
  6
CONTINUOUS
 10
-9.8414773842
 20
-14.8085226158
 11
-9.5872686779
 21
-14.8085226158
  0
LINE
  5
2F2
100
AcDbEntity
  8
DRAFT
100
AcDbLine
 62
7
  6
CONTINUOUS
 10
9.5872686779
 20
-14.8085226158
 11
9.8414773842
 21
-14.8085226158
  0
LINE
  5
2F3
100
AcDbEntity
  8
ASSI
100
AcDbLine
 62
7
  6
CONTINUOUS
 10
9.5872686779
 20
-14.8085226158
 11
9.8414773842
 21
-14.8085226158
  0
LINE
  5
2F4
100
AcDbEntity
  8
RACCORDO
100
AcDbLine
 62
253
  6
CONTINUOUS
 10
9.5
 20
-14.5108367263
 11
7.9542087063
 21
-14.5108367263
  0
LINE
  5
2F5
100
AcDbEntity
  8
ASSI
100
AcDbLine
 62
253
  6
CONTINUOUS
 10
9.5
 20
-14.5108367263
 11
7.9542087063
 21
-14.5108367263
  0
LINE
  5
2F6
100
AcDbEntity
  8
RACCORDO
100
AcDbLine
 62
253
  6
CONTINUOUS
 10
-7.9542087063
 20
-14.5108367263
 11
-9.5
 21
-14.5108367263
  0
LINE
  5
2F7
100
AcDbEntity
  8
ASSI
100
AcDbLine
 62
253
  6
CONTINUOUS
 10
-7.9542087063
 20
-14.5108367263
 11
-9.5
 21
-14.5108367263
  0
LINE
  5
2F8
100
AcDbEntity
  8
DRAFT
100
AcDbLine
 62
7
  6
CONTINUOUS
 10
-9.55
 20
-15.3781257119
 11
-8.778184492
 21
-15.378184492
  0
LINE
  5
2F9
100
AcDbEntity
  8
ASSI
100
AcDbLine
 62
7
  6
CONTINUOUS
 10
-9.55
 20
-15.3781257119
 11
-8.778184492
 21
-15.378184492
  0
LINE
  5
2FA
100
AcDbEntity
  8
DRAFT
100
AcDbLine
 62
7
  6
CONTINUOUS
 10
9.55
 20
-15.3984599645
 11
8.7867049498
 21
-15.3867049498
  0
LINE
  5
2FB
100
AcDbEntity
  8
ASSI
100
AcDbLine
 62
7
  6
CONTINUOUS
 10
9.55
 20
-15.3984599645
 11
8.7867049498
 21
-15.3867049498
  0
LINE
  5
2FC
100
AcDbEntity
  8
DRAFT
100
AcDbLine
 62
7
  6
CONTINUOUS
 10
6.0
 20
-17.5160673416
 11
6.7019074668
 21
-17.6914773842
  0
LINE
  5
2FD
100
AcDbEntity
  8
ASSI
100
AcDbLine
 62
7
  6
CONTINUOUS
 10
6.0
 20
-17.5160673416
 11
6.7019074668
 21
-17.6914773842
  0
LINE
  5
2FE
100
AcDbEntity
  8
DRAFT
100
AcDbLine
 62
7
  6
CONTINUOUS
 10
9.4522218454
 20
-17.3755647702
 11
9.55
 21
-17.4
  0
LINE
  5
2FF
100
AcDbEntity
  8
ASSI
100
AcDbLine
 62
7
  6
CONTINUOUS
 10
9.4522218454
 20
-17.3755647702
 11
9.55
 21
-17.4
  0
LINE
  5
300
100
AcDbEntity
  8
DRAFT
100
AcDbLine
 62
7
  6
CONTINUOUS
 10
-7.7255647702
 20
-15.1244352298
 11
-7.9542087063
 21
-14.8957912937
  0
LINE
  5
301
100
AcDbEntity
  8
ASSI
100
AcDbLine
 62
7
  6
CONTINUOUS
 10
-7.7255647702
 20
-15.1244352298
 11
-7.9542087063
 21
-14.8957912937
  0
LINE
  5
302
100
AcDbEntity
  8
DRAFT
100
AcDbLine
 62
7
  6
CONTINUOUS
 10
-7.6932753594
 20
-13.7322894108
 11
-7.7255647702
 21
-13.7
  0
LINE
  5
303
100
AcDbEntity
  8
ASSI
100
AcDbLine
 62
7
  6
CONTINUOUS
 10
-7.6932753594
 20
-13.7322894108
 11
-7.7255647702
 21
-13.7
  0
LINE
  5
304
100
AcDbEntity
  8
RACCORDO
100
AcDbLine
 62
7
  6
CONTINUOUS
 10
-8.75
 20
-12.0
 11
-8.8608443418
 21
-11.8891556582
  0
LINE
  5
305
100
AcDbEntity
  8
ASSI
100
AcDbLine
 62
7
  6
CONTINUOUS
 10
-8.75
 20
-12.0
 11
-8.8608443418
 21
-11.8891556582
  0
LINE
  5
306
100
AcDbEntity
  8
DRAFT
100
AcDbLine
 62
7
  6
CONTINUOUS
 10
-10.9926595262
 20
-10.3570955844
 11
-10.8085226158
 21
-10.7253974543
  0
LINE
  5
307
100
AcDbEntity
  8
ASSI
100
AcDbLine
 62
7
  6
CONTINUOUS
 10
-10.9926595262
 20
-10.3570955844
 11
-10.8085226158
 21
-10.7253974543
  0
LINE
  5
308
100
AcDbEntity
  8
DRAFT
100
AcDbLine
 62
7
  6
CONTINUOUS
 10
-8.2465127091
 20
-20.9104703804
 11
-8.25
 21
-20.9
  0
LINE
  5
309
100
AcDbEntity
  8
ASSI
100
AcDbLine
 62
7
  6
CONTINUOUS
 10
-8.2465127091
 20
-20.9104703804
 11
-8.25
 21
-20.9
  0
LINE
  5
30A
100
AcDbEntity
  8
ASSI
100
AcDbLine
 62
7
  6
CONTINUOUS
 10
4.4
 20
23.8
 11
4.3563493531
 21
23.7563493531
  0
LINE
  5
30B
100
AcDbEntity
  8
DRAFT
100
AcDbLine
 62
7
  6
CONTINUOUS
 10
-8.2569814942
 20
10.9930185058
 11
-8.2822894108
 21
10.9677105892
  0
LINE
  5
30C
100
AcDbEntity
  8
ASSI
100
AcDbLine
 62
7
  6
CONTINUOUS
 10
-8.2569814942
 20
10.9930185058
 11
-8.2822894108
 21
10.9677105892
  0
LINE
  5
30D
100
AcDbEntity
  8
DRAFT
100
AcDbLine
 62
7
  6
CONTINUOUS
 10
-8.778184492
 20
10.321815508
 11
-8.7867049498
 21
10.3132950502
  0
LINE
  5
30E
100
AcDbEntity
  8
ASSI
100
AcDbLine
 62
7
  6
CONTINUOUS
 10
-8.778184492
 20
10.321815508
 11
-8.7867049498
 21
10.3132950502
  0
LINE
  5
30F
100
AcDbEntity
  8
DRAFT
100
AcDbLine
 62
7
  6
CONTINUOUS
 10
-9.8414773842
 20
7.9085226158
 11
-9.55
 21
8.2
  0
LINE
  5
310
100
AcDbEntity
  8
ASSI
100
AcDbLine
 62
7
  6
CONTINUOUS
 10
-9.8414773842
 20
7.9085226158
 11
-9.55
 21
8.2
  0
LINE
  5
311
100
AcDbEntity
  8
DRAFT
100
AcDbLine
 62
7
  6
CONTINUOUS
 10
3.5453831688
 20
16.2
 11
3.5226915844
 21
16.1886550719
  0
LINE
  5
312
100
AcDbEntity
  8
ASSI
100
AcDbLine
 62
7
  6
CONTINUOUS
 10
3.5453831688
 20
16.2
 11
3.5226915844
 21
16.1886550719
  0
LINE
  5
313
100
AcDbEntity
  8
DRAFT
100
AcDbLine
 62
7
  6
CONTINUOUS
 10
7.6932753594
 20
-13.7322894108
 11
-7.6932753594
 21
-13.7322894108
  0
LINE
  5
314
100
AcDbEntity
  8
ASSI
100
AcDbLine
 62
7
  6
CONTINUOUS
 10
7.6932753594
 20
-13.7322894108
 11
-7.6932753594
 21
-13.7322894108
  0
LINE
  5
315
100
AcDbEntity
  8
RACCORDO
100
AcDbLine
 62
7
  6
CONTINUOUS
 10
8.8608443418
 20
-13.7108443418
 11
7.9472576745
 21
-13.7108443418
  0
LINE
  5
316
100
AcDbEntity
  8
ASSI
100
AcDbLine
 62
7
  6
CONTINUOUS
 10
8.8608443418
 20
-13.7108443418
 11
7.9472576745
 21
-13.7108443418
  0
LINE
  5
317
100
AcDbEntity
  8
RACCORDO
100
AcDbLine
 62
7
  6
CONTINUOUS
 10
-7.9472576745
 20
-13.7108443418
 11
-8.8608443418
 21
-13.7108443418
  0
LINE
  5
318
100
AcDbEntity
  8
ASSI
100
AcDbLine
 62
7
  6
CONTINUOUS
 10
-7.9472576745
 20
-13.7108443418
 11
-8.8608443418
 21
-13.7108443418
  0
LINE
  5
319
100
AcDbEntity
  8
DRAFT
100
AcDbLine
 62
7
  6
CONTINUOUS
 10
7.7255647702
 20
-13.7
 11
-7.7255647702
 21
-13.7
  0
LINE
  5
31A
100
AcDbEntity
  8
ASSI
100
AcDbLine
 62
7
  6
CONTINUOUS
 10
7.7255647702
 20
-13.7
 11
-7.7255647702
 21
-13.7
  0
LINE
  5
31B
100
AcDbEntity
  8
DRAFT
100
AcDbLine
 62
7
  6
CONTINUOUS
 10
-8.75
 20
-13.6
 11
-7.7255647702
 21
-13.6
  0
LINE
  5
31C
100
AcDbEntity
  8
ASSI
100
AcDbLine
 62
7
  6
CONTINUOUS
 10
-8.75
 20
-13.6
 11
-7.7255647702
 21
-13.6
  0
LINE
  5
31D
100
AcDbEntity
  8
DRAFT
100
AcDbLine
 62
7
  6
CONTINUOUS
 10
7.7255647702
 20
-13.6
 11
8.75
 21
-13.6
  0
LINE
  5
31E
100
AcDbEntity
  8
ASSI
100
AcDbLine
 62
7
  6
CONTINUOUS
 10
7.7255647702
 20
-13.6
 11
8.75
 21
-13.6
  0
LINE
  5
31F
100
AcDbEntity
  8
RACCORDO
100
AcDbLine
 62
7
  6
CONTINUOUS
 10
-7.7255647702
 20
-12.0
 11
-7.9472576745
 21
-11.8891556582
  0
LINE
  5
320
100
AcDbEntity
  8
ASSI
100
AcDbLine
 62
7
  6
CONTINUOUS
 10
-7.7255647702
 20
-12.0
 11
-7.9472576745
 21
-11.8891556582
  0
LINE
  5
321
100
AcDbEntity
  8
ASSI
100
AcDbLine
 62
7
  6
CONTINUOUS
 10
4.4
 20
-23.8
 11
4.3563493531
 21
-23.7563493531
  0
LINE
  5
322
100
AcDbEntity
  8
DRAFT
100
AcDbLine
 62
7
  6
CONTINUOUS
 10
-10.9926595262
 20
-6.2
 11
-11.0712013363
 21
-4.2
  0
LINE
  5
323
100
AcDbEntity
  8
ASSI
100
AcDbLine
 62
7
  6
CONTINUOUS
 10
-10.9926595262
 20
-6.2
 11
-11.0712013363
 21
-4.2
  0
LINE
  5
324
100
AcDbEntity
  8
RACCORDO
100
AcDbLine
 62
253
  6
CONTINUOUS
 10
-10.570628166
 20
-23.8443375673
 11
-10.575
 21
-23.4104851482
  0
LINE
  5
325
100
AcDbEntity
  8
ASSI
100
AcDbLine
 62
253
  6
CONTINUOUS
 10
-10.570628166
 20
-23.8443375673
 11
-10.575
 21
-23.4104851482
  0
LINE
  5
326
100
AcDbEntity
  8
DRAFT
100
AcDbLine
 62
7
  6
CONTINUOUS
 10
-11.1
 20
21.8411779406
 11
-11.1
 21
15.6874886635
  0
LINE
  5
327
100
AcDbEntity
  8
ASSI
100
AcDbLine
 62
7
  6
CONTINUOUS
 10
-11.1
 20
21.8411779406
 11
-11.1
 21
15.6874886635
  0
LINE
  5
328
100
AcDbEntity
  8
DRAFT
100
AcDbLine
 62
7
  6
CONTINUOUS
 10
-11.1
 20
15.5
 11
-11.1
 21
-19.0
  0
LINE
  5
329
100
AcDbEntity
  8
ASSI
100
AcDbLine
 62
7
  6
CONTINUOUS
 10
-11.1
 20
15.5
 11
-11.1
 21
-19.0
  0
LINE
  5
32A
100
AcDbEntity
  8
DRAFT
100
AcDbLine
 62
7
  6
CONTINUOUS
 10
-11.1
 20
-19.1874886635
 11
-11.1
 21
-21.8411779406
  0
LINE
  5
32B
100
AcDbEntity
  8
ASSI
100
AcDbLine
 62
7
  6
CONTINUOUS
 10
-11.1
 20
-19.1874886635
 11
-11.1
 21
-21.8411779406
  0
LINE
  5
32C
100
AcDbEntity
  8
DRAFT
100
AcDbLine
 62
7
  6
CONTINUOUS
 10
-11.0825449351
 20
15.6
 11
-11.0825449351
 21
15.5
  0
LINE
  5
32D
100
AcDbEntity
  8
ASSI
100
AcDbLine
 62
7
  6
CONTINUOUS
 10
-11.0825449351
 20
15.6
 11
-11.0825449351
 21
15.5
  0
LINE
  5
32E
100
AcDbEntity
  8
DRAFT
100
AcDbLine
 62
7
  6
CONTINUOUS
 10
-11.0825449351
 20
-19.0
 11
-11.0825449351
 21
-19.1
  0
LINE
  5
32F
100
AcDbEntity
  8
ASSI
100
AcDbLine
 62
7
  6
CONTINUOUS
 10
-11.0825449351
 20
-19.0
 11
-11.0825449351
 21
-19.1
  0
LINE
  5
330
100
AcDbEntity
  8
DRAFT
100
AcDbLine
 62
7
  6
CONTINUOUS
 10
-11.0712013363
 20
3.2
 11
-11.0712013363
 21
-4.2
  0
LINE
  5
331
100
AcDbEntity
  8
ASSI
100
AcDbLine
 62
7
  6
CONTINUOUS
 10
-11.0712013363
 20
3.2
 11
-11.0712013363
 21
-4.2
  0
LINE
  5
332
100
AcDbEntity
  8
DRAFT
100
AcDbLine
 62
7
  6
CONTINUOUS
 10
-10.9926595262
 20
-10.3570955844
 11
-10.9926595262
 21
-6.2
  0
LINE
  5
333
100
AcDbEntity
  8
ASSI
100
AcDbLine
 62
7
  6
CONTINUOUS
 10
-10.9926595262
 20
-10.3570955844
 11
-10.9926595262
 21
-6.2
  0
LINE
  5
334
100
AcDbEntity
  8
DRAFT
100
AcDbLine
 62
7
  6
CONTINUOUS
 10
-10.8085226158
 20
15.2085226158
 11
-10.8085226158
 21
3.7253974543
  0
LINE
  5
335
100
AcDbEntity
  8
ASSI
100
AcDbLine
 62
7
  6
CONTINUOUS
 10
-10.8085226158
 20
15.2085226158
 11
-10.8085226158
 21
3.7253974543
  0
LINE
  5
336
100
AcDbEntity
  8
DRAFT
100
AcDbLine
 62
7
  6
CONTINUOUS
 10
-10.8085226158
 20
-10.7253974543
 11
-10.8085226158
 21
-18.7085226158
  0
LINE
  5
337
100
AcDbEntity
  8
ASSI
100
AcDbLine
 62
7
  6
CONTINUOUS
 10
-10.8085226158
 20
-10.7253974543
 11
-10.8085226158
 21
-18.7085226158
  0
LINE
  5
338
100
AcDbEntity
  8
RACCORDO
100
AcDbLine
 62
253
  6
CONTINUOUS
 10
-10.575
 20
23.4104851482
 11
-10.570628166
 21
23.8443375673
  0
LINE
  5
339
100
AcDbEntity
  8
ASSI
100
AcDbLine
 62
253
  6
CONTINUOUS
 10
-10.575
 20
23.4104851482
 11
-10.570628166
 21
23.8443375673
  0
LINE
  5
33A
100
AcDbEntity
  8
DRAFT
100
AcDbLine
 62
7
  6
CONTINUOUS
 10
-11.0712013363
 20
3.2
 11
-10.8085226158
 21
3.7253974543
  0
LINE
  5
33B
100
AcDbEntity
  8
ASSI
100
AcDbLine
 62
7
  6
CONTINUOUS
 10
-11.0712013363
 20
3.2
 11
-10.8085226158
 21
3.7253974543
  0
LINE
  5
33C
100
AcDbEntity
  8
0
100
AcDbLine
 62
7
  6
CONTINUOUS
 10
-7.5
 20
8.5
 11
-8.1
 21
7.5
  0
LINE
  5
33D
100
AcDbEntity
  8
DRAFT
100
AcDbLine
 62
7
  6
CONTINUOUS
 10
-9.5872686779
 20
7.9085226158
 11
-9.5
 21
7.9957912937
  0
LINE
  5
33E
100
AcDbEntity
  8
ASSI
100
AcDbLine
 62
7
  6
CONTINUOUS
 10
-9.5872686779
 20
7.9085226158
 11
-9.5
 21
7.9957912937
  0
LINE
  5
33F
100
AcDbEntity
  8
DRAFT
100
AcDbLine
 62
7
  6
CONTINUOUS
 10
-8.2822894108
 20
8.2244352298
 11
-8.5109333469
 21
7.9957912937
  0
LINE
  5
340
100
AcDbEntity
  8
ASSI
100
AcDbLine
 62
7
  6
CONTINUOUS
 10
-8.2822894108
 20
8.2244352298
 11
-8.5109333469
 21
7.9957912937
  0
LINE
  5
341
100
AcDbEntity
  8
DRAFT
100
AcDbLine
 62
7
  6
CONTINUOUS
 10
3.5226915844
 20
15.6
 11
3.503491013
 21
15.5904004454
  0
LINE
  5
342
100
AcDbEntity
  8
ASSI
100
AcDbLine
 62
7
  6
CONTINUOUS
 10
3.5226915844
 20
15.6
 11
3.503491013
 21
15.5904004454
  0
LINE
  5
343
100
AcDbEntity
  8
DRAFT
100
AcDbLine
 62
7
  6
CONTINUOUS
 10
9.5330765644
 20
16.8245437707
 11
9.5470151169
 21
16.8315125162
  0
LINE
  5
344
100
AcDbEntity
  8
ASSI
100
AcDbLine
 62
7
  6
CONTINUOUS
 10
9.5330765644
 20
16.8245437707
 11
9.5470151169
 21
16.8315125162
  0
LINE
  5
345
100
AcDbEntity
  8
DRAFT
100
AcDbLine
 62
7
  6
CONTINUOUS
 10
-7.7255647702
 20
-12.2
 11
7.7255647702
 21
-12.2
  0
LINE
  5
346
100
AcDbEntity
  8
ASSI
100
AcDbLine
 62
7
  6
CONTINUOUS
 10
-7.7255647702
 20
-12.2
 11
7.7255647702
 21
-12.2
  0
LINE
  5
347
100
AcDbEntity
  8
0
100
AcDbLine
 62
7
  6
CONTINUOUS
 10
7.706365661
 20
-12.1808008909
 11
-7.706365661
 21
-12.1808008909
  0
LINE
  5
348
100
AcDbEntity
  8
ASSI
100
AcDbLine
 62
7
  6
CONTINUOUS
 10
7.706365661
 20
-12.1808008909
 11
-7.706365661
 21
-12.1808008909
  0
LINE
  5
349
100
AcDbEntity
  8
DRAFT
100
AcDbLine
 62
7
  6
CONTINUOUS
 10
8.75
 20
-12.0
 11
7.7255647702
 21
-12.0
  0
LINE
  5
34A
100
AcDbEntity
  8
ASSI
100
AcDbLine
 62
7
  6
CONTINUOUS
 10
8.75
 20
-12.0
 11
7.7255647702
 21
-12.0
  0
LINE
  5
34B
100
AcDbEntity
  8
DRAFT
100
AcDbLine
 62
7
  6
CONTINUOUS
 10
-7.7255647702
 20
-12.0
 11
-8.75
 21
-12.0
  0
LINE
  5
34C
100
AcDbEntity
  8
ASSI
100
AcDbLine
 62
7
  6
CONTINUOUS
 10
-7.7255647702
 20
-12.0
 11
-8.75
 21
-12.0
  0
LINE
  5
34D
100
AcDbEntity
  8
RACCORDO
100
AcDbLine
 62
7
  6
CONTINUOUS
 10
-8.8608443418
 20
-11.8891556582
 11
-7.9472576745
 21
-11.8891556582
  0
LINE
  5
34E
100
AcDbEntity
  8
ASSI
100
AcDbLine
 62
7
  6
CONTINUOUS
 10
-8.8608443418
 20
-11.8891556582
 11
-7.9472576745
 21
-11.8891556582
  0
LINE
  5
34F
100
AcDbEntity
  8
RACCORDO
100
AcDbLine
 62
7
  6
CONTINUOUS
 10
7.9472576745
 20
-11.8891556582
 11
8.8608443418
 21
-11.8891556582
  0
LINE
  5
350
100
AcDbEntity
  8
ASSI
100
AcDbLine
 62
7
  6
CONTINUOUS
 10
7.9472576745
 20
-11.8891556582
 11
8.8608443418
 21
-11.8891556582
  0
LINE
  5
351
100
AcDbEntity
  8
RACCORDO
100
AcDbLine
 62
253
  6
CONTINUOUS
 10
-9.5
 20
-11.0891632737
 11
-7.9542087063
 21
-11.0891632737
  0
LINE
  5
352
100
AcDbEntity
  8
ASSI
100
AcDbLine
 62
253
  6
CONTINUOUS
 10
-9.5
 20
-11.0891632737
 11
-7.9542087063
 21
-11.0891632737
  0
LINE
  5
353
100
AcDbEntity
  8
RACCORDO
100
AcDbLine
 62
253
  6
CONTINUOUS
 10
7.9542087063
 20
-11.0891632737
 11
9.5
 21
-11.0891632737
  0
LINE
  5
354
100
AcDbEntity
  8
ASSI
100
AcDbLine
 62
253
  6
CONTINUOUS
 10
7.9542087063
 20
-11.0891632737
 11
9.5
 21
-11.0891632737
  0
LINE
  5
355
100
AcDbEntity
  8
DRAFT
100
AcDbLine
 62
7
  6
CONTINUOUS
 10
10.8085226158
 20
-10.7253974543
 11
9.5872686779
 21
-10.7253974543
  0
LINE
  5
356
100
AcDbEntity
  8
ASSI
100
AcDbLine
 62
7
  6
CONTINUOUS
 10
10.8085226158
 20
-10.7253974543
 11
9.5872686779
 21
-10.7253974543
  0
LINE
  5
357
100
AcDbEntity
  8
DRAFT
100
AcDbLine
 62
7
  6
CONTINUOUS
 10
-9.5872686779
 20
-10.7253974543
 11
-10.8085226158
 21
-10.7253974543
  0
LINE
  5
358
100
AcDbEntity
  8
ASSI
100
AcDbLine
 62
7
  6
CONTINUOUS
 10
-9.5872686779
 20
-10.7253974543
 11
-10.8085226158
 21
-10.7253974543
  0
LINE
  5
359
100
AcDbEntity
  8
RACCORDO
100
AcDbLine
 62
253
  6
CONTINUOUS
 10
-10.3206323968
 20
-23.6278312164
 11
-10.3257229979
 21
-23.1226497308
  0
LINE
  5
35A
100
AcDbEntity
  8
ASSI
100
AcDbLine
 62
253
  6
CONTINUOUS
 10
-10.3206323968
 20
-23.6278312164
 11
-10.3257229979
 21
-23.1226497308
  0
LINE
  5
35B
100
AcDbEntity
  8
RACCORDO
100
AcDbLine
 62
7
  6
CONTINUOUS
 10
-10.575
 20
-22.35
 11
-10.575
 21
-23.8443375673
  0
LINE
  5
35C
100
AcDbEntity
  8
ASSI
100
AcDbLine
 62
7
  6
CONTINUOUS
 10
-10.575
 20
-22.35
 11
-10.575
 21
-23.8443375673
  0
LINE
  5
35D
100
AcDbEntity
  8
RACCORDO
100
AcDbLine
 62
7
  6
CONTINUOUS
 10
-10.575
 20
22.35
 11
-10.575
 21
23.8443375673
  0
LINE
  5
35E
100
AcDbEntity
  8
ASSI
100
AcDbLine
 62
7
  6
CONTINUOUS
 10
-10.575
 20
22.35
 11
-10.575
 21
23.8443375673
  0
LINE
  5
35F
100
AcDbEntity
  8
RACCORDO
100
AcDbLine
 62
253
  6
CONTINUOUS
 10
-10.570628166
 20
24.2456323968
 11
-10.570628166
 21
23.8443375673
  0
LINE
  5
360
100
AcDbEntity
  8
ASSI
100
AcDbLine
 62
7
  6
CONTINUOUS
 10
-10.570628166
 20
24.2456323968
 11
-10.570628166
 21
23.8443375673
  0
LINE
  5
361
100
AcDbEntity
  8
RACCORDO
100
AcDbLine
 62
253
  6
CONTINUOUS
 10
-10.570628166
 20
-23.8443375673
 11
-10.570628166
 21
-24.2456323968
  0
LINE
  5
362
100
AcDbEntity
  8
ASSI
100
AcDbLine
 62
7
  6
CONTINUOUS
 10
-10.570628166
 20
-23.8443375673
 11
-10.570628166
 21
-24.2456323968
  0
LINE
  5
363
100
AcDbEntity
  8
RACCORDO
100
AcDbLine
 62
253
  6
CONTINUOUS
 10
-10.3206323968
 20
-23.6278312164
 11
-10.3206323968
 21
-24.495628166
  0
LINE
  5
364
100
AcDbEntity
  8
ASSI
100
AcDbLine
 62
253
  6
CONTINUOUS
 10
-10.3206323968
 20
-23.6278312164
 11
-10.3206323968
 21
-24.495628166
  0
LINE
  5
365
100
AcDbEntity
  8
RACCORDO
100
AcDbLine
 62
253
  6
CONTINUOUS
 10
-10.3206323968
 20
23.6278312164
 11
-10.3206323968
 21
24.495628166
  0
LINE
  5
366
100
AcDbEntity
  8
ASSI
100
AcDbLine
 62
253
  6
CONTINUOUS
 10
-10.3206323968
 20
23.6278312164
 11
-10.3206323968
 21
24.495628166
  0
LINE
  5
367
100
AcDbEntity
  8
DRAFT
100
AcDbLine
 62
7
  6
CONTINUOUS
 10
-10.0
 20
2.5
 11
-10.0
 21
0.5
  0
LINE
  5
368
100
AcDbEntity
  8
ASSI
100
AcDbLine
 62
7
  6
CONTINUOUS
 10
-10.0
 20
2.5
 11
-10.0
 21
0.5
  0
LINE
  5
369
100
AcDbEntity
  8
DRAFT
100
AcDbLine
 62
7
  6
CONTINUOUS
 10
-10.0
 20
-0.5
 11
-10.0
 21
-2.5
  0
LINE
  5
36A
100
AcDbEntity
  8
ASSI
100
AcDbLine
 62
7
  6
CONTINUOUS
 10
-10.0
 20
-0.5
 11
-10.0
 21
-2.5
  0
LINE
  5
36B
100
AcDbEntity
  8
DRAFT
100
AcDbLine
 62
7
  6
CONTINUOUS
 10
-9.8414773842
 20
-17.6914773842
 11
-9.8414773842
 21
-14.8085226158
  0
LINE
  5
36C
100
AcDbEntity
  8
ASSI
100
AcDbLine
 62
7
  6
CONTINUOUS
 10
-9.8414773842
 20
-17.6914773842
 11
-9.8414773842
 21
-14.8085226158
  0
LINE
  5
36D
100
AcDbEntity
  8
DRAFT
100
AcDbLine
 62
7
  6
CONTINUOUS
 10
-9.8414773842
 20
7.9085226158
 11
-9.8414773842
 21
10.815912614
  0
LINE
  5
36E
100
AcDbEntity
  8
ASSI
100
AcDbLine
 62
7
  6
CONTINUOUS
 10
-9.8414773842
 20
7.9085226158
 11
-9.8414773842
 21
10.815912614
  0
LINE
  5
36F
100
AcDbEntity
  8
DRAFT
100
AcDbLine
 62
7
  6
CONTINUOUS
 10
-9.7730841559
 20
2.2730841559
 11
-9.7730841559
 21
-2.2730841559
  0
LINE
  5
370
100
AcDbEntity
  8
ASSI
100
AcDbLine
 62
7
  6
CONTINUOUS
 10
-9.7730841559
 20
2.2730841559
 11
-9.7730841559
 21
-2.2730841559
  0
LINE
  5
371
100
AcDbEntity
  8
DRAFT
100
AcDbLine
 62
7
  6
CONTINUOUS
 10
-9.6674550649
 20
20.1990396502
 11
-9.6674550649
 21
15.6874886635
  0
LINE
  5
372
100
AcDbEntity
  8
ASSI
100
AcDbLine
 62
7
  6
CONTINUOUS
 10
-9.6674550649
 20
20.1990396502
 11
-9.6674550649
 21
15.6874886635
  0
LINE
  5
373
100
AcDbEntity
  8
DRAFT
100
AcDbLine
 62
7
  6
CONTINUOUS
 10
-9.6674550649
 20
-19.1874886635
 11
-9.6674550649
 21
-20.1990396502
  0
LINE
  5
374
100
AcDbEntity
  8
ASSI
100
AcDbLine
 62
7
  6
CONTINUOUS
 10
-9.6674550649
 20
-19.1874886635
 11
-9.6674550649
 21
-20.1990396502
  0
LINE
  5
375
100
AcDbEntity
  8
DRAFT
100
AcDbLine
 62
7
  6
CONTINUOUS
 10
-9.65
 20
15.6
 11
-9.65
 21
15.5
  0
LINE
  5
376
100
AcDbEntity
  8
ASSI
100
AcDbLine
 62
7
  6
CONTINUOUS
 10
-9.65
 20
15.6
 11
-9.65
 21
15.5
  0
LINE
  5
377
100
AcDbEntity
  8
DRAFT
100
AcDbLine
 62
7
  6
CONTINUOUS
 10
-9.65
 20
-19.0
 11
-9.65
 21
-19.1
  0
LINE
  5
378
100
AcDbEntity
  8
ASSI
100
AcDbLine
 62
7
  6
CONTINUOUS
 10
-9.65
 20
-19.0
 11
-9.65
 21
-19.1
  0
LINE
  5
379
100
AcDbEntity
  8
DRAFT
100
AcDbLine
 62
7
  6
CONTINUOUS
 10
-9.6285418101
 20
-10.3570955844
 11
-9.6285418101
 21
-6.2
  0
LINE
  5
37A
100
AcDbEntity
  8
ASSI
100
AcDbLine
 62
7
  6
CONTINUOUS
 10
-9.6285418101
 20
-10.3570955844
 11
-9.6285418101
 21
-6.2
  0
LINE
  5
37B
100
AcDbEntity
  8
RACCORDO
100
AcDbLine
 62
7
  6
CONTINUOUS
 10
-9.6046168312
 20
20.0103716448
 11
-9.6046168312
 21
19.947427955
  0
LINE
  5
37C
100
AcDbEntity
  8
ASSI
100
AcDbLine
 62
7
  6
CONTINUOUS
 10
-9.6046168312
 20
20.0103716448
 11
-9.6046168312
 21
19.947427955
  0
LINE
  5
37D
100
AcDbEntity
  8
DRAFT
100
AcDbLine
 62
7
  6
CONTINUOUS
 10
-9.5872686779
 20
7.9085226158
 11
-9.5872686779
 21
3.7253974543
  0
LINE
  5
37E
100
AcDbEntity
  8
ASSI
100
AcDbLine
 62
7
  6
CONTINUOUS
 10
-9.5872686779
 20
7.9085226158
 11
-9.5872686779
 21
3.7253974543
  0
LINE
  5
37F
100
AcDbEntity
  8
DRAFT
100
AcDbLine
 62
7
  6
CONTINUOUS
 10
-9.5872686779
 20
-10.7253974543
 11
-9.5872686779
 21
-14.8085226158
  0
LINE
  5
380
100
AcDbEntity
  8
ASSI
100
AcDbLine
 62
7
  6
CONTINUOUS
 10
-9.5872686779
 20
-10.7253974543
 11
-9.5872686779
 21
-14.8085226158
  0
LINE
  5
381
100
AcDbEntity
  8
DRAFT
100
AcDbLine
 62
7
  6
CONTINUOUS
 10
-9.55
 20
10.5244352298
 11
-9.55
 21
8.2
  0
LINE
  5
382
100
AcDbEntity
  8
ASSI
100
AcDbLine
 62
7
  6
CONTINUOUS
 10
-9.55
 20
10.5244352298
 11
-9.55
 21
8.2
  0
LINE
  5
383
100
AcDbEntity
  8
DRAFT
100
AcDbLine
 62
7
  6
CONTINUOUS
 10
-9.55
 20
-17.4
 11
-9.55
 21
-15.1
  0
LINE
  5
384
100
AcDbEntity
  8
ASSI
100
AcDbLine
 62
7
  6
CONTINUOUS
 10
-9.55
 20
-17.4
 11
-9.55
 21
-15.1
  0
LINE
  5
385
100
AcDbEntity
  8
DRAFT
100
AcDbLine
 62
7
  6
CONTINUOUS
 10
-9.55
 20
-10.2
 11
-9.55
 21
-4.2
  0
LINE
  5
386
100
AcDbEntity
  8
ASSI
100
AcDbLine
 62
7
  6
CONTINUOUS
 10
-9.55
 20
-10.2
 11
-9.55
 21
-4.2
  0
LINE
  5
387
100
AcDbEntity
  8
RACCORDO
100
AcDbLine
 62
7
  6
CONTINUOUS
 10
-9.5470151169
 20
19.3
 11
-9.5470151169
 21
15.5
  0
LINE
  5
388
100
AcDbEntity
  8
ASSI
100
AcDbLine
 62
7
  6
CONTINUOUS
 10
-9.5470151169
 20
19.3
 11
-9.5470151169
 21
15.5
  0
LINE
  5
389
100
AcDbEntity
  8
SMUSSO
100
AcDbLine
 62
7
  6
CONTINUOUS
 10
-9.5121049871
 20
-19.7326104146
 11
-9.5121049871
 21
-19.0
  0
LINE
  5
38A
100
AcDbEntity
  8
ASSI
100
AcDbLine
 62
7
  6
CONTINUOUS
 10
-9.5121049871
 20
-19.7326104146
 11
-9.5121049871
 21
-19.0
  0
LINE
  5
38B
100
AcDbEntity
  8
SMUSSO
100
AcDbLine
 62
7
  6
CONTINUOUS
 10
-9.5121049871
 20
-17.3905298545
 11
-9.5121049871
 21
-17.2218714021
  0
LINE
  5
38C
100
AcDbEntity
  8
ASSI
100
AcDbLine
 62
7
  6
CONTINUOUS
 10
-9.5121049871
 20
-17.3905298545
 11
-9.5121049871
 21
-17.2218714021
  0
LINE
  5
38D
100
AcDbEntity
  8
SMUSSO
100
AcDbLine
 62
7
  6
CONTINUOUS
 10
-9.5121049871
 20
-15.3781285979
 11
-9.5121049871
 21
-15.1094701455
  0
LINE
  5
38E
100
AcDbEntity
  8
ASSI
100
AcDbLine
 62
7
  6
CONTINUOUS
 10
-9.5121049871
 20
-15.3781285979
 11
-9.5121049871
 21
-15.1094701455
  0
LINE
  5
38F
100
AcDbEntity
  8
SMUSSO
100
AcDbLine
 62
7
  6
CONTINUOUS
 10
-9.5121049871
 20
8.2094701455
 11
-9.5121049871
 21
8.4781285979
  0
LINE
  5
390
100
AcDbEntity
  8
ASSI
100
AcDbLine
 62
7
  6
CONTINUOUS
 10
-9.5121049871
 20
8.2094701455
 11
-9.5121049871
 21
8.4781285979
  0
LINE
  5
391
100
AcDbEntity
  8
SMUSSO
100
AcDbLine
 62
7
  6
CONTINUOUS
 10
-9.5121049871
 20
10.3218714021
 11
-9.5121049871
 21
10.5149650843
  0
LINE
  5
392
100
AcDbEntity
  8
ASSI
100
AcDbLine
 62
7
  6
CONTINUOUS
 10
-9.5121049871
 20
10.3218714021
 11
-9.5121049871
 21
10.5149650843
  0
LINE
  5
393
100
AcDbEntity
  8
DRAFT
100
AcDbLine
 62
7
  6
CONTINUOUS
 10
-9.5
 20
14.1914773842
 11
-9.5
 21
10.815912614
  0
LINE
  5
394
100
AcDbEntity
  8
ASSI
100
AcDbLine
 62
7
  6
CONTINUOUS
 10
-9.5
 20
14.1914773842
 11
-9.5
 21
10.815912614
  0
LINE
  5
395
100
AcDbEntity
  8
RACCORDO
100
AcDbLine
 62
7
  6
CONTINUOUS
 10
-9.5
 20
-14.8957912937
 11
-9.5
 21
-10.5508468051
  0
LINE
  5
396
100
AcDbEntity
  8
ASSI
100
AcDbLine
 62
7
  6
CONTINUOUS
 10
-9.5
 20
-14.8957912937
 11
-9.5
 21
-10.5508468051
  0
LINE
  5
397
100
AcDbEntity
  8
RACCORDO
100
AcDbLine
 62
7
  6
CONTINUOUS
 10
-9.5
 20
3.5508468051
 11
-9.5
 21
7.9957912937
  0
LINE
  5
398
100
AcDbEntity
  8
ASSI
100
AcDbLine
 62
7
  6
CONTINUOUS
 10
-9.5
 20
3.5508468051
 11
-9.5
 21
7.9957912937
  0
LINE
  5
399
100
AcDbEntity
  8
DRAFT
100
AcDbLine
 62
7
  6
CONTINUOUS
 10
-9.4522218454
 20
10.5
 11
-9.4522218454
 21
10.3218668415
  0
LINE
  5
39A
100
AcDbEntity
  8
ASSI
100
AcDbLine
 62
7
  6
CONTINUOUS
 10
-9.4522218454
 20
10.5
 11
-9.4522218454
 21
10.3218668415
  0
LINE
  5
39B
100
AcDbEntity
  8
DRAFT
100
AcDbLine
 62
7
  6
CONTINUOUS
 10
-9.4522218454
 20
8.4781331585
 11
-9.4522218454
 21
8.2244352298
  0
LINE
  5
39C
100
AcDbEntity
  8
ASSI
100
AcDbLine
 62
7
  6
CONTINUOUS
 10
-9.4522218454
 20
8.4781331585
 11
-9.4522218454
 21
8.2244352298
  0
LINE
  5
39D
100
AcDbEntity
  8
DRAFT
100
AcDbLine
 62
7
  6
CONTINUOUS
 10
-9.4522218454
 20
-15.1244352298
 11
-9.4522218454
 21
-15.3781331585
  0
LINE
  5
39E
100
AcDbEntity
  8
ASSI
100
AcDbLine
 62
7
  6
CONTINUOUS
 10
-9.4522218454
 20
-15.1244352298
 11
-9.4522218454
 21
-15.3781331585
  0
LINE
  5
39F
100
AcDbEntity
  8
DRAFT
100
AcDbLine
 62
7
  6
CONTINUOUS
 10
-9.4522218454
 20
-17.2218668415
 11
-9.4522218454
 21
-17.3755647702
  0
LINE
  5
3A0
100
AcDbEntity
  8
ASSI
100
AcDbLine
 62
7
  6
CONTINUOUS
 10
-9.4522218454
 20
-17.2218668415
 11
-9.4522218454
 21
-17.3755647702
  0
LINE
  5
3A1
100
AcDbEntity
  8
0
100
AcDbLine
 62
7
  6
CONTINUOUS
 10
-9.4
 20
6.7340347844
 11
-9.4
 21
4.8659652156
  0
LINE
  5
3A2
100
AcDbEntity
  8
ASSI
100
AcDbLine
 62
7
  6
CONTINUOUS
 10
-9.4
 20
6.7340347844
 11
-9.4
 21
4.8659652156
  0
LINE
  5
3A3
100
AcDbEntity
  8
ASSI
100
AcDbLine
 62
7
  6
CONTINUOUS
 10
-9.25
 20
6.6
 11
-9.25
 21
5.0
  0
LINE
  5
3A4
100
AcDbEntity
  8
DRAFT
100
AcDbLine
 62
7
  6
CONTINUOUS
 10
-9.2216129175
 20
13.9130903017
 11
-9.2216129175
 21
10.5375255315
  0
LINE
  5
3A5
100
AcDbEntity
  8
ASSI
100
AcDbLine
 62
7
  6
CONTINUOUS
 10
-9.2216129175
 20
13.9130903017
 11
-9.2216129175
 21
10.5375255315
  0
LINE
  5
3A6
100
AcDbEntity
  8
RACCORDO
100
AcDbLine
 62
253
  6
CONTINUOUS
 10
-9.05
 20
2.2730841559
 11
-9.05
 21
-2.2730841559
  0
LINE
  5
3A7
100
AcDbEntity
  8
ASSI
100
AcDbLine
 62
253
  6
CONTINUOUS
 10
-9.05
 20
2.2730841559
 11
-9.05
 21
-2.2730841559
  0
LINE
  5
3A8
100
AcDbEntity
  8
RACCORDO
100
AcDbLine
 62
253
  6
CONTINUOUS
 10
-10.3257229979
 20
23.1226497308
 11
-10.3206323968
 21
23.6278312164
  0
LINE
  5
3A9
100
AcDbEntity
  8
ASSI
100
AcDbLine
 62
253
  6
CONTINUOUS
 10
-10.3257229979
 20
23.1226497308
 11
-10.3206323968
 21
23.6278312164
  0
LINE
  5
3AA
100
AcDbEntity
  8
DRAFT
100
AcDbLine
 62
7
  6
CONTINUOUS
 10
-9.6285418101
 20
-6.2
 11
-9.55
 21
-4.2
  0
LINE
  5
3AB
100
AcDbEntity
  8
ASSI
100
AcDbLine
 62
7
  6
CONTINUOUS
 10
-9.6285418101
 20
-6.2
 11
-9.55
 21
-4.2
  0
LINE
  5
3AC
100
AcDbEntity
  8
0
100
AcDbLine
 62
7
  6
CONTINUOUS
 10
-7.3209441873
 20
20.7113319946
 11
-7.2988376746
 21
20.9104703804
  0
LINE
  5
3AD
100
AcDbEntity
  8
ASSI
100
AcDbLine
 62
7
  6
CONTINUOUS
 10
-7.3209441873
 20
20.7113319946
 11
-7.2988376746
 21
20.9104703804
  0
LINE
  5
3AE
100
AcDbEntity
  8
RACCORDO
100
AcDbLine
 62
7
  6
CONTINUOUS
 10
-7.3237008614
 20
19.4481131876
 11
-7.3401430257
 21
19.3
  0
LINE
  5
3AF
100
AcDbEntity
  8
ASSI
100
AcDbLine
 62
7
  6
CONTINUOUS
 10
-7.3237008614
 20
19.4481131876
 11
-7.3401430257
 21
19.3
  0
LINE
  5
3B0
100
AcDbEntity
  8
RACCORDO
100
AcDbLine
 62
7
  6
CONTINUOUS
 10
-9.4966110309
 20
4.6686770793
 11
-9.4
 21
4.8659652156
  0
LINE
  5
3B1
100
AcDbEntity
  8
ASSI
100
AcDbLine
 62
7
  6
CONTINUOUS
 10
-9.4966110309
 20
4.6686770793
 11
-9.4
 21
4.8659652156
  0
LINE
  5
3B2
100
AcDbEntity
  8
DRAFT
100
AcDbLine
 62
7
  6
CONTINUOUS
 10
-8.25
 20
6.7226898563
 11
-8.2726898563
 21
6.7
  0
LINE
  5
3B3
100
AcDbEntity
  8
ASSI
100
AcDbLine
 62
7
  6
CONTINUOUS
 10
-8.25
 20
6.7226898563
 11
-8.2726898563
 21
6.7
  0
LINE
  5
3B4
100
AcDbEntity
  8
RACCORDO
100
AcDbLine
 62
7
  6
CONTINUOUS
 10
-8.504012777
 20
4.6686770793
 11
-8.2726898563
 21
4.9
  0
LINE
  5
3B5
100
AcDbEntity
  8
ASSI
100
AcDbLine
 62
7
  6
CONTINUOUS
 10
-8.504012777
 20
4.6686770793
 11
-8.2726898563
 21
4.9
  0
LINE
  5
3B6
100
AcDbEntity
  8
DRAFT
100
AcDbLine
 62
7
  6
CONTINUOUS
 10
9.5
 20
-10.5508468051
 11
7.9542087063
 21
-10.5508468051
  0
LINE
  5
3B7
100
AcDbEntity
  8
ASSI
100
AcDbLine
 62
7
  6
CONTINUOUS
 10
9.5
 20
-10.5508468051
 11
7.9542087063
 21
-10.5508468051
  0
LINE
  5
3B8
100
AcDbEntity
  8
DRAFT
100
AcDbLine
 62
7
  6
CONTINUOUS
 10
-7.9542087063
 20
-10.5508468051
 11
-9.5
 21
-10.5508468051
  0
LINE
  5
3B9
100
AcDbEntity
  8
ASSI
100
AcDbLine
 62
7
  6
CONTINUOUS
 10
-7.9542087063
 20
-10.5508468051
 11
-9.5
 21
-10.5508468051
  0
LINE
  5
3BA
100
AcDbEntity
  8
0
100
AcDbLine
 62
7
  6
CONTINUOUS
 10
0.45
 20
-10.4892728991
 11
-0.45
 21
-10.4892728991
  0
LINE
  5
3BB
100
AcDbEntity
  8
ASSI
100
AcDbLine
 62
7
  6
CONTINUOUS
 10
0.45
 20
-10.4892728991
 11
-0.45
 21
-10.4892728991
  0
LINE
  5
3BC
100
AcDbEntity
  8
DRAFT
100
AcDbLine
 62
7
  6
CONTINUOUS
 10
-10.9926595262
 20
-10.3570955844
 11
-9.6285418101
 21
-10.3570955844
  0
LINE
  5
3BD
100
AcDbEntity
  8
ASSI
100
AcDbLine
 62
7
  6
CONTINUOUS
 10
-10.9926595262
 20
-10.3570955844
 11
-9.6285418101
 21
-10.3570955844
  0
LINE
  5
3BE
100
AcDbEntity
  8
DRAFT
100
AcDbLine
 62
7
  6
CONTINUOUS
 10
10.9926595262
 20
-10.3570955844
 11
9.6285418101
 21
-10.3570955844
  0
LINE
  5
3BF
100
AcDbEntity
  8
ASSI
100
AcDbLine
 62
7
  6
CONTINUOUS
 10
10.9926595262
 20
-10.3570955844
 11
9.6285418101
 21
-10.3570955844
  0
LINE
  5
3C0
100
AcDbEntity
  8
DRAFT
100
AcDbLine
 62
7
  6
CONTINUOUS
 10
-9.55
 20
-10.2
 11
-7.7787986637
 21
-10.2
  0
LINE
  5
3C1
100
AcDbEntity
  8
ASSI
100
AcDbLine
 62
7
  6
CONTINUOUS
 10
-9.55
 20
-10.2
 11
-7.7787986637
 21
-10.2
  0
LINE
  5
3C2
100
AcDbEntity
  8
DRAFT
100
AcDbLine
 62
7
  6
CONTINUOUS
 10
7.7787986637
 20
-10.2
 11
9.55
 21
-10.2
  0
LINE
  5
3C3
100
AcDbEntity
  8
ASSI
100
AcDbLine
 62
7
  6
CONTINUOUS
 10
7.7787986637
 20
-10.2
 11
9.55
 21
-10.2
  0
LINE
  5
3C4
100
AcDbEntity
  8
RACCORDO
100
AcDbLine
 62
253
  6
CONTINUOUS
 10
8.3355233043
 20
-9.9768345149
 11
7.7787986637
 21
-9.9768345149
  0
LINE
  5
3C5
100
AcDbEntity
  8
ASSI
100
AcDbLine
 62
253
  6
CONTINUOUS
 10
8.3355233043
 20
-9.9768345149
 11
7.7787986637
 21
-9.9768345149
  0
LINE
  5
3C6
100
AcDbEntity
  8
RACCORDO
100
AcDbLine
 62
253
  6
CONTINUOUS
 10
-7.7787986637
 20
-9.9768345149
 11
-8.3355233043
 21
-9.9768345149
  0
LINE
  5
3C7
100
AcDbEntity
  8
ASSI
100
AcDbLine
 62
253
  6
CONTINUOUS
 10
-7.7787986637
 20
-9.9768345149
 11
-8.3355233043
 21
-9.9768345149
  0
LINE
  5
3C8
100
AcDbEntity
  8
RACCORDO
100
AcDbLine
 62
253
  6
CONTINUOUS
 10
-0.45
 20
-9.3224407357
 11
0.45
 21
-9.3224407357
  0
LINE
  5
3C9
100
AcDbEntity
  8
ASSI
100
AcDbLine
 62
253
  6
CONTINUOUS
 10
-0.45
 20
-9.3224407357
 11
0.45
 21
-9.3224407357
  0
LINE
  5
3CA
100
AcDbEntity
  8
RACCORDO
100
AcDbLine
 62
253
  6
CONTINUOUS
 10
-0.45
 20
-8.9810498405
 11
0.45
 21
-8.9810498405
  0
LINE
  5
3CB
100
AcDbEntity
  8
ASSI
100
AcDbLine
 62
253
  6
CONTINUOUS
 10
-0.45
 20
-8.9810498405
 11
0.45
 21
-8.9810498405
  0
LINE
  5
3CC
100
AcDbEntity
  8
RACCORDO
100
AcDbLine
 62
253
  6
CONTINUOUS
 10
8.3268725919
 20
-8.9768725919
 11
7.7701479512
 21
-8.9768725919
  0
LINE
  5
3CD
100
AcDbEntity
  8
ASSI
100
AcDbLine
 62
253
  6
CONTINUOUS
 10
8.3268725919
 20
-8.9768725919
 11
7.7701479512
 21
-8.9768725919
  0
LINE
  5
3CE
100
AcDbEntity
  8
RACCORDO
100
AcDbLine
 62
253
  6
CONTINUOUS
 10
-7.7701479512
 20
-8.9768725919
 11
-8.3268725919
 21
-8.9768725919
  0
LINE
  5
3CF
100
AcDbEntity
  8
ASSI
100
AcDbLine
 62
253
  6
CONTINUOUS
 10
-7.7701479512
 20
-8.9768725919
 11
-8.3268725919
 21
-8.9768725919
  0
LINE
  5
3D0
100
AcDbEntity
  8
0
100
AcDbLine
 62
7
  6
CONTINUOUS
 10
0.45
 20
-8.9630903017
 11
-0.45
 21
-8.9630903017
  0
LINE
  5
3D1
100
AcDbEntity
  8
ASSI
100
AcDbLine
 62
7
  6
CONTINUOUS
 10
0.45
 20
-8.9630903017
 11
-0.45
 21
-8.9630903017
  0
LINE
  5
3D2
100
AcDbEntity
  8
0
100
AcDbLine
 62
7
  6
CONTINUOUS
 10
7.706365661
 20
-8.9130903017
 11
-7.706365661
 21
-8.9130903017
  0
LINE
  5
3D3
100
AcDbEntity
  8
ASSI
100
AcDbLine
 62
7
  6
CONTINUOUS
 10
7.706365661
 20
-8.9130903017
 11
-7.706365661
 21
-8.9130903017
  0
LINE
  5
3D4
100
AcDbEntity
  8
0
100
AcDbLine
 62
7
  6
CONTINUOUS
 10
8.25
 20
-8.9
 11
-8.25
 21
-8.9
  0
LINE
  5
3D5
100
AcDbEntity
  8
ASSI
100
AcDbLine
 62
7
  6
CONTINUOUS
 10
8.25
 20
-8.9
 11
-8.25
 21
-8.9
  0
LINE
  5
3D6
100
AcDbEntity
  8
DRAFT
100
AcDbLine
 62
7
  6
CONTINUOUS
 10
-7.2988376746
 20
-20.9104703804
 11
-7.3517786853
 21
-20.4335707644
  0
LINE
  5
3D7
100
AcDbEntity
  8
ASSI
100
AcDbLine
 62
7
  6
CONTINUOUS
 10
-7.2988376746
 20
-20.9104703804
 11
-7.3517786853
 21
-20.4335707644
  0
LINE
  5
3D8
100
AcDbEntity
  8
RACCORDO
100
AcDbLine
 62
253
  6
CONTINUOUS
 10
-8.5543676032
 20
23.6278312164
 11
-8.5492770021
 21
23.1226497308
  0
LINE
  5
3D9
100
AcDbEntity
  8
ASSI
100
AcDbLine
 62
253
  6
CONTINUOUS
 10
-8.5543676032
 20
23.6278312164
 11
-8.5492770021
 21
23.1226497308
  0
LINE
  5
3DA
100
AcDbEntity
  8
RACCORDO
100
AcDbLine
 62
253
  6
CONTINUOUS
 10
-8.304371834
 20
23.8443375673
 11
-8.3
 21
23.4104851482
  0
LINE
  5
3DB
100
AcDbEntity
  8
ASSI
100
AcDbLine
 62
253
  6
CONTINUOUS
 10
-8.304371834
 20
23.8443375673
 11
-8.3
 21
23.4104851482
  0
LINE
  5
3DC
100
AcDbEntity
  8
RACCORDO
100
AcDbLine
 62
7
  6
CONTINUOUS
 10
-8.860915679
 20
-11.8889172239
 11
-8.860915679
 21
-13.7110827761
  0
LINE
  5
3DD
100
AcDbEntity
  8
ASSI
100
AcDbLine
 62
7
  6
CONTINUOUS
 10
-8.860915679
 20
-11.8889172239
 11
-8.860915679
 21
-13.7110827761
  0
LINE
  5
3DE
100
AcDbEntity
  8
DRAFT
100
AcDbLine
 62
7
  6
CONTINUOUS
 10
-8.7867049498
 20
10.3132950502
 11
-8.7867049498
 21
8.4867049498
  0
LINE
  5
3DF
100
AcDbEntity
  8
ASSI
100
AcDbLine
 62
7
  6
CONTINUOUS
 10
-8.7867049498
 20
10.3132950502
 11
-8.7867049498
 21
8.4867049498
  0
LINE
  5
3E0
100
AcDbEntity
  8
DRAFT
100
AcDbLine
 62
7
  6
CONTINUOUS
 10
-8.7867049498
 20
-15.3867049498
 11
-8.7867049498
 21
-17.2132950502
  0
LINE
  5
3E1
100
AcDbEntity
  8
ASSI
100
AcDbLine
 62
7
  6
CONTINUOUS
 10
-8.7867049498
 20
-15.3867049498
 11
-8.7867049498
 21
-17.2132950502
  0
LINE
  5
3E2
100
AcDbEntity
  8
DRAFT
100
AcDbLine
 62
7
  6
CONTINUOUS
 10
-8.778184492
 20
10.321815508
 11
-8.778184492
 21
8.478184492
  0
LINE
  5
3E3
100
AcDbEntity
  8
ASSI
100
AcDbLine
 62
7
  6
CONTINUOUS
 10
-8.778184492
 20
10.321815508
 11
-8.778184492
 21
8.478184492
  0
LINE
  5
3E4
100
AcDbEntity
  8
DRAFT
100
AcDbLine
 62
7
  6
CONTINUOUS
 10
-8.778184492
 20
-15.378184492
 11
-8.778184492
 21
-17.221815508
  0
LINE
  5
3E5
100
AcDbEntity
  8
ASSI
100
AcDbLine
 62
7
  6
CONTINUOUS
 10
-8.778184492
 20
-15.378184492
 11
-8.778184492
 21
-17.221815508
  0
LINE
  5
3E6
100
AcDbEntity
  8
DRAFT
100
AcDbLine
 62
7
  6
CONTINUOUS
 10
-8.75
 20
-13.6
 11
-8.75
 21
-12.0
  0
LINE
  5
3E7
100
AcDbEntity
  8
ASSI
100
AcDbLine
 62
7
  6
CONTINUOUS
 10
-8.75
 20
-13.6
 11
-8.75
 21
-12.0
  0
LINE
  5
3E8
100
AcDbEntity
  8
DRAFT
100
AcDbLine
 62
7
  6
CONTINUOUS
 10
-8.75
 20
-8.0
 11
-8.75
 21
-2.5
  0
LINE
  5
3E9
100
AcDbEntity
  8
ASSI
100
AcDbLine
 62
7
  6
CONTINUOUS
 10
-8.75
 20
-8.0
 11
-8.75
 21
-2.5
  0
LINE
  5
3EA
100
AcDbEntity
  8
0
100
AcDbLine
 62
7
  6
CONTINUOUS
 10
-8.7
 20
6.65
 11
-8.7
 21
6.6
  0
LINE
  5
3EB
100
AcDbEntity
  8
RACCORDO
100
AcDbLine
 62
253
  6
CONTINUOUS
 10
-8.5543676032
 20
-23.6278312164
 11
-8.5543676032
 21
-24.495628166
  0
LINE
  5
3EC
100
AcDbEntity
  8
ASSI
100
AcDbLine
 62
253
  6
CONTINUOUS
 10
-8.5543676032
 20
-23.6278312164
 11
-8.5543676032
 21
-24.495628166
  0
LINE
  5
3ED
100
AcDbEntity
  8
RACCORDO
100
AcDbLine
 62
253
  6
CONTINUOUS
 10
-8.5543676032
 20
23.6278312164
 11
-8.5543676032
 21
24.495628166
  0
LINE
  5
3EE
100
AcDbEntity
  8
ASSI
100
AcDbLine
 62
253
  6
CONTINUOUS
 10
-8.5543676032
 20
23.6278312164
 11
-8.5543676032
 21
24.495628166
  0
LINE
  5
3EF
100
AcDbEntity
  8
RACCORDO
100
AcDbLine
 62
7
  6
CONTINUOUS
 10
-8.5109333469
 20
7.9957912937
 11
-8.5109333469
 21
7.7312924592
  0
LINE
  5
3F0
100
AcDbEntity
  8
ASSI
100
AcDbLine
 62
7
  6
CONTINUOUS
 10
-8.5109333469
 20
7.9957912937
 11
-8.5109333469
 21
7.7312924592
  0
LINE
  5
3F1
100
AcDbEntity
  8
RACCORDO
100
AcDbLine
 62
7
  6
CONTINUOUS
 10
-8.5109333469
 20
3.8687075408
 11
-8.5109333469
 21
3.5508468051
  0
LINE
  5
3F2
100
AcDbEntity
  8
ASSI
100
AcDbLine
 62
7
  6
CONTINUOUS
 10
-8.5109333469
 20
3.8687075408
 11
-8.5109333469
 21
3.5508468051
  0
LINE
  5
3F3
100
AcDbEntity
  8
DRAFT
100
AcDbLine
 62
7
  6
CONTINUOUS
 10
-8.5
 20
-5.8881634904
 11
-8.5
 21
-7.4118365096
  0
LINE
  5
3F4
100
AcDbEntity
  8
DRAFT
100
AcDbLine
 62
7
  6
CONTINUOUS
 10
-8.3355233043
 20
3.2
 11
-8.3355233043
 21
2.5
  0
LINE
  5
3F5
100
AcDbEntity
  8
ASSI
100
AcDbLine
 62
7
  6
CONTINUOUS
 10
-8.3355233043
 20
3.2
 11
-8.3355233043
 21
2.5
  0
LINE
  5
3F6
100
AcDbEntity
  8
RACCORDO
100
AcDbLine
 62
7
  6
CONTINUOUS
 10
-8.3355233043
 20
-9.9768345149
 11
-8.3355233043
 21
-8.0
  0
LINE
  5
3F7
100
AcDbEntity
  8
ASSI
100
AcDbLine
 62
7
  6
CONTINUOUS
 10
-8.3355233043
 20
-9.9768345149
 11
-8.3355233043
 21
-8.0
  0
LINE
  5
3F8
100
AcDbEntity
  8
DRAFT
100
AcDbLine
 62
7
  6
CONTINUOUS
 10
-8.3198149423
 20
10.5375255315
 11
-8.3198149423
 21
13.9130903017
  0
LINE
  5
3F9
100
AcDbEntity
  8
ASSI
100
AcDbLine
 62
7
  6
CONTINUOUS
 10
-8.3198149423
 20
10.5375255315
 11
-8.3198149423
 21
13.9130903017
  0
LINE
  5
3FA
100
AcDbEntity
  8
RACCORDO
100
AcDbLine
 62
253
  6
CONTINUOUS
 10
-8.304371834
 20
-24.2456323968
 11
-8.304371834
 21
-23.8443375673
  0
LINE
  5
3FB
100
AcDbEntity
  8
ASSI
100
AcDbLine
 62
7
  6
CONTINUOUS
 10
-8.304371834
 20
-24.2456323968
 11
-8.304371834
 21
-23.8443375673
  0
LINE
  5
3FC
100
AcDbEntity
  8
RACCORDO
100
AcDbLine
 62
253
  6
CONTINUOUS
 10
-8.304371834
 20
23.8443375673
 11
-8.304371834
 21
24.2456323968
  0
LINE
  5
3FD
100
AcDbEntity
  8
ASSI
100
AcDbLine
 62
7
  6
CONTINUOUS
 10
-8.304371834
 20
23.8443375673
 11
-8.304371834
 21
24.2456323968
  0
LINE
  5
3FE
100
AcDbEntity
  8
RACCORDO
100
AcDbLine
 62
7
  6
CONTINUOUS
 10
-8.3
 20
-22.35
 11
-8.3
 21
-23.8443375673
  0
LINE
  5
3FF
100
AcDbEntity
  8
ASSI
100
AcDbLine
 62
7
  6
CONTINUOUS
 10
-8.3
 20
-22.35
 11
-8.3
 21
-23.8443375673
  0
LINE
  5
400
100
AcDbEntity
  8
RACCORDO
100
AcDbLine
 62
7
  6
CONTINUOUS
 10
-8.3
 20
22.35
 11
-8.3
 21
23.8443375673
  0
LINE
  5
401
100
AcDbEntity
  8
ASSI
100
AcDbLine
 62
7
  6
CONTINUOUS
 10
-8.3
 20
22.35
 11
-8.3
 21
23.8443375673
  0
LINE
  5
402
100
AcDbEntity
  8
DRAFT
100
AcDbLine
 62
7
  6
CONTINUOUS
 10
-8.2822894108
 20
10.9677105892
 11
-8.2822894108
 21
10.5
  0
LINE
  5
403
100
AcDbEntity
  8
ASSI
100
AcDbLine
 62
7
  6
CONTINUOUS
 10
-8.2822894108
 20
10.9677105892
 11
-8.2822894108
 21
10.5
  0
LINE
  5
404
100
AcDbEntity
  8
DRAFT
100
AcDbLine
 62
7
  6
CONTINUOUS
 10
-8.2822894108
 20
10.0322894108
 11
-8.2822894108
 21
9.95
  0
LINE
  5
405
100
AcDbEntity
  8
ASSI
100
AcDbLine
 62
7
  6
CONTINUOUS
 10
-8.2822894108
 20
10.0322894108
 11
-8.2822894108
 21
9.95
  0
LINE
  5
406
100
AcDbEntity
  8
DRAFT
100
AcDbLine
 62
7
  6
CONTINUOUS
 10
-8.2822894108
 20
8.75
 11
-8.2822894108
 21
8.2244352298
  0
LINE
  5
407
100
AcDbEntity
  8
ASSI
100
AcDbLine
 62
7
  6
CONTINUOUS
 10
-8.2822894108
 20
8.75
 11
-8.2822894108
 21
8.2244352298
  0
LINE
  5
408
100
AcDbEntity
  8
DRAFT
100
AcDbLine
 62
7
  6
CONTINUOUS
 10
-8.2726898563
 20
4.9
 11
-8.2726898563
 21
5.0
  0
LINE
  5
409
100
AcDbEntity
  8
ASSI
100
AcDbLine
 62
7
  6
CONTINUOUS
 10
-8.2726898563
 20
4.9
 11
-8.2726898563
 21
5.0
  0
LINE
  5
40A
100
AcDbEntity
  8
DRAFT
100
AcDbLine
 62
7
  6
CONTINUOUS
 10
-8.2569814942
 20
10.9930185058
 11
-8.2569814942
 21
13.8502568536
  0
LINE
  5
40B
100
AcDbEntity
  8
ASSI
100
AcDbLine
 62
7
  6
CONTINUOUS
 10
-8.2569814942
 20
10.9930185058
 11
-8.2569814942
 21
13.8502568536
  0
LINE
  5
40C
100
AcDbEntity
  8
DRAFT
100
AcDbLine
 62
7
  6
CONTINUOUS
 10
-8.25
 20
10.0
 11
-8.25
 21
6.7226898563
  0
LINE
  5
40D
100
AcDbEntity
  8
ASSI
100
AcDbLine
 62
7
  6
CONTINUOUS
 10
-8.25
 20
10.0
 11
-8.25
 21
6.7226898563
  0
LINE
  5
40E
100
AcDbEntity
  8
DRAFT
100
AcDbLine
 62
7
  6
CONTINUOUS
 10
-8.25
 20
5.0
 11
-8.25
 21
2.6710596363
  0
LINE
  5
40F
100
AcDbEntity
  8
ASSI
100
AcDbLine
 62
7
  6
CONTINUOUS
 10
-8.25
 20
6.6
 11
-8.25
 21
2.6710596363
  0
LINE
  5
410
100
AcDbEntity
  8
DRAFT
100
AcDbLine
 62
7
  6
CONTINUOUS
 10
-8.25
 20
-8.0
 11
-8.25
 21
-8.9
  0
LINE
  5
411
100
AcDbEntity
  8
ASSI
100
AcDbLine
 62
7
  6
CONTINUOUS
 10
-8.25
 20
-8.0
 11
-8.25
 21
-8.9
  0
LINE
  5
412
100
AcDbEntity
  8
DRAFT
100
AcDbLine
 62
7
  6
CONTINUOUS
 10
-8.25
 20
-21.4
 11
-8.25
 21
-20.9
  0
LINE
  5
413
100
AcDbEntity
  8
ASSI
100
AcDbLine
 62
7
  6
CONTINUOUS
 10
-8.25
 20
-21.4
 11
-8.25
 21
-20.9
  0
LINE
  5
414
100
AcDbEntity
  8
RACCORDO
100
AcDbLine
 62
7
  6
CONTINUOUS
 10
-8.25
 20
-2.3047941508
 11
-8.25
 21
2.3047941508
  0
LINE
  5
415
100
AcDbEntity
  8
ASSI
100
AcDbLine
 62
7
  6
CONTINUOUS
 10
-8.25
 20
-2.3047941508
 11
-8.25
 21
2.3047941508
  0
LINE
  5
416
100
AcDbEntity
  8
DRAFT
100
AcDbLine
 62
7
  6
CONTINUOUS
 10
-8.25
 20
20.9
 11
-8.25
 21
21.4
  0
LINE
  5
417
100
AcDbEntity
  8
ASSI
100
AcDbLine
 62
7
  6
CONTINUOUS
 10
-8.25
 20
20.9
 11
-8.25
 21
21.4
  0
LINE
  5
418
100
AcDbEntity
  8
0
100
AcDbLine
 62
7
  6
CONTINUOUS
 10
-8.1
 20
7.5
 11
-8.1
 21
7.0
  0
LINE
  5
419
100
AcDbEntity
  8
RACCORDO
100
AcDbLine
 62
253
  6
CONTINUOUS
 10
-8.0840245667
 20
21.6833288495
 11
-8.0840245667
 21
20.9917082642
  0
LINE
  5
41A
100
AcDbEntity
  8
ASSI
100
AcDbLine
 62
253
  6
CONTINUOUS
 10
-8.0840245667
 20
21.6833288495
 11
-8.0840245667
 21
20.9917082642
  0
LINE
  5
41B
100
AcDbEntity
  8
RACCORDO
100
AcDbLine
 62
253
  6
CONTINUOUS
 10
-8.0840245667
 20
-20.9917082642
 11
-8.0840245667
 21
-21.6833288495
  0
LINE
  5
41C
100
AcDbEntity
  8
ASSI
100
AcDbLine
 62
253
  6
CONTINUOUS
 10
-8.0840245667
 20
-20.9917082642
 11
-8.0840245667
 21
-21.6833288495
  0
LINE
  5
41D
100
AcDbEntity
  8
0
100
AcDbLine
 62
7
  6
CONTINUOUS
 10
-8.05
 20
7.0
 11
-8.05
 21
6.65
  0
LINE
  5
41E
100
AcDbEntity
  8
DRAFT
100
AcDbLine
 62
7
  6
CONTINUOUS
 10
-8.0
 20
5.0
 11
-8.0
 21
2.4057426494
  0
LINE
  5
41F
100
AcDbEntity
  8
DRAFT
100
AcDbLine
 62
7
  6
CONTINUOUS
 10
-8.0
 20
-2.3586139741
 11
-8.0
 21
-5.8
  0
LINE
  5
420
100
AcDbEntity
  8
DRAFT
100
AcDbLine
 62
7
  6
CONTINUOUS
 10
-8.0
 20
-7.5
 11
-8.0
 21
-8.5
  0
LINE
  5
421
100
AcDbEntity
  8
0
100
AcDbLine
 62
7
  6
CONTINUOUS
 10
-8.0
 20
-8.9
 11
-8.0
 21
-8.5
  0
LINE
  5
422
100
AcDbEntity
  8
ASSI
100
AcDbLine
 62
7
  6
CONTINUOUS
 10
-8.0
 20
-8.9
 11
-8.0
 21
-8.5
  0
LINE
  5
423
100
AcDbEntity
  8
0
100
AcDbLine
 62
7
  6
CONTINUOUS
 10
-8.0
 20
7.6666666667
 11
-8.0
 21
10.0
  0
LINE
  5
424
100
AcDbEntity
  8
ASSI
100
AcDbLine
 62
7
  6
CONTINUOUS
 10
-8.0
 20
7.6666666667
 11
-8.0
 21
10.0
  0
LINE
  5
425
100
AcDbEntity
  8
0
100
AcDbLine
 62
7
  6
CONTINUOUS
 10
-8.0
 20
11.4825462644
 11
-8.0
 21
13.7
  0
LINE
  5
426
100
AcDbEntity
  8
ASSI
100
AcDbLine
 62
7
  6
CONTINUOUS
 10
-8.0
 20
11.4825462644
 11
-8.0
 21
13.7
  0
LINE
  5
427
100
AcDbEntity
  8
RACCORDO
100
AcDbLine
 62
7
  6
CONTINUOUS
 10
-7.9542087063
 20
-10.5508468051
 11
-7.9542087063
 21
-11.0891632737
  0
LINE
  5
428
100
AcDbEntity
  8
ASSI
100
AcDbLine
 62
7
  6
CONTINUOUS
 10
-7.9542087063
 20
-10.5508468051
 11
-7.9542087063
 21
-11.0891632737
  0
LINE
  5
429
100
AcDbEntity
  8
RACCORDO
100
AcDbLine
 62
7
  6
CONTINUOUS
 10
-7.9542087063
 20
-14.8957912937
 11
-7.9542087063
 21
-14.5108367263
  0
LINE
  5
42A
100
AcDbEntity
  8
ASSI
100
AcDbLine
 62
7
  6
CONTINUOUS
 10
-7.9542087063
 20
-14.8957912937
 11
-7.9542087063
 21
-14.5108367263
  0
LINE
  5
42B
100
AcDbEntity
  8
RACCORDO
100
AcDbLine
 62
7
  6
CONTINUOUS
 10
-7.7787986637
 20
-10.2
 11
-7.7787986637
 21
-9.9768345149
  0
LINE
  5
42C
100
AcDbEntity
  8
ASSI
100
AcDbLine
 62
7
  6
CONTINUOUS
 10
-7.7787986637
 20
-10.2
 11
-7.7787986637
 21
-9.9768345149
  0
LINE
  5
42D
100
AcDbEntity
  8
DRAFT
100
AcDbLine
 62
7
  6
CONTINUOUS
 10
-7.7255647702
 20
-12.0
 11
-7.7255647702
 21
-12.2
  0
LINE
  5
42E
100
AcDbEntity
  8
ASSI
100
AcDbLine
 62
7
  6
CONTINUOUS
 10
-7.7255647702
 20
-12.0
 11
-7.7255647702
 21
-12.2
  0
LINE
  5
42F
100
AcDbEntity
  8
DRAFT
100
AcDbLine
 62
7
  6
CONTINUOUS
 10
-7.7255647702
 20
-15.1244352298
 11
-7.7255647702
 21
-15.65
  0
LINE
  5
430
100
AcDbEntity
  8
ASSI
100
AcDbLine
 62
7
  6
CONTINUOUS
 10
-7.7255647702
 20
-15.1244352298
 11
-7.7255647702
 21
-15.65
  0
LINE
  5
431
100
AcDbEntity
  8
DRAFT
100
AcDbLine
 62
7
  6
CONTINUOUS
 10
-7.7255647702
 20
-16.85
 11
-7.7255647702
 21
-17.3755647702
  0
LINE
  5
432
100
AcDbEntity
  8
ASSI
100
AcDbLine
 62
7
  6
CONTINUOUS
 10
-7.7255647702
 20
-16.85
 11
-7.7255647702
 21
-17.3755647702
  0
LINE
  5
433
100
AcDbEntity
  8
DRAFT
100
AcDbLine
 62
7
  6
CONTINUOUS
 10
-7.7255647702
 20
-13.7
 11
-7.7255647702
 21
-13.6
  0
LINE
  5
434
100
AcDbEntity
  8
ASSI
100
AcDbLine
 62
7
  6
CONTINUOUS
 10
-7.7255647702
 20
-13.7
 11
-7.7255647702
 21
-13.6
  0
LINE
  5
435
100
AcDbEntity
  8
0
100
AcDbLine
 62
7
  6
CONTINUOUS
 10
-7.706365661
 20
-12.1808008909
 11
-7.706365661
 21
-8.9130903017
  0
LINE
  5
436
100
AcDbEntity
  8
ASSI
100
AcDbLine
 62
7
  6
CONTINUOUS
 10
-7.706365661
 20
-12.1808008909
 11
-7.706365661
 21
-8.9130903017
  0
LINE
  5
437
100
AcDbEntity
  8
DRAFT
100
AcDbLine
 62
7
  6
CONTINUOUS
 10
-7.6932753594
 20
-13.7322894108
 11
-7.6932753594
 21
-17.4479977728
  0
LINE
  5
438
100
AcDbEntity
  8
ASSI
100
AcDbLine
 62
7
  6
CONTINUOUS
 10
-7.6932753594
 20
-13.7322894108
 11
-7.6932753594
 21
-17.4479977728
  0
LINE
  5
439
100
AcDbEntity
  8
RACCORDO
100
AcDbLine
 62
253
  6
CONTINUOUS
 10
-7.5841007192
 20
21.2626932437
 11
-7.5841007192
 21
20.9959955457
  0
LINE
  5
43A
100
AcDbEntity
  8
ASSI
100
AcDbLine
 62
253
  6
CONTINUOUS
 10
-7.5841007192
 20
21.2626932437
 11
-7.5841007192
 21
20.9959955457
  0
LINE
  5
43B
100
AcDbEntity
  8
RACCORDO
100
AcDbLine
 62
253
  6
CONTINUOUS
 10
-7.5841007192
 20
-20.9959955457
 11
-7.5841007192
 21
-21.2626932437
  0
LINE
  5
43C
100
AcDbEntity
  8
ASSI
100
AcDbLine
 62
253
  6
CONTINUOUS
 10
-7.5841007192
 20
-20.9959955457
 11
-7.5841007192
 21
-21.2626932437
  0
LINE
  5
43D
100
AcDbEntity
  8
0
100
AcDbLine
 62
7
  6
CONTINUOUS
 10
-7.5
 20
-2.0
 11
-7.5
 21
5.0
  0
LINE
  5
43E
100
AcDbEntity
  8
RACCORDO
100
AcDbLine
 62
7
  6
CONTINUOUS
 10
-7.3517786853
 20
-20.4335707644
 11
-7.3517786853
 21
-18.9520022272
  0
LINE
  5
43F
100
AcDbEntity
  8
ASSI
100
AcDbLine
 62
7
  6
CONTINUOUS
 10
-7.3517786853
 20
-20.4335707644
 11
-7.3517786853
 21
-18.9520022272
  0
LINE
  5
440
100
AcDbEntity
  8
RACCORDO
100
AcDbLine
 62
7
  6
CONTINUOUS
 10
-7.3401430257
 20
18.5630493339
 11
-7.3401430257
 21
19.3
  0
LINE
  5
441
100
AcDbEntity
  8
ASSI
100
AcDbLine
 62
7
  6
CONTINUOUS
 10
-7.3401430257
 20
18.5630493339
 11
-7.3401430257
 21
19.3
  0
LINE
  5
442
100
AcDbEntity
  8
RACCORDO
100
AcDbLine
 62
7
  6
CONTINUOUS
 10
-7.3209441873
 20
20.7113319946
 11
-7.3209441873
 21
19.947427955
  0
LINE
  5
443
100
AcDbEntity
  8
ASSI
100
AcDbLine
 62
7
  6
CONTINUOUS
 10
-7.3209441873
 20
20.7113319946
 11
-7.3209441873
 21
19.947427955
  0
LINE
  5
444
100
AcDbEntity
  8
RACCORDO
100
AcDbLine
 62
253
  6
CONTINUOUS
 10
-7.2429784985
 20
-19.9267239376
 11
-7.2429784985
 21
-20.9942603263
  0
LINE
  5
445
100
AcDbEntity
  8
ASSI
100
AcDbLine
 62
7
  6
CONTINUOUS
 10
-7.2429784985
 20
-19.9267239376
 11
-7.2429784985
 21
-20.9942603263
  0
LINE
  5
446
100
AcDbEntity
  8
RACCORDO
100
AcDbLine
 62
253
  6
CONTINUOUS
 10
-7.2429784985
 20
19.9267239376
 11
-7.2429784985
 21
20.9942603263
  0
LINE
  5
447
100
AcDbEntity
  8
ASSI
100
AcDbLine
 62
7
  6
CONTINUOUS
 10
-7.2429784985
 20
19.9267239376
 11
-7.2429784985
 21
20.9942603263
  0
LINE
  5
448
100
AcDbEntity
  8
RACCORDO
100
AcDbLine
 62
253
  6
CONTINUOUS
 10
-8.5492770021
 20
-23.1226497308
 11
-8.5543676032
 21
-23.6278312164
  0
LINE
  5
449
100
AcDbEntity
  8
ASSI
100
AcDbLine
 62
253
  6
CONTINUOUS
 10
-8.5492770021
 20
-23.1226497308
 11
-8.5543676032
 21
-23.6278312164
  0
LINE
  5
44A
100
AcDbEntity
  8
RACCORDO
100
AcDbLine
 62
253
  6
CONTINUOUS
 10
-8.3
 20
-23.4104851482
 11
-8.304371834
 21
-23.8443375673
  0
LINE
  5
44B
100
AcDbEntity
  8
ASSI
100
AcDbLine
 62
253
  6
CONTINUOUS
 10
-8.3
 20
-23.4104851482
 11
-8.304371834
 21
-23.8443375673
  0
LINE
  5
44C
100
AcDbEntity
  8
RACCORDO
100
AcDbLine
 62
253
  6
CONTINUOUS
 10
-7.2429784985
 20
19.9267239376
 11
-7.3401430257
 21
18.5630493339
  0
LINE
  5
44D
100
AcDbEntity
  8
ASSI
100
AcDbLine
 62
253
  6
CONTINUOUS
 10
-7.2429784985
 20
19.9267239376
 11
-7.3401430257
 21
18.5630493339
  0
LINE
  5
44E
100
AcDbEntity
  8
RACCORDO
100
AcDbLine
 62
7
  6
CONTINUOUS
 10
-4.5602153878
 20
19.3
 11
-4.5355517935
 21
19.4481131876
  0
LINE
  5
44F
100
AcDbEntity
  8
ASSI
100
AcDbLine
 62
7
  6
CONTINUOUS
 10
-4.5602153878
 20
19.3
 11
-4.5355517935
 21
19.4481131876
  0
LINE
  5
450
100
AcDbEntity
  8
DRAFT
100
AcDbLine
 62
7
  6
CONTINUOUS
 10
-11.0825449351
 20
-19.1
 11
-11.1
 21
-19.1874886635
  0
LINE
  5
451
100
AcDbEntity
  8
ASSI
100
AcDbLine
 62
7
  6
CONTINUOUS
 10
-11.0825449351
 20
-19.1
 11
-11.1
 21
-19.1874886635
  0
LINE
  5
452
100
AcDbEntity
  8
DRAFT
100
AcDbLine
 62
7
  6
CONTINUOUS
 10
-8.25
 20
2.6710596363
 11
-8.3355233043
 21
2.5
  0
LINE
  5
453
100
AcDbEntity
  8
ASSI
100
AcDbLine
 62
7
  6
CONTINUOUS
 10
-8.25
 20
2.6710596363
 11
-8.3355233043
 21
2.5
  0
LINE
  5
454
100
AcDbEntity
  8
RACCORDO
100
AcDbLine
 62
7
  6
CONTINUOUS
 10
4.4
 20
22.35
 11
4.3557656098
 21
22.2836474789
  0
LINE
  5
455
100
AcDbEntity
  8
ASSI
100
AcDbLine
 62
7
  6
CONTINUOUS
 10
4.4
 20
22.35
 11
4.3557656098
 21
22.2836474789
  0
LINE
  5
456
100
AcDbEntity
  8
DRAFT
100
AcDbLine
 62
7
  6
CONTINUOUS
 10
8.0
 20
-7.5
 11
8.5
 21
-7.4118365096
  0
LINE
  5
457
100
AcDbEntity
  8
0
100
AcDbLine
 62
7
  6
CONTINUOUS
 10
8.0
 20
-8.5
 11
-8.0
 21
-8.5
  0
LINE
  5
458
100
AcDbEntity
  8
DRAFT
100
AcDbLine
 62
7
  6
CONTINUOUS
 10
8.75
 20
-8.0
 11
8.25
 21
-8.0
  0
LINE
  5
459
100
AcDbEntity
  8
ASSI
100
AcDbLine
 62
7
  6
CONTINUOUS
 10
8.75
 20
-8.0
 11
8.25
 21
-8.0
  0
LINE
  5
45A
100
AcDbEntity
  8
DRAFT
100
AcDbLine
 62
7
  6
CONTINUOUS
 10
-8.25
 20
-8.0
 11
-8.75
 21
-8.0
  0
LINE
  5
45B
100
AcDbEntity
  8
ASSI
100
AcDbLine
 62
7
  6
CONTINUOUS
 10
-8.25
 20
-8.0
 11
-8.75
 21
-8.0
  0
LINE
  5
45C
100
AcDbEntity
  8
DRAFT
100
AcDbLine
 62
7
  6
CONTINUOUS
 10
-8.0
 20
-7.5
 11
-8.5
 21
-7.4118365096
  0
LINE
  5
45D
100
AcDbEntity
  8
RACCORDO
100
AcDbLine
 62
7
  6
CONTINUOUS
 10
7.7255647702
 20
-13.6
 11
7.9472576745
 21
-13.7108443418
  0
LINE
  5
45E
100
AcDbEntity
  8
ASSI
100
AcDbLine
 62
7
  6
CONTINUOUS
 10
7.7255647702
 20
-13.6
 11
7.9472576745
 21
-13.7108443418
  0
LINE
  5
45F
100
AcDbEntity
  8
RACCORDO
100
AcDbLine
 62
7
  6
CONTINUOUS
 10
7.7162893387
 20
-18.9662893387
 11
7.75
 21
-19.0
  0
LINE
  5
460
100
AcDbEntity
  8
ASSI
100
AcDbLine
 62
7
  6
CONTINUOUS
 10
7.7162893387
 20
-18.9662893387
 11
7.75
 21
-19.0
  0
LINE
  5
461
100
AcDbEntity
  8
RACCORDO
100
AcDbLine
 62
7
  6
CONTINUOUS
 10
4.4
 20
-22.35
 11
4.3557656098
 21
-22.2836474789
  0
LINE
  5
462
100
AcDbEntity
  8
ASSI
100
AcDbLine
 62
7
  6
CONTINUOUS
 10
4.4
 20
-22.35
 11
4.3557656098
 21
-22.2836474789
  0
LINE
  5
463
100
AcDbEntity
  8
0
100
AcDbLine
 62
7
  6
CONTINUOUS
 10
-6.1
 20
-5.0
 11
-7.5
 21
-2.0
  0
LINE
  5
464
100
AcDbEntity
  8
DRAFT
100
AcDbLine
 62
7
  6
CONTINUOUS
 10
-11.0825449351
 20
15.6
 11
-11.1
 21
15.6874886635
  0
LINE
  5
465
100
AcDbEntity
  8
ASSI
100
AcDbLine
 62
7
  6
CONTINUOUS
 10
-11.0825449351
 20
15.6
 11
-11.1
 21
15.6874886635
  0
LINE
  5
466
100
AcDbEntity
  8
RACCORDO
100
AcDbLine
 62
253
  6
CONTINUOUS
 10
-7.0429818832
 20
-19.9267239376
 11
-7.0429818832
 21
-20.9959955457
  0
LINE
  5
467
100
AcDbEntity
  8
ASSI
100
AcDbLine
 62
253
  6
CONTINUOUS
 10
-7.0429818832
 20
-19.9267239376
 11
-7.0429818832
 21
-20.9959955457
  0
LINE
  5
468
100
AcDbEntity
  8
RACCORDO
100
AcDbLine
 62
253
  6
CONTINUOUS
 10
-7.0429818832
 20
19.9267239376
 11
-7.0429818832
 21
20.9959955457
  0
LINE
  5
469
100
AcDbEntity
  8
ASSI
100
AcDbLine
 62
253
  6
CONTINUOUS
 10
-7.0429818832
 20
19.9267239376
 11
-7.0429818832
 21
20.9959955457
  0
LINE
  5
46A
100
AcDbEntity
  8
0
100
AcDbLine
 62
7
  6
CONTINUOUS
 10
-6.8
 20
-4.64
 11
-6.8
 21
-3.5
  0
LINE
  5
46B
100
AcDbEntity
  8
0
100
AcDbLine
 62
7
  6
CONTINUOUS
 10
-6.8
 20
6.65
 11
-6.8
 21
8.5
  0
LINE
  5
46C
100
AcDbEntity
  8
RACCORDO
100
AcDbLine
 62
253
  6
CONTINUOUS
 10
-6.7570181168
 20
20.5829242832
 11
-6.7570181168
 21
19.9267239376
  0
LINE
  5
46D
100
AcDbEntity
  8
ASSI
100
AcDbLine
 62
253
  6
CONTINUOUS
 10
-6.7570181168
 20
20.5829242832
 11
-6.7570181168
 21
19.9267239376
  0
LINE
  5
46E
100
AcDbEntity
  8
RACCORDO
100
AcDbLine
 62
253
  6
CONTINUOUS
 10
-6.7570181168
 20
-20.5829242832
 11
-6.7570181168
 21
-19.9267239376
  0
LINE
  5
46F
100
AcDbEntity
  8
ASSI
100
AcDbLine
 62
253
  6
CONTINUOUS
 10
-6.7570181168
 20
-20.5829242832
 11
-6.7570181168
 21
-19.9267239376
  0
LINE
  5
470
100
AcDbEntity
  8
DRAFT
100
AcDbLine
 62
7
  6
CONTINUOUS
 10
-6.7019074668
 20
15.2085226158
 11
-6.7019074668
 21
14.1914773842
  0
LINE
  5
471
100
AcDbEntity
  8
ASSI
100
AcDbLine
 62
7
  6
CONTINUOUS
 10
-6.7019074668
 20
15.2085226158
 11
-6.7019074668
 21
14.1914773842
  0
LINE
  5
472
100
AcDbEntity
  8
DRAFT
100
AcDbLine
 62
7
  6
CONTINUOUS
 10
-6.7019074668
 20
-18.7085226158
 11
-6.7019074668
 21
-17.6914773842
  0
LINE
  5
473
100
AcDbEntity
  8
ASSI
100
AcDbLine
 62
7
  6
CONTINUOUS
 10
-6.7019074668
 20
-18.7085226158
 11
-6.7019074668
 21
-17.6914773842
  0
LINE
  5
474
100
AcDbEntity
  8
RACCORDO
100
AcDbLine
 62
253
  6
CONTINUOUS
 10
-6.5570215015
 20
20.1837995929
 11
-6.5570215015
 21
19.9267239376
  0
LINE
  5
475
100
AcDbEntity
  8
ASSI
100
AcDbLine
 62
7
  6
CONTINUOUS
 10
-6.5570215015
 20
20.1837995929
 11
-6.5570215015
 21
19.9267239376
  0
LINE
  5
476
100
AcDbEntity
  8
RACCORDO
100
AcDbLine
 62
253
  6
CONTINUOUS
 10
-6.5570215015
 20
-20.1837995929
 11
-6.5570215015
 21
-19.9267239376
  0
LINE
  5
477
100
AcDbEntity
  8
ASSI
100
AcDbLine
 62
7
  6
CONTINUOUS
 10
-6.5570215015
 20
-20.1837995929
 11
-6.5570215015
 21
-19.9267239376
  0
LINE
  5
478
100
AcDbEntity
  8
RACCORDO
100
AcDbLine
 62
7
  6
CONTINUOUS
 10
-6.4790558127
 20
19.968583276
 11
-6.4790558127
 21
19.947427955
  0
LINE
  5
479
100
AcDbEntity
  8
ASSI
100
AcDbLine
 62
7
  6
CONTINUOUS
 10
-6.4790558127
 20
19.968583276
 11
-6.4790558127
 21
19.947427955
  0
LINE
  5
47A
100
AcDbEntity
  8
RACCORDO
100
AcDbLine
 62
7
  6
CONTINUOUS
 10
-6.4598569743
 20
18.5630493339
 11
-6.4598569743
 21
19.3
  0
LINE
  5
47B
100
AcDbEntity
  8
ASSI
100
AcDbLine
 62
7
  6
CONTINUOUS
 10
-6.4598569743
 20
18.5630493339
 11
-6.4598569743
 21
19.3
  0
LINE
  5
47C
100
AcDbEntity
  8
RACCORDO
100
AcDbLine
 62
7
  6
CONTINUOUS
 10
-6.4482213147
 20
-18.9520022272
 11
-6.4482213147
 21
-19.9223308767
  0
LINE
  5
47D
100
AcDbEntity
  8
ASSI
100
AcDbLine
 62
7
  6
CONTINUOUS
 10
-6.4482213147
 20
-18.9520022272
 11
-6.4482213147
 21
-19.9223308767
  0
LINE
  5
47E
100
AcDbEntity
  8
0
100
AcDbLine
 62
7
  6
CONTINUOUS
 10
-6.2
 20
8.5
 11
-6.2
 21
6.65
  0
LINE
  5
47F
100
AcDbEntity
  8
0
100
AcDbLine
 62
7
  6
CONTINUOUS
 10
-6.1
 20
-5.98
 11
-6.1
 21
-5.0
  0
LINE
  5
480
100
AcDbEntity
  8
DRAFT
100
AcDbLine
 62
7
  6
CONTINUOUS
 10
-6.0
 20
-18.8839326584
 11
-6.0
 21
-17.5160673416
  0
LINE
  5
481
100
AcDbEntity
  8
ASSI
100
AcDbLine
 62
7
  6
CONTINUOUS
 10
-6.0
 20
-18.8839326584
 11
-6.0
 21
-17.5160673416
  0
LINE
  5
482
100
AcDbEntity
  8
DRAFT
100
AcDbLine
 62
7
  6
CONTINUOUS
 10
-6.0
 20
14.0160673416
 11
-6.0
 21
15.3839326584
  0
LINE
  5
483
100
AcDbEntity
  8
ASSI
100
AcDbLine
 62
7
  6
CONTINUOUS
 10
-6.0
 20
14.0160673416
 11
-6.0
 21
15.3839326584
  0
LINE
  5
484
100
AcDbEntity
  8
DRAFT
100
AcDbLine
 62
7
  6
CONTINUOUS
 10
-9.65
 20
-19.1
 11
-9.6674550649
 21
-19.1874886635
  0
LINE
  5
485
100
AcDbEntity
  8
ASSI
100
AcDbLine
 62
7
  6
CONTINUOUS
 10
-9.65
 20
-19.1
 11
-9.6674550649
 21
-19.1874886635
  0
LINE
  5
486
100
AcDbEntity
  8
DRAFT
100
AcDbLine
 62
7
  6
CONTINUOUS
 10
-8.5937890665
 20
-2.3586139741
 11
-8.75
 21
-2.6710596363
  0
LINE
  5
487
100
AcDbEntity
  8
ASSI
100
AcDbLine
 62
7
  6
CONTINUOUS
 10
-8.5937890665
 20
-2.3586139741
 11
-8.75
 21
-2.6710596363
  0
LINE
  5
488
100
AcDbEntity
  8
RACCORDO
100
AcDbLine
 62
7
  6
CONTINUOUS
 10
6.555294768
 20
20.0829433217
 11
6.4790558127
 21
19.968583276
  0
LINE
  5
489
100
AcDbEntity
  8
ASSI
100
AcDbLine
 62
7
  6
CONTINUOUS
 10
6.555294768
 20
20.0829433217
 11
6.4790558127
 21
19.968583276
  0
LINE
  5
48A
100
AcDbEntity
  8
DRAFT
100
AcDbLine
 62
7
  6
CONTINUOUS
 10
-10.0
 20
-0.5
 11
-9.7730841559
 21
-0.2730841559
  0
LINE
  5
48B
100
AcDbEntity
  8
ASSI
100
AcDbLine
 62
7
  6
CONTINUOUS
 10
-10.0
 20
-0.5
 11
-9.7730841559
 21
-0.2730841559
  0
LINE
  5
48C
100
AcDbEntity
  8
DRAFT
100
AcDbLine
 62
7
  6
CONTINUOUS
 10
5.4960729593
 20
13.87163758
 11
5.4921463174
 21
13.8677107886
  0
LINE
  5
48D
100
AcDbEntity
  8
ASSI
100
AcDbLine
 62
7
  6
CONTINUOUS
 10
5.4960729593
 20
13.87163758
 11
5.4921463174
 21
13.8677107886
  0
LINE
  5
48E
100
AcDbEntity
  8
DRAFT
100
AcDbLine
 62
7
  6
CONTINUOUS
 10
5.4825462644
 20
13.8502568536
 11
5.4921463158
 21
13.8598570694
  0
LINE
  5
48F
100
AcDbEntity
  8
ASSI
100
AcDbLine
 62
7
  6
CONTINUOUS
 10
5.4825462644
 20
13.8502568536
 11
5.4921463158
 21
13.8598570694
  0
LINE
  5
490
100
AcDbEntity
  8
DRAFT
100
AcDbLine
 62
7
  6
CONTINUOUS
 10
-10.0
 20
-2.5
 11
-9.7730841559
 21
-2.2730841559
  0
LINE
  5
491
100
AcDbEntity
  8
ASSI
100
AcDbLine
 62
7
  6
CONTINUOUS
 10
-10.0
 20
-2.5
 11
-9.7730841559
 21
-2.2730841559
  0
LINE
  5
492
100
AcDbEntity
  8
0
100
AcDbLine
 62
7
  6
CONTINUOUS
 10
6.4
 20
-6.9
 11
-4.8
 21
-6.9
  0
LINE
  5
493
100
AcDbEntity
  8
DRAFT
100
AcDbLine
 62
7
  6
CONTINUOUS
 10
-10.9926595262
 20
-6.2
 11
-9.6285418101
 21
-6.2
  0
LINE
  5
494
100
AcDbEntity
  8
ASSI
100
AcDbLine
 62
7
  6
CONTINUOUS
 10
-10.9926595262
 20
-6.2
 11
-9.6285418101
 21
-6.2
  0
LINE
  5
495
100
AcDbEntity
  8
DRAFT
100
AcDbLine
 62
7
  6
CONTINUOUS
 10
10.9926595262
 20
-6.2
 11
9.6285418101
 21
-6.2
  0
LINE
  5
496
100
AcDbEntity
  8
ASSI
100
AcDbLine
 62
7
  6
CONTINUOUS
 10
10.9926595262
 20
-6.2
 11
9.6285418101
 21
-6.2
  0
LINE
  5
497
100
AcDbEntity
  8
0
100
AcDbLine
 62
7
  6
CONTINUOUS
 10
-4.8
 20
-5.98
 11
-6.1
 21
-5.98
  0
LINE
  5
498
100
AcDbEntity
  8
DRAFT
100
AcDbLine
 62
7
  6
CONTINUOUS
 10
7.7255647702
 20
-17.3755647702
 11
7.7979977728
 21
-17.4479977728
  0
LINE
  5
499
100
AcDbEntity
  8
ASSI
100
AcDbLine
 62
7
  6
CONTINUOUS
 10
7.7255647702
 20
-17.3755647702
 11
7.7979977728
 21
-17.4479977728
  0
LINE
  5
49A
100
AcDbEntity
  8
DRAFT
100
AcDbLine
 62
7
  6
CONTINUOUS
 10
-10.0
 20
0.5
 11
-9.7730841559
 21
0.2730841559
  0
LINE
  5
49B
100
AcDbEntity
  8
ASSI
100
AcDbLine
 62
7
  6
CONTINUOUS
 10
-10.0
 20
0.5
 11
-9.7730841559
 21
0.2730841559
  0
LINE
  5
49C
100
AcDbEntity
  8
DRAFT
100
AcDbLine
 62
7
  6
CONTINUOUS
 10
10.8085226158
 20
-18.7085226158
 11
11.1
 21
-19.0
  0
LINE
  5
49D
100
AcDbEntity
  8
ASSI
100
AcDbLine
 62
7
  6
CONTINUOUS
 10
10.8085226158
 20
-18.7085226158
 11
11.1
 21
-19.0
  0
LINE
  5
49E
100
AcDbEntity
  8
DRAFT
100
AcDbLine
 62
7
  6
CONTINUOUS
 10
9.8414773842
 20
-17.6914773842
 11
9.55
 21
-17.4
  0
LINE
  5
49F
100
AcDbEntity
  8
ASSI
100
AcDbLine
 62
7
  6
CONTINUOUS
 10
9.8414773842
 20
-17.6914773842
 11
9.55
 21
-17.4
  0
LINE
  5
4A0
100
AcDbEntity
  8
DRAFT
100
AcDbLine
 62
7
  6
CONTINUOUS
 10
-10.0
 20
2.5
 11
-9.7730841559
 21
2.2730841559
  0
LINE
  5
4A1
100
AcDbEntity
  8
ASSI
100
AcDbLine
 62
7
  6
CONTINUOUS
 10
-10.0
 20
2.5
 11
-9.7730841559
 21
2.2730841559
  0
LINE
  5
4A2
100
AcDbEntity
  8
RACCORDO
100
AcDbLine
 62
7
  6
CONTINUOUS
 10
6.555294768
 20
-20.0829433217
 11
6.4482213147
 21
-19.9223308767
  0
LINE
  5
4A3
100
AcDbEntity
  8
ASSI
100
AcDbLine
 62
7
  6
CONTINUOUS
 10
6.555294768
 20
-20.0829433217
 11
6.4482213147
 21
-19.9223308767
  0
LINE
  5
4A4
100
AcDbEntity
  8
DRAFT
100
AcDbLine
 62
7
  6
CONTINUOUS
 10
-9.5872686779
 20
3.7253974543
 11
-9.5
 21
3.5508468051
  0
LINE
  5
4A5
100
AcDbEntity
  8
ASSI
100
AcDbLine
 62
7
  6
CONTINUOUS
 10
-9.5872686779
 20
3.7253974543
 11
-9.5
 21
3.5508468051
  0
LINE
  5
4A6
100
AcDbEntity
  8
DRAFT
100
AcDbLine
 62
7
  6
CONTINUOUS
 10
-8.25
 20
2.6710596363
 11
-8.1173516096
 21
2.4057426494
  0
LINE
  5
4A7
100
AcDbEntity
  8
ASSI
100
AcDbLine
 62
7
  6
CONTINUOUS
 10
-8.25
 20
2.6710596363
 11
-8.1173516096
 21
2.4057426494
  0
LINE
  5
4A8
100
AcDbEntity
  8
DRAFT
100
AcDbLine
 62
7
  6
CONTINUOUS
 10
-8.5109333469
 20
3.5508468051
 11
-8.3355233043
 21
3.2
  0
LINE
  5
4A9
100
AcDbEntity
  8
ASSI
100
AcDbLine
 62
7
  6
CONTINUOUS
 10
-8.5109333469
 20
3.5508468051
 11
-8.3355233043
 21
3.2
  0
LINE
  5
4AA
100
AcDbEntity
  8
RACCORDO
100
AcDbLine
 62
7
  6
CONTINUOUS
 10
-9.4966110309
 20
6.9313229207
 11
-9.4
 21
6.7340347844
  0
LINE
  5
4AB
100
AcDbEntity
  8
ASSI
100
AcDbLine
 62
7
  6
CONTINUOUS
 10
-9.4966110309
 20
6.9313229207
 11
-9.4
 21
6.7340347844
  0
LINE
  5
4AC
100
AcDbEntity
  8
DRAFT
100
AcDbLine
 62
7
  6
CONTINUOUS
 10
-9.65
 20
15.6
 11
-9.6674550649
 21
15.6874886635
  0
LINE
  5
4AD
100
AcDbEntity
  8
ASSI
100
AcDbLine
 62
7
  6
CONTINUOUS
 10
-9.65
 20
15.6
 11
-9.6674550649
 21
15.6874886635
  0
LINE
  5
4AE
100
AcDbEntity
  8
RACCORDO
100
AcDbLine
 62
253
  6
CONTINUOUS
 10
-6.5570215015
 20
19.9267239376
 11
-6.4598569743
 21
18.5630493339
  0
LINE
  5
4AF
100
AcDbEntity
  8
ASSI
100
AcDbLine
 62
253
  6
CONTINUOUS
 10
-6.5570215015
 20
19.9267239376
 11
-6.4598569743
 21
18.5630493339
  0
LINE
  5
4B0
100
AcDbEntity
  8
DRAFT
100
AcDbLine
 62
7
  6
CONTINUOUS
 10
-3.0722163905
 20
-21.6277836095
 11
-3.0872686779
 21
-21.0
  0
LINE
  5
4B1
100
AcDbEntity
  8
ASSI
100
AcDbLine
 62
7
  6
CONTINUOUS
 10
-3.0722163905
 20
-21.6277836095
 11
-3.0872686779
 21
-21.0
  0
LINE
  5
4B2
100
AcDbEntity
  8
0
100
AcDbLine
 62
7
  6
CONTINUOUS
 10
-4.9
 20
7.5
 11
-4.9
 21
7.4155304273
  0
LINE
  5
4B3
100
AcDbEntity
  8
0
100
AcDbLine
 62
7
  6
CONTINUOUS
 10
-4.8
 20
-6.9
 11
-4.8
 21
-5.98
  0
LINE
  5
4B4
100
AcDbEntity
  8
ASSI
100
AcDbLine
 62
7
  6
CONTINUOUS
 10
-4.65
 20
7.5211646096
 11
-4.65
 21
8.2
  0
LINE
  5
4B5
100
AcDbEntity
  8
RACCORDO
100
AcDbLine
 62
7
  6
CONTINUOUS
 10
-4.5602153878
 20
19.3
 11
-4.5602153878
 21
17.5397731892
  0
LINE
  5
4B6
100
AcDbEntity
  8
ASSI
100
AcDbLine
 62
7
  6
CONTINUOUS
 10
-4.5602153878
 20
19.3
 11
-4.5602153878
 21
17.5397731892
  0
LINE
  5
4B7
100
AcDbEntity
  8
RACCORDO
100
AcDbLine
 62
7
  6
CONTINUOUS
 10
-4.531416724
 20
19.947427955
 11
-4.531416724
 21
19.968583276
  0
LINE
  5
4B8
100
AcDbEntity
  8
ASSI
100
AcDbLine
 62
7
  6
CONTINUOUS
 10
-4.531416724
 20
19.947427955
 11
-4.531416724
 21
19.968583276
  0
LINE
  5
4B9
100
AcDbEntity
  8
RACCORDO
100
AcDbLine
 62
253
  6
CONTINUOUS
 10
-4.5025952137
 20
17.7956556053
 11
-4.5025952137
 21
19.9974047863
  0
LINE
  5
4BA
100
AcDbEntity
  8
ASSI
100
AcDbLine
 62
7
  6
CONTINUOUS
 10
-4.5025952137
 20
17.7956556053
 11
-4.5025952137
 21
19.9974047863
  0
LINE
  5
4BB
100
AcDbEntity
  8
DRAFT
100
AcDbLine
 62
7
  6
CONTINUOUS
 10
-4.4
 20
23.8
 11
-4.4
 21
22.35
  0
LINE
  5
4BC
100
AcDbEntity
  8
ASSI
100
AcDbLine
 62
7
  6
CONTINUOUS
 10
-4.4
 20
23.8
 11
-4.4
 21
22.35
  0
LINE
  5
4BD
100
AcDbEntity
  8
DRAFT
100
AcDbLine
 62
7
  6
CONTINUOUS
 10
-4.4
 20
-22.35
 11
-4.4
 21
-23.8
  0
LINE
  5
4BE
100
AcDbEntity
  8
ASSI
100
AcDbLine
 62
7
  6
CONTINUOUS
 10
-4.4
 20
-22.35
 11
-4.4
 21
-23.8
  0
LINE
  5
4BF
100
AcDbEntity
  8
ASSI
100
AcDbLine
 62
7
  6
CONTINUOUS
 10
-4.3557656098
 20
-22.2836474789
 11
-4.3557656098
 21
-23.7455819953
  0
LINE
  5
4C0
100
AcDbEntity
  8
ASSI
100
AcDbLine
 62
7
  6
CONTINUOUS
 10
-4.3557656098
 20
22.2836474789
 11
-4.3557656098
 21
23.7455819953
  0
LINE
  5
4C1
100
AcDbEntity
  8
RACCORDO
100
AcDbLine
 62
253
  6
CONTINUOUS
 10
-4.2026066368
 20
17.7956556053
 11
-4.2026066368
 21
20.0
  0
LINE
  5
4C2
100
AcDbEntity
  8
ASSI
100
AcDbLine
 62
253
  6
CONTINUOUS
 10
-4.2026066368
 20
17.7956556053
 11
-4.2026066368
 21
20.0
  0
LINE
  5
4C3
100
AcDbEntity
  8
ASSI
100
AcDbLine
 62
7
  6
CONTINUOUS
 10
-3.65
 20
7.5211646096
 11
-3.65
 21
8.2
  0
LINE
  5
4C4
100
AcDbEntity
  8
ASSI
100
AcDbLine
 62
7
  6
CONTINUOUS
 10
-3.5576357838
 20
-22.2836373484
 11
-3.5576357838
 21
-23.7453355738
  0
LINE
  5
4C5
100
AcDbEntity
  8
ASSI
100
AcDbLine
 62
7
  6
CONTINUOUS
 10
-3.5576357838
 20
22.2836373484
 11
-3.5576357838
 21
23.7453355738
  0
LINE
  5
4C6
100
AcDbEntity
  8
RACCORDO
100
AcDbLine
 62
7
  6
CONTINUOUS
 10
-3.5453831688
 20
15.5
 11
-3.5453831688
 21
16.2
  0
LINE
  5
4C7
100
AcDbEntity
  8
ASSI
100
AcDbLine
 62
7
  6
CONTINUOUS
 10
-3.5453831688
 20
15.5
 11
-3.5453831688
 21
16.2
  0
LINE
  5
4C8
100
AcDbEntity
  8
DRAFT
100
AcDbLine
 62
7
  6
CONTINUOUS
 10
-3.5226915844
 20
15.6
 11
-3.5226915844
 21
16.1886550719
  0
LINE
  5
4C9
100
AcDbEntity
  8
ASSI
100
AcDbLine
 62
7
  6
CONTINUOUS
 10
-3.5226915844
 20
15.6
 11
-3.5226915844
 21
16.1886550719
  0
LINE
  5
4CA
100
AcDbEntity
  8
DRAFT
100
AcDbLine
 62
7
  6
CONTINUOUS
 10
-3.503491013
 20
15.5904004454
 11
-3.503491013
 21
15.5
  0
LINE
  5
4CB
100
AcDbEntity
  8
ASSI
100
AcDbLine
 62
7
  6
CONTINUOUS
 10
-3.503491013
 20
15.5904004454
 11
-3.503491013
 21
15.5
  0
LINE
  5
4CC
100
AcDbEntity
  8
DRAFT
100
AcDbLine
 62
7
  6
CONTINUOUS
 10
-3.5
 20
23.7941821702
 11
-3.5
 21
22.3412731322
  0
LINE
  5
4CD
100
AcDbEntity
  8
ASSI
100
AcDbLine
 62
7
  6
CONTINUOUS
 10
-3.5
 20
23.7941821702
 11
-3.5
 21
22.3412731322
  0
LINE
  5
4CE
100
AcDbEntity
  8
DRAFT
100
AcDbLine
 62
7
  6
CONTINUOUS
 10
-3.5
 20
-23.7941821702
 11
-3.5
 21
-22.3412731322
  0
LINE
  5
4CF
100
AcDbEntity
  8
ASSI
100
AcDbLine
 62
7
  6
CONTINUOUS
 10
-3.5
 20
-23.7941821702
 11
-3.5
 21
-22.3412731322
  0
LINE
  5
4D0
100
AcDbEntity
  8
DRAFT
100
AcDbLine
 62
7
  6
CONTINUOUS
 10
-3.0872686779
 20
21.0
 11
-3.0722163905
 21
21.6277836095
  0
LINE
  5
4D1
100
AcDbEntity
  8
ASSI
100
AcDbLine
 62
7
  6
CONTINUOUS
 10
-3.0872686779
 20
21.0
 11
-3.0722163905
 21
21.6277836095
  0
LINE
  5
4D2
100
AcDbEntity
  8
DRAFT
100
AcDbLine
 62
7
  6
CONTINUOUS
 10
-9.55
 20
-10.2
 11
-9.6285418101
 21
-10.3570955844
  0
LINE
  5
4D3
100
AcDbEntity
  8
ASSI
100
AcDbLine
 62
7
  6
CONTINUOUS
 10
-9.55
 20
-10.2
 11
-9.6285418101
 21
-10.3570955844
  0
LINE
  5
4D4
100
AcDbEntity
  8
DRAFT
100
AcDbLine
 62
7
  6
CONTINUOUS
 10
-9.5872686779
 20
-10.7253974543
 11
-9.5
 21
-10.5508468051
  0
LINE
  5
4D5
100
AcDbEntity
  8
ASSI
100
AcDbLine
 62
7
  6
CONTINUOUS
 10
-9.5872686779
 20
-10.7253974543
 11
-9.5
 21
-10.5508468051
  0
LINE
  5
4D6
100
AcDbEntity
  8
DRAFT
100
AcDbLine
 62
7
  6
CONTINUOUS
 10
5.492145819
 20
11.5
 11
5.4746920834
 21
11.4825462644
  0
LINE
  5
4D7
100
AcDbEntity
  8
ASSI
100
AcDbLine
 62
7
  6
CONTINUOUS
 10
5.492145819
 20
11.5
 11
5.4746920834
 21
11.4825462644
  0
LINE
  5
4D8
100
AcDbEntity
  8
DRAFT
100
AcDbLine
 62
7
  6
CONTINUOUS
 10
8.2822894108
 20
13.8755647702
 11
8.3198149423
 21
13.9130903017
  0
LINE
  5
4D9
100
AcDbEntity
  8
ASSI
100
AcDbLine
 62
7
  6
CONTINUOUS
 10
8.2822894108
 20
13.8755647702
 11
8.3198149423
 21
13.9130903017
  0
LINE
  5
4DA
100
AcDbEntity
  8
DRAFT
100
AcDbLine
 62
7
  6
CONTINUOUS
 10
-8.0
 20
-5.8
 11
-8.5
 21
-5.8881634904
  0
LINE
  5
4DB
100
AcDbEntity
  8
0
100
AcDbLine
 62
7
  6
CONTINUOUS
 10
6.8
 20
-5.2
 11
6.4
 21
-5.2
  0
LINE
  5
4DC
100
AcDbEntity
  8
0
100
AcDbLine
 62
7
  6
CONTINUOUS
 10
6.1
 20
-5.0
 11
2.0
 21
-5.0
  0
LINE
  5
4DD
100
AcDbEntity
  8
0
100
AcDbLine
 62
7
  6
CONTINUOUS
 10
-2.0
 20
-5.0
 11
-6.1
 21
-5.0
  0
LINE
  5
4DE
100
AcDbEntity
  8
0
100
AcDbLine
 62
7
  6
CONTINUOUS
 10
-6.268
 20
-4.64
 11
-6.8
 21
-4.64
  0
LINE
  5
4DF
100
AcDbEntity
  8
0
100
AcDbLine
 62
7
  6
CONTINUOUS
 10
-1.5649090843
 20
-4.3473636265
 11
-0.85
 21
-4.3473636265
  0
LINE
  5
4E0
100
AcDbEntity
  8
0
100
AcDbLine
 62
7
  6
CONTINUOUS
 10
-0.15
 20
-4.3473636265
 11
0.65
 21
-4.3473636265
  0
LINE
  5
4E1
100
AcDbEntity
  8
0
100
AcDbLine
 62
7
  6
CONTINUOUS
 10
1.35
 20
-4.3473636265
 11
1.5649090843
 21
-4.3473636265
  0
LINE
  5
4E2
100
AcDbEntity
  8
DRAFT
100
AcDbLine
 62
7
  6
CONTINUOUS
 10
-11.0712013363
 20
-4.2
 11
-9.55
 21
-4.2
  0
LINE
  5
4E3
100
AcDbEntity
  8
ASSI
100
AcDbLine
 62
7
  6
CONTINUOUS
 10
-11.0712013363
 20
-4.2
 11
-9.55
 21
-4.2
  0
LINE
  5
4E4
100
AcDbEntity
  8
DRAFT
100
AcDbLine
 62
7
  6
CONTINUOUS
 10
11.0712013363
 20
-4.2
 11
9.55
 21
-4.2
  0
LINE
  5
4E5
100
AcDbEntity
  8
ASSI
100
AcDbLine
 62
7
  6
CONTINUOUS
 10
11.0712013363
 20
-4.2
 11
9.55
 21
-4.2
  0
LINE
  5
4E6
100
AcDbEntity
  8
0
100
AcDbLine
 62
7
  6
CONTINUOUS
 10
-1.189032036
 20
-3.783548054
 11
-0.85
 21
-3.783548054
  0
LINE
  5
4E7
100
AcDbEntity
  8
0
100
AcDbLine
 62
7
  6
CONTINUOUS
 10
-0.15
 20
-3.783548054
 11
0.65
 21
-3.783548054
  0
LINE
  5
4E8
100
AcDbEntity
  8
DRAFT
100
AcDbLine
 62
7
  6
CONTINUOUS
 10
8.0
 20
-5.8
 11
8.5
 21
-5.8881634904
  0
LINE
  5
4E9
100
AcDbEntity
  8
DRAFT
100
AcDbLine
 62
7
  6
CONTINUOUS
 10
8.7867049498
 20
-15.3867049498
 11
8.778184492
 21
-15.378184492
  0
LINE
  5
4EA
100
AcDbEntity
  8
ASSI
100
AcDbLine
 62
7
  6
CONTINUOUS
 10
8.7867049498
 20
-15.3867049498
 11
8.778184492
 21
-15.378184492
  0
LINE
  5
4EB
100
AcDbEntity
  8
RACCORDO
100
AcDbLine
 62
7
  6
CONTINUOUS
 10
8.75
 20
-13.6
 11
8.8608443418
 21
-13.7108443418
  0
LINE
  5
4EC
100
AcDbEntity
  8
ASSI
100
AcDbLine
 62
7
  6
CONTINUOUS
 10
8.75
 20
-13.6
 11
8.8608443418
 21
-13.7108443418
  0
LINE
  5
4ED
100
AcDbEntity
  8
RACCORDO
100
AcDbLine
 62
7
  6
CONTINUOUS
 10
-6.4762991386
 20
19.4481131876
 11
-6.4598569743
 21
19.3
  0
LINE
  5
4EE
100
AcDbEntity
  8
ASSI
100
AcDbLine
 62
7
  6
CONTINUOUS
 10
-6.4762991386
 20
19.4481131876
 11
-6.4598569743
 21
19.3
  0
LINE
  5
4EF
100
AcDbEntity
  8
RACCORDO
100
AcDbLine
 62
7
  6
CONTINUOUS
 10
-3.4
 20
15.5
 11
-3.4
 21
15.6
  0
LINE
  5
4F0
100
AcDbEntity
  8
ASSI
100
AcDbLine
 62
7
  6
CONTINUOUS
 10
-3.25
 20
7.3272457547
 11
-3.25
 21
7.65
  0
LINE
  5
4F1
100
AcDbEntity
  8
RACCORDO
100
AcDbLine
 62
7
  6
CONTINUOUS
 10
-3.0872686779
 20
-21.2626932437
 11
-3.0872686779
 21
-21.0
  0
LINE
  5
4F2
100
AcDbEntity
  8
ASSI
100
AcDbLine
 62
7
  6
CONTINUOUS
 10
-3.0872686779
 20
-21.2626932437
 11
-3.0872686779
 21
-21.0
  0
LINE
  5
4F3
100
AcDbEntity
  8
RACCORDO
100
AcDbLine
 62
7
  6
CONTINUOUS
 10
-3.0872686779
 20
21.0
 11
-3.0872686779
 21
21.2626932437
  0
LINE
  5
4F4
100
AcDbEntity
  8
ASSI
100
AcDbLine
 62
7
  6
CONTINUOUS
 10
-3.0872686779
 20
21.0
 11
-3.0872686779
 21
21.2626932437
  0
LINE
  5
4F5
100
AcDbEntity
  8
DRAFT
100
AcDbLine
 62
7
  6
CONTINUOUS
 10
-3.0
 20
22.3412731322
 11
-3.0
 21
21.7
  0
LINE
  5
4F6
100
AcDbEntity
  8
ASSI
100
AcDbLine
 62
7
  6
CONTINUOUS
 10
-3.0
 20
22.3412731322
 11
-3.0
 21
21.7
  0
LINE
  5
4F7
100
AcDbEntity
  8
DRAFT
100
AcDbLine
 62
7
  6
CONTINUOUS
 10
-3.0
 20
-21.7
 11
-3.0
 21
-22.3412731322
  0
LINE
  5
4F8
100
AcDbEntity
  8
ASSI
100
AcDbLine
 62
7
  6
CONTINUOUS
 10
-3.0
 20
-21.7
 11
-3.0
 21
-22.3412731322
  0
LINE
  5
4F9
100
AcDbEntity
  8
ASSI
100
AcDbLine
 62
7
  6
CONTINUOUS
 10
-2.25
 20
6.9458040048
 11
-2.25
 21
7.65
  0
LINE
  5
4FA
100
AcDbEntity
  8
ASSI
100
AcDbLine
 62
7
  6
CONTINUOUS
 10
-1.75
 20
6.9458040048
 11
-1.75
 21
7.65
  0
LINE
  5
4FB
100
AcDbEntity
  8
SMUSSO
100
AcDbLine
 62
7
  6
CONTINUOUS
 10
-9.5121049871
 20
-19.7326104146
 11
-9.6674550649
 21
-20.1990396502
  0
LINE
  5
4FC
100
AcDbEntity
  8
ASSI
100
AcDbLine
 62
7
  6
CONTINUOUS
 10
-9.5121049871
 20
-19.7326104146
 11
-9.6674550649
 21
-20.1990396502
  0
LINE
  5
4FD
100
AcDbEntity
  8
SMUSSO
100
AcDbLine
 62
7
  6
CONTINUOUS
 10
-8.8119986495
 20
-20.4335707644
 11
-8.9673487273
 21
-20.9
  0
LINE
  5
4FE
100
AcDbEntity
  8
ASSI
100
AcDbLine
 62
7
  6
CONTINUOUS
 10
-8.8119986495
 20
-20.4335707644
 11
-8.9673487273
 21
-20.9
  0
LINE
  5
4FF
100
AcDbEntity
  8
DRAFT
100
AcDbLine
 62
7
  6
CONTINUOUS
 10
-7.7787986637
 20
-10.2
 11
-7.9542087063
 21
-10.5508468051
  0
LINE
  5
500
100
AcDbEntity
  8
ASSI
100
AcDbLine
 62
7
  6
CONTINUOUS
 10
-7.7787986637
 20
-10.2
 11
-7.9542087063
 21
-10.5508468051
  0
LINE
  5
501
100
AcDbEntity
  8
DRAFT
100
AcDbLine
 62
7
  6
CONTINUOUS
 10
9.2216129175
 20
13.9130903017
 11
9.5
 21
14.1914773842
  0
LINE
  5
502
100
AcDbEntity
  8
ASSI
100
AcDbLine
 62
7
  6
CONTINUOUS
 10
9.2216129175
 20
13.9130903017
 11
9.5
 21
14.1914773842
  0
LINE
  5
503
100
AcDbEntity
  8
DRAFT
100
AcDbLine
 62
7
  6
CONTINUOUS
 10
10.8085226158
 20
15.2085226158
 11
11.1
 21
15.5
  0
LINE
  5
504
100
AcDbEntity
  8
ASSI
100
AcDbLine
 62
7
  6
CONTINUOUS
 10
10.8085226158
 20
15.2085226158
 11
11.1
 21
15.5
  0
LINE
  5
505
100
AcDbEntity
  8
RACCORDO
100
AcDbLine
 62
253
  6
CONTINUOUS
 10
7.3485844704
 20
-2.3244618492
 11
8.25
 21
-2.3047941508
  0
LINE
  5
506
100
AcDbEntity
  8
ASSI
100
AcDbLine
 62
253
  6
CONTINUOUS
 10
7.3485844704
 20
-2.3244618492
 11
8.25
 21
-2.3047941508
  0
LINE
  5
507
100
AcDbEntity
  8
RACCORDO
100
AcDbLine
 62
253
  6
CONTINUOUS
 10
7.4444700657
 20
-2.1189927164
 11
8.25
 21
-2.1014171154
  0
LINE
  5
508
100
AcDbEntity
  8
ASSI
100
AcDbLine
 62
253
  6
CONTINUOUS
 10
7.4444700657
 20
-2.1189927164
 11
8.25
 21
-2.1014171154
  0
LINE
  5
509
100
AcDbEntity
  8
DRAFT
100
AcDbLine
 62
7
  6
CONTINUOUS
 10
-10.0
 20
-2.5
 11
-8.75
 21
-2.5
  0
LINE
  5
50A
100
AcDbEntity
  8
ASSI
100
AcDbLine
 62
7
  6
CONTINUOUS
 10
-10.0
 20
-2.5
 11
-8.75
 21
-2.5
  0
LINE
  5
50B
100
AcDbEntity
  8
DRAFT
100
AcDbLine
 62
7
  6
CONTINUOUS
 10
8.75
 20
-2.5
 11
10.0
 21
-2.5
  0
LINE
  5
50C
100
AcDbEntity
  8
ASSI
100
AcDbLine
 62
7
  6
CONTINUOUS
 10
8.75
 20
-2.5
 11
10.0
 21
-2.5
  0
LINE
  5
50D
100
AcDbEntity
  8
RACCORDO
100
AcDbLine
 62
7
  6
CONTINUOUS
 10
8.5937890665
 20
-2.3586139741
 11
7.3326468121
 21
-2.3586139741
  0
LINE
  5
50E
100
AcDbEntity
  8
ASSI
100
AcDbLine
 62
7
  6
CONTINUOUS
 10
8.5937890665
 20
-2.3586139741
 11
7.3326468121
 21
-2.3586139741
  0
LINE
  5
50F
100
AcDbEntity
  8
RACCORDO
100
AcDbLine
 62
7
  6
CONTINUOUS
 10
-7.3326468121
 20
-2.3586139741
 11
-8.5937890665
 21
-2.3586139741
  0
LINE
  5
510
100
AcDbEntity
  8
ASSI
100
AcDbLine
 62
7
  6
CONTINUOUS
 10
-7.3326468121
 20
-2.3586139741
 11
-8.5937890665
 21
-2.3586139741
  0
LINE
  5
511
100
AcDbEntity
  8
RACCORDO
100
AcDbLine
 62
7
  6
CONTINUOUS
 10
-9.7730841559
 20
-2.2730841559
 11
-9.05
 21
-2.2730841559
  0
LINE
  5
512
100
AcDbEntity
  8
ASSI
100
AcDbLine
 62
7
  6
CONTINUOUS
 10
-9.7730841559
 20
-2.2730841559
 11
-9.05
 21
-2.2730841559
  0
LINE
  5
513
100
AcDbEntity
  8
RACCORDO
100
AcDbLine
 62
7
  6
CONTINUOUS
 10
9.05
 20
-2.2730841559
 11
9.7730841559
 21
-2.2730841559
  0
LINE
  5
514
100
AcDbEntity
  8
ASSI
100
AcDbLine
 62
7
  6
CONTINUOUS
 10
9.05
 20
-2.2730841559
 11
9.7730841559
 21
-2.2730841559
  0
LINE
  5
515
100
AcDbEntity
  8
RACCORDO
100
AcDbLine
 62
253
  6
CONTINUOUS
 10
-8.25
 20
-2.3047941508
 11
-7.3485844704
 21
-2.3244618492
  0
LINE
  5
516
100
AcDbEntity
  8
ASSI
100
AcDbLine
 62
253
  6
CONTINUOUS
 10
-8.25
 20
-2.3047941508
 11
-7.3485844704
 21
-2.3244618492
  0
LINE
  5
517
100
AcDbEntity
  8
RACCORDO
100
AcDbLine
 62
253
  6
CONTINUOUS
 10
-8.25
 20
-2.1014171154
 11
-7.4444700657
 21
-2.1189927164
  0
LINE
  5
518
100
AcDbEntity
  8
ASSI
100
AcDbLine
 62
253
  6
CONTINUOUS
 10
-8.25
 20
-2.1014171154
 11
-7.4444700657
 21
-2.1189927164
  0
LINE
  5
519
100
AcDbEntity
  8
0
100
AcDbLine
 62
7
  6
CONTINUOUS
 10
7.706365661
 20
-12.1808008909
 11
7.7255647702
 21
-12.2
  0
LINE
  5
51A
100
AcDbEntity
  8
ASSI
100
AcDbLine
 62
7
  6
CONTINUOUS
 10
7.706365661
 20
-12.1808008909
 11
7.7255647702
 21
-12.2
  0
LINE
  5
51B
100
AcDbEntity
  8
RACCORDO
100
AcDbLine
 62
7
  6
CONTINUOUS
 10
-9.5963460625
 20
19.4481131876
 11
-9.5470151169
 21
19.3
  0
LINE
  5
51C
100
AcDbEntity
  8
ASSI
100
AcDbLine
 62
7
  6
CONTINUOUS
 10
-9.5963460625
 20
19.4481131876
 11
-9.5470151169
 21
19.3
  0
LINE
  5
51D
100
AcDbEntity
  8
SMUSSO
100
AcDbLine
 62
7
  6
CONTINUOUS
 10
-9.6674550649
 20
20.1990396502
 11
-9.6046168312
 21
20.0103716448
  0
LINE
  5
51E
100
AcDbEntity
  8
ASSI
100
AcDbLine
 62
7
  6
CONTINUOUS
 10
-9.6674550649
 20
20.1990396502
 11
-9.6046168312
 21
20.0103716448
  0
LINE
  5
51F
100
AcDbEntity
  8
SMUSSO
100
AcDbLine
 62
7
  6
CONTINUOUS
 10
-8.9673487273
 20
20.9
 11
-8.9045104936
 21
20.7113319946
  0
LINE
  5
520
100
AcDbEntity
  8
ASSI
100
AcDbLine
 62
7
  6
CONTINUOUS
 10
-8.9673487273
 20
20.9
 11
-8.9045104936
 21
20.7113319946
  0
LINE
  5
521
100
AcDbEntity
  8
0
100
AcDbLine
 62
7
  6
CONTINUOUS
 10
-0.85
 20
-3.275
 11
-0.85
 21
-4.3473636265
  0
LINE
  5
522
100
AcDbEntity
  8
ASSI
100
AcDbLine
 62
7
  6
CONTINUOUS
 10
-0.75
 20
6.6
 11
-0.75
 21
6.65
  0
LINE
  5
523
100
AcDbEntity
  8
ASSI
100
AcDbLine
 62
7
  6
CONTINUOUS
 10
-0.75
 20
6.9458040048
 11
-0.75
 21
7.65
  0
LINE
  5
524
100
AcDbEntity
  8
RACCORDO
100
AcDbLine
 62
7
  6
CONTINUOUS
 10
-0.45
 20
-10.4892728991
 11
-0.45
 21
-8.9630903017
  0
LINE
  5
525
100
AcDbEntity
  8
ASSI
100
AcDbLine
 62
7
  6
CONTINUOUS
 10
-0.45
 20
-10.4892728991
 11
-0.45
 21
-8.9630903017
  0
LINE
  5
526
100
AcDbEntity
  8
ASSI
100
AcDbLine
 62
7
  6
CONTINUOUS
 10
-0.25
 20
6.9458040048
 11
-0.25
 21
7.65
  0
LINE
  5
527
100
AcDbEntity
  8
0
100
AcDbLine
 62
7
  6
CONTINUOUS
 10
-0.15
 20
-2.225
 11
-0.15
 21
-4.3473636265
  0
LINE
  5
528
100
AcDbEntity
  8
DRAFT
100
AcDbLine
 62
7
  6
CONTINUOUS
 10
8.3198149423
 20
10.5375255315
 11
8.2822894108
 21
10.5
  0
LINE
  5
529
100
AcDbEntity
  8
ASSI
100
AcDbLine
 62
7
  6
CONTINUOUS
 10
8.3198149423
 20
10.5375255315
 11
8.2822894108
 21
10.5
  0
LINE
  5
52A
100
AcDbEntity
  8
DRAFT
100
AcDbLine
 62
7
  6
CONTINUOUS
 10
8.25
 20
10.0
 11
8.2822894108
 21
10.0322894108
  0
LINE
  5
52B
100
AcDbEntity
  8
ASSI
100
AcDbLine
 62
7
  6
CONTINUOUS
 10
8.25
 20
10.0
 11
8.2822894108
 21
10.0322894108
  0
LINE
  5
52C
100
AcDbEntity
  8
DRAFT
100
AcDbLine
 62
7
  6
CONTINUOUS
 10
9.5
 20
10.815912614
 11
9.2216129175
 21
10.5375255315
  0
LINE
  5
52D
100
AcDbEntity
  8
ASSI
100
AcDbLine
 62
7
  6
CONTINUOUS
 10
9.5
 20
10.815912614
 11
9.2216129175
 21
10.5375255315
  0
LINE
  5
52E
100
AcDbEntity
  8
DRAFT
100
AcDbLine
 62
7
  6
CONTINUOUS
 10
9.8414773842
 20
10.815912614
 11
9.55
 21
10.5244352298
  0
LINE
  5
52F
100
AcDbEntity
  8
ASSI
100
AcDbLine
 62
7
  6
CONTINUOUS
 10
9.8414773842
 20
10.815912614
 11
9.55
 21
10.5244352298
  0
LINE
  5
530
100
AcDbEntity
  8
DRAFT
100
AcDbLine
 62
7
  6
CONTINUOUS
 10
8.7867049498
 20
8.4867049498
 11
8.778184492
 21
8.478184492
  0
LINE
  5
531
100
AcDbEntity
  8
ASSI
100
AcDbLine
 62
7
  6
CONTINUOUS
 10
8.7867049498
 20
8.4867049498
 11
8.778184492
 21
8.478184492
  0
LINE
  5
532
100
AcDbEntity
  8
DRAFT
100
AcDbLine
 62
7
  6
CONTINUOUS
 10
11.0712013363
 20
0.5
 11
9.7730841559
 21
0.2730841559
  0
LINE
  5
533
100
AcDbEntity
  8
ASSI
100
AcDbLine
 62
7
  6
CONTINUOUS
 10
11.0712013363
 20
0.5
 11
9.7730841559
 21
0.2730841559
  0
LINE
  5
534
100
AcDbEntity
  8
DRAFT
100
AcDbLine
 62
7
  6
CONTINUOUS
 10
11.0712013363
 20
-0.5
 11
10.0
 21
-0.5
  0
LINE
  5
535
100
AcDbEntity
  8
ASSI
100
AcDbLine
 62
7
  6
CONTINUOUS
 10
11.0712013363
 20
-0.5
 11
10.0
 21
-0.5
  0
LINE
  5
536
100
AcDbEntity
  8
DRAFT
100
AcDbLine
 62
7
  6
CONTINUOUS
 10
-10.0
 20
-0.5
 11
-11.0712013363
 21
-0.5
  0
LINE
  5
537
100
AcDbEntity
  8
ASSI
100
AcDbLine
 62
7
  6
CONTINUOUS
 10
-10.0
 20
-0.5
 11
-11.0712013363
 21
-0.5
  0
LINE
  5
538
100
AcDbEntity
  8
DRAFT
100
AcDbLine
 62
7
  6
CONTINUOUS
 10
-9.7730841559
 20
0.2730841559
 11
-11.0712013363
 21
0.5
  0
LINE
  5
539
100
AcDbEntity
  8
ASSI
100
AcDbLine
 62
7
  6
CONTINUOUS
 10
-9.7730841559
 20
0.2730841559
 11
-11.0712013363
 21
0.5
  0
LINE
  5
53A
100
AcDbEntity
  8
RACCORDO
100
AcDbLine
 62
7
  6
CONTINUOUS
 10
-8.504012777
 20
6.9313229207
 11
-8.2726898563
 21
6.7
  0
LINE
  5
53B
100
AcDbEntity
  8
ASSI
100
AcDbLine
 62
7
  6
CONTINUOUS
 10
-8.504012777
 20
6.9313229207
 11
-8.2726898563
 21
6.7
  0
LINE
  5
53C
100
AcDbEntity
  8
0
100
AcDbLine
 62
7
  6
CONTINUOUS
 10
7.706365661
 20
-8.9130903017
 11
7.7701479512
 21
-8.9768725919
  0
LINE
  5
53D
100
AcDbEntity
  8
ASSI
100
AcDbLine
 62
7
  6
CONTINUOUS
 10
7.706365661
 20
-8.9130903017
 11
7.7701479512
 21
-8.9768725919
  0
LINE
  5
53E
100
AcDbEntity
  8
RACCORDO
100
AcDbLine
 62
7
  6
CONTINUOUS
 10
8.25
 20
-8.9
 11
8.3268725919
 21
-8.9768725919
  0
LINE
  5
53F
100
AcDbEntity
  8
ASSI
100
AcDbLine
 62
7
  6
CONTINUOUS
 10
8.25
 20
-8.9
 11
8.3268725919
 21
-8.9768725919
  0
LINE
  5
540
100
AcDbEntity
  8
DRAFT
100
AcDbLine
 62
7
  6
CONTINUOUS
 10
-8.778184492
 20
8.478184492
 11
-8.7867049498
 21
8.4867049498
  0
LINE
  5
541
100
AcDbEntity
  8
ASSI
100
AcDbLine
 62
7
  6
CONTINUOUS
 10
-8.778184492
 20
8.478184492
 11
-8.7867049498
 21
8.4867049498
  0
LINE
  5
542
100
AcDbEntity
  8
0
100
AcDbLine
 62
7
  6
CONTINUOUS
 10
2.0
 20
-5.0
 11
-0.0
 21
-2.0
  0
LINE
  5
543
100
AcDbEntity
  8
0
100
AcDbLine
 62
7
  6
CONTINUOUS
 10
-5.5
 20
8.5
 11
-4.9
 21
7.5
  0
LINE
  5
544
100
AcDbEntity
  8
RACCORDO
100
AcDbLine
 62
7
  6
CONTINUOUS
 10
0.45
 20
-10.4892728991
 11
0.45
 21
-8.9630903017
  0
LINE
  5
545
100
AcDbEntity
  8
ASSI
100
AcDbLine
 62
7
  6
CONTINUOUS
 10
0.45
 20
-10.4892728991
 11
0.45
 21
-8.9630903017
  0
LINE
  5
546
100
AcDbEntity
  8
0
100
AcDbLine
 62
7
  6
CONTINUOUS
 10
0.65
 20
-2.975
 11
0.65
 21
-4.3473636265
  0
LINE
  5
547
100
AcDbEntity
  8
ASSI
100
AcDbLine
 62
7
  6
CONTINUOUS
 10
0.75
 20
6.6
 11
0.75
 21
6.65
  0
LINE
  5
548
100
AcDbEntity
  8
ASSI
100
AcDbLine
 62
7
  6
CONTINUOUS
 10
0.75
 20
6.9458040048
 11
0.75
 21
7.65
  0
LINE
  5
549
100
AcDbEntity
  8
ASSI
100
AcDbLine
 62
7
  6
CONTINUOUS
 10
1.25
 20
6.9458040048
 11
1.25
 21
7.65
  0
LINE
  5
54A
100
AcDbEntity
  8
0
100
AcDbLine
 62
7
  6
CONTINUOUS
 10
1.35
 20
-4.025
 11
1.35
 21
-4.3473636265
  0
LINE
  5
54B
100
AcDbEntity
  8
SMUSSO
100
AcDbLine
 62
7
  6
CONTINUOUS
 10
8.9045104936
 20
20.7113319946
 11
8.9673487273
 21
20.9
  0
LINE
  5
54C
100
AcDbEntity
  8
ASSI
100
AcDbLine
 62
7
  6
CONTINUOUS
 10
8.9045104936
 20
20.7113319946
 11
8.9673487273
 21
20.9
  0
LINE
  5
54D
100
AcDbEntity
  8
0
100
AcDbLine
 62
7
  6
CONTINUOUS
 10
4.99
 20
7.65
 11
5.5
 21
8.5
  0
LINE
  5
54E
100
AcDbEntity
  8
0
100
AcDbLine
 62
7
  6
CONTINUOUS
 10
-0.0
 20
-2.0
 11
-2.0
 21
-5.0
  0
LINE
  5
54F
100
AcDbEntity
  8
RACCORDO
100
AcDbLine
 62
7
  6
CONTINUOUS
 10
-8.3268725919
 20
-8.9768725919
 11
-8.25
 21
-8.9
  0
LINE
  5
550
100
AcDbEntity
  8
ASSI
100
AcDbLine
 62
7
  6
CONTINUOUS
 10
-8.3268725919
 20
-8.9768725919
 11
-8.25
 21
-8.9
  0
LINE
  5
551
100
AcDbEntity
  8
0
100
AcDbLine
 62
7
  6
CONTINUOUS
 10
-7.706365661
 20
-8.9130903017
 11
-7.7701479512
 21
-8.9768725919
  0
LINE
  5
552
100
AcDbEntity
  8
ASSI
100
AcDbLine
 62
7
  6
CONTINUOUS
 10
-7.706365661
 20
-8.9130903017
 11
-7.7701479512
 21
-8.9768725919
  0
LINE
  5
553
100
AcDbEntity
  8
RACCORDO
100
AcDbLine
 62
7
  6
CONTINUOUS
 10
8.504012777
 20
6.9313229207
 11
8.2726898563
 21
6.7
  0
LINE
  5
554
100
AcDbEntity
  8
ASSI
100
AcDbLine
 62
7
  6
CONTINUOUS
 10
8.504012777
 20
6.9313229207
 11
8.2726898563
 21
6.7
  0
LINE
  5
555
100
AcDbEntity
  8
DRAFT
100
AcDbLine
 62
7
  6
CONTINUOUS
 10
-9.7730841559
 20
-0.2730841559
 11
-11.0712013363
 21
-0.5
  0
LINE
  5
556
100
AcDbEntity
  8
ASSI
100
AcDbLine
 62
7
  6
CONTINUOUS
 10
-9.7730841559
 20
-0.2730841559
 11
-11.0712013363
 21
-0.5
  0
LINE
  5
557
100
AcDbEntity
  8
DRAFT
100
AcDbLine
 62
7
  6
CONTINUOUS
 10
11.0712013363
 20
0.5
 11
10.0
 21
0.5
  0
LINE
  5
558
100
AcDbEntity
  8
ASSI
100
AcDbLine
 62
7
  6
CONTINUOUS
 10
11.0712013363
 20
0.5
 11
10.0
 21
0.5
  0
LINE
  5
559
100
AcDbEntity
  8
DRAFT
100
AcDbLine
 62
7
  6
CONTINUOUS
 10
-10.0
 20
0.5
 11
-11.0712013363
 21
0.5
  0
LINE
  5
55A
100
AcDbEntity
  8
ASSI
100
AcDbLine
 62
7
  6
CONTINUOUS
 10
-10.0
 20
0.5
 11
-11.0712013363
 21
0.5
  0
LINE
  5
55B
100
AcDbEntity
  8
DRAFT
100
AcDbLine
 62
7
  6
CONTINUOUS
 10
11.0712013363
 20
-0.5
 11
9.7730841559
 21
-0.2730841559
  0
LINE
  5
55C
100
AcDbEntity
  8
ASSI
100
AcDbLine
 62
7
  6
CONTINUOUS
 10
11.0712013363
 20
-0.5
 11
9.7730841559
 21
-0.2730841559
  0
LINE
  5
55D
100
AcDbEntity
  8
DRAFT
100
AcDbLine
 62
7
  6
CONTINUOUS
 10
-9.8414773842
 20
10.815912614
 11
-9.55
 21
10.5244352298
  0
LINE
  5
55E
100
AcDbEntity
  8
ASSI
100
AcDbLine
 62
7
  6
CONTINUOUS
 10
-9.8414773842
 20
10.815912614
 11
-9.55
 21
10.5244352298
  0
LINE
  5
55F
100
AcDbEntity
  8
DRAFT
100
AcDbLine
 62
7
  6
CONTINUOUS
 10
-9.2216129175
 20
10.5375255315
 11
-9.5
 21
10.815912614
  0
LINE
  5
560
100
AcDbEntity
  8
ASSI
100
AcDbLine
 62
7
  6
CONTINUOUS
 10
-9.2216129175
 20
10.5375255315
 11
-9.5
 21
10.815912614
  0
LINE
  5
561
100
AcDbEntity
  8
DRAFT
100
AcDbLine
 62
7
  6
CONTINUOUS
 10
-8.2822894108
 20
10.0322894108
 11
-8.25
 21
10.0
  0
LINE
  5
562
100
AcDbEntity
  8
ASSI
100
AcDbLine
 62
7
  6
CONTINUOUS
 10
-8.2822894108
 20
10.0322894108
 11
-8.25
 21
10.0
  0
LINE
  5
563
100
AcDbEntity
  8
DRAFT
100
AcDbLine
 62
7
  6
CONTINUOUS
 10
-8.3198149423
 20
10.5375255315
 11
-8.2822894108
 21
10.5
  0
LINE
  5
564
100
AcDbEntity
  8
ASSI
100
AcDbLine
 62
7
  6
CONTINUOUS
 10
-8.3198149423
 20
10.5375255315
 11
-8.2822894108
 21
10.5
  0
LINE
  5
565
100
AcDbEntity
  8
SMUSSO
100
AcDbLine
 62
7
  6
CONTINUOUS
 10
8.9673487273
 20
-20.9
 11
8.8119986495
 21
-20.4335707644
  0
LINE
  5
566
100
AcDbEntity
  8
ASSI
100
AcDbLine
 62
7
  6
CONTINUOUS
 10
8.9673487273
 20
-20.9
 11
8.8119986495
 21
-20.4335707644
  0
LINE
  5
567
100
AcDbEntity
  8
DRAFT
100
AcDbLine
 62
7
  6
CONTINUOUS
 10
3.0872686779
 20
21.0
 11
3.0722163905
 21
21.6277836095
  0
LINE
  5
568
100
AcDbEntity
  8
ASSI
100
AcDbLine
 62
7
  6
CONTINUOUS
 10
3.0872686779
 20
21.0
 11
3.0722163905
 21
21.6277836095
  0
LINE
  5
569
100
AcDbEntity
  8
ASSI
100
AcDbLine
 62
7
  6
CONTINUOUS
 10
2.25
 20
6.9458040048
 11
2.25
 21
7.65
  0
LINE
  5
56A
100
AcDbEntity
  8
ASSI
100
AcDbLine
 62
7
  6
CONTINUOUS
 10
2.75
 20
6.9458040048
 11
2.75
 21
7.65
  0
LINE
  5
56B
100
AcDbEntity
  8
DRAFT
100
AcDbLine
 62
7
  6
CONTINUOUS
 10
3.0
 20
-22.3412731322
 11
3.0
 21
-21.7
  0
LINE
  5
56C
100
AcDbEntity
  8
ASSI
100
AcDbLine
 62
7
  6
CONTINUOUS
 10
3.0
 20
-22.3412731322
 11
3.0
 21
-21.7
  0
LINE
  5
56D
100
AcDbEntity
  8
DRAFT
100
AcDbLine
 62
7
  6
CONTINUOUS
 10
3.0
 20
21.7
 11
3.0
 21
22.3412731322
  0
LINE
  5
56E
100
AcDbEntity
  8
ASSI
100
AcDbLine
 62
7
  6
CONTINUOUS
 10
3.0
 20
21.7
 11
3.0
 21
22.3412731322
  0
LINE
  5
56F
100
AcDbEntity
  8
RACCORDO
100
AcDbLine
 62
7
  6
CONTINUOUS
 10
3.0872686779
 20
-21.2626932437
 11
3.0872686779
 21
-21.0
  0
LINE
  5
570
100
AcDbEntity
  8
ASSI
100
AcDbLine
 62
7
  6
CONTINUOUS
 10
3.0872686779
 20
-21.2626932437
 11
3.0872686779
 21
-21.0
  0
LINE
  5
571
100
AcDbEntity
  8
RACCORDO
100
AcDbLine
 62
7
  6
CONTINUOUS
 10
3.0872686779
 20
21.0
 11
3.0872686779
 21
21.2626932437
  0
LINE
  5
572
100
AcDbEntity
  8
ASSI
100
AcDbLine
 62
7
  6
CONTINUOUS
 10
3.0872686779
 20
21.0
 11
3.0872686779
 21
21.2626932437
  0
LINE
  5
573
100
AcDbEntity
  8
RACCORDO
100
AcDbLine
 62
7
  6
CONTINUOUS
 10
3.4
 20
15.6
 11
3.4
 21
15.5
  0
LINE
  5
574
100
AcDbEntity
  8
DRAFT
100
AcDbLine
 62
7
  6
CONTINUOUS
 10
3.5
 20
23.7941821702
 11
3.5
 21
22.3412731322
  0
LINE
  5
575
100
AcDbEntity
  8
ASSI
100
AcDbLine
 62
7
  6
CONTINUOUS
 10
3.5
 20
23.7941821702
 11
3.5
 21
22.3412731322
  0
LINE
  5
576
100
AcDbEntity
  8
DRAFT
100
AcDbLine
 62
7
  6
CONTINUOUS
 10
3.5
 20
-23.7941821702
 11
3.5
 21
-22.3412731322
  0
LINE
  5
577
100
AcDbEntity
  8
ASSI
100
AcDbLine
 62
7
  6
CONTINUOUS
 10
3.5
 20
-23.7941821702
 11
3.5
 21
-22.3412731322
  0
LINE
  5
578
100
AcDbEntity
  8
DRAFT
100
AcDbLine
 62
7
  6
CONTINUOUS
 10
3.503491013
 20
15.5904004454
 11
3.503491013
 21
15.5
  0
LINE
  5
579
100
AcDbEntity
  8
ASSI
100
AcDbLine
 62
7
  6
CONTINUOUS
 10
3.503491013
 20
15.5904004454
 11
3.503491013
 21
15.5
  0
LINE
  5
57A
100
AcDbEntity
  8
DRAFT
100
AcDbLine
 62
7
  6
CONTINUOUS
 10
3.5226915844
 20
15.6
 11
3.5226915844
 21
16.1886550719
  0
LINE
  5
57B
100
AcDbEntity
  8
ASSI
100
AcDbLine
 62
7
  6
CONTINUOUS
 10
3.5226915844
 20
15.6
 11
3.5226915844
 21
16.1886550719
  0
LINE
  5
57C
100
AcDbEntity
  8
RACCORDO
100
AcDbLine
 62
7
  6
CONTINUOUS
 10
3.5453831688
 20
15.5
 11
3.5453831688
 21
16.2
  0
LINE
  5
57D
100
AcDbEntity
  8
ASSI
100
AcDbLine
 62
7
  6
CONTINUOUS
 10
3.5453831688
 20
15.5
 11
3.5453831688
 21
16.2
  0
LINE
  5
57E
100
AcDbEntity
  8
ASSI
100
AcDbLine
 62
7
  6
CONTINUOUS
 10
3.5576357838
 20
-22.2836373484
 11
3.5576357838
 21
-23.7453355738
  0
LINE
  5
57F
100
AcDbEntity
  8
ASSI
100
AcDbLine
 62
7
  6
CONTINUOUS
 10
3.5576357838
 20
22.2836373484
 11
3.5576357838
 21
23.7453355738
  0
LINE
  5
580
100
AcDbEntity
  8
ASSI
100
AcDbLine
 62
7
  6
CONTINUOUS
 10
3.65
 20
8.2
 11
3.65
 21
7.5211646096
  0
LINE
  5
581
100
AcDbEntity
  8
DRAFT
100
AcDbLine
 62
7
  6
CONTINUOUS
 10
3.0722163905
 20
-21.6277836095
 11
3.0872686779
 21
-21.0
  0
LINE
  5
582
100
AcDbEntity
  8
ASSI
100
AcDbLine
 62
7
  6
CONTINUOUS
 10
3.0722163905
 20
-21.6277836095
 11
3.0872686779
 21
-21.0
  0
LINE
  5
583
100
AcDbEntity
  8
SMUSSO
100
AcDbLine
 62
7
  6
CONTINUOUS
 10
9.6046168312
 20
20.0103716448
 11
9.6674550649
 21
20.1990396502
  0
LINE
  5
584
100
AcDbEntity
  8
ASSI
100
AcDbLine
 62
7
  6
CONTINUOUS
 10
9.6046168312
 20
20.0103716448
 11
9.6674550649
 21
20.1990396502
  0
LINE
  5
585
100
AcDbEntity
  8
RACCORDO
100
AcDbLine
 62
7
  6
CONTINUOUS
 10
9.5963460625
 20
19.4481131876
 11
9.5470151169
 21
19.3
  0
LINE
  5
586
100
AcDbEntity
  8
ASSI
100
AcDbLine
 62
7
  6
CONTINUOUS
 10
9.5963460625
 20
19.4481131876
 11
9.5470151169
 21
19.3
  0
LINE
  5
587
100
AcDbEntity
  8
0
100
AcDbLine
 62
7
  6
CONTINUOUS
 10
-7.706365661
 20
-12.1808008909
 11
-7.7255647702
 21
-12.2
  0
LINE
  5
588
100
AcDbEntity
  8
ASSI
100
AcDbLine
 62
7
  6
CONTINUOUS
 10
-7.706365661
 20
-12.1808008909
 11
-7.7255647702
 21
-12.2
  0
LINE
  5
589
100
AcDbEntity
  8
RACCORDO
100
AcDbLine
 62
7
  6
CONTINUOUS
 10
-8.75
 20
-13.6
 11
-8.8608443418
 21
-13.7108443418
  0
LINE
  5
58A
100
AcDbEntity
  8
ASSI
100
AcDbLine
 62
7
  6
CONTINUOUS
 10
-8.75
 20
-13.6
 11
-8.8608443418
 21
-13.7108443418
  0
LINE
  5
58B
100
AcDbEntity
  8
RACCORDO
100
AcDbLine
 62
253
  6
CONTINUOUS
 10
-7.5
 20
2.1177811265
 11
-8.25
 21
2.1014171154
  0
LINE
  5
58C
100
AcDbEntity
  8
ASSI
100
AcDbLine
 62
253
  6
CONTINUOUS
 10
-7.5
 20
2.1177811265
 11
-8.25
 21
2.1014171154
  0
LINE
  5
58D
100
AcDbEntity
  8
RACCORDO
100
AcDbLine
 62
253
  6
CONTINUOUS
 10
-7.5
 20
2.3211581619
 11
-8.25
 21
2.3047941508
  0
LINE
  5
58E
100
AcDbEntity
  8
ASSI
100
AcDbLine
 62
253
  6
CONTINUOUS
 10
-7.5
 20
2.3211581619
 11
-8.25
 21
2.3047941508
  0
LINE
  5
58F
100
AcDbEntity
  8
RACCORDO
100
AcDbLine
 62
7
  6
CONTINUOUS
 10
-9.7730841559
 20
2.2730841559
 11
-9.05
 21
2.2730841559
  0
LINE
  5
590
100
AcDbEntity
  8
ASSI
100
AcDbLine
 62
7
  6
CONTINUOUS
 10
-9.7730841559
 20
2.2730841559
 11
-9.05
 21
2.2730841559
  0
LINE
  5
591
100
AcDbEntity
  8
RACCORDO
100
AcDbLine
 62
7
  6
CONTINUOUS
 10
9.05
 20
2.2730841559
 11
9.7730841559
 21
2.2730841559
  0
LINE
  5
592
100
AcDbEntity
  8
ASSI
100
AcDbLine
 62
7
  6
CONTINUOUS
 10
9.05
 20
2.2730841559
 11
9.7730841559
 21
2.2730841559
  0
LINE
  5
593
100
AcDbEntity
  8
RACCORDO
100
AcDbLine
 62
7
  6
CONTINUOUS
 10
-8.1173516096
 20
2.4057426494
 11
-7.5
 21
2.4057426494
  0
LINE
  5
594
100
AcDbEntity
  8
ASSI
100
AcDbLine
 62
7
  6
CONTINUOUS
 10
-8.1173516096
 20
2.4057426494
 11
-7.5
 21
2.4057426494
  0
LINE
  5
595
100
AcDbEntity
  8
RACCORDO
100
AcDbLine
 62
7
  6
CONTINUOUS
 10
7.5
 20
2.4057426494
 11
8.1173516096
 21
2.4057426494
  0
LINE
  5
596
100
AcDbEntity
  8
ASSI
100
AcDbLine
 62
7
  6
CONTINUOUS
 10
7.5
 20
2.4057426494
 11
8.1173516096
 21
2.4057426494
  0
LINE
  5
597
100
AcDbEntity
  8
DRAFT
100
AcDbLine
 62
7
  6
CONTINUOUS
 10
10.0
 20
2.5
 11
8.3355233043
 21
2.5
  0
LINE
  5
598
100
AcDbEntity
  8
ASSI
100
AcDbLine
 62
7
  6
CONTINUOUS
 10
10.0
 20
2.5
 11
8.3355233043
 21
2.5
  0
LINE
  5
599
100
AcDbEntity
  8
DRAFT
100
AcDbLine
 62
7
  6
CONTINUOUS
 10
-8.3355233043
 20
2.5
 11
-10.0
 21
2.5
  0
LINE
  5
59A
100
AcDbEntity
  8
ASSI
100
AcDbLine
 62
7
  6
CONTINUOUS
 10
-8.3355233043
 20
2.5
 11
-10.0
 21
2.5
  0
LINE
  5
59B
100
AcDbEntity
  8
DRAFT
100
AcDbLine
 62
7
  6
CONTINUOUS
 10
11.0712013363
 20
3.2
 11
8.3355233043
 21
3.2
  0
LINE
  5
59C
100
AcDbEntity
  8
ASSI
100
AcDbLine
 62
7
  6
CONTINUOUS
 10
11.0712013363
 20
3.2
 11
8.3355233043
 21
3.2
  0
LINE
  5
59D
100
AcDbEntity
  8
DRAFT
100
AcDbLine
 62
7
  6
CONTINUOUS
 10
-8.3355233043
 20
3.2
 11
-11.0712013363
 21
3.2
  0
LINE
  5
59E
100
AcDbEntity
  8
ASSI
100
AcDbLine
 62
7
  6
CONTINUOUS
 10
-8.3355233043
 20
3.2
 11
-11.0712013363
 21
3.2
  0
LINE
  5
59F
100
AcDbEntity
  8
DRAFT
100
AcDbLine
 62
7
  6
CONTINUOUS
 10
9.5
 20
3.5508468051
 11
8.5109333469
 21
3.5508468051
  0
LINE
  5
5A0
100
AcDbEntity
  8
ASSI
100
AcDbLine
 62
7
  6
CONTINUOUS
 10
9.5
 20
3.5508468051
 11
8.5109333469
 21
3.5508468051
  0
LINE
  5
5A1
100
AcDbEntity
  8
DRAFT
100
AcDbLine
 62
7
  6
CONTINUOUS
 10
-8.5109333469
 20
3.5508468051
 11
-9.5
 21
3.5508468051
  0
LINE
  5
5A2
100
AcDbEntity
  8
ASSI
100
AcDbLine
 62
7
  6
CONTINUOUS
 10
-8.5109333469
 20
3.5508468051
 11
-9.5
 21
3.5508468051
  0
LINE
  5
5A3
100
AcDbEntity
  8
DRAFT
100
AcDbLine
 62
7
  6
CONTINUOUS
 10
10.8085226158
 20
3.7253974543
 11
9.5872686779
 21
3.7253974543
  0
LINE
  5
5A4
100
AcDbEntity
  8
ASSI
100
AcDbLine
 62
7
  6
CONTINUOUS
 10
10.8085226158
 20
3.7253974543
 11
9.5872686779
 21
3.7253974543
  0
LINE
  5
5A5
100
AcDbEntity
  8
DRAFT
100
AcDbLine
 62
7
  6
CONTINUOUS
 10
-9.5872686779
 20
3.7253974543
 11
-10.8085226158
 21
3.7253974543
  0
LINE
  5
5A6
100
AcDbEntity
  8
ASSI
100
AcDbLine
 62
7
  6
CONTINUOUS
 10
-9.5872686779
 20
3.7253974543
 11
-10.8085226158
 21
3.7253974543
  0
LINE
  5
5A7
100
AcDbEntity
  8
RACCORDO
100
AcDbLine
 62
253
  6
CONTINUOUS
 10
-9.5
 20
3.8687075408
 11
-8.5109333469
 21
3.8687075408
  0
LINE
  5
5A8
100
AcDbEntity
  8
ASSI
100
AcDbLine
 62
253
  6
CONTINUOUS
 10
-9.5
 20
3.8687075408
 11
-8.5109333469
 21
3.8687075408
  0
LINE
  5
5A9
100
AcDbEntity
  8
RACCORDO
100
AcDbLine
 62
253
  6
CONTINUOUS
 10
8.5109333469
 20
3.8687075408
 11
9.5
 21
3.8687075408
  0
LINE
  5
5AA
100
AcDbEntity
  8
ASSI
100
AcDbLine
 62
253
  6
CONTINUOUS
 10
8.5109333469
 20
3.8687075408
 11
9.5
 21
3.8687075408
  0
LINE
  5
5AB
100
AcDbEntity
  8
RACCORDO
100
AcDbLine
 62
253
  6
CONTINUOUS
 10
8.25
 20
2.1014171154
 11
7.5
 21
2.1177811265
  0
LINE
  5
5AC
100
AcDbEntity
  8
ASSI
100
AcDbLine
 62
253
  6
CONTINUOUS
 10
8.25
 20
2.1014171154
 11
7.5
 21
2.1177811265
  0
LINE
  5
5AD
100
AcDbEntity
  8
RACCORDO
100
AcDbLine
 62
253
  6
CONTINUOUS
 10
8.25
 20
2.3047941508
 11
7.5
 21
2.3211581619
  0
LINE
  5
5AE
100
AcDbEntity
  8
ASSI
100
AcDbLine
 62
253
  6
CONTINUOUS
 10
8.25
 20
2.3047941508
 11
7.5
 21
2.3211581619
  0
LINE
  5
5AF
100
AcDbEntity
  8
DRAFT
100
AcDbLine
 62
7
  6
CONTINUOUS
 10
-10.8085226158
 20
15.2085226158
 11
-11.1
 21
15.5
  0
LINE
  5
5B0
100
AcDbEntity
  8
ASSI
100
AcDbLine
 62
7
  6
CONTINUOUS
 10
-10.8085226158
 20
15.2085226158
 11
-11.1
 21
15.5
  0
LINE
  5
5B1
100
AcDbEntity
  8
DRAFT
100
AcDbLine
 62
7
  6
CONTINUOUS
 10
-9.2216129175
 20
13.9130903017
 11
-9.5
 21
14.1914773842
  0
LINE
  5
5B2
100
AcDbEntity
  8
ASSI
100
AcDbLine
 62
7
  6
CONTINUOUS
 10
-9.2216129175
 20
13.9130903017
 11
-9.5
 21
14.1914773842
  0
LINE
  5
5B3
100
AcDbEntity
  8
DRAFT
100
AcDbLine
 62
7
  6
CONTINUOUS
 10
7.7787986637
 20
-10.2
 11
7.9542087063
 21
-10.5508468051
  0
LINE
  5
5B4
100
AcDbEntity
  8
ASSI
100
AcDbLine
 62
7
  6
CONTINUOUS
 10
7.7787986637
 20
-10.2
 11
7.9542087063
 21
-10.5508468051
  0
LINE
  5
5B5
100
AcDbEntity
  8
DRAFT
100
AcDbLine
 62
7
  6
CONTINUOUS
 10
9.5872686779
 20
-10.7253974543
 11
9.5
 21
-10.5508468051
  0
LINE
  5
5B6
100
AcDbEntity
  8
ASSI
100
AcDbLine
 62
7
  6
CONTINUOUS
 10
9.5872686779
 20
-10.7253974543
 11
9.5
 21
-10.5508468051
  0
LINE
  5
5B7
100
AcDbEntity
  8
SMUSSO
100
AcDbLine
 62
7
  6
CONTINUOUS
 10
9.6674550649
 20
-20.1990396502
 11
9.5121049871
 21
-19.7326104146
  0
LINE
  5
5B8
100
AcDbEntity
  8
ASSI
100
AcDbLine
 62
7
  6
CONTINUOUS
 10
9.6674550649
 20
-20.1990396502
 11
9.5121049871
 21
-19.7326104146
  0
LINE
  5
5B9
100
AcDbEntity
  8
RACCORDO
100
AcDbLine
 62
253
  6
CONTINUOUS
 10
4.2026066368
 20
20.0
 11
4.2026066368
 21
17.7956556053
  0
LINE
  5
5BA
100
AcDbEntity
  8
ASSI
100
AcDbLine
 62
253
  6
CONTINUOUS
 10
4.2026066368
 20
20.0
 11
4.2026066368
 21
17.7956556053
  0
LINE
  5
5BB
100
AcDbEntity
  8
ASSI
100
AcDbLine
 62
7
  6
CONTINUOUS
 10
4.3557656098
 20
-22.2836474789
 11
4.3557656098
 21
-23.7455819953
  0
LINE
  5
5BC
100
AcDbEntity
  8
ASSI
100
AcDbLine
 62
7
  6
CONTINUOUS
 10
4.3557656098
 20
22.2836474789
 11
4.3557656098
 21
23.7455819953
  0
LINE
  5
5BD
100
AcDbEntity
  8
DRAFT
100
AcDbLine
 62
7
  6
CONTINUOUS
 10
4.4
 20
-23.8
 11
4.4
 21
-22.35
  0
LINE
  5
5BE
100
AcDbEntity
  8
ASSI
100
AcDbLine
 62
7
  6
CONTINUOUS
 10
4.4
 20
-23.8
 11
4.4
 21
-22.35
  0
LINE
  5
5BF
100
AcDbEntity
  8
DRAFT
100
AcDbLine
 62
7
  6
CONTINUOUS
 10
4.4
 20
22.35
 11
4.4
 21
23.8
  0
LINE
  5
5C0
100
AcDbEntity
  8
ASSI
100
AcDbLine
 62
7
  6
CONTINUOUS
 10
4.4
 20
22.35
 11
4.4
 21
23.8
  0
LINE
  5
5C1
100
AcDbEntity
  8
RACCORDO
100
AcDbLine
 62
253
  6
CONTINUOUS
 10
4.5025952137
 20
19.9974047863
 11
4.5025952137
 21
17.7956556053
  0
LINE
  5
5C2
100
AcDbEntity
  8
ASSI
100
AcDbLine
 62
7
  6
CONTINUOUS
 10
4.5025952137
 20
19.9974047863
 11
4.5025952137
 21
17.7956556053
  0
LINE
  5
5C3
100
AcDbEntity
  8
RACCORDO
100
AcDbLine
 62
7
  6
CONTINUOUS
 10
4.531416724
 20
19.947427955
 11
4.531416724
 21
19.968583276
  0
LINE
  5
5C4
100
AcDbEntity
  8
ASSI
100
AcDbLine
 62
7
  6
CONTINUOUS
 10
4.531416724
 20
19.947427955
 11
4.531416724
 21
19.968583276
  0
LINE
  5
5C5
100
AcDbEntity
  8
RACCORDO
100
AcDbLine
 62
7
  6
CONTINUOUS
 10
4.5602153878
 20
19.3
 11
4.5602153878
 21
17.5397731892
  0
LINE
  5
5C6
100
AcDbEntity
  8
ASSI
100
AcDbLine
 62
7
  6
CONTINUOUS
 10
4.5602153878
 20
19.3
 11
4.5602153878
 21
17.5397731892
  0
LINE
  5
5C7
100
AcDbEntity
  8
ASSI
100
AcDbLine
 62
7
  6
CONTINUOUS
 10
4.65
 20
8.2
 11
4.65
 21
7.5211646096
  0
LINE
  5
5C8
100
AcDbEntity
  8
RACCORDO
100
AcDbLine
 62
7
  6
CONTINUOUS
 10
4.9930312545
 20
15.5
 11
4.9930312545
 21
16.8315125162
  0
LINE
  5
5C9
100
AcDbEntity
  8
ASSI
100
AcDbLine
 62
7
  6
CONTINUOUS
 10
4.9930312545
 20
15.5
 11
4.9930312545
 21
16.8315125162
  0
LINE
  5
5CA
100
AcDbEntity
  8
DRAFT
100
AcDbLine
 62
7
  6
CONTINUOUS
 10
5.0
 20
16.8245437707
 11
5.0
 21
15.5
  0
LINE
  5
5CB
100
AcDbEntity
  8
ASSI
100
AcDbLine
 62
7
  6
CONTINUOUS
 10
5.0
 20
16.8245437707
 11
5.0
 21
15.5
  0
LINE
  5
5CC
100
AcDbEntity
  8
ASSI
100
AcDbLine
 62
7
  6
CONTINUOUS
 10
5.25
 20
7.1710256145
 11
5.25
 21
7.65
  0
LINE
  5
5CD
100
AcDbEntity
  8
DRAFT
100
AcDbLine
 62
7
  6
CONTINUOUS
 10
5.4746920834
 20
11.4825462644
 11
5.4746920834
 21
10.9930185058
  0
LINE
  5
5CE
100
AcDbEntity
  8
ASSI
100
AcDbLine
 62
7
  6
CONTINUOUS
 10
5.4746920834
 20
11.4825462644
 11
5.4746920834
 21
10.9930185058
  0
LINE
  5
5CF
100
AcDbEntity
  8
DRAFT
100
AcDbLine
 62
7
  6
CONTINUOUS
 10
5.492145819
 20
11.5
 11
5.4921463174
 21
13.8677107886
  0
LINE
  5
5D0
100
AcDbEntity
  8
ASSI
100
AcDbLine
 62
7
  6
CONTINUOUS
 10
5.492145819
 20
11.5
 11
5.4921463174
 21
13.8677107886
  0
LINE
  5
5D1
100
AcDbEntity
  8
DRAFT
100
AcDbLine
 62
7
  6
CONTINUOUS
 10
5.5
 20
13.8755647702
 11
5.5
 21
10.9677105892
  0
LINE
  5
5D2
100
AcDbEntity
  8
ASSI
100
AcDbLine
 62
7
  6
CONTINUOUS
 10
5.5
 20
13.8755647702
 11
5.5
 21
10.9677105892
  0
LINE
  5
5D3
100
AcDbEntity
  8
RACCORDO
100
AcDbLine
 62
253
  6
CONTINUOUS
 10
6.5570215015
 20
19.9267239376
 11
6.4598569743
 21
18.5630493339
  0
LINE
  5
5D4
100
AcDbEntity
  8
ASSI
100
AcDbLine
 62
253
  6
CONTINUOUS
 10
6.5570215015
 20
19.9267239376
 11
6.4598569743
 21
18.5630493339
  0
LINE
  5
5D5
100
AcDbEntity
  8
RACCORDO
100
AcDbLine
 62
7
  6
CONTINUOUS
 10
6.4762991386
 20
19.4481131876
 11
6.4598569743
 21
19.3
  0
LINE
  5
5D6
100
AcDbEntity
  8
ASSI
100
AcDbLine
 62
7
  6
CONTINUOUS
 10
6.4762991386
 20
19.4481131876
 11
6.4598569743
 21
19.3
  0
LINE
  5
5D7
100
AcDbEntity
  8
RACCORDO
100
AcDbLine
 62
7
  6
CONTINUOUS
 10
9.4
 20
6.7340347844
 11
9.4966110309
 21
6.9313229207
  0
LINE
  5
5D8
100
AcDbEntity
  8
ASSI
100
AcDbLine
 62
7
  6
CONTINUOUS
 10
9.4
 20
6.7340347844
 11
9.4966110309
 21
6.9313229207
  0
LINE
  5
5D9
100
AcDbEntity
  8
RACCORDO
100
AcDbLine
 62
7
  6
CONTINUOUS
 10
-6.555294768
 20
-20.0829433217
 11
-6.4482213147
 21
-19.9223308767
  0
LINE
  5
5DA
100
AcDbEntity
  8
ASSI
100
AcDbLine
 62
7
  6
CONTINUOUS
 10
-6.555294768
 20
-20.0829433217
 11
-6.4482213147
 21
-19.9223308767
  0
LINE
  5
5DB
100
AcDbEntity
  8
DRAFT
100
AcDbLine
 62
7
  6
CONTINUOUS
 10
-8.778184492
 20
-15.378184492
 11
-8.7867049498
 21
-15.3867049498
  0
LINE
  5
5DC
100
AcDbEntity
  8
ASSI
100
AcDbLine
 62
7
  6
CONTINUOUS
 10
-8.778184492
 20
-15.378184492
 11
-8.7867049498
 21
-15.3867049498
  0
LINE
  5
5DD
100
AcDbEntity
  8
DRAFT
100
AcDbLine
 62
7
  6
CONTINUOUS
 10
10.0
 20
2.5
 11
9.7730841559
 21
2.2730841559
  0
LINE
  5
5DE
100
AcDbEntity
  8
ASSI
100
AcDbLine
 62
7
  6
CONTINUOUS
 10
10.0
 20
2.5
 11
9.7730841559
 21
2.2730841559
  0
LINE
  5
5DF
100
AcDbEntity
  8
DRAFT
100
AcDbLine
 62
7
  6
CONTINUOUS
 10
-9.8414773842
 20
-17.6914773842
 11
-9.55
 21
-17.4
  0
LINE
  5
5E0
100
AcDbEntity
  8
ASSI
100
AcDbLine
 62
7
  6
CONTINUOUS
 10
-9.8414773842
 20
-17.6914773842
 11
-9.55
 21
-17.4
  0
LINE
  5
5E1
100
AcDbEntity
  8
DRAFT
100
AcDbLine
 62
7
  6
CONTINUOUS
 10
-10.8085226158
 20
-18.7085226158
 11
-11.1
 21
-19.0
  0
LINE
  5
5E2
100
AcDbEntity
  8
ASSI
100
AcDbLine
 62
7
  6
CONTINUOUS
 10
-10.8085226158
 20
-18.7085226158
 11
-11.1
 21
-19.0
  0
LINE
  5
5E3
100
AcDbEntity
  8
RACCORDO
100
AcDbLine
 62
253
  6
CONTINUOUS
 10
-9.4966110309
 20
4.6686770793
 11
-8.504012777
 21
4.6686770793
  0
LINE
  5
5E4
100
AcDbEntity
  8
ASSI
100
AcDbLine
 62
253
  6
CONTINUOUS
 10
-9.4966110309
 20
4.6686770793
 11
-8.504012777
 21
4.6686770793
  0
LINE
  5
5E5
100
AcDbEntity
  8
RACCORDO
100
AcDbLine
 62
253
  6
CONTINUOUS
 10
8.504012777
 20
4.6686770793
 11
9.4966110309
 21
4.6686770793
  0
LINE
  5
5E6
100
AcDbEntity
  8
ASSI
100
AcDbLine
 62
253
  6
CONTINUOUS
 10
8.504012777
 20
4.6686770793
 11
9.4966110309
 21
4.6686770793
  0
LINE
  5
5E7
100
AcDbEntity
  8
DRAFT
100
AcDbLine
 62
7
  6
CONTINUOUS
 10
9.4
 20
4.9
 11
8.2726898563
 21
4.9
  0
LINE
  5
5E8
100
AcDbEntity
  8
ASSI
100
AcDbLine
 62
7
  6
CONTINUOUS
 10
9.4
 20
4.9
 11
8.2726898563
 21
4.9
  0
LINE
  5
5E9
100
AcDbEntity
  8
DRAFT
100
AcDbLine
 62
7
  6
CONTINUOUS
 10
-8.2726898563
 20
4.9
 11
-9.4
 21
4.9
  0
LINE
  5
5EA
100
AcDbEntity
  8
ASSI
100
AcDbLine
 62
7
  6
CONTINUOUS
 10
-8.2726898563
 20
4.9
 11
-9.4
 21
4.9
  0
LINE
  5
5EB
100
AcDbEntity
  8
ASSI
100
AcDbLine
 62
7
  6
CONTINUOUS
 10
-9.25
 20
5.0
 11
9.25
 21
5.0
  0
LINE
  5
5EC
100
AcDbEntity
  8
DRAFT
100
AcDbLine
 62
7
  6
CONTINUOUS
 10
-8.3198149423
 20
13.9130903017
 11
-8.2569814942
 21
13.8502568536
  0
LINE
  5
5ED
100
AcDbEntity
  8
ASSI
100
AcDbLine
 62
7
  6
CONTINUOUS
 10
-8.3198149423
 20
13.9130903017
 11
-8.2569814942
 21
13.8502568536
  0
LINE
  5
5EE
100
AcDbEntity
  8
DRAFT
100
AcDbLine
 62
7
  6
CONTINUOUS
 10
10.0
 20
-2.5
 11
9.7730841559
 21
-2.2730841559
  0
LINE
  5
5EF
100
AcDbEntity
  8
ASSI
100
AcDbLine
 62
7
  6
CONTINUOUS
 10
10.0
 20
-2.5
 11
9.7730841559
 21
-2.2730841559
  0
LINE
  5
5F0
100
AcDbEntity
  8
RACCORDO
100
AcDbLine
 62
7
  6
CONTINUOUS
 10
-6.555294768
 20
20.0829433217
 11
-6.4790558127
 21
19.968583276
  0
LINE
  5
5F1
100
AcDbEntity
  8
ASSI
100
AcDbLine
 62
7
  6
CONTINUOUS
 10
-6.555294768
 20
20.0829433217
 11
-6.4790558127
 21
19.968583276
  0
LINE
  5
5F2
100
AcDbEntity
  8
DRAFT
100
AcDbLine
 62
7
  6
CONTINUOUS
 10
9.55
 20
-10.2
 11
9.6285418101
 21
-10.3570955844
  0
LINE
  5
5F3
100
AcDbEntity
  8
ASSI
100
AcDbLine
 62
7
  6
CONTINUOUS
 10
9.55
 20
-10.2
 11
9.6285418101
 21
-10.3570955844
  0
LINE
  5
5F4
100
AcDbEntity
  8
DRAFT
100
AcDbLine
 62
7
  6
CONTINUOUS
 10
6.0
 20
15.3839326584
 11
6.0
 21
14.0160673416
  0
LINE
  5
5F5
100
AcDbEntity
  8
ASSI
100
AcDbLine
 62
7
  6
CONTINUOUS
 10
6.0
 20
15.3839326584
 11
6.0
 21
14.0160673416
  0
LINE
  5
5F6
100
AcDbEntity
  8
DRAFT
100
AcDbLine
 62
7
  6
CONTINUOUS
 10
6.0
 20
-17.5160673416
 11
6.0
 21
-18.8839326584
  0
LINE
  5
5F7
100
AcDbEntity
  8
ASSI
100
AcDbLine
 62
7
  6
CONTINUOUS
 10
6.0
 20
-17.5160673416
 11
6.0
 21
-18.8839326584
  0
LINE
  5
5F8
100
AcDbEntity
  8
0
100
AcDbLine
 62
7
  6
CONTINUOUS
 10
6.2
 20
6.65
 11
6.2
 21
8.5
  0
LINE
  5
5F9
100
AcDbEntity
  8
0
100
AcDbLine
 62
7
  6
CONTINUOUS
 10
6.4
 20
-5.2
 11
6.4
 21
-6.9
  0
LINE
  5
5FA
100
AcDbEntity
  8
RACCORDO
100
AcDbLine
 62
7
  6
CONTINUOUS
 10
6.4482213147
 20
-19.9223308767
 11
6.4482213147
 21
-18.9520022272
  0
LINE
  5
5FB
100
AcDbEntity
  8
ASSI
100
AcDbLine
 62
7
  6
CONTINUOUS
 10
6.4482213147
 20
-19.9223308767
 11
6.4482213147
 21
-18.9520022272
  0
LINE
  5
5FC
100
AcDbEntity
  8
RACCORDO
100
AcDbLine
 62
7
  6
CONTINUOUS
 10
6.4598569743
 20
18.5630493339
 11
6.4598569743
 21
19.3
  0
LINE
  5
5FD
100
AcDbEntity
  8
ASSI
100
AcDbLine
 62
7
  6
CONTINUOUS
 10
6.4598569743
 20
18.5630493339
 11
6.4598569743
 21
19.3
  0
LINE
  5
5FE
100
AcDbEntity
  8
RACCORDO
100
AcDbLine
 62
7
  6
CONTINUOUS
 10
6.4790558127
 20
19.968583276
 11
6.4790558127
 21
19.947427955
  0
LINE
  5
5FF
100
AcDbEntity
  8
ASSI
100
AcDbLine
 62
7
  6
CONTINUOUS
 10
6.4790558127
 20
19.968583276
 11
6.4790558127
 21
19.947427955
  0
LINE
  5
600
100
AcDbEntity
  8
RACCORDO
100
AcDbLine
 62
253
  6
CONTINUOUS
 10
6.5570215015
 20
20.1837995929
 11
6.5570215015
 21
19.9267239376
  0
LINE
  5
601
100
AcDbEntity
  8
ASSI
100
AcDbLine
 62
7
  6
CONTINUOUS
 10
6.5570215015
 20
20.1837995929
 11
6.5570215015
 21
19.9267239376
  0
LINE
  5
602
100
AcDbEntity
  8
RACCORDO
100
AcDbLine
 62
253
  6
CONTINUOUS
 10
6.5570215015
 20
-20.1837995929
 11
6.5570215015
 21
-19.9267239376
  0
LINE
  5
603
100
AcDbEntity
  8
ASSI
100
AcDbLine
 62
7
  6
CONTINUOUS
 10
6.5570215015
 20
-20.1837995929
 11
6.5570215015
 21
-19.9267239376
  0
LINE
  5
604
100
AcDbEntity
  8
DRAFT
100
AcDbLine
 62
7
  6
CONTINUOUS
 10
6.7019074668
 20
15.2085226158
 11
6.7019074668
 21
14.1914773842
  0
LINE
  5
605
100
AcDbEntity
  8
ASSI
100
AcDbLine
 62
7
  6
CONTINUOUS
 10
6.7019074668
 20
15.2085226158
 11
6.7019074668
 21
14.1914773842
  0
LINE
  5
606
100
AcDbEntity
  8
DRAFT
100
AcDbLine
 62
7
  6
CONTINUOUS
 10
6.7019074668
 20
-18.7085226158
 11
6.7019074668
 21
-17.6914773842
  0
LINE
  5
607
100
AcDbEntity
  8
ASSI
100
AcDbLine
 62
7
  6
CONTINUOUS
 10
6.7019074668
 20
-18.7085226158
 11
6.7019074668
 21
-17.6914773842
  0
LINE
  5
608
100
AcDbEntity
  8
RACCORDO
100
AcDbLine
 62
253
  6
CONTINUOUS
 10
6.7570181168
 20
20.5829242832
 11
6.7570181168
 21
19.9267239376
  0
LINE
  5
609
100
AcDbEntity
  8
ASSI
100
AcDbLine
 62
253
  6
CONTINUOUS
 10
6.7570181168
 20
20.5829242832
 11
6.7570181168
 21
19.9267239376
  0
LINE
  5
60A
100
AcDbEntity
  8
RACCORDO
100
AcDbLine
 62
253
  6
CONTINUOUS
 10
6.7570181168
 20
-20.5829242832
 11
6.7570181168
 21
-19.9267239376
  0
LINE
  5
60B
100
AcDbEntity
  8
ASSI
100
AcDbLine
 62
253
  6
CONTINUOUS
 10
6.7570181168
 20
-20.5829242832
 11
6.7570181168
 21
-19.9267239376
  0
LINE
  5
60C
100
AcDbEntity
  8
0
100
AcDbLine
 62
7
  6
CONTINUOUS
 10
6.8
 20
-3.5
 11
6.8
 21
-5.2
  0
LINE
  5
60D
100
AcDbEntity
  8
0
100
AcDbLine
 62
7
  6
CONTINUOUS
 10
6.8
 20
6.65
 11
6.8
 21
8.5
  0
LINE
  5
60E
100
AcDbEntity
  8
RACCORDO
100
AcDbLine
 62
253
  6
CONTINUOUS
 10
7.0429818832
 20
-19.9267239376
 11
7.0429818832
 21
-20.9959955457
  0
LINE
  5
60F
100
AcDbEntity
  8
ASSI
100
AcDbLine
 62
253
  6
CONTINUOUS
 10
7.0429818832
 20
-19.9267239376
 11
7.0429818832
 21
-20.9959955457
  0
LINE
  5
610
100
AcDbEntity
  8
RACCORDO
100
AcDbLine
 62
253
  6
CONTINUOUS
 10
7.0429818832
 20
19.9267239376
 11
7.0429818832
 21
20.9959955457
  0
LINE
  5
611
100
AcDbEntity
  8
ASSI
100
AcDbLine
 62
253
  6
CONTINUOUS
 10
7.0429818832
 20
19.9267239376
 11
7.0429818832
 21
20.9959955457
  0
LINE
  5
612
100
AcDbEntity
  8
RACCORDO
100
AcDbLine
 62
253
  6
CONTINUOUS
 10
7.2429784985
 20
-19.9267239376
 11
7.2429784985
 21
-20.9942603263
  0
LINE
  5
613
100
AcDbEntity
  8
ASSI
100
AcDbLine
 62
7
  6
CONTINUOUS
 10
7.2429784985
 20
-19.9267239376
 11
7.2429784985
 21
-20.9942603263
  0
LINE
  5
614
100
AcDbEntity
  8
RACCORDO
100
AcDbLine
 62
253
  6
CONTINUOUS
 10
7.2429784985
 20
19.9267239376
 11
7.2429784985
 21
20.9942603263
  0
LINE
  5
615
100
AcDbEntity
  8
ASSI
100
AcDbLine
 62
7
  6
CONTINUOUS
 10
7.2429784985
 20
19.9267239376
 11
7.2429784985
 21
20.9942603263
  0
LINE
  5
616
100
AcDbEntity
  8
RACCORDO
100
AcDbLine
 62
7
  6
CONTINUOUS
 10
7.3209441873
 20
20.7113319946
 11
7.3209441873
 21
19.947427955
  0
LINE
  5
617
100
AcDbEntity
  8
ASSI
100
AcDbLine
 62
7
  6
CONTINUOUS
 10
7.3209441873
 20
20.7113319946
 11
7.3209441873
 21
19.947427955
  0
LINE
  5
618
100
AcDbEntity
  8
RACCORDO
100
AcDbLine
 62
7
  6
CONTINUOUS
 10
7.3401430257
 20
18.5630493339
 11
7.3401430257
 21
19.3
  0
LINE
  5
619
100
AcDbEntity
  8
ASSI
100
AcDbLine
 62
7
  6
CONTINUOUS
 10
7.3401430257
 20
18.5630493339
 11
7.3401430257
 21
19.3
  0
LINE
  5
61A
100
AcDbEntity
  8
RACCORDO
100
AcDbLine
 62
7
  6
CONTINUOUS
 10
7.3517786853
 20
-18.9520022272
 11
7.3517786853
 21
-20.4335707644
  0
LINE
  5
61B
100
AcDbEntity
  8
ASSI
100
AcDbLine
 62
7
  6
CONTINUOUS
 10
7.3517786853
 20
-18.9520022272
 11
7.3517786853
 21
-20.4335707644
  0
LINE
  5
61C
100
AcDbEntity
  8
0
100
AcDbLine
 62
7
  6
CONTINUOUS
 10
7.5
 20
5.0
 11
7.5
 21
-2.0
  0
LINE
  5
61D
100
AcDbEntity
  8
DRAFT
100
AcDbLine
 62
7
  6
CONTINUOUS
 10
9.65
 20
15.6
 11
9.6674550649
 21
15.6874886635
  0
LINE
  5
61E
100
AcDbEntity
  8
ASSI
100
AcDbLine
 62
7
  6
CONTINUOUS
 10
9.65
 20
15.6
 11
9.6674550649
 21
15.6874886635
  0
LINE
  5
61F
100
AcDbEntity
  8
DRAFT
100
AcDbLine
 62
7
  6
CONTINUOUS
 10
8.5109333469
 20
3.5508468051
 11
8.3355233043
 21
3.2
  0
LINE
  5
620
100
AcDbEntity
  8
ASSI
100
AcDbLine
 62
7
  6
CONTINUOUS
 10
8.5109333469
 20
3.5508468051
 11
8.3355233043
 21
3.2
  0
LINE
  5
621
100
AcDbEntity
  8
DRAFT
100
AcDbLine
 62
7
  6
CONTINUOUS
 10
8.1173516096
 20
2.4057426494
 11
8.25
 21
2.6710596363
  0
LINE
  5
622
100
AcDbEntity
  8
ASSI
100
AcDbLine
 62
7
  6
CONTINUOUS
 10
8.1173516096
 20
2.4057426494
 11
8.25
 21
2.6710596363
  0
LINE
  5
623
100
AcDbEntity
  8
DRAFT
100
AcDbLine
 62
7
  6
CONTINUOUS
 10
9.5872686779
 20
3.7253974543
 11
9.5
 21
3.5508468051
  0
LINE
  5
624
100
AcDbEntity
  8
ASSI
100
AcDbLine
 62
7
  6
CONTINUOUS
 10
9.5872686779
 20
3.7253974543
 11
9.5
 21
3.5508468051
  0
LINE
  5
625
100
AcDbEntity
  8
DRAFT
100
AcDbLine
 62
7
  6
CONTINUOUS
 10
10.0
 20
0.5
 11
9.7730841559
 21
0.2730841559
  0
LINE
  5
626
100
AcDbEntity
  8
ASSI
100
AcDbLine
 62
7
  6
CONTINUOUS
 10
10.0
 20
0.5
 11
9.7730841559
 21
0.2730841559
  0
LINE
  5
627
100
AcDbEntity
  8
DRAFT
100
AcDbLine
 62
7
  6
CONTINUOUS
 10
-7.7979977728
 20
-17.4479977728
 11
-7.7255647702
 21
-17.3755647702
  0
LINE
  5
628
100
AcDbEntity
  8
ASSI
100
AcDbLine
 62
7
  6
CONTINUOUS
 10
-7.7979977728
 20
-17.4479977728
 11
-7.7255647702
 21
-17.3755647702
  0
LINE
  5
629
100
AcDbEntity
  8
ASSI
100
AcDbLine
 62
7
  6
CONTINUOUS
 10
-9.25
 20
6.6
 11
9.25
 21
6.6
  0
LINE
  5
62A
100
AcDbEntity
  8
0
100
AcDbLine
 62
7
  6
CONTINUOUS
 10
-8.7
 20
6.65
 11
-5.6270229771
 21
6.65
  0
LINE
  5
62B
100
AcDbEntity
  8
ASSI
100
AcDbLine
 62
7
  6
CONTINUOUS
 10
-2.6729770229
 20
6.65
 11
0.7498866907
 21
6.65
  0
LINE
  5
62C
100
AcDbEntity
  8
0
100
AcDbLine
 62
7
  6
CONTINUOUS
 10
0.75
 20
6.65
 11
2.6729770229
 21
6.65
  0
LINE
  5
62D
100
AcDbEntity
  8
0
100
AcDbLine
 62
7
  6
CONTINUOUS
 10
5.6270229771
 20
6.65
 11
8.7
 21
6.65
  0
LINE
  5
62E
100
AcDbEntity
  8
DRAFT
100
AcDbLine
 62
7
  6
CONTINUOUS
 10
9.4
 20
6.7
 11
8.05
 21
6.7
  0
LINE
  5
62F
100
AcDbEntity
  8
ASSI
100
AcDbLine
 62
7
  6
CONTINUOUS
 10
9.4
 20
6.7
 11
8.05
 21
6.7
  0
LINE
  5
630
100
AcDbEntity
  8
DRAFT
100
AcDbLine
 62
7
  6
CONTINUOUS
 10
6.8
 20
6.7
 11
6.2
 21
6.7
  0
LINE
  5
631
100
AcDbEntity
  8
ASSI
100
AcDbLine
 62
7
  6
CONTINUOUS
 10
6.8
 20
6.7
 11
6.2
 21
6.7
  0
LINE
  5
632
100
AcDbEntity
  8
DRAFT
100
AcDbLine
 62
7
  6
CONTINUOUS
 10
2.6213629119
 20
6.7
 11
2.3786370917
 21
6.7
  0
LINE
  5
633
100
AcDbEntity
  8
ASSI
100
AcDbLine
 62
7
  6
CONTINUOUS
 10
2.6213629119
 20
6.7
 11
2.3786370917
 21
6.7
  0
LINE
  5
634
100
AcDbEntity
  8
DRAFT
100
AcDbLine
 62
7
  6
CONTINUOUS
 10
1.1213629083
 20
6.7
 11
0.8786370881
 21
6.7
  0
LINE
  5
635
100
AcDbEntity
  8
ASSI
100
AcDbLine
 62
7
  6
CONTINUOUS
 10
1.1213629083
 20
6.7
 11
0.8786370881
 21
6.7
  0
LINE
  5
636
100
AcDbEntity
  8
DRAFT
100
AcDbLine
 62
7
  6
CONTINUOUS
 10
-0.3786370881
 20
6.7
 11
-0.6213629083
 21
6.7
  0
LINE
  5
637
100
AcDbEntity
  8
ASSI
100
AcDbLine
 62
7
  6
CONTINUOUS
 10
-0.3786370881
 20
6.7
 11
-0.6213629083
 21
6.7
  0
LINE
  5
638
100
AcDbEntity
  8
DRAFT
100
AcDbLine
 62
7
  6
CONTINUOUS
 10
-1.8786370881
 20
6.7
 11
-2.1213629083
 21
6.7
  0
LINE
  5
639
100
AcDbEntity
  8
ASSI
100
AcDbLine
 62
7
  6
CONTINUOUS
 10
-1.8786370881
 20
6.7
 11
-2.1213629083
 21
6.7
  0
LINE
  5
63A
100
AcDbEntity
  8
DRAFT
100
AcDbLine
 62
7
  6
CONTINUOUS
 10
-6.2
 20
6.7
 11
-6.8
 21
6.7
  0
LINE
  5
63B
100
AcDbEntity
  8
ASSI
100
AcDbLine
 62
7
  6
CONTINUOUS
 10
-6.2
 20
6.7
 11
-6.8
 21
6.7
  0
LINE
  5
63C
100
AcDbEntity
  8
DRAFT
100
AcDbLine
 62
7
  6
CONTINUOUS
 10
-8.05
 20
6.7
 11
-9.4
 21
6.7
  0
LINE
  5
63D
100
AcDbEntity
  8
ASSI
100
AcDbLine
 62
7
  6
CONTINUOUS
 10
-8.05
 20
6.7
 11
-9.4
 21
6.7
  0
LINE
  5
63E
100
AcDbEntity
  8
DRAFT
100
AcDbLine
 62
7
  6
CONTINUOUS
 10
-8.25
 20
6.7226898563
 11
-8.05
 21
6.7226898563
  0
LINE
  5
63F
100
AcDbEntity
  8
ASSI
100
AcDbLine
 62
7
  6
CONTINUOUS
 10
-8.25
 20
6.7226898563
 11
-8.05
 21
6.7226898563
  0
LINE
  5
640
100
AcDbEntity
  8
DRAFT
100
AcDbLine
 62
7
  6
CONTINUOUS
 10
-6.8
 20
6.7226898563
 11
-6.2
 21
6.7226898563
  0
LINE
  5
641
100
AcDbEntity
  8
ASSI
100
AcDbLine
 62
7
  6
CONTINUOUS
 10
-6.8
 20
6.7226898563
 11
-6.2
 21
6.7226898563
  0
LINE
  5
642
100
AcDbEntity
  8
DRAFT
100
AcDbLine
 62
7
  6
CONTINUOUS
 10
-2.1500949546
 20
6.7226898563
 11
-1.8499050423
 21
6.7226898563
  0
LINE
  5
643
100
AcDbEntity
  8
ASSI
100
AcDbLine
 62
7
  6
CONTINUOUS
 10
-2.1500949546
 20
6.7226898563
 11
-1.8499050423
 21
6.7226898563
  0
LINE
  5
644
100
AcDbEntity
  8
DRAFT
100
AcDbLine
 62
7
  6
CONTINUOUS
 10
-0.6500949546
 20
6.7226898563
 11
-0.3499050423
 21
6.7226898563
  0
LINE
  5
645
100
AcDbEntity
  8
ASSI
100
AcDbLine
 62
7
  6
CONTINUOUS
 10
-0.6500949546
 20
6.7226898563
 11
-0.3499050423
 21
6.7226898563
  0
LINE
  5
646
100
AcDbEntity
  8
DRAFT
100
AcDbLine
 62
7
  6
CONTINUOUS
 10
0.8499050423
 20
6.7226898563
 11
1.1500949546
 21
6.7226898563
  0
LINE
  5
647
100
AcDbEntity
  8
ASSI
100
AcDbLine
 62
7
  6
CONTINUOUS
 10
0.8499050423
 20
6.7226898563
 11
1.1500949546
 21
6.7226898563
  0
LINE
  5
648
100
AcDbEntity
  8
DRAFT
100
AcDbLine
 62
7
  6
CONTINUOUS
 10
2.3499050454
 20
6.7226898563
 11
2.6500949577
 21
6.7226898563
  0
LINE
  5
649
100
AcDbEntity
  8
ASSI
100
AcDbLine
 62
7
  6
CONTINUOUS
 10
2.3499050454
 20
6.7226898563
 11
2.6500949577
 21
6.7226898563
  0
LINE
  5
64A
100
AcDbEntity
  8
DRAFT
100
AcDbLine
 62
7
  6
CONTINUOUS
 10
6.2
 20
6.7226898563
 11
6.8
 21
6.7226898563
  0
LINE
  5
64B
100
AcDbEntity
  8
ASSI
100
AcDbLine
 62
7
  6
CONTINUOUS
 10
6.2
 20
6.7226898563
 11
6.8
 21
6.7226898563
  0
LINE
  5
64C
100
AcDbEntity
  8
DRAFT
100
AcDbLine
 62
7
  6
CONTINUOUS
 10
8.05
 20
6.7226898563
 11
8.25
 21
6.7226898563
  0
LINE
  5
64D
100
AcDbEntity
  8
ASSI
100
AcDbLine
 62
7
  6
CONTINUOUS
 10
8.05
 20
6.7226898563
 11
8.25
 21
6.7226898563
  0
LINE
  5
64E
100
AcDbEntity
  8
RACCORDO
100
AcDbLine
 62
253
  6
CONTINUOUS
 10
9.4966110309
 20
6.9313229207
 11
8.504012777
 21
6.9313229207
  0
LINE
  5
64F
100
AcDbEntity
  8
ASSI
100
AcDbLine
 62
253
  6
CONTINUOUS
 10
9.4966110309
 20
6.9313229207
 11
8.504012777
 21
6.9313229207
  0
LINE
  5
650
100
AcDbEntity
  8
RACCORDO
100
AcDbLine
 62
253
  6
CONTINUOUS
 10
-8.504012777
 20
6.9313229207
 11
-9.4966110309
 21
6.9313229207
  0
LINE
  5
651
100
AcDbEntity
  8
ASSI
100
AcDbLine
 62
253
  6
CONTINUOUS
 10
-8.504012777
 20
6.9313229207
 11
-9.4966110309
 21
6.9313229207
  0
LINE
  5
652
100
AcDbEntity
  8
RACCORDO
100
AcDbLine
 62
253
  6
CONTINUOUS
 10
-2.8481400842
 20
6.9458040007
 11
-2.25
 21
6.9458040048
  0
LINE
  5
653
100
AcDbEntity
  8
RACCORDO
100
AcDbLine
 62
253
  6
CONTINUOUS
 10
-1.75
 20
6.9458040048
 11
-0.75
 21
6.9458040048
  0
LINE
  5
654
100
AcDbEntity
  8
RACCORDO
100
AcDbLine
 62
253
  6
CONTINUOUS
 10
-0.25
 20
6.9458040048
 11
0.75
 21
6.9458040048
  0
LINE
  5
655
100
AcDbEntity
  8
RACCORDO
100
AcDbLine
 62
253
  6
CONTINUOUS
 10
1.25
 20
6.9458040048
 11
2.25
 21
6.9458040048
  0
LINE
  5
656
100
AcDbEntity
  8
RACCORDO
100
AcDbLine
 62
253
  6
CONTINUOUS
 10
2.75
 20
6.9458040048
 11
2.8481400873
 21
6.9458040048
  0
LINE
  5
657
100
AcDbEntity
  8
0
100
AcDbLine
 62
7
  6
CONTINUOUS
 10
-6.2
 20
7.0
 11
-5.4109514899
 21
7.0
  0
LINE
  5
658
100
AcDbEntity
  8
0
100
AcDbLine
 62
7
  6
CONTINUOUS
 10
6.2
 20
7.0
 11
5.4109514899
 21
7.0
  0
LINE
  5
659
100
AcDbEntity
  8
0
100
AcDbLine
 62
7
  6
CONTINUOUS
 10
-6.8
 20
7.0
 11
-8.0998511084
 21
7.0
  0
LINE
  5
65A
100
AcDbEntity
  8
0
100
AcDbLine
 62
7
  6
CONTINUOUS
 10
6.8
 20
7.0
 11
8.0998511084
 21
7.0
  0
LINE
  5
65B
100
AcDbEntity
  8
0
100
AcDbLine
 62
7
  6
CONTINUOUS
 10
-6.2
 20
7.5
 11
-4.9
 21
7.5
  0
LINE
  5
65C
100
AcDbEntity
  8
0
100
AcDbLine
 62
7
  6
CONTINUOUS
 10
6.2
 20
7.5
 11
5.25
 21
7.5
  0
LINE
  5
65D
100
AcDbEntity
  8
0
100
AcDbLine
 62
7
  6
CONTINUOUS
 10
6.8
 20
7.5
 11
8.1
 21
7.5
  0
LINE
  5
65E
100
AcDbEntity
  8
0
100
AcDbLine
 62
7
  6
CONTINUOUS
 10
-6.8
 20
7.5
 11
-8.1
 21
7.5
  0
LINE
  5
65F
100
AcDbEntity
  8
0
100
AcDbLine
 62
7
  6
CONTINUOUS
 10
-4.65
 20
7.5211646096
 11
-3.65
 21
7.5211646096
  0
LINE
  5
660
100
AcDbEntity
  8
0
100
AcDbLine
 62
7
  6
CONTINUOUS
 10
4.65
 20
7.5211646096
 11
3.65
 21
7.5211646096
  0
LINE
  5
661
100
AcDbEntity
  8
DRAFT
100
AcDbLine
 62
7
  6
CONTINUOUS
 10
10.0
 20
-0.5
 11
9.7730841559
 21
-0.2730841559
  0
LINE
  5
662
100
AcDbEntity
  8
ASSI
100
AcDbLine
 62
7
  6
CONTINUOUS
 10
10.0
 20
-0.5
 11
9.7730841559
 21
-0.2730841559
  0
LINE
  5
663
100
AcDbEntity
  8
DRAFT
100
AcDbLine
 62
7
  6
CONTINUOUS
 10
8.75
 20
-2.6710596363
 11
8.5937890665
 21
-2.3586139741
  0
LINE
  5
664
100
AcDbEntity
  8
ASSI
100
AcDbLine
 62
7
  6
CONTINUOUS
 10
8.75
 20
-2.6710596363
 11
8.5937890665
 21
-2.3586139741
  0
LINE
  5
665
100
AcDbEntity
  8
DRAFT
100
AcDbLine
 62
7
  6
CONTINUOUS
 10
9.65
 20
-19.1
 11
9.6674550649
 21
-19.1874886635
  0
LINE
  5
666
100
AcDbEntity
  8
ASSI
100
AcDbLine
 62
7
  6
CONTINUOUS
 10
9.65
 20
-19.1
 11
9.6674550649
 21
-19.1874886635
  0
LINE
  5
667
100
AcDbEntity
  8
DRAFT
100
AcDbLine
 62
7
  6
CONTINUOUS
 10
11.0825449351
 20
-19.1
 11
11.1
 21
-19.1874886635
  0
LINE
  5
668
100
AcDbEntity
  8
ASSI
100
AcDbLine
 62
7
  6
CONTINUOUS
 10
11.0825449351
 20
-19.1
 11
11.1
 21
-19.1874886635
  0
LINE
  5
669
100
AcDbEntity
  8
RACCORDO
100
AcDbLine
 62
253
  6
CONTINUOUS
 10
7.2429784985
 20
19.9267239376
 11
7.3401430257
 21
18.5630493339
  0
LINE
  5
66A
100
AcDbEntity
  8
ASSI
100
AcDbLine
 62
253
  6
CONTINUOUS
 10
7.2429784985
 20
19.9267239376
 11
7.3401430257
 21
18.5630493339
  0
LINE
  5
66B
100
AcDbEntity
  8
RACCORDO
100
AcDbLine
 62
253
  6
CONTINUOUS
 10
8.304371834
 20
-23.8443375673
 11
8.3
 21
-23.4104851482
  0
LINE
  5
66C
100
AcDbEntity
  8
ASSI
100
AcDbLine
 62
253
  6
CONTINUOUS
 10
8.304371834
 20
-23.8443375673
 11
8.3
 21
-23.4104851482
  0
LINE
  5
66D
100
AcDbEntity
  8
RACCORDO
100
AcDbLine
 62
253
  6
CONTINUOUS
 10
8.5550948319
 20
-23.7
 11
8.5492770021
 21
-23.1226497308
  0
LINE
  5
66E
100
AcDbEntity
  8
ASSI
100
AcDbLine
 62
253
  6
CONTINUOUS
 10
8.5550948319
 20
-23.7
 11
8.5492770021
 21
-23.1226497308
  0
LINE
  5
66F
100
AcDbEntity
  8
RACCORDO
100
AcDbLine
 62
253
  6
CONTINUOUS
 10
7.5841007192
 20
-21.2626932437
 11
7.5841007192
 21
-20.9959955457
  0
LINE
  5
670
100
AcDbEntity
  8
ASSI
100
AcDbLine
 62
253
  6
CONTINUOUS
 10
7.5841007192
 20
-21.2626932437
 11
7.5841007192
 21
-20.9959955457
  0
LINE
  5
671
100
AcDbEntity
  8
RACCORDO
100
AcDbLine
 62
253
  6
CONTINUOUS
 10
7.5841007192
 20
20.9959955457
 11
7.5841007192
 21
21.2626932437
  0
LINE
  5
672
100
AcDbEntity
  8
ASSI
100
AcDbLine
 62
253
  6
CONTINUOUS
 10
7.5841007192
 20
20.9959955457
 11
7.5841007192
 21
21.2626932437
  0
LINE
  5
673
100
AcDbEntity
  8
DRAFT
100
AcDbLine
 62
7
  6
CONTINUOUS
 10
7.6932753594
 20
-17.4479977728
 11
7.6932753594
 21
-13.7322894108
  0
LINE
  5
674
100
AcDbEntity
  8
ASSI
100
AcDbLine
 62
7
  6
CONTINUOUS
 10
7.6932753594
 20
-17.4479977728
 11
7.6932753594
 21
-13.7322894108
  0
LINE
  5
675
100
AcDbEntity
  8
0
100
AcDbLine
 62
7
  6
CONTINUOUS
 10
7.706365661
 20
-12.1808008909
 11
7.706365661
 21
-8.9130903017
  0
LINE
  5
676
100
AcDbEntity
  8
ASSI
100
AcDbLine
 62
7
  6
CONTINUOUS
 10
7.706365661
 20
-12.1808008909
 11
7.706365661
 21
-8.9130903017
  0
LINE
  5
677
100
AcDbEntity
  8
DRAFT
100
AcDbLine
 62
7
  6
CONTINUOUS
 10
7.7255647702
 20
-17.3755647702
 11
7.7255647702
 21
-16.85
  0
LINE
  5
678
100
AcDbEntity
  8
ASSI
100
AcDbLine
 62
7
  6
CONTINUOUS
 10
7.7255647702
 20
-17.3755647702
 11
7.7255647702
 21
-16.85
  0
LINE
  5
679
100
AcDbEntity
  8
DRAFT
100
AcDbLine
 62
7
  6
CONTINUOUS
 10
7.7255647702
 20
-15.65
 11
7.7255647702
 21
-15.1244352298
  0
LINE
  5
67A
100
AcDbEntity
  8
ASSI
100
AcDbLine
 62
7
  6
CONTINUOUS
 10
7.7255647702
 20
-15.65
 11
7.7255647702
 21
-15.1244352298
  0
LINE
  5
67B
100
AcDbEntity
  8
DRAFT
100
AcDbLine
 62
7
  6
CONTINUOUS
 10
7.7255647702
 20
-13.7
 11
7.7255647702
 21
-13.6
  0
LINE
  5
67C
100
AcDbEntity
  8
ASSI
100
AcDbLine
 62
7
  6
CONTINUOUS
 10
7.7255647702
 20
-13.7
 11
7.7255647702
 21
-13.6
  0
LINE
  5
67D
100
AcDbEntity
  8
DRAFT
100
AcDbLine
 62
7
  6
CONTINUOUS
 10
7.7255647702
 20
-12.2
 11
7.7255647702
 21
-12.0
  0
LINE
  5
67E
100
AcDbEntity
  8
ASSI
100
AcDbLine
 62
7
  6
CONTINUOUS
 10
7.7255647702
 20
-12.2
 11
7.7255647702
 21
-12.0
  0
LINE
  5
67F
100
AcDbEntity
  8
RACCORDO
100
AcDbLine
 62
7
  6
CONTINUOUS
 10
7.7787986637
 20
-10.2
 11
7.7787986637
 21
-9.9768345149
  0
LINE
  5
680
100
AcDbEntity
  8
ASSI
100
AcDbLine
 62
7
  6
CONTINUOUS
 10
7.7787986637
 20
-10.2
 11
7.7787986637
 21
-9.9768345149
  0
LINE
  5
681
100
AcDbEntity
  8
RACCORDO
100
AcDbLine
 62
7
  6
CONTINUOUS
 10
7.9542087063
 20
-14.8957912937
 11
7.9542087063
 21
-14.5108367263
  0
LINE
  5
682
100
AcDbEntity
  8
ASSI
100
AcDbLine
 62
7
  6
CONTINUOUS
 10
7.9542087063
 20
-14.8957912937
 11
7.9542087063
 21
-14.5108367263
  0
LINE
  5
683
100
AcDbEntity
  8
RACCORDO
100
AcDbLine
 62
7
  6
CONTINUOUS
 10
7.9542087063
 20
-11.0891632737
 11
7.9542087063
 21
-10.5508468051
  0
LINE
  5
684
100
AcDbEntity
  8
ASSI
100
AcDbLine
 62
7
  6
CONTINUOUS
 10
7.9542087063
 20
-11.0891632737
 11
7.9542087063
 21
-10.5508468051
  0
LINE
  5
685
100
AcDbEntity
  8
0
100
AcDbLine
 62
7
  6
CONTINUOUS
 10
8.0
 20
10.0
 11
8.0
 21
7.6666666667
  0
LINE
  5
686
100
AcDbEntity
  8
ASSI
100
AcDbLine
 62
7
  6
CONTINUOUS
 10
8.0
 20
10.0
 11
8.0
 21
7.6666666667
  0
LINE
  5
687
100
AcDbEntity
  8
DRAFT
100
AcDbLine
 62
7
  6
CONTINUOUS
 10
8.0
 20
5.0
 11
8.0
 21
2.4057426494
  0
LINE
  5
688
100
AcDbEntity
  8
DRAFT
100
AcDbLine
 62
7
  6
CONTINUOUS
 10
8.0
 20
-2.3586139741
 11
8.0
 21
-5.8
  0
LINE
  5
689
100
AcDbEntity
  8
DRAFT
100
AcDbLine
 62
7
  6
CONTINUOUS
 10
8.0
 20
-7.5
 11
8.0
 21
-8.5
  0
LINE
  5
68A
100
AcDbEntity
  8
0
100
AcDbLine
 62
7
  6
CONTINUOUS
 10
8.0
 20
-8.5
 11
8.0
 21
-8.9
  0
LINE
  5
68B
100
AcDbEntity
  8
ASSI
100
AcDbLine
 62
7
  6
CONTINUOUS
 10
8.0
 20
-8.5
 11
8.0
 21
-8.9
  0
LINE
  5
68C
100
AcDbEntity
  8
0
100
AcDbLine
 62
7
  6
CONTINUOUS
 10
8.05
 20
6.65
 11
8.05
 21
7.0
  0
LINE
  5
68D
100
AcDbEntity
  8
RACCORDO
100
AcDbLine
 62
253
  6
CONTINUOUS
 10
8.0840245667
 20
-21.6833288495
 11
8.0840245667
 21
-20.9917082642
  0
LINE
  5
68E
100
AcDbEntity
  8
ASSI
100
AcDbLine
 62
253
  6
CONTINUOUS
 10
8.0840245667
 20
-21.6833288495
 11
8.0840245667
 21
-20.9917082642
  0
LINE
  5
68F
100
AcDbEntity
  8
RACCORDO
100
AcDbLine
 62
253
  6
CONTINUOUS
 10
8.0840245667
 20
20.9917082642
 11
8.0840245667
 21
21.6833288495
  0
LINE
  5
690
100
AcDbEntity
  8
ASSI
100
AcDbLine
 62
253
  6
CONTINUOUS
 10
8.0840245667
 20
20.9917082642
 11
8.0840245667
 21
21.6833288495
  0
LINE
  5
691
100
AcDbEntity
  8
0
100
AcDbLine
 62
7
  6
CONTINUOUS
 10
8.1
 20
7.0
 11
8.1
 21
7.5
  0
LINE
  5
692
100
AcDbEntity
  8
DRAFT
100
AcDbLine
 62
7
  6
CONTINUOUS
 10
8.25
 20
21.4
 11
8.25
 21
20.9
  0
LINE
  5
693
100
AcDbEntity
  8
ASSI
100
AcDbLine
 62
7
  6
CONTINUOUS
 10
8.25
 20
21.4
 11
8.25
 21
20.9
  0
LINE
  5
694
100
AcDbEntity
  8
DRAFT
100
AcDbLine
 62
7
  6
CONTINUOUS
 10
8.25
 20
10.0
 11
8.25
 21
6.7226898563
  0
LINE
  5
695
100
AcDbEntity
  8
ASSI
100
AcDbLine
 62
7
  6
CONTINUOUS
 10
8.25
 20
10.0
 11
8.25
 21
6.7226898563
  0
LINE
  5
696
100
AcDbEntity
  8
DRAFT
100
AcDbLine
 62
7
  6
CONTINUOUS
 10
8.25
 20
5.0
 11
8.25
 21
2.6710596363
  0
LINE
  5
697
100
AcDbEntity
  8
ASSI
100
AcDbLine
 62
7
  6
CONTINUOUS
 10
8.25
 20
6.6
 11
8.25
 21
2.6710596363
  0
LINE
  5
698
100
AcDbEntity
  8
DRAFT
100
AcDbLine
 62
7
  6
CONTINUOUS
 10
8.25
 20
-8.0
 11
8.25
 21
-8.9
  0
LINE
  5
699
100
AcDbEntity
  8
ASSI
100
AcDbLine
 62
7
  6
CONTINUOUS
 10
8.25
 20
-8.0
 11
8.25
 21
-8.9
  0
LINE
  5
69A
100
AcDbEntity
  8
DRAFT
100
AcDbLine
 62
7
  6
CONTINUOUS
 10
8.25
 20
-20.9
 11
8.25
 21
-21.4
  0
LINE
  5
69B
100
AcDbEntity
  8
ASSI
100
AcDbLine
 62
7
  6
CONTINUOUS
 10
8.25
 20
-20.9
 11
8.25
 21
-21.4
  0
LINE
  5
69C
100
AcDbEntity
  8
RACCORDO
100
AcDbLine
 62
7
  6
CONTINUOUS
 10
8.25
 20
-2.3047941508
 11
8.25
 21
2.3047941508
  0
LINE
  5
69D
100
AcDbEntity
  8
ASSI
100
AcDbLine
 62
7
  6
CONTINUOUS
 10
8.25
 20
-2.3047941508
 11
8.25
 21
2.3047941508
  0
LINE
  5
69E
100
AcDbEntity
  8
DRAFT
100
AcDbLine
 62
7
  6
CONTINUOUS
 10
8.2726898563
 20
4.9
 11
8.2726898563
 21
5.0
  0
LINE
  5
69F
100
AcDbEntity
  8
ASSI
100
AcDbLine
 62
7
  6
CONTINUOUS
 10
8.2726898563
 20
4.9
 11
8.2726898563
 21
5.0
  0
LINE
  5
6A0
100
AcDbEntity
  8
DRAFT
100
AcDbLine
 62
7
  6
CONTINUOUS
 10
8.2822894108
 20
13.8755647702
 11
8.2822894108
 21
10.5
  0
LINE
  5
6A1
100
AcDbEntity
  8
ASSI
100
AcDbLine
 62
7
  6
CONTINUOUS
 10
8.2822894108
 20
13.8755647702
 11
8.2822894108
 21
10.5
  0
LINE
  5
6A2
100
AcDbEntity
  8
DRAFT
100
AcDbLine
 62
7
  6
CONTINUOUS
 10
8.2822894108
 20
10.0322894108
 11
8.2822894108
 21
9.95
  0
LINE
  5
6A3
100
AcDbEntity
  8
ASSI
100
AcDbLine
 62
7
  6
CONTINUOUS
 10
8.2822894108
 20
10.0322894108
 11
8.2822894108
 21
9.95
  0
LINE
  5
6A4
100
AcDbEntity
  8
DRAFT
100
AcDbLine
 62
7
  6
CONTINUOUS
 10
8.2822894108
 20
8.75
 11
8.2822894108
 21
8.2244352298
  0
LINE
  5
6A5
100
AcDbEntity
  8
ASSI
100
AcDbLine
 62
7
  6
CONTINUOUS
 10
8.2822894108
 20
8.75
 11
8.2822894108
 21
8.2244352298
  0
LINE
  5
6A6
100
AcDbEntity
  8
RACCORDO
100
AcDbLine
 62
7
  6
CONTINUOUS
 10
8.3
 20
-22.35
 11
8.3
 21
-23.8443375673
  0
LINE
  5
6A7
100
AcDbEntity
  8
ASSI
100
AcDbLine
 62
7
  6
CONTINUOUS
 10
8.3
 20
-22.35
 11
8.3
 21
-23.8443375673
  0
LINE
  5
6A8
100
AcDbEntity
  8
RACCORDO
100
AcDbLine
 62
7
  6
CONTINUOUS
 10
8.3
 20
22.35
 11
8.3
 21
23.8443375673
  0
LINE
  5
6A9
100
AcDbEntity
  8
ASSI
100
AcDbLine
 62
7
  6
CONTINUOUS
 10
8.3
 20
22.35
 11
8.3
 21
23.8443375673
  0
LINE
  5
6AA
100
AcDbEntity
  8
RACCORDO
100
AcDbLine
 62
253
  6
CONTINUOUS
 10
8.304371834
 20
24.2456323968
 11
8.304371834
 21
23.8443375673
  0
LINE
  5
6AB
100
AcDbEntity
  8
ASSI
100
AcDbLine
 62
7
  6
CONTINUOUS
 10
8.304371834
 20
24.2456323968
 11
8.304371834
 21
23.8443375673
  0
LINE
  5
6AC
100
AcDbEntity
  8
RACCORDO
100
AcDbLine
 62
253
  6
CONTINUOUS
 10
8.304371834
 20
-23.8443375673
 11
8.304371834
 21
-24.2456323968
  0
LINE
  5
6AD
100
AcDbEntity
  8
ASSI
100
AcDbLine
 62
7
  6
CONTINUOUS
 10
8.304371834
 20
-23.8443375673
 11
8.304371834
 21
-24.2456323968
  0
LINE
  5
6AE
100
AcDbEntity
  8
DRAFT
100
AcDbLine
 62
7
  6
CONTINUOUS
 10
8.3198149423
 20
13.9130903017
 11
8.3198149423
 21
10.5375255315
  0
LINE
  5
6AF
100
AcDbEntity
  8
ASSI
100
AcDbLine
 62
7
  6
CONTINUOUS
 10
8.3198149423
 20
13.9130903017
 11
8.3198149423
 21
10.5375255315
  0
LINE
  5
6B0
100
AcDbEntity
  8
DRAFT
100
AcDbLine
 62
7
  6
CONTINUOUS
 10
8.3355233043
 20
3.2
 11
8.3355233043
 21
2.5
  0
LINE
  5
6B1
100
AcDbEntity
  8
ASSI
100
AcDbLine
 62
7
  6
CONTINUOUS
 10
8.3355233043
 20
3.2
 11
8.3355233043
 21
2.5
  0
LINE
  5
6B2
100
AcDbEntity
  8
RACCORDO
100
AcDbLine
 62
7
  6
CONTINUOUS
 10
8.3355233043
 20
-8.0
 11
8.3355233043
 21
-9.9768345149
  0
LINE
  5
6B3
100
AcDbEntity
  8
ASSI
100
AcDbLine
 62
7
  6
CONTINUOUS
 10
8.3355233043
 20
-8.0
 11
8.3355233043
 21
-9.9768345149
  0
LINE
  5
6B4
100
AcDbEntity
  8
DRAFT
100
AcDbLine
 62
7
  6
CONTINUOUS
 10
8.5
 20
-7.4118365096
 11
8.5
 21
-5.8881634904
  0
LINE
  5
6B5
100
AcDbEntity
  8
RACCORDO
100
AcDbLine
 62
7
  6
CONTINUOUS
 10
8.5109333469
 20
7.9957912937
 11
8.5109333469
 21
7.7312924592
  0
LINE
  5
6B6
100
AcDbEntity
  8
ASSI
100
AcDbLine
 62
7
  6
CONTINUOUS
 10
8.5109333469
 20
7.9957912937
 11
8.5109333469
 21
7.7312924592
  0
LINE
  5
6B7
100
AcDbEntity
  8
RACCORDO
100
AcDbLine
 62
7
  6
CONTINUOUS
 10
8.5109333469
 20
3.8687075408
 11
8.5109333469
 21
3.5508468051
  0
LINE
  5
6B8
100
AcDbEntity
  8
ASSI
100
AcDbLine
 62
7
  6
CONTINUOUS
 10
8.5109333469
 20
3.8687075408
 11
8.5109333469
 21
3.5508468051
  0
LINE
  5
6B9
100
AcDbEntity
  8
RACCORDO
100
AcDbLine
 62
253
  6
CONTINUOUS
 10
8.5543676032
 20
-23.7
 11
8.5543676032
 21
-24.495628166
  0
LINE
  5
6BA
100
AcDbEntity
  8
ASSI
100
AcDbLine
 62
253
  6
CONTINUOUS
 10
8.5543676032
 20
-23.7
 11
8.5543676032
 21
-24.495628166
  0
LINE
  5
6BB
100
AcDbEntity
  8
RACCORDO
100
AcDbLine
 62
253
  6
CONTINUOUS
 10
8.5543676032
 20
23.6278312164
 11
8.5543676032
 21
24.495628166
  0
LINE
  5
6BC
100
AcDbEntity
  8
ASSI
100
AcDbLine
 62
253
  6
CONTINUOUS
 10
8.5543676032
 20
23.6278312164
 11
8.5543676032
 21
24.495628166
  0
LINE
  5
6BD
100
AcDbEntity
  8
0
100
AcDbLine
 62
7
  6
CONTINUOUS
 10
8.7
 20
6.65
 11
8.7
 21
6.6
  0
LINE
  5
6BE
100
AcDbEntity
  8
DRAFT
100
AcDbLine
 62
7
  6
CONTINUOUS
 10
8.75
 20
-2.5
 11
8.75
 21
-8.0
  0
LINE
  5
6BF
100
AcDbEntity
  8
ASSI
100
AcDbLine
 62
7
  6
CONTINUOUS
 10
8.75
 20
-2.5
 11
8.75
 21
-8.0
  0
LINE
  5
6C0
100
AcDbEntity
  8
DRAFT
100
AcDbLine
 62
7
  6
CONTINUOUS
 10
8.75
 20
-13.6
 11
8.75
 21
-12.0
  0
LINE
  5
6C1
100
AcDbEntity
  8
ASSI
100
AcDbLine
 62
7
  6
CONTINUOUS
 10
8.75
 20
-13.6
 11
8.75
 21
-12.0
  0
LINE
  5
6C2
100
AcDbEntity
  8
DRAFT
100
AcDbLine
 62
7
  6
CONTINUOUS
 10
8.778184492
 20
10.321815508
 11
8.778184492
 21
8.478184492
  0
LINE
  5
6C3
100
AcDbEntity
  8
ASSI
100
AcDbLine
 62
7
  6
CONTINUOUS
 10
8.778184492
 20
10.321815508
 11
8.778184492
 21
8.478184492
  0
LINE
  5
6C4
100
AcDbEntity
  8
DRAFT
100
AcDbLine
 62
7
  6
CONTINUOUS
 10
8.778184492
 20
-15.378184492
 11
8.778184492
 21
-17.221815508
  0
LINE
  5
6C5
100
AcDbEntity
  8
ASSI
100
AcDbLine
 62
7
  6
CONTINUOUS
 10
8.778184492
 20
-15.378184492
 11
8.778184492
 21
-17.221815508
  0
LINE
  5
6C6
100
AcDbEntity
  8
DRAFT
100
AcDbLine
 62
7
  6
CONTINUOUS
 10
8.7867049498
 20
10.3132950502
 11
8.7867049498
 21
8.4867049498
  0
LINE
  5
6C7
100
AcDbEntity
  8
ASSI
100
AcDbLine
 62
7
  6
CONTINUOUS
 10
8.7867049498
 20
10.3132950502
 11
8.7867049498
 21
8.4867049498
  0
LINE
  5
6C8
100
AcDbEntity
  8
DRAFT
100
AcDbLine
 62
7
  6
CONTINUOUS
 10
8.7867049498
 20
-15.3867049498
 11
8.7867049498
 21
-17.2132950502
  0
LINE
  5
6C9
100
AcDbEntity
  8
ASSI
100
AcDbLine
 62
7
  6
CONTINUOUS
 10
8.7867049498
 20
-15.3867049498
 11
8.7867049498
 21
-17.2132950502
  0
LINE
  5
6CA
100
AcDbEntity
  8
RACCORDO
100
AcDbLine
 62
7
  6
CONTINUOUS
 10
8.860915679
 20
-13.7110827761
 11
8.860915679
 21
-11.8889172239
  0
LINE
  5
6CB
100
AcDbEntity
  8
ASSI
100
AcDbLine
 62
7
  6
CONTINUOUS
 10
8.860915679
 20
-13.7110827761
 11
8.860915679
 21
-11.8889172239
  0
LINE
  5
6CC
100
AcDbEntity
  8
RACCORDO
100
AcDbLine
 62
253
  6
CONTINUOUS
 10
9.05
 20
-2.2730841559
 11
9.05
 21
2.2730841559
  0
LINE
  5
6CD
100
AcDbEntity
  8
ASSI
100
AcDbLine
 62
253
  6
CONTINUOUS
 10
9.05
 20
-2.2730841559
 11
9.05
 21
2.2730841559
  0
LINE
  5
6CE
100
AcDbEntity
  8
DRAFT
100
AcDbLine
 62
7
  6
CONTINUOUS
 10
9.2216129175
 20
13.9130903017
 11
9.2216129175
 21
10.5375255315
  0
LINE
  5
6CF
100
AcDbEntity
  8
ASSI
100
AcDbLine
 62
7
  6
CONTINUOUS
 10
9.2216129175
 20
13.9130903017
 11
9.2216129175
 21
10.5375255315
  0
LINE
  5
6D0
100
AcDbEntity
  8
ASSI
100
AcDbLine
 62
7
  6
CONTINUOUS
 10
9.25
 20
6.6
 11
9.25
 21
5.0
  0
LINE
  5
6D1
100
AcDbEntity
  8
RACCORDO
100
AcDbLine
 62
253
  6
CONTINUOUS
 10
8.3
 20
23.4104851482
 11
8.304371834
 21
23.8443375673
  0
LINE
  5
6D2
100
AcDbEntity
  8
ASSI
100
AcDbLine
 62
253
  6
CONTINUOUS
 10
8.3
 20
23.4104851482
 11
8.304371834
 21
23.8443375673
  0
LINE
  5
6D3
100
AcDbEntity
  8
RACCORDO
100
AcDbLine
 62
253
  6
CONTINUOUS
 10
8.5492770021
 20
23.1226497308
 11
8.5543676032
 21
23.6278312164
  0
LINE
  5
6D4
100
AcDbEntity
  8
ASSI
100
AcDbLine
 62
253
  6
CONTINUOUS
 10
8.5492770021
 20
23.1226497308
 11
8.5543676032
 21
23.6278312164
  0
LINE
  5
6D5
100
AcDbEntity
  8
DRAFT
100
AcDbLine
 62
7
  6
CONTINUOUS
 10
11.0825449351
 20
15.6
 11
11.1
 21
15.6874886635
  0
LINE
  5
6D6
100
AcDbEntity
  8
ASSI
100
AcDbLine
 62
7
  6
CONTINUOUS
 10
11.0825449351
 20
15.6
 11
11.1
 21
15.6874886635
  0
LINE
  5
6D7
100
AcDbEntity
  8
0
100
AcDbLine
 62
7
  6
CONTINUOUS
 10
7.5
 20
-2.0
 11
6.1
 21
-5.0
  0
LINE
  5
6D8
100
AcDbEntity
  8
RACCORDO
100
AcDbLine
 62
7
  6
CONTINUOUS
 10
-4.4
 20
-22.35
 11
-4.3557656098
 21
-22.2836474789
  0
LINE
  5
6D9
100
AcDbEntity
  8
ASSI
100
AcDbLine
 62
7
  6
CONTINUOUS
 10
-4.4
 20
-22.35
 11
-4.3557656098
 21
-22.2836474789
  0
LINE
  5
6DA
100
AcDbEntity
  8
RACCORDO
100
AcDbLine
 62
7
  6
CONTINUOUS
 10
-7.7162893387
 20
-18.9662893387
 11
-7.75
 21
-19.0
  0
LINE
  5
6DB
100
AcDbEntity
  8
ASSI
100
AcDbLine
 62
7
  6
CONTINUOUS
 10
-7.7162893387
 20
-18.9662893387
 11
-7.75
 21
-19.0
  0
LINE
  5
6DC
100
AcDbEntity
  8
RACCORDO
100
AcDbLine
 62
7
  6
CONTINUOUS
 10
-7.9472576745
 20
-13.7108443418
 11
-7.7255647702
 21
-13.6
  0
LINE
  5
6DD
100
AcDbEntity
  8
ASSI
100
AcDbLine
 62
7
  6
CONTINUOUS
 10
-7.9472576745
 20
-13.7108443418
 11
-7.7255647702
 21
-13.6
  0
LINE
  5
6DE
100
AcDbEntity
  8
DRAFT
100
AcDbLine
 62
7
  6
CONTINUOUS
 10
9.55
 20
10.5244352298
 11
9.4522218454
 21
10.5
  0
LINE
  5
6DF
100
AcDbEntity
  8
ASSI
100
AcDbLine
 62
7
  6
CONTINUOUS
 10
9.55
 20
10.5244352298
 11
9.4522218454
 21
10.5
  0
LINE
  5
6E0
100
AcDbEntity
  8
DRAFT
100
AcDbLine
 62
7
  6
CONTINUOUS
 10
9.55
 20
8.4984599645
 11
8.7867049498
 21
8.4867049498
  0
LINE
  5
6E1
100
AcDbEntity
  8
ASSI
100
AcDbLine
 62
7
  6
CONTINUOUS
 10
9.55
 20
8.4984599645
 11
8.7867049498
 21
8.4867049498
  0
LINE
  5
6E2
100
AcDbEntity
  8
ASSI
100
AcDbLine
 62
7
  6
CONTINUOUS
 10
-3.2498277733
 20
7.65
 11
-2.2501722267
 21
7.65
  0
LINE
  5
6E3
100
AcDbEntity
  8
ASSI
100
AcDbLine
 62
7
  6
CONTINUOUS
 10
-1.7498277733
 20
7.65
 11
-0.7501722267
 21
7.65
  0
LINE
  5
6E4
100
AcDbEntity
  8
ASSI
100
AcDbLine
 62
7
  6
CONTINUOUS
 10
-0.2498277733
 20
7.65
 11
0.7498277733
 21
7.65
  0
LINE
  5
6E5
100
AcDbEntity
  8
ASSI
100
AcDbLine
 62
7
  6
CONTINUOUS
 10
1.2501722267
 20
7.65
 11
2.2498277733
 21
7.65
  0
LINE
  5
6E6
100
AcDbEntity
  8
ASSI
100
AcDbLine
 62
7
  6
CONTINUOUS
 10
2.7501722267
 20
7.65
 11
3.65
 21
7.65
  0
LINE
  5
6E7
100
AcDbEntity
  8
ASSI
100
AcDbLine
 62
7
  6
CONTINUOUS
 10
4.65
 20
7.65
 11
5.2498277733
 21
7.65
  0
LINE
  5
6E8
100
AcDbEntity
  8
RACCORDO
100
AcDbLine
 62
253
  6
CONTINUOUS
 10
9.5
 20
7.7312924592
 11
8.5109333469
 21
7.7312924592
  0
LINE
  5
6E9
100
AcDbEntity
  8
ASSI
100
AcDbLine
 62
253
  6
CONTINUOUS
 10
9.5
 20
7.7312924592
 11
8.5109333469
 21
7.7312924592
  0
LINE
  5
6EA
100
AcDbEntity
  8
RACCORDO
100
AcDbLine
 62
253
  6
CONTINUOUS
 10
-8.5109333469
 20
7.7312924592
 11
-9.5
 21
7.7312924592
  0
LINE
  5
6EB
100
AcDbEntity
  8
ASSI
100
AcDbLine
 62
253
  6
CONTINUOUS
 10
-8.5109333469
 20
7.7312924592
 11
-9.5
 21
7.7312924592
  0
LINE
  5
6EC
100
AcDbEntity
  8
DRAFT
100
AcDbLine
 62
7
  6
CONTINUOUS
 10
9.8414773842
 20
7.9085226158
 11
9.5872686779
 21
7.9085226158
  0
LINE
  5
6ED
100
AcDbEntity
  8
ASSI
100
AcDbLine
 62
7
  6
CONTINUOUS
 10
9.8414773842
 20
7.9085226158
 11
9.5872686779
 21
7.9085226158
  0
LINE
  5
6EE
100
AcDbEntity
  8
DRAFT
100
AcDbLine
 62
7
  6
CONTINUOUS
 10
-9.5872686779
 20
7.9085226158
 11
-9.8414773842
 21
7.9085226158
  0
LINE
  5
6EF
100
AcDbEntity
  8
ASSI
100
AcDbLine
 62
7
  6
CONTINUOUS
 10
-9.5872686779
 20
7.9085226158
 11
-9.8414773842
 21
7.9085226158
  0
LINE
  5
6F0
100
AcDbEntity
  8
DRAFT
100
AcDbLine
 62
7
  6
CONTINUOUS
 10
-9.5
 20
7.9957912937
 11
-8.5109333469
 21
7.9957912937
  0
LINE
  5
6F1
100
AcDbEntity
  8
ASSI
100
AcDbLine
 62
7
  6
CONTINUOUS
 10
-9.5
 20
7.9957912937
 11
-8.5109333469
 21
7.9957912937
  0
LINE
  5
6F2
100
AcDbEntity
  8
DRAFT
100
AcDbLine
 62
7
  6
CONTINUOUS
 10
9.5
 20
7.9957912937
 11
8.5109333469
 21
7.9957912937
  0
LINE
  5
6F3
100
AcDbEntity
  8
ASSI
100
AcDbLine
 62
7
  6
CONTINUOUS
 10
9.5
 20
7.9957912937
 11
8.5109333469
 21
7.9957912937
  0
LINE
  5
6F4
100
AcDbEntity
  8
ASSI
100
AcDbLine
 62
7
  6
CONTINUOUS
 10
4.6498277733
 20
8.2
 11
3.6501722267
 21
8.2
  0
LINE
  5
6F5
100
AcDbEntity
  8
ASSI
100
AcDbLine
 62
7
  6
CONTINUOUS
 10
-3.6501722267
 20
8.2
 11
-4.6498277733
 21
8.2
  0
LINE
  5
6F6
100
AcDbEntity
  8
DRAFT
100
AcDbLine
 62
7
  6
CONTINUOUS
 10
-9.4522218454
 20
8.2244352298
 11
-8.2822894108
 21
8.2244352298
  0
LINE
  5
6F7
100
AcDbEntity
  8
ASSI
100
AcDbLine
 62
7
  6
CONTINUOUS
 10
-9.4522218454
 20
8.2244352298
 11
-8.2822894108
 21
8.2244352298
  0
LINE
  5
6F8
100
AcDbEntity
  8
DRAFT
100
AcDbLine
 62
7
  6
CONTINUOUS
 10
9.4522218454
 20
8.2244352298
 11
8.2822894108
 21
8.2244352298
  0
LINE
  5
6F9
100
AcDbEntity
  8
ASSI
100
AcDbLine
 62
7
  6
CONTINUOUS
 10
9.4522218454
 20
8.2244352298
 11
8.2822894108
 21
8.2244352298
  0
LINE
  5
6FA
100
AcDbEntity
  8
DRAFT
100
AcDbLine
 62
7
  6
CONTINUOUS
 10
-9.55
 20
8.4781257119
 11
-8.778184492
 21
8.478184492
  0
LINE
  5
6FB
100
AcDbEntity
  8
ASSI
100
AcDbLine
 62
7
  6
CONTINUOUS
 10
-9.55
 20
8.4781257119
 11
-8.778184492
 21
8.478184492
  0
LINE
  5
6FC
100
AcDbEntity
  8
0
100
AcDbLine
 62
7
  6
CONTINUOUS
 10
-6.2
 20
8.5
 11
-5.5001461204
 21
8.5
  0
LINE
  5
6FD
100
AcDbEntity
  8
0
100
AcDbLine
 62
7
  6
CONTINUOUS
 10
6.2
 20
8.5
 11
5.5001461204
 21
8.5
  0
LINE
  5
6FE
100
AcDbEntity
  8
0
100
AcDbLine
 62
7
  6
CONTINUOUS
 10
6.8
 20
8.5
 11
7.4998538796
 21
8.5
  0
LINE
  5
6FF
100
AcDbEntity
  8
0
100
AcDbLine
 62
7
  6
CONTINUOUS
 10
-6.8
 20
8.5
 11
-7.4998538796
 21
8.5
  0
LINE
  5
700
100
AcDbEntity
  8
DRAFT
100
AcDbLine
 62
7
  6
CONTINUOUS
 10
-8.778184492
 20
8.75
 11
-8.2822894108
 21
8.75
  0
LINE
  5
701
100
AcDbEntity
  8
ASSI
100
AcDbLine
 62
7
  6
CONTINUOUS
 10
-8.778184492
 20
8.75
 11
-8.2822894108
 21
8.75
  0
LINE
  5
702
100
AcDbEntity
  8
DRAFT
100
AcDbLine
 62
7
  6
CONTINUOUS
 10
8.2822894108
 20
8.75
 11
8.778184492
 21
8.75
  0
LINE
  5
703
100
AcDbEntity
  8
ASSI
100
AcDbLine
 62
7
  6
CONTINUOUS
 10
8.2822894108
 20
8.75
 11
8.778184492
 21
8.75
  0
LINE
  5
704
100
AcDbEntity
  8
DRAFT
100
AcDbLine
 62
7
  6
CONTINUOUS
 10
8.778184492
 20
8.478184492
 11
9.55
 21
8.4781257119
  0
LINE
  5
705
100
AcDbEntity
  8
ASSI
100
AcDbLine
 62
7
  6
CONTINUOUS
 10
8.778184492
 20
8.478184492
 11
9.55
 21
8.4781257119
  0
LINE
  5
706
100
AcDbEntity
  8
DRAFT
100
AcDbLine
 62
7
  6
CONTINUOUS
 10
-8.7867049498
 20
8.4867049498
 11
-9.55
 21
8.4984599645
  0
LINE
  5
707
100
AcDbEntity
  8
ASSI
100
AcDbLine
 62
7
  6
CONTINUOUS
 10
-8.7867049498
 20
8.4867049498
 11
-9.55
 21
8.4984599645
  0
LINE
  5
708
100
AcDbEntity
  8
DRAFT
100
AcDbLine
 62
7
  6
CONTINUOUS
 10
-9.55
 20
10.5244352298
 11
-9.4522218454
 21
10.5
  0
LINE
  5
709
100
AcDbEntity
  8
ASSI
100
AcDbLine
 62
7
  6
CONTINUOUS
 10
-9.55
 20
10.5244352298
 11
-9.4522218454
 21
10.5
  0
LINE
  5
70A
100
AcDbEntity
  8
RACCORDO
100
AcDbLine
 62
7
  6
CONTINUOUS
 10
8.504012777
 20
4.6686770793
 11
8.2726898563
 21
4.9
  0
LINE
  5
70B
100
AcDbEntity
  8
ASSI
100
AcDbLine
 62
7
  6
CONTINUOUS
 10
8.504012777
 20
4.6686770793
 11
8.2726898563
 21
4.9
  0
LINE
  5
70C
100
AcDbEntity
  8
RACCORDO
100
AcDbLine
 62
7
  6
CONTINUOUS
 10
-4.4
 20
22.35
 11
-4.3557656098
 21
22.2836474789
  0
LINE
  5
70D
100
AcDbEntity
  8
ASSI
100
AcDbLine
 62
7
  6
CONTINUOUS
 10
-4.4
 20
22.35
 11
-4.3557656098
 21
22.2836474789
  0
LINE
  5
70E
100
AcDbEntity
  8
DRAFT
100
AcDbLine
 62
7
  6
CONTINUOUS
 10
8.25
 20
2.6710596363
 11
8.3355233043
 21
2.5
  0
LINE
  5
70F
100
AcDbEntity
  8
ASSI
100
AcDbLine
 62
7
  6
CONTINUOUS
 10
8.25
 20
2.6710596363
 11
8.3355233043
 21
2.5
  0
LINE
  5
710
100
AcDbEntity
  8
RACCORDO
100
AcDbLine
 62
7
  6
CONTINUOUS
 10
4.5602153878
 20
19.3
 11
4.5355517935
 21
19.4481131876
  0
LINE
  5
711
100
AcDbEntity
  8
ASSI
100
AcDbLine
 62
7
  6
CONTINUOUS
 10
4.5602153878
 20
19.3
 11
4.5355517935
 21
19.4481131876
  0
LINE
  5
712
100
AcDbEntity
  8
DRAFT
100
AcDbLine
 62
7
  6
CONTINUOUS
 10
9.55
 20
-4.2
 11
9.6285418101
 21
-6.2
  0
LINE
  5
713
100
AcDbEntity
  8
ASSI
100
AcDbLine
 62
7
  6
CONTINUOUS
 10
9.55
 20
-4.2
 11
9.6285418101
 21
-6.2
  0
LINE
  5
714
100
AcDbEntity
  8
RACCORDO
100
AcDbLine
 62
253
  6
CONTINUOUS
 10
10.3206323968
 20
23.6278312164
 11
10.3257229979
 21
23.1226497308
  0
LINE
  5
715
100
AcDbEntity
  8
ASSI
100
AcDbLine
 62
253
  6
CONTINUOUS
 10
10.3206323968
 20
23.6278312164
 11
10.3257229979
 21
23.1226497308
  0
LINE
  5
716
100
AcDbEntity
  8
RACCORDO
100
AcDbLine
 62
253
  6
CONTINUOUS
 10
10.570628166
 20
23.8443375673
 11
10.575
 21
23.4104851482
  0
LINE
  5
717
100
AcDbEntity
  8
ASSI
100
AcDbLine
 62
253
  6
CONTINUOUS
 10
10.570628166
 20
23.8443375673
 11
10.575
 21
23.4104851482
  0
LINE
  5
718
100
AcDbEntity
  8
0
100
AcDbLine
 62
7
  6
CONTINUOUS
 10
9.4
 20
6.7340347844
 11
9.4
 21
4.8659652156
  0
LINE
  5
719
100
AcDbEntity
  8
ASSI
100
AcDbLine
 62
7
  6
CONTINUOUS
 10
9.4
 20
6.7340347844
 11
9.4
 21
4.8659652156
  0
LINE
  5
71A
100
AcDbEntity
  8
DRAFT
100
AcDbLine
 62
7
  6
CONTINUOUS
 10
9.4522218454
 20
10.5
 11
9.4522218454
 21
10.3218668415
  0
LINE
  5
71B
100
AcDbEntity
  8
ASSI
100
AcDbLine
 62
7
  6
CONTINUOUS
 10
9.4522218454
 20
10.5
 11
9.4522218454
 21
10.3218668415
  0
LINE
  5
71C
100
AcDbEntity
  8
DRAFT
100
AcDbLine
 62
7
  6
CONTINUOUS
 10
9.4522218454
 20
8.4781331585
 11
9.4522218454
 21
8.2244352298
  0
LINE
  5
71D
100
AcDbEntity
  8
ASSI
100
AcDbLine
 62
7
  6
CONTINUOUS
 10
9.4522218454
 20
8.4781331585
 11
9.4522218454
 21
8.2244352298
  0
LINE
  5
71E
100
AcDbEntity
  8
DRAFT
100
AcDbLine
 62
7
  6
CONTINUOUS
 10
9.4522218454
 20
-15.1244352298
 11
9.4522218454
 21
-15.3781331585
  0
LINE
  5
71F
100
AcDbEntity
  8
ASSI
100
AcDbLine
 62
7
  6
CONTINUOUS
 10
9.4522218454
 20
-15.1244352298
 11
9.4522218454
 21
-15.3781331585
  0
LINE
  5
720
100
AcDbEntity
  8
DRAFT
100
AcDbLine
 62
7
  6
CONTINUOUS
 10
9.4522218454
 20
-17.2218668415
 11
9.4522218454
 21
-17.3755647702
  0
LINE
  5
721
100
AcDbEntity
  8
ASSI
100
AcDbLine
 62
7
  6
CONTINUOUS
 10
9.4522218454
 20
-17.2218668415
 11
9.4522218454
 21
-17.3755647702
  0
LINE
  5
722
100
AcDbEntity
  8
RACCORDO
100
AcDbLine
 62
7
  6
CONTINUOUS
 10
9.5
 20
7.9957912937
 11
9.5
 21
3.5508468051
  0
LINE
  5
723
100
AcDbEntity
  8
ASSI
100
AcDbLine
 62
7
  6
CONTINUOUS
 10
9.5
 20
7.9957912937
 11
9.5
 21
3.5508468051
  0
LINE
  5
724
100
AcDbEntity
  8
RACCORDO
100
AcDbLine
 62
7
  6
CONTINUOUS
 10
9.5
 20
-14.8957912937
 11
9.5
 21
-10.5508468051
  0
LINE
  5
725
100
AcDbEntity
  8
ASSI
100
AcDbLine
 62
7
  6
CONTINUOUS
 10
9.5
 20
-14.8957912937
 11
9.5
 21
-10.5508468051
  0
LINE
  5
726
100
AcDbEntity
  8
DRAFT
100
AcDbLine
 62
7
  6
CONTINUOUS
 10
9.5
 20
10.815912614
 11
9.5
 21
14.1914773842
  0
LINE
  5
727
100
AcDbEntity
  8
ASSI
100
AcDbLine
 62
7
  6
CONTINUOUS
 10
9.5
 20
10.815912614
 11
9.5
 21
14.1914773842
  0
LINE
  5
728
100
AcDbEntity
  8
SMUSSO
100
AcDbLine
 62
7
  6
CONTINUOUS
 10
9.5121049871
 20
-19.7326104146
 11
9.5121049871
 21
-19.0
  0
LINE
  5
729
100
AcDbEntity
  8
ASSI
100
AcDbLine
 62
7
  6
CONTINUOUS
 10
9.5121049871
 20
-19.7326104146
 11
9.5121049871
 21
-19.0
  0
LINE
  5
72A
100
AcDbEntity
  8
SMUSSO
100
AcDbLine
 62
7
  6
CONTINUOUS
 10
9.5121049871
 20
-17.3905298545
 11
9.5121049871
 21
-17.2218714021
  0
LINE
  5
72B
100
AcDbEntity
  8
ASSI
100
AcDbLine
 62
7
  6
CONTINUOUS
 10
9.5121049871
 20
-17.3905298545
 11
9.5121049871
 21
-17.2218714021
  0
LINE
  5
72C
100
AcDbEntity
  8
SMUSSO
100
AcDbLine
 62
7
  6
CONTINUOUS
 10
9.5121049871
 20
-15.3781285979
 11
9.5121049871
 21
-15.1094701455
  0
LINE
  5
72D
100
AcDbEntity
  8
ASSI
100
AcDbLine
 62
7
  6
CONTINUOUS
 10
9.5121049871
 20
-15.3781285979
 11
9.5121049871
 21
-15.1094701455
  0
LINE
  5
72E
100
AcDbEntity
  8
SMUSSO
100
AcDbLine
 62
7
  6
CONTINUOUS
 10
9.5121049871
 20
8.2094701455
 11
9.5121049871
 21
8.4781285979
  0
LINE
  5
72F
100
AcDbEntity
  8
ASSI
100
AcDbLine
 62
7
  6
CONTINUOUS
 10
9.5121049871
 20
8.2094701455
 11
9.5121049871
 21
8.4781285979
  0
LINE
  5
730
100
AcDbEntity
  8
SMUSSO
100
AcDbLine
 62
7
  6
CONTINUOUS
 10
9.5121049871
 20
10.3218714021
 11
9.5121049871
 21
10.5149650843
  0
LINE
  5
731
100
AcDbEntity
  8
ASSI
100
AcDbLine
 62
7
  6
CONTINUOUS
 10
9.5121049871
 20
10.3218714021
 11
9.5121049871
 21
10.5149650843
  0
LINE
  5
732
100
AcDbEntity
  8
DRAFT
100
AcDbLine
 62
7
  6
CONTINUOUS
 10
9.5330765644
 20
15.5
 11
9.5330765644
 21
16.8245437707
  0
LINE
  5
733
100
AcDbEntity
  8
ASSI
100
AcDbLine
 62
7
  6
CONTINUOUS
 10
9.5330765644
 20
15.5
 11
9.5330765644
 21
16.8245437707
  0
LINE
  5
734
100
AcDbEntity
  8
DRAFT
100
AcDbLine
 62
7
  6
CONTINUOUS
 10
9.5470151169
 20
19.3
 11
9.5470151169
 21
16.8315125162
  0
LINE
  5
735
100
AcDbEntity
  8
ASSI
100
AcDbLine
 62
7
  6
CONTINUOUS
 10
9.5470151169
 20
19.3
 11
9.5470151169
 21
16.8315125162
  0
LINE
  5
736
100
AcDbEntity
  8
DRAFT
100
AcDbLine
 62
7
  6
CONTINUOUS
 10
9.55
 20
-15.1
 11
9.55
 21
-17.4
  0
LINE
  5
737
100
AcDbEntity
  8
ASSI
100
AcDbLine
 62
7
  6
CONTINUOUS
 10
9.55
 20
-15.1
 11
9.55
 21
-17.4
  0
LINE
  5
738
100
AcDbEntity
  8
DRAFT
100
AcDbLine
 62
7
  6
CONTINUOUS
 10
9.55
 20
-10.2
 11
9.55
 21
-4.2
  0
LINE
  5
739
100
AcDbEntity
  8
ASSI
100
AcDbLine
 62
7
  6
CONTINUOUS
 10
9.55
 20
-10.2
 11
9.55
 21
-4.2
  0
LINE
  5
73A
100
AcDbEntity
  8
DRAFT
100
AcDbLine
 62
7
  6
CONTINUOUS
 10
9.55
 20
8.2
 11
9.55
 21
10.5244352298
  0
LINE
  5
73B
100
AcDbEntity
  8
ASSI
100
AcDbLine
 62
7
  6
CONTINUOUS
 10
9.55
 20
8.2
 11
9.55
 21
10.5244352298
  0
LINE
  5
73C
100
AcDbEntity
  8
DRAFT
100
AcDbLine
 62
7
  6
CONTINUOUS
 10
9.5872686779
 20
-14.8085226158
 11
9.5872686779
 21
-10.7253974543
  0
LINE
  5
73D
100
AcDbEntity
  8
ASSI
100
AcDbLine
 62
7
  6
CONTINUOUS
 10
9.5872686779
 20
-14.8085226158
 11
9.5872686779
 21
-10.7253974543
  0
LINE
  5
73E
100
AcDbEntity
  8
DRAFT
100
AcDbLine
 62
7
  6
CONTINUOUS
 10
9.5872686779
 20
3.7253974543
 11
9.5872686779
 21
7.9085226158
  0
LINE
  5
73F
100
AcDbEntity
  8
ASSI
100
AcDbLine
 62
7
  6
CONTINUOUS
 10
9.5872686779
 20
3.7253974543
 11
9.5872686779
 21
7.9085226158
  0
LINE
  5
740
100
AcDbEntity
  8
RACCORDO
100
AcDbLine
 62
7
  6
CONTINUOUS
 10
9.6046168312
 20
20.0103716448
 11
9.6046168312
 21
19.947427955
  0
LINE
  5
741
100
AcDbEntity
  8
ASSI
100
AcDbLine
 62
7
  6
CONTINUOUS
 10
9.6046168312
 20
20.0103716448
 11
9.6046168312
 21
19.947427955
  0
LINE
  5
742
100
AcDbEntity
  8
DRAFT
100
AcDbLine
 62
7
  6
CONTINUOUS
 10
9.6285418101
 20
-6.2
 11
9.6285418101
 21
-10.3570955844
  0
LINE
  5
743
100
AcDbEntity
  8
ASSI
100
AcDbLine
 62
7
  6
CONTINUOUS
 10
9.6285418101
 20
-6.2
 11
9.6285418101
 21
-10.3570955844
  0
LINE
  5
744
100
AcDbEntity
  8
DRAFT
100
AcDbLine
 62
7
  6
CONTINUOUS
 10
9.65
 20
15.6
 11
9.65
 21
15.5
  0
LINE
  5
745
100
AcDbEntity
  8
ASSI
100
AcDbLine
 62
7
  6
CONTINUOUS
 10
9.65
 20
15.6
 11
9.65
 21
15.5
  0
LINE
  5
746
100
AcDbEntity
  8
DRAFT
100
AcDbLine
 62
7
  6
CONTINUOUS
 10
9.65
 20
-19.0
 11
9.65
 21
-19.1
  0
LINE
  5
747
100
AcDbEntity
  8
ASSI
100
AcDbLine
 62
7
  6
CONTINUOUS
 10
9.65
 20
-19.0
 11
9.65
 21
-19.1
  0
LINE
  5
748
100
AcDbEntity
  8
DRAFT
100
AcDbLine
 62
7
  6
CONTINUOUS
 10
9.6674550649
 20
20.1990396502
 11
9.6674550649
 21
15.6874886635
  0
LINE
  5
749
100
AcDbEntity
  8
ASSI
100
AcDbLine
 62
7
  6
CONTINUOUS
 10
9.6674550649
 20
20.1990396502
 11
9.6674550649
 21
15.6874886635
  0
LINE
  5
74A
100
AcDbEntity
  8
DRAFT
100
AcDbLine
 62
7
  6
CONTINUOUS
 10
9.6674550649
 20
-19.1874886635
 11
9.6674550649
 21
-20.1990396502
  0
LINE
  5
74B
100
AcDbEntity
  8
ASSI
100
AcDbLine
 62
7
  6
CONTINUOUS
 10
9.6674550649
 20
-19.1874886635
 11
9.6674550649
 21
-20.1990396502
  0
LINE
  5
74C
100
AcDbEntity
  8
DRAFT
100
AcDbLine
 62
7
  6
CONTINUOUS
 10
9.7730841559
 20
-2.2730841559
 11
9.7730841559
 21
2.2730841559
  0
LINE
  5
74D
100
AcDbEntity
  8
ASSI
100
AcDbLine
 62
7
  6
CONTINUOUS
 10
9.7730841559
 20
-2.2730841559
 11
9.7730841559
 21
2.2730841559
  0
LINE
  5
74E
100
AcDbEntity
  8
DRAFT
100
AcDbLine
 62
7
  6
CONTINUOUS
 10
9.8414773842
 20
10.815912614
 11
9.8414773842
 21
7.9085226158
  0
LINE
  5
74F
100
AcDbEntity
  8
ASSI
100
AcDbLine
 62
7
  6
CONTINUOUS
 10
9.8414773842
 20
10.815912614
 11
9.8414773842
 21
7.9085226158
  0
LINE
  5
750
100
AcDbEntity
  8
DRAFT
100
AcDbLine
 62
7
  6
CONTINUOUS
 10
9.8414773842
 20
-14.8085226158
 11
9.8414773842
 21
-17.6914773842
  0
LINE
  5
751
100
AcDbEntity
  8
ASSI
100
AcDbLine
 62
7
  6
CONTINUOUS
 10
9.8414773842
 20
-14.8085226158
 11
9.8414773842
 21
-17.6914773842
  0
LINE
  5
752
100
AcDbEntity
  8
DRAFT
100
AcDbLine
 62
7
  6
CONTINUOUS
 10
10.0
 20
-2.5
 11
10.0
 21
-0.5
  0
LINE
  5
753
100
AcDbEntity
  8
ASSI
100
AcDbLine
 62
7
  6
CONTINUOUS
 10
10.0
 20
-2.5
 11
10.0
 21
-0.5
  0
LINE
  5
754
100
AcDbEntity
  8
DRAFT
100
AcDbLine
 62
7
  6
CONTINUOUS
 10
10.0
 20
0.5
 11
10.0
 21
2.5
  0
LINE
  5
755
100
AcDbEntity
  8
ASSI
100
AcDbLine
 62
7
  6
CONTINUOUS
 10
10.0
 20
0.5
 11
10.0
 21
2.5
  0
LINE
  5
756
100
AcDbEntity
  8
RACCORDO
100
AcDbLine
 62
253
  6
CONTINUOUS
 10
10.3206323968
 20
-23.7
 11
10.3206323968
 21
-24.495628166
  0
LINE
  5
757
100
AcDbEntity
  8
ASSI
100
AcDbLine
 62
253
  6
CONTINUOUS
 10
10.3206323968
 20
-23.7
 11
10.3206323968
 21
-24.495628166
  0
LINE
  5
758
100
AcDbEntity
  8
RACCORDO
100
AcDbLine
 62
253
  6
CONTINUOUS
 10
10.3206323968
 20
23.6278312164
 11
10.3206323968
 21
24.495628166
  0
LINE
  5
759
100
AcDbEntity
  8
ASSI
100
AcDbLine
 62
253
  6
CONTINUOUS
 10
10.3206323968
 20
23.6278312164
 11
10.3206323968
 21
24.495628166
  0
LINE
  5
75A
100
AcDbEntity
  8
RACCORDO
100
AcDbLine
 62
253
  6
CONTINUOUS
 10
10.570628166
 20
-24.2456323968
 11
10.570628166
 21
-23.8443375673
  0
LINE
  5
75B
100
AcDbEntity
  8
ASSI
100
AcDbLine
 62
7
  6
CONTINUOUS
 10
10.570628166
 20
-24.2456323968
 11
10.570628166
 21
-23.8443375673
  0
LINE
  5
75C
100
AcDbEntity
  8
RACCORDO
100
AcDbLine
 62
253
  6
CONTINUOUS
 10
10.570628166
 20
23.8443375673
 11
10.570628166
 21
24.2456323968
  0
LINE
  5
75D
100
AcDbEntity
  8
ASSI
100
AcDbLine
 62
7
  6
CONTINUOUS
 10
10.570628166
 20
23.8443375673
 11
10.570628166
 21
24.2456323968
  0
LINE
  5
75E
100
AcDbEntity
  8
RACCORDO
100
AcDbLine
 62
7
  6
CONTINUOUS
 10
10.575
 20
-22.35
 11
10.575
 21
-23.8443375673
  0
LINE
  5
75F
100
AcDbEntity
  8
ASSI
100
AcDbLine
 62
7
  6
CONTINUOUS
 10
10.575
 20
-22.35
 11
10.575
 21
-23.8443375673
  0
LINE
  5
760
100
AcDbEntity
  8
RACCORDO
100
AcDbLine
 62
7
  6
CONTINUOUS
 10
10.575
 20
22.35
 11
10.575
 21
23.8443375673
  0
LINE
  5
761
100
AcDbEntity
  8
ASSI
100
AcDbLine
 62
7
  6
CONTINUOUS
 10
10.575
 20
22.35
 11
10.575
 21
23.8443375673
  0
LINE
  5
762
100
AcDbEntity
  8
DRAFT
100
AcDbLine
 62
7
  6
CONTINUOUS
 10
10.8085226158
 20
15.2085226158
 11
10.8085226158
 21
3.7253974543
  0
LINE
  5
763
100
AcDbEntity
  8
ASSI
100
AcDbLine
 62
7
  6
CONTINUOUS
 10
10.8085226158
 20
15.2085226158
 11
10.8085226158
 21
3.7253974543
  0
LINE
  5
764
100
AcDbEntity
  8
DRAFT
100
AcDbLine
 62
7
  6
CONTINUOUS
 10
10.8085226158
 20
-10.7253974543
 11
10.8085226158
 21
-18.7085226158
  0
LINE
  5
765
100
AcDbEntity
  8
ASSI
100
AcDbLine
 62
7
  6
CONTINUOUS
 10
10.8085226158
 20
-10.7253974543
 11
10.8085226158
 21
-18.7085226158
  0
LINE
  5
766
100
AcDbEntity
  8
DRAFT
100
AcDbLine
 62
7
  6
CONTINUOUS
 10
10.9926595262
 20
-6.2
 11
10.9926595262
 21
-10.3570955844
  0
LINE
  5
767
100
AcDbEntity
  8
ASSI
100
AcDbLine
 62
7
  6
CONTINUOUS
 10
10.9926595262
 20
-6.2
 11
10.9926595262
 21
-10.3570955844
  0
LINE
  5
768
100
AcDbEntity
  8
DRAFT
100
AcDbLine
 62
7
  6
CONTINUOUS
 10
11.0712013363
 20
3.2
 11
11.0712013363
 21
-4.2
  0
LINE
  5
769
100
AcDbEntity
  8
ASSI
100
AcDbLine
 62
7
  6
CONTINUOUS
 10
11.0712013363
 20
3.2
 11
11.0712013363
 21
-4.2
  0
LINE
  5
76A
100
AcDbEntity
  8
DRAFT
100
AcDbLine
 62
7
  6
CONTINUOUS
 10
11.0825449351
 20
15.6
 11
11.0825449351
 21
15.5
  0
LINE
  5
76B
100
AcDbEntity
  8
ASSI
100
AcDbLine
 62
7
  6
CONTINUOUS
 10
11.0825449351
 20
15.6
 11
11.0825449351
 21
15.5
  0
LINE
  5
76C
100
AcDbEntity
  8
DRAFT
100
AcDbLine
 62
7
  6
CONTINUOUS
 10
11.0825449351
 20
-19.0
 11
11.0825449351
 21
-19.1
  0
LINE
  5
76D
100
AcDbEntity
  8
ASSI
100
AcDbLine
 62
7
  6
CONTINUOUS
 10
11.0825449351
 20
-19.0
 11
11.0825449351
 21
-19.1
  0
LINE
  5
76E
100
AcDbEntity
  8
DRAFT
100
AcDbLine
 62
7
  6
CONTINUOUS
 10
11.1
 20
21.8411779406
 11
11.1
 21
15.6874886635
  0
LINE
  5
76F
100
AcDbEntity
  8
ASSI
100
AcDbLine
 62
7
  6
CONTINUOUS
 10
11.1
 20
21.8411779406
 11
11.1
 21
15.6874886635
  0
LINE
  5
770
100
AcDbEntity
  8
DRAFT
100
AcDbLine
 62
7
  6
CONTINUOUS
 10
11.1
 20
15.5
 11
11.1
 21
-19.0
  0
LINE
  5
771
100
AcDbEntity
  8
ASSI
100
AcDbLine
 62
7
  6
CONTINUOUS
 10
11.1
 20
15.5
 11
11.1
 21
-19.0
  0
LINE
  5
772
100
AcDbEntity
  8
DRAFT
100
AcDbLine
 62
7
  6
CONTINUOUS
 10
11.1
 20
-19.1874886635
 11
11.1
 21
-21.8411779406
  0
LINE
  5
773
100
AcDbEntity
  8
ASSI
100
AcDbLine
 62
7
  6
CONTINUOUS
 10
11.1
 20
-19.1874886635
 11
11.1
 21
-21.8411779406
  0
LINE
  5
774
100
AcDbEntity
  8
RACCORDO
100
AcDbLine
 62
253
  6
CONTINUOUS
 10
10.3257229979
 20
-23.1226497308
 11
10.3199051681
 21
-23.7
  0
LINE
  5
775
100
AcDbEntity
  8
ASSI
100
AcDbLine
 62
253
  6
CONTINUOUS
 10
10.3257229979
 20
-23.1226497308
 11
10.3199051681
 21
-23.7
  0
LINE
  5
776
100
AcDbEntity
  8
RACCORDO
100
AcDbLine
 62
253
  6
CONTINUOUS
 10
10.575
 20
-23.4104851482
 11
10.570628166
 21
-23.8443375673
  0
LINE
  5
777
100
AcDbEntity
  8
ASSI
100
AcDbLine
 62
253
  6
CONTINUOUS
 10
10.575
 20
-23.4104851482
 11
10.570628166
 21
-23.8443375673
  0
LINE
  5
778
100
AcDbEntity
  8
DRAFT
100
AcDbLine
 62
7
  6
CONTINUOUS
 10
7.2988376746
 20
-20.9104703804
 11
7.3517786853
 21
-20.4335707644
  0
LINE
  5
779
100
AcDbEntity
  8
ASSI
100
AcDbLine
 62
7
  6
CONTINUOUS
 10
7.2988376746
 20
-20.9104703804
 11
7.3517786853
 21
-20.4335707644
  0
LINE
  5
77A
100
AcDbEntity
  8
DRAFT
100
AcDbLine
 62
7
  6
CONTINUOUS
 10
-9.4522218454
 20
8.2244352298
 11
-9.55
 21
8.2
  0
LINE
  5
77B
100
AcDbEntity
  8
ASSI
100
AcDbLine
 62
7
  6
CONTINUOUS
 10
-9.4522218454
 20
8.2244352298
 11
-9.55
 21
8.2
  0
LINE
  5
77C
100
AcDbEntity
  8
DRAFT
100
AcDbLine
 62
7
  6
CONTINUOUS
 10
-8.7867049498
 20
10.3132950502
 11
-9.55
 21
10.3015400355
  0
LINE
  5
77D
100
AcDbEntity
  8
ASSI
100
AcDbLine
 62
7
  6
CONTINUOUS
 10
-8.7867049498
 20
10.3132950502
 11
-9.55
 21
10.3015400355
  0
LINE
  5
77E
100
AcDbEntity
  8
DRAFT
100
AcDbLine
 62
7
  6
CONTINUOUS
 10
-8.778184492
 20
9.95
 11
-8.2822894108
 21
9.95
  0
LINE
  5
77F
100
AcDbEntity
  8
ASSI
100
AcDbLine
 62
7
  6
CONTINUOUS
 10
-8.778184492
 20
9.95
 11
-8.2822894108
 21
9.95
  0
LINE
  5
780
100
AcDbEntity
  8
DRAFT
100
AcDbLine
 62
7
  6
CONTINUOUS
 10
8.2822894108
 20
9.95
 11
8.778184492
 21
9.95
  0
LINE
  5
781
100
AcDbEntity
  8
ASSI
100
AcDbLine
 62
7
  6
CONTINUOUS
 10
8.2822894108
 20
9.95
 11
8.778184492
 21
9.95
  0
LINE
  5
782
100
AcDbEntity
  8
DRAFT
100
AcDbLine
 62
7
  6
CONTINUOUS
 10
8.25
 20
10.0
 11
-8.25
 21
10.0
  0
LINE
  5
783
100
AcDbEntity
  8
ASSI
100
AcDbLine
 62
7
  6
CONTINUOUS
 10
8.25
 20
10.0
 11
-8.25
 21
10.0
  0
LINE
  5
784
100
AcDbEntity
  8
DRAFT
100
AcDbLine
 62
7
  6
CONTINUOUS
 10
-8.2822894108
 20
10.0322894108
 11
8.2822894108
 21
10.0322894108
  0
LINE
  5
785
100
AcDbEntity
  8
ASSI
100
AcDbLine
 62
7
  6
CONTINUOUS
 10
-8.2822894108
 20
10.0322894108
 11
8.2822894108
 21
10.0322894108
  0
LINE
  5
786
100
AcDbEntity
  8
DRAFT
100
AcDbLine
 62
7
  6
CONTINUOUS
 10
8.778184492
 20
10.321815508
 11
9.55
 21
10.3218742881
  0
LINE
  5
787
100
AcDbEntity
  8
ASSI
100
AcDbLine
 62
7
  6
CONTINUOUS
 10
8.778184492
 20
10.321815508
 11
9.55
 21
10.3218742881
  0
LINE
  5
788
100
AcDbEntity
  8
DRAFT
100
AcDbLine
 62
7
  6
CONTINUOUS
 10
9.4522218454
 20
10.5
 11
8.2822894108
 21
10.5
  0
LINE
  5
789
100
AcDbEntity
  8
ASSI
100
AcDbLine
 62
7
  6
CONTINUOUS
 10
9.4522218454
 20
10.5
 11
8.2822894108
 21
10.5
  0
LINE
  5
78A
100
AcDbEntity
  8
DRAFT
100
AcDbLine
 62
7
  6
CONTINUOUS
 10
-8.2822894108
 20
10.5
 11
-9.4522218454
 21
10.5
  0
LINE
  5
78B
100
AcDbEntity
  8
ASSI
100
AcDbLine
 62
7
  6
CONTINUOUS
 10
-8.2822894108
 20
10.5
 11
-9.4522218454
 21
10.5
  0
LINE
  5
78C
100
AcDbEntity
  8
DRAFT
100
AcDbLine
 62
7
  6
CONTINUOUS
 10
-9.2216129175
 20
10.5375255315
 11
-8.3198149423
 21
10.5375255315
  0
LINE
  5
78D
100
AcDbEntity
  8
ASSI
100
AcDbLine
 62
7
  6
CONTINUOUS
 10
-9.2216129175
 20
10.5375255315
 11
-8.3198149423
 21
10.5375255315
  0
LINE
  5
78E
100
AcDbEntity
  8
DRAFT
100
AcDbLine
 62
7
  6
CONTINUOUS
 10
9.2216129175
 20
10.5375255315
 11
8.3198149423
 21
10.5375255315
  0
LINE
  5
78F
100
AcDbEntity
  8
ASSI
100
AcDbLine
 62
7
  6
CONTINUOUS
 10
9.2216129175
 20
10.5375255315
 11
8.3198149423
 21
10.5375255315
  0
LINE
  5
790
100
AcDbEntity
  8
DRAFT
100
AcDbLine
 62
7
  6
CONTINUOUS
 10
9.8414773842
 20
10.815912614
 11
9.5
 21
10.815912614
  0
LINE
  5
791
100
AcDbEntity
  8
ASSI
100
AcDbLine
 62
7
  6
CONTINUOUS
 10
9.8414773842
 20
10.815912614
 11
9.5
 21
10.815912614
  0
LINE
  5
792
100
AcDbEntity
  8
DRAFT
100
AcDbLine
 62
7
  6
CONTINUOUS
 10
-9.5
 20
10.815912614
 11
-9.8414773842
 21
10.815912614
  0
LINE
  5
793
100
AcDbEntity
  8
ASSI
100
AcDbLine
 62
7
  6
CONTINUOUS
 10
-9.5
 20
10.815912614
 11
-9.8414773842
 21
10.815912614
  0
LINE
  5
794
100
AcDbEntity
  8
DRAFT
100
AcDbLine
 62
7
  6
CONTINUOUS
 10
-8.2822894108
 20
10.9677105892
 11
5.5
 21
10.9677105892
  0
LINE
  5
795
100
AcDbEntity
  8
ASSI
100
AcDbLine
 62
7
  6
CONTINUOUS
 10
-8.2822894108
 20
10.9677105892
 11
5.5
 21
10.9677105892
  0
LINE
  5
796
100
AcDbEntity
  8
DRAFT
100
AcDbLine
 62
7
  6
CONTINUOUS
 10
-8.2569814942
 20
10.9930185058
 11
5.4746920834
 21
10.9930185058
  0
LINE
  5
797
100
AcDbEntity
  8
ASSI
100
AcDbLine
 62
7
  6
CONTINUOUS
 10
-8.2569814942
 20
10.9930185058
 11
5.4746920834
 21
10.9930185058
  0
LINE
  5
798
100
AcDbEntity
  8
DRAFT
100
AcDbLine
 62
7
  6
CONTINUOUS
 10
-9.55
 20
10.3218742881
 11
-8.778184492
 21
10.321815508
  0
LINE
  5
799
100
AcDbEntity
  8
ASSI
100
AcDbLine
 62
7
  6
CONTINUOUS
 10
-9.55
 20
10.3218742881
 11
-8.778184492
 21
10.321815508
  0
LINE
  5
79A
100
AcDbEntity
  8
DRAFT
100
AcDbLine
 62
7
  6
CONTINUOUS
 10
9.55
 20
10.3015400355
 11
8.7867049498
 21
10.3132950502
  0
LINE
  5
79B
100
AcDbEntity
  8
ASSI
100
AcDbLine
 62
7
  6
CONTINUOUS
 10
9.55
 20
10.3015400355
 11
8.7867049498
 21
10.3132950502
  0
LINE
  5
79C
100
AcDbEntity
  8
DRAFT
100
AcDbLine
 62
7
  6
CONTINUOUS
 10
9.4522218454
 20
8.2244352298
 11
9.55
 21
8.2
  0
LINE
  5
79D
100
AcDbEntity
  8
ASSI
100
AcDbLine
 62
7
  6
CONTINUOUS
 10
9.4522218454
 20
8.2244352298
 11
9.55
 21
8.2
  0
LINE
  5
79E
100
AcDbEntity
  8
DRAFT
100
AcDbLine
 62
7
  6
CONTINUOUS
 10
8.2726898563
 20
6.7
 11
8.25
 21
6.7226898563
  0
LINE
  5
79F
100
AcDbEntity
  8
ASSI
100
AcDbLine
 62
7
  6
CONTINUOUS
 10
8.2726898563
 20
6.7
 11
8.25
 21
6.7226898563
  0
LINE
  5
7A0
100
AcDbEntity
  8
0
100
AcDbLine
 62
7
  6
CONTINUOUS
 10
8.1
 20
7.5
 11
7.5
 21
8.5
  0
LINE
  5
7A1
100
AcDbEntity
  8
RACCORDO
100
AcDbLine
 62
7
  6
CONTINUOUS
 10
9.4
 20
4.8659652156
 11
9.4966110309
 21
4.6686770793
  0
LINE
  5
7A2
100
AcDbEntity
  8
ASSI
100
AcDbLine
 62
7
  6
CONTINUOUS
 10
9.4
 20
4.8659652156
 11
9.4966110309
 21
4.6686770793
  0
LINE
  5
7A3
100
AcDbEntity
  8
RACCORDO
100
AcDbLine
 62
7
  6
CONTINUOUS
 10
7.3237008614
 20
19.4481131876
 11
7.3401430257
 21
19.3
  0
LINE
  5
7A4
100
AcDbEntity
  8
ASSI
100
AcDbLine
 62
7
  6
CONTINUOUS
 10
7.3237008614
 20
19.4481131876
 11
7.3401430257
 21
19.3
  0
LINE
  5
7A5
100
AcDbEntity
  8
0
100
AcDbLine
 62
7
  6
CONTINUOUS
 10
7.3209441873
 20
20.7113319946
 11
7.2988376746
 21
20.9104703804
  0
LINE
  5
7A6
100
AcDbEntity
  8
ASSI
100
AcDbLine
 62
7
  6
CONTINUOUS
 10
7.3209441873
 20
20.7113319946
 11
7.2988376746
 21
20.9104703804
  0
LINE
  5
7A7
100
AcDbEntity
  8
DRAFT
100
AcDbLine
 62
7
  6
CONTINUOUS
 10
11.0712013363
 20
-4.2
 11
10.9926595262
 21
-6.2
  0
LINE
  5
7A8
100
AcDbEntity
  8
ASSI
100
AcDbLine
 62
7
  6
CONTINUOUS
 10
11.0712013363
 20
-4.2
 11
10.9926595262
 21
-6.2
  0
LINE
  5
7A9
100
AcDbEntity
  8
DRAFT
100
AcDbLine
 62
7
  6
CONTINUOUS
 10
6.0
 20
14.0160673416
 11
6.7019074668
 21
14.1914773842
  0
LINE
  5
7AA
100
AcDbEntity
  8
ASSI
100
AcDbLine
 62
7
  6
CONTINUOUS
 10
6.0
 20
14.0160673416
 11
6.7019074668
 21
14.1914773842
  0
LINE
  5
7AB
100
AcDbEntity
  8
DRAFT
100
AcDbLine
 62
7
  6
CONTINUOUS
 10
-8.2569814942
 20
11.4825462644
 11
5.4746920834
 21
11.4825462644
  0
LINE
  5
7AC
100
AcDbEntity
  8
ASSI
100
AcDbLine
 62
7
  6
CONTINUOUS
 10
-8.2569814942
 20
11.4825462644
 11
5.4746920834
 21
11.4825462644
  0
LINE
  5
7AD
100
AcDbEntity
  8
DRAFT
100
AcDbLine
 62
7
  6
CONTINUOUS
 10
-6.0
 20
14.0160673416
 11
-6.7019074668
 21
14.1914773842
  0
LINE
  5
7AE
100
AcDbEntity
  8
ASSI
100
AcDbLine
 62
7
  6
CONTINUOUS
 10
-6.0
 20
14.0160673416
 11
-6.7019074668
 21
14.1914773842
  0
LINE
  5
7AF
100
AcDbEntity
  8
DRAFT
100
AcDbLine
 62
7
  6
CONTINUOUS
 10
-3.5226915844
 20
15.6
 11
-3.503491013
 21
15.5904004454
  0
LINE
  5
7B0
100
AcDbEntity
  8
ASSI
100
AcDbLine
 62
7
  6
CONTINUOUS
 10
-3.5226915844
 20
15.6
 11
-3.503491013
 21
15.5904004454
  0
LINE
  5
7B1
100
AcDbEntity
  8
DRAFT
100
AcDbLine
 62
7
  6
CONTINUOUS
 10
-3.5453831688
 20
16.2
 11
-3.5226915844
 21
16.1886550719
  0
LINE
  5
7B2
100
AcDbEntity
  8
ASSI
100
AcDbLine
 62
7
  6
CONTINUOUS
 10
-3.5453831688
 20
16.2
 11
-3.5226915844
 21
16.1886550719
  0
LINE
  5
7B3
100
AcDbEntity
  8
DRAFT
100
AcDbLine
 62
7
  6
CONTINUOUS
 10
5.5
 20
10.9677105892
 11
5.4746920834
 21
10.9930185058
  0
LINE
  5
7B4
100
AcDbEntity
  8
ASSI
100
AcDbLine
 62
7
  6
CONTINUOUS
 10
5.5
 20
10.9677105892
 11
5.4746920834
 21
10.9930185058
  0
LINE
  5
7B5
100
AcDbEntity
  8
DRAFT
100
AcDbLine
 62
7
  6
CONTINUOUS
 10
8.5109333469
 20
7.9957912937
 11
8.2822894108
 21
8.2244352298
  0
LINE
  5
7B6
100
AcDbEntity
  8
ASSI
100
AcDbLine
 62
7
  6
CONTINUOUS
 10
8.5109333469
 20
7.9957912937
 11
8.2822894108
 21
8.2244352298
  0
LINE
  5
7B7
100
AcDbEntity
  8
DRAFT
100
AcDbLine
 62
7
  6
CONTINUOUS
 10
9.5872686779
 20
7.9085226158
 11
9.5
 21
7.9957912937
  0
LINE
  5
7B8
100
AcDbEntity
  8
ASSI
100
AcDbLine
 62
7
  6
CONTINUOUS
 10
9.5872686779
 20
7.9085226158
 11
9.5
 21
7.9957912937
  0
LINE
  5
7B9
100
AcDbEntity
  8
DRAFT
100
AcDbLine
 62
7
  6
CONTINUOUS
 10
9.8414773842
 20
7.9085226158
 11
9.55
 21
8.2
  0
LINE
  5
7BA
100
AcDbEntity
  8
ASSI
100
AcDbLine
 62
7
  6
CONTINUOUS
 10
9.8414773842
 20
7.9085226158
 11
9.55
 21
8.2
  0
LINE
  5
7BB
100
AcDbEntity
  8
DRAFT
100
AcDbLine
 62
7
  6
CONTINUOUS
 10
11.0712013363
 20
3.2
 11
10.8085226158
 21
3.7253974543
  0
LINE
  5
7BC
100
AcDbEntity
  8
ASSI
100
AcDbLine
 62
7
  6
CONTINUOUS
 10
11.0712013363
 20
3.2
 11
10.8085226158
 21
3.7253974543
  0
LINE
  5
7BD
100
AcDbEntity
  8
DRAFT
100
AcDbLine
 62
7
  6
CONTINUOUS
 10
8.25
 20
-20.9
 11
8.2465127091
 21
-20.9104703804
  0
LINE
  5
7BE
100
AcDbEntity
  8
ASSI
100
AcDbLine
 62
7
  6
CONTINUOUS
 10
8.25
 20
-20.9
 11
8.2465127091
 21
-20.9104703804
  0
LINE
  5
7BF
100
AcDbEntity
  8
DRAFT
100
AcDbLine
 62
7
  6
CONTINUOUS
 10
10.9926595262
 20
-10.3570955844
 11
10.8085226158
 21
-10.7253974543
  0
LINE
  5
7C0
100
AcDbEntity
  8
ASSI
100
AcDbLine
 62
7
  6
CONTINUOUS
 10
10.9926595262
 20
-10.3570955844
 11
10.8085226158
 21
-10.7253974543
  0
LINE
  5
7C1
100
AcDbEntity
  8
ASSI
100
AcDbLine
 62
7
  6
CONTINUOUS
 10
-4.4
 20
-23.8
 11
-4.3563493531
 21
-23.7563493531
  0
LINE
  5
7C2
100
AcDbEntity
  8
RACCORDO
100
AcDbLine
 62
7
  6
CONTINUOUS
 10
8.75
 20
-12.0
 11
8.8608443418
 21
-11.8891556582
  0
LINE
  5
7C3
100
AcDbEntity
  8
ASSI
100
AcDbLine
 62
7
  6
CONTINUOUS
 10
8.75
 20
-12.0
 11
8.8608443418
 21
-11.8891556582
  0
LINE
  5
7C4
100
AcDbEntity
  8
RACCORDO
100
AcDbLine
 62
7
  6
CONTINUOUS
 10
7.9472576745
 20
-11.8891556582
 11
7.7255647702
 21
-12.0
  0
LINE
  5
7C5
100
AcDbEntity
  8
ASSI
100
AcDbLine
 62
7
  6
CONTINUOUS
 10
7.9472576745
 20
-11.8891556582
 11
7.7255647702
 21
-12.0
  0
LINE
  5
7C6
100
AcDbEntity
  8
DRAFT
100
AcDbLine
 62
7
  6
CONTINUOUS
 10
-8.0
 20
13.7
 11
5.4921462821
 21
13.7
  0
LINE
  5
7C7
100
AcDbEntity
  8
ASSI
100
AcDbLine
 62
7
  6
CONTINUOUS
 10
-8.0
 20
13.7
 11
5.4921462821
 21
13.7
  0
LINE
  5
7C8
100
AcDbEntity
  8
DRAFT
100
AcDbLine
 62
7
  6
CONTINUOUS
 10
5.4825462644
 20
13.8502568536
 11
-8.2569814942
 21
13.8502568536
  0
LINE
  5
7C9
100
AcDbEntity
  8
ASSI
100
AcDbLine
 62
7
  6
CONTINUOUS
 10
5.4825462644
 20
13.8502568536
 11
-8.2569814942
 21
13.8502568536
  0
LINE
  5
7CA
100
AcDbEntity
  8
DRAFT
100
AcDbLine
 62
7
  6
CONTINUOUS
 10
5.5
 20
13.8755647702
 11
8.2822894108
 21
13.8755647702
  0
LINE
  5
7CB
100
AcDbEntity
  8
ASSI
100
AcDbLine
 62
7
  6
CONTINUOUS
 10
5.5
 20
13.8755647702
 11
8.2822894108
 21
13.8755647702
  0
LINE
  5
7CC
100
AcDbEntity
  8
DRAFT
100
AcDbLine
 62
7
  6
CONTINUOUS
 10
9.2216129175
 20
13.9130903017
 11
8.3198149423
 21
13.9130903017
  0
LINE
  5
7CD
100
AcDbEntity
  8
ASSI
100
AcDbLine
 62
7
  6
CONTINUOUS
 10
9.2216129175
 20
13.9130903017
 11
8.3198149423
 21
13.9130903017
  0
LINE
  5
7CE
100
AcDbEntity
  8
DRAFT
100
AcDbLine
 62
7
  6
CONTINUOUS
 10
-8.3198149423
 20
13.9130903017
 11
-9.2216129175
 21
13.9130903017
  0
LINE
  5
7CF
100
AcDbEntity
  8
ASSI
100
AcDbLine
 62
7
  6
CONTINUOUS
 10
-8.3198149423
 20
13.9130903017
 11
-9.2216129175
 21
13.9130903017
  0
LINE
  5
7D0
100
AcDbEntity
  8
DRAFT
100
AcDbLine
 62
7
  6
CONTINUOUS
 10
6.0
 20
14.0160673416
 11
-6.0
 21
14.0160673416
  0
LINE
  5
7D1
100
AcDbEntity
  8
ASSI
100
AcDbLine
 62
7
  6
CONTINUOUS
 10
6.0
 20
14.0160673416
 11
-6.0
 21
14.0160673416
  0
LINE
  5
7D2
100
AcDbEntity
  8
DRAFT
100
AcDbLine
 62
7
  6
CONTINUOUS
 10
-9.5
 20
14.1914773842
 11
-6.7019074668
 21
14.1914773842
  0
LINE
  5
7D3
100
AcDbEntity
  8
ASSI
100
AcDbLine
 62
7
  6
CONTINUOUS
 10
-9.5
 20
14.1914773842
 11
-6.7019074668
 21
14.1914773842
  0
LINE
  5
7D4
100
AcDbEntity
  8
DRAFT
100
AcDbLine
 62
7
  6
CONTINUOUS
 10
6.7019074668
 20
14.1914773842
 11
9.5
 21
14.1914773842
  0
LINE
  5
7D5
100
AcDbEntity
  8
ASSI
100
AcDbLine
 62
7
  6
CONTINUOUS
 10
6.7019074668
 20
14.1914773842
 11
9.5
 21
14.1914773842
  0
LINE
  5
7D6
100
AcDbEntity
  8
DRAFT
100
AcDbLine
 62
7
  6
CONTINUOUS
 10
8.7867049498
 20
10.3132950502
 11
8.778184492
 21
10.321815508
  0
LINE
  5
7D7
100
AcDbEntity
  8
ASSI
100
AcDbLine
 62
7
  6
CONTINUOUS
 10
8.7867049498
 20
10.3132950502
 11
8.778184492
 21
10.321815508
  0
LINE
  5
7D8
100
AcDbEntity
  8
ASSI
100
AcDbLine
 62
7
  6
CONTINUOUS
 10
-4.4
 20
23.8
 11
-4.3563493531
 21
23.7563493531
  0
LINE
  5
7D9
100
AcDbEntity
  8
DRAFT
100
AcDbLine
 62
7
  6
CONTINUOUS
 10
8.2465127091
 20
20.9104703804
 11
8.25
 21
20.9
  0
LINE
  5
7DA
100
AcDbEntity
  8
ASSI
100
AcDbLine
 62
7
  6
CONTINUOUS
 10
8.2465127091
 20
20.9104703804
 11
8.25
 21
20.9
  0
LINE
  5
7DB
100
AcDbEntity
  8
DRAFT
100
AcDbLine
 62
7
  6
CONTINUOUS
 10
7.6932753594
 20
-13.7322894108
 11
7.7255647702
 21
-13.7
  0
LINE
  5
7DC
100
AcDbEntity
  8
ASSI
100
AcDbLine
 62
7
  6
CONTINUOUS
 10
7.6932753594
 20
-13.7322894108
 11
7.7255647702
 21
-13.7
  0
LINE
  5
7DD
100
AcDbEntity
  8
DRAFT
100
AcDbLine
 62
7
  6
CONTINUOUS
 10
7.9542087063
 20
-14.8957912937
 11
7.7255647702
 21
-15.1244352298
  0
LINE
  5
7DE
100
AcDbEntity
  8
ASSI
100
AcDbLine
 62
7
  6
CONTINUOUS
 10
7.9542087063
 20
-14.8957912937
 11
7.7255647702
 21
-15.1244352298
  0
LINE
  5
7DF
100
AcDbEntity
  8
DRAFT
100
AcDbLine
 62
7
  6
CONTINUOUS
 10
-6.0
 20
15.3839326584
 11
-6.7019074668
 21
15.2085226158
  0
LINE
  5
7E0
100
AcDbEntity
  8
ASSI
100
AcDbLine
 62
7
  6
CONTINUOUS
 10
-6.0
 20
15.3839326584
 11
-6.7019074668
 21
15.2085226158
  0
LINE
  5
7E1
100
AcDbEntity
  8
DRAFT
100
AcDbLine
 62
7
  6
CONTINUOUS
 10
10.8085226158
 20
15.2085226158
 11
6.7019074668
 21
15.2085226158
  0
LINE
  5
7E2
100
AcDbEntity
  8
ASSI
100
AcDbLine
 62
7
  6
CONTINUOUS
 10
10.8085226158
 20
15.2085226158
 11
6.7019074668
 21
15.2085226158
  0
LINE
  5
7E3
100
AcDbEntity
  8
DRAFT
100
AcDbLine
 62
7
  6
CONTINUOUS
 10
-6.7019074668
 20
15.2085226158
 11
-10.8085226158
 21
15.2085226158
  0
LINE
  5
7E4
100
AcDbEntity
  8
ASSI
100
AcDbLine
 62
7
  6
CONTINUOUS
 10
-6.7019074668
 20
15.2085226158
 11
-10.8085226158
 21
15.2085226158
  0
LINE
  5
7E5
100
AcDbEntity
  8
DRAFT
100
AcDbLine
 62
7
  6
CONTINUOUS
 10
6.0
 20
15.3839326584
 11
-6.0
 21
15.3839326584
  0
LINE
  5
7E6
100
AcDbEntity
  8
ASSI
100
AcDbLine
 62
7
  6
CONTINUOUS
 10
6.0
 20
15.3839326584
 11
-6.0
 21
15.3839326584
  0
LINE
  5
7E7
100
AcDbEntity
  8
DRAFT
100
AcDbLine
 62
7
  6
CONTINUOUS
 10
11.1
 20
15.5
 11
-11.1
 21
15.5
  0
LINE
  5
7E8
100
AcDbEntity
  8
ASSI
100
AcDbLine
 62
7
  6
CONTINUOUS
 10
11.1
 20
15.5
 11
-11.1
 21
15.5
  0
LINE
  5
7E9
100
AcDbEntity
  8
DRAFT
100
AcDbLine
 62
7
  6
CONTINUOUS
 10
-3.503491013
 20
15.5904004454
 11
-3.4
 21
15.5904004454
  0
LINE
  5
7EA
100
AcDbEntity
  8
ASSI
100
AcDbLine
 62
7
  6
CONTINUOUS
 10
-3.503491013
 20
15.5904004454
 11
-3.4
 21
15.5904004454
  0
LINE
  5
7EB
100
AcDbEntity
  8
DRAFT
100
AcDbLine
 62
7
  6
CONTINUOUS
 10
3.4
 20
15.5904004454
 11
3.503491013
 21
15.5904004454
  0
LINE
  5
7EC
100
AcDbEntity
  8
ASSI
100
AcDbLine
 62
7
  6
CONTINUOUS
 10
3.4
 20
15.5904004454
 11
3.503491013
 21
15.5904004454
  0
LINE
  5
7ED
100
AcDbEntity
  8
RACCORDO
100
AcDbLine
 62
7
  6
CONTINUOUS
 10
3.5157095584
 20
15.5965092529
 11
3.4
 21
15.5965092529
  0
LINE
  5
7EE
100
AcDbEntity
  8
RACCORDO
100
AcDbLine
 62
7
  6
CONTINUOUS
 10
-3.4
 20
15.5965092529
 11
-3.5157095584
 21
15.5965092529
  0
LINE
  5
7EF
100
AcDbEntity
  8
DRAFT
100
AcDbLine
 62
7
  6
CONTINUOUS
 10
-11.0825449351
 20
15.6
 11
-9.65
 21
15.6
  0
LINE
  5
7F0
100
AcDbEntity
  8
ASSI
100
AcDbLine
 62
7
  6
CONTINUOUS
 10
-11.0825449351
 20
15.6
 11
-9.65
 21
15.6
  0
LINE
  5
7F1
100
AcDbEntity
  8
RACCORDO
100
AcDbLine
 62
7
  6
CONTINUOUS
 10
3.5226915844
 20
15.6
 11
3.4
 21
15.6
  0
LINE
  5
7F2
100
AcDbEntity
  8
RACCORDO
100
AcDbLine
 62
7
  6
CONTINUOUS
 10
-3.4
 20
15.6
 11
-3.5226915844
 21
15.6
  0
LINE
  5
7F3
100
AcDbEntity
  8
DRAFT
100
AcDbLine
 62
7
  6
CONTINUOUS
 10
9.65
 20
15.6
 11
11.0825449351
 21
15.6
  0
LINE
  5
7F4
100
AcDbEntity
  8
ASSI
100
AcDbLine
 62
7
  6
CONTINUOUS
 10
9.65
 20
15.6
 11
11.0825449351
 21
15.6
  0
LINE
  5
7F5
100
AcDbEntity
  8
DRAFT
100
AcDbLine
 62
7
  6
CONTINUOUS
 10
-11.1
 20
15.6874886635
 11
-9.6674550649
 21
15.6874886635
  0
LINE
  5
7F6
100
AcDbEntity
  8
ASSI
100
AcDbLine
 62
7
  6
CONTINUOUS
 10
-11.1
 20
15.6874886635
 11
-9.6674550649
 21
15.6874886635
  0
LINE
  5
7F7
100
AcDbEntity
  8
DRAFT
100
AcDbLine
 62
7
  6
CONTINUOUS
 10
9.6674550649
 20
15.6874886635
 11
11.1
 21
15.6874886635
  0
LINE
  5
7F8
100
AcDbEntity
  8
ASSI
100
AcDbLine
 62
7
  6
CONTINUOUS
 10
9.6674550649
 20
15.6874886635
 11
11.1
 21
15.6874886635
  0
LINE
  5
7F9
100
AcDbEntity
  8
DRAFT
100
AcDbLine
 62
7
  6
CONTINUOUS
 10
3.5226915844
 20
16.1886550719
 11
-3.5226915844
 21
16.1886550719
  0
LINE
  5
7FA
100
AcDbEntity
  8
ASSI
100
AcDbLine
 62
7
  6
CONTINUOUS
 10
3.5226915844
 20
16.1886550719
 11
-3.5226915844
 21
16.1886550719
  0
LINE
  5
7FB
100
AcDbEntity
  8
DRAFT
100
AcDbLine
 62
7
  6
CONTINUOUS
 10
3.5453831688
 20
16.2
 11
-3.5453831688
 21
16.2
  0
LINE
  5
7FC
100
AcDbEntity
  8
ASSI
100
AcDbLine
 62
7
  6
CONTINUOUS
 10
3.5453831688
 20
16.2
 11
-3.5453831688
 21
16.2
  0
LINE
  5
7FD
100
AcDbEntity
  8
DRAFT
100
AcDbLine
 62
7
  6
CONTINUOUS
 10
6.0
 20
15.3839326584
 11
6.7019074668
 21
15.2085226158
  0
LINE
  5
7FE
100
AcDbEntity
  8
ASSI
100
AcDbLine
 62
7
  6
CONTINUOUS
 10
6.0
 20
15.3839326584
 11
6.7019074668
 21
15.2085226158
  0
LINE
  5
7FF
100
AcDbEntity
  8
RACCORDO
100
AcDbLine
 62
253
  6
CONTINUOUS
 10
4.2043367793
 20
17.2956746438
 11
4.2602268108
 21
17.2397846122
  0
LINE
  5
800
100
AcDbEntity
  8
ASSI
100
AcDbLine
 62
253
  6
CONTINUOUS
 10
4.2043367793
 20
17.2956746438
 11
4.2602268108
 21
17.2397846122
  0
LINE
  5
801
100
AcDbEntity
  8
DRAFT
100
AcDbLine
 62
7
  6
CONTINUOUS
 10
5.0
 20
16.8245437707
 11
4.9930312545
 21
16.8315125162
  0
LINE
  5
802
100
AcDbEntity
  8
ASSI
100
AcDbLine
 62
7
  6
CONTINUOUS
 10
5.0
 20
16.8245437707
 11
4.9930312545
 21
16.8315125162
  0
LINE
  5
803
100
AcDbEntity
  8
RACCORDO
100
AcDbLine
 62
253
  6
CONTINUOUS
 10
4.5043253562
 20
17.5956632207
 11
4.5602153878
 21
17.5397731892
  0
LINE
  5
804
100
AcDbEntity
  8
ASSI
100
AcDbLine
 62
253
  6
CONTINUOUS
 10
4.5043253562
 20
17.5956632207
 11
4.5602153878
 21
17.5397731892
  0
LINE
  5
805
100
AcDbEntity
  8
RACCORDO
100
AcDbLine
 62
7
  6
CONTINUOUS
 10
8.0840245667
 20
-21.6833288495
 11
8.25
 21
-21.4
  0
LINE
  5
806
100
AcDbEntity
  8
ASSI
100
AcDbLine
 62
7
  6
CONTINUOUS
 10
8.0840245667
 20
-21.6833288495
 11
8.25
 21
-21.4
  0
LINE
  5
807
100
AcDbEntity
  8
RACCORDO
100
AcDbLine
 62
7
  6
CONTINUOUS
 10
7.2429784985
 20
-20.9942603263
 11
7.2988376746
 21
-20.9104703804
  0
LINE
  5
808
100
AcDbEntity
  8
ASSI
100
AcDbLine
 62
7
  6
CONTINUOUS
 10
7.2429784985
 20
-20.9942603263
 11
7.2988376746
 21
-20.9104703804
  0
LINE
  5
809
100
AcDbEntity
  8
DRAFT
100
AcDbLine
 62
7
  6
CONTINUOUS
 10
9.5872686779
 20
-14.8085226158
 11
9.5
 21
-14.8957912937
  0
LINE
  5
80A
100
AcDbEntity
  8
ASSI
100
AcDbLine
 62
7
  6
CONTINUOUS
 10
9.5872686779
 20
-14.8085226158
 11
9.5
 21
-14.8957912937
  0
LINE
  5
80B
100
AcDbEntity
  8
DRAFT
100
AcDbLine
 62
7
  6
CONTINUOUS
 10
9.8414773842
 20
-14.8085226158
 11
9.55
 21
-15.1
  0
LINE
  5
80C
100
AcDbEntity
  8
ASSI
100
AcDbLine
 62
7
  6
CONTINUOUS
 10
9.8414773842
 20
-14.8085226158
 11
9.55
 21
-15.1
  0
LINE
  5
80D
100
AcDbEntity
  8
DRAFT
100
AcDbLine
 62
7
  6
CONTINUOUS
 10
3.0722163905
 20
-21.6277836095
 11
3.0
 21
-21.7
  0
LINE
  5
80E
100
AcDbEntity
  8
ASSI
100
AcDbLine
 62
7
  6
CONTINUOUS
 10
3.0722163905
 20
-21.6277836095
 11
3.0
 21
-21.7
  0
LINE
  5
80F
100
AcDbEntity
  8
RACCORDO
100
AcDbLine
 62
7
  6
CONTINUOUS
 10
3.0786179654
 20
-22.2626551668
 11
3.0
 21
-22.3412731322
  0
LINE
  5
810
100
AcDbEntity
  8
ASSI
100
AcDbLine
 62
7
  6
CONTINUOUS
 10
3.0786179654
 20
-22.2626551668
 11
3.0
 21
-22.3412731322
  0
LINE
  5
811
100
AcDbEntity
  8
RACCORDO
100
AcDbLine
 62
7
  6
CONTINUOUS
 10
3.5
 20
-22.3412731322
 11
3.5576357838
 21
-22.2836373484
  0
LINE
  5
812
100
AcDbEntity
  8
ASSI
100
AcDbLine
 62
7
  6
CONTINUOUS
 10
3.5
 20
-22.3412731322
 11
3.5576357838
 21
-22.2836373484
  0
LINE
  5
813
100
AcDbEntity
  8
DRAFT
100
AcDbLine
 62
7
  6
CONTINUOUS
 10
8.7867049498
 20
-17.2132950502
 11
8.778184492
 21
-17.221815508
  0
LINE
  5
814
100
AcDbEntity
  8
ASSI
100
AcDbLine
 62
7
  6
CONTINUOUS
 10
8.7867049498
 20
-17.2132950502
 11
8.778184492
 21
-17.221815508
  0
LINE
  5
815
100
AcDbEntity
  8
DRAFT
100
AcDbLine
 62
7
  6
CONTINUOUS
 10
9.5330765644
 20
16.8245437707
 11
5.0
 21
16.8245437707
  0
LINE
  5
816
100
AcDbEntity
  8
ASSI
100
AcDbLine
 62
7
  6
CONTINUOUS
 10
9.5330765644
 20
16.8245437707
 11
5.0
 21
16.8245437707
  0
LINE
  5
817
100
AcDbEntity
  8
DRAFT
100
AcDbLine
 62
7
  6
CONTINUOUS
 10
4.9930312545
 20
16.8315125162
 11
9.5470151169
 21
16.8315125162
  0
LINE
  5
818
100
AcDbEntity
  8
ASSI
100
AcDbLine
 62
7
  6
CONTINUOUS
 10
4.9930312545
 20
16.8315125162
 11
9.5470151169
 21
16.8315125162
  0
LINE
  5
819
100
AcDbEntity
  8
RACCORDO
100
AcDbLine
 62
7
  6
CONTINUOUS
 10
-4.2602268108
 20
17.2397846122
 11
4.2602268108
 21
17.2397846122
  0
LINE
  5
81A
100
AcDbEntity
  8
ASSI
100
AcDbLine
 62
7
  6
CONTINUOUS
 10
-4.2602268108
 20
17.2397846122
 11
4.2602268108
 21
17.2397846122
  0
LINE
  5
81B
100
AcDbEntity
  8
RACCORDO
100
AcDbLine
 62
253
  6
CONTINUOUS
 10
-4.2043367793
 20
17.2956746438
 11
4.2043367793
 21
17.2956746438
  0
LINE
  5
81C
100
AcDbEntity
  8
ASSI
100
AcDbLine
 62
7
  6
CONTINUOUS
 10
-4.2043367793
 20
17.2956746438
 11
4.2043367793
 21
17.2956746438
  0
LINE
  5
81D
100
AcDbEntity
  8
RACCORDO
100
AcDbLine
 62
253
  6
CONTINUOUS
 10
-4.5025952137
 20
17.7956556053
 11
4.5025952137
 21
17.7956556053
  0
LINE
  5
81E
100
AcDbEntity
  8
ASSI
100
AcDbLine
 62
253
  6
CONTINUOUS
 10
-4.5025952137
 20
17.7956556053
 11
4.5025952137
 21
17.7956556053
  0
LINE
  5
81F
100
AcDbEntity
  8
RACCORDO
100
AcDbLine
 62
7
  6
CONTINUOUS
 10
4.531416724
 20
19.968583276
 11
4.5025952137
 21
19.9974047863
  0
LINE
  5
820
100
AcDbEntity
  8
ASSI
100
AcDbLine
 62
7
  6
CONTINUOUS
 10
4.531416724
 20
19.968583276
 11
4.5025952137
 21
19.9974047863
  0
LINE
  5
821
100
AcDbEntity
  8
DRAFT
100
AcDbLine
 62
7
  6
CONTINUOUS
 10
3.0722163905
 20
21.6277836095
 11
3.0
 21
21.7
  0
LINE
  5
822
100
AcDbEntity
  8
ASSI
100
AcDbLine
 62
7
  6
CONTINUOUS
 10
3.0722163905
 20
21.6277836095
 11
3.0
 21
21.7
  0
LINE
  5
823
100
AcDbEntity
  8
RACCORDO
100
AcDbLine
 62
7
  6
CONTINUOUS
 10
3.0786179654
 20
22.2626551668
 11
3.0
 21
22.3412731322
  0
LINE
  5
824
100
AcDbEntity
  8
ASSI
100
AcDbLine
 62
7
  6
CONTINUOUS
 10
3.0786179654
 20
22.2626551668
 11
3.0
 21
22.3412731322
  0
LINE
  5
825
100
AcDbEntity
  8
RACCORDO
100
AcDbLine
 62
7
  6
CONTINUOUS
 10
3.5
 20
22.3412731322
 11
3.5576357838
 21
22.2836373484
  0
LINE
  5
826
100
AcDbEntity
  8
ASSI
100
AcDbLine
 62
7
  6
CONTINUOUS
 10
3.5
 20
22.3412731322
 11
3.5576357838
 21
22.2836373484
  0
LINE
  5
827
100
AcDbEntity
  8
RACCORDO
100
AcDbLine
 62
7
  6
CONTINUOUS
 10
7.2429784985
 20
20.9942603263
 11
7.2988376746
 21
20.9104703804
  0
LINE
  5
828
100
AcDbEntity
  8
ASSI
100
AcDbLine
 62
7
  6
CONTINUOUS
 10
7.2429784985
 20
20.9942603263
 11
7.2988376746
 21
20.9104703804
  0
LINE
  5
829
100
AcDbEntity
  8
RACCORDO
100
AcDbLine
 62
7
  6
CONTINUOUS
 10
8.0840245667
 20
21.6833288495
 11
8.25
 21
21.4
  0
LINE
  5
82A
100
AcDbEntity
  8
ASSI
100
AcDbLine
 62
7
  6
CONTINUOUS
 10
8.0840245667
 20
21.6833288495
 11
8.25
 21
21.4
  0
LINE
  5
82B
100
AcDbEntity
  8
DRAFT
100
AcDbLine
 62
7
  6
CONTINUOUS
 10
7.75
 20
-19.0
 11
7.7979977728
 21
-18.9520022272
  0
LINE
  5
82C
100
AcDbEntity
  8
ASSI
100
AcDbLine
 62
7
  6
CONTINUOUS
 10
7.75
 20
-19.0
 11
7.7979977728
 21
-18.9520022272
  0
LINE
  5
82D
100
AcDbEntity
  8
DRAFT
100
AcDbLine
 62
7
  6
CONTINUOUS
 10
-9.5470151169
 20
19.3
 11
-7.3401430257
 21
19.3
  0
LINE
  5
82E
100
AcDbEntity
  8
ASSI
100
AcDbLine
 62
7
  6
CONTINUOUS
 10
-9.5470151169
 20
19.3
 11
-7.3401430257
 21
19.3
  0
LINE
  5
82F
100
AcDbEntity
  8
DRAFT
100
AcDbLine
 62
7
  6
CONTINUOUS
 10
-6.4598569743
 20
19.3
 11
-4.5602153878
 21
19.3
  0
LINE
  5
830
100
AcDbEntity
  8
ASSI
100
AcDbLine
 62
7
  6
CONTINUOUS
 10
-6.4598569743
 20
19.3
 11
-4.5602153878
 21
19.3
  0
LINE
  5
831
100
AcDbEntity
  8
DRAFT
100
AcDbLine
 62
7
  6
CONTINUOUS
 10
4.5602153878
 20
19.3
 11
6.4598569743
 21
19.3
  0
LINE
  5
832
100
AcDbEntity
  8
ASSI
100
AcDbLine
 62
7
  6
CONTINUOUS
 10
4.5602153878
 20
19.3
 11
6.4598569743
 21
19.3
  0
LINE
  5
833
100
AcDbEntity
  8
DRAFT
100
AcDbLine
 62
7
  6
CONTINUOUS
 10
7.3401430257
 20
19.3
 11
9.5470151169
 21
19.3
  0
LINE
  5
834
100
AcDbEntity
  8
ASSI
100
AcDbLine
 62
7
  6
CONTINUOUS
 10
7.3401430257
 20
19.3
 11
9.5470151169
 21
19.3
  0
LINE
  5
835
100
AcDbEntity
  8
RACCORDO
100
AcDbLine
 62
253
  6
CONTINUOUS
 10
-9.5963460625
 20
19.4481131876
 11
-7.3237008614
 21
19.4481131876
  0
LINE
  5
836
100
AcDbEntity
  8
ASSI
100
AcDbLine
 62
253
  6
CONTINUOUS
 10
-9.5963460625
 20
19.4481131876
 11
-7.3237008614
 21
19.4481131876
  0
LINE
  5
837
100
AcDbEntity
  8
RACCORDO
100
AcDbLine
 62
253
  6
CONTINUOUS
 10
-6.4762991386
 20
19.4481131876
 11
-4.5355517935
 21
19.4481131876
  0
LINE
  5
838
100
AcDbEntity
  8
ASSI
100
AcDbLine
 62
253
  6
CONTINUOUS
 10
-6.4762991386
 20
19.4481131876
 11
-4.5355517935
 21
19.4481131876
  0
LINE
  5
839
100
AcDbEntity
  8
RACCORDO
100
AcDbLine
 62
253
  6
CONTINUOUS
 10
4.5355517935
 20
19.4481131876
 11
6.4762991386
 21
19.4481131876
  0
LINE
  5
83A
100
AcDbEntity
  8
ASSI
100
AcDbLine
 62
253
  6
CONTINUOUS
 10
4.5355517935
 20
19.4481131876
 11
6.4762991386
 21
19.4481131876
  0
LINE
  5
83B
100
AcDbEntity
  8
RACCORDO
100
AcDbLine
 62
253
  6
CONTINUOUS
 10
7.3237008614
 20
19.4481131876
 11
9.5963460625
 21
19.4481131876
  0
LINE
  5
83C
100
AcDbEntity
  8
ASSI
100
AcDbLine
 62
253
  6
CONTINUOUS
 10
7.3237008614
 20
19.4481131876
 11
9.5963460625
 21
19.4481131876
  0
LINE
  5
83D
100
AcDbEntity
  8
RACCORDO
100
AcDbLine
 62
253
  6
CONTINUOUS
 10
-7.2429784985
 20
19.9267239376
 11
-7.0429818832
 21
19.9267239376
  0
LINE
  5
83E
100
AcDbEntity
  8
ASSI
100
AcDbLine
 62
253
  6
CONTINUOUS
 10
-7.2429784985
 20
19.9267239376
 11
-7.0429818832
 21
19.9267239376
  0
LINE
  5
83F
100
AcDbEntity
  8
RACCORDO
100
AcDbLine
 62
253
  6
CONTINUOUS
 10
6.7570181168
 20
19.9267239376
 11
6.5570215015
 21
19.9267239376
  0
LINE
  5
840
100
AcDbEntity
  8
ASSI
100
AcDbLine
 62
253
  6
CONTINUOUS
 10
6.7570181168
 20
19.9267239376
 11
6.5570215015
 21
19.9267239376
  0
LINE
  5
841
100
AcDbEntity
  8
RACCORDO
100
AcDbLine
 62
253
  6
CONTINUOUS
 10
-6.5570215015
 20
19.9267239376
 11
-6.7570181168
 21
19.9267239376
  0
LINE
  5
842
100
AcDbEntity
  8
ASSI
100
AcDbLine
 62
253
  6
CONTINUOUS
 10
-6.5570215015
 20
19.9267239376
 11
-6.7570181168
 21
19.9267239376
  0
LINE
  5
843
100
AcDbEntity
  8
RACCORDO
100
AcDbLine
 62
253
  6
CONTINUOUS
 10
7.0429818832
 20
19.9267239376
 11
7.2429784985
 21
19.9267239376
  0
LINE
  5
844
100
AcDbEntity
  8
ASSI
100
AcDbLine
 62
253
  6
CONTINUOUS
 10
7.0429818832
 20
19.9267239376
 11
7.2429784985
 21
19.9267239376
  0
LINE
  5
845
100
AcDbEntity
  8
RACCORDO
100
AcDbLine
 62
253
  6
CONTINUOUS
 10
-9.6046168312
 20
19.947427955
 11
-7.3209441873
 21
19.947427955
  0
LINE
  5
846
100
AcDbEntity
  8
ASSI
100
AcDbLine
 62
253
  6
CONTINUOUS
 10
-9.6046168312
 20
19.947427955
 11
-7.3209441873
 21
19.947427955
  0
LINE
  5
847
100
AcDbEntity
  8
RACCORDO
100
AcDbLine
 62
253
  6
CONTINUOUS
 10
-6.4790558127
 20
19.947427955
 11
-4.531416724
 21
19.947427955
  0
LINE
  5
848
100
AcDbEntity
  8
ASSI
100
AcDbLine
 62
253
  6
CONTINUOUS
 10
-6.4790558127
 20
19.947427955
 11
-4.531416724
 21
19.947427955
  0
LINE
  5
849
100
AcDbEntity
  8
RACCORDO
100
AcDbLine
 62
253
  6
CONTINUOUS
 10
4.531416724
 20
19.947427955
 11
6.4790558127
 21
19.947427955
  0
LINE
  5
84A
100
AcDbEntity
  8
ASSI
100
AcDbLine
 62
253
  6
CONTINUOUS
 10
4.531416724
 20
19.947427955
 11
6.4790558127
 21
19.947427955
  0
LINE
  5
84B
100
AcDbEntity
  8
RACCORDO
100
AcDbLine
 62
253
  6
CONTINUOUS
 10
7.3209441873
 20
19.947427955
 11
9.6046168312
 21
19.947427955
  0
LINE
  5
84C
100
AcDbEntity
  8
ASSI
100
AcDbLine
 62
253
  6
CONTINUOUS
 10
7.3209441873
 20
19.947427955
 11
9.6046168312
 21
19.947427955
  0
LINE
  5
84D
100
AcDbEntity
  8
DRAFT
100
AcDbLine
 62
7
  6
CONTINUOUS
 10
6.4790558127
 20
19.968583276
 11
4.531416724
 21
19.968583276
  0
LINE
  5
84E
100
AcDbEntity
  8
ASSI
100
AcDbLine
 62
7
  6
CONTINUOUS
 10
6.4790558127
 20
19.968583276
 11
4.531416724
 21
19.968583276
  0
LINE
  5
84F
100
AcDbEntity
  8
DRAFT
100
AcDbLine
 62
7
  6
CONTINUOUS
 10
-4.531416724
 20
19.968583276
 11
-6.4790558127
 21
19.968583276
  0
LINE
  5
850
100
AcDbEntity
  8
ASSI
100
AcDbLine
 62
7
  6
CONTINUOUS
 10
-4.531416724
 20
19.968583276
 11
-6.4790558127
 21
19.968583276
  0
LINE
  5
851
100
AcDbEntity
  8
RACCORDO
100
AcDbLine
 62
7
  6
CONTINUOUS
 10
-4.2026066368
 20
20.0
 11
4.2026066368
 21
20.0
  0
LINE
  5
852
100
AcDbEntity
  8
ASSI
100
AcDbLine
 62
7
  6
CONTINUOUS
 10
-4.2026066368
 20
20.0
 11
4.2026066368
 21
20.0
  0
LINE
  5
853
100
AcDbEntity
  8
RACCORDO
100
AcDbLine
 62
253
  6
CONTINUOUS
 10
-6.555294768
 20
20.0829433217
 11
6.555294768
 21
20.0829433217
  0
LINE
  5
854
100
AcDbEntity
  8
ASSI
100
AcDbLine
 62
7
  6
CONTINUOUS
 10
-6.555294768
 20
20.0829433217
 11
6.555294768
 21
20.0829433217
  0
LINE
  5
855
100
AcDbEntity
  8
SMUSSO
100
AcDbLine
 62
7
  6
CONTINUOUS
 10
8.8119986495
 20
-20.4335707644
 11
9.5121049871
 21
-19.7326104146
  0
LINE
  5
856
100
AcDbEntity
  8
ASSI
100
AcDbLine
 62
7
  6
CONTINUOUS
 10
8.8119986495
 20
-20.4335707644
 11
9.5121049871
 21
-19.7326104146
  0
LINE
  5
857
100
AcDbEntity
  8
SMUSSO
100
AcDbLine
 62
7
  6
CONTINUOUS
 10
9.6674550649
 20
-20.1990396502
 11
8.9673487273
 21
-20.9
  0
LINE
  5
858
100
AcDbEntity
  8
ASSI
100
AcDbLine
 62
7
  6
CONTINUOUS
 10
9.6674550649
 20
-20.1990396502
 11
8.9673487273
 21
-20.9
  0
LINE
  5
859
100
AcDbEntity
  8
ASSI
100
AcDbLine
 62
7
  6
CONTINUOUS
 10
3.5
 20
-23.7941821702
 11
3.5567500259
 21
-23.7563493531
  0
LINE
  5
85A
100
AcDbEntity
  8
RACCORDO
100
AcDbLine
 62
253
  6
CONTINUOUS
 10
-6.7570181168
 20
20.5829242832
 11
6.7570181168
 21
20.5829242832
  0
LINE
  5
85B
100
AcDbEntity
  8
ASSI
100
AcDbLine
 62
253
  6
CONTINUOUS
 10
-6.7570181168
 20
20.5829242832
 11
6.7570181168
 21
20.5829242832
  0
LINE
  5
85C
100
AcDbEntity
  8
SMUSSO
100
AcDbLine
 62
7
  6
CONTINUOUS
 10
-8.9045104936
 20
20.7113319946
 11
-7.3209441873
 21
20.7113319946
  0
LINE
  5
85D
100
AcDbEntity
  8
ASSI
100
AcDbLine
 62
7
  6
CONTINUOUS
 10
-8.9045104936
 20
20.7113319946
 11
-7.3209441873
 21
20.7113319946
  0
LINE
  5
85E
100
AcDbEntity
  8
SMUSSO
100
AcDbLine
 62
7
  6
CONTINUOUS
 10
7.3209441873
 20
20.7113319946
 11
8.9045104936
 21
20.7113319946
  0
LINE
  5
85F
100
AcDbEntity
  8
ASSI
100
AcDbLine
 62
7
  6
CONTINUOUS
 10
7.3209441873
 20
20.7113319946
 11
8.9045104936
 21
20.7113319946
  0
LINE
  5
860
100
AcDbEntity
  8
SMUSSO
100
AcDbLine
 62
7
  6
CONTINUOUS
 10
-8.9673487273
 20
20.9
 11
-8.25
 21
20.9
  0
LINE
  5
861
100
AcDbEntity
  8
ASSI
100
AcDbLine
 62
7
  6
CONTINUOUS
 10
-8.9673487273
 20
20.9
 11
-8.25
 21
20.9
  0
LINE
  5
862
100
AcDbEntity
  8
SMUSSO
100
AcDbLine
 62
7
  6
CONTINUOUS
 10
8.25
 20
20.9
 11
8.9673487273
 21
20.9
  0
LINE
  5
863
100
AcDbEntity
  8
ASSI
100
AcDbLine
 62
7
  6
CONTINUOUS
 10
8.25
 20
20.9
 11
8.9673487273
 21
20.9
  0
LINE
  5
864
100
AcDbEntity
  8
DRAFT
100
AcDbLine
 62
7
  6
CONTINUOUS
 10
8.2465127091
 20
20.9104703804
 11
7.2988376746
 21
20.9104703804
  0
LINE
  5
865
100
AcDbEntity
  8
ASSI
100
AcDbLine
 62
7
  6
CONTINUOUS
 10
8.2465127091
 20
20.9104703804
 11
7.2988376746
 21
20.9104703804
  0
LINE
  5
866
100
AcDbEntity
  8
DRAFT
100
AcDbLine
 62
7
  6
CONTINUOUS
 10
-7.2988376746
 20
20.9104703804
 11
-8.2465127091
 21
20.9104703804
  0
LINE
  5
867
100
AcDbEntity
  8
ASSI
100
AcDbLine
 62
7
  6
CONTINUOUS
 10
-7.2988376746
 20
20.9104703804
 11
-8.2465127091
 21
20.9104703804
  0
LINE
  5
868
100
AcDbEntity
  8
RACCORDO
100
AcDbLine
 62
7
  6
CONTINUOUS
 10
-7.5841007192
 20
20.9959955457
 11
-7.0429818832
 21
20.9959955457
  0
LINE
  5
869
100
AcDbEntity
  8
ASSI
100
AcDbLine
 62
7
  6
CONTINUOUS
 10
-7.5841007192
 20
20.9959955457
 11
-7.0429818832
 21
20.9959955457
  0
LINE
  5
86A
100
AcDbEntity
  8
RACCORDO
100
AcDbLine
 62
7
  6
CONTINUOUS
 10
7.0429818832
 20
20.9959955457
 11
7.5841007192
 21
20.9959955457
  0
LINE
  5
86B
100
AcDbEntity
  8
ASSI
100
AcDbLine
 62
7
  6
CONTINUOUS
 10
7.0429818832
 20
20.9959955457
 11
7.5841007192
 21
20.9959955457
  0
LINE
  5
86C
100
AcDbEntity
  8
DRAFT
100
AcDbLine
 62
7
  6
CONTINUOUS
 10
3.0872686779
 20
21.0
 11
-3.0872686779
 21
21.0
  0
LINE
  5
86D
100
AcDbEntity
  8
ASSI
100
AcDbLine
 62
7
  6
CONTINUOUS
 10
3.0872686779
 20
21.0
 11
-3.0872686779
 21
21.0
  0
LINE
  5
86E
100
AcDbEntity
  8
RACCORDO
100
AcDbLine
 62
253
  6
CONTINUOUS
 10
7.5841007192
 20
21.2626932437
 11
3.0872686779
 21
21.2626932437
  0
LINE
  5
86F
100
AcDbEntity
  8
ASSI
100
AcDbLine
 62
253
  6
CONTINUOUS
 10
7.5841007192
 20
21.2626932437
 11
3.0872686779
 21
21.2626932437
  0
LINE
  5
870
100
AcDbEntity
  8
RACCORDO
100
AcDbLine
 62
253
  6
CONTINUOUS
 10
-3.0872686779
 20
21.2626932437
 11
-7.5841007192
 21
21.2626932437
  0
LINE
  5
871
100
AcDbEntity
  8
ASSI
100
AcDbLine
 62
253
  6
CONTINUOUS
 10
-3.0872686779
 20
21.2626932437
 11
-7.5841007192
 21
21.2626932437
  0
LINE
  5
872
100
AcDbEntity
  8
DRAFT
100
AcDbLine
 62
7
  6
CONTINUOUS
 10
-3.0722163905
 20
21.6277836095
 11
3.0722163905
 21
21.6277836095
  0
LINE
  5
873
100
AcDbEntity
  8
ASSI
100
AcDbLine
 62
7
  6
CONTINUOUS
 10
-3.0722163905
 20
21.6277836095
 11
3.0722163905
 21
21.6277836095
  0
LINE
  5
874
100
AcDbEntity
  8
DRAFT
100
AcDbLine
 62
7
  6
CONTINUOUS
 10
-3.0
 20
21.7
 11
3.0
 21
21.7
  0
LINE
  5
875
100
AcDbEntity
  8
ASSI
100
AcDbLine
 62
7
  6
CONTINUOUS
 10
-3.0
 20
21.7
 11
3.0
 21
21.7
  0
LINE
  5
876
100
AcDbEntity
  8
ASSI
100
AcDbLine
 62
7
  6
CONTINUOUS
 10
3.5
 20
23.7941821702
 11
3.5567500259
 21
23.7563493531
  0
LINE
  5
877
100
AcDbEntity
  8
SMUSSO
100
AcDbLine
 62
7
  6
CONTINUOUS
 10
9.6046168312
 20
20.0103716448
 11
8.9045104936
 21
20.7113319946
  0
LINE
  5
878
100
AcDbEntity
  8
ASSI
100
AcDbLine
 62
7
  6
CONTINUOUS
 10
9.6046168312
 20
20.0103716448
 11
8.9045104936
 21
20.7113319946
  0
LINE
  5
879
100
AcDbEntity
  8
SMUSSO
100
AcDbLine
 62
7
  6
CONTINUOUS
 10
8.9673487273
 20
20.9
 11
9.6674550649
 21
20.1990396502
  0
LINE
  5
87A
100
AcDbEntity
  8
ASSI
100
AcDbLine
 62
7
  6
CONTINUOUS
 10
8.9673487273
 20
20.9
 11
9.6674550649
 21
20.1990396502
  0
LINE
  5
87B
100
AcDbEntity
  8
RACCORDO
100
AcDbLine
 62
7
  6
CONTINUOUS
 10
8.0840245667
 20
-20.9917082642
 11
8.2465127091
 21
-20.9104703804
  0
LINE
  5
87C
100
AcDbEntity
  8
ASSI
100
AcDbLine
 62
7
  6
CONTINUOUS
 10
8.0840245667
 20
-20.9917082642
 11
8.2465127091
 21
-20.9104703804
  0
LINE
  5
87D
100
AcDbEntity
  8
RACCORDO
100
AcDbLine
 62
7
  6
CONTINUOUS
 10
7.4985274262
 20
-22.2626551668
 11
7.3087268678
 21
-22.3412731322
  0
LINE
  5
87E
100
AcDbEntity
  8
ASSI
100
AcDbLine
 62
7
  6
CONTINUOUS
 10
7.4985274262
 20
-22.2626551668
 11
7.3087268678
 21
-22.3412731322
  0
LINE
  5
87F
100
AcDbEntity
  8
RACCORDO
100
AcDbLine
 62
253
  6
CONTINUOUS
 10
7.4985274262
 20
22.2626551668
 11
3.0786179654
 21
22.2626551668
  0
LINE
  5
880
100
AcDbEntity
  8
ASSI
100
AcDbLine
 62
253
  6
CONTINUOUS
 10
7.4985274262
 20
22.2626551668
 11
3.0786179654
 21
22.2626551668
  0
LINE
  5
881
100
AcDbEntity
  8
RACCORDO
100
AcDbLine
 62
253
  6
CONTINUOUS
 10
-3.0786179654
 20
22.2626551668
 11
-7.4985274262
 21
22.2626551668
  0
LINE
  5
882
100
AcDbEntity
  8
ASSI
100
AcDbLine
 62
253
  6
CONTINUOUS
 10
-3.0786179654
 20
22.2626551668
 11
-7.4985274262
 21
22.2626551668
  0
LINE
  5
883
100
AcDbEntity
  8
DRAFT
100
AcDbLine
 62
7
  6
CONTINUOUS
 10
10.5998476749
 20
22.3412731322
 11
7.3087268678
 21
22.3412731322
  0
LINE
  5
884
100
AcDbEntity
  8
ASSI
100
AcDbLine
 62
7
  6
CONTINUOUS
 10
10.5998476749
 20
22.3412731322
 11
7.3087268678
 21
22.3412731322
  0
LINE
  5
885
100
AcDbEntity
  8
DRAFT
100
AcDbLine
 62
7
  6
CONTINUOUS
 10
3.5
 20
22.3412731322
 11
3.0
 21
22.3412731322
  0
LINE
  5
886
100
AcDbEntity
  8
ASSI
100
AcDbLine
 62
7
  6
CONTINUOUS
 10
3.5
 20
22.3412731322
 11
3.0
 21
22.3412731322
  0
LINE
  5
887
100
AcDbEntity
  8
DRAFT
100
AcDbLine
 62
7
  6
CONTINUOUS
 10
-3.0
 20
22.3412731322
 11
-3.5
 21
22.3412731322
  0
LINE
  5
888
100
AcDbEntity
  8
ASSI
100
AcDbLine
 62
7
  6
CONTINUOUS
 10
-3.0
 20
22.3412731322
 11
-3.5
 21
22.3412731322
  0
LINE
  5
889
100
AcDbEntity
  8
DRAFT
100
AcDbLine
 62
7
  6
CONTINUOUS
 10
-7.3087268678
 20
22.3412731322
 11
-10.5998476749
 21
22.3412731322
  0
LINE
  5
88A
100
AcDbEntity
  8
ASSI
100
AcDbLine
 62
7
  6
CONTINUOUS
 10
-7.3087268678
 20
22.3412731322
 11
-10.5998476749
 21
22.3412731322
  0
LINE
  5
88B
100
AcDbEntity
  8
RACCORDO
100
AcDbLine
 62
7
  6
CONTINUOUS
 10
-10.5823926099
 20
22.35
 11
-10.575
 21
22.35
  0
LINE
  5
88C
100
AcDbEntity
  8
DRAFT
100
AcDbLine
 62
7
  6
CONTINUOUS
 10
4.4
 20
22.35
 11
10.575
 21
22.35
  0
LINE
  5
88D
100
AcDbEntity
  8
RACCORDO
100
AcDbLine
 62
7
  6
CONTINUOUS
 10
10.575
 20
22.35
 11
10.5823926099
 21
22.35
  0
LINE
  5
88E
100
AcDbEntity
  8
DRAFT
100
AcDbLine
 62
7
  6
CONTINUOUS
 10
-4.4
 20
22.35
 11
-10.575
 21
22.35
  0
LINE
  5
88F
100
AcDbEntity
  8
ASSI
100
AcDbLine
 62
7
  6
CONTINUOUS
 10
4.4
 20
22.35
 11
10.5823926099
 21
22.35
  0
LINE
  5
890
100
AcDbEntity
  8
ASSI
100
AcDbLine
 62
7
  6
CONTINUOUS
 10
-4.4
 20
22.35
 11
-10.5823926099
 21
22.35
  0
LINE
  5
891
100
AcDbEntity
  8
RACCORDO
100
AcDbLine
 62
7
  6
CONTINUOUS
 10
10.3257229979
 20
23.1226497308
 11
8.5492770021
 21
23.1226497308
  0
LINE
  5
892
100
AcDbEntity
  8
ASSI
100
AcDbLine
 62
7
  6
CONTINUOUS
 10
10.3257229979
 20
23.1226497308
 11
8.5492770021
 21
23.1226497308
  0
LINE
  5
893
100
AcDbEntity
  8
RACCORDO
100
AcDbLine
 62
7
  6
CONTINUOUS
 10
-8.5492770021
 20
23.1226497308
 11
-10.3257229979
 21
23.1226497308
  0
LINE
  5
894
100
AcDbEntity
  8
ASSI
100
AcDbLine
 62
7
  6
CONTINUOUS
 10
-8.5492770021
 20
23.1226497308
 11
-10.3257229979
 21
23.1226497308
  0
LINE
  5
895
100
AcDbEntity
  8
RACCORDO
100
AcDbLine
 62
253
  6
CONTINUOUS
 10
-10.3206323968
 20
23.6278312164
 11
-8.5543676032
 21
23.6278312164
  0
LINE
  5
896
100
AcDbEntity
  8
ASSI
100
AcDbLine
 62
253
  6
CONTINUOUS
 10
-10.3206323968
 20
23.6278312164
 11
-8.5543676032
 21
23.6278312164
  0
LINE
  5
897
100
AcDbEntity
  8
RACCORDO
100
AcDbLine
 62
253
  6
CONTINUOUS
 10
8.5543676032
 20
23.6278312164
 11
10.3206323968
 21
23.6278312164
  0
LINE
  5
898
100
AcDbEntity
  8
ASSI
100
AcDbLine
 62
253
  6
CONTINUOUS
 10
8.5543676032
 20
23.6278312164
 11
10.3206323968
 21
23.6278312164
  0
LINE
  5
899
100
AcDbEntity
  8
ASSI
100
AcDbLine
 62
7
  6
CONTINUOUS
 10
-4.3563493531
 20
23.7563493531
 11
-3.5567500259
 21
23.7563493531
  0
LINE
  5
89A
100
AcDbEntity
  8
ASSI
100
AcDbLine
 62
7
  6
CONTINUOUS
 10
3.5567500259
 20
23.7563493531
 11
4.3563493531
 21
23.7563493531
  0
LINE
  5
89B
100
AcDbEntity
  8
DRAFT
100
AcDbLine
 62
7
  6
CONTINUOUS
 10
-3.5
 20
23.7941821702
 11
3.5
 21
23.7941821702
  0
LINE
  5
89C
100
AcDbEntity
  8
ASSI
100
AcDbLine
 62
7
  6
CONTINUOUS
 10
-3.5
 20
23.7941821702
 11
3.5
 21
23.7941821702
  0
LINE
  5
89D
100
AcDbEntity
  8
DRAFT
100
AcDbLine
 62
7
  6
CONTINUOUS
 10
4.4
 20
23.8
 11
-4.4
 21
23.8
  0
LINE
  5
89E
100
AcDbEntity
  8
ASSI
100
AcDbLine
 62
7
  6
CONTINUOUS
 10
4.4
 20
23.8
 11
-4.4
 21
23.8
  0
LINE
  5
89F
100
AcDbEntity
  8
RACCORDO
100
AcDbLine
 62
253
  6
CONTINUOUS
 10
8.304371834
 20
23.8443375673
 11
10.570628166
 21
23.8443375673
  0
LINE
  5
8A0
100
AcDbEntity
  8
ASSI
100
AcDbLine
 62
253
  6
CONTINUOUS
 10
8.304371834
 20
23.8443375673
 11
10.570628166
 21
23.8443375673
  0
LINE
  5
8A1
100
AcDbEntity
  8
RACCORDO
100
AcDbLine
 62
253
  6
CONTINUOUS
 10
-8.304371834
 20
23.8443375673
 11
-10.570628166
 21
23.8443375673
  0
LINE
  5
8A2
100
AcDbEntity
  8
ASSI
100
AcDbLine
 62
253
  6
CONTINUOUS
 10
-8.304371834
 20
23.8443375673
 11
-10.570628166
 21
23.8443375673
  0
LINE
  5
8A3
100
AcDbEntity
  8
RACCORDO
100
AcDbLine
 62
7
  6
CONTINUOUS
 10
7.4985274262
 20
22.2626551668
 11
7.3087268678
 21
22.3412731322
  0
LINE
  5
8A4
100
AcDbEntity
  8
ASSI
100
AcDbLine
 62
7
  6
CONTINUOUS
 10
7.4985274262
 20
22.2626551668
 11
7.3087268678
 21
22.3412731322
  0
LINE
  5
8A5
100
AcDbEntity
  8
RACCORDO
100
AcDbLine
 62
7
  6
CONTINUOUS
 10
8.0840245667
 20
20.9917082642
 11
8.2465127091
 21
20.9104703804
  0
LINE
  5
8A6
100
AcDbEntity
  8
ASSI
100
AcDbLine
 62
7
  6
CONTINUOUS
 10
8.0840245667
 20
20.9917082642
 11
8.2465127091
 21
20.9104703804
  0
LINE
  5
8A7
100
AcDbEntity
  8
RACCORDO
100
AcDbLine
 62
253
  6
CONTINUOUS
 10
10.5998476749
 20
-22.3412731322
 11
10.5823926099
 21
-22.35
  0
LINE
  5
8A8
100
AcDbEntity
  8
ASSI
100
AcDbLine
 62
253
  6
CONTINUOUS
 10
10.5998476749
 20
-22.3412731322
 11
10.5823926099
 21
-22.35
  0
LINE
  5
8A9
100
AcDbEntity
  8
RACCORDO
100
AcDbLine
 62
253
  6
CONTINUOUS
 10
8.304371834
 20
24.2456323968
 11
10.570628166
 21
24.2456323968
  0
LINE
  5
8AA
100
AcDbEntity
  8
ASSI
100
AcDbLine
 62
253
  6
CONTINUOUS
 10
8.304371834
 20
24.2456323968
 11
10.570628166
 21
24.2456323968
  0
LINE
  5
8AB
100
AcDbEntity
  8
RACCORDO
100
AcDbLine
 62
253
  6
CONTINUOUS
 10
-8.304371834
 20
24.2456323968
 11
-10.570628166
 21
24.2456323968
  0
LINE
  5
8AC
100
AcDbEntity
  8
ASSI
100
AcDbLine
 62
253
  6
CONTINUOUS
 10
-8.304371834
 20
24.2456323968
 11
-10.570628166
 21
24.2456323968
  0
LINE
  5
8AD
100
AcDbEntity
  8
RACCORDO
100
AcDbLine
 62
253
  6
CONTINUOUS
 10
10.3206323968
 20
24.495628166
 11
8.5543676032
 21
24.495628166
  0
LINE
  5
8AE
100
AcDbEntity
  8
ASSI
100
AcDbLine
 62
7
  6
CONTINUOUS
 10
10.3206323968
 20
24.495628166
 11
8.5543676032
 21
24.495628166
  0
LINE
  5
8AF
100
AcDbEntity
  8
RACCORDO
100
AcDbLine
 62
253
  6
CONTINUOUS
 10
-8.5543676032
 20
24.495628166
 11
-10.3206323968
 21
24.495628166
  0
LINE
  5
8B0
100
AcDbEntity
  8
ASSI
100
AcDbLine
 62
7
  6
CONTINUOUS
 10
-8.5543676032
 20
24.495628166
 11
-10.3206323968
 21
24.495628166
  0
LINE
  5
8B1
100
AcDbEntity
  8
RACCORDO
100
AcDbLine
 62
253
  6
CONTINUOUS
 10
10.5823926099
 20
22.35
 11
10.5998476749
 21
22.3412731322
  0
LINE
  5
8B2
100
AcDbEntity
  8
ASSI
100
AcDbLine
 62
253
  6
CONTINUOUS
 10
10.5823926099
 20
22.35
 11
10.5998476749
 21
22.3412731322
  0
ARC
  5
8B3
100
AcDbEntity
  8
RACCORDO
100
AcDbCircle
 62
7
  6
CONTINUOUS
 10
-10.5828201738
 20
-21.8561560737
 40
0.4938439376
100
AcDbArc
 50
264.4858905229
 51
269.9877760153
  0
ARC
  5
8B4
100
AcDbEntity
  8
RACCORDO
100
AcDbCircle
 62
253
  6
CONTINUOUS
 10
-6.9
 20
-19.9270135813
 40
0.3430066975
100
AcDbArc
 50
0.0483860015
 51
179.9516139985
  0
ARC
  5
8B5
100
AcDbEntity
  8
ASSI
100
AcDbCircle
 62
253
  6
CONTINUOUS
 10
-6.9
 20
-19.9270013388
 40
0.3429971045
100
AcDbArc
 50
0.0463408499
 51
179.9536591501
  0
ARC
  5
8B6
100
AcDbEntity
  8
ASSI
100
AcDbCircle
 62
7
  6
CONTINUOUS
 10
-10.3247761815
 20
-24.2491531386
 40
0.250870749
100
AcDbArc
 50
248.2057000397
 51
261.7942873162
  0
ARC
  5
8B7
100
AcDbEntity
  8
ASSI
100
AcDbCircle
 62
7
  6
CONTINUOUS
 10
-8.5508468614
 20
-24.2497761815
 40
0.250870749
100
AcDbArc
 50
338.2057000398
 51
351.7942873163
  0
ARC
  5
8B8
100
AcDbEntity
  8
RACCORDO
100
AcDbCircle
 62
7
  6
CONTINUOUS
 10
-10.3244450489
 20
-24.2499517179
 40
0.2505549566
100
AcDbArc
 50
180.0120084182
 51
190.8966878703
  0
ARC
  5
8B9
100
AcDbEntity
  8
RACCORDO
100
AcDbCircle
 62
7
  6
CONTINUOUS
 10
-8.5500482821
 20
-24.2494450489
 40
0.2505549566
100
AcDbArc
 50
270.0120084182
 51
280.8966878703
  0
ARC
  5
8BA
100
AcDbEntity
  8
RACCORDO
100
AcDbCircle
 62
7
  6
CONTINUOUS
 10
-10.3249774933
 20
-24.2496231241
 40
0.2503768773
100
AcDbArc
 50
261.8245330495
 51
269.9938814446
  0
ARC
  5
8BB
100
AcDbEntity
  8
RACCORDO
100
AcDbCircle
 62
7
  6
CONTINUOUS
 10
-8.5503768759
 20
-24.2499774933
 40
0.2503768773
100
AcDbArc
 50
351.8245330495
 51
359.9938814446
  0
ARC
  5
8BC
100
AcDbEntity
  8
ASSI
100
AcDbCircle
 62
7
  6
CONTINUOUS
 10
-10.3249774933
 20
-24.2496231241
 40
0.2503768773
100
AcDbArc
 50
261.8245330495
 51
269.9938814446
  0
ARC
  5
8BD
100
AcDbEntity
  8
ASSI
100
AcDbCircle
 62
7
  6
CONTINUOUS
 10
-8.5503768759
 20
-24.2499774933
 40
0.2503768773
100
AcDbArc
 50
351.8245330495
 51
359.9938814446
  0
ARC
  5
8BE
100
AcDbEntity
  8
RACCORDO
100
AcDbCircle
 62
253
  6
CONTINUOUS
 10
-10.3206221828
 20
-24.2456221828
 40
0.2500059834
100
AcDbArc
 50
180.0023408263
 51
269.9976591737
  0
ARC
  5
8BF
100
AcDbEntity
  8
RACCORDO
100
AcDbCircle
 62
253
  6
CONTINUOUS
 10
-8.5543778172
 20
-24.2456221828
 40
0.2500059834
100
AcDbArc
 50
270.0023408263
 51
359.9976591737
  0
ARC
  5
8C0
100
AcDbEntity
  8
ASSI
100
AcDbCircle
 62
7
  6
CONTINUOUS
 10
-10.3206221828
 20
-24.2456221828
 40
0.2500059834
100
AcDbArc
 50
180.0023408263
 51
269.9976591737
  0
ARC
  5
8C1
100
AcDbEntity
  8
ASSI
100
AcDbCircle
 62
7
  6
CONTINUOUS
 10
-8.5543778172
 20
-24.2456221828
 40
0.2500059834
100
AcDbArc
 50
270.0023408263
 51
359.9976591737
  0
ARC
  5
8C2
100
AcDbEntity
  8
ASSI
100
AcDbCircle
 62
7
  6
CONTINUOUS
 10
-10.3250076385
 20
-24.2500076385
 40
0.249991413
100
AcDbArc
 50
201.8177557666
 51
248.1822442334
  0
ARC
  5
8C3
100
AcDbEntity
  8
ASSI
100
AcDbCircle
 62
7
  6
CONTINUOUS
 10
-8.5499923615
 20
-24.2500076385
 40
0.249991413
100
AcDbArc
 50
291.8177557666
 51
338.1822442334
  0
ARC
  5
8C4
100
AcDbEntity
  8
RACCORDO
100
AcDbCircle
 62
7
  6
CONTINUOUS
 10
-10.325035419
 20
-24.250177954
 40
0.2498194496
100
AcDbArc
 50
190.9088746851
 51
261.8195876917
  0
ARC
  5
8C5
100
AcDbEntity
  8
RACCORDO
100
AcDbCircle
 62
7
  6
CONTINUOUS
 10
-8.549822046
 20
-24.250035419
 40
0.2498194496
100
AcDbArc
 50
280.9088746851
 51
351.8195876917
  0
ARC
  5
8C6
100
AcDbEntity
  8
0
100
AcDbCircle
 62
7
  6
CONTINUOUS
 10
-4.15
 20
5.975
 40
1.625
100
AcDbArc
 50
107.9202131394
 51
157.380135052
  0
ARC
  5
8C7
100
AcDbEntity
  8
0
100
AcDbCircle
 62
7
  6
CONTINUOUS
 10
-4.15
 20
5.975
 40
1.625
100
AcDbArc
 50
22.619864948
 51
72.0797868606
  0
ARC
  5
8C8
100
AcDbEntity
  8
RACCORDO
100
AcDbCircle
 62
7
  6
CONTINUOUS
 10
-10.5828201738
 20
21.8561560737
 40
0.4938439376
100
AcDbArc
 50
90.0122239847
 51
95.5141094771
  0
ARC
  5
8C9
100
AcDbEntity
  8
RACCORDO
100
AcDbCircle
 62
253
  6
CONTINUOUS
 10
-6.9
 20
19.9270135834
 40
0.3430066991
100
AcDbArc
 50
180.0483863477
 51
359.9516136523
  0
ARC
  5
8CA
100
AcDbEntity
  8
ASSI
100
AcDbCircle
 62
253
  6
CONTINUOUS
 10
-6.9
 20
19.9270013373
 40
0.342997103
100
AcDbArc
 50
180.046340606
 51
359.953659394
  0
ARC
  5
8CB
100
AcDbEntity
  8
RACCORDO
100
AcDbCircle
 62
253
  6
CONTINUOUS
 10
-4.2043092016
 20
17.5956907984
 40
0.3000161559
100
AcDbArc
 50
180.0052666642
 51
269.9947333358
  0
ARC
  5
8CC
100
AcDbEntity
  8
ASSI
100
AcDbCircle
 62
253
  6
CONTINUOUS
 10
-4.2043092016
 20
17.5956907984
 40
0.3000161559
100
AcDbArc
 50
180.0052666642
 51
269.9947333358
  0
ARC
  5
8CD
100
AcDbEntity
  8
RACCORDO
100
AcDbCircle
 62
7
  6
CONTINUOUS
 10
-0.45
 20
6.9458040048
 40
0.3
100
AcDbArc
 50
180.0
 51
253.705437915
  0
ARC
  5
8CE
100
AcDbEntity
  8
RACCORDO
100
AcDbCircle
 62
7
  6
CONTINUOUS
 10
-2.05
 20
6.9458040048
 40
0.3
100
AcDbArc
 50
283.048485464
 51
360.0
  0
ARC
  5
8CF
100
AcDbEntity
  8
RACCORDO
100
AcDbCircle
 62
7
  6
CONTINUOUS
 10
-1.95
 20
6.9458040048
 40
0.3
100
AcDbArc
 50
180.0
 51
260.4059317731
  0
ARC
  5
8D0
100
AcDbEntity
  8
RACCORDO
100
AcDbCircle
 62
7
  6
CONTINUOUS
 10
-0.55
 20
6.9458040048
 40
0.3
100
AcDbArc
 50
279.5940682269
 51
360.0
  0
ARC
  5
8D1
100
AcDbEntity
  8
ASSI
100
AcDbCircle
 62
7
  6
CONTINUOUS
 10
-8.5502238185
 20
24.2491531386
 40
0.250870749
100
AcDbArc
 50
68.2057000398
 51
81.7942873162
  0
ARC
  5
8D2
100
AcDbEntity
  8
ASSI
100
AcDbCircle
 62
7
  6
CONTINUOUS
 10
-10.3241531386
 20
24.2497761815
 40
0.250870749
100
AcDbArc
 50
158.2057000398
 51
171.7942873162
  0
ARC
  5
8D3
100
AcDbEntity
  8
RACCORDO
100
AcDbCircle
 62
7
  6
CONTINUOUS
 10
-8.5505549511
 20
24.2499517179
 40
0.2505549566
100
AcDbArc
 50
0.0120084182
 51
10.8966878703
  0
ARC
  5
8D4
100
AcDbEntity
  8
RACCORDO
100
AcDbCircle
 62
7
  6
CONTINUOUS
 10
-10.3249517179
 20
24.2494450489
 40
0.2505549566
100
AcDbArc
 50
90.0120084182
 51
100.8966878703
  0
ARC
  5
8D5
100
AcDbEntity
  8
RACCORDO
100
AcDbCircle
 62
7
  6
CONTINUOUS
 10
-8.5500225067
 20
24.2496231241
 40
0.2503768773
100
AcDbArc
 50
81.8245330495
 51
89.9938814446
  0
ARC
  5
8D6
100
AcDbEntity
  8
RACCORDO
100
AcDbCircle
 62
7
  6
CONTINUOUS
 10
-10.3246231241
 20
24.2499774933
 40
0.2503768773
100
AcDbArc
 50
171.8245330494
 51
179.9938814446
  0
ARC
  5
8D7
100
AcDbEntity
  8
ASSI
100
AcDbCircle
 62
7
  6
CONTINUOUS
 10
-8.5500225067
 20
24.2496231241
 40
0.2503768773
100
AcDbArc
 50
81.8245330495
 51
89.9938814446
  0
ARC
  5
8D8
100
AcDbEntity
  8
ASSI
100
AcDbCircle
 62
7
  6
CONTINUOUS
 10
-10.3246231241
 20
24.2499774933
 40
0.2503768773
100
AcDbArc
 50
171.8245330494
 51
179.9938814446
  0
ARC
  5
8D9
100
AcDbEntity
  8
RACCORDO
100
AcDbCircle
 62
253
  6
CONTINUOUS
 10
-8.5543778172
 20
24.2456221828
 40
0.2500059834
100
AcDbArc
 50
0.0023408215
 51
89.9976591785
  0
ARC
  5
8DA
100
AcDbEntity
  8
RACCORDO
100
AcDbCircle
 62
253
  6
CONTINUOUS
 10
-10.3206221828
 20
24.2456221828
 40
0.2500059834
100
AcDbArc
 50
90.0023408215
 51
179.9976591785
  0
ARC
  5
8DB
100
AcDbEntity
  8
ASSI
100
AcDbCircle
 62
7
  6
CONTINUOUS
 10
-8.5543778172
 20
24.2456221828
 40
0.2500059834
100
AcDbArc
 50
0.0023408215
 51
89.9976591785
  0
ARC
  5
8DC
100
AcDbEntity
  8
ASSI
100
AcDbCircle
 62
7
  6
CONTINUOUS
 10
-10.3206221828
 20
24.2456221828
 40
0.2500059834
100
AcDbArc
 50
90.0023408215
 51
179.9976591785
  0
ARC
  5
8DD
100
AcDbEntity
  8
ASSI
100
AcDbCircle
 62
7
  6
CONTINUOUS
 10
-8.5499923615
 20
24.2500076385
 40
0.249991413
100
AcDbArc
 50
21.8177557666
 51
68.1822442334
  0
ARC
  5
8DE
100
AcDbEntity
  8
ASSI
100
AcDbCircle
 62
7
  6
CONTINUOUS
 10
-10.3250076385
 20
24.2500076385
 40
0.249991413
100
AcDbArc
 50
111.8177557666
 51
158.1822442334
  0
ARC
  5
8DF
100
AcDbEntity
  8
RACCORDO
100
AcDbCircle
 62
7
  6
CONTINUOUS
 10
-8.549964581
 20
24.250177954
 40
0.2498194496
100
AcDbArc
 50
10.9088746851
 51
81.8195876917
  0
ARC
  5
8E0
100
AcDbEntity
  8
RACCORDO
100
AcDbCircle
 62
7
  6
CONTINUOUS
 10
-10.325177954
 20
24.250035419
 40
0.2498194496
100
AcDbArc
 50
100.9088746851
 51
171.8195876916
  0
ARC
  5
8E1
100
AcDbEntity
  8
RACCORDO
100
AcDbCircle
 62
7
  6
CONTINUOUS
 10
10.5828201738
 20
-21.8561560737
 40
0.4938439376
100
AcDbArc
 50
270.0122239847
 51
275.5141094771
  0
ARC
  5
8E2
100
AcDbEntity
  8
RACCORDO
100
AcDbCircle
 62
253
  6
CONTINUOUS
 10
6.9
 20
-19.9270135832
 40
0.3430066995
100
AcDbArc
 50
0.0483863194
 51
179.9516136806
  0
ARC
  5
8E3
100
AcDbEntity
  8
ASSI
100
AcDbCircle
 62
253
  6
CONTINUOUS
 10
6.9
 20
-19.9270013378
 40
0.3429971039
100
AcDbArc
 50
0.0463406851
 51
179.9536593149
  0
ARC
  5
8E4
100
AcDbEntity
  8
ASSI
100
AcDbCircle
 62
7
  6
CONTINUOUS
 10
8.5502238185
 20
-24.2491531386
 40
0.250870749
100
AcDbArc
 50
248.2057000397
 51
261.7942873163
  0
ARC
  5
8E5
100
AcDbEntity
  8
ASSI
100
AcDbCircle
 62
7
  6
CONTINUOUS
 10
10.3241531386
 20
-24.2497761815
 40
0.250870749
100
AcDbArc
 50
338.2057000398
 51
351.7942873163
  0
ARC
  5
8E6
100
AcDbEntity
  8
RACCORDO
100
AcDbCircle
 62
7
  6
CONTINUOUS
 10
8.5505549511
 20
-24.2499517179
 40
0.2505549566
100
AcDbArc
 50
180.0120084182
 51
190.8966878703
  0
ARC
  5
8E7
100
AcDbEntity
  8
RACCORDO
100
AcDbCircle
 62
7
  6
CONTINUOUS
 10
10.3249517179
 20
-24.2494450489
 40
0.2505549566
100
AcDbArc
 50
270.0120084182
 51
280.8966878703
  0
ARC
  5
8E8
100
AcDbEntity
  8
RACCORDO
100
AcDbCircle
 62
7
  6
CONTINUOUS
 10
8.5500225067
 20
-24.2496231241
 40
0.2503768773
100
AcDbArc
 50
261.8245330495
 51
269.9938814446
  0
ARC
  5
8E9
100
AcDbEntity
  8
RACCORDO
100
AcDbCircle
 62
7
  6
CONTINUOUS
 10
10.3246231241
 20
-24.2499774933
 40
0.2503768773
100
AcDbArc
 50
351.8245330494
 51
359.9938814446
  0
ARC
  5
8EA
100
AcDbEntity
  8
ASSI
100
AcDbCircle
 62
7
  6
CONTINUOUS
 10
8.5500225067
 20
-24.2496231241
 40
0.2503768773
100
AcDbArc
 50
261.8245330495
 51
269.9938814446
  0
ARC
  5
8EB
100
AcDbEntity
  8
ASSI
100
AcDbCircle
 62
7
  6
CONTINUOUS
 10
10.3246231241
 20
-24.2499774933
 40
0.2503768773
100
AcDbArc
 50
351.8245330494
 51
359.9938814446
  0
ARC
  5
8EC
100
AcDbEntity
  8
RACCORDO
100
AcDbCircle
 62
253
  6
CONTINUOUS
 10
8.5543778172
 20
-24.2456221828
 40
0.2500059834
100
AcDbArc
 50
180.0023408215
 51
269.9976591785
  0
ARC
  5
8ED
100
AcDbEntity
  8
RACCORDO
100
AcDbCircle
 62
253
  6
CONTINUOUS
 10
10.3206221828
 20
-24.2456221828
 40
0.2500059834
100
AcDbArc
 50
270.0023408263
 51
359.9976591737
  0
ARC
  5
8EE
100
AcDbEntity
  8
ASSI
100
AcDbCircle
 62
7
  6
CONTINUOUS
 10
8.5543778172
 20
-24.2456221828
 40
0.2500059834
100
AcDbArc
 50
180.0023408215
 51
269.9976591785
  0
ARC
  5
8EF
100
AcDbEntity
  8
ASSI
100
AcDbCircle
 62
7
  6
CONTINUOUS
 10
10.3206221828
 20
-24.2456221828
 40
0.2500059834
100
AcDbArc
 50
270.0023408263
 51
359.9976591737
  0
ARC
  5
8F0
100
AcDbEntity
  8
ASSI
100
AcDbCircle
 62
7
  6
CONTINUOUS
 10
8.5499923615
 20
-24.2500076385
 40
0.249991413
100
AcDbArc
 50
201.8177557666
 51
248.1822442334
  0
ARC
  5
8F1
100
AcDbEntity
  8
ASSI
100
AcDbCircle
 62
7
  6
CONTINUOUS
 10
10.3250076385
 20
-24.2500076385
 40
0.249991413
100
AcDbArc
 50
291.8177557666
 51
338.1822442334
  0
ARC
  5
8F2
100
AcDbEntity
  8
RACCORDO
100
AcDbCircle
 62
7
  6
CONTINUOUS
 10
8.549964581
 20
-24.250177954
 40
0.2498194496
100
AcDbArc
 50
190.9088746851
 51
261.8195876917
  0
ARC
  5
8F3
100
AcDbEntity
  8
RACCORDO
100
AcDbCircle
 62
7
  6
CONTINUOUS
 10
10.325177954
 20
-24.250035419
 40
0.2498194496
100
AcDbArc
 50
280.9088746851
 51
351.8195876917
  0
ARC
  5
8F4
100
AcDbEntity
  8
0
100
AcDbCircle
 62
7
  6
CONTINUOUS
 10
4.15
 20
5.975
 40
1.625
100
AcDbArc
 50
22.619864948
 51
72.0797868606
  0
ARC
  5
8F5
100
AcDbEntity
  8
0
100
AcDbCircle
 62
7
  6
CONTINUOUS
 10
4.15
 20
5.975
 40
1.625
100
AcDbArc
 50
107.9202131394
 51
157.380135052
  0
ARC
  5
8F6
100
AcDbEntity
  8
RACCORDO
100
AcDbCircle
 62
7
  6
CONTINUOUS
 10
10.5828201738
 20
21.8561560737
 40
0.4938439375
100
AcDbArc
 50
84.4858905229
 51
89.9877760153
  0
ARC
  5
8F7
100
AcDbEntity
  8
RACCORDO
100
AcDbCircle
 62
253
  6
CONTINUOUS
 10
6.9
 20
19.9270135813
 40
0.343006697
100
AcDbArc
 50
180.0483860077
 51
359.9516139923
  0
ARC
  5
8F8
100
AcDbEntity
  8
ASSI
100
AcDbCircle
 62
253
  6
CONTINUOUS
 10
6.9
 20
19.9270013384
 40
0.3429971037
100
AcDbArc
 50
180.0463407805
 51
359.9536592195
  0
ARC
  5
8F9
100
AcDbEntity
  8
RACCORDO
100
AcDbCircle
 62
253
  6
CONTINUOUS
 10
4.2043092016
 20
17.5956907984
 40
0.3000161559
100
AcDbArc
 50
270.0052666626
 51
359.9947333374
  0
ARC
  5
8FA
100
AcDbEntity
  8
ASSI
100
AcDbCircle
 62
253
  6
CONTINUOUS
 10
4.2043092016
 20
17.5956907984
 40
0.3000161559
100
AcDbArc
 50
270.0052666626
 51
359.9947333374
  0
ARC
  5
8FB
100
AcDbEntity
  8
RACCORDO
100
AcDbCircle
 62
7
  6
CONTINUOUS
 10
1.05
 20
6.9458040048
 40
0.3
100
AcDbArc
 50
180.0
 51
260.4059317731
  0
ARC
  5
8FC
100
AcDbEntity
  8
RACCORDO
100
AcDbCircle
 62
7
  6
CONTINUOUS
 10
2.55
 20
6.9458040048
 40
0.3
100
AcDbArc
 50
180.0
 51
260.4059317731
  0
ARC
  5
8FD
100
AcDbEntity
  8
RACCORDO
100
AcDbCircle
 62
7
  6
CONTINUOUS
 10
0.95
 20
6.9458040048
 40
0.3
100
AcDbArc
 50
279.5940682269
 51
360.0
  0
ARC
  5
8FE
100
AcDbEntity
  8
RACCORDO
100
AcDbCircle
 62
7
  6
CONTINUOUS
 10
2.45
 20
6.9458040048
 40
0.3
100
AcDbArc
 50
279.5940682269
 51
360.0
  0
ARC
  5
8FF
100
AcDbEntity
  8
ASSI
100
AcDbCircle
 62
7
  6
CONTINUOUS
 10
8.5508468614
 20
24.2497761815
 40
0.250870749
100
AcDbArc
 50
158.2057000398
 51
171.7942873162
  0
ARC
  5
900
100
AcDbEntity
  8
ASSI
100
AcDbCircle
 62
7
  6
CONTINUOUS
 10
10.3247761815
 20
24.2491531386
 40
0.250870749
100
AcDbArc
 50
68.2057000397
 51
81.7942873163
  0
ARC
  5
901
100
AcDbEntity
  8
RACCORDO
100
AcDbCircle
 62
7
  6
CONTINUOUS
 10
8.5500482821
 20
24.2494450489
 40
0.2505549566
100
AcDbArc
 50
90.0120084182
 51
100.8966878703
  0
ARC
  5
902
100
AcDbEntity
  8
RACCORDO
100
AcDbCircle
 62
7
  6
CONTINUOUS
 10
10.3244450489
 20
24.2499517179
 40
0.2505549566
100
AcDbArc
 50
0.0120084182
 51
10.8966878703
  0
ARC
  5
903
100
AcDbEntity
  8
RACCORDO
100
AcDbCircle
 62
7
  6
CONTINUOUS
 10
8.5503768759
 20
24.2499774933
 40
0.2503768773
100
AcDbArc
 50
171.8245330495
 51
179.9938814446
  0
ARC
  5
904
100
AcDbEntity
  8
RACCORDO
100
AcDbCircle
 62
7
  6
CONTINUOUS
 10
10.3249774933
 20
24.2496231241
 40
0.2503768773
100
AcDbArc
 50
81.8245330495
 51
89.9938814446
  0
ARC
  5
905
100
AcDbEntity
  8
ASSI
100
AcDbCircle
 62
7
  6
CONTINUOUS
 10
8.5503768759
 20
24.2499774933
 40
0.2503768773
100
AcDbArc
 50
171.8245330495
 51
179.9938814446
  0
ARC
  5
906
100
AcDbEntity
  8
ASSI
100
AcDbCircle
 62
7
  6
CONTINUOUS
 10
10.3249774933
 20
24.2496231241
 40
0.2503768773
100
AcDbArc
 50
81.8245330495
 51
89.9938814446
  0
ARC
  5
907
100
AcDbEntity
  8
RACCORDO
100
AcDbCircle
 62
253
  6
CONTINUOUS
 10
10.3206221828
 20
24.2456221828
 40
0.2500059834
100
AcDbArc
 50
0.0023408263
 51
89.9976591737
  0
ARC
  5
908
100
AcDbEntity
  8
RACCORDO
100
AcDbCircle
 62
253
  6
CONTINUOUS
 10
8.5543778172
 20
24.2456221828
 40
0.2500059834
100
AcDbArc
 50
90.0023408263
 51
179.9976591737
  0
ARC
  5
909
100
AcDbEntity
  8
ASSI
100
AcDbCircle
 62
7
  6
CONTINUOUS
 10
10.3206221828
 20
24.2456221828
 40
0.2500059834
100
AcDbArc
 50
0.0023408263
 51
89.9976591737
  0
ARC
  5
90A
100
AcDbEntity
  8
ASSI
100
AcDbCircle
 62
7
  6
CONTINUOUS
 10
8.5543778172
 20
24.2456221828
 40
0.2500059834
100
AcDbArc
 50
90.0023408263
 51
179.9976591737
  0
ARC
  5
90B
100
AcDbEntity
  8
ASSI
100
AcDbCircle
 62
7
  6
CONTINUOUS
 10
8.5499923615
 20
24.2500076385
 40
0.249991413
100
AcDbArc
 50
111.8177557666
 51
158.1822442334
  0
ARC
  5
90C
100
AcDbEntity
  8
ASSI
100
AcDbCircle
 62
7
  6
CONTINUOUS
 10
10.3250076385
 20
24.2500076385
 40
0.249991413
100
AcDbArc
 50
21.8177557666
 51
68.1822442334
  0
ARC
  5
90D
100
AcDbEntity
  8
RACCORDO
100
AcDbCircle
 62
7
  6
CONTINUOUS
 10
8.549822046
 20
24.250035419
 40
0.2498194496
100
AcDbArc
 50
100.9088746851
 51
171.8195876917
  0
ARC
  5
90E
100
AcDbEntity
  8
RACCORDO
100
AcDbCircle
 62
7
  6
CONTINUOUS
 10
10.325035419
 20
24.250177954
 40
0.2498194496
100
AcDbArc
 50
10.9088746851
 51
81.8195876917
  0
SPLINE
  5
90F
100
AcDbEntity
  8
RACCORDO
100
AcDbSpline
 62
7
  6
CONTINUOUS
 70
0
 71
3
 72
13
 73
9
 74
7
 42
0.0000001
 43
0.0000001
 44
0.0000000001
 12
-0.2404631898
 22
0.3802056866
 32
0.0
 13
-0.0034684619
 23
0.4498520641
 33
0.0
 40
0.0
 40
0.0
 40
0.0
 40
0.0
 40
0.2817068086
 40
0.5530901411
 40
0.6807341157
 40
0.7998364256
 40
0.9072592649
 40
1.0
 40
1.0
 40
1.0
 40
1.0
 10
6.7570181168
 20
-20.5829242832
 30
0.0
 10
6.7344380776
 20
-20.5472221063
 30
0.0
 10
6.6901118765
 20
-20.4771294593
 30
0.0
 10
6.6375719199
 20
-20.3895555204
 30
0.0
 10
6.601032911
 20
-20.3209692343
 30
0.0
 10
6.5786740173
 20
-20.2727280083
 30
0.0
 10
6.5625557468
 20
-20.227604309
 30
0.0
 10
6.557128724
 20
-20.19770613
 30
0.0
 10
6.5570215015
 20
-20.1837995929
 30
0.0
 11
6.7570181168
 21
-20.5829242832
 31
0.0
 11
6.6897094469
 21
-20.4755460946
 31
0.0
 11
6.6277072327
 21
-20.370376174
 31
0.0
 11
6.600918544
 21
-20.3195852048
 31
0.0
 11
6.5787285444
 21
-20.2708161403
 31
0.0
 11
6.5631619655
 21
-20.2250660941
 31
0.0
 11
6.5570215015
 21
-20.1837995929
 31
0.0
  0
SPLINE
  5
910
100
AcDbEntity
  8
RACCORDO
100
AcDbSpline
 62
7
  6
CONTINUOUS
 70
0
 71
3
 72
13
 73
9
 74
7
 42
0.0000001
 43
0.0000001
 44
0.0000000001
 12
0.0034684618
 22
0.4498520597
 32
0.0
 13
0.2404631875
 23
0.3802056829
 33
0.0
 40
0.0
 40
0.0
 40
0.0
 40
0.0
 40
0.0927401999
 40
0.2001625341
 40
0.3192652521
 40
0.4469093207
 40
0.718292818
 40
1.0
 40
1.0
 40
1.0
 40
1.0
 10
6.5570215015
 20
20.1837995929
 30
0.0
 10
6.5571287234
 20
20.1977060496
 30
0.0
 10
6.5625557335
 20
20.2276040675
 30
0.0
 10
6.5786738831
 20
20.272727706
 30
0.0
 10
6.6010327698
 20
20.3209689378
 30
0.0
 10
6.6375718102
 20
20.3895553182
 30
0.0
 10
6.6901117944
 20
20.4771293509
 30
0.0
 10
6.7344380479
 20
20.5472220594
 30
0.0
 10
6.7570181168
 20
20.5829242832
 30
0.0
 11
6.5570215015
 21
20.1837995929
 31
0.0
 11
6.5631619286
 21
20.2250658558
 31
0.0
 11
6.5787283748
 21
20.2708157066
 31
0.0
 11
6.6009184242
 21
20.3195849496
 31
0.0
 11
6.6277071224
 21
20.3703759609
 31
0.0
 11
6.6897093555
 21
20.475545955
 31
0.0
 11
6.7570181168
 21
20.5829242832
 31
0.0
  0
SPLINE
  5
911
100
AcDbEntity
  8
RACCORDO
100
AcDbSpline
 62
7
  6
CONTINUOUS
 70
0
 71
3
 72
13
 73
9
 74
7
 42
0.0000001
 43
0.0000001
 44
0.0000000001
 12
0.2404631898
 22
-0.3802056866
 32
0.0
 13
0.0034684619
 23
-0.4498520641
 33
0.0
 40
0.0
 40
0.0
 40
0.0
 40
0.0
 40
0.2817068086
 40
0.5530901411
 40
0.6807341157
 40
0.7998364256
 40
0.9072592649
 40
1.0
 40
1.0
 40
1.0
 40
1.0
 10
-6.7570181168
 20
20.5829242832
 30
0.0
 10
-6.7344380776
 20
20.5472221063
 30
0.0
 10
-6.6901118765
 20
20.4771294593
 30
0.0
 10
-6.6375719199
 20
20.3895555204
 30
0.0
 10
-6.601032911
 20
20.3209692343
 30
0.0
 10
-6.5786740173
 20
20.2727280083
 30
0.0
 10
-6.5625557468
 20
20.227604309
 30
0.0
 10
-6.557128724
 20
20.19770613
 30
0.0
 10
-6.5570215015
 20
20.1837995929
 30
0.0
 11
-6.7570181168
 21
20.5829242832
 31
0.0
 11
-6.6897094469
 21
20.4755460946
 31
0.0
 11
-6.6277072327
 21
20.370376174
 31
0.0
 11
-6.600918544
 21
20.3195852048
 31
0.0
 11
-6.5787285444
 21
20.2708161403
 31
0.0
 11
-6.5631619655
 21
20.2250660941
 31
0.0
 11
-6.5570215015
 21
20.1837995929
 31
0.0
  0
SPLINE
  5
912
100
AcDbEntity
  8
RACCORDO
100
AcDbSpline
 62
253
  6
CONTINUOUS
 70
0
 71
3
 72
15
 73
11
 74
9
 42
0.0000001
 43
0.0000001
 44
0.0000000001
 12
0.0000179412
 22
-0.4470524659
 32
0.0
 13
0.0000262413
 23
0.4470524654
 33
0.0
 40
0.0
 40
0.0
 40
0.0
 40
0.0
 40
0.1250061734
 40
0.2500092497
 40
0.3750066258
 40
0.4999999808
 40
0.6249933449
 40
0.7499907332
 40
0.8749938198
 40
1.0
 40
1.0
 40
1.0
 40
1.0
 10
6.7570181168
 20
19.9267239376
 30
0.0
 10
6.7570188644
 20
19.9080958316
 30
0.0
 10
6.7644351891
 20
19.8704356116
 30
0.0
 10
6.7961673664
 20
19.8227554877
 30
0.0
 10
6.8437649418
 20
19.7907599057
 30
0.0
 10
6.900000022
 20
19.7795197694
 30
0.0
 10
6.9562351333
 20
19.7907598804
 30
0.0
 10
7.0038326504
 20
19.8227554662
 30
0.0
 10
7.0355650677
 20
19.8704355893
 30
0.0
 10
7.0429807897
 20
19.9080958306
 30
0.0
 10
7.0429818832
 20
19.9267239376
 30
0.0
 11
6.7570181168
 21
19.9267239376
 31
0.0
 11
6.7678700834
 21
19.8719033955
 31
0.0
 11
6.7988124316
 21
19.8253687488
 31
0.0
 11
6.8452052958
 21
19.7942187952
 31
0.0
 11
6.9000000255
 21
19.7832664371
 31
0.0
 11
6.9547947635
 21
19.7942187745
 31
0.0
 11
7.0011876352
 21
19.8253687268
 31
0.0
 11
7.0321299831
 21
19.8719033793
 31
0.0
 11
7.0429818832
 21
19.9267239376
 31
0.0
  0
SPLINE
  5
913
100
AcDbEntity
  8
RACCORDO
100
AcDbSpline
 62
253
  6
CONTINUOUS
 70
0
 71
3
 72
15
 73
11
 74
9
 42
0.0000001
 43
0.0000001
 44
0.0000000001
 12
-0.0000251528
 22
-0.447052511
 32
0.0
 13
-0.0000262286
 23
0.447052511
 33
0.0
 40
0.0
 40
0.0
 40
0.0
 40
0.0
 40
0.1250061781
 40
0.2500092589
 40
0.375006638
 40
0.4999999946
 40
0.6249933533
 40
0.7499907346
 40
0.8749938181
 40
1.0
 40
1.0
 40
1.0
 40
1.0
 10
-6.7570181168
 20
19.9267239376
 30
0.0
 10
-6.7570191649
 20
19.908095829
 30
0.0
 10
-6.7644349741
 20
19.870435588
 30
0.0
 10
-6.79616737
 20
19.8227554678
 30
0.0
 10
-6.8437649004
 20
19.7907598866
 30
0.0
 10
-6.9000000039
 20
19.7795197613
 30
0.0
 10
-6.9562351123
 20
19.7907598817
 30
0.0
 10
-7.0038326347
 20
19.8227554634
 30
0.0
 10
-7.0355650676
 20
19.8704355822
 30
0.0
 10
-7.0429807903
 20
19.9080958284
 30
0.0
 10
-7.0429818832
 20
19.9267239376
 30
0.0
 11
-6.7570181168
 21
19.9267239376
 31
0.0
 11
-6.7678700337
 21
19.8719033777
 31
0.0
 11
-6.7988123915
 21
19.8253687281
 31
0.0
 11
-6.8452052662
 21
19.7942187776
 31
0.0
 11
-6.9000000043
 21
19.7832664287
 31
0.0
 11
-6.9547947442
 21
19.7942187736
 31
0.0
 11
-7.0011876206
 21
19.8253687233
 31
0.0
 11
-7.0321299801
 21
19.8719033733
 31
0.0
 11
-7.0429818832
 21
19.9267239376
 31
0.0
  0
SPLINE
  5
914
100
AcDbEntity
  8
RACCORDO
100
AcDbSpline
 62
253
  6
CONTINUOUS
 70
0
 71
3
 72
15
 73
11
 74
9
 42
0.0000001
 43
0.0000001
 44
0.0000000001
 12
-0.0000184405
 22
0.4470524692
 32
0.0
 13
-0.0000263756
 23
-0.4470524688
 33
0.0
 40
0.0
 40
0.0
 40
0.0
 40
0.0
 40
0.1250061733
 40
0.2500092496
 40
0.3750066258
 40
0.4999999806
 40
0.6249933443
 40
0.7499907323
 40
0.8749938191
 40
1.0
 40
1.0
 40
1.0
 40
1.0
 10
-6.7570181168
 20
-19.9267239376
 30
0.0
 10
-6.7570188852
 20
-19.9080958314
 30
0.0
 10
-6.7644351758
 20
-19.8704356104
 30
0.0
 10
-6.7961673674
 20
-19.8227554867
 30
0.0
 10
-6.8437649399
 20
-19.7907599049
 30
0.0
 10
-6.9000000214
 20
-19.7795197692
 30
0.0
 10
-6.956235133
 20
-19.7907598803
 30
0.0
 10
-7.0038326496
 20
-19.8227554656
 30
0.0
 10
-7.0355650731
 20
-19.870435588
 30
0.0
 10
-7.0429807841
 20
-19.9080958303
 30
0.0
 10
-7.0429818832
 20
-19.9267239376
 30
0.0
 11
-6.7570181168
 21
-19.9267239376
 31
0.0
 11
-6.7678700809
 21
-19.8719033946
 31
0.0
 11
-6.7988124297
 21
-19.8253687477
 31
0.0
 11
-6.8452052946
 21
-19.7942187945
 31
0.0
 11
-6.9000000248
 21
-19.7832664368
 31
0.0
 11
-6.9547947631
 21
-19.7942187742
 31
0.0
 11
-7.0011876354
 21
-19.825368726
 31
0.0
 11
-7.0321299846
 21
-19.8719033782
 31
0.0
 11
-7.0429818832
 21
-19.9267239376
 31
0.0
  0
SPLINE
  5
915
100
AcDbEntity
  8
RACCORDO
100
AcDbSpline
 62
253
  6
CONTINUOUS
 70
0
 71
3
 72
15
 73
11
 74
9
 42
0.0000001
 43
0.0000001
 44
0.0000000001
 12
0.0000253335
 22
0.4470525136
 32
0.0
 13
0.0000263417
 23
-0.4470525136
 33
0.0
 40
0.0
 40
0.0
 40
0.0
 40
0.0
 40
0.1250061786
 40
0.2500092594
 40
0.3750066384
 40
0.4999999946
 40
0.6249933529
 40
0.7499907339
 40
0.8749938175
 40
1.0
 40
1.0
 40
1.0
 40
1.0
 10
6.7570181168
 20
-19.9267239376
 30
0.0
 10
6.7570191724
 20
-19.9080958288
 30
0.0
 10
6.7644349675
 20
-19.8704355868
 30
0.0
 10
6.7961673704
 20
-19.8227554671
 30
0.0
 10
6.8437648997
 20
-19.7907598862
 30
0.0
 10
6.9000000037
 20
-19.7795197614
 30
0.0
 10
6.9562351125
 20
-19.7907598815
 30
0.0
 10
7.0038326343
 20
-19.8227554628
 30
0.0
 10
7.0355650725
 20
-19.870435581
 30
0.0
 10
7.0429807855
 20
-19.9080958282
 30
0.0
 10
7.0429818832
 20
-19.9267239376
 30
0.0
 11
6.7570181168
 21
-19.9267239376
 31
0.0
 11
6.7678700318
 21
-19.8719033768
 31
0.0
 11
6.7988123905
 21
-19.8253687274
 31
0.0
 11
6.8452052659
 21
-19.7942187773
 31
0.0
 11
6.9000000042
 21
-19.7832664287
 31
0.0
 11
6.9547947442
 21
-19.7942187734
 31
0.0
 11
7.0011876212
 21
-19.8253687226
 31
0.0
 11
7.0321299817
 21
-19.8719033723
 31
0.0
 11
7.0429818832
 21
-19.9267239376
 31
0.0
  0
LINE
  5
916
100
AcDbEntity
  8
RACCORDO
100
AcDbLine
 62
253
  6
CONTINUOUS
 10
6.5570215015
 20
-19.9267239376
 11
6.4875706414
 21
-18.9520022272
  0
LINE
  5
917
100
AcDbEntity
  8
RACCORDO
100
AcDbLine
 62
253
  6
CONTINUOUS
 10
7.2429784985
 20
-19.9267239376
 11
7.3124293586
 21
-18.9520022272
  0
LINE
  5
918
100
AcDbEntity
  8
RACCORDO
100
AcDbLine
 62
253
  6
CONTINUOUS
 10
-7.2429784985
 20
-19.9267239376
 11
-7.3124293586
 21
-18.9520022272
  0
LINE
  5
919
100
AcDbEntity
  8
RACCORDO
100
AcDbLine
 62
253
  6
CONTINUOUS
 10
-6.5570215015
 20
-19.9267239376
 11
-6.4875706414
 21
-18.9520022272
  0
SPLINE
  5
91A
100
AcDbEntity
  8
RACCORDO
100
AcDbSpline
 62
253
  6
CONTINUOUS
 70
0
 71
3
 72
23
 73
19
 74
17
 42
0.0000001
 43
0.0000001
 44
0.0000000001
 12
0.00000021
 22
-0.4999930957
 32
0.0
 13
0.1855031257
 23
-0.4643077494
 33
0.0
 40
0.0
 40
0.0
 40
0.0
 40
0.0
 40
0.1940273412
 40
0.3806732897
 40
0.5528550005
 40
0.6314476511
 40
0.7040265472
 40
0.7698998605
 40
0.8284408391
 40
0.8790925664
 40
0.9213723384
 40
0.9548767136
 40
0.9682359307
 40
0.979287863
 40
0.9880082587
 40
0.9943744817
 40
0.9983731982
 40
1.0
 40
1.0
 40
1.0
 40
1.0
 10
4.2026066368
 20
17.7956556053
 30
0.0
 10
4.2026066504
 20
17.7633181616
 30
0.0
 10
4.2026278925
 20
17.6998734871
 30
0.0
 10
4.202722997
 20
17.607732301
 30
0.0
 10
4.2028547953
 20
17.5348300321
 30
0.0
 10
4.202992223
 20
17.4809387383
 30
0.0
 10
4.2031047995
 20
17.4447652712
 30
0.0
 10
4.2032287505
 20
17.4119337453
 30
0.0
 10
4.2033630063
 20
17.3827568213
 30
0.0
 10
4.2035052396
 20
17.3575120374
 30
0.0
 10
4.2036558143
 20
17.3364405333
 30
0.0
 10
4.2037895975
 20
17.321583347
 30
0.0
 10
4.2039097237
 20
17.311932774
 30
0.0
 10
4.2039829515
 20
17.306408973
 30
0.0
 10
4.2040846033
 20
17.3020600371
 30
0.0
 10
4.2041153832
 20
17.2988645103
 30
0.0
 10
4.2042805121
 20
17.2968965036
 30
0.0
 10
4.204236187
 20
17.2959264227
 30
0.0
 10
4.2043367793
 20
17.2956746438
 30
0.0
 11
4.2026066368
 21
17.7956556053
 31
0.0
 11
4.2026397982
 21
17.69864328
 31
0.0
 11
4.2027380367
 21
17.6053216461
 31
0.0
 11
4.2028976182
 21
17.5192321274
 31
0.0
 11
4.2029986062
 21
17.4799364745
 31
0.0
 11
4.2031124831
 21
17.4436477062
 31
0.0
 11
4.2032381658
 21
17.4107117442
 31
0.0
 11
4.2033744584
 21
17.3814419764
 31
0.0
 11
4.2035200556
 21
17.3561168809
 31
0.0
 11
4.2036735737
 21
17.3349778443
 31
0.0
 11
4.2038335655
 21
17.318226652
 31
0.0
 11
4.203915504
 21
17.3115476383
 31
0.0
 11
4.2039984753
 21
17.3060223714
 31
0.0
 11
4.2040822851
 21
17.3016630394
 31
0.0
 11
4.2041667393
 21
17.2984810924
 31
0.0
 11
4.2042516383
 21
17.2964835651
 31
0.0
 11
4.2043367793
 21
17.2956746438
 31
0.0
  0
SPLINE
  5
91B
100
AcDbEntity
  8
RACCORDO
100
AcDbSpline
 62
253
  6
CONTINUOUS
 70
0
 71
3
 72
23
 73
19
 74
17
 42
0.0000001
 43
0.0000001
 44
0.0000000001
 12
0.1855031305
 22
0.4643077475
 32
0.0
 13
0.00000021
 23
0.4999930957
 33
0.0
 40
0.0
 40
0.0
 40
0.0
 40
0.0
 40
0.0016268018
 40
0.0056255183
 40
0.0119917413
 40
0.020712137
 40
0.0317640693
 40
0.0451232864
 40
0.0786276616
 40
0.1209074336
 40
0.1715591609
 40
0.2301001395
 40
0.2959734528
 40
0.3685523489
 40
0.4471449995
 40
0.6193267103
 40
0.8059726588
 40
1.0
 40
1.0
 40
1.0
 40
1.0
 10
-4.2043367793
 20
17.2956746438
 30
0.0
 10
-4.204236187
 20
17.2959264227
 30
0.0
 10
-4.2042805121
 20
17.2968965036
 30
0.0
 10
-4.2041153832
 20
17.2988645103
 30
0.0
 10
-4.2040846033
 20
17.3020600371
 30
0.0
 10
-4.2039829515
 20
17.306408973
 30
0.0
 10
-4.2039097237
 20
17.311932774
 30
0.0
 10
-4.2037895975
 20
17.321583347
 30
0.0
 10
-4.2036558143
 20
17.3364405333
 30
0.0
 10
-4.2035052396
 20
17.3575120374
 30
0.0
 10
-4.2033630063
 20
17.3827568213
 30
0.0
 10
-4.2032287505
 20
17.4119337453
 30
0.0
 10
-4.2031047995
 20
17.4447652712
 30
0.0
 10
-4.202992223
 20
17.4809387383
 30
0.0
 10
-4.2028547953
 20
17.5348300321
 30
0.0
 10
-4.202722997
 20
17.607732301
 30
0.0
 10
-4.2026278925
 20
17.6998734871
 30
0.0
 10
-4.2026066504
 20
17.7633181616
 30
0.0
 10
-4.2026066368
 20
17.7956556053
 30
0.0
 11
-4.2043367793
 21
17.2956746438
 31
0.0
 11
-4.2042516383
 21
17.2964835651
 31
0.0
 11
-4.2041667393
 21
17.2984810924
 31
0.0
 11
-4.2040822851
 21
17.3016630394
 31
0.0
 11
-4.2039984753
 21
17.3060223714
 31
0.0
 11
-4.203915504
 21
17.3115476383
 31
0.0
 11
-4.2038335655
 21
17.318226652
 31
0.0
 11
-4.2036735737
 21
17.3349778443
 31
0.0
 11
-4.2035200556
 21
17.3561168809
 31
0.0
 11
-4.2033744584
 21
17.3814419764
 31
0.0
 11
-4.2032381658
 21
17.4107117442
 31
0.0
 11
-4.2031124831
 21
17.4436477062
 31
0.0
 11
-4.2029986062
 21
17.4799364745
 31
0.0
 11
-4.2028976182
 21
17.5192321274
 31
0.0
 11
-4.2027380367
 21
17.6053216461
 31
0.0
 11
-4.2026397982
 21
17.69864328
 31
0.0
 11
-4.2026066368
 21
17.7956556053
 31
0.0
  0
SPLINE
  5
91C
100
AcDbEntity
  8
RACCORDO
100
AcDbSpline
 62
7
  6
CONTINUOUS
 70
0
 71
3
 72
23
 73
19
 74
17
 42
0.0000001
 43
0.0000001
 44
0.0000000001
 12
0.0
 22
-1.3828272361
 32
0.0
 13
-0.0
 23
1.3828272361
 33
0.0
 40
0.0
 40
0.0
 40
0.0
 40
0.0
 40
0.0625021384
 40
0.1250013058
 40
0.1875013092
 40
0.2500018522
 40
0.3125019373
 40
0.3750008891
 40
0.4375008202
 40
0.4999997912
 40
0.5624987673
 40
0.624998697
 40
0.6874976451
 40
0.7499977439
 40
0.8124982789
 40
0.8749982979
 40
0.9374975958
 40
1.0
 40
1.0
 40
1.0
 40
1.0
 10
7.3401430257
 20
18.5630493339
 30
0.0
 10
7.3401430257
 20
18.5342394475
 30
0.0
 10
7.3344880676
 20
18.4764628014
 30
0.0
 10
7.3093554122
 20
18.3932201776
 30
0.0
 10
7.2685160045
 20
18.3164161258
 30
0.0
 10
7.2135016225
 20
18.2490425196
 30
0.0
 10
7.1464000758
 20
18.1936911655
 30
0.0
 10
7.0697716161
 20
18.1525240081
 30
0.0
 10
6.9865655446
 20
18.1271552702
 30
0.0
 10
6.9000002895
 20
18.1185847919
 30
0.0
 10
6.8134350284
 20
18.1271551684
 30
0.0
 10
6.7302289127
 20
18.1525237669
 30
0.0
 10
6.6536004111
 20
18.1936908575
 30
0.0
 10
6.586498784
 20
18.2490421099
 30
0.0
 10
6.5314842939
 20
18.3164156458
 30
0.0
 10
6.4906447967
 20
18.393219721
 30
0.0
 10
6.4655119625
 20
18.476462491
 30
0.0
 10
6.4598569743
 20
18.534239325
 30
0.0
 10
6.4598569743
 20
18.5630493339
 30
0.0
 11
7.3401430257
 21
18.5630493339
 31
0.0
 11
7.3317127504
 21
18.4770317981
 31
0.0
 11
7.306737745
 21
18.3942935062
 31
0.0
 11
7.2661536776
 21
18.3179881383
 31
0.0
 11
7.2114868799
 21
18.25104603
 31
0.0
 11
7.1448117896
 21
18.1960548712
 31
0.0
 11
7.0686756862
 21
18.1551572176
 31
0.0
 11
6.9860052464
 21
18.1299549009
 31
0.0
 11
6.9000002907
 21
18.1214415865
 31
0.0
 11
6.8139953174
 21
18.1299547935
 31
0.0
 11
6.7313248425
 21
18.1551569885
 31
0.0
 11
6.6551886972
 21
18.1960545534
 31
0.0
 11
6.5885135159
 21
18.2510456315
 31
0.0
 11
6.533846634
 21
18.3179876569
 31
0.0
 11
6.4932624766
 21
18.3942930012
 31
0.0
 11
6.4682873182
 21
18.4770314355
 31
0.0
 11
6.4598569743
 21
18.5630493339
 31
0.0
  0
SPLINE
  5
91D
100
AcDbEntity
  8
RACCORDO
100
AcDbSpline
 62
7
  6
CONTINUOUS
 70
0
 71
3
 72
23
 73
19
 74
17
 42
0.0000001
 43
0.0000001
 44
0.0000000001
 12
0.0
 22
-1.3828272361
 32
0.0
 13
0.0
 23
1.3828272361
 33
0.0
 40
0.0
 40
0.0
 40
0.0
 40
0.0
 40
0.0625021355
 40
0.1250012988
 40
0.187501302
 40
0.2500018468
 40
0.3125019313
 40
0.3750008835
 40
0.4375008158
 40
0.499999787
 40
0.5624987634
 40
0.6249986943
 40
0.6874976427
 40
0.7499977412
 40
0.8124982779
 40
0.8749982969
 40
0.9374975939
 40
1.0
 40
1.0
 40
1.0
 40
1.0
 10
-6.4598569743
 20
18.5630493339
 30
0.0
 10
-6.4598569743
 20
18.5342394488
 30
0.0
 10
-6.4655119321
 20
18.4764628061
 30
0.0
 10
-6.4906445843
 20
18.3932201848
 30
0.0
 10
-6.5314839907
 20
18.3164161335
 30
0.0
 10
-6.5864983713
 20
18.2490425257
 30
0.0
 10
-6.6535999175
 20
18.1936911697
 30
0.0
 10
-6.7302283772
 20
18.1525240111
 30
0.0
 10
-6.8134344489
 20
18.1271552713
 30
0.0
 10
-6.8999997047
 20
18.1185847919
 30
0.0
 10
-6.9865649666
 20
18.1271551675
 30
0.0
 10
-7.0697710835
 20
18.1525237651
 30
0.0
 10
-7.1463995859
 20
18.1936908555
 30
0.0
 10
-7.2135012141
 20
18.2490421078
 30
0.0
 10
-7.2685157049
 20
18.316415644
 30
0.0
 10
-7.3093552027
 20
18.3932197193
 30
0.0
 10
-7.3344880372
 20
18.4764624897
 30
0.0
 10
-7.3401430257
 20
18.5342393241
 30
0.0
 10
-7.3401430257
 20
18.5630493339
 30
0.0
 11
-6.4598569743
 21
18.5630493339
 31
0.0
 11
-6.4682872489
 21
18.4770318021
 31
0.0
 11
-6.493262251
 21
18.3942935151
 31
0.0
 11
-6.533846317
 21
18.3179881468
 31
0.0
 11
-6.5885131149
 21
18.2510460353
 31
0.0
 11
-6.6551882034
 21
18.1960548758
 31
0.0
 11
-6.7313243067
 21
18.1551572207
 31
0.0
 11
-6.8139947477
 21
18.129954902
 31
0.0
 11
-6.8999997034
 21
18.1214415865
 31
0.0
 11
-6.9860046773
 21
18.1299547925
 31
0.0
 11
-7.068675154
 21
18.155156987
 31
0.0
 11
-7.1448113001
 21
18.1960545516
 31
0.0
 11
-7.2114864814
 21
18.2510456289
 31
0.0
 11
-7.2661533652
 21
18.3179876558
 31
0.0
 11
-7.306737523
 21
18.3942929999
 31
0.0
 11
-7.3317126813
 21
18.4770314329
 31
0.0
 11
-7.3401430257
 21
18.5630493339
 31
0.0
  0
SPLINE
  5
91E
100
AcDbEntity
  8
RACCORDO
100
AcDbSpline
 62
7
  6
CONTINUOUS
 70
0
 71
3
 72
10
 73
6
 74
4
 42
0.0000001
 43
0.0000001
 44
0.0000000001
 12
0.3846146287
 22
-0.5439272242
 32
0.0
 13
0.3400495044
 23
-0.5728451558
 33
0.0
 40
0.0
 40
0.0
 40
0.0
 40
0.0
 40
0.5161876077
 40
0.7646904087
 40
1.0
 40
1.0
 40
1.0
 40
1.0
 10
7.5841007192
 20
-21.2626932437
 30
0.0
 10
7.6502784875
 20
-21.3562827413
 30
0.0
 10
7.7484164176
 20
-21.49487496
 30
0.0
 10
7.8723957365
 20
-21.6791105191
 30
0.0
 10
7.9297791771
 20
-21.7699806494
 30
0.0
 10
7.9564514804
 20
-21.8149126359
 30
0.0
 11
7.5841007192
 21
-21.2626932437
 31
0.0
 11
7.7812519021
 21
-21.5444339592
 31
0.0
 11
7.8733456755
 21
-21.6819988227
 31
0.0
 11
7.9564514804
 21
-21.8149126359
 31
0.0
  0
SPLINE
  5
91F
100
AcDbEntity
  8
RACCORDO
100
AcDbSpline
 62
7
  6
CONTINUOUS
 70
0
 71
3
 72
10
 73
6
 74
4
 42
0.0000001
 43
0.0000001
 44
0.0000000001
 12
0.3400495044
 22
0.5728451558
 32
0.0
 13
0.3846146287
 23
0.5439272242
 33
0.0
 40
0.0
 40
0.0
 40
0.0
 40
0.0
 40
0.2353095913
 40
0.4838123923
 40
1.0
 40
1.0
 40
1.0
 40
1.0
 10
-7.9564514804
 20
-21.8149126359
 30
0.0
 10
-7.9297791771
 20
-21.7699806494
 30
0.0
 10
-7.8723957365
 20
-21.6791105191
 30
0.0
 10
-7.7484164176
 20
-21.49487496
 30
0.0
 10
-7.6502784875
 20
-21.3562827413
 30
0.0
 10
-7.5841007192
 20
-21.2626932437
 30
0.0
 11
-7.9564514804
 21
-21.8149126359
 31
0.0
 11
-7.8733456755
 21
-21.6819988227
 31
0.0
 11
-7.7812519021
 21
-21.5444339592
 31
0.0
 11
-7.5841007192
 21
-21.2626932437
 31
0.0
  0
SPLINE
  5
920
100
AcDbEntity
  8
RACCORDO
100
AcDbSpline
 62
7
  6
CONTINUOUS
 70
0
 71
3
 72
10
 73
6
 74
4
 42
0.0000001
 43
0.0000001
 44
0.0000000001
 12
-0.3400495044
 22
-0.5728451558
 32
0.0
 13
-0.3846146287
 23
-0.5439272242
 33
0.0
 40
0.0
 40
0.0
 40
0.0
 40
0.0
 40
0.2353095913
 40
0.4838123923
 40
1.0
 40
1.0
 40
1.0
 40
1.0
 10
7.9564514804
 20
21.8149126359
 30
0.0
 10
7.9297791771
 20
21.7699806494
 30
0.0
 10
7.8723957365
 20
21.6791105191
 30
0.0
 10
7.7484164176
 20
21.49487496
 30
0.0
 10
7.6502784875
 20
21.3562827413
 30
0.0
 10
7.5841007192
 20
21.2626932437
 30
0.0
 11
7.9564514804
 21
21.8149126359
 31
0.0
 11
7.8733456755
 21
21.6819988227
 31
0.0
 11
7.7812519021
 21
21.5444339592
 31
0.0
 11
7.5841007192
 21
21.2626932437
 31
0.0
  0
SPLINE
  5
921
100
AcDbEntity
  8
RACCORDO
100
AcDbSpline
 62
7
  6
CONTINUOUS
 70
0
 71
3
 72
10
 73
6
 74
4
 42
0.0000001
 43
0.0000001
 44
0.0000000001
 12
-0.3846146287
 22
0.5439272242
 32
0.0
 13
-0.3400495044
 23
0.5728451558
 33
0.0
 40
0.0
 40
0.0
 40
0.0
 40
0.0
 40
0.5161876077
 40
0.7646904087
 40
1.0
 40
1.0
 40
1.0
 40
1.0
 10
-7.5841007192
 20
21.2626932437
 30
0.0
 10
-7.6502784875
 20
21.3562827413
 30
0.0
 10
-7.7484164176
 20
21.49487496
 30
0.0
 10
-7.8723957365
 20
21.6791105191
 30
0.0
 10
-7.9297791771
 20
21.7699806494
 30
0.0
 10
-7.9564514804
 20
21.8149126359
 30
0.0
 11
-7.5841007192
 21
21.2626932437
 31
0.0
 11
-7.7812519021
 21
21.5444339592
 31
0.0
 11
-7.8733456755
 21
21.6819988227
 31
0.0
 11
-7.9564514804
 21
21.8149126359
 31
0.0
  0
SPLINE
  5
922
100
AcDbEntity
  8
RACCORDO
100
AcDbSpline
 62
253
  6
CONTINUOUS
 70
0
 71
3
 72
13
 73
9
 74
7
 42
0.0000001
 43
0.0000001
 44
0.0000000001
 12
-0.0012265939
 22
-0.3651868479
 32
0.0
 13
-0.3651877491
 23
-0.0009199789
 33
0.0
 40
0.0
 40
0.0
 40
0.0
 40
0.0
 40
0.1162399782
 40
0.2339778175
 40
0.3543713311
 40
0.4780980184
 40
0.7345386243
 40
1.0
 40
1.0
 40
1.0
 40
1.0
 10
10.570628166
 20
23.8443375673
 30
0.0
 10
10.5705806396
 20
23.8301877969
 30
0.0
 10
10.5672223551
 20
23.8016148029
 30
0.0
 10
10.5526650278
 20
23.7606547352
 30
0.0
 10
10.5291946141
 20
23.7229828841
 30
0.0
 10
10.486892224
 20
23.6786204872
 30
0.0
 10
10.4169652956
 20
23.6387874753
 30
0.0
 10
10.3529468109
 20
23.6279126226
 30
0.0
 10
10.3206323968
 20
23.6278312164
 30
0.0
 11
10.570628166
 21
23.8443375673
 31
0.0
 11
10.5657004657
 21
23.8021749995
 31
0.0
 11
10.551389741
 21
23.7616298799
 31
0.0
 11
10.5282441408
 21
23.7242490909
 31
0.0
 11
10.4971495847
 21
23.6914666636
 31
0.0
 11
10.4161334639
 21
23.6444924903
 31
0.0
 11
10.3206323968
 21
23.6278312164
 31
0.0
  0
SPLINE
  5
923
100
AcDbEntity
  8
RACCORDO
100
AcDbSpline
 62
253
  6
CONTINUOUS
 70
0
 71
3
 72
13
 73
9
 74
7
 42
0.0000001
 43
0.0000001
 44
0.0000000001
 12
0.0012265939
 22
-0.3651868488
 32
0.0
 13
0.36518775
 23
-0.0009199789
 33
0.0
 40
0.0
 40
0.0
 40
0.0
 40
0.0
 40
0.1162401487
 40
0.2339779758
 40
0.3543714899
 40
0.478098162
 40
0.7345387303
 40
1.0
 40
1.0
 40
1.0
 40
1.0
 10
8.304371834
 20
23.8443375673
 30
0.0
 10
8.3044193605
 20
23.8301877761
 30
0.0
 10
8.3077776481
 20
23.8016147615
 30
0.0
 10
8.3223350011
 20
23.7606546823
 30
0.0
 10
8.345805421
 20
23.7229828394
 30
0.0
 10
8.3881078178
 20
23.6786204573
 30
0.0
 10
8.458034735
 20
23.6387874669
 30
0.0
 10
8.522053202
 20
23.6279126226
 30
0.0
 10
8.5543676032
 20
23.6278312164
 30
0.0
 11
8.304371834
 21
23.8443375673
 31
0.0
 11
8.3092995465
 21
23.8021749381
 31
0.0
 11
8.3236102851
 21
23.761629828
 31
0.0
 11
8.3467558954
 21
23.7242490449
 31
0.0
 11
8.3778504554
 21
23.6914666288
 31
0.0
 11
8.4588665728
 21
23.6444924765
 31
0.0
 11
8.5543676032
 21
23.6278312164
 31
0.0
  0
SPLINE
  5
924
100
AcDbEntity
  8
RACCORDO
100
AcDbSpline
 62
253
  6
CONTINUOUS
 70
0
 71
3
 72
13
 73
9
 74
7
 42
0.0000001
 43
0.0000001
 44
0.0000000001
 12
-0.0012265939
 22
-0.3651868479
 32
0.0
 13
-0.3651877491
 23
-0.0009199789
 33
0.0
 40
0.0
 40
0.0
 40
0.0
 40
0.0
 40
0.1162399782
 40
0.2339778175
 40
0.3543713311
 40
0.4780980184
 40
0.7345386243
 40
1.0
 40
1.0
 40
1.0
 40
1.0
 10
-8.304371834
 20
23.8443375673
 30
0.0
 10
-8.3044193604
 20
23.8301877969
 30
0.0
 10
-8.3077776449
 20
23.8016148029
 30
0.0
 10
-8.3223349722
 20
23.7606547352
 30
0.0
 10
-8.3458053859
 20
23.7229828841
 30
0.0
 10
-8.388107776
 20
23.6786204872
 30
0.0
 10
-8.4580347044
 20
23.6387874753
 30
0.0
 10
-8.5220531891
 20
23.6279126226
 30
0.0
 10
-8.5543676032
 20
23.6278312164
 30
0.0
 11
-8.304371834
 21
23.8443375673
 31
0.0
 11
-8.3092995343
 21
23.8021749995
 31
0.0
 11
-8.323610259
 21
23.7616298799
 31
0.0
 11
-8.3467558592
 21
23.7242490909
 31
0.0
 11
-8.3778504153
 21
23.6914666636
 31
0.0
 11
-8.4588665361
 21
23.6444924903
 31
0.0
 11
-8.5543676032
 21
23.6278312164
 31
0.0
  0
SPLINE
  5
925
100
AcDbEntity
  8
RACCORDO
100
AcDbSpline
 62
253
  6
CONTINUOUS
 70
0
 71
3
 72
13
 73
9
 74
7
 42
0.0000001
 43
0.0000001
 44
0.0000000001
 12
0.0012265939
 22
-0.3651868479
 32
0.0
 13
0.3651877491
 23
-0.0009199789
 33
0.0
 40
0.0
 40
0.0
 40
0.0
 40
0.0
 40
0.1162399782
 40
0.2339778175
 40
0.3543713311
 40
0.4780980184
 40
0.7345386243
 40
1.0
 40
1.0
 40
1.0
 40
1.0
 10
-10.570628166
 20
23.8443375673
 30
0.0
 10
-10.5705806396
 20
23.8301877969
 30
0.0
 10
-10.5672223551
 20
23.8016148029
 30
0.0
 10
-10.5526650278
 20
23.7606547352
 30
0.0
 10
-10.5291946141
 20
23.7229828841
 30
0.0
 10
-10.486892224
 20
23.6786204872
 30
0.0
 10
-10.4169652956
 20
23.6387874753
 30
0.0
 10
-10.3529468109
 20
23.6279126226
 30
0.0
 10
-10.3206323968
 20
23.6278312164
 30
0.0
 11
-10.570628166
 21
23.8443375673
 31
0.0
 11
-10.5657004657
 21
23.8021749995
 31
0.0
 11
-10.551389741
 21
23.7616298799
 31
0.0
 11
-10.5282441408
 21
23.7242490909
 31
0.0
 11
-10.4971495847
 21
23.6914666636
 31
0.0
 11
-10.4161334639
 21
23.6444924903
 31
0.0
 11
-10.3206323968
 21
23.6278312164
 31
0.0
  0
SPLINE
  5
926
100
AcDbEntity
  8
RACCORDO
100
AcDbSpline
 62
253
  6
CONTINUOUS
 70
0
 71
3
 72
23
 73
19
 74
17
 42
0.0000001
 43
0.0000001
 44
0.0000000001
 12
0.0000000747
 22
-0.2000225444
 32
0.0
 13
0.1411603425
 23
-0.1417137113
 33
0.0
 40
0.0
 40
0.0
 40
0.0
 40
0.0
 40
0.1940055415
 40
0.3806307695
 40
0.5527932436
 40
0.6313772802
 40
0.7039484802
 40
0.7698153013
 40
0.828351254
 40
0.8790000101
 40
0.9212792791
 40
0.9547860889
 40
0.9681485948
 40
0.9792057225
 40
0.9879335075
 40
0.9943103546
 40
0.9983270471
 40
1.0
 40
1.0
 40
1.0
 40
1.0
 10
4.5025952137
 20
17.7956556053
 30
0.0
 10
4.5025952186
 20
17.7827204446
 30
0.0
 10
4.5026164833
 20
17.7573421937
 30
0.0
 10
4.5027115811
 20
17.7204852611
 30
0.0
 10
4.5028433868
 20
17.6913241312
 30
0.0
 10
4.5029808064
 20
17.6697676177
 30
0.0
 10
4.503093373
 20
17.6552982875
 30
0.0
 10
4.5032173373
 20
17.6421657688
 30
0.0
 10
4.5033515319
 20
17.6304951688
 30
0.0
 10
4.5034939218
 20
17.6203972526
 30
0.0
 10
4.5036440472
 20
17.6119691005
 30
0.0
 10
4.5037788896
 20
17.6060255765
 30
0.0
 10
4.503897351
 20
17.6021668452
 30
0.0
 10
4.5039741259
 20
17.5999545291
 30
0.0
 10
4.5040664727
 20
17.5982218255
 30
0.0
 10
4.5041190743
 20
17.5969264539
 30
0.0
 10
4.5042440404
 20
17.5961682457
 30
0.0
 10
4.504246638
 20
17.5957422475
 30
0.0
 10
4.5043253562
 20
17.5956632207
 30
0.0
 11
4.5025952137
 21
17.7956556053
 31
0.0
 11
4.5026283824
 21
17.7568501374
 31
0.0
 11
4.5027266235
 21
17.7195210138
 31
0.0
 11
4.5028862062
 21
17.6850850074
 31
0.0
 11
4.5029871884
 21
17.6693667528
 31
0.0
 11
4.5031010602
 21
17.6548513234
 31
0.0
 11
4.5032267376
 21
17.6416770737
 31
0.0
 11
4.5033630227
 21
17.6299693567
 31
0.0
 11
4.5035086162
 21
17.6198395099
 31
0.0
 11
4.5036621334
 21
17.6113840964
 31
0.0
 11
4.5038221139
 21
17.6046838887
 31
0.0
 11
4.5039040481
 21
17.6020123424
 31
0.0
 11
4.5039870209
 21
17.5998022246
 31
0.0
 11
4.5040708431
 21
17.5980584843
 31
0.0
 11
4.5041553231
 21
17.5967857719
 31
0.0
 11
4.5042402406
 21
17.595986843
 31
0.0
 11
4.5043253562
 21
17.5956632207
 31
0.0
  0
SPLINE
  5
927
100
AcDbEntity
  8
RACCORDO
100
AcDbSpline
 62
253
  6
CONTINUOUS
 70
0
 71
3
 72
23
 73
19
 74
17
 42
0.0000001
 43
0.0000001
 44
0.0000000001
 12
0.1411603444
 22
0.1417137094
 32
0.0
 13
0.0000000747
 23
0.2000225444
 33
0.0
 40
0.0
 40
0.0
 40
0.0
 40
0.0
 40
0.0016729529
 40
0.0056896454
 40
0.0120664925
 40
0.0207942775
 40
0.0318514052
 40
0.0452139111
 40
0.0787207209
 40
0.1209999899
 40
0.171648746
 40
0.2301846987
 40
0.2960515198
 40
0.3686227198
 40
0.4472067564
 40
0.6193692305
 40
0.8059944585
 40
1.0
 40
1.0
 40
1.0
 40
1.0
 10
-4.5043253562
 20
17.5956632207
 30
0.0
 10
-4.504246638
 20
17.5957422475
 30
0.0
 10
-4.5042440404
 20
17.5961682457
 30
0.0
 10
-4.5041190743
 20
17.5969264539
 30
0.0
 10
-4.5040664727
 20
17.5982218255
 30
0.0
 10
-4.5039741259
 20
17.5999545291
 30
0.0
 10
-4.503897351
 20
17.6021668452
 30
0.0
 10
-4.5037788896
 20
17.6060255765
 30
0.0
 10
-4.5036440472
 20
17.6119691005
 30
0.0
 10
-4.5034939218
 20
17.6203972526
 30
0.0
 10
-4.5033515319
 20
17.6304951688
 30
0.0
 10
-4.5032173373
 20
17.6421657688
 30
0.0
 10
-4.503093373
 20
17.6552982875
 30
0.0
 10
-4.5029808064
 20
17.6697676177
 30
0.0
 10
-4.5028433868
 20
17.6913241312
 30
0.0
 10
-4.5027115811
 20
17.7204852611
 30
0.0
 10
-4.5026164833
 20
17.7573421937
 30
0.0
 10
-4.5025952186
 20
17.7827204446
 30
0.0
 10
-4.5025952137
 20
17.7956556053
 30
0.0
 11
-4.5043253562
 21
17.5956632207
 31
0.0
 11
-4.5042402406
 21
17.595986843
 31
0.0
 11
-4.5041553231
 21
17.5967857719
 31
0.0
 11
-4.5040708431
 21
17.5980584843
 31
0.0
 11
-4.5039870209
 21
17.5998022246
 31
0.0
 11
-4.5039040481
 21
17.6020123424
 31
0.0
 11
-4.5038221139
 21
17.6046838887
 31
0.0
 11
-4.5036621334
 21
17.6113840964
 31
0.0
 11
-4.5035086162
 21
17.6198395099
 31
0.0
 11
-4.5033630227
 21
17.6299693567
 31
0.0
 11
-4.5032267376
 21
17.6416770737
 31
0.0
 11
-4.5031010602
 21
17.6548513234
 31
0.0
 11
-4.5029871884
 21
17.6693667528
 31
0.0
 11
-4.5028862062
 21
17.6850850074
 31
0.0
 11
-4.5027266235
 21
17.7195210138
 31
0.0
 11
-4.5026283824
 21
17.7568501374
 31
0.0
 11
-4.5025952137
 21
17.7956556053
 31
0.0
  0
SPLINE
  5
928
100
AcDbEntity
  8
ASSI
100
AcDbSpline
 62
7
  6
CONTINUOUS
 70
0
 71
3
 72
19
 73
15
 74
13
 42
0.0000001
 43
0.0000001
 44
0.0000000001
 12
0.4219840187
 22
-0.4723384084
 32
0.0
 13
0.0258656436
 23
-0.6328546852
 33
0.0
 40
0.0
 40
0.0
 40
0.0
 40
0.0
 40
0.1585607425
 40
0.3150615751
 40
0.4671451568
 40
0.6117728794
 40
0.7446867571
 40
0.8049065401
 40
0.8596640812
 40
0.9077671953
 40
0.9479034352
 40
0.9788304066
 40
0.9906132713
 40
1.0
 40
1.0
 40
1.0
 40
1.0
 10
-3.9566964758
 20
-23.2563578147
 30
0.0
 10
-3.9343931093
 20
-23.2813225909
 30
0.0
 10
-3.89007581
 20
-23.330927562
 30
0.0
 10
-3.8245244249
 20
-23.4046186453
 30
0.0
 10
-3.7612657686
 20
-23.476411647
 30
0.0
 10
-3.7018812551
 20
-23.5449770509
 30
0.0
 10
-3.6559744886
 20
-23.5995537481
 30
0.0
 10
-3.623147551
 20
-23.6403197833
 30
0.0
 10
-3.6021081057
 20
-23.6675759157
 30
0.0
 10
-3.5843818943
 20
-23.6920317258
 30
0.0
 10
-3.5706504509
 20
-23.7131100285
 30
0.0
 10
-3.56229333
 20
-23.7285590652
 30
0.0
 10
-3.5585650047
 20
-23.7389242295
 30
0.0
 10
-3.557716715
 20
-23.7433554287
 30
0.0
 10
-3.5576357838
 20
-23.7453355738
 30
0.0
 11
-3.9566964758
 21
-23.2563578147
 31
0.0
 11
-3.8898131075
 21
-23.3312760162
 31
0.0
 11
-3.8239637049
 21
-23.4053679638
 31
0.0
 11
-3.7603306751
 21
-23.4776850415
 31
0.0
 11
-3.7004361569
 21
-23.5469964869
 31
0.0
 11
-3.6464135202
 21
-23.6115622345
 31
0.0
 11
-3.6225318334
 21
-23.6413026391
 31
0.0
 11
-3.6013968216
 21
-23.6688014928
 31
0.0
 11
-3.5836233089
 21
-23.6935478625
 31
0.0
 11
-3.5699146608
 21
-23.7149565388
 31
0.0
 11
-3.5610185454
 21
-23.7324085627
 31
0.0
 11
-3.5586000732
 21
-23.7394688996
 31
0.0
 11
-3.5576357838
 21
-23.7453355738
 31
0.0
  0
SPLINE
  5
929
100
AcDbEntity
  8
RACCORDO
100
AcDbSpline
 62
7
  6
CONTINUOUS
 70
0
 71
3
 72
15
 73
11
 74
9
 42
0.0000001
 43
0.0000001
 44
0.0000000001
 12
0.0031741022
 22
0.3149998123
 32
0.0
 13
0.3150158039
 23
-0.0
 33
0.0
 40
0.0
 40
0.0
 40
0.0
 40
0.0
 40
0.0847129374
 40
0.1757006909
 40
0.2778081862
 40
0.3942292046
 40
0.5263924491
 40
0.6737522819
 40
0.8333934372
 40
1.0
 40
1.0
 40
1.0
 40
1.0
 10
8.304371834
 20
-23.8443375673
 30
0.0
 10
8.3044614632
 20
-23.8354427142
 30
0.0
 10
8.3077030547
 20
-23.8169151481
 30
0.0
 10
8.3212510165
 20
-23.7906750928
 30
0.0
 10
8.3431173207
 20
-23.7662437729
 30
0.0
 10
8.3729647126
 20
-23.7443139213
 30
0.0
 10
8.4103248417
 20
-23.7256847024
 30
0.0
 10
8.454297613
 20
-23.7113065128
 30
0.0
 10
8.5033081754
 20
-23.7021703171
 30
0.0
 10
8.5376002652
 20
-23.7
 30
0.0
 10
8.5550948319
 20
-23.7
 30
0.0
 11
8.304371834
 21
-23.8443375673
 31
0.0
 11
8.3088255818
 21
-23.8180259322
 31
0.0
 11
8.3216467936
 21
-23.7923907994
 31
0.0
 11
8.3427961599
 21
-23.7681560707
 31
0.0
 11
8.372129078
 21
-23.7461425298
 31
0.0
 11
8.4092515743
 21
-23.7272939361
 31
0.0
 11
8.4533052251
 21
-23.7126598996
 31
0.0
 11
8.5027144738
 21
-23.7032919418
 31
0.0
 11
8.5550948319
 21
-23.7
 31
0.0
  0
SPLINE
  5
92A
100
AcDbEntity
  8
RACCORDO
100
AcDbSpline
 62
7
  6
CONTINUOUS
 70
0
 71
3
 72
15
 73
11
 74
9
 42
0.0000001
 43
0.0000001
 44
0.0000000001
 12
0.3142904289
 22
0.0
 32
0.0
 13
0.0031667933
 23
-0.3142744742
 33
0.0
 40
0.0
 40
0.0
 40
0.0
 40
0.0
 40
0.1666545511
 40
0.3262779792
 40
0.4735916211
 40
0.6057108254
 40
0.7221085607
 40
0.8242207343
 40
0.9152394685
 40
1.0
 40
1.0
 40
1.0
 40
1.0
 10
10.3206323968
 20
-23.7
 30
0.0
 10
10.3380917069
 20
-23.7
 30
0.0
 10
10.3723034732
 20
-23.7022700651
 30
0.0
 10
10.4211878482
 20
-23.7114284588
 30
0.0
 10
10.465028913
 20
-23.7258344539
 30
0.0
 10
10.5022691987
 20
-23.744460098
 30
0.0
 10
10.5320169748
 20
-23.7663702269
 30
0.0
 10
10.5538084606
 20
-23.7907682484
 30
0.0
 10
10.5673087823
 20
-23.8169652651
 30
0.0
 10
10.570538693
 20
-23.8354582101
 30
0.0
 10
10.570628166
 20
-23.8443375673
 30
0.0
 11
10.3206323968
 21
-23.7
 31
0.0
 11
10.3729016168
 21
-23.7033728661
 31
0.0
 11
10.42217892
 21
-23.7127849448
 31
0.0
 11
10.4660978905
 21
-23.7274391667
 31
0.0
 11
10.5030992753
 21
-23.7462838901
 31
0.0
 11
10.5323337071
 21
-23.7682757411
 31
0.0
 11
10.5534113806
 21
-23.7924766616
 31
0.0
 11
10.5661891944
 21
-23.8180705836
 31
0.0
 11
10.570628166
 21
-23.8443375673
 31
0.0
  0
SPLINE
  5
92B
100
AcDbEntity
  8
ASSI
100
AcDbSpline
 62
7
  6
CONTINUOUS
 70
0
 71
3
 72
19
 73
15
 74
13
 42
0.0000001
 43
0.0000001
 44
0.0000000001
 12
0.4221473557
 22
-0.4725212359
 32
0.0
 13
0.0174608731
 23
-0.6333875798
 33
0.0
 40
0.0
 40
0.0
 40
0.0
 40
0.0
 40
0.1587317355
 40
0.3153951249
 40
0.4676220728
 40
0.6123581053
 40
0.7453196464
 40
0.8055283624
 40
0.8602427754
 40
0.9082631881
 40
0.9482708978
 40
0.9790236603
 40
0.9907083864
 40
1.0
 40
1.0
 40
1.0
 40
1.0
 10
3.9566964758
 20
-23.2563578147
 30
0.0
 10
3.9790325366
 20
-23.2813591866
 30
0.0
 10
4.0234139281
 20
-23.3310358926
 30
0.0
 10
4.0890571615
 20
-23.4048311823
 30
0.0
 10
4.152396592
 20
-23.476718991
 30
0.0
 10
4.2118417411
 20
-23.5453619804
 30
0.0
 10
4.2577794765
 20
-23.5999887579
 30
0.0
 10
4.2906078478
 20
-23.6407779755
 30
0.0
 10
4.3116264646
 20
-23.668030421
 30
0.0
 10
4.3293116529
 20
-23.6924645865
 30
0.0
 10
4.3429773581
 20
-23.7134995703
 30
0.0
 10
4.3512627363
 20
-23.7289016302
 30
0.0
 10
4.3549109318
 20
-23.7392180505
 30
0.0
 10
4.3557115299
 20
-23.7436202644
 30
0.0
 10
4.3557656098
 20
-23.7455819953
 30
0.0
 11
3.9566964758
 21
-23.2563578147
 31
0.0
 11
4.0236778084
 21
-23.3313859093
 31
0.0
 11
4.0896205323
 21
-23.4055840495
 31
0.0
 11
4.1533363949
 21
-23.4779989066
 31
0.0
 11
4.2132947242
 21
-23.547392774
 31
0.0
 11
4.2673484814
 21
-23.6120143472
 31
0.0
 11
4.2912269453
 21
-23.641767279
 31
0.0
 11
4.3123414046
 21
-23.6692643903
 31
0.0
 11
4.3300726648
 21
-23.6939910986
 31
0.0
 11
4.3437129198
 21
-23.7153585183
 31
0.0
 11
4.3525110864
 21
-23.732744989
 31
0.0
 11
4.3548690893
 21
-23.7397632269
 31
0.0
 11
4.3557656098
 21
-23.7455819953
 31
0.0
  0
SPLINE
  5
92C
100
AcDbEntity
  8
RACCORDO
100
AcDbSpline
 62
253
  6
CONTINUOUS
 70
0
 71
3
 72
13
 73
9
 74
7
 42
0.0000001
 43
0.0000001
 44
0.0000000001
 12
0.0012265939
 22
0.3651868479
 32
0.0
 13
0.3651877491
 23
0.0009199789
 33
0.0
 40
0.0
 40
0.0
 40
0.0
 40
0.0
 40
0.1162399782
 40
0.2339778175
 40
0.3543713311
 40
0.4780980184
 40
0.7345386243
 40
1.0
 40
1.0
 40
1.0
 40
1.0
 10
-10.570628166
 20
-23.8443375673
 30
0.0
 10
-10.5705806396
 20
-23.8301877969
 30
0.0
 10
-10.5672223551
 20
-23.8016148029
 30
0.0
 10
-10.5526650278
 20
-23.7606547352
 30
0.0
 10
-10.5291946141
 20
-23.7229828841
 30
0.0
 10
-10.486892224
 20
-23.6786204872
 30
0.0
 10
-10.4169652956
 20
-23.6387874753
 30
0.0
 10
-10.3529468109
 20
-23.6279126226
 30
0.0
 10
-10.3206323968
 20
-23.6278312164
 30
0.0
 11
-10.570628166
 21
-23.8443375673
 31
0.0
 11
-10.5657004657
 21
-23.8021749995
 31
0.0
 11
-10.551389741
 21
-23.7616298799
 31
0.0
 11
-10.5282441408
 21
-23.7242490909
 31
0.0
 11
-10.4971495847
 21
-23.6914666636
 31
0.0
 11
-10.4161334639
 21
-23.6444924903
 31
0.0
 11
-10.3206323968
 21
-23.6278312164
 31
0.0
  0
SPLINE
  5
92D
100
AcDbEntity
  8
RACCORDO
100
AcDbSpline
 62
253
  6
CONTINUOUS
 70
0
 71
3
 72
13
 73
9
 74
7
 42
0.0000001
 43
0.0000001
 44
0.0000000001
 12
-0.0012265939
 22
0.3651868486
 32
0.0
 13
-0.3651877498
 23
0.0009199789
 33
0.0
 40
0.0
 40
0.0
 40
0.0
 40
0.0
 40
0.1162401412
 40
0.2339779602
 40
0.3543714643
 40
0.4780981267
 40
0.7345386771
 40
1.0
 40
1.0
 40
1.0
 40
1.0
 10
-8.304371834
 20
-23.8443375673
 30
0.0
 10
-8.3044193605
 20
-23.830187777
 30
0.0
 10
-8.3077776477
 20
-23.8016147644
 30
0.0
 10
-8.3223349985
 20
-23.7606546878
 30
0.0
 10
-8.3458054152
 20
-23.722982847
 30
0.0
 10
-8.3881078067
 20
-23.6786204663
 30
0.0
 10
-8.458034724
 20
-23.6387874704
 30
0.0
 10
-8.5220531955
 20
-23.6279126226
 30
0.0
 10
-8.5543676032
 20
-23.6278312164
 30
0.0
 11
-8.304371834
 21
-23.8443375673
 31
0.0
 11
-8.3092995459
 21
-23.8021749409
 31
0.0
 11
-8.3236102825
 21
-23.7616298332
 31
0.0
 11
-8.3467558894
 21
-23.7242490524
 31
0.0
 11
-8.3778504455
 21
-23.6914666374
 31
0.0
 11
-8.4588665543
 21
-23.6444924834
 31
0.0
 11
-8.5543676032
 21
-23.6278312164
 31
0.0
  0
SPLINE
  5
92E
100
AcDbEntity
  8
ASSI
100
AcDbSpline
 62
7
  6
CONTINUOUS
 70
0
 71
3
 72
19
 73
15
 74
13
 42
0.0000001
 43
0.0000001
 44
0.0000000001
 12
-0.4221473558
 22
0.4725212361
 32
0.0
 13
-0.0174608731
 23
0.63338758
 33
0.0
 40
0.0
 40
0.0
 40
0.0
 40
0.0
 40
0.1587315068
 40
0.3153949244
 40
0.4676219142
 40
0.6123577342
 40
0.7453190252
 40
0.8055277403
 40
0.8602422018
 40
0.9082627581
 40
0.9482707428
 40
0.9790236663
 40
0.9907083987
 40
1.0
 40
1.0
 40
1.0
 40
1.0
 10
-3.9566964758
 20
23.2563578147
 30
0.0
 10
-3.9790325044
 20
23.2813591506
 30
0.0
 10
-4.0234138681
 20
23.3310358247
 30
0.0
 10
-4.0890570798
 20
23.404831089
 30
0.0
 10
-4.1523964901
 20
23.4767188755
 30
0.0
 10
-4.211841585
 20
23.5453617944
 30
0.0
 10
-4.2577792528
 20
23.5999885007
 30
0.0
 10
-4.2906076106
 20
23.640777674
 30
0.0
 10
-4.3116262641
 20
23.6680301425
 30
0.0
 10
-4.3293115119
 20
23.6924643864
 30
0.0
 10
-4.3429772995
 20
23.7134994631
 30
0.0
 10
-4.351262724
 20
23.728901604
 30
0.0
 10
-4.354910937
 20
23.7392180535
 30
0.0
 10
-4.3557115299
 20
23.743620267
 30
0.0
 10
-4.3557656098
 20
23.7455819953
 30
0.0
 11
-3.9566964758
 21
23.2563578147
 31
0.0
 11
-4.0236777123
 21
23.3313858009
 31
0.0
 11
-4.0896204485
 21
23.4055839542
 31
0.0
 11
-4.1533363291
 21
23.4779988308
 31
0.0
 11
-4.2132945719
 21
23.5473925951
 31
0.0
 11
-4.2673482297
 21
23.6120140448
 31
0.0
 11
-4.2912267025
 21
23.6417669688
 31
0.0
 11
-4.3123411905
 21
23.6692640968
 31
0.0
 11
-4.3300725105
 21
23.6939908742
 31
0.0
 11
-4.3437128705
 21
23.7153584336
 31
0.0
 11
-4.352511088
 21
23.7327449929
 31
0.0
 11
-4.3548690935
 21
23.7397632341
 31
0.0
 11
-4.3557656098
 21
23.7455819953
 31
0.0
  0
SPLINE
  5
92F
100
AcDbEntity
  8
ASSI
100
AcDbSpline
 62
7
  6
CONTINUOUS
 70
0
 71
3
 72
19
 73
15
 74
13
 42
0.0000001
 43
0.0000001
 44
0.0000000001
 12
-0.4219840189
 22
0.4723384086
 32
0.0
 13
-0.0258656436
 23
0.6328546854
 33
0.0
 40
0.0
 40
0.0
 40
0.0
 40
0.0
 40
0.1585605186
 40
0.315061382
 40
0.4671450067
 40
0.6117725211
 40
0.7446861521
 40
0.8049059333
 40
0.8596635192
 40
0.9077667698
 40
0.9479032802
 40
0.9788304119
 40
0.9906132832
 40
1.0
 40
1.0
 40
1.0
 40
1.0
 10
3.9566964758
 20
23.2563578147
 30
0.0
 10
3.9343931408
 20
23.2813225557
 30
0.0
 10
3.8900758683
 20
23.3309274961
 30
0.0
 10
3.8245245038
 20
23.4046185553
 30
0.0
 10
3.7612658666
 20
23.476411536
 30
0.0
 10
3.7018814061
 20
23.544976871
 30
0.0
 10
3.6559747062
 20
23.5995534981
 30
0.0
 10
3.6231477827
 20
23.6403194892
 30
0.0
 10
3.6021083025
 20
23.6675756428
 30
0.0
 10
3.5843820334
 20
23.6920315286
 30
0.0
 10
3.5706505094
 20
23.7131099222
 30
0.0
 10
3.5622933425
 20
23.7285590388
 30
0.0
 10
3.5585649998
 20
23.7389242323
 30
0.0
 10
3.5577167149
 20
23.7433554312
 30
0.0
 10
3.5576357838
 20
23.7453355738
 30
0.0
 11
3.9566964758
 21
23.2563578147
 31
0.0
 11
3.8898132015
 21
23.3312759101
 31
0.0
 11
3.8239637857
 21
23.405367872
 31
0.0
 11
3.7603307374
 21
23.4776849698
 31
0.0
 11
3.7004363039
 21
23.5469963142
 31
0.0
 11
3.6464137653
 21
23.6115619401
 31
0.0
 11
3.6225320702
 21
23.6413023367
 31
0.0
 11
3.6013970314
 21
23.6688012055
 31
0.0
 11
3.5836234618
 21
23.6935476406
 31
0.0
 11
3.5699147102
 21
23.7149564541
 31
0.0
 11
3.561018544
 21
23.7324085661
 31
0.0
 11
3.5586000692
 21
23.7394689066
 31
0.0
 11
3.5576357838
 21
23.7453355738
 31
0.0
  0
SPLINE
  5
930
100
AcDbEntity
  8
RACCORDO
100
AcDbSpline
 62
7
  6
CONTINUOUS
 70
0
 71
3
 72
13
 73
9
 74
7
 42
0.0000001
 43
0.0000001
 44
0.0000000001
 12
-0.0034684618
 22
-0.4498520597
 32
0.0
 13
-0.2404631875
 23
-0.3802056829
 33
0.0
 40
0.0
 40
0.0
 40
0.0
 40
0.0
 40
0.0927401999
 40
0.2001625341
 40
0.3192652521
 40
0.4469093207
 40
0.718292818
 40
1.0
 40
1.0
 40
1.0
 40
1.0
 10
-6.5570215015
 20
-20.1837995929
 30
0.0
 10
-6.5571287234
 20
-20.1977060496
 30
0.0
 10
-6.5625557335
 20
-20.2276040675
 30
0.0
 10
-6.5786738831
 20
-20.272727706
 30
0.0
 10
-6.6010327698
 20
-20.3209689378
 30
0.0
 10
-6.6375718102
 20
-20.3895553182
 30
0.0
 10
-6.6901117944
 20
-20.4771293509
 30
0.0
 10
-6.7344380479
 20
-20.5472220594
 30
0.0
 10
-6.7570181168
 20
-20.5829242832
 30
0.0
 11
-6.5570215015
 21
-20.1837995929
 31
0.0
 11
-6.5631619286
 21
-20.2250658558
 31
0.0
 11
-6.5787283748
 21
-20.2708157066
 31
0.0
 11
-6.6009184242
 21
-20.3195849496
 31
0.0
 11
-6.6277071224
 21
-20.3703759609
 31
0.0
 11
-6.6897093555
 21
-20.475545955
 31
0.0
 11
-6.7570181168
 21
-20.5829242832
 31
0.0
  0
SPLINE
  5
931
100
AcDbEntity
  8
ASSI
100
AcDbSpline
 62
7
  6
CONTINUOUS
 70
0
 71
3
 72
8
 73
4
 74
2
 42
0.0000001
 43
0.0000001
 44
0.0000000001
 12
0.0878470164
 22
0.0351655621
 32
0.0
 13
0.0946240723
 23
0.0
 33
0.0
 40
0.0
 40
0.0
 40
0.0
 40
0.0
 40
1.0
 40
1.0
 40
1.0
 40
1.0
 10
8.4570816648
 20
24.4820923408
 30
0.0
 10
8.4863640036
 20
24.4938141948
 30
0.0
 10
8.5184544118
 20
24.5
 30
0.0
 10
8.5499957692
 20
24.5
 30
0.0
 11
8.4570816648
 21
24.4820923408
 31
0.0
 11
8.5499957692
 21
24.5
 31
0.0
  0
SPLINE
  5
932
100
AcDbEntity
  8
ASSI
100
AcDbSpline
 62
7
  6
CONTINUOUS
 70
0
 71
3
 72
8
 73
4
 74
2
 42
0.0000001
 43
0.0000001
 44
0.0000000001
 12
0.0351655621
 22
-0.0878470164
 32
0.0
 13
0.0
 23
-0.0946240723
 33
0.0
 40
0.0
 40
0.0
 40
0.0
 40
0.0
 40
1.0
 40
1.0
 40
1.0
 40
1.0
 10
10.5570923408
 20
24.3429183352
 30
0.0
 10
10.5688141948
 20
24.3136359964
 30
0.0
 10
10.575
 20
24.2815455882
 30
0.0
 10
10.575
 20
24.2500042308
 30
0.0
 11
10.5570923408
 21
24.3429183352
 31
0.0
 11
10.575
 21
24.2500042308
 31
0.0
  0
SPLINE
  5
933
100
AcDbEntity
  8
ASSI
100
AcDbSpline
 62
7
  6
CONTINUOUS
 70
0
 71
3
 72
8
 73
4
 74
2
 42
0.0000001
 43
0.0000001
 44
0.0000000001
 12
0.0351655621
 22
-0.0878470164
 32
0.0
 13
0.0
 23
-0.0946240723
 33
0.0
 40
0.0
 40
0.0
 40
0.0
 40
0.0
 40
1.0
 40
1.0
 40
1.0
 40
1.0
 10
-8.3179076592
 20
24.3429183352
 30
0.0
 10
-8.3061858052
 20
24.3136359964
 30
0.0
 10
-8.3
 20
24.2815455882
 30
0.0
 10
-8.3
 20
24.2500042308
 30
0.0
 11
-8.3179076592
 21
24.3429183352
 31
0.0
 11
-8.3
 21
24.2500042308
 31
0.0
  0
SPLINE
  5
934
100
AcDbEntity
  8
ASSI
100
AcDbSpline
 62
7
  6
CONTINUOUS
 70
0
 71
3
 72
8
 73
4
 74
2
 42
0.0000001
 43
0.0000001
 44
0.0000000001
 12
0.0878470164
 22
0.0351655621
 32
0.0
 13
0.0946240723
 23
0.0
 33
0.0
 40
0.0
 40
0.0
 40
0.0
 40
0.0
 40
1.0
 40
1.0
 40
1.0
 40
1.0
 10
-10.4179183352
 20
24.4820923408
 30
0.0
 10
-10.3886359964
 20
24.4938141948
 30
0.0
 10
-10.3565455882
 20
24.5
 30
0.0
 10
-10.3250042308
 20
24.5
 30
0.0
 11
-10.4179183352
 21
24.4820923408
 31
0.0
 11
-10.3250042308
 21
24.5
 31
0.0
  0
SPLINE
  5
935
100
AcDbEntity
  8
ASSI
100
AcDbSpline
 62
7
  6
CONTINUOUS
 70
0
 71
3
 72
8
 73
4
 74
2
 42
0.0000001
 43
0.0000001
 44
0.0000000001
 12
-0.0351655621
 22
0.0878470164
 32
0.0
 13
0.0
 23
0.0946240723
 33
0.0
 40
0.0
 40
0.0
 40
0.0
 40
0.0
 40
1.0
 40
1.0
 40
1.0
 40
1.0
 10
8.3179076592
 20
-24.3429183352
 30
0.0
 10
8.3061858052
 20
-24.3136359964
 30
0.0
 10
8.3
 20
-24.2815455882
 30
0.0
 10
8.3
 20
-24.2500042308
 30
0.0
 11
8.3179076592
 21
-24.3429183352
 31
0.0
 11
8.3
 21
-24.2500042308
 31
0.0
  0
SPLINE
  5
936
100
AcDbEntity
  8
ASSI
100
AcDbSpline
 62
7
  6
CONTINUOUS
 70
0
 71
3
 72
8
 73
4
 74
2
 42
0.0000001
 43
0.0000001
 44
0.0000000001
 12
-0.0878470164
 22
-0.0351655621
 32
0.0
 13
-0.0946240723
 23
0.0
 33
0.0
 40
0.0
 40
0.0
 40
0.0
 40
0.0
 40
1.0
 40
1.0
 40
1.0
 40
1.0
 10
10.4179183352
 20
-24.4820923408
 30
0.0
 10
10.3886359964
 20
-24.4938141948
 30
0.0
 10
10.3565455882
 20
-24.5
 30
0.0
 10
10.3250042308
 20
-24.5
 30
0.0
 11
10.4179183352
 21
-24.4820923408
 31
0.0
 11
10.3250042308
 21
-24.5
 31
0.0
  0
SPLINE
  5
937
100
AcDbEntity
  8
ASSI
100
AcDbSpline
 62
7
  6
CONTINUOUS
 70
0
 71
3
 72
8
 73
4
 74
2
 42
0.0000001
 43
0.0000001
 44
0.0000000001
 12
-0.0351655621
 22
0.0878470164
 32
0.0
 13
0.0
 23
0.0946240723
 33
0.0
 40
0.0
 40
0.0
 40
0.0
 40
0.0
 40
1.0
 40
1.0
 40
1.0
 40
1.0
 10
-10.5570923408
 20
-24.3429183352
 30
0.0
 10
-10.5688141948
 20
-24.3136359964
 30
0.0
 10
-10.575
 20
-24.2815455882
 30
0.0
 10
-10.575
 20
-24.2500042308
 30
0.0
 11
-10.5570923408
 21
-24.3429183352
 31
0.0
 11
-10.575
 21
-24.2500042308
 31
0.0
  0
SPLINE
  5
938
100
AcDbEntity
  8
ASSI
100
AcDbSpline
 62
7
  6
CONTINUOUS
 70
0
 71
3
 72
8
 73
4
 74
2
 42
0.0000001
 43
0.0000001
 44
0.0000000001
 12
-0.0878470164
 22
-0.0351655621
 32
0.0
 13
-0.0946240723
 23
0.0
 33
0.0
 40
0.0
 40
0.0
 40
0.0
 40
0.0
 40
1.0
 40
1.0
 40
1.0
 40
1.0
 10
-8.4570816648
 20
-24.4820923408
 30
0.0
 10
-8.4863640036
 20
-24.4938141948
 30
0.0
 10
-8.5184544118
 20
-24.5
 30
0.0
 10
-8.5499957692
 20
-24.5
 30
0.0
 11
-8.4570816648
 21
-24.4820923408
 31
0.0
 11
-8.5499957692
 21
-24.5
 31
0.0
  0
SPLINE
  5
939
100
AcDbEntity
  8
ASSI
100
AcDbSpline
 62
7
  6
CONTINUOUS
 70
0
 71
3
 72
12
 73
8
 74
6
 42
0.0000001
 43
0.0000001
 44
0.0000000001
 12
0.0034680981
 22
0.4498048873
 32
0.0
 13
0.240437972
 23
0.3801658138
 33
0.0
 40
0.0
 40
0.0
 40
0.0
 40
0.0
 40
0.0927499258
 40
0.2001835257
 40
0.4468513164
 40
0.7182632745
 40
1.0
 40
1.0
 40
1.0
 40
1.0
 10
6.5570215015
 20
20.1837995929
 30
0.0
 10
6.5571287234
 20
20.1977060496
 30
0.0
 10
6.5625472628
 20
20.2276058968
 30
0.0
 10
6.5851669587
 20
20.2907418591
 30
0.0
 10
6.6285266557
 20
20.3742535138
 30
0.0
 10
6.6900687063
 20
20.4771272363
 30
0.0
 10
6.7344380479
 20
20.5472220594
 30
0.0
 10
6.7570181168
 20
20.5829242832
 30
0.0
 11
6.5570215015
 21
20.1837995929
 31
0.0
 11
6.5631619286
 21
20.2250658558
 31
0.0
 11
6.5787283748
 21
20.2708157066
 31
0.0
 11
6.6277071224
 21
20.3703759609
 31
0.0
 11
6.6897093555
 21
20.475545955
 31
0.0
 11
6.7570181168
 21
20.5829242832
 31
0.0
  0
SPLINE
  5
93A
100
AcDbEntity
  8
ASSI
100
AcDbSpline
 62
7
  6
CONTINUOUS
 70
0
 71
3
 72
12
 73
8
 74
6
 42
0.0000001
 43
0.0000001
 44
0.0000000001
 12
0.2404379747
 22
-0.380165818
 32
0.0
 13
0.0034680981
 23
-0.4498048923
 33
0.0
 40
0.0
 40
0.0
 40
0.0
 40
0.0
 40
0.2817363516
 40
0.5531481446
 40
0.7998154341
 40
0.907249539
 40
1.0
 40
1.0
 40
1.0
 40
1.0
 10
-6.7570181168
 20
20.5829242832
 30
0.0
 10
-6.7344380776
 20
20.5472221063
 30
0.0
 10
-6.6900687924
 20
20.4771273438
 30
0.0
 10
-6.6285267801
 20
20.3742537733
 30
0.0
 10
-6.5851671184
 20
20.2907421381
 30
0.0
 10
-6.5625472769
 20
20.2276061382
 30
0.0
 10
-6.557128724
 20
20.19770613
 30
0.0
 10
-6.5570215015
 20
20.1837995929
 30
0.0
 11
-6.7570181168
 21
20.5829242832
 31
0.0
 11
-6.6897094469
 21
20.4755460946
 31
0.0
 11
-6.6277072327
 21
20.370376174
 31
0.0
 11
-6.5787285444
 21
20.2708161403
 31
0.0
 11
-6.5631619655
 21
20.2250660941
 31
0.0
 11
-6.5570215015
 21
20.1837995929
 31
0.0
  0
SPLINE
  5
93B
100
AcDbEntity
  8
ASSI
100
AcDbSpline
 62
253
  6
CONTINUOUS
 70
0
 71
3
 72
15
 73
11
 74
9
 42
0.0000001
 43
0.0000001
 44
0.0000000001
 12
0.0000179412
 22
-0.4470524659
 32
0.0
 13
0.0000262413
 23
0.4470524654
 33
0.0
 40
0.0
 40
0.0
 40
0.0
 40
0.0
 40
0.1250061734
 40
0.2500092497
 40
0.3750066258
 40
0.4999999808
 40
0.6249933449
 40
0.7499907332
 40
0.8749938198
 40
1.0
 40
1.0
 40
1.0
 40
1.0
 10
6.7570181168
 20
19.9267239376
 30
0.0
 10
6.7570188644
 20
19.9080958316
 30
0.0
 10
6.7644351891
 20
19.8704356116
 30
0.0
 10
6.7961673664
 20
19.8227554877
 30
0.0
 10
6.8437649418
 20
19.7907599057
 30
0.0
 10
6.900000022
 20
19.7795197694
 30
0.0
 10
6.9562351333
 20
19.7907598804
 30
0.0
 10
7.0038326504
 20
19.8227554662
 30
0.0
 10
7.0355650677
 20
19.8704355893
 30
0.0
 10
7.0429807897
 20
19.9080958306
 30
0.0
 10
7.0429818832
 20
19.9267239376
 30
0.0
 11
6.7570181168
 21
19.9267239376
 31
0.0
 11
6.7678700834
 21
19.8719033955
 31
0.0
 11
6.7988124316
 21
19.8253687488
 31
0.0
 11
6.8452052958
 21
19.7942187952
 31
0.0
 11
6.9000000255
 21
19.7832664371
 31
0.0
 11
6.9547947635
 21
19.7942187745
 31
0.0
 11
7.0011876352
 21
19.8253687268
 31
0.0
 11
7.0321299831
 21
19.8719033793
 31
0.0
 11
7.0429818832
 21
19.9267239376
 31
0.0
  0
SPLINE
  5
93C
100
AcDbEntity
  8
ASSI
100
AcDbSpline
 62
253
  6
CONTINUOUS
 70
0
 71
3
 72
15
 73
11
 74
9
 42
0.0000001
 43
0.0000001
 44
0.0000000001
 12
-0.0000251528
 22
-0.447052511
 32
0.0
 13
-0.0000262286
 23
0.447052511
 33
0.0
 40
0.0
 40
0.0
 40
0.0
 40
0.0
 40
0.1250061781
 40
0.2500092589
 40
0.375006638
 40
0.4999999946
 40
0.6249933533
 40
0.7499907346
 40
0.8749938181
 40
1.0
 40
1.0
 40
1.0
 40
1.0
 10
-6.7570181168
 20
19.9267239376
 30
0.0
 10
-6.7570191649
 20
19.908095829
 30
0.0
 10
-6.7644349741
 20
19.870435588
 30
0.0
 10
-6.79616737
 20
19.8227554678
 30
0.0
 10
-6.8437649004
 20
19.7907598866
 30
0.0
 10
-6.9000000039
 20
19.7795197613
 30
0.0
 10
-6.9562351123
 20
19.7907598817
 30
0.0
 10
-7.0038326347
 20
19.8227554634
 30
0.0
 10
-7.0355650676
 20
19.8704355822
 30
0.0
 10
-7.0429807903
 20
19.9080958284
 30
0.0
 10
-7.0429818832
 20
19.9267239376
 30
0.0
 11
-6.7570181168
 21
19.9267239376
 31
0.0
 11
-6.7678700337
 21
19.8719033777
 31
0.0
 11
-6.7988123915
 21
19.8253687281
 31
0.0
 11
-6.8452052662
 21
19.7942187776
 31
0.0
 11
-6.9000000043
 21
19.7832664287
 31
0.0
 11
-6.9547947442
 21
19.7942187736
 31
0.0
 11
-7.0011876206
 21
19.8253687233
 31
0.0
 11
-7.0321299801
 21
19.8719033733
 31
0.0
 11
-7.0429818832
 21
19.9267239376
 31
0.0
  0
SPLINE
  5
93D
100
AcDbEntity
  8
ASSI
100
AcDbSpline
 62
253
  6
CONTINUOUS
 70
0
 71
3
 72
15
 73
11
 74
9
 42
0.0000001
 43
0.0000001
 44
0.0000000001
 12
-0.0000184405
 22
0.4470524692
 32
0.0
 13
-0.0000263756
 23
-0.4470524688
 33
0.0
 40
0.0
 40
0.0
 40
0.0
 40
0.0
 40
0.1250061733
 40
0.2500092496
 40
0.3750066258
 40
0.4999999806
 40
0.6249933443
 40
0.7499907323
 40
0.8749938191
 40
1.0
 40
1.0
 40
1.0
 40
1.0
 10
-6.7570181168
 20
-19.9267239376
 30
0.0
 10
-6.7570188852
 20
-19.9080958314
 30
0.0
 10
-6.7644351758
 20
-19.8704356104
 30
0.0
 10
-6.7961673674
 20
-19.8227554867
 30
0.0
 10
-6.8437649399
 20
-19.7907599049
 30
0.0
 10
-6.9000000214
 20
-19.7795197692
 30
0.0
 10
-6.956235133
 20
-19.7907598803
 30
0.0
 10
-7.0038326496
 20
-19.8227554656
 30
0.0
 10
-7.0355650731
 20
-19.870435588
 30
0.0
 10
-7.0429807841
 20
-19.9080958303
 30
0.0
 10
-7.0429818832
 20
-19.9267239376
 30
0.0
 11
-6.7570181168
 21
-19.9267239376
 31
0.0
 11
-6.7678700809
 21
-19.8719033946
 31
0.0
 11
-6.7988124297
 21
-19.8253687477
 31
0.0
 11
-6.8452052946
 21
-19.7942187945
 31
0.0
 11
-6.9000000248
 21
-19.7832664368
 31
0.0
 11
-6.9547947631
 21
-19.7942187742
 31
0.0
 11
-7.0011876354
 21
-19.825368726
 31
0.0
 11
-7.0321299846
 21
-19.8719033782
 31
0.0
 11
-7.0429818832
 21
-19.9267239376
 31
0.0
  0
SPLINE
  5
93E
100
AcDbEntity
  8
ASSI
100
AcDbSpline
 62
253
  6
CONTINUOUS
 70
0
 71
3
 72
15
 73
11
 74
9
 42
0.0000001
 43
0.0000001
 44
0.0000000001
 12
0.0000253335
 22
0.4470525136
 32
0.0
 13
0.0000263417
 23
-0.4470525136
 33
0.0
 40
0.0
 40
0.0
 40
0.0
 40
0.0
 40
0.1250061786
 40
0.2500092594
 40
0.3750066384
 40
0.4999999946
 40
0.6249933529
 40
0.7499907339
 40
0.8749938175
 40
1.0
 40
1.0
 40
1.0
 40
1.0
 10
6.7570181168
 20
-19.9267239376
 30
0.0
 10
6.7570191724
 20
-19.9080958288
 30
0.0
 10
6.7644349675
 20
-19.8704355868
 30
0.0
 10
6.7961673704
 20
-19.8227554671
 30
0.0
 10
6.8437648997
 20
-19.7907598862
 30
0.0
 10
6.9000000037
 20
-19.7795197614
 30
0.0
 10
6.9562351125
 20
-19.7907598815
 30
0.0
 10
7.0038326343
 20
-19.8227554628
 30
0.0
 10
7.0355650725
 20
-19.870435581
 30
0.0
 10
7.0429807855
 20
-19.9080958282
 30
0.0
 10
7.0429818832
 20
-19.9267239376
 30
0.0
 11
6.7570181168
 21
-19.9267239376
 31
0.0
 11
6.7678700318
 21
-19.8719033768
 31
0.0
 11
6.7988123905
 21
-19.8253687274
 31
0.0
 11
6.8452052659
 21
-19.7942187773
 31
0.0
 11
6.9000000042
 21
-19.7832664287
 31
0.0
 11
6.9547947442
 21
-19.7942187734
 31
0.0
 11
7.0011876212
 21
-19.8253687226
 31
0.0
 11
7.0321299817
 21
-19.8719033723
 31
0.0
 11
7.0429818832
 21
-19.9267239376
 31
0.0
  0
LINE
  5
93F
100
AcDbEntity
  8
ASSI
100
AcDbLine
 62
253
  6
CONTINUOUS
 10
6.5570215015
 20
-19.9267239376
 11
6.4875706414
 21
-18.9520022272
  0
LINE
  5
940
100
AcDbEntity
  8
ASSI
100
AcDbLine
 62
253
  6
CONTINUOUS
 10
7.2429784985
 20
-19.9267239376
 11
7.3124293586
 21
-18.9520022272
  0
LINE
  5
941
100
AcDbEntity
  8
ASSI
100
AcDbLine
 62
253
  6
CONTINUOUS
 10
-7.2429784985
 20
-19.9267239376
 11
-7.3124293586
 21
-18.9520022272
  0
LINE
  5
942
100
AcDbEntity
  8
ASSI
100
AcDbLine
 62
253
  6
CONTINUOUS
 10
-6.5570215015
 20
-19.9267239376
 11
-6.4875706414
 21
-18.9520022272
  0
SPLINE
  5
943
100
AcDbEntity
  8
ASSI
100
AcDbSpline
 62
253
  6
CONTINUOUS
 70
0
 71
3
 72
18
 73
14
 74
12
 42
0.0000001
 43
0.0000001
 44
0.0000000001
 12
0.00000021
 22
-0.4999919015
 32
0.0
 13
0.1855026826
 23
-0.4643066404
 33
0.0
 40
0.0
 40
0.0
 40
0.0
 40
0.0
 40
0.1940278046
 40
0.3806741989
 40
0.5528563211
 40
0.7040282227
 40
0.8284428008
 40
0.8790946492
 40
0.9213745221
 40
0.9548789774
 40
0.9792901622
 40
0.9943767186
 40
1.0
 40
1.0
 40
1.0
 40
1.0
 10
4.2026066368
 20
17.7956556053
 30
0.0
 10
4.2026066504
 20
17.7633181616
 30
0.0
 10
4.2026277745
 20
17.6998734552
 30
0.0
 10
4.2027233801
 20
17.6077324045
 30
0.0
 10
4.2028754278
 20
17.5227334019
 30
0.0
 10
4.203086704
 20
17.4481081183
 30
0.0
 10
4.2032923865
 20
17.3937330775
 30
0.0
 10
4.203516846
 20
17.3575150805
 30
0.0
 10
4.2036225225
 20
17.3364318275
 30
0.0
 10
4.2038919647
 20
17.319763795
 30
0.0
 10
4.2037762236
 20
17.307527491
 30
0.0
 10
4.2044135893
 20
17.3001374677
 30
0.0
 10
4.2039890681
 20
17.2965449527
 30
0.0
 10
4.2043367793
 20
17.2956746438
 30
0.0
 11
4.2026066368
 21
17.7956556053
 31
0.0
 11
4.2026397982
 21
17.69864328
 31
0.0
 11
4.2027380367
 21
17.6053216461
 31
0.0
 11
4.2028976182
 21
17.5192321274
 31
0.0
 11
4.2031124831
 21
17.4436477062
 31
0.0
 11
4.2033744584
 21
17.3814419764
 31
0.0
 11
4.2035200556
 21
17.3561168809
 31
0.0
 11
4.2036735737
 21
17.3349778443
 31
0.0
 11
4.2038335655
 21
17.318226652
 31
0.0
 11
4.2039984753
 21
17.3060223714
 31
0.0
 11
4.2041667393
 21
17.2984810924
 31
0.0
 11
4.2043367793
 21
17.2956746438
 31
0.0
  0
SPLINE
  5
944
100
AcDbEntity
  8
ASSI
100
AcDbSpline
 62
253
  6
CONTINUOUS
 70
0
 71
3
 72
18
 73
14
 74
12
 42
0.0000001
 43
0.0000001
 44
0.0000000001
 12
0.1855026874
 22
0.4643066385
 32
0.0
 13
0.00000021
 23
0.4999919015
 33
0.0
 40
0.0
 40
0.0
 40
0.0
 40
0.0
 40
0.0056232814
 40
0.0207098378
 40
0.0451210226
 40
0.0786254779
 40
0.1209053508
 40
0.1715571992
 40
0.2959717773
 40
0.4471436789
 40
0.6193258011
 40
0.8059721954
 40
1.0
 40
1.0
 40
1.0
 40
1.0
 10
-4.2043367793
 20
17.2956746438
 30
0.0
 10
-4.203989068
 20
17.2965449527
 30
0.0
 10
-4.2044135893
 20
17.3001374677
 30
0.0
 10
-4.2037762236
 20
17.307527491
 30
0.0
 10
-4.2038919647
 20
17.319763795
 30
0.0
 10
-4.2036225225
 20
17.3364318275
 30
0.0
 10
-4.203516846
 20
17.3575150805
 30
0.0
 10
-4.2032923865
 20
17.3937330775
 30
0.0
 10
-4.203086704
 20
17.4481081183
 30
0.0
 10
-4.2028754278
 20
17.5227334019
 30
0.0
 10
-4.2027233801
 20
17.6077324045
 30
0.0
 10
-4.2026277745
 20
17.6998734552
 30
0.0
 10
-4.2026066504
 20
17.7633181616
 30
0.0
 10
-4.2026066368
 20
17.7956556053
 30
0.0
 11
-4.2043367793
 21
17.2956746438
 31
0.0
 11
-4.2041667393
 21
17.2984810924
 31
0.0
 11
-4.2039984753
 21
17.3060223714
 31
0.0
 11
-4.2038335655
 21
17.318226652
 31
0.0
 11
-4.2036735737
 21
17.3349778443
 31
0.0
 11
-4.2035200556
 21
17.3561168809
 31
0.0
 11
-4.2033744584
 21
17.3814419764
 31
0.0
 11
-4.2031124831
 21
17.4436477062
 31
0.0
 11
-4.2028976182
 21
17.5192321274
 31
0.0
 11
-4.2027380367
 21
17.6053216461
 31
0.0
 11
-4.2026397982
 21
17.69864328
 31
0.0
 11
-4.2026066368
 21
17.7956556053
 31
0.0
  0
SPLINE
  5
945
100
AcDbEntity
  8
ASSI
100
AcDbSpline
 62
7
  6
CONTINUOUS
 70
0
 71
3
 72
15
 73
11
 74
9
 42
0.0000001
 43
0.0000001
 44
0.0000000001
 12
0.0
 22
-1.3761682501
 32
0.0
 13
0.0
 23
1.3761682501
 33
0.0
 40
0.0
 40
0.0
 40
0.0
 40
0.0
 40
0.1250067733
 40
0.2500095856
 40
0.375006346
 40
0.4999997933
 40
0.6249932455
 40
0.7499900175
 40
0.8749928355
 40
1.0
 40
1.0
 40
1.0
 40
1.0
 10
7.3401430257
 20
18.5630493339
 30
0.0
 10
7.3401430257
 20
18.5057058831
 30
0.0
 10
7.3173111243
 20
18.3897753465
 30
0.0
 10
7.2196292689
 20
18.2430018046
 30
0.0
 10
7.0731091995
 20
18.1445098895
 30
0.0
 10
6.9000002967
 20
18.1099076477
 30
0.0
 10
6.7268913389
 20
18.1445096505
 30
0.0
 10
6.5803711343
 20
18.2430013933
 30
0.0
 10
6.4826890101
 20
18.3897749787
 30
0.0
 10
6.4598569743
 20
18.5057057036
 30
0.0
 10
6.4598569743
 20
18.5630493339
 30
0.0
 11
7.3401430257
 21
18.5630493339
 31
0.0
 11
7.306737745
 21
18.3942935062
 31
0.0
 11
7.2114868799
 21
18.25104603
 31
0.0
 11
7.0686756862
 21
18.1551572176
 31
0.0
 11
6.9000002907
 21
18.1214415865
 31
0.0
 11
6.7313248425
 21
18.1551569885
 31
0.0
 11
6.5885135159
 21
18.2510456315
 31
0.0
 11
6.4932624766
 21
18.3942930012
 31
0.0
 11
6.4598569743
 21
18.5630493339
 31
0.0
  0
SPLINE
  5
946
100
AcDbEntity
  8
ASSI
100
AcDbSpline
 62
7
  6
CONTINUOUS
 70
0
 71
3
 72
15
 73
11
 74
9
 42
0.0000001
 43
0.0000001
 44
0.0000000001
 12
0.0
 22
-1.3761682501
 32
0.0
 13
0.0
 23
1.3761682501
 33
0.0
 40
0.0
 40
0.0
 40
0.0
 40
0.0
 40
0.1250067664
 40
0.2500095804
 40
0.3750063405
 40
0.4999997891
 40
0.6249932428
 40
0.7499900148
 40
0.8749928345
 40
1.0
 40
1.0
 40
1.0
 40
1.0
 10
-6.4598569743
 20
18.5630493339
 30
0.0
 10
-6.4598569743
 20
18.5057058863
 30
0.0
 10
-6.4826888733
 20
18.3897753522
 30
0.0
 10
-6.5803707251
 20
18.2430018105
 30
0.0
 10
-6.7268907938
 20
18.1445098924
 30
0.0
 10
-6.8999996973
 20
18.1099076474
 30
0.0
 10
-7.073108657
 20
18.1445096486
 30
0.0
 10
-7.2196288636
 20
18.2430013911
 30
0.0
 10
-7.3173109896
 20
18.389774977
 30
0.0
 10
-7.3401430257
 20
18.5057057032
 30
0.0
 10
-7.3401430257
 20
18.5630493339
 30
0.0
 11
-6.4598569743
 21
18.5630493339
 31
0.0
 11
-6.493262251
 21
18.3942935151
 31
0.0
 11
-6.5885131149
 21
18.2510460353
 31
0.0
 11
-6.7313243067
 21
18.1551572207
 31
0.0
 11
-6.8999997034
 21
18.1214415865
 31
0.0
 11
-7.068675154
 21
18.155156987
 31
0.0
 11
-7.2114864814
 21
18.2510456289
 31
0.0
 11
-7.306737523
 21
18.3942929999
 31
0.0
 11
-7.3401430257
 21
18.5630493339
 31
0.0
  0
SPLINE
  5
947
100
AcDbEntity
  8
ASSI
100
AcDbSpline
 62
7
  6
CONTINUOUS
 70
0
 71
3
 72
9
 73
5
 74
3
 42
0.0000001
 43
0.0000001
 44
0.0000000001
 12
0.3845920832
 22
-0.5438953401
 32
0.0
 13
0.3400295712
 23
-0.5728115765
 33
0.0
 40
0.0
 40
0.0
 40
0.0
 40
0.0
 40
0.5162178676
 40
1.0
 40
1.0
 40
1.0
 40
1.0
 10
7.5841007192
 20
-21.2626932437
 30
0.0
 10
7.6502784875
 20
-21.3562827413
 30
0.0
 10
7.7784057267
 20
-21.5375744539
 30
0.0
 10
7.90161807
 20
-21.7225406339
 30
0.0
 10
7.9564514804
 20
-21.8149126359
 30
0.0
 11
7.5841007192
 21
-21.2626932437
 31
0.0
 11
7.7812519021
 21
-21.5444339592
 31
0.0
 11
7.9564514804
 21
-21.8149126359
 31
0.0
  0
SPLINE
  5
948
100
AcDbEntity
  8
ASSI
100
AcDbSpline
 62
7
  6
CONTINUOUS
 70
0
 71
3
 72
9
 73
5
 74
3
 42
0.0000001
 43
0.0000001
 44
0.0000000001
 12
0.3400295712
 22
0.5728115765
 32
0.0
 13
0.3845920832
 23
0.5438953401
 33
0.0
 40
0.0
 40
0.0
 40
0.0
 40
0.0
 40
0.4837821324
 40
1.0
 40
1.0
 40
1.0
 40
1.0
 10
-7.9564514804
 20
-21.8149126359
 30
0.0
 10
-7.90161807
 20
-21.7225406339
 30
0.0
 10
-7.7784057267
 20
-21.5375744539
 30
0.0
 10
-7.6502784875
 20
-21.3562827413
 30
0.0
 10
-7.5841007192
 20
-21.2626932437
 30
0.0
 11
-7.9564514804
 21
-21.8149126359
 31
0.0
 11
-7.7812519021
 21
-21.5444339592
 31
0.0
 11
-7.5841007192
 21
-21.2626932437
 31
0.0
  0
SPLINE
  5
949
100
AcDbEntity
  8
ASSI
100
AcDbSpline
 62
7
  6
CONTINUOUS
 70
0
 71
3
 72
9
 73
5
 74
3
 42
0.0000001
 43
0.0000001
 44
0.0000000001
 12
-0.3400295712
 22
-0.5728115765
 32
0.0
 13
-0.3845920832
 23
-0.5438953401
 33
0.0
 40
0.0
 40
0.0
 40
0.0
 40
0.0
 40
0.4837821324
 40
1.0
 40
1.0
 40
1.0
 40
1.0
 10
7.9564514804
 20
21.8149126359
 30
0.0
 10
7.90161807
 20
21.7225406339
 30
0.0
 10
7.7784057267
 20
21.5375744539
 30
0.0
 10
7.6502784875
 20
21.3562827413
 30
0.0
 10
7.5841007192
 20
21.2626932437
 30
0.0
 11
7.9564514804
 21
21.8149126359
 31
0.0
 11
7.7812519021
 21
21.5444339592
 31
0.0
 11
7.5841007192
 21
21.2626932437
 31
0.0
  0
SPLINE
  5
94A
100
AcDbEntity
  8
ASSI
100
AcDbSpline
 62
7
  6
CONTINUOUS
 70
0
 71
3
 72
9
 73
5
 74
3
 42
0.0000001
 43
0.0000001
 44
0.0000000001
 12
-0.3845920832
 22
0.5438953401
 32
0.0
 13
-0.3400295712
 23
0.5728115765
 33
0.0
 40
0.0
 40
0.0
 40
0.0
 40
0.0
 40
0.5162178676
 40
1.0
 40
1.0
 40
1.0
 40
1.0
 10
-7.5841007192
 20
21.2626932437
 30
0.0
 10
-7.6502784875
 20
21.3562827413
 30
0.0
 10
-7.7784057267
 20
21.5375744539
 30
0.0
 10
-7.90161807
 20
21.7225406339
 30
0.0
 10
-7.9564514804
 20
21.8149126359
 30
0.0
 11
-7.5841007192
 21
21.2626932437
 31
0.0
 11
-7.7812519021
 21
21.5444339592
 31
0.0
 11
-7.9564514804
 21
21.8149126359
 31
0.0
  0
SPLINE
  5
94B
100
AcDbEntity
  8
ASSI
100
AcDbSpline
 62
7
  6
CONTINUOUS
 70
0
 71
3
 72
16
 73
12
 74
10
 42
0.0000001
 43
0.0000001
 44
0.0000000001
 12
0.01745943
 22
0.6333352309
 32
0.0
 13
0.4221124656
 23
0.4724821825
 33
0.0
 40
0.0
 40
0.0
 40
0.0
 40
0.0
 40
0.0209021815
 40
0.0516574322
 40
0.0916684062
 40
0.139692769
 40
0.2546188009
 40
0.3875913662
 40
0.5323393714
 40
0.6845788838
 40
1.0
 40
1.0
 40
1.0
 40
1.0
 10
-4.3557656098
 20
-23.7455819953
 30
0.0
 10
-4.355643963
 20
-23.7411692993
 30
0.0
 10
-4.3520868439
 20
-23.7305522873
 30
0.0
 10
-4.3430191073
 20
-23.713528944
 30
0.0
 10
-4.3292979255
 20
-23.6924533918
 30
0.0
 10
-4.3041710622
 20
-23.6577397804
 30
0.0
 10
-4.2651914359
 20
-23.6088433876
 30
0.0
 10
-4.2118496784
 20
-23.5453588625
 30
0.0
 10
-4.1523946047
 20
-23.4767197476
 30
0.0
 10
-4.0668936377
 20
-23.379677165
 30
0.0
 10
-4.0010775375
 20
-23.3060347672
 30
0.0
 10
-3.9566964758
 20
-23.2563578147
 30
0.0
 11
-4.3557656098
 21
-23.7455819953
 31
0.0
 11
-4.3525110942
 21
-23.7327450064
 31
0.0
 11
-4.3437129465
 21
-23.7153585643
 31
0.0
 11
-4.3300727102
 21
-23.6939911646
 31
0.0
 11
-4.312341459
 21
-23.6692644648
 31
0.0
 11
-4.26734854
 21
-23.6120144178
 31
0.0
 11
-4.2132947696
 21
-23.5473928276
 31
0.0
 11
-4.1533364369
 21
-23.4779989553
 31
0.0
 11
-4.0896205823
 21
-23.4055841062
 31
0.0
 11
-3.9566964758
 21
-23.2563578147
 31
0.0
  0
SPLINE
  5
94C
100
AcDbEntity
  8
ASSI
100
AcDbSpline
 62
7
  6
CONTINUOUS
 70
0
 71
3
 72
16
 73
12
 74
10
 42
0.0000001
 43
0.0000001
 44
0.0000000001
 12
0.4219504308
 22
-0.4723008125
 32
0.0
 13
0.0258635849
 23
-0.632804313
 33
0.0
 40
0.0
 40
0.0
 40
0.0
 40
0.0
 40
0.3150864587
 40
0.4671821465
 40
0.6118213816
 40
0.7447458395
 40
0.8597258188
 40
0.9078327621
 40
0.9479721969
 40
0.9789016301
 40
1.0
 40
1.0
 40
1.0
 40
1.0
 10
-3.9566964758
 20
-23.2563578147
 30
0.0
 10
-3.9123795201
 20
-23.3059630115
 30
0.0
 10
-3.8466560974
 20
-23.3795018863
 30
0.0
 10
-3.7612677605
 20
-23.4764123492
 30
0.0
 10
-3.7018735122
 20
-23.5449738842
 30
0.0
 10
-3.6485580833
 20
-23.608410959
 30
0.0
 10
-3.6095691936
 20
-23.6572918494
 30
0.0
 10
-3.5843952407
 20
-23.6920211985
 30
0.0
 10
-3.5706098548
 20
-23.7131374037
 30
0.0
 10
-3.5614534727
 20
-23.7302293821
 30
0.0
 10
-3.5578176769
 20
-23.7408851939
 30
0.0
 10
-3.5576357838
 20
-23.7453355738
 30
0.0
 11
-3.9566964758
 21
-23.2563578147
 31
0.0
 11
-3.8239637049
 21
-23.4053679638
 31
0.0
 11
-3.7603306751
 21
-23.4776850415
 31
0.0
 11
-3.7004361569
 21
-23.5469964869
 31
0.0
 11
-3.6464135202
 21
-23.6115622345
 31
0.0
 11
-3.6013968216
 21
-23.6688014928
 31
0.0
 11
-3.5836233089
 21
-23.6935478625
 31
0.0
 11
-3.5699146608
 21
-23.7149565388
 31
0.0
 11
-3.5610185454
 21
-23.7324085627
 31
0.0
 11
-3.5576357838
 21
-23.7453355738
 31
0.0
  0
SPLINE
  5
94D
100
AcDbEntity
  8
ASSI
100
AcDbSpline
 62
7
  6
CONTINUOUS
 70
0
 71
3
 72
16
 73
12
 74
10
 42
0.0000001
 43
0.0000001
 44
0.0000000001
 12
0.0258635849
 22
0.6328043132
 32
0.0
 13
0.421950431
 23
0.4723008127
 33
0.0
 40
0.0
 40
0.0
 40
0.0
 40
0.0
 40
0.0210983408
 40
0.0520277216
 40
0.0921671145
 40
0.1402740393
 40
0.2552540198
 40
0.3881785117
 40
0.5328177564
 40
0.6849134262
 40
1.0
 40
1.0
 40
1.0
 40
1.0
 10
3.5576357838
 20
-23.7453355738
 30
0.0
 10
3.5578176767
 20
-23.7408852001
 30
0.0
 10
3.5614534624
 20
-23.730229404
 30
0.0
 10
3.5706098301
 20
-23.7131374468
 30
0.0
 10
3.5843951981
 20
-23.6920212585
 30
0.0
 10
3.6095691429
 20
-23.6572919187
 30
0.0
 10
3.6485580289
 20
-23.6084110211
 30
0.0
 10
3.7018734655
 20
-23.5449739402
 30
0.0
 10
3.7612677163
 20
-23.4764124001
 30
0.0
 10
3.8466560676
 20
-23.3795019198
 30
0.0
 10
3.9123795039
 20
-23.3059630297
 30
0.0
 10
3.9566964758
 20
-23.2563578147
 30
0.0
 11
3.5576357838
 21
-23.7453355738
 31
0.0
 11
3.5610185377
 21
-23.7324085798
 31
0.0
 11
3.5699146346
 21
-23.7149565836
 31
0.0
 11
3.5836232644
 21
-23.6935479271
 31
0.0
 11
3.6013967683
 21
-23.6688015656
 31
0.0
 11
3.6464134631
 21
-23.6115623032
 31
0.0
 11
3.7004361131
 21
-23.5469965386
 31
0.0
 11
3.7603306349
 21
-23.4776850882
 31
0.0
 11
3.8239636567
 21
-23.4053680186
 31
0.0
 11
3.9566964758
 21
-23.2563578147
 31
0.0
  0
SPLINE
  5
94E
100
AcDbEntity
  8
ASSI
100
AcDbSpline
 62
7
  6
CONTINUOUS
 70
0
 71
3
 72
16
 73
12
 74
10
 42
0.0000001
 43
0.0000001
 44
0.0000000001
 12
0.4221124654
 22
-0.4724821823
 32
0.0
 13
0.0174594299
 23
-0.6333352306
 33
0.0
 40
0.0
 40
0.0
 40
0.0
 40
0.0
 40
0.315420997
 40
0.4676605275
 40
0.6124085233
 40
0.7453810545
 40
0.8603070858
 40
0.9083314678
 40
0.9483424844
 40
0.9790977887
 40
1.0
 40
1.0
 40
1.0
 40
1.0
 10
3.9566964758
 20
-23.2563578147
 30
0.0
 10
4.0010775207
 20
-23.3060347484
 30
0.0
 10
4.0668936068
 20
-23.3796771302
 30
0.0
 10
4.1523945588
 20
-23.4767196947
 30
0.0
 10
4.2118496301
 20
-23.5453588046
 30
0.0
 10
4.26519138
 20
-23.6088433237
 30
0.0
 10
4.3041710102
 20
-23.6577397094
 30
0.0
 10
4.329297882
 20
-23.6924533303
 30
0.0
 10
4.3430190822
 20
-23.7135288999
 30
0.0
 10
4.3520868334
 20
-23.7305522649
 30
0.0
 10
4.3556439629
 20
-23.741169293
 30
0.0
 10
4.3557656098
 20
-23.7455819953
 30
0.0
 11
3.9566964758
 21
-23.2563578147
 31
0.0
 11
4.0896205323
 21
-23.4055840495
 31
0.0
 11
4.1533363949
 21
-23.4779989066
 31
0.0
 11
4.2132947242
 21
-23.547392774
 31
0.0
 11
4.2673484814
 21
-23.6120143472
 31
0.0
 11
4.3123414046
 21
-23.6692643903
 31
0.0
 11
4.3300726648
 21
-23.6939910986
 31
0.0
 11
4.3437129198
 21
-23.7153585183
 31
0.0
 11
4.3525110864
 21
-23.732744989
 31
0.0
 11
4.3557656098
 21
-23.7455819953
 31
0.0
  0
SPLINE
  5
94F
100
AcDbEntity
  8
ASSI
100
AcDbSpline
 62
7
  6
CONTINUOUS
 70
0
 71
3
 72
16
 73
12
 74
10
 42
0.0000001
 43
0.0000001
 44
0.0000000001
 12
-0.0258635849
 22
-0.6328043132
 32
0.0
 13
-0.4219504309
 23
-0.4723008126
 33
0.0
 40
0.0
 40
0.0
 40
0.0
 40
0.0
 40
0.0210983324
 40
0.0520278676
 40
0.0921675299
 40
0.1402745861
 40
0.2552546074
 40
0.3881788559
 40
0.532817896
 40
0.6849136106
 40
1.0
 40
1.0
 40
1.0
 40
1.0
 10
-3.5576357838
 20
23.7453355738
 30
0.0
 10
-3.5578176766
 20
23.7408852019
 30
0.0
 10
-3.5614534716
 20
23.7302293759
 30
0.0
 10
-3.5706098876
 20
23.7131373449
 30
0.0
 10
-3.5843953327
 20
23.6920210668
 30
0.0
 10
-3.6095693358
 20
23.6572916543
 30
0.0
 10
-3.6485582358
 20
23.6084107868
 30
0.0
 10
-3.7018736106
 20
23.5449737668
 30
0.0
 10
-3.7612678098
 20
23.4764122944
 30
0.0
 10
-3.8466561124
 20
23.3795018681
 30
0.0
 10
-3.9123795299
 20
23.3059630006
 30
0.0
 10
-3.9566964758
 20
23.2563578147
 30
0.0
 11
-3.5576357838
 21
23.7453355738
 31
0.0
 11
-3.5610185356
 21
23.7324085847
 31
0.0
 11
-3.5699146813
 21
23.7149565037
 31
0.0
 11
-3.5836234138
 21
23.6935477103
 31
0.0
 11
-3.6013969727
 21
23.6688012858
 31
0.0
 11
-3.6464137012
 21
23.6115620172
 31
0.0
 11
-3.7004362545
 21
23.5469963726
 31
0.0
 11
-3.7603306929
 21
23.4776850214
 31
0.0
 11
-3.8239637338
 21
23.4053679309
 31
0.0
 11
-3.9566964758
 21
23.2563578147
 31
0.0
  0
SPLINE
  5
950
100
AcDbEntity
  8
ASSI
100
AcDbSpline
 62
7
  6
CONTINUOUS
 70
0
 71
3
 72
16
 73
12
 74
10
 42
0.0000001
 43
0.0000001
 44
0.0000000001
 12
-0.4221124653
 22
0.4724821822
 32
0.0
 13
-0.0174594299
 23
0.6333352305
 33
0.0
 40
0.0
 40
0.0
 40
0.0
 40
0.0
 40
0.3154207967
 40
0.4676603691
 40
0.6124081525
 40
0.7453804337
 40
0.8603065128
 40
0.9083310383
 40
0.9483423299
 40
0.9790977953
 40
1.0
 40
1.0
 40
1.0
 40
1.0
 10
-3.9566964758
 20
23.2563578147
 30
0.0
 10
-4.0010774925
 20
23.3060347168
 30
0.0
 10
-4.0668935572
 20
23.379677073
 30
0.0
 10
-4.1523944567
 20
23.4767195792
 30
0.0
 10
-4.2118494743
 20
23.5453586184
 30
0.0
 10
-4.2651911611
 20
23.6088430756
 30
0.0
 10
-4.3041708082
 20
23.6577394321
 30
0.0
 10
-4.3292977415
 20
23.69245313
 30
0.0
 10
-4.3430190222
 20
23.7135287934
 30
0.0
 10
-4.3520868235
 20
23.7305522347
 30
0.0
 10
-4.3556439629
 20
23.7411692944
 30
0.0
 10
-4.3557656098
 20
23.7455819953
 30
0.0
 11
-3.9566964758
 21
23.2563578147
 31
0.0
 11
-4.0896204485
 21
23.4055839542
 31
0.0
 11
-4.1533363291
 21
23.4779988308
 31
0.0
 11
-4.2132945719
 21
23.5473925951
 31
0.0
 11
-4.2673482297
 21
23.6120140448
 31
0.0
 11
-4.3123411905
 21
23.6692640968
 31
0.0
 11
-4.3300725105
 21
23.6939908742
 31
0.0
 11
-4.3437128705
 21
23.7153584336
 31
0.0
 11
-4.352511088
 21
23.7327449929
 31
0.0
 11
-4.3557656098
 21
23.7455819953
 31
0.0
  0
SPLINE
  5
951
100
AcDbEntity
  8
ASSI
100
AcDbSpline
 62
253
  6
CONTINUOUS
 70
0
 71
3
 72
11
 73
7
 74
5
 42
0.0000001
 43
0.0000001
 44
0.0000000001
 12
-0.0012232477
 22
-0.3641905854
 32
0.0
 13
-0.3641914841
 23
-0.0009174691
 33
0.0
 40
0.0
 40
0.0
 40
0.0
 40
0.0
 40
0.2331615336
 40
0.476670328
 40
0.7338124407
 40
1.0
 40
1.0
 40
1.0
 40
1.0
 10
10.570628166
 20
23.8443375673
 30
0.0
 10
10.5705330946
 20
23.8160324888
 30
0.0
 10
10.556602622
 20
23.7574897042
 30
0.0
 10
10.4996713294
 20
23.6858275835
 30
0.0
 10
10.4170024088
 20
23.638830569
 30
0.0
 10
10.3529468109
 20
23.6279126226
 30
0.0
 10
10.3206323968
 20
23.6278312164
 30
0.0
 11
10.570628166
 21
23.8443375673
 31
0.0
 11
10.551389741
 21
23.7616298799
 31
0.0
 11
10.4971495847
 21
23.6914666636
 31
0.0
 11
10.4161334639
 21
23.6444924903
 31
0.0
 11
10.3206323968
 21
23.6278312164
 31
0.0
  0
SPLINE
  5
952
100
AcDbEntity
  8
ASSI
100
AcDbSpline
 62
253
  6
CONTINUOUS
 70
0
 71
3
 72
11
 73
7
 74
5
 42
0.0000001
 43
0.0000001
 44
0.0000000001
 12
0.0012232477
 22
-0.3641905849
 32
0.0
 13
0.3641914835
 23
-0.0009174691
 33
0.0
 40
0.0
 40
0.0
 40
0.0
 40
0.0
 40
0.2331616889
 40
0.47667047
 40
0.7338125459
 40
1.0
 40
1.0
 40
1.0
 40
1.0
 10
8.304371834
 20
23.8443375673
 30
0.0
 10
8.3044669055
 20
23.81603247
 30
0.0
 10
8.3183973942
 20
23.7574896677
 30
0.0
 10
8.3753287106
 20
23.6858275516
 30
0.0
 10
8.457997622
 20
23.6388305607
 30
0.0
 10
8.522053202
 20
23.6279126226
 30
0.0
 10
8.5543676032
 20
23.6278312164
 30
0.0
 11
8.304371834
 21
23.8443375673
 31
0.0
 11
8.3236102851
 21
23.761629828
 31
0.0
 11
8.3778504554
 21
23.6914666288
 31
0.0
 11
8.4588665728
 21
23.6444924765
 31
0.0
 11
8.5543676032
 21
23.6278312164
 31
0.0
  0
SPLINE
  5
953
100
AcDbEntity
  8
ASSI
100
AcDbSpline
 62
7
  6
CONTINUOUS
 70
0
 71
3
 72
16
 73
12
 74
10
 42
0.0000001
 43
0.0000001
 44
0.0000000001
 12
-0.01745943
 22
-0.6333352308
 32
0.0
 13
-0.4221124655
 23
-0.4724821824
 33
0.0
 40
0.0
 40
0.0
 40
0.0
 40
0.0
 40
0.0209021724
 40
0.0516575781
 40
0.0916688258
 40
0.139693327
 40
0.2546194043
 40
0.3875917231
 40
0.5323395192
 40
0.6845790753
 40
1.0
 40
1.0
 40
1.0
 40
1.0
 10
4.3557656098
 20
23.7455819953
 30
0.0
 10
4.3556439631
 20
23.7411693012
 30
0.0
 10
4.352086835
 20
23.7305522593
 30
0.0
 10
4.3430190496
 20
23.7135288414
 30
0.0
 10
4.3292977891
 20
23.6924531973
 30
0.0
 10
4.3041708655
 20
23.6577395104
 30
0.0
 10
4.2651912235
 20
23.6088431468
 30
0.0
 10
4.2118495283
 20
23.545358683
 30
0.0
 10
4.1523945072
 20
23.4767196374
 30
0.0
 10
4.0668935908
 20
23.3796771109
 30
0.0
 10
4.0010775105
 20
23.306034737
 30
0.0
 10
3.9566964758
 20
23.2563578147
 30
0.0
 11
4.3557656098
 21
23.7455819953
 31
0.0
 11
4.3525110964
 21
23.7327450118
 31
0.0
 11
4.3437129
 21
23.7153584844
 31
0.0
 11
4.3300725594
 21
23.6939909455
 31
0.0
 11
4.3123412506
 21
23.669264179
 31
0.0
 11
4.2673482955
 21
23.6120141239
 31
0.0
 11
4.213294623
 21
23.5473926554
 31
0.0
 11
4.1533363754
 21
23.4779988845
 31
0.0
 11
4.0896205021
 21
23.4055840151
 31
0.0
 11
3.9566964758
 21
23.2563578147
 31
0.0
  0
SPLINE
  5
954
100
AcDbEntity
  8
ASSI
100
AcDbSpline
 62
7
  6
CONTINUOUS
 70
0
 71
3
 72
16
 73
12
 74
10
 42
0.0000001
 43
0.0000001
 44
0.0000000001
 12
-0.4219504307
 22
0.4723008124
 32
0.0
 13
-0.0258635848
 23
0.6328043129
 33
0.0
 40
0.0
 40
0.0
 40
0.0
 40
0.0
 40
0.3150862656
 40
0.4671819965
 40
0.6118210236
 40
0.7447452348
 40
0.8597252572
 40
0.907832337
 40
0.9479720423
 40
0.9789016359
 40
1.0
 40
1.0
 40
1.0
 40
1.0
 10
3.9566964758
 20
23.2563578147
 30
0.0
 10
3.9123795473
 20
23.3059629811
 30
0.0
 10
3.8466561448
 20
23.3795018316
 30
0.0
 10
3.7612678586
 20
23.4764122382
 30
0.0
 10
3.7018736629
 20
23.5449737041
 30
0.0
 10
3.6485582964
 20
23.6084107174
 30
0.0
 10
3.6095693918
 20
23.6572915778
 30
0.0
 10
3.5843953793
 20
23.6920210011
 30
0.0
 10
3.5706099145
 20
23.713137298
 30
0.0
 10
3.5614534829
 20
23.7302293518
 30
0.0
 10
3.5578176769
 20
23.7408851952
 30
0.0
 10
3.5576357838
 20
23.7453355738
 30
0.0
 11
3.9566964758
 21
23.2563578147
 31
0.0
 11
3.8239637857
 21
23.405367872
 31
0.0
 11
3.7603307374
 21
23.4776849698
 31
0.0
 11
3.7004363039
 21
23.5469963142
 31
0.0
 11
3.6464137653
 21
23.6115619401
 31
0.0
 11
3.6013970314
 21
23.6688012055
 31
0.0
 11
3.5836234618
 21
23.6935476406
 31
0.0
 11
3.5699147102
 21
23.7149564541
 31
0.0
 11
3.561018544
 21
23.7324085661
 31
0.0
 11
3.5576357838
 21
23.7453355738
 31
0.0
  0
SPLINE
  5
955
100
AcDbEntity
  8
ASSI
100
AcDbSpline
 62
7
  6
CONTINUOUS
 70
0
 71
3
 72
12
 73
8
 74
6
 42
0.0000001
 43
0.0000001
 44
0.0000000001
 12
-0.0034680981
 22
-0.4498048873
 32
0.0
 13
-0.240437972
 23
-0.3801658138
 33
0.0
 40
0.0
 40
0.0
 40
0.0
 40
0.0
 40
0.0927499258
 40
0.2001835257
 40
0.4468513164
 40
0.7182632745
 40
1.0
 40
1.0
 40
1.0
 40
1.0
 10
-6.5570215015
 20
-20.1837995929
 30
0.0
 10
-6.5571287234
 20
-20.1977060496
 30
0.0
 10
-6.5625472628
 20
-20.2276058968
 30
0.0
 10
-6.5851669587
 20
-20.2907418591
 30
0.0
 10
-6.6285266557
 20
-20.3742535138
 30
0.0
 10
-6.6900687063
 20
-20.4771272363
 30
0.0
 10
-6.7344380479
 20
-20.5472220594
 30
0.0
 10
-6.7570181168
 20
-20.5829242832
 30
0.0
 11
-6.5570215015
 21
-20.1837995929
 31
0.0
 11
-6.5631619286
 21
-20.2250658558
 31
0.0
 11
-6.5787283748
 21
-20.2708157066
 31
0.0
 11
-6.6277071224
 21
-20.3703759609
 31
0.0
 11
-6.6897093555
 21
-20.475545955
 31
0.0
 11
-6.7570181168
 21
-20.5829242832
 31
0.0
  0
SPLINE
  5
956
100
AcDbEntity
  8
ASSI
100
AcDbSpline
 62
7
  6
CONTINUOUS
 70
0
 71
3
 72
12
 73
8
 74
6
 42
0.0000001
 43
0.0000001
 44
0.0000000001
 12
-0.2404379747
 22
0.380165818
 32
0.0
 13
-0.0034680981
 23
0.4498048923
 33
0.0
 40
0.0
 40
0.0
 40
0.0
 40
0.0
 40
0.2817363516
 40
0.5531481446
 40
0.7998154341
 40
0.907249539
 40
1.0
 40
1.0
 40
1.0
 40
1.0
 10
6.7570181168
 20
-20.5829242832
 30
0.0
 10
6.7344380776
 20
-20.5472221063
 30
0.0
 10
6.6900687924
 20
-20.4771273438
 30
0.0
 10
6.6285267801
 20
-20.3742537733
 30
0.0
 10
6.5851671184
 20
-20.2907421381
 30
0.0
 10
6.5625472769
 20
-20.2276061382
 30
0.0
 10
6.557128724
 20
-20.19770613
 30
0.0
 10
6.5570215015
 20
-20.1837995929
 30
0.0
 11
6.7570181168
 21
-20.5829242832
 31
0.0
 11
6.6897094469
 21
-20.4755460946
 31
0.0
 11
6.6277072327
 21
-20.370376174
 31
0.0
 11
6.5787285444
 21
-20.2708161403
 31
0.0
 11
6.5631619655
 21
-20.2250660941
 31
0.0
 11
6.5570215015
 21
-20.1837995929
 31
0.0
  0
SPLINE
  5
957
100
AcDbEntity
  8
ASSI
100
AcDbSpline
 62
253
  6
CONTINUOUS
 70
0
 71
3
 72
11
 73
7
 74
5
 42
0.0000001
 43
0.0000001
 44
0.0000000001
 12
-0.0012232477
 22
-0.3641905854
 32
0.0
 13
-0.3641914841
 23
-0.0009174691
 33
0.0
 40
0.0
 40
0.0
 40
0.0
 40
0.0
 40
0.2331615336
 40
0.476670328
 40
0.7338124407
 40
1.0
 40
1.0
 40
1.0
 40
1.0
 10
-8.304371834
 20
23.8443375673
 30
0.0
 10
-8.3044669054
 20
23.8160324888
 30
0.0
 10
-8.318397378
 20
23.7574897042
 30
0.0
 10
-8.3753286706
 20
23.6858275835
 30
0.0
 10
-8.4579975912
 20
23.638830569
 30
0.0
 10
-8.5220531891
 20
23.6279126226
 30
0.0
 10
-8.5543676032
 20
23.6278312164
 30
0.0
 11
-8.304371834
 21
23.8443375673
 31
0.0
 11
-8.323610259
 21
23.7616298799
 31
0.0
 11
-8.3778504153
 21
23.6914666636
 31
0.0
 11
-8.4588665361
 21
23.6444924903
 31
0.0
 11
-8.5543676032
 21
23.6278312164
 31
0.0
  0
SPLINE
  5
958
100
AcDbEntity
  8
ASSI
100
AcDbSpline
 62
253
  6
CONTINUOUS
 70
0
 71
3
 72
11
 73
7
 74
5
 42
0.0000001
 43
0.0000001
 44
0.0000000001
 12
0.0012232477
 22
-0.3641905854
 32
0.0
 13
0.3641914841
 23
-0.0009174691
 33
0.0
 40
0.0
 40
0.0
 40
0.0
 40
0.0
 40
0.2331615336
 40
0.476670328
 40
0.7338124407
 40
1.0
 40
1.0
 40
1.0
 40
1.0
 10
-10.570628166
 20
23.8443375673
 30
0.0
 10
-10.5705330946
 20
23.8160324888
 30
0.0
 10
-10.556602622
 20
23.7574897042
 30
0.0
 10
-10.4996713294
 20
23.6858275835
 30
0.0
 10
-10.4170024088
 20
23.638830569
 30
0.0
 10
-10.3529468109
 20
23.6279126226
 30
0.0
 10
-10.3206323968
 20
23.6278312164
 30
0.0
 11
-10.570628166
 21
23.8443375673
 31
0.0
 11
-10.551389741
 21
23.7616298799
 31
0.0
 11
-10.4971495847
 21
23.6914666636
 31
0.0
 11
-10.4161334639
 21
23.6444924903
 31
0.0
 11
-10.3206323968
 21
23.6278312164
 31
0.0
  0
SPLINE
  5
959
100
AcDbEntity
  8
ASSI
100
AcDbSpline
 62
7
  6
CONTINUOUS
 70
0
 71
3
 72
13
 73
9
 74
7
 42
0.0000001
 43
0.0000001
 44
0.0000000001
 12
0.0031696367
 22
0.3145566487
 32
0.0
 13
0.3145726178
 23
0.0
 33
0.0
 40
0.0
 40
0.0
 40
0.0
 40
0.0
 40
0.0848322853
 40
0.1759482271
 40
0.2781995767
 40
0.3947846151
 40
0.6739262862
 40
1.0
 40
1.0
 40
1.0
 40
1.0
 10
8.304371834
 20
-23.8443375673
 30
0.0
 10
8.3044614632
 20
-23.8354427142
 30
0.0
 10
8.3077029347
 20
-23.8169149301
 30
0.0
 10
8.3212514936
 20
-23.7906759599
 30
0.0
 10
8.3431151912
 20
-23.7662399029
 30
0.0
 10
8.3854552514
 20
-23.735174032
 30
0.0
 10
8.4572286343
 20
-23.7075363449
 30
0.0
 10
8.5209035447
 20
-23.7
 30
0.0
 10
8.5550948319
 20
-23.7
 30
0.0
 11
8.304371834
 21
-23.8443375673
 31
0.0
 11
8.3088255818
 21
-23.8180259322
 31
0.0
 11
8.3216467936
 21
-23.7923907994
 31
0.0
 11
8.3427961599
 21
-23.7681560707
 31
0.0
 11
8.372129078
 21
-23.7461425298
 31
0.0
 11
8.4533052251
 21
-23.7126598996
 31
0.0
 11
8.5550948319
 21
-23.7
 31
0.0
  0
SPLINE
  5
95A
100
AcDbEntity
  8
ASSI
100
AcDbSpline
 62
7
  6
CONTINUOUS
 70
0
 71
3
 72
13
 73
9
 74
7
 42
0.0000001
 43
0.0000001
 44
0.0000000001
 12
0.3138496531
 22
0.0
 32
0.0
 13
0.0031623521
 23
-0.3138337207
 33
0.0
 40
0.0
 40
0.0
 40
0.0
 40
0.0
 40
0.3261057803
 40
0.6051570789
 40
0.7217182853
 40
0.8239738669
 40
0.9151204293
 40
1.0
 40
1.0
 40
1.0
 40
1.0
 10
10.3206323968
 20
-23.7
 30
0.0
 10
10.3547484588
 20
-23.7
 30
0.0
 10
10.4182581628
 20
-23.7076911111
 30
0.0
 10
10.4898218889
 20
-23.7353276531
 30
0.0
 10
10.5320191055
 20
-23.766366643
 30
0.0
 10
10.553807983
 20
-23.7907690517
 30
0.0
 10
10.5673089024
 20
-23.816965063
 30
0.0
 10
10.570538693
 20
-23.8354582101
 30
0.0
 10
10.570628166
 20
-23.8443375673
 30
0.0
 11
10.3206323968
 21
-23.7
 31
0.0
 11
10.42217892
 21
-23.7127849448
 31
0.0
 11
10.5030992753
 21
-23.7462838901
 31
0.0
 11
10.5323337071
 21
-23.7682757411
 31
0.0
 11
10.5534113806
 21
-23.7924766616
 31
0.0
 11
10.5661891944
 21
-23.8180705836
 31
0.0
 11
10.570628166
 21
-23.8443375673
 31
0.0
  0
SPLINE
  5
95B
100
AcDbEntity
  8
ASSI
100
AcDbSpline
 62
253
  6
CONTINUOUS
 70
0
 71
3
 72
18
 73
14
 74
12
 42
0.0000001
 43
0.0000001
 44
0.0000000001
 12
0.0000000747
 22
-0.2000196702
 32
0.0
 13
0.1411583141
 23
-0.1417116749
 33
0.0
 40
0.0
 40
0.0
 40
0.0
 40
0.0
 40
0.1940083293
 40
0.380636239
 40
0.5528011871
 40
0.7039585577
 40
0.8283630508
 40
0.8790125346
 40
0.9212924112
 40
0.9547997025
 40
0.9792195444
 40
0.9943237801
 40
1.0
 40
1.0
 40
1.0
 40
1.0
 10
4.5025952137
 20
17.7956556053
 30
0.0
 10
4.5025952186
 20
17.7827204446
 30
0.0
 10
4.5026164069
 20
17.7573421436
 30
0.0
 10
4.5027118292
 20
17.7204854238
 30
0.0
 10
4.5028644564
 20
17.6864850287
 30
0.0
 10
4.5030739752
 20
17.6566364247
 30
0.0
 10
4.503283934
 20
17.6348827268
 30
0.0
 10
4.5035015412
 20
17.620402035
 30
0.0
 10
4.5036221592
 20
17.6119554163
 30
0.0
 10
4.503852027
 20
17.6053236683
 30
0.0
 10
4.5038282948
 20
17.6003458466
 30
0.0
 10
4.5042981922
 20
17.5975386017
 30
0.0
 10
4.5040582744
 20
17.5959313496
 30
0.0
 10
4.5043253562
 20
17.5956632207
 30
0.0
 11
4.5025952137
 21
17.7956556053
 31
0.0
 11
4.5026283824
 21
17.7568501374
 31
0.0
 11
4.5027266235
 21
17.7195210138
 31
0.0
 11
4.5028862062
 21
17.6850850074
 31
0.0
 11
4.5031010602
 21
17.6548513234
 31
0.0
 11
4.5033630227
 21
17.6299693567
 31
0.0
 11
4.5035086162
 21
17.6198395099
 31
0.0
 11
4.5036621334
 21
17.6113840964
 31
0.0
 11
4.5038221139
 21
17.6046838887
 31
0.0
 11
4.5039870209
 21
17.5998022246
 31
0.0
 11
4.5041553231
 21
17.5967857719
 31
0.0
 11
4.5043253562
 21
17.5956632207
 31
0.0
  0
SPLINE
  5
95C
100
AcDbEntity
  8
ASSI
100
AcDbSpline
 62
253
  6
CONTINUOUS
 70
0
 71
3
 72
18
 73
14
 74
12
 42
0.0000001
 43
0.0000001
 44
0.0000000001
 12
0.141158316
 22
0.141711673
 32
0.0
 13
0.0000000747
 23
0.2000196702
 33
0.0
 40
0.0
 40
0.0
 40
0.0
 40
0.0
 40
0.0056762199
 40
0.0207804556
 40
0.0452002975
 40
0.0787075888
 40
0.1209874654
 40
0.1716369492
 40
0.2960414423
 40
0.4471988129
 40
0.619363761
 40
0.8059916707
 40
1.0
 40
1.0
 40
1.0
 40
1.0
 10
-4.5043253562
 20
17.5956632207
 30
0.0
 10
-4.5040582744
 20
17.5959313496
 30
0.0
 10
-4.5042981922
 20
17.5975386017
 30
0.0
 10
-4.5038282948
 20
17.6003458466
 30
0.0
 10
-4.503852027
 20
17.6053236683
 30
0.0
 10
-4.5036221592
 20
17.6119554163
 30
0.0
 10
-4.5035015412
 20
17.620402035
 30
0.0
 10
-4.503283934
 20
17.6348827268
 30
0.0
 10
-4.5030739752
 20
17.6566364247
 30
0.0
 10
-4.5028644564
 20
17.6864850287
 30
0.0
 10
-4.5027118292
 20
17.7204854238
 30
0.0
 10
-4.5026164069
 20
17.7573421436
 30
0.0
 10
-4.5025952186
 20
17.7827204446
 30
0.0
 10
-4.5025952137
 20
17.7956556053
 30
0.0
 11
-4.5043253562
 21
17.5956632207
 31
0.0
 11
-4.5041553231
 21
17.5967857719
 31
0.0
 11
-4.5039870209
 21
17.5998022246
 31
0.0
 11
-4.5038221139
 21
17.6046838887
 31
0.0
 11
-4.5036621334
 21
17.6113840964
 31
0.0
 11
-4.5035086162
 21
17.6198395099
 31
0.0
 11
-4.5033630227
 21
17.6299693567
 31
0.0
 11
-4.5031010602
 21
17.6548513234
 31
0.0
 11
-4.5028862062
 21
17.6850850074
 31
0.0
 11
-4.5027266235
 21
17.7195210138
 31
0.0
 11
-4.5026283824
 21
17.7568501374
 31
0.0
 11
-4.5025952137
 21
17.7956556053
 31
0.0
  0
SPLINE
  5
95D
100
AcDbEntity
  8
ASSI
100
AcDbSpline
 62
253
  6
CONTINUOUS
 70
0
 71
3
 72
11
 73
7
 74
5
 42
0.0000001
 43
0.0000001
 44
0.0000000001
 12
0.0012232477
 22
0.3641905854
 32
0.0
 13
0.3641914841
 23
0.0009174691
 33
0.0
 40
0.0
 40
0.0
 40
0.0
 40
0.0
 40
0.2331615336
 40
0.476670328
 40
0.7338124407
 40
1.0
 40
1.0
 40
1.0
 40
1.0
 10
-10.570628166
 20
-23.8443375673
 30
0.0
 10
-10.5705330946
 20
-23.8160324888
 30
0.0
 10
-10.556602622
 20
-23.7574897042
 30
0.0
 10
-10.4996713294
 20
-23.6858275835
 30
0.0
 10
-10.4170024088
 20
-23.638830569
 30
0.0
 10
-10.3529468109
 20
-23.6279126226
 30
0.0
 10
-10.3206323968
 20
-23.6278312164
 30
0.0
 11
-10.570628166
 21
-23.8443375673
 31
0.0
 11
-10.551389741
 21
-23.7616298799
 31
0.0
 11
-10.4971495847
 21
-23.6914666636
 31
0.0
 11
-10.4161334639
 21
-23.6444924903
 31
0.0
 11
-10.3206323968
 21
-23.6278312164
 31
0.0
  0
SPLINE
  5
95E
100
AcDbEntity
  8
ASSI
100
AcDbSpline
 62
253
  6
CONTINUOUS
 70
0
 71
3
 72
11
 73
7
 74
5
 42
0.0000001
 43
0.0000001
 44
0.0000000001
 12
-0.0012232477
 22
0.3641905849
 32
0.0
 13
-0.3641914835
 23
0.0009174691
 33
0.0
 40
0.0
 40
0.0
 40
0.0
 40
0.0
 40
0.2331616734
 40
0.4766704348
 40
0.7338124928
 40
1.0
 40
1.0
 40
1.0
 40
1.0
 10
-8.304371834
 20
-23.8443375673
 30
0.0
 10
-8.3044669055
 20
-23.8160324719
 30
0.0
 10
-8.318397392
 20
-23.757489674
 30
0.0
 10
-8.375328701
 20
-23.6858275607
 30
0.0
 10
-8.457997611
 20
-23.6388305642
 30
0.0
 10
-8.5220531955
 20
-23.6279126226
 30
0.0
 10
-8.5543676032
 20
-23.6278312164
 30
0.0
 11
-8.304371834
 21
-23.8443375673
 31
0.0
 11
-8.3236102825
 21
-23.7616298332
 31
0.0
 11
-8.3778504455
 21
-23.6914666374
 31
0.0
 11
-8.4588665543
 21
-23.6444924834
 31
0.0
 11
-8.5543676032
 21
-23.6278312164
 31
0.0
  0
SPLINE
  5
95F
100
AcDbEntity
  8
RACCORDO
100
AcDbSpline
 62
7
  6
CONTINUOUS
 70
0
 71
3
 72
23
 73
19
 74
17
 42
0.0000001
 43
0.0000001
 44
0.0000000001
 12
0.1789146451
 22
1.0172025296
 32
0.0
 13
0.0
 23
1.0328172329
 33
0.0
 40
0.0
 40
0.0
 40
0.0
 40
0.0
 40
0.0026622084
 40
0.0086183549
 40
0.0177869048
 40
0.0300627081
 40
0.0453067114
 40
0.0633198407
 40
0.1068279398
 40
0.1589847436
 40
0.2182943243
 40
0.2834361317
 40
0.3533191056
 40
0.5038697501
 40
0.6644966434
 40
0.7473778792
 40
0.8314692803
 40
1.0
 40
1.0
 40
1.0
 40
1.0
 10
8.860915679
 20
-11.8889172239
 30
0.0
 10
8.8610744484
 20
-11.8880145555
 30
0.0
 10
8.8632026798
 20
-11.8856773572
 30
0.0
 10
8.8667995539
 20
-11.8809033197
 30
0.0
 10
8.8731798966
 20
-11.8738415971
 30
0.0
 10
8.8815846245
 20
-11.8644594775
 30
0.0
 10
8.8922232463
 20
-11.8529285349
 30
0.0
 10
8.9102150416
 20
-11.8335781956
 30
0.0
 10
8.9370405542
 20
-11.8050766799
 30
0.0
 10
8.9737150279
 20
-11.7663285293
 30
0.0
 10
9.0155601971
 20
-11.7222171223
 30
0.0
 10
9.0615823612
 20
-11.6736557393
 30
0.0
 10
9.1290824779
 20
-11.6021806111
 30
0.0
 10
9.2186910787
 20
-11.5063000117
 30
0.0
 10
9.3096681937
 20
-11.4058733825
 30
0.0
 10
9.3827859607
 20
-11.3194828632
 30
0.0
 10
9.4523519871
 20
-11.2291818999
 30
0.0
 10
9.5
 20
-11.1471837509
 30
0.0
 10
9.5
 20
-11.0891632737
 30
0.0
 11
8.860915679
 21
-11.8889172239
 31
0.0
 11
8.8623524922
 21
-11.8865729268
 31
0.0
 11
8.8662217955
 21
-11.8817905836
 31
0.0
 11
8.8724415762
 21
-11.8746502368
 31
0.0
 11
8.8809296395
 21
-11.8652321037
 31
0.0
 11
8.8915813326
 21
-11.853637991
 31
0.0
 11
8.9042481348
 21
-11.8400118764
 31
0.0
 11
8.9350129174
 21
-11.8072587916
 31
0.0
 11
8.9720293972
 21
-11.768123262
 31
0.0
 11
9.0141749756
 21
-11.7236705625
 31
0.0
 11
9.0604452862
 21
-11.6748279539
 31
0.0
 11
9.1099886459
 21
-11.6223410077
 31
0.0
 11
9.2160095611
 21
-11.5085995907
 31
0.0
 11
9.3268038092
 21
-11.3851214342
 31
0.0
 11
9.3818640221
 21
-11.3195780667
 31
0.0
 11
9.4343192319
 21
-11.2503570039
 31
0.0
 11
9.5
 21
-11.0891632737
 31
0.0
  0
SPLINE
  5
960
100
AcDbEntity
  8
RACCORDO
100
AcDbSpline
 62
7
  6
CONTINUOUS
 70
0
 71
3
 72
23
 73
19
 74
17
 42
0.0000001
 43
0.0000001
 44
0.0000000001
 12
0.0
 22
1.0328164324
 32
0.0
 13
-0.1789145065
 23
1.0172017413
 33
0.0
 40
0.0
 40
0.0
 40
0.0
 40
0.0
 40
0.1685404696
 40
0.2526309301
 40
0.3355105493
 40
0.4961336079
 40
0.6466794754
 40
0.7165602731
 40
0.7816999107
 40
0.8410086609
 40
0.8931645313
 40
0.9366752023
 40
0.9546894121
 40
0.9699335553
 40
0.9822092014
 40
0.991379105
 40
0.9973369701
 40
1.0
 40
1.0
 40
1.0
 40
1.0
 10
9.5
 20
-14.5108367263
 30
0.0
 10
9.5
 20
-14.4528129375
 30
0.0
 10
9.452344681
 20
-14.3708145404
 30
0.0
 10
9.3827807538
 20
-14.2805092839
 30
0.0
 10
9.3096624156
 20
-14.1941221178
 30
0.0
 10
9.2186889784
 20
-14.0936971688
 30
0.0
 10
9.1290825802
 20
-13.9978196928
 30
0.0
 10
9.061584807
 20
-13.9263467814
 30
0.0
 10
9.0155638409
 20
-13.8777867889
 30
0.0
 10
8.9737196942
 20
-13.8336763436
 30
0.0
 10
8.9370450203
 20
-13.7949280568
 30
0.0
 10
8.9102188537
 20
-13.7664259115
 30
0.0
 10
8.8922261423
 20
-13.7470746716
 30
0.0
 10
8.8815872831
 20
-13.7355434624
 30
0.0
 10
8.8731823811
 20
-13.7261609029
 30
0.0
 10
8.8668012701
 20
-13.719098491
 30
0.0
 10
8.8632036892
 20
-13.7143234068
 30
0.0
 10
8.8610744972
 20
-13.7119857223
 30
0.0
 10
8.860915679
 20
-13.7110827761
 30
0.0
 11
9.5
 21
-14.5108367263
 31
0.0
 11
9.4343115679
 21
-14.3496353909
 31
0.0
 11
9.3818579812
 21
-14.2804144015
 31
0.0
 11
9.32679828
 21
-14.2148728714
 31
0.0
 11
9.2160069343
 21
-14.0913976045
 31
0.0
 11
9.1099894506
 21
-13.9776598985
 31
0.0
 11
9.0604477083
 21
-13.9251745933
 31
0.0
 11
9.0141789582
 21
-13.8763336651
 31
0.0
 11
8.9720340247
 21
-13.8318816016
 31
0.0
 11
8.9350182101
 21
-13.7927468272
 31
0.0
 11
8.9042515876
 21
-13.7599918741
 31
0.0
 11
8.8915840136
 21
-13.746364973
 31
0.0
 11
8.8809322585
 21
-13.7347707376
 31
0.0
 11
8.8724443719
 21
-13.7253526771
 31
0.0
 11
8.8662236452
 21
-13.7182113098
 31
0.0
 11
8.8623531053
 21
-13.7134276901
 31
0.0
 11
8.860915679
 21
-13.7110827761
 31
0.0
  0
SPLINE
  5
961
100
AcDbEntity
  8
RACCORDO
100
AcDbSpline
 62
7
  6
CONTINUOUS
 70
0
 71
3
 72
23
 73
19
 74
17
 42
0.0000001
 43
0.0000001
 44
0.0000000001
 12
-0.1789146451
 22
-1.0172025296
 32
0.0
 13
-0.0
 23
-1.0328172329
 33
0.0
 40
0.0
 40
0.0
 40
0.0
 40
0.0
 40
0.0026622084
 40
0.0086183549
 40
0.0177869048
 40
0.0300627081
 40
0.0453067114
 40
0.0633198407
 40
0.1068279398
 40
0.1589847436
 40
0.2182943243
 40
0.2834361317
 40
0.3533191056
 40
0.5038697501
 40
0.6644966434
 40
0.7473778792
 40
0.8314692803
 40
1.0
 40
1.0
 40
1.0
 40
1.0
 10
-8.860915679
 20
-13.7110827761
 30
0.0
 10
-8.8610744484
 20
-13.7119854445
 30
0.0
 10
-8.8632026798
 20
-13.7143226428
 30
0.0
 10
-8.8667995539
 20
-13.7190966803
 30
0.0
 10
-8.8731798966
 20
-13.7261584029
 30
0.0
 10
-8.8815846245
 20
-13.7355405225
 30
0.0
 10
-8.8922232463
 20
-13.7470714651
 30
0.0
 10
-8.9102150416
 20
-13.7664218044
 30
0.0
 10
-8.9370405542
 20
-13.7949233201
 30
0.0
 10
-8.9737150279
 20
-13.8336714707
 30
0.0
 10
-9.0155601971
 20
-13.8777828777
 30
0.0
 10
-9.0615823612
 20
-13.9263442607
 30
0.0
 10
-9.1290824779
 20
-13.9978193889
 30
0.0
 10
-9.2186910787
 20
-14.0936999883
 30
0.0
 10
-9.3096681937
 20
-14.1941266175
 30
0.0
 10
-9.3827859607
 20
-14.2805171368
 30
0.0
 10
-9.4523519871
 20
-14.3708181001
 30
0.0
 10
-9.5
 20
-14.4528162491
 30
0.0
 10
-9.5
 20
-14.5108367263
 30
0.0
 11
-8.860915679
 21
-13.7110827761
 31
0.0
 11
-8.8623524922
 21
-13.7134270732
 31
0.0
 11
-8.8662217955
 21
-13.7182094164
 31
0.0
 11
-8.8724415762
 21
-13.7253497632
 31
0.0
 11
-8.8809296395
 21
-13.7347678963
 31
0.0
 11
-8.8915813326
 21
-13.746362009
 31
0.0
 11
-8.9042481348
 21
-13.7599881236
 31
0.0
 11
-8.9350129174
 21
-13.7927412084
 31
0.0
 11
-8.9720293972
 21
-13.831876738
 31
0.0
 11
-9.0141749756
 21
-13.8763294375
 31
0.0
 11
-9.0604452862
 21
-13.9251720461
 31
0.0
 11
-9.1099886459
 21
-13.9776589923
 31
0.0
 11
-9.2160095611
 21
-14.0914004093
 31
0.0
 11
-9.3268038092
 21
-14.2148785658
 31
0.0
 11
-9.3818640221
 21
-14.2804219333
 31
0.0
 11
-9.4343192319
 21
-14.3496429961
 31
0.0
 11
-9.5
 21
-14.5108367263
 31
0.0
  0
SPLINE
  5
962
100
AcDbEntity
  8
RACCORDO
100
AcDbSpline
 62
7
  6
CONTINUOUS
 70
0
 71
3
 72
23
 73
19
 74
17
 42
0.0000001
 43
0.0000001
 44
0.0000000001
 12
0.0
 22
-1.0328164324
 32
0.0
 13
0.1789145065
 23
-1.0172017413
 33
0.0
 40
0.0
 40
0.0
 40
0.0
 40
0.0
 40
0.1685404696
 40
0.2526309301
 40
0.3355105493
 40
0.4961336079
 40
0.6466794754
 40
0.7165602731
 40
0.7816999107
 40
0.8410086609
 40
0.8931645313
 40
0.9366752023
 40
0.9546894121
 40
0.9699335553
 40
0.9822092014
 40
0.991379105
 40
0.9973369701
 40
1.0
 40
1.0
 40
1.0
 40
1.0
 10
-9.5
 20
-11.0891632737
 30
0.0
 10
-9.5
 20
-11.1471870625
 30
0.0
 10
-9.452344681
 20
-11.2291854596
 30
0.0
 10
-9.3827807538
 20
-11.3194907161
 30
0.0
 10
-9.3096624156
 20
-11.4058778822
 30
0.0
 10
-9.2186889784
 20
-11.5063028312
 30
0.0
 10
-9.1290825802
 20
-11.6021803072
 30
0.0
 10
-9.061584807
 20
-11.6736532186
 30
0.0
 10
-9.0155638409
 20
-11.7222132111
 30
0.0
 10
-8.9737196942
 20
-11.7663236564
 30
0.0
 10
-8.9370450203
 20
-11.8050719432
 30
0.0
 10
-8.9102188537
 20
-11.8335740885
 30
0.0
 10
-8.8922261423
 20
-11.8529253284
 30
0.0
 10
-8.8815872831
 20
-11.8644565376
 30
0.0
 10
-8.8731823811
 20
-11.8738390971
 30
0.0
 10
-8.8668012701
 20
-11.880901509
 30
0.0
 10
-8.8632036892
 20
-11.8856765932
 30
0.0
 10
-8.8610744972
 20
-11.8880142777
 30
0.0
 10
-8.860915679
 20
-11.8889172239
 30
0.0
 11
-9.5
 21
-11.0891632737
 31
0.0
 11
-9.4343115679
 21
-11.2503646091
 31
0.0
 11
-9.3818579812
 21
-11.3195855985
 31
0.0
 11
-9.32679828
 21
-11.3851271286
 31
0.0
 11
-9.2160069343
 21
-11.5086023955
 31
0.0
 11
-9.1099894506
 21
-11.6223401015
 31
0.0
 11
-9.0604477083
 21
-11.6748254067
 31
0.0
 11
-9.0141789582
 21
-11.7236663349
 31
0.0
 11
-8.9720340247
 21
-11.7681183984
 31
0.0
 11
-8.9350182101
 21
-11.8072531728
 31
0.0
 11
-8.9042515876
 21
-11.8400081259
 31
0.0
 11
-8.8915840136
 21
-11.853635027
 31
0.0
 11
-8.8809322585
 21
-11.8652292624
 31
0.0
 11
-8.8724443719
 21
-11.8746473229
 31
0.0
 11
-8.8662236452
 21
-11.8817886902
 31
0.0
 11
-8.8623531053
 21
-11.8865723099
 31
0.0
 11
-8.860915679
 21
-11.8889172239
 31
0.0
  0
SPLINE
  5
963
100
AcDbEntity
  8
ASSI
100
AcDbSpline
 62
7
  6
CONTINUOUS
 70
0
 71
3
 72
23
 73
19
 74
17
 42
0.0000001
 43
0.0000001
 44
0.0000000001
 12
0.1789146451
 22
1.0172025296
 32
0.0
 13
0.0
 23
1.0328172329
 33
0.0
 40
0.0
 40
0.0
 40
0.0
 40
0.0
 40
0.0026622084
 40
0.0086183549
 40
0.0177869048
 40
0.0300627081
 40
0.0453067114
 40
0.0633198407
 40
0.1068279398
 40
0.1589847436
 40
0.2182943243
 40
0.2834361317
 40
0.3533191056
 40
0.5038697501
 40
0.6644966434
 40
0.7473778792
 40
0.8314692803
 40
1.0
 40
1.0
 40
1.0
 40
1.0
 10
8.860915679
 20
-11.8889172239
 30
0.0
 10
8.8610744484
 20
-11.8880145555
 30
0.0
 10
8.8632026798
 20
-11.8856773572
 30
0.0
 10
8.8667995539
 20
-11.8809033197
 30
0.0
 10
8.8731798966
 20
-11.8738415971
 30
0.0
 10
8.8815846245
 20
-11.8644594775
 30
0.0
 10
8.8922232463
 20
-11.8529285349
 30
0.0
 10
8.9102150416
 20
-11.8335781956
 30
0.0
 10
8.9370405542
 20
-11.8050766799
 30
0.0
 10
8.9737150279
 20
-11.7663285293
 30
0.0
 10
9.0155601971
 20
-11.7222171223
 30
0.0
 10
9.0615823612
 20
-11.6736557393
 30
0.0
 10
9.1290824779
 20
-11.6021806111
 30
0.0
 10
9.2186910787
 20
-11.5063000117
 30
0.0
 10
9.3096681937
 20
-11.4058733825
 30
0.0
 10
9.3827859607
 20
-11.3194828632
 30
0.0
 10
9.4523519871
 20
-11.2291818999
 30
0.0
 10
9.5
 20
-11.1471837509
 30
0.0
 10
9.5
 20
-11.0891632737
 30
0.0
 11
8.860915679
 21
-11.8889172239
 31
0.0
 11
8.8623524922
 21
-11.8865729268
 31
0.0
 11
8.8662217955
 21
-11.8817905836
 31
0.0
 11
8.8724415762
 21
-11.8746502368
 31
0.0
 11
8.8809296395
 21
-11.8652321037
 31
0.0
 11
8.8915813326
 21
-11.853637991
 31
0.0
 11
8.9042481348
 21
-11.8400118764
 31
0.0
 11
8.9350129174
 21
-11.8072587916
 31
0.0
 11
8.9720293972
 21
-11.768123262
 31
0.0
 11
9.0141749756
 21
-11.7236705625
 31
0.0
 11
9.0604452862
 21
-11.6748279539
 31
0.0
 11
9.1099886459
 21
-11.6223410077
 31
0.0
 11
9.2160095611
 21
-11.5085995907
 31
0.0
 11
9.3268038092
 21
-11.3851214342
 31
0.0
 11
9.3818640221
 21
-11.3195780667
 31
0.0
 11
9.4343192319
 21
-11.2503570039
 31
0.0
 11
9.5
 21
-11.0891632737
 31
0.0
  0
SPLINE
  5
964
100
AcDbEntity
  8
ASSI
100
AcDbSpline
 62
7
  6
CONTINUOUS
 70
0
 71
3
 72
23
 73
19
 74
17
 42
0.0000001
 43
0.0000001
 44
0.0000000001
 12
0.0
 22
1.0328164324
 32
0.0
 13
-0.1789145065
 23
1.0172017413
 33
0.0
 40
0.0
 40
0.0
 40
0.0
 40
0.0
 40
0.1685404696
 40
0.2526309301
 40
0.3355105493
 40
0.4961336079
 40
0.6466794754
 40
0.7165602731
 40
0.7816999107
 40
0.8410086609
 40
0.8931645313
 40
0.9366752023
 40
0.9546894121
 40
0.9699335553
 40
0.9822092014
 40
0.991379105
 40
0.9973369701
 40
1.0
 40
1.0
 40
1.0
 40
1.0
 10
9.5
 20
-14.5108367263
 30
0.0
 10
9.5
 20
-14.4528129375
 30
0.0
 10
9.452344681
 20
-14.3708145404
 30
0.0
 10
9.3827807538
 20
-14.2805092839
 30
0.0
 10
9.3096624156
 20
-14.1941221178
 30
0.0
 10
9.2186889784
 20
-14.0936971688
 30
0.0
 10
9.1290825802
 20
-13.9978196928
 30
0.0
 10
9.061584807
 20
-13.9263467814
 30
0.0
 10
9.0155638409
 20
-13.8777867889
 30
0.0
 10
8.9737196942
 20
-13.8336763436
 30
0.0
 10
8.9370450203
 20
-13.7949280568
 30
0.0
 10
8.9102188537
 20
-13.7664259115
 30
0.0
 10
8.8922261423
 20
-13.7470746716
 30
0.0
 10
8.8815872831
 20
-13.7355434624
 30
0.0
 10
8.8731823811
 20
-13.7261609029
 30
0.0
 10
8.8668012701
 20
-13.719098491
 30
0.0
 10
8.8632036892
 20
-13.7143234068
 30
0.0
 10
8.8610744972
 20
-13.7119857223
 30
0.0
 10
8.860915679
 20
-13.7110827761
 30
0.0
 11
9.5
 21
-14.5108367263
 31
0.0
 11
9.4343115679
 21
-14.3496353909
 31
0.0
 11
9.3818579812
 21
-14.2804144015
 31
0.0
 11
9.32679828
 21
-14.2148728714
 31
0.0
 11
9.2160069343
 21
-14.0913976045
 31
0.0
 11
9.1099894506
 21
-13.9776598985
 31
0.0
 11
9.0604477083
 21
-13.9251745933
 31
0.0
 11
9.0141789582
 21
-13.8763336651
 31
0.0
 11
8.9720340247
 21
-13.8318816016
 31
0.0
 11
8.9350182101
 21
-13.7927468272
 31
0.0
 11
8.9042515876
 21
-13.7599918741
 31
0.0
 11
8.8915840136
 21
-13.746364973
 31
0.0
 11
8.8809322585
 21
-13.7347707376
 31
0.0
 11
8.8724443719
 21
-13.7253526771
 31
0.0
 11
8.8662236452
 21
-13.7182113098
 31
0.0
 11
8.8623531053
 21
-13.7134276901
 31
0.0
 11
8.860915679
 21
-13.7110827761
 31
0.0
  0
SPLINE
  5
965
100
AcDbEntity
  8
ASSI
100
AcDbSpline
 62
7
  6
CONTINUOUS
 70
0
 71
3
 72
23
 73
19
 74
17
 42
0.0000001
 43
0.0000001
 44
0.0000000001
 12
-0.1789146451
 22
-1.0172025296
 32
0.0
 13
-0.0
 23
-1.0328172329
 33
0.0
 40
0.0
 40
0.0
 40
0.0
 40
0.0
 40
0.0026622084
 40
0.0086183549
 40
0.0177869048
 40
0.0300627081
 40
0.0453067114
 40
0.0633198407
 40
0.1068279398
 40
0.1589847436
 40
0.2182943243
 40
0.2834361317
 40
0.3533191056
 40
0.5038697501
 40
0.6644966434
 40
0.7473778792
 40
0.8314692803
 40
1.0
 40
1.0
 40
1.0
 40
1.0
 10
-8.860915679
 20
-13.7110827761
 30
0.0
 10
-8.8610744484
 20
-13.7119854445
 30
0.0
 10
-8.8632026798
 20
-13.7143226428
 30
0.0
 10
-8.8667995539
 20
-13.7190966803
 30
0.0
 10
-8.8731798966
 20
-13.7261584029
 30
0.0
 10
-8.8815846245
 20
-13.7355405225
 30
0.0
 10
-8.8922232463
 20
-13.7470714651
 30
0.0
 10
-8.9102150416
 20
-13.7664218044
 30
0.0
 10
-8.9370405542
 20
-13.7949233201
 30
0.0
 10
-8.9737150279
 20
-13.8336714707
 30
0.0
 10
-9.0155601971
 20
-13.8777828777
 30
0.0
 10
-9.0615823612
 20
-13.9263442607
 30
0.0
 10
-9.1290824779
 20
-13.9978193889
 30
0.0
 10
-9.2186910787
 20
-14.0936999883
 30
0.0
 10
-9.3096681937
 20
-14.1941266175
 30
0.0
 10
-9.3827859607
 20
-14.2805171368
 30
0.0
 10
-9.4523519871
 20
-14.3708181001
 30
0.0
 10
-9.5
 20
-14.4528162491
 30
0.0
 10
-9.5
 20
-14.5108367263
 30
0.0
 11
-8.860915679
 21
-13.7110827761
 31
0.0
 11
-8.8623524922
 21
-13.7134270732
 31
0.0
 11
-8.8662217955
 21
-13.7182094164
 31
0.0
 11
-8.8724415762
 21
-13.7253497632
 31
0.0
 11
-8.8809296395
 21
-13.7347678963
 31
0.0
 11
-8.8915813326
 21
-13.746362009
 31
0.0
 11
-8.9042481348
 21
-13.7599881236
 31
0.0
 11
-8.9350129174
 21
-13.7927412084
 31
0.0
 11
-8.9720293972
 21
-13.831876738
 31
0.0
 11
-9.0141749756
 21
-13.8763294375
 31
0.0
 11
-9.0604452862
 21
-13.9251720461
 31
0.0
 11
-9.1099886459
 21
-13.9776589923
 31
0.0
 11
-9.2160095611
 21
-14.0914004093
 31
0.0
 11
-9.3268038092
 21
-14.2148785658
 31
0.0
 11
-9.3818640221
 21
-14.2804219333
 31
0.0
 11
-9.4343192319
 21
-14.3496429961
 31
0.0
 11
-9.5
 21
-14.5108367263
 31
0.0
  0
SPLINE
  5
966
100
AcDbEntity
  8
ASSI
100
AcDbSpline
 62
7
  6
CONTINUOUS
 70
0
 71
3
 72
23
 73
19
 74
17
 42
0.0000001
 43
0.0000001
 44
0.0000000001
 12
0.0
 22
-1.0328164324
 32
0.0
 13
0.1789145065
 23
-1.0172017413
 33
0.0
 40
0.0
 40
0.0
 40
0.0
 40
0.0
 40
0.1685404696
 40
0.2526309301
 40
0.3355105493
 40
0.4961336079
 40
0.6466794754
 40
0.7165602731
 40
0.7816999107
 40
0.8410086609
 40
0.8931645313
 40
0.9366752023
 40
0.9546894121
 40
0.9699335553
 40
0.9822092014
 40
0.991379105
 40
0.9973369701
 40
1.0
 40
1.0
 40
1.0
 40
1.0
 10
-9.5
 20
-11.0891632737
 30
0.0
 10
-9.5
 20
-11.1471870625
 30
0.0
 10
-9.452344681
 20
-11.2291854596
 30
0.0
 10
-9.3827807538
 20
-11.3194907161
 30
0.0
 10
-9.3096624156
 20
-11.4058778822
 30
0.0
 10
-9.2186889784
 20
-11.5063028312
 30
0.0
 10
-9.1290825802
 20
-11.6021803072
 30
0.0
 10
-9.061584807
 20
-11.6736532186
 30
0.0
 10
-9.0155638409
 20
-11.7222132111
 30
0.0
 10
-8.9737196942
 20
-11.7663236564
 30
0.0
 10
-8.9370450203
 20
-11.8050719432
 30
0.0
 10
-8.9102188537
 20
-11.8335740885
 30
0.0
 10
-8.8922261423
 20
-11.8529253284
 30
0.0
 10
-8.8815872831
 20
-11.8644565376
 30
0.0
 10
-8.8731823811
 20
-11.8738390971
 30
0.0
 10
-8.8668012701
 20
-11.880901509
 30
0.0
 10
-8.8632036892
 20
-11.8856765932
 30
0.0
 10
-8.8610744972
 20
-11.8880142777
 30
0.0
 10
-8.860915679
 20
-11.8889172239
 30
0.0
 11
-9.5
 21
-11.0891632737
 31
0.0
 11
-9.4343115679
 21
-11.2503646091
 31
0.0
 11
-9.3818579812
 21
-11.3195855985
 31
0.0
 11
-9.32679828
 21
-11.3851271286
 31
0.0
 11
-9.2160069343
 21
-11.5086023955
 31
0.0
 11
-9.1099894506
 21
-11.6223401015
 31
0.0
 11
-9.0604477083
 21
-11.6748254067
 31
0.0
 11
-9.0141789582
 21
-11.7236663349
 31
0.0
 11
-8.9720340247
 21
-11.7681183984
 31
0.0
 11
-8.9350182101
 21
-11.8072531728
 31
0.0
 11
-8.9042515876
 21
-11.8400081259
 31
0.0
 11
-8.8915840136
 21
-11.853635027
 31
0.0
 11
-8.8809322585
 21
-11.8652292624
 31
0.0
 11
-8.8724443719
 21
-11.8746473229
 31
0.0
 11
-8.8662236452
 21
-11.8817886902
 31
0.0
 11
-8.8623531053
 21
-11.8865723099
 31
0.0
 11
-8.860915679
 21
-11.8889172239
 31
0.0
  0
ELLIPSE
  5
967
100
AcDbEntity
  8
RACCORDO
100
AcDbEllipse
 62
7
  6
CONTINUOUS
 10
8.4983816494
 20
-21.2626932437
 30
0.0
 11
1.0000571192
 21
0.9999809595
 31
0.0
 40
0.0061705924
 41
-3.1266950233
 42
-2.1496493439
  0
ELLIPSE
  5
968
100
AcDbEntity
  8
RACCORDO
100
AcDbEllipse
 62
7
  6
CONTINUOUS
 10
-8.4983816494
 20
-21.2626932437
 30
0.0
 11
1.0000571192
 21
-0.9999809595
 31
0.0
 40
0.0061705924
 41
-0.9919433097
 42
-0.0148976303
  0
ELLIPSE
  5
969
100
AcDbEntity
  8
RACCORDO
100
AcDbEllipse
 62
7
  6
CONTINUOUS
 10
8.4983816494
 20
21.2626932437
 30
0.0
 11
1.0000571192
 21
-0.9999809595
 31
0.0
 40
0.0061705924
 41
2.1496493439
 42
3.1266950233
  0
ELLIPSE
  5
96A
100
AcDbEntity
  8
RACCORDO
100
AcDbEllipse
 62
7
  6
CONTINUOUS
 10
-8.4983816494
 20
21.2626932437
 30
0.0
 11
1.0000571192
 21
0.9999809595
 31
0.0
 40
0.0061705924
 41
0.0148976303
 42
0.9919433097
  0
ELLIPSE
  5
96B
100
AcDbEntity
  8
RACCORDO
100
AcDbEllipse
 62
7
  6
CONTINUOUS
 10
-7.5841007192
 20
-22.1831450013
 30
0.0
 11
-0.4999904798
 21
0.5000285596
 31
0.0
 40
0.0061705924
 41
0.0236242766
 42
0.7368798074
  0
ELLIPSE
  5
96C
100
AcDbEntity
  8
RACCORDO
100
AcDbEllipse
 62
7
  6
CONTINUOUS
 10
7.5841007192
 20
-22.1831450013
 30
0.0
 11
0.4999904798
 21
0.5000285596
 31
0.0
 40
0.0061705924
 41
-0.7368798074
 42
-0.0236242766
  0
ELLIPSE
  5
96D
100
AcDbEntity
  8
RACCORDO
100
AcDbEllipse
 62
7
  6
CONTINUOUS
 10
-7.5841007192
 20
22.1831450013
 30
0.0
 11
0.4999904798
 21
0.5000285596
 31
0.0
 40
0.0061705924
 41
-3.878472461
 42
-3.1652169301
  0
ELLIPSE
  5
96E
100
AcDbEntity
  8
RACCORDO
100
AcDbEllipse
 62
7
  6
CONTINUOUS
 10
7.5841007192
 20
22.1831450013
 30
0.0
 11
-0.4999904798
 21
0.5000285596
 31
0.0
 40
0.0061705924
 41
-3.117968377
 42
-2.4047128462
  0
ELLIPSE
  5
96F
100
AcDbEntity
  8
RACCORDO
100
AcDbEllipse
 62
7
  6
CONTINUOUS
 10
-7.0429818832
 20
-20.9942501721
 30
0.0
 11
0.2
 21
0.0
 31
0.0
 40
0.0087268678
 41
-3.1357748894
 42
-1.5707963268
  0
ELLIPSE
  5
970
100
AcDbEntity
  8
RACCORDO
100
AcDbEllipse
 62
7
  6
CONTINUOUS
 10
7.0429818832
 20
-20.9942501721
 30
0.0
 11
0.2
 21
-0.0
 31
0.0
 40
0.0087268678
 41
-1.5707963268
 42
-0.0058177642
  0
ELLIPSE
  5
971
100
AcDbEntity
  8
RACCORDO
100
AcDbEllipse
 62
7
  6
CONTINUOUS
 10
7.0429818832
 20
20.9942501721
 30
0.0
 11
0.2
 21
-0.0
 31
0.0
 40
0.0087268678
 41
0.0058177642
 42
1.5707963268
  0
ELLIPSE
  5
972
100
AcDbEntity
  8
RACCORDO
100
AcDbEllipse
 62
7
  6
CONTINUOUS
 10
-7.0429818832
 20
20.9942501721
 30
0.0
 11
0.2
 21
0.0
 31
0.0
 40
0.0087268678
 41
1.5707963268
 42
3.1357748894
  0
ELLIPSE
  5
973
100
AcDbEntity
  8
RACCORDO
100
AcDbEllipse
 62
7
  6
CONTINUOUS
 10
4.2026066368
 20
19.9973819397
 30
0.0
 11
0.3
 21
0.0
 31
0.0
 40
0.0087268678
 41
0.0087266463
 42
1.5707963268
  0
ELLIPSE
  5
974
100
AcDbEntity
  8
RACCORDO
100
AcDbEllipse
 62
7
  6
CONTINUOUS
 10
4.2602039642
 20
17.5397960358
 30
0.0
 11
0.2121481893
 21
-0.2121481893
 31
0.0
 40
0.9999238505
 41
-0.7853600871
 42
0.7853600872
  0
ELLIPSE
  5
975
100
AcDbEntity
  8
RACCORDO
100
AcDbEllipse
 62
7
  6
CONTINUOUS
 10
-4.2602039642
 20
17.5397960358
 30
0.0
 11
0.2121481893
 21
0.2121481893
 31
0.0
 40
0.9999238505
 41
2.3562325664
 42
3.9269527408
  0
ELLIPSE
  5
976
100
AcDbEntity
  8
RACCORDO
100
AcDbEllipse
 62
7
  6
CONTINUOUS
 10
-4.2026066368
 20
19.9973819397
 30
0.0
 11
0.3
 21
-0.0
 31
0.0
 40
0.0087268678
 41
1.5707963268
 42
3.1328660073
  0
ELLIPSE
  5
977
100
AcDbEntity
  8
RACCORDO
100
AcDbEllipse
 62
7
  6
CONTINUOUS
 10
9.5958892987
 20
19.947427955
 30
0.0
 11
0.0
 21
0.5
 31
0.0
 40
0.0174550649
 41
-3.089232776
 42
-1.5707963268
  0
ELLIPSE
  5
978
100
AcDbEntity
  8
RACCORDO
100
AcDbEllipse
 62
7
  6
CONTINUOUS
 10
7.3238531022
 20
19.947427955
 30
0.0
 11
0.0
 21
0.5
 31
0.0
 40
0.0058178298
 41
-4.7123889804
 42
-3.1939525311
  0
ELLIPSE
  5
979
100
AcDbEntity
  8
RACCORDO
100
AcDbEllipse
 62
7
  6
CONTINUOUS
 10
6.4761468978
 20
19.947427955
 30
0.0
 11
0.0
 21
0.5
 31
0.0
 40
0.0058178298
 41
-3.089232776
 42
-1.5707963268
  0
ELLIPSE
  5
97A
100
AcDbEntity
  8
RACCORDO
100
AcDbEllipse
 62
7
  6
CONTINUOUS
 10
4.5357801579
 20
19.947427955
 30
0.0
 11
-0.0
 21
0.5
 31
0.0
 40
0.0087268678
 41
1.5707963268
 42
3.089232776
  0
ELLIPSE
  5
97B
100
AcDbEntity
  8
RACCORDO
100
AcDbEllipse
 62
7
  6
CONTINUOUS
 10
-4.5357801579
 20
19.947427955
 30
0.0
 11
0.0
 21
0.5
 31
0.0
 40
0.0087268678
 41
-3.089232776
 42
-1.5707963268
  0
ELLIPSE
  5
97C
100
AcDbEntity
  8
RACCORDO
100
AcDbEllipse
 62
7
  6
CONTINUOUS
 10
-6.4761468978
 20
19.947427955
 30
0.0
 11
0.0
 21
0.5
 31
0.0
 40
0.0058178298
 41
-4.7123889804
 42
-3.1939525311
  0
ELLIPSE
  5
97D
100
AcDbEntity
  8
RACCORDO
100
AcDbEllipse
 62
7
  6
CONTINUOUS
 10
-7.3238531022
 20
19.947427955
 30
0.0
 11
0.0
 21
0.5
 31
0.0
 40
0.0058178298
 41
-3.089232776
 42
-1.5707963268
  0
ELLIPSE
  5
97E
100
AcDbEntity
  8
RACCORDO
100
AcDbEllipse
 62
7
  6
CONTINUOUS
 10
-9.5958892987
 20
19.947427955
 30
0.0
 11
-0.0
 21
0.5
 31
0.0
 40
0.0174550649
 41
-4.7123889804
 42
-3.1939525311
  0
ELLIPSE
  5
97F
100
AcDbEntity
  8
RACCORDO
100
AcDbEllipse
 62
7
  6
CONTINUOUS
 10
-10.599923836
 20
21.841254093
 30
0.0
 11
0.4473055582
 21
0.2236357461
 31
0.0
 40
0.9998096356
 41
7.3902883349
 42
8.9612369607
  0
ELLIPSE
  5
980
100
AcDbEntity
  8
RACCORDO
100
AcDbEllipse
 62
7
  6
CONTINUOUS
 10
3.0785418101
 20
-21.2626932437
 30
0.0
 11
0.0
 21
1.0
 31
0.0
 40
0.0087268678
 41
-3.1328660073
 42
-1.5707963268
  0
ELLIPSE
  5
981
100
AcDbEntity
  8
RACCORDO
100
AcDbEllipse
 62
7
  6
CONTINUOUS
 10
-3.0785418101
 20
-21.2626932437
 30
0.0
 11
0.0
 21
1.0
 31
0.0
 40
0.0087268678
 41
-4.7123889804
 42
-3.1503192998
  0
ELLIPSE
  5
982
100
AcDbEntity
  8
RACCORDO
100
AcDbEllipse
 62
7
  6
CONTINUOUS
 10
3.0785418101
 20
21.2626932437
 30
0.0
 11
0.0
 21
1.0
 31
0.0
 40
0.0087268678
 41
-1.5707963268
 42
-0.0087266463
  0
ELLIPSE
  5
983
100
AcDbEntity
  8
RACCORDO
100
AcDbEllipse
 62
7
  6
CONTINUOUS
 10
-3.0785418101
 20
21.2626932437
 30
0.0
 11
0.0
 21
1.0
 31
0.0
 40
0.0087268678
 41
0.0087266463
 42
1.5707963268
  0
ELLIPSE
  5
984
100
AcDbEntity
  8
RACCORDO
100
AcDbEllipse
 62
7
  6
CONTINUOUS
 10
10.599923836
 20
-21.841254093
 30
0.0
 11
-0.4473055582
 21
-0.2236357461
 31
0.0
 40
0.9998096356
 41
7.3902883349
 42
8.9612369607
  0
ELLIPSE
  5
985
100
AcDbEntity
  8
RACCORDO
100
AcDbEllipse
 62
7
  6
CONTINUOUS
 10
-7.5841007192
 20
-20.9916321118
 30
0.0
 11
0.5
 21
-0.0
 31
0.0
 40
0.0087268678
 41
-3.1241393611
 42
-1.5707963268
  0
ELLIPSE
  5
986
100
AcDbEntity
  8
RACCORDO
100
AcDbEllipse
 62
7
  6
CONTINUOUS
 10
10.599923836
 20
21.841254093
 30
0.0
 11
0.4473055582
 21
-0.2236357461
 31
0.0
 40
0.9998096356
 41
6.7467263073
 42
8.3176749331
  0
ELLIPSE
  5
987
100
AcDbEntity
  8
RACCORDO
100
AcDbEllipse
 62
7
  6
CONTINUOUS
 10
7.5841007192
 20
-20.9916321118
 30
0.0
 11
0.5
 21
-0.0
 31
0.0
 40
0.0087268678
 41
-1.5707963268
 42
-0.0174532925
  0
ELLIPSE
  5
988
100
AcDbEntity
  8
RACCORDO
100
AcDbEllipse
 62
7
  6
CONTINUOUS
 10
-7.5841007192
 20
20.9916321118
 30
0.0
 11
0.5
 21
0.0
 31
0.0
 40
0.0087268678
 41
1.5707963268
 42
3.1241393611
  0
ELLIPSE
  5
989
100
AcDbEntity
  8
RACCORDO
100
AcDbEllipse
 62
7
  6
CONTINUOUS
 10
7.5841007192
 20
20.9916321118
 30
0.0
 11
0.5
 21
0.0
 31
0.0
 40
0.0087268678
 41
0.0174532925
 42
1.5707963268
  0
ELLIPSE
  5
98A
100
AcDbEntity
  8
RACCORDO
100
AcDbEllipse
 62
7
  6
CONTINUOUS
 10
-10.599923836
 20
-21.841254093
 30
0.0
 11
-0.4473055582
 21
0.2236357461
 31
0.0
 40
0.9998096356
 41
6.7467263073
 42
8.3176749331
  0
ELLIPSE
  5
98B
100
AcDbEntity
  8
RACCORDO
100
AcDbEllipse
 62
7
  6
CONTINUOUS
 10
10.3249957691
 20
23.4113248654
 30
0.0
 11
-0.0029088041
 21
0.2886641433
 31
0.0
 40
0.8660144118
 41
-3.150319066
 42
-1.582431609
  0
ELLIPSE
  5
98C
100
AcDbEntity
  8
RACCORDO
100
AcDbEllipse
 62
7
  6
CONTINUOUS
 10
8.5500042309
 20
23.4113248654
 30
0.0
 11
0.0029088041
 21
0.2886641433
 31
0.0
 40
0.8660144118
 41
-4.7007536982
 42
-3.1328662412
  0
ELLIPSE
  5
98D
100
AcDbEntity
  8
RACCORDO
100
AcDbEllipse
 62
7
  6
CONTINUOUS
 10
-8.5500042309
 20
23.4113248654
 30
0.0
 11
-0.0029088041
 21
0.2886641433
 31
0.0
 40
0.8660144118
 41
-3.150319066
 42
-1.582431609
  0
ELLIPSE
  5
98E
100
AcDbEntity
  8
RACCORDO
100
AcDbEllipse
 62
7
  6
CONTINUOUS
 10
-10.3249957691
 20
23.4113248654
 30
0.0
 11
0.0029088041
 21
0.2886641433
 31
0.0
 40
0.8660144118
 41
-4.7007536982
 42
-3.1328662411
  0
ELLIPSE
  5
98F
100
AcDbEntity
  8
RACCORDO
100
AcDbEllipse
 62
7
  6
CONTINUOUS
 10
-3.9566964758
 20
-22.2836677402
 30
0.0
 11
0.3990758876
 21
-0.0
 31
0.0
 40
0.0087268678
 41
0.0087266463
 42
3.1357748894
  0
ELLIPSE
  5
990
100
AcDbEntity
  8
RACCORDO
100
AcDbEllipse
 62
7
  6
CONTINUOUS
 10
8.5500042309
 20
-23.4113248654
 30
0.0
 11
-0.0029088041
 21
0.2886641433
 31
0.0
 40
0.8660144118
 41
-0.0087264124
 42
1.5591610446
  0
ELLIPSE
  5
991
100
AcDbEntity
  8
RACCORDO
100
AcDbEllipse
 62
7
  6
CONTINUOUS
 10
10.3249957691
 20
-23.4113248654
 30
0.0
 11
0.0029088041
 21
0.2886641433
 31
0.0
 40
0.8660144118
 41
-1.5591610446
 42
0.0087264124
  0
ELLIPSE
  5
992
100
AcDbEntity
  8
RACCORDO
100
AcDbEllipse
 62
7
  6
CONTINUOUS
 10
3.9566964758
 20
-22.2836677402
 30
0.0
 11
0.3990758876
 21
-0.0
 31
0.0
 40
0.0087268678
 41
0.0058177642
 42
3.1328660073
  0
ELLIPSE
  5
993
100
AcDbEntity
  8
RACCORDO
100
AcDbEllipse
 62
7
  6
CONTINUOUS
 10
-10.3249957691
 20
-23.4113248654
 30
0.0
 11
-0.0029088041
 21
0.2886641433
 31
0.0
 40
0.8660144118
 41
-0.0087264124
 42
1.5591610446
  0
ELLIPSE
  5
994
100
AcDbEntity
  8
RACCORDO
100
AcDbEllipse
 62
7
  6
CONTINUOUS
 10
-8.5500042309
 20
-23.4113248654
 30
0.0
 11
0.0029088041
 21
0.2886641433
 31
0.0
 40
0.8660144118
 41
-1.5591610446
 42
0.0087264124
  0
ELLIPSE
  5
995
100
AcDbEntity
  8
RACCORDO
100
AcDbEllipse
 62
7
  6
CONTINUOUS
 10
-3.9566964758
 20
22.2836677402
 30
0.0
 11
0.3990758876
 21
0.0
 31
0.0
 40
0.0087268678
 41
-3.1357748894
 42
-0.0087266463
  0
ELLIPSE
  5
996
100
AcDbEntity
  8
RACCORDO
100
AcDbEllipse
 62
7
  6
CONTINUOUS
 10
3.9566964758
 20
22.2836677402
 30
0.0
 11
0.3990758876
 21
0.0
 31
0.0
 40
0.0087268678
 41
-3.1328660073
 42
-0.0058177642
  0
ELLIPSE
  5
997
100
AcDbEntity
  8
ASSI
100
AcDbEllipse
 62
7
  6
CONTINUOUS
 10
8.4983816494
 20
-21.2626932437
 30
0.0
 11
1.0000571192
 21
0.9999809595
 31
0.0
 40
0.0061705924
 41
-3.1266950233
 42
-2.1496493439
  0
ELLIPSE
  5
998
100
AcDbEntity
  8
ASSI
100
AcDbEllipse
 62
7
  6
CONTINUOUS
 10
-8.4983816494
 20
-21.2626932437
 30
0.0
 11
1.0000571192
 21
-0.9999809595
 31
0.0
 40
0.0061705924
 41
-0.9919433097
 42
-0.0148976303
  0
ELLIPSE
  5
999
100
AcDbEntity
  8
ASSI
100
AcDbEllipse
 62
7
  6
CONTINUOUS
 10
8.4983816494
 20
21.2626932437
 30
0.0
 11
1.0000571192
 21
-0.9999809595
 31
0.0
 40
0.0061705924
 41
2.1496493439
 42
3.1266950233
  0
ELLIPSE
  5
99A
100
AcDbEntity
  8
ASSI
100
AcDbEllipse
 62
7
  6
CONTINUOUS
 10
-8.4983816494
 20
21.2626932437
 30
0.0
 11
1.0000571192
 21
0.9999809595
 31
0.0
 40
0.0061705924
 41
0.0148976303
 42
0.9919433097
  0
ELLIPSE
  5
99B
100
AcDbEntity
  8
ASSI
100
AcDbEllipse
 62
7
  6
CONTINUOUS
 10
-7.5841007192
 20
-22.1831450013
 30
0.0
 11
-0.4999904798
 21
0.5000285596
 31
0.0
 40
0.0061705924
 41
0.0236242766
 42
0.7368798074
  0
ELLIPSE
  5
99C
100
AcDbEntity
  8
ASSI
100
AcDbEllipse
 62
7
  6
CONTINUOUS
 10
7.5841007192
 20
-22.1831450013
 30
0.0
 11
0.4999904798
 21
0.5000285596
 31
0.0
 40
0.0061705924
 41
-0.7368798074
 42
-0.0236242766
  0
ELLIPSE
  5
99D
100
AcDbEntity
  8
ASSI
100
AcDbEllipse
 62
7
  6
CONTINUOUS
 10
-7.5841007192
 20
22.1831450013
 30
0.0
 11
0.4999904798
 21
0.5000285596
 31
0.0
 40
0.0061705924
 41
-3.878472461
 42
-3.1652169301
  0
ELLIPSE
  5
99E
100
AcDbEntity
  8
ASSI
100
AcDbEllipse
 62
7
  6
CONTINUOUS
 10
7.5841007192
 20
22.1831450013
 30
0.0
 11
-0.4999904798
 21
0.5000285596
 31
0.0
 40
0.0061705924
 41
-3.117968377
 42
-2.4047128462
  0
ELLIPSE
  5
99F
100
AcDbEntity
  8
ASSI
100
AcDbEllipse
 62
7
  6
CONTINUOUS
 10
7.0429818832
 20
20.9942501721
 30
0.0
 11
0.2
 21
-0.0
 31
0.0
 40
0.0087268678
 41
0.0058177642
 42
1.5707963268
  0
ELLIPSE
  5
9A0
100
AcDbEntity
  8
ASSI
100
AcDbEllipse
 62
7
  6
CONTINUOUS
 10
10.599923836
 20
21.841254093
 30
0.0
 11
0.4473055582
 21
-0.2236357461
 31
0.0
 40
0.9998096356
 41
6.7467263073
 42
8.3176749331
  0
ELLIPSE
  5
9A1
100
AcDbEntity
  8
ASSI
100
AcDbEllipse
 62
7
  6
CONTINUOUS
 10
-10.599923836
 20
-21.841254093
 30
0.0
 11
-0.4473055582
 21
0.2236357461
 31
0.0
 40
0.9998096356
 41
6.7467263073
 42
8.3176749331
  0
ELLIPSE
  5
9A2
100
AcDbEntity
  8
ASSI
100
AcDbEllipse
 62
7
  6
CONTINUOUS
 10
-4.3563662764
 20
23.2563578147
 30
0.0
 11
0.0
 21
0.5
 31
0.0
 40
0.0058178298
 41
-0.2079879759
 42
-0.0058177642
  0
ELLIPSE
  5
9A3
100
AcDbEntity
  8
ASSI
100
AcDbEllipse
 62
7
  6
CONTINUOUS
 10
4.3563662764
 20
23.2563578147
 30
0.0
 11
0.0
 21
0.5
 31
0.0
 40
0.0058178298
 41
0.0058177642
 42
0.2079879759
  0
ELLIPSE
  5
9A4
100
AcDbEntity
  8
ASSI
100
AcDbEllipse
 62
7
  6
CONTINUOUS
 10
4.3563662764
 20
-23.2563578147
 30
0.0
 11
-0.0
 21
0.5
 31
0.0
 40
0.0058178298
 41
-3.3495806295
 42
-3.1474104178
  0
ELLIPSE
  5
9A5
100
AcDbEntity
  8
ASSI
100
AcDbEllipse
 62
7
  6
CONTINUOUS
 10
-4.3563662764
 20
-23.2563578147
 30
0.0
 11
-0.0
 21
0.5
 31
0.0
 40
0.0058178298
 41
-3.1357748894
 42
-2.9336046777
  0
ELLIPSE
  5
9A6
100
AcDbEntity
  8
ASSI
100
AcDbEllipse
 62
7
  6
CONTINUOUS
 10
-7.0429818832
 20
20.9942501721
 30
0.0
 11
0.2
 21
0.0
 31
0.0
 40
0.0087268678
 41
1.5707963268
 42
3.1357748894
  0
ELLIPSE
  5
9A7
100
AcDbEntity
  8
ASSI
100
AcDbEllipse
 62
7
  6
CONTINUOUS
 10
4.2026066368
 20
19.9973819397
 30
0.0
 11
0.3
 21
0.0
 31
0.0
 40
0.0087268678
 41
0.0087266463
 42
1.5707963268
  0
ELLIPSE
  5
9A8
100
AcDbEntity
  8
ASSI
100
AcDbEllipse
 62
7
  6
CONTINUOUS
 10
4.2602039642
 20
17.5397960358
 30
0.0
 11
0.2121481893
 21
-0.2121481893
 31
0.0
 40
0.9999238505
 41
-0.7853600871
 42
0.7853600872
  0
ELLIPSE
  5
9A9
100
AcDbEntity
  8
ASSI
100
AcDbEllipse
 62
7
  6
CONTINUOUS
 10
-4.2602039642
 20
17.5397960358
 30
0.0
 11
0.2121481893
 21
0.2121481893
 31
0.0
 40
0.9999238505
 41
2.3562325664
 42
3.9269527408
  0
ELLIPSE
  5
9AA
100
AcDbEntity
  8
ASSI
100
AcDbEllipse
 62
7
  6
CONTINUOUS
 10
-4.2026066368
 20
19.9973819397
 30
0.0
 11
0.3
 21
-0.0
 31
0.0
 40
0.0087268678
 41
1.5707963268
 42
3.1328660073
  0
ELLIPSE
  5
9AB
100
AcDbEntity
  8
ASSI
100
AcDbEllipse
 62
7
  6
CONTINUOUS
 10
9.5958892987
 20
19.947427955
 30
0.0
 11
0.0
 21
0.5
 31
0.0
 40
0.0174550649
 41
-3.089232776
 42
-1.5707963268
  0
ELLIPSE
  5
9AC
100
AcDbEntity
  8
ASSI
100
AcDbEllipse
 62
7
  6
CONTINUOUS
 10
7.3238531022
 20
19.947427955
 30
0.0
 11
0.0
 21
0.5
 31
0.0
 40
0.0058178298
 41
-4.7123889804
 42
-3.1939525311
  0
ELLIPSE
  5
9AD
100
AcDbEntity
  8
ASSI
100
AcDbEllipse
 62
7
  6
CONTINUOUS
 10
6.4761468978
 20
19.947427955
 30
0.0
 11
0.0
 21
0.5
 31
0.0
 40
0.0058178298
 41
-3.089232776
 42
-1.5707963268
  0
ELLIPSE
  5
9AE
100
AcDbEntity
  8
ASSI
100
AcDbEllipse
 62
7
  6
CONTINUOUS
 10
4.5357801579
 20
19.947427955
 30
0.0
 11
0.0
 21
0.5
 31
0.0
 40
0.0087268678
 41
-4.7123889804
 42
-3.1939525311
  0
ELLIPSE
  5
9AF
100
AcDbEntity
  8
ASSI
100
AcDbEllipse
 62
7
  6
CONTINUOUS
 10
-4.5357801579
 20
19.947427955
 30
0.0
 11
0.0
 21
0.5
 31
0.0
 40
0.0087268678
 41
-3.089232776
 42
-1.5707963268
  0
ELLIPSE
  5
9B0
100
AcDbEntity
  8
ASSI
100
AcDbEllipse
 62
7
  6
CONTINUOUS
 10
-6.4761468978
 20
19.947427955
 30
0.0
 11
0.0
 21
0.5
 31
0.0
 40
0.0058178298
 41
-4.7123889804
 42
-3.1939525311
  0
ELLIPSE
  5
9B1
100
AcDbEntity
  8
ASSI
100
AcDbEllipse
 62
7
  6
CONTINUOUS
 10
-7.3238531022
 20
19.947427955
 30
0.0
 11
0.0
 21
0.5
 31
0.0
 40
0.0058178298
 41
-3.089232776
 42
-1.5707963268
  0
ELLIPSE
  5
9B2
100
AcDbEntity
  8
ASSI
100
AcDbEllipse
 62
7
  6
CONTINUOUS
 10
-9.5958892987
 20
19.947427955
 30
0.0
 11
-0.0
 21
0.5
 31
0.0
 40
0.0174550649
 41
-4.7123889804
 42
-3.1939525311
  0
ELLIPSE
  5
9B3
100
AcDbEntity
  8
ASSI
100
AcDbEllipse
 62
7
  6
CONTINUOUS
 10
-10.599923836
 20
21.841254093
 30
0.0
 11
0.4473055582
 21
0.2236357461
 31
0.0
 40
0.9998096356
 41
7.3902883349
 42
8.9612369607
  0
ELLIPSE
  5
9B4
100
AcDbEntity
  8
ASSI
100
AcDbEllipse
 62
7
  6
CONTINUOUS
 10
3.0785418101
 20
-21.2626932437
 30
0.0
 11
0.0
 21
1.0
 31
0.0
 40
0.0087268678
 41
-3.1328660073
 42
-1.5707963268
  0
ELLIPSE
  5
9B5
100
AcDbEntity
  8
ASSI
100
AcDbEllipse
 62
7
  6
CONTINUOUS
 10
-3.0785418101
 20
-21.2626932437
 30
0.0
 11
0.0
 21
1.0
 31
0.0
 40
0.0087268678
 41
-4.7123889804
 42
-3.1503192998
  0
ELLIPSE
  5
9B6
100
AcDbEntity
  8
ASSI
100
AcDbEllipse
 62
7
  6
CONTINUOUS
 10
3.0785418101
 20
21.2626932437
 30
0.0
 11
0.0
 21
1.0
 31
0.0
 40
0.0087268678
 41
-1.5707963268
 42
-0.0087266463
  0
ELLIPSE
  5
9B7
100
AcDbEntity
  8
ASSI
100
AcDbEllipse
 62
7
  6
CONTINUOUS
 10
-3.0785418101
 20
21.2626932437
 30
0.0
 11
0.0
 21
1.0
 31
0.0
 40
0.0087268678
 41
0.0087266463
 42
1.5707963268
  0
ELLIPSE
  5
9B8
100
AcDbEntity
  8
ASSI
100
AcDbEllipse
 62
7
  6
CONTINUOUS
 10
10.599923836
 20
-21.841254093
 30
0.0
 11
-0.4473055582
 21
-0.2236357461
 31
0.0
 40
0.9998096356
 41
7.3902883349
 42
8.9612369607
  0
ELLIPSE
  5
9B9
100
AcDbEntity
  8
ASSI
100
AcDbEllipse
 62
7
  6
CONTINUOUS
 10
-3.9566964758
 20
-22.2836677402
 30
0.0
 11
0.3990758876
 21
-0.0
 31
0.0
 40
0.0087268678
 41
0.0087266463
 42
3.1357748894
  0
ELLIPSE
  5
9BA
100
AcDbEntity
  8
ASSI
100
AcDbEllipse
 62
7
  6
CONTINUOUS
 10
3.9566964758
 20
-22.2836677402
 30
0.0
 11
0.3990758876
 21
-0.0
 31
0.0
 40
0.0087268678
 41
0.0058177642
 42
3.1328660073
  0
ELLIPSE
  5
9BB
100
AcDbEntity
  8
ASSI
100
AcDbEllipse
 62
7
  6
CONTINUOUS
 10
-7.5841007192
 20
-20.9916321118
 30
0.0
 11
0.5
 21
-0.0
 31
0.0
 40
0.0087268678
 41
-3.1241393611
 42
-1.5707963268
  0
ELLIPSE
  5
9BC
100
AcDbEntity
  8
ASSI
100
AcDbEllipse
 62
7
  6
CONTINUOUS
 10
-3.9566964758
 20
22.2836677402
 30
0.0
 11
0.3990758876
 21
0.0
 31
0.0
 40
0.0087268678
 41
-3.1357748894
 42
-0.0087266463
  0
ELLIPSE
  5
9BD
100
AcDbEntity
  8
ASSI
100
AcDbEllipse
 62
7
  6
CONTINUOUS
 10
10.3249957691
 20
23.4113248654
 30
0.0
 11
-0.0029088041
 21
0.2886641433
 31
0.0
 40
0.8660144118
 41
-3.150319066
 42
-1.582431609
  0
ELLIPSE
  5
9BE
100
AcDbEntity
  8
ASSI
100
AcDbEllipse
 62
7
  6
CONTINUOUS
 10
8.5500042309
 20
23.4113248654
 30
0.0
 11
0.0029088041
 21
0.2886641433
 31
0.0
 40
0.8660144118
 41
-4.7007536982
 42
-3.1328662412
  0
ELLIPSE
  5
9BF
100
AcDbEntity
  8
ASSI
100
AcDbEllipse
 62
7
  6
CONTINUOUS
 10
3.9566964758
 20
22.2836677402
 30
0.0
 11
0.3990758876
 21
0.0
 31
0.0
 40
0.0087268678
 41
-3.1328660073
 42
-0.0058177642
  0
ELLIPSE
  5
9C0
100
AcDbEntity
  8
ASSI
100
AcDbEllipse
 62
7
  6
CONTINUOUS
 10
7.5841007192
 20
-20.9916321118
 30
0.0
 11
0.5
 21
-0.0
 31
0.0
 40
0.0087268678
 41
-1.5707963268
 42
-0.0174532925
  0
ELLIPSE
  5
9C1
100
AcDbEntity
  8
ASSI
100
AcDbEllipse
 62
7
  6
CONTINUOUS
 10
-7.5841007192
 20
20.9916321118
 30
0.0
 11
0.5
 21
0.0
 31
0.0
 40
0.0087268678
 41
1.5707963268
 42
3.1241393611
  0
ELLIPSE
  5
9C2
100
AcDbEntity
  8
ASSI
100
AcDbEllipse
 62
7
  6
CONTINUOUS
 10
7.5841007192
 20
20.9916321118
 30
0.0
 11
0.5
 21
0.0
 31
0.0
 40
0.0087268678
 41
0.0174532925
 42
1.5707963268
  0
ELLIPSE
  5
9C3
100
AcDbEntity
  8
ASSI
100
AcDbEllipse
 62
7
  6
CONTINUOUS
 10
-7.0429818832
 20
-20.9942501721
 30
0.0
 11
0.2
 21
0.0
 31
0.0
 40
0.0087268678
 41
-3.1357748894
 42
-1.5707963268
  0
ELLIPSE
  5
9C4
100
AcDbEntity
  8
ASSI
100
AcDbEllipse
 62
7
  6
CONTINUOUS
 10
-3.5567246406
 20
23.2563578147
 30
0.0
 11
0.0
 21
0.5
 31
0.0
 40
0.0087268678
 41
0.0058177642
 42
0.2103613775
  0
ELLIPSE
  5
9C5
100
AcDbEntity
  8
ASSI
100
AcDbEllipse
 62
7
  6
CONTINUOUS
 10
3.5567246406
 20
23.2563578147
 30
0.0
 11
0.0
 21
0.5
 31
0.0
 40
0.0087268678
 41
-0.2103613775
 42
-0.0058177642
  0
ELLIPSE
  5
9C6
100
AcDbEntity
  8
ASSI
100
AcDbEllipse
 62
7
  6
CONTINUOUS
 10
3.5567246406
 20
-23.2563578147
 30
0.0
 11
0.0
 21
0.5
 31
0.0
 40
0.0087268678
 41
-3.1357748894
 42
-2.9312312761
  0
ELLIPSE
  5
9C7
100
AcDbEntity
  8
ASSI
100
AcDbEllipse
 62
7
  6
CONTINUOUS
 10
-3.5567246406
 20
-23.2563578147
 30
0.0
 11
0.0
 21
0.5
 31
0.0
 40
0.0087268678
 41
-3.3519540311
 42
-3.1474104178
  0
ELLIPSE
  5
9C8
100
AcDbEntity
  8
ASSI
100
AcDbEllipse
 62
7
  6
CONTINUOUS
 10
-8.5500042309
 20
23.4113248654
 30
0.0
 11
-0.0029088041
 21
0.2886641433
 31
0.0
 40
0.8660144118
 41
-3.150319066
 42
-1.582431609
  0
ELLIPSE
  5
9C9
100
AcDbEntity
  8
ASSI
100
AcDbEllipse
 62
7
  6
CONTINUOUS
 10
-10.3249957691
 20
23.4113248654
 30
0.0
 11
0.0029088041
 21
0.2886641433
 31
0.0
 40
0.8660144118
 41
-4.7007536982
 42
-3.1328662411
  0
ELLIPSE
  5
9CA
100
AcDbEntity
  8
ASSI
100
AcDbEllipse
 62
7
  6
CONTINUOUS
 10
8.5500042309
 20
-23.4113248654
 30
0.0
 11
-0.0029088041
 21
0.2886641433
 31
0.0
 40
0.8660144118
 41
-0.0087264124
 42
1.5591610446
  0
ELLIPSE
  5
9CB
100
AcDbEntity
  8
ASSI
100
AcDbEllipse
 62
7
  6
CONTINUOUS
 10
10.3249957691
 20
-23.4113248654
 30
0.0
 11
0.0029088041
 21
0.2886641433
 31
0.0
 40
0.8660144118
 41
-1.5591610446
 42
0.0087264124
  0
ELLIPSE
  5
9CC
100
AcDbEntity
  8
ASSI
100
AcDbEllipse
 62
7
  6
CONTINUOUS
 10
-10.3249957691
 20
-23.4113248654
 30
0.0
 11
-0.0029088041
 21
0.2886641433
 31
0.0
 40
0.8660144118
 41
-0.0087264124
 42
1.5591610446
  0
ELLIPSE
  5
9CD
100
AcDbEntity
  8
ASSI
100
AcDbEllipse
 62
7
  6
CONTINUOUS
 10
-8.5500042309
 20
-23.4113248654
 30
0.0
 11
0.0029088041
 21
0.2886641433
 31
0.0
 40
0.8660144118
 41
-1.5591610446
 42
0.0087264124
  0
ELLIPSE
  5
9CE
100
AcDbEntity
  8
ASSI
100
AcDbEllipse
 62
7
  6
CONTINUOUS
 10
7.0429818832
 20
-20.9942501721
 30
0.0
 11
0.2
 21
-0.0
 31
0.0
 40
0.0087268678
 41
-1.5707963268
 42
-0.0058177642
  0
ELLIPSE
  5
9CF
100
AcDbEntity
  8
RACCORDO
100
AcDbEllipse
 62
7
  6
CONTINUOUS
 10
7.7164416493
 20
-16.9663654925
 30
0.0
 11
0.0
 21
2.0
 31
0.0
 40
0.0087268678
 41
-3.2608587845
 42
-3.1503192998
  0
ELLIPSE
  5
9D0
100
AcDbEntity
  8
RACCORDO
100
AcDbEllipse
 62
7
  6
CONTINUOUS
 10
-7.7164416493
 20
-16.9663654925
 30
0.0
 11
0.0
 21
2.0
 31
0.0
 40
0.0087268678
 41
-3.1328660073
 42
-3.0223265227
  0
ELLIPSE
  5
9D1
100
AcDbEntity
  8
RACCORDO
100
AcDbEllipse
 62
7
  6
CONTINUOUS
 10
8.8608291108
 20
-14.5108367263
 30
0.0
 11
0.0
 21
0.8
 31
0.0
 40
0.0043633508
 41
-0.0248023372
 42
-0.0043633231
  0
ELLIPSE
  5
9D2
100
AcDbEntity
  8
DRAFT
100
AcDbEllipse
 62
7
  6
CONTINUOUS
 10
7.718583276
 20
-16.25
 30
0.0
 11
0.0
 21
1.0
 31
0.0
 40
0.0087268678
 41
-2.2142974356
 42
-0.927295218
  0
ELLIPSE
  5
9D3
100
AcDbEntity
  8
RACCORDO
100
AcDbEllipse
 62
7
  6
CONTINUOUS
 10
7.9472272121
 20
-14.5108367263
 30
0.0
 11
-0.0
 21
0.8
 31
0.0
 40
0.0087268678
 41
-1.5707963268
 42
-0.0043633231
  0
ELLIPSE
  5
9D4
100
AcDbEntity
  8
DRAFT
100
AcDbEllipse
 62
7
  6
CONTINUOUS
 10
-7.718583276
 20
-16.25
 30
0.0
 11
-0.0
 21
1.0
 31
0.0
 40
0.0087268678
 41
0.927295218
 42
2.2142974356
  0
ELLIPSE
  5
9D5
100
AcDbEntity
  8
RACCORDO
100
AcDbEllipse
 62
7
  6
CONTINUOUS
 10
8.8608291108
 20
-11.0891632737
 30
0.0
 11
0.0
 21
0.8
 31
0.0
 40
0.0043633508
 41
-3.1372293305
 42
-3.1167903164
  0
ELLIPSE
  5
9D6
100
AcDbEntity
  8
RACCORDO
100
AcDbEllipse
 62
7
  6
CONTINUOUS
 10
-7.9472272121
 20
-14.5108367263
 30
0.0
 11
-0.0
 21
0.8
 31
0.0
 40
0.0087268678
 41
0.0043633231
 42
1.5707963268
  0
ELLIPSE
  5
9D7
100
AcDbEntity
  8
RACCORDO
100
AcDbEllipse
 62
7
  6
CONTINUOUS
 10
-7.7700717959
 20
-9.9768345149
 30
0.0
 11
0.0
 21
1.0
 31
0.0
 40
0.0087268678
 41
0.0087266463
 42
1.5707963268
  0
ELLIPSE
  5
9D8
100
AcDbEntity
  8
RACCORDO
100
AcDbEllipse
 62
7
  6
CONTINUOUS
 10
-7.9472272121
 20
-11.0891632737
 30
0.0
 11
-0.0
 21
0.8
 31
0.0
 40
0.0087268678
 41
1.5707963268
 42
3.1372293305
  0
ELLIPSE
  5
9D9
100
AcDbEntity
  8
RACCORDO
100
AcDbEllipse
 62
7
  6
CONTINUOUS
 10
-8.8608291108
 20
-14.5108367263
 30
0.0
 11
-0.0
 21
0.8
 31
0.0
 40
0.0043633508
 41
0.0043633231
 42
0.0248023372
  0
ELLIPSE
  5
9DA
100
AcDbEntity
  8
RACCORDO
100
AcDbEllipse
 62
7
  6
CONTINUOUS
 10
7.9472272121
 20
-11.0891632737
 30
0.0
 11
0.0
 21
0.8
 31
0.0
 40
0.0087268678
 41
-3.1372293305
 42
-1.5707963268
  0
ELLIPSE
  5
9DB
100
AcDbEntity
  8
RACCORDO
100
AcDbEllipse
 62
7
  6
CONTINUOUS
 10
7.7700717959
 20
-9.9768345149
 30
0.0
 11
0.0
 21
1.0
 31
0.0
 40
0.0087268678
 41
-1.5707963268
 42
-0.0087266463
  0
ELLIPSE
  5
9DC
100
AcDbEntity
  8
RACCORDO
100
AcDbEllipse
 62
7
  6
CONTINUOUS
 10
-8.8608291108
 20
-11.0891632737
 30
0.0
 11
-0.0
 21
0.8
 31
0.0
 40
0.0043633508
 41
-3.1663949907
 42
-3.1459559767
  0
ELLIPSE
  5
9DD
100
AcDbEntity
  8
RACCORDO
100
AcDbEllipse
 62
7
  6
CONTINUOUS
 10
9.4965811966
 20
7.7312924592
 30
0.0
 11
-0.0
 21
0.8
 31
0.0
 40
0.0042735043
 41
-3.1328660073
 42
-1.5708037294
  0
ELLIPSE
  5
9DE
100
AcDbEntity
  8
RACCORDO
100
AcDbEllipse
 62
7
  6
CONTINUOUS
 10
-9.4965811966
 20
3.8687075408
 30
0.0
 11
-0.0
 21
0.8
 31
0.0
 40
0.0042735043
 41
0.0087266463
 42
1.5707889786
  0
ELLIPSE
  5
9DF
100
AcDbEntity
  8
RACCORDO
100
AcDbEllipse
 62
7
  6
CONTINUOUS
 10
9.05
 20
2.2870482079
 30
0.0
 11
0.8
 21
0.0
 31
0.0
 40
0.0174550649
 41
3.1415926536
 42
4.7123889804
  0
ELLIPSE
  5
9E0
100
AcDbEntity
  8
RACCORDO
100
AcDbEllipse
 62
7
  6
CONTINUOUS
 10
-9.4965811966
 20
7.7312924592
 30
0.0
 11
-0.0
 21
0.8
 31
0.0
 40
0.0042735043
 41
-4.7123816345
 42
-3.1503192998
  0
ELLIPSE
  5
9E1
100
AcDbEntity
  8
RACCORDO
100
AcDbEllipse
 62
7
  6
CONTINUOUS
 10
9.4965811966
 20
3.8687075408
 30
0.0
 11
0.0
 21
0.8
 31
0.0
 40
0.0042735043
 41
-1.5707889493
 42
-0.0087266463
  0
ELLIPSE
  5
9E2
100
AcDbEntity
  8
RACCORDO
100
AcDbEllipse
 62
7
  6
CONTINUOUS
 10
-8.3267964366
 20
-9.9768345149
 30
0.0
 11
0.0
 21
1.0
 31
0.0
 40
0.0087268678
 41
0.0087266463
 42
1.5707963268
  0
ELLIPSE
  5
9E3
100
AcDbEntity
  8
RACCORDO
100
AcDbEllipse
 62
7
  6
CONTINUOUS
 10
8.3267964366
 20
-9.9768345149
 30
0.0
 11
-0.0
 21
1.0
 31
0.0
 40
0.0087268678
 41
-1.5707963268
 42
-0.0087266463
  0
ELLIPSE
  5
9E4
100
AcDbEntity
  8
RACCORDO
100
AcDbEllipse
 62
7
  6
CONTINUOUS
 10
-9.05
 20
2.2870482079
 30
0.0
 11
0.8
 21
0.0
 31
0.0
 40
0.0174550649
 41
-1.5707963268
 42
-0.0
  0
ELLIPSE
  5
9E5
100
AcDbEntity
  8
DRAFT
100
AcDbEllipse
 62
7
  6
CONTINUOUS
 10
8.2753079166
 20
9.35
 30
0.0
 11
0.0
 21
1.0
 31
0.0
 40
0.0087268678
 41
-2.2142974356
 42
-0.927295218
  0
ELLIPSE
  5
9E6
100
AcDbEntity
  8
DRAFT
100
AcDbEllipse
 62
7
  6
CONTINUOUS
 10
-8.2753079166
 20
9.35
 30
0.0
 11
-0.0
 21
1.0
 31
0.0
 40
0.0087268678
 41
0.927295218
 42
2.2142974356
  0
ELLIPSE
  5
9E7
100
AcDbEntity
  8
RACCORDO
100
AcDbEllipse
 62
7
  6
CONTINUOUS
 10
9.05
 20
-2.2870482079
 30
0.0
 11
0.8
 21
0.0
 31
0.0
 40
0.0174550649
 41
1.5707963268
 42
3.1415926536
  0
ELLIPSE
  5
9E8
100
AcDbEntity
  8
RACCORDO
100
AcDbEllipse
 62
7
  6
CONTINUOUS
 10
-9.05
 20
-2.2870482079
 30
0.0
 11
0.8
 21
0.0
 31
0.0
 40
0.0174550649
 41
6.2831853072
 42
7.853981634
  0
ELLIPSE
  5
9E9
100
AcDbEntity
  8
RACCORDO
100
AcDbEllipse
 62
7
  6
CONTINUOUS
 10
8.5039518527
 20
3.8687075408
 30
0.0
 11
-0.0
 21
0.8
 31
0.0
 40
0.0087268678
 41
-1.5707963268
 42
-0.0087266463
  0
ELLIPSE
  5
9EA
100
AcDbEntity
  8
RACCORDO
100
AcDbEllipse
 62
7
  6
CONTINUOUS
 10
8.5039518527
 20
7.7312924592
 30
0.0
 11
0.0
 21
0.8
 31
0.0
 40
0.0087268678
 41
-3.1328660073
 42
-1.5707963268
  0
ELLIPSE
  5
9EB
100
AcDbEntity
  8
RACCORDO
100
AcDbEllipse
 62
7
  6
CONTINUOUS
 10
-8.5039518527
 20
7.7312924592
 30
0.0
 11
-0.0
 21
0.8
 31
0.0
 40
0.0087268678
 41
-4.7123889804
 42
-3.1503192998
  0
ELLIPSE
  5
9EC
100
AcDbEntity
  8
RACCORDO
100
AcDbEllipse
 62
7
  6
CONTINUOUS
 10
-8.5039518527
 20
3.8687075408
 30
0.0
 11
0.0
 21
0.8
 31
0.0
 40
0.0087268678
 41
0.0087266463
 42
1.5707963268
  0
ELLIPSE
  5
9ED
100
AcDbEntity
  8
ASSI
100
AcDbEllipse
 62
7
  6
CONTINUOUS
 10
7.7164416493
 20
-16.9663654925
 30
0.0
 11
0.0
 21
2.0
 31
0.0
 40
0.0087268678
 41
-3.2608587845
 42
-3.1503192998
  0
ELLIPSE
  5
9EE
100
AcDbEntity
  8
ASSI
100
AcDbEllipse
 62
7
  6
CONTINUOUS
 10
-7.7164416493
 20
-16.9663654925
 30
0.0
 11
0.0
 21
2.0
 31
0.0
 40
0.0087268678
 41
-3.1328660073
 42
-3.0223265227
  0
ELLIPSE
  5
9EF
100
AcDbEntity
  8
ASSI
100
AcDbEllipse
 62
7
  6
CONTINUOUS
 10
8.8608291108
 20
-14.5108367263
 30
0.0
 11
0.0
 21
0.8
 31
0.0
 40
0.0043633508
 41
-0.0248023372
 42
-0.0043633231
  0
ELLIPSE
  5
9F0
100
AcDbEntity
  8
ASSI
100
AcDbEllipse
 62
7
  6
CONTINUOUS
 10
7.718583276
 20
-16.25
 30
0.0
 11
0.0
 21
1.0
 31
0.0
 40
0.0087268678
 41
-2.2142974356
 42
-0.927295218
  0
ELLIPSE
  5
9F1
100
AcDbEntity
  8
ASSI
100
AcDbEllipse
 62
7
  6
CONTINUOUS
 10
7.9472272121
 20
-14.5108367263
 30
0.0
 11
-0.0
 21
0.8
 31
0.0
 40
0.0087268678
 41
-1.5707963268
 42
-0.0043633231
  0
ELLIPSE
  5
9F2
100
AcDbEntity
  8
ASSI
100
AcDbEllipse
 62
7
  6
CONTINUOUS
 10
-7.718583276
 20
-16.25
 30
0.0
 11
-0.0
 21
1.0
 31
0.0
 40
0.0087268678
 41
0.927295218
 42
2.2142974356
  0
ELLIPSE
  5
9F3
100
AcDbEntity
  8
ASSI
100
AcDbEllipse
 62
7
  6
CONTINUOUS
 10
8.8608291108
 20
-11.0891632737
 30
0.0
 11
0.0
 21
0.8
 31
0.0
 40
0.0043633508
 41
-3.1372293305
 42
-3.1167903164
  0
ELLIPSE
  5
9F4
100
AcDbEntity
  8
ASSI
100
AcDbEllipse
 62
7
  6
CONTINUOUS
 10
-7.9472272121
 20
-14.5108367263
 30
0.0
 11
-0.0
 21
0.8
 31
0.0
 40
0.0087268678
 41
0.0043633231
 42
1.5707963268
  0
ELLIPSE
  5
9F5
100
AcDbEntity
  8
ASSI
100
AcDbEllipse
 62
7
  6
CONTINUOUS
 10
-7.7700717959
 20
-9.9768345149
 30
0.0
 11
0.0
 21
1.0
 31
0.0
 40
0.0087268678
 41
0.0087266463
 42
1.5707963268
  0
ELLIPSE
  5
9F6
100
AcDbEntity
  8
ASSI
100
AcDbEllipse
 62
7
  6
CONTINUOUS
 10
-7.9472272121
 20
-11.0891632737
 30
0.0
 11
-0.0
 21
0.8
 31
0.0
 40
0.0087268678
 41
1.5707963268
 42
3.1372293305
  0
ELLIPSE
  5
9F7
100
AcDbEntity
  8
ASSI
100
AcDbEllipse
 62
7
  6
CONTINUOUS
 10
-8.8608291108
 20
-14.5108367263
 30
0.0
 11
-0.0
 21
0.8
 31
0.0
 40
0.0043633508
 41
0.0043633231
 42
0.0248023372
  0
ELLIPSE
  5
9F8
100
AcDbEntity
  8
ASSI
100
AcDbEllipse
 62
7
  6
CONTINUOUS
 10
7.9472272121
 20
-11.0891632737
 30
0.0
 11
0.0
 21
0.8
 31
0.0
 40
0.0087268678
 41
-3.1372293305
 42
-1.5707963268
  0
ELLIPSE
  5
9F9
100
AcDbEntity
  8
ASSI
100
AcDbEllipse
 62
7
  6
CONTINUOUS
 10
7.7700717959
 20
-9.9768345149
 30
0.0
 11
0.0
 21
1.0
 31
0.0
 40
0.0087268678
 41
-1.5707963268
 42
-0.0087266463
  0
ELLIPSE
  5
9FA
100
AcDbEntity
  8
ASSI
100
AcDbEllipse
 62
7
  6
CONTINUOUS
 10
-8.8608291108
 20
-11.0891632737
 30
0.0
 11
-0.0
 21
0.8
 31
0.0
 40
0.0043633508
 41
-3.1663949907
 42
-3.1459559767
  0
ELLIPSE
  5
9FB
100
AcDbEntity
  8
ASSI
100
AcDbEllipse
 62
7
  6
CONTINUOUS
 10
9.4965811966
 20
7.7312924592
 30
0.0
 11
-0.0
 21
0.8
 31
0.0
 40
0.0042735043
 41
-3.1328660073
 42
-1.5708037294
  0
ELLIPSE
  5
9FC
100
AcDbEntity
  8
ASSI
100
AcDbEllipse
 62
7
  6
CONTINUOUS
 10
-9.4965811966
 20
3.8687075408
 30
0.0
 11
-0.0
 21
0.8
 31
0.0
 40
0.0042735043
 41
0.0087266463
 42
1.5707889786
  0
ELLIPSE
  5
9FD
100
AcDbEntity
  8
ASSI
100
AcDbEllipse
 62
7
  6
CONTINUOUS
 10
9.05
 20
2.2870482079
 30
0.0
 11
0.8
 21
0.0
 31
0.0
 40
0.0174550649
 41
3.1415926536
 42
4.7123889804
  0
ELLIPSE
  5
9FE
100
AcDbEntity
  8
ASSI
100
AcDbEllipse
 62
7
  6
CONTINUOUS
 10
-9.4965811966
 20
7.7312924592
 30
0.0
 11
-0.0
 21
0.8
 31
0.0
 40
0.0042735043
 41
-4.7123816345
 42
-3.1503192998
  0
ELLIPSE
  5
9FF
100
AcDbEntity
  8
ASSI
100
AcDbEllipse
 62
7
  6
CONTINUOUS
 10
9.4965811966
 20
3.8687075408
 30
0.0
 11
0.0
 21
0.8
 31
0.0
 40
0.0042735043
 41
-1.5707889493
 42
-0.0087266463
  0
ELLIPSE
  5
A00
100
AcDbEntity
  8
ASSI
100
AcDbEllipse
 62
7
  6
CONTINUOUS
 10
-8.3267964366
 20
-9.9768345149
 30
0.0
 11
0.0
 21
1.0
 31
0.0
 40
0.0087268678
 41
0.0087266463
 42
1.5707963268
  0
ELLIPSE
  5
A01
100
AcDbEntity
  8
ASSI
100
AcDbEllipse
 62
7
  6
CONTINUOUS
 10
8.3267964366
 20
-9.9768345149
 30
0.0
 11
-0.0
 21
1.0
 31
0.0
 40
0.0087268678
 41
-1.5707963268
 42
-0.0087266463
  0
ELLIPSE
  5
A02
100
AcDbEntity
  8
ASSI
100
AcDbEllipse
 62
7
  6
CONTINUOUS
 10
-9.05
 20
2.2870482079
 30
0.0
 11
0.8
 21
0.0
 31
0.0
 40
0.0174550649
 41
-1.5707963268
 42
-0.0
  0
ELLIPSE
  5
A03
100
AcDbEntity
  8
ASSI
100
AcDbEllipse
 62
7
  6
CONTINUOUS
 10
8.2753079166
 20
9.35
 30
0.0
 11
0.0
 21
1.0
 31
0.0
 40
0.0087268678
 41
-2.2142974356
 42
-0.927295218
  0
ELLIPSE
  5
A04
100
AcDbEntity
  8
ASSI
100
AcDbEllipse
 62
7
  6
CONTINUOUS
 10
-8.2753079166
 20
9.35
 30
0.0
 11
-0.0
 21
1.0
 31
0.0
 40
0.0087268678
 41
0.927295218
 42
2.2142974356
  0
ELLIPSE
  5
A05
100
AcDbEntity
  8
ASSI
100
AcDbEllipse
 62
7
  6
CONTINUOUS
 10
9.05
 20
-2.2870482079
 30
0.0
 11
0.8
 21
0.0
 31
0.0
 40
0.0174550649
 41
1.5707963268
 42
3.1415926536
  0
ELLIPSE
  5
A06
100
AcDbEntity
  8
ASSI
100
AcDbEllipse
 62
7
  6
CONTINUOUS
 10
-9.05
 20
-2.2870482079
 30
0.0
 11
0.8
 21
0.0
 31
0.0
 40
0.0174550649
 41
6.2831853072
 42
7.853981634
  0
ELLIPSE
  5
A07
100
AcDbEntity
  8
ASSI
100
AcDbEllipse
 62
7
  6
CONTINUOUS
 10
8.5039518527
 20
3.8687075408
 30
0.0
 11
-0.0
 21
0.8
 31
0.0
 40
0.0087268678
 41
-1.5707963268
 42
-0.0087266463
  0
ELLIPSE
  5
A08
100
AcDbEntity
  8
ASSI
100
AcDbEllipse
 62
7
  6
CONTINUOUS
 10
8.5039518527
 20
7.7312924592
 30
0.0
 11
0.0
 21
0.8
 31
0.0
 40
0.0087268678
 41
-3.1328660073
 42
-1.5707963268
  0
ELLIPSE
  5
A09
100
AcDbEntity
  8
ASSI
100
AcDbEllipse
 62
7
  6
CONTINUOUS
 10
-8.5039518527
 20
7.7312924592
 30
0.0
 11
-0.0
 21
0.8
 31
0.0
 40
0.0087268678
 41
-4.7123889804
 42
-3.1503192998
  0
ELLIPSE
  5
A0A
100
AcDbEntity
  8
ASSI
100
AcDbEllipse
 62
7
  6
CONTINUOUS
 10
-8.5039518527
 20
3.8687075408
 30
0.0
 11
0.0
 21
0.8
 31
0.0
 40
0.0087268678
 41
0.0087266463
 42
1.5707963268
  0
ENDSEC
  0
SECTION
  2
OBJECTS
  0
DICTIONARY
  5
C
100
AcDbDictionary
280
0
281
1
  3
ACAD_GROUP
350
D
  3
ACAD_MLINESTYLE
350
17
  3
ACAD_LAYOUT
350
1A
  3
ACAD_PLOTSETTINGS
350
19
  3
ACAD_PLOTSTYLENAME
350
E
  0
DICTIONARY
  5
D
102
{ACAD_REACTORS
330
C
102
}
100
AcDbDictionary
280
0
281
1
  0
ACDBDICTIONARYWDFLT
  5
E
102
{ACAD_REACTORS
330
C
102
}
100
AcDbDictionary
281
1
  3
Normal
350
F
100
AcDbDictionaryWithDefault
340
F
  0
DICTIONARY
  5
17
102
{ACAD_REACTORS
330
C
102
}
100
AcDbDictionary
280
0
281
1
  3
Standard
350
18
  0
DICTIONARY
  5
19
102
{ACAD_REACTORS
330
C
102
}
100
AcDbDictionary
281
1
  0
DICTIONARY
  5
1A
102
{ACAD_REACTORS
330
C
102
}
100
AcDbDictionary
281
1
  3
Model
350
A0B
  3
Layout1
350
A0C
  0
ACDBPLACEHOLDER
  5
F
102
{ACAD_REACTORS
330
E
102
}
  0
MLINESTYLE
  5
18
102
{ACAD_REACTORS
330
17
102
}
100
AcDbMlineStyle
  2
STANDARD
 70
0
  3

 62
256
 51
90.0
 52
90.0
 71
2
 49
0.5
 62
256
  6
BYLAYER
 49
-0.5
 62
256
  6
BYLAYER
  0
LAYOUT
  5
A0B
102
{ACAD_REACTORS
330
1A
102
}
100
AcDbPlotSettings
  1

  2
none_device
  4
ISO_A4_(297.00_x_210.00_MM)
  6

 40
0.0
 41
0.0
 42
0.0
 43
0.0
 44
297.0
 45
210.0
 46
0.0
 47
0.0
 48
0.0
 49
0.0
140
0.0
141
0.0
142
1.0
143
1.0
 70
1024
 72
1
 73
0
 74
0
  7

 75
0
147
1.0
148
0.0
149
0.0
100
AcDbLayout
  1
Model
 70
0
 71
0
 10
0.0
 20
0.0
 11
297.0
 21
210.0
 12
0.0
 22
0.0
 32
0.0
 14
0.0
 24
0.0
 34
0.0
 15
0.0
 25
0.0
 35
0.0
146
0.0
 13
0.0
 23
0.0
 33
0.0
 16
1.0
 26
0.0
 36
0.0
 17
0.0
 27
1.0
 37
0.0
 76
0
330
219
345
0
346
0
  0
LAYOUT
  5
A0C
102
{ACAD_REACTORS
330
1A
102
}
100
AcDbPlotSettings
  1

  2
none_device
  4
ISO_A4_(297.00_x_210.00_MM)
  6

 40
0.0
 41
0.0
 42
0.0
 43
0.0
 44
297.0
 45
210.0
 46
0.0
 47
0.0
 48
0.0
 49
0.0
140
0.0
141
0.0
142
1.0
143
1.0
 70
0
 72
1
 73
0
 74
0
  7

 75
0
147
1.0
148
0.0
149
0.0
100
AcDbLayout
  1
Layout1
 70
0
 71
1
 10
0.0
 20
0.0
 11
297.0
 21
210.0
 12
0.0
 22
0.0
 32
0.0
 14
0.0
 24
0.0
 34
0.0
 15
0.0
 25
0.0
 35
0.0
146
0.0
 13
0.0
 23
0.0
 33
0.0
 16
1.0
 26
0.0
 36
0.0
 17
0.0
 27
1.0
 37
0.0
 76
0
330
21A
345
0
346
0
  0
ENDSEC
  0
EOF
