  0
SECTION
  2
HEADER
  9
$ACADVER
  1
AC1015
  9
$DWGCODEPAGE
  3
ANSI_1252
  9
$EXTMAX
 10
297.0
 20
210.0
 30
0.0
  9
$EXTMIN
 10
0.0
 20
0.0
 30
0.0
  9
$LIMMIN
 10
0.0
 20
0.0
  9
$LIMMAX
 10
297.0
 20
210.0
  9
$VIEWCTR
 10
148.5
 20
105.0
  9
$VIEWSIZE
 40
210.0
  9
$CLAYER
  8
0
  9
$LTSCALE
 40
16.335
  9
$CELTYPE
  6
BYLAYER
  9
$DIMSCALE
 40
1.0
  9
$DIMASZ
 40
3.0
  9
$DIMEXO
 40
1.85625
  9
$DIMDLI
 40
11.286
  9
$DIMEXE
 40
5.346
  9
$DIMCEN
 40
2.673
  9
$DIMLFAC
 40
1.0
  9
$DIMBLK
  1
_FILLED
  9
$DIMTXT
 40
3.0
  9
$DIMTOL
 70
1
  9
$DIMLIM
 70
0
  9
$DIMTFAC
 40
1.0
  9
$DIMTP
 40
0.01
  9
$DIMTM
 40
0.01
  9
$PDMODE
 70
3
  9
$PDSIZE
 40
3.0
  9
$HANDSEED
  5
6B9
  9
$TILEMODE
 70
1
  9
$MEASUREMENT
 70
1
  9
$INSUNITS
 70
4
  0
ENDSEC
  0
SECTION
  2
CLASSES
  0
CLASS
  1
ACDBDICTIONARYWDFLT
  2
AcDbDictionaryWithDefault
  3
AutoCAD 2000
 90
0
280
0
281
0
  0
CLASS
  1
ACDBPLACEHOLDER
  2
AcDbPlaceHolder
  3
AutoCAD 2000
 90
0
280
0
281
0
  0
CLASS
  1
LAYOUT
  2
AcDbLayout
  3
AutoCAD 2000
 90
0
280
0
281
0
  0
ENDSEC
  0
SECTION
  2
TABLES
  0
TABLE
  2
VPORT
  5
8
100
AcDbSymbolTable
 70
2
  0
VPORT
  5
1F4
100
AcDbSymbolTableRecord
100
AcDbViewportTableRecord
  2
*ACTIVE
 70
0
 10
0.0
 20
0.0
 11
1.0
 21
1.0
 12
148.5
 22
105.0
 13
0.0
 23
0.0
 14
1.0
 24
1.0
 15
0.0
 25
0.0
 16
0.0
 26
0.0
 36
1.0
 17
0.0
 27
0.0
 37
0.0
 40
210.0
 41
1.4142857143
 42
50.0
 43
0.0
 44
0.0
 50
0.0
 51
0.0
 71
0
 72
100
 73
1
 74
1
 75
0
 76
0
 77
0
 78
0
  0
ENDTAB
  0
TABLE
  2
LTYPE
  5
5
100
AcDbSymbolTable
 70
6
  0
LTYPE
  5
14
100
AcDbSymbolTableRecord
100
AcDbLinetypeTableRecord
  2
BYBLOCK
 70
0
  3

 72
65
 73
0
 40
0.0
  0
LTYPE
  5
15
100
AcDbSymbolTableRecord
100
AcDbLinetypeTableRecord
  2
BYLAYER
 70
0
  3

 72
65
 73
0
 40
0.0
  0
LTYPE
  5
16
100
AcDbSymbolTableRecord
100
AcDbLinetypeTableRecord
  2
CONTINUOUS
 70
64
  3
Solid line
 72
65
 73
0
 40
0.0
  0
LTYPE
  5
1F5
100
AcDbSymbolTableRecord
100
AcDbLinetypeTableRecord
  2
CENTER
 70
64
  3
____ _ ____ _ ____ _ ____ _ ____ _ ____ _ ____
 72
65
 73
4
 40
0.6
 49
0.375
 74
0
 49
-0.075
 74
0
 49
0.075
 74
0
 49
-0.075
 74
0
  0
LTYPE
  5
1F6
100
AcDbSymbolTableRecord
100
AcDbLinetypeTableRecord
  2
HIDDEN
 70
64
  3
- - - - - - - - - - - - - - - - - - - -
 72
65
 73
2
 40
0.2
 49
0.1
 74
0
 49
-0.1
 74
0
  0
LTYPE
  5
1F7
100
AcDbSymbolTableRecord
100
AcDbLinetypeTableRecord
  2
PHANTOM
 70
64
  3
_____ _ _ _____ _ _ _____ _ _ _____
 72
65
 73
6
 40
0.8
 49
0.45
 74
0
 49
-0.05
 74
0
 49
0.1
 74
0
 49
-0.05
 74
0
 49
0.1
 74
0
 49
-0.05
 74
0
  0
LTYPE
  5
1F8
100
AcDbSymbolTableRecord
100
AcDbLinetypeTableRecord
  2
DOT
 70
64
  3
. . . . . . . . . . . . . . . . . . . .
 72
65
 73
2
 40
0.2
 49
0.1
 74
0
 49
-0.1
 74
0
  0
LTYPE
  5
1F9
100
AcDbSymbolTableRecord
100
AcDbLinetypeTableRecord
  2
DASHED
 70
64
  3
- - - - - - - - - - - - - - - - - - - -
 72
65
 73
2
 40
0.2
 49
0.1
 74
0
 49
-0.1
 74
0
  0
ENDTAB
  0
TABLE
  2
LAYER
  5
2
100
AcDbSymbolTable
 70
36
  0
LAYER
  5
10
100
AcDbSymbolTableRecord
100
AcDbLayerTableRecord
  2
0
 70
0
 62
7
  6
CONTINUOUS
370
-3
390
F
  0
LAYER
  5
1FA
100
AcDbSymbolTableRecord
100
AcDbLayerTableRecord
  2
DEFAULT_1
 70
0
 62
7
  6
CENTER
370
-3
390
F
  0
LAYER
  5
1FB
100
AcDbSymbolTableRecord
100
AcDbLayerTableRecord
  2
DEFAULT_2
 70
0
 62
7
  6
HIDDEN
370
-3
390
F
  0
LAYER
  5
1FC
100
AcDbSymbolTableRecord
100
AcDbLayerTableRecord
  2
DEFAULT_3
 70
0
 62
7
  6
PHANTOM
370
-3
390
F
  0
LAYER
  5
1FD
100
AcDbSymbolTableRecord
100
AcDbLayerTableRecord
  2
ASSI
 70
0
 62
7
  6
CONTINUOUS
370
-3
390
F
  0
LAYER
  5
1FE
100
AcDbSymbolTableRecord
100
AcDbLayerTableRecord
  2
CN-MRT4P5_3SQV01-VIMAR_1600000
 70
0
 62
7
  6
CONTINUOUS
370
-3
390
F
  0
LAYER
  5
1FF
100
AcDbSymbolTableRecord
100
AcDbLayerTableRecord
  2
COLOR5
 70
0
 62
7
  6
CONTINUOUS
370
-3
390
F
  0
LAYER
  5
200
100
AcDbSymbolTableRecord
100
AcDbLayerTableRecord
  2
COLORE_MATERIALE
 70
0
 62
7
  6
CONTINUOUS
370
-3
390
F
  0
LAYER
  5
201
100
AcDbSymbolTableRecord
100
AcDbLayerTableRecord
  2
COORDINATE
 70
0
 62
7
  6
CONTINUOUS
370
-3
390
F
  0
LAYER
  5
202
100
AcDbSymbolTableRecord
100
AcDbLayerTableRecord
  2
COORD_ORIGINE
 70
0
 62
7
  6
CONTINUOUS
370
-3
390
F
  0
LAYER
  5
203
100
AcDbSymbolTableRecord
100
AcDbLayerTableRecord
  2
COPY_PUBLISH
 70
0
 62
7
  6
CONTINUOUS
370
-3
390
F
  0
LAYER
  5
204
100
AcDbSymbolTableRecord
100
AcDbLayerTableRecord
  2
COSMETIC
 70
0
 62
7
  6
CONTINUOUS
370
-3
390
F
  0
LAYER
  5
205
100
AcDbSymbolTableRecord
100
AcDbLayerTableRecord
  2
CURVE
 70
0
 62
7
  6
CONTINUOUS
370
-3
390
F
  0
LAYER
  5
206
100
AcDbSymbolTableRecord
100
AcDbLayerTableRecord
  2
DRAFT
 70
0
 62
7
  6
CONTINUOUS
370
-3
390
F
  0
LAYER
  5
207
100
AcDbSymbolTableRecord
100
AcDbLayerTableRecord
  2
IMPORT_IGES
 70
0
 62
7
  6
CONTINUOUS
370
-3
390
F
  0
LAYER
  5
208
100
AcDbSymbolTableRecord
100
AcDbLayerTableRecord
  2
INCISIONI
 70
0
 62
7
  6
CONTINUOUS
370
-3
390
F
  0
LAYER
  5
209
100
AcDbSymbolTableRecord
100
AcDbLayerTableRecord
  2
INTF_1
 70
0
 62
7
  6
CONTINUOUS
370
-3
390
F
  0
LAYER
  5
20A
100
AcDbSymbolTableRecord
100
AcDbLayerTableRecord
  2
INTF_RED
 70
0
 62
7
  6
CONTINUOUS
370
-3
390
F
  0
LAYER
  5
20B
100
AcDbSymbolTableRecord
100
AcDbLayerTableRecord
  2
NOTE
 70
0
 62
7
  6
CONTINUOUS
370
-3
390
F
  0
LAYER
  5
20C
100
AcDbSymbolTableRecord
100
AcDbLayerTableRecord
  2
PIANI
 70
0
 62
7
  6
CONTINUOUS
370
-3
390
F
  0
LAYER
  5
20D
100
AcDbSymbolTableRecord
100
AcDbLayerTableRecord
  2
PIANI_DI_RIFERIMENTO
 70
0
 62
7
  6
CONTINUOUS
370
-3
390
F
  0
LAYER
  5
20E
100
AcDbSymbolTableRecord
100
AcDbLayerTableRecord
  2
PIANI_ORIGINE
 70
0
 62
7
  6
CONTINUOUS
370
-3
390
F
  0
LAYER
  5
20F
100
AcDbSymbolTableRecord
100
AcDbLayerTableRecord
  2
PIANI_RIFERIMENTO
 70
0
 62
7
  6
CONTINUOUS
370
-3
390
F
  0
LAYER
  5
210
100
AcDbSymbolTableRecord
100
AcDbLayerTableRecord
  2
PUBLISHED_GEOMETRY
 70
0
 62
7
  6
CONTINUOUS
370
-3
390
F
  0
LAYER
  5
211
100
AcDbSymbolTableRecord
100
AcDbLayerTableRecord
  2
PUNTI
 70
0
 62
7
  6
CONTINUOUS
370
-3
390
F
  0
LAYER
  5
212
100
AcDbSymbolTableRecord
100
AcDbLayerTableRecord
  2
RACCORDO
 70
0
 62
7
  6
CONTINUOUS
370
-3
390
F
  0
LAYER
  5
213
100
AcDbSymbolTableRecord
100
AcDbLayerTableRecord
  2
SMUSSO
 70
0
 62
7
  6
CONTINUOUS
370
-3
390
F
  0
LAYER
  5
214
100
AcDbSymbolTableRecord
100
AcDbLayerTableRecord
  2
SNAPLINE
 70
0
 62
7
  6
CONTINUOUS
370
-3
390
F
  0
LAYER
  5
215
100
AcDbSymbolTableRecord
100
AcDbLayerTableRecord
  2
SUPERFICI
 70
0
 62
7
  6
CONTINUOUS
370
-3
390
F
  0
LAYER
  5
216
100
AcDbSymbolTableRecord
100
AcDbLayerTableRecord
  2
TRASH
 70
0
 62
7
  6
CONTINUOUS
370
-3
390
F
  0
LAYER
  5
217
100
AcDbSymbolTableRecord
100
AcDbLayerTableRecord
  2
XSEC_DATUMS
 70
0
 62
7
  6
CONTINUOUS
370
-3
390
F
  0
LAYER
  5
218
100
AcDbSymbolTableRecord
100
AcDbLayerTableRecord
  2
___SHELL
 70
0
 62
7
  6
CONTINUOUS
370
-3
390
F
  0
ENDTAB
  0
TABLE
  2
STYLE
  5
3
100
AcDbSymbolTable
 70
1
  0
STYLE
  5
11
100
AcDbSymbolTableRecord
100
AcDbTextStyleTableRecord
  2
STANDARD
 70
0
 40
0.0
 41
0.8
 50
0.0
 71
0
 42
0.2
  3
txt
  4

  0
STYLE
  5
219
100
AcDbSymbolTableRecord
100
AcDbTextStyleTableRecord
  2
TEXTSTYLE_1
 70
0
 40
0.0
 41
0.8
 50
0.0
 71
0
 42
0.2
  3
gdt
  4

  0
ENDTAB
  0
TABLE
  2
VIEW
  5
6
100
AcDbSymbolTable
 70
0
  0
ENDTAB
  0
TABLE
  2
UCS
  5
7
100
AcDbSymbolTable
 70
0
  0
ENDTAB
  0
TABLE
  2
APPID
  5
9
100
AcDbSymbolTable
 70
1
  0
APPID
  5
21A
100
AcDbSymbolTableRecord
100
AcDbRegAppTableRecord
  2
ACAD
 70
0
  0
ENDTAB
  0
TABLE
  2
BLOCK_RECORD
  5
1
100
AcDbSymbolTable
 70
0
  0
BLOCK_RECORD
  5
21B
100
AcDbSymbolTableRecord
100
AcDbBlockTableRecord
  2
*Model_Space
  0
BLOCK_RECORD
  5
21C
100
AcDbSymbolTableRecord
100
AcDbBlockTableRecord
  2
*Paper_Space
  0
ENDTAB
  0
TABLE
  2
DIMSTYLE
  5
A
100
AcDbSymbolTable
 70
1
100
AcDbDimStyleTable
 71
0
  0
DIMSTYLE
105
21D
100
AcDbSymbolTableRecord
100
AcDbDimStyleTableRecord
  2
STANDARD
 70
0
  3

  4

 40
1.0
 41
3.0
 42
0.0625
 43
0.38
 44
0.18
 45
0.0
 46
0.0
 47
0.01
 48
0.01
140
3.0
141
0.09
142
0.0
143
25.4
144
1.0
145
0.0
146
1.0
147
0.09
 71
1.0
 72
0.0
 73
0
 74
0
 75
0
 76
0
 77
1
 78
8
170
0
171
2
172
0
173
0
174
0
175
0
176
0
177
0
178
0
270
2
271
2
272
2
273
2
274
2
275
0
280
0
281
0
282
0
283
1
284
8
285
0
286
0
287
3
288
0
340
11
  0
ENDTAB
  0
ENDSEC
  0
SECTION
  2
BLOCKS
  0
BLOCK
  5
20
100
AcDbEntity
  8
0
100
AcDbBlockBegin
  2
*Model_Space
 70
0
 10
0.0
 20
0.0
 30
0.0
  3
*Model_Space
  1

  0
ENDBLK
  5
21
100
AcDbEntity
  8
0
100
AcDbBlockEnd
  0
BLOCK
  5
1C
100
AcDbEntity
  8
0
100
AcDbBlockBegin
  2
*Paper_Space
 70
0
 10
0.0
 20
0.0
 30
0.0
  3
*Paper_Space
  1

  0
ENDBLK
  5
1D
100
AcDbEntity
  8
0
100
AcDbBlockEnd
  0
ENDSEC
  0
SECTION
  2
ENTITIES
  0
LINE
  5
21E
100
AcDbEntity
  8
RACCORDO
100
AcDbLine
 62
253
  6
CONTINUOUS
 10
-8.5043676032
 20
24.495628166
 11
-8.4999957692
 21
24.5
  0
LINE
  5
21F
100
AcDbEntity
  8
RACCORDO
100
AcDbLine
 62
253
  6
CONTINUOUS
 10
-10.6598507214
 20
22.3912731322
 11
-10.6423956564
 21
22.4
  0
LINE
  5
220
100
AcDbEntity
  8
RACCORDO
100
AcDbLine
 62
7
  6
CONTINUOUS
 10
-10.4000042308
 20
-24.5
 11
-8.4999957692
 21
-24.5
  0
LINE
  5
221
100
AcDbEntity
  8
RACCORDO
100
AcDbLine
 62
7
  6
CONTINUOUS
 10
8.4999957692
 20
-24.5
 11
10.4000042308
 21
-24.5
  0
LINE
  5
222
100
AcDbEntity
  8
RACCORDO
100
AcDbLine
 62
253
  6
CONTINUOUS
 10
-10.3956323968
 20
-24.495628166
 11
-8.5043676032
 21
-24.495628166
  0
LINE
  5
223
100
AcDbEntity
  8
RACCORDO
100
AcDbLine
 62
253
  6
CONTINUOUS
 10
8.5043676032
 20
-24.495628166
 11
10.3956323968
 21
-24.495628166
  0
LINE
  5
224
100
AcDbEntity
  8
RACCORDO
100
AcDbLine
 62
253
  6
CONTINUOUS
 10
8.254371834
 20
-24.2456323968
 11
10.645628166
 21
-24.2456323968
  0
LINE
  5
225
100
AcDbEntity
  8
RACCORDO
100
AcDbLine
 62
253
  6
CONTINUOUS
 10
-8.254371834
 20
-24.2456323968
 11
-10.645628166
 21
-24.2456323968
  0
LINE
  5
226
100
AcDbEntity
  8
RACCORDO
100
AcDbLine
 62
253
  6
CONTINUOUS
 10
-8.254371834
 20
-23.8443375673
 11
-10.645628166
 21
-23.8443375673
  0
LINE
  5
227
100
AcDbEntity
  8
DRAFT
100
AcDbLine
 62
7
  6
CONTINUOUS
 10
-4.4
 20
-23.8
 11
4.4
 21
-23.8
  0
LINE
  5
228
100
AcDbEntity
  8
DRAFT
100
AcDbLine
 62
7
  6
CONTINUOUS
 10
-3.5
 20
-23.7941821702
 11
3.5
 21
-23.7941821702
  0
LINE
  5
229
100
AcDbEntity
  8
ASSI
100
AcDbLine
 62
7
  6
CONTINUOUS
 10
-4.356315704
 20
-23.756315704
 11
-3.5
 21
-23.756315704
  0
LINE
  5
22A
100
AcDbEntity
  8
ASSI
100
AcDbLine
 62
7
  6
CONTINUOUS
 10
3.5
 20
-23.756315704
 11
4.356315704
 21
-23.756315704
  0
LINE
  5
22B
100
AcDbEntity
  8
RACCORDO
100
AcDbLine
 62
7
  6
CONTINUOUS
 10
8.5043676032
 20
-23.7
 11
10.3956323968
 21
-23.7
  0
LINE
  5
22C
100
AcDbEntity
  8
RACCORDO
100
AcDbLine
 62
253
  6
CONTINUOUS
 10
-8.5043676032
 20
-23.6278312164
 11
-10.3956323968
 21
-23.6278312164
  0
LINE
  5
22D
100
AcDbEntity
  8
RACCORDO
100
AcDbLine
 62
7
  6
CONTINUOUS
 10
10.4007229979
 20
-23.1226497308
 11
8.4992770021
 21
-23.1226497308
  0
LINE
  5
22E
100
AcDbEntity
  8
RACCORDO
100
AcDbLine
 62
7
  6
CONTINUOUS
 10
-8.4992770021
 20
-23.1226497308
 11
-10.4007229979
 21
-23.1226497308
  0
LINE
  5
22F
100
AcDbEntity
  8
RACCORDO
100
AcDbLine
 62
253
  6
CONTINUOUS
 10
-10.6423956564
 20
-22.4
 11
-10.6598507214
 21
-22.3912731322
  0
LINE
  5
230
100
AcDbEntity
  8
RACCORDO
100
AcDbLine
 62
253
  6
CONTINUOUS
 10
-8.5043676032
 20
-24.495628166
 11
-8.4999957692
 21
-24.5
  0
LINE
  5
231
100
AcDbEntity
  8
RACCORDO
100
AcDbLine
 62
253
  6
CONTINUOUS
 10
-8.254371834
 20
24.2456323968
 11
-8.25
 21
24.2500042308
  0
LINE
  5
232
100
AcDbEntity
  8
DRAFT
100
AcDbLine
 62
7
  6
CONTINUOUS
 10
-8.0840245667
 20
20.9829813964
 11
-8.25
 21
20.9
  0
LINE
  5
233
100
AcDbEntity
  8
DRAFT
100
AcDbLine
 62
7
  6
CONTINUOUS
 10
-8.0840245667
 20
21.448622017
 11
-8.25
 21
21.4
  0
LINE
  5
234
100
AcDbEntity
  8
DRAFT
100
AcDbLine
 62
7
  6
CONTINUOUS
 10
-8.25
 20
-22.4
 11
-4.4
 21
-22.4
  0
LINE
  5
235
100
AcDbEntity
  8
RACCORDO
100
AcDbLine
 62
7
  6
CONTINUOUS
 10
10.6423956564
 20
-22.4
 11
8.25
 21
-22.4
  0
LINE
  5
236
100
AcDbEntity
  8
DRAFT
100
AcDbLine
 62
7
  6
CONTINUOUS
 10
4.4
 20
-22.4
 11
8.25
 21
-22.4
  0
LINE
  5
237
100
AcDbEntity
  8
RACCORDO
100
AcDbLine
 62
7
  6
CONTINUOUS
 10
-8.25
 20
-22.4
 11
-10.6423956564
 21
-22.4
  0
LINE
  5
238
100
AcDbEntity
  8
DRAFT
100
AcDbLine
 62
7
  6
CONTINUOUS
 10
-10.6598507214
 20
-22.3912731322
 11
-7.2587268678
 21
-22.3912731322
  0
LINE
  5
239
100
AcDbEntity
  8
DRAFT
100
AcDbLine
 62
7
  6
CONTINUOUS
 10
7.2587268678
 20
-22.3912731322
 11
10.6598507214
 21
-22.3912731322
  0
LINE
  5
23A
100
AcDbEntity
  8
DRAFT
100
AcDbLine
 62
7
  6
CONTINUOUS
 10
3.5
 20
-22.3380392387
 11
3.0
 21
-22.3380392387
  0
LINE
  5
23B
100
AcDbEntity
  8
DRAFT
100
AcDbLine
 62
7
  6
CONTINUOUS
 10
-3.0
 20
-22.3380392387
 11
-3.5
 21
-22.3380392387
  0
LINE
  5
23C
100
AcDbEntity
  8
DRAFT
100
AcDbLine
 62
253
  6
CONTINUOUS
 10
-7.2261622403
 20
-22.3126551668
 11
-3.0
 21
-22.3126551668
  0
LINE
  5
23D
100
AcDbEntity
  8
DRAFT
100
AcDbLine
 62
253
  6
CONTINUOUS
 10
3.0
 20
-22.3126551668
 11
7.2261622403
 21
-22.3126551668
  0
LINE
  5
23E
100
AcDbEntity
  8
0
100
AcDbLine
 62
7
  6
CONTINUOUS
 10
3.0
 20
-21.7
 11
-3.0
 21
-21.7
  0
LINE
  5
23F
100
AcDbEntity
  8
RACCORDO
100
AcDbLine
 62
253
  6
CONTINUOUS
 10
-7.5841007192
 20
-21.3126932437
 11
-3.0
 21
-21.3126932437
  0
LINE
  5
240
100
AcDbEntity
  8
RACCORDO
100
AcDbLine
 62
253
  6
CONTINUOUS
 10
3.0
 20
-21.3126932437
 11
7.5841007192
 21
-21.3126932437
  0
LINE
  5
241
100
AcDbEntity
  8
DRAFT
100
AcDbLine
 62
7
  6
CONTINUOUS
 10
-8.0840245667
 20
-21.448622017
 11
-8.25
 21
-21.4
  0
LINE
  5
242
100
AcDbEntity
  8
DRAFT
100
AcDbLine
 62
7
  6
CONTINUOUS
 10
-8.0840245667
 20
-20.9829813964
 11
-8.25
 21
-20.9
  0
LINE
  5
243
100
AcDbEntity
  8
RACCORDO
100
AcDbLine
 62
253
  6
CONTINUOUS
 10
-8.254371834
 20
-24.2456323968
 11
-8.25
 21
-24.2500042308
  0
LINE
  5
244
100
AcDbEntity
  8
DRAFT
100
AcDbLine
 62
7
  6
CONTINUOUS
 10
-7.2587268678
 20
22.3912731322
 11
-8.25
 21
21.4
  0
LINE
  5
245
100
AcDbEntity
  8
RACCORDO
100
AcDbLine
 62
7
  6
CONTINUOUS
 10
-8.8
 20
20.85
 11
-10.5643027805
 21
19.0856972195
  0
LINE
  5
246
100
AcDbEntity
  8
ASSI
100
AcDbLine
 62
7
  6
CONTINUOUS
 10
-8.8
 20
20.85
 11
-10.5643027805
 21
19.0856972195
  0
LINE
  5
247
100
AcDbEntity
  8
RACCORDO
100
AcDbLine
 62
7
  6
CONTINUOUS
 10
-10.0850175454
 20
19.3181305591
 11
-8.5531481045
 21
20.85
  0
LINE
  5
248
100
AcDbEntity
  8
ASSI
100
AcDbLine
 62
7
  6
CONTINUOUS
 10
-10.0850175454
 20
19.3181305591
 11
-8.5531481045
 21
20.85
  0
LINE
  5
249
100
AcDbEntity
  8
RACCORDO
100
AcDbLine
 62
253
  6
CONTINUOUS
 10
-9.9952378169
 20
19.1013831211
 11
-10.1730026398
 21
18.9236182982
  0
LINE
  5
24A
100
AcDbEntity
  8
ASSI
100
AcDbLine
 62
253
  6
CONTINUOUS
 10
-9.9952378169
 20
19.1013831211
 11
-10.1730026398
 21
18.9236182982
  0
LINE
  5
24B
100
AcDbEntity
  8
RACCORDO
100
AcDbLine
 62
253
  6
CONTINUOUS
 10
-9.2882387315
 20
18.3943840357
 11
-9.4660056078
 21
18.2166171594
  0
LINE
  5
24C
100
AcDbEntity
  8
ASSI
100
AcDbLine
 62
253
  6
CONTINUOUS
 10
-9.2882387315
 20
18.3943840357
 11
-9.4660056078
 21
18.2166171594
  0
LINE
  5
24D
100
AcDbEntity
  8
0
100
AcDbLine
 62
7
  6
CONTINUOUS
 10
-3.0
 20
-21.0
 11
3.0
 21
-21.0
  0
LINE
  5
24E
100
AcDbEntity
  8
DRAFT
100
AcDbLine
 62
7
  6
CONTINUOUS
 10
-7.5841007192
 20
-20.9872686779
 11
-7.2418217019
 21
-20.9872686779
  0
LINE
  5
24F
100
AcDbEntity
  8
DRAFT
100
AcDbLine
 62
7
  6
CONTINUOUS
 10
7.5841007192
 20
-20.9872686779
 11
7.2418217019
 21
-20.9872686779
  0
LINE
  5
250
100
AcDbEntity
  8
DRAFT
100
AcDbLine
 62
7
  6
CONTINUOUS
 10
7.3
 20
-20.9
 11
9.65
 21
-20.9
  0
LINE
  5
251
100
AcDbEntity
  8
DRAFT
100
AcDbLine
 62
7
  6
CONTINUOUS
 10
-7.3
 20
-20.9
 11
-9.65
 21
-20.9
  0
LINE
  5
252
100
AcDbEntity
  8
DRAFT
100
AcDbLine
 62
7
  6
CONTINUOUS
 10
7.4
 20
-20.85
 11
8.8
 21
-20.85
  0
LINE
  5
253
100
AcDbEntity
  8
DRAFT
100
AcDbLine
 62
7
  6
CONTINUOUS
 10
-7.4
 20
-20.85
 11
-8.8
 21
-20.85
  0
LINE
  5
254
100
AcDbEntity
  8
ASSI
100
AcDbLine
 62
7
  6
CONTINUOUS
 10
7.4
 20
-20.85
 11
8.8
 21
-20.85
  0
LINE
  5
255
100
AcDbEntity
  8
ASSI
100
AcDbLine
 62
7
  6
CONTINUOUS
 10
-7.4
 20
-20.85
 11
-8.8
 21
-20.85
  0
LINE
  5
256
100
AcDbEntity
  8
RACCORDO
100
AcDbLine
 62
253
  6
CONTINUOUS
 10
6.3581782981
 20
-20.5829242832
 11
-6.3581782981
 21
-20.5829242832
  0
LINE
  5
257
100
AcDbEntity
  8
DRAFT
100
AcDbLine
 62
7
  6
CONTINUOUS
 10
9.4946499221
 20
-20.4335707644
 11
9.2164292356
 21
-20.4335707644
  0
LINE
  5
258
100
AcDbEntity
  8
DRAFT
100
AcDbLine
 62
7
  6
CONTINUOUS
 10
7.4
 20
-20.4335707644
 11
7.3517786853
 21
-20.4335707644
  0
LINE
  5
259
100
AcDbEntity
  8
DRAFT
100
AcDbLine
 62
7
  6
CONTINUOUS
 10
-7.3517786853
 20
-20.4335707644
 11
-7.4
 21
-20.4335707644
  0
LINE
  5
25A
100
AcDbEntity
  8
DRAFT
100
AcDbLine
 62
7
  6
CONTINUOUS
 10
-9.2164292356
 20
-20.4335707644
 11
-9.4946499221
 21
-20.4335707644
  0
LINE
  5
25B
100
AcDbEntity
  8
RACCORDO
100
AcDbLine
 62
253
  6
CONTINUOUS
 10
6.355294768
 20
-20.0829433217
 11
-6.355294768
 21
-20.0829433217
  0
LINE
  5
25C
100
AcDbEntity
  8
DRAFT
100
AcDbLine
 62
7
  6
CONTINUOUS
 10
2.5
 20
-20.0532338935
 11
2.4413111231
 21
-20.0532338935
  0
LINE
  5
25D
100
AcDbEntity
  8
DRAFT
100
AcDbLine
 62
7
  6
CONTINUOUS
 10
-2.4413111231
 20
-20.0532338935
 11
-2.5
 21
-20.0532338935
  0
LINE
  5
25E
100
AcDbEntity
  8
DRAFT
100
AcDbLine
 62
7
  6
CONTINUOUS
 10
-3.5
 20
-20.0
 11
-2.5
 21
-20.0
  0
LINE
  5
25F
100
AcDbEntity
  8
DRAFT
100
AcDbLine
 62
7
  6
CONTINUOUS
 10
2.5
 20
-20.0
 11
3.5
 21
-20.0
  0
LINE
  5
260
100
AcDbEntity
  8
RACCORDO
100
AcDbLine
 62
7
  6
CONTINUOUS
 10
-4.0594365124
 20
-19.9703286495
 11
-2.5
 21
-19.9703286495
  0
LINE
  5
261
100
AcDbEntity
  8
RACCORDO
100
AcDbLine
 62
7
  6
CONTINUOUS
 10
2.5
 20
-19.9703286495
 11
4.0594365124
 21
-19.9703286495
  0
LINE
  5
262
100
AcDbEntity
  8
RACCORDO
100
AcDbLine
 62
253
  6
CONTINUOUS
 10
7.2418217019
 20
-19.9570181168
 11
6.3581782981
 21
-19.9570181168
  0
LINE
  5
263
100
AcDbEntity
  8
RACCORDO
100
AcDbLine
 62
253
  6
CONTINUOUS
 10
-6.3581782981
 20
-19.9570181168
 11
-7.2418217019
 21
-19.9570181168
  0
LINE
  5
264
100
AcDbEntity
  8
DRAFT
100
AcDbLine
 62
7
  6
CONTINUOUS
 10
-6.2482213147
 20
-19.9223308767
 11
-4.7642300413
 21
-19.9223308767
  0
LINE
  5
265
100
AcDbEntity
  8
DRAFT
100
AcDbLine
 62
7
  6
CONTINUOUS
 10
4.7642300413
 20
-19.9223308767
 11
6.2482213147
 21
-19.9223308767
  0
LINE
  5
266
100
AcDbEntity
  8
DRAFT
100
AcDbLine
 62
7
  6
CONTINUOUS
 10
-3.5
 20
-19.9
 11
-2.5
 21
-19.9
  0
LINE
  5
267
100
AcDbEntity
  8
ASSI
100
AcDbLine
 62
7
  6
CONTINUOUS
 10
-3.5
 20
-19.9
 11
-2.5
 21
-19.9
  0
LINE
  5
268
100
AcDbEntity
  8
DRAFT
100
AcDbLine
 62
7
  6
CONTINUOUS
 10
2.5
 20
-19.9
 11
3.5
 21
-19.9
  0
LINE
  5
269
100
AcDbEntity
  8
ASSI
100
AcDbLine
 62
7
  6
CONTINUOUS
 10
2.5
 20
-19.9
 11
3.5
 21
-19.9
  0
LINE
  5
26A
100
AcDbEntity
  8
RACCORDO
100
AcDbLine
 62
7
  6
CONTINUOUS
 10
-1.5981173983
 20
-19.8825449351
 11
1.5981173983
 21
-19.8825449351
  0
LINE
  5
26B
100
AcDbEntity
  8
ASSI
100
AcDbLine
 62
7
  6
CONTINUOUS
 10
-1.5981173983
 20
-19.8825449351
 11
1.5981173983
 21
-19.8825449351
  0
LINE
  5
26C
100
AcDbEntity
  8
DRAFT
100
AcDbLine
 62
7
  6
CONTINUOUS
 10
-3.4109791689
 20
-19.8109791689
 11
3.4109791689
 21
-19.8109791689
  0
LINE
  5
26D
100
AcDbEntity
  8
ASSI
100
AcDbLine
 62
7
  6
CONTINUOUS
 10
-3.4109791689
 20
-19.8109791689
 11
3.4109791689
 21
-19.8109791689
  0
LINE
  5
26E
100
AcDbEntity
  8
RACCORDO
100
AcDbLine
 62
253
  6
CONTINUOUS
 10
7.2429784985
 20
-19.7570215015
 11
6.3570215015
 21
-19.7570215015
  0
LINE
  5
26F
100
AcDbEntity
  8
RACCORDO
100
AcDbLine
 62
253
  6
CONTINUOUS
 10
-6.3570215015
 20
-19.7570215015
 11
-7.2429784985
 21
-19.7570215015
  0
LINE
  5
270
100
AcDbEntity
  8
DRAFT
100
AcDbLine
 62
7
  6
CONTINUOUS
 10
-7.4
 20
-19.7
 11
-3.5
 21
-19.7
  0
LINE
  5
271
100
AcDbEntity
  8
ASSI
100
AcDbLine
 62
7
  6
CONTINUOUS
 10
-7.4
 20
-19.7
 11
-3.5
 21
-19.7
  0
LINE
  5
272
100
AcDbEntity
  8
DRAFT
100
AcDbLine
 62
7
  6
CONTINUOUS
 10
3.5
 20
-19.7
 11
7.4
 21
-19.7
  0
LINE
  5
273
100
AcDbEntity
  8
ASSI
100
AcDbLine
 62
7
  6
CONTINUOUS
 10
3.5
 20
-19.7
 11
7.4
 21
-19.7
  0
LINE
  5
274
100
AcDbEntity
  8
RACCORDO
100
AcDbLine
 62
7
  6
CONTINUOUS
 10
9.37801846
 20
-19.6109791689
 11
7.4890208311
 21
-19.6109791689
  0
LINE
  5
275
100
AcDbEntity
  8
ASSI
100
AcDbLine
 62
7
  6
CONTINUOUS
 10
9.37801846
 20
-19.6109791689
 11
7.4890208311
 21
-19.6109791689
  0
LINE
  5
276
100
AcDbEntity
  8
DRAFT
100
AcDbLine
 62
7
  6
CONTINUOUS
 10
-3.4109791689
 20
-19.6109791689
 11
3.4109791689
 21
-19.6109791689
  0
LINE
  5
277
100
AcDbEntity
  8
ASSI
100
AcDbLine
 62
7
  6
CONTINUOUS
 10
-3.4109791689
 20
-19.6109791689
 11
3.4109791689
 21
-19.6109791689
  0
LINE
  5
278
100
AcDbEntity
  8
RACCORDO
100
AcDbLine
 62
7
  6
CONTINUOUS
 10
-7.4890208311
 20
-19.6109791689
 11
-9.37801846
 21
-19.6109791689
  0
LINE
  5
279
100
AcDbEntity
  8
ASSI
100
AcDbLine
 62
7
  6
CONTINUOUS
 10
-7.4890208311
 20
-19.6109791689
 11
-9.37801846
 21
-19.6109791689
  0
LINE
  5
27A
100
AcDbEntity
  8
RACCORDO
100
AcDbLine
 62
7
  6
CONTINUOUS
 10
-10.5643027805
 20
-19.0856972195
 11
-8.8
 21
-20.85
  0
LINE
  5
27B
100
AcDbEntity
  8
ASSI
100
AcDbLine
 62
7
  6
CONTINUOUS
 10
-10.5643027805
 20
-19.0856972195
 11
-8.8
 21
-20.85
  0
LINE
  5
27C
100
AcDbEntity
  8
DRAFT
100
AcDbLine
 62
7
  6
CONTINUOUS
 10
-8.25
 20
-21.4
 11
-7.2587268678
 21
-22.3912731322
  0
LINE
  5
27D
100
AcDbEntity
  8
RACCORDO
100
AcDbLine
 62
7
  6
CONTINUOUS
 10
-8.5531481045
 20
-20.85
 11
-10.0850175454
 21
-19.3181305591
  0
LINE
  5
27E
100
AcDbEntity
  8
ASSI
100
AcDbLine
 62
7
  6
CONTINUOUS
 10
-8.5531481045
 20
-20.85
 11
-10.0850175454
 21
-19.3181305591
  0
LINE
  5
27F
100
AcDbEntity
  8
RACCORDO
100
AcDbLine
 62
253
  6
CONTINUOUS
 10
-10.1730026398
 20
-18.9236182982
 11
-9.9952378169
 21
-19.1013831211
  0
LINE
  5
280
100
AcDbEntity
  8
ASSI
100
AcDbLine
 62
253
  6
CONTINUOUS
 10
-10.1730026398
 20
-18.9236182982
 11
-9.9952378169
 21
-19.1013831211
  0
LINE
  5
281
100
AcDbEntity
  8
RACCORDO
100
AcDbLine
 62
253
  6
CONTINUOUS
 10
-9.4660056078
 20
-18.2166171594
 11
-9.2882387315
 21
-18.3943840357
  0
LINE
  5
282
100
AcDbEntity
  8
ASSI
100
AcDbLine
 62
253
  6
CONTINUOUS
 10
-9.4660056078
 20
-18.2166171594
 11
-9.2882387315
 21
-18.3943840357
  0
LINE
  5
283
100
AcDbEntity
  8
DRAFT
100
AcDbLine
 62
7
  6
CONTINUOUS
 10
-7.4
 20
19.7
 11
-7.4890208311
 21
19.6109791689
  0
LINE
  5
284
100
AcDbEntity
  8
ASSI
100
AcDbLine
 62
7
  6
CONTINUOUS
 10
-7.4
 20
19.7
 11
-7.4890208311
 21
19.6109791689
  0
LINE
  5
285
100
AcDbEntity
  8
RACCORDO
100
AcDbLine
 62
7
  6
CONTINUOUS
 10
-7.2429784985
 20
19.7570215015
 11
-7.3
 21
19.7
  0
LINE
  5
286
100
AcDbEntity
  8
RACCORDO
100
AcDbLine
 62
253
  6
CONTINUOUS
 10
-9.2882387315
 20
-19.3942317309
 11
9.2882387315
 21
-19.3942317309
  0
LINE
  5
287
100
AcDbEntity
  8
ASSI
100
AcDbLine
 62
253
  6
CONTINUOUS
 10
-9.2882387315
 20
-19.3942317309
 11
9.2882387315
 21
-19.3942317309
  0
LINE
  5
288
100
AcDbEntity
  8
RACCORDO
100
AcDbLine
 62
253
  6
CONTINUOUS
 10
-9.2882387315
 20
-18.3943840357
 11
9.2882387315
 21
-18.3943840357
  0
LINE
  5
289
100
AcDbEntity
  8
ASSI
100
AcDbLine
 62
253
  6
CONTINUOUS
 10
-9.2882387315
 20
-18.3943840357
 11
9.2882387315
 21
-18.3943840357
  0
LINE
  5
28A
100
AcDbEntity
  8
DRAFT
100
AcDbLine
 62
7
  6
CONTINUOUS
 10
-7.4
 20
-19.7
 11
-7.4890208311
 21
-19.6109791689
  0
LINE
  5
28B
100
AcDbEntity
  8
ASSI
100
AcDbLine
 62
7
  6
CONTINUOUS
 10
-7.4
 20
-19.7
 11
-7.4890208311
 21
-19.6109791689
  0
LINE
  5
28C
100
AcDbEntity
  8
RACCORDO
100
AcDbLine
 62
7
  6
CONTINUOUS
 10
-7.2429784985
 20
-19.7570215015
 11
-7.3
 21
-19.7
  0
LINE
  5
28D
100
AcDbEntity
  8
DRAFT
100
AcDbLine
 62
7
  6
CONTINUOUS
 10
-7.2418217019
 20
20.9872686779
 11
-7.3
 21
20.9
  0
LINE
  5
28E
100
AcDbEntity
  8
RACCORDO
100
AcDbLine
 62
253
  6
CONTINUOUS
 10
9.7588542176
 20
-17.509618074
 11
10.7587019127
 21
-17.509618074
  0
LINE
  5
28F
100
AcDbEntity
  8
ASSI
100
AcDbLine
 62
253
  6
CONTINUOUS
 10
9.7588542176
 20
-17.509618074
 11
10.7587019127
 21
-17.509618074
  0
LINE
  5
290
100
AcDbEntity
  8
RACCORDO
100
AcDbLine
 62
253
  6
CONTINUOUS
 10
-9.7588542176
 20
-17.509618074
 11
-10.7587019127
 21
-17.509618074
  0
LINE
  5
291
100
AcDbEntity
  8
ASSI
100
AcDbLine
 62
253
  6
CONTINUOUS
 10
-9.7588542176
 20
-17.509618074
 11
-10.7587019127
 21
-17.509618074
  0
LINE
  5
292
100
AcDbEntity
  8
DRAFT
100
AcDbLine
 62
7
  6
CONTINUOUS
 10
-7.2418217019
 20
-20.9872686779
 11
-7.3
 21
-20.9
  0
LINE
  5
293
100
AcDbEntity
  8
SMUSSO
100
AcDbLine
 62
7
  6
CONTINUOUS
 10
-7.0
 20
13.35
 11
-7.5773502692
 21
12.7726497308
  0
LINE
  5
294
100
AcDbEntity
  8
ASSI
100
AcDbLine
 62
7
  6
CONTINUOUS
 10
-7.0
 20
13.35
 11
-7.5773502692
 21
12.7726497308
  0
LINE
  5
295
100
AcDbEntity
  8
INCISIONI
100
AcDbLine
 62
253
  6
CONTINUOUS
 10
11.0046235236
 20
-15.607142663
 11
11.014097687
 21
-15.607142663
  0
LINE
  5
296
100
AcDbEntity
  8
INCISIONI
100
AcDbLine
 62
253
  6
CONTINUOUS
 10
11.0188347695
 20
-14.792857337
 11
11.0330460138
 21
-14.792857337
  0
LINE
  5
297
100
AcDbEntity
  8
INCISIONI
100
AcDbLine
 62
253
  6
CONTINUOUS
 10
11.0022549826
 20
-14.25
 11
11.014097687
 21
-14.25
  0
LINE
  5
298
100
AcDbEntity
  8
INCISIONI
100
AcDbLine
 62
253
  6
CONTINUOUS
 10
11.0212033092
 20
-14.2047620773
 11
11.0283089324
 21
-14.2047620773
  0
LINE
  5
299
100
AcDbEntity
  8
ASSI
100
AcDbLine
 62
7
  6
CONTINUOUS
 10
4.4
 20
23.8
 11
4.3563493531
 21
23.7563493531
  0
LINE
  5
29A
100
AcDbEntity
  8
RACCORDO
100
AcDbLine
 62
253
  6
CONTINUOUS
 10
10.5643027805
 20
19.0856972195
 11
10.1730026398
 21
18.9236182982
  0
LINE
  5
29B
100
AcDbEntity
  8
ASSI
100
AcDbLine
 62
253
  6
CONTINUOUS
 10
10.5643027805
 20
19.0856972195
 11
10.1730026398
 21
18.9236182982
  0
LINE
  5
29C
100
AcDbEntity
  8
0
100
AcDbLine
 62
253
  6
CONTINUOUS
 10
11.1046014306
 20
-12.911198
 11
11.0539971429
 21
-12.911198
  0
LINE
  5
29D
100
AcDbEntity
  8
INCISIONI
100
AcDbLine
 62
253
  6
CONTINUOUS
 10
11.0022549826
 20
-12.8928571105
 11
11.014097687
 21
-12.8928571105
  0
LINE
  5
29E
100
AcDbEntity
  8
INCISIONI
100
AcDbLine
 62
253
  6
CONTINUOUS
 10
11.0212033092
 20
-12.8476189613
 11
11.0283089324
 21
-12.8476189613
  0
LINE
  5
29F
100
AcDbEntity
  8
0
100
AcDbLine
 62
253
  6
CONTINUOUS
 10
11.0644999196
 20
-12.328754
 11
11.1046014306
 21
-12.328754
  0
LINE
  5
2A0
100
AcDbEntity
  8
RACCORDO
100
AcDbLine
 62
253
  6
CONTINUOUS
 10
10.1730026398
 20
-18.9236182982
 11
10.5643027805
 21
-19.0856972195
  0
LINE
  5
2A1
100
AcDbEntity
  8
ASSI
100
AcDbLine
 62
253
  6
CONTINUOUS
 10
10.1730026398
 20
-18.9236182982
 11
10.5643027805
 21
-19.0856972195
  0
LINE
  5
2A2
100
AcDbEntity
  8
ASSI
100
AcDbLine
 62
7
  6
CONTINUOUS
 10
4.4
 20
-23.8
 11
4.356315704
 21
-23.756315704
  0
LINE
  5
2A3
100
AcDbEntity
  8
RACCORDO
100
AcDbLine
 62
253
  6
CONTINUOUS
 10
-10.645628166
 20
-23.8443375673
 11
-10.65
 21
-23.4104851482
  0
LINE
  5
2A4
100
AcDbEntity
  8
RACCORDO
100
AcDbLine
 62
253
  6
CONTINUOUS
 10
-10.3956323968
 20
-23.6278312164
 11
-10.4007229979
 21
-23.1226497308
  0
LINE
  5
2A5
100
AcDbEntity
  8
ASSI
100
AcDbLine
 62
7
  6
CONTINUOUS
 10
-11.15
 20
17.6716990487
 11
-11.15
 21
-17.6716990487
  0
LINE
  5
2A6
100
AcDbEntity
  8
RACCORDO
100
AcDbLine
 62
7
  6
CONTINUOUS
 10
-11.15
 20
21.9011798444
 11
-11.15
 21
-21.9011798444
  0
LINE
  5
2A7
100
AcDbEntity
  8
RACCORDO
100
AcDbLine
 62
253
  6
CONTINUOUS
 10
-10.7587019127
 20
17.5096157267
 11
-10.7587019127
 21
-17.5096157267
  0
LINE
  5
2A8
100
AcDbEntity
  8
ASSI
100
AcDbLine
 62
253
  6
CONTINUOUS
 10
-10.7587019127
 20
17.5096157267
 11
-10.7587019127
 21
-17.5096157267
  0
LINE
  5
2A9
100
AcDbEntity
  8
RACCORDO
100
AcDbLine
 62
7
  6
CONTINUOUS
 10
-10.65
 20
-22.3999410061
 11
-10.65
 21
-24.2500042308
  0
LINE
  5
2AA
100
AcDbEntity
  8
RACCORDO
100
AcDbLine
 62
7
  6
CONTINUOUS
 10
-10.65
 20
22.3999410061
 11
-10.65
 21
24.2500042308
  0
LINE
  5
2AB
100
AcDbEntity
  8
RACCORDO
100
AcDbLine
 62
253
  6
CONTINUOUS
 10
-10.645628166
 20
24.2456323968
 11
-10.645628166
 21
23.8443375673
  0
LINE
  5
2AC
100
AcDbEntity
  8
RACCORDO
100
AcDbLine
 62
253
  6
CONTINUOUS
 10
-10.645628166
 20
-23.8443375673
 11
-10.645628166
 21
-24.2456323968
  0
LINE
  5
2AD
100
AcDbEntity
  8
RACCORDO
100
AcDbLine
 62
253
  6
CONTINUOUS
 10
-10.65
 20
23.4104851482
 11
-10.645628166
 21
23.8443375673
  0
LINE
  5
2AE
100
AcDbEntity
  8
RACCORDO
100
AcDbLine
 62
253
  6
CONTINUOUS
 10
-10.4007229979
 20
23.1226497308
 11
-10.3956323968
 21
23.6278312164
  0
LINE
  5
2AF
100
AcDbEntity
  8
RACCORDO
100
AcDbLine
 62
7
  6
CONTINUOUS
 10
2.5
 20
19.9
 11
2.4979803239
 21
19.8979803239
  0
LINE
  5
2B0
100
AcDbEntity
  8
ASSI
100
AcDbLine
 62
7
  6
CONTINUOUS
 10
2.5
 20
19.9
 11
2.4979803239
 21
19.8979803239
  0
LINE
  5
2B1
100
AcDbEntity
  8
SMUSSO
100
AcDbLine
 62
7
  6
CONTINUOUS
 10
-0.0
 20
16.65
 11
0.5773502692
 21
17.2273502692
  0
LINE
  5
2B2
100
AcDbEntity
  8
ASSI
100
AcDbLine
 62
7
  6
CONTINUOUS
 10
-0.0
 20
16.65
 11
0.5773502692
 21
17.2273502692
  0
LINE
  5
2B3
100
AcDbEntity
  8
DRAFT
100
AcDbLine
 62
7
  6
CONTINUOUS
 10
3.5
 20
19.9
 11
3.4109791689
 21
19.8109791689
  0
LINE
  5
2B4
100
AcDbEntity
  8
ASSI
100
AcDbLine
 62
7
  6
CONTINUOUS
 10
3.5
 20
19.9
 11
3.4109791689
 21
19.8109791689
  0
LINE
  5
2B5
100
AcDbEntity
  8
DRAFT
100
AcDbLine
 62
7
  6
CONTINUOUS
 10
3.5
 20
19.7
 11
3.4109791689
 21
19.6109791689
  0
LINE
  5
2B6
100
AcDbEntity
  8
ASSI
100
AcDbLine
 62
7
  6
CONTINUOUS
 10
3.5
 20
19.7
 11
3.4109791689
 21
19.6109791689
  0
LINE
  5
2B7
100
AcDbEntity
  8
SMUSSO
100
AcDbLine
 62
7
  6
CONTINUOUS
 10
-7.0
 20
8.35
 11
-7.5773502692
 21
7.7726497308
  0
LINE
  5
2B8
100
AcDbEntity
  8
ASSI
100
AcDbLine
 62
7
  6
CONTINUOUS
 10
-7.0
 20
8.35
 11
-7.5773502692
 21
7.7726497308
  0
LINE
  5
2B9
100
AcDbEntity
  8
RACCORDO
100
AcDbLine
 62
253
  6
CONTINUOUS
 10
11.15
 20
17.6716990487
 11
10.7587019127
 21
17.5096157267
  0
LINE
  5
2BA
100
AcDbEntity
  8
ASSI
100
AcDbLine
 62
253
  6
CONTINUOUS
 10
11.15
 20
17.6716990487
 11
10.7587019127
 21
17.5096157267
  0
LINE
  5
2BB
100
AcDbEntity
  8
SMUSSO
100
AcDbLine
 62
7
  6
CONTINUOUS
 10
0.5773502692
 20
-12.2273502692
 11
-7.5773502692
 21
-12.2273502692
  0
LINE
  5
2BC
100
AcDbEntity
  8
ASSI
100
AcDbLine
 62
7
  6
CONTINUOUS
 10
0.5773502692
 20
-12.2273502692
 11
-7.5773502692
 21
-12.2273502692
  0
LINE
  5
2BD
100
AcDbEntity
  8
ASSI
100
AcDbLine
 62
7
  6
CONTINUOUS
 10
9.35
 20
-12.1
 11
10.8724644676
 21
-12.1
  0
LINE
  5
2BE
100
AcDbEntity
  8
RACCORDO
100
AcDbLine
 62
7
  6
CONTINUOUS
 10
9.5
 20
-12.0296713505
 11
9.65
 21
-12.0296713505
  0
LINE
  5
2BF
100
AcDbEntity
  8
SMUSSO
100
AcDbLine
 62
7
  6
CONTINUOUS
 10
0.0
 20
-11.65
 11
-7.0
 21
-11.65
  0
LINE
  5
2C0
100
AcDbEntity
  8
ASSI
100
AcDbLine
 62
7
  6
CONTINUOUS
 10
0.0
 20
-11.65
 11
-7.0
 21
-11.65
  0
LINE
  5
2C1
100
AcDbEntity
  8
0
100
AcDbLine
 62
7
  6
CONTINUOUS
 10
0.0
 20
-11.512
 11
-7.0
 21
-11.512
  0
LINE
  5
2C2
100
AcDbEntity
  8
INCISIONI
100
AcDbLine
 62
253
  6
CONTINUOUS
 10
10.9998864416
 20
-11.2190476298
 11
11.0164662277
 21
-11.2190476298
  0
LINE
  5
2C3
100
AcDbEntity
  8
0
100
AcDbLine
 62
253
  6
CONTINUOUS
 10
11.0963494969
 20
-10.87477
 11
11.0539971429
 21
-10.87477
  0
LINE
  5
2C4
100
AcDbEntity
  8
RACCORDO
100
AcDbLine
 62
253
  6
CONTINUOUS
 10
10.7587019127
 20
-17.5096157267
 11
11.15
 21
-17.6716990487
  0
LINE
  5
2C5
100
AcDbEntity
  8
ASSI
100
AcDbLine
 62
253
  6
CONTINUOUS
 10
10.7587019127
 20
-17.5096157267
 11
11.15
 21
-17.6716990487
  0
LINE
  5
2C6
100
AcDbEntity
  8
RACCORDO
100
AcDbLine
 62
7
  6
CONTINUOUS
 10
2.5
 20
-19.9
 11
2.4979803239
 21
-19.8979803239
  0
LINE
  5
2C7
100
AcDbEntity
  8
ASSI
100
AcDbLine
 62
7
  6
CONTINUOUS
 10
2.5
 20
-19.9
 11
2.4979803239
 21
-19.8979803239
  0
LINE
  5
2C8
100
AcDbEntity
  8
DRAFT
100
AcDbLine
 62
7
  6
CONTINUOUS
 10
3.4109791689
 20
-19.8109791689
 11
3.5
 21
-19.9
  0
LINE
  5
2C9
100
AcDbEntity
  8
ASSI
100
AcDbLine
 62
7
  6
CONTINUOUS
 10
3.4109791689
 20
-19.8109791689
 11
3.5
 21
-19.9
  0
LINE
  5
2CA
100
AcDbEntity
  8
DRAFT
100
AcDbLine
 62
7
  6
CONTINUOUS
 10
3.5
 20
-19.7
 11
3.4109791689
 21
-19.6109791689
  0
LINE
  5
2CB
100
AcDbEntity
  8
ASSI
100
AcDbLine
 62
7
  6
CONTINUOUS
 10
3.5
 20
-19.7
 11
3.4109791689
 21
-19.6109791689
  0
LINE
  5
2CC
100
AcDbEntity
  8
SMUSSO
100
AcDbLine
 62
7
  6
CONTINUOUS
 10
-7.0
 20
-8.35
 11
-7.5773502692
 21
-7.7726497308
  0
LINE
  5
2CD
100
AcDbEntity
  8
ASSI
100
AcDbLine
 62
7
  6
CONTINUOUS
 10
-7.0
 20
-8.35
 11
-7.5773502692
 21
-7.7726497308
  0
LINE
  5
2CE
100
AcDbEntity
  8
RACCORDO
100
AcDbLine
 62
253
  6
CONTINUOUS
 10
-10.3956323968
 20
-23.6278312164
 11
-10.3956323968
 21
-24.495628166
  0
LINE
  5
2CF
100
AcDbEntity
  8
RACCORDO
100
AcDbLine
 62
253
  6
CONTINUOUS
 10
-10.3956323968
 20
23.6278312164
 11
-10.3956323968
 21
24.495628166
  0
LINE
  5
2D0
100
AcDbEntity
  8
RACCORDO
100
AcDbLine
 62
253
  6
CONTINUOUS
 10
-9.7588542176
 20
17.509618074
 11
-9.7588542176
 21
-17.509618074
  0
LINE
  5
2D1
100
AcDbEntity
  8
ASSI
100
AcDbLine
 62
253
  6
CONTINUOUS
 10
-9.7588542176
 20
17.509618074
 11
-9.7588542176
 21
-17.509618074
  0
LINE
  5
2D2
100
AcDbEntity
  8
DRAFT
100
AcDbLine
 62
7
  6
CONTINUOUS
 10
-9.65
 20
-20.9
 11
-9.65
 21
-20.0
  0
LINE
  5
2D3
100
AcDbEntity
  8
DRAFT
100
AcDbLine
 62
7
  6
CONTINUOUS
 10
-9.65
 20
20.0
 11
-9.65
 21
20.9
  0
LINE
  5
2D4
100
AcDbEntity
  8
DRAFT
100
AcDbLine
 62
7
  6
CONTINUOUS
 10
-9.4946499221
 20
-20.4335707644
 11
-9.4946499221
 21
-20.1553500779
  0
LINE
  5
2D5
100
AcDbEntity
  8
DRAFT
100
AcDbLine
 62
7
  6
CONTINUOUS
 10
-9.4946499221
 20
20.1553500779
 11
-9.4946499221
 21
20.4335707644
  0
LINE
  5
2D6
100
AcDbEntity
  8
RACCORDO
100
AcDbLine
 62
253
  6
CONTINUOUS
 10
-9.2882387315
 20
-18.3943840357
 11
-9.2882387315
 21
-19.3942317309
  0
LINE
  5
2D7
100
AcDbEntity
  8
ASSI
100
AcDbLine
 62
253
  6
CONTINUOUS
 10
-9.2882387315
 20
-18.3943840357
 11
-9.2882387315
 21
-19.3942317309
  0
LINE
  5
2D8
100
AcDbEntity
  8
RACCORDO
100
AcDbLine
 62
253
  6
CONTINUOUS
 10
-9.2882387315
 20
18.3943840357
 11
-9.2882387315
 21
19.3942317309
  0
LINE
  5
2D9
100
AcDbEntity
  8
ASSI
100
AcDbLine
 62
253
  6
CONTINUOUS
 10
-9.2882387315
 20
18.3943840357
 11
-9.2882387315
 21
19.3942317309
  0
LINE
  5
2DA
100
AcDbEntity
  8
DRAFT
100
AcDbLine
 62
7
  6
CONTINUOUS
 10
-7.3517786853
 20
20.4335707644
 11
-7.3
 21
20.9
  0
LINE
  5
2DB
100
AcDbEntity
  8
DRAFT
100
AcDbLine
 62
7
  6
CONTINUOUS
 10
4.4
 20
22.4
 11
4.3559327327
 21
22.3338981669
  0
LINE
  5
2DC
100
AcDbEntity
  8
RACCORDO
100
AcDbLine
 62
253
  6
CONTINUOUS
 10
10.3956323968
 20
24.495628166
 11
10.4000042308
 21
24.5
  0
LINE
  5
2DD
100
AcDbEntity
  8
RACCORDO
100
AcDbLine
 62
253
  6
CONTINUOUS
 10
10.645628166
 20
24.2456323968
 11
10.65
 21
24.2500042308
  0
LINE
  5
2DE
100
AcDbEntity
  8
RACCORDO
100
AcDbLine
 62
7
  6
CONTINUOUS
 10
6.3570215015
 20
19.7570215015
 11
6.3
 21
19.7
  0
LINE
  5
2DF
100
AcDbEntity
  8
0
100
AcDbLine
 62
253
  6
CONTINUOUS
 10
11.0539971429
 20
-10.292325
 11
11.1046014306
 21
-10.292325
  0
LINE
  5
2E0
100
AcDbEntity
  8
INCISIONI
100
AcDbLine
 62
253
  6
CONTINUOUS
 10
11.0330460138
 20
-10.0428571671
 11
10.9998864416
 21
-10.0428571671
  0
LINE
  5
2E1
100
AcDbEntity
  8
0
100
AcDbLine
 62
253
  6
CONTINUOUS
 10
3.0
 20
-10.0
 11
1.25
 21
-10.0
  0
LINE
  5
2E2
100
AcDbEntity
  8
0
100
AcDbLine
 62
253
  6
CONTINUOUS
 10
8.0
 20
-9.0476191044
 11
6.0
 21
-9.0476191044
  0
LINE
  5
2E3
100
AcDbEntity
  8
RACCORDO
100
AcDbLine
 62
253
  6
CONTINUOUS
 10
10.3956323968
 20
-24.495628166
 11
10.4000042308
 21
-24.5
  0
LINE
  5
2E4
100
AcDbEntity
  8
RACCORDO
100
AcDbLine
 62
253
  6
CONTINUOUS
 10
10.645628166
 20
-24.2456323968
 11
10.65
 21
-24.2500042308
  0
LINE
  5
2E5
100
AcDbEntity
  8
RACCORDO
100
AcDbLine
 62
7
  6
CONTINUOUS
 10
6.3570215015
 20
-19.7570215015
 11
6.3
 21
-19.7
  0
LINE
  5
2E6
100
AcDbEntity
  8
DRAFT
100
AcDbLine
 62
7
  6
CONTINUOUS
 10
4.4
 20
-22.4
 11
4.3559327327
 21
-22.3338981669
  0
LINE
  5
2E7
100
AcDbEntity
  8
DRAFT
100
AcDbLine
 62
7
  6
CONTINUOUS
 10
-7.3
 20
-20.9
 11
-7.3517786853
 21
-20.4335707644
  0
LINE
  5
2E8
100
AcDbEntity
  8
RACCORDO
100
AcDbLine
 62
253
  6
CONTINUOUS
 10
-8.5043676032
 20
23.6278312164
 11
-8.4992770021
 21
23.1226497308
  0
LINE
  5
2E9
100
AcDbEntity
  8
RACCORDO
100
AcDbLine
 62
253
  6
CONTINUOUS
 10
-8.254371834
 20
23.8443375673
 11
-8.25
 21
23.4104851482
  0
LINE
  5
2EA
100
AcDbEntity
  8
RACCORDO
100
AcDbLine
 62
253
  6
CONTINUOUS
 10
-8.5043676032
 20
-23.6278312164
 11
-8.5043676032
 21
-24.495628166
  0
LINE
  5
2EB
100
AcDbEntity
  8
RACCORDO
100
AcDbLine
 62
253
  6
CONTINUOUS
 10
-8.5043676032
 20
23.6278312164
 11
-8.5043676032
 21
24.495628166
  0
LINE
  5
2EC
100
AcDbEntity
  8
RACCORDO
100
AcDbLine
 62
253
  6
CONTINUOUS
 10
-8.254371834
 20
-24.2456323968
 11
-8.254371834
 21
-23.8443375673
  0
LINE
  5
2ED
100
AcDbEntity
  8
RACCORDO
100
AcDbLine
 62
253
  6
CONTINUOUS
 10
-8.254371834
 20
23.8443375673
 11
-8.254371834
 21
24.2456323968
  0
LINE
  5
2EE
100
AcDbEntity
  8
DRAFT
100
AcDbLine
 62
7
  6
CONTINUOUS
 10
-8.25
 20
-21.4
 11
-8.25
 21
-20.9
  0
LINE
  5
2EF
100
AcDbEntity
  8
RACCORDO
100
AcDbLine
 62
7
  6
CONTINUOUS
 10
-8.25
 20
-22.4
 11
-8.25
 21
-24.2500042308
  0
LINE
  5
2F0
100
AcDbEntity
  8
DRAFT
100
AcDbLine
 62
7
  6
CONTINUOUS
 10
-8.25
 20
20.9
 11
-8.25
 21
21.4
  0
LINE
  5
2F1
100
AcDbEntity
  8
RACCORDO
100
AcDbLine
 62
7
  6
CONTINUOUS
 10
-8.25
 20
22.4
 11
-8.25
 21
24.2500042308
  0
LINE
  5
2F2
100
AcDbEntity
  8
DRAFT
100
AcDbLine
 62
253
  6
CONTINUOUS
 10
-8.0840245667
 20
21.448622017
 11
-8.0840245667
 21
20.9829813964
  0
LINE
  5
2F3
100
AcDbEntity
  8
DRAFT
100
AcDbLine
 62
253
  6
CONTINUOUS
 10
-8.0840245667
 20
-20.9829813964
 11
-8.0840245667
 21
-21.448622017
  0
LINE
  5
2F4
100
AcDbEntity
  8
DRAFT
100
AcDbLine
 62
253
  6
CONTINUOUS
 10
-7.5841007192
 20
21.3126932437
 11
-7.5841007192
 21
20.9872686779
  0
LINE
  5
2F5
100
AcDbEntity
  8
DRAFT
100
AcDbLine
 62
253
  6
CONTINUOUS
 10
-7.5841007192
 20
-20.9872686779
 11
-7.5841007192
 21
-21.3126932437
  0
LINE
  5
2F6
100
AcDbEntity
  8
SMUSSO
100
AcDbLine
 62
7
  6
CONTINUOUS
 10
-7.5773502692
 20
-12.2273502692
 11
-7.5773502692
 21
-7.7726497308
  0
LINE
  5
2F7
100
AcDbEntity
  8
ASSI
100
AcDbLine
 62
7
  6
CONTINUOUS
 10
-7.5773502692
 20
-12.2273502692
 11
-7.5773502692
 21
-7.7726497308
  0
LINE
  5
2F8
100
AcDbEntity
  8
SMUSSO
100
AcDbLine
 62
7
  6
CONTINUOUS
 10
-7.5773502692
 20
-7.2273502692
 11
-7.5773502692
 21
-2.7726497308
  0
LINE
  5
2F9
100
AcDbEntity
  8
ASSI
100
AcDbLine
 62
7
  6
CONTINUOUS
 10
-7.5773502692
 20
-7.2273502692
 11
-7.5773502692
 21
-2.7726497308
  0
LINE
  5
2FA
100
AcDbEntity
  8
SMUSSO
100
AcDbLine
 62
7
  6
CONTINUOUS
 10
-7.5773502692
 20
-2.2273502692
 11
-7.5773502692
 21
2.2273502692
  0
LINE
  5
2FB
100
AcDbEntity
  8
ASSI
100
AcDbLine
 62
7
  6
CONTINUOUS
 10
-7.5773502692
 20
-2.2273502692
 11
-7.5773502692
 21
2.2273502692
  0
LINE
  5
2FC
100
AcDbEntity
  8
SMUSSO
100
AcDbLine
 62
7
  6
CONTINUOUS
 10
-7.5773502692
 20
2.7726497308
 11
-7.5773502692
 21
7.2273502692
  0
LINE
  5
2FD
100
AcDbEntity
  8
ASSI
100
AcDbLine
 62
7
  6
CONTINUOUS
 10
-7.5773502692
 20
2.7726497308
 11
-7.5773502692
 21
7.2273502692
  0
LINE
  5
2FE
100
AcDbEntity
  8
SMUSSO
100
AcDbLine
 62
7
  6
CONTINUOUS
 10
-7.5773502692
 20
7.7726497308
 11
-7.5773502692
 21
12.2273502692
  0
LINE
  5
2FF
100
AcDbEntity
  8
ASSI
100
AcDbLine
 62
7
  6
CONTINUOUS
 10
-7.5773502692
 20
7.7726497308
 11
-7.5773502692
 21
12.2273502692
  0
LINE
  5
300
100
AcDbEntity
  8
SMUSSO
100
AcDbLine
 62
7
  6
CONTINUOUS
 10
-7.5773502692
 20
12.7726497308
 11
-7.5773502692
 21
17.2273502692
  0
LINE
  5
301
100
AcDbEntity
  8
ASSI
100
AcDbLine
 62
7
  6
CONTINUOUS
 10
-7.5773502692
 20
12.7726497308
 11
-7.5773502692
 21
17.2273502692
  0
LINE
  5
302
100
AcDbEntity
  8
DRAFT
100
AcDbLine
 62
7
  6
CONTINUOUS
 10
-7.4890208311
 20
-20.85
 11
-7.4890208311
 21
-19.6109791689
  0
LINE
  5
303
100
AcDbEntity
  8
ASSI
100
AcDbLine
 62
7
  6
CONTINUOUS
 10
-7.4890208311
 20
-20.85
 11
-7.4890208311
 21
-19.6109791689
  0
LINE
  5
304
100
AcDbEntity
  8
DRAFT
100
AcDbLine
 62
7
  6
CONTINUOUS
 10
-7.4890208311
 20
19.6109791689
 11
-7.4890208311
 21
20.85
  0
LINE
  5
305
100
AcDbEntity
  8
ASSI
100
AcDbLine
 62
7
  6
CONTINUOUS
 10
-7.4890208311
 20
19.6109791689
 11
-7.4890208311
 21
20.85
  0
LINE
  5
306
100
AcDbEntity
  8
DRAFT
100
AcDbLine
 62
7
  6
CONTINUOUS
 10
-7.4
 20
-20.85
 11
-7.4
 21
-19.7
  0
LINE
  5
307
100
AcDbEntity
  8
ASSI
100
AcDbLine
 62
7
  6
CONTINUOUS
 10
-7.4
 20
-20.85
 11
-7.4
 21
-19.7
  0
LINE
  5
308
100
AcDbEntity
  8
DRAFT
100
AcDbLine
 62
7
  6
CONTINUOUS
 10
-7.4
 20
19.7
 11
-7.4
 21
20.85
  0
LINE
  5
309
100
AcDbEntity
  8
ASSI
100
AcDbLine
 62
7
  6
CONTINUOUS
 10
-7.4
 20
19.7
 11
-7.4
 21
20.85
  0
LINE
  5
30A
100
AcDbEntity
  8
DRAFT
100
AcDbLine
 62
7
  6
CONTINUOUS
 10
-7.3517786853
 20
20.4335707644
 11
-7.3517786853
 21
19.7
  0
LINE
  5
30B
100
AcDbEntity
  8
DRAFT
100
AcDbLine
 62
7
  6
CONTINUOUS
 10
-7.3517786853
 20
-20.4335707644
 11
-7.3517786853
 21
-19.7
  0
LINE
  5
30C
100
AcDbEntity
  8
DRAFT
100
AcDbLine
 62
7
  6
CONTINUOUS
 10
-7.2418217019
 20
20.9872686779
 11
-7.2418217019
 21
19.9570181168
  0
LINE
  5
30D
100
AcDbEntity
  8
DRAFT
100
AcDbLine
 62
7
  6
CONTINUOUS
 10
-7.2418217019
 20
-19.9570181168
 11
-7.2418217019
 21
-20.9872686779
  0
LINE
  5
30E
100
AcDbEntity
  8
SMUSSO
100
AcDbLine
 62
7
  6
CONTINUOUS
 10
-7.0
 20
-11.65
 11
-7.0
 21
-8.35
  0
LINE
  5
30F
100
AcDbEntity
  8
ASSI
100
AcDbLine
 62
7
  6
CONTINUOUS
 10
-7.0
 20
-11.65
 11
-7.0
 21
-8.35
  0
LINE
  5
310
100
AcDbEntity
  8
SMUSSO
100
AcDbLine
 62
7
  6
CONTINUOUS
 10
-7.0
 20
-6.65
 11
-7.0
 21
-3.35
  0
LINE
  5
311
100
AcDbEntity
  8
ASSI
100
AcDbLine
 62
7
  6
CONTINUOUS
 10
-7.0
 20
-6.65
 11
-7.0
 21
-3.35
  0
LINE
  5
312
100
AcDbEntity
  8
SMUSSO
100
AcDbLine
 62
7
  6
CONTINUOUS
 10
-7.0
 20
-1.65
 11
-7.0
 21
1.65
  0
LINE
  5
313
100
AcDbEntity
  8
ASSI
100
AcDbLine
 62
7
  6
CONTINUOUS
 10
-7.0
 20
-1.65
 11
-7.0
 21
1.65
  0
LINE
  5
314
100
AcDbEntity
  8
SMUSSO
100
AcDbLine
 62
7
  6
CONTINUOUS
 10
-7.0
 20
3.35
 11
-7.0
 21
6.65
  0
LINE
  5
315
100
AcDbEntity
  8
ASSI
100
AcDbLine
 62
7
  6
CONTINUOUS
 10
-7.0
 20
3.35
 11
-7.0
 21
6.65
  0
LINE
  5
316
100
AcDbEntity
  8
SMUSSO
100
AcDbLine
 62
7
  6
CONTINUOUS
 10
-7.0
 20
8.35
 11
-7.0
 21
11.65
  0
LINE
  5
317
100
AcDbEntity
  8
ASSI
100
AcDbLine
 62
7
  6
CONTINUOUS
 10
-7.0
 20
8.35
 11
-7.0
 21
11.65
  0
LINE
  5
318
100
AcDbEntity
  8
SMUSSO
100
AcDbLine
 62
7
  6
CONTINUOUS
 10
-7.0
 20
13.35
 11
-7.0
 21
16.65
  0
LINE
  5
319
100
AcDbEntity
  8
ASSI
100
AcDbLine
 62
7
  6
CONTINUOUS
 10
-7.0
 20
13.35
 11
-7.0
 21
16.65
  0
LINE
  5
31A
100
AcDbEntity
  8
RACCORDO
100
AcDbLine
 62
253
  6
CONTINUOUS
 10
-8.4992770021
 20
-23.1226497308
 11
-8.5043676032
 21
-23.6278312164
  0
LINE
  5
31B
100
AcDbEntity
  8
RACCORDO
100
AcDbLine
 62
253
  6
CONTINUOUS
 10
-8.25
 20
-23.4104851482
 11
-8.254371834
 21
-23.8443375673
  0
LINE
  5
31C
100
AcDbEntity
  8
SMUSSO
100
AcDbLine
 62
7
  6
CONTINUOUS
 10
-0.0
 20
11.65
 11
0.5773502692
 21
12.2273502692
  0
LINE
  5
31D
100
AcDbEntity
  8
ASSI
100
AcDbLine
 62
7
  6
CONTINUOUS
 10
-0.0
 20
11.65
 11
0.5773502692
 21
12.2273502692
  0
LINE
  5
31E
100
AcDbEntity
  8
SMUSSO
100
AcDbLine
 62
7
  6
CONTINUOUS
 10
-7.0
 20
3.35
 11
-7.5773502692
 21
2.7726497308
  0
LINE
  5
31F
100
AcDbEntity
  8
ASSI
100
AcDbLine
 62
7
  6
CONTINUOUS
 10
-7.0
 20
3.35
 11
-7.5773502692
 21
2.7726497308
  0
LINE
  5
320
100
AcDbEntity
  8
0
100
AcDbLine
 62
7
  6
CONTINUOUS
 10
-7.0
 20
-8.512
 11
0.0
 21
-8.512
  0
LINE
  5
321
100
AcDbEntity
  8
SMUSSO
100
AcDbLine
 62
7
  6
CONTINUOUS
 10
-7.0
 20
-8.35
 11
0.0
 21
-8.35
  0
LINE
  5
322
100
AcDbEntity
  8
ASSI
100
AcDbLine
 62
7
  6
CONTINUOUS
 10
-7.0
 20
-8.35
 11
0.0
 21
-8.35
  0
LINE
  5
323
100
AcDbEntity
  8
0
100
AcDbLine
 62
253
  6
CONTINUOUS
 10
8.0
 20
-8.1428573132
 11
6.0
 21
-8.1428573132
  0
LINE
  5
324
100
AcDbEntity
  8
ASSI
100
AcDbLine
 62
7
  6
CONTINUOUS
 10
9.35
 20
-7.9
 11
10.8724644676
 21
-7.9
  0
LINE
  5
325
100
AcDbEntity
  8
SMUSSO
100
AcDbLine
 62
7
  6
CONTINUOUS
 10
-7.5773502692
 20
-7.7726497308
 11
0.5773502692
 21
-7.7726497308
  0
LINE
  5
326
100
AcDbEntity
  8
ASSI
100
AcDbLine
 62
7
  6
CONTINUOUS
 10
-7.5773502692
 20
-7.7726497308
 11
0.5773502692
 21
-7.7726497308
  0
LINE
  5
327
100
AcDbEntity
  8
SMUSSO
100
AcDbLine
 62
7
  6
CONTINUOUS
 10
0.5773502692
 20
-7.2273502692
 11
-7.5773502692
 21
-7.2273502692
  0
LINE
  5
328
100
AcDbEntity
  8
ASSI
100
AcDbLine
 62
7
  6
CONTINUOUS
 10
0.5773502692
 20
-7.2273502692
 11
-7.5773502692
 21
-7.2273502692
  0
LINE
  5
329
100
AcDbEntity
  8
0
100
AcDbLine
 62
253
  6
CONTINUOUS
 10
6.2857142687
 20
-7.1428573132
 11
7.7142857015
 21
-7.1428573132
  0
LINE
  5
32A
100
AcDbEntity
  8
ASSI
100
AcDbLine
 62
7
  6
CONTINUOUS
 10
9.35
 20
-7.1
 11
10.8724644676
 21
-7.1
  0
LINE
  5
32B
100
AcDbEntity
  8
0
100
AcDbLine
 62
253
  6
CONTINUOUS
 10
8.0
 20
-10.5238096118
 11
6.0
 21
-9.9523810148
  0
LINE
  5
32C
100
AcDbEntity
  8
SMUSSO
100
AcDbLine
 62
7
  6
CONTINUOUS
 10
0.0
 20
-11.65
 11
0.5773502692
 21
-12.2273502692
  0
LINE
  5
32D
100
AcDbEntity
  8
ASSI
100
AcDbLine
 62
7
  6
CONTINUOUS
 10
0.0
 20
-11.65
 11
0.5773502692
 21
-12.2273502692
  0
LINE
  5
32E
100
AcDbEntity
  8
SMUSSO
100
AcDbLine
 62
7
  6
CONTINUOUS
 10
-7.0
 20
-3.35
 11
-7.5773502692
 21
-2.7726497308
  0
LINE
  5
32F
100
AcDbEntity
  8
ASSI
100
AcDbLine
 62
7
  6
CONTINUOUS
 10
-7.0
 20
-3.35
 11
-7.5773502692
 21
-2.7726497308
  0
LINE
  5
330
100
AcDbEntity
  8
0
100
AcDbLine
 62
7
  6
CONTINUOUS
 10
-6.878
 20
-11.512
 11
-6.878
 21
-8.512
  0
LINE
  5
331
100
AcDbEntity
  8
0
100
AcDbLine
 62
7
  6
CONTINUOUS
 10
-6.878
 20
-6.512
 11
-6.878
 21
-3.512
  0
LINE
  5
332
100
AcDbEntity
  8
0
100
AcDbLine
 62
7
  6
CONTINUOUS
 10
-6.878
 20
-1.512
 11
-6.878
 21
1.488
  0
LINE
  5
333
100
AcDbEntity
  8
0
100
AcDbLine
 62
7
  6
CONTINUOUS
 10
-6.878
 20
3.488
 11
-6.878
 21
6.488
  0
LINE
  5
334
100
AcDbEntity
  8
0
100
AcDbLine
 62
7
  6
CONTINUOUS
 10
-6.878
 20
8.488
 11
-6.878
 21
11.488
  0
LINE
  5
335
100
AcDbEntity
  8
0
100
AcDbLine
 62
7
  6
CONTINUOUS
 10
-6.878
 20
13.488
 11
-6.878
 21
16.488
  0
LINE
  5
336
100
AcDbEntity
  8
RACCORDO
100
AcDbLine
 62
7
  6
CONTINUOUS
 10
-6.3581782981
 20
-20.5829242832
 11
-6.3581782981
 21
-19.9570181168
  0
LINE
  5
337
100
AcDbEntity
  8
RACCORDO
100
AcDbLine
 62
7
  6
CONTINUOUS
 10
-6.3581782981
 20
19.9570181168
 11
-6.3581782981
 21
20.5829242832
  0
LINE
  5
338
100
AcDbEntity
  8
DRAFT
100
AcDbLine
 62
7
  6
CONTINUOUS
 10
-6.2482213147
 20
19.9223308767
 11
-6.2482213147
 21
19.7
  0
LINE
  5
339
100
AcDbEntity
  8
DRAFT
100
AcDbLine
 62
7
  6
CONTINUOUS
 10
-6.2482213147
 20
-19.7
 11
-6.2482213147
 21
-19.9223308767
  0
LINE
  5
33A
100
AcDbEntity
  8
RACCORDO
100
AcDbLine
 62
7
  6
CONTINUOUS
 10
6.355294768
 20
20.0829433217
 11
6.2482213147
 21
19.9223308767
  0
LINE
  5
33B
100
AcDbEntity
  8
RACCORDO
100
AcDbLine
 62
253
  6
CONTINUOUS
 10
9.2882387315
 20
18.3943840357
 11
9.9952378169
 21
19.1013831211
  0
LINE
  5
33C
100
AcDbEntity
  8
ASSI
100
AcDbLine
 62
253
  6
CONTINUOUS
 10
9.2882387315
 20
18.3943840357
 11
9.9952378169
 21
19.1013831211
  0
LINE
  5
33D
100
AcDbEntity
  8
RACCORDO
100
AcDbLine
 62
253
  6
CONTINUOUS
 10
9.4660056078
 20
18.2166171594
 11
10.1730046932
 21
18.9236162448
  0
LINE
  5
33E
100
AcDbEntity
  8
ASSI
100
AcDbLine
 62
253
  6
CONTINUOUS
 10
9.4660056078
 20
18.2166171594
 11
10.1730046932
 21
18.9236162448
  0
LINE
  5
33F
100
AcDbEntity
  8
DRAFT
100
AcDbLine
 62
7
  6
CONTINUOUS
 10
9.5
 20
11.9546770624
 11
9.65
 21
12.0296713505
  0
LINE
  5
340
100
AcDbEntity
  8
0
100
AcDbLine
 62
253
  6
CONTINUOUS
 10
11.0624067525
 20
-6.866738
 11
11.0539971429
 21
-6.866738
  0
LINE
  5
341
100
AcDbEntity
  8
SMUSSO
100
AcDbLine
 62
7
  6
CONTINUOUS
 10
0.0
 20
-6.65
 11
-7.0
 21
-6.65
  0
LINE
  5
342
100
AcDbEntity
  8
ASSI
100
AcDbLine
 62
7
  6
CONTINUOUS
 10
0.0
 20
-6.65
 11
-7.0
 21
-6.65
  0
LINE
  5
343
100
AcDbEntity
  8
0
100
AcDbLine
 62
7
  6
CONTINUOUS
 10
0.0
 20
-6.512
 11
-7.0
 21
-6.512
  0
LINE
  5
344
100
AcDbEntity
  8
0
100
AcDbLine
 62
253
  6
CONTINUOUS
 10
8.0
 20
-6.3333334923
 11
6.0
 21
-6.3333334923
  0
LINE
  5
345
100
AcDbEntity
  8
0
100
AcDbLine
 62
253
  6
CONTINUOUS
 10
11.1046014306
 20
-5.793739
 11
11.0624067525
 21
-5.793739
  0
LINE
  5
346
100
AcDbEntity
  8
0
100
AcDbLine
 62
253
  6
CONTINUOUS
 10
11.0539971429
 20
-5.171133
 11
11.1046014306
 21
-5.171133
  0
LINE
  5
347
100
AcDbEntity
  8
DRAFT
100
AcDbLine
 62
7
  6
CONTINUOUS
 10
9.65
 20
-12.0296713505
 11
9.5
 21
-11.9546770624
  0
LINE
  5
348
100
AcDbEntity
  8
RACCORDO
100
AcDbLine
 62
253
  6
CONTINUOUS
 10
9.2882387315
 20
-18.3943840357
 11
9.9952378169
 21
-19.1013831211
  0
LINE
  5
349
100
AcDbEntity
  8
ASSI
100
AcDbLine
 62
253
  6
CONTINUOUS
 10
9.2882387315
 20
-18.3943840357
 11
9.9952378169
 21
-19.1013831211
  0
LINE
  5
34A
100
AcDbEntity
  8
RACCORDO
100
AcDbLine
 62
253
  6
CONTINUOUS
 10
9.4660056078
 20
-18.2166171594
 11
10.1730046932
 21
-18.9236162448
  0
LINE
  5
34B
100
AcDbEntity
  8
ASSI
100
AcDbLine
 62
253
  6
CONTINUOUS
 10
9.4660056078
 20
-18.2166171594
 11
10.1730046932
 21
-18.9236162448
  0
LINE
  5
34C
100
AcDbEntity
  8
RACCORDO
100
AcDbLine
 62
7
  6
CONTINUOUS
 10
6.355294768
 20
-20.0829433217
 11
6.2482213147
 21
-19.9223308767
  0
LINE
  5
34D
100
AcDbEntity
  8
DRAFT
100
AcDbLine
 62
7
  6
CONTINUOUS
 10
-4.4
 20
23.8
 11
-4.4
 21
22.4
  0
LINE
  5
34E
100
AcDbEntity
  8
DRAFT
100
AcDbLine
 62
7
  6
CONTINUOUS
 10
-4.4
 20
-22.4
 11
-4.4
 21
-23.8
  0
LINE
  5
34F
100
AcDbEntity
  8
ASSI
100
AcDbLine
 62
253
  6
CONTINUOUS
 10
-4.3559327327
 20
23.7507734247
 11
-4.3559327327
 21
22.3338981669
  0
LINE
  5
350
100
AcDbEntity
  8
ASSI
100
AcDbLine
 62
253
  6
CONTINUOUS
 10
-4.3559327327
 20
-22.3338981669
 11
-4.3559327327
 21
-23.7511641713
  0
LINE
  5
351
100
AcDbEntity
  8
DRAFT
100
AcDbLine
 62
7
  6
CONTINUOUS
 10
-3.5
 20
20.0445070257
 11
-3.5
 21
20.0
  0
LINE
  5
352
100
AcDbEntity
  8
DRAFT
100
AcDbLine
 62
7
  6
CONTINUOUS
 10
-3.5
 20
19.9
 11
-3.5
 21
19.7
  0
LINE
  5
353
100
AcDbEntity
  8
ASSI
100
AcDbLine
 62
7
  6
CONTINUOUS
 10
-3.5
 20
19.9
 11
-3.5
 21
19.7
  0
LINE
  5
354
100
AcDbEntity
  8
DRAFT
100
AcDbLine
 62
7
  6
CONTINUOUS
 10
-3.5
 20
-19.7
 11
-3.5
 21
-19.9
  0
LINE
  5
355
100
AcDbEntity
  8
ASSI
100
AcDbLine
 62
7
  6
CONTINUOUS
 10
-3.5
 20
-19.7
 11
-3.5
 21
-19.9
  0
LINE
  5
356
100
AcDbEntity
  8
DRAFT
100
AcDbLine
 62
7
  6
CONTINUOUS
 10
-3.5
 20
-20.0445070257
 11
-3.5
 21
-20.0
  0
LINE
  5
357
100
AcDbEntity
  8
ASSI
100
AcDbLine
 62
7
  6
CONTINUOUS
 10
-3.5
 20
-22.3339198952
 11
-3.5
 21
-23.7941821702
  0
LINE
  5
358
100
AcDbEntity
  8
ASSI
100
AcDbLine
 62
7
  6
CONTINUOUS
 10
-3.5
 20
22.3339198952
 11
-3.5
 21
23.7941821702
  0
LINE
  5
359
100
AcDbEntity
  8
DRAFT
100
AcDbLine
 62
7
  6
CONTINUOUS
 10
-3.4109791689
 20
19.8109791689
 11
-3.4109791689
 21
19.6109791689
  0
LINE
  5
35A
100
AcDbEntity
  8
ASSI
100
AcDbLine
 62
7
  6
CONTINUOUS
 10
-3.4109791689
 20
19.8109791689
 11
-3.4109791689
 21
19.6109791689
  0
LINE
  5
35B
100
AcDbEntity
  8
DRAFT
100
AcDbLine
 62
7
  6
CONTINUOUS
 10
-3.4109791689
 20
-19.6109791689
 11
-3.4109791689
 21
-19.8109791689
  0
LINE
  5
35C
100
AcDbEntity
  8
ASSI
100
AcDbLine
 62
7
  6
CONTINUOUS
 10
-3.4109791689
 20
-19.6109791689
 11
-3.4109791689
 21
-19.8109791689
  0
LINE
  5
35D
100
AcDbEntity
  8
SMUSSO
100
AcDbLine
 62
7
  6
CONTINUOUS
 10
-0.0
 20
6.65
 11
0.5773502692
 21
7.2273502692
  0
LINE
  5
35E
100
AcDbEntity
  8
ASSI
100
AcDbLine
 62
7
  6
CONTINUOUS
 10
-0.0
 20
6.65
 11
0.5773502692
 21
7.2273502692
  0
LINE
  5
35F
100
AcDbEntity
  8
SMUSSO
100
AcDbLine
 62
7
  6
CONTINUOUS
 10
-7.0
 20
-1.65
 11
-7.5773502692
 21
-2.2273502692
  0
LINE
  5
360
100
AcDbEntity
  8
ASSI
100
AcDbLine
 62
7
  6
CONTINUOUS
 10
-7.0
 20
-1.65
 11
-7.5773502692
 21
-2.2273502692
  0
LINE
  5
361
100
AcDbEntity
  8
0
100
AcDbLine
 62
253
  6
CONTINUOUS
 10
7.1428571343
 20
9.3571428955
 11
8.0
 21
9.9285714626
  0
LINE
  5
362
100
AcDbEntity
  8
0
100
AcDbLine
 62
253
  6
CONTINUOUS
 10
4.25
 20
-5.0
 11
1.75
 21
-5.0
  0
LINE
  5
363
100
AcDbEntity
  8
0
100
AcDbLine
 62
253
  6
CONTINUOUS
 10
7.7142857015
 20
-4.9047617912
 11
6.2857142687
 21
-4.9047617912
  0
LINE
  5
364
100
AcDbEntity
  8
0
100
AcDbLine
 62
253
  6
CONTINUOUS
 10
6.2857142687
 20
-3.9047617912
 11
7.7142857015
 21
-3.9047617912
  0
LINE
  5
365
100
AcDbEntity
  8
0
100
AcDbLine
 62
7
  6
CONTINUOUS
 10
-7.0
 20
-3.512
 11
0.0
 21
-3.512
  0
LINE
  5
366
100
AcDbEntity
  8
SMUSSO
100
AcDbLine
 62
7
  6
CONTINUOUS
 10
-7.0
 20
-3.35
 11
0.0
 21
-3.35
  0
LINE
  5
367
100
AcDbEntity
  8
ASSI
100
AcDbLine
 62
7
  6
CONTINUOUS
 10
-7.0
 20
-3.35
 11
0.0
 21
-3.35
  0
LINE
  5
368
100
AcDbEntity
  8
SMUSSO
100
AcDbLine
 62
7
  6
CONTINUOUS
 10
0.0
 20
-6.65
 11
0.5773502692
 21
-7.2273502692
  0
LINE
  5
369
100
AcDbEntity
  8
ASSI
100
AcDbLine
 62
7
  6
CONTINUOUS
 10
0.0
 20
-6.65
 11
0.5773502692
 21
-7.2273502692
  0
LINE
  5
36A
100
AcDbEntity
  8
SMUSSO
100
AcDbLine
 62
7
  6
CONTINUOUS
 10
-7.0
 20
1.65
 11
-7.5773502692
 21
2.2273502692
  0
LINE
  5
36B
100
AcDbEntity
  8
ASSI
100
AcDbLine
 62
7
  6
CONTINUOUS
 10
-7.0
 20
1.65
 11
-7.5773502692
 21
2.2273502692
  0
LINE
  5
36C
100
AcDbEntity
  8
RACCORDO
100
AcDbLine
 62
7
  6
CONTINUOUS
 10
-3.0
 20
-21.0
 11
-3.0
 21
-22.3380392387
  0
LINE
  5
36D
100
AcDbEntity
  8
RACCORDO
100
AcDbLine
 62
7
  6
CONTINUOUS
 10
-3.0
 20
21.0
 11
-3.0
 21
22.3380392387
  0
LINE
  5
36E
100
AcDbEntity
  8
RACCORDO
100
AcDbLine
 62
7
  6
CONTINUOUS
 10
-2.5
 20
20.0532338935
 11
-2.5
 21
19.9
  0
LINE
  5
36F
100
AcDbEntity
  8
ASSI
100
AcDbLine
 62
7
  6
CONTINUOUS
 10
-2.5
 20
20.0532338935
 11
-2.5
 21
19.9
  0
LINE
  5
370
100
AcDbEntity
  8
RACCORDO
100
AcDbLine
 62
7
  6
CONTINUOUS
 10
-2.5
 20
-19.9
 11
-2.5
 21
-20.0532338935
  0
LINE
  5
371
100
AcDbEntity
  8
ASSI
100
AcDbLine
 62
7
  6
CONTINUOUS
 10
-2.5
 20
-19.9
 11
-2.5
 21
-20.0532338935
  0
LINE
  5
372
100
AcDbEntity
  8
RACCORDO
100
AcDbLine
 62
253
  6
CONTINUOUS
 10
-2.4979803239
 20
-20.0532338935
 11
-2.4979803239
 21
-19.8979803239
  0
LINE
  5
373
100
AcDbEntity
  8
ASSI
100
AcDbLine
 62
253
  6
CONTINUOUS
 10
-2.4979803239
 20
-20.0532338935
 11
-2.4979803239
 21
-19.8979803239
  0
LINE
  5
374
100
AcDbEntity
  8
RACCORDO
100
AcDbLine
 62
253
  6
CONTINUOUS
 10
-2.4979803239
 20
19.8979803239
 11
-2.4979803239
 21
20.0532338935
  0
LINE
  5
375
100
AcDbEntity
  8
ASSI
100
AcDbLine
 62
253
  6
CONTINUOUS
 10
-2.4979803239
 20
19.8979803239
 11
-2.4979803239
 21
20.0532338935
  0
LINE
  5
376
100
AcDbEntity
  8
0
100
AcDbLine
 62
7
  6
CONTINUOUS
 10
-1.978
 20
16.488
 11
-1.978
 21
13.488
  0
LINE
  5
377
100
AcDbEntity
  8
0
100
AcDbLine
 62
7
  6
CONTINUOUS
 10
-1.978
 20
11.488
 11
-1.978
 21
8.488
  0
LINE
  5
378
100
AcDbEntity
  8
0
100
AcDbLine
 62
7
  6
CONTINUOUS
 10
-1.978
 20
6.488
 11
-1.978
 21
3.488
  0
LINE
  5
379
100
AcDbEntity
  8
0
100
AcDbLine
 62
7
  6
CONTINUOUS
 10
-1.978
 20
1.488
 11
-1.978
 21
-1.512
  0
LINE
  5
37A
100
AcDbEntity
  8
0
100
AcDbLine
 62
7
  6
CONTINUOUS
 10
-1.978
 20
-3.512
 11
-1.978
 21
-6.512
  0
LINE
  5
37B
100
AcDbEntity
  8
0
100
AcDbLine
 62
7
  6
CONTINUOUS
 10
-1.978
 20
-8.512
 11
-1.978
 21
-11.512
  0
LINE
  5
37C
100
AcDbEntity
  8
RACCORDO
100
AcDbLine
 62
253
  6
CONTINUOUS
 10
-1.5981173983
 20
-20.0522359337
 11
-1.5981173983
 21
-19.8825449351
  0
LINE
  5
37D
100
AcDbEntity
  8
ASSI
100
AcDbLine
 62
253
  6
CONTINUOUS
 10
-1.5981173983
 20
-20.0522359337
 11
-1.5981173983
 21
-19.8825449351
  0
LINE
  5
37E
100
AcDbEntity
  8
RACCORDO
100
AcDbLine
 62
253
  6
CONTINUOUS
 10
-1.5981173983
 20
19.8825449351
 11
-1.5981173983
 21
20.0522359337
  0
LINE
  5
37F
100
AcDbEntity
  8
ASSI
100
AcDbLine
 62
253
  6
CONTINUOUS
 10
-1.5981173983
 20
19.8825449351
 11
-1.5981173983
 21
20.0522359337
  0
LINE
  5
380
100
AcDbEntity
  8
DRAFT
100
AcDbLine
 62
7
  6
CONTINUOUS
 10
-9.65
 20
-20.9
 11
-9.4946499221
 21
-20.4335707644
  0
LINE
  5
381
100
AcDbEntity
  8
RACCORDO
100
AcDbLine
 62
253
  6
CONTINUOUS
 10
-9.9952378169
 20
-19.1013831211
 11
-10.0850175454
 21
-19.3181305591
  0
LINE
  5
382
100
AcDbEntity
  8
ASSI
100
AcDbLine
 62
253
  6
CONTINUOUS
 10
-9.9952378169
 20
-19.1013831211
 11
-10.0850175454
 21
-19.3181305591
  0
LINE
  5
383
100
AcDbEntity
  8
DRAFT
100
AcDbLine
 62
7
  6
CONTINUOUS
 10
7.2261622403
 20
22.3126551668
 11
7.2587268678
 21
22.3912731322
  0
LINE
  5
384
100
AcDbEntity
  8
0
100
AcDbLine
 62
253
  6
CONTINUOUS
 10
8.0
 20
12.0714285374
 11
7.7142857015
 21
11.7857143879
  0
LINE
  5
385
100
AcDbEntity
  8
0
100
AcDbLine
 62
253
  6
CONTINUOUS
 10
6.0
 20
9.6428571939
 11
6.2857142687
 21
9.9285714626
  0
LINE
  5
386
100
AcDbEntity
  8
0
100
AcDbLine
 62
253
  6
CONTINUOUS
 10
11.0818939683
 20
-3.323396
 11
11.096191821
 21
-3.323396
  0
LINE
  5
387
100
AcDbEntity
  8
0
100
AcDbLine
 62
253
  6
CONTINUOUS
 10
11.0539971429
 20
-3.323396
 11
11.0734843588
 21
-3.323396
  0
LINE
  5
388
100
AcDbEntity
  8
ASSI
100
AcDbLine
 62
7
  6
CONTINUOUS
 10
9.35
 20
-2.9
 11
10.8724644676
 21
-2.9
  0
LINE
  5
389
100
AcDbEntity
  8
SMUSSO
100
AcDbLine
 62
7
  6
CONTINUOUS
 10
-7.5773502692
 20
-2.7726497308
 11
0.5773502692
 21
-2.7726497308
  0
LINE
  5
38A
100
AcDbEntity
  8
ASSI
100
AcDbLine
 62
7
  6
CONTINUOUS
 10
-7.5773502692
 20
-2.7726497308
 11
0.5773502692
 21
-2.7726497308
  0
LINE
  5
38B
100
AcDbEntity
  8
0
100
AcDbLine
 62
253
  6
CONTINUOUS
 10
11.1046014306
 20
-2.70079
 11
11.0539971429
 21
-2.70079
  0
LINE
  5
38C
100
AcDbEntity
  8
0
100
AcDbLine
 62
253
  6
CONTINUOUS
 10
8.5
 20
-2.5
 11
1.5
 21
-2.5
  0
LINE
  5
38D
100
AcDbEntity
  8
SMUSSO
100
AcDbLine
 62
7
  6
CONTINUOUS
 10
0.5773502692
 20
-2.2273502692
 11
-7.5773502692
 21
-2.2273502692
  0
LINE
  5
38E
100
AcDbEntity
  8
ASSI
100
AcDbLine
 62
7
  6
CONTINUOUS
 10
0.5773502692
 20
-2.2273502692
 11
-7.5773502692
 21
-2.2273502692
  0
LINE
  5
38F
100
AcDbEntity
  8
ASSI
100
AcDbLine
 62
7
  6
CONTINUOUS
 10
9.35
 20
-2.1
 11
10.8724644676
 21
-2.1
  0
LINE
  5
390
100
AcDbEntity
  8
SMUSSO
100
AcDbLine
 62
7
  6
CONTINUOUS
 10
0.0
 20
-1.65
 11
-7.0
 21
-1.65
  0
LINE
  5
391
100
AcDbEntity
  8
ASSI
100
AcDbLine
 62
7
  6
CONTINUOUS
 10
0.0
 20
-1.65
 11
-7.0
 21
-1.65
  0
LINE
  5
392
100
AcDbEntity
  8
RACCORDO
100
AcDbLine
 62
253
  6
CONTINUOUS
 10
-10.0850175454
 20
19.3181305591
 11
-9.9952378169
 21
19.1013831211
  0
LINE
  5
393
100
AcDbEntity
  8
ASSI
100
AcDbLine
 62
253
  6
CONTINUOUS
 10
-10.0850175454
 20
19.3181305591
 11
-9.9952378169
 21
19.1013831211
  0
LINE
  5
394
100
AcDbEntity
  8
DRAFT
100
AcDbLine
 62
7
  6
CONTINUOUS
 10
7.2261622403
 20
-22.3126551668
 11
7.2587268678
 21
-22.3912731322
  0
LINE
  5
395
100
AcDbEntity
  8
DRAFT
100
AcDbLine
 62
7
  6
CONTINUOUS
 10
-9.4946499221
 20
20.4335707644
 11
-9.65
 21
20.9
  0
LINE
  5
396
100
AcDbEntity
  8
SMUSSO
100
AcDbLine
 62
7
  6
CONTINUOUS
 10
-0.0
 20
16.65
 11
-0.0
 21
13.35
  0
LINE
  5
397
100
AcDbEntity
  8
ASSI
100
AcDbLine
 62
7
  6
CONTINUOUS
 10
-0.0
 20
16.65
 11
-0.0
 21
13.35
  0
LINE
  5
398
100
AcDbEntity
  8
SMUSSO
100
AcDbLine
 62
7
  6
CONTINUOUS
 10
-0.0
 20
11.65
 11
-0.0
 21
8.35
  0
LINE
  5
399
100
AcDbEntity
  8
ASSI
100
AcDbLine
 62
7
  6
CONTINUOUS
 10
-0.0
 20
11.65
 11
-0.0
 21
8.35
  0
LINE
  5
39A
100
AcDbEntity
  8
SMUSSO
100
AcDbLine
 62
7
  6
CONTINUOUS
 10
-0.0
 20
6.65
 11
-0.0
 21
3.35
  0
LINE
  5
39B
100
AcDbEntity
  8
ASSI
100
AcDbLine
 62
7
  6
CONTINUOUS
 10
-0.0
 20
6.65
 11
-0.0
 21
3.35
  0
LINE
  5
39C
100
AcDbEntity
  8
SMUSSO
100
AcDbLine
 62
7
  6
CONTINUOUS
 10
0.0
 20
1.65
 11
0.0
 21
-1.65
  0
LINE
  5
39D
100
AcDbEntity
  8
ASSI
100
AcDbLine
 62
7
  6
CONTINUOUS
 10
0.0
 20
1.65
 11
0.0
 21
-1.65
  0
LINE
  5
39E
100
AcDbEntity
  8
SMUSSO
100
AcDbLine
 62
7
  6
CONTINUOUS
 10
0.0
 20
-3.35
 11
0.0
 21
-6.65
  0
LINE
  5
39F
100
AcDbEntity
  8
ASSI
100
AcDbLine
 62
7
  6
CONTINUOUS
 10
0.0
 20
-3.35
 11
0.0
 21
-6.65
  0
LINE
  5
3A0
100
AcDbEntity
  8
SMUSSO
100
AcDbLine
 62
7
  6
CONTINUOUS
 10
0.0
 20
-8.35
 11
0.0
 21
-11.65
  0
LINE
  5
3A1
100
AcDbEntity
  8
ASSI
100
AcDbLine
 62
7
  6
CONTINUOUS
 10
0.0
 20
-8.35
 11
0.0
 21
-11.65
  0
LINE
  5
3A2
100
AcDbEntity
  8
RACCORDO
100
AcDbLine
 62
253
  6
CONTINUOUS
 10
-9.2882387315
 20
-19.3942317309
 11
-9.37801846
 21
-19.6109791689
  0
LINE
  5
3A3
100
AcDbEntity
  8
ASSI
100
AcDbLine
 62
253
  6
CONTINUOUS
 10
-9.2882387315
 20
-19.3942317309
 11
-9.37801846
 21
-19.6109791689
  0
LINE
  5
3A4
100
AcDbEntity
  8
SMUSSO
100
AcDbLine
 62
7
  6
CONTINUOUS
 10
-0.0
 20
1.65
 11
0.5773502692
 21
2.2273502692
  0
LINE
  5
3A5
100
AcDbEntity
  8
ASSI
100
AcDbLine
 62
7
  6
CONTINUOUS
 10
-0.0
 20
1.65
 11
0.5773502692
 21
2.2273502692
  0
LINE
  5
3A6
100
AcDbEntity
  8
SMUSSO
100
AcDbLine
 62
7
  6
CONTINUOUS
 10
-7.0
 20
-6.65
 11
-7.5773502692
 21
-7.2273502692
  0
LINE
  5
3A7
100
AcDbEntity
  8
ASSI
100
AcDbLine
 62
7
  6
CONTINUOUS
 10
-7.0
 20
-6.65
 11
-7.5773502692
 21
-7.2273502692
  0
LINE
  5
3A8
100
AcDbEntity
  8
0
100
AcDbLine
 62
7
  6
CONTINUOUS
 10
0.0
 20
-1.512
 11
-7.0
 21
-1.512
  0
LINE
  5
3A9
100
AcDbEntity
  8
0
100
AcDbLine
 62
253
  6
CONTINUOUS
 10
6.0
 20
-0.1428571939
 11
8.0
 21
-0.1428571939
  0
LINE
  5
3AA
100
AcDbEntity
  8
0
100
AcDbLine
 62
253
  6
CONTINUOUS
 10
3.0
 20
-0.0
 11
1.25
 21
-0.0
  0
LINE
  5
3AB
100
AcDbEntity
  8
SMUSSO
100
AcDbLine
 62
7
  6
CONTINUOUS
 10
0.0
 20
-1.65
 11
0.5773502692
 21
-2.2273502692
  0
LINE
  5
3AC
100
AcDbEntity
  8
ASSI
100
AcDbLine
 62
7
  6
CONTINUOUS
 10
0.0
 20
-1.65
 11
0.5773502692
 21
-2.2273502692
  0
LINE
  5
3AD
100
AcDbEntity
  8
SMUSSO
100
AcDbLine
 62
7
  6
CONTINUOUS
 10
-7.0
 20
6.65
 11
-7.5773502692
 21
7.2273502692
  0
LINE
  5
3AE
100
AcDbEntity
  8
ASSI
100
AcDbLine
 62
7
  6
CONTINUOUS
 10
-7.0
 20
6.65
 11
-7.5773502692
 21
7.2273502692
  0
LINE
  5
3AF
100
AcDbEntity
  8
RACCORDO
100
AcDbLine
 62
253
  6
CONTINUOUS
 10
-9.37801846
 20
19.6109791689
 11
-9.2882387315
 21
19.3942317309
  0
LINE
  5
3B0
100
AcDbEntity
  8
ASSI
100
AcDbLine
 62
253
  6
CONTINUOUS
 10
-9.37801846
 20
19.6109791689
 11
-9.2882387315
 21
19.3942317309
  0
LINE
  5
3B1
100
AcDbEntity
  8
SMUSSO
100
AcDbLine
 62
7
  6
CONTINUOUS
 10
0.5773502692
 20
17.2273502692
 11
0.5773502692
 21
12.7726497308
  0
LINE
  5
3B2
100
AcDbEntity
  8
ASSI
100
AcDbLine
 62
7
  6
CONTINUOUS
 10
0.5773502692
 20
17.2273502692
 11
0.5773502692
 21
12.7726497308
  0
LINE
  5
3B3
100
AcDbEntity
  8
SMUSSO
100
AcDbLine
 62
7
  6
CONTINUOUS
 10
0.5773502692
 20
12.2273502692
 11
0.5773502692
 21
7.7726497308
  0
LINE
  5
3B4
100
AcDbEntity
  8
ASSI
100
AcDbLine
 62
7
  6
CONTINUOUS
 10
0.5773502692
 20
12.2273502692
 11
0.5773502692
 21
7.7726497308
  0
LINE
  5
3B5
100
AcDbEntity
  8
SMUSSO
100
AcDbLine
 62
7
  6
CONTINUOUS
 10
0.5773502692
 20
7.2273502692
 11
0.5773502692
 21
2.7726497308
  0
LINE
  5
3B6
100
AcDbEntity
  8
ASSI
100
AcDbLine
 62
7
  6
CONTINUOUS
 10
0.5773502692
 20
7.2273502692
 11
0.5773502692
 21
2.7726497308
  0
LINE
  5
3B7
100
AcDbEntity
  8
SMUSSO
100
AcDbLine
 62
7
  6
CONTINUOUS
 10
0.5773502692
 20
2.2273502692
 11
0.5773502692
 21
-2.2273502692
  0
LINE
  5
3B8
100
AcDbEntity
  8
ASSI
100
AcDbLine
 62
7
  6
CONTINUOUS
 10
0.5773502692
 20
2.2273502692
 11
0.5773502692
 21
-2.2273502692
  0
LINE
  5
3B9
100
AcDbEntity
  8
SMUSSO
100
AcDbLine
 62
7
  6
CONTINUOUS
 10
0.5773502692
 20
-2.7726497308
 11
0.5773502692
 21
-7.2273502692
  0
LINE
  5
3BA
100
AcDbEntity
  8
ASSI
100
AcDbLine
 62
7
  6
CONTINUOUS
 10
0.5773502692
 20
-2.7726497308
 11
0.5773502692
 21
-7.2273502692
  0
LINE
  5
3BB
100
AcDbEntity
  8
SMUSSO
100
AcDbLine
 62
7
  6
CONTINUOUS
 10
0.5773502692
 20
-7.7726497308
 11
0.5773502692
 21
-12.2273502692
  0
LINE
  5
3BC
100
AcDbEntity
  8
ASSI
100
AcDbLine
 62
7
  6
CONTINUOUS
 10
0.5773502692
 20
-7.7726497308
 11
0.5773502692
 21
-12.2273502692
  0
LINE
  5
3BD
100
AcDbEntity
  8
RACCORDO
100
AcDbLine
 62
253
  6
CONTINUOUS
 10
1.5981173983
 20
20.0522359337
 11
1.5981173983
 21
19.8825449351
  0
LINE
  5
3BE
100
AcDbEntity
  8
ASSI
100
AcDbLine
 62
253
  6
CONTINUOUS
 10
1.5981173983
 20
20.0522359337
 11
1.5981173983
 21
19.8825449351
  0
LINE
  5
3BF
100
AcDbEntity
  8
RACCORDO
100
AcDbLine
 62
253
  6
CONTINUOUS
 10
1.5981173983
 20
-19.8825449351
 11
1.5981173983
 21
-20.0522359337
  0
LINE
  5
3C0
100
AcDbEntity
  8
ASSI
100
AcDbLine
 62
253
  6
CONTINUOUS
 10
1.5981173983
 20
-19.8825449351
 11
1.5981173983
 21
-20.0522359337
  0
LINE
  5
3C1
100
AcDbEntity
  8
RACCORDO
100
AcDbLine
 62
253
  6
CONTINUOUS
 10
9.2882387315
 20
19.3942317309
 11
9.37801846
 21
19.6109791689
  0
LINE
  5
3C2
100
AcDbEntity
  8
ASSI
100
AcDbLine
 62
253
  6
CONTINUOUS
 10
9.2882387315
 20
19.3942317309
 11
9.37801846
 21
19.6109791689
  0
LINE
  5
3C3
100
AcDbEntity
  8
DRAFT
100
AcDbLine
 62
7
  6
CONTINUOUS
 10
-7.2261622403
 20
-22.3126551668
 11
-7.2587268678
 21
-22.3912731322
  0
LINE
  5
3C4
100
AcDbEntity
  8
RACCORDO
100
AcDbLine
 62
253
  6
CONTINUOUS
 10
9.9952378169
 20
19.1013831211
 11
10.0850175454
 21
19.3181305591
  0
LINE
  5
3C5
100
AcDbEntity
  8
ASSI
100
AcDbLine
 62
253
  6
CONTINUOUS
 10
9.9952378169
 20
19.1013831211
 11
10.0850175454
 21
19.3181305591
  0
LINE
  5
3C6
100
AcDbEntity
  8
0
100
AcDbLine
 62
253
  6
CONTINUOUS
 10
8.0
 20
1.1428570747
 11
6.0
 21
1.1428570747
  0
LINE
  5
3C7
100
AcDbEntity
  8
0
100
AcDbLine
 62
7
  6
CONTINUOUS
 10
-7.0
 20
1.488
 11
0.0
 21
1.488
  0
LINE
  5
3C8
100
AcDbEntity
  8
0
100
AcDbLine
 62
253
  6
CONTINUOUS
 10
11.0148456478
 20
1.5714292526
 11
10.9998864416
 21
1.5714292526
  0
LINE
  5
3C9
100
AcDbEntity
  8
SMUSSO
100
AcDbLine
 62
7
  6
CONTINUOUS
 10
-7.0
 20
1.65
 11
-0.0
 21
1.65
  0
LINE
  5
3CA
100
AcDbEntity
  8
ASSI
100
AcDbLine
 62
7
  6
CONTINUOUS
 10
-7.0
 20
1.65
 11
-0.0
 21
1.65
  0
LINE
  5
3CB
100
AcDbEntity
  8
0
100
AcDbLine
 62
253
  6
CONTINUOUS
 10
7.7142857015
 20
-7.1428573132
 11
8.0
 21
-7.4285714626
  0
LINE
  5
3CC
100
AcDbEntity
  8
0
100
AcDbLine
 62
253
  6
CONTINUOUS
 10
6.2857142687
 20
-4.9047617912
 11
6.0
 21
-4.6190476418
  0
LINE
  5
3CD
100
AcDbEntity
  8
RACCORDO
100
AcDbLine
 62
253
  6
CONTINUOUS
 10
9.37801846
 20
-19.6109791689
 11
9.2882387315
 21
-19.3942317309
  0
LINE
  5
3CE
100
AcDbEntity
  8
ASSI
100
AcDbLine
 62
253
  6
CONTINUOUS
 10
9.37801846
 20
-19.6109791689
 11
9.2882387315
 21
-19.3942317309
  0
LINE
  5
3CF
100
AcDbEntity
  8
DRAFT
100
AcDbLine
 62
7
  6
CONTINUOUS
 10
-7.2261622403
 20
22.3126551668
 11
-7.2587268678
 21
22.3912731322
  0
LINE
  5
3D0
100
AcDbEntity
  8
RACCORDO
100
AcDbLine
 62
253
  6
CONTINUOUS
 10
10.0850175454
 20
-19.3181305591
 11
9.9952378169
 21
-19.1013831211
  0
LINE
  5
3D1
100
AcDbEntity
  8
ASSI
100
AcDbLine
 62
253
  6
CONTINUOUS
 10
10.0850175454
 20
-19.3181305591
 11
9.9952378169
 21
-19.1013831211
  0
LINE
  5
3D2
100
AcDbEntity
  8
RACCORDO
100
AcDbLine
 62
253
  6
CONTINUOUS
 10
2.4979803239
 20
20.0532338935
 11
2.4979803239
 21
19.8979803239
  0
LINE
  5
3D3
100
AcDbEntity
  8
ASSI
100
AcDbLine
 62
253
  6
CONTINUOUS
 10
2.4979803239
 20
20.0532338935
 11
2.4979803239
 21
19.8979803239
  0
LINE
  5
3D4
100
AcDbEntity
  8
RACCORDO
100
AcDbLine
 62
253
  6
CONTINUOUS
 10
2.4979803239
 20
-19.8979803239
 11
2.4979803239
 21
-20.0532338935
  0
LINE
  5
3D5
100
AcDbEntity
  8
ASSI
100
AcDbLine
 62
253
  6
CONTINUOUS
 10
2.4979803239
 20
-19.8979803239
 11
2.4979803239
 21
-20.0532338935
  0
LINE
  5
3D6
100
AcDbEntity
  8
RACCORDO
100
AcDbLine
 62
7
  6
CONTINUOUS
 10
2.5
 20
20.0532338935
 11
2.5
 21
19.9
  0
LINE
  5
3D7
100
AcDbEntity
  8
ASSI
100
AcDbLine
 62
7
  6
CONTINUOUS
 10
2.5
 20
20.0532338935
 11
2.5
 21
19.9
  0
LINE
  5
3D8
100
AcDbEntity
  8
RACCORDO
100
AcDbLine
 62
7
  6
CONTINUOUS
 10
2.5
 20
-19.9
 11
2.5
 21
-20.0532338935
  0
LINE
  5
3D9
100
AcDbEntity
  8
ASSI
100
AcDbLine
 62
7
  6
CONTINUOUS
 10
2.5
 20
-19.9
 11
2.5
 21
-20.0532338935
  0
LINE
  5
3DA
100
AcDbEntity
  8
0
100
AcDbLine
 62
253
  6
CONTINUOUS
 10
3.0
 20
16.75
 11
3.0
 21
13.25
  0
LINE
  5
3DB
100
AcDbEntity
  8
0
100
AcDbLine
 62
253
  6
CONTINUOUS
 10
3.0
 20
11.25
 11
3.0
 21
8.75
  0
LINE
  5
3DC
100
AcDbEntity
  8
0
100
AcDbLine
 62
253
  6
CONTINUOUS
 10
3.0
 20
6.25
 11
3.0
 21
3.75
  0
LINE
  5
3DD
100
AcDbEntity
  8
RACCORDO
100
AcDbLine
 62
7
  6
CONTINUOUS
 10
3.0
 20
-21.0
 11
3.0
 21
-22.3380392387
  0
LINE
  5
3DE
100
AcDbEntity
  8
0
100
AcDbLine
 62
253
  6
CONTINUOUS
 10
3.0
 20
-11.75
 11
3.0
 21
-8.25
  0
LINE
  5
3DF
100
AcDbEntity
  8
0
100
AcDbLine
 62
253
  6
CONTINUOUS
 10
3.0
 20
-6.25
 11
3.0
 21
-3.75
  0
LINE
  5
3E0
100
AcDbEntity
  8
0
100
AcDbLine
 62
253
  6
CONTINUOUS
 10
3.0
 20
-1.75
 11
3.0
 21
1.75
  0
LINE
  5
3E1
100
AcDbEntity
  8
RACCORDO
100
AcDbLine
 62
7
  6
CONTINUOUS
 10
3.0
 20
21.0
 11
3.0
 21
22.3380392387
  0
LINE
  5
3E2
100
AcDbEntity
  8
DRAFT
100
AcDbLine
 62
7
  6
CONTINUOUS
 10
3.4109791689
 20
19.8109791689
 11
3.4109791689
 21
19.6109791689
  0
LINE
  5
3E3
100
AcDbEntity
  8
ASSI
100
AcDbLine
 62
7
  6
CONTINUOUS
 10
3.4109791689
 20
19.8109791689
 11
3.4109791689
 21
19.6109791689
  0
LINE
  5
3E4
100
AcDbEntity
  8
DRAFT
100
AcDbLine
 62
7
  6
CONTINUOUS
 10
3.4109791689
 20
-19.6109791689
 11
3.4109791689
 21
-19.8109791689
  0
LINE
  5
3E5
100
AcDbEntity
  8
ASSI
100
AcDbLine
 62
7
  6
CONTINUOUS
 10
3.4109791689
 20
-19.6109791689
 11
3.4109791689
 21
-19.8109791689
  0
LINE
  5
3E6
100
AcDbEntity
  8
DRAFT
100
AcDbLine
 62
7
  6
CONTINUOUS
 10
3.5
 20
19.9
 11
3.5
 21
19.7
  0
LINE
  5
3E7
100
AcDbEntity
  8
ASSI
100
AcDbLine
 62
7
  6
CONTINUOUS
 10
3.5
 20
19.9
 11
3.5
 21
19.7
  0
LINE
  5
3E8
100
AcDbEntity
  8
DRAFT
100
AcDbLine
 62
7
  6
CONTINUOUS
 10
3.5
 20
-19.7
 11
3.5
 21
-19.9
  0
LINE
  5
3E9
100
AcDbEntity
  8
ASSI
100
AcDbLine
 62
7
  6
CONTINUOUS
 10
3.5
 20
-19.7
 11
3.5
 21
-19.9
  0
LINE
  5
3EA
100
AcDbEntity
  8
DRAFT
100
AcDbLine
 62
7
  6
CONTINUOUS
 10
3.5
 20
-20.0
 11
3.5
 21
-20.0445070257
  0
LINE
  5
3EB
100
AcDbEntity
  8
ASSI
100
AcDbLine
 62
7
  6
CONTINUOUS
 10
3.5
 20
-22.3339198952
 11
3.5
 21
-23.7941821702
  0
LINE
  5
3EC
100
AcDbEntity
  8
DRAFT
100
AcDbLine
 62
7
  6
CONTINUOUS
 10
3.5
 20
20.0
 11
3.5
 21
20.0445070257
  0
LINE
  5
3ED
100
AcDbEntity
  8
ASSI
100
AcDbLine
 62
7
  6
CONTINUOUS
 10
3.5
 20
22.3339198952
 11
3.5
 21
23.7941821702
  0
LINE
  5
3EE
100
AcDbEntity
  8
0
100
AcDbLine
 62
253
  6
CONTINUOUS
 10
3.75
 20
16.581139
 11
3.75
 21
13.418861
  0
LINE
  5
3EF
100
AcDbEntity
  8
0
100
AcDbLine
 62
253
  6
CONTINUOUS
 10
3.75
 20
-11.581139
 11
3.75
 21
-8.418861
  0
LINE
  5
3F0
100
AcDbEntity
  8
0
100
AcDbLine
 62
253
  6
CONTINUOUS
 10
3.75
 20
-1.581139
 11
3.75
 21
1.581139
  0
LINE
  5
3F1
100
AcDbEntity
  8
DRAFT
100
AcDbLine
 62
7
  6
CONTINUOUS
 10
9.4946499221
 20
20.4335707644
 11
9.65
 21
20.9
  0
LINE
  5
3F2
100
AcDbEntity
  8
SMUSSO
100
AcDbLine
 62
7
  6
CONTINUOUS
 10
0.0
 20
-3.35
 11
0.5773502692
 21
-2.7726497308
  0
LINE
  5
3F3
100
AcDbEntity
  8
ASSI
100
AcDbLine
 62
7
  6
CONTINUOUS
 10
0.0
 20
-3.35
 11
0.5773502692
 21
-2.7726497308
  0
LINE
  5
3F4
100
AcDbEntity
  8
SMUSSO
100
AcDbLine
 62
7
  6
CONTINUOUS
 10
-7.0
 20
-11.65
 11
-7.5773502692
 21
-12.2273502692
  0
LINE
  5
3F5
100
AcDbEntity
  8
ASSI
100
AcDbLine
 62
7
  6
CONTINUOUS
 10
-7.0
 20
-11.65
 11
-7.5773502692
 21
-12.2273502692
  0
LINE
  5
3F6
100
AcDbEntity
  8
ASSI
100
AcDbLine
 62
7
  6
CONTINUOUS
 10
9.35
 20
2.1
 11
10.8724644676
 21
2.1
  0
LINE
  5
3F7
100
AcDbEntity
  8
SMUSSO
100
AcDbLine
 62
7
  6
CONTINUOUS
 10
-7.5773502692
 20
2.2273502692
 11
0.5773502692
 21
2.2273502692
  0
LINE
  5
3F8
100
AcDbEntity
  8
ASSI
100
AcDbLine
 62
7
  6
CONTINUOUS
 10
-7.5773502692
 20
2.2273502692
 11
0.5773502692
 21
2.2273502692
  0
LINE
  5
3F9
100
AcDbEntity
  8
0
100
AcDbLine
 62
253
  6
CONTINUOUS
 10
8.0
 20
2.5714284182
 11
6.0
 21
2.5714284182
  0
LINE
  5
3FA
100
AcDbEntity
  8
SMUSSO
100
AcDbLine
 62
7
  6
CONTINUOUS
 10
0.5773502692
 20
2.7726497308
 11
-7.5773502692
 21
2.7726497308
  0
LINE
  5
3FB
100
AcDbEntity
  8
ASSI
100
AcDbLine
 62
7
  6
CONTINUOUS
 10
0.5773502692
 20
2.7726497308
 11
-7.5773502692
 21
2.7726497308
  0
LINE
  5
3FC
100
AcDbEntity
  8
ASSI
100
AcDbLine
 62
7
  6
CONTINUOUS
 10
9.35
 20
2.9
 11
10.8724644676
 21
2.9
  0
LINE
  5
3FD
100
AcDbEntity
  8
0
100
AcDbLine
 62
253
  6
CONTINUOUS
 10
11.0260650513
 20
2.9642853737
 11
10.9998864416
 21
2.9642853737
  0
LINE
  5
3FE
100
AcDbEntity
  8
SMUSSO
100
AcDbLine
 62
7
  6
CONTINUOUS
 10
-0.0
 20
3.35
 11
-7.0
 21
3.35
  0
LINE
  5
3FF
100
AcDbEntity
  8
ASSI
100
AcDbLine
 62
7
  6
CONTINUOUS
 10
-0.0
 20
3.35
 11
-7.0
 21
3.35
  0
LINE
  5
400
100
AcDbEntity
  8
0
100
AcDbLine
 62
7
  6
CONTINUOUS
 10
-0.0
 20
3.488
 11
-7.0
 21
3.488
  0
LINE
  5
401
100
AcDbEntity
  8
SMUSSO
100
AcDbLine
 62
7
  6
CONTINUOUS
 10
-0.0
 20
3.35
 11
0.5773502692
 21
2.7726497308
  0
LINE
  5
402
100
AcDbEntity
  8
ASSI
100
AcDbLine
 62
7
  6
CONTINUOUS
 10
-0.0
 20
3.35
 11
0.5773502692
 21
2.7726497308
  0
LINE
  5
403
100
AcDbEntity
  8
0
100
AcDbLine
 62
253
  6
CONTINUOUS
 10
7.7142857015
 20
-3.9047617912
 11
8.0
 21
-4.1904764175
  0
LINE
  5
404
100
AcDbEntity
  8
SMUSSO
100
AcDbLine
 62
7
  6
CONTINUOUS
 10
-7.0
 20
11.65
 11
-7.5773502692
 21
12.2273502692
  0
LINE
  5
405
100
AcDbEntity
  8
ASSI
100
AcDbLine
 62
7
  6
CONTINUOUS
 10
-7.0
 20
11.65
 11
-7.5773502692
 21
12.2273502692
  0
LINE
  5
406
100
AcDbEntity
  8
DRAFT
100
AcDbLine
 62
7
  6
CONTINUOUS
 10
9.65
 20
-20.9
 11
9.4946499221
 21
-20.4335707644
  0
LINE
  5
407
100
AcDbEntity
  8
ASSI
100
AcDbLine
 62
253
  6
CONTINUOUS
 10
4.3559327327
 20
23.7507734247
 11
4.3559327327
 21
22.3338981669
  0
LINE
  5
408
100
AcDbEntity
  8
ASSI
100
AcDbLine
 62
253
  6
CONTINUOUS
 10
4.3559327327
 20
-22.3338981669
 11
4.3559327327
 21
-23.7511641713
  0
LINE
  5
409
100
AcDbEntity
  8
DRAFT
100
AcDbLine
 62
7
  6
CONTINUOUS
 10
4.4
 20
-23.8
 11
4.4
 21
-22.4
  0
LINE
  5
40A
100
AcDbEntity
  8
DRAFT
100
AcDbLine
 62
7
  6
CONTINUOUS
 10
4.4
 20
22.4
 11
4.4
 21
23.8
  0
LINE
  5
40B
100
AcDbEntity
  8
0
100
AcDbLine
 62
253
  6
CONTINUOUS
 10
4.5
 20
15.901388
 11
4.5
 21
14.098612
  0
LINE
  5
40C
100
AcDbEntity
  8
0
100
AcDbLine
 62
253
  6
CONTINUOUS
 10
4.5
 20
-10.901388
 11
4.5
 21
-9.098612
  0
LINE
  5
40D
100
AcDbEntity
  8
0
100
AcDbLine
 62
253
  6
CONTINUOUS
 10
4.5
 20
-0.901388
 11
4.5
 21
0.901388
  0
LINE
  5
40E
100
AcDbEntity
  8
0
100
AcDbLine
 62
253
  6
CONTINUOUS
 10
8.0
 20
4.5714286566
 11
6.0
 21
4.5714286566
  0
LINE
  5
40F
100
AcDbEntity
  8
0
100
AcDbLine
 62
253
  6
CONTINUOUS
 10
4.25
 20
5.0
 11
1.75
 21
5.0
  0
LINE
  5
410
100
AcDbEntity
  8
0
100
AcDbLine
 62
253
  6
CONTINUOUS
 10
10.9998864416
 20
5.1071429253
 11
11.0260650513
 21
5.1071429253
  0
LINE
  5
411
100
AcDbEntity
  8
INCISIONI
100
AcDbLine
 62
253
  6
CONTINUOUS
 10
11.0777556047
 20
5.30544429
 11
11.0780545961
 21
5.30544429
  0
LINE
  5
412
100
AcDbEntity
  8
0
100
AcDbLine
 62
253
  6
CONTINUOUS
 10
6.0
 20
-8.1428573132
 11
6.0
 21
-7.4285714626
  0
LINE
  5
413
100
AcDbEntity
  8
0
100
AcDbLine
 62
253
  6
CONTINUOUS
 10
6.0
 20
-6.3333334923
 11
6.0
 21
-5.476190567
  0
LINE
  5
414
100
AcDbEntity
  8
0
100
AcDbLine
 62
253
  6
CONTINUOUS
 10
6.0
 20
-4.6190476418
 11
6.0
 21
-4.1904764175
  0
LINE
  5
415
100
AcDbEntity
  8
0
100
AcDbLine
 62
253
  6
CONTINUOUS
 10
6.0
 20
1.1428570747
 11
6.0
 21
1.9999998808
  0
LINE
  5
416
100
AcDbEntity
  8
0
100
AcDbLine
 62
253
  6
CONTINUOUS
 10
6.0
 20
2.5714284182
 11
6.0
 21
3.4285713434
  0
LINE
  5
417
100
AcDbEntity
  8
0
100
AcDbLine
 62
253
  6
CONTINUOUS
 10
6.0
 20
3.9999998808
 11
6.0
 21
5.1428569555
  0
LINE
  5
418
100
AcDbEntity
  8
0
100
AcDbLine
 62
253
  6
CONTINUOUS
 10
6.0
 20
8.9285714626
 11
6.0
 21
9.6428571939
  0
LINE
  5
419
100
AcDbEntity
  8
0
100
AcDbLine
 62
253
  6
CONTINUOUS
 10
6.0
 20
12.0714285374
 11
6.0
 21
12.7857143879
  0
LINE
  5
41A
100
AcDbEntity
  8
0
100
AcDbLine
 62
253
  6
CONTINUOUS
 10
6.0
 20
14.9285714626
 11
6.0
 21
16.0714285374
  0
LINE
  5
41B
100
AcDbEntity
  8
DRAFT
100
AcDbLine
 62
7
  6
CONTINUOUS
 10
6.2482213147
 20
-19.9223308767
 11
6.2482213147
 21
-19.7
  0
LINE
  5
41C
100
AcDbEntity
  8
DRAFT
100
AcDbLine
 62
7
  6
CONTINUOUS
 10
6.2482213147
 20
19.7
 11
6.2482213147
 21
19.9223308767
  0
LINE
  5
41D
100
AcDbEntity
  8
RACCORDO
100
AcDbLine
 62
7
  6
CONTINUOUS
 10
6.3581782981
 20
20.5829242832
 11
6.3581782981
 21
19.9570181168
  0
LINE
  5
41E
100
AcDbEntity
  8
RACCORDO
100
AcDbLine
 62
7
  6
CONTINUOUS
 10
6.3581782981
 20
-19.9570181168
 11
6.3581782981
 21
-20.5829242832
  0
LINE
  5
41F
100
AcDbEntity
  8
0
100
AcDbLine
 62
253
  6
CONTINUOUS
 10
6.8571428061
 20
3.4285713434
 11
6.8571428061
 21
2.5714284182
  0
LINE
  5
420
100
AcDbEntity
  8
0
100
AcDbLine
 62
253
  6
CONTINUOUS
 10
6.8571428061
 20
1.7142856121
 11
6.8571428061
 21
1.1428570747
  0
LINE
  5
421
100
AcDbEntity
  8
0
100
AcDbLine
 62
253
  6
CONTINUOUS
 10
6.8571428061
 20
-5.7619047165
 11
6.8571428061
 21
-6.3333334923
  0
LINE
  5
422
100
AcDbEntity
  8
0
100
AcDbLine
 62
253
  6
CONTINUOUS
 10
6.8571428061
 20
12.3571429253
 11
6.8571428061
 21
12.7857143879
  0
LINE
  5
423
100
AcDbEntity
  8
0
100
AcDbLine
 62
253
  6
CONTINUOUS
 10
6.8571428061
 20
13.3571426868
 11
6.8571428061
 21
14.3571426868
  0
LINE
  5
424
100
AcDbEntity
  8
0
100
AcDbLine
 62
253
  6
CONTINUOUS
 10
7.1428571343
 20
9.6428571939
 11
7.1428571343
 21
8.9285714626
  0
LINE
  5
425
100
AcDbEntity
  8
DRAFT
100
AcDbLine
 62
7
  6
CONTINUOUS
 10
7.2418217019
 20
-20.9872686779
 11
7.2418217019
 21
-19.9570181168
  0
LINE
  5
426
100
AcDbEntity
  8
DRAFT
100
AcDbLine
 62
7
  6
CONTINUOUS
 10
7.2418217019
 20
19.9570181168
 11
7.2418217019
 21
20.9872686779
  0
LINE
  5
427
100
AcDbEntity
  8
DRAFT
100
AcDbLine
 62
7
  6
CONTINUOUS
 10
7.3517786853
 20
20.4335707644
 11
7.3517786853
 21
19.7
  0
LINE
  5
428
100
AcDbEntity
  8
DRAFT
100
AcDbLine
 62
7
  6
CONTINUOUS
 10
7.3517786853
 20
-20.4335707644
 11
7.3517786853
 21
-19.7
  0
LINE
  5
429
100
AcDbEntity
  8
DRAFT
100
AcDbLine
 62
7
  6
CONTINUOUS
 10
7.4
 20
20.85
 11
7.4
 21
19.7
  0
LINE
  5
42A
100
AcDbEntity
  8
ASSI
100
AcDbLine
 62
7
  6
CONTINUOUS
 10
7.4
 20
20.85
 11
7.4
 21
19.7
  0
LINE
  5
42B
100
AcDbEntity
  8
DRAFT
100
AcDbLine
 62
7
  6
CONTINUOUS
 10
7.4
 20
-19.7
 11
7.4
 21
-20.85
  0
LINE
  5
42C
100
AcDbEntity
  8
ASSI
100
AcDbLine
 62
7
  6
CONTINUOUS
 10
7.4
 20
-19.7
 11
7.4
 21
-20.85
  0
LINE
  5
42D
100
AcDbEntity
  8
RACCORDO
100
AcDbLine
 62
7
  6
CONTINUOUS
 10
-6.355294768
 20
-20.0829433217
 11
-6.2482213147
 21
-19.9223308767
  0
LINE
  5
42E
100
AcDbEntity
  8
SMUSSO
100
AcDbLine
 62
7
  6
CONTINUOUS
 10
0.0
 20
-8.35
 11
0.5773502692
 21
-7.7726497308
  0
LINE
  5
42F
100
AcDbEntity
  8
ASSI
100
AcDbLine
 62
7
  6
CONTINUOUS
 10
0.0
 20
-8.35
 11
0.5773502692
 21
-7.7726497308
  0
LINE
  5
430
100
AcDbEntity
  8
RACCORDO
100
AcDbLine
 62
253
  6
CONTINUOUS
 10
-9.4660056078
 20
-18.2166171594
 11
-10.1730046932
 21
-18.9236162448
  0
LINE
  5
431
100
AcDbEntity
  8
ASSI
100
AcDbLine
 62
253
  6
CONTINUOUS
 10
-9.4660056078
 20
-18.2166171594
 11
-10.1730046932
 21
-18.9236162448
  0
LINE
  5
432
100
AcDbEntity
  8
RACCORDO
100
AcDbLine
 62
253
  6
CONTINUOUS
 10
-9.2882387315
 20
-18.3943840357
 11
-9.9952378169
 21
-19.1013831211
  0
LINE
  5
433
100
AcDbEntity
  8
ASSI
100
AcDbLine
 62
253
  6
CONTINUOUS
 10
-9.2882387315
 20
-18.3943840357
 11
-9.9952378169
 21
-19.1013831211
  0
LINE
  5
434
100
AcDbEntity
  8
0
100
AcDbLine
 62
253
  6
CONTINUOUS
 10
6.0
 20
-4.1904764175
 11
6.2857142687
 21
-3.9047617912
  0
LINE
  5
435
100
AcDbEntity
  8
0
100
AcDbLine
 62
253
  6
CONTINUOUS
 10
10.9998864416
 20
6.2142858505
 11
11.0260650513
 21
6.2142858505
  0
LINE
  5
436
100
AcDbEntity
  8
INCISIONI
100
AcDbLine
 62
253
  6
CONTINUOUS
 10
11.0541368045
 20
6.2587313832
 11
11.0739381528
 21
6.2587313832
  0
LINE
  5
437
100
AcDbEntity
  8
INCISIONI
100
AcDbLine
 62
253
  6
CONTINUOUS
 10
11.0822249185
 20
6.2788012718
 11
11.0961151164
 21
6.2788012718
  0
LINE
  5
438
100
AcDbEntity
  8
0
100
AcDbLine
 62
7
  6
CONTINUOUS
 10
-7.0
 20
6.488
 11
-0.0
 21
6.488
  0
LINE
  5
439
100
AcDbEntity
  8
SMUSSO
100
AcDbLine
 62
7
  6
CONTINUOUS
 10
-7.0
 20
6.65
 11
-0.0
 21
6.65
  0
LINE
  5
43A
100
AcDbEntity
  8
ASSI
100
AcDbLine
 62
7
  6
CONTINUOUS
 10
-7.0
 20
6.65
 11
-0.0
 21
6.65
  0
LINE
  5
43B
100
AcDbEntity
  8
INCISIONI
100
AcDbLine
 62
253
  6
CONTINUOUS
 10
11.1041438693
 20
6.8615673444
 11
11.0541368045
 21
6.8615673444
  0
LINE
  5
43C
100
AcDbEntity
  8
ASSI
100
AcDbLine
 62
7
  6
CONTINUOUS
 10
9.35
 20
7.1
 11
10.8724644676
 21
7.1
  0
LINE
  5
43D
100
AcDbEntity
  8
SMUSSO
100
AcDbLine
 62
7
  6
CONTINUOUS
 10
-7.5773502692
 20
7.2273502692
 11
0.5773502692
 21
7.2273502692
  0
LINE
  5
43E
100
AcDbEntity
  8
ASSI
100
AcDbLine
 62
7
  6
CONTINUOUS
 10
-7.5773502692
 20
7.2273502692
 11
0.5773502692
 21
7.2273502692
  0
LINE
  5
43F
100
AcDbEntity
  8
SMUSSO
100
AcDbLine
 62
7
  6
CONTINUOUS
 10
-0.0
 20
8.35
 11
0.5773502692
 21
7.7726497308
  0
LINE
  5
440
100
AcDbEntity
  8
ASSI
100
AcDbLine
 62
7
  6
CONTINUOUS
 10
-0.0
 20
8.35
 11
0.5773502692
 21
7.7726497308
  0
LINE
  5
441
100
AcDbEntity
  8
RACCORDO
100
AcDbLine
 62
253
  6
CONTINUOUS
 10
-9.4660056078
 20
18.2166171594
 11
-10.1730046932
 21
18.9236162448
  0
LINE
  5
442
100
AcDbEntity
  8
ASSI
100
AcDbLine
 62
253
  6
CONTINUOUS
 10
-9.4660056078
 20
18.2166171594
 11
-10.1730046932
 21
18.9236162448
  0
LINE
  5
443
100
AcDbEntity
  8
RACCORDO
100
AcDbLine
 62
253
  6
CONTINUOUS
 10
-9.2882387315
 20
18.3943840357
 11
-9.9952378169
 21
19.1013831211
  0
LINE
  5
444
100
AcDbEntity
  8
ASSI
100
AcDbLine
 62
253
  6
CONTINUOUS
 10
-9.2882387315
 20
18.3943840357
 11
-9.9952378169
 21
19.1013831211
  0
LINE
  5
445
100
AcDbEntity
  8
SMUSSO
100
AcDbLine
 62
7
  6
CONTINUOUS
 10
-7.0
 20
16.65
 11
-7.5773502692
 21
17.2273502692
  0
LINE
  5
446
100
AcDbEntity
  8
ASSI
100
AcDbLine
 62
7
  6
CONTINUOUS
 10
-7.0
 20
16.65
 11
-7.5773502692
 21
17.2273502692
  0
LINE
  5
447
100
AcDbEntity
  8
RACCORDO
100
AcDbLine
 62
7
  6
CONTINUOUS
 10
-6.355294768
 20
20.0829433217
 11
-6.2482213147
 21
19.9223308767
  0
LINE
  5
448
100
AcDbEntity
  8
RACCORDO
100
AcDbLine
 62
253
  6
CONTINUOUS
 10
8.254371834
 20
-23.8443375673
 11
8.25
 21
-23.4104851482
  0
LINE
  5
449
100
AcDbEntity
  8
RACCORDO
100
AcDbLine
 62
253
  6
CONTINUOUS
 10
8.5050948319
 20
-23.7
 11
8.4992770021
 21
-23.1226497308
  0
LINE
  5
44A
100
AcDbEntity
  8
DRAFT
100
AcDbLine
 62
7
  6
CONTINUOUS
 10
7.4890208311
 20
20.85
 11
7.4890208311
 21
19.6109791689
  0
LINE
  5
44B
100
AcDbEntity
  8
ASSI
100
AcDbLine
 62
7
  6
CONTINUOUS
 10
7.4890208311
 20
20.85
 11
7.4890208311
 21
19.6109791689
  0
LINE
  5
44C
100
AcDbEntity
  8
DRAFT
100
AcDbLine
 62
7
  6
CONTINUOUS
 10
7.4890208311
 20
-19.6109791689
 11
7.4890208311
 21
-20.85
  0
LINE
  5
44D
100
AcDbEntity
  8
ASSI
100
AcDbLine
 62
7
  6
CONTINUOUS
 10
7.4890208311
 20
-19.6109791689
 11
7.4890208311
 21
-20.85
  0
LINE
  5
44E
100
AcDbEntity
  8
DRAFT
100
AcDbLine
 62
253
  6
CONTINUOUS
 10
7.5841007192
 20
-21.3126932437
 11
7.5841007192
 21
-20.9872686779
  0
LINE
  5
44F
100
AcDbEntity
  8
DRAFT
100
AcDbLine
 62
253
  6
CONTINUOUS
 10
7.5841007192
 20
20.9872686779
 11
7.5841007192
 21
21.3126932437
  0
LINE
  5
450
100
AcDbEntity
  8
0
100
AcDbLine
 62
253
  6
CONTINUOUS
 10
8.0
 20
12.7857143879
 11
8.0
 21
12.0714285374
  0
LINE
  5
451
100
AcDbEntity
  8
0
100
AcDbLine
 62
253
  6
CONTINUOUS
 10
8.0
 20
-4.1904764175
 11
8.0
 21
-4.6190476418
  0
LINE
  5
452
100
AcDbEntity
  8
0
100
AcDbLine
 62
253
  6
CONTINUOUS
 10
8.0
 20
-7.4285714626
 11
8.0
 21
-8.1428573132
  0
LINE
  5
453
100
AcDbEntity
  8
0
100
AcDbLine
 62
253
  6
CONTINUOUS
 10
8.0
 20
-6.3333334923
 11
8.0
 21
-5.476190567
  0
LINE
  5
454
100
AcDbEntity
  8
0
100
AcDbLine
 62
253
  6
CONTINUOUS
 10
8.0
 20
-0.1428571939
 11
8.0
 21
0.5714285374
  0
LINE
  5
455
100
AcDbEntity
  8
0
100
AcDbLine
 62
253
  6
CONTINUOUS
 10
8.0
 20
1.1428570747
 11
8.0
 21
1.9999998808
  0
LINE
  5
456
100
AcDbEntity
  8
DRAFT
100
AcDbLine
 62
253
  6
CONTINUOUS
 10
8.0840245667
 20
-21.448622017
 11
8.0840245667
 21
-20.9829813964
  0
LINE
  5
457
100
AcDbEntity
  8
DRAFT
100
AcDbLine
 62
253
  6
CONTINUOUS
 10
8.0840245667
 20
20.9829813964
 11
8.0840245667
 21
21.448622017
  0
LINE
  5
458
100
AcDbEntity
  8
DRAFT
100
AcDbLine
 62
7
  6
CONTINUOUS
 10
8.25
 20
21.4
 11
8.25
 21
20.9
  0
LINE
  5
459
100
AcDbEntity
  8
DRAFT
100
AcDbLine
 62
7
  6
CONTINUOUS
 10
8.25
 20
-20.9
 11
8.25
 21
-21.4
  0
LINE
  5
45A
100
AcDbEntity
  8
RACCORDO
100
AcDbLine
 62
7
  6
CONTINUOUS
 10
8.25
 20
-22.4
 11
8.25
 21
-24.2500042308
  0
LINE
  5
45B
100
AcDbEntity
  8
RACCORDO
100
AcDbLine
 62
7
  6
CONTINUOUS
 10
8.25
 20
22.4
 11
8.25
 21
24.2500042308
  0
LINE
  5
45C
100
AcDbEntity
  8
RACCORDO
100
AcDbLine
 62
253
  6
CONTINUOUS
 10
8.254371834
 20
24.2456323968
 11
8.254371834
 21
23.8443375673
  0
LINE
  5
45D
100
AcDbEntity
  8
RACCORDO
100
AcDbLine
 62
253
  6
CONTINUOUS
 10
8.254371834
 20
-23.8443375673
 11
8.254371834
 21
-24.2456323968
  0
LINE
  5
45E
100
AcDbEntity
  8
RACCORDO
100
AcDbLine
 62
253
  6
CONTINUOUS
 10
8.5043676032
 20
-23.7
 11
8.5043676032
 21
-24.495628166
  0
LINE
  5
45F
100
AcDbEntity
  8
RACCORDO
100
AcDbLine
 62
253
  6
CONTINUOUS
 10
8.5043676032
 20
23.6278312164
 11
8.5043676032
 21
24.495628166
  0
LINE
  5
460
100
AcDbEntity
  8
RACCORDO
100
AcDbLine
 62
253
  6
CONTINUOUS
 10
8.25
 20
23.4104851482
 11
8.254371834
 21
23.8443375673
  0
LINE
  5
461
100
AcDbEntity
  8
RACCORDO
100
AcDbLine
 62
253
  6
CONTINUOUS
 10
8.4992770021
 20
23.1226497308
 11
8.5043676032
 21
23.6278312164
  0
LINE
  5
462
100
AcDbEntity
  8
INCISIONI
100
AcDbLine
 62
253
  6
CONTINUOUS
 10
11.1047350258
 20
9.790227
 11
11.0541368107
 21
9.519077
  0
LINE
  5
463
100
AcDbEntity
  8
INCISIONI
100
AcDbLine
 62
253
  6
CONTINUOUS
 10
11.0541368107
 20
10.111193
 11
11.0870387649
 21
10.235548
  0
LINE
  5
464
100
AcDbEntity
  8
DRAFT
100
AcDbLine
 62
7
  6
CONTINUOUS
 10
-4.4
 20
-22.4
 11
-4.3559327327
 21
-22.3338981669
  0
LINE
  5
465
100
AcDbEntity
  8
0
100
AcDbLine
 62
253
  6
CONTINUOUS
 10
8.0
 20
-4.6190476418
 11
7.7142857015
 21
-4.9047617912
  0
LINE
  5
466
100
AcDbEntity
  8
0
100
AcDbLine
 62
253
  6
CONTINUOUS
 10
1.5
 20
7.5
 11
8.5
 21
7.5
  0
LINE
  5
467
100
AcDbEntity
  8
SMUSSO
100
AcDbLine
 62
7
  6
CONTINUOUS
 10
0.5773502692
 20
7.7726497308
 11
-7.5773502692
 21
7.7726497308
  0
LINE
  5
468
100
AcDbEntity
  8
ASSI
100
AcDbLine
 62
7
  6
CONTINUOUS
 10
0.5773502692
 20
7.7726497308
 11
-7.5773502692
 21
7.7726497308
  0
LINE
  5
469
100
AcDbEntity
  8
ASSI
100
AcDbLine
 62
7
  6
CONTINUOUS
 10
9.35
 20
7.9
 11
10.8724644676
 21
7.9
  0
LINE
  5
46A
100
AcDbEntity
  8
0
100
AcDbLine
 62
253
  6
CONTINUOUS
 10
10.9998864416
 20
8.1071429253
 11
11.0260650513
 21
8.1071429253
  0
LINE
  5
46B
100
AcDbEntity
  8
SMUSSO
100
AcDbLine
 62
7
  6
CONTINUOUS
 10
-0.0
 20
8.35
 11
-7.0
 21
8.35
  0
LINE
  5
46C
100
AcDbEntity
  8
ASSI
100
AcDbLine
 62
7
  6
CONTINUOUS
 10
-0.0
 20
8.35
 11
-7.0
 21
8.35
  0
LINE
  5
46D
100
AcDbEntity
  8
0
100
AcDbLine
 62
7
  6
CONTINUOUS
 10
-0.0
 20
8.488
 11
-7.0
 21
8.488
  0
LINE
  5
46E
100
AcDbEntity
  8
0
100
AcDbLine
 62
253
  6
CONTINUOUS
 10
10.9998864416
 20
8.8571429253
 11
11.0260650513
 21
8.8571429253
  0
LINE
  5
46F
100
AcDbEntity
  8
0
100
AcDbLine
 62
253
  6
CONTINUOUS
 10
8.0
 20
8.9285714626
 11
6.0
 21
8.9285714626
  0
LINE
  5
470
100
AcDbEntity
  8
DRAFT
100
AcDbLine
 62
7
  6
CONTINUOUS
 10
-4.4
 20
22.4
 11
-4.3559327327
 21
22.3338981669
  0
LINE
  5
471
100
AcDbEntity
  8
INCISIONI
100
AcDbLine
 62
253
  6
CONTINUOUS
 10
11.0069920643
 20
-10.5857143342
 11
11.0330460138
 21
-10.9928571105
  0
LINE
  5
472
100
AcDbEntity
  8
0
100
AcDbLine
 62
253
  6
CONTINUOUS
 10
11.0731320483
 20
-14.176491
 11
11.0949286163
 21
-14.606449
  0
LINE
  5
473
100
AcDbEntity
  8
0
100
AcDbLine
 62
253
  6
CONTINUOUS
 10
11.0731320483
 20
-8.151456
 11
11.094931478
 21
-8.581471
  0
LINE
  5
474
100
AcDbEntity
  8
0
100
AcDbLine
 62
253
  6
CONTINUOUS
 10
11.0539971429
 20
-13.798889
 11
11.0647224388
 21
-14.015846
  0
LINE
  5
475
100
AcDbEntity
  8
0
100
AcDbLine
 62
253
  6
CONTINUOUS
 10
11.0539971429
 20
-7.773964
 11
11.0647224388
 21
-7.990812
  0
LINE
  5
476
100
AcDbEntity
  8
0
100
AcDbLine
 62
253
  6
CONTINUOUS
 10
11.1046014306
 20
-14.252884
 11
11.0539971429
 21
-13.20444
  0
LINE
  5
477
100
AcDbEntity
  8
0
100
AcDbLine
 62
253
  6
CONTINUOUS
 10
11.1046014306
 20
-8.227849
 11
11.0539971429
 21
-7.179514
  0
LINE
  5
478
100
AcDbEntity
  8
INCISIONI
100
AcDbLine
 62
253
  6
CONTINUOUS
 10
10.9998864416
 20
-15.335714221
 11
11.0046235236
 21
-15.607142663
  0
LINE
  5
479
100
AcDbEntity
  8
INCISIONI
100
AcDbLine
 62
253
  6
CONTINUOUS
 10
10.9998864416
 20
-14.114285779
 11
11.0022549826
 21
-14.25
  0
LINE
  5
47A
100
AcDbEntity
  8
INCISIONI
100
AcDbLine
 62
253
  6
CONTINUOUS
 10
10.9998864416
 20
-12.7571428895
 11
11.0022549826
 21
-12.8928571105
  0
LINE
  5
47B
100
AcDbEntity
  8
INCISIONI
100
AcDbLine
 62
253
  6
CONTINUOUS
 10
11.0235718509
 20
-9.5
 11
11.0330460138
 21
-10.0428571671
  0
LINE
  5
47C
100
AcDbEntity
  8
INCISIONI
100
AcDbLine
 62
253
  6
CONTINUOUS
 10
11.0188347695
 20
-13.978571558
 11
11.0212033092
 21
-14.2047620773
  0
LINE
  5
47D
100
AcDbEntity
  8
INCISIONI
100
AcDbLine
 62
253
  6
CONTINUOUS
 10
11.0188347695
 20
-12.6214286685
 11
11.0212033092
 21
-12.8476189613
  0
LINE
  5
47E
100
AcDbEntity
  8
RACCORDO
100
AcDbLine
 62
253
  6
CONTINUOUS
 10
10.3956323968
 20
23.6278312164
 11
10.4007229979
 21
23.1226497308
  0
LINE
  5
47F
100
AcDbEntity
  8
RACCORDO
100
AcDbLine
 62
253
  6
CONTINUOUS
 10
10.645628166
 20
23.8443375673
 11
10.65
 21
23.4104851482
  0
LINE
  5
480
100
AcDbEntity
  8
RACCORDO
100
AcDbLine
 62
253
  6
CONTINUOUS
 10
9.2882387315
 20
-18.3943840357
 11
9.2882387315
 21
-19.3942317309
  0
LINE
  5
481
100
AcDbEntity
  8
ASSI
100
AcDbLine
 62
253
  6
CONTINUOUS
 10
9.2882387315
 20
-18.3943840357
 11
9.2882387315
 21
-19.3942317309
  0
LINE
  5
482
100
AcDbEntity
  8
RACCORDO
100
AcDbLine
 62
253
  6
CONTINUOUS
 10
9.2882387315
 20
18.3943840357
 11
9.2882387315
 21
19.3942317309
  0
LINE
  5
483
100
AcDbEntity
  8
ASSI
100
AcDbLine
 62
253
  6
CONTINUOUS
 10
9.2882387315
 20
18.3943840357
 11
9.2882387315
 21
19.3942317309
  0
LINE
  5
484
100
AcDbEntity
  8
ASSI
100
AcDbLine
 62
7
  6
CONTINUOUS
 10
9.35
 20
17.1
 11
9.35
 21
12.9
  0
LINE
  5
485
100
AcDbEntity
  8
ASSI
100
AcDbLine
 62
7
  6
CONTINUOUS
 10
9.35
 20
12.1
 11
9.35
 21
7.9
  0
LINE
  5
486
100
AcDbEntity
  8
ASSI
100
AcDbLine
 62
7
  6
CONTINUOUS
 10
9.35
 20
7.1
 11
9.35
 21
2.9
  0
LINE
  5
487
100
AcDbEntity
  8
ASSI
100
AcDbLine
 62
7
  6
CONTINUOUS
 10
9.35
 20
2.1
 11
9.35
 21
-2.1
  0
LINE
  5
488
100
AcDbEntity
  8
ASSI
100
AcDbLine
 62
7
  6
CONTINUOUS
 10
9.35
 20
-2.9
 11
9.35
 21
-7.1
  0
LINE
  5
489
100
AcDbEntity
  8
ASSI
100
AcDbLine
 62
7
  6
CONTINUOUS
 10
9.35
 20
-7.9
 11
9.35
 21
-12.1
  0
LINE
  5
48A
100
AcDbEntity
  8
DRAFT
100
AcDbLine
 62
7
  6
CONTINUOUS
 10
9.4946499221
 20
-20.4335707644
 11
9.4946499221
 21
-20.1553500779
  0
LINE
  5
48B
100
AcDbEntity
  8
DRAFT
100
AcDbLine
 62
7
  6
CONTINUOUS
 10
9.4946499221
 20
20.1553500779
 11
9.4946499221
 21
20.4335707644
  0
LINE
  5
48C
100
AcDbEntity
  8
ASSI
100
AcDbLine
 62
7
  6
CONTINUOUS
 10
9.5
 20
17.1
 11
9.5
 21
12.9
  0
LINE
  5
48D
100
AcDbEntity
  8
ASSI
100
AcDbLine
 62
7
  6
CONTINUOUS
 10
9.5
 20
12.1
 11
9.5
 21
7.9
  0
LINE
  5
48E
100
AcDbEntity
  8
ASSI
100
AcDbLine
 62
7
  6
CONTINUOUS
 10
9.5
 20
7.1
 11
9.5
 21
2.9
  0
LINE
  5
48F
100
AcDbEntity
  8
ASSI
100
AcDbLine
 62
7
  6
CONTINUOUS
 10
9.5
 20
2.1
 11
9.5
 21
-2.1
  0
LINE
  5
490
100
AcDbEntity
  8
ASSI
100
AcDbLine
 62
7
  6
CONTINUOUS
 10
9.5
 20
-2.9
 11
9.5
 21
-7.1
  0
LINE
  5
491
100
AcDbEntity
  8
ASSI
100
AcDbLine
 62
7
  6
CONTINUOUS
 10
9.5
 20
-7.9
 11
9.5
 21
-12.1
  0
LINE
  5
492
100
AcDbEntity
  8
DRAFT
100
AcDbLine
 62
7
  6
CONTINUOUS
 10
9.65
 20
20.9
 11
9.65
 21
20.0
  0
LINE
  5
493
100
AcDbEntity
  8
DRAFT
100
AcDbLine
 62
7
  6
CONTINUOUS
 10
9.65
 20
17.1
 11
9.65
 21
12.9703286495
  0
LINE
  5
494
100
AcDbEntity
  8
DRAFT
100
AcDbLine
 62
7
  6
CONTINUOUS
 10
9.65
 20
12.0296713505
 11
9.65
 21
7.9
  0
LINE
  5
495
100
AcDbEntity
  8
DRAFT
100
AcDbLine
 62
7
  6
CONTINUOUS
 10
9.65
 20
7.1
 11
9.65
 21
2.9
  0
LINE
  5
496
100
AcDbEntity
  8
DRAFT
100
AcDbLine
 62
7
  6
CONTINUOUS
 10
9.65
 20
2.1
 11
9.65
 21
-2.1
  0
LINE
  5
497
100
AcDbEntity
  8
DRAFT
100
AcDbLine
 62
7
  6
CONTINUOUS
 10
9.65
 20
-2.9
 11
9.65
 21
-7.1
  0
LINE
  5
498
100
AcDbEntity
  8
DRAFT
100
AcDbLine
 62
7
  6
CONTINUOUS
 10
9.65
 20
-7.9
 11
9.65
 21
-12.0296713505
  0
LINE
  5
499
100
AcDbEntity
  8
DRAFT
100
AcDbLine
 62
7
  6
CONTINUOUS
 10
9.65
 20
-20.0
 11
9.65
 21
-20.9
  0
LINE
  5
49A
100
AcDbEntity
  8
ASSI
100
AcDbLine
 62
253
  6
CONTINUOUS
 10
9.7588542176
 20
-17.509618074
 11
9.7588542176
 21
-12.1
  0
LINE
  5
49B
100
AcDbEntity
  8
ASSI
100
AcDbLine
 62
253
  6
CONTINUOUS
 10
9.7588542176
 20
-7.9
 11
9.7588542176
 21
-7.1
  0
LINE
  5
49C
100
AcDbEntity
  8
ASSI
100
AcDbLine
 62
253
  6
CONTINUOUS
 10
9.7588542176
 20
-2.9
 11
9.7588542176
 21
-2.1
  0
LINE
  5
49D
100
AcDbEntity
  8
ASSI
100
AcDbLine
 62
253
  6
CONTINUOUS
 10
9.7588542176
 20
2.1
 11
9.7588542176
 21
2.9
  0
LINE
  5
49E
100
AcDbEntity
  8
ASSI
100
AcDbLine
 62
253
  6
CONTINUOUS
 10
9.7588542176
 20
7.1
 11
9.7588542176
 21
7.9
  0
LINE
  5
49F
100
AcDbEntity
  8
ASSI
100
AcDbLine
 62
253
  6
CONTINUOUS
 10
9.7588542176
 20
12.1
 11
9.7588542176
 21
12.9
  0
LINE
  5
4A0
100
AcDbEntity
  8
ASSI
100
AcDbLine
 62
253
  6
CONTINUOUS
 10
9.7588542176
 20
17.1
 11
9.7588542176
 21
17.509618074
  0
LINE
  5
4A1
100
AcDbEntity
  8
RACCORDO
100
AcDbLine
 62
253
  6
CONTINUOUS
 10
10.3956323968
 20
-23.7
 11
10.3956323968
 21
-24.495628166
  0
LINE
  5
4A2
100
AcDbEntity
  8
RACCORDO
100
AcDbLine
 62
253
  6
CONTINUOUS
 10
10.3956323968
 20
23.6278312164
 11
10.3956323968
 21
24.495628166
  0
LINE
  5
4A3
100
AcDbEntity
  8
RACCORDO
100
AcDbLine
 62
253
  6
CONTINUOUS
 10
10.645628166
 20
-24.2456323968
 11
10.645628166
 21
-23.8443375673
  0
LINE
  5
4A4
100
AcDbEntity
  8
RACCORDO
100
AcDbLine
 62
253
  6
CONTINUOUS
 10
10.645628166
 20
23.8443375673
 11
10.645628166
 21
24.2456323968
  0
LINE
  5
4A5
100
AcDbEntity
  8
RACCORDO
100
AcDbLine
 62
7
  6
CONTINUOUS
 10
10.65
 20
-22.3999410061
 11
10.65
 21
-24.2500042308
  0
LINE
  5
4A6
100
AcDbEntity
  8
RACCORDO
100
AcDbLine
 62
7
  6
CONTINUOUS
 10
10.65
 20
22.3999410061
 11
10.65
 21
24.2500042308
  0
LINE
  5
4A7
100
AcDbEntity
  8
ASSI
100
AcDbLine
 62
253
  6
CONTINUOUS
 10
10.7587019127
 20
-17.5096157267
 11
10.7587019127
 21
-12.1
  0
LINE
  5
4A8
100
AcDbEntity
  8
ASSI
100
AcDbLine
 62
253
  6
CONTINUOUS
 10
10.7587019127
 20
-7.9
 11
10.7587019127
 21
-7.1
  0
LINE
  5
4A9
100
AcDbEntity
  8
ASSI
100
AcDbLine
 62
253
  6
CONTINUOUS
 10
10.7587019127
 20
-2.9
 11
10.7587019127
 21
-2.1
  0
LINE
  5
4AA
100
AcDbEntity
  8
ASSI
100
AcDbLine
 62
253
  6
CONTINUOUS
 10
10.7587019127
 20
2.1
 11
10.7587019127
 21
2.9
  0
LINE
  5
4AB
100
AcDbEntity
  8
ASSI
100
AcDbLine
 62
253
  6
CONTINUOUS
 10
10.7587019127
 20
7.1
 11
10.7587019127
 21
7.9
  0
LINE
  5
4AC
100
AcDbEntity
  8
ASSI
100
AcDbLine
 62
253
  6
CONTINUOUS
 10
10.7587019127
 20
12.1
 11
10.7587019127
 21
12.9
  0
LINE
  5
4AD
100
AcDbEntity
  8
ASSI
100
AcDbLine
 62
253
  6
CONTINUOUS
 10
10.7587019127
 20
17.1
 11
10.7587019127
 21
17.5096157267
  0
LINE
  5
4AE
100
AcDbEntity
  8
0
100
AcDbLine
 62
253
  6
CONTINUOUS
 10
10.9998864416
 20
12.0714285374
 11
10.9998864416
 21
11.4285713434
  0
LINE
  5
4AF
100
AcDbEntity
  8
0
100
AcDbLine
 62
253
  6
CONTINUOUS
 10
10.9998864416
 20
2.9642853737
 11
10.9998864416
 21
2.428571701
  0
LINE
  5
4B0
100
AcDbEntity
  8
INCISIONI
100
AcDbLine
 62
253
  6
CONTINUOUS
 10
10.9998864416
 20
-12.0785713315
 11
10.9998864416
 21
-12.7571428895
  0
LINE
  5
4B1
100
AcDbEntity
  8
INCISIONI
100
AcDbLine
 62
253
  6
CONTINUOUS
 10
10.9998864416
 20
-13.435714221
 11
10.9998864416
 21
-14.114285779
  0
LINE
  5
4B2
100
AcDbEntity
  8
INCISIONI
100
AcDbLine
 62
253
  6
CONTINUOUS
 10
10.9998864416
 20
-14.792857337
 11
10.9998864416
 21
-15.335714221
  0
LINE
  5
4B3
100
AcDbEntity
  8
0
100
AcDbLine
 62
253
  6
CONTINUOUS
 10
10.9998864416
 20
12.8928571939
 11
10.9998864416
 21
13.428571403
  0
LINE
  5
4B4
100
AcDbEntity
  8
INCISIONI
100
AcDbLine
 62
253
  6
CONTINUOUS
 10
11.0069920643
 20
-11.535714221
 11
11.0069920643
 21
-10.5857143342
  0
LINE
  5
4B5
100
AcDbEntity
  8
0
100
AcDbLine
 62
253
  6
CONTINUOUS
 10
11.0073660447
 20
14.5714285672
 11
11.0073660447
 21
13.9999999404
  0
LINE
  5
4B6
100
AcDbEntity
  8
0
100
AcDbLine
 62
253
  6
CONTINUOUS
 10
11.0073660447
 20
4.1071431637
 11
11.0073660447
 21
3.5357146263
  0
LINE
  5
4B7
100
AcDbEntity
  8
RACCORDO
100
AcDbLine
 62
253
  6
CONTINUOUS
 10
10.4007229979
 20
-23.1226497308
 11
10.3949051681
 21
-23.7
  0
LINE
  5
4B8
100
AcDbEntity
  8
RACCORDO
100
AcDbLine
 62
253
  6
CONTINUOUS
 10
10.65
 20
-23.4104851482
 11
10.645628166
 21
-23.8443375673
  0
LINE
  5
4B9
100
AcDbEntity
  8
0
100
AcDbLine
 62
253
  6
CONTINUOUS
 10
11.0260650513
 20
12.8928571939
 11
11.0223252501
 21
12.6785715818
  0
LINE
  5
4BA
100
AcDbEntity
  8
0
100
AcDbLine
 62
253
  6
CONTINUOUS
 10
11.0260650513
 20
2.0000004768
 11
11.0148456478
 21
1.5714292526
  0
LINE
  5
4BB
100
AcDbEntity
  8
0
100
AcDbLine
 62
253
  6
CONTINUOUS
 10
11.0260650513
 20
16.0
 11
11.0111058459
 21
15.5714285523
  0
LINE
  5
4BC
100
AcDbEntity
  8
0
100
AcDbLine
 62
253
  6
CONTINUOUS
 10
11.0260650513
 20
8.8571429253
 11
10.9998864416
 21
8.1071429253
  0
LINE
  5
4BD
100
AcDbEntity
  8
INCISIONI
100
AcDbLine
 62
253
  6
CONTINUOUS
 10
11.0541368107
 20
11.040105
 11
11.0871764958
 21
11.750162
  0
LINE
  5
4BE
100
AcDbEntity
  8
INCISIONI
100
AcDbLine
 62
253
  6
CONTINUOUS
 10
11.1047350258
 20
11.593234
 11
11.0766427458
 21
10.994355
  0
LINE
  5
4BF
100
AcDbEntity
  8
INCISIONI
100
AcDbLine
 62
253
  6
CONTINUOUS
 10
11.0541368107
 20
15.081013
 11
11.1047350258
 21
16.00026
  0
LINE
  5
4C0
100
AcDbEntity
  8
INCISIONI
100
AcDbLine
 62
253
  6
CONTINUOUS
 10
11.1047350258
 20
7.92899
 11
11.0541368107
 21
7.039304
  0
LINE
  5
4C1
100
AcDbEntity
  8
0
100
AcDbLine
 62
253
  6
CONTINUOUS
 10
11.0260650513
 20
14.2857142091
 11
10.9998864416
 21
13.8571428061
  0
LINE
  5
4C2
100
AcDbEntity
  8
0
100
AcDbLine
 62
253
  6
CONTINUOUS
 10
11.0260650513
 20
3.8214292526
 11
10.9998864416
 21
3.3928565979
  0
LINE
  5
4C3
100
AcDbEntity
  8
INCISIONI
100
AcDbLine
 62
253
  6
CONTINUOUS
 10
11.1047350258
 20
15.342748
 11
11.0699067067
 21
14.790021
  0
LINE
  5
4C4
100
AcDbEntity
  8
INCISIONI
100
AcDbLine
 62
253
  6
CONTINUOUS
 10
11.0541368107
 20
7.677235
 11
11.0642380163
 21
7.834033
  0
LINE
  5
4C5
100
AcDbEntity
  8
INCISIONI
100
AcDbLine
 62
253
  6
CONTINUOUS
 10
11.0720542821
 20
7.954996
 11
11.0908319214
 21
8.233126
  0
LINE
  5
4C6
100
AcDbEntity
  8
DRAFT
100
AcDbLine
 62
7
  6
CONTINUOUS
 10
7.3
 20
-20.9
 11
7.3517786853
 21
-20.4335707644
  0
LINE
  5
4C7
100
AcDbEntity
  8
RACCORDO
100
AcDbLine
 62
7
  6
CONTINUOUS
 10
-6.3570215015
 20
-19.7570215015
 11
-6.3
 21
-19.7
  0
LINE
  5
4C8
100
AcDbEntity
  8
0
100
AcDbLine
 62
253
  6
CONTINUOUS
 10
6.0
 20
-7.4285714626
 11
6.2857142687
 21
-7.1428573132
  0
LINE
  5
4C9
100
AcDbEntity
  8
RACCORDO
100
AcDbLine
 62
253
  6
CONTINUOUS
 10
-10.645628166
 20
-24.2456323968
 11
-10.65
 21
-24.2500042308
  0
LINE
  5
4CA
100
AcDbEntity
  8
0
100
AcDbLine
 62
7
  6
CONTINUOUS
 10
11.0539971429
 20
-2.9425564367
 11
11.10460143
 21
-2.8919521496
  0
LINE
  5
4CB
100
AcDbEntity
  8
RACCORDO
100
AcDbLine
 62
253
  6
CONTINUOUS
 10
-10.3956323968
 20
-24.495628166
 11
-10.4000042308
 21
-24.5
  0
LINE
  5
4CC
100
AcDbEntity
  8
0
100
AcDbLine
 62
7
  6
CONTINUOUS
 10
11.0734843588
 20
-3.3430906489
 11
11.0818939681
 21
-3.3346810395
  0
LINE
  5
4CD
100
AcDbEntity
  8
0
100
AcDbLine
 62
7
  6
CONTINUOUS
 10
11.0931790077
 20
-3.323396
 11
11.1046014289
 21
-3.3119735788
  0
LINE
  5
4CE
100
AcDbEntity
  8
0
100
AcDbLine
 62
7
  6
CONTINUOUS
 10
11.0735989594
 20
-3.7629974763
 11
11.0820244419
 21
-3.7545719938
  0
LINE
  5
4CF
100
AcDbEntity
  8
0
100
AcDbLine
 62
7
  6
CONTINUOUS
 10
11.0960872326
 20
-3.740509203
 11
11.1045104595
 21
-3.7320859762
  0
LINE
  5
4D0
100
AcDbEntity
  8
0
100
AcDbLine
 62
7
  6
CONTINUOUS
 10
11.0746773285
 20
-4.1819405352
 11
11.1035471437
 21
-4.15307072
  0
LINE
  5
4D1
100
AcDbEntity
  8
0
100
AcDbLine
 62
253
  6
CONTINUOUS
 10
10.9998864416
 20
9.5357146263
 11
11.0260650513
 21
9.5357146263
  0
LINE
  5
4D2
100
AcDbEntity
  8
0
100
AcDbLine
 62
253
  6
CONTINUOUS
 10
6.2857142687
 20
9.9285714626
 11
6.8571428061
 21
9.9285714626
  0
LINE
  5
4D3
100
AcDbEntity
  8
0
100
AcDbLine
 62
253
  6
CONTINUOUS
 10
1.75
 20
10.0
 11
4.25
 21
10.0
  0
LINE
  5
4D4
100
AcDbEntity
  8
0
100
AcDbLine
 62
253
  6
CONTINUOUS
 10
8.0
 20
10.8809523582
 11
6.0
 21
10.8809523582
  0
LINE
  5
4D5
100
AcDbEntity
  8
SMUSSO
100
AcDbLine
 62
7
  6
CONTINUOUS
 10
-0.0
 20
13.35
 11
0.5773502692
 21
12.7726497308
  0
LINE
  5
4D6
100
AcDbEntity
  8
ASSI
100
AcDbLine
 62
7
  6
CONTINUOUS
 10
-0.0
 20
13.35
 11
0.5773502692
 21
12.7726497308
  0
LINE
  5
4D7
100
AcDbEntity
  8
RACCORDO
100
AcDbLine
 62
7
  6
CONTINUOUS
 10
-6.3570215015
 20
19.7570215015
 11
-6.3
 21
19.7
  0
LINE
  5
4D8
100
AcDbEntity
  8
RACCORDO
100
AcDbLine
 62
253
  6
CONTINUOUS
 10
-10.645628166
 20
24.2456323968
 11
-10.65
 21
24.2500042308
  0
LINE
  5
4D9
100
AcDbEntity
  8
RACCORDO
100
AcDbLine
 62
253
  6
CONTINUOUS
 10
-10.3956323968
 20
24.495628166
 11
-10.4000042308
 21
24.5
  0
LINE
  5
4DA
100
AcDbEntity
  8
DRAFT
100
AcDbLine
 62
7
  6
CONTINUOUS
 10
7.3517786853
 20
20.4335707644
 11
7.3
 21
20.9
  0
LINE
  5
4DB
100
AcDbEntity
  8
INCISIONI
100
AcDbLine
 62
253
  6
CONTINUOUS
 10
11.0908319214
 20
8.233126
 11
11.0720542821
 21
8.5345
  0
LINE
  5
4DC
100
AcDbEntity
  8
INCISIONI
100
AcDbLine
 62
253
  6
CONTINUOUS
 10
11.0699067067
 20
14.790021
 11
11.1047350258
 21
14.22041
  0
LINE
  5
4DD
100
AcDbEntity
  8
0
100
AcDbLine
 62
253
  6
CONTINUOUS
 10
10.9998864416
 20
4.2499997616
 11
11.0260650513
 21
3.8214292526
  0
LINE
  5
4DE
100
AcDbEntity
  8
0
100
AcDbLine
 62
253
  6
CONTINUOUS
 10
10.9998864416
 20
14.7142857015
 11
11.0260650513
 21
14.2857142091
  0
LINE
  5
4DF
100
AcDbEntity
  8
INCISIONI
100
AcDbLine
 62
253
  6
CONTINUOUS
 10
11.0642380163
 20
8.658312
 11
11.0541368107
 21
8.825329
  0
LINE
  5
4E0
100
AcDbEntity
  8
INCISIONI
100
AcDbLine
 62
253
  6
CONTINUOUS
 10
11.0541368107
 20
9.424033
 11
11.1047350258
 21
8.514517
  0
LINE
  5
4E1
100
AcDbEntity
  8
INCISIONI
100
AcDbLine
 62
253
  6
CONTINUOUS
 10
11.1047350258
 20
13.615552
 11
11.0541368107
 21
14.547617
  0
LINE
  5
4E2
100
AcDbEntity
  8
INCISIONI
100
AcDbLine
 62
253
  6
CONTINUOUS
 10
11.0766427458
 20
10.994355
 11
11.1047350258
 21
10.389084
  0
LINE
  5
4E3
100
AcDbEntity
  8
INCISIONI
100
AcDbLine
 62
253
  6
CONTINUOUS
 10
11.0870387649
 20
10.235548
 11
11.0541368107
 21
10.955216
  0
LINE
  5
4E4
100
AcDbEntity
  8
0
100
AcDbLine
 62
253
  6
CONTINUOUS
 10
11.0111058459
 20
15.5714285523
 11
11.0260650513
 21
15.1428571045
  0
LINE
  5
4E5
100
AcDbEntity
  8
0
100
AcDbLine
 62
253
  6
CONTINUOUS
 10
11.0148456478
 20
1.5714292526
 11
11.0260650513
 21
1.1428565979
  0
LINE
  5
4E6
100
AcDbEntity
  8
0
100
AcDbLine
 62
253
  6
CONTINUOUS
 10
11.0036262432
 20
12.6785715818
 11
10.9998864416
 21
12.8928571939
  0
LINE
  5
4E7
100
AcDbEntity
  8
0
100
AcDbLine
 62
253
  6
CONTINUOUS
 10
11.0148456478
 20
11.6428573132
 11
11.0148456478
 21
12.0714285374
  0
LINE
  5
4E8
100
AcDbEntity
  8
INCISIONI
100
AcDbLine
 62
253
  6
CONTINUOUS
 10
11.0188347695
 20
-15.335714221
 11
11.0188347695
 21
-14.792857337
  0
LINE
  5
4E9
100
AcDbEntity
  8
INCISIONI
100
AcDbLine
 62
253
  6
CONTINUOUS
 10
11.0188347695
 20
-13.978571558
 11
11.0188347695
 21
-13.707142663
  0
LINE
  5
4EA
100
AcDbEntity
  8
INCISIONI
100
AcDbLine
 62
253
  6
CONTINUOUS
 10
11.0188347695
 20
-12.6214286685
 11
11.0188347695
 21
-12.35
  0
LINE
  5
4EB
100
AcDbEntity
  8
0
100
AcDbLine
 62
253
  6
CONTINUOUS
 10
11.0260650513
 20
13.428571403
 11
11.0260650513
 21
12.8928571939
  0
LINE
  5
4EC
100
AcDbEntity
  8
0
100
AcDbLine
 62
253
  6
CONTINUOUS
 10
11.0260650513
 20
12.0714285374
 11
11.0260650513
 21
11.4285713434
  0
LINE
  5
4ED
100
AcDbEntity
  8
0
100
AcDbLine
 62
253
  6
CONTINUOUS
 10
11.0260650513
 20
5.5357141495
 11
11.0260650513
 21
4.678571701
  0
LINE
  5
4EE
100
AcDbEntity
  8
INCISIONI
100
AcDbLine
 62
253
  6
CONTINUOUS
 10
11.0330460138
 20
-14.792857337
 11
11.0330460138
 21
-15.607142663
  0
LINE
  5
4EF
100
AcDbEntity
  8
INCISIONI
100
AcDbLine
 62
253
  6
CONTINUOUS
 10
11.0330460138
 20
-13.978571558
 11
11.0330460138
 21
-13.435714221
  0
LINE
  5
4F0
100
AcDbEntity
  8
INCISIONI
100
AcDbLine
 62
253
  6
CONTINUOUS
 10
11.0330460138
 20
-12.6214286685
 11
11.0330460138
 21
-12.0785713315
  0
LINE
  5
4F1
100
AcDbEntity
  8
0
100
AcDbLine
 62
253
  6
CONTINUOUS
 10
11.0539971429
 20
-2.70079
 11
11.0539971429
 21
-3.323396
  0
LINE
  5
4F2
100
AcDbEntity
  8
0
100
AcDbLine
 62
253
  6
CONTINUOUS
 10
11.0539971429
 20
-7.179514
 11
11.0539971429
 21
-7.773964
  0
LINE
  5
4F3
100
AcDbEntity
  8
0
100
AcDbLine
 62
253
  6
CONTINUOUS
 10
11.0539971429
 20
-9.348431
 11
11.0539971429
 21
-9.975074
  0
LINE
  5
4F4
100
AcDbEntity
  8
0
100
AcDbLine
 62
253
  6
CONTINUOUS
 10
11.0539971429
 20
-13.20444
 11
11.0539971429
 21
-13.798889
  0
LINE
  5
4F5
100
AcDbEntity
  8
0
100
AcDbLine
 62
253
  6
CONTINUOUS
 10
11.0539971429
 20
-15.373574
 11
11.0539971429
 21
-16.0
  0
LINE
  5
4F6
100
AcDbEntity
  8
0
100
AcDbLine
 62
253
  6
CONTINUOUS
 10
11.0539971429
 20
-12.911198
 11
11.0539971429
 21
-12.027546
  0
LINE
  5
4F7
100
AcDbEntity
  8
0
100
AcDbLine
 62
253
  6
CONTINUOUS
 10
11.0539971429
 20
-10.87477
 11
11.0539971429
 21
-10.292325
  0
LINE
  5
4F8
100
AcDbEntity
  8
0
100
AcDbLine
 62
253
  6
CONTINUOUS
 10
11.0539971429
 20
-6.866738
 11
11.0539971429
 21
-5.171133
  0
LINE
  5
4F9
100
AcDbEntity
  8
INCISIONI
100
AcDbLine
 62
253
  6
CONTINUOUS
 10
11.0541368107
 20
13.390935
 11
11.0541368107
 21
12.785664
  0
LINE
  5
4FA
100
AcDbEntity
  8
INCISIONI
100
AcDbLine
 62
253
  6
CONTINUOUS
 10
11.0541368045
 20
6.8615673444
 11
11.0541368045
 21
6.2587313832
  0
LINE
  5
4FB
100
AcDbEntity
  8
INCISIONI
100
AcDbLine
 62
253
  6
CONTINUOUS
 10
11.0541368045
 20
5.3318417383
 11
11.0541368045
 21
4.7496410148
  0
LINE
  5
4FC
100
AcDbEntity
  8
INCISIONI
100
AcDbLine
 62
253
  6
CONTINUOUS
 10
11.0541368107
 20
7.039304
 11
11.0541368107
 21
7.677235
  0
LINE
  5
4FD
100
AcDbEntity
  8
INCISIONI
100
AcDbLine
 62
253
  6
CONTINUOUS
 10
11.0541368107
 20
8.825329
 11
11.0541368107
 21
9.424033
  0
LINE
  5
4FE
100
AcDbEntity
  8
INCISIONI
100
AcDbLine
 62
253
  6
CONTINUOUS
 10
11.0541368107
 20
9.519077
 11
11.0541368107
 21
10.111193
  0
LINE
  5
4FF
100
AcDbEntity
  8
INCISIONI
100
AcDbLine
 62
253
  6
CONTINUOUS
 10
11.0541368107
 20
10.955216
 11
11.0541368107
 21
11.040105
  0
LINE
  5
500
100
AcDbEntity
  8
INCISIONI
100
AcDbLine
 62
253
  6
CONTINUOUS
 10
11.0541368107
 20
11.880779
 11
11.0541368107
 21
12.459827
  0
LINE
  5
501
100
AcDbEntity
  8
INCISIONI
100
AcDbLine
 62
253
  6
CONTINUOUS
 10
11.0541368107
 20
14.547617
 11
11.0541368107
 21
15.081013
  0
LINE
  5
502
100
AcDbEntity
  8
0
100
AcDbLine
 62
253
  6
CONTINUOUS
 10
11.0624067525
 20
-5.793739
 11
11.0624067525
 21
-6.866738
  0
LINE
  5
503
100
AcDbEntity
  8
INCISIONI
100
AcDbLine
 62
253
  6
CONTINUOUS
 10
11.0642380163
 20
7.834033
 11
11.0642380163
 21
8.658312
  0
LINE
  5
504
100
AcDbEntity
  8
0
100
AcDbLine
 62
253
  6
CONTINUOUS
 10
11.0647224388
 20
-7.990812
 11
11.0647224388
 21
-9.139549
  0
LINE
  5
505
100
AcDbEntity
  8
0
100
AcDbLine
 62
253
  6
CONTINUOUS
 10
11.0647224388
 20
-14.015846
 11
11.0647224388
 21
-15.164584
  0
LINE
  5
506
100
AcDbEntity
  8
INCISIONI
100
AcDbLine
 62
253
  6
CONTINUOUS
 10
11.0720542821
 20
8.5345
 11
11.0720542821
 21
7.954996
  0
LINE
  5
507
100
AcDbEntity
  8
0
100
AcDbLine
 62
253
  6
CONTINUOUS
 10
11.0731320483
 20
-15.007869
 11
11.0731320483
 21
-14.176491
  0
LINE
  5
508
100
AcDbEntity
  8
0
100
AcDbLine
 62
253
  6
CONTINUOUS
 10
11.0731320483
 20
-8.982943
 11
11.0731320483
 21
-8.151456
  0
LINE
  5
509
100
AcDbEntity
  8
0
100
AcDbLine
 62
253
  6
CONTINUOUS
 10
11.0734843588
 20
-3.58822
 11
11.0734843588
 21
-3.323396
  0
LINE
  5
50A
100
AcDbEntity
  8
INCISIONI
100
AcDbLine
 62
253
  6
CONTINUOUS
 10
11.0739381528
 20
6.2587313832
 11
11.0739381528
 21
5.9341993273
  0
LINE
  5
50B
100
AcDbEntity
  8
0
100
AcDbLine
 62
253
  6
CONTINUOUS
 10
11.0818939683
 20
-3.323396
 11
11.0818939683
 21
-3.686612
  0
LINE
  5
50C
100
AcDbEntity
  8
INCISIONI
100
AcDbLine
 62
253
  6
CONTINUOUS
 10
11.0822249185
 20
5.9328946758
 11
11.0822249185
 21
6.2788012718
  0
LINE
  5
50D
100
AcDbEntity
  8
0
100
AcDbLine
 62
253
  6
CONTINUOUS
 10
11.096191821
 20
-3.323396
 11
11.096191821
 21
-3.686612
  0
LINE
  5
50E
100
AcDbEntity
  8
0
100
AcDbLine
 62
253
  6
CONTINUOUS
 10
11.1046014306
 20
-5.171133
 11
11.1046014306
 21
-5.793739
  0
LINE
  5
50F
100
AcDbEntity
  8
0
100
AcDbLine
 62
253
  6
CONTINUOUS
 10
11.1046014306
 20
-10.292325
 11
11.1046014306
 21
-11.216139
  0
LINE
  5
510
100
AcDbEntity
  8
0
100
AcDbLine
 62
253
  6
CONTINUOUS
 10
11.1046014306
 20
-12.328754
 11
11.1046014306
 21
-12.911198
  0
LINE
  5
511
100
AcDbEntity
  8
0
100
AcDbLine
 62
253
  6
CONTINUOUS
 10
11.1046014306
 20
-14.991935
 11
11.1046014306
 21
-14.252884
  0
LINE
  5
512
100
AcDbEntity
  8
0
100
AcDbLine
 62
253
  6
CONTINUOUS
 10
11.1046014306
 20
-8.9669
 11
11.1046014306
 21
-8.227849
  0
LINE
  5
513
100
AcDbEntity
  8
0
100
AcDbLine
 62
253
  6
CONTINUOUS
 10
11.1046014306
 20
-3.58822
 11
11.1046014306
 21
-2.70079
  0
LINE
  5
514
100
AcDbEntity
  8
INCISIONI
100
AcDbLine
 62
253
  6
CONTINUOUS
 10
11.1047350258
 20
16.00026
 11
11.1047350258
 21
15.342748
  0
LINE
  5
515
100
AcDbEntity
  8
INCISIONI
100
AcDbLine
 62
253
  6
CONTINUOUS
 10
11.1047350258
 20
14.22041
 11
11.1047350258
 21
13.615552
  0
LINE
  5
516
100
AcDbEntity
  8
INCISIONI
100
AcDbLine
 62
253
  6
CONTINUOUS
 10
11.1047350258
 20
12.198005
 11
11.1047350258
 21
11.593234
  0
LINE
  5
517
100
AcDbEntity
  8
INCISIONI
100
AcDbLine
 62
253
  6
CONTINUOUS
 10
11.1047350258
 20
10.389084
 11
11.1047350258
 21
9.790227
  0
LINE
  5
518
100
AcDbEntity
  8
INCISIONI
100
AcDbLine
 62
253
  6
CONTINUOUS
 10
11.1047350258
 20
8.514517
 11
11.1047350258
 21
7.92899
  0
LINE
  5
519
100
AcDbEntity
  8
INCISIONI
100
AcDbLine
 62
253
  6
CONTINUOUS
 10
11.1047380621
 20
12.785664
 11
11.1047380621
 21
13.390935
  0
LINE
  5
51A
100
AcDbEntity
  8
RACCORDO
100
AcDbLine
 62
7
  6
CONTINUOUS
 10
11.15
 20
21.9011798444
 11
11.15
 21
-21.9011798444
  0
LINE
  5
51B
100
AcDbEntity
  8
ASSI
100
AcDbLine
 62
7
  6
CONTINUOUS
 10
11.15
 20
-17.6716990487
 11
11.15
 21
17.6716990487
  0
LINE
  5
51C
100
AcDbEntity
  8
INCISIONI
100
AcDbLine
 62
253
  6
CONTINUOUS
 10
11.014097687
 20
-12.8928571105
 11
11.0188347695
 21
-12.6214286685
  0
LINE
  5
51D
100
AcDbEntity
  8
INCISIONI
100
AcDbLine
 62
253
  6
CONTINUOUS
 10
11.014097687
 20
-14.25
 11
11.0188347695
 21
-13.978571558
  0
LINE
  5
51E
100
AcDbEntity
  8
INCISIONI
100
AcDbLine
 62
253
  6
CONTINUOUS
 10
11.014097687
 20
-15.607142663
 11
11.0188347695
 21
-15.335714221
  0
LINE
  5
51F
100
AcDbEntity
  8
INCISIONI
100
AcDbLine
 62
253
  6
CONTINUOUS
 10
11.0283089324
 20
-12.8476189613
 11
11.0330460138
 21
-12.6214286685
  0
LINE
  5
520
100
AcDbEntity
  8
INCISIONI
100
AcDbLine
 62
253
  6
CONTINUOUS
 10
11.0283089324
 20
-14.2047620773
 11
11.0330460138
 21
-13.978571558
  0
LINE
  5
521
100
AcDbEntity
  8
0
100
AcDbLine
 62
253
  6
CONTINUOUS
 10
11.1046014306
 20
-11.216139
 11
11.0644999196
 21
-12.328754
  0
LINE
  5
522
100
AcDbEntity
  8
0
100
AcDbLine
 62
253
  6
CONTINUOUS
 10
11.0539971429
 20
-12.027546
 11
11.0963494969
 21
-10.87477
  0
LINE
  5
523
100
AcDbEntity
  8
0
100
AcDbLine
 62
253
  6
CONTINUOUS
 10
11.0539971429
 20
-9.975074
 11
11.1046014306
 21
-8.9669
  0
LINE
  5
524
100
AcDbEntity
  8
0
100
AcDbLine
 62
253
  6
CONTINUOUS
 10
11.0539971429
 20
-16.0
 11
11.1046014306
 21
-14.991935
  0
LINE
  5
525
100
AcDbEntity
  8
0
100
AcDbLine
 62
253
  6
CONTINUOUS
 10
11.0647224388
 20
-9.139549
 11
11.0539971429
 21
-9.348431
  0
LINE
  5
526
100
AcDbEntity
  8
0
100
AcDbLine
 62
253
  6
CONTINUOUS
 10
11.0647224388
 20
-15.164584
 11
11.0539971429
 21
-15.373574
  0
LINE
  5
527
100
AcDbEntity
  8
0
100
AcDbLine
 62
253
  6
CONTINUOUS
 10
11.094931478
 20
-8.581471
 11
11.0731320483
 21
-8.982943
  0
LINE
  5
528
100
AcDbEntity
  8
0
100
AcDbLine
 62
253
  6
CONTINUOUS
 10
11.0949286163
 20
-14.606449
 11
11.0731320483
 21
-15.007869
  0
LINE
  5
529
100
AcDbEntity
  8
0
100
AcDbLine
 62
7
  6
CONTINUOUS
 10
11.0789381981
 20
-4.5977010937
 11
11.0995524983
 21
-4.5770867934
  0
LINE
  5
52A
100
AcDbEntity
  8
DRAFT
100
AcDbLine
 62
7
  6
CONTINUOUS
 10
-3.5
 20
-19.7
 11
-3.4109791689
 21
-19.6109791689
  0
LINE
  5
52B
100
AcDbEntity
  8
ASSI
100
AcDbLine
 62
7
  6
CONTINUOUS
 10
-3.5
 20
-19.7
 11
-3.4109791689
 21
-19.6109791689
  0
LINE
  5
52C
100
AcDbEntity
  8
DRAFT
100
AcDbLine
 62
7
  6
CONTINUOUS
 10
-3.4109791689
 20
-19.8109791689
 11
-3.5
 21
-19.9
  0
LINE
  5
52D
100
AcDbEntity
  8
ASSI
100
AcDbLine
 62
7
  6
CONTINUOUS
 10
-3.4109791689
 20
-19.8109791689
 11
-3.5
 21
-19.9
  0
LINE
  5
52E
100
AcDbEntity
  8
0
100
AcDbLine
 62
7
  6
CONTINUOUS
 10
11.0539971429
 20
-5.4626850049
 11
11.1046014306
 21
-5.4120807172
  0
LINE
  5
52F
100
AcDbEntity
  8
0
100
AcDbLine
 62
7
  6
CONTINUOUS
 10
11.0539971429
 20
-5.8827064329
 11
11.0624067525
 21
-5.8742968233
  0
LINE
  5
530
100
AcDbEntity
  8
0
100
AcDbLine
 62
7
  6
CONTINUOUS
 10
11.0539971429
 20
-6.3027278609
 11
11.0624067525
 21
-6.2943182514
  0
LINE
  5
531
100
AcDbEntity
  8
RACCORDO
100
AcDbLine
 62
7
  6
CONTINUOUS
 10
-2.5
 20
-19.9
 11
-2.4979803239
 21
-19.8979803239
  0
LINE
  5
532
100
AcDbEntity
  8
ASSI
100
AcDbLine
 62
7
  6
CONTINUOUS
 10
-2.5
 20
-19.9
 11
-2.4979803239
 21
-19.8979803239
  0
LINE
  5
533
100
AcDbEntity
  8
0
100
AcDbLine
 62
7
  6
CONTINUOUS
 10
11.0539971429
 20
-6.722749289
 11
11.0624067525
 21
-6.7143396794
  0
LINE
  5
534
100
AcDbEntity
  8
RACCORDO
100
AcDbLine
 62
253
  6
CONTINUOUS
 10
-11.15
 20
-17.6716990487
 11
-10.7587019127
 21
-17.5096157267
  0
LINE
  5
535
100
AcDbEntity
  8
ASSI
100
AcDbLine
 62
253
  6
CONTINUOUS
 10
-11.15
 20
-17.6716990487
 11
-10.7587019127
 21
-17.5096157267
  0
LINE
  5
536
100
AcDbEntity
  8
0
100
AcDbLine
 62
253
  6
CONTINUOUS
 10
6.0
 20
-11.0952382088
 11
8.0
 21
-10.5238096118
  0
LINE
  5
537
100
AcDbEntity
  8
0
100
AcDbLine
 62
7
  6
CONTINUOUS
 10
-7.0
 20
11.488
 11
-0.0
 21
11.488
  0
LINE
  5
538
100
AcDbEntity
  8
SMUSSO
100
AcDbLine
 62
7
  6
CONTINUOUS
 10
-7.0
 20
11.65
 11
-0.0
 21
11.65
  0
LINE
  5
539
100
AcDbEntity
  8
ASSI
100
AcDbLine
 62
7
  6
CONTINUOUS
 10
-7.0
 20
11.65
 11
-0.0
 21
11.65
  0
LINE
  5
53A
100
AcDbEntity
  8
0
100
AcDbLine
 62
253
  6
CONTINUOUS
 10
7.7142857015
 20
11.7857143879
 11
6.2857142687
 21
11.7857143879
  0
LINE
  5
53B
100
AcDbEntity
  8
RACCORDO
100
AcDbLine
 62
7
  6
CONTINUOUS
 10
9.65
 20
12.0296713505
 11
9.5
 21
12.0296713505
  0
LINE
  5
53C
100
AcDbEntity
  8
0
100
AcDbLine
 62
253
  6
CONTINUOUS
 10
10.9998864416
 20
12.0714285374
 11
11.0260650513
 21
12.0714285374
  0
LINE
  5
53D
100
AcDbEntity
  8
ASSI
100
AcDbLine
 62
7
  6
CONTINUOUS
 10
9.35
 20
12.1
 11
10.8724644676
 21
12.1
  0
LINE
  5
53E
100
AcDbEntity
  8
SMUSSO
100
AcDbLine
 62
7
  6
CONTINUOUS
 10
-7.5773502692
 20
12.2273502692
 11
0.5773502692
 21
12.2273502692
  0
LINE
  5
53F
100
AcDbEntity
  8
ASSI
100
AcDbLine
 62
7
  6
CONTINUOUS
 10
-7.5773502692
 20
12.2273502692
 11
0.5773502692
 21
12.2273502692
  0
LINE
  5
540
100
AcDbEntity
  8
0
100
AcDbLine
 62
253
  6
CONTINUOUS
 10
11.0223252501
 20
12.6785715818
 11
11.0036262432
 21
12.6785715818
  0
LINE
  5
541
100
AcDbEntity
  8
SMUSSO
100
AcDbLine
 62
7
  6
CONTINUOUS
 10
0.5773502692
 20
12.7726497308
 11
-7.5773502692
 21
12.7726497308
  0
LINE
  5
542
100
AcDbEntity
  8
ASSI
100
AcDbLine
 62
7
  6
CONTINUOUS
 10
0.5773502692
 20
12.7726497308
 11
-7.5773502692
 21
12.7726497308
  0
LINE
  5
543
100
AcDbEntity
  8
INCISIONI
100
AcDbLine
 62
253
  6
CONTINUOUS
 10
11.0541368107
 20
12.785664
 11
11.1047380621
 21
12.785664
  0
LINE
  5
544
100
AcDbEntity
  8
0
100
AcDbLine
 62
253
  6
CONTINUOUS
 10
6.8571428061
 20
12.7857143879
 11
8.0
 21
12.7857143879
  0
LINE
  5
545
100
AcDbEntity
  8
RACCORDO
100
AcDbLine
 62
253
  6
CONTINUOUS
 10
-10.7587019127
 20
17.5096157267
 11
-11.15
 21
17.6716990487
  0
LINE
  5
546
100
AcDbEntity
  8
ASSI
100
AcDbLine
 62
253
  6
CONTINUOUS
 10
-10.7587019127
 20
17.5096157267
 11
-11.15
 21
17.6716990487
  0
LINE
  5
547
100
AcDbEntity
  8
DRAFT
100
AcDbLine
 62
7
  6
CONTINUOUS
 10
-3.5
 20
19.7
 11
-3.4109791689
 21
19.6109791689
  0
LINE
  5
548
100
AcDbEntity
  8
ASSI
100
AcDbLine
 62
7
  6
CONTINUOUS
 10
-3.5
 20
19.7
 11
-3.4109791689
 21
19.6109791689
  0
LINE
  5
549
100
AcDbEntity
  8
DRAFT
100
AcDbLine
 62
7
  6
CONTINUOUS
 10
-3.5
 20
19.9
 11
-3.4109791689
 21
19.8109791689
  0
LINE
  5
54A
100
AcDbEntity
  8
ASSI
100
AcDbLine
 62
7
  6
CONTINUOUS
 10
-3.5
 20
19.9
 11
-3.4109791689
 21
19.8109791689
  0
LINE
  5
54B
100
AcDbEntity
  8
0
100
AcDbLine
 62
253
  6
CONTINUOUS
 10
6.8571428061
 20
9.9285714626
 11
7.1428571343
 21
9.6428571939
  0
LINE
  5
54C
100
AcDbEntity
  8
RACCORDO
100
AcDbLine
 62
7
  6
CONTINUOUS
 10
-2.5
 20
19.9
 11
-2.4979803239
 21
19.8979803239
  0
LINE
  5
54D
100
AcDbEntity
  8
ASSI
100
AcDbLine
 62
7
  6
CONTINUOUS
 10
-2.5
 20
19.9
 11
-2.4979803239
 21
19.8979803239
  0
LINE
  5
54E
100
AcDbEntity
  8
0
100
AcDbLine
 62
253
  6
CONTINUOUS
 10
6.2857142687
 20
11.7857143879
 11
6.0
 21
12.0714285374
  0
LINE
  5
54F
100
AcDbEntity
  8
0
100
AcDbLine
 62
7
  6
CONTINUOUS
 10
11.0539971429
 20
-7.562792145
 11
11.0716464505
 21
-7.5451428374
  0
LINE
  5
550
100
AcDbEntity
  8
0
100
AcDbLine
 62
7
  6
CONTINUOUS
 10
11.0638400089
 20
-7.972970707
 11
11.0909877238
 21
-7.9458229921
  0
LINE
  5
551
100
AcDbEntity
  8
ASSI
100
AcDbLine
 62
7
  6
CONTINUOUS
 10
-4.4
 20
-23.8
 11
-4.356315704
 21
-23.756315704
  0
LINE
  5
552
100
AcDbEntity
  8
0
100
AcDbLine
 62
7
  6
CONTINUOUS
 10
11.0647224388
 20
-8.3921097052
 11
11.0731320483
 21
-8.3837000956
  0
LINE
  5
553
100
AcDbEntity
  8
0
100
AcDbLine
 62
7
  6
CONTINUOUS
 10
11.084337509
 20
-8.3724946349
 11
11.1046014306
 21
-8.3522307134
  0
LINE
  5
554
100
AcDbEntity
  8
0
100
AcDbLine
 62
7
  6
CONTINUOUS
 10
11.0647224388
 20
-8.8121311332
 11
11.0731320483
 21
-8.8037215236
  0
LINE
  5
555
100
AcDbEntity
  8
0
100
AcDbLine
 62
7
  6
CONTINUOUS
 10
11.0834222991
 20
-8.7934312728
 11
11.1046014306
 21
-8.7722521414
  0
LINE
  5
556
100
AcDbEntity
  8
0
100
AcDbLine
 62
7
  6
CONTINUOUS
 10
11.059710241
 20
-9.237164759
 11
11.0926912074
 21
-9.2041837926
  0
LINE
  5
557
100
AcDbEntity
  8
RACCORDO
100
AcDbLine
 62
253
  6
CONTINUOUS
 10
-10.5643027805
 20
-19.0856972195
 11
-10.1730026398
 21
-18.9236182982
  0
LINE
  5
558
100
AcDbEntity
  8
ASSI
100
AcDbLine
 62
253
  6
CONTINUOUS
 10
-10.5643027805
 20
-19.0856972195
 11
-10.1730026398
 21
-18.9236182982
  0
LINE
  5
559
100
AcDbEntity
  8
ASSI
100
AcDbLine
 62
7
  6
CONTINUOUS
 10
9.35
 20
12.9
 11
10.8724644676
 21
12.9
  0
LINE
  5
55A
100
AcDbEntity
  8
RACCORDO
100
AcDbLine
 62
7
  6
CONTINUOUS
 10
9.5
 20
12.9703286495
 11
9.65
 21
12.9703286495
  0
LINE
  5
55B
100
AcDbEntity
  8
SMUSSO
100
AcDbLine
 62
7
  6
CONTINUOUS
 10
-0.0
 20
13.35
 11
-7.0
 21
13.35
  0
LINE
  5
55C
100
AcDbEntity
  8
ASSI
100
AcDbLine
 62
7
  6
CONTINUOUS
 10
-0.0
 20
13.35
 11
-7.0
 21
13.35
  0
LINE
  5
55D
100
AcDbEntity
  8
0
100
AcDbLine
 62
253
  6
CONTINUOUS
 10
8.0
 20
13.3571426868
 11
6.0
 21
13.3571426868
  0
LINE
  5
55E
100
AcDbEntity
  8
INCISIONI
100
AcDbLine
 62
253
  6
CONTINUOUS
 10
11.1047380621
 20
13.390935
 11
11.0541368107
 21
13.390935
  0
LINE
  5
55F
100
AcDbEntity
  8
0
100
AcDbLine
 62
253
  6
CONTINUOUS
 10
10.9998864416
 20
13.428571403
 11
11.0260650513
 21
13.428571403
  0
LINE
  5
560
100
AcDbEntity
  8
0
100
AcDbLine
 62
7
  6
CONTINUOUS
 10
-0.0
 20
13.488
 11
-7.0
 21
13.488
  0
LINE
  5
561
100
AcDbEntity
  8
0
100
AcDbLine
 62
253
  6
CONTINUOUS
 10
6.0
 20
14.3571426868
 11
8.0
 21
14.3571426868
  0
LINE
  5
562
100
AcDbEntity
  8
RACCORDO
100
AcDbLine
 62
253
  6
CONTINUOUS
 10
-10.1730026398
 20
18.9236182982
 11
-10.5643027805
 21
19.0856972195
  0
LINE
  5
563
100
AcDbEntity
  8
ASSI
100
AcDbLine
 62
253
  6
CONTINUOUS
 10
-10.1730026398
 20
18.9236182982
 11
-10.5643027805
 21
19.0856972195
  0
LINE
  5
564
100
AcDbEntity
  8
ASSI
100
AcDbLine
 62
7
  6
CONTINUOUS
 10
-4.4
 20
23.8
 11
-4.3563493531
 21
23.7563493531
  0
LINE
  5
565
100
AcDbEntity
  8
INCISIONI
100
AcDbLine
 62
253
  6
CONTINUOUS
 10
11.0871764958
 20
11.750162
 11
11.0541368107
 21
11.880779
  0
LINE
  5
566
100
AcDbEntity
  8
INCISIONI
100
AcDbLine
 62
253
  6
CONTINUOUS
 10
11.0541368107
 20
12.459827
 11
11.1047350258
 21
12.198005
  0
LINE
  5
567
100
AcDbEntity
  8
0
100
AcDbLine
 62
7
  6
CONTINUOUS
 10
11.0539971429
 20
-9.6628992851
 11
11.07049451
 21
-9.646401918
  0
LINE
  5
568
100
AcDbEntity
  8
0
100
AcDbLine
 62
7
  6
CONTINUOUS
 10
11.0539971429
 20
-10.5029421412
 11
11.1046014306
 21
-10.4523378535
  0
LINE
  5
569
100
AcDbEntity
  8
0
100
AcDbLine
 62
7
  6
CONTINUOUS
 10
11.0961267088
 20
-10.8808340033
 11
11.1046014306
 21
-10.8723592815
  0
LINE
  5
56A
100
AcDbEntity
  8
0
100
AcDbLine
 62
7
  6
CONTINUOUS
 10
11.0801067904
 20
-11.3168753498
 11
11.1017507366
 21
-11.2952314035
  0
LINE
  5
56B
100
AcDbEntity
  8
0
100
AcDbLine
 62
7
  6
CONTINUOUS
 10
11.0640868719
 20
-11.7529166962
 11
11.0860460447
 21
-11.7309575235
  0
LINE
  5
56C
100
AcDbEntity
  8
0
100
AcDbLine
 62
253
  6
CONTINUOUS
 10
3.0
 20
15.0
 11
1.25
 21
15.0
  0
LINE
  5
56D
100
AcDbEntity
  8
0
100
AcDbLine
 62
253
  6
CONTINUOUS
 10
11.0260650513
 20
15.1428571045
 11
10.9998864416
 21
15.1428571045
  0
LINE
  5
56E
100
AcDbEntity
  8
0
100
AcDbLine
 62
253
  6
CONTINUOUS
 10
8.0
 20
15.5000002384
 11
6.0
 21
15.5000002384
  0
LINE
  5
56F
100
AcDbEntity
  8
0
100
AcDbLine
 62
253
  6
CONTINUOUS
 10
10.9998864416
 20
16.0
 11
11.0260650513
 21
16.0
  0
LINE
  5
570
100
AcDbEntity
  8
DRAFT
100
AcDbLine
 62
7
  6
CONTINUOUS
 10
9.65
 20
12.9703286495
 11
9.5
 21
13.0453229376
  0
LINE
  5
571
100
AcDbEntity
  8
DRAFT
100
AcDbLine
 62
7
  6
CONTINUOUS
 10
7.2418217019
 20
-20.9872686779
 11
7.3
 21
-20.9
  0
LINE
  5
572
100
AcDbEntity
  8
0
100
AcDbLine
 62
7
  6
CONTINUOUS
 10
11.0539971429
 20
-12.1830278533
 11
11.0703413528
 21
-12.1666836434
  0
LINE
  5
573
100
AcDbEntity
  8
0
100
AcDbLine
 62
7
  6
CONTINUOUS
 10
11.0539971429
 20
-12.6030492813
 11
11.1046014306
 21
-12.5524449936
  0
LINE
  5
574
100
AcDbEntity
  8
0
100
AcDbLine
 62
7
  6
CONTINUOUS
 10
11.0539971429
 20
-13.4430921374
 11
11.0649855786
 21
-13.4321037017
  0
LINE
  5
575
100
AcDbEntity
  8
0
100
AcDbLine
 62
7
  6
CONTINUOUS
 10
11.0570225317
 20
-13.8600881766
 11
11.0843249337
 21
-13.8327857745
  0
LINE
  5
576
100
AcDbEntity
  8
0
100
AcDbLine
 62
7
  6
CONTINUOUS
 10
11.0647224388
 20
-14.2724096975
 11
11.0731320483
 21
-14.264000088
  0
LINE
  5
577
100
AcDbEntity
  8
0
100
AcDbLine
 62
7
  6
CONTINUOUS
 10
11.0773542476
 20
-14.2597778887
 11
11.1036642889
 21
-14.2334678474
  0
LINE
  5
578
100
AcDbEntity
  8
0
100
AcDbLine
 62
7
  6
CONTINUOUS
 10
-7.0
 20
16.488
 11
-0.0
 21
16.488
  0
LINE
  5
579
100
AcDbEntity
  8
SMUSSO
100
AcDbLine
 62
7
  6
CONTINUOUS
 10
-7.0
 20
16.65
 11
-0.0
 21
16.65
  0
LINE
  5
57A
100
AcDbEntity
  8
ASSI
100
AcDbLine
 62
7
  6
CONTINUOUS
 10
-7.0
 20
16.65
 11
-0.0
 21
16.65
  0
LINE
  5
57B
100
AcDbEntity
  8
ASSI
100
AcDbLine
 62
7
  6
CONTINUOUS
 10
9.35
 20
17.1
 11
10.8724644676
 21
17.1
  0
LINE
  5
57C
100
AcDbEntity
  8
SMUSSO
100
AcDbLine
 62
7
  6
CONTINUOUS
 10
-7.5773502692
 20
17.2273502692
 11
0.5773502692
 21
17.2273502692
  0
LINE
  5
57D
100
AcDbEntity
  8
ASSI
100
AcDbLine
 62
7
  6
CONTINUOUS
 10
-7.5773502692
 20
17.2273502692
 11
0.5773502692
 21
17.2273502692
  0
LINE
  5
57E
100
AcDbEntity
  8
RACCORDO
100
AcDbLine
 62
253
  6
CONTINUOUS
 10
9.7588542176
 20
17.509618074
 11
10.7587019127
 21
17.509618074
  0
LINE
  5
57F
100
AcDbEntity
  8
ASSI
100
AcDbLine
 62
253
  6
CONTINUOUS
 10
9.7588542176
 20
17.509618074
 11
10.7587019127
 21
17.509618074
  0
LINE
  5
580
100
AcDbEntity
  8
RACCORDO
100
AcDbLine
 62
253
  6
CONTINUOUS
 10
-9.7588542176
 20
17.509618074
 11
-10.7587019127
 21
17.509618074
  0
LINE
  5
581
100
AcDbEntity
  8
ASSI
100
AcDbLine
 62
253
  6
CONTINUOUS
 10
-9.7588542176
 20
17.509618074
 11
-10.7587019127
 21
17.509618074
  0
LINE
  5
582
100
AcDbEntity
  8
DRAFT
100
AcDbLine
 62
7
  6
CONTINUOUS
 10
7.2418217019
 20
20.9872686779
 11
7.3
 21
20.9
  0
LINE
  5
583
100
AcDbEntity
  8
0
100
AcDbLine
 62
7
  6
CONTINUOUS
 10
11.0647224388
 20
-14.6924311256
 11
11.0731320483
 21
-14.684021516
  0
LINE
  5
584
100
AcDbEntity
  8
0
100
AcDbLine
 62
7
  6
CONTINUOUS
 10
11.0917261684
 20
-14.6654273959
 11
11.1046014306
 21
-14.6525521338
  0
LINE
  5
585
100
AcDbEntity
  8
0
100
AcDbLine
 62
7
  6
CONTINUOUS
 10
11.0647224388
 20
-15.1124525536
 11
11.1003394729
 21
-15.0768355194
  0
LINE
  5
586
100
AcDbEntity
  8
0
100
AcDbLine
 62
7
  6
CONTINUOUS
 10
11.0539971429
 20
-15.5431992775
 11
11.0781402486
 21
-15.5190561718
  0
LINE
  5
587
100
AcDbEntity
  8
RACCORDO
100
AcDbLine
 62
7
  6
CONTINUOUS
 10
7.2429784985
 20
-19.7570215015
 11
7.3
 21
-19.7
  0
LINE
  5
588
100
AcDbEntity
  8
0
100
AcDbLine
 62
7
  6
CONTINUOUS
 10
11.0539971429
 20
-15.9632207055
 11
11.0559410242
 21
-15.9612768242
  0
LINE
  5
589
100
AcDbEntity
  8
DRAFT
100
AcDbLine
 62
7
  6
CONTINUOUS
 10
7.4
 20
-19.7
 11
7.4890208311
 21
-19.6109791689
  0
LINE
  5
58A
100
AcDbEntity
  8
ASSI
100
AcDbLine
 62
7
  6
CONTINUOUS
 10
7.4
 20
-19.7
 11
7.4890208311
 21
-19.6109791689
  0
LINE
  5
58B
100
AcDbEntity
  8
RACCORDO
100
AcDbLine
 62
253
  6
CONTINUOUS
 10
9.2882387315
 20
-18.3943840357
 11
9.4660056078
 21
-18.2166171594
  0
LINE
  5
58C
100
AcDbEntity
  8
ASSI
100
AcDbLine
 62
253
  6
CONTINUOUS
 10
9.2882387315
 20
-18.3943840357
 11
9.4660056078
 21
-18.2166171594
  0
LINE
  5
58D
100
AcDbEntity
  8
RACCORDO
100
AcDbLine
 62
253
  6
CONTINUOUS
 10
9.2882387315
 20
18.3943840357
 11
-9.2882387315
 21
18.3943840357
  0
LINE
  5
58E
100
AcDbEntity
  8
ASSI
100
AcDbLine
 62
253
  6
CONTINUOUS
 10
9.2882387315
 20
18.3943840357
 11
-9.2882387315
 21
18.3943840357
  0
LINE
  5
58F
100
AcDbEntity
  8
RACCORDO
100
AcDbLine
 62
253
  6
CONTINUOUS
 10
9.2882387315
 20
19.3942317309
 11
-9.2882387315
 21
19.3942317309
  0
LINE
  5
590
100
AcDbEntity
  8
ASSI
100
AcDbLine
 62
253
  6
CONTINUOUS
 10
9.2882387315
 20
19.3942317309
 11
-9.2882387315
 21
19.3942317309
  0
LINE
  5
591
100
AcDbEntity
  8
RACCORDO
100
AcDbLine
 62
7
  6
CONTINUOUS
 10
9.37801846
 20
19.6109791689
 11
7.4890208311
 21
19.6109791689
  0
LINE
  5
592
100
AcDbEntity
  8
ASSI
100
AcDbLine
 62
7
  6
CONTINUOUS
 10
9.37801846
 20
19.6109791689
 11
7.4890208311
 21
19.6109791689
  0
LINE
  5
593
100
AcDbEntity
  8
DRAFT
100
AcDbLine
 62
7
  6
CONTINUOUS
 10
-3.4109791689
 20
19.6109791689
 11
3.4109791689
 21
19.6109791689
  0
LINE
  5
594
100
AcDbEntity
  8
ASSI
100
AcDbLine
 62
7
  6
CONTINUOUS
 10
-3.4109791689
 20
19.6109791689
 11
3.4109791689
 21
19.6109791689
  0
LINE
  5
595
100
AcDbEntity
  8
RACCORDO
100
AcDbLine
 62
7
  6
CONTINUOUS
 10
-7.4890208311
 20
19.6109791689
 11
-9.37801846
 21
19.6109791689
  0
LINE
  5
596
100
AcDbEntity
  8
ASSI
100
AcDbLine
 62
7
  6
CONTINUOUS
 10
-7.4890208311
 20
19.6109791689
 11
-9.37801846
 21
19.6109791689
  0
LINE
  5
597
100
AcDbEntity
  8
DRAFT
100
AcDbLine
 62
7
  6
CONTINUOUS
 10
7.4
 20
19.7
 11
3.5
 21
19.7
  0
LINE
  5
598
100
AcDbEntity
  8
ASSI
100
AcDbLine
 62
7
  6
CONTINUOUS
 10
7.4
 20
19.7
 11
3.5
 21
19.7
  0
LINE
  5
599
100
AcDbEntity
  8
DRAFT
100
AcDbLine
 62
7
  6
CONTINUOUS
 10
-3.5
 20
19.7
 11
-7.4
 21
19.7
  0
LINE
  5
59A
100
AcDbEntity
  8
ASSI
100
AcDbLine
 62
7
  6
CONTINUOUS
 10
-3.5
 20
19.7
 11
-7.4
 21
19.7
  0
LINE
  5
59B
100
AcDbEntity
  8
RACCORDO
100
AcDbLine
 62
253
  6
CONTINUOUS
 10
-7.2429784985
 20
19.7570215015
 11
-6.3570215015
 21
19.7570215015
  0
LINE
  5
59C
100
AcDbEntity
  8
RACCORDO
100
AcDbLine
 62
253
  6
CONTINUOUS
 10
6.3570215015
 20
19.7570215015
 11
7.2429784985
 21
19.7570215015
  0
LINE
  5
59D
100
AcDbEntity
  8
DRAFT
100
AcDbLine
 62
7
  6
CONTINUOUS
 10
-3.4109791689
 20
19.8109791689
 11
3.4109791689
 21
19.8109791689
  0
LINE
  5
59E
100
AcDbEntity
  8
ASSI
100
AcDbLine
 62
7
  6
CONTINUOUS
 10
-3.4109791689
 20
19.8109791689
 11
3.4109791689
 21
19.8109791689
  0
LINE
  5
59F
100
AcDbEntity
  8
RACCORDO
100
AcDbLine
 62
7
  6
CONTINUOUS
 10
-1.5981173983
 20
19.8825449351
 11
1.5981173983
 21
19.8825449351
  0
LINE
  5
5A0
100
AcDbEntity
  8
ASSI
100
AcDbLine
 62
7
  6
CONTINUOUS
 10
-1.5981173983
 20
19.8825449351
 11
1.5981173983
 21
19.8825449351
  0
LINE
  5
5A1
100
AcDbEntity
  8
DRAFT
100
AcDbLine
 62
7
  6
CONTINUOUS
 10
-3.5
 20
19.9
 11
-2.5
 21
19.9
  0
LINE
  5
5A2
100
AcDbEntity
  8
ASSI
100
AcDbLine
 62
7
  6
CONTINUOUS
 10
-3.5
 20
19.9
 11
-2.5
 21
19.9
  0
LINE
  5
5A3
100
AcDbEntity
  8
DRAFT
100
AcDbLine
 62
7
  6
CONTINUOUS
 10
2.5
 20
19.9
 11
3.5
 21
19.9
  0
LINE
  5
5A4
100
AcDbEntity
  8
ASSI
100
AcDbLine
 62
7
  6
CONTINUOUS
 10
2.5
 20
19.9
 11
3.5
 21
19.9
  0
LINE
  5
5A5
100
AcDbEntity
  8
DRAFT
100
AcDbLine
 62
7
  6
CONTINUOUS
 10
6.2482213147
 20
19.9223308767
 11
4.7642300413
 21
19.9223308767
  0
LINE
  5
5A6
100
AcDbEntity
  8
DRAFT
100
AcDbLine
 62
7
  6
CONTINUOUS
 10
-4.7642300413
 20
19.9223308767
 11
-6.2482213147
 21
19.9223308767
  0
LINE
  5
5A7
100
AcDbEntity
  8
RACCORDO
100
AcDbLine
 62
253
  6
CONTINUOUS
 10
-7.2418217019
 20
19.9570181168
 11
-6.3581782981
 21
19.9570181168
  0
LINE
  5
5A8
100
AcDbEntity
  8
RACCORDO
100
AcDbLine
 62
253
  6
CONTINUOUS
 10
6.3581782981
 20
19.9570181168
 11
7.2418217019
 21
19.9570181168
  0
LINE
  5
5A9
100
AcDbEntity
  8
RACCORDO
100
AcDbLine
 62
7
  6
CONTINUOUS
 10
4.0594365124
 20
19.9703286495
 11
2.5
 21
19.9703286495
  0
LINE
  5
5AA
100
AcDbEntity
  8
RACCORDO
100
AcDbLine
 62
7
  6
CONTINUOUS
 10
-2.5
 20
19.9703286495
 11
-4.0594365124
 21
19.9703286495
  0
LINE
  5
5AB
100
AcDbEntity
  8
RACCORDO
100
AcDbLine
 62
7
  6
CONTINUOUS
 10
7.2429784985
 20
19.7570215015
 11
7.3
 21
19.7
  0
LINE
  5
5AC
100
AcDbEntity
  8
DRAFT
100
AcDbLine
 62
7
  6
CONTINUOUS
 10
7.4
 20
19.7
 11
7.4890208311
 21
19.6109791689
  0
LINE
  5
5AD
100
AcDbEntity
  8
ASSI
100
AcDbLine
 62
7
  6
CONTINUOUS
 10
7.4
 20
19.7
 11
7.4890208311
 21
19.6109791689
  0
LINE
  5
5AE
100
AcDbEntity
  8
RACCORDO
100
AcDbLine
 62
253
  6
CONTINUOUS
 10
9.4660056078
 20
18.2166171594
 11
9.2882387315
 21
18.3943840357
  0
LINE
  5
5AF
100
AcDbEntity
  8
ASSI
100
AcDbLine
 62
253
  6
CONTINUOUS
 10
9.4660056078
 20
18.2166171594
 11
9.2882387315
 21
18.3943840357
  0
LINE
  5
5B0
100
AcDbEntity
  8
RACCORDO
100
AcDbLine
 62
253
  6
CONTINUOUS
 10
9.9952378169
 20
-19.1013831211
 11
10.1730026398
 21
-18.9236182982
  0
LINE
  5
5B1
100
AcDbEntity
  8
ASSI
100
AcDbLine
 62
253
  6
CONTINUOUS
 10
9.9952378169
 20
-19.1013831211
 11
10.1730026398
 21
-18.9236182982
  0
LINE
  5
5B2
100
AcDbEntity
  8
RACCORDO
100
AcDbLine
 62
7
  6
CONTINUOUS
 10
10.0850175454
 20
-19.3181305591
 11
8.5531481045
 21
-20.85
  0
LINE
  5
5B3
100
AcDbEntity
  8
ASSI
100
AcDbLine
 62
7
  6
CONTINUOUS
 10
10.0850175454
 20
-19.3181305591
 11
8.5531481045
 21
-20.85
  0
LINE
  5
5B4
100
AcDbEntity
  8
DRAFT
100
AcDbLine
 62
7
  6
CONTINUOUS
 10
7.2587268678
 20
-22.3912731322
 11
8.25
 21
-21.4
  0
LINE
  5
5B5
100
AcDbEntity
  8
RACCORDO
100
AcDbLine
 62
7
  6
CONTINUOUS
 10
8.8
 20
-20.85
 11
10.5643027805
 21
-19.0856972195
  0
LINE
  5
5B6
100
AcDbEntity
  8
ASSI
100
AcDbLine
 62
7
  6
CONTINUOUS
 10
8.8
 20
-20.85
 11
10.5643027805
 21
-19.0856972195
  0
LINE
  5
5B7
100
AcDbEntity
  8
DRAFT
100
AcDbLine
 62
7
  6
CONTINUOUS
 10
-3.5
 20
20.0
 11
-2.5
 21
20.0
  0
LINE
  5
5B8
100
AcDbEntity
  8
DRAFT
100
AcDbLine
 62
7
  6
CONTINUOUS
 10
2.5
 20
20.0
 11
3.5
 21
20.0
  0
LINE
  5
5B9
100
AcDbEntity
  8
DRAFT
100
AcDbLine
 62
7
  6
CONTINUOUS
 10
2.5
 20
20.0532338935
 11
2.4413111231
 21
20.0532338935
  0
LINE
  5
5BA
100
AcDbEntity
  8
DRAFT
100
AcDbLine
 62
7
  6
CONTINUOUS
 10
-2.4413111231
 20
20.0532338935
 11
-2.5
 21
20.0532338935
  0
LINE
  5
5BB
100
AcDbEntity
  8
RACCORDO
100
AcDbLine
 62
253
  6
CONTINUOUS
 10
-6.355294768
 20
20.0829433217
 11
6.355294768
 21
20.0829433217
  0
LINE
  5
5BC
100
AcDbEntity
  8
DRAFT
100
AcDbLine
 62
7
  6
CONTINUOUS
 10
9.4946499221
 20
20.4335707644
 11
9.2164292356
 21
20.4335707644
  0
LINE
  5
5BD
100
AcDbEntity
  8
DRAFT
100
AcDbLine
 62
7
  6
CONTINUOUS
 10
7.4
 20
20.4335707644
 11
7.3517786853
 21
20.4335707644
  0
LINE
  5
5BE
100
AcDbEntity
  8
DRAFT
100
AcDbLine
 62
7
  6
CONTINUOUS
 10
-7.3517786853
 20
20.4335707644
 11
-7.4
 21
20.4335707644
  0
LINE
  5
5BF
100
AcDbEntity
  8
DRAFT
100
AcDbLine
 62
7
  6
CONTINUOUS
 10
-9.2164292356
 20
20.4335707644
 11
-9.4946499221
 21
20.4335707644
  0
LINE
  5
5C0
100
AcDbEntity
  8
RACCORDO
100
AcDbLine
 62
253
  6
CONTINUOUS
 10
-6.3581782981
 20
20.5829242832
 11
6.3581782981
 21
20.5829242832
  0
LINE
  5
5C1
100
AcDbEntity
  8
DRAFT
100
AcDbLine
 62
7
  6
CONTINUOUS
 10
7.4
 20
20.85
 11
8.8
 21
20.85
  0
LINE
  5
5C2
100
AcDbEntity
  8
ASSI
100
AcDbLine
 62
7
  6
CONTINUOUS
 10
7.4
 20
20.85
 11
8.8
 21
20.85
  0
LINE
  5
5C3
100
AcDbEntity
  8
DRAFT
100
AcDbLine
 62
7
  6
CONTINUOUS
 10
-7.4
 20
20.85
 11
-8.8
 21
20.85
  0
LINE
  5
5C4
100
AcDbEntity
  8
ASSI
100
AcDbLine
 62
7
  6
CONTINUOUS
 10
-7.4
 20
20.85
 11
-8.8
 21
20.85
  0
LINE
  5
5C5
100
AcDbEntity
  8
DRAFT
100
AcDbLine
 62
7
  6
CONTINUOUS
 10
-9.65
 20
20.9
 11
-7.3
 21
20.9
  0
LINE
  5
5C6
100
AcDbEntity
  8
DRAFT
100
AcDbLine
 62
7
  6
CONTINUOUS
 10
7.3
 20
20.9
 11
9.65
 21
20.9
  0
LINE
  5
5C7
100
AcDbEntity
  8
DRAFT
100
AcDbLine
 62
7
  6
CONTINUOUS
 10
-7.5841007192
 20
20.9872686779
 11
-7.2418217019
 21
20.9872686779
  0
LINE
  5
5C8
100
AcDbEntity
  8
DRAFT
100
AcDbLine
 62
7
  6
CONTINUOUS
 10
7.5841007192
 20
20.9872686779
 11
7.2418217019
 21
20.9872686779
  0
LINE
  5
5C9
100
AcDbEntity
  8
0
100
AcDbLine
 62
7
  6
CONTINUOUS
 10
-3.0
 20
21.0
 11
3.0
 21
21.0
  0
LINE
  5
5CA
100
AcDbEntity
  8
RACCORDO
100
AcDbLine
 62
253
  6
CONTINUOUS
 10
7.5841007192
 20
21.3126932437
 11
3.0
 21
21.3126932437
  0
LINE
  5
5CB
100
AcDbEntity
  8
RACCORDO
100
AcDbLine
 62
253
  6
CONTINUOUS
 10
-3.0
 20
21.3126932437
 11
-7.5841007192
 21
21.3126932437
  0
LINE
  5
5CC
100
AcDbEntity
  8
0
100
AcDbLine
 62
7
  6
CONTINUOUS
 10
-3.0
 20
21.7
 11
3.0
 21
21.7
  0
LINE
  5
5CD
100
AcDbEntity
  8
RACCORDO
100
AcDbLine
 62
253
  6
CONTINUOUS
 10
10.1730026398
 20
18.9236182982
 11
9.9952378169
 21
19.1013831211
  0
LINE
  5
5CE
100
AcDbEntity
  8
ASSI
100
AcDbLine
 62
253
  6
CONTINUOUS
 10
10.1730026398
 20
18.9236182982
 11
9.9952378169
 21
19.1013831211
  0
LINE
  5
5CF
100
AcDbEntity
  8
RACCORDO
100
AcDbLine
 62
7
  6
CONTINUOUS
 10
8.5531481045
 20
20.85
 11
10.0850175454
 21
19.3181305591
  0
LINE
  5
5D0
100
AcDbEntity
  8
ASSI
100
AcDbLine
 62
7
  6
CONTINUOUS
 10
8.5531481045
 20
20.85
 11
10.0850175454
 21
19.3181305591
  0
LINE
  5
5D1
100
AcDbEntity
  8
RACCORDO
100
AcDbLine
 62
7
  6
CONTINUOUS
 10
10.5643027805
 20
19.0856972195
 11
8.8
 21
20.85
  0
LINE
  5
5D2
100
AcDbEntity
  8
ASSI
100
AcDbLine
 62
7
  6
CONTINUOUS
 10
10.5643027805
 20
19.0856972195
 11
8.8
 21
20.85
  0
LINE
  5
5D3
100
AcDbEntity
  8
DRAFT
100
AcDbLine
 62
7
  6
CONTINUOUS
 10
8.25
 20
21.4
 11
7.2587268678
 21
22.3912731322
  0
LINE
  5
5D4
100
AcDbEntity
  8
RACCORDO
100
AcDbLine
 62
253
  6
CONTINUOUS
 10
8.254371834
 20
-24.2456323968
 11
8.25
 21
-24.2500042308
  0
LINE
  5
5D5
100
AcDbEntity
  8
RACCORDO
100
AcDbLine
 62
253
  6
CONTINUOUS
 10
8.5043676032
 20
-24.495628166
 11
8.4999957692
 21
-24.5
  0
LINE
  5
5D6
100
AcDbEntity
  8
DRAFT
100
AcDbLine
 62
7
  6
CONTINUOUS
 10
8.0840245667
 20
-20.9829813964
 11
8.25
 21
-20.9
  0
LINE
  5
5D7
100
AcDbEntity
  8
DRAFT
100
AcDbLine
 62
7
  6
CONTINUOUS
 10
8.0840245667
 20
-21.448622017
 11
8.25
 21
-21.4
  0
LINE
  5
5D8
100
AcDbEntity
  8
DRAFT
100
AcDbLine
 62
253
  6
CONTINUOUS
 10
7.2261622403
 20
22.3126551668
 11
3.0
 21
22.3126551668
  0
LINE
  5
5D9
100
AcDbEntity
  8
DRAFT
100
AcDbLine
 62
253
  6
CONTINUOUS
 10
-3.0
 20
22.3126551668
 11
-7.2261622403
 21
22.3126551668
  0
LINE
  5
5DA
100
AcDbEntity
  8
DRAFT
100
AcDbLine
 62
7
  6
CONTINUOUS
 10
3.5
 20
22.3380392387
 11
3.0
 21
22.3380392387
  0
LINE
  5
5DB
100
AcDbEntity
  8
DRAFT
100
AcDbLine
 62
7
  6
CONTINUOUS
 10
-3.0
 20
22.3380392387
 11
-3.5
 21
22.3380392387
  0
LINE
  5
5DC
100
AcDbEntity
  8
DRAFT
100
AcDbLine
 62
7
  6
CONTINUOUS
 10
10.6598507214
 20
22.3912731322
 11
7.2587268678
 21
22.3912731322
  0
LINE
  5
5DD
100
AcDbEntity
  8
DRAFT
100
AcDbLine
 62
7
  6
CONTINUOUS
 10
-7.2587268678
 20
22.3912731322
 11
-10.6598507214
 21
22.3912731322
  0
LINE
  5
5DE
100
AcDbEntity
  8
DRAFT
100
AcDbLine
 62
7
  6
CONTINUOUS
 10
-8.25
 20
22.4
 11
-4.4
 21
22.4
  0
LINE
  5
5DF
100
AcDbEntity
  8
RACCORDO
100
AcDbLine
 62
7
  6
CONTINUOUS
 10
10.6423956564
 20
22.4
 11
8.25
 21
22.4
  0
LINE
  5
5E0
100
AcDbEntity
  8
DRAFT
100
AcDbLine
 62
7
  6
CONTINUOUS
 10
4.4
 20
22.4
 11
8.25
 21
22.4
  0
LINE
  5
5E1
100
AcDbEntity
  8
RACCORDO
100
AcDbLine
 62
7
  6
CONTINUOUS
 10
-8.25
 20
22.4
 11
-10.6423956564
 21
22.4
  0
LINE
  5
5E2
100
AcDbEntity
  8
RACCORDO
100
AcDbLine
 62
7
  6
CONTINUOUS
 10
10.4007229979
 20
23.1226497308
 11
8.4992770021
 21
23.1226497308
  0
LINE
  5
5E3
100
AcDbEntity
  8
RACCORDO
100
AcDbLine
 62
7
  6
CONTINUOUS
 10
-8.4992770021
 20
23.1226497308
 11
-10.4007229979
 21
23.1226497308
  0
LINE
  5
5E4
100
AcDbEntity
  8
DRAFT
100
AcDbLine
 62
7
  6
CONTINUOUS
 10
8.0840245667
 20
21.448622017
 11
8.25
 21
21.4
  0
LINE
  5
5E5
100
AcDbEntity
  8
DRAFT
100
AcDbLine
 62
7
  6
CONTINUOUS
 10
8.0840245667
 20
20.9829813964
 11
8.25
 21
20.9
  0
LINE
  5
5E6
100
AcDbEntity
  8
RACCORDO
100
AcDbLine
 62
253
  6
CONTINUOUS
 10
8.254371834
 20
24.2456323968
 11
8.25
 21
24.2500042308
  0
LINE
  5
5E7
100
AcDbEntity
  8
RACCORDO
100
AcDbLine
 62
253
  6
CONTINUOUS
 10
8.5043676032
 20
24.495628166
 11
8.4999957692
 21
24.5
  0
LINE
  5
5E8
100
AcDbEntity
  8
RACCORDO
100
AcDbLine
 62
253
  6
CONTINUOUS
 10
10.6598507214
 20
-22.3912731322
 11
10.6423956564
 21
-22.4
  0
LINE
  5
5E9
100
AcDbEntity
  8
RACCORDO
100
AcDbLine
 62
253
  6
CONTINUOUS
 10
-10.3956323968
 20
23.6278312164
 11
-8.5043676032
 21
23.6278312164
  0
LINE
  5
5EA
100
AcDbEntity
  8
RACCORDO
100
AcDbLine
 62
253
  6
CONTINUOUS
 10
8.5043676032
 20
23.6278312164
 11
10.3956323968
 21
23.6278312164
  0
LINE
  5
5EB
100
AcDbEntity
  8
ASSI
100
AcDbLine
 62
253
  6
CONTINUOUS
 10
-4.3563493531
 20
23.7563493531
 11
-3.5
 21
23.7563493531
  0
LINE
  5
5EC
100
AcDbEntity
  8
ASSI
100
AcDbLine
 62
253
  6
CONTINUOUS
 10
3.5
 20
23.7563493531
 11
4.3563493531
 21
23.7563493531
  0
LINE
  5
5ED
100
AcDbEntity
  8
DRAFT
100
AcDbLine
 62
7
  6
CONTINUOUS
 10
-3.5
 20
23.7941821702
 11
3.5
 21
23.7941821702
  0
LINE
  5
5EE
100
AcDbEntity
  8
DRAFT
100
AcDbLine
 62
7
  6
CONTINUOUS
 10
4.4
 20
23.8
 11
-4.4
 21
23.8
  0
LINE
  5
5EF
100
AcDbEntity
  8
RACCORDO
100
AcDbLine
 62
253
  6
CONTINUOUS
 10
8.254371834
 20
23.8443375673
 11
10.645628166
 21
23.8443375673
  0
LINE
  5
5F0
100
AcDbEntity
  8
RACCORDO
100
AcDbLine
 62
253
  6
CONTINUOUS
 10
-8.254371834
 20
23.8443375673
 11
-10.645628166
 21
23.8443375673
  0
LINE
  5
5F1
100
AcDbEntity
  8
RACCORDO
100
AcDbLine
 62
253
  6
CONTINUOUS
 10
8.254371834
 20
24.2456323968
 11
10.645628166
 21
24.2456323968
  0
LINE
  5
5F2
100
AcDbEntity
  8
RACCORDO
100
AcDbLine
 62
253
  6
CONTINUOUS
 10
-8.254371834
 20
24.2456323968
 11
-10.645628166
 21
24.2456323968
  0
LINE
  5
5F3
100
AcDbEntity
  8
RACCORDO
100
AcDbLine
 62
253
  6
CONTINUOUS
 10
10.3956323968
 20
24.495628166
 11
8.5043676032
 21
24.495628166
  0
LINE
  5
5F4
100
AcDbEntity
  8
RACCORDO
100
AcDbLine
 62
253
  6
CONTINUOUS
 10
-8.5043676032
 20
24.495628166
 11
-10.3956323968
 21
24.495628166
  0
LINE
  5
5F5
100
AcDbEntity
  8
RACCORDO
100
AcDbLine
 62
7
  6
CONTINUOUS
 10
10.4000042308
 20
24.5
 11
8.4999957692
 21
24.5
  0
LINE
  5
5F6
100
AcDbEntity
  8
RACCORDO
100
AcDbLine
 62
7
  6
CONTINUOUS
 10
-8.4999957692
 20
24.5
 11
-10.4000042308
 21
24.5
  0
LINE
  5
5F7
100
AcDbEntity
  8
RACCORDO
100
AcDbLine
 62
253
  6
CONTINUOUS
 10
10.6423956564
 20
22.4
 11
10.6598507214
 21
22.3912731322
  0
ARC
  5
5F8
100
AcDbEntity
  8
INCISIONI
100
AcDbCircle
 62
253
  6
CONTINUOUS
 10
-79.7090089404
 20
5.98467421
 40
90.8056004093
100
AcDbArc
 50
359.8863943748
 51
0.1855862268
  0
ARC
  5
5F9
100
AcDbEntity
  8
RACCORDO
100
AcDbCircle
 62
7
  6
CONTINUOUS
 10
-1.149574897
 20
-5.6665565711
 40
26.2633632588
100
AcDbArc
 50
76.9869382133
 51
77.4346134323
  0
ARC
  5
5FA
100
AcDbEntity
  8
RACCORDO
100
AcDbCircle
 62
7
  6
CONTINUOUS
 10
1.1251806465
 20
-5.559091328
 40
26.1531649293
100
AcDbArc
 50
102.5644434062
 51
103.0140049482
  0
ARC
  5
5FB
100
AcDbEntity
  8
DRAFT
100
AcDbCircle
 62
7
  6
CONTINUOUS
 10
0.0
 20
-14.2
 40
7.4460028571
100
AcDbArc
 50
227.6169468852
 51
230.22031479
  0
ARC
  5
5FC
100
AcDbEntity
  8
DRAFT
100
AcDbCircle
 62
7
  6
CONTINUOUS
 10
0.0
 20
-14.2
 40
7.4460028571
100
AcDbArc
 50
309.77968521
 51
312.3830531148
  0
ARC
  5
5FD
100
AcDbEntity
  8
RACCORDO
100
AcDbCircle
 62
253
  6
CONTINUOUS
 10
0.0
 20
-14.2
 40
7.3551451296
100
AcDbArc
 50
308.3551161478
 51
311.5975940434
  0
ARC
  5
5FE
100
AcDbEntity
  8
RACCORDO
100
AcDbCircle
 62
253
  6
CONTINUOUS
 10
0.0
 20
-14.2
 40
7.3551451296
100
AcDbArc
 50
228.4023489978
 51
231.6448838522
  0
ARC
  5
5FF
100
AcDbEntity
  8
RACCORDO
100
AcDbCircle
 62
253
  6
CONTINUOUS
 10
0.0
 20
-14.2
 40
7.0551908211
100
AcDbArc
 50
305.126454879
 51
308.7749344102
  0
ARC
  5
600
100
AcDbEntity
  8
RACCORDO
100
AcDbCircle
 62
253
  6
CONTINUOUS
 10
0.0
 20
-14.2
 40
7.0551908211
100
AcDbArc
 50
231.2251805499
 51
234.873545121
  0
ARC
  5
601
100
AcDbEntity
  8
RACCORDO
100
AcDbCircle
 62
253
  6
CONTINUOUS
 10
8.758701946
 20
-17.5094919143
 40
1.9999999708
100
AcDbArc
 50
315.0035310201
 51
359.9964530363
  0
ARC
  5
602
100
AcDbEntity
  8
RACCORDO
100
AcDbCircle
 62
253
  6
CONTINUOUS
 10
-8.758701946
 20
-17.5094919143
 40
1.9999999708
100
AcDbArc
 50
180.0035469634
 51
224.9964689797
  0
ARC
  5
603
100
AcDbEntity
  8
ASSI
100
AcDbCircle
 62
253
  6
CONTINUOUS
 10
-8.758701946
 20
-17.5094919143
 40
1.9999999708
100
AcDbArc
 50
180.0035469634
 51
224.9964689797
  0
ARC
  5
604
100
AcDbEntity
  8
ASSI
100
AcDbCircle
 62
253
  6
CONTINUOUS
 10
8.758701946
 20
-17.5094919143
 40
1.9999999708
100
AcDbArc
 50
315.0035310201
 51
359.9964530363
  0
ARC
  5
605
100
AcDbEntity
  8
RACCORDO
100
AcDbCircle
 62
253
  6
CONTINUOUS
 10
-9.288107352
 20
-18.3940668574
 40
1.0001648821
100
AcDbArc
 50
225.0075262522
 51
269.9924737478
  0
ARC
  5
606
100
AcDbEntity
  8
RACCORDO
100
AcDbCircle
 62
253
  6
CONTINUOUS
 10
9.288107352
 20
-18.3940668574
 40
1.0001648821
100
AcDbArc
 50
270.0075262522
 51
314.9924737478
  0
ARC
  5
607
100
AcDbEntity
  8
ASSI
100
AcDbCircle
 62
253
  6
CONTINUOUS
 10
9.288107352
 20
-18.3940668574
 40
1.0001648821
100
AcDbArc
 50
270.0075262522
 51
314.9924737478
  0
ARC
  5
608
100
AcDbEntity
  8
ASSI
100
AcDbCircle
 62
253
  6
CONTINUOUS
 10
-9.288107352
 20
-18.3940668574
 40
1.0001648821
100
AcDbArc
 50
225.0075262522
 51
269.9924737478
  0
ARC
  5
609
100
AcDbEntity
  8
RACCORDO
100
AcDbCircle
 62
253
  6
CONTINUOUS
 10
8.7590190667
 20
-17.50962327
 40
0.9998351509
100
AcDbArc
 50
314.9997022418
 51
0.0002977582
  0
ARC
  5
60A
100
AcDbEntity
  8
RACCORDO
100
AcDbCircle
 62
253
  6
CONTINUOUS
 10
-8.7590190667
 20
-17.50962327
 40
0.9998351509
100
AcDbArc
 50
179.9997022418
 51
225.0002977582
  0
ARC
  5
60B
100
AcDbEntity
  8
ASSI
100
AcDbCircle
 62
253
  6
CONTINUOUS
 10
8.7590190667
 20
-17.50962327
 40
0.9998351509
100
AcDbArc
 50
314.9997022418
 51
0.0002977582
  0
ARC
  5
60C
100
AcDbEntity
  8
ASSI
100
AcDbCircle
 62
253
  6
CONTINUOUS
 10
-8.7590190667
 20
-17.50962327
 40
0.9998351509
100
AcDbArc
 50
179.9997022418
 51
225.0002977582
  0
ARC
  5
60D
100
AcDbEntity
  8
RACCORDO
100
AcDbCircle
 62
7
  6
CONTINUOUS
 10
-10.642395964
 20
-21.909907873
 40
0.490092127
100
AcDbArc
 50
269.1109903023
 51
270.0000359544
  0
ARC
  5
60E
100
AcDbEntity
  8
RACCORDO
100
AcDbCircle
 62
7
  6
CONTINUOUS
 10
10.642395964
 20
-21.909907873
 40
0.490092127
100
AcDbArc
 50
269.9999640456
 51
270.8890096977
  0
ARC
  5
60F
100
AcDbEntity
  8
RACCORDO
100
AcDbCircle
 62
7
  6
CONTINUOUS
 10
-10.6424588353
 20
-21.9101063253
 40
0.4898932865
100
AcDbArc
 50
243.4324539136
 51
267.9270418431
  0
ARC
  5
610
100
AcDbEntity
  8
RACCORDO
100
AcDbCircle
 62
7
  6
CONTINUOUS
 10
10.6424588353
 20
-21.9101063253
 40
0.4898932865
100
AcDbArc
 50
272.0729581569
 51
296.5675460864
  0
ARC
  5
611
100
AcDbEntity
  8
RACCORDO
100
AcDbCircle
 62
7
  6
CONTINUOUS
 10
-10.6424912832
 20
-21.9113210211
 40
0.4886782121
100
AcDbArc
 50
267.9256921802
 51
269.1196383434
  0
ARC
  5
612
100
AcDbEntity
  8
RACCORDO
100
AcDbCircle
 62
7
  6
CONTINUOUS
 10
10.6424912832
 20
-21.9113210211
 40
0.4886782121
100
AcDbArc
 50
270.8803616566
 51
272.0743078198
  0
ARC
  5
613
100
AcDbEntity
  8
RACCORDO
100
AcDbCircle
 62
253
  6
CONTINUOUS
 10
8.5043778172
 20
-24.2456221828
 40
0.2500059834
100
AcDbArc
 50
180.0023408215
 51
269.9976591785
  0
ARC
  5
614
100
AcDbEntity
  8
RACCORDO
100
AcDbCircle
 62
253
  6
CONTINUOUS
 10
10.3956221828
 20
-24.2456221828
 40
0.2500059834
100
AcDbArc
 50
270.0023408263
 51
359.9976591737
  0
ARC
  5
615
100
AcDbEntity
  8
RACCORDO
100
AcDbCircle
 62
253
  6
CONTINUOUS
 10
-10.3956221828
 20
-24.2456221828
 40
0.2500059834
100
AcDbArc
 50
180.0023408263
 51
269.9976591737
  0
ARC
  5
616
100
AcDbEntity
  8
RACCORDO
100
AcDbCircle
 62
253
  6
CONTINUOUS
 10
-8.5043778172
 20
-24.2456221828
 40
0.2500059834
100
AcDbArc
 50
270.0023408263
 51
359.9976591737
  0
ARC
  5
617
100
AcDbEntity
  8
RACCORDO
100
AcDbCircle
 62
7
  6
CONTINUOUS
 10
8.4999946513
 20
-24.2500053487
 40
0.2499946513
100
AcDbArc
 50
179.9997437926
 51
270.0002562074
  0
ARC
  5
618
100
AcDbEntity
  8
RACCORDO
100
AcDbCircle
 62
7
  6
CONTINUOUS
 10
10.4000053487
 20
-24.2500053487
 40
0.2499946513
100
AcDbArc
 50
269.9997437926
 51
0.0002562074
  0
ARC
  5
619
100
AcDbEntity
  8
RACCORDO
100
AcDbCircle
 62
7
  6
CONTINUOUS
 10
-10.4000053487
 20
-24.2500053487
 40
0.2499946513
100
AcDbArc
 50
179.9997437926
 51
270.0002562074
  0
ARC
  5
61A
100
AcDbEntity
  8
RACCORDO
100
AcDbCircle
 62
7
  6
CONTINUOUS
 10
-8.4999946513
 20
-24.2500053487
 40
0.2499946513
100
AcDbArc
 50
269.9997437926
 51
0.0002562074
  0
ARC
  5
61B
100
AcDbEntity
  8
RACCORDO
100
AcDbCircle
 62
7
  6
CONTINUOUS
 10
1.1495748968
 20
5.6665565701
 40
26.2633632577
100
AcDbArc
 50
256.9869382132
 51
257.4346134323
  0
ARC
  5
61C
100
AcDbEntity
  8
RACCORDO
100
AcDbCircle
 62
7
  6
CONTINUOUS
 10
-1.1251806461
 20
5.5590913259
 40
26.1531649272
100
AcDbArc
 50
282.5644434062
 51
283.0140049482
  0
ARC
  5
61D
100
AcDbEntity
  8
DRAFT
100
AcDbCircle
 62
7
  6
CONTINUOUS
 10
-0.0
 20
14.2
 40
7.4460028571
100
AcDbArc
 50
47.6169468852
 51
50.22031479
  0
ARC
  5
61E
100
AcDbEntity
  8
DRAFT
100
AcDbCircle
 62
7
  6
CONTINUOUS
 10
-0.0
 20
14.2
 40
7.4460028571
100
AcDbArc
 50
129.77968521
 51
132.3830531148
  0
ARC
  5
61F
100
AcDbEntity
  8
RACCORDO
100
AcDbCircle
 62
253
  6
CONTINUOUS
 10
-0.0
 20
14.2
 40
7.3551451296
100
AcDbArc
 50
128.3551161478
 51
131.5975940434
  0
ARC
  5
620
100
AcDbEntity
  8
RACCORDO
100
AcDbCircle
 62
253
  6
CONTINUOUS
 10
-0.0
 20
14.2
 40
7.3551451296
100
AcDbArc
 50
48.4023489978
 51
51.6448838522
  0
ARC
  5
621
100
AcDbEntity
  8
RACCORDO
100
AcDbCircle
 62
253
  6
CONTINUOUS
 10
-0.0
 20
14.2
 40
7.0551908211
100
AcDbArc
 50
125.126454879
 51
128.7749344102
  0
ARC
  5
622
100
AcDbEntity
  8
RACCORDO
100
AcDbCircle
 62
253
  6
CONTINUOUS
 10
-0.0
 20
14.2
 40
7.0551908211
100
AcDbArc
 50
51.2251805499
 51
54.873545121
  0
ARC
  5
623
100
AcDbEntity
  8
RACCORDO
100
AcDbCircle
 62
253
  6
CONTINUOUS
 10
8.758701946
 20
17.5094919143
 40
1.9999999708
100
AcDbArc
 50
0.0035469634
 51
44.9964689797
  0
ARC
  5
624
100
AcDbEntity
  8
RACCORDO
100
AcDbCircle
 62
253
  6
CONTINUOUS
 10
-8.758701946
 20
17.5094919143
 40
1.9999999708
100
AcDbArc
 50
135.0035310201
 51
179.9964530363
  0
ARC
  5
625
100
AcDbEntity
  8
ASSI
100
AcDbCircle
 62
253
  6
CONTINUOUS
 10
-8.758701946
 20
17.5094919143
 40
1.9999999708
100
AcDbArc
 50
135.0035310201
 51
179.9964530363
  0
ARC
  5
626
100
AcDbEntity
  8
ASSI
100
AcDbCircle
 62
253
  6
CONTINUOUS
 10
8.758701946
 20
17.5094919143
 40
1.9999999708
100
AcDbArc
 50
0.0035469634
 51
44.9964689797
  0
ARC
  5
627
100
AcDbEntity
  8
RACCORDO
100
AcDbCircle
 62
253
  6
CONTINUOUS
 10
-9.288107352
 20
18.3940668574
 40
1.0001648821
100
AcDbArc
 50
90.0075262522
 51
134.9924737478
  0
ARC
  5
628
100
AcDbEntity
  8
RACCORDO
100
AcDbCircle
 62
253
  6
CONTINUOUS
 10
9.288107352
 20
18.3940668574
 40
1.0001648821
100
AcDbArc
 50
45.0075262522
 51
89.9924737478
  0
ARC
  5
629
100
AcDbEntity
  8
ASSI
100
AcDbCircle
 62
253
  6
CONTINUOUS
 10
9.288107352
 20
18.3940668574
 40
1.0001648821
100
AcDbArc
 50
45.0075262522
 51
89.9924737478
  0
ARC
  5
62A
100
AcDbEntity
  8
ASSI
100
AcDbCircle
 62
253
  6
CONTINUOUS
 10
-9.288107352
 20
18.3940668574
 40
1.0001648821
100
AcDbArc
 50
90.0075262522
 51
134.9924737478
  0
ARC
  5
62B
100
AcDbEntity
  8
RACCORDO
100
AcDbCircle
 62
253
  6
CONTINUOUS
 10
-8.7590190667
 20
17.50962327
 40
0.9998351509
100
AcDbArc
 50
134.9997022418
 51
180.0002977582
  0
ARC
  5
62C
100
AcDbEntity
  8
RACCORDO
100
AcDbCircle
 62
253
  6
CONTINUOUS
 10
8.7590190667
 20
17.50962327
 40
0.9998351509
100
AcDbArc
 50
359.9997022418
 51
45.0002977582
  0
ARC
  5
62D
100
AcDbEntity
  8
ASSI
100
AcDbCircle
 62
253
  6
CONTINUOUS
 10
8.7590190667
 20
17.50962327
 40
0.9998351509
100
AcDbArc
 50
359.9997022418
 51
45.0002977582
  0
ARC
  5
62E
100
AcDbEntity
  8
ASSI
100
AcDbCircle
 62
253
  6
CONTINUOUS
 10
-8.7590190667
 20
17.50962327
 40
0.9998351509
100
AcDbArc
 50
134.9997022418
 51
180.0002977582
  0
ARC
  5
62F
100
AcDbEntity
  8
RACCORDO
100
AcDbCircle
 62
7
  6
CONTINUOUS
 10
-10.642395964
 20
21.9099078731
 40
0.4900921269
100
AcDbArc
 50
89.9999640455
 51
90.8890096977
  0
ARC
  5
630
100
AcDbEntity
  8
RACCORDO
100
AcDbCircle
 62
7
  6
CONTINUOUS
 10
10.642395964
 20
21.9099078731
 40
0.4900921269
100
AcDbArc
 50
89.1109903023
 51
90.0000359545
  0
ARC
  5
631
100
AcDbEntity
  8
RACCORDO
100
AcDbCircle
 62
7
  6
CONTINUOUS
 10
10.6424588353
 20
21.9101063253
 40
0.4898932865
100
AcDbArc
 50
63.4324539135
 51
87.9270418431
  0
ARC
  5
632
100
AcDbEntity
  8
RACCORDO
100
AcDbCircle
 62
7
  6
CONTINUOUS
 10
-10.6424588353
 20
21.9101063253
 40
0.4898932865
100
AcDbArc
 50
92.0729581569
 51
116.5675460864
  0
ARC
  5
633
100
AcDbEntity
  8
RACCORDO
100
AcDbCircle
 62
7
  6
CONTINUOUS
 10
10.6424912832
 20
21.9113210211
 40
0.4886782121
100
AcDbArc
 50
87.9256921801
 51
89.1196383434
  0
ARC
  5
634
100
AcDbEntity
  8
RACCORDO
100
AcDbCircle
 62
7
  6
CONTINUOUS
 10
-10.6424912832
 20
21.9113210211
 40
0.4886782121
100
AcDbArc
 50
90.8803616566
 51
92.0743078199
  0
ARC
  5
635
100
AcDbEntity
  8
RACCORDO
100
AcDbCircle
 62
253
  6
CONTINUOUS
 10
10.3956221828
 20
24.2456221828
 40
0.2500059834
100
AcDbArc
 50
0.0023408263
 51
89.9976591737
  0
ARC
  5
636
100
AcDbEntity
  8
RACCORDO
100
AcDbCircle
 62
253
  6
CONTINUOUS
 10
8.5043778172
 20
24.2456221828
 40
0.2500059834
100
AcDbArc
 50
90.0023408263
 51
179.9976591737
  0
ARC
  5
637
100
AcDbEntity
  8
RACCORDO
100
AcDbCircle
 62
253
  6
CONTINUOUS
 10
-8.5043778172
 20
24.2456221828
 40
0.2500059834
100
AcDbArc
 50
0.0023408215
 51
89.9976591785
  0
ARC
  5
638
100
AcDbEntity
  8
RACCORDO
100
AcDbCircle
 62
253
  6
CONTINUOUS
 10
-10.3956221828
 20
24.2456221828
 40
0.2500059834
100
AcDbArc
 50
90.0023408215
 51
179.9976591785
  0
ARC
  5
639
100
AcDbEntity
  8
RACCORDO
100
AcDbCircle
 62
7
  6
CONTINUOUS
 10
8.4999946513
 20
24.2500053487
 40
0.2499946513
100
AcDbArc
 50
89.9997437926
 51
180.0002562074
  0
ARC
  5
63A
100
AcDbEntity
  8
RACCORDO
100
AcDbCircle
 62
7
  6
CONTINUOUS
 10
10.4000053487
 20
24.2500053487
 40
0.2499946513
100
AcDbArc
 50
359.9997437926
 51
90.0002562074
  0
ARC
  5
63B
100
AcDbEntity
  8
RACCORDO
100
AcDbCircle
 62
7
  6
CONTINUOUS
 10
-8.4999946513
 20
24.2500053487
 40
0.2499946513
100
AcDbArc
 50
359.9997437926
 51
90.0002562074
  0
ARC
  5
63C
100
AcDbEntity
  8
RACCORDO
100
AcDbCircle
 62
7
  6
CONTINUOUS
 10
-10.4000053487
 20
24.2500053487
 40
0.2499946513
100
AcDbArc
 50
89.9997437926
 51
180.0002562074
  0
SPLINE
  5
63D
100
AcDbEntity
  8
ASSI
100
AcDbSpline
 62
7
  6
CONTINUOUS
 70
0
 71
3
 72
20
 73
16
 74
14
 42
0.0000001
 43
0.0000001
 44
0.0000000001
 12
0.4447236358
 22
-0.4792935264
 32
0.0
 13
-0.0
 23
-0.6538359096
 33
0.0
 40
0.0
 40
0.0
 40
0.0
 40
0.0
 40
0.1619812564
 40
0.3217482411
 40
0.4767475837
 40
0.6236499156
 40
0.6926617707
 40
0.7577227107
 40
0.8178699823
 40
0.8719449633
 40
0.9185885491
 40
0.9563028849
 40
0.9836600938
 40
0.9931773449
 40
1.0
 40
1.0
 40
1.0
 40
1.0
 10
-3.9279699877
 20
-23.2592582188
 30
0.0
 10
-3.9039576899
 20
-23.2851370747
 30
0.0
 10
-3.8562612279
 20
-23.3365409147
 30
0.0
 10
-3.7857010306
 20
-23.4128135141
 30
0.0
 10
-3.7176192193
 20
-23.4869012757
 30
0.0
 10
-3.6632734063
 20
-23.5467479225
 30
0.0
 10
-3.6224807717
 20
-23.5924209154
 30
0.0
 10
-3.5945220273
 20
-23.624202953
 30
0.0
 10
-3.5690210859
 20
-23.653811133
 30
0.0
 10
-3.5465565554
 20
-23.6807263207
 30
0.0
 10
-3.5277542475
 20
-23.7043408952
 30
0.0
 10
-3.5133929686
 20
-23.7239809202
 30
0.0
 10
-3.5046497296
 20
-23.7377778546
 30
0.0
 10
-3.5008365988
 20
-23.7465030957
 30
0.0
 10
-3.5
 20
-23.7500332392
 30
0.0
 10
-3.5
 20
-23.7515202049
 30
0.0
 11
-3.9279699877
 21
-23.2592582188
 31
0.0
 11
-3.8559524138
 21
-23.3369127079
 31
0.0
 11
-3.7850387299
 21
-23.4136162398
 31
0.0
 11
-3.7165007741
 21
-23.4882699909
 31
0.0
 11
-3.6519945618
 21
-23.5594356769
 31
0.0
 11
-3.6219508056
 21
-23.5931017773
 31
0.0
 11
-3.5938726854
 21
-23.6250580115
 31
0.0
 11
-3.5682394276
 21
-23.6548825895
 31
0.0
 11
-3.54562983
 21
-23.6820646509
 31
0.0
 11
-3.5267289467
 21
-23.7059987051
 31
0.0
 11
-3.5123092658
 21
-23.726002166
 31
0.0
 11
-3.5031665504
 21
-23.7413761704
 31
0.0
 11
-3.5008013714
 21
-23.7471318789
 31
0.0
 11
-3.5
 21
-23.7515202049
 31
0.0
  0
SPLINE
  5
63E
100
AcDbEntity
  8
ASSI
100
AcDbSpline
 62
7
  6
CONTINUOUS
 70
0
 71
3
 72
20
 73
16
 74
14
 42
0.0000001
 43
0.0000001
 44
0.0000000001
 12
0.0260946566
 22
0.6529621365
 32
0.0
 13
0.44448383
 23
0.4790350797
 33
0.0
 40
0.0
 40
0.0
 40
0.0
 40
0.0
 40
0.0070432098
 40
0.016789168
 40
0.0445477224
 40
0.0825557274
 40
0.1293870161
 40
0.1835586878
 40
0.2437291688
 40
0.3087558279
 40
0.3776892652
 40
0.5243417351
 40
0.6790126124
 40
0.8384084924
 40
1.0
 40
1.0
 40
1.0
 40
1.0
 10
-4.3559327327
 20
-23.7511641713
 30
0.0
 10
-4.3558714694
 20
-23.7496311882
 30
0.0
 10
-4.3549342732
 20
-23.7460351066
 30
0.0
 10
-4.3509511329
 20
-23.737186715
 30
0.0
 10
-4.3420545563
 20
-23.7232673458
 30
0.0
 10
-4.3275448234
 20
-23.7035108447
 30
0.0
 10
-4.3086503622
 20
-23.6798312363
 30
0.0
 10
-4.2861378065
 20
-23.6528930236
 30
0.0
 10
-4.2606272995
 20
-23.6232964966
 30
0.0
 10
-4.2326887531
 20
-23.591553017
 30
0.0
 10
-4.1919635738
 20
-23.5459699742
 30
0.0
 10
-4.1377387366
 20
-23.4862656112
 30
0.0
 10
-4.0698312879
 20
-23.4123721862
 30
0.0
 10
-3.9994696046
 20
-23.3363155167
 30
0.0
 10
-3.9519115917
 20
-23.2850608857
 30
0.0
 10
-3.9279699877
 20
-23.2592582188
 30
0.0
 11
-4.3559327327
 21
-23.7511641713
 31
0.0
 11
-4.3549858924
 21
-23.7466599946
 31
0.0
 11
-4.3524897578
 21
-23.7408007117
 31
0.0
 11
-4.3431326706
 21
-23.7252605843
 31
0.0
 11
-4.3285616517
 21
-23.7051461194
 31
0.0
 11
-4.309566462
 21
-23.6811512247
 31
0.0
 11
-4.2869104054
 21
-23.6539504288
 31
0.0
 11
-4.2612690193
 21
-23.6241408038
 31
0.0
 11
-4.2332127039
 21
-23.5922257683
 31
0.0
 11
-4.2032137553
 21
-23.558620976
 31
0.0
 11
-4.1388457803
 21
-23.4876202661
 31
0.0
 11
-4.0704873231
 21
-23.4131672939
 31
0.0
 11
-3.9997756521
 21
-23.3366839818
 31
0.0
 11
-3.9279699877
 21
-23.2592582188
 31
0.0
  0
SPLINE
  5
63F
100
AcDbEntity
  8
ASSI
100
AcDbSpline
 62
7
  6
CONTINUOUS
 70
0
 71
3
 72
20
 73
16
 74
14
 42
0.0000001
 43
0.0000001
 44
0.0000000001
 12
0.4444838296
 22
-0.4790350792
 32
0.0
 13
0.0260946566
 23
-0.6529621358
 33
0.0
 40
0.0
 40
0.0
 40
0.0
 40
0.0
 40
0.1615914101
 40
0.3209872424
 40
0.475658132
 40
0.6223105847
 40
0.6912439979
 40
0.7562706379
 40
0.8164411166
 40
0.870612798
 40
0.9174441205
 40
0.9554521768
 40
0.9832107995
 40
0.9929567772
 40
1.0
 40
1.0
 40
1.0
 40
1.0
 10
3.9279699877
 20
-23.2592582188
 30
0.0
 10
3.9519115773
 20
-23.2850608701
 30
0.0
 10
3.9994695686
 20
-23.3363154777
 30
0.0
 10
4.0698312323
 20
-23.4123721259
 30
0.0
 10
4.1377386737
 20
-23.4862655419
 30
0.0
 10
4.1919635071
 20
-23.5459698996
 30
0.0
 10
4.2326886779
 20
-23.5915529324
 30
0.0
 10
4.2606272177
 20
-23.6232964045
 30
0.0
 10
4.2861377251
 20
-23.6528929277
 30
0.0
 10
4.3086502891
 20
-23.6798311451
 30
0.0
 10
4.3275447647
 20
-23.7035107687
 30
0.0
 10
4.3420545193
 20
-23.7232672943
 30
0.0
 10
4.3509511207
 20
-23.7371866854
 30
0.0
 10
4.3549342654
 20
-23.7460350981
 30
0.0
 10
4.3558714693
 20
-23.7496311853
 30
0.0
 10
4.3559327327
 20
-23.7511641713
 30
0.0
 11
3.9279699877
 21
-23.2592582188
 31
0.0
 11
3.9997756088
 21
-23.3366839349
 31
0.0
 11
4.0704872587
 21
-23.4131672239
 31
0.0
 11
4.1388457218
 21
-23.4876202015
 31
0.0
 11
4.2032136896
 21
-23.5586209025
 31
0.0
 11
4.2332126279
 21
-23.5922256828
 31
0.0
 11
4.2612689355
 21
-23.6241407087
 31
0.0
 11
4.2869103226
 21
-23.6539503308
 31
0.0
 11
4.3095663855
 21
-23.6811511295
 31
0.0
 11
4.3285615908
 21
-23.7051460401
 31
0.0
 11
4.3431326334
 21
-23.7252605291
 31
0.0
 11
4.3524897473
 21
-23.7408006924
 31
0.0
 11
4.3549858871
 21
-23.7466599871
 31
0.0
 11
4.3559327327
 21
-23.7511641713
 31
0.0
  0
SPLINE
  5
640
100
AcDbEntity
  8
ASSI
100
AcDbSpline
 62
7
  6
CONTINUOUS
 70
0
 71
3
 72
20
 73
16
 74
14
 42
0.0000001
 43
0.0000001
 44
0.0000000001
 12
0.0
 22
0.6538359104
 32
0.0
 13
0.4447236363
 23
0.479293527
 33
0.0
 40
0.0
 40
0.0
 40
0.0
 40
0.0
 40
0.0068226417
 40
0.0163398729
 40
0.0436970105
 40
0.0814112925
 40
0.1280548426
 40
0.1821298132
 40
0.2422770865
 40
0.3073380453
 40
0.376349925
 40
0.5232522738
 40
0.678251604
 40
0.8380186408
 40
1.0
 40
1.0
 40
1.0
 40
1.0
 10
3.5
 20
-23.7515202049
 30
0.0
 10
3.5
 20
-23.7500332422
 30
0.0
 10
3.5008365905
 20
-23.7465031046
 30
0.0
 10
3.5046497174
 20
-23.7377778854
 30
0.0
 10
3.5133929301
 20
-23.7239809738
 30
0.0
 10
3.5277541864
 20
-23.7043409745
 30
0.0
 10
3.546556479
 20
-23.6807264161
 30
0.0
 10
3.5690210007
 20
-23.6538112335
 30
0.0
 10
3.5945219413
 20
-23.6242030498
 30
0.0
 10
3.6224806922
 20
-23.5924210048
 30
0.0
 10
3.6632733354
 20
-23.5467480018
 30
0.0
 10
3.7176191521
 20
-23.4869013498
 30
0.0
 10
3.7857009714
 20
-23.4128135785
 30
0.0
 10
3.8562611897
 20
-23.3365409561
 30
0.0
 10
3.9039576746
 20
-23.2851370911
 30
0.0
 10
3.9279699877
 20
-23.2592582188
 30
0.0
 11
3.5
 21
-23.7515202049
 31
0.0
 11
3.5008013659
 21
-23.7471318868
 31
0.0
 11
3.5031665398
 21
-23.7413761903
 31
0.0
 11
3.5123092273
 21
-23.7260022234
 31
0.0
 11
3.5267288833
 21
-23.7059987879
 31
0.0
 11
3.5456297501
 21
-23.6820647504
 31
0.0
 11
3.5682393409
 21
-23.6548826922
 31
0.0
 11
3.5938725973
 21
-23.6250581116
 31
0.0
 11
3.6219507252
 21
-23.5931018677
 31
0.0
 11
3.651994492
 21
-23.5594357551
 31
0.0
 11
3.7165007113
 21
-23.4882700602
 31
0.0
 11
3.7850386612
 21
-23.4136163145
 31
0.0
 11
3.8559523681
 21
-23.3369127574
 31
0.0
 11
3.9279699877
 21
-23.2592582188
 31
0.0
  0
SPLINE
  5
641
100
AcDbEntity
  8
ASSI
100
AcDbSpline
 62
7
  6
CONTINUOUS
 70
0
 71
3
 72
20
 73
16
 74
14
 42
0.0000001
 43
0.0000001
 44
0.0000000001
 12
0.0
 22
-0.655820028
 32
0.0
 13
-0.4453734945
 23
-0.4813962605
 33
0.0
 40
0.0
 40
0.0
 40
0.0
 40
0.0
 40
0.0070071055
 40
0.0166823709
 40
0.0442828746
 40
0.082160257
 40
0.1289011048
 40
0.1830205033
 40
0.243170855
 40
0.3082029787
 40
0.3771618017
 40
0.5239073782
 40
0.6787074564
 40
0.8382518717
 40
1.0
 40
1.0
 40
1.0
 40
1.0
 10
-3.5
 20
23.7511422903
 30
0.0
 10
-3.5
 20
23.7496104903
 30
0.0
 10
-3.5008279684
 20
23.7459920018
 30
0.0
 10
-3.5046355916
 20
23.7370905407
 30
0.0
 10
-3.5133793499
 20
23.7230894019
 30
0.0
 10
-3.5277544382
 20
23.7032304945
 30
0.0
 10
-3.5465635981
 20
23.6794194517
 30
0.0
 10
-3.5690312528
 20
23.6523270162
 30
0.0
 10
-3.5945321274
 20
23.622557037
 30
0.0
 10
-3.6224891546
 20
23.5906254371
 30
0.0
 10
-3.6632741319
 20
23.5447665336
 30
0.0
 10
-3.7176148114
 20
23.4847047253
 30
0.0
 10
-3.7856968797
 20
23.4103744627
 30
0.0
 10
-3.8562586996
 20
23.3338690249
 30
0.0
 10
-3.9039572113
 20
23.2823127961
 30
0.0
 10
-3.9279699877
 20
23.2563578147
 30
0.0
 11
-3.5
 21
23.7511422903
 31
0.0
 11
-3.5008025375
 21
23.7466175101
 31
0.0
 11
-3.5031705537
 21
23.7407307047
 31
0.0
 11
-3.5123204148
 21
23.7251126091
 31
0.0
 11
-3.5267457729
 21
23.7048895603
 31
0.0
 11
-3.5456492082
 21
23.6807586185
 31
0.0
 11
-3.5682584201
 21
23.6533990286
 31
0.0
 11
-3.5938892833
 21
23.6234125616
 31
0.0
 11
-3.6219639386
 21
23.5913067613
 31
0.0
 11
-3.6520039946
 21
23.5575005869
 31
0.0
 11
-3.7165040306
 21
23.4860748882
 31
0.0
 11
-3.7850387171
 21
23.4111782362
 31
0.0
 11
-3.855951728
 21
23.3342413217
 31
0.0
 11
-3.9279699877
 21
23.2563578147
 31
0.0
  0
SPLINE
  5
642
100
AcDbEntity
  8
ASSI
100
AcDbSpline
 62
7
  6
CONTINUOUS
 70
0
 71
3
 72
20
 73
16
 74
14
 42
0.0000001
 43
0.0000001
 44
0.0000000001
 12
-0.4451253229
 22
0.4811280162
 32
0.0
 13
-0.0252813737
 23
0.6549668489
 33
0.0
 40
0.0
 40
0.0
 40
0.0
 40
0.0
 40
0.1613622567
 40
0.3205392927
 40
0.4750142876
 40
0.6215127267
 40
0.6903940797
 40
0.7553924524
 40
0.8155659793
 40
0.8697812898
 40
0.9167081239
 40
0.9548763397
 40
0.9828739863
 40
0.9927752037
 40
1.0
 40
1.0
 40
1.0
 40
1.0
 10
-3.9279699877
 20
23.2563578147
 30
0.0
 10
-3.9519121299
 20
23.2822364489
 30
0.0
 10
-3.9994722982
 20
23.3336431472
 30
0.0
 10
-4.0698357633
 20
23.4099321261
 30
0.0
 10
-4.1377436075
 20
23.4840674079
 30
0.0
 10
-4.1919634425
 20
23.5439862428
 30
0.0
 10
-4.232681075
 20
23.5897544604
 30
0.0
 10
-4.2606178848
 20
23.6216467934
 30
0.0
 10
-4.2861282387
 20
23.6514042296
 30
0.0
 10
-4.3086437016
 20
23.6785185518
 30
0.0
 10
-4.3275447595
 20
23.7023932482
 30
0.0
 10
-4.342067727
 20
23.7223668207
 30
0.0
 10
-4.3509649358
 20
23.7364888057
 30
0.0
 10
-4.3549428125
 20
23.7455117571
 30
0.0
 10
-4.3558718485
 20
23.7491960907
 30
0.0
 10
-4.3559327327
 20
23.7507734247
 30
0.0
 11
-3.9279699877
 21
23.2563578147
 31
0.0
 11
-3.9997765229
 21
23.3340121154
 31
0.0
 11
-4.070487707
 21
23.4107282799
 31
0.0
 11
-4.1388430809
 21
23.4854235117
 31
0.0
 11
-4.2032050442
 21
23.5566833778
 31
0.0
 11
-4.233200347
 21
23.5904276781
 31
0.0
 11
-4.2612532124
 21
23.6224915738
 31
0.0
 11
-4.286892158
 21
23.6524621942
 31
0.0
 11
-4.3095477018
 21
23.6798393833
 31
0.0
 11
-4.3285452308
 21
23.7040297451
 31
0.0
 11
-4.3431216682
 21
23.7243620936
 31
0.0
 11
-4.3524857022
 21
23.7401443905
 31
0.0
 11
-4.3549846538
 21
23.7461337747
 31
0.0
 11
-4.3559327327
 21
23.7507734247
 31
0.0
  0
SPLINE
  5
643
100
AcDbEntity
  8
ASSI
100
AcDbSpline
 62
7
  6
CONTINUOUS
 70
0
 71
3
 72
20
 73
16
 74
14
 42
0.0000001
 43
0.0000001
 44
0.0000000001
 12
-0.0252813737
 22
-0.6549668482
 32
0.0
 13
-0.4451253224
 23
-0.4811280157
 33
0.0
 40
0.0
 40
0.0
 40
0.0
 40
0.0
 40
0.0072248101
 40
0.0171260486
 40
0.0451237695
 40
0.0832920408
 40
0.1302189132
 40
0.1844342364
 40
0.2446077607
 40
0.3096061118
 40
0.378487439
 40
0.5249858569
 40
0.6794608614
 40
0.838637846
 40
1.0
 40
1.0
 40
1.0
 40
1.0
 10
4.3559327327
 20
23.7507734247
 30
0.0
 10
4.3558718484
 20
23.7491960877
 30
0.0
 10
4.3549428042
 20
23.7455117479
 30
0.0
 10
4.3509649227
 20
23.7364887736
 30
0.0
 10
4.3420676872
 20
23.7223667645
 30
0.0
 10
4.3275446959
 20
23.7023931651
 30
0.0
 10
4.3086436218
 20
23.6785184514
 30
0.0
 10
4.2861281493
 20
23.6514041237
 30
0.0
 10
4.2606177946
 20
23.6216466915
 30
0.0
 10
4.2326809922
 20
23.5897543667
 30
0.0
 10
4.1919633693
 20
23.5439861607
 30
0.0
 10
4.1377435392
 20
23.4840673324
 30
0.0
 10
4.0698357039
 20
23.4099320613
 30
0.0
 10
3.9994722601
 20
23.3336431058
 30
0.0
 10
3.9519121146
 20
23.2822364324
 30
0.0
 10
3.9279699877
 20
23.2563578147
 30
0.0
 11
4.3559327327
 21
23.7507734247
 31
0.0
 11
4.3549846482
 21
23.7461337667
 31
0.0
 11
4.3524856912
 21
23.7401443696
 31
0.0
 11
4.3431216281
 21
23.7243620334
 31
0.0
 11
4.3285451651
 21
23.7040296586
 31
0.0
 11
4.3095476183
 21
23.6798392787
 31
0.0
 11
4.2868920667
 21
23.6524620856
 31
0.0
 11
4.26125312
 21
23.6224914684
 31
0.0
 11
4.2332002635
 21
23.5904275837
 31
0.0
 11
4.2032049717
 21
23.5566832963
 31
0.0
 11
4.1388430172
 21
23.4854234411
 31
0.0
 11
4.0704876386
 21
23.4107282053
 31
0.0
 11
3.9997764772
 21
23.3340120658
 31
0.0
 11
3.9279699877
 21
23.2563578147
 31
0.0
  0
SPLINE
  5
644
100
AcDbEntity
  8
ASSI
100
AcDbSpline
 62
7
  6
CONTINUOUS
 70
0
 71
3
 72
20
 73
16
 74
14
 42
0.0000001
 43
0.0000001
 44
0.0000000001
 12
-0.445373495
 22
0.4813962611
 32
0.0
 13
0.0
 23
0.6558200289
 33
0.0
 40
0.0
 40
0.0
 40
0.0
 40
0.0
 40
0.1617482366
 40
0.3212927077
 40
0.4760927764
 40
0.6228383737
 40
0.691797223
 40
0.7568293683
 40
0.816979722
 40
0.871099107
 40
0.9178399145
 40
0.9557172384
 40
0.9833176649
 40
0.9929929087
 40
1.0
 40
1.0
 40
1.0
 40
1.0
 10
3.9279699877
 20
23.2563578147
 30
0.0
 10
3.9039571952
 20
23.2823128135
 30
0.0
 10
3.8562586592
 20
23.3338690689
 30
0.0
 10
3.7856968164
 20
23.4103745317
 30
0.0
 10
3.7176147387
 20
23.4847048057
 30
0.0
 10
3.6632740542
 20
23.5447666207
 30
0.0
 10
3.6224890673
 20
23.5906255359
 30
0.0
 10
3.5945320327
 20
23.622557144
 30
0.0
 10
3.5690311594
 20
23.6523271271
 30
0.0
 10
3.5465635148
 20
23.6794195565
 30
0.0
 10
3.527754372
 20
23.7032305811
 30
0.0
 10
3.5133793084
 20
23.7230894604
 30
0.0
 10
3.5046355787
 20
23.7370905742
 30
0.0
 10
3.5008279597
 20
23.7459920114
 30
0.0
 10
3.5
 20
23.7496104934
 30
0.0
 10
3.5
 20
23.7511422903
 30
0.0
 11
3.9279699877
 21
23.2563578147
 31
0.0
 11
3.8559516799
 21
23.334241374
 31
0.0
 11
3.7850386443
 21
23.4111783158
 31
0.0
 11
3.7165039624
 21
23.4860749638
 31
0.0
 11
3.6520039178
 21
23.5575006733
 31
0.0
 11
3.6219638506
 21
23.5913068608
 31
0.0
 11
3.5938891863
 21
23.6234126723
 31
0.0
 11
3.5682583246
 21
23.6533991423
 31
0.0
 11
3.5456491212
 21
23.6807587277
 31
0.0
 11
3.5267457044
 21
23.7048896505
 31
0.0
 11
3.5123203734
 21
23.7251126717
 31
0.0
 11
3.5031705425
 21
23.7407307262
 31
0.0
 11
3.5008025316
 21
23.7466175185
 31
0.0
 11
3.5
 21
23.7511422903
 31
0.0
  0
SPLINE
  5
645
100
AcDbEntity
  8
RACCORDO
100
AcDbSpline
 62
7
  6
CONTINUOUS
 70
0
 71
3
 72
22
 73
18
 74
16
 42
0.0000001
 43
0.0000001
 44
0.0000000001
 12
0.5047014999
 22
0.0
 32
0.0
 13
0.4926157964
 23
-0.1097874362
 33
0.0
 40
0.0
 40
0.0
 40
0.0
 40
0.0
 40
0.1577134021
 40
0.3140603424
 40
0.467292566
 40
0.6148229905
 40
0.6852251525
 40
0.7524103876
 40
0.8153332617
 40
0.8725676166
 40
0.922207447
 40
0.9434356611
 40
0.9618162653
 40
0.9769852169
 40
0.9885951059
 40
0.9963395751
 40
1.0
 40
1.0
 40
1.0
 40
1.0
 10
4.0594365124
 20
19.9703286495
 30
0.0
 10
4.0859692426
 20
19.9703286495
 30
0.0
 10
4.1388048203
 20
19.9703085129
 30
0.0
 10
4.2174191934
 20
19.9702146354
 30
0.0
 10
4.2943203313
 20
19.970051715
 30
0.0
 10
4.3567625016
 20
19.9698495398
 30
0.0
 10
4.4047285109
 20
19.969638734
 30
0.0
 10
4.4384606394
 20
19.9694586735
 30
0.0
 10
4.4699773489
 20
19.9692531045
 30
0.0
 10
4.498541932
 20
19.9690201053
 30
0.0
 10
4.5200921972
 20
19.9687963274
 30
0.0
 10
4.5351050802
 20
19.9685918658
 30
0.0
 10
4.5443202912
 20
19.9684457378
 30
0.0
 10
4.5519134445
 20
19.9682797944
 30
0.0
 10
4.5577260072
 20
19.9681516587
 30
0.0
 10
4.5615816206
 20
19.9679432801
 30
0.0
 10
4.5635141177
 20
19.9678902369
 30
0.0
 10
4.5641151788
 20
19.9677562806
 30
0.0
 11
4.0594365124
 21
19.9703286495
 31
0.0
 11
4.1390346969
 21
19.9702975924
 31
0.0
 11
4.217943174
 21
19.97020173
 31
0.0
 11
4.2952795273
 21
19.9700349832
 31
0.0
 11
4.3697379445
 21
19.9697880868
 31
0.0
 11
4.4052696724
 21
19.9696306404
 31
0.0
 11
4.4391776691
 21
19.9694479322
 31
0.0
 11
4.4709342429
 21
19.9692378033
 31
0.0
 11
4.4998195139
 21
19.9689982007
 31
0.0
 11
4.5248713513
 21
19.9687277791
 31
0.0
 11
4.535584258
 21
19.968581056
 31
0.0
 11
4.5448596978
 21
19.96842703
 31
0.0
 11
4.552513805
 21
19.9682663986
 31
0.0
 11
4.5583709732
 21
19.9681001048
 31
0.0
 11
4.5622758916
 21
19.9679294585
 31
0.0
 11
4.5641151788
 21
19.9677562806
 31
0.0
  0
SPLINE
  5
646
100
AcDbEntity
  8
RACCORDO
100
AcDbSpline
 62
7
  6
CONTINUOUS
 70
0
 71
3
 72
22
 73
18
 74
16
 42
0.0000001
 43
0.0000001
 44
0.0000000001
 12
0.4926157964
 22
0.1097874362
 32
0.0
 13
0.5047014999
 23
0.0
 33
0.0
 40
0.0
 40
0.0
 40
0.0
 40
0.0
 40
0.0036604249
 40
0.0114048941
 40
0.0230147831
 40
0.0381837347
 40
0.0565643389
 40
0.077792553
 40
0.1274323834
 40
0.1846667383
 40
0.2475896124
 40
0.3147748475
 40
0.3851770095
 40
0.532707434
 40
0.6859396576
 40
0.8422865979
 40
1.0
 40
1.0
 40
1.0
 40
1.0
 10
-4.5641151788
 20
19.9677562806
 30
0.0
 10
-4.5635141177
 20
19.9678902369
 30
0.0
 10
-4.5615816206
 20
19.9679432801
 30
0.0
 10
-4.5577260072
 20
19.9681516587
 30
0.0
 10
-4.5519134445
 20
19.9682797944
 30
0.0
 10
-4.5443202912
 20
19.9684457378
 30
0.0
 10
-4.5351050802
 20
19.9685918658
 30
0.0
 10
-4.5200921972
 20
19.9687963274
 30
0.0
 10
-4.498541932
 20
19.9690201053
 30
0.0
 10
-4.4699773489
 20
19.9692531045
 30
0.0
 10
-4.4384606394
 20
19.9694586735
 30
0.0
 10
-4.4047285109
 20
19.969638734
 30
0.0
 10
-4.3567625016
 20
19.9698495398
 30
0.0
 10
-4.2943203313
 20
19.970051715
 30
0.0
 10
-4.2174191934
 20
19.9702146354
 30
0.0
 10
-4.1388048203
 20
19.9703085129
 30
0.0
 10
-4.0859692426
 20
19.9703286495
 30
0.0
 10
-4.0594365124
 20
19.9703286495
 30
0.0
 11
-4.5641151788
 21
19.9677562806
 31
0.0
 11
-4.5622758916
 21
19.9679294585
 31
0.0
 11
-4.5583709732
 21
19.9681001048
 31
0.0
 11
-4.552513805
 21
19.9682663986
 31
0.0
 11
-4.5448596978
 21
19.96842703
 31
0.0
 11
-4.535584258
 21
19.968581056
 31
0.0
 11
-4.5248713513
 21
19.9687277791
 31
0.0
 11
-4.4998195139
 21
19.9689982007
 31
0.0
 11
-4.4709342429
 21
19.9692378033
 31
0.0
 11
-4.4391776691
 21
19.9694479322
 31
0.0
 11
-4.4052696724
 21
19.9696306404
 31
0.0
 11
-4.3697379445
 21
19.9697880868
 31
0.0
 11
-4.2952795273
 21
19.9700349832
 31
0.0
 11
-4.217943174
 21
19.97020173
 31
0.0
 11
-4.1390346969
 21
19.9702975924
 31
0.0
 11
-4.0594365124
 21
19.9703286495
 31
0.0
  0
SPLINE
  5
647
100
AcDbEntity
  8
RACCORDO
100
AcDbSpline
 62
7
  6
CONTINUOUS
 70
0
 71
3
 72
22
 73
18
 74
16
 42
0.0000001
 43
0.0000001
 44
0.0000000001
 12
-0.5047014999
 22
0.0
 32
0.0
 13
-0.4926157964
 23
0.1097874362
 33
0.0
 40
0.0
 40
0.0
 40
0.0
 40
0.0
 40
0.1577134021
 40
0.3140603424
 40
0.467292566
 40
0.6148229905
 40
0.6852251525
 40
0.7524103876
 40
0.8153332617
 40
0.8725676166
 40
0.922207447
 40
0.9434356611
 40
0.9618162653
 40
0.9769852169
 40
0.9885951059
 40
0.9963395751
 40
1.0
 40
1.0
 40
1.0
 40
1.0
 10
-4.0594365124
 20
-19.9703286495
 30
0.0
 10
-4.0859692426
 20
-19.9703286495
 30
0.0
 10
-4.1388048203
 20
-19.9703085129
 30
0.0
 10
-4.2174191934
 20
-19.9702146354
 30
0.0
 10
-4.2943203313
 20
-19.970051715
 30
0.0
 10
-4.3567625016
 20
-19.9698495398
 30
0.0
 10
-4.4047285109
 20
-19.969638734
 30
0.0
 10
-4.4384606394
 20
-19.9694586735
 30
0.0
 10
-4.4699773489
 20
-19.9692531045
 30
0.0
 10
-4.498541932
 20
-19.9690201053
 30
0.0
 10
-4.5200921972
 20
-19.9687963274
 30
0.0
 10
-4.5351050802
 20
-19.9685918658
 30
0.0
 10
-4.5443202912
 20
-19.9684457378
 30
0.0
 10
-4.5519134445
 20
-19.9682797944
 30
0.0
 10
-4.5577260072
 20
-19.9681516587
 30
0.0
 10
-4.5615816206
 20
-19.9679432801
 30
0.0
 10
-4.5635141177
 20
-19.9678902369
 30
0.0
 10
-4.5641151788
 20
-19.9677562806
 30
0.0
 11
-4.0594365124
 21
-19.9703286495
 31
0.0
 11
-4.1390346969
 21
-19.9702975924
 31
0.0
 11
-4.217943174
 21
-19.97020173
 31
0.0
 11
-4.2952795273
 21
-19.9700349832
 31
0.0
 11
-4.3697379445
 21
-19.9697880868
 31
0.0
 11
-4.4052696724
 21
-19.9696306404
 31
0.0
 11
-4.4391776691
 21
-19.9694479322
 31
0.0
 11
-4.4709342429
 21
-19.9692378033
 31
0.0
 11
-4.4998195139
 21
-19.9689982007
 31
0.0
 11
-4.5248713513
 21
-19.9687277791
 31
0.0
 11
-4.535584258
 21
-19.968581056
 31
0.0
 11
-4.5448596978
 21
-19.96842703
 31
0.0
 11
-4.552513805
 21
-19.9682663986
 31
0.0
 11
-4.5583709732
 21
-19.9681001048
 31
0.0
 11
-4.5622758916
 21
-19.9679294585
 31
0.0
 11
-4.5641151788
 21
-19.9677562806
 31
0.0
  0
SPLINE
  5
648
100
AcDbEntity
  8
RACCORDO
100
AcDbSpline
 62
7
  6
CONTINUOUS
 70
0
 71
3
 72
22
 73
18
 74
16
 42
0.0000001
 43
0.0000001
 44
0.0000000001
 12
-0.4926157964
 22
-0.1097874362
 32
0.0
 13
-0.5047014999
 23
0.0
 33
0.0
 40
0.0
 40
0.0
 40
0.0
 40
0.0
 40
0.0036604249
 40
0.0114048941
 40
0.0230147831
 40
0.0381837347
 40
0.0565643389
 40
0.077792553
 40
0.1274323834
 40
0.1846667383
 40
0.2475896124
 40
0.3147748475
 40
0.3851770095
 40
0.532707434
 40
0.6859396576
 40
0.8422865979
 40
1.0
 40
1.0
 40
1.0
 40
1.0
 10
4.5641151788
 20
-19.9677562806
 30
0.0
 10
4.5635141177
 20
-19.9678902369
 30
0.0
 10
4.5615816206
 20
-19.9679432801
 30
0.0
 10
4.5577260072
 20
-19.9681516587
 30
0.0
 10
4.5519134445
 20
-19.9682797944
 30
0.0
 10
4.5443202912
 20
-19.9684457378
 30
0.0
 10
4.5351050802
 20
-19.9685918658
 30
0.0
 10
4.5200921972
 20
-19.9687963274
 30
0.0
 10
4.498541932
 20
-19.9690201053
 30
0.0
 10
4.4699773489
 20
-19.9692531045
 30
0.0
 10
4.4384606394
 20
-19.9694586735
 30
0.0
 10
4.4047285109
 20
-19.969638734
 30
0.0
 10
4.3567625016
 20
-19.9698495398
 30
0.0
 10
4.2943203313
 20
-19.970051715
 30
0.0
 10
4.2174191934
 20
-19.9702146354
 30
0.0
 10
4.1388048203
 20
-19.9703085129
 30
0.0
 10
4.0859692426
 20
-19.9703286495
 30
0.0
 10
4.0594365124
 20
-19.9703286495
 30
0.0
 11
4.5641151788
 21
-19.9677562806
 31
0.0
 11
4.5622758916
 21
-19.9679294585
 31
0.0
 11
4.5583709732
 21
-19.9681001048
 31
0.0
 11
4.552513805
 21
-19.9682663986
 31
0.0
 11
4.5448596978
 21
-19.96842703
 31
0.0
 11
4.535584258
 21
-19.968581056
 31
0.0
 11
4.5248713513
 21
-19.9687277791
 31
0.0
 11
4.4998195139
 21
-19.9689982007
 31
0.0
 11
4.4709342429
 21
-19.9692378033
 31
0.0
 11
4.4391776691
 21
-19.9694479322
 31
0.0
 11
4.4052696724
 21
-19.9696306404
 31
0.0
 11
4.3697379445
 21
-19.9697880868
 31
0.0
 11
4.2952795273
 21
-19.9700349832
 31
0.0
 11
4.217943174
 21
-19.97020173
 31
0.0
 11
4.1390346969
 21
-19.9702975924
 31
0.0
 11
4.0594365124
 21
-19.9703286495
 31
0.0
  0
SPLINE
  5
649
100
AcDbEntity
  8
DRAFT
100
AcDbSpline
 62
7
  6
CONTINUOUS
 70
0
 71
3
 72
9
 73
5
 74
3
 42
0.0000001
 43
0.0000001
 44
0.0000000001
 12
-0.2616524425
 22
0.3700324329
 32
0.0
 13
-0.2509093813
 23
0.3773996349
 33
0.0
 40
0.0
 40
0.0
 40
0.0
 40
0.0
 40
0.5064000945
 40
1.0
 40
1.0
 40
1.0
 40
1.0
 10
-7.5841007192
 20
21.3126932437
 30
0.0
 10
-7.6282676597
 20
21.37515473
 30
0.0
 10
-7.715486414
 20
21.4984954799
 30
0.0
 10
-7.8011494716
 20
21.6229436588
 30
0.0
 10
-7.8424324206
 20
21.6850384669
 30
0.0
 11
-7.5841007192
 21
21.3126932437
 31
0.0
 11
-7.7162038861
 21
21.5003582551
 31
0.0
 11
-7.8424324206
 21
21.6850384669
 31
0.0
  0
SPLINE
  5
64A
100
AcDbEntity
  8
DRAFT
100
AcDbSpline
 62
7
  6
CONTINUOUS
 70
0
 71
3
 72
9
 73
5
 74
3
 42
0.0000001
 43
0.0000001
 44
0.0000000001
 12
-0.2509093813
 22
-0.3773996349
 32
0.0
 13
-0.2616524425
 23
-0.3700324329
 33
0.0
 40
0.0
 40
0.0
 40
0.0
 40
0.0
 40
0.4935999055
 40
1.0
 40
1.0
 40
1.0
 40
1.0
 10
7.8424324206
 20
21.6850384669
 30
0.0
 10
7.8011494716
 20
21.6229436588
 30
0.0
 10
7.715486414
 20
21.4984954799
 30
0.0
 10
7.6282676597
 20
21.37515473
 30
0.0
 10
7.5841007192
 20
21.3126932437
 30
0.0
 11
7.8424324206
 21
21.6850384669
 31
0.0
 11
7.7162038861
 21
21.5003582551
 31
0.0
 11
7.5841007192
 21
21.3126932437
 31
0.0
  0
SPLINE
  5
64B
100
AcDbEntity
  8
DRAFT
100
AcDbSpline
 62
7
  6
CONTINUOUS
 70
0
 71
3
 72
9
 73
5
 74
3
 42
0.0000001
 43
0.0000001
 44
0.0000000001
 12
0.2509093813
 22
0.3773996349
 32
0.0
 13
0.2616524425
 23
0.3700324329
 33
0.0
 40
0.0
 40
0.0
 40
0.0
 40
0.0
 40
0.4935999055
 40
1.0
 40
1.0
 40
1.0
 40
1.0
 10
-7.8424324206
 20
-21.6850384669
 30
0.0
 10
-7.8011494716
 20
-21.6229436588
 30
0.0
 10
-7.715486414
 20
-21.4984954799
 30
0.0
 10
-7.6282676597
 20
-21.37515473
 30
0.0
 10
-7.5841007192
 20
-21.3126932437
 30
0.0
 11
-7.8424324206
 21
-21.6850384669
 31
0.0
 11
-7.7162038861
 21
-21.5003582551
 31
0.0
 11
-7.5841007192
 21
-21.3126932437
 31
0.0
  0
SPLINE
  5
64C
100
AcDbEntity
  8
DRAFT
100
AcDbSpline
 62
7
  6
CONTINUOUS
 70
0
 71
3
 72
9
 73
5
 74
3
 42
0.0000001
 43
0.0000001
 44
0.0000000001
 12
0.2616524425
 22
-0.3700324329
 32
0.0
 13
0.2509093813
 23
-0.3773996349
 33
0.0
 40
0.0
 40
0.0
 40
0.0
 40
0.0
 40
0.5064000945
 40
1.0
 40
1.0
 40
1.0
 40
1.0
 10
7.5841007192
 20
-21.3126932437
 30
0.0
 10
7.6282676597
 20
-21.37515473
 30
0.0
 10
7.715486414
 20
-21.4984954799
 30
0.0
 10
7.8011494716
 20
-21.6229436588
 30
0.0
 10
7.8424324206
 20
-21.6850384669
 30
0.0
 11
7.5841007192
 21
-21.3126932437
 31
0.0
 11
7.7162038861
 21
-21.5003582551
 31
0.0
 11
7.8424324206
 21
-21.6850384669
 31
0.0
  0
SPLINE
  5
64D
100
AcDbEntity
  8
RACCORDO
100
AcDbSpline
 62
253
  6
CONTINUOUS
 70
0
 71
3
 72
13
 73
9
 74
7
 42
0.0000001
 43
0.0000001
 44
0.0000000001
 12
-0.0012265939
 22
-0.3651868479
 32
0.0
 13
-0.3651877491
 23
-0.0009199789
 33
0.0
 40
0.0
 40
0.0
 40
0.0
 40
0.0
 40
0.1162399782
 40
0.2339778175
 40
0.3543713311
 40
0.4780980184
 40
0.7345386243
 40
1.0
 40
1.0
 40
1.0
 40
1.0
 10
10.645628166
 20
23.8443375673
 30
0.0
 10
10.6455806396
 20
23.8301877969
 30
0.0
 10
10.6422223551
 20
23.8016148029
 30
0.0
 10
10.6276650278
 20
23.7606547352
 30
0.0
 10
10.6041946141
 20
23.7229828841
 30
0.0
 10
10.561892224
 20
23.6786204872
 30
0.0
 10
10.4919652956
 20
23.6387874753
 30
0.0
 10
10.4279468109
 20
23.6279126226
 30
0.0
 10
10.3956323968
 20
23.6278312164
 30
0.0
 11
10.645628166
 21
23.8443375673
 31
0.0
 11
10.6407004657
 21
23.8021749995
 31
0.0
 11
10.626389741
 21
23.7616298799
 31
0.0
 11
10.6032441408
 21
23.7242490909
 31
0.0
 11
10.5721495847
 21
23.6914666636
 31
0.0
 11
10.4911334639
 21
23.6444924903
 31
0.0
 11
10.3956323968
 21
23.6278312164
 31
0.0
  0
SPLINE
  5
64E
100
AcDbEntity
  8
RACCORDO
100
AcDbSpline
 62
253
  6
CONTINUOUS
 70
0
 71
3
 72
13
 73
9
 74
7
 42
0.0000001
 43
0.0000001
 44
0.0000000001
 12
0.0012265939
 22
-0.3651868488
 32
0.0
 13
0.36518775
 23
-0.0009199789
 33
0.0
 40
0.0
 40
0.0
 40
0.0
 40
0.0
 40
0.1162401487
 40
0.2339779758
 40
0.3543714899
 40
0.478098162
 40
0.7345387303
 40
1.0
 40
1.0
 40
1.0
 40
1.0
 10
8.254371834
 20
23.8443375673
 30
0.0
 10
8.2544193605
 20
23.8301877761
 30
0.0
 10
8.2577776481
 20
23.8016147615
 30
0.0
 10
8.2723350011
 20
23.7606546823
 30
0.0
 10
8.295805421
 20
23.7229828394
 30
0.0
 10
8.3381078178
 20
23.6786204573
 30
0.0
 10
8.408034735
 20
23.6387874669
 30
0.0
 10
8.472053202
 20
23.6279126226
 30
0.0
 10
8.5043676032
 20
23.6278312164
 30
0.0
 11
8.254371834
 21
23.8443375673
 31
0.0
 11
8.2592995465
 21
23.8021749381
 31
0.0
 11
8.2736102851
 21
23.761629828
 31
0.0
 11
8.2967558954
 21
23.7242490449
 31
0.0
 11
8.3278504554
 21
23.6914666288
 31
0.0
 11
8.4088665728
 21
23.6444924765
 31
0.0
 11
8.5043676032
 21
23.6278312164
 31
0.0
  0
SPLINE
  5
64F
100
AcDbEntity
  8
RACCORDO
100
AcDbSpline
 62
253
  6
CONTINUOUS
 70
0
 71
3
 72
13
 73
9
 74
7
 42
0.0000001
 43
0.0000001
 44
0.0000000001
 12
-0.0012265939
 22
-0.3651868479
 32
0.0
 13
-0.3651877491
 23
-0.0009199789
 33
0.0
 40
0.0
 40
0.0
 40
0.0
 40
0.0
 40
0.1162399782
 40
0.2339778175
 40
0.3543713311
 40
0.4780980184
 40
0.7345386243
 40
1.0
 40
1.0
 40
1.0
 40
1.0
 10
-8.254371834
 20
23.8443375673
 30
0.0
 10
-8.2544193604
 20
23.8301877969
 30
0.0
 10
-8.2577776449
 20
23.8016148029
 30
0.0
 10
-8.2723349722
 20
23.7606547352
 30
0.0
 10
-8.2958053859
 20
23.7229828841
 30
0.0
 10
-8.338107776
 20
23.6786204872
 30
0.0
 10
-8.4080347044
 20
23.6387874753
 30
0.0
 10
-8.4720531891
 20
23.6279126226
 30
0.0
 10
-8.5043676032
 20
23.6278312164
 30
0.0
 11
-8.254371834
 21
23.8443375673
 31
0.0
 11
-8.2592995343
 21
23.8021749995
 31
0.0
 11
-8.273610259
 21
23.7616298799
 31
0.0
 11
-8.2967558592
 21
23.7242490909
 31
0.0
 11
-8.3278504153
 21
23.6914666636
 31
0.0
 11
-8.4088665361
 21
23.6444924903
 31
0.0
 11
-8.5043676032
 21
23.6278312164
 31
0.0
  0
SPLINE
  5
650
100
AcDbEntity
  8
RACCORDO
100
AcDbSpline
 62
253
  6
CONTINUOUS
 70
0
 71
3
 72
13
 73
9
 74
7
 42
0.0000001
 43
0.0000001
 44
0.0000000001
 12
0.0012265939
 22
-0.3651868479
 32
0.0
 13
0.3651877491
 23
-0.0009199789
 33
0.0
 40
0.0
 40
0.0
 40
0.0
 40
0.0
 40
0.1162399782
 40
0.2339778175
 40
0.3543713311
 40
0.4780980184
 40
0.7345386243
 40
1.0
 40
1.0
 40
1.0
 40
1.0
 10
-10.645628166
 20
23.8443375673
 30
0.0
 10
-10.6455806396
 20
23.8301877969
 30
0.0
 10
-10.6422223551
 20
23.8016148029
 30
0.0
 10
-10.6276650278
 20
23.7606547352
 30
0.0
 10
-10.6041946141
 20
23.7229828841
 30
0.0
 10
-10.561892224
 20
23.6786204872
 30
0.0
 10
-10.4919652956
 20
23.6387874753
 30
0.0
 10
-10.4279468109
 20
23.6279126226
 30
0.0
 10
-10.3956323968
 20
23.6278312164
 30
0.0
 11
-10.645628166
 21
23.8443375673
 31
0.0
 11
-10.6407004657
 21
23.8021749995
 31
0.0
 11
-10.626389741
 21
23.7616298799
 31
0.0
 11
-10.6032441408
 21
23.7242490909
 31
0.0
 11
-10.5721495847
 21
23.6914666636
 31
0.0
 11
-10.4911334639
 21
23.6444924903
 31
0.0
 11
-10.3956323968
 21
23.6278312164
 31
0.0
  0
SPLINE
  5
651
100
AcDbEntity
  8
RACCORDO
100
AcDbSpline
 62
7
  6
CONTINUOUS
 70
0
 71
3
 72
15
 73
11
 74
9
 42
0.0000001
 43
0.0000001
 44
0.0000000001
 12
0.0031741022
 22
0.3149998123
 32
0.0
 13
0.3150158039
 23
0.0
 33
0.0
 40
0.0
 40
0.0
 40
0.0
 40
0.0
 40
0.0847129374
 40
0.1757006909
 40
0.2778081862
 40
0.3942292046
 40
0.5263924491
 40
0.6737522819
 40
0.8333934372
 40
1.0
 40
1.0
 40
1.0
 40
1.0
 10
8.254371834
 20
-23.8443375673
 30
0.0
 10
8.2544614632
 20
-23.8354427142
 30
0.0
 10
8.2577030547
 20
-23.8169151481
 30
0.0
 10
8.2712510165
 20
-23.7906750928
 30
0.0
 10
8.2931173207
 20
-23.7662437729
 30
0.0
 10
8.3229647126
 20
-23.7443139213
 30
0.0
 10
8.3603248417
 20
-23.7256847024
 30
0.0
 10
8.404297613
 20
-23.7113065128
 30
0.0
 10
8.4533081754
 20
-23.7021703171
 30
0.0
 10
8.4876002652
 20
-23.7
 30
0.0
 10
8.5050948319
 20
-23.7
 30
0.0
 11
8.254371834
 21
-23.8443375673
 31
0.0
 11
8.2588255818
 21
-23.8180259322
 31
0.0
 11
8.2716467936
 21
-23.7923907994
 31
0.0
 11
8.2927961599
 21
-23.7681560707
 31
0.0
 11
8.322129078
 21
-23.7461425298
 31
0.0
 11
8.3592515743
 21
-23.7272939361
 31
0.0
 11
8.4033052251
 21
-23.7126598996
 31
0.0
 11
8.4527144738
 21
-23.7032919418
 31
0.0
 11
8.5050948319
 21
-23.7
 31
0.0
  0
SPLINE
  5
652
100
AcDbEntity
  8
RACCORDO
100
AcDbSpline
 62
7
  6
CONTINUOUS
 70
0
 71
3
 72
15
 73
11
 74
9
 42
0.0000001
 43
0.0000001
 44
0.0000000001
 12
0.3142904289
 22
0.0
 32
0.0
 13
0.0031667933
 23
-0.3142744742
 33
0.0
 40
0.0
 40
0.0
 40
0.0
 40
0.0
 40
0.1666545511
 40
0.3262779792
 40
0.4735916211
 40
0.6057108254
 40
0.7221085607
 40
0.8242207343
 40
0.9152394685
 40
1.0
 40
1.0
 40
1.0
 40
1.0
 10
10.3956323968
 20
-23.7
 30
0.0
 10
10.4130917069
 20
-23.7
 30
0.0
 10
10.4473034732
 20
-23.7022700651
 30
0.0
 10
10.4961878482
 20
-23.7114284588
 30
0.0
 10
10.540028913
 20
-23.7258344539
 30
0.0
 10
10.5772691987
 20
-23.744460098
 30
0.0
 10
10.6070169748
 20
-23.7663702269
 30
0.0
 10
10.6288084606
 20
-23.7907682484
 30
0.0
 10
10.6423087823
 20
-23.8169652651
 30
0.0
 10
10.645538693
 20
-23.8354582101
 30
0.0
 10
10.645628166
 20
-23.8443375673
 30
0.0
 11
10.3956323968
 21
-23.7
 31
0.0
 11
10.4479016168
 21
-23.7033728661
 31
0.0
 11
10.49717892
 21
-23.7127849448
 31
0.0
 11
10.5410978905
 21
-23.7274391667
 31
0.0
 11
10.5780992753
 21
-23.7462838901
 31
0.0
 11
10.6073337071
 21
-23.7682757411
 31
0.0
 11
10.6284113806
 21
-23.7924766616
 31
0.0
 11
10.6411891944
 21
-23.8180705836
 31
0.0
 11
10.645628166
 21
-23.8443375673
 31
0.0
  0
SPLINE
  5
653
100
AcDbEntity
  8
RACCORDO
100
AcDbSpline
 62
253
  6
CONTINUOUS
 70
0
 71
3
 72
13
 73
9
 74
7
 42
0.0000001
 43
0.0000001
 44
0.0000000001
 12
0.0012265939
 22
0.3651868479
 32
0.0
 13
0.3651877491
 23
0.0009199789
 33
0.0
 40
0.0
 40
0.0
 40
0.0
 40
0.0
 40
0.1162399782
 40
0.2339778175
 40
0.3543713311
 40
0.4780980184
 40
0.7345386243
 40
1.0
 40
1.0
 40
1.0
 40
1.0
 10
-10.645628166
 20
-23.8443375673
 30
0.0
 10
-10.6455806396
 20
-23.8301877969
 30
0.0
 10
-10.6422223551
 20
-23.8016148029
 30
0.0
 10
-10.6276650278
 20
-23.7606547352
 30
0.0
 10
-10.6041946141
 20
-23.7229828841
 30
0.0
 10
-10.561892224
 20
-23.6786204872
 30
0.0
 10
-10.4919652956
 20
-23.6387874753
 30
0.0
 10
-10.4279468109
 20
-23.6279126226
 30
0.0
 10
-10.3956323968
 20
-23.6278312164
 30
0.0
 11
-10.645628166
 21
-23.8443375673
 31
0.0
 11
-10.6407004657
 21
-23.8021749995
 31
0.0
 11
-10.626389741
 21
-23.7616298799
 31
0.0
 11
-10.6032441408
 21
-23.7242490909
 31
0.0
 11
-10.5721495847
 21
-23.6914666636
 31
0.0
 11
-10.4911334639
 21
-23.6444924903
 31
0.0
 11
-10.3956323968
 21
-23.6278312164
 31
0.0
  0
SPLINE
  5
654
100
AcDbEntity
  8
RACCORDO
100
AcDbSpline
 62
253
  6
CONTINUOUS
 70
0
 71
3
 72
13
 73
9
 74
7
 42
0.0000001
 43
0.0000001
 44
0.0000000001
 12
-0.0012265939
 22
0.3651868486
 32
0.0
 13
-0.3651877498
 23
0.0009199789
 33
0.0
 40
0.0
 40
0.0
 40
0.0
 40
0.0
 40
0.1162401412
 40
0.2339779602
 40
0.3543714643
 40
0.4780981267
 40
0.7345386771
 40
1.0
 40
1.0
 40
1.0
 40
1.0
 10
-8.254371834
 20
-23.8443375673
 30
0.0
 10
-8.2544193605
 20
-23.830187777
 30
0.0
 10
-8.2577776477
 20
-23.8016147644
 30
0.0
 10
-8.2723349985
 20
-23.7606546878
 30
0.0
 10
-8.2958054152
 20
-23.722982847
 30
0.0
 10
-8.3381078067
 20
-23.6786204663
 30
0.0
 10
-8.408034724
 20
-23.6387874704
 30
0.0
 10
-8.4720531955
 20
-23.6279126226
 30
0.0
 10
-8.5043676032
 20
-23.6278312164
 30
0.0
 11
-8.254371834
 21
-23.8443375673
 31
0.0
 11
-8.2592995459
 21
-23.8021749409
 31
0.0
 11
-8.2736102825
 21
-23.7616298332
 31
0.0
 11
-8.2967558894
 21
-23.7242490524
 31
0.0
 11
-8.3278504455
 21
-23.6914666374
 31
0.0
 11
-8.4088665543
 21
-23.6444924834
 31
0.0
 11
-8.5043676032
 21
-23.6278312164
 31
0.0
  0
SPLINE
  5
655
100
AcDbEntity
  8
0
100
AcDbSpline
 62
253
  6
CONTINUOUS
 70
0
 71
3
 72
13
 73
9
 74
7
 42
0.0000001
 43
0.0000001
 44
0.0000000001
 12
-0.0119226138
 22
0.0
 32
0.0
 13
-0.0014887831
 23
0.6778031497
 33
0.0
 40
0.0
 40
0.0
 40
0.0
 40
0.0
 40
0.2490801906
 40
0.3745290044
 40
0.5000465587
 40
0.6245839973
 40
0.7501008193
 40
1.0
 40
1.0
 40
1.0
 40
1.0
 10
11.0890428909
 20
-4.1187598859
 30
0.0
 10
11.0880529952
 20
-4.1187598859
 30
0.0
 10
11.0865331605
 20
-4.110949299
 30
0.0
 10
11.0847088207
 20
-4.0639042122
 30
0.0
 10
11.0834905574
 20
-4.0123287258
 30
0.0
 10
11.0826655658
 20
-3.9389346122
 30
0.0
 10
11.0821002943
 20
-3.8288650197
 30
0.0
 10
11.0820179772
 20
-3.7430729482
 30
0.0
 10
11.081893962
 20
-3.6866121309
 30
0.0
 11
11.0890428909
 21
-4.1187598859
 31
0.0
 11
11.0860993244
 21
-4.0962409458
 31
0.0
 11
11.084734405
 21
-4.0611974199
 31
0.0
 11
11.0835533886
 21
-4.0085354483
 31
0.0
 11
11.0827338344
 21
-3.9375915065
 31
0.0
 11
11.0822791734
 21
-3.8558979327
 31
0.0
 11
11.081893962
 21
-3.6866121309
 31
0.0
  0
SPLINE
  5
656
100
AcDbEntity
  8
0
100
AcDbSpline
 62
253
  6
CONTINUOUS
 70
0
 71
3
 72
13
 73
9
 74
7
 42
0.0000001
 43
0.0000001
 44
0.0000000001
 12
-0.0014887831
 22
-0.6778031497
 32
0.0
 13
-0.0119226138
 23
0.0
 33
0.0
 40
0.0
 40
0.0
 40
0.0
 40
0.0
 40
0.2498991807
 40
0.3754160027
 40
0.4999534413
 40
0.6254709956
 40
0.7509198094
 40
1.0
 40
1.0
 40
1.0
 40
1.0
 10
11.0961918197
 20
-3.6866121309
 30
0.0
 10
11.0960678045
 20
-3.7430729482
 30
0.0
 10
11.0959854874
 20
-3.8288650197
 30
0.0
 10
11.0954202159
 20
-3.9389346122
 30
0.0
 10
11.0945952243
 20
-4.0123287258
 30
0.0
 10
11.093376961
 20
-4.0639042122
 30
0.0
 10
11.0915526212
 20
-4.110949299
 30
0.0
 10
11.0900327865
 20
-4.1187598859
 30
0.0
 10
11.0890428909
 20
-4.1187598859
 30
0.0
 11
11.0961918197
 21
-3.6866121309
 31
0.0
 11
11.0958066084
 21
-3.8558979327
 31
0.0
 11
11.0953519474
 21
-3.9375915065
 31
0.0
 11
11.0945323931
 21
-4.0085354483
 31
0.0
 11
11.0933513768
 21
-4.0611974199
 31
0.0
 11
11.0919864574
 21
-4.0962409458
 31
0.0
 11
11.0890428909
 21
-4.1187598859
 31
0.0
  0
SPLINE
  5
657
100
AcDbEntity
  8
0
100
AcDbSpline
 62
253
  6
CONTINUOUS
 70
0
 71
3
 72
15
 73
11
 74
9
 42
0.0000001
 43
0.0000001
 44
0.0000000001
 12
0.0297942716
 22
0.0
 32
0.0
 13
0.0011033351
 23
1.7060017172
 33
0.0
 40
0.0
 40
0.0
 40
0.0
 40
0.0
 40
0.1248401019
 40
0.2498663855
 40
0.374885782
 40
0.5000299202
 40
0.6250550432
 40
0.7501198193
 40
0.875035251
 40
1.0
 40
1.0
 40
1.0
 40
1.0
 10
11.0890428909
 20
-4.7815268003
 30
0.0
 10
11.0902827308
 20
-4.7815268003
 30
0.0
 10
11.0927718024
 20
-4.7716793234
 30
0.0
 10
11.0963870562
 20
-4.7119708447
 30
0.0
 10
11.0995690392
 20
-4.5935070156
 30
0.0
 10
11.1018852547
 20
-4.4217447249
 30
0.0
 10
11.1033189406
 20
-4.22298974
 30
0.0
 10
11.1041543065
 20
-4.0142899176
 30
0.0
 10
11.1045020857
 20
-3.801448305
 30
0.0
 10
11.1045554688
 20
-3.6592834163
 30
0.0
 10
11.1046014281
 20
-3.5882200575
 30
0.0
 11
11.0890428909
 21
-4.7815268003
 31
0.0
 11
11.0927501132
 21
-4.7642105591
 31
0.0
 11
11.0963144417
 21
-4.7021878845
 31
0.0
 11
11.0994238105
 21
-4.584670781
 31
0.0
 11
11.1017387067
 21
-4.4171904032
 31
0.0
 11
11.1032192119
 21
-4.2213330331
 31
0.0
 11
11.1040732945
 21
-4.0135100265
 31
0.0
 11
11.1044574594
 21
-3.8013969153
 31
0.0
 11
11.1046014281
 21
-3.5882200575
 31
0.0
  0
SPLINE
  5
658
100
AcDbEntity
  8
0
100
AcDbSpline
 62
253
  6
CONTINUOUS
 70
0
 71
3
 72
15
 73
11
 74
9
 42
0.0000001
 43
0.0000001
 44
0.0000000001
 12
0.0011033351
 22
-1.7060017172
 32
0.0
 13
0.0297942716
 23
0.0
 33
0.0
 40
0.0
 40
0.0
 40
0.0
 40
0.0
 40
0.124964749
 40
0.2498801807
 40
0.3749449568
 40
0.4999700798
 40
0.625114218
 40
0.7501336145
 40
0.8751598981
 40
1.0
 40
1.0
 40
1.0
 40
1.0
 10
11.0734843536
 20
-3.5882200575
 30
0.0
 10
11.073530313
 20
-3.6592834163
 30
0.0
 10
11.073583696
 20
-3.801448305
 30
0.0
 10
11.0739314752
 20
-4.0142899176
 30
0.0
 10
11.0747668411
 20
-4.22298974
 30
0.0
 10
11.076200527
 20
-4.4217447249
 30
0.0
 10
11.0785167425
 20
-4.5935070156
 30
0.0
 10
11.0816987255
 20
-4.7119708447
 30
0.0
 10
11.0853139793
 20
-4.7716793234
 30
0.0
 10
11.0878030509
 20
-4.7815268003
 30
0.0
 10
11.0890428909
 20
-4.7815268003
 30
0.0
 11
11.0734843536
 21
-3.5882200575
 31
0.0
 11
11.0736283223
 21
-3.8013969153
 31
0.0
 11
11.0740124872
 21
-4.0135100265
 31
0.0
 11
11.0748665698
 21
-4.2213330331
 31
0.0
 11
11.076347075
 21
-4.4171904032
 31
0.0
 11
11.0786619713
 21
-4.584670781
 31
0.0
 11
11.0817713401
 21
-4.7021878845
 31
0.0
 11
11.0853356685
 21
-4.7642105591
 31
0.0
 11
11.0890428909
 21
-4.7815268003
 31
0.0
  0
SPLINE
  5
659
100
AcDbEntity
  8
INCISIONI
100
AcDbSpline
 62
253
  6
CONTINUOUS
 70
0
 71
3
 72
11
 73
7
 74
5
 42
0.0000001
 43
0.0000001
 44
0.0000000001
 12
-0.0128702777
 22
-0.0113808125
 32
0.0
 13
-0.0002873858
 23
0.7373539953
 33
0.0
 40
0.0
 40
0.0
 40
0.0
 40
0.0
 40
0.2491315025
 40
0.4973515609
 40
0.7462289133
 40
1.0
 40
1.0
 40
1.0
 40
1.0
 10
11.0900878603
 20
5.4627200261
 30
0.0
 10
11.0890190631
 20
5.4617749198
 30
0.0
 10
11.0868467091
 20
5.4732383197
 30
0.0
 10
11.0839904426
 20
5.5749993121
 30
0.0
 10
11.0825023298
 20
5.746549742
 30
0.0
 10
11.0822492286
 20
5.8705216342
 30
0.0
 10
11.0822249185
 20
5.9328946758
 30
0.0
 11
11.0900878603
 21
5.4627200261
 31
0.0
 11
11.0869101472
 21
5.4874007505
 31
0.0
 11
11.0842217311
 21
5.5863253894
 31
0.0
 11
11.0826941977
 21
5.7476704692
 31
0.0
 11
11.0822249185
 21
5.9328946758
 31
0.0
  0
SPLINE
  5
65A
100
AcDbEntity
  8
INCISIONI
100
AcDbSpline
 62
253
  6
CONTINUOUS
 70
0
 71
3
 72
9
 73
5
 74
3
 42
0.0000001
 43
0.0000001
 44
0.0000000001
 12
-0.0010753083
 22
-0.5307774627
 32
0.0
 13
-0.0093244064
 23
-0.0083576149
 33
0.0
 40
0.0
 40
0.0
 40
0.0
 40
0.0
 40
0.5000882298
 40
1.0
 40
1.0
 40
1.0
 40
1.0
 10
11.0964129695
 20
5.804625691
 30
0.0
 10
11.0962337198
 20
5.7161471704
 30
0.0
 10
11.0948748154
 20
5.5367587789
 30
0.0
 10
11.0916416538
 20
5.4641127161
 30
0.0
 10
11.0900878603
 20
5.4627200261
 30
0.0
 11
11.0964129695
 21
5.804625691
 31
0.0
 11
11.0944058459
 21
5.5634221249
 31
0.0
 11
11.0900878603
 21
5.4627200261
 31
0.0
  0
SPLINE
  5
65B
100
AcDbEntity
  8
INCISIONI
100
AcDbSpline
 62
253
  6
CONTINUOUS
 70
0
 71
3
 72
11
 73
7
 74
5
 42
0.0000001
 43
0.0000001
 44
0.0000000001
 12
0.008931429
 22
1.4167437705
 32
0.0
 13
-0.0038258405
 23
1.4903036133
 33
0.0
 40
0.0
 40
0.0
 40
0.0
 40
0.0
 40
0.249614251
 40
0.499888924
 40
0.7499637517
 40
1.0
 40
1.0
 40
1.0
 40
1.0
 10
11.1036111487
 20
5.3678501192
 30
0.0
 10
11.104354286
 20
5.485729931
 30
0.0
 10
11.1051829773
 20
5.735014474
 30
0.0
 10
11.1054344483
 20
6.1116431473
 30
0.0
 10
11.1050302645
 20
6.4882750285
 30
0.0
 10
11.1044627356
 20
6.7373573696
 30
0.0
 10
11.1041438693
 20
6.8615673444
 30
0.0
 11
11.1036111487
 21
5.3678501192
 31
0.0
 11
11.1050170506
 21
5.7351233729
 31
0.0
 11
11.1053251084
 21
6.1117086883
 31
0.0
 11
11.1049556943
 21
6.487811254
 31
0.0
 11
11.1041438693
 21
6.8615673444
 31
0.0
  0
SPLINE
  5
65C
100
AcDbEntity
  8
INCISIONI
100
AcDbSpline
 62
253
  6
CONTINUOUS
 70
0
 71
3
 72
18
 73
14
 74
12
 42
0.0000001
 43
0.0000001
 44
0.0000000001
 12
0.0040338679
 22
-1.7915717583
 32
0.0
 13
0.0106969353
 23
1.6992591149
 33
0.0
 40
0.0
 40
0.0
 40
0.0
 40
0.0
 40
0.0626155709
 40
0.1255750725
 40
0.1873779143
 40
0.2500548274
 40
0.3131302752
 40
0.3757850613
 40
0.5005898481
 40
0.6254073429
 40
0.7503252015
 40
0.8752611255
 40
1.0
 40
1.0
 40
1.0
 40
1.0
 10
11.0780545961
 20
5.30544429
 30
0.0
 10
11.0781387904
 20
5.2680508605
 30
0.0
 10
11.0790634276
 20
5.205742357
 30
0.0
 10
11.080320564
 20
5.1219941374
 30
0.0
 10
11.0818208141
 20
5.0470552444
 30
0.0
 10
11.0835038049
 20
4.9877497308
 30
0.0
 10
11.0853257505
 20
4.9423237958
 30
0.0
 10
11.0878683001
 20
4.9015430794
 30
0.0
 10
11.0911742261
 20
4.887359708
 30
0.0
 10
11.0951045882
 20
4.9207057947
 30
0.0
 10
11.0987448697
 20
5.0158512686
 30
0.0
 10
11.1017137723
 20
5.1675562972
 30
0.0
 10
11.1031663741
 20
5.2971955627
 30
0.0
 10
11.1036111487
 20
5.3678501192
 30
0.0
 11
11.0780545961
 21
5.30544429
 31
0.0
 11
11.079040472
 21
5.2074502929
 31
0.0
 11
11.080369463
 21
5.1229750287
 31
0.0
 11
11.0818435631
 21
5.0499699399
 31
0.0
 11
11.0835220008
 21
4.9902217399
 31
0.0
 11
11.0853449509
 21
4.9447010075
 31
0.0
 11
11.0872467451
 21
4.914117073
 31
0.0
 11
11.0911683083
 21
4.8957499389
 31
0.0
 11
11.0950550067
 21
4.9309846614
 31
0.0
 11
11.098632885
 21
5.0252799698
 31
0.0
 11
11.1015835659
 21
5.1747784359
 31
0.0
 11
11.1036111487
 21
5.3678501192
 31
0.0
  0
SPLINE
  5
65D
100
AcDbEntity
  8
INCISIONI
100
AcDbSpline
 62
253
  6
CONTINUOUS
 70
0
 71
3
 72
11
 73
7
 74
5
 42
0.0000001
 43
0.0000001
 44
0.0000000001
 12
0.0116058544
 22
0.181193689
 32
0.0
 13
0.0044548137
 23
0.6402353954
 33
0.0
 40
0.0
 40
0.0
 40
0.0
 40
0.0
 40
0.2450440156
 40
0.5033055314
 40
0.7579591626
 40
1.0
 40
1.0
 40
1.0
 40
1.0
 10
11.0678315956
 20
4.9565587397
 30
0.0
 10
11.0687795773
 20
4.9713588828
 30
0.0
 10
11.0707338711
 20
5.0005213919
 30
0.0
 10
11.0735687121
 20
5.0651610171
 30
0.0
 10
11.0761457217
 20
5.159157879
 30
0.0
 10
11.0773961891
 20
5.2537899196
 30
0.0
 10
11.0777556047
 20
5.30544429
 30
0.0
 11
11.0678315956
 21
4.9565587397
 31
0.0
 11
11.0706655096
 21
5.0030172293
 31
0.0
 11
11.0735397299
 21
5.0705695192
 31
0.0
 11
11.076071809
 21
5.169347468
 31
0.0
 11
11.0777556047
 21
5.30544429
 31
0.0
  0
LINE
  5
65E
100
AcDbEntity
  8
INCISIONI
100
AcDbLine
 62
253
  6
CONTINUOUS
 10
11.0541368045
 20
4.7496410148
 11
11.0678315956
 21
4.9565587397
  0
SPLINE
  5
65F
100
AcDbEntity
  8
INCISIONI
100
AcDbSpline
 62
253
  6
CONTINUOUS
 70
0
 71
3
 72
9
 73
5
 74
3
 42
0.0000001
 43
0.0000001
 44
0.0000000001
 12
-0.0150000908
 22
-0.3229459945
 32
0.0
 13
-0.0154000008
 23
-0.2537321442
 33
0.0
 40
0.0
 40
0.0
 40
0.0
 40
0.0
 40
0.499968398
 40
1.0
 40
1.0
 40
1.0
 40
1.0
 10
11.0694798424
 20
5.5965120355
 30
0.0
 10
11.0669799853
 20
5.542691105
 30
0.0
 10
11.0618199067
 20
5.4614309255
 30
0.0
 10
11.0567036336
 20
5.3741331019
 30
0.0
 10
11.0541368045
 20
5.3318417383
 30
0.0
 11
11.0694798424
 21
5.5965120355
 31
0.0
 11
11.0618311828
 21
5.4599268412
 31
0.0
 11
11.0541368045
 21
5.3318417383
 31
0.0
  0
SPLINE
  5
660
100
AcDbEntity
  8
INCISIONI
100
AcDbSpline
 62
253
  6
CONTINUOUS
 70
0
 71
3
 72
11
 73
7
 74
5
 42
0.0000001
 43
0.0000001
 44
0.0000000001
 12
0.0
 22
-0.4505958664
 32
0.0
 13
-0.0073624405
 23
-0.1583423737
 33
0.0
 40
0.0
 40
0.0
 40
0.0
 40
0.0
 40
0.2477795725
 40
0.4960551195
 40
0.7486644071
 40
1.0
 40
1.0
 40
1.0
 40
1.0
 10
11.0739381528
 20
5.9341993273
 30
0.0
 10
11.0739381528
 20
5.8969831769
 30
0.0
 10
11.0737480982
 20
5.8216580962
 30
0.0
 10
11.07277574
 20
5.7211454858
 30
0.0
 10
11.0712805397
 20
5.6450913069
 30
0.0
 10
11.0700966569
 20
5.609777727
 30
0.0
 10
11.0694798424
 20
5.5965120355
 30
0.0
 11
11.0739381528
 21
5.9341993273
 31
0.0
 11
11.0736349609
 21
5.8239107377
 31
0.0
 11
11.072696587
 21
5.7258068357
 31
0.0
 11
11.0712322315
 21
5.648891914
 31
0.0
 11
11.0694798424
 21
5.5965120355
 31
0.0
  0
ELLIPSE
  5
661
100
AcDbEntity
  8
DRAFT
100
AcDbEllipse
 62
7
  6
CONTINUOUS
 10
2.5
 20
-20.0445070257
 30
0.0
 11
1.0
 21
0.0
 31
0.0
 40
0.0087268678
 41
-1.5707963268
 42
0.0
  0
ELLIPSE
  5
662
100
AcDbEntity
  8
DRAFT
100
AcDbEllipse
 62
7
  6
CONTINUOUS
 10
2.5
 20
20.0445070257
 30
0.0
 11
1.0
 21
0.0
 31
0.0
 40
0.0087268678
 41
-0.0
 42
1.5707963268
  0
ELLIPSE
  5
663
100
AcDbEntity
  8
DRAFT
100
AcDbEllipse
 62
7
  6
CONTINUOUS
 10
0.0
 20
-20.1823915368
 30
0.0
 11
15.0
 21
0.0
 31
0.0
 40
0.0087268678
 41
1.4073150204
 42
1.7342776332
  0
ELLIPSE
  5
664
100
AcDbEntity
  8
DRAFT
100
AcDbEllipse
 62
7
  6
CONTINUOUS
 10
-2.5
 20
-20.0445070257
 30
0.0
 11
1.0
 21
0.0
 31
0.0
 40
0.0087268678
 41
3.1415926536
 42
4.7123889804
  0
ELLIPSE
  5
665
100
AcDbEntity
  8
DRAFT
100
AcDbEllipse
 62
7
  6
CONTINUOUS
 10
-0.0
 20
20.1823915368
 30
0.0
 11
15.0
 21
0.0
 31
0.0
 40
0.0087268678
 41
-1.7342776332
 42
-1.4073150204
  0
ELLIPSE
  5
666
100
AcDbEntity
  8
DRAFT
100
AcDbEllipse
 62
7
  6
CONTINUOUS
 10
-2.5
 20
20.0445070257
 30
0.0
 11
1.0
 21
0.0
 31
0.0
 40
0.0087268678
 41
1.5707963268
 42
3.1415926536
  0
ELLIPSE
  5
667
100
AcDbEntity
  8
RACCORDO
100
AcDbEllipse
 62
7
  6
CONTINUOUS
 10
-10.6599253593
 20
-21.9012544738
 30
0.0
 11
-0.4383594471
 21
0.2191630312
 31
0.0
 40
0.9998096356
 41
6.7467263073
 42
8.3176749331
  0
ELLIPSE
  5
668
100
AcDbEntity
  8
ASSI
100
AcDbEllipse
 62
7
  6
CONTINUOUS
 10
-4.3563662764
 20
23.2563578147
 30
0.0
 11
-0.0
 21
0.5
 31
0.0
 40
0.0058178298
 41
-0.149597008
 42
-0.0058177642
  0
ELLIPSE
  5
669
100
AcDbEntity
  8
ASSI
100
AcDbEllipse
 62
7
  6
CONTINUOUS
 10
4.3563662764
 20
23.2563578147
 30
0.0
 11
0.0
 21
0.5
 31
0.0
 40
0.0058178298
 41
0.0058177642
 42
0.149597008
  0
ELLIPSE
  5
66A
100
AcDbEntity
  8
ASSI
100
AcDbEllipse
 62
7
  6
CONTINUOUS
 10
4.3563493531
 20
-23.2592582188
 30
0.0
 11
0.0
 21
0.4970911343
 31
0.0
 40
0.0058178298
 41
-3.2861556766
 42
-3.1532281819
  0
ELLIPSE
  5
66B
100
AcDbEntity
  8
ASSI
100
AcDbEllipse
 62
7
  6
CONTINUOUS
 10
-4.3563493531
 20
-23.2592582188
 30
0.0
 11
-0.0
 21
0.4970911343
 31
0.0
 40
0.0058178298
 41
-3.1299571252
 42
-2.9970296305
  0
ELLIPSE
  5
66C
100
AcDbEntity
  8
RACCORDO
100
AcDbEllipse
 62
7
  6
CONTINUOUS
 10
10.6599253593
 20
21.9012544738
 30
0.0
 11
0.4383594471
 21
-0.2191630312
 31
0.0
 40
0.9998096356
 41
6.7467263073
 42
8.3176749331
  0
ELLIPSE
  5
66D
100
AcDbEntity
  8
DRAFT
100
AcDbEllipse
 62
7
  6
CONTINUOUS
 10
-3.9279699877
 20
22.3339198952
 30
0.0
 11
0.4279699877
 21
-0.0
 31
0.0
 40
0.0087268678
 41
-3.1357748894
 42
-0.0
  0
ELLIPSE
  5
66E
100
AcDbEntity
  8
DRAFT
100
AcDbEllipse
 62
7
  6
CONTINUOUS
 10
3.9279699877
 20
22.3339198952
 30
0.0
 11
0.4279699877
 21
0.0
 31
0.0
 40
0.0087268678
 41
-3.1415926536
 42
-0.0058177642
  0
ELLIPSE
  5
66F
100
AcDbEntity
  8
DRAFT
100
AcDbEllipse
 62
7
  6
CONTINUOUS
 10
3.9279699877
 20
-22.3339198952
 30
0.0
 11
0.4279699877
 21
0.0
 31
0.0
 40
0.0087268678
 41
0.0058177642
 42
3.1415926536
  0
ELLIPSE
  5
670
100
AcDbEntity
  8
DRAFT
100
AcDbEllipse
 62
7
  6
CONTINUOUS
 10
-3.9279699877
 20
-22.3339198952
 30
0.0
 11
0.4279699877
 21
0.0
 31
0.0
 40
0.0087268678
 41
0.0
 42
3.1357748894
  0
ELLIPSE
  5
671
100
AcDbEntity
  8
RACCORDO
100
AcDbEllipse
 62
7
  6
CONTINUOUS
 10
-10.6599253593
 20
21.9012544738
 30
0.0
 11
0.4383594471
 21
0.2191630312
 31
0.0
 40
0.9998096356
 41
1.1071030277
 42
2.6780516535
  0
ELLIPSE
  5
672
100
AcDbEntity
  8
RACCORDO
100
AcDbEllipse
 62
7
  6
CONTINUOUS
 10
10.6599253593
 20
-21.9012544738
 30
0.0
 11
-0.4383594471
 21
-0.2191630312
 31
0.0
 40
0.9998096356
 41
1.1071030277
 42
2.6780516535
  0
ELLIPSE
  5
673
100
AcDbEntity
  8
DRAFT
100
AcDbEllipse
 62
7
  6
CONTINUOUS
 10
7.5841007192
 20
20.982905244
 30
0.0
 11
0.5
 21
0.0
 31
0.0
 40
0.0087268678
 41
0.0174532925
 42
1.5707963268
  0
ELLIPSE
  5
674
100
AcDbEntity
  8
DRAFT
100
AcDbEllipse
 62
7
  6
CONTINUOUS
 10
7.5841007192
 20
21.9486535604
 30
0.0
 11
-0.4999904798
 21
0.5000285596
 31
0.0
 40
0.0061705924
 41
-4.1632686839
 42
-3.1528749621
  0
ELLIPSE
  5
675
100
AcDbEntity
  8
DRAFT
100
AcDbEllipse
 62
7
  6
CONTINUOUS
 10
-7.5841007192
 20
21.9486535604
 30
0.0
 11
0.4999904798
 21
0.5000285596
 31
0.0
 40
0.0061705924
 41
-3.1303103451
 42
-2.1199166233
  0
ELLIPSE
  5
676
100
AcDbEntity
  8
DRAFT
100
AcDbEllipse
 62
7
  6
CONTINUOUS
 10
-7.5841007192
 20
20.982905244
 30
0.0
 11
0.5
 21
0.0
 31
0.0
 40
0.0087268678
 41
1.5707963268
 42
3.1241393611
  0
ELLIPSE
  5
677
100
AcDbEntity
  8
DRAFT
100
AcDbEllipse
 62
7
  6
CONTINUOUS
 10
7.5841007192
 20
-21.9486535604
 30
0.0
 11
0.4999904798
 21
0.5000285596
 31
0.0
 40
0.0061705924
 41
0.0112823085
 42
1.0216760303
  0
ELLIPSE
  5
678
100
AcDbEntity
  8
DRAFT
100
AcDbEllipse
 62
7
  6
CONTINUOUS
 10
7.5841007192
 20
-20.982905244
 30
0.0
 11
0.5
 21
0.0
 31
0.0
 40
0.0087268678
 41
-1.5707963268
 42
-0.0174532925
  0
ELLIPSE
  5
679
100
AcDbEntity
  8
DRAFT
100
AcDbEllipse
 62
7
  6
CONTINUOUS
 10
-7.5841007192
 20
-20.982905244
 30
0.0
 11
0.5
 21
0.0
 31
0.0
 40
0.0087268678
 41
-3.1241393611
 42
-1.5707963268
  0
ELLIPSE
  5
67A
100
AcDbEntity
  8
DRAFT
100
AcDbEllipse
 62
7
  6
CONTINUOUS
 10
-7.5841007192
 20
-21.9486535604
 30
0.0
 11
-0.4999904798
 21
0.5000285596
 31
0.0
 40
0.0061705924
 41
-1.0216760303
 42
-0.0112823085
  0
ELLIPSE
  5
67B
100
AcDbEntity
  8
DRAFT
100
AcDbEllipse
 62
7
  6
CONTINUOUS
 10
-8.2262318632
 20
21.3126932437
 30
0.0
 11
1.0000571192
 21
0.9999809595
 31
0.0
 40
0.0061705924
 41
-1.1830906756
 42
-0.0025556622
  0
ELLIPSE
  5
67C
100
AcDbEntity
  8
DRAFT
100
AcDbEllipse
 62
7
  6
CONTINUOUS
 10
8.2262318632
 20
21.3126932437
 30
0.0
 11
1.0000571192
 21
-0.9999809595
 31
0.0
 40
0.0061705924
 41
-3.1390369914
 42
-1.958501978
  0
ELLIPSE
  5
67D
100
AcDbEntity
  8
DRAFT
100
AcDbEllipse
 62
7
  6
CONTINUOUS
 10
-8.2262318632
 20
-21.3126932437
 30
0.0
 11
1.0000571192
 21
-0.9999809595
 31
0.0
 40
0.0061705924
 41
0.0025556622
 42
1.1830906756
  0
ELLIPSE
  5
67E
100
AcDbEntity
  8
DRAFT
100
AcDbEllipse
 62
7
  6
CONTINUOUS
 10
8.2262318632
 20
-21.3126932437
 30
0.0
 11
1.0000571192
 21
0.9999809595
 31
0.0
 40
0.0061705924
 41
1.958501978
 42
3.1390369914
  0
ELLIPSE
  5
67F
100
AcDbEntity
  8
RACCORDO
100
AcDbEllipse
 62
7
  6
CONTINUOUS
 10
10.3999957691
 20
23.4113248654
 30
0.0
 11
-0.0029088041
 21
0.2886641433
 31
0.0
 40
0.8660144118
 41
-3.150319066
 42
-1.582431609
  0
ELLIPSE
  5
680
100
AcDbEntity
  8
RACCORDO
100
AcDbEllipse
 62
7
  6
CONTINUOUS
 10
8.5000042309
 20
23.4113248654
 30
0.0
 11
0.0029088041
 21
0.2886641433
 31
0.0
 40
0.8660144118
 41
-4.7007536982
 42
-3.1328662411
  0
ELLIPSE
  5
681
100
AcDbEntity
  8
RACCORDO
100
AcDbEllipse
 62
7
  6
CONTINUOUS
 10
-8.5000042309
 20
23.4113248654
 30
0.0
 11
-0.0029088041
 21
0.2886641433
 31
0.0
 40
0.8660144118
 41
-3.150319066
 42
-1.582431609
  0
ELLIPSE
  5
682
100
AcDbEntity
  8
RACCORDO
100
AcDbEllipse
 62
7
  6
CONTINUOUS
 10
-10.3999957691
 20
23.4113248654
 30
0.0
 11
0.0029088041
 21
0.2886641433
 31
0.0
 40
0.8660144118
 41
-4.7007536982
 42
-3.1328662411
  0
ELLIPSE
  5
683
100
AcDbEntity
  8
RACCORDO
100
AcDbEllipse
 62
7
  6
CONTINUOUS
 10
8.5000042309
 20
-23.4113248654
 30
0.0
 11
-0.0029088041
 21
0.2886641433
 31
0.0
 40
0.8660144118
 41
-0.0087264124
 42
1.5591610446
  0
ELLIPSE
  5
684
100
AcDbEntity
  8
RACCORDO
100
AcDbEllipse
 62
7
  6
CONTINUOUS
 10
10.3999957691
 20
-23.4113248654
 30
0.0
 11
0.0029088041
 21
0.2886641433
 31
0.0
 40
0.8660144118
 41
-1.5591610446
 42
0.0087264124
  0
ELLIPSE
  5
685
100
AcDbEntity
  8
RACCORDO
100
AcDbEllipse
 62
7
  6
CONTINUOUS
 10
-10.3999957691
 20
-23.4113248654
 30
0.0
 11
-0.0029088041
 21
0.2886641433
 31
0.0
 40
0.8660144118
 41
-0.0087264124
 42
1.5591610446
  0
ELLIPSE
  5
686
100
AcDbEntity
  8
RACCORDO
100
AcDbEllipse
 62
7
  6
CONTINUOUS
 10
-8.5000042309
 20
-23.4113248654
 30
0.0
 11
0.0029088041
 21
0.2886641433
 31
0.0
 40
0.8660144118
 41
-1.5591610446
 42
0.0087264124
  0
ELLIPSE
  5
687
100
AcDbEntity
  8
RACCORDO
100
AcDbEllipse
 62
7
  6
CONTINUOUS
 10
-6.3570147321
 20
19.9570181168
 30
0.0
 11
-0.0
 21
0.2
 31
0.0
 40
0.0058178298
 41
-4.7123889804
 42
-3.1474104178
  0
ELLIPSE
  5
688
100
AcDbEntity
  8
RACCORDO
100
AcDbEllipse
 62
7
  6
CONTINUOUS
 10
-7.2429852679
 20
19.9570181168
 30
0.0
 11
-0.0
 21
0.2
 31
0.0
 40
0.0058178298
 41
-3.1357748894
 42
-1.5707963268
  0
ELLIPSE
  5
689
100
AcDbEntity
  8
RACCORDO
100
AcDbEllipse
 62
7
  6
CONTINUOUS
 10
7.2429852679
 20
19.9570181168
 30
0.0
 11
-0.0
 21
0.2
 31
0.0
 40
0.0058178298
 41
-4.7123889804
 42
-3.1474104178
  0
ELLIPSE
  5
68A
100
AcDbEntity
  8
RACCORDO
100
AcDbEllipse
 62
7
  6
CONTINUOUS
 10
6.3570147321
 20
19.9570181168
 30
0.0
 11
0.0
 21
0.2
 31
0.0
 40
0.0058178298
 41
-3.1357748894
 42
-1.5707963268
  0
ELLIPSE
  5
68B
100
AcDbEntity
  8
RACCORDO
100
AcDbEllipse
 62
7
  6
CONTINUOUS
 10
6.3570147321
 20
-19.9570181168
 30
0.0
 11
-0.0
 21
0.2
 31
0.0
 40
0.0058178298
 41
-1.5707963268
 42
-0.0058177642
  0
ELLIPSE
  5
68C
100
AcDbEntity
  8
RACCORDO
100
AcDbEllipse
 62
7
  6
CONTINUOUS
 10
7.2429852679
 20
-19.9570181168
 30
0.0
 11
0.0
 21
0.2
 31
0.0
 40
0.0058178298
 41
0.0058177642
 42
1.5707963268
  0
ELLIPSE
  5
68D
100
AcDbEntity
  8
RACCORDO
100
AcDbEllipse
 62
7
  6
CONTINUOUS
 10
-7.2429852679
 20
-19.9570181168
 30
0.0
 11
-0.0
 21
0.2
 31
0.0
 40
0.0058178298
 41
-1.5707963268
 42
-0.0058177642
  0
ELLIPSE
  5
68E
100
AcDbEntity
  8
RACCORDO
100
AcDbEllipse
 62
7
  6
CONTINUOUS
 10
-6.3570147321
 20
-19.9570181168
 30
0.0
 11
0.0
 21
0.2
 31
0.0
 40
0.0058178298
 41
0.0058177642
 42
1.5707963268
  0
ELLIPSE
  5
68F
100
AcDbEntity
  8
RACCORDO
100
AcDbEllipse
 62
7
  6
CONTINUOUS
 10
6.3552693832
 20
20.5829242832
 30
0.0
 11
-0.0
 21
0.5
 31
0.0
 40
0.0058178298
 41
-3.1328660073
 42
-1.5707963268
  0
ELLIPSE
  5
690
100
AcDbEntity
  8
RACCORDO
100
AcDbEllipse
 62
7
  6
CONTINUOUS
 10
-6.3552693832
 20
20.5829242832
 30
0.0
 11
0.0
 21
0.5
 31
0.0
 40
0.0058178298
 41
-4.7123889804
 42
-3.1503192998
  0
ELLIPSE
  5
691
100
AcDbEntity
  8
RACCORDO
100
AcDbEllipse
 62
7
  6
CONTINUOUS
 10
-6.3552693832
 20
-20.5829242832
 30
0.0
 11
0.0
 21
0.5
 31
0.0
 40
0.0058178298
 41
0.0087266463
 42
1.5707963268
  0
ELLIPSE
  5
692
100
AcDbEntity
  8
RACCORDO
100
AcDbEllipse
 62
7
  6
CONTINUOUS
 10
6.3552693832
 20
-20.5829242832
 30
0.0
 11
-0.0
 21
0.5
 31
0.0
 40
0.0058178298
 41
-1.5707963268
 42
-0.0087266463
  0
ELLIPSE
  5
693
100
AcDbEntity
  8
RACCORDO
100
AcDbEllipse
 62
7
  6
CONTINUOUS
 10
9.1496953439
 20
17.6714466826
 30
0.0
 11
1.8480888181
 21
0.7655034529
 31
0.0
 40
0.9998215708
 41
-0.3926359958
 42
0.3926359958
  0
ELLIPSE
  5
694
100
AcDbEntity
  8
RACCORDO
100
AcDbEllipse
 62
7
  6
CONTINUOUS
 10
9.1496953439
 20
-17.6714466826
 30
0.0
 11
1.8480888181
 21
-0.7655034529
 31
0.0
 40
0.9998215708
 41
-0.3926359958
 42
0.3926359958
  0
ELLIPSE
  5
695
100
AcDbEntity
  8
RACCORDO
100
AcDbEllipse
 62
7
  6
CONTINUOUS
 10
-9.1496953439
 20
-17.6714466826
 30
0.0
 11
1.8480888181
 21
0.7655034529
 31
0.0
 40
0.9998215708
 41
2.7489566578
 42
3.5342286494
  0
ELLIPSE
  5
696
100
AcDbEntity
  8
RACCORDO
100
AcDbEllipse
 62
7
  6
CONTINUOUS
 10
-9.1496953439
 20
17.6714466826
 30
0.0
 11
1.8480888181
 21
-0.7655034529
 31
0.0
 40
0.9998215708
 41
2.7489566578
 42
3.5342286494
  0
ELLIPSE
  5
697
100
AcDbEntity
  8
RACCORDO
100
AcDbEllipse
 62
7
  6
CONTINUOUS
 10
-9.3778922769
 20
18.6108268408
 30
0.0
 11
-0.3827517265
 21
0.924044409
 31
0.0
 40
0.9998215708
 41
-0.3926359958
 42
0.3926359958
  0
ELLIPSE
  5
698
100
AcDbEntity
  8
RACCORDO
100
AcDbEllipse
 62
7
  6
CONTINUOUS
 10
-9.3778922769
 20
-18.6108268408
 30
0.0
 11
0.3827517265
 21
0.924044409
 31
0.0
 40
0.9998215708
 41
-3.5342286494
 42
-2.7489566578
  0
ELLIPSE
  5
699
100
AcDbEntity
  8
RACCORDO
100
AcDbEllipse
 62
7
  6
CONTINUOUS
 10
9.3778922769
 20
-18.6108268408
 30
0.0
 11
-0.3827517265
 21
0.924044409
 31
0.0
 40
0.9998215708
 41
-3.5342286494
 42
-2.7489566578
  0
ELLIPSE
  5
69A
100
AcDbEntity
  8
RACCORDO
100
AcDbEllipse
 62
7
  6
CONTINUOUS
 10
9.3778922769
 20
18.6108268408
 30
0.0
 11
0.3827517265
 21
0.924044409
 31
0.0
 40
0.9998215708
 41
-0.3926359958
 42
0.3926359958
  0
ELLIPSE
  5
69B
100
AcDbEntity
  8
RACCORDO
100
AcDbEllipse
 62
7
  6
CONTINUOUS
 10
-1.5981173983
 20
19.8982544935
 30
0.0
 11
0.9
 21
-0.0
 31
0.0
 40
0.0174550649
 41
-3.1241393611
 42
-1.5707963268
  0
ELLIPSE
  5
69C
100
AcDbEntity
  8
RACCORDO
100
AcDbEllipse
 62
7
  6
CONTINUOUS
 10
1.5981173983
 20
19.8982544935
 30
0.0
 11
0.9
 21
0.0
 31
0.0
 40
0.0174550649
 41
-1.5707963268
 42
-0.0174532925
  0
ELLIPSE
  5
69D
100
AcDbEntity
  8
RACCORDO
100
AcDbEllipse
 62
7
  6
CONTINUOUS
 10
-1.5981173983
 20
-19.8982544935
 30
0.0
 11
0.9
 21
0.0
 31
0.0
 40
0.0174550649
 41
1.5707963268
 42
3.1241393611
  0
ELLIPSE
  5
69E
100
AcDbEntity
  8
RACCORDO
100
AcDbEllipse
 62
7
  6
CONTINUOUS
 10
1.5981173983
 20
-19.8982544935
 30
0.0
 11
0.9
 21
0.0
 31
0.0
 40
0.0174550649
 41
0.0174532925
 42
1.5707963268
  0
ELLIPSE
  5
69F
100
AcDbEntity
  8
ASSI
100
AcDbEllipse
 62
7
  6
CONTINUOUS
 10
-9.1496953439
 20
17.6714466826
 30
0.0
 11
1.8480888181
 21
-0.7655034529
 31
0.0
 40
0.9998215708
 41
2.7489566578
 42
3.5342286494
  0
ELLIPSE
  5
6A0
100
AcDbEntity
  8
ASSI
100
AcDbEllipse
 62
7
  6
CONTINUOUS
 10
-9.1496953439
 20
-17.6714466826
 30
0.0
 11
1.8480888181
 21
0.7655034529
 31
0.0
 40
0.9998215708
 41
2.7489566578
 42
3.5342286494
  0
ELLIPSE
  5
6A1
100
AcDbEntity
  8
ASSI
100
AcDbEllipse
 62
7
  6
CONTINUOUS
 10
9.1496953439
 20
-17.6714466826
 30
0.0
 11
1.8480888181
 21
-0.7655034529
 31
0.0
 40
0.9998215708
 41
-0.3926359958
 42
0.3926359958
  0
ELLIPSE
  5
6A2
100
AcDbEntity
  8
ASSI
100
AcDbEllipse
 62
7
  6
CONTINUOUS
 10
9.1496953439
 20
17.6714466826
 30
0.0
 11
1.8480888181
 21
0.7655034529
 31
0.0
 40
0.9998215708
 41
-0.3926359958
 42
0.3926359958
  0
ELLIPSE
  5
6A3
100
AcDbEntity
  8
ASSI
100
AcDbEllipse
 62
7
  6
CONTINUOUS
 10
9.6862428021
 20
-10.0
 30
0.0
 11
-0.0
 21
2.1
 31
0.0
 40
0.0087268678
 41
3.1415926536
 42
6.2831853072
  0
ELLIPSE
  5
6A4
100
AcDbEntity
  8
ASSI
100
AcDbEllipse
 62
7
  6
CONTINUOUS
 10
9.6862428021
 20
-5.0
 30
0.0
 11
-0.0
 21
2.1
 31
0.0
 40
0.0087268678
 41
3.1415926536
 42
6.2831853072
  0
ELLIPSE
  5
6A5
100
AcDbEntity
  8
ASSI
100
AcDbEllipse
 62
7
  6
CONTINUOUS
 10
9.6862428021
 20
0.0
 30
0.0
 11
-0.0
 21
2.1
 31
0.0
 40
0.0087268678
 41
3.1415926536
 42
6.2831853072
  0
ELLIPSE
  5
6A6
100
AcDbEntity
  8
ASSI
100
AcDbEllipse
 62
7
  6
CONTINUOUS
 10
9.6862428021
 20
5.0
 30
0.0
 11
-0.0
 21
2.1
 31
0.0
 40
0.0087268678
 41
3.1415926536
 42
6.2831853072
  0
ELLIPSE
  5
6A7
100
AcDbEntity
  8
ASSI
100
AcDbEllipse
 62
7
  6
CONTINUOUS
 10
9.6862428021
 20
10.0
 30
0.0
 11
-0.0
 21
2.1
 31
0.0
 40
0.0087268678
 41
3.1415926536
 42
6.2831853072
  0
ELLIPSE
  5
6A8
100
AcDbEntity
  8
ASSI
100
AcDbEllipse
 62
7
  6
CONTINUOUS
 10
9.6862428021
 20
15.0
 30
0.0
 11
-0.0
 21
2.1
 31
0.0
 40
0.0087268678
 41
3.1415926536
 42
6.2831853072
  0
ELLIPSE
  5
6A9
100
AcDbEntity
  8
ASSI
100
AcDbEllipse
 62
7
  6
CONTINUOUS
 10
1.5981173983
 20
19.8982544935
 30
0.0
 11
0.9
 21
0.0
 31
0.0
 40
0.0174550649
 41
-1.5707963268
 42
-0.0174532925
  0
ELLIPSE
  5
6AA
100
AcDbEntity
  8
ASSI
100
AcDbEllipse
 62
7
  6
CONTINUOUS
 10
-1.5981173983
 20
19.8982544935
 30
0.0
 11
0.9
 21
-0.0
 31
0.0
 40
0.0174550649
 41
-3.1241393611
 42
-1.5707963268
  0
ELLIPSE
  5
6AB
100
AcDbEntity
  8
ASSI
100
AcDbEllipse
 62
7
  6
CONTINUOUS
 10
9.3778922769
 20
18.6108268408
 30
0.0
 11
0.3827517265
 21
0.924044409
 31
0.0
 40
0.9998215708
 41
-0.3926359958
 42
0.3926359958
  0
ELLIPSE
  5
6AC
100
AcDbEntity
  8
ASSI
100
AcDbEllipse
 62
7
  6
CONTINUOUS
 10
9.3778922769
 20
-18.6108268408
 30
0.0
 11
-0.3827517265
 21
0.924044409
 31
0.0
 40
0.9998215708
 41
-3.5342286494
 42
-2.7489566578
  0
ELLIPSE
  5
6AD
100
AcDbEntity
  8
ASSI
100
AcDbEllipse
 62
7
  6
CONTINUOUS
 10
-9.3778922769
 20
-18.6108268408
 30
0.0
 11
0.3827517265
 21
0.924044409
 31
0.0
 40
0.9998215708
 41
-3.5342286494
 42
-2.7489566578
  0
ELLIPSE
  5
6AE
100
AcDbEntity
  8
ASSI
100
AcDbEllipse
 62
7
  6
CONTINUOUS
 10
-9.3778922769
 20
18.6108268408
 30
0.0
 11
-0.3827517265
 21
0.924044409
 31
0.0
 40
0.9998215708
 41
-0.3926359958
 42
0.3926359958
  0
ELLIPSE
  5
6AF
100
AcDbEntity
  8
ASSI
100
AcDbEllipse
 62
7
  6
CONTINUOUS
 10
10.8724644676
 20
-10.0
 30
0.0
 11
-0.0
 21
2.1
 31
0.0
 40
0.0174550649
 41
-3.1415926536
 42
0.0
  0
ELLIPSE
  5
6B0
100
AcDbEntity
  8
ASSI
100
AcDbEllipse
 62
7
  6
CONTINUOUS
 10
10.8724644676
 20
-5.0
 30
0.0
 11
-0.0
 21
2.1
 31
0.0
 40
0.0174550649
 41
-3.1415926536
 42
-0.0
  0
ELLIPSE
  5
6B1
100
AcDbEntity
  8
ASSI
100
AcDbEllipse
 62
7
  6
CONTINUOUS
 10
10.8724644676
 20
-0.0
 30
0.0
 11
0.0
 21
2.1
 31
0.0
 40
0.0174550649
 41
-3.1415926536
 42
0.0
  0
ELLIPSE
  5
6B2
100
AcDbEntity
  8
ASSI
100
AcDbEllipse
 62
7
  6
CONTINUOUS
 10
10.8724644676
 20
5.0
 30
0.0
 11
0.0
 21
2.1
 31
0.0
 40
0.0174550649
 41
-3.1415926536
 42
0.0
  0
ELLIPSE
  5
6B3
100
AcDbEntity
  8
ASSI
100
AcDbEllipse
 62
7
  6
CONTINUOUS
 10
10.8724644676
 20
10.0
 30
0.0
 11
0.0
 21
2.1
 31
0.0
 40
0.0174550649
 41
-3.1415926536
 42
-0.0
  0
ELLIPSE
  5
6B4
100
AcDbEntity
  8
ASSI
100
AcDbEllipse
 62
7
  6
CONTINUOUS
 10
10.8724644676
 20
15.0
 30
0.0
 11
0.0
 21
2.1
 31
0.0
 40
0.0174550649
 41
-3.1415926536
 42
-0.0
  0
ELLIPSE
  5
6B5
100
AcDbEntity
  8
ASSI
100
AcDbEllipse
 62
7
  6
CONTINUOUS
 10
1.5981173983
 20
-19.8982544935
 30
0.0
 11
0.9
 21
0.0
 31
0.0
 40
0.0174550649
 41
0.0174532925
 42
1.5707963268
  0
ELLIPSE
  5
6B6
100
AcDbEntity
  8
ASSI
100
AcDbEllipse
 62
7
  6
CONTINUOUS
 10
-1.5981173983
 20
-19.8982544935
 30
0.0
 11
0.9
 21
0.0
 31
0.0
 40
0.0174550649
 41
1.5707963268
 42
3.1241393611
  0
ENDSEC
  0
SECTION
  2
OBJECTS
  0
DICTIONARY
  5
C
100
AcDbDictionary
280
0
281
1
  3
ACAD_GROUP
350
D
  3
ACAD_MLINESTYLE
350
17
  3
ACAD_LAYOUT
350
1A
  3
ACAD_PLOTSETTINGS
350
19
  3
ACAD_PLOTSTYLENAME
350
E
  0
DICTIONARY
  5
D
102
{ACAD_REACTORS
330
C
102
}
100
AcDbDictionary
280
0
281
1
  0
ACDBDICTIONARYWDFLT
  5
E
102
{ACAD_REACTORS
330
C
102
}
100
AcDbDictionary
281
1
  3
Normal
350
F
100
AcDbDictionaryWithDefault
340
F
  0
DICTIONARY
  5
17
102
{ACAD_REACTORS
330
C
102
}
100
AcDbDictionary
280
0
281
1
  3
Standard
350
18
  0
DICTIONARY
  5
19
102
{ACAD_REACTORS
330
C
102
}
100
AcDbDictionary
281
1
  0
DICTIONARY
  5
1A
102
{ACAD_REACTORS
330
C
102
}
100
AcDbDictionary
281
1
  3
Model
350
6B7
  3
Layout1
350
6B8
  0
ACDBPLACEHOLDER
  5
F
102
{ACAD_REACTORS
330
E
102
}
  0
MLINESTYLE
  5
18
102
{ACAD_REACTORS
330
17
102
}
100
AcDbMlineStyle
  2
STANDARD
 70
0
  3

 62
256
 51
90.0
 52
90.0
 71
2
 49
0.5
 62
256
  6
BYLAYER
 49
-0.5
 62
256
  6
BYLAYER
  0
LAYOUT
  5
6B7
102
{ACAD_REACTORS
330
1A
102
}
100
AcDbPlotSettings
  1

  2
none_device
  4
ISO_A4_(297.00_x_210.00_MM)
  6

 40
0.0
 41
0.0
 42
0.0
 43
0.0
 44
297.0
 45
210.0
 46
0.0
 47
0.0
 48
0.0
 49
0.0
140
0.0
141
0.0
142
1.0
143
1.0
 70
1024
 72
1
 73
0
 74
0
  7

 75
0
147
1.0
148
0.0
149
0.0
100
AcDbLayout
  1
Model
 70
0
 71
0
 10
0.0
 20
0.0
 11
297.0
 21
210.0
 12
0.0
 22
0.0
 32
0.0
 14
0.0
 24
0.0
 34
0.0
 15
0.0
 25
0.0
 35
0.0
146
0.0
 13
0.0
 23
0.0
 33
0.0
 16
1.0
 26
0.0
 36
0.0
 17
0.0
 27
1.0
 37
0.0
 76
0
330
21B
345
0
346
0
  0
LAYOUT
  5
6B8
102
{ACAD_REACTORS
330
1A
102
}
100
AcDbPlotSettings
  1

  2
none_device
  4
ISO_A4_(297.00_x_210.00_MM)
  6

 40
0.0
 41
0.0
 42
0.0
 43
0.0
 44
297.0
 45
210.0
 46
0.0
 47
0.0
 48
0.0
 49
0.0
140
0.0
141
0.0
142
1.0
143
1.0
 70
0
 72
1
 73
0
 74
0
  7

 75
0
147
1.0
148
0.0
149
0.0
100
AcDbLayout
  1
Layout1
 70
0
 71
1
 10
0.0
 20
0.0
 11
297.0
 21
210.0
 12
0.0
 22
0.0
 32
0.0
 14
0.0
 24
0.0
 34
0.0
 15
0.0
 25
0.0
 35
0.0
146
0.0
 13
0.0
 23
0.0
 33
0.0
 16
1.0
 26
0.0
 36
0.0
 17
0.0
 27
1.0
 37
0.0
 76
0
330
21C
345
0
346
0
  0
ENDSEC
  0
EOF
