  0
SECTION
  2
HEADER
  9
$ACADVER
  1
AC1015
  9
$DWGCODEPAGE
  3
ANSI_1252
  9
$EXTMAX
 10
297.0
 20
210.0
 30
0.0
  9
$EXTMIN
 10
0.0
 20
0.0
 30
0.0
  9
$LIMMIN
 10
0.0
 20
0.0
  9
$LIMMAX
 10
297.0
 20
210.0
  9
$VIEWCTR
 10
148.5
 20
105.0
  9
$VIEWSIZE
 40
210.0
  9
$CLAYER
  8
0
  9
$LTSCALE
 40
16.335
  9
$CELTYPE
  6
BYLAYER
  9
$DIMSCALE
 40
1.0
  9
$DIMASZ
 40
3.0
  9
$DIMEXO
 40
1.85625
  9
$DIMDLI
 40
11.286
  9
$DIMEXE
 40
5.346
  9
$DIMCEN
 40
2.673
  9
$DIMLFAC
 40
1.0
  9
$DIMBLK
  1
_FILLED
  9
$DIMTXT
 40
3.0
  9
$DIMTOL
 70
1
  9
$DIMLIM
 70
0
  9
$DIMTFAC
 40
1.0
  9
$DIMTP
 40
0.01
  9
$DIMTM
 40
0.01
  9
$PDMODE
 70
3
  9
$PDSIZE
 40
3.0
  9
$HANDSEED
  5
7E2
  9
$TILEMODE
 70
1
  9
$MEASUREMENT
 70
1
  9
$INSUNITS
 70
4
  0
ENDSEC
  0
SECTION
  2
CLASSES
  0
CLASS
  1
ACDBDICTIONARYWDFLT
  2
AcDbDictionaryWithDefault
  3
AutoCAD 2000
 90
0
280
0
281
0
  0
CLASS
  1
ACDBPLACEHOLDER
  2
AcDbPlaceHolder
  3
AutoCAD 2000
 90
0
280
0
281
0
  0
CLASS
  1
LAYOUT
  2
AcDbLayout
  3
AutoCAD 2000
 90
0
280
0
281
0
  0
ENDSEC
  0
SECTION
  2
TABLES
  0
TABLE
  2
VPORT
  5
8
100
AcDbSymbolTable
 70
2
  0
VPORT
  5
1F4
100
AcDbSymbolTableRecord
100
AcDbViewportTableRecord
  2
*ACTIVE
 70
0
 10
0.0
 20
0.0
 11
1.0
 21
1.0
 12
148.5
 22
105.0
 13
0.0
 23
0.0
 14
1.0
 24
1.0
 15
0.0
 25
0.0
 16
0.0
 26
0.0
 36
1.0
 17
0.0
 27
0.0
 37
0.0
 40
210.0
 41
1.4142857143
 42
50.0
 43
0.0
 44
0.0
 50
0.0
 51
0.0
 71
0
 72
100
 73
1
 74
1
 75
0
 76
0
 77
0
 78
0
  0
ENDTAB
  0
TABLE
  2
LTYPE
  5
5
100
AcDbSymbolTable
 70
6
  0
LTYPE
  5
14
100
AcDbSymbolTableRecord
100
AcDbLinetypeTableRecord
  2
BYBLOCK
 70
0
  3

 72
65
 73
0
 40
0.0
  0
LTYPE
  5
15
100
AcDbSymbolTableRecord
100
AcDbLinetypeTableRecord
  2
BYLAYER
 70
0
  3

 72
65
 73
0
 40
0.0
  0
LTYPE
  5
16
100
AcDbSymbolTableRecord
100
AcDbLinetypeTableRecord
  2
CONTINUOUS
 70
64
  3
Solid line
 72
65
 73
0
 40
0.0
  0
LTYPE
  5
1F5
100
AcDbSymbolTableRecord
100
AcDbLinetypeTableRecord
  2
CENTER
 70
64
  3
____ _ ____ _ ____ _ ____ _ ____ _ ____ _ ____
 72
65
 73
4
 40
0.6
 49
0.375
 74
0
 49
-0.075
 74
0
 49
0.075
 74
0
 49
-0.075
 74
0
  0
LTYPE
  5
1F6
100
AcDbSymbolTableRecord
100
AcDbLinetypeTableRecord
  2
HIDDEN
 70
64
  3
- - - - - - - - - - - - - - - - - - - -
 72
65
 73
2
 40
0.2
 49
0.1
 74
0
 49
-0.1
 74
0
  0
LTYPE
  5
1F7
100
AcDbSymbolTableRecord
100
AcDbLinetypeTableRecord
  2
PHANTOM
 70
64
  3
_____ _ _ _____ _ _ _____ _ _ _____
 72
65
 73
6
 40
0.8
 49
0.45
 74
0
 49
-0.05
 74
0
 49
0.1
 74
0
 49
-0.05
 74
0
 49
0.1
 74
0
 49
-0.05
 74
0
  0
LTYPE
  5
1F8
100
AcDbSymbolTableRecord
100
AcDbLinetypeTableRecord
  2
DOT
 70
64
  3
. . . . . . . . . . . . . . . . . . . .
 72
65
 73
2
 40
0.2
 49
0.1
 74
0
 49
-0.1
 74
0
  0
LTYPE
  5
1F9
100
AcDbSymbolTableRecord
100
AcDbLinetypeTableRecord
  2
DASHED
 70
64
  3
- - - - - - - - - - - - - - - - - - - -
 72
65
 73
2
 40
0.2
 49
0.1
 74
0
 49
-0.1
 74
0
  0
ENDTAB
  0
TABLE
  2
LAYER
  5
2
100
AcDbSymbolTable
 70
36
  0
LAYER
  5
10
100
AcDbSymbolTableRecord
100
AcDbLayerTableRecord
  2
0
 70
0
 62
7
  6
CONTINUOUS
370
-3
390
F
  0
LAYER
  5
1FA
100
AcDbSymbolTableRecord
100
AcDbLayerTableRecord
  2
DEFAULT_1
 70
0
 62
7
  6
CENTER
370
-3
390
F
  0
LAYER
  5
1FB
100
AcDbSymbolTableRecord
100
AcDbLayerTableRecord
  2
DEFAULT_2
 70
0
 62
7
  6
HIDDEN
370
-3
390
F
  0
LAYER
  5
1FC
100
AcDbSymbolTableRecord
100
AcDbLayerTableRecord
  2
DEFAULT_3
 70
0
 62
7
  6
PHANTOM
370
-3
390
F
  0
LAYER
  5
1FD
100
AcDbSymbolTableRecord
100
AcDbLayerTableRecord
  2
06___PRT_ALL_SURFS
 70
0
 62
7
  6
CONTINUOUS
370
-3
390
F
  0
LAYER
  5
1FE
100
AcDbSymbolTableRecord
100
AcDbLayerTableRecord
  2
ASSI
 70
0
 62
7
  6
CONTINUOUS
370
-3
390
F
  0
LAYER
  5
1FF
100
AcDbSymbolTableRecord
100
AcDbLayerTableRecord
  2
COLOR3
 70
0
 62
7
  6
CONTINUOUS
370
-3
390
F
  0
LAYER
  5
200
100
AcDbSymbolTableRecord
100
AcDbLayerTableRecord
  2
COLOR4
 70
0
 62
7
  6
CONTINUOUS
370
-3
390
F
  0
LAYER
  5
201
100
AcDbSymbolTableRecord
100
AcDbLayerTableRecord
  2
COLOR5
 70
0
 62
7
  6
CONTINUOUS
370
-3
390
F
  0
LAYER
  5
202
100
AcDbSymbolTableRecord
100
AcDbLayerTableRecord
  2
COORDINATE
 70
0
 62
7
  6
CONTINUOUS
370
-3
390
F
  0
LAYER
  5
203
100
AcDbSymbolTableRecord
100
AcDbLayerTableRecord
  2
COORD_ORIGINE
 70
0
 62
7
  6
CONTINUOUS
370
-3
390
F
  0
LAYER
  5
204
100
AcDbSymbolTableRecord
100
AcDbLayerTableRecord
  2
COPY_PUBLISH
 70
0
 62
7
  6
CONTINUOUS
370
-3
390
F
  0
LAYER
  5
205
100
AcDbSymbolTableRecord
100
AcDbLayerTableRecord
  2
COSMETICI
 70
0
 62
7
  6
CONTINUOUS
370
-3
390
F
  0
LAYER
  5
206
100
AcDbSymbolTableRecord
100
AcDbLayerTableRecord
  2
CURVE
 70
0
 62
7
  6
CONTINUOUS
370
-3
390
F
  0
LAYER
  5
207
100
AcDbSymbolTableRecord
100
AcDbLayerTableRecord
  2
DRAFT
 70
0
 62
7
  6
CONTINUOUS
370
-3
390
F
  0
LAYER
  5
208
100
AcDbSymbolTableRecord
100
AcDbLayerTableRecord
  2
IMPORT
 70
0
 62
7
  6
CONTINUOUS
370
-3
390
F
  0
LAYER
  5
209
100
AcDbSymbolTableRecord
100
AcDbLayerTableRecord
  2
IMPORT_IGES
 70
0
 62
7
  6
CONTINUOUS
370
-3
390
F
  0
LAYER
  5
20A
100
AcDbSymbolTableRecord
100
AcDbLayerTableRecord
  2
INCISIONI_LASER
 70
0
 62
7
  6
CONTINUOUS
370
-3
390
F
  0
LAYER
  5
20B
100
AcDbSymbolTableRecord
100
AcDbLayerTableRecord
  2
INTF_BLANK
 70
0
 62
7
  6
CONTINUOUS
370
-3
390
F
  0
LAYER
  5
20C
100
AcDbSymbolTableRecord
100
AcDbLayerTableRecord
  2
LAY0001
 70
0
 62
7
  6
CONTINUOUS
370
-3
390
F
  0
LAYER
  5
20D
100
AcDbSymbolTableRecord
100
AcDbLayerTableRecord
  2
NOTE
 70
0
 62
7
  6
CONTINUOUS
370
-3
390
F
  0
LAYER
  5
20E
100
AcDbSymbolTableRecord
100
AcDbLayerTableRecord
  2
PIANI
 70
0
 62
7
  6
CONTINUOUS
370
-3
390
F
  0
LAYER
  5
20F
100
AcDbSymbolTableRecord
100
AcDbLayerTableRecord
  2
PIANI_ORIGINE
 70
0
 62
7
  6
CONTINUOUS
370
-3
390
F
  0
LAYER
  5
210
100
AcDbSymbolTableRecord
100
AcDbLayerTableRecord
  2
PIANI_RIFERIMENTO
 70
0
 62
7
  6
CONTINUOUS
370
-3
390
F
  0
LAYER
  5
211
100
AcDbSymbolTableRecord
100
AcDbLayerTableRecord
  2
PUNTI
 70
0
 62
7
  6
CONTINUOUS
370
-3
390
F
  0
LAYER
  5
212
100
AcDbSymbolTableRecord
100
AcDbLayerTableRecord
  2
RACCORDO
 70
0
 62
7
  6
CONTINUOUS
370
-3
390
F
  0
LAYER
  5
213
100
AcDbSymbolTableRecord
100
AcDbLayerTableRecord
  2
SIMBOLI
 70
0
 62
7
  6
CONTINUOUS
370
-3
390
F
  0
LAYER
  5
214
100
AcDbSymbolTableRecord
100
AcDbLayerTableRecord
  2
SMUSSO
 70
0
 62
7
  6
CONTINUOUS
370
-3
390
F
  0
LAYER
  5
215
100
AcDbSymbolTableRecord
100
AcDbLayerTableRecord
  2
SNAPLINE
 70
0
 62
7
  6
CONTINUOUS
370
-3
390
F
  0
LAYER
  5
216
100
AcDbSymbolTableRecord
100
AcDbLayerTableRecord
  2
SUPERFICI
 70
0
 62
7
  6
CONTINUOUS
370
-3
390
F
  0
LAYER
  5
217
100
AcDbSymbolTableRecord
100
AcDbLayerTableRecord
  2
TRASH
 70
0
 62
7
  6
CONTINUOUS
370
-3
390
F
  0
LAYER
  5
218
100
AcDbSymbolTableRecord
100
AcDbLayerTableRecord
  2
XSEC_DATUMS
 70
0
 62
7
  6
CONTINUOUS
370
-3
390
F
  0
LAYER
  5
219
100
AcDbSymbolTableRecord
100
AcDbLayerTableRecord
  2
_BLACK_HOLE
 70
0
 62
7
  6
CONTINUOUS
370
-3
390
F
  0
LAYER
  5
21A
100
AcDbSymbolTableRecord
100
AcDbLayerTableRecord
  2
___SHELL
 70
0
 62
7
  6
CONTINUOUS
370
-3
390
F
  0
ENDTAB
  0
TABLE
  2
STYLE
  5
3
100
AcDbSymbolTable
 70
1
  0
STYLE
  5
11
100
AcDbSymbolTableRecord
100
AcDbTextStyleTableRecord
  2
STANDARD
 70
0
 40
0.0
 41
0.8
 50
0.0
 71
0
 42
0.2
  3
txt
  4

  0
STYLE
  5
21B
100
AcDbSymbolTableRecord
100
AcDbTextStyleTableRecord
  2
TEXTSTYLE_1
 70
0
 40
0.0
 41
0.8
 50
0.0
 71
0
 42
0.2
  3
gdt
  4

  0
ENDTAB
  0
TABLE
  2
VIEW
  5
6
100
AcDbSymbolTable
 70
0
  0
ENDTAB
  0
TABLE
  2
UCS
  5
7
100
AcDbSymbolTable
 70
0
  0
ENDTAB
  0
TABLE
  2
APPID
  5
9
100
AcDbSymbolTable
 70
1
  0
APPID
  5
21C
100
AcDbSymbolTableRecord
100
AcDbRegAppTableRecord
  2
ACAD
 70
0
  0
ENDTAB
  0
TABLE
  2
BLOCK_RECORD
  5
1
100
AcDbSymbolTable
 70
0
  0
BLOCK_RECORD
  5
21D
100
AcDbSymbolTableRecord
100
AcDbBlockTableRecord
  2
*Model_Space
  0
BLOCK_RECORD
  5
21E
100
AcDbSymbolTableRecord
100
AcDbBlockTableRecord
  2
*Paper_Space
  0
ENDTAB
  0
TABLE
  2
DIMSTYLE
  5
A
100
AcDbSymbolTable
 70
1
100
AcDbDimStyleTable
 71
0
  0
DIMSTYLE
105
21F
100
AcDbSymbolTableRecord
100
AcDbDimStyleTableRecord
  2
STANDARD
 70
0
  3

  4

 40
1.0
 41
3.0
 42
0.0625
 43
0.38
 44
0.18
 45
0.0
 46
0.0
 47
0.01
 48
0.01
140
3.0
141
0.09
142
0.0
143
25.4
144
1.0
145
0.0
146
1.0
147
0.09
 71
1.0
 72
0.0
 73
0
 74
0
 75
0
 76
0
 77
1
 78
8
170
0
171
2
172
0
173
0
174
0
175
0
176
0
177
0
178
0
270
2
271
2
272
2
273
2
274
2
275
0
280
0
281
0
282
0
283
1
284
8
285
0
286
0
287
3
288
0
340
11
  0
ENDTAB
  0
ENDSEC
  0
SECTION
  2
BLOCKS
  0
BLOCK
  5
20
100
AcDbEntity
  8
0
100
AcDbBlockBegin
  2
*Model_Space
 70
0
 10
0.0
 20
0.0
 30
0.0
  3
*Model_Space
  1

  0
ENDBLK
  5
21
100
AcDbEntity
  8
0
100
AcDbBlockEnd
  0
BLOCK
  5
1C
100
AcDbEntity
  8
0
100
AcDbBlockBegin
  2
*Paper_Space
 70
0
 10
0.0
 20
0.0
 30
0.0
  3
*Paper_Space
  1

  0
ENDBLK
  5
1D
100
AcDbEntity
  8
0
100
AcDbBlockEnd
  0
ENDSEC
  0
SECTION
  2
ENTITIES
  0
LINE
  5
220
100
AcDbEntity
  8
RACCORDO
100
AcDbLine
 62
253
  6
CONTINUOUS
 10
-9.1793676032
 20
24.495628166
 11
-9.1749957692
 21
24.5
  0
LINE
  5
221
100
AcDbEntity
  8
RACCORDO
100
AcDbLine
 62
253
  6
CONTINUOUS
 10
-8.929371834
 20
24.2456323968
 11
-8.925
 21
24.2500042308
  0
LINE
  5
222
100
AcDbEntity
  8
RACCORDO
100
AcDbLine
 62
253
  6
CONTINUOUS
 10
-11.3248476749
 20
22.3912731322
 11
-11.3073926099
 21
22.4
  0
LINE
  5
223
100
AcDbEntity
  8
RACCORDO
100
AcDbLine
 62
7
  6
CONTINUOUS
 10
-11.0750042308
 20
-24.5
 11
-9.1749957692
 21
-24.5
  0
LINE
  5
224
100
AcDbEntity
  8
RACCORDO
100
AcDbLine
 62
7
  6
CONTINUOUS
 10
7.8249957692
 20
-24.5
 11
9.7250042308
 21
-24.5
  0
LINE
  5
225
100
AcDbEntity
  8
RACCORDO
100
AcDbLine
 62
253
  6
CONTINUOUS
 10
-11.0706323968
 20
-24.495628166
 11
-9.1793676032
 21
-24.495628166
  0
LINE
  5
226
100
AcDbEntity
  8
RACCORDO
100
AcDbLine
 62
253
  6
CONTINUOUS
 10
7.8293676032
 20
-24.495628166
 11
9.7206323968
 21
-24.495628166
  0
LINE
  5
227
100
AcDbEntity
  8
RACCORDO
100
AcDbLine
 62
253
  6
CONTINUOUS
 10
7.579371834
 20
-24.2456323968
 11
9.970628166
 21
-24.2456323968
  0
LINE
  5
228
100
AcDbEntity
  8
RACCORDO
100
AcDbLine
 62
253
  6
CONTINUOUS
 10
-8.929371834
 20
-24.2456323968
 11
-11.320628166
 21
-24.2456323968
  0
LINE
  5
229
100
AcDbEntity
  8
RACCORDO
100
AcDbLine
 62
253
  6
CONTINUOUS
 10
7.579371834
 20
-23.8443375673
 11
9.970628166
 21
-23.8443375673
  0
LINE
  5
22A
100
AcDbEntity
  8
RACCORDO
100
AcDbLine
 62
253
  6
CONTINUOUS
 10
-8.929371834
 20
-23.8443375673
 11
-11.320628166
 21
-23.8443375673
  0
LINE
  5
22B
100
AcDbEntity
  8
DRAFT
100
AcDbLine
 62
7
  6
CONTINUOUS
 10
-5.075
 20
-23.8
 11
3.725
 21
-23.8
  0
LINE
  5
22C
100
AcDbEntity
  8
DRAFT
100
AcDbLine
 62
7
  6
CONTINUOUS
 10
2.825
 20
-23.7941821702
 11
-4.175
 21
-23.7941821702
  0
LINE
  5
22D
100
AcDbEntity
  8
ASSI
100
AcDbLine
 62
253
  6
CONTINUOUS
 10
3.6813493531
 20
-23.7563493531
 11
2.825
 21
-23.7563493531
  0
LINE
  5
22E
100
AcDbEntity
  8
ASSI
100
AcDbLine
 62
253
  6
CONTINUOUS
 10
-4.175
 20
-23.7563493531
 11
-5.0313493531
 21
-23.7563493531
  0
LINE
  5
22F
100
AcDbEntity
  8
RACCORDO
100
AcDbLine
 62
253
  6
CONTINUOUS
 10
9.7206323968
 20
-23.6278312164
 11
7.8293676032
 21
-23.6278312164
  0
LINE
  5
230
100
AcDbEntity
  8
RACCORDO
100
AcDbLine
 62
253
  6
CONTINUOUS
 10
-9.1793676032
 20
-23.6278312164
 11
-11.0706323968
 21
-23.6278312164
  0
LWPOLYLINE
  5
231
100
AcDbEntity
  8
RACCORDO
100
AcDbPolyline
 62
7
  6
CONTINUOUS
 90
34
 70
0
 10
-11.0750042308
 20
-24.5
 10
-11.086899516
 20
-24.4997168498
 10
-11.0987678556
 20
-24.4988680342
 10
-11.1105823661
 20
-24.4974554741
 10
-11.1223162875
 20
-24.4954823677
 10
-11.1339430388
 20
-24.4929531817
 10
-11.145436279
 20
-24.4898736417
 10
-11.1567699738
 20
-24.4862507213
 10
-11.1679184493
 20
-24.4820926258
 10
-11.1788564463
 20
-24.4774087722
 10
-11.1895591876
 20
-24.4722097688
 10
-11.2000024283
 20
-24.4665073916
 10
-11.2101625059
 20
-24.4603145581
 10
-11.2200164051
 20
-24.4536452955
 10
-11.2295418038
 20
-24.4465147107
 10
-11.2387171191
 20
-24.4389389589
 10
-11.2475215661
 20
-24.4309352005
 10
-11.2559352005
 20
-24.4225215661
 10
-11.2639389589
 20
-24.4137171191
 10
-11.2715147107
 20
-24.4045418038
 10
-11.2786452955
 20
-24.3950164051
 10
-11.2853145581
 20
-24.3851625059
 10
-11.2915073916
 20
-24.3750024283
 10
-11.2972097688
 20
-24.3645591876
 10
-11.3024087722
 20
-24.3538564463
 10
-11.3070926258
 20
-24.3429184493
 10
-11.3112507213
 20
-24.3317699738
 10
-11.3148736417
 20
-24.320436279
 10
-11.3179531817
 20
-24.3089430388
 10
-11.3204823677
 20
-24.2973162875
 10
-11.3224554741
 20
-24.2855823661
 10
-11.3238680342
 20
-24.2737678556
 10
-11.3247168498
 20
-24.261899516
 10
-11.325
 20
-24.2500042308
  0
LWPOLYLINE
  5
232
100
AcDbEntity
  8
RACCORDO
100
AcDbPolyline
 62
7
  6
CONTINUOUS
 90
34
 70
0
 10
7.8249957692
 20
-24.5
 10
7.813100484
 20
-24.4997168498
 10
7.8012321444
 20
-24.4988680342
 10
7.7894176339
 20
-24.4974554741
 10
7.7776837125
 20
-24.4954823677
 10
7.7660569612
 20
-24.4929531817
 10
7.754563721
 20
-24.4898736417
 10
7.7432300262
 20
-24.4862507213
 10
7.7320815507
 20
-24.4820926258
 10
7.7211435537
 20
-24.4774087722
 10
7.7104408124
 20
-24.4722097688
 10
7.6999975717
 20
-24.4665073916
 10
7.6898374941
 20
-24.4603145581
 10
7.6799835949
 20
-24.4536452955
 10
7.6704581962
 20
-24.4465147107
 10
7.6612828809
 20
-24.4389389589
 10
7.6524784339
 20
-24.4309352005
 10
7.6440647995
 20
-24.4225215661
 10
7.6360610411
 20
-24.4137171191
 10
7.6284852893
 20
-24.4045418038
 10
7.6213547045
 20
-24.3950164051
 10
7.6146854419
 20
-24.3851625059
 10
7.6084926084
 20
-24.3750024283
 10
7.6027902312
 20
-24.3645591876
 10
7.5975912278
 20
-24.3538564463
 10
7.5929073742
 20
-24.3429184493
 10
7.5887492787
 20
-24.3317699738
 10
7.5851263583
 20
-24.320436279
 10
7.5820468183
 20
-24.3089430388
 10
7.5795176323
 20
-24.2973162875
 10
7.5775445259
 20
-24.2855823661
 10
7.5761319658
 20
-24.2737678556
 10
7.5752831502
 20
-24.261899516
 10
7.575
 20
-24.2500042308
  0
LWPOLYLINE
  5
233
100
AcDbEntity
  8
RACCORDO
100
AcDbPolyline
 62
253
  6
CONTINUOUS
 90
31
 70
0
 10
-11.0706323968
 20
-24.495628166
 10
-11.0836847368
 20
-24.4952867588
 10
-11.0967096311
 20
-24.4942634962
 10
-11.1096714057
 20
-24.492559892
 10
-11.1225371245
 20
-24.4901787618
 10
-11.1352685897
 20
-24.4871256484
 10
-11.1478227742
 20
-24.4834102087
 10
-11.1601625782
 20
-24.4790436576
 10
-11.1722569343
 20
-24.4740372277
 10
-11.1840730125
 20
-24.4684044791
 10
-11.195578613
 20
-24.4621606774
 10
-11.2067419314
 20
-24.4553229956
 10
-11.2175320106
 20
-24.4479103656
 10
-11.2279191364
 20
-24.4399432233
 10
-11.2378749736
 20
-24.4314433264
 10
-11.247372308
 20
-24.4224339046
 10
-11.2563851271
 20
-24.4129396114
 10
-11.2648886687
 20
-24.402986508
 10
-11.2728595768
 20
-24.3926019187
 10
-11.2802759837
 20
-24.3818143284
 10
-11.2871175595
 20
-24.3706533025
 10
-11.2933655387
 20
-24.3591494467
 10
-11.2990027869
 20
-24.347334301
 10
-11.3040138424
 20
-24.3352402638
 10
-11.3083849575
 20
-24.3229005077
 10
-11.312104147
 20
-24.3103488602
 10
-11.3151612081
 20
-24.2976197463
 10
-11.3175477509
 20
-24.2847481067
 10
-11.319257234
 20
-24.2717692492
 10
-11.320284977
 20
-24.2587187509
 10
-11.320628166
 20
-24.2456323968
  0
LWPOLYLINE
  5
234
100
AcDbEntity
  8
RACCORDO
100
AcDbPolyline
 62
253
  6
CONTINUOUS
 90
31
 70
0
 10
7.8293676032
 20
-24.495628166
 10
7.8162841172
 20
-24.4952851274
 10
7.8032364906
 20
-24.4942578375
 10
7.7902604845
 20
-24.492549112
 10
7.7773916636
 20
-24.490163634
 10
7.7646652991
 20
-24.4871079418
 10
7.7521162714
 20
-24.4833904104
 10
7.7397789751
 20
-24.4790212289
 10
7.7276872245
 20
-24.4740123724
 10
7.7158741607
 20
-24.4683775693
 10
7.7043721611
 20
-24.4621322634
 10
7.6932127506
 20
-24.455293572
 10
7.682426515
 20
-24.4478802386
 10
7.6720430174
 20
-24.4399125818
 10
7.6620907169
 20
-24.4314124395
 10
7.652596891
 20
-24.422403109
 10
7.6435875605
 20
-24.4129092831
 10
7.6350874182
 20
-24.4029569826
 10
7.6271197614
 20
-24.392573485
 10
7.619706428
 20
-24.3817872494
 10
7.6128677366
 20
-24.3706278389
 10
7.6066224307
 20
-24.3591258393
 10
7.6009876276
 20
-24.3473127755
 10
7.5959787711
 20
-24.3352210249
 10
7.5916095896
 20
-24.3228837286
 10
7.5878920582
 20
-24.3103347009
 10
7.584836366
 20
-24.2976083364
 10
7.582450888
 20
-24.2847395155
 10
7.5807421625
 20
-24.2717635094
 10
7.5797148726
 20
-24.2587158828
 10
7.579371834
 20
-24.2456323968
  0
LWPOLYLINE
  5
235
100
AcDbEntity
  8
RACCORDO
100
AcDbPolyline
 62
7
  6
CONTINUOUS
 90
11
 70
0
 10
-11.5310370741
 20
-22.3472138017
 10
-11.5131874588
 20
-22.3557023577
 10
-11.4933694928
 20
-22.3641420636
 10
-11.4731597008
 20
-22.3717368058
 10
-11.4526108967
 20
-22.3784610765
 10
-11.4317435211
 20
-22.3843026901
 10
-11.4106119114
 20
-22.3892409661
 10
-11.389323887
 20
-22.3932510251
 10
-11.3679434461
 20
-22.396327304
 10
-11.3464883972
 20
-22.3984737398
 10
-11.3249991391
 20
-22.3996911987
  0
LINE
  5
236
100
AcDbEntity
  8
RACCORDO
100
AcDbLine
 62
253
  6
CONTINUOUS
 10
-11.3073926099
 20
-22.4
 11
-11.3248476749
 21
-22.3912731322
  0
LINE
  5
237
100
AcDbEntity
  8
RACCORDO
100
AcDbLine
 62
253
  6
CONTINUOUS
 10
-9.1793676032
 20
-24.495628166
 11
-9.1749957692
 21
-24.5
  0
LINE
  5
238
100
AcDbEntity
  8
RACCORDO
100
AcDbLine
 62
253
  6
CONTINUOUS
 10
-8.929371834
 20
-24.2456323968
 11
-8.925
 21
-24.2500042308
  0
LINE
  5
239
100
AcDbEntity
  8
RACCORDO
100
AcDbLine
 62
7
  6
CONTINUOUS
 10
-8.7590245667
 20
20.9917082642
 11
-8.9215127091
 21
20.9104703804
  0
LWPOLYLINE
  5
23A
100
AcDbEntity
  8
RACCORDO
100
AcDbPolyline
 62
7
  6
CONTINUOUS
 90
11
 70
0
 10
9.9749991391
 20
-22.3996911987
 10
9.9964883972
 20
-22.3984737398
 10
10.0179434461
 20
-22.396327304
 10
10.039323887
 20
-22.3932510251
 10
10.0606119114
 20
-22.3892409661
 10
10.0817435211
 20
-22.3843026901
 10
10.1026108967
 20
-22.3784610765
 10
10.1231597008
 20
-22.3717368058
 10
10.1433694928
 20
-22.3641420636
 10
10.1631874588
 20
-22.3557023577
 10
10.1810370741
 20
-22.3472138017
  0
LINE
  5
23B
100
AcDbEntity
  8
RACCORDO
100
AcDbLine
 62
7
  6
CONTINUOUS
 10
9.975
 20
-22.399689968
 11
9.9710883071
 21
-22.3998124433
  0
LINE
  5
23C
100
AcDbEntity
  8
RACCORDO
100
AcDbLine
 62
7
  6
CONTINUOUS
 10
9.9710883071
 20
-22.3998124433
 11
9.9671758755
 21
-22.3999043042
  0
LINE
  5
23D
100
AcDbEntity
  8
RACCORDO
100
AcDbLine
 62
7
  6
CONTINUOUS
 10
9.9671758755
 20
-22.3999043042
 11
9.9632627952
 21
-22.399965549
  0
LINE
  5
23E
100
AcDbEntity
  8
RACCORDO
100
AcDbLine
 62
7
  6
CONTINUOUS
 10
9.9632627952
 20
-22.399965549
 11
9.9593494256
 21
-22.3999961716
  0
LINE
  5
23F
100
AcDbEntity
  8
RACCORDO
100
AcDbLine
 62
7
  6
CONTINUOUS
 10
-11.0757229979
 20
-23.1226497308
 11
-9.1742770021
 21
-23.1226497308
  0
LINE
  5
240
100
AcDbEntity
  8
RACCORDO
100
AcDbLine
 62
7
  6
CONTINUOUS
 10
7.8242770021
 20
-23.1226497308
 11
9.7257229979
 21
-23.1226497308
  0
LINE
  5
241
100
AcDbEntity
  8
DRAFT
100
AcDbLine
 62
7
  6
CONTINUOUS
 10
7.575
 20
-22.4
 11
3.725
 21
-22.4
  0
LINE
  5
242
100
AcDbEntity
  8
RACCORDO
100
AcDbLine
 62
7
  6
CONTINUOUS
 10
7.575
 20
-22.4
 11
9.9593494256
 21
-22.3999961716
  0
LINE
  5
243
100
AcDbEntity
  8
DRAFT
100
AcDbLine
 62
7
  6
CONTINUOUS
 10
-5.075
 20
-22.4
 11
-8.925
 21
-22.4
  0
LINE
  5
244
100
AcDbEntity
  8
RACCORDO
100
AcDbLine
 62
7
  6
CONTINUOUS
 10
-11.3248476749
 20
-22.3912731322
 11
-7.9337268678
 21
-22.3912731322
  0
LINE
  5
245
100
AcDbEntity
  8
DRAFT
100
AcDbLine
 62
7
  6
CONTINUOUS
 10
-4.175
 20
-22.3912731322
 11
-3.675
 21
-22.3912731322
  0
LINE
  5
246
100
AcDbEntity
  8
DRAFT
100
AcDbLine
 62
7
  6
CONTINUOUS
 10
2.325
 20
-22.3912731322
 11
2.825
 21
-22.3912731322
  0
LINE
  5
247
100
AcDbEntity
  8
RACCORDO
100
AcDbLine
 62
7
  6
CONTINUOUS
 10
6.5837268678
 20
-22.3912731322
 11
9.9748476749
 21
-22.3912731322
  0
LINE
  5
248
100
AcDbEntity
  8
RACCORDO
100
AcDbLine
 62
253
  6
CONTINUOUS
 10
-8.0123448332
 20
-22.3126551668
 11
-3.675
 21
-22.3126551668
  0
LINE
  5
249
100
AcDbEntity
  8
RACCORDO
100
AcDbLine
 62
253
  6
CONTINUOUS
 10
2.325
 20
-22.3126551668
 11
6.6623448332
 21
-22.3126551668
  0
LINE
  5
24A
100
AcDbEntity
  8
0
100
AcDbLine
 62
7
  6
CONTINUOUS
 10
2.325
 20
-21.7
 11
-3.675
 21
-21.7
  0
LINE
  5
24B
100
AcDbEntity
  8
RACCORDO
100
AcDbLine
 62
7
  6
CONTINUOUS
 10
-8.925
 20
-22.4
 11
-11.3093494256
 21
-22.3999961716
  0
LINE
  5
24C
100
AcDbEntity
  8
RACCORDO
100
AcDbLine
 62
7
  6
CONTINUOUS
 10
-11.3093494256
 20
-22.3999961716
 11
-11.3132627952
 21
-22.399965549
  0
LINE
  5
24D
100
AcDbEntity
  8
RACCORDO
100
AcDbLine
 62
7
  6
CONTINUOUS
 10
-11.3132627952
 20
-22.399965549
 11
-11.3171758755
 21
-22.3999043042
  0
LINE
  5
24E
100
AcDbEntity
  8
RACCORDO
100
AcDbLine
 62
7
  6
CONTINUOUS
 10
-11.3171758755
 20
-22.3999043042
 11
-11.3210883071
 21
-22.3998124433
  0
LINE
  5
24F
100
AcDbEntity
  8
RACCORDO
100
AcDbLine
 62
7
  6
CONTINUOUS
 10
-11.3210883071
 20
-22.3998124433
 11
-11.325
 21
-22.399689968
  0
LINE
  5
250
100
AcDbEntity
  8
RACCORDO
100
AcDbLine
 62
7
  6
CONTINUOUS
 10
-8.7590245667
 20
-20.9917082642
 11
-8.9215127091
 21
-20.9104703804
  0
LINE
  5
251
100
AcDbEntity
  8
RACCORDO
100
AcDbLine
 62
7
  6
CONTINUOUS
 10
-8.925
 20
21.4
 11
-7.9337268678
 21
22.3912731322
  0
LINE
  5
252
100
AcDbEntity
  8
RACCORDO
100
AcDbLine
 62
253
  6
CONTINUOUS
 10
-8.2591007192
 20
-21.3126932437
 11
-3.675
 21
-21.3126932437
  0
LINE
  5
253
100
AcDbEntity
  8
RACCORDO
100
AcDbLine
 62
253
  6
CONTINUOUS
 10
2.325
 20
-21.3126932437
 11
6.9091007192
 21
-21.3126932437
  0
LINE
  5
254
100
AcDbEntity
  8
0
100
AcDbLine
 62
7
  6
CONTINUOUS
 10
2.325
 20
-21.0
 11
-3.675
 21
-21.0
  0
LINE
  5
255
100
AcDbEntity
  8
RACCORDO
100
AcDbLine
 62
7
  6
CONTINUOUS
 10
-8.2591007192
 20
-20.9959955457
 11
-7.9168217019
 21
-20.9959955457
  0
LINE
  5
256
100
AcDbEntity
  8
RACCORDO
100
AcDbLine
 62
7
  6
CONTINUOUS
 10
6.5668217019
 20
-20.9959955457
 11
6.9091007192
 21
-20.9959955457
  0
LINE
  5
257
100
AcDbEntity
  8
DRAFT
100
AcDbLine
 62
7
  6
CONTINUOUS
 10
-8.9215127091
 20
-20.9104703804
 11
-7.9738376746
 21
-20.9104703804
  0
LINE
  5
258
100
AcDbEntity
  8
DRAFT
100
AcDbLine
 62
7
  6
CONTINUOUS
 10
6.6238376746
 20
-20.9104703804
 11
7.5715127091
 21
-20.9104703804
  0
LINE
  5
259
100
AcDbEntity
  8
RACCORDO
100
AcDbLine
 62
7
  6
CONTINUOUS
 10
8.4753805997
 20
-20.9
 11
7.575
 21
-20.9
  0
LINE
  5
25A
100
AcDbEntity
  8
RACCORDO
100
AcDbLine
 62
7
  6
CONTINUOUS
 10
-8.925
 20
-20.9
 11
-9.8253805997
 21
-20.9
  0
LINE
  5
25B
100
AcDbEntity
  8
RACCORDO
100
AcDbLine
 62
7
  6
CONTINUOUS
 10
8.412542366
 20
-20.7113319946
 11
6.6459441873
 21
-20.7113319946
  0
LINE
  5
25C
100
AcDbEntity
  8
RACCORDO
100
AcDbLine
 62
7
  6
CONTINUOUS
 10
-7.9959441873
 20
-20.7113319946
 11
-9.762542366
 21
-20.7113319946
  0
LINE
  5
25D
100
AcDbEntity
  8
RACCORDO
100
AcDbLine
 62
253
  6
CONTINUOUS
 10
5.8831782981
 20
-20.5829242832
 11
-7.2331782981
 21
-20.5829242832
  0
LINE
  5
25E
100
AcDbEntity
  8
RACCORDO
100
AcDbLine
 62
253
  6
CONTINUOUS
 10
5.880294768
 20
-20.0829433217
 11
-7.230294768
 21
-20.0829433217
  0
LINE
  5
25F
100
AcDbEntity
  8
RACCORDO
100
AcDbLine
 62
7
  6
CONTINUOUS
 10
3.525
 20
-20.0
 11
-4.875
 21
-20.0
  0
LINE
  5
260
100
AcDbEntity
  8
0
100
AcDbLine
 62
7
  6
CONTINUOUS
 10
-7.1540558127
 20
-19.968583276
 11
-5.175
 21
-19.968583276
  0
LINE
  5
261
100
AcDbEntity
  8
0
100
AcDbLine
 62
7
  6
CONTINUOUS
 10
3.825
 20
-19.968583276
 11
5.8040558127
 21
-19.968583276
  0
LINE
  5
262
100
AcDbEntity
  8
RACCORDO
100
AcDbLine
 62
253
  6
CONTINUOUS
 10
-10.2621617663
 20
-19.8
 11
-7.9959441873
 21
-19.8
  0
LINE
  5
263
100
AcDbEntity
  8
RACCORDO
100
AcDbLine
 62
253
  6
CONTINUOUS
 10
-7.1540558127
 20
-19.8
 11
-5.175
 21
-19.8
  0
LINE
  5
264
100
AcDbEntity
  8
RACCORDO
100
AcDbLine
 62
253
  6
CONTINUOUS
 10
3.825
 20
-19.8
 11
5.8040558127
 21
-19.8
  0
LINE
  5
265
100
AcDbEntity
  8
RACCORDO
100
AcDbLine
 62
253
  6
CONTINUOUS
 10
6.6459441873
 20
-19.8
 11
8.9121617663
 21
-19.8
  0
LINE
  5
266
100
AcDbEntity
  8
RACCORDO
100
AcDbLine
 62
7
  6
CONTINUOUS
 10
-7.9337268678
 20
-22.3912731322
 11
-8.925
 21
-21.4
  0
LINE
  5
267
100
AcDbEntity
  8
DRAFT
100
AcDbLine
 62
7
  6
CONTINUOUS
 10
-7.9168217019
 20
20.9959955457
 11
-7.9738376746
 21
20.9104703804
  0
LINE
  5
268
100
AcDbEntity
  8
ASSI
100
AcDbLine
 62
7
  6
CONTINUOUS
 10
-4.2688557177
 20
23.6234472841
 11
-4.2954024235
 21
23.5930775533
  0
LINE
  5
269
100
AcDbEntity
  8
ASSI
100
AcDbLine
 62
7
  6
CONTINUOUS
 10
-4.2954024235
 20
23.5930775533
 11
-4.3258085508
 21
23.5588298205
  0
LINE
  5
26A
100
AcDbEntity
  8
ASSI
100
AcDbLine
 62
7
  6
CONTINUOUS
 10
-4.3258085508
 20
23.5588298205
 11
-4.3600783499
 21
23.5207160551
  0
LINE
  5
26B
100
AcDbEntity
  8
ASSI
100
AcDbLine
 62
7
  6
CONTINUOUS
 10
-4.3600783499
 20
23.5207160551
 11
-4.4185718225
 21
23.4564018309
  0
LINE
  5
26C
100
AcDbEntity
  8
ASSI
100
AcDbLine
 62
7
  6
CONTINUOUS
 10
-4.4185718225
 20
23.4564018309
 11
-4.6029699877
 21
23.2563578147
  0
LINE
  5
26D
100
AcDbEntity
  8
RACCORDO
100
AcDbLine
 62
7
  6
CONTINUOUS
 10
-10.2534342338
 20
-19.3
 11
-7.9988531022
 21
-19.3
  0
LINE
  5
26E
100
AcDbEntity
  8
RACCORDO
100
AcDbLine
 62
7
  6
CONTINUOUS
 10
-7.1511468978
 20
-19.3
 11
-5.175
 21
-19.3
  0
LINE
  5
26F
100
AcDbEntity
  8
RACCORDO
100
AcDbLine
 62
7
  6
CONTINUOUS
 10
3.825
 20
-19.3
 11
5.8011468978
 21
-19.3
  0
LINE
  5
270
100
AcDbEntity
  8
RACCORDO
100
AcDbLine
 62
7
  6
CONTINUOUS
 10
6.6488531022
 20
-19.3
 11
8.9034342338
 21
-19.3
  0
LINE
  5
271
100
AcDbEntity
  8
ASSI
100
AcDbLine
 62
7
  6
CONTINUOUS
 10
-4.6029699877
 20
-23.2563578147
 11
-4.3982989853
 21
-23.4786137322
  0
LINE
  5
272
100
AcDbEntity
  8
ASSI
100
AcDbLine
 62
7
  6
CONTINUOUS
 10
-4.3982989853
 20
-23.4786137322
 11
-4.360280314
 21
-23.5204927224
  0
LINE
  5
273
100
AcDbEntity
  8
ASSI
100
AcDbLine
 62
7
  6
CONTINUOUS
 10
-4.360280314
 20
-23.5204927224
 11
-4.3260546648
 21
-23.5585549825
  0
LINE
  5
274
100
AcDbEntity
  8
ASSI
100
AcDbLine
 62
7
  6
CONTINUOUS
 10
-4.3260546648
 20
-23.5585549825
 11
-4.29568447
 21
-23.5927575937
  0
LWPOLYLINE
  5
275
100
AcDbEntity
  8
ASSI
100
AcDbPolyline
 62
7
  6
CONTINUOUS
 90
18
 70
0
 10
-4.29568447
 20
-23.5927575937
 10
-4.2691505693
 20
-23.623107111
 10
-4.257252199
 20
-23.6369269746
 10
-4.2462441775
 20
-23.6498660033
 10
-4.2361130937
 20
-23.6619264116
 10
-4.2268072318
 20
-23.6731887725
 10
-4.2183221868
 20
-23.6836555391
 10
-4.2106456837
 20
-23.6933242583
 10
-4.2037312086
 20
-23.7022681433
 10
-4.197564002
 20
-23.7105063695
 10
-4.1921570622
 20
-23.7180197616
 10
-4.1875114232
 20
-23.7248240072
 10
-4.1836171662
 20
-23.7309112426
 10
-4.1804640862
 20
-23.7362893315
 10
-4.1780437493
 20
-23.7409975528
 10
-4.1763396308
 20
-23.7450489996
 10
-4.1753315447
 20
-23.7484305787
 10
-4.175
 20
-23.7511422903
  0
LINE
  5
276
100
AcDbEntity
  8
DRAFT
100
AcDbLine
 62
7
  6
CONTINUOUS
 10
-7.9168217019
 20
-20.9959955457
 11
-7.9738376746
 21
-20.9104703804
  0
LINE
  5
277
100
AcDbEntity
  8
RACCORDO
100
AcDbLine
 62
253
  6
CONTINUOUS
 10
3.825
 20
-17.8
 11
-5.175
 21
-17.8
  0
LINE
  5
278
100
AcDbEntity
  8
RACCORDO
100
AcDbLine
 62
7
  6
CONTINUOUS
 10
-4.875
 20
-17.3
 11
3.525
 21
-17.3
  0
LINE
  5
279
100
AcDbEntity
  8
0
100
AcDbLine
 62
7
  6
CONTINUOUS
 10
2.825
 20
-16.2
 11
-4.175
 21
-16.2
  0
LINE
  5
27A
100
AcDbEntity
  8
DRAFT
100
AcDbLine
 62
7
  6
CONTINUOUS
 10
-8.925
 20
20.9
 11
-8.9215127091
 21
20.9104703804
  0
LINE
  5
27B
100
AcDbEntity
  8
RACCORDO
100
AcDbLine
 62
7
  6
CONTINUOUS
 10
-4.175
 20
-15.6
 11
-4.075
 21
-15.6
  0
LINE
  5
27C
100
AcDbEntity
  8
RACCORDO
100
AcDbLine
 62
7
  6
CONTINUOUS
 10
2.725
 20
-15.6
 11
2.825
 21
-15.6
  0
LINE
  5
27D
100
AcDbEntity
  8
RACCORDO
100
AcDbLine
 62
253
  6
CONTINUOUS
 10
-10.204560052
 20
-15.2792978419
 11
-4.175
 21
-15.2792978419
  0
LINE
  5
27E
100
AcDbEntity
  8
RACCORDO
100
AcDbLine
 62
253
  6
CONTINUOUS
 10
2.825
 20
-15.2792978419
 11
8.854560052
 21
-15.2792978419
  0
LINE
  5
27F
100
AcDbEntity
  8
0
100
AcDbLine
 62
7
  6
CONTINUOUS
 10
-4.175
 20
-15.2
 11
-4.075
 21
-15.2
  0
LINE
  5
280
100
AcDbEntity
  8
0
100
AcDbLine
 62
7
  6
CONTINUOUS
 10
2.725
 20
-15.2
 11
2.825
 21
-15.2
  0
LINE
  5
281
100
AcDbEntity
  8
0
100
AcDbLine
 62
7
  6
CONTINUOUS
 10
-4.175
 20
-15.0
 11
-4.075
 21
-15.0
  0
LINE
  5
282
100
AcDbEntity
  8
0
100
AcDbLine
 62
7
  6
CONTINUOUS
 10
2.725
 20
-15.0
 11
2.825
 21
-15.0
  0
LINE
  5
283
100
AcDbEntity
  8
RACCORDO
100
AcDbLine
 62
253
  6
CONTINUOUS
 10
-10.1962892833
 20
-14.7799830745
 11
-4.175
 21
-14.7799830745
  0
LINE
  5
284
100
AcDbEntity
  8
RACCORDO
100
AcDbLine
 62
253
  6
CONTINUOUS
 10
2.825
 20
-14.7799830745
 11
8.8462892833
 21
-14.7799830745
  0
LINE
  5
285
100
AcDbEntity
  8
DRAFT
100
AcDbLine
 62
7
  6
CONTINUOUS
 10
8.8196499221
 20
-14.7
 11
2.825
 21
-14.7
  0
LINE
  5
286
100
AcDbEntity
  8
DRAFT
100
AcDbLine
 62
7
  6
CONTINUOUS
 10
-4.175
 20
-14.7
 11
-10.1696499221
 21
-14.7
  0
LINE
  5
287
100
AcDbEntity
  8
DRAFT
100
AcDbLine
 62
7
  6
CONTINUOUS
 10
-10.1696499221
 20
-12.5
 11
-10.325
 21
-12.4223308767
  0
LINE
  5
288
100
AcDbEntity
  8
RACCORDO
100
AcDbLine
 62
7
  6
CONTINUOUS
 10
-7.1873099353
 20
-13.8126856306
 11
-7.175
 21
-13.8188401295
  0
LINE
  5
289
100
AcDbEntity
  8
RACCORDO
100
AcDbLine
 62
253
  6
CONTINUOUS
 10
-7.1873099353
 20
-13.4876443732
 11
-7.175
 21
-13.4999543085
  0
LINE
  5
28A
100
AcDbEntity
  8
DRAFT
100
AcDbLine
 62
7
  6
CONTINUOUS
 10
-8.9215127091
 20
-20.9104703804
 11
-8.925
 21
-20.9
  0
LINE
  5
28B
100
AcDbEntity
  8
ASSI
100
AcDbLine
 62
7
  6
CONTINUOUS
 10
3.5862377117
 20
23.6224696064
 11
3.5596745345
 21
23.5920986856
  0
LINE
  5
28C
100
AcDbEntity
  8
ASSI
100
AcDbLine
 62
7
  6
CONTINUOUS
 10
3.5596745345
 20
23.5920986856
 11
3.5292797782
 21
23.5578770694
  0
LINE
  5
28D
100
AcDbEntity
  8
ASSI
100
AcDbLine
 62
7
  6
CONTINUOUS
 10
3.5292797782
 20
23.5578770694
 11
3.49505861
 21
23.5198277667
  0
LINE
  5
28E
100
AcDbEntity
  8
ASSI
100
AcDbLine
 62
7
  6
CONTINUOUS
 10
3.49505861
 20
23.5198277667
 11
3.4367198582
 21
23.4556932073
  0
LINE
  5
28F
100
AcDbEntity
  8
ASSI
100
AcDbLine
 62
7
  6
CONTINUOUS
 10
3.4367198582
 20
23.4556932073
 11
3.2529699877
 21
23.2563578147
  0
LINE
  5
290
100
AcDbEntity
  8
ASSI
100
AcDbLine
 62
7
  6
CONTINUOUS
 10
3.725
 20
23.8
 11
3.6813493531
 21
23.7563493531
  0
LINE
  5
291
100
AcDbEntity
  8
IMPORT_IGES
100
AcDbLine
 62
7
  6
CONTINUOUS
 10
-8.5871320346
 20
10.0409280421
 11
-7.7659280423
 21
10.8621320344
  0
LINE
  5
292
100
AcDbEntity
  8
IMPORT_IGES
100
AcDbLine
 62
253
  6
CONTINUOUS
 10
-8.375
 20
10.0409280425
 11
-8.1749993545
 21
10.240923557
  0
LINE
  5
293
100
AcDbEntity
  8
IMPORT_IGES
100
AcDbLine
 62
253
  6
CONTINUOUS
 10
-7.775
 20
10.5723299421
 11
-7.6244814966
 21
10.7221270275
  0
LWPOLYLINE
  5
294
100
AcDbEntity
  8
IMPORT_IGES
100
AcDbPolyline
 62
253
  6
CONTINUOUS
 90
10
 70
0
 10
-7.6244814966
 20
10.7221270275
 10
-7.6179440581
 20
10.7280516983
 10
-7.611030872
 20
10.7333227988
 10
-7.6037419383
 20
10.7379403273
 10
-7.5960164642
 20
10.7419293118
 10
-7.5879152425
 20
10.7452647215
 10
-7.5796206512
 20
10.7478714669
 10
-7.5711934832
 20
10.7497245175
 10
-7.5625729456
 20
10.7508489021
 10
-7.5537590385
 20
10.7512446204
  0
LWPOLYLINE
  5
295
100
AcDbEntity
  8
IMPORT_IGES
100
AcDbPolyline
 62
253
  6
CONTINUOUS
 90
8
 70
0
 10
-8.5587731143
 20
9.9964674761
 10
-8.5882720328
 20
9.9779855518
 10
-8.614035452
 20
9.956979573
 10
-8.6356475379
 20
9.9338266249
 10
-8.652742181
 20
9.9089810468
 10
-8.6650788638
 20
9.882898932
 10
-8.6725195434
 20
9.8560184371
 10
-8.675
 20
9.8287960079
  0
LINE
  5
296
100
AcDbEntity
  8
DRAFT
100
AcDbLine
 62
7
  6
CONTINUOUS
 10
-10.325
 20
8.8223308767
 11
-10.1696499221
 21
8.9
  0
LWPOLYLINE
  5
297
100
AcDbEntity
  8
RACCORDO
100
AcDbPolyline
 62
253
  6
CONTINUOUS
 90
40
 70
0
 10
-6.8873556268
 20
-12.8877357561
 10
-6.9111385987
 20
-12.8881909062
 10
-6.9349071514
 20
-12.8896081277
 10
-6.958661285
 20
-12.8919874208
 10
-6.9824567775
 20
-12.8953296346
 10
-7.0062378508
 20
-12.8996339199
 10
-7.0298371708
 20
-12.9048977291
 10
-7.0532507333
 20
-12.9111322298
 10
-7.0764825426
 20
-12.9183262544
 10
-7.0993772773
 20
-12.9264437525
 10
-7.1219293645
 20
-12.9354942028
 10
-7.1441443772
 20
-12.9454681265
 10
-7.1658837125
 20
-12.9563010368
 10
-7.1871337842
 20
-12.967994363
 10
-7.2079081785
 20
-12.9805466757
 10
-7.2281090521
 20
-12.9938891997
 10
-7.2477294958
 20
-13.0080215247
 10
-7.2667764187
 20
-13.022944061
 10
-7.2851727048
 20
-13.0385892642
 10
-7.3029167925
 20
-13.0549588296
 10
-7.3200102435
 20
-13.0720510619
 10
-7.3363806259
 20
-13.0897933308
 10
-7.3520261596
 20
-13.1081870444
 10
-7.3669486248
 20
-13.1272307947
 10
-7.3810809307
 20
-13.1468477268
 10
-7.3944235084
 20
-13.1670446059
 10
-7.4069759269
 20
-13.1878146669
 10
-7.4186698016
 20
-13.2090607604
 10
-7.4295037875
 20
-13.2307962874
 10
-7.4394792297
 20
-13.2530078469
 10
-7.4485317788
 20
-13.2755580858
 10
-7.4566521937
 20
-13.2984529456
 10
-7.4638497155
 20
-13.3216864848
 10
-7.4700877176
 20
-13.3451035261
 10
-7.4753550403
 20
-13.3687080694
 10
-7.4796628434
 20
-13.3924961148
 10
-7.48300798
 20
-13.4163004856
 10
-7.4853894011
 20
-13.4400654562
 10
-7.4868081558
 20
-13.463846752
 10
-7.4872642439
 20
-13.4876443732
  0
LINE
  5
298
100
AcDbEntity
  8
DRAFT
100
AcDbLine
 62
7
  6
CONTINUOUS
 10
2.825
 20
-13.9052361207
 11
2.480325392
 21
-13.9052361207
  0
LINE
  5
299
100
AcDbEntity
  8
DRAFT
100
AcDbLine
 62
7
  6
CONTINUOUS
 10
-3.830325392
 20
-13.9052361207
 11
-4.175
 21
-13.9052361207
  0
LINE
  5
29A
100
AcDbEntity
  8
RACCORDO
100
AcDbLine
 62
7
  6
CONTINUOUS
 10
-3.775
 20
-13.9
 11
2.425
 21
-13.9
  0
LINE
  5
29B
100
AcDbEntity
  8
RACCORDO
100
AcDbLine
 62
7
  6
CONTINUOUS
 10
6.3250190385
 20
-13.9
 11
2.825
 21
-13.9
  0
LINE
  5
29C
100
AcDbEntity
  8
RACCORDO
100
AcDbLine
 62
7
  6
CONTINUOUS
 10
-4.175
 20
-13.9
 11
-7.6750190385
 21
-13.9
  0
LINE
  5
29D
100
AcDbEntity
  8
DRAFT
100
AcDbLine
 62
7
  6
CONTINUOUS
 10
5.825
 20
-13.8188401295
 11
-7.175
 21
-13.8188401295
  0
LINE
  5
29E
100
AcDbEntity
  8
RACCORDO
100
AcDbLine
 62
7
  6
CONTINUOUS
 10
6.2351323002
 20
-13.8101132618
 11
6.1372642439
 21
-13.8101132618
  0
LINE
  5
29F
100
AcDbEntity
  8
RACCORDO
100
AcDbLine
 62
7
  6
CONTINUOUS
 10
-7.4872642439
 20
-13.8101132618
 11
-7.5851323002
 21
-13.8101132618
  0
LINE
  5
2A0
100
AcDbEntity
  8
RACCORDO
100
AcDbLine
 62
253
  6
CONTINUOUS
 10
-7.4872642439
 20
-13.4876443732
 11
-7.1873099353
 21
-13.4876443732
  0
LINE
  5
2A1
100
AcDbEntity
  8
RACCORDO
100
AcDbLine
 62
253
  6
CONTINUOUS
 10
6.1372642439
 20
-13.4876443732
 11
5.8373099353
 21
-13.4876443732
  0
LINE
  5
2A2
100
AcDbEntity
  8
RACCORDO
100
AcDbLine
 62
7
  6
CONTINUOUS
 10
5.5250456915
 20
-13.2
 11
-6.8750456915
 21
-13.2
  0
LINE
  5
2A3
100
AcDbEntity
  8
RACCORDO
100
AcDbLine
 62
253
  6
CONTINUOUS
 10
-6.8873556268
 20
-13.1876900647
 11
5.5373556268
 21
-13.1876900647
  0
LINE
  5
2A4
100
AcDbEntity
  8
RACCORDO
100
AcDbLine
 62
253
  6
CONTINUOUS
 10
-6.8873556268
 20
-12.8877357561
 11
5.5373556268
 21
-12.8877357561
  0
LINE
  5
2A5
100
AcDbEntity
  8
DRAFT
100
AcDbLine
 62
7
  6
CONTINUOUS
 10
6.825
 20
-12.5
 11
8.8196499221
 21
-12.5
  0
LINE
  5
2A6
100
AcDbEntity
  8
DRAFT
100
AcDbLine
 62
7
  6
CONTINUOUS
 10
-8.175
 20
-12.5
 11
-10.1696499221
 21
-12.5
  0
LWPOLYLINE
  5
2A7
100
AcDbEntity
  8
RACCORDO
100
AcDbPolyline
 62
253
  6
CONTINUOUS
 90
31
 70
0
 10
5.5373556268
 20
-13.1876900647
 10
5.5530710042
 20
-13.1880969714
 10
5.5687415919
 20
-13.1893261439
 10
5.5843244403
 20
-13.191374009
 10
5.5997769086
 20
-13.1942347394
 10
5.6150566182
 20
-13.1979003094
 10
5.6301215731
 20
-13.2023605005
 10
5.6449307566
 20
-13.2076029693
 10
5.6594434341
 20
-13.2136130801
 10
5.6736191567
 20
-13.220373842
 10
5.6874191205
 20
-13.2278663725
 10
5.7008058038
 20
-13.2360698985
 10
5.7137423412
 20
-13.2449614381
 10
5.7261929689
 20
-13.2545158657
 10
5.7381244751
 20
-13.2647071133
 10
5.7495057064
 20
-13.2755082492
 10
5.7603053131
 20
-13.2868893252
 10
5.7704941673
 20
-13.2988194201
 10
5.7800462941
 20
-13.3112683007
 10
5.7889357988
 20
-13.3242029688
 10
5.7971374311
 20
-13.3375874674
 10
5.8046284907
 20
-13.3513854218
 10
5.8113882297
 20
-13.3655595081
 10
5.8173976352
 20
-13.3800708186
 10
5.8226396803
 20
-13.3948789839
 10
5.8270997027
 20
-13.4099434274
 10
5.8307652481
 20
-13.4252230332
 10
5.8336259779
 20
-13.4406754779
 10
5.8356738415
 20
-13.4562582702
 10
5.8369030227
 20
-13.4719288849
 10
5.8373099353
 20
-13.4876443732
  0
LWPOLYLINE
  5
2A8
100
AcDbEntity
  8
IMPORT_IGES
100
AcDbPolyline
 62
253
  6
CONTINUOUS
 90
10
 70
0
 10
-8.15
 20
-10.2736504399
 10
-8.1435886609
 20
-10.2760613541
 10
-8.1364860169
 20
-10.276225433
 10
-8.1287584452
 20
-10.2740227189
 10
-8.1205043269
 20
-10.2692714737
 10
-8.1117998053
 20
-10.2619275997
 10
-8.1027404689
 20
-10.2522238213
 10
-8.0934786595
 20
-10.2403428055
 10
-8.0841806888
 20
-10.2262793496
 10
-8.075
 20
-10.2101322018
  0
LWPOLYLINE
  5
2A9
100
AcDbEntity
  8
IMPORT_IGES
100
AcDbPolyline
 62
253
  6
CONTINUOUS
 90
10
 70
0
 10
-8.5250000005
 20
-10.0571440886
 10
-8.5115338809
 20
-10.0635269601
 10
-8.4969706378
 20
-10.0677708474
 10
-8.4814272948
 20
-10.0698416484
 10
-8.4650287512
 20
-10.0697227231
 10
-8.4479067781
 20
-10.0674150272
 10
-8.4301989596
 20
-10.0629371043
 10
-8.4120475877
 20
-10.0563249369
 10
-8.3935985184
 20
-10.0476316574
 10
-8.375
 20
-10.036927121
  0
LINE
  5
2AA
100
AcDbEntity
  8
IMPORT_IGES
100
AcDbLine
 62
7
  6
CONTINUOUS
 10
-8.5250000001
 20
-10.0571440889
 11
-7.0481434404
 21
-10.9098076212
  0
LINE
  5
2AB
100
AcDbEntity
  8
IMPORT_IGES
100
AcDbLine
 62
253
  6
CONTINUOUS
 10
-8.075
 20
-10.2101322016
 11
-8.375
 21
-10.036927121
  0
LINE
  5
2AC
100
AcDbEntity
  8
IMPORT_IGES
100
AcDbLine
 62
253
  6
CONTINUOUS
 10
-6.9731434405
 20
-10.7834477573
 11
-7.7250094013
 21
-10.3493557436
  0
LINE
  5
2AD
100
AcDbEntity
  8
RACCORDO
100
AcDbLine
 62
253
  6
CONTINUOUS
 10
-6.8873556268
 20
-13.1876900647
 11
-6.8750456915
 21
-13.2
  0
LINE
  5
2AE
100
AcDbEntity
  8
ASSI
100
AcDbLine
 62
7
  6
CONTINUOUS
 10
3.725
 20
-23.8
 11
3.6813493531
 21
-23.7563493531
  0
LINE
  5
2AF
100
AcDbEntity
  8
DRAFT
100
AcDbLine
 62
7
  6
CONTINUOUS
 10
-8.175
 20
-11.5
 11
-8.1575462644
 21
-11.5174537356
  0
LWPOLYLINE
  5
2B0
100
AcDbEntity
  8
IMPORT_IGES
100
AcDbPolyline
 62
253
  6
CONTINUOUS
 90
6
 70
0
 10
-7.7250094013
 20
-10.3493557436
 10
-7.7527704872
 20
-10.3205513864
 10
-7.7796633767
 20
-10.2934493788
 10
-7.8052091238
 20
-10.2680439316
 10
-7.8290006697
 20
-10.2439998756
 10
-7.8862036548
 20
-10.1850947398
  0
LWPOLYLINE
  5
2B1
100
AcDbEntity
  8
IMPORT_IGES
100
AcDbPolyline
 62
253
  6
CONTINUOUS
 90
3
 70
0
 10
-7.8862036548
 20
-10.1850947398
 10
-7.89976131
 20
-10.1708944473
 10
-7.9185340444
 20
-10.1514182129
  0
LWPOLYLINE
  5
2B2
100
AcDbEntity
  8
IMPORT_IGES
100
AcDbPolyline
 62
253
  6
CONTINUOUS
 90
3
 70
0
 10
-7.9185340444
 20
-10.1514182129
 10
-7.9233713045
 20
-10.1461253576
 10
-7.9249999981
 20
-10.1437485218
  0
LINE
  5
2B3
100
AcDbEntity
  8
ASSI
100
AcDbLine
 62
7
  6
CONTINUOUS
 10
3.2529699877
 20
-23.2563578147
 11
3.4569393381
 21
-23.4778438168
  0
LINE
  5
2B4
100
AcDbEntity
  8
ASSI
100
AcDbLine
 62
7
  6
CONTINUOUS
 10
3.4569393381
 20
-23.4778438168
 11
3.4948677157
 21
-23.5196167203
  0
LINE
  5
2B5
100
AcDbEntity
  8
ASSI
100
AcDbLine
 62
7
  6
CONTINUOUS
 10
3.4948677157
 20
-23.5196167203
 11
3.5290449926
 21
-23.5576149814
  0
LINE
  5
2B6
100
AcDbEntity
  8
ASSI
100
AcDbLine
 62
7
  6
CONTINUOUS
 10
3.5290449926
 20
-23.5576149814
 11
3.5594035537
 21
-23.5917914252
  0
LWPOLYLINE
  5
2B7
100
AcDbEntity
  8
ASSI
100
AcDbPolyline
 62
7
  6
CONTINUOUS
 90
18
 70
0
 10
3.5594035537
 20
-23.5917914252
 10
3.5859530912
 20
-23.6221414657
 10
3.597867965
 20
-23.6359699945
 10
3.6088985218
 20
-23.6489231118
 10
3.6190570925
 20
-23.6610025701
 10
3.6283924483
 20
-23.6722856337
 10
3.6369084242
 20
-23.6827728937
 10
3.6446191733
 20
-23.6924637589
 10
3.6515725949
 20
-23.70143372
 10
3.6577837712
 20
-23.7097020781
 10
3.6632403763
 20
-23.7172495321
 10
3.6679426829
 20
-23.7240936689
 10
3.6719006534
 20
-23.7302274091
 10
3.675124195
 20
-23.735657832
 10
3.6776217143
 20
-23.7404237625
 10
3.6794093029
 20
-23.7445381423
 10
3.6805066314
 20
-23.7479880297
 10
3.6809327327
 20
-23.7507734247
  0
LINE
  5
2B8
100
AcDbEntity
  8
RACCORDO
100
AcDbLine
 62
253
  6
CONTINUOUS
 10
-11.320628166
 20
-23.8443375673
 11
-11.325
 21
-23.4104851482
  0
LINE
  5
2B9
100
AcDbEntity
  8
RACCORDO
100
AcDbLine
 62
253
  6
CONTINUOUS
 10
-11.0706323968
 20
-23.6278312164
 11
-11.0757229979
 21
-23.1226497308
  0
LINE
  5
2BA
100
AcDbEntity
  8
RACCORDO
100
AcDbLine
 62
7
  6
CONTINUOUS
 10
-11.825
 20
-21.8911779406
 11
-11.825
 21
21.8911779406
  0
LINE
  5
2BB
100
AcDbEntity
  8
RACCORDO
100
AcDbLine
 62
7
  6
CONTINUOUS
 10
-11.325
 20
-22.399689968
 11
-11.325
 21
-24.2500042308
  0
LINE
  5
2BC
100
AcDbEntity
  8
RACCORDO
100
AcDbLine
 62
7
  6
CONTINUOUS
 10
-11.325
 20
22.399689968
 11
-11.325
 21
24.2500042308
  0
LINE
  5
2BD
100
AcDbEntity
  8
RACCORDO
100
AcDbLine
 62
253
  6
CONTINUOUS
 10
-11.320628166
 20
24.2456323968
 11
-11.320628166
 21
23.8443375673
  0
LINE
  5
2BE
100
AcDbEntity
  8
RACCORDO
100
AcDbLine
 62
253
  6
CONTINUOUS
 10
-11.320628166
 20
-23.8443375673
 11
-11.320628166
 21
-24.2456323968
  0
LINE
  5
2BF
100
AcDbEntity
  8
RACCORDO
100
AcDbLine
 62
253
  6
CONTINUOUS
 10
-11.0706323968
 20
-23.6278312164
 11
-11.0706323968
 21
-24.495628166
  0
LINE
  5
2C0
100
AcDbEntity
  8
RACCORDO
100
AcDbLine
 62
253
  6
CONTINUOUS
 10
-11.0706323968
 20
23.7
 11
-11.0706323968
 21
24.495628166
  0
LINE
  5
2C1
100
AcDbEntity
  8
RACCORDO
100
AcDbLine
 62
253
  6
CONTINUOUS
 10
-11.325
 20
23.4104851482
 11
-11.320628166
 21
23.8443375673
  0
LINE
  5
2C2
100
AcDbEntity
  8
RACCORDO
100
AcDbLine
 62
253
  6
CONTINUOUS
 10
-11.0757229979
 20
23.1226497308
 11
-11.0699051681
 21
23.7
  0
LWPOLYLINE
  5
2C3
100
AcDbEntity
  8
RACCORDO
100
AcDbPolyline
 62
7
  6
CONTINUOUS
 90
34
 70
0
 10
-11.325
 20
24.2500042308
 10
-11.3247168498
 20
24.261899516
 10
-11.3238680342
 20
24.2737678556
 10
-11.3224554741
 20
24.2855823661
 10
-11.3204823677
 20
24.2973162875
 10
-11.3179531817
 20
24.3089430388
 10
-11.3148736417
 20
24.320436279
 10
-11.3112507213
 20
24.3317699738
 10
-11.3070926258
 20
24.3429184493
 10
-11.3024087722
 20
24.3538564463
 10
-11.2972097688
 20
24.3645591876
 10
-11.2915073916
 20
24.3750024283
 10
-11.2853145581
 20
24.3851625059
 10
-11.2786452955
 20
24.3950164051
 10
-11.2715147107
 20
24.4045418038
 10
-11.2639389589
 20
24.4137171191
 10
-11.2559352005
 20
24.4225215661
 10
-11.2475215661
 20
24.4309352005
 10
-11.2387171191
 20
24.4389389589
 10
-11.2295418038
 20
24.4465147107
 10
-11.2200164051
 20
24.4536452955
 10
-11.2101625059
 20
24.4603145581
 10
-11.2000024283
 20
24.4665073916
 10
-11.1895591876
 20
24.4722097688
 10
-11.1788564463
 20
24.4774087722
 10
-11.1679184493
 20
24.4820926258
 10
-11.1567699738
 20
24.4862507213
 10
-11.145436279
 20
24.4898736417
 10
-11.1339430388
 20
24.4929531817
 10
-11.1223162875
 20
24.4954823677
 10
-11.1105823661
 20
24.4974554741
 10
-11.0987678556
 20
24.4988680342
 10
-11.086899516
 20
24.4997168498
 10
-11.0750042308
 20
24.5
  0
LWPOLYLINE
  5
2C4
100
AcDbEntity
  8
RACCORDO
100
AcDbPolyline
 62
253
  6
CONTINUOUS
 90
31
 70
0
 10
-11.320628166
 20
24.2456323968
 10
-11.3202867588
 20
24.2586847368
 10
-11.3192634962
 20
24.2717096311
 10
-11.317559892
 20
24.2846714057
 10
-11.3151787618
 20
24.2975371245
 10
-11.3121256484
 20
24.3102685897
 10
-11.3084102087
 20
24.3228227742
 10
-11.3040436576
 20
24.3351625782
 10
-11.2990372277
 20
24.3472569343
 10
-11.2934044791
 20
24.3590730125
 10
-11.2871606774
 20
24.370578613
 10
-11.2803229956
 20
24.3817419314
 10
-11.2729103656
 20
24.3925320106
 10
-11.2649432233
 20
24.4029191364
 10
-11.2564433264
 20
24.4128749736
 10
-11.2474339046
 20
24.422372308
 10
-11.2379396114
 20
24.4313851271
 10
-11.227986508
 20
24.4398886687
 10
-11.2176019187
 20
24.4478595768
 10
-11.2068143284
 20
24.4552759837
 10
-11.1956533025
 20
24.4621175595
 10
-11.1841494467
 20
24.4683655387
 10
-11.172334301
 20
24.4740027869
 10
-11.1602402638
 20
24.4790138424
 10
-11.1479005077
 20
24.4833849575
 10
-11.1353488602
 20
24.487104147
 10
-11.1226197463
 20
24.4901612081
 10
-11.1097481067
 20
24.4925477509
 10
-11.0967692492
 20
24.494257234
 10
-11.0837187509
 20
24.495284977
 10
-11.0706323968
 20
24.495628166
  0
LINE
  5
2C5
100
AcDbEntity
  8
IMPORT_IGES
100
AcDbLine
 62
253
  6
CONTINUOUS
 10
-7.975
 20
10.1702172001
 11
-7.9724054846
 21
10.1759094857
  0
LWPOLYLINE
  5
2C6
100
AcDbEntity
  8
IMPORT_IGES
100
AcDbPolyline
 62
253
  6
CONTINUOUS
 90
4
 70
0
 10
-7.9724054846
 20
10.1759094857
 10
-7.9690365933
 20
10.1831400683
 10
-7.9639149596
 20
10.194339436
 10
-7.9571134058
 20
10.2084789567
  0
LINE
  5
2C7
100
AcDbEntity
  8
IMPORT_IGES
100
AcDbLine
 62
253
  6
CONTINUOUS
 10
-7.9311825169
 20
10.260118373
 11
-7.775
 21
10.5723299422
  0
LWPOLYLINE
  5
2C8
100
AcDbEntity
  8
IMPORT_IGES
100
AcDbPolyline
 62
253
  6
CONTINUOUS
 90
3
 70
0
 10
-7.9571134058
 20
10.2084789567
 10
-7.9434430625
 20
10.2346104156
 10
-7.9311825169
 20
10.260118373
  0
LINE
  5
2C9
100
AcDbEntity
  8
DRAFT
100
AcDbLine
 62
7
  6
CONTINUOUS
 10
-9.175
 20
7.9
 11
-9.0851132618
 21
7.9898867382
  0
LINE
  5
2CA
100
AcDbEntity
  8
RACCORDO
100
AcDbLine
 62
7
  6
CONTINUOUS
 10
-9.175
 20
5.9
 11
-9.0877084755
 21
5.9872915245
  0
LWPOLYLINE
  5
2CB
100
AcDbEntity
  8
IMPORT_IGES
100
AcDbPolyline
 62
253
  6
CONTINUOUS
 90
3
 70
0
 10
-8.4906382917
 20
10.0245353569
 10
-8.5260246072
 20
10.0120875353
 10
-8.5587731143
 20
9.9964674761
  0
LINE
  5
2CC
100
AcDbEntity
  8
IMPORT_IGES
100
AcDbLine
 62
253
  6
CONTINUOUS
 10
7.1030239732
 20
-10.0286821107
 11
7.1402865441
 21
-10.018529689
  0
LWPOLYLINE
  5
2CD
100
AcDbEntity
  8
IMPORT_IGES
100
AcDbPolyline
 62
253
  6
CONTINUOUS
 90
13
 70
0
 10
4.1969874955
 20
-10.9499893717
 10
4.2147046813
 20
-10.9487961762
 10
4.2324218439
 20
-10.945151881
 10
4.2496731933
 20
-10.9390655065
 10
4.2657946387
 20
-10.9308057553
 10
4.2806232283
 20
-10.9205708969
 10
4.2943902982
 20
-10.9081689547
 10
4.3067509842
 20
-10.8937327269
 10
4.3172760929
 20
-10.8776513445
 10
4.3258770735
 20
-10.8599183183
 10
4.3322705093
 20
-10.8408371061
 10
4.3361851161
 20
-10.8210852066
 10
4.3375762586
 20
-10.8012359513
  0
LWPOLYLINE
  5
2CE
100
AcDbEntity
  8
IMPORT_IGES
100
AcDbPolyline
 62
253
  6
CONTINUOUS
 90
13
 70
0
 10
4.175
 20
-10.7041294064
 10
4.1945789288
 20
-10.7028551273
 10
4.2138228568
 20
-10.6990540935
 10
4.2324025149
 20
-10.6927913416
 10
4.25
 20
-10.684174029
 10
4.2663142144
 20
-10.6733496004
 10
4.2810660172
 20
-10.6605032648
 10
4.294003001
 20
-10.6458548264
 10
4.3049038106
 20
-10.6296549242
 10
4.3135819299
 20
-10.612180743
 10
4.3198888739
 20
-10.5937312708
 10
4.3237167292
 20
-10.5746221832
 10
4.325
 20
-10.5551804421
  0
LWPOLYLINE
  5
2CF
100
AcDbEntity
  8
IMPORT_IGES
100
AcDbPolyline
 62
253
  6
CONTINUOUS
 90
13
 70
0
 10
4.175
 20
-10.9456300671
 10
4.1942945447
 20
-10.9443866823
 10
4.2132228242
 20
-10.9406892083
 10
4.2314753615
 20
-10.9346165297
 10
4.2486786837
 20
-10.9263300943
 10
4.2646491544
 20
-10.9159573774
 10
4.2793341912
 20
-10.9034923551
 10
4.2925095644
 20
-10.8889823383
 10
4.3037891533
 20
-10.8726881273
 10
4.3128686233
 20
-10.8549238914
 10
4.3195301795
 20
-10.8360077158
 10
4.3236169057
 20
-10.8162361852
 10
4.325
 20
-10.7959578105
  0
LINE
  5
2D0
100
AcDbEntity
  8
RACCORDO
100
AcDbLine
 62
7
  6
CONTINUOUS
 10
-9.8872871968
 20
-12.4118358927
 11
-10.325
 21
-12.4223308767
  0
LINE
  5
2D1
100
AcDbEntity
  8
RACCORDO
100
AcDbLine
 62
7
  6
CONTINUOUS
 10
8.975
 20
-11.5776691233
 11
8.5372871968
 21
-11.5881641073
  0
LINE
  5
2D2
100
AcDbEntity
  8
IMPORT_IGES
100
AcDbLine
 62
253
  6
CONTINUOUS
 10
-5.7129591037
 20
-10.8020966456
 11
-5.7500808992
 21
-10.8027594114
  0
LWPOLYLINE
  5
2D3
100
AcDbEntity
  8
IMPORT_IGES
100
AcDbPolyline
 62
253
  6
CONTINUOUS
 90
10
 70
0
 10
-5.5469913397
 20
-10.95
 10
-5.542450575
 20
-10.9499508821
 10
-5.5384159918
 20
-10.9498005742
 10
-5.5349059378
 20
-10.9495457545
 10
-5.5319152547
 20
-10.9491831079
 10
-5.5294491009
 20
-10.9487092349
 10
-5.527522951
 20
-10.9481205594
 10
-5.5261419633
 20
-10.9474134915
 10
-5.5253009797
 20
-10.9465845216
 10
-5.525
 20
-10.9456300654
  0
LINE
  5
2D4
100
AcDbEntity
  8
IMPORT_IGES
100
AcDbLine
 62
253
  6
CONTINUOUS
 10
-5.7500808992
 20
-10.8027594114
 11
-5.7962358534
 21
-10.8032570576
  0
LINE
  5
2D5
100
AcDbEntity
  8
IMPORT_IGES
100
AcDbLine
 62
253
  6
CONTINUOUS
 10
-5.7962358534
 20
-10.8032570576
 11
-5.8749729275
 21
-10.8035439658
  0
LINE
  5
2D6
100
AcDbEntity
  8
RACCORDO
100
AcDbLine
 62
7
  6
CONTINUOUS
 10
-9.6053794106
 20
-12.4101132618
 11
-8.0851132618
 21
-12.4101132618
  0
LINE
  5
2D7
100
AcDbEntity
  8
RACCORDO
100
AcDbLine
 62
7
  6
CONTINUOUS
 10
8.2553794106
 20
-12.4101132618
 11
6.7351132618
 21
-12.4101132618
  0
LINE
  5
2D8
100
AcDbEntity
  8
0
100
AcDbLine
 62
7
  6
CONTINUOUS
 10
5.825
 20
-12.3
 11
-7.175
 21
-12.3
  0
LINE
  5
2D9
100
AcDbEntity
  8
RACCORDO
100
AcDbLine
 62
7
  6
CONTINUOUS
 10
-9.6053794106
 20
-11.5898867382
 11
-7.175
 21
-11.5898867382
  0
LINE
  5
2DA
100
AcDbEntity
  8
RACCORDO
100
AcDbLine
 62
7
  6
CONTINUOUS
 10
8.2553794106
 20
-11.5898867382
 11
5.825
 21
-11.5898867382
  0
LINE
  5
2DB
100
AcDbEntity
  8
DRAFT
100
AcDbLine
 62
7
  6
CONTINUOUS
 10
6.6575462644
 20
-11.5174537356
 11
5.825
 21
-11.5174537356
  0
LINE
  5
2DC
100
AcDbEntity
  8
DRAFT
100
AcDbLine
 62
7
  6
CONTINUOUS
 10
-7.175
 20
-11.5174537356
 11
-8.1575462644
 21
-11.5174537356
  0
LINE
  5
2DD
100
AcDbEntity
  8
DRAFT
100
AcDbLine
 62
7
  6
CONTINUOUS
 10
8.8196499221
 20
-11.5
 11
6.675
 21
-11.5
  0
LINE
  5
2DE
100
AcDbEntity
  8
DRAFT
100
AcDbLine
 62
7
  6
CONTINUOUS
 10
-8.175
 20
-11.5
 11
-10.1696499221
 21
-11.5
  0
LINE
  5
2DF
100
AcDbEntity
  8
0
100
AcDbLine
 62
7
  6
CONTINUOUS
 10
3.0590925511
 20
-11.3500290004
 11
2.2887011241
 21
-11.3500290004
  0
LINE
  5
2E0
100
AcDbEntity
  8
0
100
AcDbLine
 62
7
  6
CONTINUOUS
 10
2.1930427503
 20
-11.3500290004
 11
0.1509075832
 21
-11.3500290004
  0
LINE
  5
2E1
100
AcDbEntity
  8
0
100
AcDbLine
 62
7
  6
CONTINUOUS
 10
0.1456800276
 20
-11.3500290004
 11
-4.4090923596
 21
-11.3500290004
  0
LINE
  5
2E2
100
AcDbEntity
  8
RACCORDO
100
AcDbLine
 62
253
  6
CONTINUOUS
 10
-7.175
 20
-11.2878679656
 11
-4.4090923596
 21
-11.2878679656
  0
LINE
  5
2E3
100
AcDbEntity
  8
RACCORDO
100
AcDbLine
 62
253
  6
CONTINUOUS
 10
2.1930427503
 20
-11.2878679656
 11
2.2887011241
 21
-11.2878679656
  0
LINE
  5
2E4
100
AcDbEntity
  8
RACCORDO
100
AcDbLine
 62
253
  6
CONTINUOUS
 10
3.0590925511
 20
-11.2878679656
 11
5.825
 21
-11.2878679656
  0
LINE
  5
2E5
100
AcDbEntity
  8
IMPORT_IGES
100
AcDbLine
 62
7
  6
CONTINUOUS
 10
4.7476866561
 20
-11.2500290004
 11
3.0480847372
 21
-11.2500290004
  0
LINE
  5
2E6
100
AcDbEntity
  8
IMPORT_IGES
100
AcDbLine
 62
7
  6
CONTINUOUS
 10
2.2892506611
 20
-11.2500290004
 11
2.1930427503
 21
-11.2500290004
  0
LINE
  5
2E7
100
AcDbEntity
  8
IMPORT_IGES
100
AcDbLine
 62
7
  6
CONTINUOUS
 10
1.4824376773
 20
-11.2500290004
 11
0.9836476516
 21
-11.2500290004
  0
LINE
  5
2E8
100
AcDbEntity
  8
IMPORT_IGES
100
AcDbLine
 62
7
  6
CONTINUOUS
 10
0.4933986377
 20
-11.2500290004
 11
-0.2744306851
 21
-11.2500290004
  0
LINE
  5
2E9
100
AcDbEntity
  8
IMPORT_IGES
100
AcDbLine
 62
7
  6
CONTINUOUS
 10
-0.764679556
 20
-11.2500290004
 11
-1.4223988905
 21
-11.2500290004
  0
LINE
  5
2EA
100
AcDbEntity
  8
IMPORT_IGES
100
AcDbLine
 62
7
  6
CONTINUOUS
 10
-1.9592872884
 20
-11.2500290004
 11
-1.9753524638
 21
-11.2500290004
  0
LINE
  5
2EB
100
AcDbEntity
  8
IMPORT_IGES
100
AcDbLine
 62
7
  6
CONTINUOUS
 10
-2.508110862
 20
-11.2500290004
 11
-3.0673810224
 21
-11.2500290004
  0
LINE
  5
2EC
100
AcDbEntity
  8
IMPORT_IGES
100
AcDbLine
 62
7
  6
CONTINUOUS
 10
-3.6042696263
 20
-11.2500290004
 11
-3.6203348018
 21
-11.2500290004
  0
LINE
  5
2ED
100
AcDbEntity
  8
IMPORT_IGES
100
AcDbLine
 62
7
  6
CONTINUOUS
 10
-4.1530931999
 20
-11.2500290004
 11
-6.0976866561
 21
-11.2500290004
  0
LINE
  5
2EE
100
AcDbEntity
  8
0
100
AcDbLine
 62
7
  6
CONTINUOUS
 10
4.7476866561
 20
-11.2500290004
 11
-6.0976866561
 21
-11.2500290004
  0
LINE
  5
2EF
100
AcDbEntity
  8
RACCORDO
100
AcDbLine
 62
7
  6
CONTINUOUS
 10
-7.175
 20
-11.2
 11
-6.1256603434
 21
-11.2
  0
LINE
  5
2F0
100
AcDbEntity
  8
RACCORDO
100
AcDbLine
 62
7
  6
CONTINUOUS
 10
4.7756603228
 20
-11.2
 11
5.825
 21
-11.2
  0
LINE
  5
2F1
100
AcDbEntity
  8
IMPORT_IGES
100
AcDbLine
 62
7
  6
CONTINUOUS
 10
5.225
 20
-11.15
 11
-6.6217037363
 21
-11.15
  0
LINE
  5
2F2
100
AcDbEntity
  8
IMPORT_IGES
100
AcDbLine
 62
253
  6
CONTINUOUS
 10
5.325
 20
-11.05
 11
-6.675
 21
-11.05
  0
LINE
  5
2F3
100
AcDbEntity
  8
IMPORT_IGES
100
AcDbLine
 62
7
  6
CONTINUOUS
 10
5.5481434429
 20
-10.95
 11
-6.8981434475
 21
-10.95
  0
LINE
  5
2F4
100
AcDbEntity
  8
IMPORT_IGES
100
AcDbLine
 62
253
  6
CONTINUOUS
 10
-5.525
 20
-10.9359861903
 11
4.175
 21
-10.9359861903
  0
LINE
  5
2F5
100
AcDbEntity
  8
IMPORT_IGES
100
AcDbLine
 62
253
  6
CONTINUOUS
 10
-6.8981434405
 20
-10.8035439046
 11
-5.8749729283
 21
-10.8035439046
  0
LINE
  5
2F6
100
AcDbEntity
  8
IMPORT_IGES
100
AcDbLine
 62
253
  6
CONTINUOUS
 10
4.175
 20
-10.7041294064
 11
-5.525
 21
-10.7041294064
  0
LINE
  5
2F7
100
AcDbEntity
  8
IMPORT_IGES
100
AcDbLine
 62
253
  6
CONTINUOUS
 10
5.5481434405
 20
-10.8035439467
 11
4.4716751487
 21
-10.8034056965
  0
LINE
  5
2F8
100
AcDbEntity
  8
IMPORT_IGES
100
AcDbLine
 62
253
  6
CONTINUOUS
 10
4.4716751487
 20
-10.8034056965
 11
4.4222253543
 21
-10.8030396682
  0
LWPOLYLINE
  5
2F9
100
AcDbEntity
  8
IMPORT_IGES
100
AcDbPolyline
 62
253
  6
CONTINUOUS
 90
5
 70
0
 10
4.4222253543
 20
-10.8030396682
 10
4.3802045732
 20
-10.8024439456
 10
4.3629589977
 20
-10.8020966673
 10
4.3486586171
 20
-10.8016973865
 10
4.3375645405
 20
-10.8012362906
  0
LINE
  5
2FA
100
AcDbEntity
  8
RACCORDO
100
AcDbLine
 62
7
  6
CONTINUOUS
 10
8.975
 20
-12.4223308767
 11
8.5372871968
 21
-12.4118358927
  0
LINE
  5
2FB
100
AcDbEntity
  8
RACCORDO
100
AcDbLine
 62
7
  6
CONTINUOUS
 10
-9.8872871968
 20
-11.5881641073
 11
-10.325
 21
-11.5776691233
  0
LWPOLYLINE
  5
2FC
100
AcDbEntity
  8
IMPORT_IGES
100
AcDbPolyline
 62
253
  6
CONTINUOUS
 90
10
 70
0
 10
-6.8981434405
 20
-10.8035439046
 10
-6.9069136328
 20
-10.8032837454
 10
-6.9155960754
 20
-10.8025246471
 10
-6.9241907684
 20
-10.8012666094
 10
-6.9327263318
 20
-10.7995019623
 10
-6.9411741455
 20
-10.7972383758
 10
-6.9494483492
 20
-10.794498861
 10
-6.9575203229
 20
-10.7912910882
 10
-6.9654186867
 20
-10.7876073869
 10
-6.9731434405
 20
-10.7834477573
  0
LWPOLYLINE
  5
2FD
100
AcDbEntity
  8
IMPORT_IGES
100
AcDbPolyline
 62
253
  6
CONTINUOUS
 90
13
 70
0
 10
-5.525
 20
-10.4182430923
 10
-5.5445789288
 20
-10.4173356828
 10
-5.5638228568
 20
-10.4146289805
 10
-5.5824025149
 20
-10.4101692976
 10
-5.6
 20
-10.4040329406
 10
-5.6163142144
 20
-10.3963249042
 10
-5.6310660172
 20
-10.3871770752
 10
-5.644003001
 20
-10.3767459754
 10
-5.6549038106
 20
-10.3652100838
 10
-5.6635819299
 20
-10.3527667827
 10
-5.6698888739
 20
-10.3396289805
 10
-5.6737167292
 20
-10.3260214686
 10
-5.675
 20
-10.3121770752
  0
LWPOLYLINE
  5
2FE
100
AcDbEntity
  8
IMPORT_IGES
100
AcDbPolyline
 62
253
  6
CONTINUOUS
 90
12
 70
0
 10
-5.525
 20
-10.9359861903
 10
-5.5445789288
 20
-10.9347119113
 10
-5.5638228568
 20
-10.9309108775
 10
-5.5824025149
 20
-10.9246481255
 10
-5.6
 20
-10.916030813
 10
-5.6163142144
 20
-10.9052063844
 10
-5.6310660172
 20
-10.8923600488
 10
-5.644003001
 20
-10.8777116104
 10
-5.6549038106
 20
-10.8615117082
 10
-5.6635819299
 20
-10.844037527
 10
-5.6698888739
 20
-10.8255880548
 10
-5.6737167292
 20
-10.8064789672
  0
LWPOLYLINE
  5
2FF
100
AcDbEntity
  8
IMPORT_IGES
100
AcDbPolyline
 62
253
  6
CONTINUOUS
 90
13
 70
0
 10
-5.525
 20
-10.7041294064
 10
-5.5445789288
 20
-10.7028551273
 10
-5.5638228568
 20
-10.6990540935
 10
-5.5824025149
 20
-10.6927913416
 10
-5.6
 20
-10.684174029
 10
-5.6163142144
 20
-10.6733496004
 10
-5.6310660172
 20
-10.6605032648
 10
-5.644003001
 20
-10.6458548264
 10
-5.6549038106
 20
-10.6296549242
 10
-5.6635819299
 20
-10.612180743
 10
-5.6698888739
 20
-10.5937312708
 10
-5.6737167292
 20
-10.5746221832
 10
-5.675
 20
-10.5551804421
  0
LWPOLYLINE
  5
300
100
AcDbEntity
  8
IMPORT_IGES
100
AcDbPolyline
 62
253
  6
CONTINUOUS
 90
13
 70
0
 10
-5.525
 20
-10.9456300654
 10
-5.5445789288
 20
-10.9443495985
 10
-5.5638228568
 20
-10.940530107
 10
-5.5824025149
 20
-10.9342369434
 10
-5.6
 20
-10.9255777855
 10
-5.6163142144
 20
-10.9147007939
 10
-5.6310660172
 20
-10.9017920769
 10
-5.644003001
 20
-10.8870725063
 10
-5.6549038106
 20
-10.870793938
 10
-5.6635819299
 20
-10.8532349027
 10
-5.6698888739
 20
-10.8346958406
 10
-5.6737167292
 20
-10.81549396
 10
-5.675
 20
-10.7959578105
  0
LWPOLYLINE
  5
301
100
AcDbEntity
  8
IMPORT_IGES
100
AcDbPolyline
 62
253
  6
CONTINUOUS
 90
13
 70
0
 10
-5.5469900331
 20
-10.9499921538
 10
-5.565031552
 20
-10.9487527519
 10
-5.5830839648
 20
-10.944965868
 10
-5.6006551245
 20
-10.9386357478
 10
-5.6171114225
 20
-10.9300040558
 10
-5.6322017301
 20
-10.9193011568
 10
-5.6459854702
 20
-10.9065007934
 10
-5.658096283
 20
-10.8919013567
 10
-5.6682525236
 20
-10.8758902551
 10
-5.6764796782
 20
-10.8584030698
 10
-5.6825590568
 20
-10.8397062824
 10
-5.6862583912
 20
-10.8204753837
 10
-5.6875698321
 20
-10.8012363842
  0
LWPOLYLINE
  5
302
100
AcDbEntity
  8
IMPORT_IGES
100
AcDbPolyline
 62
253
  6
CONTINUOUS
 90
3
 70
0
 10
-8.4528718632
 20
-10.0287147972
 10
-8.4142838179
 20
-10.0348641243
 10
-8.375
 20
-10.036927121
  0
LWPOLYLINE
  5
303
100
AcDbEntity
  8
IMPORT_IGES
100
AcDbPolyline
 62
253
  6
CONTINUOUS
 90
10
 70
0
 10
-5.675
 20
-9.9547252623
 10
-5.6767110277
 20
-9.9541084918
 10
-5.6818148347
 20
-9.9535022744
 10
-5.6902240935
 20
-9.9529169827
 10
-5.7017949192
 20
-9.9523626312
 10
-5.7163293319
 20
-9.9518487049
 10
-5.7335786438
 20
-9.9513839973
 10
-5.7532481119
 20
-9.9509764525
 10
-5.7750008683
 20
-9.9506330533
 10
-5.8232332855
 20
-9.9501610278
  0
LWPOLYLINE
  5
304
100
AcDbEntity
  8
IMPORT_IGES
100
AcDbPolyline
 62
253
  6
CONTINUOUS
 90
10
 70
0
 10
-8.0518135189
 20
-7.991834216
 10
-8.0679371011
 20
-7.982075929
 10
-8.0819556526
 20
-7.9707762819
 10
-8.0938691733
 20
-7.9578974674
 10
-8.1035346529
 20
-7.9434209138
 10
-8.1110951017
 20
-7.9272935119
 10
-8.1169795505
 20
-7.9094278355
 10
-8.1213310096
 20
-7.8897801638
 10
-8.1240064687
 20
-7.8683555648
 10
-8.1250059279
 20
-7.845153987
  0
LWPOLYLINE
  5
305
100
AcDbEntity
  8
IMPORT_IGES
100
AcDbPolyline
 62
253
  6
CONTINUOUS
 90
13
 70
0
 10
-8.675
 20
-7.9419134721
 10
-8.6724334584
 20
-7.9731863277
 10
-8.6647777479
 20
-8.0039240961
 10
-8.6521638598
 20
-8.0336008456
 10
-8.6348076211
 20
-8.0617087986
 10
-8.6130060021
 20
-8.0877670204
 10
-8.5871320344
 20
-8.1113296476
 10
-8.5576284287
 20
-8.131993517
 10
-8.525
 20
-8.1494050641
 10
-8.4898050297
 20
-8.1632663726
 10
-8.4526457135
 20
-8.1733402716
 10
-8.4141578577
 20
-8.1794543939
 10
-8.375
 20
-8.1815041251
  0
LWPOLYLINE
  5
306
100
AcDbEntity
  8
IMPORT_IGES
100
AcDbPolyline
 62
253
  6
CONTINUOUS
 90
11
 70
0
 10
-8.675
 20
-9.7973364678
 10
-8.6724538689
 20
-9.8284852584
 10
-8.6648504936
 20
-9.859129862
 10
-8.6523070117
 20
-9.8887473451
 10
-8.6350242693
 20
-9.9168316087
 10
-8.6132865053
 20
-9.9428976027
 10
-8.5874592162
 20
-9.9664909406
 10
-8.5579769193
 20
-9.9872026285
 10
-8.5253379533
 20
-10.0046719979
 10
-8.4901018097
 20
-10.0185910431
 10
-8.4528718632
 20
-10.0287147972
  0
LWPOLYLINE
  5
307
100
AcDbEntity
  8
RACCORDO
100
AcDbPolyline
 62
253
  6
CONTINUOUS
 90
31
 70
0
 10
-8.929371834
 20
-23.8443375673
 10
-8.9297511885
 20
-23.8330270596
 10
-8.9308122363
 20
-23.8217474404
 10
-8.9325520796
 20
-23.8105295141
 10
-8.9349659648
 20
-23.7994039253
 10
-8.9380473009
 20
-23.7884010484
 10
-8.9417876826
 20
-23.7775509057
 10
-8.946176909
 20
-23.7668831095
 10
-8.9512029911
 20
-23.756426816
 10
-8.9568521875
 20
-23.7462106168
 10
-8.9631090593
 20
-23.7362624252
 10
-8.9699565249
 20
-23.7266093946
 10
-8.9773758889
 20
-23.7172778785
 10
-8.9853468926
 20
-23.7082933575
 10
-8.9938477641
 20
-23.699680372
 10
-9.0028552844
 20
-23.6914624468
 10
-9.0123448482
 20
-23.6836620286
 10
-9.0222905438
 20
-23.676300415
 10
-9.0326652233
 20
-23.6693977011
 10
-9.0434405758
 20
-23.6629727275
 10
-9.0545871553
 20
-23.6570430559
 10
-9.0660744696
 20
-23.6516249047
 10
-9.0778711116
 20
-23.6467330775
 10
-9.0899448924
 20
-23.6423809129
 10
-9.1022628811
 20
-23.6385802779
 10
-9.1147919133
 20
-23.6353414408
 10
-9.1274973112
 20
-23.6326734007
 10
-9.1403429626
 20
-23.6305836414
 10
-9.1532932772
 20
-23.6290777228
 10
-9.1663133412
 20
-23.6281594768
 10
-9.1793676032
 20
-23.6278312164
  0
LINE
  5
308
100
AcDbEntity
  8
RACCORDO
100
AcDbLine
 62
253
  6
CONTINUOUS
 10
-9.1800948319
 20
23.7
 11
-9.1742770021
 21
23.1226497308
  0
LINE
  5
309
100
AcDbEntity
  8
RACCORDO
100
AcDbLine
 62
7
  6
CONTINUOUS
 10
-10.325
 20
-20.3997711479
 11
-10.325
 21
-12.4223308767
  0
LINE
  5
30A
100
AcDbEntity
  8
DRAFT
100
AcDbLine
 62
7
  6
CONTINUOUS
 10
-10.325
 20
-12.4223308767
 11
-10.325
 21
8.8223308767
  0
LINE
  5
30B
100
AcDbEntity
  8
RACCORDO
100
AcDbLine
 62
7
  6
CONTINUOUS
 10
-10.325
 20
8.8223308767
 11
-10.325
 21
20.3997711479
  0
LINE
  5
30C
100
AcDbEntity
  8
RACCORDO
100
AcDbLine
 62
7
  6
CONTINUOUS
 10
-10.2621617663
 20
-20.2111031425
 11
-10.2621617663
 21
-19.8
  0
LINE
  5
30D
100
AcDbEntity
  8
RACCORDO
100
AcDbLine
 62
7
  6
CONTINUOUS
 10
-10.204560052
 20
-19.3
 11
-10.204560052
 21
-15.2792978419
  0
LINE
  5
30E
100
AcDbEntity
  8
RACCORDO
100
AcDbLine
 62
7
  6
CONTINUOUS
 10
-10.1696499221
 20
19.9333419123
 11
-10.1696499221
 21
8.9
  0
LINE
  5
30F
100
AcDbEntity
  8
DRAFT
100
AcDbLine
 62
7
  6
CONTINUOUS
 10
-10.1696499221
 20
7.9
 11
-10.1696499221
 21
0.5
  0
LINE
  5
310
100
AcDbEntity
  8
DRAFT
100
AcDbLine
 62
7
  6
CONTINUOUS
 10
-10.1696499221
 20
-0.5
 11
-10.1696499221
 21
-7.2
  0
LINE
  5
311
100
AcDbEntity
  8
DRAFT
100
AcDbLine
 62
7
  6
CONTINUOUS
 10
-10.1696499221
 20
-8.35
 11
-10.1696499221
 21
-11.5
  0
LINE
  5
312
100
AcDbEntity
  8
DRAFT
100
AcDbLine
 62
7
  6
CONTINUOUS
 10
-10.1696499221
 20
-12.5
 11
-10.1696499221
 21
-14.7
  0
LINE
  5
313
100
AcDbEntity
  8
RACCORDO
100
AcDbLine
 62
253
  6
CONTINUOUS
 10
-9.8872871968
 20
8.8118358927
 11
-9.8872871968
 21
7.9881641073
  0
LINE
  5
314
100
AcDbEntity
  8
RACCORDO
100
AcDbLine
 62
253
  6
CONTINUOUS
 10
-9.8872871968
 20
0.4118358927
 11
-9.8872871968
 21
-0.4118358927
  0
LINE
  5
315
100
AcDbEntity
  8
RACCORDO
100
AcDbLine
 62
253
  6
CONTINUOUS
 10
-9.8872871968
 20
-7.2881641073
 11
-9.8872871968
 21
-8.35
  0
LINE
  5
316
100
AcDbEntity
  8
RACCORDO
100
AcDbLine
 62
253
  6
CONTINUOUS
 10
-9.8872871968
 20
-11.5881641073
 11
-9.8872871968
 21
-12.4118358927
  0
LINE
  5
317
100
AcDbEntity
  8
RACCORDO
100
AcDbLine
 62
253
  6
CONTINUOUS
 10
-9.6053794106
 20
8.8101132618
 11
-9.6053794106
 21
7.9898867382
  0
LINE
  5
318
100
AcDbEntity
  8
RACCORDO
100
AcDbLine
 62
253
  6
CONTINUOUS
 10
-9.6053794106
 20
0.4101132618
 11
-9.6053794106
 21
-0.4101132618
  0
LINE
  5
319
100
AcDbEntity
  8
RACCORDO
100
AcDbLine
 62
253
  6
CONTINUOUS
 10
-9.6053794106
 20
-7.2898867382
 11
-9.6053794106
 21
-8.35
  0
LINE
  5
31A
100
AcDbEntity
  8
RACCORDO
100
AcDbLine
 62
253
  6
CONTINUOUS
 10
-9.6053794106
 20
-11.5898867382
 11
-9.6053794106
 21
-12.4101132618
  0
LINE
  5
31B
100
AcDbEntity
  8
RACCORDO
100
AcDbLine
 62
253
  6
CONTINUOUS
 10
-9.1793676032
 20
-23.6278312164
 11
-9.1793676032
 21
-24.495628166
  0
LINE
  5
31C
100
AcDbEntity
  8
RACCORDO
100
AcDbLine
 62
253
  6
CONTINUOUS
 10
-9.1793676032
 20
23.7
 11
-9.1793676032
 21
24.495628166
  0
LINE
  5
31D
100
AcDbEntity
  8
DRAFT
100
AcDbLine
 62
7
  6
CONTINUOUS
 10
-9.175
 20
7.9
 11
-9.175
 21
5.9
  0
LINE
  5
31E
100
AcDbEntity
  8
RACCORDO
100
AcDbLine
 62
7
  6
CONTINUOUS
 10
-9.0851132618
 20
7.9898867382
 11
-9.0851132618
 21
6.2872801014
  0
LINE
  5
31F
100
AcDbEntity
  8
DRAFT
100
AcDbLine
 62
7
  6
CONTINUOUS
 10
-9.025
 20
-8.35
 11
-9.025
 21
-9.6
  0
LINE
  5
320
100
AcDbEntity
  8
DRAFT
100
AcDbLine
 62
7
  6
CONTINUOUS
 10
-9.0075462644
 20
-9.5825462644
 11
-9.0075462644
 21
-8.35
  0
LINE
  5
321
100
AcDbEntity
  8
RACCORDO
100
AcDbLine
 62
253
  6
CONTINUOUS
 10
-8.929371834
 20
-24.2456323968
 11
-8.929371834
 21
-23.8443375673
  0
LINE
  5
322
100
AcDbEntity
  8
RACCORDO
100
AcDbLine
 62
253
  6
CONTINUOUS
 10
-8.929371834
 20
23.8443375673
 11
-8.929371834
 21
24.2456323968
  0
LINE
  5
323
100
AcDbEntity
  8
DRAFT
100
AcDbLine
 62
7
  6
CONTINUOUS
 10
-8.925
 20
-21.4
 11
-8.925
 21
-20.9
  0
LINE
  5
324
100
AcDbEntity
  8
RACCORDO
100
AcDbLine
 62
7
  6
CONTINUOUS
 10
-8.925
 20
-22.4
 11
-8.925
 21
-24.2500042308
  0
LINE
  5
325
100
AcDbEntity
  8
IMPORT_IGES
100
AcDbLine
 62
7
  6
CONTINUOUS
 10
-8.925
 20
-5.8
 11
-8.925
 21
5.5
  0
LINE
  5
326
100
AcDbEntity
  8
DRAFT
100
AcDbLine
 62
7
  6
CONTINUOUS
 10
-8.925
 20
20.9
 11
-8.925
 21
21.4
  0
LINE
  5
327
100
AcDbEntity
  8
RACCORDO
100
AcDbLine
 62
7
  6
CONTINUOUS
 10
-8.925
 20
22.4
 11
-8.925
 21
24.2500042308
  0
LINE
  5
328
100
AcDbEntity
  8
RACCORDO
100
AcDbLine
 62
253
  6
CONTINUOUS
 10
-9.1742770021
 20
-23.1226497308
 11
-9.1793676032
 21
-23.6278312164
  0
LWPOLYLINE
  5
329
100
AcDbEntity
  8
RACCORDO
100
AcDbPolyline
 62
253
  6
CONTINUOUS
 90
31
 70
0
 10
-11.320628166
 20
-23.8443375673
 10
-11.3202496104
 20
-23.833039595
 10
-11.3191904828
 20
-23.821769291
 10
-11.3174531063
 20
-23.8105574212
 10
-11.3150414049
 20
-23.7994336121
 10
-11.3119615346
 20
-23.78842936
 10
-11.3082224836
 20
-23.7775778202
 10
-11.3038349392
 20
-23.7669096972
 10
-11.2988105402
 20
-23.7564530239
 10
-11.2931628596
 20
-23.746236105
 10
-11.2869071671
 20
-23.7362866999
 10
-11.2800605925
 20
-23.7266321754
 10
-11.2726419842
 20
-23.7172991519
 10
-11.2646716801
 20
-23.7083132018
 10
-11.2561713853
 20
-23.6996987826
 10
-11.2471642949
 20
-23.6914794042
 10
-11.2376749912
 20
-23.6836775075
 10
-11.2277294041
 20
-23.6763144193
 10
-11.2173547212
 20
-23.6694102704
 10
-11.2065792888
 20
-23.6629839239
 10
-11.1954325308
 20
-23.6570529269
 10
-11.1839448938
 20
-23.6516334796
 10
-11.172147737
 20
-23.6467403776
 10
-11.1600733006
 20
-23.6423869945
 10
-11.147754621
 20
-23.6385852371
 10
-11.1352253856
 20
-23.6353454907
 10
-11.1225197828
 20
-23.6326765842
 10
-11.109672462
 20
-23.6305857918
 10
-11.0967184947
 20
-23.6290788219
 10
-11.083693281
 20
-23.6281597935
 10
-11.0706323968
 20
-23.6278312164
  0
LWPOLYLINE
  5
32A
100
AcDbEntity
  8
RACCORDO
100
AcDbPolyline
 62
7
  6
CONTINUOUS
 90
34
 70
0
 10
-8.929371834
 20
23.8443375673
 10
-8.9296695603
 20
23.8380959882
 10
-8.9304408118
 20
23.8318228771
 10
-8.9316911745
 20
23.8255364611
 10
-8.9334252218
 20
23.819262429
 10
-8.9356466645
 20
23.8130128907
 10
-8.9383586845
 20
23.8067864067
 10
-8.9415631814
 20
23.8006034693
 10
-8.9452611059
 20
23.7944838391
 10
-8.9494533569
 20
23.7884256826
 10
-8.9541388411
 20
23.7824505058
 10
-8.959315483
 20
23.7765790982
 10
-8.9649818538
 20
23.7708092763
 10
-8.9711336377
 20
23.7651632953
 10
-8.9777654201
 20
23.7596628022
 10
-8.9848732229
 20
23.7543054665
 10
-8.9924492184
 20
23.7491140142
 10
-9.0004843004
 20
23.7441107054
 10
-9.008971526
 20
23.7392932914
 10
-9.0178992355
 20
23.734684598
 10
-9.0272542142
 20
23.7303071891
 10
-9.0370258888
 20
23.7261591412
 10
-9.0471984
 20
23.7222628822
 10
-9.0577539871
 20
23.7186408394
 10
-9.0686775879
 20
23.7152916032
 10
-9.0799486454
 20
23.7122365701
 10
-9.0915445699
 20
23.7094973639
 10
-9.1034452677
 20
23.7070730824
 10
-9.1156120954
 20
23.7049862817
 10
-9.1280301503
 20
23.7032528228
 10
-9.1407141444
 20
23.7018667017
 10
-9.153648855
 20
23.7008436197
 10
-9.1667873565
 20
23.7002144299
 10
-9.1800948319
 20
23.7
  0
LINE
  5
32B
100
AcDbEntity
  8
DRAFT
100
AcDbLine
 62
7
  6
CONTINUOUS
 10
-7.9738376746
 20
20.9104703804
 11
-8.0267786853
 21
20.4335707644
  0
LINE
  5
32C
100
AcDbEntity
  8
DRAFT
100
AcDbLine
 62
7
  6
CONTINUOUS
 10
3.725
 20
22.4
 11
3.6809327327
 21
22.3338981669
  0
LINE
  5
32D
100
AcDbEntity
  8
RACCORDO
100
AcDbLine
 62
253
  6
CONTINUOUS
 10
9.7206323968
 20
24.495628166
 11
9.7250042308
 21
24.5
  0
LINE
  5
32E
100
AcDbEntity
  8
RACCORDO
100
AcDbLine
 62
253
  6
CONTINUOUS
 10
9.970628166
 20
24.2456323968
 11
9.975
 21
24.2500042308
  0
LWPOLYLINE
  5
32F
100
AcDbEntity
  8
IMPORT_IGES
100
AcDbPolyline
 62
253
  6
CONTINUOUS
 90
16
 70
0
 10
4.9976704992
 20
-7.914096953
 10
4.9887862661
 20
-7.9164859246
 10
4.9805111632
 20
-7.9175531301
 10
4.9728509247
 20
-7.9173367987
 10
4.9656236293
 20
-7.9158759828
 10
4.9590099117
 20
-7.9132086443
 10
4.9535234854
 20
-7.9093640073
 10
4.9493318644
 20
-7.9040207251
 10
4.9461762897
 20
-7.8975243035
 10
4.9439113303
 20
-7.8908660543
 10
4.9425747618
 20
-7.8845434684
 10
4.9420788166
 20
-7.8780060488
 10
4.9421081182
 20
-7.8706685503
 10
4.9425492757
 20
-7.8623318635
 10
4.9434882564
 20
-7.853170715
 10
4.9449124936
 20
-7.8431701764
  0
LINE
  5
330
100
AcDbEntity
  8
IMPORT_IGES
100
AcDbLine
 62
7
  6
CONTINUOUS
 10
4.4578024452
 20
-8.4384815
 11
4.4578577958
 21
-8.4384689756
  0
LINE
  5
331
100
AcDbEntity
  8
IMPORT_IGES
100
AcDbLine
 62
7
  6
CONTINUOUS
 10
4.457866206
 20
-8.4384915169
 11
4.4654853218
 21
-8.4368820184
  0
LWPOLYLINE
  5
332
100
AcDbEntity
  8
IMPORT_IGES
100
AcDbPolyline
 62
253
  6
CONTINUOUS
 90
8
 70
0
 10
4.4250025733
 20
-8.4119261728
 10
4.4359564221
 20
-8.4096123281
 10
4.4469493952
 20
-8.4075722639
 10
4.4579814925
 20
-8.4058059803
 10
4.4690525542
 20
-8.4043143876
 10
4.4801627401
 20
-8.4030965754
 10
4.4913125297
 20
-8.4021498128
 10
4.5025020828
 20
-8.4014731897
  0
LINE
  5
333
100
AcDbEntity
  8
IMPORT_IGES
100
AcDbLine
 62
7
  6
CONTINUOUS
 10
4.4654853218
 20
-8.4368820184
 11
4.4877757314
 21
-8.433351361
  0
LINE
  5
334
100
AcDbEntity
  8
IMPORT_IGES
100
AcDbLine
 62
253
  6
CONTINUOUS
 10
-5.6849472483
 20
-10.801060628
 11
-5.68756454
 21
-10.801236318
  0
LWPOLYLINE
  5
335
100
AcDbEntity
  8
IMPORT_IGES
100
AcDbPolyline
 62
253
  6
CONTINUOUS
 90
3
 70
0
 10
7.025
 20
-10.036927121
 10
7.0643738634
 20
-10.0348546146
 10
7.1030239732
 20
-10.0286821107
  0
LWPOLYLINE
  5
336
100
AcDbEntity
  8
IMPORT_IGES
100
AcDbPolyline
 62
253
  6
CONTINUOUS
 90
13
 70
0
 10
4.175
 20
-10.4182430924
 10
4.1945789288
 20
-10.4173356829
 10
4.2138228568
 20
-10.4146289805
 10
4.2324025149
 20
-10.4101692976
 10
4.25
 20
-10.4040329406
 10
4.2663142143
 20
-10.3963249042
 10
4.2810660172
 20
-10.3871770752
 10
4.294003001
 20
-10.3767459754
 10
4.3049038106
 20
-10.3652100838
 10
4.3135819299
 20
-10.3527667827
 10
4.3198888739
 20
-10.3396289805
 10
4.3237167292
 20
-10.3260214685
 10
4.325
 20
-10.3121770752
  0
LWPOLYLINE
  5
337
100
AcDbEntity
  8
IMPORT_IGES
100
AcDbPolyline
 62
253
  6
CONTINUOUS
 90
3
 70
0
 10
-5.68756454
 20
-10.801236318
 10
-5.6986586672
 20
-10.8016973866
 10
-5.7129591037
 20
-10.8020966456
  0
LWPOLYLINE
  5
338
100
AcDbEntity
  8
IMPORT_IGES
100
AcDbPolyline
 62
253
  6
CONTINUOUS
 90
8
 70
0
 10
4.4032477142
 20
-9.9509764597
 10
4.3835786438
 20
-9.9513839973
 10
4.3663293319
 20
-9.9518487049
 10
4.3517949192
 20
-9.9523626312
 10
4.3402240935
 20
-9.9529169827
 10
4.3318148347
 20
-9.9535022744
 10
4.3267110277
 20
-9.9541084918
 10
4.325
 20
-9.9547252623
  0
LWPOLYLINE
  5
339
100
AcDbEntity
  8
IMPORT_IGES
100
AcDbPolyline
 62
253
  6
CONTINUOUS
 90
8
 70
0
 10
-7.8467522858
 20
-9.9509764597
 10
-7.8664213562
 20
-9.9513839973
 10
-7.8836709785
 20
-9.9518487144
 10
-7.8982055907
 20
-9.952362652
 10
-7.9097759065
 20
-9.9529169827
 10
-7.9181843733
 20
-9.9535022046
 10
-7.9232879737
 20
-9.9541083126
 10
-7.9249999995
 20
-9.954724937
  0
LINE
  5
33A
100
AcDbEntity
  8
IMPORT_IGES
100
AcDbLine
 62
253
  6
CONTINUOUS
 10
4.4484633135
 20
-9.9503596892
 11
4.4032477142
 21
-9.9509764597
  0
LINE
  5
33B
100
AcDbEntity
  8
IMPORT_IGES
100
AcDbLine
 62
253
  6
CONTINUOUS
 10
-7.8015366865
 20
-9.9503596892
 11
-7.8467522858
 21
-9.9509764597
  0
LINE
  5
33C
100
AcDbEntity
  8
IMPORT_IGES
100
AcDbLine
 62
253
  6
CONTINUOUS
 10
4.4988947616
 20
-9.9500404253
 11
4.4484633135
 21
-9.9503596892
  0
LINE
  5
33D
100
AcDbEntity
  8
IMPORT_IGES
100
AcDbLine
 62
253
  6
CONTINUOUS
 10
-7.7511052384
 20
-9.9500404253
 11
-7.8015366865
 21
-9.9503596892
  0
LINE
  5
33E
100
AcDbEntity
  8
IMPORT_IGES
100
AcDbLine
 62
253
  6
CONTINUOUS
 10
-5.525
 20
-10.4182430923
 11
4.175
 21
-10.4182430922
  0
LINE
  5
33F
100
AcDbEntity
  8
IMPORT_IGES
100
AcDbLine
 62
253
  6
CONTINUOUS
 10
-7.7511052384
 20
-9.9500404253
 11
-5.875
 21
-9.95
  0
LINE
  5
340
100
AcDbEntity
  8
DRAFT
100
AcDbLine
 62
7
  6
CONTINUOUS
 10
-9.025
 20
-9.6
 11
-8.675
 21
-9.6
  0
LINE
  5
341
100
AcDbEntity
  8
DRAFT
100
AcDbLine
 62
7
  6
CONTINUOUS
 10
7.325
 20
-9.6
 11
7.675
 21
-9.6
  0
LINE
  5
342
100
AcDbEntity
  8
DRAFT
100
AcDbLine
 62
7
  6
CONTINUOUS
 10
7.6575462644
 20
-9.5825462644
 11
7.325
 21
-9.5825462644
  0
LINE
  5
343
100
AcDbEntity
  8
DRAFT
100
AcDbLine
 62
7
  6
CONTINUOUS
 10
-8.675
 20
-9.5825462644
 11
-9.0075462644
 21
-9.5825462644
  0
LINE
  5
344
100
AcDbEntity
  8
IMPORT_IGES
100
AcDbLine
 62
253
  6
CONTINUOUS
 10
6.4011071827
 20
-9.9500404313
 11
4.4988947616
 21
-9.9500404253
  0
LINE
  5
345
100
AcDbEntity
  8
IMPORT_IGES
100
AcDbLine
 62
253
  6
CONTINUOUS
 10
-5.8232332855
 20
-9.9501610278
 11
-5.8749864641
 21
-9.95
  0
LINE
  5
346
100
AcDbEntity
  8
IMPORT_IGES
100
AcDbLine
 62
253
  6
CONTINUOUS
 10
6.4515366865
 20
-9.9503596892
 11
6.4011071827
 21
-9.9500404313
  0
LWPOLYLINE
  5
347
100
AcDbEntity
  8
IMPORT_IGES
100
AcDbPolyline
 62
253
  6
CONTINUOUS
 90
10
 70
0
 10
4.3375645405
 20
-10.8012362906
 10
4.3349473055
 20
-10.8010606124
 10
4.3326290666
 20
-10.8007835409
 10
4.3306132457
 20
-10.8004047935
 10
4.3289027932
 20
-10.7999249437
 10
4.32750016
 20
-10.799342845
 10
4.3264073085
 20
-10.7986556314
 10
4.3256257361
 20
-10.797862153
 10
4.3251564596
 20
-10.7969629768
 10
4.325
 20
-10.7959578105
  0
LWPOLYLINE
  5
348
100
AcDbEntity
  8
IMPORT_IGES
100
AcDbPolyline
 62
253
  6
CONTINUOUS
 90
5
 70
0
 10
-5.8301740838
 20
-8.4030955783
 10
-5.8190627428
 20
-8.4043132783
 10
-5.8079896484
 20
-8.4058050079
 10
-5.7969548586
 20
-8.4075717362
 10
-5.7859583155
 20
-8.4096124941
  0
LWPOLYLINE
  5
349
100
AcDbEntity
  8
IMPORT_IGES
100
AcDbPolyline
 62
7
  6
CONTINUOUS
 90
4
 70
0
 10
-5.8383515722
 20
-8.433282371
 10
-5.8237515784
 20
-8.4353709921
 10
-5.80943633
 20
-8.4381430921
 10
-5.8078780196
 20
-8.4384895557
  0
LINE
  5
34A
100
AcDbEntity
  8
IMPORT_IGES
100
AcDbLine
 62
253
  6
CONTINUOUS
 10
-5.7859583155
 20
-8.4096124941
 11
-5.7750000191
 21
-8.4119272815
  0
LWPOLYLINE
  5
34B
100
AcDbEntity
  8
IMPORT_IGES
100
AcDbPolyline
 62
253
  6
CONTINUOUS
 90
16
 70
0
 10
-6.3476706311
 20
-7.9140978437
 10
-6.3393568564
 20
-7.9161744373
 10
-6.3312538966
 20
-7.9173123225
 10
-6.3235052688
 20
-7.9173839754
 10
-6.31623997
 20
-7.9162463673
 10
-6.309708389
 20
-7.9137741005
 10
-6.304202628
 20
-7.9099910686
 10
-6.2998118863
 20
-7.9050147436
 10
-6.2965212442
 20
-7.8990205062
 10
-6.2942681977
 20
-7.892337869
 10
-6.2929351663
 20
-7.8854151336
 10
-6.2922790582
 20
-7.878296754
 10
-6.2921148625
 20
-7.8705879548
 10
-6.2924131683
 20
-7.8621436529
 10
-6.2931693874
 20
-7.8531864567
 10
-6.2943598703
 20
-7.8437579577
  0
LWPOLYLINE
  5
34C
100
AcDbEntity
  8
IMPORT_IGES
100
AcDbPolyline
 62
7
  6
CONTINUOUS
 90
5
 70
0
 10
-5.8078989524
 20
-8.4384592159
 10
-5.804166471
 20
-8.4394533211
 10
-5.7952130082
 20
-8.4432965228
 10
-5.7867825983
 20
-8.4490224459
 10
-5.7785713057
 20
-8.4566993102
  0
LINE
  5
34D
100
AcDbEntity
  8
RACCORDO
100
AcDbLine
 62
253
  6
CONTINUOUS
 10
9.7206323968
 20
-24.495628166
 11
9.7250042308
 21
-24.5
  0
LINE
  5
34E
100
AcDbEntity
  8
RACCORDO
100
AcDbLine
 62
253
  6
CONTINUOUS
 10
9.970628166
 20
-24.2456323968
 11
9.975
 21
-24.2500042308
  0
LWPOLYLINE
  5
34F
100
AcDbEntity
  8
IMPORT_IGES
100
AcDbPolyline
 62
7
  6
CONTINUOUS
 90
3
 70
0
 10
-5.7785713057
 20
-8.4566993102
 10
-5.7705453919
 20
-8.4661954422
 10
-5.7626401827
 20
-8.4773628484
  0
LINE
  5
350
100
AcDbEntity
  8
DRAFT
100
AcDbLine
 62
7
  6
CONTINUOUS
 10
3.725
 20
-22.4
 11
3.6809327327
 21
-22.3338981669
  0
LWPOLYLINE
  5
351
100
AcDbEntity
  8
IMPORT_IGES
100
AcDbPolyline
 62
7
  6
CONTINUOUS
 90
3
 70
0
 10
-5.7626401827
 20
-8.4773628484
 10
-5.7547202584
 20
-8.490192734
 10
-5.7470208159
 20
-8.5041968274
  0
LWPOLYLINE
  5
352
100
AcDbEntity
  8
IMPORT_IGES
100
AcDbPolyline
 62
7
  6
CONTINUOUS
 90
21
 70
0
 10
-5.7470208159
 20
-8.5041968274
 10
-5.7398816943
 20
-8.5187046236
 10
-5.7333834825
 20
-8.5334507501
 10
-5.7274529959
 20
-8.5483234848
 10
-5.7220192364
 20
-8.5631906376
 10
-5.7169732787
 20
-8.5781242381
 10
-5.7121604514
 20
-8.5936462101
 10
-5.7075178923
 20
-8.6100516072
 10
-5.7030638489
 20
-8.6272658973
 10
-5.6988432848
 20
-8.6451260369
 10
-5.6948913184
 20
-8.6635465827
 10
-5.691283467
 20
-8.6822119953
 10
-5.6880617226
 20
-8.7008905962
 10
-5.685213838
 20
-8.7196258751
 10
-5.6827165469
 20
-8.7385393319
 10
-5.6805681189
 20
-8.7575935994
 10
-5.6787648905
 20
-8.7767394875
 10
-5.677297244
 20
-8.7961398937
 10
-5.6761740311
 20
-8.8158649694
 10
-5.6754117983
 20
-8.8358308446
 10
-5.6750176802
 20
-8.8560358303
  0
LINE
  5
353
100
AcDbEntity
  8
0
100
AcDbLine
 62
7
  6
CONTINUOUS
 10
-7.9959441873
 20
-20.7113319946
 11
-7.9738376746
 21
-20.9104703804
  0
LWPOLYLINE
  5
354
100
AcDbEntity
  8
IMPORT_IGES
100
AcDbPolyline
 62
253
  6
CONTINUOUS
 90
17
 70
0
 10
-7.9477889058
 20
4.8506078419
 10
-7.9444211194
 20
4.8173886943
 10
-7.9397882642
 20
4.7870894095
 10
-7.9339374947
 20
4.7594413998
 10
-7.927426044
 20
4.7336389016
 10
-7.9204984252
 20
4.7097124812
 10
-7.9128715264
 20
4.6876315722
 10
-7.9044216685
 20
4.6664987121
 10
-7.8952150311
 20
4.6460355145
 10
-7.885127965
 20
4.6265203658
 10
-7.873698034
 20
4.6078909616
 10
-7.8605796035
 20
4.5896074402
 10
-7.8460058874
 20
4.5722096634
 10
-7.8304037793
 20
4.5572549125
 10
-7.813977922
 20
4.5452622814
 10
-7.7966699246
 20
4.5357126763
 10
-7.7785898597
 20
4.5286060972
  0
LWPOLYLINE
  5
355
100
AcDbEntity
  8
IMPORT_IGES
100
AcDbPolyline
 62
253
  6
CONTINUOUS
 90
6
 70
0
 10
-7.975
 20
10.0995068475
 10
-7.9766242634
 20
10.1174938863
 10
-7.9814764681
 20
10.1352044846
 10
-7.9894862424
 20
10.1523492819
 10
-8.0004898982
 20
10.1685945611
 10
-8.014338217
 20
10.1837321153
  0
LINE
  5
356
100
AcDbEntity
  8
IMPORT_IGES
100
AcDbLine
 62
253
  6
CONTINUOUS
 10
-7.9502171756
 20
4.8864782646
 11
-7.9477889058
 21
4.8506078419
  0
LINE
  5
357
100
AcDbEntity
  8
IMPORT_IGES
100
AcDbLine
 62
253
  6
CONTINUOUS
 10
-7.9517949192
 20
4.9249999623
 11
-7.9502171756
 21
4.8864782646
  0
LINE
  5
358
100
AcDbEntity
  8
0
100
AcDbLine
 62
253
  6
CONTINUOUS
 10
-7.9168217019
 20
-20.0275513222
 11
-8.0151430257
 21
-17.1473642646
  0
LWPOLYLINE
  5
359
100
AcDbEntity
  8
IMPORT_IGES
100
AcDbPolyline
 62
253
  6
CONTINUOUS
 90
10
 70
0
 10
-7.725
 20
0.5465592503
 10
-7.7297038525
 20
0.7066248678
 10
-7.7353351647
 20
0.864393711
 10
-7.7418939368
 20
1.0196181857
 10
-7.7501999234
 20
1.1708481191
 10
-7.7594333699
 20
1.3190964491
 10
-7.7671350116
 20
1.4678884974
 10
-7.7724850936
 20
1.6183283182
 10
-7.7763033709
 20
1.7690484735
 10
-7.7785898434
 20
1.9199117522
  0
LWPOLYLINE
  5
35A
100
AcDbEntity
  8
RACCORDO
100
AcDbPolyline
 62
7
  6
CONTINUOUS
 90
61
 70
0
 10
-7.2331782981
 20
-20.0275513222
 10
-7.2336674893
 20
-20.0091628585
 10
-7.2350936909
 20
-19.9909323714
 10
-7.2374569028
 20
-19.972859861
 10
-7.2407705039
 20
-19.9548948957
 10
-7.2450211154
 20
-19.9370879072
 10
-7.2501686003
 20
-19.9195901896
 10
-7.2562211779
 20
-19.9024050225
 10
-7.2631706289
 20
-19.8855291263
 10
-7.2709521592
 20
-19.8691039577
 10
-7.2795705492
 20
-19.8531369236
 10
-7.2890210184
 20
-19.837620617
 10
-7.2992244315
 20
-19.822674273
 10
-7.3101914986
 20
-19.8082977976
 10
-7.3219115096
 20
-19.7944912848
 10
-7.3342731984
 20
-19.7813742528
 10
-7.3472727677
 20
-19.768960632
 10
-7.3609140147
 20
-19.757236492
 10
-7.3750970645
 20
-19.7462795591
 10
-7.3898362991
 20
-19.7360885994
 10
-7.4051173365
 20
-19.7266648468
 10
-7.4207971561
 20
-19.7180897298
 10
-7.4368660352
 20
-19.7103762769
 10
-7.4533336966
 20
-19.7035114596
 10
-7.4700862876
 20
-19.6975376198
 10
-7.4871361408
 20
-19.6924573364
 10
-7.5044709235
 20
-19.6882680305
 10
-7.5219397859
 20
-19.6850043083
 10
-7.5395371376
 20
-19.6826748955
 10
-7.5572685688
 20
-19.6812710663
 10
-7.575
 20
-19.6808012501
 10
-7.5927314312
 20
-19.6812710663
 10
-7.6104628624
 20
-19.6826748955
 10
-7.6280602141
 20
-19.6850043083
 10
-7.6455290765
 20
-19.6882680305
 10
-7.6628638592
 20
-19.6924573364
 10
-7.6799137124
 20
-19.6975376198
 10
-7.6966663034
 20
-19.7035114596
 10
-7.7131339648
 20
-19.7103762769
 10
-7.7292028439
 20
-19.7180897298
 10
-7.7448826635
 20
-19.7266648468
 10
-7.7601637009
 20
-19.7360885994
 10
-7.7749029355
 20
-19.7462795591
 10
-7.7890859853
 20
-19.757236492
 10
-7.8027272323
 20
-19.768960632
 10
-7.8157268016
 20
-19.7813742528
 10
-7.8280884904
 20
-19.7944912848
 10
-7.8398085014
 20
-19.8082977976
 10
-7.8507755685
 20
-19.822674273
 10
-7.8609789816
 20
-19.837620617
 10
-7.8704294508
 20
-19.8531369236
 10
-7.8790478408
 20
-19.8691039577
 10
-7.8868293711
 20
-19.8855291263
 10
-7.8937788221
 20
-19.9024050225
 10
-7.8998313997
 20
-19.9195901896
 10
-7.9049788846
 20
-19.9370879072
 10
-7.9092294961
 20
-19.9548948957
 10
-7.9125430972
 20
-19.972859861
 10
-7.9149063091
 20
-19.9909323714
 10
-7.9163325107
 20
-20.0091628585
 10
-7.9168217019
 20
-20.0275513222
  0
LWPOLYLINE
  5
35B
100
AcDbEntity
  8
RACCORDO
100
AcDbPolyline
 62
7
  6
CONTINUOUS
 90
61
 70
0
 10
-7.9168217019
 20
20.0275513222
 10
-7.9163325107
 20
20.0091628585
 10
-7.9149063091
 20
19.9909323714
 10
-7.9125430972
 20
19.972859861
 10
-7.9092294961
 20
19.9548948957
 10
-7.9049788846
 20
19.9370879072
 10
-7.8998313997
 20
19.9195901896
 10
-7.8937788221
 20
19.9024050225
 10
-7.8868293711
 20
19.8855291263
 10
-7.8790478408
 20
19.8691039577
 10
-7.8704294508
 20
19.8531369236
 10
-7.8609789816
 20
19.837620617
 10
-7.8507755685
 20
19.822674273
 10
-7.8398085014
 20
19.8082977976
 10
-7.8280884904
 20
19.7944912848
 10
-7.8157268016
 20
19.7813742528
 10
-7.8027272323
 20
19.768960632
 10
-7.7890859853
 20
19.757236492
 10
-7.7749029355
 20
19.7462795591
 10
-7.7601637009
 20
19.7360885994
 10
-7.7448826635
 20
19.7266648468
 10
-7.7292028439
 20
19.7180897298
 10
-7.7131339648
 20
19.7103762769
 10
-7.6966663034
 20
19.7035114596
 10
-7.6799137124
 20
19.6975376198
 10
-7.6628638592
 20
19.6924573364
 10
-7.6455290765
 20
19.6882680305
 10
-7.6280602141
 20
19.6850043083
 10
-7.6104628624
 20
19.6826748955
 10
-7.5927314312
 20
19.6812710663
 10
-7.575
 20
19.6808012501
 10
-7.5572685688
 20
19.6812710663
 10
-7.5395371376
 20
19.6826748955
 10
-7.5219397859
 20
19.6850043083
 10
-7.5044709235
 20
19.6882680305
 10
-7.4871361408
 20
19.6924573364
 10
-7.4700862876
 20
19.6975376198
 10
-7.4533336966
 20
19.7035114596
 10
-7.4368660352
 20
19.7103762769
 10
-7.4207971561
 20
19.7180897298
 10
-7.4051173365
 20
19.7266648468
 10
-7.3898362991
 20
19.7360885994
 10
-7.3750970645
 20
19.7462795591
 10
-7.3609140147
 20
19.757236492
 10
-7.3472727677
 20
19.768960632
 10
-7.3342731984
 20
19.7813742528
 10
-7.3219115096
 20
19.7944912848
 10
-7.3101914986
 20
19.8082977976
 10
-7.2992244315
 20
19.822674273
 10
-7.2890210184
 20
19.837620617
 10
-7.2795705492
 20
19.8531369236
 10
-7.2709521592
 20
19.8691039577
 10
-7.2631706289
 20
19.8855291263
 10
-7.2562211779
 20
19.9024050225
 10
-7.2501686003
 20
19.9195901896
 10
-7.2450211154
 20
19.9370879072
 10
-7.2407705039
 20
19.9548948957
 10
-7.2374569028
 20
19.972859861
 10
-7.2350936909
 20
19.9909323714
 10
-7.2336674893
 20
20.0091628585
 10
-7.2331782981
 20
20.0275513222
  0
LWPOLYLINE
  5
35C
100
AcDbEntity
  8
IMPORT_IGES
100
AcDbPolyline
 62
253
  6
CONTINUOUS
 90
4
 70
0
 10
-7.9336905572
 20
0.9925115947
 10
-7.9294458378
 20
0.8292169449
 10
-7.9262669622
 20
0.6622548085
 10
-7.925
 20
0.4916251854
  0
LINE
  5
35D
100
AcDbEntity
  8
RACCORDO
100
AcDbLine
 62
253
  6
CONTINUOUS
 10
-8.929371834
 20
23.8443375673
 11
-8.925
 21
23.4104851482
  0
LWPOLYLINE
  5
35E
100
AcDbEntity
  8
IMPORT_IGES
100
AcDbPolyline
 62
253
  6
CONTINUOUS
 90
6
 70
0
 10
-7.9517949192
 20
1.9199108712
 10
-7.951118567
 20
1.7676662093
 10
-7.9492473176
 20
1.6144927938
 10
-7.9463081691
 20
1.4603906246
 10
-7.9425567293
 20
1.3062726126
 10
-7.9336905572
 20
0.9925115947
  0
LINE
  5
35F
100
AcDbEntity
  8
RACCORDO
100
AcDbLine
 62
253
  6
CONTINUOUS
 10
-8.7590245667
 20
21.5659754333
 11
-8.7590245667
 21
20.9917082642
  0
LINE
  5
360
100
AcDbEntity
  8
RACCORDO
100
AcDbLine
 62
253
  6
CONTINUOUS
 10
-8.7590245667
 20
-20.9917082642
 11
-8.7590245667
 21
-21.5659754333
  0
LINE
  5
361
100
AcDbEntity
  8
IMPORT_IGES
100
AcDbLine
 62
7
  6
CONTINUOUS
 10
-8.675
 20
-9.7973364678
 11
-8.675
 21
9.8287960079
  0
LINE
  5
362
100
AcDbEntity
  8
IMPORT_IGES
100
AcDbLine
 62
253
  6
CONTINUOUS
 10
-8.375
 20
-10.036927121
 11
-8.375
 21
6.8855087113
  0
LINE
  5
363
100
AcDbEntity
  8
IMPORT_IGES
100
AcDbLine
 62
253
  6
CONTINUOUS
 10
-8.375
 20
7.736000955
 11
-8.375
 21
10.0409280425
  0
LINE
  5
364
100
AcDbEntity
  8
RACCORDO
100
AcDbLine
 62
253
  6
CONTINUOUS
 10
-8.2591007192
 20
21.3126932437
 11
-8.2591007192
 21
20.9959955457
  0
LINE
  5
365
100
AcDbEntity
  8
RACCORDO
100
AcDbLine
 62
253
  6
CONTINUOUS
 10
-8.2591007192
 20
-20.9959955457
 11
-8.2591007192
 21
-21.3126932437
  0
LINE
  5
366
100
AcDbEntity
  8
DRAFT
100
AcDbLine
 62
7
  6
CONTINUOUS
 10
-8.175
 20
-10.2592166832
 11
-8.175
 21
-11.5
  0
LINE
  5
367
100
AcDbEntity
  8
RACCORDO
100
AcDbLine
 62
7
  6
CONTINUOUS
 10
-8.175
 20
-13.4000190385
 11
-8.175
 21
-12.5
  0
LINE
  5
368
100
AcDbEntity
  8
IMPORT_IGES
100
AcDbLine
 62
253
  6
CONTINUOUS
 10
-8.1749993545
 20
10.240923557
 11
-8.175
 21
7.9382102885
  0
LINE
  5
369
100
AcDbEntity
  8
DRAFT
100
AcDbLine
 62
7
  6
CONTINUOUS
 10
-8.1575462644
 20
-10.2736504399
 11
-8.1575462644
 21
-11.5174537356
  0
LINE
  5
36A
100
AcDbEntity
  8
IMPORT_IGES
100
AcDbLine
 62
253
  6
CONTINUOUS
 10
-8.1250029639
 20
-7.845153992
 11
-8.125
 21
6.2454966127
  0
LINE
  5
36B
100
AcDbEntity
  8
RACCORDO
100
AcDbLine
 62
7
  6
CONTINUOUS
 10
-8.0851132618
 20
-13.3101323002
 11
-8.0851132618
 21
-12.4101132618
  0
LINE
  5
36C
100
AcDbEntity
  8
IMPORT_IGES
100
AcDbLine
 62
253
  6
CONTINUOUS
 10
-8.075
 20
-10.2101322016
 11
-8.075
 21
-8.6646770097
  0
LINE
  5
36D
100
AcDbEntity
  8
RACCORDO
100
AcDbLine
 62
7
  6
CONTINUOUS
 10
-8.0267786853
 20
20.4335707644
 11
-8.0267786853
 21
16.8065137252
  0
LINE
  5
36E
100
AcDbEntity
  8
0
100
AcDbLine
 62
7
  6
CONTINUOUS
 10
-8.0151430257
 20
-17.1473642646
 11
-8.0151430257
 21
-19.3
  0
LINE
  5
36F
100
AcDbEntity
  8
IMPORT_IGES
100
AcDbLine
 62
253
  6
CONTINUOUS
 10
-8.0023287824
 20
-7.9140969644
 11
-8.0023294422
 21
-8.0019918318
  0
LINE
  5
370
100
AcDbEntity
  8
RACCORDO
100
AcDbLine
 62
7
  6
CONTINUOUS
 10
-7.9959441873
 20
-20.7113319946
 11
-7.9959441873
 21
-19.8
  0
LINE
  5
371
100
AcDbEntity
  8
IMPORT_IGES
100
AcDbLine
 62
7
  6
CONTINUOUS
 10
-7.975
 20
8.073705597
 11
-7.975
 21
10.1702173642
  0
LINE
  5
372
100
AcDbEntity
  8
IMPORT_IGES
100
AcDbLine
 62
253
  6
CONTINUOUS
 10
-7.9517949192
 20
1.9199108702
 11
-7.9517949192
 21
4.9249999623
  0
LINE
  5
373
100
AcDbEntity
  8
IMPORT_IGES
100
AcDbLine
 62
7
  6
CONTINUOUS
 10
-7.925
 20
6.2454966128
 11
-7.925
 21
4.9250078266
  0
LINE
  5
374
100
AcDbEntity
  8
IMPORT_IGES
100
AcDbLine
 62
7
  6
CONTINUOUS
 10
-7.925
 20
-10.1437475756
 11
-7.925
 21
-8.5448816836
  0
LINE
  5
375
100
AcDbEntity
  8
IMPORT_IGES
100
AcDbLine
 62
7
  6
CONTINUOUS
 10
-7.925
 20
-4.890911167
 11
-7.925
 21
0.4916251854
  0
LINE
  5
376
100
AcDbEntity
  8
RACCORDO
100
AcDbLine
 62
7
  6
CONTINUOUS
 10
-7.9168217019
 20
-20.9959955457
 11
-7.9168217019
 21
-20.0275513222
  0
LINE
  5
377
100
AcDbEntity
  8
RACCORDO
100
AcDbLine
 62
7
  6
CONTINUOUS
 10
-7.9168217019
 20
20.0275513222
 11
-7.9168217019
 21
20.9959955457
  0
LINE
  5
378
100
AcDbEntity
  8
IMPORT_IGES
100
AcDbLine
 62
7
  6
CONTINUOUS
 10
-7.875
 20
4.8955
 11
-7.875
 21
6.2955
  0
LINE
  5
379
100
AcDbEntity
  8
IMPORT_IGES
100
AcDbLine
 62
253
  6
CONTINUOUS
 10
-7.825
 20
6.3454966127
 11
-7.825
 21
6.5454966127
  0
LINE
  5
37A
100
AcDbEntity
  8
IMPORT_IGES
100
AcDbLine
 62
253
  6
CONTINUOUS
 10
-7.7785898434
 20
1.9199121305
 11
-7.7785898516
 21
4.5286060972
  0
LINE
  5
37B
100
AcDbEntity
  8
IMPORT_IGES
100
AcDbLine
 62
253
  6
CONTINUOUS
 10
-7.775
 20
8.1651036426
 11
-7.775
 21
10.5723299421
  0
LINE
  5
37C
100
AcDbEntity
  8
IMPORT_IGES
100
AcDbLine
 62
253
  6
CONTINUOUS
 10
-7.725
 20
4.725
 11
-7.725
 21
4.525
  0
LINE
  5
37D
100
AcDbEntity
  8
IMPORT_IGES
100
AcDbLine
 62
253
  6
CONTINUOUS
 10
-7.725
 20
-4.890911167
 11
-7.725
 21
0.5465592503
  0
LINE
  5
37E
100
AcDbEntity
  8
IMPORT_IGES
100
AcDbLine
 62
253
  6
CONTINUOUS
 10
-7.7250094013
 20
-10.3493557436
 11
-7.7250013455
 21
-8.4009330926
  0
LINE
  5
37F
100
AcDbEntity
  8
IMPORT_IGES
100
AcDbLine
 62
253
  6
CONTINUOUS
 10
-7.5537960123
 20
10.7512500196
 11
-7.5537960123
 21
10.95
  0
LINE
  5
380
100
AcDbEntity
  8
RACCORDO
100
AcDbLine
 62
253
  6
CONTINUOUS
 10
-7.4872642439
 20
-13.8101132618
 11
-7.4872642439
 21
-13.4876443732
  0
LINE
  5
381
100
AcDbEntity
  8
IMPORT_IGES
100
AcDbLine
 62
253
  6
CONTINUOUS
 10
-7.3150078903
 20
7.9454966127
 11
-7.3150078901
 21
8.2454966127
  0
LINE
  5
382
100
AcDbEntity
  8
RACCORDO
100
AcDbLine
 62
7
  6
CONTINUOUS
 10
-7.2331782981
 20
-20.5829242832
 11
-7.2331782981
 21
-20.0275513222
  0
LINE
  5
383
100
AcDbEntity
  8
RACCORDO
100
AcDbLine
 62
7
  6
CONTINUOUS
 10
-7.2331782981
 20
20.0275513222
 11
-7.2331782981
 21
20.5829242832
  0
LINE
  5
384
100
AcDbEntity
  8
RACCORDO
100
AcDbLine
 62
253
  6
CONTINUOUS
 10
-7.1873099353
 20
-13.8126856306
 11
-7.1873099353
 21
-13.4876443732
  0
LINE
  5
385
100
AcDbEntity
  8
IMPORT_IGES
100
AcDbLine
 62
253
  6
CONTINUOUS
 10
-7.1750000002
 20
8.2454966127
 11
-7.175
 21
7.9454966127
  0
LINE
  5
386
100
AcDbEntity
  8
RACCORDO
100
AcDbLine
 62
7
  6
CONTINUOUS
 10
-7.175
 20
-13.4999543085
 11
-7.175
 21
-13.8188401295
  0
LINE
  5
387
100
AcDbEntity
  8
DRAFT
100
AcDbLine
 62
7
  6
CONTINUOUS
 10
-7.175
 20
-12.3
 11
-7.175
 21
-11.5836351166
  0
LINE
  5
388
100
AcDbEntity
  8
RACCORDO
100
AcDbLine
 62
7
  6
CONTINUOUS
 10
-7.175
 20
-11.5836351166
 11
-7.175
 21
-10.8365481864
  0
LINE
  5
389
100
AcDbEntity
  8
RACCORDO
100
AcDbLine
 62
7
  6
CONTINUOUS
 10
-7.1540558127
 20
-19.968583276
 11
-7.1540558127
 21
-19.8
  0
LINE
  5
38A
100
AcDbEntity
  8
0
100
AcDbLine
 62
7
  6
CONTINUOUS
 10
-7.1348569743
 20
-17.1473642646
 11
-7.1348569743
 21
-19.3
  0
LINE
  5
38B
100
AcDbEntity
  8
RACCORDO
100
AcDbLine
 62
7
  6
CONTINUOUS
 10
-7.1232213147
 20
19.9223308767
 11
-7.1232213147
 21
16.8065137252
  0
LWPOLYLINE
  5
38C
100
AcDbEntity
  8
IMPORT_IGES
100
AcDbPolyline
 62
253
  6
CONTINUOUS
 90
9
 70
0
 10
-7.925
 20
-4.890911167
 10
-7.925719981
 20
-5.1589711024
 10
-7.9276968621
 20
-5.4072037353
 10
-7.93066545
 20
-5.6356004052
 10
-7.9343477083
 20
-5.8426914385
 10
-7.9385310558
 20
-6.0299423653
 10
-7.9431271592
 20
-6.2017506012
 10
-7.9479776333
 20
-6.3575659537
 10
-7.9529629966
 20
-6.4979441551
  0
LINE
  5
38D
100
AcDbEntity
  8
RACCORDO
100
AcDbLine
 62
253
  6
CONTINUOUS
 10
-8.925
 20
-23.4104851482
 11
-8.929371834
 21
-23.8443375673
  0
LWPOLYLINE
  5
38E
100
AcDbEntity
  8
RACCORDO
100
AcDbPolyline
 62
7
  6
CONTINUOUS
 90
34
 70
0
 10
-8.925
 20
-24.2500042308
 10
-8.9252831502
 20
-24.261899516
 10
-8.9261319658
 20
-24.2737678556
 10
-8.9275445259
 20
-24.2855823661
 10
-8.9295176323
 20
-24.2973162875
 10
-8.9320468183
 20
-24.3089430388
 10
-8.9351263583
 20
-24.320436279
 10
-8.9387492787
 20
-24.3317699738
 10
-8.9429073742
 20
-24.3429184493
 10
-8.9475912278
 20
-24.3538564463
 10
-8.9527902312
 20
-24.3645591876
 10
-8.9584926084
 20
-24.3750024283
 10
-8.9646854419
 20
-24.3851625059
 10
-8.9713547045
 20
-24.3950164051
 10
-8.9784852893
 20
-24.4045418038
 10
-8.9860610411
 20
-24.4137171191
 10
-8.9940647995
 20
-24.4225215661
 10
-9.0024784339
 20
-24.4309352005
 10
-9.0112828809
 20
-24.4389389589
 10
-9.0204581962
 20
-24.4465147107
 10
-9.0299835949
 20
-24.4536452955
 10
-9.0398374941
 20
-24.4603145581
 10
-9.0499975717
 20
-24.4665073916
 10
-9.0604408124
 20
-24.4722097688
 10
-9.0711435537
 20
-24.4774087722
 10
-9.0820815507
 20
-24.4820926258
 10
-9.0932300262
 20
-24.4862507213
 10
-9.104563721
 20
-24.4898736417
 10
-9.1160569612
 20
-24.4929531817
 10
-9.1276837125
 20
-24.4954823677
 10
-9.1394176339
 20
-24.4974554741
 10
-9.1512321444
 20
-24.4988680342
 10
-9.163100484
 20
-24.4997168498
 10
-9.1749957692
 20
-24.5
  0
LWPOLYLINE
  5
38F
100
AcDbEntity
  8
0
100
AcDbPolyline
 62
7
  6
CONTINUOUS
 90
67
 70
0
 10
-8.0151430257
 20
-17.1473642646
 10
-8.0146302663
 20
-17.1259015607
 10
-8.0131165962
 20
-17.1045779493
 10
-8.0106020154
 20
-17.0833934305
 10
-8.0070737998
 20
-17.0622921631
 10
-8.0025446736
 20
-17.0413299883
 10
-7.9970528092
 20
-17.0206744296
 10
-7.9905950829
 20
-17.0003416951
 10
-7.9831746186
 20
-16.9803155769
 10
-7.97483896
 20
-16.9607149742
 10
-7.9655733056
 20
-16.9415277614
 10
-7.955392457
 20
-16.9227660642
 10
-7.9443883626
 20
-16.9045851585
 10
-7.9325688729
 20
-16.8870095678
 10
-7.9199261375
 20
-16.8700147687
 10
-7.9065285532
 20
-16.8536824674
 10
-7.8923533649
 20
-16.8379975206
 10
-7.8774233279
 20
-16.8229750716
 10
-7.8618751045
 20
-16.8087422555
 10
-7.8457278264
 20
-16.7953242537
 10
-7.828962362
 20
-16.7826958848
 10
-7.8116579799
 20
-16.7709087402
 10
-7.7937871059
 20
-16.7599523211
 10
-7.7753773142
 20
-16.7498371262
 10
-7.7565905959
 20
-16.7406462429
 10
-7.7374493227
 20
-16.7323974148
 10
-7.7179311229
 20
-16.7250728982
 10
-7.6981308725
 20
-16.7187025494
 10
-7.6780280445
 20
-16.713285299
 10
-7.657643166
 20
-16.7088222164
 10
-7.6371326944
 20
-16.7053463663
 10
-7.6165069754
 20
-16.7028666925
 10
-7.5957556633
 20
-16.7013742512
 10
-7.5750041786
 20
-16.7008752761
 10
-7.5542523632
 20
-16.7013739204
 10
-7.5335003752
 20
-16.702866031
 10
-7.5128741094
 20
-16.7053453822
 10
-7.4923634174
 20
-16.7088209234
 10
-7.4719784476
 20
-16.7132837052
 10
-7.4518755396
 20
-16.7187006542
 10
-7.4320752606
 20
-16.7250706503
 10
-7.4125570435
 20
-16.7323948136
 10
-7.3934155269
 20
-16.7406434299
 10
-7.3746280484
 20
-16.7498344259
 10
-7.3562172705
 20
-16.7599498749
 10
-7.3383458189
 20
-16.7709062827
 10
-7.3210417899
 20
-16.7826927619
 10
-7.3042770871
 20
-16.7953201999
 10
-7.2881300469
 20
-16.8087377646
 10
-7.2725808699
 20
-16.8229712622
 10
-7.2576493555
 20
-16.8379948865
 10
-7.2434732382
 20
-16.8536803863
 10
-7.230075974
 20
-16.8700117754
 10
-7.217434107
 20
-16.88700504
 10
-7.2056150042
 20
-16.9045798873
 10
-7.1946101787
 20
-16.922761853
 10
-7.1844281174
 20
-16.9415254015
 10
-7.1751616481
 20
-16.9607136338
 10
-7.1668260728
 20
-16.9803133499
 10
-7.1594060895
 20
-17.0003377497
 10
-7.1529486188
 20
-17.0206695343
 10
-7.147456465
 20
-17.0413257692
 10
-7.1429268238
 20
-17.0622893888
 10
-7.1393982033
 20
-17.0833918978
 10
-7.1368834396
 20
-17.1045771308
 10
-7.1353696966
 20
-17.125901253
 10
-7.1348569743
 20
-17.1473642646
  0
LWPOLYLINE
  5
390
100
AcDbEntity
  8
RACCORDO
100
AcDbPolyline
 62
7
  6
CONTINUOUS
 90
67
 70
0
 10
-7.1232213147
 20
16.8065137252
 10
-7.1237532469
 20
16.7844342482
 10
-7.1253119905
 20
16.7625115112
 10
-7.1278975454
 20
16.7407455142
 10
-7.1315221572
 20
16.7190853843
 10
-7.1361735803
 20
16.6975819945
 10
-7.1418150782
 20
16.6763879635
 10
-7.1484540198
 20
16.6555067062
 10
-7.1560830361
 20
16.6349348077
 10
-7.1646432833
 20
16.6148146424
 10
-7.1741397471
 20
16.5951521798
 10
-7.1845674419
 20
16.5759414502
 10
-7.1958525668
 20
16.5573069193
 10
-7.2080047666
 20
16.5392482489
 10
-7.2210143966
 20
16.5217657771
 10
-7.2347787222
 20
16.5049849836
 10
-7.2492949607
 20
16.4889190733
 10
-7.2645658948
 20
16.4735548414
 10
-7.2804971387
 20
16.4589781527
 10
-7.2971027323
 20
16.4451861472
 10
-7.3143686358
 20
16.4321816851
 10
-7.3321583431
 20
16.4200592119
 10
-7.3504618101
 20
16.4088328227
 10
-7.3692890809
 20
16.3984884224
 10
-7.3885337826
 20
16.3890781722
 10
-7.4082111741
 20
16.3806017527
 10
-7.4283059965
 20
16.3730594833
 10
-7.4486660996
 20
16.3665044834
 10
-7.46928126
 20
16.3609467581
 10
-7.4901617012
 20
16.3563763022
 10
-7.5111859437
 20
16.3528162195
 10
-7.5323614282
 20
16.3502706391
 10
-7.5536807141
 20
16.3487354319
 10
-7.575
 20
16.3482213147
 10
-7.5963192859
 20
16.3487354319
 10
-7.6176385718
 20
16.3502706391
 10
-7.6388140563
 20
16.3528162195
 10
-7.6598382988
 20
16.3563763022
 10
-7.68071874
 20
16.3609467581
 10
-7.7013339004
 20
16.3665044834
 10
-7.7216940035
 20
16.3730594833
 10
-7.7417888259
 20
16.3806017527
 10
-7.7614662174
 20
16.3890781722
 10
-7.7807109191
 20
16.3984884224
 10
-7.7995381899
 20
16.4088328227
 10
-7.8178416569
 20
16.4200592119
 10
-7.8356313642
 20
16.4321816851
 10
-7.8528972677
 20
16.4451861472
 10
-7.8695028613
 20
16.4589781527
 10
-7.8854341052
 20
16.4735548414
 10
-7.9007050393
 20
16.4889190733
 10
-7.9152212778
 20
16.5049849836
 10
-7.9289856034
 20
16.5217657771
 10
-7.9419952334
 20
16.5392482489
 10
-7.9541474332
 20
16.5573069193
 10
-7.9654325581
 20
16.5759414502
 10
-7.9758602529
 20
16.5951521798
 10
-7.9853567167
 20
16.6148146424
 10
-7.9939169639
 20
16.6349348077
 10
-8.0015459802
 20
16.6555067062
 10
-8.0081849218
 20
16.6763879635
 10
-8.0138264197
 20
16.6975819945
 10
-8.0184778428
 20
16.7190853843
 10
-8.0221024546
 20
16.7407455142
 10
-8.0246880095
 20
16.7625115112
 10
-8.0262467531
 20
16.7844342482
 10
-8.0267786853
 20
16.8065137252
  0
LWPOLYLINE
  5
391
100
AcDbEntity
  8
RACCORDO
100
AcDbPolyline
 62
253
  6
CONTINUOUS
 90
31
 70
0
 10
-8.929371834
 20
-24.2456323968
 10
-8.929715023
 20
-24.2587187509
 10
-8.930742766
 20
-24.2717692492
 10
-8.9324522491
 20
-24.2847481067
 10
-8.9348387919
 20
-24.2976197463
 10
-8.937895853
 20
-24.3103488602
 10
-8.9416150425
 20
-24.3229005077
 10
-8.9459861576
 20
-24.3352402638
 10
-8.9509972131
 20
-24.347334301
 10
-8.9566344613
 20
-24.3591494467
 10
-8.9628824405
 20
-24.3706533025
 10
-8.9697240163
 20
-24.3818143284
 10
-8.9771404232
 20
-24.3926019187
 10
-8.9851113313
 20
-24.402986508
 10
-8.9936148729
 20
-24.4129396114
 10
-9.002627692
 20
-24.4224339046
 10
-9.0121250264
 20
-24.4314433264
 10
-9.0220808636
 20
-24.4399432233
 10
-9.0324679894
 20
-24.4479103656
 10
-9.0432580686
 20
-24.4553229956
 10
-9.054421387
 20
-24.4621606774
 10
-9.0659269875
 20
-24.4684044791
 10
-9.0777430657
 20
-24.4740372277
 10
-9.0898374218
 20
-24.4790436576
 10
-9.1021772258
 20
-24.4834102087
 10
-9.1147314103
 20
-24.4871256484
 10
-9.1274628755
 20
-24.4901787618
 10
-9.1403285943
 20
-24.492559892
 10
-9.1532903689
 20
-24.4942634962
 10
-9.1663152632
 20
-24.4952867588
 10
-9.1793676032
 20
-24.495628166
  0
LINE
  5
392
100
AcDbEntity
  8
RACCORDO
100
AcDbLine
 62
253
  6
CONTINUOUS
 10
-7.9168217019
 20
20.0275513222
 11
-8.0267786853
 21
16.8065137252
  0
LWPOLYLINE
  5
393
100
AcDbEntity
  8
IMPORT_IGES
100
AcDbPolyline
 62
7
  6
CONTINUOUS
 90
14
 70
0
 10
-7.9249960814
 20
-8.5435299291
 10
-7.9249478032
 20
-8.5423844436
 10
-7.9242114476
 20
-8.536080744
 10
-7.9225166669
 20
-8.5291602343
 10
-7.9193873217
 20
-8.5210956171
 10
-7.9147931368
 20
-8.5125738907
 10
-7.908584187
 20
-8.5036536492
 10
-7.9003267029
 20
-8.4941350656
 10
-7.8900290098
 20
-8.4844462912
 10
-7.8777276422
 20
-8.4749145787
 10
-7.8633147609
 20
-8.4656943889
 10
-7.8466866539
 20
-8.4569784964
 10
-7.828027098
 20
-8.4491202072
 10
-7.8076037127
 20
-8.4424231203
  0
LWPOLYLINE
  5
394
100
AcDbEntity
  8
IMPORT_IGES
100
AcDbPolyline
 62
253
  6
CONTINUOUS
 90
10
 70
0
 10
-7.9529629966
 20
-6.4979441551
 10
-7.9629450655
 20
-6.7412313873
 10
-7.9677506961
 20
-6.8441504462
 10
-7.9748065082
 20
-6.9716725126
 10
-7.9863316643
 20
-7.1526957577
 10
-8.0012059273
 20
-7.3581701817
 10
-8.0162287264
 20
-7.535204559
 10
-8.0298027942
 20
-7.6662376004
 10
-8.0428231665
 20
-7.7689061958
 10
-8.0550991233
 20
-7.8432368485
  0
LWPOLYLINE
  5
395
100
AcDbEntity
  8
IMPORT_IGES
100
AcDbPolyline
 62
253
  6
CONTINUOUS
 90
13
 70
0
 10
-7.925
 20
-10.0903368751
 10
-7.9262832708
 20
-10.1059733006
 10
-7.9301111261
 20
-10.1213421831
 10
-7.9364180701
 20
-10.1361805566
 10
-7.9450961894
 20
-10.1502345328
 10
-7.955996999
 20
-10.1632636439
 10
-7.9689339828
 20
-10.1750449576
 10
-7.9836857856
 20
-10.1853768923
 10
-8.0
 20
-10.1940826659
 10
-8.0175974851
 20
-10.2010133201
 10
-8.0361771432
 20
-10.2060502696
 10
-8.0554210712
 20
-10.2091073308
 10
-8.075
 20
-10.2101321964
  0
LWPOLYLINE
  5
396
100
AcDbEntity
  8
ASSI
100
AcDbPolyline
 62
7
  6
CONTINUOUS
 90
17
 70
0
 10
-4.175
 20
23.7511422903
 10
-4.1753322899
 20
23.7484239112
 10
-4.1763412067
 20
23.7450420801
 10
-4.1780441065
 20
23.7409967968
 10
-4.1804584565
 20
23.7363008225
 10
-4.1835988805
 20
23.7309413961
 10
-4.187474165
 20
23.7248802347
 10
-4.192093142
 20
23.7181121007
 10
-4.1974652334
 20
23.7106422318
 10
-4.2035942983
 20
23.7024480575
 10
-4.2104689952
 20
23.6935501651
 10
-4.2181047436
 20
23.6839279673
 10
-4.2265547325
 20
23.6734971318
 10
-4.2358381101
 20
23.6622548999
 10
-4.2459578944
 20
23.6502040303
 10
-4.2569598219
 20
23.6372684665
 10
-4.2688557177
 20
23.6234472841
  0
LINE
  5
397
100
AcDbEntity
  8
IMPORT_IGES
100
AcDbLine
 62
253
  6
CONTINUOUS
 10
-7.7785898385
 20
4.5286060934
 11
-7.7517949192
 21
4.7268030467
  0
LWPOLYLINE
  5
398
100
AcDbEntity
  8
IMPORT_IGES
100
AcDbPolyline
 62
253
  6
CONTINUOUS
 90
13
 70
0
 10
-7.925
 20
-4.0864895394
 10
-7.9267110277
 20
-4.0972437458
 10
-7.9318148347
 20
-4.1078139448
 10
-7.9402240935
 20
-4.1180192772
 10
-7.9517949192
 20
-4.1276851272
 10
-7.9663293319
 20
-4.1366461091
 10
-7.9835786438
 20
-4.1447488983
 10
-8.0032477142
 20
-4.1518548537
 10
-8.025
 20
-4.1578423904
 10
-8.0484633135
 20
-4.1626090601
 10
-8.073236191
 20
-4.1660733037
 10
-8.0988947616
 20
-4.168175847
 10
-8.125
 20
-4.1688807149
  0
LWPOLYLINE
  5
399
100
AcDbEntity
  8
IMPORT_IGES
100
AcDbPolyline
 62
253
  6
CONTINUOUS
 90
13
 70
0
 10
-7.925
 20
-3.8702345609
 10
-7.9233218056
 20
-3.8604472783
 10
-7.9182930757
 20
-3.8507924329
 10
-7.9099656932
 20
-3.8414356101
 10
-7.8984367667
 20
-3.8325318175
 10
-7.8838799885
 20
-3.8242486089
 10
-7.8665714113
 20
-3.8167562845
 10
-7.8468066402
 20
-3.8101854773
 10
-7.8249245451
 20
-3.8046511897
 10
-7.8013709897
 20
-3.800261581
 10
-7.7765870393
 20
-3.797086302
 10
-7.7509830764
 20
-3.7951660764
 10
-7.725
 20
-3.7945244396
  0
LINE
  5
39A
100
AcDbEntity
  8
IMPORT_IGES
100
AcDbLine
 62
253
  6
CONTINUOUS
 10
-7.7592222902
 20
-8.4021386616
 11
-7.792781948
 21
-8.4058582627
  0
LINE
  5
39B
100
AcDbEntity
  8
IMPORT_IGES
100
AcDbLine
 62
7
  6
CONTINUOUS
 10
4.4877757314
 20
-8.433351361
 11
4.5096703591
 21
-8.4315047611
  0
LWPOLYLINE
  5
39C
100
AcDbEntity
  8
IMPORT_IGES
100
AcDbPolyline
 62
253
  6
CONTINUOUS
 90
10
 70
0
 10
4.9449137897
 20
-7.8431566822
 10
4.9374253006
 20
-7.8436953654
 10
4.9298384493
 20
-7.8441557753
 10
4.9221651773
 20
-7.8445374492
 10
4.9144173535
 20
-7.844840056
 10
4.90660738
 20
-7.8450631801
 10
4.8987481874
 20
-7.8452063332
 10
4.8908523707
 20
-7.8452692373
 10
4.8829321538
 20
-7.8452518153
 10
4.8750000056
 20
-7.8451539819
  0
LWPOLYLINE
  5
39D
100
AcDbEntity
  8
IMPORT_IGES
100
AcDbPolyline
 62
253
  6
CONTINUOUS
 90
10
 70
0
 10
4.425
 20
-8.1815041251
 10
4.4076351822
 20
-8.1827174319
 10
4.3907979857
 20
-8.1863204866
 10
4.375
 20
-8.1922038121
 10
4.360721239
 20
-8.2001886467
 10
4.3483955556
 20
-8.2100323751
 10
4.3383974596
 20
-8.2214359006
 10
4.3310307378
 20
-8.2340527329
 10
4.3265192246
 20
-8.247499516
 10
4.3249999998
 20
-8.2613676761
  0
LWPOLYLINE
  5
39E
100
AcDbEntity
  8
IMPORT_IGES
100
AcDbPolyline
 62
253
  6
CONTINUOUS
 90
10
 70
0
 10
-8.0550991233
 20
-7.8432368485
 10
-8.0625868369
 20
-7.843751785
 10
-8.0701728744
 20
-7.8441921489
 10
-8.0778452988
 20
-7.8445574778
 10
-8.0855922093
 20
-7.8448474276
 10
-8.0934012443
 20
-7.8450615965
 10
-8.1012595879
 20
-7.8451995337
 10
-8.1091546885
 20
-7.8452609723
 10
-8.1170742902
 20
-7.8452458207
 10
-8.1250059279
 20
-7.845153992
  0
LWPOLYLINE
  5
39F
100
AcDbEntity
  8
IMPORT_IGES
100
AcDbPolyline
 62
253
  6
CONTINUOUS
 90
13
 70
0
 10
-8.075
 20
-8.6646770097
 10
-8.0554210712
 20
-8.6636521443
 10
-8.0361771432
 20
-8.6605950833
 10
-8.0175974851
 20
-8.6555581339
 10
-8.0
 20
-8.6486274797
 10
-7.9836857856
 20
-8.6399217061
 10
-7.9689339828
 20
-8.6295897714
 10
-7.955996999
 20
-8.6178084578
 10
-7.9450961894
 20
-8.6047793469
 10
-7.9364180701
 20
-8.5907253704
 10
-7.9301111261
 20
-8.5758869957
 10
-7.9262832708
 20
-8.5605181115
 10
-7.925
 20
-8.5448816836
  0
LWPOLYLINE
  5
3A0
100
AcDbEntity
  8
IMPORT_IGES
100
AcDbPolyline
 62
253
  6
CONTINUOUS
 90
13
 70
0
 10
4.175
 20
-7.6747035017
 10
4.1945789288
 20
-7.6737960922
 10
4.2138228568
 20
-7.6710893897
 10
4.2324025149
 20
-7.6666297068
 10
4.25
 20
-7.6604933497
 10
4.2663142144
 20
-7.6527853134
 10
4.2810660172
 20
-7.6436374844
 10
4.294003001
 20
-7.6332063846
 10
4.3049038106
 20
-7.621670493
 10
4.3135819299
 20
-7.6092271919
 10
4.3198888739
 20
-7.5960893897
 10
4.3237167292
 20
-7.5824818777
 10
4.325
 20
-7.5686374844
  0
LINE
  5
3A1
100
AcDbEntity
  8
IMPORT_IGES
100
AcDbLine
 62
253
  6
CONTINUOUS
 10
4.5025020828
 20
-8.4014731897
 11
4.5137312396
 21
-8.4010676163
  0
LINE
  5
3A2
100
AcDbEntity
  8
IMPORT_IGES
100
AcDbLine
 62
253
  6
CONTINUOUS
 10
-7.7249999999
 20
-8.4009330926
 11
-7.7592222902
 21
-8.4021386616
  0
LINE
  5
3A3
100
AcDbEntity
  8
IMPORT_IGES
100
AcDbLine
 62
7
  6
CONTINUOUS
 10
4.5096703591
 20
-8.4315047611
 11
4.5249990073
 21
-8.4311362317
  0
LINE
  5
3A4
100
AcDbEntity
  8
RACCORDO
100
AcDbLine
 62
7
  6
CONTINUOUS
 10
8.975
 20
-7.2776691233
 11
8.5372871968
 21
-7.2881641073
  0
LINE
  5
3A5
100
AcDbEntity
  8
IMPORT_IGES
100
AcDbLine
 62
253
  6
CONTINUOUS
 10
4.5137312396
 20
-8.4010676163
 11
4.5250000001
 21
-8.4009330926
  0
LWPOLYLINE
  5
3A6
100
AcDbEntity
  8
IMPORT_IGES
100
AcDbPolyline
 62
253
  6
CONTINUOUS
 90
10
 70
0
 10
4.425
 20
-7.8451539819
 10
4.4076351822
 20
-7.8453453058
 10
4.3907979857
 20
-7.8459134642
 10
4.375
 20
-7.8468411939
 10
4.360721239
 20
-7.8481003064
 10
4.3483955557
 20
-7.8496525441
 10
4.3383974596
 20
-7.851450743
 10
4.3310307379
 20
-7.8534402659
 10
4.3265192247
 20
-7.855560662
 10
4.325
 20
-7.8577475042
  0
LWPOLYLINE
  5
3A7
100
AcDbEntity
  8
IMPORT_IGES
100
AcDbPolyline
 62
253
  6
CONTINUOUS
 90
10
 70
0
 10
-6.2249998924
 20
-7.845147364
 10
-6.2327571188
 20
-7.8451866618
 10
-6.2405356209
 20
-7.8451781057
 10
-6.2483233674
 20
-7.8451212969
 10
-6.2561150454
 20
-7.8450158669
 10
-6.2638910256
 20
-7.8448614979
 10
-6.271617869
 20
-7.8446582707
 10
-6.2792763845
 20
-7.8444064782
 10
-6.2868611603
 20
-7.844106279
 10
-6.2943598745
 20
-7.8437579591
  0
LINE
  5
3A8
100
AcDbEntity
  8
IMPORT_IGES
100
AcDbLine
 62
7
  6
CONTINUOUS
 10
-5.875
 20
-8.4311377661
 11
-7.7250013455
 21
-8.4311377661
  0
LINE
  5
3A9
100
AcDbEntity
  8
IMPORT_IGES
100
AcDbLine
 62
253
  6
CONTINUOUS
 10
-7.7249999999
 20
-8.4009330926
 11
-5.8750000002
 21
-8.4009330926
  0
LINE
  5
3AA
100
AcDbEntity
  8
IMPORT_IGES
100
AcDbLine
 62
253
  6
CONTINUOUS
 10
6.3749999998
 20
-8.4009330926
 11
4.5250000001
 21
-8.4009330926
  0
LINE
  5
3AB
100
AcDbEntity
  8
RACCORDO
100
AcDbLine
 62
7
  6
CONTINUOUS
 10
7.325
 20
-8.35
 11
8.975
 21
-8.35
  0
LINE
  5
3AC
100
AcDbEntity
  8
RACCORDO
100
AcDbLine
 62
7
  6
CONTINUOUS
 10
-8.675
 20
-8.35
 11
-10.325
 21
-8.35
  0
LINE
  5
3AD
100
AcDbEntity
  8
IMPORT_IGES
100
AcDbLine
 62
253
  6
CONTINUOUS
 10
7.025
 20
-8.1815041252
 11
4.4250012866
 21
-8.1815041251
  0
LINE
  5
3AE
100
AcDbEntity
  8
IMPORT_IGES
100
AcDbLine
 62
253
  6
CONTINUOUS
 10
-5.775
 20
-8.1815041254
 11
-8.375
 21
-8.1815041256
  0
LINE
  5
3AF
100
AcDbEntity
  8
IMPORT_IGES
100
AcDbLine
 62
253
  6
CONTINUOUS
 10
6.6523383266
 20
-8.002037147
 11
4.997670559
 21
-8.002037147
  0
LINE
  5
3B0
100
AcDbEntity
  8
IMPORT_IGES
100
AcDbLine
 62
253
  6
CONTINUOUS
 10
-6.3476707733
 20
-8.0019918318
 11
-8.0023294422
 21
-8.0019918318
  0
LINE
  5
3B1
100
AcDbEntity
  8
IMPORT_IGES
100
AcDbLine
 62
253
  6
CONTINUOUS
 10
-6.3476701529
 20
-7.9140979868
 11
-8.0023295009
 21
-7.9140974699
  0
LINE
  5
3B2
100
AcDbEntity
  8
IMPORT_IGES
100
AcDbLine
 62
253
  6
CONTINUOUS
 10
6.6523294862
 20
-7.9140967614
 11
4.9976704992
 21
-7.9140968572
  0
LINE
  5
3B3
100
AcDbEntity
  8
IMPORT_IGES
100
AcDbLine
 62
253
  6
CONTINUOUS
 10
-5.775
 20
-7.8451539819
 11
-6.2249998924
 21
-7.8451506729
  0
LINE
  5
3B4
100
AcDbEntity
  8
IMPORT_IGES
100
AcDbLine
 62
253
  6
CONTINUOUS
 10
-8.1250029639
 20
-7.845153992
 11
-8.375
 21
-7.845153982
  0
LINE
  5
3B5
100
AcDbEntity
  8
IMPORT_IGES
100
AcDbLine
 62
253
  6
CONTINUOUS
 10
4.8750000028
 20
-7.8451539819
 11
4.425
 21
-7.8451539819
  0
LINE
  5
3B6
100
AcDbEntity
  8
IMPORT_IGES
100
AcDbLine
 62
253
  6
CONTINUOUS
 10
-5.525
 20
-7.6747035019
 11
4.175
 21
-7.6747035018
  0
LINE
  5
3B7
100
AcDbEntity
  8
RACCORDO
100
AcDbLine
 62
7
  6
CONTINUOUS
 10
8.2553794106
 20
-7.2898867382
 11
7.325
 21
-7.2898867382
  0
LINE
  5
3B8
100
AcDbEntity
  8
RACCORDO
100
AcDbLine
 62
7
  6
CONTINUOUS
 10
-8.675
 20
-7.2898867382
 11
-9.6053794106
 21
-7.2898867382
  0
LINE
  5
3B9
100
AcDbEntity
  8
DRAFT
100
AcDbLine
 62
7
  6
CONTINUOUS
 10
-10.1696499221
 20
-7.2
 11
-8.675
 21
-7.2
  0
LINE
  5
3BA
100
AcDbEntity
  8
DRAFT
100
AcDbLine
 62
7
  6
CONTINUOUS
 10
8.8196499221
 20
-7.2
 11
7.325
 21
-7.2
  0
LWPOLYLINE
  5
3BB
100
AcDbEntity
  8
IMPORT_IGES
100
AcDbPolyline
 62
253
  6
CONTINUOUS
 90
10
 70
0
 10
7.025
 20
-7.8451539815
 10
6.7670757231
 20
-7.8451407164
 10
6.7591604869
 20
-7.8450838336
 10
6.7512701394
 20
-7.8449834264
 10
6.7434170809
 20
-7.8448396348
 10
6.7356136574
 20
-7.844652691
 10
6.7278721408
 20
-7.8444229196
 10
6.7202047017
 20
-7.8441506756
 10
6.71262339
 20
-7.8438363437
 10
6.7051401223
 20
-7.8434803835
  0
LWPOLYLINE
  5
3BC
100
AcDbEntity
  8
IMPORT_IGES
100
AcDbPolyline
 62
7
  6
CONTINUOUS
 90
4
 70
0
 10
4.5249986545
 20
-8.4311377661
 10
6.3774588506
 20
-8.4311487931
 10
6.401431087
 20
-8.4322539638
 10
6.424888422
 20
-8.4351485277
  0
LWPOLYLINE
  5
3BD
100
AcDbEntity
  8
IMPORT_IGES
100
AcDbPolyline
 62
253
  6
CONTINUOUS
 90
10
 70
0
 10
-8.0023294422
 20
-8.0019464329
 10
-8.0034275781
 20
-8.0019372747
 10
-8.0045247526
 20
-8.0019200344
 10
-8.0056209658
 20
-8.0018947116
 10
-8.0067262306
 20
-8.0018627801
 10
-8.0078305342
 20
-8.0018227647
 10
-8.0089038373
 20
-8.0017702398
 10
-8.0099361271
 20
-8.0017037285
 10
-8.0109374166
 20
-8.0016247027
 10
-8.0119077057
 20
-8.0015331592
  0
LWPOLYLINE
  5
3BE
100
AcDbEntity
  8
IMPORT_IGES
100
AcDbPolyline
 62
253
  6
CONTINUOUS
 90
13
 70
0
 10
-8.375
 20
-7.845153982
 10
-8.4141578577
 20
-7.844830764
 10
-8.4526457135
 20
-7.8438666403
 10
-8.4898050297
 20
-7.8422781074
 10
-8.525
 20
-7.8400923456
 10
-8.5576284287
 20
-7.8373467539
 10
-8.5871320344
 20
-7.83408831
 10
-8.6130060021
 20
-7.8303727668
 10
-8.6348076211
 20
-7.8262636983
 10
-8.6521638598
 20
-7.8218314119
 10
-8.6647777479
 20
-7.8171517451
 10
-8.6724334584
 20
-7.8123047684
 10
-8.675
 20
-7.8073734148
  0
LWPOLYLINE
  5
3BF
100
AcDbEntity
  8
IMPORT_IGES
100
AcDbPolyline
 62
7
  6
CONTINUOUS
 90
4
 70
0
 10
-5.8749998793
 20
-8.4311346655
 10
-5.8686356088
 20
-8.431196319
 10
-5.8535166968
 20
-8.4318668757
 10
-5.8383515722
 20
-8.433282371
  0
LWPOLYLINE
  5
3C0
100
AcDbEntity
  8
IMPORT_IGES
100
AcDbPolyline
 62
253
  6
CONTINUOUS
 90
10
 70
0
 10
-5.775
 20
-7.8451539819
 10
-5.7576351822
 20
-7.8453453058
 10
-5.7407979857
 20
-7.8459134642
 10
-5.725
 20
-7.8468411939
 10
-5.710721239
 20
-7.8481003064
 10
-5.6983955557
 20
-7.8496525441
 10
-5.6883974596
 20
-7.851450743
 10
-5.6810307379
 20
-7.8534402659
 10
-5.6765192247
 20
-7.855560662
 10
-5.675
 20
-7.8577475042
  0
LWPOLYLINE
  5
3C1
100
AcDbEntity
  8
IMPORT_IGES
100
AcDbPolyline
 62
253
  6
CONTINUOUS
 90
5
 70
0
 10
-5.8750000002
 20
-8.4009330926
 10
-5.8637364267
 20
-8.401067273
 10
-5.8525109258
 20
-8.4014725756
 10
-5.8413234975
 20
-8.4021490004
 10
-5.8301740838
 20
-8.4030955783
  0
LINE
  5
3C2
100
AcDbEntity
  8
RACCORDO
100
AcDbLine
 62
7
  6
CONTINUOUS
 10
-9.8872871968
 20
-7.2881641073
 11
-10.325
 21
-7.2776691233
  0
LINE
  5
3C3
100
AcDbEntity
  8
IMPORT_IGES
100
AcDbLine
 62
253
  6
CONTINUOUS
 10
6.3749999998
 20
-8.4009330926
 11
6.4103209449
 21
-8.4023300712
  0
LWPOLYLINE
  5
3C4
100
AcDbEntity
  8
IMPORT_IGES
100
AcDbPolyline
 62
253
  6
CONTINUOUS
 90
10
 70
0
 10
-5.775
 20
-8.1815041251
 10
-5.7576351822
 20
-8.1827174319
 10
-5.7407979857
 20
-8.1863204866
 10
-5.725
 20
-8.1922038121
 10
-5.710721239
 20
-8.2001886467
 10
-5.6983955557
 20
-8.2100323751
 10
-5.6883974596
 20
-8.2214359006
 10
-5.6810307379
 20
-8.234052733
 10
-5.6765192247
 20
-8.247499516
 10
-5.675
 20
-8.2613676761
  0
LWPOLYLINE
  5
3C5
100
AcDbEntity
  8
IMPORT_IGES
100
AcDbPolyline
 62
253
  6
CONTINUOUS
 90
13
 70
0
 10
4.997670559
 20
-8.0020371707
 10
4.9783750516
 20
-8.0001191643
 10
4.9608021519
 20
-7.9962113833
 10
4.9449518599
 20
-7.9902895345
 10
4.9309429412
 20
-7.982363907
 10
4.9186566303
 20
-7.9723454695
 10
4.9077366303
 20
-7.9600440088
 10
4.8978862703
 20
-7.9449925199
 10
4.8894022212
 20
-7.9275286153
 10
4.8828181986
 20
-7.9087038001
 10
4.8783121077
 20
-7.8888812018
 10
4.8757060434
 20
-7.8676946938
 10
4.8750000056
 20
-7.8451539819
  0
LWPOLYLINE
  5
3C6
100
AcDbEntity
  8
IMPORT_IGES
100
AcDbPolyline
 62
253
  6
CONTINUOUS
 90
10
 70
0
 10
-8.0119077057
 20
-8.0015331592
 10
-8.0169082872
 20
-8.0010350781
 10
-8.0217505689
 20
-8.0003971153
 10
-8.0264345507
 20
-7.9996189834
 10
-8.0309380335
 20
-7.9987058074
 10
-8.0352832165
 20
-7.9976517183
 10
-8.0395366968
 20
-7.996439794
 10
-8.0437206735
 20
-7.9950639492
 10
-8.0478129475
 20
-7.9935289999
 10
-8.0518135189
 20
-7.991834216
  0
LINE
  5
3C7
100
AcDbEntity
  8
IMPORT_IGES
100
AcDbLine
 62
253
  6
CONTINUOUS
 10
6.4103209449
 20
-8.4023300712
 11
6.4446642793
 21
-8.4062281093
  0
LWPOLYLINE
  5
3C8
100
AcDbEntity
  8
IMPORT_IGES
100
AcDbPolyline
 62
253
  6
CONTINUOUS
 90
5
 70
0
 10
6.4446642793
 20
-8.4062281093
 10
6.478030003
 20
-8.4126272071
 10
6.5107034454
 20
-8.421603349
 10
6.5423992772
 20
-8.4330805504
 10
6.5722615102
 20
-8.4468308582
  0
LWPOLYLINE
  5
3C9
100
AcDbEntity
  8
IMPORT_IGES
100
AcDbPolyline
 62
253
  6
CONTINUOUS
 90
9
 70
0
 10
6.575
 20
-9.9547252623
 10
6.5732889723
 20
-9.9541084918
 10
6.5681851653
 20
-9.9535022744
 10
6.5597759065
 20
-9.9529169827
 10
6.5482050808
 20
-9.9523626312
 10
6.5336706681
 20
-9.9518487049
 10
6.5164213562
 20
-9.9513839973
 10
6.4967521821
 20
-9.9509764578
 10
6.4515366865
 20
-9.9503596892
  0
LWPOLYLINE
  5
3CA
100
AcDbEntity
  8
IMPORT_IGES
100
AcDbPolyline
 62
253
  6
CONTINUOUS
 90
10
 70
0
 10
-5.675
 20
-4.7514284601
 10
-5.6765192247
 20
-4.7492416179
 10
-5.6810307379
 20
-4.7471212218
 10
-5.6883974596
 20
-4.7451316989
 10
-5.6983955557
 20
-4.7433335
 10
-5.710721239
 20
-4.7417812623
 10
-5.725
 20
-4.7405221498
 10
-5.7407979857
 20
-4.7395944201
 10
-5.7576351822
 20
-4.7390262617
 10
-5.775
 20
-4.7388349378
  0
LWPOLYLINE
  5
3CB
100
AcDbEntity
  8
IMPORT_IGES
100
AcDbPolyline
 62
253
  6
CONTINUOUS
 90
13
 70
0
 10
-6.425
 20
-4.7136478931
 10
-6.4232889723
 20
-4.7169354621
 10
-6.4181851653
 20
-4.7201667799
 10
-6.4097759065
 20
-4.7232865578
 10
-6.3982050808
 20
-4.7262414154
 10
-6.3836706681
 20
-4.7289807944
 10
-6.3664213562
 20
-4.7314578232
 10
-6.3467522858
 20
-4.7336301191
 10
-6.325
 20
-4.7354605136
 10
-6.3015366865
 20
-4.7369176881
 10
-6.276763809
 20
-4.73797671
 10
-6.2511052384
 20
-4.7386194591
 10
-6.225
 20
-4.7388349378
  0
LWPOLYLINE
  5
3CC
100
AcDbEntity
  8
IMPORT_IGES
100
AcDbPolyline
 62
253
  6
CONTINUOUS
 90
22
 70
0
 10
-6.3476701529
 20
-7.9140979868
 10
-6.3732406878
 20
-7.8446515077
 10
-6.3987744353
 20
-7.7549347731
 10
-6.4242713954
 20
-7.6449477833
 10
-6.4510005288
 20
-7.5048238125
 10
-6.4776928748
 20
-7.3444295865
 10
-6.500541552
 20
-7.1933652816
 10
-6.5173097913
 20
-7.0659326615
 10
-6.5302343617
 20
-6.9478299626
 10
-6.5422186898
 20
-6.8257520709
 10
-6.5542854914
 20
-6.6937698638
 10
-6.5654120507
 20
-6.5578124641
 10
-6.5754336462
 20
-6.4223621262
 10
-6.584141565
 20
-6.2916948072
 10
-6.5917445199
 20
-6.1615345502
 10
-6.5987039282
 20
-6.0235357392
 10
-6.6052798447
 20
-5.8794843113
 10
-6.6112122145
 20
-5.7275943293
 10
-6.6161822898
 20
-5.5541623666
 10
-6.6200838212
 20
-5.3546206142
 10
-6.623023058
 20
-5.133536881
 10
-6.6250000003
 20
-4.890911167
  0
LWPOLYLINE
  5
3CD
100
AcDbEntity
  8
IMPORT_IGES
100
AcDbPolyline
 62
7
  6
CONTINUOUS
 90
9
 70
0
 10
-5.7106195388
 20
-8.5340482051
 10
-5.7146411577
 20
-8.5196553508
 10
-5.7198750577
 20
-8.5035029054
 10
-5.7270733889
 20
-8.4836692109
 10
-5.7357720627
 20
-8.4625623698
 10
-5.7450882454
 20
-8.44438397
 10
-5.754629351
 20
-8.4304970191
 10
-5.7646300359
 20
-8.419652933
 10
-5.775
 20
-8.4119272815
  0
LWPOLYLINE
  5
3CE
100
AcDbEntity
  8
IMPORT_IGES
100
AcDbPolyline
 62
253
  6
CONTINUOUS
 90
22
 70
0
 10
-6.2943598745
 20
-7.8437579591
 10
-6.306011822
 20
-7.7725541658
 10
-6.3179146652
 20
-7.682358811
 10
-6.3299607025
 20
-7.5731606008
 10
-6.342600353
 20
-7.4364505509
 10
-6.3550495346
 20
-7.2807069631
 10
-6.36562925
 20
-7.1314503081
 10
-6.3737359122
 20
-7.0003869947
 10
-6.3803993031
 20
-6.8758866121
 10
-6.3865521755
 20
-6.7484876318
 10
-6.3924735539
 20
-6.6135310555
 10
-6.3978539272
 20
-6.4756814856
 10
-6.4026148932
 20
-6.3394474945
 10
-6.406678118
 20
-6.2089769515
 10
-6.4102164753
 20
-6.0801344255
 10
-6.4134777232
 20
-5.9450003062
 10
-6.4164126344
 20
-5.8044643755
 10
-6.4189898104
 20
-5.6576385992
 10
-6.4213035835
 20
-5.4939295371
 10
-6.4232267203
 20
-5.3098047438
 10
-6.4245230247
 20
-5.108797191
 10
-6.425
 20
-4.8909111672
  0
LWPOLYLINE
  5
3CF
100
AcDbEntity
  8
IMPORT_IGES
100
AcDbPolyline
 62
253
  6
CONTINUOUS
 90
13
 70
0
 10
-5.675
 20
-7.5686374844
 10
-5.6737167292
 20
-7.5824818777
 10
-5.6698888739
 20
-7.5960893897
 10
-5.6635819299
 20
-7.6092271919
 10
-5.6549038106
 20
-7.621670493
 10
-5.644003001
 20
-7.6332063846
 10
-5.6310660172
 20
-7.6436374844
 10
-5.6163142144
 20
-7.6527853134
 10
-5.6
 20
-7.6604933498
 10
-5.5824025149
 20
-7.6666297068
 10
-5.5638228568
 20
-7.6710893897
 10
-5.5445789288
 20
-7.6737960921
 10
-5.525
 20
-7.6747035016
  0
LINE
  5
3D0
100
AcDbEntity
  8
IMPORT_IGES
100
AcDbLine
 62
253
  6
CONTINUOUS
 10
-5.6737167292
 20
-10.8064789672
 11
-5.675
 21
-10.7870372261
  0
LWPOLYLINE
  5
3D1
100
AcDbEntity
  8
IMPORT_IGES
100
AcDbPolyline
 62
253
  6
CONTINUOUS
 90
10
 70
0
 10
-5.6790502491
 20
-1.1215789041
 10
-5.6781999239
 20
-1.1383773237
 10
-5.677449793
 20
-1.1552441581
 10
-5.6767999647
 20
-1.1721780483
 10
-5.6762509028
 20
-1.1891769493
 10
-5.6758018541
 20
-1.2062402024
 10
-5.6754517705
 20
-1.2233685908
 10
-5.675200984
 20
-1.240561533
 10
-5.6750502869
 20
-1.25781703
 10
-5.675
 20
-1.2751337748
  0
LINE
  5
3D2
100
AcDbEntity
  8
RACCORDO
100
AcDbLine
 62
253
  6
CONTINUOUS
 10
-7.2331782981
 20
20.0275513222
 11
-7.1232213147
 21
16.8065137252
  0
LINE
  5
3D3
100
AcDbEntity
  8
DRAFT
100
AcDbLine
 62
7
  6
CONTINUOUS
 10
-6.1033250947
 20
11.15
 11
-6.175
 21
14.139335085
  0
LWPOLYLINE
  5
3D4
100
AcDbEntity
  8
IMPORT_IGES
100
AcDbPolyline
 62
7
  6
CONTINUOUS
 90
14
 70
0
 10
-5.675
 20
-8.857915597
 10
-5.6754448808
 20
-8.8184796199
 10
-5.6766729202
 20
-8.78185197
 10
-5.6785283148
 20
-8.7480720283
 10
-5.6808455858
 20
-8.71739993
 10
-5.6834980641
 20
-8.689598862
 10
-5.6864344646
 20
-8.6639493686
 10
-5.6895721349
 20
-8.6403728756
 10
-5.6928295078
 20
-8.6189309689
 10
-5.6962199489
 20
-8.599125629
 10
-5.6996482772
 20
-8.581161592
 10
-5.7031140125
 20
-8.5648093894
 10
-5.7068399583
 20
-8.5489565967
 10
-5.7106195388
 20
-8.5340482051
  0
LINE
  5
3D5
100
AcDbEntity
  8
IMPORT_IGES
100
AcDbLine
 62
253
  6
CONTINUOUS
 10
-6.8981434405
 20
-10.8035439467
 11
-6.8981434417
 21
-10.95
  0
LINE
  5
3D6
100
AcDbEntity
  8
RACCORDO
100
AcDbLine
 62
253
  6
CONTINUOUS
 10
-6.8873556268
 20
-12.8877357561
 11
-6.8873556268
 21
-13.1876900647
  0
LINE
  5
3D7
100
AcDbEntity
  8
IMPORT_IGES
100
AcDbLine
 62
253
  6
CONTINUOUS
 10
-6.8250000002
 20
10.95
 11
-6.825
 21
11.15
  0
LINE
  5
3D8
100
AcDbEntity
  8
IMPORT_IGES
100
AcDbLine
 62
253
  6
CONTINUOUS
 10
-6.625
 20
4.725
 11
-6.625
 21
4.525
  0
LINE
  5
3D9
100
AcDbEntity
  8
IMPORT_IGES
100
AcDbLine
 62
253
  6
CONTINUOUS
 10
-6.6250000003
 20
-4.890911167
 11
-6.625
 21
0.5465592503
  0
LINE
  5
3DA
100
AcDbEntity
  8
IMPORT_IGES
100
AcDbLine
 62
7
  6
CONTINUOUS
 10
-6.6217037363
 20
-11.15
 11
-6.6217032667
 21
-11.1381398324
  0
LINE
  5
3DB
100
AcDbEntity
  8
IMPORT_IGES
100
AcDbLine
 62
253
  6
CONTINUOUS
 10
-6.5714101326
 20
1.9199125088
 11
-6.5714101615
 21
4.5286060934
  0
LINE
  5
3DC
100
AcDbEntity
  8
IMPORT_IGES
100
AcDbLine
 62
253
  6
CONTINUOUS
 10
-6.5249999998
 20
6.5454966127
 11
-6.525
 21
6.3454966127
  0
LINE
  5
3DD
100
AcDbEntity
  8
IMPORT_IGES
100
AcDbLine
 62
7
  6
CONTINUOUS
 10
-6.475
 20
4.8955
 11
-6.475
 21
6.2955
  0
LINE
  5
3DE
100
AcDbEntity
  8
IMPORT_IGES
100
AcDbLine
 62
7
  6
CONTINUOUS
 10
-6.425
 20
-4.890911167
 11
-6.425
 21
0.4916251856
  0
LINE
  5
3DF
100
AcDbEntity
  8
IMPORT_IGES
100
AcDbLine
 62
7
  6
CONTINUOUS
 10
-6.425
 20
4.9249999952
 11
-6.425
 21
6.2454966127
  0
LINE
  5
3E0
100
AcDbEntity
  8
IMPORT_IGES
100
AcDbLine
 62
253
  6
CONTINUOUS
 10
-6.3982050808
 20
4.9250000201
 11
-6.3982050808
 21
1.9199108712
  0
LINE
  5
3E1
100
AcDbEntity
  8
IMPORT_IGES
100
AcDbLine
 62
253
  6
CONTINUOUS
 10
-6.3476701529
 20
-7.9140974699
 11
-6.3476707733
 21
-8.0019918318
  0
LINE
  5
3E2
100
AcDbEntity
  8
IMPORT_IGES
100
AcDbLine
 62
253
  6
CONTINUOUS
 10
-6.325
 20
-10.95
 11
-6.325
 21
-11.15
  0
LINE
  5
3E3
100
AcDbEntity
  8
IMPORT_IGES
100
AcDbLine
 62
253
  6
CONTINUOUS
 10
-6.2249998924
 20
-7.8451506729
 11
-6.225
 21
6.2454966126
  0
LINE
  5
3E4
100
AcDbEntity
  8
DRAFT
100
AcDbLine
 62
7
  6
CONTINUOUS
 10
-6.175
 20
11.15
 11
-6.175
 21
14.139335085
  0
LINE
  5
3E5
100
AcDbEntity
  8
IMPORT_IGES
100
AcDbLine
 62
253
  6
CONTINUOUS
 10
-5.975
 20
-0.155
 11
-5.975
 21
6.7454966127
  0
LINE
  5
3E6
100
AcDbEntity
  8
IMPORT_IGES
100
AcDbLine
 62
253
  6
CONTINUOUS
 10
-5.775
 20
-1.630209614
 11
-5.775
 21
-0.2710819832
  0
LINE
  5
3E7
100
AcDbEntity
  8
IMPORT_IGES
100
AcDbLine
 62
253
  6
CONTINUOUS
 10
-5.7750000191
 20
-8.4119272815
 11
-5.775
 21
-1.6661999403
  0
LINE
  5
3E8
100
AcDbEntity
  8
IMPORT_IGES
100
AcDbLine
 62
7
  6
CONTINUOUS
 10
-5.675
 20
-10.7959578105
 11
-5.675
 21
-1.8833056577
  0
LINE
  5
3E9
100
AcDbEntity
  8
IMPORT_IGES
100
AcDbLine
 62
7
  6
CONTINUOUS
 10
-5.675
 20
-1.4251020863
 11
-5.675
 21
-1.2751337748
  0
LINE
  5
3EA
100
AcDbEntity
  8
IMPORT_IGES
100
AcDbLine
 62
7
  6
CONTINUOUS
 10
-5.675
 20
-0.055
 11
-5.675
 21
6.7454966127
  0
LINE
  5
3EB
100
AcDbEntity
  8
IMPORT_IGES
100
AcDbLine
 62
253
  6
CONTINUOUS
 10
-5.525
 20
-1.2751337747
 11
-5.525
 21
-1.3487686673
  0
LINE
  5
3EC
100
AcDbEntity
  8
IMPORT_IGES
100
AcDbLine
 62
253
  6
CONTINUOUS
 10
-5.525
 20
-10.9456300654
 11
-5.525
 21
-2.0819703803
  0
LINE
  5
3ED
100
AcDbEntity
  8
IMPORT_IGES
100
AcDbLine
 62
253
  6
CONTINUOUS
 10
-5.3749999998
 20
-3.0795167894
 11
-5.3749999998
 21
-2.2657301001
  0
LINE
  5
3EE
100
AcDbEntity
  8
IMPORT_IGES
100
AcDbLine
 62
253
  6
CONTINUOUS
 10
-5.3749999998
 20
-1.2987539735
 11
-5.375
 21
-0.055
  0
LINE
  5
3EF
100
AcDbEntity
  8
IMPORT_IGES
100
AcDbLine
 62
253
  6
CONTINUOUS
 10
-5.345682221
 20
3.1299131308
 11
-5.3456822208
 21
2.9299131308
  0
LINE
  5
3F0
100
AcDbEntity
  8
IMPORT_IGES
100
AcDbLine
 62
253
  6
CONTINUOUS
 10
-5.3066847109
 20
6.37
 11
-5.3066847113
 21
6.57
  0
LINE
  5
3F1
100
AcDbEntity
  8
IMPORT_IGES
100
AcDbLine
 62
253
  6
CONTINUOUS
 10
-5.8750000002
 20
-8.4009330926
 11
-5.874999929
 21
-10.95
  0
LWPOLYLINE
  5
3F2
100
AcDbEntity
  8
IMPORT_IGES
100
AcDbPolyline
 62
253
  6
CONTINUOUS
 90
5
 70
0
 10
-6.3982050808
 20
1.9199108712
 10
-6.3988749161
 20
1.7681903004
 10
-6.4007337229
 20
1.6155371016
 10
-6.4036560694
 20
1.4619512748
 10
-6.4073797163
 20
1.3085152623
  0
LWPOLYLINE
  5
3F3
100
AcDbEntity
  8
IMPORT_IGES
100
AcDbPolyline
 62
253
  6
CONTINUOUS
 90
10
 70
0
 10
-6.5714101508
 20
1.9199125088
 10
-6.5735411696
 20
1.7724603279
 10
-6.5772345777
 20
1.6243810607
 10
-6.582490375
 20
1.4758078282
 10
-6.5901172775
 20
1.3282284656
 10
-6.5993065692
 20
1.1804218038
 10
-6.6076321022
 20
1.0285119327
 10
-6.6142851603
 20
0.8713857101
 10
-6.6200744595
 20
0.7106403437
 10
-6.625
 20
0.5465592503
  0
LINE
  5
3F4
100
AcDbEntity
  8
DRAFT
100
AcDbLine
 62
7
  6
CONTINUOUS
 10
-5.2466749053
 20
11.15
 11
-5.175
 21
14.139335085
  0
LWPOLYLINE
  5
3F5
100
AcDbEntity
  8
RACCORDO
100
AcDbPolyline
 62
253
  6
CONTINUOUS
 90
31
 70
0
 10
-7.1873099353
 20
-13.4876443732
 10
-7.1869030286
 20
-13.4719289958
 10
-7.1856738561
 20
-13.4562584081
 10
-7.183625991
 20
-13.4406755597
 10
-7.1807652606
 20
-13.4252230914
 10
-7.1770996906
 20
-13.4099433818
 10
-7.1726394995
 20
-13.3948784269
 10
-7.1673970307
 20
-13.3800692434
 10
-7.1613869199
 20
-13.3655565659
 10
-7.154626158
 20
-13.3513808433
 10
-7.1471336275
 20
-13.3375808795
 10
-7.1389301015
 20
-13.3241941962
 10
-7.1300385619
 20
-13.3112576588
 10
-7.1204841343
 20
-13.2988070311
 10
-7.1102928867
 20
-13.2868755249
 10
-7.0994917508
 20
-13.2754942936
 10
-7.0881106748
 20
-13.2646946869
 10
-7.0761805799
 20
-13.2545058327
 10
-7.0637316993
 20
-13.2449537059
 10
-7.0507970312
 20
-13.2360642012
 10
-7.0374125326
 20
-13.2278625689
 10
-7.0236145782
 20
-13.2203715093
 10
-7.0094404919
 20
-13.2136117703
 10
-6.9949291814
 20
-13.2076023648
 10
-6.9801210161
 20
-13.2023603197
 10
-6.9650565726
 20
-13.1979002973
 10
-6.9497769668
 20
-13.1942347519
 10
-6.9343245221
 20
-13.1913740221
 10
-6.9187417298
 20
-13.1893261585
 10
-6.9030711151
 20
-13.1880969773
 10
-6.8873556268
 20
-13.1876900647
  0
LWPOLYLINE
  5
3F6
100
AcDbEntity
  8
IMPORT_IGES
100
AcDbPolyline
 62
253
  6
CONTINUOUS
 90
5
 70
0
 10
-6.4073797163
 20
1.3085152623
 10
-6.4162278327
 20
0.9955980264
 10
-6.4205038296
 20
0.8317870342
 10
-6.4237165437
 20
0.6637960872
 10
-6.425
 20
0.4916251856
  0
LINE
  5
3F7
100
AcDbEntity
  8
0
100
AcDbLine
 62
253
  6
CONTINUOUS
 10
-7.2331782981
 20
-20.0275513222
 11
-7.1348569743
 21
-17.1473642646
  0
LWPOLYLINE
  5
3F8
100
AcDbEntity
  8
IMPORT_IGES
100
AcDbPolyline
 62
253
  6
CONTINUOUS
 90
13
 70
0
 10
-6.2249998924
 20
-7.845147364
 10
-6.2257948566
 20
-7.8678405287
 10
-6.228409619
 20
-7.8890567054
 10
-6.2328441796
 20
-7.9087891436
 10
-6.2390973158
 20
-7.9272491288
 10
-6.2471702502
 20
-7.9442402372
 10
-6.2570666505
 20
-7.9591797225
 10
-6.2690497541
 20
-7.9721175669
 10
-6.2828563236
 20
-7.9831022207
 10
-6.2977003147
 20
-7.9915906212
 10
-6.3133197126
 20
-7.99744354
 10
-6.3299765322
 20
-8.0009019768
 10
-6.3476707733
 20
-8.0019918334
  0
LWPOLYLINE
  5
3F9
100
AcDbEntity
  8
IMPORT_IGES
100
AcDbPolyline
 62
253
  6
CONTINUOUS
 90
4
 70
0
 10
-6.4032633318
 20
4.8354954431
 10
-6.4007124009
 20
4.8643962381
 10
-6.3990478305
 20
4.8942310971
 10
-6.3982050808
 20
4.9250000201
  0
LWPOLYLINE
  5
3FA
100
AcDbEntity
  8
IMPORT_IGES
100
AcDbPolyline
 62
253
  6
CONTINUOUS
 90
13
 70
0
 10
-4.675
 20
8.5866773029
 10
-4.6733313563
 20
8.6049074029
 10
-4.6683738394
 20
8.6227782602
 10
-4.6602400164
 20
8.6399977321
 10
-4.6491556529
 20
8.6562107789
 10
-4.6352955701
 20
8.6712507331
 10
-4.6186438268
 20
8.6850806845
 10
-4.5992575456
 20
8.697492605
 10
-4.5774887705
 20
8.7081187536
 10
-4.5537583599
 20
8.7166717657
 10
-4.5284915888
 20
8.7229466133
 10
-4.502083772
 20
8.7267959478
 10
-4.475
 20
8.7280986591
  0
LINE
  5
3FB
100
AcDbEntity
  8
IMPORT_IGES
100
AcDbLine
 62
253
  6
CONTINUOUS
 10
-4.6732889722
 20
10.6805912257
 11
-4.675
 21
10.6621320347
  0
LWPOLYLINE
  5
3FC
100
AcDbEntity
  8
IMPORT_IGES
100
AcDbPolyline
 62
253
  6
CONTINUOUS
 90
13
 70
0
 10
-4.6955799246
 20
7.9683233444
 10
-4.6928970226
 20
7.9856063945
 10
-4.6870988347
 20
8.0026720519
 10
-4.6782315923
 20
8.0190839104
 10
-4.6666733548
 20
8.0342375559
 10
-4.652681282
 20
8.0479997557
 10
-4.6359998522
 20
8.0605870013
 10
-4.6167993
 20
8.0716952063
 10
-4.5955829105
 20
8.080945487
 10
-4.5723509386
 20
8.0882551573
 10
-4.5474816455
 20
8.0933832836
 10
-4.5218054905
 20
8.0961170142
 10
-4.4960222912
 20
8.0964405819
  0
LWPOLYLINE
  5
3FD
100
AcDbEntity
  8
RACCORDO
100
AcDbPolyline
 62
7
  6
CONTINUOUS
 90
4
 70
0
 10
7.2158834737
 20
21.7591165263
 10
7.168380061
 20
21.6866457638
 10
7.143929804
 20
21.6499179842
 10
7.1189545568
 20
21.6129888844
  0
LINE
  5
3FE
100
AcDbEntity
  8
RACCORDO
100
AcDbLine
 62
7
  6
CONTINUOUS
 10
5.880294768
 20
20.0829433217
 11
5.7732213147
 21
19.9223308767
  0
LINE
  5
3FF
100
AcDbEntity
  8
RACCORDO
100
AcDbLine
 62
7
  6
CONTINUOUS
 10
7.1189545568
 20
21.6129888844
 11
7.0677848301
 21
21.5385902446
  0
LINE
  5
400
100
AcDbEntity
  8
RACCORDO
100
AcDbLine
 62
7
  6
CONTINUOUS
 10
7.0677848301
 20
21.5385902446
 11
7.0154803352
 21
21.4636002076
  0
LWPOLYLINE
  5
401
100
AcDbEntity
  8
RACCORDO
100
AcDbPolyline
 62
7
  6
CONTINUOUS
 90
3
 70
0
 10
7.0154803352
 20
21.4636002076
 10
6.9358850697
 20
21.3504165494
 10
6.9091007192
 20
21.3126932437
  0
LWPOLYLINE
  5
402
100
AcDbEntity
  8
IMPORT_IGES
100
AcDbPolyline
 62
253
  6
CONTINUOUS
 90
16
 70
0
 10
-6.5714101145
 20
4.5286061055
 10
-6.5566274642
 20
4.5331992996
 10
-6.5413795307
 20
4.5410597735
 10
-6.5257704693
 20
4.5521875272
 10
-6.5095235175
 20
4.5669744705
 10
-6.4932082035
 20
4.5850286936
 10
-6.4781141415
 20
4.605174467
 10
-6.464502198
 20
4.627509613
 10
-6.4521209094
 20
4.6519363094
 10
-6.4412844117
 20
4.6769853602
 10
-6.4319986408
 20
4.7022379691
 10
-6.4240398004
 20
4.7281129323
 10
-6.4173004957
 20
4.7543974421
 10
-6.4115860334
 20
4.7808457234
 10
-6.4068701809
 20
4.8077035512
 10
-6.4032633318
 20
4.8354954431
  0
LWPOLYLINE
  5
403
100
AcDbEntity
  8
IMPORT_IGES
100
AcDbPolyline
 62
253
  6
CONTINUOUS
 90
16
 70
0
 10
-8.0023295009
 20
-7.914096953
 10
-8.0112135071
 20
-7.9164857546
 10
-8.0194883328
 20
-7.9175529886
 10
-8.0271482485
 20
-7.9173368786
 10
-8.0343752546
 20
-7.9158757211
 10
-8.0409886413
 20
-7.9132082328
 10
-8.0464744848
 20
-7.9093658313
 10
-8.0506647277
 20
-7.9040285223
 10
-8.0538186793
 20
-7.8975403212
 10
-8.056083157
 20
-7.8908905123
 10
-8.0574209588
 20
-7.8845763071
 10
-8.0579191754
 20
-7.8780476288
 10
-8.0578926851
 20
-7.8707183256
 10
-8.0574547155
 20
-7.8623890023
 10
-8.0565194578
 20
-7.8532347351
 10
-8.0550994835
 20
-7.8432406208
  0
LWPOLYLINE
  5
404
100
AcDbEntity
  8
IMPORT_IGES
100
AcDbPolyline
 62
7
  6
CONTINUOUS
 90
5
 70
0
 10
-7.8076037127
 20
-8.4424231203
 10
-7.7856494687
 20
-8.4371075843
 10
-7.7626184532
 20
-8.4334051483
 10
-7.7391167696
 20
-8.431457751
 10
-7.7250009855
 20
-8.4311384936
  0
LWPOLYLINE
  5
405
100
AcDbEntity
  8
IMPORT_IGES
100
AcDbPolyline
 62
253
  6
CONTINUOUS
 90
5
 70
0
 10
-7.792781948
 20
-8.4058582627
 10
-7.8256789735
 20
-8.412091896
 10
-7.8582993982
 20
-8.4209140067
 10
-7.8902571906
 20
-8.4322501496
 10
-7.9203942556
 20
-8.445876989
  0
LINE
  5
406
100
AcDbEntity
  8
IMPORT_IGES
100
AcDbLine
 62
253
  6
CONTINUOUS
 10
4.325
 20
-6.9675967204
 11
-5.675
 21
-6.9675967204
  0
LINE
  5
407
100
AcDbEntity
  8
IMPORT_IGES
100
AcDbLine
 62
7
  6
CONTINUOUS
 10
-8.725
 20
-6.0
 11
-8.675
 21
-6.0
  0
LINE
  5
408
100
AcDbEntity
  8
IMPORT_IGES
100
AcDbLine
 62
7
  6
CONTINUOUS
 10
7.325
 20
-6.0
 11
7.375
 21
-6.0
  0
LWPOLYLINE
  5
409
100
AcDbEntity
  8
IMPORT_IGES
100
AcDbPolyline
 62
7
  6
CONTINUOUS
 90
3
 70
0
 10
6.424888422
 20
-8.4351485277
 10
6.4473921078
 20
-8.4397230733
 10
6.4684151158
 20
-8.4457415517
  0
LWPOLYLINE
  5
40A
100
AcDbEntity
  8
IMPORT_IGES
100
AcDbPolyline
 62
7
  6
CONTINUOUS
 90
14
 70
0
 10
6.4684151158
 20
-8.4457415517
 10
6.4875336611
 20
-8.4528949933
 10
6.5047357275
 20
-8.4609724581
 10
6.5198561068
 20
-8.4696595587
 10
6.5327977368
 20
-8.4786245394
 10
6.543781501
 20
-8.4877595163
 10
6.5529727706
 20
-8.4969739888
 10
6.5603399819
 20
-8.5059762833
 10
6.5658826928
 20
-8.5143921649
 10
6.5700022552
 20
-8.5224637152
 10
6.5728162635
 20
-8.5301512199
 10
6.5743343014
 20
-8.5368009704
 10
6.574970352
 20
-8.5429131084
 10
6.5749965957
 20
-8.5436583967
  0
LINE
  5
40B
100
AcDbEntity
  8
DRAFT
100
AcDbLine
 62
7
  6
CONTINUOUS
 10
8.8196499221
 20
-11.5
 11
8.975
 21
-11.5776691233
  0
LINE
  5
40C
100
AcDbEntity
  8
RACCORDO
100
AcDbLine
 62
253
  6
CONTINUOUS
 10
6.3250190385
 20
-13.9
 11
6.2351323002
 21
-13.8101132618
  0
LINE
  5
40D
100
AcDbEntity
  8
RACCORDO
100
AcDbLine
 62
7
  6
CONTINUOUS
 10
6.9091007192
 20
-21.3126932437
 11
6.9625346208
 21
-21.3881838872
  0
LINE
  5
40E
100
AcDbEntity
  8
RACCORDO
100
AcDbLine
 62
7
  6
CONTINUOUS
 10
6.9625346208
 20
-21.3881838872
 11
7.0417764984
 21
-21.5011382645
  0
LWPOLYLINE
  5
40F
100
AcDbEntity
  8
RACCORDO
100
AcDbPolyline
 62
7
  6
CONTINUOUS
 90
5
 70
0
 10
7.0417764984
 20
-21.5011382645
 10
7.0935136093
 20
-21.5758926167
 10
7.1189545568
 20
-21.6129888844
 10
7.143929804
 20
-21.6499179842
 10
7.168380061
 20
-21.6866457638
  0
LINE
  5
410
100
AcDbEntity
  8
0
100
AcDbLine
 62
7
  6
CONTINUOUS
 10
5.880294768
 20
-20.0829433217
 11
5.8040558127
 21
-19.968583276
  0
LINE
  5
411
100
AcDbEntity
  8
RACCORDO
100
AcDbLine
 62
7
  6
CONTINUOUS
 10
7.168380061
 20
-21.6866457638
 11
7.2158834737
 21
-21.7591165263
  0
LWPOLYLINE
  5
412
100
AcDbEntity
  8
IMPORT_IGES
100
AcDbPolyline
 62
253
  6
CONTINUOUS
 90
10
 70
0
 10
-5.775
 20
-0.2710819832
 10
-5.7353974205
 20
-0.3770578579
 10
-5.6990367211
 20
-0.478687952
 10
-5.6659179018
 20
-0.5759722655
 10
-5.6360468398
 20
-0.6675866293
 10
-5.609417658
 20
-0.7548552125
 10
-5.5860127243
 20
-0.8417505223
 10
-5.5658261614
 20
-0.9295967279
 10
-5.5488638467
 20
-1.0170696601
 10
-5.5351257802
 20
-1.104169319
  0
LINE
  5
413
100
AcDbEntity
  8
IMPORT_IGES
100
AcDbLine
 62
253
  6
CONTINUOUS
 10
-5.5080221321
 20
-1.5539324218
 11
-5.5712844122
 21
-1.3642013386
  0
LWPOLYLINE
  5
414
100
AcDbEntity
  8
IMPORT_IGES
100
AcDbPolyline
 62
253
  6
CONTINUOUS
 90
13
 70
0
 10
-6.425
 20
0.4916251854
 10
-6.4266698148
 20
0.4987088861
 10
-6.4316300617
 20
0.5056521819
 10
-6.4397669932
 20
0.5123415697
 10
-6.4508531826
 20
0.5186389563
 10
-6.4647130783
 20
0.5244800104
 10
-6.4813639637
 20
0.5298511872
 10
-6.5007497628
 20
0.5346718788
 10
-6.522517842
 20
0.5387990099
 10
-6.5462471437
 20
0.542120947
 10
-6.5715123407
 20
0.5445580746
 10
-6.5979182912
 20
0.5460531841
 10
-6.625
 20
0.5465592503
  0
LWPOLYLINE
  5
415
100
AcDbEntity
  8
IMPORT_IGES
100
AcDbPolyline
 62
253
  6
CONTINUOUS
 90
13
 70
0
 10
-6.425
 20
-1.0095965318
 10
-6.4232889723
 20
-1.0203507382
 10
-6.4181851653
 20
-1.0309209372
 10
-6.4097759065
 20
-1.0411262696
 10
-6.3982050808
 20
-1.0507921195
 10
-6.3836706681
 20
-1.0597531015
 10
-6.3664213562
 20
-1.0678558907
 10
-6.3467522858
 20
-1.0749618461
 10
-6.325
 20
-1.0809493828
 10
-6.3015366865
 20
-1.0857160525
 10
-6.276763809
 20
-1.089180296
 10
-6.2511052384
 20
-1.0912828393
 10
-6.225
 20
-1.0919877073
  0
LINE
  5
416
100
AcDbEntity
  8
IMPORT_IGES
100
AcDbLine
 62
253
  6
CONTINUOUS
 10
-6.5714105296
 20
4.5286060449
 11
-6.5982050808
 21
4.7268030467
  0
LWPOLYLINE
  5
417
100
AcDbEntity
  8
IMPORT_IGES
100
AcDbPolyline
 62
253
  6
CONTINUOUS
 90
8
 70
0
 10
-5.775
 20
-0.2710819832
 10
-5.7347798189
 20
-0.5714314471
 10
-5.7225445993
 20
-0.668088794
 10
-5.7112616846
 20
-0.7629933074
 10
-5.7009670391
 20
-0.8557922937
 10
-5.6919193919
 20
-0.9464201925
 10
-5.6845116778
 20
-1.0350236132
 10
-5.6790502491
 20
-1.1215789041
  0
LWPOLYLINE
  5
418
100
AcDbEntity
  8
IMPORT_IGES
100
AcDbPolyline
 62
253
  6
CONTINUOUS
 90
10
 70
0
 10
-5.5351257802
 20
-1.104169319
 10
-5.532964561
 20
-1.1233370698
 10
-5.5310640673
 20
-1.1424645439
 10
-5.529424299
 20
-1.1615517412
 10
-5.5280475126
 20
-1.1806021927
 10
-5.5269314516
 20
-1.1996123673
 10
-5.5260693467
 20
-1.2185716722
 10
-5.5254589417
 20
-1.2374765762
 10
-5.5251024928
 20
-1.2563306103
 10
-5.525
 20
-1.2751337747
  0
LINE
  5
419
100
AcDbEntity
  8
IMPORT_IGES
100
AcDbLine
 62
7
  6
CONTINUOUS
 10
-5.175
 20
-0.155
 11
-5.175
 21
-1.2320677153
  0
LINE
  5
41A
100
AcDbEntity
  8
IMPORT_IGES
100
AcDbLine
 62
7
  6
CONTINUOUS
 10
-5.175
 20
-2.4947760646
 11
-5.175
 21
-3.0795167894
  0
LINE
  5
41B
100
AcDbEntity
  8
RACCORDO
100
AcDbLine
 62
7
  6
CONTINUOUS
 10
-5.175
 20
-19.9973819397
 11
-5.175
 21
-17.6
  0
LINE
  5
41C
100
AcDbEntity
  8
DRAFT
100
AcDbLine
 62
7
  6
CONTINUOUS
 10
-5.175
 20
11.15
 11
-5.175
 21
14.139335085
  0
LINE
  5
41D
100
AcDbEntity
  8
DRAFT
100
AcDbLine
 62
7
  6
CONTINUOUS
 10
-5.075
 20
23.8
 11
-5.075
 21
22.4
  0
LINE
  5
41E
100
AcDbEntity
  8
DRAFT
100
AcDbLine
 62
7
  6
CONTINUOUS
 10
-5.075
 20
-22.4
 11
-5.075
 21
-23.8
  0
LINE
  5
41F
100
AcDbEntity
  8
IMPORT_IGES
100
AcDbLine
 62
253
  6
CONTINUOUS
 10
-5.0581372518
 20
2.9299131308
 11
-5.0581372525
 21
2.6299131308
  0
LINE
  5
420
100
AcDbEntity
  8
ASSI
100
AcDbLine
 62
253
  6
CONTINUOUS
 10
-5.0309327327
 20
-22.3338981669
 11
-5.0309327327
 21
-23.7507734247
  0
LINE
  5
421
100
AcDbEntity
  8
ASSI
100
AcDbLine
 62
253
  6
CONTINUOUS
 10
-5.0309327327
 20
22.3338981669
 11
-5.0309327327
 21
23.7507734247
  0
LINE
  5
422
100
AcDbEntity
  8
IMPORT_IGES
100
AcDbLine
 62
7
  6
CONTINUOUS
 10
-4.925
 20
-2.743783059
 11
-4.925
 21
-3.5730068437
  0
LINE
  5
423
100
AcDbEntity
  8
RACCORDO
100
AcDbLine
 62
253
  6
CONTINUOUS
 10
-4.875
 20
-20.0
 11
-4.875
 21
-17.3
  0
LINE
  5
424
100
AcDbEntity
  8
IMPORT_IGES
100
AcDbLine
 62
253
  6
CONTINUOUS
 10
-4.875
 20
8.5748812075
 11
-4.8749999983
 21
10.95
  0
LINE
  5
425
100
AcDbEntity
  8
IMPORT_IGES
100
AcDbLine
 62
253
  6
CONTINUOUS
 10
-4.825
 20
-2.8385526386
 11
-4.825
 21
-3.6951486209
  0
LINE
  5
426
100
AcDbEntity
  8
IMPORT_IGES
100
AcDbLine
 62
7
  6
CONTINUOUS
 10
-4.7798535023
 20
8.15
 11
-4.7798535023
 21
7.6101398601
  0
LINE
  5
427
100
AcDbEntity
  8
IMPORT_IGES
100
AcDbLine
 62
7
  6
CONTINUOUS
 10
-4.7798535023
 20
7.5975524476
 11
-4.7798535023
 21
7.5293706294
  0
LINE
  5
428
100
AcDbEntity
  8
IMPORT_IGES
100
AcDbLine
 62
7
  6
CONTINUOUS
 10
-4.675
 20
10.7499999931
 11
-4.675
 21
8.5866771888
  0
LINE
  5
429
100
AcDbEntity
  8
IMPORT_IGES
100
AcDbLine
 62
253
  6
CONTINUOUS
 10
-4.5964927418
 20
-1.05
 11
-4.5964927418
 21
-1.25
  0
LINE
  5
42A
100
AcDbEntity
  8
0
100
AcDbLine
 62
7
  6
CONTINUOUS
 10
-4.4090923596
 20
-11.2500290004
 11
-4.4090923596
 21
-11.3500290004
  0
LINE
  5
42B
100
AcDbEntity
  8
0
100
AcDbLine
 62
253
  6
CONTINUOUS
 10
-4.319625439
 20
-11.2500290004
 11
-4.319625439
 21
-11.3500290004
  0
LINE
  5
42C
100
AcDbEntity
  8
IMPORT_IGES
100
AcDbLine
 62
253
  6
CONTINUOUS
 10
-4.3098166623
 20
3.1299131308
 11
-4.3098166623
 21
2.9299131308
  0
LINE
  5
42D
100
AcDbEntity
  8
0
100
AcDbLine
 62
253
  6
CONTINUOUS
 10
-4.231441145
 20
-11.2500290004
 11
-4.231441145
 21
-11.3500290004
  0
LINE
  5
42E
100
AcDbEntity
  8
RACCORDO
100
AcDbLine
 62
7
  6
CONTINUOUS
 10
-4.175
 20
-22.3339198952
 11
-4.175
 21
-23.7511422903
  0
LINE
  5
42F
100
AcDbEntity
  8
ASSI
100
AcDbLine
 62
7
  6
CONTINUOUS
 10
-4.175
 20
-22.3339198952
 11
-4.175
 21
-23.7941821702
  0
LINE
  5
430
100
AcDbEntity
  8
RACCORDO
100
AcDbLine
 62
7
  6
CONTINUOUS
 10
-4.175
 20
-16.2
 11
-4.175
 21
-14.7
  0
LINE
  5
431
100
AcDbEntity
  8
DRAFT
100
AcDbLine
 62
7
  6
CONTINUOUS
 10
-4.175
 20
-14.7
 11
-4.175
 21
-13.9
  0
LINE
  5
432
100
AcDbEntity
  8
ASSI
100
AcDbLine
 62
7
  6
CONTINUOUS
 10
-4.175
 20
22.3339198952
 11
-4.175
 21
23.7941821702
  0
LINE
  5
433
100
AcDbEntity
  8
RACCORDO
100
AcDbLine
 62
7
  6
CONTINUOUS
 10
-4.075
 20
-15.6
 11
-4.075
 21
-14.2
  0
LINE
  5
434
100
AcDbEntity
  8
0
100
AcDbLine
 62
7
  6
CONTINUOUS
 10
-3.9137188245
 20
-11.2500290004
 11
-3.9137188245
 21
-11.3500290004
  0
LINE
  5
435
100
AcDbEntity
  8
0
100
AcDbLine
 62
7
  6
CONTINUOUS
 10
-3.878701048
 20
-11.2500290004
 11
-3.878701048
 21
-11.3500290004
  0
LINE
  5
436
100
AcDbEntity
  8
RACCORDO
100
AcDbLine
 62
7
  6
CONTINUOUS
 10
-3.675
 20
-21.0
 11
-3.675
 21
-22.3912731322
  0
LINE
  5
437
100
AcDbEntity
  8
RACCORDO
100
AcDbLine
 62
7
  6
CONTINUOUS
 10
-3.675
 20
21.0
 11
-3.675
 21
22.3912731322
  0
LINE
  5
438
100
AcDbEntity
  8
0
100
AcDbLine
 62
7
  6
CONTINUOUS
 10
-3.6122242261
 20
-11.2500290004
 11
-3.6122242261
 21
-11.3500290004
  0
LINE
  5
439
100
AcDbEntity
  8
IMPORT_IGES
100
AcDbLine
 62
7
  6
CONTINUOUS
 10
-3.5798535023
 20
3.5761904762
 11
-3.5798535023
 21
3.5849680035
  0
LWPOLYLINE
  5
43A
100
AcDbEntity
  8
IMPORT_IGES
100
AcDbPolyline
 62
253
  6
CONTINUOUS
 90
7
 70
0
 10
-4.875
 20
8.5748812075
 10
-4.881593584
 20
8.2248441188
 10
-4.9015648392
 20
7.8756417124
 10
-4.9349137656
 20
7.527297978
 10
-4.9817045886
 20
7.1791900514
 10
-5.0418730828
 20
6.8319889786
 10
-5.0867638491
 20
6.6212635787
  0
LINE
  5
43B
100
AcDbEntity
  8
IMPORT_IGES
100
AcDbLine
 62
253
  6
CONTINUOUS
 10
-4.5003262732
 20
7.9929317904
 11
-4.4960222993
 21
8.0964466063
  0
LINE
  5
43C
100
AcDbEntity
  8
IMPORT_IGES
100
AcDbLine
 62
253
  6
CONTINUOUS
 10
-4.5080381199
 20
7.8297530508
 11
-4.5003262732
 21
7.9929317904
  0
LINE
  5
43D
100
AcDbEntity
  8
IMPORT_IGES
100
AcDbLine
 62
253
  6
CONTINUOUS
 10
-4.5125208547
 20
7.7428932188
 11
-4.5080381199
 21
7.8297530508
  0
LWPOLYLINE
  5
43E
100
AcDbEntity
  8
IMPORT_IGES
100
AcDbPolyline
 62
253
  6
CONTINUOUS
 90
10
 70
0
 10
-4.4960224345
 20
8.0964466092
 10
-4.4916096668
 20
8.1665898082
 10
-4.4877161006
 20
8.2367445469
 10
-4.4843417358
 20
8.3069108253
 10
-4.4814865272
 20
8.3770905758
 10
-4.4791505201
 20
8.4472818659
 10
-4.4773338502
 20
8.517478899
 10
-4.4760365629
 20
8.5876797428
 10
-4.4752586128
 20
8.6578863295
 10
-4.475
 20
10.95
  0
LWPOLYLINE
  5
43F
100
AcDbEntity
  8
IMPORT_IGES
100
AcDbPolyline
 62
253
  6
CONTINUOUS
 90
9
 70
0
 10
-5.675
 20
-10.7959578105
 10
-5.6751564534
 20
-10.7969629238
 10
-5.6756257142
 20
-10.7978620669
 10
-5.6764072657
 20
-10.7986555321
 10
-5.6775000946
 20
-10.7993427605
 10
-5.6789027082
 20
-10.7999248939
 10
-5.6806131514
 20
-10.8004047746
 10
-5.6826289799
 20
-10.8007835411
 10
-5.6849472483
 20
-10.801060628
  0
LINE
  5
440
100
AcDbEntity
  8
RACCORDO
100
AcDbLine
 62
7
  6
CONTINUOUS
 10
-10.1696499221
 20
-14.7
 11
-10.1962892833
 21
-14.7799830745
  0
LWPOLYLINE
  5
441
100
AcDbEntity
  8
IMPORT_IGES
100
AcDbPolyline
 62
7
  6
CONTINUOUS
 90
28
 70
0
 10
-4.8272052088
 20
1.885
 10
-4.8220968478
 20
1.8985301962
 10
-4.8179521531
 20
1.9116914276
 10
-4.8147711246
 20
1.9244836942
 10
-4.8125848935
 20
1.9369282458
 10
-4.8113623287
 20
1.9490038325
 10
-4.811010037
 20
1.9606467054
 10
-4.8115295769
 20
1.971861252
 10
-4.81291939
 20
1.9826430848
 10
-4.8150814077
 20
1.9929152925
 10
-4.8180187311
 20
2.002663876
 10
-4.821728259
 20
2.0119028346
 10
-4.8261026196
 20
2.0205972544
 10
-4.8311418175
 20
2.0287397998
 10
-4.8368458479
 20
2.0363378066
 10
-4.843107325
 20
2.0433783678
 10
-4.8499078146
 20
2.0498502
 10
-4.8572657508
 20
2.0557645867
 10
-4.8651290502
 20
2.061142472
 10
-4.8734873272
 20
2.0659924884
 10
-4.8823509674
 20
2.0703060034
 10
-4.8916990446
 20
2.074078064
 10
-4.9015093061
 20
2.0773192407
 10
-4.9118040047
 20
2.080018963
 10
-4.9226289722
 20
2.0821405665
 10
-4.9339994858
 20
2.0836718298
 10
-4.9459002683
 20
2.0846249743
 10
-4.9583313197
 20
2.085
  0
LWPOLYLINE
  5
442
100
AcDbEntity
  8
IMPORT_IGES
100
AcDbPolyline
 62
253
  6
CONTINUOUS
 90
25
 70
0
 10
-8.0023295009
 20
-7.9140974699
 10
-7.9855671268
 20
-7.8758664407
 10
-7.9666966735
 20
-7.8145827839
 10
-7.9457181408
 20
-7.7302464995
 10
-7.9207914307
 20
-7.6134498413
 10
-7.8937566412
 20
-7.4736005555
 10
-7.870134067
 20
-7.3389218809
 10
-7.8523856507
 20
-7.2194898059
 10
-7.8380494495
 20
-7.1052283421
 10
-7.8252599297
 20
-6.9941327638
 10
-7.8137941447
 20
-6.8888783774
 10
-7.8038750411
 20
-6.7867898764
 10
-7.794305924
 20
-6.6778366156
 10
-7.7844256146
 20
-6.5544852908
 10
-7.7748952918
 20
-6.4242692061
 10
-7.7665017978
 20
-6.2997576291
 10
-7.7598260931
 20
-6.1916332143
 10
-7.7542872171
 20
-6.089213307
 10
-7.7489291309
 20
-5.9730192105
 10
-7.7431985295
 20
-5.8386590663
 10
-7.7376487177
 20
-5.6905247328
 10
-7.7329835713
 20
-5.5223130883
 10
-7.7294377155
 20
-5.3319230922
 10
-7.7267765251
 20
-5.1214557851
 10
-7.725
 20
-4.890911167
  0
LWPOLYLINE
  5
443
100
AcDbEntity
  8
IMPORT_IGES
100
AcDbPolyline
 62
253
  6
CONTINUOUS
 90
13
 70
0
 10
-7.925
 20
-4.7136478931
 10
-7.9267110277
 20
-4.7169354621
 10
-7.9318148347
 20
-4.7201667799
 10
-7.9402240935
 20
-4.7232865578
 10
-7.9517949192
 20
-4.7262414154
 10
-7.9663293319
 20
-4.7289807944
 10
-7.9835786438
 20
-4.7314578232
 10
-8.0032476271
 20
-4.7336301107
 10
-8.0249998099
 20
-4.7354604998
 10
-8.0484633135
 20
-4.7369176881
 10
-8.0732368272
 20
-4.7379767315
 10
-8.0988963941
 20
-4.7386194862
 10
-8.1250029639
 20
-4.7388349378
  0
LWPOLYLINE
  5
444
100
AcDbEntity
  8
IMPORT_IGES
100
AcDbPolyline
 62
253
  6
CONTINUOUS
 90
7
 70
0
 10
-4.430941367
 20
2.8375186196
 10
-4.4597619559
 20
2.8141272364
 10
-4.4902462182
 20
2.7888809185
 10
-4.5226554566
 20
2.7617788858
 10
-4.5566389816
 20
2.7321858275
 10
-4.5920798968
 20
2.6999893968
 10
-4.6676845872
 20
2.6299131308
  0
LWPOLYLINE
  5
445
100
AcDbEntity
  8
IMPORT_IGES
100
AcDbPolyline
 62
253
  6
CONTINUOUS
 90
4
 70
0
 10
-4.3281936267
 20
2.9163899124
 10
-4.3595853199
 20
2.8929607937
 10
-4.3802097141
 20
2.8771151421
 10
-4.430941367
 20
2.8375186196
  0
LWPOLYLINE
  5
446
100
AcDbEntity
  8
IMPORT_IGES
100
AcDbPolyline
 62
253
  6
CONTINUOUS
 90
4
 70
0
 10
-4.3098190853
 20
2.9299131291
 10
-4.3122059829
 20
2.9283971113
 10
-4.31833083
 20
2.9238730613
 10
-4.3281936267
 20
2.9163899124
  0
LINE
  5
447
100
AcDbEntity
  8
DRAFT
100
AcDbLine
 62
7
  6
CONTINUOUS
 10
-10.1696499221
 20
0.5
 11
-10.325
 21
0.4223308767
  0
LWPOLYLINE
  5
448
100
AcDbEntity
  8
IMPORT_IGES
100
AcDbPolyline
 62
253
  6
CONTINUOUS
 90
13
 70
0
 10
7.025
 20
-4.1688807149
 10
7.0641578577
 20
-4.167823413
 10
7.1026457135
 20
-4.164669598
 10
7.1398050297
 20
-4.1594732327
 10
7.175
 20
-4.1523232282
 10
7.2076284287
 20
-4.1433419231
 10
7.2371320344
 20
-4.13268299
 10
7.2630060021
 20
-4.1205288063
 10
7.2848076211
 20
-4.1070873333
 10
7.3021638598
 20
-4.0925885584
 10
7.3147777479
 20
-4.0772805597
 10
7.3224334584
 20
-4.0614252613
 10
7.325
 20
-4.0452939517
  0
LWPOLYLINE
  5
449
100
AcDbEntity
  8
IMPORT_IGES
100
AcDbPolyline
 62
253
  6
CONTINUOUS
 90
13
 70
0
 10
4.875
 20
-4.1688807149
 10
4.9011052384
 20
-4.168175847
 10
4.926763809
 20
-4.1660733037
 10
4.9515366865
 20
-4.1626090601
 10
4.975
 20
-4.1578423904
 10
4.9967522858
 20
-4.1518548537
 10
5.0164213562
 20
-4.1447488983
 10
5.0336706681
 20
-4.1366461091
 10
5.0482050808
 20
-4.1276851272
 10
5.0597759065
 20
-4.1180192772
 10
5.0681851653
 20
-4.1078139448
 10
5.0732889723
 20
-4.0972437458
 10
5.075
 20
-4.0864895394
  0
LINE
  5
44A
100
AcDbEntity
  8
IMPORT_IGES
100
AcDbLine
 62
253
  6
CONTINUOUS
 10
-7.925
 20
-4.8909111642
 11
-7.7249999942
 21
-4.890911167
  0
LINE
  5
44B
100
AcDbEntity
  8
IMPORT_IGES
100
AcDbLine
 62
253
  6
CONTINUOUS
 10
-6.625
 20
-4.890911167
 11
-6.425
 21
-4.890911167
  0
LINE
  5
44C
100
AcDbEntity
  8
IMPORT_IGES
100
AcDbLine
 62
253
  6
CONTINUOUS
 10
5.2750000058
 20
-4.890911167
 11
5.075
 21
-4.8909111642
  0
LINE
  5
44D
100
AcDbEntity
  8
IMPORT_IGES
100
AcDbLine
 62
253
  6
CONTINUOUS
 10
6.375
 20
-4.8909111544
 11
6.575
 21
-4.890911167
  0
LINE
  5
44E
100
AcDbEntity
  8
IMPORT_IGES
100
AcDbLine
 62
253
  6
CONTINUOUS
 10
7.025
 20
-4.7388349378
 11
6.7750017034
 21
-4.7388349378
  0
LINE
  5
44F
100
AcDbEntity
  8
IMPORT_IGES
100
AcDbLine
 62
253
  6
CONTINUOUS
 10
4.875
 20
-4.7388349378
 11
4.425
 21
-4.7388349378
  0
LINE
  5
450
100
AcDbEntity
  8
IMPORT_IGES
100
AcDbLine
 62
253
  6
CONTINUOUS
 10
-5.775
 20
-4.7388349378
 11
-6.2249999462
 21
-4.7388349378
  0
LINE
  5
451
100
AcDbEntity
  8
IMPORT_IGES
100
AcDbLine
 62
253
  6
CONTINUOUS
 10
-8.125
 20
-4.7388349378
 11
-8.375
 21
-4.7388349378
  0
LINE
  5
452
100
AcDbEntity
  8
IMPORT_IGES
100
AcDbLine
 62
253
  6
CONTINUOUS
 10
7.025
 20
-4.1688807149
 11
6.775
 21
-4.1688807149
  0
LINE
  5
453
100
AcDbEntity
  8
IMPORT_IGES
100
AcDbLine
 62
253
  6
CONTINUOUS
 10
4.875
 20
-4.1688807149
 11
4.425
 21
-4.1688807149
  0
LINE
  5
454
100
AcDbEntity
  8
IMPORT_IGES
100
AcDbLine
 62
253
  6
CONTINUOUS
 10
-5.775
 20
-4.1688807149
 11
-6.225
 21
-4.1688807149
  0
LINE
  5
455
100
AcDbEntity
  8
IMPORT_IGES
100
AcDbLine
 62
253
  6
CONTINUOUS
 10
-8.125
 20
-4.1688807149
 11
-8.375
 21
-4.1688807149
  0
LINE
  5
456
100
AcDbEntity
  8
IMPORT_IGES
100
AcDbLine
 62
253
  6
CONTINUOUS
 10
5.075
 20
-3.8702345609
 11
6.575
 21
-3.8702345609
  0
LINE
  5
457
100
AcDbEntity
  8
IMPORT_IGES
100
AcDbLine
 62
253
  6
CONTINUOUS
 10
-6.425
 20
-3.8702345609
 11
-7.925
 21
-3.8702345609
  0
LINE
  5
458
100
AcDbEntity
  8
IMPORT_IGES
100
AcDbLine
 62
253
  6
CONTINUOUS
 10
6.375
 20
-3.7945244396
 11
5.275
 21
-3.7945244396
  0
LINE
  5
459
100
AcDbEntity
  8
IMPORT_IGES
100
AcDbLine
 62
253
  6
CONTINUOUS
 10
-6.625
 20
-3.7945244396
 11
-7.725
 21
-3.7945244396
  0
LINE
  5
45A
100
AcDbEntity
  8
IMPORT_IGES
100
AcDbLine
 62
7
  6
CONTINUOUS
 10
-8.925
 20
-3.5759794687
 11
-8.675
 21
-3.5759794687
  0
LINE
  5
45B
100
AcDbEntity
  8
IMPORT_IGES
100
AcDbLine
 62
7
  6
CONTINUOUS
 10
7.325
 20
-3.5759794687
 11
7.575
 21
-3.5759794687
  0
LWPOLYLINE
  5
45C
100
AcDbEntity
  8
IMPORT_IGES
100
AcDbPolyline
 62
253
  6
CONTINUOUS
 90
13
 70
0
 10
-8.375
 20
-4.7388349378
 10
-8.4141578577
 20
-4.7385117198
 10
-8.4526457135
 20
-4.7375475962
 10
-8.4898050297
 20
-4.7359590633
 10
-8.525
 20
-4.7337733015
 10
-8.5576284287
 20
-4.7310277098
 10
-8.5871320344
 20
-4.7277692659
 10
-8.6130060021
 20
-4.7240537227
 10
-8.6348076211
 20
-4.7199446542
 10
-8.6521638598
 20
-4.7155123678
 10
-8.6647777479
 20
-4.710832701
 10
-8.6724334584
 20
-4.7059857243
 10
-8.675
 20
-4.7010543707
  0
LWPOLYLINE
  5
45D
100
AcDbEntity
  8
IMPORT_IGES
100
AcDbPolyline
 62
253
  6
CONTINUOUS
 90
13
 70
0
 10
6.775
 20
-4.7388349378
 10
6.7488947616
 20
-4.7386194591
 10
6.723236191
 20
-4.73797671
 10
6.6984633135
 20
-4.7369176881
 10
6.675
 20
-4.7354605136
 10
6.6532477142
 20
-4.7336301191
 10
6.6335786438
 20
-4.7314578232
 10
6.6163293319
 20
-4.7289807944
 10
6.6017949192
 20
-4.7262414154
 10
6.5902240935
 20
-4.7232865578
 10
6.5818148347
 20
-4.7201667799
 10
6.5767110277
 20
-4.7169354621
 10
6.575
 20
-4.7136478931
  0
LWPOLYLINE
  5
45E
100
AcDbEntity
  8
IMPORT_IGES
100
AcDbPolyline
 62
253
  6
CONTINUOUS
 90
13
 70
0
 10
-6.625
 20
-3.7945244396
 10
-6.5989574789
 20
-3.7951690283
 10
-6.5733095498
 20
-3.7970967641
 10
-6.5484984747
 20
-3.8002820176
 10
-6.5249356703
 20
-3.8046817382
 10
-6.5030596107
 20
-3.8102243892
 10
-6.4833108819
 20
-3.8168009744
 10
-6.4660256201
 20
-3.8242953797
 10
-6.4514960445
 20
-3.8325761429
 10
-6.4399929291
 20
-3.8414737225
 10
-6.4316868491
 20
-3.8508210564
 10
-6.4266727759
 20
-3.8604630253
 10
-6.425
 20
-3.8702345609
  0
LWPOLYLINE
  5
45F
100
AcDbEntity
  8
IMPORT_IGES
100
AcDbPolyline
 62
253
  6
CONTINUOUS
 90
13
 70
0
 10
6.375
 20
-3.7945244396
 10
6.4010425211
 20
-3.7951690283
 10
6.4266904503
 20
-3.7970967641
 10
6.4515015254
 20
-3.8002820176
 10
6.4750643298
 20
-3.8046817382
 10
6.4969403894
 20
-3.8102243892
 10
6.5166891182
 20
-3.8168009744
 10
6.5339743799
 20
-3.8242953797
 10
6.5485039555
 20
-3.8325761429
 10
6.560007071
 20
-3.8414737225
 10
6.568313151
 20
-3.8508210565
 10
6.5733272241
 20
-3.8604630253
 10
6.575
 20
-3.8702345609
  0
LWPOLYLINE
  5
460
100
AcDbEntity
  8
IMPORT_IGES
100
AcDbPolyline
 62
253
  6
CONTINUOUS
 90
13
 70
0
 10
-8.375
 20
-4.1688807149
 10
-8.4141578577
 20
-4.167823413
 10
-8.4526457135
 20
-4.164669598
 10
-8.4898050297
 20
-4.1594732327
 10
-8.525
 20
-4.1523232282
 10
-8.5576284287
 20
-4.1433419231
 10
-8.5871320344
 20
-4.13268299
 10
-8.6130060021
 20
-4.1205288063
 10
-8.6348076211
 20
-4.1070873333
 10
-8.6521638598
 20
-4.0925885584
 10
-8.6647777479
 20
-4.0772805597
 10
-8.6724334584
 20
-4.0614252613
 10
-8.675
 20
-4.0452939517
  0
LWPOLYLINE
  5
461
100
AcDbEntity
  8
IMPORT_IGES
100
AcDbPolyline
 62
253
  6
CONTINUOUS
 90
13
 70
0
 10
-6.225
 20
-4.1688807149
 10
-6.2511052384
 20
-4.168175847
 10
-6.276763809
 20
-4.1660733037
 10
-6.3015366865
 20
-4.1626090601
 10
-6.325
 20
-4.1578423904
 10
-6.3467522858
 20
-4.1518548537
 10
-6.3664213562
 20
-4.1447488983
 10
-6.3836706681
 20
-4.1366461091
 10
-6.3982050808
 20
-4.1276851272
 10
-6.4097759065
 20
-4.1180192772
 10
-6.4181851653
 20
-4.1078139448
 10
-6.4232889723
 20
-4.0972437458
 10
-6.425
 20
-4.0864895394
  0
LWPOLYLINE
  5
462
100
AcDbEntity
  8
IMPORT_IGES
100
AcDbPolyline
 62
253
  6
CONTINUOUS
 90
13
 70
0
 10
6.775
 20
-4.1688807149
 10
6.7488947616
 20
-4.168175847
 10
6.723236191
 20
-4.1660733037
 10
6.6984633135
 20
-4.1626090601
 10
6.675
 20
-4.1578423904
 10
6.6532477142
 20
-4.1518548537
 10
6.6335786438
 20
-4.1447488983
 10
6.6163293319
 20
-4.1366461091
 10
6.6017949192
 20
-4.1276851272
 10
6.5902240935
 20
-4.1180192772
 10
6.5818148347
 20
-4.1078139448
 10
6.5767110277
 20
-4.0972437458
 10
6.575
 20
-4.0864895394
  0
LWPOLYLINE
  5
463
100
AcDbEntity
  8
IMPORT_IGES
100
AcDbPolyline
 62
253
  6
CONTINUOUS
 90
10
 70
0
 10
-5.775
 20
-4.1688807149
 10
-5.7576351822
 20
-4.1695065684
 10
-5.7407979857
 20
-4.1713651128
 10
-5.725
 20
-4.1743998771
 10
-5.710721239
 20
-4.1785186516
 10
-5.6983955557
 20
-4.1835962892
 10
-5.6883974596
 20
-4.1894785087
 10
-5.6810307379
 20
-4.1959865818
 10
-5.6765192247
 20
-4.2029227639
 10
-5.675
 20
-4.2100763026
  0
LINE
  5
464
100
AcDbEntity
  8
DRAFT
100
AcDbLine
 62
7
  6
CONTINUOUS
 10
-10.1696499221
 20
-0.5
 11
-10.325
 21
-0.4223308767
  0
LWPOLYLINE
  5
465
100
AcDbEntity
  8
IMPORT_IGES
100
AcDbPolyline
 62
253
  6
CONTINUOUS
 90
10
 70
0
 10
6.5722615102
 20
-8.4468308582
 10
6.6003071965
 20
-8.4629193711
 10
6.6265192842
 20
-8.4812809903
 10
6.6499906294
 20
-8.5014924661
 10
6.6706576961
 20
-8.5232677076
 10
6.6885840204
 20
-8.5468928057
 10
6.7030530665
 20
-8.5728027826
 10
6.7138259891
 20
-8.6011426459
 10
6.7211416337
 20
-8.6317673881
 10
6.725
 20
-8.6646770093
  0
LWPOLYLINE
  5
466
100
AcDbEntity
  8
IMPORT_IGES
100
AcDbPolyline
 62
253
  6
CONTINUOUS
 90
10
 70
0
 10
7.025
 20
-10.036927121
 10
7.0435985184
 20
-10.0476316574
 10
7.0620475877
 20
-10.0563249369
 10
7.0801989596
 20
-10.0629371042
 10
7.0979067781
 20
-10.0674150271
 10
7.1150287513
 20
-10.069722723
 10
7.1314272948
 20
-10.0698416483
 10
7.1469706376
 20
-10.0677708474
 10
7.1615338805
 20
-10.0635269603
 10
7.175
 20
-10.057144089
  0
LINE
  5
467
100
AcDbEntity
  8
RACCORDO
100
AcDbLine
 62
253
  6
CONTINUOUS
 10
6.825
 20
-13.4000190385
 11
6.7351132618
 21
-13.3101323002
  0
LINE
  5
468
100
AcDbEntity
  8
DRAFT
100
AcDbLine
 62
7
  6
CONTINUOUS
 10
6.825
 20
-12.5
 11
6.7351132618
 21
-12.4101132618
  0
LWPOLYLINE
  5
469
100
AcDbEntity
  8
IMPORT_IGES
100
AcDbPolyline
 62
253
  6
CONTINUOUS
 90
10
 70
0
 10
-5.6790502491
 20
-1.1215789041
 10
-5.6840361743
 20
-1.1160712115
 10
-5.690873901
 20
-1.1109120037
 10
-5.6994242398
 20
-1.1062063038
 10
-5.7095131417
 20
-1.102049945
 10
-5.7209352236
 20
-1.098527504
 10
-5.7334579411
 20
-1.0957105752
 10
-5.7468263522
 20
-1.0936564654
 10
-5.7607683139
 20
-1.0924070309
 10
-5.775
 20
-1.0919877073
  0
LINE
  5
46A
100
AcDbEntity
  8
IMPORT_IGES
100
AcDbLine
 62
7
  6
CONTINUOUS
 10
-2.9899894889
 20
-1.9674304304
 11
-2.7570257721
 21
-2.273970631
  0
LINE
  5
46B
100
AcDbEntity
  8
IMPORT_IGES
100
AcDbLine
 62
7
  6
CONTINUOUS
 10
-3.5482612942
 20
-1.5506060195
 11
-3.3672246734
 21
-1.8904070346
  0
LWPOLYLINE
  5
46C
100
AcDbEntity
  8
IMPORT_IGES
100
AcDbPolyline
 62
253
  6
CONTINUOUS
 90
5
 70
0
 10
-4.273529938
 20
-1.05
 10
-4.2727801889
 20
-1.0516618601
 10
-4.2708253994
 20
-1.0566015689
 10
-4.2676655697
 20
-1.0647105412
 10
-4.2632537461
 20
-1.0757760904
  0
LINE
  5
46D
100
AcDbEntity
  8
IMPORT_IGES
100
AcDbLine
 62
253
  6
CONTINUOUS
 10
-4.2431546629
 20
-1.1254709539
 11
-4.2246684864
 21
-1.1706494723
  0
LWPOLYLINE
  5
46E
100
AcDbEntity
  8
IMPORT_IGES
100
AcDbPolyline
 62
253
  6
CONTINUOUS
 90
4
 70
0
 10
-4.2246684864
 20
-1.1706494723
 10
-4.2143951047
 20
-1.195975375
 10
-4.2033662575
 20
-1.2225799783
 10
-4.1915819448
 20
-1.2499972933
  0
LINE
  5
46F
100
AcDbEntity
  8
IMPORT_IGES
100
AcDbLine
 62
253
  6
CONTINUOUS
 10
-4.2632537461
 20
-1.0757760904
 11
-4.2431546629
 21
-1.1254709539
  0
LINE
  5
470
100
AcDbEntity
  8
IMPORT_IGES
100
AcDbLine
 62
7
  6
CONTINUOUS
 10
-4.0328266781
 20
-1.05
 11
-3.9083612006
 21
-1.4143450738
  0
LINE
  5
471
100
AcDbEntity
  8
IMPORT_IGES
100
AcDbLine
 62
253
  6
CONTINUOUS
 10
-4.5964927418
 20
-1.25
 11
-4.6597550219
 21
-1.0602689168
  0
LINE
  5
472
100
AcDbEntity
  8
0
100
AcDbLine
 62
7
  6
CONTINUOUS
 10
-3.3508720685
 20
-11.2500290004
 11
-3.3508720685
 21
-11.3500290004
  0
LINE
  5
473
100
AcDbEntity
  8
0
100
AcDbLine
 62
7
  6
CONTINUOUS
 10
-3.315854292
 20
-11.2500290004
 11
-3.315854292
 21
-11.3500290004
  0
LINE
  5
474
100
AcDbEntity
  8
IMPORT_IGES
100
AcDbLine
 62
253
  6
CONTINUOUS
 10
-3.2798535023
 20
3.819677567
 11
-3.2798535023
 21
3.5714285714
  0
LINE
  5
475
100
AcDbEntity
  8
0
100
AcDbLine
 62
253
  6
CONTINUOUS
 10
-2.9708006192
 20
-11.2500290004
 11
-2.9708006192
 21
-11.3500290004
  0
LINE
  5
476
100
AcDbEntity
  8
0
100
AcDbLine
 62
253
  6
CONTINUOUS
 10
-2.8922242017
 20
-11.2500290004
 11
-2.8922242017
 21
-11.3500290004
  0
LINE
  5
477
100
AcDbEntity
  8
0
100
AcDbLine
 62
7
  6
CONTINUOUS
 10
-2.8076690961
 20
-11.2500290004
 11
-2.8076690961
 21
-11.3500290004
  0
LINE
  5
478
100
AcDbEntity
  8
0
100
AcDbLine
 62
7
  6
CONTINUOUS
 10
-2.7641100217
 20
-11.2500290004
 11
-2.7641100217
 21
-11.3500290004
  0
LINE
  5
479
100
AcDbEntity
  8
0
100
AcDbLine
 62
253
  6
CONTINUOUS
 10
-2.6746432454
 20
-11.2500290004
 11
-2.6746432454
 21
-11.3500290004
  0
LINE
  5
47A
100
AcDbEntity
  8
0
100
AcDbLine
 62
253
  6
CONTINUOUS
 10
-2.5864588071
 20
-11.2500290004
 11
-2.5864588071
 21
-11.3500290004
  0
LINE
  5
47B
100
AcDbEntity
  8
IMPORT_IGES
100
AcDbLine
 62
253
  6
CONTINUOUS
 10
-2.379853018
 20
3.5714285714
 11
-2.379852833
 21
4.3123227089
  0
LINE
  5
47C
100
AcDbEntity
  8
0
100
AcDbLine
 62
7
  6
CONTINUOUS
 10
-2.2687364865
 20
-11.2500290004
 11
-2.2687364865
 21
-11.3500290004
  0
LINE
  5
47D
100
AcDbEntity
  8
0
100
AcDbLine
 62
7
  6
CONTINUOUS
 10
-2.23371871
 20
-11.2500290004
 11
-2.23371871
 21
-11.3500290004
  0
LINE
  5
47E
100
AcDbEntity
  8
IMPORT_IGES
100
AcDbLine
 62
7
  6
CONTINUOUS
 10
-2.0798535023
 20
3.5761904762
 11
-2.0798535023
 21
4.4228020442
  0
LINE
  5
47F
100
AcDbEntity
  8
0
100
AcDbLine
 62
7
  6
CONTINUOUS
 10
-1.9672418881
 20
-11.2500290004
 11
-1.9672418881
 21
-11.3500290004
  0
LINE
  5
480
100
AcDbEntity
  8
IMPORT_IGES
100
AcDbLine
 62
7
  6
CONTINUOUS
 10
-1.7798535023
 20
4.3372234626
 11
-1.7798535023
 21
4.5099861502
  0
LINE
  5
481
100
AcDbEntity
  8
0
100
AcDbLine
 62
7
  6
CONTINUOUS
 10
-1.7058897305
 20
-11.2500290004
 11
-1.7058897305
 21
-11.3500290004
  0
LINE
  5
482
100
AcDbEntity
  8
0
100
AcDbLine
 62
7
  6
CONTINUOUS
 10
-1.670871954
 20
-11.2500290004
 11
-1.670871954
 21
-11.3500290004
  0
LINE
  5
483
100
AcDbEntity
  8
RACCORDO
100
AcDbLine
 62
253
  6
CONTINUOUS
 10
-10.2621617663
 20
-20.2111031425
 11
-10.325
 21
-20.3997711479
  0
LINE
  5
484
100
AcDbEntity
  8
RACCORDO
100
AcDbLine
 62
253
  6
CONTINUOUS
 10
-9.762542366
 20
-20.7113319946
 11
-9.8253805997
 21
-20.9
  0
LINE
  5
485
100
AcDbEntity
  8
IMPORT_IGES
100
AcDbLine
 62
253
  6
CONTINUOUS
 10
6.4249996518
 20
10.5723306183
 11
6.4939113599
 21
10.6409670878
  0
LINE
  5
486
100
AcDbEntity
  8
IMPORT_IGES
100
AcDbLine
 62
253
  6
CONTINUOUS
 10
6.2745065189
 20
10.7220968469
 11
6.372679592
 21
10.8198767044
  0
LINE
  5
487
100
AcDbEntity
  8
IMPORT_IGES
100
AcDbLine
 62
253
  6
CONTINUOUS
 10
6.4939113599
 20
10.6409670878
 11
6.5352599111
 21
10.6817894147
  0
LWPOLYLINE
  5
488
100
AcDbEntity
  8
IMPORT_IGES
100
AcDbPolyline
 62
253
  6
CONTINUOUS
 90
5
 70
0
 10
6.372679592
 20
10.8198767044
 10
6.4043041662
 20
10.8510522627
 10
6.4106977132
 20
10.8572686296
 10
6.4145867764
 20
10.8609744875
 10
6.415928132
 20
10.8621319446
  0
LWPOLYLINE
  5
489
100
AcDbEntity
  8
IMPORT_IGES
100
AcDbPolyline
 62
253
  6
CONTINUOUS
 90
5
 70
0
 10
6.5352599111
 20
10.6817894147
 10
6.5545501893
 20
10.7006021569
 10
6.5610289685
 20
10.7068110373
 10
6.5650129834
 20
10.7105148218
 10
6.5664279598
 20
10.7116470064
  0
LINE
  5
48A
100
AcDbEntity
  8
IMPORT_IGES
100
AcDbLine
 62
253
  6
CONTINUOUS
 10
-4.1151327211
 20
-1.1855344945
 11
-4.1915849178
 21
-1.2499942624
  0
LINE
  5
48B
100
AcDbEntity
  8
IMPORT_IGES
100
AcDbLine
 62
253
  6
CONTINUOUS
 10
-5.7220827584
 20
-1.8209477701
 11
-5.5582882475
 21
-1.7061812323
  0
LWPOLYLINE
  5
48C
100
AcDbEntity
  8
IMPORT_IGES
100
AcDbPolyline
 62
7
  6
CONTINUOUS
 90
3
 70
0
 10
-5.9405684525
 20
-0.1351142761
 10
-5.9575159359
 20
-0.1448184262
 10
-5.975
 20
-0.155
  0
LINE
  5
48D
100
AcDbEntity
  8
DRAFT
100
AcDbLine
 62
7
  6
CONTINUOUS
 10
8.8196499221
 20
7.9
 11
8.975
 21
7.9776691233
  0
LWPOLYLINE
  5
48E
100
AcDbEntity
  8
IMPORT_IGES
100
AcDbPolyline
 62
253
  6
CONTINUOUS
 90
16
 70
0
 10
6.4285898843
 20
4.5286061049
 10
6.4433725351
 20
4.5331992993
 10
6.4586204689
 20
4.5410597733
 10
6.4742295304
 20
4.552187527
 10
6.4904764822
 20
4.5669744702
 10
6.5067917961
 20
4.585028693
 10
6.5218858581
 20
4.6051744664
 10
6.5354978018
 20
4.6275096127
 10
6.5478790907
 20
4.6519363097
 10
6.5587155886
 20
4.676985361
 10
6.5680013596
 20
4.7022379704
 10
6.5759602001
 20
4.7281129342
 10
6.5826995049
 20
4.7543974446
 10
6.5884139672
 20
4.7808457266
 10
6.5931298197
 20
4.8077035551
 10
6.5967366687
 20
4.8354954478
  0
LINE
  5
48F
100
AcDbEntity
  8
IMPORT_IGES
100
AcDbLine
 62
7
  6
CONTINUOUS
 10
1.6399894889
 20
-1.9674304304
 11
2.0172246734
 21
-1.8904070346
  0
LINE
  5
490
100
AcDbEntity
  8
IMPORT_IGES
100
AcDbLine
 62
7
  6
CONTINUOUS
 10
-2.0934176423
 20
-2.5551964863
 11
-1.711134335
 21
-2.5093875257
  0
LINE
  5
491
100
AcDbEntity
  8
IMPORT_IGES
100
AcDbLine
 62
7
  6
CONTINUOUS
 10
1.0223323464
 20
-2.2897806318
 11
1.4070257721
 21
-2.273970631
  0
LINE
  5
492
100
AcDbEntity
  8
IMPORT_IGES
100
AcDbLine
 62
7
  6
CONTINUOUS
 10
3.575
 20
-3.2748826008
 11
3.7850197012
 21
-3.2748673252
  0
LINE
  5
493
100
AcDbEntity
  8
IMPORT_IGES
100
AcDbLine
 62
7
  6
CONTINUOUS
 10
-4.925
 20
-3.2748322592
 11
-5.1350337454
 21
-3.2748324978
  0
LINE
  5
494
100
AcDbEntity
  8
IMPORT_IGES
100
AcDbLine
 62
253
  6
CONTINUOUS
 10
4.0249999999
 20
-3.0795167894
 11
3.825
 21
-3.0795167894
  0
LINE
  5
495
100
AcDbEntity
  8
IMPORT_IGES
100
AcDbLine
 62
253
  6
CONTINUOUS
 10
-5.175
 20
-3.0795167894
 11
-5.3749999999
 21
-3.0795167894
  0
LINE
  5
496
100
AcDbEntity
  8
IMPORT_IGES
100
AcDbLine
 62
7
  6
CONTINUOUS
 10
-5.175
 20
-3.0748344625
 11
-4.925
 21
-3.0748344626
  0
LINE
  5
497
100
AcDbEntity
  8
IMPORT_IGES
100
AcDbLine
 62
7
  6
CONTINUOUS
 10
3.825
 20
-3.0748344624
 11
3.575
 21
-3.0748344624
  0
LINE
  5
498
100
AcDbEntity
  8
IMPORT_IGES
100
AcDbLine
 62
7
  6
CONTINUOUS
 10
-8.925
 20
-2.5656164976
 11
-8.675
 21
-2.5656164976
  0
LINE
  5
499
100
AcDbEntity
  8
IMPORT_IGES
100
AcDbLine
 62
7
  6
CONTINUOUS
 10
7.575
 20
-2.5656164976
 11
7.325
 21
-2.5656164976
  0
LINE
  5
49A
100
AcDbEntity
  8
IMPORT_IGES
100
AcDbLine
 62
7
  6
CONTINUOUS
 10
-2.7570257721
 20
-2.273970631
 11
-2.3723323464
 21
-2.2897806318
  0
LINE
  5
49B
100
AcDbEntity
  8
IMPORT_IGES
100
AcDbLine
 62
7
  6
CONTINUOUS
 10
0.361134335
 20
-2.5093875257
 11
0.7434176423
 21
-2.5551964863
  0
LINE
  5
49C
100
AcDbEntity
  8
IMPORT_IGES
100
AcDbLine
 62
7
  6
CONTINUOUS
 10
-3.3672246734
 20
-1.8904070346
 11
-2.9899894889
 21
-1.9674304304
  0
LINE
  5
49D
100
AcDbEntity
  8
IMPORT_IGES
100
AcDbLine
 62
7
  6
CONTINUOUS
 10
-0.3266431434
 20
-2.6206176395
 11
0.0434235115
 21
-2.7268704458
  0
LINE
  5
49E
100
AcDbEntity
  8
IMPORT_IGES
100
AcDbLine
 62
7
  6
CONTINUOUS
 10
-3.9083612006
 20
-1.4143450738
 11
-3.5482612942
 21
-1.5506060195
  0
LINE
  5
49F
100
AcDbEntity
  8
IMPORT_IGES
100
AcDbLine
 62
7
  6
CONTINUOUS
 10
-1.0233568566
 20
-2.6206176395
 11
-0.675
 21
-2.7845886382
  0
LINE
  5
4A0
100
AcDbEntity
  8
DRAFT
100
AcDbLine
 62
7
  6
CONTINUOUS
 10
8.8196499221
 20
-7.2
 11
8.975
 21
-7.2776691233
  0
LINE
  5
4A1
100
AcDbEntity
  8
IMPORT_IGES
100
AcDbLine
 62
7
  6
CONTINUOUS
 10
-1.711134335
 20
-2.5093875257
 11
-1.3934235115
 21
-2.7268704458
  0
LINE
  5
4A2
100
AcDbEntity
  8
IMPORT_IGES
100
AcDbLine
 62
7
  6
CONTINUOUS
 10
-2.3723323464
 20
-2.2897806318
 11
-2.0934176423
 21
-2.5551964863
  0
LWPOLYLINE
  5
4A3
100
AcDbEntity
  8
IMPORT_IGES
100
AcDbPolyline
 62
253
  6
CONTINUOUS
 90
5
 70
0
 10
6.4500009543
 20
-10.4757224831
 10
6.4491726039
 20
-10.4747461611
 10
6.4471030342
 20
-10.4716115299
 10
6.4438331197
 20
-10.4663819122
 10
6.4394264427
 20
-10.4591600472
  0
LINE
  5
4A4
100
AcDbEntity
  8
RACCORDO
100
AcDbLine
 62
253
  6
CONTINUOUS
 10
-10.325
 20
20.3997711479
 11
-10.1696499221
 21
19.9333419123
  0
LINE
  5
4A5
100
AcDbEntity
  8
RACCORDO
100
AcDbLine
 62
253
  6
CONTINUOUS
 10
-9.8253805997
 20
20.9
 11
-9.6700305219
 21
20.4335707644
  0
LINE
  5
4A6
100
AcDbEntity
  8
0
100
AcDbLine
 62
253
  6
CONTINUOUS
 10
-1.3258185674
 20
-11.2500290004
 11
-1.3258185674
 21
-11.3500290004
  0
LINE
  5
4A7
100
AcDbEntity
  8
IMPORT_IGES
100
AcDbLine
 62
7
  6
CONTINUOUS
 10
-1.275
 20
3.85
 11
-1.275
 21
4.6096186278
  0
LINE
  5
4A8
100
AcDbEntity
  8
0
100
AcDbLine
 62
253
  6
CONTINUOUS
 10
-1.2472419243
 20
-11.2500290004
 11
-1.2472419243
 21
-11.3500290004
  0
LINE
  5
4A9
100
AcDbEntity
  8
0
100
AcDbLine
 62
7
  6
CONTINUOUS
 10
-1.1626867581
 20
-11.2500290004
 11
-1.1626867581
 21
-11.3500290004
  0
LINE
  5
4AA
100
AcDbEntity
  8
0
100
AcDbLine
 62
7
  6
CONTINUOUS
 10
-1.1071708966
 20
-11.2500290004
 11
-1.1071708966
 21
-11.3500290004
  0
LINE
  5
4AB
100
AcDbEntity
  8
0
100
AcDbLine
 62
253
  6
CONTINUOUS
 10
-0.983327469
 20
-11.2500290004
 11
-0.983327469
 21
-11.3500290004
  0
LINE
  5
4AC
100
AcDbEntity
  8
0
100
AcDbLine
 62
253
  6
CONTINUOUS
 10
-0.8902312566
 20
-11.2500290004
 11
-0.8902312566
 21
-11.3500290004
  0
LINE
  5
4AD
100
AcDbEntity
  8
0
100
AcDbLine
 62
7
  6
CONTINUOUS
 10
-0.764679556
 20
-11.2500290004
 11
-0.764679556
 21
-11.3500290004
  0
LINE
  5
4AE
100
AcDbEntity
  8
0
100
AcDbLine
 62
7
  6
CONTINUOUS
 10
-0.2744306851
 20
-11.2500290004
 11
-0.2744306851
 21
-11.3500290004
  0
LINE
  5
4AF
100
AcDbEntity
  8
0
100
AcDbLine
 62
253
  6
CONTINUOUS
 10
-0.1232562352
 20
-11.2500290004
 11
-0.1232562352
 21
-11.3500290004
  0
LINE
  5
4B0
100
AcDbEntity
  8
IMPORT_IGES
100
AcDbLine
 62
7
  6
CONTINUOUS
 10
-0.075
 20
4.6096186278
 11
-0.075
 21
3.85
  0
LINE
  5
4B1
100
AcDbEntity
  8
0
100
AcDbLine
 62
253
  6
CONTINUOUS
 10
-0.0344306458
 20
-11.2500290004
 11
-0.0344306458
 21
-11.3500290004
  0
LINE
  5
4B2
100
AcDbEntity
  8
0
100
AcDbLine
 62
7
  6
CONTINUOUS
 10
0.0680606555
 20
-11.2500290004
 11
0.0680606555
 21
-11.3500290004
  0
LINE
  5
4B3
100
AcDbEntity
  8
0
100
AcDbLine
 62
7
  6
CONTINUOUS
 10
0.1118476528
 20
-11.3500290004
 11
0.1118476528
 21
-11.2500290004
  0
LINE
  5
4B4
100
AcDbEntity
  8
0
100
AcDbLine
 62
7
  6
CONTINUOUS
 10
0.1327819983
 20
-11.2500290004
 11
0.1327819983
 21
-11.3500290004
  0
LINE
  5
4B5
100
AcDbEntity
  8
0
100
AcDbLine
 62
7
  6
CONTINUOUS
 10
0.1456800276
 20
-11.2500290004
 11
0.1456800276
 21
-11.3500290004
  0
LINE
  5
4B6
100
AcDbEntity
  8
0
100
AcDbLine
 62
7
  6
CONTINUOUS
 10
0.1509075832
 20
-11.2500290004
 11
0.1509075832
 21
-11.3500290004
  0
LWPOLYLINE
  5
4B7
100
AcDbEntity
  8
ASSI
100
AcDbPolyline
 62
7
  6
CONTINUOUS
 90
17
 70
0
 10
-5.0309327327
 20
-23.7507734247
 10
-5.0305072846
 20
-23.7479907344
 10
-5.0294117387
 20
-23.7445445202
 10
-5.027627049
 20
-23.7404347823
 10
-5.0251336376
 20
-23.7356747975
 10
-5.0219153347
 20
-23.7302512888
 10
-5.0179632158
 20
-23.7241244261
 10
-5.0132668343
 20
-23.7172868866
 10
-5.0078161451
 20
-23.709745993
 10
-5.0016108951
 20
-23.7014838836
 10
-4.9946635086
 20
-23.6925202225
 10
-4.9869585062
 20
-23.6828353457
 10
-4.9784472137
 20
-23.6723523989
 10
-4.9691144665
 20
-23.6610710839
 10
-4.9589567081
 20
-23.6489916989
 10
-4.9479264894
 20
-23.6360382845
 10
-4.9360120715
 20
-23.6222095469
  0
LWPOLYLINE
  5
4B8
100
AcDbEntity
  8
ASSI
100
AcDbPolyline
 62
7
  6
CONTINUOUS
 90
17
 70
0
 10
3.6809327327
 20
23.7507734247
 10
3.6805058115
 20
23.7479814955
 10
3.6794077005
 20
23.7445314173
 10
3.6776214372
 20
23.7404231902
 10
3.675130014
 20
23.7356694746
 10
3.6719191573
 20
23.73025761
 10
3.6679800271
 20
23.7241496156
 10
3.6633040725
 20
23.7173410493
 10
3.657881764
 20
23.7098363532
 10
3.6517078213
 20
23.7016108734
 10
3.6447926931
 20
23.6926849926
 10
3.6371207612
 20
23.6830383283
 10
3.6286380254
 20
23.672585078
 10
3.6193239331
 20
23.6613209741
 10
3.609175878
 20
23.6492502843
 10
3.5981507556
 20
23.6363000104
 10
3.5862377117
 20
23.6224696064
  0
LINE
  5
4B9
100
AcDbEntity
  8
IMPORT_IGES
100
AcDbLine
 62
253
  6
CONTINUOUS
 10
-7.7533523538
 20
-10.3981806036
 11
-7.7250102672
 21
-10.3493572425
  0
LINE
  5
4BA
100
AcDbEntity
  8
IMPORT_IGES
100
AcDbLine
 62
253
  6
CONTINUOUS
 10
-6.9731434405
 20
-10.7834477573
 11
-7.0014957681
 21
-10.8322652058
  0
LINE
  5
4BB
100
AcDbEntity
  8
IMPORT_IGES
100
AcDbLine
 62
253
  6
CONTINUOUS
 10
-7.7701572171
 20
-10.4268209298
 11
-7.7533523538
 21
-10.3981806036
  0
LINE
  5
4BC
100
AcDbEntity
  8
IMPORT_IGES
100
AcDbLine
 62
253
  6
CONTINUOUS
 10
-7.0014957681
 20
-10.8322652058
 11
-7.0183010107
 21
-10.860905313
  0
LWPOLYLINE
  5
4BD
100
AcDbEntity
  8
IMPORT_IGES
100
AcDbPolyline
 62
253
  6
CONTINUOUS
 90
7
 70
0
 10
-7.0183010107
 20
-10.860905313
 10
-7.0321080512
 20
-10.8841673876
 10
-7.0375912236
 20
-10.8932820708
 10
-7.0420001791
 20
-10.9005069638
 10
-7.045261429
 20
-10.9057216421
 10
-7.047320615
 20
-10.9088391874
 10
-7.0481434143
 20
-10.9098076362
  0
LWPOLYLINE
  5
4BE
100
AcDbEntity
  8
IMPORT_IGES
100
AcDbPolyline
 62
253
  6
CONTINUOUS
 90
6
 70
0
 10
-5.7750020477
 20
-8.4119285297
 10
-5.7824754175
 20
-8.4227571702
 10
-5.7899927079
 20
-8.4311043457
 10
-5.7972790471
 20
-8.4365090082
 10
-5.8039792308
 20
-8.4387137177
 10
-5.8078780196
 20
-8.4384895557
  0
LINE
  5
4BF
100
AcDbEntity
  8
IMPORT_IGES
100
AcDbLine
 62
253
  6
CONTINUOUS
 10
-5.2417598447
 20
-3.4903492107
 11
-5.0798284605
 21
-3.3729685189
  0
LINE
  5
4C0
100
AcDbEntity
  8
IMPORT_IGES
100
AcDbLine
 62
253
  6
CONTINUOUS
 10
3.1477803983
 20
2.5243975826
 11
3.3176786373
 21
2.6299181424
  0
LINE
  5
4C1
100
AcDbEntity
  8
IMPORT_IGES
100
AcDbLine
 62
253
  6
CONTINUOUS
 10
4.0880648999
 20
3.2681942048
 11
4.2728302579
 21
3.3447563529
  0
LINE
  5
4C2
100
AcDbEntity
  8
IMPORT_IGES
100
AcDbLine
 62
7
  6
CONTINUOUS
 10
-5.5712844117
 20
-1.3642013384
 11
-4.6597550219
 21
-1.0602689168
  0
LINE
  5
4C3
100
AcDbEntity
  8
IMPORT_IGES
100
AcDbLine
 62
253
  6
CONTINUOUS
 10
-5.5080221321
 20
-1.5539324218
 11
-4.5964927418
 21
-1.25
  0
LINE
  5
4C4
100
AcDbEntity
  8
IMPORT_IGES
100
AcDbLine
 62
253
  6
CONTINUOUS
 10
-5.6790455186
 20
-1.1215771253
 11
-5.5351257809
 21
-1.1041693185
  0
LWPOLYLINE
  5
4C5
100
AcDbEntity
  8
IMPORT_IGES
100
AcDbPolyline
 62
7
  6
CONTINUOUS
 90
16
 70
0
 10
-5.7513932023
 20
-0.055
 10
-5.7589360695
 20
-0.0553349495
 10
-5.767016948
 20
-0.0563247153
 10
-5.775651324
 20
-0.0579692973
 10
-5.7848651947
 20
-0.0602806549
 10
-5.7946585077
 20
-0.0632468288
 10
-5.8050007723
 20
-0.066831941
 10
-5.8158641248
 20
-0.0710313156
 10
-5.8272777296
 20
-0.0758496286
 10
-5.8392929745
 20
-0.0812650298
 10
-5.8519089701
 20
-0.0872837558
 10
-5.8651180232
 20
-0.0938995699
 10
-5.8789625066
 20
-0.1010719124
 10
-5.8934236157
 20
-0.1088136314
 10
-5.9084883455
 20
-0.1171118786
 10
-5.9405684525
 20
-0.1351142761
  0
LWPOLYLINE
  5
4C6
100
AcDbEntity
  8
IMPORT_IGES
100
AcDbPolyline
 62
253
  6
CONTINUOUS
 90
10
 70
0
 10
4.425
 20
-1.0919877073
 10
4.4107685204
 20
-1.0924070187
 10
4.3968267526
 20
-1.093656417
 10
4.3834585104
 20
-1.0957104681
 10
4.3709359552
 20
-1.0985274814
 10
4.3595139833
 20
-1.1020499866
 10
4.3494250594
 20
-1.1062059141
 10
4.3408745761
 20
-1.1109105447
 10
4.3340366479
 20
-1.1160682188
 10
4.3290505098
 20
-1.1215739204
  0
LWPOLYLINE
  5
4C7
100
AcDbEntity
  8
IMPORT_IGES
100
AcDbPolyline
 62
253
  6
CONTINUOUS
 90
13
 70
0
 10
-8.125
 20
-1.0919877073
 10
-8.0988947616
 20
-1.0912828394
 10
-8.073236191
 20
-1.089180296
 10
-8.0484633135
 20
-1.0857160525
 10
-8.025
 20
-1.0809493828
 10
-8.0032477142
 20
-1.0749618461
 10
-7.9835786438
 20
-1.0678558907
 10
-7.9663293319
 20
-1.0597531015
 10
-7.9517949192
 20
-1.0507921195
 10
-7.9402240935
 20
-1.0411262696
 10
-7.9318148347
 20
-1.0309209372
 10
-7.9267110277
 20
-1.0203507382
 10
-7.925
 20
-1.0095965318
  0
LWPOLYLINE
  5
4C8
100
AcDbEntity
  8
IMPORT_IGES
100
AcDbPolyline
 62
253
  6
CONTINUOUS
 90
13
 70
0
 10
5.275
 20
0.0271578382
 10
5.2488947616
 20
0.0265101276
 10
5.223236191
 20
0.0245780784
 10
5.1984633135
 20
0.0213947484
 10
5.175
 20
0.0170146053
 10
5.1532477142
 20
0.0115125946
 10
5.1335786438
 20
0.0049828571
 10
5.1163293319
 20
-0.0024628814
 10
5.1017949192
 20
-0.0106972224
 10
5.0902240935
 20
-0.019579274
 10
5.0818148347
 20
-0.0289570618
 10
5.0767110277
 20
-0.0386701292
 10
5.075
 20
-0.0485522831
  0
LWPOLYLINE
  5
4C9
100
AcDbEntity
  8
IMPORT_IGES
100
AcDbPolyline
 62
253
  6
CONTINUOUS
 90
13
 70
0
 10
-7.725
 20
0.0271578382
 10
-7.7511052384
 20
0.0265101276
 10
-7.776763809
 20
0.0245780784
 10
-7.8015366865
 20
0.0213947484
 10
-7.825
 20
0.0170146053
 10
-7.8467522858
 20
0.0115125946
 10
-7.8664213562
 20
0.0049828571
 10
-7.8836706681
 20
-0.0024628814
 10
-7.8982050808
 20
-0.0106972224
 10
-7.9097759065
 20
-0.019579274
 10
-7.9181851653
 20
-0.0289570618
 10
-7.9232889723
 20
-0.0386701292
 10
-7.925
 20
-0.0485522831
  0
LINE
  5
4CA
100
AcDbEntity
  8
RACCORDO
100
AcDbLine
 62
7
  6
CONTINUOUS
 10
-9.8872871968
 20
-0.4118358927
 11
-10.325
 21
-0.4223308767
  0
LINE
  5
4CB
100
AcDbEntity
  8
RACCORDO
100
AcDbLine
 62
7
  6
CONTINUOUS
 10
8.975
 20
0.4223308767
 11
8.5372871968
 21
0.4118358927
  0
LINE
  5
4CC
100
AcDbEntity
  8
IMPORT_IGES
100
AcDbLine
 62
253
  6
CONTINUOUS
 10
-5.675
 20
-1.2751337748
 11
-5.5250000002
 21
-1.2751355899
  0
LINE
  5
4CD
100
AcDbEntity
  8
IMPORT_IGES
100
AcDbLine
 62
253
  6
CONTINUOUS
 10
4.175
 20
-1.2751337748
 11
4.325
 21
-1.2751337748
  0
LINE
  5
4CE
100
AcDbEntity
  8
IMPORT_IGES
100
AcDbLine
 62
253
  6
CONTINUOUS
 10
3.2464927418
 20
-1.2499986608
 11
2.8415848671
 21
-1.2499943225
  0
LINE
  5
4CF
100
AcDbEntity
  8
IMPORT_IGES
100
AcDbLine
 62
253
  6
CONTINUOUS
 10
-4.1915849178
 20
-1.2499942624
 11
-4.5964927418
 21
-1.25
  0
LINE
  5
4D0
100
AcDbEntity
  8
IMPORT_IGES
100
AcDbLine
 62
253
  6
CONTINUOUS
 10
-8.375
 20
-1.0919877074
 11
-8.125
 21
-1.0919877074
  0
LINE
  5
4D1
100
AcDbEntity
  8
IMPORT_IGES
100
AcDbLine
 62
253
  6
CONTINUOUS
 10
-6.225
 20
-1.0919877074
 11
-5.775
 21
-1.0919877073
  0
LINE
  5
4D2
100
AcDbEntity
  8
IMPORT_IGES
100
AcDbLine
 62
253
  6
CONTINUOUS
 10
4.425
 20
-1.0919877073
 11
4.875
 21
-1.0919877073
  0
LINE
  5
4D3
100
AcDbEntity
  8
IMPORT_IGES
100
AcDbLine
 62
253
  6
CONTINUOUS
 10
6.775
 20
-1.0919877074
 11
7.025
 21
-1.0919877073
  0
LINE
  5
4D4
100
AcDbEntity
  8
IMPORT_IGES
100
AcDbLine
 62
7
  6
CONTINUOUS
 10
2.6828266781
 20
-1.05
 11
3.2464927418
 21
-1.05
  0
LINE
  5
4D5
100
AcDbEntity
  8
IMPORT_IGES
100
AcDbLine
 62
7
  6
CONTINUOUS
 10
-4.0328266781
 20
-1.05
 11
-4.5964927418
 21
-1.05
  0
LINE
  5
4D6
100
AcDbEntity
  8
DRAFT
100
AcDbLine
 62
7
  6
CONTINUOUS
 10
-10.1696499221
 20
-0.5
 11
-8.925
 21
-0.5
  0
LINE
  5
4D7
100
AcDbEntity
  8
DRAFT
100
AcDbLine
 62
7
  6
CONTINUOUS
 10
8.8196499221
 20
-0.5
 11
7.575
 21
-0.5
  0
LINE
  5
4D8
100
AcDbEntity
  8
RACCORDO
100
AcDbLine
 62
7
  6
CONTINUOUS
 10
8.2553794106
 20
-0.4101132618
 11
7.575
 21
-0.4101132618
  0
LINE
  5
4D9
100
AcDbEntity
  8
RACCORDO
100
AcDbLine
 62
7
  6
CONTINUOUS
 10
-8.925
 20
-0.4101132618
 11
-9.6053794106
 21
-0.4101132618
  0
LINE
  5
4DA
100
AcDbEntity
  8
IMPORT_IGES
100
AcDbLine
 62
253
  6
CONTINUOUS
 10
-6.425
 20
-0.2710819832
 11
-5.775
 21
-0.2710819832
  0
LINE
  5
4DB
100
AcDbEntity
  8
IMPORT_IGES
100
AcDbLine
 62
253
  6
CONTINUOUS
 10
4.425
 20
-0.2710819831
 11
5.075
 21
-0.2710819832
  0
LINE
  5
4DC
100
AcDbEntity
  8
IMPORT_IGES
100
AcDbLine
 62
253
  6
CONTINUOUS
 10
6.575
 20
-0.2710819832
 11
7.325
 21
-0.2710819832
  0
LINE
  5
4DD
100
AcDbEntity
  8
IMPORT_IGES
100
AcDbLine
 62
253
  6
CONTINUOUS
 10
-7.925
 20
-0.2710819832
 11
-8.675
 21
-0.2710819832
  0
LINE
  5
4DE
100
AcDbEntity
  8
IMPORT_IGES
100
AcDbLine
 62
253
  6
CONTINUOUS
 10
3.825
 20
-0.155
 11
4.625
 21
-0.155
  0
LINE
  5
4DF
100
AcDbEntity
  8
IMPORT_IGES
100
AcDbLine
 62
253
  6
CONTINUOUS
 10
-5.175
 20
-0.155
 11
-5.975
 21
-0.155
  0
LINE
  5
4E0
100
AcDbEntity
  8
IMPORT_IGES
100
AcDbLine
 62
7
  6
CONTINUOUS
 10
3.925
 20
-0.055
 11
4.4013932023
 21
-0.055
  0
LINE
  5
4E1
100
AcDbEntity
  8
IMPORT_IGES
100
AcDbLine
 62
7
  6
CONTINUOUS
 10
-5.275
 20
-0.055
 11
-5.7513932022
 21
-0.055
  0
LINE
  5
4E2
100
AcDbEntity
  8
IMPORT_IGES
100
AcDbLine
 62
253
  6
CONTINUOUS
 10
6.375
 20
0.0271578382
 11
5.275
 21
0.0271578382
  0
LINE
  5
4E3
100
AcDbEntity
  8
IMPORT_IGES
100
AcDbLine
 62
253
  6
CONTINUOUS
 10
-6.625
 20
0.0271578382
 11
-7.725
 21
0.0271578382
  0
LINE
  5
4E4
100
AcDbEntity
  8
RACCORDO
100
AcDbLine
 62
7
  6
CONTINUOUS
 10
8.975
 20
-0.4223308767
 11
8.5372871968
 21
-0.4118358927
  0
LINE
  5
4E5
100
AcDbEntity
  8
RACCORDO
100
AcDbLine
 62
7
  6
CONTINUOUS
 10
-9.8872871968
 20
0.4118358927
 11
-10.325
 21
0.4223308767
  0
LWPOLYLINE
  5
4E6
100
AcDbEntity
  8
IMPORT_IGES
100
AcDbPolyline
 62
253
  6
CONTINUOUS
 90
13
 70
0
 10
-6.625
 20
0.0271578382
 10
-6.5988947616
 20
0.0265101276
 10
-6.573236191
 20
0.0245780784
 10
-6.5484633135
 20
0.0213947484
 10
-6.525
 20
0.0170146053
 10
-6.5032477142
 20
0.0115125946
 10
-6.4835786438
 20
0.0049828571
 10
-6.4663293319
 20
-0.0024628814
 10
-6.4517949192
 20
-0.0106972224
 10
-6.4402240935
 20
-0.019579274
 10
-6.4318148347
 20
-0.0289570618
 10
-6.4267110277
 20
-0.0386701292
 10
-6.425
 20
-0.0485522831
  0
LWPOLYLINE
  5
4E7
100
AcDbEntity
  8
IMPORT_IGES
100
AcDbPolyline
 62
253
  6
CONTINUOUS
 90
13
 70
0
 10
6.375
 20
0.0271578382
 10
6.4011052384
 20
0.0265101276
 10
6.426763809
 20
0.0245780784
 10
6.4515366865
 20
0.0213947484
 10
6.475
 20
0.0170146053
 10
6.4967522858
 20
0.0115125946
 10
6.5164213562
 20
0.0049828571
 10
6.5336706681
 20
-0.0024628814
 10
6.5482050808
 20
-0.0106972224
 10
6.5597759065
 20
-0.019579274
 10
6.5681851653
 20
-0.0289570618
 10
6.5732889723
 20
-0.0386701292
 10
6.575
 20
-0.0485522831
  0
LWPOLYLINE
  5
4E8
100
AcDbEntity
  8
IMPORT_IGES
100
AcDbPolyline
 62
253
  6
CONTINUOUS
 90
13
 70
0
 10
-8.375
 20
-1.0919877073
 10
-8.4141578577
 20
-1.0909304054
 10
-8.4526457135
 20
-1.0877765904
 10
-8.4898050297
 20
-1.0825802251
 10
-8.525
 20
-1.0754302206
 10
-8.5576284287
 20
-1.0664489155
 10
-8.5871320344
 20
-1.0557899824
 10
-8.6130060021
 20
-1.0436357986
 10
-8.6348076211
 20
-1.0301943257
 10
-8.6521638598
 20
-1.0156955508
 10
-8.6647777479
 20
-1.0003875521
 10
-8.6724334584
 20
-0.9845322537
 10
-8.675
 20
-0.9684009441
  0
LWPOLYLINE
  5
4E9
100
AcDbEntity
  8
IMPORT_IGES
100
AcDbPolyline
 62
253
  6
CONTINUOUS
 90
13
 70
0
 10
6.775
 20
-1.0919877073
 10
6.7488947616
 20
-1.0912828393
 10
6.723236191
 20
-1.089180296
 10
6.6984633135
 20
-1.0857160525
 10
6.675
 20
-1.0809493828
 10
6.6532477142
 20
-1.0749618461
 10
6.6335786438
 20
-1.0678558907
 10
6.6163293319
 20
-1.0597531015
 10
6.6017949192
 20
-1.0507921195
 10
6.5902240935
 20
-1.0411262696
 10
6.5818148347
 20
-1.0309209372
 10
6.5767110277
 20
-1.0203507382
 10
6.575
 20
-1.0095965318
  0
LINE
  5
4EA
100
AcDbEntity
  8
IMPORT_IGES
100
AcDbLine
 62
253
  6
CONTINUOUS
 10
4.3290507981
 20
-1.1215680766
 11
4.1851258458
 21
-1.1041686648
  0
LINE
  5
4EB
100
AcDbEntity
  8
IMPORT_IGES
100
AcDbLine
 62
7
  6
CONTINUOUS
 10
3.2464927418
 20
-1.05
 11
3.3097550219
 21
-1.0602689168
  0
LINE
  5
4EC
100
AcDbEntity
  8
IMPORT_IGES
100
AcDbLine
 62
253
  6
CONTINUOUS
 10
3.2464927418
 20
-1.2499986608
 11
4.1580221321
 21
-1.5539324218
  0
LINE
  5
4ED
100
AcDbEntity
  8
IMPORT_IGES
100
AcDbLine
 62
7
  6
CONTINUOUS
 10
3.3097550218
 20
-1.0602689168
 11
4.221284412
 21
-1.3642013385
  0
LINE
  5
4EE
100
AcDbEntity
  8
IMPORT_IGES
100
AcDbLine
 62
253
  6
CONTINUOUS
 10
-4.4977804122
 20
2.5243975602
 11
-4.6676859638
 21
2.6299063447
  0
LINE
  5
4EF
100
AcDbEntity
  8
IMPORT_IGES
100
AcDbLine
 62
253
  6
CONTINUOUS
 10
3.8917598447
 20
-3.4903492107
 11
3.7298284605
 21
-3.3729685189
  0
LWPOLYLINE
  5
4F0
100
AcDbEntity
  8
IMPORT_IGES
100
AcDbPolyline
 62
253
  6
CONTINUOUS
 90
13
 70
0
 10
-4.3098166624
 20
3.1299131308
 10
-4.2907523964
 20
3.1130041132
 10
-4.270906648
 20
3.0969995206
 10
-4.2511761349
 20
3.0818804727
 10
-4.2328047216
 20
3.0672235172
 10
-4.2161990344
 20
3.0531591431
 10
-4.2008738494
 20
3.0406148986
 10
-4.1873240047
 20
3.0296770568
 10
-4.1761718317
 20
3.0201809853
 10
-4.1670405829
 20
3.012854117
 10
-4.1601149136
 20
3.0078525541
 10
-4.1560532527
 20
3.0046995419
 10
-4.1551436128
 20
3.0031209869
  0
LINE
  5
4F1
100
AcDbEntity
  8
DRAFT
100
AcDbLine
 62
7
  6
CONTINUOUS
 10
7.675
 20
-9.6
 11
7.6575462644
 21
-9.5825462644
  0
LWPOLYLINE
  5
4F2
100
AcDbEntity
  8
IMPORT_IGES
100
AcDbPolyline
 62
253
  6
CONTINUOUS
 90
6
 70
0
 10
4.4249988827
 20
-8.41192797
 10
4.4325069816
 20
-8.4227827584
 10
4.4398956755
 20
-8.4309846541
 10
4.4470091017
 20
-8.4363463898
 10
4.4536938931
 20
-8.4386775169
 10
4.4578024452
 20
-8.4384815
  0
LWPOLYLINE
  5
4F3
100
AcDbEntity
  8
IMPORT_IGES
100
AcDbPolyline
 62
253
  6
CONTINUOUS
 90
5
 70
0
 10
5.6870440221
 20
-10.8923774711
 10
5.6916453935
 20
-10.899930896
 10
5.6950784913
 20
-10.9054346006
 10
5.6972660057
 20
-10.9087614371
 10
5.6981434404
 20
-10.9098076212
  0
LWPOLYLINE
  5
4F4
100
AcDbEntity
  8
IMPORT_IGES
100
AcDbPolyline
 62
253
  6
CONTINUOUS
 90
3
 70
0
 10
6.4394264427
 20
-10.4591600472
 10
6.4275173544
 20
-10.4392596048
 10
6.4202040783
 20
-10.4268979157
  0
LINE
  5
4F5
100
AcDbEntity
  8
IMPORT_IGES
100
AcDbLine
 62
253
  6
CONTINUOUS
 10
5.6748038743
 20
-10.8719020147
 11
5.6870440221
 21
-10.8923774711
  0
LINE
  5
4F6
100
AcDbEntity
  8
IMPORT_IGES
100
AcDbLine
 62
253
  6
CONTINUOUS
 10
5.6595766305
 20
-10.8460706271
 11
5.6748038743
 21
-10.8719020147
  0
LWPOLYLINE
  5
4F7
100
AcDbEntity
  8
IMPORT_IGES
100
AcDbPolyline
 62
253
  6
CONTINUOUS
 90
3
 70
0
 10
5.6231434405
 20
-10.7834477573
 10
5.6326758429
 20
-10.7999204173
 10
5.6595766305
 20
-10.8460706271
  0
LINE
  5
4F8
100
AcDbEntity
  8
0
100
AcDbLine
 62
253
  6
CONTINUOUS
 10
0.2747509492
 20
-11.2500290004
 11
0.2747509492
 21
-11.3500290004
  0
LINE
  5
4F9
100
AcDbEntity
  8
0
100
AcDbLine
 62
253
  6
CONTINUOUS
 10
0.3678469371
 20
-11.2500290004
 11
0.3678469371
 21
-11.3500290004
  0
LINE
  5
4FA
100
AcDbEntity
  8
IMPORT_IGES
100
AcDbLine
 62
7
  6
CONTINUOUS
 10
0.4298535023
 20
4.3372234626
 11
0.4298535023
 21
4.5099861502
  0
LINE
  5
4FB
100
AcDbEntity
  8
0
100
AcDbLine
 62
7
  6
CONTINUOUS
 10
0.4933986377
 20
-11.2500290004
 11
0.4933986377
 21
-11.3500290004
  0
LINE
  5
4FC
100
AcDbEntity
  8
IMPORT_IGES
100
AcDbLine
 62
7
  6
CONTINUOUS
 10
0.7298535023
 20
3.5761904762
 11
0.7298535023
 21
4.4228020442
  0
LINE
  5
4FD
100
AcDbEntity
  8
0
100
AcDbLine
 62
7
  6
CONTINUOUS
 10
0.9836476516
 20
-11.2500290004
 11
0.9836476516
 21
-11.3500290004
  0
LINE
  5
4FE
100
AcDbEntity
  8
IMPORT_IGES
100
AcDbLine
 62
253
  6
CONTINUOUS
 10
1.029853015
 20
3.5714285714
 11
1.029853015
 21
4.3123226368
  0
LINE
  5
4FF
100
AcDbEntity
  8
0
100
AcDbLine
 62
253
  6
CONTINUOUS
 10
1.1348221015
 20
-11.2500290004
 11
1.1348221015
 21
-11.3500290004
  0
LINE
  5
500
100
AcDbEntity
  8
0
100
AcDbLine
 62
253
  6
CONTINUOUS
 10
1.2236476909
 20
-11.2500290004
 11
1.2236476909
 21
-11.3500290004
  0
LINE
  5
501
100
AcDbEntity
  8
0
100
AcDbLine
 62
7
  6
CONTINUOUS
 10
1.3261388492
 20
-11.2500290004
 11
1.3261388492
 21
-11.3500290004
  0
LINE
  5
502
100
AcDbEntity
  8
0
100
AcDbLine
 62
7
  6
CONTINUOUS
 10
1.4610854339
 20
-11.2500290004
 11
1.4610854339
 21
-11.3500290004
  0
LINE
  5
503
100
AcDbEntity
  8
0
100
AcDbLine
 62
7
  6
CONTINUOUS
 10
1.4824376773
 20
-11.2500290004
 11
1.4824376773
 21
-11.3500290004
  0
LINE
  5
504
100
AcDbEntity
  8
0
100
AcDbLine
 62
253
  6
CONTINUOUS
 10
1.6216548022
 20
-11.2500290004
 11
1.6216548022
 21
-11.3500290004
  0
LINE
  5
505
100
AcDbEntity
  8
IMPORT_IGES
100
AcDbLine
 62
253
  6
CONTINUOUS
 10
1.9298535023
 20
3.5714285714
 11
1.9298535023
 21
3.819677567
  0
LINE
  5
506
100
AcDbEntity
  8
0
100
AcDbLine
 62
253
  6
CONTINUOUS
 10
1.9658541393
 20
-11.2500290004
 11
1.9658541393
 21
-11.3500290004
  0
LINE
  5
507
100
AcDbEntity
  8
RACCORDO
100
AcDbLine
 62
253
  6
CONTINUOUS
 10
8.3200305219
 20
20.4335707644
 11
8.4753805997
 21
20.9
  0
LWPOLYLINE
  5
508
100
AcDbEntity
  8
IMPORT_IGES
100
AcDbPolyline
 62
253
  6
CONTINUOUS
 90
13
 70
0
 10
2.8051436128
 20
3.0031209869
 10
2.8060608294
 20
3.0047169869
 10
2.8101566872
 20
3.0078946223
 10
2.8171268085
 20
3.0129250162
 10
2.8262944735
 20
3.0202774409
 10
2.837464594
 20
3.0297892455
 10
2.851017746
 20
3.0407335954
 10
2.8663315758
 20
3.0532701259
 10
2.8829103127
 20
3.0673106384
 10
2.9012507542
 20
3.0819415864
 10
2.9209528956
 20
3.0970393491
 10
2.94077303
 20
3.1130231801
 10
2.9598166624
 20
3.1299131308
  0
LWPOLYLINE
  5
509
100
AcDbEntity
  8
IMPORT_IGES
100
AcDbPolyline
 62
253
  6
CONTINUOUS
 90
7
 70
0
 10
-7.8
 20
-10.4757230341
 10
-7.7991772007
 20
-10.4747545852
 10
-7.7971180147
 20
-10.47163704
 10
-7.7938567648
 20
-10.4664223617
 10
-7.7894478093
 20
-10.4591974687
 10
-7.7839646369
 20
-10.4500827855
 10
-7.7701572171
 20
-10.4268209298
  0
LINE
  5
50A
100
AcDbEntity
  8
DRAFT
100
AcDbLine
 62
7
  6
CONTINUOUS
 10
-9.025
 20
-9.6
 11
-9.0075462644
 21
-9.5825462644
  0
LINE
  5
50B
100
AcDbEntity
  8
DRAFT
100
AcDbLine
 62
7
  6
CONTINUOUS
 10
-10.325
 20
-7.2776691233
 11
-10.1696499221
 21
-7.2
  0
LWPOLYLINE
  5
50C
100
AcDbEntity
  8
IMPORT_IGES
100
AcDbPolyline
 62
7
  6
CONTINUOUS
 90
28
 70
0
 10
3.6083313197
 20
2.085
 10
3.5958881184
 20
2.0846238595
 10
3.5839772653
 20
2.0836690279
 10
3.5725987605
 20
2.0821355051
 10
3.5617667836
 20
2.0800100482
 10
3.551467155
 20
2.0773059001
 10
3.5416573356
 20
2.0740627897
 10
3.5323191647
 20
2.0702934976
 10
3.5234708029
 20
2.0659852431
 10
3.515124194
 20
2.061139413
 10
3.50726479
 20
2.0557629766
 10
3.4999071389
 20
2.0498489645
 10
3.4931068274
 20
2.0433778548
 10
3.4868467965
 20
2.0363393944
 10
3.4811441053
 20
2.0287438364
 10
3.4761055177
 20
2.0206024192
 10
3.4717304622
 20
2.0119067053
 10
3.4680195104
 20
2.0026651321
 10
3.4650811405
 20
1.9929142505
 10
3.462918931
 20
1.9826405415
 10
3.4615293035
 20
1.971857524
 10
3.4610100005
 20
1.9606423063
 10
3.461362539
 20
1.9489994432
 10
3.462585402
 20
1.9369243798
 10
3.4647717813
 20
1.9244805595
 10
3.4679527408
 20
1.9116891299
 10
3.4720972166
 20
1.8985289434
 10
3.4772052088
 20
1.885
  0
LWPOLYLINE
  5
50D
100
AcDbEntity
  8
IMPORT_IGES
100
AcDbPolyline
 62
253
  6
CONTINUOUS
 90
13
 70
0
 10
5.275
 20
0.5465592503
 10
5.2492096434
 20
0.5461005983
 10
5.223930603
 20
0.5447381575
 10
5.1995761129
 20
0.5425031736
 10
5.1766489674
 20
0.539458117
 10
5.1553833365
 20
0.535651209
 10
5.1358284172
 20
0.5310777035
 10
5.1182776121
 20
0.5257530071
 10
5.1032518722
 20
0.5197739768
 10
5.0911577052
 20
0.513256255
 10
5.0822850055
 20
0.5063166613
 10
5.0768420322
 20
0.4990637315
 10
5.075
 20
0.4916251854
  0
LWPOLYLINE
  5
50E
100
AcDbEntity
  8
IMPORT_IGES
100
AcDbPolyline
 62
253
  6
CONTINUOUS
 90
13
 70
0
 10
-7.725
 20
0.5465592503
 10
-7.7507903566
 20
0.5461005983
 10
-7.776069397
 20
0.5447381575
 10
-7.8004238871
 20
0.5425031736
 10
-7.8233510326
 20
0.539458117
 10
-7.8446166635
 20
0.535651209
 10
-7.8641715828
 20
0.5310777035
 10
-7.8817223879
 20
0.5257530071
 10
-7.8967481278
 20
0.5197739768
 10
-7.9088422948
 20
0.513256255
 10
-7.9177149945
 20
0.5063166613
 10
-7.9231579678
 20
0.4990637315
 10
-7.925
 20
0.4916251854
  0
LINE
  5
50F
100
AcDbEntity
  8
RACCORDO
100
AcDbLine
 62
7
  6
CONTINUOUS
 10
-9.6053794106
 20
0.4101132618
 11
-8.925
 21
0.4101132618
  0
LINE
  5
510
100
AcDbEntity
  8
RACCORDO
100
AcDbLine
 62
7
  6
CONTINUOUS
 10
7.575
 20
0.4101132618
 11
8.2553794106
 21
0.4101132618
  0
LINE
  5
511
100
AcDbEntity
  8
DRAFT
100
AcDbLine
 62
7
  6
CONTINUOUS
 10
-10.1696499221
 20
0.5
 11
-8.925
 21
0.5
  0
LINE
  5
512
100
AcDbEntity
  8
DRAFT
100
AcDbLine
 62
7
  6
CONTINUOUS
 10
8.8196499221
 20
0.5
 11
7.575
 21
0.5
  0
LINE
  5
513
100
AcDbEntity
  8
IMPORT_IGES
100
AcDbLine
 62
7
  6
CONTINUOUS
 10
-5.675
 20
1.57
 11
-5.0167168337
 21
1.57
  0
LINE
  5
514
100
AcDbEntity
  8
IMPORT_IGES
100
AcDbLine
 62
7
  6
CONTINUOUS
 10
3.6667168337
 20
1.57
 11
4.325
 21
1.57
  0
LINE
  5
515
100
AcDbEntity
  8
IMPORT_IGES
100
AcDbLine
 62
253
  6
CONTINUOUS
 10
6.6017949192
 20
1.9199108712
 11
5.0482050808
 21
1.9199108702
  0
LINE
  5
516
100
AcDbEntity
  8
IMPORT_IGES
100
AcDbLine
 62
253
  6
CONTINUOUS
 10
-6.3982050808
 20
1.9199108712
 11
-7.9517949192
 21
1.9199108702
  0
LINE
  5
517
100
AcDbEntity
  8
IMPORT_IGES
100
AcDbLine
 62
253
  6
CONTINUOUS
 10
-5.6228302579
 20
3.3447563529
 11
-5.4380648999
 21
3.2681942048
  0
LINE
  5
518
100
AcDbEntity
  8
IMPORT_IGES
100
AcDbLine
 62
253
  6
CONTINUOUS
 10
4.2082882475
 20
-1.7061812323
 11
4.3720827584
 21
-1.8209477701
  0
LWPOLYLINE
  5
519
100
AcDbEntity
  8
IMPORT_IGES
100
AcDbPolyline
 62
253
  6
CONTINUOUS
 90
8
 70
0
 10
-8.0222802206
 20
8.0459153261
 10
-8.0335786438
 20
8.0550252532
 10
-8.0532477142
 20
8.0672223585
 10
-8.075
 20
8.0774997403
 10
-8.0984633135
 20
8.0856815497
 10
-8.123236191
 20
8.0916277936
 10
-8.1488947616
 20
8.0952367302
 10
-8.175
 20
8.0964466096
  0
LINE
  5
51A
100
AcDbEntity
  8
IMPORT_IGES
100
AcDbLine
 62
253
  6
CONTINUOUS
 10
2.8415848671
 20
-1.2499943225
 11
2.7651326864
 21
-1.1855345356
  0
LWPOLYLINE
  5
51B
100
AcDbEntity
  8
IMPORT_IGES
100
AcDbPolyline
 62
253
  6
CONTINUOUS
 90
3
 70
0
 10
-7.8624674524
 20
10.6593350834
 10
-7.7934904265
 20
10.5908011083
 10
-7.7749995853
 20
10.5723307466
  0
LINE
  5
51C
100
AcDbEntity
  8
IMPORT_IGES
100
AcDbLine
 62
7
  6
CONTINUOUS
 10
-4.9253656963
 20
6.7456928091
 11
-5.0798535023
 21
6.9015490589
  0
LWPOLYLINE
  5
51D
100
AcDbEntity
  8
IMPORT_IGES
100
AcDbPolyline
 62
253
  6
CONTINUOUS
 90
10
 70
0
 10
-8.174998709
 20
10.240923557
 10
-8.1947770254
 20
10.2644697042
 10
-8.2142323
 20
10.2840143063
 10
-8.2329651697
 20
10.299547406
 10
-8.2505122911
 20
10.3112041135
 10
-8.2666780532
 20
10.3189986174
 10
-8.2815229812
 20
10.3227929121
 10
-8.2949274451
 20
10.322650899
 10
-8.3066048973
 20
10.318858276
 10
-8.3164213567
 20
10.3116387199
  0
LINE
  5
51E
100
AcDbEntity
  8
IMPORT_IGES
100
AcDbLine
 62
253
  6
CONTINUOUS
 10
6.4202040783
 20
-10.4268979157
 11
6.3942541878
 21
-10.3825694243
  0
LINE
  5
51F
100
AcDbEntity
  8
IMPORT_IGES
100
AcDbLine
 62
253
  6
CONTINUOUS
 10
6.3942541878
 20
-10.3825694243
 11
6.3750077099
 21
-10.349358719
  0
LWPOLYLINE
  5
520
100
AcDbEntity
  8
IMPORT_IGES
100
AcDbPolyline
 62
253
  6
CONTINUOUS
 90
10
 70
0
 10
6.725
 20
-10.2101322017
 10
6.7341859571
 20
-10.2262879617
 10
6.7434881202
 20
-10.2403561932
 10
6.7527529091
 20
-10.2522387121
 10
6.7618145475
 20
-10.2619416312
 10
6.770520115
 20
-10.2692824916
 10
6.7787726685
 20
-10.2740291295
 10
6.786496251
 20
-10.2762273535
 10
6.7935938381
 20
-10.2760606482
 10
6.8000000001
 20
-10.2736504398
  0
LINE
  5
521
100
AcDbEntity
  8
RACCORDO
100
AcDbLine
 62
253
  6
CONTINUOUS
 10
8.4753805997
 20
-20.9
 11
8.412542366
 21
-20.7113319946
  0
LWPOLYLINE
  5
522
100
AcDbEntity
  8
IMPORT_IGES
100
AcDbPolyline
 62
253
  6
CONTINUOUS
 90
10
 70
0
 10
4.175
 20
-10.9456300654
 10
4.1753008055
 20
-10.9465844903
 10
4.1761416661
 20
-10.947413445
 10
4.1775225819
 20
-10.94812051
 10
4.1794487089
 20
-10.9487092645
 10
4.181914891
 20
-10.9491831921
 10
4.1849056599
 20
-10.9495457357
 10
4.1884158596
 20
-10.9498003949
 10
4.1924506461
 20
-10.9499506684
 10
4.1970100195
 20
-10.95
  0
LINE
  5
523
100
AcDbEntity
  8
IMPORT_IGES
100
AcDbLine
 62
253
  6
CONTINUOUS
 10
3.162546422
 20
7.7428932188
 11
3.1559803025
 21
7.8723555528
  0
LINE
  5
524
100
AcDbEntity
  8
IMPORT_IGES
100
AcDbLine
 62
253
  6
CONTINUOUS
 10
3.1559803025
 20
7.8723555528
 11
3.1503535924
 21
7.9929389841
  0
LINE
  5
525
100
AcDbEntity
  8
IMPORT_IGES
100
AcDbLine
 62
253
  6
CONTINUOUS
 10
3.1503535924
 20
7.9929389841
 11
3.1460224345
 21
8.0964466092
  0
LWPOLYLINE
  5
526
100
AcDbEntity
  8
IMPORT_IGES
100
AcDbPolyline
 62
253
  6
CONTINUOUS
 90
9
 70
0
 10
3.1252589941
 20
8.6578863347
 10
3.1260372301
 20
8.5876797522
 10
3.1273347081
 20
8.5174789116
 10
3.1291514989
 20
8.4472818818
 10
3.1314875316
 20
8.3770905939
 10
3.134342594
 20
8.3069108411
 10
3.1377166153
 20
8.2367445544
 10
3.1416096664
 20
8.1665898028
 10
3.1460217472
 20
8.0964465862
  0
LINE
  5
527
100
AcDbEntity
  8
0
100
AcDbLine
 62
253
  6
CONTINUOUS
 10
2.1315480662
 20
-11.2500290004
 11
2.1315480662
 21
-11.3500290004
  0
LINE
  5
528
100
AcDbEntity
  8
0
100
AcDbLine
 62
7
  6
CONTINUOUS
 10
2.1930427503
 20
-11.2500290004
 11
2.1930427503
 21
-11.3500290004
  0
LINE
  5
529
100
AcDbEntity
  8
IMPORT_IGES
100
AcDbLine
 62
7
  6
CONTINUOUS
 10
2.2298535023
 20
3.5849680035
 11
2.2298535023
 21
3.5761904762
  0
LINE
  5
52A
100
AcDbEntity
  8
0
100
AcDbLine
 62
7
  6
CONTINUOUS
 10
2.2887011241
 20
-11.2500290004
 11
2.2887011241
 21
-11.3500290004
  0
LINE
  5
52B
100
AcDbEntity
  8
RACCORDO
100
AcDbLine
 62
7
  6
CONTINUOUS
 10
2.325
 20
-21.0
 11
2.325
 21
-22.3912731322
  0
LINE
  5
52C
100
AcDbEntity
  8
RACCORDO
100
AcDbLine
 62
7
  6
CONTINUOUS
 10
2.325
 20
21.0
 11
2.325
 21
22.3912731322
  0
LINE
  5
52D
100
AcDbEntity
  8
0
100
AcDbLine
 62
253
  6
CONTINUOUS
 10
2.5082028715
 20
-11.2500290004
 11
2.5082028715
 21
-11.3500290004
  0
LINE
  5
52E
100
AcDbEntity
  8
RACCORDO
100
AcDbLine
 62
7
  6
CONTINUOUS
 10
2.725
 20
-14.2
 11
2.725
 21
-15.6
  0
LINE
  5
52F
100
AcDbEntity
  8
ASSI
100
AcDbLine
 62
7
  6
CONTINUOUS
 10
2.825
 20
-22.3339198952
 11
2.825
 21
-23.7941821702
  0
LINE
  5
530
100
AcDbEntity
  8
RACCORDO
100
AcDbLine
 62
7
  6
CONTINUOUS
 10
2.825
 20
-16.2
 11
2.825
 21
-14.7
  0
LINE
  5
531
100
AcDbEntity
  8
DRAFT
100
AcDbLine
 62
7
  6
CONTINUOUS
 10
2.825
 20
-14.7
 11
2.825
 21
-13.9
  0
LINE
  5
532
100
AcDbEntity
  8
RACCORDO
100
AcDbLine
 62
7
  6
CONTINUOUS
 10
2.825
 20
22.3339198952
 11
2.825
 21
23.7511422903
  0
LINE
  5
533
100
AcDbEntity
  8
ASSI
100
AcDbLine
 62
7
  6
CONTINUOUS
 10
2.825
 20
22.3339198952
 11
2.825
 21
23.7941821702
  0
LINE
  5
534
100
AcDbEntity
  8
IMPORT_IGES
100
AcDbLine
 62
253
  6
CONTINUOUS
 10
2.9598166623
 20
3.1299131308
 11
2.9598166623
 21
2.9299131308
  0
LINE
  5
535
100
AcDbEntity
  8
0
100
AcDbLine
 62
253
  6
CONTINUOUS
 10
2.9984519761
 20
-11.2500290004
 11
2.9984519761
 21
-11.3500290004
  0
LINE
  5
536
100
AcDbEntity
  8
0
100
AcDbLine
 62
7
  6
CONTINUOUS
 10
3.0266370308
 20
-11.2500290004
 11
3.0266370308
 21
-11.3500290004
  0
LINE
  5
537
100
AcDbEntity
  8
0
100
AcDbLine
 62
7
  6
CONTINUOUS
 10
3.0590925511
 20
-11.2500290004
 11
3.0590925511
 21
-11.3500290004
  0
LINE
  5
538
100
AcDbEntity
  8
IMPORT_IGES
100
AcDbLine
 62
253
  6
CONTINUOUS
 10
3.1252589941
 20
8.6578863347
 11
3.125
 21
10.95
  0
LINE
  5
539
100
AcDbEntity
  8
IMPORT_IGES
100
AcDbLine
 62
253
  6
CONTINUOUS
 10
3.2464927418
 20
-1.25
 11
3.2464927418
 21
-1.05
  0
LINE
  5
53A
100
AcDbEntity
  8
IMPORT_IGES
100
AcDbLine
 62
7
  6
CONTINUOUS
 10
3.325
 20
8.5866771888
 11
3.325
 21
10.75
  0
LINE
  5
53B
100
AcDbEntity
  8
IMPORT_IGES
100
AcDbLine
 62
7
  6
CONTINUOUS
 10
3.4298535023
 20
8.15
 11
3.4298535023
 21
7.6101398601
  0
LINE
  5
53C
100
AcDbEntity
  8
IMPORT_IGES
100
AcDbLine
 62
7
  6
CONTINUOUS
 10
3.4298535023
 20
7.5293706294
 11
3.4298535023
 21
7.5975524476
  0
LINE
  5
53D
100
AcDbEntity
  8
IMPORT_IGES
100
AcDbLine
 62
253
  6
CONTINUOUS
 10
3.475
 20
-3.6951486209
 11
3.475
 21
-2.8385526386
  0
LINE
  5
53E
100
AcDbEntity
  8
RACCORDO
100
AcDbLine
 62
253
  6
CONTINUOUS
 10
3.525
 20
-17.3
 11
3.525
 21
-20.0
  0
LINE
  5
53F
100
AcDbEntity
  8
IMPORT_IGES
100
AcDbLine
 62
253
  6
CONTINUOUS
 10
3.525
 20
8.5748812075
 11
3.525
 21
10.95
  0
LINE
  5
540
100
AcDbEntity
  8
IMPORT_IGES
100
AcDbLine
 62
7
  6
CONTINUOUS
 10
3.575
 20
-3.5730068437
 11
3.575
 21
-2.743783059
  0
LINE
  5
541
100
AcDbEntity
  8
ASSI
100
AcDbLine
 62
253
  6
CONTINUOUS
 10
3.6809327327
 20
-22.3338981669
 11
3.6809327327
 21
-23.7507734247
  0
LINE
  5
542
100
AcDbEntity
  8
ASSI
100
AcDbLine
 62
253
  6
CONTINUOUS
 10
3.6809327327
 20
22.3338981669
 11
3.6809327327
 21
23.7507734247
  0
LINE
  5
543
100
AcDbEntity
  8
IMPORT_IGES
100
AcDbLine
 62
253
  6
CONTINUOUS
 10
3.7081372522
 20
2.9299131304
 11
3.7081372518
 21
2.6299131308
  0
LINE
  5
544
100
AcDbEntity
  8
DRAFT
100
AcDbLine
 62
7
  6
CONTINUOUS
 10
3.725
 20
-23.8
 11
3.725
 21
-22.4
  0
LINE
  5
545
100
AcDbEntity
  8
DRAFT
100
AcDbLine
 62
7
  6
CONTINUOUS
 10
3.725
 20
22.4
 11
3.725
 21
23.8
  0
LINE
  5
546
100
AcDbEntity
  8
IMPORT_IGES
100
AcDbLine
 62
7
  6
CONTINUOUS
 10
3.825
 20
-0.155
 11
3.825
 21
-1.2320677153
  0
LINE
  5
547
100
AcDbEntity
  8
IMPORT_IGES
100
AcDbLine
 62
7
  6
CONTINUOUS
 10
3.825
 20
-2.4947760646
 11
3.825
 21
-3.0795167894
  0
LINE
  5
548
100
AcDbEntity
  8
RACCORDO
100
AcDbLine
 62
7
  6
CONTINUOUS
 10
3.825
 20
-17.6
 11
3.825
 21
-19.9973819397
  0
LINE
  5
549
100
AcDbEntity
  8
DRAFT
100
AcDbLine
 62
7
  6
CONTINUOUS
 10
3.825
 20
11.15
 11
3.825
 21
14.139335085
  0
LINE
  5
54A
100
AcDbEntity
  8
RACCORDO
100
AcDbLine
 62
253
  6
CONTINUOUS
 10
8.8196499221
 20
19.9333419123
 11
8.975
 21
20.3997711479
  0
LINE
  5
54B
100
AcDbEntity
  8
IMPORT_IGES
100
AcDbLine
 62
253
  6
CONTINUOUS
 10
3.3097550219
 20
-1.0602689168
 11
3.2464927418
 21
-1.25
  0
LINE
  5
54C
100
AcDbEntity
  8
IMPORT_IGES
100
AcDbLine
 62
7
  6
CONTINUOUS
 10
2.5583612006
 20
-1.4143450738
 11
2.6828266781
 21
-1.05
  0
LWPOLYLINE
  5
54D
100
AcDbEntity
  8
IMPORT_IGES
100
AcDbPolyline
 62
253
  6
CONTINUOUS
 90
3
 70
0
 10
2.893042477
 20
-1.1257560247
 10
2.8842117917
 20
-1.1472356209
 10
2.864367958
 20
-1.1960372646
  0
LWPOLYLINE
  5
54E
100
AcDbEntity
  8
IMPORT_IGES
100
AcDbPolyline
 62
253
  6
CONTINUOUS
 90
3
 70
0
 10
2.864367958
 20
-1.1960372646
 10
2.8533548096
 20
-1.222600477
 10
2.8415819252
 20
-1.2499973217
  0
LWPOLYLINE
  5
54F
100
AcDbEntity
  8
IMPORT_IGES
100
AcDbPolyline
 62
253
  6
CONTINUOUS
 90
6
 70
0
 10
2.9235299379
 20
-1.05
 10
2.9227447667
 20
-1.0516972054
 10
2.9207598809
 20
-1.0567214716
 10
2.9175752805
 20
-1.0649317369
 10
2.9131410508
 20
-1.076074716
 10
2.893042477
 20
-1.1257560247
  0
LINE
  5
550
100
AcDbEntity
  8
IMPORT_IGES
100
AcDbLine
 62
7
  6
CONTINUOUS
 10
2.0172246734
 20
-1.8904070346
 11
2.1982612942
 21
-1.5506060195
  0
LINE
  5
551
100
AcDbEntity
  8
IMPORT_IGES
100
AcDbLine
 62
7
  6
CONTINUOUS
 10
1.4070257721
 20
-2.273970631
 11
1.6399894889
 21
-1.9674304304
  0
LINE
  5
552
100
AcDbEntity
  8
DRAFT
100
AcDbLine
 62
7
  6
CONTINUOUS
 10
-8.175
 20
-12.5
 11
-8.0851132618
 21
-12.4101132618
  0
LINE
  5
553
100
AcDbEntity
  8
RACCORDO
100
AcDbLine
 62
253
  6
CONTINUOUS
 10
-8.0851132618
 20
-13.3101323002
 11
-8.175
 21
-13.4000190385
  0
LINE
  5
554
100
AcDbEntity
  8
IMPORT_IGES
100
AcDbLine
 62
7
  6
CONTINUOUS
 10
0.7434176423
 20
-2.5551964863
 11
1.0223323464
 21
-2.2897806318
  0
LINE
  5
555
100
AcDbEntity
  8
IMPORT_IGES
100
AcDbLine
 62
7
  6
CONTINUOUS
 10
0.0434235115
 20
-2.7268704458
 11
0.361134335
 21
-2.5093875257
  0
LWPOLYLINE
  5
556
100
AcDbEntity
  8
IMPORT_IGES
100
AcDbPolyline
 62
253
  6
CONTINUOUS
 90
10
 70
0
 10
-7.9203942556
 20
-8.445876989
 10
-7.9486241009
 20
-8.4618472587
 10
-7.9750332189
 20
-8.480108225
 10
-7.9987229916
 20
-8.5002783506
 10
-8.0196515887
 20
-8.5220805071
 10
-8.0378608405
 20
-8.545791823
 10
-8.0525776203
 20
-8.5718621464
 10
-8.063544219
 20
-8.6004414266
 10
-8.0710183455
 20
-8.6313797144
 10
-8.075
 20
-8.6646770097
  0
LINE
  5
557
100
AcDbEntity
  8
IMPORT_IGES
100
AcDbLine
 62
7
  6
CONTINUOUS
 10
-0.675
 20
-2.7845886382
 11
-0.3266431434
 21
-2.6206176395
  0
LINE
  5
558
100
AcDbEntity
  8
IMPORT_IGES
100
AcDbLine
 62
7
  6
CONTINUOUS
 10
2.1982612942
 20
-1.5506060195
 11
2.5583612006
 21
-1.4143450738
  0
LINE
  5
559
100
AcDbEntity
  8
IMPORT_IGES
100
AcDbLine
 62
7
  6
CONTINUOUS
 10
-1.3934235115
 20
-2.7268704458
 11
-1.0233568566
 21
-2.6206176395
  0
LINE
  5
55A
100
AcDbEntity
  8
IMPORT_IGES
100
AcDbLine
 62
7
  6
CONTINUOUS
 10
3.6083313197
 20
2.085
 11
4.325
 21
2.085
  0
LINE
  5
55B
100
AcDbEntity
  8
IMPORT_IGES
100
AcDbLine
 62
7
  6
CONTINUOUS
 10
-4.9583313197
 20
2.085
 11
-5.675
 21
2.085
  0
LINE
  5
55C
100
AcDbEntity
  8
IMPORT_IGES
100
AcDbLine
 62
7
  6
CONTINUOUS
 10
7.575
 20
2.2656164976
 11
7.325
 21
2.2656164976
  0
LINE
  5
55D
100
AcDbEntity
  8
IMPORT_IGES
100
AcDbLine
 62
7
  6
CONTINUOUS
 10
-8.675
 20
2.2656164976
 11
-8.925
 21
2.2656164976
  0
LINE
  5
55E
100
AcDbEntity
  8
IMPORT_IGES
100
AcDbLine
 62
253
  6
CONTINUOUS
 10
3.7081372525
 20
2.6299114002
 11
3.3176859638
 21
2.6299063447
  0
LINE
  5
55F
100
AcDbEntity
  8
IMPORT_IGES
100
AcDbLine
 62
253
  6
CONTINUOUS
 10
-4.6676845872
 20
2.6299114002
 11
-5.0581372518
 21
2.6299131308
  0
LINE
  5
560
100
AcDbEntity
  8
IMPORT_IGES
100
AcDbLine
 62
7
  6
CONTINUOUS
 10
3.995682221
 20
2.9299131308
 11
2.9598166623
 21
2.9299131308
  0
LINE
  5
561
100
AcDbEntity
  8
IMPORT_IGES
100
AcDbLine
 62
7
  6
CONTINUOUS
 10
-4.3098166623
 20
2.9299131308
 11
-5.3456822208
 21
2.9299131308
  0
LINE
  5
562
100
AcDbEntity
  8
IMPORT_IGES
100
AcDbLine
 62
253
  6
CONTINUOUS
 10
-5.345682221
 20
3.1299131308
 11
-4.3098166623
 21
3.1299131308
  0
LINE
  5
563
100
AcDbEntity
  8
IMPORT_IGES
100
AcDbLine
 62
253
  6
CONTINUOUS
 10
3.995682221
 20
3.1299131308
 11
2.9598166623
 21
3.1299131308
  0
LINE
  5
564
100
AcDbEntity
  8
IMPORT_IGES
100
AcDbLine
 62
7
  6
CONTINUOUS
 10
-8.925
 20
3.2759794687
 11
-8.675
 21
3.2759794687
  0
LINE
  5
565
100
AcDbEntity
  8
IMPORT_IGES
100
AcDbLine
 62
7
  6
CONTINUOUS
 10
7.575
 20
3.2759794687
 11
7.325
 21
3.2759794687
  0
LINE
  5
566
100
AcDbEntity
  8
IMPORT_IGES
100
AcDbLine
 62
7
  6
CONTINUOUS
 10
-3.6193170172
 20
3.55
 11
-1.575
 21
3.55
  0
LINE
  5
567
100
AcDbEntity
  8
IMPORT_IGES
100
AcDbLine
 62
7
  6
CONTINUOUS
 10
0.225
 20
3.55
 11
2.2693170172
 21
3.55
  0
LINE
  5
568
100
AcDbEntity
  8
IMPORT_IGES
100
AcDbLine
 62
7
  6
CONTINUOUS
 10
-3.2798535023
 20
3.5714285714
 11
-2.3798535023
 21
3.5714285714
  0
LINE
  5
569
100
AcDbEntity
  8
IMPORT_IGES
100
AcDbLine
 62
7
  6
CONTINUOUS
 10
1.0298535023
 20
3.5714285714
 11
1.9298535023
 21
3.5714285714
  0
LINE
  5
56A
100
AcDbEntity
  8
IMPORT_IGES
100
AcDbLine
 62
7
  6
CONTINUOUS
 10
-2.0798535023
 20
3.6377200292
 11
-1.3630160053
 21
3.6377200292
  0
LINE
  5
56B
100
AcDbEntity
  8
IMPORT_IGES
100
AcDbLine
 62
7
  6
CONTINUOUS
 10
0.0130160053
 20
3.6377200292
 11
0.7298535023
 21
3.6377200292
  0
LWPOLYLINE
  5
56C
100
AcDbEntity
  8
IMPORT_IGES
100
AcDbPolyline
 62
253
  6
CONTINUOUS
 90
10
 70
0
 10
-7.9517949192
 20
4.9249999623
 10
-7.9463944162
 20
4.9236312544
 10
-7.9415441034
 20
4.9227573414
 10
-7.9372701554
 20
4.9223782232
 10
-7.9335976161
 20
4.9226968091
 10
-7.9305493361
 20
4.9235101898
 10
-7.9281463334
 20
4.9242096374
 10
-7.9264086202
 20
4.9245922425
 10
-7.9253545267
 20
4.9248609144
 10
-7.925
 20
4.9250156533
  0
LINE
  5
56D
100
AcDbEntity
  8
DRAFT
100
AcDbLine
 62
7
  6
CONTINUOUS
 10
-10.1696499221
 20
7.9
 11
-10.325
 21
7.9776691233
  0
LWPOLYLINE
  5
56E
100
AcDbEntity
  8
IMPORT_IGES
100
AcDbPolyline
 62
7
  6
CONTINUOUS
 90
15
 70
0
 10
4.5584853315
 20
-0.1171101726
 10
4.5434218486
 20
-0.1088126424
 10
4.5289617083
 20
-0.1010714912
 10
4.515117473
 20
-0.093899315
 10
4.5019084221
 20
-0.0872835176
 10
4.4892926161
 20
-0.0812648633
 10
4.4772780446
 20
-0.0758497196
 10
4.465865256
 20
-0.0710317188
 10
4.4550023511
 20
-0.0668325221
 10
4.4446599139
 20
-0.0632473327
 10
4.4348661326
 20
-0.0602809473
 10
4.425651861
 20
-0.0579694163
 10
4.4170172548
 20
-0.0563247565
 10
4.4089361988
 20
-0.0553349511
 10
4.4013932023
 20
-0.055
  0
LWPOLYLINE
  5
56F
100
AcDbEntity
  8
IMPORT_IGES
100
AcDbPolyline
 62
7
  6
CONTINUOUS
 90
4
 70
0
 10
4.625
 20
-0.155
 10
4.607514015
 20
-0.1448173503
 10
4.5905653382
 20
-0.1351125265
 10
4.5584853315
 20
-0.1171101726
  0
LWPOLYLINE
  5
570
100
AcDbEntity
  8
IMPORT_IGES
100
AcDbPolyline
 62
253
  6
CONTINUOUS
 90
4
 70
0
 10
-7.9164203406
 20
10.711637167
 10
-7.9151812254
 20
10.7106618306
 10
-7.9116644173
 20
10.7074094092
 10
-7.9058591733
 20
10.7018625731
  0
LWPOLYLINE
  5
571
100
AcDbEntity
  8
IMPORT_IGES
100
AcDbPolyline
 62
253
  6
CONTINUOUS
 90
8
 70
0
 10
-8.014338217
 20
10.1837321153
 10
-8.0309898332
 20
10.1976421414
 10
-8.050324571
 20
10.2100873917
 10
-8.0720275954
 20
10.2207439103
 10
-8.095751517
 20
10.2293522901
 10
-8.1211080153
 20
10.235696222
 10
-8.147680621
 20
10.2396000395
 10
-8.175
 20
10.240923557
  0
LWPOLYLINE
  5
572
100
AcDbEntity
  8
IMPORT_IGES
100
AcDbPolyline
 62
253
  6
CONTINUOUS
 90
4
 70
0
 10
-7.7543041544
 20
10.85105217
 10
-7.7606977542
 20
10.857268605
 10
-7.7645868225
 20
10.8609744933
 10
-7.7659281023
 20
10.8621319093
  0
LINE
  5
573
100
AcDbEntity
  8
IMPORT_IGES
100
AcDbLine
 62
253
  6
CONTINUOUS
 10
-7.9058591733
 20
10.7018625731
 11
-7.8881746754
 21
10.6846458871
  0
LINE
  5
574
100
AcDbEntity
  8
IMPORT_IGES
100
AcDbLine
 62
253
  6
CONTINUOUS
 10
-7.8881746754
 20
10.6846458871
 11
-7.8624674524
 21
10.6593350834
  0
LINE
  5
575
100
AcDbEntity
  8
IMPORT_IGES
100
AcDbLine
 62
253
  6
CONTINUOUS
 10
-7.7226795635
 20
10.8198766111
 11
-7.7543041544
 21
10.85105217
  0
LINE
  5
576
100
AcDbEntity
  8
IMPORT_IGES
100
AcDbLine
 62
253
  6
CONTINUOUS
 10
-7.6245090632
 20
10.7220996118
 11
-7.7226795635
 21
10.8198766111
  0
LWPOLYLINE
  5
577
100
AcDbEntity
  8
IMPORT_IGES
100
AcDbPolyline
 62
253
  6
CONTINUOUS
 90
24
 70
0
 10
6.6523294862
 20
-7.9140967614
 10
6.6354997518
 20
-7.8692563404
 10
6.618396243
 20
-7.8148786189
 10
6.6010189598
 20
-7.7509635968
 10
6.5828241803
 20
-7.6748379457
 10
6.5643556264
 20
-7.5891749942
 10
6.547244464
 20
-7.5019947272
 10
6.5320164801
 20
-7.4143015019
 10
6.5181458876
 20
-7.3250909612
 10
6.5056864914
 20
-7.2393700194
 10
6.4949809021
 20
-7.1604700201
 10
6.485686509
 20
-7.0850596197
 10
6.4768292848
 20
-7.0081517016
 10
6.4681534502
 20
-6.9288181864
 10
6.4599147846
 20
-6.8479871535
 10
6.4519065984
 20
-6.7634557247
 10
6.4441205711
 20
-6.6761555351
 10
6.4365650232
 20
-6.5851549495
 10
6.4290582272
 20
-6.485456184
 10
6.4212348389
 20
-6.3703555411
 10
6.4134602025
 20
-6.2465567182
 10
6.4066486234
 20
-6.1291730232
 10
6.4013652854
 20
-6.029166952
 10
6.3970450045
 20
-5.9355760088
  0
LINE
  5
578
100
AcDbEntity
  8
RACCORDO
100
AcDbLine
 62
253
  6
CONTINUOUS
 10
8.975
 20
-20.3997711479
 11
8.9121617663
 21
-20.2111031425
  0
LINE
  5
579
100
AcDbEntity
  8
RACCORDO
100
AcDbLine
 62
7
  6
CONTINUOUS
 10
8.8196499221
 20
-14.7
 11
8.8462892833
 21
-14.7799830745
  0
LWPOLYLINE
  5
57A
100
AcDbEntity
  8
IMPORT_IGES
100
AcDbPolyline
 62
253
  6
CONTINUOUS
 90
17
 70
0
 10
5.0522110934
 20
4.8506078515
 10
5.0555788794
 20
4.8173887027
 10
5.0602117344
 20
4.7870894169
 10
5.0660625037
 20
4.7594414065
 10
5.0725739543
 20
4.7336389076
 10
5.0795015731
 20
4.7097124866
 10
5.0871284718
 20
4.6876315771
 10
5.0955783296
 20
4.6664987165
 10
5.1047849669
 20
4.6460355185
 10
5.1148720329
 20
4.6265203694
 10
5.1263019639
 20
4.6078909649
 10
5.1394203944
 20
4.5896074429
 10
5.1539941106
 20
4.5722096654
 10
5.1695962189
 20
4.557254914
 10
5.1860220765
 20
4.5452622825
 10
5.2033300742
 20
4.535712677
 10
5.2214101395
 20
4.5286060975
  0
LWPOLYLINE
  5
57B
100
AcDbEntity
  8
IMPORT_IGES
100
AcDbPolyline
 62
253
  6
CONTINUOUS
 90
13
 70
0
 10
3.325
 20
8.5866771885
 10
3.3232889722
 20
8.6051364305
 10
3.3181851652
 20
8.6232798178
 10
3.3097759065
 20
8.6407969129
 10
3.2982050808
 20
8.6573879895
 10
3.2836706681
 20
8.672769174
 10
3.2664213562
 20
8.6866773029
 10
3.2467522858
 20
8.6988744082
 10
3.225
 20
8.70915179
 10
3.2015366865
 20
8.7173335994
 10
3.176763809
 20
8.7232798433
 10
3.1511052384
 20
8.7268887798
 10
3.125
 20
8.7280986591
  0
LWPOLYLINE
  5
57C
100
AcDbEntity
  8
IMPORT_IGES
100
AcDbPolyline
 62
253
  6
CONTINUOUS
 90
13
 70
0
 10
3.325
 20
10.6621320344
 10
3.3232889723
 20
10.6805912255
 10
3.3181851653
 20
10.6987345747
 10
3.3097759065
 20
10.7162516444
 10
3.2982050808
 20
10.7328427125
 10
3.2836706681
 20
10.7482239013
 10
3.2664213562
 20
10.7621320344
 10
3.2467522858
 20
10.7743291397
 10
3.225
 20
10.7846065215
 10
3.2015366865
 20
10.7927883308
 10
3.176763809
 20
10.7987345747
 10
3.1511052384
 20
10.8023435112
 10
3.125
 20
10.8035533904
  0
LINE
  5
57D
100
AcDbEntity
  8
IMPORT_IGES
100
AcDbLine
 62
253
  6
CONTINUOUS
 10
5.0497828239
 20
4.8864782755
 11
5.0522110934
 21
4.8506078515
  0
LINE
  5
57E
100
AcDbEntity
  8
IMPORT_IGES
100
AcDbLine
 62
253
  6
CONTINUOUS
 10
5.0482050808
 20
4.9249999748
 11
5.0497828239
 21
4.8864782755
  0
LINE
  5
57F
100
AcDbEntity
  8
0
100
AcDbLine
 62
253
  6
CONTINUOUS
 10
5.8831782981
 20
-20.0275513222
 11
5.7848569743
 21
-17.1473642646
  0
LWPOLYLINE
  5
580
100
AcDbEntity
  8
IMPORT_IGES
100
AcDbPolyline
 62
253
  6
CONTINUOUS
 90
10
 70
0
 10
5.275
 20
0.5465592503
 10
5.2702961475
 20
0.7066248678
 10
5.2646648353
 20
0.864393711
 10
5.2581060632
 20
1.0196181857
 10
5.2498000766
 20
1.1708481191
 10
5.2405666301
 20
1.3190964492
 10
5.2328649884
 20
1.4678884974
 10
5.2275149064
 20
1.6183283182
 10
5.2236966291
 20
1.7690484735
 10
5.2214101566
 20
1.9199117522
  0
LWPOLYLINE
  5
581
100
AcDbEntity
  8
IMPORT_IGES
100
AcDbPolyline
 62
253
  6
CONTINUOUS
 90
4
 70
0
 10
5.0663094428
 20
0.9925115947
 10
5.0705541622
 20
0.8292169449
 10
5.0737330378
 20
0.6622548085
 10
5.075
 20
0.4916251854
  0
LINE
  5
582
100
AcDbEntity
  8
DRAFT
100
AcDbLine
 62
7
  6
CONTINUOUS
 10
3.8966749053
 20
11.15
 11
3.825
 21
14.139335085
  0
LWPOLYLINE
  5
583
100
AcDbEntity
  8
IMPORT_IGES
100
AcDbPolyline
 62
253
  6
CONTINUOUS
 90
6
 70
0
 10
5.0482050808
 20
1.9199108712
 10
5.048881433
 20
1.7676662093
 10
5.0507526824
 20
1.6144927938
 10
5.0536918309
 20
1.4603906246
 10
5.0574432707
 20
1.3062726126
 10
5.0663094428
 20
0.9925115947
  0
LINE
  5
584
100
AcDbEntity
  8
IMPORT_IGES
100
AcDbLine
 62
253
  6
CONTINUOUS
 10
3.9566847105
 20
6.57
 11
3.9566847108
 21
6.37
  0
LINE
  5
585
100
AcDbEntity
  8
IMPORT_IGES
100
AcDbLine
 62
253
  6
CONTINUOUS
 10
3.995682221
 20
2.9299131308
 11
3.995682221
 21
3.1299131308
  0
LINE
  5
586
100
AcDbEntity
  8
IMPORT_IGES
100
AcDbLine
 62
253
  6
CONTINUOUS
 10
4.025
 20
-3.0795167894
 11
4.025
 21
-2.2657300999
  0
LINE
  5
587
100
AcDbEntity
  8
IMPORT_IGES
100
AcDbLine
 62
253
  6
CONTINUOUS
 10
4.025
 20
-1.2987539735
 11
4.025
 21
-0.055
  0
LINE
  5
588
100
AcDbEntity
  8
IMPORT_IGES
100
AcDbLine
 62
253
  6
CONTINUOUS
 10
4.175
 20
-10.9456300654
 11
4.175
 21
-2.0819703803
  0
LINE
  5
589
100
AcDbEntity
  8
IMPORT_IGES
100
AcDbLine
 62
253
  6
CONTINUOUS
 10
4.175
 20
-1.3487686673
 11
4.175
 21
-1.2751337748
  0
LINE
  5
58A
100
AcDbEntity
  8
IMPORT_IGES
100
AcDbLine
 62
7
  6
CONTINUOUS
 10
4.325
 20
6.7454966127
 11
4.325
 21
-0.055
  0
LINE
  5
58B
100
AcDbEntity
  8
IMPORT_IGES
100
AcDbLine
 62
7
  6
CONTINUOUS
 10
4.325
 20
-1.2751337748
 11
4.325
 21
-1.4251020863
  0
LINE
  5
58C
100
AcDbEntity
  8
IMPORT_IGES
100
AcDbLine
 62
7
  6
CONTINUOUS
 10
4.325
 20
-10.7959578105
 11
4.325
 21
-1.8833056577
  0
LINE
  5
58D
100
AcDbEntity
  8
IMPORT_IGES
100
AcDbLine
 62
253
  6
CONTINUOUS
 10
4.425
 20
-0.2710819832
 11
4.425
 21
-1.630209614
  0
LINE
  5
58E
100
AcDbEntity
  8
IMPORT_IGES
100
AcDbLine
 62
253
  6
CONTINUOUS
 10
4.4250025733
 20
-8.4119261728
 11
4.425
 21
-1.6661999403
  0
LINE
  5
58F
100
AcDbEntity
  8
IMPORT_IGES
100
AcDbLine
 62
253
  6
CONTINUOUS
 10
4.5249999985
 20
-10.95
 11
4.5249986545
 21
-8.4009330926
  0
LINE
  5
590
100
AcDbEntity
  8
IMPORT_IGES
100
AcDbLine
 62
253
  6
CONTINUOUS
 10
4.625
 20
6.7454966127
 11
4.625
 21
-0.155
  0
LINE
  5
591
100
AcDbEntity
  8
DRAFT
100
AcDbLine
 62
7
  6
CONTINUOUS
 10
4.825
 20
11.15
 11
4.825
 21
14.139335085
  0
LINE
  5
592
100
AcDbEntity
  8
IMPORT_IGES
100
AcDbLine
 62
253
  6
CONTINUOUS
 10
4.8750000028
 20
-7.8451539819
 11
4.875
 21
6.2454966127
  0
LINE
  5
593
100
AcDbEntity
  8
IMPORT_IGES
100
AcDbLine
 62
253
  6
CONTINUOUS
 10
4.975
 20
-11.15
 11
4.9750000003
 21
-10.95
  0
LINE
  5
594
100
AcDbEntity
  8
IMPORT_IGES
100
AcDbLine
 62
253
  6
CONTINUOUS
 10
4.9976712177
 20
-7.9140969644
 11
4.997670559
 21
-8.002037147
  0
LINE
  5
595
100
AcDbEntity
  8
IMPORT_IGES
100
AcDbLine
 62
253
  6
CONTINUOUS
 10
5.0482050808
 20
1.9199108702
 11
5.0482050808
 21
4.9249999748
  0
LINE
  5
596
100
AcDbEntity
  8
IMPORT_IGES
100
AcDbLine
 62
7
  6
CONTINUOUS
 10
5.075
 20
6.2454966128
 11
5.075
 21
4.925007848
  0
LINE
  5
597
100
AcDbEntity
  8
IMPORT_IGES
100
AcDbLine
 62
7
  6
CONTINUOUS
 10
5.075
 20
-4.890911167
 11
5.075
 21
0.4916251854
  0
LINE
  5
598
100
AcDbEntity
  8
IMPORT_IGES
100
AcDbLine
 62
7
  6
CONTINUOUS
 10
5.125
 20
4.8955
 11
5.125
 21
6.2955
  0
LINE
  5
599
100
AcDbEntity
  8
IMPORT_IGES
100
AcDbLine
 62
253
  6
CONTINUOUS
 10
5.175
 20
6.3454966127
 11
5.175
 21
6.5454966127
  0
LINE
  5
59A
100
AcDbEntity
  8
IMPORT_IGES
100
AcDbLine
 62
253
  6
CONTINUOUS
 10
5.2214101566
 20
1.9199121305
 11
5.2214101481
 21
4.5286060975
  0
LINE
  5
59B
100
AcDbEntity
  8
IMPORT_IGES
100
AcDbLine
 62
253
  6
CONTINUOUS
 10
5.275
 20
4.725
 11
5.275
 21
4.525
  0
LINE
  5
59C
100
AcDbEntity
  8
IMPORT_IGES
100
AcDbLine
 62
253
  6
CONTINUOUS
 10
5.275
 20
-4.890911167
 11
5.275
 21
0.5465592503
  0
LINE
  5
59D
100
AcDbEntity
  8
IMPORT_IGES
100
AcDbLine
 62
253
  6
CONTINUOUS
 10
5.475
 20
10.95
 11
5.475
 21
11.15
  0
LINE
  5
59E
100
AcDbEntity
  8
RACCORDO
100
AcDbLine
 62
253
  6
CONTINUOUS
 10
5.5373556268
 20
-12.8877357561
 11
5.5373556268
 21
-13.1876900647
  0
LINE
  5
59F
100
AcDbEntity
  8
IMPORT_IGES
100
AcDbLine
 62
253
  6
CONTINUOUS
 10
5.5481434514
 20
-10.95
 11
5.5481434405
 21
-10.8035439467
  0
LWPOLYLINE
  5
5A0
100
AcDbEntity
  8
IMPORT_IGES
100
AcDbPolyline
 62
253
  6
CONTINUOUS
 90
9
 70
0
 10
5.075
 20
-4.890911167
 10
5.0742296328
 20
-5.1681155576
 10
5.0721269959
 20
-5.4236135116
 10
5.0689928487
 20
-5.657395882
 10
5.0651433139
 20
-5.8676502532
 10
5.060813835
 20
-6.0561859323
 10
5.0560886143
 20
-6.2284298424
 10
5.0511317494
 20
-6.383993921
 10
5.0460738998
 20
-6.5232729501
  0
LWPOLYLINE
  5
5A1
100
AcDbEntity
  8
IMPORT_IGES
100
AcDbPolyline
 62
253
  6
CONTINUOUS
 90
10
 70
0
 10
4.325
 20
-1.2751337748
 10
4.3250502901
 20
-1.2578164601
 10
4.3252009966
 20
-1.2405603969
 10
4.325451799
 20
-1.2233668923
 10
4.325801905
 20
-1.2062379454
 10
4.3262509824
 20
-1.1891741379
 10
4.3268000798
 20
-1.1721746869
 10
4.32744995
 20
-1.1552402513
 10
4.3282001295
 20
-1.1383728761
 10
4.3290505098
 20
-1.1215739204
  0
LWPOLYLINE
  5
5A2
100
AcDbEntity
  8
IMPORT_IGES
100
AcDbPolyline
 62
253
  6
CONTINUOUS
 90
10
 70
0
 10
4.175
 20
-1.2751337748
 10
4.1751027201
 20
-1.2563272223
 10
4.175459362
 20
-1.2374706498
 10
4.1760699258
 20
-1.2185640572
 10
4.1769321852
 20
-1.1996039171
 10
4.1780483665
 20
-1.1805937569
 10
4.1794251487
 20
-1.1615441587
 10
4.1810647583
 20
-1.1424586498
 10
4.1829649688
 20
-1.1233337028
 10
4.1851257804
 20
-1.1041693179
  0
LWPOLYLINE
  5
5A3
100
AcDbEntity
  8
IMPORT_IGES
100
AcDbPolyline
 62
7
  6
CONTINUOUS
 90
18
 70
0
 10
4.3250137711
 20
-8.8560050056
 10
4.3254316614
 20
-8.8332920892
 10
4.3263186317
 20
-8.8108152993
 10
4.3276731585
 20
-8.7885601503
 10
4.3294829011
 20
-8.7665927259
 10
4.3317422996
 20
-8.7448342946
 10
4.3344615056
 20
-8.7231541929
 10
4.3376388299
 20
-8.7016410227
 10
4.3412630395
 20
-8.6803795535
 10
4.3453304726
 20
-8.6593464297
 10
4.349810945
 20
-8.6386691825
 10
4.3547040659
 20
-8.6184430376
 10
4.3600378147
 20
-8.598661397
 10
4.3657718733
 20
-8.5795523366
 10
4.3719053123
 20
-8.561158406
 10
4.3785141852
 20
-8.5433138375
 10
4.3855827818
 20
-8.5261501675
 10
4.3930743187
 20
-8.509923017
  0
LINE
  5
5A4
100
AcDbEntity
  8
DRAFT
100
AcDbLine
 62
7
  6
CONTINUOUS
 10
4.7533250947
 20
11.15
 11
4.825
 21
14.139335085
  0
LINE
  5
5A5
100
AcDbEntity
  8
RACCORDO
100
AcDbLine
 62
253
  6
CONTINUOUS
 10
5.8831782981
 20
20.0275513222
 11
5.7732213147
 21
16.8065137252
  0
LWPOLYLINE
  5
5A6
100
AcDbEntity
  8
IMPORT_IGES
100
AcDbPolyline
 62
253
  6
CONTINUOUS
 90
10
 70
0
 10
5.0460738998
 20
-6.5232729501
 10
5.0360393214
 20
-6.7633245339
 10
5.031258929
 20
-6.8641079704
 10
5.02415616
 20
-6.990113321
 10
5.0123601656
 20
-7.1714431705
 10
4.997099574
 20
-7.3778348297
 10
4.9819374604
 20
-7.5537043324
 10
4.9686467498
 20
-7.6806046761
 10
4.9562382161
 20
-7.7770777937
 10
4.9449137897
 20
-7.8431566822
  0
LWPOLYLINE
  5
5A7
100
AcDbEntity
  8
IMPORT_IGES
100
AcDbPolyline
 62
253
  6
CONTINUOUS
 90
7
 70
0
 10
4.3290505098
 20
-1.1215739204
 10
4.3344254797
 20
-1.0360991945
 10
4.3416310808
 20
-0.94952084
 10
4.3503315088
 20
-0.861863434
 10
4.3599512788
 20
-0.7746061822
 10
4.3703586046
 20
-0.6861890954
 10
4.3821232485
 20
-0.5920915201
  0
LWPOLYLINE
  5
5A8
100
AcDbEntity
  8
IMPORT_IGES
100
AcDbPolyline
 62
253
  6
CONTINUOUS
 90
13
 70
0
 10
4.325
 20
-10.7870372261
 10
4.3237167292
 20
-10.8064789672
 10
4.3198888739
 20
-10.8255880548
 10
4.3135819299
 20
-10.844037527
 10
4.3049038106
 20
-10.8615117082
 10
4.294003001
 20
-10.8777116104
 10
4.2810660172
 20
-10.8923600488
 10
4.2663142144
 20
-10.9052063844
 10
4.25
 20
-10.916030813
 10
4.2324025149
 20
-10.9246481255
 10
4.2138228568
 20
-10.9309108775
 10
4.1945789288
 20
-10.9347119113
 10
4.175
 20
-10.9359861903
  0
LWPOLYLINE
  5
5A9
100
AcDbEntity
  8
IMPORT_IGES
100
AcDbPolyline
 62
253
  6
CONTINUOUS
 90
13
 70
0
 10
6.625
 20
10.0995066861
 10
6.6267110277
 20
10.1179658772
 10
6.6318148347
 20
10.1361092264
 10
6.6402240935
 20
10.1536262961
 10
6.6517949192
 20
10.1702173642
 10
6.6663293319
 20
10.185598553
 10
6.6835786438
 20
10.1995066861
 10
6.7032477142
 20
10.2117039569
 10
6.725
 20
10.2219815042
 10
6.7484633135
 20
10.2301629826
 10
6.773236191
 20
10.2361082335
 10
6.7988947616
 20
10.2397156806
 10
6.825
 20
10.2409235741
  0
LWPOLYLINE
  5
5AA
100
AcDbEntity
  8
IMPORT_IGES
100
AcDbPolyline
 62
253
  6
CONTINUOUS
 90
3
 70
0
 10
4.3821232485
 20
-0.5920915201
 10
4.4098082048
 20
-0.3838257844
 10
4.425
 20
-0.2710819832
  0
LINE
  5
5AB
100
AcDbEntity
  8
IMPORT_IGES
100
AcDbLine
 62
253
  6
CONTINUOUS
 10
5.2214101615
 20
4.5286060934
 11
5.2482050808
 21
4.7268030467
  0
LWPOLYLINE
  5
5AC
100
AcDbEntity
  8
IMPORT_IGES
100
AcDbPolyline
 62
253
  6
CONTINUOUS
 90
10
 70
0
 10
4.1851257804
 20
-1.1041693179
 10
4.1990995238
 20
-1.0160842595
 10
4.2162460867
 20
-0.927892873
 10
4.2365654691
 20
-0.8395951582
 10
4.2600617809
 20
-0.7525427446
 10
4.2867309122
 20
-0.6653840027
 10
4.3165605328
 20
-0.5740640445
 10
4.3495465326
 20
-0.4772312405
 10
4.3856930217
 20
-0.37623722
 10
4.425
 20
-0.2710819831
  0
LWPOLYLINE
  5
5AD
100
AcDbEntity
  8
IMPORT_IGES
100
AcDbPolyline
 62
253
  6
CONTINUOUS
 90
13
 70
0
 10
5.075
 20
-1.0095965318
 10
5.0732889723
 20
-1.0203507382
 10
5.0681851653
 20
-1.0309209372
 10
5.0597759065
 20
-1.0411262696
 10
5.0482050808
 20
-1.0507921195
 10
5.0336706681
 20
-1.0597531015
 10
5.0164213562
 20
-1.0678558907
 10
4.9967522858
 20
-1.0749618461
 10
4.975
 20
-1.0809493828
 10
4.9515366865
 20
-1.0857160525
 10
4.926763809
 20
-1.089180296
 10
4.9011052384
 20
-1.0912828394
 10
4.875
 20
-1.0919877073
  0
LWPOLYLINE
  5
5AE
100
AcDbEntity
  8
IMPORT_IGES
100
AcDbPolyline
 62
253
  6
CONTINUOUS
 90
13
 70
0
 10
5.075
 20
-3.8702345609
 10
5.0766781944
 20
-3.8604472783
 10
5.0817069243
 20
-3.8507924329
 10
5.0900343068
 20
-3.8414356101
 10
5.1015632333
 20
-3.8325318175
 10
5.1161200115
 20
-3.8242486089
 10
5.1334285887
 20
-3.8167562845
 10
5.1531933598
 20
-3.8101854773
 10
5.1750754549
 20
-3.8046511897
 10
5.1986290103
 20
-3.800261581
 10
5.2234129607
 20
-3.797086302
 10
5.2490169236
 20
-3.7951660764
 10
5.275
 20
-3.7945244396
  0
LWPOLYLINE
  5
5AF
100
AcDbEntity
  8
IMPORT_IGES
100
AcDbPolyline
 62
253
  6
CONTINUOUS
 90
10
 70
0
 10
4.325
 20
-4.2100763026
 10
4.3265192247
 20
-4.2029227639
 10
4.3310307379
 20
-4.1959865818
 10
4.3383974596
 20
-4.1894785087
 10
4.3483955557
 20
-4.1835962892
 10
4.360721239
 20
-4.1785186516
 10
4.375
 20
-4.1743998771
 10
4.3907979857
 20
-4.1713651128
 10
4.4076351822
 20
-4.1695065684
 10
4.425
 20
-4.1688807149
  0
LINE
  5
5B0
100
AcDbEntity
  8
IMPORT_IGES
100
AcDbLine
 62
253
  6
CONTINUOUS
 10
4.1580221321
 20
-1.5539324218
 11
4.221284412
 21
-1.3642013385
  0
LWPOLYLINE
  5
5B1
100
AcDbEntity
  8
RACCORDO
100
AcDbPolyline
 62
7
  6
CONTINUOUS
 90
4
 70
0
 10
-8.5658834737
 20
-21.7591165263
 10
-8.518380061
 20
-21.6866457638
 10
-8.493929804
 20
-21.6499179842
 10
-8.4689545568
 20
-21.6129888844
  0
LINE
  5
5B2
100
AcDbEntity
  8
0
100
AcDbLine
 62
7
  6
CONTINUOUS
 10
-7.230294768
 20
-20.0829433217
 11
-7.1540558127
 21
-19.968583276
  0
LINE
  5
5B3
100
AcDbEntity
  8
RACCORDO
100
AcDbLine
 62
7
  6
CONTINUOUS
 10
-8.4689545568
 20
-21.6129888844
 11
-8.4177848301
 21
-21.5385902446
  0
LINE
  5
5B4
100
AcDbEntity
  8
RACCORDO
100
AcDbLine
 62
7
  6
CONTINUOUS
 10
-8.4177848301
 20
-21.5385902446
 11
-8.3654803352
 21
-21.4636002076
  0
LWPOLYLINE
  5
5B5
100
AcDbEntity
  8
RACCORDO
100
AcDbPolyline
 62
7
  6
CONTINUOUS
 90
3
 70
0
 10
-8.3654803352
 20
-21.4636002076
 10
-8.2858850697
 20
-21.3504165494
 10
-8.2591007192
 20
-21.3126932437
  0
LINE
  5
5B6
100
AcDbEntity
  8
RACCORDO
100
AcDbLine
 62
253
  6
CONTINUOUS
 10
-7.5851323002
 20
-13.8101132618
 11
-7.6750190385
 21
-13.9
  0
LINE
  5
5B7
100
AcDbEntity
  8
DRAFT
100
AcDbLine
 62
7
  6
CONTINUOUS
 10
8.8196499221
 20
-0.5
 11
8.975
 21
-0.4223308767
  0
LWPOLYLINE
  5
5B8
100
AcDbEntity
  8
IMPORT_IGES
100
AcDbPolyline
 62
253
  6
CONTINUOUS
 90
10
 70
0
 10
6.6017949192
 20
4.9250000279
 10
6.5963088747
 20
4.9243662651
 10
6.5914114782
 20
4.9239894243
 10
6.5871222308
 20
4.9238695055
 10
6.5834587295
 20
4.9241378188
 10
6.5804365835
 20
4.9246630541
 10
6.5780693366
 20
4.9250512813
 10
6.5763683965
 20
4.9251711904
 10
6.575342969
 20
4.9251540913
 10
6.575
 20
4.9249999842
  0
LWPOLYLINE
  5
5B9
100
AcDbEntity
  8
IMPORT_IGES
100
AcDbPolyline
 62
253
  6
CONTINUOUS
 90
10
 70
0
 10
-6.3982050808
 20
4.9250000201
 10
-6.4036911274
 20
4.9243662605
 10
-6.4085885249
 20
4.9239894222
 10
-6.4128777727
 20
4.9238695052
 10
-6.4165412737
 20
4.924137819
 10
-6.419563419
 20
4.924663054
 10
-6.4219306651
 20
4.925051282
 10
-6.4236316045
 20
4.9251711934
 10
-6.4246570313
 20
4.9251540978
 10
-6.425
 20
4.9249999952
  0
LINE
  5
5BA
100
AcDbEntity
  8
IMPORT_IGES
100
AcDbLine
 62
7
  6
CONTINUOUS
 10
6.4017949192
 20
4.7268030467
 11
6.375
 21
4.725
  0
LINE
  5
5BB
100
AcDbEntity
  8
IMPORT_IGES
100
AcDbLine
 62
7
  6
CONTINUOUS
 10
-6.5982050808
 20
4.7268030467
 11
-6.625
 21
4.725
  0
LINE
  5
5BC
100
AcDbEntity
  8
IMPORT_IGES
100
AcDbLine
 62
253
  6
CONTINUOUS
 10
-1.7798535023
 20
4.3372234626
 11
-1.275
 21
4.3372234626
  0
LINE
  5
5BD
100
AcDbEntity
  8
IMPORT_IGES
100
AcDbLine
 62
253
  6
CONTINUOUS
 10
-0.075
 20
4.3372234626
 11
0.4298535023
 21
4.3372234626
  0
LINE
  5
5BE
100
AcDbEntity
  8
IMPORT_IGES
100
AcDbLine
 62
253
  6
CONTINUOUS
 10
6.375
 20
4.525
 11
5.275
 21
4.525
  0
LINE
  5
5BF
100
AcDbEntity
  8
IMPORT_IGES
100
AcDbLine
 62
253
  6
CONTINUOUS
 10
-6.625
 20
4.525
 11
-7.725
 21
4.525
  0
LINE
  5
5C0
100
AcDbEntity
  8
IMPORT_IGES
100
AcDbLine
 62
7
  6
CONTINUOUS
 10
-7.725
 20
4.725
 11
-6.625
 21
4.725
  0
LINE
  5
5C1
100
AcDbEntity
  8
IMPORT_IGES
100
AcDbLine
 62
7
  6
CONTINUOUS
 10
5.275
 20
4.725
 11
6.375
 21
4.725
  0
LINE
  5
5C2
100
AcDbEntity
  8
IMPORT_IGES
100
AcDbLine
 62
7
  6
CONTINUOUS
 10
6.525
 20
4.8955
 11
5.125
 21
4.8955
  0
LINE
  5
5C3
100
AcDbEntity
  8
IMPORT_IGES
100
AcDbLine
 62
7
  6
CONTINUOUS
 10
-6.475
 20
4.8955
 11
-7.875
 21
4.8955
  0
LINE
  5
5C4
100
AcDbEntity
  8
DRAFT
100
AcDbLine
 62
7
  6
CONTINUOUS
 10
8.8196499221
 20
0.5
 11
8.975
 21
0.4223308767
  0
LWPOLYLINE
  5
5C5
100
AcDbEntity
  8
IMPORT_IGES
100
AcDbPolyline
 62
253
  6
CONTINUOUS
 90
4
 70
0
 10
2.9778489134
 20
2.9166453359
 10
2.9680444984
 20
2.9240201344
 10
2.9620345557
 20
2.9284422533
 10
2.9598190853
 20
2.9299131291
  0
LWPOLYLINE
  5
5C6
100
AcDbEntity
  8
IMPORT_IGES
100
AcDbPolyline
 62
253
  6
CONTINUOUS
 90
3
 70
0
 10
3.0300289923
 20
2.877254052
 10
3.0092908807
 20
2.8932100283
 10
2.9778489134
 20
2.9166453359
  0
LWPOLYLINE
  5
5C7
100
AcDbEntity
  8
IMPORT_IGES
100
AcDbPolyline
 62
253
  6
CONTINUOUS
 90
7
 70
0
 10
3.2427467459
 20
2.6993896525
 10
3.2074549544
 20
2.7314694886
 10
3.1734721756
 20
2.7610755592
 10
3.1409408161
 20
2.7882914956
 10
3.1102880961
 20
2.8136982234
 10
3.0812426713
 20
2.837290177
 10
3.0300289923
 20
2.877254052
  0
LINE
  5
5C8
100
AcDbEntity
  8
IMPORT_IGES
100
AcDbLine
 62
253
  6
CONTINUOUS
 10
3.3176845872
 20
2.6299131308
 11
3.2427467459
 21
2.6993896525
  0
LINE
  5
5C9
100
AcDbEntity
  8
RACCORDO
100
AcDbLine
 62
7
  6
CONTINUOUS
 10
-8.2591007192
 20
21.3126932437
 11
-8.3125346208
 21
21.3881838872
  0
LINE
  5
5CA
100
AcDbEntity
  8
RACCORDO
100
AcDbLine
 62
7
  6
CONTINUOUS
 10
-8.3125346208
 20
21.3881838872
 11
-8.3917764984
 21
21.5011382645
  0
LWPOLYLINE
  5
5CB
100
AcDbEntity
  8
RACCORDO
100
AcDbPolyline
 62
7
  6
CONTINUOUS
 90
5
 70
0
 10
-8.3917764984
 20
21.5011382645
 10
-8.4435136093
 20
21.5758926167
 10
-8.4689545568
 20
21.6129888844
 10
-8.493929804
 20
21.6499179842
 10
-8.518380061
 20
21.6866457638
  0
LINE
  5
5CC
100
AcDbEntity
  8
RACCORDO
100
AcDbLine
 62
7
  6
CONTINUOUS
 10
-7.230294768
 20
20.0829433217
 11
-7.1232213147
 21
19.9223308767
  0
LINE
  5
5CD
100
AcDbEntity
  8
RACCORDO
100
AcDbLine
 62
7
  6
CONTINUOUS
 10
-8.518380061
 20
21.6866457638
 11
-8.5658834737
 21
21.7591165263
  0
LINE
  5
5CE
100
AcDbEntity
  8
IMPORT_IGES
100
AcDbLine
 62
7
  6
CONTINUOUS
 10
3.1477803983
 20
2.5243975826
 11
3.4772052088
 21
1.885
  0
LWPOLYLINE
  5
5CF
100
AcDbEntity
  8
IMPORT_IGES
100
AcDbPolyline
 62
253
  6
CONTINUOUS
 90
7
 70
0
 10
3.7367635797
 20
6.6212636951
 10
3.6918613558
 20
6.8320488385
 10
3.6316953892
 20
7.1792511807
 10
3.5849071912
 20
7.5273538307
 10
3.5515603588
 20
7.875685521
 10
3.5315912951
 20
8.2248693125
 10
3.525
 20
8.5748812075
  0
LWPOLYLINE
  5
5D0
100
AcDbEntity
  8
IMPORT_IGES
100
AcDbPolyline
 62
253
  6
CONTINUOUS
 90
9
 70
0
 10
6.7051401223
 20
-7.8434803835
 10
6.6966524237
 20
-7.7918485038
 10
6.6878061482
 20
-7.728113216
 10
6.6786572536
 20
-7.6522660418
 10
6.668804347
 20
-7.5588289986
 10
6.6588257071
 20
-7.4532566618
 10
6.6501008769
 20
-7.3519701867
 10
6.6431324807
 20
-7.2615120425
 10
6.6372111298
 20
-7.1753832167
  0
LWPOLYLINE
  5
5D1
100
AcDbEntity
  8
IMPORT_IGES
100
AcDbPolyline
 62
253
  6
CONTINUOUS
 90
13
 70
0
 10
3.3455798568
 20
7.9683231795
 10
3.342897582
 20
7.9856069181
 10
3.3370998768
 20
8.0026733232
 10
3.328232958
 20
8.0190859492
 10
3.3166748854
 20
8.0342403339
 10
3.3026828433
 20
8.0480032179
 10
3.2860013359
 20
8.0605910908
 10
3.2668006416
 20
8.0716998366
 10
3.2455840562
 20
8.0809505692
 10
3.2223517804
 20
8.0882606248
 10
3.1974820676
 20
8.0933890495
 10
3.1718054376
 20
8.0961229613
 10
3.1460217471
 20
8.0964465866
  0
LWPOLYLINE
  5
5D2
100
AcDbEntity
  8
IMPORT_IGES
100
AcDbPolyline
 62
253
  6
CONTINUOUS
 90
19
 70
0
 10
6.7051398472
 20
-7.8434778856
 10
6.7063665857
 20
-7.8515727804
 10
6.7072409839
 20
-7.8592132778
 10
6.7077571525
 20
-7.8664082443
 10
6.7079535877
 20
-7.873095418
 10
6.7077777501
 20
-7.8793538823
 10
6.7070851817
 20
-7.8854085661
 10
6.7058604191
 20
-7.8915136396
 10
6.7040961278
 20
-7.8974427928
 10
6.7016501457
 20
-7.9027018026
 10
6.6983614397
 20
-7.9071865123
 10
6.6943416285
 20
-7.911010376
 10
6.6898610859
 20
-7.9139877445
 10
6.6850468524
 20
-7.9159907744
 10
6.6797547448
 20
-7.9171119033
 10
6.6738574743
 20
-7.9174868646
 10
6.6673048286
 20
-7.9171491124
 10
6.6601297845
 20
-7.9160264245
 10
6.6523294862
 20
-7.9140967614
  0
LINE
  5
5D3
100
AcDbEntity
  8
IMPORT_IGES
100
AcDbLine
 62
7
  6
CONTINUOUS
 10
3.4641667963
 20
6.9838251532
 11
3.3617559342
 21
7.7606570987
  0
LWPOLYLINE
  5
5D4
100
AcDbEntity
  8
IMPORT_IGES
100
AcDbPolyline
 62
253
  6
CONTINUOUS
 90
13
 70
0
 10
6.575
 20
-8.5448816836
 10
6.5762832708
 20
-8.5605179868
 10
6.5801111261
 20
-8.5758867775
 10
6.5864180701
 20
-8.5907250899
 10
6.5950961895
 20
-8.6047790456
 10
6.605996999
 20
-8.6178081669
 10
6.6189339829
 20
-8.6295894909
 10
6.6336857857
 20
-8.6399214256
 10
6.6500000001
 20
-8.6486271992
 10
6.6675974852
 20
-8.6555578534
 10
6.6861771433
 20
-8.6605948029
 10
6.7054210713
 20
-8.663651864
 10
6.7250000001
 20
-8.6646767297
  0
LWPOLYLINE
  5
5D5
100
AcDbEntity
  8
IMPORT_IGES
100
AcDbPolyline
 62
253
  6
CONTINUOUS
 90
13
 70
0
 10
6.575
 20
-10.0903368751
 10
6.5762232494
 20
-10.1056047829
 10
6.5798739905
 20
-10.120626556
 10
6.5858940532
 20
-10.1351568775
 10
6.5941518323
 20
-10.1489088111
 10
6.6045327087
 20
-10.161713767
 10
6.6170171268
 20
-10.1734859132
 10
6.6315287457
 20
-10.1840298735
 10
6.6478248907
 20
-10.1930601626
 10
6.6656276612
 20
-10.2003485191
 10
6.684636883
 20
-10.2057136407
 10
6.7045449133
 20
-10.2090131161
 10
6.725
 20
-10.2101322016
  0
LWPOLYLINE
  5
5D6
100
AcDbEntity
  8
IMPORT_IGES
100
AcDbPolyline
 62
253
  6
CONTINUOUS
 90
6
 70
0
 10
6.6372111298
 20
-7.1753832167
 10
6.6269170313
 20
-7.0097418875
 10
6.622489593
 20
-6.9302396602
 10
6.6178434339
 20
-6.8398425398
 10
6.6124908937
 20
-6.7264240942
 10
6.6071174817
 20
-6.6020957149
  0
LINE
  5
5D7
100
AcDbEntity
  8
IMPORT_IGES
100
AcDbLine
 62
253
  6
CONTINUOUS
 10
6.6071174817
 20
-6.6020957149
 11
6.599695857
 21
-6.4087813426
  0
LWPOLYLINE
  5
5D8
100
AcDbEntity
  8
IMPORT_IGES
100
AcDbPolyline
 62
253
  6
CONTINUOUS
 90
7
 70
0
 10
6.3970450045
 20
-5.9355760088
 10
6.3885165444
 20
-5.709722849
 10
6.3843083651
 20
-5.5774606324
 10
6.380800746
 20
-5.4298475385
 10
6.3781666033
 20
-5.2655529587
 10
6.3762330209
 20
-5.0859075015
 10
6.3749999987
 20
-4.890911167
  0
LINE
  5
5D9
100
AcDbEntity
  8
RACCORDO
100
AcDbLine
 62
253
  6
CONTINUOUS
 10
6.5668217019
 20
20.0275513222
 11
6.6767786853
 21
16.8065137252
  0
LINE
  5
5DA
100
AcDbEntity
  8
IMPORT_IGES
100
AcDbLine
 62
253
  6
CONTINUOUS
 10
6.599695857
 20
-6.4087813426
 11
6.5949436482
 21
-6.2625882199
  0
LINE
  5
5DB
100
AcDbEntity
  8
IMPORT_IGES
100
AcDbLine
 62
253
  6
CONTINUOUS
 10
6.5949436482
 20
-6.2625882199
 11
6.5895980277
 21
-6.0728633065
  0
LWPOLYLINE
  5
5DC
100
AcDbEntity
  8
RACCORDO
100
AcDbPolyline
 62
7
  6
CONTINUOUS
 90
61
 70
0
 10
6.5668217019
 20
-20.0275513222
 10
6.5663325107
 20
-20.0091628585
 10
6.5649063091
 20
-19.9909323714
 10
6.5625430972
 20
-19.972859861
 10
6.5592294961
 20
-19.9548948957
 10
6.5549788846
 20
-19.9370879072
 10
6.5498313997
 20
-19.9195901896
 10
6.5437788221
 20
-19.9024050225
 10
6.5368293711
 20
-19.8855291263
 10
6.5290478408
 20
-19.8691039577
 10
6.5204294508
 20
-19.8531369236
 10
6.5109789816
 20
-19.837620617
 10
6.5007755685
 20
-19.822674273
 10
6.4898085014
 20
-19.8082977976
 10
6.4780884904
 20
-19.7944912848
 10
6.4657268016
 20
-19.7813742528
 10
6.4527272323
 20
-19.768960632
 10
6.4390859853
 20
-19.757236492
 10
6.4249029355
 20
-19.7462795591
 10
6.4101637009
 20
-19.7360885994
 10
6.3948826635
 20
-19.7266648468
 10
6.3792028439
 20
-19.7180897298
 10
6.3631339648
 20
-19.7103762769
 10
6.3466663034
 20
-19.7035114596
 10
6.3299137124
 20
-19.6975376198
 10
6.3128638592
 20
-19.6924573364
 10
6.2955290765
 20
-19.6882680305
 10
6.2780602141
 20
-19.6850043083
 10
6.2604628624
 20
-19.6826748955
 10
6.2427314312
 20
-19.6812710663
 10
6.225
 20
-19.6808012501
 10
6.2072685688
 20
-19.6812710663
 10
6.1895371376
 20
-19.6826748955
 10
6.1719397859
 20
-19.6850043083
 10
6.1544709235
 20
-19.6882680305
 10
6.1371361408
 20
-19.6924573364
 10
6.1200862876
 20
-19.6975376198
 10
6.1033336966
 20
-19.7035114596
 10
6.0868660352
 20
-19.7103762769
 10
6.0707971561
 20
-19.7180897298
 10
6.0551173365
 20
-19.7266648468
 10
6.0398362991
 20
-19.7360885994
 10
6.0250970645
 20
-19.7462795591
 10
6.0109140147
 20
-19.757236492
 10
5.9972727677
 20
-19.768960632
 10
5.9842731984
 20
-19.7813742528
 10
5.9719115096
 20
-19.7944912848
 10
5.9601914986
 20
-19.8082977976
 10
5.9492244315
 20
-19.822674273
 10
5.9390210184
 20
-19.837620617
 10
5.9295705492
 20
-19.8531369236
 10
5.9209521592
 20
-19.8691039577
 10
5.9131706289
 20
-19.8855291263
 10
5.9062211779
 20
-19.9024050225
 10
5.9001686003
 20
-19.9195901896
 10
5.8950211154
 20
-19.9370879072
 10
5.8907705039
 20
-19.9548948957
 10
5.8874569028
 20
-19.972859861
 10
5.8850936909
 20
-19.9909323714
 10
5.8836674893
 20
-20.0091628585
 10
5.8831782981
 20
-20.0275513222
  0
LWPOLYLINE
  5
5DD
100
AcDbEntity
  8
RACCORDO
100
AcDbPolyline
 62
7
  6
CONTINUOUS
 90
61
 70
0
 10
5.8831782981
 20
20.0275513222
 10
5.8836674893
 20
20.0091628585
 10
5.8850936909
 20
19.9909323714
 10
5.8874569028
 20
19.972859861
 10
5.8907705039
 20
19.9548948957
 10
5.8950211154
 20
19.9370879072
 10
5.9001686003
 20
19.9195901896
 10
5.9062211779
 20
19.9024050225
 10
5.9131706289
 20
19.8855291263
 10
5.9209521592
 20
19.8691039577
 10
5.9295705492
 20
19.8531369236
 10
5.9390210184
 20
19.837620617
 10
5.9492244315
 20
19.822674273
 10
5.9601914986
 20
19.8082977976
 10
5.9719115096
 20
19.7944912848
 10
5.9842731984
 20
19.7813742528
 10
5.9972727677
 20
19.768960632
 10
6.0109140147
 20
19.757236492
 10
6.0250970645
 20
19.7462795591
 10
6.0398362991
 20
19.7360885994
 10
6.0551173365
 20
19.7266648468
 10
6.0707971561
 20
19.7180897298
 10
6.0868660352
 20
19.7103762769
 10
6.1033336966
 20
19.7035114596
 10
6.1200862876
 20
19.6975376198
 10
6.1371361408
 20
19.6924573364
 10
6.1544709235
 20
19.6882680305
 10
6.1719397859
 20
19.6850043083
 10
6.1895371376
 20
19.6826748955
 10
6.2072685688
 20
19.6812710663
 10
6.225
 20
19.6808012501
 10
6.2427314312
 20
19.6812710663
 10
6.2604628624
 20
19.6826748955
 10
6.2780602141
 20
19.6850043083
 10
6.2955290765
 20
19.6882680305
 10
6.3128638592
 20
19.6924573364
 10
6.3299137124
 20
19.6975376198
 10
6.3466663034
 20
19.7035114596
 10
6.3631339648
 20
19.7103762769
 10
6.3792028439
 20
19.7180897298
 10
6.3948826635
 20
19.7266648468
 10
6.4101637009
 20
19.7360885994
 10
6.4249029355
 20
19.7462795591
 10
6.4390859853
 20
19.757236492
 10
6.4527272323
 20
19.768960632
 10
6.4657268016
 20
19.7813742528
 10
6.4780884904
 20
19.7944912848
 10
6.4898085014
 20
19.8082977976
 10
6.5007755685
 20
19.822674273
 10
6.5109789816
 20
19.837620617
 10
6.5204294508
 20
19.8531369236
 10
6.5290478408
 20
19.8691039577
 10
6.5368293711
 20
19.8855291263
 10
6.5437788221
 20
19.9024050225
 10
6.5498313997
 20
19.9195901896
 10
6.5549788846
 20
19.9370879072
 10
6.5592294961
 20
19.9548948957
 10
6.5625430972
 20
19.972859861
 10
6.5649063091
 20
19.9909323714
 10
6.5663325107
 20
20.0091628585
 10
6.5668217019
 20
20.0275513222
  0
LWPOLYLINE
  5
5DE
100
AcDbEntity
  8
IMPORT_IGES
100
AcDbPolyline
 62
253
  6
CONTINUOUS
 90
7
 70
0
 10
6.5895980277
 20
-6.0728633065
 10
6.5841509312
 20
-5.833013358
 10
6.5815738322
 20
-5.6921573548
 10
6.5791355198
 20
-5.528386335
 10
6.5770308943
 20
-5.3388108569
 10
6.5755581433
 20
-5.1263177464
 10
6.575
 20
-4.8909111672
  0
LWPOLYLINE
  5
5DF
100
AcDbEntity
  8
RACCORDO
100
AcDbPolyline
 62
253
  6
CONTINUOUS
 90
40
 70
0
 10
6.1372642439
 20
-13.4876443732
 10
6.1368090938
 20
-13.4638614013
 10
6.1353918723
 20
-13.4400928486
 10
6.1330125792
 20
-13.416338715
 10
6.1296703654
 20
-13.3925432225
 10
6.1253660801
 20
-13.3687621492
 10
6.1201022709
 20
-13.3451628292
 10
6.1138677702
 20
-13.3217492667
 10
6.1066737456
 20
-13.2985174574
 10
6.0985562475
 20
-13.2756227227
 10
6.0895057972
 20
-13.2530706355
 10
6.0795318735
 20
-13.2308556228
 10
6.0686989632
 20
-13.2091162875
 10
6.057005637
 20
-13.1878662158
 10
6.0444533243
 20
-13.1670918215
 10
6.0311108003
 20
-13.1468909479
 10
6.0169784753
 20
-13.1272705042
 10
6.002055939
 20
-13.1082235813
 10
5.9864107358
 20
-13.0898272952
 10
5.9700411704
 20
-13.0720832075
 10
5.9529489381
 20
-13.0549897565
 10
5.9352066692
 20
-13.0386193741
 10
5.9168129556
 20
-13.0229738404
 10
5.8977692053
 20
-13.0080513752
 10
5.8781522732
 20
-12.9939190693
 10
5.8579553941
 20
-12.9805764916
 10
5.8371853331
 20
-12.9680240731
 10
5.8159392396
 20
-12.9563301984
 10
5.7942037126
 20
-12.9454962125
 10
5.7719921531
 20
-12.9355207703
 10
5.7494419142
 20
-12.9264682212
 10
5.7265470544
 20
-12.9183478063
 10
5.7033135152
 20
-12.9111502845
 10
5.6798964739
 20
-12.9049122824
 10
5.6562919306
 20
-12.8996449597
 10
5.6325038852
 20
-12.8953371566
 10
5.6086995144
 20
-12.89199202
 10
5.5849345438
 20
-12.8896105989
 10
5.561153248
 20
-12.8881918442
 10
5.5373556268
 20
-12.8877357561
  0
LINE
  5
5E0
100
AcDbEntity
  8
RACCORDO
100
AcDbLine
 62
253
  6
CONTINUOUS
 10
7.579371834
 20
-23.8443375673
 11
7.575
 21
-23.4104851482
  0
LINE
  5
5E1
100
AcDbEntity
  8
RACCORDO
100
AcDbLine
 62
7
  6
CONTINUOUS
 10
5.7732213147
 20
16.8065137252
 11
5.7732213147
 21
19.9223308767
  0
LINE
  5
5E2
100
AcDbEntity
  8
0
100
AcDbLine
 62
7
  6
CONTINUOUS
 10
5.7848569743
 20
-17.1473642646
 11
5.7848569743
 21
-19.3
  0
LINE
  5
5E3
100
AcDbEntity
  8
RACCORDO
100
AcDbLine
 62
7
  6
CONTINUOUS
 10
5.8040558127
 20
-19.968583276
 11
5.8040558127
 21
-19.8
  0
LINE
  5
5E4
100
AcDbEntity
  8
IMPORT_IGES
100
AcDbLine
 62
253
  6
CONTINUOUS
 10
5.8250000002
 20
8.2454966127
 11
5.825
 21
7.9454966127
  0
LINE
  5
5E5
100
AcDbEntity
  8
RACCORDO
100
AcDbLine
 62
7
  6
CONTINUOUS
 10
5.825
 20
-13.8188401295
 11
5.825
 21
-13.4999543085
  0
LINE
  5
5E6
100
AcDbEntity
  8
DRAFT
100
AcDbLine
 62
7
  6
CONTINUOUS
 10
5.825
 20
-12.3
 11
5.825
 21
-11.5836351166
  0
LINE
  5
5E7
100
AcDbEntity
  8
RACCORDO
100
AcDbLine
 62
7
  6
CONTINUOUS
 10
5.825
 20
-11.5836351166
 11
5.825
 21
-10.836547998
  0
LINE
  5
5E8
100
AcDbEntity
  8
RACCORDO
100
AcDbLine
 62
253
  6
CONTINUOUS
 10
5.8373099353
 20
-13.4876443732
 11
5.8373099353
 21
-13.8126856306
  0
LINE
  5
5E9
100
AcDbEntity
  8
RACCORDO
100
AcDbLine
 62
7
  6
CONTINUOUS
 10
5.8831782981
 20
20.5829242832
 11
5.8831782981
 21
20.0275513222
  0
LINE
  5
5EA
100
AcDbEntity
  8
RACCORDO
100
AcDbLine
 62
7
  6
CONTINUOUS
 10
5.8831782981
 20
-20.0275513222
 11
5.8831782981
 21
-20.5829242832
  0
LINE
  5
5EB
100
AcDbEntity
  8
IMPORT_IGES
100
AcDbLine
 62
253
  6
CONTINUOUS
 10
5.9650078901
 20
8.2454966127
 11
5.9650078903
 21
7.9454966127
  0
LINE
  5
5EC
100
AcDbEntity
  8
RACCORDO
100
AcDbLine
 62
253
  6
CONTINUOUS
 10
6.1372642439
 20
-13.4876443732
 11
6.1372642439
 21
-13.8101132618
  0
LINE
  5
5ED
100
AcDbEntity
  8
IMPORT_IGES
100
AcDbLine
 62
253
  6
CONTINUOUS
 10
6.2037960123
 20
10.95
 11
6.2037960123
 21
10.7512500193
  0
LINE
  5
5EE
100
AcDbEntity
  8
IMPORT_IGES
100
AcDbLine
 62
253
  6
CONTINUOUS
 10
6.375
 20
4.725
 11
6.375
 21
4.525
  0
LINE
  5
5EF
100
AcDbEntity
  8
IMPORT_IGES
100
AcDbLine
 62
253
  6
CONTINUOUS
 10
6.3749999998
 20
-8.4009330926
 11
6.3750070596
 21
-10.3493575932
  0
LINE
  5
5F0
100
AcDbEntity
  8
IMPORT_IGES
100
AcDbLine
 62
253
  6
CONTINUOUS
 10
6.3749999987
 20
-4.890911167
 11
6.375
 21
0.5465592503
  0
LINE
  5
5F1
100
AcDbEntity
  8
IMPORT_IGES
100
AcDbLine
 62
253
  6
CONTINUOUS
 10
6.425
 20
10.5723299421
 11
6.425
 21
8.1651036572
  0
LINE
  5
5F2
100
AcDbEntity
  8
IMPORT_IGES
100
AcDbLine
 62
253
  6
CONTINUOUS
 10
6.4285898668
 20
1.9199125088
 11
6.4285898385
 21
4.5286060934
  0
LINE
  5
5F3
100
AcDbEntity
  8
IMPORT_IGES
100
AcDbLine
 62
253
  6
CONTINUOUS
 10
6.475
 20
6.3454966127
 11
6.4750000002
 21
6.5454966127
  0
LINE
  5
5F4
100
AcDbEntity
  8
IMPORT_IGES
100
AcDbLine
 62
7
  6
CONTINUOUS
 10
6.525
 20
4.8955
 11
6.525
 21
6.2955
  0
LINE
  5
5F5
100
AcDbEntity
  8
RACCORDO
100
AcDbLine
 62
7
  6
CONTINUOUS
 10
6.5668217019
 20
20.9959955457
 11
6.5668217019
 21
20.0275513222
  0
LINE
  5
5F6
100
AcDbEntity
  8
RACCORDO
100
AcDbLine
 62
7
  6
CONTINUOUS
 10
6.5668217019
 20
-20.0275513222
 11
6.5668217019
 21
-20.9959955457
  0
LINE
  5
5F7
100
AcDbEntity
  8
IMPORT_IGES
100
AcDbLine
 62
7
  6
CONTINUOUS
 10
6.575
 20
6.2454966127
 11
6.575
 21
4.9249999921
  0
LINE
  5
5F8
100
AcDbEntity
  8
IMPORT_IGES
100
AcDbLine
 62
7
  6
CONTINUOUS
 10
6.575
 20
0.4916251854
 11
6.575
 21
-4.890911167
  0
LINE
  5
5F9
100
AcDbEntity
  8
IMPORT_IGES
100
AcDbLine
 62
7
  6
CONTINUOUS
 10
6.575
 20
-8.5448816836
 11
6.575
 21
-10.1437466293
  0
LINE
  5
5FA
100
AcDbEntity
  8
IMPORT_IGES
100
AcDbLine
 62
253
  6
CONTINUOUS
 10
6.6017949192
 20
4.9250000279
 11
6.6017949192
 21
1.9199108712
  0
LINE
  5
5FB
100
AcDbEntity
  8
IMPORT_IGES
100
AcDbLine
 62
7
  6
CONTINUOUS
 10
6.625
 20
10.1702184821
 11
6.625
 21
8.0737056137
  0
LINE
  5
5FC
100
AcDbEntity
  8
RACCORDO
100
AcDbLine
 62
7
  6
CONTINUOUS
 10
6.6459441873
 20
-20.7113319946
 11
6.6459441873
 21
-19.8
  0
LINE
  5
5FD
100
AcDbEntity
  8
IMPORT_IGES
100
AcDbLine
 62
253
  6
CONTINUOUS
 10
6.6523294862
 20
-7.9140968572
 11
6.6523383266
 21
-8.002037147
  0
LINE
  5
5FE
100
AcDbEntity
  8
DRAFT
100
AcDbLine
 62
7
  6
CONTINUOUS
 10
6.6575462644
 20
-11.5174537356
 11
6.6575462644
 21
-10.3558961425
  0
LINE
  5
5FF
100
AcDbEntity
  8
0
100
AcDbLine
 62
7
  6
CONTINUOUS
 10
6.6651430257
 20
-17.1473642646
 11
6.6651430257
 21
-19.3
  0
LINE
  5
600
100
AcDbEntity
  8
DRAFT
100
AcDbLine
 62
7
  6
CONTINUOUS
 10
6.675
 20
-11.5
 11
6.675
 21
-10.3458192235
  0
LINE
  5
601
100
AcDbEntity
  8
RACCORDO
100
AcDbLine
 62
7
  6
CONTINUOUS
 10
6.6767786853
 20
20.4335707644
 11
6.6767786853
 21
16.8065137252
  0
LINE
  5
602
100
AcDbEntity
  8
IMPORT_IGES
100
AcDbLine
 62
253
  6
CONTINUOUS
 10
6.725
 20
-10.2101322016
 11
6.725
 21
-8.6646770093
  0
LINE
  5
603
100
AcDbEntity
  8
RACCORDO
100
AcDbLine
 62
7
  6
CONTINUOUS
 10
6.7351132618
 20
-13.3101323002
 11
6.7351132618
 21
-12.4101132618
  0
LINE
  5
604
100
AcDbEntity
  8
IMPORT_IGES
100
AcDbLine
 62
253
  6
CONTINUOUS
 10
6.775
 20
6.2454966126
 11
6.7750034067
 21
-7.8451539817
  0
LINE
  5
605
100
AcDbEntity
  8
RACCORDO
100
AcDbLine
 62
7
  6
CONTINUOUS
 10
6.825
 20
-13.4000190385
 11
6.825
 21
-12.5
  0
LINE
  5
606
100
AcDbEntity
  8
IMPORT_IGES
100
AcDbLine
 62
253
  6
CONTINUOUS
 10
6.825
 20
7.9382103158
 11
6.8249993569
 21
10.2409235741
  0
LINE
  5
607
100
AcDbEntity
  8
RACCORDO
100
AcDbLine
 62
253
  6
CONTINUOUS
 10
6.9091007192
 20
-21.3126932437
 11
6.9091007192
 21
-20.9959955457
  0
LINE
  5
608
100
AcDbEntity
  8
RACCORDO
100
AcDbLine
 62
253
  6
CONTINUOUS
 10
6.9091007192
 20
20.9959955457
 11
6.9091007192
 21
21.3126932437
  0
LINE
  5
609
100
AcDbEntity
  8
IMPORT_IGES
100
AcDbLine
 62
253
  6
CONTINUOUS
 10
7.025
 20
-10.036927121
 11
7.0249999856
 21
6.885678939
  0
LINE
  5
60A
100
AcDbEntity
  8
IMPORT_IGES
100
AcDbLine
 62
253
  6
CONTINUOUS
 10
7.025
 20
7.7360009257
 11
7.025
 21
10.0409280425
  0
LINE
  5
60B
100
AcDbEntity
  8
IMPORT_IGES
100
AcDbLine
 62
7
  6
CONTINUOUS
 10
7.325
 20
-9.7973364678
 11
7.325
 21
9.8287960079
  0
LINE
  5
60C
100
AcDbEntity
  8
RACCORDO
100
AcDbLine
 62
253
  6
CONTINUOUS
 10
7.4090245667
 20
-21.5659754333
 11
7.4090245667
 21
-20.9917082642
  0
LINE
  5
60D
100
AcDbEntity
  8
RACCORDO
100
AcDbLine
 62
253
  6
CONTINUOUS
 10
7.4090245667
 20
20.9917082642
 11
7.4090245667
 21
21.5659754333
  0
LWPOLYLINE
  5
60E
100
AcDbEntity
  8
IMPORT_IGES
100
AcDbPolyline
 62
253
  6
CONTINUOUS
 90
5
 70
0
 10
6.6017949192
 20
1.9199108712
 10
6.6011250839
 20
1.7681903004
 10
6.5992662771
 20
1.6155371016
 10
6.5963439306
 20
1.4619512748
 10
6.5926202837
 20
1.3085152623
  0
LINE
  5
60F
100
AcDbEntity
  8
RACCORDO
100
AcDbLine
 62
253
  6
CONTINUOUS
 10
7.575
 20
23.4104851482
 11
7.579371834
 21
23.8443375673
  0
LWPOLYLINE
  5
610
100
AcDbEntity
  8
IMPORT_IGES
100
AcDbPolyline
 62
253
  6
CONTINUOUS
 90
10
 70
0
 10
6.4285898492
 20
1.9199125088
 10
6.4264588304
 20
1.7724603279
 10
6.4227654223
 20
1.6243810607
 10
6.417509625
 20
1.4758078282
 10
6.4098827225
 20
1.3282284656
 10
6.4006934308
 20
1.1804218038
 10
6.3923678978
 20
1.0285119328
 10
6.3857148397
 20
0.8713857102
 10
6.3799255405
 20
0.7106403437
 10
6.375
 20
0.5465592503
  0
LWPOLYLINE
  5
611
100
AcDbEntity
  8
0
100
AcDbPolyline
 62
7
  6
CONTINUOUS
 90
67
 70
0
 10
5.7848569743
 20
-17.1473642646
 10
5.7853697337
 20
-17.1259015607
 10
5.7868834038
 20
-17.1045779493
 10
5.7893979846
 20
-17.0833934305
 10
5.7929262002
 20
-17.0622921631
 10
5.7974553264
 20
-17.0413299883
 10
5.8029471908
 20
-17.0206744296
 10
5.8094049171
 20
-17.0003416951
 10
5.8168253814
 20
-16.9803155769
 10
5.82516104
 20
-16.9607149742
 10
5.8344266944
 20
-16.9415277614
 10
5.844607543
 20
-16.9227660642
 10
5.8556116374
 20
-16.9045851585
 10
5.8674311271
 20
-16.8870095678
 10
5.8800738625
 20
-16.8700147687
 10
5.8934714468
 20
-16.8536824674
 10
5.9076466351
 20
-16.8379975206
 10
5.9225766721
 20
-16.8229750716
 10
5.9381248955
 20
-16.8087422555
 10
5.9542721736
 20
-16.7953242537
 10
5.971037638
 20
-16.7826958848
 10
5.9883420201
 20
-16.7709087402
 10
6.0062128941
 20
-16.7599523211
 10
6.0246226858
 20
-16.7498371262
 10
6.0434094041
 20
-16.7406462429
 10
6.0625506773
 20
-16.7323974148
 10
6.0820688771
 20
-16.7250728982
 10
6.1018691275
 20
-16.7187025494
 10
6.1219719555
 20
-16.713285299
 10
6.142356834
 20
-16.7088222164
 10
6.1628673056
 20
-16.7053463663
 10
6.1834930246
 20
-16.7028666925
 10
6.2042443367
 20
-16.7013742512
 10
6.2249958214
 20
-16.7008752761
 10
6.2457476368
 20
-16.7013739204
 10
6.2664996248
 20
-16.702866031
 10
6.2871258906
 20
-16.7053453822
 10
6.3076365826
 20
-16.7088209234
 10
6.3280215524
 20
-16.7132837052
 10
6.3481244604
 20
-16.7187006542
 10
6.3679247394
 20
-16.7250706503
 10
6.3874429565
 20
-16.7323948136
 10
6.4065844731
 20
-16.7406434299
 10
6.4253719516
 20
-16.7498344259
 10
6.4437827295
 20
-16.7599498749
 10
6.4616541811
 20
-16.7709062827
 10
6.4789582101
 20
-16.7826927619
 10
6.4957229129
 20
-16.7953201999
 10
6.5118699531
 20
-16.8087377646
 10
6.5274191301
 20
-16.8229712622
 10
6.5423506445
 20
-16.8379948865
 10
6.5565267618
 20
-16.8536803863
 10
6.569924026
 20
-16.8700117754
 10
6.582565893
 20
-16.88700504
 10
6.5943849958
 20
-16.9045798873
 10
6.6053898213
 20
-16.922761853
 10
6.6155718826
 20
-16.9415254015
 10
6.6248383519
 20
-16.9607136338
 10
6.6331739272
 20
-16.9803133499
 10
6.6405939105
 20
-17.0003377497
 10
6.6470513812
 20
-17.0206695343
 10
6.652543535
 20
-17.0413257692
 10
6.6570731762
 20
-17.0622893888
 10
6.6606017967
 20
-17.0833918978
 10
6.6631165604
 20
-17.1045771308
 10
6.6646303034
 20
-17.125901253
 10
6.6651430257
 20
-17.1473642646
  0
LWPOLYLINE
  5
612
100
AcDbEntity
  8
RACCORDO
100
AcDbPolyline
 62
7
  6
CONTINUOUS
 90
34
 70
0
 10
7.575
 20
24.2500042308
 10
7.5752831502
 20
24.261899516
 10
7.5761319658
 20
24.2737678556
 10
7.5775445259
 20
24.2855823661
 10
7.5795176323
 20
24.2973162875
 10
7.5820468183
 20
24.3089430388
 10
7.5851263583
 20
24.320436279
 10
7.5887492787
 20
24.3317699738
 10
7.5929073742
 20
24.3429184493
 10
7.5975912278
 20
24.3538564463
 10
7.6027902312
 20
24.3645591876
 10
7.6084926084
 20
24.3750024283
 10
7.6146854419
 20
24.3851625059
 10
7.6213547045
 20
24.3950164051
 10
7.6284852893
 20
24.4045418038
 10
7.6360610411
 20
24.4137171191
 10
7.6440647995
 20
24.4225215661
 10
7.6524784339
 20
24.4309352005
 10
7.6612828809
 20
24.4389389589
 10
7.6704581962
 20
24.4465147107
 10
7.6799835949
 20
24.4536452955
 10
7.6898374941
 20
24.4603145581
 10
7.6999975717
 20
24.4665073916
 10
7.7104408124
 20
24.4722097688
 10
7.7211435537
 20
24.4774087722
 10
7.7320815507
 20
24.4820926258
 10
7.7432300262
 20
24.4862507213
 10
7.754563721
 20
24.4898736417
 10
7.7660569612
 20
24.4929531817
 10
7.7776837125
 20
24.4954823677
 10
7.7894176339
 20
24.4974554741
 10
7.8012321444
 20
24.4988680342
 10
7.813100484
 20
24.4997168498
 10
7.8249957692
 20
24.5
  0
LWPOLYLINE
  5
613
100
AcDbEntity
  8
RACCORDO
100
AcDbPolyline
 62
7
  6
CONTINUOUS
 90
67
 70
0
 10
6.6767786853
 20
16.8065137252
 10
6.6762467531
 20
16.7844342482
 10
6.6746880095
 20
16.7625115112
 10
6.6721024546
 20
16.7407455142
 10
6.6684778428
 20
16.7190853843
 10
6.6638264197
 20
16.6975819945
 10
6.6581849218
 20
16.6763879635
 10
6.6515459802
 20
16.6555067062
 10
6.6439169639
 20
16.6349348077
 10
6.6353567167
 20
16.6148146424
 10
6.6258602529
 20
16.5951521798
 10
6.6154325581
 20
16.5759414502
 10
6.6041474332
 20
16.5573069193
 10
6.5919952334
 20
16.5392482489
 10
6.5789856034
 20
16.5217657771
 10
6.5652212778
 20
16.5049849836
 10
6.5507050393
 20
16.4889190733
 10
6.5354341052
 20
16.4735548414
 10
6.5195028613
 20
16.4589781527
 10
6.5028972677
 20
16.4451861472
 10
6.4856313642
 20
16.4321816851
 10
6.4678416569
 20
16.4200592119
 10
6.4495381899
 20
16.4088328227
 10
6.4307109191
 20
16.3984884224
 10
6.4114662174
 20
16.3890781722
 10
6.3917888259
 20
16.3806017527
 10
6.3716940035
 20
16.3730594833
 10
6.3513339004
 20
16.3665044834
 10
6.33071874
 20
16.3609467581
 10
6.3098382988
 20
16.3563763022
 10
6.2888140563
 20
16.3528162195
 10
6.2676385718
 20
16.3502706391
 10
6.2463192859
 20
16.3487354319
 10
6.225
 20
16.3482213147
 10
6.2036807141
 20
16.3487354319
 10
6.1823614282
 20
16.3502706391
 10
6.1611859437
 20
16.3528162195
 10
6.1401617012
 20
16.3563763022
 10
6.11928126
 20
16.3609467581
 10
6.0986660996
 20
16.3665044834
 10
6.0783059965
 20
16.3730594833
 10
6.0582111741
 20
16.3806017527
 10
6.0385337826
 20
16.3890781722
 10
6.0192890809
 20
16.3984884224
 10
6.0004618101
 20
16.4088328227
 10
5.9821583431
 20
16.4200592119
 10
5.9643686358
 20
16.4321816851
 10
5.9471027323
 20
16.4451861472
 10
5.9304971387
 20
16.4589781527
 10
5.9145658948
 20
16.4735548414
 10
5.8992949607
 20
16.4889190733
 10
5.8847787222
 20
16.5049849836
 10
5.8710143966
 20
16.5217657771
 10
5.8580047666
 20
16.5392482489
 10
5.8458525668
 20
16.5573069193
 10
5.8345674419
 20
16.5759414502
 10
5.8241397471
 20
16.5951521798
 10
5.8146432833
 20
16.6148146424
 10
5.8060830361
 20
16.6349348077
 10
5.7984540198
 20
16.6555067062
 10
5.7918150782
 20
16.6763879635
 10
5.7861735803
 20
16.6975819945
 10
5.7815221572
 20
16.7190853843
 10
5.7778975454
 20
16.7407455142
 10
5.7753119905
 20
16.7625115112
 10
5.7737532469
 20
16.7844342482
 10
5.7732213147
 20
16.8065137252
  0
LWPOLYLINE
  5
614
100
AcDbEntity
  8
RACCORDO
100
AcDbPolyline
 62
253
  6
CONTINUOUS
 90
31
 70
0
 10
7.579371834
 20
24.2456323968
 10
7.579715023
 20
24.2587187509
 10
7.580742766
 20
24.2717692492
 10
7.5824522491
 20
24.2847481067
 10
7.5848387919
 20
24.2976197463
 10
7.587895853
 20
24.3103488602
 10
7.5916150425
 20
24.3229005077
 10
7.5959861576
 20
24.3352402638
 10
7.6009972131
 20
24.347334301
 10
7.6066344613
 20
24.3591494467
 10
7.6128824405
 20
24.3706533025
 10
7.6197240163
 20
24.3818143284
 10
7.6271404232
 20
24.3926019187
 10
7.6351113313
 20
24.402986508
 10
7.6436148729
 20
24.4129396114
 10
7.652627692
 20
24.4224339046
 10
7.6621250264
 20
24.4314433264
 10
7.6720808636
 20
24.4399432233
 10
7.6824679894
 20
24.4479103656
 10
7.6932580686
 20
24.4553229956
 10
7.704421387
 20
24.4621606774
 10
7.7159269875
 20
24.4684044791
 10
7.7277430657
 20
24.4740372277
 10
7.7398374218
 20
24.4790436576
 10
7.7521772258
 20
24.4834102087
 10
7.7647314103
 20
24.4871256484
 10
7.7774628755
 20
24.4901787618
 10
7.7903285943
 20
24.492559892
 10
7.8032903689
 20
24.4942634962
 10
7.8163152632
 20
24.4952867588
 10
7.8293676032
 20
24.495628166
  0
LWPOLYLINE
  5
615
100
AcDbEntity
  8
IMPORT_IGES
100
AcDbPolyline
 62
253
  6
CONTINUOUS
 90
5
 70
0
 10
6.5926202837
 20
1.3085152623
 10
6.5837721673
 20
0.9955980264
 10
6.5794961704
 20
0.8317870342
 10
6.5762834563
 20
0.6637960872
 10
6.575
 20
0.4916251856
  0
LINE
  5
616
100
AcDbEntity
  8
0
100
AcDbLine
 62
253
  6
CONTINUOUS
 10
6.5668217019
 20
-20.0275513222
 11
6.6651430257
 21
-17.1473642646
  0
LWPOLYLINE
  5
617
100
AcDbEntity
  8
IMPORT_IGES
100
AcDbPolyline
 62
253
  6
CONTINUOUS
 90
13
 70
0
 10
6.7750034067
 20
-7.8451539818
 10
6.7741247877
 20
-7.8684322314
 10
6.7713833916
 20
-7.890091436
 10
6.7667792185
 20
-7.9101266898
 10
6.7602279665
 20
-7.9287703584
 10
6.7518139375
 20
-7.9458120726
 10
6.7417900366
 20
-7.9606220454
 10
6.7300926695
 20
-7.9731245075
 10
6.7167854306
 20
-7.9835082288
 10
6.702312008
 20
-7.9915720903
 10
6.6868202979
 20
-7.9972826855
 10
6.670162404
 20
-8.0007632031
 10
6.6523383266
 20
-8.0020378784
  0
LWPOLYLINE
  5
618
100
AcDbEntity
  8
IMPORT_IGES
100
AcDbPolyline
 62
253
  6
CONTINUOUS
 90
4
 70
0
 10
6.5967366687
 20
4.8354954478
 10
6.5992875995
 20
4.8643962437
 10
6.6009521698
 20
4.8942311038
 10
6.6017949192
 20
4.9250000279
  0
LWPOLYLINE
  5
619
100
AcDbEntity
  8
ASSI
100
AcDbPolyline
 62
7
  6
CONTINUOUS
 90
17
 70
0
 10
2.825
 20
-23.7511422903
 10
2.8253309496
 20
-23.7484333218
 10
2.8263372585
 20
-23.7450554941
 10
2.8280384326
 20
-23.7410088074
 10
2.8304545678
 20
-23.7363066986
 10
2.8336022674
 20
-23.7309357306
 10
2.8374904908
 20
-23.7248555929
 10
2.8421299958
 20
-23.7180581801
 10
2.8475307956
 20
-23.7105515976
 10
2.8536918512
 20
-23.7023198506
 10
2.8606000818
 20
-23.69338247
 10
2.8682706493
 20
-23.6837199248
 10
2.8767508381
 20
-23.673257628
 10
2.8860539485
 20
-23.6619971292
 10
2.8961841112
 20
-23.6499368786
 10
2.9071916901
 20
-23.6369976396
 10
2.9190894927
 20
-23.6231776604
  0
LWPOLYLINE
  5
61A
100
AcDbEntity
  8
IMPORT_IGES
100
AcDbPolyline
 62
253
  6
CONTINUOUS
 90
13
 70
0
 10
7.325
 20
-0.9684009441
 10
7.3224334584
 20
-0.9845322537
 10
7.3147777479
 20
-1.0003875521
 10
7.3021638598
 20
-1.0156955508
 10
7.2848076211
 20
-1.0301943257
 10
7.2630060021
 20
-1.0436357986
 10
7.2371320344
 20
-1.0557899824
 10
7.2076284287
 20
-1.0664489155
 10
7.175
 20
-1.0754302206
 10
7.1398050297
 20
-1.0825802251
 10
7.1026457135
 20
-1.0877765904
 10
7.0641578577
 20
-1.0909304054
 10
7.025
 20
-1.0919877073
  0
LWPOLYLINE
  5
61B
100
AcDbEntity
  8
IMPORT_IGES
100
AcDbPolyline
 62
7
  6
CONTINUOUS
 90
13
 70
0
 10
4.3606727272
 20
-8.5342495152
 10
4.3566599884
 20
-8.5498503645
 10
4.3526891032
 20
-8.5668325819
 10
4.3487692157
 20
-8.5855842858
 10
4.3449648555
 20
-8.6060729872
 10
4.3413104387
 20
-8.6283532013
 10
4.3378015669
 20
-8.6529542106
 10
4.3345368565
 20
-8.6797923382
 10
4.3315897852
 20
-8.7089664133
 10
4.3289958519
 20
-8.7412954635
 10
4.3269008615
 20
-8.7770521802
 10
4.3255070146
 20
-8.8159410571
 10
4.3249999998
 20
-8.8579155969
  0
LWPOLYLINE
  5
61C
100
AcDbEntity
  8
IMPORT_IGES
100
AcDbPolyline
 62
253
  6
CONTINUOUS
 90
13
 70
0
 10
5.075
 20
-4.7136478931
 10
5.0732889723
 20
-4.7169354621
 10
5.0681851653
 20
-4.7201667799
 10
5.0597759065
 20
-4.7232865578
 10
5.0482050808
 20
-4.7262414154
 10
5.0336706681
 20
-4.7289807944
 10
5.0164213562
 20
-4.7314578232
 10
4.9967522857
 20
-4.7336301191
 10
4.9749999998
 20
-4.7354605136
 10
4.9515366865
 20
-4.7369176881
 10
4.9267638096
 20
-4.73797671
 10
4.90110524
 20
-4.7386194591
 10
4.8750000028
 20
-4.7388349378
  0
LWPOLYLINE
  5
61D
100
AcDbEntity
  8
IMPORT_IGES
100
AcDbPolyline
 62
253
  6
CONTINUOUS
 90
10
 70
0
 10
4.325
 20
-4.7514284601
 10
4.3265192247
 20
-4.7492416179
 10
4.3310307379
 20
-4.7471212218
 10
4.3383974596
 20
-4.7451316989
 10
4.3483955557
 20
-4.7433335
 10
4.360721239
 20
-4.7417812623
 10
4.375
 20
-4.7405221498
 10
4.3907979857
 20
-4.7395944201
 10
4.4076351822
 20
-4.7390262617
 10
4.425
 20
-4.7388349378
  0
LINE
  5
61E
100
AcDbEntity
  8
DRAFT
100
AcDbLine
 62
7
  6
CONTINUOUS
 10
-10.1696499221
 20
-11.5
 11
-10.325
 21
-11.5776691233
  0
LINE
  5
61F
100
AcDbEntity
  8
IMPORT_IGES
100
AcDbLine
 62
253
  6
CONTINUOUS
 10
3.2671596306
 20
6.9493552145
 11
3.4641667963
 21
6.9838251532
  0
LINE
  5
620
100
AcDbEntity
  8
IMPORT_IGES
100
AcDbLine
 62
253
  6
CONTINUOUS
 10
3.1625463848
 20
7.7428932188
 11
3.3617559342
 21
7.7606570987
  0
LINE
  5
621
100
AcDbEntity
  8
IMPORT_IGES
100
AcDbLine
 62
7
  6
CONTINUOUS
 10
7.375
 20
5.7
 11
7.325
 21
5.7
  0
LINE
  5
622
100
AcDbEntity
  8
IMPORT_IGES
100
AcDbLine
 62
7
  6
CONTINUOUS
 10
-8.675
 20
5.7
 11
-8.725
 21
5.7
  0
LINE
  5
623
100
AcDbEntity
  8
RACCORDO
100
AcDbLine
 62
7
  6
CONTINUOUS
 10
-9.175
 20
5.9
 11
-8.675
 21
5.9
  0
LINE
  5
624
100
AcDbEntity
  8
RACCORDO
100
AcDbLine
 62
7
  6
CONTINUOUS
 10
7.325
 20
5.9
 11
7.825
 21
5.9
  0
LINE
  5
625
100
AcDbEntity
  8
IMPORT_IGES
100
AcDbLine
 62
7
  6
CONTINUOUS
 10
-7.875
 20
5.9164612251
 11
-6.475
 21
5.9164612251
  0
LINE
  5
626
100
AcDbEntity
  8
IMPORT_IGES
100
AcDbLine
 62
7
  6
CONTINUOUS
 10
5.125
 20
5.9164612251
 11
6.525
 21
5.9164612251
  0
LINE
  5
627
100
AcDbEntity
  8
RACCORDO
100
AcDbLine
 62
253
  6
CONTINUOUS
 10
-9.0877084755
 20
5.9872915245
 11
-8.675
 21
5.9872915245
  0
LINE
  5
628
100
AcDbEntity
  8
RACCORDO
100
AcDbLine
 62
253
  6
CONTINUOUS
 10
7.325
 20
5.9872915245
 11
7.7377084755
 21
5.9872915245
  0
LINE
  5
629
100
AcDbEntity
  8
IMPORT_IGES
100
AcDbLine
 62
253
  6
CONTINUOUS
 10
6.775
 20
6.2454966127
 11
6.575
 21
6.2454966127
  0
LINE
  5
62A
100
AcDbEntity
  8
IMPORT_IGES
100
AcDbLine
 62
253
  6
CONTINUOUS
 10
5.075
 20
6.2454966127
 11
4.875
 21
6.2454966129
  0
LINE
  5
62B
100
AcDbEntity
  8
IMPORT_IGES
100
AcDbLine
 62
253
  6
CONTINUOUS
 10
-6.225
 20
6.2454966127
 11
-6.425
 21
6.2454966127
  0
LINE
  5
62C
100
AcDbEntity
  8
IMPORT_IGES
100
AcDbLine
 62
253
  6
CONTINUOUS
 10
-7.925
 20
6.2454966127
 11
-8.125
 21
6.2454966129
  0
LINE
  5
62D
100
AcDbEntity
  8
RACCORDO
100
AcDbLine
 62
253
  6
CONTINUOUS
 10
-9.0851132618
 20
6.2872801014
 11
-8.675
 21
6.2872801014
  0
LINE
  5
62E
100
AcDbEntity
  8
RACCORDO
100
AcDbLine
 62
253
  6
CONTINUOUS
 10
7.325
 20
6.2872801014
 11
7.7351132618
 21
6.2872801014
  0
LINE
  5
62F
100
AcDbEntity
  8
IMPORT_IGES
100
AcDbLine
 62
7
  6
CONTINUOUS
 10
6.525
 20
6.2955
 11
5.125
 21
6.2955
  0
LINE
  5
630
100
AcDbEntity
  8
IMPORT_IGES
100
AcDbLine
 62
7
  6
CONTINUOUS
 10
-6.475
 20
6.2955
 11
-7.875
 21
6.2955
  0
LINE
  5
631
100
AcDbEntity
  8
IMPORT_IGES
100
AcDbLine
 62
7
  6
CONTINUOUS
 10
6.475
 20
6.3454966127
 11
5.175
 21
6.3454966127
  0
LINE
  5
632
100
AcDbEntity
  8
IMPORT_IGES
100
AcDbLine
 62
7
  6
CONTINUOUS
 10
-6.525
 20
6.3454966127
 11
-7.825
 21
6.3454966127
  0
LINE
  5
633
100
AcDbEntity
  8
IMPORT_IGES
100
AcDbLine
 62
253
  6
CONTINUOUS
 10
-5.675
 20
6.3700000002
 11
-5.3066847109
 21
6.3700000003
  0
LINE
  5
634
100
AcDbEntity
  8
IMPORT_IGES
100
AcDbLine
 62
253
  6
CONTINUOUS
 10
4.325
 20
6.37
 11
3.9566847105
 21
6.37
  0
LINE
  5
635
100
AcDbEntity
  8
IMPORT_IGES
100
AcDbLine
 62
253
  6
CONTINUOUS
 10
-7.8249999998
 20
6.5454966127
 11
-6.525
 21
6.5454966127
  0
LINE
  5
636
100
AcDbEntity
  8
IMPORT_IGES
100
AcDbLine
 62
253
  6
CONTINUOUS
 10
5.1750000002
 20
6.5454966127
 11
6.475
 21
6.5454966127
  0
LINE
  5
637
100
AcDbEntity
  8
IMPORT_IGES
100
AcDbLine
 62
7
  6
CONTINUOUS
 10
-5.675
 20
6.57
 11
-5.3066847109
 21
6.57
  0
LINE
  5
638
100
AcDbEntity
  8
IMPORT_IGES
100
AcDbLine
 62
7
  6
CONTINUOUS
 10
3.956684712
 20
6.57
 11
4.325
 21
6.57
  0
LINE
  5
639
100
AcDbEntity
  8
IMPORT_IGES
100
AcDbLine
 62
253
  6
CONTINUOUS
 10
4.325
 20
6.7454966127
 11
4.625
 21
6.7454966127
  0
LINE
  5
63A
100
AcDbEntity
  8
IMPORT_IGES
100
AcDbLine
 62
253
  6
CONTINUOUS
 10
-5.675
 20
6.7454966127
 11
-5.975
 21
6.7454966127
  0
LINE
  5
63B
100
AcDbEntity
  8
IMPORT_IGES
100
AcDbLine
 62
253
  6
CONTINUOUS
 10
-8.375
 20
6.885504503
 11
-8.675
 21
6.8855045027
  0
LINE
  5
63C
100
AcDbEntity
  8
IMPORT_IGES
100
AcDbLine
 62
7
  6
CONTINUOUS
 10
3.455442872
 20
7.05
 11
3.5898630836
 21
7.05
  0
LINE
  5
63D
100
AcDbEntity
  8
IMPORT_IGES
100
AcDbLine
 62
7
  6
CONTINUOUS
 10
-4.8029073836
 20
7.05
 11
-4.9398630836
 21
7.05
  0
LINE
  5
63E
100
AcDbEntity
  8
IMPORT_IGES
100
AcDbLine
 62
253
  6
CONTINUOUS
 10
7.325
 20
6.885504503
 11
7.025
 21
6.8855626484
  0
LINE
  5
63F
100
AcDbEntity
  8
IMPORT_IGES
100
AcDbLine
 62
253
  6
CONTINUOUS
 10
-4.7117559346
 20
7.7606570943
 11
-4.5125463848
 21
7.7428932188
  0
LINE
  5
640
100
AcDbEntity
  8
IMPORT_IGES
100
AcDbLine
 62
253
  6
CONTINUOUS
 10
-4.8141667963
 20
6.9838251532
 11
-4.6171596306
 21
6.9493552145
  0
LWPOLYLINE
  5
641
100
AcDbEntity
  8
IMPORT_IGES
100
AcDbPolyline
 62
253
  6
CONTINUOUS
 90
10
 70
0
 10
5.0482050808
 20
4.9249999748
 10
5.0536055889
 20
4.9236312608
 10
5.0584559046
 20
4.9227573433
 10
5.0627298535
 20
4.9223782225
 10
5.0664023923
 20
4.9226968067
 10
5.0694506707
 20
4.9235101876
 10
5.0718536713
 20
4.9242096395
 10
5.0735913822
 20
4.9245922539
 10
5.074645474
 20
4.9248609395
 10
5.075
 20
4.925015696
  0
LWPOLYLINE
  5
642
100
AcDbEntity
  8
IMPORT_IGES
100
AcDbPolyline
 62
253
  6
CONTINUOUS
 90
10
 70
0
 10
-8.3749980745
 20
10.0409270798
 10
-8.4034357777
 20
10.0537116779
 10
-8.4314887046
 20
10.0634544337
 10
-8.4587774833
 20
10.0700236569
 10
-8.4849330263
 20
10.0733305756
 10
-8.5096017201
 20
10.0733305632
 10
-8.5324501657
 20
10.0700236569
 10
-8.5531694274
 20
10.0634545564
 10
-8.5714792533
 20
10.0537121015
 10
-8.5871320344
 20
10.0409280423
  0
LWPOLYLINE
  5
643
100
AcDbEntity
  8
IMPORT_IGES
100
AcDbPolyline
 62
253
  6
CONTINUOUS
 90
13
 70
0
 10
6.575
 20
0.4916251854
 10
6.5733301852
 20
0.4987088861
 10
6.5683699383
 20
0.5056521819
 10
6.5602330067
 20
0.5123415697
 10
6.5491468174
 20
0.5186389563
 10
6.5352869217
 20
0.5244800104
 10
6.5186360363
 20
0.5298511872
 10
6.4992502372
 20
0.5346718788
 10
6.477482158
 20
0.5387990099
 10
6.4537528563
 20
0.542120947
 10
6.4284876593
 20
0.5445580746
 10
6.4020817088
 20
0.5460531841
 10
6.375
 20
0.5465592503
  0
LINE
  5
644
100
AcDbEntity
  8
IMPORT_IGES
100
AcDbLine
 62
253
  6
CONTINUOUS
 10
6.4285894702
 20
4.5286060447
 11
6.4017949192
 21
4.7268030467
  0
LWPOLYLINE
  5
645
100
AcDbEntity
  8
IMPORT_IGES
100
AcDbPolyline
 62
253
  6
CONTINUOUS
 90
13
 70
0
 10
7.325
 20
7.8843145751
 10
7.3224334584
 20
7.9120033617
 10
7.3147777479
 20
7.9392183856
 10
7.3021638598
 20
7.9654939901
 10
7.2848076211
 20
7.9903805922
 10
7.2630060021
 20
8.0134523754
 10
7.2371320344
 20
8.0343145751
 10
7.2076284287
 20
8.0526102331
 10
7.175
 20
8.0680263058
 10
7.1398050297
 20
8.0802990198
 10
7.1026457135
 20
8.0892183856
 10
7.0641578577
 20
8.0946317904
 10
7.025
 20
8.0964466094
  0
LWPOLYLINE
  5
646
100
AcDbEntity
  8
IMPORT_IGES
100
AcDbPolyline
 62
253
  6
CONTINUOUS
 90
6
 70
0
 10
7.325
 20
9.8287960079
 10
7.3225122731
 20
9.8560581369
 10
7.3150486772
 20
9.8829797919
 10
7.3026722093
 20
9.9091021229
 10
7.2855156927
 20
9.9339900521
 10
7.263822443
 20
9.9571779396
  0
LWPOLYLINE
  5
647
100
AcDbEntity
  8
RACCORDO
100
AcDbPolyline
 62
253
  6
CONTINUOUS
 90
31
 70
0
 10
7.579371834
 20
23.8443375673
 10
7.5797511657
 20
23.8330274168
 10
7.5808121477
 20
23.8217481519
 10
7.5825518825
 20
23.810530574
 10
7.5849656195
 20
23.7994053159
 10
7.5880467671
 20
23.7884027584
 10
7.5917869113
 20
23.7775529472
 10
7.5961758387
 20
23.7668855107
 10
7.601201564
 20
23.7564295797
 10
7.606850363
 20
23.7462137069
 10
7.6131068099
 20
23.7362657898
 10
7.6199538199
 20
23.7266129942
 10
7.627372695
 20
23.7172816797
 10
7.6353431759
 20
23.7082973282
 10
7.6438434969
 20
23.6996844742
 10
7.6528504455
 20
23.6914666374
 10
7.6623394254
 20
23.6836662592
 10
7.6722845243
 20
23.6763046407
 10
7.6826585842
 20
23.6694018849
 10
7.6934332757
 20
23.6629768418
 10
7.7045791754
 20
23.6570470569
 10
7.7160658462
 20
23.6516287232
 10
7.7278619204
 20
23.646736637
 10
7.7399351853
 20
23.6423841576
 10
7.7522526715
 20
23.6385831707
 10
7.7647807423
 20
23.6353440559
 10
7.7774851864
 20
23.6326756587
 10
7.7903313105
 20
23.6305852658
 10
7.8032840345
 20
23.6290785857
 10
7.8163079873
 20
23.6281597328
 10
7.8293676032
 20
23.6278312164
  0
LWPOLYLINE
  5
648
100
AcDbEntity
  8
RACCORDO
100
AcDbPolyline
 62
253
  6
CONTINUOUS
 90
31
 70
0
 10
9.970628166
 20
-23.8443375673
 10
9.9702496104
 20
-23.833039595
 10
9.9691904828
 20
-23.821769291
 10
9.9674531063
 20
-23.8105574212
 10
9.9650414049
 20
-23.7994336121
 10
9.9619615346
 20
-23.78842936
 10
9.9582224836
 20
-23.7775778202
 10
9.9538349392
 20
-23.7669096972
 10
9.9488105402
 20
-23.7564530239
 10
9.9431628596
 20
-23.746236105
 10
9.9369071671
 20
-23.7362866999
 10
9.9300605925
 20
-23.7266321754
 10
9.9226419842
 20
-23.7172991519
 10
9.9146716801
 20
-23.7083132018
 10
9.9061713853
 20
-23.6996987826
 10
9.8971642949
 20
-23.6914794042
 10
9.8876749912
 20
-23.6836775075
 10
9.8777294041
 20
-23.6763144193
 10
9.8673547212
 20
-23.6694102704
 10
9.8565792888
 20
-23.6629839239
 10
9.8454325308
 20
-23.6570529269
 10
9.8339448938
 20
-23.6516334796
 10
9.822147737
 20
-23.6467403776
 10
9.8100733006
 20
-23.6423869945
 10
9.797754621
 20
-23.6385852371
 10
9.7852253856
 20
-23.6353454907
 10
9.7725197828
 20
-23.6326765842
 10
9.759672462
 20
-23.6305857918
 10
9.7467184947
 20
-23.6290788219
 10
9.733693281
 20
-23.6281597935
 10
9.7206323968
 20
-23.6278312164
  0
LINE
  5
649
100
AcDbEntity
  8
RACCORDO
100
AcDbLine
 62
253
  6
CONTINUOUS
 10
7.8293676032
 20
-23.6278312164
 11
7.8242770021
 21
-23.1226497308
  0
LINE
  5
64A
100
AcDbEntity
  8
DRAFT
100
AcDbLine
 62
7
  6
CONTINUOUS
 10
7.575
 20
21.4
 11
7.575
 21
20.9
  0
LINE
  5
64B
100
AcDbEntity
  8
DRAFT
100
AcDbLine
 62
7
  6
CONTINUOUS
 10
7.575
 20
-20.9
 11
7.575
 21
-21.4
  0
LINE
  5
64C
100
AcDbEntity
  8
RACCORDO
100
AcDbLine
 62
7
  6
CONTINUOUS
 10
7.575
 20
-22.4
 11
7.575
 21
-24.2500042308
  0
LINE
  5
64D
100
AcDbEntity
  8
IMPORT_IGES
100
AcDbLine
 62
7
  6
CONTINUOUS
 10
7.575
 20
-5.8
 11
7.575
 21
5.5
  0
LINE
  5
64E
100
AcDbEntity
  8
RACCORDO
100
AcDbLine
 62
7
  6
CONTINUOUS
 10
7.575
 20
22.4
 11
7.575
 21
24.2500042308
  0
LINE
  5
64F
100
AcDbEntity
  8
RACCORDO
100
AcDbLine
 62
253
  6
CONTINUOUS
 10
7.579371834
 20
24.2456323968
 11
7.579371834
 21
23.8443375673
  0
LINE
  5
650
100
AcDbEntity
  8
RACCORDO
100
AcDbLine
 62
253
  6
CONTINUOUS
 10
7.579371834
 20
-23.8443375673
 11
7.579371834
 21
-24.2456323968
  0
LINE
  5
651
100
AcDbEntity
  8
DRAFT
100
AcDbLine
 62
7
  6
CONTINUOUS
 10
7.6575462644
 20
-8.35
 11
7.6575462644
 21
-9.5825462644
  0
LINE
  5
652
100
AcDbEntity
  8
DRAFT
100
AcDbLine
 62
7
  6
CONTINUOUS
 10
7.675
 20
-9.6
 11
7.675
 21
-8.35
  0
LINE
  5
653
100
AcDbEntity
  8
RACCORDO
100
AcDbLine
 62
7
  6
CONTINUOUS
 10
7.7351132618
 20
6.2872801014
 11
7.7351132618
 21
7.9898867382
  0
LINE
  5
654
100
AcDbEntity
  8
DRAFT
100
AcDbLine
 62
7
  6
CONTINUOUS
 10
7.825
 20
5.9
 11
7.825
 21
7.9
  0
LINE
  5
655
100
AcDbEntity
  8
RACCORDO
100
AcDbLine
 62
253
  6
CONTINUOUS
 10
7.8293676032
 20
-23.6278312164
 11
7.8293676032
 21
-24.495628166
  0
LINE
  5
656
100
AcDbEntity
  8
RACCORDO
100
AcDbLine
 62
253
  6
CONTINUOUS
 10
7.8293676032
 20
23.6278312164
 11
7.8293676032
 21
24.495628166
  0
LINE
  5
657
100
AcDbEntity
  8
RACCORDO
100
AcDbLine
 62
253
  6
CONTINUOUS
 10
8.2553794106
 20
-12.4101132618
 11
8.2553794106
 21
-11.5898867382
  0
LINE
  5
658
100
AcDbEntity
  8
RACCORDO
100
AcDbLine
 62
253
  6
CONTINUOUS
 10
8.2553794106
 20
-8.35
 11
8.2553794106
 21
-7.2898867382
  0
LINE
  5
659
100
AcDbEntity
  8
RACCORDO
100
AcDbLine
 62
253
  6
CONTINUOUS
 10
8.2553794106
 20
-0.4101132618
 11
8.2553794106
 21
0.4101132618
  0
LINE
  5
65A
100
AcDbEntity
  8
RACCORDO
100
AcDbLine
 62
253
  6
CONTINUOUS
 10
8.2553794106
 20
7.9898867382
 11
8.2553794106
 21
8.8101132618
  0
LINE
  5
65B
100
AcDbEntity
  8
RACCORDO
100
AcDbLine
 62
253
  6
CONTINUOUS
 10
8.5372871968
 20
-12.4118358927
 11
8.5372871968
 21
-11.5881641073
  0
LINE
  5
65C
100
AcDbEntity
  8
RACCORDO
100
AcDbLine
 62
253
  6
CONTINUOUS
 10
8.5372871968
 20
-8.35
 11
8.5372871968
 21
-7.2881641073
  0
LINE
  5
65D
100
AcDbEntity
  8
RACCORDO
100
AcDbLine
 62
253
  6
CONTINUOUS
 10
8.5372871968
 20
-0.4118358927
 11
8.5372871968
 21
0.4118358927
  0
LINE
  5
65E
100
AcDbEntity
  8
RACCORDO
100
AcDbLine
 62
253
  6
CONTINUOUS
 10
8.5372871968
 20
7.9881641073
 11
8.5372871968
 21
8.8118358927
  0
LINE
  5
65F
100
AcDbEntity
  8
DRAFT
100
AcDbLine
 62
7
  6
CONTINUOUS
 10
8.8196499221
 20
7.9
 11
8.8196499221
 21
0.5
  0
LINE
  5
660
100
AcDbEntity
  8
DRAFT
100
AcDbLine
 62
7
  6
CONTINUOUS
 10
8.8196499221
 20
-0.5
 11
8.8196499221
 21
-7.2
  0
LINE
  5
661
100
AcDbEntity
  8
DRAFT
100
AcDbLine
 62
7
  6
CONTINUOUS
 10
8.8196499221
 20
-8.35
 11
8.8196499221
 21
-11.5
  0
LINE
  5
662
100
AcDbEntity
  8
DRAFT
100
AcDbLine
 62
7
  6
CONTINUOUS
 10
8.8196499221
 20
-14.7
 11
8.8196499221
 21
-12.5
  0
LINE
  5
663
100
AcDbEntity
  8
RACCORDO
100
AcDbLine
 62
7
  6
CONTINUOUS
 10
8.8196499221
 20
8.9
 11
8.8196499221
 21
19.9333419123
  0
LINE
  5
664
100
AcDbEntity
  8
RACCORDO
100
AcDbLine
 62
7
  6
CONTINUOUS
 10
8.854560052
 20
-19.3
 11
8.854560052
 21
-15.2792978419
  0
LINE
  5
665
100
AcDbEntity
  8
RACCORDO
100
AcDbLine
 62
7
  6
CONTINUOUS
 10
8.9121617663
 20
-20.2111031425
 11
8.9121617663
 21
-19.8
  0
LINE
  5
666
100
AcDbEntity
  8
RACCORDO
100
AcDbLine
 62
7
  6
CONTINUOUS
 10
8.975
 20
20.3997711479
 11
8.975
 21
8.8223308767
  0
LINE
  5
667
100
AcDbEntity
  8
RACCORDO
100
AcDbLine
 62
7
  6
CONTINUOUS
 10
8.975
 20
-12.4223308767
 11
8.975
 21
-20.3997711479
  0
LINE
  5
668
100
AcDbEntity
  8
DRAFT
100
AcDbLine
 62
7
  6
CONTINUOUS
 10
8.975
 20
-12.4223308767
 11
8.975
 21
8.8223308767
  0
LINE
  5
669
100
AcDbEntity
  8
RACCORDO
100
AcDbLine
 62
253
  6
CONTINUOUS
 10
7.8242770021
 20
23.1226497308
 11
7.8293676032
 21
23.6278312164
  0
LWPOLYLINE
  5
66A
100
AcDbEntity
  8
RACCORDO
100
AcDbPolyline
 62
253
  6
CONTINUOUS
 90
31
 70
0
 10
7.579371834
 20
-23.8443375673
 10
7.5797503896
 20
-23.833039595
 10
7.5808095172
 20
-23.821769291
 10
7.5825468937
 20
-23.8105574212
 10
7.5849585951
 20
-23.7994336121
 10
7.5880384654
 20
-23.78842936
 10
7.5917775164
 20
-23.7775778202
 10
7.5961650608
 20
-23.7669096972
 10
7.6011894598
 20
-23.7564530239
 10
7.6068371404
 20
-23.746236105
 10
7.6130928329
 20
-23.7362866999
 10
7.6199394075
 20
-23.7266321754
 10
7.6273580158
 20
-23.7172991519
 10
7.6353283199
 20
-23.7083132018
 10
7.6438286147
 20
-23.6996987826
 10
7.6528357051
 20
-23.6914794042
 10
7.6623250088
 20
-23.6836775075
 10
7.6722705959
 20
-23.6763144193
 10
7.6826452788
 20
-23.6694102704
 10
7.6934207112
 20
-23.6629839239
 10
7.7045674692
 20
-23.6570529269
 10
7.7160551062
 20
-23.6516334796
 10
7.727852263
 20
-23.6467403776
 10
7.7399266994
 20
-23.6423869945
 10
7.752245379
 20
-23.6385852371
 10
7.7647746144
 20
-23.6353454907
 10
7.7774802172
 20
-23.6326765842
 10
7.790327538
 20
-23.6305857918
 10
7.8032815053
 20
-23.6290788219
 10
7.816306719
 20
-23.6281597935
 10
7.8293676032
 20
-23.6278312164
  0
LWPOLYLINE
  5
66B
100
AcDbEntity
  8
RACCORDO
100
AcDbPolyline
 62
253
  6
CONTINUOUS
 90
31
 70
0
 10
9.970628166
 20
23.8443375673
 10
9.9702496104
 20
23.833039595
 10
9.9691904828
 20
23.821769291
 10
9.9674531063
 20
23.8105574212
 10
9.9650414049
 20
23.7994336121
 10
9.9619615346
 20
23.78842936
 10
9.9582224836
 20
23.7775778202
 10
9.9538349392
 20
23.7669096972
 10
9.9488105402
 20
23.7564530239
 10
9.9431628596
 20
23.746236105
 10
9.9369071671
 20
23.7362866999
 10
9.9300605925
 20
23.7266321754
 10
9.9226419842
 20
23.7172991519
 10
9.9146716801
 20
23.7083132018
 10
9.9061713853
 20
23.6996987826
 10
9.8971642949
 20
23.6914794042
 10
9.8876749912
 20
23.6836775075
 10
9.8777294041
 20
23.6763144193
 10
9.8673547212
 20
23.6694102704
 10
9.8565792888
 20
23.6629839239
 10
9.8454325308
 20
23.6570529269
 10
9.8339448938
 20
23.6516334796
 10
9.822147737
 20
23.6467403776
 10
9.8100733006
 20
23.6423869945
 10
9.797754621
 20
23.6385852371
 10
9.7852253856
 20
23.6353454907
 10
9.7725197828
 20
23.6326765842
 10
9.759672462
 20
23.6305857918
 10
9.7467184947
 20
23.6290788219
 10
9.733693281
 20
23.6281597935
 10
9.7206323968
 20
23.6278312164
  0
LWPOLYLINE
  5
66C
100
AcDbEntity
  8
IMPORT_IGES
100
AcDbPolyline
 62
253
  6
CONTINUOUS
 90
13
 70
0
 10
7.325
 20
-7.9419134721
 10
7.3224334584
 20
-7.9731863277
 10
7.3147777479
 20
-8.0039240961
 10
7.3021638598
 20
-8.0336008456
 10
7.2848076211
 20
-8.0617087986
 10
7.2630060021
 20
-8.0877670204
 10
7.2371320344
 20
-8.1113296476
 10
7.2076284287
 20
-8.131993517
 10
7.175
 20
-8.1494050641
 10
7.1398050297
 20
-8.1632663726
 10
7.1026457135
 20
-8.1733402716
 10
7.0641578577
 20
-8.179454394
 10
7.025
 20
-8.1815041253
  0
LINE
  5
66D
100
AcDbEntity
  8
0
100
AcDbLine
 62
7
  6
CONTINUOUS
 10
6.6459441873
 20
-20.7113319946
 11
6.6238376746
 21
-20.9104703804
  0
LWPOLYLINE
  5
66E
100
AcDbEntity
  8
IMPORT_IGES
100
AcDbPolyline
 62
253
  6
CONTINUOUS
 90
25
 70
0
 10
4.9976704992
 20
-7.9140968572
 10
5.0144328714
 20
-7.8758661001
 10
5.0333033218
 20
-7.8145826589
 10
5.0542818506
 20
-7.7302465335
 10
5.0792085543
 20
-7.6134499677
 10
5.1062433362
 20
-7.4736007178
 10
5.1298659069
 20
-7.3389220523
 10
5.1476143274
 20
-7.2194899568
 10
5.1619505366
 20
-7.1052284458
 10
5.1747400628
 20
-6.9941328314
 10
5.1862058495
 20
-6.8888784382
 10
5.1961249532
 20
-6.7867899416
 10
5.2056940705
 20
-6.6778366802
 10
5.2155743813
 20
-6.5544853417
 10
5.2251047058
 20
-6.4242692383
 10
5.2334982012
 20
-6.299757646
 10
5.2401739065
 20
-6.1916332234
 10
5.2457127826
 20
-6.0892133119
 10
5.251070869
 20
-5.9730192116
 10
5.2568014707
 20
-5.8386590625
 10
5.2623512825
 20
-5.6905247247
 10
5.2670164289
 20
-5.5223130783
 10
5.2705622847
 20
-5.3319230832
 10
5.2732234751
 20
-5.1214557794
 10
5.275
 20
-4.890911167
  0
LWPOLYLINE
  5
66F
100
AcDbEntity
  8
IMPORT_IGES
100
AcDbPolyline
 62
253
  6
CONTINUOUS
 90
13
 70
0
 10
7.325
 20
-4.7010543707
 10
7.3224334584
 20
-4.7059857243
 10
7.3147777479
 20
-4.710832701
 10
7.3021638598
 20
-4.7155123678
 10
7.2848076211
 20
-4.7199446542
 10
7.2630060021
 20
-4.7240537227
 10
7.2371320344
 20
-4.7277692659
 10
7.2076284287
 20
-4.7310277098
 10
7.175
 20
-4.7337733015
 10
7.1398050297
 20
-4.7359590633
 10
7.1026457135
 20
-4.7375475962
 10
7.0641578577
 20
-4.7385117198
 10
7.025
 20
-4.7388349378
  0
LWPOLYLINE
  5
670
100
AcDbEntity
  8
IMPORT_IGES
100
AcDbPolyline
 62
7
  6
CONTINUOUS
 90
7
 70
0
 10
4.3930743187
 20
-8.509923017
 10
4.4010185738
 20
-8.4947484802
 10
4.4095876197
 20
-8.4805080343
 10
4.4186383717
 20
-8.4675985178
 10
4.4277711341
 20
-8.4567391726
 10
4.4371642593
 20
-8.4482255777
 10
4.447298262
 20
-8.4420576688
  0
LINE
  5
671
100
AcDbEntity
  8
DRAFT
100
AcDbLine
 62
7
  6
CONTINUOUS
 10
-5.075
 20
-22.4
 11
-5.0309327327
 21
-22.3338981669
  0
LWPOLYLINE
  5
672
100
AcDbEntity
  8
IMPORT_IGES
100
AcDbPolyline
 62
7
  6
CONTINUOUS
 90
9
 70
0
 10
4.4126666389
 20
-8.4227625433
 10
4.4017587322
 20
-8.4352416572
 10
4.3923378015
 20
-8.4490121906
 10
4.3845430593
 20
-8.4641845228
 10
4.3781537938
 20
-8.4800622126
 10
4.3726630393
 20
-8.4952273578
 10
4.3681592166
 20
-8.5084099259
 10
4.3644377215
 20
-8.5206628869
 10
4.3606727272
 20
-8.5342495152
  0
LINE
  5
673
100
AcDbEntity
  8
RACCORDO
100
AcDbLine
 62
253
  6
CONTINUOUS
 10
-11.320628166
 20
-24.2456323968
 11
-11.325
 21
-24.2500042308
  0
LINE
  5
674
100
AcDbEntity
  8
IMPORT_IGES
100
AcDbLine
 62
7
  6
CONTINUOUS
 10
4.425
 20
-8.4119261728
 11
4.4126666389
 21
-8.4227625433
  0
LWPOLYLINE
  5
675
100
AcDbEntity
  8
IMPORT_IGES
100
AcDbPolyline
 62
253
  6
CONTINUOUS
 90
8
 70
0
 10
6.825
 20
8.0964466096
 10
6.7988947616
 20
8.0952367302
 10
6.773236191
 20
8.0916277936
 10
6.7484633135
 20
8.0856815497
 10
6.725
 20
8.0774997403
 10
6.7032477142
 20
8.0672223585
 10
6.6835786438
 20
8.0550252532
 10
6.672280213
 20
8.0459153199
  0
LWPOLYLINE
  5
676
100
AcDbEntity
  8
IMPORT_IGES
100
AcDbPolyline
 62
253
  6
CONTINUOUS
 90
13
 70
0
 10
-8.375
 20
8.0964466096
 10
-8.4141578577
 20
8.0946317906
 10
-8.4526457135
 20
8.0892183857
 10
-8.4898050297
 20
8.0802990198
 10
-8.525
 20
8.0680263057
 10
-8.5576284287
 20
8.0526102331
 10
-8.5871320344
 20
8.0343145751
 10
-8.6130060021
 20
8.0134523754
 10
-8.6348076211
 20
7.9903805922
 10
-8.6521638598
 20
7.9654939901
 10
-8.6647777479
 20
7.9392183856
 10
-8.6724334584
 20
7.9120033617
 10
-8.675
 20
7.8843145751
  0
LINE
  5
677
100
AcDbEntity
  8
RACCORDO
100
AcDbLine
 62
7
  6
CONTINUOUS
 10
-9.8872871968
 20
7.9881641073
 11
-10.325
 21
7.9776691233
  0
LINE
  5
678
100
AcDbEntity
  8
RACCORDO
100
AcDbLine
 62
7
  6
CONTINUOUS
 10
8.975
 20
8.8223308767
 11
8.5372871968
 21
8.8118358927
  0
LWPOLYLINE
  5
679
100
AcDbEntity
  8
IMPORT_IGES
100
AcDbPolyline
 62
253
  6
CONTINUOUS
 90
13
 70
0
 10
-4.875
 20
8.5748812075
 10
-4.8492187622
 20
8.5749796248
 10
-4.8239455651
 20
8.5752720212
 10
-4.7995935606
 20
8.5757517576
 10
-4.7766648501
 20
8.5764055183
 10
-4.7553951386
 20
8.5772229924
 10
-4.7358366278
 20
8.5782051201
 10
-4.7182835144
 20
8.579346125
 10
-4.7032558638
 20
8.5806276532
 10
-4.6911600729
 20
8.5820320966
 10
-4.6822860952
 20
8.5835367623
 10
-4.6768423125
 20
8.5851159139
 10
-4.675
 20
8.5867421051
  0
LINE
  5
67A
100
AcDbEntity
  8
IMPORT_IGES
100
AcDbLine
 62
7
  6
CONTINUOUS
 10
3.3868860352
 20
7.5162859452
 11
3.3939717315
 21
7.5162859452
  0
LINE
  5
67B
100
AcDbEntity
  8
IMPORT_IGES
100
AcDbLine
 62
7
  6
CONTINUOUS
 10
3.4298535023
 20
7.65
 11
3.3763440172
 21
7.65
  0
LINE
  5
67C
100
AcDbEntity
  8
IMPORT_IGES
100
AcDbLine
 62
253
  6
CONTINUOUS
 10
-4.5125463848
 20
7.7428932188
 11
3.1625463848
 21
7.7428932186
  0
LINE
  5
67D
100
AcDbEntity
  8
IMPORT_IGES
100
AcDbLine
 62
253
  6
CONTINUOUS
 10
7.0197113577
 20
7.7428932185
 11
7.325
 21
7.7428932188
  0
LINE
  5
67E
100
AcDbEntity
  8
IMPORT_IGES
100
AcDbLine
 62
253
  6
CONTINUOUS
 10
-8.3697113875
 20
7.7428932186
 11
-8.675
 21
7.7428932188
  0
LINE
  5
67F
100
AcDbEntity
  8
DRAFT
100
AcDbLine
 62
7
  6
CONTINUOUS
 10
8.8196499221
 20
7.9
 11
7.825
 21
7.9
  0
LINE
  5
680
100
AcDbEntity
  8
DRAFT
100
AcDbLine
 62
7
  6
CONTINUOUS
 10
-9.175
 20
7.9
 11
-10.1696499221
 21
7.9
  0
LINE
  5
681
100
AcDbEntity
  8
IMPORT_IGES
100
AcDbLine
 62
253
  6
CONTINUOUS
 10
5.9650078903
 20
7.9454966127
 11
5.825
 21
7.9454966127
  0
LINE
  5
682
100
AcDbEntity
  8
IMPORT_IGES
100
AcDbLine
 62
253
  6
CONTINUOUS
 10
-7.175
 20
7.9454966127
 11
-7.3150078903
 21
7.9454966127
  0
LINE
  5
683
100
AcDbEntity
  8
RACCORDO
100
AcDbLine
 62
7
  6
CONTINUOUS
 10
8.2553794106
 20
7.9898867382
 11
7.7351132618
 21
7.9898867382
  0
LINE
  5
684
100
AcDbEntity
  8
RACCORDO
100
AcDbLine
 62
7
  6
CONTINUOUS
 10
-9.0851132618
 20
7.9898867382
 11
-9.6053794106
 21
7.9898867382
  0
LINE
  5
685
100
AcDbEntity
  8
IMPORT_IGES
100
AcDbLine
 62
253
  6
CONTINUOUS
 10
-4.4960224345
 20
8.0964466092
 11
3.1460217472
 21
8.0964465862
  0
LINE
  5
686
100
AcDbEntity
  8
IMPORT_IGES
100
AcDbLine
 62
253
  6
CONTINUOUS
 10
6.8249993569
 20
8.0964466096
 11
7.025
 21
8.0964466093
  0
LINE
  5
687
100
AcDbEntity
  8
IMPORT_IGES
100
AcDbLine
 62
253
  6
CONTINUOUS
 10
-8.1749993545
 20
8.0964466096
 11
-8.375
 21
8.0964466096
  0
LINE
  5
688
100
AcDbEntity
  8
IMPORT_IGES
100
AcDbLine
 62
7
  6
CONTINUOUS
 10
-7.3150078901
 20
8.2454966127
 11
-7.1750000002
 21
8.2454966127
  0
LINE
  5
689
100
AcDbEntity
  8
IMPORT_IGES
100
AcDbLine
 62
7
  6
CONTINUOUS
 10
5.8250000002
 20
8.2454966127
 11
5.9650078901
 21
8.2454966127
  0
LINE
  5
68A
100
AcDbEntity
  8
RACCORDO
100
AcDbLine
 62
7
  6
CONTINUOUS
 10
-9.6053794106
 20
8.8101132618
 11
-8.675
 21
8.8101132618
  0
LINE
  5
68B
100
AcDbEntity
  8
RACCORDO
100
AcDbLine
 62
7
  6
CONTINUOUS
 10
8.2553794106
 20
8.8101132618
 11
7.325
 21
8.8101132618
  0
LINE
  5
68C
100
AcDbEntity
  8
DRAFT
100
AcDbLine
 62
7
  6
CONTINUOUS
 10
7.325
 20
8.9
 11
8.8196499221
 21
8.9
  0
LINE
  5
68D
100
AcDbEntity
  8
DRAFT
100
AcDbLine
 62
7
  6
CONTINUOUS
 10
-8.675
 20
8.9
 11
-10.1696499221
 21
8.9
  0
LWPOLYLINE
  5
68E
100
AcDbEntity
  8
IMPORT_IGES
100
AcDbPolyline
 62
253
  6
CONTINUOUS
 90
13
 70
0
 10
3.525
 20
8.5748812075
 10
3.4988947616
 20
8.5749821248
 10
3.473236191
 20
8.5752831497
 10
3.4484633135
 20
8.5757791318
 10
3.425
 20
8.5764615847
 10
3.4032477142
 20
8.5773188313
 10
3.3835786438
 20
8.5783362039
 10
3.3663293319
 20
8.579496295
 10
3.3517949192
 20
8.5807792552
 10
3.3402240935
 20
8.5821631326
 10
3.3318148347
 20
8.5836242488
 10
3.3267110277
 20
8.5851376035
 10
3.325
 20
8.5866773029
  0
LINE
  5
68F
100
AcDbEntity
  8
RACCORDO
100
AcDbLine
 62
7
  6
CONTINUOUS
 10
8.975
 20
7.9776691233
 11
8.5372871968
 21
7.9881641073
  0
LINE
  5
690
100
AcDbEntity
  8
RACCORDO
100
AcDbLine
 62
7
  6
CONTINUOUS
 10
-9.8872871968
 20
8.8118358927
 11
-10.325
 21
8.8223308767
  0
LINE
  5
691
100
AcDbEntity
  8
RACCORDO
100
AcDbLine
 62
253
  6
CONTINUOUS
 10
-11.320628166
 20
24.2456323968
 11
-11.325
 21
24.2500042308
  0
LINE
  5
692
100
AcDbEntity
  8
DRAFT
100
AcDbLine
 62
7
  6
CONTINUOUS
 10
-5.075
 20
22.4
 11
-5.0309327327
 21
22.3338981669
  0
LINE
  5
693
100
AcDbEntity
  8
DRAFT
100
AcDbLine
 62
7
  6
CONTINUOUS
 10
6.6238376746
 20
20.9104703804
 11
6.6767786853
 21
20.4335707644
  0
LINE
  5
694
100
AcDbEntity
  8
RACCORDO
100
AcDbLine
 62
253
  6
CONTINUOUS
 10
9.7206323968
 20
23.6278312164
 11
9.7257229979
 21
23.1226497308
  0
LINE
  5
695
100
AcDbEntity
  8
RACCORDO
100
AcDbLine
 62
253
  6
CONTINUOUS
 10
9.970628166
 20
23.8443375673
 11
9.975
 21
23.4104851482
  0
LINE
  5
696
100
AcDbEntity
  8
RACCORDO
100
AcDbLine
 62
253
  6
CONTINUOUS
 10
9.7206323968
 20
-23.6278312164
 11
9.7206323968
 21
-24.495628166
  0
LINE
  5
697
100
AcDbEntity
  8
RACCORDO
100
AcDbLine
 62
253
  6
CONTINUOUS
 10
9.7206323968
 20
23.6278312164
 11
9.7206323968
 21
24.495628166
  0
LINE
  5
698
100
AcDbEntity
  8
RACCORDO
100
AcDbLine
 62
253
  6
CONTINUOUS
 10
9.970628166
 20
-24.2456323968
 11
9.970628166
 21
-23.8443375673
  0
LINE
  5
699
100
AcDbEntity
  8
RACCORDO
100
AcDbLine
 62
253
  6
CONTINUOUS
 10
9.970628166
 20
23.8443375673
 11
9.970628166
 21
24.2456323968
  0
LINE
  5
69A
100
AcDbEntity
  8
RACCORDO
100
AcDbLine
 62
7
  6
CONTINUOUS
 10
9.975
 20
-22.399689968
 11
9.975
 21
-24.2500042308
  0
LINE
  5
69B
100
AcDbEntity
  8
RACCORDO
100
AcDbLine
 62
7
  6
CONTINUOUS
 10
9.975
 20
22.399689968
 11
9.975
 21
24.2500042308
  0
LINE
  5
69C
100
AcDbEntity
  8
RACCORDO
100
AcDbLine
 62
7
  6
CONTINUOUS
 10
10.475
 20
-21.8911779406
 11
10.475
 21
21.8911779406
  0
LINE
  5
69D
100
AcDbEntity
  8
RACCORDO
100
AcDbLine
 62
253
  6
CONTINUOUS
 10
9.7257229979
 20
-23.1226497308
 11
9.7206323968
 21
-23.6278312164
  0
LINE
  5
69E
100
AcDbEntity
  8
RACCORDO
100
AcDbLine
 62
253
  6
CONTINUOUS
 10
9.975
 20
-23.4104851482
 11
9.970628166
 21
-23.8443375673
  0
LWPOLYLINE
  5
69F
100
AcDbEntity
  8
RACCORDO
100
AcDbPolyline
 62
7
  6
CONTINUOUS
 90
34
 70
0
 10
9.975
 20
-24.2500042308
 10
9.9747168498
 20
-24.261899516
 10
9.9738680342
 20
-24.2737678556
 10
9.9724554741
 20
-24.2855823661
 10
9.9704823677
 20
-24.2973162875
 10
9.9679531817
 20
-24.3089430388
 10
9.9648736417
 20
-24.320436279
 10
9.9612507213
 20
-24.3317699738
 10
9.9570926258
 20
-24.3429184493
 10
9.9524087722
 20
-24.3538564463
 10
9.9472097688
 20
-24.3645591876
 10
9.9415073916
 20
-24.3750024283
 10
9.9353145581
 20
-24.3851625059
 10
9.9286452955
 20
-24.3950164051
 10
9.9215147107
 20
-24.4045418038
 10
9.9139389589
 20
-24.4137171191
 10
9.9059352005
 20
-24.4225215661
 10
9.8975215661
 20
-24.4309352005
 10
9.8887171191
 20
-24.4389389589
 10
9.8795418038
 20
-24.4465147107
 10
9.8700164051
 20
-24.4536452955
 10
9.8601625059
 20
-24.4603145581
 10
9.8500024283
 20
-24.4665073916
 10
9.8395591876
 20
-24.4722097688
 10
9.8288564463
 20
-24.4774087722
 10
9.8179184493
 20
-24.4820926258
 10
9.8067699738
 20
-24.4862507213
 10
9.795436279
 20
-24.4898736417
 10
9.7839430388
 20
-24.4929531817
 10
9.7723162875
 20
-24.4954823677
 10
9.7605823661
 20
-24.4974554741
 10
9.7487678556
 20
-24.4988680342
 10
9.736899516
 20
-24.4997168498
 10
9.7250042308
 20
-24.5
  0
LWPOLYLINE
  5
6A0
100
AcDbEntity
  8
RACCORDO
100
AcDbPolyline
 62
253
  6
CONTINUOUS
 90
31
 70
0
 10
9.970628166
 20
-24.2456323968
 10
9.9702851274
 20
-24.2587158828
 10
9.9692578375
 20
-24.2717635094
 10
9.967549112
 20
-24.2847395155
 10
9.965163634
 20
-24.2976083364
 10
9.9621079418
 20
-24.3103347009
 10
9.9583904104
 20
-24.3228837286
 10
9.9540212289
 20
-24.3352210249
 10
9.9490123724
 20
-24.3473127755
 10
9.9433775693
 20
-24.3591258393
 10
9.9371322634
 20
-24.3706278389
 10
9.930293572
 20
-24.3817872494
 10
9.9228802386
 20
-24.392573485
 10
9.9149125818
 20
-24.4029569826
 10
9.9064124395
 20
-24.4129092831
 10
9.897403109
 20
-24.422403109
 10
9.8879092831
 20
-24.4314124395
 10
9.8779569826
 20
-24.4399125818
 10
9.867573485
 20
-24.4478802386
 10
9.8567872494
 20
-24.455293572
 10
9.8456278389
 20
-24.4621322634
 10
9.8341258393
 20
-24.4683775693
 10
9.8223127755
 20
-24.4740123724
 10
9.8102210249
 20
-24.4790212289
 10
9.7978837286
 20
-24.4833904104
 10
9.7853347009
 20
-24.4871079418
 10
9.7726083364
 20
-24.490163634
 10
9.7597395155
 20
-24.492549112
 10
9.7467635094
 20
-24.4942578375
 10
9.7337158828
 20
-24.4952851274
 10
9.7206323968
 20
-24.495628166
  0
LWPOLYLINE
  5
6A1
100
AcDbEntity
  8
IMPORT_IGES
100
AcDbPolyline
 62
253
  6
CONTINUOUS
 90
13
 70
0
 10
7.325
 20
-7.8073734148
 10
7.3224334584
 20
-7.8123047684
 10
7.3147777479
 20
-7.8171517451
 10
7.3021638598
 20
-7.8218314119
 10
7.2848076211
 20
-7.8262636983
 10
7.2630060021
 20
-7.8303727668
 10
7.2371320344
 20
-7.83408831
 10
7.2076284287
 20
-7.8373467539
 10
7.175
 20
-7.8400923457
 10
7.1398050297
 20
-7.8422781074
 10
7.1026457135
 20
-7.8438666402
 10
7.0641578577
 20
-7.8448307637
 10
7.025
 20
-7.8451539815
  0
LINE
  5
6A2
100
AcDbEntity
  8
RACCORDO
100
AcDbLine
 62
253
  6
CONTINUOUS
 10
-11.0706323968
 20
-24.495628166
 11
-11.0750042308
 21
-24.5
  0
LINE
  5
6A3
100
AcDbEntity
  8
IMPORT_IGES
100
AcDbLine
 62
7
  6
CONTINUOUS
 10
4.447298262
 20
-8.4420576688
 11
4.4578024452
 21
-8.4384815
  0
LWPOLYLINE
  5
6A4
100
AcDbEntity
  8
IMPORT_IGES
100
AcDbPolyline
 62
253
  6
CONTINUOUS
 90
4
 70
0
 10
3.3250000009
 20
10.7500000567
 10
3.326713451
 20
10.7501717826
 10
3.331819579
 20
10.750330155
 10
3.3402309324
 20
10.7504778818
  0
LWPOLYLINE
  5
6A5
100
AcDbEntity
  8
IMPORT_IGES
100
AcDbPolyline
 62
253
  6
CONTINUOUS
 90
4
 70
0
 10
-8.375
 20
10.0409280425
 10
-8.4144768418
 20
10.0390834054
 10
-8.4532469179
 20
10.0335854362
 10
-8.4906382917
 20
10.0245353569
  0
LWPOLYLINE
  5
6A6
100
AcDbEntity
  8
IMPORT_IGES
100
AcDbPolyline
 62
253
  6
CONTINUOUS
 90
12
 70
0
 10
-4.475
 20
10.8035533904
 10
-4.5011052384
 20
10.8023435112
 10
-4.526763809
 20
10.7987345747
 10
-4.5515366865
 20
10.7927883308
 10
-4.575
 20
10.7846065215
 10
-4.5967522858
 20
10.7743291397
 10
-4.6164213562
 20
10.7621320344
 10
-4.6336706681
 20
10.7482239013
 10
-4.6482050808
 20
10.7328427125
 10
-4.6597759065
 20
10.7162516444
 10
-4.6681851652
 20
10.6987345748
 10
-4.6732889722
 20
10.6805912257
  0
LINE
  5
6A7
100
AcDbEntity
  8
IMPORT_IGES
100
AcDbLine
 62
253
  6
CONTINUOUS
 10
3.3402309324
 20
10.7504778818
 11
3.3663391991
 21
10.7507606882
  0
LINE
  5
6A8
100
AcDbEntity
  8
IMPORT_IGES
100
AcDbLine
 62
253
  6
CONTINUOUS
 10
3.3663391991
 20
10.7507606882
 11
3.4484736671
 21
10.7511516812
  0
LINE
  5
6A9
100
AcDbEntity
  8
IMPORT_IGES
100
AcDbLine
 62
253
  6
CONTINUOUS
 10
6.2037960123
 20
10.7512500193
 11
3.4484736671
 21
10.7511516812
  0
LINE
  5
6AA
100
AcDbEntity
  8
IMPORT_IGES
100
AcDbLine
 62
253
  6
CONTINUOUS
 10
3.125
 20
10.8035533904
 11
-4.475
 21
10.8035533904
  0
LINE
  5
6AB
100
AcDbEntity
  8
IMPORT_IGES
100
AcDbLine
 62
7
  6
CONTINUOUS
 10
-7.5537960123
 20
10.95
 11
6.2037960123
 21
10.95
  0
LINE
  5
6AC
100
AcDbEntity
  8
IMPORT_IGES
100
AcDbLine
 62
253
  6
CONTINUOUS
 10
-7.175
 20
11.05
 11
5.825
 21
11.05
  0
LINE
  5
6AD
100
AcDbEntity
  8
IMPORT_IGES
100
AcDbLine
 62
253
  6
CONTINUOUS
 10
-7.5537590385
 20
10.7512446204
 11
-4.753248898
 21
10.7509888272
  0
LWPOLYLINE
  5
6AE
100
AcDbEntity
  8
IMPORT_IGES
100
AcDbPolyline
 62
253
  6
CONTINUOUS
 90
6
 70
0
 10
-4.753248898
 20
10.7509888272
 10
-4.7017951471
 20
10.7506230686
 10
-4.690223982
 20
10.75047878
 10
-4.6818144714
 20
10.7503309322
 10
-4.6767106594
 20
10.7501724084
 10
-4.6750000001
 20
10.7500004999
  0
LWPOLYLINE
  5
6AF
100
AcDbEntity
  8
IMPORT_IGES
100
AcDbPolyline
 62
253
  6
CONTINUOUS
 90
10
 70
0
 10
6.2037590405
 20
10.7512446142
 10
6.2125729464
 20
10.7508488958
 10
6.2211934829
 20
10.7497245112
 10
6.2296206499
 20
10.7478714609
 10
6.2379152401
 20
10.745264716
 10
6.2460164608
 20
10.7419293068
 10
6.2537419339
 20
10.7379403231
 10
6.2610308667
 20
10.7333227956
 10
6.267944052
 20
10.7280516962
 10
6.2744814897
 20
10.7221270267
  0
LINE
  5
6B0
100
AcDbEntity
  8
RACCORDO
100
AcDbLine
 62
253
  6
CONTINUOUS
 10
-11.0706323968
 20
24.495628166
 11
-11.0750042308
 21
24.5
  0
LINE
  5
6B1
100
AcDbEntity
  8
RACCORDO
100
AcDbLine
 62
7
  6
CONTINUOUS
 10
7.825
 20
5.9
 11
7.7377084755
 21
5.9872915245
  0
LINE
  5
6B2
100
AcDbEntity
  8
DRAFT
100
AcDbLine
 62
7
  6
CONTINUOUS
 10
7.7351132618
 20
7.9898867382
 11
7.825
 21
7.9
  0
LWPOLYLINE
  5
6B3
100
AcDbEntity
  8
IMPORT_IGES
100
AcDbPolyline
 62
253
  6
CONTINUOUS
 90
7
 70
0
 10
6.5928717286
 20
10.2357507686
 10
6.6067183107
 20
10.2092478199
 10
6.6136068626
 20
10.1949365522
 10
6.6188316721
 20
10.1835742857
 10
6.6223014846
 20
10.1761908412
 10
6.6243363125
 20
10.1717413063
 10
6.624999999
 20
10.1702196001
  0
LINE
  5
6B4
100
AcDbEntity
  8
IMPORT_IGES
100
AcDbLine
 62
253
  6
CONTINUOUS
 10
6.425
 20
10.5723299421
 11
6.5330434445
 21
10.3568123156
  0
LWPOLYLINE
  5
6B5
100
AcDbEntity
  8
IMPORT_IGES
100
AcDbPolyline
 62
253
  6
CONTINUOUS
 90
3
 70
0
 10
6.5330434445
 20
10.3568123156
 10
6.5804306375
 20
10.2616265516
 10
6.5928717286
 20
10.2357507686
  0
LWPOLYLINE
  5
6B6
100
AcDbEntity
  8
IMPORT_IGES
100
AcDbPolyline
 62
253
  6
CONTINUOUS
 90
3
 70
0
 10
6.5749999999
 20
-10.1437469861
 10
6.5739480484
 20
-10.1452824522
 10
6.5708051408
 20
-10.1488043706
  0
LINE
  5
6B7
100
AcDbEntity
  8
ASSI
100
AcDbLine
 62
7
  6
CONTINUOUS
 10
-4.9360120715
 20
-23.6222095469
 11
-4.9094621874
 21
-23.5918579051
  0
LINE
  5
6B8
100
AcDbEntity
  8
ASSI
100
AcDbLine
 62
7
  6
CONTINUOUS
 10
-4.9094621874
 20
-23.5918579051
 11
-4.8791007772
 21
-23.5576772686
  0
LINE
  5
6B9
100
AcDbEntity
  8
ASSI
100
AcDbLine
 62
7
  6
CONTINUOUS
 10
-4.8791007772
 20
-23.5576772686
 11
-4.8449221498
 21
-23.5196770081
  0
LINE
  5
6BA
100
AcDbEntity
  8
ASSI
100
AcDbLine
 62
7
  6
CONTINUOUS
 10
-4.8449221498
 20
-23.5196770081
 11
-4.7866279299
 21
-23.4555921064
  0
LINE
  5
6BB
100
AcDbEntity
  8
ASSI
100
AcDbLine
 62
7
  6
CONTINUOUS
 10
-4.7866279299
 20
-23.4555921064
 11
-4.6029699877
 21
-23.2563578147
  0
LINE
  5
6BC
100
AcDbEntity
  8
IMPORT_IGES
100
AcDbLine
 62
253
  6
CONTINUOUS
 10
6.5708051408
 20
-10.1488043706
 11
6.5492966428
 21
-10.1715230703
  0
LINE
  5
6BD
100
AcDbEntity
  8
IMPORT_IGES
100
AcDbLine
 62
253
  6
CONTINUOUS
 10
6.5492966428
 20
-10.1715230703
 11
6.5112242132
 21
-10.2108598331
  0
LINE
  5
6BE
100
AcDbEntity
  8
IMPORT_IGES
100
AcDbLine
 62
253
  6
CONTINUOUS
 10
6.3979583154
 20
-10.3257992996
 11
6.3750070596
 21
-10.3493575932
  0
LWPOLYLINE
  5
6BF
100
AcDbEntity
  8
IMPORT_IGES
100
AcDbPolyline
 62
253
  6
CONTINUOUS
 90
3
 70
0
 10
6.5112242132
 20
-10.2108598331
 10
6.4409897556
 20
-10.2824973652
 10
6.3979583154
 20
-10.3257992996
  0
LINE
  5
6C0
100
AcDbEntity
  8
DRAFT
100
AcDbLine
 62
7
  6
CONTINUOUS
 10
6.675
 20
-11.5
 11
6.6575462644
 21
-11.5174537356
  0
LINE
  5
6C1
100
AcDbEntity
  8
IMPORT_IGES
100
AcDbLine
 62
253
  6
CONTINUOUS
 10
6.3750070596
 20
-10.3493575932
 11
5.6231434405
 21
-10.7834477573
  0
LINE
  5
6C2
100
AcDbEntity
  8
IMPORT_IGES
100
AcDbLine
 62
253
  6
CONTINUOUS
 10
7.025
 20
-10.036927121
 11
6.725
 21
-10.2101322016
  0
LINE
  5
6C3
100
AcDbEntity
  8
IMPORT_IGES
100
AcDbLine
 62
7
  6
CONTINUOUS
 10
5.6981428274
 20
-10.9098079751
 11
7.175
 21
-10.057144089
  0
LWPOLYLINE
  5
6C4
100
AcDbEntity
  8
IMPORT_IGES
100
AcDbPolyline
 62
253
  6
CONTINUOUS
 90
10
 70
0
 10
5.6231434405
 20
-10.7834477573
 10
5.6154186868
 20
-10.7876073872
 10
5.6075203231
 20
-10.7912910887
 10
5.5994483494
 20
-10.7944988617
 10
5.5911741457
 20
-10.797238375
 10
5.582726332
 20
-10.7995019599
 10
5.5741907685
 20
-10.8012666101
 10
5.5655960755
 20
-10.802524657
 10
5.5569136329
 20
-10.8032837692
 10
5.5481434405
 20
-10.8035439467
  0
LWPOLYLINE
  5
6C5
100
AcDbEntity
  8
IMPORT_IGES
100
AcDbPolyline
 62
253
  6
CONTINUOUS
 90
10
 70
0
 10
7.1402865441
 20
-10.018529689
 10
7.1755229497
 20
-10.0045863706
 10
7.2081380878
 20
-9.9871034926
 10
7.2375883023
 20
-9.966387466
 10
7.2633789602
 20
-9.9428010177
 10
7.285079821
 20
-9.916754475
 10
7.3023353876
 20
-9.8886924211
 10
7.3148623048
 20
-9.8590945147
 10
7.3224565996
 20
-9.8284686216
 10
7.325
 20
-9.7973364678
  0
LINE
  5
6C6
100
AcDbEntity
  8
IMPORT_IGES
100
AcDbLine
 62
7
  6
CONTINUOUS
 10
5.725
 20
11.15
 11
-7.075
 21
11.15
  0
LWPOLYLINE
  5
6C7
100
AcDbEntity
  8
IMPORT_IGES
100
AcDbPolyline
 62
253
  6
CONTINUOUS
 90
4
 70
0
 10
7.1402337198
 20
10.0246546174
 10
7.1029152871
 20
10.0336486478
 10
7.0642811881
 20
10.0391017239
 10
7.025
 20
10.0409280425
  0
LWPOLYLINE
  5
6C8
100
AcDbEntity
  8
IMPORT_IGES
100
AcDbPolyline
 62
253
  6
CONTINUOUS
 90
3
 70
0
 10
7.2084129073
 20
9.9966645658
 10
7.1756161468
 20
10.012255508
 10
7.1402337198
 20
10.0246546174
  0
LINE
  5
6C9
100
AcDbEntity
  8
DRAFT
100
AcDbLine
 62
7
  6
CONTINUOUS
 10
8.975
 20
8.8223308767
 11
8.8196499221
 21
8.9
  0
LWPOLYLINE
  5
6CA
100
AcDbEntity
  8
IMPORT_IGES
100
AcDbPolyline
 62
253
  6
CONTINUOUS
 90
10
 70
0
 10
6.9664213567
 20
10.31163872
 10
6.9565895568
 20
10.3188653631
 10
6.9448946863
 20
10.3226549
 10
6.9314743365
 20
10.3227866653
 10
6.9166191681
 20
10.3189779058
 10
6.9004507066
 20
10.3111691815
 10
6.8829077172
 20
10.2995038358
 10
6.8641859911
 20
10.2839716758
 10
6.8447500711
 20
10.2644405594
 10
6.8249987139
 20
10.240923574
  0
LWPOLYLINE
  5
6CB
100
AcDbEntity
  8
IMPORT_IGES
100
AcDbPolyline
 62
253
  6
CONTINUOUS
 90
3
 70
0
 10
7.263822443
 20
9.9571779396
 10
7.2379797201
 20
9.9781941988
 10
7.2084129073
 20
9.9966645658
  0
LWPOLYLINE
  5
6CC
100
AcDbEntity
  8
IMPORT_IGES
100
AcDbPolyline
 62
253
  6
CONTINUOUS
 90
10
 70
0
 10
7.2371320369
 20
10.0409280398
 10
7.2214792547
 20
10.0537121001
 10
7.203169428
 20
10.0634545558
 10
7.1824501657
 20
10.0700236569
 10
7.1596016603
 20
10.0733305675
 10
7.1349328988
 20
10.0733305674
 10
7.1087774833
 20
10.0700236569
 10
7.081489121
 20
10.0634545564
 10
7.0534368402
 20
10.0537121015
 10
7.025
 20
10.0409280423
  0
LINE
  5
6CD
100
AcDbEntity
  8
IMPORT_IGES
100
AcDbLine
 62
253
  6
CONTINUOUS
 10
6.2744814897
 20
10.7221270267
 11
6.425
 21
10.5723299421
  0
LINE
  5
6CE
100
AcDbEntity
  8
IMPORT_IGES
100
AcDbLine
 62
253
  6
CONTINUOUS
 10
6.8249993569
 20
10.2409235741
 11
7.025
 21
10.0409280425
  0
LINE
  5
6CF
100
AcDbEntity
  8
IMPORT_IGES
100
AcDbLine
 62
7
  6
CONTINUOUS
 10
7.2371320398
 20
10.0409280368
 11
6.4159280423
 21
10.8621320344
  0
LINE
  5
6D0
100
AcDbEntity
  8
ASSI
100
AcDbLine
 62
7
  6
CONTINUOUS
 10
-4.6029699877
 20
23.2563578147
 11
-4.8070411236
 21
23.4779554989
  0
LINE
  5
6D1
100
AcDbEntity
  8
ASSI
100
AcDbLine
 62
7
  6
CONTINUOUS
 10
-4.8070411236
 20
23.4779554989
 11
-4.8450092035
 21
23.5197730418
  0
LINE
  5
6D2
100
AcDbEntity
  8
ASSI
100
AcDbLine
 62
7
  6
CONTINUOUS
 10
-4.8450092035
 20
23.5197730418
 11
-4.8792293299
 21
23.5578207413
  0
LINE
  5
6D3
100
AcDbEntity
  8
ASSI
100
AcDbLine
 62
7
  6
CONTINUOUS
 10
-4.8792293299
 20
23.5578207413
 11
-4.9096214988
 21
23.5920385457
  0
LWPOLYLINE
  5
6D4
100
AcDbEntity
  8
ASSI
100
AcDbPolyline
 62
7
  6
CONTINUOUS
 90
18
 70
0
 10
-4.9096214988
 20
23.5920385457
 10
-4.936184351
 20
23.6224079992
 10
-4.9480977873
 20
23.6362381892
 10
-4.95912319
 20
23.6491881602
 10
-4.969271948
 20
23.6612588713
 10
-4.9785883497
 20
23.6725244939
 10
-4.9870752357
 20
23.6829815422
 10
-4.994752274
 20
23.692633502
 10
-5.0016728146
 20
23.7015650018
 10
-5.0078521255
 20
23.7097961262
 10
-5.0132798184
 20
23.7173067906
 10
-5.0179611755
 20
23.7241213695
 10
-5.0219056421
 20
23.7302356312
 10
-5.0251212873
 20
23.7356538073
 10
-5.0276164863
 20
23.7404129678
 10
-5.029405432
 20
23.7445254691
 10
-5.0305052012
 20
23.7479789548
 10
-5.0309327327
 20
23.7507734247
  0
LINE
  5
6D5
100
AcDbEntity
  8
DRAFT
100
AcDbLine
 62
7
  6
CONTINUOUS
 10
7.575
 20
-20.9
 11
7.5715127091
 21
-20.9104703804
  0
LINE
  5
6D6
100
AcDbEntity
  8
ASSI
100
AcDbLine
 62
7
  6
CONTINUOUS
 10
-5.075
 20
-23.8
 11
-5.0313493531
 21
-23.7563493531
  0
LINE
  5
6D7
100
AcDbEntity
  8
RACCORDO
100
AcDbLine
 62
253
  6
CONTINUOUS
 10
5.5373556268
 20
-13.1876900647
 11
5.5250456915
 21
-13.2
  0
LINE
  5
6D8
100
AcDbEntity
  8
RACCORDO
100
AcDbLine
 62
253
  6
CONTINUOUS
 10
5.8373099353
 20
-13.4876443732
 11
5.825
 21
-13.4999543085
  0
LINE
  5
6D9
100
AcDbEntity
  8
DRAFT
100
AcDbLine
 62
7
  6
CONTINUOUS
 10
3.825
 20
14.139335085
 11
4.825
 21
14.139335085
  0
LINE
  5
6DA
100
AcDbEntity
  8
DRAFT
100
AcDbLine
 62
7
  6
CONTINUOUS
 10
-5.175
 20
14.139335085
 11
-6.175
 21
14.139335085
  0
LINE
  5
6DB
100
AcDbEntity
  8
ASSI
100
AcDbLine
 62
7
  6
CONTINUOUS
 10
-5.075
 20
23.8
 11
-5.0313493531
 21
23.7563493531
  0
LINE
  5
6DC
100
AcDbEntity
  8
DRAFT
100
AcDbLine
 62
7
  6
CONTINUOUS
 10
7.5715127091
 20
20.9104703804
 11
7.575
 21
20.9
  0
LINE
  5
6DD
100
AcDbEntity
  8
RACCORDO
100
AcDbLine
 62
7
  6
CONTINUOUS
 10
5.8373099353
 20
-13.8126856306
 11
5.825
 21
-13.8188401295
  0
LINE
  5
6DE
100
AcDbEntity
  8
DRAFT
100
AcDbLine
 62
7
  6
CONTINUOUS
 10
8.8196499221
 20
-12.5
 11
8.975
 21
-12.4223308767
  0
LINE
  5
6DF
100
AcDbEntity
  8
DRAFT
100
AcDbLine
 62
7
  6
CONTINUOUS
 10
6.5668217019
 20
-20.9959955457
 11
6.6238376746
 21
-20.9104703804
  0
LINE
  5
6E0
100
AcDbEntity
  8
ASSI
100
AcDbLine
 62
7
  6
CONTINUOUS
 10
2.9190894927
 20
-23.6231776604
 11
2.9456235004
 21
-23.5928267546
  0
LINE
  5
6E1
100
AcDbEntity
  8
ASSI
100
AcDbLine
 62
7
  6
CONTINUOUS
 10
2.9456235004
 20
-23.5928267546
 11
2.9759962094
 21
-23.5586202787
  0
LINE
  5
6E2
100
AcDbEntity
  8
ASSI
100
AcDbLine
 62
7
  6
CONTINUOUS
 10
2.9759962094
 20
-23.5586202787
 11
3.0102228577
 21
-23.520556369
  0
LINE
  5
6E3
100
AcDbEntity
  8
ASSI
100
AcDbLine
 62
7
  6
CONTINUOUS
 10
3.0102228577
 20
-23.520556369
 11
3.068670406
 21
-23.4562934323
  0
LINE
  5
6E4
100
AcDbEntity
  8
ASSI
100
AcDbLine
 62
7
  6
CONTINUOUS
 10
3.068670406
 20
-23.4562934323
 11
3.2529699877
 21
-23.2563578147
  0
LINE
  5
6E5
100
AcDbEntity
  8
ASSI
100
AcDbLine
 62
7
  6
CONTINUOUS
 10
3.2529699877
 20
23.2563578147
 11
3.04819
 21
23.4787333295
  0
LINE
  5
6E6
100
AcDbEntity
  8
ASSI
100
AcDbLine
 62
7
  6
CONTINUOUS
 10
3.04819
 20
23.4787333295
 11
3.0101306782
 21
23.520658084
  0
LINE
  5
6E7
100
AcDbEntity
  8
ASSI
100
AcDbLine
 62
7
  6
CONTINUOUS
 10
3.0101306782
 20
23.520658084
 11
2.9758615818
 21
23.5587705835
  0
LINE
  5
6E8
100
AcDbEntity
  8
ASSI
100
AcDbLine
 62
7
  6
CONTINUOUS
 10
2.9758615818
 20
23.5587705835
 11
2.9454577011
 21
23.5930148412
  0
LWPOLYLINE
  5
6E9
100
AcDbEntity
  8
ASSI
100
AcDbPolyline
 62
7
  6
CONTINUOUS
 90
18
 70
0
 10
2.9454577011
 20
23.5930148412
 10
2.9189110457
 20
23.6233833596
 10
2.9070146366
 20
23.637204436
 10
2.8960123303
 20
23.6501397805
 10
2.8858917472
 20
23.6621907435
 10
2.8766059276
 20
23.6734345977
 10
2.8681516162
 20
23.6838693892
 10
2.8605105725
 20
23.6934970717
 10
2.8536302672
 20
23.7024007789
 10
2.8474956417
 20
23.7106007946
 10
2.8421179781
 20
23.7180768349
 10
2.837493414
 20
23.7248511814
 10
2.8336126205
 20
23.7309188156
 10
2.8304672686
 20
23.736284756
 10
2.8280490489
 20
23.74098634
 10
2.8263434198
 20
23.7450360132
 10
2.825332847
 20
23.74842133
 10
2.825
 20
23.7511422903
  0
LINE
  5
6EA
100
AcDbEntity
  8
DRAFT
100
AcDbLine
 62
7
  6
CONTINUOUS
 10
6.5668217019
 20
20.9959955457
 11
6.6238376746
 21
20.9104703804
  0
LINE
  5
6EB
100
AcDbEntity
  8
DRAFT
100
AcDbLine
 62
7
  6
CONTINUOUS
 10
5.7732213147
 20
19.9223308767
 11
-7.1232213147
 21
19.9223308767
  0
LINE
  5
6EC
100
AcDbEntity
  8
RACCORDO
100
AcDbLine
 62
253
  6
CONTINUOUS
 10
-7.230294768
 20
20.0829433217
 11
5.880294768
 21
20.0829433217
  0
LINE
  5
6ED
100
AcDbEntity
  8
RACCORDO
100
AcDbLine
 62
7
  6
CONTINUOUS
 10
6.5837268678
 20
-22.3912731322
 11
7.575
 21
-21.4
  0
LINE
  5
6EE
100
AcDbEntity
  8
RACCORDO
100
AcDbLine
 62
7
  6
CONTINUOUS
 10
-9.6700305219
 20
20.4335707644
 11
-8.0267786853
 21
20.4335707644
  0
LINE
  5
6EF
100
AcDbEntity
  8
RACCORDO
100
AcDbLine
 62
7
  6
CONTINUOUS
 10
6.6767786853
 20
20.4335707644
 11
8.3200305219
 21
20.4335707644
  0
LINE
  5
6F0
100
AcDbEntity
  8
RACCORDO
100
AcDbLine
 62
253
  6
CONTINUOUS
 10
-7.2331782981
 20
20.5829242832
 11
5.8831782981
 21
20.5829242832
  0
LINE
  5
6F1
100
AcDbEntity
  8
RACCORDO
100
AcDbLine
 62
7
  6
CONTINUOUS
 10
8.4753805997
 20
20.9
 11
7.575
 21
20.9
  0
LINE
  5
6F2
100
AcDbEntity
  8
RACCORDO
100
AcDbLine
 62
7
  6
CONTINUOUS
 10
-8.925
 20
20.9
 11
-9.8253805997
 21
20.9
  0
LINE
  5
6F3
100
AcDbEntity
  8
DRAFT
100
AcDbLine
 62
7
  6
CONTINUOUS
 10
7.5715127091
 20
20.9104703804
 11
6.6238376746
 21
20.9104703804
  0
LINE
  5
6F4
100
AcDbEntity
  8
DRAFT
100
AcDbLine
 62
7
  6
CONTINUOUS
 10
-7.9738376746
 20
20.9104703804
 11
-8.9215127091
 21
20.9104703804
  0
LINE
  5
6F5
100
AcDbEntity
  8
RACCORDO
100
AcDbLine
 62
7
  6
CONTINUOUS
 10
6.9091007192
 20
20.9959955457
 11
6.5668217019
 21
20.9959955457
  0
LINE
  5
6F6
100
AcDbEntity
  8
RACCORDO
100
AcDbLine
 62
7
  6
CONTINUOUS
 10
-7.9168217019
 20
20.9959955457
 11
-8.2591007192
 21
20.9959955457
  0
LINE
  5
6F7
100
AcDbEntity
  8
0
100
AcDbLine
 62
7
  6
CONTINUOUS
 10
2.325
 20
21.0
 11
-3.675
 21
21.0
  0
LINE
  5
6F8
100
AcDbEntity
  8
RACCORDO
100
AcDbLine
 62
253
  6
CONTINUOUS
 10
6.9091007192
 20
21.3126932437
 11
2.325
 21
21.3126932437
  0
LINE
  5
6F9
100
AcDbEntity
  8
RACCORDO
100
AcDbLine
 62
253
  6
CONTINUOUS
 10
-3.675
 20
21.3126932437
 11
-8.2591007192
 21
21.3126932437
  0
LINE
  5
6FA
100
AcDbEntity
  8
0
100
AcDbLine
 62
7
  6
CONTINUOUS
 10
-3.675
 20
21.7
 11
2.325
 21
21.7
  0
LINE
  5
6FB
100
AcDbEntity
  8
RACCORDO
100
AcDbLine
 62
7
  6
CONTINUOUS
 10
7.575
 20
21.4
 11
6.5837268678
 21
22.3912731322
  0
LINE
  5
6FC
100
AcDbEntity
  8
RACCORDO
100
AcDbLine
 62
253
  6
CONTINUOUS
 10
7.579371834
 20
-24.2456323968
 11
7.575
 21
-24.2500042308
  0
LINE
  5
6FD
100
AcDbEntity
  8
RACCORDO
100
AcDbLine
 62
253
  6
CONTINUOUS
 10
7.8293676032
 20
-24.495628166
 11
7.8249957692
 21
-24.5
  0
LINE
  5
6FE
100
AcDbEntity
  8
RACCORDO
100
AcDbLine
 62
7
  6
CONTINUOUS
 10
7.4090245667
 20
-20.9917082642
 11
7.5715127091
 21
-20.9104703804
  0
LWPOLYLINE
  5
6FF
100
AcDbEntity
  8
RACCORDO
100
AcDbPolyline
 62
7
  6
CONTINUOUS
 90
11
 70
0
 10
-11.3249991391
 20
22.3996911987
 10
-11.3464883972
 20
22.3984737398
 10
-11.3679434461
 20
22.396327304
 10
-11.389323887
 20
22.3932510251
 10
-11.4106119114
 20
22.3892409661
 10
-11.4317435211
 20
22.3843026901
 10
-11.4526108967
 20
22.3784610765
 10
-11.4731597008
 20
22.3717368058
 10
-11.4933694928
 20
22.3641420636
 10
-11.5131874588
 20
22.3557023577
 10
-11.5310370741
 20
22.3472138017
  0
LINE
  5
700
100
AcDbEntity
  8
RACCORDO
100
AcDbLine
 62
7
  6
CONTINUOUS
 10
-11.325
 20
22.399689968
 11
-11.3210883071
 21
22.3998124433
  0
LINE
  5
701
100
AcDbEntity
  8
RACCORDO
100
AcDbLine
 62
7
  6
CONTINUOUS
 10
-11.3210883071
 20
22.3998124433
 11
-11.3171758755
 21
22.3999043042
  0
LINE
  5
702
100
AcDbEntity
  8
RACCORDO
100
AcDbLine
 62
7
  6
CONTINUOUS
 10
-11.3171758755
 20
22.3999043042
 11
-11.3132627952
 21
22.399965549
  0
LINE
  5
703
100
AcDbEntity
  8
RACCORDO
100
AcDbLine
 62
7
  6
CONTINUOUS
 10
-11.3132627952
 20
22.399965549
 11
-11.3093494256
 21
22.3999961716
  0
LINE
  5
704
100
AcDbEntity
  8
RACCORDO
100
AcDbLine
 62
253
  6
CONTINUOUS
 10
6.6623448332
 20
22.3126551668
 11
2.325
 21
22.3126551668
  0
LINE
  5
705
100
AcDbEntity
  8
RACCORDO
100
AcDbLine
 62
253
  6
CONTINUOUS
 10
-3.675
 20
22.3126551668
 11
-8.0123448332
 21
22.3126551668
  0
LINE
  5
706
100
AcDbEntity
  8
RACCORDO
100
AcDbLine
 62
7
  6
CONTINUOUS
 10
9.9748476749
 20
22.3912731322
 11
6.5837268678
 21
22.3912731322
  0
LINE
  5
707
100
AcDbEntity
  8
DRAFT
100
AcDbLine
 62
7
  6
CONTINUOUS
 10
2.825
 20
22.3912731322
 11
2.325
 21
22.3912731322
  0
LINE
  5
708
100
AcDbEntity
  8
DRAFT
100
AcDbLine
 62
7
  6
CONTINUOUS
 10
-3.675
 20
22.3912731322
 11
-4.175
 21
22.3912731322
  0
LINE
  5
709
100
AcDbEntity
  8
RACCORDO
100
AcDbLine
 62
7
  6
CONTINUOUS
 10
-7.9337268678
 20
22.3912731322
 11
-11.3248476749
 21
22.3912731322
  0
LINE
  5
70A
100
AcDbEntity
  8
RACCORDO
100
AcDbLine
 62
7
  6
CONTINUOUS
 10
-11.3093494256
 20
22.3999961716
 11
-8.925
 21
22.4
  0
LINE
  5
70B
100
AcDbEntity
  8
DRAFT
100
AcDbLine
 62
7
  6
CONTINUOUS
 10
7.575
 20
22.4
 11
3.725
 21
22.4
  0
LINE
  5
70C
100
AcDbEntity
  8
DRAFT
100
AcDbLine
 62
7
  6
CONTINUOUS
 10
-5.075
 20
22.4
 11
-8.925
 21
22.4
  0
LINE
  5
70D
100
AcDbEntity
  8
RACCORDO
100
AcDbLine
 62
7
  6
CONTINUOUS
 10
-11.0757229979
 20
23.1226497308
 11
-9.1742770021
 21
23.1226497308
  0
LINE
  5
70E
100
AcDbEntity
  8
RACCORDO
100
AcDbLine
 62
7
  6
CONTINUOUS
 10
7.8242770021
 20
23.1226497308
 11
9.7257229979
 21
23.1226497308
  0
LINE
  5
70F
100
AcDbEntity
  8
RACCORDO
100
AcDbLine
 62
253
  6
CONTINUOUS
 10
7.8293676032
 20
23.6278312164
 11
9.7206323968
 21
23.6278312164
  0
LINE
  5
710
100
AcDbEntity
  8
RACCORDO
100
AcDbLine
 62
7
  6
CONTINUOUS
 10
-9.1793676032
 20
23.7
 11
-11.0706323968
 21
23.7
  0
LINE
  5
711
100
AcDbEntity
  8
ASSI
100
AcDbLine
 62
253
  6
CONTINUOUS
 10
3.6813493531
 20
23.7563493531
 11
2.825
 21
23.7563493531
  0
LINE
  5
712
100
AcDbEntity
  8
ASSI
100
AcDbLine
 62
253
  6
CONTINUOUS
 10
-4.175
 20
23.7563493531
 11
-5.0313493531
 21
23.7563493531
  0
LINE
  5
713
100
AcDbEntity
  8
DRAFT
100
AcDbLine
 62
7
  6
CONTINUOUS
 10
2.825
 20
23.7941821702
 11
-4.175
 21
23.7941821702
  0
LINE
  5
714
100
AcDbEntity
  8
DRAFT
100
AcDbLine
 62
7
  6
CONTINUOUS
 10
3.725
 20
23.8
 11
-5.075
 21
23.8
  0
LINE
  5
715
100
AcDbEntity
  8
RACCORDO
100
AcDbLine
 62
7
  6
CONTINUOUS
 10
7.575
 20
22.4
 11
9.9593494256
 21
22.3999961716
  0
LINE
  5
716
100
AcDbEntity
  8
RACCORDO
100
AcDbLine
 62
7
  6
CONTINUOUS
 10
9.9593494256
 20
22.3999961716
 11
9.9632627952
 21
22.399965549
  0
LINE
  5
717
100
AcDbEntity
  8
RACCORDO
100
AcDbLine
 62
7
  6
CONTINUOUS
 10
9.9632627952
 20
22.399965549
 11
9.9671758755
 21
22.3999043042
  0
LWPOLYLINE
  5
718
100
AcDbEntity
  8
RACCORDO
100
AcDbPolyline
 62
7
  6
CONTINUOUS
 90
34
 70
0
 10
-11.0706323968
 20
23.7
 10
-11.0836568719
 20
23.7002535774
 10
-11.0965864441
 20
23.7008789762
 10
-11.1093870425
 20
23.7018761963
 10
-11.1220370996
 20
23.7032578617
 10
-11.1344932499
 20
23.7050113484
 10
-11.1466917635
 20
23.7070987849
 10
-11.1585923857
 20
23.7095212536
 10
-11.1701827847
 20
23.7122776721
 10
-11.1814447697
 20
23.7153269215
 10
-11.1923559423
 20
23.7186694804
 10
-11.202896047
 20
23.7223048703
 10
-11.2130519403
 20
23.7261905362
 10
-11.2228060819
 20
23.7303265244
 10
-11.2321427969
 20
23.7347127887
 10
-11.2410531313
 20
23.739306636
 10
-11.2495239743
 20
23.7441078614
 10
-11.2575437065
 20
23.7491166698
 10
-11.26510661
 20
23.7542909833
 10
-11.2722035023
 20
23.7596304659
 10
-11.2788264114
 20
23.7651354536
 10
-11.2849721553
 20
23.7707648756
 10
-11.2906350363
 20
23.7765183262
 10
-11.2958103935
 20
23.7823962112
 10
-11.3004971716
 20
23.7883586777
 10
-11.3046927965
 20
23.794405262
 10
-11.3083956467
 20
23.8005364279
 10
-11.3116066239
 20
23.8067137129
 10
-11.3143259908
 20
23.8129365718
 10
-11.3165549373
 20
23.8192055499
 10
-11.3182963
 20
23.8254838211
 10
-11.3195530388
 20
23.8317591101
 10
-11.3203287436
 20
23.8380436921
 10
-11.320628166
 20
23.8443375673
  0
LINE
  5
719
100
AcDbEntity
  8
RACCORDO
100
AcDbLine
 62
7
  6
CONTINUOUS
 10
9.9671758755
 20
22.3999043042
 11
9.9710883071
 21
22.3998124433
  0
LINE
  5
71A
100
AcDbEntity
  8
RACCORDO
100
AcDbLine
 62
7
  6
CONTINUOUS
 10
9.9710883071
 20
22.3998124433
 11
9.975
 21
22.399689968
  0
LINE
  5
71B
100
AcDbEntity
  8
RACCORDO
100
AcDbLine
 62
7
  6
CONTINUOUS
 10
7.4090245667
 20
20.9917082642
 11
7.5715127091
 21
20.9104703804
  0
LINE
  5
71C
100
AcDbEntity
  8
RACCORDO
100
AcDbLine
 62
253
  6
CONTINUOUS
 10
7.579371834
 20
24.2456323968
 11
7.575
 21
24.2500042308
  0
LINE
  5
71D
100
AcDbEntity
  8
RACCORDO
100
AcDbLine
 62
253
  6
CONTINUOUS
 10
7.8293676032
 20
24.495628166
 11
7.8249957692
 21
24.5
  0
LINE
  5
71E
100
AcDbEntity
  8
RACCORDO
100
AcDbLine
 62
253
  6
CONTINUOUS
 10
9.9748476749
 20
-22.3912731322
 11
9.9573926099
 21
-22.4
  0
LINE
  5
71F
100
AcDbEntity
  8
RACCORDO
100
AcDbLine
 62
253
  6
CONTINUOUS
 10
7.579371834
 20
23.8443375673
 11
9.970628166
 21
23.8443375673
  0
LINE
  5
720
100
AcDbEntity
  8
RACCORDO
100
AcDbLine
 62
253
  6
CONTINUOUS
 10
7.579371834
 20
24.2456323968
 11
9.970628166
 21
24.2456323968
  0
LINE
  5
721
100
AcDbEntity
  8
RACCORDO
100
AcDbLine
 62
253
  6
CONTINUOUS
 10
-8.929371834
 20
24.2456323968
 11
-11.320628166
 21
24.2456323968
  0
LINE
  5
722
100
AcDbEntity
  8
RACCORDO
100
AcDbLine
 62
253
  6
CONTINUOUS
 10
9.7206323968
 20
24.495628166
 11
7.8293676032
 21
24.495628166
  0
LINE
  5
723
100
AcDbEntity
  8
RACCORDO
100
AcDbLine
 62
253
  6
CONTINUOUS
 10
-9.1793676032
 20
24.495628166
 11
-11.0706323968
 21
24.495628166
  0
LINE
  5
724
100
AcDbEntity
  8
RACCORDO
100
AcDbLine
 62
7
  6
CONTINUOUS
 10
9.7250042308
 20
24.5
 11
7.8249957692
 21
24.5
  0
LINE
  5
725
100
AcDbEntity
  8
RACCORDO
100
AcDbLine
 62
7
  6
CONTINUOUS
 10
-9.1749957692
 20
24.5
 11
-11.0750042308
 21
24.5
  0
LWPOLYLINE
  5
726
100
AcDbEntity
  8
RACCORDO
100
AcDbPolyline
 62
7
  6
CONTINUOUS
 90
34
 70
0
 10
-9.1749957692
 20
24.5
 10
-9.163100484
 20
24.4997168498
 10
-9.1512321444
 20
24.4988680342
 10
-9.1394176339
 20
24.4974554741
 10
-9.1276837125
 20
24.4954823677
 10
-9.1160569612
 20
24.4929531817
 10
-9.104563721
 20
24.4898736417
 10
-9.0932300262
 20
24.4862507213
 10
-9.0820815507
 20
24.4820926258
 10
-9.0711435537
 20
24.4774087722
 10
-9.0604408124
 20
24.4722097688
 10
-9.0499975717
 20
24.4665073916
 10
-9.0398374941
 20
24.4603145581
 10
-9.0299835949
 20
24.4536452955
 10
-9.0204581962
 20
24.4465147107
 10
-9.0112828809
 20
24.4389389589
 10
-9.0024784339
 20
24.4309352005
 10
-8.9940647995
 20
24.4225215661
 10
-8.9860610411
 20
24.4137171191
 10
-8.9784852893
 20
24.4045418038
 10
-8.9713547045
 20
24.3950164051
 10
-8.9646854419
 20
24.3851625059
 10
-8.9584926084
 20
24.3750024283
 10
-8.9527902312
 20
24.3645591876
 10
-8.9475912278
 20
24.3538564463
 10
-8.9429073742
 20
24.3429184493
 10
-8.9387492787
 20
24.3317699738
 10
-8.9351263583
 20
24.320436279
 10
-8.9320468183
 20
24.3089430388
 10
-8.9295176323
 20
24.2973162875
 10
-8.9275445259
 20
24.2855823661
 10
-8.9261319658
 20
24.2737678556
 10
-8.9252831502
 20
24.261899516
 10
-8.925
 20
24.2500042308
  0
LWPOLYLINE
  5
727
100
AcDbEntity
  8
RACCORDO
100
AcDbPolyline
 62
7
  6
CONTINUOUS
 90
34
 70
0
 10
9.7250042308
 20
24.5
 10
9.736899516
 20
24.4997168498
 10
9.7487678556
 20
24.4988680342
 10
9.7605823661
 20
24.4974554741
 10
9.7723162875
 20
24.4954823677
 10
9.7839430388
 20
24.4929531817
 10
9.795436279
 20
24.4898736417
 10
9.8067699738
 20
24.4862507213
 10
9.8179184493
 20
24.4820926258
 10
9.8288564463
 20
24.4774087722
 10
9.8395591876
 20
24.4722097688
 10
9.8500024283
 20
24.4665073916
 10
9.8601625059
 20
24.4603145581
 10
9.8700164051
 20
24.4536452955
 10
9.8795418038
 20
24.4465147107
 10
9.8887171191
 20
24.4389389589
 10
9.8975215661
 20
24.4309352005
 10
9.9059352005
 20
24.4225215661
 10
9.9139389589
 20
24.4137171191
 10
9.9215147107
 20
24.4045418038
 10
9.9286452955
 20
24.3950164051
 10
9.9353145581
 20
24.3851625059
 10
9.9415073916
 20
24.3750024283
 10
9.9472097688
 20
24.3645591876
 10
9.9524087722
 20
24.3538564463
 10
9.9570926258
 20
24.3429184493
 10
9.9612507213
 20
24.3317699738
 10
9.9648736417
 20
24.320436279
 10
9.9679531817
 20
24.3089430388
 10
9.9704823677
 20
24.2973162875
 10
9.9724554741
 20
24.2855823661
 10
9.9738680342
 20
24.2737678556
 10
9.9747168498
 20
24.261899516
 10
9.975
 20
24.2500042308
  0
LWPOLYLINE
  5
728
100
AcDbEntity
  8
RACCORDO
100
AcDbPolyline
 62
253
  6
CONTINUOUS
 90
31
 70
0
 10
-9.1793676032
 20
24.495628166
 10
-9.1662841172
 20
24.4952851274
 10
-9.1532364906
 20
24.4942578375
 10
-9.1402604845
 20
24.492549112
 10
-9.1273916636
 20
24.490163634
 10
-9.1146652991
 20
24.4871079418
 10
-9.1021162714
 20
24.4833904104
 10
-9.0897789751
 20
24.4790212289
 10
-9.0776872245
 20
24.4740123724
 10
-9.0658741607
 20
24.4683775693
 10
-9.0543721611
 20
24.4621322634
 10
-9.0432127506
 20
24.455293572
 10
-9.032426515
 20
24.4478802386
 10
-9.0220430174
 20
24.4399125818
 10
-9.0120907169
 20
24.4314124395
 10
-9.002596891
 20
24.422403109
 10
-8.9935875605
 20
24.4129092831
 10
-8.9850874182
 20
24.4029569826
 10
-8.9771197614
 20
24.392573485
 10
-8.969706428
 20
24.3817872494
 10
-8.9628677366
 20
24.3706278389
 10
-8.9566224307
 20
24.3591258393
 10
-8.9509876276
 20
24.3473127755
 10
-8.9459787711
 20
24.3352210249
 10
-8.9416095896
 20
24.3228837286
 10
-8.9378920582
 20
24.3103347009
 10
-8.934836366
 20
24.2976083364
 10
-8.932450888
 20
24.2847395155
 10
-8.9307421625
 20
24.2717635094
 10
-8.9297148726
 20
24.2587158828
 10
-8.929371834
 20
24.2456323968
  0
LWPOLYLINE
  5
729
100
AcDbEntity
  8
RACCORDO
100
AcDbPolyline
 62
253
  6
CONTINUOUS
 90
31
 70
0
 10
9.7206323968
 20
24.495628166
 10
9.7336847368
 20
24.4952867588
 10
9.7467096311
 20
24.4942634962
 10
9.7596714057
 20
24.492559892
 10
9.7725371245
 20
24.4901787618
 10
9.7852685897
 20
24.4871256484
 10
9.7978227742
 20
24.4834102087
 10
9.8101625782
 20
24.4790436576
 10
9.8222569343
 20
24.4740372277
 10
9.8340730125
 20
24.4684044791
 10
9.845578613
 20
24.4621606774
 10
9.8567419314
 20
24.4553229956
 10
9.8675320106
 20
24.4479103656
 10
9.8779191364
 20
24.4399432233
 10
9.8878749736
 20
24.4314433264
 10
9.897372308
 20
24.4224339046
 10
9.9063851271
 20
24.4129396114
 10
9.9148886687
 20
24.402986508
 10
9.9228595768
 20
24.3926019187
 10
9.9302759837
 20
24.3818143284
 10
9.9371175595
 20
24.3706533025
 10
9.9433655387
 20
24.3591494467
 10
9.9490027869
 20
24.347334301
 10
9.9540138424
 20
24.3352402638
 10
9.9583849575
 20
24.3229005077
 10
9.962104147
 20
24.3103488602
 10
9.9651612081
 20
24.2976197463
 10
9.9675477509
 20
24.2847481067
 10
9.969257234
 20
24.2717692492
 10
9.970284977
 20
24.2587187509
 10
9.970628166
 20
24.2456323968
  0
LWPOLYLINE
  5
72A
100
AcDbEntity
  8
RACCORDO
100
AcDbPolyline
 62
7
  6
CONTINUOUS
 90
11
 70
0
 10
10.1810370741
 20
22.3472138017
 10
10.1631874588
 20
22.3557023577
 10
10.1433694928
 20
22.3641420636
 10
10.1231597008
 20
22.3717368058
 10
10.1026108967
 20
22.3784610765
 10
10.0817435211
 20
22.3843026901
 10
10.0606119114
 20
22.3892409661
 10
10.039323887
 20
22.3932510251
 10
10.0179434461
 20
22.396327304
 10
9.9964883972
 20
22.3984737398
 10
9.9749991391
 20
22.3996911987
  0
LINE
  5
72B
100
AcDbEntity
  8
RACCORDO
100
AcDbLine
 62
253
  6
CONTINUOUS
 10
9.9573926099
 20
22.4
 11
9.9748476749
 21
22.3912731322
  0
ARC
  5
72C
100
AcDbEntity
  8
RACCORDO
100
AcDbCircle
 62
7
  6
CONTINUOUS
 10
-3.775
 20
-14.2
 40
0.3
100
AcDbArc
 50
90.0
 51
180.0
  0
ARC
  5
72D
100
AcDbEntity
  8
IMPORT_IGES
100
AcDbCircle
 62
7
  6
CONTINUOUS
 10
-8.375
 20
-9.7973364678
 40
0.3
100
AcDbArc
 50
180.0
 51
239.9999999385
  0
ARC
  5
72E
100
AcDbEntity
  8
IMPORT_IGES
100
AcDbCircle
 62
7
  6
CONTINUOUS
 10
-6.8981434405
 20
-10.65
 40
0.3
100
AcDbArc
 50
240.0
 51
269.9999986654
  0
ARC
  5
72F
100
AcDbEntity
  8
RACCORDO
100
AcDbCircle
 62
7
  6
CONTINUOUS
 10
-4.875
 20
-17.6
 40
0.3
100
AcDbArc
 50
90.0
 51
180.0
  0
ARC
  5
730
100
AcDbEntity
  8
IMPORT_IGES
100
AcDbCircle
 62
7
  6
CONTINUOUS
 10
-8.725
 20
-5.8
 40
0.2
100
AcDbArc
 50
180.0
 51
270.0
  0
ARC
  5
731
100
AcDbEntity
  8
IMPORT_IGES
100
AcDbCircle
 62
7
  6
CONTINUOUS
 10
-8.075
 20
-10.1437466293
 40
0.15
100
AcDbArc
 50
240.0000000005
 51
360.0
  0
ARC
  5
732
100
AcDbEntity
  8
IMPORT_IGES
100
AcDbCircle
 62
7
  6
CONTINUOUS
 10
-6.775
 20
-11.05
 40
0.1
100
AcDbArc
 50
0.0
 51
90.0000000002
  0
ARC
  5
733
100
AcDbEntity
  8
IMPORT_IGES
100
AcDbCircle
 62
7
  6
CONTINUOUS
 10
-6.575
 20
-11.05
 40
0.1
100
AcDbArc
 50
180.0
 51
269.9999999999
  0
ARC
  5
734
100
AcDbEntity
  8
IMPORT_IGES
100
AcDbCircle
 62
253
  6
CONTINUOUS
 10
-13.975
 20
8.5866773029
 40
9.5
100
AcDbArc
 50
350.075536608
 51
354.9043096238
  0
ARC
  5
735
100
AcDbEntity
  8
IMPORT_IGES
100
AcDbCircle
 62
7
  6
CONTINUOUS
 10
-13.975
 20
8.5866773029
 40
9.3
100
AcDbArc
 50
350.075536608
 51
0.0000995008
  0
ARC
  5
736
100
AcDbEntity
  8
IMPORT_IGES
100
AcDbCircle
 62
7
  6
CONTINUOUS
 10
-8.375
 20
9.8287960079
 40
0.3
100
AcDbArc
 50
135.0
 51
180.0
  0
ARC
  5
737
100
AcDbEntity
  8
IMPORT_IGES
100
AcDbCircle
 62
253
  6
CONTINUOUS
 10
-7.825
 20
6.2454966127
 40
0.3
100
AcDbArc
 50
89.9999999702
 51
180.0
  0
ARC
  5
738
100
AcDbEntity
  8
IMPORT_IGES
100
AcDbCircle
 62
7
  6
CONTINUOUS
 10
-8.175
 20
10.1702173642
 40
0.2
100
AcDbArc
 50
0.0
 51
135.0
  0
ARC
  5
739
100
AcDbEntity
  8
IMPORT_IGES
100
AcDbCircle
 62
7
  6
CONTINUOUS
 10
-8.725
 20
5.5
 40
0.2
100
AcDbArc
 50
90.0
 51
180.0
  0
ARC
  5
73A
100
AcDbEntity
  8
IMPORT_IGES
100
AcDbCircle
 62
7
  6
CONTINUOUS
 10
-7.825
 20
6.2454966127
 40
0.1
100
AcDbArc
 50
90.0
 51
180.0
  0
ARC
  5
73B
100
AcDbEntity
  8
IMPORT_IGES
100
AcDbCircle
 62
253
  6
CONTINUOUS
 10
-4.675
 20
-3.0795167894
 40
0.7
100
AcDbArc
 50
179.9999999965
 51
215.9375747936
  0
ARC
  5
73C
100
AcDbEntity
  8
IMPORT_IGES
100
AcDbCircle
 62
7
  6
CONTINUOUS
 10
-4.675
 20
-3.0795167894
 40
0.5
100
AcDbArc
 50
180.0
 51
215.9375747936
  0
ARC
  5
73D
100
AcDbEntity
  8
IMPORT_IGES
100
AcDbCircle
 62
7
  6
CONTINUOUS
 10
-5.4763909921
 20
-1.6487979633
 40
0.3
100
AcDbArc
 50
108.44
 51
215.0179256243
  0
ARC
  5
73E
100
AcDbEntity
  8
IMPORT_IGES
100
AcDbCircle
 62
7
  6
CONTINUOUS
 10
-4.5964927418
 20
-1.25
 40
0.2
100
AcDbArc
 50
90.004639687
 51
108.4444467357
  0
ARC
  5
73F
100
AcDbEntity
  8
IMPORT_IGES
100
AcDbCircle
 62
7
  6
CONTINUOUS
 10
-4.2735299398
 20
-1.15
 40
0.1
100
AcDbArc
 50
38.5293547025
 51
90.0
  0
ARC
  5
740
100
AcDbEntity
  8
IMPORT_IGES
100
AcDbCircle
 62
253
  6
CONTINUOUS
 10
-5.4763909921
 20
-1.6487979633
 40
0.1
100
AcDbArc
 50
108.44
 51
215.017925624
  0
ARC
  5
741
100
AcDbEntity
  8
IMPORT_IGES
100
AcDbCircle
 62
7
  6
CONTINUOUS
 10
-5.275
 20
-0.155
 40
0.1
100
AcDbArc
 50
0.0
 51
90.0
  0
ARC
  5
742
100
AcDbEntity
  8
IMPORT_IGES
100
AcDbCircle
 62
253
  6
CONTINUOUS
 10
-5.0581372518
 20
3.1299131308
 40
0.5
100
AcDbArc
 50
194.7202486515
 51
270.0
  0
ARC
  5
743
100
AcDbEntity
  8
IMPORT_IGES
100
AcDbCircle
 62
7
  6
CONTINUOUS
 10
-5.345682221
 20
3.2299131308
 40
0.3
100
AcDbArc
 50
157.4921045906
 51
270.0
  0
ARC
  5
744
100
AcDbEntity
  8
IMPORT_IGES
100
AcDbCircle
 62
7
  6
CONTINUOUS
 10
-4.3098166623
 20
3.1299131308
 40
0.2
100
AcDbArc
 50
270.0
 51
320.6570544487
  0
ARC
  5
745
100
AcDbEntity
  8
IMPORT_IGES
100
AcDbCircle
 62
7
  6
CONTINUOUS
 10
-5.0167168337
 20
1.67
 40
0.1
100
AcDbArc
 50
270.0
 51
340.7087621527
  0
ARC
  5
746
100
AcDbEntity
  8
IMPORT_IGES
100
AcDbCircle
 62
253
  6
CONTINUOUS
 10
-5.345682221
 20
3.2299131308
 40
0.1
100
AcDbArc
 50
157.4921045905
 51
270.0
  0
ARC
  5
747
100
AcDbEntity
  8
IMPORT_IGES
100
AcDbCircle
 62
7
  6
CONTINUOUS
 10
-1.575
 20
3.85
 40
0.3
100
AcDbArc
 50
270.0
 51
360.0
  0
ARC
  5
748
100
AcDbEntity
  8
IMPORT_IGES
100
AcDbCircle
 62
7
  6
CONTINUOUS
 10
-7.175
 20
6.7454966127
 40
1.5
100
AcDbArc
 50
0.0
 51
90.0
  0
ARC
  5
749
100
AcDbEntity
  8
IMPORT_IGES
100
AcDbCircle
 62
7
  6
CONTINUOUS
 10
-7.3150078903
 20
6.885504503
 40
1.3599921097
100
AcDbArc
 50
90.0
 51
180.0
  0
ARC
  5
74A
100
AcDbEntity
  8
IMPORT_IGES
100
AcDbCircle
 62
253
  6
CONTINUOUS
 10
-7.175
 20
6.7454966127
 40
1.2
100
AcDbArc
 50
0.0
 51
90.0
  0
ARC
  5
74B
100
AcDbEntity
  8
IMPORT_IGES
100
AcDbCircle
 62
253
  6
CONTINUOUS
 10
-7.3150078903
 20
6.885504503
 40
1.0599921097
100
AcDbArc
 50
90.0
 51
179.9997725319
  0
ARC
  5
74C
100
AcDbEntity
  8
IMPORT_IGES
100
AcDbCircle
 62
253
  6
CONTINUOUS
 10
-5.3066847105
 20
7.07
 40
0.7
100
AcDbArc
 50
269.9999999664
 51
350.075536608
  0
ARC
  5
74D
100
AcDbEntity
  8
IMPORT_IGES
100
AcDbCircle
 62
7
  6
CONTINUOUS
 10
-5.3066847105
 20
7.07
 40
0.5
100
AcDbArc
 50
270.0
 51
350.0755366107
  0
ARC
  5
74E
100
AcDbEntity
  8
IMPORT_IGES
100
AcDbCircle
 62
253
  6
CONTINUOUS
 10
-7.725
 20
4.925
 40
0.4
100
AcDbArc
 50
262.3006681232
 51
270.0
  0
ARC
  5
74F
100
AcDbEntity
  8
IMPORT_IGES
100
AcDbCircle
 62
253
  6
CONTINUOUS
 10
-6.625
 20
4.925
 40
0.4
100
AcDbArc
 50
270.0
 51
277.6993299464
  0
ARC
  5
750
100
AcDbEntity
  8
IMPORT_IGES
100
AcDbCircle
 62
7
  6
CONTINUOUS
 10
-7.5537960079
 20
10.65
 40
0.3
100
AcDbArc
 50
90.0
 51
135.0
  0
ARC
  5
751
100
AcDbEntity
  8
IMPORT_IGES
100
AcDbCircle
 62
253
  6
CONTINUOUS
 10
-6.525
 20
6.2454966127
 40
0.3
100
AcDbArc
 50
0.0
 51
90.0
  0
ARC
  5
752
100
AcDbEntity
  8
IMPORT_IGES
100
AcDbCircle
 62
7
  6
CONTINUOUS
 10
-4.475
 20
10.75
 40
0.2
100
AcDbArc
 50
90.0
 51
179.9999999999
  0
ARC
  5
753
100
AcDbEntity
  8
IMPORT_IGES
100
AcDbCircle
 62
7
  6
CONTINUOUS
 10
-7.725
 20
4.925
 40
0.2
100
AcDbArc
 50
180.0
 51
270.0
  0
ARC
  5
754
100
AcDbEntity
  8
IMPORT_IGES
100
AcDbCircle
 62
7
  6
CONTINUOUS
 10
-6.625
 20
4.925
 40
0.2
100
AcDbArc
 50
270.0
 51
359.9999986209
  0
ARC
  5
755
100
AcDbEntity
  8
IMPORT_IGES
100
AcDbCircle
 62
7
  6
CONTINUOUS
 10
-7.075
 20
11.05
 40
0.1
100
AcDbArc
 50
90.0000000001
 51
180.0
  0
ARC
  5
756
100
AcDbEntity
  8
IMPORT_IGES
100
AcDbCircle
 62
7
  6
CONTINUOUS
 10
-7.275
 20
11.05
 40
0.1
100
AcDbArc
 50
270.0000000001
 51
360.0
  0
ARC
  5
757
100
AcDbEntity
  8
IMPORT_IGES
100
AcDbCircle
 62
7
  6
CONTINUOUS
 10
-6.525
 20
6.2454966127
 40
0.1
100
AcDbArc
 50
0.0
 51
90.0
  0
ARC
  5
758
100
AcDbEntity
  8
RACCORDO
100
AcDbCircle
 62
7
  6
CONTINUOUS
 10
2.425
 20
-14.2
 40
0.3
100
AcDbArc
 50
0.0
 51
90.0
  0
ARC
  5
759
100
AcDbEntity
  8
IMPORT_IGES
100
AcDbCircle
 62
7
  6
CONTINUOUS
 10
5.5481434405
 20
-10.65
 40
0.3
100
AcDbArc
 50
270.0000004639
 51
300.0
  0
ARC
  5
75A
100
AcDbEntity
  8
IMPORT_IGES
100
AcDbCircle
 62
7
  6
CONTINUOUS
 10
7.025
 20
-9.7973364678
 40
0.3
100
AcDbArc
 50
300.0
 51
360.0
  0
ARC
  5
75B
100
AcDbEntity
  8
RACCORDO
100
AcDbCircle
 62
7
  6
CONTINUOUS
 10
3.525
 20
-17.6
 40
0.3
100
AcDbArc
 50
0.0
 51
90.0
  0
ARC
  5
75C
100
AcDbEntity
  8
IMPORT_IGES
100
AcDbCircle
 62
7
  6
CONTINUOUS
 10
7.375
 20
-5.8
 40
0.2
100
AcDbArc
 50
270.0
 51
360.0
  0
ARC
  5
75D
100
AcDbEntity
  8
IMPORT_IGES
100
AcDbCircle
 62
7
  6
CONTINUOUS
 10
6.725
 20
-10.1437466293
 40
0.15
100
AcDbArc
 50
180.0
 51
300.0000002121
  0
ARC
  5
75E
100
AcDbEntity
  8
IMPORT_IGES
100
AcDbCircle
 62
7
  6
CONTINUOUS
 10
5.425
 20
-11.05
 40
0.1
100
AcDbArc
 50
90.0
 51
180.0
  0
ARC
  5
75F
100
AcDbEntity
  8
IMPORT_IGES
100
AcDbCircle
 62
7
  6
CONTINUOUS
 10
5.225
 20
-11.05
 40
0.1
100
AcDbArc
 50
270.0
 51
360.0
  0
ARC
  5
760
100
AcDbEntity
  8
IMPORT_IGES
100
AcDbCircle
 62
253
  6
CONTINUOUS
 10
-0.675
 20
-0.18
 40
5.6403641174
100
AcDbArc
 50
215.9375747936
 51
324.0624252064
  0
ARC
  5
761
100
AcDbEntity
  8
IMPORT_IGES
100
AcDbCircle
 62
7
  6
CONTINUOUS
 10
-0.675
 20
-0.18
 40
5.4403641174
100
AcDbArc
 50
215.9375747936
 51
324.0624252064
  0
ARC
  5
762
100
AcDbEntity
  8
IMPORT_IGES
100
AcDbCircle
 62
253
  6
CONTINUOUS
 10
-0.675
 20
0.1502977476
 40
4.7
100
AcDbArc
 50
39.342945551
 51
140.6570544487
  0
ARC
  5
763
100
AcDbEntity
  8
IMPORT_IGES
100
AcDbCircle
 62
253
  6
CONTINUOUS
 10
-0.675
 20
0.1502977476
 40
4.7
100
AcDbArc
 50
24.3078218659
 51
31.8418407932
  0
ARC
  5
764
100
AcDbEntity
  8
IMPORT_IGES
100
AcDbCircle
 62
253
  6
CONTINUOUS
 10
-0.675
 20
0.1502977476
 40
4.7
100
AcDbArc
 50
148.1580979981
 51
155.6921781342
  0
ARC
  5
765
100
AcDbEntity
  8
IMPORT_IGES
100
AcDbCircle
 62
7
  6
CONTINUOUS
 10
-0.675
 20
0.1502977476
 40
4.5
100
AcDbArc
 50
19.2912378469
 51
160.7087621531
  0
ARC
  5
766
100
AcDbEntity
  8
IMPORT_IGES
100
AcDbCircle
 62
7
  6
CONTINUOUS
 10
-0.675
 20
1.7154113618
 40
6.1627007294
100
AcDbArc
 50
215.0179256243
 51
324.9820743757
  0
ARC
  5
767
100
AcDbEntity
  8
IMPORT_IGES
100
AcDbCircle
 62
253
  6
CONTINUOUS
 10
-0.675
 20
1.7154113618
 40
5.9627007294
100
AcDbArc
 50
215.0179256243
 51
324.9820743757
  0
ARC
  5
768
100
AcDbEntity
  8
IMPORT_IGES
100
AcDbCircle
 62
7
  6
CONTINUOUS
 10
-0.675
 20
1.2944991137
 40
5.355798634
100
AcDbArc
 50
22.5078954094
 51
157.4921045906
  0
ARC
  5
769
100
AcDbEntity
  8
IMPORT_IGES
100
AcDbCircle
 62
253
  6
CONTINUOUS
 10
-0.675
 20
1.2944991137
 40
5.155798634
100
AcDbArc
 50
22.5078954094
 51
157.4921045906
  0
ARC
  5
76A
100
AcDbEntity
  8
IMPORT_IGES
100
AcDbCircle
 62
253
  6
CONTINUOUS
 10
-0.675
 20
1.7154113618
 40
4.6
100
AcDbArc
 50
220.1396933072
 51
319.8603057122
  0
ARC
  5
76B
100
AcDbEntity
  8
IMPORT_IGES
100
AcDbCircle
 62
7
  6
CONTINUOUS
 10
-0.675
 20
1.7154113618
 40
4.5
100
AcDbArc
 50
218.529354704
 51
321.4706452959
  0
ARC
  5
76C
100
AcDbEntity
  8
IMPORT_IGES
100
AcDbCircle
 62
7
  6
CONTINUOUS
 10
0.225
 20
3.85
 40
0.3
100
AcDbArc
 50
180.0
 51
270.0
  0
ARC
  5
76D
100
AcDbEntity
  8
IMPORT_IGES
100
AcDbCircle
 62
253
  6
CONTINUOUS
 10
3.325
 20
-3.0795167894
 40
0.7
100
AcDbArc
 50
324.0624252064
 51
360.0
  0
ARC
  5
76E
100
AcDbEntity
  8
IMPORT_IGES
100
AcDbCircle
 62
7
  6
CONTINUOUS
 10
3.325
 20
-3.0795167894
 40
0.5
100
AcDbArc
 50
324.0624252064
 51
360.0
  0
ARC
  5
76F
100
AcDbEntity
  8
IMPORT_IGES
100
AcDbCircle
 62
7
  6
CONTINUOUS
 10
4.1263909921
 20
-1.6487979633
 40
0.3
100
AcDbArc
 50
324.9820743757
 51
71.5599999999
  0
ARC
  5
770
100
AcDbEntity
  8
IMPORT_IGES
100
AcDbCircle
 62
7
  6
CONTINUOUS
 10
3.2464927418
 20
-1.25
 40
0.2
100
AcDbArc
 50
71.56
 51
90.0
  0
ARC
  5
771
100
AcDbEntity
  8
IMPORT_IGES
100
AcDbCircle
 62
7
  6
CONTINUOUS
 10
2.9235299398
 20
-1.15
 40
0.1
100
AcDbArc
 50
90.0
 51
141.470645314
  0
ARC
  5
772
100
AcDbEntity
  8
IMPORT_IGES
100
AcDbCircle
 62
253
  6
CONTINUOUS
 10
4.1263909921
 20
-1.6487979633
 40
0.1
100
AcDbArc
 50
324.9820743757
 51
71.5599999998
  0
ARC
  5
773
100
AcDbEntity
  8
IMPORT_IGES
100
AcDbCircle
 62
7
  6
CONTINUOUS
 10
3.925
 20
-0.155
 40
0.1
100
AcDbArc
 50
90.0
 51
180.0
  0
ARC
  5
774
100
AcDbEntity
  8
IMPORT_IGES
100
AcDbCircle
 62
253
  6
CONTINUOUS
 10
3.7081372518
 20
3.1299131308
 40
0.5
100
AcDbArc
 50
270.0000000802
 51
345.3357573209
  0
ARC
  5
775
100
AcDbEntity
  8
IMPORT_IGES
100
AcDbCircle
 62
7
  6
CONTINUOUS
 10
3.995682221
 20
3.2299131308
 40
0.3
100
AcDbArc
 50
270.0
 51
22.5078953228
  0
ARC
  5
776
100
AcDbEntity
  8
IMPORT_IGES
100
AcDbCircle
 62
7
  6
CONTINUOUS
 10
2.9598166623
 20
3.1299131308
 40
0.2
100
AcDbArc
 50
219.3429458019
 51
270.0
  0
ARC
  5
777
100
AcDbEntity
  8
IMPORT_IGES
100
AcDbCircle
 62
7
  6
CONTINUOUS
 10
3.6667168337
 20
1.67
 40
0.1
100
AcDbArc
 50
199.2912378469
 51
270.0
  0
ARC
  5
778
100
AcDbEntity
  8
IMPORT_IGES
100
AcDbCircle
 62
253
  6
CONTINUOUS
 10
3.995682221
 20
3.2299131308
 40
0.1
100
AcDbArc
 50
270.0
 51
22.5078954098
  0
ARC
  5
779
100
AcDbEntity
  8
IMPORT_IGES
100
AcDbCircle
 62
7
  6
CONTINUOUS
 10
5.825
 20
6.7454966127
 40
1.5
100
AcDbArc
 50
90.0
 51
180.0
  0
ARC
  5
77A
100
AcDbEntity
  8
IMPORT_IGES
100
AcDbCircle
 62
7
  6
CONTINUOUS
 10
5.9650078903
 20
6.885504503
 40
1.3599921097
100
AcDbArc
 50
0.0
 51
90.0
  0
ARC
  5
77B
100
AcDbEntity
  8
IMPORT_IGES
100
AcDbCircle
 62
253
  6
CONTINUOUS
 10
5.825
 20
6.7454966127
 40
1.2
100
AcDbArc
 50
90.0
 51
180.0
  0
ARC
  5
77C
100
AcDbEntity
  8
IMPORT_IGES
100
AcDbCircle
 62
253
  6
CONTINUOUS
 10
5.9650078903
 20
6.885504503
 40
1.0599921097
100
AcDbArc
 50
0.00942879
 51
90.0
  0
ARC
  5
77D
100
AcDbEntity
  8
IMPORT_IGES
100
AcDbCircle
 62
253
  6
CONTINUOUS
 10
3.9566847105
 20
7.07
 40
0.7
100
AcDbArc
 50
189.924463392
 51
270.0
  0
ARC
  5
77E
100
AcDbEntity
  8
IMPORT_IGES
100
AcDbCircle
 62
7
  6
CONTINUOUS
 10
3.9566847105
 20
7.07
 40
0.5
100
AcDbArc
 50
189.924463392
 51
270.0
  0
ARC
  5
77F
100
AcDbEntity
  8
IMPORT_IGES
100
AcDbCircle
 62
253
  6
CONTINUOUS
 10
5.275
 20
4.925
 40
0.4
100
AcDbArc
 50
262.3006680647
 51
270.0
  0
ARC
  5
780
100
AcDbEntity
  8
IMPORT_IGES
100
AcDbCircle
 62
253
  6
CONTINUOUS
 10
5.175
 20
6.2454966127
 40
0.3
100
AcDbArc
 50
89.9999999702
 51
180.0
  0
ARC
  5
781
100
AcDbEntity
  8
IMPORT_IGES
100
AcDbCircle
 62
7
  6
CONTINUOUS
 10
3.125
 20
10.75
 40
0.2
100
AcDbArc
 50
0.0000081249
 51
90.0
  0
ARC
  5
782
100
AcDbEntity
  8
IMPORT_IGES
100
AcDbCircle
 62
7
  6
CONTINUOUS
 10
5.275
 20
4.925
 40
0.2
100
AcDbArc
 50
180.0
 51
270.0
  0
ARC
  5
783
100
AcDbEntity
  8
IMPORT_IGES
100
AcDbCircle
 62
7
  6
CONTINUOUS
 10
5.725
 20
11.05
 40
0.1
100
AcDbArc
 50
0.0
 51
89.9999999995
  0
ARC
  5
784
100
AcDbEntity
  8
IMPORT_IGES
100
AcDbCircle
 62
7
  6
CONTINUOUS
 10
5.925
 20
11.05
 40
0.1
100
AcDbArc
 50
180.0
 51
270.0
  0
ARC
  5
785
100
AcDbEntity
  8
IMPORT_IGES
100
AcDbCircle
 62
7
  6
CONTINUOUS
 10
5.175
 20
6.2454966127
 40
0.1
100
AcDbArc
 50
90.0
 51
180.0
  0
ARC
  5
786
100
AcDbEntity
  8
IMPORT_IGES
100
AcDbCircle
 62
253
  6
CONTINUOUS
 10
12.625
 20
8.5866773029
 40
9.5
100
AcDbArc
 50
185.0956903777
 51
189.924463392
  0
ARC
  5
787
100
AcDbEntity
  8
IMPORT_IGES
100
AcDbCircle
 62
7
  6
CONTINUOUS
 10
12.625
 20
8.5866773029
 40
9.3
100
AcDbArc
 50
180.000000701
 51
189.9244633923
  0
ARC
  5
788
100
AcDbEntity
  8
IMPORT_IGES
100
AcDbCircle
 62
253
  6
CONTINUOUS
 10
6.375
 20
4.925
 40
0.4
100
AcDbArc
 50
270.0
 51
277.6993299464
  0
ARC
  5
789
100
AcDbEntity
  8
IMPORT_IGES
100
AcDbCircle
 62
7
  6
CONTINUOUS
 10
6.2037960079
 20
10.65
 40
0.3
100
AcDbArc
 50
45.0
 51
89.9999090683
  0
ARC
  5
78A
100
AcDbEntity
  8
IMPORT_IGES
100
AcDbCircle
 62
7
  6
CONTINUOUS
 10
7.025
 20
9.8287960079
 40
0.3
100
AcDbArc
 50
0.0
 51
44.9999994543
  0
ARC
  5
78B
100
AcDbEntity
  8
IMPORT_IGES
100
AcDbCircle
 62
253
  6
CONTINUOUS
 10
6.475
 20
6.2454966127
 40
0.3
100
AcDbArc
 50
0.0
 51
90.0
  0
ARC
  5
78C
100
AcDbEntity
  8
IMPORT_IGES
100
AcDbCircle
 62
7
  6
CONTINUOUS
 10
6.825
 20
10.1702173642
 40
0.2
100
AcDbArc
 50
45.0
 51
179.9999990889
  0
ARC
  5
78D
100
AcDbEntity
  8
IMPORT_IGES
100
AcDbCircle
 62
7
  6
CONTINUOUS
 10
7.375
 20
5.5
 40
0.2
100
AcDbArc
 50
0.0
 51
90.0
  0
ARC
  5
78E
100
AcDbEntity
  8
IMPORT_IGES
100
AcDbCircle
 62
7
  6
CONTINUOUS
 10
6.375
 20
4.925
 40
0.2
100
AcDbArc
 50
270.0
 51
359.9999954613
  0
ARC
  5
78F
100
AcDbEntity
  8
IMPORT_IGES
100
AcDbCircle
 62
7
  6
CONTINUOUS
 10
6.475
 20
6.2454966127
 40
0.1
100
AcDbArc
 50
0.0
 51
90.0
  0
ELLIPSE
  5
790
100
AcDbEntity
  8
IMPORT_IGES
100
AcDbEllipse
 62
7
  6
CONTINUOUS
 10
-6.0976866561
 20
-9.2500290004
 30
0.0
 11
0.0
 21
2.0
 31
0.0
 40
0.0633224816
 41
-3.4571714601
 42
-3.1415926536
  0
ELLIPSE
  5
791
100
AcDbEntity
  8
IMPORT_IGES
100
AcDbEllipse
 62
7
  6
CONTINUOUS
 10
4.7476866561
 20
-9.2500290004
 30
0.0
 11
0.0
 21
2.0
 31
0.0
 40
0.0633224816
 41
-3.1415926536
 42
-2.8260139546
  0
ELLIPSE
  5
792
100
AcDbEntity
  8
IMPORT_IGES
100
AcDbEllipse
 62
7
  6
CONTINUOUS
 10
1.1298535023
 20
4.3372234626
 30
0.0
 11
0.1302818482
 21
0.6877693218
 31
0.0
 40
1.0
 41
-4.5251804518
 42
-3.5626297039
  0
ELLIPSE
  5
793
100
AcDbEntity
  8
IMPORT_IGES
100
AcDbEllipse
 62
7
  6
CONTINUOUS
 10
-2.4798535023
 20
4.3372234626
 30
0.0
 11
0.3456708834
 21
0.6086966735
 31
0.0
 40
1.0
 41
-2.0168748885
 42
-1.0543241407
  0
ELLIPSE
  5
794
100
AcDbEntity
  8
IMPORT_IGES
100
AcDbEllipse
 62
7
  6
CONTINUOUS
 10
1.9298535023
 20
3.5761904762
 30
0.0
 11
0.3
 21
-0.0
 31
0.0
 40
0.0158730159
 41
-1.5707963268
 42
0.0
  0
ELLIPSE
  5
795
100
AcDbEntity
  8
IMPORT_IGES
100
AcDbEllipse
 62
7
  6
CONTINUOUS
 10
-2.3798535023
 20
3.5761904762
 30
0.0
 11
0.3
 21
-0.0
 31
0.0
 40
0.0158730159
 41
-1.5707963268
 42
0.0
  0
ELLIPSE
  5
796
100
AcDbEntity
  8
IMPORT_IGES
100
AcDbEllipse
 62
7
  6
CONTINUOUS
 10
1.0298535023
 20
3.5761904762
 30
0.0
 11
0.3
 21
0.0
 31
0.0
 40
0.0158730159
 41
-3.1415926536
 42
-1.5707963268
  0
ELLIPSE
  5
797
100
AcDbEntity
  8
IMPORT_IGES
100
AcDbEllipse
 62
7
  6
CONTINUOUS
 10
-3.2798535023
 20
3.5761904762
 30
0.0
 11
0.3
 21
0.0
 31
0.0
 40
0.0158730159
 41
3.1415926536
 42
4.7123889804
  0
ELLIPSE
  5
798
100
AcDbEntity
  8
RACCORDO
100
AcDbEllipse
 62
7
  6
CONTINUOUS
 10
9.974923836
 20
21.891254093
 30
0.0
 11
0.4473055582
 21
-0.2236357461
 31
0.0
 40
0.9998096356
 41
6.7467263073
 42
8.3176749331
  0
ELLIPSE
  5
799
100
AcDbEntity
  8
RACCORDO
100
AcDbEllipse
 62
7
  6
CONTINUOUS
 10
5.8011468978
 20
-19.8
 30
0.0
 11
-0.0
 21
0.5
 31
0.0
 40
0.0058178298
 41
-1.5707963268
 42
0.0
  0
ELLIPSE
  5
79A
100
AcDbEntity
  8
ASSI
100
AcDbEllipse
 62
7
  6
CONTINUOUS
 10
3.6813662764
 20
-23.2563578147
 30
0.0
 11
0.0
 21
0.5
 31
0.0
 40
0.0058178298
 41
-3.2911896616
 42
-3.1474104178
  0
ELLIPSE
  5
79B
100
AcDbEntity
  8
ASSI
100
AcDbEllipse
 62
7
  6
CONTINUOUS
 10
-5.0313662764
 20
-23.2563578147
 30
0.0
 11
-0.0
 21
0.5
 31
0.0
 40
0.0058178298
 41
-3.1357748894
 42
-2.9919956456
  0
ELLIPSE
  5
79C
100
AcDbEntity
  8
ASSI
100
AcDbEllipse
 62
7
  6
CONTINUOUS
 10
-5.0313662764
 20
23.2563578147
 30
0.0
 11
0.0
 21
0.5
 31
0.0
 40
0.0058178298
 41
-0.149597008
 42
-0.0058177642
  0
ELLIPSE
  5
79D
100
AcDbEntity
  8
ASSI
100
AcDbEllipse
 62
7
  6
CONTINUOUS
 10
3.6813662764
 20
23.2563578147
 30
0.0
 11
0.0
 21
0.5
 31
0.0
 40
0.0058178298
 41
0.0058177642
 42
0.149597008
  0
ELLIPSE
  5
79E
100
AcDbEntity
  8
RACCORDO
100
AcDbEllipse
 62
7
  6
CONTINUOUS
 10
8.2553794106
 20
-11.5872686779
 30
0.0
 11
0.3
 21
0.0
 31
0.0
 40
0.0087268678
 41
-1.5707963268
 42
-0.3490658504
  0
ELLIPSE
  5
79F
100
AcDbEntity
  8
RACCORDO
100
AcDbEllipse
 62
7
  6
CONTINUOUS
 10
-4.875
 20
-19.9973819397
 30
0.0
 11
0.3
 21
-0.0
 31
0.0
 40
0.0087268678
 41
-3.1415926536
 42
-1.5707963268
  0
ELLIPSE
  5
7A0
100
AcDbEntity
  8
RACCORDO
100
AcDbEllipse
 62
7
  6
CONTINUOUS
 10
6.6488531022
 20
-19.8
 30
0.0
 11
0.0
 21
0.5
 31
0.0
 40
0.0058178298
 41
0.0
 42
1.5707963268
  0
ELLIPSE
  5
7A1
100
AcDbEntity
  8
RACCORDO
100
AcDbEllipse
 62
7
  6
CONTINUOUS
 10
-7.1511468978
 20
-19.8
 30
0.0
 11
0.0
 21
0.5
 31
0.0
 40
0.0058178298
 41
0.0
 42
1.5707963268
  0
ELLIPSE
  5
7A2
100
AcDbEntity
  8
RACCORDO
100
AcDbEllipse
 62
7
  6
CONTINUOUS
 10
-10.2534342338
 20
-19.8
 30
0.0
 11
-0.0
 21
0.5
 31
0.0
 40
0.0174550649
 41
-0.0
 42
1.5707963268
  0
ELLIPSE
  5
7A3
100
AcDbEntity
  8
RACCORDO
100
AcDbEllipse
 62
7
  6
CONTINUOUS
 10
-7.6749809608
 20
10.3999809608
 30
0.0
 11
0.3535803156
 21
-0.3535803156
 31
0.0
 40
0.9999238505
 41
2.4521733519
 42
3.8140248323
  0
ELLIPSE
  5
7A4
100
AcDbEntity
  8
RACCORDO
100
AcDbEllipse
 62
7
  6
CONTINUOUS
 10
6.3249809608
 20
10.3999809608
 30
0.0
 11
0.3535803156
 21
0.3535803156
 31
0.0
 40
0.9999238505
 41
-0.6724321788
 42
0.6894193015
  0
ELLIPSE
  5
7A5
100
AcDbEntity
  8
RACCORDO
100
AcDbEllipse
 62
7
  6
CONTINUOUS
 10
6.3249809608
 20
-13.3999809608
 30
0.0
 11
0.3535803156
 21
-0.3535803156
 31
0.0
 40
0.9999238505
 41
-0.7853600872
 42
0.7853600872
  0
ELLIPSE
  5
7A6
100
AcDbEntity
  8
RACCORDO
100
AcDbEllipse
 62
7
  6
CONTINUOUS
 10
-7.6749809608
 20
-13.3999809608
 30
0.0
 11
0.3535803156
 21
0.3535803156
 31
0.0
 40
0.9999238505
 41
2.3562325664
 42
3.9269527408
  0
ELLIPSE
  5
7A7
100
AcDbEntity
  8
RACCORDO
100
AcDbEllipse
 62
7
  6
CONTINUOUS
 10
-11.0749957691
 20
-23.4113248654
 30
0.0
 11
-0.0029088041
 21
0.2886641433
 31
0.0
 40
0.8660144118
 41
-0.0087264124
 42
1.5591610446
  0
ELLIPSE
  5
7A8
100
AcDbEntity
  8
RACCORDO
100
AcDbEllipse
 62
7
  6
CONTINUOUS
 10
-9.1750042309
 20
-23.4113248654
 30
0.0
 11
0.0029088041
 21
0.2886641433
 31
0.0
 40
0.8660144118
 41
-1.5591610446
 42
0.0087264124
  0
ELLIPSE
  5
7A9
100
AcDbEntity
  8
RACCORDO
100
AcDbEllipse
 62
7
  6
CONTINUOUS
 10
7.8250042309
 20
-23.4113248654
 30
0.0
 11
-0.0029088041
 21
0.2886641433
 31
0.0
 40
0.8660144118
 41
-0.0087264124
 42
1.5591610446
  0
ELLIPSE
  5
7AA
100
AcDbEntity
  8
RACCORDO
100
AcDbEllipse
 62
7
  6
CONTINUOUS
 10
8.2553794106
 20
-12.4127313221
 30
0.0
 11
0.3
 21
0.0
 31
0.0
 40
0.0087268678
 41
0.3490658504
 42
1.5707963268
  0
ELLIPSE
  5
7AB
100
AcDbEntity
  8
RACCORDO
100
AcDbEllipse
 62
7
  6
CONTINUOUS
 10
-9.6053794106
 20
-12.4127313221
 30
0.0
 11
0.3
 21
-0.0
 31
0.0
 40
0.0087268678
 41
1.5707963268
 42
2.7925268032
  0
ELLIPSE
  5
7AC
100
AcDbEntity
  8
RACCORDO
100
AcDbEllipse
 62
7
  6
CONTINUOUS
 10
8.2553794106
 20
8.8127313221
 30
0.0
 11
0.3
 21
0.0
 31
0.0
 40
0.0087268678
 41
-1.5707963268
 42
-0.3490658504
  0
ELLIPSE
  5
7AD
100
AcDbEntity
  8
RACCORDO
100
AcDbEllipse
 62
7
  6
CONTINUOUS
 10
-9.6053794106
 20
8.8127313221
 30
0.0
 11
0.3
 21
-0.0
 31
0.0
 40
0.0087268678
 41
-2.7925268032
 42
-1.5707963268
  0
ELLIPSE
  5
7AE
100
AcDbEntity
  8
RACCORDO
100
AcDbEllipse
 62
7
  6
CONTINUOUS
 10
9.7249957691
 20
-23.4113248654
 30
0.0
 11
0.0029088041
 21
0.2886641433
 31
0.0
 40
0.8660144118
 41
-1.5591610446
 42
0.0087264124
  0
ELLIPSE
  5
7AF
100
AcDbEntity
  8
RACCORDO
100
AcDbEllipse
 62
7
  6
CONTINUOUS
 10
-11.0749957691
 20
23.4113248654
 30
0.0
 11
0.0029088041
 21
0.2886641433
 31
0.0
 40
0.8660144118
 41
-4.7007536982
 42
-3.1328662411
  0
ELLIPSE
  5
7B0
100
AcDbEntity
  8
RACCORDO
100
AcDbEllipse
 62
7
  6
CONTINUOUS
 10
-7.4872642439
 20
-13.8127313221
 30
0.0
 11
0.3
 21
0.0
 31
0.0
 40
0.0087268678
 41
0.0174532925
 42
1.5707963268
  0
ELLIPSE
  5
7B1
100
AcDbEntity
  8
RACCORDO
100
AcDbEllipse
 62
7
  6
CONTINUOUS
 10
6.1372642439
 20
-13.8127313221
 30
0.0
 11
0.3
 21
-0.0
 31
0.0
 40
0.0087268678
 41
1.5707963268
 42
3.1241393611
  0
ELLIPSE
  5
7B2
100
AcDbEntity
  8
RACCORDO
100
AcDbEllipse
 62
7
  6
CONTINUOUS
 10
8.8458325195
 20
-15.2792978419
 30
0.0
 11
0.0
 21
0.5
 31
0.0
 40
0.0174550649
 41
-1.5707963268
 42
-0.0523598776
  0
ELLIPSE
  5
7B3
100
AcDbEntity
  8
RACCORDO
100
AcDbEllipse
 62
7
  6
CONTINUOUS
 10
-9.1750042309
 20
23.4113248654
 30
0.0
 11
-0.0029088041
 21
0.2886641433
 31
0.0
 40
0.8660144118
 41
-3.150319066
 42
-1.582431609
  0
ELLIPSE
  5
7B4
100
AcDbEntity
  8
RACCORDO
100
AcDbEllipse
 62
7
  6
CONTINUOUS
 10
-10.1958325195
 20
-15.2792978419
 30
0.0
 11
0.0
 21
0.5
 31
0.0
 40
0.0174550649
 41
0.0523598776
 42
1.5707963268
  0
ELLIPSE
  5
7B5
100
AcDbEntity
  8
RACCORDO
100
AcDbEllipse
 62
7
  6
CONTINUOUS
 10
8.2553794106
 20
-0.4127313221
 30
0.0
 11
0.3
 21
-0.0
 31
0.0
 40
0.0087268678
 41
0.3490658504
 42
1.5707963268
  0
ELLIPSE
  5
7B6
100
AcDbEntity
  8
RACCORDO
100
AcDbEllipse
 62
7
  6
CONTINUOUS
 10
8.2553794106
 20
0.4127313221
 30
0.0
 11
0.3
 21
0.0
 31
0.0
 40
0.0087268678
 41
-1.5707963268
 42
-0.3490658504
  0
ELLIPSE
  5
7B7
100
AcDbEntity
  8
RACCORDO
100
AcDbEllipse
 62
7
  6
CONTINUOUS
 10
-9.6053794106
 20
0.4127313221
 30
0.0
 11
0.3
 21
-0.0
 31
0.0
 40
0.0087268678
 41
-2.7925268032
 42
-1.5707963268
  0
ELLIPSE
  5
7B8
100
AcDbEntity
  8
RACCORDO
100
AcDbEllipse
 62
7
  6
CONTINUOUS
 10
-9.6053794106
 20
-0.4127313221
 30
0.0
 11
0.3
 21
-0.0
 31
0.0
 40
0.0087268678
 41
1.5707963268
 42
2.7925268032
  0
ELLIPSE
  5
7B9
100
AcDbEntity
  8
RACCORDO
100
AcDbEllipse
 62
7
  6
CONTINUOUS
 10
7.7377313221
 20
6.2872801014
 30
0.0
 11
-0.0
 21
0.3
 31
0.0
 40
0.0087268678
 41
-4.7123889804
 42
-3.1503192998
  0
ELLIPSE
  5
7BA
100
AcDbEntity
  8
RACCORDO
100
AcDbEllipse
 62
7
  6
CONTINUOUS
 10
7.8250042309
 20
23.4113248654
 30
0.0
 11
0.0029088041
 21
0.2886641433
 31
0.0
 40
0.8660144118
 41
-4.7007536982
 42
-3.1328662411
  0
ELLIPSE
  5
7BB
100
AcDbEntity
  8
RACCORDO
100
AcDbEllipse
 62
7
  6
CONTINUOUS
 10
8.2553794106
 20
-7.2872686779
 30
0.0
 11
0.3
 21
0.0
 31
0.0
 40
0.0087268678
 41
-1.5707963268
 42
-0.3490658504
  0
ELLIPSE
  5
7BC
100
AcDbEntity
  8
RACCORDO
100
AcDbEllipse
 62
7
  6
CONTINUOUS
 10
9.7249957691
 20
23.4113248654
 30
0.0
 11
-0.0029088041
 21
0.2886641433
 31
0.0
 40
0.8660144118
 41
-3.150319066
 42
-1.582431609
  0
ELLIPSE
  5
7BD
100
AcDbEntity
  8
RACCORDO
100
AcDbEllipse
 62
7
  6
CONTINUOUS
 10
-9.0877313221
 20
6.2872801014
 30
0.0
 11
0.0
 21
0.3
 31
0.0
 40
0.0087268678
 41
-3.1328660073
 42
-1.5707963268
  0
ELLIPSE
  5
7BE
100
AcDbEntity
  8
RACCORDO
100
AcDbEllipse
 62
7
  6
CONTINUOUS
 10
-9.6053794106
 20
-7.2872686779
 30
0.0
 11
0.3
 21
-0.0
 31
0.0
 40
0.0087268678
 41
-2.7925268032
 42
-1.5707963268
  0
ELLIPSE
  5
7BF
100
AcDbEntity
  8
RACCORDO
100
AcDbEllipse
 62
7
  6
CONTINUOUS
 10
-9.6053794106
 20
-11.5872686779
 30
0.0
 11
0.3
 21
-0.0
 31
0.0
 40
0.0087268678
 41
-2.7925268032
 42
-1.5707963268
  0
ELLIPSE
  5
7C0
100
AcDbEntity
  8
RACCORDO
100
AcDbEllipse
 62
7
  6
CONTINUOUS
 10
-8.2591007192
 20
-20.9916321118
 30
0.0
 11
0.5
 21
0.0
 31
0.0
 40
0.0087268678
 41
-3.1241393611
 42
-1.5707963268
  0
ELLIPSE
  5
7C1
100
AcDbEntity
  8
RACCORDO
100
AcDbEllipse
 62
7
  6
CONTINUOUS
 10
6.9091007192
 20
-20.9916321118
 30
0.0
 11
0.5
 21
-0.0
 31
0.0
 40
0.0087268678
 41
-1.5707963268
 42
-0.0174532925
  0
ELLIPSE
  5
7C2
100
AcDbEntity
  8
RACCORDO
100
AcDbEllipse
 62
7
  6
CONTINUOUS
 10
3.525
 20
-19.9973819397
 30
0.0
 11
0.3
 21
-0.0
 31
0.0
 40
0.0087268678
 41
-1.5707963268
 42
0.0
  0
ELLIPSE
  5
7C3
100
AcDbEntity
  8
RACCORDO
100
AcDbEllipse
 62
7
  6
CONTINUOUS
 10
-8.2591007192
 20
20.9916321118
 30
0.0
 11
0.5
 21
0.0
 31
0.0
 40
0.0087268678
 41
1.5707963268
 42
3.1241393611
  0
ELLIPSE
  5
7C4
100
AcDbEntity
  8
RACCORDO
100
AcDbEllipse
 62
7
  6
CONTINUOUS
 10
-7.9988531022
 20
-19.8
 30
0.0
 11
-0.0
 21
0.5
 31
0.0
 40
0.0058178298
 41
-1.5707963268
 42
0.0
  0
ELLIPSE
  5
7C5
100
AcDbEntity
  8
RACCORDO
100
AcDbEllipse
 62
7
  6
CONTINUOUS
 10
6.9091007192
 20
20.9916321118
 30
0.0
 11
0.5
 21
0.0
 31
0.0
 40
0.0087268678
 41
0.0174532925
 42
1.5707963268
  0
ELLIPSE
  5
7C6
100
AcDbEntity
  8
RACCORDO
100
AcDbEllipse
 62
7
  6
CONTINUOUS
 10
-7.2302693832
 20
-20.5829242832
 30
0.0
 11
0.0
 21
0.5
 31
0.0
 40
0.0058178298
 41
0.0087266463
 42
1.5707963268
  0
ELLIPSE
  5
7C7
100
AcDbEntity
  8
RACCORDO
100
AcDbEllipse
 62
7
  6
CONTINUOUS
 10
5.8802693832
 20
-20.5829242832
 30
0.0
 11
0.0
 21
0.5
 31
0.0
 40
0.0058178298
 41
-1.5707963268
 42
-0.0087266463
  0
ELLIPSE
  5
7C8
100
AcDbEntity
  8
RACCORDO
100
AcDbEllipse
 62
7
  6
CONTINUOUS
 10
5.8802693832
 20
20.5829242832
 30
0.0
 11
0.0
 21
0.5
 31
0.0
 40
0.0058178298
 41
-3.1328660073
 42
-1.5707963268
  0
ELLIPSE
  5
7C9
100
AcDbEntity
  8
RACCORDO
100
AcDbEllipse
 62
7
  6
CONTINUOUS
 10
-7.2302693832
 20
20.5829242832
 30
0.0
 11
0.0
 21
0.5
 31
0.0
 40
0.0058178298
 41
-4.7123889804
 42
-3.1503192998
  0
ELLIPSE
  5
7CA
100
AcDbEntity
  8
DRAFT
100
AcDbEllipse
 62
7
  6
CONTINUOUS
 10
-4.6029699877
 20
22.3339198952
 30
0.0
 11
0.4279699877
 21
0.0
 31
0.0
 40
0.0087268678
 41
-3.1357748894
 42
-0.0
  0
ELLIPSE
  5
7CB
100
AcDbEntity
  8
DRAFT
100
AcDbEllipse
 62
7
  6
CONTINUOUS
 10
3.2529699877
 20
22.3339198952
 30
0.0
 11
0.4279699877
 21
-0.0
 31
0.0
 40
0.0087268678
 41
-3.1415926536
 42
-0.0058177642
  0
ELLIPSE
  5
7CC
100
AcDbEntity
  8
DRAFT
100
AcDbEllipse
 62
7
  6
CONTINUOUS
 10
-4.6029699877
 20
-22.3339198952
 30
0.0
 11
0.4279699877
 21
0.0
 31
0.0
 40
0.0087268678
 41
-0.0
 42
3.1357748894
  0
ELLIPSE
  5
7CD
100
AcDbEntity
  8
DRAFT
100
AcDbEllipse
 62
7
  6
CONTINUOUS
 10
3.2529699877
 20
-22.3339198952
 30
0.0
 11
0.4279699877
 21
0.0
 31
0.0
 40
0.0087268678
 41
0.0058177642
 42
3.1415926536
  0
ELLIPSE
  5
7CE
100
AcDbEntity
  8
RACCORDO
100
AcDbEllipse
 62
7
  6
CONTINUOUS
 10
8.2553794106
 20
7.9872686779
 30
0.0
 11
0.3
 21
0.0
 31
0.0
 40
0.0087268678
 41
0.3490658504
 42
1.5707963268
  0
ELLIPSE
  5
7CF
100
AcDbEntity
  8
RACCORDO
100
AcDbEllipse
 62
7
  6
CONTINUOUS
 10
-9.6053794106
 20
7.9872686779
 30
0.0
 11
0.3
 21
-0.0
 31
0.0
 40
0.0087268678
 41
1.5707963268
 42
2.7925268032
  0
ELLIPSE
  5
7D0
100
AcDbEntity
  8
RACCORDO
100
AcDbEllipse
 62
7
  6
CONTINUOUS
 10
-6.8749543016
 20
-13.5000456984
 30
0.0
 11
0.2121966568
 21
-0.2121966568
 31
0.0
 40
0.9996954599
 41
2.3563467834
 42
3.9268385237
  0
ELLIPSE
  5
7D1
100
AcDbEntity
  8
RACCORDO
100
AcDbEllipse
 62
7
  6
CONTINUOUS
 10
5.5249543016
 20
-13.5000456984
 30
0.0
 11
-0.2121966568
 21
-0.2121966568
 31
0.0
 40
0.9996954599
 41
2.3563467834
 42
3.9268385237
  0
ELLIPSE
  5
7D2
100
AcDbEntity
  8
RACCORDO
100
AcDbEllipse
 62
7
  6
CONTINUOUS
 10
6.2350942226
 20
-13.3100942226
 30
0.0
 11
-0.3535803156
 21
0.3535803156
 31
0.0
 40
0.9999238505
 41
2.3562325664
 42
3.9269527408
  0
ELLIPSE
  5
7D3
100
AcDbEntity
  8
RACCORDO
100
AcDbEllipse
 62
7
  6
CONTINUOUS
 10
-11.324923836
 20
21.891254093
 30
0.0
 11
0.4473055582
 21
0.2236357461
 31
0.0
 40
0.9998096356
 41
1.1071030277
 42
2.6780516535
  0
ELLIPSE
  5
7D4
100
AcDbEntity
  8
RACCORDO
100
AcDbEllipse
 62
7
  6
CONTINUOUS
 10
-7.5850942226
 20
-13.3100942226
 30
0.0
 11
-0.3535803156
 21
-0.3535803156
 31
0.0
 40
0.9999238505
 41
-0.7853600872
 42
0.7853600872
  0
ELLIPSE
  5
7D5
100
AcDbEntity
  8
RACCORDO
100
AcDbEllipse
 62
7
  6
CONTINUOUS
 10
9.974923836
 20
-21.891254093
 30
0.0
 11
-0.4473055582
 21
-0.2236357461
 31
0.0
 40
0.9998096356
 41
1.1071030277
 42
2.6780516535
  0
ELLIPSE
  5
7D6
100
AcDbEntity
  8
RACCORDO
100
AcDbEllipse
 62
7
  6
CONTINUOUS
 10
8.9034342338
 20
-19.8
 30
0.0
 11
0.0
 21
0.5
 31
0.0
 40
0.0174550649
 41
-1.5707963268
 42
0.0
  0
ELLIPSE
  5
7D7
100
AcDbEntity
  8
RACCORDO
100
AcDbEllipse
 62
7
  6
CONTINUOUS
 10
8.4120856022
 20
-20.2106458216
 30
0.0
 11
-0.1582391023
 21
0.4751033573
 31
0.0
 40
0.9984778551
 41
2.8205423031
 42
4.3904252414
  0
ELLIPSE
  5
7D8
100
AcDbEntity
  8
RACCORDO
100
AcDbEllipse
 62
7
  6
CONTINUOUS
 10
8.474923836
 20
-20.399313827
 30
0.0
 11
-0.1582391023
 21
0.4751033573
 31
0.0
 40
0.9984778551
 41
-3.4626430041
 42
-1.8927600658
  0
ELLIPSE
  5
7D9
100
AcDbEntity
  8
RACCORDO
100
AcDbEllipse
 62
7
  6
CONTINUOUS
 10
8.474923836
 20
20.399313827
 30
0.0
 11
0.1582391023
 21
0.4751033573
 31
0.0
 40
0.9984778551
 41
-1.2488325878
 42
0.3210503505
  0
ELLIPSE
  5
7DA
100
AcDbEntity
  8
RACCORDO
100
AcDbEllipse
 62
7
  6
CONTINUOUS
 10
8.3195737581
 20
19.9328845914
 30
0.0
 11
-0.1582391023
 21
-0.4751033573
 31
0.0
 40
0.9984778551
 41
1.8927600658
 42
3.4626430041
  0
ELLIPSE
  5
7DB
100
AcDbEntity
  8
RACCORDO
100
AcDbEllipse
 62
7
  6
CONTINUOUS
 10
-9.6695737581
 20
19.9328845914
 30
0.0
 11
-0.1582391023
 21
0.4751033573
 31
0.0
 40
0.9984778551
 41
-0.3210503505
 42
1.2488325878
  0
ELLIPSE
  5
7DC
100
AcDbEntity
  8
RACCORDO
100
AcDbEllipse
 62
7
  6
CONTINUOUS
 10
-9.824923836
 20
20.399313827
 30
0.0
 11
-0.1582391023
 21
0.4751033573
 31
0.0
 40
0.9984778551
 41
-0.3210503505
 42
1.2488325878
  0
ELLIPSE
  5
7DD
100
AcDbEntity
  8
RACCORDO
100
AcDbEllipse
 62
7
  6
CONTINUOUS
 10
-9.824923836
 20
-20.399313827
 30
0.0
 11
0.1582391023
 21
0.4751033573
 31
0.0
 40
0.9984778551
 41
-4.3904252414
 42
-2.8205423031
  0
ELLIPSE
  5
7DE
100
AcDbEntity
  8
RACCORDO
100
AcDbEllipse
 62
7
  6
CONTINUOUS
 10
-9.7620856022
 20
-20.2106458216
 30
0.0
 11
-0.1582391023
 21
-0.4751033573
 31
0.0
 40
0.9984778551
 41
-1.2488325878
 42
0.3210503505
  0
ELLIPSE
  5
7DF
100
AcDbEntity
  8
RACCORDO
100
AcDbEllipse
 62
7
  6
CONTINUOUS
 10
-11.324923836
 20
-21.891254093
 30
0.0
 11
-0.4473055582
 21
0.2236357461
 31
0.0
 40
0.9998096356
 41
6.7467263073
 42
8.3176749331
  0
ENDSEC
  0
SECTION
  2
OBJECTS
  0
DICTIONARY
  5
C
100
AcDbDictionary
280
0
281
1
  3
ACAD_GROUP
350
D
  3
ACAD_MLINESTYLE
350
17
  3
ACAD_LAYOUT
350
1A
  3
ACAD_PLOTSETTINGS
350
19
  3
ACAD_PLOTSTYLENAME
350
E
  0
DICTIONARY
  5
D
102
{ACAD_REACTORS
330
C
102
}
100
AcDbDictionary
280
0
281
1
  0
ACDBDICTIONARYWDFLT
  5
E
102
{ACAD_REACTORS
330
C
102
}
100
AcDbDictionary
281
1
  3
Normal
350
F
100
AcDbDictionaryWithDefault
340
F
  0
DICTIONARY
  5
17
102
{ACAD_REACTORS
330
C
102
}
100
AcDbDictionary
280
0
281
1
  3
Standard
350
18
  0
DICTIONARY
  5
19
102
{ACAD_REACTORS
330
C
102
}
100
AcDbDictionary
281
1
  0
DICTIONARY
  5
1A
102
{ACAD_REACTORS
330
C
102
}
100
AcDbDictionary
281
1
  3
Model
350
7E0
  3
Layout1
350
7E1
  0
ACDBPLACEHOLDER
  5
F
102
{ACAD_REACTORS
330
E
102
}
  0
MLINESTYLE
  5
18
102
{ACAD_REACTORS
330
17
102
}
100
AcDbMlineStyle
  2
STANDARD
 70
0
  3

 62
256
 51
90.0
 52
90.0
 71
2
 49
0.5
 62
256
  6
BYLAYER
 49
-0.5
 62
256
  6
BYLAYER
  0
LAYOUT
  5
7E0
102
{ACAD_REACTORS
330
1A
102
}
100
AcDbPlotSettings
  1

  2
none_device
  4
ISO_A4_(297.00_x_210.00_MM)
  6

 40
0.0
 41
0.0
 42
0.0
 43
0.0
 44
297.0
 45
210.0
 46
0.0
 47
0.0
 48
0.0
 49
0.0
140
0.0
141
0.0
142
1.0
143
1.0
 70
1024
 72
1
 73
0
 74
0
  7

 75
0
147
1.0
148
0.0
149
0.0
100
AcDbLayout
  1
Model
 70
0
 71
0
 10
0.0
 20
0.0
 11
297.0
 21
210.0
 12
0.0
 22
0.0
 32
0.0
 14
0.0
 24
0.0
 34
0.0
 15
0.0
 25
0.0
 35
0.0
146
0.0
 13
0.0
 23
0.0
 33
0.0
 16
1.0
 26
0.0
 36
0.0
 17
0.0
 27
1.0
 37
0.0
 76
0
330
21D
345
0
346
0
  0
LAYOUT
  5
7E1
102
{ACAD_REACTORS
330
1A
102
}
100
AcDbPlotSettings
  1

  2
none_device
  4
ISO_A4_(297.00_x_210.00_MM)
  6

 40
0.0
 41
0.0
 42
0.0
 43
0.0
 44
297.0
 45
210.0
 46
0.0
 47
0.0
 48
0.0
 49
0.0
140
0.0
141
0.0
142
1.0
143
1.0
 70
0
 72
1
 73
0
 74
0
  7

 75
0
147
1.0
148
0.0
149
0.0
100
AcDbLayout
  1
Layout1
 70
0
 71
1
 10
0.0
 20
0.0
 11
297.0
 21
210.0
 12
0.0
 22
0.0
 32
0.0
 14
0.0
 24
0.0
 34
0.0
 15
0.0
 25
0.0
 35
0.0
146
0.0
 13
0.0
 23
0.0
 33
0.0
 16
1.0
 26
0.0
 36
0.0
 17
0.0
 27
1.0
 37
0.0
 76
0
330
21E
345
0
346
0
  0
ENDSEC
  0
EOF
